  0
SECTION
  2
HEADER
  9
$EXTMAX
 10
420.0
 20
297.0
 30
0.0
  9
$EXTMIN
 10
0.0
 20
0.0
 30
0.0
  9
$LIMMIN
 10
0.0
 20
0.0
  9
$LIMMAX
 10
420.0
 20
297.0
  9
$VIEWCTR
 10
210.0
 20
148.5
  9
$VIEWSIZE
 40
297.0
  9
$CLAYER
  8
0
  9
$LTSCALE
 40
23.1
  9
$CELTYPE
  6
BYLAYER
  9
$DIMSCALE
 40
1.0
  9
$DIMASZ
 40
3.5
  9
$DIMEXO
 40
2.625
  9
$DIMDLI
 40
15.96
  9
$DIMEXE
 40
7.56
  9
$DIMCEN
 40
3.78
  9
$DIMLFAC
 40
1.0
  9
$DIMBLK
  1
_FILLED
  9
$DIMTXT
 40
3.5
  9
$PDMODE
 70
3
  9
$PDSIZE
 40
0.3125
  9
$TILEMODE
 70
1
  0
ENDSEC
  0
SECTION
  2
TABLES
  0
TABLE
  2
LTYPE
 70
6
  0
LTYPE
  2
BYBLOCK
 70
0
  3

 72
65
 73
0
 40
0.0
  0
LTYPE
  2
BYLAYER
 70
0
  3

 72
65
 73
0
 40
0.0
  0
LTYPE
  2
CONTINUOUS
 70
64
  3
Solid line
 72
65
 73
0
 40
0.0
  0
LTYPE
  2
CENTER
 70
64
  3
____ _ ____ _ ____ _ ____ _ ____ _ ____ _ ____
 72
65
 73
4
 40
0.6
 49
0.375
 49
-0.075
 49
0.075
 49
-0.075
  0
LTYPE
  2
HIDDEN
 70
64
  3
- - - - - - - - - - - - - - - - - - - -
 72
65
 73
2
 40
0.2
 49
0.1
 49
-0.1
  0
LTYPE
  2
PHANTOM
 70
64
  3
_____ _ _ _____ _ _ _____ _ _ _____
 72
65
 73
6
 40
0.8
 49
0.45
 49
-0.05
 49
0.1
 49
-0.05
 49
0.1
 49
-0.05
  0
LTYPE
  2
DOT
 70
64
  3
. . . . . . . . . . . . . . . . . . . .
 72
65
 73
2
 40
0.2
 49
0.1
 49
-0.1
  0
LTYPE
  2
DASHED
 70
64
  3
- - - - - - - - - - - - - - - - - - - -
 72
65
 73
2
 40
0.2
 49
0.1
 49
-0.1
  0
ENDTAB
  0
TABLE
  2
LAYER
 70
36
  0
LAYER
  2
0
 70
0
 62
7
  6
CONTINUOUS
  0
LAYER
  2
DEFAULT_1
 70
0
 62
7
  6
CENTER
  0
LAYER
  2
DEFAULT_2
 70
0
 62
8
  6
HIDDEN
  0
LAYER
  2
DEFAULT_3
 70
0
 62
7
  6
PHANTOM
  0
LAYER
  2
BB
 70
0
 62
7
  6
CONTINUOUS
  0
LAYER
  2
BLANK_COSM
 70
0
 62
7
  6
CONTINUOUS
  0
LAYER
  2
CURVE
 70
0
 62
7
  6
CONTINUOUS
  0
ENDTAB
  0
TABLE
  2
STYLE
 70
1
  0
STYLE
  2
STANDARD
 70
0
 40
0.0
 41
0.8
 50
0.0
 71
0
 42
0.2
  3
txt
  4

  0
STYLE
  2
TEXTSTYLE_1
 70
0
 40
0.0
 41
0.8
 50
0.0
 71
0
 42
0.2
  3
gdt
  4

  0
STYLE
  2
TEXTSTYLE_2
 70
0
 40
0.0
 41
0.6
 50
0.0
 71
0
 42
0.2
  3
txt
  4

  0
STYLE
  2
TEXTSTYLE_3
 70
0
 40
0.0
 41
1.0
 50
0.0
 71
0
 42
0.2
  3
ftb_____.ttf
  4

  0
STYLE
  2
TEXTSTYLE_4
 70
0
 40
0.0
 41
1.0
 50
0.0
 71
0
 42
0.2
  3
fti_____.ttf
  4

  0
STYLE
  2
TEXTSTYLE_5
 70
0
 40
0.0
 41
1.0
 50
0.0
 71
0
 42
0.2
  3
frutiger light.ttf
  4

  0
STYLE
  2
TEXTSTYLE_6
 70
0
 40
0.0
 41
0.7
 50
0.0
 71
0
 42
0.2
  3
txt
  4

  0
STYLE
  2
TEXTSTYLE_7
 70
0
 40
0.0
 41
0.8
 50
0.0
 71
0
 42
0.2
  3
txt
  4

  0
ENDTAB
  0
ENDSEC
  0
SECTION
  2
BLOCKS
  0
BLOCK
  8
0
 62
2
  6
CONTINUOUS
  2
SYMBOL_5_BL1
 70
64
 10
382.7840918555
 20
35.5067593403
  0
TEXT
  8
0
 62
7
  6
CONTINUOUS
 10
373.842376864
 20
30.5995157174
  7
TEXTSTYLE_4
 40
1.0655737705
  1
The brand for plastic modular belts and chains
 41
1.0
 72
0
  0
LINE
  8
0
 62
7
  6
CONTINUOUS
 10
358.7621602445
 20
36.0805298321
 11
358.7621602445
 21
33.9493822911
  0
LINE
  8
0
 62
7
  6
CONTINUOUS
 10
359.0512227376
 20
30.9584509954
 11
359.0512227376
 21
31.0552420547
  0
LINE
  8
0
 62
7
  6
CONTINUOUS
 10
358.7621602445
 20
31.0229783683
 11
358.8199727462
 21
30.8293962497
  0
LINE
  8
0
 62
7
  6
CONTINUOUS
 10
360.1556028675
 20
33.867415078
 11
360.1556028675
 21
36.0805298321
  0
LINE
  8
0
 62
7
  6
CONTINUOUS
 10
361.0746601894
 20
32.0231527829
 11
361.0746601894
 21
30.5067593403
  0
LINE
  8
0
 62
7
  6
CONTINUOUS
 10
361.3637227445
 20
30.5067593403
 11
361.3637227445
 21
31.2488242184
  0
LINE
  8
0
 62
7
  6
CONTINUOUS
 10
361.3637227445
 20
31.3778789641
 11
361.3637227445
 21
32.0231527829
  0
LINE
  8
0
 62
7
  6
CONTINUOUS
 10
358.8199727462
 20
31.216560532
 11
358.7621602445
 21
31.0229783683
  0
LINE
  8
0
 62
7
  6
CONTINUOUS
 10
359.1668477307
 20
30.7971325633
 11
359.0512227376
 21
30.9584509954
  0
LINE
  8
0
 62
7
  6
CONTINUOUS
 10
360.2652852997
 20
31.3133515913
 11
360.3230977445
 21
31.216560532
  0
LINE
  8
0
 62
7
  6
CONTINUOUS
 10
360.6121602997
 20
31.216560532
 11
360.5543476894
 21
31.3456152777
  0
LINE
  8
0
 62
7
  6
CONTINUOUS
 10
362.0408487691
 20
36.0805298321
 11
362.0408487691
 21
34.2772511436
  0
LINE
  8
0
 62
7
  6
CONTINUOUS
 10
362.0408487691
 20
32.9657757338
 11
362.0408487691
 21
32.3100380288
  0
LINE
  8
0
 62
7
  6
CONTINUOUS
 10
362.4043477445
 20
31.1520331591
 11
362.4043477445
 21
30.5067593403
  0
LINE
  8
0
 62
7
  6
CONTINUOUS
 10
362.6934101343
 20
30.5067593403
 11
362.6934101343
 21
31.1520331591
  0
LINE
  8
0
 62
7
  6
CONTINUOUS
 10
359.0512227376
 20
31.0552420547
 11
359.1090352445
 21
31.1842968456
  0
LINE
  8
0
 62
7
  6
CONTINUOUS
 10
358.8199727462
 20
30.8293962497
 11
358.9355977445
 21
30.7003414814
  0
LINE
  8
0
 62
7
  6
CONTINUOUS
 10
362.3465351343
 20
31.2810879048
 11
362.4043477445
 21
31.1520331591
  0
LINE
  8
0
 62
7
  6
CONTINUOUS
 10
363.1559103548
 20
30.7971325633
 11
363.2137226343
 21
30.668077795
  0
LINE
  8
0
 62
7
  6
CONTINUOUS
 10
362.6934101343
 20
31.1520331591
 11
362.6355978548
 21
31.3133515913
  0
LINE
  8
0
 62
7
  6
CONTINUOUS
 10
363.1559103548
 20
31.3456152777
 11
363.1559103548
 21
31.2810879048
  0
LINE
  8
0
 62
7
  6
CONTINUOUS
 10
363.1559103548
 20
30.8939236226
 11
363.1559103548
 21
30.7971325633
  0
LINE
  8
0
 62
7
  6
CONTINUOUS
 10
363.4342913921
 20
32.3100380288
 11
363.4342913921
 21
36.0805298321
  0
LINE
  8
0
 62
7
  6
CONTINUOUS
 10
363.4449727445
 20
30.7648688543
 11
363.4449727445
 21
30.8293962497
  0
LINE
  8
0
 62
7
  6
CONTINUOUS
 10
363.7621602445
 20
36.0805298321
 11
363.7621602445
 21
32.3100380288
  0
LINE
  8
0
 62
7
  6
CONTINUOUS
 10
360.5543476894
 20
30.7003414814
 11
360.6121602997
 21
30.8293962497
  0
LINE
  8
0
 62
7
  6
CONTINUOUS
 10
364.9480979651
 20
30.6035504109
 11
364.890285024
 21
30.7648688543
  0
LINE
  8
0
 62
7
  6
CONTINUOUS
 10
364.6012229651
 20
31.2810879048
 11
364.6012229651
 21
31.1842968456
  0
LINE
  8
0
 62
7
  6
CONTINUOUS
 10
364.6012229651
 20
31.0552420547
 11
364.6012229651
 21
30.8616599362
  0
LINE
  8
0
 62
7
  6
CONTINUOUS
 10
364.890285024
 20
30.7648688543
 11
364.890285024
 21
31.2810879048
  0
LINE
  8
0
 62
7
  6
CONTINUOUS
 10
365.1556028675
 20
32.3100380288
 11
365.1556028675
 21
34.1133167174
  0
LINE
  8
0
 62
7
  6
CONTINUOUS
 10
365.1556028675
 20
35.4247921272
 11
365.1556028675
 21
36.0805298321
  0
LINE
  8
0
 62
7
  6
CONTINUOUS
 10
365.4684104651
 20
32.0231527829
 11
365.4684104651
 21
31.8618343508
  0
LINE
  8
0
 62
7
  6
CONTINUOUS
 10
365.4684104651
 20
31.5391973962
 11
365.4684104651
 21
30.5067593403
  0
LINE
  8
0
 62
7
  6
CONTINUOUS
 10
365.757472524
 20
30.5067593403
 11
365.757472524
 21
31.5391973962
  0
LINE
  8
0
 62
7
  6
CONTINUOUS
 10
365.757472524
 20
31.8618343508
 11
365.757472524
 21
32.0231527829
  0
LINE
  8
0
 62
7
  6
CONTINUOUS
 10
360.3230977445
 20
30.8293962497
 11
360.2652852997
 21
30.7326051679
  0
LINE
  8
0
 62
7
  6
CONTINUOUS
 10
362.6355978548
 20
31.3133515913
 11
362.5777852445
 21
31.3778789641
  0
LINE
  8
0
 62
7
  6
CONTINUOUS
 10
363.5027853548
 20
30.7003414814
 11
363.4449727445
 21
30.7648688543
  0
LINE
  8
0
 62
7
  6
CONTINUOUS
 10
364.6590352445
 20
30.5712867188
 11
364.716847524
 21
30.5067593403
  0
LINE
  8
0
 62
7
  6
CONTINUOUS
 10
364.6012229651
 20
30.668077795
 11
364.6590352445
 21
30.5712867188
  0
LINE
  8
0
 62
7
  6
CONTINUOUS
 10
365.0059102445
 20
30.5067593403
 11
364.9480979651
 21
30.6035504109
  0
LINE
  8
0
 62
7
  6
CONTINUOUS
 10
364.890285024
 20
31.2810879048
 11
364.8324727445
 21
31.3778789641
  0
LINE
  8
0
 62
7
  6
CONTINUOUS
 10
366.2199727445
 20
31.5391973962
 11
366.2199727445
 21
30.5067593403
  0
LINE
  8
0
 62
7
  6
CONTINUOUS
 10
366.5090354651
 20
30.5067593403
 11
366.5090354651
 21
31.2488242184
  0
LINE
  8
0
 62
7
  6
CONTINUOUS
 10
366.5090354651
 20
31.3778789641
 11
366.5090354651
 21
31.5391973962
  0
LINE
  8
0
 62
7
  6
CONTINUOUS
 10
367.0408487691
 20
34.5231527829
 11
367.0408487691
 21
32.3100380288
  0
LINE
  8
0
 62
7
  6
CONTINUOUS
 10
358.9355977445
 20
31.3456152777
 11
358.8199727462
 21
31.216560532
  0
LINE
  8
0
 62
7
  6
CONTINUOUS
 10
359.1090352445
 20
31.1842968456
 11
359.1668477307
 21
31.2488242184
  0
LINE
  8
0
 62
7
  6
CONTINUOUS
 10
358.9355977445
 20
30.7003414814
 11
359.0512227376
 21
30.6358140973
  0
LINE
  8
0
 62
7
  6
CONTINUOUS
 10
359.3402852307
 20
30.7003414814
 11
359.1668477307
 21
30.7971325633
  0
LINE
  8
0
 62
7
  6
CONTINUOUS
 10
364.543410024
 20
31.3456152777
 11
364.6012229651
 21
31.2810879048
  0
LINE
  8
0
 62
7
  6
CONTINUOUS
 10
367.491847524
 20
31.2810879048
 11
367.5496604651
 21
31.1197694727
  0
LINE
  8
0
 62
7
  6
CONTINUOUS
 10
367.838722524
 20
31.1197694727
 11
367.7809102445
 21
31.2810879048
  0
LINE
  8
0
 62
7
  6
CONTINUOUS
 10
367.5496604651
 20
31.1197694727
 11
367.5496604651
 21
30.5067593403
  0
LINE
  8
0
 62
7
  6
CONTINUOUS
 10
367.838722524
 20
30.5067593403
 11
367.838722524
 21
31.1197694727
  0
LINE
  8
0
 62
7
  6
CONTINUOUS
 10
368.3012227445
 20
31.3456152777
 11
368.3012227445
 21
31.2810879048
  0
LINE
  8
0
 62
7
  6
CONTINUOUS
 10
368.4342913921
 20
32.3100380288
 11
368.4342913921
 21
34.4411855698
  0
LINE
  8
0
 62
7
  6
CONTINUOUS
 10
368.7621602445
 20
36.0805298321
 11
368.7621602445
 21
32.3100380288
  0
LINE
  8
0
 62
7
  6
CONTINUOUS
 10
363.4449727445
 20
30.8293962497
 11
363.5027853548
 21
30.926187309
  0
LINE
  8
0
 62
7
  6
CONTINUOUS
 10
359.0512227376
 20
30.6358140973
 11
359.2246602583
 21
30.5712867188
  0
LINE
  8
0
 62
7
  6
CONTINUOUS
 10
360.5543476894
 20
31.3456152777
 11
360.3809101894
 21
31.4424063369
  0
LINE
  8
0
 62
7
  6
CONTINUOUS
 10
363.2137226343
 20
30.668077795
 11
363.3871601343
 21
30.5712867188
  0
LINE
  8
0
 62
7
  6
CONTINUOUS
 10
362.2309102445
 20
31.3456152777
 11
362.3465351343
 21
31.2810879048
  0
LINE
  8
0
 62
7
  6
CONTINUOUS
 10
362.5777852445
 20
31.3778789641
 11
362.4621603548
 21
31.4424063369
  0
LINE
  8
0
 62
7
  6
CONTINUOUS
 10
368.3012227445
 20
30.7648688543
 11
368.4168479651
 21
30.6358140973
  0
LINE
  8
0
 62
7
  6
CONTINUOUS
 10
368.6480977445
 20
30.7003414814
 11
368.5902854651
 21
30.7648688543
  0
LINE
  8
0
 62
7
  6
CONTINUOUS
 10
368.3012227445
 20
31.2810879048
 11
368.4168479651
 21
31.1520331591
  0
LINE
  8
0
 62
7
  6
CONTINUOUS
 10
367.7809102445
 20
31.2810879048
 11
367.7230979651
 21
31.3778789641
  0
LINE
  8
0
 62
7
  6
CONTINUOUS
 10
370.1512223035
 20
30.7003414814
 11
370.1512223035
 21
30.7648688543
  0
LINE
  8
0
 62
7
  6
CONTINUOUS
 10
370.1556028675
 20
32.3100380288
 11
370.1556028675
 21
36.0805298321
  0
LINE
  8
0
 62
7
  6
CONTINUOUS
 10
363.2137226343
 20
31.4101426505
 11
363.1559103548
 21
31.3456152777
  0
LINE
  8
0
 62
7
  6
CONTINUOUS
 10
360.091847717
 20
31.3778789641
 11
360.2652852997
 21
31.3133515913
  0
LINE
  8
0
 62
7
  6
CONTINUOUS
 10
364.8324727445
 20
31.3778789641
 11
364.716847524
 21
31.4424063369
  0
LINE
  8
0
 62
7
  6
CONTINUOUS
 10
368.6480977445
 20
31.216560532
 11
368.5902854651
 21
31.2810879048
  0
LINE
  8
0
 62
7
  6
CONTINUOUS
 10
369.8043479651
 20
30.8293962497
 11
369.8621602445
 21
30.7648688543
  0
LINE
  8
0
 62
7
  6
CONTINUOUS
 10
370.1512223035
 20
30.7648688543
 11
370.0355977445
 21
30.8939236226
  0
LINE
  8
0
 62
7
  6
CONTINUOUS
 10
369.8043479651
 20
31.3456152777
 11
369.8621602445
 21
31.2810879048
  0
LINE
  8
0
 62
7
  6
CONTINUOUS
 10
370.1512223035
 20
31.2810879048
 11
370.0355977445
 21
31.4101426505
  0
LINE
  8
0
 62
7
  6
CONTINUOUS
 10
363.4449727445
 20
31.2810879048
 11
363.5027853548
 21
31.3456152777
  0
LINE
  8
0
 62
7
  6
CONTINUOUS
 10
363.2715352445
 20
31.0229783683
 11
363.1559103548
 21
30.8939236226
  0
LINE
  8
0
 62
7
  6
CONTINUOUS
 10
364.6012229651
 20
30.8616599362
 11
364.543410024
 21
30.7971325633
  0
LINE
  8
0
 62
7
  6
CONTINUOUS
 10
364.543410024
 20
30.6035504109
 11
364.6012229651
 21
30.668077795
  0
LINE
  8
0
 62
7
  6
CONTINUOUS
 10
363.3871601343
 20
30.5712867188
 11
363.5027853548
 21
30.5390230296
  0
LINE
  8
0
 62
7
  6
CONTINUOUS
 10
360.3809101894
 20
31.4424063369
 11
360.1496602445
 21
31.5069337098
  0
LINE
  8
0
 62
7
  6
CONTINUOUS
 10
363.7340351343
 20
30.6358140973
 11
363.5027853548
 21
30.7003414814
  0
LINE
  8
0
 62
7
  6
CONTINUOUS
 10
362.4621603548
 20
31.4424063369
 11
362.2887228548
 21
31.5069337098
  0
LINE
  8
0
 62
7
  6
CONTINUOUS
 10
364.716847524
 20
31.4424063369
 11
364.543410024
 21
31.5069337098
  0
LINE
  8
0
 62
7
  6
CONTINUOUS
 10
367.3762229651
 20
31.3456152777
 11
367.491847524
 21
31.2810879048
  0
LINE
  8
0
 62
7
  6
CONTINUOUS
 10
367.7230979651
 20
31.3778789641
 11
367.6074727445
 21
31.4424063369
  0
LINE
  8
0
 62
7
  6
CONTINUOUS
 10
359.2246602583
 20
30.5712867188
 11
359.3980977583
 21
30.5390230296
  0
LINE
  8
0
 62
7
  6
CONTINUOUS
 10
359.6871602721
 20
30.6358140973
 11
359.3402852307
 21
30.7003414814
  0
LINE
  8
0
 62
7
  6
CONTINUOUS
 10
362.1152853548
 20
31.3778789641
 11
362.2309102445
 21
31.3456152777
  0
LINE
  8
0
 62
7
  6
CONTINUOUS
 10
364.4277854651
 20
31.3778789641
 11
364.543410024
 21
31.3456152777
  0
LINE
  8
0
 62
7
  6
CONTINUOUS
 10
368.7637229651
 20
30.668077795
 11
368.6480977445
 21
30.7003414814
  0
LINE
  8
0
 62
7
  6
CONTINUOUS
 10
367.2605977445
 20
31.3778789641
 11
367.3762229651
 21
31.3456152777
  0
LINE
  8
0
 62
7
  6
CONTINUOUS
 10
368.4168479651
 20
30.6358140973
 11
368.5902854651
 21
30.5712867188
  0
LINE
  8
0
 62
7
  6
CONTINUOUS
 10
367.6074727445
 20
31.4424063369
 11
367.4340352445
 21
31.5069337098
  0
LINE
  8
0
 62
7
  6
CONTINUOUS
 10
368.8215352445
 20
31.1520331591
 11
368.6480977445
 21
31.216560532
  0
LINE
  8
0
 62
7
  6
CONTINUOUS
 10
369.6309104651
 20
30.8939236226
 11
369.8043479651
 21
30.8293962497
  0
LINE
  8
0
 62
7
  6
CONTINUOUS
 10
370.0355977445
 20
31.4101426505
 11
369.8621602445
 21
31.4746700234
  0
LINE
  8
0
 62
7
  6
CONTINUOUS
 10
368.4168479651
 20
31.1520331591
 11
368.6480977445
 21
31.0552420547
  0
LINE
  8
0
 62
7
  6
CONTINUOUS
 10
370.0355977445
 20
30.8939236226
 11
369.8043479651
 21
30.9907146818
  0
LINE
  8
0
 62
7
  6
CONTINUOUS
 10
368.5902854651
 20
31.2810879048
 11
368.6480977445
 21
31.3456152777
  0
LINE
  8
0
 62
7
  6
CONTINUOUS
 10
359.0512227376
 20
31.4101426505
 11
358.9355977445
 21
31.3456152777
  0
LINE
  8
0
 62
7
  6
CONTINUOUS
 10
359.1668477307
 20
31.2488242184
 11
359.3402852307
 21
31.3456152777
  0
LINE
  8
0
 62
7
  6
CONTINUOUS
 10
361.4793477997
 20
31.4424063369
 11
361.3637227445
 21
31.3778789641
  0
LINE
  8
0
 62
7
  6
CONTINUOUS
 10
361.3637227445
 20
31.2488242184
 11
361.4793477997
 21
31.3133515913
  0
LINE
  8
0
 62
7
  6
CONTINUOUS
 10
360.3809101894
 20
30.6035504109
 11
360.5543476894
 21
30.7003414814
  0
LINE
  8
0
 62
7
  6
CONTINUOUS
 10
359.3980977583
 20
30.5390230296
 11
359.744972717
 21
30.5067593403
  0
LINE
  8
0
 62
7
  6
CONTINUOUS
 10
363.5027853548
 20
30.5390230296
 11
363.7340351343
 21
30.5067593403
  0
LINE
  8
0
 62
7
  6
CONTINUOUS
 10
361.8840352445
 20
31.4101426505
 11
362.1152853548
 21
31.3778789641
  0
LINE
  8
0
 62
7
  6
CONTINUOUS
 10
364.1965353548
 20
31.4101426505
 11
364.4277854651
 21
31.3778789641
  0
LINE
  8
0
 62
7
  6
CONTINUOUS
 10
368.6480977445
 20
31.0552420547
 11
369.6309104651
 21
30.8939236226
  0
LINE
  8
0
 62
7
  6
CONTINUOUS
 10
369.8043479651
 20
30.9907146818
 11
368.8215352445
 21
31.1520331591
  0
LINE
  8
0
 62
7
  6
CONTINUOUS
 10
362.2887228548
 20
31.5069337098
 11
362.1152853548
 21
31.5391973962
  0
LINE
  8
0
 62
7
  6
CONTINUOUS
 10
368.5902854651
 20
30.5712867188
 11
368.7637229651
 21
30.5390230296
  0
LINE
  8
0
 62
7
  6
CONTINUOUS
 10
367.4340352445
 20
31.5069337098
 11
367.2605977445
 21
31.5391973962
  0
LINE
  8
0
 62
7
  6
CONTINUOUS
 10
369.6887227445
 20
31.3778789641
 11
369.8043479651
 21
31.3456152777
  0
LINE
  8
0
 62
7
  6
CONTINUOUS
 10
369.8621602445
 20
30.7648688543
 11
369.8043479651
 21
30.7003414814
  0
LINE
  8
0
 62
7
  6
CONTINUOUS
 10
368.4168479651
 20
31.4424063369
 11
368.3012227445
 21
31.3456152777
  0
LINE
  8
0
 62
7
  6
CONTINUOUS
 10
363.3293478548
 20
31.4746700234
 11
363.2137226343
 21
31.4101426505
  0
LINE
  8
0
 62
7
  6
CONTINUOUS
 10
363.3871601343
 20
31.0875057863
 11
363.2715352445
 21
31.0229783683
  0
LINE
  8
0
 62
7
  6
CONTINUOUS
 10
363.5027853548
 20
30.926187309
 11
363.6184102445
 21
30.9907146818
  0
LINE
  8
0
 62
7
  6
CONTINUOUS
 10
361.0746601894
 20
30.5067593403
 11
361.3637227445
 21
30.5067593403
  0
LINE
  8
0
 62
7
  6
CONTINUOUS
 10
362.4043477445
 20
30.5067593403
 11
362.6934101343
 21
30.5067593403
  0
LINE
  8
0
 62
7
  6
CONTINUOUS
 10
363.7340351343
 20
30.5067593403
 11
364.0809101343
 21
30.5067593403
  0
LINE
  8
0
 62
7
  6
CONTINUOUS
 10
364.716847524
 20
30.5067593403
 11
365.0059102445
 21
30.5067593403
  0
LINE
  8
0
 62
7
  6
CONTINUOUS
 10
365.4684104651
 20
30.5067593403
 11
365.757472524
 21
30.5067593403
  0
LINE
  8
0
 62
7
  6
CONTINUOUS
 10
366.2199727445
 20
30.5067593403
 11
366.5090354651
 21
30.5067593403
  0
LINE
  8
0
 62
7
  6
CONTINUOUS
 10
367.5496604651
 20
30.5067593403
 11
367.838722524
 21
30.5067593403
  0
LINE
  8
0
 62
7
  6
CONTINUOUS
 10
369.1105979651
 20
30.5067593403
 11
369.4574729651
 21
30.5067593403
  0
LINE
  8
0
 62
7
  6
CONTINUOUS
 10
369.4574729651
 20
30.6358140973
 11
369.1105979651
 21
30.6358140973
  0
LINE
  8
0
 62
7
  6
CONTINUOUS
 10
364.0809101343
 20
30.6358140973
 11
363.7340351343
 21
30.6358140973
  0
LINE
  8
0
 62
7
  6
CONTINUOUS
 10
368.5902854651
 20
30.7648688543
 11
368.3012227445
 21
30.7648688543
  0
LINE
  8
0
 62
7
  6
CONTINUOUS
 10
360.6121602997
 20
30.8293962497
 11
360.3230977445
 21
30.8293962497
  0
LINE
  8
0
 62
7
  6
CONTINUOUS
 10
359.6871602721
 20
31.4101426505
 11
360.091847717
 21
31.3778789641
  0
LINE
  8
0
 62
7
  6
CONTINUOUS
 10
360.1496602445
 20
31.5069337098
 11
359.744972717
 21
31.5391973962
  0
LINE
  8
0
 62
7
  6
CONTINUOUS
 10
368.7637229651
 20
30.5390230296
 11
369.1105979651
 21
30.5067593403
  0
LINE
  8
0
 62
7
  6
CONTINUOUS
 10
369.1105979651
 20
30.6358140973
 11
368.7637229651
 21
30.668077795
  0
LINE
  8
0
 62
7
  6
CONTINUOUS
 10
364.543410024
 20
31.5069337098
 11
364.1965353548
 21
31.5391973962
  0
LINE
  8
0
 62
7
  6
CONTINUOUS
 10
369.3418477445
 20
31.4101426505
 11
369.6887227445
 21
31.3778789641
  0
LINE
  8
0
 62
7
  6
CONTINUOUS
 10
369.6887227445
 20
31.5069337098
 11
369.3418477445
 21
31.5391973962
  0
LINE
  8
0
 62
7
  6
CONTINUOUS
 10
367.0293479651
 20
31.4101426505
 11
367.2605977445
 21
31.3778789641
  0
LINE
  8
0
 62
7
  6
CONTINUOUS
 10
369.8621602445
 20
31.4746700234
 11
369.6887227445
 21
31.5069337098
  0
LINE
  8
0
 62
7
  6
CONTINUOUS
 10
370.0355977445
 20
30.6035504109
 11
370.1512223035
 21
30.7003414814
  0
LINE
  8
0
 62
7
  6
CONTINUOUS
 10
364.543410024
 20
30.7971325633
 11
364.369972524
 21
30.7003414814
  0
LINE
  8
0
 62
7
  6
CONTINUOUS
 10
366.624660024
 20
31.4424063369
 11
366.5090354651
 21
31.3778789641
  0
LINE
  8
0
 62
7
  6
CONTINUOUS
 10
366.5090354651
 20
31.2488242184
 11
366.624660024
 21
31.3133515913
  0
LINE
  8
0
 62
7
  6
CONTINUOUS
 10
359.2246602583
 20
31.4746700234
 11
359.0512227376
 21
31.4101426505
  0
LINE
  8
0
 62
7
  6
CONTINUOUS
 10
361.6527851343
 20
31.5069337098
 11
361.4793477997
 21
31.4424063369
  0
LINE
  8
0
 62
7
  6
CONTINUOUS
 10
361.4793477997
 20
31.3133515913
 11
361.6527851343
 21
31.3778789641
  0
LINE
  8
0
 62
7
  6
CONTINUOUS
 10
360.2652852997
 20
30.7326051679
 11
360.091847717
 21
30.668077795
  0
LINE
  8
0
 62
7
  6
CONTINUOUS
 10
369.6887227445
 20
30.668077795
 11
369.4574729651
 21
30.6358140973
  0
LINE
  8
0
 62
7
  6
CONTINUOUS
 10
364.0809101343
 20
30.5067593403
 11
364.369972524
 21
30.5390230296
  0
LINE
  8
0
 62
7
  6
CONTINUOUS
 10
369.4574729651
 20
30.5067593403
 11
369.8043479651
 21
30.5390230296
  0
LINE
  8
0
 62
7
  6
CONTINUOUS
 10
359.744972717
 20
30.5067593403
 11
360.1496602445
 21
30.5390230296
  0
LINE
  8
0
 62
7
  6
CONTINUOUS
 10
360.091847717
 20
30.668077795
 11
359.6871602721
 21
30.6358140973
  0
LINE
  8
0
 62
7
  6
CONTINUOUS
 10
363.9652852445
 20
31.0552420547
 11
364.6012229651
 21
31.0552420547
  0
LINE
  8
0
 62
7
  6
CONTINUOUS
 10
364.6012229651
 20
31.1842968456
 11
363.9652852445
 21
31.1842968456
  0
LINE
  8
0
 62
7
  6
CONTINUOUS
 10
360.3230977445
 20
31.216560532
 11
360.6121602997
 21
31.216560532
  0
LINE
  8
0
 62
7
  6
CONTINUOUS
 10
363.1559103548
 20
31.2810879048
 11
363.4449727445
 21
31.2810879048
  0
LINE
  8
0
 62
7
  6
CONTINUOUS
 10
369.8621602445
 20
31.2810879048
 11
370.1512223035
 21
31.2810879048
  0
LINE
  8
0
 62
7
  6
CONTINUOUS
 10
363.8496603548
 20
31.4101426505
 11
364.1965353548
 21
31.4101426505
  0
LINE
  8
0
 62
7
  6
CONTINUOUS
 10
368.9949727445
 20
31.4101426505
 11
369.3418477445
 21
31.4101426505
  0
LINE
  8
0
 62
7
  6
CONTINUOUS
 10
369.3418477445
 20
31.5391973962
 11
368.9949727445
 21
31.5391973962
  0
LINE
  8
0
 62
7
  6
CONTINUOUS
 10
367.2605977445
 20
31.5391973962
 11
367.0293479651
 21
31.5391973962
  0
LINE
  8
0
 62
7
  6
CONTINUOUS
 10
366.5090354651
 20
31.5391973962
 11
366.2199727445
 21
31.5391973962
  0
LINE
  8
0
 62
7
  6
CONTINUOUS
 10
365.757472524
 20
31.5391973962
 11
365.4684104651
 21
31.5391973962
  0
LINE
  8
0
 62
7
  6
CONTINUOUS
 10
364.1965353548
 20
31.5391973962
 11
363.8496603548
 21
31.5391973962
  0
LINE
  8
0
 62
7
  6
CONTINUOUS
 10
362.1152853548
 20
31.5391973962
 11
361.8840352445
 21
31.5391973962
  0
LINE
  8
0
 62
7
  6
CONTINUOUS
 10
365.4684104651
 20
31.8618343508
 11
365.757472524
 21
31.8618343508
  0
LINE
  8
0
 62
7
  6
CONTINUOUS
 10
365.757472524
 20
32.0231527829
 11
365.4684104651
 21
32.0231527829
  0
LINE
  8
0
 62
7
  6
CONTINUOUS
 10
361.3637227445
 20
32.0231527829
 11
361.0746601894
 21
32.0231527829
  0
LINE
  8
0
 62
7
  6
CONTINUOUS
 10
360.4015045068
 20
32.3100380288
 11
360.8140758554
 21
32.3100380288
  0
LINE
  8
0
 62
7
  6
CONTINUOUS
 10
362.0408487691
 20
32.3100380288
 11
363.4342913921
 21
32.3100380288
  0
LINE
  8
0
 62
7
  6
CONTINUOUS
 10
363.7621602445
 20
32.3100380288
 11
365.1556028675
 21
32.3100380288
  0
LINE
  8
0
 62
7
  6
CONTINUOUS
 10
367.0408487691
 20
32.3100380288
 11
368.4342913921
 21
32.3100380288
  0
LINE
  8
0
 62
7
  6
CONTINUOUS
 10
368.7621602445
 20
32.3100380288
 11
370.1556028675
 21
32.3100380288
  0
LINE
  8
0
 62
7
  6
CONTINUOUS
 10
366.798097524
 20
31.5069337098
 11
366.624660024
 21
31.4424063369
  0
LINE
  8
0
 62
7
  6
CONTINUOUS
 10
364.369972524
 20
30.5390230296
 11
364.543410024
 21
30.6035504109
  0
LINE
  8
0
 62
7
  6
CONTINUOUS
 10
369.8043479651
 20
30.5390230296
 11
370.0355977445
 21
30.6035504109
  0
LINE
  8
0
 62
7
  6
CONTINUOUS
 10
369.8043479651
 20
30.7003414814
 11
369.6887227445
 21
30.668077795
  0
LINE
  8
0
 62
7
  6
CONTINUOUS
 10
368.7637229651
 20
31.3778789641
 11
368.9949727445
 21
31.4101426505
  0
LINE
  8
0
 62
7
  6
CONTINUOUS
 10
366.798097524
 20
31.3778789641
 11
367.0293479651
 21
31.4101426505
  0
LINE
  8
0
 62
7
  6
CONTINUOUS
 10
363.7340351343
 20
31.0229783683
 11
363.9652852445
 21
31.0552420547
  0
LINE
  8
0
 62
7
  6
CONTINUOUS
 10
367.0293479651
 20
31.5391973962
 11
366.798097524
 21
31.5069337098
  0
LINE
  8
0
 62
7
  6
CONTINUOUS
 10
363.6184102445
 20
31.3778789641
 11
363.8496603548
 21
31.4101426505
  0
LINE
  8
0
 62
7
  6
CONTINUOUS
 10
368.9949727445
 20
31.5391973962
 11
368.6480977445
 21
31.5069337098
  0
LINE
  8
0
 62
7
  6
CONTINUOUS
 10
363.9652852445
 20
31.1842968456
 11
363.6184102445
 21
31.1520331591
  0
LINE
  8
0
 62
7
  6
CONTINUOUS
 10
359.744972717
 20
31.5391973962
 11
359.3980977583
 21
31.5069337098
  0
LINE
  8
0
 62
7
  6
CONTINUOUS
 10
363.8496603548
 20
31.5391973962
 11
363.4449727445
 21
31.5069337098
  0
LINE
  8
0
 62
7
  6
CONTINUOUS
 10
361.221176638
 20
33.4575790124
 11
360.565438933
 21
33.4575790124
  0
LINE
  8
0
 62
7
  6
CONTINUOUS
 10
366.624660024
 20
31.3133515913
 11
366.798097524
 21
31.3778789641
  0
LINE
  8
0
 62
7
  6
CONTINUOUS
 10
368.6480977445
 20
31.3456152777
 11
368.7637229651
 21
31.3778789641
  0
LINE
  8
0
 62
7
  6
CONTINUOUS
 10
368.6480977445
 20
31.5069337098
 11
368.4168479651
 21
31.4424063369
  0
LINE
  8
0
 62
7
  6
CONTINUOUS
 10
364.369972524
 20
30.7003414814
 11
364.0809101343
 21
30.6358140973
  0
LINE
  8
0
 62
7
  6
CONTINUOUS
 10
361.6527851343
 20
31.3778789641
 11
361.8840352445
 21
31.4101426505
  0
LINE
  8
0
 62
7
  6
CONTINUOUS
 10
361.8840352445
 20
31.5391973962
 11
361.6527851343
 21
31.5069337098
  0
LINE
  8
0
 62
7
  6
CONTINUOUS
 10
359.4559102445
 20
31.3778789641
 11
359.6871602721
 21
31.4101426505
  0
LINE
  8
0
 62
7
  6
CONTINUOUS
 10
365.9752749986
 20
34.9329888485
 11
366.6310127035
 21
34.9329888485
  0
LINE
  8
0
 62
7
  6
CONTINUOUS
 10
363.6184102445
 20
30.9907146818
 11
363.7340351343
 21
31.0229783683
  0
LINE
  8
0
 62
7
  6
CONTINUOUS
 10
363.6184102445
 20
31.1520331591
 11
363.3871601343
 21
31.0875057863
  0
LINE
  8
0
 62
7
  6
CONTINUOUS
 10
363.5027853548
 20
31.3456152777
 11
363.6184102445
 21
31.3778789641
  0
LINE
  8
0
 62
7
  6
CONTINUOUS
 10
360.1496602445
 20
30.5390230296
 11
360.3809101894
 21
30.6035504109
  0
LINE
  8
0
 62
7
  6
CONTINUOUS
 10
363.4449727445
 20
31.5069337098
 11
363.3293478548
 21
31.4746700234
  0
LINE
  8
0
 62
7
  6
CONTINUOUS
 10
359.3980977583
 20
31.5069337098
 11
359.2246602583
 21
31.4746700234
  0
LINE
  8
0
 62
7
  6
CONTINUOUS
 10
370.1556028675
 20
36.0805298321
 11
368.7621602445
 21
36.0805298321
  0
LINE
  8
0
 62
7
  6
CONTINUOUS
 10
366.7949471298
 20
36.0805298321
 11
366.3823757812
 21
36.0805298321
  0
LINE
  8
0
 62
7
  6
CONTINUOUS
 10
365.1556028675
 20
36.0805298321
 11
363.7621602445
 21
36.0805298321
  0
LINE
  8
0
 62
7
  6
CONTINUOUS
 10
363.4342913921
 20
36.0805298321
 11
362.0408487691
 21
36.0805298321
  0
LINE
  8
0
 62
7
  6
CONTINUOUS
 10
360.1556028675
 20
36.0805298321
 11
358.7621602445
 21
36.0805298321
  0
LINE
  8
0
 62
7
  6
CONTINUOUS
 10
359.3402852307
 20
31.3456152777
 11
359.4559102445
 21
31.3778789641
  0
CIRCLE
  8
0
 62
7
  6
CONTINUOUS
 10
369.458881556
 20
38.4165954059
 40
2.0901639344
  0
ARC
  8
0
 62
7
  6
CONTINUOUS
 10
360.4015045068
 20
33.9493822911
 40
1.6393442623
 50
180.0
 51
270.0
  0
ARC
  8
0
 62
7
  6
CONTINUOUS
 10
366.7949471298
 20
34.4411855698
 40
1.6393442623
 50
0.0
 51
90.0
  0
ARC
  8
0
 62
7
  6
CONTINUOUS
 10
360.8140758554
 20
33.7854478649
 40
1.4754098361
 50
270.0
 51
326.2510114041
  0
ARC
  8
0
 62
7
  6
CONTINUOUS
 10
366.3823757812
 20
34.6051199961
 40
1.4754098361
 50
90.0
 51
146.2510114041
  0
ARC
  8
0
 62
7
  6
CONTINUOUS
 10
361.221176638
 20
34.2772511436
 40
0.8196721311
 50
270.0
 51
360.0
  0
ARC
  8
0
 62
7
  6
CONTINUOUS
 10
365.9752749986
 20
34.1133167174
 40
0.8196721311
 50
90.0
 51
180.0
  0
ARC
  8
0
 62
7
  6
CONTINUOUS
 10
360.565438933
 20
33.867415078
 40
0.4098360656
 50
180.0
 51
270.0
  0
ARC
  8
0
 62
7
  6
CONTINUOUS
 10
366.6310127035
 20
34.5231527829
 40
0.4098360656
 50
0.0
 51
90.0
  0
SOLID
  8
0
 62
7
  6
CONTINUOUS
 10
365.4684104651
 20
31.8618347111
 11
365.4684104651
 21
32.0231531947
 12
365.757472524
 22
31.8618347111
 13
365.757472524
 23
32.0231531947
  0
SOLID
  8
0
 62
7
  6
CONTINUOUS
 10
359.744972717
 20
31.5391977439
 11
360.1496602445
 21
31.5069333244
 12
359.3980977583
 22
31.5069333244
 13
359.3980977583
 23
31.5069333244
  0
SOLID
  8
0
 62
7
  6
CONTINUOUS
 10
359.2246602583
 20
31.4746706537
 11
359.3980977583
 21
31.5069333244
 12
360.1496602445
 22
31.5069333244
 13
360.1496602445
 23
31.5069333244
  0
SOLID
  8
0
 62
7
  6
CONTINUOUS
 10
360.1496602445
 20
31.5069333244
 11
360.3809101894
 21
31.4424063504
 12
359.2246602583
 22
31.4746706537
 13
359.2246602583
 23
31.4746706537
  0
SOLID
  8
0
 62
7
  6
CONTINUOUS
 10
359.0512227376
 20
31.4101419116
 11
359.2246602583
 21
31.4746706537
 12
360.3809101894
 22
31.4424063504
 13
360.3809101894
 23
31.4424063504
  0
SOLID
  8
0
 62
7
  6
CONTINUOUS
 10
359.0512227376
 20
31.4101419116
 11
360.3809101894
 21
31.4424063504
 12
359.6871602721
 22
31.4101419116
 13
359.6871602721
 23
31.4101419116
  0
SOLID
  8
0
 62
7
  6
CONTINUOUS
 10
359.6871602721
 20
31.4101419116
 11
360.3809101894
 21
31.4424063504
 12
360.091847717
 22
31.3778792603
 13
360.091847717
 23
31.3778792603
  0
SOLID
  8
0
 62
7
  6
CONTINUOUS
 10
360.3809101894
 20
31.4424063504
 11
360.5543476894
 21
31.345614957
 12
360.091847717
 22
31.3778792603
 13
360.091847717
 23
31.3778792603
  0
SOLID
  8
0
 62
7
  6
CONTINUOUS
 10
360.2652852997
 20
31.3133521701
 11
360.091847717
 21
31.3778792603
 12
360.5543476894
 22
31.345614957
 13
360.5543476894
 23
31.345614957
  0
SOLID
  8
0
 62
7
  6
CONTINUOUS
 10
360.2652852997
 20
31.3133521701
 11
360.5543476894
 21
31.345614957
 12
360.3230977445
 22
31.2165606992
 13
360.3230977445
 23
31.2165606992
  0
SOLID
  8
0
 62
7
  6
CONTINUOUS
 10
360.5543476894
 20
31.345614957
 11
360.6121602997
 21
31.2165606992
 12
360.3230977445
 22
31.2165606992
 13
360.3230977445
 23
31.2165606992
  0
SOLID
  8
0
 62
7
  6
CONTINUOUS
 10
361.6527851343
 20
31.5069329918
 11
361.8840352445
 21
31.5391972951
 12
362.1152853548
 22
31.5391972951
 13
362.1152853548
 23
31.5391972951
  0
SOLID
  8
0
 62
7
  6
CONTINUOUS
 10
362.1152853548
 20
31.5391972951
 11
362.2887228548
 21
31.5069329918
 12
361.6527851343
 22
31.5069329918
 13
361.6527851343
 23
31.5069329918
  0
SOLID
  8
0
 62
7
  6
CONTINUOUS
 10
361.4793477997
 20
31.4424059016
 11
361.6527851343
 21
31.5069329918
 12
362.2887228548
 22
31.5069329918
 13
362.2887228548
 23
31.5069329918
  0
SOLID
  8
0
 62
7
  6
CONTINUOUS
 10
362.2887228548
 20
31.5069329918
 11
362.4621603548
 21
31.4424059016
 12
361.4793477997
 22
31.4424059016
 13
361.4793477997
 23
31.4424059016
  0
SOLID
  8
0
 62
7
  6
CONTINUOUS
 10
362.4621603548
 20
31.4424059016
 11
361.8840352445
 21
31.4101420472
 12
361.4793477997
 22
31.4424059016
 13
361.4793477997
 23
31.4424059016
  0
SOLID
  8
0
 62
7
  6
CONTINUOUS
 10
361.3637227445
 20
31.3778788115
 11
361.4793477997
 21
31.4424059016
 12
361.8840352445
 22
31.4101420472
 13
361.8840352445
 23
31.4101420472
  0
SOLID
  8
0
 62
7
  6
CONTINUOUS
 10
361.8840352445
 20
31.4101420472
 11
361.6527851343
 21
31.3778788115
 12
361.3637227445
 22
31.3778788115
 13
361.3637227445
 23
31.3778788115
  0
SOLID
  8
0
 62
7
  6
CONTINUOUS
 10
361.8840352445
 20
31.4101420472
 11
362.4621603548
 21
31.4424059016
 12
362.1152853548
 22
31.3778788115
 13
362.1152853548
 23
31.3778788115
  0
SOLID
  8
0
 62
7
  6
CONTINUOUS
 10
362.4621603548
 20
31.4424059016
 11
362.5777852445
 21
31.3778788115
 12
362.1152853548
 22
31.3778788115
 13
362.1152853548
 23
31.3778788115
  0
SOLID
  8
0
 62
7
  6
CONTINUOUS
 10
362.2309102445
 20
31.345614957
 11
362.1152853548
 21
31.3778788115
 12
362.5777852445
 22
31.3778788115
 13
362.5777852445
 23
31.3778788115
  0
SOLID
  8
0
 62
7
  6
CONTINUOUS
 10
362.5777852445
 20
31.3778788115
 11
362.6355978548
 21
31.3133517213
 12
362.2309102445
 22
31.345614957
 13
362.2309102445
 23
31.345614957
  0
SOLID
  8
0
 62
7
  6
CONTINUOUS
 10
362.3465351343
 20
31.2810878668
 11
362.2309102445
 21
31.345614957
 12
362.6355978548
 22
31.3133517213
 13
362.6355978548
 23
31.3133517213
  0
SOLID
  8
0
 62
7
  6
CONTINUOUS
 10
362.3465351343
 20
31.2810878668
 11
362.6355978548
 21
31.3133517213
 12
362.4043477445
 22
31.1520332377
 13
362.4043477445
 23
31.1520332377
  0
SOLID
  8
0
 62
7
  6
CONTINUOUS
 10
362.6355978548
 20
31.3133517213
 11
362.6934101343
 21
31.1520332377
 12
362.4043477445
 22
31.1520332377
 13
362.4043477445
 23
31.1520332377
  0
SOLID
  8
0
 62
7
  6
CONTINUOUS
 10
361.6527851343
 20
31.3778788115
 11
361.4793477997
 21
31.3133517213
 12
361.3637227445
 22
31.3778788115
 13
361.3637227445
 23
31.3778788115
  0
SOLID
  8
0
 62
7
  6
CONTINUOUS
 10
361.4793477997
 20
31.3133517213
 11
361.3637227445
 21
31.2488235635
 12
361.3637227445
 22
31.3778788115
 13
361.3637227445
 23
31.3778788115
  0
SOLID
  8
0
 62
7
  6
CONTINUOUS
 10
361.3637227445
 20
31.2488235635
 11
361.0746601894
 21
30.5067593033
 12
361.3637227445
 22
31.3778788115
 13
361.3637227445
 23
31.3778788115
  0
SOLID
  8
0
 62
7
  6
CONTINUOUS
 10
361.3637227445
 20
31.3778788115
 11
361.0746601894
 21
30.5067593033
 12
361.3637227445
 22
32.0231527459
 13
361.3637227445
 23
32.0231527459
  0
SOLID
  8
0
 62
7
  6
CONTINUOUS
 10
361.0746601894
 20
30.5067593033
 11
361.0746601894
 21
32.0231527459
 12
361.3637227445
 22
32.0231527459
 13
361.3637227445
 23
32.0231527459
  0
SOLID
  8
0
 62
7
  6
CONTINUOUS
 10
361.3637227445
 20
31.2488235635
 11
361.3637227445
 21
30.5067593033
 12
361.0746601894
 22
30.5067593033
 13
361.0746601894
 23
30.5067593033
  0
SOLID
  8
0
 62
7
  6
CONTINUOUS
 10
362.4043477445
 20
30.5067593033
 11
362.4043477445
 21
31.1520332377
 12
362.6934101343
 22
31.1520332377
 13
362.6934101343
 23
31.1520332377
  0
SOLID
  8
0
 62
7
  6
CONTINUOUS
 10
362.6934101343
 20
31.1520332377
 11
362.6934101343
 21
30.5067593033
 12
362.4043477445
 22
30.5067593033
 13
362.4043477445
 23
30.5067593033
  0
SOLID
  8
0
 62
7
  6
CONTINUOUS
 10
363.4449727445
 20
31.506933758
 11
363.8496603548
 21
31.5391977507
 12
364.1965353548
 22
31.5391977507
 13
364.1965353548
 23
31.5391977507
  0
SOLID
  8
0
 62
7
  6
CONTINUOUS
 10
364.1965353548
 20
31.5391977507
 11
364.543410024
 21
31.506933758
 12
363.4449727445
 22
31.506933758
 13
363.4449727445
 23
31.506933758
  0
SOLID
  8
0
 62
7
  6
CONTINUOUS
 10
363.3293478548
 20
31.4746706537
 11
363.4449727445
 21
31.506933758
 12
364.543410024
 22
31.506933758
 13
364.543410024
 23
31.506933758
  0
SOLID
  8
0
 62
7
  6
CONTINUOUS
 10
364.543410024
 20
31.506933758
 11
364.716847524
 21
31.4424063504
 12
363.3293478548
 22
31.4746706537
 13
363.3293478548
 23
31.4746706537
  0
SOLID
  8
0
 62
7
  6
CONTINUOUS
 10
363.2137226343
 20
31.4101417797
 11
363.3293478548
 21
31.4746706537
 12
364.716847524
 22
31.4424063504
 13
364.716847524
 23
31.4424063504
  0
SOLID
  8
0
 62
7
  6
CONTINUOUS
 10
363.2137226343
 20
31.4101417797
 11
364.716847524
 21
31.4424063504
 12
363.8496603548
 22
31.4101417797
 13
363.8496603548
 23
31.4101417797
  0
SOLID
  8
0
 62
7
  6
CONTINUOUS
 10
363.8496603548
 20
31.4101417797
 11
364.716847524
 21
31.4424063504
 12
364.1965353548
 22
31.4101417797
 13
364.1965353548
 23
31.4101417797
  0
SOLID
  8
0
 62
7
  6
CONTINUOUS
 10
364.1965353548
 20
31.4101417797
 11
364.716847524
 21
31.4424063504
 12
364.4277854651
 22
31.3778793357
 13
364.4277854651
 23
31.3778793357
  0
SOLID
  8
0
 62
7
  6
CONTINUOUS
 10
364.716847524
 20
31.4424063504
 11
364.8324727445
 21
31.3778793357
 12
364.4277854651
 22
31.3778793357
 13
364.4277854651
 23
31.3778793357
  0
SOLID
  8
0
 62
7
  6
CONTINUOUS
 10
363.1559103548
 20
31.3456153429
 11
363.2137226343
 21
31.4101417797
 12
363.8496603548
 22
31.4101417797
 13
363.8496603548
 23
31.4101417797
  0
SOLID
  8
0
 62
7
  6
CONTINUOUS
 10
364.543410024
 20
31.3456153429
 11
364.4277854651
 21
31.3778793357
 12
364.8324727445
 22
31.3778793357
 13
364.8324727445
 23
31.3778793357
  0
SOLID
  8
0
 62
7
  6
CONTINUOUS
 10
364.543410024
 20
31.3456153429
 11
364.8324727445
 21
31.3778793357
 12
364.6012229651
 22
31.2810881318
 13
364.6012229651
 23
31.2810881318
  0
SOLID
  8
0
 62
7
  6
CONTINUOUS
 10
364.8324727445
 20
31.3778793357
 11
364.890285024
 21
31.2810881318
 12
364.6012229651
 22
31.2810881318
 13
364.6012229651
 23
31.2810881318
  0
SOLID
  8
0
 62
7
  6
CONTINUOUS
 10
364.6012229651
 20
31.1842964734
 11
364.6012229651
 21
31.2810881318
 12
364.890285024
 22
31.2810881318
 13
364.890285024
 23
31.2810881318
  0
SOLID
  8
0
 62
7
  6
CONTINUOUS
 10
364.6012229651
 20
31.1842964734
 11
364.890285024
 21
31.2810881318
 12
364.6012229651
 22
31.0552422931
 13
364.6012229651
 23
31.0552422931
  0
SOLID
  8
0
 62
7
  6
CONTINUOUS
 10
364.6012229651
 20
31.0552422931
 11
364.890285024
 21
31.2810881318
 12
364.6012229651
 22
30.8616599362
 13
364.6012229651
 23
30.8616599362
  0
SOLID
  8
0
 62
7
  6
CONTINUOUS
 10
364.890285024
 20
31.2810881318
 11
364.890285024
 21
30.7648681127
 12
364.6012229651
 22
30.8616599362
 13
364.6012229651
 23
30.8616599362
  0
SOLID
  8
0
 62
7
  6
CONTINUOUS
 10
366.798097524
 20
31.5069339419
 11
367.0293479651
 21
31.5391976292
 12
367.2605977445
 22
31.5391976292
 13
367.2605977445
 23
31.5391976292
  0
SOLID
  8
0
 62
7
  6
CONTINUOUS
 10
367.2605977445
 20
31.5391976292
 11
367.4340352445
 21
31.5069339419
 12
366.798097524
 22
31.5069339419
 13
366.798097524
 23
31.5069339419
  0
SOLID
  8
0
 62
7
  6
CONTINUOUS
 10
366.624660024
 20
31.4424065674
 11
366.798097524
 21
31.5069339419
 12
367.4340352445
 22
31.5069339419
 13
367.4340352445
 23
31.5069339419
  0
SOLID
  8
0
 62
7
  6
CONTINUOUS
 10
367.4340352445
 20
31.5069339419
 11
367.6074727445
 21
31.4424065674
 12
366.624660024
 22
31.4424065674
 13
366.624660024
 23
31.4424065674
  0
SOLID
  8
0
 62
7
  6
CONTINUOUS
 10
367.6074727445
 20
31.4424065674
 11
367.0293479651
 21
31.4101420472
 12
366.624660024
 22
31.4424065674
 13
366.624660024
 23
31.4424065674
  0
SOLID
  8
0
 62
7
  6
CONTINUOUS
 10
366.5090354651
 20
31.377879193
 11
366.624660024
 21
31.4424065674
 12
367.0293479651
 22
31.4101420472
 13
367.0293479651
 23
31.4101420472
  0
SOLID
  8
0
 62
7
  6
CONTINUOUS
 10
367.0293479651
 20
31.4101420472
 11
366.798097524
 21
31.377879193
 12
366.5090354651
 22
31.377879193
 13
366.5090354651
 23
31.377879193
  0
SOLID
  8
0
 62
7
  6
CONTINUOUS
 10
367.0293479651
 20
31.4101420472
 11
367.6074727445
 21
31.4424065674
 12
367.2605977445
 22
31.377879193
 13
367.2605977445
 23
31.377879193
  0
SOLID
  8
0
 62
7
  6
CONTINUOUS
 10
367.6074727445
 20
31.4424065674
 11
367.7230979651
 21
31.377879193
 12
367.2605977445
 22
31.377879193
 13
367.2605977445
 23
31.377879193
  0
SOLID
  8
0
 62
7
  6
CONTINUOUS
 10
367.3762229651
 20
31.345614957
 11
367.2605977445
 21
31.377879193
 12
367.7230979651
 22
31.377879193
 13
367.7230979651
 23
31.377879193
  0
SOLID
  8
0
 62
7
  6
CONTINUOUS
 10
367.3762229651
 20
31.345614957
 11
367.7230979651
 21
31.377879193
 12
367.491847524
 22
31.2810881312
 13
367.491847524
 23
31.2810881312
  0
SOLID
  8
0
 62
7
  6
CONTINUOUS
 10
367.7230979651
 20
31.377879193
 11
367.7809102445
 21
31.2810881312
 12
367.491847524
 22
31.2810881312
 13
367.491847524
 23
31.2810881312
  0
SOLID
  8
0
 62
7
  6
CONTINUOUS
 10
367.5496604651
 20
31.119769695
 11
367.491847524
 21
31.2810881312
 12
367.7809102445
 22
31.2810881312
 13
367.7809102445
 23
31.2810881312
  0
SOLID
  8
0
 62
7
  6
CONTINUOUS
 10
367.7809102445
 20
31.2810881312
 11
367.838722524
 21
31.119769695
 12
367.5496604651
 22
31.119769695
 13
367.5496604651
 23
31.119769695
  0
SOLID
  8
0
 62
7
  6
CONTINUOUS
 10
366.798097524
 20
31.377879193
 11
366.624660024
 21
31.3133521701
 12
366.5090354651
 22
31.377879193
 13
366.5090354651
 23
31.377879193
  0
SOLID
  8
0
 62
7
  6
CONTINUOUS
 10
366.624660024
 20
31.3133521701
 11
366.5090354651
 21
31.2488235635
 12
366.5090354651
 22
31.377879193
 13
366.5090354651
 23
31.377879193
  0
SOLID
  8
0
 62
7
  6
CONTINUOUS
 10
366.5090354651
 20
31.2488235635
 11
366.2199727445
 21
30.5067596374
 12
366.5090354651
 22
31.377879193
 13
366.5090354651
 23
31.377879193
  0
SOLID
  8
0
 62
7
  6
CONTINUOUS
 10
366.5090354651
 20
31.377879193
 11
366.2199727445
 21
30.5067596374
 12
366.5090354651
 22
31.5391976292
 13
366.5090354651
 23
31.5391976292
  0
SOLID
  8
0
 62
7
  6
CONTINUOUS
 10
366.2199727445
 20
30.5067596374
 11
366.2199727445
 21
31.5391976292
 12
366.5090354651
 22
31.5391976292
 13
366.5090354651
 23
31.5391976292
  0
SOLID
  8
0
 62
7
  6
CONTINUOUS
 10
366.5090354651
 20
31.2488235635
 11
366.5090354651
 21
30.5067596374
 12
366.2199727445
 22
30.5067596374
 13
366.2199727445
 23
30.5067596374
  0
SOLID
  8
0
 62
7
  6
CONTINUOUS
 10
367.5496604651
 20
30.5067596374
 11
367.5496604651
 21
31.119769695
 12
367.838722524
 22
31.119769695
 13
367.838722524
 23
31.119769695
  0
SOLID
  8
0
 62
7
  6
CONTINUOUS
 10
367.838722524
 20
31.119769695
 11
367.838722524
 21
30.5067596374
 12
367.5496604651
 22
30.5067596374
 13
367.5496604651
 23
30.5067596374
  0
SOLID
  8
0
 62
7
  6
CONTINUOUS
 10
368.6480977445
 20
31.5069334157
 11
368.9949727445
 21
31.539197762
 12
369.3418477445
 22
31.539197762
 13
369.3418477445
 23
31.539197762
  0
SOLID
  8
0
 62
7
  6
CONTINUOUS
 10
369.3418477445
 20
31.539197762
 11
369.6887227445
 21
31.5069334157
 12
368.6480977445
 22
31.5069334157
 13
368.6480977445
 23
31.5069334157
  0
SOLID
  8
0
 62
7
  6
CONTINUOUS
 10
368.4168479651
 20
31.4424063504
 11
368.6480977445
 21
31.5069334157
 12
369.6887227445
 22
31.5069334157
 13
369.6887227445
 23
31.5069334157
  0
SOLID
  8
0
 62
7
  6
CONTINUOUS
 10
368.4168479651
 20
31.4424063504
 11
369.6887227445
 21
31.5069334406
 12
369.8621602445
 22
31.4746706537
 13
369.8621602445
 23
31.4746706537
  0
SOLID
  8
0
 62
7
  6
CONTINUOUS
 10
368.4168479651
 20
31.4424063504
 11
369.8621602445
 21
31.4746706537
 12
368.9949727445
 22
31.4101421267
 13
368.9949727445
 23
31.4101421267
  0
SOLID
  8
0
 62
7
  6
CONTINUOUS
 10
368.9949727445
 20
31.4101421267
 11
369.8621602445
 21
31.4746706537
 12
369.3418477445
 22
31.4101421267
 13
369.3418477445
 23
31.4101421267
  0
SOLID
  8
0
 62
7
  6
CONTINUOUS
 10
369.8621602445
 20
31.4746706537
 11
370.0355977445
 21
31.4101421267
 12
369.3418477445
 22
31.4101421267
 13
369.3418477445
 23
31.4101421267
  0
SOLID
  8
0
 62
7
  6
CONTINUOUS
 10
369.6887227445
 20
31.3778792603
 11
369.3418477445
 21
31.4101421267
 12
370.0355977445
 22
31.4101421267
 13
370.0355977445
 23
31.4101421267
  0
SOLID
  8
0
 62
7
  6
CONTINUOUS
 10
368.3012227445
 20
31.3456148845
 11
368.4168479651
 21
31.4424063504
 12
368.9949727445
 22
31.4101421267
 13
368.9949727445
 23
31.4101421267
  0
SOLID
  8
0
 62
7
  6
CONTINUOUS
 10
369.6887227445
 20
31.3778792603
 11
370.0355977445
 21
31.4101421267
 12
369.8043479651
 22
31.3456148845
 13
369.8043479651
 23
31.3456148845
  0
SOLID
  8
0
 62
7
  6
CONTINUOUS
 10
369.8043479651
 20
31.3456148845
 11
370.0355977445
 21
31.4101421267
 12
369.8621602445
 22
31.281087868
 13
369.8621602445
 23
31.281087868
  0
SOLID
  8
0
 62
7
  6
CONTINUOUS
 10
370.0355977445
 20
31.4101421267
 11
370.1512223035
 21
31.281087868
 12
369.8621602445
 22
31.281087868
 13
369.8621602445
 23
31.281087868
  0
SOLID
  8
0
 62
7
  6
CONTINUOUS
 10
359.4559102445
 20
31.3778792603
 11
358.9355977445
 21
31.3456148963
 12
359.6871602721
 22
31.4101421155
 13
359.6871602721
 23
31.4101421155
  0
SOLID
  8
0
 62
7
  6
CONTINUOUS
 10
358.9355977445
 20
31.3456148963
 11
359.0512227376
 21
31.4101421155
 12
359.6871602721
 22
31.4101421155
 13
359.6871602721
 23
31.4101421155
  0
SOLID
  8
0
 62
7
  6
CONTINUOUS
 10
359.4559102445
 20
31.3778792603
 11
359.3402852307
 21
31.3456148963
 12
358.9355977445
 22
31.3456148963
 13
358.9355977445
 23
31.3456148963
  0
SOLID
  8
0
 62
7
  6
CONTINUOUS
 10
358.8199727462
 20
31.2165607767
 11
358.9355977445
 21
31.3456148963
 12
359.3402852307
 22
31.3456148963
 13
359.3402852307
 23
31.3456148963
  0
SOLID
  8
0
 62
7
  6
CONTINUOUS
 10
363.1559103548
 20
31.3456149608
 11
363.8496603548
 21
31.4101420472
 12
363.6184102445
 22
31.3778792603
 13
363.6184102445
 23
31.3778792603
  0
SOLID
  8
0
 62
7
  6
CONTINUOUS
 10
363.6184102445
 20
31.3778792603
 11
363.5027853548
 21
31.3456149608
 12
363.1559103548
 22
31.3456149608
 13
363.1559103548
 23
31.3456149608
  0
SOLID
  8
0
 62
7
  6
CONTINUOUS
 10
363.1559103548
 20
31.2810878707
 11
363.1559103548
 21
31.3456149608
 12
363.5027853548
 22
31.3456149608
 13
363.5027853548
 23
31.3456149608
  0
SOLID
  8
0
 62
7
  6
CONTINUOUS
 10
363.5027853548
 20
31.3456149608
 11
363.4449727445
 21
31.2810878707
 12
363.1559103548
 22
31.2810878707
 13
363.1559103548
 23
31.2810878707
  0
SOLID
  8
0
 62
7
  6
CONTINUOUS
 10
368.3012227445
 20
31.3456149608
 11
368.9949727445
 21
31.4101420472
 12
368.7637229651
 22
31.3778792603
 13
368.7637229651
 23
31.3778792603
  0
SOLID
  8
0
 62
7
  6
CONTINUOUS
 10
368.7637229651
 20
31.3778792603
 11
368.6480977445
 21
31.3456149608
 12
368.3012227445
 22
31.3456149608
 13
368.3012227445
 23
31.3456149608
  0
SOLID
  8
0
 62
7
  6
CONTINUOUS
 10
368.3012227445
 20
31.2810878707
 11
368.3012227445
 21
31.3456149608
 12
368.6480977445
 22
31.3456149608
 13
368.6480977445
 23
31.3456149608
  0
SOLID
  8
0
 62
7
  6
CONTINUOUS
 10
368.6480977445
 20
31.3456149608
 11
368.5902854651
 21
31.2810878707
 12
368.3012227445
 22
31.2810878707
 13
368.3012227445
 23
31.2810878707
  0
SOLID
  8
0
 62
7
  6
CONTINUOUS
 10
368.4168479651
 20
31.1520336865
 11
368.3012227445
 21
31.2810878707
 12
368.5902854651
 22
31.2810878707
 13
368.5902854651
 23
31.2810878707
  0
SOLID
  8
0
 62
7
  6
CONTINUOUS
 10
358.8199727462
 20
31.2165607767
 11
359.3402852307
 21
31.345614957
 12
359.1668477307
 22
31.2488235635
 13
359.1668477307
 23
31.2488235635
  0
SOLID
  8
0
 62
7
  6
CONTINUOUS
 10
359.1668477307
 20
31.2488235635
 11
359.1090352445
 21
31.1842964734
 12
358.8199727462
 22
31.2165607767
 13
358.8199727462
 23
31.2165607767
  0
SOLID
  8
0
 62
7
  6
CONTINUOUS
 10
358.7621602445
 20
31.0229779898
 11
358.8199727462
 21
31.2165607767
 12
359.1090352445
 22
31.1842964734
 13
359.1090352445
 23
31.1842964734
  0
SOLID
  8
0
 62
7
  6
CONTINUOUS
 10
363.6184102445
 20
31.1520336865
 11
363.9652852445
 21
31.1842964611
 12
364.6012229651
 22
31.1842964611
 13
364.6012229651
 23
31.1842964611
  0
SOLID
  8
0
 62
7
  6
CONTINUOUS
 10
363.6184102445
 20
31.1520336865
 11
364.6012229651
 21
31.1842964611
 12
363.3871601343
 22
31.0875057863
 13
363.3871601343
 23
31.0875057863
  0
SOLID
  8
0
 62
7
  6
CONTINUOUS
 10
363.3871601343
 20
31.0875057863
 11
364.6012229651
 21
31.1842964611
 12
363.9652852445
 22
31.0552422808
 13
363.9652852445
 23
31.0552422808
  0
SOLID
  8
0
 62
7
  6
CONTINUOUS
 10
364.6012229651
 20
31.1842964611
 11
364.6012229651
 21
31.0552422808
 12
363.9652852445
 22
31.0552422808
 13
363.9652852445
 23
31.0552422808
  0
SOLID
  8
0
 62
7
  6
CONTINUOUS
 10
368.4168479651
 20
31.1520338754
 11
368.5902854651
 21
31.2810878668
 12
368.6480977445
 22
31.2165607767
 13
368.6480977445
 23
31.2165607767
  0
SOLID
  8
0
 62
7
  6
CONTINUOUS
 10
368.6480977445
 20
31.2165607767
 11
368.8215352445
 21
31.1520338754
 12
368.4168479651
 22
31.1520338754
 13
368.4168479651
 23
31.1520338754
  0
SOLID
  8
0
 62
7
  6
CONTINUOUS
 10
368.6480977445
 20
31.0552422931
 11
368.4168479651
 21
31.1520338754
 12
368.8215352445
 22
31.1520338754
 13
368.8215352445
 23
31.1520338754
  0
SOLID
  8
0
 62
7
  6
CONTINUOUS
 10
368.8215352445
 20
31.1520338754
 11
369.8043479651
 21
30.9907152029
 12
368.6480977445
 22
31.0552422931
 13
368.6480977445
 23
31.0552422931
  0
SOLID
  8
0
 62
7
  6
CONTINUOUS
 10
369.6309104651
 20
30.8939239876
 11
368.6480977445
 21
31.0552422931
 12
369.8043479651
 22
30.9907152029
 13
369.8043479651
 23
30.9907152029
  0
SOLID
  8
0
 62
7
  6
CONTINUOUS
 10
369.8043479651
 20
30.9907152029
 11
370.0355977445
 21
30.8939239876
 12
369.6309104651
 22
30.8939239876
 13
369.6309104651
 23
30.8939239876
  0
SOLID
  8
0
 62
7
  6
CONTINUOUS
 10
369.8043479651
 20
30.8293967193
 11
369.6309104651
 21
30.8939239876
 12
370.0355977445
 22
30.8939239876
 13
370.0355977445
 23
30.8939239876
  0
SOLID
  8
0
 62
7
  6
CONTINUOUS
 10
369.8043479651
 20
30.8293967193
 11
370.0355977445
 21
30.8939239876
 12
369.8621602445
 22
30.7648682694
 13
369.8621602445
 23
30.7648682694
  0
SOLID
  8
0
 62
7
  6
CONTINUOUS
 10
370.0355977445
 20
30.8939239876
 11
370.1512223035
 21
30.7648682694
 12
369.8621602445
 22
30.7648682694
 13
369.8621602445
 23
30.7648682694
  0
SOLID
  8
0
 62
7
  6
CONTINUOUS
 10
369.8043479651
 20
30.7003411846
 11
369.8621602445
 21
30.7648682694
 12
370.1512223035
 22
30.7648682694
 13
370.1512223035
 23
30.7648682694
  0
SOLID
  8
0
 62
7
  6
CONTINUOUS
 10
370.1512223035
 20
30.7648682694
 11
370.1512223035
 21
30.7003411846
 12
369.8043479651
 22
30.7003411846
 13
369.8043479651
 23
30.7003411846
  0
SOLID
  8
0
 62
7
  6
CONTINUOUS
 10
369.6887227445
 20
30.6680782357
 11
369.8043479651
 21
30.7003411846
 12
370.1512223035
 22
30.7003411846
 13
370.1512223035
 23
30.7003411846
  0
SOLID
  8
0
 62
7
  6
CONTINUOUS
 10
369.6887227445
 20
30.6680782357
 11
370.1512223035
 21
30.7003411846
 12
369.4574729651
 22
30.6358140998
 13
369.4574729651
 23
30.6358140998
  0
SOLID
  8
0
 62
7
  6
CONTINUOUS
 10
370.1512223035
 20
30.7003411846
 11
370.0355977445
 21
30.6035511455
 12
369.4574729651
 22
30.6358140998
 13
369.4574729651
 23
30.6358140998
  0
SOLID
  8
0
 62
7
  6
CONTINUOUS
 10
370.0355977445
 20
30.6035511455
 11
368.5902854651
 21
30.5712868422
 12
369.4574729651
 22
30.6358140998
 13
369.4574729651
 23
30.6358140998
  0
SOLID
  8
0
 62
7
  6
CONTINUOUS
 10
369.4574729651
 20
30.6358140998
 11
368.5902854651
 21
30.5712868422
 12
369.1105979651
 22
30.6358140998
 13
369.1105979651
 23
30.6358140998
  0
SOLID
  8
0
 62
7
  6
CONTINUOUS
 10
368.5902854651
 20
30.5712868422
 11
368.4168479651
 21
30.6358140998
 12
369.1105979651
 22
30.6358140998
 13
369.1105979651
 23
30.6358140998
  0
SOLID
  8
0
 62
7
  6
CONTINUOUS
 10
368.5902854651
 20
30.5712868422
 11
370.0355977445
 21
30.6035511455
 12
368.7637229651
 22
30.5390223111
 13
368.7637229651
 23
30.5390223111
  0
SOLID
  8
0
 62
7
  6
CONTINUOUS
 10
370.0355977445
 20
30.6035511455
 11
369.8043479651
 21
30.5390223111
 12
368.7637229651
 22
30.5390223111
 13
368.7637229651
 23
30.5390223111
  0
SOLID
  8
0
 62
7
  6
CONTINUOUS
 10
369.1105979651
 20
30.5067599302
 11
368.7637229651
 21
30.5390223111
 12
369.8043479651
 22
30.5390223111
 13
369.8043479651
 23
30.5390223111
  0
SOLID
  8
0
 62
7
  6
CONTINUOUS
 10
369.8043479651
 20
30.5390223111
 11
369.4574729651
 21
30.5067599302
 12
369.1105979651
 22
30.5067599302
 13
369.1105979651
 23
30.5067599302
  0
SOLID
  8
0
 62
7
  6
CONTINUOUS
 10
358.7621602445
 20
31.0229779898
 11
359.1090352445
 21
31.1842964734
 12
359.0512227376
 22
31.0552422931
 13
359.0512227376
 23
31.0552422931
  0
SOLID
  8
0
 62
7
  6
CONTINUOUS
 10
359.0512227376
 20
31.0552422931
 11
359.0512227376
 21
30.9584509954
 12
358.7621602445
 22
31.0229779898
 13
358.7621602445
 23
31.0229779898
  0
SOLID
  8
0
 62
7
  6
CONTINUOUS
 10
358.8199727462
 20
30.8293967193
 11
358.7621602445
 21
31.0229779898
 12
359.0512227376
 22
30.9584509954
 13
359.0512227376
 23
30.9584509954
  0
SOLID
  8
0
 62
7
  6
CONTINUOUS
 10
359.0512227376
 20
30.9584509954
 11
359.1668477307
 21
30.797132416
 12
358.8199727462
 22
30.8293967193
 13
358.8199727462
 23
30.8293967193
  0
SOLID
  8
0
 62
7
  6
CONTINUOUS
 10
358.9355977445
 20
30.7003413087
 11
358.8199727462
 21
30.8293967193
 12
359.1668477307
 22
30.797132416
 13
359.1668477307
 23
30.797132416
  0
SOLID
  8
0
 62
7
  6
CONTINUOUS
 10
359.1668477307
 20
30.797132416
 11
359.3402852307
 21
30.7003413087
 12
358.9355977445
 22
30.7003413087
 13
358.9355977445
 23
30.7003413087
  0
SOLID
  8
0
 62
7
  6
CONTINUOUS
 10
359.0512227376
 20
30.6358140759
 11
358.9355977445
 21
30.7003413087
 12
359.3402852307
 22
30.7003413087
 13
359.3402852307
 23
30.7003413087
  0
SOLID
  8
0
 62
7
  6
CONTINUOUS
 10
359.3402852307
 20
30.7003413087
 11
359.6871602721
 21
30.6358140759
 12
359.0512227376
 22
30.6358140759
 13
359.0512227376
 23
30.6358140759
  0
SOLID
  8
0
 62
7
  6
CONTINUOUS
 10
359.2246602583
 20
30.5712868422
 11
359.0512227376
 21
30.6358140759
 12
359.6871602721
 22
30.6358140759
 13
359.6871602721
 23
30.6358140759
  0
SOLID
  8
0
 62
7
  6
CONTINUOUS
 10
363.2715352445
 20
31.0229779808
 11
363.3871601343
 21
31.0875057863
 12
363.9652852445
 22
31.0552422931
 13
363.9652852445
 23
31.0552422931
  0
SOLID
  8
0
 62
7
  6
CONTINUOUS
 10
363.9652852445
 20
31.0552422931
 11
363.7340351343
 21
31.0229779808
 12
363.2715352445
 22
31.0229779808
 13
363.2715352445
 23
31.0229779808
  0
SOLID
  8
0
 62
7
  6
CONTINUOUS
 10
363.1559103548
 20
30.8939238094
 11
363.2715352445
 21
31.0229779808
 12
363.7340351343
 22
31.0229779808
 13
363.7340351343
 23
31.0229779808
  0
SOLID
  8
0
 62
7
  6
CONTINUOUS
 10
363.5027853548
 20
30.926187309
 11
363.1559103548
 21
30.8939238094
 12
363.6184102445
 22
30.9907152029
 13
363.6184102445
 23
30.9907152029
  0
SOLID
  8
0
 62
7
  6
CONTINUOUS
 10
363.1559103548
 20
30.8939238094
 11
363.7340351343
 21
31.0229779898
 12
363.6184102445
 22
30.9907152029
 13
363.6184102445
 23
30.9907152029
  0
SOLID
  8
0
 62
7
  6
CONTINUOUS
 10
363.5027853548
 20
30.926187309
 11
363.4449727445
 21
30.8293967193
 12
363.1559103548
 22
30.8939238094
 13
363.1559103548
 23
30.8939238094
  0
SOLID
  8
0
 62
7
  6
CONTINUOUS
 10
363.1559103548
 20
30.797132416
 11
363.1559103548
 21
30.8939238094
 12
363.4449727445
 22
30.8293967193
 13
363.4449727445
 23
30.8293967193
  0
SOLID
  8
0
 62
7
  6
CONTINUOUS
 10
363.4449727445
 20
30.8293967193
 11
363.4449727445
 21
30.7648681127
 12
363.1559103548
 22
30.797132416
 13
363.1559103548
 23
30.797132416
  0
SOLID
  8
0
 62
7
  6
CONTINUOUS
 10
363.2137226343
 20
30.6680782357
 11
363.1559103548
 21
30.797132416
 12
363.4449727445
 22
30.7648681127
 13
363.4449727445
 23
30.7648681127
  0
SOLID
  8
0
 62
7
  6
CONTINUOUS
 10
364.6012229651
 20
30.8616599362
 11
364.890285024
 21
30.7648681127
 12
364.543410024
 22
30.797132416
 13
364.543410024
 23
30.797132416
  0
SOLID
  8
0
 62
7
  6
CONTINUOUS
 10
364.369972524
 20
30.7003410226
 11
364.543410024
 21
30.797132416
 12
364.890285024
 22
30.7648681127
 13
364.890285024
 23
30.7648681127
  0
SOLID
  8
0
 62
7
  6
CONTINUOUS
 10
364.369972524
 20
30.7003410226
 11
364.890285024
 21
30.7648681127
 12
364.6012229651
 22
30.6680782357
 13
364.6012229651
 23
30.6680782357
  0
SOLID
  8
0
 62
7
  6
CONTINUOUS
 10
364.890285024
 20
30.7648681127
 11
364.9480979651
 21
30.6035511455
 12
364.6012229651
 22
30.6680782357
 13
364.6012229651
 23
30.6680782357
  0
SOLID
  8
0
 62
7
  6
CONTINUOUS
 10
364.6590352445
 20
30.5712868422
 11
364.6012229651
 21
30.6680782357
 12
364.9480979651
 22
30.6035511455
 13
364.9480979651
 23
30.6035511455
  0
SOLID
  8
0
 62
7
  6
CONTINUOUS
 10
364.6590352445
 20
30.5712868422
 11
364.9480979651
 21
30.6035511455
 12
364.716847524
 22
30.5067598731
 13
364.716847524
 23
30.5067598731
  0
SOLID
  8
0
 62
7
  6
CONTINUOUS
 10
364.9480979651
 20
30.6035511455
 11
365.0059102445
 21
30.5067598731
 12
364.716847524
 22
30.5067598731
 13
364.716847524
 23
30.5067598731
  0
SOLID
  8
0
 62
7
  6
CONTINUOUS
 10
360.2652852997
 20
30.7326051679
 11
360.3230977445
 21
30.8293966612
 12
360.6121602997
 22
30.8293966612
 13
360.6121602997
 23
30.8293966612
  0
SOLID
  8
0
 62
7
  6
CONTINUOUS
 10
360.6121602997
 20
30.8293966612
 11
360.5543476894
 21
30.7003410226
 12
360.2652852997
 22
30.7326051679
 13
360.2652852997
 23
30.7326051679
  0
SOLID
  8
0
 62
7
  6
CONTINUOUS
 10
360.091847717
 20
30.6680782357
 11
360.2652852997
 21
30.7326051679
 12
360.5543476894
 22
30.7003410226
 13
360.5543476894
 23
30.7003410226
  0
SOLID
  8
0
 62
7
  6
CONTINUOUS
 10
360.091847717
 20
30.6680782357
 11
360.5543476894
 21
30.7003410226
 12
359.6871602721
 22
30.6358139324
 13
359.6871602721
 23
30.6358139324
  0
SOLID
  8
0
 62
7
  6
CONTINUOUS
 10
360.5543476894
 20
30.7003410226
 11
360.3809101894
 21
30.6035511455
 12
359.6871602721
 22
30.6358139324
 13
359.6871602721
 23
30.6358139324
  0
SOLID
  8
0
 62
7
  6
CONTINUOUS
 10
359.2246602583
 20
30.5712868422
 11
359.6871602721
 21
30.6358139324
 12
360.3809101894
 22
30.6035511455
 13
360.3809101894
 23
30.6035511455
  0
SOLID
  8
0
 62
7
  6
CONTINUOUS
 10
359.2246602583
 20
30.5712868422
 11
360.3809101894
 21
30.6035511455
 12
359.3980977583
 22
30.5390224228
 13
359.3980977583
 23
30.5390224228
  0
SOLID
  8
0
 62
7
  6
CONTINUOUS
 10
360.3809101894
 20
30.6035511455
 11
360.1496602445
 21
30.5390224228
 12
359.3980977583
 22
30.5390224228
 13
359.3980977583
 23
30.5390224228
  0
SOLID
  8
0
 62
7
  6
CONTINUOUS
 10
359.744972717
 20
30.5067597521
 11
359.3980977583
 21
30.5390224228
 12
360.1496602445
 22
30.5390224228
 13
360.1496602445
 23
30.5390224228
  0
SOLID
  8
0
 62
7
  6
CONTINUOUS
 10
363.2137226343
 20
30.6680782357
 11
363.4449727445
 21
30.7648681127
 12
363.5027853548
 22
30.7003410226
 13
363.5027853548
 23
30.7003410226
  0
SOLID
  8
0
 62
7
  6
CONTINUOUS
 10
363.5027853548
 20
30.7003410226
 11
363.7340351343
 21
30.6358139324
 12
363.2137226343
 22
30.6680782357
 13
363.2137226343
 23
30.6680782357
  0
SOLID
  8
0
 62
7
  6
CONTINUOUS
 10
363.3871601343
 20
30.5712868422
 11
363.2137226343
 21
30.6680782357
 12
363.7340351343
 22
30.6358139324
 13
363.7340351343
 23
30.6358139324
  0
SOLID
  8
0
 62
7
  6
CONTINUOUS
 10
364.0809101343
 20
30.6358139363
 11
364.369972524
 21
30.7003410226
 12
364.6012229651
 22
30.6680782357
 13
364.6012229651
 23
30.6680782357
  0
SOLID
  8
0
 62
7
  6
CONTINUOUS
 10
364.6012229651
 20
30.6680782357
 11
364.543410024
 21
30.6035511455
 12
364.0809101343
 22
30.6358139363
 13
364.0809101343
 23
30.6358139363
  0
SOLID
  8
0
 62
7
  6
CONTINUOUS
 10
364.543410024
 20
30.6035511455
 11
363.3871601343
 21
30.5712868422
 12
364.0809101343
 22
30.6358139363
 13
364.0809101343
 23
30.6358139363
  0
SOLID
  8
0
 62
7
  6
CONTINUOUS
 10
363.3871601343
 20
30.5712868422
 11
363.7340351343
 21
30.6358139363
 12
364.0809101343
 22
30.6358139363
 13
364.0809101343
 23
30.6358139363
  0
SOLID
  8
0
 62
7
  6
CONTINUOUS
 10
363.3871601343
 20
30.5712868422
 11
364.543410024
 21
30.6035511455
 12
363.5027853548
 22
30.5390225267
 13
363.5027853548
 23
30.5390225267
  0
SOLID
  8
0
 62
7
  6
CONTINUOUS
 10
364.543410024
 20
30.6035511455
 11
364.369972524
 21
30.5390225267
 12
363.5027853548
 22
30.5390225267
 13
363.5027853548
 23
30.5390225267
  0
SOLID
  8
0
 62
7
  6
CONTINUOUS
 10
363.7340351343
 20
30.5067596914
 11
363.5027853548
 21
30.5390225267
 12
364.369972524
 22
30.5390225267
 13
364.369972524
 23
30.5390225267
  0
SOLID
  8
0
 62
7
  6
CONTINUOUS
 10
364.369972524
 20
30.5390225267
 11
364.0809101343
 21
30.5067596914
 12
363.7340351343
 22
30.5067596914
 13
363.7340351343
 23
30.5067596914
  0
SOLID
  8
0
 62
7
  6
CONTINUOUS
 10
368.7637229651
 20
30.6680782357
 11
368.4168479651
 21
30.6358138717
 12
368.6480977445
 22
30.7003410226
 13
368.6480977445
 23
30.7003410226
  0
SOLID
  8
0
 62
7
  6
CONTINUOUS
 10
368.6480977445
 20
30.7003410226
 11
368.4168479651
 21
30.6358138717
 12
368.5902854651
 22
30.7648680521
 13
368.5902854651
 23
30.7648680521
  0
SOLID
  8
0
 62
7
  6
CONTINUOUS
 10
368.4168479651
 20
30.6358138717
 11
368.3012227445
 21
30.7648680521
 12
368.5902854651
 22
30.7648680521
 13
368.5902854651
 23
30.7648680521
  0
SOLID
  8
0
 62
7
  6
CONTINUOUS
 10
368.7637229651
 20
30.6680782357
 11
369.1105979651
 21
30.6358138717
 12
368.4168479651
 22
30.6358138717
 13
368.4168479651
 23
30.6358138717
  0
SOLID
  8
0
 62
7
  6
CONTINUOUS
 10
365.4684104651
 20
30.5067597521
 11
365.4684104651
 21
31.5391977439
 12
365.757472524
 22
30.5067597521
 13
365.757472524
 23
31.5391977439
  0
ENDBLK
  8
0
  6
BYBLOCK
 62
0
  0
BLOCK
  8
0
 62
2
  6
CONTINUOUS
  2
SYMBOL_0_BL0
 70
64
 10
240.8592468615
 20
19.762288695
  0
TEXT
  8
0
 62
7
  6
CONTINUOUS
 10
227.1239507038
 20
19.1357028027
  7
TEXTSTYLE_3
 40
2.7338706658
  1
Ammeraal Beltech
 41
1.0
 51
15.0
 72
0
  0
TEXT
  8
0
 62
7
  6
CONTINUOUS
 10
237.9247515296
 20
16.8621661299
  7
TEXTSTYLE_4
 40
1.0935482663
  1
Innovation & Service in Belting
 41
1.0
 72
0
  0
LINE
  8
0
 62
7
  6
CONTINUOUS
 10
221.0994100525
 20
19.9022961113
 11
221.8775620458
 21
23.5632134089
  0
LINE
  8
0
 62
7
  6
CONTINUOUS
 10
231.9727303357
 20
27.2266073205
 11
222.3653797889
 21
24.1049898993
  0
LINE
  8
0
 62
7
  6
CONTINUOUS
 10
221.3246933848
 20
19.2089453082
 11
228.8317686459
 21
12.4495443822
  0
LINE
  8
0
 62
7
  6
CONTINUOUS
 10
221.5872277955
 20
20.4440726016
 11
232.3954971607
 21
23.9558922005
  0
LINE
  8
0
 62
7
  6
CONTINUOUS
 10
232.3912920235
 20
13.6061036368
 11
223.9458323548
 21
21.2104296785
  0
LINE
  8
0
 62
7
  6
CONTINUOUS
 10
232.9111147433
 20
26.3816822048
 11
231.9345552061
 21
21.7873308023
  0
LINE
  8
0
 62
7
  6
CONTINUOUS
 10
231.2347532584
 20
18.4950214885
 11
230.5483050469
 21
15.2655365641
  0
LINE
  8
0
 62
7
  6
CONTINUOUS
 10
233.5922108419
 20
13.9963058145
 11
234.5484423775
 21
18.4950214885
  0
LINE
  8
0
 62
7
  6
CONTINUOUS
 10
235.2482443252
 20
21.7873308023
 11
235.6924861276
 21
23.8773241617
  0
LINE
  8
0
 62
7
  6
CONTINUOUS
 10
229.5448697213
 20
12.2979700695
 11
233.1043930989
 21
13.4545293241
  0
LINE
  8
0
 62
7
  6
CONTINUOUS
 10
232.685831411
 20
27.0750330078
 11
235.4672027953
 21
24.5706749648
  0
ARC
  8
0
 62
7
  6
CONTINUOUS
 10
222.5906631212
 20
23.4116390962
 40
0.7290321776
 50
108.0
 51
168.0
  0
ARC
  8
0
 62
7
  6
CONTINUOUS
 10
232.198013668
 20
26.5332565175
 40
0.7290321776
 50
348.0
 51
108.0
  0
ARC
  8
0
 62
7
  6
CONTINUOUS
 10
234.9793850522
 20
24.0288984744
 40
0.7290321776
 50
348.0
 51
48.0
  0
ARC
  8
0
 62
7
  6
CONTINUOUS
 10
229.319586389
 20
12.9913208726
 40
0.7290321776
 50
228.0
 51
288.0
  0
ARC
  8
0
 62
7
  6
CONTINUOUS
 10
221.8125111278
 20
19.7507217986
 40
0.7290321776
 50
108.0
 51
228.0
  0
ARC
  8
0
 62
7
  6
CONTINUOUS
 10
232.8791097665
 20
14.1478801272
 40
0.7290321776
 50
228.0
 51
348.0
  0
ENDBLK
  8
0
  6
BYBLOCK
 62
0
  0
ENDSEC
  0
SECTION
  2
ENTITIES
  0
TEXT
  8
0
 62
5
  6
CONTINUOUS
 10
304.937007874
 20
25.636
  7
TEXTSTYLE_2
 40
2.8
  1
Scale :
 41
0.6
 51
0.000019
 72
0
  0
TEXT
  8
0
 62
5
  6
CONTINUOUS
 10
324.937007874
 20
25.636
  7
TEXTSTYLE_2
 40
2.8
  1
Belt type:
 41
0.6
 51
0.000019
 72
0
  0
INSERT
  8
0
 62
2
  6
CONTINUOUS
  2
SYMBOL_0_BL0
 10
240.8592468615
 20
19.762288695
  0
INSERT
  8
0
 62
2
  6
CONTINUOUS
  2
SYMBOL_5_BL1
 10
382.7840918555
 20
35.5067593403
  0
LINE
  8
0
 62
2
  6
CONTINUOUS
 10
218.937007874
 20
30.0
 11
408.937007874
 21
30.0
  0
LINE
  8
0
 62
2
  6
CONTINUOUS
 10
218.937007874
 20
30.0
 11
218.937007874
 21
10.0
  0
LINE
  8
0
 62
2
  6
CONTINUOUS
 10
218.937007874
 20
10.0
 11
408.937007874
 21
10.0
  0
LINE
  8
0
 62
2
  6
CONTINUOUS
 10
303.937007874
 20
30.0
 11
303.937007874
 21
10.0
  0
LINE
  8
0
 62
2
  6
CONTINUOUS
 10
323.937007874
 20
30.0
 11
323.937007874
 21
10.0
  0
LINE
  8
0
 62
2
  6
CONTINUOUS
 10
408.937007874
 20
30.0
 11
408.937007874
 21
10.0
  0
TEXT
  8
0
 62
5
  6
CONTINUOUS
 10
221.937007874
 20
23.303
  7
TEXTSTYLE_5
 40
1.52
  1
                                                                     Ammeraal Beltech Modular A/S
 41
1.0
 72
0
  0
TEXT
  8
0
 62
5
  6
CONTINUOUS
 10
221.937007874
 20
20.595
  7
TEXTSTYLE_5
 40
1.5
  1
                                                                      Hjulmagervej 21, 7100 Vejle,  DK
 41
1.0
 72
0
  0
TEXT
  8
0
 62
5
  6
CONTINUOUS
 10
221.937007874
 20
17.881
  7
TEXTSTYLE_5
 40
1.495
  1
                                                                      tel: 
 41
1.0
 72
0
  0
TEXT
  8
0
 62
5
  6
CONTINUOUS
 10
266.9239544389
 20
17.881
  7
TEXTSTYLE_5
 40
1.51
  1
+45 75723100     fax: +45 75723348
 41
1.0
 72
0
  0
TEXT
  8
0
 62
5
  6
CONTINUOUS
 10
221.937007874
 20
15.177
  7
TEXTSTYLE_5
 40
1.5
  1
                                                                      admin@unichains.dk  www.unichains.com
 41
1.0
 72
0
  0
TEXT
  8
0
 62
5
  6
CONTINUOUS
 10
308.687007874
 20
13.75
  7
TEXTSTYLE_6
 40
5.0
  1
1:1
 41
0.7
 72
1
 11
313.937007874
 21
13.75
  0
TEXT
  8
0
 62
5
  6
CONTINUOUS
 10
326.937007874
 20
13.75
  7
TEXTSTYLE_7
 40
7.5
  1
Sprocket Z10
 41
0.6361111111
 72
0
  0
LINE
  8
0
 62
7
  6
CONTINUOUS
 10
0.0
 20
0.0
 11
0.0
 21
297.0
  0
LINE
  8
0
 62
7
  6
CONTINUOUS
 10
8.937007874
 20
10.0
 11
8.937007874
 21
287.0
  0
LINE
  8
0
 62
7
  6
CONTINUOUS
 10
0.0
 20
0.0
 11
420.0
 21
0.0
  0
LINE
  8
0
 62
7
  6
CONTINUOUS
 10
408.937007874
 20
10.0
 11
8.937007874
 21
10.0
  0
LINE
  8
0
 62
7
  6
CONTINUOUS
 10
218.937007874
 20
30.0
 11
408.937007874
 21
30.0
  0
LINE
  8
0
 62
7
  6
CONTINUOUS
 10
210.0
 20
297.0
 11
210.0
 21
292.0
  0
LINE
  8
0
 62
7
  6
CONTINUOUS
 10
210.0
 20
0.0
 11
210.0
 21
5.0
  0
LINE
  8
0
 62
7
  6
CONTINUOUS
 10
8.937007874
 20
287.0
 11
408.937007874
 21
287.0
  0
LINE
  8
0
 62
7
  6
CONTINUOUS
 10
0.0
 20
297.0
 11
420.0
 21
297.0
  0
LINE
  8
0
 62
7
  6
CONTINUOUS
 10
408.937007874
 20
287.0
 11
408.937007874
 21
10.0
  0
LINE
  8
0
 62
7
  6
CONTINUOUS
 10
420.0
 20
0.0
 11
420.0
 21
297.0
  0
LINE
  8
0
 62
9
  6
CONTINUOUS
 10
42.9614724636
 20
180.1221905363
 11
43.5475691564
 21
181.5029478164
  0
LINE
  8
0
 62
9
  6
CONTINUOUS
 10
44.786995422
 20
179.347302014
 11
45.3730921147
 21
180.7280592942
  0
LINE
  8
0
 62
9
  6
CONTINUOUS
 10
70.5392145938
 20
235.8328308346
 11
71.8249655448
 21
236.605387947
  0
LINE
  8
0
 62
9
  6
CONTINUOUS
 10
71.5606256452
 20
234.1329173788
 11
72.8463765962
 21
234.9054744912
  0
LINE
  8
0
 62
9
  6
CONTINUOUS
 10
159.3644381425
 20
66.3855629366
 11
157.8701460954
 21
66.5162965507
  0
LINE
  8
0
 62
9
  6
CONTINUOUS
 10
159.5372833032
 20
68.3611921639
 11
158.0429912561
 21
68.491925778
  0
LINE
  8
0
 62
9
  6
CONTINUOUS
 10
97.8584796751
 20
75.3980196745
 11
96.7264153047
 21
76.3821082179
  0
LINE
  8
0
 62
9
  6
CONTINUOUS
 10
99.1595600713
 20
76.8947414575
 11
98.0274957009
 21
77.878830001
  0
LINE
  8
0
 62
9
  6
CONTINUOUS
 10
53.396503177
 20
118.8415456517
 11
53.0590765955
 21
120.3031007489
  0
LINE
  8
0
 62
9
  6
CONTINUOUS
 10
55.3288503195
 20
119.2876631411
 11
54.9914237379
 21
120.7492182383
  0
LINE
  8
0
 62
9
  6
CONTINUOUS
 10
59.6984735366
 20
189.0198916261
 11
59.234948045
 21
187.5933068516
  0
LINE
  8
0
 62
9
  6
CONTINUOUS
 10
60.1740017947
 20
188.8653831289
 11
59.7104763031
 21
187.4387983544
  0
LINE
  8
0
 62
9
  6
CONTINUOUS
 10
89.3096703766
 20
233.1934598289
 11
88.096144885
 21
232.3117819504
  0
LINE
  8
0
 62
9
  6
CONTINUOUS
 10
89.6035630027
 20
232.7889513317
 11
88.3900375111
 21
231.9072734533
  0
LINE
  8
0
 62
9
  6
CONTINUOUS
 10
145.7302037746
 20
79.5538560226
 11
147.2302037746
 21
79.5538560226
  0
LINE
  8
0
 62
9
  6
CONTINUOUS
 10
145.7302037746
 20
80.0538560226
 11
147.2302037746
 21
80.0538560226
  0
LINE
  8
0
 62
9
  6
CONTINUOUS
 10
94.56828084
 20
94.0653944557
 11
95.7818063316
 21
93.1837165773
  0
LINE
  8
0
 62
9
  6
CONTINUOUS
 10
94.8621734661
 20
94.4699029529
 11
96.0756989577
 21
93.5882250744
  0
LINE
  8
0
 62
9
  6
CONTINUOUS
 10
61.707084
 20
135.8776994425
 11
62.1706094916
 21
134.4511146681
  0
LINE
  8
0
 62
9
  6
CONTINUOUS
 10
62.1826122582
 20
136.0322079397
 11
62.6461377497
 21
134.6056231653
  0
LINE
  8
0
 62
7
  6
CONTINUOUS
 10
53.1918762391
 20
160.9044742966
 11
54.6979618582
 21
165.5397292123
  0
LINE
  8
0
 62
7
  6
CONTINUOUS
 10
62.6941488161
 20
190.1494621727
 11
72.968963879
 21
221.7720913395
  0
LINE
  8
0
 62
9
  6
CONTINUOUS
 10
64.1207335905
 20
189.6859366811
 11
74.3955486535
 21
221.308565848
  0
LINE
  8
0
 62
7
  6
CONTINUOUS
 10
67.519894919
 20
214.2720913395
 11
71.4628782599
 21
217.1368364239
  0
LINE
  8
0
 62
7
  6
CONTINUOUS
 10
92.397167496
 20
232.3464878475
 11
119.296982559
 21
251.8903474862
  0
LINE
  8
0
 62
9
  6
CONTINUOUS
 10
93.2788453745
 20
231.1329623559
 11
120.1786604374
 21
250.6768219947
  0
LINE
  8
0
 62
7
  6
CONTINUOUS
 10
174.4802037746
 20
82.0538560226
 11
169.6064083311
 21
82.0538560226
  0
LINE
  8
0
 62
7
  6
CONTINUOUS
 10
143.7302037746
 20
82.0538560226
 11
110.4802037746
 21
82.0538560226
  0
LINE
  8
0
 62
9
  6
CONTINUOUS
 10
143.7302037746
 20
83.5538560226
 11
110.4802037746
 21
83.5538560226
  0
LINE
  8
0
 62
7
  6
CONTINUOUS
 10
119.296982559
 20
79.1891109383
 11
115.3539992181
 21
82.0538560226
  0
LINE
  8
0
 62
7
  6
CONTINUOUS
 10
94.419709982
 20
97.2635074463
 11
67.519894919
 21
116.807367085
  0
LINE
  8
0
 62
9
  6
CONTINUOUS
 10
95.3013878604
 20
98.4770329378
 11
68.4015727974
 21
118.0208925766
  0
LINE
  8
0
 62
7
  6
CONTINUOUS
 10
72.968963879
 20
109.307367085
 11
71.4628782599
 21
113.9426220006
  0
LINE
  8
0
 62
7
  6
CONTINUOUS
 10
63.466691302
 20
138.5523549611
 11
53.1918762391
 21
170.1749841279
  0
LINE
  8
0
 62
9
  6
CONTINUOUS
 10
64.8932760765
 20
139.0158804526
 11
54.6184610135
 21
170.6385096194
  0
LINE
  8
0
 62
7
  6
CONTINUOUS
 10
82.1470749039
 20
149.819642546
 11
82.2432713886
 21
148.8735365841
  0
LINE
  8
0
 62
7
  6
CONTINUOUS
 10
83.0122534125
 20
149.0862964646
 11
82.9577217736
 21
149.8818123934
  0
LINE
  8
0
 62
7
  6
CONTINUOUS
 10
97.4501660969
 20
202.6595472317
 11
97.8135542924
 21
203.3693057372
  0
LINE
  8
0
 62
7
  6
CONTINUOUS
 10
105.3014114996
 20
214.5917646297
 11
105.584809357
 21
214.9978141609
  0
LINE
  8
0
 62
7
  6
CONTINUOUS
 10
106.9069247476
 20
212.405117191
 11
107.1903226049
 21
212.8111667221
  0
LINE
  8
0
 62
7
  6
CONTINUOUS
 10
94.2102265203
 20
205.2511611092
 11
91.867806258
 21
202.3227541507
  0
LINE
  8
0
 62
7
  6
CONTINUOUS
 10
93.0764765596
 20
202.5564686599
 11
94.9308911113
 21
204.8747889735
  0
LINE
  8
0
 62
7
  6
CONTINUOUS
 10
96.8000871686
 20
203.379627003
 11
94.9456726169
 21
201.0613066893
  0
LINE
  8
0
 62
7
  6
CONTINUOUS
 10
95.6933509001
 20
200.4632420128
 11
97.4501660969
 21
202.6595472317
  0
LINE
  8
0
 62
7
  6
CONTINUOUS
 10
105.2385500987
 20
215.7334228874
 11
104.7032628866
 21
215.1424273568
  0
LINE
  8
0
 62
7
  6
CONTINUOUS
 10
106.8440633467
 20
213.5467754487
 11
106.3087761346
 21
212.955779918
  0
LINE
  8
0
 62
7
  6
CONTINUOUS
 10
99.6922814368
 20
211.1010540346
 11
98.7897061424
 21
210.2362731854
  0
LINE
  8
0
 62
7
  6
CONTINUOUS
 10
103.6787373565
 20
208.0696433226
 11
101.6479351973
 21
206.1238789895
  0
LINE
  8
0
 62
7
  6
CONTINUOUS
 10
101.9767012648
 20
205.5548864568
 11
104.2331446653
 21
207.7168435281
  0
LINE
  8
0
 62
7
  6
CONTINUOUS
 10
94.8228408103
 20
205.7615647225
 11
94.2102265203
 21
205.2511611092
  0
LINE
  8
0
 62
7
  6
CONTINUOUS
 10
105.7423403391
 20
216.1033233527
 11
105.2385500987
 21
215.7334228874
  0
LINE
  8
0
 62
7
  6
CONTINUOUS
 10
105.584809357
 20
214.9978141609
 11
106.3404889521
 21
215.5526606257
  0
LINE
  8
0
 62
7
  6
CONTINUOUS
 10
107.9147210739
 20
215.5207037639
 11
108.5444502263
 21
215.9830729958
  0
LINE
  8
0
 62
7
  6
CONTINUOUS
 10
107.4737924991
 20
214.0091446806
 11
106.8440633467
 21
213.5467754487
  0
LINE
  8
0
 62
7
  6
CONTINUOUS
 10
107.1903226049
 20
212.8111667221
 11
108.0719526428
 21
213.4584904198
  0
LINE
  8
0
 62
7
  6
CONTINUOUS
 10
94.9308911113
 20
204.8747889735
 11
95.3483066913
 21
205.1411623973
  0
LINE
  8
0
 62
7
  6
CONTINUOUS
 10
106.4665114316
 20
216.4370662859
 11
105.7423403391
 21
216.1033233527
  0
LINE
  8
0
 62
7
  6
CONTINUOUS
 10
108.1979751224
 20
214.3428960801
 11
107.4737924991
 21
214.0091446806
  0
LINE
  8
0
 62
7
  6
CONTINUOUS
 10
106.3404889521
 20
215.5526606257
 11
106.8127706898
 21
215.7014575594
  0
LINE
  8
0
 62
7
  6
CONTINUOUS
 10
108.0719526428
 20
213.4584904198
 11
108.5442343806
 21
213.6072873535
  0
LINE
  8
0
 62
7
  6
CONTINUOUS
 10
124.9939805117
 20
108.0331274056
 11
125.6383712719
 21
108.0039739244
  0
LINE
  8
0
 62
7
  6
CONTINUOUS
 10
125.8240656543
 20
108.6146634306
 11
125.1796748941
 21
108.6438169119
  0
LINE
  8
0
 62
7
  6
CONTINUOUS
 10
129.1425547544
 20
106.8910333198
 11
129.9101507354
 21
106.7456090949
  0
LINE
  8
0
 62
7
  6
CONTINUOUS
 10
132.9805339459
 20
106.1639123305
 11
133.7481297623
 21
106.0184881368
  0
LINE
  8
0
 62
7
  6
CONTINUOUS
 10
124.396013347
 20
108.2149532635
 11
124.9939805117
 21
108.0331274056
  0
LINE
  8
0
 62
7
  6
CONTINUOUS
 10
126.3394059905
 20
107.6240194206
 11
127.0868647324
 21
107.3967371633
  0
LINE
  8
0
 62
7
  6
CONTINUOUS
 10
119.8181042954
 20
107.2917092033
 11
120.5479462335
 21
107.0129945782
  0
LINE
  8
0
 62
7
  6
CONTINUOUS
 10
120.8325910316
 20
107.7583652637
 11
120.1027490935
 21
108.0370798887
  0
LINE
  8
0
 62
7
  6
CONTINUOUS
 10
120.6720388492
 20
109.5278216773
 11
121.4018807873
 21
109.2491070522
  0
LINE
  8
0
 62
7
  6
CONTINUOUS
 10
125.1796748941
 20
108.6438169119
 11
124.6281313251
 21
108.9783151463
  0
LINE
  8
0
 62
7
  6
CONTINUOUS
 10
105.2213080737
 20
115.2625941081
 11
106.0014588927
 21
114.7427182098
  0
LINE
  8
0
 62
7
  6
CONTINUOUS
 10
109.6421622187
 20
112.316631015
 11
110.4223130377
 21
111.7967551167
  0
LINE
  8
0
 62
7
  6
CONTINUOUS
 10
123.993961783
 20
108.5039949684
 11
124.396013347
 21
108.2149532635
  0
LINE
  8
0
 62
7
  6
CONTINUOUS
 10
102.7514006442
 20
117.255282198
 11
103.4571542189
 21
116.6381775539
  0
LINE
  8
0
 62
7
  6
CONTINUOUS
 10
103.529236741
 20
125.2660632328
 11
107.0580032684
 21
122.1805411893
  0
LINE
  8
0
 62
7
  6
CONTINUOUS
 10
95.1654743816
 20
124.6948407939
 11
97.6547317661
 21
121.8901843668
  0
LINE
  8
0
 62
7
  6
CONTINUOUS
 10
97.7484998266
 20
123.2269034747
 11
95.7778393132
 21
125.4472546963
  0
LINE
  8
0
 62
7
  6
CONTINUOUS
 10
97.4486985964
 20
126.9302166623
 11
99.4193591098
 21
124.7098654407
  0
LINE
  8
0
 62
7
  6
CONTINUOUS
 10
100.1354415165
 20
125.3454204419
 11
98.1647810031
 21
127.5657716635
  0
LINE
  8
0
 62
7
  6
CONTINUOUS
 10
99.9549872705
 20
129.1546593888
 11
101.9256477839
 21
126.9343081672
  0
LINE
  8
0
 62
7
  6
CONTINUOUS
 10
94.7662269523
 20
125.3850691581
 11
95.1654743816
 21
124.6948407939
  0
LINE
  8
0
 62
7
  6
CONTINUOUS
 10
83.3743778609
 20
148.375884488
 11
83.0122534125
 21
149.0862964646
  0
LINE
  8
0
 62
7
  6
CONTINUOUS
 10
85.0255364055
 20
140.741003135
 11
87.7857805797
 21
135.1335507459
  0
LINE
  8
0
 62
7
  6
CONTINUOUS
 10
88.5016257533
 20
135.485922435
 11
86.086411706
 21
140.3924440777
  0
LINE
  8
0
 62
7
  6
CONTINUOUS
 10
90.8954675308
 20
143.6304513313
 11
93.2416749209
 21
138.8641171214
  0
LINE
  8
0
 62
7
  6
CONTINUOUS
 10
82.2432713886
 20
148.8735365841
 11
82.6470606828
 21
148.0125345744
  0
LINE
  8
0
 62
7
  6
CONTINUOUS
 10
95.7778393132
 20
125.4472546963
 11
95.5860292079
 21
125.9037625832
  0
LINE
  8
0
 62
7
  6
CONTINUOUS
 10
83.6740461012
 20
144.350941471
 11
84.0050348304
 21
143.4738139369
  0
LINE
  8
0
 62
7
  6
CONTINUOUS
 10
89.5678997461
 20
149.9273737338
 11
89.4717032749
 21
150.8734796995
  0
LINE
  8
0
 62
7
  6
CONTINUOUS
 10
94.7093911336
 20
126.1702902881
 11
94.7662269523
 21
125.3850691581
  0
LINE
  8
0
 62
7
  6
CONTINUOUS
 10
88.7027211433
 20
150.6607197891
 11
88.7572527821
 21
149.8652038604
  0
LINE
  8
0
 62
7
  6
CONTINUOUS
 10
82.4001360747
 20
150.700262427
 11
82.1470749039
 21
149.819642546
  0
LINE
  8
0
 62
7
  6
CONTINUOUS
 10
89.314838535
 20
149.0467538417
 11
89.5678997461
 21
149.9273737338
  0
LINE
  8
0
 62
7
  6
CONTINUOUS
 10
82.9577217736
 20
149.8818123934
 11
83.1403181385
 21
150.4186933385
  0
LINE
  8
0
 62
7
  6
CONTINUOUS
 10
105.1124555824
 20
214.0570887999
 11
105.3014114996
 21
214.5917646297
  0
LINE
  8
0
 62
7
  6
CONTINUOUS
 10
106.3087761346
 20
212.955779918
 11
105.9308643002
 21
211.8864282583
  0
LINE
  8
0
 62
7
  6
CONTINUOUS
 10
106.7179688304
 20
211.8704413611
 11
106.9069247476
 21
212.405117191
  0
LINE
  8
0
 62
7
  6
CONTINUOUS
 10
96.9682766542
 20
203.8453553189
 11
96.8000871686
 21
203.379627003
  0
LINE
  8
0
 62
7
  6
CONTINUOUS
 10
104.7032628866
 20
215.1424273568
 11
104.3568480241
 21
214.2941707624
  0
LINE
  8
0
 62
7
  6
CONTINUOUS
 10
110.8423497043
 20
210.7413593666
 11
111.1887530112
 21
211.5896075285
  0
LINE
  8
0
 62
7
  6
CONTINUOUS
 10
110.2441895026
 20
211.2920137061
 11
109.9607916452
 21
210.885964175
  0
LINE
  8
0
 62
7
  6
CONTINUOUS
 10
97.7246201751
 20
197.6379136261
 11
98.3102252407
 21
198.3700153657
  0
LINE
  8
0
 62
7
  6
CONTINUOUS
 10
110.3070509696
 20
210.1503553584
 11
110.8423497043
 21
210.7413593666
  0
LINE
  8
0
 62
7
  6
CONTINUOUS
 10
102.1732552774
 20
203.0912341141
 11
102.8501841659
 21
203.7398172768
  0
LINE
  8
0
 62
7
  6
CONTINUOUS
 10
106.00921319
 20
206.7665650939
 11
106.6861472431
 21
207.4151532049
  0
LINE
  8
0
 62
7
  6
CONTINUOUS
 10
109.9607916452
 20
210.885964175
 11
109.0791616074
 21
210.2386404773
  0
LINE
  8
0
 62
7
  6
CONTINUOUS
 10
109.6773218173
 20
209.6879861265
 11
110.3070509696
 21
210.1503553584
  0
LINE
  8
0
 62
7
  6
CONTINUOUS
 10
108.9531507165
 20
209.3542432045
 11
109.6773218173
 21
209.6879861265
  0
LINE
  8
0
 62
7
  6
CONTINUOUS
 10
109.0791616074
 20
210.2386404773
 11
108.6068798696
 21
210.0898435436
  0
LINE
  8
0
 62
7
  6
CONTINUOUS
 10
131.4797454404
 20
110.8333941054
 11
132.1235256344
 21
110.8738403438
  0
LINE
  8
0
 62
7
  6
CONTINUOUS
 10
132.2423402938
 20
111.5009824526
 11
131.5985601077
 21
111.4605362554
  0
LINE
  8
0
 62
7
  6
CONTINUOUS
 10
132.1235256344
 20
110.8738403438
 11
132.7376023753
 21
110.7575009722
  0
LINE
  8
0
 62
7
  6
CONTINUOUS
 10
132.8564170348
 20
111.384643081
 11
132.2423402938
 21
111.5009824526
  0
LINE
  8
0
 62
7
  6
CONTINUOUS
 10
130.5536295308
 20
111.8209156726
 11
129.7860335497
 21
111.9663398975
  0
LINE
  8
0
 62
7
  6
CONTINUOUS
 10
128.5724199218
 20
112.2822536409
 11
127.8249611799
 21
112.5095358982
  0
LINE
  8
0
 62
7
  6
CONTINUOUS
 10
125.1341102223
 20
113.3277518683
 11
124.3866519081
 21
113.5550339955
  0
LINE
  8
0
 62
7
  6
CONTINUOUS
 10
123.2236076547
 20
114.0194798568
 11
122.4937657166
 21
114.2981944818
  0
LINE
  8
0
 62
7
  6
CONTINUOUS
 10
97.1844254536
 20
127.9491582697
 11
96.8576386879
 21
128.0769555882
  0
LINE
  8
0
 62
7
  6
CONTINUOUS
 10
133.440790001
 20
111.111518203
 11
132.8564170348
 21
111.384643081
  0
LINE
  8
0
 62
7
  6
CONTINUOUS
 10
97.0181943556
 20
127.1748728822
 11
97.4486985964
 21
126.9302166623
  0
LINE
  8
0
 62
7
  6
CONTINUOUS
 10
99.5244830296
 20
129.3993156087
 11
99.9549872705
 21
129.1546593888
  0
LINE
  8
0
 62
7
  6
CONTINUOUS
 10
114.5813202239
 20
118.0379616687
 11
113.8011694049
 21
118.557837567
  0
LINE
  8
0
 62
7
  6
CONTINUOUS
 10
110.1604660789
 20
120.9839247618
 11
109.38031526
 21
121.5038006601
  0
LINE
  8
0
 62
7
  6
CONTINUOUS
 10
100.7747872358
 20
129.6733555628
 11
100.1368456604
 21
130.1517322508
  0
LINE
  8
0
 62
7
  6
CONTINUOUS
 10
132.7376023753
 20
110.7575009722
 11
133.2922716715
 21
110.3275905395
  0
LINE
  8
0
 62
7
  6
CONTINUOUS
 10
83.8069671151
 20
148.0092114474
 11
83.3743778609
 21
148.375884488
  0
LINE
  8
0
 62
7
  6
CONTINUOUS
 10
108.3939913717
 20
122.2842061516
 11
104.1594712696
 21
125.9868328392
  0
LINE
  8
0
 62
7
  6
CONTINUOUS
 10
82.6470606828
 20
148.0125345744
 11
83.3167779407
 21
147.38722655
  0
LINE
  8
0
 62
7
  6
CONTINUOUS
 10
89.0679139672
 20
151.7344817054
 11
88.3981966689
 21
152.3597897186
  0
LINE
  8
0
 62
7
  6
CONTINUOUS
 10
124.6281313251
 20
108.9783151463
 11
124.3755717661
 21
109.2219003217
  0
LINE
  8
0
 62
7
  6
CONTINUOUS
 10
103.2640446202
 20
126.8686991358
 11
100.7747872358
 21
129.6733555628
  0
LINE
  8
0
 62
7
  6
CONTINUOUS
 10
123.6383338146
 20
108.9457090498
 11
123.993961783
 21
108.5039949684
  0
LINE
  8
0
 62
7
  6
CONTINUOUS
 10
88.3405966949
 20
151.3711317657
 11
88.7027211433
 21
150.6607197891
  0
LINE
  8
0
 62
7
  6
CONTINUOUS
 10
94.5147260136
 20
138.4458450185
 11
91.7544818393
 21
144.0532974076
  0
LINE
  8
0
 62
7
  6
CONTINUOUS
 10
89.4717032749
 20
150.8734796995
 11
89.0679139672
 21
151.7344817054
  0
LINE
  8
0
 62
7
  6
CONTINUOUS
 10
98.1647810031
 20
127.5657716635
 11
97.9729708978
 21
128.0222795504
  0
LINE
  8
0
 62
7
  6
CONTINUOUS
 10
91.0220551037
 20
146.1217237699
 11
90.6910663745
 21
146.9988513041
  0
LINE
  8
0
 62
7
  6
CONTINUOUS
 10
97.0963328234
 20
128.2888072553
 11
97.1844254536
 21
127.9491582697
  0
LINE
  8
0
 62
7
  6
CONTINUOUS
 10
104.3568480241
 20
214.2941707624
 11
104.3567759873
 21
213.502242335
  0
LINE
  8
0
 62
7
  6
CONTINUOUS
 10
97.8135542924
 20
203.3693057372
 11
97.8301215064
 21
204.1564096255
  0
LINE
  8
0
 62
7
  6
CONTINUOUS
 10
95.5860292079
 20
125.9037625832
 11
95.6172836455
 21
126.3493374023
  0
LINE
  8
0
 62
7
  6
CONTINUOUS
 10
97.9729708978
 20
128.0222795504
 11
98.0042253354
 21
128.4678543695
  0
LINE
  8
0
 62
7
  6
CONTINUOUS
 10
106.654963356
 20
211.4282427642
 11
106.7179688304
 21
211.8704413611
  0
LINE
  8
0
 62
7
  6
CONTINUOUS
 10
94.8756222316
 20
126.9445756756
 11
94.7093911336
 21
126.1702902881
  0
LINE
  8
0
 62
9
  6
CONTINUOUS
 10
128.3353281955
 20
266.508601663
 11
127.8729353935
 21
265.0816493524
  0
LINE
  8
0
 62
7
  6
CONTINUOUS
 10
88.7572527821
 20
149.8652038604
 11
88.5746564173
 21
149.3283229152
  0
LINE
  8
0
 62
7
  6
CONTINUOUS
 10
110.4331454198
 20
211.826689536
 11
110.2441895026
 21
211.2920137061
  0
LINE
  8
0
 62
7
  6
CONTINUOUS
 10
82.7365288443
 20
151.2796953482
 11
82.4001360747
 21
150.700262427
  0
LINE
  8
0
 62
7
  6
CONTINUOUS
 10
88.9784457115
 20
148.4673209056
 11
89.314838535
 21
149.0467538417
  0
LINE
  8
0
 62
9
  6
CONTINUOUS
 10
190.3847732149
 20
255.5394121887
 11
189.1719480561
 21
254.656771189
  0
LINE
  8
0
 62
9
  6
CONTINUOUS
 10
50.8241066247
 20
120.8860556304
 11
52.324106152
 21
120.8872464571
  0
LINE
  8
0
 62
7
  6
CONTINUOUS
 10
96.572060522
 20
127.1967443672
 11
97.0181943556
 21
127.1748728822
  0
LINE
  8
0
 62
7
  6
CONTINUOUS
 10
99.0783491125
 20
129.4211870195
 11
99.5244830296
 21
129.3993156087
  0
LINE
  8
0
 62
7
  6
CONTINUOUS
 10
100.1368456604
 20
130.1517322508
 11
99.3639274037
 21
130.3013983518
  0
LINE
  8
0
 62
7
  6
CONTINUOUS
 10
93.2416749209
 20
138.8641171214
 11
86.0277196485
 21
141.2343234998
  0
LINE
  8
0
 62
7
  6
CONTINUOUS
 10
86.086411706
 20
140.3924440777
 11
93.3693736356
 21
137.8820502666
  0
LINE
  8
0
 62
7
  6
CONTINUOUS
 10
84.0050348304
 20
143.4738139369
 11
85.3811115607
 21
142.9910559053
  0
LINE
  8
0
 62
7
  6
CONTINUOUS
 10
86.5754982661
 20
143.4417640661
 11
85.1994211175
 21
143.9245219398
  0
LINE
  8
0
 62
7
  6
CONTINUOUS
 10
83.3167779407
 20
147.38722655
 11
83.9031635998
 21
147.0631054855
  0
LINE
  8
0
 62
7
  6
CONTINUOUS
 10
88.3981966689
 20
152.3597897186
 11
87.811810956
 21
152.6839107683
  0
LINE
  8
0
 62
9
  6
CONTINUOUS
 10
42.0820927501
 20
183.2882506107
 11
43.2963178097
 21
182.4075364091
  0
LINE
  8
0
 62
7
  6
CONTINUOUS
 10
87.9080074406
 20
151.7378048064
 11
88.3405966949
 21
151.3711317657
  0
LINE
  8
0
 62
7
  6
CONTINUOUS
 10
133.8419402244
 20
110.7106926062
 11
133.440790001
 21
111.111518203
  0
LINE
  8
0
 62
7
  6
CONTINUOUS
 10
134.2133867005
 20
110.1530814977
 11
133.8419402244
 21
110.7106926062
  0
LINE
  8
0
 62
7
  6
CONTINUOUS
 10
123.4321978513
 20
109.3419666018
 11
123.6383338146
 21
108.9457090498
  0
LINE
  8
0
 62
7
  6
CONTINUOUS
 10
124.3755717661
 20
109.2219003217
 11
124.1694358027
 21
109.6181578737
  0
LINE
  8
0
 62
9
  6
CONTINUOUS
 10
71.6887448807
 20
238.9111136668
 11
72.1534027697
 21
237.4848973276
  0
LINE
  8
0
 62
7
  6
CONTINUOUS
 10
96.9142537375
 20
204.2887459861
 11
96.9682766542
 21
203.8453553189
  0
LINE
  8
0
 62
7
  6
CONTINUOUS
 10
105.1438920483
 20
213.4862639042
 11
105.1124555824
 21
214.0570887999
  0
LINE
  8
0
 62
7
  6
CONTINUOUS
 10
110.4017088878
 20
212.3975145218
 11
110.4331454198
 21
211.826689536
  0
LINE
  8
0
 62
7
  6
CONTINUOUS
 10
110.4223130377
 20
111.7967551167
 11
110.2471455503
 21
116.323943637
  0
LINE
  8
0
 62
7
  6
CONTINUOUS
 10
109.5031121246
 20
116.0527151344
 11
109.6421622187
 21
112.316631015
  0
LINE
  8
0
 62
7
  6
CONTINUOUS
 10
110.2995176611
 20
117.2478396508
 11
110.1604660789
 21
120.9839247618
  0
LINE
  8
0
 62
7
  6
CONTINUOUS
 10
109.38031526
 20
121.5038006601
 11
109.4669947313
 21
116.8438195353
  0
LINE
  8
0
 62
9
  6
CONTINUOUS
 10
110.4802037746
 20
82.0538560226
 11
110.4802037746
 21
83.5538560226
  0
LINE
  8
0
 62
7
  6
CONTINUOUS
 10
111.1887530112
 20
211.5896075285
 11
111.1888250149
 21
212.3815360008
  0
LINE
  8
0
 62
7
  6
CONTINUOUS
 10
97.2625639215
 20
129.0630926427
 11
97.0963328234
 21
128.2888072553
  0
LINE
  8
0
 62
9
  6
CONTINUOUS
 10
67.519894919
 20
116.807367085
 11
68.4015727974
 21
118.0208925766
  0
LINE
  8
0
 62
7
  6
CONTINUOUS
 10
83.1403181385
 20
150.4186933385
 11
83.8964357075
 21
151.2763723404
  0
LINE
  8
0
 62
7
  6
CONTINUOUS
 10
88.5746564173
 20
149.3283229152
 11
87.8185391714
 21
148.4706440028
  0
LINE
  8
0
 62
7
  6
CONTINUOUS
 10
83.2683847718
 20
151.7510833188
 11
82.7365288443
 21
151.2796953482
  0
LINE
  8
0
 62
9
  6
CONTINUOUS
 10
53.1918762391
 20
170.1749841279
 11
54.6184610135
 21
170.6385096194
  0
LINE
  8
0
 62
7
  6
CONTINUOUS
 10
96.8576386879
 20
128.0769555882
 11
96.0690932437
 21
128.0038343075
  0
LINE
  8
0
 62
7
  6
CONTINUOUS
 10
99.3639274037
 20
130.3013983518
 11
98.5753819177
 21
130.228277034
  0
LINE
  8
0
 62
7
  6
CONTINUOUS
 10
83.9031635998
 20
147.0631054855
 11
84.6016789105
 21
146.9321333237
  0
LINE
  8
0
 62
7
  6
CONTINUOUS
 10
84.8964072652
 20
147.6621563972
 11
83.8069671151
 21
148.0092114474
  0
LINE
  8
0
 62
7
  6
CONTINUOUS
 10
86.8185676137
 20
152.084859946
 11
87.9080074406
 21
151.7378048064
  0
LINE
  8
0
 62
9
  6
CONTINUOUS
 10
211.9914436702
 20
109.307367085
 11
210.5648588957
 21
109.7708925766
  0
LINE
  8
0
 62
9
  6
CONTINUOUS
 10
165.6634249902
 20
79.1891109383
 11
164.7817471118
 21
80.4026364298
  0
LINE
  8
0
 62
7
  6
CONTINUOUS
 10
133.2922716715
 20
110.3275905395
 11
133.5101990344
 21
109.7990642034
  0
LINE
  8
0
 62
7
  6
CONTINUOUS
 10
97.8301215064
 20
204.1564096255
 11
97.6244718503
 21
204.9211702797
  0
LINE
  8
0
 62
7
  6
CONTINUOUS
 10
125.5959694067
 20
66.3855629366
 11
125.423124246
 21
68.3611921639
  0
LINE
  8
0
 62
7
  6
CONTINUOUS
 10
123.4219766331
 20
109.845440261
 11
123.4321978513
 21
109.3419666018
  0
LINE
  8
0
 62
7
  6
CONTINUOUS
 10
125.423124246
 20
262.7182662606
 11
125.5959694067
 21
264.6938954879
  0
LINE
  8
0
 62
9
  6
CONTINUOUS
 10
126.9174162931
 20
262.5875326465
 11
127.0902614538
 21
264.5631618738
  0
LINE
  8
0
 62
7
  6
CONTINUOUS
 10
95.1299459599
 20
127.3792120775
 11
94.8756222316
 21
126.9445756756
  0
LINE
  8
0
 62
7
  6
CONTINUOUS
 10
95.6172836455
 20
126.3493374023
 11
95.8716077081
 21
126.7839741009
  0
LINE
  8
0
 62
7
  6
CONTINUOUS
 10
97.5168878169
 20
129.497729193
 11
97.2625639215
 21
129.0630926427
  0
LINE
  8
0
 62
7
  6
CONTINUOUS
 10
98.0042253354
 20
128.4678543695
 11
98.2585492308
 21
128.9024909197
  0
LINE
  8
0
 62
7
  6
CONTINUOUS
 10
70.5392145938
 20
95.2466275899
 11
71.5606256452
 21
96.9465410457
  0
LINE
  8
0
 62
7
  6
CONTINUOUS
 10
185.800847478
 20
254.184716967
 11
187.1019278742
 21
255.68143875
  0
LINE
  8
0
 62
9
  6
CONTINUOUS
 10
186.9329118483
 20
253.2006284235
 11
188.2339922445
 21
254.6973502066
  0
LINE
  8
BLANK_COSM
 62
2
  6
PHANTOM
 10
129.9805616457
 20
183.5871000306
 11
124.4328329563
 21
178.0393713412
  0
LINE
  8
BLANK_COSM
 62
2
  6
PHANTOM
 10
122.5708778967
 20
173.9146745818
 11
118.3282372096
 21
169.6720338947
  0
LINE
  8
BLANK_COSM
 62
2
  6
PHANTOM
 10
134.105258405
 20
185.4490550901
 11
138.3478990922
 21
189.6916957773
  0
LINE
  8
0
 62
7
  6
CONTINUOUS
 10
88.4465896763
 20
147.9959329051
 11
88.9784457115
 21
148.4673209056
  0
LINE
  8
0
 62
7
  6
CONTINUOUS
 10
83.6881076639
 20
152.029336293
 11
83.2683847718
 21
151.7510833188
  0
LINE
  8
0
 62
7
  6
CONTINUOUS
 10
42.9614724636
 20
150.9572678882
 11
44.786995422
 21
151.7321564105
  0
LINE
  8
0
 62
7
  6
CONTINUOUS
 10
55.3288503195
 20
119.2876631411
 11
53.396503177
 21
118.8415456517
  0
LINE
  8
0
 62
9
  6
CONTINUOUS
 10
54.9914237379
 20
120.7492182383
 11
53.0590765955
 21
120.3031007489
  0
LINE
  8
0
 62
7
  6
CONTINUOUS
 10
84.6016789105
 20
146.9321333237
 11
85.1047353088
 21
146.9091924445
  0
LINE
  8
0
 62
7
  6
CONTINUOUS
 10
87.811810956
 20
152.6839107683
 11
87.1132955375
 21
152.8148829003
  0
LINE
  8
0
 62
7
  6
CONTINUOUS
 10
231.5639043722
 20
118.8415456517
 11
229.6315572298
 21
119.2876631411
  0
LINE
  8
0
 62
7
  6
CONTINUOUS
 10
44.786995422
 20
179.347302014
 11
42.9614724636
 21
180.1221905363
  0
LINE
  8
0
 62
9
  6
CONTINUOUS
 10
45.3730921147
 20
180.7280592942
 11
43.5475691564
 21
181.5029478164
  0
LINE
  8
BLANK_COSM
 62
2
  6
PHANTOM
 10
124.4328329563
 20
153.0400870834
 11
129.9805616457
 21
147.4923583939
  0
LINE
  8
BLANK_COSM
 62
2
  6
PHANTOM
 10
118.3282372096
 20
161.4074245298
 11
122.5708778967
 21
157.1647838427
  0
LINE
  8
BLANK_COSM
 62
2
  6
PHANTOM
 10
138.3478990922
 20
141.3877626473
 11
134.105258405
 21
145.6304033344
  0
LINE
  8
0
 62
7
  6
CONTINUOUS
 10
187.1019278742
 20
75.3980196745
 11
185.800847478
 21
76.8947414575
  0
LINE
  8
0
 62
7
  6
CONTINUOUS
 10
71.5606256452
 20
234.1329173788
 11
70.5392145938
 21
235.8328308346
  0
LINE
  8
0
 62
9
  6
CONTINUOUS
 10
72.8463765962
 20
234.9054744912
 11
71.8249655448
 21
236.605387947
  0
LINE
  8
0
 62
7
  6
CONTINUOUS
 10
101.6479351973
 20
206.1238789895
 11
99.682590807
 21
210.2077773431
  0
LINE
  8
0
 62
7
  6
CONTINUOUS
 10
102.8501841659
 20
203.7398172768
 11
101.9767012648
 21
205.5548864568
  0
LINE
  8
0
 62
7
  6
CONTINUOUS
 10
98.7897061424
 20
210.2362731854
 11
102.1732552774
 21
203.0912341141
  0
LINE
  8
0
 62
7
  6
CONTINUOUS
 10
105.3012676907
 20
213.0079074147
 11
105.1438920483
 21
213.4862639042
  0
LINE
  8
0
 62
7
  6
CONTINUOUS
 10
106.8123388661
 20
210.9498864549
 11
106.654963356
 21
211.4282427642
  0
LINE
  8
0
 62
7
  6
CONTINUOUS
 10
129.7860335497
 20
111.9663398975
 11
129.8801456798
 21
111.6236839481
  0
LINE
  8
0
 62
7
  6
CONTINUOUS
 10
134.3074985475
 20
109.8104256304
 11
134.2133867005
 21
110.1530814977
  0
LINE
  8
0
 62
7
  6
CONTINUOUS
 10
104.3567759873
 20
213.502242335
 11
104.5770965981
 21
212.6741644816
  0
LINE
  8
0
 62
7
  6
CONTINUOUS
 10
111.1888250149
 20
212.3815360008
 11
110.9685046025
 21
213.2096135841
  0
LINE
  8
0
 62
7
  6
CONTINUOUS
 10
130.7121496789
 20
110.9788182887
 11
130.5536295308
 21
111.8209156726
  0
LINE
  8
0
 62
7
  6
CONTINUOUS
 10
129.8801456798
 20
111.6236839481
 11
129.9148500356
 21
110.9674570001
  0
LINE
  8
0
 62
7
  6
CONTINUOUS
 10
134.3422030492
 20
109.1541986263
 11
134.3074985475
 21
109.8104256304
  0
LINE
  8
0
 62
7
  6
CONTINUOUS
 10
123.5046034615
 20
110.6542584132
 11
123.4219766331
 21
109.845440261
  0
LINE
  8
0
 62
7
  6
CONTINUOUS
 10
124.1694358027
 20
109.6181578737
 11
124.2520617757
 21
110.426976286
  0
LINE
  8
0
 62
7
  6
CONTINUOUS
 10
88.026867215
 20
147.7176800501
 11
88.4465896763
 21
147.9959329051
  0
LINE
  8
0
 62
7
  6
CONTINUOUS
 10
84.415424842
 20
152.3926862067
 11
83.6881076639
 21
152.029336293
  0
LINE
  8
0
 62
7
  6
CONTINUOUS
 10
87.2995498215
 20
147.3543300769
 11
88.026867215
 21
147.7176800501
  0
LINE
  8
0
 62
7
  6
CONTINUOUS
 10
83.8964357075
 20
151.2763723404
 11
84.7775492904
 21
151.6822742301
  0
LINE
  8
0
 62
7
  6
CONTINUOUS
 10
85.8608505397
 20
147.7668782207
 11
84.8964072652
 21
147.6621563972
  0
LINE
  8
0
 62
7
  6
CONTINUOUS
 10
85.1047353088
 20
146.9091924445
 11
85.9153821785
 21
146.9713622919
  0
LINE
  8
0
 62
7
  6
CONTINUOUS
 10
86.6102395701
 20
152.8378238986
 11
85.799592485
 21
152.7756539916
  0
LINE
  8
0
 62
7
  6
CONTINUOUS
 10
87.1132955375
 20
152.8148829003
 11
86.6102395701
 21
152.8378238986
  0
LINE
  8
0
 62
7
  6
CONTINUOUS
 10
96.6380139509
 20
204.7097934192
 11
96.9142537375
 21
204.2887459861
  0
LINE
  8
0
 62
7
  6
CONTINUOUS
 10
97.6244718503
 20
204.9211702797
 11
97.3482320637
 21
205.3422177127
  0
LINE
  8
0
 62
7
  6
CONTINUOUS
 10
104.5770965981
 20
212.6741644816
 11
105.1122397367
 21
211.6813031575
  0
LINE
  8
0
 62
7
  6
CONTINUOUS
 10
105.7419804198
 20
212.1436808558
 11
105.3012676907
 21
213.0079074147
  0
LINE
  8
0
 62
7
  6
CONTINUOUS
 10
110.24433351
 20
212.8758706509
 11
110.4017088878
 21
212.3975145218
  0
LINE
  8
0
 62
7
  6
CONTINUOUS
 10
133.5101990344
 20
109.7990642034
 11
133.5746072328
 21
109.29962282
  0
LINE
  8
0
 62
9
  6
CONTINUOUS
 10
137.7302037746
 20
251.5256024019
 11
137.7302037746
 21
251.0256024019
  0
LINE
  8
0
 62
7
  6
CONTINUOUS
 10
139.2302037746
 20
251.5256024019
 11
139.2302037746
 21
251.0256024019
  0
LINE
  8
0
 62
7
  6
CONTINUOUS
 10
139.2302037746
 20
80.0538560226
 11
139.2302037746
 21
79.5538560226
  0
LINE
  8
0
 62
9
  6
CONTINUOUS
 10
141.2302037746
 20
249.0256024019
 11
141.2302037746
 21
247.5256024019
  0
LINE
  8
0
 62
2
  6
CONTINUOUS
 10
142.4802037746
 20
166.5897292123
 11
142.4802037746
 21
164.4897292123
  0
LINE
  8
DEFAULT_1
 62
2
  6
CENTER
 10
142.4802037746
 20
160.2897292123
 11
142.4802037746
 21
86.5397292123
  0
LINE
  8
DEFAULT_1
 62
2
  6
CENTER
 10
142.4802037746
 20
170.7897292123
 11
142.4802037746
 21
244.5397292123
  0
LINE
  8
0
 62
9
  6
CONTINUOUS
 10
143.7302037746
 20
82.0538560226
 11
143.7302037746
 21
83.5538560226
  0
LINE
  8
0
 62
7
  6
CONTINUOUS
 10
129.9148500356
 20
110.9674570001
 11
129.1425547544
 21
106.8910333198
  0
LINE
  8
0
 62
7
  6
CONTINUOUS
 10
129.9101507354
 20
106.7456090949
 11
130.5636313468
 21
110.1948906114
  0
LINE
  8
0
 62
7
  6
CONTINUOUS
 10
124.3866519081
 20
113.5550339955
 11
123.5046034615
 21
110.6542584132
  0
LINE
  8
0
 62
7
  6
CONTINUOUS
 10
124.2520617757
 20
110.426976286
 11
125.1341102223
 21
113.3277518683
  0
LINE
  8
0
 62
7
  6
CONTINUOUS
 10
122.4937657166
 20
114.2981944818
 11
120.6720388492
 21
109.5278216773
  0
LINE
  8
0
 62
7
  6
CONTINUOUS
 10
120.1027490935
 20
108.0370798887
 11
119.8181042954
 21
107.2917092033
  0
LINE
  8
0
 62
7
  6
CONTINUOUS
 10
120.5479462335
 20
107.0129945782
 11
120.8325910316
 21
107.7583652637
  0
LINE
  8
0
 62
7
  6
CONTINUOUS
 10
121.4018807873
 20
109.2491070522
 11
123.2236076547
 21
114.0194798568
  0
LINE
  8
0
 62
9
  6
CONTINUOUS
 10
189.1786012177
 20
237.8957418472
 11
188.8847085915
 21
237.49123335
  0
LINE
  8
0
 62
7
  6
CONTINUOUS
 10
190.3921267092
 20
237.0140639688
 11
190.0982340831
 21
236.6095554716
  0
LINE
  8
0
 62
7
  6
CONTINUOUS
 10
89.6035630027
 20
98.2905070928
 11
89.3096703766
 21
97.8859985956
  0
LINE
  8
0
 62
9
  6
CONTINUOUS
 10
190.5406975673
 20
233.8159509782
 11
189.6590196888
 21
232.6024254867
  0
LINE
  8
0
 62
9
  6
CONTINUOUS
 10
94.419709982
 20
97.2635074463
 11
95.3013878604
 21
98.4770329378
  0
LINE
  8
0
 62
7
  6
CONTINUOUS
 10
104.1594712696
 20
125.9868328392
 11
103.529236741
 21
125.2660632328
  0
LINE
  8
0
 62
7
  6
CONTINUOUS
 10
98.1136231558
 20
130.0273583606
 11
97.5168878169
 21
129.497729193
  0
LINE
  8
0
 62
7
  6
CONTINUOUS
 10
95.6073345653
 20
127.8029157083
 11
95.1299459599
 21
127.3792120775
  0
LINE
  8
0
 62
7
  6
CONTINUOUS
 10
95.8716077081
 20
126.7839741009
 11
96.1103018437
 21
126.995825768
  0
LINE
  8
0
 62
7
  6
CONTINUOUS
 10
98.2585492308
 20
128.9024909197
 11
98.6165904341
 21
129.2202684203
  0
LINE
  8
0
 62
7
  6
CONTINUOUS
 10
91.7544818393
 20
144.0532974076
 11
90.8954675308
 21
143.6304513313
  0
LINE
  8
0
 62
7
  6
CONTINUOUS
 10
86.0277196485
 20
141.2343234998
 11
85.0255364055
 21
140.741003135
  0
LINE
  8
0
 62
7
  6
CONTINUOUS
 10
87.8185391714
 20
148.4706440028
 11
86.9374253731
 21
148.0647420535
  0
LINE
  8
0
 62
7
  6
CONTINUOUS
 10
90.6910663745
 20
146.9988513041
 11
83.6740461012
 21
144.350941471
  0
LINE
  8
0
 62
7
  6
CONTINUOUS
 10
85.1994211175
 20
143.9245219398
 11
91.0220551037
 21
146.1217237699
  0
LINE
  8
0
 62
7
  6
CONTINUOUS
 10
85.3811115607
 20
142.9910559053
 11
86.5754982661
 21
143.4417640661
  0
LINE
  8
0
 62
9
  6
CONTINUOUS
 10
222.7897980576
 20
196.6283437564
 11
222.3142697995
 21
196.4738352592
  0
LINE
  8
0
 62
7
  6
CONTINUOUS
 10
223.2533235492
 20
195.201758982
 11
222.7777952911
 21
195.0472504848
  0
LINE
  8
0
 62
7
  6
CONTINUOUS
 10
60.1740017947
 20
142.2140752956
 11
59.6984735366
 21
142.0595667985
  0
LINE
  8
0
 62
9
  6
CONTINUOUS
 10
221.4937162472
 20
192.5271034634
 11
220.0671314728
 21
192.0635779719
  0
LINE
  8
0
 62
9
  6
CONTINUOUS
 10
63.466691302
 20
138.5523549611
 11
64.8932760765
 21
139.0158804526
  0
LINE
  8
0
 62
7
  6
CONTINUOUS
 10
85.9153821785
 20
146.9713622919
 11
87.2995498215
 21
147.3543300769
  0
LINE
  8
0
 62
7
  6
CONTINUOUS
 10
86.9374253731
 20
148.0647420535
 11
85.8608505397
 21
147.7668782207
  0
LINE
  8
0
 62
7
  6
CONTINUOUS
 10
85.8541241238
 20
151.9801380628
 11
86.8185676137
 21
152.084859946
  0
LINE
  8
0
 62
2
  6
CONTINUOUS
 10
143.5302037746
 20
165.5397292123
 11
141.4302037746
 21
165.5397292123
  0
LINE
  8
DEFAULT_1
 62
2
  6
CENTER
 10
137.2302037746
 20
165.5397292123
 11
63.4802037746
 21
165.5397292123
  0
LINE
  8
DEFAULT_1
 62
2
  6
CENTER
 10
147.7302037746
 20
165.5397292123
 11
221.4802037746
 21
165.5397292123
  0
LINE
  8
0
 62
9
  6
CONTINUOUS
 10
59.234948045
 20
187.5933068516
 11
59.7104763032
 21
187.4387983544
  0
LINE
  8
0
 62
7
  6
CONTINUOUS
 10
59.6984735366
 20
189.0198916261
 11
60.1740017947
 21
188.8653831289
  0
LINE
  8
0
 62
7
  6
CONTINUOUS
 10
222.7777952911
 20
136.0322079397
 11
223.2533235492
 21
135.8776994425
  0
LINE
  8
0
 62
9
  6
CONTINUOUS
 10
62.6941488161
 20
190.1494621727
 11
64.1207335905
 21
189.6859366811
  0
LINE
  8
0
 62
9
  6
CONTINUOUS
 10
222.2662587332
 20
140.9299962518
 11
220.8396739587
 21
141.3935217434
  0
LINE
  8
0
 62
7
  6
CONTINUOUS
 10
91.867806258
 20
202.3227541507
 11
97.7246201751
 21
197.6379136261
  0
LINE
  8
0
 62
7
  6
CONTINUOUS
 10
98.3102252407
 20
198.3700153657
 11
95.6933509001
 21
200.4632420128
  0
LINE
  8
0
 62
7
  6
CONTINUOUS
 10
94.9456726169
 20
201.0613066893
 11
93.0764765596
 21
202.5564686599
  0
LINE
  8
0
 62
7
  6
CONTINUOUS
 10
180.2094906446
 20
124.8952691821
 11
181.8358362413
 21
123.2689235854
  0
LINE
  8
0
 62
7
  6
CONTINUOUS
 10
182.4368770053
 20
123.8699643494
 11
180.8105314086
 21
125.4963099461
  0
LINE
  8
0
 62
7
  6
CONTINUOUS
 10
180.9519527648
 20
125.6377313024
 11
181.8711915804
 21
124.7184924868
  0
LINE
  8
0
 62
7
  6
CONTINUOUS
 10
182.5075876834
 20
125.2841779118
 11
181.5529935288
 21
126.2387720664
  0
LINE
  8
0
 62
7
  6
CONTINUOUS
 10
182.3661663272
 20
127.0519448647
 11
183.1439837865
 21
126.2741274054
  0
LINE
  8
0
 62
7
  6
CONTINUOUS
 10
183.7096692114
 20
125.7084419805
 11
183.9925119239
 21
125.425599268
  0
LINE
  8
0
 62
7
  6
CONTINUOUS
 10
105.1122397367
 20
211.6813031575
 11
105.7733333181
 21
210.7809190664
  0
LINE
  8
0
 62
7
  6
CONTINUOUS
 10
105.9308643002
 20
211.8864282583
 11
105.7419804198
 21
212.1436808558
  0
LINE
  8
0
 62
7
  6
CONTINUOUS
 10
107.0956646867
 20
210.5640075587
 11
106.8123388661
 21
210.9498864549
  0
LINE
  8
0
 62
9
  6
CONTINUOUS
 10
88.096144885
 20
232.3117819504
 11
88.3900375111
 21
231.9072734532
  0
LINE
  8
0
 62
7
  6
CONTINUOUS
 10
89.3096703766
 20
233.1934598289
 11
89.6035630027
 21
232.7889513317
  0
LINE
  8
0
 62
7
  6
CONTINUOUS
 10
190.0982340831
 20
94.4699029529
 11
190.3921267092
 21
94.0653944557
  0
LINE
  8
0
 62
9
  6
CONTINUOUS
 10
92.397167496
 20
232.3464878475
 11
93.2788453745
 21
231.132962356
  0
LINE
  8
0
 62
9
  6
CONTINUOUS
 10
192.5632400532
 20
98.732970577
 11
191.6815621748
 21
99.9464960686
  0
LINE
  8
0
 62
7
  6
CONTINUOUS
 10
145.7302037746
 20
79.5538560226
 11
145.7302037746
 21
80.0538560226
  0
LINE
  8
0
 62
7
  6
CONTINUOUS
 10
145.7302037746
 20
251.0256024019
 11
145.7302037746
 21
251.5256024019
  0
LINE
  8
0
 62
9
  6
CONTINUOUS
 10
147.2302037746
 20
79.5538560226
 11
147.2302037746
 21
80.0538560226
  0
LINE
  8
0
 62
7
  6
CONTINUOUS
 10
133.5746072328
 20
109.29962282
 11
132.9805339459
 21
106.1639123305
  0
LINE
  8
0
 62
7
  6
CONTINUOUS
 10
133.7481297623
 20
106.0184881368
 11
134.3422030492
 21
109.1541986263
  0
LINE
  8
0
 62
7
  6
CONTINUOUS
 10
127.8249611799
 20
112.5095358982
 11
126.7572183509
 21
108.9980708096
  0
LINE
  8
0
 62
7
  6
CONTINUOUS
 10
126.5715239685
 20
108.3873813034
 11
126.3394059905
 21
107.6240194206
  0
LINE
  8
0
 62
7
  6
CONTINUOUS
 10
127.0868647324
 20
107.3967371633
 11
128.5724199218
 21
112.2822536409
  0
LINE
  8
0
 62
7
  6
CONTINUOUS
 10
94.56828084
 20
94.0653944557
 11
94.8621734661
 21
94.4699029529
  0
LINE
  8
0
 62
7
  6
CONTINUOUS
 10
195.3568445465
 20
232.7889513317
 11
195.6507371727
 21
233.1934598289
  0
LINE
  8
0
 62
9
  6
CONTINUOUS
 10
95.7818063316
 20
93.1837165773
 11
96.0756989577
 21
93.5882250745
  0
LINE
  8
0
 62
7
  6
CONTINUOUS
 10
107.0580032684
 20
122.1805411893
 11
102.7514006442
 21
117.255282198
  0
LINE
  8
0
 62
7
  6
CONTINUOUS
 10
103.4571542189
 20
116.6381775539
 11
108.3939913717
 21
122.2842061516
  0
LINE
  8
0
 62
7
  6
CONTINUOUS
 10
101.9256477839
 20
126.9343081672
 11
100.1354415165
 21
125.3454204419
  0
LINE
  8
0
 62
7
  6
CONTINUOUS
 10
99.4193591098
 20
124.7098654407
 11
97.7484998266
 21
123.2269034747
  0
LINE
  8
0
 62
7
  6
CONTINUOUS
 10
97.6547317661
 20
121.8901843668
 11
103.2640446202
 21
126.8686991358
  0
LINE
  8
0
 62
7
  6
CONTINUOUS
 10
87.7857805797
 20
135.1335507459
 11
88.5016257533
 21
135.485922435
  0
LINE
  8
0
 62
7
  6
CONTINUOUS
 10
93.3693736356
 20
137.8820502666
 11
94.5147260136
 21
138.4458450185
  0
LINE
  8
0
 62
7
  6
CONTINUOUS
 10
61.707084
 20
135.8776994425
 11
62.1826122582
 21
136.0322079397
  0
LINE
  8
0
 62
7
  6
CONTINUOUS
 10
224.7864057545
 20
188.8653831289
 11
225.2619340126
 21
189.0198916261
  0
LINE
  8
0
 62
9
  6
CONTINUOUS
 10
62.1706094916
 20
134.4511146681
 11
62.6461377497
 21
134.6056231653
  0
LINE
  8
0
 62
7
  6
CONTINUOUS
 10
84.7775492904
 20
151.6822742301
 11
85.8541241238
 21
151.9801380628
  0
LINE
  8
0
 62
7
  6
CONTINUOUS
 10
85.799592485
 20
152.7756539916
 11
84.415424842
 21
152.3926862067
  0
LINE
  8
0
 62
7
  6
CONTINUOUS
 10
225.2619340126
 20
142.0595667985
 11
224.7864057545
 21
142.2140752956
  0
LINE
  8
0
 62
7
  6
CONTINUOUS
 10
62.1826122582
 20
195.0472504848
 11
61.707084
 21
195.201758982
  0
LINE
  8
0
 62
9
  6
CONTINUOUS
 10
225.7254595042
 20
143.4861515729
 11
225.2499312461
 21
143.6406600701
  0
LINE
  8
0
 62
7
  6
CONTINUOUS
 10
96.2641744602
 20
205.0088260367
 11
96.6380139509
 21
204.7097934192
  0
LINE
  8
0
 62
7
  6
CONTINUOUS
 10
97.3482320637
 20
205.3422177127
 11
96.8497795257
 21
205.7409277763
  0
LINE
  8
0
 62
7
  6
CONTINUOUS
 10
184.5935526879
 20
126.026640032
 11
182.9672070912
 21
127.6529856287
  0
LINE
  8
0
 62
7
  6
CONTINUOUS
 10
183.1086284474
 20
127.794406985
 11
184.7349740442
 21
126.1680613882
  0
LINE
  8
0
 62
7
  6
CONTINUOUS
 10
185.3360148082
 20
126.7691021523
 11
184.5581973489
 21
127.5469196116
  0
LINE
  8
0
 62
7
  6
CONTINUOUS
 10
183.9942841325
 20
128.1108328279
 11
183.7096692114
 21
128.395447749
  0
LINE
  8
0
 62
7
  6
CONTINUOUS
 10
185.1945934519
 20
128.5368691052
 11
186.1491876065
 21
127.5822749506
  0
LINE
  8
0
 62
7
  6
CONTINUOUS
 10
186.7502283705
 20
128.1833157146
 11
185.830989555
 21
129.1025545302
  0
LINE
  8
0
 62
7
  6
CONTINUOUS
 10
105.7733333181
 20
210.7809190664
 11
106.5603774746
 21
209.9730120281
  0
LINE
  8
0
 62
7
  6
CONTINUOUS
 10
109.9610076894
 20
213.2617495471
 11
110.24433351
 21
212.8758706509
  0
LINE
  8
0
 62
7
  6
CONTINUOUS
 10
110.9685046025
 20
213.2096135841
 11
110.4962947693
 21
213.8527452579
  0
LINE
  8
0
 62
7
  6
CONTINUOUS
 10
195.6507371727
 20
97.8859985956
 11
195.3568445465
 21
98.2905070928
  0
LINE
  8
0
 62
7
  6
CONTINUOUS
 10
94.8621734661
 20
236.6095554716
 11
94.56828084
 21
237.0140639688
  0
LINE
  8
0
 62
9
  6
CONTINUOUS
 10
196.8642626642
 20
98.7676764741
 11
196.5703700381
 21
99.1721849713
  0
LINE
  8
BLANK_COSM
 62
2
  6
PHANTOM
 10
150.8551491442
 20
145.6304033344
 11
146.6125084571
 21
141.3877626473
  0
LINE
  8
BLANK_COSM
 62
2
  6
PHANTOM
 10
162.3895296525
 20
157.1647838427
 11
166.6321703396
 21
161.4074245298
  0
LINE
  8
0
 62
7
  6
CONTINUOUS
 10
98.5753819177
 20
130.228277034
 11
98.1136231558
 21
130.0273583606
  0
LINE
  8
0
 62
7
  6
CONTINUOUS
 10
98.6165904341
 20
129.2202684203
 11
99.0783491125
 21
129.4211870195
  0
LINE
  8
0
 62
7
  6
CONTINUOUS
 10
96.0690932437
 20
128.0038343075
 11
95.6073345653
 21
127.8029157083
  0
LINE
  8
0
 62
7
  6
CONTINUOUS
 10
96.1103018437
 20
126.995825768
 11
96.572060522
 21
127.1967443672
  0
LINE
  8
0
 62
7
  6
CONTINUOUS
 10
104.2331446653
 20
207.7168435281
 11
106.00921319
 21
206.7665650939
  0
LINE
  8
0
 62
7
  6
CONTINUOUS
 10
99.682590807
 20
210.2077773431
 11
103.6787373565
 21
208.0696433226
  0
LINE
  8
0
 62
7
  6
CONTINUOUS
 10
106.5603774746
 20
209.9730120281
 11
107.2844765965
 21
209.5148264438
  0
LINE
  8
0
 62
7
  6
CONTINUOUS
 10
107.5049409501
 20
210.2706058954
 11
107.0956646867
 21
210.5640075587
  0
LINE
  8
0
 62
7
  6
CONTINUOUS
 10
109.5517312937
 20
213.5551513905
 11
109.9610076894
 21
213.2617495471
  0
LINE
  8
BLANK_COSM
 62
2
  6
PHANTOM
 10
146.6125084571
 20
189.6916957773
 11
150.8551491442
 21
185.4490550901
  0
LINE
  8
BLANK_COSM
 62
2
  6
PHANTOM
 10
166.6321703396
 20
169.6720338947
 11
162.3895296525
 21
173.9146745818
  0
LINE
  8
0
 62
7
  6
CONTINUOUS
 10
159.3644381425
 20
264.6938954879
 11
159.5372833032
 21
262.7182662606
  0
LINE
  8
0
 62
9
  6
CONTINUOUS
 10
158.0429912561
 20
68.491925778
 11
157.8701460954
 21
66.5162965507
  0
LINE
  8
0
 62
7
  6
CONTINUOUS
 10
159.5372833032
 20
68.3611921639
 11
159.3644381425
 21
66.3855629366
  0
LINE
  8
0
 62
7
  6
CONTINUOUS
 10
214.4211929555
 20
235.8328308346
 11
213.3997819041
 21
234.1329173788
  0
LINE
  8
0
 62
9
  6
CONTINUOUS
 10
98.0274957009
 20
77.878830001
 11
96.7264153047
 21
76.3821082179
  0
LINE
  8
0
 62
7
  6
CONTINUOUS
 10
99.1595600713
 20
76.8947414575
 11
97.8584796751
 21
75.3980196745
  0
LINE
  8
0
 62
7
  6
CONTINUOUS
 10
130.5636313468
 20
110.1948906114
 11
130.9597806151
 21
110.6070775967
  0
LINE
  8
BLANK_COSM
 62
2
  6
PHANTOM
 10
160.527574593
 20
153.0400870834
 11
154.9798459035
 21
147.4923583939
  0
LINE
  8
0
 62
7
  6
CONTINUOUS
 10
241.9989350856
 20
180.1221905363
 11
240.1734121273
 21
179.347302014
  0
LINE
  8
0
 62
9
  6
CONTINUOUS
 10
229.9689838113
 20
210.3302401862
 11
231.9013309537
 21
210.7763576756
  0
LINE
  8
0
 62
7
  6
CONTINUOUS
 10
229.6315572298
 20
211.7917952834
 11
231.5639043722
 21
212.2379127728
  0
LINE
  8
0
 62
7
  6
CONTINUOUS
 10
53.396503177
 20
212.2379127728
 11
55.3288503195
 21
211.7917952834
  0
LINE
  8
0
 62
7
  6
CONTINUOUS
 10
95.7927359635
 20
205.1858432801
 11
96.2641744602
 21
205.0088260367
  0
LINE
  8
0
 62
7
  6
CONTINUOUS
 10
96.8497795257
 20
205.7409277763
 11
96.3783410291
 21
205.9179450198
  0
LINE
  8
0
 62
7
  6
CONTINUOUS
 10
108.0401561916
 20
210.0696729087
 11
107.5049409501
 21
210.2706058954
  0
LINE
  8
0
 62
9
  6
CONTINUOUS
 10
239.5873154345
 20
150.3513991303
 11
241.4128383929
 21
149.5765106081
  0
LINE
  8
0
 62
7
  6
CONTINUOUS
 10
240.1734121273
 20
151.7321564105
 11
241.9989350856
 21
150.9572678882
  0
LINE
  8
0
 62
7
  6
CONTINUOUS
 10
106.6861472431
 20
207.4151532049
 11
99.6922814368
 21
211.1010540346
  0
LINE
  8
0
 62
7
  6
CONTINUOUS
 10
110.4962947693
 20
213.8527452579
 11
109.7721957135
 21
214.310930752
  0
LINE
  8
0
 62
7
  6
CONTINUOUS
 10
108.5444502263
 20
215.9830729958
 11
108.1351739629
 21
216.2764746591
  0
LINE
  8
BLANK_COSM
 62
2
  6
PHANTOM
 10
154.9798459035
 20
183.5871000306
 11
160.527574593
 21
178.0393713412
  0
LINE
  8
0
 62
7
  6
CONTINUOUS
 10
97.8584796751
 20
255.68143875
 11
99.1595600713
 21
254.184716967
  0
LINE
  8
0
 62
9
  6
CONTINUOUS
 10
212.114030953
 20
96.1739839333
 11
213.1354420044
 21
94.4740704775
  0
LINE
  8
0
 62
7
  6
CONTINUOUS
 10
213.3997819041
 20
96.9465410457
 11
214.4211929555
 21
95.2466275899
  0
LINE
  8
0
 62
9
  6
CONTINUOUS
 10
174.4802037746
 20
249.0256024019
 11
174.4802037746
 21
247.5256024019
  0
LINE
  8
0
 62
9
  6
CONTINUOUS
 10
217.4405126302
 20
214.2720913395
 11
216.5588347518
 21
213.058565848
  0
LINE
  8
0
 62
7
  6
CONTINUOUS
 10
131.2618179625
 20
111.3619204348
 11
130.7121496789
 21
110.9788182887
  0
LINE
  8
0
 62
7
  6
CONTINUOUS
 10
110.2471455503
 20
116.323943637
 11
114.5813202239
 21
118.0379616687
  0
LINE
  8
0
 62
7
  6
CONTINUOUS
 10
113.8011694049
 20
118.557837567
 11
110.2995176611
 21
117.2478396508
  0
LINE
  8
0
 62
7
  6
CONTINUOUS
 10
106.0014588927
 20
114.7427182098
 11
109.5031121246
 21
116.0527151344
  0
LINE
  8
0
 62
7
  6
CONTINUOUS
 10
109.4669947313
 20
116.8438195353
 11
105.2213080737
 21
115.2625941081
  0
LINE
  8
0
 62
9
  6
CONTINUOUS
 10
231.7685313102
 20
160.9044742966
 11
230.3419465357
 21
160.4409488051
  0
LINE
  8
0
 62
7
  6
CONTINUOUS
 10
96.3783410291
 20
205.9179450198
 11
95.5870863075
 21
205.9506039343
  0
LINE
  8
0
 62
7
  6
CONTINUOUS
 10
107.2844765965
 20
209.5148264438
 11
108.0400841879
 21
209.2777444363
  0
LINE
  8
0
 62
7
  6
CONTINUOUS
 10
108.1351739629
 20
216.2764746591
 11
107.3795664046
 21
216.5135566216
  0
LINE
  8
0
 62
9
  6
CONTINUOUS
 10
72.968963879
 20
221.7720913395
 11
74.3955486535
 21
221.308565848
  0
LINE
  8
0
 62
7
  6
CONTINUOUS
 10
107.3794943678
 20
215.7216281943
 11
107.9147210739
 21
215.5207037639
  0
LINE
  8
0
 62
9
  6
CONTINUOUS
 10
119.296982559
 20
251.8903474862
 11
120.1786604374
 21
250.6768219947
  0
LINE
  8
0
 62
9
  6
CONTINUOUS
 10
156.6250793538
 20
64.5708567616
 11
157.0874721557
 21
65.9978090721
  0
LINE
  8
0
 62
9
  6
CONTINUOUS
 10
94.5756343343
 20
75.5400462358
 11
95.7884594931
 21
76.4226872355
  0
LINE
  8
0
 62
7
  6
CONTINUOUS
 10
126.7572183509
 20
108.9980708096
 11
126.3653875774
 21
108.7836389854
  0
LINE
  8
0
 62
7
  6
CONTINUOUS
 10
126.179693195
 20
108.1729494792
 11
126.5715239685
 21
108.3873813034
  0
LINE
  8
0
 62
7
  6
CONTINUOUS
 10
130.9597806151
 20
110.6070775967
 11
131.4797454404
 21
110.8333941054
  0
LINE
  8
0
 62
7
  6
CONTINUOUS
 10
131.5985601077
 20
111.4605362554
 11
131.2618179625
 21
111.3619204348
  0
LINE
  8
0
 62
7
  6
CONTINUOUS
 10
95.3483066913
 20
205.1411623973
 11
95.7927359635
 21
205.1858432801
  0
LINE
  8
0
 62
7
  6
CONTINUOUS
 10
108.0400841879
 20
209.2777444363
 11
108.9531507165
 21
209.3542432045
  0
LINE
  8
0
 62
7
  6
CONTINUOUS
 10
108.6068798696
 20
210.0898435436
 11
108.0401561916
 21
210.0696729087
  0
LINE
  8
0
 62
9
  6
CONTINUOUS
 10
234.1363009246
 20
210.1934027941
 11
232.6363013972
 21
210.1922119674
  0
LINE
  8
0
 62
7
  6
CONTINUOUS
 10
109.1109580585
 20
213.6274579885
 11
109.5517312937
 21
213.5551513905
  0
LINE
  8
0
 62
7
  6
CONTINUOUS
 10
109.7721957135
 20
214.310930752
 11
109.1110300953
 21
214.4193864158
  0
LINE
  8
0
 62
9
  6
CONTINUOUS
 10
242.8783147991
 20
147.7912078138
 11
241.6640897396
 21
148.6719220154
  0
LINE
  8
0
 62
9
  6
CONTINUOUS
 10
213.2716626686
 20
92.1683447577
 11
212.8070047796
 21
93.5945610969
  0
LINE
  8
0
 62
7
  6
CONTINUOUS
 10
184.4167759926
 20
129.1025545302
 11
184.2399992973
 21
128.9257778349
  0
LINE
  8
0
 62
7
  6
CONTINUOUS
 10
183.7096692114
 20
128.395447749
 11
183.1086284474
 21
127.794406985
  0
LINE
  8
0
 62
7
  6
CONTINUOUS
 10
182.9672070912
 20
127.6529856287
 11
182.3661663272
 21
127.0519448647
  0
LINE
  8
0
 62
7
  6
CONTINUOUS
 10
181.5529935288
 20
126.2387720664
 11
180.9519527648
 21
125.6377313024
  0
LINE
  8
0
 62
7
  6
CONTINUOUS
 10
180.8105314086
 20
125.4963099461
 11
180.2094906446
 21
124.8952691821
  0
LINE
  8
0
 62
7
  6
CONTINUOUS
 10
184.5581973489
 20
128.2540263927
 11
184.8410400613
 21
128.5368691052
  0
LINE
  8
0
 62
7
  6
CONTINUOUS
 10
183.1439837865
 20
125.5670206242
 11
182.861141074
 21
125.2841779118
  0
LINE
  8
0
 62
7
  6
CONTINUOUS
 10
181.8358362413
 20
123.2689235854
 11
182.4368770053
 21
123.8699643494
  0
LINE
  8
0
 62
7
  6
CONTINUOUS
 10
183.2854051427
 20
124.7184924868
 11
183.4633616617
 21
124.8964490058
  0
LINE
  8
0
 62
7
  6
CONTINUOUS
 10
183.9925119239
 20
125.425599268
 11
184.5935526879
 21
126.026640032
  0
LINE
  8
0
 62
7
  6
CONTINUOUS
 10
184.7349740442
 20
126.1680613882
 11
185.3360148082
 21
126.7691021523
  0
LINE
  8
0
 62
7
  6
CONTINUOUS
 10
186.1491876065
 20
127.5822749506
 11
186.7502283705
 21
128.1833157146
  0
LINE
  8
0
 62
7
  6
CONTINUOUS
 10
126.3653875774
 20
108.7836389854
 11
125.8240656543
 21
108.6146634306
  0
LINE
  8
0
 62
7
  6
CONTINUOUS
 10
125.6383712719
 20
108.0039739244
 11
126.179693195
 21
108.1729494792
  0
LINE
  8
0
 62
7
  6
CONTINUOUS
 10
95.5870863075
 20
205.9506039343
 11
94.8228408103
 21
205.7615647225
  0
LINE
  8
0
 62
7
  6
CONTINUOUS
 10
109.1110300953
 20
214.4193864158
 11
108.1979751224
 21
214.3428960801
  0
LINE
  8
0
 62
7
  6
CONTINUOUS
 10
107.3795664046
 20
216.5135566216
 11
106.4665114316
 21
216.4370662859
  0
LINE
  8
0
 62
7
  6
CONTINUOUS
 10
108.5442343806
 20
213.6072873535
 11
109.1109580585
 21
213.6274579885
  0
LINE
  8
0
 62
7
  6
CONTINUOUS
 10
106.8127706898
 20
215.7014575594
 11
107.3794943678
 21
215.7216281943
  0
LINE
  8
0
 62
9
  6
CONTINUOUS
 10
220.8396739587
 20
141.3935217434
 11
210.5648588957
 21
109.7708925766
  0
LINE
  8
0
 62
7
  6
CONTINUOUS
 10
231.7685313102
 20
170.1749841279
 11
230.262445691
 21
165.5397292123
  0
LINE
  8
0
 62
7
  6
CONTINUOUS
 10
222.2662587332
 20
140.9299962518
 11
211.9914436702
 21
109.307367085
  0
LINE
  8
0
 62
9
  6
CONTINUOUS
 10
224.7864057545
 20
142.2140752956
 11
225.2499312461
 21
143.6406600701
  0
LINE
  8
0
 62
9
  6
CONTINUOUS
 10
225.2619340126
 20
142.0595667985
 11
225.7254595042
 21
143.4861515729
  0
LINE
  8
0
 62
9
  6
CONTINUOUS
 10
191.6815621748
 20
99.9464960686
 11
164.7817471118
 21
80.4026364298
  0
LINE
  8
0
 62
7
  6
CONTINUOUS
 10
217.4405126302
 20
116.807367085
 11
213.4975292893
 21
113.9426220006
  0
LINE
  8
0
 62
7
  6
CONTINUOUS
 10
192.5632400532
 20
98.732970577
 11
165.6634249902
 21
79.1891109383
  0
LINE
  8
0
 62
9
  6
CONTINUOUS
 10
195.3568445465
 20
98.2905070928
 11
196.5703700381
 21
99.1721849712
  0
LINE
  8
0
 62
9
  6
CONTINUOUS
 10
195.6507371727
 20
97.8859985956
 11
196.8642626642
 21
98.7676764741
  0
LINE
  8
0
 62
9
  6
CONTINUOUS
 10
141.2302037746
 20
247.5256024019
 11
174.4802037746
 21
247.5256024019
  0
LINE
  8
0
 62
7
  6
CONTINUOUS
 10
110.4802037746
 20
249.0256024019
 11
115.3539992181
 21
249.0256024019
  0
LINE
  8
0
 62
7
  6
CONTINUOUS
 10
141.2302037746
 20
249.0256024019
 11
174.4802037746
 21
249.0256024019
  0
LINE
  8
0
 62
9
  6
CONTINUOUS
 10
139.2302037746
 20
251.0256024019
 11
137.7302037746
 21
251.0256024019
  0
LINE
  8
0
 62
9
  6
CONTINUOUS
 10
139.2302037746
 20
251.5256024019
 11
137.7302037746
 21
251.5256024019
  0
LINE
  8
0
 62
9
  6
CONTINUOUS
 10
189.6590196888
 20
232.6024254867
 11
216.5588347518
 21
213.058565848
  0
LINE
  8
0
 62
7
  6
CONTINUOUS
 10
165.6634249902
 20
251.8903474862
 11
169.6064083311
 21
249.0256024019
  0
LINE
  8
0
 62
7
  6
CONTINUOUS
 10
190.5406975673
 20
233.8159509782
 11
217.4405126302
 21
214.2720913395
  0
LINE
  8
0
 62
9
  6
CONTINUOUS
 10
190.0982340831
 20
236.6095554716
 11
188.8847085916
 21
237.4912333501
  0
LINE
  8
0
 62
9
  6
CONTINUOUS
 10
190.3921267092
 20
237.0140639688
 11
189.1786012177
 21
237.8957418472
  0
LINE
  8
0
 62
9
  6
CONTINUOUS
 10
220.0671314728
 20
192.0635779719
 11
230.3419465357
 21
160.4409488051
  0
LINE
  8
0
 62
7
  6
CONTINUOUS
 10
211.9914436702
 20
221.7720913395
 11
213.4975292893
 21
217.1368364239
  0
LINE
  8
0
 62
7
  6
CONTINUOUS
 10
221.4937162472
 20
192.5271034634
 11
231.7685313102
 21
160.9044742966
  0
LINE
  8
0
 62
9
  6
CONTINUOUS
 10
222.7777952911
 20
195.0472504848
 11
222.3142697996
 21
196.4738352592
  0
LINE
  8
0
 62
9
  6
CONTINUOUS
 10
223.2533235492
 20
195.201758982
 11
222.7897980576
 21
196.6283437564
  0
LINE
  8
0
 62
9
  6
CONTINUOUS
 10
240.1734121273
 20
151.7321564105
 11
239.5873154345
 21
150.3513991303
  0
LINE
  8
0
 62
9
  6
CONTINUOUS
 10
213.3997819041
 20
96.9465410457
 11
212.114030953
 21
96.1739839333
  0
LINE
  8
0
 62
9
  6
CONTINUOUS
 10
125.423124246
 20
262.7182662606
 11
126.9174162931
 21
262.5875326465
  0
LINE
  8
0
 62
9
  6
CONTINUOUS
 10
185.800847478
 20
254.184716967
 11
186.9329118483
 21
253.2006284235
  0
LINE
  8
0
 62
9
  6
CONTINUOUS
 10
229.6315572298
 20
211.7917952834
 11
229.9689838113
 21
210.3302401862
  0
LINE
  8
0
 62
9
  6
CONTINUOUS
 10
241.9989350856
 20
150.9572678882
 11
241.4128383929
 21
149.5765106081
  0
LINE
  8
0
 62
9
  6
CONTINUOUS
 10
214.4211929555
 20
95.2466275899
 11
213.1354420044
 21
94.4740704775
  0
LINE
  8
0
 62
9
  6
CONTINUOUS
 10
125.5959694067
 20
264.6938954879
 11
127.0902614538
 21
264.5631618738
  0
LINE
  8
0
 62
9
  6
CONTINUOUS
 10
187.1019278742
 20
255.68143875
 11
188.2339922445
 21
254.6973502066
  0
LINE
  8
0
 62
9
  6
CONTINUOUS
 10
231.5639043722
 20
212.2379127728
 11
231.9013309537
 21
210.7763576756
  0
POLYLINE
  8
0
 62
9
  6
CONTINUOUS
 66
1
 70
0
  0
VERTEX
  8
0
 62
9
  6
CONTINUOUS
 10
352.6410694748
 20
64.5708567616
  0
VERTEX
  8
0
 62
9
  6
CONTINUOUS
 10
352.875721199
 20
64.5884249164
  0
VERTEX
  8
0
 62
9
  6
CONTINUOUS
 10
353.1045950159
 20
64.6406967941
  0
VERTEX
  8
0
 62
9
  6
CONTINUOUS
 10
353.3220552899
 20
64.7263852855
  0
VERTEX
  8
0
 62
9
  6
CONTINUOUS
 10
353.5227474256
 20
64.8433804528
  0
VERTEX
  8
0
 62
9
  6
CONTINUOUS
 10
353.7017297162
 20
64.9888014832
  0
VERTEX
  8
0
 62
9
  6
CONTINUOUS
 10
353.8545950247
 20
65.1590676246
  0
VERTEX
  8
0
 62
9
  6
CONTINUOUS
 10
353.9775793022
 20
65.3499863562
  0
VERTEX
  8
0
 62
9
  6
CONTINUOUS
 10
354.0676542713
 20
65.5568566226
  0
VERTEX
  8
0
 62
9
  6
CONTINUOUS
 10
354.1226019922
 20
65.7745845896
  0
SEQEND
  0
LINE
  8
0
 62
7
  6
CONTINUOUS
 10
323.6410694748
 20
64.4685899964
 11
352.6410694748
 21
64.4685899964
  0
LINE
  8
0
 62
9
  6
CONTINUOUS
 10
338.1410694748
 20
64.5708567616
 11
352.6410694748
 21
64.5708567616
  0
LINE
  8
0
 62
9
  6
CONTINUOUS
 10
338.1410694748
 20
66.3855629366
 11
323.6410694748
 21
66.3855629366
  0
LINE
  8
0
 62
9
  6
CONTINUOUS
 10
338.1410694748
 20
68.3611921639
 11
323.6410694748
 21
68.3611921639
  0
POLYLINE
  8
0
 62
9
  6
CONTINUOUS
 66
1
 70
0
  0
VERTEX
  8
0
 62
9
  6
CONTINUOUS
 10
323.6410694748
 20
66.3855629366
  0
VERTEX
  8
0
 62
9
  6
CONTINUOUS
 10
323.4064176255
 20
66.3871724849
  0
VERTEX
  8
0
 62
9
  6
CONTINUOUS
 10
323.1775437133
 20
66.3919615
  0
VERTEX
  8
0
 62
9
  6
CONTINUOUS
 10
322.9600833821
 20
66.3998120591
  0
VERTEX
  8
0
 62
9
  6
CONTINUOUS
 10
322.7593912302
 20
66.4105308541
  0
VERTEX
  8
0
 62
9
  6
CONTINUOUS
 10
322.5804089618
 20
66.4238539509
  0
VERTEX
  8
0
 62
9
  6
CONTINUOUS
 10
322.4275437059
 20
66.4394532893
  0
VERTEX
  8
0
 62
9
  6
CONTINUOUS
 10
322.3045594984
 20
66.4569447607
  0
VERTEX
  8
0
 62
9
  6
CONTINUOUS
 10
322.2144846009
 20
66.4758976661
  0
VERTEX
  8
0
 62
9
  6
CONTINUOUS
 10
322.1595369355
 20
66.4958453218
  0
VERTEX
  8
0
 62
9
  6
CONTINUOUS
 10
322.1410694748
 20
66.5162965507
  0
SEQEND
  0
POLYLINE
  8
0
 62
9
  6
CONTINUOUS
 66
1
 70
0
  0
VERTEX
  8
0
 62
9
  6
CONTINUOUS
 10
323.6410694748
 20
68.3611921639
  0
VERTEX
  8
0
 62
9
  6
CONTINUOUS
 10
323.4064177773
 20
68.3628017116
  0
VERTEX
  8
0
 62
9
  6
CONTINUOUS
 10
323.1775439833
 20
68.3675907224
  0
VERTEX
  8
0
 62
9
  6
CONTINUOUS
 10
322.9600837252
 20
68.3754412749
  0
VERTEX
  8
0
 62
9
  6
CONTINUOUS
 10
322.7593915964
 20
68.3861600624
  0
VERTEX
  8
0
 62
9
  6
CONTINUOUS
 10
322.5804093031
 20
68.3994831529
  0
VERTEX
  8
0
 62
9
  6
CONTINUOUS
 10
322.4275439833
 20
68.4150824876
  0
VERTEX
  8
0
 62
9
  6
CONTINUOUS
 10
322.3045596886
 20
68.4325739592
  0
VERTEX
  8
0
 62
9
  6
CONTINUOUS
 10
322.2144847004
 20
68.4515268695
  0
VERTEX
  8
0
 62
9
  6
CONTINUOUS
 10
322.1595369639
 20
68.471474535
  0
VERTEX
  8
0
 62
9
  6
CONTINUOUS
 10
322.1410694748
 20
68.491925778
  0
SEQEND
  0
POLYLINE
  8
0
 62
9
  6
CONTINUOUS
 66
1
 70
0
  0
VERTEX
  8
0
 62
9
  6
CONTINUOUS
 10
352.6410694748
 20
75.5400462358
  0
VERTEX
  8
0
 62
9
  6
CONTINUOUS
 10
352.875721199
 20
75.5509130138
  0
VERTEX
  8
0
 62
9
  6
CONTINUOUS
 10
353.1045950159
 20
75.5832457708
  0
VERTEX
  8
0
 62
9
  6
CONTINUOUS
 10
353.3220552899
 20
75.6362483661
  0
VERTEX
  8
0
 62
9
  6
CONTINUOUS
 10
353.5227474256
 20
75.708615698
  0
VERTEX
  8
0
 62
9
  6
CONTINUOUS
 10
353.7017297162
 20
75.7985658404
  0
VERTEX
  8
0
 62
9
  6
CONTINUOUS
 10
353.8545950247
 20
75.9038839202
  0
VERTEX
  8
0
 62
9
  6
CONTINUOUS
 10
353.9775793022
 20
76.0219766545
  0
VERTEX
  8
0
 62
9
  6
CONTINUOUS
 10
354.0676542713
 20
76.1499362067
  0
SEQEND
  0
LINE
  8
0
 62
7
  6
CONTINUOUS
 10
338.1410694748
 20
74.6757436353
 11
352.6410694748
 21
74.6757436353
  0
LINE
  8
0
 62
9
  6
CONTINUOUS
 10
338.1410694748
 20
75.5400462358
 11
352.6410694748
 21
75.5400462358
  0
LINE
  8
0
 62
9
  6
CONTINUOUS
 10
338.1410694748
 20
79.1891109383
 11
323.6410694748
 21
79.1891109383
  0
POLYLINE
  8
0
 62
9
  6
CONTINUOUS
 66
1
 70
0
  0
VERTEX
  8
0
 62
9
  6
CONTINUOUS
 10
323.6410694748
 20
79.1891109383
  0
VERTEX
  8
0
 62
9
  6
CONTINUOUS
 10
323.4064178086
 20
79.2040514468
  0
VERTEX
  8
0
 62
9
  6
CONTINUOUS
 10
323.1775440415
 20
79.2485050881
  0
VERTEX
  8
0
 62
9
  6
CONTINUOUS
 10
322.9600838022
 20
79.3213772679
  0
VERTEX
  8
0
 62
9
  6
CONTINUOUS
 10
322.7593916815
 20
79.420873634
  0
VERTEX
  8
0
 62
9
  6
CONTINUOUS
 10
322.580409385
 20
79.5445442593
  0
VERTEX
  8
0
 62
9
  6
CONTINUOUS
 10
322.427544052
 20
79.6893439661
  0
VERTEX
  8
0
 62
9
  6
CONTINUOUS
 10
322.304559737
 20
79.8517073086
  0
VERTEX
  8
0
 62
9
  6
CONTINUOUS
 10
322.2144847264
 20
80.027636365
  0
VERTEX
  8
0
 62
9
  6
CONTINUOUS
 10
322.1595369716
 20
80.2127991797
  0
VERTEX
  8
0
 62
9
  6
CONTINUOUS
 10
322.1410694748
 20
80.4026364298
  0
SEQEND
  0
POLYLINE
  8
0
 62
9
  6
CONTINUOUS
 66
1
 70
0
  0
VERTEX
  8
0
 62
9
  6
CONTINUOUS
 10
323.6410694748
 20
92.1683447577
  0
VERTEX
  8
0
 62
9
  6
CONTINUOUS
 10
323.4064177507
 20
92.1859038515
  0
VERTEX
  8
0
 62
9
  6
CONTINUOUS
 10
323.1775439338
 20
92.2381487691
  0
VERTEX
  8
0
 62
9
  6
CONTINUOUS
 10
322.9600836598
 20
92.3237930654
  0
VERTEX
  8
0
 62
9
  6
CONTINUOUS
 10
322.7593915241
 20
92.4407278907
  0
VERTEX
  8
0
 62
9
  6
CONTINUOUS
 10
322.5804092335
 20
92.5860739181
  0
VERTEX
  8
0
 62
9
  6
CONTINUOUS
 10
322.427543925
 20
92.7562522423
  0
VERTEX
  8
0
 62
9
  6
CONTINUOUS
 10
322.3045596475
 20
92.9470725048
  0
VERTEX
  8
0
 62
9
  6
CONTINUOUS
 10
322.2144846784
 20
93.1538360749
  0
VERTEX
  8
0
 62
9
  6
CONTINUOUS
 10
322.1595369575
 20
93.3714517456
  0
VERTEX
  8
0
 62
9
  6
CONTINUOUS
 10
322.1410694748
 20
93.5945610969
  0
SEQEND
  0
POLYLINE
  8
0
 62
9
  6
CONTINUOUS
 66
1
 70
0
  0
VERTEX
  8
0
 62
9
  6
CONTINUOUS
 10
352.6410694748
 20
97.2635074463
  0
VERTEX
  8
0
 62
9
  6
CONTINUOUS
 10
352.8757211724
 20
97.2784479588
  0
VERTEX
  8
0
 62
9
  6
CONTINUOUS
 10
353.1045949664
 20
97.3229016114
  0
VERTEX
  8
0
 62
9
  6
CONTINUOUS
 10
353.3220552244
 20
97.3957738076
  0
VERTEX
  8
0
 62
9
  6
CONTINUOUS
 10
353.5227473533
 20
97.495270192
  0
VERTEX
  8
0
 62
9
  6
CONTINUOUS
 10
353.7017296466
 20
97.6189408336
  0
VERTEX
  8
0
 62
9
  6
CONTINUOUS
 10
353.8545949664
 20
97.7637405506
  0
VERTEX
  8
0
 62
9
  6
CONTINUOUS
 10
353.9775792611
 20
97.9261038935
  0
VERTEX
  8
0
 62
9
  6
CONTINUOUS
 10
354.0676542493
 20
98.1020329378
  0
VERTEX
  8
0
 62
9
  6
CONTINUOUS
 10
354.1226019857
 20
98.2871957267
  0
VERTEX
  8
0
 62
9
  6
CONTINUOUS
 10
354.1410694748
 20
98.4770329378
  0
SEQEND
  0
POLYLINE
  8
0
 62
9
  6
CONTINUOUS
 66
1
 70
0
  0
VERTEX
  8
0
 62
9
  6
CONTINUOUS
 10
323.6410694748
 20
95.2466275899
  0
VERTEX
  8
0
 62
9
  6
CONTINUOUS
 10
323.4064176255
 20
95.2371161162
  0
VERTEX
  8
0
 62
9
  6
CONTINUOUS
 10
323.1775437133
 20
95.2088159059
  0
VERTEX
  8
0
 62
9
  6
CONTINUOUS
 10
322.9600833821
 20
95.1624238117
  0
VERTEX
  8
0
 62
9
  6
CONTINUOUS
 10
322.7593912302
 20
95.0990821698
  0
VERTEX
  8
0
 62
9
  6
CONTINUOUS
 10
322.5804089618
 20
95.0203506709
  0
VERTEX
  8
0
 62
9
  6
CONTINUOUS
 10
322.4275437059
 20
94.9281679544
  0
VERTEX
  8
0
 62
9
  6
CONTINUOUS
 10
322.3045594984
 20
94.8248038716
  0
VERTEX
  8
0
 62
9
  6
CONTINUOUS
 10
322.2144846009
 20
94.7128035941
  0
VERTEX
  8
0
 62
9
  6
CONTINUOUS
 10
322.1595369355
 20
94.5949249421
  0
VERTEX
  8
0
 62
9
  6
CONTINUOUS
 10
322.1410694748
 20
94.4740704775
  0
SEQEND
  0
POLYLINE
  8
0
 62
9
  6
CONTINUOUS
 66
1
 70
0
  0
VERTEX
  8
0
 62
9
  6
CONTINUOUS
 10
323.6410694748
 20
96.9465410457
  0
VERTEX
  8
0
 62
9
  6
CONTINUOUS
 10
323.4064177773
 20
96.9370295857
  0
VERTEX
  8
0
 62
9
  6
CONTINUOUS
 10
323.1775439833
 20
96.9087294093
  0
VERTEX
  8
0
 62
9
  6
CONTINUOUS
 10
322.9600837252
 20
96.8623373608
  0
VERTEX
  8
0
 62
9
  6
CONTINUOUS
 10
322.7593915964
 20
96.7989957664
  0
VERTEX
  8
0
 62
9
  6
CONTINUOUS
 10
322.5804093031
 20
96.7202643064
  0
VERTEX
  8
0
 62
9
  6
CONTINUOUS
 10
322.4275439833
 20
96.6280816106
  0
VERTEX
  8
0
 62
9
  6
CONTINUOUS
 10
322.3045596886
 20
96.5247175229
  0
VERTEX
  8
0
 62
9
  6
CONTINUOUS
 10
322.2144847004
 20
96.4127172102
  0
VERTEX
  8
0
 62
9
  6
CONTINUOUS
 10
322.1595369639
 20
96.2948384919
  0
VERTEX
  8
0
 62
9
  6
CONTINUOUS
 10
322.1410694748
 20
96.1739839333
  0
SEQEND
  0
LINE
  8
0
 62
7
  6
CONTINUOUS
 10
338.1410694748
 20
91.3936163192
 11
323.6410694748
 21
91.3936163192
  0
LINE
  8
0
 62
9
  6
CONTINUOUS
 10
338.1410694748
 20
92.1683447577
 11
323.6410694748
 21
92.1683447577
  0
LINE
  8
0
 62
9
  6
CONTINUOUS
 10
338.1410694748
 20
94.0653944557
 11
352.6410694748
 21
94.0653944557
  0
LINE
  8
0
 62
9
  6
CONTINUOUS
 10
338.1410694748
 20
94.4699029529
 11
352.6410694748
 21
94.4699029529
  0
LINE
  8
0
 62
9
  6
CONTINUOUS
 10
338.1410694748
 20
95.2466275899
 11
323.6410694748
 21
95.2466275899
  0
LINE
  8
0
 62
9
  6
CONTINUOUS
 10
338.1410694748
 20
96.9465410457
 11
323.6410694748
 21
96.9465410457
  0
LINE
  8
0
 62
9
  6
CONTINUOUS
 10
338.1410694748
 20
97.2635074463
 11
352.6410694748
 21
97.2635074463
  0
POLYLINE
  8
0
 62
9
  6
CONTINUOUS
 66
1
 70
0
  0
VERTEX
  8
0
 62
9
  6
CONTINUOUS
 10
352.6410694748
 20
94.0653944557
  0
VERTEX
  8
0
 62
9
  6
CONTINUOUS
 10
352.8757211724
 20
94.054539538
  0
VERTEX
  8
0
 62
9
  6
CONTINUOUS
 10
353.1045949664
 20
94.0222420689
  0
VERTEX
  8
0
 62
9
  6
CONTINUOUS
 10
353.3220552244
 20
93.9692973192
  0
VERTEX
  8
0
 62
9
  6
CONTINUOUS
 10
353.5227473533
 20
93.8970089645
  0
VERTEX
  8
0
 62
9
  6
CONTINUOUS
 10
353.7017296466
 20
93.807156984
  0
VERTEX
  8
0
 62
9
  6
CONTINUOUS
 10
353.8545949664
 20
93.7019538315
  0
VERTEX
  8
0
 62
9
  6
CONTINUOUS
 10
353.9775792611
 20
93.5839899579
  0
VERTEX
  8
0
 62
9
  6
CONTINUOUS
 10
354.0676542493
 20
93.4561700253
  0
VERTEX
  8
0
 62
9
  6
CONTINUOUS
 10
354.1226019857
 20
93.3216413846
  0
VERTEX
  8
0
 62
9
  6
CONTINUOUS
 10
354.1410694748
 20
93.1837165773
  0
SEQEND
  0
POLYLINE
  8
0
 62
9
  6
CONTINUOUS
 66
1
 70
0
  0
VERTEX
  8
0
 62
9
  6
CONTINUOUS
 10
352.6410694748
 20
94.4699029529
  0
VERTEX
  8
0
 62
9
  6
CONTINUOUS
 10
352.8757208688
 20
94.4590480634
  0
VERTEX
  8
0
 62
9
  6
CONTINUOUS
 10
353.1045944118
 20
94.4267506719
  0
VERTEX
  8
0
 62
9
  6
CONTINUOUS
 10
353.3220545022
 20
94.3738060327
  0
VERTEX
  8
0
 62
9
  6
CONTINUOUS
 10
353.5227465648
 20
94.3015177984
  0
VERTEX
  8
0
 62
9
  6
CONTINUOUS
 10
353.7017288963
 20
94.2116659222
  0
VERTEX
  8
0
 62
9
  6
CONTINUOUS
 10
353.8545943442
 20
94.106462832
  0
VERTEX
  8
0
 62
9
  6
CONTINUOUS
 10
353.9775788266
 20
93.9884989563
  0
VERTEX
  8
0
 62
9
  6
CONTINUOUS
 10
354.0676540177
 20
93.8606789414
  0
VERTEX
  8
0
 62
9
  6
CONTINUOUS
 10
354.1226019183
 20
93.7261501319
  0
VERTEX
  8
0
 62
9
  6
CONTINUOUS
 10
354.1410694748
 20
93.5882250744
  0
SEQEND
  0
LINE
  8
0
 62
9
  6
CONTINUOUS
 10
338.1410694748
 20
109.307367085
 11
323.6410694748
 21
109.307367085
  0
POLYLINE
  8
0
 62
9
  6
CONTINUOUS
 66
1
 70
0
  0
VERTEX
  8
0
 62
9
  6
CONTINUOUS
 10
323.6410694748
 20
109.307367085
  0
VERTEX
  8
0
 62
9
  6
CONTINUOUS
 10
323.4064178086
 20
109.3130738514
  0
VERTEX
  8
0
 62
9
  6
CONTINUOUS
 10
323.1775440415
 20
109.3300536315
  0
VERTEX
  8
0
 62
9
  6
CONTINUOUS
 10
322.9600838022
 20
109.3578883273
  0
VERTEX
  8
0
 62
9
  6
CONTINUOUS
 10
322.7593916815
 20
109.3958925574
  0
VERTEX
  8
0
 62
9
  6
CONTINUOUS
 10
322.580409385
 20
109.4431305329
  0
VERTEX
  8
0
 62
9
  6
CONTINUOUS
 10
322.427544052
 20
109.4984390993
  0
VERTEX
  8
0
 62
9
  6
CONTINUOUS
 10
322.304559737
 20
109.5604563776
  0
VERTEX
  8
0
 62
9
  6
CONTINUOUS
 10
322.2144847264
 20
109.6276552976
  0
VERTEX
  8
0
 62
9
  6
CONTINUOUS
 10
322.1595369716
 20
109.6983811993
  0
VERTEX
  8
0
 62
9
  6
CONTINUOUS
 10
322.1410694748
 20
109.7708925766
  0
SEQEND
  0
POLYLINE
  8
0
 62
9
  6
CONTINUOUS
 66
1
 70
0
  0
VERTEX
  8
0
 62
9
  6
CONTINUOUS
 10
322.2144846784
 20
254.9295222178
  0
VERTEX
  8
0
 62
9
  6
CONTINUOUS
 10
322.1595369575
 20
254.7948466376
  0
VERTEX
  8
0
 62
9
  6
CONTINUOUS
 10
322.1410694748
 20
254.656771189
  0
SEQEND
  0
POLYLINE
  8
0
 62
9
  6
CONTINUOUS
 66
1
 70
0
  0
VERTEX
  8
0
 62
9
  6
CONTINUOUS
 10
352.6410694748
 20
116.807367085
  0
VERTEX
  8
0
 62
9
  6
CONTINUOUS
 10
352.8757211411
 20
116.8223075935
  0
VERTEX
  8
0
 62
9
  6
CONTINUOUS
 10
353.1045949082
 20
116.8667612348
  0
VERTEX
  8
0
 62
9
  6
CONTINUOUS
 10
353.3220551475
 20
116.9396334146
  0
VERTEX
  8
0
 62
9
  6
CONTINUOUS
 10
353.5227472682
 20
117.0391297808
  0
VERTEX
  8
0
 62
9
  6
CONTINUOUS
 10
353.7017295647
 20
117.162800406
  0
VERTEX
  8
0
 62
9
  6
CONTINUOUS
 10
353.8545948977
 20
117.3076001128
  0
VERTEX
  8
0
 62
9
  6
CONTINUOUS
 10
353.9775792127
 20
117.4699634553
  0
VERTEX
  8
0
 62
9
  6
CONTINUOUS
 10
354.0676542232
 20
117.6458925117
  0
VERTEX
  8
0
 62
9
  6
CONTINUOUS
 10
354.1226019781
 20
117.8310553264
  0
VERTEX
  8
0
 62
9
  6
CONTINUOUS
 10
354.1410694748
 20
118.0208925766
  0
SEQEND
  0
LINE
  8
0
 62
9
  6
CONTINUOUS
 10
338.1410694748
 20
116.807367085
 11
352.6410694748
 21
116.807367085
  0
LINE
  8
0
 62
9
  6
CONTINUOUS
 10
354.1226019922
 20
120.8870601709
 11
354.1410694748
 21
120.8872464571
  0
LINE
  8
0
 62
7
  6
CONTINUOUS
 10
338.1410694748
 20
118.7877227878
 11
352.6410694748
 21
118.7877227878
  0
LINE
  8
0
 62
9
  6
CONTINUOUS
 10
338.1410694748
 20
120.8860556304
 11
354.1226019922
 21
120.8870601709
  0
POLYLINE
  8
0
 62
9
  6
CONTINUOUS
 66
1
 70
0
  0
VERTEX
  8
0
 62
9
  6
CONTINUOUS
 10
352.6410694748
 20
138.5523549611
  0
VERTEX
  8
0
 62
9
  6
CONTINUOUS
 10
352.8757211724
 20
138.558061729
  0
VERTEX
  8
0
 62
9
  6
CONTINUOUS
 10
353.1045949664
 20
138.5750415134
  0
VERTEX
  8
0
 62
9
  6
CONTINUOUS
 10
353.3220552244
 20
138.6028762155
  0
VERTEX
  8
0
 62
9
  6
CONTINUOUS
 10
353.5227473533
 20
138.6408804526
  0
VERTEX
  8
0
 62
9
  6
CONTINUOUS
 10
353.7017296466
 20
138.6881184343
  0
VERTEX
  8
0
 62
9
  6
CONTINUOUS
 10
353.8545949664
 20
138.7434270046
  0
VERTEX
  8
0
 62
9
  6
CONTINUOUS
 10
353.9775792611
 20
138.8054442831
  0
VERTEX
  8
0
 62
9
  6
CONTINUOUS
 10
354.0676542493
 20
138.8726431984
  0
VERTEX
  8
0
 62
9
  6
CONTINUOUS
 10
354.1226019857
 20
138.9433690903
  0
VERTEX
  8
0
 62
9
  6
CONTINUOUS
 10
354.1410694748
 20
139.0158804526
  0
SEQEND
  0
LINE
  8
0
 62
9
  6
CONTINUOUS
 10
338.1410694748
 20
135.8776994425
 11
352.6410694748
 21
135.8776994425
  0
LINE
  8
0
 62
9
  6
CONTINUOUS
 10
338.1410694748
 20
136.0322079397
 11
352.6410694748
 21
136.0322079397
  0
LINE
  8
0
 62
9
  6
CONTINUOUS
 10
338.1410694748
 20
138.5523549611
 11
352.6410694748
 21
138.5523549611
  0
POLYLINE
  8
0
 62
9
  6
CONTINUOUS
 66
1
 70
0
  0
VERTEX
  8
0
 62
9
  6
CONTINUOUS
 10
352.6410694748
 20
135.8776994425
  0
VERTEX
  8
0
 62
9
  6
CONTINUOUS
 10
352.8757211724
 20
135.8601358167
  0
VERTEX
  8
0
 62
9
  6
CONTINUOUS
 10
353.1045949664
 20
135.8078774139
  0
VERTEX
  8
0
 62
9
  6
CONTINUOUS
 10
353.3220552244
 20
135.7222110094
  0
VERTEX
  8
0
 62
9
  6
CONTINUOUS
 10
353.5227473533
 20
135.6052459945
  0
VERTEX
  8
0
 62
9
  6
CONTINUOUS
 10
353.7017296466
 20
135.459862436
  0
VERTEX
  8
0
 62
9
  6
CONTINUOUS
 10
353.8545949664
 20
135.2896401597
  0
VERTEX
  8
0
 62
9
  6
CONTINUOUS
 10
353.9775792611
 20
135.0987706028
  0
VERTEX
  8
0
 62
9
  6
CONTINUOUS
 10
354.0676542493
 20
134.8919536073
  0
VERTEX
  8
0
 62
9
  6
CONTINUOUS
 10
354.1226019857
 20
134.6742816941
  0
VERTEX
  8
0
 62
9
  6
CONTINUOUS
 10
354.1410694748
 20
134.4511146681
  0
SEQEND
  0
POLYLINE
  8
0
 62
9
  6
CONTINUOUS
 66
1
 70
0
  0
VERTEX
  8
0
 62
9
  6
CONTINUOUS
 10
352.6410694748
 20
136.0322079397
  0
VERTEX
  8
0
 62
9
  6
CONTINUOUS
 10
352.8757208688
 20
136.0146443596
  0
VERTEX
  8
0
 62
9
  6
CONTINUOUS
 10
353.1045944118
 20
135.9623860824
  0
VERTEX
  8
0
 62
9
  6
CONTINUOUS
 10
353.3220545022
 20
135.8767198566
  0
VERTEX
  8
0
 62
9
  6
CONTINUOUS
 10
353.5227465648
 20
135.7597550365
  0
VERTEX
  8
0
 62
9
  6
CONTINUOUS
 10
353.7017288963
 20
135.6143716468
  0
VERTEX
  8
0
 62
9
  6
CONTINUOUS
 10
353.8545943442
 20
135.4441494713
  0
VERTEX
  8
0
 62
9
  6
CONTINUOUS
 10
353.9775788266
 20
135.253279911
  0
VERTEX
  8
0
 62
9
  6
CONTINUOUS
 10
354.0676540177
 20
135.0464627824
  0
VERTEX
  8
0
 62
9
  6
CONTINUOUS
 10
354.1226019183
 20
134.8287905962
  0
VERTEX
  8
0
 62
9
  6
CONTINUOUS
 10
354.1410694748
 20
134.6056231653
  0
SEQEND
  0
LINE
  8
0
 62
9
  6
CONTINUOUS
 10
322.1595369575
 20
265.3048738349
 11
322.1410694748
 21
265.0816493524
  0
LINE
  8
0
 62
9
  6
CONTINUOUS
 10
338.1410694748
 20
140.9299962518
 11
323.6410694748
 21
140.9299962518
  0
LINE
  8
0
 62
7
  6
CONTINUOUS
 10
338.1410694748
 20
141.2887069301
 11
323.6410694748
 21
141.2887069301
  0
POLYLINE
  8
0
 62
9
  6
CONTINUOUS
 66
1
 70
0
  0
VERTEX
  8
0
 62
9
  6
CONTINUOUS
 10
323.6410694748
 20
140.9299962518
  0
VERTEX
  8
0
 62
9
  6
CONTINUOUS
 10
323.4064177773
 20
140.9357030198
  0
VERTEX
  8
0
 62
9
  6
CONTINUOUS
 10
323.1775439833
 20
140.9526828041
  0
VERTEX
  8
0
 62
9
  6
CONTINUOUS
 10
322.9600837252
 20
140.9805175063
  0
VERTEX
  8
0
 62
9
  6
CONTINUOUS
 10
322.7593915964
 20
141.0185217434
  0
VERTEX
  8
0
 62
9
  6
CONTINUOUS
 10
322.5804093031
 20
141.065759725
  0
VERTEX
  8
0
 62
9
  6
CONTINUOUS
 10
322.4275439833
 20
141.1210682954
  0
VERTEX
  8
0
 62
9
  6
CONTINUOUS
 10
322.3045596886
 20
141.1830855738
  0
VERTEX
  8
0
 62
9
  6
CONTINUOUS
 10
322.2144847004
 20
141.2502844891
  0
VERTEX
  8
0
 62
9
  6
CONTINUOUS
 10
322.1595369639
 20
141.3210103811
  0
VERTEX
  8
0
 62
9
  6
CONTINUOUS
 10
322.1410694748
 20
141.3935217434
  0
SEQEND
  0
LINE
  8
0
 62
7
  6
CONTINUOUS
 10
321.6410694748
 20
198.5397292123
 11
321.6410694748
 21
132.5397292123
  0
LINE
  8
0
 62
7
  6
CONTINUOUS
 10
322.1410694748
 20
265.110864836
 11
322.1410694748
 21
65.9685935885
  0
LINE
  8
0
 62
9
  6
CONTINUOUS
 10
323.6410694748
 20
266.6108684281
 11
323.6410694748
 21
64.4685899964
  0
POLYLINE
  8
0
 62
9
  6
CONTINUOUS
 66
1
 70
0
  0
VERTEX
  8
0
 62
9
  6
CONTINUOUS
 10
323.6410694748
 20
150.9572678882
  0
VERTEX
  8
0
 62
9
  6
CONTINUOUS
 10
323.4064176255
 20
150.9402684522
  0
VERTEX
  8
0
 62
9
  6
CONTINUOUS
 10
323.1775437133
 20
150.889688735
  0
VERTEX
  8
0
 62
9
  6
CONTINUOUS
 10
322.9600833821
 20
150.8067741906
  0
VERTEX
  8
0
 62
9
  6
CONTINUOUS
 10
322.7593912302
 20
150.6935664662
  0
VERTEX
  8
0
 62
9
  6
CONTINUOUS
 10
322.5804089618
 20
150.5528531282
  0
VERTEX
  8
0
 62
9
  6
CONTINUOUS
 10
322.4275437059
 20
150.3880990212
  0
VERTEX
  8
0
 62
9
  6
CONTINUOUS
 10
322.3045594984
 20
150.2033609508
  0
VERTEX
  8
0
 62
9
  6
CONTINUOUS
 10
322.2144846009
 20
150.0031877896
  0
VERTEX
  8
0
 62
9
  6
CONTINUOUS
 10
322.1595369355
 20
149.7925084683
  0
VERTEX
  8
0
 62
9
  6
CONTINUOUS
 10
322.1410694748
 20
149.5765106081
  0
SEQEND
  0
LINE
  8
0
 62
9
  6
CONTINUOUS
 10
338.1410694748
 20
147.7912078138
 11
323.6410694748
 21
147.7912078138
  0
LINE
  8
0
 62
9
  6
CONTINUOUS
 10
338.1410694748
 20
150.9572678882
 11
323.6410694748
 21
150.9572678882
  0
LINE
  8
0
 62
9
  6
CONTINUOUS
 10
338.1410694748
 20
151.7321564105
 11
323.6410694748
 21
151.7321564105
  0
POLYLINE
  8
0
 62
9
  6
CONTINUOUS
 66
1
 70
0
  0
VERTEX
  8
0
 62
9
  6
CONTINUOUS
 10
323.6410694748
 20
147.7912078138
  0
VERTEX
  8
0
 62
9
  6
CONTINUOUS
 10
323.4064177507
 20
147.8020508695
  0
VERTEX
  8
0
 62
9
  6
CONTINUOUS
 10
323.1775439338
 20
147.8343130443
  0
VERTEX
  8
0
 62
9
  6
CONTINUOUS
 10
322.9600836598
 20
147.8871999352
  0
VERTEX
  8
0
 62
9
  6
CONTINUOUS
 10
322.7593915241
 20
147.9594092898
  0
VERTEX
  8
0
 62
9
  6
CONTINUOUS
 10
322.5804092335
 20
148.0491630718
  0
VERTEX
  8
0
 62
9
  6
CONTINUOUS
 10
322.427543925
 20
148.1542512431
  0
VERTEX
  8
0
 62
9
  6
CONTINUOUS
 10
322.3045596475
 20
148.272086182
  0
VERTEX
  8
0
 62
9
  6
CONTINUOUS
 10
322.2144846784
 20
148.3997663996
  0
VERTEX
  8
0
 62
9
  6
CONTINUOUS
 10
322.1595369575
 20
148.5341479843
  0
VERTEX
  8
0
 62
9
  6
CONTINUOUS
 10
322.1410694748
 20
148.6719220154
  0
SEQEND
  0
POLYLINE
  8
0
 62
9
  6
CONTINUOUS
 66
1
 70
0
  0
VERTEX
  8
0
 62
9
  6
CONTINUOUS
 10
323.6410694748
 20
151.7321564105
  0
VERTEX
  8
0
 62
9
  6
CONTINUOUS
 10
323.4064177773
 20
151.7151569971
  0
VERTEX
  8
0
 62
9
  6
CONTINUOUS
 10
323.1775439833
 20
151.664577339
  0
VERTEX
  8
0
 62
9
  6
CONTINUOUS
 10
322.9600837252
 20
151.5816628752
  0
VERTEX
  8
0
 62
9
  6
CONTINUOUS
 10
322.7593915964
 20
151.4684552351
  0
VERTEX
  8
0
 62
9
  6
CONTINUOUS
 10
322.5804093031
 20
151.3277419663
  0
VERTEX
  8
0
 62
9
  6
CONTINUOUS
 10
322.4275439833
 20
151.1629878966
  0
VERTEX
  8
0
 62
9
  6
CONTINUOUS
 10
322.3045596886
 20
150.9782498179
  0
VERTEX
  8
0
 62
9
  6
CONTINUOUS
 10
322.2144847004
 20
150.778076595
  0
VERTEX
  8
0
 62
9
  6
CONTINUOUS
 10
322.1595369639
 20
150.5673971568
  0
VERTEX
  8
0
 62
9
  6
CONTINUOUS
 10
322.1410694748
 20
150.3513991303
  0
SEQEND
  0
LINE
  8
0
 62
7
  6
CONTINUOUS
 10
338.1410694748
 20
64.4685931416
 11
338.1410694748
 21
138.5523549611
  0
LINE
  8
0
 62
7
  6
CONTINUOUS
 10
338.1410694748
 20
140.9299962518
 11
338.1410694748
 21
190.1494621727
  0
LINE
  8
0
 62
7
  6
CONTINUOUS
 10
338.1410694748
 20
192.5271034634
 11
338.1410694748
 21
266.610793468
  0
POLYLINE
  8
0
 62
9
  6
CONTINUOUS
 66
1
 70
0
  0
VERTEX
  8
0
 62
9
  6
CONTINUOUS
 10
323.6410694748
 20
160.9044742966
  0
VERTEX
  8
0
 62
9
  6
CONTINUOUS
 10
323.4064178086
 20
160.8987675302
  0
VERTEX
  8
0
 62
9
  6
CONTINUOUS
 10
323.1775440415
 20
160.8817877501
  0
VERTEX
  8
0
 62
9
  6
CONTINUOUS
 10
322.9600838022
 20
160.8539530543
  0
VERTEX
  8
0
 62
9
  6
CONTINUOUS
 10
322.7593916815
 20
160.8159488242
  0
VERTEX
  8
0
 62
9
  6
CONTINUOUS
 10
322.580409385
 20
160.7687108487
  0
VERTEX
  8
0
 62
9
  6
CONTINUOUS
 10
322.427544052
 20
160.7134022823
  0
VERTEX
  8
0
 62
9
  6
CONTINUOUS
 10
322.304559737
 20
160.651385004
  0
VERTEX
  8
0
 62
9
  6
CONTINUOUS
 10
322.2144847264
 20
160.5841860841
  0
VERTEX
  8
0
 62
9
  6
CONTINUOUS
 10
322.1595369716
 20
160.5134601823
  0
VERTEX
  8
0
 62
9
  6
CONTINUOUS
 10
322.1410694748
 20
160.4409488051
  0
SEQEND
  0
LINE
  8
0
 62
9
  6
CONTINUOUS
 10
338.1410694748
 20
160.9044742966
 11
323.6410694748
 21
160.9044742966
  0
LINE
  8
DEFAULT_1
 62
2
  6
CENTER
 10
319.6410694748
 20
165.5397292123
 11
356.6410694748
 21
165.5397292123
  0
POLYLINE
  8
0
 62
9
  6
CONTINUOUS
 66
1
 70
0
  0
VERTEX
  8
0
 62
9
  6
CONTINUOUS
 10
352.6410694748
 20
170.1749841279
  0
VERTEX
  8
0
 62
9
  6
CONTINUOUS
 10
352.8757211411
 20
170.1806908943
  0
VERTEX
  8
0
 62
9
  6
CONTINUOUS
 10
353.1045949082
 20
170.1976706744
  0
VERTEX
  8
0
 62
9
  6
CONTINUOUS
 10
353.3220551475
 20
170.2255053702
  0
VERTEX
  8
0
 62
9
  6
CONTINUOUS
 10
353.5227472682
 20
170.2635096003
  0
VERTEX
  8
0
 62
9
  6
CONTINUOUS
 10
353.7017295647
 20
170.3107475758
  0
VERTEX
  8
0
 62
9
  6
CONTINUOUS
 10
353.8545948977
 20
170.3660561422
  0
VERTEX
  8
0
 62
9
  6
CONTINUOUS
 10
353.9775792127
 20
170.4280734205
  0
VERTEX
  8
0
 62
9
  6
CONTINUOUS
 10
354.0676542232
 20
170.4952723404
  0
VERTEX
  8
0
 62
9
  6
CONTINUOUS
 10
354.1226019781
 20
170.5659982422
  0
VERTEX
  8
0
 62
9
  6
CONTINUOUS
 10
354.1410694748
 20
170.6385096194
  0
SEQEND
  0
LINE
  8
0
 62
9
  6
CONTINUOUS
 10
338.1410694748
 20
170.1749841279
 11
352.6410694748
 21
170.1749841279
  0
LINE
  8
0
 62
9
  6
CONTINUOUS
 10
352.6410694748
 20
64.4685899964
 11
352.6410694748
 21
266.6108684281
  0
POLYLINE
  8
0
 62
9
  6
CONTINUOUS
 66
1
 70
0
  0
VERTEX
  8
0
 62
9
  6
CONTINUOUS
 10
352.6410694748
 20
179.347302014
  0
VERTEX
  8
0
 62
9
  6
CONTINUOUS
 10
352.8757211724
 20
179.3643014274
  0
VERTEX
  8
0
 62
9
  6
CONTINUOUS
 10
353.1045949664
 20
179.4148810855
  0
VERTEX
  8
0
 62
9
  6
CONTINUOUS
 10
353.3220552244
 20
179.4977955493
  0
VERTEX
  8
0
 62
9
  6
CONTINUOUS
 10
353.5227473533
 20
179.6110031894
  0
VERTEX
  8
0
 62
9
  6
CONTINUOUS
 10
353.7017296466
 20
179.7517164582
  0
VERTEX
  8
0
 62
9
  6
CONTINUOUS
 10
353.8545949664
 20
179.9164705279
  0
VERTEX
  8
0
 62
9
  6
CONTINUOUS
 10
353.9775792611
 20
180.1012086066
  0
VERTEX
  8
0
 62
9
  6
CONTINUOUS
 10
354.0676542493
 20
180.3013818295
  0
VERTEX
  8
0
 62
9
  6
CONTINUOUS
 10
354.1226019857
 20
180.5120612677
  0
VERTEX
  8
0
 62
9
  6
CONTINUOUS
 10
354.1410694748
 20
180.7280592942
  0
SEQEND
  0
POLYLINE
  8
0
 62
9
  6
CONTINUOUS
 66
1
 70
0
  0
VERTEX
  8
0
 62
9
  6
CONTINUOUS
 10
352.6410694748
 20
180.1221905363
  0
VERTEX
  8
0
 62
9
  6
CONTINUOUS
 10
352.8757213242
 20
180.1391899723
  0
VERTEX
  8
0
 62
9
  6
CONTINUOUS
 10
353.1045952364
 20
180.1897696895
  0
VERTEX
  8
0
 62
9
  6
CONTINUOUS
 10
353.3220555676
 20
180.2726842339
  0
VERTEX
  8
0
 62
9
  6
CONTINUOUS
 10
353.5227477195
 20
180.3858919583
  0
VERTEX
  8
0
 62
9
  6
CONTINUOUS
 10
353.7017299879
 20
180.5266052963
  0
VERTEX
  8
0
 62
9
  6
CONTINUOUS
 10
353.8545952438
 20
180.6913594033
  0
VERTEX
  8
0
 62
9
  6
CONTINUOUS
 10
353.9775794512
 20
180.8760974737
  0
VERTEX
  8
0
 62
9
  6
CONTINUOUS
 10
354.0676543488
 20
181.0762706349
  0
VERTEX
  8
0
 62
9
  6
CONTINUOUS
 10
354.1226020142
 20
181.2869499562
  0
VERTEX
  8
0
 62
9
  6
CONTINUOUS
 10
354.1410694748
 20
181.5029478164
  0
SEQEND
  0
LINE
  8
0
 62
9
  6
CONTINUOUS
 10
338.1410694748
 20
179.347302014
 11
352.6410694748
 21
179.347302014
  0
LINE
  8
0
 62
7
  6
CONTINUOUS
 10
354.1410694748
 20
65.9692250616
 11
354.1410694748
 21
265.1102333629
  0
LINE
  8
0
 62
7
  6
CONTINUOUS
 10
354.6410694748
 20
198.5397292123
 11
354.6410694748
 21
132.5397292123
  0
LINE
  8
0
 62
9
  6
CONTINUOUS
 10
338.1410694748
 20
180.1221905363
 11
352.6410694748
 21
180.1221905363
  0
LINE
  8
0
 62
9
  6
CONTINUOUS
 10
338.1410694748
 20
183.2882506107
 11
352.6410694748
 21
183.2882506107
  0
POLYLINE
  8
0
 62
9
  6
CONTINUOUS
 66
1
 70
0
  0
VERTEX
  8
0
 62
9
  6
CONTINUOUS
 10
352.6410694748
 20
183.2882506107
  0
VERTEX
  8
0
 62
9
  6
CONTINUOUS
 10
352.875721199
 20
183.277407555
  0
VERTEX
  8
0
 62
9
  6
CONTINUOUS
 10
353.1045950159
 20
183.2451453802
  0
VERTEX
  8
0
 62
9
  6
CONTINUOUS
 10
353.3220552899
 20
183.1922584893
  0
VERTEX
  8
0
 62
9
  6
CONTINUOUS
 10
353.5227474256
 20
183.1200491347
  0
VERTEX
  8
0
 62
9
  6
CONTINUOUS
 10
353.7017297162
 20
183.0302953527
  0
VERTEX
  8
0
 62
9
  6
CONTINUOUS
 10
353.8545950247
 20
182.9252071814
  0
VERTEX
  8
0
 62
9
  6
CONTINUOUS
 10
353.9775793022
 20
182.8073722425
  0
VERTEX
  8
0
 62
9
  6
CONTINUOUS
 10
354.0676542713
 20
182.6796920249
  0
VERTEX
  8
0
 62
9
  6
CONTINUOUS
 10
354.1226019922
 20
182.5453104402
  0
VERTEX
  8
0
 62
9
  6
CONTINUOUS
 10
354.1410694748
 20
182.4075364091
  0
SEQEND
  0
LINE
  8
0
 62
9
  6
CONTINUOUS
 10
354.1226019922
 20
65.7745845896
 11
354.1410694748
 21
65.9978090721
  0
POLYLINE
  8
0
 62
9
  6
CONTINUOUS
 66
1
 70
0
  0
VERTEX
  8
0
 62
9
  6
CONTINUOUS
 10
323.6410694748
 20
192.5271034634
  0
VERTEX
  8
0
 62
9
  6
CONTINUOUS
 10
323.4064177773
 20
192.5213966955
  0
VERTEX
  8
0
 62
9
  6
CONTINUOUS
 10
323.1775439833
 20
192.5044169111
  0
VERTEX
  8
0
 62
9
  6
CONTINUOUS
 10
322.9600837252
 20
192.476582209
  0
VERTEX
  8
0
 62
9
  6
CONTINUOUS
 10
322.7593915964
 20
192.4385779719
  0
VERTEX
  8
0
 62
9
  6
CONTINUOUS
 10
322.5804093031
 20
192.3913399902
  0
VERTEX
  8
0
 62
9
  6
CONTINUOUS
 10
322.4275439833
 20
192.3360314199
  0
VERTEX
  8
0
 62
9
  6
CONTINUOUS
 10
322.3045596886
 20
192.2740141414
  0
VERTEX
  8
0
 62
9
  6
CONTINUOUS
 10
322.2144847004
 20
192.2068152261
  0
VERTEX
  8
0
 62
9
  6
CONTINUOUS
 10
322.1595369639
 20
192.1360893342
  0
VERTEX
  8
0
 62
9
  6
CONTINUOUS
 10
322.1410694748
 20
192.0635779719
  0
SEQEND
  0
LINE
  8
0
 62
7
  6
CONTINUOUS
 10
338.1410694748
 20
189.7907514944
 11
352.6410694748
 21
189.7907514944
  0
LINE
  8
0
 62
9
  6
CONTINUOUS
 10
338.1410694748
 20
190.1494621727
 11
352.6410694748
 21
190.1494621727
  0
LINE
  8
0
 62
9
  6
CONTINUOUS
 10
338.1410694748
 20
192.5271034634
 11
323.6410694748
 21
192.5271034634
  0
POLYLINE
  8
0
 62
9
  6
CONTINUOUS
 66
1
 70
0
  0
VERTEX
  8
0
 62
9
  6
CONTINUOUS
 10
352.6410694748
 20
190.1494621727
  0
VERTEX
  8
0
 62
9
  6
CONTINUOUS
 10
352.8757211724
 20
190.1437554047
  0
VERTEX
  8
0
 62
9
  6
CONTINUOUS
 10
353.1045949664
 20
190.1267756204
  0
VERTEX
  8
0
 62
9
  6
CONTINUOUS
 10
353.3220552244
 20
190.0989409183
  0
VERTEX
  8
0
 62
9
  6
CONTINUOUS
 10
353.5227473533
 20
190.0609366811
  0
VERTEX
  8
0
 62
9
  6
CONTINUOUS
 10
353.7017296466
 20
190.0136986995
  0
VERTEX
  8
0
 62
9
  6
CONTINUOUS
 10
353.8545949664
 20
189.9583901291
  0
VERTEX
  8
0
 62
9
  6
CONTINUOUS
 10
353.9775792611
 20
189.8963728507
  0
VERTEX
  8
0
 62
9
  6
CONTINUOUS
 10
354.0676542493
 20
189.8291739354
  0
VERTEX
  8
0
 62
9
  6
CONTINUOUS
 10
354.1226019857
 20
189.7584480434
  0
VERTEX
  8
0
 62
9
  6
CONTINUOUS
 10
354.1410694748
 20
189.6859366811
  0
SEQEND
  0
LINE
  8
0
 62
9
  6
CONTINUOUS
 10
338.1410694748
 20
195.0472504848
 11
323.6410694748
 21
195.0472504848
  0
LINE
  8
0
 62
9
  6
CONTINUOUS
 10
338.1410694748
 20
195.201758982
 11
323.6410694748
 21
195.201758982
  0
POLYLINE
  8
0
 62
9
  6
CONTINUOUS
 66
1
 70
0
  0
VERTEX
  8
0
 62
9
  6
CONTINUOUS
 10
323.6410694748
 20
195.0472504848
  0
VERTEX
  8
0
 62
9
  6
CONTINUOUS
 10
323.4064180809
 20
195.0648140649
  0
VERTEX
  8
0
 62
9
  6
CONTINUOUS
 10
323.1775445378
 20
195.1170723421
  0
VERTEX
  8
0
 62
9
  6
CONTINUOUS
 10
322.9600844475
 20
195.2027385679
  0
VERTEX
  8
0
 62
9
  6
CONTINUOUS
 10
322.7593923848
 20
195.319703388
  0
VERTEX
  8
0
 62
9
  6
CONTINUOUS
 10
322.5804100534
 20
195.4650867777
  0
VERTEX
  8
0
 62
9
  6
CONTINUOUS
 10
322.4275446055
 20
195.6353089532
  0
VERTEX
  8
0
 62
9
  6
CONTINUOUS
 10
322.3045601231
 20
195.8261785135
  0
VERTEX
  8
0
 62
9
  6
CONTINUOUS
 10
322.214484932
 20
196.0329956421
  0
VERTEX
  8
0
 62
9
  6
CONTINUOUS
 10
322.1595370314
 20
196.2506678283
  0
VERTEX
  8
0
 62
9
  6
CONTINUOUS
 10
322.1410694748
 20
196.4738352592
  0
SEQEND
  0
POLYLINE
  8
0
 62
9
  6
CONTINUOUS
 66
1
 70
0
  0
VERTEX
  8
0
 62
9
  6
CONTINUOUS
 10
323.6410694748
 20
195.201758982
  0
VERTEX
  8
0
 62
9
  6
CONTINUOUS
 10
323.4064177773
 20
195.2193226078
  0
VERTEX
  8
0
 62
9
  6
CONTINUOUS
 10
323.1775439833
 20
195.2715810106
  0
VERTEX
  8
0
 62
9
  6
CONTINUOUS
 10
322.9600837252
 20
195.3572474151
  0
VERTEX
  8
0
 62
9
  6
CONTINUOUS
 10
322.7593915964
 20
195.47421243
  0
VERTEX
  8
0
 62
9
  6
CONTINUOUS
 10
322.5804093031
 20
195.6195959885
  0
VERTEX
  8
0
 62
9
  6
CONTINUOUS
 10
322.4275439833
 20
195.7898182649
  0
VERTEX
  8
0
 62
9
  6
CONTINUOUS
 10
322.3045596886
 20
195.9806878217
  0
VERTEX
  8
0
 62
9
  6
CONTINUOUS
 10
322.2144847004
 20
196.1875048172
  0
VERTEX
  8
0
 62
9
  6
CONTINUOUS
 10
322.1595369639
 20
196.4051767304
  0
VERTEX
  8
0
 62
9
  6
CONTINUOUS
 10
322.1410694748
 20
196.6283437564
  0
SEQEND
  0
POLYLINE
  8
0
 62
9
  6
CONTINUOUS
 66
1
 70
0
  0
VERTEX
  8
0
 62
9
  6
CONTINUOUS
 10
354.0676542713
 20
76.1499362067
  0
VERTEX
  8
0
 62
9
  6
CONTINUOUS
 10
354.1226019922
 20
76.2846117869
  0
VERTEX
  8
0
 62
9
  6
CONTINUOUS
 10
354.1410694748
 20
76.4226872355
  0
SEQEND
  0
LINE
  8
0
 62
9
  6
CONTINUOUS
 10
322.1595369575
 20
210.1923982536
 11
322.1410694748
 21
210.1922119674
  0
LINE
  8
0
 62
9
  6
CONTINUOUS
 10
338.1410694748
 20
210.1934027941
 11
322.1595369575
 21
210.1923982536
  0
LINE
  8
0
 62
7
  6
CONTINUOUS
 10
338.1410694748
 20
212.2917356367
 11
323.6410694748
 21
212.2917356367
  0
POLYLINE
  8
0
 62
9
  6
CONTINUOUS
 66
1
 70
0
  0
VERTEX
  8
0
 62
9
  6
CONTINUOUS
 10
323.6410694748
 20
214.2720913395
  0
VERTEX
  8
0
 62
9
  6
CONTINUOUS
 10
323.4064178086
 20
214.257150831
  0
VERTEX
  8
0
 62
9
  6
CONTINUOUS
 10
323.1775440415
 20
214.2126971897
  0
VERTEX
  8
0
 62
9
  6
CONTINUOUS
 10
322.9600838022
 20
214.1398250099
  0
VERTEX
  8
0
 62
9
  6
CONTINUOUS
 10
322.7593916815
 20
214.0403286438
  0
VERTEX
  8
0
 62
9
  6
CONTINUOUS
 10
322.580409385
 20
213.9166580185
  0
VERTEX
  8
0
 62
9
  6
CONTINUOUS
 10
322.427544052
 20
213.7718583117
  0
VERTEX
  8
0
 62
9
  6
CONTINUOUS
 10
322.304559737
 20
213.6094949692
  0
VERTEX
  8
0
 62
9
  6
CONTINUOUS
 10
322.2144847264
 20
213.4335659128
  0
VERTEX
  8
0
 62
9
  6
CONTINUOUS
 10
322.1595369716
 20
213.2484030981
  0
VERTEX
  8
0
 62
9
  6
CONTINUOUS
 10
322.1410694748
 20
213.058565848
  0
SEQEND
  0
LINE
  8
0
 62
9
  6
CONTINUOUS
 10
338.1410694748
 20
214.2720913395
 11
323.6410694748
 21
214.2720913395
  0
LINE
  8
0
 62
9
  6
CONTINUOUS
 10
338.1410694748
 20
221.7720913395
 11
352.6410694748
 21
221.7720913395
  0
POLYLINE
  8
0
 62
9
  6
CONTINUOUS
 66
1
 70
0
  0
VERTEX
  8
0
 62
9
  6
CONTINUOUS
 10
352.6410694748
 20
221.7720913395
  0
VERTEX
  8
0
 62
9
  6
CONTINUOUS
 10
352.8757211411
 20
221.7663845731
  0
VERTEX
  8
0
 62
9
  6
CONTINUOUS
 10
353.1045949082
 20
221.749404793
  0
VERTEX
  8
0
 62
9
  6
CONTINUOUS
 10
353.3220551475
 20
221.7215700972
  0
VERTEX
  8
0
 62
9
  6
CONTINUOUS
 10
353.5227472682
 20
221.6835658671
  0
VERTEX
  8
0
 62
9
  6
CONTINUOUS
 10
353.7017295647
 20
221.6363278916
  0
VERTEX
  8
0
 62
9
  6
CONTINUOUS
 10
353.8545948977
 20
221.5810193252
  0
VERTEX
  8
0
 62
9
  6
CONTINUOUS
 10
353.9775792127
 20
221.5190020469
  0
VERTEX
  8
0
 62
9
  6
CONTINUOUS
 10
354.0676542232
 20
221.451803127
  0
VERTEX
  8
0
 62
9
  6
CONTINUOUS
 10
354.1226019781
 20
221.3810772252
  0
VERTEX
  8
0
 62
9
  6
CONTINUOUS
 10
354.1410694748
 20
221.308565848
  0
SEQEND
  0
POLYLINE
  8
0
 62
9
  6
CONTINUOUS
 66
1
 70
0
  0
VERTEX
  8
0
 62
9
  6
CONTINUOUS
 10
323.6410694748
 20
233.8159509782
  0
VERTEX
  8
0
 62
9
  6
CONTINUOUS
 10
323.4064177773
 20
233.8010104657
  0
VERTEX
  8
0
 62
9
  6
CONTINUOUS
 10
323.1775439833
 20
233.7565568131
  0
VERTEX
  8
0
 62
9
  6
CONTINUOUS
 10
322.9600837252
 20
233.6836846169
  0
VERTEX
  8
0
 62
9
  6
CONTINUOUS
 10
322.7593915964
 20
233.5841882325
  0
VERTEX
  8
0
 62
9
  6
CONTINUOUS
 10
322.5804093031
 20
233.4605175909
  0
VERTEX
  8
0
 62
9
  6
CONTINUOUS
 10
322.4275439833
 20
233.3157178739
  0
VERTEX
  8
0
 62
9
  6
CONTINUOUS
 10
322.3045596886
 20
233.153354531
  0
VERTEX
  8
0
 62
9
  6
CONTINUOUS
 10
322.2144847004
 20
232.9774254867
  0
VERTEX
  8
0
 62
9
  6
CONTINUOUS
 10
322.1595369639
 20
232.7922626978
  0
VERTEX
  8
0
 62
9
  6
CONTINUOUS
 10
322.1410694748
 20
232.6024254867
  0
SEQEND
  0
POLYLINE
  8
0
 62
9
  6
CONTINUOUS
 66
1
 70
0
  0
VERTEX
  8
0
 62
9
  6
CONTINUOUS
 10
352.6410694748
 20
234.1329173788
  0
VERTEX
  8
0
 62
9
  6
CONTINUOUS
 10
352.8757211724
 20
234.1424288388
  0
VERTEX
  8
0
 62
9
  6
CONTINUOUS
 10
353.1045949664
 20
234.1707290152
  0
VERTEX
  8
0
 62
9
  6
CONTINUOUS
 10
353.3220552244
 20
234.2171210637
  0
VERTEX
  8
0
 62
9
  6
CONTINUOUS
 10
353.5227473533
 20
234.2804626581
  0
VERTEX
  8
0
 62
9
  6
CONTINUOUS
 10
353.7017296466
 20
234.3591941182
  0
VERTEX
  8
0
 62
9
  6
CONTINUOUS
 10
353.8545949664
 20
234.451376814
  0
VERTEX
  8
0
 62
9
  6
CONTINUOUS
 10
353.9775792611
 20
234.5547409016
  0
VERTEX
  8
0
 62
9
  6
CONTINUOUS
 10
354.0676542493
 20
234.6667412143
  0
VERTEX
  8
0
 62
9
  6
CONTINUOUS
 10
354.1226019857
 20
234.7846199326
  0
VERTEX
  8
0
 62
9
  6
CONTINUOUS
 10
354.1410694748
 20
234.9054744912
  0
SEQEND
  0
LINE
  8
0
 62
9
  6
CONTINUOUS
 10
338.1410694748
 20
233.8159509782
 11
323.6410694748
 21
233.8159509782
  0
LINE
  8
0
 62
9
  6
CONTINUOUS
 10
338.1410694748
 20
234.1329173788
 11
352.6410694748
 21
234.1329173788
  0
POLYLINE
  8
0
 62
9
  6
CONTINUOUS
 66
1
 70
0
  0
VERTEX
  8
0
 62
9
  6
CONTINUOUS
 10
352.6410694748
 20
235.8328308346
  0
VERTEX
  8
0
 62
9
  6
CONTINUOUS
 10
352.8757213242
 20
235.8423423083
  0
VERTEX
  8
0
 62
9
  6
CONTINUOUS
 10
353.1045952364
 20
235.8706425186
  0
VERTEX
  8
0
 62
9
  6
CONTINUOUS
 10
353.3220555676
 20
235.9170346128
  0
VERTEX
  8
0
 62
9
  6
CONTINUOUS
 10
353.5227477195
 20
235.9803762547
  0
VERTEX
  8
0
 62
9
  6
CONTINUOUS
 10
353.7017299879
 20
236.0591077536
  0
VERTEX
  8
0
 62
9
  6
CONTINUOUS
 10
353.8545952438
 20
236.1512904701
  0
VERTEX
  8
0
 62
9
  6
CONTINUOUS
 10
353.9775794512
 20
236.2546545529
  0
VERTEX
  8
0
 62
9
  6
CONTINUOUS
 10
354.0676543488
 20
236.3666548304
  0
VERTEX
  8
0
 62
9
  6
CONTINUOUS
 10
354.1226020142
 20
236.4845334824
  0
VERTEX
  8
0
 62
9
  6
CONTINUOUS
 10
354.1410694748
 20
236.605387947
  0
SEQEND
  0
LINE
  8
0
 62
9
  6
CONTINUOUS
 10
338.1410694748
 20
235.8328308346
 11
352.6410694748
 21
235.8328308346
  0
LINE
  8
0
 62
9
  6
CONTINUOUS
 10
338.1410694748
 20
236.6095554716
 11
323.6410694748
 21
236.6095554716
  0
LINE
  8
0
 62
9
  6
CONTINUOUS
 10
338.1410694748
 20
237.0140639688
 11
323.6410694748
 21
237.0140639688
  0
LINE
  8
0
 62
9
  6
CONTINUOUS
 10
338.1410694748
 20
238.9111136668
 11
352.6410694748
 21
238.9111136668
  0
LINE
  8
0
 62
7
  6
CONTINUOUS
 10
338.1410694748
 20
239.6858421053
 11
352.6410694748
 21
239.6858421053
  0
POLYLINE
  8
0
 62
9
  6
CONTINUOUS
 66
1
 70
0
  0
VERTEX
  8
0
 62
9
  6
CONTINUOUS
 10
323.6410694748
 20
236.6095554716
  0
VERTEX
  8
0
 62
9
  6
CONTINUOUS
 10
323.4064180809
 20
236.6204103611
  0
VERTEX
  8
0
 62
9
  6
CONTINUOUS
 10
323.1775445378
 20
236.6527077526
  0
VERTEX
  8
0
 62
9
  6
CONTINUOUS
 10
322.9600844475
 20
236.7056523918
  0
VERTEX
  8
0
 62
9
  6
CONTINUOUS
 10
322.7593923848
 20
236.7779406261
  0
VERTEX
  8
0
 62
9
  6
CONTINUOUS
 10
322.5804100534
 20
236.8677925023
  0
VERTEX
  8
0
 62
9
  6
CONTINUOUS
 10
322.4275446055
 20
236.9729955925
  0
VERTEX
  8
0
 62
9
  6
CONTINUOUS
 10
322.3045601231
 20
237.0909594682
  0
VERTEX
  8
0
 62
9
  6
CONTINUOUS
 10
322.214484932
 20
237.2187794831
  0
VERTEX
  8
0
 62
9
  6
CONTINUOUS
 10
322.1595370314
 20
237.3533082926
  0
VERTEX
  8
0
 62
9
  6
CONTINUOUS
 10
322.1410694748
 20
237.4912333501
  0
SEQEND
  0
POLYLINE
  8
0
 62
9
  6
CONTINUOUS
 66
1
 70
0
  0
VERTEX
  8
0
 62
9
  6
CONTINUOUS
 10
323.6410694748
 20
237.0140639688
  0
VERTEX
  8
0
 62
9
  6
CONTINUOUS
 10
323.4064177773
 20
237.0249188865
  0
VERTEX
  8
0
 62
9
  6
CONTINUOUS
 10
323.1775439833
 20
237.0572163556
  0
VERTEX
  8
0
 62
9
  6
CONTINUOUS
 10
322.9600837252
 20
237.1101611053
  0
VERTEX
  8
0
 62
9
  6
CONTINUOUS
 10
322.7593915964
 20
237.18244946
  0
VERTEX
  8
0
 62
9
  6
CONTINUOUS
 10
322.5804093031
 20
237.2723014405
  0
VERTEX
  8
0
 62
9
  6
CONTINUOUS
 10
322.4275439833
 20
237.377504593
  0
VERTEX
  8
0
 62
9
  6
CONTINUOUS
 10
322.3045596886
 20
237.4954684666
  0
VERTEX
  8
0
 62
9
  6
CONTINUOUS
 10
322.2144847004
 20
237.6232883992
  0
VERTEX
  8
0
 62
9
  6
CONTINUOUS
 10
322.1595369639
 20
237.75781704
  0
VERTEX
  8
0
 62
9
  6
CONTINUOUS
 10
322.1410694748
 20
237.8957418472
  0
SEQEND
  0
POLYLINE
  8
0
 62
9
  6
CONTINUOUS
 66
1
 70
0
  0
VERTEX
  8
0
 62
9
  6
CONTINUOUS
 10
352.6410694748
 20
238.9111136668
  0
VERTEX
  8
0
 62
9
  6
CONTINUOUS
 10
352.875721199
 20
238.893554573
  0
VERTEX
  8
0
 62
9
  6
CONTINUOUS
 10
353.1045950159
 20
238.8413096554
  0
VERTEX
  8
0
 62
9
  6
CONTINUOUS
 10
353.3220552899
 20
238.7556653591
  0
VERTEX
  8
0
 62
9
  6
CONTINUOUS
 10
353.5227474256
 20
238.6387305338
  0
VERTEX
  8
0
 62
9
  6
CONTINUOUS
 10
353.7017297162
 20
238.4933845064
  0
VERTEX
  8
0
 62
9
  6
CONTINUOUS
 10
353.8545950247
 20
238.3232061822
  0
VERTEX
  8
0
 62
9
  6
CONTINUOUS
 10
353.9775793022
 20
238.1323859197
  0
VERTEX
  8
0
 62
9
  6
CONTINUOUS
 10
354.0676542713
 20
237.9256223496
  0
VERTEX
  8
0
 62
9
  6
CONTINUOUS
 10
354.1226019922
 20
237.7080066789
  0
VERTEX
  8
0
 62
9
  6
CONTINUOUS
 10
354.1410694748
 20
237.4848973276
  0
SEQEND
  0
LINE
  8
0
 62
9
  6
CONTINUOUS
 10
338.1410694748
 20
251.8903474862
 11
352.6410694748
 21
251.8903474862
  0
POLYLINE
  8
0
 62
9
  6
CONTINUOUS
 66
1
 70
0
  0
VERTEX
  8
0
 62
9
  6
CONTINUOUS
 10
352.6410694748
 20
251.8903474862
  0
VERTEX
  8
0
 62
9
  6
CONTINUOUS
 10
352.8757211411
 20
251.8754069777
  0
VERTEX
  8
0
 62
9
  6
CONTINUOUS
 10
353.1045949082
 20
251.8309533364
  0
VERTEX
  8
0
 62
9
  6
CONTINUOUS
 10
353.3220551475
 20
251.7580811566
  0
VERTEX
  8
0
 62
9
  6
CONTINUOUS
 10
353.5227472682
 20
251.6585847905
  0
VERTEX
  8
0
 62
9
  6
CONTINUOUS
 10
353.7017295647
 20
251.5349141652
  0
VERTEX
  8
0
 62
9
  6
CONTINUOUS
 10
353.8545948977
 20
251.3901144584
  0
VERTEX
  8
0
 62
9
  6
CONTINUOUS
 10
353.9775792127
 20
251.2277511159
  0
VERTEX
  8
0
 62
9
  6
CONTINUOUS
 10
354.0676542232
 20
251.0518220596
  0
VERTEX
  8
0
 62
9
  6
CONTINUOUS
 10
354.1226019781
 20
250.8666592448
  0
VERTEX
  8
0
 62
9
  6
CONTINUOUS
 10
354.1410694748
 20
250.6768219947
  0
SEQEND
  0
POLYLINE
  8
0
 62
9
  6
CONTINUOUS
 66
1
 70
0
  0
VERTEX
  8
0
 62
9
  6
CONTINUOUS
 10
323.6410694748
 20
266.508601663
  0
VERTEX
  8
0
 62
9
  6
CONTINUOUS
 10
323.4064177507
 20
266.4910335081
  0
VERTEX
  8
0
 62
9
  6
CONTINUOUS
 10
323.1775439338
 20
266.4387616304
  0
VERTEX
  8
0
 62
9
  6
CONTINUOUS
 10
322.9600836598
 20
266.353073139
  0
VERTEX
  8
0
 62
9
  6
CONTINUOUS
 10
322.7593915241
 20
266.2360779717
  0
VERTEX
  8
0
 62
9
  6
CONTINUOUS
 10
322.5804092335
 20
266.0906569413
  0
VERTEX
  8
0
 62
9
  6
CONTINUOUS
 10
322.427543925
 20
265.9203907999
  0
VERTEX
  8
0
 62
9
  6
CONTINUOUS
 10
322.3045596475
 20
265.7294720683
  0
VERTEX
  8
0
 62
9
  6
CONTINUOUS
 10
322.2144846784
 20
265.5226018019
  0
VERTEX
  8
0
 62
9
  6
CONTINUOUS
 10
322.1595369575
 20
265.3048738349
  0
SEQEND
  0
POLYLINE
  8
0
 62
9
  6
CONTINUOUS
 66
1
 70
0
  0
VERTEX
  8
0
 62
9
  6
CONTINUOUS
 10
323.6410694748
 20
255.5394121887
  0
VERTEX
  8
0
 62
9
  6
CONTINUOUS
 10
323.4064177507
 20
255.5285454107
  0
VERTEX
  8
0
 62
9
  6
CONTINUOUS
 10
323.1775439338
 20
255.4962126537
  0
VERTEX
  8
0
 62
9
  6
CONTINUOUS
 10
322.9600836598
 20
255.4432100584
  0
VERTEX
  8
0
 62
9
  6
CONTINUOUS
 10
322.7593915241
 20
255.3708427265
  0
VERTEX
  8
0
 62
9
  6
CONTINUOUS
 10
322.5804092335
 20
255.2808925841
  0
VERTEX
  8
0
 62
9
  6
CONTINUOUS
 10
322.427543925
 20
255.1755745043
  0
VERTEX
  8
0
 62
9
  6
CONTINUOUS
 10
322.3045596475
 20
255.05748177
  0
VERTEX
  8
0
 62
9
  6
CONTINUOUS
 10
322.2144846784
 20
254.9295222178
  0
SEQEND
  0
LINE
  8
0
 62
9
  6
CONTINUOUS
 10
338.1410694748
 20
255.5394121887
 11
323.6410694748
 21
255.5394121887
  0
LINE
  8
0
 62
7
  6
CONTINUOUS
 10
338.1410694748
 20
256.4037147892
 11
323.6410694748
 21
256.4037147892
  0
LINE
  8
0
 62
9
  6
CONTINUOUS
 10
338.1410694748
 20
262.7182662606
 11
352.6410694748
 21
262.7182662606
  0
LINE
  8
0
 62
9
  6
CONTINUOUS
 10
338.1410694748
 20
264.6938954879
 11
352.6410694748
 21
264.6938954879
  0
LINE
  8
0
 62
9
  6
CONTINUOUS
 10
338.1410694748
 20
266.508601663
 11
323.6410694748
 21
266.508601663
  0
LINE
  8
0
 62
7
  6
CONTINUOUS
 10
323.6410694748
 20
266.6108684281
 11
352.6410694748
 21
266.6108684281
  0
POLYLINE
  8
0
 62
9
  6
CONTINUOUS
 66
1
 70
0
  0
VERTEX
  8
0
 62
9
  6
CONTINUOUS
 10
352.6410694748
 20
262.7182662606
  0
VERTEX
  8
0
 62
9
  6
CONTINUOUS
 10
352.8757211724
 20
262.7166567129
  0
VERTEX
  8
0
 62
9
  6
CONTINUOUS
 10
353.1045949664
 20
262.7118677021
  0
VERTEX
  8
0
 62
9
  6
CONTINUOUS
 10
353.3220552244
 20
262.7040171496
  0
VERTEX
  8
0
 62
9
  6
CONTINUOUS
 10
353.5227473533
 20
262.6932983621
  0
VERTEX
  8
0
 62
9
  6
CONTINUOUS
 10
353.7017296466
 20
262.6799752716
  0
VERTEX
  8
0
 62
9
  6
CONTINUOUS
 10
353.8545949664
 20
262.6643759369
  0
VERTEX
  8
0
 62
9
  6
CONTINUOUS
 10
353.9775792611
 20
262.6468844653
  0
VERTEX
  8
0
 62
9
  6
CONTINUOUS
 10
354.0676542493
 20
262.627931555
  0
VERTEX
  8
0
 62
9
  6
CONTINUOUS
 10
354.1226019857
 20
262.6079838895
  0
VERTEX
  8
0
 62
9
  6
CONTINUOUS
 10
354.1410694748
 20
262.5875326465
  0
SEQEND
  0
POLYLINE
  8
0
 62
9
  6
CONTINUOUS
 66
1
 70
0
  0
VERTEX
  8
0
 62
9
  6
CONTINUOUS
 10
352.6410694748
 20
264.6938954879
  0
VERTEX
  8
0
 62
9
  6
CONTINUOUS
 10
352.8757213242
 20
264.6922859396
  0
VERTEX
  8
0
 62
9
  6
CONTINUOUS
 10
353.1045952364
 20
264.6874969245
  0
VERTEX
  8
0
 62
9
  6
CONTINUOUS
 10
353.3220555676
 20
264.6796463654
  0
VERTEX
  8
0
 62
9
  6
CONTINUOUS
 10
353.5227477195
 20
264.6689275704
  0
VERTEX
  8
0
 62
9
  6
CONTINUOUS
 10
353.7017299879
 20
264.6556044736
  0
VERTEX
  8
0
 62
9
  6
CONTINUOUS
 10
353.8545952438
 20
264.6400051352
  0
VERTEX
  8
0
 62
9
  6
CONTINUOUS
 10
353.9775794512
 20
264.6225136638
  0
VERTEX
  8
0
 62
9
  6
CONTINUOUS
 10
354.0676543488
 20
264.6035607584
  0
VERTEX
  8
0
 62
9
  6
CONTINUOUS
 10
354.1226020142
 20
264.5836131027
  0
VERTEX
  8
0
 62
9
  6
CONTINUOUS
 10
354.1410694748
 20
264.5631618738
  0
SEQEND
  0
ARC
  8
0
 62
9
  6
CONTINUOUS
 10
58.7031161346
 20
104.6721121694
 40
16.5000000287
 50
54.0
 51
103.0
  0
ARC
  8
0
 62
7
  6
CONTINUOUS
 10
76.5676527152
 20
107.1436163192
 40
15.75
 50
251.9545137653
 51
324.0
  0
ARC
  8
0
 62
7
  6
CONTINUOUS
 10
58.7031161346
 20
104.6721121694
 40
15.0
 50
54.0
 51
103.0
  0
ARC
  8
0
 62
7
  6
CONTINUOUS
 10
58.7031161346
 20
104.6721121694
 40
15.0
 50
329.0
 51
18.0
  0
ARC
  8
0
 62
7
  6
CONTINUOUS
 10
72.3392659253
 20
94.1650476326
 40
2.1
 50
149.0
 51
251.9545137653
  0
ARC
  8
0
 62
7
  6
CONTINUOUS
 10
91.2215969915
 20
97.1149365882
 40
2.0
 50
54.0
 51
144.0
  0
ARC
  8
0
 62
7
  6
CONTINUOUS
 10
66.5741016614
 20
120.8985593109
 40
15.75
 50
108.0
 51
180.0454862347
  0
ARC
  8
0
 62
7
  6
CONTINUOUS
 10
54.8314558752
 20
157.0387069301
 40
15.75
 50
215.9545137653
 51
288.0
  0
ARC
  8
0
 62
9
  6
CONTINUOUS
 10
66.5741016614
 20
120.8985593109
 40
14.2500000137
 50
108.0
 51
180.0454862347
  0
ARC
  8
0
 62
9
  6
CONTINUOUS
 10
61.5645782694
 20
137.9343209723
 40
3.4999995329
 50
288.0
 51
18.0
  0
ARC
  8
0
 62
7
  6
CONTINUOUS
 10
52.9241059629
 20
120.8877227878
 40
2.1
 50
180.0454862316
 51
283.0000000028
  0
ARC
  8
0
 62
7
  6
CONTINUOUS
 10
43.7820078335
 20
149.024207696
 40
2.1
 50
113.0
 51
215.9545137653
  0
ARC
  8
0
 62
7
  6
CONTINUOUS
 10
61.5645782694
 20
137.9343209723
 40
2.0
 50
288.0
 51
18.0
  0
ARC
  8
0
 62
7
  6
CONTINUOUS
 10
60.7920357835
 20
140.3119622631
 40
2.0
 50
18.0
 51
108.0
  0
ARC
  8
0
 62
9
  6
CONTINUOUS
 10
52.9241059629
 20
120.8877227878
 40
0.5999999151
 50
180.0454862347
 51
283.0
  0
ARC
  8
0
 62
9
  6
CONTINUOUS
 10
110.4802037746
 20
67.0538560226
 40
16.5000000287
 50
90.0
 51
139.0
  0
ARC
  8
0
 62
7
  6
CONTINUOUS
 10
107.3102985014
 20
84.8077767321
 40
15.75
 50
144.0
 51
216.0454862347
  0
ARC
  8
0
 62
7
  6
CONTINUOUS
 10
123.4802037746
 20
79.5538560226
 40
15.75
 50
287.9545137653
 51
360.0
  0
ARC
  8
0
 62
7
  6
CONTINUOUS
 10
110.4802037746
 20
67.0538560226
 40
15.0
 50
90.0
 51
139.0
  0
ARC
  8
0
 62
7
  6
CONTINUOUS
 10
110.4802037746
 20
67.0538560226
 40
15.0
 50
5.0
 51
54.0
  0
ARC
  8
0
 62
9
  6
CONTINUOUS
 10
107.3102985014
 20
84.8077767321
 40
14.2500000137
 50
144.0
 51
216.0454862347
  0
ARC
  8
0
 62
9
  6
CONTINUOUS
 10
93.2441394774
 20
95.6454734575
 40
3.4999995329
 50
324.0
 51
54.0
  0
ARC
  8
0
 62
7
  6
CONTINUOUS
 10
96.2735895566
 20
76.7757436353
 40
2.1
 50
216.0454862316
 51
319.0000000028
  0
ARC
  8
0
 62
7
  6
CONTINUOUS
 10
127.6879782727
 20
66.5685899964
 40
2.1
 50
185.0
 51
287.9545137653
  0
ARC
  8
0
 62
7
  6
CONTINUOUS
 10
93.2441394774
 20
95.6454734575
 40
2.0
 50
324.0
 51
54.0
  0
ARC
  8
0
 62
7
  6
CONTINUOUS
 10
141.2302037746
 20
80.0538560226
 40
2.0
 50
90.0
 51
180.0
  0
ARC
  8
0
 62
9
  6
CONTINUOUS
 10
96.2735895566
 20
76.7757436353
 40
0.5999999151
 50
216.0454862347
 51
319.0
  0
ARC
  8
BLANK_COSM
 62
2
  6
PHANTOM
 10
131.8425167052
 20
143.3676616346
 40
3.2
 50
45.0
 51
86.4096221093
  0
ARC
  8
BLANK_COSM
 62
2
  6
PHANTOM
 10
132.2433033455
 20
149.7551000937
 40
3.2
 50
225.0
 51
266.4096221093
  0
ARC
  8
BLANK_COSM
 62
2
  6
PHANTOM
 10
126.6955746561
 20
155.3028287832
 40
3.2
 50
183.5903778907
 51
225.0
  0
ARC
  8
BLANK_COSM
 62
2
  6
PHANTOM
 10
120.3081361969
 20
154.9020421429
 40
3.2
 50
3.5903778907
 51
45.0
  0
ARC
  8
BLANK_COSM
 62
2
  6
PHANTOM
 10
116.0654955098
 20
159.14468283
 40
3.2
 50
45.0
 51
87.7455692247
  0
ARC
  8
BLANK_COSM
 62
2
  6
PHANTOM
 10
136.0851573924
 20
139.1250209475
 40
3.2
 50
2.2544307753
 51
45.0
  0
ARC
  8
0
 62
9
  6
CONTINUOUS
 10
38.9260284946
 20
165.5397292123
 40
16.5000000287
 50
18.0
 51
67.0
  0
ARC
  8
0
 62
7
  6
CONTINUOUS
 10
54.8314558752
 20
174.0407514944
 40
15.75
 50
72.0
 51
144.0454862347
  0
ARC
  8
0
 62
7
  6
CONTINUOUS
 10
66.5741016614
 20
210.1808991136
 40
15.75
 50
179.9545137653
 51
252.0
  0
ARC
  8
0
 62
7
  6
CONTINUOUS
 10
38.9260284946
 20
165.5397292123
 40
15.0
 50
18.0
 51
67.0
  0
ARC
  8
0
 62
7
  6
CONTINUOUS
 10
38.9260284946
 20
165.5397292123
 40
15.0
 50
293.0
 51
342.0
  0
ARC
  8
0
 62
9
  6
CONTINUOUS
 10
54.8314558752
 20
174.0407514944
 40
14.2500000137
 50
72.0
 51
144.0454862347
  0
ARC
  8
0
 62
9
  6
CONTINUOUS
 10
60.7920357835
 20
190.7674961615
 40
3.4999995329
 50
252.0
 51
342.0
  0
ARC
  8
0
 62
7
  6
CONTINUOUS
 10
43.7820078335
 20
182.0552507285
 40
2.1
 50
144.0454862316
 51
247.0000000028
  0
ARC
  8
0
 62
7
  6
CONTINUOUS
 10
52.9241059629
 20
210.1917356367
 40
2.1
 50
77.0
 51
179.9545137653
  0
ARC
  8
0
 62
7
  6
CONTINUOUS
 10
60.7920357835
 20
190.7674961615
 40
2.0
 50
252.0
 51
342.0
  0
ARC
  8
0
 62
7
  6
CONTINUOUS
 10
61.5645782694
 20
193.1451374522
 40
2.0
 50
342.0
 51
72.0
  0
ARC
  8
0
 62
9
  6
CONTINUOUS
 10
43.7820078335
 20
182.0552507285
 40
0.5999999151
 50
144.0454862347
 51
247.0
  0
ARC
  8
0
 62
9
  6
CONTINUOUS
 10
58.7031161346
 20
226.4073462551
 40
16.5000000287
 50
342.0
 51
31.0
  0
ARC
  8
0
 62
7
  6
CONTINUOUS
 10
76.5676527152
 20
223.9358421053
 40
15.75
 50
36.0
 51
108.0454862347
  0
ARC
  8
0
 62
7
  6
CONTINUOUS
 10
58.7031161346
 20
226.4073462551
 40
15.0
 50
342.0
 51
31.0
  0
ARC
  8
0
 62
7
  6
CONTINUOUS
 10
58.7031161346
 20
226.4073462551
 40
15.0
 50
257.0
 51
306.0
  0
ARC
  8
0
 62
9
  6
CONTINUOUS
 10
76.5676527152
 20
223.9358421053
 40
14.2500000137
 50
36.0
 51
108.0454862347
  0
ARC
  8
0
 62
7
  6
CONTINUOUS
 10
72.3392659253
 20
236.9144107919
 40
2.1
 50
108.0454862316
 51
211.0000000028
  0
ARC
  8
0
 62
9
  6
CONTINUOUS
 10
72.3392659253
 20
236.9144107919
 40
0.5999999151
 50
108.0454862347
 51
211.0
  0
ARC
  8
BLANK_COSM
 62
2
  6
PHANTOM
 10
116.3172528707
 20
165.5397292123
 40
3.2
 50
92.2544307753
 51
267.7455692247
  0
ARC
  8
BLANK_COSM
 62
2
  6
PHANTOM
 10
116.0654955098
 20
171.9347755945
 40
3.2
 50
272.2544307753
 51
315.0
  0
ARC
  8
BLANK_COSM
 62
2
  6
PHANTOM
 10
120.3081361969
 20
176.1774162816
 40
3.2
 50
315.0
 51
356.4096221093
  0
ARC
  8
BLANK_COSM
 62
2
  6
PHANTOM
 10
126.6955746561
 20
175.7766296414
 40
3.2
 50
135.0
 51
176.4096221093
  0
ARC
  8
BLANK_COSM
 62
2
  6
PHANTOM
 10
132.2433033455
 20
181.3243583308
 40
3.2
 50
93.5903778907
 51
135.0
  0
ARC
  8
BLANK_COSM
 62
2
  6
PHANTOM
 10
131.8425167052
 20
187.7117967899
 40
3.2
 50
273.5903778907
 51
315.0
  0
ARC
  8
BLANK_COSM
 62
2
  6
PHANTOM
 10
136.0851573924
 20
191.9544374771
 40
3.2
 50
315.0
 51
357.7455692247
  0
ARC
  8
0
 62
9
  6
CONTINUOUS
 10
110.4802037746
 20
264.0256024019
 40
16.5000000287
 50
306.0
 51
355.0
  0
ARC
  8
0
 62
7
  6
CONTINUOUS
 10
123.4802037746
 20
251.5256024019
 40
15.75
 50
0.0
 51
72.0454862347
  0
ARC
  8
0
 62
7
  6
CONTINUOUS
 10
107.3102985014
 20
246.2716816924
 40
15.75
 50
143.9545137653
 51
216.0
  0
ARC
  8
0
 62
7
  6
CONTINUOUS
 10
110.4802037746
 20
264.0256024019
 40
15.0
 50
306.0
 51
355.0
  0
ARC
  8
0
 62
7
  6
CONTINUOUS
 10
110.4802037746
 20
264.0256024019
 40
15.0
 50
221.0
 51
270.0
  0
ARC
  8
0
 62
9
  6
CONTINUOUS
 10
123.4802037746
 20
251.5256024019
 40
14.2500000137
 50
0.0
 51
72.0454862347
  0
ARC
  8
0
 62
9
  6
CONTINUOUS
 10
141.2302037746
 20
251.0256024019
 40
3.4999995329
 50
180.0
 51
270.0
  0
ARC
  8
0
 62
9
  6
CONTINUOUS
 10
91.2215969915
 20
233.9645218363
 40
3.4999995329
 50
216.0
 51
306.0
  0
ARC
  8
0
 62
7
  6
CONTINUOUS
 10
127.6879782727
 20
264.5108684281
 40
2.1
 50
72.0454862316
 51
175.0000000028
  0
ARC
  8
0
 62
7
  6
CONTINUOUS
 10
96.2735895566
 20
254.3037147892
 40
2.1
 50
41.0
 51
143.9545137653
  0
ARC
  8
0
 62
7
  6
CONTINUOUS
 10
141.2302037746
 20
251.0256024019
 40
2.0
 50
180.0
 51
270.0
  0
ARC
  8
0
 62
7
  6
CONTINUOUS
 10
91.2215969915
 20
233.9645218363
 40
2.0
 50
216.0
 51
306.0
  0
ARC
  8
0
 62
7
  6
CONTINUOUS
 10
93.2441394774
 20
235.433984967
 40
2.0
 50
306.0
 51
36.0
  0
ARC
  8
0
 62
9
  6
CONTINUOUS
 10
127.6879782727
 20
264.5108684281
 40
0.5999999151
 50
72.0454862347
 51
175.0
  0
ARC
  8
0
 62
9
  6
CONTINUOUS
 10
174.4802037746
 20
67.0538560226
 40
16.5000000287
 50
126.0
 51
175.0
  0
ARC
  8
0
 62
7
  6
CONTINUOUS
 10
161.4802037746
 20
79.5538560226
 40
15.75
 50
180.0
 51
252.0454862347
  0
ARC
  8
0
 62
7
  6
CONTINUOUS
 10
177.6501090478
 20
84.8077767321
 40
15.75
 50
323.9545137653
 51
36.0
  0
ARC
  8
0
 62
7
  6
CONTINUOUS
 10
174.4802037746
 20
67.0538560226
 40
15.0
 50
126.0
 51
175.0
  0
ARC
  8
0
 62
7
  6
CONTINUOUS
 10
174.4802037746
 20
67.0538560226
 40
15.0
 50
41.0
 51
90.0
  0
ARC
  8
0
 62
9
  6
CONTINUOUS
 10
161.4802037746
 20
79.5538560226
 40
14.2500000137
 50
180.0
 51
252.0454862347
  0
ARC
  8
0
 62
9
  6
CONTINUOUS
 10
143.7302037746
 20
80.0538560226
 40
3.4999995329
 50
0.0
 51
90.0
  0
ARC
  8
0
 62
7
  6
CONTINUOUS
 10
157.2724292765
 20
66.5685899964
 40
2.1
 50
252.0454862347
 51
355.0
  0
ARC
  8
0
 62
7
  6
CONTINUOUS
 10
188.6868179926
 20
76.7757436353
 40
2.1
 50
221.0
 51
323.9545137653
  0
ARC
  8
0
 62
7
  6
CONTINUOUS
 10
143.7302037746
 20
80.0538560226
 40
2.0
 50
0.0
 51
90.0
  0
ARC
  8
0
 62
7
  6
CONTINUOUS
 10
191.7162680718
 20
95.6454734575
 40
2.0
 50
126.0
 51
216.0
  0
ARC
  8
0
 62
9
  6
CONTINUOUS
 10
157.2724292765
 20
66.5685899964
 40
0.5999999151
 50
252.0454862347
 51
355.0
  0
ARC
  8
BLANK_COSM
 62
2
  6
PHANTOM
 10
168.8949120394
 20
159.14468283
 40
3.2
 50
92.2544307753
 51
135.0
  0
ARC
  8
BLANK_COSM
 62
2
  6
PHANTOM
 10
164.6522713523
 20
154.9020421429
 40
3.2
 50
135.0
 51
176.4096221093
  0
ARC
  8
BLANK_COSM
 62
2
  6
PHANTOM
 10
158.2648328932
 20
155.3028287832
 40
3.2
 50
315.0
 51
356.4096221093
  0
ARC
  8
BLANK_COSM
 62
2
  6
PHANTOM
 10
152.7171042037
 20
149.7551000937
 40
3.2
 50
273.5903778907
 51
315.0
  0
ARC
  8
BLANK_COSM
 62
2
  6
PHANTOM
 10
153.117890844
 20
143.3676616346
 40
3.2
 50
93.5903778907
 51
135.0
  0
ARC
  8
BLANK_COSM
 62
2
  6
PHANTOM
 10
148.8752501569
 20
139.1250209475
 40
3.2
 50
135.0
 51
177.7455692247
  0
ARC
  8
BLANK_COSM
 62
2
  6
PHANTOM
 10
142.4802037746
 20
139.3767783084
 40
3.2
 50
182.2544307753
 51
357.7455692247
  0
CIRCLE
  8
0
 62
7
  6
CONTINUOUS
 10
183.1439837865
 20
122.5618168042
 40
1.275
  0
ARC
  8
0
 62
7
  6
CONTINUOUS
 10
182.5782983615
 20
125.425599268
 40
1.0
 50
225.0
 51
315.0
  0
ARC
  8
0
 62
7
  6
CONTINUOUS
 10
185.1238827738
 20
128.395447749
 40
1.0
 50
45.0
 51
135.0
  0
ARC
  8
0
 62
7
  6
CONTINUOUS
 10
182.8269655586
 20
125.5328451089
 40
0.9
 50
315.0
 51
11.2510114041
  0
ARC
  8
0
 62
7
  6
CONTINUOUS
 10
184.8763954004
 20
128.2893817318
 40
0.9
 50
135.0
 51
191.4426902381
  0
ARC
  8
0
 62
7
  6
CONTINUOUS
 10
182.7904303959
 20
125.9205740148
 40
0.5
 50
315.0
 51
45.0
  0
ARC
  8
0
 62
7
  6
CONTINUOUS
 10
184.9117507395
 20
127.9004730022
 40
0.5
 50
135.0
 51
225.0
  0
ARC
  8
0
 62
7
  6
CONTINUOUS
 10
182.6843643787
 20
125.4609546071
 40
0.25
 50
225.0
 51
315.0
  0
ARC
  8
0
 62
7
  6
CONTINUOUS
 10
185.0178167566
 20
128.3600924099
 40
0.25
 50
45.0
 51
135.0
  0
ARC
  8
0
 62
9
  6
CONTINUOUS
 10
226.2572914146
 20
104.6721121694
 40
16.5000000287
 50
162.0
 51
211.0
  0
ARC
  8
0
 62
7
  6
CONTINUOUS
 10
208.3927548341
 20
107.1436163192
 40
15.75
 50
216.0
 51
288.0454862347
  0
ARC
  8
0
 62
7
  6
CONTINUOUS
 10
226.2572914146
 20
104.6721121694
 40
15.0
 50
162.0
 51
211.0
  0
ARC
  8
0
 62
7
  6
CONTINUOUS
 10
226.2572914146
 20
104.6721121694
 40
15.0
 50
77.0
 51
126.0
  0
ARC
  8
0
 62
9
  6
CONTINUOUS
 10
208.3927548341
 20
107.1436163192
 40
14.2500000137
 50
216.0
 51
288.0454862347
  0
ARC
  8
0
 62
9
  6
CONTINUOUS
 10
193.7388105578
 20
97.1149365882
 40
3.4999995329
 50
36.0
 51
126.0
  0
ARC
  8
0
 62
7
  6
CONTINUOUS
 10
212.621141624
 20
94.1650476326
 40
2.1
 50
288.0454862347
 51
31.0
  0
ARC
  8
0
 62
7
  6
CONTINUOUS
 10
193.7388105578
 20
97.1149365882
 40
2.0
 50
36.0
 51
126.0
  0
ARC
  8
0
 62
9
  6
CONTINUOUS
 10
212.621141624
 20
94.1650476326
 40
0.5999999151
 50
288.0454862347
 51
31.0
  0
ARC
  8
0
 62
7
  6
CONTINUOUS
 10
230.128951674
 20
157.0387069301
 40
15.75
 50
252.0
 51
324.0454862347
  0
ARC
  8
0
 62
7
  6
CONTINUOUS
 10
218.3863058878
 20
120.8985593109
 40
15.75
 50
359.9545137653
 51
72.0
  0
ARC
  8
0
 62
9
  6
CONTINUOUS
 10
230.128951674
 20
157.0387069301
 40
14.2500000137
 50
252.0
 51
324.0454862347
  0
ARC
  8
0
 62
9
  6
CONTINUOUS
 10
224.1683717657
 20
140.3119622631
 40
3.4999995329
 50
72.0
 51
162.0
  0
ARC
  8
0
 62
7
  6
CONTINUOUS
 10
241.1783997158
 20
149.024207696
 40
2.1
 50
324.0454862347
 51
67.0
  0
ARC
  8
0
 62
7
  6
CONTINUOUS
 10
232.0363015863
 20
120.8877227878
 40
2.1
 50
257.0
 51
359.9545137653
  0
ARC
  8
0
 62
7
  6
CONTINUOUS
 10
224.1683717657
 20
140.3119622631
 40
2.0
 50
72.0
 51
162.0
  0
ARC
  8
0
 62
7
  6
CONTINUOUS
 10
223.3958292798
 20
137.9343209723
 40
2.0
 50
162.0
 51
252.0
  0
ARC
  8
0
 62
9
  6
CONTINUOUS
 10
241.1783997158
 20
149.024207696
 40
0.5999999151
 50
324.0454862347
 51
67.0
  0
ARC
  8
CURVE
 62
4
  6
CONTINUOUS
 10
142.4802037746
 20
165.5397292123
 40
102.1704568441
 50
53.8646381417
 51
70.6763591653
  0
CIRCLE
  8
0
 62
9
  6
CONTINUOUS
 10
142.4802037746
 20
165.5397292123
 40
77.0
  0
CIRCLE
  8
0
 62
9
  6
CONTINUOUS
 10
142.4802037746
 20
165.5397292123
 40
74.7018666706
  0
CIRCLE
  8
0
 62
9
  6
CONTINUOUS
 10
142.4802037746
 20
165.5397292123
 40
67.2701914375
  0
CIRCLE
  8
0
 62
9
  6
CONTINUOUS
 10
142.4802037746
 20
165.5397292123
 40
64.9720581081
  0
CIRCLE
  8
0
 62
9
  6
CONTINUOUS
 10
142.4802037746
 20
165.5397292123
 40
38.0
  0
CIRCLE
  8
0
 62
7
  6
CONTINUOUS
 10
142.4802037746
 20
165.5397292123
 40
35.0
  0
CIRCLE
  8
0
 62
9
  6
CONTINUOUS
 10
142.4802037746
 20
165.5397292123
 40
32.9999991637
  0
CIRCLE
  8
BLANK_COSM
 62
2
  6
PHANTOM
 10
142.4802037746
 20
165.5397292123
 40
9.525
  0
ARC
  8
BLANK_COSM
 62
2
  6
PHANTOM
 10
142.4802037746
 20
191.7026801162
 40
3.2
 50
2.2544307753
 51
177.7455692247
  0
ARC
  8
BLANK_COSM
 62
2
  6
PHANTOM
 10
148.8752501569
 20
191.9544374771
 40
3.2
 50
182.2544307753
 51
225.0
  0
ARC
  8
BLANK_COSM
 62
2
  6
PHANTOM
 10
153.117890844
 20
187.7117967899
 40
3.2
 50
225.0
 51
266.4096221093
  0
ARC
  8
BLANK_COSM
 62
2
  6
PHANTOM
 10
152.7171042037
 20
181.3243583308
 40
3.2
 50
45.0
 51
86.4096221093
  0
ARC
  8
BLANK_COSM
 62
2
  6
PHANTOM
 10
158.2648328932
 20
175.7766296414
 40
3.2
 50
3.5903778907
 51
45.0
  0
ARC
  8
BLANK_COSM
 62
2
  6
PHANTOM
 10
164.6522713523
 20
176.1774162816
 40
3.2
 50
183.5903778907
 51
225.0
  0
ARC
  8
BLANK_COSM
 62
2
  6
PHANTOM
 10
168.8949120394
 20
171.9347755945
 40
3.2
 50
225.0
 51
267.7455692247
  0
ARC
  8
BLANK_COSM
 62
2
  6
PHANTOM
 10
168.6431546785
 20
165.5397292123
 40
3.2
 50
272.2544307753
 51
87.7455692247
  0
ARC
  8
0
 62
9
  6
CONTINUOUS
 10
174.4802037746
 20
264.0256024019
 40
16.5000000287
 50
270.0
 51
319.0
  0
ARC
  8
0
 62
7
  6
CONTINUOUS
 10
177.6501090478
 20
246.2716816924
 40
15.75
 50
324.0
 51
36.0454862347
  0
ARC
  8
0
 62
7
  6
CONTINUOUS
 10
161.4802037746
 20
251.5256024019
 40
15.75
 50
107.9545137653
 51
180.0
  0
ARC
  8
0
 62
7
  6
CONTINUOUS
 10
174.4802037746
 20
264.0256024019
 40
15.0
 50
270.0
 51
319.0
  0
ARC
  8
0
 62
7
  6
CONTINUOUS
 10
174.4802037746
 20
264.0256024019
 40
15.0
 50
185.0
 51
234.0
  0
ARC
  8
0
 62
9
  6
CONTINUOUS
 10
177.6501090478
 20
246.2716816924
 40
14.2500000137
 50
324.0
 51
36.0454862347
  0
ARC
  8
0
 62
9
  6
CONTINUOUS
 10
191.7162680718
 20
235.433984967
 40
3.4999995329
 50
144.0
 51
234.0
  0
ARC
  8
0
 62
7
  6
CONTINUOUS
 10
188.6868179926
 20
254.3037147892
 40
2.1
 50
36.0454862347
 51
139.0
  0
ARC
  8
0
 62
7
  6
CONTINUOUS
 10
157.2724292765
 20
264.5108684281
 40
2.1
 50
5.0
 51
107.9545137653
  0
ARC
  8
0
 62
7
  6
CONTINUOUS
 10
191.7162680718
 20
235.433984967
 40
2.0
 50
144.0
 51
234.0
  0
ARC
  8
0
 62
7
  6
CONTINUOUS
 10
143.7302037746
 20
251.0256024019
 40
2.0
 50
270.0
 51
360.0
  0
ARC
  8
0
 62
7
  6
CONTINUOUS
 10
193.7388105578
 20
233.9645218363
 40
2.0
 50
234.0
 51
324.0
  0
ARC
  8
0
 62
9
  6
CONTINUOUS
 10
188.6868179926
 20
254.3037147892
 40
0.5999999151
 50
36.0454862347
 51
139.0
  0
ARC
  8
0
 62
9
  6
CONTINUOUS
 10
246.0343790546
 20
165.5397292123
 40
16.5000000287
 50
198.0
 51
247.0
  0
ARC
  8
0
 62
7
  6
CONTINUOUS
 10
218.3863058878
 20
210.1808991136
 40
15.75
 50
288.0
 51
0.0454862347
  0
ARC
  8
0
 62
7
  6
CONTINUOUS
 10
230.128951674
 20
174.0407514944
 40
15.75
 50
35.9545137653
 51
108.0
  0
ARC
  8
0
 62
7
  6
CONTINUOUS
 10
246.0343790546
 20
165.5397292123
 40
15.0
 50
198.0
 51
247.0
  0
ARC
  8
0
 62
7
  6
CONTINUOUS
 10
246.0343790546
 20
165.5397292123
 40
15.0
 50
113.0
 51
162.0
  0
ARC
  8
0
 62
9
  6
CONTINUOUS
 10
218.3863058878
 20
210.1808991136
 40
14.2500000137
 50
288.0
 51
0.0454862347
  0
ARC
  8
0
 62
9
  6
CONTINUOUS
 10
223.3958292798
 20
193.1451374522
 40
3.4999995329
 50
108.0
 51
198.0
  0
ARC
  8
0
 62
7
  6
CONTINUOUS
 10
232.0363015863
 20
210.1917356367
 40
2.1
 50
0.0454862347
 51
103.0
  0
ARC
  8
0
 62
7
  6
CONTINUOUS
 10
241.1783997158
 20
182.0552507285
 40
2.1
 50
293.0
 51
35.9545137653
  0
ARC
  8
0
 62
7
  6
CONTINUOUS
 10
223.3958292798
 20
193.1451374522
 40
2.0
 50
108.0
 51
198.0
  0
ARC
  8
0
 62
7
  6
CONTINUOUS
 10
224.1683717657
 20
190.7674961615
 40
2.0
 50
198.0
 51
288.0
  0
ARC
  8
0
 62
9
  6
CONTINUOUS
 10
232.0363015863
 20
210.1917356367
 40
0.5999999151
 50
0.0454862347
 51
103.0
  0
ARC
  8
0
 62
9
  6
CONTINUOUS
 10
226.2572914146
 20
226.4073462551
 40
16.5000000287
 50
234.0
 51
283.0
  0
ARC
  8
0
 62
7
  6
CONTINUOUS
 10
208.3927548341
 20
223.9358421053
 40
15.75
 50
71.9545137653
 51
144.0
  0
ARC
  8
0
 62
7
  6
CONTINUOUS
 10
226.2572914146
 20
226.4073462551
 40
15.0
 50
234.0
 51
283.0
  0
ARC
  8
0
 62
7
  6
CONTINUOUS
 10
226.2572914146
 20
226.4073462551
 40
15.0
 50
149.0
 51
198.0
  0
ARC
  8
0
 62
7
  6
CONTINUOUS
 10
212.621141624
 20
236.9144107919
 40
2.1
 50
329.0
 51
71.9545137653
  0
ARC
  8
0
 62
7
  6
CONTINUOUS
 10
352.6410694748
 20
198.5397292123
 40
2.0
 50
0.0
 51
41.3753638838
  0
ARC
  8
0
 62
7
  6
CONTINUOUS
 10
352.6410694748
 20
132.5397292123
 40
2.0
 50
318.6246361162
 51
360.0
  0
ARC
  8
0
 62
7
  6
CONTINUOUS
 10
323.6410694748
 20
198.5397292123
 40
2.0
 50
138.6246360316
 51
180.0
  0
ARC
  8
0
 62
7
  6
CONTINUOUS
 10
323.6410694748
 20
132.5397292123
 40
2.0
 50
180.0
 51
221.3753639684
  0
ARC
  8
0
 62
7
  6
CONTINUOUS
 10
352.6410694748
 20
65.9685899964
 40
1.5
 50
270.0
 51
0.0000129862
  0
ARC
  8
0
 62
7
  6
CONTINUOUS
 10
352.6410694748
 20
265.1108684281
 40
1.5
 50
359.9999870138
 51
90.0
  0
ARC
  8
0
 62
7
  6
CONTINUOUS
 10
352.6410694748
 20
238.1858421053
 40
1.5
 50
359.9999997774
 51
90.0
  0
ARC
  8
0
 62
7
  6
CONTINUOUS
 10
352.6410694748
 20
188.2907514944
 40
1.5
 50
359.9999995346
 51
90.0
  0
ARC
  8
0
 62
7
  6
CONTINUOUS
 10
352.6410694748
 20
120.2877227878
 40
1.5
 50
270.0
 51
0.0000072196
  0
ARC
  8
0
 62
7
  6
CONTINUOUS
 10
352.6410694748
 20
76.1757436353
 40
1.5
 50
270.0
 51
0.0000001009
  0
ARC
  8
0
 62
7
  6
CONTINUOUS
 10
323.6410694748
 20
65.9685899964
 40
1.5
 50
179.9999870138
 51
270.0
  0
ARC
  8
0
 62
7
  6
CONTINUOUS
 10
323.6410694748
 20
92.8936163192
 40
1.5
 50
179.9999997774
 51
270.0
  0
ARC
  8
0
 62
7
  6
CONTINUOUS
 10
323.6410694748
 20
142.7887069301
 40
1.5
 50
179.9999995346
 51
270.0
  0
ARC
  8
0
 62
7
  6
CONTINUOUS
 10
323.6410694748
 20
210.7917356367
 40
1.5
 50
90.0
 51
180.0000072196
  0
ARC
  8
0
 62
7
  6
CONTINUOUS
 10
323.6410694748
 20
254.9037147892
 40
1.5
 50
90.0
 51
180.0000001009
  0
ARC
  8
0
 62
7
  6
CONTINUOUS
 10
323.6410694748
 20
265.1108684281
 40
1.5
 50
90.0
 51
180.0000129862
  0
ENDSEC
  0
EOF
