  0
SECTION
  2
HEADER
  9
$EXTMAX
 10
420.0
 20
297.0
 30
0.0
  9
$EXTMIN
 10
0.0
 20
0.0
 30
0.0
  9
$LIMMIN
 10
0.0
 20
0.0
  9
$LIMMAX
 10
420.0
 20
297.0
  9
$VIEWCTR
 10
210.0
 20
148.5
  9
$VIEWSIZE
 40
297.0
  9
$CLAYER
  8
0
  9
$LTSCALE
 40
23.1
  9
$CELTYPE
  6
BYLAYER
  9
$DIMSCALE
 40
1.0
  9
$DIMASZ
 40
3.5
  9
$DIMEXO
 40
2.625
  9
$DIMDLI
 40
15.96
  9
$DIMEXE
 40
7.56
  9
$DIMCEN
 40
3.78
  9
$DIMLFAC
 40
1.0
  9
$DIMBLK
  1
_FILLED
  9
$DIMTXT
 40
3.5
  9
$PDMODE
 70
3
  9
$PDSIZE
 40
0.3125
  9
$TILEMODE
 70
1
  0
ENDSEC
  0
SECTION
  2
TABLES
  0
TABLE
  2
LTYPE
 70
6
  0
LTYPE
  2
BYBLOCK
 70
0
  3

 72
65
 73
0
 40
0.0
  0
LTYPE
  2
BYLAYER
 70
0
  3

 72
65
 73
0
 40
0.0
  0
LTYPE
  2
CONTINUOUS
 70
64
  3
Solid line
 72
65
 73
0
 40
0.0
  0
LTYPE
  2
CENTER
 70
64
  3
____ _ ____ _ ____ _ ____ _ ____ _ ____ _ ____
 72
65
 73
4
 40
0.6
 49
0.375
 49
-0.075
 49
0.075
 49
-0.075
  0
LTYPE
  2
HIDDEN
 70
64
  3
- - - - - - - - - - - - - - - - - - - -
 72
65
 73
2
 40
0.2
 49
0.1
 49
-0.1
  0
LTYPE
  2
PHANTOM
 70
64
  3
_____ _ _ _____ _ _ _____ _ _ _____
 72
65
 73
6
 40
0.8
 49
0.45
 49
-0.05
 49
0.1
 49
-0.05
 49
0.1
 49
-0.05
  0
LTYPE
  2
DOT
 70
64
  3
. . . . . . . . . . . . . . . . . . . .
 72
65
 73
2
 40
0.2
 49
0.1
 49
-0.1
  0
LTYPE
  2
DASHED
 70
64
  3
- - - - - - - - - - - - - - - - - - - -
 72
65
 73
2
 40
0.2
 49
0.1
 49
-0.1
  0
ENDTAB
  0
TABLE
  2
LAYER
 70
36
  0
LAYER
  2
0
 70
0
 62
7
  6
CONTINUOUS
  0
LAYER
  2
DEFAULT_1
 70
0
 62
7
  6
CENTER
  0
LAYER
  2
DEFAULT_2
 70
0
 62
8
  6
HIDDEN
  0
LAYER
  2
DEFAULT_3
 70
0
 62
7
  6
PHANTOM
  0
LAYER
  2
BB
 70
0
 62
7
  6
CONTINUOUS
  0
LAYER
  2
BLANK_COSM
 70
0
 62
7
  6
CONTINUOUS
  0
LAYER
  2
CURVE
 70
0
 62
7
  6
CONTINUOUS
  0
ENDTAB
  0
TABLE
  2
STYLE
 70
1
  0
STYLE
  2
STANDARD
 70
0
 40
0.0
 41
0.8
 50
0.0
 71
0
 42
0.2
  3
txt
  4

  0
STYLE
  2
TEXTSTYLE_1
 70
0
 40
0.0
 41
0.8
 50
0.0
 71
0
 42
0.2
  3
gdt
  4

  0
STYLE
  2
TEXTSTYLE_2
 70
0
 40
0.0
 41
0.6
 50
0.0
 71
0
 42
0.2
  3
txt
  4

  0
STYLE
  2
TEXTSTYLE_3
 70
0
 40
0.0
 41
1.0
 50
0.0
 71
0
 42
0.2
  3
ftb_____.ttf
  4

  0
STYLE
  2
TEXTSTYLE_4
 70
0
 40
0.0
 41
1.0
 50
0.0
 71
0
 42
0.2
  3
fti_____.ttf
  4

  0
STYLE
  2
TEXTSTYLE_5
 70
0
 40
0.0
 41
1.0
 50
0.0
 71
0
 42
0.2
  3
frutiger light.ttf
  4

  0
STYLE
  2
TEXTSTYLE_6
 70
0
 40
0.0
 41
0.7
 50
0.0
 71
0
 42
0.2
  3
txt
  4

  0
STYLE
  2
TEXTSTYLE_7
 70
0
 40
0.0
 41
0.8
 50
0.0
 71
0
 42
0.2
  3
txt
  4

  0
ENDTAB
  0
ENDSEC
  0
SECTION
  2
BLOCKS
  0
BLOCK
  8
0
 62
2
  6
CONTINUOUS
  2
SYMBOL_5_BL1
 70
64
 10
382.7840918555
 20
35.5067593403
  0
TEXT
  8
0
 62
7
  6
CONTINUOUS
 10
373.842376864
 20
30.5995157174
  7
TEXTSTYLE_4
 40
1.0655737705
  1
The brand for plastic modular belts and chains
 41
1.0
 72
0
  0
LINE
  8
0
 62
7
  6
CONTINUOUS
 10
358.7621602445
 20
36.0805298321
 11
358.7621602445
 21
33.9493822911
  0
LINE
  8
0
 62
7
  6
CONTINUOUS
 10
359.0512227376
 20
30.9584509954
 11
359.0512227376
 21
31.0552420547
  0
LINE
  8
0
 62
7
  6
CONTINUOUS
 10
358.7621602445
 20
31.0229783683
 11
358.8199727462
 21
30.8293962497
  0
LINE
  8
0
 62
7
  6
CONTINUOUS
 10
360.1556028675
 20
33.867415078
 11
360.1556028675
 21
36.0805298321
  0
LINE
  8
0
 62
7
  6
CONTINUOUS
 10
361.0746601894
 20
32.0231527829
 11
361.0746601894
 21
30.5067593403
  0
LINE
  8
0
 62
7
  6
CONTINUOUS
 10
361.3637227445
 20
30.5067593403
 11
361.3637227445
 21
31.2488242184
  0
LINE
  8
0
 62
7
  6
CONTINUOUS
 10
361.3637227445
 20
31.3778789641
 11
361.3637227445
 21
32.0231527829
  0
LINE
  8
0
 62
7
  6
CONTINUOUS
 10
358.8199727462
 20
31.216560532
 11
358.7621602445
 21
31.0229783683
  0
LINE
  8
0
 62
7
  6
CONTINUOUS
 10
359.1668477307
 20
30.7971325633
 11
359.0512227376
 21
30.9584509954
  0
LINE
  8
0
 62
7
  6
CONTINUOUS
 10
360.2652852997
 20
31.3133515913
 11
360.3230977445
 21
31.216560532
  0
LINE
  8
0
 62
7
  6
CONTINUOUS
 10
360.6121602997
 20
31.216560532
 11
360.5543476894
 21
31.3456152777
  0
LINE
  8
0
 62
7
  6
CONTINUOUS
 10
362.0408487691
 20
36.0805298321
 11
362.0408487691
 21
34.2772511436
  0
LINE
  8
0
 62
7
  6
CONTINUOUS
 10
362.0408487691
 20
32.9657757338
 11
362.0408487691
 21
32.3100380288
  0
LINE
  8
0
 62
7
  6
CONTINUOUS
 10
362.4043477445
 20
31.1520331591
 11
362.4043477445
 21
30.5067593403
  0
LINE
  8
0
 62
7
  6
CONTINUOUS
 10
362.6934101343
 20
30.5067593403
 11
362.6934101343
 21
31.1520331591
  0
LINE
  8
0
 62
7
  6
CONTINUOUS
 10
359.0512227376
 20
31.0552420547
 11
359.1090352445
 21
31.1842968456
  0
LINE
  8
0
 62
7
  6
CONTINUOUS
 10
358.8199727462
 20
30.8293962497
 11
358.9355977445
 21
30.7003414814
  0
LINE
  8
0
 62
7
  6
CONTINUOUS
 10
362.3465351343
 20
31.2810879048
 11
362.4043477445
 21
31.1520331591
  0
LINE
  8
0
 62
7
  6
CONTINUOUS
 10
363.1559103548
 20
30.7971325633
 11
363.2137226343
 21
30.668077795
  0
LINE
  8
0
 62
7
  6
CONTINUOUS
 10
362.6934101343
 20
31.1520331591
 11
362.6355978548
 21
31.3133515913
  0
LINE
  8
0
 62
7
  6
CONTINUOUS
 10
363.1559103548
 20
31.3456152777
 11
363.1559103548
 21
31.2810879048
  0
LINE
  8
0
 62
7
  6
CONTINUOUS
 10
363.1559103548
 20
30.8939236226
 11
363.1559103548
 21
30.7971325633
  0
LINE
  8
0
 62
7
  6
CONTINUOUS
 10
363.4342913921
 20
32.3100380288
 11
363.4342913921
 21
36.0805298321
  0
LINE
  8
0
 62
7
  6
CONTINUOUS
 10
363.4449727445
 20
30.7648688543
 11
363.4449727445
 21
30.8293962497
  0
LINE
  8
0
 62
7
  6
CONTINUOUS
 10
363.7621602445
 20
36.0805298321
 11
363.7621602445
 21
32.3100380288
  0
LINE
  8
0
 62
7
  6
CONTINUOUS
 10
360.5543476894
 20
30.7003414814
 11
360.6121602997
 21
30.8293962497
  0
LINE
  8
0
 62
7
  6
CONTINUOUS
 10
364.9480979651
 20
30.6035504109
 11
364.890285024
 21
30.7648688543
  0
LINE
  8
0
 62
7
  6
CONTINUOUS
 10
364.6012229651
 20
31.2810879048
 11
364.6012229651
 21
31.1842968456
  0
LINE
  8
0
 62
7
  6
CONTINUOUS
 10
364.6012229651
 20
31.0552420547
 11
364.6012229651
 21
30.8616599362
  0
LINE
  8
0
 62
7
  6
CONTINUOUS
 10
364.890285024
 20
30.7648688543
 11
364.890285024
 21
31.2810879048
  0
LINE
  8
0
 62
7
  6
CONTINUOUS
 10
365.1556028675
 20
32.3100380288
 11
365.1556028675
 21
34.1133167174
  0
LINE
  8
0
 62
7
  6
CONTINUOUS
 10
365.1556028675
 20
35.4247921272
 11
365.1556028675
 21
36.0805298321
  0
LINE
  8
0
 62
7
  6
CONTINUOUS
 10
365.4684104651
 20
32.0231527829
 11
365.4684104651
 21
31.8618343508
  0
LINE
  8
0
 62
7
  6
CONTINUOUS
 10
365.4684104651
 20
31.5391973962
 11
365.4684104651
 21
30.5067593403
  0
LINE
  8
0
 62
7
  6
CONTINUOUS
 10
365.757472524
 20
30.5067593403
 11
365.757472524
 21
31.5391973962
  0
LINE
  8
0
 62
7
  6
CONTINUOUS
 10
365.757472524
 20
31.8618343508
 11
365.757472524
 21
32.0231527829
  0
LINE
  8
0
 62
7
  6
CONTINUOUS
 10
360.3230977445
 20
30.8293962497
 11
360.2652852997
 21
30.7326051679
  0
LINE
  8
0
 62
7
  6
CONTINUOUS
 10
362.6355978548
 20
31.3133515913
 11
362.5777852445
 21
31.3778789641
  0
LINE
  8
0
 62
7
  6
CONTINUOUS
 10
363.5027853548
 20
30.7003414814
 11
363.4449727445
 21
30.7648688543
  0
LINE
  8
0
 62
7
  6
CONTINUOUS
 10
364.6590352445
 20
30.5712867188
 11
364.716847524
 21
30.5067593403
  0
LINE
  8
0
 62
7
  6
CONTINUOUS
 10
364.6012229651
 20
30.668077795
 11
364.6590352445
 21
30.5712867188
  0
LINE
  8
0
 62
7
  6
CONTINUOUS
 10
365.0059102445
 20
30.5067593403
 11
364.9480979651
 21
30.6035504109
  0
LINE
  8
0
 62
7
  6
CONTINUOUS
 10
364.890285024
 20
31.2810879048
 11
364.8324727445
 21
31.3778789641
  0
LINE
  8
0
 62
7
  6
CONTINUOUS
 10
366.2199727445
 20
31.5391973962
 11
366.2199727445
 21
30.5067593403
  0
LINE
  8
0
 62
7
  6
CONTINUOUS
 10
366.5090354651
 20
30.5067593403
 11
366.5090354651
 21
31.2488242184
  0
LINE
  8
0
 62
7
  6
CONTINUOUS
 10
366.5090354651
 20
31.3778789641
 11
366.5090354651
 21
31.5391973962
  0
LINE
  8
0
 62
7
  6
CONTINUOUS
 10
367.0408487691
 20
34.5231527829
 11
367.0408487691
 21
32.3100380288
  0
LINE
  8
0
 62
7
  6
CONTINUOUS
 10
358.9355977445
 20
31.3456152777
 11
358.8199727462
 21
31.216560532
  0
LINE
  8
0
 62
7
  6
CONTINUOUS
 10
359.1090352445
 20
31.1842968456
 11
359.1668477307
 21
31.2488242184
  0
LINE
  8
0
 62
7
  6
CONTINUOUS
 10
358.9355977445
 20
30.7003414814
 11
359.0512227376
 21
30.6358140973
  0
LINE
  8
0
 62
7
  6
CONTINUOUS
 10
359.3402852307
 20
30.7003414814
 11
359.1668477307
 21
30.7971325633
  0
LINE
  8
0
 62
7
  6
CONTINUOUS
 10
364.543410024
 20
31.3456152777
 11
364.6012229651
 21
31.2810879048
  0
LINE
  8
0
 62
7
  6
CONTINUOUS
 10
367.491847524
 20
31.2810879048
 11
367.5496604651
 21
31.1197694727
  0
LINE
  8
0
 62
7
  6
CONTINUOUS
 10
367.838722524
 20
31.1197694727
 11
367.7809102445
 21
31.2810879048
  0
LINE
  8
0
 62
7
  6
CONTINUOUS
 10
367.5496604651
 20
31.1197694727
 11
367.5496604651
 21
30.5067593403
  0
LINE
  8
0
 62
7
  6
CONTINUOUS
 10
367.838722524
 20
30.5067593403
 11
367.838722524
 21
31.1197694727
  0
LINE
  8
0
 62
7
  6
CONTINUOUS
 10
368.3012227445
 20
31.3456152777
 11
368.3012227445
 21
31.2810879048
  0
LINE
  8
0
 62
7
  6
CONTINUOUS
 10
368.4342913921
 20
32.3100380288
 11
368.4342913921
 21
34.4411855698
  0
LINE
  8
0
 62
7
  6
CONTINUOUS
 10
368.7621602445
 20
36.0805298321
 11
368.7621602445
 21
32.3100380288
  0
LINE
  8
0
 62
7
  6
CONTINUOUS
 10
363.4449727445
 20
30.8293962497
 11
363.5027853548
 21
30.926187309
  0
LINE
  8
0
 62
7
  6
CONTINUOUS
 10
359.0512227376
 20
30.6358140973
 11
359.2246602583
 21
30.5712867188
  0
LINE
  8
0
 62
7
  6
CONTINUOUS
 10
360.5543476894
 20
31.3456152777
 11
360.3809101894
 21
31.4424063369
  0
LINE
  8
0
 62
7
  6
CONTINUOUS
 10
363.2137226343
 20
30.668077795
 11
363.3871601343
 21
30.5712867188
  0
LINE
  8
0
 62
7
  6
CONTINUOUS
 10
362.2309102445
 20
31.3456152777
 11
362.3465351343
 21
31.2810879048
  0
LINE
  8
0
 62
7
  6
CONTINUOUS
 10
362.5777852445
 20
31.3778789641
 11
362.4621603548
 21
31.4424063369
  0
LINE
  8
0
 62
7
  6
CONTINUOUS
 10
368.3012227445
 20
30.7648688543
 11
368.4168479651
 21
30.6358140973
  0
LINE
  8
0
 62
7
  6
CONTINUOUS
 10
368.6480977445
 20
30.7003414814
 11
368.5902854651
 21
30.7648688543
  0
LINE
  8
0
 62
7
  6
CONTINUOUS
 10
368.3012227445
 20
31.2810879048
 11
368.4168479651
 21
31.1520331591
  0
LINE
  8
0
 62
7
  6
CONTINUOUS
 10
367.7809102445
 20
31.2810879048
 11
367.7230979651
 21
31.3778789641
  0
LINE
  8
0
 62
7
  6
CONTINUOUS
 10
370.1512223035
 20
30.7003414814
 11
370.1512223035
 21
30.7648688543
  0
LINE
  8
0
 62
7
  6
CONTINUOUS
 10
370.1556028675
 20
32.3100380288
 11
370.1556028675
 21
36.0805298321
  0
LINE
  8
0
 62
7
  6
CONTINUOUS
 10
363.2137226343
 20
31.4101426505
 11
363.1559103548
 21
31.3456152777
  0
LINE
  8
0
 62
7
  6
CONTINUOUS
 10
360.091847717
 20
31.3778789641
 11
360.2652852997
 21
31.3133515913
  0
LINE
  8
0
 62
7
  6
CONTINUOUS
 10
364.8324727445
 20
31.3778789641
 11
364.716847524
 21
31.4424063369
  0
LINE
  8
0
 62
7
  6
CONTINUOUS
 10
368.6480977445
 20
31.216560532
 11
368.5902854651
 21
31.2810879048
  0
LINE
  8
0
 62
7
  6
CONTINUOUS
 10
369.8043479651
 20
30.8293962497
 11
369.8621602445
 21
30.7648688543
  0
LINE
  8
0
 62
7
  6
CONTINUOUS
 10
370.1512223035
 20
30.7648688543
 11
370.0355977445
 21
30.8939236226
  0
LINE
  8
0
 62
7
  6
CONTINUOUS
 10
369.8043479651
 20
31.3456152777
 11
369.8621602445
 21
31.2810879048
  0
LINE
  8
0
 62
7
  6
CONTINUOUS
 10
370.1512223035
 20
31.2810879048
 11
370.0355977445
 21
31.4101426505
  0
LINE
  8
0
 62
7
  6
CONTINUOUS
 10
363.4449727445
 20
31.2810879048
 11
363.5027853548
 21
31.3456152777
  0
LINE
  8
0
 62
7
  6
CONTINUOUS
 10
363.2715352445
 20
31.0229783683
 11
363.1559103548
 21
30.8939236226
  0
LINE
  8
0
 62
7
  6
CONTINUOUS
 10
364.6012229651
 20
30.8616599362
 11
364.543410024
 21
30.7971325633
  0
LINE
  8
0
 62
7
  6
CONTINUOUS
 10
364.543410024
 20
30.6035504109
 11
364.6012229651
 21
30.668077795
  0
LINE
  8
0
 62
7
  6
CONTINUOUS
 10
363.3871601343
 20
30.5712867188
 11
363.5027853548
 21
30.5390230296
  0
LINE
  8
0
 62
7
  6
CONTINUOUS
 10
360.3809101894
 20
31.4424063369
 11
360.1496602445
 21
31.5069337098
  0
LINE
  8
0
 62
7
  6
CONTINUOUS
 10
363.7340351343
 20
30.6358140973
 11
363.5027853548
 21
30.7003414814
  0
LINE
  8
0
 62
7
  6
CONTINUOUS
 10
362.4621603548
 20
31.4424063369
 11
362.2887228548
 21
31.5069337098
  0
LINE
  8
0
 62
7
  6
CONTINUOUS
 10
364.716847524
 20
31.4424063369
 11
364.543410024
 21
31.5069337098
  0
LINE
  8
0
 62
7
  6
CONTINUOUS
 10
367.3762229651
 20
31.3456152777
 11
367.491847524
 21
31.2810879048
  0
LINE
  8
0
 62
7
  6
CONTINUOUS
 10
367.7230979651
 20
31.3778789641
 11
367.6074727445
 21
31.4424063369
  0
LINE
  8
0
 62
7
  6
CONTINUOUS
 10
359.2246602583
 20
30.5712867188
 11
359.3980977583
 21
30.5390230296
  0
LINE
  8
0
 62
7
  6
CONTINUOUS
 10
359.6871602721
 20
30.6358140973
 11
359.3402852307
 21
30.7003414814
  0
LINE
  8
0
 62
7
  6
CONTINUOUS
 10
362.1152853548
 20
31.3778789641
 11
362.2309102445
 21
31.3456152777
  0
LINE
  8
0
 62
7
  6
CONTINUOUS
 10
364.4277854651
 20
31.3778789641
 11
364.543410024
 21
31.3456152777
  0
LINE
  8
0
 62
7
  6
CONTINUOUS
 10
368.7637229651
 20
30.668077795
 11
368.6480977445
 21
30.7003414814
  0
LINE
  8
0
 62
7
  6
CONTINUOUS
 10
367.2605977445
 20
31.3778789641
 11
367.3762229651
 21
31.3456152777
  0
LINE
  8
0
 62
7
  6
CONTINUOUS
 10
368.4168479651
 20
30.6358140973
 11
368.5902854651
 21
30.5712867188
  0
LINE
  8
0
 62
7
  6
CONTINUOUS
 10
367.6074727445
 20
31.4424063369
 11
367.4340352445
 21
31.5069337098
  0
LINE
  8
0
 62
7
  6
CONTINUOUS
 10
368.8215352445
 20
31.1520331591
 11
368.6480977445
 21
31.216560532
  0
LINE
  8
0
 62
7
  6
CONTINUOUS
 10
369.6309104651
 20
30.8939236226
 11
369.8043479651
 21
30.8293962497
  0
LINE
  8
0
 62
7
  6
CONTINUOUS
 10
370.0355977445
 20
31.4101426505
 11
369.8621602445
 21
31.4746700234
  0
LINE
  8
0
 62
7
  6
CONTINUOUS
 10
368.4168479651
 20
31.1520331591
 11
368.6480977445
 21
31.0552420547
  0
LINE
  8
0
 62
7
  6
CONTINUOUS
 10
370.0355977445
 20
30.8939236226
 11
369.8043479651
 21
30.9907146818
  0
LINE
  8
0
 62
7
  6
CONTINUOUS
 10
368.5902854651
 20
31.2810879048
 11
368.6480977445
 21
31.3456152777
  0
LINE
  8
0
 62
7
  6
CONTINUOUS
 10
359.0512227376
 20
31.4101426505
 11
358.9355977445
 21
31.3456152777
  0
LINE
  8
0
 62
7
  6
CONTINUOUS
 10
359.1668477307
 20
31.2488242184
 11
359.3402852307
 21
31.3456152777
  0
LINE
  8
0
 62
7
  6
CONTINUOUS
 10
361.4793477997
 20
31.4424063369
 11
361.3637227445
 21
31.3778789641
  0
LINE
  8
0
 62
7
  6
CONTINUOUS
 10
361.3637227445
 20
31.2488242184
 11
361.4793477997
 21
31.3133515913
  0
LINE
  8
0
 62
7
  6
CONTINUOUS
 10
360.3809101894
 20
30.6035504109
 11
360.5543476894
 21
30.7003414814
  0
LINE
  8
0
 62
7
  6
CONTINUOUS
 10
359.3980977583
 20
30.5390230296
 11
359.744972717
 21
30.5067593403
  0
LINE
  8
0
 62
7
  6
CONTINUOUS
 10
363.5027853548
 20
30.5390230296
 11
363.7340351343
 21
30.5067593403
  0
LINE
  8
0
 62
7
  6
CONTINUOUS
 10
361.8840352445
 20
31.4101426505
 11
362.1152853548
 21
31.3778789641
  0
LINE
  8
0
 62
7
  6
CONTINUOUS
 10
364.1965353548
 20
31.4101426505
 11
364.4277854651
 21
31.3778789641
  0
LINE
  8
0
 62
7
  6
CONTINUOUS
 10
368.6480977445
 20
31.0552420547
 11
369.6309104651
 21
30.8939236226
  0
LINE
  8
0
 62
7
  6
CONTINUOUS
 10
369.8043479651
 20
30.9907146818
 11
368.8215352445
 21
31.1520331591
  0
LINE
  8
0
 62
7
  6
CONTINUOUS
 10
362.2887228548
 20
31.5069337098
 11
362.1152853548
 21
31.5391973962
  0
LINE
  8
0
 62
7
  6
CONTINUOUS
 10
368.5902854651
 20
30.5712867188
 11
368.7637229651
 21
30.5390230296
  0
LINE
  8
0
 62
7
  6
CONTINUOUS
 10
367.4340352445
 20
31.5069337098
 11
367.2605977445
 21
31.5391973962
  0
LINE
  8
0
 62
7
  6
CONTINUOUS
 10
369.6887227445
 20
31.3778789641
 11
369.8043479651
 21
31.3456152777
  0
LINE
  8
0
 62
7
  6
CONTINUOUS
 10
369.8621602445
 20
30.7648688543
 11
369.8043479651
 21
30.7003414814
  0
LINE
  8
0
 62
7
  6
CONTINUOUS
 10
368.4168479651
 20
31.4424063369
 11
368.3012227445
 21
31.3456152777
  0
LINE
  8
0
 62
7
  6
CONTINUOUS
 10
363.3293478548
 20
31.4746700234
 11
363.2137226343
 21
31.4101426505
  0
LINE
  8
0
 62
7
  6
CONTINUOUS
 10
363.3871601343
 20
31.0875057863
 11
363.2715352445
 21
31.0229783683
  0
LINE
  8
0
 62
7
  6
CONTINUOUS
 10
363.5027853548
 20
30.926187309
 11
363.6184102445
 21
30.9907146818
  0
LINE
  8
0
 62
7
  6
CONTINUOUS
 10
361.0746601894
 20
30.5067593403
 11
361.3637227445
 21
30.5067593403
  0
LINE
  8
0
 62
7
  6
CONTINUOUS
 10
362.4043477445
 20
30.5067593403
 11
362.6934101343
 21
30.5067593403
  0
LINE
  8
0
 62
7
  6
CONTINUOUS
 10
363.7340351343
 20
30.5067593403
 11
364.0809101343
 21
30.5067593403
  0
LINE
  8
0
 62
7
  6
CONTINUOUS
 10
364.716847524
 20
30.5067593403
 11
365.0059102445
 21
30.5067593403
  0
LINE
  8
0
 62
7
  6
CONTINUOUS
 10
365.4684104651
 20
30.5067593403
 11
365.757472524
 21
30.5067593403
  0
LINE
  8
0
 62
7
  6
CONTINUOUS
 10
366.2199727445
 20
30.5067593403
 11
366.5090354651
 21
30.5067593403
  0
LINE
  8
0
 62
7
  6
CONTINUOUS
 10
367.5496604651
 20
30.5067593403
 11
367.838722524
 21
30.5067593403
  0
LINE
  8
0
 62
7
  6
CONTINUOUS
 10
369.1105979651
 20
30.5067593403
 11
369.4574729651
 21
30.5067593403
  0
LINE
  8
0
 62
7
  6
CONTINUOUS
 10
369.4574729651
 20
30.6358140973
 11
369.1105979651
 21
30.6358140973
  0
LINE
  8
0
 62
7
  6
CONTINUOUS
 10
364.0809101343
 20
30.6358140973
 11
363.7340351343
 21
30.6358140973
  0
LINE
  8
0
 62
7
  6
CONTINUOUS
 10
368.5902854651
 20
30.7648688543
 11
368.3012227445
 21
30.7648688543
  0
LINE
  8
0
 62
7
  6
CONTINUOUS
 10
360.6121602997
 20
30.8293962497
 11
360.3230977445
 21
30.8293962497
  0
LINE
  8
0
 62
7
  6
CONTINUOUS
 10
359.6871602721
 20
31.4101426505
 11
360.091847717
 21
31.3778789641
  0
LINE
  8
0
 62
7
  6
CONTINUOUS
 10
360.1496602445
 20
31.5069337098
 11
359.744972717
 21
31.5391973962
  0
LINE
  8
0
 62
7
  6
CONTINUOUS
 10
368.7637229651
 20
30.5390230296
 11
369.1105979651
 21
30.5067593403
  0
LINE
  8
0
 62
7
  6
CONTINUOUS
 10
369.1105979651
 20
30.6358140973
 11
368.7637229651
 21
30.668077795
  0
LINE
  8
0
 62
7
  6
CONTINUOUS
 10
364.543410024
 20
31.5069337098
 11
364.1965353548
 21
31.5391973962
  0
LINE
  8
0
 62
7
  6
CONTINUOUS
 10
369.3418477445
 20
31.4101426505
 11
369.6887227445
 21
31.3778789641
  0
LINE
  8
0
 62
7
  6
CONTINUOUS
 10
369.6887227445
 20
31.5069337098
 11
369.3418477445
 21
31.5391973962
  0
LINE
  8
0
 62
7
  6
CONTINUOUS
 10
367.0293479651
 20
31.4101426505
 11
367.2605977445
 21
31.3778789641
  0
LINE
  8
0
 62
7
  6
CONTINUOUS
 10
369.8621602445
 20
31.4746700234
 11
369.6887227445
 21
31.5069337098
  0
LINE
  8
0
 62
7
  6
CONTINUOUS
 10
370.0355977445
 20
30.6035504109
 11
370.1512223035
 21
30.7003414814
  0
LINE
  8
0
 62
7
  6
CONTINUOUS
 10
364.543410024
 20
30.7971325633
 11
364.369972524
 21
30.7003414814
  0
LINE
  8
0
 62
7
  6
CONTINUOUS
 10
366.624660024
 20
31.4424063369
 11
366.5090354651
 21
31.3778789641
  0
LINE
  8
0
 62
7
  6
CONTINUOUS
 10
366.5090354651
 20
31.2488242184
 11
366.624660024
 21
31.3133515913
  0
LINE
  8
0
 62
7
  6
CONTINUOUS
 10
359.2246602583
 20
31.4746700234
 11
359.0512227376
 21
31.4101426505
  0
LINE
  8
0
 62
7
  6
CONTINUOUS
 10
361.6527851343
 20
31.5069337098
 11
361.4793477997
 21
31.4424063369
  0
LINE
  8
0
 62
7
  6
CONTINUOUS
 10
361.4793477997
 20
31.3133515913
 11
361.6527851343
 21
31.3778789641
  0
LINE
  8
0
 62
7
  6
CONTINUOUS
 10
360.2652852997
 20
30.7326051679
 11
360.091847717
 21
30.668077795
  0
LINE
  8
0
 62
7
  6
CONTINUOUS
 10
369.6887227445
 20
30.668077795
 11
369.4574729651
 21
30.6358140973
  0
LINE
  8
0
 62
7
  6
CONTINUOUS
 10
364.0809101343
 20
30.5067593403
 11
364.369972524
 21
30.5390230296
  0
LINE
  8
0
 62
7
  6
CONTINUOUS
 10
369.4574729651
 20
30.5067593403
 11
369.8043479651
 21
30.5390230296
  0
LINE
  8
0
 62
7
  6
CONTINUOUS
 10
359.744972717
 20
30.5067593403
 11
360.1496602445
 21
30.5390230296
  0
LINE
  8
0
 62
7
  6
CONTINUOUS
 10
360.091847717
 20
30.668077795
 11
359.6871602721
 21
30.6358140973
  0
LINE
  8
0
 62
7
  6
CONTINUOUS
 10
363.9652852445
 20
31.0552420547
 11
364.6012229651
 21
31.0552420547
  0
LINE
  8
0
 62
7
  6
CONTINUOUS
 10
364.6012229651
 20
31.1842968456
 11
363.9652852445
 21
31.1842968456
  0
LINE
  8
0
 62
7
  6
CONTINUOUS
 10
360.3230977445
 20
31.216560532
 11
360.6121602997
 21
31.216560532
  0
LINE
  8
0
 62
7
  6
CONTINUOUS
 10
363.1559103548
 20
31.2810879048
 11
363.4449727445
 21
31.2810879048
  0
LINE
  8
0
 62
7
  6
CONTINUOUS
 10
369.8621602445
 20
31.2810879048
 11
370.1512223035
 21
31.2810879048
  0
LINE
  8
0
 62
7
  6
CONTINUOUS
 10
363.8496603548
 20
31.4101426505
 11
364.1965353548
 21
31.4101426505
  0
LINE
  8
0
 62
7
  6
CONTINUOUS
 10
368.9949727445
 20
31.4101426505
 11
369.3418477445
 21
31.4101426505
  0
LINE
  8
0
 62
7
  6
CONTINUOUS
 10
369.3418477445
 20
31.5391973962
 11
368.9949727445
 21
31.5391973962
  0
LINE
  8
0
 62
7
  6
CONTINUOUS
 10
367.2605977445
 20
31.5391973962
 11
367.0293479651
 21
31.5391973962
  0
LINE
  8
0
 62
7
  6
CONTINUOUS
 10
366.5090354651
 20
31.5391973962
 11
366.2199727445
 21
31.5391973962
  0
LINE
  8
0
 62
7
  6
CONTINUOUS
 10
365.757472524
 20
31.5391973962
 11
365.4684104651
 21
31.5391973962
  0
LINE
  8
0
 62
7
  6
CONTINUOUS
 10
364.1965353548
 20
31.5391973962
 11
363.8496603548
 21
31.5391973962
  0
LINE
  8
0
 62
7
  6
CONTINUOUS
 10
362.1152853548
 20
31.5391973962
 11
361.8840352445
 21
31.5391973962
  0
LINE
  8
0
 62
7
  6
CONTINUOUS
 10
365.4684104651
 20
31.8618343508
 11
365.757472524
 21
31.8618343508
  0
LINE
  8
0
 62
7
  6
CONTINUOUS
 10
365.757472524
 20
32.0231527829
 11
365.4684104651
 21
32.0231527829
  0
LINE
  8
0
 62
7
  6
CONTINUOUS
 10
361.3637227445
 20
32.0231527829
 11
361.0746601894
 21
32.0231527829
  0
LINE
  8
0
 62
7
  6
CONTINUOUS
 10
360.4015045068
 20
32.3100380288
 11
360.8140758554
 21
32.3100380288
  0
LINE
  8
0
 62
7
  6
CONTINUOUS
 10
362.0408487691
 20
32.3100380288
 11
363.4342913921
 21
32.3100380288
  0
LINE
  8
0
 62
7
  6
CONTINUOUS
 10
363.7621602445
 20
32.3100380288
 11
365.1556028675
 21
32.3100380288
  0
LINE
  8
0
 62
7
  6
CONTINUOUS
 10
367.0408487691
 20
32.3100380288
 11
368.4342913921
 21
32.3100380288
  0
LINE
  8
0
 62
7
  6
CONTINUOUS
 10
368.7621602445
 20
32.3100380288
 11
370.1556028675
 21
32.3100380288
  0
LINE
  8
0
 62
7
  6
CONTINUOUS
 10
366.798097524
 20
31.5069337098
 11
366.624660024
 21
31.4424063369
  0
LINE
  8
0
 62
7
  6
CONTINUOUS
 10
364.369972524
 20
30.5390230296
 11
364.543410024
 21
30.6035504109
  0
LINE
  8
0
 62
7
  6
CONTINUOUS
 10
369.8043479651
 20
30.5390230296
 11
370.0355977445
 21
30.6035504109
  0
LINE
  8
0
 62
7
  6
CONTINUOUS
 10
369.8043479651
 20
30.7003414814
 11
369.6887227445
 21
30.668077795
  0
LINE
  8
0
 62
7
  6
CONTINUOUS
 10
368.7637229651
 20
31.3778789641
 11
368.9949727445
 21
31.4101426505
  0
LINE
  8
0
 62
7
  6
CONTINUOUS
 10
366.798097524
 20
31.3778789641
 11
367.0293479651
 21
31.4101426505
  0
LINE
  8
0
 62
7
  6
CONTINUOUS
 10
363.7340351343
 20
31.0229783683
 11
363.9652852445
 21
31.0552420547
  0
LINE
  8
0
 62
7
  6
CONTINUOUS
 10
367.0293479651
 20
31.5391973962
 11
366.798097524
 21
31.5069337098
  0
LINE
  8
0
 62
7
  6
CONTINUOUS
 10
363.6184102445
 20
31.3778789641
 11
363.8496603548
 21
31.4101426505
  0
LINE
  8
0
 62
7
  6
CONTINUOUS
 10
368.9949727445
 20
31.5391973962
 11
368.6480977445
 21
31.5069337098
  0
LINE
  8
0
 62
7
  6
CONTINUOUS
 10
363.9652852445
 20
31.1842968456
 11
363.6184102445
 21
31.1520331591
  0
LINE
  8
0
 62
7
  6
CONTINUOUS
 10
359.744972717
 20
31.5391973962
 11
359.3980977583
 21
31.5069337098
  0
LINE
  8
0
 62
7
  6
CONTINUOUS
 10
363.8496603548
 20
31.5391973962
 11
363.4449727445
 21
31.5069337098
  0
LINE
  8
0
 62
7
  6
CONTINUOUS
 10
361.221176638
 20
33.4575790124
 11
360.565438933
 21
33.4575790124
  0
LINE
  8
0
 62
7
  6
CONTINUOUS
 10
366.624660024
 20
31.3133515913
 11
366.798097524
 21
31.3778789641
  0
LINE
  8
0
 62
7
  6
CONTINUOUS
 10
368.6480977445
 20
31.3456152777
 11
368.7637229651
 21
31.3778789641
  0
LINE
  8
0
 62
7
  6
CONTINUOUS
 10
368.6480977445
 20
31.5069337098
 11
368.4168479651
 21
31.4424063369
  0
LINE
  8
0
 62
7
  6
CONTINUOUS
 10
364.369972524
 20
30.7003414814
 11
364.0809101343
 21
30.6358140973
  0
LINE
  8
0
 62
7
  6
CONTINUOUS
 10
361.6527851343
 20
31.3778789641
 11
361.8840352445
 21
31.4101426505
  0
LINE
  8
0
 62
7
  6
CONTINUOUS
 10
361.8840352445
 20
31.5391973962
 11
361.6527851343
 21
31.5069337098
  0
LINE
  8
0
 62
7
  6
CONTINUOUS
 10
359.4559102445
 20
31.3778789641
 11
359.6871602721
 21
31.4101426505
  0
LINE
  8
0
 62
7
  6
CONTINUOUS
 10
365.9752749986
 20
34.9329888485
 11
366.6310127035
 21
34.9329888485
  0
LINE
  8
0
 62
7
  6
CONTINUOUS
 10
363.6184102445
 20
30.9907146818
 11
363.7340351343
 21
31.0229783683
  0
LINE
  8
0
 62
7
  6
CONTINUOUS
 10
363.6184102445
 20
31.1520331591
 11
363.3871601343
 21
31.0875057863
  0
LINE
  8
0
 62
7
  6
CONTINUOUS
 10
363.5027853548
 20
31.3456152777
 11
363.6184102445
 21
31.3778789641
  0
LINE
  8
0
 62
7
  6
CONTINUOUS
 10
360.1496602445
 20
30.5390230296
 11
360.3809101894
 21
30.6035504109
  0
LINE
  8
0
 62
7
  6
CONTINUOUS
 10
363.4449727445
 20
31.5069337098
 11
363.3293478548
 21
31.4746700234
  0
LINE
  8
0
 62
7
  6
CONTINUOUS
 10
359.3980977583
 20
31.5069337098
 11
359.2246602583
 21
31.4746700234
  0
LINE
  8
0
 62
7
  6
CONTINUOUS
 10
370.1556028675
 20
36.0805298321
 11
368.7621602445
 21
36.0805298321
  0
LINE
  8
0
 62
7
  6
CONTINUOUS
 10
366.7949471298
 20
36.0805298321
 11
366.3823757812
 21
36.0805298321
  0
LINE
  8
0
 62
7
  6
CONTINUOUS
 10
365.1556028675
 20
36.0805298321
 11
363.7621602445
 21
36.0805298321
  0
LINE
  8
0
 62
7
  6
CONTINUOUS
 10
363.4342913921
 20
36.0805298321
 11
362.0408487691
 21
36.0805298321
  0
LINE
  8
0
 62
7
  6
CONTINUOUS
 10
360.1556028675
 20
36.0805298321
 11
358.7621602445
 21
36.0805298321
  0
LINE
  8
0
 62
7
  6
CONTINUOUS
 10
359.3402852307
 20
31.3456152777
 11
359.4559102445
 21
31.3778789641
  0
CIRCLE
  8
0
 62
7
  6
CONTINUOUS
 10
369.458881556
 20
38.4165954059
 40
2.0901639344
  0
ARC
  8
0
 62
7
  6
CONTINUOUS
 10
360.4015045068
 20
33.9493822911
 40
1.6393442623
 50
180.0
 51
270.0
  0
ARC
  8
0
 62
7
  6
CONTINUOUS
 10
366.7949471298
 20
34.4411855698
 40
1.6393442623
 50
0.0
 51
90.0
  0
ARC
  8
0
 62
7
  6
CONTINUOUS
 10
360.8140758554
 20
33.7854478649
 40
1.4754098361
 50
270.0
 51
326.2510114041
  0
ARC
  8
0
 62
7
  6
CONTINUOUS
 10
366.3823757812
 20
34.6051199961
 40
1.4754098361
 50
90.0
 51
146.2510114041
  0
ARC
  8
0
 62
7
  6
CONTINUOUS
 10
361.221176638
 20
34.2772511436
 40
0.8196721311
 50
270.0
 51
360.0
  0
ARC
  8
0
 62
7
  6
CONTINUOUS
 10
365.9752749986
 20
34.1133167174
 40
0.8196721311
 50
90.0
 51
180.0
  0
ARC
  8
0
 62
7
  6
CONTINUOUS
 10
360.565438933
 20
33.867415078
 40
0.4098360656
 50
180.0
 51
270.0
  0
ARC
  8
0
 62
7
  6
CONTINUOUS
 10
366.6310127035
 20
34.5231527829
 40
0.4098360656
 50
0.0
 51
90.0
  0
SOLID
  8
0
 62
7
  6
CONTINUOUS
 10
365.4684104651
 20
31.8618347111
 11
365.4684104651
 21
32.0231531947
 12
365.757472524
 22
31.8618347111
 13
365.757472524
 23
32.0231531947
  0
SOLID
  8
0
 62
7
  6
CONTINUOUS
 10
359.744972717
 20
31.5391977439
 11
360.1496602445
 21
31.5069333244
 12
359.3980977583
 22
31.5069333244
 13
359.3980977583
 23
31.5069333244
  0
SOLID
  8
0
 62
7
  6
CONTINUOUS
 10
359.2246602583
 20
31.4746706537
 11
359.3980977583
 21
31.5069333244
 12
360.1496602445
 22
31.5069333244
 13
360.1496602445
 23
31.5069333244
  0
SOLID
  8
0
 62
7
  6
CONTINUOUS
 10
360.1496602445
 20
31.5069333244
 11
360.3809101894
 21
31.4424063504
 12
359.2246602583
 22
31.4746706537
 13
359.2246602583
 23
31.4746706537
  0
SOLID
  8
0
 62
7
  6
CONTINUOUS
 10
359.0512227376
 20
31.4101419116
 11
359.2246602583
 21
31.4746706537
 12
360.3809101894
 22
31.4424063504
 13
360.3809101894
 23
31.4424063504
  0
SOLID
  8
0
 62
7
  6
CONTINUOUS
 10
359.0512227376
 20
31.4101419116
 11
360.3809101894
 21
31.4424063504
 12
359.6871602721
 22
31.4101419116
 13
359.6871602721
 23
31.4101419116
  0
SOLID
  8
0
 62
7
  6
CONTINUOUS
 10
359.6871602721
 20
31.4101419116
 11
360.3809101894
 21
31.4424063504
 12
360.091847717
 22
31.3778792603
 13
360.091847717
 23
31.3778792603
  0
SOLID
  8
0
 62
7
  6
CONTINUOUS
 10
360.3809101894
 20
31.4424063504
 11
360.5543476894
 21
31.345614957
 12
360.091847717
 22
31.3778792603
 13
360.091847717
 23
31.3778792603
  0
SOLID
  8
0
 62
7
  6
CONTINUOUS
 10
360.2652852997
 20
31.3133521701
 11
360.091847717
 21
31.3778792603
 12
360.5543476894
 22
31.345614957
 13
360.5543476894
 23
31.345614957
  0
SOLID
  8
0
 62
7
  6
CONTINUOUS
 10
360.2652852997
 20
31.3133521701
 11
360.5543476894
 21
31.345614957
 12
360.3230977445
 22
31.2165606992
 13
360.3230977445
 23
31.2165606992
  0
SOLID
  8
0
 62
7
  6
CONTINUOUS
 10
360.5543476894
 20
31.345614957
 11
360.6121602997
 21
31.2165606992
 12
360.3230977445
 22
31.2165606992
 13
360.3230977445
 23
31.2165606992
  0
SOLID
  8
0
 62
7
  6
CONTINUOUS
 10
361.6527851343
 20
31.5069329918
 11
361.8840352445
 21
31.5391972951
 12
362.1152853548
 22
31.5391972951
 13
362.1152853548
 23
31.5391972951
  0
SOLID
  8
0
 62
7
  6
CONTINUOUS
 10
362.1152853548
 20
31.5391972951
 11
362.2887228548
 21
31.5069329918
 12
361.6527851343
 22
31.5069329918
 13
361.6527851343
 23
31.5069329918
  0
SOLID
  8
0
 62
7
  6
CONTINUOUS
 10
361.4793477997
 20
31.4424059016
 11
361.6527851343
 21
31.5069329918
 12
362.2887228548
 22
31.5069329918
 13
362.2887228548
 23
31.5069329918
  0
SOLID
  8
0
 62
7
  6
CONTINUOUS
 10
362.2887228548
 20
31.5069329918
 11
362.4621603548
 21
31.4424059016
 12
361.4793477997
 22
31.4424059016
 13
361.4793477997
 23
31.4424059016
  0
SOLID
  8
0
 62
7
  6
CONTINUOUS
 10
362.4621603548
 20
31.4424059016
 11
361.8840352445
 21
31.4101420472
 12
361.4793477997
 22
31.4424059016
 13
361.4793477997
 23
31.4424059016
  0
SOLID
  8
0
 62
7
  6
CONTINUOUS
 10
361.3637227445
 20
31.3778788115
 11
361.4793477997
 21
31.4424059016
 12
361.8840352445
 22
31.4101420472
 13
361.8840352445
 23
31.4101420472
  0
SOLID
  8
0
 62
7
  6
CONTINUOUS
 10
361.8840352445
 20
31.4101420472
 11
361.6527851343
 21
31.3778788115
 12
361.3637227445
 22
31.3778788115
 13
361.3637227445
 23
31.3778788115
  0
SOLID
  8
0
 62
7
  6
CONTINUOUS
 10
361.8840352445
 20
31.4101420472
 11
362.4621603548
 21
31.4424059016
 12
362.1152853548
 22
31.3778788115
 13
362.1152853548
 23
31.3778788115
  0
SOLID
  8
0
 62
7
  6
CONTINUOUS
 10
362.4621603548
 20
31.4424059016
 11
362.5777852445
 21
31.3778788115
 12
362.1152853548
 22
31.3778788115
 13
362.1152853548
 23
31.3778788115
  0
SOLID
  8
0
 62
7
  6
CONTINUOUS
 10
362.2309102445
 20
31.345614957
 11
362.1152853548
 21
31.3778788115
 12
362.5777852445
 22
31.3778788115
 13
362.5777852445
 23
31.3778788115
  0
SOLID
  8
0
 62
7
  6
CONTINUOUS
 10
362.5777852445
 20
31.3778788115
 11
362.6355978548
 21
31.3133517213
 12
362.2309102445
 22
31.345614957
 13
362.2309102445
 23
31.345614957
  0
SOLID
  8
0
 62
7
  6
CONTINUOUS
 10
362.3465351343
 20
31.2810878668
 11
362.2309102445
 21
31.345614957
 12
362.6355978548
 22
31.3133517213
 13
362.6355978548
 23
31.3133517213
  0
SOLID
  8
0
 62
7
  6
CONTINUOUS
 10
362.3465351343
 20
31.2810878668
 11
362.6355978548
 21
31.3133517213
 12
362.4043477445
 22
31.1520332377
 13
362.4043477445
 23
31.1520332377
  0
SOLID
  8
0
 62
7
  6
CONTINUOUS
 10
362.6355978548
 20
31.3133517213
 11
362.6934101343
 21
31.1520332377
 12
362.4043477445
 22
31.1520332377
 13
362.4043477445
 23
31.1520332377
  0
SOLID
  8
0
 62
7
  6
CONTINUOUS
 10
361.6527851343
 20
31.3778788115
 11
361.4793477997
 21
31.3133517213
 12
361.3637227445
 22
31.3778788115
 13
361.3637227445
 23
31.3778788115
  0
SOLID
  8
0
 62
7
  6
CONTINUOUS
 10
361.4793477997
 20
31.3133517213
 11
361.3637227445
 21
31.2488235635
 12
361.3637227445
 22
31.3778788115
 13
361.3637227445
 23
31.3778788115
  0
SOLID
  8
0
 62
7
  6
CONTINUOUS
 10
361.3637227445
 20
31.2488235635
 11
361.0746601894
 21
30.5067593033
 12
361.3637227445
 22
31.3778788115
 13
361.3637227445
 23
31.3778788115
  0
SOLID
  8
0
 62
7
  6
CONTINUOUS
 10
361.3637227445
 20
31.3778788115
 11
361.0746601894
 21
30.5067593033
 12
361.3637227445
 22
32.0231527459
 13
361.3637227445
 23
32.0231527459
  0
SOLID
  8
0
 62
7
  6
CONTINUOUS
 10
361.0746601894
 20
30.5067593033
 11
361.0746601894
 21
32.0231527459
 12
361.3637227445
 22
32.0231527459
 13
361.3637227445
 23
32.0231527459
  0
SOLID
  8
0
 62
7
  6
CONTINUOUS
 10
361.3637227445
 20
31.2488235635
 11
361.3637227445
 21
30.5067593033
 12
361.0746601894
 22
30.5067593033
 13
361.0746601894
 23
30.5067593033
  0
SOLID
  8
0
 62
7
  6
CONTINUOUS
 10
362.4043477445
 20
30.5067593033
 11
362.4043477445
 21
31.1520332377
 12
362.6934101343
 22
31.1520332377
 13
362.6934101343
 23
31.1520332377
  0
SOLID
  8
0
 62
7
  6
CONTINUOUS
 10
362.6934101343
 20
31.1520332377
 11
362.6934101343
 21
30.5067593033
 12
362.4043477445
 22
30.5067593033
 13
362.4043477445
 23
30.5067593033
  0
SOLID
  8
0
 62
7
  6
CONTINUOUS
 10
363.4449727445
 20
31.506933758
 11
363.8496603548
 21
31.5391977507
 12
364.1965353548
 22
31.5391977507
 13
364.1965353548
 23
31.5391977507
  0
SOLID
  8
0
 62
7
  6
CONTINUOUS
 10
364.1965353548
 20
31.5391977507
 11
364.543410024
 21
31.506933758
 12
363.4449727445
 22
31.506933758
 13
363.4449727445
 23
31.506933758
  0
SOLID
  8
0
 62
7
  6
CONTINUOUS
 10
363.3293478548
 20
31.4746706537
 11
363.4449727445
 21
31.506933758
 12
364.543410024
 22
31.506933758
 13
364.543410024
 23
31.506933758
  0
SOLID
  8
0
 62
7
  6
CONTINUOUS
 10
364.543410024
 20
31.506933758
 11
364.716847524
 21
31.4424063504
 12
363.3293478548
 22
31.4746706537
 13
363.3293478548
 23
31.4746706537
  0
SOLID
  8
0
 62
7
  6
CONTINUOUS
 10
363.2137226343
 20
31.4101417797
 11
363.3293478548
 21
31.4746706537
 12
364.716847524
 22
31.4424063504
 13
364.716847524
 23
31.4424063504
  0
SOLID
  8
0
 62
7
  6
CONTINUOUS
 10
363.2137226343
 20
31.4101417797
 11
364.716847524
 21
31.4424063504
 12
363.8496603548
 22
31.4101417797
 13
363.8496603548
 23
31.4101417797
  0
SOLID
  8
0
 62
7
  6
CONTINUOUS
 10
363.8496603548
 20
31.4101417797
 11
364.716847524
 21
31.4424063504
 12
364.1965353548
 22
31.4101417797
 13
364.1965353548
 23
31.4101417797
  0
SOLID
  8
0
 62
7
  6
CONTINUOUS
 10
364.1965353548
 20
31.4101417797
 11
364.716847524
 21
31.4424063504
 12
364.4277854651
 22
31.3778793357
 13
364.4277854651
 23
31.3778793357
  0
SOLID
  8
0
 62
7
  6
CONTINUOUS
 10
364.716847524
 20
31.4424063504
 11
364.8324727445
 21
31.3778793357
 12
364.4277854651
 22
31.3778793357
 13
364.4277854651
 23
31.3778793357
  0
SOLID
  8
0
 62
7
  6
CONTINUOUS
 10
363.1559103548
 20
31.3456153429
 11
363.2137226343
 21
31.4101417797
 12
363.8496603548
 22
31.4101417797
 13
363.8496603548
 23
31.4101417797
  0
SOLID
  8
0
 62
7
  6
CONTINUOUS
 10
364.543410024
 20
31.3456153429
 11
364.4277854651
 21
31.3778793357
 12
364.8324727445
 22
31.3778793357
 13
364.8324727445
 23
31.3778793357
  0
SOLID
  8
0
 62
7
  6
CONTINUOUS
 10
364.543410024
 20
31.3456153429
 11
364.8324727445
 21
31.3778793357
 12
364.6012229651
 22
31.2810881318
 13
364.6012229651
 23
31.2810881318
  0
SOLID
  8
0
 62
7
  6
CONTINUOUS
 10
364.8324727445
 20
31.3778793357
 11
364.890285024
 21
31.2810881318
 12
364.6012229651
 22
31.2810881318
 13
364.6012229651
 23
31.2810881318
  0
SOLID
  8
0
 62
7
  6
CONTINUOUS
 10
364.6012229651
 20
31.1842964734
 11
364.6012229651
 21
31.2810881318
 12
364.890285024
 22
31.2810881318
 13
364.890285024
 23
31.2810881318
  0
SOLID
  8
0
 62
7
  6
CONTINUOUS
 10
364.6012229651
 20
31.1842964734
 11
364.890285024
 21
31.2810881318
 12
364.6012229651
 22
31.0552422931
 13
364.6012229651
 23
31.0552422931
  0
SOLID
  8
0
 62
7
  6
CONTINUOUS
 10
364.6012229651
 20
31.0552422931
 11
364.890285024
 21
31.2810881318
 12
364.6012229651
 22
30.8616599362
 13
364.6012229651
 23
30.8616599362
  0
SOLID
  8
0
 62
7
  6
CONTINUOUS
 10
364.890285024
 20
31.2810881318
 11
364.890285024
 21
30.7648681127
 12
364.6012229651
 22
30.8616599362
 13
364.6012229651
 23
30.8616599362
  0
SOLID
  8
0
 62
7
  6
CONTINUOUS
 10
366.798097524
 20
31.5069339419
 11
367.0293479651
 21
31.5391976292
 12
367.2605977445
 22
31.5391976292
 13
367.2605977445
 23
31.5391976292
  0
SOLID
  8
0
 62
7
  6
CONTINUOUS
 10
367.2605977445
 20
31.5391976292
 11
367.4340352445
 21
31.5069339419
 12
366.798097524
 22
31.5069339419
 13
366.798097524
 23
31.5069339419
  0
SOLID
  8
0
 62
7
  6
CONTINUOUS
 10
366.624660024
 20
31.4424065674
 11
366.798097524
 21
31.5069339419
 12
367.4340352445
 22
31.5069339419
 13
367.4340352445
 23
31.5069339419
  0
SOLID
  8
0
 62
7
  6
CONTINUOUS
 10
367.4340352445
 20
31.5069339419
 11
367.6074727445
 21
31.4424065674
 12
366.624660024
 22
31.4424065674
 13
366.624660024
 23
31.4424065674
  0
SOLID
  8
0
 62
7
  6
CONTINUOUS
 10
367.6074727445
 20
31.4424065674
 11
367.0293479651
 21
31.4101420472
 12
366.624660024
 22
31.4424065674
 13
366.624660024
 23
31.4424065674
  0
SOLID
  8
0
 62
7
  6
CONTINUOUS
 10
366.5090354651
 20
31.377879193
 11
366.624660024
 21
31.4424065674
 12
367.0293479651
 22
31.4101420472
 13
367.0293479651
 23
31.4101420472
  0
SOLID
  8
0
 62
7
  6
CONTINUOUS
 10
367.0293479651
 20
31.4101420472
 11
366.798097524
 21
31.377879193
 12
366.5090354651
 22
31.377879193
 13
366.5090354651
 23
31.377879193
  0
SOLID
  8
0
 62
7
  6
CONTINUOUS
 10
367.0293479651
 20
31.4101420472
 11
367.6074727445
 21
31.4424065674
 12
367.2605977445
 22
31.377879193
 13
367.2605977445
 23
31.377879193
  0
SOLID
  8
0
 62
7
  6
CONTINUOUS
 10
367.6074727445
 20
31.4424065674
 11
367.7230979651
 21
31.377879193
 12
367.2605977445
 22
31.377879193
 13
367.2605977445
 23
31.377879193
  0
SOLID
  8
0
 62
7
  6
CONTINUOUS
 10
367.3762229651
 20
31.345614957
 11
367.2605977445
 21
31.377879193
 12
367.7230979651
 22
31.377879193
 13
367.7230979651
 23
31.377879193
  0
SOLID
  8
0
 62
7
  6
CONTINUOUS
 10
367.3762229651
 20
31.345614957
 11
367.7230979651
 21
31.377879193
 12
367.491847524
 22
31.2810881312
 13
367.491847524
 23
31.2810881312
  0
SOLID
  8
0
 62
7
  6
CONTINUOUS
 10
367.7230979651
 20
31.377879193
 11
367.7809102445
 21
31.2810881312
 12
367.491847524
 22
31.2810881312
 13
367.491847524
 23
31.2810881312
  0
SOLID
  8
0
 62
7
  6
CONTINUOUS
 10
367.5496604651
 20
31.119769695
 11
367.491847524
 21
31.2810881312
 12
367.7809102445
 22
31.2810881312
 13
367.7809102445
 23
31.2810881312
  0
SOLID
  8
0
 62
7
  6
CONTINUOUS
 10
367.7809102445
 20
31.2810881312
 11
367.838722524
 21
31.119769695
 12
367.5496604651
 22
31.119769695
 13
367.5496604651
 23
31.119769695
  0
SOLID
  8
0
 62
7
  6
CONTINUOUS
 10
366.798097524
 20
31.377879193
 11
366.624660024
 21
31.3133521701
 12
366.5090354651
 22
31.377879193
 13
366.5090354651
 23
31.377879193
  0
SOLID
  8
0
 62
7
  6
CONTINUOUS
 10
366.624660024
 20
31.3133521701
 11
366.5090354651
 21
31.2488235635
 12
366.5090354651
 22
31.377879193
 13
366.5090354651
 23
31.377879193
  0
SOLID
  8
0
 62
7
  6
CONTINUOUS
 10
366.5090354651
 20
31.2488235635
 11
366.2199727445
 21
30.5067596374
 12
366.5090354651
 22
31.377879193
 13
366.5090354651
 23
31.377879193
  0
SOLID
  8
0
 62
7
  6
CONTINUOUS
 10
366.5090354651
 20
31.377879193
 11
366.2199727445
 21
30.5067596374
 12
366.5090354651
 22
31.5391976292
 13
366.5090354651
 23
31.5391976292
  0
SOLID
  8
0
 62
7
  6
CONTINUOUS
 10
366.2199727445
 20
30.5067596374
 11
366.2199727445
 21
31.5391976292
 12
366.5090354651
 22
31.5391976292
 13
366.5090354651
 23
31.5391976292
  0
SOLID
  8
0
 62
7
  6
CONTINUOUS
 10
366.5090354651
 20
31.2488235635
 11
366.5090354651
 21
30.5067596374
 12
366.2199727445
 22
30.5067596374
 13
366.2199727445
 23
30.5067596374
  0
SOLID
  8
0
 62
7
  6
CONTINUOUS
 10
367.5496604651
 20
30.5067596374
 11
367.5496604651
 21
31.119769695
 12
367.838722524
 22
31.119769695
 13
367.838722524
 23
31.119769695
  0
SOLID
  8
0
 62
7
  6
CONTINUOUS
 10
367.838722524
 20
31.119769695
 11
367.838722524
 21
30.5067596374
 12
367.5496604651
 22
30.5067596374
 13
367.5496604651
 23
30.5067596374
  0
SOLID
  8
0
 62
7
  6
CONTINUOUS
 10
368.6480977445
 20
31.5069334157
 11
368.9949727445
 21
31.539197762
 12
369.3418477445
 22
31.539197762
 13
369.3418477445
 23
31.539197762
  0
SOLID
  8
0
 62
7
  6
CONTINUOUS
 10
369.3418477445
 20
31.539197762
 11
369.6887227445
 21
31.5069334157
 12
368.6480977445
 22
31.5069334157
 13
368.6480977445
 23
31.5069334157
  0
SOLID
  8
0
 62
7
  6
CONTINUOUS
 10
368.4168479651
 20
31.4424063504
 11
368.6480977445
 21
31.5069334157
 12
369.6887227445
 22
31.5069334157
 13
369.6887227445
 23
31.5069334157
  0
SOLID
  8
0
 62
7
  6
CONTINUOUS
 10
368.4168479651
 20
31.4424063504
 11
369.6887227445
 21
31.5069334406
 12
369.8621602445
 22
31.4746706537
 13
369.8621602445
 23
31.4746706537
  0
SOLID
  8
0
 62
7
  6
CONTINUOUS
 10
368.4168479651
 20
31.4424063504
 11
369.8621602445
 21
31.4746706537
 12
368.9949727445
 22
31.4101421267
 13
368.9949727445
 23
31.4101421267
  0
SOLID
  8
0
 62
7
  6
CONTINUOUS
 10
368.9949727445
 20
31.4101421267
 11
369.8621602445
 21
31.4746706537
 12
369.3418477445
 22
31.4101421267
 13
369.3418477445
 23
31.4101421267
  0
SOLID
  8
0
 62
7
  6
CONTINUOUS
 10
369.8621602445
 20
31.4746706537
 11
370.0355977445
 21
31.4101421267
 12
369.3418477445
 22
31.4101421267
 13
369.3418477445
 23
31.4101421267
  0
SOLID
  8
0
 62
7
  6
CONTINUOUS
 10
369.6887227445
 20
31.3778792603
 11
369.3418477445
 21
31.4101421267
 12
370.0355977445
 22
31.4101421267
 13
370.0355977445
 23
31.4101421267
  0
SOLID
  8
0
 62
7
  6
CONTINUOUS
 10
368.3012227445
 20
31.3456148845
 11
368.4168479651
 21
31.4424063504
 12
368.9949727445
 22
31.4101421267
 13
368.9949727445
 23
31.4101421267
  0
SOLID
  8
0
 62
7
  6
CONTINUOUS
 10
369.6887227445
 20
31.3778792603
 11
370.0355977445
 21
31.4101421267
 12
369.8043479651
 22
31.3456148845
 13
369.8043479651
 23
31.3456148845
  0
SOLID
  8
0
 62
7
  6
CONTINUOUS
 10
369.8043479651
 20
31.3456148845
 11
370.0355977445
 21
31.4101421267
 12
369.8621602445
 22
31.281087868
 13
369.8621602445
 23
31.281087868
  0
SOLID
  8
0
 62
7
  6
CONTINUOUS
 10
370.0355977445
 20
31.4101421267
 11
370.1512223035
 21
31.281087868
 12
369.8621602445
 22
31.281087868
 13
369.8621602445
 23
31.281087868
  0
SOLID
  8
0
 62
7
  6
CONTINUOUS
 10
359.4559102445
 20
31.3778792603
 11
358.9355977445
 21
31.3456148963
 12
359.6871602721
 22
31.4101421155
 13
359.6871602721
 23
31.4101421155
  0
SOLID
  8
0
 62
7
  6
CONTINUOUS
 10
358.9355977445
 20
31.3456148963
 11
359.0512227376
 21
31.4101421155
 12
359.6871602721
 22
31.4101421155
 13
359.6871602721
 23
31.4101421155
  0
SOLID
  8
0
 62
7
  6
CONTINUOUS
 10
359.4559102445
 20
31.3778792603
 11
359.3402852307
 21
31.3456148963
 12
358.9355977445
 22
31.3456148963
 13
358.9355977445
 23
31.3456148963
  0
SOLID
  8
0
 62
7
  6
CONTINUOUS
 10
358.8199727462
 20
31.2165607767
 11
358.9355977445
 21
31.3456148963
 12
359.3402852307
 22
31.3456148963
 13
359.3402852307
 23
31.3456148963
  0
SOLID
  8
0
 62
7
  6
CONTINUOUS
 10
363.1559103548
 20
31.3456149608
 11
363.8496603548
 21
31.4101420472
 12
363.6184102445
 22
31.3778792603
 13
363.6184102445
 23
31.3778792603
  0
SOLID
  8
0
 62
7
  6
CONTINUOUS
 10
363.6184102445
 20
31.3778792603
 11
363.5027853548
 21
31.3456149608
 12
363.1559103548
 22
31.3456149608
 13
363.1559103548
 23
31.3456149608
  0
SOLID
  8
0
 62
7
  6
CONTINUOUS
 10
363.1559103548
 20
31.2810878707
 11
363.1559103548
 21
31.3456149608
 12
363.5027853548
 22
31.3456149608
 13
363.5027853548
 23
31.3456149608
  0
SOLID
  8
0
 62
7
  6
CONTINUOUS
 10
363.5027853548
 20
31.3456149608
 11
363.4449727445
 21
31.2810878707
 12
363.1559103548
 22
31.2810878707
 13
363.1559103548
 23
31.2810878707
  0
SOLID
  8
0
 62
7
  6
CONTINUOUS
 10
368.3012227445
 20
31.3456149608
 11
368.9949727445
 21
31.4101420472
 12
368.7637229651
 22
31.3778792603
 13
368.7637229651
 23
31.3778792603
  0
SOLID
  8
0
 62
7
  6
CONTINUOUS
 10
368.7637229651
 20
31.3778792603
 11
368.6480977445
 21
31.3456149608
 12
368.3012227445
 22
31.3456149608
 13
368.3012227445
 23
31.3456149608
  0
SOLID
  8
0
 62
7
  6
CONTINUOUS
 10
368.3012227445
 20
31.2810878707
 11
368.3012227445
 21
31.3456149608
 12
368.6480977445
 22
31.3456149608
 13
368.6480977445
 23
31.3456149608
  0
SOLID
  8
0
 62
7
  6
CONTINUOUS
 10
368.6480977445
 20
31.3456149608
 11
368.5902854651
 21
31.2810878707
 12
368.3012227445
 22
31.2810878707
 13
368.3012227445
 23
31.2810878707
  0
SOLID
  8
0
 62
7
  6
CONTINUOUS
 10
368.4168479651
 20
31.1520336865
 11
368.3012227445
 21
31.2810878707
 12
368.5902854651
 22
31.2810878707
 13
368.5902854651
 23
31.2810878707
  0
SOLID
  8
0
 62
7
  6
CONTINUOUS
 10
358.8199727462
 20
31.2165607767
 11
359.3402852307
 21
31.345614957
 12
359.1668477307
 22
31.2488235635
 13
359.1668477307
 23
31.2488235635
  0
SOLID
  8
0
 62
7
  6
CONTINUOUS
 10
359.1668477307
 20
31.2488235635
 11
359.1090352445
 21
31.1842964734
 12
358.8199727462
 22
31.2165607767
 13
358.8199727462
 23
31.2165607767
  0
SOLID
  8
0
 62
7
  6
CONTINUOUS
 10
358.7621602445
 20
31.0229779898
 11
358.8199727462
 21
31.2165607767
 12
359.1090352445
 22
31.1842964734
 13
359.1090352445
 23
31.1842964734
  0
SOLID
  8
0
 62
7
  6
CONTINUOUS
 10
363.6184102445
 20
31.1520336865
 11
363.9652852445
 21
31.1842964611
 12
364.6012229651
 22
31.1842964611
 13
364.6012229651
 23
31.1842964611
  0
SOLID
  8
0
 62
7
  6
CONTINUOUS
 10
363.6184102445
 20
31.1520336865
 11
364.6012229651
 21
31.1842964611
 12
363.3871601343
 22
31.0875057863
 13
363.3871601343
 23
31.0875057863
  0
SOLID
  8
0
 62
7
  6
CONTINUOUS
 10
363.3871601343
 20
31.0875057863
 11
364.6012229651
 21
31.1842964611
 12
363.9652852445
 22
31.0552422808
 13
363.9652852445
 23
31.0552422808
  0
SOLID
  8
0
 62
7
  6
CONTINUOUS
 10
364.6012229651
 20
31.1842964611
 11
364.6012229651
 21
31.0552422808
 12
363.9652852445
 22
31.0552422808
 13
363.9652852445
 23
31.0552422808
  0
SOLID
  8
0
 62
7
  6
CONTINUOUS
 10
368.4168479651
 20
31.1520338754
 11
368.5902854651
 21
31.2810878668
 12
368.6480977445
 22
31.2165607767
 13
368.6480977445
 23
31.2165607767
  0
SOLID
  8
0
 62
7
  6
CONTINUOUS
 10
368.6480977445
 20
31.2165607767
 11
368.8215352445
 21
31.1520338754
 12
368.4168479651
 22
31.1520338754
 13
368.4168479651
 23
31.1520338754
  0
SOLID
  8
0
 62
7
  6
CONTINUOUS
 10
368.6480977445
 20
31.0552422931
 11
368.4168479651
 21
31.1520338754
 12
368.8215352445
 22
31.1520338754
 13
368.8215352445
 23
31.1520338754
  0
SOLID
  8
0
 62
7
  6
CONTINUOUS
 10
368.8215352445
 20
31.1520338754
 11
369.8043479651
 21
30.9907152029
 12
368.6480977445
 22
31.0552422931
 13
368.6480977445
 23
31.0552422931
  0
SOLID
  8
0
 62
7
  6
CONTINUOUS
 10
369.6309104651
 20
30.8939239876
 11
368.6480977445
 21
31.0552422931
 12
369.8043479651
 22
30.9907152029
 13
369.8043479651
 23
30.9907152029
  0
SOLID
  8
0
 62
7
  6
CONTINUOUS
 10
369.8043479651
 20
30.9907152029
 11
370.0355977445
 21
30.8939239876
 12
369.6309104651
 22
30.8939239876
 13
369.6309104651
 23
30.8939239876
  0
SOLID
  8
0
 62
7
  6
CONTINUOUS
 10
369.8043479651
 20
30.8293967193
 11
369.6309104651
 21
30.8939239876
 12
370.0355977445
 22
30.8939239876
 13
370.0355977445
 23
30.8939239876
  0
SOLID
  8
0
 62
7
  6
CONTINUOUS
 10
369.8043479651
 20
30.8293967193
 11
370.0355977445
 21
30.8939239876
 12
369.8621602445
 22
30.7648682694
 13
369.8621602445
 23
30.7648682694
  0
SOLID
  8
0
 62
7
  6
CONTINUOUS
 10
370.0355977445
 20
30.8939239876
 11
370.1512223035
 21
30.7648682694
 12
369.8621602445
 22
30.7648682694
 13
369.8621602445
 23
30.7648682694
  0
SOLID
  8
0
 62
7
  6
CONTINUOUS
 10
369.8043479651
 20
30.7003411846
 11
369.8621602445
 21
30.7648682694
 12
370.1512223035
 22
30.7648682694
 13
370.1512223035
 23
30.7648682694
  0
SOLID
  8
0
 62
7
  6
CONTINUOUS
 10
370.1512223035
 20
30.7648682694
 11
370.1512223035
 21
30.7003411846
 12
369.8043479651
 22
30.7003411846
 13
369.8043479651
 23
30.7003411846
  0
SOLID
  8
0
 62
7
  6
CONTINUOUS
 10
369.6887227445
 20
30.6680782357
 11
369.8043479651
 21
30.7003411846
 12
370.1512223035
 22
30.7003411846
 13
370.1512223035
 23
30.7003411846
  0
SOLID
  8
0
 62
7
  6
CONTINUOUS
 10
369.6887227445
 20
30.6680782357
 11
370.1512223035
 21
30.7003411846
 12
369.4574729651
 22
30.6358140998
 13
369.4574729651
 23
30.6358140998
  0
SOLID
  8
0
 62
7
  6
CONTINUOUS
 10
370.1512223035
 20
30.7003411846
 11
370.0355977445
 21
30.6035511455
 12
369.4574729651
 22
30.6358140998
 13
369.4574729651
 23
30.6358140998
  0
SOLID
  8
0
 62
7
  6
CONTINUOUS
 10
370.0355977445
 20
30.6035511455
 11
368.5902854651
 21
30.5712868422
 12
369.4574729651
 22
30.6358140998
 13
369.4574729651
 23
30.6358140998
  0
SOLID
  8
0
 62
7
  6
CONTINUOUS
 10
369.4574729651
 20
30.6358140998
 11
368.5902854651
 21
30.5712868422
 12
369.1105979651
 22
30.6358140998
 13
369.1105979651
 23
30.6358140998
  0
SOLID
  8
0
 62
7
  6
CONTINUOUS
 10
368.5902854651
 20
30.5712868422
 11
368.4168479651
 21
30.6358140998
 12
369.1105979651
 22
30.6358140998
 13
369.1105979651
 23
30.6358140998
  0
SOLID
  8
0
 62
7
  6
CONTINUOUS
 10
368.5902854651
 20
30.5712868422
 11
370.0355977445
 21
30.6035511455
 12
368.7637229651
 22
30.5390223111
 13
368.7637229651
 23
30.5390223111
  0
SOLID
  8
0
 62
7
  6
CONTINUOUS
 10
370.0355977445
 20
30.6035511455
 11
369.8043479651
 21
30.5390223111
 12
368.7637229651
 22
30.5390223111
 13
368.7637229651
 23
30.5390223111
  0
SOLID
  8
0
 62
7
  6
CONTINUOUS
 10
369.1105979651
 20
30.5067599302
 11
368.7637229651
 21
30.5390223111
 12
369.8043479651
 22
30.5390223111
 13
369.8043479651
 23
30.5390223111
  0
SOLID
  8
0
 62
7
  6
CONTINUOUS
 10
369.8043479651
 20
30.5390223111
 11
369.4574729651
 21
30.5067599302
 12
369.1105979651
 22
30.5067599302
 13
369.1105979651
 23
30.5067599302
  0
SOLID
  8
0
 62
7
  6
CONTINUOUS
 10
358.7621602445
 20
31.0229779898
 11
359.1090352445
 21
31.1842964734
 12
359.0512227376
 22
31.0552422931
 13
359.0512227376
 23
31.0552422931
  0
SOLID
  8
0
 62
7
  6
CONTINUOUS
 10
359.0512227376
 20
31.0552422931
 11
359.0512227376
 21
30.9584509954
 12
358.7621602445
 22
31.0229779898
 13
358.7621602445
 23
31.0229779898
  0
SOLID
  8
0
 62
7
  6
CONTINUOUS
 10
358.8199727462
 20
30.8293967193
 11
358.7621602445
 21
31.0229779898
 12
359.0512227376
 22
30.9584509954
 13
359.0512227376
 23
30.9584509954
  0
SOLID
  8
0
 62
7
  6
CONTINUOUS
 10
359.0512227376
 20
30.9584509954
 11
359.1668477307
 21
30.797132416
 12
358.8199727462
 22
30.8293967193
 13
358.8199727462
 23
30.8293967193
  0
SOLID
  8
0
 62
7
  6
CONTINUOUS
 10
358.9355977445
 20
30.7003413087
 11
358.8199727462
 21
30.8293967193
 12
359.1668477307
 22
30.797132416
 13
359.1668477307
 23
30.797132416
  0
SOLID
  8
0
 62
7
  6
CONTINUOUS
 10
359.1668477307
 20
30.797132416
 11
359.3402852307
 21
30.7003413087
 12
358.9355977445
 22
30.7003413087
 13
358.9355977445
 23
30.7003413087
  0
SOLID
  8
0
 62
7
  6
CONTINUOUS
 10
359.0512227376
 20
30.6358140759
 11
358.9355977445
 21
30.7003413087
 12
359.3402852307
 22
30.7003413087
 13
359.3402852307
 23
30.7003413087
  0
SOLID
  8
0
 62
7
  6
CONTINUOUS
 10
359.3402852307
 20
30.7003413087
 11
359.6871602721
 21
30.6358140759
 12
359.0512227376
 22
30.6358140759
 13
359.0512227376
 23
30.6358140759
  0
SOLID
  8
0
 62
7
  6
CONTINUOUS
 10
359.2246602583
 20
30.5712868422
 11
359.0512227376
 21
30.6358140759
 12
359.6871602721
 22
30.6358140759
 13
359.6871602721
 23
30.6358140759
  0
SOLID
  8
0
 62
7
  6
CONTINUOUS
 10
363.2715352445
 20
31.0229779808
 11
363.3871601343
 21
31.0875057863
 12
363.9652852445
 22
31.0552422931
 13
363.9652852445
 23
31.0552422931
  0
SOLID
  8
0
 62
7
  6
CONTINUOUS
 10
363.9652852445
 20
31.0552422931
 11
363.7340351343
 21
31.0229779808
 12
363.2715352445
 22
31.0229779808
 13
363.2715352445
 23
31.0229779808
  0
SOLID
  8
0
 62
7
  6
CONTINUOUS
 10
363.1559103548
 20
30.8939238094
 11
363.2715352445
 21
31.0229779808
 12
363.7340351343
 22
31.0229779808
 13
363.7340351343
 23
31.0229779808
  0
SOLID
  8
0
 62
7
  6
CONTINUOUS
 10
363.5027853548
 20
30.926187309
 11
363.1559103548
 21
30.8939238094
 12
363.6184102445
 22
30.9907152029
 13
363.6184102445
 23
30.9907152029
  0
SOLID
  8
0
 62
7
  6
CONTINUOUS
 10
363.1559103548
 20
30.8939238094
 11
363.7340351343
 21
31.0229779898
 12
363.6184102445
 22
30.9907152029
 13
363.6184102445
 23
30.9907152029
  0
SOLID
  8
0
 62
7
  6
CONTINUOUS
 10
363.5027853548
 20
30.926187309
 11
363.4449727445
 21
30.8293967193
 12
363.1559103548
 22
30.8939238094
 13
363.1559103548
 23
30.8939238094
  0
SOLID
  8
0
 62
7
  6
CONTINUOUS
 10
363.1559103548
 20
30.797132416
 11
363.1559103548
 21
30.8939238094
 12
363.4449727445
 22
30.8293967193
 13
363.4449727445
 23
30.8293967193
  0
SOLID
  8
0
 62
7
  6
CONTINUOUS
 10
363.4449727445
 20
30.8293967193
 11
363.4449727445
 21
30.7648681127
 12
363.1559103548
 22
30.797132416
 13
363.1559103548
 23
30.797132416
  0
SOLID
  8
0
 62
7
  6
CONTINUOUS
 10
363.2137226343
 20
30.6680782357
 11
363.1559103548
 21
30.797132416
 12
363.4449727445
 22
30.7648681127
 13
363.4449727445
 23
30.7648681127
  0
SOLID
  8
0
 62
7
  6
CONTINUOUS
 10
364.6012229651
 20
30.8616599362
 11
364.890285024
 21
30.7648681127
 12
364.543410024
 22
30.797132416
 13
364.543410024
 23
30.797132416
  0
SOLID
  8
0
 62
7
  6
CONTINUOUS
 10
364.369972524
 20
30.7003410226
 11
364.543410024
 21
30.797132416
 12
364.890285024
 22
30.7648681127
 13
364.890285024
 23
30.7648681127
  0
SOLID
  8
0
 62
7
  6
CONTINUOUS
 10
364.369972524
 20
30.7003410226
 11
364.890285024
 21
30.7648681127
 12
364.6012229651
 22
30.6680782357
 13
364.6012229651
 23
30.6680782357
  0
SOLID
  8
0
 62
7
  6
CONTINUOUS
 10
364.890285024
 20
30.7648681127
 11
364.9480979651
 21
30.6035511455
 12
364.6012229651
 22
30.6680782357
 13
364.6012229651
 23
30.6680782357
  0
SOLID
  8
0
 62
7
  6
CONTINUOUS
 10
364.6590352445
 20
30.5712868422
 11
364.6012229651
 21
30.6680782357
 12
364.9480979651
 22
30.6035511455
 13
364.9480979651
 23
30.6035511455
  0
SOLID
  8
0
 62
7
  6
CONTINUOUS
 10
364.6590352445
 20
30.5712868422
 11
364.9480979651
 21
30.6035511455
 12
364.716847524
 22
30.5067598731
 13
364.716847524
 23
30.5067598731
  0
SOLID
  8
0
 62
7
  6
CONTINUOUS
 10
364.9480979651
 20
30.6035511455
 11
365.0059102445
 21
30.5067598731
 12
364.716847524
 22
30.5067598731
 13
364.716847524
 23
30.5067598731
  0
SOLID
  8
0
 62
7
  6
CONTINUOUS
 10
360.2652852997
 20
30.7326051679
 11
360.3230977445
 21
30.8293966612
 12
360.6121602997
 22
30.8293966612
 13
360.6121602997
 23
30.8293966612
  0
SOLID
  8
0
 62
7
  6
CONTINUOUS
 10
360.6121602997
 20
30.8293966612
 11
360.5543476894
 21
30.7003410226
 12
360.2652852997
 22
30.7326051679
 13
360.2652852997
 23
30.7326051679
  0
SOLID
  8
0
 62
7
  6
CONTINUOUS
 10
360.091847717
 20
30.6680782357
 11
360.2652852997
 21
30.7326051679
 12
360.5543476894
 22
30.7003410226
 13
360.5543476894
 23
30.7003410226
  0
SOLID
  8
0
 62
7
  6
CONTINUOUS
 10
360.091847717
 20
30.6680782357
 11
360.5543476894
 21
30.7003410226
 12
359.6871602721
 22
30.6358139324
 13
359.6871602721
 23
30.6358139324
  0
SOLID
  8
0
 62
7
  6
CONTINUOUS
 10
360.5543476894
 20
30.7003410226
 11
360.3809101894
 21
30.6035511455
 12
359.6871602721
 22
30.6358139324
 13
359.6871602721
 23
30.6358139324
  0
SOLID
  8
0
 62
7
  6
CONTINUOUS
 10
359.2246602583
 20
30.5712868422
 11
359.6871602721
 21
30.6358139324
 12
360.3809101894
 22
30.6035511455
 13
360.3809101894
 23
30.6035511455
  0
SOLID
  8
0
 62
7
  6
CONTINUOUS
 10
359.2246602583
 20
30.5712868422
 11
360.3809101894
 21
30.6035511455
 12
359.3980977583
 22
30.5390224228
 13
359.3980977583
 23
30.5390224228
  0
SOLID
  8
0
 62
7
  6
CONTINUOUS
 10
360.3809101894
 20
30.6035511455
 11
360.1496602445
 21
30.5390224228
 12
359.3980977583
 22
30.5390224228
 13
359.3980977583
 23
30.5390224228
  0
SOLID
  8
0
 62
7
  6
CONTINUOUS
 10
359.744972717
 20
30.5067597521
 11
359.3980977583
 21
30.5390224228
 12
360.1496602445
 22
30.5390224228
 13
360.1496602445
 23
30.5390224228
  0
SOLID
  8
0
 62
7
  6
CONTINUOUS
 10
363.2137226343
 20
30.6680782357
 11
363.4449727445
 21
30.7648681127
 12
363.5027853548
 22
30.7003410226
 13
363.5027853548
 23
30.7003410226
  0
SOLID
  8
0
 62
7
  6
CONTINUOUS
 10
363.5027853548
 20
30.7003410226
 11
363.7340351343
 21
30.6358139324
 12
363.2137226343
 22
30.6680782357
 13
363.2137226343
 23
30.6680782357
  0
SOLID
  8
0
 62
7
  6
CONTINUOUS
 10
363.3871601343
 20
30.5712868422
 11
363.2137226343
 21
30.6680782357
 12
363.7340351343
 22
30.6358139324
 13
363.7340351343
 23
30.6358139324
  0
SOLID
  8
0
 62
7
  6
CONTINUOUS
 10
364.0809101343
 20
30.6358139363
 11
364.369972524
 21
30.7003410226
 12
364.6012229651
 22
30.6680782357
 13
364.6012229651
 23
30.6680782357
  0
SOLID
  8
0
 62
7
  6
CONTINUOUS
 10
364.6012229651
 20
30.6680782357
 11
364.543410024
 21
30.6035511455
 12
364.0809101343
 22
30.6358139363
 13
364.0809101343
 23
30.6358139363
  0
SOLID
  8
0
 62
7
  6
CONTINUOUS
 10
364.543410024
 20
30.6035511455
 11
363.3871601343
 21
30.5712868422
 12
364.0809101343
 22
30.6358139363
 13
364.0809101343
 23
30.6358139363
  0
SOLID
  8
0
 62
7
  6
CONTINUOUS
 10
363.3871601343
 20
30.5712868422
 11
363.7340351343
 21
30.6358139363
 12
364.0809101343
 22
30.6358139363
 13
364.0809101343
 23
30.6358139363
  0
SOLID
  8
0
 62
7
  6
CONTINUOUS
 10
363.3871601343
 20
30.5712868422
 11
364.543410024
 21
30.6035511455
 12
363.5027853548
 22
30.5390225267
 13
363.5027853548
 23
30.5390225267
  0
SOLID
  8
0
 62
7
  6
CONTINUOUS
 10
364.543410024
 20
30.6035511455
 11
364.369972524
 21
30.5390225267
 12
363.5027853548
 22
30.5390225267
 13
363.5027853548
 23
30.5390225267
  0
SOLID
  8
0
 62
7
  6
CONTINUOUS
 10
363.7340351343
 20
30.5067596914
 11
363.5027853548
 21
30.5390225267
 12
364.369972524
 22
30.5390225267
 13
364.369972524
 23
30.5390225267
  0
SOLID
  8
0
 62
7
  6
CONTINUOUS
 10
364.369972524
 20
30.5390225267
 11
364.0809101343
 21
30.5067596914
 12
363.7340351343
 22
30.5067596914
 13
363.7340351343
 23
30.5067596914
  0
SOLID
  8
0
 62
7
  6
CONTINUOUS
 10
368.7637229651
 20
30.6680782357
 11
368.4168479651
 21
30.6358138717
 12
368.6480977445
 22
30.7003410226
 13
368.6480977445
 23
30.7003410226
  0
SOLID
  8
0
 62
7
  6
CONTINUOUS
 10
368.6480977445
 20
30.7003410226
 11
368.4168479651
 21
30.6358138717
 12
368.5902854651
 22
30.7648680521
 13
368.5902854651
 23
30.7648680521
  0
SOLID
  8
0
 62
7
  6
CONTINUOUS
 10
368.4168479651
 20
30.6358138717
 11
368.3012227445
 21
30.7648680521
 12
368.5902854651
 22
30.7648680521
 13
368.5902854651
 23
30.7648680521
  0
SOLID
  8
0
 62
7
  6
CONTINUOUS
 10
368.7637229651
 20
30.6680782357
 11
369.1105979651
 21
30.6358138717
 12
368.4168479651
 22
30.6358138717
 13
368.4168479651
 23
30.6358138717
  0
SOLID
  8
0
 62
7
  6
CONTINUOUS
 10
365.4684104651
 20
30.5067597521
 11
365.4684104651
 21
31.5391977439
 12
365.757472524
 22
30.5067597521
 13
365.757472524
 23
31.5391977439
  0
ENDBLK
  8
0
  6
BYBLOCK
 62
0
  0
BLOCK
  8
0
 62
2
  6
CONTINUOUS
  2
SYMBOL_0_BL0
 70
64
 10
240.8592468615
 20
19.762288695
  0
TEXT
  8
0
 62
7
  6
CONTINUOUS
 10
227.1239507038
 20
19.1357028027
  7
TEXTSTYLE_3
 40
2.7338706658
  1
Ammeraal Beltech
 41
1.0
 51
15.0
 72
0
  0
TEXT
  8
0
 62
7
  6
CONTINUOUS
 10
237.9247515296
 20
16.8621661299
  7
TEXTSTYLE_4
 40
1.0935482663
  1
Innovation & Service in Belting
 41
1.0
 72
0
  0
LINE
  8
0
 62
7
  6
CONTINUOUS
 10
221.0994100525
 20
19.9022961113
 11
221.8775620458
 21
23.5632134089
  0
LINE
  8
0
 62
7
  6
CONTINUOUS
 10
231.9727303357
 20
27.2266073205
 11
222.3653797889
 21
24.1049898993
  0
LINE
  8
0
 62
7
  6
CONTINUOUS
 10
221.3246933848
 20
19.2089453082
 11
228.8317686459
 21
12.4495443822
  0
LINE
  8
0
 62
7
  6
CONTINUOUS
 10
221.5872277955
 20
20.4440726016
 11
232.3954971607
 21
23.9558922005
  0
LINE
  8
0
 62
7
  6
CONTINUOUS
 10
232.3912920235
 20
13.6061036368
 11
223.9458323548
 21
21.2104296785
  0
LINE
  8
0
 62
7
  6
CONTINUOUS
 10
232.9111147433
 20
26.3816822048
 11
231.9345552061
 21
21.7873308023
  0
LINE
  8
0
 62
7
  6
CONTINUOUS
 10
231.2347532584
 20
18.4950214885
 11
230.5483050469
 21
15.2655365641
  0
LINE
  8
0
 62
7
  6
CONTINUOUS
 10
233.5922108419
 20
13.9963058145
 11
234.5484423775
 21
18.4950214885
  0
LINE
  8
0
 62
7
  6
CONTINUOUS
 10
235.2482443252
 20
21.7873308023
 11
235.6924861276
 21
23.8773241617
  0
LINE
  8
0
 62
7
  6
CONTINUOUS
 10
229.5448697213
 20
12.2979700695
 11
233.1043930989
 21
13.4545293241
  0
LINE
  8
0
 62
7
  6
CONTINUOUS
 10
232.685831411
 20
27.0750330078
 11
235.4672027953
 21
24.5706749648
  0
ARC
  8
0
 62
7
  6
CONTINUOUS
 10
222.5906631212
 20
23.4116390962
 40
0.7290321776
 50
108.0
 51
168.0
  0
ARC
  8
0
 62
7
  6
CONTINUOUS
 10
232.198013668
 20
26.5332565175
 40
0.7290321776
 50
348.0
 51
108.0
  0
ARC
  8
0
 62
7
  6
CONTINUOUS
 10
234.9793850522
 20
24.0288984744
 40
0.7290321776
 50
348.0
 51
48.0
  0
ARC
  8
0
 62
7
  6
CONTINUOUS
 10
229.319586389
 20
12.9913208726
 40
0.7290321776
 50
228.0
 51
288.0
  0
ARC
  8
0
 62
7
  6
CONTINUOUS
 10
221.8125111278
 20
19.7507217986
 40
0.7290321776
 50
108.0
 51
228.0
  0
ARC
  8
0
 62
7
  6
CONTINUOUS
 10
232.8791097665
 20
14.1478801272
 40
0.7290321776
 50
228.0
 51
348.0
  0
ENDBLK
  8
0
  6
BYBLOCK
 62
0
  0
ENDSEC
  0
SECTION
  2
ENTITIES
  0
TEXT
  8
0
 62
5
  6
CONTINUOUS
 10
304.937007874
 20
25.636
  7
TEXTSTYLE_2
 40
2.8
  1
Scale :
 41
0.6
 51
0.000019
 72
0
  0
TEXT
  8
0
 62
5
  6
CONTINUOUS
 10
324.937007874
 20
25.636
  7
TEXTSTYLE_2
 40
2.8
  1
Belt type:
 41
0.6
 51
0.000019
 72
0
  0
INSERT
  8
0
 62
2
  6
CONTINUOUS
  2
SYMBOL_0_BL0
 10
240.8592468615
 20
19.762288695
  0
INSERT
  8
0
 62
2
  6
CONTINUOUS
  2
SYMBOL_5_BL1
 10
382.7840918555
 20
35.5067593403
  0
LINE
  8
0
 62
2
  6
CONTINUOUS
 10
218.937007874
 20
30.0
 11
408.937007874
 21
30.0
  0
LINE
  8
0
 62
2
  6
CONTINUOUS
 10
218.937007874
 20
30.0
 11
218.937007874
 21
10.0
  0
LINE
  8
0
 62
2
  6
CONTINUOUS
 10
218.937007874
 20
10.0
 11
408.937007874
 21
10.0
  0
LINE
  8
0
 62
2
  6
CONTINUOUS
 10
303.937007874
 20
30.0
 11
303.937007874
 21
10.0
  0
LINE
  8
0
 62
2
  6
CONTINUOUS
 10
323.937007874
 20
30.0
 11
323.937007874
 21
10.0
  0
LINE
  8
0
 62
2
  6
CONTINUOUS
 10
408.937007874
 20
30.0
 11
408.937007874
 21
10.0
  0
TEXT
  8
0
 62
5
  6
CONTINUOUS
 10
221.937007874
 20
23.303
  7
TEXTSTYLE_5
 40
1.52
  1
                                                                     Ammeraal Beltech Modular A/S
 41
1.0
 72
0
  0
TEXT
  8
0
 62
5
  6
CONTINUOUS
 10
221.937007874
 20
20.595
  7
TEXTSTYLE_5
 40
1.5
  1
                                                                      Hjulmagervej 21, 7100 Vejle,  DK
 41
1.0
 72
0
  0
TEXT
  8
0
 62
5
  6
CONTINUOUS
 10
221.937007874
 20
17.881
  7
TEXTSTYLE_5
 40
1.495
  1
                                                                      tel: 
 41
1.0
 72
0
  0
TEXT
  8
0
 62
5
  6
CONTINUOUS
 10
266.9239544389
 20
17.881
  7
TEXTSTYLE_5
 40
1.51
  1
+45 75723100     fax: +45 75723348
 41
1.0
 72
0
  0
TEXT
  8
0
 62
5
  6
CONTINUOUS
 10
221.937007874
 20
15.177
  7
TEXTSTYLE_5
 40
1.5
  1
                                                                      admin@unichains.dk  www.unichains.com
 41
1.0
 72
0
  0
TEXT
  8
0
 62
5
  6
CONTINUOUS
 10
308.687007874
 20
13.75
  7
TEXTSTYLE_6
 40
5.0
  1
1:1
 41
0.7
 72
1
 11
313.937007874
 21
13.75
  0
TEXT
  8
0
 62
5
  6
CONTINUOUS
 10
326.937007874
 20
13.75
  7
TEXTSTYLE_7
 40
7.5
  1
Sprocket Z10
 41
0.6361111111
 72
0
  0
LINE
  8
0
 62
7
  6
CONTINUOUS
 10
0.0
 20
0.0
 11
0.0
 21
297.0
  0
LINE
  8
0
 62
7
  6
CONTINUOUS
 10
8.937007874
 20
10.0
 11
8.937007874
 21
287.0
  0
LINE
  8
0
 62
7
  6
CONTINUOUS
 10
0.0
 20
0.0
 11
420.0
 21
0.0
  0
LINE
  8
0
 62
7
  6
CONTINUOUS
 10
408.937007874
 20
10.0
 11
8.937007874
 21
10.0
  0
LINE
  8
0
 62
7
  6
CONTINUOUS
 10
218.937007874
 20
30.0
 11
408.937007874
 21
30.0
  0
LINE
  8
0
 62
7
  6
CONTINUOUS
 10
210.0
 20
297.0
 11
210.0
 21
292.0
  0
LINE
  8
0
 62
7
  6
CONTINUOUS
 10
210.0
 20
0.0
 11
210.0
 21
5.0
  0
LINE
  8
0
 62
7
  6
CONTINUOUS
 10
8.937007874
 20
287.0
 11
408.937007874
 21
287.0
  0
LINE
  8
0
 62
7
  6
CONTINUOUS
 10
0.0
 20
297.0
 11
420.0
 21
297.0
  0
LINE
  8
0
 62
7
  6
CONTINUOUS
 10
408.937007874
 20
287.0
 11
408.937007874
 21
10.0
  0
LINE
  8
0
 62
7
  6
CONTINUOUS
 10
420.0
 20
0.0
 11
420.0
 21
297.0
  0
LINE
  8
DEFAULT_2
 62
8
  6
HIDDEN
 10
51.6461804505
 20
211.4155241161
 11
51.308753869
 21
209.953969019
  0
LINE
  8
DEFAULT_2
 62
8
  6
HIDDEN
 10
53.0940090638
 20
211.0812665431
 11
52.7565824823
 21
209.6197114459
  0
LINE
  8
0
 62
9
  6
CONTINUOUS
 10
41.3388730385
 20
179.6928937816
 11
41.9249697312
 21
181.0736510618
  0
LINE
  8
0
 62
9
  6
CONTINUOUS
 10
42.7066626635
 20
179.1123015319
 11
43.2927593563
 21
180.4930588121
  0
LINE
  8
DEFAULT_2
 62
8
  6
HIDDEN
 10
95.8217787871
 20
254.6821802287
 11
94.6897144168
 21
253.6980916852
  0
LINE
  8
DEFAULT_2
 62
8
  6
HIDDEN
 10
96.7966250683
 20
253.5607478649
 11
95.664560698
 21
252.5766593214
  0
LINE
  8
0
 62
9
  6
CONTINUOUS
 10
68.83689765
 20
235.0765164694
 11
70.122648601
 21
235.8490735818
  0
LINE
  8
0
 62
9
  6
CONTINUOUS
 10
69.6021991394
 20
233.8028409028
 11
70.8879500904
 21
234.5753980152
  0
LINE
  8
DEFAULT_2
 62
8
  6
HIDDEN
 10
123.6369435068
 20
66.4193174994
 11
125.131235554
 21
66.5500511135
  0
LINE
  8
DEFAULT_2
 62
8
  6
HIDDEN
 10
123.5074377033
 20
67.8995756071
 11
125.0017297505
 21
68.0303092212
  0
LINE
  8
0
 62
9
  6
CONTINUOUS
 10
156.9920909571
 20
66.4193174994
 11
155.4977989099
 21
66.5500511135
  0
LINE
  8
0
 62
9
  6
CONTINUOUS
 10
157.1215967606
 20
67.8995756071
 11
155.6273047134
 21
68.0303092212
  0
LINE
  8
DEFAULT_2
 62
8
  6
HIDDEN
 10
68.83689765
 20
95.06267613
 11
70.122648601
 21
94.2901190177
  0
LINE
  8
DEFAULT_2
 62
8
  6
HIDDEN
 10
69.6021991394
 20
96.3363516967
 11
70.8879500904
 21
95.5637945843
  0
LINE
  8
0
 62
9
  6
CONTINUOUS
 10
95.8217787871
 20
75.4570123708
 11
94.6897144168
 21
76.4411009142
  0
LINE
  8
0
 62
9
  6
CONTINUOUS
 10
96.7966250683
 20
76.5784447346
 11
95.664560698
 21
77.5625332781
  0
LINE
  8
DEFAULT_2
 62
8
  6
HIDDEN
 10
41.3388730385
 20
150.4462988178
 11
41.9249697312
 21
149.0655415377
  0
LINE
  8
DEFAULT_2
 62
8
  6
HIDDEN
 10
42.7066626635
 20
151.0268910675
 11
43.2927593563
 21
149.6461337874
  0
LINE
  8
0
 62
9
  6
CONTINUOUS
 10
51.6461804505
 20
118.7236684833
 11
51.308753869
 21
120.1852235805
  0
LINE
  8
0
 62
9
  6
CONTINUOUS
 10
53.0940090638
 20
119.0579260564
 11
52.7565824823
 21
120.5194811535
  0
LINE
  8
0
 62
9
  6
CONTINUOUS
 10
57.0610599157
 20
186.600107684
 11
56.5975344242
 21
185.1735229096
  0
LINE
  8
DEFAULT_2
 62
8
  6
HIDDEN
 10
60.3057383567
 20
196.5862011051
 11
60.7692638482
 21
198.0127858796
  0
LINE
  8
0
 62
9
  6
CONTINUOUS
 10
57.5365881739
 20
186.4455991868
 11
57.0730626823
 21
185.0190144124
  0
LINE
  8
DEFAULT_2
 62
8
  6
HIDDEN
 10
60.7812666148
 20
196.4316926079
 11
61.2447921063
 21
197.8582773824
  0
LINE
  8
0
 62
9
  6
CONTINUOUS
 10
85.6163724887
 20
231.42330032
 11
84.4028469971
 21
230.5416224416
  0
LINE
  8
DEFAULT_2
 62
8
  6
HIDDEN
 10
94.1110509296
 20
237.5950454691
 11
95.3245764212
 21
238.4767233475
  0
LINE
  8
0
 62
9
  6
CONTINUOUS
 10
85.9102651148
 20
231.0187918228
 11
84.6967396232
 21
230.1371139445
  0
LINE
  8
DEFAULT_2
 62
8
  6
HIDDEN
 10
94.4049435557
 20
237.1905369719
 11
95.6184690473
 21
238.0722148504
  0
LINE
  8
DEFAULT_2
 62
8
  6
HIDDEN
 10
135.0645172319
 20
79.2375592997
 11
133.5645172319
 21
79.2375592997
  0
LINE
  8
0
 62
9
  6
CONTINUOUS
 10
145.5645172319
 20
79.2375592997
 11
147.0645172319
 21
79.2375592997
  0
LINE
  8
DEFAULT_2
 62
8
  6
HIDDEN
 10
135.0645172319
 20
79.7375592997
 11
133.564517232
 21
79.7375592997
  0
LINE
  8
0
 62
9
  6
CONTINUOUS
 10
145.5645172319
 20
79.7375592997
 11
147.0645172319
 21
79.7375592997
  0
LINE
  8
0
 62
9
  6
CONTINUOUS
 10
94.1110509296
 20
92.5441471304
 11
95.3245764212
 21
91.6624692519
  0
LINE
  8
DEFAULT_2
 62
8
  6
HIDDEN
 10
85.6163724887
 20
98.7158922795
 11
84.4028469971
 21
99.5975701579
  0
LINE
  8
0
 62
9
  6
CONTINUOUS
 10
94.4049435557
 20
92.9486556276
 11
95.6184690473
 21
92.0669777491
  0
LINE
  8
DEFAULT_2
 62
8
  6
HIDDEN
 10
85.9102651148
 20
99.1204007766
 11
84.6967396232
 21
100.002078655
  0
LINE
  8
0
 62
9
  6
CONTINUOUS
 10
60.3057383567
 20
133.5529914944
 11
60.7692638482
 21
132.1264067199
  0
LINE
  8
DEFAULT_2
 62
8
  6
HIDDEN
 10
57.0610599157
 20
143.5390849155
 11
56.5975344242
 21
144.9656696899
  0
LINE
  8
0
 62
9
  6
CONTINUOUS
 10
60.7812666148
 20
133.7074999916
 11
61.2447921063
 21
132.2809152171
  0
LINE
  8
DEFAULT_2
 62
8
  6
HIDDEN
 10
57.5365881739
 20
143.6935934127
 11
57.0730626823
 21
145.1201781871
  0
LINE
  8
DEFAULT_2
 62
8
  6
HIDDEN
 10
60.0567351952
 20
187.7296782307
 11
52.6940282576
 21
165.0695962997
  0
LINE
  8
0
 62
7
  6
CONTINUOUS
 10
52.6940282576
 20
165.0695962997
 11
51.1115434806
 21
160.1992089537
  0
LINE
  8
0
 62
7
  6
CONTINUOUS
 10
60.0567351952
 20
187.7296782307
 11
71.0105373733
 21
221.4420148635
  0
LINE
  8
DEFAULT_2
 62
8
  6
HIDDEN
 10
61.4833199697
 20
187.2661527391
 11
52.5381282551
 21
159.7356834621
  0
LINE
  8
0
 62
9
  6
CONTINUOUS
 10
61.4833199697
 20
187.2661527391
 11
72.4371221477
 21
220.978489372
  0
LINE
  8
DEFAULT_2
 62
8
  6
HIDDEN
 10
88.7038696081
 20
230.5763283387
 11
69.4280525963
 21
216.5716275175
  0
LINE
  8
0
 62
7
  6
CONTINUOUS
 10
69.4280525963
 20
216.5716275175
 11
65.2850536634
 21
213.5615625993
  0
LINE
  8
0
 62
7
  6
CONTINUOUS
 10
88.7038696081
 20
230.5763283387
 11
117.3812960163
 21
251.411698218
  0
LINE
  8
DEFAULT_2
 62
8
  6
HIDDEN
 10
89.5855474866
 20
229.3628028471
 11
66.1667315418
 21
212.3480371077
  0
LINE
  8
0
 62
9
  6
CONTINUOUS
 10
89.5855474866
 20
229.3628028471
 11
118.2629738948
 21
250.1981727264
  0
LINE
  8
0
 62
7
  6
CONTINUOUS
 10
143.5645172319
 20
81.7375592997
 11
108.1172687717
 21
81.7375592997
  0
LINE
  8
DEFAULT_2
 62
8
  6
HIDDEN
 10
143.5645172319
 20
81.7375592997
 11
167.3907373805
 21
81.7375592997
  0
LINE
  8
0
 62
7
  6
CONTINUOUS
 10
167.3907373805
 20
81.7375592997
 11
172.5117656922
 21
81.7375592997
  0
LINE
  8
0
 62
9
  6
CONTINUOUS
 10
143.5645172319
 20
83.2375592997
 11
108.1172687717
 21
83.2375592997
  0
LINE
  8
DEFAULT_2
 62
8
  6
HIDDEN
 10
143.5645172319
 20
83.2375592997
 11
172.5117656922
 21
83.2375592997
  0
LINE
  8
DEFAULT_2
 62
8
  6
HIDDEN
 10
93.9624800716
 20
95.7422601209
 11
113.2382970834
 21
81.7375592997
  0
LINE
  8
0
 62
7
  6
CONTINUOUS
 10
113.2382970834
 20
81.7375592997
 11
117.3812960163
 21
78.7274943815
  0
LINE
  8
0
 62
7
  6
CONTINUOUS
 10
93.9624800716
 20
95.7422601209
 11
65.2850536634
 21
116.5776300002
  0
LINE
  8
DEFAULT_2
 62
8
  6
HIDDEN
 10
94.84415795
 20
96.9557856125
 11
118.2629738948
 21
79.9410198731
  0
LINE
  8
0
 62
9
  6
CONTINUOUS
 10
94.84415795
 20
96.9557856125
 11
66.1667315418
 21
117.7911554918
  0
LINE
  8
DEFAULT_2
 62
8
  6
HIDDEN
 10
62.0653456587
 20
136.2276470129
 11
69.4280525963
 21
113.567565082
  0
LINE
  8
0
 62
7
  6
CONTINUOUS
 10
69.4280525963
 20
113.567565082
 11
71.0105373733
 21
108.6971777359
  0
LINE
  8
0
 62
7
  6
CONTINUOUS
 10
62.0653456587
 20
136.2276470129
 11
51.1115434806
 21
169.9399836458
  0
LINE
  8
DEFAULT_2
 62
8
  6
HIDDEN
 10
63.4919304331
 20
136.6911725045
 11
72.4371221477
 21
109.1607032275
  0
LINE
  8
0
 62
9
  6
CONTINUOUS
 10
63.4919304331
 20
136.6911725045
 11
52.5381282551
 21
170.4035091373
  0
LINE
  8
0
 62
9
  6
CONTINUOUS
 10
70.4321969959
 20
238.2480908345
 11
70.5784484142
 21
236.7552376861
  0
LINE
  8
DEFAULT_2
 62
8
  6
HIDDEN
 10
70.4321969959
 20
91.891101765
 11
70.5784484142
 21
93.3839549134
  0
LINE
  8
0
 62
9
  6
CONTINUOUS
 10
126.7917724272
 20
265.3480392318
 11
126.0326152455
 21
264.0543312379
  0
LINE
  8
DEFAULT_2
 62
8
  6
HIDDEN
 10
40.7652926822
 20
146.9427478291
 11
41.7610896294
 21
148.0645269694
  0
LINE
  8
0
 62
9
  6
CONTINUOUS
 10
188.3165767526
 20
254.145030768
 11
186.9419832117
 21
253.5446204108
  0
LINE
  8
DEFAULT_2
 62
8
  6
HIDDEN
 10
231.5062258712
 20
121.2209586995
 11
230.0412439828
 21
120.8987350708
  0
LINE
  8
0
 62
9
  6
CONTINUOUS
 10
49.1228085927
 20
121.2209586995
 11
50.587790481
 21
120.8987350708
  0
LINE
  8
DEFAULT_2
 62
8
  6
HIDDEN
 10
188.3165767526
 20
75.9941618314
 11
186.9419832117
 21
76.5945721887
  0
LINE
  8
0
 62
9
  6
CONTINUOUS
 10
40.7652926822
 20
183.1964447704
 11
41.7610896294
 21
182.07466563
  0
LINE
  8
DEFAULT_2
 62
8
  6
HIDDEN
 10
126.7917724272
 20
64.7911533676
 11
126.0326152455
 21
66.0848613616
  0
LINE
  8
BLANK_COSM
 62
2
  6
PHANTOM
 10
127.814875103
 20
218.4723061774
 11
86.9118073543
 21
177.5692384286
  0
LINE
  8
BLANK_COSM
 62
2
  6
PHANTOM
 10
86.9118073543
 20
152.5699541708
 11
127.814875103
 21
111.6668864221
  0
LINE
  8
BLANK_COSM
 62
2
  6
PHANTOM
 10
85.0498522947
 20
173.4445416693
 11
80.8072116076
 21
169.2019009822
  0
LINE
  8
BLANK_COSM
 62
2
  6
PHANTOM
 10
131.9395718624
 20
220.3342612369
 11
136.1822125495
 21
224.5769019241
  0
LINE
  8
BLANK_COSM
 62
2
  6
PHANTOM
 10
80.8072116076
 20
160.9372916173
 11
85.0498522947
 21
156.6946509302
  0
LINE
  8
BLANK_COSM
 62
2
  6
PHANTOM
 10
136.1822125495
 20
105.5622906754
 11
131.9395718624
 21
109.8049313625
  0
LINE
  8
DEFAULT_2
 62
8
  6
HIDDEN
 10
108.1172687717
 20
248.4016332997
 11
108.1172687717
 21
246.9016332997
  0
LINE
  8
0
 62
9
  6
CONTINUOUS
 10
108.1172687717
 20
81.7375592997
 11
108.1172687717
 21
83.2375592997
  0
LINE
  8
DEFAULT_2
 62
8
  6
HIDDEN
 10
163.2477384476
 20
251.411698218
 11
162.3660605691
 21
250.1981727264
  0
LINE
  8
0
 62
9
  6
CONTINUOUS
 10
65.2850536634
 20
116.5776300002
 11
66.1667315418
 21
117.7911554918
  0
LINE
  8
DEFAULT_2
 62
8
  6
HIDDEN
 10
209.6184970906
 20
221.4420148635
 11
208.1919123162
 21
220.978489372
  0
LINE
  8
0
 62
9
  6
CONTINUOUS
 10
51.1115434806
 20
169.9399836458
 11
52.5381282551
 21
170.4035091373
  0
LINE
  8
0
 62
9
  6
CONTINUOUS
 10
209.6184970906
 20
108.6971777359
 11
208.1919123162
 21
109.1607032275
  0
LINE
  8
DEFAULT_2
 62
8
  6
HIDDEN
 10
51.1115434806
 20
160.1992089537
 11
52.5381282551
 21
159.7356834621
  0
LINE
  8
DEFAULT_2
 62
8
  6
HIDDEN
 10
65.2850536634
 20
213.5615625993
 11
66.1667315418
 21
212.3480371077
  0
LINE
  8
0
 62
9
  6
CONTINUOUS
 10
163.2477384476
 20
78.7274943815
 11
162.3660605691
 21
79.9410198731
  0
LINE
  8
0
 62
7
  6
CONTINUOUS
 10
123.6369435068
 20
66.4193174994
 11
123.5074377033
 21
67.8995756071
  0
LINE
  8
DEFAULT_2
 62
8
  6
HIDDEN
 10
125.0017297505
 20
68.0303092212
 11
125.131235554
 21
66.5500511135
  0
LINE
  8
0
 62
7
  6
CONTINUOUS
 10
123.5074377033
 20
262.2396169924
 11
123.6369435068
 21
263.7198751001
  0
LINE
  8
0
 62
9
  6
CONTINUOUS
 10
125.0017297505
 20
262.1088833783
 11
125.131235554
 21
263.589141486
  0
LINE
  8
0
 62
7
  6
CONTINUOUS
 10
68.83689765
 20
95.06267613
 11
69.6021991394
 21
96.3363516967
  0
LINE
  8
DEFAULT_2
 62
8
  6
HIDDEN
 10
70.8879500904
 20
95.5637945843
 11
70.122648601
 21
94.2901190177
  0
LINE
  8
0
 62
7
  6
CONTINUOUS
 10
183.8324093956
 20
253.5607478649
 11
184.8072556768
 21
254.6821802287
  0
LINE
  8
0
 62
9
  6
CONTINUOUS
 10
184.9644737659
 20
252.5766593214
 11
185.9393200471
 21
253.6980916852
  0
LINE
  8
0
 62
7
  6
CONTINUOUS
 10
41.3388730385
 20
150.4462988178
 11
42.7066626635
 21
151.0268910675
  0
LINE
  8
DEFAULT_2
 62
8
  6
HIDDEN
 10
43.2927593563
 20
149.6461337874
 11
41.9249697312
 21
149.0655415377
  0
LINE
  8
0
 62
7
  6
CONTINUOUS
 10
53.0940090638
 20
119.0579260564
 11
51.6461804505
 21
118.7236684833
  0
LINE
  8
0
 62
9
  6
CONTINUOUS
 10
52.7565824823
 20
120.5194811535
 11
51.308753869
 21
120.1852235805
  0
LINE
  8
0
 62
7
  6
CONTINUOUS
 10
228.9828540134
 20
118.7236684833
 11
227.5350254001
 21
119.0579260564
  0
LINE
  8
DEFAULT_2
 62
8
  6
HIDDEN
 10
227.8724519816
 20
120.5194811535
 11
229.3202805949
 21
120.1852235805
  0
LINE
  8
0
 62
7
  6
CONTINUOUS
 10
42.7066626635
 20
179.1123015319
 11
41.3388730385
 21
179.6928937816
  0
LINE
  8
0
 62
9
  6
CONTINUOUS
 10
43.2927593563
 20
180.4930588121
 11
41.9249697312
 21
181.0736510618
  0
LINE
  8
0
 62
7
  6
CONTINUOUS
 10
184.8072556768
 20
75.4570123708
 11
183.8324093956
 21
76.5784447346
  0
LINE
  8
DEFAULT_2
 62
8
  6
HIDDEN
 10
184.9644737659
 20
77.5625332781
 11
185.9393200471
 21
76.4411009142
  0
LINE
  8
0
 62
7
  6
CONTINUOUS
 10
69.6021991394
 20
233.8028409028
 11
68.83689765
 21
235.0765164694
  0
LINE
  8
0
 62
9
  6
CONTINUOUS
 10
70.8879500904
 20
234.5753980152
 11
70.122648601
 21
235.8490735818
  0
LINE
  8
0
 62
9
  6
CONTINUOUS
 10
133.5645172319
 20
250.9016332997
 11
133.5645172319
 21
250.4016332997
  0
LINE
  8
DEFAULT_2
 62
8
  6
HIDDEN
 10
133.5645172319
 20
79.2375592997
 11
133.5645172319
 21
79.7375592997
  0
LINE
  8
0
 62
7
  6
CONTINUOUS
 10
135.0645172319
 20
250.9016332997
 11
135.0645172319
 21
250.4016332997
  0
LINE
  8
0
 62
7
  6
CONTINUOUS
 10
135.0645172319
 20
79.7375592997
 11
135.0645172319
 21
79.2375592997
  0
LINE
  8
0
 62
9
  6
CONTINUOUS
 10
137.0645172319
 20
248.4016332997
 11
137.0645172319
 21
246.9016332997
  0
LINE
  8
DEFAULT_2
 62
8
  6
HIDDEN
 10
137.0645172319
 20
81.7375592997
 11
137.0645172319
 21
83.2375592997
  0
LINE
  8
0
 62
2
  6
CONTINUOUS
 10
140.3145172319
 20
166.1195962997
 11
140.3145172319
 21
164.0195962997
  0
LINE
  8
DEFAULT_1
 62
2
  6
CENTER
 10
140.3145172319
 20
159.8195962997
 11
140.3145172319
 21
85.5695962997
  0
LINE
  8
DEFAULT_1
 62
2
  6
CENTER
 10
140.3145172319
 20
170.3195962997
 11
140.3145172319
 21
244.5695962997
  0
LINE
  8
0
 62
9
  6
CONTINUOUS
 10
185.3044580427
 20
238.4767233475
 11
185.0105654166
 21
238.0722148503
  0
LINE
  8
DEFAULT_2
 62
8
  6
HIDDEN
 10
84.4028469971
 20
99.5975701579
 11
84.6967396232
 21
100.0020786551
  0
LINE
  8
0
 62
7
  6
CONTINUOUS
 10
186.5179835343
 20
237.5950454691
 11
186.2240909082
 21
237.1905369719
  0
LINE
  8
0
 62
7
  6
CONTINUOUS
 10
85.9102651148
 20
99.1204007766
 11
85.6163724887
 21
98.7158922795
  0
LINE
  8
0
 62
9
  6
CONTINUOUS
 10
186.6665543923
 20
234.3969324786
 11
185.7848765139
 21
233.183406987
  0
LINE
  8
DEFAULT_2
 62
8
  6
HIDDEN
 10
88.7038696081
 20
99.5628642608
 11
89.5855474866
 21
100.7763897524
  0
LINE
  8
0
 62
9
  6
CONTINUOUS
 10
219.8597706157
 20
198.0127858796
 11
219.3842423575
 21
197.8582773824
  0
LINE
  8
DEFAULT_2
 62
8
  6
HIDDEN
 10
56.5975344242
 20
144.9656696899
 11
57.0730626823
 21
145.1201781871
  0
LINE
  8
0
 62
7
  6
CONTINUOUS
 10
220.3232961072
 20
196.5862011051
 11
219.8477678491
 21
196.4316926079
  0
LINE
  8
0
 62
7
  6
CONTINUOUS
 10
57.5365881739
 20
143.6935934127
 11
57.0610599157
 21
143.5390849155
  0
LINE
  8
0
 62
9
  6
CONTINUOUS
 10
218.5636888052
 20
193.9115455866
 11
217.1371040308
 21
193.448020095
  0
LINE
  8
DEFAULT_2
 62
8
  6
HIDDEN
 10
60.0567351952
 20
142.4095143688
 11
61.4833199697
 21
142.8730398604
  0
LINE
  8
0
 62
2
  6
CONTINUOUS
 10
141.3645172319
 20
165.0695962997
 11
139.2645172319
 21
165.0695962997
  0
LINE
  8
DEFAULT_1
 62
2
  6
CENTER
 10
135.0645172319
 20
165.0695962997
 11
60.8145172319
 21
165.0695962997
  0
LINE
  8
DEFAULT_1
 62
2
  6
CENTER
 10
145.5645172319
 20
165.0695962997
 11
219.8145172319
 21
165.0695962997
  0
LINE
  8
DEFAULT_2
 62
8
  6
HIDDEN
 10
219.8597706157
 20
132.1264067199
 11
219.3842423575
 21
132.2809152171
  0
LINE
  8
0
 62
9
  6
CONTINUOUS
 10
56.5975344242
 20
185.1735229096
 11
57.0730626823
 21
185.0190144124
  0
LINE
  8
0
 62
7
  6
CONTINUOUS
 10
57.0610599157
 20
186.600107684
 11
57.5365881739
 21
186.4455991868
  0
LINE
  8
0
 62
7
  6
CONTINUOUS
 10
219.8477678491
 20
133.7074999916
 11
220.3232961072
 21
133.5529914944
  0
LINE
  8
DEFAULT_2
 62
8
  6
HIDDEN
 10
218.5636888052
 20
136.2276470129
 11
217.1371040308
 21
136.6911725045
  0
LINE
  8
0
 62
9
  6
CONTINUOUS
 10
60.0567351952
 20
187.7296782307
 11
61.4833199697
 21
187.2661527391
  0
LINE
  8
0
 62
9
  6
CONTINUOUS
 10
84.4028469971
 20
230.5416224416
 11
84.6967396232
 21
230.1371139444
  0
LINE
  8
DEFAULT_2
 62
8
  6
HIDDEN
 10
185.3044580427
 20
91.6624692519
 11
185.0105654166
 21
92.0669777491
  0
LINE
  8
0
 62
7
  6
CONTINUOUS
 10
85.6163724887
 20
231.42330032
 11
85.9102651148
 21
231.0187918228
  0
LINE
  8
0
 62
7
  6
CONTINUOUS
 10
186.2240909082
 20
92.9486556276
 11
186.5179835343
 21
92.5441471304
  0
LINE
  8
0
 62
9
  6
CONTINUOUS
 10
88.7038696081
 20
230.5763283387
 11
89.5855474866
 21
229.3628028471
  0
LINE
  8
DEFAULT_2
 62
8
  6
HIDDEN
 10
186.6665543923
 20
95.7422601209
 11
185.7848765139
 21
96.9557856125
  0
LINE
  8
DEFAULT_2
 62
8
  6
HIDDEN
 10
143.5645172319
 20
248.4016332997
 11
143.5645172319
 21
246.9016332997
  0
LINE
  8
0
 62
9
  6
CONTINUOUS
 10
143.5645172319
 20
81.7375592997
 11
143.5645172319
 21
83.2375592997
  0
LINE
  8
0
 62
7
  6
CONTINUOUS
 10
145.5645172319
 20
79.2375592997
 11
145.5645172319
 21
79.7375592997
  0
LINE
  8
0
 62
7
  6
CONTINUOUS
 10
145.5645172319
 20
250.4016332997
 11
145.5645172319
 21
250.9016332997
  0
LINE
  8
DEFAULT_2
 62
8
  6
HIDDEN
 10
147.0645172319
 20
250.9016332997
 11
147.0645172319
 21
250.4016332997
  0
LINE
  8
0
 62
9
  6
CONTINUOUS
 10
147.0645172319
 20
79.2375592997
 11
147.0645172319
 21
79.7375592997
  0
LINE
  8
DEFAULT_2
 62
8
  6
HIDDEN
 10
191.9251648558
 20
230.5763283387
 11
191.0434869773
 21
229.3628028471
  0
LINE
  8
0
 62
9
  6
CONTINUOUS
 10
93.9624800716
 20
95.7422601209
 11
94.84415795
 21
96.9557856125
  0
LINE
  8
0
 62
7
  6
CONTINUOUS
 10
94.1110509296
 20
92.5441471304
 11
94.4049435557
 21
92.9486556276
  0
LINE
  8
0
 62
7
  6
CONTINUOUS
 10
194.7187693491
 20
231.0187918228
 11
195.0126619752
 21
231.42330032
  0
LINE
  8
DEFAULT_2
 62
8
  6
HIDDEN
 10
196.2261874668
 20
230.5416224416
 11
195.9322948407
 21
230.1371139444
  0
LINE
  8
0
 62
9
  6
CONTINUOUS
 10
95.3245764212
 20
91.6624692519
 11
95.6184690473
 21
92.0669777491
  0
LINE
  8
DEFAULT_2
 62
8
  6
HIDDEN
 10
220.5722992687
 20
187.7296782307
 11
219.1457144942
 21
187.2661527391
  0
LINE
  8
0
 62
9
  6
CONTINUOUS
 10
62.0653456587
 20
136.2276470129
 11
63.4919304331
 21
136.6911725045
  0
LINE
  8
0
 62
7
  6
CONTINUOUS
 10
60.3057383567
 20
133.5529914944
 11
60.7812666148
 21
133.7074999916
  0
LINE
  8
0
 62
7
  6
CONTINUOUS
 10
223.09244629
 20
186.4455991868
 11
223.5679745482
 21
186.600107684
  0
LINE
  8
DEFAULT_2
 62
8
  6
HIDDEN
 10
224.0315000397
 20
185.1735229096
 11
223.5559717816
 21
185.0190144124
  0
LINE
  8
0
 62
9
  6
CONTINUOUS
 10
60.7692638482
 20
132.1264067199
 11
61.2447921064
 21
132.2809152171
  0
LINE
  8
0
 62
9
  6
CONTINUOUS
 10
220.5722992687
 20
142.4095143688
 11
219.1457144942
 21
142.8730398604
  0
LINE
  8
DEFAULT_2
 62
8
  6
HIDDEN
 10
62.0653456587
 20
193.9115455866
 11
63.4919304331
 21
193.448020095
  0
LINE
  8
0
 62
7
  6
CONTINUOUS
 10
223.5679745482
 20
143.5390849155
 11
223.09244629
 21
143.6935934127
  0
LINE
  8
0
 62
7
  6
CONTINUOUS
 10
60.7812666148
 20
196.4316926079
 11
60.3057383567
 21
196.5862011051
  0
LINE
  8
0
 62
9
  6
CONTINUOUS
 10
224.0315000397
 20
144.9656696899
 11
223.5559717816
 21
145.1201781871
  0
LINE
  8
DEFAULT_2
 62
8
  6
HIDDEN
 10
60.7692638482
 20
198.0127858796
 11
61.2447921064
 21
197.8582773824
  0
LINE
  8
DEFAULT_2
 62
8
  6
HIDDEN
 10
93.9624800716
 20
234.3969324786
 11
94.84415795
 21
233.183406987
  0
LINE
  8
0
 62
9
  6
CONTINUOUS
 10
191.9251648558
 20
99.5628642608
 11
191.0434869773
 21
100.7763897524
  0
LINE
  8
0
 62
7
  6
CONTINUOUS
 10
195.0126619752
 20
98.7158922795
 11
194.7187693491
 21
99.1204007766
  0
LINE
  8
0
 62
7
  6
CONTINUOUS
 10
94.4049435557
 20
237.1905369719
 11
94.1110509296
 21
237.5950454691
  0
LINE
  8
DEFAULT_2
 62
8
  6
HIDDEN
 10
95.3245764212
 20
238.4767233475
 11
95.6184690473
 21
238.0722148503
  0
LINE
  8
0
 62
9
  6
CONTINUOUS
 10
196.2261874668
 20
99.5975701579
 11
195.9322948407
 21
100.0020786551
  0
LINE
  8
DEFAULT_2
 62
8
  6
HIDDEN
 10
155.6273047134
 20
262.1088833783
 11
155.4977989099
 21
263.589141486
  0
LINE
  8
0
 62
7
  6
CONTINUOUS
 10
156.9920909571
 20
263.7198751001
 11
157.1215967606
 21
262.2396169924
  0
LINE
  8
0
 62
9
  6
CONTINUOUS
 10
155.6273047134
 20
68.0303092212
 11
155.4977989099
 21
66.5500511135
  0
LINE
  8
0
 62
7
  6
CONTINUOUS
 10
157.1215967606
 20
67.8995756071
 11
156.9920909571
 21
66.4193174994
  0
LINE
  8
DEFAULT_2
 62
8
  6
HIDDEN
 10
209.7410843734
 20
234.5753980152
 11
210.5063858629
 21
235.8490735818
  0
LINE
  8
0
 62
7
  6
CONTINUOUS
 10
211.7921368139
 20
235.0765164694
 11
211.0268353245
 21
233.8028409028
  0
LINE
  8
0
 62
9
  6
CONTINUOUS
 10
95.664560698
 20
77.5625332781
 11
94.6897144168
 21
76.4411009142
  0
LINE
  8
0
 62
7
  6
CONTINUOUS
 10
96.7966250683
 20
76.5784447346
 11
95.8217787871
 21
75.4570123708
  0
LINE
  8
DEFAULT_2
 62
8
  6
HIDDEN
 10
237.3362751076
 20
180.4930588121
 11
238.7040647327
 21
181.0736510618
  0
LINE
  8
0
 62
7
  6
CONTINUOUS
 10
239.2901614254
 20
179.6928937816
 11
237.9223718004
 21
179.1123015319
  0
LINE
  8
0
 62
9
  6
CONTINUOUS
 10
227.8724519816
 20
209.6197114459
 11
229.3202805949
 21
209.953969019
  0
LINE
  8
0
 62
7
  6
CONTINUOUS
 10
227.5350254001
 20
211.0812665431
 11
228.9828540134
 21
211.4155241161
  0
LINE
  8
DEFAULT_2
 62
8
  6
HIDDEN
 10
52.7565824823
 20
209.6197114459
 11
51.308753869
 21
209.953969019
  0
LINE
  8
0
 62
7
  6
CONTINUOUS
 10
51.6461804505
 20
211.4155241161
 11
53.0940090638
 21
211.0812665431
  0
LINE
  8
0
 62
9
  6
CONTINUOUS
 10
237.3362751076
 20
149.6461337874
 11
238.7040647327
 21
149.0655415377
  0
LINE
  8
0
 62
7
  6
CONTINUOUS
 10
237.9223718004
 20
151.0268910675
 11
239.2901614254
 21
150.4462988178
  0
LINE
  8
DEFAULT_2
 62
8
  6
HIDDEN
 10
95.664560698
 20
252.5766593214
 11
94.6897144168
 21
253.6980916852
  0
LINE
  8
0
 62
7
  6
CONTINUOUS
 10
95.8217787871
 20
254.6821802287
 11
96.7966250683
 21
253.5607478649
  0
LINE
  8
0
 62
9
  6
CONTINUOUS
 10
209.7410843735
 20
95.5637945843
 11
210.5063858629
 21
94.2901190177
  0
LINE
  8
0
 62
7
  6
CONTINUOUS
 10
211.0268353245
 20
96.3363516967
 11
211.7921368139
 21
95.06267613
  0
LINE
  8
0
 62
9
  6
CONTINUOUS
 10
172.5117656922
 20
248.4016332997
 11
172.5117656922
 21
246.9016332997
  0
LINE
  8
DEFAULT_2
 62
8
  6
HIDDEN
 10
172.5117656922
 20
81.7375592997
 11
172.5117656922
 21
83.2375592997
  0
LINE
  8
0
 62
9
  6
CONTINUOUS
 10
215.3439808005
 20
213.5615625993
 11
214.4623029221
 21
212.3480371077
  0
LINE
  8
DEFAULT_2
 62
8
  6
HIDDEN
 10
117.3812960163
 20
78.7274943815
 11
118.2629738948
 21
79.9410198731
  0
LINE
  8
0
 62
9
  6
CONTINUOUS
 10
229.5174909833
 20
160.1992089537
 11
228.0909062088
 21
159.7356834621
  0
LINE
  8
DEFAULT_2
 62
8
  6
HIDDEN
 10
71.0105373733
 20
108.6971777359
 11
72.4371221477
 21
109.1607032275
  0
LINE
  8
DEFAULT_2
 62
8
  6
HIDDEN
 10
229.5174909833
 20
169.9399836458
 11
228.0909062088
 21
170.4035091373
  0
LINE
  8
0
 62
9
  6
CONTINUOUS
 10
71.0105373733
 20
221.4420148635
 11
72.4371221477
 21
220.978489372
  0
LINE
  8
0
 62
9
  6
CONTINUOUS
 10
117.3812960163
 20
251.411698218
 11
118.2629738948
 21
250.1981727264
  0
LINE
  8
DEFAULT_2
 62
8
  6
HIDDEN
 10
215.3439808005
 20
116.5776300002
 11
214.4623029221
 21
117.7911554918
  0
LINE
  8
BLANK_COSM
 62
2
  6
PHANTOM
 10
148.6894626015
 20
109.8049313625
 11
144.4468219144
 21
105.5622906754
  0
LINE
  8
BLANK_COSM
 62
2
  6
PHANTOM
 10
195.5791821692
 20
156.6946509302
 11
199.8218228563
 21
160.9372916173
  0
LINE
  8
BLANK_COSM
 62
2
  6
PHANTOM
 10
193.7172271096
 20
152.5699541708
 11
152.8141593608
 21
111.6668864221
  0
LINE
  8
BLANK_COSM
 62
2
  6
PHANTOM
 10
144.4468219144
 20
224.5769019241
 11
148.6894626015
 21
220.3342612369
  0
LINE
  8
BLANK_COSM
 62
2
  6
PHANTOM
 10
199.8218228563
 20
169.2019009822
 11
195.5791821692
 21
173.4445416693
  0
LINE
  8
BLANK_COSM
 62
2
  6
PHANTOM
 10
152.8141593608
 20
218.4723061774
 11
193.7172271096
 21
177.5692384286
  0
LINE
  8
0
 62
9
  6
CONTINUOUS
 10
210.196837468
 20
91.891101765
 11
210.0505860497
 21
93.3839549134
  0
LINE
  8
DEFAULT_2
 62
8
  6
HIDDEN
 10
210.196837468
 20
238.2480908345
 11
210.0505860497
 21
236.7552376861
  0
LINE
  8
0
 62
9
  6
CONTINUOUS
 10
153.8372620367
 20
64.7911533676
 11
154.5964192184
 21
66.0848613616
  0
LINE
  8
DEFAULT_2
 62
8
  6
HIDDEN
 10
239.8637417817
 20
183.1964447704
 11
238.8679448345
 21
182.07466563
  0
LINE
  8
0
 62
9
  6
CONTINUOUS
 10
92.3124577113
 20
75.9941618314
 11
93.6870512522
 21
76.5945721887
  0
LINE
  8
DEFAULT_2
 62
8
  6
HIDDEN
 10
49.1228085927
 20
208.9182339
 11
50.587790481
 21
209.2404575286
  0
LINE
  8
0
 62
9
  6
CONTINUOUS
 10
231.5062258712
 20
208.9182339
 11
230.0412439828
 21
209.2404575286
  0
LINE
  8
DEFAULT_2
 62
8
  6
HIDDEN
 10
92.3124577113
 20
254.145030768
 11
93.6870512522
 21
253.5446204108
  0
LINE
  8
0
 62
9
  6
CONTINUOUS
 10
239.8637417817
 20
146.9427478291
 11
238.8679448345
 21
148.0645269694
  0
LINE
  8
DEFAULT_2
 62
8
  6
HIDDEN
 10
153.8372620367
 20
265.3480392318
 11
154.5964192184
 21
264.0543312379
  0
LINE
  8
0
 62
9
  6
CONTINUOUS
 10
219.1457144942
 20
142.8730398604
 11
208.1919123162
 21
109.1607032275
  0
LINE
  8
DEFAULT_2
 62
8
  6
HIDDEN
 10
219.1457144942
 20
142.8730398604
 11
228.0909062088
 21
170.4035091373
  0
LINE
  8
0
 62
7
  6
CONTINUOUS
 10
220.5722992687
 20
142.4095143688
 11
209.6184970906
 21
108.6971777359
  0
LINE
  8
DEFAULT_2
 62
8
  6
HIDDEN
 10
220.5722992687
 20
142.4095143688
 11
227.9350062063
 21
165.0695962997
  0
LINE
  8
0
 62
7
  6
CONTINUOUS
 10
227.9350062063
 20
165.0695962997
 11
229.5174909833
 21
169.9399836458
  0
LINE
  8
DEFAULT_2
 62
8
  6
HIDDEN
 10
219.8477678491
 20
133.7074999916
 11
219.3842423576
 21
132.2809152171
  0
LINE
  8
0
 62
9
  6
CONTINUOUS
 10
223.09244629
 20
143.6935934127
 11
223.5559717816
 21
145.1201781871
  0
LINE
  8
DEFAULT_2
 62
8
  6
HIDDEN
 10
220.3232961072
 20
133.5529914944
 11
219.8597706157
 21
132.1264067199
  0
LINE
  8
0
 62
9
  6
CONTINUOUS
 10
223.5679745482
 20
143.5390849155
 11
224.0315000397
 21
144.9656696899
  0
LINE
  8
0
 62
9
  6
CONTINUOUS
 10
191.0434869773
 20
100.7763897524
 11
162.3660605691
 21
79.9410198731
  0
LINE
  8
DEFAULT_2
 62
8
  6
HIDDEN
 10
191.0434869773
 20
100.7763897524
 11
214.4623029221
 21
117.7911554918
  0
LINE
  8
0
 62
7
  6
CONTINUOUS
 10
191.9251648558
 20
99.5628642608
 11
163.2477384476
 21
78.7274943815
  0
LINE
  8
DEFAULT_2
 62
8
  6
HIDDEN
 10
191.9251648558
 20
99.5628642608
 11
211.2009818676
 21
113.567565082
  0
LINE
  8
0
 62
7
  6
CONTINUOUS
 10
211.2009818676
 20
113.567565082
 11
215.3439808005
 21
116.5776300002
  0
LINE
  8
DEFAULT_2
 62
8
  6
HIDDEN
 10
186.2240909082
 20
92.9486556276
 11
185.0105654166
 21
92.0669777491
  0
LINE
  8
0
 62
9
  6
CONTINUOUS
 10
194.7187693491
 20
99.1204007766
 11
195.9322948407
 21
100.002078655
  0
LINE
  8
DEFAULT_2
 62
8
  6
HIDDEN
 10
186.5179835343
 20
92.5441471304
 11
185.3044580427
 21
91.6624692519
  0
LINE
  8
0
 62
9
  6
CONTINUOUS
 10
195.0126619752
 20
98.7158922795
 11
196.2261874668
 21
99.5975701579
  0
LINE
  8
DEFAULT_2
 62
8
  6
HIDDEN
 10
137.0645172319
 20
246.9016332997
 11
108.1172687717
 21
246.9016332997
  0
LINE
  8
0
 62
9
  6
CONTINUOUS
 10
137.0645172319
 20
246.9016332997
 11
172.5117656922
 21
246.9016332997
  0
LINE
  8
DEFAULT_2
 62
8
  6
HIDDEN
 10
137.0645172319
 20
248.4016332997
 11
113.2382970834
 21
248.4016332997
  0
LINE
  8
0
 62
7
  6
CONTINUOUS
 10
113.2382970834
 20
248.4016332997
 11
108.1172687717
 21
248.4016332997
  0
LINE
  8
0
 62
7
  6
CONTINUOUS
 10
137.0645172319
 20
248.4016332997
 11
172.5117656922
 21
248.4016332997
  0
LINE
  8
0
 62
9
  6
CONTINUOUS
 10
135.0645172319
 20
250.4016332997
 11
133.564517232
 21
250.4016332998
  0
LINE
  8
DEFAULT_2
 62
8
  6
HIDDEN
 10
145.5645172319
 20
250.4016332997
 11
147.0645172319
 21
250.4016332998
  0
LINE
  8
0
 62
9
  6
CONTINUOUS
 10
135.0645172319
 20
250.9016332997
 11
133.5645172319
 21
250.9016332997
  0
LINE
  8
DEFAULT_2
 62
8
  6
HIDDEN
 10
145.5645172319
 20
250.9016332997
 11
147.0645172319
 21
250.9016332997
  0
LINE
  8
0
 62
9
  6
CONTINUOUS
 10
185.7848765139
 20
233.183406987
 11
214.4623029221
 21
212.3480371077
  0
LINE
  8
DEFAULT_2
 62
8
  6
HIDDEN
 10
185.7848765139
 20
233.183406987
 11
162.3660605691
 21
250.1981727264
  0
LINE
  8
0
 62
7
  6
CONTINUOUS
 10
186.6665543923
 20
234.3969324786
 11
215.3439808005
 21
213.5615625993
  0
LINE
  8
DEFAULT_2
 62
8
  6
HIDDEN
 10
186.6665543923
 20
234.3969324786
 11
167.3907373805
 21
248.4016332997
  0
LINE
  8
0
 62
7
  6
CONTINUOUS
 10
167.3907373805
 20
248.4016332997
 11
163.2477384476
 21
251.411698218
  0
LINE
  8
DEFAULT_2
 62
8
  6
HIDDEN
 10
194.7187693491
 20
231.0187918228
 11
195.9322948407
 21
230.1371139445
  0
LINE
  8
0
 62
9
  6
CONTINUOUS
 10
186.2240909082
 20
237.1905369719
 11
185.0105654166
 21
238.0722148504
  0
LINE
  8
DEFAULT_2
 62
8
  6
HIDDEN
 10
195.0126619752
 20
231.42330032
 11
196.2261874668
 21
230.5416224416
  0
LINE
  8
0
 62
9
  6
CONTINUOUS
 10
186.5179835343
 20
237.5950454691
 11
185.3044580427
 21
238.4767233475
  0
LINE
  8
0
 62
9
  6
CONTINUOUS
 10
217.1371040308
 20
193.448020095
 11
228.0909062088
 21
159.7356834621
  0
LINE
  8
DEFAULT_2
 62
8
  6
HIDDEN
 10
217.1371040308
 20
193.448020095
 11
208.1919123162
 21
220.978489372
  0
LINE
  8
0
 62
7
  6
CONTINUOUS
 10
218.5636888052
 20
193.9115455866
 11
229.5174909833
 21
160.1992089537
  0
LINE
  8
DEFAULT_2
 62
8
  6
HIDDEN
 10
218.5636888052
 20
193.9115455866
 11
211.2009818676
 21
216.5716275175
  0
LINE
  8
0
 62
7
  6
CONTINUOUS
 10
211.2009818676
 20
216.5716275175
 11
209.6184970906
 21
221.4420148635
  0
LINE
  8
DEFAULT_2
 62
8
  6
HIDDEN
 10
223.09244629
 20
186.4455991868
 11
223.5559717816
 21
185.0190144124
  0
LINE
  8
0
 62
9
  6
CONTINUOUS
 10
219.8477678491
 20
196.4316926079
 11
219.3842423576
 21
197.8582773824
  0
LINE
  8
DEFAULT_2
 62
8
  6
HIDDEN
 10
223.5679745482
 20
186.600107684
 11
224.0315000397
 21
185.1735229096
  0
LINE
  8
0
 62
9
  6
CONTINUOUS
 10
220.3232961072
 20
196.5862011051
 11
219.8597706157
 21
198.0127858796
  0
LINE
  8
DEFAULT_2
 62
8
  6
HIDDEN
 10
227.5350254001
 20
119.0579260564
 11
227.8724519816
 21
120.5194811535
  0
LINE
  8
0
 62
9
  6
CONTINUOUS
 10
237.9223718004
 20
151.0268910675
 11
237.3362751076
 21
149.6461337874
  0
LINE
  8
DEFAULT_2
 62
8
  6
HIDDEN
 10
183.8324093956
 20
76.5784447346
 11
184.9644737659
 21
77.5625332781
  0
LINE
  8
0
 62
9
  6
CONTINUOUS
 10
211.0268353245
 20
96.3363516967
 11
209.7410843735
 21
95.5637945843
  0
LINE
  8
DEFAULT_2
 62
8
  6
HIDDEN
 10
157.1215967606
 20
262.2396169924
 11
155.6273047134
 21
262.1088833783
  0
LINE
  8
0
 62
9
  6
CONTINUOUS
 10
123.5074377033
 20
262.2396169924
 11
125.0017297505
 21
262.1088833783
  0
LINE
  8
DEFAULT_2
 62
8
  6
HIDDEN
 10
211.0268353245
 20
233.8028409028
 11
209.7410843734
 21
234.5753980152
  0
LINE
  8
0
 62
9
  6
CONTINUOUS
 10
183.8324093956
 20
253.5607478649
 11
184.9644737659
 21
252.5766593214
  0
LINE
  8
DEFAULT_2
 62
8
  6
HIDDEN
 10
237.9223718004
 20
179.1123015319
 11
237.3362751076
 21
180.4930588121
  0
LINE
  8
0
 62
9
  6
CONTINUOUS
 10
227.5350254001
 20
211.0812665431
 11
227.8724519816
 21
209.6197114459
  0
LINE
  8
DEFAULT_2
 62
8
  6
HIDDEN
 10
228.9828540134
 20
118.7236684833
 11
229.3202805949
 21
120.1852235805
  0
LINE
  8
0
 62
9
  6
CONTINUOUS
 10
239.2901614254
 20
150.4462988178
 11
238.7040647327
 21
149.0655415377
  0
LINE
  8
DEFAULT_2
 62
8
  6
HIDDEN
 10
184.8072556768
 20
75.4570123708
 11
185.9393200471
 21
76.4411009142
  0
LINE
  8
0
 62
9
  6
CONTINUOUS
 10
211.7921368139
 20
95.06267613
 11
210.5063858629
 21
94.2901190177
  0
LINE
  8
DEFAULT_2
 62
8
  6
HIDDEN
 10
156.9920909571
 20
263.7198751001
 11
155.4977989099
 21
263.589141486
  0
LINE
  8
0
 62
9
  6
CONTINUOUS
 10
123.6369435068
 20
263.7198751001
 11
125.131235554
 21
263.589141486
  0
LINE
  8
DEFAULT_2
 62
8
  6
HIDDEN
 10
211.7921368139
 20
235.0765164694
 11
210.5063858629
 21
235.8490735818
  0
LINE
  8
0
 62
9
  6
CONTINUOUS
 10
184.8072556768
 20
254.6821802287
 11
185.9393200471
 21
253.6980916852
  0
LINE
  8
DEFAULT_2
 62
8
  6
HIDDEN
 10
239.2901614254
 20
179.6928937816
 11
238.7040647327
 21
181.0736510618
  0
LINE
  8
0
 62
9
  6
CONTINUOUS
 10
228.9828540134
 20
211.4155241161
 11
229.3202805949
 21
209.953969019
  0
POLYLINE
  8
0
 62
9
  6
CONTINUOUS
 66
1
 70
0
  0
VERTEX
  8
0
 62
9
  6
CONTINUOUS
 10
313.3028925055
 20
64.7911533676
  0
VERTEX
  8
0
 62
9
  6
CONTINUOUS
 10
313.5375442269
 20
64.8070810631
  0
VERTEX
  8
0
 62
9
  6
CONTINUOUS
 10
313.7664180414
 20
64.8544719563
  0
VERTEX
  8
0
 62
9
  6
CONTINUOUS
 10
313.9838783137
 20
64.9321591244
  0
VERTEX
  8
0
 62
9
  6
CONTINUOUS
 10
314.1845704488
 20
65.0382296495
  0
VERTEX
  8
0
 62
9
  6
CONTINUOUS
 10
314.3635527397
 20
65.1700717201
  0
VERTEX
  8
0
 62
9
  6
CONTINUOUS
 10
314.5164180493
 20
65.3244389441
  0
VERTEX
  8
0
 62
9
  6
CONTINUOUS
 10
314.6394023286
 20
65.4975302853
  0
VERTEX
  8
0
 62
9
  6
CONTINUOUS
 10
314.7294772997
 20
65.6850836583
  0
VERTEX
  8
0
 62
9
  6
CONTINUOUS
 10
314.7844250222
 20
65.8824808752
  0
SEQEND
  0
POLYLINE
  8
DEFAULT_2
 62
8
  6
HIDDEN
 66
1
 70
0
  0
VERTEX
  8
DEFAULT_2
 62
8
  6
HIDDEN
 10
284.3028925055
 20
64.7911533676
  0
VERTEX
  8
DEFAULT_2
 62
8
  6
HIDDEN
 10
284.0682407841
 20
64.8070810631
  0
VERTEX
  8
DEFAULT_2
 62
8
  6
HIDDEN
 10
283.8393669695
 20
64.8544719563
  0
VERTEX
  8
DEFAULT_2
 62
8
  6
HIDDEN
 10
283.6219066972
 20
64.9321591244
  0
VERTEX
  8
DEFAULT_2
 62
8
  6
HIDDEN
 10
283.4212145622
 20
65.0382296495
  0
VERTEX
  8
DEFAULT_2
 62
8
  6
HIDDEN
 10
283.2422322712
 20
65.1700717201
  0
VERTEX
  8
DEFAULT_2
 62
8
  6
HIDDEN
 10
283.0893669616
 20
65.3244389441
  0
VERTEX
  8
DEFAULT_2
 62
8
  6
HIDDEN
 10
282.9663826823
 20
65.4975302853
  0
VERTEX
  8
DEFAULT_2
 62
8
  6
HIDDEN
 10
282.8763077112
 20
65.6850836583
  0
VERTEX
  8
DEFAULT_2
 62
8
  6
HIDDEN
 10
282.8213599888
 20
65.8824808752
  0
VERTEX
  8
DEFAULT_2
 62
8
  6
HIDDEN
 10
282.8028925055
 20
66.0848613616
  0
SEQEND
  0
POLYLINE
  8
DEFAULT_2
 62
8
  6
HIDDEN
 66
1
 70
0
  0
VERTEX
  8
DEFAULT_2
 62
8
  6
HIDDEN
 10
313.3028925055
 20
66.4193174994
  0
VERTEX
  8
DEFAULT_2
 62
8
  6
HIDDEN
 10
313.5375443696
 20
66.4209270475
  0
VERTEX
  8
DEFAULT_2
 62
8
  6
HIDDEN
 10
313.7664182933
 20
66.4257160628
  0
VERTEX
  8
DEFAULT_2
 62
8
  6
HIDDEN
 10
313.9838786317
 20
66.4335666224
  0
VERTEX
  8
DEFAULT_2
 62
8
  6
HIDDEN
 10
314.1845707859
 20
66.444285418
  0
VERTEX
  8
DEFAULT_2
 62
8
  6
HIDDEN
 10
314.3635530519
 20
66.4576085154
  0
VERTEX
  8
DEFAULT_2
 62
8
  6
HIDDEN
 10
314.5164183017
 20
66.4732078543
  0
VERTEX
  8
DEFAULT_2
 62
8
  6
HIDDEN
 10
314.6394025006
 20
66.4906993257
  0
VERTEX
  8
DEFAULT_2
 62
8
  6
HIDDEN
 10
314.7294773893
 20
66.5096522308
  0
VERTEX
  8
DEFAULT_2
 62
8
  6
HIDDEN
 10
314.7844250477
 20
66.5295998857
  0
VERTEX
  8
DEFAULT_2
 62
8
  6
HIDDEN
 10
314.8028925055
 20
66.5500511135
  0
SEQEND
  0
POLYLINE
  8
DEFAULT_2
 62
8
  6
HIDDEN
 66
1
 70
0
  0
VERTEX
  8
DEFAULT_2
 62
8
  6
HIDDEN
 10
313.3028925055
 20
67.8995756071
  0
VERTEX
  8
DEFAULT_2
 62
8
  6
HIDDEN
 10
313.537544203
 20
67.9011851548
  0
VERTEX
  8
DEFAULT_2
 62
8
  6
HIDDEN
 10
313.766417997
 20
67.9059741656
  0
VERTEX
  8
DEFAULT_2
 62
8
  6
HIDDEN
 10
313.9838782551
 20
67.9138247181
  0
VERTEX
  8
DEFAULT_2
 62
8
  6
HIDDEN
 10
314.1845703839
 20
67.9245435057
  0
VERTEX
  8
DEFAULT_2
 62
8
  6
HIDDEN
 10
314.3635526773
 20
67.9378665961
  0
VERTEX
  8
DEFAULT_2
 62
8
  6
HIDDEN
 10
314.516417997
 20
67.9534659309
  0
VERTEX
  8
DEFAULT_2
 62
8
  6
HIDDEN
 10
314.6394022918
 20
67.9709574024
  0
VERTEX
  8
DEFAULT_2
 62
8
  6
HIDDEN
 10
314.7294772799
 20
67.9899103127
  0
VERTEX
  8
DEFAULT_2
 62
8
  6
HIDDEN
 10
314.7844250164
 20
68.0098579782
  0
VERTEX
  8
DEFAULT_2
 62
8
  6
HIDDEN
 10
314.8028925055
 20
68.0303092212
  0
SEQEND
  0
LINE
  8
0
 62
7
  6
CONTINUOUS
 10
284.3028925055
 20
64.5023445591
 11
313.3028925055
 21
64.5023445591
  0
LINE
  8
DEFAULT_2
 62
8
  6
HIDDEN
 10
298.8028925055
 20
64.7911533676
 11
284.3028925055
 21
64.7911533676
  0
LINE
  8
0
 62
9
  6
CONTINUOUS
 10
298.8028925055
 20
64.7911533676
 11
313.3028925055
 21
64.7911533676
  0
LINE
  8
0
 62
9
  6
CONTINUOUS
 10
298.8028925055
 20
66.4193174994
 11
284.3028925055
 21
66.4193174994
  0
LINE
  8
DEFAULT_2
 62
8
  6
HIDDEN
 10
298.8028925055
 20
66.4193174994
 11
313.3028925055
 21
66.4193174994
  0
LINE
  8
0
 62
9
  6
CONTINUOUS
 10
298.8028925055
 20
67.8995756071
 11
284.3028925055
 21
67.8995756071
  0
LINE
  8
DEFAULT_2
 62
8
  6
HIDDEN
 10
298.8028925055
 20
67.8995756071
 11
313.3028925055
 21
67.8995756071
  0
POLYLINE
  8
0
 62
9
  6
CONTINUOUS
 66
1
 70
0
  0
VERTEX
  8
0
 62
9
  6
CONTINUOUS
 10
284.3028925055
 20
66.4193174994
  0
VERTEX
  8
0
 62
9
  6
CONTINUOUS
 10
284.0682406414
 20
66.4209270475
  0
VERTEX
  8
0
 62
9
  6
CONTINUOUS
 10
283.8393667176
 20
66.4257160628
  0
VERTEX
  8
0
 62
9
  6
CONTINUOUS
 10
283.6219063793
 20
66.4335666224
  0
VERTEX
  8
0
 62
9
  6
CONTINUOUS
 10
283.421214225
 20
66.444285418
  0
VERTEX
  8
0
 62
9
  6
CONTINUOUS
 10
283.242231959
 20
66.4576085154
  0
VERTEX
  8
0
 62
9
  6
CONTINUOUS
 10
283.0893667093
 20
66.4732078543
  0
VERTEX
  8
0
 62
9
  6
CONTINUOUS
 10
282.9663825104
 20
66.4906993257
  0
VERTEX
  8
0
 62
9
  6
CONTINUOUS
 10
282.8763076217
 20
66.5096522308
  0
VERTEX
  8
0
 62
9
  6
CONTINUOUS
 10
282.8213599633
 20
66.5295998857
  0
VERTEX
  8
0
 62
9
  6
CONTINUOUS
 10
282.8028925055
 20
66.5500511135
  0
SEQEND
  0
POLYLINE
  8
0
 62
9
  6
CONTINUOUS
 66
1
 70
0
  0
VERTEX
  8
0
 62
9
  6
CONTINUOUS
 10
284.3028925055
 20
67.8995756071
  0
VERTEX
  8
0
 62
9
  6
CONTINUOUS
 10
284.0682408079
 20
67.9011851548
  0
VERTEX
  8
0
 62
9
  6
CONTINUOUS
 10
283.8393670139
 20
67.9059741656
  0
VERTEX
  8
0
 62
9
  6
CONTINUOUS
 10
283.6219067559
 20
67.9138247181
  0
VERTEX
  8
0
 62
9
  6
CONTINUOUS
 10
283.421214627
 20
67.9245435057
  0
VERTEX
  8
0
 62
9
  6
CONTINUOUS
 10
283.2422323337
 20
67.9378665961
  0
VERTEX
  8
0
 62
9
  6
CONTINUOUS
 10
283.0893670139
 20
67.9534659309
  0
VERTEX
  8
0
 62
9
  6
CONTINUOUS
 10
282.9663827192
 20
67.9709574024
  0
VERTEX
  8
0
 62
9
  6
CONTINUOUS
 10
282.876307731
 20
67.9899103127
  0
VERTEX
  8
0
 62
9
  6
CONTINUOUS
 10
282.8213599946
 20
68.0098579782
  0
VERTEX
  8
0
 62
9
  6
CONTINUOUS
 10
282.8028925055
 20
68.0303092212
  0
SEQEND
  0
POLYLINE
  8
DEFAULT_2
 62
8
  6
HIDDEN
 66
1
 70
0
  0
VERTEX
  8
DEFAULT_2
 62
8
  6
HIDDEN
 10
313.3028925055
 20
75.4570123708
  0
VERTEX
  8
DEFAULT_2
 62
8
  6
HIDDEN
 10
313.5375443696
 20
75.4691281496
  0
VERTEX
  8
DEFAULT_2
 62
8
  6
HIDDEN
 10
313.7664182933
 20
75.5051771529
  0
VERTEX
  8
DEFAULT_2
 62
8
  6
HIDDEN
 10
313.9838786317
 20
75.564271724
  0
VERTEX
  8
DEFAULT_2
 62
8
  6
HIDDEN
 10
314.1845707859
 20
75.6449567461
  0
VERTEX
  8
DEFAULT_2
 62
8
  6
HIDDEN
 10
314.3635530519
 20
75.7452454734
  0
VERTEX
  8
DEFAULT_2
 62
8
  6
HIDDEN
 10
314.5164183017
 20
75.8626684524
  0
VERTEX
  8
DEFAULT_2
 62
8
  6
HIDDEN
 10
314.6394025006
 20
75.9943343299
  0
VERTEX
  8
DEFAULT_2
 62
8
  6
HIDDEN
 10
314.7294773893
 20
76.1370010484
  0
VERTEX
  8
DEFAULT_2
 62
8
  6
HIDDEN
 10
314.7844250477
 20
76.2871556776
  0
VERTEX
  8
DEFAULT_2
 62
8
  6
HIDDEN
 10
314.8028925055
 20
76.4411009142
  0
SEQEND
  0
POLYLINE
  8
DEFAULT_2
 62
8
  6
HIDDEN
 66
1
 70
0
  0
VERTEX
  8
DEFAULT_2
 62
8
  6
HIDDEN
 10
313.3028925055
 20
76.5784447346
  0
VERTEX
  8
DEFAULT_2
 62
8
  6
HIDDEN
 10
313.537544203
 20
76.5905604976
  0
VERTEX
  8
DEFAULT_2
 62
8
  6
HIDDEN
 10
313.766417997
 20
76.6266094562
  0
VERTEX
  8
DEFAULT_2
 62
8
  6
HIDDEN
 10
313.9838782551
 20
76.6857039655
  0
VERTEX
  8
DEFAULT_2
 62
8
  6
HIDDEN
 10
314.1845703839
 20
76.7663889224
  0
VERTEX
  8
DEFAULT_2
 62
8
  6
HIDDEN
 10
314.3635526773
 20
76.8666775957
  0
VERTEX
  8
DEFAULT_2
 62
8
  6
HIDDEN
 10
314.516417997
 20
76.9841005453
  0
VERTEX
  8
DEFAULT_2
 62
8
  6
HIDDEN
 10
314.6394022918
 20
77.1157664284
  0
VERTEX
  8
DEFAULT_2
 62
8
  6
HIDDEN
 10
314.7294772799
 20
77.2584331942
  0
VERTEX
  8
DEFAULT_2
 62
8
  6
HIDDEN
 10
314.7844250164
 20
77.4085879132
  0
VERTEX
  8
DEFAULT_2
 62
8
  6
HIDDEN
 10
314.8028925055
 20
77.5625332781
  0
SEQEND
  0
POLYLINE
  8
0
 62
9
  6
CONTINUOUS
 66
1
 70
0
  0
VERTEX
  8
0
 62
9
  6
CONTINUOUS
 10
313.3028925055
 20
75.9941618314
  0
VERTEX
  8
0
 62
9
  6
CONTINUOUS
 10
313.5375442269
 20
76.0015538809
  0
VERTEX
  8
0
 62
9
  6
CONTINUOUS
 10
313.7664180414
 20
76.0235480119
  0
VERTEX
  8
0
 62
9
  6
CONTINUOUS
 10
313.9838783137
 20
76.0596026553
  0
VERTEX
  8
0
 62
9
  6
CONTINUOUS
 10
314.1845704488
 20
76.1088300251
  0
VERTEX
  8
0
 62
9
  6
CONTINUOUS
 10
314.3635527397
 20
76.1700179788
  0
VERTEX
  8
0
 62
9
  6
CONTINUOUS
 10
314.5164180493
 20
76.2416598644
  0
VERTEX
  8
0
 62
9
  6
CONTINUOUS
 10
314.6394023286
 20
76.3219916197
  0
VERTEX
  8
0
 62
9
  6
CONTINUOUS
 10
314.7294772997
 20
76.4090352092
  0
VERTEX
  8
0
 62
9
  6
CONTINUOUS
 10
314.7844250222
 20
76.5006473304
  0
VERTEX
  8
0
 62
9
  6
CONTINUOUS
 10
314.8028925055
 20
76.5945721887
  0
SEQEND
  0
LINE
  8
DEFAULT_2
 62
8
  6
HIDDEN
 10
298.8028925055
 20
74.7347363316
 11
284.3028925055
 21
74.7347363316
  0
LINE
  8
0
 62
7
  6
CONTINUOUS
 10
298.8028925055
 20
74.7347363316
 11
313.3028925055
 21
74.7347363316
  0
LINE
  8
DEFAULT_2
 62
8
  6
HIDDEN
 10
284.3028925055
 20
75.4570123708
 11
313.3028925055
 21
75.4570123708
  0
LINE
  8
DEFAULT_2
 62
8
  6
HIDDEN
 10
298.8028925055
 20
75.9941618314
 11
284.3028925055
 21
75.9941618314
  0
LINE
  8
0
 62
9
  6
CONTINUOUS
 10
298.8028925055
 20
75.9941618314
 11
313.3028925055
 21
75.9941618314
  0
LINE
  8
DEFAULT_2
 62
8
  6
HIDDEN
 10
284.3028925055
 20
76.5784447346
 11
313.3028925055
 21
76.5784447346
  0
POLYLINE
  8
DEFAULT_2
 62
8
  6
HIDDEN
 66
1
 70
0
  0
VERTEX
  8
DEFAULT_2
 62
8
  6
HIDDEN
 10
284.3028925055
 20
75.9941618314
  0
VERTEX
  8
DEFAULT_2
 62
8
  6
HIDDEN
 10
284.0682407841
 20
76.0015538809
  0
VERTEX
  8
DEFAULT_2
 62
8
  6
HIDDEN
 10
283.8393669695
 20
76.0235480119
  0
VERTEX
  8
DEFAULT_2
 62
8
  6
HIDDEN
 10
283.6219066972
 20
76.0596026553
  0
VERTEX
  8
DEFAULT_2
 62
8
  6
HIDDEN
 10
283.4212145622
 20
76.1088300251
  0
VERTEX
  8
DEFAULT_2
 62
8
  6
HIDDEN
 10
283.2422322712
 20
76.1700179788
  0
VERTEX
  8
DEFAULT_2
 62
8
  6
HIDDEN
 10
283.0893669616
 20
76.2416598644
  0
VERTEX
  8
DEFAULT_2
 62
8
  6
HIDDEN
 10
282.9663826823
 20
76.3219916197
  0
VERTEX
  8
DEFAULT_2
 62
8
  6
HIDDEN
 10
282.8763077112
 20
76.4090352092
  0
VERTEX
  8
DEFAULT_2
 62
8
  6
HIDDEN
 10
282.8213599888
 20
76.5006473304
  0
VERTEX
  8
DEFAULT_2
 62
8
  6
HIDDEN
 10
282.8028925055
 20
76.5945721887
  0
SEQEND
  0
POLYLINE
  8
DEFAULT_2
 62
8
  6
HIDDEN
 66
1
 70
0
  0
VERTEX
  8
DEFAULT_2
 62
8
  6
HIDDEN
 10
284.3028925055
 20
75.4570123708
  0
VERTEX
  8
DEFAULT_2
 62
8
  6
HIDDEN
 10
284.0682406414
 20
75.4691281496
  0
VERTEX
  8
DEFAULT_2
 62
8
  6
HIDDEN
 10
283.8393667176
 20
75.5051771529
  0
VERTEX
  8
DEFAULT_2
 62
8
  6
HIDDEN
 10
283.6219063793
 20
75.564271724
  0
VERTEX
  8
DEFAULT_2
 62
8
  6
HIDDEN
 10
283.421214225
 20
75.6449567461
  0
VERTEX
  8
DEFAULT_2
 62
8
  6
HIDDEN
 10
283.242231959
 20
75.7452454734
  0
VERTEX
  8
DEFAULT_2
 62
8
  6
HIDDEN
 10
283.0893667093
 20
75.8626684524
  0
VERTEX
  8
DEFAULT_2
 62
8
  6
HIDDEN
 10
282.9663825104
 20
75.9943343299
  0
VERTEX
  8
DEFAULT_2
 62
8
  6
HIDDEN
 10
282.8763076217
 20
76.1370010484
  0
VERTEX
  8
DEFAULT_2
 62
8
  6
HIDDEN
 10
282.8213599633
 20
76.2871556776
  0
SEQEND
  0
POLYLINE
  8
DEFAULT_2
 62
8
  6
HIDDEN
 66
1
 70
0
  0
VERTEX
  8
DEFAULT_2
 62
8
  6
HIDDEN
 10
284.3028925055
 20
76.5784447346
  0
VERTEX
  8
DEFAULT_2
 62
8
  6
HIDDEN
 10
284.0682408079
 20
76.5905604976
  0
VERTEX
  8
DEFAULT_2
 62
8
  6
HIDDEN
 10
283.8393670139
 20
76.6266094562
  0
VERTEX
  8
DEFAULT_2
 62
8
  6
HIDDEN
 10
283.6219067559
 20
76.6857039655
  0
VERTEX
  8
DEFAULT_2
 62
8
  6
HIDDEN
 10
283.421214627
 20
76.7663889224
  0
VERTEX
  8
DEFAULT_2
 62
8
  6
HIDDEN
 10
283.2422323337
 20
76.8666775957
  0
VERTEX
  8
DEFAULT_2
 62
8
  6
HIDDEN
 10
283.0893670139
 20
76.9841005453
  0
VERTEX
  8
DEFAULT_2
 62
8
  6
HIDDEN
 10
282.9663827192
 20
77.1157664284
  0
VERTEX
  8
DEFAULT_2
 62
8
  6
HIDDEN
 10
282.876307731
 20
77.2584331942
  0
VERTEX
  8
DEFAULT_2
 62
8
  6
HIDDEN
 10
282.8213599946
 20
77.4085879132
  0
VERTEX
  8
DEFAULT_2
 62
8
  6
HIDDEN
 10
282.8028925055
 20
77.5625332781
  0
SEQEND
  0
POLYLINE
  8
DEFAULT_2
 62
8
  6
HIDDEN
 66
1
 70
0
  0
VERTEX
  8
DEFAULT_2
 62
8
  6
HIDDEN
 10
313.3028925055
 20
78.7274943815
  0
VERTEX
  8
DEFAULT_2
 62
8
  6
HIDDEN
 10
313.5375441717
 20
78.74243489
  0
VERTEX
  8
DEFAULT_2
 62
8
  6
HIDDEN
 10
313.7664179388
 20
78.7868885313
  0
VERTEX
  8
DEFAULT_2
 62
8
  6
HIDDEN
 10
313.9838781781
 20
78.8597607111
  0
VERTEX
  8
DEFAULT_2
 62
8
  6
HIDDEN
 10
314.1845702988
 20
78.9592570773
  0
VERTEX
  8
DEFAULT_2
 62
8
  6
HIDDEN
 10
314.3635525953
 20
79.0829277026
  0
VERTEX
  8
DEFAULT_2
 62
8
  6
HIDDEN
 10
314.5164179283
 20
79.2277274094
  0
VERTEX
  8
DEFAULT_2
 62
8
  6
HIDDEN
 10
314.6394022433
 20
79.3900907518
  0
VERTEX
  8
DEFAULT_2
 62
8
  6
HIDDEN
 10
314.7294772539
 20
79.5660198082
  0
VERTEX
  8
DEFAULT_2
 62
8
  6
HIDDEN
 10
314.7844250087
 20
79.7511826229
  0
VERTEX
  8
DEFAULT_2
 62
8
  6
HIDDEN
 10
314.8028925055
 20
79.9410198731
  0
SEQEND
  0
LINE
  8
0
 62
9
  6
CONTINUOUS
 10
298.8028925055
 20
78.7274943815
 11
284.3028925055
 21
78.7274943815
  0
LINE
  8
DEFAULT_2
 62
8
  6
HIDDEN
 10
298.8028925055
 20
78.7274943815
 11
313.3028925055
 21
78.7274943815
  0
LINE
  8
DEFAULT_2
 62
8
  6
HIDDEN
 10
282.8028925055
 20
79.2375592997
 11
314.8028925055
 21
79.2375592997
  0
LINE
  8
DEFAULT_2
 62
8
  6
HIDDEN
 10
282.8028925055
 20
79.7375592997
 11
314.8028925055
 21
79.7375592997
  0
LINE
  8
DEFAULT_2
 62
8
  6
HIDDEN
 10
284.3028925055
 20
81.7375592997
 11
313.3028925055
 21
81.7375592997
  0
POLYLINE
  8
0
 62
9
  6
CONTINUOUS
 66
1
 70
0
  0
VERTEX
  8
0
 62
9
  6
CONTINUOUS
 10
284.3028925055
 20
78.7274943815
  0
VERTEX
  8
0
 62
9
  6
CONTINUOUS
 10
284.0682408393
 20
78.74243489
  0
VERTEX
  8
0
 62
9
  6
CONTINUOUS
 10
283.8393670721
 20
78.7868885313
  0
VERTEX
  8
0
 62
9
  6
CONTINUOUS
 10
283.6219068328
 20
78.8597607111
  0
VERTEX
  8
0
 62
9
  6
CONTINUOUS
 10
283.4212147121
 20
78.9592570773
  0
VERTEX
  8
0
 62
9
  6
CONTINUOUS
 10
283.2422324156
 20
79.0829277026
  0
VERTEX
  8
0
 62
9
  6
CONTINUOUS
 10
283.0893670826
 20
79.2277274094
  0
VERTEX
  8
0
 62
9
  6
CONTINUOUS
 10
282.9663827676
 20
79.3900907518
  0
VERTEX
  8
0
 62
9
  6
CONTINUOUS
 10
282.8763077571
 20
79.5660198082
  0
VERTEX
  8
0
 62
9
  6
CONTINUOUS
 10
282.8213600022
 20
79.7511826229
  0
VERTEX
  8
0
 62
9
  6
CONTINUOUS
 10
282.8028925055
 20
79.9410198731
  0
SEQEND
  0
POLYLINE
  8
DEFAULT_2
 62
8
  6
HIDDEN
 66
1
 70
0
  0
VERTEX
  8
DEFAULT_2
 62
8
  6
HIDDEN
 10
313.3028925055
 20
91.891101765
  0
VERTEX
  8
DEFAULT_2
 62
8
  6
HIDDEN
 10
313.5375442269
 20
91.9094812682
  0
VERTEX
  8
DEFAULT_2
 62
8
  6
HIDDEN
 10
313.7664180414
 20
91.964167213
  0
VERTEX
  8
DEFAULT_2
 62
8
  6
HIDDEN
 10
313.9838783137
 20
92.0538130482
  0
VERTEX
  8
DEFAULT_2
 62
8
  6
HIDDEN
 10
314.1845704488
 20
92.1762113931
  0
VERTEX
  8
DEFAULT_2
 62
8
  6
HIDDEN
 10
314.3635527397
 20
92.3283483909
  0
VERTEX
  8
DEFAULT_2
 62
8
  6
HIDDEN
 10
314.5164180493
 20
92.5064779205
  0
VERTEX
  8
DEFAULT_2
 62
8
  6
HIDDEN
 10
314.6394023286
 20
92.7062138384
  0
VERTEX
  8
DEFAULT_2
 62
8
  6
HIDDEN
 10
314.7294772997
 20
92.922637981
  0
VERTEX
  8
DEFAULT_2
 62
8
  6
HIDDEN
 10
314.7844250222
 20
93.1504212662
  0
VERTEX
  8
DEFAULT_2
 62
8
  6
HIDDEN
 10
314.8028925055
 20
93.3839549134
  0
SEQEND
  0
POLYLINE
  8
0
 62
9
  6
CONTINUOUS
 66
1
 70
0
  0
VERTEX
  8
0
 62
9
  6
CONTINUOUS
 10
284.3028925055
 20
91.891101765
  0
VERTEX
  8
0
 62
9
  6
CONTINUOUS
 10
284.0682407841
 20
91.9094812682
  0
VERTEX
  8
0
 62
9
  6
CONTINUOUS
 10
283.8393669695
 20
91.964167213
  0
VERTEX
  8
0
 62
9
  6
CONTINUOUS
 10
283.6219066972
 20
92.0538130482
  0
VERTEX
  8
0
 62
9
  6
CONTINUOUS
 10
283.4212145622
 20
92.1762113931
  0
VERTEX
  8
0
 62
9
  6
CONTINUOUS
 10
283.2422322712
 20
92.3283483909
  0
VERTEX
  8
0
 62
9
  6
CONTINUOUS
 10
283.0893669616
 20
92.5064779205
  0
VERTEX
  8
0
 62
9
  6
CONTINUOUS
 10
282.9663826823
 20
92.7062138384
  0
VERTEX
  8
0
 62
9
  6
CONTINUOUS
 10
282.8763077112
 20
92.922637981
  0
VERTEX
  8
0
 62
9
  6
CONTINUOUS
 10
282.8213599888
 20
93.1504212662
  0
SEQEND
  0
POLYLINE
  8
0
 62
9
  6
CONTINUOUS
 66
1
 70
0
  0
VERTEX
  8
0
 62
9
  6
CONTINUOUS
 10
313.3028925055
 20
95.7422601209
  0
VERTEX
  8
0
 62
9
  6
CONTINUOUS
 10
313.537544203
 20
95.7572006334
  0
VERTEX
  8
0
 62
9
  6
CONTINUOUS
 10
313.766417997
 20
95.801654286
  0
VERTEX
  8
0
 62
9
  6
CONTINUOUS
 10
313.9838782551
 20
95.8745264822
  0
VERTEX
  8
0
 62
9
  6
CONTINUOUS
 10
314.1845703839
 20
95.9740228667
  0
VERTEX
  8
0
 62
9
  6
CONTINUOUS
 10
314.3635526773
 20
96.0976935082
  0
VERTEX
  8
0
 62
9
  6
CONTINUOUS
 10
314.516417997
 20
96.2424932252
  0
VERTEX
  8
0
 62
9
  6
CONTINUOUS
 10
314.6394022918
 20
96.4048565681
  0
VERTEX
  8
0
 62
9
  6
CONTINUOUS
 10
314.7294772799
 20
96.5807856125
  0
VERTEX
  8
0
 62
9
  6
CONTINUOUS
 10
314.7844250164
 20
96.7659484014
  0
VERTEX
  8
0
 62
9
  6
CONTINUOUS
 10
314.8028925055
 20
96.9557856125
  0
SEQEND
  0
POLYLINE
  8
DEFAULT_2
 62
8
  6
HIDDEN
 66
1
 70
0
  0
VERTEX
  8
DEFAULT_2
 62
8
  6
HIDDEN
 10
284.3028925055
 20
92.5441471304
  0
VERTEX
  8
DEFAULT_2
 62
8
  6
HIDDEN
 10
284.0682408079
 20
92.5332922126
  0
VERTEX
  8
DEFAULT_2
 62
8
  6
HIDDEN
 10
283.8393670139
 20
92.5009947435
  0
VERTEX
  8
DEFAULT_2
 62
8
  6
HIDDEN
 10
283.6219067559
 20
92.4480499939
  0
VERTEX
  8
DEFAULT_2
 62
8
  6
HIDDEN
 10
283.421214627
 20
92.3757616392
  0
VERTEX
  8
DEFAULT_2
 62
8
  6
HIDDEN
 10
283.2422323337
 20
92.2859096586
  0
VERTEX
  8
DEFAULT_2
 62
8
  6
HIDDEN
 10
283.0893670139
 20
92.1807065062
  0
VERTEX
  8
DEFAULT_2
 62
8
  6
HIDDEN
 10
282.9663827192
 20
92.0627426326
  0
VERTEX
  8
DEFAULT_2
 62
8
  6
HIDDEN
 10
282.876307731
 20
91.9349226999
  0
VERTEX
  8
DEFAULT_2
 62
8
  6
HIDDEN
 10
282.8213599946
 20
91.8003940592
  0
VERTEX
  8
DEFAULT_2
 62
8
  6
HIDDEN
 10
282.8028925055
 20
91.6624692519
  0
SEQEND
  0
POLYLINE
  8
DEFAULT_2
 62
8
  6
HIDDEN
 66
1
 70
0
  0
VERTEX
  8
DEFAULT_2
 62
8
  6
HIDDEN
 10
284.3028925055
 20
92.9486556276
  0
VERTEX
  8
DEFAULT_2
 62
8
  6
HIDDEN
 10
284.0682411115
 20
92.937800738
  0
VERTEX
  8
DEFAULT_2
 62
8
  6
HIDDEN
 10
283.8393675685
 20
92.9055033466
  0
VERTEX
  8
DEFAULT_2
 62
8
  6
HIDDEN
 10
283.6219074781
 20
92.8525587073
  0
VERTEX
  8
DEFAULT_2
 62
8
  6
HIDDEN
 10
283.4212154155
 20
92.780270473
  0
VERTEX
  8
DEFAULT_2
 62
8
  6
HIDDEN
 10
283.2422330841
 20
92.6904185968
  0
VERTEX
  8
DEFAULT_2
 62
8
  6
HIDDEN
 10
283.0893676361
 20
92.5852155067
  0
VERTEX
  8
DEFAULT_2
 62
8
  6
HIDDEN
 10
282.9663831537
 20
92.467251631
  0
VERTEX
  8
DEFAULT_2
 62
8
  6
HIDDEN
 10
282.8763079626
 20
92.3394316161
  0
VERTEX
  8
DEFAULT_2
 62
8
  6
HIDDEN
 10
282.821360062
 20
92.2049028066
  0
VERTEX
  8
DEFAULT_2
 62
8
  6
HIDDEN
 10
282.8028925055
 20
92.0669777491
  0
SEQEND
  0
POLYLINE
  8
0
 62
9
  6
CONTINUOUS
 66
1
 70
0
  0
VERTEX
  8
0
 62
9
  6
CONTINUOUS
 10
284.3028925055
 20
95.06267613
  0
VERTEX
  8
0
 62
9
  6
CONTINUOUS
 10
284.0682406414
 20
95.0531646548
  0
VERTEX
  8
0
 62
9
  6
CONTINUOUS
 10
283.8393667176
 20
95.024864441
  0
VERTEX
  8
0
 62
9
  6
CONTINUOUS
 10
283.6219063793
 20
94.9784723423
  0
VERTEX
  8
0
 62
9
  6
CONTINUOUS
 10
283.421214225
 20
94.9151306957
  0
VERTEX
  8
0
 62
9
  6
CONTINUOUS
 10
283.242231959
 20
94.8363991929
  0
VERTEX
  8
0
 62
9
  6
CONTINUOUS
 10
283.0893667093
 20
94.7442164743
  0
VERTEX
  8
0
 62
9
  6
CONTINUOUS
 10
282.9663825104
 20
94.6408523921
  0
VERTEX
  8
0
 62
9
  6
CONTINUOUS
 10
282.8763076217
 20
94.5288521181
  0
VERTEX
  8
0
 62
9
  6
CONTINUOUS
 10
282.8213599633
 20
94.4109734728
  0
VERTEX
  8
0
 62
9
  6
CONTINUOUS
 10
282.8028925055
 20
94.2901190177
  0
SEQEND
  0
POLYLINE
  8
0
 62
9
  6
CONTINUOUS
 66
1
 70
0
  0
VERTEX
  8
0
 62
9
  6
CONTINUOUS
 10
284.3028925055
 20
96.3363516967
  0
VERTEX
  8
0
 62
9
  6
CONTINUOUS
 10
284.0682408079
 20
96.3268402366
  0
VERTEX
  8
0
 62
9
  6
CONTINUOUS
 10
283.8393670139
 20
96.2985400602
  0
VERTEX
  8
0
 62
9
  6
CONTINUOUS
 10
283.6219067559
 20
96.2521480117
  0
VERTEX
  8
0
 62
9
  6
CONTINUOUS
 10
283.421214627
 20
96.1888064173
  0
VERTEX
  8
0
 62
9
  6
CONTINUOUS
 10
283.2422323337
 20
96.1100749573
  0
VERTEX
  8
0
 62
9
  6
CONTINUOUS
 10
283.0893670139
 20
96.0178922615
  0
VERTEX
  8
0
 62
9
  6
CONTINUOUS
 10
282.9663827192
 20
95.9145281738
  0
VERTEX
  8
0
 62
9
  6
CONTINUOUS
 10
282.876307731
 20
95.8025278611
  0
VERTEX
  8
0
 62
9
  6
CONTINUOUS
 10
282.8213599946
 20
95.6846491429
  0
VERTEX
  8
0
 62
9
  6
CONTINUOUS
 10
282.8028925055
 20
95.5637945843
  0
SEQEND
  0
LINE
  8
0
 62
7
  6
CONTINUOUS
 10
298.8028925055
 20
91.8112952554
 11
284.3028925055
 21
91.8112952554
  0
LINE
  8
DEFAULT_2
 62
8
  6
HIDDEN
 10
298.8028925055
 20
91.8112952554
 11
313.3028925055
 21
91.8112952554
  0
LINE
  8
0
 62
9
  6
CONTINUOUS
 10
298.8028925055
 20
91.891101765
 11
284.3028925055
 21
91.891101765
  0
LINE
  8
DEFAULT_2
 62
8
  6
HIDDEN
 10
298.8028925055
 20
91.891101765
 11
313.3028925055
 21
91.891101765
  0
LINE
  8
DEFAULT_2
 62
8
  6
HIDDEN
 10
298.8028925055
 20
92.5441471304
 11
284.3028925055
 21
92.5441471304
  0
LINE
  8
0
 62
9
  6
CONTINUOUS
 10
298.8028925055
 20
92.5441471304
 11
313.3028925055
 21
92.5441471304
  0
LINE
  8
DEFAULT_2
 62
8
  6
HIDDEN
 10
298.8028925055
 20
92.9486556276
 11
284.3028925055
 21
92.9486556276
  0
LINE
  8
0
 62
9
  6
CONTINUOUS
 10
298.8028925055
 20
92.9486556276
 11
313.3028925055
 21
92.9486556276
  0
LINE
  8
0
 62
9
  6
CONTINUOUS
 10
298.8028925055
 20
95.06267613
 11
284.3028925055
 21
95.06267613
  0
LINE
  8
DEFAULT_2
 62
8
  6
HIDDEN
 10
298.8028925055
 20
95.06267613
 11
313.3028925055
 21
95.06267613
  0
LINE
  8
DEFAULT_2
 62
8
  6
HIDDEN
 10
298.8028925055
 20
95.7422601209
 11
284.3028925055
 21
95.7422601209
  0
LINE
  8
0
 62
9
  6
CONTINUOUS
 10
298.8028925055
 20
95.7422601209
 11
313.3028925055
 21
95.7422601209
  0
LINE
  8
0
 62
9
  6
CONTINUOUS
 10
298.8028925055
 20
96.3363516967
 11
284.3028925055
 21
96.3363516967
  0
LINE
  8
DEFAULT_2
 62
8
  6
HIDDEN
 10
298.8028925055
 20
96.3363516967
 11
313.3028925055
 21
96.3363516967
  0
POLYLINE
  8
DEFAULT_2
 62
8
  6
HIDDEN
 66
1
 70
0
  0
VERTEX
  8
DEFAULT_2
 62
8
  6
HIDDEN
 10
313.3028925055
 20
95.06267613
  0
VERTEX
  8
DEFAULT_2
 62
8
  6
HIDDEN
 10
313.5375443696
 20
95.0531646548
  0
VERTEX
  8
DEFAULT_2
 62
8
  6
HIDDEN
 10
313.7664182933
 20
95.024864441
  0
VERTEX
  8
DEFAULT_2
 62
8
  6
HIDDEN
 10
313.9838786317
 20
94.9784723423
  0
VERTEX
  8
DEFAULT_2
 62
8
  6
HIDDEN
 10
314.1845707859
 20
94.9151306957
  0
VERTEX
  8
DEFAULT_2
 62
8
  6
HIDDEN
 10
314.3635530519
 20
94.8363991929
  0
VERTEX
  8
DEFAULT_2
 62
8
  6
HIDDEN
 10
314.5164183017
 20
94.7442164743
  0
VERTEX
  8
DEFAULT_2
 62
8
  6
HIDDEN
 10
314.6394025006
 20
94.6408523921
  0
VERTEX
  8
DEFAULT_2
 62
8
  6
HIDDEN
 10
314.7294773893
 20
94.5288521181
  0
VERTEX
  8
DEFAULT_2
 62
8
  6
HIDDEN
 10
314.7844250477
 20
94.4109734728
  0
VERTEX
  8
DEFAULT_2
 62
8
  6
HIDDEN
 10
314.8028925055
 20
94.2901190177
  0
SEQEND
  0
POLYLINE
  8
DEFAULT_2
 62
8
  6
HIDDEN
 66
1
 70
0
  0
VERTEX
  8
DEFAULT_2
 62
8
  6
HIDDEN
 10
313.3028925055
 20
96.3363516967
  0
VERTEX
  8
DEFAULT_2
 62
8
  6
HIDDEN
 10
313.537544203
 20
96.3268402366
  0
VERTEX
  8
DEFAULT_2
 62
8
  6
HIDDEN
 10
313.766417997
 20
96.2985400602
  0
VERTEX
  8
DEFAULT_2
 62
8
  6
HIDDEN
 10
313.9838782551
 20
96.2521480117
  0
VERTEX
  8
DEFAULT_2
 62
8
  6
HIDDEN
 10
314.1845703839
 20
96.1888064173
  0
VERTEX
  8
DEFAULT_2
 62
8
  6
HIDDEN
 10
314.3635526773
 20
96.1100749573
  0
VERTEX
  8
DEFAULT_2
 62
8
  6
HIDDEN
 10
314.516417997
 20
96.0178922615
  0
VERTEX
  8
DEFAULT_2
 62
8
  6
HIDDEN
 10
314.6394022918
 20
95.9145281738
  0
VERTEX
  8
DEFAULT_2
 62
8
  6
HIDDEN
 10
314.7294772799
 20
95.8025278611
  0
VERTEX
  8
DEFAULT_2
 62
8
  6
HIDDEN
 10
314.7844250164
 20
95.6846491429
  0
VERTEX
  8
DEFAULT_2
 62
8
  6
HIDDEN
 10
314.8028925055
 20
95.5637945843
  0
SEQEND
  0
POLYLINE
  8
0
 62
9
  6
CONTINUOUS
 66
1
 70
0
  0
VERTEX
  8
0
 62
9
  6
CONTINUOUS
 10
313.3028925055
 20
92.5441471304
  0
VERTEX
  8
0
 62
9
  6
CONTINUOUS
 10
313.537544203
 20
92.5332922126
  0
VERTEX
  8
0
 62
9
  6
CONTINUOUS
 10
313.766417997
 20
92.5009947435
  0
VERTEX
  8
0
 62
9
  6
CONTINUOUS
 10
313.9838782551
 20
92.4480499939
  0
VERTEX
  8
0
 62
9
  6
CONTINUOUS
 10
314.1845703839
 20
92.3757616392
  0
VERTEX
  8
0
 62
9
  6
CONTINUOUS
 10
314.3635526773
 20
92.2859096586
  0
VERTEX
  8
0
 62
9
  6
CONTINUOUS
 10
314.516417997
 20
92.1807065062
  0
VERTEX
  8
0
 62
9
  6
CONTINUOUS
 10
314.6394022918
 20
92.0627426326
  0
VERTEX
  8
0
 62
9
  6
CONTINUOUS
 10
314.7294772799
 20
91.9349226999
  0
VERTEX
  8
0
 62
9
  6
CONTINUOUS
 10
314.7844250164
 20
91.8003940592
  0
VERTEX
  8
0
 62
9
  6
CONTINUOUS
 10
314.8028925055
 20
91.6624692519
  0
SEQEND
  0
POLYLINE
  8
0
 62
9
  6
CONTINUOUS
 66
1
 70
0
  0
VERTEX
  8
0
 62
9
  6
CONTINUOUS
 10
313.3028925055
 20
92.9486556276
  0
VERTEX
  8
0
 62
9
  6
CONTINUOUS
 10
313.5375438994
 20
92.937800738
  0
VERTEX
  8
0
 62
9
  6
CONTINUOUS
 10
313.7664174425
 20
92.9055033466
  0
VERTEX
  8
0
 62
9
  6
CONTINUOUS
 10
313.9838775328
 20
92.8525587073
  0
VERTEX
  8
0
 62
9
  6
CONTINUOUS
 10
314.1845695955
 20
92.780270473
  0
VERTEX
  8
0
 62
9
  6
CONTINUOUS
 10
314.3635519269
 20
92.6904185968
  0
VERTEX
  8
0
 62
9
  6
CONTINUOUS
 10
314.5164173748
 20
92.5852155067
  0
VERTEX
  8
0
 62
9
  6
CONTINUOUS
 10
314.6394018572
 20
92.467251631
  0
VERTEX
  8
0
 62
9
  6
CONTINUOUS
 10
314.7294770483
 20
92.3394316161
  0
VERTEX
  8
0
 62
9
  6
CONTINUOUS
 10
314.7844249489
 20
92.2049028066
  0
VERTEX
  8
0
 62
9
  6
CONTINUOUS
 10
314.8028925055
 20
92.0669777491
  0
SEQEND
  0
POLYLINE
  8
DEFAULT_2
 62
8
  6
HIDDEN
 66
1
 70
0
  0
VERTEX
  8
DEFAULT_2
 62
8
  6
HIDDEN
 10
284.3028925055
 20
95.7422601209
  0
VERTEX
  8
DEFAULT_2
 62
8
  6
HIDDEN
 10
284.0682408079
 20
95.7572006334
  0
VERTEX
  8
DEFAULT_2
 62
8
  6
HIDDEN
 10
283.8393670139
 20
95.801654286
  0
VERTEX
  8
DEFAULT_2
 62
8
  6
HIDDEN
 10
283.6219067559
 20
95.8745264822
  0
VERTEX
  8
DEFAULT_2
 62
8
  6
HIDDEN
 10
283.421214627
 20
95.9740228667
  0
VERTEX
  8
DEFAULT_2
 62
8
  6
HIDDEN
 10
283.2422323337
 20
96.0976935082
  0
VERTEX
  8
DEFAULT_2
 62
8
  6
HIDDEN
 10
283.0893670139
 20
96.2424932253
  0
VERTEX
  8
DEFAULT_2
 62
8
  6
HIDDEN
 10
282.9663827192
 20
96.4048565681
  0
VERTEX
  8
DEFAULT_2
 62
8
  6
HIDDEN
 10
282.876307731
 20
96.5807856125
  0
VERTEX
  8
DEFAULT_2
 62
8
  6
HIDDEN
 10
282.8213599946
 20
96.7659484014
  0
VERTEX
  8
DEFAULT_2
 62
8
  6
HIDDEN
 10
282.8028925055
 20
96.9557856125
  0
SEQEND
  0
POLYLINE
  8
DEFAULT_2
 62
8
  6
HIDDEN
 66
1
 70
0
  0
VERTEX
  8
DEFAULT_2
 62
8
  6
HIDDEN
 10
313.3028925055
 20
99.5628642608
  0
VERTEX
  8
DEFAULT_2
 62
8
  6
HIDDEN
 10
313.537544203
 20
99.5778047733
  0
VERTEX
  8
DEFAULT_2
 62
8
  6
HIDDEN
 10
313.766417997
 20
99.6222584259
  0
VERTEX
  8
DEFAULT_2
 62
8
  6
HIDDEN
 10
313.9838782551
 20
99.6951306221
  0
VERTEX
  8
DEFAULT_2
 62
8
  6
HIDDEN
 10
314.1845703839
 20
99.7946270066
  0
VERTEX
  8
DEFAULT_2
 62
8
  6
HIDDEN
 10
314.3635526773
 20
99.9182976481
  0
VERTEX
  8
DEFAULT_2
 62
8
  6
HIDDEN
 10
314.516417997
 20
100.0630973652
  0
VERTEX
  8
DEFAULT_2
 62
8
  6
HIDDEN
 10
314.6394022918
 20
100.225460708
  0
VERTEX
  8
DEFAULT_2
 62
8
  6
HIDDEN
 10
314.7294772799
 20
100.4013897524
  0
VERTEX
  8
DEFAULT_2
 62
8
  6
HIDDEN
 10
314.7844250164
 20
100.5865525413
  0
VERTEX
  8
DEFAULT_2
 62
8
  6
HIDDEN
 10
314.8028925055
 20
100.7763897524
  0
SEQEND
  0
POLYLINE
  8
DEFAULT_2
 62
8
  6
HIDDEN
 66
1
 70
0
  0
VERTEX
  8
DEFAULT_2
 62
8
  6
HIDDEN
 10
313.3028925055
 20
98.7158922795
  0
VERTEX
  8
DEFAULT_2
 62
8
  6
HIDDEN
 10
313.537544203
 20
98.7267471972
  0
VERTEX
  8
DEFAULT_2
 62
8
  6
HIDDEN
 10
313.766417997
 20
98.7590446663
  0
VERTEX
  8
DEFAULT_2
 62
8
  6
HIDDEN
 10
313.9838782551
 20
98.811989416
  0
VERTEX
  8
DEFAULT_2
 62
8
  6
HIDDEN
 10
314.1845703839
 20
98.8842777707
  0
VERTEX
  8
DEFAULT_2
 62
8
  6
HIDDEN
 10
314.3635526773
 20
98.9741297512
  0
VERTEX
  8
DEFAULT_2
 62
8
  6
HIDDEN
 10
314.516417997
 20
99.0793329037
  0
VERTEX
  8
DEFAULT_2
 62
8
  6
HIDDEN
 10
314.6394022918
 20
99.1972967773
  0
VERTEX
  8
DEFAULT_2
 62
8
  6
HIDDEN
 10
314.7294772799
 20
99.3251167099
  0
VERTEX
  8
DEFAULT_2
 62
8
  6
HIDDEN
 10
314.7844250164
 20
99.4596453506
  0
VERTEX
  8
DEFAULT_2
 62
8
  6
HIDDEN
 10
314.8028925055
 20
99.5975701579
  0
SEQEND
  0
POLYLINE
  8
DEFAULT_2
 62
8
  6
HIDDEN
 66
1
 70
0
  0
VERTEX
  8
DEFAULT_2
 62
8
  6
HIDDEN
 10
313.3028925055
 20
99.1204007766
  0
VERTEX
  8
DEFAULT_2
 62
8
  6
HIDDEN
 10
313.5375438994
 20
99.1312556661
  0
VERTEX
  8
DEFAULT_2
 62
8
  6
HIDDEN
 10
313.7664174425
 20
99.1635530576
  0
VERTEX
  8
DEFAULT_2
 62
8
  6
HIDDEN
 10
313.9838775328
 20
99.2164976968
  0
VERTEX
  8
DEFAULT_2
 62
8
  6
HIDDEN
 10
314.1845695955
 20
99.2887859311
  0
VERTEX
  8
DEFAULT_2
 62
8
  6
HIDDEN
 10
314.3635519269
 20
99.3786378073
  0
VERTEX
  8
DEFAULT_2
 62
8
  6
HIDDEN
 10
314.5164173748
 20
99.4838408974
  0
VERTEX
  8
DEFAULT_2
 62
8
  6
HIDDEN
 10
314.6394018572
 20
99.6018047732
  0
VERTEX
  8
DEFAULT_2
 62
8
  6
HIDDEN
 10
314.7294770483
 20
99.7296247881
  0
VERTEX
  8
DEFAULT_2
 62
8
  6
HIDDEN
 10
314.7844249489
 20
99.8641535975
  0
VERTEX
  8
DEFAULT_2
 62
8
  6
HIDDEN
 10
314.8028925055
 20
100.002078655
  0
SEQEND
  0
LINE
  8
DEFAULT_2
 62
8
  6
HIDDEN
 10
284.3028925055
 20
98.7158922795
 11
313.3028925055
 21
98.7158922795
  0
LINE
  8
DEFAULT_2
 62
8
  6
HIDDEN
 10
284.3028925055
 20
99.1204007766
 11
313.3028925055
 21
99.1204007766
  0
LINE
  8
DEFAULT_2
 62
8
  6
HIDDEN
 10
284.3028925055
 20
99.5628642608
 11
313.3028925055
 21
99.5628642608
  0
LINE
  8
DEFAULT_2
 62
8
  6
HIDDEN
 10
284.3028925055
 20
99.9448302721
 11
313.3028925055
 21
99.9448302721
  0
POLYLINE
  8
DEFAULT_2
 62
8
  6
HIDDEN
 66
1
 70
0
  0
VERTEX
  8
DEFAULT_2
 62
8
  6
HIDDEN
 10
284.3028925055
 20
98.7158922795
  0
VERTEX
  8
DEFAULT_2
 62
8
  6
HIDDEN
 10
284.0682408079
 20
98.7267471972
  0
VERTEX
  8
DEFAULT_2
 62
8
  6
HIDDEN
 10
283.8393670139
 20
98.7590446663
  0
VERTEX
  8
DEFAULT_2
 62
8
  6
HIDDEN
 10
283.6219067559
 20
98.811989416
  0
VERTEX
  8
DEFAULT_2
 62
8
  6
HIDDEN
 10
283.421214627
 20
98.8842777707
  0
VERTEX
  8
DEFAULT_2
 62
8
  6
HIDDEN
 10
283.2422323337
 20
98.9741297512
  0
VERTEX
  8
DEFAULT_2
 62
8
  6
HIDDEN
 10
283.0893670139
 20
99.0793329037
  0
VERTEX
  8
DEFAULT_2
 62
8
  6
HIDDEN
 10
282.9663827192
 20
99.1972967773
  0
VERTEX
  8
DEFAULT_2
 62
8
  6
HIDDEN
 10
282.876307731
 20
99.3251167099
  0
VERTEX
  8
DEFAULT_2
 62
8
  6
HIDDEN
 10
282.8213599946
 20
99.4596453506
  0
VERTEX
  8
DEFAULT_2
 62
8
  6
HIDDEN
 10
282.8028925055
 20
99.5975701579
  0
SEQEND
  0
POLYLINE
  8
DEFAULT_2
 62
8
  6
HIDDEN
 66
1
 70
0
  0
VERTEX
  8
DEFAULT_2
 62
8
  6
HIDDEN
 10
284.3028925055
 20
99.1204007766
  0
VERTEX
  8
DEFAULT_2
 62
8
  6
HIDDEN
 10
284.0682411115
 20
99.1312556661
  0
VERTEX
  8
DEFAULT_2
 62
8
  6
HIDDEN
 10
283.8393675685
 20
99.1635530576
  0
VERTEX
  8
DEFAULT_2
 62
8
  6
HIDDEN
 10
283.6219074781
 20
99.2164976968
  0
VERTEX
  8
DEFAULT_2
 62
8
  6
HIDDEN
 10
283.4212154155
 20
99.2887859311
  0
VERTEX
  8
DEFAULT_2
 62
8
  6
HIDDEN
 10
283.2422330841
 20
99.3786378073
  0
VERTEX
  8
DEFAULT_2
 62
8
  6
HIDDEN
 10
283.0893676361
 20
99.4838408974
  0
VERTEX
  8
DEFAULT_2
 62
8
  6
HIDDEN
 10
282.9663831537
 20
99.6018047732
  0
VERTEX
  8
DEFAULT_2
 62
8
  6
HIDDEN
 10
282.8763079626
 20
99.7296247881
  0
VERTEX
  8
DEFAULT_2
 62
8
  6
HIDDEN
 10
282.821360062
 20
99.8641535975
  0
VERTEX
  8
DEFAULT_2
 62
8
  6
HIDDEN
 10
282.8028925055
 20
100.002078655
  0
SEQEND
  0
POLYLINE
  8
DEFAULT_2
 62
8
  6
HIDDEN
 66
1
 70
0
  0
VERTEX
  8
DEFAULT_2
 62
8
  6
HIDDEN
 10
284.3028925055
 20
99.5628642608
  0
VERTEX
  8
DEFAULT_2
 62
8
  6
HIDDEN
 10
284.0682408079
 20
99.5778047733
  0
VERTEX
  8
DEFAULT_2
 62
8
  6
HIDDEN
 10
283.8393670139
 20
99.6222584259
  0
VERTEX
  8
DEFAULT_2
 62
8
  6
HIDDEN
 10
283.6219067559
 20
99.6951306221
  0
VERTEX
  8
DEFAULT_2
 62
8
  6
HIDDEN
 10
283.421214627
 20
99.7946270066
  0
VERTEX
  8
DEFAULT_2
 62
8
  6
HIDDEN
 10
283.2422323337
 20
99.9182976481
  0
VERTEX
  8
DEFAULT_2
 62
8
  6
HIDDEN
 10
283.0893670139
 20
100.0630973652
  0
VERTEX
  8
DEFAULT_2
 62
8
  6
HIDDEN
 10
282.9663827192
 20
100.225460708
  0
VERTEX
  8
DEFAULT_2
 62
8
  6
HIDDEN
 10
282.876307731
 20
100.4013897524
  0
VERTEX
  8
DEFAULT_2
 62
8
  6
HIDDEN
 10
282.8213599946
 20
100.5865525413
  0
VERTEX
  8
DEFAULT_2
 62
8
  6
HIDDEN
 10
282.8028925055
 20
100.7763897524
  0
SEQEND
  0
POLYLINE
  8
DEFAULT_2
 62
8
  6
HIDDEN
 66
1
 70
0
  0
VERTEX
  8
DEFAULT_2
 62
8
  6
HIDDEN
 10
313.3028925055
 20
108.6971777359
  0
VERTEX
  8
DEFAULT_2
 62
8
  6
HIDDEN
 10
313.5375441717
 20
108.7028845024
  0
VERTEX
  8
DEFAULT_2
 62
8
  6
HIDDEN
 10
313.7664179388
 20
108.7198642824
  0
VERTEX
  8
DEFAULT_2
 62
8
  6
HIDDEN
 10
313.9838781781
 20
108.7476989783
  0
VERTEX
  8
DEFAULT_2
 62
8
  6
HIDDEN
 10
314.1845702988
 20
108.7857032084
  0
VERTEX
  8
DEFAULT_2
 62
8
  6
HIDDEN
 10
314.3635525953
 20
108.8329411838
  0
VERTEX
  8
DEFAULT_2
 62
8
  6
HIDDEN
 10
314.5164179283
 20
108.8882497503
  0
VERTEX
  8
DEFAULT_2
 62
8
  6
HIDDEN
 10
314.6394022433
 20
108.9502670286
  0
VERTEX
  8
DEFAULT_2
 62
8
  6
HIDDEN
 10
314.7294772539
 20
109.0174659485
  0
VERTEX
  8
DEFAULT_2
 62
8
  6
HIDDEN
 10
314.7844250087
 20
109.0881918503
  0
VERTEX
  8
DEFAULT_2
 62
8
  6
HIDDEN
 10
314.8028925055
 20
109.1607032275
  0
SEQEND
  0
LINE
  8
0
 62
9
  6
CONTINUOUS
 10
298.8028925055
 20
108.6971777359
 11
284.3028925055
 21
108.6971777359
  0
LINE
  8
DEFAULT_2
 62
8
  6
HIDDEN
 10
298.8028925055
 20
108.6971777359
 11
313.3028925055
 21
108.6971777359
  0
POLYLINE
  8
0
 62
9
  6
CONTINUOUS
 66
1
 70
0
  0
VERTEX
  8
0
 62
9
  6
CONTINUOUS
 10
284.3028925055
 20
108.6971777359
  0
VERTEX
  8
0
 62
9
  6
CONTINUOUS
 10
284.0682408393
 20
108.7028845024
  0
VERTEX
  8
0
 62
9
  6
CONTINUOUS
 10
283.8393670721
 20
108.7198642824
  0
VERTEX
  8
0
 62
9
  6
CONTINUOUS
 10
283.6219068328
 20
108.7476989783
  0
VERTEX
  8
0
 62
9
  6
CONTINUOUS
 10
283.4212147121
 20
108.7857032084
  0
VERTEX
  8
0
 62
9
  6
CONTINUOUS
 10
283.2422324156
 20
108.8329411838
  0
VERTEX
  8
0
 62
9
  6
CONTINUOUS
 10
283.0893670826
 20
108.8882497503
  0
VERTEX
  8
0
 62
9
  6
CONTINUOUS
 10
282.9663827676
 20
108.9502670286
  0
VERTEX
  8
0
 62
9
  6
CONTINUOUS
 10
282.8763077571
 20
109.0174659485
  0
VERTEX
  8
0
 62
9
  6
CONTINUOUS
 10
282.8213600022
 20
109.0881918503
  0
VERTEX
  8
0
 62
9
  6
CONTINUOUS
 10
282.8028925055
 20
109.1607032275
  0
SEQEND
  0
POLYLINE
  8
DEFAULT_2
 62
8
  6
HIDDEN
 66
1
 70
0
  0
VERTEX
  8
DEFAULT_2
 62
8
  6
HIDDEN
 10
313.3028925055
 20
118.7236684833
  0
VERTEX
  8
DEFAULT_2
 62
8
  6
HIDDEN
 10
313.5375443696
 20
118.7416626772
  0
VERTEX
  8
DEFAULT_2
 62
8
  6
HIDDEN
 10
313.7664182933
 20
118.7952021744
  0
VERTEX
  8
DEFAULT_2
 62
8
  6
HIDDEN
 10
313.9838786317
 20
118.8829686394
  0
VERTEX
  8
DEFAULT_2
 62
8
  6
HIDDEN
 10
314.1845707859
 20
119.002800952
  0
VERTEX
  8
DEFAULT_2
 62
8
  6
HIDDEN
 10
314.3635530519
 20
119.151748424
  0
VERTEX
  8
DEFAULT_2
 62
8
  6
HIDDEN
 10
314.5164183017
 20
119.3261434563
  0
VERTEX
  8
DEFAULT_2
 62
8
  6
HIDDEN
 10
314.6394025006
 20
119.5216918498
  0
VERTEX
  8
DEFAULT_2
 62
8
  6
HIDDEN
 10
314.7294773893
 20
119.7335785444
  0
VERTEX
  8
DEFAULT_2
 62
8
  6
HIDDEN
 10
314.7844250477
 20
119.9565861829
  0
VERTEX
  8
DEFAULT_2
 62
8
  6
HIDDEN
 10
314.8028925055
 20
120.1852235805
  0
SEQEND
  0
POLYLINE
  8
DEFAULT_2
 62
8
  6
HIDDEN
 66
1
 70
0
  0
VERTEX
  8
DEFAULT_2
 62
8
  6
HIDDEN
 10
313.3028925055
 20
119.0579260564
  0
VERTEX
  8
DEFAULT_2
 62
8
  6
HIDDEN
 10
313.537544203
 20
119.0759202249
  0
VERTEX
  8
DEFAULT_2
 62
8
  6
HIDDEN
 10
313.766417997
 20
119.1294596544
  0
VERTEX
  8
DEFAULT_2
 62
8
  6
HIDDEN
 10
313.9838782551
 20
119.2172260265
  0
VERTEX
  8
DEFAULT_2
 62
8
  6
HIDDEN
 10
314.1845703839
 20
119.3370582417
  0
VERTEX
  8
DEFAULT_2
 62
8
  6
HIDDEN
 10
314.3635526773
 20
119.4860056332
  0
VERTEX
  8
DEFAULT_2
 62
8
  6
HIDDEN
 10
314.516417997
 20
119.660400622
  0
VERTEX
  8
DEFAULT_2
 62
8
  6
HIDDEN
 10
314.6394022918
 20
119.8559490246
  0
VERTEX
  8
DEFAULT_2
 62
8
  6
HIDDEN
 10
314.7294772799
 20
120.0678357903
  0
VERTEX
  8
DEFAULT_2
 62
8
  6
HIDDEN
 10
314.7844250164
 20
120.2908435638
  0
VERTEX
  8
DEFAULT_2
 62
8
  6
HIDDEN
 10
314.8028925055
 20
120.5194811535
  0
SEQEND
  0
POLYLINE
  8
0
 62
9
  6
CONTINUOUS
 66
1
 70
0
  0
VERTEX
  8
0
 62
9
  6
CONTINUOUS
 10
313.3028925055
 20
116.5776300002
  0
VERTEX
  8
0
 62
9
  6
CONTINUOUS
 10
313.5375441717
 20
116.5925705087
  0
VERTEX
  8
0
 62
9
  6
CONTINUOUS
 10
313.7664179388
 20
116.63702415
  0
VERTEX
  8
0
 62
9
  6
CONTINUOUS
 10
313.9838781781
 20
116.7098963298
  0
VERTEX
  8
0
 62
9
  6
CONTINUOUS
 10
314.1845702988
 20
116.809392696
  0
VERTEX
  8
0
 62
9
  6
CONTINUOUS
 10
314.3635525953
 20
116.9330633212
  0
VERTEX
  8
0
 62
9
  6
CONTINUOUS
 10
314.5164179283
 20
117.0778630281
  0
VERTEX
  8
0
 62
9
  6
CONTINUOUS
 10
314.6394022433
 20
117.2402263705
  0
VERTEX
  8
0
 62
9
  6
CONTINUOUS
 10
314.7294772539
 20
117.4161554269
  0
VERTEX
  8
0
 62
9
  6
CONTINUOUS
 10
314.7844250087
 20
117.6013182416
  0
VERTEX
  8
0
 62
9
  6
CONTINUOUS
 10
314.8028925055
 20
117.7911554918
  0
SEQEND
  0
LINE
  8
DEFAULT_2
 62
8
  6
HIDDEN
 10
298.8028925055
 20
116.5776300002
 11
284.3028925055
 21
116.5776300002
  0
LINE
  8
0
 62
9
  6
CONTINUOUS
 10
298.8028925055
 20
116.5776300002
 11
313.3028925055
 21
116.5776300002
  0
POLYLINE
  8
DEFAULT_2
 62
8
  6
HIDDEN
 66
1
 70
0
  0
VERTEX
  8
DEFAULT_2
 62
8
  6
HIDDEN
 10
284.3028925055
 20
116.5776300002
  0
VERTEX
  8
DEFAULT_2
 62
8
  6
HIDDEN
 10
284.0682408393
 20
116.5925705087
  0
VERTEX
  8
DEFAULT_2
 62
8
  6
HIDDEN
 10
283.8393670721
 20
116.63702415
  0
VERTEX
  8
DEFAULT_2
 62
8
  6
HIDDEN
 10
283.6219068328
 20
116.7098963298
  0
VERTEX
  8
DEFAULT_2
 62
8
  6
HIDDEN
 10
283.4212147121
 20
116.809392696
  0
VERTEX
  8
DEFAULT_2
 62
8
  6
HIDDEN
 10
283.2422324156
 20
116.9330633212
  0
VERTEX
  8
DEFAULT_2
 62
8
  6
HIDDEN
 10
283.0893670826
 20
117.0778630281
  0
VERTEX
  8
DEFAULT_2
 62
8
  6
HIDDEN
 10
282.9663827676
 20
117.2402263705
  0
VERTEX
  8
DEFAULT_2
 62
8
  6
HIDDEN
 10
282.8763077571
 20
117.4161554269
  0
VERTEX
  8
DEFAULT_2
 62
8
  6
HIDDEN
 10
282.8213600022
 20
117.6013182416
  0
VERTEX
  8
DEFAULT_2
 62
8
  6
HIDDEN
 10
282.8028925055
 20
117.7911554918
  0
SEQEND
  0
POLYLINE
  8
DEFAULT_2
 62
8
  6
HIDDEN
 66
1
 70
0
  0
VERTEX
  8
DEFAULT_2
 62
8
  6
HIDDEN
 10
284.3028925055
 20
118.7236684833
  0
VERTEX
  8
DEFAULT_2
 62
8
  6
HIDDEN
 10
284.0682406414
 20
118.7416626772
  0
VERTEX
  8
DEFAULT_2
 62
8
  6
HIDDEN
 10
283.8393667176
 20
118.7952021744
  0
VERTEX
  8
DEFAULT_2
 62
8
  6
HIDDEN
 10
283.6219063793
 20
118.8829686394
  0
VERTEX
  8
DEFAULT_2
 62
8
  6
HIDDEN
 10
283.421214225
 20
119.002800952
  0
VERTEX
  8
DEFAULT_2
 62
8
  6
HIDDEN
 10
283.242231959
 20
119.151748424
  0
VERTEX
  8
DEFAULT_2
 62
8
  6
HIDDEN
 10
283.0893667093
 20
119.3261434563
  0
VERTEX
  8
DEFAULT_2
 62
8
  6
HIDDEN
 10
282.9663825104
 20
119.5216918498
  0
VERTEX
  8
DEFAULT_2
 62
8
  6
HIDDEN
 10
282.8763076217
 20
119.7335785444
  0
VERTEX
  8
DEFAULT_2
 62
8
  6
HIDDEN
 10
282.8213599633
 20
119.9565861829
  0
SEQEND
  0
POLYLINE
  8
DEFAULT_2
 62
8
  6
HIDDEN
 66
1
 70
0
  0
VERTEX
  8
DEFAULT_2
 62
8
  6
HIDDEN
 10
284.3028925055
 20
119.0579260564
  0
VERTEX
  8
DEFAULT_2
 62
8
  6
HIDDEN
 10
284.0682408079
 20
119.0759202249
  0
VERTEX
  8
DEFAULT_2
 62
8
  6
HIDDEN
 10
283.8393670139
 20
119.1294596544
  0
VERTEX
  8
DEFAULT_2
 62
8
  6
HIDDEN
 10
283.6219067559
 20
119.2172260265
  0
VERTEX
  8
DEFAULT_2
 62
8
  6
HIDDEN
 10
283.421214627
 20
119.3370582417
  0
VERTEX
  8
DEFAULT_2
 62
8
  6
HIDDEN
 10
283.2422323337
 20
119.4860056332
  0
VERTEX
  8
DEFAULT_2
 62
8
  6
HIDDEN
 10
283.0893670139
 20
119.660400622
  0
VERTEX
  8
DEFAULT_2
 62
8
  6
HIDDEN
 10
282.9663827192
 20
119.8559490246
  0
VERTEX
  8
DEFAULT_2
 62
8
  6
HIDDEN
 10
282.876307731
 20
120.0678357903
  0
VERTEX
  8
DEFAULT_2
 62
8
  6
HIDDEN
 10
282.8213599946
 20
120.2908435638
  0
VERTEX
  8
DEFAULT_2
 62
8
  6
HIDDEN
 10
282.8028925055
 20
120.5194811535
  0
SEQEND
  0
POLYLINE
  8
DEFAULT_2
 62
8
  6
HIDDEN
 66
1
 70
0
  0
VERTEX
  8
DEFAULT_2
 62
8
  6
HIDDEN
 10
284.3028925055
 20
121.2209586995
  0
VERTEX
  8
DEFAULT_2
 62
8
  6
HIDDEN
 10
284.0682407841
 20
121.2169915912
  0
VERTEX
  8
DEFAULT_2
 62
8
  6
HIDDEN
 10
283.8393669695
 20
121.2051879496
  0
VERTEX
  8
DEFAULT_2
 62
8
  6
HIDDEN
 10
283.6219066972
 20
121.18583842
  0
VERTEX
  8
DEFAULT_2
 62
8
  6
HIDDEN
 10
283.4212145622
 20
121.1594194525
  0
VERTEX
  8
DEFAULT_2
 62
8
  6
HIDDEN
 10
283.2422322712
 20
121.1265815705
  0
VERTEX
  8
DEFAULT_2
 62
8
  6
HIDDEN
 10
283.0893669616
 20
121.0881333524
  0
VERTEX
  8
DEFAULT_2
 62
8
  6
HIDDEN
 10
282.9663826823
 20
121.0450215217
  0
VERTEX
  8
DEFAULT_2
 62
8
  6
HIDDEN
 10
282.8763077112
 20
120.9983076351
  0
VERTEX
  8
DEFAULT_2
 62
8
  6
HIDDEN
 10
282.8213599888
 20
120.949141944
  0
VERTEX
  8
DEFAULT_2
 62
8
  6
HIDDEN
 10
282.8028925055
 20
120.8987350708
  0
SEQEND
  0
LINE
  8
DEFAULT_2
 62
8
  6
HIDDEN
 10
298.8028925055
 20
118.6698456194
 11
284.3028925055
 21
118.6698456194
  0
LINE
  8
0
 62
7
  6
CONTINUOUS
 10
298.8028925055
 20
118.6698456194
 11
313.3028925055
 21
118.6698456194
  0
LINE
  8
DEFAULT_2
 62
8
  6
HIDDEN
 10
284.3028925055
 20
118.7236684833
 11
313.3028925055
 21
118.7236684833
  0
LINE
  8
DEFAULT_2
 62
8
  6
HIDDEN
 10
284.3028925055
 20
119.0579260564
 11
313.3028925055
 21
119.0579260564
  0
LINE
  8
DEFAULT_2
 62
8
  6
HIDDEN
 10
284.3028925055
 20
119.4423750846
 11
313.3028925055
 21
119.4423750846
  0
LINE
  8
DEFAULT_2
 62
8
  6
HIDDEN
 10
298.8028925055
 20
121.2209586995
 11
284.3028925055
 21
121.2209586995
  0
LINE
  8
0
 62
9
  6
CONTINUOUS
 10
298.8028925055
 20
121.2209586995
 11
313.3028925055
 21
121.2209586995
  0
POLYLINE
  8
0
 62
9
  6
CONTINUOUS
 66
1
 70
0
  0
VERTEX
  8
0
 62
9
  6
CONTINUOUS
 10
313.3028925055
 20
121.2209586995
  0
VERTEX
  8
0
 62
9
  6
CONTINUOUS
 10
313.5375442269
 20
121.2169915912
  0
VERTEX
  8
0
 62
9
  6
CONTINUOUS
 10
313.7664180414
 20
121.2051879496
  0
VERTEX
  8
0
 62
9
  6
CONTINUOUS
 10
313.9838783137
 20
121.18583842
  0
VERTEX
  8
0
 62
9
  6
CONTINUOUS
 10
314.1845704488
 20
121.1594194525
  0
VERTEX
  8
0
 62
9
  6
CONTINUOUS
 10
314.3635527397
 20
121.1265815705
  0
VERTEX
  8
0
 62
9
  6
CONTINUOUS
 10
314.5164180493
 20
121.0881333524
  0
VERTEX
  8
0
 62
9
  6
CONTINUOUS
 10
314.6394023286
 20
121.0450215217
  0
VERTEX
  8
0
 62
9
  6
CONTINUOUS
 10
314.7294772997
 20
120.9983076351
  0
VERTEX
  8
0
 62
9
  6
CONTINUOUS
 10
314.7844250222
 20
120.949141944
  0
VERTEX
  8
0
 62
9
  6
CONTINUOUS
 10
314.8028925055
 20
120.8987350708
  0
SEQEND
  0
POLYLINE
  8
DEFAULT_2
 62
8
  6
HIDDEN
 66
1
 70
0
  0
VERTEX
  8
DEFAULT_2
 62
8
  6
HIDDEN
 10
284.3028925055
 20
133.5529914944
  0
VERTEX
  8
DEFAULT_2
 62
8
  6
HIDDEN
 10
284.0682408079
 20
133.5354278685
  0
VERTEX
  8
DEFAULT_2
 62
8
  6
HIDDEN
 10
283.8393670139
 20
133.4831694657
  0
VERTEX
  8
DEFAULT_2
 62
8
  6
HIDDEN
 10
283.6219067559
 20
133.3975030613
  0
VERTEX
  8
DEFAULT_2
 62
8
  6
HIDDEN
 10
283.421214627
 20
133.2805380464
  0
VERTEX
  8
DEFAULT_2
 62
8
  6
HIDDEN
 10
283.2422323337
 20
133.1351544879
  0
VERTEX
  8
DEFAULT_2
 62
8
  6
HIDDEN
 10
283.0893670139
 20
132.9649322115
  0
VERTEX
  8
DEFAULT_2
 62
8
  6
HIDDEN
 10
282.9663827192
 20
132.7740626546
  0
VERTEX
  8
DEFAULT_2
 62
8
  6
HIDDEN
 10
282.876307731
 20
132.5672456591
  0
VERTEX
  8
DEFAULT_2
 62
8
  6
HIDDEN
 10
282.8213599946
 20
132.349573746
  0
VERTEX
  8
DEFAULT_2
 62
8
  6
HIDDEN
 10
282.8028925055
 20
132.1264067199
  0
SEQEND
  0
POLYLINE
  8
DEFAULT_2
 62
8
  6
HIDDEN
 66
1
 70
0
  0
VERTEX
  8
DEFAULT_2
 62
8
  6
HIDDEN
 10
284.3028925055
 20
133.7074999916
  0
VERTEX
  8
DEFAULT_2
 62
8
  6
HIDDEN
 10
284.0682411115
 20
133.6899364114
  0
VERTEX
  8
DEFAULT_2
 62
8
  6
HIDDEN
 10
283.8393675685
 20
133.6376781343
  0
VERTEX
  8
DEFAULT_2
 62
8
  6
HIDDEN
 10
283.6219074781
 20
133.5520119084
  0
VERTEX
  8
DEFAULT_2
 62
8
  6
HIDDEN
 10
283.4212154155
 20
133.4350470883
  0
VERTEX
  8
DEFAULT_2
 62
8
  6
HIDDEN
 10
283.2422330841
 20
133.2896636987
  0
VERTEX
  8
DEFAULT_2
 62
8
  6
HIDDEN
 10
283.0893676361
 20
133.1194415232
  0
VERTEX
  8
DEFAULT_2
 62
8
  6
HIDDEN
 10
282.9663831537
 20
132.9285719628
  0
VERTEX
  8
DEFAULT_2
 62
8
  6
HIDDEN
 10
282.8763079626
 20
132.7217548342
  0
VERTEX
  8
DEFAULT_2
 62
8
  6
HIDDEN
 10
282.821360062
 20
132.504082648
  0
VERTEX
  8
DEFAULT_2
 62
8
  6
HIDDEN
 10
282.8028925055
 20
132.2809152171
  0
SEQEND
  0
POLYLINE
  8
0
 62
9
  6
CONTINUOUS
 66
1
 70
0
  0
VERTEX
  8
0
 62
9
  6
CONTINUOUS
 10
313.3028925055
 20
136.2276470129
  0
VERTEX
  8
0
 62
9
  6
CONTINUOUS
 10
313.537544203
 20
136.2333537809
  0
VERTEX
  8
0
 62
9
  6
CONTINUOUS
 10
313.766417997
 20
136.2503335652
  0
VERTEX
  8
0
 62
9
  6
CONTINUOUS
 10
313.9838782551
 20
136.2781682674
  0
VERTEX
  8
0
 62
9
  6
CONTINUOUS
 10
314.1845703839
 20
136.3161725045
  0
VERTEX
  8
0
 62
9
  6
CONTINUOUS
 10
314.3635526773
 20
136.3634104861
  0
VERTEX
  8
0
 62
9
  6
CONTINUOUS
 10
314.516417997
 20
136.4187190565
  0
VERTEX
  8
0
 62
9
  6
CONTINUOUS
 10
314.6394022918
 20
136.4807363349
  0
VERTEX
  8
0
 62
9
  6
CONTINUOUS
 10
314.7294772799
 20
136.5479352502
  0
VERTEX
  8
0
 62
9
  6
CONTINUOUS
 10
314.7844250164
 20
136.6186611422
  0
VERTEX
  8
0
 62
9
  6
CONTINUOUS
 10
314.8028925055
 20
136.6911725045
  0
SEQEND
  0
LINE
  8
DEFAULT_2
 62
8
  6
HIDDEN
 10
298.8028925055
 20
133.5529914944
 11
284.3028925055
 21
133.5529914944
  0
LINE
  8
0
 62
9
  6
CONTINUOUS
 10
298.8028925055
 20
133.5529914944
 11
313.3028925055
 21
133.5529914944
  0
LINE
  8
DEFAULT_2
 62
8
  6
HIDDEN
 10
298.8028925055
 20
133.7074999916
 11
284.3028925055
 21
133.7074999916
  0
LINE
  8
0
 62
9
  6
CONTINUOUS
 10
298.8028925055
 20
133.7074999916
 11
313.3028925055
 21
133.7074999916
  0
LINE
  8
DEFAULT_2
 62
8
  6
HIDDEN
 10
298.8028925055
 20
136.2276470129
 11
284.3028925055
 21
136.2276470129
  0
LINE
  8
0
 62
9
  6
CONTINUOUS
 10
298.8028925055
 20
136.2276470129
 11
313.3028925055
 21
136.2276470129
  0
POLYLINE
  8
DEFAULT_2
 62
8
  6
HIDDEN
 66
1
 70
0
  0
VERTEX
  8
DEFAULT_2
 62
8
  6
HIDDEN
 10
284.3028925055
 20
136.2276470129
  0
VERTEX
  8
DEFAULT_2
 62
8
  6
HIDDEN
 10
284.0682408079
 20
136.2333537809
  0
VERTEX
  8
DEFAULT_2
 62
8
  6
HIDDEN
 10
283.8393670139
 20
136.2503335652
  0
VERTEX
  8
DEFAULT_2
 62
8
  6
HIDDEN
 10
283.6219067559
 20
136.2781682674
  0
VERTEX
  8
DEFAULT_2
 62
8
  6
HIDDEN
 10
283.421214627
 20
136.3161725045
  0
VERTEX
  8
DEFAULT_2
 62
8
  6
HIDDEN
 10
283.2422323337
 20
136.3634104861
  0
VERTEX
  8
DEFAULT_2
 62
8
  6
HIDDEN
 10
283.0893670139
 20
136.4187190565
  0
VERTEX
  8
DEFAULT_2
 62
8
  6
HIDDEN
 10
282.9663827192
 20
136.4807363349
  0
VERTEX
  8
DEFAULT_2
 62
8
  6
HIDDEN
 10
282.876307731
 20
136.5479352502
  0
VERTEX
  8
DEFAULT_2
 62
8
  6
HIDDEN
 10
282.8213599946
 20
136.6186611422
  0
VERTEX
  8
DEFAULT_2
 62
8
  6
HIDDEN
 10
282.8028925055
 20
136.6911725045
  0
SEQEND
  0
POLYLINE
  8
0
 62
9
  6
CONTINUOUS
 66
1
 70
0
  0
VERTEX
  8
0
 62
9
  6
CONTINUOUS
 10
313.3028925055
 20
133.5529914944
  0
VERTEX
  8
0
 62
9
  6
CONTINUOUS
 10
313.537544203
 20
133.5354278685
  0
VERTEX
  8
0
 62
9
  6
CONTINUOUS
 10
313.766417997
 20
133.4831694657
  0
VERTEX
  8
0
 62
9
  6
CONTINUOUS
 10
313.9838782551
 20
133.3975030613
  0
VERTEX
  8
0
 62
9
  6
CONTINUOUS
 10
314.1845703839
 20
133.2805380464
  0
VERTEX
  8
0
 62
9
  6
CONTINUOUS
 10
314.3635526773
 20
133.1351544879
  0
VERTEX
  8
0
 62
9
  6
CONTINUOUS
 10
314.516417997
 20
132.9649322115
  0
VERTEX
  8
0
 62
9
  6
CONTINUOUS
 10
314.6394022918
 20
132.7740626546
  0
VERTEX
  8
0
 62
9
  6
CONTINUOUS
 10
314.7294772799
 20
132.5672456591
  0
VERTEX
  8
0
 62
9
  6
CONTINUOUS
 10
314.7844250164
 20
132.349573746
  0
VERTEX
  8
0
 62
9
  6
CONTINUOUS
 10
314.8028925055
 20
132.1264067199
  0
SEQEND
  0
POLYLINE
  8
0
 62
9
  6
CONTINUOUS
 66
1
 70
0
  0
VERTEX
  8
0
 62
9
  6
CONTINUOUS
 10
313.3028925055
 20
133.7074999916
  0
VERTEX
  8
0
 62
9
  6
CONTINUOUS
 10
313.5375438994
 20
133.6899364114
  0
VERTEX
  8
0
 62
9
  6
CONTINUOUS
 10
313.7664174425
 20
133.6376781343
  0
VERTEX
  8
0
 62
9
  6
CONTINUOUS
 10
313.9838775328
 20
133.5520119084
  0
VERTEX
  8
0
 62
9
  6
CONTINUOUS
 10
314.1845695955
 20
133.4350470883
  0
VERTEX
  8
0
 62
9
  6
CONTINUOUS
 10
314.3635519269
 20
133.2896636987
  0
VERTEX
  8
0
 62
9
  6
CONTINUOUS
 10
314.5164173748
 20
133.1194415232
  0
VERTEX
  8
0
 62
9
  6
CONTINUOUS
 10
314.6394018572
 20
132.9285719628
  0
VERTEX
  8
0
 62
9
  6
CONTINUOUS
 10
314.7294770483
 20
132.7217548342
  0
VERTEX
  8
0
 62
9
  6
CONTINUOUS
 10
314.7844249489
 20
132.504082648
  0
VERTEX
  8
0
 62
9
  6
CONTINUOUS
 10
314.8028925055
 20
132.2809152171
  0
SEQEND
  0
LINE
  8
DEFAULT_2
 62
8
  6
HIDDEN
 10
282.8213599633
 20
76.2871556776
 11
282.8028925055
 21
76.4411009142
  0
LINE
  8
DEFAULT_2
 62
8
  6
HIDDEN
 10
282.8213599633
 20
119.9565861829
 11
282.8028925055
 21
120.1852235805
  0
LINE
  8
0
 62
9
  6
CONTINUOUS
 10
282.8213599888
 20
93.1504212662
 11
282.8028925055
 21
93.3839549134
  0
LINE
  8
0
 62
9
  6
CONTINUOUS
 10
282.8213599888
 20
264.2567117242
 11
282.8028925055
 21
264.0543312379
  0
LINE
  8
DEFAULT_2
 62
8
  6
HIDDEN
 10
315.3028925055
 20
236.5695962997
 11
314.3655884776
 21
235.0695962997
  0
POLYLINE
  8
DEFAULT_2
 62
8
  6
HIDDEN
 66
1
 70
0
  0
VERTEX
  8
DEFAULT_2
 62
8
  6
HIDDEN
 10
313.3028925055
 20
143.5390849155
  0
VERTEX
  8
DEFAULT_2
 62
8
  6
HIDDEN
 10
313.537544203
 20
143.5566485413
  0
VERTEX
  8
DEFAULT_2
 62
8
  6
HIDDEN
 10
313.766417997
 20
143.6089069441
  0
VERTEX
  8
DEFAULT_2
 62
8
  6
HIDDEN
 10
313.9838782551
 20
143.6945733486
  0
VERTEX
  8
DEFAULT_2
 62
8
  6
HIDDEN
 10
314.1845703839
 20
143.8115383635
  0
VERTEX
  8
DEFAULT_2
 62
8
  6
HIDDEN
 10
314.3635526773
 20
143.956921922
  0
VERTEX
  8
DEFAULT_2
 62
8
  6
HIDDEN
 10
314.516417997
 20
144.1271441984
  0
VERTEX
  8
DEFAULT_2
 62
8
  6
HIDDEN
 10
314.6394022918
 20
144.3180137552
  0
VERTEX
  8
DEFAULT_2
 62
8
  6
HIDDEN
 10
314.7294772799
 20
144.5248307507
  0
VERTEX
  8
DEFAULT_2
 62
8
  6
HIDDEN
 10
314.7844250164
 20
144.7425026639
  0
VERTEX
  8
DEFAULT_2
 62
8
  6
HIDDEN
 10
314.8028925055
 20
144.9656696899
  0
SEQEND
  0
POLYLINE
  8
DEFAULT_2
 62
8
  6
HIDDEN
 66
1
 70
0
  0
VERTEX
  8
DEFAULT_2
 62
8
  6
HIDDEN
 10
313.3028925055
 20
143.6935934127
  0
VERTEX
  8
DEFAULT_2
 62
8
  6
HIDDEN
 10
313.5375438994
 20
143.7111569928
  0
VERTEX
  8
DEFAULT_2
 62
8
  6
HIDDEN
 10
313.7664174425
 20
143.7634152699
  0
VERTEX
  8
DEFAULT_2
 62
8
  6
HIDDEN
 10
313.9838775328
 20
143.8490814957
  0
VERTEX
  8
DEFAULT_2
 62
8
  6
HIDDEN
 10
314.1845695955
 20
143.9660463158
  0
VERTEX
  8
DEFAULT_2
 62
8
  6
HIDDEN
 10
314.3635519269
 20
144.1114297055
  0
VERTEX
  8
DEFAULT_2
 62
8
  6
HIDDEN
 10
314.5164173748
 20
144.281651881
  0
VERTEX
  8
DEFAULT_2
 62
8
  6
HIDDEN
 10
314.6394018572
 20
144.4725214414
  0
VERTEX
  8
DEFAULT_2
 62
8
  6
HIDDEN
 10
314.7294770483
 20
144.67933857
  0
VERTEX
  8
DEFAULT_2
 62
8
  6
HIDDEN
 10
314.7844249489
 20
144.8970107561
  0
VERTEX
  8
DEFAULT_2
 62
8
  6
HIDDEN
 10
314.8028925055
 20
145.1201781871
  0
SEQEND
  0
POLYLINE
  8
DEFAULT_2
 62
8
  6
HIDDEN
 66
1
 70
0
  0
VERTEX
  8
DEFAULT_2
 62
8
  6
HIDDEN
 10
313.3028925055
 20
142.4095143688
  0
VERTEX
  8
DEFAULT_2
 62
8
  6
HIDDEN
 10
313.537544203
 20
142.4152211368
  0
VERTEX
  8
DEFAULT_2
 62
8
  6
HIDDEN
 10
313.766417997
 20
142.4322009212
  0
VERTEX
  8
DEFAULT_2
 62
8
  6
HIDDEN
 10
313.9838782551
 20
142.4600356233
  0
VERTEX
  8
DEFAULT_2
 62
8
  6
HIDDEN
 10
314.1845703839
 20
142.4980398604
  0
VERTEX
  8
DEFAULT_2
 62
8
  6
HIDDEN
 10
314.3635526773
 20
142.545277842
  0
VERTEX
  8
DEFAULT_2
 62
8
  6
HIDDEN
 10
314.516417997
 20
142.6005864124
  0
VERTEX
  8
DEFAULT_2
 62
8
  6
HIDDEN
 10
314.6394022918
 20
142.6626036908
  0
VERTEX
  8
DEFAULT_2
 62
8
  6
HIDDEN
 10
314.7294772799
 20
142.7298026062
  0
VERTEX
  8
DEFAULT_2
 62
8
  6
HIDDEN
 10
314.7844250164
 20
142.8005284981
  0
VERTEX
  8
DEFAULT_2
 62
8
  6
HIDDEN
 10
314.8028925055
 20
142.8730398604
  0
SEQEND
  0
LINE
  8
0
 62
9
  6
CONTINUOUS
 10
298.8028925055
 20
142.4095143688
 11
284.3028925055
 21
142.4095143688
  0
LINE
  8
DEFAULT_2
 62
8
  6
HIDDEN
 10
298.8028925055
 20
142.4095143688
 11
313.3028925055
 21
142.4095143688
  0
LINE
  8
0
 62
7
  6
CONTINUOUS
 10
298.8028925055
 20
142.7192815634
 11
284.3028925055
 21
142.7192815634
  0
LINE
  8
DEFAULT_2
 62
8
  6
HIDDEN
 10
298.8028925055
 20
142.7192815634
 11
313.3028925055
 21
142.7192815634
  0
LINE
  8
DEFAULT_2
 62
8
  6
HIDDEN
 10
284.3028925055
 20
143.5390849155
 11
313.3028925055
 21
143.5390849155
  0
LINE
  8
DEFAULT_2
 62
8
  6
HIDDEN
 10
284.3028925055
 20
143.6935934127
 11
313.3028925055
 21
143.6935934127
  0
LINE
  8
DEFAULT_2
 62
8
  6
HIDDEN
 10
284.3028925055
 20
143.7914803801
 11
313.3028925055
 21
143.7914803801
  0
POLYLINE
  8
0
 62
9
  6
CONTINUOUS
 66
1
 70
0
  0
VERTEX
  8
0
 62
9
  6
CONTINUOUS
 10
284.3028925055
 20
142.4095143688
  0
VERTEX
  8
0
 62
9
  6
CONTINUOUS
 10
284.0682408079
 20
142.4152211368
  0
VERTEX
  8
0
 62
9
  6
CONTINUOUS
 10
283.8393670139
 20
142.4322009212
  0
VERTEX
  8
0
 62
9
  6
CONTINUOUS
 10
283.6219067559
 20
142.4600356233
  0
VERTEX
  8
0
 62
9
  6
CONTINUOUS
 10
283.421214627
 20
142.4980398604
  0
VERTEX
  8
0
 62
9
  6
CONTINUOUS
 10
283.2422323337
 20
142.545277842
  0
VERTEX
  8
0
 62
9
  6
CONTINUOUS
 10
283.0893670139
 20
142.6005864124
  0
VERTEX
  8
0
 62
9
  6
CONTINUOUS
 10
282.9663827192
 20
142.6626036908
  0
VERTEX
  8
0
 62
9
  6
CONTINUOUS
 10
282.876307731
 20
142.7298026062
  0
VERTEX
  8
0
 62
9
  6
CONTINUOUS
 10
282.8213599946
 20
142.8005284981
  0
VERTEX
  8
0
 62
9
  6
CONTINUOUS
 10
282.8028925055
 20
142.8730398604
  0
SEQEND
  0
POLYLINE
  8
DEFAULT_2
 62
8
  6
HIDDEN
 66
1
 70
0
  0
VERTEX
  8
DEFAULT_2
 62
8
  6
HIDDEN
 10
284.3028925055
 20
143.5390849155
  0
VERTEX
  8
DEFAULT_2
 62
8
  6
HIDDEN
 10
284.0682408079
 20
143.5566485413
  0
VERTEX
  8
DEFAULT_2
 62
8
  6
HIDDEN
 10
283.8393670139
 20
143.6089069441
  0
VERTEX
  8
DEFAULT_2
 62
8
  6
HIDDEN
 10
283.6219067559
 20
143.6945733486
  0
VERTEX
  8
DEFAULT_2
 62
8
  6
HIDDEN
 10
283.421214627
 20
143.8115383635
  0
VERTEX
  8
DEFAULT_2
 62
8
  6
HIDDEN
 10
283.2422323337
 20
143.956921922
  0
VERTEX
  8
DEFAULT_2
 62
8
  6
HIDDEN
 10
283.0893670139
 20
144.1271441984
  0
VERTEX
  8
DEFAULT_2
 62
8
  6
HIDDEN
 10
282.9663827192
 20
144.3180137552
  0
VERTEX
  8
DEFAULT_2
 62
8
  6
HIDDEN
 10
282.876307731
 20
144.5248307507
  0
VERTEX
  8
DEFAULT_2
 62
8
  6
HIDDEN
 10
282.8213599946
 20
144.7425026639
  0
VERTEX
  8
DEFAULT_2
 62
8
  6
HIDDEN
 10
282.8028925055
 20
144.9656696899
  0
SEQEND
  0
POLYLINE
  8
DEFAULT_2
 62
8
  6
HIDDEN
 66
1
 70
0
  0
VERTEX
  8
DEFAULT_2
 62
8
  6
HIDDEN
 10
284.3028925055
 20
143.6935934127
  0
VERTEX
  8
DEFAULT_2
 62
8
  6
HIDDEN
 10
284.0682411115
 20
143.7111569928
  0
VERTEX
  8
DEFAULT_2
 62
8
  6
HIDDEN
 10
283.8393675685
 20
143.7634152699
  0
VERTEX
  8
DEFAULT_2
 62
8
  6
HIDDEN
 10
283.6219074781
 20
143.8490814957
  0
VERTEX
  8
DEFAULT_2
 62
8
  6
HIDDEN
 10
283.4212154155
 20
143.9660463158
  0
VERTEX
  8
DEFAULT_2
 62
8
  6
HIDDEN
 10
283.2422330841
 20
144.1114297055
  0
VERTEX
  8
DEFAULT_2
 62
8
  6
HIDDEN
 10
283.0893676361
 20
144.281651881
  0
VERTEX
  8
DEFAULT_2
 62
8
  6
HIDDEN
 10
282.9663831537
 20
144.4725214414
  0
VERTEX
  8
DEFAULT_2
 62
8
  6
HIDDEN
 10
282.8763079626
 20
144.67933857
  0
VERTEX
  8
DEFAULT_2
 62
8
  6
HIDDEN
 10
282.821360062
 20
144.8970107561
  0
VERTEX
  8
DEFAULT_2
 62
8
  6
HIDDEN
 10
282.8028925055
 20
145.1201781871
  0
SEQEND
  0
LINE
  8
0
 62
7
  6
CONTINUOUS
 10
282.3028925055
 20
241.2467206442
 11
282.3028925055
 21
88.8924718952
  0
LINE
  8
0
 62
7
  6
CONTINUOUS
 10
282.8028925055
 20
264.136843514
 11
282.8028925055
 21
66.0029439209
  0
LINE
  8
0
 62
9
  6
CONTINUOUS
 10
284.3028925055
 20
265.6368480404
 11
284.3028925055
 21
64.5023445591
  0
POLYLINE
  8
0
 62
9
  6
CONTINUOUS
 66
1
 70
0
  0
VERTEX
  8
0
 62
9
  6
CONTINUOUS
 10
284.3028925055
 20
150.4462988178
  0
VERTEX
  8
0
 62
9
  6
CONTINUOUS
 10
284.0682406414
 20
150.4292993795
  0
VERTEX
  8
0
 62
9
  6
CONTINUOUS
 10
283.8393667176
 20
150.3787196564
  0
VERTEX
  8
0
 62
9
  6
CONTINUOUS
 10
283.6219063793
 20
150.2958051042
  0
VERTEX
  8
0
 62
9
  6
CONTINUOUS
 10
283.421214225
 20
150.1825973715
  0
VERTEX
  8
0
 62
9
  6
CONTINUOUS
 10
283.242231959
 20
150.0418840266
  0
VERTEX
  8
0
 62
9
  6
CONTINUOUS
 10
283.0893667093
 20
149.8771299159
  0
VERTEX
  8
0
 62
9
  6
CONTINUOUS
 10
282.9663825104
 20
149.6923918462
  0
VERTEX
  8
0
 62
9
  6
CONTINUOUS
 10
282.8763076217
 20
149.4922186912
  0
VERTEX
  8
0
 62
9
  6
CONTINUOUS
 10
282.8213599633
 20
149.2815393815
  0
VERTEX
  8
0
 62
9
  6
CONTINUOUS
 10
282.8028925055
 20
149.0655415377
  0
SEQEND
  0
POLYLINE
  8
0
 62
9
  6
CONTINUOUS
 66
1
 70
0
  0
VERTEX
  8
0
 62
9
  6
CONTINUOUS
 10
284.3028925055
 20
151.0268910675
  0
VERTEX
  8
0
 62
9
  6
CONTINUOUS
 10
284.0682408079
 20
151.0098916542
  0
VERTEX
  8
0
 62
9
  6
CONTINUOUS
 10
283.8393670139
 20
150.9593119961
  0
VERTEX
  8
0
 62
9
  6
CONTINUOUS
 10
283.6219067559
 20
150.8763975323
  0
VERTEX
  8
0
 62
9
  6
CONTINUOUS
 10
283.421214627
 20
150.7631898921
  0
VERTEX
  8
0
 62
9
  6
CONTINUOUS
 10
283.2422323337
 20
150.6224766233
  0
VERTEX
  8
0
 62
9
  6
CONTINUOUS
 10
283.0893670139
 20
150.4577225536
  0
VERTEX
  8
0
 62
9
  6
CONTINUOUS
 10
282.9663827192
 20
150.272984475
  0
VERTEX
  8
0
 62
9
  6
CONTINUOUS
 10
282.876307731
 20
150.072811252
  0
VERTEX
  8
0
 62
9
  6
CONTINUOUS
 10
282.8213599946
 20
149.8621318138
  0
VERTEX
  8
0
 62
9
  6
CONTINUOUS
 10
282.8028925055
 20
149.6461337874
  0
SEQEND
  0
POLYLINE
  8
DEFAULT_2
 62
8
  6
HIDDEN
 66
1
 70
0
  0
VERTEX
  8
DEFAULT_2
 62
8
  6
HIDDEN
 10
313.3028925055
 20
146.9427478291
  0
VERTEX
  8
DEFAULT_2
 62
8
  6
HIDDEN
 10
313.5375442269
 20
146.9565587945
  0
VERTEX
  8
DEFAULT_2
 62
8
  6
HIDDEN
 10
313.7664180414
 20
146.9976516188
  0
VERTEX
  8
DEFAULT_2
 62
8
  6
HIDDEN
 10
313.9838783137
 20
147.0650144589
  0
VERTEX
  8
DEFAULT_2
 62
8
  6
HIDDEN
 10
314.1845704488
 20
147.156988616
  0
VERTEX
  8
DEFAULT_2
 62
8
  6
HIDDEN
 10
314.3635527397
 20
147.2713093788
  0
VERTEX
  8
DEFAULT_2
 62
8
  6
HIDDEN
 10
314.5164180493
 20
147.4051617881
  0
VERTEX
  8
DEFAULT_2
 62
8
  6
HIDDEN
 10
314.6394023286
 20
147.5552499509
  0
VERTEX
  8
DEFAULT_2
 62
8
  6
HIDDEN
 10
314.7294772997
 20
147.7178781966
  0
VERTEX
  8
DEFAULT_2
 62
8
  6
HIDDEN
 10
314.7844250222
 20
147.8890420771
  0
VERTEX
  8
DEFAULT_2
 62
8
  6
HIDDEN
 10
314.8028925055
 20
148.0645269694
  0
SEQEND
  0
LINE
  8
0
 62
9
  6
CONTINUOUS
 10
298.8028925055
 20
146.942747829
 11
284.3028925055
 21
146.942747829
  0
LINE
  8
DEFAULT_2
 62
8
  6
HIDDEN
 10
298.8028925055
 20
146.942747829
 11
313.3028925055
 21
146.942747829
  0
LINE
  8
0
 62
9
  6
CONTINUOUS
 10
298.8028925055
 20
150.4462988178
 11
284.3028925055
 21
150.4462988178
  0
LINE
  8
DEFAULT_2
 62
8
  6
HIDDEN
 10
298.8028925055
 20
150.4462988178
 11
313.3028925055
 21
150.4462988178
  0
LINE
  8
0
 62
9
  6
CONTINUOUS
 10
298.8028925055
 20
151.0268910675
 11
284.3028925055
 21
151.0268910675
  0
LINE
  8
DEFAULT_2
 62
8
  6
HIDDEN
 10
298.8028925055
 20
151.0268910675
 11
313.3028925055
 21
151.0268910675
  0
POLYLINE
  8
0
 62
9
  6
CONTINUOUS
 66
1
 70
0
  0
VERTEX
  8
0
 62
9
  6
CONTINUOUS
 10
284.3028925055
 20
146.9427478291
  0
VERTEX
  8
0
 62
9
  6
CONTINUOUS
 10
284.0682407841
 20
146.9565587945
  0
VERTEX
  8
0
 62
9
  6
CONTINUOUS
 10
283.8393669695
 20
146.9976516188
  0
VERTEX
  8
0
 62
9
  6
CONTINUOUS
 10
283.6219066972
 20
147.0650144589
  0
VERTEX
  8
0
 62
9
  6
CONTINUOUS
 10
283.4212145622
 20
147.156988616
  0
VERTEX
  8
0
 62
9
  6
CONTINUOUS
 10
283.2422322712
 20
147.2713093788
  0
VERTEX
  8
0
 62
9
  6
CONTINUOUS
 10
283.0893669616
 20
147.4051617881
  0
VERTEX
  8
0
 62
9
  6
CONTINUOUS
 10
282.9663826823
 20
147.5552499509
  0
VERTEX
  8
0
 62
9
  6
CONTINUOUS
 10
282.8763077112
 20
147.7178781966
  0
VERTEX
  8
0
 62
9
  6
CONTINUOUS
 10
282.8213599888
 20
147.8890420771
  0
VERTEX
  8
0
 62
9
  6
CONTINUOUS
 10
282.8028925055
 20
148.0645269694
  0
SEQEND
  0
POLYLINE
  8
DEFAULT_2
 62
8
  6
HIDDEN
 66
1
 70
0
  0
VERTEX
  8
DEFAULT_2
 62
8
  6
HIDDEN
 10
313.3028925055
 20
150.4462988178
  0
VERTEX
  8
DEFAULT_2
 62
8
  6
HIDDEN
 10
313.5375443696
 20
150.4292993795
  0
VERTEX
  8
DEFAULT_2
 62
8
  6
HIDDEN
 10
313.7664182933
 20
150.3787196564
  0
VERTEX
  8
DEFAULT_2
 62
8
  6
HIDDEN
 10
313.9838786317
 20
150.2958051042
  0
VERTEX
  8
DEFAULT_2
 62
8
  6
HIDDEN
 10
314.1845707859
 20
150.1825973715
  0
VERTEX
  8
DEFAULT_2
 62
8
  6
HIDDEN
 10
314.3635530519
 20
150.0418840266
  0
VERTEX
  8
DEFAULT_2
 62
8
  6
HIDDEN
 10
314.5164183017
 20
149.8771299159
  0
VERTEX
  8
DEFAULT_2
 62
8
  6
HIDDEN
 10
314.6394025006
 20
149.6923918462
  0
VERTEX
  8
DEFAULT_2
 62
8
  6
HIDDEN
 10
314.7294773893
 20
149.4922186912
  0
VERTEX
  8
DEFAULT_2
 62
8
  6
HIDDEN
 10
314.7844250477
 20
149.2815393815
  0
VERTEX
  8
DEFAULT_2
 62
8
  6
HIDDEN
 10
314.8028925055
 20
149.0655415377
  0
SEQEND
  0
POLYLINE
  8
DEFAULT_2
 62
8
  6
HIDDEN
 66
1
 70
0
  0
VERTEX
  8
DEFAULT_2
 62
8
  6
HIDDEN
 10
313.3028925055
 20
151.0268910675
  0
VERTEX
  8
DEFAULT_2
 62
8
  6
HIDDEN
 10
313.537544203
 20
151.0098916542
  0
VERTEX
  8
DEFAULT_2
 62
8
  6
HIDDEN
 10
313.766417997
 20
150.9593119961
  0
VERTEX
  8
DEFAULT_2
 62
8
  6
HIDDEN
 10
313.9838782551
 20
150.8763975323
  0
VERTEX
  8
DEFAULT_2
 62
8
  6
HIDDEN
 10
314.1845703839
 20
150.7631898921
  0
VERTEX
  8
DEFAULT_2
 62
8
  6
HIDDEN
 10
314.3635526773
 20
150.6224766233
  0
VERTEX
  8
DEFAULT_2
 62
8
  6
HIDDEN
 10
314.516417997
 20
150.4577225536
  0
VERTEX
  8
DEFAULT_2
 62
8
  6
HIDDEN
 10
314.6394022918
 20
150.272984475
  0
VERTEX
  8
DEFAULT_2
 62
8
  6
HIDDEN
 10
314.7294772799
 20
150.072811252
  0
VERTEX
  8
DEFAULT_2
 62
8
  6
HIDDEN
 10
314.7844250164
 20
149.8621318138
  0
VERTEX
  8
DEFAULT_2
 62
8
  6
HIDDEN
 10
314.8028925055
 20
149.6461337874
  0
SEQEND
  0
LINE
  8
0
 62
7
  6
CONTINUOUS
 10
298.8028925055
 20
64.5023716059
 11
298.8028925055
 21
136.2276470129
  0
LINE
  8
0
 62
7
  6
CONTINUOUS
 10
298.8028925055
 20
142.4095143688
 11
298.8028925055
 21
187.7296782307
  0
LINE
  8
0
 62
7
  6
CONTINUOUS
 10
298.8028925055
 20
193.9115455866
 11
298.8028925055
 21
265.6367785943
  0
POLYLINE
  8
0
 62
9
  6
CONTINUOUS
 66
1
 70
0
  0
VERTEX
  8
0
 62
9
  6
CONTINUOUS
 10
284.3028925055
 20
160.1992089537
  0
VERTEX
  8
0
 62
9
  6
CONTINUOUS
 10
284.0682408393
 20
160.1935021873
  0
VERTEX
  8
0
 62
9
  6
CONTINUOUS
 10
283.8393670721
 20
160.1765224072
  0
VERTEX
  8
0
 62
9
  6
CONTINUOUS
 10
283.6219068328
 20
160.1486877114
  0
VERTEX
  8
0
 62
9
  6
CONTINUOUS
 10
283.4212147121
 20
160.1106834812
  0
VERTEX
  8
0
 62
9
  6
CONTINUOUS
 10
283.2422324156
 20
160.0634455058
  0
VERTEX
  8
0
 62
9
  6
CONTINUOUS
 10
283.0893670826
 20
160.0081369394
  0
VERTEX
  8
0
 62
9
  6
CONTINUOUS
 10
282.9663827676
 20
159.9461196611
  0
VERTEX
  8
0
 62
9
  6
CONTINUOUS
 10
282.8763077571
 20
159.8789207411
  0
VERTEX
  8
0
 62
9
  6
CONTINUOUS
 10
282.8213600022
 20
159.8081948394
  0
VERTEX
  8
0
 62
9
  6
CONTINUOUS
 10
282.8028925055
 20
159.7356834621
  0
SEQEND
  0
LINE
  8
0
 62
9
  6
CONTINUOUS
 10
298.8028925055
 20
160.1992089537
 11
284.3028925055
 21
160.1992089537
  0
LINE
  8
DEFAULT_2
 62
8
  6
HIDDEN
 10
298.8028925055
 20
160.1992089537
 11
313.3028925055
 21
160.1992089537
  0
LINE
  8
DEFAULT_1
 62
2
  6
CENTER
 10
280.3028925055
 20
165.0695962997
 11
317.3028925055
 21
165.0695962997
  0
POLYLINE
  8
DEFAULT_2
 62
8
  6
HIDDEN
 66
1
 70
0
  0
VERTEX
  8
DEFAULT_2
 62
8
  6
HIDDEN
 10
313.3028925055
 20
160.1992089537
  0
VERTEX
  8
DEFAULT_2
 62
8
  6
HIDDEN
 10
313.5375441717
 20
160.1935021873
  0
VERTEX
  8
DEFAULT_2
 62
8
  6
HIDDEN
 10
313.7664179388
 20
160.1765224072
  0
VERTEX
  8
DEFAULT_2
 62
8
  6
HIDDEN
 10
313.9838781781
 20
160.1486877114
  0
VERTEX
  8
DEFAULT_2
 62
8
  6
HIDDEN
 10
314.1845702988
 20
160.1106834812
  0
VERTEX
  8
DEFAULT_2
 62
8
  6
HIDDEN
 10
314.3635525953
 20
160.0634455058
  0
VERTEX
  8
DEFAULT_2
 62
8
  6
HIDDEN
 10
314.5164179283
 20
160.0081369394
  0
VERTEX
  8
DEFAULT_2
 62
8
  6
HIDDEN
 10
314.6394022433
 20
159.9461196611
  0
VERTEX
  8
DEFAULT_2
 62
8
  6
HIDDEN
 10
314.7294772539
 20
159.8789207411
  0
VERTEX
  8
DEFAULT_2
 62
8
  6
HIDDEN
 10
314.7844250087
 20
159.8081948394
  0
VERTEX
  8
DEFAULT_2
 62
8
  6
HIDDEN
 10
314.8028925055
 20
159.7356834621
  0
SEQEND
  0
POLYLINE
  8
0
 62
9
  6
CONTINUOUS
 66
1
 70
0
  0
VERTEX
  8
0
 62
9
  6
CONTINUOUS
 10
313.3028925055
 20
169.9399836458
  0
VERTEX
  8
0
 62
9
  6
CONTINUOUS
 10
313.5375441717
 20
169.9456904122
  0
VERTEX
  8
0
 62
9
  6
CONTINUOUS
 10
313.7664179388
 20
169.9626701923
  0
VERTEX
  8
0
 62
9
  6
CONTINUOUS
 10
313.9838781781
 20
169.9905048881
  0
VERTEX
  8
0
 62
9
  6
CONTINUOUS
 10
314.1845702988
 20
170.0285091182
  0
VERTEX
  8
0
 62
9
  6
CONTINUOUS
 10
314.3635525953
 20
170.0757470937
  0
VERTEX
  8
0
 62
9
  6
CONTINUOUS
 10
314.5164179283
 20
170.1310556601
  0
VERTEX
  8
0
 62
9
  6
CONTINUOUS
 10
314.6394022433
 20
170.1930729384
  0
VERTEX
  8
0
 62
9
  6
CONTINUOUS
 10
314.7294772539
 20
170.2602718583
  0
VERTEX
  8
0
 62
9
  6
CONTINUOUS
 10
314.7844250087
 20
170.3309977601
  0
VERTEX
  8
0
 62
9
  6
CONTINUOUS
 10
314.8028925055
 20
170.4035091373
  0
SEQEND
  0
LINE
  8
DEFAULT_2
 62
8
  6
HIDDEN
 10
298.8028925055
 20
169.9399836458
 11
284.3028925055
 21
169.9399836458
  0
LINE
  8
0
 62
9
  6
CONTINUOUS
 10
298.8028925055
 20
169.9399836458
 11
313.3028925055
 21
169.9399836458
  0
POLYLINE
  8
DEFAULT_2
 62
8
  6
HIDDEN
 66
1
 70
0
  0
VERTEX
  8
DEFAULT_2
 62
8
  6
HIDDEN
 10
284.3028925055
 20
169.9399836458
  0
VERTEX
  8
DEFAULT_2
 62
8
  6
HIDDEN
 10
284.0682408393
 20
169.9456904122
  0
VERTEX
  8
DEFAULT_2
 62
8
  6
HIDDEN
 10
283.8393670721
 20
169.9626701923
  0
VERTEX
  8
DEFAULT_2
 62
8
  6
HIDDEN
 10
283.6219068328
 20
169.9905048881
  0
VERTEX
  8
DEFAULT_2
 62
8
  6
HIDDEN
 10
283.4212147121
 20
170.0285091182
  0
VERTEX
  8
DEFAULT_2
 62
8
  6
HIDDEN
 10
283.2422324156
 20
170.0757470937
  0
VERTEX
  8
DEFAULT_2
 62
8
  6
HIDDEN
 10
283.0893670826
 20
170.1310556601
  0
VERTEX
  8
DEFAULT_2
 62
8
  6
HIDDEN
 10
282.9663827676
 20
170.1930729384
  0
VERTEX
  8
DEFAULT_2
 62
8
  6
HIDDEN
 10
282.8763077571
 20
170.2602718583
  0
VERTEX
  8
DEFAULT_2
 62
8
  6
HIDDEN
 10
282.8213600022
 20
170.3309977601
  0
VERTEX
  8
DEFAULT_2
 62
8
  6
HIDDEN
 10
282.8028925055
 20
170.4035091373
  0
SEQEND
  0
POLYLINE
  8
0
 62
9
  6
CONTINUOUS
 66
1
 70
0
  0
VERTEX
  8
0
 62
9
  6
CONTINUOUS
 10
313.3028925055
 20
179.1123015319
  0
VERTEX
  8
0
 62
9
  6
CONTINUOUS
 10
313.537544203
 20
179.1293009453
  0
VERTEX
  8
0
 62
9
  6
CONTINUOUS
 10
313.766417997
 20
179.1798806034
  0
VERTEX
  8
0
 62
9
  6
CONTINUOUS
 10
313.9838782551
 20
179.2627950672
  0
VERTEX
  8
0
 62
9
  6
CONTINUOUS
 10
314.1845703839
 20
179.3760027074
  0
VERTEX
  8
0
 62
9
  6
CONTINUOUS
 10
314.3635526773
 20
179.5167159761
  0
VERTEX
  8
0
 62
9
  6
CONTINUOUS
 10
314.516417997
 20
179.6814700458
  0
VERTEX
  8
0
 62
9
  6
CONTINUOUS
 10
314.6394022918
 20
179.8662081245
  0
VERTEX
  8
0
 62
9
  6
CONTINUOUS
 10
314.7294772799
 20
180.0663813474
  0
VERTEX
  8
0
 62
9
  6
CONTINUOUS
 10
314.7844250164
 20
180.2770607856
  0
VERTEX
  8
0
 62
9
  6
CONTINUOUS
 10
314.8028925055
 20
180.4930588121
  0
SEQEND
  0
POLYLINE
  8
0
 62
9
  6
CONTINUOUS
 66
1
 70
0
  0
VERTEX
  8
0
 62
9
  6
CONTINUOUS
 10
313.3028925055
 20
179.6928937816
  0
VERTEX
  8
0
 62
9
  6
CONTINUOUS
 10
313.5375443696
 20
179.70989322
  0
VERTEX
  8
0
 62
9
  6
CONTINUOUS
 10
313.7664182933
 20
179.760472943
  0
VERTEX
  8
0
 62
9
  6
CONTINUOUS
 10
313.9838786317
 20
179.8433874953
  0
VERTEX
  8
0
 62
9
  6
CONTINUOUS
 10
314.1845707859
 20
179.956595228
  0
VERTEX
  8
0
 62
9
  6
CONTINUOUS
 10
314.3635530519
 20
180.0973085729
  0
VERTEX
  8
0
 62
9
  6
CONTINUOUS
 10
314.5164183017
 20
180.2620626836
  0
VERTEX
  8
0
 62
9
  6
CONTINUOUS
 10
314.6394025006
 20
180.4468007532
  0
VERTEX
  8
0
 62
9
  6
CONTINUOUS
 10
314.7294773893
 20
180.6469739083
  0
VERTEX
  8
0
 62
9
  6
CONTINUOUS
 10
314.7844250477
 20
180.857653218
  0
VERTEX
  8
0
 62
9
  6
CONTINUOUS
 10
314.8028925055
 20
181.0736510618
  0
SEQEND
  0
LINE
  8
DEFAULT_2
 62
8
  6
HIDDEN
 10
298.8028925055
 20
179.1123015319
 11
284.3028925055
 21
179.1123015319
  0
LINE
  8
0
 62
9
  6
CONTINUOUS
 10
298.8028925055
 20
179.1123015319
 11
313.3028925055
 21
179.1123015319
  0
POLYLINE
  8
DEFAULT_2
 62
8
  6
HIDDEN
 66
1
 70
0
  0
VERTEX
  8
DEFAULT_2
 62
8
  6
HIDDEN
 10
284.3028925055
 20
179.1123015319
  0
VERTEX
  8
DEFAULT_2
 62
8
  6
HIDDEN
 10
284.0682408079
 20
179.1293009453
  0
VERTEX
  8
DEFAULT_2
 62
8
  6
HIDDEN
 10
283.8393670139
 20
179.1798806034
  0
VERTEX
  8
DEFAULT_2
 62
8
  6
HIDDEN
 10
283.6219067559
 20
179.2627950672
  0
VERTEX
  8
DEFAULT_2
 62
8
  6
HIDDEN
 10
283.421214627
 20
179.3760027074
  0
VERTEX
  8
DEFAULT_2
 62
8
  6
HIDDEN
 10
283.2422323337
 20
179.5167159761
  0
VERTEX
  8
DEFAULT_2
 62
8
  6
HIDDEN
 10
283.0893670139
 20
179.6814700458
  0
VERTEX
  8
DEFAULT_2
 62
8
  6
HIDDEN
 10
282.9663827192
 20
179.8662081245
  0
VERTEX
  8
DEFAULT_2
 62
8
  6
HIDDEN
 10
282.876307731
 20
180.0663813474
  0
VERTEX
  8
DEFAULT_2
 62
8
  6
HIDDEN
 10
282.8213599946
 20
180.2770607856
  0
VERTEX
  8
DEFAULT_2
 62
8
  6
HIDDEN
 10
282.8028925055
 20
180.4930588121
  0
SEQEND
  0
POLYLINE
  8
DEFAULT_2
 62
8
  6
HIDDEN
 66
1
 70
0
  0
VERTEX
  8
DEFAULT_2
 62
8
  6
HIDDEN
 10
284.3028925055
 20
179.6928937816
  0
VERTEX
  8
DEFAULT_2
 62
8
  6
HIDDEN
 10
284.0682406414
 20
179.70989322
  0
VERTEX
  8
DEFAULT_2
 62
8
  6
HIDDEN
 10
283.8393667176
 20
179.760472943
  0
VERTEX
  8
DEFAULT_2
 62
8
  6
HIDDEN
 10
283.6219063793
 20
179.8433874953
  0
VERTEX
  8
DEFAULT_2
 62
8
  6
HIDDEN
 10
283.421214225
 20
179.956595228
  0
VERTEX
  8
DEFAULT_2
 62
8
  6
HIDDEN
 10
283.242231959
 20
180.0973085729
  0
VERTEX
  8
DEFAULT_2
 62
8
  6
HIDDEN
 10
283.0893667093
 20
180.2620626836
  0
VERTEX
  8
DEFAULT_2
 62
8
  6
HIDDEN
 10
282.9663825104
 20
180.4468007532
  0
VERTEX
  8
DEFAULT_2
 62
8
  6
HIDDEN
 10
282.8763076217
 20
180.6469739083
  0
VERTEX
  8
DEFAULT_2
 62
8
  6
HIDDEN
 10
282.8213599633
 20
180.857653218
  0
VERTEX
  8
DEFAULT_2
 62
8
  6
HIDDEN
 10
282.8028925055
 20
181.0736510618
  0
SEQEND
  0
LINE
  8
DEFAULT_2
 62
8
  6
HIDDEN
 10
314.7844250477
 20
210.1826064166
 11
314.8028925055
 21
209.953969019
  0
LINE
  8
0
 62
9
  6
CONTINUOUS
 10
313.3028925055
 20
64.5023445591
 11
313.3028925055
 21
265.6368480404
  0
LINE
  8
0
 62
7
  6
CONTINUOUS
 10
314.8028925055
 20
66.0024490454
 11
314.8028925055
 21
264.1367435541
  0
LINE
  8
0
 62
7
  6
CONTINUOUS
 10
315.3028925055
 20
241.2467078615
 11
315.3028925055
 21
88.8924780785
  0
POLYLINE
  8
DEFAULT_2
 62
8
  6
HIDDEN
 66
1
 70
0
  0
VERTEX
  8
DEFAULT_2
 62
8
  6
HIDDEN
 10
284.3028925055
 20
183.1964447704
  0
VERTEX
  8
DEFAULT_2
 62
8
  6
HIDDEN
 10
284.0682407841
 20
183.182633805
  0
VERTEX
  8
DEFAULT_2
 62
8
  6
HIDDEN
 10
283.8393669695
 20
183.1415409807
  0
VERTEX
  8
DEFAULT_2
 62
8
  6
HIDDEN
 10
283.6219066972
 20
183.0741781406
  0
VERTEX
  8
DEFAULT_2
 62
8
  6
HIDDEN
 10
283.4212145622
 20
182.9822039834
  0
VERTEX
  8
DEFAULT_2
 62
8
  6
HIDDEN
 10
283.2422322712
 20
182.8678832207
  0
VERTEX
  8
DEFAULT_2
 62
8
  6
HIDDEN
 10
283.0893669616
 20
182.7340308114
  0
VERTEX
  8
DEFAULT_2
 62
8
  6
HIDDEN
 10
282.9663826823
 20
182.5839426486
  0
VERTEX
  8
DEFAULT_2
 62
8
  6
HIDDEN
 10
282.8763077112
 20
182.4213144029
  0
VERTEX
  8
DEFAULT_2
 62
8
  6
HIDDEN
 10
282.8213599888
 20
182.2501505224
  0
VERTEX
  8
DEFAULT_2
 62
8
  6
HIDDEN
 10
282.8028925055
 20
182.07466563
  0
SEQEND
  0
LINE
  8
DEFAULT_2
 62
8
  6
HIDDEN
 10
298.8028925055
 20
179.6928937816
 11
284.3028925055
 21
179.6928937816
  0
LINE
  8
0
 62
9
  6
CONTINUOUS
 10
298.8028925055
 20
179.6928937816
 11
313.3028925055
 21
179.6928937816
  0
LINE
  8
DEFAULT_2
 62
8
  6
HIDDEN
 10
298.8028925055
 20
183.1964447704
 11
284.3028925055
 21
183.1964447704
  0
LINE
  8
0
 62
9
  6
CONTINUOUS
 10
298.8028925055
 20
183.1964447704
 11
313.3028925055
 21
183.1964447704
  0
LINE
  8
DEFAULT_2
 62
8
  6
HIDDEN
 10
284.3028925055
 20
186.3477122194
 11
313.3028925055
 21
186.3477122194
  0
POLYLINE
  8
0
 62
9
  6
CONTINUOUS
 66
1
 70
0
  0
VERTEX
  8
0
 62
9
  6
CONTINUOUS
 10
313.3028925055
 20
183.1964447704
  0
VERTEX
  8
0
 62
9
  6
CONTINUOUS
 10
313.5375442269
 20
183.182633805
  0
VERTEX
  8
0
 62
9
  6
CONTINUOUS
 10
313.7664180414
 20
183.1415409807
  0
VERTEX
  8
0
 62
9
  6
CONTINUOUS
 10
313.9838783137
 20
183.0741781406
  0
VERTEX
  8
0
 62
9
  6
CONTINUOUS
 10
314.1845704488
 20
182.9822039834
  0
VERTEX
  8
0
 62
9
  6
CONTINUOUS
 10
314.3635527397
 20
182.8678832207
  0
VERTEX
  8
0
 62
9
  6
CONTINUOUS
 10
314.5164180493
 20
182.7340308114
  0
VERTEX
  8
0
 62
9
  6
CONTINUOUS
 10
314.6394023286
 20
182.5839426486
  0
VERTEX
  8
0
 62
9
  6
CONTINUOUS
 10
314.7294772997
 20
182.4213144029
  0
VERTEX
  8
0
 62
9
  6
CONTINUOUS
 10
314.7844250222
 20
182.2501505224
  0
VERTEX
  8
0
 62
9
  6
CONTINUOUS
 10
314.8028925055
 20
182.07466563
  0
SEQEND
  0
LINE
  8
0
 62
9
  6
CONTINUOUS
 10
314.7844250222
 20
236.9887713333
 11
314.8028925055
 21
236.7552376861
  0
LINE
  8
0
 62
9
  6
CONTINUOUS
 10
314.7844250222
 20
65.8824808752
 11
314.8028925055
 21
66.0848613616
  0
POLYLINE
  8
DEFAULT_2
 62
8
  6
HIDDEN
 66
1
 70
0
  0
VERTEX
  8
DEFAULT_2
 62
8
  6
HIDDEN
 10
284.3028925055
 20
186.4455991868
  0
VERTEX
  8
DEFAULT_2
 62
8
  6
HIDDEN
 10
284.0682411115
 20
186.4280356067
  0
VERTEX
  8
DEFAULT_2
 62
8
  6
HIDDEN
 10
283.8393675685
 20
186.3757773296
  0
VERTEX
  8
DEFAULT_2
 62
8
  6
HIDDEN
 10
283.6219074781
 20
186.2901111037
  0
VERTEX
  8
DEFAULT_2
 62
8
  6
HIDDEN
 10
283.4212154155
 20
186.1731462836
  0
VERTEX
  8
DEFAULT_2
 62
8
  6
HIDDEN
 10
283.2422330841
 20
186.027762894
  0
VERTEX
  8
DEFAULT_2
 62
8
  6
HIDDEN
 10
283.0893676361
 20
185.8575407184
  0
VERTEX
  8
DEFAULT_2
 62
8
  6
HIDDEN
 10
282.9663831537
 20
185.6666711581
  0
VERTEX
  8
DEFAULT_2
 62
8
  6
HIDDEN
 10
282.8763079626
 20
185.4598540295
  0
VERTEX
  8
DEFAULT_2
 62
8
  6
HIDDEN
 10
282.821360062
 20
185.2421818433
  0
VERTEX
  8
DEFAULT_2
 62
8
  6
HIDDEN
 10
282.8028925055
 20
185.0190144124
  0
SEQEND
  0
POLYLINE
  8
DEFAULT_2
 62
8
  6
HIDDEN
 66
1
 70
0
  0
VERTEX
  8
DEFAULT_2
 62
8
  6
HIDDEN
 10
284.3028925055
 20
186.600107684
  0
VERTEX
  8
DEFAULT_2
 62
8
  6
HIDDEN
 10
284.0682408079
 20
186.5825440582
  0
VERTEX
  8
DEFAULT_2
 62
8
  6
HIDDEN
 10
283.8393670139
 20
186.5302856553
  0
VERTEX
  8
DEFAULT_2
 62
8
  6
HIDDEN
 10
283.6219067559
 20
186.4446192509
  0
VERTEX
  8
DEFAULT_2
 62
8
  6
HIDDEN
 10
283.421214627
 20
186.327654236
  0
VERTEX
  8
DEFAULT_2
 62
8
  6
HIDDEN
 10
283.2422323337
 20
186.1822706775
  0
VERTEX
  8
DEFAULT_2
 62
8
  6
HIDDEN
 10
283.0893670139
 20
186.0120484011
  0
VERTEX
  8
DEFAULT_2
 62
8
  6
HIDDEN
 10
282.9663827192
 20
185.8211788442
  0
VERTEX
  8
DEFAULT_2
 62
8
  6
HIDDEN
 10
282.876307731
 20
185.6143618488
  0
VERTEX
  8
DEFAULT_2
 62
8
  6
HIDDEN
 10
282.8213599946
 20
185.3966899356
  0
VERTEX
  8
DEFAULT_2
 62
8
  6
HIDDEN
 10
282.8028925055
 20
185.1735229096
  0
SEQEND
  0
POLYLINE
  8
DEFAULT_2
 62
8
  6
HIDDEN
 66
1
 70
0
  0
VERTEX
  8
DEFAULT_2
 62
8
  6
HIDDEN
 10
284.3028925055
 20
187.7296782307
  0
VERTEX
  8
DEFAULT_2
 62
8
  6
HIDDEN
 10
284.0682408079
 20
187.7239714627
  0
VERTEX
  8
DEFAULT_2
 62
8
  6
HIDDEN
 10
283.8393670139
 20
187.7069916783
  0
VERTEX
  8
DEFAULT_2
 62
8
  6
HIDDEN
 10
283.6219067559
 20
187.6791569762
  0
VERTEX
  8
DEFAULT_2
 62
8
  6
HIDDEN
 10
283.421214627
 20
187.6411527391
  0
VERTEX
  8
DEFAULT_2
 62
8
  6
HIDDEN
 10
283.2422323337
 20
187.5939147574
  0
VERTEX
  8
DEFAULT_2
 62
8
  6
HIDDEN
 10
283.0893670139
 20
187.5386061871
  0
VERTEX
  8
DEFAULT_2
 62
8
  6
HIDDEN
 10
282.9663827192
 20
187.4765889087
  0
VERTEX
  8
DEFAULT_2
 62
8
  6
HIDDEN
 10
282.876307731
 20
187.4093899933
  0
VERTEX
  8
DEFAULT_2
 62
8
  6
HIDDEN
 10
282.8213599946
 20
187.3386641014
  0
VERTEX
  8
DEFAULT_2
 62
8
  6
HIDDEN
 10
282.8028925055
 20
187.2661527391
  0
SEQEND
  0
LINE
  8
DEFAULT_2
 62
8
  6
HIDDEN
 10
284.3028925055
 20
186.4455991868
 11
313.3028925055
 21
186.4455991868
  0
LINE
  8
DEFAULT_2
 62
8
  6
HIDDEN
 10
284.3028925055
 20
186.600107684
 11
313.3028925055
 21
186.600107684
  0
LINE
  8
DEFAULT_2
 62
8
  6
HIDDEN
 10
298.8028925055
 20
187.4199110361
 11
284.3028925055
 21
187.4199110361
  0
LINE
  8
0
 62
7
  6
CONTINUOUS
 10
298.8028925055
 20
187.4199110361
 11
313.3028925055
 21
187.4199110361
  0
LINE
  8
DEFAULT_2
 62
8
  6
HIDDEN
 10
298.8028925055
 20
187.7296782307
 11
284.3028925055
 21
187.7296782307
  0
LINE
  8
0
 62
9
  6
CONTINUOUS
 10
298.8028925055
 20
187.7296782307
 11
313.3028925055
 21
187.7296782307
  0
POLYLINE
  8
0
 62
9
  6
CONTINUOUS
 66
1
 70
0
  0
VERTEX
  8
0
 62
9
  6
CONTINUOUS
 10
313.3028925055
 20
187.7296782307
  0
VERTEX
  8
0
 62
9
  6
CONTINUOUS
 10
313.537544203
 20
187.7239714627
  0
VERTEX
  8
0
 62
9
  6
CONTINUOUS
 10
313.766417997
 20
187.7069916783
  0
VERTEX
  8
0
 62
9
  6
CONTINUOUS
 10
313.9838782551
 20
187.6791569762
  0
VERTEX
  8
0
 62
9
  6
CONTINUOUS
 10
314.1845703839
 20
187.6411527391
  0
VERTEX
  8
0
 62
9
  6
CONTINUOUS
 10
314.3635526773
 20
187.5939147574
  0
VERTEX
  8
0
 62
9
  6
CONTINUOUS
 10
314.516417997
 20
187.5386061871
  0
VERTEX
  8
0
 62
9
  6
CONTINUOUS
 10
314.6394022918
 20
187.4765889087
  0
VERTEX
  8
0
 62
9
  6
CONTINUOUS
 10
314.7294772799
 20
187.4093899933
  0
VERTEX
  8
0
 62
9
  6
CONTINUOUS
 10
314.7844250164
 20
187.3386641014
  0
VERTEX
  8
0
 62
9
  6
CONTINUOUS
 10
314.8028925055
 20
187.2661527391
  0
SEQEND
  0
POLYLINE
  8
DEFAULT_2
 62
8
  6
HIDDEN
 66
1
 70
0
  0
VERTEX
  8
DEFAULT_2
 62
8
  6
HIDDEN
 10
313.3028925055
 20
186.4455991868
  0
VERTEX
  8
DEFAULT_2
 62
8
  6
HIDDEN
 10
313.5375438994
 20
186.4280356067
  0
VERTEX
  8
DEFAULT_2
 62
8
  6
HIDDEN
 10
313.7664174425
 20
186.3757773296
  0
VERTEX
  8
DEFAULT_2
 62
8
  6
HIDDEN
 10
313.9838775328
 20
186.2901111037
  0
VERTEX
  8
DEFAULT_2
 62
8
  6
HIDDEN
 10
314.1845695955
 20
186.1731462836
  0
VERTEX
  8
DEFAULT_2
 62
8
  6
HIDDEN
 10
314.3635519269
 20
186.027762894
  0
VERTEX
  8
DEFAULT_2
 62
8
  6
HIDDEN
 10
314.5164173748
 20
185.8575407184
  0
VERTEX
  8
DEFAULT_2
 62
8
  6
HIDDEN
 10
314.6394018572
 20
185.6666711581
  0
VERTEX
  8
DEFAULT_2
 62
8
  6
HIDDEN
 10
314.7294770483
 20
185.4598540295
  0
VERTEX
  8
DEFAULT_2
 62
8
  6
HIDDEN
 10
314.7844249489
 20
185.2421818433
  0
VERTEX
  8
DEFAULT_2
 62
8
  6
HIDDEN
 10
314.8028925055
 20
185.0190144124
  0
SEQEND
  0
POLYLINE
  8
DEFAULT_2
 62
8
  6
HIDDEN
 66
1
 70
0
  0
VERTEX
  8
DEFAULT_2
 62
8
  6
HIDDEN
 10
313.3028925055
 20
186.600107684
  0
VERTEX
  8
DEFAULT_2
 62
8
  6
HIDDEN
 10
313.537544203
 20
186.5825440582
  0
VERTEX
  8
DEFAULT_2
 62
8
  6
HIDDEN
 10
313.766417997
 20
186.5302856553
  0
VERTEX
  8
DEFAULT_2
 62
8
  6
HIDDEN
 10
313.9838782551
 20
186.4446192509
  0
VERTEX
  8
DEFAULT_2
 62
8
  6
HIDDEN
 10
314.1845703839
 20
186.327654236
  0
VERTEX
  8
DEFAULT_2
 62
8
  6
HIDDEN
 10
314.3635526773
 20
186.1822706775
  0
VERTEX
  8
DEFAULT_2
 62
8
  6
HIDDEN
 10
314.516417997
 20
186.0120484011
  0
VERTEX
  8
DEFAULT_2
 62
8
  6
HIDDEN
 10
314.6394022918
 20
185.8211788442
  0
VERTEX
  8
DEFAULT_2
 62
8
  6
HIDDEN
 10
314.7294772799
 20
185.6143618488
  0
VERTEX
  8
DEFAULT_2
 62
8
  6
HIDDEN
 10
314.7844250164
 20
185.3966899356
  0
VERTEX
  8
DEFAULT_2
 62
8
  6
HIDDEN
 10
314.8028925055
 20
185.1735229096
  0
SEQEND
  0
LINE
  8
DEFAULT_2
 62
8
  6
HIDDEN
 10
314.7844250477
 20
253.8520369219
 11
314.8028925055
 21
253.6980916852
  0
POLYLINE
  8
DEFAULT_2
 62
8
  6
HIDDEN
 66
1
 70
0
  0
VERTEX
  8
DEFAULT_2
 62
8
  6
HIDDEN
 10
313.3028925055
 20
196.4316926079
  0
VERTEX
  8
DEFAULT_2
 62
8
  6
HIDDEN
 10
313.5375438994
 20
196.4492561881
  0
VERTEX
  8
DEFAULT_2
 62
8
  6
HIDDEN
 10
313.7664174425
 20
196.5015144652
  0
VERTEX
  8
DEFAULT_2
 62
8
  6
HIDDEN
 10
313.9838775328
 20
196.587180691
  0
VERTEX
  8
DEFAULT_2
 62
8
  6
HIDDEN
 10
314.1845695955
 20
196.7041455111
  0
VERTEX
  8
DEFAULT_2
 62
8
  6
HIDDEN
 10
314.3635519269
 20
196.8495289008
  0
VERTEX
  8
DEFAULT_2
 62
8
  6
HIDDEN
 10
314.5164173748
 20
197.0197510763
  0
VERTEX
  8
DEFAULT_2
 62
8
  6
HIDDEN
 10
314.6394018572
 20
197.2106206367
  0
VERTEX
  8
DEFAULT_2
 62
8
  6
HIDDEN
 10
314.7294770483
 20
197.4174377653
  0
VERTEX
  8
DEFAULT_2
 62
8
  6
HIDDEN
 10
314.7844249489
 20
197.6351099514
  0
VERTEX
  8
DEFAULT_2
 62
8
  6
HIDDEN
 10
314.8028925055
 20
197.8582773824
  0
SEQEND
  0
POLYLINE
  8
DEFAULT_2
 62
8
  6
HIDDEN
 66
1
 70
0
  0
VERTEX
  8
DEFAULT_2
 62
8
  6
HIDDEN
 10
313.3028925055
 20
196.5862011051
  0
VERTEX
  8
DEFAULT_2
 62
8
  6
HIDDEN
 10
313.537544203
 20
196.603764731
  0
VERTEX
  8
DEFAULT_2
 62
8
  6
HIDDEN
 10
313.766417997
 20
196.6560231338
  0
VERTEX
  8
DEFAULT_2
 62
8
  6
HIDDEN
 10
313.9838782551
 20
196.7416895382
  0
VERTEX
  8
DEFAULT_2
 62
8
  6
HIDDEN
 10
314.1845703839
 20
196.8586545531
  0
VERTEX
  8
DEFAULT_2
 62
8
  6
HIDDEN
 10
314.3635526773
 20
197.0040381116
  0
VERTEX
  8
DEFAULT_2
 62
8
  6
HIDDEN
 10
314.516417997
 20
197.174260388
  0
VERTEX
  8
DEFAULT_2
 62
8
  6
HIDDEN
 10
314.6394022918
 20
197.3651299449
  0
VERTEX
  8
DEFAULT_2
 62
8
  6
HIDDEN
 10
314.7294772799
 20
197.5719469403
  0
VERTEX
  8
DEFAULT_2
 62
8
  6
HIDDEN
 10
314.7844250164
 20
197.7896188535
  0
VERTEX
  8
DEFAULT_2
 62
8
  6
HIDDEN
 10
314.8028925055
 20
198.0127858796
  0
SEQEND
  0
POLYLINE
  8
0
 62
9
  6
CONTINUOUS
 66
1
 70
0
  0
VERTEX
  8
0
 62
9
  6
CONTINUOUS
 10
284.3028925055
 20
193.9115455866
  0
VERTEX
  8
0
 62
9
  6
CONTINUOUS
 10
284.0682408079
 20
193.9058388186
  0
VERTEX
  8
0
 62
9
  6
CONTINUOUS
 10
283.8393670139
 20
193.8888590342
  0
VERTEX
  8
0
 62
9
  6
CONTINUOUS
 10
283.6219067559
 20
193.8610243321
  0
VERTEX
  8
0
 62
9
  6
CONTINUOUS
 10
283.421214627
 20
193.823020095
  0
VERTEX
  8
0
 62
9
  6
CONTINUOUS
 10
283.2422323337
 20
193.7757821134
  0
VERTEX
  8
0
 62
9
  6
CONTINUOUS
 10
283.0893670139
 20
193.720473543
  0
VERTEX
  8
0
 62
9
  6
CONTINUOUS
 10
282.9663827192
 20
193.6584562646
  0
VERTEX
  8
0
 62
9
  6
CONTINUOUS
 10
282.876307731
 20
193.5912573492
  0
VERTEX
  8
0
 62
9
  6
CONTINUOUS
 10
282.8213599946
 20
193.5205314573
  0
VERTEX
  8
0
 62
9
  6
CONTINUOUS
 10
282.8028925055
 20
193.448020095
  0
SEQEND
  0
LINE
  8
0
 62
9
  6
CONTINUOUS
 10
298.8028925055
 20
193.9115455866
 11
284.3028925055
 21
193.9115455866
  0
LINE
  8
DEFAULT_2
 62
8
  6
HIDDEN
 10
298.8028925055
 20
193.9115455866
 11
313.3028925055
 21
193.9115455866
  0
LINE
  8
0
 62
9
  6
CONTINUOUS
 10
298.8028925055
 20
196.4316926079
 11
284.3028925055
 21
196.4316926079
  0
LINE
  8
DEFAULT_2
 62
8
  6
HIDDEN
 10
298.8028925055
 20
196.4316926079
 11
313.3028925055
 21
196.4316926079
  0
LINE
  8
0
 62
9
  6
CONTINUOUS
 10
298.8028925055
 20
196.5862011051
 11
284.3028925055
 21
196.5862011051
  0
LINE
  8
DEFAULT_2
 62
8
  6
HIDDEN
 10
298.8028925055
 20
196.5862011051
 11
313.3028925055
 21
196.5862011051
  0
POLYLINE
  8
DEFAULT_2
 62
8
  6
HIDDEN
 66
1
 70
0
  0
VERTEX
  8
DEFAULT_2
 62
8
  6
HIDDEN
 10
313.3028925055
 20
193.9115455866
  0
VERTEX
  8
DEFAULT_2
 62
8
  6
HIDDEN
 10
313.537544203
 20
193.9058388186
  0
VERTEX
  8
DEFAULT_2
 62
8
  6
HIDDEN
 10
313.766417997
 20
193.8888590342
  0
VERTEX
  8
DEFAULT_2
 62
8
  6
HIDDEN
 10
313.9838782551
 20
193.8610243321
  0
VERTEX
  8
DEFAULT_2
 62
8
  6
HIDDEN
 10
314.1845703839
 20
193.823020095
  0
VERTEX
  8
DEFAULT_2
 62
8
  6
HIDDEN
 10
314.3635526773
 20
193.7757821134
  0
VERTEX
  8
DEFAULT_2
 62
8
  6
HIDDEN
 10
314.516417997
 20
193.720473543
  0
VERTEX
  8
DEFAULT_2
 62
8
  6
HIDDEN
 10
314.6394022918
 20
193.6584562646
  0
VERTEX
  8
DEFAULT_2
 62
8
  6
HIDDEN
 10
314.7294772799
 20
193.5912573492
  0
VERTEX
  8
DEFAULT_2
 62
8
  6
HIDDEN
 10
314.7844250164
 20
193.5205314573
  0
VERTEX
  8
DEFAULT_2
 62
8
  6
HIDDEN
 10
314.8028925055
 20
193.448020095
  0
SEQEND
  0
POLYLINE
  8
0
 62
9
  6
CONTINUOUS
 66
1
 70
0
  0
VERTEX
  8
0
 62
9
  6
CONTINUOUS
 10
284.3028925055
 20
196.4316926079
  0
VERTEX
  8
0
 62
9
  6
CONTINUOUS
 10
284.0682411115
 20
196.4492561881
  0
VERTEX
  8
0
 62
9
  6
CONTINUOUS
 10
283.8393675685
 20
196.5015144652
  0
VERTEX
  8
0
 62
9
  6
CONTINUOUS
 10
283.6219074781
 20
196.587180691
  0
VERTEX
  8
0
 62
9
  6
CONTINUOUS
 10
283.4212154155
 20
196.7041455111
  0
VERTEX
  8
0
 62
9
  6
CONTINUOUS
 10
283.2422330841
 20
196.8495289008
  0
VERTEX
  8
0
 62
9
  6
CONTINUOUS
 10
283.0893676361
 20
197.0197510763
  0
VERTEX
  8
0
 62
9
  6
CONTINUOUS
 10
282.9663831537
 20
197.2106206367
  0
VERTEX
  8
0
 62
9
  6
CONTINUOUS
 10
282.8763079626
 20
197.4174377653
  0
VERTEX
  8
0
 62
9
  6
CONTINUOUS
 10
282.821360062
 20
197.6351099514
  0
VERTEX
  8
0
 62
9
  6
CONTINUOUS
 10
282.8028925055
 20
197.8582773824
  0
SEQEND
  0
POLYLINE
  8
0
 62
9
  6
CONTINUOUS
 66
1
 70
0
  0
VERTEX
  8
0
 62
9
  6
CONTINUOUS
 10
284.3028925055
 20
196.5862011051
  0
VERTEX
  8
0
 62
9
  6
CONTINUOUS
 10
284.0682408079
 20
196.603764731
  0
VERTEX
  8
0
 62
9
  6
CONTINUOUS
 10
283.8393670139
 20
196.6560231338
  0
VERTEX
  8
0
 62
9
  6
CONTINUOUS
 10
283.6219067559
 20
196.7416895382
  0
VERTEX
  8
0
 62
9
  6
CONTINUOUS
 10
283.421214627
 20
196.8586545531
  0
VERTEX
  8
0
 62
9
  6
CONTINUOUS
 10
283.2422323337
 20
197.0040381116
  0
VERTEX
  8
0
 62
9
  6
CONTINUOUS
 10
283.0893670139
 20
197.174260388
  0
VERTEX
  8
0
 62
9
  6
CONTINUOUS
 10
282.9663827192
 20
197.3651299449
  0
VERTEX
  8
0
 62
9
  6
CONTINUOUS
 10
282.876307731
 20
197.5719469403
  0
VERTEX
  8
0
 62
9
  6
CONTINUOUS
 10
282.8213599946
 20
197.7896188535
  0
VERTEX
  8
0
 62
9
  6
CONTINUOUS
 10
282.8028925055
 20
198.0127858796
  0
SEQEND
  0
POLYLINE
  8
DEFAULT_2
 62
8
  6
HIDDEN
 66
1
 70
0
  0
VERTEX
  8
DEFAULT_2
 62
8
  6
HIDDEN
 10
284.3028925055
 20
211.0812665431
  0
VERTEX
  8
DEFAULT_2
 62
8
  6
HIDDEN
 10
284.0682408079
 20
211.0632723746
  0
VERTEX
  8
DEFAULT_2
 62
8
  6
HIDDEN
 10
283.8393670139
 20
211.009732945
  0
VERTEX
  8
DEFAULT_2
 62
8
  6
HIDDEN
 10
283.6219067559
 20
210.921966573
  0
VERTEX
  8
DEFAULT_2
 62
8
  6
HIDDEN
 10
283.421214627
 20
210.8021343578
  0
VERTEX
  8
DEFAULT_2
 62
8
  6
HIDDEN
 10
283.2422323337
 20
210.6531869662
  0
VERTEX
  8
DEFAULT_2
 62
8
  6
HIDDEN
 10
283.0893670139
 20
210.4787919775
  0
VERTEX
  8
DEFAULT_2
 62
8
  6
HIDDEN
 10
282.9663827192
 20
210.2832435749
  0
VERTEX
  8
DEFAULT_2
 62
8
  6
HIDDEN
 10
282.876307731
 20
210.0713568092
  0
VERTEX
  8
DEFAULT_2
 62
8
  6
HIDDEN
 10
282.8213599946
 20
209.8483490357
  0
VERTEX
  8
DEFAULT_2
 62
8
  6
HIDDEN
 10
282.8028925055
 20
209.6197114459
  0
SEQEND
  0
POLYLINE
  8
DEFAULT_2
 62
8
  6
HIDDEN
 66
1
 70
0
  0
VERTEX
  8
DEFAULT_2
 62
8
  6
HIDDEN
 10
284.3028925055
 20
211.4155241161
  0
VERTEX
  8
DEFAULT_2
 62
8
  6
HIDDEN
 10
284.0682406414
 20
211.3975299223
  0
VERTEX
  8
DEFAULT_2
 62
8
  6
HIDDEN
 10
283.8393667176
 20
211.343990425
  0
VERTEX
  8
DEFAULT_2
 62
8
  6
HIDDEN
 10
283.6219063793
 20
211.2562239601
  0
VERTEX
  8
DEFAULT_2
 62
8
  6
HIDDEN
 10
283.421214225
 20
211.1363916474
  0
VERTEX
  8
DEFAULT_2
 62
8
  6
HIDDEN
 10
283.242231959
 20
210.9874441755
  0
VERTEX
  8
DEFAULT_2
 62
8
  6
HIDDEN
 10
283.0893667093
 20
210.8130491432
  0
VERTEX
  8
DEFAULT_2
 62
8
  6
HIDDEN
 10
282.9663825104
 20
210.6175007497
  0
VERTEX
  8
DEFAULT_2
 62
8
  6
HIDDEN
 10
282.8763076217
 20
210.4056140551
  0
VERTEX
  8
DEFAULT_2
 62
8
  6
HIDDEN
 10
282.8213599633
 20
210.1826064166
  0
VERTEX
  8
DEFAULT_2
 62
8
  6
HIDDEN
 10
282.8028925055
 20
209.953969019
  0
SEQEND
  0
POLYLINE
  8
DEFAULT_2
 62
8
  6
HIDDEN
 66
1
 70
0
  0
VERTEX
  8
DEFAULT_2
 62
8
  6
HIDDEN
 10
313.3028925055
 20
208.9182339
  0
VERTEX
  8
DEFAULT_2
 62
8
  6
HIDDEN
 10
313.5375442269
 20
208.9222010083
  0
VERTEX
  8
DEFAULT_2
 62
8
  6
HIDDEN
 10
313.7664180414
 20
208.9340046499
  0
VERTEX
  8
DEFAULT_2
 62
8
  6
HIDDEN
 10
313.9838783137
 20
208.9533541795
  0
VERTEX
  8
DEFAULT_2
 62
8
  6
HIDDEN
 10
314.1845704488
 20
208.979773147
  0
VERTEX
  8
DEFAULT_2
 62
8
  6
HIDDEN
 10
314.3635527397
 20
209.012611029
  0
VERTEX
  8
DEFAULT_2
 62
8
  6
HIDDEN
 10
314.5164180493
 20
209.0510592471
  0
VERTEX
  8
DEFAULT_2
 62
8
  6
HIDDEN
 10
314.6394023286
 20
209.0941710778
  0
VERTEX
  8
DEFAULT_2
 62
8
  6
HIDDEN
 10
314.7294772997
 20
209.1408849644
  0
VERTEX
  8
DEFAULT_2
 62
8
  6
HIDDEN
 10
314.7844250222
 20
209.1900506555
  0
VERTEX
  8
DEFAULT_2
 62
8
  6
HIDDEN
 10
314.8028925055
 20
209.2404575286
  0
SEQEND
  0
LINE
  8
0
 62
9
  6
CONTINUOUS
 10
298.8028925055
 20
208.9182339
 11
284.3028925055
 21
208.9182339
  0
LINE
  8
DEFAULT_2
 62
8
  6
HIDDEN
 10
298.8028925055
 20
208.9182339
 11
313.3028925055
 21
208.9182339
  0
LINE
  8
DEFAULT_2
 62
8
  6
HIDDEN
 10
284.3028925055
 20
210.6968175149
 11
313.3028925055
 21
210.6968175149
  0
LINE
  8
DEFAULT_2
 62
8
  6
HIDDEN
 10
284.3028925055
 20
211.0812665431
 11
313.3028925055
 21
211.0812665431
  0
LINE
  8
DEFAULT_2
 62
8
  6
HIDDEN
 10
284.3028925055
 20
211.4155241161
 11
313.3028925055
 21
211.4155241161
  0
LINE
  8
0
 62
7
  6
CONTINUOUS
 10
298.8028925055
 20
211.4693469801
 11
284.3028925055
 21
211.4693469801
  0
LINE
  8
DEFAULT_2
 62
8
  6
HIDDEN
 10
298.8028925055
 20
211.4693469801
 11
313.3028925055
 21
211.4693469801
  0
POLYLINE
  8
0
 62
9
  6
CONTINUOUS
 66
1
 70
0
  0
VERTEX
  8
0
 62
9
  6
CONTINUOUS
 10
284.3028925055
 20
208.9182339
  0
VERTEX
  8
0
 62
9
  6
CONTINUOUS
 10
284.0682407841
 20
208.9222010083
  0
VERTEX
  8
0
 62
9
  6
CONTINUOUS
 10
283.8393669695
 20
208.9340046499
  0
VERTEX
  8
0
 62
9
  6
CONTINUOUS
 10
283.6219066972
 20
208.9533541795
  0
VERTEX
  8
0
 62
9
  6
CONTINUOUS
 10
283.4212145622
 20
208.979773147
  0
VERTEX
  8
0
 62
9
  6
CONTINUOUS
 10
283.2422322712
 20
209.012611029
  0
VERTEX
  8
0
 62
9
  6
CONTINUOUS
 10
283.0893669616
 20
209.0510592471
  0
VERTEX
  8
0
 62
9
  6
CONTINUOUS
 10
282.9663826823
 20
209.0941710778
  0
VERTEX
  8
0
 62
9
  6
CONTINUOUS
 10
282.8763077112
 20
209.1408849644
  0
VERTEX
  8
0
 62
9
  6
CONTINUOUS
 10
282.8213599888
 20
209.1900506555
  0
VERTEX
  8
0
 62
9
  6
CONTINUOUS
 10
282.8028925055
 20
209.2404575286
  0
SEQEND
  0
POLYLINE
  8
DEFAULT_2
 62
8
  6
HIDDEN
 66
1
 70
0
  0
VERTEX
  8
DEFAULT_2
 62
8
  6
HIDDEN
 10
313.3028925055
 20
211.0812665431
  0
VERTEX
  8
DEFAULT_2
 62
8
  6
HIDDEN
 10
313.537544203
 20
211.0632723746
  0
VERTEX
  8
DEFAULT_2
 62
8
  6
HIDDEN
 10
313.766417997
 20
211.009732945
  0
VERTEX
  8
DEFAULT_2
 62
8
  6
HIDDEN
 10
313.9838782551
 20
210.921966573
  0
VERTEX
  8
DEFAULT_2
 62
8
  6
HIDDEN
 10
314.1845703839
 20
210.8021343578
  0
VERTEX
  8
DEFAULT_2
 62
8
  6
HIDDEN
 10
314.3635526773
 20
210.6531869662
  0
VERTEX
  8
DEFAULT_2
 62
8
  6
HIDDEN
 10
314.516417997
 20
210.4787919775
  0
VERTEX
  8
DEFAULT_2
 62
8
  6
HIDDEN
 10
314.6394022918
 20
210.2832435749
  0
VERTEX
  8
DEFAULT_2
 62
8
  6
HIDDEN
 10
314.7294772799
 20
210.0713568092
  0
VERTEX
  8
DEFAULT_2
 62
8
  6
HIDDEN
 10
314.7844250164
 20
209.8483490357
  0
VERTEX
  8
DEFAULT_2
 62
8
  6
HIDDEN
 10
314.8028925055
 20
209.6197114459
  0
SEQEND
  0
POLYLINE
  8
DEFAULT_2
 62
8
  6
HIDDEN
 66
1
 70
0
  0
VERTEX
  8
DEFAULT_2
 62
8
  6
HIDDEN
 10
313.3028925055
 20
211.4155241161
  0
VERTEX
  8
DEFAULT_2
 62
8
  6
HIDDEN
 10
313.5375443696
 20
211.3975299223
  0
VERTEX
  8
DEFAULT_2
 62
8
  6
HIDDEN
 10
313.7664182933
 20
211.343990425
  0
VERTEX
  8
DEFAULT_2
 62
8
  6
HIDDEN
 10
313.9838786317
 20
211.2562239601
  0
VERTEX
  8
DEFAULT_2
 62
8
  6
HIDDEN
 10
314.1845707859
 20
211.1363916474
  0
VERTEX
  8
DEFAULT_2
 62
8
  6
HIDDEN
 10
314.3635530519
 20
210.9874441755
  0
VERTEX
  8
DEFAULT_2
 62
8
  6
HIDDEN
 10
314.5164183017
 20
210.8130491432
  0
VERTEX
  8
DEFAULT_2
 62
8
  6
HIDDEN
 10
314.6394025006
 20
210.6175007497
  0
VERTEX
  8
DEFAULT_2
 62
8
  6
HIDDEN
 10
314.7294773893
 20
210.4056140551
  0
VERTEX
  8
DEFAULT_2
 62
8
  6
HIDDEN
 10
314.7844250477
 20
210.1826064166
  0
SEQEND
  0
POLYLINE
  8
0
 62
9
  6
CONTINUOUS
 66
1
 70
0
  0
VERTEX
  8
0
 62
9
  6
CONTINUOUS
 10
284.3028925055
 20
213.5615625993
  0
VERTEX
  8
0
 62
9
  6
CONTINUOUS
 10
284.0682408393
 20
213.5466220908
  0
VERTEX
  8
0
 62
9
  6
CONTINUOUS
 10
283.8393670721
 20
213.5021684495
  0
VERTEX
  8
0
 62
9
  6
CONTINUOUS
 10
283.6219068328
 20
213.4292962697
  0
VERTEX
  8
0
 62
9
  6
CONTINUOUS
 10
283.4212147121
 20
213.3297999035
  0
VERTEX
  8
0
 62
9
  6
CONTINUOUS
 10
283.2422324156
 20
213.2061292782
  0
VERTEX
  8
0
 62
9
  6
CONTINUOUS
 10
283.0893670826
 20
213.0613295714
  0
VERTEX
  8
0
 62
9
  6
CONTINUOUS
 10
282.9663827676
 20
212.898966229
  0
VERTEX
  8
0
 62
9
  6
CONTINUOUS
 10
282.8763077571
 20
212.7230371726
  0
VERTEX
  8
0
 62
9
  6
CONTINUOUS
 10
282.8213600022
 20
212.5378743579
  0
VERTEX
  8
0
 62
9
  6
CONTINUOUS
 10
282.8028925055
 20
212.3480371077
  0
SEQEND
  0
LINE
  8
0
 62
9
  6
CONTINUOUS
 10
298.8028925055
 20
213.5615625993
 11
284.3028925055
 21
213.5615625993
  0
LINE
  8
DEFAULT_2
 62
8
  6
HIDDEN
 10
298.8028925055
 20
213.5615625993
 11
313.3028925055
 21
213.5615625993
  0
POLYLINE
  8
DEFAULT_2
 62
8
  6
HIDDEN
 66
1
 70
0
  0
VERTEX
  8
DEFAULT_2
 62
8
  6
HIDDEN
 10
313.3028925055
 20
213.5615625993
  0
VERTEX
  8
DEFAULT_2
 62
8
  6
HIDDEN
 10
313.5375441717
 20
213.5466220908
  0
VERTEX
  8
DEFAULT_2
 62
8
  6
HIDDEN
 10
313.7664179388
 20
213.5021684495
  0
VERTEX
  8
DEFAULT_2
 62
8
  6
HIDDEN
 10
313.9838781781
 20
213.4292962697
  0
VERTEX
  8
DEFAULT_2
 62
8
  6
HIDDEN
 10
314.1845702988
 20
213.3297999035
  0
VERTEX
  8
DEFAULT_2
 62
8
  6
HIDDEN
 10
314.3635525953
 20
213.2061292782
  0
VERTEX
  8
DEFAULT_2
 62
8
  6
HIDDEN
 10
314.5164179283
 20
213.0613295714
  0
VERTEX
  8
DEFAULT_2
 62
8
  6
HIDDEN
 10
314.6394022433
 20
212.898966229
  0
VERTEX
  8
DEFAULT_2
 62
8
  6
HIDDEN
 10
314.7294772539
 20
212.7230371726
  0
VERTEX
  8
DEFAULT_2
 62
8
  6
HIDDEN
 10
314.7844250087
 20
212.5378743579
  0
VERTEX
  8
DEFAULT_2
 62
8
  6
HIDDEN
 10
314.8028925055
 20
212.3480371077
  0
SEQEND
  0
LINE
  8
DEFAULT_2
 62
8
  6
HIDDEN
 10
315.3028925055
 20
233.5695962997
 11
314.3655884776
 21
235.0695962997
  0
POLYLINE
  8
DEFAULT_2
 62
8
  6
HIDDEN
 66
1
 70
0
  0
VERTEX
  8
DEFAULT_2
 62
8
  6
HIDDEN
 10
284.3028925055
 20
221.4420148635
  0
VERTEX
  8
DEFAULT_2
 62
8
  6
HIDDEN
 10
284.0682408393
 20
221.4363080971
  0
VERTEX
  8
DEFAULT_2
 62
8
  6
HIDDEN
 10
283.8393670721
 20
221.419328317
  0
VERTEX
  8
DEFAULT_2
 62
8
  6
HIDDEN
 10
283.6219068328
 20
221.3914936212
  0
VERTEX
  8
DEFAULT_2
 62
8
  6
HIDDEN
 10
283.4212147121
 20
221.3534893911
  0
VERTEX
  8
DEFAULT_2
 62
8
  6
HIDDEN
 10
283.2422324156
 20
221.3062514156
  0
VERTEX
  8
DEFAULT_2
 62
8
  6
HIDDEN
 10
283.0893670826
 20
221.2509428492
  0
VERTEX
  8
DEFAULT_2
 62
8
  6
HIDDEN
 10
282.9663827676
 20
221.1889255709
  0
VERTEX
  8
DEFAULT_2
 62
8
  6
HIDDEN
 10
282.8763077571
 20
221.121726651
  0
VERTEX
  8
DEFAULT_2
 62
8
  6
HIDDEN
 10
282.8213600022
 20
221.0510007492
  0
VERTEX
  8
DEFAULT_2
 62
8
  6
HIDDEN
 10
282.8028925055
 20
220.978489372
  0
SEQEND
  0
LINE
  8
DEFAULT_2
 62
8
  6
HIDDEN
 10
298.8028925055
 20
221.4420148635
 11
284.3028925055
 21
221.4420148635
  0
LINE
  8
0
 62
9
  6
CONTINUOUS
 10
298.8028925055
 20
221.4420148635
 11
313.3028925055
 21
221.4420148635
  0
POLYLINE
  8
0
 62
9
  6
CONTINUOUS
 66
1
 70
0
  0
VERTEX
  8
0
 62
9
  6
CONTINUOUS
 10
313.3028925055
 20
221.4420148635
  0
VERTEX
  8
0
 62
9
  6
CONTINUOUS
 10
313.5375441717
 20
221.4363080971
  0
VERTEX
  8
0
 62
9
  6
CONTINUOUS
 10
313.7664179388
 20
221.419328317
  0
VERTEX
  8
0
 62
9
  6
CONTINUOUS
 10
313.9838781781
 20
221.3914936212
  0
VERTEX
  8
0
 62
9
  6
CONTINUOUS
 10
314.1845702988
 20
221.3534893911
  0
VERTEX
  8
0
 62
9
  6
CONTINUOUS
 10
314.3635525953
 20
221.3062514156
  0
VERTEX
  8
0
 62
9
  6
CONTINUOUS
 10
314.5164179283
 20
221.2509428492
  0
VERTEX
  8
0
 62
9
  6
CONTINUOUS
 10
314.6394022433
 20
221.1889255709
  0
VERTEX
  8
0
 62
9
  6
CONTINUOUS
 10
314.7294772539
 20
221.121726651
  0
VERTEX
  8
0
 62
9
  6
CONTINUOUS
 10
314.7844250087
 20
221.0510007492
  0
VERTEX
  8
0
 62
9
  6
CONTINUOUS
 10
314.8028925055
 20
220.978489372
  0
SEQEND
  0
POLYLINE
  8
DEFAULT_2
 62
8
  6
HIDDEN
 66
1
 70
0
  0
VERTEX
  8
DEFAULT_2
 62
8
  6
HIDDEN
 10
284.3028925055
 20
230.5763283387
  0
VERTEX
  8
DEFAULT_2
 62
8
  6
HIDDEN
 10
284.0682408079
 20
230.5613878261
  0
VERTEX
  8
DEFAULT_2
 62
8
  6
HIDDEN
 10
283.8393670139
 20
230.5169341736
  0
VERTEX
  8
DEFAULT_2
 62
8
  6
HIDDEN
 10
283.6219067559
 20
230.4440619774
  0
VERTEX
  8
DEFAULT_2
 62
8
  6
HIDDEN
 10
283.421214627
 20
230.3445655929
  0
VERTEX
  8
DEFAULT_2
 62
8
  6
HIDDEN
 10
283.2422323337
 20
230.2208949513
  0
VERTEX
  8
DEFAULT_2
 62
8
  6
HIDDEN
 10
283.0893670139
 20
230.0760952343
  0
VERTEX
  8
DEFAULT_2
 62
8
  6
HIDDEN
 10
282.9663827192
 20
229.9137318915
  0
VERTEX
  8
DEFAULT_2
 62
8
  6
HIDDEN
 10
282.876307731
 20
229.7378028471
  0
VERTEX
  8
DEFAULT_2
 62
8
  6
HIDDEN
 10
282.8213599946
 20
229.5526400582
  0
VERTEX
  8
DEFAULT_2
 62
8
  6
HIDDEN
 10
282.8028925055
 20
229.3628028471
  0
SEQEND
  0
POLYLINE
  8
DEFAULT_2
 62
8
  6
HIDDEN
 66
1
 70
0
  0
VERTEX
  8
DEFAULT_2
 62
8
  6
HIDDEN
 10
284.3028925055
 20
231.0187918228
  0
VERTEX
  8
DEFAULT_2
 62
8
  6
HIDDEN
 10
284.0682411115
 20
231.0079369334
  0
VERTEX
  8
DEFAULT_2
 62
8
  6
HIDDEN
 10
283.8393675685
 20
230.9756395419
  0
VERTEX
  8
DEFAULT_2
 62
8
  6
HIDDEN
 10
283.6219074781
 20
230.9226949027
  0
VERTEX
  8
DEFAULT_2
 62
8
  6
HIDDEN
 10
283.4212154155
 20
230.8504066684
  0
VERTEX
  8
DEFAULT_2
 62
8
  6
HIDDEN
 10
283.2422330841
 20
230.7605547922
  0
VERTEX
  8
DEFAULT_2
 62
8
  6
HIDDEN
 10
283.0893676361
 20
230.655351702
  0
VERTEX
  8
DEFAULT_2
 62
8
  6
HIDDEN
 10
282.9663831537
 20
230.5373878263
  0
VERTEX
  8
DEFAULT_2
 62
8
  6
HIDDEN
 10
282.8763079626
 20
230.4095678114
  0
VERTEX
  8
DEFAULT_2
 62
8
  6
HIDDEN
 10
282.821360062
 20
230.275039002
  0
VERTEX
  8
DEFAULT_2
 62
8
  6
HIDDEN
 10
282.8028925055
 20
230.1371139445
  0
SEQEND
  0
POLYLINE
  8
DEFAULT_2
 62
8
  6
HIDDEN
 66
1
 70
0
  0
VERTEX
  8
DEFAULT_2
 62
8
  6
HIDDEN
 10
284.3028925055
 20
231.42330032
  0
VERTEX
  8
DEFAULT_2
 62
8
  6
HIDDEN
 10
284.0682408079
 20
231.4124454023
  0
VERTEX
  8
DEFAULT_2
 62
8
  6
HIDDEN
 10
283.8393670139
 20
231.3801479331
  0
VERTEX
  8
DEFAULT_2
 62
8
  6
HIDDEN
 10
283.6219067559
 20
231.3272031835
  0
VERTEX
  8
DEFAULT_2
 62
8
  6
HIDDEN
 10
283.421214627
 20
231.2549148288
  0
VERTEX
  8
DEFAULT_2
 62
8
  6
HIDDEN
 10
283.2422323337
 20
231.1650628483
  0
VERTEX
  8
DEFAULT_2
 62
8
  6
HIDDEN
 10
283.0893670139
 20
231.0598596958
  0
VERTEX
  8
DEFAULT_2
 62
8
  6
HIDDEN
 10
282.9663827192
 20
230.9418958222
  0
VERTEX
  8
DEFAULT_2
 62
8
  6
HIDDEN
 10
282.876307731
 20
230.8140758896
  0
VERTEX
  8
DEFAULT_2
 62
8
  6
HIDDEN
 10
282.8213599946
 20
230.6795472488
  0
VERTEX
  8
DEFAULT_2
 62
8
  6
HIDDEN
 10
282.8028925055
 20
230.5416224416
  0
SEQEND
  0
POLYLINE
  8
0
 62
9
  6
CONTINUOUS
 66
1
 70
0
  0
VERTEX
  8
0
 62
9
  6
CONTINUOUS
 10
313.3028925055
 20
233.8028409028
  0
VERTEX
  8
0
 62
9
  6
CONTINUOUS
 10
313.537544203
 20
233.8123523629
  0
VERTEX
  8
0
 62
9
  6
CONTINUOUS
 10
313.766417997
 20
233.8406525393
  0
VERTEX
  8
0
 62
9
  6
CONTINUOUS
 10
313.9838782551
 20
233.8870445878
  0
VERTEX
  8
0
 62
9
  6
CONTINUOUS
 10
314.1845703839
 20
233.9503861822
  0
VERTEX
  8
0
 62
9
  6
CONTINUOUS
 10
314.3635526773
 20
234.0291176422
  0
VERTEX
  8
0
 62
9
  6
CONTINUOUS
 10
314.516417997
 20
234.121300338
  0
VERTEX
  8
0
 62
9
  6
CONTINUOUS
 10
314.6394022918
 20
234.2246644257
  0
VERTEX
  8
0
 62
9
  6
CONTINUOUS
 10
314.7294772799
 20
234.3366647383
  0
VERTEX
  8
0
 62
9
  6
CONTINUOUS
 10
314.7844250164
 20
234.4545434566
  0
VERTEX
  8
0
 62
9
  6
CONTINUOUS
 10
314.8028925055
 20
234.5753980152
  0
SEQEND
  0
LINE
  8
DEFAULT_2
 62
8
  6
HIDDEN
 10
284.3028925055
 20
230.1943623274
 11
313.3028925055
 21
230.1943623274
  0
LINE
  8
DEFAULT_2
 62
8
  6
HIDDEN
 10
284.3028925055
 20
230.5763283387
 11
313.3028925055
 21
230.5763283387
  0
LINE
  8
DEFAULT_2
 62
8
  6
HIDDEN
 10
284.3028925055
 20
231.0187918228
 11
313.3028925055
 21
231.0187918228
  0
LINE
  8
DEFAULT_2
 62
8
  6
HIDDEN
 10
284.3028925055
 20
231.42330032
 11
313.3028925055
 21
231.42330032
  0
LINE
  8
DEFAULT_2
 62
8
  6
HIDDEN
 10
298.8028925055
 20
233.8028409028
 11
284.3028925055
 21
233.8028409028
  0
LINE
  8
0
 62
9
  6
CONTINUOUS
 10
298.8028925055
 20
233.8028409028
 11
313.3028925055
 21
233.8028409028
  0
POLYLINE
  8
DEFAULT_2
 62
8
  6
HIDDEN
 66
1
 70
0
  0
VERTEX
  8
DEFAULT_2
 62
8
  6
HIDDEN
 10
284.3028925055
 20
233.8028409028
  0
VERTEX
  8
DEFAULT_2
 62
8
  6
HIDDEN
 10
284.0682408079
 20
233.8123523629
  0
VERTEX
  8
DEFAULT_2
 62
8
  6
HIDDEN
 10
283.8393670139
 20
233.8406525393
  0
VERTEX
  8
DEFAULT_2
 62
8
  6
HIDDEN
 10
283.6219067559
 20
233.8870445878
  0
VERTEX
  8
DEFAULT_2
 62
8
  6
HIDDEN
 10
283.421214627
 20
233.9503861822
  0
VERTEX
  8
DEFAULT_2
 62
8
  6
HIDDEN
 10
283.2422323337
 20
234.0291176422
  0
VERTEX
  8
DEFAULT_2
 62
8
  6
HIDDEN
 10
283.0893670139
 20
234.121300338
  0
VERTEX
  8
DEFAULT_2
 62
8
  6
HIDDEN
 10
282.9663827192
 20
234.2246644257
  0
VERTEX
  8
DEFAULT_2
 62
8
  6
HIDDEN
 10
282.876307731
 20
234.3366647383
  0
VERTEX
  8
DEFAULT_2
 62
8
  6
HIDDEN
 10
282.8213599946
 20
234.4545434566
  0
VERTEX
  8
DEFAULT_2
 62
8
  6
HIDDEN
 10
282.8028925055
 20
234.5753980152
  0
SEQEND
  0
POLYLINE
  8
DEFAULT_2
 62
8
  6
HIDDEN
 66
1
 70
0
  0
VERTEX
  8
DEFAULT_2
 62
8
  6
HIDDEN
 10
313.3028925055
 20
231.0187918228
  0
VERTEX
  8
DEFAULT_2
 62
8
  6
HIDDEN
 10
313.5375438994
 20
231.0079369334
  0
VERTEX
  8
DEFAULT_2
 62
8
  6
HIDDEN
 10
313.7664174425
 20
230.9756395419
  0
VERTEX
  8
DEFAULT_2
 62
8
  6
HIDDEN
 10
313.9838775328
 20
230.9226949027
  0
VERTEX
  8
DEFAULT_2
 62
8
  6
HIDDEN
 10
314.1845695955
 20
230.8504066684
  0
VERTEX
  8
DEFAULT_2
 62
8
  6
HIDDEN
 10
314.3635519269
 20
230.7605547922
  0
VERTEX
  8
DEFAULT_2
 62
8
  6
HIDDEN
 10
314.5164173748
 20
230.655351702
  0
VERTEX
  8
DEFAULT_2
 62
8
  6
HIDDEN
 10
314.6394018572
 20
230.5373878263
  0
VERTEX
  8
DEFAULT_2
 62
8
  6
HIDDEN
 10
314.7294770483
 20
230.4095678114
  0
VERTEX
  8
DEFAULT_2
 62
8
  6
HIDDEN
 10
314.7844249489
 20
230.275039002
  0
VERTEX
  8
DEFAULT_2
 62
8
  6
HIDDEN
 10
314.8028925055
 20
230.1371139445
  0
SEQEND
  0
POLYLINE
  8
DEFAULT_2
 62
8
  6
HIDDEN
 66
1
 70
0
  0
VERTEX
  8
DEFAULT_2
 62
8
  6
HIDDEN
 10
313.3028925055
 20
231.42330032
  0
VERTEX
  8
DEFAULT_2
 62
8
  6
HIDDEN
 10
313.537544203
 20
231.4124454023
  0
VERTEX
  8
DEFAULT_2
 62
8
  6
HIDDEN
 10
313.766417997
 20
231.3801479331
  0
VERTEX
  8
DEFAULT_2
 62
8
  6
HIDDEN
 10
313.9838782551
 20
231.3272031835
  0
VERTEX
  8
DEFAULT_2
 62
8
  6
HIDDEN
 10
314.1845703839
 20
231.2549148288
  0
VERTEX
  8
DEFAULT_2
 62
8
  6
HIDDEN
 10
314.3635526773
 20
231.1650628483
  0
VERTEX
  8
DEFAULT_2
 62
8
  6
HIDDEN
 10
314.516417997
 20
231.0598596958
  0
VERTEX
  8
DEFAULT_2
 62
8
  6
HIDDEN
 10
314.6394022918
 20
230.9418958222
  0
VERTEX
  8
DEFAULT_2
 62
8
  6
HIDDEN
 10
314.7294772799
 20
230.8140758896
  0
VERTEX
  8
DEFAULT_2
 62
8
  6
HIDDEN
 10
314.7844250164
 20
230.6795472488
  0
VERTEX
  8
DEFAULT_2
 62
8
  6
HIDDEN
 10
314.8028925055
 20
230.5416224416
  0
SEQEND
  0
POLYLINE
  8
DEFAULT_2
 62
8
  6
HIDDEN
 66
1
 70
0
  0
VERTEX
  8
DEFAULT_2
 62
8
  6
HIDDEN
 10
313.3028925055
 20
230.5763283387
  0
VERTEX
  8
DEFAULT_2
 62
8
  6
HIDDEN
 10
313.537544203
 20
230.5613878261
  0
VERTEX
  8
DEFAULT_2
 62
8
  6
HIDDEN
 10
313.766417997
 20
230.5169341736
  0
VERTEX
  8
DEFAULT_2
 62
8
  6
HIDDEN
 10
313.9838782551
 20
230.4440619774
  0
VERTEX
  8
DEFAULT_2
 62
8
  6
HIDDEN
 10
314.1845703839
 20
230.3445655929
  0
VERTEX
  8
DEFAULT_2
 62
8
  6
HIDDEN
 10
314.3635526773
 20
230.2208949513
  0
VERTEX
  8
DEFAULT_2
 62
8
  6
HIDDEN
 10
314.516417997
 20
230.0760952343
  0
VERTEX
  8
DEFAULT_2
 62
8
  6
HIDDEN
 10
314.6394022918
 20
229.9137318915
  0
VERTEX
  8
DEFAULT_2
 62
8
  6
HIDDEN
 10
314.7294772799
 20
229.7378028471
  0
VERTEX
  8
DEFAULT_2
 62
8
  6
HIDDEN
 10
314.7844250164
 20
229.5526400582
  0
VERTEX
  8
DEFAULT_2
 62
8
  6
HIDDEN
 10
314.8028925055
 20
229.3628028471
  0
SEQEND
  0
POLYLINE
  8
DEFAULT_2
 62
8
  6
HIDDEN
 66
1
 70
0
  0
VERTEX
  8
DEFAULT_2
 62
8
  6
HIDDEN
 10
284.3028925055
 20
238.2480908345
  0
VERTEX
  8
DEFAULT_2
 62
8
  6
HIDDEN
 10
284.0682407841
 20
238.2297113312
  0
VERTEX
  8
DEFAULT_2
 62
8
  6
HIDDEN
 10
283.8393669695
 20
238.1750253864
  0
VERTEX
  8
DEFAULT_2
 62
8
  6
HIDDEN
 10
283.6219066972
 20
238.0853795513
  0
VERTEX
  8
DEFAULT_2
 62
8
  6
HIDDEN
 10
283.4212145622
 20
237.9629812064
  0
VERTEX
  8
DEFAULT_2
 62
8
  6
HIDDEN
 10
283.2422322712
 20
237.8108442085
  0
VERTEX
  8
DEFAULT_2
 62
8
  6
HIDDEN
 10
283.0893669616
 20
237.632714679
  0
VERTEX
  8
DEFAULT_2
 62
8
  6
HIDDEN
 10
282.9663826823
 20
237.432978761
  0
VERTEX
  8
DEFAULT_2
 62
8
  6
HIDDEN
 10
282.8763077112
 20
237.2165546185
  0
VERTEX
  8
DEFAULT_2
 62
8
  6
HIDDEN
 10
282.8213599888
 20
236.9887713333
  0
VERTEX
  8
DEFAULT_2
 62
8
  6
HIDDEN
 10
282.8028925055
 20
236.7552376861
  0
SEQEND
  0
POLYLINE
  8
0
 62
9
  6
CONTINUOUS
 66
1
 70
0
  0
VERTEX
  8
0
 62
9
  6
CONTINUOUS
 10
284.3028925055
 20
234.3969324786
  0
VERTEX
  8
0
 62
9
  6
CONTINUOUS
 10
284.0682408079
 20
234.381991966
  0
VERTEX
  8
0
 62
9
  6
CONTINUOUS
 10
283.8393670139
 20
234.3375383135
  0
VERTEX
  8
0
 62
9
  6
CONTINUOUS
 10
283.6219067559
 20
234.2646661173
  0
VERTEX
  8
0
 62
9
  6
CONTINUOUS
 10
283.421214627
 20
234.1651697328
  0
VERTEX
  8
0
 62
9
  6
CONTINUOUS
 10
283.2422323337
 20
234.0414990912
  0
VERTEX
  8
0
 62
9
  6
CONTINUOUS
 10
283.0893670139
 20
233.8966993742
  0
VERTEX
  8
0
 62
9
  6
CONTINUOUS
 10
282.9663827192
 20
233.7343360314
  0
VERTEX
  8
0
 62
9
  6
CONTINUOUS
 10
282.876307731
 20
233.558406987
  0
VERTEX
  8
0
 62
9
  6
CONTINUOUS
 10
282.8213599946
 20
233.3732441981
  0
VERTEX
  8
0
 62
9
  6
CONTINUOUS
 10
282.8028925055
 20
233.183406987
  0
SEQEND
  0
POLYLINE
  8
DEFAULT_2
 62
8
  6
HIDDEN
 66
1
 70
0
  0
VERTEX
  8
DEFAULT_2
 62
8
  6
HIDDEN
 10
313.3028925055
 20
237.1905369719
  0
VERTEX
  8
DEFAULT_2
 62
8
  6
HIDDEN
 10
313.5375438994
 20
237.2013918614
  0
VERTEX
  8
DEFAULT_2
 62
8
  6
HIDDEN
 10
313.7664174425
 20
237.2336892529
  0
VERTEX
  8
DEFAULT_2
 62
8
  6
HIDDEN
 10
313.9838775328
 20
237.2866338922
  0
VERTEX
  8
DEFAULT_2
 62
8
  6
HIDDEN
 10
314.1845695955
 20
237.3589221265
  0
VERTEX
  8
DEFAULT_2
 62
8
  6
HIDDEN
 10
314.3635519269
 20
237.4487740027
  0
VERTEX
  8
DEFAULT_2
 62
8
  6
HIDDEN
 10
314.5164173748
 20
237.5539770928
  0
VERTEX
  8
DEFAULT_2
 62
8
  6
HIDDEN
 10
314.6394018572
 20
237.6719409685
  0
VERTEX
  8
DEFAULT_2
 62
8
  6
HIDDEN
 10
314.7294770483
 20
237.7997609834
  0
VERTEX
  8
DEFAULT_2
 62
8
  6
HIDDEN
 10
314.7844249489
 20
237.9342897929
  0
VERTEX
  8
DEFAULT_2
 62
8
  6
HIDDEN
 10
314.8028925055
 20
238.0722148504
  0
SEQEND
  0
POLYLINE
  8
DEFAULT_2
 62
8
  6
HIDDEN
 66
1
 70
0
  0
VERTEX
  8
DEFAULT_2
 62
8
  6
HIDDEN
 10
313.3028925055
 20
237.5950454691
  0
VERTEX
  8
DEFAULT_2
 62
8
  6
HIDDEN
 10
313.537544203
 20
237.6059003868
  0
VERTEX
  8
DEFAULT_2
 62
8
  6
HIDDEN
 10
313.766417997
 20
237.638197856
  0
VERTEX
  8
DEFAULT_2
 62
8
  6
HIDDEN
 10
313.9838782551
 20
237.6911426056
  0
VERTEX
  8
DEFAULT_2
 62
8
  6
HIDDEN
 10
314.1845703839
 20
237.7634309603
  0
VERTEX
  8
DEFAULT_2
 62
8
  6
HIDDEN
 10
314.3635526773
 20
237.8532829409
  0
VERTEX
  8
DEFAULT_2
 62
8
  6
HIDDEN
 10
314.516417997
 20
237.9584860933
  0
VERTEX
  8
DEFAULT_2
 62
8
  6
HIDDEN
 10
314.6394022918
 20
238.0764499669
  0
VERTEX
  8
DEFAULT_2
 62
8
  6
HIDDEN
 10
314.7294772799
 20
238.2042698995
  0
VERTEX
  8
DEFAULT_2
 62
8
  6
HIDDEN
 10
314.7844250164
 20
238.3387985403
  0
VERTEX
  8
DEFAULT_2
 62
8
  6
HIDDEN
 10
314.8028925055
 20
238.4767233475
  0
SEQEND
  0
POLYLINE
  8
0
 62
9
  6
CONTINUOUS
 66
1
 70
0
  0
VERTEX
  8
0
 62
9
  6
CONTINUOUS
 10
313.3028925055
 20
235.0765164694
  0
VERTEX
  8
0
 62
9
  6
CONTINUOUS
 10
313.5375443696
 20
235.0860279447
  0
VERTEX
  8
0
 62
9
  6
CONTINUOUS
 10
313.7664182933
 20
235.1143281585
  0
VERTEX
  8
0
 62
9
  6
CONTINUOUS
 10
313.9838786317
 20
235.1607202572
  0
VERTEX
  8
0
 62
9
  6
CONTINUOUS
 10
314.1845707859
 20
235.2240619038
  0
VERTEX
  8
0
 62
9
  6
CONTINUOUS
 10
314.3635530519
 20
235.3027934066
  0
VERTEX
  8
0
 62
9
  6
CONTINUOUS
 10
314.5164183017
 20
235.3949761252
  0
VERTEX
  8
0
 62
9
  6
CONTINUOUS
 10
314.6394025006
 20
235.4983402074
  0
VERTEX
  8
0
 62
9
  6
CONTINUOUS
 10
314.7294773893
 20
235.6103404813
  0
VERTEX
  8
0
 62
9
  6
CONTINUOUS
 10
314.7844250477
 20
235.7282191267
  0
VERTEX
  8
0
 62
9
  6
CONTINUOUS
 10
314.8028925055
 20
235.8490735818
  0
SEQEND
  0
LINE
  8
0
 62
9
  6
CONTINUOUS
 10
298.8028925055
 20
234.3969324786
 11
284.3028925055
 21
234.3969324786
  0
LINE
  8
DEFAULT_2
 62
8
  6
HIDDEN
 10
298.8028925055
 20
234.3969324786
 11
313.3028925055
 21
234.3969324786
  0
LINE
  8
DEFAULT_2
 62
8
  6
HIDDEN
 10
298.8028925055
 20
235.0765164694
 11
284.3028925055
 21
235.0765164694
  0
LINE
  8
0
 62
9
  6
CONTINUOUS
 10
298.8028925055
 20
235.0765164694
 11
313.3028925055
 21
235.0765164694
  0
LINE
  8
0
 62
9
  6
CONTINUOUS
 10
298.8028925055
 20
237.1905369719
 11
284.3028925055
 21
237.1905369719
  0
LINE
  8
DEFAULT_2
 62
8
  6
HIDDEN
 10
298.8028925055
 20
237.1905369719
 11
313.3028925055
 21
237.1905369719
  0
LINE
  8
0
 62
9
  6
CONTINUOUS
 10
298.8028925055
 20
237.5950454691
 11
284.3028925055
 21
237.5950454691
  0
LINE
  8
DEFAULT_2
 62
8
  6
HIDDEN
 10
298.8028925055
 20
237.5950454691
 11
313.3028925055
 21
237.5950454691
  0
LINE
  8
DEFAULT_2
 62
8
  6
HIDDEN
 10
298.8028925055
 20
238.2480908345
 11
284.3028925055
 21
238.2480908345
  0
LINE
  8
0
 62
9
  6
CONTINUOUS
 10
298.8028925055
 20
238.2480908345
 11
313.3028925055
 21
238.2480908345
  0
LINE
  8
DEFAULT_2
 62
8
  6
HIDDEN
 10
298.8028925055
 20
238.3278973441
 11
284.3028925055
 21
238.3278973441
  0
LINE
  8
0
 62
7
  6
CONTINUOUS
 10
298.8028925055
 20
238.3278973441
 11
313.3028925055
 21
238.3278973441
  0
POLYLINE
  8
DEFAULT_2
 62
8
  6
HIDDEN
 66
1
 70
0
  0
VERTEX
  8
DEFAULT_2
 62
8
  6
HIDDEN
 10
284.3028925055
 20
235.0765164694
  0
VERTEX
  8
DEFAULT_2
 62
8
  6
HIDDEN
 10
284.0682406414
 20
235.0860279447
  0
VERTEX
  8
DEFAULT_2
 62
8
  6
HIDDEN
 10
283.8393667176
 20
235.1143281585
  0
VERTEX
  8
DEFAULT_2
 62
8
  6
HIDDEN
 10
283.6219063793
 20
235.1607202572
  0
VERTEX
  8
DEFAULT_2
 62
8
  6
HIDDEN
 10
283.421214225
 20
235.2240619038
  0
VERTEX
  8
DEFAULT_2
 62
8
  6
HIDDEN
 10
283.242231959
 20
235.3027934066
  0
VERTEX
  8
DEFAULT_2
 62
8
  6
HIDDEN
 10
283.0893667093
 20
235.3949761252
  0
VERTEX
  8
DEFAULT_2
 62
8
  6
HIDDEN
 10
282.9663825104
 20
235.4983402074
  0
VERTEX
  8
DEFAULT_2
 62
8
  6
HIDDEN
 10
282.8763076217
 20
235.6103404813
  0
VERTEX
  8
DEFAULT_2
 62
8
  6
HIDDEN
 10
282.8213599633
 20
235.7282191267
  0
VERTEX
  8
DEFAULT_2
 62
8
  6
HIDDEN
 10
282.8028925055
 20
235.8490735818
  0
SEQEND
  0
POLYLINE
  8
0
 62
9
  6
CONTINUOUS
 66
1
 70
0
  0
VERTEX
  8
0
 62
9
  6
CONTINUOUS
 10
284.3028925055
 20
237.1905369719
  0
VERTEX
  8
0
 62
9
  6
CONTINUOUS
 10
284.0682411115
 20
237.2013918614
  0
VERTEX
  8
0
 62
9
  6
CONTINUOUS
 10
283.8393675685
 20
237.2336892529
  0
VERTEX
  8
0
 62
9
  6
CONTINUOUS
 10
283.6219074781
 20
237.2866338922
  0
VERTEX
  8
0
 62
9
  6
CONTINUOUS
 10
283.4212154155
 20
237.3589221265
  0
VERTEX
  8
0
 62
9
  6
CONTINUOUS
 10
283.2422330841
 20
237.4487740027
  0
VERTEX
  8
0
 62
9
  6
CONTINUOUS
 10
283.0893676361
 20
237.5539770928
  0
VERTEX
  8
0
 62
9
  6
CONTINUOUS
 10
282.9663831537
 20
237.6719409685
  0
VERTEX
  8
0
 62
9
  6
CONTINUOUS
 10
282.8763079626
 20
237.7997609834
  0
VERTEX
  8
0
 62
9
  6
CONTINUOUS
 10
282.821360062
 20
237.9342897929
  0
VERTEX
  8
0
 62
9
  6
CONTINUOUS
 10
282.8028925055
 20
238.0722148504
  0
SEQEND
  0
POLYLINE
  8
0
 62
9
  6
CONTINUOUS
 66
1
 70
0
  0
VERTEX
  8
0
 62
9
  6
CONTINUOUS
 10
284.3028925055
 20
237.5950454691
  0
VERTEX
  8
0
 62
9
  6
CONTINUOUS
 10
284.0682408079
 20
237.6059003868
  0
VERTEX
  8
0
 62
9
  6
CONTINUOUS
 10
283.8393670139
 20
237.638197856
  0
VERTEX
  8
0
 62
9
  6
CONTINUOUS
 10
283.6219067559
 20
237.6911426056
  0
VERTEX
  8
0
 62
9
  6
CONTINUOUS
 10
283.421214627
 20
237.7634309603
  0
VERTEX
  8
0
 62
9
  6
CONTINUOUS
 10
283.2422323337
 20
237.8532829409
  0
VERTEX
  8
0
 62
9
  6
CONTINUOUS
 10
283.0893670139
 20
237.9584860933
  0
VERTEX
  8
0
 62
9
  6
CONTINUOUS
 10
282.9663827192
 20
238.0764499669
  0
VERTEX
  8
0
 62
9
  6
CONTINUOUS
 10
282.876307731
 20
238.2042698995
  0
VERTEX
  8
0
 62
9
  6
CONTINUOUS
 10
282.8213599946
 20
238.3387985403
  0
VERTEX
  8
0
 62
9
  6
CONTINUOUS
 10
282.8028925055
 20
238.4767233475
  0
SEQEND
  0
POLYLINE
  8
DEFAULT_2
 62
8
  6
HIDDEN
 66
1
 70
0
  0
VERTEX
  8
DEFAULT_2
 62
8
  6
HIDDEN
 10
313.3028925055
 20
234.3969324786
  0
VERTEX
  8
DEFAULT_2
 62
8
  6
HIDDEN
 10
313.537544203
 20
234.381991966
  0
VERTEX
  8
DEFAULT_2
 62
8
  6
HIDDEN
 10
313.766417997
 20
234.3375383135
  0
VERTEX
  8
DEFAULT_2
 62
8
  6
HIDDEN
 10
313.9838782551
 20
234.2646661173
  0
VERTEX
  8
DEFAULT_2
 62
8
  6
HIDDEN
 10
314.1845703839
 20
234.1651697328
  0
VERTEX
  8
DEFAULT_2
 62
8
  6
HIDDEN
 10
314.3635526773
 20
234.0414990912
  0
VERTEX
  8
DEFAULT_2
 62
8
  6
HIDDEN
 10
314.516417997
 20
233.8966993742
  0
VERTEX
  8
DEFAULT_2
 62
8
  6
HIDDEN
 10
314.6394022918
 20
233.7343360314
  0
VERTEX
  8
DEFAULT_2
 62
8
  6
HIDDEN
 10
314.7294772799
 20
233.558406987
  0
VERTEX
  8
DEFAULT_2
 62
8
  6
HIDDEN
 10
314.7844250164
 20
233.3732441981
  0
VERTEX
  8
DEFAULT_2
 62
8
  6
HIDDEN
 10
314.8028925055
 20
233.183406987
  0
SEQEND
  0
POLYLINE
  8
0
 62
9
  6
CONTINUOUS
 66
1
 70
0
  0
VERTEX
  8
0
 62
9
  6
CONTINUOUS
 10
313.3028925055
 20
238.2480908345
  0
VERTEX
  8
0
 62
9
  6
CONTINUOUS
 10
313.5375442269
 20
238.2297113312
  0
VERTEX
  8
0
 62
9
  6
CONTINUOUS
 10
313.7664180414
 20
238.1750253864
  0
VERTEX
  8
0
 62
9
  6
CONTINUOUS
 10
313.9838783137
 20
238.0853795513
  0
VERTEX
  8
0
 62
9
  6
CONTINUOUS
 10
314.1845704488
 20
237.9629812064
  0
VERTEX
  8
0
 62
9
  6
CONTINUOUS
 10
314.3635527397
 20
237.8108442085
  0
VERTEX
  8
0
 62
9
  6
CONTINUOUS
 10
314.5164180493
 20
237.632714679
  0
VERTEX
  8
0
 62
9
  6
CONTINUOUS
 10
314.6394023286
 20
237.432978761
  0
VERTEX
  8
0
 62
9
  6
CONTINUOUS
 10
314.7294772997
 20
237.2165546185
  0
VERTEX
  8
0
 62
9
  6
CONTINUOUS
 10
314.7844250222
 20
236.9887713333
  0
SEQEND
  0
POLYLINE
  8
DEFAULT_2
 62
8
  6
HIDDEN
 66
1
 70
0
  0
VERTEX
  8
DEFAULT_2
 62
8
  6
HIDDEN
 10
284.3028925055
 20
251.411698218
  0
VERTEX
  8
DEFAULT_2
 62
8
  6
HIDDEN
 10
284.0682408393
 20
251.3967577095
  0
VERTEX
  8
DEFAULT_2
 62
8
  6
HIDDEN
 10
283.8393670721
 20
251.3523040681
  0
VERTEX
  8
DEFAULT_2
 62
8
  6
HIDDEN
 10
283.6219068328
 20
251.2794318884
  0
VERTEX
  8
DEFAULT_2
 62
8
  6
HIDDEN
 10
283.4212147121
 20
251.1799355222
  0
VERTEX
  8
DEFAULT_2
 62
8
  6
HIDDEN
 10
283.2422324156
 20
251.0562648969
  0
VERTEX
  8
DEFAULT_2
 62
8
  6
HIDDEN
 10
283.0893670826
 20
250.9114651901
  0
VERTEX
  8
DEFAULT_2
 62
8
  6
HIDDEN
 10
282.9663827676
 20
250.7491018477
  0
VERTEX
  8
DEFAULT_2
 62
8
  6
HIDDEN
 10
282.8763077571
 20
250.5731727913
  0
VERTEX
  8
DEFAULT_2
 62
8
  6
HIDDEN
 10
282.8213600022
 20
250.3880099766
  0
VERTEX
  8
DEFAULT_2
 62
8
  6
HIDDEN
 10
282.8028925055
 20
250.1981727264
  0
SEQEND
  0
POLYLINE
  8
DEFAULT_2
 62
8
  6
HIDDEN
 66
1
 70
0
  0
VERTEX
  8
DEFAULT_2
 62
8
  6
HIDDEN
 10
284.3028925055
 20
253.5607478649
  0
VERTEX
  8
DEFAULT_2
 62
8
  6
HIDDEN
 10
284.0682408079
 20
253.5486321019
  0
VERTEX
  8
DEFAULT_2
 62
8
  6
HIDDEN
 10
283.8393670139
 20
253.5125831433
  0
VERTEX
  8
DEFAULT_2
 62
8
  6
HIDDEN
 10
283.6219067559
 20
253.453488634
  0
VERTEX
  8
DEFAULT_2
 62
8
  6
HIDDEN
 10
283.421214627
 20
253.372803677
  0
VERTEX
  8
DEFAULT_2
 62
8
  6
HIDDEN
 10
283.2422323337
 20
253.2725150038
  0
VERTEX
  8
DEFAULT_2
 62
8
  6
HIDDEN
 10
283.0893670139
 20
253.1550920542
  0
VERTEX
  8
DEFAULT_2
 62
8
  6
HIDDEN
 10
282.9663827192
 20
253.023426171
  0
VERTEX
  8
DEFAULT_2
 62
8
  6
HIDDEN
 10
282.876307731
 20
252.8807594053
  0
VERTEX
  8
DEFAULT_2
 62
8
  6
HIDDEN
 10
282.8213599946
 20
252.7306046863
  0
VERTEX
  8
DEFAULT_2
 62
8
  6
HIDDEN
 10
282.8028925055
 20
252.5766593214
  0
SEQEND
  0
LINE
  8
DEFAULT_2
 62
8
  6
HIDDEN
 10
284.3028925055
 20
248.4016332997
 11
313.3028925055
 21
248.4016332997
  0
LINE
  8
DEFAULT_2
 62
8
  6
HIDDEN
 10
282.8028925055
 20
250.4016332998
 11
314.8028925055
 21
250.4016332998
  0
LINE
  8
DEFAULT_2
 62
8
  6
HIDDEN
 10
282.8028925055
 20
250.9016332997
 11
314.8028925055
 21
250.9016332997
  0
LINE
  8
DEFAULT_2
 62
8
  6
HIDDEN
 10
298.8028925055
 20
251.411698218
 11
284.3028925055
 21
251.411698218
  0
LINE
  8
0
 62
9
  6
CONTINUOUS
 10
298.8028925055
 20
251.411698218
 11
313.3028925055
 21
251.411698218
  0
LINE
  8
DEFAULT_2
 62
8
  6
HIDDEN
 10
284.3028925055
 20
253.5607478649
 11
313.3028925055
 21
253.5607478649
  0
LINE
  8
0
 62
9
  6
CONTINUOUS
 10
298.8028925055
 20
254.145030768
 11
284.3028925055
 21
254.145030768
  0
LINE
  8
DEFAULT_2
 62
8
  6
HIDDEN
 10
298.8028925055
 20
254.145030768
 11
313.3028925055
 21
254.145030768
  0
POLYLINE
  8
DEFAULT_2
 62
8
  6
HIDDEN
 66
1
 70
0
  0
VERTEX
  8
DEFAULT_2
 62
8
  6
HIDDEN
 10
313.3028925055
 20
253.5607478649
  0
VERTEX
  8
DEFAULT_2
 62
8
  6
HIDDEN
 10
313.537544203
 20
253.5486321019
  0
VERTEX
  8
DEFAULT_2
 62
8
  6
HIDDEN
 10
313.766417997
 20
253.5125831433
  0
VERTEX
  8
DEFAULT_2
 62
8
  6
HIDDEN
 10
313.9838782551
 20
253.453488634
  0
VERTEX
  8
DEFAULT_2
 62
8
  6
HIDDEN
 10
314.1845703839
 20
253.372803677
  0
VERTEX
  8
DEFAULT_2
 62
8
  6
HIDDEN
 10
314.3635526773
 20
253.2725150038
  0
VERTEX
  8
DEFAULT_2
 62
8
  6
HIDDEN
 10
314.516417997
 20
253.1550920542
  0
VERTEX
  8
DEFAULT_2
 62
8
  6
HIDDEN
 10
314.6394022918
 20
253.023426171
  0
VERTEX
  8
DEFAULT_2
 62
8
  6
HIDDEN
 10
314.7294772799
 20
252.8807594053
  0
VERTEX
  8
DEFAULT_2
 62
8
  6
HIDDEN
 10
314.7844250164
 20
252.7306046863
  0
VERTEX
  8
DEFAULT_2
 62
8
  6
HIDDEN
 10
314.8028925055
 20
252.5766593214
  0
SEQEND
  0
POLYLINE
  8
0
 62
9
  6
CONTINUOUS
 66
1
 70
0
  0
VERTEX
  8
0
 62
9
  6
CONTINUOUS
 10
313.3028925055
 20
251.411698218
  0
VERTEX
  8
0
 62
9
  6
CONTINUOUS
 10
313.5375441717
 20
251.3967577095
  0
VERTEX
  8
0
 62
9
  6
CONTINUOUS
 10
313.7664179388
 20
251.3523040681
  0
VERTEX
  8
0
 62
9
  6
CONTINUOUS
 10
313.9838781781
 20
251.2794318884
  0
VERTEX
  8
0
 62
9
  6
CONTINUOUS
 10
314.1845702988
 20
251.1799355222
  0
VERTEX
  8
0
 62
9
  6
CONTINUOUS
 10
314.3635525953
 20
251.0562648969
  0
VERTEX
  8
0
 62
9
  6
CONTINUOUS
 10
314.5164179283
 20
250.9114651901
  0
VERTEX
  8
0
 62
9
  6
CONTINUOUS
 10
314.6394022433
 20
250.7491018477
  0
VERTEX
  8
0
 62
9
  6
CONTINUOUS
 10
314.7294772539
 20
250.5731727913
  0
VERTEX
  8
0
 62
9
  6
CONTINUOUS
 10
314.7844250087
 20
250.3880099766
  0
VERTEX
  8
0
 62
9
  6
CONTINUOUS
 10
314.8028925055
 20
250.1981727264
  0
SEQEND
  0
POLYLINE
  8
0
 62
9
  6
CONTINUOUS
 66
1
 70
0
  0
VERTEX
  8
0
 62
9
  6
CONTINUOUS
 10
284.3028925055
 20
265.3480392318
  0
VERTEX
  8
0
 62
9
  6
CONTINUOUS
 10
284.0682407841
 20
265.3321115364
  0
VERTEX
  8
0
 62
9
  6
CONTINUOUS
 10
283.8393669695
 20
265.2847206432
  0
VERTEX
  8
0
 62
9
  6
CONTINUOUS
 10
283.6219066972
 20
265.207033475
  0
VERTEX
  8
0
 62
9
  6
CONTINUOUS
 10
283.4212145622
 20
265.10096295
  0
VERTEX
  8
0
 62
9
  6
CONTINUOUS
 10
283.2422322712
 20
264.9691208793
  0
VERTEX
  8
0
 62
9
  6
CONTINUOUS
 10
283.0893669616
 20
264.8147536553
  0
VERTEX
  8
0
 62
9
  6
CONTINUOUS
 10
282.9663826823
 20
264.6416623142
  0
VERTEX
  8
0
 62
9
  6
CONTINUOUS
 10
282.8763077112
 20
264.4541089412
  0
VERTEX
  8
0
 62
9
  6
CONTINUOUS
 10
282.8213599888
 20
264.2567117242
  0
SEQEND
  0
POLYLINE
  8
DEFAULT_2
 62
8
  6
HIDDEN
 66
1
 70
0
  0
VERTEX
  8
DEFAULT_2
 62
8
  6
HIDDEN
 10
284.3028925055
 20
254.6821802287
  0
VERTEX
  8
DEFAULT_2
 62
8
  6
HIDDEN
 10
284.0682406414
 20
254.6700644499
  0
VERTEX
  8
DEFAULT_2
 62
8
  6
HIDDEN
 10
283.8393667176
 20
254.6340154466
  0
VERTEX
  8
DEFAULT_2
 62
8
  6
HIDDEN
 10
283.6219063793
 20
254.5749208755
  0
VERTEX
  8
DEFAULT_2
 62
8
  6
HIDDEN
 10
283.421214225
 20
254.4942358533
  0
VERTEX
  8
DEFAULT_2
 62
8
  6
HIDDEN
 10
283.242231959
 20
254.3939471261
  0
VERTEX
  8
DEFAULT_2
 62
8
  6
HIDDEN
 10
283.0893667093
 20
254.2765241471
  0
VERTEX
  8
DEFAULT_2
 62
8
  6
HIDDEN
 10
282.9663825104
 20
254.1448582696
  0
VERTEX
  8
DEFAULT_2
 62
8
  6
HIDDEN
 10
282.8763076217
 20
254.0021915511
  0
VERTEX
  8
DEFAULT_2
 62
8
  6
HIDDEN
 10
282.8213599633
 20
253.8520369219
  0
VERTEX
  8
DEFAULT_2
 62
8
  6
HIDDEN
 10
282.8028925055
 20
253.6980916852
  0
SEQEND
  0
POLYLINE
  8
0
 62
9
  6
CONTINUOUS
 66
1
 70
0
  0
VERTEX
  8
0
 62
9
  6
CONTINUOUS
 10
284.3028925055
 20
254.145030768
  0
VERTEX
  8
0
 62
9
  6
CONTINUOUS
 10
284.0682407841
 20
254.1376387186
  0
VERTEX
  8
0
 62
9
  6
CONTINUOUS
 10
283.8393669695
 20
254.1156445876
  0
VERTEX
  8
0
 62
9
  6
CONTINUOUS
 10
283.6219066972
 20
254.0795899441
  0
VERTEX
  8
0
 62
9
  6
CONTINUOUS
 10
283.4212145622
 20
254.0303625743
  0
VERTEX
  8
0
 62
9
  6
CONTINUOUS
 10
283.2422322712
 20
253.9691746207
  0
VERTEX
  8
0
 62
9
  6
CONTINUOUS
 10
283.0893669616
 20
253.8975327351
  0
VERTEX
  8
0
 62
9
  6
CONTINUOUS
 10
282.9663826823
 20
253.8172009798
  0
VERTEX
  8
0
 62
9
  6
CONTINUOUS
 10
282.8763077112
 20
253.7301573903
  0
VERTEX
  8
0
 62
9
  6
CONTINUOUS
 10
282.8213599888
 20
253.6385452691
  0
VERTEX
  8
0
 62
9
  6
CONTINUOUS
 10
282.8028925055
 20
253.5446204108
  0
SEQEND
  0
POLYLINE
  8
DEFAULT_2
 62
8
  6
HIDDEN
 66
1
 70
0
  0
VERTEX
  8
DEFAULT_2
 62
8
  6
HIDDEN
 10
284.3028925055
 20
262.2396169924
  0
VERTEX
  8
DEFAULT_2
 62
8
  6
HIDDEN
 10
284.0682408079
 20
262.2380074447
  0
VERTEX
  8
DEFAULT_2
 62
8
  6
HIDDEN
 10
283.8393670139
 20
262.2332184339
  0
VERTEX
  8
DEFAULT_2
 62
8
  6
HIDDEN
 10
283.6219067559
 20
262.2253678814
  0
VERTEX
  8
DEFAULT_2
 62
8
  6
HIDDEN
 10
283.421214627
 20
262.2146490938
  0
VERTEX
  8
DEFAULT_2
 62
8
  6
HIDDEN
 10
283.2422323337
 20
262.2013260033
  0
VERTEX
  8
DEFAULT_2
 62
8
  6
HIDDEN
 10
283.0893670139
 20
262.1857266686
  0
VERTEX
  8
DEFAULT_2
 62
8
  6
HIDDEN
 10
282.9663827192
 20
262.1682351971
  0
VERTEX
  8
DEFAULT_2
 62
8
  6
HIDDEN
 10
282.876307731
 20
262.1492822868
  0
VERTEX
  8
DEFAULT_2
 62
8
  6
HIDDEN
 10
282.8213599946
 20
262.1293346212
  0
VERTEX
  8
DEFAULT_2
 62
8
  6
HIDDEN
 10
282.8028925055
 20
262.1088833783
  0
SEQEND
  0
POLYLINE
  8
DEFAULT_2
 62
8
  6
HIDDEN
 66
1
 70
0
  0
VERTEX
  8
DEFAULT_2
 62
8
  6
HIDDEN
 10
284.3028925055
 20
263.7198751001
  0
VERTEX
  8
DEFAULT_2
 62
8
  6
HIDDEN
 10
284.0682406414
 20
263.718265552
  0
VERTEX
  8
DEFAULT_2
 62
8
  6
HIDDEN
 10
283.8393667176
 20
263.7134765367
  0
VERTEX
  8
DEFAULT_2
 62
8
  6
HIDDEN
 10
283.6219063793
 20
263.705625977
  0
VERTEX
  8
DEFAULT_2
 62
8
  6
HIDDEN
 10
283.421214225
 20
263.6949071815
  0
VERTEX
  8
DEFAULT_2
 62
8
  6
HIDDEN
 10
283.242231959
 20
263.6815840841
  0
VERTEX
  8
DEFAULT_2
 62
8
  6
HIDDEN
 10
283.0893667093
 20
263.6659847452
  0
VERTEX
  8
DEFAULT_2
 62
8
  6
HIDDEN
 10
282.9663825104
 20
263.6484932738
  0
VERTEX
  8
DEFAULT_2
 62
8
  6
HIDDEN
 10
282.8763076217
 20
263.6295403687
  0
VERTEX
  8
DEFAULT_2
 62
8
  6
HIDDEN
 10
282.8213599633
 20
263.6095927137
  0
VERTEX
  8
DEFAULT_2
 62
8
  6
HIDDEN
 10
282.8028925055
 20
263.589141486
  0
SEQEND
  0
LINE
  8
DEFAULT_2
 62
8
  6
HIDDEN
 10
284.3028925055
 20
254.6821802287
 11
313.3028925055
 21
254.6821802287
  0
LINE
  8
0
 62
7
  6
CONTINUOUS
 10
298.8028925055
 20
255.4044562678
 11
284.3028925055
 21
255.4044562678
  0
LINE
  8
DEFAULT_2
 62
8
  6
HIDDEN
 10
298.8028925055
 20
255.4044562678
 11
313.3028925055
 21
255.4044562678
  0
LINE
  8
DEFAULT_2
 62
8
  6
HIDDEN
 10
298.8028925055
 20
262.2396169924
 11
284.3028925055
 21
262.2396169924
  0
LINE
  8
0
 62
9
  6
CONTINUOUS
 10
298.8028925055
 20
262.2396169924
 11
313.3028925055
 21
262.2396169924
  0
LINE
  8
DEFAULT_2
 62
8
  6
HIDDEN
 10
298.8028925055
 20
263.7198751001
 11
284.3028925055
 21
263.7198751001
  0
LINE
  8
0
 62
9
  6
CONTINUOUS
 10
298.8028925055
 20
263.7198751001
 11
313.3028925055
 21
263.7198751001
  0
LINE
  8
0
 62
9
  6
CONTINUOUS
 10
298.8028925055
 20
265.3480392318
 11
284.3028925055
 21
265.3480392318
  0
LINE
  8
DEFAULT_2
 62
8
  6
HIDDEN
 10
298.8028925055
 20
265.3480392318
 11
313.3028925055
 21
265.3480392318
  0
LINE
  8
0
 62
7
  6
CONTINUOUS
 10
284.3028925055
 20
265.6368480404
 11
313.3028925055
 21
265.6368480404
  0
POLYLINE
  8
0
 62
9
  6
CONTINUOUS
 66
1
 70
0
  0
VERTEX
  8
0
 62
9
  6
CONTINUOUS
 10
313.3028925055
 20
262.2396169924
  0
VERTEX
  8
0
 62
9
  6
CONTINUOUS
 10
313.537544203
 20
262.2380074447
  0
VERTEX
  8
0
 62
9
  6
CONTINUOUS
 10
313.766417997
 20
262.2332184339
  0
VERTEX
  8
0
 62
9
  6
CONTINUOUS
 10
313.9838782551
 20
262.2253678814
  0
VERTEX
  8
0
 62
9
  6
CONTINUOUS
 10
314.1845703839
 20
262.2146490938
  0
VERTEX
  8
0
 62
9
  6
CONTINUOUS
 10
314.3635526773
 20
262.2013260033
  0
VERTEX
  8
0
 62
9
  6
CONTINUOUS
 10
314.516417997
 20
262.1857266686
  0
VERTEX
  8
0
 62
9
  6
CONTINUOUS
 10
314.6394022918
 20
262.1682351971
  0
VERTEX
  8
0
 62
9
  6
CONTINUOUS
 10
314.7294772799
 20
262.1492822868
  0
VERTEX
  8
0
 62
9
  6
CONTINUOUS
 10
314.7844250164
 20
262.1293346212
  0
VERTEX
  8
0
 62
9
  6
CONTINUOUS
 10
314.8028925055
 20
262.1088833783
  0
SEQEND
  0
POLYLINE
  8
0
 62
9
  6
CONTINUOUS
 66
1
 70
0
  0
VERTEX
  8
0
 62
9
  6
CONTINUOUS
 10
313.3028925055
 20
263.7198751001
  0
VERTEX
  8
0
 62
9
  6
CONTINUOUS
 10
313.5375443696
 20
263.718265552
  0
VERTEX
  8
0
 62
9
  6
CONTINUOUS
 10
313.7664182933
 20
263.7134765367
  0
VERTEX
  8
0
 62
9
  6
CONTINUOUS
 10
313.9838786317
 20
263.705625977
  0
VERTEX
  8
0
 62
9
  6
CONTINUOUS
 10
314.1845707859
 20
263.6949071815
  0
VERTEX
  8
0
 62
9
  6
CONTINUOUS
 10
314.3635530519
 20
263.6815840841
  0
VERTEX
  8
0
 62
9
  6
CONTINUOUS
 10
314.5164183017
 20
263.6659847452
  0
VERTEX
  8
0
 62
9
  6
CONTINUOUS
 10
314.6394025006
 20
263.6484932738
  0
VERTEX
  8
0
 62
9
  6
CONTINUOUS
 10
314.7294773893
 20
263.6295403687
  0
VERTEX
  8
0
 62
9
  6
CONTINUOUS
 10
314.7844250477
 20
263.6095927137
  0
VERTEX
  8
0
 62
9
  6
CONTINUOUS
 10
314.8028925055
 20
263.589141486
  0
SEQEND
  0
POLYLINE
  8
DEFAULT_2
 62
8
  6
HIDDEN
 66
1
 70
0
  0
VERTEX
  8
DEFAULT_2
 62
8
  6
HIDDEN
 10
313.3028925055
 20
254.145030768
  0
VERTEX
  8
DEFAULT_2
 62
8
  6
HIDDEN
 10
313.5375442269
 20
254.1376387186
  0
VERTEX
  8
DEFAULT_2
 62
8
  6
HIDDEN
 10
313.7664180414
 20
254.1156445876
  0
VERTEX
  8
DEFAULT_2
 62
8
  6
HIDDEN
 10
313.9838783137
 20
254.0795899441
  0
VERTEX
  8
DEFAULT_2
 62
8
  6
HIDDEN
 10
314.1845704488
 20
254.0303625743
  0
VERTEX
  8
DEFAULT_2
 62
8
  6
HIDDEN
 10
314.3635527397
 20
253.9691746207
  0
VERTEX
  8
DEFAULT_2
 62
8
  6
HIDDEN
 10
314.5164180493
 20
253.8975327351
  0
VERTEX
  8
DEFAULT_2
 62
8
  6
HIDDEN
 10
314.6394023286
 20
253.8172009798
  0
VERTEX
  8
DEFAULT_2
 62
8
  6
HIDDEN
 10
314.7294772997
 20
253.7301573903
  0
VERTEX
  8
DEFAULT_2
 62
8
  6
HIDDEN
 10
314.7844250222
 20
253.6385452691
  0
VERTEX
  8
DEFAULT_2
 62
8
  6
HIDDEN
 10
314.8028925055
 20
253.5446204108
  0
SEQEND
  0
POLYLINE
  8
DEFAULT_2
 62
8
  6
HIDDEN
 66
1
 70
0
  0
VERTEX
  8
DEFAULT_2
 62
8
  6
HIDDEN
 10
313.3028925055
 20
254.6821802287
  0
VERTEX
  8
DEFAULT_2
 62
8
  6
HIDDEN
 10
313.5375443696
 20
254.6700644499
  0
VERTEX
  8
DEFAULT_2
 62
8
  6
HIDDEN
 10
313.7664182933
 20
254.6340154466
  0
VERTEX
  8
DEFAULT_2
 62
8
  6
HIDDEN
 10
313.9838786317
 20
254.5749208755
  0
VERTEX
  8
DEFAULT_2
 62
8
  6
HIDDEN
 10
314.1845707859
 20
254.4942358533
  0
VERTEX
  8
DEFAULT_2
 62
8
  6
HIDDEN
 10
314.3635530519
 20
254.3939471261
  0
VERTEX
  8
DEFAULT_2
 62
8
  6
HIDDEN
 10
314.5164183017
 20
254.2765241471
  0
VERTEX
  8
DEFAULT_2
 62
8
  6
HIDDEN
 10
314.6394025006
 20
254.1448582696
  0
VERTEX
  8
DEFAULT_2
 62
8
  6
HIDDEN
 10
314.7294773893
 20
254.0021915511
  0
VERTEX
  8
DEFAULT_2
 62
8
  6
HIDDEN
 10
314.7844250477
 20
253.8520369219
  0
SEQEND
  0
POLYLINE
  8
DEFAULT_2
 62
8
  6
HIDDEN
 66
1
 70
0
  0
VERTEX
  8
DEFAULT_2
 62
8
  6
HIDDEN
 10
313.3028925055
 20
265.3480392318
  0
VERTEX
  8
DEFAULT_2
 62
8
  6
HIDDEN
 10
313.5375442269
 20
265.3321115364
  0
VERTEX
  8
DEFAULT_2
 62
8
  6
HIDDEN
 10
313.7664180414
 20
265.2847206432
  0
VERTEX
  8
DEFAULT_2
 62
8
  6
HIDDEN
 10
313.9838783137
 20
265.207033475
  0
VERTEX
  8
DEFAULT_2
 62
8
  6
HIDDEN
 10
314.1845704488
 20
265.10096295
  0
VERTEX
  8
DEFAULT_2
 62
8
  6
HIDDEN
 10
314.3635527397
 20
264.9691208793
  0
VERTEX
  8
DEFAULT_2
 62
8
  6
HIDDEN
 10
314.5164180493
 20
264.8147536553
  0
VERTEX
  8
DEFAULT_2
 62
8
  6
HIDDEN
 10
314.6394023286
 20
264.6416623142
  0
VERTEX
  8
DEFAULT_2
 62
8
  6
HIDDEN
 10
314.7294772997
 20
264.4541089412
  0
VERTEX
  8
DEFAULT_2
 62
8
  6
HIDDEN
 10
314.7844250222
 20
264.2567117242
  0
VERTEX
  8
DEFAULT_2
 62
8
  6
HIDDEN
 10
314.8028925055
 20
264.0543312379
  0
SEQEND
  0
ARC
  8
0
 62
7
  6
CONTINUOUS
 10
72.0653378329
 20
108.5612952554
 40
16.75
 50
264.4047181326
 51
324.0
  0
ARC
  8
DEFAULT_2
 62
8
  6
HIDDEN
 10
56.7446896289
 20
104.0619228203
 40
16.5000000287
 50
329.0
 51
18.0
  0
ARC
  8
0
 62
9
  6
CONTINUOUS
 10
56.468274879
 20
104.4423750846
 40
16.5000000287
 50
54.0
 51
103.0
  0
ARC
  8
DEFAULT_2
 62
8
  6
HIDDEN
 10
72.0653378329
 20
108.5612952554
 40
15.2500000206
 50
264.4047181326
 51
324.0
  0
ARC
  8
0
 62
7
  6
CONTINUOUS
 10
56.468274879
 20
104.4423750846
 40
15.0
 50
54.0
 51
103.0
  0
ARC
  8
0
 62
7
  6
CONTINUOUS
 10
56.7446896289
 20
104.0619228203
 40
15.0
 50
329.0
 51
18.0
  0
ARC
  8
0
 62
7
  6
CONTINUOUS
 10
70.6369489815
 20
93.9810961727
 40
2.1
 50
149.0
 51
264.4047181326
  0
ARC
  8
DEFAULT_2
 62
8
  6
HIDDEN
 10
70.6369489815
 20
93.9810961727
 40
0.5999999038
 50
149.0
 51
264.4047181326
  0
ARC
  8
0
 62
7
  6
CONTINUOUS
 10
65.4817730125
 20
117.6227948464
 40
16.75
 50
108.0
 51
167.5952818674
  0
ARC
  8
0
 62
7
  6
CONTINUOUS
 10
51.88502526
 20
159.4692815634
 40
16.75
 50
228.4047181326
 51
288.0
  0
ARC
  8
DEFAULT_2
 62
8
  6
HIDDEN
 10
36.8456957362
 20
164.8344638693
 40
16.5000000287
 50
293.0
 51
342.0
  0
ARC
  8
DEFAULT_2
 62
8
  6
HIDDEN
 10
51.88502526
 20
159.4692815634
 40
15.2500000206
 50
228.4047181326
 51
288.0
  0
ARC
  8
0
 62
9
  6
CONTINUOUS
 10
65.4817730125
 20
117.6227948464
 40
15.2500000206
 50
108.0
 51
167.5952818674
  0
ARC
  8
0
 62
7
  6
CONTINUOUS
 10
36.8456957362
 20
164.8344638693
 40
15.0
 50
293.0
 51
342.0
  0
ARC
  8
DEFAULT_2
 62
8
  6
HIDDEN
 10
58.1546221626
 20
141.7914803801
 40
3.4999995329
 50
18.0
 51
108.0
  0
ARC
  8
0
 62
9
  6
CONTINUOUS
 10
60.1632326261
 20
135.6096130242
 40
3.4999995329
 50
288.0
 51
18.0
  0
ARC
  8
BLANK_COSM
 62
2
  6
PHANTOM
 10
82.7871105949
 20
154.4319092304
 40
3.2
 50
3.5903778907
 51
45.0
  0
ARC
  8
BLANK_COSM
 62
2
  6
PHANTOM
 10
78.5444699078
 20
158.6745499175
 40
3.2
 50
45.0
 51
87.7455692247
  0
ARC
  8
0
 62
7
  6
CONTINUOUS
 10
51.1737832364
 20
120.7698456194
 40
2.1
 50
167.5952818636
 51
283.0000000034
  0
ARC
  8
0
 62
7
  6
CONTINUOUS
 10
42.1594084083
 20
148.5132386256
 40
2.1
 50
113.0
 51
228.4047181326
  0
ARC
  8
0
 62
7
  6
CONTINUOUS
 10
60.1632326261
 20
135.6096130242
 40
2.0
 50
288.0
 51
18.0
  0
ARC
  8
0
 62
7
  6
CONTINUOUS
 10
58.1546221626
 20
141.7914803801
 40
2.0
 50
18.0
 51
108.0
  0
ARC
  8
DEFAULT_2
 62
8
  6
HIDDEN
 10
42.1594084083
 20
148.5132386256
 40
0.5999999038
 50
113.0
 51
228.4047181326
  0
ARC
  8
0
 62
9
  6
CONTINUOUS
 10
51.1737832364
 20
120.7698456194
 40
0.5999999038
 50
167.5952818674
 51
283.0
  0
ARC
  8
0
 62
7
  6
CONTINUOUS
 10
107.6620855854
 20
82.6987441545
 40
16.75
 50
144.0
 51
203.5952818674
  0
ARC
  8
DEFAULT_2
 62
8
  6
HIDDEN
 10
108.5645172319
 20
66.5922394659
 40
16.5000000287
 50
5.0
 51
54.0
  0
ARC
  8
0
 62
9
  6
CONTINUOUS
 10
108.1172687717
 20
66.7375592997
 40
16.5000000287
 50
90.0
 51
139.0
  0
ARC
  8
0
 62
9
  6
CONTINUOUS
 10
107.6620855854
 20
82.6987441545
 40
15.2500000206
 50
144.0
 51
203.5952818674
  0
ARC
  8
0
 62
7
  6
CONTINUOUS
 10
108.1172687717
 20
66.7375592997
 40
15.0
 50
90.0
 51
139.0
  0
ARC
  8
0
 62
7
  6
CONTINUOUS
 10
108.5645172319
 20
66.5922394659
 40
15.0
 50
5.0
 51
54.0
  0
ARC
  8
0
 62
7
  6
CONTINUOUS
 10
94.2368886686
 20
76.8347363316
 40
2.1
 50
203.5952818636
 51
319.0000000034
  0
ARC
  8
0
 62
9
  6
CONTINUOUS
 10
94.2368886686
 20
76.8347363316
 40
0.5999999038
 50
203.5952818674
 51
319.0
  0
ARC
  8
DEFAULT_2
 62
8
  6
HIDDEN
 10
87.5282991036
 20
97.9448302721
 40
3.4999995329
 50
54.0
 51
144.0
  0
ARC
  8
0
 62
9
  6
CONTINUOUS
 10
92.786909567
 20
94.1242261322
 40
3.4999995329
 50
324.0
 51
54.0
  0
ARC
  8
0
 62
7
  6
CONTINUOUS
 10
92.786909567
 20
94.1242261322
 40
2.0
 50
324.0
 51
54.0
  0
ARC
  8
0
 62
7
  6
CONTINUOUS
 10
87.5282991036
 20
97.9448302721
 40
2.0
 50
54.0
 51
144.0
  0
ARC
  8
0
 62
7
  6
CONTINUOUS
 10
118.3145172319
 20
79.2375592997
 40
16.75
 50
300.4047181326
 51
360.0
  0
ARC
  8
DEFAULT_2
 62
8
  6
HIDDEN
 10
118.3145172319
 20
79.2375592997
 40
15.2500000206
 50
300.4047181326
 51
360.0
  0
ARC
  8
DEFAULT_2
 62
8
  6
HIDDEN
 10
137.0645172319
 20
79.7375592997
 40
3.4999995329
 50
90.0
 51
180.0
  0
ARC
  8
0
 62
7
  6
CONTINUOUS
 10
125.7289523728
 20
66.6023445591
 40
2.1
 50
185.0
 51
300.4047181326
  0
ARC
  8
0
 62
7
  6
CONTINUOUS
 10
137.0645172319
 20
79.7375592997
 40
2.0
 50
90.0
 51
180.0
  0
ARC
  8
DEFAULT_2
 62
8
  6
HIDDEN
 10
125.7289523728
 20
66.6023445591
 40
0.5999999038
 50
185.0
 51
300.4047181326
  0
ARC
  8
BLANK_COSM
 62
2
  6
PHANTOM
 10
130.0776168028
 20
113.9296281219
 40
3.2
 50
225.0
 51
266.4096221093
  0
ARC
  8
BLANK_COSM
 62
2
  6
PHANTOM
 10
133.9194708497
 20
103.2995489756
 40
3.2
 50
2.2544307753
 51
45.0
  0
ARC
  8
BLANK_COSM
 62
2
  6
PHANTOM
 10
129.6768301626
 20
107.5421896627
 40
3.2
 50
45.0
 51
86.4096221093
  0
ARC
  8
BLANK_COSM
 62
2
  6
PHANTOM
 10
89.1745490541
 20
154.8326958706
 40
3.2
 50
183.5903778907
 51
225.0
  0
ARC
  8
0
 62
7
  6
CONTINUOUS
 10
51.88502526
 20
170.6699110361
 40
16.75
 50
72.0
 51
131.5952818674
  0
ARC
  8
0
 62
7
  6
CONTINUOUS
 10
65.4817730125
 20
212.5163977531
 40
16.75
 50
192.4047181326
 51
252.0
  0
ARC
  8
0
 62
9
  6
CONTINUOUS
 10
36.8456957362
 20
165.3047287302
 40
16.5000000287
 50
18.0
 51
67.0
  0
ARC
  8
DEFAULT_2
 62
8
  6
HIDDEN
 10
65.4817730125
 20
212.5163977531
 40
15.2500000206
 50
192.4047181326
 51
252.0
  0
ARC
  8
0
 62
9
  6
CONTINUOUS
 10
51.88502526
 20
170.6699110361
 40
15.2500000206
 50
72.0
 51
131.5952818674
  0
ARC
  8
0
 62
7
  6
CONTINUOUS
 10
36.8456957362
 20
165.3047287302
 40
15.0
 50
18.0
 51
67.0
  0
ARC
  8
DEFAULT_2
 62
8
  6
HIDDEN
 10
60.1632326261
 20
194.5295795753
 40
3.4999995329
 50
342.0
 51
72.0
  0
ARC
  8
0
 62
9
  6
CONTINUOUS
 10
58.1546221626
 20
188.3477122194
 40
3.4999995329
 50
252.0
 51
342.0
  0
ARC
  8
BLANK_COSM
 62
2
  6
PHANTOM
 10
78.7962272687
 20
165.0695962997
 40
3.2
 50
92.2544307753
 51
267.7455692247
  0
ARC
  8
BLANK_COSM
 62
2
  6
PHANTOM
 10
78.5444699078
 20
171.464642682
 40
3.2
 50
272.2544307753
 51
315.0
  0
ARC
  8
BLANK_COSM
 62
2
  6
PHANTOM
 10
82.7871105949
 20
175.7072833691
 40
3.2
 50
315.0
 51
356.4096221093
  0
ARC
  8
0
 62
7
  6
CONTINUOUS
 10
42.1594084083
 20
181.6259539739
 40
2.1
 50
131.5952818636
 51
247.0000000034
  0
ARC
  8
0
 62
7
  6
CONTINUOUS
 10
51.1737832364
 20
209.3693469801
 40
2.1
 50
77.0
 51
192.4047181326
  0
ARC
  8
0
 62
7
  6
CONTINUOUS
 10
58.1546221626
 20
188.3477122194
 40
2.0
 50
252.0
 51
342.0
  0
ARC
  8
0
 62
7
  6
CONTINUOUS
 10
60.1632326261
 20
194.5295795753
 40
2.0
 50
342.0
 51
72.0
  0
ARC
  8
DEFAULT_2
 62
8
  6
HIDDEN
 10
51.1737832364
 20
209.3693469801
 40
0.5999999038
 50
77.0
 51
192.4047181326
  0
ARC
  8
0
 62
9
  6
CONTINUOUS
 10
42.1594084083
 20
181.6259539739
 40
0.5999999038
 50
131.5952818674
 51
247.0
  0
ARC
  8
0
 62
7
  6
CONTINUOUS
 10
72.0653378329
 20
221.5778973441
 40
16.75
 50
36.0
 51
95.5952818674
  0
ARC
  8
DEFAULT_2
 62
8
  6
HIDDEN
 10
56.468274879
 20
225.6968175149
 40
16.5000000287
 50
257.0
 51
306.0
  0
ARC
  8
0
 62
9
  6
CONTINUOUS
 10
56.7446896289
 20
226.0772697792
 40
16.5000000287
 50
342.0
 51
31.0
  0
ARC
  8
0
 62
9
  6
CONTINUOUS
 10
72.0653378329
 20
221.5778973441
 40
15.2500000206
 50
36.0
 51
95.5952818674
  0
ARC
  8
0
 62
7
  6
CONTINUOUS
 10
56.7446896289
 20
226.0772697792
 40
15.0
 50
342.0
 51
31.0
  0
ARC
  8
0
 62
7
  6
CONTINUOUS
 10
56.468274879
 20
225.6968175149
 40
15.0
 50
257.0
 51
306.0
  0
ARC
  8
0
 62
7
  6
CONTINUOUS
 10
70.6369489815
 20
236.1580964268
 40
2.1
 50
95.5952818636
 51
211.0000000034
  0
ARC
  8
0
 62
9
  6
CONTINUOUS
 10
70.6369489815
 20
236.1580964268
 40
0.5999999038
 50
95.5952818674
 51
211.0
  0
ARC
  8
BLANK_COSM
 62
2
  6
PHANTOM
 10
89.1745490541
 20
175.3064967288
 40
3.2
 50
135.0
 51
176.4096221093
  0
ARC
  8
0
 62
7
  6
CONTINUOUS
 10
118.3145172319
 20
250.9016332997
 40
16.75
 50
0.0
 51
59.5952818674
  0
ARC
  8
0
 62
7
  6
CONTINUOUS
 10
107.6620855854
 20
247.440448445
 40
16.75
 50
156.4047181326
 51
216.0
  0
ARC
  8
DEFAULT_2
 62
8
  6
HIDDEN
 10
108.1172687717
 20
263.4016332997
 40
16.5000000287
 50
221.0
 51
270.0
  0
ARC
  8
0
 62
9
  6
CONTINUOUS
 10
108.5645172319
 20
263.5469531336
 40
16.5000000287
 50
306.0
 51
355.0
  0
ARC
  8
DEFAULT_2
 62
8
  6
HIDDEN
 10
107.6620855854
 20
247.440448445
 40
15.2500000206
 50
156.4047181326
 51
216.0
  0
ARC
  8
0
 62
9
  6
CONTINUOUS
 10
118.3145172319
 20
250.9016332997
 40
15.2500000206
 50
0.0
 51
59.5952818674
  0
ARC
  8
0
 62
7
  6
CONTINUOUS
 10
108.5645172319
 20
263.5469531336
 40
15.0
 50
306.0
 51
355.0
  0
ARC
  8
0
 62
7
  6
CONTINUOUS
 10
108.1172687717
 20
263.4016332997
 40
15.0
 50
221.0
 51
270.0
  0
ARC
  8
DEFAULT_2
 62
8
  6
HIDDEN
 10
92.786909567
 20
236.0149664673
 40
3.4999995329
 50
306.0
 51
36.0
  0
ARC
  8
0
 62
9
  6
CONTINUOUS
 10
137.0645172319
 20
250.4016332997
 40
3.4999995329
 50
180.0
 51
270.0
  0
ARC
  8
0
 62
9
  6
CONTINUOUS
 10
87.5282991036
 20
232.1943623274
 40
3.4999995329
 50
216.0
 51
306.0
  0
ARC
  8
BLANK_COSM
 62
2
  6
PHANTOM
 10
130.0776168028
 20
216.2095644776
 40
3.2
 50
93.5903778907
 51
135.0
  0
ARC
  8
BLANK_COSM
 62
2
  6
PHANTOM
 10
129.6768301626
 20
222.5970029367
 40
3.2
 50
273.5903778907
 51
315.0
  0
ARC
  8
BLANK_COSM
 62
2
  6
PHANTOM
 10
133.9194708497
 20
226.8396436239
 40
3.2
 50
315.0
 51
357.7455692247
  0
ARC
  8
0
 62
7
  6
CONTINUOUS
 10
125.7289523728
 20
263.5368480404
 40
2.1
 50
59.5952818636
 51
175.0000000034
  0
ARC
  8
0
 62
7
  6
CONTINUOUS
 10
94.2368886686
 20
253.3044562678
 40
2.1
 50
41.0
 51
156.4047181326
  0
ARC
  8
0
 62
7
  6
CONTINUOUS
 10
137.0645172319
 20
250.4016332997
 40
2.0
 50
180.0
 51
270.0
  0
ARC
  8
0
 62
7
  6
CONTINUOUS
 10
87.5282991036
 20
232.1943623274
 40
2.0
 50
216.0
 51
306.0
  0
ARC
  8
0
 62
7
  6
CONTINUOUS
 10
92.786909567
 20
236.0149664673
 40
2.0
 50
306.0
 51
36.0
  0
ARC
  8
DEFAULT_2
 62
8
  6
HIDDEN
 10
94.2368886686
 20
253.3044562678
 40
0.5999999038
 50
41.0
 51
156.4047181326
  0
ARC
  8
0
 62
9
  6
CONTINUOUS
 10
125.7289523728
 20
263.5368480404
 40
0.5999999038
 50
59.5952818674
 51
175.0
  0
ARC
  8
0
 62
7
  6
CONTINUOUS
 10
162.3145172319
 20
79.2375592997
 40
16.75
 50
180.0
 51
239.5952818674
  0
ARC
  8
0
 62
7
  6
CONTINUOUS
 10
172.9669488785
 20
82.6987441545
 40
16.75
 50
336.4047181326
 51
36.0
  0
ARC
  8
DEFAULT_2
 62
8
  6
HIDDEN
 10
172.5117656922
 20
66.7375592997
 40
16.5000000287
 50
41.0
 51
90.0
  0
ARC
  8
0
 62
9
  6
CONTINUOUS
 10
172.0645172319
 20
66.5922394659
 40
16.5000000287
 50
126.0
 51
175.0
  0
ARC
  8
DEFAULT_2
 62
8
  6
HIDDEN
 10
172.9669488785
 20
82.6987441545
 40
15.2500000206
 50
336.4047181326
 51
36.0
  0
ARC
  8
0
 62
9
  6
CONTINUOUS
 10
162.3145172319
 20
79.2375592997
 40
15.2500000206
 50
180.0
 51
239.5952818674
  0
ARC
  8
0
 62
7
  6
CONTINUOUS
 10
172.0645172319
 20
66.5922394659
 40
15.0
 50
126.0
 51
175.0
  0
ARC
  8
0
 62
7
  6
CONTINUOUS
 10
172.5117656922
 20
66.7375592997
 40
15.0
 50
41.0
 51
90.0
  0
ARC
  8
DEFAULT_2
 62
8
  6
HIDDEN
 10
187.8421248969
 20
94.1242261322
 40
3.4999995329
 50
126.0
 51
216.0
  0
ARC
  8
0
 62
9
  6
CONTINUOUS
 10
143.5645172319
 20
79.7375592997
 40
3.4999995329
 50
0.0
 51
90.0
  0
ARC
  8
BLANK_COSM
 62
2
  6
PHANTOM
 10
150.551417661
 20
113.9296281219
 40
3.2
 50
273.5903778907
 51
315.0
  0
ARC
  8
BLANK_COSM
 62
2
  6
PHANTOM
 10
150.9522043013
 20
107.5421896627
 40
3.2
 50
93.5903778907
 51
135.0
  0
ARC
  8
BLANK_COSM
 62
2
  6
PHANTOM
 10
146.7095636142
 20
103.2995489756
 40
3.2
 50
135.0
 51
177.7455692247
  0
ARC
  8
BLANK_COSM
 62
2
  6
PHANTOM
 10
140.3145172319
 20
103.5513063365
 40
3.2
 50
182.2544307753
 51
357.7455692247
  0
ARC
  8
0
 62
7
  6
CONTINUOUS
 10
154.9000820911
 20
66.6023445591
 40
2.1
 50
239.5952818674
 51
355.0
  0
ARC
  8
0
 62
7
  6
CONTINUOUS
 10
186.3921457953
 20
76.8347363316
 40
2.1
 50
221.0
 51
336.4047181326
  0
ARC
  8
0
 62
7
  6
CONTINUOUS
 10
143.5645172319
 20
79.7375592997
 40
2.0
 50
0.0
 51
90.0
  0
ARC
  8
0
 62
7
  6
CONTINUOUS
 10
187.8421248969
 20
94.1242261322
 40
2.0
 50
126.0
 51
216.0
  0
ARC
  8
DEFAULT_2
 62
8
  6
HIDDEN
 10
186.3921457953
 20
76.8347363316
 40
0.5999999038
 50
221.0
 51
336.4047181326
  0
ARC
  8
0
 62
9
  6
CONTINUOUS
 10
154.9000820911
 20
66.6023445591
 40
0.5999999038
 50
239.5952818674
 51
355.0
  0
ARC
  8
BLANK_COSM
 62
2
  6
PHANTOM
 10
191.4544854098
 20
154.8326958706
 40
3.2
 50
315.0
 51
356.4096221093
  0
ARC
  8
0
 62
7
  6
CONTINUOUS
 10
208.563696631
 20
108.5612952554
 40
16.75
 50
216.0
 51
275.5952818674
  0
ARC
  8
DEFAULT_2
 62
8
  6
HIDDEN
 10
224.1607595849
 20
104.4423750846
 40
16.5000000287
 50
77.0
 51
126.0
  0
ARC
  8
0
 62
9
  6
CONTINUOUS
 10
223.884344835
 20
104.0619228203
 40
16.5000000287
 50
162.0
 51
211.0
  0
ARC
  8
0
 62
9
  6
CONTINUOUS
 10
208.563696631
 20
108.5612952554
 40
15.2500000206
 50
216.0
 51
275.5952818674
  0
ARC
  8
0
 62
7
  6
CONTINUOUS
 10
223.884344835
 20
104.0619228203
 40
15.0
 50
162.0
 51
211.0
  0
ARC
  8
0
 62
7
  6
CONTINUOUS
 10
224.1607595849
 20
104.4423750846
 40
15.0
 50
77.0
 51
126.0
  0
ARC
  8
0
 62
9
  6
CONTINUOUS
 10
193.1007353603
 20
97.9448302721
 40
3.4999995329
 50
36.0
 51
126.0
  0
ARC
  8
0
 62
7
  6
CONTINUOUS
 10
209.9920854824
 20
93.9810961727
 40
2.1
 50
275.5952818674
 51
31.0
  0
ARC
  8
0
 62
7
  6
CONTINUOUS
 10
193.1007353603
 20
97.9448302721
 40
2.0
 50
36.0
 51
126.0
  0
ARC
  8
0
 62
9
  6
CONTINUOUS
 10
209.9920854824
 20
93.9810961727
 40
0.5999999038
 50
275.5952818674
 51
31.0
  0
ARC
  8
0
 62
7
  6
CONTINUOUS
 10
228.7440092039
 20
159.4692815634
 40
16.75
 50
252.0
 51
311.5952818674
  0
ARC
  8
0
 62
7
  6
CONTINUOUS
 10
215.1472614514
 20
117.6227948464
 40
16.75
 50
12.4047181326
 51
72.0
  0
ARC
  8
0
 62
9
  6
CONTINUOUS
 10
243.7833387277
 20
164.8344638693
 40
16.5000000287
 50
198.0
 51
247.0
  0
ARC
  8
DEFAULT_2
 62
8
  6
HIDDEN
 10
215.1472614514
 20
117.6227948464
 40
15.2500000206
 50
12.4047181326
 51
72.0
  0
ARC
  8
0
 62
9
  6
CONTINUOUS
 10
228.7440092039
 20
159.4692815634
 40
15.2500000206
 50
252.0
 51
311.5952818674
  0
ARC
  8
0
 62
7
  6
CONTINUOUS
 10
243.7833387277
 20
164.8344638693
 40
15.0
 50
198.0
 51
247.0
  0
ARC
  8
DEFAULT_2
 62
8
  6
HIDDEN
 10
220.4658018378
 20
135.6096130242
 40
3.4999995329
 50
162.0
 51
252.0
  0
ARC
  8
0
 62
9
  6
CONTINUOUS
 10
222.4744123013
 20
141.7914803801
 40
3.4999995329
 50
72.0
 51
162.0
  0
ARC
  8
BLANK_COSM
 62
2
  6
PHANTOM
 10
202.0845645561
 20
158.6745499175
 40
3.2
 50
92.2544307753
 51
135.0
  0
ARC
  8
BLANK_COSM
 62
2
  6
PHANTOM
 10
197.841923869
 20
154.4319092304
 40
3.2
 50
135.0
 51
176.4096221093
  0
ARC
  8
0
 62
7
  6
CONTINUOUS
 10
238.4696260556
 20
148.5132386256
 40
2.1
 50
311.5952818674
 51
67.0
  0
ARC
  8
0
 62
7
  6
CONTINUOUS
 10
229.4552512275
 20
120.7698456194
 40
2.1
 50
257.0
 51
12.4047181326
  0
ARC
  8
0
 62
7
  6
CONTINUOUS
 10
222.4744123013
 20
141.7914803801
 40
2.0
 50
72.0
 51
162.0
  0
ARC
  8
0
 62
7
  6
CONTINUOUS
 10
220.4658018378
 20
135.6096130242
 40
2.0
 50
162.0
 51
252.0
  0
ARC
  8
DEFAULT_2
 62
8
  6
HIDDEN
 10
229.4552512275
 20
120.7698456194
 40
0.5999999038
 50
257.0
 51
12.4047181326
  0
ARC
  8
0
 62
9
  6
CONTINUOUS
 10
238.4696260556
 20
148.5132386256
 40
0.5999999038
 50
311.5952818674
 51
67.0
  0
ARC
  8
0
 62
4
  6
CONTINUOUS
 10
140.3145172319
 20
165.0695962997
 40
101.6416413749
 50
53.6466781521
 51
70.5717960632
  0
CIRCLE
  8
0
 62
7
  6
CONTINUOUS
 10
140.3145172319
 20
165.0695962997
 40
77.5
  0
CIRCLE
  8
0
 62
9
  6
CONTINUOUS
 10
140.3145172319
 20
165.0695962997
 40
76.1771104
  0
CIRCLE
  8
BLANK_COSM
 62
2
  6
PHANTOM
 10
140.3145172319
 20
165.0695962997
 40
9.525
  0
ARC
  8
BLANK_COSM
 62
2
  6
PHANTOM
 10
191.4544854098
 20
175.3064967288
 40
3.2
 50
3.5903778907
 51
45.0
  0
ARC
  8
BLANK_COSM
 62
2
  6
PHANTOM
 10
140.3145172319
 20
226.587886263
 40
3.2
 50
2.2544307753
 51
177.7455692247
  0
ARC
  8
BLANK_COSM
 62
2
  6
PHANTOM
 10
146.7095636142
 20
226.8396436239
 40
3.2
 50
182.2544307753
 51
225.0
  0
ARC
  8
BLANK_COSM
 62
2
  6
PHANTOM
 10
150.9522043013
 20
222.5970029367
 40
3.2
 50
225.0
 51
266.4096221093
  0
ARC
  8
BLANK_COSM
 62
2
  6
PHANTOM
 10
150.551417661
 20
216.2095644776
 40
3.2
 50
45.0
 51
86.4096221093
  0
CIRCLE
  8
0
 62
7
  6
CONTINUOUS
 10
140.3145172319
 20
235.0695962997
 40
1.5
  0
ARC
  8
0
 62
7
  6
CONTINUOUS
 10
162.3145172319
 20
250.9016332997
 40
16.75
 50
120.4047181326
 51
180.0
  0
ARC
  8
DEFAULT_2
 62
8
  6
HIDDEN
 10
162.3145172319
 20
250.9016332997
 40
15.2500000206
 50
120.4047181326
 51
180.0
  0
ARC
  8
DEFAULT_2
 62
8
  6
HIDDEN
 10
143.5645172319
 20
250.4016332997
 40
3.4999995329
 50
270.0
 51
360.0
  0
ARC
  8
0
 62
7
  6
CONTINUOUS
 10
154.9000820911
 20
263.5368480404
 40
2.1
 50
5.0
 51
120.4047181326
  0
ARC
  8
0
 62
7
  6
CONTINUOUS
 10
143.5645172319
 20
250.4016332997
 40
2.0
 50
270.0
 51
360.0
  0
ARC
  8
DEFAULT_2
 62
8
  6
HIDDEN
 10
154.9000820911
 20
263.5368480404
 40
0.5999999038
 50
5.0
 51
120.4047181326
  0
ARC
  8
0
 62
9
  6
CONTINUOUS
 10
187.8421248969
 20
236.0149664673
 40
3.4999995329
 50
144.0
 51
234.0
  0
ARC
  8
0
 62
7
  6
CONTINUOUS
 10
187.8421248969
 20
236.0149664673
 40
2.0
 50
144.0
 51
234.0
  0
ARC
  8
0
 62
7
  6
CONTINUOUS
 10
172.9669488785
 20
247.440448445
 40
16.75
 50
324.0
 51
23.5952818674
  0
ARC
  8
DEFAULT_2
 62
8
  6
HIDDEN
 10
172.0645172319
 20
263.5469531336
 40
16.5000000287
 50
185.0
 51
234.0
  0
ARC
  8
0
 62
9
  6
CONTINUOUS
 10
172.5117656922
 20
263.4016332997
 40
16.5000000287
 50
270.0
 51
319.0
  0
ARC
  8
0
 62
9
  6
CONTINUOUS
 10
172.9669488785
 20
247.440448445
 40
15.2500000206
 50
324.0
 51
23.5952818674
  0
ARC
  8
0
 62
7
  6
CONTINUOUS
 10
172.5117656922
 20
263.4016332997
 40
15.0
 50
270.0
 51
319.0
  0
ARC
  8
0
 62
7
  6
CONTINUOUS
 10
172.0645172319
 20
263.5469531336
 40
15.0
 50
185.0
 51
234.0
  0
ARC
  8
0
 62
7
  6
CONTINUOUS
 10
186.3921457953
 20
253.3044562678
 40
2.1
 50
23.5952818674
 51
139.0
  0
ARC
  8
0
 62
9
  6
CONTINUOUS
 10
186.3921457953
 20
253.3044562678
 40
0.5999999038
 50
23.5952818674
 51
139.0
  0
ARC
  8
0
 62
7
  6
CONTINUOUS
 10
215.1472614514
 20
212.5163977531
 40
16.75
 50
288.0
 51
347.5952818674
  0
ARC
  8
0
 62
7
  6
CONTINUOUS
 10
228.7440092039
 20
170.6699110361
 40
16.75
 50
48.4047181326
 51
108.0
  0
ARC
  8
DEFAULT_2
 62
8
  6
HIDDEN
 10
243.7833387277
 20
165.3047287302
 40
16.5000000287
 50
113.0
 51
162.0
  0
ARC
  8
DEFAULT_2
 62
8
  6
HIDDEN
 10
228.7440092039
 20
170.6699110361
 40
15.2500000206
 50
48.4047181326
 51
108.0
  0
ARC
  8
0
 62
9
  6
CONTINUOUS
 10
215.1472614514
 20
212.5163977531
 40
15.2500000206
 50
288.0
 51
347.5952818674
  0
ARC
  8
0
 62
7
  6
CONTINUOUS
 10
243.7833387277
 20
165.3047287302
 40
15.0
 50
113.0
 51
162.0
  0
ARC
  8
DEFAULT_2
 62
8
  6
HIDDEN
 10
222.4744123013
 20
188.3477122194
 40
3.4999995329
 50
198.0
 51
288.0
  0
ARC
  8
0
 62
9
  6
CONTINUOUS
 10
220.4658018378
 20
194.5295795753
 40
3.4999995329
 50
108.0
 51
198.0
  0
ARC
  8
BLANK_COSM
 62
2
  6
PHANTOM
 10
197.841923869
 20
175.7072833691
 40
3.2
 50
183.5903778907
 51
225.0
  0
ARC
  8
BLANK_COSM
 62
2
  6
PHANTOM
 10
202.0845645561
 20
171.464642682
 40
3.2
 50
225.0
 51
267.7455692247
  0
ARC
  8
BLANK_COSM
 62
2
  6
PHANTOM
 10
201.8328071952
 20
165.0695962997
 40
3.2
 50
272.2544307753
 51
87.7455692247
  0
ARC
  8
0
 62
7
  6
CONTINUOUS
 10
229.4552512275
 20
209.3693469801
 40
2.1
 50
347.5952818674
 51
103.0
  0
ARC
  8
0
 62
7
  6
CONTINUOUS
 10
238.4696260556
 20
181.6259539739
 40
2.1
 50
293.0
 51
48.4047181326
  0
ARC
  8
0
 62
7
  6
CONTINUOUS
 10
220.4658018378
 20
194.5295795753
 40
2.0
 50
108.0
 51
198.0
  0
ARC
  8
0
 62
7
  6
CONTINUOUS
 10
222.4744123013
 20
188.3477122194
 40
2.0
 50
198.0
 51
288.0
  0
ARC
  8
DEFAULT_2
 62
8
  6
HIDDEN
 10
238.4696260556
 20
181.6259539739
 40
0.5999999038
 50
293.0
 51
48.4047181326
  0
ARC
  8
0
 62
9
  6
CONTINUOUS
 10
229.4552512275
 20
209.3693469801
 40
0.5999999038
 50
347.5952818674
 51
103.0
  0
ARC
  8
0
 62
7
  6
CONTINUOUS
 10
208.563696631
 20
221.5778973441
 40
16.75
 50
84.4047181326
 51
144.0
  0
ARC
  8
DEFAULT_2
 62
8
  6
HIDDEN
 10
223.884344835
 20
226.0772697792
 40
16.5000000287
 50
149.0
 51
198.0
  0
ARC
  8
0
 62
9
  6
CONTINUOUS
 10
224.1607595849
 20
225.6968175149
 40
16.5000000287
 50
234.0
 51
283.0
  0
ARC
  8
DEFAULT_2
 62
8
  6
HIDDEN
 10
208.563696631
 20
221.5778973441
 40
15.2500000206
 50
84.4047181326
 51
144.0
  0
ARC
  8
0
 62
7
  6
CONTINUOUS
 10
224.1607595849
 20
225.6968175149
 40
15.0
 50
234.0
 51
283.0
  0
ARC
  8
0
 62
7
  6
CONTINUOUS
 10
223.884344835
 20
226.0772697792
 40
15.0
 50
149.0
 51
198.0
  0
ARC
  8
DEFAULT_2
 62
8
  6
HIDDEN
 10
193.1007353603
 20
232.1943623274
 40
3.4999995329
 50
234.0
 51
324.0
  0
ARC
  8
0
 62
7
  6
CONTINUOUS
 10
209.9920854824
 20
236.1580964268
 40
2.1
 50
329.0
 51
84.4047181326
  0
ARC
  8
0
 62
7
  6
CONTINUOUS
 10
193.1007353603
 20
232.1943623274
 40
2.0
 50
234.0
 51
324.0
  0
ARC
  8
DEFAULT_2
 62
8
  6
HIDDEN
 10
209.9920854824
 20
236.1580964268
 40
0.5999999038
 50
329.0
 51
84.4047181326
  0
ARC
  8
0
 62
7
  6
CONTINUOUS
 10
284.3028925055
 20
88.8924718952
 40
2.0
 50
179.999801994
 51
221.4096221093
  0
ARC
  8
DEFAULT_2
 62
8
  6
HIDDEN
 10
284.3028925055
 20
101.4448302721
 40
1.5
 50
180.0000031402
 51
270.0
  0
ARC
  8
DEFAULT_2
 62
8
  6
HIDDEN
 10
284.3028925055
 20
145.2914803801
 40
1.5
 50
180.0000427419
 51
270.0
  0
ARC
  8
DEFAULT_2
 62
8
  6
HIDDEN
 10
284.3028925055
 20
120.9423750846
 40
1.5
 50
180.0000019246
 51
270.0
  0
ARC
  8
DEFAULT_2
 62
8
  6
HIDDEN
 10
284.3028925055
 20
120.1698456194
 40
1.5
 50
179.9999931371
 51
270.0
  0
ARC
  8
DEFAULT_2
 62
8
  6
HIDDEN
 10
284.3028925055
 20
76.2347363316
 40
1.5
 50
179.9999996578
 51
270.0
  0
ARC
  8
DEFAULT_2
 62
8
  6
HIDDEN
 10
284.3028925055
 20
83.2375592997
 40
1.5
 50
180.0
 51
270.0
  0
ARC
  8
0
 62
7
  6
CONTINUOUS
 10
284.3028925055
 20
66.0023445591
 40
1.5
 50
179.9999944692
 51
270.0
  0
ARC
  8
0
 62
7
  6
CONTINUOUS
 10
284.3028925055
 20
93.3112952554
 40
1.5
 50
180.0000089276
 51
270.0
  0
ARC
  8
0
 62
7
  6
CONTINUOUS
 10
284.3028925055
 20
144.2192815634
 40
1.5
 50
179.9999996448
 51
270.0
  0
ARC
  8
0
 62
7
  6
CONTINUOUS
 10
284.3028925055
 20
241.2467206442
 40
2.0
 50
138.5903778907
 51
180.0
  0
ARC
  8
DEFAULT_2
 62
8
  6
HIDDEN
 10
284.3028925055
 20
209.1968175149
 40
1.5
 50
90.0
 51
179.9999980754
  0
ARC
  8
DEFAULT_2
 62
8
  6
HIDDEN
 10
284.3028925055
 20
246.9016332997
 40
1.5
 50
90.0
 51
179.9999999998
  0
ARC
  8
DEFAULT_2
 62
8
  6
HIDDEN
 10
284.3028925055
 20
228.6943623274
 40
1.5
 50
90.0
 51
179.9999968598
  0
ARC
  8
DEFAULT_2
 62
8
  6
HIDDEN
 10
284.3028925055
 20
184.8477122194
 40
1.5
 50
90.0
 51
179.9999572581
  0
ARC
  8
DEFAULT_2
 62
8
  6
HIDDEN
 10
284.3028925055
 20
236.8278973441
 40
1.5
 50
90.0
 51
179.9999910724
  0
ARC
  8
DEFAULT_2
 62
8
  6
HIDDEN
 10
284.3028925055
 20
185.9199110361
 40
1.5
 50
90.0
 51
180.0000003552
  0
ARC
  8
0
 62
7
  6
CONTINUOUS
 10
284.3028925055
 20
209.9693469801
 40
1.5
 50
90.0
 51
180.0000068629
  0
ARC
  8
0
 62
7
  6
CONTINUOUS
 10
284.3028925055
 20
253.9044562678
 40
1.5
 50
90.0
 51
180.0000003422
  0
ARC
  8
0
 62
7
  6
CONTINUOUS
 10
284.3028925055
 20
264.1368480404
 40
1.5
 50
90.0
 51
180.0000055308
  0
ARC
  8
0
 62
7
  6
CONTINUOUS
 10
313.3028925055
 20
88.8924719553
 40
2.0
 50
318.5903778907
 51
360.0
  0
ARC
  8
DEFAULT_2
 62
8
  6
HIDDEN
 10
313.3028925055
 20
101.4448302721
 40
1.5
 50
270.0
 51
359.9999968598
  0
ARC
  8
DEFAULT_2
 62
8
  6
HIDDEN
 10
313.3028925055
 20
145.2914803801
 40
1.5
 50
270.0
 51
359.9999572581
  0
ARC
  8
DEFAULT_2
 62
8
  6
HIDDEN
 10
313.3028925055
 20
120.9423750846
 40
1.5
 50
270.0
 51
359.9999980754
  0
ARC
  8
DEFAULT_2
 62
8
  6
HIDDEN
 10
313.3028925055
 20
83.2375592997
 40
1.5
 50
270.0
 51
360.0
  0
ARC
  8
DEFAULT_2
 62
8
  6
HIDDEN
 10
313.3028925055
 20
93.3112952554
 40
1.5
 50
270.0
 51
359.9999910724
  0
ARC
  8
DEFAULT_2
 62
8
  6
HIDDEN
 10
313.3028925055
 20
144.2192815634
 40
1.5
 50
270.0
 51
0.0000003552
  0
ARC
  8
0
 62
7
  6
CONTINUOUS
 10
313.3028925055
 20
66.0023445591
 40
1.5
 50
270.0
 51
0.0000055308
  0
ARC
  8
0
 62
7
  6
CONTINUOUS
 10
313.3028925055
 20
120.1698456194
 40
1.5
 50
270.0
 51
0.0000068629
  0
ARC
  8
0
 62
7
  6
CONTINUOUS
 10
313.3028925055
 20
76.2347363316
 40
1.5
 50
270.0
 51
0.0000003422
  0
ARC
  8
0
 62
7
  6
CONTINUOUS
 10
313.3028925055
 20
241.2467207056
 40
2.0
 50
359.999801956
 51
41.4096221093
  0
ARC
  8
DEFAULT_2
 62
8
  6
HIDDEN
 10
313.3028925055
 20
209.1968175149
 40
1.5
 50
0.0000019246
 51
90.0
  0
ARC
  8
DEFAULT_2
 62
8
  6
HIDDEN
 10
313.3028925055
 20
246.9016332997
 40
1.5
 50
0.0000000002
 51
90.0
  0
ARC
  8
DEFAULT_2
 62
8
  6
HIDDEN
 10
313.3028925055
 20
228.6943623274
 40
1.5
 50
0.0000031402
 51
90.0
  0
ARC
  8
DEFAULT_2
 62
8
  6
HIDDEN
 10
313.3028925055
 20
184.8477122194
 40
1.5
 50
0.0000427419
 51
90.0
  0
ARC
  8
DEFAULT_2
 62
8
  6
HIDDEN
 10
313.3028925055
 20
209.9693469801
 40
1.5
 50
359.9999931371
 51
90.0
  0
ARC
  8
DEFAULT_2
 62
8
  6
HIDDEN
 10
313.3028925055
 20
253.9044562678
 40
1.5
 50
359.9999996578
 51
90.0
  0
ARC
  8
0
 62
7
  6
CONTINUOUS
 10
313.3028925055
 20
264.1368480404
 40
1.5
 50
359.9999944692
 51
90.0
  0
ARC
  8
0
 62
7
  6
CONTINUOUS
 10
313.3028925055
 20
236.8278973441
 40
1.5
 50
0.0000089276
 51
90.0
  0
ARC
  8
0
 62
7
  6
CONTINUOUS
 10
313.3028925055
 20
185.9199110361
 40
1.5
 50
359.9999996448
 51
90.0
  0
ENDSEC
  0
EOF
