  0
SECTION
  2
HEADER
  9
$EXTMAX
 10
420.0
 20
297.0
 30
0.0
  9
$EXTMIN
 10
0.0
 20
0.0
 30
0.0
  9
$LIMMIN
 10
0.0
 20
0.0
  9
$LIMMAX
 10
420.0
 20
297.0
  9
$VIEWCTR
 10
210.0
 20
148.5
  9
$VIEWSIZE
 40
297.0
  9
$CLAYER
  8
0
  9
$LTSCALE
 40
23.1
  9
$CELTYPE
  6
BYLAYER
  9
$DIMSCALE
 40
1.0
  9
$DIMASZ
 40
3.5
  9
$DIMEXO
 40
2.625
  9
$DIMDLI
 40
15.96
  9
$DIMEXE
 40
7.56
  9
$DIMCEN
 40
3.78
  9
$DIMLFAC
 40
1.0
  9
$DIMBLK
  1
_FILLED
  9
$DIMTXT
 40
3.5
  9
$PDMODE
 70
3
  9
$PDSIZE
 40
0.3125
  9
$TILEMODE
 70
1
  0
ENDSEC
  0
SECTION
  2
TABLES
  0
TABLE
  2
LTYPE
 70
6
  0
LTYPE
  2
BYBLOCK
 70
0
  3

 72
65
 73
0
 40
0.0
  0
LTYPE
  2
BYLAYER
 70
0
  3

 72
65
 73
0
 40
0.0
  0
LTYPE
  2
CONTINUOUS
 70
64
  3
Solid line
 72
65
 73
0
 40
0.0
  0
LTYPE
  2
CENTER
 70
64
  3
____ _ ____ _ ____ _ ____ _ ____ _ ____ _ ____
 72
65
 73
4
 40
0.6
 49
0.375
 49
-0.075
 49
0.075
 49
-0.075
  0
LTYPE
  2
HIDDEN
 70
64
  3
- - - - - - - - - - - - - - - - - - - -
 72
65
 73
2
 40
0.2
 49
0.1
 49
-0.1
  0
LTYPE
  2
PHANTOM
 70
64
  3
_____ _ _ _____ _ _ _____ _ _ _____
 72
65
 73
6
 40
0.8
 49
0.45
 49
-0.05
 49
0.1
 49
-0.05
 49
0.1
 49
-0.05
  0
LTYPE
  2
DOT
 70
64
  3
. . . . . . . . . . . . . . . . . . . .
 72
65
 73
2
 40
0.2
 49
0.1
 49
-0.1
  0
LTYPE
  2
DASHED
 70
64
  3
- - - - - - - - - - - - - - - - - - - -
 72
65
 73
2
 40
0.2
 49
0.1
 49
-0.1
  0
ENDTAB
  0
TABLE
  2
LAYER
 70
36
  0
LAYER
  2
0
 70
0
 62
7
  6
CONTINUOUS
  0
LAYER
  2
DEFAULT_1
 70
0
 62
7
  6
CENTER
  0
LAYER
  2
DEFAULT_2
 70
0
 62
8
  6
HIDDEN
  0
LAYER
  2
DEFAULT_3
 70
0
 62
7
  6
PHANTOM
  0
LAYER
  2
BB
 70
0
 62
7
  6
CONTINUOUS
  0
LAYER
  2
BLANK_COSM
 70
0
 62
7
  6
CONTINUOUS
  0
LAYER
  2
CURVE
 70
0
 62
7
  6
CONTINUOUS
  0
ENDTAB
  0
TABLE
  2
STYLE
 70
1
  0
STYLE
  2
STANDARD
 70
0
 40
0.0
 41
0.8
 50
0.0
 71
0
 42
0.2
  3
txt
  4

  0
STYLE
  2
TEXTSTYLE_1
 70
0
 40
0.0
 41
0.8
 50
0.0
 71
0
 42
0.2
  3
gdt
  4

  0
STYLE
  2
TEXTSTYLE_2
 70
0
 40
0.0
 41
0.6
 50
0.0
 71
0
 42
0.2
  3
txt
  4

  0
STYLE
  2
TEXTSTYLE_3
 70
0
 40
0.0
 41
1.0
 50
0.0
 71
0
 42
0.2
  3
ftb_____.ttf
  4

  0
STYLE
  2
TEXTSTYLE_4
 70
0
 40
0.0
 41
1.0
 50
0.0
 71
0
 42
0.2
  3
fti_____.ttf
  4

  0
STYLE
  2
TEXTSTYLE_5
 70
0
 40
0.0
 41
1.0
 50
0.0
 71
0
 42
0.2
  3
frutiger light.ttf
  4

  0
STYLE
  2
TEXTSTYLE_6
 70
0
 40
0.0
 41
0.7
 50
0.0
 71
0
 42
0.2
  3
txt
  4

  0
STYLE
  2
TEXTSTYLE_7
 70
0
 40
0.0
 41
0.8
 50
0.0
 71
0
 42
0.2
  3
txt
  4

  0
ENDTAB
  0
ENDSEC
  0
SECTION
  2
BLOCKS
  0
BLOCK
  8
0
 62
2
  6
CONTINUOUS
  2
SYMBOL_5_BL1
 70
64
 10
382.7840918555
 20
35.5067593403
  0
TEXT
  8
0
 62
7
  6
CONTINUOUS
 10
373.842376864
 20
30.5995157174
  7
TEXTSTYLE_4
 40
1.0655737705
  1
The brand for plastic modular belts and chains
 41
1.0
 72
0
  0
LINE
  8
0
 62
7
  6
CONTINUOUS
 10
358.7621602445
 20
36.0805298321
 11
358.7621602445
 21
33.9493822911
  0
LINE
  8
0
 62
7
  6
CONTINUOUS
 10
359.0512227376
 20
30.9584509954
 11
359.0512227376
 21
31.0552420547
  0
LINE
  8
0
 62
7
  6
CONTINUOUS
 10
358.7621602445
 20
31.0229783683
 11
358.8199727462
 21
30.8293962497
  0
LINE
  8
0
 62
7
  6
CONTINUOUS
 10
360.1556028675
 20
33.867415078
 11
360.1556028675
 21
36.0805298321
  0
LINE
  8
0
 62
7
  6
CONTINUOUS
 10
361.0746601894
 20
32.0231527829
 11
361.0746601894
 21
30.5067593403
  0
LINE
  8
0
 62
7
  6
CONTINUOUS
 10
361.3637227445
 20
30.5067593403
 11
361.3637227445
 21
31.2488242184
  0
LINE
  8
0
 62
7
  6
CONTINUOUS
 10
361.3637227445
 20
31.3778789641
 11
361.3637227445
 21
32.0231527829
  0
LINE
  8
0
 62
7
  6
CONTINUOUS
 10
358.8199727462
 20
31.216560532
 11
358.7621602445
 21
31.0229783683
  0
LINE
  8
0
 62
7
  6
CONTINUOUS
 10
359.1668477307
 20
30.7971325633
 11
359.0512227376
 21
30.9584509954
  0
LINE
  8
0
 62
7
  6
CONTINUOUS
 10
360.2652852997
 20
31.3133515913
 11
360.3230977445
 21
31.216560532
  0
LINE
  8
0
 62
7
  6
CONTINUOUS
 10
360.6121602997
 20
31.216560532
 11
360.5543476894
 21
31.3456152777
  0
LINE
  8
0
 62
7
  6
CONTINUOUS
 10
362.0408487691
 20
36.0805298321
 11
362.0408487691
 21
34.2772511436
  0
LINE
  8
0
 62
7
  6
CONTINUOUS
 10
362.0408487691
 20
32.9657757338
 11
362.0408487691
 21
32.3100380288
  0
LINE
  8
0
 62
7
  6
CONTINUOUS
 10
362.4043477445
 20
31.1520331591
 11
362.4043477445
 21
30.5067593403
  0
LINE
  8
0
 62
7
  6
CONTINUOUS
 10
362.6934101343
 20
30.5067593403
 11
362.6934101343
 21
31.1520331591
  0
LINE
  8
0
 62
7
  6
CONTINUOUS
 10
359.0512227376
 20
31.0552420547
 11
359.1090352445
 21
31.1842968456
  0
LINE
  8
0
 62
7
  6
CONTINUOUS
 10
358.8199727462
 20
30.8293962497
 11
358.9355977445
 21
30.7003414814
  0
LINE
  8
0
 62
7
  6
CONTINUOUS
 10
362.3465351343
 20
31.2810879048
 11
362.4043477445
 21
31.1520331591
  0
LINE
  8
0
 62
7
  6
CONTINUOUS
 10
363.1559103548
 20
30.7971325633
 11
363.2137226343
 21
30.668077795
  0
LINE
  8
0
 62
7
  6
CONTINUOUS
 10
362.6934101343
 20
31.1520331591
 11
362.6355978548
 21
31.3133515913
  0
LINE
  8
0
 62
7
  6
CONTINUOUS
 10
363.1559103548
 20
31.3456152777
 11
363.1559103548
 21
31.2810879048
  0
LINE
  8
0
 62
7
  6
CONTINUOUS
 10
363.1559103548
 20
30.8939236226
 11
363.1559103548
 21
30.7971325633
  0
LINE
  8
0
 62
7
  6
CONTINUOUS
 10
363.4342913921
 20
32.3100380288
 11
363.4342913921
 21
36.0805298321
  0
LINE
  8
0
 62
7
  6
CONTINUOUS
 10
363.4449727445
 20
30.7648688543
 11
363.4449727445
 21
30.8293962497
  0
LINE
  8
0
 62
7
  6
CONTINUOUS
 10
363.7621602445
 20
36.0805298321
 11
363.7621602445
 21
32.3100380288
  0
LINE
  8
0
 62
7
  6
CONTINUOUS
 10
360.5543476894
 20
30.7003414814
 11
360.6121602997
 21
30.8293962497
  0
LINE
  8
0
 62
7
  6
CONTINUOUS
 10
364.9480979651
 20
30.6035504109
 11
364.890285024
 21
30.7648688543
  0
LINE
  8
0
 62
7
  6
CONTINUOUS
 10
364.6012229651
 20
31.2810879048
 11
364.6012229651
 21
31.1842968456
  0
LINE
  8
0
 62
7
  6
CONTINUOUS
 10
364.6012229651
 20
31.0552420547
 11
364.6012229651
 21
30.8616599362
  0
LINE
  8
0
 62
7
  6
CONTINUOUS
 10
364.890285024
 20
30.7648688543
 11
364.890285024
 21
31.2810879048
  0
LINE
  8
0
 62
7
  6
CONTINUOUS
 10
365.1556028675
 20
32.3100380288
 11
365.1556028675
 21
34.1133167174
  0
LINE
  8
0
 62
7
  6
CONTINUOUS
 10
365.1556028675
 20
35.4247921272
 11
365.1556028675
 21
36.0805298321
  0
LINE
  8
0
 62
7
  6
CONTINUOUS
 10
365.4684104651
 20
32.0231527829
 11
365.4684104651
 21
31.8618343508
  0
LINE
  8
0
 62
7
  6
CONTINUOUS
 10
365.4684104651
 20
31.5391973962
 11
365.4684104651
 21
30.5067593403
  0
LINE
  8
0
 62
7
  6
CONTINUOUS
 10
365.757472524
 20
30.5067593403
 11
365.757472524
 21
31.5391973962
  0
LINE
  8
0
 62
7
  6
CONTINUOUS
 10
365.757472524
 20
31.8618343508
 11
365.757472524
 21
32.0231527829
  0
LINE
  8
0
 62
7
  6
CONTINUOUS
 10
360.3230977445
 20
30.8293962497
 11
360.2652852997
 21
30.7326051679
  0
LINE
  8
0
 62
7
  6
CONTINUOUS
 10
362.6355978548
 20
31.3133515913
 11
362.5777852445
 21
31.3778789641
  0
LINE
  8
0
 62
7
  6
CONTINUOUS
 10
363.5027853548
 20
30.7003414814
 11
363.4449727445
 21
30.7648688543
  0
LINE
  8
0
 62
7
  6
CONTINUOUS
 10
364.6590352445
 20
30.5712867188
 11
364.716847524
 21
30.5067593403
  0
LINE
  8
0
 62
7
  6
CONTINUOUS
 10
364.6012229651
 20
30.668077795
 11
364.6590352445
 21
30.5712867188
  0
LINE
  8
0
 62
7
  6
CONTINUOUS
 10
365.0059102445
 20
30.5067593403
 11
364.9480979651
 21
30.6035504109
  0
LINE
  8
0
 62
7
  6
CONTINUOUS
 10
364.890285024
 20
31.2810879048
 11
364.8324727445
 21
31.3778789641
  0
LINE
  8
0
 62
7
  6
CONTINUOUS
 10
366.2199727445
 20
31.5391973962
 11
366.2199727445
 21
30.5067593403
  0
LINE
  8
0
 62
7
  6
CONTINUOUS
 10
366.5090354651
 20
30.5067593403
 11
366.5090354651
 21
31.2488242184
  0
LINE
  8
0
 62
7
  6
CONTINUOUS
 10
366.5090354651
 20
31.3778789641
 11
366.5090354651
 21
31.5391973962
  0
LINE
  8
0
 62
7
  6
CONTINUOUS
 10
367.0408487691
 20
34.5231527829
 11
367.0408487691
 21
32.3100380288
  0
LINE
  8
0
 62
7
  6
CONTINUOUS
 10
358.9355977445
 20
31.3456152777
 11
358.8199727462
 21
31.216560532
  0
LINE
  8
0
 62
7
  6
CONTINUOUS
 10
359.1090352445
 20
31.1842968456
 11
359.1668477307
 21
31.2488242184
  0
LINE
  8
0
 62
7
  6
CONTINUOUS
 10
358.9355977445
 20
30.7003414814
 11
359.0512227376
 21
30.6358140973
  0
LINE
  8
0
 62
7
  6
CONTINUOUS
 10
359.3402852307
 20
30.7003414814
 11
359.1668477307
 21
30.7971325633
  0
LINE
  8
0
 62
7
  6
CONTINUOUS
 10
364.543410024
 20
31.3456152777
 11
364.6012229651
 21
31.2810879048
  0
LINE
  8
0
 62
7
  6
CONTINUOUS
 10
367.491847524
 20
31.2810879048
 11
367.5496604651
 21
31.1197694727
  0
LINE
  8
0
 62
7
  6
CONTINUOUS
 10
367.838722524
 20
31.1197694727
 11
367.7809102445
 21
31.2810879048
  0
LINE
  8
0
 62
7
  6
CONTINUOUS
 10
367.5496604651
 20
31.1197694727
 11
367.5496604651
 21
30.5067593403
  0
LINE
  8
0
 62
7
  6
CONTINUOUS
 10
367.838722524
 20
30.5067593403
 11
367.838722524
 21
31.1197694727
  0
LINE
  8
0
 62
7
  6
CONTINUOUS
 10
368.3012227445
 20
31.3456152777
 11
368.3012227445
 21
31.2810879048
  0
LINE
  8
0
 62
7
  6
CONTINUOUS
 10
368.4342913921
 20
32.3100380288
 11
368.4342913921
 21
34.4411855698
  0
LINE
  8
0
 62
7
  6
CONTINUOUS
 10
368.7621602445
 20
36.0805298321
 11
368.7621602445
 21
32.3100380288
  0
LINE
  8
0
 62
7
  6
CONTINUOUS
 10
363.4449727445
 20
30.8293962497
 11
363.5027853548
 21
30.926187309
  0
LINE
  8
0
 62
7
  6
CONTINUOUS
 10
359.0512227376
 20
30.6358140973
 11
359.2246602583
 21
30.5712867188
  0
LINE
  8
0
 62
7
  6
CONTINUOUS
 10
360.5543476894
 20
31.3456152777
 11
360.3809101894
 21
31.4424063369
  0
LINE
  8
0
 62
7
  6
CONTINUOUS
 10
363.2137226343
 20
30.668077795
 11
363.3871601343
 21
30.5712867188
  0
LINE
  8
0
 62
7
  6
CONTINUOUS
 10
362.2309102445
 20
31.3456152777
 11
362.3465351343
 21
31.2810879048
  0
LINE
  8
0
 62
7
  6
CONTINUOUS
 10
362.5777852445
 20
31.3778789641
 11
362.4621603548
 21
31.4424063369
  0
LINE
  8
0
 62
7
  6
CONTINUOUS
 10
368.3012227445
 20
30.7648688543
 11
368.4168479651
 21
30.6358140973
  0
LINE
  8
0
 62
7
  6
CONTINUOUS
 10
368.6480977445
 20
30.7003414814
 11
368.5902854651
 21
30.7648688543
  0
LINE
  8
0
 62
7
  6
CONTINUOUS
 10
368.3012227445
 20
31.2810879048
 11
368.4168479651
 21
31.1520331591
  0
LINE
  8
0
 62
7
  6
CONTINUOUS
 10
367.7809102445
 20
31.2810879048
 11
367.7230979651
 21
31.3778789641
  0
LINE
  8
0
 62
7
  6
CONTINUOUS
 10
370.1512223035
 20
30.7003414814
 11
370.1512223035
 21
30.7648688543
  0
LINE
  8
0
 62
7
  6
CONTINUOUS
 10
370.1556028675
 20
32.3100380288
 11
370.1556028675
 21
36.0805298321
  0
LINE
  8
0
 62
7
  6
CONTINUOUS
 10
363.2137226343
 20
31.4101426505
 11
363.1559103548
 21
31.3456152777
  0
LINE
  8
0
 62
7
  6
CONTINUOUS
 10
360.091847717
 20
31.3778789641
 11
360.2652852997
 21
31.3133515913
  0
LINE
  8
0
 62
7
  6
CONTINUOUS
 10
364.8324727445
 20
31.3778789641
 11
364.716847524
 21
31.4424063369
  0
LINE
  8
0
 62
7
  6
CONTINUOUS
 10
368.6480977445
 20
31.216560532
 11
368.5902854651
 21
31.2810879048
  0
LINE
  8
0
 62
7
  6
CONTINUOUS
 10
369.8043479651
 20
30.8293962497
 11
369.8621602445
 21
30.7648688543
  0
LINE
  8
0
 62
7
  6
CONTINUOUS
 10
370.1512223035
 20
30.7648688543
 11
370.0355977445
 21
30.8939236226
  0
LINE
  8
0
 62
7
  6
CONTINUOUS
 10
369.8043479651
 20
31.3456152777
 11
369.8621602445
 21
31.2810879048
  0
LINE
  8
0
 62
7
  6
CONTINUOUS
 10
370.1512223035
 20
31.2810879048
 11
370.0355977445
 21
31.4101426505
  0
LINE
  8
0
 62
7
  6
CONTINUOUS
 10
363.4449727445
 20
31.2810879048
 11
363.5027853548
 21
31.3456152777
  0
LINE
  8
0
 62
7
  6
CONTINUOUS
 10
363.2715352445
 20
31.0229783683
 11
363.1559103548
 21
30.8939236226
  0
LINE
  8
0
 62
7
  6
CONTINUOUS
 10
364.6012229651
 20
30.8616599362
 11
364.543410024
 21
30.7971325633
  0
LINE
  8
0
 62
7
  6
CONTINUOUS
 10
364.543410024
 20
30.6035504109
 11
364.6012229651
 21
30.668077795
  0
LINE
  8
0
 62
7
  6
CONTINUOUS
 10
363.3871601343
 20
30.5712867188
 11
363.5027853548
 21
30.5390230296
  0
LINE
  8
0
 62
7
  6
CONTINUOUS
 10
360.3809101894
 20
31.4424063369
 11
360.1496602445
 21
31.5069337098
  0
LINE
  8
0
 62
7
  6
CONTINUOUS
 10
363.7340351343
 20
30.6358140973
 11
363.5027853548
 21
30.7003414814
  0
LINE
  8
0
 62
7
  6
CONTINUOUS
 10
362.4621603548
 20
31.4424063369
 11
362.2887228548
 21
31.5069337098
  0
LINE
  8
0
 62
7
  6
CONTINUOUS
 10
364.716847524
 20
31.4424063369
 11
364.543410024
 21
31.5069337098
  0
LINE
  8
0
 62
7
  6
CONTINUOUS
 10
367.3762229651
 20
31.3456152777
 11
367.491847524
 21
31.2810879048
  0
LINE
  8
0
 62
7
  6
CONTINUOUS
 10
367.7230979651
 20
31.3778789641
 11
367.6074727445
 21
31.4424063369
  0
LINE
  8
0
 62
7
  6
CONTINUOUS
 10
359.2246602583
 20
30.5712867188
 11
359.3980977583
 21
30.5390230296
  0
LINE
  8
0
 62
7
  6
CONTINUOUS
 10
359.6871602721
 20
30.6358140973
 11
359.3402852307
 21
30.7003414814
  0
LINE
  8
0
 62
7
  6
CONTINUOUS
 10
362.1152853548
 20
31.3778789641
 11
362.2309102445
 21
31.3456152777
  0
LINE
  8
0
 62
7
  6
CONTINUOUS
 10
364.4277854651
 20
31.3778789641
 11
364.543410024
 21
31.3456152777
  0
LINE
  8
0
 62
7
  6
CONTINUOUS
 10
368.7637229651
 20
30.668077795
 11
368.6480977445
 21
30.7003414814
  0
LINE
  8
0
 62
7
  6
CONTINUOUS
 10
367.2605977445
 20
31.3778789641
 11
367.3762229651
 21
31.3456152777
  0
LINE
  8
0
 62
7
  6
CONTINUOUS
 10
368.4168479651
 20
30.6358140973
 11
368.5902854651
 21
30.5712867188
  0
LINE
  8
0
 62
7
  6
CONTINUOUS
 10
367.6074727445
 20
31.4424063369
 11
367.4340352445
 21
31.5069337098
  0
LINE
  8
0
 62
7
  6
CONTINUOUS
 10
368.8215352445
 20
31.1520331591
 11
368.6480977445
 21
31.216560532
  0
LINE
  8
0
 62
7
  6
CONTINUOUS
 10
369.6309104651
 20
30.8939236226
 11
369.8043479651
 21
30.8293962497
  0
LINE
  8
0
 62
7
  6
CONTINUOUS
 10
370.0355977445
 20
31.4101426505
 11
369.8621602445
 21
31.4746700234
  0
LINE
  8
0
 62
7
  6
CONTINUOUS
 10
368.4168479651
 20
31.1520331591
 11
368.6480977445
 21
31.0552420547
  0
LINE
  8
0
 62
7
  6
CONTINUOUS
 10
370.0355977445
 20
30.8939236226
 11
369.8043479651
 21
30.9907146818
  0
LINE
  8
0
 62
7
  6
CONTINUOUS
 10
368.5902854651
 20
31.2810879048
 11
368.6480977445
 21
31.3456152777
  0
LINE
  8
0
 62
7
  6
CONTINUOUS
 10
359.0512227376
 20
31.4101426505
 11
358.9355977445
 21
31.3456152777
  0
LINE
  8
0
 62
7
  6
CONTINUOUS
 10
359.1668477307
 20
31.2488242184
 11
359.3402852307
 21
31.3456152777
  0
LINE
  8
0
 62
7
  6
CONTINUOUS
 10
361.4793477997
 20
31.4424063369
 11
361.3637227445
 21
31.3778789641
  0
LINE
  8
0
 62
7
  6
CONTINUOUS
 10
361.3637227445
 20
31.2488242184
 11
361.4793477997
 21
31.3133515913
  0
LINE
  8
0
 62
7
  6
CONTINUOUS
 10
360.3809101894
 20
30.6035504109
 11
360.5543476894
 21
30.7003414814
  0
LINE
  8
0
 62
7
  6
CONTINUOUS
 10
359.3980977583
 20
30.5390230296
 11
359.744972717
 21
30.5067593403
  0
LINE
  8
0
 62
7
  6
CONTINUOUS
 10
363.5027853548
 20
30.5390230296
 11
363.7340351343
 21
30.5067593403
  0
LINE
  8
0
 62
7
  6
CONTINUOUS
 10
361.8840352445
 20
31.4101426505
 11
362.1152853548
 21
31.3778789641
  0
LINE
  8
0
 62
7
  6
CONTINUOUS
 10
364.1965353548
 20
31.4101426505
 11
364.4277854651
 21
31.3778789641
  0
LINE
  8
0
 62
7
  6
CONTINUOUS
 10
368.6480977445
 20
31.0552420547
 11
369.6309104651
 21
30.8939236226
  0
LINE
  8
0
 62
7
  6
CONTINUOUS
 10
369.8043479651
 20
30.9907146818
 11
368.8215352445
 21
31.1520331591
  0
LINE
  8
0
 62
7
  6
CONTINUOUS
 10
362.2887228548
 20
31.5069337098
 11
362.1152853548
 21
31.5391973962
  0
LINE
  8
0
 62
7
  6
CONTINUOUS
 10
368.5902854651
 20
30.5712867188
 11
368.7637229651
 21
30.5390230296
  0
LINE
  8
0
 62
7
  6
CONTINUOUS
 10
367.4340352445
 20
31.5069337098
 11
367.2605977445
 21
31.5391973962
  0
LINE
  8
0
 62
7
  6
CONTINUOUS
 10
369.6887227445
 20
31.3778789641
 11
369.8043479651
 21
31.3456152777
  0
LINE
  8
0
 62
7
  6
CONTINUOUS
 10
369.8621602445
 20
30.7648688543
 11
369.8043479651
 21
30.7003414814
  0
LINE
  8
0
 62
7
  6
CONTINUOUS
 10
368.4168479651
 20
31.4424063369
 11
368.3012227445
 21
31.3456152777
  0
LINE
  8
0
 62
7
  6
CONTINUOUS
 10
363.3293478548
 20
31.4746700234
 11
363.2137226343
 21
31.4101426505
  0
LINE
  8
0
 62
7
  6
CONTINUOUS
 10
363.3871601343
 20
31.0875057863
 11
363.2715352445
 21
31.0229783683
  0
LINE
  8
0
 62
7
  6
CONTINUOUS
 10
363.5027853548
 20
30.926187309
 11
363.6184102445
 21
30.9907146818
  0
LINE
  8
0
 62
7
  6
CONTINUOUS
 10
361.0746601894
 20
30.5067593403
 11
361.3637227445
 21
30.5067593403
  0
LINE
  8
0
 62
7
  6
CONTINUOUS
 10
362.4043477445
 20
30.5067593403
 11
362.6934101343
 21
30.5067593403
  0
LINE
  8
0
 62
7
  6
CONTINUOUS
 10
363.7340351343
 20
30.5067593403
 11
364.0809101343
 21
30.5067593403
  0
LINE
  8
0
 62
7
  6
CONTINUOUS
 10
364.716847524
 20
30.5067593403
 11
365.0059102445
 21
30.5067593403
  0
LINE
  8
0
 62
7
  6
CONTINUOUS
 10
365.4684104651
 20
30.5067593403
 11
365.757472524
 21
30.5067593403
  0
LINE
  8
0
 62
7
  6
CONTINUOUS
 10
366.2199727445
 20
30.5067593403
 11
366.5090354651
 21
30.5067593403
  0
LINE
  8
0
 62
7
  6
CONTINUOUS
 10
367.5496604651
 20
30.5067593403
 11
367.838722524
 21
30.5067593403
  0
LINE
  8
0
 62
7
  6
CONTINUOUS
 10
369.1105979651
 20
30.5067593403
 11
369.4574729651
 21
30.5067593403
  0
LINE
  8
0
 62
7
  6
CONTINUOUS
 10
369.4574729651
 20
30.6358140973
 11
369.1105979651
 21
30.6358140973
  0
LINE
  8
0
 62
7
  6
CONTINUOUS
 10
364.0809101343
 20
30.6358140973
 11
363.7340351343
 21
30.6358140973
  0
LINE
  8
0
 62
7
  6
CONTINUOUS
 10
368.5902854651
 20
30.7648688543
 11
368.3012227445
 21
30.7648688543
  0
LINE
  8
0
 62
7
  6
CONTINUOUS
 10
360.6121602997
 20
30.8293962497
 11
360.3230977445
 21
30.8293962497
  0
LINE
  8
0
 62
7
  6
CONTINUOUS
 10
359.6871602721
 20
31.4101426505
 11
360.091847717
 21
31.3778789641
  0
LINE
  8
0
 62
7
  6
CONTINUOUS
 10
360.1496602445
 20
31.5069337098
 11
359.744972717
 21
31.5391973962
  0
LINE
  8
0
 62
7
  6
CONTINUOUS
 10
368.7637229651
 20
30.5390230296
 11
369.1105979651
 21
30.5067593403
  0
LINE
  8
0
 62
7
  6
CONTINUOUS
 10
369.1105979651
 20
30.6358140973
 11
368.7637229651
 21
30.668077795
  0
LINE
  8
0
 62
7
  6
CONTINUOUS
 10
364.543410024
 20
31.5069337098
 11
364.1965353548
 21
31.5391973962
  0
LINE
  8
0
 62
7
  6
CONTINUOUS
 10
369.3418477445
 20
31.4101426505
 11
369.6887227445
 21
31.3778789641
  0
LINE
  8
0
 62
7
  6
CONTINUOUS
 10
369.6887227445
 20
31.5069337098
 11
369.3418477445
 21
31.5391973962
  0
LINE
  8
0
 62
7
  6
CONTINUOUS
 10
367.0293479651
 20
31.4101426505
 11
367.2605977445
 21
31.3778789641
  0
LINE
  8
0
 62
7
  6
CONTINUOUS
 10
369.8621602445
 20
31.4746700234
 11
369.6887227445
 21
31.5069337098
  0
LINE
  8
0
 62
7
  6
CONTINUOUS
 10
370.0355977445
 20
30.6035504109
 11
370.1512223035
 21
30.7003414814
  0
LINE
  8
0
 62
7
  6
CONTINUOUS
 10
364.543410024
 20
30.7971325633
 11
364.369972524
 21
30.7003414814
  0
LINE
  8
0
 62
7
  6
CONTINUOUS
 10
366.624660024
 20
31.4424063369
 11
366.5090354651
 21
31.3778789641
  0
LINE
  8
0
 62
7
  6
CONTINUOUS
 10
366.5090354651
 20
31.2488242184
 11
366.624660024
 21
31.3133515913
  0
LINE
  8
0
 62
7
  6
CONTINUOUS
 10
359.2246602583
 20
31.4746700234
 11
359.0512227376
 21
31.4101426505
  0
LINE
  8
0
 62
7
  6
CONTINUOUS
 10
361.6527851343
 20
31.5069337098
 11
361.4793477997
 21
31.4424063369
  0
LINE
  8
0
 62
7
  6
CONTINUOUS
 10
361.4793477997
 20
31.3133515913
 11
361.6527851343
 21
31.3778789641
  0
LINE
  8
0
 62
7
  6
CONTINUOUS
 10
360.2652852997
 20
30.7326051679
 11
360.091847717
 21
30.668077795
  0
LINE
  8
0
 62
7
  6
CONTINUOUS
 10
369.6887227445
 20
30.668077795
 11
369.4574729651
 21
30.6358140973
  0
LINE
  8
0
 62
7
  6
CONTINUOUS
 10
364.0809101343
 20
30.5067593403
 11
364.369972524
 21
30.5390230296
  0
LINE
  8
0
 62
7
  6
CONTINUOUS
 10
369.4574729651
 20
30.5067593403
 11
369.8043479651
 21
30.5390230296
  0
LINE
  8
0
 62
7
  6
CONTINUOUS
 10
359.744972717
 20
30.5067593403
 11
360.1496602445
 21
30.5390230296
  0
LINE
  8
0
 62
7
  6
CONTINUOUS
 10
360.091847717
 20
30.668077795
 11
359.6871602721
 21
30.6358140973
  0
LINE
  8
0
 62
7
  6
CONTINUOUS
 10
363.9652852445
 20
31.0552420547
 11
364.6012229651
 21
31.0552420547
  0
LINE
  8
0
 62
7
  6
CONTINUOUS
 10
364.6012229651
 20
31.1842968456
 11
363.9652852445
 21
31.1842968456
  0
LINE
  8
0
 62
7
  6
CONTINUOUS
 10
360.3230977445
 20
31.216560532
 11
360.6121602997
 21
31.216560532
  0
LINE
  8
0
 62
7
  6
CONTINUOUS
 10
363.1559103548
 20
31.2810879048
 11
363.4449727445
 21
31.2810879048
  0
LINE
  8
0
 62
7
  6
CONTINUOUS
 10
369.8621602445
 20
31.2810879048
 11
370.1512223035
 21
31.2810879048
  0
LINE
  8
0
 62
7
  6
CONTINUOUS
 10
363.8496603548
 20
31.4101426505
 11
364.1965353548
 21
31.4101426505
  0
LINE
  8
0
 62
7
  6
CONTINUOUS
 10
368.9949727445
 20
31.4101426505
 11
369.3418477445
 21
31.4101426505
  0
LINE
  8
0
 62
7
  6
CONTINUOUS
 10
369.3418477445
 20
31.5391973962
 11
368.9949727445
 21
31.5391973962
  0
LINE
  8
0
 62
7
  6
CONTINUOUS
 10
367.2605977445
 20
31.5391973962
 11
367.0293479651
 21
31.5391973962
  0
LINE
  8
0
 62
7
  6
CONTINUOUS
 10
366.5090354651
 20
31.5391973962
 11
366.2199727445
 21
31.5391973962
  0
LINE
  8
0
 62
7
  6
CONTINUOUS
 10
365.757472524
 20
31.5391973962
 11
365.4684104651
 21
31.5391973962
  0
LINE
  8
0
 62
7
  6
CONTINUOUS
 10
364.1965353548
 20
31.5391973962
 11
363.8496603548
 21
31.5391973962
  0
LINE
  8
0
 62
7
  6
CONTINUOUS
 10
362.1152853548
 20
31.5391973962
 11
361.8840352445
 21
31.5391973962
  0
LINE
  8
0
 62
7
  6
CONTINUOUS
 10
365.4684104651
 20
31.8618343508
 11
365.757472524
 21
31.8618343508
  0
LINE
  8
0
 62
7
  6
CONTINUOUS
 10
365.757472524
 20
32.0231527829
 11
365.4684104651
 21
32.0231527829
  0
LINE
  8
0
 62
7
  6
CONTINUOUS
 10
361.3637227445
 20
32.0231527829
 11
361.0746601894
 21
32.0231527829
  0
LINE
  8
0
 62
7
  6
CONTINUOUS
 10
360.4015045068
 20
32.3100380288
 11
360.8140758554
 21
32.3100380288
  0
LINE
  8
0
 62
7
  6
CONTINUOUS
 10
362.0408487691
 20
32.3100380288
 11
363.4342913921
 21
32.3100380288
  0
LINE
  8
0
 62
7
  6
CONTINUOUS
 10
363.7621602445
 20
32.3100380288
 11
365.1556028675
 21
32.3100380288
  0
LINE
  8
0
 62
7
  6
CONTINUOUS
 10
367.0408487691
 20
32.3100380288
 11
368.4342913921
 21
32.3100380288
  0
LINE
  8
0
 62
7
  6
CONTINUOUS
 10
368.7621602445
 20
32.3100380288
 11
370.1556028675
 21
32.3100380288
  0
LINE
  8
0
 62
7
  6
CONTINUOUS
 10
366.798097524
 20
31.5069337098
 11
366.624660024
 21
31.4424063369
  0
LINE
  8
0
 62
7
  6
CONTINUOUS
 10
364.369972524
 20
30.5390230296
 11
364.543410024
 21
30.6035504109
  0
LINE
  8
0
 62
7
  6
CONTINUOUS
 10
369.8043479651
 20
30.5390230296
 11
370.0355977445
 21
30.6035504109
  0
LINE
  8
0
 62
7
  6
CONTINUOUS
 10
369.8043479651
 20
30.7003414814
 11
369.6887227445
 21
30.668077795
  0
LINE
  8
0
 62
7
  6
CONTINUOUS
 10
368.7637229651
 20
31.3778789641
 11
368.9949727445
 21
31.4101426505
  0
LINE
  8
0
 62
7
  6
CONTINUOUS
 10
366.798097524
 20
31.3778789641
 11
367.0293479651
 21
31.4101426505
  0
LINE
  8
0
 62
7
  6
CONTINUOUS
 10
363.7340351343
 20
31.0229783683
 11
363.9652852445
 21
31.0552420547
  0
LINE
  8
0
 62
7
  6
CONTINUOUS
 10
367.0293479651
 20
31.5391973962
 11
366.798097524
 21
31.5069337098
  0
LINE
  8
0
 62
7
  6
CONTINUOUS
 10
363.6184102445
 20
31.3778789641
 11
363.8496603548
 21
31.4101426505
  0
LINE
  8
0
 62
7
  6
CONTINUOUS
 10
368.9949727445
 20
31.5391973962
 11
368.6480977445
 21
31.5069337098
  0
LINE
  8
0
 62
7
  6
CONTINUOUS
 10
363.9652852445
 20
31.1842968456
 11
363.6184102445
 21
31.1520331591
  0
LINE
  8
0
 62
7
  6
CONTINUOUS
 10
359.744972717
 20
31.5391973962
 11
359.3980977583
 21
31.5069337098
  0
LINE
  8
0
 62
7
  6
CONTINUOUS
 10
363.8496603548
 20
31.5391973962
 11
363.4449727445
 21
31.5069337098
  0
LINE
  8
0
 62
7
  6
CONTINUOUS
 10
361.221176638
 20
33.4575790124
 11
360.565438933
 21
33.4575790124
  0
LINE
  8
0
 62
7
  6
CONTINUOUS
 10
366.624660024
 20
31.3133515913
 11
366.798097524
 21
31.3778789641
  0
LINE
  8
0
 62
7
  6
CONTINUOUS
 10
368.6480977445
 20
31.3456152777
 11
368.7637229651
 21
31.3778789641
  0
LINE
  8
0
 62
7
  6
CONTINUOUS
 10
368.6480977445
 20
31.5069337098
 11
368.4168479651
 21
31.4424063369
  0
LINE
  8
0
 62
7
  6
CONTINUOUS
 10
364.369972524
 20
30.7003414814
 11
364.0809101343
 21
30.6358140973
  0
LINE
  8
0
 62
7
  6
CONTINUOUS
 10
361.6527851343
 20
31.3778789641
 11
361.8840352445
 21
31.4101426505
  0
LINE
  8
0
 62
7
  6
CONTINUOUS
 10
361.8840352445
 20
31.5391973962
 11
361.6527851343
 21
31.5069337098
  0
LINE
  8
0
 62
7
  6
CONTINUOUS
 10
359.4559102445
 20
31.3778789641
 11
359.6871602721
 21
31.4101426505
  0
LINE
  8
0
 62
7
  6
CONTINUOUS
 10
365.9752749986
 20
34.9329888485
 11
366.6310127035
 21
34.9329888485
  0
LINE
  8
0
 62
7
  6
CONTINUOUS
 10
363.6184102445
 20
30.9907146818
 11
363.7340351343
 21
31.0229783683
  0
LINE
  8
0
 62
7
  6
CONTINUOUS
 10
363.6184102445
 20
31.1520331591
 11
363.3871601343
 21
31.0875057863
  0
LINE
  8
0
 62
7
  6
CONTINUOUS
 10
363.5027853548
 20
31.3456152777
 11
363.6184102445
 21
31.3778789641
  0
LINE
  8
0
 62
7
  6
CONTINUOUS
 10
360.1496602445
 20
30.5390230296
 11
360.3809101894
 21
30.6035504109
  0
LINE
  8
0
 62
7
  6
CONTINUOUS
 10
363.4449727445
 20
31.5069337098
 11
363.3293478548
 21
31.4746700234
  0
LINE
  8
0
 62
7
  6
CONTINUOUS
 10
359.3980977583
 20
31.5069337098
 11
359.2246602583
 21
31.4746700234
  0
LINE
  8
0
 62
7
  6
CONTINUOUS
 10
370.1556028675
 20
36.0805298321
 11
368.7621602445
 21
36.0805298321
  0
LINE
  8
0
 62
7
  6
CONTINUOUS
 10
366.7949471298
 20
36.0805298321
 11
366.3823757812
 21
36.0805298321
  0
LINE
  8
0
 62
7
  6
CONTINUOUS
 10
365.1556028675
 20
36.0805298321
 11
363.7621602445
 21
36.0805298321
  0
LINE
  8
0
 62
7
  6
CONTINUOUS
 10
363.4342913921
 20
36.0805298321
 11
362.0408487691
 21
36.0805298321
  0
LINE
  8
0
 62
7
  6
CONTINUOUS
 10
360.1556028675
 20
36.0805298321
 11
358.7621602445
 21
36.0805298321
  0
LINE
  8
0
 62
7
  6
CONTINUOUS
 10
359.3402852307
 20
31.3456152777
 11
359.4559102445
 21
31.3778789641
  0
CIRCLE
  8
0
 62
7
  6
CONTINUOUS
 10
369.458881556
 20
38.4165954059
 40
2.0901639344
  0
ARC
  8
0
 62
7
  6
CONTINUOUS
 10
360.4015045068
 20
33.9493822911
 40
1.6393442623
 50
180.0
 51
270.0
  0
ARC
  8
0
 62
7
  6
CONTINUOUS
 10
366.7949471298
 20
34.4411855698
 40
1.6393442623
 50
0.0
 51
90.0
  0
ARC
  8
0
 62
7
  6
CONTINUOUS
 10
360.8140758554
 20
33.7854478649
 40
1.4754098361
 50
270.0
 51
326.2510114041
  0
ARC
  8
0
 62
7
  6
CONTINUOUS
 10
366.3823757812
 20
34.6051199961
 40
1.4754098361
 50
90.0
 51
146.2510114041
  0
ARC
  8
0
 62
7
  6
CONTINUOUS
 10
361.221176638
 20
34.2772511436
 40
0.8196721311
 50
270.0
 51
360.0
  0
ARC
  8
0
 62
7
  6
CONTINUOUS
 10
365.9752749986
 20
34.1133167174
 40
0.8196721311
 50
90.0
 51
180.0
  0
ARC
  8
0
 62
7
  6
CONTINUOUS
 10
360.565438933
 20
33.867415078
 40
0.4098360656
 50
180.0
 51
270.0
  0
ARC
  8
0
 62
7
  6
CONTINUOUS
 10
366.6310127035
 20
34.5231527829
 40
0.4098360656
 50
0.0
 51
90.0
  0
SOLID
  8
0
 62
7
  6
CONTINUOUS
 10
365.4684104651
 20
31.8618347111
 11
365.4684104651
 21
32.0231531947
 12
365.757472524
 22
31.8618347111
 13
365.757472524
 23
32.0231531947
  0
SOLID
  8
0
 62
7
  6
CONTINUOUS
 10
359.744972717
 20
31.5391977439
 11
360.1496602445
 21
31.5069333244
 12
359.3980977583
 22
31.5069333244
 13
359.3980977583
 23
31.5069333244
  0
SOLID
  8
0
 62
7
  6
CONTINUOUS
 10
359.2246602583
 20
31.4746706537
 11
359.3980977583
 21
31.5069333244
 12
360.1496602445
 22
31.5069333244
 13
360.1496602445
 23
31.5069333244
  0
SOLID
  8
0
 62
7
  6
CONTINUOUS
 10
360.1496602445
 20
31.5069333244
 11
360.3809101894
 21
31.4424063504
 12
359.2246602583
 22
31.4746706537
 13
359.2246602583
 23
31.4746706537
  0
SOLID
  8
0
 62
7
  6
CONTINUOUS
 10
359.0512227376
 20
31.4101419116
 11
359.2246602583
 21
31.4746706537
 12
360.3809101894
 22
31.4424063504
 13
360.3809101894
 23
31.4424063504
  0
SOLID
  8
0
 62
7
  6
CONTINUOUS
 10
359.0512227376
 20
31.4101419116
 11
360.3809101894
 21
31.4424063504
 12
359.6871602721
 22
31.4101419116
 13
359.6871602721
 23
31.4101419116
  0
SOLID
  8
0
 62
7
  6
CONTINUOUS
 10
359.6871602721
 20
31.4101419116
 11
360.3809101894
 21
31.4424063504
 12
360.091847717
 22
31.3778792603
 13
360.091847717
 23
31.3778792603
  0
SOLID
  8
0
 62
7
  6
CONTINUOUS
 10
360.3809101894
 20
31.4424063504
 11
360.5543476894
 21
31.345614957
 12
360.091847717
 22
31.3778792603
 13
360.091847717
 23
31.3778792603
  0
SOLID
  8
0
 62
7
  6
CONTINUOUS
 10
360.2652852997
 20
31.3133521701
 11
360.091847717
 21
31.3778792603
 12
360.5543476894
 22
31.345614957
 13
360.5543476894
 23
31.345614957
  0
SOLID
  8
0
 62
7
  6
CONTINUOUS
 10
360.2652852997
 20
31.3133521701
 11
360.5543476894
 21
31.345614957
 12
360.3230977445
 22
31.2165606992
 13
360.3230977445
 23
31.2165606992
  0
SOLID
  8
0
 62
7
  6
CONTINUOUS
 10
360.5543476894
 20
31.345614957
 11
360.6121602997
 21
31.2165606992
 12
360.3230977445
 22
31.2165606992
 13
360.3230977445
 23
31.2165606992
  0
SOLID
  8
0
 62
7
  6
CONTINUOUS
 10
361.6527851343
 20
31.5069329918
 11
361.8840352445
 21
31.5391972951
 12
362.1152853548
 22
31.5391972951
 13
362.1152853548
 23
31.5391972951
  0
SOLID
  8
0
 62
7
  6
CONTINUOUS
 10
362.1152853548
 20
31.5391972951
 11
362.2887228548
 21
31.5069329918
 12
361.6527851343
 22
31.5069329918
 13
361.6527851343
 23
31.5069329918
  0
SOLID
  8
0
 62
7
  6
CONTINUOUS
 10
361.4793477997
 20
31.4424059016
 11
361.6527851343
 21
31.5069329918
 12
362.2887228548
 22
31.5069329918
 13
362.2887228548
 23
31.5069329918
  0
SOLID
  8
0
 62
7
  6
CONTINUOUS
 10
362.2887228548
 20
31.5069329918
 11
362.4621603548
 21
31.4424059016
 12
361.4793477997
 22
31.4424059016
 13
361.4793477997
 23
31.4424059016
  0
SOLID
  8
0
 62
7
  6
CONTINUOUS
 10
362.4621603548
 20
31.4424059016
 11
361.8840352445
 21
31.4101420472
 12
361.4793477997
 22
31.4424059016
 13
361.4793477997
 23
31.4424059016
  0
SOLID
  8
0
 62
7
  6
CONTINUOUS
 10
361.3637227445
 20
31.3778788115
 11
361.4793477997
 21
31.4424059016
 12
361.8840352445
 22
31.4101420472
 13
361.8840352445
 23
31.4101420472
  0
SOLID
  8
0
 62
7
  6
CONTINUOUS
 10
361.8840352445
 20
31.4101420472
 11
361.6527851343
 21
31.3778788115
 12
361.3637227445
 22
31.3778788115
 13
361.3637227445
 23
31.3778788115
  0
SOLID
  8
0
 62
7
  6
CONTINUOUS
 10
361.8840352445
 20
31.4101420472
 11
362.4621603548
 21
31.4424059016
 12
362.1152853548
 22
31.3778788115
 13
362.1152853548
 23
31.3778788115
  0
SOLID
  8
0
 62
7
  6
CONTINUOUS
 10
362.4621603548
 20
31.4424059016
 11
362.5777852445
 21
31.3778788115
 12
362.1152853548
 22
31.3778788115
 13
362.1152853548
 23
31.3778788115
  0
SOLID
  8
0
 62
7
  6
CONTINUOUS
 10
362.2309102445
 20
31.345614957
 11
362.1152853548
 21
31.3778788115
 12
362.5777852445
 22
31.3778788115
 13
362.5777852445
 23
31.3778788115
  0
SOLID
  8
0
 62
7
  6
CONTINUOUS
 10
362.5777852445
 20
31.3778788115
 11
362.6355978548
 21
31.3133517213
 12
362.2309102445
 22
31.345614957
 13
362.2309102445
 23
31.345614957
  0
SOLID
  8
0
 62
7
  6
CONTINUOUS
 10
362.3465351343
 20
31.2810878668
 11
362.2309102445
 21
31.345614957
 12
362.6355978548
 22
31.3133517213
 13
362.6355978548
 23
31.3133517213
  0
SOLID
  8
0
 62
7
  6
CONTINUOUS
 10
362.3465351343
 20
31.2810878668
 11
362.6355978548
 21
31.3133517213
 12
362.4043477445
 22
31.1520332377
 13
362.4043477445
 23
31.1520332377
  0
SOLID
  8
0
 62
7
  6
CONTINUOUS
 10
362.6355978548
 20
31.3133517213
 11
362.6934101343
 21
31.1520332377
 12
362.4043477445
 22
31.1520332377
 13
362.4043477445
 23
31.1520332377
  0
SOLID
  8
0
 62
7
  6
CONTINUOUS
 10
361.6527851343
 20
31.3778788115
 11
361.4793477997
 21
31.3133517213
 12
361.3637227445
 22
31.3778788115
 13
361.3637227445
 23
31.3778788115
  0
SOLID
  8
0
 62
7
  6
CONTINUOUS
 10
361.4793477997
 20
31.3133517213
 11
361.3637227445
 21
31.2488235635
 12
361.3637227445
 22
31.3778788115
 13
361.3637227445
 23
31.3778788115
  0
SOLID
  8
0
 62
7
  6
CONTINUOUS
 10
361.3637227445
 20
31.2488235635
 11
361.0746601894
 21
30.5067593033
 12
361.3637227445
 22
31.3778788115
 13
361.3637227445
 23
31.3778788115
  0
SOLID
  8
0
 62
7
  6
CONTINUOUS
 10
361.3637227445
 20
31.3778788115
 11
361.0746601894
 21
30.5067593033
 12
361.3637227445
 22
32.0231527459
 13
361.3637227445
 23
32.0231527459
  0
SOLID
  8
0
 62
7
  6
CONTINUOUS
 10
361.0746601894
 20
30.5067593033
 11
361.0746601894
 21
32.0231527459
 12
361.3637227445
 22
32.0231527459
 13
361.3637227445
 23
32.0231527459
  0
SOLID
  8
0
 62
7
  6
CONTINUOUS
 10
361.3637227445
 20
31.2488235635
 11
361.3637227445
 21
30.5067593033
 12
361.0746601894
 22
30.5067593033
 13
361.0746601894
 23
30.5067593033
  0
SOLID
  8
0
 62
7
  6
CONTINUOUS
 10
362.4043477445
 20
30.5067593033
 11
362.4043477445
 21
31.1520332377
 12
362.6934101343
 22
31.1520332377
 13
362.6934101343
 23
31.1520332377
  0
SOLID
  8
0
 62
7
  6
CONTINUOUS
 10
362.6934101343
 20
31.1520332377
 11
362.6934101343
 21
30.5067593033
 12
362.4043477445
 22
30.5067593033
 13
362.4043477445
 23
30.5067593033
  0
SOLID
  8
0
 62
7
  6
CONTINUOUS
 10
363.4449727445
 20
31.506933758
 11
363.8496603548
 21
31.5391977507
 12
364.1965353548
 22
31.5391977507
 13
364.1965353548
 23
31.5391977507
  0
SOLID
  8
0
 62
7
  6
CONTINUOUS
 10
364.1965353548
 20
31.5391977507
 11
364.543410024
 21
31.506933758
 12
363.4449727445
 22
31.506933758
 13
363.4449727445
 23
31.506933758
  0
SOLID
  8
0
 62
7
  6
CONTINUOUS
 10
363.3293478548
 20
31.4746706537
 11
363.4449727445
 21
31.506933758
 12
364.543410024
 22
31.506933758
 13
364.543410024
 23
31.506933758
  0
SOLID
  8
0
 62
7
  6
CONTINUOUS
 10
364.543410024
 20
31.506933758
 11
364.716847524
 21
31.4424063504
 12
363.3293478548
 22
31.4746706537
 13
363.3293478548
 23
31.4746706537
  0
SOLID
  8
0
 62
7
  6
CONTINUOUS
 10
363.2137226343
 20
31.4101417797
 11
363.3293478548
 21
31.4746706537
 12
364.716847524
 22
31.4424063504
 13
364.716847524
 23
31.4424063504
  0
SOLID
  8
0
 62
7
  6
CONTINUOUS
 10
363.2137226343
 20
31.4101417797
 11
364.716847524
 21
31.4424063504
 12
363.8496603548
 22
31.4101417797
 13
363.8496603548
 23
31.4101417797
  0
SOLID
  8
0
 62
7
  6
CONTINUOUS
 10
363.8496603548
 20
31.4101417797
 11
364.716847524
 21
31.4424063504
 12
364.1965353548
 22
31.4101417797
 13
364.1965353548
 23
31.4101417797
  0
SOLID
  8
0
 62
7
  6
CONTINUOUS
 10
364.1965353548
 20
31.4101417797
 11
364.716847524
 21
31.4424063504
 12
364.4277854651
 22
31.3778793357
 13
364.4277854651
 23
31.3778793357
  0
SOLID
  8
0
 62
7
  6
CONTINUOUS
 10
364.716847524
 20
31.4424063504
 11
364.8324727445
 21
31.3778793357
 12
364.4277854651
 22
31.3778793357
 13
364.4277854651
 23
31.3778793357
  0
SOLID
  8
0
 62
7
  6
CONTINUOUS
 10
363.1559103548
 20
31.3456153429
 11
363.2137226343
 21
31.4101417797
 12
363.8496603548
 22
31.4101417797
 13
363.8496603548
 23
31.4101417797
  0
SOLID
  8
0
 62
7
  6
CONTINUOUS
 10
364.543410024
 20
31.3456153429
 11
364.4277854651
 21
31.3778793357
 12
364.8324727445
 22
31.3778793357
 13
364.8324727445
 23
31.3778793357
  0
SOLID
  8
0
 62
7
  6
CONTINUOUS
 10
364.543410024
 20
31.3456153429
 11
364.8324727445
 21
31.3778793357
 12
364.6012229651
 22
31.2810881318
 13
364.6012229651
 23
31.2810881318
  0
SOLID
  8
0
 62
7
  6
CONTINUOUS
 10
364.8324727445
 20
31.3778793357
 11
364.890285024
 21
31.2810881318
 12
364.6012229651
 22
31.2810881318
 13
364.6012229651
 23
31.2810881318
  0
SOLID
  8
0
 62
7
  6
CONTINUOUS
 10
364.6012229651
 20
31.1842964734
 11
364.6012229651
 21
31.2810881318
 12
364.890285024
 22
31.2810881318
 13
364.890285024
 23
31.2810881318
  0
SOLID
  8
0
 62
7
  6
CONTINUOUS
 10
364.6012229651
 20
31.1842964734
 11
364.890285024
 21
31.2810881318
 12
364.6012229651
 22
31.0552422931
 13
364.6012229651
 23
31.0552422931
  0
SOLID
  8
0
 62
7
  6
CONTINUOUS
 10
364.6012229651
 20
31.0552422931
 11
364.890285024
 21
31.2810881318
 12
364.6012229651
 22
30.8616599362
 13
364.6012229651
 23
30.8616599362
  0
SOLID
  8
0
 62
7
  6
CONTINUOUS
 10
364.890285024
 20
31.2810881318
 11
364.890285024
 21
30.7648681127
 12
364.6012229651
 22
30.8616599362
 13
364.6012229651
 23
30.8616599362
  0
SOLID
  8
0
 62
7
  6
CONTINUOUS
 10
366.798097524
 20
31.5069339419
 11
367.0293479651
 21
31.5391976292
 12
367.2605977445
 22
31.5391976292
 13
367.2605977445
 23
31.5391976292
  0
SOLID
  8
0
 62
7
  6
CONTINUOUS
 10
367.2605977445
 20
31.5391976292
 11
367.4340352445
 21
31.5069339419
 12
366.798097524
 22
31.5069339419
 13
366.798097524
 23
31.5069339419
  0
SOLID
  8
0
 62
7
  6
CONTINUOUS
 10
366.624660024
 20
31.4424065674
 11
366.798097524
 21
31.5069339419
 12
367.4340352445
 22
31.5069339419
 13
367.4340352445
 23
31.5069339419
  0
SOLID
  8
0
 62
7
  6
CONTINUOUS
 10
367.4340352445
 20
31.5069339419
 11
367.6074727445
 21
31.4424065674
 12
366.624660024
 22
31.4424065674
 13
366.624660024
 23
31.4424065674
  0
SOLID
  8
0
 62
7
  6
CONTINUOUS
 10
367.6074727445
 20
31.4424065674
 11
367.0293479651
 21
31.4101420472
 12
366.624660024
 22
31.4424065674
 13
366.624660024
 23
31.4424065674
  0
SOLID
  8
0
 62
7
  6
CONTINUOUS
 10
366.5090354651
 20
31.377879193
 11
366.624660024
 21
31.4424065674
 12
367.0293479651
 22
31.4101420472
 13
367.0293479651
 23
31.4101420472
  0
SOLID
  8
0
 62
7
  6
CONTINUOUS
 10
367.0293479651
 20
31.4101420472
 11
366.798097524
 21
31.377879193
 12
366.5090354651
 22
31.377879193
 13
366.5090354651
 23
31.377879193
  0
SOLID
  8
0
 62
7
  6
CONTINUOUS
 10
367.0293479651
 20
31.4101420472
 11
367.6074727445
 21
31.4424065674
 12
367.2605977445
 22
31.377879193
 13
367.2605977445
 23
31.377879193
  0
SOLID
  8
0
 62
7
  6
CONTINUOUS
 10
367.6074727445
 20
31.4424065674
 11
367.7230979651
 21
31.377879193
 12
367.2605977445
 22
31.377879193
 13
367.2605977445
 23
31.377879193
  0
SOLID
  8
0
 62
7
  6
CONTINUOUS
 10
367.3762229651
 20
31.345614957
 11
367.2605977445
 21
31.377879193
 12
367.7230979651
 22
31.377879193
 13
367.7230979651
 23
31.377879193
  0
SOLID
  8
0
 62
7
  6
CONTINUOUS
 10
367.3762229651
 20
31.345614957
 11
367.7230979651
 21
31.377879193
 12
367.491847524
 22
31.2810881312
 13
367.491847524
 23
31.2810881312
  0
SOLID
  8
0
 62
7
  6
CONTINUOUS
 10
367.7230979651
 20
31.377879193
 11
367.7809102445
 21
31.2810881312
 12
367.491847524
 22
31.2810881312
 13
367.491847524
 23
31.2810881312
  0
SOLID
  8
0
 62
7
  6
CONTINUOUS
 10
367.5496604651
 20
31.119769695
 11
367.491847524
 21
31.2810881312
 12
367.7809102445
 22
31.2810881312
 13
367.7809102445
 23
31.2810881312
  0
SOLID
  8
0
 62
7
  6
CONTINUOUS
 10
367.7809102445
 20
31.2810881312
 11
367.838722524
 21
31.119769695
 12
367.5496604651
 22
31.119769695
 13
367.5496604651
 23
31.119769695
  0
SOLID
  8
0
 62
7
  6
CONTINUOUS
 10
366.798097524
 20
31.377879193
 11
366.624660024
 21
31.3133521701
 12
366.5090354651
 22
31.377879193
 13
366.5090354651
 23
31.377879193
  0
SOLID
  8
0
 62
7
  6
CONTINUOUS
 10
366.624660024
 20
31.3133521701
 11
366.5090354651
 21
31.2488235635
 12
366.5090354651
 22
31.377879193
 13
366.5090354651
 23
31.377879193
  0
SOLID
  8
0
 62
7
  6
CONTINUOUS
 10
366.5090354651
 20
31.2488235635
 11
366.2199727445
 21
30.5067596374
 12
366.5090354651
 22
31.377879193
 13
366.5090354651
 23
31.377879193
  0
SOLID
  8
0
 62
7
  6
CONTINUOUS
 10
366.5090354651
 20
31.377879193
 11
366.2199727445
 21
30.5067596374
 12
366.5090354651
 22
31.5391976292
 13
366.5090354651
 23
31.5391976292
  0
SOLID
  8
0
 62
7
  6
CONTINUOUS
 10
366.2199727445
 20
30.5067596374
 11
366.2199727445
 21
31.5391976292
 12
366.5090354651
 22
31.5391976292
 13
366.5090354651
 23
31.5391976292
  0
SOLID
  8
0
 62
7
  6
CONTINUOUS
 10
366.5090354651
 20
31.2488235635
 11
366.5090354651
 21
30.5067596374
 12
366.2199727445
 22
30.5067596374
 13
366.2199727445
 23
30.5067596374
  0
SOLID
  8
0
 62
7
  6
CONTINUOUS
 10
367.5496604651
 20
30.5067596374
 11
367.5496604651
 21
31.119769695
 12
367.838722524
 22
31.119769695
 13
367.838722524
 23
31.119769695
  0
SOLID
  8
0
 62
7
  6
CONTINUOUS
 10
367.838722524
 20
31.119769695
 11
367.838722524
 21
30.5067596374
 12
367.5496604651
 22
30.5067596374
 13
367.5496604651
 23
30.5067596374
  0
SOLID
  8
0
 62
7
  6
CONTINUOUS
 10
368.6480977445
 20
31.5069334157
 11
368.9949727445
 21
31.539197762
 12
369.3418477445
 22
31.539197762
 13
369.3418477445
 23
31.539197762
  0
SOLID
  8
0
 62
7
  6
CONTINUOUS
 10
369.3418477445
 20
31.539197762
 11
369.6887227445
 21
31.5069334157
 12
368.6480977445
 22
31.5069334157
 13
368.6480977445
 23
31.5069334157
  0
SOLID
  8
0
 62
7
  6
CONTINUOUS
 10
368.4168479651
 20
31.4424063504
 11
368.6480977445
 21
31.5069334157
 12
369.6887227445
 22
31.5069334157
 13
369.6887227445
 23
31.5069334157
  0
SOLID
  8
0
 62
7
  6
CONTINUOUS
 10
368.4168479651
 20
31.4424063504
 11
369.6887227445
 21
31.5069334406
 12
369.8621602445
 22
31.4746706537
 13
369.8621602445
 23
31.4746706537
  0
SOLID
  8
0
 62
7
  6
CONTINUOUS
 10
368.4168479651
 20
31.4424063504
 11
369.8621602445
 21
31.4746706537
 12
368.9949727445
 22
31.4101421267
 13
368.9949727445
 23
31.4101421267
  0
SOLID
  8
0
 62
7
  6
CONTINUOUS
 10
368.9949727445
 20
31.4101421267
 11
369.8621602445
 21
31.4746706537
 12
369.3418477445
 22
31.4101421267
 13
369.3418477445
 23
31.4101421267
  0
SOLID
  8
0
 62
7
  6
CONTINUOUS
 10
369.8621602445
 20
31.4746706537
 11
370.0355977445
 21
31.4101421267
 12
369.3418477445
 22
31.4101421267
 13
369.3418477445
 23
31.4101421267
  0
SOLID
  8
0
 62
7
  6
CONTINUOUS
 10
369.6887227445
 20
31.3778792603
 11
369.3418477445
 21
31.4101421267
 12
370.0355977445
 22
31.4101421267
 13
370.0355977445
 23
31.4101421267
  0
SOLID
  8
0
 62
7
  6
CONTINUOUS
 10
368.3012227445
 20
31.3456148845
 11
368.4168479651
 21
31.4424063504
 12
368.9949727445
 22
31.4101421267
 13
368.9949727445
 23
31.4101421267
  0
SOLID
  8
0
 62
7
  6
CONTINUOUS
 10
369.6887227445
 20
31.3778792603
 11
370.0355977445
 21
31.4101421267
 12
369.8043479651
 22
31.3456148845
 13
369.8043479651
 23
31.3456148845
  0
SOLID
  8
0
 62
7
  6
CONTINUOUS
 10
369.8043479651
 20
31.3456148845
 11
370.0355977445
 21
31.4101421267
 12
369.8621602445
 22
31.281087868
 13
369.8621602445
 23
31.281087868
  0
SOLID
  8
0
 62
7
  6
CONTINUOUS
 10
370.0355977445
 20
31.4101421267
 11
370.1512223035
 21
31.281087868
 12
369.8621602445
 22
31.281087868
 13
369.8621602445
 23
31.281087868
  0
SOLID
  8
0
 62
7
  6
CONTINUOUS
 10
359.4559102445
 20
31.3778792603
 11
358.9355977445
 21
31.3456148963
 12
359.6871602721
 22
31.4101421155
 13
359.6871602721
 23
31.4101421155
  0
SOLID
  8
0
 62
7
  6
CONTINUOUS
 10
358.9355977445
 20
31.3456148963
 11
359.0512227376
 21
31.4101421155
 12
359.6871602721
 22
31.4101421155
 13
359.6871602721
 23
31.4101421155
  0
SOLID
  8
0
 62
7
  6
CONTINUOUS
 10
359.4559102445
 20
31.3778792603
 11
359.3402852307
 21
31.3456148963
 12
358.9355977445
 22
31.3456148963
 13
358.9355977445
 23
31.3456148963
  0
SOLID
  8
0
 62
7
  6
CONTINUOUS
 10
358.8199727462
 20
31.2165607767
 11
358.9355977445
 21
31.3456148963
 12
359.3402852307
 22
31.3456148963
 13
359.3402852307
 23
31.3456148963
  0
SOLID
  8
0
 62
7
  6
CONTINUOUS
 10
363.1559103548
 20
31.3456149608
 11
363.8496603548
 21
31.4101420472
 12
363.6184102445
 22
31.3778792603
 13
363.6184102445
 23
31.3778792603
  0
SOLID
  8
0
 62
7
  6
CONTINUOUS
 10
363.6184102445
 20
31.3778792603
 11
363.5027853548
 21
31.3456149608
 12
363.1559103548
 22
31.3456149608
 13
363.1559103548
 23
31.3456149608
  0
SOLID
  8
0
 62
7
  6
CONTINUOUS
 10
363.1559103548
 20
31.2810878707
 11
363.1559103548
 21
31.3456149608
 12
363.5027853548
 22
31.3456149608
 13
363.5027853548
 23
31.3456149608
  0
SOLID
  8
0
 62
7
  6
CONTINUOUS
 10
363.5027853548
 20
31.3456149608
 11
363.4449727445
 21
31.2810878707
 12
363.1559103548
 22
31.2810878707
 13
363.1559103548
 23
31.2810878707
  0
SOLID
  8
0
 62
7
  6
CONTINUOUS
 10
368.3012227445
 20
31.3456149608
 11
368.9949727445
 21
31.4101420472
 12
368.7637229651
 22
31.3778792603
 13
368.7637229651
 23
31.3778792603
  0
SOLID
  8
0
 62
7
  6
CONTINUOUS
 10
368.7637229651
 20
31.3778792603
 11
368.6480977445
 21
31.3456149608
 12
368.3012227445
 22
31.3456149608
 13
368.3012227445
 23
31.3456149608
  0
SOLID
  8
0
 62
7
  6
CONTINUOUS
 10
368.3012227445
 20
31.2810878707
 11
368.3012227445
 21
31.3456149608
 12
368.6480977445
 22
31.3456149608
 13
368.6480977445
 23
31.3456149608
  0
SOLID
  8
0
 62
7
  6
CONTINUOUS
 10
368.6480977445
 20
31.3456149608
 11
368.5902854651
 21
31.2810878707
 12
368.3012227445
 22
31.2810878707
 13
368.3012227445
 23
31.2810878707
  0
SOLID
  8
0
 62
7
  6
CONTINUOUS
 10
368.4168479651
 20
31.1520336865
 11
368.3012227445
 21
31.2810878707
 12
368.5902854651
 22
31.2810878707
 13
368.5902854651
 23
31.2810878707
  0
SOLID
  8
0
 62
7
  6
CONTINUOUS
 10
358.8199727462
 20
31.2165607767
 11
359.3402852307
 21
31.345614957
 12
359.1668477307
 22
31.2488235635
 13
359.1668477307
 23
31.2488235635
  0
SOLID
  8
0
 62
7
  6
CONTINUOUS
 10
359.1668477307
 20
31.2488235635
 11
359.1090352445
 21
31.1842964734
 12
358.8199727462
 22
31.2165607767
 13
358.8199727462
 23
31.2165607767
  0
SOLID
  8
0
 62
7
  6
CONTINUOUS
 10
358.7621602445
 20
31.0229779898
 11
358.8199727462
 21
31.2165607767
 12
359.1090352445
 22
31.1842964734
 13
359.1090352445
 23
31.1842964734
  0
SOLID
  8
0
 62
7
  6
CONTINUOUS
 10
363.6184102445
 20
31.1520336865
 11
363.9652852445
 21
31.1842964611
 12
364.6012229651
 22
31.1842964611
 13
364.6012229651
 23
31.1842964611
  0
SOLID
  8
0
 62
7
  6
CONTINUOUS
 10
363.6184102445
 20
31.1520336865
 11
364.6012229651
 21
31.1842964611
 12
363.3871601343
 22
31.0875057863
 13
363.3871601343
 23
31.0875057863
  0
SOLID
  8
0
 62
7
  6
CONTINUOUS
 10
363.3871601343
 20
31.0875057863
 11
364.6012229651
 21
31.1842964611
 12
363.9652852445
 22
31.0552422808
 13
363.9652852445
 23
31.0552422808
  0
SOLID
  8
0
 62
7
  6
CONTINUOUS
 10
364.6012229651
 20
31.1842964611
 11
364.6012229651
 21
31.0552422808
 12
363.9652852445
 22
31.0552422808
 13
363.9652852445
 23
31.0552422808
  0
SOLID
  8
0
 62
7
  6
CONTINUOUS
 10
368.4168479651
 20
31.1520338754
 11
368.5902854651
 21
31.2810878668
 12
368.6480977445
 22
31.2165607767
 13
368.6480977445
 23
31.2165607767
  0
SOLID
  8
0
 62
7
  6
CONTINUOUS
 10
368.6480977445
 20
31.2165607767
 11
368.8215352445
 21
31.1520338754
 12
368.4168479651
 22
31.1520338754
 13
368.4168479651
 23
31.1520338754
  0
SOLID
  8
0
 62
7
  6
CONTINUOUS
 10
368.6480977445
 20
31.0552422931
 11
368.4168479651
 21
31.1520338754
 12
368.8215352445
 22
31.1520338754
 13
368.8215352445
 23
31.1520338754
  0
SOLID
  8
0
 62
7
  6
CONTINUOUS
 10
368.8215352445
 20
31.1520338754
 11
369.8043479651
 21
30.9907152029
 12
368.6480977445
 22
31.0552422931
 13
368.6480977445
 23
31.0552422931
  0
SOLID
  8
0
 62
7
  6
CONTINUOUS
 10
369.6309104651
 20
30.8939239876
 11
368.6480977445
 21
31.0552422931
 12
369.8043479651
 22
30.9907152029
 13
369.8043479651
 23
30.9907152029
  0
SOLID
  8
0
 62
7
  6
CONTINUOUS
 10
369.8043479651
 20
30.9907152029
 11
370.0355977445
 21
30.8939239876
 12
369.6309104651
 22
30.8939239876
 13
369.6309104651
 23
30.8939239876
  0
SOLID
  8
0
 62
7
  6
CONTINUOUS
 10
369.8043479651
 20
30.8293967193
 11
369.6309104651
 21
30.8939239876
 12
370.0355977445
 22
30.8939239876
 13
370.0355977445
 23
30.8939239876
  0
SOLID
  8
0
 62
7
  6
CONTINUOUS
 10
369.8043479651
 20
30.8293967193
 11
370.0355977445
 21
30.8939239876
 12
369.8621602445
 22
30.7648682694
 13
369.8621602445
 23
30.7648682694
  0
SOLID
  8
0
 62
7
  6
CONTINUOUS
 10
370.0355977445
 20
30.8939239876
 11
370.1512223035
 21
30.7648682694
 12
369.8621602445
 22
30.7648682694
 13
369.8621602445
 23
30.7648682694
  0
SOLID
  8
0
 62
7
  6
CONTINUOUS
 10
369.8043479651
 20
30.7003411846
 11
369.8621602445
 21
30.7648682694
 12
370.1512223035
 22
30.7648682694
 13
370.1512223035
 23
30.7648682694
  0
SOLID
  8
0
 62
7
  6
CONTINUOUS
 10
370.1512223035
 20
30.7648682694
 11
370.1512223035
 21
30.7003411846
 12
369.8043479651
 22
30.7003411846
 13
369.8043479651
 23
30.7003411846
  0
SOLID
  8
0
 62
7
  6
CONTINUOUS
 10
369.6887227445
 20
30.6680782357
 11
369.8043479651
 21
30.7003411846
 12
370.1512223035
 22
30.7003411846
 13
370.1512223035
 23
30.7003411846
  0
SOLID
  8
0
 62
7
  6
CONTINUOUS
 10
369.6887227445
 20
30.6680782357
 11
370.1512223035
 21
30.7003411846
 12
369.4574729651
 22
30.6358140998
 13
369.4574729651
 23
30.6358140998
  0
SOLID
  8
0
 62
7
  6
CONTINUOUS
 10
370.1512223035
 20
30.7003411846
 11
370.0355977445
 21
30.6035511455
 12
369.4574729651
 22
30.6358140998
 13
369.4574729651
 23
30.6358140998
  0
SOLID
  8
0
 62
7
  6
CONTINUOUS
 10
370.0355977445
 20
30.6035511455
 11
368.5902854651
 21
30.5712868422
 12
369.4574729651
 22
30.6358140998
 13
369.4574729651
 23
30.6358140998
  0
SOLID
  8
0
 62
7
  6
CONTINUOUS
 10
369.4574729651
 20
30.6358140998
 11
368.5902854651
 21
30.5712868422
 12
369.1105979651
 22
30.6358140998
 13
369.1105979651
 23
30.6358140998
  0
SOLID
  8
0
 62
7
  6
CONTINUOUS
 10
368.5902854651
 20
30.5712868422
 11
368.4168479651
 21
30.6358140998
 12
369.1105979651
 22
30.6358140998
 13
369.1105979651
 23
30.6358140998
  0
SOLID
  8
0
 62
7
  6
CONTINUOUS
 10
368.5902854651
 20
30.5712868422
 11
370.0355977445
 21
30.6035511455
 12
368.7637229651
 22
30.5390223111
 13
368.7637229651
 23
30.5390223111
  0
SOLID
  8
0
 62
7
  6
CONTINUOUS
 10
370.0355977445
 20
30.6035511455
 11
369.8043479651
 21
30.5390223111
 12
368.7637229651
 22
30.5390223111
 13
368.7637229651
 23
30.5390223111
  0
SOLID
  8
0
 62
7
  6
CONTINUOUS
 10
369.1105979651
 20
30.5067599302
 11
368.7637229651
 21
30.5390223111
 12
369.8043479651
 22
30.5390223111
 13
369.8043479651
 23
30.5390223111
  0
SOLID
  8
0
 62
7
  6
CONTINUOUS
 10
369.8043479651
 20
30.5390223111
 11
369.4574729651
 21
30.5067599302
 12
369.1105979651
 22
30.5067599302
 13
369.1105979651
 23
30.5067599302
  0
SOLID
  8
0
 62
7
  6
CONTINUOUS
 10
358.7621602445
 20
31.0229779898
 11
359.1090352445
 21
31.1842964734
 12
359.0512227376
 22
31.0552422931
 13
359.0512227376
 23
31.0552422931
  0
SOLID
  8
0
 62
7
  6
CONTINUOUS
 10
359.0512227376
 20
31.0552422931
 11
359.0512227376
 21
30.9584509954
 12
358.7621602445
 22
31.0229779898
 13
358.7621602445
 23
31.0229779898
  0
SOLID
  8
0
 62
7
  6
CONTINUOUS
 10
358.8199727462
 20
30.8293967193
 11
358.7621602445
 21
31.0229779898
 12
359.0512227376
 22
30.9584509954
 13
359.0512227376
 23
30.9584509954
  0
SOLID
  8
0
 62
7
  6
CONTINUOUS
 10
359.0512227376
 20
30.9584509954
 11
359.1668477307
 21
30.797132416
 12
358.8199727462
 22
30.8293967193
 13
358.8199727462
 23
30.8293967193
  0
SOLID
  8
0
 62
7
  6
CONTINUOUS
 10
358.9355977445
 20
30.7003413087
 11
358.8199727462
 21
30.8293967193
 12
359.1668477307
 22
30.797132416
 13
359.1668477307
 23
30.797132416
  0
SOLID
  8
0
 62
7
  6
CONTINUOUS
 10
359.1668477307
 20
30.797132416
 11
359.3402852307
 21
30.7003413087
 12
358.9355977445
 22
30.7003413087
 13
358.9355977445
 23
30.7003413087
  0
SOLID
  8
0
 62
7
  6
CONTINUOUS
 10
359.0512227376
 20
30.6358140759
 11
358.9355977445
 21
30.7003413087
 12
359.3402852307
 22
30.7003413087
 13
359.3402852307
 23
30.7003413087
  0
SOLID
  8
0
 62
7
  6
CONTINUOUS
 10
359.3402852307
 20
30.7003413087
 11
359.6871602721
 21
30.6358140759
 12
359.0512227376
 22
30.6358140759
 13
359.0512227376
 23
30.6358140759
  0
SOLID
  8
0
 62
7
  6
CONTINUOUS
 10
359.2246602583
 20
30.5712868422
 11
359.0512227376
 21
30.6358140759
 12
359.6871602721
 22
30.6358140759
 13
359.6871602721
 23
30.6358140759
  0
SOLID
  8
0
 62
7
  6
CONTINUOUS
 10
363.2715352445
 20
31.0229779808
 11
363.3871601343
 21
31.0875057863
 12
363.9652852445
 22
31.0552422931
 13
363.9652852445
 23
31.0552422931
  0
SOLID
  8
0
 62
7
  6
CONTINUOUS
 10
363.9652852445
 20
31.0552422931
 11
363.7340351343
 21
31.0229779808
 12
363.2715352445
 22
31.0229779808
 13
363.2715352445
 23
31.0229779808
  0
SOLID
  8
0
 62
7
  6
CONTINUOUS
 10
363.1559103548
 20
30.8939238094
 11
363.2715352445
 21
31.0229779808
 12
363.7340351343
 22
31.0229779808
 13
363.7340351343
 23
31.0229779808
  0
SOLID
  8
0
 62
7
  6
CONTINUOUS
 10
363.5027853548
 20
30.926187309
 11
363.1559103548
 21
30.8939238094
 12
363.6184102445
 22
30.9907152029
 13
363.6184102445
 23
30.9907152029
  0
SOLID
  8
0
 62
7
  6
CONTINUOUS
 10
363.1559103548
 20
30.8939238094
 11
363.7340351343
 21
31.0229779898
 12
363.6184102445
 22
30.9907152029
 13
363.6184102445
 23
30.9907152029
  0
SOLID
  8
0
 62
7
  6
CONTINUOUS
 10
363.5027853548
 20
30.926187309
 11
363.4449727445
 21
30.8293967193
 12
363.1559103548
 22
30.8939238094
 13
363.1559103548
 23
30.8939238094
  0
SOLID
  8
0
 62
7
  6
CONTINUOUS
 10
363.1559103548
 20
30.797132416
 11
363.1559103548
 21
30.8939238094
 12
363.4449727445
 22
30.8293967193
 13
363.4449727445
 23
30.8293967193
  0
SOLID
  8
0
 62
7
  6
CONTINUOUS
 10
363.4449727445
 20
30.8293967193
 11
363.4449727445
 21
30.7648681127
 12
363.1559103548
 22
30.797132416
 13
363.1559103548
 23
30.797132416
  0
SOLID
  8
0
 62
7
  6
CONTINUOUS
 10
363.2137226343
 20
30.6680782357
 11
363.1559103548
 21
30.797132416
 12
363.4449727445
 22
30.7648681127
 13
363.4449727445
 23
30.7648681127
  0
SOLID
  8
0
 62
7
  6
CONTINUOUS
 10
364.6012229651
 20
30.8616599362
 11
364.890285024
 21
30.7648681127
 12
364.543410024
 22
30.797132416
 13
364.543410024
 23
30.797132416
  0
SOLID
  8
0
 62
7
  6
CONTINUOUS
 10
364.369972524
 20
30.7003410226
 11
364.543410024
 21
30.797132416
 12
364.890285024
 22
30.7648681127
 13
364.890285024
 23
30.7648681127
  0
SOLID
  8
0
 62
7
  6
CONTINUOUS
 10
364.369972524
 20
30.7003410226
 11
364.890285024
 21
30.7648681127
 12
364.6012229651
 22
30.6680782357
 13
364.6012229651
 23
30.6680782357
  0
SOLID
  8
0
 62
7
  6
CONTINUOUS
 10
364.890285024
 20
30.7648681127
 11
364.9480979651
 21
30.6035511455
 12
364.6012229651
 22
30.6680782357
 13
364.6012229651
 23
30.6680782357
  0
SOLID
  8
0
 62
7
  6
CONTINUOUS
 10
364.6590352445
 20
30.5712868422
 11
364.6012229651
 21
30.6680782357
 12
364.9480979651
 22
30.6035511455
 13
364.9480979651
 23
30.6035511455
  0
SOLID
  8
0
 62
7
  6
CONTINUOUS
 10
364.6590352445
 20
30.5712868422
 11
364.9480979651
 21
30.6035511455
 12
364.716847524
 22
30.5067598731
 13
364.716847524
 23
30.5067598731
  0
SOLID
  8
0
 62
7
  6
CONTINUOUS
 10
364.9480979651
 20
30.6035511455
 11
365.0059102445
 21
30.5067598731
 12
364.716847524
 22
30.5067598731
 13
364.716847524
 23
30.5067598731
  0
SOLID
  8
0
 62
7
  6
CONTINUOUS
 10
360.2652852997
 20
30.7326051679
 11
360.3230977445
 21
30.8293966612
 12
360.6121602997
 22
30.8293966612
 13
360.6121602997
 23
30.8293966612
  0
SOLID
  8
0
 62
7
  6
CONTINUOUS
 10
360.6121602997
 20
30.8293966612
 11
360.5543476894
 21
30.7003410226
 12
360.2652852997
 22
30.7326051679
 13
360.2652852997
 23
30.7326051679
  0
SOLID
  8
0
 62
7
  6
CONTINUOUS
 10
360.091847717
 20
30.6680782357
 11
360.2652852997
 21
30.7326051679
 12
360.5543476894
 22
30.7003410226
 13
360.5543476894
 23
30.7003410226
  0
SOLID
  8
0
 62
7
  6
CONTINUOUS
 10
360.091847717
 20
30.6680782357
 11
360.5543476894
 21
30.7003410226
 12
359.6871602721
 22
30.6358139324
 13
359.6871602721
 23
30.6358139324
  0
SOLID
  8
0
 62
7
  6
CONTINUOUS
 10
360.5543476894
 20
30.7003410226
 11
360.3809101894
 21
30.6035511455
 12
359.6871602721
 22
30.6358139324
 13
359.6871602721
 23
30.6358139324
  0
SOLID
  8
0
 62
7
  6
CONTINUOUS
 10
359.2246602583
 20
30.5712868422
 11
359.6871602721
 21
30.6358139324
 12
360.3809101894
 22
30.6035511455
 13
360.3809101894
 23
30.6035511455
  0
SOLID
  8
0
 62
7
  6
CONTINUOUS
 10
359.2246602583
 20
30.5712868422
 11
360.3809101894
 21
30.6035511455
 12
359.3980977583
 22
30.5390224228
 13
359.3980977583
 23
30.5390224228
  0
SOLID
  8
0
 62
7
  6
CONTINUOUS
 10
360.3809101894
 20
30.6035511455
 11
360.1496602445
 21
30.5390224228
 12
359.3980977583
 22
30.5390224228
 13
359.3980977583
 23
30.5390224228
  0
SOLID
  8
0
 62
7
  6
CONTINUOUS
 10
359.744972717
 20
30.5067597521
 11
359.3980977583
 21
30.5390224228
 12
360.1496602445
 22
30.5390224228
 13
360.1496602445
 23
30.5390224228
  0
SOLID
  8
0
 62
7
  6
CONTINUOUS
 10
363.2137226343
 20
30.6680782357
 11
363.4449727445
 21
30.7648681127
 12
363.5027853548
 22
30.7003410226
 13
363.5027853548
 23
30.7003410226
  0
SOLID
  8
0
 62
7
  6
CONTINUOUS
 10
363.5027853548
 20
30.7003410226
 11
363.7340351343
 21
30.6358139324
 12
363.2137226343
 22
30.6680782357
 13
363.2137226343
 23
30.6680782357
  0
SOLID
  8
0
 62
7
  6
CONTINUOUS
 10
363.3871601343
 20
30.5712868422
 11
363.2137226343
 21
30.6680782357
 12
363.7340351343
 22
30.6358139324
 13
363.7340351343
 23
30.6358139324
  0
SOLID
  8
0
 62
7
  6
CONTINUOUS
 10
364.0809101343
 20
30.6358139363
 11
364.369972524
 21
30.7003410226
 12
364.6012229651
 22
30.6680782357
 13
364.6012229651
 23
30.6680782357
  0
SOLID
  8
0
 62
7
  6
CONTINUOUS
 10
364.6012229651
 20
30.6680782357
 11
364.543410024
 21
30.6035511455
 12
364.0809101343
 22
30.6358139363
 13
364.0809101343
 23
30.6358139363
  0
SOLID
  8
0
 62
7
  6
CONTINUOUS
 10
364.543410024
 20
30.6035511455
 11
363.3871601343
 21
30.5712868422
 12
364.0809101343
 22
30.6358139363
 13
364.0809101343
 23
30.6358139363
  0
SOLID
  8
0
 62
7
  6
CONTINUOUS
 10
363.3871601343
 20
30.5712868422
 11
363.7340351343
 21
30.6358139363
 12
364.0809101343
 22
30.6358139363
 13
364.0809101343
 23
30.6358139363
  0
SOLID
  8
0
 62
7
  6
CONTINUOUS
 10
363.3871601343
 20
30.5712868422
 11
364.543410024
 21
30.6035511455
 12
363.5027853548
 22
30.5390225267
 13
363.5027853548
 23
30.5390225267
  0
SOLID
  8
0
 62
7
  6
CONTINUOUS
 10
364.543410024
 20
30.6035511455
 11
364.369972524
 21
30.5390225267
 12
363.5027853548
 22
30.5390225267
 13
363.5027853548
 23
30.5390225267
  0
SOLID
  8
0
 62
7
  6
CONTINUOUS
 10
363.7340351343
 20
30.5067596914
 11
363.5027853548
 21
30.5390225267
 12
364.369972524
 22
30.5390225267
 13
364.369972524
 23
30.5390225267
  0
SOLID
  8
0
 62
7
  6
CONTINUOUS
 10
364.369972524
 20
30.5390225267
 11
364.0809101343
 21
30.5067596914
 12
363.7340351343
 22
30.5067596914
 13
363.7340351343
 23
30.5067596914
  0
SOLID
  8
0
 62
7
  6
CONTINUOUS
 10
368.7637229651
 20
30.6680782357
 11
368.4168479651
 21
30.6358138717
 12
368.6480977445
 22
30.7003410226
 13
368.6480977445
 23
30.7003410226
  0
SOLID
  8
0
 62
7
  6
CONTINUOUS
 10
368.6480977445
 20
30.7003410226
 11
368.4168479651
 21
30.6358138717
 12
368.5902854651
 22
30.7648680521
 13
368.5902854651
 23
30.7648680521
  0
SOLID
  8
0
 62
7
  6
CONTINUOUS
 10
368.4168479651
 20
30.6358138717
 11
368.3012227445
 21
30.7648680521
 12
368.5902854651
 22
30.7648680521
 13
368.5902854651
 23
30.7648680521
  0
SOLID
  8
0
 62
7
  6
CONTINUOUS
 10
368.7637229651
 20
30.6680782357
 11
369.1105979651
 21
30.6358138717
 12
368.4168479651
 22
30.6358138717
 13
368.4168479651
 23
30.6358138717
  0
SOLID
  8
0
 62
7
  6
CONTINUOUS
 10
365.4684104651
 20
30.5067597521
 11
365.4684104651
 21
31.5391977439
 12
365.757472524
 22
30.5067597521
 13
365.757472524
 23
31.5391977439
  0
ENDBLK
  8
0
  6
BYBLOCK
 62
0
  0
BLOCK
  8
0
 62
2
  6
CONTINUOUS
  2
SYMBOL_0_BL0
 70
64
 10
240.8592468615
 20
19.762288695
  0
TEXT
  8
0
 62
7
  6
CONTINUOUS
 10
227.1239507038
 20
19.1357028027
  7
TEXTSTYLE_3
 40
2.7338706658
  1
Ammeraal Beltech
 41
1.0
 51
15.0
 72
0
  0
TEXT
  8
0
 62
7
  6
CONTINUOUS
 10
237.9247515296
 20
16.8621661299
  7
TEXTSTYLE_4
 40
1.0935482663
  1
Innovation & Service in Belting
 41
1.0
 72
0
  0
LINE
  8
0
 62
7
  6
CONTINUOUS
 10
221.0994100525
 20
19.9022961113
 11
221.8775620458
 21
23.5632134089
  0
LINE
  8
0
 62
7
  6
CONTINUOUS
 10
231.9727303357
 20
27.2266073205
 11
222.3653797889
 21
24.1049898993
  0
LINE
  8
0
 62
7
  6
CONTINUOUS
 10
221.3246933848
 20
19.2089453082
 11
228.8317686459
 21
12.4495443822
  0
LINE
  8
0
 62
7
  6
CONTINUOUS
 10
221.5872277955
 20
20.4440726016
 11
232.3954971607
 21
23.9558922005
  0
LINE
  8
0
 62
7
  6
CONTINUOUS
 10
232.3912920235
 20
13.6061036368
 11
223.9458323548
 21
21.2104296785
  0
LINE
  8
0
 62
7
  6
CONTINUOUS
 10
232.9111147433
 20
26.3816822048
 11
231.9345552061
 21
21.7873308023
  0
LINE
  8
0
 62
7
  6
CONTINUOUS
 10
231.2347532584
 20
18.4950214885
 11
230.5483050469
 21
15.2655365641
  0
LINE
  8
0
 62
7
  6
CONTINUOUS
 10
233.5922108419
 20
13.9963058145
 11
234.5484423775
 21
18.4950214885
  0
LINE
  8
0
 62
7
  6
CONTINUOUS
 10
235.2482443252
 20
21.7873308023
 11
235.6924861276
 21
23.8773241617
  0
LINE
  8
0
 62
7
  6
CONTINUOUS
 10
229.5448697213
 20
12.2979700695
 11
233.1043930989
 21
13.4545293241
  0
LINE
  8
0
 62
7
  6
CONTINUOUS
 10
232.685831411
 20
27.0750330078
 11
235.4672027953
 21
24.5706749648
  0
ARC
  8
0
 62
7
  6
CONTINUOUS
 10
222.5906631212
 20
23.4116390962
 40
0.7290321776
 50
108.0
 51
168.0
  0
ARC
  8
0
 62
7
  6
CONTINUOUS
 10
232.198013668
 20
26.5332565175
 40
0.7290321776
 50
348.0
 51
108.0
  0
ARC
  8
0
 62
7
  6
CONTINUOUS
 10
234.9793850522
 20
24.0288984744
 40
0.7290321776
 50
348.0
 51
48.0
  0
ARC
  8
0
 62
7
  6
CONTINUOUS
 10
229.319586389
 20
12.9913208726
 40
0.7290321776
 50
228.0
 51
288.0
  0
ARC
  8
0
 62
7
  6
CONTINUOUS
 10
221.8125111278
 20
19.7507217986
 40
0.7290321776
 50
108.0
 51
228.0
  0
ARC
  8
0
 62
7
  6
CONTINUOUS
 10
232.8791097665
 20
14.1478801272
 40
0.7290321776
 50
228.0
 51
348.0
  0
ENDBLK
  8
0
  6
BYBLOCK
 62
0
  0
ENDSEC
  0
SECTION
  2
ENTITIES
  0
TEXT
  8
0
 62
5
  6
CONTINUOUS
 10
304.937007874
 20
25.636
  7
TEXTSTYLE_2
 40
2.8
  1
Scale :
 41
0.6
 51
0.000019
 72
0
  0
TEXT
  8
0
 62
5
  6
CONTINUOUS
 10
324.937007874
 20
25.636
  7
TEXTSTYLE_2
 40
2.8
  1
Belt type:
 41
0.6
 51
0.000019
 72
0
  0
INSERT
  8
0
 62
2
  6
CONTINUOUS
  2
SYMBOL_0_BL0
 10
240.8592468615
 20
19.762288695
  0
INSERT
  8
0
 62
2
  6
CONTINUOUS
  2
SYMBOL_5_BL1
 10
382.7840918555
 20
35.5067593403
  0
LINE
  8
0
 62
2
  6
CONTINUOUS
 10
218.937007874
 20
30.0
 11
408.937007874
 21
30.0
  0
LINE
  8
0
 62
2
  6
CONTINUOUS
 10
218.937007874
 20
30.0
 11
218.937007874
 21
10.0
  0
LINE
  8
0
 62
2
  6
CONTINUOUS
 10
218.937007874
 20
10.0
 11
408.937007874
 21
10.0
  0
LINE
  8
0
 62
2
  6
CONTINUOUS
 10
303.937007874
 20
30.0
 11
303.937007874
 21
10.0
  0
LINE
  8
0
 62
2
  6
CONTINUOUS
 10
323.937007874
 20
30.0
 11
323.937007874
 21
10.0
  0
LINE
  8
0
 62
2
  6
CONTINUOUS
 10
408.937007874
 20
30.0
 11
408.937007874
 21
10.0
  0
TEXT
  8
0
 62
5
  6
CONTINUOUS
 10
221.937007874
 20
23.303
  7
TEXTSTYLE_5
 40
1.52
  1
                                                                     Ammeraal Beltech Modular A/S
 41
1.0
 72
0
  0
TEXT
  8
0
 62
5
  6
CONTINUOUS
 10
221.937007874
 20
20.595
  7
TEXTSTYLE_5
 40
1.5
  1
                                                                      Hjulmagervej 21, 7100 Vejle,  DK
 41
1.0
 72
0
  0
TEXT
  8
0
 62
5
  6
CONTINUOUS
 10
221.937007874
 20
17.881
  7
TEXTSTYLE_5
 40
1.495
  1
                                                                      tel: 
 41
1.0
 72
0
  0
TEXT
  8
0
 62
5
  6
CONTINUOUS
 10
266.9239544389
 20
17.881
  7
TEXTSTYLE_5
 40
1.51
  1
+45 75723100     fax: +45 75723348
 41
1.0
 72
0
  0
TEXT
  8
0
 62
5
  6
CONTINUOUS
 10
221.937007874
 20
15.177
  7
TEXTSTYLE_5
 40
1.5
  1
                                                                      admin@unichains.dk  www.unichains.com
 41
1.0
 72
0
  0
TEXT
  8
0
 62
5
  6
CONTINUOUS
 10
308.687007874
 20
13.75
  7
TEXTSTYLE_6
 40
5.0
  1
1:1
 41
0.7
 72
1
 11
313.937007874
 21
13.75
  0
TEXT
  8
0
 62
5
  6
CONTINUOUS
 10
326.937007874
 20
13.75
  7
TEXTSTYLE_7
 40
7.5
  1
Sprocket Z10
 41
0.6361111111
 72
0
  0
LINE
  8
0
 62
7
  6
CONTINUOUS
 10
0.0
 20
0.0
 11
0.0
 21
297.0
  0
LINE
  8
0
 62
7
  6
CONTINUOUS
 10
8.937007874
 20
10.0
 11
8.937007874
 21
287.0
  0
LINE
  8
0
 62
7
  6
CONTINUOUS
 10
0.0
 20
0.0
 11
420.0
 21
0.0
  0
LINE
  8
0
 62
7
  6
CONTINUOUS
 10
408.937007874
 20
10.0
 11
8.937007874
 21
10.0
  0
LINE
  8
0
 62
7
  6
CONTINUOUS
 10
218.937007874
 20
30.0
 11
408.937007874
 21
30.0
  0
LINE
  8
0
 62
7
  6
CONTINUOUS
 10
210.0
 20
297.0
 11
210.0
 21
292.0
  0
LINE
  8
0
 62
7
  6
CONTINUOUS
 10
210.0
 20
0.0
 11
210.0
 21
5.0
  0
LINE
  8
0
 62
7
  6
CONTINUOUS
 10
8.937007874
 20
287.0
 11
408.937007874
 21
287.0
  0
LINE
  8
0
 62
7
  6
CONTINUOUS
 10
0.0
 20
297.0
 11
420.0
 21
297.0
  0
LINE
  8
0
 62
7
  6
CONTINUOUS
 10
408.937007874
 20
287.0
 11
408.937007874
 21
10.0
  0
LINE
  8
0
 62
7
  6
CONTINUOUS
 10
420.0
 20
0.0
 11
420.0
 21
297.0
  0
LINE
  8
0
 62
9
  6
CONTINUOUS
 10
26.4757477364
 20
178.67792462
 11
27.0618444291
 21
180.0586819002
  0
LINE
  8
0
 62
9
  6
CONTINUOUS
 10
28.2262093529
 20
177.9348977471
 11
28.8123060456
 21
179.3156550273
  0
LINE
  8
0
 62
9
  6
CONTINUOUS
 10
53.8659181211
 20
233.8750017441
 11
55.1516690721
 21
234.6475588565
  0
LINE
  8
0
 62
9
  6
CONTINUOUS
 10
54.8453310789
 20
232.2449848537
 11
56.1310820299
 21
233.0175419661
  0
LINE
  8
0
 62
9
  6
CONTINUOUS
 10
141.751742078
 20
65.8238129233
 11
140.2574500308
 21
65.9545465374
  0
LINE
  8
0
 62
9
  6
CONTINUOUS
 10
141.9174802398
 20
67.7182087812
 11
140.4231881926
 21
67.8489423953
  0
LINE
  8
0
 62
9
  6
CONTINUOUS
 10
80.792174071
 20
74.8165780789
 11
79.6601097007
 21
75.8006666224
  0
LINE
  8
0
 62
9
  6
CONTINUOUS
 10
82.0397570078
 20
76.2517580748
 11
80.9076926375
 21
77.2358466183
  0
LINE
  8
0
 62
9
  6
CONTINUOUS
 10
36.7606623194
 20
117.9230129769
 11
36.4232357379
 21
119.3845680741
  0
LINE
  8
0
 62
9
  6
CONTINUOUS
 10
38.6135557532
 20
118.3507871323
 11
38.2761291717
 21
119.8123422295
  0
LINE
  8
0
 62
9
  6
CONTINUOUS
 10
43.0604332189
 20
187.36972323
 11
42.5969077274
 21
185.9431384556
  0
LINE
  8
0
 62
9
  6
CONTINUOUS
 10
43.5359614771
 20
187.2152147328
 11
43.0724359854
 21
185.7886299584
  0
LINE
  8
0
 62
9
  6
CONTINUOUS
 10
72.3921215617
 20
231.1585809907
 11
71.1785960701
 21
230.2769031122
  0
LINE
  8
0
 62
9
  6
CONTINUOUS
 10
72.6860141878
 20
230.7540724935
 11
71.4724886962
 21
229.8723946151
  0
LINE
  8
0
 62
9
  6
CONTINUOUS
 10
128.3604007112
 20
78.91087264
 11
129.8604007112
 21
78.91087264
  0
LINE
  8
0
 62
9
  6
CONTINUOUS
 10
128.3604007112
 20
79.41087264
 11
129.8604007112
 21
79.4108726399
  0
LINE
  8
0
 62
9
  6
CONTINUOUS
 10
77.6507320251
 20
93.27546476
 11
78.8642575167
 21
92.3937868816
  0
LINE
  8
0
 62
9
  6
CONTINUOUS
 10
77.9446246513
 20
93.6799732572
 11
79.1581501428
 21
92.7982953787
  0
LINE
  8
0
 62
9
  6
CONTINUOUS
 10
45.0690436824
 20
134.7030593047
 11
45.5325691739
 21
133.2764745302
  0
LINE
  8
0
 62
9
  6
CONTINUOUS
 10
45.5445719405
 20
134.8575678018
 11
46.008097432
 21
133.4309830274
  0
LINE
  8
0
 62
7
  6
CONTINUOUS
 10
36.63109017
 20
159.4920700297
 11
38.1371757891
 21
164.1273249453
  0
LINE
  8
0
 62
7
  6
CONTINUOUS
 10
46.0561084984
 20
188.4992937767
 11
56.2536693128
 21
219.8841588144
  0
LINE
  8
0
 62
9
  6
CONTINUOUS
 10
47.4826932728
 20
188.0357682851
 11
57.6802540872
 21
219.4206333229
  0
LINE
  8
0
 62
7
  6
CONTINUOUS
 10
50.8046003527
 20
212.3841588144
 11
54.7475836936
 21
215.2489038988
  0
LINE
  8
0
 62
7
  6
CONTINUOUS
 10
75.4796186812
 20
230.3116090093
 11
102.1771794955
 21
249.708522335
  0
LINE
  8
0
 62
9
  6
CONTINUOUS
 10
76.3612965596
 20
229.0980835178
 11
103.058857374
 21
248.4949968434
  0
LINE
  8
0
 62
7
  6
CONTINUOUS
 10
156.8604007112
 20
81.41087264
 11
151.9866052677
 21
81.41087264
  0
LINE
  8
0
 62
7
  6
CONTINUOUS
 10
126.3604007112
 20
81.41087264
 11
93.3604007112
 21
81.41087264
  0
LINE
  8
0
 62
9
  6
CONTINUOUS
 10
126.3604007112
 20
82.91087264
 11
93.3604007112
 21
82.91087264
  0
LINE
  8
0
 62
7
  6
CONTINUOUS
 10
102.1771794955
 20
78.5461275556
 11
98.2341961547
 21
81.41087264
  0
LINE
  8
0
 62
7
  6
CONTINUOUS
 10
77.5021611671
 20
96.4735777505
 11
50.8046003527
 21
115.8704910762
  0
LINE
  8
0
 62
9
  6
CONTINUOUS
 10
78.3838390455
 20
97.6871032421
 11
51.6862782312
 21
117.0840165677
  0
LINE
  8
0
 62
7
  6
CONTINUOUS
 10
56.2536693128
 20
108.3704910762
 11
54.7475836936
 21
113.0057459918
  0
LINE
  8
0
 62
7
  6
CONTINUOUS
 10
46.8286509843
 20
137.3777148232
 11
36.63109017
 21
168.7625798609
  0
LINE
  8
0
 62
9
  6
CONTINUOUS
 10
48.2552357588
 20
137.8412403147
 11
38.0576749444
 21
169.2261053525
  0
LINE
  8
0
 62
7
  6
CONTINUOUS
 10
63.9857082601
 20
153.299704635
 11
63.9845962931
 21
152.5554880814
  0
LINE
  8
0
 62
7
  6
CONTINUOUS
 10
66.5911487312
 20
145.8067078075
 11
66.5954267358
 21
146.2688440711
  0
LINE
  8
0
 62
7
  6
CONTINUOUS
 10
69.4197219986
 20
146.7404994117
 11
69.4240000032
 21
147.2026356753
  0
LINE
  8
0
 62
7
  6
CONTINUOUS
 10
64.8314311203
 20
152.8759388232
 11
64.8904848161
 21
153.3343064579
  0
LINE
  8
0
 62
7
  6
CONTINUOUS
 10
67.7507838345
 20
153.4676931807
 11
67.8098375303
 21
153.9260608154
  0
LINE
  8
0
 62
7
  6
CONTINUOUS
 10
79.7990381587
 20
202.5249049268
 11
79.6398958706
 21
202.0910132818
  0
LINE
  8
0
 62
7
  6
CONTINUOUS
 10
80.2432733892
 20
201.4159166817
 11
80.5857429242
 21
202.0766689829
  0
LINE
  8
0
 62
7
  6
CONTINUOUS
 10
87.4636531977
 20
212.5291570115
 11
87.7230370619
 21
212.9116596109
  0
LINE
  8
0
 62
7
  6
CONTINUOUS
 10
88.9894442939
 20
210.5086236305
 11
89.2488281581
 21
210.8911262299
  0
LINE
  8
0
 62
7
  6
CONTINUOUS
 10
77.2314281158
 20
203.8498041228
 11
75.031568288
 21
201.1275593253
  0
LINE
  8
0
 62
7
  6
CONTINUOUS
 10
76.1607341966
 20
201.3400652979
 11
77.9022926909
 21
203.4951792242
  0
LINE
  8
0
 62
7
  6
CONTINUOUS
 10
79.6398958706
 20
202.0910132818
 11
77.8983373763
 21
199.9358993555
  0
LINE
  8
0
 62
7
  6
CONTINUOUS
 10
78.5933785183
 20
199.3742330835
 11
80.2432733892
 21
201.4159166817
  0
LINE
  8
0
 62
7
  6
CONTINUOUS
 10
87.390657356
 20
213.5938192901
 11
86.8985195322
 21
213.03555423
  0
LINE
  8
0
 62
7
  6
CONTINUOUS
 10
88.9164484522
 20
211.5732859091
 11
88.4243106283
 21
211.015020849
  0
LINE
  8
0
 62
7
  6
CONTINUOUS
 10
82.3019150293
 20
209.2649130898
 11
81.4629748114
 21
208.4541849988
  0
LINE
  8
0
 62
7
  6
CONTINUOUS
 10
86.0346866541
 20
206.4515522579
 11
84.1470639632
 21
204.6274070946
  0
LINE
  8
0
 62
7
  6
CONTINUOUS
 10
84.4561831779
 20
204.0976660159
 11
86.5535385231
 21
206.1244908824
  0
LINE
  8
0
 62
7
  6
CONTINUOUS
 10
77.8055780314
 20
204.3233343334
 11
77.2314281158
 21
203.8498041228
  0
LINE
  8
0
 62
7
  6
CONTINUOUS
 10
87.85617593
 20
213.9453522576
 11
87.390657356
 21
213.5938192901
  0
LINE
  8
0
 62
7
  6
CONTINUOUS
 10
87.7230370619
 20
212.9116596109
 11
88.4213095956
 21
213.4389550392
  0
LINE
  8
0
 62
7
  6
CONTINUOUS
 10
89.8908611595
 20
213.4288916631
 11
90.472751386
 21
213.8683018381
  0
LINE
  8
0
 62
7
  6
CONTINUOUS
 10
89.4983386786
 20
212.0126960841
 11
88.9164484522
 21
211.5732859091
  0
LINE
  8
0
 62
7
  6
CONTINUOUS
 10
89.2488281581
 20
210.8911262299
 11
90.063482999
 21
211.5063069115
  0
LINE
  8
0
 62
7
  6
CONTINUOUS
 10
91.8585312402
 20
209.1292089582
 11
91.0438763993
 21
208.5140282765
  0
LINE
  8
0
 62
7
  6
CONTINUOUS
 10
77.9022926909
 20
203.4951792242
 11
78.2931153597
 21
203.7418487786
  0
LINE
  8
0
 62
7
  6
CONTINUOUS
 10
88.5278185591
 20
214.2659075474
 11
87.85617593
 21
213.9453522576
  0
LINE
  8
0
 62
7
  6
CONTINUOUS
 10
90.1699919625
 20
212.3332594197
 11
89.4983386786
 21
212.0126960841
  0
LINE
  8
0
 62
7
  6
CONTINUOUS
 10
88.4213095956
 20
213.4389550392
 11
88.8601982651
 21
213.5837478682
  0
LINE
  8
0
 62
7
  6
CONTINUOUS
 10
90.063482999
 20
211.5063069115
 11
90.5023716685
 21
211.6510997405
  0
LINE
  8
0
 62
7
  6
CONTINUOUS
 10
113.2396212741
 20
105.3416093147
 11
113.8408934785
 21
105.3721349748
  0
LINE
  8
0
 62
7
  6
CONTINUOUS
 10
113.9588138139
 20
105.9560925372
 11
113.3575416094
 21
105.9255668771
  0
LINE
  8
0
 62
7
  6
CONTINUOUS
 10
117.1587462049
 20
104.6494689
 11
117.884351823
 21
104.5774916978
  0
LINE
  8
0
 62
7
  6
CONTINUOUS
 10
120.7867736206
 20
104.2895829558
 11
121.5123790829
 21
104.2176057691
  0
LINE
  8
0
 62
7
  6
CONTINUOUS
 10
119.6020897267
 20
108.5977784548
 11
120.1825741796
 21
108.5401966971
  0
LINE
  8
0
 62
7
  6
CONTINUOUS
 10
112.6678291534
 20
105.4570730452
 11
113.2396212741
 21
105.3416093147
  0
LINE
  8
0
 62
7
  6
CONTINUOUS
 10
114.5261529321
 20
105.081816045
 11
115.2408928784
 21
104.9374864232
  0
LINE
  8
0
 62
7
  6
CONTINUOUS
 10
108.5277008565
 20
104.1708822462
 11
109.2316096485
 21
103.9806296912
  0
LINE
  8
0
 62
7
  6
CONTINUOUS
 10
109.4259101811
 20
104.6995154545
 11
108.7220013891
 21
104.8897680095
  0
LINE
  8
0
 62
7
  6
CONTINUOUS
 10
109.1106025633
 20
106.327539939
 11
109.8145113553
 21
106.137287384
  0
LINE
  8
0
 62
7
  6
CONTINUOUS
 10
85.3382850617
 20
120.0175467514
 11
85.7670803526
 21
119.8451436598
  0
LINE
  8
0
 62
7
  6
CONTINUOUS
 10
113.3575416094
 20
105.9255668771
 11
112.8152295726
 21
106.1870199982
  0
LINE
  8
0
 62
7
  6
CONTINUOUS
 10
94.2651365583
 20
110.0282985505
 11
95.0447275353
 21
109.6309788951
  0
LINE
  8
0
 62
7
  6
CONTINUOUS
 10
98.6828182656
 20
107.7768207557
 11
99.4624092426
 21
107.3795011003
  0
LINE
  8
0
 62
7
  6
CONTINUOUS
 10
112.2684653513
 20
105.6896601924
 11
112.6678291534
 21
105.4570730452
  0
LINE
  8
0
 62
7
  6
CONTINUOUS
 10
91.8052669869
 20
111.5587164476
 11
92.5309483698
 21
111.0698283925
  0
LINE
  8
0
 62
7
  6
CONTINUOUS
 10
91.58867597
 20
119.0674854438
 11
95.2170815006
 21
116.6230461006
  0
LINE
  8
0
 62
7
  6
CONTINUOUS
 10
83.9350893047
 20
117.4918759313
 11
86.5884335916
 21
115.2093851658
  0
LINE
  8
0
 62
7
  6
CONTINUOUS
 10
86.5078610501
 20
116.4574573816
 11
84.4072985099
 21
118.2644277865
  0
LINE
  8
0
 62
7
  6
CONTINUOUS
 10
85.7670803526
 20
119.8451436598
 11
87.8676428928
 21
118.0381732549
  0
LINE
  8
0
 62
7
  6
CONTINUOUS
 10
88.4504064231
 20
118.7156227793
 11
86.3498438828
 21
120.5225931842
  0
LINE
  8
0
 62
7
  6
CONTINUOUS
 10
87.8067529125
 20
122.2162172325
 11
89.9073154528
 21
120.4092468275
  0
LINE
  8
0
 62
7
  6
CONTINUOUS
 10
83.4794373434
 20
118.0803023693
 11
83.9350893047
 21
117.4918759313
  0
LINE
  8
0
 62
7
  6
CONTINUOUS
 10
68.2925708547
 20
146.829119086
 11
68.5711501373
 21
146.4603619697
  0
LINE
  8
0
 62
7
  6
CONTINUOUS
 10
69.8525529685
 20
137.5500551301
 11
69.4093617158
 21
138.1479269926
  0
LINE
  8
0
 62
7
  6
CONTINUOUS
 10
72.4775370709
 20
130.8419432038
 11
75.8228977695
 21
126.0632076374
  0
LINE
  8
0
 62
7
  6
CONTINUOUS
 10
76.4329492784
 20
126.4902750726
 11
73.5057581886
 21
130.6716693768
  0
LINE
  8
0
 62
7
  6
CONTINUOUS
 10
77.479960042
 20
134.3438965913
 11
80.3235164443
 21
130.2819716334
  0
LINE
  8
0
 62
7
  6
CONTINUOUS
 10
68.7344776255
 20
137.8331558021
 11
69.2393106364
 21
137.1031211395
  0
LINE
  8
0
 62
7
  6
CONTINUOUS
 10
84.4072985099
 20
118.2644277865
 11
84.1727577291
 21
118.6626473863
  0
LINE
  8
0
 62
7
  6
CONTINUOUS
 10
86.3498438828
 20
120.5225931842
 11
86.115303102
 21
120.920812784
  0
LINE
  8
0
 62
7
  6
CONTINUOUS
 10
66.6420966082
 20
153.6893591055
 11
66.8749781429
 21
153.2901668983
  0
LINE
  8
0
 62
7
  6
CONTINUOUS
 10
70.7203232789
 20
133.9261140985
 11
71.1558114602
 21
133.1671839015
  0
LINE
  8
0
 62
7
  6
CONTINUOUS
 10
65.7882930519
 20
145.3880902485
 11
66.885498164
 21
142.0645167286
  0
LINE
  8
0
 62
7
  6
CONTINUOUS
 10
67.4597687473
 20
143.1755475506
 11
66.5911487312
 21
145.8067078075
  0
LINE
  8
0
 62
7
  6
CONTINUOUS
 10
68.5711501373
 20
146.4603619697
 11
69.4397701534
 21
143.8292017128
  0
LINE
  8
0
 62
7
  6
CONTINUOUS
 10
70.2883420147
 20
144.1093391549
 11
69.4197219986
 21
146.7404994117
  0
LINE
  8
0
 62
7
  6
CONTINUOUS
 10
71.5411519492
 20
147.4408431149
 11
72.4097719653
 21
144.809682858
  0
LINE
  8
0
 62
7
  6
CONTINUOUS
 10
68.4995982506
 20
138.6890989409
 11
68.7344776255
 21
137.8331558021
  0
LINE
  8
0
 62
7
  6
CONTINUOUS
 10
69.4093617158
 20
138.1479269926
 11
69.2361240992
 21
138.8717073312
  0
LINE
  8
0
 62
7
  6
CONTINUOUS
 10
63.9845962931
 20
152.5554880814
 11
64.6799076486
 21
149.1252487138
  0
LINE
  8
0
 62
7
  6
CONTINUOUS
 10
65.3818855013
 20
150.1603348381
 11
64.8314311203
 21
152.8759388232
  0
LINE
  8
0
 62
7
  6
CONTINUOUS
 10
66.8749781429
 20
153.2901668983
 11
67.4254325239
 21
150.5745629132
  0
LINE
  8
0
 62
7
  6
CONTINUOUS
 10
68.3012382155
 20
150.7520891956
 11
67.7507838345
 21
153.4676931807
  0
LINE
  8
0
 62
7
  6
CONTINUOUS
 10
69.9402983701
 20
153.9115089488
 11
70.4907527511
 21
151.1959049637
  0
LINE
  8
0
 62
7
  6
CONTINUOUS
 10
65.7011386923
 20
146.127186746
 11
65.7882930519
 21
145.3880902485
  0
LINE
  8
0
 62
7
  6
CONTINUOUS
 10
68.5963142702
 20
139.5387877557
 11
68.4995982506
 21
138.6890989409
  0
LINE
  8
0
 62
7
  6
CONTINUOUS
 10
75.2165521388
 20
139.0863733695
 11
75.3132681938
 21
139.9360622009
  0
LINE
  8
0
 62
7
  6
CONTINUOUS
 10
68.7711289766
 20
147.7549802174
 11
68.7211347899
 21
147.4313240707
  0
LINE
  8
0
 62
7
  6
CONTINUOUS
 10
69.2361240992
 20
138.8717073312
 11
69.3211496389
 21
139.3941102577
  0
LINE
  8
0
 62
7
  6
CONTINUOUS
 10
74.5767422625
 20
139.753453772
 11
74.4917167229
 21
139.2310508455
  0
LINE
  8
0
 62
7
  6
CONTINUOUS
 10
67.22707771
 20
154.5519330566
 11
67.1390531498
 21
154.2364898814
  0
LINE
  8
0
 62
7
  6
CONTINUOUS
 10
87.2940217362
 20
212.027799527
 11
87.4636531977
 21
212.5291570115
  0
LINE
  8
0
 62
7
  6
CONTINUOUS
 10
88.4243106283
 20
211.015020849
 11
88.0850477052
 21
210.0123058799
  0
LINE
  8
0
 62
7
  6
CONTINUOUS
 10
88.8198128323
 20
210.007266146
 11
88.9894442939
 21
210.5086236305
  0
LINE
  8
0
 62
7
  6
CONTINUOUS
 10
65.9425557091
 20
146.8211886132
 11
65.7011386923
 21
146.127186746
  0
LINE
  8
0
 62
7
  6
CONTINUOUS
 10
86.8985195322
 20
213.03555423
 11
86.5858758588
 21
212.2395713536
  0
LINE
  8
0
 62
7
  6
CONTINUOUS
 10
92.6830594798
 20
209.0053223122
 11
92.9956924747
 21
209.8012971739
  0
LINE
  8
0
 62
7
  6
CONTINUOUS
 10
64.3077249959
 20
153.9601786992
 11
63.9857082601
 21
153.299704635
  0
LINE
  8
0
 62
7
  6
CONTINUOUS
 10
92.1179151044
 20
209.5117115575
 11
91.8585312402
 21
209.1292089582
  0
LINE
  8
0
 62
7
  6
CONTINUOUS
 10
80.4760578831
 20
196.7278396696
 11
81.0260228401
 21
197.408400869
  0
LINE
  8
0
 62
7
  6
CONTINUOUS
 10
92.190911009
 20
208.4470491957
 11
92.6830594798
 21
209.0053223122
  0
LINE
  8
0
 62
7
  6
CONTINUOUS
 10
84.6494718768
 20
201.7990590296
 11
85.2786794404
 21
202.4071074174
  0
LINE
  8
0
 62
7
  6
CONTINUOUS
 10
88.2149846044
 20
205.2446696529
 11
88.844192168
 21
205.8527180407
  0
LINE
  8
0
 62
7
  6
CONTINUOUS
 10
91.6090207825
 20
208.0076390208
 11
92.190911009
 21
208.4470491957
  0
LINE
  8
0
 62
7
  6
CONTINUOUS
 10
90.9373781456
 20
207.6870837414
 11
91.6090207825
 21
208.0076390208
  0
LINE
  8
0
 62
7
  6
CONTINUOUS
 10
91.0438763993
 20
208.5140282765
 11
90.6049877298
 21
208.3692354476
  0
LINE
  8
0
 62
7
  6
CONTINUOUS
 10
119.0069037544
 20
108.5071513788
 11
119.6020897267
 21
108.5977784548
  0
LINE
  8
0
 62
7
  6
CONTINUOUS
 10
119.6608966193
 20
109.1906135513
 11
119.0657106508
 21
109.0999865142
  0
LINE
  8
0
 62
7
  6
CONTINUOUS
 10
120.2413810722
 20
109.1330317936
 11
119.6608966193
 21
109.1906135513
  0
LINE
  8
0
 62
7
  6
CONTINUOUS
 10
118.0645646332
 20
109.3489633591
 11
117.3389590151
 21
109.4209405613
  0
LINE
  8
0
 62
7
  6
CONTINUOUS
 10
116.1842556435
 20
109.6091473312
 11
115.4695156972
 21
109.753476953
  0
LINE
  8
0
 62
7
  6
CONTINUOUS
 10
112.8964523813
 20
110.2730634925
 11
112.1817128439
 21
110.4173930317
  0
LINE
  8
0
 62
7
  6
CONTINUOUS
 10
85.395126046
 20
120.7544911134
 11
85.0768850801
 21
120.8317918743
  0
LINE
  8
0
 62
7
  6
CONTINUOUS
 10
111.0580348731
 20
110.7381566722
 11
110.3541260811
 21
110.9284092272
  0
LINE
  8
0
 62
7
  6
CONTINUOUS
 10
120.8071636982
 20
108.9272412722
 11
120.2413810722
 21
109.1330317936
  0
LINE
  8
0
 62
7
  6
CONTINUOUS
 10
87.3779576216
 20
122.3886203241
 11
87.8067529125
 21
122.2162172325
  0
LINE
  8
0
 62
7
  6
CONTINUOUS
 10
102.6409664861
 20
113.6162289162
 11
101.8613755091
 21
114.0135485716
  0
LINE
  8
0
 62
7
  6
CONTINUOUS
 10
98.2232847788
 20
115.867706711
 11
97.4436938018
 21
116.2650263665
  0
LINE
  8
0
 62
7
  6
CONTINUOUS
 10
88.5000708358
 20
122.7985645052
 11
87.850164356
 21
123.1611744252
  0
LINE
  8
0
 62
7
  6
CONTINUOUS
 10
70.3074347011
 20
137.2794691559
 11
69.8525529685
 21
137.5500551301
  0
LINE
  8
0
 62
7
  6
CONTINUOUS
 10
73.5054316606
 20
141.3456919473
 11
73.9603133932
 21
141.0751059731
  0
LINE
  8
0
 62
7
  6
CONTINUOUS
 10
120.1825741796
 20
108.5401966971
 11
120.7336550799
 21
108.1861973756
  0
LINE
  8
0
 62
7
  6
CONTINUOUS
 10
69.2393106364
 20
137.1031211395
 11
69.9524555253
 21
136.6311577532
  0
LINE
  8
0
 62
7
  6
CONTINUOUS
 10
74.573555808
 20
141.5220400022
 11
73.8604108837
 21
141.994003372
  0
LINE
  8
0
 62
7
  6
CONTINUOUS
 10
96.4420528109
 20
116.875279456
 11
92.0879658974
 21
119.8086068543
  0
LINE
  8
0
 62
7
  6
CONTINUOUS
 10
112.8152295726
 20
106.1870199982
 11
112.5588140051
 21
106.3907411715
  0
LINE
  8
0
 62
7
  6
CONTINUOUS
 10
91.1534151228
 20
120.5160737397
 11
88.5000708358
 21
122.7985645052
  0
LINE
  8
0
 62
7
  6
CONTINUOUS
 10
68.7211347899
 20
147.4313240707
 11
68.4882716894
 21
147.66160107
  0
LINE
  8
0
 62
7
  6
CONTINUOUS
 10
111.8985816329
 20
106.0682367302
 11
112.2684653513
 21
105.6896601924
  0
LINE
  8
0
 62
7
  6
CONTINUOUS
 10
67.1390531498
 20
154.2364898814
 11
66.9351424795
 21
154.4927576292
  0
LINE
  8
0
 62
7
  6
CONTINUOUS
 10
71.2625726666
 20
147.8096002312
 11
71.5411519492
 21
147.4408431149
  0
LINE
  8
0
 62
7
  6
CONTINUOUS
 10
73.9603133932
 20
141.0751059731
 11
74.4035046459
 21
140.4772341106
  0
LINE
  8
0
 62
7
  6
CONTINUOUS
 10
81.5573826367
 20
130.0776420071
 11
78.2120219381
 21
134.8563775734
  0
LINE
  8
0
 62
7
  6
CONTINUOUS
 10
75.0783888308
 20
140.7920053452
 11
74.573555808
 21
141.5220400022
  0
LINE
  8
0
 62
7
  6
CONTINUOUS
 10
69.7074168354
 20
154.310701156
 11
69.9402983701
 21
153.9115089488
  0
LINE
  8
0
 62
7
  6
CONTINUOUS
 10
77.2272530366
 20
136.6510893515
 11
76.7917648553
 21
137.4100195485
  0
LINE
  8
0
 62
7
  6
CONTINUOUS
 10
72.4354400917
 20
147.5825004727
 11
72.0654284326
 21
148.2282178187
  0
LINE
  8
0
 62
7
  6
CONTINUOUS
 10
70.8450750283
 20
153.9461107924
 11
70.554251752
 21
154.6311519159
  0
LINE
  8
0
 62
7
  6
CONTINUOUS
 10
85.2711395902
 20
121.0576083824
 11
85.395126046
 21
120.7544911134
  0
LINE
  8
0
 62
7
  6
CONTINUOUS
 10
73.5326452037
 20
144.2589269528
 11
72.4354400917
 21
147.5825004727
  0
LINE
  8
0
 62
7
  6
CONTINUOUS
 10
75.3132681938
 20
139.9360622009
 11
75.0783888308
 21
140.7920053452
  0
LINE
  8
0
 62
7
  6
CONTINUOUS
 10
74.4035046459
 20
140.4772341106
 11
74.5767422625
 21
139.753453772
  0
LINE
  8
0
 62
7
  6
CONTINUOUS
 10
83.3285942172
 20
118.7994429847
 11
83.4794373434
 21
118.0803023693
  0
LINE
  8
0
 62
7
  6
CONTINUOUS
 10
71.5403863838
 20
150.5158714249
 11
70.8450750283
 21
153.9461107924
  0
LINE
  8
0
 62
7
  6
CONTINUOUS
 10
84.1727577291
 20
118.6626473863
 11
84.1458985283
 21
119.0786729094
  0
LINE
  8
0
 62
7
  6
CONTINUOUS
 10
86.115303102
 20
120.920812784
 11
86.0884439012
 21
121.3368383071
  0
LINE
  8
0
 62
7
  6
CONTINUOUS
 10
86.5858758588
 20
212.2395713536
 11
86.5957492025
 21
211.5005040987
  0
LINE
  8
0
 62
7
  6
CONTINUOUS
 10
80.5857429242
 20
202.0766689829
 11
80.6048600633
 21
202.8112026621
  0
LINE
  8
0
 62
7
  6
CONTINUOUS
 10
83.3854352015
 20
119.5363873467
 11
83.3285942172
 21
118.7994429847
  0
LINE
  8
0
 62
7
  6
CONTINUOUS
 10
88.766563678
 20
209.5937939148
 11
88.8198128323
 21
210.007266146
  0
LINE
  8
0
 62
7
  6
CONTINUOUS
 10
92.287546566
 20
210.0130690421
 11
92.1179151044
 21
209.5117115575
  0
LINE
  8
0
 62
9
  6
CONTINUOUS
 10
111.2457862871
 20
264.2330457009
 11
110.7567019466
 21
262.8150201342
  0
LINE
  8
0
 62
7
  6
CONTINUOUS
 10
68.8163166279
 20
140.1241449203
 11
68.5963142702
 21
139.5387877557
  0
LINE
  8
0
 62
7
  6
CONTINUOUS
 10
74.9965497338
 20
138.5010161829
 11
75.2165521388
 21
139.0863733695
  0
LINE
  8
0
 62
7
  6
CONTINUOUS
 10
66.5954267358
 20
146.2688440711
 11
66.786849566
 21
146.6391897915
  0
LINE
  8
0
 62
7
  6
CONTINUOUS
 10
69.4240000032
 20
147.2026356753
 11
69.6154228334
 21
147.5729813958
  0
LINE
  8
0
 62
7
  6
CONTINUOUS
 10
64.8904848161
 20
153.3343064579
 11
65.1244769916
 21
153.6793373469
  0
LINE
  8
0
 62
7
  6
CONTINUOUS
 10
67.8098375303
 20
153.9260608154
 11
68.0438297058
 21
154.2710917043
  0
LINE
  8
0
 62
7
  6
CONTINUOUS
 10
66.3711196444
 20
147.4233935978
 11
65.9425557091
 21
146.8211886132
  0
LINE
  8
0
 62
7
  6
CONTINUOUS
 10
64.8046815375
 20
154.507309475
 11
64.3077249959
 21
153.9601786992
  0
LINE
  8
0
 62
9
  6
CONTINUOUS
 10
172.7343583519
 20
253.2639701579
 11
171.5051862933
 21
252.4042399385
  0
LINE
  8
0
 62
7
  6
CONTINUOUS
 10
84.9229168407
 20
119.9819392582
 11
85.3382850617
 21
120.0175467514
  0
LINE
  8
0
 62
7
  6
CONTINUOUS
 10
86.9625893327
 20
122.3530127518
 11
87.3779576216
 21
122.3886203241
  0
LINE
  8
0
 62
9
  6
CONTINUOUS
 10
34.1886041456
 20
120.0069241037
 11
35.688361974
 21
119.9799712532
  0
LINE
  8
0
 62
7
  6
CONTINUOUS
 10
87.850164356
 20
123.1611744252
 11
87.116557674
 21
123.2028654865
  0
LINE
  8
0
 62
7
  6
CONTINUOUS
 10
80.3235164443
 20
130.2819716334
 11
73.3316091834
 21
131.4398376131
  0
LINE
  8
0
 62
7
  6
CONTINUOUS
 10
71.1558114602
 20
133.1671839015
 11
72.4955567897
 21
132.9271331777
  0
LINE
  8
0
 62
7
  6
CONTINUOUS
 10
73.5289938924
 20
133.5201384976
 11
72.189248201
 21
133.7601890138
  0
LINE
  8
0
 62
7
  6
CONTINUOUS
 10
73.5057581886
 20
130.6716693768
 11
80.581300137
 21
129.3943340509
  0
LINE
  8
0
 62
7
  6
CONTINUOUS
 10
69.9524555253
 20
136.6311577532
 11
70.5423140759
 21
136.4235260172
  0
LINE
  8
0
 62
7
  6
CONTINUOUS
 10
73.8604108837
 20
141.994003372
 11
73.2705522858
 21
142.201635086
  0
LINE
  8
0
 62
7
  6
CONTINUOUS
 10
67.9182791106
 20
147.0127065117
 11
68.2925708547
 21
146.829119086
  0
LINE
  8
0
 62
7
  6
CONTINUOUS
 10
70.8882808235
 20
147.9931876242
 11
71.2625726666
 21
147.8096002312
  0
LINE
  8
0
 62
7
  6
CONTINUOUS
 10
66.2922183226
 20
153.9160391396
 11
66.6420966082
 21
153.6893591055
  0
LINE
  8
0
 62
7
  6
CONTINUOUS
 10
69.3575384476
 20
154.5373811693
 11
69.7074168354
 21
154.310701156
  0
LINE
  8
0
 62
7
  6
CONTINUOUS
 10
72.0654284326
 20
148.2282178187
 11
71.4582735509
 21
148.6420822316
  0
LINE
  8
0
 62
9
  6
CONTINUOUS
 10
25.6198011906
 20
181.875661999
 11
26.8172882732
 21
180.9723211514
  0
LINE
  8
0
 62
7
  6
CONTINUOUS
 10
121.2131235903
 20
108.5876373927
 11
120.8071636982
 21
108.9272412722
  0
LINE
  8
0
 62
7
  6
CONTINUOUS
 10
70.554251752
 20
154.6311519159
 11
70.0004627578
 21
155.11409969
  0
LINE
  8
0
 62
7
  6
CONTINUOUS
 10
121.6043816815
 20
108.0998247468
 11
121.2131235903
 21
108.5876373927
  0
LINE
  8
0
 62
7
  6
CONTINUOUS
 10
111.6716461492
 20
106.417947294
 11
111.8985816329
 21
106.0682367302
  0
LINE
  8
0
 62
7
  6
CONTINUOUS
 10
112.5588140051
 20
106.3907411715
 11
112.3318785214
 21
106.7404517353
  0
LINE
  8
0
 62
9
  6
CONTINUOUS
 10
55.0530256914
 20
236.9651383836
 11
55.4908426637
 21
235.5304550392
  0
LINE
  8
0
 62
7
  6
CONTINUOUS
 10
79.7506766331
 20
202.9389772892
 11
79.7990381587
 21
202.5249049268
  0
LINE
  8
0
 62
7
  6
CONTINUOUS
 10
87.3305249844
 20
211.4954724107
 11
87.2940217362
 21
212.027799527
  0
LINE
  8
0
 62
7
  6
CONTINUOUS
 10
92.2510432548
 20
210.5453962417
 11
92.287546566
 21
210.0130690421
  0
LINE
  8
0
 62
7
  6
CONTINUOUS
 10
92.9956924747
 20
209.8012971739
 11
92.9858190996
 21
210.5403644704
  0
LINE
  8
0
 62
9
  6
CONTINUOUS
 10
93.3604007112
 20
81.41087264
 11
93.3604007112
 21
82.91087264
  0
LINE
  8
0
 62
7
  6
CONTINUOUS
 10
85.3279805745
 20
121.7945527444
 11
85.2711395902
 21
121.0576083824
  0
LINE
  8
0
 62
7
  6
CONTINUOUS
 10
69.3211496389
 20
139.3941102577
 11
69.8844410707
 21
140.3004931131
  0
LINE
  8
0
 62
7
  6
CONTINUOUS
 10
74.4917167229
 20
139.2310508455
 11
73.9284255746
 21
138.3246681224
  0
LINE
  8
0
 62
7
  6
CONTINUOUS
 10
69.1996929118
 20
148.3571852021
 11
68.7711289766
 21
147.7549802174
  0
LINE
  8
0
 62
9
  6
CONTINUOUS
 10
50.8046003527
 20
115.8704910762
 11
51.6862782312
 21
117.0840165677
  0
LINE
  8
0
 62
7
  6
CONTINUOUS
 10
69.2329403837
 20
140.6402874729
 11
68.8163166279
 21
140.1241449203
  0
LINE
  8
0
 62
7
  6
CONTINUOUS
 10
67.7240342516
 20
155.0990638325
 11
67.22707771
 21
154.5519330566
  0
LINE
  8
BLANK_COSM
 62
2
  6
PHANTOM
 10
112.6107585823
 20
198.7917051215
 11
90.4460205349
 21
176.6269670742
  0
LINE
  8
BLANK_COSM
 62
2
  6
PHANTOM
 10
88.5840654754
 20
172.5022703149
 11
84.3414247883
 21
168.2596296278
  0
LINE
  8
BLANK_COSM
 62
2
  6
PHANTOM
 10
116.7354553416
 20
200.6536601811
 11
120.9780960287
 21
204.8963008682
  0
LINE
  8
0
 62
9
  6
CONTINUOUS
 10
36.63109017
 20
168.7625798609
 11
38.0576749444
 21
169.2261053525
  0
LINE
  8
0
 62
7
  6
CONTINUOUS
 10
85.0768850801
 20
120.8317918743
 11
84.356708024
 21
120.6654702037
  0
LINE
  8
0
 62
7
  6
CONTINUOUS
 10
87.116557674
 20
123.2028654865
 11
86.396380584
 21
123.0365437764
  0
LINE
  8
0
 62
7
  6
CONTINUOUS
 10
70.5423140759
 20
136.4235260172
 11
71.2055048646
 21
136.4110173693
  0
LINE
  8
0
 62
7
  6
CONTINUOUS
 10
71.3638658423
 20
137.1285375104
 11
70.3074347011
 21
137.2794691559
  0
LINE
  8
0
 62
7
  6
CONTINUOUS
 10
72.449000803
 20
141.496623725
 11
73.5054316606
 21
141.3456919473
  0
LINE
  8
0
 62
9
  6
CONTINUOUS
 10
193.9671321095
 20
108.3704910762
 11
192.5405473351
 21
108.8340165677
  0
LINE
  8
0
 62
7
  6
CONTINUOUS
 10
68.4882716894
 20
147.66160107
 11
67.7854064762
 21
147.8902894653
  0
LINE
  8
0
 62
7
  6
CONTINUOUS
 10
71.4582735509
 20
148.6420822316
 11
70.7554082881
 21
148.8707706105
  0
LINE
  8
0
 62
7
  6
CONTINUOUS
 10
66.9351424795
 20
154.4927576292
 11
66.264358099
 21
154.8031866952
  0
LINE
  8
0
 62
7
  6
CONTINUOUS
 10
70.0004627578
 20
155.11409969
 11
69.3296783262
 21
155.4245287457
  0
LINE
  8
BLANK_COSM
 62
2
  6
PHANTOM
 10
90.4460205349
 20
151.6276828164
 11
112.6107585823
 21
129.4629447691
  0
LINE
  8
BLANK_COSM
 62
2
  6
PHANTOM
 10
84.3414247883
 20
159.9950202628
 11
88.5840654754
 21
155.7523795757
  0
LINE
  8
BLANK_COSM
 62
2
  6
PHANTOM
 10
120.9780960287
 20
123.3583490224
 11
116.7354553416
 21
127.6009897095
  0
LINE
  8
0
 62
9
  6
CONTINUOUS
 10
148.0436219268
 20
78.5461275556
 11
147.1619440483
 21
79.7596530472
  0
LINE
  8
0
 62
7
  6
CONTINUOUS
 10
120.7336550799
 20
108.1861973756
 11
120.9797921305
 21
107.7127801095
  0
LINE
  8
0
 62
7
  6
CONTINUOUS
 10
80.6048600633
 20
202.8112026621
 11
80.4164817804
 21
203.5259274432
  0
LINE
  8
0
 62
7
  6
CONTINUOUS
 10
99.4624092426
 20
107.3795011003
 11
98.8090333194
 21
111.5572553664
  0
LINE
  8
0
 62
7
  6
CONTINUOUS
 10
98.1487223531
 20
111.2251299113
 11
98.6828182656
 21
107.7768207557
  0
LINE
  8
0
 62
7
  6
CONTINUOUS
 10
98.7573821782
 20
112.4193967976
 11
98.2232847788
 21
115.867706711
  0
LINE
  8
0
 62
7
  6
CONTINUOUS
 10
97.4436938018
 20
116.2650263665
 11
98.0294423424
 21
111.9545750218
  0
LINE
  8
0
 62
7
  6
CONTINUOUS
 10
108.4690593443
 20
65.8238129233
 11
108.3033211825
 21
67.7182087812
  0
LINE
  8
0
 62
7
  6
CONTINUOUS
 10
108.3033211825
 20
260.5364411094
 11
108.4690593443
 21
262.4308369673
  0
LINE
  8
0
 62
9
  6
CONTINUOUS
 10
109.7976132297
 20
260.4057074953
 11
109.9633513915
 21
262.3001033532
  0
LINE
  8
0
 62
7
  6
CONTINUOUS
 10
83.5662626417
 20
119.9702144396
 11
83.3854352015
 21
119.5363873467
  0
LINE
  8
0
 62
7
  6
CONTINUOUS
 10
84.1458985283
 20
119.0786729094
 11
84.3267262405
 21
119.5125003186
  0
LINE
  8
0
 62
7
  6
CONTINUOUS
 10
85.5088081506
 20
122.2283799955
 11
85.3279805745
 21
121.7945527444
  0
LINE
  8
0
 62
7
  6
CONTINUOUS
 10
86.0884439012
 20
121.3368383071
 11
86.2692714774
 21
121.7706655581
  0
LINE
  8
0
 62
7
  6
CONTINUOUS
 10
53.8659181211
 20
94.3796481465
 11
54.8453310789
 21
96.0096650369
  0
LINE
  8
0
 62
7
  6
CONTINUOUS
 10
74.5799258835
 20
137.9848735862
 11
74.9965497338
 21
138.5010161829
  0
LINE
  8
0
 62
7
  6
CONTINUOUS
 10
168.1810444145
 20
252.0028918158
 11
169.4286273513
 21
253.4380718117
  0
LINE
  8
0
 62
9
  6
CONTINUOUS
 10
169.3131087848
 20
251.0188032723
 11
170.5606917217
 21
252.4539832682
  0
LINE
  8
0
 62
7
  6
CONTINUOUS
 10
69.5762266361
 20
140.9613192137
 11
69.2329403837
 21
140.6402874729
  0
LINE
  8
0
 62
7
  6
CONTINUOUS
 10
66.749689393
 20
147.7019424358
 11
66.3711196444
 21
147.4233935978
  0
LINE
  8
0
 62
7
  6
CONTINUOUS
 10
66.786849566
 20
146.6391897915
 11
67.1654197108
 21
146.9177387603
  0
LINE
  8
0
 62
7
  6
CONTINUOUS
 10
69.5782628585
 20
148.6357341054
 11
69.1996929118
 21
148.3571852021
  0
LINE
  8
0
 62
7
  6
CONTINUOUS
 10
69.6154228334
 20
147.5729813958
 11
69.9939927801
 21
147.8515302991
  0
LINE
  8
0
 62
7
  6
CONTINUOUS
 10
65.2136135189
 20
154.7389970757
 11
64.8046815375
 21
154.507309475
  0
LINE
  8
0
 62
7
  6
CONTINUOUS
 10
65.1244769916
 20
153.6793373469
 11
65.5334093819
 21
153.9110250304
  0
LINE
  8
0
 62
7
  6
CONTINUOUS
 10
68.1329664375
 20
155.3307514746
 11
67.7240342516
 21
155.0990638325
  0
LINE
  8
0
 62
7
  6
CONTINUOUS
 10
68.0438297058
 20
154.2710917043
 11
68.4527618916
 21
154.5027793464
  0
LINE
  8
0
 62
7
  6
CONTINUOUS
 10
26.4757477364
 20
149.5767252706
 11
28.2262093529
 21
150.3197521435
  0
LINE
  8
0
 62
7
  6
CONTINUOUS
 10
38.6135557532
 20
118.3507871323
 11
36.7606623194
 21
117.9230129769
  0
LINE
  8
0
 62
9
  6
CONTINUOUS
 10
38.2761291717
 20
119.8123422295
 11
36.4232357379
 21
119.3845680741
  0
LINE
  8
0
 62
7
  6
CONTINUOUS
 10
71.2055048646
 20
136.4110173693
 11
71.6720802769
 21
136.4677114099
  0
LINE
  8
0
 62
7
  6
CONTINUOUS
 10
73.2705522858
 20
142.201635086
 11
72.6073614026
 21
142.2141436898
  0
LINE
  8
0
 62
7
  6
CONTINUOUS
 10
213.4601391029
 20
117.9230129769
 11
211.6072456691
 21
118.3507871323
  0
LINE
  8
0
 62
7
  6
CONTINUOUS
 10
28.2262093529
 20
177.9348977471
 11
26.4757477364
 21
178.67792462
  0
LINE
  8
0
 62
9
  6
CONTINUOUS
 10
28.8123060456
 20
179.3156550273
 11
27.0618444291
 21
180.0586819002
  0
LINE
  8
0
 62
7
  6
CONTINUOUS
 10
169.4286273513
 20
74.8165780789
 11
168.1810444145
 21
76.2517580748
  0
LINE
  8
0
 62
7
  6
CONTINUOUS
 10
54.8453310789
 20
232.2449848537
 11
53.8659181211
 21
233.8750017441
  0
LINE
  8
0
 62
9
  6
CONTINUOUS
 10
56.1310820299
 20
233.0175419661
 11
55.1516690721
 21
234.6475588565
  0
LINE
  8
0
 62
7
  6
CONTINUOUS
 10
84.1470639632
 20
204.6274070946
 11
82.2964400631
 21
208.4311570953
  0
LINE
  8
0
 62
7
  6
CONTINUOUS
 10
85.2786794404
 20
202.4071074174
 11
84.4561831779
 21
204.0976660159
  0
LINE
  8
0
 62
7
  6
CONTINUOUS
 10
81.4629748114
 20
208.4541849988
 11
84.6494718768
 21
201.7990590296
  0
LINE
  8
0
 62
7
  6
CONTINUOUS
 10
117.3389590151
 20
109.4209405613
 11
117.4546769416
 21
109.1101275479
  0
LINE
  8
0
 62
7
  6
CONTINUOUS
 10
121.720099338
 20
107.7890117864
 11
121.6043816815
 21
108.0998247468
  0
LINE
  8
0
 62
7
  6
CONTINUOUS
 10
87.4834001366
 20
211.0510221688
 11
87.3305249844
 21
211.4954724107
  0
LINE
  8
0
 62
7
  6
CONTINUOUS
 10
88.9194387044
 20
209.1493438395
 11
88.766563678
 21
209.5937939148
  0
LINE
  8
0
 62
7
  6
CONTINUOUS
 10
118.2812983439
 20
108.5791285604
 11
118.0645646332
 21
109.3489633591
  0
LINE
  8
0
 62
7
  6
CONTINUOUS
 10
86.5957492025
 20
211.5005040987
 11
86.8117575075
 21
210.730466879
  0
LINE
  8
0
 62
7
  6
CONTINUOUS
 10
92.9858190996
 20
210.5403644704
 11
92.7698109832
 21
211.3104014403
  0
LINE
  8
0
 62
7
  6
CONTINUOUS
 10
111.6171381661
 20
106.8847814397
 11
111.6716461492
 21
106.417947294
  0
LINE
  8
0
 62
7
  6
CONTINUOUS
 10
111.6215911685
 20
107.6435942014
 11
111.6171381661
 21
106.8847814397
  0
LINE
  8
0
 62
7
  6
CONTINUOUS
 10
112.3318785214
 20
106.7404517353
 11
112.3363307059
 21
107.4992646622
  0
LINE
  8
0
 62
7
  6
CONTINUOUS
 10
74.2366400093
 20
137.6638420218
 11
74.5799258835
 21
137.9848735862
  0
LINE
  8
0
 62
7
  6
CONTINUOUS
 10
70.1894689682
 20
141.4082532042
 11
69.5762266361
 21
140.9613192137
  0
LINE
  8
0
 62
7
  6
CONTINUOUS
 10
73.6233974881
 20
137.2169079431
 11
74.2366400093
 21
137.6638420218
  0
LINE
  8
0
 62
7
  6
CONTINUOUS
 10
69.8844410707
 20
140.3004931131
 11
70.6326602209
 21
140.8103813418
  0
LINE
  8
0
 62
7
  6
CONTINUOUS
 10
72.2353685089
 20
137.3741001389
 11
71.3638658423
 21
137.1285375104
  0
LINE
  8
0
 62
7
  6
CONTINUOUS
 10
71.6720802769
 20
136.4677114099
 11
72.4086061255
 21
136.6503198002
  0
LINE
  8
0
 62
7
  6
CONTINUOUS
 10
72.1407863684
 20
142.1574498256
 11
71.4042603308
 21
141.9748413471
  0
LINE
  8
0
 62
7
  6
CONTINUOUS
 10
72.6073614026
 20
142.2141436898
 11
72.1407863684
 21
142.1574498256
  0
LINE
  8
0
 62
7
  6
CONTINUOUS
 10
67.4482769979
 20
147.0111179076
 11
67.9182791106
 21
147.0127065117
  0
LINE
  8
0
 62
7
  6
CONTINUOUS
 10
67.7854064762
 20
147.8902894653
 11
67.3154043634
 21
147.8887008613
  0
LINE
  8
0
 62
7
  6
CONTINUOUS
 10
70.4182787108
 20
147.9915990201
 11
70.8882808235
 21
147.9931876242
  0
LINE
  8
0
 62
7
  6
CONTINUOUS
 10
70.7554082881
 20
148.8707706105
 11
70.2854060763
 21
148.8691819737
  0
LINE
  8
0
 62
7
  6
CONTINUOUS
 10
65.8253446124
 20
153.9702004578
 11
66.2922183226
 21
153.9160391396
  0
LINE
  8
0
 62
7
  6
CONTINUOUS
 10
66.264358099
 20
154.8031866952
 11
65.7974843888
 21
154.8573480135
  0
LINE
  8
0
 62
7
  6
CONTINUOUS
 10
68.8906647374
 20
154.5915424876
 11
69.3575384476
 21
154.5373811693
  0
LINE
  8
0
 62
7
  6
CONTINUOUS
 10
69.3296783262
 20
155.4245287457
 11
68.8628045138
 21
155.4786900432
  0
LINE
  8
0
 62
7
  6
CONTINUOUS
 10
79.4948196855
 20
203.3332407533
 11
79.7506766331
 21
202.9389772892
  0
LINE
  8
0
 62
7
  6
CONTINUOUS
 10
80.4164817804
 20
203.5259274432
 11
80.1606248328
 21
203.9201909073
  0
LINE
  8
0
 62
7
  6
CONTINUOUS
 10
86.8117575075
 20
210.730466879
 11
87.3236420187
 21
209.8105974294
  0
LINE
  8
0
 62
7
  6
CONTINUOUS
 10
87.9055428999
 20
210.2500156503
 11
87.4834001366
 21
211.0510221688
  0
LINE
  8
0
 62
7
  6
CONTINUOUS
 10
92.0981683542
 20
210.9898461505
 11
92.2510432548
 21
210.5453962417
  0
LINE
  8
0
 62
7
  6
CONTINUOUS
 10
120.9797921305
 20
107.7127801095
 11
121.0808080782
 21
107.2537583866
  0
LINE
  8
0
 62
7
  6
CONTINUOUS
 10
117.4546769416
 20
109.1101275479
 11
117.540991004
 21
108.5028970014
  0
LINE
  8
0
 62
7
  6
CONTINUOUS
 10
121.8064135406
 20
107.1817811998
 11
121.720099338
 21
107.7890117864
  0
LINE
  8
0
 62
9
  6
CONTINUOUS
 10
120.3604007112
 20
249.3437772506
 11
120.3604007112
 21
248.8437772506
  0
LINE
  8
0
 62
7
  6
CONTINUOUS
 10
121.8604007112
 20
249.3437772506
 11
121.8604007112
 21
248.8437772506
  0
LINE
  8
0
 62
7
  6
CONTINUOUS
 10
121.8604007112
 20
79.41087264
 11
121.8604007112
 21
78.91087264
  0
LINE
  8
0
 62
9
  6
CONTINUOUS
 10
123.8604007112
 20
246.8437772506
 11
123.8604007112
 21
245.3437772506
  0
LINE
  8
0
 62
2
  6
CONTINUOUS
 10
125.1104007112
 20
165.1773249453
 11
125.1104007112
 21
163.0773249453
  0
LINE
  8
DEFAULT_1
 62
2
  6
CENTER
 10
125.1104007112
 20
158.8773249453
 11
125.1104007112
 21
112.1273249453
  0
LINE
  8
DEFAULT_1
 62
2
  6
CENTER
 10
125.1104007112
 20
169.3773249453
 11
125.1104007112
 21
216.1273249453
  0
LINE
  8
0
 62
9
  6
CONTINUOUS
 10
126.3604007112
 20
81.41087264
 11
126.3604007112
 21
82.91087264
  0
LINE
  8
0
 62
7
  6
CONTINUOUS
 10
117.540991004
 20
108.5028970014
 11
117.1587462049
 21
104.6494689
  0
LINE
  8
0
 62
7
  6
CONTINUOUS
 10
117.884351823
 20
104.5774916978
 11
118.2077897243
 21
107.8380846508
  0
LINE
  8
0
 62
7
  6
CONTINUOUS
 10
112.1817128439
 20
110.4173930317
 11
111.6215911685
 21
107.6435942014
  0
LINE
  8
0
 62
7
  6
CONTINUOUS
 10
112.3363307059
 20
107.4992646622
 11
112.8964523813
 21
110.2730634925
  0
LINE
  8
0
 62
7
  6
CONTINUOUS
 10
110.3541260811
 20
110.9284092272
 11
109.1106025633
 21
106.327539939
  0
LINE
  8
0
 62
7
  6
CONTINUOUS
 10
108.7220013891
 20
104.8897680095
 11
108.5277008565
 21
104.1708822462
  0
LINE
  8
0
 62
7
  6
CONTINUOUS
 10
109.2316096485
 20
103.9806296912
 11
109.4259101811
 21
104.6995154545
  0
LINE
  8
0
 62
7
  6
CONTINUOUS
 10
109.8145113553
 20
106.137287384
 11
111.0580348731
 21
110.7381566722
  0
LINE
  8
0
 62
7
  6
CONTINUOUS
 10
92.0879658974
 20
119.8086068543
 11
91.58867597
 21
119.0674854438
  0
LINE
  8
0
 62
9
  6
CONTINUOUS
 10
171.3565439056
 20
235.860863009
 11
171.0626512795
 21
235.4563545118
  0
LINE
  8
0
 62
7
  6
CONTINUOUS
 10
172.5700693972
 20
234.9791851306
 11
172.276176771
 21
234.5746766334
  0
LINE
  8
0
 62
7
  6
CONTINUOUS
 10
72.6860141878
 20
97.5005773971
 11
72.3921215617
 21
97.0960688999
  0
LINE
  8
0
 62
9
  6
CONTINUOUS
 10
172.7186402552
 20
231.7810721401
 11
171.8369623768
 21
230.5675466485
  0
LINE
  8
0
 62
9
  6
CONTINUOUS
 10
77.5021611671
 20
96.4735777505
 11
78.3838390455
 21
97.6871032421
  0
LINE
  8
0
 62
7
  6
CONTINUOUS
 10
85.9944444258
 20
122.7929212658
 11
85.5088081506
 21
122.2283799955
  0
LINE
  8
0
 62
7
  6
CONTINUOUS
 10
83.9547719339
 20
120.4218477722
 11
83.5662626417
 21
119.9702144396
  0
LINE
  8
0
 62
7
  6
CONTINUOUS
 10
84.3267262405
 20
119.5125003186
 11
84.5209807506
 21
119.7383168267
  0
LINE
  8
0
 62
7
  6
CONTINUOUS
 10
86.2692714774
 20
121.7706655581
 11
86.5606532425
 21
122.1093903204
  0
LINE
  8
0
 62
7
  6
CONTINUOUS
 10
78.2120219381
 20
134.8563775734
 11
77.479960042
 21
134.3438965913
  0
LINE
  8
0
 62
7
  6
CONTINUOUS
 10
73.3316091834
 20
131.4398376131
 11
72.4775370709
 21
130.8419432038
  0
LINE
  8
0
 62
7
  6
CONTINUOUS
 10
73.9284255746
 20
138.3246681224
 11
73.1802062354
 21
137.8147798055
  0
LINE
  8
0
 62
7
  6
CONTINUOUS
 10
76.7917648553
 20
137.4100195485
 11
70.7203232789
 21
133.9261140985
  0
LINE
  8
0
 62
7
  6
CONTINUOUS
 10
72.189248201
 20
133.7601890138
 11
77.2272530366
 21
136.6510893515
  0
LINE
  8
0
 62
7
  6
CONTINUOUS
 10
72.4955567897
 20
132.9271331777
 11
73.5289938924
 21
133.5201384976
  0
LINE
  8
0
 62
7
  6
CONTINUOUS
 10
71.4042603308
 20
141.9748413471
 11
70.1894689682
 21
141.4082532042
  0
LINE
  8
0
 62
7
  6
CONTINUOUS
 10
70.6326602209
 20
140.8103813418
 11
71.5774979474
 21
141.2510610084
  0
LINE
  8
0
 62
7
  6
CONTINUOUS
 10
70.2854060763
 20
148.8691819737
 11
69.5782628585
 21
148.6357341054
  0
LINE
  8
0
 62
7
  6
CONTINUOUS
 10
67.3154043634
 20
147.8887008613
 11
66.749689393
 21
147.7019424358
  0
LINE
  8
0
 62
7
  6
CONTINUOUS
 10
67.1654197108
 20
146.9177387603
 11
67.4482769979
 21
147.0111179076
  0
LINE
  8
0
 62
7
  6
CONTINUOUS
 10
69.9939927801
 20
147.8515302991
 11
70.4182787108
 21
147.9915990201
  0
LINE
  8
0
 62
9
  6
CONTINUOUS
 10
204.6882322484
 20
194.9781753604
 11
204.2127039903
 21
194.8236668632
  0
LINE
  8
0
 62
7
  6
CONTINUOUS
 10
205.15175774
 20
193.5515905859
 11
204.6762294818
 21
193.3970820888
  0
LINE
  8
0
 62
7
  6
CONTINUOUS
 10
43.5359614771
 20
141.0394351578
 11
43.0604332189
 21
140.8849266606
  0
LINE
  8
0
 62
9
  6
CONTINUOUS
 10
203.392150438
 20
190.8769350674
 11
201.9655656635
 21
190.4134095758
  0
LINE
  8
0
 62
9
  6
CONTINUOUS
 10
46.8286509843
 20
137.3777148232
 11
48.2552357588
 21
137.8412403147
  0
LINE
  8
0
 62
7
  6
CONTINUOUS
 10
71.5774979474
 20
141.2510610084
 11
72.449000803
 21
141.496623725
  0
LINE
  8
0
 62
7
  6
CONTINUOUS
 10
64.6799076486
 20
149.1252487138
 11
71.5403863838
 21
150.5158714249
  0
LINE
  8
0
 62
7
  6
CONTINUOUS
 10
70.4907527511
 20
151.1959049637
 11
68.3012382155
 21
150.7520891956
  0
LINE
  8
0
 62
7
  6
CONTINUOUS
 10
67.4254325239
 20
150.5745629132
 11
65.3818855013
 21
150.1603348381
  0
LINE
  8
0
 62
2
  6
CONTINUOUS
 10
126.1604007112
 20
164.1273249453
 11
124.0604007112
 21
164.1273249453
  0
LINE
  8
DEFAULT_1
 62
2
  6
CENTER
 10
119.8604007112
 20
164.1273249453
 11
73.1104007112
 21
164.1273249453
  0
LINE
  8
DEFAULT_1
 62
2
  6
CENTER
 10
130.3604007112
 20
164.1273249453
 11
177.1104007112
 21
164.1273249453
  0
LINE
  8
0
 62
9
  6
CONTINUOUS
 10
42.5969077274
 20
185.9431384556
 11
43.0724359855
 21
185.7886299584
  0
LINE
  8
0
 62
7
  6
CONTINUOUS
 10
43.0604332189
 20
187.36972323
 11
43.5359614771
 21
187.2152147328
  0
LINE
  8
0
 62
7
  6
CONTINUOUS
 10
204.6762294818
 20
134.8575678018
 11
205.15175774
 21
134.7030593047
  0
LINE
  8
0
 62
9
  6
CONTINUOUS
 10
46.0561084984
 20
188.4992937767
 11
47.4826932728
 21
188.0357682851
  0
LINE
  8
0
 62
9
  6
CONTINUOUS
 10
204.1646929239
 20
139.7553561139
 11
202.7381081495
 21
140.2188816055
  0
LINE
  8
0
 62
7
  6
CONTINUOUS
 10
75.031568288
 20
201.1275593253
 11
80.4760578831
 21
196.7278396696
  0
LINE
  8
0
 62
7
  6
CONTINUOUS
 10
81.0260228401
 20
197.408400869
 11
78.5933785183
 21
199.3742330835
  0
LINE
  8
0
 62
7
  6
CONTINUOUS
 10
77.8983373763
 20
199.9358993555
 11
76.1607341966
 21
201.3400652979
  0
LINE
  8
0
 62
7
  6
CONTINUOUS
 10
165.5823125501
 20
124.5624355499
 11
167.2086581468
 21
122.9360899532
  0
LINE
  8
0
 62
7
  6
CONTINUOUS
 10
87.3236420187
 20
209.8105974294
 11
87.9519088371
 21
208.9786132332
  0
LINE
  8
0
 62
7
  6
CONTINUOUS
 10
88.0850477052
 20
210.0123058799
 11
87.9055428999
 21
210.2500156503
  0
LINE
  8
0
 62
7
  6
CONTINUOUS
 10
89.1886959123
 20
208.7927791839
 11
88.9194387044
 21
209.1493438395
  0
LINE
  8
0
 62
9
  6
CONTINUOUS
 10
71.1785960701
 20
230.2769031122
 11
71.4724886963
 21
229.8723946151
  0
LINE
  8
0
 62
7
  6
CONTINUOUS
 10
72.3921215617
 20
231.1585809907
 11
72.6860141878
 21
230.7540724935
  0
LINE
  8
0
 62
7
  6
CONTINUOUS
 10
172.276176771
 20
93.6799732572
 11
172.5700693972
 21
93.27546476
  0
LINE
  8
0
 62
9
  6
CONTINUOUS
 10
75.4796186812
 20
230.3116090093
 11
76.3612965596
 21
229.0980835178
  0
LINE
  8
0
 62
9
  6
CONTINUOUS
 10
174.7411827411
 20
97.9430408813
 11
173.8595048627
 21
99.1565663728
  0
LINE
  8
0
 62
7
  6
CONTINUOUS
 10
128.3604007112
 20
78.91087264
 11
128.3604007112
 21
79.41087264
  0
LINE
  8
0
 62
7
  6
CONTINUOUS
 10
128.3604007112
 20
248.8437772506
 11
128.3604007112
 21
249.3437772506
  0
LINE
  8
0
 62
9
  6
CONTINUOUS
 10
129.8604007112
 20
78.91087264
 11
129.8604007112
 21
79.41087264
  0
LINE
  8
0
 62
7
  6
CONTINUOUS
 10
121.0808080782
 20
107.2537583866
 11
120.7867736206
 21
104.2895829558
  0
LINE
  8
0
 62
7
  6
CONTINUOUS
 10
121.5123790829
 20
104.2176057691
 11
121.8064135406
 21
107.1817811998
  0
LINE
  8
0
 62
7
  6
CONTINUOUS
 10
115.4695156972
 20
109.753476953
 11
114.7914736865
 21
106.3957205604
  0
LINE
  8
0
 62
7
  6
CONTINUOUS
 10
114.6735533512
 20
105.811762998
 11
114.5261529321
 21
105.081816045
  0
LINE
  8
0
 62
7
  6
CONTINUOUS
 10
115.2408928784
 20
104.9374864232
 11
116.1842556435
 21
109.6091473312
  0
LINE
  8
0
 62
7
  6
CONTINUOUS
 10
95.2170815006
 20
116.6230461006
 11
91.8052669869
 21
111.5587164476
  0
LINE
  8
0
 62
7
  6
CONTINUOUS
 10
92.5309483698
 20
111.0698283925
 11
96.4420528109
 21
116.875279456
  0
LINE
  8
0
 62
7
  6
CONTINUOUS
 10
77.6507320251
 20
93.27546476
 11
77.9446246513
 21
93.6799732572
  0
LINE
  8
0
 62
7
  6
CONTINUOUS
 10
177.5347872345
 20
230.7540724935
 11
177.8286798606
 21
231.1585809907
  0
LINE
  8
0
 62
9
  6
CONTINUOUS
 10
78.8642575167
 20
92.3937868816
 11
79.1581501428
 21
92.7982953788
  0
LINE
  8
0
 62
7
  6
CONTINUOUS
 10
89.9073154528
 20
120.4092468275
 11
88.4504064231
 21
118.7156227793
  0
LINE
  8
0
 62
7
  6
CONTINUOUS
 10
87.8676428928
 20
118.0381732549
 11
86.5078610501
 21
116.4574573816
  0
LINE
  8
0
 62
7
  6
CONTINUOUS
 10
86.5884335916
 20
115.2093851658
 11
91.1534151228
 21
120.5160737397
  0
LINE
  8
0
 62
7
  6
CONTINUOUS
 10
75.8228977695
 20
126.0632076374
 11
76.4329492784
 21
126.4902750726
  0
LINE
  8
0
 62
7
  6
CONTINUOUS
 10
80.581300137
 20
129.3943340509
 11
81.5573826367
 21
130.0776420071
  0
LINE
  8
0
 62
7
  6
CONTINUOUS
 10
73.1802062354
 20
137.8147798055
 11
72.2353685089
 21
137.3741001389
  0
LINE
  8
0
 62
7
  6
CONTINUOUS
 10
72.4086061255
 20
136.6503198002
 11
73.6233974881
 21
137.2169079431
  0
LINE
  8
0
 62
7
  6
CONTINUOUS
 10
72.4097719653
 20
144.809682858
 11
70.2883420147
 21
144.1093391549
  0
LINE
  8
0
 62
7
  6
CONTINUOUS
 10
69.4397701534
 20
143.8292017128
 11
67.4597687473
 21
143.1755475506
  0
LINE
  8
0
 62
7
  6
CONTINUOUS
 10
66.885498164
 20
142.0645167286
 11
73.5326452037
 21
144.2589269528
  0
LINE
  8
0
 62
7
  6
CONTINUOUS
 10
45.0690436824
 20
134.7030593047
 11
45.5445719405
 21
134.8575678018
  0
LINE
  8
0
 62
7
  6
CONTINUOUS
 10
206.6848399453
 20
187.2152147328
 11
207.1603682034
 21
187.36972323
  0
LINE
  8
0
 62
9
  6
CONTINUOUS
 10
45.5325691739
 20
133.2764745302
 11
46.0080974321
 21
133.4309830274
  0
LINE
  8
0
 62
7
  6
CONTINUOUS
 10
65.5334093819
 20
153.9110250304
 11
65.8253446124
 21
153.9702004578
  0
LINE
  8
0
 62
7
  6
CONTINUOUS
 10
68.4527618916
 20
154.5027793464
 11
68.8906647374
 21
154.5915424876
  0
LINE
  8
0
 62
7
  6
CONTINUOUS
 10
68.8628045138
 20
155.4786900432
 11
68.1329664375
 21
155.3307514746
  0
LINE
  8
0
 62
7
  6
CONTINUOUS
 10
65.7974843888
 20
154.8573480135
 11
65.2136135189
 21
154.7389970757
  0
LINE
  8
0
 62
7
  6
CONTINUOUS
 10
207.1603682034
 20
140.8849266606
 11
206.6848399453
 21
141.0394351578
  0
LINE
  8
0
 62
7
  6
CONTINUOUS
 10
45.5445719405
 20
193.3970820888
 11
45.0690436824
 21
193.5515905859
  0
LINE
  8
0
 62
9
  6
CONTINUOUS
 10
207.623893695
 20
142.311511435
 11
207.1483654368
 21
142.4660199322
  0
LINE
  8
0
 62
7
  6
CONTINUOUS
 10
79.1472987899
 20
203.6140741515
 11
79.4948196855
 21
203.3332407533
  0
LINE
  8
0
 62
7
  6
CONTINUOUS
 10
80.1606248328
 20
203.9201909073
 11
79.6972637469
 21
204.2946353509
  0
LINE
  8
0
 62
7
  6
CONTINUOUS
 10
87.9519088371
 20
208.9786132332
 11
88.6965580884
 21
208.2345141238
  0
LINE
  8
0
 62
7
  6
CONTINUOUS
 10
167.8096989108
 20
123.5371307172
 11
166.1833533141
 21
125.1634763139
  0
LINE
  8
0
 62
7
  6
CONTINUOUS
 10
166.3247746703
 20
125.3048976702
 11
167.2440134859
 21
124.3856588546
  0
LINE
  8
0
 62
7
  6
CONTINUOUS
 10
167.8804095889
 20
124.9513442796
 11
166.9258154343
 21
125.9059384342
  0
LINE
  8
0
 62
7
  6
CONTINUOUS
 10
167.7389882327
 20
126.7191112325
 11
168.516805692
 21
125.9412937732
  0
LINE
  8
0
 62
7
  6
CONTINUOUS
 10
169.0824911169
 20
125.3756083483
 11
169.3653338294
 21
125.0927656358
  0
LINE
  8
0
 62
7
  6
CONTINUOUS
 10
169.9663745934
 20
125.6938063998
 11
168.3400289967
 21
127.3201519965
  0
LINE
  8
0
 62
7
  6
CONTINUOUS
 10
168.4814503529
 20
127.4615733528
 11
170.1077959497
 21
125.8352277561
  0
LINE
  8
0
 62
7
  6
CONTINUOUS
 10
170.7088367137
 20
126.4362685201
 11
169.9310192544
 21
127.2140859794
  0
LINE
  8
0
 62
7
  6
CONTINUOUS
 10
169.367106038
 20
127.7779991957
 11
169.0824911169
 21
128.0626141168
  0
LINE
  8
0
 62
7
  6
CONTINUOUS
 10
170.5674153574
 20
128.204035473
 11
171.522009512
 21
127.2494413184
  0
LINE
  8
0
 62
7
  6
CONTINUOUS
 10
172.123050276
 20
127.8504820824
 11
171.2038114605
 21
128.769720898
  0
LINE
  8
0
 62
7
  6
CONTINUOUS
 10
91.8289111463
 20
211.3464108061
 11
92.0981683542
 21
210.9898461505
  0
LINE
  8
0
 62
7
  6
CONTINUOUS
 10
92.7698109832
 20
211.3104014403
 11
92.3210488444
 21
211.9046760327
  0
LINE
  8
0
 62
7
  6
CONTINUOUS
 10
177.8286798606
 20
97.0960688999
 11
177.5347872345
 21
97.5005773971
  0
LINE
  8
0
 62
7
  6
CONTINUOUS
 10
77.9446246513
 20
234.5746766334
 11
77.6507320251
 21
234.9791851306
  0
LINE
  8
0
 62
9
  6
CONTINUOUS
 10
179.0422053522
 20
97.9777467783
 11
178.748312726
 21
98.3822552755
  0
LINE
  8
0
 62
7
  6
CONTINUOUS
 10
86.396380584
 20
123.0365437764
 11
85.9944444258
 21
122.7929212658
  0
LINE
  8
0
 62
7
  6
CONTINUOUS
 10
86.5606532425
 20
122.1093903204
 11
86.9625893327
 21
122.3530127518
  0
LINE
  8
0
 62
7
  6
CONTINUOUS
 10
84.356708024
 20
120.6654702037
 11
83.9547719339
 21
120.4218477722
  0
LINE
  8
0
 62
7
  6
CONTINUOUS
 10
84.5209807506
 20
119.7383168267
 11
84.9229168407
 21
119.9819392582
  0
LINE
  8
0
 62
7
  6
CONTINUOUS
 10
86.5535385231
 20
206.1244908824
 11
88.2149846044
 21
205.2446696529
  0
LINE
  8
0
 62
7
  6
CONTINUOUS
 10
82.2964400631
 20
208.4311570953
 11
86.0346866541
 21
206.4515522579
  0
LINE
  8
0
 62
7
  6
CONTINUOUS
 10
88.6965580884
 20
208.2345141238
 11
89.3780741241
 21
207.8160020755
  0
LINE
  8
0
 62
7
  6
CONTINUOUS
 10
89.5743354274
 20
208.5240997817
 11
89.1886959123
 21
208.7927791839
  0
LINE
  8
0
 62
7
  6
CONTINUOUS
 10
91.4432715054
 20
211.6150903747
 11
91.8289111463
 21
211.3464108061
  0
LINE
  8
0
 62
7
  6
CONTINUOUS
 10
141.751742078
 20
262.4308369673
 11
141.9174802398
 21
260.5364411094
  0
LINE
  8
0
 62
9
  6
CONTINUOUS
 10
140.4231881926
 20
67.8489423953
 11
140.2574500308
 21
65.9545465374
  0
LINE
  8
0
 62
7
  6
CONTINUOUS
 10
141.9174802398
 20
67.7182087812
 11
141.751742078
 21
65.8238129233
  0
LINE
  8
0
 62
7
  6
CONTINUOUS
 10
196.3548833012
 20
233.8750017441
 11
195.3754703434
 21
232.2449848537
  0
LINE
  8
0
 62
9
  6
CONTINUOUS
 10
80.9076926375
 20
77.2358466183
 11
79.6601097007
 21
75.8006666224
  0
LINE
  8
0
 62
7
  6
CONTINUOUS
 10
82.0397570078
 20
76.2517580748
 11
80.792174071
 21
74.8165780789
  0
LINE
  8
0
 62
7
  6
CONTINUOUS
 10
223.745053686
 20
178.67792462
 11
221.9945920694
 21
177.9348977471
  0
LINE
  8
0
 62
9
  6
CONTINUOUS
 10
211.9446722506
 20
208.4423076611
 11
213.7975656844
 21
208.8700818165
  0
LINE
  8
0
 62
7
  6
CONTINUOUS
 10
211.6072456691
 20
209.9038627583
 11
213.4601391029
 21
210.3316369137
  0
LINE
  8
0
 62
7
  6
CONTINUOUS
 10
36.7606623194
 20
210.3316369137
 11
38.6135557532
 21
209.9038627583
  0
LINE
  8
0
 62
7
  6
CONTINUOUS
 10
78.7081145955
 20
203.7814769595
 11
79.1472987899
 21
203.6140741515
  0
LINE
  8
0
 62
7
  6
CONTINUOUS
 10
79.6972637469
 20
204.2946353509
 11
79.2580795524
 21
204.4620381589
  0
LINE
  8
0
 62
9
  6
CONTINUOUS
 10
221.4084953767
 20
148.9389948633
 11
223.1589569932
 21
148.1959679904
  0
LINE
  8
0
 62
7
  6
CONTINUOUS
 10
221.9945920694
 20
150.3197521435
 11
223.745053686
 21
149.5767252706
  0
LINE
  8
0
 62
7
  6
CONTINUOUS
 10
88.844192168
 20
205.8527180407
 11
82.3019150293
 21
209.2649130898
  0
LINE
  8
0
 62
7
  6
CONTINUOUS
 10
92.3210488444
 20
211.9046760327
 11
91.6395328716
 21
212.3231879978
  0
LINE
  8
0
 62
7
  6
CONTINUOUS
 10
90.472751386
 20
213.8683018381
 11
90.0871118709
 21
214.1369812403
  0
LINE
  8
0
 62
7
  6
CONTINUOUS
 10
80.792174071
 20
253.4380718117
 11
82.0397570078
 21
252.0028918158
  0
LINE
  8
0
 62
9
  6
CONTINUOUS
 10
194.0897193924
 20
95.2371079245
 11
195.0691323502
 21
93.6070910341
  0
LINE
  8
0
 62
7
  6
CONTINUOUS
 10
195.3754703434
 20
96.0096650369
 11
196.3548833012
 21
94.3796481465
  0
LINE
  8
0
 62
9
  6
CONTINUOUS
 10
156.8604007112
 20
246.8437772506
 11
156.8604007112
 21
245.3437772506
  0
LINE
  8
0
 62
9
  6
CONTINUOUS
 10
199.4162010696
 20
212.3841588144
 11
198.5345231911
 21
211.1706333229
  0
LINE
  8
0
 62
7
  6
CONTINUOUS
 10
118.2077897243
 20
107.8380846508
 11
118.5421370229
 21
108.2539201695
  0
LINE
  8
BLANK_COSM
 62
2
  6
PHANTOM
 10
133.4853460807
 20
127.6009897095
 11
129.2427053936
 21
123.3583490224
  0
LINE
  8
BLANK_COSM
 62
2
  6
PHANTOM
 10
161.6367359469
 20
155.7523795757
 11
165.879376634
 21
159.9950202628
  0
LINE
  8
BLANK_COSM
 62
2
  6
PHANTOM
 10
159.7747808874
 20
151.6276828164
 11
137.6100428401
 21
129.4629447691
  0
LINE
  8
0
 62
7
  6
CONTINUOUS
 10
118.7607665974
 20
108.9805686292
 11
118.2812983439
 21
108.5791285604
  0
LINE
  8
0
 62
7
  6
CONTINUOUS
 10
98.8090333194
 20
111.5572553664
 11
102.6409664861
 21
113.6162289162
  0
LINE
  8
0
 62
7
  6
CONTINUOUS
 10
101.8613755091
 20
114.0135485716
 11
98.7573821782
 21
112.4193967976
  0
LINE
  8
0
 62
7
  6
CONTINUOUS
 10
95.0447275353
 20
109.6309788951
 11
98.1487223531
 21
111.2251299113
  0
LINE
  8
0
 62
7
  6
CONTINUOUS
 10
98.0294423424
 20
111.9545750218
 11
94.2651365583
 21
110.0282985505
  0
LINE
  8
0
 62
9
  6
CONTINUOUS
 10
213.5897112523
 20
159.4920700297
 11
212.1631264779
 21
159.0285445381
  0
LINE
  8
0
 62
7
  6
CONTINUOUS
 10
79.2580795524
 20
204.4620381589
 11
78.5197363126
 21
204.4962017406
  0
LINE
  8
0
 62
7
  6
CONTINUOUS
 10
89.3780741241
 20
207.8160020755
 11
90.0862200329
 21
207.6042302073
  0
LINE
  8
0
 62
7
  6
CONTINUOUS
 10
90.0871118709
 20
214.1369812403
 11
89.3789659935
 21
214.3487530668
  0
LINE
  8
0
 62
9
  6
CONTINUOUS
 10
56.2536693128
 20
219.8841588144
 11
57.6802540872
 21
219.4206333229
  0
LINE
  8
0
 62
7
  6
CONTINUOUS
 10
90.0763466577
 20
208.3432975038
 11
89.5743354274
 21
208.5240997817
  0
LINE
  8
0
 62
7
  6
CONTINUOUS
 10
89.3888393372
 20
213.609685812
 11
89.8908611595
 21
213.4288916631
  0
LINE
  8
BLANK_COSM
 62
2
  6
PHANTOM
 10
129.2427053936
 20
204.8963008682
 11
133.4853460807
 21
200.6536601811
  0
LINE
  8
BLANK_COSM
 62
2
  6
PHANTOM
 10
165.879376634
 20
168.2596296278
 11
161.6367359469
 21
172.5022703149
  0
LINE
  8
BLANK_COSM
 62
2
  6
PHANTOM
 10
137.6100428401
 20
198.7917051215
 11
159.7747808874
 21
176.6269670742
  0
LINE
  8
0
 62
9
  6
CONTINUOUS
 10
102.1771794955
 20
249.708522335
 11
103.058857374
 21
248.4949968434
  0
LINE
  8
0
 62
9
  6
CONTINUOUS
 10
138.9750151352
 20
64.0216041896
 11
139.4640994758
 21
65.4396297563
  0
LINE
  8
0
 62
9
  6
CONTINUOUS
 10
77.4864430704
 20
74.9906797326
 11
78.7156151291
 21
75.8504099521
  0
LINE
  8
0
 62
7
  6
CONTINUOUS
 10
114.7914736865
 20
106.3957205604
 11
114.4466174586
 21
106.1614736444
  0
LINE
  8
0
 62
7
  6
CONTINUOUS
 10
114.3286971232
 20
105.577516082
 11
114.6735533512
 21
105.811762998
  0
LINE
  8
0
 62
7
  6
CONTINUOUS
 10
118.5421370229
 20
108.2539201695
 11
119.0069037544
 21
108.5071513788
  0
LINE
  8
0
 62
7
  6
CONTINUOUS
 10
90.0862200329
 20
207.6042302073
 11
90.9373781456
 21
207.6870837414
  0
LINE
  8
0
 62
7
  6
CONTINUOUS
 10
78.2931153597
 20
203.7418487786
 11
78.7081145955
 21
203.7814769595
  0
LINE
  8
0
 62
7
  6
CONTINUOUS
 10
90.6049877298
 20
208.3692354476
 11
90.0763466577
 21
208.3432975038
  0
LINE
  8
0
 62
9
  6
CONTINUOUS
 10
216.0321972768
 20
208.2477257868
 11
214.5324394484
 21
208.2746786374
  0
LINE
  8
0
 62
7
  6
CONTINUOUS
 10
91.0310127406
 20
211.6770376843
 11
91.4432715054
 21
211.6150903747
  0
LINE
  8
0
 62
7
  6
CONTINUOUS
 10
91.6395328716
 20
212.3231879978
 11
91.0211393969
 21
212.4161049392
  0
LINE
  8
0
 62
9
  6
CONTINUOUS
 10
224.6010002317
 20
146.3789878915
 11
223.4035131492
 21
147.2823287392
  0
LINE
  8
0
 62
9
  6
CONTINUOUS
 10
195.1677757309
 20
91.289511507
 11
194.7299587587
 21
92.7241948514
  0
LINE
  8
0
 62
7
  6
CONTINUOUS
 10
169.7895978981
 20
128.769720898
 11
169.6128212028
 21
128.5929442027
  0
LINE
  8
0
 62
7
  6
CONTINUOUS
 10
169.0824911169
 20
128.0626141168
 11
168.4814503529
 21
127.4615733528
  0
LINE
  8
0
 62
7
  6
CONTINUOUS
 10
168.3400289967
 20
127.3201519965
 11
167.7389882327
 21
126.7191112325
  0
LINE
  8
0
 62
7
  6
CONTINUOUS
 10
166.9258154343
 20
125.9059384342
 11
166.3247746703
 21
125.3048976702
  0
LINE
  8
0
 62
7
  6
CONTINUOUS
 10
166.1833533141
 20
125.1634763139
 11
165.5823125501
 21
124.5624355499
  0
LINE
  8
0
 62
7
  6
CONTINUOUS
 10
169.9310192544
 20
127.9211927606
 11
170.2138619668
 21
128.204035473
  0
LINE
  8
0
 62
7
  6
CONTINUOUS
 10
114.4466174586
 20
106.1614736444
 11
113.9588138139
 21
105.9560925372
  0
LINE
  8
0
 62
7
  6
CONTINUOUS
 10
113.8408934785
 20
105.3721349748
 11
114.3286971232
 21
105.577516082
  0
LINE
  8
0
 62
7
  6
CONTINUOUS
 10
119.0657106508
 20
109.0999865142
 11
118.7607665974
 21
108.9805686292
  0
LINE
  8
0
 62
7
  6
CONTINUOUS
 10
78.5197363126
 20
204.4962017406
 11
77.8055780314
 21
204.3233343334
  0
LINE
  8
0
 62
7
  6
CONTINUOUS
 10
91.0211393969
 20
212.4161049392
 11
90.1699919625
 21
212.3332594197
  0
LINE
  8
0
 62
7
  6
CONTINUOUS
 10
89.3789659935
 20
214.3487530668
 11
88.5278185591
 21
214.2659075474
  0
LINE
  8
0
 62
7
  6
CONTINUOUS
 10
90.5023716685
 20
211.6510997405
 11
91.0310127406
 21
211.6770376843
  0
LINE
  8
0
 62
7
  6
CONTINUOUS
 10
88.8601982651
 20
213.5837478682
 11
89.3888393372
 21
213.609685812
  0
LINE
  8
0
 62
7
  6
CONTINUOUS
 10
168.516805692
 20
125.234186992
 11
168.2339629795
 21
124.9513442796
  0
LINE
  8
0
 62
7
  6
CONTINUOUS
 10
167.2086581468
 20
122.9360899532
 11
167.8096989108
 21
123.5371307172
  0
LINE
  8
0
 62
7
  6
CONTINUOUS
 10
168.6582270482
 20
124.3856588546
 11
168.8361835672
 21
124.5636153736
  0
LINE
  8
0
 62
7
  6
CONTINUOUS
 10
169.3653338294
 20
125.0927656358
 11
169.9663745934
 21
125.6938063998
  0
LINE
  8
0
 62
7
  6
CONTINUOUS
 10
170.1077959497
 20
125.8352277561
 11
170.7088367137
 21
126.4362685201
  0
LINE
  8
0
 62
7
  6
CONTINUOUS
 10
171.522009512
 20
127.2494413184
 11
172.123050276
 21
127.8504820824
  0
LINE
  8
0
 62
9
  6
CONTINUOUS
 10
202.7381081495
 20
140.2188816055
 11
192.5405473351
 21
108.8340165677
  0
LINE
  8
0
 62
7
  6
CONTINUOUS
 10
213.5897112524
 20
168.7625798609
 11
212.0836256332
 21
164.1273249453
  0
LINE
  8
0
 62
7
  6
CONTINUOUS
 10
204.1646929239
 20
139.7553561139
 11
193.9671321095
 21
108.3704910762
  0
LINE
  8
0
 62
9
  6
CONTINUOUS
 10
206.6848399453
 20
141.0394351578
 11
207.1483654369
 21
142.4660199322
  0
LINE
  8
0
 62
9
  6
CONTINUOUS
 10
207.1603682034
 20
140.8849266606
 11
207.623893695
 21
142.311511435
  0
LINE
  8
0
 62
9
  6
CONTINUOUS
 10
173.8595048627
 20
99.1565663728
 11
147.1619440483
 21
79.7596530472
  0
LINE
  8
0
 62
7
  6
CONTINUOUS
 10
199.4162010696
 20
115.8704910762
 11
195.4732177287
 21
113.0057459918
  0
LINE
  8
0
 62
7
  6
CONTINUOUS
 10
174.7411827411
 20
97.9430408813
 11
148.0436219268
 21
78.5461275556
  0
LINE
  8
0
 62
9
  6
CONTINUOUS
 10
177.5347872345
 20
97.5005773971
 11
178.7483127261
 21
98.3822552755
  0
LINE
  8
0
 62
9
  6
CONTINUOUS
 10
177.8286798606
 20
97.0960688999
 11
179.0422053522
 21
97.9777467783
  0
LINE
  8
0
 62
9
  6
CONTINUOUS
 10
123.8604007112
 20
245.3437772506
 11
156.8604007112
 21
245.3437772506
  0
LINE
  8
0
 62
7
  6
CONTINUOUS
 10
93.3604007112
 20
246.8437772506
 11
98.2341961547
 21
246.8437772506
  0
LINE
  8
0
 62
7
  6
CONTINUOUS
 10
123.8604007112
 20
246.8437772506
 11
156.8604007112
 21
246.8437772506
  0
LINE
  8
0
 62
9
  6
CONTINUOUS
 10
121.8604007112
 20
248.8437772506
 11
120.3604007112
 21
248.8437772507
  0
LINE
  8
0
 62
9
  6
CONTINUOUS
 10
121.8604007112
 20
249.3437772506
 11
120.3604007112
 21
249.3437772506
  0
LINE
  8
0
 62
9
  6
CONTINUOUS
 10
171.8369623768
 20
230.5675466485
 11
198.5345231911
 21
211.1706333229
  0
LINE
  8
0
 62
7
  6
CONTINUOUS
 10
148.0436219268
 20
249.708522335
 11
151.9866052677
 21
246.8437772506
  0
LINE
  8
0
 62
7
  6
CONTINUOUS
 10
172.7186402552
 20
231.7810721401
 11
199.4162010696
 21
212.3841588144
  0
LINE
  8
0
 62
9
  6
CONTINUOUS
 10
172.276176771
 20
234.5746766334
 11
171.0626512795
 21
235.4563545119
  0
LINE
  8
0
 62
9
  6
CONTINUOUS
 10
172.5700693972
 20
234.9791851306
 11
171.3565439056
 21
235.860863009
  0
LINE
  8
0
 62
9
  6
CONTINUOUS
 10
201.9655656635
 20
190.4134095758
 11
212.1631264779
 21
159.0285445381
  0
LINE
  8
0
 62
7
  6
CONTINUOUS
 10
193.9671321095
 20
219.8841588144
 11
195.4732177287
 21
215.2489038988
  0
LINE
  8
0
 62
7
  6
CONTINUOUS
 10
203.392150438
 20
190.8769350674
 11
213.5897112523
 21
159.4920700297
  0
LINE
  8
0
 62
9
  6
CONTINUOUS
 10
204.6762294818
 20
193.3970820888
 11
204.2127039903
 21
194.8236668632
  0
LINE
  8
0
 62
9
  6
CONTINUOUS
 10
205.15175774
 20
193.5515905859
 11
204.6882322484
 21
194.9781753604
  0
LINE
  8
0
 62
9
  6
CONTINUOUS
 10
221.9945920694
 20
150.3197521435
 11
221.4084953767
 21
148.9389948633
  0
LINE
  8
0
 62
9
  6
CONTINUOUS
 10
195.3754703434
 20
96.0096650369
 11
194.0897193924
 21
95.2371079245
  0
LINE
  8
0
 62
9
  6
CONTINUOUS
 10
108.3033211825
 20
260.5364411094
 11
109.7976132297
 21
260.4057074953
  0
LINE
  8
0
 62
9
  6
CONTINUOUS
 10
168.1810444145
 20
252.0028918158
 11
169.3131087848
 21
251.0188032723
  0
LINE
  8
0
 62
9
  6
CONTINUOUS
 10
211.6072456691
 20
209.9038627583
 11
211.9446722506
 21
208.4423076611
  0
LINE
  8
0
 62
9
  6
CONTINUOUS
 10
223.745053686
 20
149.5767252706
 11
223.1589569932
 21
148.1959679904
  0
LINE
  8
0
 62
9
  6
CONTINUOUS
 10
196.3548833012
 20
94.3796481465
 11
195.0691323502
 21
93.6070910341
  0
LINE
  8
0
 62
9
  6
CONTINUOUS
 10
108.4690593443
 20
262.4308369673
 11
109.9633513915
 21
262.3001033532
  0
LINE
  8
0
 62
9
  6
CONTINUOUS
 10
169.4286273513
 20
253.4380718117
 11
170.5606917217
 21
252.4539832682
  0
LINE
  8
0
 62
9
  6
CONTINUOUS
 10
213.4601391029
 20
210.3316369137
 11
213.7975656844
 21
208.8700818165
  0
POLYLINE
  8
0
 62
9
  6
CONTINUOUS
 66
1
 70
0
  0
VERTEX
  8
0
 62
9
  6
CONTINUOUS
 10
317.828125
 20
64.0216041896
  0
VERTEX
  8
0
 62
9
  6
CONTINUOUS
 10
318.0627767231
 20
64.0390624413
  0
VERTEX
  8
0
 62
9
  6
CONTINUOUS
 10
318.2916505391
 20
64.0910073155
  0
VERTEX
  8
0
 62
9
  6
CONTINUOUS
 10
318.5091108125
 20
64.1761597553
  0
VERTEX
  8
0
 62
9
  6
CONTINUOUS
 10
318.709802948
 20
64.2924230223
  0
VERTEX
  8
0
 62
9
  6
CONTINUOUS
 10
318.8887852387
 20
64.4369343256
  0
VERTEX
  8
0
 62
9
  6
CONTINUOUS
 10
319.0416505476
 20
64.6061353138
  0
VERTEX
  8
0
 62
9
  6
CONTINUOUS
 10
319.1646348257
 20
64.7958596939
  0
VERTEX
  8
0
 62
9
  6
CONTINUOUS
 10
319.2547097956
 20
65.0014358195
  0
VERTEX
  8
0
 62
9
  6
CONTINUOUS
 10
319.3096575171
 20
65.2178017225
  0
SEQEND
  0
LINE
  8
0
 62
7
  6
CONTINUOUS
 10
288.828125
 20
63.906839983
 11
317.828125
 21
63.906839983
  0
LINE
  8
0
 62
9
  6
CONTINUOUS
 10
303.328125
 20
64.0216041896
 11
317.828125
 21
64.0216041896
  0
LINE
  8
0
 62
9
  6
CONTINUOUS
 10
303.328125
 20
65.8238129233
 11
288.828125
 21
65.8238129233
  0
LINE
  8
0
 62
9
  6
CONTINUOUS
 10
303.328125
 20
67.7182087812
 11
288.828125
 21
67.7182087812
  0
POLYLINE
  8
0
 62
9
  6
CONTINUOUS
 66
1
 70
0
  0
VERTEX
  8
0
 62
9
  6
CONTINUOUS
 10
288.828125
 20
65.8238129233
  0
VERTEX
  8
0
 62
9
  6
CONTINUOUS
 10
288.5934731466
 20
65.8254224716
  0
VERTEX
  8
0
 62
9
  6
CONTINUOUS
 10
288.3645992313
 20
65.8302114867
  0
VERTEX
  8
0
 62
9
  6
CONTINUOUS
 10
288.1471388982
 20
65.838062046
  0
VERTEX
  8
0
 62
9
  6
CONTINUOUS
 10
287.9464467457
 20
65.8487808411
  0
VERTEX
  8
0
 62
9
  6
CONTINUOUS
 10
287.7674644779
 20
65.8621039381
  0
VERTEX
  8
0
 62
9
  6
CONTINUOUS
 10
287.6145992237
 20
65.8777032766
  0
VERTEX
  8
0
 62
9
  6
CONTINUOUS
 10
287.4916150185
 20
65.895194748
  0
VERTEX
  8
0
 62
9
  6
CONTINUOUS
 10
287.4015401234
 20
65.9141476533
  0
VERTEX
  8
0
 62
9
  6
CONTINUOUS
 10
287.3465924599
 20
65.9340953088
  0
VERTEX
  8
0
 62
9
  6
CONTINUOUS
 10
287.328125
 20
65.9545465374
  0
SEQEND
  0
POLYLINE
  8
0
 62
9
  6
CONTINUOUS
 66
1
 70
0
  0
VERTEX
  8
0
 62
9
  6
CONTINUOUS
 10
288.828125
 20
67.7182087812
  0
VERTEX
  8
0
 62
9
  6
CONTINUOUS
 10
288.5934733024
 20
67.7198183289
  0
VERTEX
  8
0
 62
9
  6
CONTINUOUS
 10
288.3645995084
 20
67.7246073397
  0
VERTEX
  8
0
 62
9
  6
CONTINUOUS
 10
288.1471392504
 20
67.7324578922
  0
VERTEX
  8
0
 62
9
  6
CONTINUOUS
 10
287.9464471216
 20
67.7431766798
  0
VERTEX
  8
0
 62
9
  6
CONTINUOUS
 10
287.7674648282
 20
67.7564997702
  0
VERTEX
  8
0
 62
9
  6
CONTINUOUS
 10
287.6145995084
 20
67.772099105
  0
VERTEX
  8
0
 62
9
  6
CONTINUOUS
 10
287.4916152137
 20
67.7895905765
  0
VERTEX
  8
0
 62
9
  6
CONTINUOUS
 10
287.4015402256
 20
67.8085434868
  0
VERTEX
  8
0
 62
9
  6
CONTINUOUS
 10
287.3465924891
 20
67.8284911523
  0
VERTEX
  8
0
 62
9
  6
CONTINUOUS
 10
287.328125
 20
67.8489423953
  0
SEQEND
  0
POLYLINE
  8
0
 62
9
  6
CONTINUOUS
 66
1
 70
0
  0
VERTEX
  8
0
 62
9
  6
CONTINUOUS
 10
317.828125
 20
74.9906797326
  0
VERTEX
  8
0
 62
9
  6
CONTINUOUS
 10
318.0627767231
 20
75.0012644407
  0
VERTEX
  8
0
 62
9
  6
CONTINUOUS
 10
318.2916505391
 20
75.0327579336
  0
VERTEX
  8
0
 62
9
  6
CONTINUOUS
 10
318.5091108125
 20
75.0843847361
  0
VERTEX
  8
0
 62
9
  6
CONTINUOUS
 10
318.709802948
 20
75.1548736231
  0
VERTEX
  8
0
 62
9
  6
CONTINUOUS
 10
318.8887852387
 20
75.2424889225
  0
VERTEX
  8
0
 62
9
  6
CONTINUOUS
 10
319.0416505476
 20
75.3450732525
  0
VERTEX
  8
0
 62
9
  6
CONTINUOUS
 10
319.1646348257
 20
75.4601006446
  0
VERTEX
  8
0
 62
9
  6
CONTINUOUS
 10
319.2547097956
 20
75.5847387412
  0
SEQEND
  0
LINE
  8
0
 62
7
  6
CONTINUOUS
 10
303.328125
 20
74.0943020398
 11
317.828125
 21
74.0943020398
  0
LINE
  8
0
 62
9
  6
CONTINUOUS
 10
303.328125
 20
74.9906797327
 11
317.828125
 21
74.9906797327
  0
LINE
  8
0
 62
9
  6
CONTINUOUS
 10
303.328125
 20
78.5461275556
 11
288.828125
 21
78.5461275556
  0
POLYLINE
  8
0
 62
9
  6
CONTINUOUS
 66
1
 70
0
  0
VERTEX
  8
0
 62
9
  6
CONTINUOUS
 10
288.828125
 20
78.5461275556
  0
VERTEX
  8
0
 62
9
  6
CONTINUOUS
 10
288.5934733338
 20
78.5610680641
  0
VERTEX
  8
0
 62
9
  6
CONTINUOUS
 10
288.3645995667
 20
78.6055217054
  0
VERTEX
  8
0
 62
9
  6
CONTINUOUS
 10
288.1471393273
 20
78.6783938852
  0
VERTEX
  8
0
 62
9
  6
CONTINUOUS
 10
287.9464472067
 20
78.7778902514
  0
VERTEX
  8
0
 62
9
  6
CONTINUOUS
 10
287.7674649102
 20
78.9015608766
  0
VERTEX
  8
0
 62
9
  6
CONTINUOUS
 10
287.6145995771
 20
79.0463605835
  0
VERTEX
  8
0
 62
9
  6
CONTINUOUS
 10
287.4916152622
 20
79.2087239259
  0
VERTEX
  8
0
 62
9
  6
CONTINUOUS
 10
287.4015402516
 20
79.3846529823
  0
VERTEX
  8
0
 62
9
  6
CONTINUOUS
 10
287.3465924968
 20
79.569815797
  0
VERTEX
  8
0
 62
9
  6
CONTINUOUS
 10
287.328125
 20
79.7596530472
  0
SEQEND
  0
POLYLINE
  8
0
 62
9
  6
CONTINUOUS
 66
1
 70
0
  0
VERTEX
  8
0
 62
9
  6
CONTINUOUS
 10
288.828125
 20
91.289511507
  0
VERTEX
  8
0
 62
9
  6
CONTINUOUS
 10
288.5934732769
 20
91.3071748435
  0
VERTEX
  8
0
 62
9
  6
CONTINUOUS
 10
288.3645994609
 20
91.3597299226
  0
VERTEX
  8
0
 62
9
  6
CONTINUOUS
 10
288.1471391875
 20
91.445882662
  0
VERTEX
  8
0
 62
9
  6
CONTINUOUS
 10
287.946447052
 20
91.5635116925
  0
VERTEX
  8
0
 62
9
  6
CONTINUOUS
 10
287.7674647613
 20
91.7097205936
  0
VERTEX
  8
0
 62
9
  6
CONTINUOUS
 10
287.6145994524
 20
91.8809092135
  0
VERTEX
  8
0
 62
9
  6
CONTINUOUS
 10
287.4916151743
 20
92.0728623169
  0
VERTEX
  8
0
 62
9
  6
CONTINUOUS
 10
287.4015402044
 20
92.2808533788
  0
VERTEX
  8
0
 62
9
  6
CONTINUOUS
 10
287.3465924829
 20
92.4997609674
  0
VERTEX
  8
0
 62
9
  6
CONTINUOUS
 10
287.328125
 20
92.7241948514
  0
SEQEND
  0
POLYLINE
  8
0
 62
9
  6
CONTINUOUS
 66
1
 70
0
  0
VERTEX
  8
0
 62
9
  6
CONTINUOUS
 10
317.828125
 20
96.4735777505
  0
VERTEX
  8
0
 62
9
  6
CONTINUOUS
 10
318.0627766976
 20
96.4885182631
  0
VERTEX
  8
0
 62
9
  6
CONTINUOUS
 10
318.2916504916
 20
96.5329719156
  0
VERTEX
  8
0
 62
9
  6
CONTINUOUS
 10
318.5091107496
 20
96.6058441118
  0
VERTEX
  8
0
 62
9
  6
CONTINUOUS
 10
318.7098028784
 20
96.7053404963
  0
VERTEX
  8
0
 62
9
  6
CONTINUOUS
 10
318.8887851718
 20
96.8290111379
  0
VERTEX
  8
0
 62
9
  6
CONTINUOUS
 10
319.0416504916
 20
96.9738108549
  0
VERTEX
  8
0
 62
9
  6
CONTINUOUS
 10
319.1646347863
 20
97.1361741977
  0
VERTEX
  8
0
 62
9
  6
CONTINUOUS
 10
319.2547097744
 20
97.3121032421
  0
VERTEX
  8
0
 62
9
  6
CONTINUOUS
 10
319.3096575109
 20
97.497266031
  0
VERTEX
  8
0
 62
9
  6
CONTINUOUS
 10
319.328125
 20
97.6871032421
  0
SEQEND
  0
POLYLINE
  8
0
 62
9
  6
CONTINUOUS
 66
1
 70
0
  0
VERTEX
  8
0
 62
9
  6
CONTINUOUS
 10
288.828125
 20
94.3796481465
  0
VERTEX
  8
0
 62
9
  6
CONTINUOUS
 10
288.5934731466
 20
94.3701366724
  0
VERTEX
  8
0
 62
9
  6
CONTINUOUS
 10
288.3645992313
 20
94.3418364612
  0
VERTEX
  8
0
 62
9
  6
CONTINUOUS
 10
288.1471388982
 20
94.2954443657
  0
VERTEX
  8
0
 62
9
  6
CONTINUOUS
 10
287.9464467457
 20
94.2321027226
  0
VERTEX
  8
0
 62
9
  6
CONTINUOUS
 10
287.7674644779
 20
94.1533712226
  0
VERTEX
  8
0
 62
9
  6
CONTINUOUS
 10
287.6145992237
 20
94.0611885055
  0
VERTEX
  8
0
 62
9
  6
CONTINUOUS
 10
287.4916150185
 20
93.9578244229
  0
VERTEX
  8
0
 62
9
  6
CONTINUOUS
 10
287.4015401234
 20
93.8458241464
  0
VERTEX
  8
0
 62
9
  6
CONTINUOUS
 10
287.3465924599
 20
93.7279454962
  0
VERTEX
  8
0
 62
9
  6
CONTINUOUS
 10
287.328125
 20
93.6070910341
  0
SEQEND
  0
POLYLINE
  8
0
 62
9
  6
CONTINUOUS
 66
1
 70
0
  0
VERTEX
  8
0
 62
9
  6
CONTINUOUS
 10
288.828125
 20
96.0096650369
  0
VERTEX
  8
0
 62
9
  6
CONTINUOUS
 10
288.5934733024
 20
96.0001535769
  0
VERTEX
  8
0
 62
9
  6
CONTINUOUS
 10
288.3645995084
 20
95.9718534005
  0
VERTEX
  8
0
 62
9
  6
CONTINUOUS
 10
288.1471392504
 20
95.925461352
  0
VERTEX
  8
0
 62
9
  6
CONTINUOUS
 10
287.9464471216
 20
95.8621197576
  0
VERTEX
  8
0
 62
9
  6
CONTINUOUS
 10
287.7674648282
 20
95.7833882975
  0
VERTEX
  8
0
 62
9
  6
CONTINUOUS
 10
287.6145995084
 20
95.6912056017
  0
VERTEX
  8
0
 62
9
  6
CONTINUOUS
 10
287.4916152137
 20
95.5878415141
  0
VERTEX
  8
0
 62
9
  6
CONTINUOUS
 10
287.4015402256
 20
95.4758412014
  0
VERTEX
  8
0
 62
9
  6
CONTINUOUS
 10
287.3465924891
 20
95.3579624831
  0
VERTEX
  8
0
 62
9
  6
CONTINUOUS
 10
287.328125
 20
95.2371079245
  0
SEQEND
  0
LINE
  8
0
 62
7
  6
CONTINUOUS
 10
303.328125
 20
90.6036866235
 11
288.828125
 21
90.6036866235
  0
LINE
  8
0
 62
9
  6
CONTINUOUS
 10
303.328125
 20
91.289511507
 11
288.828125
 21
91.289511507
  0
LINE
  8
0
 62
9
  6
CONTINUOUS
 10
303.328125
 20
93.27546476
 11
317.828125
 21
93.27546476
  0
LINE
  8
0
 62
9
  6
CONTINUOUS
 10
303.328125
 20
93.6799732572
 11
317.828125
 21
93.6799732572
  0
LINE
  8
0
 62
9
  6
CONTINUOUS
 10
303.328125
 20
94.3796481465
 11
288.828125
 21
94.3796481465
  0
LINE
  8
0
 62
9
  6
CONTINUOUS
 10
303.328125
 20
96.0096650369
 11
288.828125
 21
96.0096650369
  0
LINE
  8
0
 62
9
  6
CONTINUOUS
 10
303.328125
 20
96.4735777505
 11
317.828125
 21
96.4735777505
  0
POLYLINE
  8
0
 62
9
  6
CONTINUOUS
 66
1
 70
0
  0
VERTEX
  8
0
 62
9
  6
CONTINUOUS
 10
317.828125
 20
93.27546476
  0
VERTEX
  8
0
 62
9
  6
CONTINUOUS
 10
318.0627766976
 20
93.2646098423
  0
VERTEX
  8
0
 62
9
  6
CONTINUOUS
 10
318.2916504916
 20
93.2323123731
  0
VERTEX
  8
0
 62
9
  6
CONTINUOUS
 10
318.5091107496
 20
93.1793676235
  0
VERTEX
  8
0
 62
9
  6
CONTINUOUS
 10
318.7098028784
 20
93.1070792688
  0
VERTEX
  8
0
 62
9
  6
CONTINUOUS
 10
318.8887851718
 20
93.0172272882
  0
VERTEX
  8
0
 62
9
  6
CONTINUOUS
 10
319.0416504916
 20
92.9120241358
  0
VERTEX
  8
0
 62
9
  6
CONTINUOUS
 10
319.1646347863
 20
92.7940602622
  0
VERTEX
  8
0
 62
9
  6
CONTINUOUS
 10
319.2547097744
 20
92.6662403296
  0
VERTEX
  8
0
 62
9
  6
CONTINUOUS
 10
319.3096575109
 20
92.5317116888
  0
VERTEX
  8
0
 62
9
  6
CONTINUOUS
 10
319.328125
 20
92.3937868816
  0
SEQEND
  0
POLYLINE
  8
0
 62
9
  6
CONTINUOUS
 66
1
 70
0
  0
VERTEX
  8
0
 62
9
  6
CONTINUOUS
 10
317.828125
 20
93.6799732572
  0
VERTEX
  8
0
 62
9
  6
CONTINUOUS
 10
318.062776394
 20
93.6691183677
  0
VERTEX
  8
0
 62
9
  6
CONTINUOUS
 10
318.291649937
 20
93.6368209762
  0
VERTEX
  8
0
 62
9
  6
CONTINUOUS
 10
318.5091100273
 20
93.5838763369
  0
VERTEX
  8
0
 62
9
  6
CONTINUOUS
 10
318.70980209
 20
93.5115881026
  0
VERTEX
  8
0
 62
9
  6
CONTINUOUS
 10
318.8887844214
 20
93.4217362264
  0
VERTEX
  8
0
 62
9
  6
CONTINUOUS
 10
319.0416498693
 20
93.3165331363
  0
VERTEX
  8
0
 62
9
  6
CONTINUOUS
 10
319.1646343518
 20
93.1985692606
  0
VERTEX
  8
0
 62
9
  6
CONTINUOUS
 10
319.2547095428
 20
93.0707492457
  0
VERTEX
  8
0
 62
9
  6
CONTINUOUS
 10
319.3096574435
 20
92.9362204362
  0
VERTEX
  8
0
 62
9
  6
CONTINUOUS
 10
319.328125
 20
92.7982953787
  0
SEQEND
  0
LINE
  8
0
 62
9
  6
CONTINUOUS
 10
303.328125
 20
108.3704910762
 11
288.828125
 21
108.3704910762
  0
POLYLINE
  8
0
 62
9
  6
CONTINUOUS
 66
1
 70
0
  0
VERTEX
  8
0
 62
9
  6
CONTINUOUS
 10
288.828125
 20
108.3704910762
  0
VERTEX
  8
0
 62
9
  6
CONTINUOUS
 10
288.5934733338
 20
108.3761978426
  0
VERTEX
  8
0
 62
9
  6
CONTINUOUS
 10
288.3645995667
 20
108.3931776227
  0
VERTEX
  8
0
 62
9
  6
CONTINUOUS
 10
288.1471393273
 20
108.4210123185
  0
VERTEX
  8
0
 62
9
  6
CONTINUOUS
 10
287.9464472067
 20
108.4590165486
  0
VERTEX
  8
0
 62
9
  6
CONTINUOUS
 10
287.7674649102
 20
108.5062545241
  0
VERTEX
  8
0
 62
9
  6
CONTINUOUS
 10
287.6145995771
 20
108.5615630905
  0
VERTEX
  8
0
 62
9
  6
CONTINUOUS
 10
287.4916152622
 20
108.6235803688
  0
VERTEX
  8
0
 62
9
  6
CONTINUOUS
 10
287.4015402516
 20
108.6907792887
  0
VERTEX
  8
0
 62
9
  6
CONTINUOUS
 10
287.3465924968
 20
108.7615051905
  0
VERTEX
  8
0
 62
9
  6
CONTINUOUS
 10
287.328125
 20
108.8340165677
  0
SEQEND
  0
POLYLINE
  8
0
 62
9
  6
CONTINUOUS
 66
1
 70
0
  0
VERTEX
  8
0
 62
9
  6
CONTINUOUS
 10
287.4015402044
 20
252.6699111494
  0
VERTEX
  8
0
 62
9
  6
CONTINUOUS
 10
287.3465924829
 20
252.538731353
  0
VERTEX
  8
0
 62
9
  6
CONTINUOUS
 10
287.328125
 20
252.4042399385
  0
SEQEND
  0
POLYLINE
  8
0
 62
9
  6
CONTINUOUS
 66
1
 70
0
  0
VERTEX
  8
0
 62
9
  6
CONTINUOUS
 10
317.828125
 20
115.8704910762
  0
VERTEX
  8
0
 62
9
  6
CONTINUOUS
 10
318.0627766662
 20
115.8854315847
  0
VERTEX
  8
0
 62
9
  6
CONTINUOUS
 10
318.2916504333
 20
115.929885226
  0
VERTEX
  8
0
 62
9
  6
CONTINUOUS
 10
318.5091106727
 20
116.0027574058
  0
VERTEX
  8
0
 62
9
  6
CONTINUOUS
 10
318.7098027933
 20
116.1022537719
  0
VERTEX
  8
0
 62
9
  6
CONTINUOUS
 10
318.8887850898
 20
116.2259243972
  0
VERTEX
  8
0
 62
9
  6
CONTINUOUS
 10
319.0416504229
 20
116.370724104
  0
VERTEX
  8
0
 62
9
  6
CONTINUOUS
 10
319.1646347378
 20
116.5330874465
  0
VERTEX
  8
0
 62
9
  6
CONTINUOUS
 10
319.2547097484
 20
116.7090165029
  0
VERTEX
  8
0
 62
9
  6
CONTINUOUS
 10
319.3096575032
 20
116.8941793176
  0
VERTEX
  8
0
 62
9
  6
CONTINUOUS
 10
319.328125
 20
117.0840165677
  0
SEQEND
  0
LINE
  8
0
 62
9
  6
CONTINUOUS
 10
303.328125
 20
115.8704910762
 11
317.828125
 21
115.8704910762
  0
LINE
  8
0
 62
7
  6
CONTINUOUS
 10
303.328125
 20
117.869190113
 11
317.828125
 21
117.869190113
  0
LINE
  8
0
 62
9
  6
CONTINUOUS
 10
303.328125
 20
120.0069241037
 11
318.2916505391
 21
120.0056049372
  0
POLYLINE
  8
0
 62
9
  6
CONTINUOUS
 66
1
 70
0
  0
VERTEX
  8
0
 62
9
  6
CONTINUOUS
 10
318.2916505391
 20
120.0056049372
  0
VERTEX
  8
0
 62
9
  6
CONTINUOUS
 10
318.709802948
 20
120.0017765667
  0
VERTEX
  8
0
 62
9
  6
CONTINUOUS
 10
318.8887852387
 20
119.9990297956
  0
VERTEX
  8
0
 62
9
  6
CONTINUOUS
 10
319.0416505476
 20
119.9958137401
  0
VERTEX
  8
0
 62
9
  6
CONTINUOUS
 10
319.1646348257
 20
119.9922075901
  0
VERTEX
  8
0
 62
9
  6
CONTINUOUS
 10
319.2547097956
 20
119.988300141
  0
VERTEX
  8
0
 62
9
  6
CONTINUOUS
 10
319.3096575171
 20
119.9841876073
  0
VERTEX
  8
0
 62
9
  6
CONTINUOUS
 10
319.328125
 20
119.9799712532
  0
SEQEND
  0
POLYLINE
  8
0
 62
9
  6
CONTINUOUS
 66
1
 70
0
  0
VERTEX
  8
0
 62
9
  6
CONTINUOUS
 10
317.828125
 20
137.3777148232
  0
VERTEX
  8
0
 62
9
  6
CONTINUOUS
 10
318.0627766976
 20
137.3834215912
  0
VERTEX
  8
0
 62
9
  6
CONTINUOUS
 10
318.2916504916
 20
137.4004013755
  0
VERTEX
  8
0
 62
9
  6
CONTINUOUS
 10
318.5091107496
 20
137.4282360776
  0
VERTEX
  8
0
 62
9
  6
CONTINUOUS
 10
318.7098028784
 20
137.4662403147
  0
VERTEX
  8
0
 62
9
  6
CONTINUOUS
 10
318.8887851718
 20
137.5134782964
  0
VERTEX
  8
0
 62
9
  6
CONTINUOUS
 10
319.0416504916
 20
137.5687868667
  0
VERTEX
  8
0
 62
9
  6
CONTINUOUS
 10
319.1646347863
 20
137.6308041452
  0
VERTEX
  8
0
 62
9
  6
CONTINUOUS
 10
319.2547097744
 20
137.6980030605
  0
VERTEX
  8
0
 62
9
  6
CONTINUOUS
 10
319.3096575109
 20
137.7687289524
  0
VERTEX
  8
0
 62
9
  6
CONTINUOUS
 10
319.328125
 20
137.8412403147
  0
SEQEND
  0
LINE
  8
0
 62
9
  6
CONTINUOUS
 10
303.328125
 20
134.7030593047
 11
317.828125
 21
134.7030593047
  0
LINE
  8
0
 62
9
  6
CONTINUOUS
 10
303.328125
 20
134.8575678018
 11
317.828125
 21
134.8575678018
  0
LINE
  8
0
 62
9
  6
CONTINUOUS
 10
303.328125
 20
137.3777148232
 11
317.828125
 21
137.3777148232
  0
POLYLINE
  8
0
 62
9
  6
CONTINUOUS
 66
1
 70
0
  0
VERTEX
  8
0
 62
9
  6
CONTINUOUS
 10
317.828125
 20
134.7030593047
  0
VERTEX
  8
0
 62
9
  6
CONTINUOUS
 10
318.0627766976
 20
134.6854956788
  0
VERTEX
  8
0
 62
9
  6
CONTINUOUS
 10
318.2916504916
 20
134.633237276
  0
VERTEX
  8
0
 62
9
  6
CONTINUOUS
 10
318.5091107496
 20
134.5475708715
  0
VERTEX
  8
0
 62
9
  6
CONTINUOUS
 10
318.7098028784
 20
134.4306058567
  0
VERTEX
  8
0
 62
9
  6
CONTINUOUS
 10
318.8887851718
 20
134.2852222982
  0
VERTEX
  8
0
 62
9
  6
CONTINUOUS
 10
319.0416504916
 20
134.1150000218
  0
VERTEX
  8
0
 62
9
  6
CONTINUOUS
 10
319.1646347863
 20
133.9241304649
  0
VERTEX
  8
0
 62
9
  6
CONTINUOUS
 10
319.2547097744
 20
133.7173134694
  0
VERTEX
  8
0
 62
9
  6
CONTINUOUS
 10
319.3096575109
 20
133.4996415562
  0
VERTEX
  8
0
 62
9
  6
CONTINUOUS
 10
319.328125
 20
133.2764745302
  0
SEQEND
  0
POLYLINE
  8
0
 62
9
  6
CONTINUOUS
 66
1
 70
0
  0
VERTEX
  8
0
 62
9
  6
CONTINUOUS
 10
317.828125
 20
134.8575678018
  0
VERTEX
  8
0
 62
9
  6
CONTINUOUS
 10
318.062776394
 20
134.8400042217
  0
VERTEX
  8
0
 62
9
  6
CONTINUOUS
 10
318.291649937
 20
134.7877459445
  0
VERTEX
  8
0
 62
9
  6
CONTINUOUS
 10
318.5091100273
 20
134.7020797187
  0
VERTEX
  8
0
 62
9
  6
CONTINUOUS
 10
318.70980209
 20
134.5851148986
  0
VERTEX
  8
0
 62
9
  6
CONTINUOUS
 10
318.8887844214
 20
134.439731509
  0
VERTEX
  8
0
 62
9
  6
CONTINUOUS
 10
319.0416498693
 20
134.2695093334
  0
VERTEX
  8
0
 62
9
  6
CONTINUOUS
 10
319.1646343518
 20
134.0786397731
  0
VERTEX
  8
0
 62
9
  6
CONTINUOUS
 10
319.2547095428
 20
133.8718226445
  0
VERTEX
  8
0
 62
9
  6
CONTINUOUS
 10
319.3096574435
 20
133.6541504583
  0
VERTEX
  8
0
 62
9
  6
CONTINUOUS
 10
319.328125
 20
133.4309830274
  0
SEQEND
  0
LINE
  8
0
 62
9
  6
CONTINUOUS
 10
287.3465924829
 20
263.0368481681
 11
287.328125
 21
262.8150201342
  0
LINE
  8
0
 62
9
  6
CONTINUOUS
 10
303.328125
 20
139.7553561139
 11
288.828125
 21
139.7553561139
  0
LINE
  8
0
 62
7
  6
CONTINUOUS
 10
303.328125
 20
140.1140667922
 11
288.828125
 21
140.1140667922
  0
POLYLINE
  8
0
 62
9
  6
CONTINUOUS
 66
1
 70
0
  0
VERTEX
  8
0
 62
9
  6
CONTINUOUS
 10
288.828125
 20
139.7553561139
  0
VERTEX
  8
0
 62
9
  6
CONTINUOUS
 10
288.5934733024
 20
139.7610628819
  0
VERTEX
  8
0
 62
9
  6
CONTINUOUS
 10
288.3645995084
 20
139.7780426663
  0
VERTEX
  8
0
 62
9
  6
CONTINUOUS
 10
288.1471392504
 20
139.8058773684
  0
VERTEX
  8
0
 62
9
  6
CONTINUOUS
 10
287.9464471216
 20
139.8438816055
  0
VERTEX
  8
0
 62
9
  6
CONTINUOUS
 10
287.7674648282
 20
139.8911195871
  0
VERTEX
  8
0
 62
9
  6
CONTINUOUS
 10
287.6145995084
 20
139.9464281575
  0
VERTEX
  8
0
 62
9
  6
CONTINUOUS
 10
287.4916152137
 20
140.0084454359
  0
VERTEX
  8
0
 62
9
  6
CONTINUOUS
 10
287.4015402256
 20
140.0756443513
  0
VERTEX
  8
0
 62
9
  6
CONTINUOUS
 10
287.3465924891
 20
140.1463702432
  0
VERTEX
  8
0
 62
9
  6
CONTINUOUS
 10
287.328125
 20
140.2188816055
  0
SEQEND
  0
LINE
  8
0
 62
7
  6
CONTINUOUS
 10
286.828125
 20
212.1273249443
 11
286.828125
 21
116.1273249453
  0
LINE
  8
0
 62
7
  6
CONTINUOUS
 10
287.328125
 20
262.8478047613
 11
287.328125
 21
65.4068451293
  0
LINE
  8
0
 62
9
  6
CONTINUOUS
 10
288.828125
 20
264.3478099076
 11
288.828125
 21
63.906839983
  0
POLYLINE
  8
0
 62
9
  6
CONTINUOUS
 66
1
 70
0
  0
VERTEX
  8
0
 62
9
  6
CONTINUOUS
 10
288.828125
 20
149.5767252706
  0
VERTEX
  8
0
 62
9
  6
CONTINUOUS
 10
288.5934731466
 20
149.5597258339
  0
VERTEX
  8
0
 62
9
  6
CONTINUOUS
 10
288.3645992313
 20
149.5091461151
  0
VERTEX
  8
0
 62
9
  6
CONTINUOUS
 10
288.1471388982
 20
149.4262315686
  0
VERTEX
  8
0
 62
9
  6
CONTINUOUS
 10
287.9464467457
 20
149.313023842
  0
VERTEX
  8
0
 62
9
  6
CONTINUOUS
 10
287.7674644779
 20
149.1723105021
  0
VERTEX
  8
0
 62
9
  6
CONTINUOUS
 10
287.6145992237
 20
149.0075563941
  0
VERTEX
  8
0
 62
9
  6
CONTINUOUS
 10
287.4916150185
 20
148.8228183239
  0
VERTEX
  8
0
 62
9
  6
CONTINUOUS
 10
287.4015401234
 20
148.6226451644
  0
VERTEX
  8
0
 62
9
  6
CONTINUOUS
 10
287.3465924599
 20
148.4119658462
  0
VERTEX
  8
0
 62
9
  6
CONTINUOUS
 10
287.328125
 20
148.1959679904
  0
SEQEND
  0
POLYLINE
  8
0
 62
9
  6
CONTINUOUS
 66
1
 70
0
  0
VERTEX
  8
0
 62
9
  6
CONTINUOUS
 10
288.828125
 20
150.3197521435
  0
VERTEX
  8
0
 62
9
  6
CONTINUOUS
 10
288.5934733024
 20
150.3027527302
  0
VERTEX
  8
0
 62
9
  6
CONTINUOUS
 10
288.3645995084
 20
150.2521730721
  0
VERTEX
  8
0
 62
9
  6
CONTINUOUS
 10
288.1471392504
 20
150.1692586083
  0
VERTEX
  8
0
 62
9
  6
CONTINUOUS
 10
287.9464471216
 20
150.0560509681
  0
VERTEX
  8
0
 62
9
  6
CONTINUOUS
 10
287.7674648282
 20
149.9153376993
  0
VERTEX
  8
0
 62
9
  6
CONTINUOUS
 10
287.6145995084
 20
149.7505836296
  0
VERTEX
  8
0
 62
9
  6
CONTINUOUS
 10
287.4916152137
 20
149.565845551
  0
VERTEX
  8
0
 62
9
  6
CONTINUOUS
 10
287.4015402256
 20
149.365672328
  0
VERTEX
  8
0
 62
9
  6
CONTINUOUS
 10
287.3465924891
 20
149.1549928898
  0
VERTEX
  8
0
 62
9
  6
CONTINUOUS
 10
287.328125
 20
148.9389948633
  0
SEQEND
  0
LINE
  8
0
 62
9
  6
CONTINUOUS
 10
303.328125
 20
146.3789878915
 11
288.828125
 21
146.3789878915
  0
LINE
  8
0
 62
9
  6
CONTINUOUS
 10
303.328125
 20
149.5767252706
 11
288.828125
 21
149.5767252706
  0
LINE
  8
0
 62
9
  6
CONTINUOUS
 10
303.328125
 20
150.3197521435
 11
288.828125
 21
150.3197521435
  0
POLYLINE
  8
0
 62
9
  6
CONTINUOUS
 66
1
 70
0
  0
VERTEX
  8
0
 62
9
  6
CONTINUOUS
 10
288.828125
 20
146.3789878915
  0
VERTEX
  8
0
 62
9
  6
CONTINUOUS
 10
288.5934732769
 20
146.3901095188
  0
VERTEX
  8
0
 62
9
  6
CONTINUOUS
 10
288.3645994609
 20
146.4232005488
  0
VERTEX
  8
0
 62
9
  6
CONTINUOUS
 10
288.1471391875
 20
146.4774461695
  0
VERTEX
  8
0
 62
9
  6
CONTINUOUS
 10
287.946447052
 20
146.551510672
  0
VERTEX
  8
0
 62
9
  6
CONTINUOUS
 10
287.7674647613
 20
146.6435703402
  0
VERTEX
  8
0
 62
9
  6
CONTINUOUS
 10
287.6145994524
 20
146.7513583574
  0
VERTEX
  8
0
 62
9
  6
CONTINUOUS
 10
287.4916151743
 20
146.8722206228
  0
VERTEX
  8
0
 62
9
  6
CONTINUOUS
 10
287.4015402044
 20
147.0031811047
  0
VERTEX
  8
0
 62
9
  6
CONTINUOUS
 10
287.3465924829
 20
147.1410151205
  0
VERTEX
  8
0
 62
9
  6
CONTINUOUS
 10
287.328125
 20
147.2823287392
  0
SEQEND
  0
LINE
  8
0
 62
7
  6
CONTINUOUS
 10
303.328125
 20
63.9068400672
 11
303.328125
 21
137.3777148232
  0
LINE
  8
0
 62
7
  6
CONTINUOUS
 10
303.328125
 20
139.7553561139
 11
303.328125
 21
188.4992937767
  0
LINE
  8
0
 62
7
  6
CONTINUOUS
 10
303.328125
 20
190.8769350674
 11
303.328125
 21
264.3477419891
  0
POLYLINE
  8
0
 62
9
  6
CONTINUOUS
 66
1
 70
0
  0
VERTEX
  8
0
 62
9
  6
CONTINUOUS
 10
288.828125
 20
159.4920700297
  0
VERTEX
  8
0
 62
9
  6
CONTINUOUS
 10
288.5934733338
 20
159.4863632632
  0
VERTEX
  8
0
 62
9
  6
CONTINUOUS
 10
288.3645995667
 20
159.4693834832
  0
VERTEX
  8
0
 62
9
  6
CONTINUOUS
 10
288.1471393273
 20
159.4415487873
  0
VERTEX
  8
0
 62
9
  6
CONTINUOUS
 10
287.9464472067
 20
159.4035445572
  0
VERTEX
  8
0
 62
9
  6
CONTINUOUS
 10
287.7674649102
 20
159.3563065818
  0
VERTEX
  8
0
 62
9
  6
CONTINUOUS
 10
287.6145995771
 20
159.3009980153
  0
VERTEX
  8
0
 62
9
  6
CONTINUOUS
 10
287.4916152622
 20
159.238980737
  0
VERTEX
  8
0
 62
9
  6
CONTINUOUS
 10
287.4015402516
 20
159.1717818171
  0
VERTEX
  8
0
 62
9
  6
CONTINUOUS
 10
287.3465924968
 20
159.1010559153
  0
VERTEX
  8
0
 62
9
  6
CONTINUOUS
 10
287.328125
 20
159.0285445381
  0
SEQEND
  0
LINE
  8
0
 62
9
  6
CONTINUOUS
 10
303.328125
 20
159.4920700297
 11
288.828125
 21
159.4920700297
  0
LINE
  8
DEFAULT_1
 62
2
  6
CENTER
 10
284.828125
 20
164.1273249453
 11
321.828125
 21
164.1273249453
  0
POLYLINE
  8
0
 62
9
  6
CONTINUOUS
 66
1
 70
0
  0
VERTEX
  8
0
 62
9
  6
CONTINUOUS
 10
317.828125
 20
168.7625798609
  0
VERTEX
  8
0
 62
9
  6
CONTINUOUS
 10
318.0627766662
 20
168.7682866274
  0
VERTEX
  8
0
 62
9
  6
CONTINUOUS
 10
318.2916504333
 20
168.7852664074
  0
VERTEX
  8
0
 62
9
  6
CONTINUOUS
 10
318.5091106727
 20
168.8131011033
  0
VERTEX
  8
0
 62
9
  6
CONTINUOUS
 10
318.7098027933
 20
168.8511053334
  0
VERTEX
  8
0
 62
9
  6
CONTINUOUS
 10
318.8887850898
 20
168.8983433088
  0
VERTEX
  8
0
 62
9
  6
CONTINUOUS
 10
319.0416504229
 20
168.9536518753
  0
VERTEX
  8
0
 62
9
  6
CONTINUOUS
 10
319.1646347378
 20
169.0156691535
  0
VERTEX
  8
0
 62
9
  6
CONTINUOUS
 10
319.2547097484
 20
169.0828680735
  0
VERTEX
  8
0
 62
9
  6
CONTINUOUS
 10
319.3096575032
 20
169.1535939752
  0
VERTEX
  8
0
 62
9
  6
CONTINUOUS
 10
319.328125
 20
169.2261053525
  0
SEQEND
  0
LINE
  8
0
 62
9
  6
CONTINUOUS
 10
303.328125
 20
168.7625798609
 11
317.828125
 21
168.7625798609
  0
POLYLINE
  8
0
 62
9
  6
CONTINUOUS
 66
1
 70
0
  0
VERTEX
  8
0
 62
9
  6
CONTINUOUS
 10
317.828125
 20
177.9348977471
  0
VERTEX
  8
0
 62
9
  6
CONTINUOUS
 10
318.0627766976
 20
177.9518971604
  0
VERTEX
  8
0
 62
9
  6
CONTINUOUS
 10
318.2916504916
 20
178.0024768185
  0
VERTEX
  8
0
 62
9
  6
CONTINUOUS
 10
318.5091107496
 20
178.0853912823
  0
VERTEX
  8
0
 62
9
  6
CONTINUOUS
 10
318.7098028784
 20
178.1985989225
  0
VERTEX
  8
0
 62
9
  6
CONTINUOUS
 10
318.8887851718
 20
178.3393121913
  0
VERTEX
  8
0
 62
9
  6
CONTINUOUS
 10
319.0416504916
 20
178.504066261
  0
VERTEX
  8
0
 62
9
  6
CONTINUOUS
 10
319.1646347863
 20
178.6888043396
  0
VERTEX
  8
0
 62
9
  6
CONTINUOUS
 10
319.2547097744
 20
178.8889775626
  0
VERTEX
  8
0
 62
9
  6
CONTINUOUS
 10
319.3096575109
 20
179.0996570008
  0
VERTEX
  8
0
 62
9
  6
CONTINUOUS
 10
319.328125
 20
179.3156550273
  0
SEQEND
  0
POLYLINE
  8
0
 62
9
  6
CONTINUOUS
 66
1
 70
0
  0
VERTEX
  8
0
 62
9
  6
CONTINUOUS
 10
317.828125
 20
178.67792462
  0
VERTEX
  8
0
 62
9
  6
CONTINUOUS
 10
318.0627768534
 20
178.6949240567
  0
VERTEX
  8
0
 62
9
  6
CONTINUOUS
 10
318.2916507687
 20
178.7455037755
  0
VERTEX
  8
0
 62
9
  6
CONTINUOUS
 10
318.5091111018
 20
178.828418322
  0
VERTEX
  8
0
 62
9
  6
CONTINUOUS
 10
318.7098032543
 20
178.9416260486
  0
VERTEX
  8
0
 62
9
  6
CONTINUOUS
 10
318.8887855221
 20
179.0823393885
  0
VERTEX
  8
0
 62
9
  6
CONTINUOUS
 10
319.0416507763
 20
179.2470934965
  0
VERTEX
  8
0
 62
9
  6
CONTINUOUS
 10
319.1646349815
 20
179.4318315667
  0
VERTEX
  8
0
 62
9
  6
CONTINUOUS
 10
319.2547098766
 20
179.6320047262
  0
VERTEX
  8
0
 62
9
  6
CONTINUOUS
 10
319.3096575401
 20
179.8426840444
  0
VERTEX
  8
0
 62
9
  6
CONTINUOUS
 10
319.328125
 20
180.0586819002
  0
SEQEND
  0
LINE
  8
0
 62
9
  6
CONTINUOUS
 10
303.328125
 20
177.9348977471
 11
317.828125
 21
177.9348977471
  0
LINE
  8
0
 62
9
  6
CONTINUOUS
 10
317.828125
 20
63.906839983
 11
317.828125
 21
264.3478099076
  0
LINE
  8
0
 62
7
  6
CONTINUOUS
 10
319.328125
 20
65.4071283145
 11
319.328125
 21
262.8475215761
  0
LINE
  8
0
 62
7
  6
CONTINUOUS
 10
319.828125
 20
212.1273249443
 11
319.828125
 21
116.1273249463
  0
LINE
  8
0
 62
9
  6
CONTINUOUS
 10
303.328125
 20
178.67792462
 11
317.828125
 21
178.67792462
  0
LINE
  8
0
 62
9
  6
CONTINUOUS
 10
303.328125
 20
181.875661999
 11
317.828125
 21
181.875661999
  0
POLYLINE
  8
0
 62
9
  6
CONTINUOUS
 66
1
 70
0
  0
VERTEX
  8
0
 62
9
  6
CONTINUOUS
 10
317.828125
 20
181.875661999
  0
VERTEX
  8
0
 62
9
  6
CONTINUOUS
 10
318.0627767231
 20
181.8645403718
  0
VERTEX
  8
0
 62
9
  6
CONTINUOUS
 10
318.2916505391
 20
181.8314493418
  0
VERTEX
  8
0
 62
9
  6
CONTINUOUS
 10
318.5091108125
 20
181.7772037211
  0
VERTEX
  8
0
 62
9
  6
CONTINUOUS
 10
318.709802948
 20
181.7031392186
  0
VERTEX
  8
0
 62
9
  6
CONTINUOUS
 10
318.8887852387
 20
181.6110795504
  0
VERTEX
  8
0
 62
9
  6
CONTINUOUS
 10
319.0416505476
 20
181.5032915332
  0
VERTEX
  8
0
 62
9
  6
CONTINUOUS
 10
319.1646348257
 20
181.3824292678
  0
VERTEX
  8
0
 62
9
  6
CONTINUOUS
 10
319.2547097956
 20
181.2514687859
  0
VERTEX
  8
0
 62
9
  6
CONTINUOUS
 10
319.3096575171
 20
181.1136347701
  0
VERTEX
  8
0
 62
9
  6
CONTINUOUS
 10
319.328125
 20
180.9723211514
  0
SEQEND
  0
LINE
  8
0
 62
9
  6
CONTINUOUS
 10
319.3096575171
 20
65.2178017225
 11
319.328125
 21
65.4396297563
  0
POLYLINE
  8
0
 62
9
  6
CONTINUOUS
 66
1
 70
0
  0
VERTEX
  8
0
 62
9
  6
CONTINUOUS
 10
288.828125
 20
190.8769350674
  0
VERTEX
  8
0
 62
9
  6
CONTINUOUS
 10
288.5934733024
 20
190.8712282994
  0
VERTEX
  8
0
 62
9
  6
CONTINUOUS
 10
288.3645995084
 20
190.8542485151
  0
VERTEX
  8
0
 62
9
  6
CONTINUOUS
 10
288.1471392504
 20
190.826413813
  0
VERTEX
  8
0
 62
9
  6
CONTINUOUS
 10
287.9464471216
 20
190.7884095758
  0
VERTEX
  8
0
 62
9
  6
CONTINUOUS
 10
287.7674648282
 20
190.7411715942
  0
VERTEX
  8
0
 62
9
  6
CONTINUOUS
 10
287.6145995084
 20
190.6858630239
  0
VERTEX
  8
0
 62
9
  6
CONTINUOUS
 10
287.4916152137
 20
190.6238457454
  0
VERTEX
  8
0
 62
9
  6
CONTINUOUS
 10
287.4015402256
 20
190.5566468301
  0
VERTEX
  8
0
 62
9
  6
CONTINUOUS
 10
287.3465924891
 20
190.4859209382
  0
VERTEX
  8
0
 62
9
  6
CONTINUOUS
 10
287.328125
 20
190.4134095758
  0
SEQEND
  0
LINE
  8
0
 62
7
  6
CONTINUOUS
 10
303.328125
 20
188.1405830984
 11
317.828125
 21
188.1405830984
  0
LINE
  8
0
 62
9
  6
CONTINUOUS
 10
303.328125
 20
188.4992937767
 11
317.828125
 21
188.4992937767
  0
LINE
  8
0
 62
9
  6
CONTINUOUS
 10
303.328125
 20
190.8769350674
 11
288.828125
 21
190.8769350674
  0
POLYLINE
  8
0
 62
9
  6
CONTINUOUS
 66
1
 70
0
  0
VERTEX
  8
0
 62
9
  6
CONTINUOUS
 10
317.828125
 20
188.4992937767
  0
VERTEX
  8
0
 62
9
  6
CONTINUOUS
 10
318.0627766976
 20
188.4935870087
  0
VERTEX
  8
0
 62
9
  6
CONTINUOUS
 10
318.2916504916
 20
188.4766072243
  0
VERTEX
  8
0
 62
9
  6
CONTINUOUS
 10
318.5091107496
 20
188.4487725222
  0
VERTEX
  8
0
 62
9
  6
CONTINUOUS
 10
318.7098028784
 20
188.4107682851
  0
VERTEX
  8
0
 62
9
  6
CONTINUOUS
 10
318.8887851718
 20
188.3635303034
  0
VERTEX
  8
0
 62
9
  6
CONTINUOUS
 10
319.0416504916
 20
188.3082217331
  0
VERTEX
  8
0
 62
9
  6
CONTINUOUS
 10
319.1646347863
 20
188.2462044547
  0
VERTEX
  8
0
 62
9
  6
CONTINUOUS
 10
319.2547097744
 20
188.1790055393
  0
VERTEX
  8
0
 62
9
  6
CONTINUOUS
 10
319.3096575109
 20
188.1082796474
  0
VERTEX
  8
0
 62
9
  6
CONTINUOUS
 10
319.328125
 20
188.0357682851
  0
SEQEND
  0
LINE
  8
0
 62
9
  6
CONTINUOUS
 10
303.328125
 20
193.3970820888
 11
288.828125
 21
193.3970820888
  0
LINE
  8
0
 62
9
  6
CONTINUOUS
 10
303.328125
 20
193.5515905859
 11
288.828125
 21
193.5515905859
  0
POLYLINE
  8
0
 62
9
  6
CONTINUOUS
 66
1
 70
0
  0
VERTEX
  8
0
 62
9
  6
CONTINUOUS
 10
288.828125
 20
193.3970820888
  0
VERTEX
  8
0
 62
9
  6
CONTINUOUS
 10
288.593473606
 20
193.4146456689
  0
VERTEX
  8
0
 62
9
  6
CONTINUOUS
 10
288.364600063
 20
193.4669039461
  0
VERTEX
  8
0
 62
9
  6
CONTINUOUS
 10
288.1471399727
 20
193.5525701719
  0
VERTEX
  8
0
 62
9
  6
CONTINUOUS
 10
287.94644791
 20
193.669534992
  0
VERTEX
  8
0
 62
9
  6
CONTINUOUS
 10
287.7674655786
 20
193.8149183816
  0
VERTEX
  8
0
 62
9
  6
CONTINUOUS
 10
287.6146001307
 20
193.9851405572
  0
VERTEX
  8
0
 62
9
  6
CONTINUOUS
 10
287.4916156482
 20
194.1760101175
  0
VERTEX
  8
0
 62
9
  6
CONTINUOUS
 10
287.4015404572
 20
194.3828272461
  0
VERTEX
  8
0
 62
9
  6
CONTINUOUS
 10
287.3465925565
 20
194.6004994323
  0
VERTEX
  8
0
 62
9
  6
CONTINUOUS
 10
287.328125
 20
194.8236668632
  0
SEQEND
  0
POLYLINE
  8
0
 62
9
  6
CONTINUOUS
 66
1
 70
0
  0
VERTEX
  8
0
 62
9
  6
CONTINUOUS
 10
288.828125
 20
193.5515905859
  0
VERTEX
  8
0
 62
9
  6
CONTINUOUS
 10
288.5934733024
 20
193.5691542118
  0
VERTEX
  8
0
 62
9
  6
CONTINUOUS
 10
288.3645995084
 20
193.6214126146
  0
VERTEX
  8
0
 62
9
  6
CONTINUOUS
 10
288.1471392504
 20
193.707079019
  0
VERTEX
  8
0
 62
9
  6
CONTINUOUS
 10
287.9464471216
 20
193.8240440339
  0
VERTEX
  8
0
 62
9
  6
CONTINUOUS
 10
287.7674648282
 20
193.9694275924
  0
VERTEX
  8
0
 62
9
  6
CONTINUOUS
 10
287.6145995084
 20
194.1396498688
  0
VERTEX
  8
0
 62
9
  6
CONTINUOUS
 10
287.4916152137
 20
194.3305194257
  0
VERTEX
  8
0
 62
9
  6
CONTINUOUS
 10
287.4015402256
 20
194.5373364212
  0
VERTEX
  8
0
 62
9
  6
CONTINUOUS
 10
287.3465924891
 20
194.7550083344
  0
VERTEX
  8
0
 62
9
  6
CONTINUOUS
 10
287.328125
 20
194.9781753604
  0
SEQEND
  0
LINE
  8
0
 62
7
  6
CONTINUOUS
 10
303.328125
 20
210.3854597776
 11
288.828125
 21
210.3854597776
  0
LINE
  8
0
 62
9
  6
CONTINUOUS
 10
303.328125
 20
212.3841588144
 11
288.828125
 21
212.3841588144
  0
LINE
  8
0
 62
9
  6
CONTINUOUS
 10
303.328125
 20
208.2477257868
 11
288.3645994609
 21
208.2490449534
  0
POLYLINE
  8
0
 62
9
  6
CONTINUOUS
 66
1
 70
0
  0
VERTEX
  8
0
 62
9
  6
CONTINUOUS
 10
288.3645994609
 20
208.2490449534
  0
VERTEX
  8
0
 62
9
  6
CONTINUOUS
 10
287.946447052
 20
208.2528733239
  0
VERTEX
  8
0
 62
9
  6
CONTINUOUS
 10
287.7674647613
 20
208.255620095
  0
VERTEX
  8
0
 62
9
  6
CONTINUOUS
 10
287.6145994524
 20
208.2588361505
  0
VERTEX
  8
0
 62
9
  6
CONTINUOUS
 10
287.4916151743
 20
208.2624423005
  0
VERTEX
  8
0
 62
9
  6
CONTINUOUS
 10
287.4015402044
 20
208.2663497496
  0
VERTEX
  8
0
 62
9
  6
CONTINUOUS
 10
287.3465924829
 20
208.2704622833
  0
VERTEX
  8
0
 62
9
  6
CONTINUOUS
 10
287.328125
 20
208.2746786374
  0
SEQEND
  0
POLYLINE
  8
0
 62
9
  6
CONTINUOUS
 66
1
 70
0
  0
VERTEX
  8
0
 62
9
  6
CONTINUOUS
 10
319.2547097956
 20
75.5847387412
  0
VERTEX
  8
0
 62
9
  6
CONTINUOUS
 10
319.3096575171
 20
75.7159185376
  0
VERTEX
  8
0
 62
9
  6
CONTINUOUS
 10
319.328125
 20
75.8504099521
  0
SEQEND
  0
POLYLINE
  8
0
 62
9
  6
CONTINUOUS
 66
1
 70
0
  0
VERTEX
  8
0
 62
9
  6
CONTINUOUS
 10
288.828125
 20
212.3841588144
  0
VERTEX
  8
0
 62
9
  6
CONTINUOUS
 10
288.5934733338
 20
212.3692183059
  0
VERTEX
  8
0
 62
9
  6
CONTINUOUS
 10
288.3645995667
 20
212.3247646646
  0
VERTEX
  8
0
 62
9
  6
CONTINUOUS
 10
288.1471393273
 20
212.2518924848
  0
VERTEX
  8
0
 62
9
  6
CONTINUOUS
 10
287.9464472067
 20
212.1523961187
  0
VERTEX
  8
0
 62
9
  6
CONTINUOUS
 10
287.7674649102
 20
212.0287254934
  0
VERTEX
  8
0
 62
9
  6
CONTINUOUS
 10
287.6145995771
 20
211.8839257866
  0
VERTEX
  8
0
 62
9
  6
CONTINUOUS
 10
287.4916152622
 20
211.7215624441
  0
VERTEX
  8
0
 62
9
  6
CONTINUOUS
 10
287.4015402516
 20
211.5456333877
  0
VERTEX
  8
0
 62
9
  6
CONTINUOUS
 10
287.3465924968
 20
211.360470573
  0
VERTEX
  8
0
 62
9
  6
CONTINUOUS
 10
287.328125
 20
211.1706333229
  0
SEQEND
  0
LINE
  8
0
 62
9
  6
CONTINUOUS
 10
303.328125
 20
219.8841588144
 11
317.828125
 21
219.8841588144
  0
POLYLINE
  8
0
 62
9
  6
CONTINUOUS
 66
1
 70
0
  0
VERTEX
  8
0
 62
9
  6
CONTINUOUS
 10
317.828125
 20
219.8841588144
  0
VERTEX
  8
0
 62
9
  6
CONTINUOUS
 10
318.0627766662
 20
219.878452048
  0
VERTEX
  8
0
 62
9
  6
CONTINUOUS
 10
318.2916504333
 20
219.8614722679
  0
VERTEX
  8
0
 62
9
  6
CONTINUOUS
 10
318.5091106727
 20
219.8336375721
  0
VERTEX
  8
0
 62
9
  6
CONTINUOUS
 10
318.7098027933
 20
219.795633342
  0
VERTEX
  8
0
 62
9
  6
CONTINUOUS
 10
318.8887850898
 20
219.7483953665
  0
VERTEX
  8
0
 62
9
  6
CONTINUOUS
 10
319.0416504229
 20
219.6930868001
  0
VERTEX
  8
0
 62
9
  6
CONTINUOUS
 10
319.1646347378
 20
219.6310695218
  0
VERTEX
  8
0
 62
9
  6
CONTINUOUS
 10
319.2547097484
 20
219.5638706018
  0
VERTEX
  8
0
 62
9
  6
CONTINUOUS
 10
319.3096575032
 20
219.4931447001
  0
VERTEX
  8
0
 62
9
  6
CONTINUOUS
 10
319.328125
 20
219.4206333229
  0
SEQEND
  0
POLYLINE
  8
0
 62
9
  6
CONTINUOUS
 66
1
 70
0
  0
VERTEX
  8
0
 62
9
  6
CONTINUOUS
 10
288.828125
 20
231.7810721401
  0
VERTEX
  8
0
 62
9
  6
CONTINUOUS
 10
288.5934733024
 20
231.7661316275
  0
VERTEX
  8
0
 62
9
  6
CONTINUOUS
 10
288.3645995084
 20
231.7216779749
  0
VERTEX
  8
0
 62
9
  6
CONTINUOUS
 10
288.1471392504
 20
231.6488057788
  0
VERTEX
  8
0
 62
9
  6
CONTINUOUS
 10
287.9464471216
 20
231.5493093943
  0
VERTEX
  8
0
 62
9
  6
CONTINUOUS
 10
287.7674648282
 20
231.4256387527
  0
VERTEX
  8
0
 62
9
  6
CONTINUOUS
 10
287.6145995084
 20
231.2808390357
  0
VERTEX
  8
0
 62
9
  6
CONTINUOUS
 10
287.4916152137
 20
231.1184756929
  0
VERTEX
  8
0
 62
9
  6
CONTINUOUS
 10
287.4015402256
 20
230.9425466485
  0
VERTEX
  8
0
 62
9
  6
CONTINUOUS
 10
287.3465924891
 20
230.7573838596
  0
VERTEX
  8
0
 62
9
  6
CONTINUOUS
 10
287.328125
 20
230.5675466485
  0
SEQEND
  0
POLYLINE
  8
0
 62
9
  6
CONTINUOUS
 66
1
 70
0
  0
VERTEX
  8
0
 62
9
  6
CONTINUOUS
 10
317.828125
 20
232.2449848537
  0
VERTEX
  8
0
 62
9
  6
CONTINUOUS
 10
318.0627766976
 20
232.2544963137
  0
VERTEX
  8
0
 62
9
  6
CONTINUOUS
 10
318.2916504916
 20
232.2827964901
  0
VERTEX
  8
0
 62
9
  6
CONTINUOUS
 10
318.5091107496
 20
232.3291885386
  0
VERTEX
  8
0
 62
9
  6
CONTINUOUS
 10
318.7098028784
 20
232.392530133
  0
VERTEX
  8
0
 62
9
  6
CONTINUOUS
 10
318.8887851718
 20
232.471261593
  0
VERTEX
  8
0
 62
9
  6
CONTINUOUS
 10
319.0416504916
 20
232.5634442889
  0
VERTEX
  8
0
 62
9
  6
CONTINUOUS
 10
319.1646347863
 20
232.6668083765
  0
VERTEX
  8
0
 62
9
  6
CONTINUOUS
 10
319.2547097744
 20
232.7788086892
  0
VERTEX
  8
0
 62
9
  6
CONTINUOUS
 10
319.3096575109
 20
232.8966874075
  0
VERTEX
  8
0
 62
9
  6
CONTINUOUS
 10
319.328125
 20
233.0175419661
  0
SEQEND
  0
LINE
  8
0
 62
9
  6
CONTINUOUS
 10
303.328125
 20
231.7810721401
 11
288.828125
 21
231.7810721401
  0
LINE
  8
0
 62
9
  6
CONTINUOUS
 10
303.328125
 20
232.2449848537
 11
317.828125
 21
232.2449848537
  0
POLYLINE
  8
0
 62
9
  6
CONTINUOUS
 66
1
 70
0
  0
VERTEX
  8
0
 62
9
  6
CONTINUOUS
 10
317.828125
 20
233.8750017441
  0
VERTEX
  8
0
 62
9
  6
CONTINUOUS
 10
318.0627768534
 20
233.8845132182
  0
VERTEX
  8
0
 62
9
  6
CONTINUOUS
 10
318.2916507687
 20
233.9128134294
  0
VERTEX
  8
0
 62
9
  6
CONTINUOUS
 10
318.5091111018
 20
233.9592055248
  0
VERTEX
  8
0
 62
9
  6
CONTINUOUS
 10
318.7098032543
 20
234.022547168
  0
VERTEX
  8
0
 62
9
  6
CONTINUOUS
 10
318.8887855221
 20
234.101278668
  0
VERTEX
  8
0
 62
9
  6
CONTINUOUS
 10
319.0416507763
 20
234.1934613851
  0
VERTEX
  8
0
 62
9
  6
CONTINUOUS
 10
319.1646349815
 20
234.2968254676
  0
VERTEX
  8
0
 62
9
  6
CONTINUOUS
 10
319.2547098766
 20
234.4088257442
  0
VERTEX
  8
0
 62
9
  6
CONTINUOUS
 10
319.3096575401
 20
234.5267043944
  0
VERTEX
  8
0
 62
9
  6
CONTINUOUS
 10
319.328125
 20
234.6475588565
  0
SEQEND
  0
LINE
  8
0
 62
9
  6
CONTINUOUS
 10
303.328125
 20
233.8750017441
 11
317.828125
 21
233.8750017441
  0
LINE
  8
0
 62
9
  6
CONTINUOUS
 10
303.328125
 20
234.5746766334
 11
288.828125
 21
234.5746766334
  0
LINE
  8
0
 62
9
  6
CONTINUOUS
 10
303.328125
 20
234.9791851306
 11
288.828125
 21
234.9791851306
  0
LINE
  8
0
 62
9
  6
CONTINUOUS
 10
303.328125
 20
236.9651383836
 11
317.828125
 21
236.9651383836
  0
LINE
  8
0
 62
7
  6
CONTINUOUS
 10
303.328125
 20
237.6509632671
 11
317.828125
 21
237.6509632671
  0
POLYLINE
  8
0
 62
9
  6
CONTINUOUS
 66
1
 70
0
  0
VERTEX
  8
0
 62
9
  6
CONTINUOUS
 10
288.828125
 20
234.5746766334
  0
VERTEX
  8
0
 62
9
  6
CONTINUOUS
 10
288.593473606
 20
234.5855315229
  0
VERTEX
  8
0
 62
9
  6
CONTINUOUS
 10
288.364600063
 20
234.6178289144
  0
VERTEX
  8
0
 62
9
  6
CONTINUOUS
 10
288.1471399727
 20
234.6707735537
  0
VERTEX
  8
0
 62
9
  6
CONTINUOUS
 10
287.94644791
 20
234.743061788
  0
VERTEX
  8
0
 62
9
  6
CONTINUOUS
 10
287.7674655786
 20
234.8329136642
  0
VERTEX
  8
0
 62
9
  6
CONTINUOUS
 10
287.6146001307
 20
234.9381167543
  0
VERTEX
  8
0
 62
9
  6
CONTINUOUS
 10
287.4916156482
 20
235.05608063
  0
VERTEX
  8
0
 62
9
  6
CONTINUOUS
 10
287.4015404572
 20
235.1839006449
  0
VERTEX
  8
0
 62
9
  6
CONTINUOUS
 10
287.3465925565
 20
235.3184294544
  0
VERTEX
  8
0
 62
9
  6
CONTINUOUS
 10
287.328125
 20
235.4563545119
  0
SEQEND
  0
POLYLINE
  8
0
 62
9
  6
CONTINUOUS
 66
1
 70
0
  0
VERTEX
  8
0
 62
9
  6
CONTINUOUS
 10
288.828125
 20
234.9791851306
  0
VERTEX
  8
0
 62
9
  6
CONTINUOUS
 10
288.5934733024
 20
234.9900400483
  0
VERTEX
  8
0
 62
9
  6
CONTINUOUS
 10
288.3645995084
 20
235.0223375175
  0
VERTEX
  8
0
 62
9
  6
CONTINUOUS
 10
288.1471392504
 20
235.0752822671
  0
VERTEX
  8
0
 62
9
  6
CONTINUOUS
 10
287.9464471216
 20
235.1475706218
  0
VERTEX
  8
0
 62
9
  6
CONTINUOUS
 10
287.7674648282
 20
235.2374226024
  0
VERTEX
  8
0
 62
9
  6
CONTINUOUS
 10
287.6145995084
 20
235.3426257548
  0
VERTEX
  8
0
 62
9
  6
CONTINUOUS
 10
287.4916152137
 20
235.4605896284
  0
VERTEX
  8
0
 62
9
  6
CONTINUOUS
 10
287.4015402256
 20
235.588409561
  0
VERTEX
  8
0
 62
9
  6
CONTINUOUS
 10
287.3465924891
 20
235.7229382018
  0
VERTEX
  8
0
 62
9
  6
CONTINUOUS
 10
287.328125
 20
235.860863009
  0
SEQEND
  0
POLYLINE
  8
0
 62
9
  6
CONTINUOUS
 66
1
 70
0
  0
VERTEX
  8
0
 62
9
  6
CONTINUOUS
 10
317.828125
 20
236.9651383836
  0
VERTEX
  8
0
 62
9
  6
CONTINUOUS
 10
318.0627767231
 20
236.9474750471
  0
VERTEX
  8
0
 62
9
  6
CONTINUOUS
 10
318.2916505391
 20
236.894919968
  0
VERTEX
  8
0
 62
9
  6
CONTINUOUS
 10
318.5091108125
 20
236.8087672286
  0
VERTEX
  8
0
 62
9
  6
CONTINUOUS
 10
318.709802948
 20
236.6911381981
  0
VERTEX
  8
0
 62
9
  6
CONTINUOUS
 10
318.8887852387
 20
236.544929297
  0
VERTEX
  8
0
 62
9
  6
CONTINUOUS
 10
319.0416505476
 20
236.3737406771
  0
VERTEX
  8
0
 62
9
  6
CONTINUOUS
 10
319.1646348257
 20
236.1817875737
  0
VERTEX
  8
0
 62
9
  6
CONTINUOUS
 10
319.2547097956
 20
235.9737965118
  0
VERTEX
  8
0
 62
9
  6
CONTINUOUS
 10
319.3096575171
 20
235.7548889232
  0
VERTEX
  8
0
 62
9
  6
CONTINUOUS
 10
319.328125
 20
235.5304550392
  0
SEQEND
  0
LINE
  8
0
 62
9
  6
CONTINUOUS
 10
303.328125
 20
249.708522335
 11
317.828125
 21
249.708522335
  0
POLYLINE
  8
0
 62
9
  6
CONTINUOUS
 66
1
 70
0
  0
VERTEX
  8
0
 62
9
  6
CONTINUOUS
 10
317.828125
 20
249.708522335
  0
VERTEX
  8
0
 62
9
  6
CONTINUOUS
 10
318.0627766662
 20
249.6935818265
  0
VERTEX
  8
0
 62
9
  6
CONTINUOUS
 10
318.2916504333
 20
249.6491281852
  0
VERTEX
  8
0
 62
9
  6
CONTINUOUS
 10
318.5091106727
 20
249.5762560054
  0
VERTEX
  8
0
 62
9
  6
CONTINUOUS
 10
318.7098027933
 20
249.4767596392
  0
VERTEX
  8
0
 62
9
  6
CONTINUOUS
 10
318.8887850898
 20
249.3530890139
  0
VERTEX
  8
0
 62
9
  6
CONTINUOUS
 10
319.0416504229
 20
249.2082893071
  0
VERTEX
  8
0
 62
9
  6
CONTINUOUS
 10
319.1646347378
 20
249.0459259647
  0
VERTEX
  8
0
 62
9
  6
CONTINUOUS
 10
319.2547097484
 20
248.8699969083
  0
VERTEX
  8
0
 62
9
  6
CONTINUOUS
 10
319.3096575032
 20
248.6848340936
  0
VERTEX
  8
0
 62
9
  6
CONTINUOUS
 10
319.328125
 20
248.4949968434
  0
SEQEND
  0
POLYLINE
  8
0
 62
9
  6
CONTINUOUS
 66
1
 70
0
  0
VERTEX
  8
0
 62
9
  6
CONTINUOUS
 10
288.828125
 20
264.2330457009
  0
VERTEX
  8
0
 62
9
  6
CONTINUOUS
 10
288.5934732769
 20
264.2155874493
  0
VERTEX
  8
0
 62
9
  6
CONTINUOUS
 10
288.3645994609
 20
264.1636425751
  0
VERTEX
  8
0
 62
9
  6
CONTINUOUS
 10
288.1471391875
 20
264.0784901353
  0
VERTEX
  8
0
 62
9
  6
CONTINUOUS
 10
287.946447052
 20
263.9622268683
  0
VERTEX
  8
0
 62
9
  6
CONTINUOUS
 10
287.7674647613
 20
263.817715565
  0
VERTEX
  8
0
 62
9
  6
CONTINUOUS
 10
287.6145994524
 20
263.6485145768
  0
VERTEX
  8
0
 62
9
  6
CONTINUOUS
 10
287.4916151743
 20
263.4587901967
  0
VERTEX
  8
0
 62
9
  6
CONTINUOUS
 10
287.4015402044
 20
263.2532140711
  0
VERTEX
  8
0
 62
9
  6
CONTINUOUS
 10
287.3465924829
 20
263.0368481681
  0
SEQEND
  0
POLYLINE
  8
0
 62
9
  6
CONTINUOUS
 66
1
 70
0
  0
VERTEX
  8
0
 62
9
  6
CONTINUOUS
 10
288.828125
 20
253.2639701579
  0
VERTEX
  8
0
 62
9
  6
CONTINUOUS
 10
288.5934732769
 20
253.2533854499
  0
VERTEX
  8
0
 62
9
  6
CONTINUOUS
 10
288.3645994609
 20
253.221891957
  0
VERTEX
  8
0
 62
9
  6
CONTINUOUS
 10
288.1471391875
 20
253.1702651545
  0
VERTEX
  8
0
 62
9
  6
CONTINUOUS
 10
287.946447052
 20
253.0997762675
  0
VERTEX
  8
0
 62
9
  6
CONTINUOUS
 10
287.7674647613
 20
253.0121609681
  0
VERTEX
  8
0
 62
9
  6
CONTINUOUS
 10
287.6145994524
 20
252.9095766381
  0
VERTEX
  8
0
 62
9
  6
CONTINUOUS
 10
287.4916151743
 20
252.794549246
  0
VERTEX
  8
0
 62
9
  6
CONTINUOUS
 10
287.4015402044
 20
252.6699111494
  0
SEQEND
  0
LINE
  8
0
 62
9
  6
CONTINUOUS
 10
303.328125
 20
253.2639701579
 11
288.828125
 21
253.2639701579
  0
LINE
  8
0
 62
7
  6
CONTINUOUS
 10
303.328125
 20
254.1603478508
 11
288.828125
 21
254.1603478508
  0
LINE
  8
0
 62
9
  6
CONTINUOUS
 10
303.328125
 20
260.5364411094
 11
317.828125
 21
260.5364411094
  0
LINE
  8
0
 62
9
  6
CONTINUOUS
 10
303.328125
 20
262.4308369673
 11
317.828125
 21
262.4308369673
  0
LINE
  8
0
 62
9
  6
CONTINUOUS
 10
303.328125
 20
264.2330457009
 11
288.828125
 21
264.2330457009
  0
LINE
  8
0
 62
7
  6
CONTINUOUS
 10
288.828125
 20
264.3478099076
 11
317.828125
 21
264.3478099076
  0
POLYLINE
  8
0
 62
9
  6
CONTINUOUS
 66
1
 70
0
  0
VERTEX
  8
0
 62
9
  6
CONTINUOUS
 10
317.828125
 20
260.5364411094
  0
VERTEX
  8
0
 62
9
  6
CONTINUOUS
 10
318.0627766976
 20
260.5348315617
  0
VERTEX
  8
0
 62
9
  6
CONTINUOUS
 10
318.2916504916
 20
260.5300425509
  0
VERTEX
  8
0
 62
9
  6
CONTINUOUS
 10
318.5091107496
 20
260.5221919984
  0
VERTEX
  8
0
 62
9
  6
CONTINUOUS
 10
318.7098028784
 20
260.5114732108
  0
VERTEX
  8
0
 62
9
  6
CONTINUOUS
 10
318.8887851718
 20
260.4981501203
  0
VERTEX
  8
0
 62
9
  6
CONTINUOUS
 10
319.0416504916
 20
260.4825507856
  0
VERTEX
  8
0
 62
9
  6
CONTINUOUS
 10
319.1646347863
 20
260.4650593141
  0
VERTEX
  8
0
 62
9
  6
CONTINUOUS
 10
319.2547097744
 20
260.4461064038
  0
VERTEX
  8
0
 62
9
  6
CONTINUOUS
 10
319.3096575109
 20
260.4261587383
  0
VERTEX
  8
0
 62
9
  6
CONTINUOUS
 10
319.328125
 20
260.4057074953
  0
SEQEND
  0
POLYLINE
  8
0
 62
9
  6
CONTINUOUS
 66
1
 70
0
  0
VERTEX
  8
0
 62
9
  6
CONTINUOUS
 10
317.828125
 20
262.4308369673
  0
VERTEX
  8
0
 62
9
  6
CONTINUOUS
 10
318.0627768534
 20
262.429227419
  0
VERTEX
  8
0
 62
9
  6
CONTINUOUS
 10
318.2916507687
 20
262.4244384039
  0
VERTEX
  8
0
 62
9
  6
CONTINUOUS
 10
318.5091111018
 20
262.4165878446
  0
VERTEX
  8
0
 62
9
  6
CONTINUOUS
 10
318.7098032543
 20
262.4058690495
  0
VERTEX
  8
0
 62
9
  6
CONTINUOUS
 10
318.8887855221
 20
262.3925459525
  0
VERTEX
  8
0
 62
9
  6
CONTINUOUS
 10
319.0416507763
 20
262.376946614
  0
VERTEX
  8
0
 62
9
  6
CONTINUOUS
 10
319.1646349815
 20
262.3594551426
  0
VERTEX
  8
0
 62
9
  6
CONTINUOUS
 10
319.2547098766
 20
262.3405022373
  0
VERTEX
  8
0
 62
9
  6
CONTINUOUS
 10
319.3096575401
 20
262.3205545818
  0
VERTEX
  8
0
 62
9
  6
CONTINUOUS
 10
319.328125
 20
262.3001033532
  0
SEQEND
  0
ARC
  8
0
 62
9
  6
CONTINUOUS
 10
41.9878215684
 20
103.7352361606
 40
16.5000000287
 50
54.0
 51
103.0
  0
ARC
  8
0
 62
7
  6
CONTINUOUS
 10
59.6501039003
 20
106.3536866235
 40
15.75
 50
253.0295784631
 51
324.0
  0
ARC
  8
0
 62
7
  6
CONTINUOUS
 10
41.9878215684
 20
103.7352361606
 40
15.0
 50
54.0
 51
103.0
  0
ARC
  8
0
 62
7
  6
CONTINUOUS
 10
41.9878215684
 20
103.7352361606
 40
15.0
 50
329.0
 51
18.0
  0
ARC
  8
0
 62
7
  6
CONTINUOUS
 10
55.6659694526
 20
93.2980681892
 40
2.1
 50
149.0
 51
253.0295784631
  0
ARC
  8
0
 62
7
  6
CONTINUOUS
 10
74.3040481766
 20
96.3250068925
 40
2.0
 50
54.0
 51
144.0
  0
ARC
  8
0
 62
7
  6
CONTINUOUS
 10
49.9360613438
 20
119.723919173
 40
15.75
 50
108.0
 51
178.9704215369
  0
ARC
  8
0
 62
7
  6
CONTINUOUS
 10
38.1934155575
 20
155.8640667922
 40
15.75
 50
217.0295784631
 51
288.0
  0
ARC
  8
0
 62
9
  6
CONTINUOUS
 10
49.9360613438
 20
119.723919173
 40
14.2500000127
 50
108.0
 51
178.9704215369
  0
ARC
  8
0
 62
9
  6
CONTINUOUS
 10
44.9265379518
 20
136.7596808344
 40
3.4999995329
 50
288.0
 51
18.0
  0
ARC
  8
0
 62
7
  6
CONTINUOUS
 10
36.2882651053
 20
119.969190113
 40
2.1
 50
178.9704215337
 51
283.0000000029
  0
ARC
  8
0
 62
7
  6
CONTINUOUS
 10
27.2962831062
 20
147.6436650783
 40
2.1
 50
113.0
 51
217.0295784631
  0
ARC
  8
0
 62
7
  6
CONTINUOUS
 10
44.9265379518
 20
136.7596808344
 40
2.0
 50
288.0
 51
18.0
  0
ARC
  8
0
 62
7
  6
CONTINUOUS
 10
44.1539954658
 20
139.1373221252
 40
2.0
 50
18.0
 51
108.0
  0
ARC
  8
0
 62
9
  6
CONTINUOUS
 10
36.2882651053
 20
119.969190113
 40
0.5999999135
 50
178.9704215369
 51
283.0
  0
ARC
  8
0
 62
9
  6
CONTINUOUS
 10
93.3604007112
 20
66.41087264
 40
16.5000000287
 50
90.0
 51
139.0
  0
ARC
  8
0
 62
7
  6
CONTINUOUS
 10
90.3927496865
 20
84.0178470364
 40
15.75
 50
144.0
 51
214.9704215369
  0
ARC
  8
0
 62
7
  6
CONTINUOUS
 10
106.1104007112
 20
78.91087264
 40
15.75
 50
289.0295784631
 51
360.0
  0
ARC
  8
0
 62
7
  6
CONTINUOUS
 10
93.3604007112
 20
66.41087264
 40
15.0
 50
90.0
 51
139.0
  0
ARC
  8
0
 62
7
  6
CONTINUOUS
 10
93.3604007112
 20
66.41087264
 40
15.0
 50
5.0
 51
54.0
  0
ARC
  8
0
 62
9
  6
CONTINUOUS
 10
90.3927496865
 20
84.0178470364
 40
14.2500000127
 50
144.0
 51
214.9704215369
  0
ARC
  8
0
 62
9
  6
CONTINUOUS
 10
76.3265906625
 20
94.8555437618
 40
3.4999995329
 50
324.0
 51
54.0
  0
ARC
  8
0
 62
7
  6
CONTINUOUS
 10
79.2072839525
 20
76.1943020398
 40
2.1
 50
214.9704215337
 51
319.0000000029
  0
ARC
  8
0
 62
7
  6
CONTINUOUS
 10
110.5610682103
 20
66.006839983
 40
2.1
 50
185.0
 51
289.0295784631
  0
ARC
  8
0
 62
7
  6
CONTINUOUS
 10
76.3265906625
 20
94.8555437618
 40
2.0
 50
324.0
 51
54.0
  0
ARC
  8
0
 62
7
  6
CONTINUOUS
 10
123.8604007112
 20
79.41087264
 40
2.0
 50
90.0
 51
180.0
  0
ARC
  8
0
 62
9
  6
CONTINUOUS
 10
79.2072839525
 20
76.1943020398
 40
0.5999999135
 50
214.9704215369
 51
319.0
  0
ARC
  8
BLANK_COSM
 62
2
  6
PHANTOM
 10
118.7153543289
 20
121.0956073226
 40
3.2
 50
2.2544307753
 51
45.0
  0
ARC
  8
BLANK_COSM
 62
2
  6
PHANTOM
 10
114.4727136418
 20
125.3382480097
 40
3.2
 50
45.0
 51
86.4096221093
  0
ARC
  8
BLANK_COSM
 62
2
  6
PHANTOM
 10
114.8735002821
 20
131.7256864688
 40
3.2
 50
225.0
 51
266.4096221093
  0
ARC
  8
BLANK_COSM
 62
2
  6
PHANTOM
 10
92.7087622347
 20
153.8904245162
 40
3.2
 50
183.5903778907
 51
225.0
  0
ARC
  8
BLANK_COSM
 62
2
  6
PHANTOM
 10
86.3213237756
 20
153.4896378759
 40
3.2
 50
3.5903778907
 51
45.0
  0
ARC
  8
BLANK_COSM
 62
2
  6
PHANTOM
 10
82.0786830885
 20
157.732278563
 40
3.2
 50
45.0
 51
87.7455692247
  0
ARC
  8
0
 62
9
  6
CONTINUOUS
 10
22.3652424255
 20
164.1273249453
 40
16.5000000287
 50
18.0
 51
67.0
  0
ARC
  8
0
 62
7
  6
CONTINUOUS
 10
38.1934155575
 20
172.3905830984
 40
15.75
 50
72.0
 51
142.9704215369
  0
ARC
  8
0
 62
7
  6
CONTINUOUS
 10
49.9360613438
 20
208.5307307176
 40
15.75
 50
181.0295784631
 51
252.0
  0
ARC
  8
0
 62
7
  6
CONTINUOUS
 10
22.3652424255
 20
164.1273249453
 40
15.0
 50
18.0
 51
67.0
  0
ARC
  8
0
 62
7
  6
CONTINUOUS
 10
22.3652424255
 20
164.1273249453
 40
15.0
 50
293.0
 51
342.0
  0
ARC
  8
0
 62
9
  6
CONTINUOUS
 10
38.1934155575
 20
172.3905830984
 40
14.2500000127
 50
72.0
 51
142.9704215369
  0
ARC
  8
0
 62
9
  6
CONTINUOUS
 10
44.1539954658
 20
189.1173277654
 40
3.4999995329
 50
252.0
 51
342.0
  0
ARC
  8
0
 62
7
  6
CONTINUOUS
 10
27.2962831062
 20
180.6109848123
 40
2.1
 50
142.9704215337
 51
247.0000000029
  0
ARC
  8
0
 62
7
  6
CONTINUOUS
 10
36.2882651053
 20
208.2854597776
 40
2.1
 50
77.0
 51
181.0295784631
  0
ARC
  8
0
 62
7
  6
CONTINUOUS
 10
44.1539954658
 20
189.1173277654
 40
2.0
 50
252.0
 51
342.0
  0
ARC
  8
0
 62
7
  6
CONTINUOUS
 10
44.9265379518
 20
191.4949690562
 40
2.0
 50
342.0
 51
72.0
  0
ARC
  8
0
 62
9
  6
CONTINUOUS
 10
27.2962831062
 20
180.6109848123
 40
0.5999999135
 50
142.9704215369
 51
247.0
  0
ARC
  8
0
 62
9
  6
CONTINUOUS
 10
41.9878215684
 20
224.51941373
 40
16.5000000287
 50
342.0
 51
31.0
  0
ARC
  8
0
 62
7
  6
CONTINUOUS
 10
59.6501039003
 20
221.9009632671
 40
15.75
 50
36.0
 51
106.9704215369
  0
ARC
  8
0
 62
7
  6
CONTINUOUS
 10
41.9878215684
 20
224.51941373
 40
15.0
 50
342.0
 51
31.0
  0
ARC
  8
0
 62
7
  6
CONTINUOUS
 10
41.9878215684
 20
224.51941373
 40
15.0
 50
257.0
 51
306.0
  0
ARC
  8
0
 62
9
  6
CONTINUOUS
 10
59.6501039003
 20
221.9009632671
 40
14.2500000127
 50
36.0
 51
106.9704215369
  0
ARC
  8
0
 62
7
  6
CONTINUOUS
 10
55.6659694526
 20
234.9565817014
 40
2.1
 50
106.9704215337
 51
211.0000000029
  0
ARC
  8
0
 62
9
  6
CONTINUOUS
 10
55.6659694526
 20
234.9565817014
 40
0.5999999135
 50
106.9704215369
 51
211.0
  0
ARC
  8
BLANK_COSM
 62
2
  6
PHANTOM
 10
82.3304404494
 20
164.1273249453
 40
3.2
 50
92.2544307753
 51
267.7455692247
  0
ARC
  8
BLANK_COSM
 62
2
  6
PHANTOM
 10
82.0786830885
 20
170.5223713276
 40
3.2
 50
272.2544307753
 51
315.0
  0
ARC
  8
BLANK_COSM
 62
2
  6
PHANTOM
 10
86.3213237756
 20
174.7650120147
 40
3.2
 50
315.0
 51
356.4096221093
  0
ARC
  8
BLANK_COSM
 62
2
  6
PHANTOM
 10
92.7087622347
 20
174.3642253744
 40
3.2
 50
135.0
 51
176.4096221093
  0
ARC
  8
BLANK_COSM
 62
2
  6
PHANTOM
 10
114.8735002821
 20
196.5289634217
 40
3.2
 50
93.5903778907
 51
135.0
  0
ARC
  8
BLANK_COSM
 62
2
  6
PHANTOM
 10
114.4727136418
 20
202.9164018809
 40
3.2
 50
273.5903778907
 51
315.0
  0
ARC
  8
BLANK_COSM
 62
2
  6
PHANTOM
 10
118.7153543289
 20
207.159042568
 40
3.2
 50
315.0
 51
357.7455692247
  0
ARC
  8
0
 62
9
  6
CONTINUOUS
 10
93.3604007112
 20
261.8437772506
 40
16.5000000287
 50
306.0
 51
355.0
  0
ARC
  8
0
 62
7
  6
CONTINUOUS
 10
106.1104007112
 20
249.3437772506
 40
15.75
 50
0.0
 51
70.9704215369
  0
ARC
  8
0
 62
7
  6
CONTINUOUS
 10
90.3927496865
 20
244.2368028542
 40
15.75
 50
145.0295784631
 51
216.0
  0
ARC
  8
0
 62
7
  6
CONTINUOUS
 10
93.3604007112
 20
261.8437772506
 40
15.0
 50
306.0
 51
355.0
  0
ARC
  8
0
 62
7
  6
CONTINUOUS
 10
93.3604007112
 20
261.8437772506
 40
15.0
 50
221.0
 51
270.0
  0
ARC
  8
0
 62
9
  6
CONTINUOUS
 10
106.1104007112
 20
249.3437772506
 40
14.2500000127
 50
0.0
 51
70.9704215369
  0
ARC
  8
0
 62
9
  6
CONTINUOUS
 10
123.8604007112
 20
248.8437772506
 40
3.4999995329
 50
180.0
 51
270.0
  0
ARC
  8
0
 62
9
  6
CONTINUOUS
 10
74.3040481766
 20
231.9296429981
 40
3.4999995329
 50
216.0
 51
306.0
  0
ARC
  8
0
 62
7
  6
CONTINUOUS
 10
110.5610682103
 20
262.2478099076
 40
2.1
 50
70.9704215337
 51
175.0000000029
  0
ARC
  8
0
 62
7
  6
CONTINUOUS
 10
79.2072839525
 20
252.0603478508
 40
2.1
 50
41.0
 51
145.0295784631
  0
ARC
  8
0
 62
7
  6
CONTINUOUS
 10
123.8604007112
 20
248.8437772506
 40
2.0
 50
180.0
 51
270.0
  0
ARC
  8
0
 62
7
  6
CONTINUOUS
 10
74.3040481766
 20
231.9296429981
 40
2.0
 50
216.0
 51
306.0
  0
ARC
  8
0
 62
7
  6
CONTINUOUS
 10
76.3265906625
 20
233.3991061288
 40
2.0
 50
306.0
 51
36.0
  0
ARC
  8
0
 62
9
  6
CONTINUOUS
 10
110.5610682103
 20
262.2478099076
 40
0.5999999135
 50
70.9704215369
 51
175.0
  0
ARC
  8
0
 62
9
  6
CONTINUOUS
 10
156.8604007112
 20
66.41087264
 40
16.5000000287
 50
126.0
 51
175.0
  0
ARC
  8
0
 62
7
  6
CONTINUOUS
 10
144.1104007112
 20
78.91087264
 40
15.75
 50
180.0
 51
250.9704215369
  0
ARC
  8
0
 62
7
  6
CONTINUOUS
 10
159.8280517358
 20
84.0178470364
 40
15.75
 50
325.0295784631
 51
36.0
  0
ARC
  8
0
 62
7
  6
CONTINUOUS
 10
156.8604007112
 20
66.41087264
 40
15.0
 50
126.0
 51
175.0
  0
ARC
  8
0
 62
7
  6
CONTINUOUS
 10
156.8604007112
 20
66.41087264
 40
15.0
 50
41.0
 51
90.0
  0
ARC
  8
0
 62
9
  6
CONTINUOUS
 10
144.1104007112
 20
78.91087264
 40
14.2500000127
 50
180.0
 51
250.9704215369
  0
ARC
  8
0
 62
9
  6
CONTINUOUS
 10
126.3604007112
 20
79.41087264
 40
3.4999995329
 50
0.0
 51
90.0
  0
ARC
  8
0
 62
7
  6
CONTINUOUS
 10
139.659733212
 20
66.006839983
 40
2.1
 50
250.9704215369
 51
355.0
  0
ARC
  8
0
 62
7
  6
CONTINUOUS
 10
171.0135174698
 20
76.1943020398
 40
2.1
 50
221.0
 51
325.0295784631
  0
ARC
  8
0
 62
7
  6
CONTINUOUS
 10
126.3604007112
 20
79.41087264
 40
2.0
 50
0.0
 51
90.0
  0
ARC
  8
0
 62
7
  6
CONTINUOUS
 10
173.8942107598
 20
94.8555437618
 40
2.0
 50
126.0
 51
216.0
  0
ARC
  8
0
 62
9
  6
CONTINUOUS
 10
139.659733212
 20
66.006839983
 40
0.5999999135
 50
250.9704215369
 51
355.0
  0
ARC
  8
BLANK_COSM
 62
2
  6
PHANTOM
 10
168.1421183338
 20
157.732278563
 40
3.2
 50
92.2544307753
 51
135.0
  0
ARC
  8
BLANK_COSM
 62
2
  6
PHANTOM
 10
163.8994776467
 20
153.4896378759
 40
3.2
 50
135.0
 51
176.4096221093
  0
ARC
  8
BLANK_COSM
 62
2
  6
PHANTOM
 10
157.5120391876
 20
153.8904245162
 40
3.2
 50
315.0
 51
356.4096221093
  0
ARC
  8
BLANK_COSM
 62
2
  6
PHANTOM
 10
135.3473011403
 20
131.7256864688
 40
3.2
 50
273.5903778907
 51
315.0
  0
ARC
  8
BLANK_COSM
 62
2
  6
PHANTOM
 10
135.7480877805
 20
125.3382480097
 40
3.2
 50
93.5903778907
 51
135.0
  0
ARC
  8
BLANK_COSM
 62
2
  6
PHANTOM
 10
131.5054470934
 20
121.0956073226
 40
3.2
 50
135.0
 51
177.7455692247
  0
ARC
  8
BLANK_COSM
 62
2
  6
PHANTOM
 10
125.1104007112
 20
121.3473646835
 40
3.2
 50
182.2544307753
 51
357.7455692247
  0
CIRCLE
  8
0
 62
7
  6
CONTINUOUS
 10
168.516805692
 20
122.228983172
 40
1.275
  0
ARC
  8
0
 62
7
  6
CONTINUOUS
 10
167.951120267
 20
125.0927656358
 40
1.0
 50
225.0
 51
315.0
  0
ARC
  8
0
 62
7
  6
CONTINUOUS
 10
170.4967046793
 20
128.0626141168
 40
1.0
 50
45.0
 51
135.0
  0
ARC
  8
0
 62
7
  6
CONTINUOUS
 10
168.1997874641
 20
125.2000114767
 40
0.9
 50
315.0
 51
11.2510114041
  0
ARC
  8
0
 62
7
  6
CONTINUOUS
 10
170.2492173059
 20
127.9565480996
 40
0.9
 50
135.0
 51
191.4426902381
  0
ARC
  8
0
 62
7
  6
CONTINUOUS
 10
168.1632523014
 20
125.5877403826
 40
0.5
 50
315.0
 51
45.0
  0
ARC
  8
0
 62
7
  6
CONTINUOUS
 10
170.284572645
 20
127.56763937
 40
0.5
 50
135.0
 51
225.0
  0
ARC
  8
0
 62
7
  6
CONTINUOUS
 10
168.0571862842
 20
125.1281209749
 40
0.25
 50
225.0
 51
315.0
  0
ARC
  8
0
 62
7
  6
CONTINUOUS
 10
170.3906386621
 20
128.0272587777
 40
0.25
 50
45.0
 51
135.0
  0
ARC
  8
0
 62
9
  6
CONTINUOUS
 10
208.232979854
 20
103.7352361606
 40
16.5000000287
 50
162.0
 51
211.0
  0
ARC
  8
0
 62
7
  6
CONTINUOUS
 10
190.570697522
 20
106.3536866235
 40
15.75
 50
216.0
 51
286.9704215369
  0
ARC
  8
0
 62
7
  6
CONTINUOUS
 10
208.232979854
 20
103.7352361606
 40
15.0
 50
162.0
 51
211.0
  0
ARC
  8
0
 62
7
  6
CONTINUOUS
 10
208.232979854
 20
103.7352361606
 40
15.0
 50
77.0
 51
126.0
  0
ARC
  8
0
 62
9
  6
CONTINUOUS
 10
190.570697522
 20
106.3536866235
 40
14.2500000127
 50
216.0
 51
286.9704215369
  0
ARC
  8
0
 62
9
  6
CONTINUOUS
 10
175.9167532457
 20
96.3250068925
 40
3.4999995329
 50
36.0
 51
126.0
  0
ARC
  8
0
 62
7
  6
CONTINUOUS
 10
194.5548319698
 20
93.2980681892
 40
2.1
 50
286.9704215369
 51
31.0
  0
ARC
  8
0
 62
7
  6
CONTINUOUS
 10
175.9167532457
 20
96.3250068925
 40
2.0
 50
36.0
 51
126.0
  0
ARC
  8
0
 62
9
  6
CONTINUOUS
 10
194.5548319698
 20
93.2980681892
 40
0.5999999135
 50
286.9704215369
 51
31.0
  0
ARC
  8
0
 62
7
  6
CONTINUOUS
 10
212.0273858648
 20
155.8640667922
 40
15.75
 50
252.0
 51
322.9704215369
  0
ARC
  8
0
 62
7
  6
CONTINUOUS
 10
200.2847400786
 20
119.723919173
 40
15.75
 50
1.0295784631
 51
72.0
  0
ARC
  8
0
 62
9
  6
CONTINUOUS
 10
212.0273858648
 20
155.8640667922
 40
14.2500000127
 50
252.0
 51
322.9704215369
  0
ARC
  8
0
 62
9
  6
CONTINUOUS
 10
206.0668059565
 20
139.1373221252
 40
3.4999995329
 50
72.0
 51
162.0
  0
ARC
  8
0
 62
7
  6
CONTINUOUS
 10
222.9245183161
 20
147.6436650783
 40
2.1
 50
322.9704215369
 51
67.0
  0
ARC
  8
0
 62
7
  6
CONTINUOUS
 10
213.932536317
 20
119.969190113
 40
2.1
 50
257.0
 51
1.0295784631
  0
ARC
  8
0
 62
7
  6
CONTINUOUS
 10
206.0668059565
 20
139.1373221252
 40
2.0
 50
72.0
 51
162.0
  0
ARC
  8
0
 62
7
  6
CONTINUOUS
 10
205.2942634706
 20
136.7596808344
 40
2.0
 50
162.0
 51
252.0
  0
ARC
  8
0
 62
9
  6
CONTINUOUS
 10
222.9245183161
 20
147.6436650783
 40
0.5999999135
 50
322.9704215369
 51
67.0
  0
ARC
  8
CURVE
 62
4
  6
CONTINUOUS
 10
125.1104007112
 20
164.1273249453
 40
101.2933094793
 50
53.501526328
 51
70.5022864824
  0
CIRCLE
  8
0
 62
9
  6
CONTINUOUS
 10
125.1104007112
 20
164.1273249453
 40
77.0
  0
CIRCLE
  8
0
 62
9
  6
CONTINUOUS
 10
125.1104007112
 20
164.1273249453
 40
74.7018666706
  0
CIRCLE
  8
0
 62
9
  6
CONTINUOUS
 10
125.1104007112
 20
164.1273249453
 40
67.2701914375
  0
CIRCLE
  8
0
 62
9
  6
CONTINUOUS
 10
125.1104007112
 20
164.1273249453
 40
64.9720581081
  0
CIRCLE
  8
0
 62
7
  6
CONTINUOUS
 10
125.1104007112
 20
164.1273249453
 40
50.0
  0
CIRCLE
  8
0
 62
9
  6
CONTINUOUS
 10
125.1104007112
 20
164.1273249453
 40
47.999999997
  0
CIRCLE
  8
BLANK_COSM
 62
2
  6
PHANTOM
 10
125.1104007112
 20
164.1273249453
 40
9.525
  0
ARC
  8
BLANK_COSM
 62
2
  6
PHANTOM
 10
167.8903609729
 20
164.1273249453
 40
3.2
 50
272.2544307753
 51
87.7455692247
  0
ARC
  8
BLANK_COSM
 62
2
  6
PHANTOM
 10
125.1104007112
 20
206.9072852071
 40
3.2
 50
2.2544307753
 51
177.7455692247
  0
ARC
  8
BLANK_COSM
 62
2
  6
PHANTOM
 10
131.5054470934
 20
207.159042568
 40
3.2
 50
182.2544307753
 51
225.0
  0
ARC
  8
BLANK_COSM
 62
2
  6
PHANTOM
 10
135.7480877805
 20
202.9164018809
 40
3.2
 50
225.0
 51
266.4096221093
  0
ARC
  8
BLANK_COSM
 62
2
  6
PHANTOM
 10
135.3473011403
 20
196.5289634217
 40
3.2
 50
45.0
 51
86.4096221093
  0
ARC
  8
BLANK_COSM
 62
2
  6
PHANTOM
 10
157.5120391876
 20
174.3642253744
 40
3.2
 50
3.5903778907
 51
45.0
  0
ARC
  8
BLANK_COSM
 62
2
  6
PHANTOM
 10
163.8994776467
 20
174.7650120147
 40
3.2
 50
183.5903778907
 51
225.0
  0
ARC
  8
BLANK_COSM
 62
2
  6
PHANTOM
 10
168.1421183338
 20
170.5223713276
 40
3.2
 50
225.0
 51
267.7455692247
  0
ARC
  8
0
 62
9
  6
CONTINUOUS
 10
156.8604007112
 20
261.8437772506
 40
16.5000000287
 50
270.0
 51
319.0
  0
ARC
  8
0
 62
7
  6
CONTINUOUS
 10
159.8280517358
 20
244.2368028542
 40
15.75
 50
324.0
 51
34.9704215369
  0
ARC
  8
0
 62
7
  6
CONTINUOUS
 10
144.1104007112
 20
249.3437772506
 40
15.75
 50
109.0295784631
 51
180.0
  0
ARC
  8
0
 62
7
  6
CONTINUOUS
 10
156.8604007112
 20
261.8437772506
 40
15.0
 50
270.0
 51
319.0
  0
ARC
  8
0
 62
7
  6
CONTINUOUS
 10
156.8604007112
 20
261.8437772506
 40
15.0
 50
185.0
 51
234.0
  0
ARC
  8
0
 62
9
  6
CONTINUOUS
 10
159.8280517358
 20
244.2368028542
 40
14.2500000127
 50
324.0
 51
34.9704215369
  0
ARC
  8
0
 62
9
  6
CONTINUOUS
 10
173.8942107598
 20
233.3991061288
 40
3.4999995329
 50
144.0
 51
234.0
  0
ARC
  8
0
 62
7
  6
CONTINUOUS
 10
171.0135174698
 20
252.0603478508
 40
2.1
 50
34.9704215369
 51
139.0
  0
ARC
  8
0
 62
7
  6
CONTINUOUS
 10
139.659733212
 20
262.2478099076
 40
2.1
 50
5.0
 51
109.0295784631
  0
ARC
  8
0
 62
7
  6
CONTINUOUS
 10
173.8942107598
 20
233.3991061288
 40
2.0
 50
144.0
 51
234.0
  0
ARC
  8
0
 62
7
  6
CONTINUOUS
 10
126.3604007112
 20
248.8437772506
 40
2.0
 50
270.0
 51
360.0
  0
ARC
  8
0
 62
7
  6
CONTINUOUS
 10
175.9167532457
 20
231.9296429981
 40
2.0
 50
234.0
 51
324.0
  0
ARC
  8
0
 62
9
  6
CONTINUOUS
 10
171.0135174698
 20
252.0603478508
 40
0.5999999135
 50
34.9704215369
 51
139.0
  0
ARC
  8
0
 62
9
  6
CONTINUOUS
 10
227.8555589968
 20
164.1273249453
 40
16.5000000287
 50
198.0
 51
247.0
  0
ARC
  8
0
 62
7
  6
CONTINUOUS
 10
200.2847400786
 20
208.5307307176
 40
15.75
 50
288.0
 51
358.9704215369
  0
ARC
  8
0
 62
7
  6
CONTINUOUS
 10
212.0273858648
 20
172.3905830984
 40
15.75
 50
37.0295784631
 51
108.0
  0
ARC
  8
0
 62
7
  6
CONTINUOUS
 10
227.8555589968
 20
164.1273249453
 40
15.0
 50
198.0
 51
247.0
  0
ARC
  8
0
 62
7
  6
CONTINUOUS
 10
227.8555589968
 20
164.1273249453
 40
15.0
 50
113.0
 51
162.0
  0
ARC
  8
0
 62
9
  6
CONTINUOUS
 10
200.2847400786
 20
208.5307307176
 40
14.2500000127
 50
288.0
 51
358.9704215369
  0
ARC
  8
0
 62
9
  6
CONTINUOUS
 10
205.2942634706
 20
191.4949690562
 40
3.4999995329
 50
108.0
 51
198.0
  0
ARC
  8
0
 62
7
  6
CONTINUOUS
 10
213.932536317
 20
208.2854597776
 40
2.1
 50
358.9704215369
 51
103.0
  0
ARC
  8
0
 62
7
  6
CONTINUOUS
 10
222.9245183161
 20
180.6109848123
 40
2.1
 50
293.0
 51
37.0295784631
  0
ARC
  8
0
 62
7
  6
CONTINUOUS
 10
205.2942634706
 20
191.4949690562
 40
2.0
 50
108.0
 51
198.0
  0
ARC
  8
0
 62
7
  6
CONTINUOUS
 10
206.0668059565
 20
189.1173277654
 40
2.0
 50
198.0
 51
288.0
  0
ARC
  8
0
 62
9
  6
CONTINUOUS
 10
213.932536317
 20
208.2854597776
 40
0.5999999135
 50
358.9704215369
 51
103.0
  0
ARC
  8
0
 62
9
  6
CONTINUOUS
 10
208.232979854
 20
224.51941373
 40
16.5000000287
 50
234.0
 51
283.0
  0
ARC
  8
0
 62
7
  6
CONTINUOUS
 10
190.570697522
 20
221.9009632671
 40
15.75
 50
73.0295784631
 51
144.0
  0
ARC
  8
0
 62
7
  6
CONTINUOUS
 10
208.232979854
 20
224.51941373
 40
15.0
 50
234.0
 51
283.0
  0
ARC
  8
0
 62
7
  6
CONTINUOUS
 10
208.232979854
 20
224.51941373
 40
15.0
 50
149.0
 51
198.0
  0
ARC
  8
0
 62
7
  6
CONTINUOUS
 10
194.5548319698
 20
234.9565817014
 40
2.1
 50
329.0
 51
73.0295784631
  0
ARC
  8
0
 62
7
  6
CONTINUOUS
 10
317.828125
 20
116.1273249453
 40
2.0
 50
318.6246340667
 51
360.0
  0
ARC
  8
0
 62
7
  6
CONTINUOUS
 10
317.828125
 20
212.1273249453
 40
2.0
 50
0.0
 51
41.3753659333
  0
ARC
  8
0
 62
7
  6
CONTINUOUS
 10
288.828125
 20
212.1273249453
 40
2.0
 50
138.6246340667
 51
180.0000000277
  0
ARC
  8
0
 62
7
  6
CONTINUOUS
 10
288.828125
 20
116.1273249453
 40
2.0
 50
179.9999999723
 51
221.3753659333
  0
ARC
  8
0
 62
7
  6
CONTINUOUS
 10
317.828125
 20
65.406839983
 40
1.5
 50
270.0
 51
0.000012003
  0
ARC
  8
0
 62
7
  6
CONTINUOUS
 10
317.828125
 20
262.8478099076
 40
1.5
 50
359.999987997
 51
90.0
  0
ARC
  8
0
 62
7
  6
CONTINUOUS
 10
317.828125
 20
236.1509632671
 40
1.5
 50
0.0000000464
 51
90.0
  0
ARC
  8
0
 62
7
  6
CONTINUOUS
 10
317.828125
 20
186.6405830984
 40
1.5
 50
359.9999994319
 51
90.0
  0
ARC
  8
0
 62
7
  6
CONTINUOUS
 10
317.828125
 20
119.369190113
 40
1.5
 50
270.0
 51
0.0000070549
  0
ARC
  8
0
 62
7
  6
CONTINUOUS
 10
317.828125
 20
75.5943020398
 40
1.5
 50
270.0
 51
0.0000000804
  0
ARC
  8
0
 62
7
  6
CONTINUOUS
 10
288.828125
 20
65.406839983
 40
1.5
 50
179.999987997
 51
270.0
  0
ARC
  8
0
 62
7
  6
CONTINUOUS
 10
288.828125
 20
92.1036866235
 40
1.5
 50
180.0000000464
 51
270.0
  0
ARC
  8
0
 62
7
  6
CONTINUOUS
 10
288.828125
 20
141.6140667922
 40
1.5
 50
179.9999994319
 51
270.0
  0
ARC
  8
0
 62
7
  6
CONTINUOUS
 10
288.828125
 20
208.8854597776
 40
1.5
 50
90.0
 51
180.0000070549
  0
ARC
  8
0
 62
7
  6
CONTINUOUS
 10
288.828125
 20
252.6603478508
 40
1.5
 50
90.0
 51
180.0000000804
  0
ARC
  8
0
 62
7
  6
CONTINUOUS
 10
288.828125
 20
262.8478099076
 40
1.5
 50
90.0
 51
180.000012003
  0
ENDSEC
  0
EOF
