  0
SECTION
  2
HEADER
  9
$EXTMAX
 10
420.0
 20
297.0
 30
0.0
  9
$EXTMIN
 10
0.0
 20
0.0
 30
0.0
  9
$LIMMIN
 10
0.0
 20
0.0
  9
$LIMMAX
 10
420.0
 20
297.0
  9
$VIEWCTR
 10
210.0
 20
148.5
  9
$VIEWSIZE
 40
297.0
  9
$CLAYER
  8
0
  9
$LTSCALE
 40
23.1
  9
$CELTYPE
  6
BYLAYER
  9
$DIMSCALE
 40
1.0
  9
$DIMASZ
 40
3.5
  9
$DIMEXO
 40
2.625
  9
$DIMDLI
 40
15.96
  9
$DIMEXE
 40
7.56
  9
$DIMCEN
 40
3.78
  9
$DIMLFAC
 40
1.0
  9
$DIMBLK
  1
_FILLED
  9
$DIMTXT
 40
3.5
  9
$PDMODE
 70
3
  9
$PDSIZE
 40
0.3125
  9
$TILEMODE
 70
1
  0
ENDSEC
  0
SECTION
  2
TABLES
  0
TABLE
  2
LTYPE
 70
6
  0
LTYPE
  2
BYBLOCK
 70
0
  3

 72
65
 73
0
 40
0.0
  0
LTYPE
  2
BYLAYER
 70
0
  3

 72
65
 73
0
 40
0.0
  0
LTYPE
  2
CONTINUOUS
 70
64
  3
Solid line
 72
65
 73
0
 40
0.0
  0
LTYPE
  2
CENTER
 70
64
  3
____ _ ____ _ ____ _ ____ _ ____ _ ____ _ ____
 72
65
 73
4
 40
0.6
 49
0.375
 49
-0.075
 49
0.075
 49
-0.075
  0
LTYPE
  2
HIDDEN
 70
64
  3
- - - - - - - - - - - - - - - - - - - -
 72
65
 73
2
 40
0.2
 49
0.1
 49
-0.1
  0
LTYPE
  2
PHANTOM
 70
64
  3
_____ _ _ _____ _ _ _____ _ _ _____
 72
65
 73
6
 40
0.8
 49
0.45
 49
-0.05
 49
0.1
 49
-0.05
 49
0.1
 49
-0.05
  0
LTYPE
  2
DOT
 70
64
  3
. . . . . . . . . . . . . . . . . . . .
 72
65
 73
2
 40
0.2
 49
0.1
 49
-0.1
  0
LTYPE
  2
DASHED
 70
64
  3
- - - - - - - - - - - - - - - - - - - -
 72
65
 73
2
 40
0.2
 49
0.1
 49
-0.1
  0
ENDTAB
  0
TABLE
  2
LAYER
 70
36
  0
LAYER
  2
0
 70
0
 62
7
  6
CONTINUOUS
  0
LAYER
  2
DEFAULT_1
 70
0
 62
7
  6
CENTER
  0
LAYER
  2
DEFAULT_2
 70
0
 62
8
  6
HIDDEN
  0
LAYER
  2
DEFAULT_3
 70
0
 62
7
  6
PHANTOM
  0
LAYER
  2
1_DATUMPLANE
 70
0
 62
7
  6
CONTINUOUS
  0
LAYER
  2
3_CURVE
 70
0
 62
7
  6
CONTINUOUS
  0
LAYER
  2
6_DIM
 70
0
 62
7
  6
CONTINUOUS
  0
LAYER
  2
CSYS
 70
0
 62
7
  6
CONTINUOUS
  0
LAYER
  2
CURVE
 70
0
 62
7
  6
CONTINUOUS
  0
LAYER
  2
SURFACE
 70
0
 62
7
  6
CONTINUOUS
  0
LAYER
  2
SURF_PART
 70
0
 62
7
  6
CONTINUOUS
  0
ENDTAB
  0
TABLE
  2
STYLE
 70
1
  0
STYLE
  2
STANDARD
 70
0
 40
0.0
 41
0.8
 50
0.0
 71
0
 42
0.2
  3
txt
  4

  0
STYLE
  2
TEXTSTYLE_1
 70
0
 40
0.0
 41
0.8
 50
0.0
 71
0
 42
0.2
  3
gdt
  4

  0
STYLE
  2
TEXTSTYLE_2
 70
0
 40
0.0
 41
0.6
 50
0.0
 71
0
 42
0.2
  3
txt
  4

  0
STYLE
  2
TEXTSTYLE_3
 70
0
 40
0.0
 41
1.0
 50
0.0
 71
0
 42
0.2
  3
ftb_____.ttf
  4

  0
STYLE
  2
TEXTSTYLE_4
 70
0
 40
0.0
 41
1.0
 50
0.0
 71
0
 42
0.2
  3
fti_____.ttf
  4

  0
STYLE
  2
TEXTSTYLE_5
 70
0
 40
0.0
 41
1.0
 50
0.0
 71
0
 42
0.2
  3
frutiger light.ttf
  4

  0
STYLE
  2
TEXTSTYLE_6
 70
0
 40
0.0
 41
0.7
 50
0.0
 71
0
 42
0.2
  3
txt
  4

  0
STYLE
  2
TEXTSTYLE_7
 70
0
 40
0.0
 41
0.5
 50
0.0
 71
0
 42
0.2
  3
txt
  4

  0
ENDTAB
  0
ENDSEC
  0
SECTION
  2
BLOCKS
  0
BLOCK
  8
0
 62
2
  6
CONTINUOUS
  2
SYMBOL_5_BL1
 70
64
 10
382.7840918555
 20
35.5067593403
  0
TEXT
  8
0
 62
7
  6
CONTINUOUS
 10
373.842376864
 20
30.5995157174
  7
TEXTSTYLE_4
 40
1.0655737705
  1
The brand for plastic modular belts and chains
 41
1.0
 72
0
  0
LINE
  8
0
 62
7
  6
CONTINUOUS
 10
358.7621602445
 20
36.0805298321
 11
358.7621602445
 21
33.9493822911
  0
LINE
  8
0
 62
7
  6
CONTINUOUS
 10
359.0512227376
 20
30.9584509954
 11
359.0512227376
 21
31.0552420547
  0
LINE
  8
0
 62
7
  6
CONTINUOUS
 10
358.7621602445
 20
31.0229783683
 11
358.8199727462
 21
30.8293962497
  0
LINE
  8
0
 62
7
  6
CONTINUOUS
 10
360.1556028675
 20
33.867415078
 11
360.1556028675
 21
36.0805298321
  0
LINE
  8
0
 62
7
  6
CONTINUOUS
 10
361.0746601894
 20
32.0231527829
 11
361.0746601894
 21
30.5067593403
  0
LINE
  8
0
 62
7
  6
CONTINUOUS
 10
361.3637227445
 20
30.5067593403
 11
361.3637227445
 21
31.2488242184
  0
LINE
  8
0
 62
7
  6
CONTINUOUS
 10
361.3637227445
 20
31.3778789641
 11
361.3637227445
 21
32.0231527829
  0
LINE
  8
0
 62
7
  6
CONTINUOUS
 10
358.8199727462
 20
31.216560532
 11
358.7621602445
 21
31.0229783683
  0
LINE
  8
0
 62
7
  6
CONTINUOUS
 10
359.1668477307
 20
30.7971325633
 11
359.0512227376
 21
30.9584509954
  0
LINE
  8
0
 62
7
  6
CONTINUOUS
 10
360.2652852997
 20
31.3133515913
 11
360.3230977445
 21
31.216560532
  0
LINE
  8
0
 62
7
  6
CONTINUOUS
 10
360.6121602997
 20
31.216560532
 11
360.5543476894
 21
31.3456152777
  0
LINE
  8
0
 62
7
  6
CONTINUOUS
 10
362.0408487691
 20
36.0805298321
 11
362.0408487691
 21
34.2772511436
  0
LINE
  8
0
 62
7
  6
CONTINUOUS
 10
362.0408487691
 20
32.9657757338
 11
362.0408487691
 21
32.3100380288
  0
LINE
  8
0
 62
7
  6
CONTINUOUS
 10
362.4043477445
 20
31.1520331591
 11
362.4043477445
 21
30.5067593403
  0
LINE
  8
0
 62
7
  6
CONTINUOUS
 10
362.6934101343
 20
30.5067593403
 11
362.6934101343
 21
31.1520331591
  0
LINE
  8
0
 62
7
  6
CONTINUOUS
 10
359.0512227376
 20
31.0552420547
 11
359.1090352445
 21
31.1842968456
  0
LINE
  8
0
 62
7
  6
CONTINUOUS
 10
358.8199727462
 20
30.8293962497
 11
358.9355977445
 21
30.7003414814
  0
LINE
  8
0
 62
7
  6
CONTINUOUS
 10
362.3465351343
 20
31.2810879048
 11
362.4043477445
 21
31.1520331591
  0
LINE
  8
0
 62
7
  6
CONTINUOUS
 10
363.1559103548
 20
30.7971325633
 11
363.2137226343
 21
30.668077795
  0
LINE
  8
0
 62
7
  6
CONTINUOUS
 10
362.6934101343
 20
31.1520331591
 11
362.6355978548
 21
31.3133515913
  0
LINE
  8
0
 62
7
  6
CONTINUOUS
 10
363.1559103548
 20
31.3456152777
 11
363.1559103548
 21
31.2810879048
  0
LINE
  8
0
 62
7
  6
CONTINUOUS
 10
363.1559103548
 20
30.8939236226
 11
363.1559103548
 21
30.7971325633
  0
LINE
  8
0
 62
7
  6
CONTINUOUS
 10
363.4342913921
 20
32.3100380288
 11
363.4342913921
 21
36.0805298321
  0
LINE
  8
0
 62
7
  6
CONTINUOUS
 10
363.4449727445
 20
30.7648688543
 11
363.4449727445
 21
30.8293962497
  0
LINE
  8
0
 62
7
  6
CONTINUOUS
 10
363.7621602445
 20
36.0805298321
 11
363.7621602445
 21
32.3100380288
  0
LINE
  8
0
 62
7
  6
CONTINUOUS
 10
360.5543476894
 20
30.7003414814
 11
360.6121602997
 21
30.8293962497
  0
LINE
  8
0
 62
7
  6
CONTINUOUS
 10
364.9480979651
 20
30.6035504109
 11
364.890285024
 21
30.7648688543
  0
LINE
  8
0
 62
7
  6
CONTINUOUS
 10
364.6012229651
 20
31.2810879048
 11
364.6012229651
 21
31.1842968456
  0
LINE
  8
0
 62
7
  6
CONTINUOUS
 10
364.6012229651
 20
31.0552420547
 11
364.6012229651
 21
30.8616599362
  0
LINE
  8
0
 62
7
  6
CONTINUOUS
 10
364.890285024
 20
30.7648688543
 11
364.890285024
 21
31.2810879048
  0
LINE
  8
0
 62
7
  6
CONTINUOUS
 10
365.1556028675
 20
32.3100380288
 11
365.1556028675
 21
34.1133167174
  0
LINE
  8
0
 62
7
  6
CONTINUOUS
 10
365.1556028675
 20
35.4247921272
 11
365.1556028675
 21
36.0805298321
  0
LINE
  8
0
 62
7
  6
CONTINUOUS
 10
365.4684104651
 20
32.0231527829
 11
365.4684104651
 21
31.8618343508
  0
LINE
  8
0
 62
7
  6
CONTINUOUS
 10
365.4684104651
 20
31.5391973962
 11
365.4684104651
 21
30.5067593403
  0
LINE
  8
0
 62
7
  6
CONTINUOUS
 10
365.757472524
 20
30.5067593403
 11
365.757472524
 21
31.5391973962
  0
LINE
  8
0
 62
7
  6
CONTINUOUS
 10
365.757472524
 20
31.8618343508
 11
365.757472524
 21
32.0231527829
  0
LINE
  8
0
 62
7
  6
CONTINUOUS
 10
360.3230977445
 20
30.8293962497
 11
360.2652852997
 21
30.7326051679
  0
LINE
  8
0
 62
7
  6
CONTINUOUS
 10
362.6355978548
 20
31.3133515913
 11
362.5777852445
 21
31.3778789641
  0
LINE
  8
0
 62
7
  6
CONTINUOUS
 10
363.5027853548
 20
30.7003414814
 11
363.4449727445
 21
30.7648688543
  0
LINE
  8
0
 62
7
  6
CONTINUOUS
 10
364.6590352445
 20
30.5712867188
 11
364.716847524
 21
30.5067593403
  0
LINE
  8
0
 62
7
  6
CONTINUOUS
 10
364.6012229651
 20
30.668077795
 11
364.6590352445
 21
30.5712867188
  0
LINE
  8
0
 62
7
  6
CONTINUOUS
 10
365.0059102445
 20
30.5067593403
 11
364.9480979651
 21
30.6035504109
  0
LINE
  8
0
 62
7
  6
CONTINUOUS
 10
364.890285024
 20
31.2810879048
 11
364.8324727445
 21
31.3778789641
  0
LINE
  8
0
 62
7
  6
CONTINUOUS
 10
366.2199727445
 20
31.5391973962
 11
366.2199727445
 21
30.5067593403
  0
LINE
  8
0
 62
7
  6
CONTINUOUS
 10
366.5090354651
 20
30.5067593403
 11
366.5090354651
 21
31.2488242184
  0
LINE
  8
0
 62
7
  6
CONTINUOUS
 10
366.5090354651
 20
31.3778789641
 11
366.5090354651
 21
31.5391973962
  0
LINE
  8
0
 62
7
  6
CONTINUOUS
 10
367.0408487691
 20
34.5231527829
 11
367.0408487691
 21
32.3100380288
  0
LINE
  8
0
 62
7
  6
CONTINUOUS
 10
358.9355977445
 20
31.3456152777
 11
358.8199727462
 21
31.216560532
  0
LINE
  8
0
 62
7
  6
CONTINUOUS
 10
359.1090352445
 20
31.1842968456
 11
359.1668477307
 21
31.2488242184
  0
LINE
  8
0
 62
7
  6
CONTINUOUS
 10
358.9355977445
 20
30.7003414814
 11
359.0512227376
 21
30.6358140973
  0
LINE
  8
0
 62
7
  6
CONTINUOUS
 10
359.3402852307
 20
30.7003414814
 11
359.1668477307
 21
30.7971325633
  0
LINE
  8
0
 62
7
  6
CONTINUOUS
 10
364.543410024
 20
31.3456152777
 11
364.6012229651
 21
31.2810879048
  0
LINE
  8
0
 62
7
  6
CONTINUOUS
 10
367.491847524
 20
31.2810879048
 11
367.5496604651
 21
31.1197694727
  0
LINE
  8
0
 62
7
  6
CONTINUOUS
 10
367.838722524
 20
31.1197694727
 11
367.7809102445
 21
31.2810879048
  0
LINE
  8
0
 62
7
  6
CONTINUOUS
 10
367.5496604651
 20
31.1197694727
 11
367.5496604651
 21
30.5067593403
  0
LINE
  8
0
 62
7
  6
CONTINUOUS
 10
367.838722524
 20
30.5067593403
 11
367.838722524
 21
31.1197694727
  0
LINE
  8
0
 62
7
  6
CONTINUOUS
 10
368.3012227445
 20
31.3456152777
 11
368.3012227445
 21
31.2810879048
  0
LINE
  8
0
 62
7
  6
CONTINUOUS
 10
368.4342913921
 20
32.3100380288
 11
368.4342913921
 21
34.4411855698
  0
LINE
  8
0
 62
7
  6
CONTINUOUS
 10
368.7621602445
 20
36.0805298321
 11
368.7621602445
 21
32.3100380288
  0
LINE
  8
0
 62
7
  6
CONTINUOUS
 10
363.4449727445
 20
30.8293962497
 11
363.5027853548
 21
30.926187309
  0
LINE
  8
0
 62
7
  6
CONTINUOUS
 10
359.0512227376
 20
30.6358140973
 11
359.2246602583
 21
30.5712867188
  0
LINE
  8
0
 62
7
  6
CONTINUOUS
 10
360.5543476894
 20
31.3456152777
 11
360.3809101894
 21
31.4424063369
  0
LINE
  8
0
 62
7
  6
CONTINUOUS
 10
363.2137226343
 20
30.668077795
 11
363.3871601343
 21
30.5712867188
  0
LINE
  8
0
 62
7
  6
CONTINUOUS
 10
362.2309102445
 20
31.3456152777
 11
362.3465351343
 21
31.2810879048
  0
LINE
  8
0
 62
7
  6
CONTINUOUS
 10
362.5777852445
 20
31.3778789641
 11
362.4621603548
 21
31.4424063369
  0
LINE
  8
0
 62
7
  6
CONTINUOUS
 10
368.3012227445
 20
30.7648688543
 11
368.4168479651
 21
30.6358140973
  0
LINE
  8
0
 62
7
  6
CONTINUOUS
 10
368.6480977445
 20
30.7003414814
 11
368.5902854651
 21
30.7648688543
  0
LINE
  8
0
 62
7
  6
CONTINUOUS
 10
368.3012227445
 20
31.2810879048
 11
368.4168479651
 21
31.1520331591
  0
LINE
  8
0
 62
7
  6
CONTINUOUS
 10
367.7809102445
 20
31.2810879048
 11
367.7230979651
 21
31.3778789641
  0
LINE
  8
0
 62
7
  6
CONTINUOUS
 10
370.1512223035
 20
30.7003414814
 11
370.1512223035
 21
30.7648688543
  0
LINE
  8
0
 62
7
  6
CONTINUOUS
 10
370.1556028675
 20
32.3100380288
 11
370.1556028675
 21
36.0805298321
  0
LINE
  8
0
 62
7
  6
CONTINUOUS
 10
363.2137226343
 20
31.4101426505
 11
363.1559103548
 21
31.3456152777
  0
LINE
  8
0
 62
7
  6
CONTINUOUS
 10
360.091847717
 20
31.3778789641
 11
360.2652852997
 21
31.3133515913
  0
LINE
  8
0
 62
7
  6
CONTINUOUS
 10
364.8324727445
 20
31.3778789641
 11
364.716847524
 21
31.4424063369
  0
LINE
  8
0
 62
7
  6
CONTINUOUS
 10
368.6480977445
 20
31.216560532
 11
368.5902854651
 21
31.2810879048
  0
LINE
  8
0
 62
7
  6
CONTINUOUS
 10
369.8043479651
 20
30.8293962497
 11
369.8621602445
 21
30.7648688543
  0
LINE
  8
0
 62
7
  6
CONTINUOUS
 10
370.1512223035
 20
30.7648688543
 11
370.0355977445
 21
30.8939236226
  0
LINE
  8
0
 62
7
  6
CONTINUOUS
 10
369.8043479651
 20
31.3456152777
 11
369.8621602445
 21
31.2810879048
  0
LINE
  8
0
 62
7
  6
CONTINUOUS
 10
370.1512223035
 20
31.2810879048
 11
370.0355977445
 21
31.4101426505
  0
LINE
  8
0
 62
7
  6
CONTINUOUS
 10
363.4449727445
 20
31.2810879048
 11
363.5027853548
 21
31.3456152777
  0
LINE
  8
0
 62
7
  6
CONTINUOUS
 10
363.2715352445
 20
31.0229783683
 11
363.1559103548
 21
30.8939236226
  0
LINE
  8
0
 62
7
  6
CONTINUOUS
 10
364.6012229651
 20
30.8616599362
 11
364.543410024
 21
30.7971325633
  0
LINE
  8
0
 62
7
  6
CONTINUOUS
 10
364.543410024
 20
30.6035504109
 11
364.6012229651
 21
30.668077795
  0
LINE
  8
0
 62
7
  6
CONTINUOUS
 10
363.3871601343
 20
30.5712867188
 11
363.5027853548
 21
30.5390230296
  0
LINE
  8
0
 62
7
  6
CONTINUOUS
 10
360.3809101894
 20
31.4424063369
 11
360.1496602445
 21
31.5069337098
  0
LINE
  8
0
 62
7
  6
CONTINUOUS
 10
363.7340351343
 20
30.6358140973
 11
363.5027853548
 21
30.7003414814
  0
LINE
  8
0
 62
7
  6
CONTINUOUS
 10
362.4621603548
 20
31.4424063369
 11
362.2887228548
 21
31.5069337098
  0
LINE
  8
0
 62
7
  6
CONTINUOUS
 10
364.716847524
 20
31.4424063369
 11
364.543410024
 21
31.5069337098
  0
LINE
  8
0
 62
7
  6
CONTINUOUS
 10
367.3762229651
 20
31.3456152777
 11
367.491847524
 21
31.2810879048
  0
LINE
  8
0
 62
7
  6
CONTINUOUS
 10
367.7230979651
 20
31.3778789641
 11
367.6074727445
 21
31.4424063369
  0
LINE
  8
0
 62
7
  6
CONTINUOUS
 10
359.2246602583
 20
30.5712867188
 11
359.3980977583
 21
30.5390230296
  0
LINE
  8
0
 62
7
  6
CONTINUOUS
 10
359.6871602721
 20
30.6358140973
 11
359.3402852307
 21
30.7003414814
  0
LINE
  8
0
 62
7
  6
CONTINUOUS
 10
362.1152853548
 20
31.3778789641
 11
362.2309102445
 21
31.3456152777
  0
LINE
  8
0
 62
7
  6
CONTINUOUS
 10
364.4277854651
 20
31.3778789641
 11
364.543410024
 21
31.3456152777
  0
LINE
  8
0
 62
7
  6
CONTINUOUS
 10
368.7637229651
 20
30.668077795
 11
368.6480977445
 21
30.7003414814
  0
LINE
  8
0
 62
7
  6
CONTINUOUS
 10
367.2605977445
 20
31.3778789641
 11
367.3762229651
 21
31.3456152777
  0
LINE
  8
0
 62
7
  6
CONTINUOUS
 10
368.4168479651
 20
30.6358140973
 11
368.5902854651
 21
30.5712867188
  0
LINE
  8
0
 62
7
  6
CONTINUOUS
 10
367.6074727445
 20
31.4424063369
 11
367.4340352445
 21
31.5069337098
  0
LINE
  8
0
 62
7
  6
CONTINUOUS
 10
368.8215352445
 20
31.1520331591
 11
368.6480977445
 21
31.216560532
  0
LINE
  8
0
 62
7
  6
CONTINUOUS
 10
369.6309104651
 20
30.8939236226
 11
369.8043479651
 21
30.8293962497
  0
LINE
  8
0
 62
7
  6
CONTINUOUS
 10
370.0355977445
 20
31.4101426505
 11
369.8621602445
 21
31.4746700234
  0
LINE
  8
0
 62
7
  6
CONTINUOUS
 10
368.4168479651
 20
31.1520331591
 11
368.6480977445
 21
31.0552420547
  0
LINE
  8
0
 62
7
  6
CONTINUOUS
 10
370.0355977445
 20
30.8939236226
 11
369.8043479651
 21
30.9907146818
  0
LINE
  8
0
 62
7
  6
CONTINUOUS
 10
368.5902854651
 20
31.2810879048
 11
368.6480977445
 21
31.3456152777
  0
LINE
  8
0
 62
7
  6
CONTINUOUS
 10
359.0512227376
 20
31.4101426505
 11
358.9355977445
 21
31.3456152777
  0
LINE
  8
0
 62
7
  6
CONTINUOUS
 10
359.1668477307
 20
31.2488242184
 11
359.3402852307
 21
31.3456152777
  0
LINE
  8
0
 62
7
  6
CONTINUOUS
 10
361.4793477997
 20
31.4424063369
 11
361.3637227445
 21
31.3778789641
  0
LINE
  8
0
 62
7
  6
CONTINUOUS
 10
361.3637227445
 20
31.2488242184
 11
361.4793477997
 21
31.3133515913
  0
LINE
  8
0
 62
7
  6
CONTINUOUS
 10
360.3809101894
 20
30.6035504109
 11
360.5543476894
 21
30.7003414814
  0
LINE
  8
0
 62
7
  6
CONTINUOUS
 10
359.3980977583
 20
30.5390230296
 11
359.744972717
 21
30.5067593403
  0
LINE
  8
0
 62
7
  6
CONTINUOUS
 10
363.5027853548
 20
30.5390230296
 11
363.7340351343
 21
30.5067593403
  0
LINE
  8
0
 62
7
  6
CONTINUOUS
 10
361.8840352445
 20
31.4101426505
 11
362.1152853548
 21
31.3778789641
  0
LINE
  8
0
 62
7
  6
CONTINUOUS
 10
364.1965353548
 20
31.4101426505
 11
364.4277854651
 21
31.3778789641
  0
LINE
  8
0
 62
7
  6
CONTINUOUS
 10
368.6480977445
 20
31.0552420547
 11
369.6309104651
 21
30.8939236226
  0
LINE
  8
0
 62
7
  6
CONTINUOUS
 10
369.8043479651
 20
30.9907146818
 11
368.8215352445
 21
31.1520331591
  0
LINE
  8
0
 62
7
  6
CONTINUOUS
 10
362.2887228548
 20
31.5069337098
 11
362.1152853548
 21
31.5391973962
  0
LINE
  8
0
 62
7
  6
CONTINUOUS
 10
368.5902854651
 20
30.5712867188
 11
368.7637229651
 21
30.5390230296
  0
LINE
  8
0
 62
7
  6
CONTINUOUS
 10
367.4340352445
 20
31.5069337098
 11
367.2605977445
 21
31.5391973962
  0
LINE
  8
0
 62
7
  6
CONTINUOUS
 10
369.6887227445
 20
31.3778789641
 11
369.8043479651
 21
31.3456152777
  0
LINE
  8
0
 62
7
  6
CONTINUOUS
 10
369.8621602445
 20
30.7648688543
 11
369.8043479651
 21
30.7003414814
  0
LINE
  8
0
 62
7
  6
CONTINUOUS
 10
368.4168479651
 20
31.4424063369
 11
368.3012227445
 21
31.3456152777
  0
LINE
  8
0
 62
7
  6
CONTINUOUS
 10
363.3293478548
 20
31.4746700234
 11
363.2137226343
 21
31.4101426505
  0
LINE
  8
0
 62
7
  6
CONTINUOUS
 10
363.3871601343
 20
31.0875057863
 11
363.2715352445
 21
31.0229783683
  0
LINE
  8
0
 62
7
  6
CONTINUOUS
 10
363.5027853548
 20
30.926187309
 11
363.6184102445
 21
30.9907146818
  0
LINE
  8
0
 62
7
  6
CONTINUOUS
 10
361.0746601894
 20
30.5067593403
 11
361.3637227445
 21
30.5067593403
  0
LINE
  8
0
 62
7
  6
CONTINUOUS
 10
362.4043477445
 20
30.5067593403
 11
362.6934101343
 21
30.5067593403
  0
LINE
  8
0
 62
7
  6
CONTINUOUS
 10
363.7340351343
 20
30.5067593403
 11
364.0809101343
 21
30.5067593403
  0
LINE
  8
0
 62
7
  6
CONTINUOUS
 10
364.716847524
 20
30.5067593403
 11
365.0059102445
 21
30.5067593403
  0
LINE
  8
0
 62
7
  6
CONTINUOUS
 10
365.4684104651
 20
30.5067593403
 11
365.757472524
 21
30.5067593403
  0
LINE
  8
0
 62
7
  6
CONTINUOUS
 10
366.2199727445
 20
30.5067593403
 11
366.5090354651
 21
30.5067593403
  0
LINE
  8
0
 62
7
  6
CONTINUOUS
 10
367.5496604651
 20
30.5067593403
 11
367.838722524
 21
30.5067593403
  0
LINE
  8
0
 62
7
  6
CONTINUOUS
 10
369.1105979651
 20
30.5067593403
 11
369.4574729651
 21
30.5067593403
  0
LINE
  8
0
 62
7
  6
CONTINUOUS
 10
369.4574729651
 20
30.6358140973
 11
369.1105979651
 21
30.6358140973
  0
LINE
  8
0
 62
7
  6
CONTINUOUS
 10
364.0809101343
 20
30.6358140973
 11
363.7340351343
 21
30.6358140973
  0
LINE
  8
0
 62
7
  6
CONTINUOUS
 10
368.5902854651
 20
30.7648688543
 11
368.3012227445
 21
30.7648688543
  0
LINE
  8
0
 62
7
  6
CONTINUOUS
 10
360.6121602997
 20
30.8293962497
 11
360.3230977445
 21
30.8293962497
  0
LINE
  8
0
 62
7
  6
CONTINUOUS
 10
359.6871602721
 20
31.4101426505
 11
360.091847717
 21
31.3778789641
  0
LINE
  8
0
 62
7
  6
CONTINUOUS
 10
360.1496602445
 20
31.5069337098
 11
359.744972717
 21
31.5391973962
  0
LINE
  8
0
 62
7
  6
CONTINUOUS
 10
368.7637229651
 20
30.5390230296
 11
369.1105979651
 21
30.5067593403
  0
LINE
  8
0
 62
7
  6
CONTINUOUS
 10
369.1105979651
 20
30.6358140973
 11
368.7637229651
 21
30.668077795
  0
LINE
  8
0
 62
7
  6
CONTINUOUS
 10
364.543410024
 20
31.5069337098
 11
364.1965353548
 21
31.5391973962
  0
LINE
  8
0
 62
7
  6
CONTINUOUS
 10
369.3418477445
 20
31.4101426505
 11
369.6887227445
 21
31.3778789641
  0
LINE
  8
0
 62
7
  6
CONTINUOUS
 10
369.6887227445
 20
31.5069337098
 11
369.3418477445
 21
31.5391973962
  0
LINE
  8
0
 62
7
  6
CONTINUOUS
 10
367.0293479651
 20
31.4101426505
 11
367.2605977445
 21
31.3778789641
  0
LINE
  8
0
 62
7
  6
CONTINUOUS
 10
369.8621602445
 20
31.4746700234
 11
369.6887227445
 21
31.5069337098
  0
LINE
  8
0
 62
7
  6
CONTINUOUS
 10
370.0355977445
 20
30.6035504109
 11
370.1512223035
 21
30.7003414814
  0
LINE
  8
0
 62
7
  6
CONTINUOUS
 10
364.543410024
 20
30.7971325633
 11
364.369972524
 21
30.7003414814
  0
LINE
  8
0
 62
7
  6
CONTINUOUS
 10
366.624660024
 20
31.4424063369
 11
366.5090354651
 21
31.3778789641
  0
LINE
  8
0
 62
7
  6
CONTINUOUS
 10
366.5090354651
 20
31.2488242184
 11
366.624660024
 21
31.3133515913
  0
LINE
  8
0
 62
7
  6
CONTINUOUS
 10
359.2246602583
 20
31.4746700234
 11
359.0512227376
 21
31.4101426505
  0
LINE
  8
0
 62
7
  6
CONTINUOUS
 10
361.6527851343
 20
31.5069337098
 11
361.4793477997
 21
31.4424063369
  0
LINE
  8
0
 62
7
  6
CONTINUOUS
 10
361.4793477997
 20
31.3133515913
 11
361.6527851343
 21
31.3778789641
  0
LINE
  8
0
 62
7
  6
CONTINUOUS
 10
360.2652852997
 20
30.7326051679
 11
360.091847717
 21
30.668077795
  0
LINE
  8
0
 62
7
  6
CONTINUOUS
 10
369.6887227445
 20
30.668077795
 11
369.4574729651
 21
30.6358140973
  0
LINE
  8
0
 62
7
  6
CONTINUOUS
 10
364.0809101343
 20
30.5067593403
 11
364.369972524
 21
30.5390230296
  0
LINE
  8
0
 62
7
  6
CONTINUOUS
 10
369.4574729651
 20
30.5067593403
 11
369.8043479651
 21
30.5390230296
  0
LINE
  8
0
 62
7
  6
CONTINUOUS
 10
359.744972717
 20
30.5067593403
 11
360.1496602445
 21
30.5390230296
  0
LINE
  8
0
 62
7
  6
CONTINUOUS
 10
360.091847717
 20
30.668077795
 11
359.6871602721
 21
30.6358140973
  0
LINE
  8
0
 62
7
  6
CONTINUOUS
 10
363.9652852445
 20
31.0552420547
 11
364.6012229651
 21
31.0552420547
  0
LINE
  8
0
 62
7
  6
CONTINUOUS
 10
364.6012229651
 20
31.1842968456
 11
363.9652852445
 21
31.1842968456
  0
LINE
  8
0
 62
7
  6
CONTINUOUS
 10
360.3230977445
 20
31.216560532
 11
360.6121602997
 21
31.216560532
  0
LINE
  8
0
 62
7
  6
CONTINUOUS
 10
363.1559103548
 20
31.2810879048
 11
363.4449727445
 21
31.2810879048
  0
LINE
  8
0
 62
7
  6
CONTINUOUS
 10
369.8621602445
 20
31.2810879048
 11
370.1512223035
 21
31.2810879048
  0
LINE
  8
0
 62
7
  6
CONTINUOUS
 10
363.8496603548
 20
31.4101426505
 11
364.1965353548
 21
31.4101426505
  0
LINE
  8
0
 62
7
  6
CONTINUOUS
 10
368.9949727445
 20
31.4101426505
 11
369.3418477445
 21
31.4101426505
  0
LINE
  8
0
 62
7
  6
CONTINUOUS
 10
369.3418477445
 20
31.5391973962
 11
368.9949727445
 21
31.5391973962
  0
LINE
  8
0
 62
7
  6
CONTINUOUS
 10
367.2605977445
 20
31.5391973962
 11
367.0293479651
 21
31.5391973962
  0
LINE
  8
0
 62
7
  6
CONTINUOUS
 10
366.5090354651
 20
31.5391973962
 11
366.2199727445
 21
31.5391973962
  0
LINE
  8
0
 62
7
  6
CONTINUOUS
 10
365.757472524
 20
31.5391973962
 11
365.4684104651
 21
31.5391973962
  0
LINE
  8
0
 62
7
  6
CONTINUOUS
 10
364.1965353548
 20
31.5391973962
 11
363.8496603548
 21
31.5391973962
  0
LINE
  8
0
 62
7
  6
CONTINUOUS
 10
362.1152853548
 20
31.5391973962
 11
361.8840352445
 21
31.5391973962
  0
LINE
  8
0
 62
7
  6
CONTINUOUS
 10
365.4684104651
 20
31.8618343508
 11
365.757472524
 21
31.8618343508
  0
LINE
  8
0
 62
7
  6
CONTINUOUS
 10
365.757472524
 20
32.0231527829
 11
365.4684104651
 21
32.0231527829
  0
LINE
  8
0
 62
7
  6
CONTINUOUS
 10
361.3637227445
 20
32.0231527829
 11
361.0746601894
 21
32.0231527829
  0
LINE
  8
0
 62
7
  6
CONTINUOUS
 10
360.4015045068
 20
32.3100380288
 11
360.8140758554
 21
32.3100380288
  0
LINE
  8
0
 62
7
  6
CONTINUOUS
 10
362.0408487691
 20
32.3100380288
 11
363.4342913921
 21
32.3100380288
  0
LINE
  8
0
 62
7
  6
CONTINUOUS
 10
363.7621602445
 20
32.3100380288
 11
365.1556028675
 21
32.3100380288
  0
LINE
  8
0
 62
7
  6
CONTINUOUS
 10
367.0408487691
 20
32.3100380288
 11
368.4342913921
 21
32.3100380288
  0
LINE
  8
0
 62
7
  6
CONTINUOUS
 10
368.7621602445
 20
32.3100380288
 11
370.1556028675
 21
32.3100380288
  0
LINE
  8
0
 62
7
  6
CONTINUOUS
 10
366.798097524
 20
31.5069337098
 11
366.624660024
 21
31.4424063369
  0
LINE
  8
0
 62
7
  6
CONTINUOUS
 10
364.369972524
 20
30.5390230296
 11
364.543410024
 21
30.6035504109
  0
LINE
  8
0
 62
7
  6
CONTINUOUS
 10
369.8043479651
 20
30.5390230296
 11
370.0355977445
 21
30.6035504109
  0
LINE
  8
0
 62
7
  6
CONTINUOUS
 10
369.8043479651
 20
30.7003414814
 11
369.6887227445
 21
30.668077795
  0
LINE
  8
0
 62
7
  6
CONTINUOUS
 10
368.7637229651
 20
31.3778789641
 11
368.9949727445
 21
31.4101426505
  0
LINE
  8
0
 62
7
  6
CONTINUOUS
 10
366.798097524
 20
31.3778789641
 11
367.0293479651
 21
31.4101426505
  0
LINE
  8
0
 62
7
  6
CONTINUOUS
 10
363.7340351343
 20
31.0229783683
 11
363.9652852445
 21
31.0552420547
  0
LINE
  8
0
 62
7
  6
CONTINUOUS
 10
367.0293479651
 20
31.5391973962
 11
366.798097524
 21
31.5069337098
  0
LINE
  8
0
 62
7
  6
CONTINUOUS
 10
363.6184102445
 20
31.3778789641
 11
363.8496603548
 21
31.4101426505
  0
LINE
  8
0
 62
7
  6
CONTINUOUS
 10
368.9949727445
 20
31.5391973962
 11
368.6480977445
 21
31.5069337098
  0
LINE
  8
0
 62
7
  6
CONTINUOUS
 10
363.9652852445
 20
31.1842968456
 11
363.6184102445
 21
31.1520331591
  0
LINE
  8
0
 62
7
  6
CONTINUOUS
 10
359.744972717
 20
31.5391973962
 11
359.3980977583
 21
31.5069337098
  0
LINE
  8
0
 62
7
  6
CONTINUOUS
 10
363.8496603548
 20
31.5391973962
 11
363.4449727445
 21
31.5069337098
  0
LINE
  8
0
 62
7
  6
CONTINUOUS
 10
361.221176638
 20
33.4575790124
 11
360.565438933
 21
33.4575790124
  0
LINE
  8
0
 62
7
  6
CONTINUOUS
 10
366.624660024
 20
31.3133515913
 11
366.798097524
 21
31.3778789641
  0
LINE
  8
0
 62
7
  6
CONTINUOUS
 10
368.6480977445
 20
31.3456152777
 11
368.7637229651
 21
31.3778789641
  0
LINE
  8
0
 62
7
  6
CONTINUOUS
 10
368.6480977445
 20
31.5069337098
 11
368.4168479651
 21
31.4424063369
  0
LINE
  8
0
 62
7
  6
CONTINUOUS
 10
364.369972524
 20
30.7003414814
 11
364.0809101343
 21
30.6358140973
  0
LINE
  8
0
 62
7
  6
CONTINUOUS
 10
361.6527851343
 20
31.3778789641
 11
361.8840352445
 21
31.4101426505
  0
LINE
  8
0
 62
7
  6
CONTINUOUS
 10
361.8840352445
 20
31.5391973962
 11
361.6527851343
 21
31.5069337098
  0
LINE
  8
0
 62
7
  6
CONTINUOUS
 10
359.4559102445
 20
31.3778789641
 11
359.6871602721
 21
31.4101426505
  0
LINE
  8
0
 62
7
  6
CONTINUOUS
 10
365.9752749986
 20
34.9329888485
 11
366.6310127035
 21
34.9329888485
  0
LINE
  8
0
 62
7
  6
CONTINUOUS
 10
363.6184102445
 20
30.9907146818
 11
363.7340351343
 21
31.0229783683
  0
LINE
  8
0
 62
7
  6
CONTINUOUS
 10
363.6184102445
 20
31.1520331591
 11
363.3871601343
 21
31.0875057863
  0
LINE
  8
0
 62
7
  6
CONTINUOUS
 10
363.5027853548
 20
31.3456152777
 11
363.6184102445
 21
31.3778789641
  0
LINE
  8
0
 62
7
  6
CONTINUOUS
 10
360.1496602445
 20
30.5390230296
 11
360.3809101894
 21
30.6035504109
  0
LINE
  8
0
 62
7
  6
CONTINUOUS
 10
363.4449727445
 20
31.5069337098
 11
363.3293478548
 21
31.4746700234
  0
LINE
  8
0
 62
7
  6
CONTINUOUS
 10
359.3980977583
 20
31.5069337098
 11
359.2246602583
 21
31.4746700234
  0
LINE
  8
0
 62
7
  6
CONTINUOUS
 10
370.1556028675
 20
36.0805298321
 11
368.7621602445
 21
36.0805298321
  0
LINE
  8
0
 62
7
  6
CONTINUOUS
 10
366.7949471298
 20
36.0805298321
 11
366.3823757812
 21
36.0805298321
  0
LINE
  8
0
 62
7
  6
CONTINUOUS
 10
365.1556028675
 20
36.0805298321
 11
363.7621602445
 21
36.0805298321
  0
LINE
  8
0
 62
7
  6
CONTINUOUS
 10
363.4342913921
 20
36.0805298321
 11
362.0408487691
 21
36.0805298321
  0
LINE
  8
0
 62
7
  6
CONTINUOUS
 10
360.1556028675
 20
36.0805298321
 11
358.7621602445
 21
36.0805298321
  0
LINE
  8
0
 62
7
  6
CONTINUOUS
 10
359.3402852307
 20
31.3456152777
 11
359.4559102445
 21
31.3778789641
  0
CIRCLE
  8
0
 62
7
  6
CONTINUOUS
 10
369.458881556
 20
38.4165954059
 40
2.0901639344
  0
ARC
  8
0
 62
7
  6
CONTINUOUS
 10
360.4015045068
 20
33.9493822911
 40
1.6393442623
 50
180.0
 51
270.0
  0
ARC
  8
0
 62
7
  6
CONTINUOUS
 10
366.7949471298
 20
34.4411855698
 40
1.6393442623
 50
0.0
 51
90.0
  0
ARC
  8
0
 62
7
  6
CONTINUOUS
 10
360.8140758554
 20
33.7854478649
 40
1.4754098361
 50
270.0
 51
326.2510114041
  0
ARC
  8
0
 62
7
  6
CONTINUOUS
 10
366.3823757812
 20
34.6051199961
 40
1.4754098361
 50
90.0
 51
146.2510114041
  0
ARC
  8
0
 62
7
  6
CONTINUOUS
 10
361.221176638
 20
34.2772511436
 40
0.8196721311
 50
270.0
 51
360.0
  0
ARC
  8
0
 62
7
  6
CONTINUOUS
 10
365.9752749986
 20
34.1133167174
 40
0.8196721311
 50
90.0
 51
180.0
  0
ARC
  8
0
 62
7
  6
CONTINUOUS
 10
360.565438933
 20
33.867415078
 40
0.4098360656
 50
180.0
 51
270.0
  0
ARC
  8
0
 62
7
  6
CONTINUOUS
 10
366.6310127035
 20
34.5231527829
 40
0.4098360656
 50
0.0
 51
90.0
  0
SOLID
  8
0
 62
7
  6
CONTINUOUS
 10
365.4684104651
 20
31.8618347111
 11
365.4684104651
 21
32.0231531947
 12
365.757472524
 22
31.8618347111
 13
365.757472524
 23
32.0231531947
  0
SOLID
  8
0
 62
7
  6
CONTINUOUS
 10
359.744972717
 20
31.5391977439
 11
360.1496602445
 21
31.5069333244
 12
359.3980977583
 22
31.5069333244
 13
359.3980977583
 23
31.5069333244
  0
SOLID
  8
0
 62
7
  6
CONTINUOUS
 10
359.2246602583
 20
31.4746706537
 11
359.3980977583
 21
31.5069333244
 12
360.1496602445
 22
31.5069333244
 13
360.1496602445
 23
31.5069333244
  0
SOLID
  8
0
 62
7
  6
CONTINUOUS
 10
360.1496602445
 20
31.5069333244
 11
360.3809101894
 21
31.4424063504
 12
359.2246602583
 22
31.4746706537
 13
359.2246602583
 23
31.4746706537
  0
SOLID
  8
0
 62
7
  6
CONTINUOUS
 10
359.0512227376
 20
31.4101419116
 11
359.2246602583
 21
31.4746706537
 12
360.3809101894
 22
31.4424063504
 13
360.3809101894
 23
31.4424063504
  0
SOLID
  8
0
 62
7
  6
CONTINUOUS
 10
359.0512227376
 20
31.4101419116
 11
360.3809101894
 21
31.4424063504
 12
359.6871602721
 22
31.4101419116
 13
359.6871602721
 23
31.4101419116
  0
SOLID
  8
0
 62
7
  6
CONTINUOUS
 10
359.6871602721
 20
31.4101419116
 11
360.3809101894
 21
31.4424063504
 12
360.091847717
 22
31.3778792603
 13
360.091847717
 23
31.3778792603
  0
SOLID
  8
0
 62
7
  6
CONTINUOUS
 10
360.3809101894
 20
31.4424063504
 11
360.5543476894
 21
31.345614957
 12
360.091847717
 22
31.3778792603
 13
360.091847717
 23
31.3778792603
  0
SOLID
  8
0
 62
7
  6
CONTINUOUS
 10
360.2652852997
 20
31.3133521701
 11
360.091847717
 21
31.3778792603
 12
360.5543476894
 22
31.345614957
 13
360.5543476894
 23
31.345614957
  0
SOLID
  8
0
 62
7
  6
CONTINUOUS
 10
360.2652852997
 20
31.3133521701
 11
360.5543476894
 21
31.345614957
 12
360.3230977445
 22
31.2165606992
 13
360.3230977445
 23
31.2165606992
  0
SOLID
  8
0
 62
7
  6
CONTINUOUS
 10
360.5543476894
 20
31.345614957
 11
360.6121602997
 21
31.2165606992
 12
360.3230977445
 22
31.2165606992
 13
360.3230977445
 23
31.2165606992
  0
SOLID
  8
0
 62
7
  6
CONTINUOUS
 10
361.6527851343
 20
31.5069329918
 11
361.8840352445
 21
31.5391972951
 12
362.1152853548
 22
31.5391972951
 13
362.1152853548
 23
31.5391972951
  0
SOLID
  8
0
 62
7
  6
CONTINUOUS
 10
362.1152853548
 20
31.5391972951
 11
362.2887228548
 21
31.5069329918
 12
361.6527851343
 22
31.5069329918
 13
361.6527851343
 23
31.5069329918
  0
SOLID
  8
0
 62
7
  6
CONTINUOUS
 10
361.4793477997
 20
31.4424059016
 11
361.6527851343
 21
31.5069329918
 12
362.2887228548
 22
31.5069329918
 13
362.2887228548
 23
31.5069329918
  0
SOLID
  8
0
 62
7
  6
CONTINUOUS
 10
362.2887228548
 20
31.5069329918
 11
362.4621603548
 21
31.4424059016
 12
361.4793477997
 22
31.4424059016
 13
361.4793477997
 23
31.4424059016
  0
SOLID
  8
0
 62
7
  6
CONTINUOUS
 10
362.4621603548
 20
31.4424059016
 11
361.8840352445
 21
31.4101420472
 12
361.4793477997
 22
31.4424059016
 13
361.4793477997
 23
31.4424059016
  0
SOLID
  8
0
 62
7
  6
CONTINUOUS
 10
361.3637227445
 20
31.3778788115
 11
361.4793477997
 21
31.4424059016
 12
361.8840352445
 22
31.4101420472
 13
361.8840352445
 23
31.4101420472
  0
SOLID
  8
0
 62
7
  6
CONTINUOUS
 10
361.8840352445
 20
31.4101420472
 11
361.6527851343
 21
31.3778788115
 12
361.3637227445
 22
31.3778788115
 13
361.3637227445
 23
31.3778788115
  0
SOLID
  8
0
 62
7
  6
CONTINUOUS
 10
361.8840352445
 20
31.4101420472
 11
362.4621603548
 21
31.4424059016
 12
362.1152853548
 22
31.3778788115
 13
362.1152853548
 23
31.3778788115
  0
SOLID
  8
0
 62
7
  6
CONTINUOUS
 10
362.4621603548
 20
31.4424059016
 11
362.5777852445
 21
31.3778788115
 12
362.1152853548
 22
31.3778788115
 13
362.1152853548
 23
31.3778788115
  0
SOLID
  8
0
 62
7
  6
CONTINUOUS
 10
362.2309102445
 20
31.345614957
 11
362.1152853548
 21
31.3778788115
 12
362.5777852445
 22
31.3778788115
 13
362.5777852445
 23
31.3778788115
  0
SOLID
  8
0
 62
7
  6
CONTINUOUS
 10
362.5777852445
 20
31.3778788115
 11
362.6355978548
 21
31.3133517213
 12
362.2309102445
 22
31.345614957
 13
362.2309102445
 23
31.345614957
  0
SOLID
  8
0
 62
7
  6
CONTINUOUS
 10
362.3465351343
 20
31.2810878668
 11
362.2309102445
 21
31.345614957
 12
362.6355978548
 22
31.3133517213
 13
362.6355978548
 23
31.3133517213
  0
SOLID
  8
0
 62
7
  6
CONTINUOUS
 10
362.3465351343
 20
31.2810878668
 11
362.6355978548
 21
31.3133517213
 12
362.4043477445
 22
31.1520332377
 13
362.4043477445
 23
31.1520332377
  0
SOLID
  8
0
 62
7
  6
CONTINUOUS
 10
362.6355978548
 20
31.3133517213
 11
362.6934101343
 21
31.1520332377
 12
362.4043477445
 22
31.1520332377
 13
362.4043477445
 23
31.1520332377
  0
SOLID
  8
0
 62
7
  6
CONTINUOUS
 10
361.6527851343
 20
31.3778788115
 11
361.4793477997
 21
31.3133517213
 12
361.3637227445
 22
31.3778788115
 13
361.3637227445
 23
31.3778788115
  0
SOLID
  8
0
 62
7
  6
CONTINUOUS
 10
361.4793477997
 20
31.3133517213
 11
361.3637227445
 21
31.2488235635
 12
361.3637227445
 22
31.3778788115
 13
361.3637227445
 23
31.3778788115
  0
SOLID
  8
0
 62
7
  6
CONTINUOUS
 10
361.3637227445
 20
31.2488235635
 11
361.0746601894
 21
30.5067593033
 12
361.3637227445
 22
31.3778788115
 13
361.3637227445
 23
31.3778788115
  0
SOLID
  8
0
 62
7
  6
CONTINUOUS
 10
361.3637227445
 20
31.3778788115
 11
361.0746601894
 21
30.5067593033
 12
361.3637227445
 22
32.0231527459
 13
361.3637227445
 23
32.0231527459
  0
SOLID
  8
0
 62
7
  6
CONTINUOUS
 10
361.0746601894
 20
30.5067593033
 11
361.0746601894
 21
32.0231527459
 12
361.3637227445
 22
32.0231527459
 13
361.3637227445
 23
32.0231527459
  0
SOLID
  8
0
 62
7
  6
CONTINUOUS
 10
361.3637227445
 20
31.2488235635
 11
361.3637227445
 21
30.5067593033
 12
361.0746601894
 22
30.5067593033
 13
361.0746601894
 23
30.5067593033
  0
SOLID
  8
0
 62
7
  6
CONTINUOUS
 10
362.4043477445
 20
30.5067593033
 11
362.4043477445
 21
31.1520332377
 12
362.6934101343
 22
31.1520332377
 13
362.6934101343
 23
31.1520332377
  0
SOLID
  8
0
 62
7
  6
CONTINUOUS
 10
362.6934101343
 20
31.1520332377
 11
362.6934101343
 21
30.5067593033
 12
362.4043477445
 22
30.5067593033
 13
362.4043477445
 23
30.5067593033
  0
SOLID
  8
0
 62
7
  6
CONTINUOUS
 10
363.4449727445
 20
31.506933758
 11
363.8496603548
 21
31.5391977507
 12
364.1965353548
 22
31.5391977507
 13
364.1965353548
 23
31.5391977507
  0
SOLID
  8
0
 62
7
  6
CONTINUOUS
 10
364.1965353548
 20
31.5391977507
 11
364.543410024
 21
31.506933758
 12
363.4449727445
 22
31.506933758
 13
363.4449727445
 23
31.506933758
  0
SOLID
  8
0
 62
7
  6
CONTINUOUS
 10
363.3293478548
 20
31.4746706537
 11
363.4449727445
 21
31.506933758
 12
364.543410024
 22
31.506933758
 13
364.543410024
 23
31.506933758
  0
SOLID
  8
0
 62
7
  6
CONTINUOUS
 10
364.543410024
 20
31.506933758
 11
364.716847524
 21
31.4424063504
 12
363.3293478548
 22
31.4746706537
 13
363.3293478548
 23
31.4746706537
  0
SOLID
  8
0
 62
7
  6
CONTINUOUS
 10
363.2137226343
 20
31.4101417797
 11
363.3293478548
 21
31.4746706537
 12
364.716847524
 22
31.4424063504
 13
364.716847524
 23
31.4424063504
  0
SOLID
  8
0
 62
7
  6
CONTINUOUS
 10
363.2137226343
 20
31.4101417797
 11
364.716847524
 21
31.4424063504
 12
363.8496603548
 22
31.4101417797
 13
363.8496603548
 23
31.4101417797
  0
SOLID
  8
0
 62
7
  6
CONTINUOUS
 10
363.8496603548
 20
31.4101417797
 11
364.716847524
 21
31.4424063504
 12
364.1965353548
 22
31.4101417797
 13
364.1965353548
 23
31.4101417797
  0
SOLID
  8
0
 62
7
  6
CONTINUOUS
 10
364.1965353548
 20
31.4101417797
 11
364.716847524
 21
31.4424063504
 12
364.4277854651
 22
31.3778793357
 13
364.4277854651
 23
31.3778793357
  0
SOLID
  8
0
 62
7
  6
CONTINUOUS
 10
364.716847524
 20
31.4424063504
 11
364.8324727445
 21
31.3778793357
 12
364.4277854651
 22
31.3778793357
 13
364.4277854651
 23
31.3778793357
  0
SOLID
  8
0
 62
7
  6
CONTINUOUS
 10
363.1559103548
 20
31.3456153429
 11
363.2137226343
 21
31.4101417797
 12
363.8496603548
 22
31.4101417797
 13
363.8496603548
 23
31.4101417797
  0
SOLID
  8
0
 62
7
  6
CONTINUOUS
 10
364.543410024
 20
31.3456153429
 11
364.4277854651
 21
31.3778793357
 12
364.8324727445
 22
31.3778793357
 13
364.8324727445
 23
31.3778793357
  0
SOLID
  8
0
 62
7
  6
CONTINUOUS
 10
364.543410024
 20
31.3456153429
 11
364.8324727445
 21
31.3778793357
 12
364.6012229651
 22
31.2810881318
 13
364.6012229651
 23
31.2810881318
  0
SOLID
  8
0
 62
7
  6
CONTINUOUS
 10
364.8324727445
 20
31.3778793357
 11
364.890285024
 21
31.2810881318
 12
364.6012229651
 22
31.2810881318
 13
364.6012229651
 23
31.2810881318
  0
SOLID
  8
0
 62
7
  6
CONTINUOUS
 10
364.6012229651
 20
31.1842964734
 11
364.6012229651
 21
31.2810881318
 12
364.890285024
 22
31.2810881318
 13
364.890285024
 23
31.2810881318
  0
SOLID
  8
0
 62
7
  6
CONTINUOUS
 10
364.6012229651
 20
31.1842964734
 11
364.890285024
 21
31.2810881318
 12
364.6012229651
 22
31.0552422931
 13
364.6012229651
 23
31.0552422931
  0
SOLID
  8
0
 62
7
  6
CONTINUOUS
 10
364.6012229651
 20
31.0552422931
 11
364.890285024
 21
31.2810881318
 12
364.6012229651
 22
30.8616599362
 13
364.6012229651
 23
30.8616599362
  0
SOLID
  8
0
 62
7
  6
CONTINUOUS
 10
364.890285024
 20
31.2810881318
 11
364.890285024
 21
30.7648681127
 12
364.6012229651
 22
30.8616599362
 13
364.6012229651
 23
30.8616599362
  0
SOLID
  8
0
 62
7
  6
CONTINUOUS
 10
366.798097524
 20
31.5069339419
 11
367.0293479651
 21
31.5391976292
 12
367.2605977445
 22
31.5391976292
 13
367.2605977445
 23
31.5391976292
  0
SOLID
  8
0
 62
7
  6
CONTINUOUS
 10
367.2605977445
 20
31.5391976292
 11
367.4340352445
 21
31.5069339419
 12
366.798097524
 22
31.5069339419
 13
366.798097524
 23
31.5069339419
  0
SOLID
  8
0
 62
7
  6
CONTINUOUS
 10
366.624660024
 20
31.4424065674
 11
366.798097524
 21
31.5069339419
 12
367.4340352445
 22
31.5069339419
 13
367.4340352445
 23
31.5069339419
  0
SOLID
  8
0
 62
7
  6
CONTINUOUS
 10
367.4340352445
 20
31.5069339419
 11
367.6074727445
 21
31.4424065674
 12
366.624660024
 22
31.4424065674
 13
366.624660024
 23
31.4424065674
  0
SOLID
  8
0
 62
7
  6
CONTINUOUS
 10
367.6074727445
 20
31.4424065674
 11
367.0293479651
 21
31.4101420472
 12
366.624660024
 22
31.4424065674
 13
366.624660024
 23
31.4424065674
  0
SOLID
  8
0
 62
7
  6
CONTINUOUS
 10
366.5090354651
 20
31.377879193
 11
366.624660024
 21
31.4424065674
 12
367.0293479651
 22
31.4101420472
 13
367.0293479651
 23
31.4101420472
  0
SOLID
  8
0
 62
7
  6
CONTINUOUS
 10
367.0293479651
 20
31.4101420472
 11
366.798097524
 21
31.377879193
 12
366.5090354651
 22
31.377879193
 13
366.5090354651
 23
31.377879193
  0
SOLID
  8
0
 62
7
  6
CONTINUOUS
 10
367.0293479651
 20
31.4101420472
 11
367.6074727445
 21
31.4424065674
 12
367.2605977445
 22
31.377879193
 13
367.2605977445
 23
31.377879193
  0
SOLID
  8
0
 62
7
  6
CONTINUOUS
 10
367.6074727445
 20
31.4424065674
 11
367.7230979651
 21
31.377879193
 12
367.2605977445
 22
31.377879193
 13
367.2605977445
 23
31.377879193
  0
SOLID
  8
0
 62
7
  6
CONTINUOUS
 10
367.3762229651
 20
31.345614957
 11
367.2605977445
 21
31.377879193
 12
367.7230979651
 22
31.377879193
 13
367.7230979651
 23
31.377879193
  0
SOLID
  8
0
 62
7
  6
CONTINUOUS
 10
367.3762229651
 20
31.345614957
 11
367.7230979651
 21
31.377879193
 12
367.491847524
 22
31.2810881312
 13
367.491847524
 23
31.2810881312
  0
SOLID
  8
0
 62
7
  6
CONTINUOUS
 10
367.7230979651
 20
31.377879193
 11
367.7809102445
 21
31.2810881312
 12
367.491847524
 22
31.2810881312
 13
367.491847524
 23
31.2810881312
  0
SOLID
  8
0
 62
7
  6
CONTINUOUS
 10
367.5496604651
 20
31.119769695
 11
367.491847524
 21
31.2810881312
 12
367.7809102445
 22
31.2810881312
 13
367.7809102445
 23
31.2810881312
  0
SOLID
  8
0
 62
7
  6
CONTINUOUS
 10
367.7809102445
 20
31.2810881312
 11
367.838722524
 21
31.119769695
 12
367.5496604651
 22
31.119769695
 13
367.5496604651
 23
31.119769695
  0
SOLID
  8
0
 62
7
  6
CONTINUOUS
 10
366.798097524
 20
31.377879193
 11
366.624660024
 21
31.3133521701
 12
366.5090354651
 22
31.377879193
 13
366.5090354651
 23
31.377879193
  0
SOLID
  8
0
 62
7
  6
CONTINUOUS
 10
366.624660024
 20
31.3133521701
 11
366.5090354651
 21
31.2488235635
 12
366.5090354651
 22
31.377879193
 13
366.5090354651
 23
31.377879193
  0
SOLID
  8
0
 62
7
  6
CONTINUOUS
 10
366.5090354651
 20
31.2488235635
 11
366.2199727445
 21
30.5067596374
 12
366.5090354651
 22
31.377879193
 13
366.5090354651
 23
31.377879193
  0
SOLID
  8
0
 62
7
  6
CONTINUOUS
 10
366.5090354651
 20
31.377879193
 11
366.2199727445
 21
30.5067596374
 12
366.5090354651
 22
31.5391976292
 13
366.5090354651
 23
31.5391976292
  0
SOLID
  8
0
 62
7
  6
CONTINUOUS
 10
366.2199727445
 20
30.5067596374
 11
366.2199727445
 21
31.5391976292
 12
366.5090354651
 22
31.5391976292
 13
366.5090354651
 23
31.5391976292
  0
SOLID
  8
0
 62
7
  6
CONTINUOUS
 10
366.5090354651
 20
31.2488235635
 11
366.5090354651
 21
30.5067596374
 12
366.2199727445
 22
30.5067596374
 13
366.2199727445
 23
30.5067596374
  0
SOLID
  8
0
 62
7
  6
CONTINUOUS
 10
367.5496604651
 20
30.5067596374
 11
367.5496604651
 21
31.119769695
 12
367.838722524
 22
31.119769695
 13
367.838722524
 23
31.119769695
  0
SOLID
  8
0
 62
7
  6
CONTINUOUS
 10
367.838722524
 20
31.119769695
 11
367.838722524
 21
30.5067596374
 12
367.5496604651
 22
30.5067596374
 13
367.5496604651
 23
30.5067596374
  0
SOLID
  8
0
 62
7
  6
CONTINUOUS
 10
368.6480977445
 20
31.5069334157
 11
368.9949727445
 21
31.539197762
 12
369.3418477445
 22
31.539197762
 13
369.3418477445
 23
31.539197762
  0
SOLID
  8
0
 62
7
  6
CONTINUOUS
 10
369.3418477445
 20
31.539197762
 11
369.6887227445
 21
31.5069334157
 12
368.6480977445
 22
31.5069334157
 13
368.6480977445
 23
31.5069334157
  0
SOLID
  8
0
 62
7
  6
CONTINUOUS
 10
368.4168479651
 20
31.4424063504
 11
368.6480977445
 21
31.5069334157
 12
369.6887227445
 22
31.5069334157
 13
369.6887227445
 23
31.5069334157
  0
SOLID
  8
0
 62
7
  6
CONTINUOUS
 10
368.4168479651
 20
31.4424063504
 11
369.6887227445
 21
31.5069334406
 12
369.8621602445
 22
31.4746706537
 13
369.8621602445
 23
31.4746706537
  0
SOLID
  8
0
 62
7
  6
CONTINUOUS
 10
368.4168479651
 20
31.4424063504
 11
369.8621602445
 21
31.4746706537
 12
368.9949727445
 22
31.4101421267
 13
368.9949727445
 23
31.4101421267
  0
SOLID
  8
0
 62
7
  6
CONTINUOUS
 10
368.9949727445
 20
31.4101421267
 11
369.8621602445
 21
31.4746706537
 12
369.3418477445
 22
31.4101421267
 13
369.3418477445
 23
31.4101421267
  0
SOLID
  8
0
 62
7
  6
CONTINUOUS
 10
369.8621602445
 20
31.4746706537
 11
370.0355977445
 21
31.4101421267
 12
369.3418477445
 22
31.4101421267
 13
369.3418477445
 23
31.4101421267
  0
SOLID
  8
0
 62
7
  6
CONTINUOUS
 10
369.6887227445
 20
31.3778792603
 11
369.3418477445
 21
31.4101421267
 12
370.0355977445
 22
31.4101421267
 13
370.0355977445
 23
31.4101421267
  0
SOLID
  8
0
 62
7
  6
CONTINUOUS
 10
368.3012227445
 20
31.3456148845
 11
368.4168479651
 21
31.4424063504
 12
368.9949727445
 22
31.4101421267
 13
368.9949727445
 23
31.4101421267
  0
SOLID
  8
0
 62
7
  6
CONTINUOUS
 10
369.6887227445
 20
31.3778792603
 11
370.0355977445
 21
31.4101421267
 12
369.8043479651
 22
31.3456148845
 13
369.8043479651
 23
31.3456148845
  0
SOLID
  8
0
 62
7
  6
CONTINUOUS
 10
369.8043479651
 20
31.3456148845
 11
370.0355977445
 21
31.4101421267
 12
369.8621602445
 22
31.281087868
 13
369.8621602445
 23
31.281087868
  0
SOLID
  8
0
 62
7
  6
CONTINUOUS
 10
370.0355977445
 20
31.4101421267
 11
370.1512223035
 21
31.281087868
 12
369.8621602445
 22
31.281087868
 13
369.8621602445
 23
31.281087868
  0
SOLID
  8
0
 62
7
  6
CONTINUOUS
 10
359.4559102445
 20
31.3778792603
 11
358.9355977445
 21
31.3456148963
 12
359.6871602721
 22
31.4101421155
 13
359.6871602721
 23
31.4101421155
  0
SOLID
  8
0
 62
7
  6
CONTINUOUS
 10
358.9355977445
 20
31.3456148963
 11
359.0512227376
 21
31.4101421155
 12
359.6871602721
 22
31.4101421155
 13
359.6871602721
 23
31.4101421155
  0
SOLID
  8
0
 62
7
  6
CONTINUOUS
 10
359.4559102445
 20
31.3778792603
 11
359.3402852307
 21
31.3456148963
 12
358.9355977445
 22
31.3456148963
 13
358.9355977445
 23
31.3456148963
  0
SOLID
  8
0
 62
7
  6
CONTINUOUS
 10
358.8199727462
 20
31.2165607767
 11
358.9355977445
 21
31.3456148963
 12
359.3402852307
 22
31.3456148963
 13
359.3402852307
 23
31.3456148963
  0
SOLID
  8
0
 62
7
  6
CONTINUOUS
 10
363.1559103548
 20
31.3456149608
 11
363.8496603548
 21
31.4101420472
 12
363.6184102445
 22
31.3778792603
 13
363.6184102445
 23
31.3778792603
  0
SOLID
  8
0
 62
7
  6
CONTINUOUS
 10
363.6184102445
 20
31.3778792603
 11
363.5027853548
 21
31.3456149608
 12
363.1559103548
 22
31.3456149608
 13
363.1559103548
 23
31.3456149608
  0
SOLID
  8
0
 62
7
  6
CONTINUOUS
 10
363.1559103548
 20
31.2810878707
 11
363.1559103548
 21
31.3456149608
 12
363.5027853548
 22
31.3456149608
 13
363.5027853548
 23
31.3456149608
  0
SOLID
  8
0
 62
7
  6
CONTINUOUS
 10
363.5027853548
 20
31.3456149608
 11
363.4449727445
 21
31.2810878707
 12
363.1559103548
 22
31.2810878707
 13
363.1559103548
 23
31.2810878707
  0
SOLID
  8
0
 62
7
  6
CONTINUOUS
 10
368.3012227445
 20
31.3456149608
 11
368.9949727445
 21
31.4101420472
 12
368.7637229651
 22
31.3778792603
 13
368.7637229651
 23
31.3778792603
  0
SOLID
  8
0
 62
7
  6
CONTINUOUS
 10
368.7637229651
 20
31.3778792603
 11
368.6480977445
 21
31.3456149608
 12
368.3012227445
 22
31.3456149608
 13
368.3012227445
 23
31.3456149608
  0
SOLID
  8
0
 62
7
  6
CONTINUOUS
 10
368.3012227445
 20
31.2810878707
 11
368.3012227445
 21
31.3456149608
 12
368.6480977445
 22
31.3456149608
 13
368.6480977445
 23
31.3456149608
  0
SOLID
  8
0
 62
7
  6
CONTINUOUS
 10
368.6480977445
 20
31.3456149608
 11
368.5902854651
 21
31.2810878707
 12
368.3012227445
 22
31.2810878707
 13
368.3012227445
 23
31.2810878707
  0
SOLID
  8
0
 62
7
  6
CONTINUOUS
 10
368.4168479651
 20
31.1520336865
 11
368.3012227445
 21
31.2810878707
 12
368.5902854651
 22
31.2810878707
 13
368.5902854651
 23
31.2810878707
  0
SOLID
  8
0
 62
7
  6
CONTINUOUS
 10
358.8199727462
 20
31.2165607767
 11
359.3402852307
 21
31.345614957
 12
359.1668477307
 22
31.2488235635
 13
359.1668477307
 23
31.2488235635
  0
SOLID
  8
0
 62
7
  6
CONTINUOUS
 10
359.1668477307
 20
31.2488235635
 11
359.1090352445
 21
31.1842964734
 12
358.8199727462
 22
31.2165607767
 13
358.8199727462
 23
31.2165607767
  0
SOLID
  8
0
 62
7
  6
CONTINUOUS
 10
358.7621602445
 20
31.0229779898
 11
358.8199727462
 21
31.2165607767
 12
359.1090352445
 22
31.1842964734
 13
359.1090352445
 23
31.1842964734
  0
SOLID
  8
0
 62
7
  6
CONTINUOUS
 10
363.6184102445
 20
31.1520336865
 11
363.9652852445
 21
31.1842964611
 12
364.6012229651
 22
31.1842964611
 13
364.6012229651
 23
31.1842964611
  0
SOLID
  8
0
 62
7
  6
CONTINUOUS
 10
363.6184102445
 20
31.1520336865
 11
364.6012229651
 21
31.1842964611
 12
363.3871601343
 22
31.0875057863
 13
363.3871601343
 23
31.0875057863
  0
SOLID
  8
0
 62
7
  6
CONTINUOUS
 10
363.3871601343
 20
31.0875057863
 11
364.6012229651
 21
31.1842964611
 12
363.9652852445
 22
31.0552422808
 13
363.9652852445
 23
31.0552422808
  0
SOLID
  8
0
 62
7
  6
CONTINUOUS
 10
364.6012229651
 20
31.1842964611
 11
364.6012229651
 21
31.0552422808
 12
363.9652852445
 22
31.0552422808
 13
363.9652852445
 23
31.0552422808
  0
SOLID
  8
0
 62
7
  6
CONTINUOUS
 10
368.4168479651
 20
31.1520338754
 11
368.5902854651
 21
31.2810878668
 12
368.6480977445
 22
31.2165607767
 13
368.6480977445
 23
31.2165607767
  0
SOLID
  8
0
 62
7
  6
CONTINUOUS
 10
368.6480977445
 20
31.2165607767
 11
368.8215352445
 21
31.1520338754
 12
368.4168479651
 22
31.1520338754
 13
368.4168479651
 23
31.1520338754
  0
SOLID
  8
0
 62
7
  6
CONTINUOUS
 10
368.6480977445
 20
31.0552422931
 11
368.4168479651
 21
31.1520338754
 12
368.8215352445
 22
31.1520338754
 13
368.8215352445
 23
31.1520338754
  0
SOLID
  8
0
 62
7
  6
CONTINUOUS
 10
368.8215352445
 20
31.1520338754
 11
369.8043479651
 21
30.9907152029
 12
368.6480977445
 22
31.0552422931
 13
368.6480977445
 23
31.0552422931
  0
SOLID
  8
0
 62
7
  6
CONTINUOUS
 10
369.6309104651
 20
30.8939239876
 11
368.6480977445
 21
31.0552422931
 12
369.8043479651
 22
30.9907152029
 13
369.8043479651
 23
30.9907152029
  0
SOLID
  8
0
 62
7
  6
CONTINUOUS
 10
369.8043479651
 20
30.9907152029
 11
370.0355977445
 21
30.8939239876
 12
369.6309104651
 22
30.8939239876
 13
369.6309104651
 23
30.8939239876
  0
SOLID
  8
0
 62
7
  6
CONTINUOUS
 10
369.8043479651
 20
30.8293967193
 11
369.6309104651
 21
30.8939239876
 12
370.0355977445
 22
30.8939239876
 13
370.0355977445
 23
30.8939239876
  0
SOLID
  8
0
 62
7
  6
CONTINUOUS
 10
369.8043479651
 20
30.8293967193
 11
370.0355977445
 21
30.8939239876
 12
369.8621602445
 22
30.7648682694
 13
369.8621602445
 23
30.7648682694
  0
SOLID
  8
0
 62
7
  6
CONTINUOUS
 10
370.0355977445
 20
30.8939239876
 11
370.1512223035
 21
30.7648682694
 12
369.8621602445
 22
30.7648682694
 13
369.8621602445
 23
30.7648682694
  0
SOLID
  8
0
 62
7
  6
CONTINUOUS
 10
369.8043479651
 20
30.7003411846
 11
369.8621602445
 21
30.7648682694
 12
370.1512223035
 22
30.7648682694
 13
370.1512223035
 23
30.7648682694
  0
SOLID
  8
0
 62
7
  6
CONTINUOUS
 10
370.1512223035
 20
30.7648682694
 11
370.1512223035
 21
30.7003411846
 12
369.8043479651
 22
30.7003411846
 13
369.8043479651
 23
30.7003411846
  0
SOLID
  8
0
 62
7
  6
CONTINUOUS
 10
369.6887227445
 20
30.6680782357
 11
369.8043479651
 21
30.7003411846
 12
370.1512223035
 22
30.7003411846
 13
370.1512223035
 23
30.7003411846
  0
SOLID
  8
0
 62
7
  6
CONTINUOUS
 10
369.6887227445
 20
30.6680782357
 11
370.1512223035
 21
30.7003411846
 12
369.4574729651
 22
30.6358140998
 13
369.4574729651
 23
30.6358140998
  0
SOLID
  8
0
 62
7
  6
CONTINUOUS
 10
370.1512223035
 20
30.7003411846
 11
370.0355977445
 21
30.6035511455
 12
369.4574729651
 22
30.6358140998
 13
369.4574729651
 23
30.6358140998
  0
SOLID
  8
0
 62
7
  6
CONTINUOUS
 10
370.0355977445
 20
30.6035511455
 11
368.5902854651
 21
30.5712868422
 12
369.4574729651
 22
30.6358140998
 13
369.4574729651
 23
30.6358140998
  0
SOLID
  8
0
 62
7
  6
CONTINUOUS
 10
369.4574729651
 20
30.6358140998
 11
368.5902854651
 21
30.5712868422
 12
369.1105979651
 22
30.6358140998
 13
369.1105979651
 23
30.6358140998
  0
SOLID
  8
0
 62
7
  6
CONTINUOUS
 10
368.5902854651
 20
30.5712868422
 11
368.4168479651
 21
30.6358140998
 12
369.1105979651
 22
30.6358140998
 13
369.1105979651
 23
30.6358140998
  0
SOLID
  8
0
 62
7
  6
CONTINUOUS
 10
368.5902854651
 20
30.5712868422
 11
370.0355977445
 21
30.6035511455
 12
368.7637229651
 22
30.5390223111
 13
368.7637229651
 23
30.5390223111
  0
SOLID
  8
0
 62
7
  6
CONTINUOUS
 10
370.0355977445
 20
30.6035511455
 11
369.8043479651
 21
30.5390223111
 12
368.7637229651
 22
30.5390223111
 13
368.7637229651
 23
30.5390223111
  0
SOLID
  8
0
 62
7
  6
CONTINUOUS
 10
369.1105979651
 20
30.5067599302
 11
368.7637229651
 21
30.5390223111
 12
369.8043479651
 22
30.5390223111
 13
369.8043479651
 23
30.5390223111
  0
SOLID
  8
0
 62
7
  6
CONTINUOUS
 10
369.8043479651
 20
30.5390223111
 11
369.4574729651
 21
30.5067599302
 12
369.1105979651
 22
30.5067599302
 13
369.1105979651
 23
30.5067599302
  0
SOLID
  8
0
 62
7
  6
CONTINUOUS
 10
358.7621602445
 20
31.0229779898
 11
359.1090352445
 21
31.1842964734
 12
359.0512227376
 22
31.0552422931
 13
359.0512227376
 23
31.0552422931
  0
SOLID
  8
0
 62
7
  6
CONTINUOUS
 10
359.0512227376
 20
31.0552422931
 11
359.0512227376
 21
30.9584509954
 12
358.7621602445
 22
31.0229779898
 13
358.7621602445
 23
31.0229779898
  0
SOLID
  8
0
 62
7
  6
CONTINUOUS
 10
358.8199727462
 20
30.8293967193
 11
358.7621602445
 21
31.0229779898
 12
359.0512227376
 22
30.9584509954
 13
359.0512227376
 23
30.9584509954
  0
SOLID
  8
0
 62
7
  6
CONTINUOUS
 10
359.0512227376
 20
30.9584509954
 11
359.1668477307
 21
30.797132416
 12
358.8199727462
 22
30.8293967193
 13
358.8199727462
 23
30.8293967193
  0
SOLID
  8
0
 62
7
  6
CONTINUOUS
 10
358.9355977445
 20
30.7003413087
 11
358.8199727462
 21
30.8293967193
 12
359.1668477307
 22
30.797132416
 13
359.1668477307
 23
30.797132416
  0
SOLID
  8
0
 62
7
  6
CONTINUOUS
 10
359.1668477307
 20
30.797132416
 11
359.3402852307
 21
30.7003413087
 12
358.9355977445
 22
30.7003413087
 13
358.9355977445
 23
30.7003413087
  0
SOLID
  8
0
 62
7
  6
CONTINUOUS
 10
359.0512227376
 20
30.6358140759
 11
358.9355977445
 21
30.7003413087
 12
359.3402852307
 22
30.7003413087
 13
359.3402852307
 23
30.7003413087
  0
SOLID
  8
0
 62
7
  6
CONTINUOUS
 10
359.3402852307
 20
30.7003413087
 11
359.6871602721
 21
30.6358140759
 12
359.0512227376
 22
30.6358140759
 13
359.0512227376
 23
30.6358140759
  0
SOLID
  8
0
 62
7
  6
CONTINUOUS
 10
359.2246602583
 20
30.5712868422
 11
359.0512227376
 21
30.6358140759
 12
359.6871602721
 22
30.6358140759
 13
359.6871602721
 23
30.6358140759
  0
SOLID
  8
0
 62
7
  6
CONTINUOUS
 10
363.2715352445
 20
31.0229779808
 11
363.3871601343
 21
31.0875057863
 12
363.9652852445
 22
31.0552422931
 13
363.9652852445
 23
31.0552422931
  0
SOLID
  8
0
 62
7
  6
CONTINUOUS
 10
363.9652852445
 20
31.0552422931
 11
363.7340351343
 21
31.0229779808
 12
363.2715352445
 22
31.0229779808
 13
363.2715352445
 23
31.0229779808
  0
SOLID
  8
0
 62
7
  6
CONTINUOUS
 10
363.1559103548
 20
30.8939238094
 11
363.2715352445
 21
31.0229779808
 12
363.7340351343
 22
31.0229779808
 13
363.7340351343
 23
31.0229779808
  0
SOLID
  8
0
 62
7
  6
CONTINUOUS
 10
363.5027853548
 20
30.926187309
 11
363.1559103548
 21
30.8939238094
 12
363.6184102445
 22
30.9907152029
 13
363.6184102445
 23
30.9907152029
  0
SOLID
  8
0
 62
7
  6
CONTINUOUS
 10
363.1559103548
 20
30.8939238094
 11
363.7340351343
 21
31.0229779898
 12
363.6184102445
 22
30.9907152029
 13
363.6184102445
 23
30.9907152029
  0
SOLID
  8
0
 62
7
  6
CONTINUOUS
 10
363.5027853548
 20
30.926187309
 11
363.4449727445
 21
30.8293967193
 12
363.1559103548
 22
30.8939238094
 13
363.1559103548
 23
30.8939238094
  0
SOLID
  8
0
 62
7
  6
CONTINUOUS
 10
363.1559103548
 20
30.797132416
 11
363.1559103548
 21
30.8939238094
 12
363.4449727445
 22
30.8293967193
 13
363.4449727445
 23
30.8293967193
  0
SOLID
  8
0
 62
7
  6
CONTINUOUS
 10
363.4449727445
 20
30.8293967193
 11
363.4449727445
 21
30.7648681127
 12
363.1559103548
 22
30.797132416
 13
363.1559103548
 23
30.797132416
  0
SOLID
  8
0
 62
7
  6
CONTINUOUS
 10
363.2137226343
 20
30.6680782357
 11
363.1559103548
 21
30.797132416
 12
363.4449727445
 22
30.7648681127
 13
363.4449727445
 23
30.7648681127
  0
SOLID
  8
0
 62
7
  6
CONTINUOUS
 10
364.6012229651
 20
30.8616599362
 11
364.890285024
 21
30.7648681127
 12
364.543410024
 22
30.797132416
 13
364.543410024
 23
30.797132416
  0
SOLID
  8
0
 62
7
  6
CONTINUOUS
 10
364.369972524
 20
30.7003410226
 11
364.543410024
 21
30.797132416
 12
364.890285024
 22
30.7648681127
 13
364.890285024
 23
30.7648681127
  0
SOLID
  8
0
 62
7
  6
CONTINUOUS
 10
364.369972524
 20
30.7003410226
 11
364.890285024
 21
30.7648681127
 12
364.6012229651
 22
30.6680782357
 13
364.6012229651
 23
30.6680782357
  0
SOLID
  8
0
 62
7
  6
CONTINUOUS
 10
364.890285024
 20
30.7648681127
 11
364.9480979651
 21
30.6035511455
 12
364.6012229651
 22
30.6680782357
 13
364.6012229651
 23
30.6680782357
  0
SOLID
  8
0
 62
7
  6
CONTINUOUS
 10
364.6590352445
 20
30.5712868422
 11
364.6012229651
 21
30.6680782357
 12
364.9480979651
 22
30.6035511455
 13
364.9480979651
 23
30.6035511455
  0
SOLID
  8
0
 62
7
  6
CONTINUOUS
 10
364.6590352445
 20
30.5712868422
 11
364.9480979651
 21
30.6035511455
 12
364.716847524
 22
30.5067598731
 13
364.716847524
 23
30.5067598731
  0
SOLID
  8
0
 62
7
  6
CONTINUOUS
 10
364.9480979651
 20
30.6035511455
 11
365.0059102445
 21
30.5067598731
 12
364.716847524
 22
30.5067598731
 13
364.716847524
 23
30.5067598731
  0
SOLID
  8
0
 62
7
  6
CONTINUOUS
 10
360.2652852997
 20
30.7326051679
 11
360.3230977445
 21
30.8293966612
 12
360.6121602997
 22
30.8293966612
 13
360.6121602997
 23
30.8293966612
  0
SOLID
  8
0
 62
7
  6
CONTINUOUS
 10
360.6121602997
 20
30.8293966612
 11
360.5543476894
 21
30.7003410226
 12
360.2652852997
 22
30.7326051679
 13
360.2652852997
 23
30.7326051679
  0
SOLID
  8
0
 62
7
  6
CONTINUOUS
 10
360.091847717
 20
30.6680782357
 11
360.2652852997
 21
30.7326051679
 12
360.5543476894
 22
30.7003410226
 13
360.5543476894
 23
30.7003410226
  0
SOLID
  8
0
 62
7
  6
CONTINUOUS
 10
360.091847717
 20
30.6680782357
 11
360.5543476894
 21
30.7003410226
 12
359.6871602721
 22
30.6358139324
 13
359.6871602721
 23
30.6358139324
  0
SOLID
  8
0
 62
7
  6
CONTINUOUS
 10
360.5543476894
 20
30.7003410226
 11
360.3809101894
 21
30.6035511455
 12
359.6871602721
 22
30.6358139324
 13
359.6871602721
 23
30.6358139324
  0
SOLID
  8
0
 62
7
  6
CONTINUOUS
 10
359.2246602583
 20
30.5712868422
 11
359.6871602721
 21
30.6358139324
 12
360.3809101894
 22
30.6035511455
 13
360.3809101894
 23
30.6035511455
  0
SOLID
  8
0
 62
7
  6
CONTINUOUS
 10
359.2246602583
 20
30.5712868422
 11
360.3809101894
 21
30.6035511455
 12
359.3980977583
 22
30.5390224228
 13
359.3980977583
 23
30.5390224228
  0
SOLID
  8
0
 62
7
  6
CONTINUOUS
 10
360.3809101894
 20
30.6035511455
 11
360.1496602445
 21
30.5390224228
 12
359.3980977583
 22
30.5390224228
 13
359.3980977583
 23
30.5390224228
  0
SOLID
  8
0
 62
7
  6
CONTINUOUS
 10
359.744972717
 20
30.5067597521
 11
359.3980977583
 21
30.5390224228
 12
360.1496602445
 22
30.5390224228
 13
360.1496602445
 23
30.5390224228
  0
SOLID
  8
0
 62
7
  6
CONTINUOUS
 10
363.2137226343
 20
30.6680782357
 11
363.4449727445
 21
30.7648681127
 12
363.5027853548
 22
30.7003410226
 13
363.5027853548
 23
30.7003410226
  0
SOLID
  8
0
 62
7
  6
CONTINUOUS
 10
363.5027853548
 20
30.7003410226
 11
363.7340351343
 21
30.6358139324
 12
363.2137226343
 22
30.6680782357
 13
363.2137226343
 23
30.6680782357
  0
SOLID
  8
0
 62
7
  6
CONTINUOUS
 10
363.3871601343
 20
30.5712868422
 11
363.2137226343
 21
30.6680782357
 12
363.7340351343
 22
30.6358139324
 13
363.7340351343
 23
30.6358139324
  0
SOLID
  8
0
 62
7
  6
CONTINUOUS
 10
364.0809101343
 20
30.6358139363
 11
364.369972524
 21
30.7003410226
 12
364.6012229651
 22
30.6680782357
 13
364.6012229651
 23
30.6680782357
  0
SOLID
  8
0
 62
7
  6
CONTINUOUS
 10
364.6012229651
 20
30.6680782357
 11
364.543410024
 21
30.6035511455
 12
364.0809101343
 22
30.6358139363
 13
364.0809101343
 23
30.6358139363
  0
SOLID
  8
0
 62
7
  6
CONTINUOUS
 10
364.543410024
 20
30.6035511455
 11
363.3871601343
 21
30.5712868422
 12
364.0809101343
 22
30.6358139363
 13
364.0809101343
 23
30.6358139363
  0
SOLID
  8
0
 62
7
  6
CONTINUOUS
 10
363.3871601343
 20
30.5712868422
 11
363.7340351343
 21
30.6358139363
 12
364.0809101343
 22
30.6358139363
 13
364.0809101343
 23
30.6358139363
  0
SOLID
  8
0
 62
7
  6
CONTINUOUS
 10
363.3871601343
 20
30.5712868422
 11
364.543410024
 21
30.6035511455
 12
363.5027853548
 22
30.5390225267
 13
363.5027853548
 23
30.5390225267
  0
SOLID
  8
0
 62
7
  6
CONTINUOUS
 10
364.543410024
 20
30.6035511455
 11
364.369972524
 21
30.5390225267
 12
363.5027853548
 22
30.5390225267
 13
363.5027853548
 23
30.5390225267
  0
SOLID
  8
0
 62
7
  6
CONTINUOUS
 10
363.7340351343
 20
30.5067596914
 11
363.5027853548
 21
30.5390225267
 12
364.369972524
 22
30.5390225267
 13
364.369972524
 23
30.5390225267
  0
SOLID
  8
0
 62
7
  6
CONTINUOUS
 10
364.369972524
 20
30.5390225267
 11
364.0809101343
 21
30.5067596914
 12
363.7340351343
 22
30.5067596914
 13
363.7340351343
 23
30.5067596914
  0
SOLID
  8
0
 62
7
  6
CONTINUOUS
 10
368.7637229651
 20
30.6680782357
 11
368.4168479651
 21
30.6358138717
 12
368.6480977445
 22
30.7003410226
 13
368.6480977445
 23
30.7003410226
  0
SOLID
  8
0
 62
7
  6
CONTINUOUS
 10
368.6480977445
 20
30.7003410226
 11
368.4168479651
 21
30.6358138717
 12
368.5902854651
 22
30.7648680521
 13
368.5902854651
 23
30.7648680521
  0
SOLID
  8
0
 62
7
  6
CONTINUOUS
 10
368.4168479651
 20
30.6358138717
 11
368.3012227445
 21
30.7648680521
 12
368.5902854651
 22
30.7648680521
 13
368.5902854651
 23
30.7648680521
  0
SOLID
  8
0
 62
7
  6
CONTINUOUS
 10
368.7637229651
 20
30.6680782357
 11
369.1105979651
 21
30.6358138717
 12
368.4168479651
 22
30.6358138717
 13
368.4168479651
 23
30.6358138717
  0
SOLID
  8
0
 62
7
  6
CONTINUOUS
 10
365.4684104651
 20
30.5067597521
 11
365.4684104651
 21
31.5391977439
 12
365.757472524
 22
30.5067597521
 13
365.757472524
 23
31.5391977439
  0
ENDBLK
  8
0
  6
BYBLOCK
 62
0
  0
BLOCK
  8
0
 62
2
  6
CONTINUOUS
  2
SYMBOL_0_BL0
 70
64
 10
240.8592468615
 20
19.762288695
  0
TEXT
  8
0
 62
7
  6
CONTINUOUS
 10
227.1239507038
 20
19.1357028027
  7
TEXTSTYLE_3
 40
2.7338706658
  1
Ammeraal Beltech
 41
1.0
 51
15.0
 72
0
  0
TEXT
  8
0
 62
7
  6
CONTINUOUS
 10
237.9247515296
 20
16.8621661299
  7
TEXTSTYLE_4
 40
1.0935482663
  1
Innovation & Service in Belting
 41
1.0
 72
0
  0
LINE
  8
0
 62
7
  6
CONTINUOUS
 10
221.0994100525
 20
19.9022961113
 11
221.8775620458
 21
23.5632134089
  0
LINE
  8
0
 62
7
  6
CONTINUOUS
 10
231.9727303357
 20
27.2266073205
 11
222.3653797889
 21
24.1049898993
  0
LINE
  8
0
 62
7
  6
CONTINUOUS
 10
221.3246933848
 20
19.2089453082
 11
228.8317686459
 21
12.4495443822
  0
LINE
  8
0
 62
7
  6
CONTINUOUS
 10
221.5872277955
 20
20.4440726016
 11
232.3954971607
 21
23.9558922005
  0
LINE
  8
0
 62
7
  6
CONTINUOUS
 10
232.3912920235
 20
13.6061036368
 11
223.9458323548
 21
21.2104296785
  0
LINE
  8
0
 62
7
  6
CONTINUOUS
 10
232.9111147433
 20
26.3816822048
 11
231.9345552061
 21
21.7873308023
  0
LINE
  8
0
 62
7
  6
CONTINUOUS
 10
231.2347532584
 20
18.4950214885
 11
230.5483050469
 21
15.2655365641
  0
LINE
  8
0
 62
7
  6
CONTINUOUS
 10
233.5922108419
 20
13.9963058145
 11
234.5484423775
 21
18.4950214885
  0
LINE
  8
0
 62
7
  6
CONTINUOUS
 10
235.2482443252
 20
21.7873308023
 11
235.6924861276
 21
23.8773241617
  0
LINE
  8
0
 62
7
  6
CONTINUOUS
 10
229.5448697213
 20
12.2979700695
 11
233.1043930989
 21
13.4545293241
  0
LINE
  8
0
 62
7
  6
CONTINUOUS
 10
232.685831411
 20
27.0750330078
 11
235.4672027953
 21
24.5706749648
  0
ARC
  8
0
 62
7
  6
CONTINUOUS
 10
222.5906631212
 20
23.4116390962
 40
0.7290321776
 50
108.0
 51
168.0
  0
ARC
  8
0
 62
7
  6
CONTINUOUS
 10
232.198013668
 20
26.5332565175
 40
0.7290321776
 50
348.0
 51
108.0
  0
ARC
  8
0
 62
7
  6
CONTINUOUS
 10
234.9793850522
 20
24.0288984744
 40
0.7290321776
 50
348.0
 51
48.0
  0
ARC
  8
0
 62
7
  6
CONTINUOUS
 10
229.319586389
 20
12.9913208726
 40
0.7290321776
 50
228.0
 51
288.0
  0
ARC
  8
0
 62
7
  6
CONTINUOUS
 10
221.8125111278
 20
19.7507217986
 40
0.7290321776
 50
108.0
 51
228.0
  0
ARC
  8
0
 62
7
  6
CONTINUOUS
 10
232.8791097665
 20
14.1478801272
 40
0.7290321776
 50
228.0
 51
348.0
  0
ENDBLK
  8
0
  6
BYBLOCK
 62
0
  0
ENDSEC
  0
SECTION
  2
ENTITIES
  0
TEXT
  8
0
 62
5
  6
CONTINUOUS
 10
304.937007874
 20
25.636
  7
TEXTSTYLE_2
 40
2.8
  1
Scale :
 41
0.6
 51
0.000019
 72
0
  0
TEXT
  8
0
 62
5
  6
CONTINUOUS
 10
324.937007874
 20
25.636
  7
TEXTSTYLE_2
 40
2.8
  1
Belt type:
 41
0.6
 51
0.000019
 72
0
  0
INSERT
  8
0
 62
2
  6
CONTINUOUS
  2
SYMBOL_0_BL0
 10
240.8592468615
 20
19.762288695
  0
INSERT
  8
0
 62
2
  6
CONTINUOUS
  2
SYMBOL_5_BL1
 10
382.7840918555
 20
35.5067593403
  0
LINE
  8
0
 62
2
  6
CONTINUOUS
 10
218.937007874
 20
30.0
 11
408.937007874
 21
30.0
  0
LINE
  8
0
 62
2
  6
CONTINUOUS
 10
218.937007874
 20
30.0
 11
218.937007874
 21
10.0
  0
LINE
  8
0
 62
2
  6
CONTINUOUS
 10
218.937007874
 20
10.0
 11
408.937007874
 21
10.0
  0
LINE
  8
0
 62
2
  6
CONTINUOUS
 10
303.937007874
 20
30.0
 11
303.937007874
 21
10.0
  0
LINE
  8
0
 62
2
  6
CONTINUOUS
 10
323.937007874
 20
30.0
 11
323.937007874
 21
10.0
  0
LINE
  8
0
 62
2
  6
CONTINUOUS
 10
408.937007874
 20
30.0
 11
408.937007874
 21
10.0
  0
TEXT
  8
0
 62
5
  6
CONTINUOUS
 10
221.937007874
 20
23.303
  7
TEXTSTYLE_5
 40
1.52
  1
                                                                     Ammeraal Beltech Modular A/S
 41
1.0
 72
0
  0
TEXT
  8
0
 62
5
  6
CONTINUOUS
 10
221.937007874
 20
20.595
  7
TEXTSTYLE_5
 40
1.5
  1
                                                                      Hjulmagervej 21, 7100 Vejle,  DK
 41
1.0
 72
0
  0
TEXT
  8
0
 62
5
  6
CONTINUOUS
 10
221.937007874
 20
17.881
  7
TEXTSTYLE_5
 40
1.495
  1
                                                                      tel: 
 41
1.0
 72
0
  0
TEXT
  8
0
 62
5
  6
CONTINUOUS
 10
266.9239544389
 20
17.881
  7
TEXTSTYLE_5
 40
1.51
  1
+45 75723100     fax: +45 75723348
 41
1.0
 72
0
  0
TEXT
  8
0
 62
5
  6
CONTINUOUS
 10
221.937007874
 20
15.177
  7
TEXTSTYLE_5
 40
1.5
  1
                                                                      admin@unichains.dk  www.unichains.com
 41
1.0
 72
0
  0
TEXT
  8
0
 62
5
  6
CONTINUOUS
 10
308.687007874
 20
13.75
  7
TEXTSTYLE_6
 40
5.0
  1
1:1
 41
0.7
 72
1
 11
313.937007874
 21
13.75
  0
TEXT
  8
0
 62
5
  6
CONTINUOUS
 10
326.937007874
 20
13.75
  7
TEXTSTYLE_7
 40
7.5
  1
uni XLB-M2-00-V8mm-K800
 41
0.4107789855
 72
0
  0
LINE
  8
0
 62
7
  6
CONTINUOUS
 10
0.0
 20
0.0
 11
0.0
 21
297.0
  0
LINE
  8
0
 62
7
  6
CONTINUOUS
 10
8.937007874
 20
10.0
 11
8.937007874
 21
287.0
  0
LINE
  8
0
 62
7
  6
CONTINUOUS
 10
0.0
 20
0.0
 11
420.0
 21
0.0
  0
LINE
  8
0
 62
7
  6
CONTINUOUS
 10
408.937007874
 20
10.0
 11
8.937007874
 21
10.0
  0
LINE
  8
0
 62
7
  6
CONTINUOUS
 10
218.937007874
 20
30.0
 11
408.937007874
 21
30.0
  0
LINE
  8
0
 62
7
  6
CONTINUOUS
 10
210.0
 20
297.0
 11
210.0
 21
292.0
  0
LINE
  8
0
 62
7
  6
CONTINUOUS
 10
210.0
 20
0.0
 11
210.0
 21
5.0
  0
LINE
  8
0
 62
7
  6
CONTINUOUS
 10
8.937007874
 20
287.0
 11
408.937007874
 21
287.0
  0
LINE
  8
0
 62
7
  6
CONTINUOUS
 10
0.0
 20
297.0
 11
420.0
 21
297.0
  0
LINE
  8
0
 62
7
  6
CONTINUOUS
 10
408.937007874
 20
287.0
 11
408.937007874
 21
10.0
  0
LINE
  8
0
 62
7
  6
CONTINUOUS
 10
420.0
 20
0.0
 11
420.0
 21
297.0
  0
LINE
  8
0
 62
7
  6
CONTINUOUS
 10
36.8526315789
 20
71.0138157895
 11
36.8526315789
 21
134.9898478951
  0
POLYLINE
  8
SURFACE
 62
7
  6
CONTINUOUS
 66
1
 70
0
  0
VERTEX
  8
SURFACE
 62
7
  6
CONTINUOUS
 10
36.8526315789
 20
134.9898478951
  0
VERTEX
  8
SURFACE
 62
7
  6
CONTINUOUS
 10
36.8572957015
 20
135.1193434046
  0
VERTEX
  8
SURFACE
 62
7
  6
CONTINUOUS
 10
36.871112313
 20
135.2471203283
  0
VERTEX
  8
SURFACE
 62
7
  6
CONTINUOUS
 10
36.8941189617
 20
135.3740787828
  0
VERTEX
  8
SURFACE
 62
7
  6
CONTINUOUS
 10
36.9261587522
 20
135.499054708
  0
VERTEX
  8
SURFACE
 62
7
  6
CONTINUOUS
 10
36.9671325645
 20
135.6215860309
  0
VERTEX
  8
SURFACE
 62
7
  6
CONTINUOUS
 10
37.0168707484
 20
135.7410379544
  0
VERTEX
  8
SURFACE
 62
7
  6
CONTINUOUS
 10
37.0751613595
 20
135.8567894772
  0
VERTEX
  8
SURFACE
 62
7
  6
CONTINUOUS
 10
37.1418877946
 20
135.9684454722
  0
VERTEX
  8
SURFACE
 62
7
  6
CONTINUOUS
 10
37.2168003188
 20
136.0753839804
  0
VERTEX
  8
SURFACE
 62
7
  6
CONTINUOUS
 10
37.2993809041
 20
136.1767398914
  0
VERTEX
  8
SURFACE
 62
7
  6
CONTINUOUS
 10
37.3894800175
 20
136.2722082706
  0
VERTEX
  8
SURFACE
 62
7
  6
CONTINUOUS
 10
37.4865823603
 20
136.3610988639
  0
VERTEX
  8
SURFACE
 62
7
  6
CONTINUOUS
 10
37.5903211768
 20
136.4429468626
  0
VERTEX
  8
SURFACE
 62
7
  6
CONTINUOUS
 10
37.7000357411
 20
136.5171203559
  0
VERTEX
  8
SURFACE
 62
7
  6
CONTINUOUS
 10
37.815280799
 20
136.5832228263
  0
VERTEX
  8
SURFACE
 62
7
  6
CONTINUOUS
 10
37.9355520539
 20
136.64084667
  0
VERTEX
  8
SURFACE
 62
7
  6
CONTINUOUS
 10
38.0600039184
 20
136.6894926979
  0
VERTEX
  8
SURFACE
 62
7
  6
CONTINUOUS
 10
38.1879627082
 20
136.7288369234
  0
VERTEX
  8
SURFACE
 62
7
  6
CONTINUOUS
 10
38.3186294684
 20
136.7585882915
  0
VERTEX
  8
SURFACE
 62
7
  6
CONTINUOUS
 10
38.4514565823
 20
136.7785705177
  0
VERTEX
  8
SURFACE
 62
7
  6
CONTINUOUS
 10
38.5853691069
 20
136.7885907227
  0
VERTEX
  8
SURFACE
 62
7
  6
CONTINUOUS
 10
38.6526315789
 20
136.7898478936
  0
SEQEND
  0
LINE
  8
SURFACE
 62
7
  6
CONTINUOUS
 10
53.6275387921
 20
140.3050740242
 11
53.6219294837
 21
138.639339382
  0
LINE
  8
0
 62
7
  6
CONTINUOUS
 10
53.2264864088
 20
91.2753714006
 11
53.2337742828
 21
93.2879393656
  0
LINE
  8
SURFACE
 62
7
  6
CONTINUOUS
 10
53.6275387921
 20
140.3050740242
 11
53.6788366732
 21
153.2054674307
  0
LINE
  8
0
 62
7
  6
CONTINUOUS
 10
53.1700693022
 20
77.3525708187
 11
53.2264864089
 21
91.2753713955
  0
LINE
  8
SURFACE
 62
7
  6
CONTINUOUS
 10
53.6865076468
 20
154.8217287527
 11
53.6788366733
 21
153.205467429
  0
LINE
  8
0
 62
7
  6
CONTINUOUS
 10
53.1604087481
 20
75.7965851261
 11
53.1700693022
 21
77.3525708187
  0
LINE
  8
SURFACE
 62
7
  6
CONTINUOUS
 10
53.6962318535
 20
156.3231588521
 11
53.6865076468
 21
154.8217287527
  0
LINE
  8
0
 62
7
  6
CONTINUOUS
 10
53.1489684379
 20
74.4236989781
 11
53.1604087481
 21
75.7965851261
  0
LINE
  8
SURFACE
 62
7
  6
CONTINUOUS
 10
53.7076761374
 20
157.6496764408
 11
53.6962318535
 21
156.3231588521
  0
LINE
  8
0
 62
7
  6
CONTINUOUS
 10
53.1361882104
 20
73.2717318126
 11
53.1489684379
 21
74.4236989781
  0
LINE
  8
SURFACE
 62
7
  6
CONTINUOUS
 10
53.7204099915
 20
158.7622844008
 11
53.7076761374
 21
157.6496764408
  0
LINE
  8
0
 62
7
  6
CONTINUOUS
 10
53.1226244903
 20
72.3637212573
 11
53.1361882104
 21
73.2717318126
  0
LINE
  8
SURFACE
 62
7
  6
CONTINUOUS
 10
53.7338389052
 20
159.6348753528
 11
53.7204099915
 21
158.7622844008
  0
LINE
  8
SURFACE
 62
7
  6
CONTINUOUS
 10
53.7423295418
 20
160.0577839635
 11
53.7338389052
 21
159.6348753528
  0
LINE
  8
0
 62
7
  6
CONTINUOUS
 10
53.112848925
 20
71.8692586469
 11
53.1226244903
 21
72.3637212573
  0
LINE
  8
SURFACE
 62
7
  6
CONTINUOUS
 10
53.7491638165
 20
160.3348931956
 11
53.7423295418
 21
160.0577839635
  0
LINE
  8
0
 62
7
  6
CONTINUOUS
 10
53.1060080028
 20
71.5922038752
 11
53.112848925
 21
71.8692586469
  0
LINE
  8
SURFACE
 62
7
  6
CONTINUOUS
 10
53.7547113597
 20
160.5216739621
 11
53.7491638165
 21
160.3348931956
  0
LINE
  8
0
 62
7
  6
CONTINUOUS
 10
53.1004547962
 20
71.4054650636
 11
53.1060080028
 21
71.5922038752
  0
LINE
  8
SURFACE
 62
7
  6
CONTINUOUS
 10
53.7591487193
 20
160.6480846445
 11
53.7547113597
 21
160.5216739621
  0
LINE
  8
0
 62
7
  6
CONTINUOUS
 10
53.0960127697
 20
71.2790889314
 11
53.1004547962
 21
71.4054650636
  0
POLYLINE
  8
SURFACE
 62
7
  6
CONTINUOUS
 66
1
 70
0
  0
VERTEX
  8
SURFACE
 62
7
  6
CONTINUOUS
 10
53.6219294477
 20
138.6393398095
  0
VERTEX
  8
SURFACE
 62
7
  6
CONTINUOUS
 10
53.6166900413
 20
138.5073461267
  0
VERTEX
  8
SURFACE
 62
7
  6
CONTINUOUS
 10
53.6006725451
 20
138.3685901215
  0
VERTEX
  8
SURFACE
 62
7
  6
CONTINUOUS
 10
53.5743172845
 20
138.2328709554
  0
VERTEX
  8
SURFACE
 62
7
  6
CONTINUOUS
 10
53.5380697329
 20
138.1007971959
  0
VERTEX
  8
SURFACE
 62
7
  6
CONTINUOUS
 10
53.4924009217
 20
137.9729757955
  0
VERTEX
  8
SURFACE
 62
7
  6
CONTINUOUS
 10
53.4378100492
 20
137.8499860434
  0
VERTEX
  8
SURFACE
 62
7
  6
CONTINUOUS
 10
53.3748225826
 20
137.7323667371
  0
VERTEX
  8
SURFACE
 62
7
  6
CONTINUOUS
 10
53.303975984
 20
137.6205949128
  0
VERTEX
  8
SURFACE
 62
7
  6
CONTINUOUS
 10
53.225800784
 20
137.5150755681
  0
VERTEX
  8
SURFACE
 62
7
  6
CONTINUOUS
 10
53.1408275284
 20
137.41617066
  0
VERTEX
  8
SURFACE
 62
7
  6
CONTINUOUS
 10
53.0495896018
 20
137.3242078508
  0
VERTEX
  8
SURFACE
 62
7
  6
CONTINUOUS
 10
52.9526528472
 20
137.2395064698
  0
VERTEX
  8
SURFACE
 62
7
  6
CONTINUOUS
 10
52.8506039136
 20
137.1623544225
  0
VERTEX
  8
SURFACE
 62
7
  6
CONTINUOUS
 10
52.7440340356
 20
137.0929937131
  0
VERTEX
  8
SURFACE
 62
7
  6
CONTINUOUS
 10
52.6335375055
 20
137.0316228867
  0
VERTEX
  8
SURFACE
 62
7
  6
CONTINUOUS
 10
52.519721361
 20
136.9784034305
  0
VERTEX
  8
SURFACE
 62
7
  6
CONTINUOUS
 10
52.4031946873
 20
136.9334531941
  0
VERTEX
  8
SURFACE
 62
7
  6
CONTINUOUS
 10
52.2845604062
 20
136.8968450971
  0
VERTEX
  8
SURFACE
 62
7
  6
CONTINUOUS
 10
52.164414542
 20
136.8686098644
  0
VERTEX
  8
SURFACE
 62
7
  6
CONTINUOUS
 10
52.0433517789
 20
136.8487387612
  0
VERTEX
  8
SURFACE
 62
7
  6
CONTINUOUS
 10
51.9219558583
 20
136.8371817726
  0
VERTEX
  8
SURFACE
 62
7
  6
CONTINUOUS
 10
51.8435444847
 20
136.8340947435
  0
SEQEND
  0
POLYLINE
  8
0
 62
7
  6
CONTINUOUS
 66
1
 70
0
  0
VERTEX
  8
0
 62
7
  6
CONTINUOUS
 10
53.2337743129
 20
93.2879390842
  0
VERTEX
  8
0
 62
7
  6
CONTINUOUS
 10
53.2394474407
 20
93.4251863446
  0
VERTEX
  8
0
 62
7
  6
CONTINUOUS
 10
53.2564791793
 20
93.5676139618
  0
VERTEX
  8
0
 62
7
  6
CONTINUOUS
 10
53.2841392353
 20
93.7057714836
  0
VERTEX
  8
0
 62
7
  6
CONTINUOUS
 10
53.3217346881
 20
93.8391507478
  0
VERTEX
  8
0
 62
7
  6
CONTINUOUS
 10
53.3685748883
 20
93.9672419158
  0
VERTEX
  8
0
 62
7
  6
CONTINUOUS
 10
53.4239643009
 20
94.0895706331
  0
VERTEX
  8
0
 62
7
  6
CONTINUOUS
 10
53.4872075073
 20
94.205722501
  0
VERTEX
  8
0
 62
7
  6
CONTINUOUS
 10
53.5576627382
 20
94.3154166273
  0
VERTEX
  8
0
 62
7
  6
CONTINUOUS
 10
53.6347805477
 20
94.4184984609
  0
VERTEX
  8
0
 62
7
  6
CONTINUOUS
 10
53.71808241
 20
94.5148577617
  0
VERTEX
  8
0
 62
7
  6
CONTINUOUS
 10
53.8071494499
 20
94.6043983466
  0
VERTEX
  8
0
 62
7
  6
CONTINUOUS
 10
53.9015567808
 20
94.6869756832
  0
VERTEX
  8
0
 62
7
  6
CONTINUOUS
 10
54.0009013562
 20
94.7624423772
  0
VERTEX
  8
0
 62
7
  6
CONTINUOUS
 10
54.1048231078
 20
94.8306619923
  0
VERTEX
  8
0
 62
7
  6
CONTINUOUS
 10
54.2129766586
 20
94.8914833056
  0
VERTEX
  8
0
 62
7
  6
CONTINUOUS
 10
54.3249491002
 20
94.9447056702
  0
VERTEX
  8
0
 62
7
  6
CONTINUOUS
 10
54.4403144106
 20
94.9901294685
  0
VERTEX
  8
0
 62
7
  6
CONTINUOUS
 10
54.5586483905
 20
95.0275644621
  0
VERTEX
  8
0
 62
7
  6
CONTINUOUS
 10
54.6795247499
 20
95.0568265125
  0
VERTEX
  8
0
 62
7
  6
CONTINUOUS
 10
54.8025365946
 20
95.0777387125
  0
VERTEX
  8
0
 62
7
  6
CONTINUOUS
 10
54.9272769764
 20
95.090120473
  0
SEQEND
  0
LINE
  8
SURFACE
 62
7
  6
CONTINUOUS
 10
53.7625149967
 20
160.7311674691
 11
53.7591487193
 21
160.6480846445
  0
LINE
  8
0
 62
7
  6
CONTINUOUS
 10
53.0926427778
 20
71.196031032
 11
53.0960127697
 21
71.2790889314
  0
LINE
  8
0
 62
7
  6
CONTINUOUS
 10
53.0903518229
 20
71.1455283735
 11
53.0926427778
 21
71.196031032
  0
LINE
  8
SURFACE
 62
7
  6
CONTINUOUS
 10
53.765969072
 20
160.8056534372
 11
53.7625149967
 21
160.7311674691
  0
LINE
  8
0
 62
7
  6
CONTINUOUS
 10
53.0879970014
 20
71.0983653032
 11
53.0903518229
 21
71.1455283735
  0
LINE
  8
SURFACE
 62
7
  6
CONTINUOUS
 10
53.7683661837
 20
160.8513695103
 11
53.765969072
 21
160.8056534372
  0
LINE
  8
0
 62
7
  6
CONTINUOUS
 10
53.0855388864
 20
71.0539491706
 11
53.0879970014
 21
71.0983653032
  0
LINE
  8
SURFACE
 62
7
  6
CONTINUOUS
 10
53.770892793
 20
160.8946721348
 11
53.7683661837
 21
160.8513695103
  0
LINE
  8
0
 62
7
  6
CONTINUOUS
 10
53.0829193323
 20
71.0115973588
 11
53.0855388864
 21
71.0539491706
  0
POLYLINE
  8
0
 62
7
  6
CONTINUOUS
 66
1
 70
0
  0
VERTEX
  8
0
 62
7
  6
CONTINUOUS
 10
70.3313087426
 20
93.4075139507
  0
VERTEX
  8
0
 62
7
  6
CONTINUOUS
 10
70.320074205
 20
93.5208793077
  0
VERTEX
  8
0
 62
7
  6
CONTINUOUS
 10
70.3017486604
 20
93.6331320636
  0
VERTEX
  8
0
 62
7
  6
CONTINUOUS
 10
70.2765238573
 20
93.7435202667
  0
VERTEX
  8
0
 62
7
  6
CONTINUOUS
 10
70.2446907418
 20
93.8513384078
  0
VERTEX
  8
0
 62
7
  6
CONTINUOUS
 10
70.2065168485
 20
93.9562209684
  0
VERTEX
  8
0
 62
7
  6
CONTINUOUS
 10
70.1621920833
 20
94.0580253567
  0
VERTEX
  8
0
 62
7
  6
CONTINUOUS
 10
70.1120202527
 20
94.156341326
  0
VERTEX
  8
0
 62
7
  6
CONTINUOUS
 10
70.056300586
 20
94.2508503526
  0
VERTEX
  8
0
 62
7
  6
CONTINUOUS
 10
69.9953128122
 20
94.3413080033
  0
VERTEX
  8
0
 62
7
  6
CONTINUOUS
 10
69.9293349488
 20
94.4274917229
  0
VERTEX
  8
0
 62
7
  6
CONTINUOUS
 10
69.8586482742
 20
94.5091911018
  0
VERTEX
  8
0
 62
7
  6
CONTINUOUS
 10
69.7835337174
 20
94.5862116449
  0
VERTEX
  8
0
 62
7
  6
CONTINUOUS
 10
69.7042614883
 20
94.6583817608
  0
VERTEX
  8
0
 62
7
  6
CONTINUOUS
 10
69.6210868286
 20
94.7255495064
  0
VERTEX
  8
0
 62
7
  6
CONTINUOUS
 10
69.5342553969
 20
94.7875722148
  0
VERTEX
  8
0
 62
7
  6
CONTINUOUS
 10
69.44400445
 20
94.844312577
  0
VERTEX
  8
0
 62
7
  6
CONTINUOUS
 10
69.3506497522
 20
94.8955916634
  0
VERTEX
  8
0
 62
7
  6
CONTINUOUS
 10
69.2545594675
 20
94.9412292454
  0
VERTEX
  8
0
 62
7
  6
CONTINUOUS
 10
69.1559437002
 20
94.9811368537
  0
VERTEX
  8
0
 62
7
  6
CONTINUOUS
 10
69.0549451752
 20
95.015234458
  0
VERTEX
  8
0
 62
7
  6
CONTINUOUS
 10
68.9518119513
 20
95.0433882576
  0
VERTEX
  8
0
 62
7
  6
CONTINUOUS
 10
68.8470258611
 20
95.0654212964
  0
VERTEX
  8
0
 62
7
  6
CONTINUOUS
 10
68.7411232248
 20
95.0812041626
  0
VERTEX
  8
0
 62
7
  6
CONTINUOUS
 10
68.6346498591
 20
95.0906702
  0
SEQEND
  0
POLYLINE
  8
0
 62
7
  6
CONTINUOUS
 66
1
 70
0
  0
VERTEX
  8
0
 62
7
  6
CONTINUOUS
 10
70.4829285965
 20
71.0014137146
  0
VERTEX
  8
0
 62
7
  6
CONTINUOUS
 10
70.4845967782
 20
70.9775936258
  0
VERTEX
  8
0
 62
7
  6
CONTINUOUS
 10
70.4863640866
 20
70.9541739992
  0
VERTEX
  8
0
 62
7
  6
CONTINUOUS
 10
70.4882624982
 20
70.9308973148
  0
VERTEX
  8
0
 62
7
  6
CONTINUOUS
 10
70.4903342075
 20
70.9074694162
  0
VERTEX
  8
0
 62
7
  6
CONTINUOUS
 10
70.4926351796
 20
70.8835525743
  0
VERTEX
  8
0
 62
7
  6
CONTINUOUS
 10
70.4952367717
 20
70.8587869173
  0
VERTEX
  8
0
 62
7
  6
CONTINUOUS
 10
70.4982324612
 20
70.8327675722
  0
VERTEX
  8
0
 62
7
  6
CONTINUOUS
 10
70.5017449008
 20
70.8050392478
  0
VERTEX
  8
0
 62
7
  6
CONTINUOUS
 10
70.5059264739
 20
70.7751503716
  0
VERTEX
  8
0
 62
7
  6
CONTINUOUS
 10
70.5109473187
 20
70.742766868
  0
VERTEX
  8
0
 62
7
  6
CONTINUOUS
 10
70.5169907651
 20
70.7076824998
  0
VERTEX
  8
0
 62
7
  6
CONTINUOUS
 10
70.5241878646
 20
70.6701114346
  0
VERTEX
  8
0
 62
7
  6
CONTINUOUS
 10
70.53257581
 20
70.6306843424
  0
VERTEX
  8
0
 62
7
  6
CONTINUOUS
 10
70.5422670121
 20
70.5895516065
  0
VERTEX
  8
0
 62
7
  6
CONTINUOUS
 10
70.5537973079
 20
70.5452982663
  0
VERTEX
  8
0
 62
7
  6
CONTINUOUS
 10
70.5680682589
 20
70.4958719615
  0
VERTEX
  8
0
 62
7
  6
CONTINUOUS
 10
70.5861475917
 20
70.4396460322
  0
VERTEX
  8
0
 62
7
  6
CONTINUOUS
 10
70.6086590452
 20
70.3770851747
  0
VERTEX
  8
0
 62
7
  6
CONTINUOUS
 10
70.6359633435
 20
70.3094449816
  0
VERTEX
  8
0
 62
7
  6
CONTINUOUS
 10
70.6684243193
 20
70.2377966622
  0
VERTEX
  8
0
 62
7
  6
CONTINUOUS
 10
70.7067185955
 20
70.1624849809
  0
VERTEX
  8
0
 62
7
  6
CONTINUOUS
 10
70.7515697597
 20
70.0839240233
  0
VERTEX
  8
0
 62
7
  6
CONTINUOUS
 10
70.8036934291
 20
70.0026914912
  0
VERTEX
  8
0
 62
7
  6
CONTINUOUS
 10
70.8637758307
 20
69.9195264397
  0
VERTEX
  8
0
 62
7
  6
CONTINUOUS
 10
70.932593314
 20
69.8351597861
  0
VERTEX
  8
0
 62
7
  6
CONTINUOUS
 10
71.0112444535
 20
69.7501454579
  0
VERTEX
  8
0
 62
7
  6
CONTINUOUS
 10
71.1007306121
 20
69.6654409667
  0
VERTEX
  8
0
 62
7
  6
CONTINUOUS
 10
71.2005257757
 20
69.5834240603
  0
VERTEX
  8
0
 62
7
  6
CONTINUOUS
 10
71.3090208669
 20
69.5067512689
  0
VERTEX
  8
0
 62
7
  6
CONTINUOUS
 10
71.4240906658
 20
69.4376084822
  0
VERTEX
  8
0
 62
7
  6
CONTINUOUS
 10
71.5437630364
 20
69.3773303692
  0
VERTEX
  8
0
 62
7
  6
CONTINUOUS
 10
71.6672734094
 20
69.3262304887
  0
VERTEX
  8
0
 62
7
  6
CONTINUOUS
 10
71.794056357
 20
69.2844813711
  0
VERTEX
  8
0
 62
7
  6
CONTINUOUS
 10
71.9235506776
 20
69.2522429628
  0
VERTEX
  8
0
 62
7
  6
CONTINUOUS
 10
72.0551980819
 20
69.2296648453
  0
VERTEX
  8
0
 62
7
  6
CONTINUOUS
 10
72.1884361262
 20
69.2168890647
  0
VERTEX
  8
0
 62
7
  6
CONTINUOUS
 10
72.2936033221
 20
69.2138159047
  0
SEQEND
  0
LINE
  8
0
 62
7
  6
CONTINUOUS
 10
70.479799512
 20
71.0511085207
 11
70.4829285965
 21
71.0014137146
  0
LINE
  8
0
 62
7
  6
CONTINUOUS
 10
70.4768472414
 20
71.1046835832
 11
70.479799512
 21
71.0511085207
  0
LINE
  8
0
 62
7
  6
CONTINUOUS
 10
70.473997222
 20
71.163209161
 11
70.4768472414
 21
71.1046835832
  0
LINE
  8
0
 62
7
  6
CONTINUOUS
 10
70.4712048574
 20
71.2275303685
 11
70.473997222
 21
71.163209161
  0
LINE
  8
0
 62
7
  6
CONTINUOUS
 10
70.4670526638
 20
71.3367988658
 11
70.4712048574
 21
71.2275303685
  0
LINE
  8
SURFACE
 62
7
  6
CONTINUOUS
 10
69.9609838355
 20
160.5082981712
 11
69.9568272273
 21
160.6291009943
  0
LINE
  8
0
 62
7
  6
CONTINUOUS
 10
70.4628865232
 20
71.4637799237
 11
70.4670526638
 21
71.3367988658
  0
LINE
  8
SURFACE
 62
7
  6
CONTINUOUS
 10
69.9665900521
 20
160.3167664323
 11
69.9609838355
 21
160.5082981712
  0
LINE
  8
0
 62
7
  6
CONTINUOUS
 10
70.4572505203
 20
71.6649330464
 11
70.4628865232
 21
71.4637799237
  0
LINE
  8
SURFACE
 62
7
  6
CONTINUOUS
 10
69.9738631349
 20
160.0158709901
 11
69.9665900521
 21
160.3167664323
  0
LINE
  8
0
 62
7
  6
CONTINUOUS
 10
70.4498857486
 20
71.9822895978
 11
70.4572505203
 21
71.6649330464
  0
LINE
  8
SURFACE
 62
7
  6
CONTINUOUS
 10
69.9816926775
 20
159.6199861367
 11
69.9738631349
 21
160.0158709901
  0
LINE
  8
0
 62
7
  6
CONTINUOUS
 10
70.4419224651
 20
72.4012012229
 11
70.4498857486
 21
71.9822895978
  0
LINE
  8
SURFACE
 62
7
  6
CONTINUOUS
 10
69.9901848887
 20
159.096609512
 11
69.9816926775
 21
159.6199861367
  0
LINE
  8
0
 62
7
  6
CONTINUOUS
 10
70.4333179203
 20
72.9529648072
 11
70.4419224651
 21
72.4012012229
  0
LINE
  8
SURFACE
 62
7
  6
CONTINUOUS
 10
69.9990991091
 20
158.4261624353
 11
69.9901848887
 21
159.096609512
  0
LINE
  8
0
 62
7
  6
CONTINUOUS
 10
70.4243554996
 20
73.6546507339
 11
70.4333179203
 21
72.9529648072
  0
LINE
  8
0
 62
7
  6
CONTINUOUS
 10
70.4170561284
 20
74.3408036417
 11
70.4243554996
 21
73.6546507339
  0
LINE
  8
SURFACE
 62
7
  6
CONTINUOUS
 10
70.0082070108
 20
157.5868298441
 11
69.9990991091
 21
158.4261624353
  0
LINE
  8
0
 62
7
  6
CONTINUOUS
 10
70.4097027992
 20
75.161517046
 11
70.4170561284
 21
74.3408036417
  0
LINE
  8
SURFACE
 62
7
  6
CONTINUOUS
 10
70.0155603487
 20
156.7661157431
 11
70.0082070108
 21
157.5868298441
  0
LINE
  8
0
 62
7
  6
CONTINUOUS
 10
70.402418456
 20
76.1415271564
 11
70.4097027992
 21
75.161517046
  0
LINE
  8
SURFACE
 62
7
  6
CONTINUOUS
 10
70.0228446965
 20
155.7861052094
 11
70.0155603487
 21
156.7661157431
  0
LINE
  8
0
 62
7
  6
CONTINUOUS
 10
70.3953625784
 20
77.3159505775
 11
70.402418456
 21
76.1415271564
  0
LINE
  8
SURFACE
 62
7
  6
CONTINUOUS
 10
70.0299005762
 20
154.6116816222
 11
70.0228446965
 21
155.7861052094
  0
LINE
  8
SURFACE
 62
7
  6
CONTINUOUS
 10
70.0348990086
 20
153.5735289788
 11
70.0299005762
 21
154.6116816222
  0
LINE
  8
0
 62
7
  6
CONTINUOUS
 10
70.3903641486
 20
78.3541027727
 11
70.3953625784
 21
77.3159505775
  0
LINE
  8
SURFACE
 62
7
  6
CONTINUOUS
 10
70.0348990086
 20
153.5735289788
 11
70.0782910777
 21
142.7033594903
  0
LINE
  8
0
 62
7
  6
CONTINUOUS
 10
70.3903641486
 20
78.3541027727
 11
70.3490171114
 21
88.7112576982
  0
LINE
  8
SURFACE
 62
7
  6
CONTINUOUS
 10
70.0840573534
 20
141.1180652227
 11
70.0782910767
 21
142.7033594384
  0
LINE
  8
0
 62
7
  6
CONTINUOUS
 10
70.3436264901
 20
90.1887542686
 11
70.3490171139
 21
88.7112578261
  0
LINE
  8
0
 62
7
  6
CONTINUOUS
 10
70.3390180613
 20
91.726315155
 11
70.3436264901
 21
90.1887542686
  0
POLYLINE
  8
SURFACE
 62
7
  6
CONTINUOUS
 66
1
 70
0
  0
VERTEX
  8
SURFACE
 62
7
  6
CONTINUOUS
 10
70.0910131232
 20
138.6380066503
  0
VERTEX
  8
SURFACE
 62
7
  6
CONTINUOUS
 10
70.0889538474
 20
139.4670694169
  0
VERTEX
  8
SURFACE
 62
7
  6
CONTINUOUS
 10
70.0840573534
 20
141.1180652227
  0
SEQEND
  0
LINE
  8
0
 62
7
  6
CONTINUOUS
 10
70.3353033985
 20
93.2900807015
 11
70.3390180613
 21
91.726315155
  0
POLYLINE
  8
SURFACE
 62
7
  6
CONTINUOUS
 66
1
 70
0
  0
VERTEX
  8
SURFACE
 62
7
  6
CONTINUOUS
 10
69.9423344542
 20
160.9262194552
  0
VERTEX
  8
SURFACE
 62
7
  6
CONTINUOUS
 10
69.9406662594
 20
160.9500396091
  0
VERTEX
  8
SURFACE
 62
7
  6
CONTINUOUS
 10
69.9388989462
 20
160.9734591713
  0
VERTEX
  8
SURFACE
 62
7
  6
CONTINUOUS
 10
69.9370005261
 20
160.9967358363
  0
VERTEX
  8
SURFACE
 62
7
  6
CONTINUOUS
 10
69.9349288021
 20
161.0201637735
  0
VERTEX
  8
SURFACE
 62
7
  6
CONTINUOUS
 10
69.9326278056
 20
161.0440807284
  0
VERTEX
  8
SURFACE
 62
7
  6
CONTINUOUS
 10
69.9300261743
 20
161.0688465945
  0
VERTEX
  8
SURFACE
 62
7
  6
CONTINUOUS
 10
69.9270304412
 20
161.0948661228
  0
VERTEX
  8
SURFACE
 62
7
  6
CONTINUOUS
 10
69.923517968
 20
161.1225945024
  0
VERTEX
  8
SURFACE
 62
7
  6
CONTINUOUS
 10
69.9193363467
 20
161.152483499
  0
VERTEX
  8
SURFACE
 62
7
  6
CONTINUOUS
 10
69.9143154339
 20
161.184867195
  0
VERTEX
  8
SURFACE
 62
7
  6
CONTINUOUS
 10
69.9082718951
 20
161.2199518238
  0
VERTEX
  8
SURFACE
 62
7
  6
CONTINUOUS
 10
69.9010746803
 20
161.257523186
  0
VERTEX
  8
SURFACE
 62
7
  6
CONTINUOUS
 10
69.8926866002
 20
161.2969505809
  0
VERTEX
  8
SURFACE
 62
7
  6
CONTINUOUS
 10
69.8829952196
 20
161.3380837176
  0
VERTEX
  8
SURFACE
 62
7
  6
CONTINUOUS
 10
69.8714646597
 20
161.3823376624
  0
VERTEX
  8
SURFACE
 62
7
  6
CONTINUOUS
 10
69.8571933981
 20
161.4317645544
  0
VERTEX
  8
SURFACE
 62
7
  6
CONTINUOUS
 10
69.8391137179
 20
161.4879909888
  0
VERTEX
  8
SURFACE
 62
7
  6
CONTINUOUS
 10
69.8166018635
 20
161.5505523106
  0
VERTEX
  8
SURFACE
 62
7
  6
CONTINUOUS
 10
69.7892971267
 20
161.6181928848
  0
VERTEX
  8
SURFACE
 62
7
  6
CONTINUOUS
 10
69.7568356477
 20
161.6898415678
  0
VERTEX
  8
SURFACE
 62
7
  6
CONTINUOUS
 10
69.7185407839
 20
161.765153615
  0
VERTEX
  8
SURFACE
 62
7
  6
CONTINUOUS
 10
69.6736889417
 20
161.843714924
  0
VERTEX
  8
SURFACE
 62
7
  6
CONTINUOUS
 10
69.6215645147
 20
161.9249477526
  0
VERTEX
  8
SURFACE
 62
7
  6
CONTINUOUS
 10
69.5614812988
 20
162.0081130011
  0
VERTEX
  8
SURFACE
 62
7
  6
CONTINUOUS
 10
69.4926629142
 20
162.0924797824
  0
VERTEX
  8
SURFACE
 62
7
  6
CONTINUOUS
 10
69.4140106728
 20
162.1774942613
  0
VERTEX
  8
SURFACE
 62
7
  6
CONTINUOUS
 10
69.3245231776
 20
162.2621988917
  0
VERTEX
  8
SURFACE
 62
7
  6
CONTINUOUS
 10
69.2247267388
 20
162.3442156455
  0
VERTEX
  8
SURFACE
 62
7
  6
CONTINUOUS
 10
69.1162307673
 20
162.4208878338
  0
VERTEX
  8
SURFACE
 62
7
  6
CONTINUOUS
 10
69.0011608595
 20
162.4900295109
  0
VERTEX
  8
SURFACE
 62
7
  6
CONTINUOUS
 10
68.8814892731
 20
162.5503061793
  0
VERTEX
  8
SURFACE
 62
7
  6
CONTINUOUS
 10
68.7579803883
 20
162.6014045645
  0
VERTEX
  8
SURFACE
 62
7
  6
CONTINUOUS
 10
68.6311994158
 20
162.6431523428
  0
VERTEX
  8
SURFACE
 62
7
  6
CONTINUOUS
 10
68.501707302
 20
162.6753897065
  0
VERTEX
  8
SURFACE
 62
7
  6
CONTINUOUS
 10
68.3700620568
 20
162.6979671403
  0
VERTEX
  8
SURFACE
 62
7
  6
CONTINUOUS
 10
68.2368258337
 20
162.710742588
  0
VERTEX
  8
SURFACE
 62
7
  6
CONTINUOUS
 10
68.1316598307
 20
162.7138156781
  0
SEQEND
  0
LINE
  8
SURFACE
 62
7
  6
CONTINUOUS
 10
69.9454635523
 20
160.8765246469
 11
69.9423344542
 21
160.9262194552
  0
LINE
  8
SURFACE
 62
7
  6
CONTINUOUS
 10
69.9484158294
 20
160.8229496812
 11
69.9454635523
 21
160.8765246469
  0
LINE
  8
SURFACE
 62
7
  6
CONTINUOUS
 10
69.9512658578
 20
160.764424119
 11
69.9484158294
 21
160.8229496812
  0
LINE
  8
SURFACE
 62
7
  6
CONTINUOUS
 10
69.9540582262
 20
160.7001030167
 11
69.9512658578
 21
160.764424119
  0
LINE
  8
SURFACE
 62
7
  6
CONTINUOUS
 10
69.9568272273
 20
160.6291009943
 11
69.9540582262
 21
160.7001030167
  0
LINE
  8
SURFACE
 62
7
  6
CONTINUOUS
 10
87.1599719339
 20
159.9494317068
 11
87.149957656
 21
159.4099797617
  0
LINE
  8
SURFACE
 62
7
  6
CONTINUOUS
 10
87.1669179932
 20
160.2497319215
 11
87.1599719339
 21
159.9494317068
  0
LINE
  8
SURFACE
 62
7
  6
CONTINUOUS
 10
87.1724973534
 20
160.4510675672
 11
87.1669179932
 21
160.2497319215
  0
POLYLINE
  8
SURFACE
 62
7
  6
CONTINUOUS
 66
1
 70
0
  0
VERTEX
  8
SURFACE
 62
7
  6
CONTINUOUS
 10
87.0524192033
 20
138.6352561418
  0
VERTEX
  8
SURFACE
 62
7
  6
CONTINUOUS
 10
87.0483607302
 20
138.5157765188
  0
VERTEX
  8
SURFACE
 62
7
  6
CONTINUOUS
 10
87.034938428
 20
138.3862160062
  0
VERTEX
  8
SURFACE
 62
7
  6
CONTINUOUS
 10
87.0121769465
 20
138.2578548813
  0
VERTEX
  8
SURFACE
 62
7
  6
CONTINUOUS
 10
86.9801581301
 20
138.1313218251
  0
VERTEX
  8
SURFACE
 62
7
  6
CONTINUOUS
 10
86.9389989216
 20
138.0072427553
  0
VERTEX
  8
SURFACE
 62
7
  6
CONTINUOUS
 10
86.888870743
 20
137.8862816889
  0
VERTEX
  8
SURFACE
 62
7
  6
CONTINUOUS
 10
86.8300143772
 20
137.7691306161
  0
VERTEX
  8
SURFACE
 62
7
  6
CONTINUOUS
 10
86.7627313402
 20
137.6564635982
  0
VERTEX
  8
SURFACE
 62
7
  6
CONTINUOUS
 10
86.69452297
 20
137.5584346776
  0
SEQEND
  0
LINE
  8
SURFACE
 62
7
  6
CONTINUOUS
 10
87.1769266402
 20
160.5872515576
 11
87.1724973534
 21
160.4510675672
  0
LINE
  8
SURFACE
 62
7
  6
CONTINUOUS
 10
87.1802648884
 20
160.6768224628
 11
87.1769266402
 21
160.5872515576
  0
LINE
  8
SURFACE
 62
7
  6
CONTINUOUS
 10
87.1836530039
 20
160.7568756812
 11
87.1802648884
 21
160.6768224628
  0
LINE
  8
SURFACE
 62
7
  6
CONTINUOUS
 10
87.185969072
 20
160.8056534372
 11
87.1836530039
 21
160.7568756812
  0
LINE
  8
SURFACE
 62
7
  6
CONTINUOUS
 10
87.1883661837
 20
160.8513695103
 11
87.185969072
 21
160.8056534372
  0
LINE
  8
SURFACE
 62
7
  6
CONTINUOUS
 10
87.190892793
 20
160.8946721348
 11
87.1883661837
 21
160.8513695103
  0
POLYLINE
  8
SURFACE
 62
7
  6
CONTINUOUS
 66
1
 70
0
  0
VERTEX
  8
SURFACE
 62
7
  6
CONTINUOUS
 10
86.6945229749
 20
137.5584346853
  0
VERTEX
  8
SURFACE
 62
7
  6
CONTINUOUS
 10
86.6206401132
 20
137.4659267168
  0
VERTEX
  8
SURFACE
 62
7
  6
CONTINUOUS
 10
86.5327051641
 20
137.3701825233
  0
VERTEX
  8
SURFACE
 62
7
  6
CONTINUOUS
 10
86.4379408776
 20
137.2808952659
  0
VERTEX
  8
SURFACE
 62
7
  6
CONTINUOUS
 10
86.3368254151
 20
137.1985696209
  0
VERTEX
  8
SURFACE
 62
7
  6
CONTINUOUS
 10
86.2298718073
 20
137.123670978
  0
VERTEX
  8
SURFACE
 62
7
  6
CONTINUOUS
 10
86.1176259885
 20
137.0566249357
  0
VERTEX
  8
SURFACE
 62
7
  6
CONTINUOUS
 10
86.0006656836
 20
136.9978165364
  0
VERTEX
  8
SURFACE
 62
7
  6
CONTINUOUS
 10
85.8796073142
 20
136.9475915987
  0
VERTEX
  8
SURFACE
 62
7
  6
CONTINUOUS
 10
85.7551046867
 20
136.9062511729
  0
VERTEX
  8
SURFACE
 62
7
  6
CONTINUOUS
 10
85.6278354355
 20
136.8740431988
  0
VERTEX
  8
SURFACE
 62
7
  6
CONTINUOUS
 10
85.4984975333
 20
136.8511607654
  0
VERTEX
  8
SURFACE
 62
7
  6
CONTINUOUS
 10
85.3677941492
 20
136.837739102
  0
VERTEX
  8
SURFACE
 62
7
  6
CONTINUOUS
 10
85.2832275036
 20
136.8341436243
  0
SEQEND
  0
LINE
  8
SURFACE
 62
7
  6
CONTINUOUS
 10
87.0542249398
 20
140.2357568524
 11
87.0524192419
 21
138.6352561053
  0
LINE
  8
0
 62
7
  6
CONTINUOUS
 10
86.7924993281
 20
91.640851598
 11
86.7948924004
 21
93.2918063638
  0
LINE
  8
SURFACE
 62
7
  6
CONTINUOUS
 10
87.057084358
 20
141.8253194747
 11
87.0542249398
 21
140.2357568524
  0
LINE
  8
0
 62
7
  6
CONTINUOUS
 10
86.7890190134
 20
90.0096788871
 11
86.7924993281
 21
91.640851598
  0
LINE
  8
SURFACE
 62
7
  6
CONTINUOUS
 10
87.0609621782
 20
143.3796754628
 11
87.057084358
 21
141.8253194747
  0
LINE
  8
0
 62
7
  6
CONTINUOUS
 10
86.7844953056
 20
88.4211852218
 11
86.7890190134
 21
90.0096788871
  0
LINE
  8
SURFACE
 62
7
  6
CONTINUOUS
 10
87.0658296614
 20
144.8901694311
 11
87.0609621782
 21
143.3796754628
  0
LINE
  8
0
 62
7
  6
CONTINUOUS
 10
86.7790179134
 20
86.8980163509
 11
86.7844953056
 21
88.4211852218
  0
LINE
  8
SURFACE
 62
7
  6
CONTINUOUS
 10
87.0658296614
 20
144.8901694311
 11
87.0988366732
 21
153.2054674307
  0
LINE
  8
0
 62
7
  6
CONTINUOUS
 10
86.7400970189
 20
77.3528827021
 11
86.7790179153
 21
86.8980162617
  0
LINE
  8
SURFACE
 62
7
  6
CONTINUOUS
 10
87.1065076468
 20
154.8217287527
 11
87.0988366733
 21
153.205467429
  0
LINE
  8
0
 62
7
  6
CONTINUOUS
 10
86.7304547917
 20
75.79828856
 11
86.7400970189
 21
77.3528827021
  0
LINE
  8
SURFACE
 62
7
  6
CONTINUOUS
 10
87.1162318535
 20
156.3231588521
 11
87.1065076468
 21
154.8217287527
  0
LINE
  8
0
 62
7
  6
CONTINUOUS
 10
86.7190318352
 20
74.425833252
 11
86.7304547917
 21
75.79828856
  0
LINE
  8
SURFACE
 62
7
  6
CONTINUOUS
 10
87.1276761374
 20
157.6496764408
 11
87.1162318535
 21
156.3231588521
  0
LINE
  8
0
 62
7
  6
CONTINUOUS
 10
86.7062656234
 20
73.2736286841
 11
86.7190318352
 21
74.425833252
  0
LINE
  8
SURFACE
 62
7
  6
CONTINUOUS
 10
87.1404099915
 20
158.7622844008
 11
87.1276761374
 21
157.6496764408
  0
LINE
  8
SURFACE
 62
7
  6
CONTINUOUS
 10
87.149957656
 20
159.4099797617
 11
87.1404099915
 21
158.7622844008
  0
LINE
  8
0
 62
7
  6
CONTINUOUS
 10
86.6927153661
 20
72.3652656281
 11
86.7062656234
 21
73.2736286841
  0
LINE
  8
0
 62
7
  6
CONTINUOUS
 10
86.682953397
 20
71.8707287283
 11
86.6927153661
 21
72.3652656281
  0
LINE
  8
0
 62
7
  6
CONTINUOUS
 10
86.6761216574
 20
71.5935569479
 11
86.682953397
 21
71.8707287283
  0
LINE
  8
0
 62
7
  6
CONTINUOUS
 10
86.6705759229
 20
71.406699419
 11
86.6761216574
 21
71.5935569479
  0
POLYLINE
  8
0
 62
7
  6
CONTINUOUS
 66
1
 70
0
  0
VERTEX
  8
0
 62
7
  6
CONTINUOUS
 10
86.794892474
 20
93.2918062854
  0
VERTEX
  8
0
 62
7
  6
CONTINUOUS
 10
86.7986443584
 20
93.4061960436
  0
VERTEX
  8
0
 62
7
  6
CONTINUOUS
 10
86.8108956882
 20
93.5297816265
  0
VERTEX
  8
0
 62
7
  6
CONTINUOUS
 10
86.8314016928
 20
93.6512601873
  0
VERTEX
  8
0
 62
7
  6
CONTINUOUS
 10
86.8599467119
 20
93.7703959596
  0
VERTEX
  8
0
 62
7
  6
CONTINUOUS
 10
86.8963551286
 20
93.8869371551
  0
VERTEX
  8
0
 62
7
  6
CONTINUOUS
 10
86.9404941362
 20
94.0006382061
  0
VERTEX
  8
0
 62
7
  6
CONTINUOUS
 10
86.9922643631
 20
94.1112324541
  0
VERTEX
  8
0
 62
7
  6
CONTINUOUS
 10
87.051574796
 20
94.2183949116
  0
VERTEX
  8
0
 62
7
  6
CONTINUOUS
 10
87.1183477276
 20
94.3217750662
  0
VERTEX
  8
0
 62
7
  6
CONTINUOUS
 10
87.1925172324
 20
94.4209974596
  0
VERTEX
  8
0
 62
7
  6
CONTINUOUS
 10
87.274049008
 20
94.5156827873
  0
VERTEX
  8
0
 62
7
  6
CONTINUOUS
 10
87.3554410099
 20
94.598330202
  0
SEQEND
  0
LINE
  8
0
 62
7
  6
CONTINUOUS
 10
86.6661394948
 20
71.2802058565
 11
86.6705759229
 21
71.406699419
  0
LINE
  8
0
 62
7
  6
CONTINUOUS
 10
86.6627737023
 20
71.1970545945
 11
86.6661394948
 21
71.2802058565
  0
LINE
  8
0
 62
7
  6
CONTINUOUS
 10
86.6593202099
 20
71.1225025356
 11
86.6627737023
 21
71.1970545945
  0
LINE
  8
0
 62
7
  6
CONTINUOUS
 10
86.6569237437
 20
71.0767469784
 11
86.6593202099
 21
71.1225025356
  0
LINE
  8
0
 62
7
  6
CONTINUOUS
 10
86.6543980586
 20
71.0334084491
 11
86.6569237437
 21
71.0767469784
  0
POLYLINE
  8
0
 62
7
  6
CONTINUOUS
 66
1
 70
0
  0
VERTEX
  8
0
 62
7
  6
CONTINUOUS
 10
218.5216598294
 20
69.2138159009
  0
VERTEX
  8
0
 62
7
  6
CONTINUOUS
 10
218.6264384647
 20
69.2168663746
  0
VERTEX
  8
0
 62
7
  6
CONTINUOUS
 10
218.7610537185
 20
69.2297971517
  0
VERTEX
  8
0
 62
7
  6
CONTINUOUS
 10
218.8945972404
 20
69.2528510716
  0
VERTEX
  8
0
 62
7
  6
CONTINUOUS
 10
219.0252898324
 20
69.2856653275
  0
VERTEX
  8
0
 62
7
  6
CONTINUOUS
 10
219.1514535237
 20
69.3275192562
  0
VERTEX
  8
0
 62
7
  6
CONTINUOUS
 10
219.2715663448
 20
69.3773606916
  0
VERTEX
  8
0
 62
7
  6
CONTINUOUS
 10
219.3843132387
 20
69.433846757
  0
VERTEX
  8
0
 62
7
  6
CONTINUOUS
 10
219.4887093244
 20
69.495450247
  0
VERTEX
  8
0
 62
7
  6
CONTINUOUS
 10
219.5847365387
 20
69.5610084113
  0
VERTEX
  8
0
 62
7
  6
CONTINUOUS
 10
219.6728401628
 20
69.629711185
  0
VERTEX
  8
0
 62
7
  6
CONTINUOUS
 10
219.7534957496
 20
69.70090257
  0
VERTEX
  8
0
 62
7
  6
CONTINUOUS
 10
219.8271773348
 20
69.774055832
  0
VERTEX
  8
0
 62
7
  6
CONTINUOUS
 10
219.8942115531
 20
69.8486010638
  0
VERTEX
  8
0
 62
7
  6
CONTINUOUS
 10
219.9548142437
 20
69.9238797713
  0
VERTEX
  8
0
 62
7
  6
CONTINUOUS
 10
220.0092439251
 20
69.999279852
  0
VERTEX
  8
0
 62
7
  6
CONTINUOUS
 10
220.0578078935
 20
70.0742575462
  0
VERTEX
  8
0
 62
7
  6
CONTINUOUS
 10
220.1007962092
 20
70.1482416654
  0
VERTEX
  8
0
 62
7
  6
CONTINUOUS
 10
220.1384791781
 20
70.2205945901
  0
VERTEX
  8
0
 62
7
  6
CONTINUOUS
 10
220.1711899696
 20
70.2907518645
  0
VERTEX
  8
0
 62
7
  6
CONTINUOUS
 10
220.1992823924
 20
70.3581630166
  0
VERTEX
  8
0
 62
7
  6
CONTINUOUS
 10
220.2229936695
 20
70.4219088304
  0
VERTEX
  8
0
 62
7
  6
CONTINUOUS
 10
220.2425422215
 20
70.4807947201
  0
VERTEX
  8
0
 62
7
  6
CONTINUOUS
 10
220.2583252508
 20
70.5339659576
  0
VERTEX
  8
0
 62
7
  6
CONTINUOUS
 10
220.2709363685
 20
70.5813097454
  0
VERTEX
  8
0
 62
7
  6
CONTINUOUS
 10
220.2811577018
 20
70.6239084477
  0
VERTEX
  8
0
 62
7
  6
CONTINUOUS
 10
220.289602161
 20
70.6628822187
  0
VERTEX
  8
0
 62
7
  6
CONTINUOUS
 10
220.2966960211
 20
70.6991032031
  0
VERTEX
  8
0
 62
7
  6
CONTINUOUS
 10
220.3026582393
 20
70.7327656034
  0
VERTEX
  8
0
 62
7
  6
CONTINUOUS
 10
220.3076424396
 20
70.7638406019
  0
VERTEX
  8
0
 62
7
  6
CONTINUOUS
 10
220.3118097617
 20
70.7924598132
  0
VERTEX
  8
0
 62
7
  6
CONTINUOUS
 10
220.3153096098
 20
70.8188434787
  0
VERTEX
  8
0
 62
7
  6
CONTINUOUS
 10
220.3182828823
 20
70.8433495481
  0
VERTEX
  8
0
 62
7
  6
CONTINUOUS
 10
220.3208516112
 20
70.8664048344
  0
VERTEX
  8
0
 62
7
  6
CONTINUOUS
 10
220.3231079199
 20
70.8883740925
  0
VERTEX
  8
0
 62
7
  6
CONTINUOUS
 10
220.3251216411
 20
70.9095684922
  0
VERTEX
  8
0
 62
7
  6
CONTINUOUS
 10
220.326946074
 20
70.9302547202
  0
VERTEX
  8
0
 62
7
  6
CONTINUOUS
 10
220.328622007
 20
70.9506604482
  0
VERTEX
  8
0
 62
7
  6
CONTINUOUS
 10
220.3301808531
 20
70.9709807832
  0
VERTEX
  8
0
 62
7
  6
CONTINUOUS
 10
220.3316468083
 20
70.9913815313
  0
VERTEX
  8
0
 62
7
  6
CONTINUOUS
 10
220.3343703649
 20
71.0329594442
  0
SEQEND
  0
POLYLINE
  8
0
 62
7
  6
CONTINUOUS
 66
1
 70
0
  0
VERTEX
  8
0
 62
7
  6
CONTINUOUS
 10
185.1016598294
 20
69.2138159009
  0
VERTEX
  8
0
 62
7
  6
CONTINUOUS
 10
185.2064384647
 20
69.2168663746
  0
VERTEX
  8
0
 62
7
  6
CONTINUOUS
 10
185.3410537185
 20
69.2297971517
  0
VERTEX
  8
0
 62
7
  6
CONTINUOUS
 10
185.4745972404
 20
69.2528510716
  0
VERTEX
  8
0
 62
7
  6
CONTINUOUS
 10
185.6052898324
 20
69.2856653275
  0
VERTEX
  8
0
 62
7
  6
CONTINUOUS
 10
185.7314535237
 20
69.3275192562
  0
VERTEX
  8
0
 62
7
  6
CONTINUOUS
 10
185.8515663448
 20
69.3773606916
  0
VERTEX
  8
0
 62
7
  6
CONTINUOUS
 10
185.9643132387
 20
69.433846757
  0
VERTEX
  8
0
 62
7
  6
CONTINUOUS
 10
186.0687093244
 20
69.495450247
  0
VERTEX
  8
0
 62
7
  6
CONTINUOUS
 10
186.1647365387
 20
69.5610084113
  0
VERTEX
  8
0
 62
7
  6
CONTINUOUS
 10
186.2528401628
 20
69.629711185
  0
VERTEX
  8
0
 62
7
  6
CONTINUOUS
 10
186.3334957496
 20
69.70090257
  0
VERTEX
  8
0
 62
7
  6
CONTINUOUS
 10
186.4071773348
 20
69.774055832
  0
VERTEX
  8
0
 62
7
  6
CONTINUOUS
 10
186.4742115531
 20
69.8486010638
  0
VERTEX
  8
0
 62
7
  6
CONTINUOUS
 10
186.5348142437
 20
69.9238797713
  0
VERTEX
  8
0
 62
7
  6
CONTINUOUS
 10
186.5892439251
 20
69.999279852
  0
VERTEX
  8
0
 62
7
  6
CONTINUOUS
 10
186.6378078935
 20
70.0742575462
  0
VERTEX
  8
0
 62
7
  6
CONTINUOUS
 10
186.6807962092
 20
70.1482416654
  0
VERTEX
  8
0
 62
7
  6
CONTINUOUS
 10
186.7184791781
 20
70.2205945901
  0
VERTEX
  8
0
 62
7
  6
CONTINUOUS
 10
186.7511899696
 20
70.2907518645
  0
VERTEX
  8
0
 62
7
  6
CONTINUOUS
 10
186.7792823924
 20
70.3581630166
  0
VERTEX
  8
0
 62
7
  6
CONTINUOUS
 10
186.8029936695
 20
70.4219088304
  0
VERTEX
  8
0
 62
7
  6
CONTINUOUS
 10
186.8225422215
 20
70.4807947201
  0
VERTEX
  8
0
 62
7
  6
CONTINUOUS
 10
186.8383252508
 20
70.5339659576
  0
VERTEX
  8
0
 62
7
  6
CONTINUOUS
 10
186.8509363685
 20
70.5813097454
  0
VERTEX
  8
0
 62
7
  6
CONTINUOUS
 10
186.8611577018
 20
70.6239084477
  0
VERTEX
  8
0
 62
7
  6
CONTINUOUS
 10
186.869602161
 20
70.6628822187
  0
VERTEX
  8
0
 62
7
  6
CONTINUOUS
 10
186.8766960211
 20
70.6991032031
  0
VERTEX
  8
0
 62
7
  6
CONTINUOUS
 10
186.8826582393
 20
70.7327656034
  0
VERTEX
  8
0
 62
7
  6
CONTINUOUS
 10
186.8876424396
 20
70.7638406019
  0
VERTEX
  8
0
 62
7
  6
CONTINUOUS
 10
186.8918097617
 20
70.7924598132
  0
VERTEX
  8
0
 62
7
  6
CONTINUOUS
 10
186.8953096098
 20
70.8188434787
  0
VERTEX
  8
0
 62
7
  6
CONTINUOUS
 10
186.8982828823
 20
70.8433495481
  0
VERTEX
  8
0
 62
7
  6
CONTINUOUS
 10
186.9008516112
 20
70.8664048344
  0
VERTEX
  8
0
 62
7
  6
CONTINUOUS
 10
186.9031079199
 20
70.8883740925
  0
VERTEX
  8
0
 62
7
  6
CONTINUOUS
 10
186.9051216411
 20
70.9095684922
  0
VERTEX
  8
0
 62
7
  6
CONTINUOUS
 10
186.906946074
 20
70.9302547202
  0
VERTEX
  8
0
 62
7
  6
CONTINUOUS
 10
186.908622007
 20
70.9506604482
  0
VERTEX
  8
0
 62
7
  6
CONTINUOUS
 10
186.9101808531
 20
70.9709807832
  0
VERTEX
  8
0
 62
7
  6
CONTINUOUS
 10
186.9116468083
 20
70.9913815313
  0
VERTEX
  8
0
 62
7
  6
CONTINUOUS
 10
186.9143703649
 20
71.0329594442
  0
SEQEND
  0
POLYLINE
  8
0
 62
7
  6
CONTINUOUS
 66
1
 70
0
  0
VERTEX
  8
0
 62
7
  6
CONTINUOUS
 10
151.6816598294
 20
69.2138159009
  0
VERTEX
  8
0
 62
7
  6
CONTINUOUS
 10
151.7864384647
 20
69.2168663746
  0
VERTEX
  8
0
 62
7
  6
CONTINUOUS
 10
151.9210537185
 20
69.2297971517
  0
VERTEX
  8
0
 62
7
  6
CONTINUOUS
 10
152.0545972404
 20
69.2528510716
  0
VERTEX
  8
0
 62
7
  6
CONTINUOUS
 10
152.1852898324
 20
69.2856653275
  0
VERTEX
  8
0
 62
7
  6
CONTINUOUS
 10
152.3114535237
 20
69.3275192562
  0
VERTEX
  8
0
 62
7
  6
CONTINUOUS
 10
152.4315663448
 20
69.3773606916
  0
VERTEX
  8
0
 62
7
  6
CONTINUOUS
 10
152.5443132387
 20
69.433846757
  0
VERTEX
  8
0
 62
7
  6
CONTINUOUS
 10
152.6487093244
 20
69.495450247
  0
VERTEX
  8
0
 62
7
  6
CONTINUOUS
 10
152.7447365387
 20
69.5610084113
  0
VERTEX
  8
0
 62
7
  6
CONTINUOUS
 10
152.8328401628
 20
69.629711185
  0
VERTEX
  8
0
 62
7
  6
CONTINUOUS
 10
152.9134957496
 20
69.70090257
  0
VERTEX
  8
0
 62
7
  6
CONTINUOUS
 10
152.9871773348
 20
69.774055832
  0
VERTEX
  8
0
 62
7
  6
CONTINUOUS
 10
153.0542115531
 20
69.8486010638
  0
VERTEX
  8
0
 62
7
  6
CONTINUOUS
 10
153.1148142437
 20
69.9238797713
  0
VERTEX
  8
0
 62
7
  6
CONTINUOUS
 10
153.1692439251
 20
69.999279852
  0
VERTEX
  8
0
 62
7
  6
CONTINUOUS
 10
153.2178078935
 20
70.0742575462
  0
VERTEX
  8
0
 62
7
  6
CONTINUOUS
 10
153.2607962092
 20
70.1482416654
  0
VERTEX
  8
0
 62
7
  6
CONTINUOUS
 10
153.2984791781
 20
70.2205945901
  0
VERTEX
  8
0
 62
7
  6
CONTINUOUS
 10
153.3311899696
 20
70.2907518645
  0
VERTEX
  8
0
 62
7
  6
CONTINUOUS
 10
153.3592823924
 20
70.3581630166
  0
VERTEX
  8
0
 62
7
  6
CONTINUOUS
 10
153.3829936695
 20
70.4219088304
  0
VERTEX
  8
0
 62
7
  6
CONTINUOUS
 10
153.4025422215
 20
70.4807947201
  0
VERTEX
  8
0
 62
7
  6
CONTINUOUS
 10
153.4183252508
 20
70.5339659576
  0
VERTEX
  8
0
 62
7
  6
CONTINUOUS
 10
153.4309363685
 20
70.5813097454
  0
VERTEX
  8
0
 62
7
  6
CONTINUOUS
 10
153.4411577018
 20
70.6239084477
  0
VERTEX
  8
0
 62
7
  6
CONTINUOUS
 10
153.449602161
 20
70.6628822187
  0
VERTEX
  8
0
 62
7
  6
CONTINUOUS
 10
153.4566960211
 20
70.6991032031
  0
VERTEX
  8
0
 62
7
  6
CONTINUOUS
 10
153.4626582393
 20
70.7327656034
  0
VERTEX
  8
0
 62
7
  6
CONTINUOUS
 10
153.4676424396
 20
70.7638406019
  0
VERTEX
  8
0
 62
7
  6
CONTINUOUS
 10
153.4718097617
 20
70.7924598132
  0
VERTEX
  8
0
 62
7
  6
CONTINUOUS
 10
153.4753096098
 20
70.8188434787
  0
VERTEX
  8
0
 62
7
  6
CONTINUOUS
 10
153.4782828823
 20
70.8433495481
  0
VERTEX
  8
0
 62
7
  6
CONTINUOUS
 10
153.4808516112
 20
70.8664048344
  0
VERTEX
  8
0
 62
7
  6
CONTINUOUS
 10
153.4831079199
 20
70.8883740925
  0
VERTEX
  8
0
 62
7
  6
CONTINUOUS
 10
153.4851216411
 20
70.9095684922
  0
VERTEX
  8
0
 62
7
  6
CONTINUOUS
 10
153.486946074
 20
70.9302547202
  0
VERTEX
  8
0
 62
7
  6
CONTINUOUS
 10
153.488622007
 20
70.9506604482
  0
VERTEX
  8
0
 62
7
  6
CONTINUOUS
 10
153.4901808531
 20
70.9709807832
  0
VERTEX
  8
0
 62
7
  6
CONTINUOUS
 10
153.4916468083
 20
70.9913815313
  0
VERTEX
  8
0
 62
7
  6
CONTINUOUS
 10
153.4943703649
 20
71.0329594442
  0
SEQEND
  0
POLYLINE
  8
0
 62
7
  6
CONTINUOUS
 66
1
 70
0
  0
VERTEX
  8
0
 62
7
  6
CONTINUOUS
 10
118.2616598344
 20
69.2138159047
  0
VERTEX
  8
0
 62
7
  6
CONTINUOUS
 10
118.3664391118
 20
69.216866416
  0
VERTEX
  8
0
 62
7
  6
CONTINUOUS
 10
118.501054982
 20
69.2297973246
  0
VERTEX
  8
0
 62
7
  6
CONTINUOUS
 10
118.6345990735
 20
69.2528514628
  0
VERTEX
  8
0
 62
7
  6
CONTINUOUS
 10
118.7652921711
 20
69.2856660115
  0
VERTEX
  8
0
 62
7
  6
CONTINUOUS
 10
118.8914562896
 20
69.3275202911
  0
VERTEX
  8
0
 62
7
  6
CONTINUOUS
 10
119.0115694486
 20
69.3773621152
  0
VERTEX
  8
0
 62
7
  6
CONTINUOUS
 10
119.1243165847
 20
69.4338485844
  0
VERTEX
  8
0
 62
7
  6
CONTINUOUS
 10
119.2287128263
 20
69.495452477
  0
VERTEX
  8
0
 62
7
  6
CONTINUOUS
 10
119.3247401423
 20
69.5610110468
  0
VERTEX
  8
0
 62
7
  6
CONTINUOUS
 10
119.4128438215
 20
69.6297142256
  0
VERTEX
  8
0
 62
7
  6
CONTINUOUS
 10
119.4934994232
 20
69.700906013
  0
VERTEX
  8
0
 62
7
  6
CONTINUOUS
 10
119.5671809865
 20
69.7740596721
  0
VERTEX
  8
0
 62
7
  6
CONTINUOUS
 10
119.634215138
 20
69.8486052795
  0
VERTEX
  8
0
 62
7
  6
CONTINUOUS
 10
119.6948177192
 20
69.9238843319
  0
VERTEX
  8
0
 62
7
  6
CONTINUOUS
 10
119.7492472529
 20
69.9992847193
  0
VERTEX
  8
0
 62
7
  6
CONTINUOUS
 10
119.7978110425
 20
70.0742626792
  0
VERTEX
  8
0
 62
7
  6
CONTINUOUS
 10
119.8407991516
 20
70.1482470135
  0
VERTEX
  8
0
 62
7
  6
CONTINUOUS
 10
119.8784819006
 20
70.2206001141
  0
VERTEX
  8
0
 62
7
  6
CONTINUOUS
 10
119.9111924703
 20
70.2907575369
  0
VERTEX
  8
0
 62
7
  6
CONTINUOUS
 10
119.9392846729
 20
70.3581688101
  0
VERTEX
  8
0
 62
7
  6
CONTINUOUS
 10
119.9629957102
 20
70.4219146422
  0
VERTEX
  8
0
 62
7
  6
CONTINUOUS
 10
119.982544001
 20
70.480800398
  0
VERTEX
  8
0
 62
7
  6
CONTINUOUS
 10
119.9983267471
 20
70.5339712912
  0
VERTEX
  8
0
 62
7
  6
CONTINUOUS
 10
120.0109375223
 20
70.5813143209
  0
VERTEX
  8
0
 62
7
  6
CONTINUOUS
 10
120.0211585943
 20
70.6239123719
  0
VERTEX
  8
0
 62
7
  6
CONTINUOUS
 10
120.0296028652
 20
70.6628856446
  0
VERTEX
  8
0
 62
7
  6
CONTINUOUS
 10
120.0366965884
 20
70.6991062554
  0
VERTEX
  8
0
 62
7
  6
CONTINUOUS
 10
120.042658703
 20
70.7327683588
  0
VERTEX
  8
0
 62
7
  6
CONTINUOUS
 10
120.0476428263
 20
70.7638431344
  0
VERTEX
  8
0
 62
7
  6
CONTINUOUS
 10
120.0518100918
 20
70.7924621883
  0
VERTEX
  8
0
 62
7
  6
CONTINUOUS
 10
120.0553098983
 20
70.818845753
  0
VERTEX
  8
0
 62
7
  6
CONTINUOUS
 10
120.0582831414
 20
70.84335178
  0
VERTEX
  8
0
 62
7
  6
CONTINUOUS
 10
120.0608518204
 20
70.8664067963
  0
VERTEX
  8
0
 62
7
  6
CONTINUOUS
 10
120.0631080954
 20
70.8883758746
  0
VERTEX
  8
0
 62
7
  6
CONTINUOUS
 10
120.0651217942
 20
70.9095701667
  0
VERTEX
  8
0
 62
7
  6
CONTINUOUS
 10
120.0669462121
 20
70.930256343
  0
VERTEX
  8
0
 62
7
  6
CONTINUOUS
 10
120.0686221355
 20
70.9506620636
  0
VERTEX
  8
0
 62
7
  6
CONTINUOUS
 10
120.0701809752
 20
70.9709824266
  0
VERTEX
  8
0
 62
7
  6
CONTINUOUS
 10
120.0716469196
 20
70.9913831335
  0
VERTEX
  8
0
 62
7
  6
CONTINUOUS
 10
120.0743704593
 20
71.0329609743
  0
SEQEND
  0
POLYLINE
  8
0
 62
7
  6
CONTINUOUS
 66
1
 70
0
  0
VERTEX
  8
0
 62
7
  6
CONTINUOUS
 10
51.2715551488
 20
69.2138157895
  0
VERTEX
  8
0
 62
7
  6
CONTINUOUS
 10
51.376245644
 20
69.2168611309
  0
VERTEX
  8
0
 62
7
  6
CONTINUOUS
 10
51.5107708657
 20
69.2297731521
  0
VERTEX
  8
0
 62
7
  6
CONTINUOUS
 10
51.6442177295
 20
69.2527927982
  0
VERTEX
  8
0
 62
7
  6
CONTINUOUS
 10
51.7748138857
 20
69.2855570917
  0
VERTEX
  8
0
 62
7
  6
CONTINUOUS
 10
51.9008878804
 20
69.3273470997
  0
VERTEX
  8
0
 62
7
  6
CONTINUOUS
 10
52.0209235491
 20
69.3771141533
  0
VERTEX
  8
0
 62
7
  6
CONTINUOUS
 10
52.1336106283
 20
69.4335204008
  0
VERTEX
  8
0
 62
7
  6
CONTINUOUS
 10
52.2379654714
 20
69.4950433265
  0
VERTEX
  8
0
 62
7
  6
CONTINUOUS
 10
52.3339645982
 20
69.5605203866
  0
VERTEX
  8
0
 62
7
  6
CONTINUOUS
 10
52.4220509798
 20
69.6291421864
  0
VERTEX
  8
0
 62
7
  6
CONTINUOUS
 10
52.5026982487
 20
69.7002529378
  0
VERTEX
  8
0
 62
7
  6
CONTINUOUS
 10
52.5763791539
 20
69.7733260659
  0
VERTEX
  8
0
 62
7
  6
CONTINUOUS
 10
52.6434216625
 20
69.8477945854
  0
VERTEX
  8
0
 62
7
  6
CONTINUOUS
 10
52.7040414015
 20
69.9230020354
  0
VERTEX
  8
0
 62
7
  6
CONTINUOUS
 10
52.7584961895
 20
69.9983380007
  0
VERTEX
  8
0
 62
7
  6
CONTINUOUS
 10
52.8070920426
 20
70.0732596154
  0
VERTEX
  8
0
 62
7
  6
CONTINUOUS
 10
52.8501184482
 20
70.1471978122
  0
VERTEX
  8
0
 62
7
  6
CONTINUOUS
 10
52.8878430011
 20
70.2195133801
  0
VERTEX
  8
0
 62
7
  6
CONTINUOUS
 10
52.9205967251
 20
70.289640105
  0
VERTEX
  8
0
 62
7
  6
CONTINUOUS
 10
52.9487327655
 20
70.3570282841
  0
VERTEX
  8
0
 62
7
  6
CONTINUOUS
 10
52.972492779
 20
70.4207749299
  0
VERTEX
  8
0
 62
7
  6
CONTINUOUS
 10
52.9920953994
 20
70.4796962991
  0
VERTEX
  8
0
 62
7
  6
CONTINUOUS
 10
53.0079353105
 20
70.5329408065
  0
VERTEX
  8
0
 62
7
  6
CONTINUOUS
 10
53.0205983694
 20
70.5803741965
  0
VERTEX
  8
0
 62
7
  6
CONTINUOUS
 10
53.0308620905
 20
70.6230559635
  0
VERTEX
  8
0
 62
7
  6
CONTINUOUS
 10
53.0393398969
 20
70.6620989709
  0
VERTEX
  8
0
 62
7
  6
CONTINUOUS
 10
53.0464599713
 20
70.6983753627
  0
VERTEX
  8
0
 62
7
  6
CONTINUOUS
 10
53.0524443351
 20
70.7320898914
  0
VERTEX
  8
0
 62
7
  6
CONTINUOUS
 10
53.0574470168
 20
70.7632130996
  0
VERTEX
  8
0
 62
7
  6
CONTINUOUS
 10
53.0616296753
 20
70.7918764869
  0
VERTEX
  8
0
 62
7
  6
CONTINUOUS
 10
53.0651422073
 20
70.8183002332
  0
VERTEX
  8
0
 62
7
  6
CONTINUOUS
 10
53.0681255561
 20
70.8428386503
  0
VERTEX
  8
0
 62
7
  6
CONTINUOUS
 10
53.0707025256
 20
70.8659210121
  0
VERTEX
  8
0
 62
7
  6
CONTINUOUS
 10
53.0729658146
 20
70.8879145519
  0
VERTEX
  8
0
 62
7
  6
CONTINUOUS
 10
53.0749853693
 20
70.9091294138
  0
VERTEX
  8
0
 62
7
  6
CONTINUOUS
 10
53.076814513
 20
70.9298302559
  0
VERTEX
  8
0
 62
7
  6
CONTINUOUS
 10
53.0784943065
 20
70.9502456507
  0
VERTEX
  8
0
 62
7
  6
CONTINUOUS
 10
53.0800563744
 20
70.9705715532
  0
VERTEX
  8
0
 62
7
  6
CONTINUOUS
 10
53.0829193323
 20
71.0115973588
  0
SEQEND
  0
POLYLINE
  8
0
 62
7
  6
CONTINUOUS
 66
1
 70
0
  0
VERTEX
  8
0
 62
7
  6
CONTINUOUS
 10
84.8416598306
 20
69.2138159027
  0
VERTEX
  8
0
 62
7
  6
CONTINUOUS
 10
84.945044746
 20
69.2167856973
  0
VERTEX
  8
0
 62
7
  6
CONTINUOUS
 10
85.0796961017
 20
69.2296156065
  0
VERTEX
  8
0
 62
7
  6
CONTINUOUS
 10
85.2133508188
 20
69.2525877203
  0
VERTEX
  8
0
 62
7
  6
CONTINUOUS
 10
85.3442069477
 20
69.2853503058
  0
VERTEX
  8
0
 62
7
  6
CONTINUOUS
 10
85.4705631939
 20
69.3271872188
  0
VERTEX
  8
0
 62
7
  6
CONTINUOUS
 10
85.5908749968
 20
69.3770442734
  0
VERTEX
  8
0
 62
7
  6
CONTINUOUS
 10
85.7038066379
 20
69.4335704643
  0
VERTEX
  8
0
 62
7
  6
CONTINUOUS
 10
85.8083586015
 20
69.4952271062
  0
VERTEX
  8
0
 62
7
  6
CONTINUOUS
 10
85.9045154101
 20
69.5608467707
  0
VERTEX
  8
0
 62
7
  6
CONTINUOUS
 10
85.9927276707
 20
69.6296177229
  0
VERTEX
  8
0
 62
7
  6
CONTINUOUS
 10
86.0734757234
 20
69.7008838015
  0
VERTEX
  8
0
 62
7
  6
CONTINUOUS
 10
86.1472372676
 20
69.7741188671
  0
VERTEX
  8
0
 62
7
  6
CONTINUOUS
 10
86.2143377975
 20
69.8487495709
  0
VERTEX
  8
0
 62
7
  6
CONTINUOUS
 10
86.2749923246
 20
69.9241135667
  0
VERTEX
  8
0
 62
7
  6
CONTINUOUS
 10
86.3294593009
 20
69.999595075
  0
VERTEX
  8
0
 62
7
  6
CONTINUOUS
 10
86.3780470512
 20
70.0746476985
  0
VERTEX
  8
0
 62
7
  6
CONTINUOUS
 10
86.421047067
 20
70.148698073
  0
VERTEX
  8
0
 62
7
  6
CONTINUOUS
 10
86.4587338847
 20
70.221111957
  0
VERTEX
  8
0
 62
7
  6
CONTINUOUS
 10
86.4914438336
 20
70.29132841
  0
VERTEX
  8
0
 62
7
  6
CONTINUOUS
 10
86.5195316126
 20
70.3587969344
  0
VERTEX
  8
0
 62
7
  6
CONTINUOUS
 10
86.5432271804
 20
70.4225747087
  0
VERTEX
  8
0
 62
7
  6
CONTINUOUS
 10
86.5627463882
 20
70.4814468193
  0
VERTEX
  8
0
 62
7
  6
CONTINUOUS
 10
86.5784885716
 20
70.5345484516
  0
VERTEX
  8
0
 62
7
  6
CONTINUOUS
 10
86.5910599978
 20
70.581799974
  0
VERTEX
  8
0
 62
7
  6
CONTINUOUS
 10
86.6012520763
 20
70.624323175
  0
VERTEX
  8
0
 62
7
  6
CONTINUOUS
 10
86.6096784833
 20
70.663253313
  0
VERTEX
  8
0
 62
7
  6
CONTINUOUS
 10
86.6167629678
 20
70.6994632544
  0
VERTEX
  8
0
 62
7
  6
CONTINUOUS
 10
86.6227181708
 20
70.7331218737
  0
VERTEX
  8
0
 62
7
  6
CONTINUOUS
 10
86.6276963672
 20
70.7641942288
  0
VERTEX
  8
0
 62
7
  6
CONTINUOUS
 10
86.6318581166
 20
70.792808511
  0
VERTEX
  8
0
 62
7
  6
CONTINUOUS
 10
86.6353527068
 20
70.8191839225
  0
VERTEX
  8
0
 62
7
  6
CONTINUOUS
 10
86.6383220103
 20
70.8436867554
  0
VERTEX
  8
0
 62
7
  6
CONTINUOUS
 10
86.6408877555
 20
70.8667433441
  0
VERTEX
  8
0
 62
7
  6
CONTINUOUS
 10
86.643141823
 20
70.8887178828
  0
VERTEX
  8
0
 62
7
  6
CONTINUOUS
 10
86.6451538488
 20
70.9099208815
  0
VERTEX
  8
0
 62
7
  6
CONTINUOUS
 10
86.646977001
 20
70.9306186241
  0
VERTEX
  8
0
 62
7
  6
CONTINUOUS
 10
86.6486519637
 20
70.951038354
  0
VERTEX
  8
0
 62
7
  6
CONTINUOUS
 10
86.6502100701
 20
70.9713747899
  0
VERTEX
  8
0
 62
7
  6
CONTINUOUS
 10
86.6516754398
 20
70.9917931509
  0
VERTEX
  8
0
 62
7
  6
CONTINUOUS
 10
86.6543980586
 20
71.0334084491
  0
SEQEND
  0
LINE
  8
SURFACE
 62
7
  6
CONTINUOUS
 10
218.5216598872
 20
69.2138157895
 11
205.9736032707
 21
69.2138157895
  0
LINE
  8
SURFACE
 62
7
  6
CONTINUOUS
 10
185.1016598872
 20
69.2138157895
 11
172.5536032707
 21
69.2138157895
  0
LINE
  8
SURFACE
 62
7
  6
CONTINUOUS
 10
151.6816598872
 20
69.2138157895
 11
139.1336032707
 21
69.2138157895
  0
LINE
  8
0
 62
7
  6
CONTINUOUS
 10
51.2715550507
 20
69.2138157895
 11
38.6526315789
 21
69.2138157895
  0
LINE
  8
0
 62
7
  6
CONTINUOUS
 10
72.2936032708
 20
69.2138157895
 11
84.8416598872
 21
69.2138157895
  0
LINE
  8
0
 62
7
  6
CONTINUOUS
 10
105.7136032707
 20
69.2138157895
 11
118.2616598871
 21
69.2138157895
  0
POLYLINE
  8
0
 62
7
  6
CONTINUOUS
 66
1
 70
0
  0
VERTEX
  8
0
 62
7
  6
CONTINUOUS
 10
103.9013493379
 20
71.0256360509
  0
VERTEX
  8
0
 62
7
  6
CONTINUOUS
 10
103.9029429316
 20
71.0012014922
  0
VERTEX
  8
0
 62
7
  6
CONTINUOUS
 10
103.9046118128
 20
70.9773867555
  0
VERTEX
  8
0
 62
7
  6
CONTINUOUS
 10
103.906380079
 20
70.9539700713
  0
VERTEX
  8
0
 62
7
  6
CONTINUOUS
 10
103.9082797431
 20
70.9306941505
  0
VERTEX
  8
0
 62
7
  6
CONTINUOUS
 10
103.9103530283
 20
70.9072652293
  0
VERTEX
  8
0
 62
7
  6
CONTINUOUS
 10
103.9126559178
 20
70.8833461161
  0
VERTEX
  8
0
 62
7
  6
CONTINUOUS
 10
103.9152598135
 20
70.8585771921
  0
VERTEX
  8
0
 62
7
  6
CONTINUOUS
 10
103.918258306
 20
70.8325533186
  0
VERTEX
  8
0
 62
7
  6
CONTINUOUS
 10
103.9217741398
 20
70.8048193323
  0
VERTEX
  8
0
 62
7
  6
CONTINUOUS
 10
103.9259593706
 20
70.7749267267
  0
VERTEX
  8
0
 62
7
  6
CONTINUOUS
 10
103.9309836543
 20
70.7425442705
  0
VERTEX
  8
0
 62
7
  6
CONTINUOUS
 10
103.937029156
 20
70.7074709929
  0
VERTEX
  8
0
 62
7
  6
CONTINUOUS
 10
103.9442248562
 20
70.6699281539
  0
VERTEX
  8
0
 62
7
  6
CONTINUOUS
 10
103.9526072223
 20
70.6305440209
  0
VERTEX
  8
0
 62
7
  6
CONTINUOUS
 10
103.9622984734
 20
70.5894245107
  0
VERTEX
  8
0
 62
7
  6
CONTINUOUS
 10
103.9738423441
 20
70.5451337637
  0
VERTEX
  8
0
 62
7
  6
CONTINUOUS
 10
103.9881459583
 20
70.4956163537
  0
VERTEX
  8
0
 62
7
  6
CONTINUOUS
 10
104.0062704085
 20
70.4392843095
  0
VERTEX
  8
0
 62
7
  6
CONTINUOUS
 10
104.0288326986
 20
70.3766290382
  0
VERTEX
  8
0
 62
7
  6
CONTINUOUS
 10
104.0561906836
 20
70.3089130443
  0
VERTEX
  8
0
 62
7
  6
CONTINUOUS
 10
104.0887114822
 20
70.2371980175
  0
VERTEX
  8
0
 62
7
  6
CONTINUOUS
 10
104.1270727721
 20
70.1618272395
  0
VERTEX
  8
0
 62
7
  6
CONTINUOUS
 10
104.1719969887
 20
70.083217727
  0
VERTEX
  8
0
 62
7
  6
CONTINUOUS
 10
104.2241982321
 20
70.0019495886
  0
VERTEX
  8
0
 62
7
  6
CONTINUOUS
 10
104.2843608428
 20
69.9187637666
  0
VERTEX
  8
0
 62
7
  6
CONTINUOUS
 10
104.3532611921
 20
69.8343901117
  0
VERTEX
  8
0
 62
7
  6
CONTINUOUS
 10
104.4320002691
 20
69.7493798442
  0
VERTEX
  8
0
 62
7
  6
CONTINUOUS
 10
104.5215809686
 20
69.6646899336
  0
VERTEX
  8
0
 62
7
  6
CONTINUOUS
 10
104.6214725396
 20
69.5827017125
  0
VERTEX
  8
0
 62
7
  6
CONTINUOUS
 10
104.7300586058
 20
69.5060743586
  0
VERTEX
  8
0
 62
7
  6
CONTINUOUS
 10
104.845205887
 20
69.4369942364
  0
VERTEX
  8
0
 62
7
  6
CONTINUOUS
 10
104.9649381031
 20
69.3767928255
  0
VERTEX
  8
0
 62
7
  6
CONTINUOUS
 10
105.0884927824
 20
69.3257787183
  0
VERTEX
  8
0
 62
7
  6
CONTINUOUS
 10
105.2153075793
 20
69.284120642
  0
VERTEX
  8
0
 62
7
  6
CONTINUOUS
 10
105.3448250368
 20
69.2519758942
  0
VERTEX
  8
0
 62
7
  6
CONTINUOUS
 10
105.4764910292
 20
69.2294926496
  0
VERTEX
  8
0
 62
7
  6
CONTINUOUS
 10
105.6097474604
 20
69.2168128383
  0
VERTEX
  8
0
 62
7
  6
CONTINUOUS
 10
105.7136033259
 20
69.2138159027
  0
SEQEND
  0
POLYLINE
  8
SURFACE
 62
7
  6
CONTINUOUS
 66
1
 70
0
  0
VERTEX
  8
SURFACE
 62
7
  6
CONTINUOUS
 10
103.3623344542
 20
160.9262194552
  0
VERTEX
  8
SURFACE
 62
7
  6
CONTINUOUS
 10
103.3606662594
 20
160.9500396091
  0
VERTEX
  8
SURFACE
 62
7
  6
CONTINUOUS
 10
103.3588989462
 20
160.9734591713
  0
VERTEX
  8
SURFACE
 62
7
  6
CONTINUOUS
 10
103.3570005261
 20
160.9967358363
  0
VERTEX
  8
SURFACE
 62
7
  6
CONTINUOUS
 10
103.3549288021
 20
161.0201637735
  0
VERTEX
  8
SURFACE
 62
7
  6
CONTINUOUS
 10
103.3526278056
 20
161.0440807284
  0
VERTEX
  8
SURFACE
 62
7
  6
CONTINUOUS
 10
103.3500261743
 20
161.0688465945
  0
VERTEX
  8
SURFACE
 62
7
  6
CONTINUOUS
 10
103.3470304412
 20
161.0948661228
  0
VERTEX
  8
SURFACE
 62
7
  6
CONTINUOUS
 10
103.343517968
 20
161.1225945024
  0
VERTEX
  8
SURFACE
 62
7
  6
CONTINUOUS
 10
103.3393363467
 20
161.152483499
  0
VERTEX
  8
SURFACE
 62
7
  6
CONTINUOUS
 10
103.3343154339
 20
161.184867195
  0
VERTEX
  8
SURFACE
 62
7
  6
CONTINUOUS
 10
103.3282718951
 20
161.2199518238
  0
VERTEX
  8
SURFACE
 62
7
  6
CONTINUOUS
 10
103.3210746803
 20
161.257523186
  0
VERTEX
  8
SURFACE
 62
7
  6
CONTINUOUS
 10
103.3126866002
 20
161.2969505809
  0
VERTEX
  8
SURFACE
 62
7
  6
CONTINUOUS
 10
103.3029952196
 20
161.3380837176
  0
VERTEX
  8
SURFACE
 62
7
  6
CONTINUOUS
 10
103.2914646597
 20
161.3823376624
  0
VERTEX
  8
SURFACE
 62
7
  6
CONTINUOUS
 10
103.2771933981
 20
161.4317645544
  0
VERTEX
  8
SURFACE
 62
7
  6
CONTINUOUS
 10
103.2591137179
 20
161.4879909888
  0
VERTEX
  8
SURFACE
 62
7
  6
CONTINUOUS
 10
103.2366018635
 20
161.5505523106
  0
VERTEX
  8
SURFACE
 62
7
  6
CONTINUOUS
 10
103.2092971267
 20
161.6181928848
  0
VERTEX
  8
SURFACE
 62
7
  6
CONTINUOUS
 10
103.1768356477
 20
161.6898415678
  0
VERTEX
  8
SURFACE
 62
7
  6
CONTINUOUS
 10
103.1385407839
 20
161.765153615
  0
VERTEX
  8
SURFACE
 62
7
  6
CONTINUOUS
 10
103.0936889417
 20
161.843714924
  0
VERTEX
  8
SURFACE
 62
7
  6
CONTINUOUS
 10
103.0415645147
 20
161.9249477526
  0
VERTEX
  8
SURFACE
 62
7
  6
CONTINUOUS
 10
102.9814812988
 20
162.0081130011
  0
VERTEX
  8
SURFACE
 62
7
  6
CONTINUOUS
 10
102.9126629142
 20
162.0924797824
  0
VERTEX
  8
SURFACE
 62
7
  6
CONTINUOUS
 10
102.8340106728
 20
162.1774942613
  0
VERTEX
  8
SURFACE
 62
7
  6
CONTINUOUS
 10
102.7445231776
 20
162.2621988917
  0
VERTEX
  8
SURFACE
 62
7
  6
CONTINUOUS
 10
102.6447267389
 20
162.3442156455
  0
VERTEX
  8
SURFACE
 62
7
  6
CONTINUOUS
 10
102.5362307673
 20
162.4208878338
  0
VERTEX
  8
SURFACE
 62
7
  6
CONTINUOUS
 10
102.4211608595
 20
162.4900295109
  0
VERTEX
  8
SURFACE
 62
7
  6
CONTINUOUS
 10
102.3014892731
 20
162.5503061793
  0
VERTEX
  8
SURFACE
 62
7
  6
CONTINUOUS
 10
102.1779803883
 20
162.6014045645
  0
VERTEX
  8
SURFACE
 62
7
  6
CONTINUOUS
 10
102.0511994158
 20
162.6431523428
  0
VERTEX
  8
SURFACE
 62
7
  6
CONTINUOUS
 10
101.921707302
 20
162.6753897065
  0
VERTEX
  8
SURFACE
 62
7
  6
CONTINUOUS
 10
101.7900620568
 20
162.6979671403
  0
VERTEX
  8
SURFACE
 62
7
  6
CONTINUOUS
 10
101.6568258337
 20
162.710742588
  0
VERTEX
  8
SURFACE
 62
7
  6
CONTINUOUS
 10
101.5516598307
 20
162.7138156781
  0
SEQEND
  0
LINE
  8
SURFACE
 62
7
  6
CONTINUOUS
 10
103.3654635523
 20
160.8765246469
 11
103.3623344542
 21
160.9262194552
  0
LINE
  8
0
 62
7
  6
CONTINUOUS
 10
103.8983201695
 20
71.0770959323
 11
103.9013493379
 21
71.0256360509
  0
LINE
  8
SURFACE
 62
7
  6
CONTINUOUS
 10
103.3684158294
 20
160.8229496812
 11
103.3654635523
 21
160.8765246469
  0
LINE
  8
0
 62
7
  6
CONTINUOUS
 10
103.8954255447
 20
71.133007944
 11
103.8983201695
 21
71.0770959323
  0
LINE
  8
SURFACE
 62
7
  6
CONTINUOUS
 10
103.3712658578
 20
160.764424119
 11
103.3684158294
 21
160.8229496812
  0
LINE
  8
0
 62
7
  6
CONTINUOUS
 10
103.8926088283
 20
71.1942999277
 11
103.8954255447
 21
71.133007944
  0
LINE
  8
SURFACE
 62
7
  6
CONTINUOUS
 10
103.3740582262
 20
160.7001030167
 11
103.3712658578
 21
160.764424119
  0
LINE
  8
0
 62
7
  6
CONTINUOUS
 10
103.8884481388
 20
71.2982012598
 11
103.8926088283
 21
71.1942999277
  0
LINE
  8
SURFACE
 62
7
  6
CONTINUOUS
 10
103.3782104275
 20
160.5908345978
 11
103.3740582262
 21
160.7001030167
  0
LINE
  8
0
 62
7
  6
CONTINUOUS
 10
103.8842911242
 20
71.4189654576
 11
103.8884481388
 21
71.2982012598
  0
LINE
  8
SURFACE
 62
7
  6
CONTINUOUS
 10
103.3823765734
 20
160.4638536565
 11
103.3782104275
 21
160.5908345978
  0
LINE
  8
0
 62
7
  6
CONTINUOUS
 10
103.8786838135
 20
71.6104667588
 11
103.8842911242
 21
71.4189654576
  0
LINE
  8
SURFACE
 62
7
  6
CONTINUOUS
 10
103.3880125805
 20
160.2627007451
 11
103.3823765734
 21
160.4638536565
  0
LINE
  8
0
 62
7
  6
CONTINUOUS
 10
103.8714087813
 20
71.9113607935
 11
103.8786838135
 21
71.6104667588
  0
LINE
  8
SURFACE
 62
7
  6
CONTINUOUS
 10
103.3953773533
 20
159.9453446466
 11
103.3880125805
 21
160.2627007451
  0
LINE
  8
0
 62
7
  6
CONTINUOUS
 10
103.8635769567
 20
72.3072850672
 11
103.8714087813
 21
71.9113607935
  0
LINE
  8
SURFACE
 62
7
  6
CONTINUOUS
 10
103.4033406376
 20
159.5264335463
 11
103.3953773533
 21
159.9453446466
  0
LINE
  8
0
 62
7
  6
CONTINUOUS
 10
103.8550842985
 20
72.8306127418
 11
103.8635769567
 21
72.3072850672
  0
LINE
  8
SURFACE
 62
7
  6
CONTINUOUS
 10
103.4119451926
 20
158.9746699431
 11
103.4033406376
 21
159.5264335463
  0
LINE
  8
0
 62
7
  6
CONTINUOUS
 10
103.8461701958
 20
73.5009590346
 11
103.8550842985
 21
72.8306127418
  0
LINE
  8
SURFACE
 62
7
  6
CONTINUOUS
 10
103.4209076282
 20
158.2729834478
 11
103.4119451926
 21
158.9746699431
  0
LINE
  8
0
 62
7
  6
CONTINUOUS
 10
103.8370620193
 20
74.3402022212
 11
103.8461701958
 21
73.5009590346
  0
LINE
  8
SURFACE
 62
7
  6
CONTINUOUS
 10
103.4282070108
 20
157.5868298441
 11
103.4209076282
 21
158.2729834478
  0
LINE
  8
0
 62
7
  6
CONTINUOUS
 10
103.8297072833
 20
75.1609700866
 11
103.8370620193
 21
74.3402022212
  0
LINE
  8
SURFACE
 62
7
  6
CONTINUOUS
 10
103.4355603487
 20
156.7661157431
 11
103.4282070108
 21
157.5868298441
  0
LINE
  8
0
 62
7
  6
CONTINUOUS
 10
103.8224200661
 20
76.1412878827
 11
103.8297072833
 21
75.1609700866
  0
LINE
  8
SURFACE
 62
7
  6
CONTINUOUS
 10
103.4428446965
 20
155.7861052094
 11
103.4355603487
 21
156.7661157431
  0
LINE
  8
0
 62
7
  6
CONTINUOUS
 10
103.8153606634
 20
77.3163093094
 11
103.8224200661
 21
76.1412878827
  0
LINE
  8
SURFACE
 62
7
  6
CONTINUOUS
 10
103.4499005762
 20
154.6116816222
 11
103.4428446965
 21
155.7861052094
  0
LINE
  8
SURFACE
 62
7
  6
CONTINUOUS
 10
103.4548990086
 20
153.5735289788
 11
103.4499005762
 21
154.6116816222
  0
LINE
  8
0
 62
7
  6
CONTINUOUS
 10
103.810360192
 20
78.3550195565
 11
103.8153606634
 21
77.3163093094
  0
LINE
  8
SURFACE
 62
7
  6
CONTINUOUS
 10
103.4548990086
 20
153.5735289788
 11
103.4785672123
 21
147.6512677184
  0
LINE
  8
0
 62
7
  6
CONTINUOUS
 10
103.7867248611
 20
84.3036030669
 11
103.810360192
 21
78.3550195565
  0
LINE
  8
SURFACE
 62
7
  6
CONTINUOUS
 10
103.4836282541
 20
146.2391181599
 11
103.4785672105
 21
147.6512676334
  0
LINE
  8
0
 62
7
  6
CONTINUOUS
 10
103.7821620655
 20
85.731831333
 11
103.7867248611
 21
84.3036030669
  0
LINE
  8
SURFACE
 62
7
  6
CONTINUOUS
 10
103.4877660472
 20
144.7679195174
 11
103.4836282541
 21
146.2391181599
  0
LINE
  8
0
 62
7
  6
CONTINUOUS
 10
103.7785824257
 20
87.198418286
 11
103.7821620655
 21
85.731831333
  0
LINE
  8
SURFACE
 62
7
  6
CONTINUOUS
 10
103.4908953294
 20
143.2606819254
 11
103.4877660472
 21
144.7679195174
  0
LINE
  8
0
 62
7
  6
CONTINUOUS
 10
103.7760107799
 20
88.6939326858
 11
103.7785824257
 21
87.198418286
  0
LINE
  8
SURFACE
 62
7
  6
CONTINUOUS
 10
103.4929924998
 20
141.7269582179
 11
103.4908953294
 21
143.2606819254
  0
LINE
  8
0
 62
7
  6
CONTINUOUS
 10
103.7744649858
 20
90.2086446486
 11
103.7760107799
 21
88.6939326858
  0
LINE
  8
SURFACE
 62
7
  6
CONTINUOUS
 10
103.4940409161
 20
140.1766409453
 11
103.4929924998
 21
141.7269582179
  0
LINE
  8
0
 62
7
  6
CONTINUOUS
 10
103.7739554584
 20
91.7175626263
 11
103.7744649858
 21
90.2086446486
  0
LINE
  8
SURFACE
 62
7
  6
CONTINUOUS
 10
103.4940409161
 20
140.1766409453
 11
103.4941687217
 21
138.6338157895
  0
LINE
  8
0
 62
7
  6
CONTINUOUS
 10
103.7739554583
 20
93.2938157895
 11
103.7739554583
 21
91.7175626263
  0
LINE
  8
SURF_PART
 62
2
  6
CENTER
 10
34.8526315789
 20
84.2138157895
 11
222.3675502081
 21
84.2138157895
  0
POLYLINE
  8
0
 62
7
  6
CONTINUOUS
 66
1
 70
0
  0
VERTEX
  8
0
 62
7
  6
CONTINUOUS
 10
155.2989114577
 20
95.0902854707
  0
VERTEX
  8
0
 62
7
  6
CONTINUOUS
 10
155.1860524429
 20
95.0796526078
  0
VERTEX
  8
0
 62
7
  6
CONTINUOUS
 10
155.0738102385
 20
95.0619066956
  0
VERTEX
  8
0
 62
7
  6
CONTINUOUS
 10
154.9627975229
 20
95.0371066717
  0
VERTEX
  8
0
 62
7
  6
CONTINUOUS
 10
154.8536152729
 20
95.0053798488
  0
VERTEX
  8
0
 62
7
  6
CONTINUOUS
 10
154.7467944291
 20
94.9668998359
  0
VERTEX
  8
0
 62
7
  6
CONTINUOUS
 10
154.6426945146
 20
94.921820473
  0
VERTEX
  8
0
 62
7
  6
CONTINUOUS
 10
154.5416441839
 20
94.8702938045
  0
VERTEX
  8
0
 62
7
  6
CONTINUOUS
 10
154.4440257378
 20
94.8125132949
  0
VERTEX
  8
0
 62
7
  6
CONTINUOUS
 10
154.3502605008
 20
94.748728957
  0
VERTEX
  8
0
 62
7
  6
CONTINUOUS
 10
154.2607409745
 20
94.6792165693
  0
VERTEX
  8
0
 62
7
  6
CONTINUOUS
 10
154.1758142295
 20
94.6042583234
  0
VERTEX
  8
0
 62
7
  6
CONTINUOUS
 10
154.0958039926
 20
94.5241521539
  0
VERTEX
  8
0
 62
7
  6
CONTINUOUS
 10
154.0210133679
 20
94.4392119511
  0
VERTEX
  8
0
 62
7
  6
CONTINUOUS
 10
153.9517263978
 20
94.3497683175
  0
VERTEX
  8
0
 62
7
  6
CONTINUOUS
 10
153.8882110394
 20
94.2561735193
  0
VERTEX
  8
0
 62
7
  6
CONTINUOUS
 10
153.8307301702
 20
94.158826513
  0
VERTEX
  8
0
 62
7
  6
CONTINUOUS
 10
153.7795188091
 20
94.0581512131
  0
VERTEX
  8
0
 62
7
  6
CONTINUOUS
 10
153.7347512218
 20
93.9545204447
  0
VERTEX
  8
0
 62
7
  6
CONTINUOUS
 10
153.6965615929
 20
93.8482468177
  0
VERTEX
  8
0
 62
7
  6
CONTINUOUS
 10
153.6650912943
 20
93.7396776547
  0
VERTEX
  8
0
 62
7
  6
CONTINUOUS
 10
153.6405066722
 20
93.6293451146
  0
VERTEX
  8
0
 62
7
  6
CONTINUOUS
 10
153.6229265415
 20
93.5178500694
  0
VERTEX
  8
0
 62
7
  6
CONTINUOUS
 10
153.6124004085
 20
93.4058032166
  0
SEQEND
  0
POLYLINE
  8
0
 62
7
  6
CONTINUOUS
 66
1
 70
0
  0
VERTEX
  8
0
 62
7
  6
CONTINUOUS
 10
188.7452240516
 20
95.0903880358
  0
VERTEX
  8
0
 62
7
  6
CONTINUOUS
 10
188.6340060347
 20
95.0800641678
  0
VERTEX
  8
0
 62
7
  6
CONTINUOUS
 10
188.5233694715
 20
95.0628326726
  0
VERTEX
  8
0
 62
7
  6
CONTINUOUS
 10
188.4139005905
 20
95.0387474573
  0
VERTEX
  8
0
 62
7
  6
CONTINUOUS
 10
188.3061766961
 20
95.0079274582
  0
VERTEX
  8
0
 62
7
  6
CONTINUOUS
 10
188.200715874
 20
94.9705386115
  0
VERTEX
  8
0
 62
7
  6
CONTINUOUS
 10
188.0978680377
 20
94.9267288628
  0
VERTEX
  8
0
 62
7
  6
CONTINUOUS
 10
187.9979456183
 20
94.8766417484
  0
VERTEX
  8
0
 62
7
  6
CONTINUOUS
 10
187.9013096962
 20
94.820457258
  0
VERTEX
  8
0
 62
7
  6
CONTINUOUS
 10
187.808363123
 20
94.7584095927
  0
VERTEX
  8
0
 62
7
  6
CONTINUOUS
 10
187.7194863809
 20
94.6907603273
  0
VERTEX
  8
0
 62
7
  6
CONTINUOUS
 10
187.6350167316
 20
94.61777804
  0
VERTEX
  8
0
 62
7
  6
CONTINUOUS
 10
187.5552674075
 20
94.539745225
  0
VERTEX
  8
0
 62
7
  6
CONTINUOUS
 10
187.4805318957
 20
94.4569593857
  0
SEQEND
  0
POLYLINE
  8
0
 62
7
  6
CONTINUOUS
 66
1
 70
0
  0
VERTEX
  8
0
 62
7
  6
CONTINUOUS
 10
222.1877041586
 20
95.0907136814
  0
VERTEX
  8
0
 62
7
  6
CONTINUOUS
 10
222.0817910963
 20
95.0813546816
  0
VERTEX
  8
0
 62
7
  6
CONTINUOUS
 10
221.9762782163
 20
95.0657158698
  0
VERTEX
  8
0
 62
7
  6
CONTINUOUS
 10
221.8717620196
 20
95.0438493499
  0
VERTEX
  8
0
 62
7
  6
CONTINUOUS
 10
221.7688313299
 20
95.0158826506
  0
VERTEX
  8
0
 62
7
  6
CONTINUOUS
 10
221.6680145463
 20
94.9820017704
  0
VERTEX
  8
0
 62
7
  6
CONTINUOUS
 10
221.5695635512
 20
94.9423436738
  0
VERTEX
  8
0
 62
7
  6
CONTINUOUS
 10
221.4735982868
 20
94.8969799921
  0
VERTEX
  8
0
 62
7
  6
CONTINUOUS
 10
221.3803127396
 20
94.8459886285
  0
VERTEX
  8
0
 62
7
  6
CONTINUOUS
 10
221.290079936
 20
94.7895479218
  0
VERTEX
  8
0
 62
7
  6
CONTINUOUS
 10
221.2032396311
 20
94.7278508337
  0
VERTEX
  8
0
 62
7
  6
CONTINUOUS
 10
221.1199730331
 20
94.660989795
  0
VERTEX
  8
0
 62
7
  6
CONTINUOUS
 10
221.0405371179
 20
94.5891043472
  0
VERTEX
  8
0
 62
7
  6
CONTINUOUS
 10
220.9652066273
 20
94.5123547496
  0
VERTEX
  8
0
 62
7
  6
CONTINUOUS
 10
220.894251217
 20
94.4309040428
  0
VERTEX
  8
0
 62
7
  6
CONTINUOUS
 10
220.8279449751
 20
94.3449268993
  0
VERTEX
  8
0
 62
7
  6
CONTINUOUS
 10
220.76657183
 20
94.2546200605
  0
VERTEX
  8
0
 62
7
  6
CONTINUOUS
 10
220.7104242252
 20
94.1602087116
  0
VERTEX
  8
0
 62
7
  6
CONTINUOUS
 10
220.6597968345
 20
94.0619460279
  0
VERTEX
  8
0
 62
7
  6
CONTINUOUS
 10
220.6149777158
 20
93.9601029238
  0
VERTEX
  8
0
 62
7
  6
CONTINUOUS
 10
220.5762501091
 20
93.854974567
  0
VERTEX
  8
0
 62
7
  6
CONTINUOUS
 10
220.5438824084
 20
93.74685209
  0
VERTEX
  8
0
 62
7
  6
CONTINUOUS
 10
220.5181340075
 20
93.6360161137
  0
VERTEX
  8
0
 62
7
  6
CONTINUOUS
 10
220.4993105973
 20
93.5230821098
  0
VERTEX
  8
0
 62
7
  6
CONTINUOUS
 10
220.4876453124
 20
93.4087637251
  0
VERTEX
  8
0
 62
7
  6
CONTINUOUS
 10
220.4832735988
 20
93.2938132459
  0
SEQEND
  0
POLYLINE
  8
0
 62
7
  6
CONTINUOUS
 66
1
 70
0
  0
VERTEX
  8
0
 62
7
  6
CONTINUOUS
 10
234.5973069181
 20
95.1238676787
  0
VERTEX
  8
0
 62
7
  6
CONTINUOUS
 10
234.8298733155
 20
95.1316332701
  0
VERTEX
  8
0
 62
7
  6
CONTINUOUS
 10
235.0541517837
 20
95.1364040833
  0
VERTEX
  8
0
 62
7
  6
CONTINUOUS
 10
235.2491606886
 20
95.1377837012
  0
SEQEND
  0
POLYLINE
  8
0
 62
7
  6
CONTINUOUS
 66
1
 70
0
  0
VERTEX
  8
0
 62
7
  6
CONTINUOUS
 10
233.6169162944
 20
95.0938157792
  0
VERTEX
  8
0
 62
7
  6
CONTINUOUS
 10
233.8568730838
 20
95.096690474
  0
VERTEX
  8
0
 62
7
  6
CONTINUOUS
 10
234.1108029437
 20
95.1044094827
  0
VERTEX
  8
0
 62
7
  6
CONTINUOUS
 10
234.5973069181
 20
95.1238676787
  0
SEQEND
  0
LINE
  8
0
 62
7
  6
CONTINUOUS
 10
188.856432882
 20
95.0938157895
 11
188.8220888463
 21
95.0934891578
  0
LINE
  8
0
 62
7
  6
CONTINUOUS
 10
222.2934184885
 20
95.0938157895
 11
222.2617408348
 21
95.093537415
  0
LINE
  8
0
 62
7
  6
CONTINUOUS
 10
68.559760249
 20
95.0935389549
 11
68.5281567813
 21
95.0938157895
  0
LINE
  8
0
 62
7
  6
CONTINUOUS
 10
101.9711616071
 20
95.0938157895
 11
102.0062960235
 21
95.0934739495
  0
POLYLINE
  8
0
 62
7
  6
CONTINUOUS
 66
1
 70
0
  0
VERTEX
  8
0
 62
7
  6
CONTINUOUS
 10
68.559760249
 20
95.0935389549
  0
VERTEX
  8
0
 62
7
  6
CONTINUOUS
 10
68.6443092248
 20
95.0900728227
  0
VERTEX
  8
0
 62
7
  6
CONTINUOUS
 10
68.771060108
 20
95.0773910634
  0
VERTEX
  8
0
 62
7
  6
CONTINUOUS
 10
68.8970515492
 20
95.0557087304
  0
VERTEX
  8
0
 62
7
  6
CONTINUOUS
 10
69.0215884475
 20
95.0250546526
  0
VERTEX
  8
0
 62
7
  6
CONTINUOUS
 10
69.1439750259
 20
94.9855183409
  0
VERTEX
  8
0
 62
7
  6
CONTINUOUS
 10
69.2635144657
 20
94.9372530367
  0
VERTEX
  8
0
 62
7
  6
CONTINUOUS
 10
69.3795230548
 20
94.8804742333
  0
VERTEX
  8
0
 62
7
  6
CONTINUOUS
 10
69.4913382905
 20
94.8154570827
  0
VERTEX
  8
0
 62
7
  6
CONTINUOUS
 10
69.5983374334
 20
94.7425241326
  0
VERTEX
  8
0
 62
7
  6
CONTINUOUS
 10
69.6999382655
 20
94.6620383194
  0
VERTEX
  8
0
 62
7
  6
CONTINUOUS
 10
69.7955892984
 20
94.5744059768
  0
VERTEX
  8
0
 62
7
  6
CONTINUOUS
 10
69.8847738617
 20
94.4800726733
  0
VERTEX
  8
0
 62
7
  6
CONTINUOUS
 10
69.967022711
 20
94.3795057738
  0
VERTEX
  8
0
 62
7
  6
CONTINUOUS
 10
70.0419077126
 20
94.2731917093
  0
VERTEX
  8
0
 62
7
  6
CONTINUOUS
 10
70.1090327371
 20
94.1616422575
  0
VERTEX
  8
0
 62
7
  6
CONTINUOUS
 10
70.168036303
 20
94.0453881179
  0
VERTEX
  8
0
 62
7
  6
CONTINUOUS
 10
70.2185989014
 20
93.9249540168
  0
VERTEX
  8
0
 62
7
  6
CONTINUOUS
 10
70.2604276133
 20
93.8008733358
  0
VERTEX
  8
0
 62
7
  6
CONTINUOUS
 10
70.2932508878
 20
93.6736962166
  0
VERTEX
  8
0
 62
7
  6
CONTINUOUS
 10
70.3168195638
 20
93.5439823615
  0
VERTEX
  8
0
 62
7
  6
CONTINUOUS
 10
70.3309055551
 20
93.412285948
  0
VERTEX
  8
0
 62
7
  6
CONTINUOUS
 10
70.3353033577
 20
93.2900804742
  0
SEQEND
  0
POLYLINE
  8
0
 62
7
  6
CONTINUOUS
 66
1
 70
0
  0
VERTEX
  8
0
 62
7
  6
CONTINUOUS
 10
102.0062960235
 20
95.0934739495
  0
VERTEX
  8
0
 62
7
  6
CONTINUOUS
 10
102.0895641783
 20
95.0899294534
  0
VERTEX
  8
0
 62
7
  6
CONTINUOUS
 10
102.2198295655
 20
95.076610056
  0
VERTEX
  8
0
 62
7
  6
CONTINUOUS
 10
102.3487342045
 20
95.0538953527
  0
VERTEX
  8
0
 62
7
  6
CONTINUOUS
 10
102.4755889679
 20
95.0219189497
  0
VERTEX
  8
0
 62
7
  6
CONTINUOUS
 10
102.5997104848
 20
94.9808692236
  0
VERTEX
  8
0
 62
7
  6
CONTINUOUS
 10
102.7204310277
 20
94.9309881754
  0
VERTEX
  8
0
 62
7
  6
CONTINUOUS
 10
102.8371058638
 20
94.8725691656
  0
VERTEX
  8
0
 62
7
  6
CONTINUOUS
 10
102.9491174959
 20
94.8059544924
  0
VERTEX
  8
0
 62
7
  6
CONTINUOUS
 10
103.055887849
 20
94.731526482
  0
VERTEX
  8
0
 62
7
  6
CONTINUOUS
 10
103.1568751741
 20
94.6497052971
  0
VERTEX
  8
0
 62
7
  6
CONTINUOUS
 10
103.2515716294
 20
94.560948937
  0
VERTEX
  8
0
 62
7
  6
CONTINUOUS
 10
103.3395080281
 20
94.4657482751
  0
VERTEX
  8
0
 62
7
  6
CONTINUOUS
 10
103.4202594777
 20
94.3646182077
  0
VERTEX
  8
0
 62
7
  6
CONTINUOUS
 10
103.4934407287
 20
94.2580991415
  0
VERTEX
  8
0
 62
7
  6
CONTINUOUS
 10
103.5587065466
 20
94.1467553647
  0
VERTEX
  8
0
 62
7
  6
CONTINUOUS
 10
103.6157558033
 20
94.031166394
  0
VERTEX
  8
0
 62
7
  6
CONTINUOUS
 10
103.6643315185
 20
93.9119208037
  0
VERTEX
  8
0
 62
7
  6
CONTINUOUS
 10
103.7042165243
 20
93.7896202658
  0
VERTEX
  8
0
 62
7
  6
CONTINUOUS
 10
103.7352333567
 20
93.6648796218
  0
VERTEX
  8
0
 62
7
  6
CONTINUOUS
 10
103.7572452305
 20
93.5383251374
  0
VERTEX
  8
0
 62
7
  6
CONTINUOUS
 10
103.7701579963
 20
93.4105861802
  0
VERTEX
  8
0
 62
7
  6
CONTINUOUS
 10
103.7739553807
 20
93.2938157895
  0
SEQEND
  0
POLYLINE
  8
0
 62
7
  6
CONTINUOUS
 66
1
 70
0
  0
VERTEX
  8
0
 62
7
  6
CONTINUOUS
 10
102.0841427002
 20
95.0902778054
  0
VERTEX
  8
0
 62
7
  6
CONTINUOUS
 10
102.1970709693
 20
95.0796284583
  0
VERTEX
  8
0
 62
7
  6
CONTINUOUS
 10
102.3093270934
 20
95.0618675257
  0
VERTEX
  8
0
 62
7
  6
CONTINUOUS
 10
102.4202991821
 20
95.0370643333
  0
VERTEX
  8
0
 62
7
  6
CONTINUOUS
 10
102.5293968505
 20
95.0053537425
  0
VERTEX
  8
0
 62
7
  6
CONTINUOUS
 10
102.6361628165
 20
94.9668897625
  0
VERTEX
  8
0
 62
7
  6
CONTINUOUS
 10
102.7402625909
 20
94.9218085661
  0
VERTEX
  8
0
 62
7
  6
CONTINUOUS
 10
102.8413319776
 20
94.8702694079
  0
VERTEX
  8
0
 62
7
  6
CONTINUOUS
 10
102.9389400127
 20
94.8124917424
  0
VERTEX
  8
0
 62
7
  6
CONTINUOUS
 10
103.0326730325
 20
94.7487277116
  0
VERTEX
  8
0
 62
7
  6
CONTINUOUS
 10
103.1221680334
 20
94.6792354626
  0
VERTEX
  8
0
 62
7
  6
CONTINUOUS
 10
103.2070864342
 20
94.6042876158
  0
VERTEX
  8
0
 62
7
  6
CONTINUOUS
 10
103.2870968493
 20
94.5241851832
  0
VERTEX
  8
0
 62
7
  6
CONTINUOUS
 10
103.3618811126
 20
94.4392571452
  0
VERTEX
  8
0
 62
7
  6
CONTINUOUS
 10
103.4311515087
 20
94.3498426234
  0
VERTEX
  8
0
 62
7
  6
CONTINUOUS
 10
103.4946503537
 20
94.2562846545
  0
VERTEX
  8
0
 62
7
  6
CONTINUOUS
 10
103.5521348732
 20
94.1589481683
  0
VERTEX
  8
0
 62
7
  6
CONTINUOUS
 10
103.6033671173
 20
94.0582489026
  0
VERTEX
  8
0
 62
7
  6
CONTINUOUS
 10
103.6481421906
 20
93.9546176162
  0
VERTEX
  8
0
 62
7
  6
CONTINUOUS
 10
103.6863177798
 20
93.8484085318
  0
VERTEX
  8
0
 62
7
  6
CONTINUOUS
 10
103.7177740612
 20
93.7399371273
  0
VERTEX
  8
0
 62
7
  6
CONTINUOUS
 10
103.7423678554
 20
93.629646465
  0
VERTEX
  8
0
 62
7
  6
CONTINUOUS
 10
103.7599712083
 20
93.5181210831
  0
VERTEX
  8
0
 62
7
  6
CONTINUOUS
 10
103.7705208804
 20
93.4059717696
  0
SEQEND
  0
LINE
  8
0
 62
7
  6
CONTINUOUS
 10
120.1917348991
 20
88.4886787025
 11
120.1918555575
 21
93.2938157895
  0
LINE
  8
SURFACE
 62
7
  6
CONTINUOUS
 10
120.4964072978
 20
144.1633317889
 11
120.4962867958
 21
138.6338157895
  0
LINE
  8
0
 62
7
  6
CONTINUOUS
 10
120.1907391272
 20
87.0182002215
 11
120.1917348991
 21
88.4886787025
  0
LINE
  8
SURFACE
 62
7
  6
CONTINUOUS
 10
120.4974024838
 20
145.6317082611
 11
120.4964072978
 21
144.1633317889
  0
LINE
  8
0
 62
7
  6
CONTINUOUS
 10
120.1887409945
 20
85.5589818268
 11
120.1907391272
 21
87.0182002215
  0
LINE
  8
SURFACE
 62
7
  6
CONTINUOUS
 10
120.4994010649
 20
147.0903331285
 11
120.4974024838
 21
145.6317082611
  0
LINE
  8
0
 62
7
  6
CONTINUOUS
 10
120.1857512911
 20
84.1205631661
 11
120.1887409945
 21
85.5589818268
  0
LINE
  8
SURFACE
 62
7
  6
CONTINUOUS
 10
120.5023935975
 20
148.5294827244
 11
120.4994010649
 21
147.0903331285
  0
LINE
  8
0
 62
7
  6
CONTINUOUS
 10
120.181787835
 20
82.712309452
 11
120.1857512911
 21
84.1205631661
  0
LINE
  8
SURFACE
 62
7
  6
CONTINUOUS
 10
120.5063634051
 20
149.9396397833
 11
120.5023935975
 21
148.5294827244
  0
LINE
  8
0
 62
7
  6
CONTINUOUS
 10
120.1769256379
 20
81.3559814429
 11
120.181787835
 21
82.712309452
  0
LINE
  8
SURFACE
 62
7
  6
CONTINUOUS
 10
120.5112366702
 20
151.2989387775
 11
120.5063634051
 21
149.9396397833
  0
LINE
  8
SURFACE
 62
7
  6
CONTINUOUS
 10
120.5251659981
 20
154.5747223118
 11
120.5112366706
 21
151.2989387494
  0
LINE
  8
0
 62
7
  6
CONTINUOUS
 10
120.1600971626
 20
77.3529098175
 11
120.1769256733
 21
81.3559795964
  0
LINE
  8
SURFACE
 62
7
  6
CONTINUOUS
 10
120.5348160145
 20
156.1304047329
 11
120.5251659981
 21
154.5747223118
  0
LINE
  8
0
 62
7
  6
CONTINUOUS
 10
120.1504471491
 20
75.7972276474
 11
120.1600971626
 21
77.3529098175
  0
LINE
  8
SURFACE
 62
7
  6
CONTINUOUS
 10
120.5462444575
 20
157.5031653024
 11
120.5348160145
 21
156.1304047329
  0
LINE
  8
0
 62
7
  6
CONTINUOUS
 10
120.1390187167
 20
74.4244679713
 11
120.1504471491
 21
75.7972276474
  0
LINE
  8
SURFACE
 62
7
  6
CONTINUOUS
 10
120.5590122298
 20
158.6551472207
 11
120.5462444575
 21
157.5031653024
  0
LINE
  8
0
 62
7
  6
CONTINUOUS
 10
120.1262509634
 20
73.2724871083
 11
120.1390187167
 21
74.4244679713
  0
LINE
  8
SURFACE
 62
7
  6
CONTINUOUS
 10
120.5725633054
 20
159.563250643
 11
120.5590122298
 21
158.6551472207
  0
LINE
  8
0
 62
7
  6
CONTINUOUS
 10
120.1126999044
 20
72.3643838887
 11
120.1262509634
 21
73.2724871083
  0
LINE
  8
SURFACE
 62
7
  6
CONTINUOUS
 10
120.5823295418
 20
160.0577839635
 11
120.5725633054
 21
159.563250643
  0
LINE
  8
0
 62
7
  6
CONTINUOUS
 10
120.102933669
 20
71.8698499692
 11
120.1126999044
 21
72.3643838887
  0
LINE
  8
SURFACE
 62
7
  6
CONTINUOUS
 10
120.5891638165
 20
160.3348931956
 11
120.5823295418
 21
160.0577839635
  0
LINE
  8
0
 62
7
  6
CONTINUOUS
 10
120.0960993968
 20
71.5927404195
 11
120.102933669
 21
71.8698499692
  0
LINE
  8
SURFACE
 62
7
  6
CONTINUOUS
 10
120.5947113597
 20
160.5216739621
 11
120.5891638165
 21
160.3348931956
  0
LINE
  8
0
 62
7
  6
CONTINUOUS
 10
120.0905518586
 20
71.4059594769
 11
120.0960993968
 21
71.5927404195
  0
POLYLINE
  8
SURFACE
 62
7
  6
CONTINUOUS
 66
1
 70
0
  0
VERTEX
  8
SURFACE
 62
7
  6
CONTINUOUS
 10
120.4963553345
 20
138.6338195116
  0
VERTEX
  8
SURFACE
 62
7
  6
CONTINUOUS
 10
120.492490134
 20
138.5170576296
  0
VERTEX
  8
SURFACE
 62
7
  6
CONTINUOUS
 10
120.4795796452
 20
138.3893287526
  0
VERTEX
  8
SURFACE
 62
7
  6
CONTINUOUS
 10
120.4575710546
 20
138.2627820812
  0
VERTEX
  8
SURFACE
 62
7
  6
CONTINUOUS
 10
120.4265578554
 20
138.1380461536
  0
VERTEX
  8
SURFACE
 62
7
  6
CONTINUOUS
 10
120.3866764211
 20
138.0157478481
  0
VERTEX
  8
SURFACE
 62
7
  6
CONTINUOUS
 10
120.3381040233
 20
137.8965027506
  0
VERTEX
  8
SURFACE
 62
7
  6
CONTINUOUS
 10
120.2810576929
 20
137.7809129802
  0
VERTEX
  8
SURFACE
 62
7
  6
CONTINUOUS
 10
120.2157943671
 20
137.6695675232
  0
VERTEX
  8
SURFACE
 62
7
  6
CONTINUOUS
 10
120.1426151191
 20
137.5630461441
  0
VERTEX
  8
SURFACE
 62
7
  6
CONTINUOUS
 10
120.0618650916
 20
137.4619132381
  0
VERTEX
  8
SURFACE
 62
7
  6
CONTINUOUS
 10
119.9739294477
 20
137.366709315
  0
VERTEX
  8
SURFACE
 62
7
  6
CONTINUOUS
 10
119.8792330201
 20
137.2779493962
  0
VERTEX
  8
SURFACE
 62
7
  6
CONTINUOUS
 10
119.7782450086
 20
137.1961245271
  0
VERTEX
  8
SURFACE
 62
7
  6
CONTINUOUS
 10
119.6714733046
 20
137.1216928708
  0
VERTEX
  8
SURFACE
 62
7
  6
CONTINUOUS
 10
119.5594597472
 20
137.0550747414
  0
VERTEX
  8
SURFACE
 62
7
  6
CONTINUOUS
 10
119.4427825284
 20
136.9966525978
  0
VERTEX
  8
SURFACE
 62
7
  6
CONTINUOUS
 10
119.3220591875
 20
136.9467688004
  0
VERTEX
  8
SURFACE
 62
7
  6
CONTINUOUS
 10
119.1979345162
 20
136.9057167623
  0
VERTEX
  8
SURFACE
 62
7
  6
CONTINUOUS
 10
119.0710763071
 20
136.873738529
  0
VERTEX
  8
SURFACE
 62
7
  6
CONTINUOUS
 10
118.9421679925
 20
136.851022511
  0
VERTEX
  8
SURFACE
 62
7
  6
CONTINUOUS
 10
118.8118989535
 20
136.8377023521
  0
VERTEX
  8
SURFACE
 62
7
  6
CONTINUOUS
 10
118.7279182768
 20
136.8341441599
  0
SEQEND
  0
POLYLINE
  8
0
 62
7
  6
CONTINUOUS
 66
1
 70
0
  0
VERTEX
  8
0
 62
7
  6
CONTINUOUS
 10
120.1918556036
 20
93.2938157895
  0
VERTEX
  8
0
 62
7
  6
CONTINUOUS
 10
120.1956812666
 20
93.4111920748
  0
VERTEX
  8
0
 62
7
  6
CONTINUOUS
 10
120.2086227613
 20
93.5390995974
  0
VERTEX
  8
0
 62
7
  6
CONTINUOUS
 10
120.2306587516
 20
93.6658060379
  0
VERTEX
  8
0
 62
7
  6
CONTINUOUS
 10
120.2616920758
 20
93.7906779714
  0
VERTEX
  8
0
 62
7
  6
CONTINUOUS
 10
120.30158183
 20
93.9130841611
  0
VERTEX
  8
0
 62
7
  6
CONTINUOUS
 10
120.3501451077
 20
94.0324047183
  0
VERTEX
  8
0
 62
7
  6
CONTINUOUS
 10
120.4071583709
 20
94.1480342759
  0
VERTEX
  8
0
 62
7
  6
CONTINUOUS
 10
120.4723576251
 20
94.2593821015
  0
VERTEX
  8
0
 62
7
  6
CONTINUOUS
 10
120.5454351545
 20
94.3658692078
  0
VERTEX
  8
0
 62
7
  6
CONTINUOUS
 10
120.6260399815
 20
94.4669340433
  0
VERTEX
  8
0
 62
7
  6
CONTINUOUS
 10
120.7137817323
 20
94.5620401157
  0
VERTEX
  8
0
 62
7
  6
CONTINUOUS
 10
120.8082312405
 20
94.6506775639
  0
VERTEX
  8
0
 62
7
  6
CONTINUOUS
 10
120.9089167319
 20
94.7323620195
  0
VERTEX
  8
0
 62
7
  6
CONTINUOUS
 10
121.015329346
 20
94.8066427673
  0
VERTEX
  8
0
 62
7
  6
CONTINUOUS
 10
121.1269276155
 20
94.8731071792
  0
VERTEX
  8
0
 62
7
  6
CONTINUOUS
 10
121.2431355039
 20
94.9313807224
  0
VERTEX
  8
0
 62
7
  6
CONTINUOUS
 10
121.3633403157
 20
94.9811291719
  0
VERTEX
  8
0
 62
7
  6
CONTINUOUS
 10
121.4869037031
 20
95.0220664527
  0
VERTEX
  8
0
 62
7
  6
CONTINUOUS
 10
121.6131654518
 20
95.0539567257
  0
VERTEX
  8
0
 62
7
  6
CONTINUOUS
 10
121.7414500195
 20
95.0766164424
  0
VERTEX
  8
0
 62
7
  6
CONTINUOUS
 10
121.8710762528
 20
95.0899156194
  0
SEQEND
  0
LINE
  8
SURFACE
 62
7
  6
CONTINUOUS
 10
120.5991487193
 20
160.6480846445
 11
120.5947113597
 21
160.5216739621
  0
LINE
  8
0
 62
7
  6
CONTINUOUS
 10
120.0861145044
 20
71.279548667
 11
120.0905518586
 21
71.4059594769
  0
LINE
  8
SURFACE
 62
7
  6
CONTINUOUS
 10
120.6025149967
 20
160.7311674691
 11
120.5991487193
 21
160.6480846445
  0
LINE
  8
0
 62
7
  6
CONTINUOUS
 10
120.0827482331
 20
71.1964657658
 11
120.0861145044
 21
71.279548667
  0
LINE
  8
SURFACE
 62
7
  6
CONTINUOUS
 10
120.605969072
 20
160.8056534372
 11
120.6025149967
 21
160.7311674691
  0
LINE
  8
0
 62
7
  6
CONTINUOUS
 10
120.0792941655
 20
71.1219797426
 11
120.0827482331
 21
71.1964657658
  0
LINE
  8
SURFACE
 62
7
  6
CONTINUOUS
 10
120.6083661837
 20
160.8513695103
 11
120.605969072
 21
160.8056534372
  0
LINE
  8
0
 62
7
  6
CONTINUOUS
 10
120.0768970612
 20
71.0762636391
 11
120.0792941655
 21
71.1219797426
  0
LINE
  8
SURFACE
 62
7
  6
CONTINUOUS
 10
120.610892793
 20
160.8946721348
 11
120.6083661837
 21
160.8513695103
  0
LINE
  8
0
 62
7
  6
CONTINUOUS
 10
120.0743704593
 20
71.0329609743
 11
120.0768970612
 21
71.0762636391
  0
POLYLINE
  8
0
 62
7
  6
CONTINUOUS
 66
1
 70
0
  0
VERTEX
  8
0
 62
7
  6
CONTINUOUS
 10
87.3554409994
 20
94.5983302137
  0
VERTEX
  8
0
 62
7
  6
CONTINUOUS
 10
87.440194189
 20
94.6740623824
  0
VERTEX
  8
0
 62
7
  6
CONTINUOUS
 10
87.5395249542
 20
94.7515670174
  0
VERTEX
  8
0
 62
7
  6
CONTINUOUS
 10
87.644140743
 20
94.8219859165
  0
VERTEX
  8
0
 62
7
  6
CONTINUOUS
 10
87.7535318764
 20
94.8849446519
  0
VERTEX
  8
0
 62
7
  6
CONTINUOUS
 10
87.8671634401
 20
94.9401078417
  0
VERTEX
  8
0
 62
7
  6
CONTINUOUS
 10
87.9844768519
 20
94.9871798023
  0
VERTEX
  8
0
 62
7
  6
CONTINUOUS
 10
88.1048875336
 20
95.0259045871
  0
VERTEX
  8
0
 62
7
  6
CONTINUOUS
 10
88.2277863025
 20
95.0560690113
  0
VERTEX
  8
0
 62
7
  6
CONTINUOUS
 10
88.3525476275
 20
95.0775067804
  0
VERTEX
  8
0
 62
7
  6
CONTINUOUS
 10
88.4785372165
 20
95.0901005368
  0
SEQEND
  0
LINE
  8
0
 62
7
  6
CONTINUOUS
 10
121.8710762528
 20
95.0899156194
 11
121.9893398352
 21
95.0938157389
  0
LINE
  8
0
 62
7
  6
CONTINUOUS
 10
88.4785372165
 20
95.0901005368
 11
88.5939661617
 21
95.0938157414
  0
LINE
  8
0
 62
7
  6
CONTINUOUS
 10
54.9272769764
 20
95.090120473
 11
55.0425088013
 21
95.0938157395
  0
LINE
  8
0
 62
7
  6
CONTINUOUS
 10
155.411770207
 20
95.0938157895
 11
155.3773981483
 21
95.0934886245
  0
LINE
  8
0
 62
7
  6
CONTINUOUS
 10
233.6169085346
 20
95.0938157927
 11
233.6167731912
 21
95.0938157895
  0
LINE
  8
0
 62
7
  6
CONTINUOUS
 10
233.6167493156
 20
95.0938157895
 11
222.2934225319
 21
95.0938157895
  0
LINE
  8
0
 62
7
  6
CONTINUOUS
 10
202.2099220342
 20
95.0938157895
 11
188.856432882
 21
95.0938157895
  0
LINE
  8
0
 62
7
  6
CONTINUOUS
 10
168.8136102014
 20
95.0938157895
 11
155.411770207
 21
95.0938157895
  0
LINE
  8
0
 62
7
  6
CONTINUOUS
 10
135.4137463748
 20
95.0938157895
 11
121.9893397923
 21
95.0938157895
  0
LINE
  8
0
 62
7
  6
CONTINUOUS
 10
68.5281567813
 20
95.0938157895
 11
55.0425124933
 21
95.0938157895
  0
LINE
  8
0
 62
7
  6
CONTINUOUS
 10
88.5939698027
 20
95.0938157895
 11
101.9711579508
 21
95.0938157895
  0
LINE
  8
0
 62
7
  6
CONTINUOUS
 10
235.4526315789
 20
95.1377836839
 11
235.2491606886
 21
95.1377836839
  0
LINE
  8
0
 62
7
  6
CONTINUOUS
 10
135.4470602123
 20
95.0935077921
 11
135.4137501431
 21
95.0938157895
  0
POLYLINE
  8
0
 62
7
  6
CONTINUOUS
 66
1
 70
0
  0
VERTEX
  8
0
 62
7
  6
CONTINUOUS
 10
168.8136101568
 20
95.0938157388
  0
VERTEX
  8
0
 62
7
  6
CONTINUOUS
 10
168.9328685693
 20
95.0898496537
  0
VERTEX
  8
0
 62
7
  6
CONTINUOUS
 10
169.0624898534
 20
95.0764781361
  0
VERTEX
  8
0
 62
7
  6
CONTINUOUS
 10
169.1907638575
 20
95.0537465554
  0
VERTEX
  8
0
 62
7
  6
CONTINUOUS
 10
169.3170093776
 20
95.0217853893
  0
VERTEX
  8
0
 62
7
  6
CONTINUOUS
 10
169.4405510617
 20
94.9807786388
  0
VERTEX
  8
0
 62
7
  6
CONTINUOUS
 10
169.5607289207
 20
94.9309625602
  0
VERTEX
  8
0
 62
7
  6
CONTINUOUS
 10
169.6769048308
 20
94.8726236218
  0
VERTEX
  8
0
 62
7
  6
CONTINUOUS
 10
169.7884663448
 20
94.8060964148
  0
VERTEX
  8
0
 62
7
  6
CONTINUOUS
 10
169.8948376615
 20
94.7317558254
  0
VERTEX
  8
0
 62
7
  6
CONTINUOUS
 10
169.9954775651
 20
94.6500148143
  0
VERTEX
  8
0
 62
7
  6
CONTINUOUS
 10
170.089877471
 20
94.5613244069
  0
VERTEX
  8
0
 62
7
  6
CONTINUOUS
 10
170.1775659057
 20
94.4661692533
  0
VERTEX
  8
0
 62
7
  6
CONTINUOUS
 10
170.25811403
 20
94.3650594516
  0
VERTEX
  8
0
 62
7
  6
CONTINUOUS
 10
170.3311318106
 20
94.2585316972
  0
VERTEX
  8
0
 62
7
  6
CONTINUOUS
 10
170.3962686188
 20
94.1471477142
  0
VERTEX
  8
0
 62
7
  6
CONTINUOUS
 10
170.4532170788
 20
94.0314866611
  0
VERTEX
  8
0
 62
7
  6
CONTINUOUS
 10
170.5017135267
 20
93.9121394487
  0
VERTEX
  8
0
 62
7
  6
CONTINUOUS
 10
170.5415347719
 20
93.789711603
  0
VERTEX
  8
0
 62
7
  6
CONTINUOUS
 10
170.5724982648
 20
93.6648231918
  0
VERTEX
  8
0
 62
7
  6
CONTINUOUS
 10
170.5944634891
 20
93.5381055923
  0
VERTEX
  8
0
 62
7
  6
CONTINUOUS
 10
170.6073337029
 20
93.4101921114
  0
VERTEX
  8
0
 62
7
  6
CONTINUOUS
 10
170.6110943902
 20
93.2938157895
  0
SEQEND
  0
POLYLINE
  8
0
 62
7
  6
CONTINUOUS
 66
1
 70
0
  0
VERTEX
  8
0
 62
7
  6
CONTINUOUS
 10
202.2099220342
 20
95.0938157428
  0
VERTEX
  8
0
 62
7
  6
CONTINUOUS
 10
202.3327211
 20
95.0896139764
  0
VERTEX
  8
0
 62
7
  6
CONTINUOUS
 10
202.4643082946
 20
95.0757166631
  0
VERTEX
  8
0
 62
7
  6
CONTINUOUS
 10
202.5937332385
 20
95.0523506564
  0
VERTEX
  8
0
 62
7
  6
CONTINUOUS
 10
202.7203821949
 20
95.0198051349
  0
VERTEX
  8
0
 62
7
  6
CONTINUOUS
 10
202.843652984
 20
94.9784073294
  0
VERTEX
  8
0
 62
7
  6
CONTINUOUS
 10
202.9629425986
 20
94.9285340151
  0
VERTEX
  8
0
 62
7
  6
CONTINUOUS
 10
203.0776870296
 20
94.8706026312
  0
VERTEX
  8
0
 62
7
  6
CONTINUOUS
 10
203.1873704388
 20
94.80506337
  0
VERTEX
  8
0
 62
7
  6
CONTINUOUS
 10
203.2915946087
 20
94.7323414678
  0
VERTEX
  8
0
 62
7
  6
CONTINUOUS
 10
203.3900542395
 20
94.6528130381
  0
VERTEX
  8
0
 62
7
  6
CONTINUOUS
 10
203.4824564315
 20
94.5668408055
  0
VERTEX
  8
0
 62
7
  6
CONTINUOUS
 10
203.5685145791
 20
94.4747768714
  0
VERTEX
  8
0
 62
7
  6
CONTINUOUS
 10
203.6479840818
 20
94.3769123199
  0
VERTEX
  8
0
 62
7
  6
CONTINUOUS
 10
203.7206255576
 20
94.2734883836
  0
VERTEX
  8
0
 62
7
  6
CONTINUOUS
 10
203.7861595796
 20
94.164744924
  0
VERTEX
  8
0
 62
7
  6
CONTINUOUS
 10
203.8442620138
 20
94.0509396591
  0
VERTEX
  8
0
 62
7
  6
CONTINUOUS
 10
203.8945709788
 20
93.932351213
  0
VERTEX
  8
0
 62
7
  6
CONTINUOUS
 10
203.9366904719
 20
93.8092835547
  0
VERTEX
  8
0
 62
7
  6
CONTINUOUS
 10
203.9701901817
 20
93.6820806592
  0
VERTEX
  8
0
 62
7
  6
CONTINUOUS
 10
203.9946161437
 20
93.5510913242
  0
VERTEX
  8
0
 62
7
  6
CONTINUOUS
 10
204.0094813026
 20
93.4166514492
  0
VERTEX
  8
0
 62
7
  6
CONTINUOUS
 10
204.0142499969
 20
93.2896247187
  0
SEQEND
  0
POLYLINE
  8
0
 62
7
  6
CONTINUOUS
 66
1
 70
0
  0
VERTEX
  8
0
 62
7
  6
CONTINUOUS
 10
135.4470602123
 20
95.0935077921
  0
VERTEX
  8
0
 62
7
  6
CONTINUOUS
 10
135.5316292799
 20
95.0899544022
  0
VERTEX
  8
0
 62
7
  6
CONTINUOUS
 10
135.6604577265
 20
95.0768394476
  0
VERTEX
  8
0
 62
7
  6
CONTINUOUS
 10
135.788004962
 20
95.0545017745
  0
VERTEX
  8
0
 62
7
  6
CONTINUOUS
 10
135.9136214988
 20
95.0230537696
  0
VERTEX
  8
0
 62
7
  6
CONTINUOUS
 10
136.0366612257
 20
94.9826544097
  0
VERTEX
  8
0
 62
7
  6
CONTINUOUS
 10
136.1564895793
 20
94.9335083246
  0
VERTEX
  8
0
 62
7
  6
CONTINUOUS
 10
136.2724902146
 20
94.8758635268
  0
VERTEX
  8
0
 62
7
  6
CONTINUOUS
 10
136.3840661094
 20
94.8100103834
  0
VERTEX
  8
0
 62
7
  6
CONTINUOUS
 10
136.490636346
 20
94.7362845042
  0
VERTEX
  8
0
 62
7
  6
CONTINUOUS
 10
136.5916421694
 20
94.6550654852
  0
VERTEX
  8
0
 62
7
  6
CONTINUOUS
 10
136.6865549828
 20
94.5667720721
  0
VERTEX
  8
0
 62
7
  6
CONTINUOUS
 10
136.7748780792
 20
94.4718604475
  0
VERTEX
  8
0
 62
7
  6
CONTINUOUS
 10
136.8561463863
 20
94.3708255813
  0
VERTEX
  8
0
 62
7
  6
CONTINUOUS
 10
136.9299325413
 20
94.2641960312
  0
VERTEX
  8
0
 62
7
  6
CONTINUOUS
 10
136.9958501785
 20
94.152529617
  0
VERTEX
  8
0
 62
7
  6
CONTINUOUS
 10
137.0535557554
 20
94.0364099884
  0
VERTEX
  8
0
 62
7
  6
CONTINUOUS
 10
137.102750036
 20
93.9164429941
  0
VERTEX
  8
0
 62
7
  6
CONTINUOUS
 10
137.1431790126
 20
93.7932536884
  0
VERTEX
  8
0
 62
7
  6
CONTINUOUS
 10
137.1746345067
 20
93.6674849348
  0
VERTEX
  8
0
 62
7
  6
CONTINUOUS
 10
137.1969555067
 20
93.5397941481
  0
VERTEX
  8
0
 62
7
  6
CONTINUOUS
 10
137.2100302463
 20
93.4108422014
  0
VERTEX
  8
0
 62
7
  6
CONTINUOUS
 10
137.2138374406
 20
93.2938157895
  0
SEQEND
  0
POLYLINE
  8
0
 62
7
  6
CONTINUOUS
 66
1
 70
0
  0
VERTEX
  8
0
 62
7
  6
CONTINUOUS
 10
137.2103159558
 20
93.4074565207
  0
VERTEX
  8
0
 62
7
  6
CONTINUOUS
 10
137.1995052672
 20
93.5210747592
  0
VERTEX
  8
0
 62
7
  6
CONTINUOUS
 10
137.1814693976
 20
93.6340282971
  0
VERTEX
  8
0
 62
7
  6
CONTINUOUS
 10
137.1562784501
 20
93.7456796445
  0
VERTEX
  8
0
 62
7
  6
CONTINUOUS
 10
137.1240758104
 20
93.8554053223
  0
VERTEX
  8
0
 62
7
  6
CONTINUOUS
 10
137.0850539633
 20
93.9626585878
  0
VERTEX
  8
0
 62
7
  6
CONTINUOUS
 10
137.0393876917
 20
94.0670675994
  0
VERTEX
  8
0
 62
7
  6
CONTINUOUS
 10
136.9872538188
 20
94.1682912755
  0
VERTEX
  8
0
 62
7
  6
CONTINUOUS
 10
136.9288718195
 20
94.2659414016
  0
VERTEX
  8
0
 62
7
  6
CONTINUOUS
 10
136.8645137032
 20
94.3596026912
  0
VERTEX
  8
0
 62
7
  6
CONTINUOUS
 10
136.7944765613
 20
94.4488910501
  0
VERTEX
  8
0
 62
7
  6
CONTINUOUS
 10
136.7190682094
 20
94.5334644834
  0
VERTEX
  8
0
 62
7
  6
CONTINUOUS
 10
136.6386138284
 20
94.6130067074
  0
VERTEX
  8
0
 62
7
  6
CONTINUOUS
 10
136.5534489457
 20
94.6872309068
  0
VERTEX
  8
0
 62
7
  6
CONTINUOUS
 10
136.4639191099
 20
94.7558758731
  0
VERTEX
  8
0
 62
7
  6
CONTINUOUS
 10
136.3703900762
 20
94.8186971482
  0
VERTEX
  8
0
 62
7
  6
CONTINUOUS
 10
136.2732735161
 20
94.8754559928
  0
VERTEX
  8
0
 62
7
  6
CONTINUOUS
 10
136.1729876629
 20
94.9259505578
  0
VERTEX
  8
0
 62
7
  6
CONTINUOUS
 10
136.0698558595
 20
94.970052245
  0
VERTEX
  8
0
 62
7
  6
CONTINUOUS
 10
135.9641991773
 20
95.0076384547
  0
VERTEX
  8
0
 62
7
  6
CONTINUOUS
 10
135.8563731819
 20
95.0385822319
  0
VERTEX
  8
0
 62
7
  6
CONTINUOUS
 10
135.7468701559
 20
95.0627437349
  0
VERTEX
  8
0
 62
7
  6
CONTINUOUS
 10
135.6362321446
 20
95.0800232519
  0
VERTEX
  8
0
 62
7
  6
CONTINUOUS
 10
135.5250089223
 20
95.0903766135
  0
SEQEND
  0
POLYLINE
  8
0
 62
7
  6
CONTINUOUS
 66
1
 70
0
  0
VERTEX
  8
0
 62
7
  6
CONTINUOUS
 10
137.3229287037
 20
71.0014121238
  0
VERTEX
  8
0
 62
7
  6
CONTINUOUS
 10
137.3245968985
 20
70.9775919699
  0
VERTEX
  8
0
 62
7
  6
CONTINUOUS
 10
137.3263642117
 20
70.9541724076
  0
VERTEX
  8
0
 62
7
  6
CONTINUOUS
 10
137.3282626318
 20
70.9308957426
  0
VERTEX
  8
0
 62
7
  6
CONTINUOUS
 10
137.3303343558
 20
70.9074678055
  0
VERTEX
  8
0
 62
7
  6
CONTINUOUS
 10
137.3326353523
 20
70.8835508506
  0
VERTEX
  8
0
 62
7
  6
CONTINUOUS
 10
137.3352369836
 20
70.8587849844
  0
VERTEX
  8
0
 62
7
  6
CONTINUOUS
 10
137.3382327167
 20
70.8327654561
  0
VERTEX
  8
0
 62
7
  6
CONTINUOUS
 10
137.3417451899
 20
70.8050370766
  0
VERTEX
  8
0
 62
7
  6
CONTINUOUS
 10
137.3459268112
 20
70.7751480799
  0
VERTEX
  8
0
 62
7
  6
CONTINUOUS
 10
137.350947724
 20
70.742764384
  0
VERTEX
  8
0
 62
7
  6
CONTINUOUS
 10
137.3569912628
 20
70.7076797552
  0
VERTEX
  8
0
 62
7
  6
CONTINUOUS
 10
137.3641884776
 20
70.670108393
  0
VERTEX
  8
0
 62
7
  6
CONTINUOUS
 10
137.3725765577
 20
70.6306809981
  0
VERTEX
  8
0
 62
7
  6
CONTINUOUS
 10
137.3822679383
 20
70.5895478614
  0
VERTEX
  8
0
 62
7
  6
CONTINUOUS
 10
137.3937984982
 20
70.5452939166
  0
VERTEX
  8
0
 62
7
  6
CONTINUOUS
 10
137.4080697598
 20
70.4958670245
  0
VERTEX
  8
0
 62
7
  6
CONTINUOUS
 10
137.42614944
 20
70.4396405901
  0
VERTEX
  8
0
 62
7
  6
CONTINUOUS
 10
137.4486612944
 20
70.3770792684
  0
VERTEX
  8
0
 62
7
  6
CONTINUOUS
 10
137.4759660312
 20
70.3094386942
  0
VERTEX
  8
0
 62
7
  6
CONTINUOUS
 10
137.5084275102
 20
70.2377900112
  0
VERTEX
  8
0
 62
7
  6
CONTINUOUS
 10
137.546722374
 20
70.1624779639
  0
VERTEX
  8
0
 62
7
  6
CONTINUOUS
 10
137.5915742162
 20
70.0839166549
  0
VERTEX
  8
0
 62
7
  6
CONTINUOUS
 10
137.6436986432
 20
70.0026838263
  0
VERTEX
  8
0
 62
7
  6
CONTINUOUS
 10
137.7037818591
 20
69.9195185778
  0
VERTEX
  8
0
 62
7
  6
CONTINUOUS
 10
137.7726002437
 20
69.8351517966
  0
VERTEX
  8
0
 62
7
  6
CONTINUOUS
 10
137.8512524851
 20
69.7501373177
  0
VERTEX
  8
0
 62
7
  6
CONTINUOUS
 10
137.9407399803
 20
69.6654326872
  0
VERTEX
  8
0
 62
7
  6
CONTINUOUS
 10
138.040536419
 20
69.5834159335
  0
VERTEX
  8
0
 62
7
  6
CONTINUOUS
 10
138.1490323906
 20
69.5067437452
  0
VERTEX
  8
0
 62
7
  6
CONTINUOUS
 10
138.2641022984
 20
69.437602068
  0
VERTEX
  8
0
 62
7
  6
CONTINUOUS
 10
138.3837738848
 20
69.3773253996
  0
VERTEX
  8
0
 62
7
  6
CONTINUOUS
 10
138.5072827696
 20
69.3262270144
  0
VERTEX
  8
0
 62
7
  6
CONTINUOUS
 10
138.6340637421
 20
69.2844792362
  0
VERTEX
  8
0
 62
7
  6
CONTINUOUS
 10
138.7635558559
 20
69.2522418725
  0
VERTEX
  8
0
 62
7
  6
CONTINUOUS
 10
138.8952011011
 20
69.2296644387
  0
VERTEX
  8
0
 62
7
  6
CONTINUOUS
 10
139.0284373242
 20
69.216888991
  0
VERTEX
  8
0
 62
7
  6
CONTINUOUS
 10
139.1336033272
 20
69.2138159009
  0
SEQEND
  0
LINE
  8
0
 62
7
  6
CONTINUOUS
 10
137.3197996056
 20
71.051106932
 11
137.3229287037
 21
71.0014121238
  0
LINE
  8
0
 62
7
  6
CONTINUOUS
 10
137.3168473285
 20
71.1046818978
 11
137.3197996056
 21
71.051106932
  0
LINE
  8
0
 62
7
  6
CONTINUOUS
 10
137.3139973001
 20
71.16320746
 11
137.3168473285
 21
71.1046818978
  0
LINE
  8
0
 62
7
  6
CONTINUOUS
 10
137.3112049316
 20
71.2275285623
 11
137.3139973001
 21
71.16320746
  0
LINE
  8
0
 62
7
  6
CONTINUOUS
 10
137.3070527304
 20
71.3367969811
 11
137.3112049316
 21
71.2275285623
  0
LINE
  8
0
 62
7
  6
CONTINUOUS
 10
137.3028865845
 20
71.4637779225
 11
137.3070527304
 21
71.3367969811
  0
LINE
  8
0
 62
7
  6
CONTINUOUS
 10
137.2972505774
 20
71.6649308339
 11
137.3028865845
 21
71.4637779225
  0
LINE
  8
SURFACE
 62
7
  6
CONTINUOUS
 10
136.8123716777
 20
160.0826194133
 11
136.8051783469
 21
160.3681974425
  0
LINE
  8
0
 62
7
  6
CONTINUOUS
 10
137.2898858046
 20
71.9822869323
 11
137.2972505774
 21
71.6649308339
  0
LINE
  8
SURFACE
 62
7
  6
CONTINUOUS
 10
136.820073039
 20
159.708364696
 11
136.8123716777
 21
160.0826194133
  0
LINE
  8
0
 62
7
  6
CONTINUOUS
 10
137.2819225203
 20
72.4011980327
 11
137.2898858046
 21
71.9822869323
  0
LINE
  8
SURFACE
 62
7
  6
CONTINUOUS
 10
136.8284414152
 20
159.2126529548
 11
136.820073039
 21
159.708364696
  0
LINE
  8
0
 62
7
  6
CONTINUOUS
 10
137.2733179653
 20
72.9529616359
 11
137.2819225203
 21
72.4011980327
  0
LINE
  8
SURFACE
 62
7
  6
CONTINUOUS
 10
136.8372980582
 20
158.5726558834
 11
136.8284414152
 21
159.2126529548
  0
LINE
  8
0
 62
7
  6
CONTINUOUS
 10
137.2643555297
 20
73.6546481312
 11
137.2733179653
 21
72.9529616359
  0
LINE
  8
SURFACE
 62
7
  6
CONTINUOUS
 10
136.8463738595
 20
157.7700694894
 11
136.8372980582
 21
158.5726558834
  0
LINE
  8
0
 62
7
  6
CONTINUOUS
 10
137.2570561471
 20
74.3408017349
 11
137.2643555297
 21
73.6546481312
  0
LINE
  8
SURFACE
 62
7
  6
CONTINUOUS
 10
136.8537224415
 20
156.9852206441
 11
136.8463738595
 21
157.7700694894
  0
LINE
  8
0
 62
7
  6
CONTINUOUS
 10
137.2497028092
 20
75.1615158358
 11
137.2570561471
 21
74.3408017349
  0
LINE
  8
SURFACE
 62
7
  6
CONTINUOUS
 10
136.8610390479
 20
156.0475669623
 11
136.8537224415
 21
156.9852206441
  0
LINE
  8
0
 62
7
  6
CONTINUOUS
 10
137.2424184614
 20
76.1415263696
 11
137.2497028092
 21
75.1615158358
  0
LINE
  8
SURFACE
 62
7
  6
CONTINUOUS
 10
136.8681683004
 20
154.926148365
 11
136.8610390479
 21
156.0475669623
  0
LINE
  8
0
 62
7
  6
CONTINUOUS
 10
137.2353625817
 20
77.3159499568
 11
137.2424184614
 21
76.1415263696
  0
LINE
  8
SURFACE
 62
7
  6
CONTINUOUS
 10
136.8732724665
 20
153.9361923104
 11
136.8681683004
 21
154.926148365
  0
LINE
  8
0
 62
7
  6
CONTINUOUS
 10
137.2303641493
 20
78.3541026002
 11
137.2353625817
 21
77.3159499568
  0
LINE
  8
SURFACE
 62
7
  6
CONTINUOUS
 10
136.8732724665
 20
153.9361923104
 11
136.877029874
 21
153.0541018213
  0
LINE
  8
0
 62
7
  6
CONTINUOUS
 10
137.2258074954
 20
79.5142334447
 11
137.2303641493
 21
78.3541026002
  0
LINE
  8
SURFACE
 62
7
  6
CONTINUOUS
 10
136.8817108314
 20
151.7484170822
 11
136.877029873
 21
153.0541017705
  0
LINE
  8
0
 62
7
  6
CONTINUOUS
 10
137.2215257942
 20
80.8537739803
 11
137.2258074954
 21
79.5142334447
  0
LINE
  8
SURFACE
 62
7
  6
CONTINUOUS
 10
136.8855322138
 20
150.3907407862
 11
136.8817108314
 21
151.7484170822
  0
LINE
  8
0
 62
7
  6
CONTINUOUS
 10
137.2181704825
 20
82.2275298422
 11
137.2215257942
 21
80.8537739803
  0
LINE
  8
SURFACE
 62
7
  6
CONTINUOUS
 10
136.8884163889
 20
149.0029855833
 11
136.8855322138
 21
150.3907407862
  0
LINE
  8
0
 62
7
  6
CONTINUOUS
 10
137.2157618294
 20
83.6271741648
 11
137.2181704825
 21
82.2275298422
  0
LINE
  8
SURFACE
 62
7
  6
CONTINUOUS
 10
136.8903458204
 20
147.5936022358
 11
136.8884163889
 21
149.0029855833
  0
LINE
  8
0
 62
7
  6
CONTINUOUS
 10
137.2143145874
 20
85.0441143442
 11
137.2157618294
 21
83.6271741648
  0
LINE
  8
SURFACE
 62
7
  6
CONTINUOUS
 10
136.8913086782
 20
146.1712968578
 11
136.8903458204
 21
147.5936022358
  0
LINE
  8
0
 62
7
  6
CONTINUOUS
 10
137.2138374862
 20
86.4557868297
 11
137.2143145874
 21
85.0441143442
  0
LINE
  8
SURFACE
 62
7
  6
CONTINUOUS
 10
136.8913086782
 20
146.1712968578
 11
136.8914256717
 21
138.6338157895
  0
LINE
  8
DEFAULT_1
 62
2
  6
CENTER
 10
137.0526315789
 20
121.2138157895
 11
137.0526315789
 21
117.9639157895
  0
LINE
  8
0
 62
2
  6
CONTINUOUS
 10
137.0526315789
 20
117.0138157895
 11
137.0526315789
 21
114.9138157895
  0
LINE
  8
DEFAULT_1
 62
2
  6
CENTER
 10
137.0526315789
 20
110.7138157895
 11
137.0526315789
 21
113.9637157895
  0
LINE
  8
0
 62
7
  6
CONTINUOUS
 10
137.2138374862
 20
86.4557868297
 11
137.2138374862
 21
93.2938157895
  0
LINE
  8
DEFAULT_1
 62
2
  6
CENTER
 10
142.3026315789
 20
115.9638157895
 11
139.0527315789
 21
115.9638157895
  0
LINE
  8
0
 62
2
  6
CONTINUOUS
 10
138.1026315789
 20
115.9638157895
 11
136.0026315789
 21
115.9638157895
  0
LINE
  8
DEFAULT_1
 62
2
  6
CENTER
 10
131.8026315789
 20
115.9638157895
 11
135.0525315789
 21
115.9638157895
  0
POLYLINE
  8
SURFACE
 62
7
  6
CONTINUOUS
 66
1
 70
0
  0
VERTEX
  8
SURFACE
 62
7
  6
CONTINUOUS
 10
136.8949472021
 20
138.5201750582
  0
VERTEX
  8
SURFACE
 62
7
  6
CONTINUOUS
 10
136.9057578907
 20
138.4065568198
  0
VERTEX
  8
SURFACE
 62
7
  6
CONTINUOUS
 10
136.9237937603
 20
138.2936032819
  0
VERTEX
  8
SURFACE
 62
7
  6
CONTINUOUS
 10
136.9489847078
 20
138.1819519344
  0
VERTEX
  8
SURFACE
 62
7
  6
CONTINUOUS
 10
136.9811873475
 20
138.0722262566
  0
VERTEX
  8
SURFACE
 62
7
  6
CONTINUOUS
 10
137.0202091946
 20
137.9649729912
  0
VERTEX
  8
SURFACE
 62
7
  6
CONTINUOUS
 10
137.0658754662
 20
137.8605639795
  0
VERTEX
  8
SURFACE
 62
7
  6
CONTINUOUS
 10
137.1180093391
 20
137.7593403034
  0
VERTEX
  8
SURFACE
 62
7
  6
CONTINUOUS
 10
137.1763913384
 20
137.6616901773
  0
VERTEX
  8
SURFACE
 62
7
  6
CONTINUOUS
 10
137.2407494547
 20
137.5680288878
  0
VERTEX
  8
SURFACE
 62
7
  6
CONTINUOUS
 10
137.3107865966
 20
137.4787405289
  0
VERTEX
  8
SURFACE
 62
7
  6
CONTINUOUS
 10
137.3861949485
 20
137.3941670955
  0
VERTEX
  8
SURFACE
 62
7
  6
CONTINUOUS
 10
137.4666493295
 20
137.3146248716
  0
VERTEX
  8
SURFACE
 62
7
  6
CONTINUOUS
 10
137.5518142122
 20
137.2404006721
  0
VERTEX
  8
SURFACE
 62
7
  6
CONTINUOUS
 10
137.641344048
 20
137.1717557059
  0
VERTEX
  8
SURFACE
 62
7
  6
CONTINUOUS
 10
137.7348730817
 20
137.1089344307
  0
VERTEX
  8
SURFACE
 62
7
  6
CONTINUOUS
 10
137.8319896418
 20
137.0521755862
  0
VERTEX
  8
SURFACE
 62
7
  6
CONTINUOUS
 10
137.932275495
 20
137.0016810212
  0
VERTEX
  8
SURFACE
 62
7
  6
CONTINUOUS
 10
138.0354072984
 20
136.957579334
  0
VERTEX
  8
SURFACE
 62
7
  6
CONTINUOUS
 10
138.1410639806
 20
136.9199931243
  0
VERTEX
  8
SURFACE
 62
7
  6
CONTINUOUS
 10
138.248889976
 20
136.8890493471
  0
VERTEX
  8
SURFACE
 62
7
  6
CONTINUOUS
 10
138.358393002
 20
136.864887844
  0
VERTEX
  8
SURFACE
 62
7
  6
CONTINUOUS
 10
138.4690310133
 20
136.847608327
  0
VERTEX
  8
SURFACE
 62
7
  6
CONTINUOUS
 10
138.5802542356
 20
136.8372549654
  0
SEQEND
  0
POLYLINE
  8
SURFACE
 62
7
  6
CONTINUOUS
 66
1
 70
0
  0
VERTEX
  8
SURFACE
 62
7
  6
CONTINUOUS
 10
136.7823344542
 20
160.9262194552
  0
VERTEX
  8
SURFACE
 62
7
  6
CONTINUOUS
 10
136.7806662594
 20
160.9500396091
  0
VERTEX
  8
SURFACE
 62
7
  6
CONTINUOUS
 10
136.7788989462
 20
160.9734591713
  0
VERTEX
  8
SURFACE
 62
7
  6
CONTINUOUS
 10
136.7770005261
 20
160.9967358363
  0
VERTEX
  8
SURFACE
 62
7
  6
CONTINUOUS
 10
136.7749288021
 20
161.0201637735
  0
VERTEX
  8
SURFACE
 62
7
  6
CONTINUOUS
 10
136.7726278056
 20
161.0440807284
  0
VERTEX
  8
SURFACE
 62
7
  6
CONTINUOUS
 10
136.7700261743
 20
161.0688465945
  0
VERTEX
  8
SURFACE
 62
7
  6
CONTINUOUS
 10
136.7670304412
 20
161.0948661228
  0
VERTEX
  8
SURFACE
 62
7
  6
CONTINUOUS
 10
136.763517968
 20
161.1225945024
  0
VERTEX
  8
SURFACE
 62
7
  6
CONTINUOUS
 10
136.7593363467
 20
161.152483499
  0
VERTEX
  8
SURFACE
 62
7
  6
CONTINUOUS
 10
136.7543154339
 20
161.184867195
  0
VERTEX
  8
SURFACE
 62
7
  6
CONTINUOUS
 10
136.7482718951
 20
161.2199518238
  0
VERTEX
  8
SURFACE
 62
7
  6
CONTINUOUS
 10
136.7410746803
 20
161.257523186
  0
VERTEX
  8
SURFACE
 62
7
  6
CONTINUOUS
 10
136.7326866002
 20
161.2969505809
  0
VERTEX
  8
SURFACE
 62
7
  6
CONTINUOUS
 10
136.7229952196
 20
161.3380837176
  0
VERTEX
  8
SURFACE
 62
7
  6
CONTINUOUS
 10
136.7114646597
 20
161.3823376624
  0
VERTEX
  8
SURFACE
 62
7
  6
CONTINUOUS
 10
136.6971933981
 20
161.4317645544
  0
VERTEX
  8
SURFACE
 62
7
  6
CONTINUOUS
 10
136.6791137179
 20
161.4879909888
  0
VERTEX
  8
SURFACE
 62
7
  6
CONTINUOUS
 10
136.6566018635
 20
161.5505523106
  0
VERTEX
  8
SURFACE
 62
7
  6
CONTINUOUS
 10
136.6292971267
 20
161.6181928848
  0
VERTEX
  8
SURFACE
 62
7
  6
CONTINUOUS
 10
136.5968356477
 20
161.6898415678
  0
VERTEX
  8
SURFACE
 62
7
  6
CONTINUOUS
 10
136.5585407839
 20
161.765153615
  0
VERTEX
  8
SURFACE
 62
7
  6
CONTINUOUS
 10
136.5136889417
 20
161.843714924
  0
VERTEX
  8
SURFACE
 62
7
  6
CONTINUOUS
 10
136.4615645147
 20
161.9249477526
  0
VERTEX
  8
SURFACE
 62
7
  6
CONTINUOUS
 10
136.4014812988
 20
162.0081130011
  0
VERTEX
  8
SURFACE
 62
7
  6
CONTINUOUS
 10
136.3326629142
 20
162.0924797824
  0
VERTEX
  8
SURFACE
 62
7
  6
CONTINUOUS
 10
136.2540106728
 20
162.1774942613
  0
VERTEX
  8
SURFACE
 62
7
  6
CONTINUOUS
 10
136.1645231776
 20
162.2621988917
  0
VERTEX
  8
SURFACE
 62
7
  6
CONTINUOUS
 10
136.0647267389
 20
162.3442156455
  0
VERTEX
  8
SURFACE
 62
7
  6
CONTINUOUS
 10
135.9562307673
 20
162.4208878338
  0
VERTEX
  8
SURFACE
 62
7
  6
CONTINUOUS
 10
135.8411608595
 20
162.4900295109
  0
VERTEX
  8
SURFACE
 62
7
  6
CONTINUOUS
 10
135.7214892731
 20
162.5503061793
  0
VERTEX
  8
SURFACE
 62
7
  6
CONTINUOUS
 10
135.5979803883
 20
162.6014045645
  0
VERTEX
  8
SURFACE
 62
7
  6
CONTINUOUS
 10
135.4711994158
 20
162.6431523428
  0
VERTEX
  8
SURFACE
 62
7
  6
CONTINUOUS
 10
135.341707302
 20
162.6753897065
  0
VERTEX
  8
SURFACE
 62
7
  6
CONTINUOUS
 10
135.2100620568
 20
162.6979671403
  0
VERTEX
  8
SURFACE
 62
7
  6
CONTINUOUS
 10
135.0768258337
 20
162.710742588
  0
VERTEX
  8
SURFACE
 62
7
  6
CONTINUOUS
 10
134.9716598307
 20
162.7138156781
  0
SEQEND
  0
LINE
  8
SURFACE
 62
7
  6
CONTINUOUS
 10
136.7854635523
 20
160.8765246469
 11
136.7823344542
 21
160.9262194552
  0
LINE
  8
SURFACE
 62
7
  6
CONTINUOUS
 10
136.7884158294
 20
160.8229496812
 11
136.7854635523
 21
160.8765246469
  0
LINE
  8
SURFACE
 62
7
  6
CONTINUOUS
 10
136.7912658578
 20
160.764424119
 11
136.7884158294
 21
160.8229496812
  0
LINE
  8
SURFACE
 62
7
  6
CONTINUOUS
 10
136.7940582262
 20
160.7001030167
 11
136.7912658578
 21
160.764424119
  0
LINE
  8
SURFACE
 62
7
  6
CONTINUOUS
 10
136.7982104275
 20
160.5908345978
 11
136.7940582262
 21
160.7001030167
  0
LINE
  8
SURFACE
 62
7
  6
CONTINUOUS
 10
136.8023765734
 20
160.4638536565
 11
136.7982104275
 21
160.5908345978
  0
LINE
  8
SURFACE
 62
7
  6
CONTINUOUS
 10
136.8051783469
 20
160.3681974425
 11
136.8023765734
 21
160.4638536565
  0
LINE
  8
SURFACE
 62
7
  6
CONTINUOUS
 10
154.0147112993
 20
160.5216721021
 11
154.0091637611
 21
160.3348911594
  0
LINE
  8
SURFACE
 62
7
  6
CONTINUOUS
 10
154.0191486535
 20
160.648082912
 11
154.0147112993
 21
160.5216721021
  0
LINE
  8
SURFACE
 62
7
  6
CONTINUOUS
 10
154.0225149248
 20
160.7311658132
 11
154.0191486535
 21
160.648082912
  0
LINE
  8
SURFACE
 62
7
  6
CONTINUOUS
 10
154.0259689924
 20
160.8056518364
 11
154.0225149248
 21
160.7311658132
  0
LINE
  8
SURFACE
 62
7
  6
CONTINUOUS
 10
154.0283660967
 20
160.8513679398
 11
154.0259689924
 21
160.8056518364
  0
LINE
  8
SURFACE
 62
7
  6
CONTINUOUS
 10
154.0308926986
 20
160.8946706046
 11
154.0283660967
 21
160.8513679398
  0
LINE
  8
0
 62
7
  6
CONTINUOUS
 10
153.60885586
 20
87.76429979
 11
153.6089763621
 21
93.2938157895
  0
LINE
  8
SURFACE
 62
7
  6
CONTINUOUS
 10
153.9135282588
 20
143.4389528764
 11
153.9134076004
 21
138.6338157895
  0
LINE
  8
0
 62
7
  6
CONTINUOUS
 10
153.6078606741
 20
86.2959233179
 11
153.60885586
 21
87.76429979
  0
LINE
  8
SURFACE
 62
7
  6
CONTINUOUS
 10
153.9145240307
 20
144.9094313575
 11
153.9135282588
 21
143.4389528764
  0
LINE
  8
0
 62
7
  6
CONTINUOUS
 10
153.605862093
 20
84.8372984504
 11
153.6078606741
 21
86.2959233179
  0
LINE
  8
SURFACE
 62
7
  6
CONTINUOUS
 10
153.9165221633
 20
146.3686497521
 11
153.9145240307
 21
144.9094313575
  0
LINE
  8
0
 62
7
  6
CONTINUOUS
 10
153.6028695604
 20
83.3981488545
 11
153.605862093
 21
84.8372984504
  0
LINE
  8
SURFACE
 62
7
  6
CONTINUOUS
 10
153.9195118668
 20
147.8070684128
 11
153.9165221633
 21
146.3686497521
  0
LINE
  8
0
 62
7
  6
CONTINUOUS
 10
153.5988997528
 20
81.9879917957
 11
153.6028695604
 21
83.3981488545
  0
LINE
  8
SURFACE
 62
7
  6
CONTINUOUS
 10
153.9234753229
 20
149.2153221269
 11
153.9195118668
 21
147.8070684128
  0
LINE
  8
0
 62
7
  6
CONTINUOUS
 10
153.5940264877
 20
80.6286928015
 11
153.5988997528
 21
81.9879917957
  0
LINE
  8
SURFACE
 62
7
  6
CONTINUOUS
 10
153.92833752
 20
150.5716501361
 11
153.9234753229
 21
149.2153221269
  0
LINE
  8
SURFACE
 62
7
  6
CONTINUOUS
 10
153.9451659953
 20
154.5747217615
 11
153.9283374846
 21
150.5716519826
  0
LINE
  8
0
 62
7
  6
CONTINUOUS
 10
153.5800971598
 20
77.3529092671
 11
153.5940264873
 21
80.6286928295
  0
LINE
  8
SURFACE
 62
7
  6
CONTINUOUS
 10
153.9548160088
 20
156.1304039316
 11
153.9451659953
 21
154.5747217615
  0
LINE
  8
0
 62
7
  6
CONTINUOUS
 10
153.5704471434
 20
75.797226846
 11
153.5800971598
 21
77.3529092671
  0
LINE
  8
SURFACE
 62
7
  6
CONTINUOUS
 10
153.9662444412
 20
157.5031636076
 11
153.9548160088
 21
156.1304039316
  0
LINE
  8
0
 62
7
  6
CONTINUOUS
 10
153.5590187004
 20
74.4244662766
 11
153.5704471434
 21
75.797226846
  0
LINE
  8
SURFACE
 62
7
  6
CONTINUOUS
 10
153.9790121945
 20
158.6551444706
 11
153.9662444412
 21
157.5031636076
  0
LINE
  8
0
 62
7
  6
CONTINUOUS
 10
153.546250928
 20
73.2724843583
 11
153.5590187004
 21
74.4244662766
  0
LINE
  8
SURFACE
 62
7
  6
CONTINUOUS
 10
153.9925632535
 20
159.5632476902
 11
153.9790121945
 21
158.6551444706
  0
LINE
  8
0
 62
7
  6
CONTINUOUS
 10
153.5326998525
 20
72.364380936
 11
153.546250928
 21
73.2724843583
  0
LINE
  8
SURFACE
 62
7
  6
CONTINUOUS
 10
154.0023294889
 20
160.0577816097
 11
153.9925632535
 21
159.5632476902
  0
LINE
  8
0
 62
7
  6
CONTINUOUS
 10
153.5229336161
 20
71.8698476154
 11
153.5326998525
 21
72.364380936
  0
LINE
  8
SURFACE
 62
7
  6
CONTINUOUS
 10
154.0091637611
 20
160.3348911594
 11
154.0023294889
 21
160.0577816097
  0
LINE
  8
0
 62
7
  6
CONTINUOUS
 10
153.5160993414
 20
71.5927383834
 11
153.5229336161
 21
71.8698476154
  0
LINE
  8
0
 62
7
  6
CONTINUOUS
 10
153.5105517982
 20
71.4059576168
 11
153.5160993414
 21
71.5927383834
  0
POLYLINE
  8
0
 62
7
  6
CONTINUOUS
 66
1
 70
0
  0
VERTEX
  8
0
 62
7
  6
CONTINUOUS
 10
153.6089078234
 20
93.2938120674
  0
VERTEX
  8
0
 62
7
  6
CONTINUOUS
 10
153.6127730239
 20
93.4105739494
  0
VERTEX
  8
0
 62
7
  6
CONTINUOUS
 10
153.6256835127
 20
93.5383028263
  0
VERTEX
  8
0
 62
7
  6
CONTINUOUS
 10
153.6476921033
 20
93.6648494977
  0
VERTEX
  8
0
 62
7
  6
CONTINUOUS
 10
153.6787053025
 20
93.7895854253
  0
VERTEX
  8
0
 62
7
  6
CONTINUOUS
 10
153.7185867368
 20
93.9118837308
  0
VERTEX
  8
0
 62
7
  6
CONTINUOUS
 10
153.7671591346
 20
94.0311288284
  0
VERTEX
  8
0
 62
7
  6
CONTINUOUS
 10
153.824205465
 20
94.1467185987
  0
VERTEX
  8
0
 62
7
  6
CONTINUOUS
 10
153.8894687908
 20
94.2580640557
  0
VERTEX
  8
0
 62
7
  6
CONTINUOUS
 10
153.9626480388
 20
94.3645854349
  0
VERTEX
  8
0
 62
7
  6
CONTINUOUS
 10
154.0433980663
 20
94.4657183408
  0
VERTEX
  8
0
 62
7
  6
CONTINUOUS
 10
154.1313337102
 20
94.5609222639
  0
VERTEX
  8
0
 62
7
  6
CONTINUOUS
 10
154.2260301378
 20
94.6496821827
  0
VERTEX
  8
0
 62
7
  6
CONTINUOUS
 10
154.3270181493
 20
94.7315070519
  0
VERTEX
  8
0
 62
7
  6
CONTINUOUS
 10
154.4337898533
 20
94.8059387081
  0
VERTEX
  8
0
 62
7
  6
CONTINUOUS
 10
154.5458034107
 20
94.8725568375
  0
VERTEX
  8
0
 62
7
  6
CONTINUOUS
 10
154.6624806295
 20
94.9309789811
  0
VERTEX
  8
0
 62
7
  6
CONTINUOUS
 10
154.7832039704
 20
94.9808627785
  0
VERTEX
  8
0
 62
7
  6
CONTINUOUS
 10
154.9073286417
 20
95.0219148167
  0
VERTEX
  8
0
 62
7
  6
CONTINUOUS
 10
155.0341868508
 20
95.05389305
  0
VERTEX
  8
0
 62
7
  6
CONTINUOUS
 10
155.1630951654
 20
95.076609068
  0
VERTEX
  8
0
 62
7
  6
CONTINUOUS
 10
155.2933642044
 20
95.0899292268
  0
VERTEX
  8
0
 62
7
  6
CONTINUOUS
 10
155.3773448812
 20
95.093487419
  0
SEQEND
  0
POLYLINE
  8
SURFACE
 62
7
  6
CONTINUOUS
 66
1
 70
0
  0
VERTEX
  8
SURFACE
 62
7
  6
CONTINUOUS
 10
153.9134075543
 20
138.6338157895
  0
VERTEX
  8
SURFACE
 62
7
  6
CONTINUOUS
 10
153.9095818913
 20
138.5164395041
  0
VERTEX
  8
SURFACE
 62
7
  6
CONTINUOUS
 10
153.8966403966
 20
138.3885319815
  0
VERTEX
  8
SURFACE
 62
7
  6
CONTINUOUS
 10
153.8746044063
 20
138.261825541
  0
VERTEX
  8
SURFACE
 62
7
  6
CONTINUOUS
 10
153.8435710821
 20
138.1369536075
  0
VERTEX
  8
SURFACE
 62
7
  6
CONTINUOUS
 10
153.8036813279
 20
138.0145474179
  0
VERTEX
  8
SURFACE
 62
7
  6
CONTINUOUS
 10
153.7551180502
 20
137.8952268606
  0
VERTEX
  8
SURFACE
 62
7
  6
CONTINUOUS
 10
153.698104787
 20
137.7795973031
  0
VERTEX
  8
SURFACE
 62
7
  6
CONTINUOUS
 10
153.6329055328
 20
137.6682494774
  0
VERTEX
  8
SURFACE
 62
7
  6
CONTINUOUS
 10
153.5598280034
 20
137.5617623712
  0
VERTEX
  8
SURFACE
 62
7
  6
CONTINUOUS
 10
153.4792231764
 20
137.4606975357
  0
VERTEX
  8
SURFACE
 62
7
  6
CONTINUOUS
 10
153.3914814256
 20
137.3655914632
  0
VERTEX
  8
SURFACE
 62
7
  6
CONTINUOUS
 10
153.2970319174
 20
137.276954015
  0
VERTEX
  8
SURFACE
 62
7
  6
CONTINUOUS
 10
153.196346426
 20
137.1952695595
  0
VERTEX
  8
SURFACE
 62
7
  6
CONTINUOUS
 10
153.0899338119
 20
137.1209888116
  0
VERTEX
  8
SURFACE
 62
7
  6
CONTINUOUS
 10
152.9783355424
 20
137.0545243997
  0
VERTEX
  8
SURFACE
 62
7
  6
CONTINUOUS
 10
152.862127654
 20
136.9962508565
  0
VERTEX
  8
SURFACE
 62
7
  6
CONTINUOUS
 10
152.7419228422
 20
136.946502407
  0
VERTEX
  8
SURFACE
 62
7
  6
CONTINUOUS
 10
152.6183594548
 20
136.9055651262
  0
VERTEX
  8
SURFACE
 62
7
  6
CONTINUOUS
 10
152.4920977061
 20
136.8736748533
  0
VERTEX
  8
SURFACE
 62
7
  6
CONTINUOUS
 10
152.3638131384
 20
136.8510151365
  0
VERTEX
  8
SURFACE
 62
7
  6
CONTINUOUS
 10
152.2341869051
 20
136.8377159596
  0
SEQEND
  0
LINE
  8
0
 62
7
  6
CONTINUOUS
 10
153.5061144386
 20
71.2795469344
 11
153.5105517982
 21
71.4059576168
  0
LINE
  8
0
 62
7
  6
CONTINUOUS
 10
153.5027481612
 20
71.1964641098
 11
153.5061144386
 21
71.2795469344
  0
LINE
  8
0
 62
7
  6
CONTINUOUS
 10
153.4992940859
 20
71.1219781418
 11
153.5027481612
 21
71.1964641098
  0
LINE
  8
0
 62
7
  6
CONTINUOUS
 10
153.4968969742
 20
71.0762620687
 11
153.4992940859
 21
71.1219781418
  0
LINE
  8
0
 62
7
  6
CONTINUOUS
 10
153.4943703649
 20
71.0329594442
 11
153.4968969742
 21
71.0762620687
  0
POLYLINE
  8
SURFACE
 62
7
  6
CONTINUOUS
 66
1
 70
0
  0
VERTEX
  8
SURFACE
 62
7
  6
CONTINUOUS
 10
186.7498221585
 20
137.3293013652
  0
VERTEX
  8
SURFACE
 62
7
  6
CONTINUOUS
 10
186.6650689689
 20
137.2535691965
  0
VERTEX
  8
SURFACE
 62
7
  6
CONTINUOUS
 10
186.5657382037
 20
137.1760645616
  0
VERTEX
  8
SURFACE
 62
7
  6
CONTINUOUS
 10
186.4611224149
 20
137.1056456625
  0
VERTEX
  8
SURFACE
 62
7
  6
CONTINUOUS
 10
186.3517312815
 20
137.042686927
  0
VERTEX
  8
SURFACE
 62
7
  6
CONTINUOUS
 10
186.2380997178
 20
136.9875237372
  0
VERTEX
  8
SURFACE
 62
7
  6
CONTINUOUS
 10
186.120786306
 20
136.9404517766
  0
VERTEX
  8
SURFACE
 62
7
  6
CONTINUOUS
 10
186.0003756243
 20
136.9017269919
  0
VERTEX
  8
SURFACE
 62
7
  6
CONTINUOUS
 10
185.8774768554
 20
136.8715625676
  0
VERTEX
  8
SURFACE
 62
7
  6
CONTINUOUS
 10
185.7527155304
 20
136.8501247985
  0
VERTEX
  8
SURFACE
 62
7
  6
CONTINUOUS
 10
185.6267259414
 20
136.8375310422
  0
SEQEND
  0
POLYLINE
  8
SURFACE
 62
7
  6
CONTINUOUS
 66
1
 70
0
  0
VERTEX
  8
SURFACE
 62
7
  6
CONTINUOUS
 10
118.8063517002
 20
136.8373461082
  0
VERTEX
  8
SURFACE
 62
7
  6
CONTINUOUS
 10
118.919210715
 20
136.8479789712
  0
VERTEX
  8
SURFACE
 62
7
  6
CONTINUOUS
 10
119.0314529194
 20
136.8657248833
  0
VERTEX
  8
SURFACE
 62
7
  6
CONTINUOUS
 10
119.142465635
 20
136.8905249073
  0
VERTEX
  8
SURFACE
 62
7
  6
CONTINUOUS
 10
119.251647885
 20
136.9222517301
  0
VERTEX
  8
SURFACE
 62
7
  6
CONTINUOUS
 10
119.3584687288
 20
136.960731743
  0
VERTEX
  8
SURFACE
 62
7
  6
CONTINUOUS
 10
119.4625686433
 20
137.0058111059
  0
VERTEX
  8
SURFACE
 62
7
  6
CONTINUOUS
 10
119.563618974
 20
137.0573377744
  0
VERTEX
  8
SURFACE
 62
7
  6
CONTINUOUS
 10
119.6612374201
 20
137.1151182841
  0
VERTEX
  8
SURFACE
 62
7
  6
CONTINUOUS
 10
119.7550026571
 20
137.178902622
  0
VERTEX
  8
SURFACE
 62
7
  6
CONTINUOUS
 10
119.8445221834
 20
137.2484150097
  0
VERTEX
  8
SURFACE
 62
7
  6
CONTINUOUS
 10
119.9294489284
 20
137.3233732556
  0
VERTEX
  8
SURFACE
 62
7
  6
CONTINUOUS
 10
120.0094591653
 20
137.4034794251
  0
VERTEX
  8
SURFACE
 62
7
  6
CONTINUOUS
 10
120.08424979
 20
137.4884196279
  0
VERTEX
  8
SURFACE
 62
7
  6
CONTINUOUS
 10
120.1535367601
 20
137.5778632615
  0
VERTEX
  8
SURFACE
 62
7
  6
CONTINUOUS
 10
120.2170521185
 20
137.6714580596
  0
VERTEX
  8
SURFACE
 62
7
  6
CONTINUOUS
 10
120.2745329877
 20
137.7688050659
  0
VERTEX
  8
SURFACE
 62
7
  6
CONTINUOUS
 10
120.3257443488
 20
137.8694803658
  0
VERTEX
  8
SURFACE
 62
7
  6
CONTINUOUS
 10
120.3705119361
 20
137.9731111342
  0
VERTEX
  8
SURFACE
 62
7
  6
CONTINUOUS
 10
120.408701565
 20
138.0793847612
  0
VERTEX
  8
SURFACE
 62
7
  6
CONTINUOUS
 10
120.4401718636
 20
138.1879539243
  0
VERTEX
  8
SURFACE
 62
7
  6
CONTINUOUS
 10
120.4647564857
 20
138.2982864644
  0
VERTEX
  8
SURFACE
 62
7
  6
CONTINUOUS
 10
120.4823366164
 20
138.4097815095
  0
VERTEX
  8
SURFACE
 62
7
  6
CONTINUOUS
 10
120.4928627494
 20
138.5218283624
  0
SEQEND
  0
LINE
  8
SURFACE
 62
7
  6
CONTINUOUS
 10
152.2341869051
 20
136.8377159596
 11
152.1159233227
 21
136.8338158401
  0
LINE
  8
SURFACE
 62
7
  6
CONTINUOUS
 10
185.6267259414
 20
136.8375310422
 11
185.5112969962
 21
136.8338158375
  0
LINE
  8
SURFACE
 62
7
  6
CONTINUOUS
 10
219.1779861815
 20
136.837511106
 11
219.0627543566
 21
136.8338158394
  0
POLYLINE
  8
SURFACE
 62
7
  6
CONTINUOUS
 66
1
 70
0
  0
VERTEX
  8
SURFACE
 62
7
  6
CONTINUOUS
 10
40.4883468635
 20
136.8338157998
  0
VERTEX
  8
SURFACE
 62
7
  6
CONTINUOUS
 10
40.2483900741
 20
136.830941105
  0
VERTEX
  8
SURFACE
 62
7
  6
CONTINUOUS
 10
39.9944602142
 20
136.8232220963
  0
VERTEX
  8
SURFACE
 62
7
  6
CONTINUOUS
 10
39.5079562398
 20
136.8037639003
  0
SEQEND
  0
LINE
  8
SURFACE
 62
7
  6
CONTINUOUS
 10
118.6934929509
 20
136.8338157895
 11
118.7278650096
 21
136.8341429544
  0
LINE
  8
SURFACE
 62
7
  6
CONTINUOUS
 10
85.2488302759
 20
136.8338157895
 11
85.2831743116
 21
136.8341424212
  0
LINE
  8
SURFACE
 62
7
  6
CONTINUOUS
 10
51.8118446694
 20
136.8338157895
 11
51.843522323
 21
136.8340941639
  0
LINE
  8
SURFACE
 62
7
  6
CONTINUOUS
 10
38.6526315789
 20
136.7898478951
 11
38.8561024693
 21
136.7898478951
  0
LINE
  8
SURFACE
 62
7
  6
CONTINUOUS
 10
185.5112933552
 20
136.8338157895
 11
172.1341052071
 21
136.8338157895
  0
LINE
  8
SURFACE
 62
7
  6
CONTINUOUS
 10
40.4885138423
 20
136.8338157895
 11
51.8118446694
 21
136.8338157895
  0
LINE
  8
SURFACE
 62
7
  6
CONTINUOUS
 10
71.8953411237
 20
136.8338157895
 11
85.2488302759
 21
136.8338157895
  0
LINE
  8
SURFACE
 62
7
  6
CONTINUOUS
 10
105.2916529565
 20
136.8338157895
 11
118.6934929509
 21
136.8338157895
  0
LINE
  8
SURFACE
 62
7
  6
CONTINUOUS
 10
138.691516783
 20
136.8338157895
 11
152.1159233656
 21
136.8338157895
  0
LINE
  8
SURFACE
 62
7
  6
CONTINUOUS
 10
205.5771063766
 20
136.8338157895
 11
219.0627506646
 21
136.8338157895
  0
LINE
  8
SURFACE
 62
7
  6
CONTINUOUS
 10
40.4883546233
 20
136.8338157862
 11
40.4884899667
 21
136.8338157895
  0
LINE
  8
SURFACE
 62
7
  6
CONTINUOUS
 10
205.5455029089
 20
136.8340926241
 11
205.5771063766
 21
136.8338157895
  0
LINE
  8
SURFACE
 62
7
  6
CONTINUOUS
 10
138.6582029456
 20
136.8341237868
 11
138.6915130148
 21
136.8338157895
  0
LINE
  8
SURFACE
 62
7
  6
CONTINUOUS
 10
172.1341015508
 20
136.8338157895
 11
172.0989671344
 21
136.8341576294
  0
POLYLINE
  8
SURFACE
 62
7
  6
CONTINUOUS
 66
1
 70
0
  0
VERTEX
  8
SURFACE
 62
7
  6
CONTINUOUS
 10
105.2916530011
 20
136.8338158401
  0
VERTEX
  8
SURFACE
 62
7
  6
CONTINUOUS
 10
105.1723945886
 20
136.8377819252
  0
VERTEX
  8
SURFACE
 62
7
  6
CONTINUOUS
 10
105.0427733045
 20
136.8511534429
  0
VERTEX
  8
SURFACE
 62
7
  6
CONTINUOUS
 10
104.9144993004
 20
136.8738850236
  0
VERTEX
  8
SURFACE
 62
7
  6
CONTINUOUS
 10
104.7882537803
 20
136.9058461896
  0
VERTEX
  8
SURFACE
 62
7
  6
CONTINUOUS
 10
104.6647120962
 20
136.9468529401
  0
VERTEX
  8
SURFACE
 62
7
  6
CONTINUOUS
 10
104.5445342372
 20
136.9966690187
  0
VERTEX
  8
SURFACE
 62
7
  6
CONTINUOUS
 10
104.4283583271
 20
137.0550079572
  0
VERTEX
  8
SURFACE
 62
7
  6
CONTINUOUS
 10
104.3167968131
 20
137.1215351641
  0
VERTEX
  8
SURFACE
 62
7
  6
CONTINUOUS
 10
104.2104254964
 20
137.1958757535
  0
VERTEX
  8
SURFACE
 62
7
  6
CONTINUOUS
 10
104.1097855928
 20
137.2776167646
  0
VERTEX
  8
SURFACE
 62
7
  6
CONTINUOUS
 10
104.0153856869
 20
137.366307172
  0
VERTEX
  8
SURFACE
 62
7
  6
CONTINUOUS
 10
103.9276972522
 20
137.4614623257
  0
VERTEX
  8
SURFACE
 62
7
  6
CONTINUOUS
 10
103.8471491278
 20
137.5625721273
  0
VERTEX
  8
SURFACE
 62
7
  6
CONTINUOUS
 10
103.7741313473
 20
137.6690998817
  0
VERTEX
  8
SURFACE
 62
7
  6
CONTINUOUS
 10
103.7089945391
 20
137.7804838647
  0
VERTEX
  8
SURFACE
 62
7
  6
CONTINUOUS
 10
103.6520460791
 20
137.8961449178
  0
VERTEX
  8
SURFACE
 62
7
  6
CONTINUOUS
 10
103.6035496312
 20
138.0154921302
  0
VERTEX
  8
SURFACE
 62
7
  6
CONTINUOUS
 10
103.563728386
 20
138.1379199759
  0
VERTEX
  8
SURFACE
 62
7
  6
CONTINUOUS
 10
103.5327648931
 20
138.2628083872
  0
VERTEX
  8
SURFACE
 62
7
  6
CONTINUOUS
 10
103.5107996688
 20
138.3895259867
  0
VERTEX
  8
SURFACE
 62
7
  6
CONTINUOUS
 10
103.497929455
 20
138.5174394675
  0
VERTEX
  8
SURFACE
 62
7
  6
CONTINUOUS
 10
103.4941687677
 20
138.6338157895
  0
SEQEND
  0
POLYLINE
  8
SURFACE
 62
7
  6
CONTINUOUS
 66
1
 70
0
  0
VERTEX
  8
SURFACE
 62
7
  6
CONTINUOUS
 10
71.8953411237
 20
136.8338158361
  0
VERTEX
  8
SURFACE
 62
7
  6
CONTINUOUS
 10
71.7725420579
 20
136.8380176026
  0
VERTEX
  8
SURFACE
 62
7
  6
CONTINUOUS
 10
71.6409548633
 20
136.8519149159
  0
VERTEX
  8
SURFACE
 62
7
  6
CONTINUOUS
 10
71.5115299194
 20
136.8752809226
  0
VERTEX
  8
SURFACE
 62
7
  6
CONTINUOUS
 10
71.384880963
 20
136.907826444
  0
VERTEX
  8
SURFACE
 62
7
  6
CONTINUOUS
 10
71.2616101739
 20
136.9492242496
  0
VERTEX
  8
SURFACE
 62
7
  6
CONTINUOUS
 10
71.1423205593
 20
136.9990975639
  0
VERTEX
  8
SURFACE
 62
7
  6
CONTINUOUS
 10
71.0275761283
 20
137.0570289478
  0
VERTEX
  8
SURFACE
 62
7
  6
CONTINUOUS
 10
70.9178927191
 20
137.1225682089
  0
VERTEX
  8
SURFACE
 62
7
  6
CONTINUOUS
 10
70.8136685492
 20
137.1952901111
  0
VERTEX
  8
SURFACE
 62
7
  6
CONTINUOUS
 10
70.7152089184
 20
137.2748185409
  0
VERTEX
  8
SURFACE
 62
7
  6
CONTINUOUS
 10
70.6228067264
 20
137.3607907734
  0
VERTEX
  8
SURFACE
 62
7
  6
CONTINUOUS
 10
70.5367485788
 20
137.4528547076
  0
VERTEX
  8
SURFACE
 62
7
  6
CONTINUOUS
 10
70.4572790761
 20
137.5507192591
  0
VERTEX
  8
SURFACE
 62
7
  6
CONTINUOUS
 10
70.3846376003
 20
137.6541431954
  0
VERTEX
  8
SURFACE
 62
7
  6
CONTINUOUS
 10
70.3191035782
 20
137.7628866549
  0
VERTEX
  8
SURFACE
 62
7
  6
CONTINUOUS
 10
70.2610011441
 20
137.8766919198
  0
VERTEX
  8
SURFACE
 62
7
  6
CONTINUOUS
 10
70.2106921791
 20
137.9952803659
  0
VERTEX
  8
SURFACE
 62
7
  6
CONTINUOUS
 10
70.168572686
 20
138.1183480242
  0
VERTEX
  8
SURFACE
 62
7
  6
CONTINUOUS
 10
70.1350729762
 20
138.2455509197
  0
VERTEX
  8
SURFACE
 62
7
  6
CONTINUOUS
 10
70.1106470142
 20
138.3765402548
  0
VERTEX
  8
SURFACE
 62
7
  6
CONTINUOUS
 10
70.0957818553
 20
138.5109801298
  0
VERTEX
  8
SURFACE
 62
7
  6
CONTINUOUS
 10
70.091013161
 20
138.6380068602
  0
SEQEND
  0
POLYLINE
  8
SURFACE
 62
7
  6
CONTINUOUS
 66
1
 70
0
  0
VERTEX
  8
SURFACE
 62
7
  6
CONTINUOUS
 10
138.6582029456
 20
136.8341237868
  0
VERTEX
  8
SURFACE
 62
7
  6
CONTINUOUS
 10
138.5736338779
 20
136.8376771768
  0
VERTEX
  8
SURFACE
 62
7
  6
CONTINUOUS
 10
138.4448054314
 20
136.8507921314
  0
VERTEX
  8
SURFACE
 62
7
  6
CONTINUOUS
 10
138.3172581959
 20
136.8731298044
  0
VERTEX
  8
SURFACE
 62
7
  6
CONTINUOUS
 10
138.1916416591
 20
136.9045778093
  0
VERTEX
  8
SURFACE
 62
7
  6
CONTINUOUS
 10
138.0686019321
 20
136.9449771693
  0
VERTEX
  8
SURFACE
 62
7
  6
CONTINUOUS
 10
137.9487735786
 20
136.9941232544
  0
VERTEX
  8
SURFACE
 62
7
  6
CONTINUOUS
 10
137.8327729433
 20
137.0517680521
  0
VERTEX
  8
SURFACE
 62
7
  6
CONTINUOUS
 10
137.7211970485
 20
137.1176211956
  0
VERTEX
  8
SURFACE
 62
7
  6
CONTINUOUS
 10
137.6146268119
 20
137.1913470748
  0
VERTEX
  8
SURFACE
 62
7
  6
CONTINUOUS
 10
137.5136209885
 20
137.2725660938
  0
VERTEX
  8
SURFACE
 62
7
  6
CONTINUOUS
 10
137.4187081751
 20
137.3608595069
  0
VERTEX
  8
SURFACE
 62
7
  6
CONTINUOUS
 10
137.3303850787
 20
137.4557711314
  0
VERTEX
  8
SURFACE
 62
7
  6
CONTINUOUS
 10
137.2491167716
 20
137.5568059976
  0
VERTEX
  8
SURFACE
 62
7
  6
CONTINUOUS
 10
137.1753306166
 20
137.6634355478
  0
VERTEX
  8
SURFACE
 62
7
  6
CONTINUOUS
 10
137.1094129794
 20
137.7751019619
  0
VERTEX
  8
SURFACE
 62
7
  6
CONTINUOUS
 10
137.0517074025
 20
137.8912215905
  0
VERTEX
  8
SURFACE
 62
7
  6
CONTINUOUS
 10
137.0025131219
 20
138.0111885849
  0
VERTEX
  8
SURFACE
 62
7
  6
CONTINUOUS
 10
136.9620841453
 20
138.1343778905
  0
VERTEX
  8
SURFACE
 62
7
  6
CONTINUOUS
 10
136.9306286512
 20
138.2601466442
  0
VERTEX
  8
SURFACE
 62
7
  6
CONTINUOUS
 10
136.9083076512
 20
138.3878374309
  0
VERTEX
  8
SURFACE
 62
7
  6
CONTINUOUS
 10
136.8952329116
 20
138.5167893776
  0
VERTEX
  8
SURFACE
 62
7
  6
CONTINUOUS
 10
136.8914257173
 20
138.6338157895
  0
SEQEND
  0
POLYLINE
  8
SURFACE
 62
7
  6
CONTINUOUS
 66
1
 70
0
  0
VERTEX
  8
SURFACE
 62
7
  6
CONTINUOUS
 10
172.0989671344
 20
136.8341576294
  0
VERTEX
  8
SURFACE
 62
7
  6
CONTINUOUS
 10
172.0156989796
 20
136.8377021255
  0
VERTEX
  8
SURFACE
 62
7
  6
CONTINUOUS
 10
171.8854335924
 20
136.851021523
  0
VERTEX
  8
SURFACE
 62
7
  6
CONTINUOUS
 10
171.7565289534
 20
136.8737362262
  0
VERTEX
  8
SURFACE
 62
7
  6
CONTINUOUS
 10
171.62967419
 20
136.9057126293
  0
VERTEX
  8
SURFACE
 62
7
  6
CONTINUOUS
 10
171.5055526731
 20
136.9467623553
  0
VERTEX
  8
SURFACE
 62
7
  6
CONTINUOUS
 10
171.3848321302
 20
136.9966434036
  0
VERTEX
  8
SURFACE
 62
7
  6
CONTINUOUS
 10
171.2681572941
 20
137.0550624134
  0
VERTEX
  8
SURFACE
 62
7
  6
CONTINUOUS
 10
171.156145662
 20
137.1216770865
  0
VERTEX
  8
SURFACE
 62
7
  6
CONTINUOUS
 10
171.0493753088
 20
137.1961050969
  0
VERTEX
  8
SURFACE
 62
7
  6
CONTINUOUS
 10
170.9483879838
 20
137.2779262819
  0
VERTEX
  8
SURFACE
 62
7
  6
CONTINUOUS
 10
170.8536915285
 20
137.366682642
  0
VERTEX
  8
SURFACE
 62
7
  6
CONTINUOUS
 10
170.7657551298
 20
137.4618833039
  0
VERTEX
  8
SURFACE
 62
7
  6
CONTINUOUS
 10
170.6850036802
 20
137.5630133713
  0
VERTEX
  8
SURFACE
 62
7
  6
CONTINUOUS
 10
170.6118224292
 20
137.6695324374
  0
VERTEX
  8
SURFACE
 62
7
  6
CONTINUOUS
 10
170.5465566113
 20
137.7808762142
  0
VERTEX
  8
SURFACE
 62
7
  6
CONTINUOUS
 10
170.4895073546
 20
137.896465185
  0
VERTEX
  8
SURFACE
 62
7
  6
CONTINUOUS
 10
170.4409316394
 20
138.0157107752
  0
VERTEX
  8
SURFACE
 62
7
  6
CONTINUOUS
 10
170.4010466336
 20
138.1380113132
  0
VERTEX
  8
SURFACE
 62
7
  6
CONTINUOUS
 10
170.3700298012
 20
138.2627519572
  0
VERTEX
  8
SURFACE
 62
7
  6
CONTINUOUS
 10
170.3480179274
 20
138.3893064416
  0
VERTEX
  8
SURFACE
 62
7
  6
CONTINUOUS
 10
170.3351051616
 20
138.5170453988
  0
VERTEX
  8
SURFACE
 62
7
  6
CONTINUOUS
 10
170.3313077772
 20
138.6338157895
  0
SEQEND
  0
POLYLINE
  8
0
 62
7
  6
CONTINUOUS
 66
1
 70
0
  0
VERTEX
  8
0
 62
7
  6
CONTINUOUS
 10
170.7429287037
 20
71.0014121238
  0
VERTEX
  8
0
 62
7
  6
CONTINUOUS
 10
170.7445968985
 20
70.9775919699
  0
VERTEX
  8
0
 62
7
  6
CONTINUOUS
 10
170.7463642117
 20
70.9541724076
  0
VERTEX
  8
0
 62
7
  6
CONTINUOUS
 10
170.7482626318
 20
70.9308957426
  0
VERTEX
  8
0
 62
7
  6
CONTINUOUS
 10
170.7503343558
 20
70.9074678055
  0
VERTEX
  8
0
 62
7
  6
CONTINUOUS
 10
170.7526353523
 20
70.8835508506
  0
VERTEX
  8
0
 62
7
  6
CONTINUOUS
 10
170.7552369836
 20
70.8587849844
  0
VERTEX
  8
0
 62
7
  6
CONTINUOUS
 10
170.7582327167
 20
70.8327654561
  0
VERTEX
  8
0
 62
7
  6
CONTINUOUS
 10
170.7617451899
 20
70.8050370766
  0
VERTEX
  8
0
 62
7
  6
CONTINUOUS
 10
170.7659268112
 20
70.7751480799
  0
VERTEX
  8
0
 62
7
  6
CONTINUOUS
 10
170.770947724
 20
70.742764384
  0
VERTEX
  8
0
 62
7
  6
CONTINUOUS
 10
170.7769912628
 20
70.7076797552
  0
VERTEX
  8
0
 62
7
  6
CONTINUOUS
 10
170.7841884776
 20
70.670108393
  0
VERTEX
  8
0
 62
7
  6
CONTINUOUS
 10
170.7925765577
 20
70.6306809981
  0
VERTEX
  8
0
 62
7
  6
CONTINUOUS
 10
170.8022679383
 20
70.5895478614
  0
VERTEX
  8
0
 62
7
  6
CONTINUOUS
 10
170.8137984982
 20
70.5452939166
  0
VERTEX
  8
0
 62
7
  6
CONTINUOUS
 10
170.8280697598
 20
70.4958670245
  0
VERTEX
  8
0
 62
7
  6
CONTINUOUS
 10
170.84614944
 20
70.4396405901
  0
VERTEX
  8
0
 62
7
  6
CONTINUOUS
 10
170.8686612944
 20
70.3770792684
  0
VERTEX
  8
0
 62
7
  6
CONTINUOUS
 10
170.8959660312
 20
70.3094386942
  0
VERTEX
  8
0
 62
7
  6
CONTINUOUS
 10
170.9284275102
 20
70.2377900112
  0
VERTEX
  8
0
 62
7
  6
CONTINUOUS
 10
170.966722374
 20
70.1624779639
  0
VERTEX
  8
0
 62
7
  6
CONTINUOUS
 10
171.0115742162
 20
70.0839166549
  0
VERTEX
  8
0
 62
7
  6
CONTINUOUS
 10
171.0636986432
 20
70.0026838263
  0
VERTEX
  8
0
 62
7
  6
CONTINUOUS
 10
171.1237818591
 20
69.9195185778
  0
VERTEX
  8
0
 62
7
  6
CONTINUOUS
 10
171.1926002437
 20
69.8351517966
  0
VERTEX
  8
0
 62
7
  6
CONTINUOUS
 10
171.2712524851
 20
69.7501373177
  0
VERTEX
  8
0
 62
7
  6
CONTINUOUS
 10
171.3607399803
 20
69.6654326872
  0
VERTEX
  8
0
 62
7
  6
CONTINUOUS
 10
171.460536419
 20
69.5834159335
  0
VERTEX
  8
0
 62
7
  6
CONTINUOUS
 10
171.5690323906
 20
69.5067437452
  0
VERTEX
  8
0
 62
7
  6
CONTINUOUS
 10
171.6841022984
 20
69.437602068
  0
VERTEX
  8
0
 62
7
  6
CONTINUOUS
 10
171.8037738848
 20
69.3773253996
  0
VERTEX
  8
0
 62
7
  6
CONTINUOUS
 10
171.9272827696
 20
69.3262270144
  0
VERTEX
  8
0
 62
7
  6
CONTINUOUS
 10
172.0540637421
 20
69.2844792362
  0
VERTEX
  8
0
 62
7
  6
CONTINUOUS
 10
172.1835558559
 20
69.2522418725
  0
VERTEX
  8
0
 62
7
  6
CONTINUOUS
 10
172.3152011011
 20
69.2296644387
  0
VERTEX
  8
0
 62
7
  6
CONTINUOUS
 10
172.4484373242
 20
69.216888991
  0
VERTEX
  8
0
 62
7
  6
CONTINUOUS
 10
172.5536033272
 20
69.2138159009
  0
SEQEND
  0
POLYLINE
  8
SURFACE
 62
7
  6
CONTINUOUS
 66
1
 70
0
  0
VERTEX
  8
SURFACE
 62
7
  6
CONTINUOUS
 10
85.3600391063
 20
136.8372435432
  0
VERTEX
  8
SURFACE
 62
7
  6
CONTINUOUS
 10
85.4712571232
 20
136.8475674111
  0
VERTEX
  8
SURFACE
 62
7
  6
CONTINUOUS
 10
85.5818936864
 20
136.8647989064
  0
VERTEX
  8
SURFACE
 62
7
  6
CONTINUOUS
 10
85.6913625674
 20
136.8888841216
  0
VERTEX
  8
SURFACE
 62
7
  6
CONTINUOUS
 10
85.7990864618
 20
136.9197041208
  0
VERTEX
  8
SURFACE
 62
7
  6
CONTINUOUS
 10
85.9045472839
 20
136.9570929674
  0
VERTEX
  8
SURFACE
 62
7
  6
CONTINUOUS
 10
86.0073951202
 20
137.0009027162
  0
VERTEX
  8
SURFACE
 62
7
  6
CONTINUOUS
 10
86.1073175396
 20
137.0509898306
  0
VERTEX
  8
SURFACE
 62
7
  6
CONTINUOUS
 10
86.2039534617
 20
137.1071743209
  0
VERTEX
  8
SURFACE
 62
7
  6
CONTINUOUS
 10
86.2969000348
 20
137.1692219863
  0
VERTEX
  8
SURFACE
 62
7
  6
CONTINUOUS
 10
86.385776777
 20
137.2368712517
  0
VERTEX
  8
SURFACE
 62
7
  6
CONTINUOUS
 10
86.4702464263
 20
137.309853539
  0
VERTEX
  8
SURFACE
 62
7
  6
CONTINUOUS
 10
86.5499957504
 20
137.387886354
  0
VERTEX
  8
SURFACE
 62
7
  6
CONTINUOUS
 10
86.6247312622
 20
137.4706721933
  0
SEQEND
  0
POLYLINE
  8
SURFACE
 62
7
  6
CONTINUOUS
 66
1
 70
0
  0
VERTEX
  8
SURFACE
 62
7
  6
CONTINUOUS
 10
51.9175589993
 20
136.8369178975
  0
VERTEX
  8
SURFACE
 62
7
  6
CONTINUOUS
 10
52.0234720616
 20
136.8462768973
  0
VERTEX
  8
SURFACE
 62
7
  6
CONTINUOUS
 10
52.1289849416
 20
136.8619157092
  0
VERTEX
  8
SURFACE
 62
7
  6
CONTINUOUS
 10
52.2335011383
 20
136.8837822291
  0
VERTEX
  8
SURFACE
 62
7
  6
CONTINUOUS
 10
52.336431828
 20
136.9117489284
  0
VERTEX
  8
SURFACE
 62
7
  6
CONTINUOUS
 10
52.4372486115
 20
136.9456298086
  0
VERTEX
  8
SURFACE
 62
7
  6
CONTINUOUS
 10
52.5356996067
 20
136.9852879051
  0
VERTEX
  8
SURFACE
 62
7
  6
CONTINUOUS
 10
52.6316648711
 20
137.0306515868
  0
VERTEX
  8
SURFACE
 62
7
  6
CONTINUOUS
 10
52.7249504183
 20
137.0816429504
  0
VERTEX
  8
SURFACE
 62
7
  6
CONTINUOUS
 10
52.8151832219
 20
137.1380836572
  0
VERTEX
  8
SURFACE
 62
7
  6
CONTINUOUS
 10
52.9020235268
 20
137.1997807453
  0
VERTEX
  8
SURFACE
 62
7
  6
CONTINUOUS
 10
52.9852901248
 20
137.2666417839
  0
VERTEX
  8
SURFACE
 62
7
  6
CONTINUOUS
 10
53.06472604
 20
137.3385272318
  0
VERTEX
  8
SURFACE
 62
7
  6
CONTINUOUS
 10
53.1400565306
 20
137.4152768294
  0
VERTEX
  8
SURFACE
 62
7
  6
CONTINUOUS
 10
53.2110119409
 20
137.4967275361
  0
VERTEX
  8
SURFACE
 62
7
  6
CONTINUOUS
 10
53.2773181828
 20
137.5827046796
  0
VERTEX
  8
SURFACE
 62
7
  6
CONTINUOUS
 10
53.3386913279
 20
137.6730115185
  0
VERTEX
  8
SURFACE
 62
7
  6
CONTINUOUS
 10
53.3948389327
 20
137.7674228673
  0
VERTEX
  8
SURFACE
 62
7
  6
CONTINUOUS
 10
53.4454663234
 20
137.865685551
  0
VERTEX
  8
SURFACE
 62
7
  6
CONTINUOUS
 10
53.4902854421
 20
137.9675286551
  0
VERTEX
  8
SURFACE
 62
7
  6
CONTINUOUS
 10
53.5290130488
 20
138.072657012
  0
VERTEX
  8
SURFACE
 62
7
  6
CONTINUOUS
 10
53.5613807495
 20
138.180779489
  0
VERTEX
  8
SURFACE
 62
7
  6
CONTINUOUS
 10
53.5871291504
 20
138.2916154652
  0
VERTEX
  8
SURFACE
 62
7
  6
CONTINUOUS
 10
53.6059525606
 20
138.4045494691
  0
VERTEX
  8
SURFACE
 62
7
  6
CONTINUOUS
 10
53.6176178455
 20
138.5188678538
  0
VERTEX
  8
SURFACE
 62
7
  6
CONTINUOUS
 10
53.6219895591
 20
138.6338183331
  0
SEQEND
  0
POLYLINE
  8
SURFACE
 62
7
  6
CONTINUOUS
 66
1
 70
0
  0
VERTEX
  8
SURFACE
 62
7
  6
CONTINUOUS
 10
39.5079562398
 20
136.8037639003
  0
VERTEX
  8
SURFACE
 62
7
  6
CONTINUOUS
 10
39.2753898424
 20
136.7959983089
  0
VERTEX
  8
SURFACE
 62
7
  6
CONTINUOUS
 10
39.0511113742
 20
136.7912274957
  0
VERTEX
  8
SURFACE
 62
7
  6
CONTINUOUS
 10
38.8561024693
 20
136.7898478778
  0
SEQEND
  0
POLYLINE
  8
SURFACE
 62
7
  6
CONTINUOUS
 66
1
 70
0
  0
VERTEX
  8
SURFACE
 62
7
  6
CONTINUOUS
 10
205.5455029089
 20
136.8340926241
  0
VERTEX
  8
SURFACE
 62
7
  6
CONTINUOUS
 10
205.4609539331
 20
136.8375587563
  0
VERTEX
  8
SURFACE
 62
7
  6
CONTINUOUS
 10
205.3342030499
 20
136.8502405155
  0
VERTEX
  8
SURFACE
 62
7
  6
CONTINUOUS
 10
205.2082116087
 20
136.8719228485
  0
VERTEX
  8
SURFACE
 62
7
  6
CONTINUOUS
 10
205.0836747104
 20
136.9025769263
  0
VERTEX
  8
SURFACE
 62
7
  6
CONTINUOUS
 10
204.961288132
 20
136.942113238
  0
VERTEX
  8
SURFACE
 62
7
  6
CONTINUOUS
 10
204.8417486922
 20
136.9903785422
  0
VERTEX
  8
SURFACE
 62
7
  6
CONTINUOUS
 10
204.7257401031
 20
137.0471573457
  0
VERTEX
  8
SURFACE
 62
7
  6
CONTINUOUS
 10
204.6139248674
 20
137.1121744962
  0
VERTEX
  8
SURFACE
 62
7
  6
CONTINUOUS
 10
204.5069257245
 20
137.1851074464
  0
VERTEX
  8
SURFACE
 62
7
  6
CONTINUOUS
 10
204.4053248924
 20
137.2655932596
  0
VERTEX
  8
SURFACE
 62
7
  6
CONTINUOUS
 10
204.3096738595
 20
137.3532256021
  0
VERTEX
  8
SURFACE
 62
7
  6
CONTINUOUS
 10
204.2204892962
 20
137.4475589056
  0
VERTEX
  8
SURFACE
 62
7
  6
CONTINUOUS
 10
204.1382404469
 20
137.5481258051
  0
VERTEX
  8
SURFACE
 62
7
  6
CONTINUOUS
 10
204.0633554453
 20
137.6544398697
  0
VERTEX
  8
SURFACE
 62
7
  6
CONTINUOUS
 10
203.9962304208
 20
137.7659893215
  0
VERTEX
  8
SURFACE
 62
7
  6
CONTINUOUS
 10
203.9372268549
 20
137.8822434611
  0
VERTEX
  8
SURFACE
 62
7
  6
CONTINUOUS
 10
203.8866642565
 20
138.0026775622
  0
VERTEX
  8
SURFACE
 62
7
  6
CONTINUOUS
 10
203.8448355446
 20
138.1267582431
  0
VERTEX
  8
SURFACE
 62
7
  6
CONTINUOUS
 10
203.8120122701
 20
138.2539353624
  0
VERTEX
  8
SURFACE
 62
7
  6
CONTINUOUS
 10
203.7884435941
 20
138.3836492174
  0
VERTEX
  8
SURFACE
 62
7
  6
CONTINUOUS
 10
203.7743576028
 20
138.515345631
  0
VERTEX
  8
SURFACE
 62
7
  6
CONTINUOUS
 10
203.7699598002
 20
138.6375511048
  0
SEQEND
  0
POLYLINE
  8
SURFACE
 62
7
  6
CONTINUOUS
 66
1
 70
0
  0
VERTEX
  8
SURFACE
 62
7
  6
CONTINUOUS
 10
172.0211204577
 20
136.8373537735
  0
VERTEX
  8
SURFACE
 62
7
  6
CONTINUOUS
 10
171.9081921886
 20
136.8480031206
  0
VERTEX
  8
SURFACE
 62
7
  6
CONTINUOUS
 10
171.7959360645
 20
136.8657640533
  0
VERTEX
  8
SURFACE
 62
7
  6
CONTINUOUS
 10
171.6849639758
 20
136.8905672457
  0
VERTEX
  8
SURFACE
 62
7
  6
CONTINUOUS
 10
171.5758663074
 20
136.9222778365
  0
VERTEX
  8
SURFACE
 62
7
  6
CONTINUOUS
 10
171.4691003414
 20
136.9607418164
  0
VERTEX
  8
SURFACE
 62
7
  6
CONTINUOUS
 10
171.365000567
 20
137.0058230129
  0
VERTEX
  8
SURFACE
 62
7
  6
CONTINUOUS
 10
171.2639311803
 20
137.057362171
  0
VERTEX
  8
SURFACE
 62
7
  6
CONTINUOUS
 10
171.1663231452
 20
137.1151398366
  0
VERTEX
  8
SURFACE
 62
7
  6
CONTINUOUS
 10
171.0725901254
 20
137.1789038673
  0
VERTEX
  8
SURFACE
 62
7
  6
CONTINUOUS
 10
170.9830951245
 20
137.2483961163
  0
VERTEX
  8
SURFACE
 62
7
  6
CONTINUOUS
 10
170.8981767236
 20
137.3233439631
  0
VERTEX
  8
SURFACE
 62
7
  6
CONTINUOUS
 10
170.8181663086
 20
137.4034463957
  0
VERTEX
  8
SURFACE
 62
7
  6
CONTINUOUS
 10
170.7433820453
 20
137.4883744337
  0
VERTEX
  8
SURFACE
 62
7
  6
CONTINUOUS
 10
170.6741116492
 20
137.5777889555
  0
VERTEX
  8
SURFACE
 62
7
  6
CONTINUOUS
 10
170.6106128042
 20
137.6713469244
  0
VERTEX
  8
SURFACE
 62
7
  6
CONTINUOUS
 10
170.5531282847
 20
137.7686834106
  0
VERTEX
  8
SURFACE
 62
7
  6
CONTINUOUS
 10
170.5018960406
 20
137.8693826763
  0
VERTEX
  8
SURFACE
 62
7
  6
CONTINUOUS
 10
170.4571209673
 20
137.9730139628
  0
VERTEX
  8
SURFACE
 62
7
  6
CONTINUOUS
 10
170.4189453781
 20
138.0792230471
  0
VERTEX
  8
SURFACE
 62
7
  6
CONTINUOUS
 10
170.3874890967
 20
138.1876944517
  0
VERTEX
  8
SURFACE
 62
7
  6
CONTINUOUS
 10
170.3628953025
 20
138.297985114
  0
VERTEX
  8
SURFACE
 62
7
  6
CONTINUOUS
 10
170.3452919496
 20
138.4095104959
  0
VERTEX
  8
SURFACE
 62
7
  6
CONTINUOUS
 10
170.3347422775
 20
138.5216598093
  0
SEQEND
  0
POLYLINE
  8
SURFACE
 62
7
  6
CONTINUOUS
 66
1
 70
0
  0
VERTEX
  8
SURFACE
 62
7
  6
CONTINUOUS
 10
170.2023202263
 20
160.9264300867
  0
VERTEX
  8
SURFACE
 62
7
  6
CONTINUOUS
 10
170.2006513451
 20
160.9502448234
  0
VERTEX
  8
SURFACE
 62
7
  6
CONTINUOUS
 10
170.1988830789
 20
160.9736615077
  0
VERTEX
  8
SURFACE
 62
7
  6
CONTINUOUS
 10
170.1969834148
 20
160.9969374285
  0
VERTEX
  8
SURFACE
 62
7
  6
CONTINUOUS
 10
170.1949101296
 20
161.0203663497
  0
VERTEX
  8
SURFACE
 62
7
  6
CONTINUOUS
 10
170.1926072401
 20
161.0442854629
  0
VERTEX
  8
SURFACE
 62
7
  6
CONTINUOUS
 10
170.1900033444
 20
161.0690543869
  0
VERTEX
  8
SURFACE
 62
7
  6
CONTINUOUS
 10
170.1870048519
 20
161.0950782604
  0
VERTEX
  8
SURFACE
 62
7
  6
CONTINUOUS
 10
170.1834890181
 20
161.1228122466
  0
VERTEX
  8
SURFACE
 62
7
  6
CONTINUOUS
 10
170.1793037873
 20
161.1527048523
  0
VERTEX
  8
SURFACE
 62
7
  6
CONTINUOUS
 10
170.1742795036
 20
161.1850873085
  0
VERTEX
  8
SURFACE
 62
7
  6
CONTINUOUS
 10
170.1682340019
 20
161.220160586
  0
VERTEX
  8
SURFACE
 62
7
  6
CONTINUOUS
 10
170.1610383017
 20
161.2577034251
  0
VERTEX
  8
SURFACE
 62
7
  6
CONTINUOUS
 10
170.1526559356
 20
161.2970875581
  0
VERTEX
  8
SURFACE
 62
7
  6
CONTINUOUS
 10
170.1429646845
 20
161.3382070683
  0
VERTEX
  8
SURFACE
 62
7
  6
CONTINUOUS
 10
170.1314208138
 20
161.3824978152
  0
VERTEX
  8
SURFACE
 62
7
  6
CONTINUOUS
 10
170.1171171996
 20
161.4320152252
  0
VERTEX
  8
SURFACE
 62
7
  6
CONTINUOUS
 10
170.0989927494
 20
161.4883472695
  0
VERTEX
  8
SURFACE
 62
7
  6
CONTINUOUS
 10
170.0764304593
 20
161.5510025408
  0
VERTEX
  8
SURFACE
 62
7
  6
CONTINUOUS
 10
170.0490724743
 20
161.6187185347
  0
VERTEX
  8
SURFACE
 62
7
  6
CONTINUOUS
 10
170.0165516757
 20
161.6904335615
  0
VERTEX
  8
SURFACE
 62
7
  6
CONTINUOUS
 10
169.9781903858
 20
161.7658043395
  0
VERTEX
  8
SURFACE
 62
7
  6
CONTINUOUS
 10
169.9332661692
 20
161.844413852
  0
VERTEX
  8
SURFACE
 62
7
  6
CONTINUOUS
 10
169.8810649258
 20
161.9256819904
  0
VERTEX
  8
SURFACE
 62
7
  6
CONTINUOUS
 10
169.8209023151
 20
162.0088678124
  0
VERTEX
  8
SURFACE
 62
7
  6
CONTINUOUS
 10
169.7520019658
 20
162.0932414672
  0
VERTEX
  8
SURFACE
 62
7
  6
CONTINUOUS
 10
169.6732628888
 20
162.1782517347
  0
VERTEX
  8
SURFACE
 62
7
  6
CONTINUOUS
 10
169.5836821893
 20
162.2629416454
  0
VERTEX
  8
SURFACE
 62
7
  6
CONTINUOUS
 10
169.4837906183
 20
162.3449298664
  0
VERTEX
  8
SURFACE
 62
7
  6
CONTINUOUS
 10
169.3752045521
 20
162.4215572204
  0
VERTEX
  8
SURFACE
 62
7
  6
CONTINUOUS
 10
169.2600572709
 20
162.4906373425
  0
VERTEX
  8
SURFACE
 62
7
  6
CONTINUOUS
 10
169.1403250548
 20
162.5508387534
  0
VERTEX
  8
SURFACE
 62
7
  6
CONTINUOUS
 10
169.0167703755
 20
162.6018528607
  0
VERTEX
  8
SURFACE
 62
7
  6
CONTINUOUS
 10
168.8899555786
 20
162.643510937
  0
VERTEX
  8
SURFACE
 62
7
  6
CONTINUOUS
 10
168.7604381211
 20
162.6756556847
  0
VERTEX
  8
SURFACE
 62
7
  6
CONTINUOUS
 10
168.6287721287
 20
162.6981389294
  0
VERTEX
  8
SURFACE
 62
7
  6
CONTINUOUS
 10
168.4955156975
 20
162.7108187407
  0
VERTEX
  8
SURFACE
 62
7
  6
CONTINUOUS
 10
168.391659832
 20
162.7138156763
  0
SEQEND
  0
LINE
  8
0
 62
7
  6
CONTINUOUS
 10
170.7397996056
 20
71.051106932
 11
170.7429287037
 21
71.0014121238
  0
LINE
  8
SURFACE
 62
7
  6
CONTINUOUS
 10
170.2054501465
 20
160.8767525272
 11
170.2023202263
 21
160.9264300867
  0
LINE
  8
0
 62
7
  6
CONTINUOUS
 10
170.7368473285
 20
71.1046818978
 11
170.7397996056
 21
71.051106932
  0
LINE
  8
SURFACE
 62
7
  6
CONTINUOUS
 10
170.208402854
 20
160.8232004069
 11
170.2054501465
 21
160.8767525272
  0
LINE
  8
SURFACE
 62
7
  6
CONTINUOUS
 10
170.2112531983
 20
160.7646996585
 11
170.208402854
 21
160.8232004069
  0
LINE
  8
0
 62
7
  6
CONTINUOUS
 10
170.7339973001
 20
71.16320746
 11
170.7368473285
 21
71.1046818978
  0
LINE
  8
0
 62
7
  6
CONTINUOUS
 10
170.7312049316
 20
71.2275285623
 11
170.7339973001
 21
71.16320746
  0
LINE
  8
SURFACE
 62
7
  6
CONTINUOUS
 10
170.2140458225
 20
160.7004046274
 11
170.2112531983
 21
160.7646996585
  0
LINE
  8
0
 62
7
  6
CONTINUOUS
 10
170.7270527304
 20
71.3367969811
 11
170.7312049316
 21
71.2275285623
  0
LINE
  8
SURFACE
 62
7
  6
CONTINUOUS
 10
170.2181983289
 20
160.5911775621
 11
170.2140458225
 21
160.7004046274
  0
LINE
  8
0
 62
7
  6
CONTINUOUS
 10
170.7228865845
 20
71.4637779225
 11
170.7270527304
 21
71.3367969811
  0
LINE
  8
SURFACE
 62
7
  6
CONTINUOUS
 10
170.2223649777
 20
160.4642321091
 11
170.2181983289
 21
160.5911775621
  0
LINE
  8
SURFACE
 62
7
  6
CONTINUOUS
 10
170.2280022184
 20
160.2631027987
 11
170.2223649777
 21
160.4642321091
  0
LINE
  8
0
 62
7
  6
CONTINUOUS
 10
170.7172505774
 20
71.6649308339
 11
170.7228865845
 21
71.4637779225
  0
LINE
  8
0
 62
7
  6
CONTINUOUS
 10
170.7098858046
 20
71.9822869323
 11
170.7172505774
 21
71.6649308339
  0
LINE
  8
SURFACE
 62
7
  6
CONTINUOUS
 10
170.2353690566
 20
159.9457387457
 11
170.2280022184
 21
160.2631027987
  0
LINE
  8
0
 62
7
  6
CONTINUOUS
 10
170.7019225203
 20
72.4011980327
 11
170.7098858046
 21
71.9822869323
  0
LINE
  8
SURFACE
 62
7
  6
CONTINUOUS
 10
170.2433344281
 20
159.5267930385
 11
170.2353690566
 21
159.9457387457
  0
LINE
  8
0
 62
7
  6
CONTINUOUS
 10
170.6933179653
 20
72.9529616359
 11
170.7019225203
 21
72.4011980327
  0
LINE
  8
SURFACE
 62
7
  6
CONTINUOUS
 10
170.2519391122
 20
158.9750995838
 11
170.2433344281
 21
159.5267930385
  0
LINE
  8
0
 62
7
  6
CONTINUOUS
 10
170.6843555297
 20
73.6546481312
 11
170.6933179653
 21
72.9529616359
  0
LINE
  8
SURFACE
 62
7
  6
CONTINUOUS
 10
170.2609014709
 20
158.2735155964
 11
170.2519391122
 21
158.9750995838
  0
LINE
  8
0
 62
7
  6
CONTINUOUS
 10
170.6770561471
 20
74.3408017349
 11
170.6843555297
 21
73.6546481312
  0
LINE
  8
SURFACE
 62
7
  6
CONTINUOUS
 10
170.2682011386
 20
157.5874293577
 11
170.2609014709
 21
158.2735155964
  0
LINE
  8
0
 62
7
  6
CONTINUOUS
 10
170.6697028092
 20
75.1615158358
 11
170.6770561471
 21
74.3408017349
  0
LINE
  8
SURFACE
 62
7
  6
CONTINUOUS
 10
170.2755558746
 20
156.7666614924
 11
170.2682011386
 21
157.5874293577
  0
LINE
  8
0
 62
7
  6
CONTINUOUS
 10
170.6624184614
 20
76.1415263696
 11
170.6697028092
 21
75.1615158358
  0
LINE
  8
SURFACE
 62
7
  6
CONTINUOUS
 10
170.2828430918
 20
155.7863436963
 11
170.2755558746
 21
156.7666614924
  0
LINE
  8
0
 62
7
  6
CONTINUOUS
 10
170.6553625817
 20
77.3159499568
 11
170.6624184614
 21
76.1415263696
  0
LINE
  8
SURFACE
 62
7
  6
CONTINUOUS
 10
170.2899024945
 20
154.6113222696
 11
170.2828430918
 21
155.7863436963
  0
LINE
  8
SURFACE
 62
7
  6
CONTINUOUS
 10
170.2949029659
 20
153.5726120225
 11
170.2899024945
 21
154.6113222696
  0
LINE
  8
0
 62
7
  6
CONTINUOUS
 10
170.6503641493
 20
78.3541026002
 11
170.6553625817
 21
77.3159499568
  0
LINE
  8
0
 62
7
  6
CONTINUOUS
 10
170.6503641493
 20
78.3541026002
 11
170.6266959456
 21
84.2763638606
  0
LINE
  8
SURFACE
 62
7
  6
CONTINUOUS
 10
170.3185382968
 20
147.6240285121
 11
170.2949029659
 21
153.5726120225
  0
LINE
  8
0
 62
7
  6
CONTINUOUS
 10
170.6216349038
 20
85.6885134191
 11
170.6266959474
 21
84.2763639455
  0
LINE
  8
SURFACE
 62
7
  6
CONTINUOUS
 10
170.3231010924
 20
146.1958002459
 11
170.3185382968
 21
147.6240285121
  0
LINE
  8
0
 62
7
  6
CONTINUOUS
 10
170.6174971107
 20
87.1597120615
 11
170.6216349038
 21
85.6885134191
  0
LINE
  8
SURFACE
 62
7
  6
CONTINUOUS
 10
170.3266807321
 20
144.7292132929
 11
170.3231010924
 21
146.1958002459
  0
LINE
  8
0
 62
7
  6
CONTINUOUS
 10
170.6143678285
 20
88.6669496535
 11
170.6174971107
 21
87.1597120615
  0
LINE
  8
SURFACE
 62
7
  6
CONTINUOUS
 10
170.329252378
 20
143.2336988932
 11
170.3266807321
 21
144.7292132929
  0
LINE
  8
0
 62
7
  6
CONTINUOUS
 10
170.6122706581
 20
90.200673361
 11
170.6143678285
 21
88.6669496535
  0
LINE
  8
SURFACE
 62
7
  6
CONTINUOUS
 10
170.3307981721
 20
141.7189869303
 11
170.329252378
 21
143.2336988932
  0
LINE
  8
0
 62
7
  6
CONTINUOUS
 10
170.6112222418
 20
91.7509906336
 11
170.6122706581
 21
90.200673361
  0
LINE
  8
SURFACE
 62
7
  6
CONTINUOUS
 10
170.3313076995
 20
140.2100689526
 11
170.3307981721
 21
141.7189869303
  0
LINE
  8
SURFACE
 62
7
  6
CONTINUOUS
 10
170.3313076996
 20
138.6338157895
 11
170.3313076996
 21
140.2100689526
  0
LINE
  8
0
 62
7
  6
CONTINUOUS
 10
170.6112222418
 20
91.7509906336
 11
170.6110944362
 21
93.2938157895
  0
LINE
  8
SURF_PART
 62
2
  6
CENTER
 10
51.7377129498
 20
147.7138157895
 11
239.2526315789
 21
147.7138157895
  0
POLYLINE
  8
SURFACE
 62
7
  6
CONTINUOUS
 66
1
 70
0
  0
VERTEX
  8
SURFACE
 62
7
  6
CONTINUOUS
 10
222.8337080091
 20
162.7138157894
  0
VERTEX
  8
SURFACE
 62
7
  6
CONTINUOUS
 10
222.7290175139
 20
162.7107704481
  0
VERTEX
  8
SURFACE
 62
7
  6
CONTINUOUS
 10
222.5944922922
 20
162.6978584269
  0
VERTEX
  8
SURFACE
 62
7
  6
CONTINUOUS
 10
222.4610454284
 20
162.6748387807
  0
VERTEX
  8
SURFACE
 62
7
  6
CONTINUOUS
 10
222.3304492722
 20
162.6420744872
  0
VERTEX
  8
SURFACE
 62
7
  6
CONTINUOUS
 10
222.2043752775
 20
162.6002844792
  0
VERTEX
  8
SURFACE
 62
7
  6
CONTINUOUS
 10
222.0843396088
 20
162.5505174256
  0
VERTEX
  8
SURFACE
 62
7
  6
CONTINUOUS
 10
221.9716525296
 20
162.4941111781
  0
VERTEX
  8
SURFACE
 62
7
  6
CONTINUOUS
 10
221.8672976865
 20
162.4325882524
  0
VERTEX
  8
SURFACE
 62
7
  6
CONTINUOUS
 10
221.7712985597
 20
162.3671111924
  0
VERTEX
  8
SURFACE
 62
7
  6
CONTINUOUS
 10
221.6832121781
 20
162.2984893926
  0
VERTEX
  8
SURFACE
 62
7
  6
CONTINUOUS
 10
221.6025649092
 20
162.2273786411
  0
VERTEX
  8
SURFACE
 62
7
  6
CONTINUOUS
 10
221.528884004
 20
162.1543055131
  0
VERTEX
  8
SURFACE
 62
7
  6
CONTINUOUS
 10
221.4618414954
 20
162.0798369936
  0
VERTEX
  8
SURFACE
 62
7
  6
CONTINUOUS
 10
221.4012217564
 20
162.0046295436
  0
VERTEX
  8
SURFACE
 62
7
  6
CONTINUOUS
 10
221.3467669684
 20
161.9292935783
  0
VERTEX
  8
SURFACE
 62
7
  6
CONTINUOUS
 10
221.2981711153
 20
161.8543719635
  0
VERTEX
  8
SURFACE
 62
7
  6
CONTINUOUS
 10
221.2551447097
 20
161.7804337668
  0
VERTEX
  8
SURFACE
 62
7
  6
CONTINUOUS
 10
221.2174201568
 20
161.7081181989
  0
VERTEX
  8
SURFACE
 62
7
  6
CONTINUOUS
 10
221.1846664328
 20
161.6379914739
  0
VERTEX
  8
SURFACE
 62
7
  6
CONTINUOUS
 10
221.1565303924
 20
161.5706032948
  0
VERTEX
  8
SURFACE
 62
7
  6
CONTINUOUS
 10
221.1327703789
 20
161.5068566491
  0
VERTEX
  8
SURFACE
 62
7
  6
CONTINUOUS
 10
221.1131677585
 20
161.4479352799
  0
VERTEX
  8
SURFACE
 62
7
  6
CONTINUOUS
 10
221.0973278474
 20
161.3946907725
  0
VERTEX
  8
SURFACE
 62
7
  6
CONTINUOUS
 10
221.0846647885
 20
161.3472573825
  0
VERTEX
  8
SURFACE
 62
7
  6
CONTINUOUS
 10
221.0744010674
 20
161.3045756155
  0
VERTEX
  8
SURFACE
 62
7
  6
CONTINUOUS
 10
221.065923261
 20
161.265532608
  0
VERTEX
  8
SURFACE
 62
7
  6
CONTINUOUS
 10
221.0588031866
 20
161.2292562162
  0
VERTEX
  8
SURFACE
 62
7
  6
CONTINUOUS
 10
221.0528188228
 20
161.1955416875
  0
VERTEX
  8
SURFACE
 62
7
  6
CONTINUOUS
 10
221.0478161411
 20
161.1644184794
  0
VERTEX
  8
SURFACE
 62
7
  6
CONTINUOUS
 10
221.0436334825
 20
161.1357550921
  0
VERTEX
  8
SURFACE
 62
7
  6
CONTINUOUS
 10
221.0401209506
 20
161.1093313458
  0
VERTEX
  8
SURFACE
 62
7
  6
CONTINUOUS
 10
221.0371376018
 20
161.0847929286
  0
VERTEX
  8
SURFACE
 62
7
  6
CONTINUOUS
 10
221.0345606323
 20
161.0617105669
  0
VERTEX
  8
SURFACE
 62
7
  6
CONTINUOUS
 10
221.0322973433
 20
161.039717027
  0
VERTEX
  8
SURFACE
 62
7
  6
CONTINUOUS
 10
221.0302777886
 20
161.0185021651
  0
VERTEX
  8
SURFACE
 62
7
  6
CONTINUOUS
 10
221.0284486449
 20
160.997801323
  0
VERTEX
  8
SURFACE
 62
7
  6
CONTINUOUS
 10
221.0267688514
 20
160.9773859282
  0
VERTEX
  8
SURFACE
 62
7
  6
CONTINUOUS
 10
221.0252067835
 20
160.9570600257
  0
VERTEX
  8
SURFACE
 62
7
  6
CONTINUOUS
 10
221.0223438256
 20
160.9160342202
  0
SEQEND
  0
LINE
  8
0
 62
7
  6
CONTINUOUS
 10
187.0510382181
 20
91.6918747266
 11
187.052843916
 21
93.2923754736
  0
LINE
  8
SURFACE
 62
7
  6
CONTINUOUS
 10
187.3127638298
 20
140.286779981
 11
187.3103707575
 21
138.6358252152
  0
LINE
  8
0
 62
7
  6
CONTINUOUS
 10
187.0481787999
 20
90.1023121042
 11
187.0510382181
 21
91.6918747266
  0
LINE
  8
SURFACE
 62
7
  6
CONTINUOUS
 10
187.3162441445
 20
141.9179526919
 11
187.3127638298
 21
140.286779981
  0
LINE
  8
0
 62
7
  6
CONTINUOUS
 10
187.0443009797
 20
88.5479561162
 11
187.0481787999
 21
90.1023121042
  0
LINE
  8
SURFACE
 62
7
  6
CONTINUOUS
 10
187.3207678523
 20
143.5064463572
 11
187.3162441445
 21
141.9179526919
  0
LINE
  8
0
 62
7
  6
CONTINUOUS
 10
187.0394334965
 20
87.0374621478
 11
187.0443009797
 21
88.5479561162
  0
LINE
  8
SURFACE
 62
7
  6
CONTINUOUS
 10
187.3262452445
 20
145.0296152281
 11
187.3207678523
 21
143.5064463572
  0
LINE
  8
0
 62
7
  6
CONTINUOUS
 10
187.0394334965
 20
87.0374621478
 11
187.0064264847
 21
78.7221641482
  0
LINE
  8
SURFACE
 62
7
  6
CONTINUOUS
 10
187.3651661389
 20
154.5747488769
 11
187.3262452426
 21
145.0296153172
  0
LINE
  8
0
 62
7
  6
CONTINUOUS
 10
186.9987555111
 20
77.1059028263
 11
187.0064264846
 21
78.72216415
  0
LINE
  8
SURFACE
 62
7
  6
CONTINUOUS
 10
187.3748083662
 20
156.1293430189
 11
187.3651661389
 21
154.5747488769
  0
LINE
  8
0
 62
7
  6
CONTINUOUS
 10
186.9890313044
 20
75.6044727268
 11
186.9987555111
 21
77.1059028263
  0
LINE
  8
SURFACE
 62
7
  6
CONTINUOUS
 10
187.3862313227
 20
157.5017983269
 11
187.3748083662
 21
156.1293430189
  0
LINE
  8
0
 62
7
  6
CONTINUOUS
 10
186.9775870205
 20
74.2779551381
 11
186.9890313044
 21
75.6044727268
  0
LINE
  8
SURFACE
 62
7
  6
CONTINUOUS
 10
187.3989975345
 20
158.6540028948
 11
187.3862313227
 21
157.5017983269
  0
LINE
  8
0
 62
7
  6
CONTINUOUS
 10
186.9648531664
 20
73.1653471782
 11
186.9775870205
 21
74.2779551381
  0
LINE
  8
SURFACE
 62
7
  6
CONTINUOUS
 10
187.4125477918
 20
159.5623659508
 11
187.3989975345
 21
158.6540028948
  0
LINE
  8
0
 62
7
  6
CONTINUOUS
 10
186.9514242527
 20
72.2927562261
 11
186.9648531664
 21
73.1653471782
  0
LINE
  8
SURFACE
 62
7
  6
CONTINUOUS
 10
187.4223097609
 20
160.0569028507
 11
187.4125477918
 21
159.5623659508
  0
LINE
  8
0
 62
7
  6
CONTINUOUS
 10
186.9429336161
 20
71.8698476154
 11
186.9514242527
 21
72.2927562261
  0
LINE
  8
SURFACE
 62
7
  6
CONTINUOUS
 10
187.4291415005
 20
160.334074631
 11
187.4223097609
 21
160.0569028507
  0
LINE
  8
0
 62
7
  6
CONTINUOUS
 10
186.9360993414
 20
71.5927383834
 11
186.9429336161
 21
71.8698476154
  0
LINE
  8
SURFACE
 62
7
  6
CONTINUOUS
 10
187.434687235
 20
160.52093216
 11
187.4291415005
 21
160.334074631
  0
LINE
  8
0
 62
7
  6
CONTINUOUS
 10
186.9305517982
 20
71.4059576168
 11
186.9360993414
 21
71.5927383834
  0
POLYLINE
  8
SURFACE
 62
7
  6
CONTINUOUS
 66
1
 70
0
  0
VERTEX
  8
SURFACE
 62
7
  6
CONTINUOUS
 10
187.3103706839
 20
138.6358252935
  0
VERTEX
  8
SURFACE
 62
7
  6
CONTINUOUS
 10
187.3066187995
 20
138.5214355353
  0
VERTEX
  8
SURFACE
 62
7
  6
CONTINUOUS
 10
187.2943674697
 20
138.3978499524
  0
VERTEX
  8
SURFACE
 62
7
  6
CONTINUOUS
 10
187.2738614651
 20
138.2763713917
  0
VERTEX
  8
SURFACE
 62
7
  6
CONTINUOUS
 10
187.2453164459
 20
138.1572356193
  0
VERTEX
  8
SURFACE
 62
7
  6
CONTINUOUS
 10
187.2089080293
 20
138.0406944239
  0
VERTEX
  8
SURFACE
 62
7
  6
CONTINUOUS
 10
187.1647690217
 20
137.9269933729
  0
VERTEX
  8
SURFACE
 62
7
  6
CONTINUOUS
 10
187.1129987948
 20
137.8163991249
  0
VERTEX
  8
SURFACE
 62
7
  6
CONTINUOUS
 10
187.0536883619
 20
137.7092366674
  0
VERTEX
  8
SURFACE
 62
7
  6
CONTINUOUS
 10
186.9869154303
 20
137.6058565128
  0
VERTEX
  8
SURFACE
 62
7
  6
CONTINUOUS
 10
186.9127459255
 20
137.5066341193
  0
VERTEX
  8
SURFACE
 62
7
  6
CONTINUOUS
 10
186.8312141499
 20
137.4119487916
  0
VERTEX
  8
SURFACE
 62
7
  6
CONTINUOUS
 10
186.749822148
 20
137.3293013769
  0
SEQEND
  0
POLYLINE
  8
0
 62
7
  6
CONTINUOUS
 66
1
 70
0
  0
VERTEX
  8
0
 62
7
  6
CONTINUOUS
 10
187.0528439546
 20
93.2923754371
  0
VERTEX
  8
0
 62
7
  6
CONTINUOUS
 10
187.0569024277
 20
93.4118550602
  0
VERTEX
  8
0
 62
7
  6
CONTINUOUS
 10
187.0703247299
 20
93.5414155727
  0
VERTEX
  8
0
 62
7
  6
CONTINUOUS
 10
187.0930862114
 20
93.6697766976
  0
VERTEX
  8
0
 62
7
  6
CONTINUOUS
 10
187.1251050278
 20
93.7963097538
  0
VERTEX
  8
0
 62
7
  6
CONTINUOUS
 10
187.1662642363
 20
93.9203888236
  0
VERTEX
  8
0
 62
7
  6
CONTINUOUS
 10
187.2163924149
 20
94.0413498901
  0
VERTEX
  8
0
 62
7
  6
CONTINUOUS
 10
187.2752487807
 20
94.1585009628
  0
VERTEX
  8
0
 62
7
  6
CONTINUOUS
 10
187.3425318177
 20
94.2711679808
  0
VERTEX
  8
0
 62
7
  6
CONTINUOUS
 10
187.4107401879
 20
94.3691969014
  0
SEQEND
  0
LINE
  8
SURFACE
 62
7
  6
CONTINUOUS
 10
187.4391236631
 20
160.6474257224
 11
187.434687235
 21
160.52093216
  0
LINE
  8
0
 62
7
  6
CONTINUOUS
 10
186.9261144386
 20
71.2795469344
 11
186.9305517982
 21
71.4059576168
  0
LINE
  8
SURFACE
 62
7
  6
CONTINUOUS
 10
187.4424894556
 20
160.7305769844
 11
187.4391236631
 21
160.6474257224
  0
LINE
  8
0
 62
7
  6
CONTINUOUS
 10
186.9227481612
 20
71.1964641098
 11
186.9261144386
 21
71.2795469344
  0
LINE
  8
SURFACE
 62
7
  6
CONTINUOUS
 10
187.445942948
 20
160.8051290433
 11
187.4424894556
 21
160.7305769844
  0
LINE
  8
0
 62
7
  6
CONTINUOUS
 10
186.9192940859
 20
71.1219781418
 11
186.9227481612
 21
71.1964641098
  0
LINE
  8
SURFACE
 62
7
  6
CONTINUOUS
 10
187.4483394142
 20
160.8508846005
 11
187.445942948
 21
160.8051290433
  0
LINE
  8
0
 62
7
  6
CONTINUOUS
 10
186.9168969742
 20
71.0762620687
 11
186.9192940859
 21
71.1219781418
  0
LINE
  8
SURFACE
 62
7
  6
CONTINUOUS
 10
187.4508650993
 20
160.8942231298
 11
187.4483394142
 21
160.8508846005
  0
LINE
  8
0
 62
7
  6
CONTINUOUS
 10
186.9143703649
 20
71.0329594442
 11
186.9168969742
 21
71.0762620687
  0
POLYLINE
  8
SURFACE
 62
7
  6
CONTINUOUS
 66
1
 70
0
  0
VERTEX
  8
SURFACE
 62
7
  6
CONTINUOUS
 10
155.8436033235
 20
162.7138156742
  0
VERTEX
  8
SURFACE
 62
7
  6
CONTINUOUS
 10
155.7388240461
 20
162.710765163
  0
VERTEX
  8
SURFACE
 62
7
  6
CONTINUOUS
 10
155.6042081758
 20
162.6978342544
  0
VERTEX
  8
SURFACE
 62
7
  6
CONTINUOUS
 10
155.4706640844
 20
162.6747801161
  0
VERTEX
  8
SURFACE
 62
7
  6
CONTINUOUS
 10
155.3399709868
 20
162.6419655674
  0
VERTEX
  8
SURFACE
 62
7
  6
CONTINUOUS
 10
155.2138068683
 20
162.6001112878
  0
VERTEX
  8
SURFACE
 62
7
  6
CONTINUOUS
 10
155.0936937093
 20
162.5502694638
  0
VERTEX
  8
SURFACE
 62
7
  6
CONTINUOUS
 10
154.9809465732
 20
162.4937829945
  0
VERTEX
  8
SURFACE
 62
7
  6
CONTINUOUS
 10
154.8765503316
 20
162.4321791019
  0
VERTEX
  8
SURFACE
 62
7
  6
CONTINUOUS
 10
154.7805230156
 20
162.3666205321
  0
VERTEX
  8
SURFACE
 62
7
  6
CONTINUOUS
 10
154.6924193364
 20
162.2979173533
  0
VERTEX
  8
SURFACE
 62
7
  6
CONTINUOUS
 10
154.6117637347
 20
162.2267255659
  0
VERTEX
  8
SURFACE
 62
7
  6
CONTINUOUS
 10
154.5380821714
 20
162.1535719068
  0
VERTEX
  8
SURFACE
 62
7
  6
CONTINUOUS
 10
154.4710480199
 20
162.0790262995
  0
VERTEX
  8
SURFACE
 62
7
  6
CONTINUOUS
 10
154.4104454387
 20
162.0037472471
  0
VERTEX
  8
SURFACE
 62
7
  6
CONTINUOUS
 10
154.356015905
 20
161.9283468596
  0
VERTEX
  8
SURFACE
 62
7
  6
CONTINUOUS
 10
154.3074521154
 20
161.8533688998
  0
VERTEX
  8
SURFACE
 62
7
  6
CONTINUOUS
 10
154.2644640063
 20
161.7793845654
  0
VERTEX
  8
SURFACE
 62
7
  6
CONTINUOUS
 10
154.2267812573
 20
161.7070314649
  0
VERTEX
  8
SURFACE
 62
7
  6
CONTINUOUS
 10
154.1940706876
 20
161.636874042
  0
VERTEX
  8
SURFACE
 62
7
  6
CONTINUOUS
 10
154.165978485
 20
161.5694627689
  0
VERTEX
  8
SURFACE
 62
7
  6
CONTINUOUS
 10
154.1422674477
 20
161.5057169368
  0
VERTEX
  8
SURFACE
 62
7
  6
CONTINUOUS
 10
154.1227191569
 20
161.4468311809
  0
VERTEX
  8
SURFACE
 62
7
  6
CONTINUOUS
 10
154.1069364108
 20
161.3936602878
  0
VERTEX
  8
SURFACE
 62
7
  6
CONTINUOUS
 10
154.0943256356
 20
161.3463172581
  0
VERTEX
  8
SURFACE
 62
7
  6
CONTINUOUS
 10
154.0841045636
 20
161.303719207
  0
VERTEX
  8
SURFACE
 62
7
  6
CONTINUOUS
 10
154.0756602927
 20
161.2647459343
  0
VERTEX
  8
SURFACE
 62
7
  6
CONTINUOUS
 10
154.0685665695
 20
161.2285253236
  0
VERTEX
  8
SURFACE
 62
7
  6
CONTINUOUS
 10
154.0626044549
 20
161.1948632201
  0
VERTEX
  8
SURFACE
 62
7
  6
CONTINUOUS
 10
154.0576203316
 20
161.1637884446
  0
VERTEX
  8
SURFACE
 62
7
  6
CONTINUOUS
 10
154.0534530661
 20
161.1351693906
  0
VERTEX
  8
SURFACE
 62
7
  6
CONTINUOUS
 10
154.0499532596
 20
161.1087858259
  0
VERTEX
  8
SURFACE
 62
7
  6
CONTINUOUS
 10
154.0469800164
 20
161.0842797989
  0
VERTEX
  8
SURFACE
 62
7
  6
CONTINUOUS
 10
154.0444113374
 20
161.0612247827
  0
VERTEX
  8
SURFACE
 62
7
  6
CONTINUOUS
 10
154.0421550625
 20
161.0392557043
  0
VERTEX
  8
SURFACE
 62
7
  6
CONTINUOUS
 10
154.0401413637
 20
161.0180614122
  0
VERTEX
  8
SURFACE
 62
7
  6
CONTINUOUS
 10
154.0383169457
 20
160.9973752359
  0
VERTEX
  8
SURFACE
 62
7
  6
CONTINUOUS
 10
154.0366410224
 20
160.9769695154
  0
VERTEX
  8
SURFACE
 62
7
  6
CONTINUOUS
 10
154.0350821827
 20
160.9566491523
  0
VERTEX
  8
SURFACE
 62
7
  6
CONTINUOUS
 10
154.0336162383
 20
160.9362484454
  0
VERTEX
  8
SURFACE
 62
7
  6
CONTINUOUS
 10
154.0308926986
 20
160.8946706046
  0
SEQEND
  0
POLYLINE
  8
SURFACE
 62
7
  6
CONTINUOUS
 66
1
 70
0
  0
VERTEX
  8
SURFACE
 62
7
  6
CONTINUOUS
 10
122.4236033285
 20
162.7138156781
  0
VERTEX
  8
SURFACE
 62
7
  6
CONTINUOUS
 10
122.3188246932
 20
162.7107652043
  0
VERTEX
  8
SURFACE
 62
7
  6
CONTINUOUS
 10
122.1842094394
 20
162.6978344272
  0
VERTEX
  8
SURFACE
 62
7
  6
CONTINUOUS
 10
122.0506659175
 20
162.6747805073
  0
VERTEX
  8
SURFACE
 62
7
  6
CONTINUOUS
 10
121.9199733255
 20
162.6419662515
  0
VERTEX
  8
SURFACE
 62
7
  6
CONTINUOUS
 10
121.7938096342
 20
162.6001123227
  0
VERTEX
  8
SURFACE
 62
7
  6
CONTINUOUS
 10
121.6736968131
 20
162.5502708874
  0
VERTEX
  8
SURFACE
 62
7
  6
CONTINUOUS
 10
121.5609499192
 20
162.4937848219
  0
VERTEX
  8
SURFACE
 62
7
  6
CONTINUOUS
 10
121.4565538335
 20
162.432181332
  0
VERTEX
  8
SURFACE
 62
7
  6
CONTINUOUS
 10
121.3605266192
 20
162.3666231677
  0
VERTEX
  8
SURFACE
 62
7
  6
CONTINUOUS
 10
121.2724229951
 20
162.2979203939
  0
VERTEX
  8
SURFACE
 62
7
  6
CONTINUOUS
 10
121.1917674083
 20
162.226729009
  0
VERTEX
  8
SURFACE
 62
7
  6
CONTINUOUS
 10
121.1180858231
 20
162.1535757469
  0
VERTEX
  8
SURFACE
 62
7
  6
CONTINUOUS
 10
121.0510516048
 20
162.0790305152
  0
VERTEX
  8
SURFACE
 62
7
  6
CONTINUOUS
 10
120.9904489142
 20
162.0037518076
  0
VERTEX
  8
SURFACE
 62
7
  6
CONTINUOUS
 10
120.9360192328
 20
161.928351727
  0
VERTEX
  8
SURFACE
 62
7
  6
CONTINUOUS
 10
120.8874552644
 20
161.8533740327
  0
VERTEX
  8
SURFACE
 62
7
  6
CONTINUOUS
 10
120.8444669487
 20
161.7793899136
  0
VERTEX
  8
SURFACE
 62
7
  6
CONTINUOUS
 10
120.8067839798
 20
161.7070369889
  0
VERTEX
  8
SURFACE
 62
7
  6
CONTINUOUS
 10
120.7740731882
 20
161.6368797144
  0
VERTEX
  8
SURFACE
 62
7
  6
CONTINUOUS
 10
120.7459807655
 20
161.5694685624
  0
VERTEX
  8
SURFACE
 62
7
  6
CONTINUOUS
 10
120.7222694884
 20
161.5057227486
  0
VERTEX
  8
SURFACE
 62
7
  6
CONTINUOUS
 10
120.7027209364
 20
161.4468368588
  0
VERTEX
  8
SURFACE
 62
7
  6
CONTINUOUS
 10
120.6869379071
 20
161.3936656214
  0
VERTEX
  8
SURFACE
 62
7
  6
CONTINUOUS
 10
120.6743267894
 20
161.3463218335
  0
VERTEX
  8
SURFACE
 62
7
  6
CONTINUOUS
 10
120.6641054561
 20
161.3037231313
  0
VERTEX
  8
SURFACE
 62
7
  6
CONTINUOUS
 10
120.6556609969
 20
161.2647493602
  0
VERTEX
  8
SURFACE
 62
7
  6
CONTINUOUS
 10
120.6485671368
 20
161.2285283758
  0
VERTEX
  8
SURFACE
 62
7
  6
CONTINUOUS
 10
120.6426049186
 20
161.1948659755
  0
VERTEX
  8
SURFACE
 62
7
  6
CONTINUOUS
 10
120.6376207183
 20
161.1637909771
  0
VERTEX
  8
SURFACE
 62
7
  6
CONTINUOUS
 10
120.6334533962
 20
161.1351717658
  0
VERTEX
  8
SURFACE
 62
7
  6
CONTINUOUS
 10
120.6299535481
 20
161.1087881003
  0
VERTEX
  8
SURFACE
 62
7
  6
CONTINUOUS
 10
120.6269802756
 20
161.0842820309
  0
VERTEX
  8
SURFACE
 62
7
  6
CONTINUOUS
 10
120.6244115467
 20
161.0612267446
  0
VERTEX
  8
SURFACE
 62
7
  6
CONTINUOUS
 10
120.622155238
 20
161.0392574864
  0
VERTEX
  8
SURFACE
 62
7
  6
CONTINUOUS
 10
120.6201415168
 20
161.0180630867
  0
VERTEX
  8
SURFACE
 62
7
  6
CONTINUOUS
 10
120.6183170839
 20
160.9973768588
  0
VERTEX
  8
SURFACE
 62
7
  6
CONTINUOUS
 10
120.6166411509
 20
160.9769711307
  0
VERTEX
  8
SURFACE
 62
7
  6
CONTINUOUS
 10
120.6150823048
 20
160.9566507958
  0
VERTEX
  8
SURFACE
 62
7
  6
CONTINUOUS
 10
120.6136163496
 20
160.9362500477
  0
VERTEX
  8
SURFACE
 62
7
  6
CONTINUOUS
 10
120.610892793
 20
160.8946721348
  0
SEQEND
  0
POLYLINE
  8
SURFACE
 62
7
  6
CONTINUOUS
 66
1
 70
0
  0
VERTEX
  8
SURFACE
 62
7
  6
CONTINUOUS
 10
89.0036033285
 20
162.7138156781
  0
VERTEX
  8
SURFACE
 62
7
  6
CONTINUOUS
 10
88.8988246932
 20
162.7107652043
  0
VERTEX
  8
SURFACE
 62
7
  6
CONTINUOUS
 10
88.7642094394
 20
162.6978344272
  0
VERTEX
  8
SURFACE
 62
7
  6
CONTINUOUS
 10
88.6306659175
 20
162.6747805073
  0
VERTEX
  8
SURFACE
 62
7
  6
CONTINUOUS
 10
88.4999733255
 20
162.6419662515
  0
VERTEX
  8
SURFACE
 62
7
  6
CONTINUOUS
 10
88.3738096342
 20
162.6001123227
  0
VERTEX
  8
SURFACE
 62
7
  6
CONTINUOUS
 10
88.2536968131
 20
162.5502708874
  0
VERTEX
  8
SURFACE
 62
7
  6
CONTINUOUS
 10
88.1409499192
 20
162.4937848219
  0
VERTEX
  8
SURFACE
 62
7
  6
CONTINUOUS
 10
88.0365538335
 20
162.432181332
  0
VERTEX
  8
SURFACE
 62
7
  6
CONTINUOUS
 10
87.9405266192
 20
162.3666231677
  0
VERTEX
  8
SURFACE
 62
7
  6
CONTINUOUS
 10
87.8524229951
 20
162.2979203939
  0
VERTEX
  8
SURFACE
 62
7
  6
CONTINUOUS
 10
87.7717674083
 20
162.226729009
  0
VERTEX
  8
SURFACE
 62
7
  6
CONTINUOUS
 10
87.6980858231
 20
162.1535757469
  0
VERTEX
  8
SURFACE
 62
7
  6
CONTINUOUS
 10
87.6310516048
 20
162.0790305152
  0
VERTEX
  8
SURFACE
 62
7
  6
CONTINUOUS
 10
87.5704489142
 20
162.0037518076
  0
VERTEX
  8
SURFACE
 62
7
  6
CONTINUOUS
 10
87.5160192328
 20
161.928351727
  0
VERTEX
  8
SURFACE
 62
7
  6
CONTINUOUS
 10
87.4674552644
 20
161.8533740327
  0
VERTEX
  8
SURFACE
 62
7
  6
CONTINUOUS
 10
87.4244669487
 20
161.7793899136
  0
VERTEX
  8
SURFACE
 62
7
  6
CONTINUOUS
 10
87.3867839798
 20
161.7070369889
  0
VERTEX
  8
SURFACE
 62
7
  6
CONTINUOUS
 10
87.3540731883
 20
161.6368797144
  0
VERTEX
  8
SURFACE
 62
7
  6
CONTINUOUS
 10
87.3259807655
 20
161.5694685624
  0
VERTEX
  8
SURFACE
 62
7
  6
CONTINUOUS
 10
87.3022694884
 20
161.5057227486
  0
VERTEX
  8
SURFACE
 62
7
  6
CONTINUOUS
 10
87.2827209364
 20
161.4468368588
  0
VERTEX
  8
SURFACE
 62
7
  6
CONTINUOUS
 10
87.2669379071
 20
161.3936656214
  0
VERTEX
  8
SURFACE
 62
7
  6
CONTINUOUS
 10
87.2543267894
 20
161.3463218335
  0
VERTEX
  8
SURFACE
 62
7
  6
CONTINUOUS
 10
87.2441054561
 20
161.3037231313
  0
VERTEX
  8
SURFACE
 62
7
  6
CONTINUOUS
 10
87.2356609969
 20
161.2647493602
  0
VERTEX
  8
SURFACE
 62
7
  6
CONTINUOUS
 10
87.2285671368
 20
161.2285283758
  0
VERTEX
  8
SURFACE
 62
7
  6
CONTINUOUS
 10
87.2226049186
 20
161.1948659755
  0
VERTEX
  8
SURFACE
 62
7
  6
CONTINUOUS
 10
87.2176207183
 20
161.1637909771
  0
VERTEX
  8
SURFACE
 62
7
  6
CONTINUOUS
 10
87.2134533962
 20
161.1351717658
  0
VERTEX
  8
SURFACE
 62
7
  6
CONTINUOUS
 10
87.2099535481
 20
161.1087881003
  0
VERTEX
  8
SURFACE
 62
7
  6
CONTINUOUS
 10
87.2069802756
 20
161.0842820309
  0
VERTEX
  8
SURFACE
 62
7
  6
CONTINUOUS
 10
87.2044115467
 20
161.0612267446
  0
VERTEX
  8
SURFACE
 62
7
  6
CONTINUOUS
 10
87.202155238
 20
161.0392574864
  0
VERTEX
  8
SURFACE
 62
7
  6
CONTINUOUS
 10
87.2001415168
 20
161.0180630867
  0
VERTEX
  8
SURFACE
 62
7
  6
CONTINUOUS
 10
87.1983170839
 20
160.9973768588
  0
VERTEX
  8
SURFACE
 62
7
  6
CONTINUOUS
 10
87.1966411509
 20
160.9769711307
  0
VERTEX
  8
SURFACE
 62
7
  6
CONTINUOUS
 10
87.1950823048
 20
160.9566507958
  0
VERTEX
  8
SURFACE
 62
7
  6
CONTINUOUS
 10
87.1936163496
 20
160.9362500477
  0
VERTEX
  8
SURFACE
 62
7
  6
CONTINUOUS
 10
87.190892793
 20
160.8946721348
  0
SEQEND
  0
POLYLINE
  8
SURFACE
 62
7
  6
CONTINUOUS
 66
1
 70
0
  0
VERTEX
  8
SURFACE
 62
7
  6
CONTINUOUS
 10
55.5836033285
 20
162.7138156781
  0
VERTEX
  8
SURFACE
 62
7
  6
CONTINUOUS
 10
55.4788246932
 20
162.7107652043
  0
VERTEX
  8
SURFACE
 62
7
  6
CONTINUOUS
 10
55.3442094394
 20
162.6978344272
  0
VERTEX
  8
SURFACE
 62
7
  6
CONTINUOUS
 10
55.2106659175
 20
162.6747805073
  0
VERTEX
  8
SURFACE
 62
7
  6
CONTINUOUS
 10
55.0799733255
 20
162.6419662515
  0
VERTEX
  8
SURFACE
 62
7
  6
CONTINUOUS
 10
54.9538096342
 20
162.6001123227
  0
VERTEX
  8
SURFACE
 62
7
  6
CONTINUOUS
 10
54.8336968131
 20
162.5502708874
  0
VERTEX
  8
SURFACE
 62
7
  6
CONTINUOUS
 10
54.7209499192
 20
162.4937848219
  0
VERTEX
  8
SURFACE
 62
7
  6
CONTINUOUS
 10
54.6165538335
 20
162.432181332
  0
VERTEX
  8
SURFACE
 62
7
  6
CONTINUOUS
 10
54.5205266192
 20
162.3666231677
  0
VERTEX
  8
SURFACE
 62
7
  6
CONTINUOUS
 10
54.4324229951
 20
162.2979203939
  0
VERTEX
  8
SURFACE
 62
7
  6
CONTINUOUS
 10
54.3517674083
 20
162.226729009
  0
VERTEX
  8
SURFACE
 62
7
  6
CONTINUOUS
 10
54.2780858231
 20
162.1535757469
  0
VERTEX
  8
SURFACE
 62
7
  6
CONTINUOUS
 10
54.2110516048
 20
162.0790305152
  0
VERTEX
  8
SURFACE
 62
7
  6
CONTINUOUS
 10
54.1504489142
 20
162.0037518076
  0
VERTEX
  8
SURFACE
 62
7
  6
CONTINUOUS
 10
54.0960192328
 20
161.928351727
  0
VERTEX
  8
SURFACE
 62
7
  6
CONTINUOUS
 10
54.0474552644
 20
161.8533740327
  0
VERTEX
  8
SURFACE
 62
7
  6
CONTINUOUS
 10
54.0044669487
 20
161.7793899136
  0
VERTEX
  8
SURFACE
 62
7
  6
CONTINUOUS
 10
53.9667839798
 20
161.7070369889
  0
VERTEX
  8
SURFACE
 62
7
  6
CONTINUOUS
 10
53.9340731883
 20
161.6368797144
  0
VERTEX
  8
SURFACE
 62
7
  6
CONTINUOUS
 10
53.9059807655
 20
161.5694685624
  0
VERTEX
  8
SURFACE
 62
7
  6
CONTINUOUS
 10
53.8822694884
 20
161.5057227486
  0
VERTEX
  8
SURFACE
 62
7
  6
CONTINUOUS
 10
53.8627209364
 20
161.4468368588
  0
VERTEX
  8
SURFACE
 62
7
  6
CONTINUOUS
 10
53.8469379071
 20
161.3936656214
  0
VERTEX
  8
SURFACE
 62
7
  6
CONTINUOUS
 10
53.8343267894
 20
161.3463218335
  0
VERTEX
  8
SURFACE
 62
7
  6
CONTINUOUS
 10
53.8241054561
 20
161.3037231313
  0
VERTEX
  8
SURFACE
 62
7
  6
CONTINUOUS
 10
53.8156609969
 20
161.2647493603
  0
VERTEX
  8
SURFACE
 62
7
  6
CONTINUOUS
 10
53.8085671368
 20
161.2285283758
  0
VERTEX
  8
SURFACE
 62
7
  6
CONTINUOUS
 10
53.8026049186
 20
161.1948659755
  0
VERTEX
  8
SURFACE
 62
7
  6
CONTINUOUS
 10
53.7976207183
 20
161.1637909771
  0
VERTEX
  8
SURFACE
 62
7
  6
CONTINUOUS
 10
53.7934533962
 20
161.1351717658
  0
VERTEX
  8
SURFACE
 62
7
  6
CONTINUOUS
 10
53.7899535481
 20
161.1087881003
  0
VERTEX
  8
SURFACE
 62
7
  6
CONTINUOUS
 10
53.7869802756
 20
161.0842820309
  0
VERTEX
  8
SURFACE
 62
7
  6
CONTINUOUS
 10
53.7844115467
 20
161.0612267446
  0
VERTEX
  8
SURFACE
 62
7
  6
CONTINUOUS
 10
53.782155238
 20
161.0392574864
  0
VERTEX
  8
SURFACE
 62
7
  6
CONTINUOUS
 10
53.7801415168
 20
161.0180630867
  0
VERTEX
  8
SURFACE
 62
7
  6
CONTINUOUS
 10
53.7783170839
 20
160.9973768588
  0
VERTEX
  8
SURFACE
 62
7
  6
CONTINUOUS
 10
53.7766411509
 20
160.9769711307
  0
VERTEX
  8
SURFACE
 62
7
  6
CONTINUOUS
 10
53.7750823048
 20
160.9566507958
  0
VERTEX
  8
SURFACE
 62
7
  6
CONTINUOUS
 10
53.7736163496
 20
160.9362500477
  0
VERTEX
  8
SURFACE
 62
7
  6
CONTINUOUS
 10
53.770892793
 20
160.8946721348
  0
SEQEND
  0
POLYLINE
  8
SURFACE
 62
7
  6
CONTINUOUS
 66
1
 70
0
  0
VERTEX
  8
SURFACE
 62
7
  6
CONTINUOUS
 10
189.2636033273
 20
162.7138156763
  0
VERTEX
  8
SURFACE
 62
7
  6
CONTINUOUS
 10
189.1602184119
 20
162.7108458816
  0
VERTEX
  8
SURFACE
 62
7
  6
CONTINUOUS
 10
189.0255670562
 20
162.6980159724
  0
VERTEX
  8
SURFACE
 62
7
  6
CONTINUOUS
 10
188.8919123391
 20
162.6750438586
  0
VERTEX
  8
SURFACE
 62
7
  6
CONTINUOUS
 10
188.7610562102
 20
162.6422812731
  0
VERTEX
  8
SURFACE
 62
7
  6
CONTINUOUS
 10
188.634699964
 20
162.6004443601
  0
VERTEX
  8
SURFACE
 62
7
  6
CONTINUOUS
 10
188.5143881611
 20
162.5505873055
  0
VERTEX
  8
SURFACE
 62
7
  6
CONTINUOUS
 10
188.40145652
 20
162.4940611147
  0
VERTEX
  8
SURFACE
 62
7
  6
CONTINUOUS
 10
188.2969045564
 20
162.4324044727
  0
VERTEX
  8
SURFACE
 62
7
  6
CONTINUOUS
 10
188.2007477478
 20
162.3667848083
  0
VERTEX
  8
SURFACE
 62
7
  6
CONTINUOUS
 10
188.1125354872
 20
162.298013856
  0
VERTEX
  8
SURFACE
 62
7
  6
CONTINUOUS
 10
188.0317874345
 20
162.2267477775
  0
VERTEX
  8
SURFACE
 62
7
  6
CONTINUOUS
 10
187.9580258903
 20
162.1535127119
  0
VERTEX
  8
SURFACE
 62
7
  6
CONTINUOUS
 10
187.8909253604
 20
162.0788820081
  0
VERTEX
  8
SURFACE
 62
7
  6
CONTINUOUS
 10
187.8302708333
 20
162.0035180122
  0
VERTEX
  8
SURFACE
 62
7
  6
CONTINUOUS
 10
187.775803857
 20
161.928036504
  0
VERTEX
  8
SURFACE
 62
7
  6
CONTINUOUS
 10
187.7272161067
 20
161.8529838805
  0
VERTEX
  8
SURFACE
 62
7
  6
CONTINUOUS
 10
187.6842160909
 20
161.7789335059
  0
VERTEX
  8
SURFACE
 62
7
  6
CONTINUOUS
 10
187.6465292732
 20
161.706519622
  0
VERTEX
  8
SURFACE
 62
7
  6
CONTINUOUS
 10
187.6138193243
 20
161.636303169
  0
VERTEX
  8
SURFACE
 62
7
  6
CONTINUOUS
 10
187.5857315453
 20
161.5688346446
  0
VERTEX
  8
SURFACE
 62
7
  6
CONTINUOUS
 10
187.5620359775
 20
161.5050568702
  0
VERTEX
  8
SURFACE
 62
7
  6
CONTINUOUS
 10
187.5425167697
 20
161.4461847597
  0
VERTEX
  8
SURFACE
 62
7
  6
CONTINUOUS
 10
187.5267745863
 20
161.3930831274
  0
VERTEX
  8
SURFACE
 62
7
  6
CONTINUOUS
 10
187.5142031601
 20
161.3458316049
  0
VERTEX
  8
SURFACE
 62
7
  6
CONTINUOUS
 10
187.5040110816
 20
161.303308404
  0
VERTEX
  8
SURFACE
 62
7
  6
CONTINUOUS
 10
187.4955846746
 20
161.264378266
  0
VERTEX
  8
SURFACE
 62
7
  6
CONTINUOUS
 10
187.4885001901
 20
161.2281683245
  0
VERTEX
  8
SURFACE
 62
7
  6
CONTINUOUS
 10
187.4825449871
 20
161.1945097053
  0
VERTEX
  8
SURFACE
 62
7
  6
CONTINUOUS
 10
187.4775667907
 20
161.1634373502
  0
VERTEX
  8
SURFACE
 62
7
  6
CONTINUOUS
 10
187.4734050413
 20
161.134823068
  0
VERTEX
  8
SURFACE
 62
7
  6
CONTINUOUS
 10
187.4699104511
 20
161.1084476564
  0
VERTEX
  8
SURFACE
 62
7
  6
CONTINUOUS
 10
187.4669411476
 20
161.0839448236
  0
VERTEX
  8
SURFACE
 62
7
  6
CONTINUOUS
 10
187.4643754024
 20
161.0608882348
  0
VERTEX
  8
SURFACE
 62
7
  6
CONTINUOUS
 10
187.4621213349
 20
161.0389136961
  0
VERTEX
  8
SURFACE
 62
7
  6
CONTINUOUS
 10
187.4601093091
 20
161.0177106974
  0
VERTEX
  8
SURFACE
 62
7
  6
CONTINUOUS
 10
187.4582861569
 20
160.9970129549
  0
VERTEX
  8
SURFACE
 62
7
  6
CONTINUOUS
 10
187.4566111942
 20
160.9765932249
  0
VERTEX
  8
SURFACE
 62
7
  6
CONTINUOUS
 10
187.4550530877
 20
160.956256789
  0
VERTEX
  8
SURFACE
 62
7
  6
CONTINUOUS
 10
187.4535877181
 20
160.9358384281
  0
VERTEX
  8
SURFACE
 62
7
  6
CONTINUOUS
 10
187.4508650993
 20
160.8942231298
  0
SEQEND
  0
LINE
  8
SURFACE
 62
7
  6
CONTINUOUS
 10
201.8116598871
 20
162.7138157895
 11
189.2636032707
 21
162.7138157895
  0
LINE
  8
SURFACE
 62
7
  6
CONTINUOUS
 10
168.3916598872
 20
162.7138157895
 11
155.8436032708
 21
162.7138157895
  0
LINE
  8
SURFACE
 62
7
  6
CONTINUOUS
 10
55.5836032707
 20
162.7138157895
 11
68.1316598872
 21
162.7138157895
  0
LINE
  8
SURFACE
 62
7
  6
CONTINUOUS
 10
89.0036032707
 20
162.7138157895
 11
101.5516598872
 21
162.7138157895
  0
LINE
  8
SURFACE
 62
7
  6
CONTINUOUS
 10
122.4236032707
 20
162.7138157895
 11
134.9716598872
 21
162.7138157895
  0
LINE
  8
SURFACE
 62
7
  6
CONTINUOUS
 10
222.8337081072
 20
162.7138157895
 11
235.4526315789
 21
162.7138157895
  0
POLYLINE
  8
0
 62
7
  6
CONTINUOUS
 66
1
 70
0
  0
VERTEX
  8
0
 62
7
  6
CONTINUOUS
 10
187.410740183
 20
94.3691968936
  0
VERTEX
  8
0
 62
7
  6
CONTINUOUS
 10
187.4846230447
 20
94.4617048622
  0
VERTEX
  8
0
 62
7
  6
CONTINUOUS
 10
187.5725579938
 20
94.5574490557
  0
VERTEX
  8
0
 62
7
  6
CONTINUOUS
 10
187.6673222803
 20
94.646736313
  0
VERTEX
  8
0
 62
7
  6
CONTINUOUS
 10
187.7684377427
 20
94.7290619581
  0
VERTEX
  8
0
 62
7
  6
CONTINUOUS
 10
187.8753913506
 20
94.803960601
  0
VERTEX
  8
0
 62
7
  6
CONTINUOUS
 10
187.9876371694
 20
94.8710066432
  0
VERTEX
  8
0
 62
7
  6
CONTINUOUS
 10
188.1045974743
 20
94.9298150425
  0
VERTEX
  8
0
 62
7
  6
CONTINUOUS
 10
188.2256558437
 20
94.9800399802
  0
VERTEX
  8
0
 62
7
  6
CONTINUOUS
 10
188.3501584712
 20
95.0213804061
  0
VERTEX
  8
0
 62
7
  6
CONTINUOUS
 10
188.4774277224
 20
95.0535883802
  0
VERTEX
  8
0
 62
7
  6
CONTINUOUS
 10
188.6067656246
 20
95.0764708136
  0
VERTEX
  8
0
 62
7
  6
CONTINUOUS
 10
188.7374690087
 20
95.0898924769
  0
VERTEX
  8
0
 62
7
  6
CONTINUOUS
 10
188.8220356543
 20
95.0934879546
  0
SEQEND
  0
POLYLINE
  8
0
 62
7
  6
CONTINUOUS
 66
1
 70
0
  0
VERTEX
  8
0
 62
7
  6
CONTINUOUS
 10
204.1629287037
 20
71.0014121238
  0
VERTEX
  8
0
 62
7
  6
CONTINUOUS
 10
204.1645968985
 20
70.9775919699
  0
VERTEX
  8
0
 62
7
  6
CONTINUOUS
 10
204.1663642117
 20
70.9541724076
  0
VERTEX
  8
0
 62
7
  6
CONTINUOUS
 10
204.1682626318
 20
70.9308957426
  0
VERTEX
  8
0
 62
7
  6
CONTINUOUS
 10
204.1703343558
 20
70.9074678055
  0
VERTEX
  8
0
 62
7
  6
CONTINUOUS
 10
204.1726353523
 20
70.8835508506
  0
VERTEX
  8
0
 62
7
  6
CONTINUOUS
 10
204.1752369836
 20
70.8587849844
  0
VERTEX
  8
0
 62
7
  6
CONTINUOUS
 10
204.1782327167
 20
70.8327654561
  0
VERTEX
  8
0
 62
7
  6
CONTINUOUS
 10
204.1817451899
 20
70.8050370766
  0
VERTEX
  8
0
 62
7
  6
CONTINUOUS
 10
204.1859268112
 20
70.7751480799
  0
VERTEX
  8
0
 62
7
  6
CONTINUOUS
 10
204.190947724
 20
70.742764384
  0
VERTEX
  8
0
 62
7
  6
CONTINUOUS
 10
204.1969912628
 20
70.7076797552
  0
VERTEX
  8
0
 62
7
  6
CONTINUOUS
 10
204.2041884776
 20
70.670108393
  0
VERTEX
  8
0
 62
7
  6
CONTINUOUS
 10
204.2125765577
 20
70.6306809981
  0
VERTEX
  8
0
 62
7
  6
CONTINUOUS
 10
204.2222679383
 20
70.5895478614
  0
VERTEX
  8
0
 62
7
  6
CONTINUOUS
 10
204.2337984982
 20
70.5452939166
  0
VERTEX
  8
0
 62
7
  6
CONTINUOUS
 10
204.2480697598
 20
70.4958670245
  0
VERTEX
  8
0
 62
7
  6
CONTINUOUS
 10
204.26614944
 20
70.4396405901
  0
VERTEX
  8
0
 62
7
  6
CONTINUOUS
 10
204.2886612944
 20
70.3770792684
  0
VERTEX
  8
0
 62
7
  6
CONTINUOUS
 10
204.3159660312
 20
70.3094386942
  0
VERTEX
  8
0
 62
7
  6
CONTINUOUS
 10
204.3484275102
 20
70.2377900112
  0
VERTEX
  8
0
 62
7
  6
CONTINUOUS
 10
204.386722374
 20
70.1624779639
  0
VERTEX
  8
0
 62
7
  6
CONTINUOUS
 10
204.4315742162
 20
70.0839166549
  0
VERTEX
  8
0
 62
7
  6
CONTINUOUS
 10
204.4836986432
 20
70.0026838263
  0
VERTEX
  8
0
 62
7
  6
CONTINUOUS
 10
204.5437818591
 20
69.9195185778
  0
VERTEX
  8
0
 62
7
  6
CONTINUOUS
 10
204.6126002437
 20
69.8351517966
  0
VERTEX
  8
0
 62
7
  6
CONTINUOUS
 10
204.6912524851
 20
69.7501373177
  0
VERTEX
  8
0
 62
7
  6
CONTINUOUS
 10
204.7807399803
 20
69.6654326872
  0
VERTEX
  8
0
 62
7
  6
CONTINUOUS
 10
204.880536419
 20
69.5834159335
  0
VERTEX
  8
0
 62
7
  6
CONTINUOUS
 10
204.9890323906
 20
69.5067437452
  0
VERTEX
  8
0
 62
7
  6
CONTINUOUS
 10
205.1041022984
 20
69.437602068
  0
VERTEX
  8
0
 62
7
  6
CONTINUOUS
 10
205.2237738848
 20
69.3773253996
  0
VERTEX
  8
0
 62
7
  6
CONTINUOUS
 10
205.3472827696
 20
69.3262270144
  0
VERTEX
  8
0
 62
7
  6
CONTINUOUS
 10
205.4740637421
 20
69.2844792362
  0
VERTEX
  8
0
 62
7
  6
CONTINUOUS
 10
205.6035558559
 20
69.2522418725
  0
VERTEX
  8
0
 62
7
  6
CONTINUOUS
 10
205.7352011011
 20
69.2296644387
  0
VERTEX
  8
0
 62
7
  6
CONTINUOUS
 10
205.8684373242
 20
69.216888991
  0
VERTEX
  8
0
 62
7
  6
CONTINUOUS
 10
205.9736033272
 20
69.2138159009
  0
SEQEND
  0
LINE
  8
0
 62
7
  6
CONTINUOUS
 10
204.1597996056
 20
71.051106932
 11
204.1629287037
 21
71.0014121238
  0
LINE
  8
0
 62
7
  6
CONTINUOUS
 10
204.1568473285
 20
71.1046818978
 11
204.1597996056
 21
71.051106932
  0
LINE
  8
0
 62
7
  6
CONTINUOUS
 10
204.1539973001
 20
71.16320746
 11
204.1568473285
 21
71.1046818978
  0
LINE
  8
0
 62
7
  6
CONTINUOUS
 10
204.1512049316
 20
71.2275285623
 11
204.1539973001
 21
71.16320746
  0
LINE
  8
0
 62
7
  6
CONTINUOUS
 10
204.1470527304
 20
71.3367969811
 11
204.1512049316
 21
71.2275285623
  0
LINE
  8
0
 62
7
  6
CONTINUOUS
 10
204.1428865845
 20
71.4637779225
 11
204.1470527304
 21
71.3367969811
  0
LINE
  8
0
 62
7
  6
CONTINUOUS
 10
204.1372505774
 20
71.6649308339
 11
204.1428865845
 21
71.4637779225
  0
LINE
  8
0
 62
7
  6
CONTINUOUS
 10
204.1298858046
 20
71.9822869323
 11
204.1372505774
 21
71.6649308339
  0
LINE
  8
0
 62
7
  6
CONTINUOUS
 10
204.1219225203
 20
72.4011980327
 11
204.1298858046
 21
71.9822869323
  0
LINE
  8
0
 62
7
  6
CONTINUOUS
 10
204.1133179653
 20
72.9529616359
 11
204.1219225203
 21
72.4011980327
  0
LINE
  8
SURFACE
 62
7
  6
CONTINUOUS
 10
203.6737194508
 20
158.8467453181
 11
203.6650165198
 21
159.4274480194
  0
LINE
  8
0
 62
7
  6
CONTINUOUS
 10
204.1043555297
 20
73.6546481312
 11
204.1133179653
 21
72.9529616359
  0
LINE
  8
SURFACE
 62
7
  6
CONTINUOUS
 10
203.6827233358
 20
158.112795573
 11
203.6737194508
 21
158.8467453181
  0
LINE
  8
0
 62
7
  6
CONTINUOUS
 10
204.0970561471
 20
74.3408017349
 11
204.1043555297
 21
73.6546481312
  0
LINE
  8
SURFACE
 62
7
  6
CONTINUOUS
 10
203.6900438774
 20
157.3951904693
 11
203.6827233358
 21
158.112795573
  0
LINE
  8
0
 62
7
  6
CONTINUOUS
 10
204.0897028092
 20
75.1615158358
 11
204.0970561471
 21
74.3408017349
  0
LINE
  8
SURFACE
 62
7
  6
CONTINUOUS
 10
203.6973942809
 20
156.5370724963
 11
203.6900438774
 21
157.3951904693
  0
LINE
  8
0
 62
7
  6
CONTINUOUS
 10
204.0824184614
 20
76.1415263696
 11
204.0897028092
 21
75.1615158358
  0
LINE
  8
SURFACE
 62
7
  6
CONTINUOUS
 10
203.7046366157
 20
155.5125639155
 11
203.6973942809
 21
156.5370724963
  0
LINE
  8
0
 62
7
  6
CONTINUOUS
 10
204.0753625817
 20
77.3159499568
 11
204.0824184614
 21
76.1415263696
  0
LINE
  8
SURFACE
 62
7
  6
CONTINUOUS
 10
203.7099005795
 20
154.6116810015
 11
203.7046366157
 21
155.5125639155
  0
LINE
  8
SURFACE
 62
7
  6
CONTINUOUS
 10
203.7148990093
 20
153.5735288062
 11
203.7099005795
 21
154.6116810015
  0
LINE
  8
0
 62
7
  6
CONTINUOUS
 10
204.0703641493
 20
78.3541026002
 11
204.0753625817
 21
77.3159499568
  0
LINE
  8
SURFACE
 62
7
  6
CONTINUOUS
 10
203.7148990093
 20
153.5735288062
 11
203.7562460465
 21
143.2163738808
  0
LINE
  8
0
 62
7
  6
CONTINUOUS
 10
204.0703641493
 20
78.3541026002
 11
204.0269720801
 21
89.2242720886
  0
LINE
  8
SURFACE
 62
7
  6
CONTINUOUS
 10
203.7616366678
 20
141.7388773104
 11
203.756246044
 21
143.2163737529
  0
LINE
  8
0
 62
7
  6
CONTINUOUS
 10
204.0212058045
 20
90.8095663562
 11
204.0269720812
 21
89.2242721406
  0
LINE
  8
SURFACE
 62
7
  6
CONTINUOUS
 10
203.7662450966
 20
140.2013164239
 11
203.7616366678
 21
141.7388773104
  0
POLYLINE
  8
0
 62
7
  6
CONTINUOUS
 66
1
 70
0
  0
VERTEX
  8
0
 62
7
  6
CONTINUOUS
 10
204.0142500347
 20
93.2896249286
  0
VERTEX
  8
0
 62
7
  6
CONTINUOUS
 10
204.0163093105
 20
92.460562162
  0
VERTEX
  8
0
 62
7
  6
CONTINUOUS
 10
204.0212058045
 20
90.8095663562
  0
SEQEND
  0
LINE
  8
SURFACE
 62
7
  6
CONTINUOUS
 10
203.7699597594
 20
138.6375508775
 11
203.7662450966
 21
140.2013164239
  0
POLYLINE
  8
SURFACE
 62
7
  6
CONTINUOUS
 66
1
 70
0
  0
VERTEX
  8
SURFACE
 62
7
  6
CONTINUOUS
 10
203.7739544153
 20
138.5201176283
  0
VERTEX
  8
SURFACE
 62
7
  6
CONTINUOUS
 10
203.7851889529
 20
138.4067522712
  0
VERTEX
  8
SURFACE
 62
7
  6
CONTINUOUS
 10
203.8035144975
 20
138.2944995154
  0
VERTEX
  8
SURFACE
 62
7
  6
CONTINUOUS
 10
203.8287393006
 20
138.1841113123
  0
VERTEX
  8
SURFACE
 62
7
  6
CONTINUOUS
 10
203.8605724161
 20
138.0762931711
  0
VERTEX
  8
SURFACE
 62
7
  6
CONTINUOUS
 10
203.8987463094
 20
137.9714106105
  0
VERTEX
  8
SURFACE
 62
7
  6
CONTINUOUS
 10
203.9430710746
 20
137.8696062223
  0
VERTEX
  8
SURFACE
 62
7
  6
CONTINUOUS
 10
203.9932429052
 20
137.771290253
  0
VERTEX
  8
SURFACE
 62
7
  6
CONTINUOUS
 10
204.0489625719
 20
137.6767812263
  0
VERTEX
  8
SURFACE
 62
7
  6
CONTINUOUS
 10
204.1099503457
 20
137.5863235756
  0
VERTEX
  8
SURFACE
 62
7
  6
CONTINUOUS
 10
204.1759282091
 20
137.5001398561
  0
VERTEX
  8
SURFACE
 62
7
  6
CONTINUOUS
 10
204.2466148836
 20
137.4184404772
  0
VERTEX
  8
SURFACE
 62
7
  6
CONTINUOUS
 10
204.3217294405
 20
137.341419934
  0
VERTEX
  8
SURFACE
 62
7
  6
CONTINUOUS
 10
204.4010016696
 20
137.2692498182
  0
VERTEX
  8
SURFACE
 62
7
  6
CONTINUOUS
 10
204.4841763293
 20
137.2020820725
  0
VERTEX
  8
SURFACE
 62
7
  6
CONTINUOUS
 10
204.571007761
 20
137.1400593642
  0
VERTEX
  8
SURFACE
 62
7
  6
CONTINUOUS
 10
204.6612587079
 20
137.0833190019
  0
VERTEX
  8
SURFACE
 62
7
  6
CONTINUOUS
 10
204.7546134057
 20
137.0320399156
  0
VERTEX
  8
SURFACE
 62
7
  6
CONTINUOUS
 10
204.8507036903
 20
136.9864023336
  0
VERTEX
  8
SURFACE
 62
7
  6
CONTINUOUS
 10
204.9493194577
 20
136.9464947253
  0
VERTEX
  8
SURFACE
 62
7
  6
CONTINUOUS
 10
205.0503179827
 20
136.9123971209
  0
VERTEX
  8
SURFACE
 62
7
  6
CONTINUOUS
 10
205.1534512065
 20
136.8842433213
  0
VERTEX
  8
SURFACE
 62
7
  6
CONTINUOUS
 10
205.2582372968
 20
136.8622102826
  0
VERTEX
  8
SURFACE
 62
7
  6
CONTINUOUS
 10
205.3641399331
 20
136.8464274164
  0
VERTEX
  8
SURFACE
 62
7
  6
CONTINUOUS
 10
205.4706132988
 20
136.8369613789
  0
SEQEND
  0
POLYLINE
  8
SURFACE
 62
7
  6
CONTINUOUS
 66
1
 70
0
  0
VERTEX
  8
SURFACE
 62
7
  6
CONTINUOUS
 10
203.6223345614
 20
160.9262178644
  0
VERTEX
  8
SURFACE
 62
7
  6
CONTINUOUS
 10
203.6206663797
 20
160.9500379532
  0
VERTEX
  8
SURFACE
 62
7
  6
CONTINUOUS
 10
203.6188990713
 20
160.9734575798
  0
VERTEX
  8
SURFACE
 62
7
  6
CONTINUOUS
 10
203.6170006597
 20
160.9967342641
  0
VERTEX
  8
SURFACE
 62
7
  6
CONTINUOUS
 10
203.6149289504
 20
161.0201621628
  0
VERTEX
  8
SURFACE
 62
7
  6
CONTINUOUS
 10
203.6126279783
 20
161.0440790047
  0
VERTEX
  8
SURFACE
 62
7
  6
CONTINUOUS
 10
203.6100263862
 20
161.0688446617
  0
VERTEX
  8
SURFACE
 62
7
  6
CONTINUOUS
 10
203.6070306967
 20
161.0948640067
  0
VERTEX
  8
SURFACE
 62
7
  6
CONTINUOUS
 10
203.6035182571
 20
161.1225923312
  0
VERTEX
  8
SURFACE
 62
7
  6
CONTINUOUS
 10
203.599336684
 20
161.1524812074
  0
VERTEX
  8
SURFACE
 62
7
  6
CONTINUOUS
 10
203.5943158392
 20
161.184864711
  0
VERTEX
  8
SURFACE
 62
7
  6
CONTINUOUS
 10
203.5882723928
 20
161.2199490791
  0
VERTEX
  8
SURFACE
 62
7
  6
CONTINUOUS
 10
203.5810752933
 20
161.2575201443
  0
VERTEX
  8
SURFACE
 62
7
  6
CONTINUOUS
 10
203.5726873478
 20
161.2969472365
  0
VERTEX
  8
SURFACE
 62
7
  6
CONTINUOUS
 10
203.5629961458
 20
161.3380799725
  0
VERTEX
  8
SURFACE
 62
7
  6
CONTINUOUS
 10
203.55146585
 20
161.3823333126
  0
VERTEX
  8
SURFACE
 62
7
  6
CONTINUOUS
 10
203.537194899
 20
161.4317596175
  0
VERTEX
  8
SURFACE
 62
7
  6
CONTINUOUS
 10
203.5191155662
 20
161.4879855467
  0
VERTEX
  8
SURFACE
 62
7
  6
CONTINUOUS
 10
203.4966041127
 20
161.5505464042
  0
VERTEX
  8
SURFACE
 62
7
  6
CONTINUOUS
 10
203.4692998144
 20
161.6181865974
  0
VERTEX
  8
SURFACE
 62
7
  6
CONTINUOUS
 10
203.4368388386
 20
161.6898349167
  0
VERTEX
  8
SURFACE
 62
7
  6
CONTINUOUS
 10
203.3985445623
 20
161.7651465981
  0
VERTEX
  8
SURFACE
 62
7
  6
CONTINUOUS
 10
203.3536933982
 20
161.8437075557
  0
VERTEX
  8
SURFACE
 62
7
  6
CONTINUOUS
 10
203.3015697287
 20
161.9249400878
  0
VERTEX
  8
SURFACE
 62
7
  6
CONTINUOUS
 10
203.2414873272
 20
162.0081051392
  0
VERTEX
  8
SURFACE
 62
7
  6
CONTINUOUS
 10
203.1726698439
 20
162.0924717929
  0
VERTEX
  8
SURFACE
 62
7
  6
CONTINUOUS
 10
203.0940187044
 20
162.1774861211
  0
VERTEX
  8
SURFACE
 62
7
  6
CONTINUOUS
 10
203.0045325458
 20
162.2621906123
  0
VERTEX
  8
SURFACE
 62
7
  6
CONTINUOUS
 10
202.9047373822
 20
162.3442075186
  0
VERTEX
  8
SURFACE
 62
7
  6
CONTINUOUS
 10
202.7962422909
 20
162.4208803101
  0
VERTEX
  8
SURFACE
 62
7
  6
CONTINUOUS
 10
202.6811724921
 20
162.4900230967
  0
VERTEX
  8
SURFACE
 62
7
  6
CONTINUOUS
 10
202.5615001215
 20
162.5503012098
  0
VERTEX
  8
SURFACE
 62
7
  6
CONTINUOUS
 10
202.4379897485
 20
162.6014010903
  0
VERTEX
  8
SURFACE
 62
7
  6
CONTINUOUS
 10
202.3112068009
 20
162.6431502079
  0
VERTEX
  8
SURFACE
 62
7
  6
CONTINUOUS
 10
202.1817124803
 20
162.6753886161
  0
VERTEX
  8
SURFACE
 62
7
  6
CONTINUOUS
 10
202.050065076
 20
162.6979667336
  0
VERTEX
  8
SURFACE
 62
7
  6
CONTINUOUS
 10
201.9168270317
 20
162.7107425142
  0
VERTEX
  8
SURFACE
 62
7
  6
CONTINUOUS
 10
201.8116598358
 20
162.7138156742
  0
SEQEND
  0
LINE
  8
SURFACE
 62
7
  6
CONTINUOUS
 10
203.6254636459
 20
160.8765230582
 11
203.6223345614
 21
160.9262178644
  0
LINE
  8
SURFACE
 62
7
  6
CONTINUOUS
 10
203.6284159165
 20
160.8229479958
 11
203.6254636459
 21
160.8765230582
  0
LINE
  8
SURFACE
 62
7
  6
CONTINUOUS
 10
203.6312659359
 20
160.764422418
 11
203.6284159165
 21
160.8229479958
  0
LINE
  8
SURFACE
 62
7
  6
CONTINUOUS
 10
203.6340583005
 20
160.7001012105
 11
203.6312659359
 21
160.764422418
  0
LINE
  8
SURFACE
 62
7
  6
CONTINUOUS
 10
203.6382104941
 20
160.5908327131
 11
203.6340583005
 21
160.7001012105
  0
LINE
  8
SURFACE
 62
7
  6
CONTINUOUS
 10
203.6423766347
 20
160.4638516552
 11
203.6382104941
 21
160.5908327131
  0
LINE
  8
SURFACE
 62
7
  6
CONTINUOUS
 10
203.6480126376
 20
160.2626985325
 11
203.6423766347
 21
160.4638516552
  0
LINE
  8
SURFACE
 62
7
  6
CONTINUOUS
 10
203.6553774093
 20
159.9453419812
 11
203.6480126376
 21
160.2626985325
  0
POLYLINE
  8
SURFACE
 62
7
  6
CONTINUOUS
 66
1
 70
0
  0
VERTEX
  8
SURFACE
 62
7
  6
CONTINUOUS
 10
203.6650165198
 20
159.4274480194
  0
VERTEX
  8
SURFACE
 62
7
  6
CONTINUOUS
 10
203.6633406928
 20
159.5264303561
  0
VERTEX
  8
SURFACE
 62
7
  6
CONTINUOUS
 10
203.6553774093
 20
159.9453419812
  0
SEQEND
  0
LINE
  8
SURFACE
 62
7
  6
CONTINUOUS
 10
221.014911335
 20
160.7821032054
 11
221.0114904972
 21
160.7049418451
  0
LINE
  8
SURFACE
 62
7
  6
CONTINUOUS
 10
221.0172661565
 20
160.8292662757
 11
221.014911335
 21
160.7821032054
  0
LINE
  8
SURFACE
 62
7
  6
CONTINUOUS
 10
221.0197242715
 20
160.8736824083
 11
221.0172661565
 21
160.8292662757
  0
LINE
  8
SURFACE
 62
7
  6
CONTINUOUS
 10
221.0223438256
 20
160.9160342202
 11
221.0197242715
 21
160.8736824083
  0
LINE
  8
0
 62
7
  6
CONTINUOUS
 10
220.4777243658
 20
91.6225575548
 11
220.4833336742
 21
93.2882921969
  0
LINE
  8
SURFACE
 62
7
  6
CONTINUOUS
 10
220.8787767491
 20
140.6522601783
 11
220.8714888751
 21
138.6396922134
  0
LINE
  8
0
 62
7
  6
CONTINUOUS
 10
220.4777243658
 20
91.6225575548
 11
220.4264264847
 21
78.7221641482
  0
LINE
  8
SURFACE
 62
7
  6
CONTINUOUS
 10
220.9351938557
 20
154.5750607602
 11
220.878776749
 21
140.6522601835
  0
LINE
  8
0
 62
7
  6
CONTINUOUS
 10
220.4187555111
 20
77.1059028263
 11
220.4264264846
 21
78.72216415
  0
LINE
  8
SURFACE
 62
7
  6
CONTINUOUS
 10
220.9448544098
 20
156.1310464529
 11
220.9351938557
 21
154.5750607602
  0
LINE
  8
0
 62
7
  6
CONTINUOUS
 10
220.4090313044
 20
75.6044727268
 11
220.4187555111
 21
77.1059028263
  0
LINE
  8
SURFACE
 62
7
  6
CONTINUOUS
 10
220.95629472
 20
157.5039326008
 11
220.9448544098
 21
156.1310464529
  0
LINE
  8
0
 62
7
  6
CONTINUOUS
 10
220.3975870205
 20
74.2779551381
 11
220.4090313044
 21
75.6044727268
  0
LINE
  8
SURFACE
 62
7
  6
CONTINUOUS
 10
220.9690749475
 20
158.6558997664
 11
220.95629472
 21
157.5039326008
  0
LINE
  8
0
 62
7
  6
CONTINUOUS
 10
220.3848531664
 20
73.1653471782
 11
220.3975870205
 21
74.2779551381
  0
LINE
  8
SURFACE
 62
7
  6
CONTINUOUS
 10
220.9826386676
 20
159.5639103217
 11
220.9690749475
 21
158.6558997664
  0
LINE
  8
0
 62
7
  6
CONTINUOUS
 10
220.3714242527
 20
72.2927562261
 11
220.3848531664
 21
73.1653471782
  0
LINE
  8
SURFACE
 62
7
  6
CONTINUOUS
 10
220.9924142329
 20
160.058372932
 11
220.9826386676
 21
159.5639103217
  0
LINE
  8
0
 62
7
  6
CONTINUOUS
 10
220.3629336161
 20
71.8698476154
 11
220.3714242527
 21
72.2927562261
  0
LINE
  8
SURFACE
 62
7
  6
CONTINUOUS
 10
220.9992551551
 20
160.3354277038
 11
220.9924142329
 21
160.058372932
  0
LINE
  8
0
 62
7
  6
CONTINUOUS
 10
220.3560993414
 20
71.5927383834
 11
220.3629336161
 21
71.8698476154
  0
LINE
  8
SURFACE
 62
7
  6
CONTINUOUS
 10
221.0048083617
 20
160.5221665154
 11
220.9992551551
 21
160.3354277038
  0
LINE
  8
0
 62
7
  6
CONTINUOUS
 10
220.3505517982
 20
71.4059576168
 11
220.3560993414
 21
71.5927383834
  0
LINE
  8
SURFACE
 62
7
  6
CONTINUOUS
 10
221.0092503882
 20
160.6485426475
 11
221.0048083617
 21
160.5221665154
  0
LINE
  8
0
 62
7
  6
CONTINUOUS
 10
220.3461144386
 20
71.2795469344
 11
220.3505517982
 21
71.4059576168
  0
POLYLINE
  8
0
 62
7
  6
CONTINUOUS
 66
1
 70
0
  0
VERTEX
  8
0
 62
7
  6
CONTINUOUS
 10
220.4833337102
 20
93.2882917695
  0
VERTEX
  8
0
 62
7
  6
CONTINUOUS
 10
220.4885731166
 20
93.4202854523
  0
VERTEX
  8
0
 62
7
  6
CONTINUOUS
 10
220.5045906128
 20
93.5590414575
  0
VERTEX
  8
0
 62
7
  6
CONTINUOUS
 10
220.5309458734
 20
93.6947606236
  0
VERTEX
  8
0
 62
7
  6
CONTINUOUS
 10
220.567193425
 20
93.8268343831
  0
VERTEX
  8
0
 62
7
  6
CONTINUOUS
 10
220.6128622362
 20
93.9546557835
  0
VERTEX
  8
0
 62
7
  6
CONTINUOUS
 10
220.6674531087
 20
94.0776455355
  0
VERTEX
  8
0
 62
7
  6
CONTINUOUS
 10
220.7304405753
 20
94.1952648418
  0
VERTEX
  8
0
 62
7
  6
CONTINUOUS
 10
220.8012871739
 20
94.3070366661
  0
VERTEX
  8
0
 62
7
  6
CONTINUOUS
 10
220.8794623739
 20
94.4125560108
  0
VERTEX
  8
0
 62
7
  6
CONTINUOUS
 10
220.9644356295
 20
94.5114609189
  0
VERTEX
  8
0
 62
7
  6
CONTINUOUS
 10
221.0556735561
 20
94.6034237281
  0
VERTEX
  8
0
 62
7
  6
CONTINUOUS
 10
221.1526103107
 20
94.6881251091
  0
VERTEX
  8
0
 62
7
  6
CONTINUOUS
 10
221.2546592443
 20
94.7652771565
  0
VERTEX
  8
0
 62
7
  6
CONTINUOUS
 10
221.3612291223
 20
94.8346378659
  0
VERTEX
  8
0
 62
7
  6
CONTINUOUS
 10
221.4717256524
 20
94.8960086923
  0
VERTEX
  8
0
 62
7
  6
CONTINUOUS
 10
221.5855417969
 20
94.9492281484
  0
VERTEX
  8
0
 62
7
  6
CONTINUOUS
 10
221.7020684706
 20
94.9941783849
  0
VERTEX
  8
0
 62
7
  6
CONTINUOUS
 10
221.8207027517
 20
95.0307864818
  0
VERTEX
  8
0
 62
7
  6
CONTINUOUS
 10
221.9408486159
 20
95.0590217145
  0
VERTEX
  8
0
 62
7
  6
CONTINUOUS
 10
222.061911379
 20
95.0788928177
  0
VERTEX
  8
0
 62
7
  6
CONTINUOUS
 10
222.1833072996
 20
95.0904498063
  0
VERTEX
  8
0
 62
7
  6
CONTINUOUS
 10
222.2617186731
 20
95.0935368355
  0
SEQEND
  0
LINE
  8
SURFACE
 62
7
  6
CONTINUOUS
 10
221.0114904972
 20
160.7049418451
 11
221.0092503882
 21
160.6485426475
  0
POLYLINE
  8
SURFACE
 62
7
  6
CONTINUOUS
 66
1
 70
0
  0
VERTEX
  8
SURFACE
 62
7
  6
CONTINUOUS
 10
220.871488845
 20
138.6396924948
  0
VERTEX
  8
SURFACE
 62
7
  6
CONTINUOUS
 10
220.8658157172
 20
138.5024452343
  0
VERTEX
  8
SURFACE
 62
7
  6
CONTINUOUS
 10
220.8487839786
 20
138.3600176171
  0
VERTEX
  8
SURFACE
 62
7
  6
CONTINUOUS
 10
220.8211239226
 20
138.2218600953
  0
VERTEX
  8
SURFACE
 62
7
  6
CONTINUOUS
 10
220.7835284698
 20
138.0884808311
  0
VERTEX
  8
SURFACE
 62
7
  6
CONTINUOUS
 10
220.7366882696
 20
137.9603896632
  0
VERTEX
  8
SURFACE
 62
7
  6
CONTINUOUS
 10
220.6812988569
 20
137.8380609459
  0
VERTEX
  8
SURFACE
 62
7
  6
CONTINUOUS
 10
220.6180556506
 20
137.7219090779
  0
VERTEX
  8
SURFACE
 62
7
  6
CONTINUOUS
 10
220.5476004197
 20
137.6122149516
  0
VERTEX
  8
SURFACE
 62
7
  6
CONTINUOUS
 10
220.4704826102
 20
137.509133118
  0
VERTEX
  8
SURFACE
 62
7
  6
CONTINUOUS
 10
220.3871807479
 20
137.4127738172
  0
VERTEX
  8
SURFACE
 62
7
  6
CONTINUOUS
 10
220.298113708
 20
137.3232332323
  0
VERTEX
  8
SURFACE
 62
7
  6
CONTINUOUS
 10
220.2037063771
 20
137.2406558957
  0
VERTEX
  8
SURFACE
 62
7
  6
CONTINUOUS
 10
220.1043618017
 20
137.1651892018
  0
VERTEX
  8
SURFACE
 62
7
  6
CONTINUOUS
 10
220.0004400501
 20
137.0969695867
  0
VERTEX
  8
SURFACE
 62
7
  6
CONTINUOUS
 10
219.8922864993
 20
137.0361482733
  0
VERTEX
  8
SURFACE
 62
7
  6
CONTINUOUS
 10
219.7803140577
 20
136.9829259087
  0
VERTEX
  8
SURFACE
 62
7
  6
CONTINUOUS
 10
219.6649487473
 20
136.9375021104
  0
VERTEX
  8
SURFACE
 62
7
  6
CONTINUOUS
 10
219.5466147674
 20
136.9000671169
  0
VERTEX
  8
SURFACE
 62
7
  6
CONTINUOUS
 10
219.425738408
 20
136.8708050665
  0
VERTEX
  8
SURFACE
 62
7
  6
CONTINUOUS
 10
219.3027265633
 20
136.8498928664
  0
VERTEX
  8
SURFACE
 62
7
  6
CONTINUOUS
 10
219.1779861815
 20
136.837511106
  0
SEQEND
  0
LINE
  8
0
 62
7
  6
CONTINUOUS
 10
220.3427481612
 20
71.1964641098
 11
220.3461144386
 21
71.2795469344
  0
LINE
  8
0
 62
7
  6
CONTINUOUS
 10
220.3392940859
 20
71.1219781418
 11
220.3427481612
 21
71.1964641098
  0
LINE
  8
0
 62
7
  6
CONTINUOUS
 10
220.3368969742
 20
71.0762620687
 11
220.3392940859
 21
71.1219781418
  0
LINE
  8
0
 62
7
  6
CONTINUOUS
 10
220.3343703649
 20
71.0329594442
 11
220.3368969742
 21
71.0762620687
  0
LINE
  8
SURFACE
 62
7
  6
CONTINUOUS
 10
237.2526315789
 20
160.9138157894
 11
237.2526315789
 21
147.7138157895
  0
LINE
  8
0
 62
7
  6
CONTINUOUS
 10
237.2526315789
 20
147.7138157895
 11
237.2526315789
 21
96.9377841541
  0
POLYLINE
  8
0
 62
7
  6
CONTINUOUS
 66
1
 70
0
  0
VERTEX
  8
0
 62
7
  6
CONTINUOUS
 10
237.2526315789
 20
96.9377836839
  0
VERTEX
  8
0
 62
7
  6
CONTINUOUS
 10
237.2479674564
 20
96.8082881743
  0
VERTEX
  8
0
 62
7
  6
CONTINUOUS
 10
237.2341508449
 20
96.6805112507
  0
VERTEX
  8
0
 62
7
  6
CONTINUOUS
 10
237.2111441962
 20
96.5535527962
  0
VERTEX
  8
0
 62
7
  6
CONTINUOUS
 10
237.1791044057
 20
96.4285768709
  0
VERTEX
  8
0
 62
7
  6
CONTINUOUS
 10
237.1381305934
 20
96.3060455481
  0
VERTEX
  8
0
 62
7
  6
CONTINUOUS
 10
237.0883924095
 20
96.1865936245
  0
VERTEX
  8
0
 62
7
  6
CONTINUOUS
 10
237.0301017984
 20
96.0708421018
  0
VERTEX
  8
0
 62
7
  6
CONTINUOUS
 10
236.9633753633
 20
95.9591861067
  0
VERTEX
  8
0
 62
7
  6
CONTINUOUS
 10
236.8884628391
 20
95.8522475986
  0
VERTEX
  8
0
 62
7
  6
CONTINUOUS
 10
236.8058822538
 20
95.7508916875
  0
VERTEX
  8
0
 62
7
  6
CONTINUOUS
 10
236.7157831404
 20
95.6554233084
  0
VERTEX
  8
0
 62
7
  6
CONTINUOUS
 10
236.6186807976
 20
95.566532715
  0
VERTEX
  8
0
 62
7
  6
CONTINUOUS
 10
236.5149419811
 20
95.4846847163
  0
VERTEX
  8
0
 62
7
  6
CONTINUOUS
 10
236.4052274168
 20
95.410511223
  0
VERTEX
  8
0
 62
7
  6
CONTINUOUS
 10
236.2899823588
 20
95.3444087527
  0
VERTEX
  8
0
 62
7
  6
CONTINUOUS
 10
236.169711104
 20
95.286784909
  0
VERTEX
  8
0
 62
7
  6
CONTINUOUS
 10
236.0452592395
 20
95.238138881
  0
VERTEX
  8
0
 62
7
  6
CONTINUOUS
 10
235.9173004497
 20
95.1987946556
  0
VERTEX
  8
0
 62
7
  6
CONTINUOUS
 10
235.7866336895
 20
95.1690432874
  0
VERTEX
  8
0
 62
7
  6
CONTINUOUS
 10
235.6538065756
 20
95.1490610613
  0
VERTEX
  8
0
 62
7
  6
CONTINUOUS
 10
235.519894051
 20
95.1390408563
  0
VERTEX
  8
0
 62
7
  6
CONTINUOUS
 10
235.4526315789
 20
95.1377836853
  0
SEQEND
  0
LINE
  8
0
 62
7
  6
CONTINUOUS
 10
36.8526315789
 20
199.7592155666
 11
36.8526315789
 21
226.1592155666
  0
LINE
  8
0
 62
7
  6
CONTINUOUS
 10
41.3425295146
 20
229.8474149566
 11
41.0947355723
 21
229.3480184636
  0
LINE
  8
SURFACE
 62
7
  6
CONTINUOUS
 10
41.0947355723
 20
229.3480184636
 11
41.3425286672
 21
229.8474132489
  0
LINE
  8
SURFACE
 62
7
  6
CONTINUOUS
 10
41.5415727029
 20
230.2278251095
 11
41.3425295146
 21
229.8474149566
  0
LINE
  8
0
 62
7
  6
CONTINUOUS
 10
53.2337152194
 20
231.5182006322
 11
52.9561997201
 21
199.7434952368
  0
POLYLINE
  8
0
 62
7
  6
CONTINUOUS
 66
1
 70
0
  0
VERTEX
  8
0
 62
7
  6
CONTINUOUS
 10
53.1921978562
 20
226.7635711491
  0
VERTEX
  8
0
 62
7
  6
CONTINUOUS
 10
53.1929251437
 20
226.8113550191
  0
VERTEX
  8
0
 62
7
  6
CONTINUOUS
 10
53.1947081299
 20
226.8740892834
  0
VERTEX
  8
0
 62
7
  6
CONTINUOUS
 10
53.1975624914
 20
226.9414738236
  0
VERTEX
  8
0
 62
7
  6
CONTINUOUS
 10
53.2015629342
 20
227.0126324122
  0
VERTEX
  8
0
 62
7
  6
CONTINUOUS
 10
53.2068167609
 20
227.0868610598
  0
VERTEX
  8
0
 62
7
  6
CONTINUOUS
 10
53.2134306682
 20
227.1633649346
  0
VERTEX
  8
0
 62
7
  6
CONTINUOUS
 10
53.2215336761
 20
227.2416927018
  0
VERTEX
  8
0
 62
7
  6
CONTINUOUS
 10
53.2313018493
 20
227.3216376899
  0
VERTEX
  8
0
 62
7
  6
CONTINUOUS
 10
53.2431842729
 20
227.404471791
  0
VERTEX
  8
0
 62
7
  6
CONTINUOUS
 10
53.2578038297
 20
227.491244934
  0
VERTEX
  8
0
 62
7
  6
CONTINUOUS
 10
53.2751857299
 20
227.5788384803
  0
VERTEX
  8
0
 62
7
  6
CONTINUOUS
 10
53.2935524857
 20
227.6577414833
  0
VERTEX
  8
0
 62
7
  6
CONTINUOUS
 10
53.3116330943
 20
227.7247595838
  0
VERTEX
  8
0
 62
7
  6
CONTINUOUS
 10
53.3291752842
 20
227.78149312
  0
VERTEX
  8
0
 62
7
  6
CONTINUOUS
 10
53.3460165628
 20
227.8293554945
  0
VERTEX
  8
0
 62
7
  6
CONTINUOUS
 10
53.3617651274
 20
227.8688453526
  0
VERTEX
  8
0
 62
7
  6
CONTINUOUS
 10
53.3757830011
 20
227.8999540002
  0
VERTEX
  8
0
 62
7
  6
CONTINUOUS
 10
53.3875068688
 20
227.9230553877
  0
VERTEX
  8
0
 62
7
  6
CONTINUOUS
 10
53.3965919893
 20
227.939002147
  0
VERTEX
  8
0
 62
7
  6
CONTINUOUS
 10
53.4029870345
 20
227.9490170359
  0
VERTEX
  8
0
 62
7
  6
CONTINUOUS
 10
53.4049840416
 20
227.9518764937
  0
SEQEND
  0
LINE
  8
SURFACE
 62
7
  6
CONTINUOUS
 10
42.6414466349
 20
231.8322517903
 11
42.4370755323
 21
231.58063321
  0
LINE
  8
SURFACE
 62
7
  6
CONTINUOUS
 10
42.9585386842
 20
232.1920841418
 11
42.6414466349
 21
231.8322517903
  0
LINE
  8
0
 62
7
  6
CONTINUOUS
 10
70.6088663302
 20
199.7435078027
 11
70.3353680654
 21
231.0833047761
  0
LINE
  8
0
 62
7
  6
CONTINUOUS
 10
70.3501143916
 20
226.0311139321
 11
70.367482324
 21
225.8969358365
  0
LINE
  8
0
 62
7
  6
CONTINUOUS
 10
86.5263968277
 20
199.7435078027
 11
86.7948249795
 21
230.5023273821
  0
LINE
  8
0
 62
7
  6
CONTINUOUS
 10
86.7393144791
 20
224.0479242896
 11
86.7392717698
 21
224.0467837924
  0
POLYLINE
  8
0
 62
7
  6
CONTINUOUS
 66
1
 70
0
  0
VERTEX
  8
0
 62
7
  6
CONTINUOUS
 10
86.7393450625
 20
224.0486881621
  0
VERTEX
  8
0
 62
7
  6
CONTINUOUS
 10
86.7432843032
 20
224.1429368398
  0
VERTEX
  8
0
 62
7
  6
CONTINUOUS
 10
86.7464644487
 20
224.2113810073
  0
VERTEX
  8
0
 62
7
  6
CONTINUOUS
 10
86.749989021
 20
224.2756705703
  0
VERTEX
  8
0
 62
7
  6
CONTINUOUS
 10
86.7545383188
 20
224.3426552908
  0
VERTEX
  8
0
 62
7
  6
CONTINUOUS
 10
86.7603645204
 20
224.4142967871
  0
VERTEX
  8
0
 62
7
  6
CONTINUOUS
 10
86.7672474149
 20
224.4909275766
  0
VERTEX
  8
0
 62
7
  6
CONTINUOUS
 10
86.774957288
 20
224.5693078744
  0
VERTEX
  8
0
 62
7
  6
CONTINUOUS
 10
86.7835436393
 20
224.6470185959
  0
VERTEX
  8
0
 62
7
  6
CONTINUOUS
 10
86.7932721299
 20
224.7244719121
  0
VERTEX
  8
0
 62
7
  6
CONTINUOUS
 10
86.8044441662
 20
224.8036237622
  0
VERTEX
  8
0
 62
7
  6
CONTINUOUS
 10
86.8172604759
 20
224.8857768746
  0
VERTEX
  8
0
 62
7
  6
CONTINUOUS
 10
86.8316454897
 20
224.9694299224
  0
VERTEX
  8
0
 62
7
  6
CONTINUOUS
 10
86.8481827624
 20
225.0561602559
  0
VERTEX
  8
0
 62
7
  6
CONTINUOUS
 10
86.8676919667
 20
225.1475873211
  0
VERTEX
  8
0
 62
7
  6
CONTINUOUS
 10
86.8897911727
 20
225.2397032103
  0
VERTEX
  8
0
 62
7
  6
CONTINUOUS
 10
86.9130242329
 20
225.3260238675
  0
VERTEX
  8
0
 62
7
  6
CONTINUOUS
 10
86.9370033287
 20
225.4055739621
  0
VERTEX
  8
0
 62
7
  6
CONTINUOUS
 10
86.9614093124
 20
225.4779662257
  0
VERTEX
  8
0
 62
7
  6
CONTINUOUS
 10
86.9858806628
 20
225.5429348521
  0
VERTEX
  8
0
 62
7
  6
CONTINUOUS
 10
87.0098472925
 20
225.5999296981
  0
VERTEX
  8
0
 62
7
  6
CONTINUOUS
 10
87.032675626
 20
225.6485925822
  0
VERTEX
  8
0
 62
7
  6
CONTINUOUS
 10
87.0537440552
 20
225.6888945481
  0
VERTEX
  8
0
 62
7
  6
CONTINUOUS
 10
87.0725225924
 20
225.7211832587
  0
VERTEX
  8
0
 62
7
  6
CONTINUOUS
 10
87.0889208726
 20
225.7465637047
  0
VERTEX
  8
0
 62
7
  6
CONTINUOUS
 10
87.1032696156
 20
225.7665318136
  0
VERTEX
  8
0
 62
7
  6
CONTINUOUS
 10
87.1156524561
 20
225.7819452949
  0
VERTEX
  8
0
 62
7
  6
CONTINUOUS
 10
87.1257253769
 20
225.7930738246
  0
VERTEX
  8
0
 62
7
  6
CONTINUOUS
 10
87.1334463243
 20
225.8005839628
  0
VERTEX
  8
0
 62
7
  6
CONTINUOUS
 10
87.1393166978
 20
225.8055720549
  0
VERTEX
  8
0
 62
7
  6
CONTINUOUS
 10
87.1443548801
 20
225.809288733
  0
VERTEX
  8
0
 62
7
  6
CONTINUOUS
 10
87.1498440464
 20
225.8127967363
  0
VERTEX
  8
0
 62
7
  6
CONTINUOUS
 10
87.1570770171
 20
225.8167974248
  0
VERTEX
  8
0
 62
7
  6
CONTINUOUS
 10
87.1672352715
 20
225.8216392044
  0
VERTEX
  8
0
 62
7
  6
CONTINUOUS
 10
87.1812912722
 20
225.8273653347
  0
VERTEX
  8
0
 62
7
  6
CONTINUOUS
 10
87.1998426592
 20
225.8337541631
  0
VERTEX
  8
0
 62
7
  6
CONTINUOUS
 10
87.2231043719
 20
225.8404342927
  0
VERTEX
  8
0
 62
7
  6
CONTINUOUS
 10
87.2510383939
 20
225.8470048469
  0
VERTEX
  8
0
 62
7
  6
CONTINUOUS
 10
87.2835180587
 20
225.8531063465
  0
VERTEX
  8
0
 62
7
  6
CONTINUOUS
 10
87.3203775687
 20
225.8584287809
  0
VERTEX
  8
0
 62
7
  6
CONTINUOUS
 10
87.361619066
 20
225.8627236317
  0
VERTEX
  8
0
 62
7
  6
CONTINUOUS
 10
87.4076148163
 20
225.8657731353
  0
VERTEX
  8
0
 62
7
  6
CONTINUOUS
 10
87.4588976362
 20
225.8673190118
  0
VERTEX
  8
0
 62
7
  6
CONTINUOUS
 10
87.5161292156
 20
225.8670375513
  0
VERTEX
  8
0
 62
7
  6
CONTINUOUS
 10
87.5801863882
 20
225.8645139967
  0
VERTEX
  8
0
 62
7
  6
CONTINUOUS
 10
87.638707473
 20
225.8603836154
  0
SEQEND
  0
POLYLINE
  8
0
 62
7
  6
CONTINUOUS
 66
1
 70
0
  0
VERTEX
  8
0
 62
7
  6
CONTINUOUS
 10
40.0286830129
 20
199.1574627057
  0
VERTEX
  8
0
 62
7
  6
CONTINUOUS
 10
40.0274985251
 20
199.1565270929
  0
VERTEX
  8
0
 62
7
  6
CONTINUOUS
 10
40.0287797433
 20
199.157456024
  0
VERTEX
  8
0
 62
7
  6
CONTINUOUS
 10
40.0363758703
 20
199.1626865285
  0
VERTEX
  8
0
 62
7
  6
CONTINUOUS
 10
40.0509934015
 20
199.1720348035
  0
VERTEX
  8
0
 62
7
  6
CONTINUOUS
 10
40.0734433259
 20
199.1853306228
  0
VERTEX
  8
0
 62
7
  6
CONTINUOUS
 10
40.1044999463
 20
199.2023159733
  0
VERTEX
  8
0
 62
7
  6
CONTINUOUS
 10
40.1445687988
 20
199.2224884526
  0
VERTEX
  8
0
 62
7
  6
CONTINUOUS
 10
40.1936096776
 20
199.2451344898
  0
VERTEX
  8
0
 62
7
  6
CONTINUOUS
 10
40.2512342762
 20
199.2694430035
  0
VERTEX
  8
0
 62
7
  6
CONTINUOUS
 10
40.3167491243
 20
199.294569243
  0
VERTEX
  8
0
 62
7
  6
CONTINUOUS
 10
40.3892235542
 20
199.3196946153
  0
VERTEX
  8
0
 62
7
  6
CONTINUOUS
 10
40.4675431378
 20
199.3440676954
  0
VERTEX
  8
0
 62
7
  6
CONTINUOUS
 10
40.5505184064
 20
199.3670504723
  0
VERTEX
  8
0
 62
7
  6
CONTINUOUS
 10
40.6370789326
 20
199.3881645209
  0
VERTEX
  8
0
 62
7
  6
CONTINUOUS
 10
40.7261634682
 20
199.4070432099
  0
VERTEX
  8
0
 62
7
  6
CONTINUOUS
 10
40.8167665211
 20
199.4234339912
  0
VERTEX
  8
0
 62
7
  6
CONTINUOUS
 10
40.9083292068
 20
199.4372404578
  0
VERTEX
  8
0
 62
7
  6
CONTINUOUS
 10
41.0005057868
 20
199.4484307825
  0
VERTEX
  8
0
 62
7
  6
CONTINUOUS
 10
41.0930220157
 20
199.456997757
  0
VERTEX
  8
0
 62
7
  6
CONTINUOUS
 10
41.1856206687
 20
199.4629479008
  0
VERTEX
  8
0
 62
7
  6
CONTINUOUS
 10
41.2780790048
 20
199.4663014527
  0
VERTEX
  8
0
 62
7
  6
CONTINUOUS
 10
41.3526315767
 20
199.4671350829
  0
SEQEND
  0
LINE
  8
0
 62
7
  6
CONTINUOUS
 10
103.8244659449
 20
223.0799970296
 11
103.8252874771
 21
223.042333523
  0
LINE
  8
0
 62
7
  6
CONTINUOUS
 10
103.8252874771
 20
223.042333523
 11
103.8257983367
 21
223.0093893387
  0
LINE
  8
0
 62
7
  6
CONTINUOUS
 10
103.7740239968
 20
228.9455467862
 11
104.0288663302
 21
199.7435078027
  0
LINE
  8
0
 62
7
  6
CONTINUOUS
 10
103.7921994483
 20
223.575539572
 11
103.796367654
 21
223.5361077764
  0
LINE
  8
0
 62
7
  6
CONTINUOUS
 10
103.796367654
 20
223.5361077764
 11
103.7999754443
 21
223.4993627626
  0
LINE
  8
0
 62
7
  6
CONTINUOUS
 10
103.7999754443
 20
223.4993627626
 11
103.803149808
 21
223.4646145095
  0
LINE
  8
0
 62
7
  6
CONTINUOUS
 10
103.803149808
 20
223.4646145095
 11
103.8060095167
 21
223.4309780263
  0
LINE
  8
0
 62
7
  6
CONTINUOUS
 10
103.8060095167
 20
223.4309780263
 11
103.8086255139
 21
223.3978713637
  0
LINE
  8
0
 62
7
  6
CONTINUOUS
 10
103.8086255139
 20
223.3978713637
 11
103.811015646
 21
223.3652475415
  0
LINE
  8
0
 62
7
  6
CONTINUOUS
 10
103.811015646
 20
223.3652475415
 11
103.8131903454
 21
223.3331314089
  0
LINE
  8
0
 62
7
  6
CONTINUOUS
 10
103.8131903454
 20
223.3331314089
 11
103.8151613944
 21
223.3015047773
  0
LINE
  8
0
 62
7
  6
CONTINUOUS
 10
103.8151613944
 20
223.3015047773
 11
103.8169414449
 21
223.2703268995
  0
LINE
  8
0
 62
7
  6
CONTINUOUS
 10
103.8169414449
 20
223.2703268995
 11
103.8185450171
 21
223.2395342929
  0
LINE
  8
0
 62
7
  6
CONTINUOUS
 10
103.8185450171
 20
223.2395342929
 11
103.8199789339
 21
223.2092081252
  0
LINE
  8
0
 62
7
  6
CONTINUOUS
 10
103.8199789339
 20
223.2092081252
 11
103.821246247
 21
223.1794721198
  0
LINE
  8
0
 62
7
  6
CONTINUOUS
 10
103.821246247
 20
223.1794721198
 11
103.8223511091
 21
223.150337051
  0
LINE
  8
0
 62
7
  6
CONTINUOUS
 10
103.8223511091
 20
223.150337051
 11
103.8233047527
 21
223.1216610967
  0
LINE
  8
0
 62
7
  6
CONTINUOUS
 10
103.8233047527
 20
223.1216610967
 11
103.8244659449
 21
223.0799970296
  0
LINE
  8
0
 62
7
  6
CONTINUOUS
 10
120.191787019
 20
227.8624385826
 11
119.9463968277
 21
199.7435078027
  0
LINE
  8
SURFACE
 62
7
  6
CONTINUOUS
 10
218.4064653662
 20
197.9592155666
 11
206.0887977917
 21
197.9592155666
  0
LINE
  8
SURFACE
 62
7
  6
CONTINUOUS
 10
184.9864653662
 20
197.9592155666
 11
172.6687977917
 21
197.9592155666
  0
LINE
  8
SURFACE
 62
7
  6
CONTINUOUS
 10
151.5664653662
 20
197.9592155666
 11
139.2487977917
 21
197.9592155666
  0
LINE
  8
0
 62
7
  6
CONTINUOUS
 10
38.6526315789
 20
197.9592155666
 11
235.4526315789
 21
197.9592155666
  0
LINE
  8
0
 62
7
  6
CONTINUOUS
 10
41.3526315767
 20
199.4671348464
 11
42.8526315806
 21
199.4671348464
  0
POLYLINE
  8
0
 62
7
  6
CONTINUOUS
 66
1
 70
0
  0
VERTEX
  8
0
 62
7
  6
CONTINUOUS
 10
42.8526315806
 20
199.4671351128
  0
VERTEX
  8
0
 62
7
  6
CONTINUOUS
 10
42.928591448
 20
199.4662696749
  0
VERTEX
  8
0
 62
7
  6
CONTINUOUS
 10
43.0210046949
 20
199.462879208
  0
VERTEX
  8
0
 62
7
  6
CONTINUOUS
 10
43.1135590728
 20
199.45689418
  0
VERTEX
  8
0
 62
7
  6
CONTINUOUS
 10
43.2060301029
 20
199.4482944173
  0
VERTEX
  8
0
 62
7
  6
CONTINUOUS
 10
43.2981596114
 20
199.4370735057
  0
VERTEX
  8
0
 62
7
  6
CONTINUOUS
 10
43.3896724716
 20
199.4232388735
  0
VERTEX
  8
0
 62
7
  6
CONTINUOUS
 10
43.4802221976
 20
199.4068226491
  0
VERTEX
  8
0
 62
7
  6
CONTINUOUS
 10
43.5692477698
 20
199.3879220156
  0
VERTEX
  8
0
 62
7
  6
CONTINUOUS
 10
43.6557362044
 20
199.3667921253
  0
VERTEX
  8
0
 62
7
  6
CONTINUOUS
 10
43.7386195299
 20
199.3438030202
  0
VERTEX
  8
0
 62
7
  6
CONTINUOUS
 10
43.8168304262
 20
199.3194343186
  0
VERTEX
  8
0
 62
7
  6
CONTINUOUS
 10
43.8892051384
 20
199.294316728
  0
VERTEX
  8
0
 62
7
  6
CONTINUOUS
 10
43.9546339766
 20
199.2691991285
  0
VERTEX
  8
0
 62
7
  6
CONTINUOUS
 10
44.0121689718
 20
199.244906521
  0
VERTEX
  8
0
 62
7
  6
CONTINUOUS
 10
44.06110768
 20
199.222288745
  0
VERTEX
  8
0
 62
7
  6
CONTINUOUS
 10
44.1010740335
 20
199.2021524776
  0
VERTEX
  8
0
 62
7
  6
CONTINUOUS
 10
44.1320404803
 20
199.1852046915
  0
VERTEX
  8
0
 62
7
  6
CONTINUOUS
 10
44.1544182305
 20
199.1719431453
  0
VERTEX
  8
0
 62
7
  6
CONTINUOUS
 10
44.1689747105
 20
199.1626282414
  0
VERTEX
  8
0
 62
7
  6
CONTINUOUS
 10
44.1765160588
 20
199.1574325485
  0
VERTEX
  8
0
 62
7
  6
CONTINUOUS
 10
44.1778081372
 20
199.1564895774
  0
SEQEND
  0
LINE
  8
SURFACE
 62
7
  6
CONTINUOUS
 10
137.2346315676
 20
224.2923800623
 11
137.2877185513
 21
218.2092142577
  0
LINE
  8
SURFACE
 62
7
  6
CONTINUOUS
 10
137.3793506403
 20
207.7092168755
 11
137.4488663302
 21
199.7435078027
  0
LINE
  8
0
 62
7
  6
CONTINUOUS
 10
137.4488663302
 20
199.7435078027
 11
137.2139060246
 21
226.6672920541
  0
LINE
  8
SURF_PART
 62
2
  6
CENTER
 10
34.8526315789
 20
212.9592155666
 11
222.3675502081
 21
212.9592155666
  0
LINE
  8
0
 62
7
  6
CONTINUOUS
 10
203.6613761509
 20
227.3133401668
 11
187.7081184018
 21
225.965295307
  0
LINE
  8
0
 62
7
  6
CONTINUOUS
 10
169.6821973733
 20
224.4421111042
 11
153.5700569012
 21
223.0806407083
  0
LINE
  8
SURFACE
 62
7
  6
CONTINUOUS
 10
170.376223418
 20
224.5007560692
 11
170.652609286
 21
224.5241105812
  0
POLYLINE
  8
0
 62
7
  6
CONTINUOUS
 66
1
 70
0
  0
VERTEX
  8
0
 62
7
  6
CONTINUOUS
 10
203.0071059782
 20
227.258054523
  0
VERTEX
  8
0
 62
7
  6
CONTINUOUS
 10
203.069291922
 20
227.2624154519
  0
VERTEX
  8
0
 62
7
  6
CONTINUOUS
 10
203.1375374119
 20
227.2650124144
  0
VERTEX
  8
0
 62
7
  6
CONTINUOUS
 10
203.1993124375
 20
227.2651736937
  0
VERTEX
  8
0
 62
7
  6
CONTINUOUS
 10
203.2550479577
 20
227.2633078258
  0
VERTEX
  8
0
 62
7
  6
CONTINUOUS
 10
203.3051087807
 20
227.2597794001
  0
VERTEX
  8
0
 62
7
  6
CONTINUOUS
 10
203.3498505217
 20
227.2549161763
  0
VERTEX
  8
0
 62
7
  6
CONTINUOUS
 10
203.3900896109
 20
227.2489324201
  0
VERTEX
  8
0
 62
7
  6
CONTINUOUS
 10
203.4269329027
 20
227.2418640971
  0
VERTEX
  8
0
 62
7
  6
CONTINUOUS
 10
203.4603905357
 20
227.2338428604
  0
VERTEX
  8
0
 62
7
  6
CONTINUOUS
 10
203.4895579971
 20
227.225291325
  0
VERTEX
  8
0
 62
7
  6
CONTINUOUS
 10
203.5139720731
 20
227.216692636
  0
VERTEX
  8
0
 62
7
  6
CONTINUOUS
 10
203.5337735758
 20
227.2084421813
  0
VERTEX
  8
0
 62
7
  6
CONTINUOUS
 10
203.5497685324
 20
227.2006563129
  0
VERTEX
  8
0
 62
7
  6
CONTINUOUS
 10
203.5630399332
 20
227.1931772391
  0
VERTEX
  8
0
 62
7
  6
CONTINUOUS
 10
203.5747380114
 20
227.1855908843
  0
VERTEX
  8
0
 62
7
  6
CONTINUOUS
 10
203.5860155615
 20
227.1772108025
  0
VERTEX
  8
0
 62
7
  6
CONTINUOUS
 10
203.5979486184
 20
227.1670917333
  0
VERTEX
  8
0
 62
7
  6
CONTINUOUS
 10
203.6114580509
 20
227.1540739314
  0
VERTEX
  8
0
 62
7
  6
CONTINUOUS
 10
203.6271025747
 20
227.1370185785
  0
VERTEX
  8
0
 62
7
  6
CONTINUOUS
 10
203.6449648607
 20
227.1150947303
  0
VERTEX
  8
0
 62
7
  6
CONTINUOUS
 10
203.6647759961
 20
227.0878643983
  0
VERTEX
  8
0
 62
7
  6
CONTINUOUS
 10
203.6865453138
 20
227.0544994055
  0
VERTEX
  8
0
 62
7
  6
CONTINUOUS
 10
203.7105388168
 20
227.0135583245
  0
VERTEX
  8
0
 62
7
  6
CONTINUOUS
 10
203.7369028467
 20
226.9634201969
  0
VERTEX
  8
0
 62
7
  6
CONTINUOUS
 10
203.7653464313
 20
226.9029828789
  0
VERTEX
  8
0
 62
7
  6
CONTINUOUS
 10
203.7953317504
 20
226.8316020793
  0
VERTEX
  8
0
 62
7
  6
CONTINUOUS
 10
203.8257522861
 20
226.7503111221
  0
VERTEX
  8
0
 62
7
  6
CONTINUOUS
 10
203.855309384
 20
226.6616456269
  0
VERTEX
  8
0
 62
7
  6
CONTINUOUS
 10
203.8829780609
 20
226.5686934345
  0
VERTEX
  8
0
 62
7
  6
CONTINUOUS
 10
203.9080092605
 20
226.4748837675
  0
VERTEX
  8
0
 62
7
  6
CONTINUOUS
 10
203.9302501349
 20
226.3823876712
  0
VERTEX
  8
0
 62
7
  6
CONTINUOUS
 10
203.9500063166
 20
226.2916330099
  0
VERTEX
  8
0
 62
7
  6
CONTINUOUS
 10
203.9675751785
 20
226.2028030366
  0
VERTEX
  8
0
 62
7
  6
CONTINUOUS
 10
203.9832318367
 20
226.1159093107
  0
VERTEX
  8
0
 62
7
  6
CONTINUOUS
 10
203.9972181799
 20
226.0308682573
  0
VERTEX
  8
0
 62
7
  6
CONTINUOUS
 10
204.0096965108
 20
225.9479092779
  0
VERTEX
  8
0
 62
7
  6
CONTINUOUS
 10
204.0207789658
 20
225.8675821528
  0
VERTEX
  8
0
 62
7
  6
CONTINUOUS
 10
204.0306274445
 20
225.790190692
  0
SEQEND
  0
POLYLINE
  8
0
 62
7
  6
CONTINUOUS
 66
1
 70
0
  0
VERTEX
  8
0
 62
7
  6
CONTINUOUS
 10
169.68216574
 20
224.4421084363
  0
VERTEX
  8
0
 62
7
  6
CONTINUOUS
 10
169.7129307351
 20
224.4440265326
  0
VERTEX
  8
0
 62
7
  6
CONTINUOUS
 10
169.7602768025
 20
224.4445593303
  0
VERTEX
  8
0
 62
7
  6
CONTINUOUS
 10
169.8183639994
 20
224.4416485973
  0
VERTEX
  8
0
 62
7
  6
CONTINUOUS
 10
169.8852591199
 20
224.4338304098
  0
VERTEX
  8
0
 62
7
  6
CONTINUOUS
 10
169.9581123301
 20
224.4201353561
  0
VERTEX
  8
0
 62
7
  6
CONTINUOUS
 10
170.0340141345
 20
224.400201387
  0
VERTEX
  8
0
 62
7
  6
CONTINUOUS
 10
170.1102806652
 20
224.3742423447
  0
VERTEX
  8
0
 62
7
  6
CONTINUOUS
 10
170.1843391356
 20
224.3430754378
  0
VERTEX
  8
0
 62
7
  6
CONTINUOUS
 10
170.2541857912
 20
224.3078991712
  0
VERTEX
  8
0
 62
7
  6
CONTINUOUS
 10
170.3191371716
 20
224.2696535039
  0
VERTEX
  8
0
 62
7
  6
CONTINUOUS
 10
170.3790902712
 20
224.2290431046
  0
VERTEX
  8
0
 62
7
  6
CONTINUOUS
 10
170.4340745075
 20
224.1866774773
  0
VERTEX
  8
0
 62
7
  6
CONTINUOUS
 10
170.4842004886
 20
224.1430775103
  0
VERTEX
  8
0
 62
7
  6
CONTINUOUS
 10
170.5295257766
 20
224.0987868606
  0
VERTEX
  8
0
 62
7
  6
CONTINUOUS
 10
170.5698108606
 20
224.05469514
  0
VERTEX
  8
0
 62
7
  6
CONTINUOUS
 10
170.6048754563
 20
224.0117954342
  0
VERTEX
  8
0
 62
7
  6
CONTINUOUS
 10
170.634686961
 20
223.9710733247
  0
VERTEX
  8
0
 62
7
  6
CONTINUOUS
 10
170.6577422548
 20
223.935930611
  0
SEQEND
  0
LINE
  8
0
 62
7
  6
CONTINUOUS
 10
136.6316287732
 20
221.7204984743
 11
120.1503407077
 21
223.1131617164
  0
LINE
  8
0
 62
7
  6
CONTINUOUS
 10
103.266024969
 20
224.5398806601
 11
87.1415738428
 21
225.9023913021
  0
LINE
  8
0
 62
7
  6
CONTINUOUS
 10
69.5361017594
 20
227.3900477118
 11
63.0104849902
 21
227.9414601118
  0
POLYLINE
  8
0
 62
7
  6
CONTINUOUS
 66
1
 70
0
  0
VERTEX
  8
0
 62
7
  6
CONTINUOUS
 10
103.2660211688
 20
224.5398808935
  0
VERTEX
  8
0
 62
7
  6
CONTINUOUS
 10
103.303219667
 20
224.5362151092
  0
VERTEX
  8
0
 62
7
  6
CONTINUOUS
 10
103.3471739058
 20
224.530402483
  0
VERTEX
  8
0
 62
7
  6
CONTINUOUS
 10
103.3870578452
 20
224.523493025
  0
VERTEX
  8
0
 62
7
  6
CONTINUOUS
 10
103.4224177131
 20
224.5157749804
  0
VERTEX
  8
0
 62
7
  6
CONTINUOUS
 10
103.4527839197
 20
224.5076355618
  0
VERTEX
  8
0
 62
7
  6
CONTINUOUS
 10
103.4778258061
 20
224.4995385681
  0
VERTEX
  8
0
 62
7
  6
CONTINUOUS
 10
103.4974329751
 20
224.4919886788
  0
VERTEX
  8
0
 62
7
  6
CONTINUOUS
 10
103.5117316257
 20
224.4854977598
  0
VERTEX
  8
0
 62
7
  6
CONTINUOUS
 10
103.5213315697
 20
224.4804073709
  0
VERTEX
  8
0
 62
7
  6
CONTINUOUS
 10
103.5273989982
 20
224.4766825638
  0
VERTEX
  8
0
 62
7
  6
CONTINUOUS
 10
103.5313330867
 20
224.4739077791
  0
VERTEX
  8
0
 62
7
  6
CONTINUOUS
 10
103.5344350721
 20
224.4714111518
  0
VERTEX
  8
0
 62
7
  6
CONTINUOUS
 10
103.5377210006
 20
224.4684195801
  0
VERTEX
  8
0
 62
7
  6
CONTINUOUS
 10
103.5418417812
 20
224.4642172771
  0
VERTEX
  8
0
 62
7
  6
CONTINUOUS
 10
103.5471131364
 20
224.4582453027
  0
VERTEX
  8
0
 62
7
  6
CONTINUOUS
 10
103.5535592987
 20
224.4501891741
  0
VERTEX
  8
0
 62
7
  6
CONTINUOUS
 10
103.5610254955
 20
224.4399641764
  0
VERTEX
  8
0
 62
7
  6
CONTINUOUS
 10
103.569262675
 20
224.4276783269
  0
VERTEX
  8
0
 62
7
  6
CONTINUOUS
 10
103.5779026845
 20
224.4137312657
  0
VERTEX
  8
0
 62
7
  6
CONTINUOUS
 10
103.5867134142
 20
224.3984323207
  0
VERTEX
  8
0
 62
7
  6
CONTINUOUS
 10
103.5955937097
 20
224.3819304243
  0
VERTEX
  8
0
 62
7
  6
CONTINUOUS
 10
103.6045333013
 20
224.3642210883
  0
VERTEX
  8
0
 62
7
  6
CONTINUOUS
 10
103.6135535688
 20
224.3452225838
  0
VERTEX
  8
0
 62
7
  6
CONTINUOUS
 10
103.6226210279
 20
224.3249552634
  0
VERTEX
  8
0
 62
7
  6
CONTINUOUS
 10
103.6316438304
 20
224.3035871826
  0
VERTEX
  8
0
 62
7
  6
CONTINUOUS
 10
103.6405419186
 20
224.2812957952
  0
VERTEX
  8
0
 62
7
  6
CONTINUOUS
 10
103.6492455731
 20
224.2582683248
  0
VERTEX
  8
0
 62
7
  6
CONTINUOUS
 10
103.6576921397
 20
224.2347056117
  0
VERTEX
  8
0
 62
7
  6
CONTINUOUS
 10
103.6658488621
 20
224.2107522406
  0
VERTEX
  8
0
 62
7
  6
CONTINUOUS
 10
103.673697013
 20
224.1865284355
  0
VERTEX
  8
0
 62
7
  6
CONTINUOUS
 10
103.6812190978
 20
224.1621630777
  0
VERTEX
  8
0
 62
7
  6
CONTINUOUS
 10
103.6884011111
 20
224.1377831104
  0
VERTEX
  8
0
 62
7
  6
CONTINUOUS
 10
103.6952421268
 20
224.1134793492
  0
VERTEX
  8
0
 62
7
  6
CONTINUOUS
 10
103.7017544824
 20
224.0892973351
  0
VERTEX
  8
0
 62
7
  6
CONTINUOUS
 10
103.7079682278
 20
224.065209302
  0
VERTEX
  8
0
 62
7
  6
CONTINUOUS
 10
103.7139114604
 20
224.0411800121
  0
VERTEX
  8
0
 62
7
  6
CONTINUOUS
 10
103.7196090792
 20
224.0171702829
  0
VERTEX
  8
0
 62
7
  6
CONTINUOUS
 10
103.7250834098
 20
223.993138052
  0
VERTEX
  8
0
 62
7
  6
CONTINUOUS
 10
103.7303422304
 20
223.9690969877
  0
VERTEX
  8
0
 62
7
  6
CONTINUOUS
 10
103.7353920806
 20
223.9450648416
  0
VERTEX
  8
0
 62
7
  6
CONTINUOUS
 10
103.7402396681
 20
223.9210574629
  0
VERTEX
  8
0
 62
7
  6
CONTINUOUS
 10
103.7448886441
 20
223.8971042403
  0
VERTEX
  8
0
 62
7
  6
CONTINUOUS
 10
103.7493448844
 20
223.8732210488
  0
VERTEX
  8
0
 62
7
  6
CONTINUOUS
 10
103.7536156615
 20
223.8494147
  0
VERTEX
  8
0
 62
7
  6
CONTINUOUS
 10
103.7577081918
 20
223.825690153
  0
VERTEX
  8
0
 62
7
  6
CONTINUOUS
 10
103.761629586
 20
223.8020506928
  0
VERTEX
  8
0
 62
7
  6
CONTINUOUS
 10
103.7653856943
 20
223.7785048143
  0
VERTEX
  8
0
 62
7
  6
CONTINUOUS
 10
103.7689817607
 20
223.7550614915
  0
VERTEX
  8
0
 62
7
  6
CONTINUOUS
 10
103.7724243572
 20
223.7317187078
  0
VERTEX
  8
0
 62
7
  6
CONTINUOUS
 10
103.7757198211
 20
223.7084733666
  0
VERTEX
  8
0
 62
7
  6
CONTINUOUS
 10
103.778870354
 20
223.6853505134
  0
VERTEX
  8
0
 62
7
  6
CONTINUOUS
 10
103.7818681647
 20
223.6624548062
  0
VERTEX
  8
0
 62
7
  6
CONTINUOUS
 10
103.7847049655
 20
223.6399084261
  0
VERTEX
  8
0
 62
7
  6
CONTINUOUS
 10
103.7873748953
 20
223.6178292341
  0
VERTEX
  8
0
 62
7
  6
CONTINUOUS
 10
103.7898736763
 20
223.5963361035
  0
VERTEX
  8
0
 62
7
  6
CONTINUOUS
 10
103.7921994483
 20
223.575539572
  0
SEQEND
  0
POLYLINE
  8
0
 62
7
  6
CONTINUOUS
 66
1
 70
0
  0
VERTEX
  8
0
 62
7
  6
CONTINUOUS
 10
69.5361105515
 20
227.3900469392
  0
VERTEX
  8
0
 62
7
  6
CONTINUOUS
 10
69.5827421029
 20
227.3853919448
  0
VERTEX
  8
0
 62
7
  6
CONTINUOUS
 10
69.6346468013
 20
227.3783890101
  0
VERTEX
  8
0
 62
7
  6
CONTINUOUS
 10
69.6820668599
 20
227.3700721702
  0
VERTEX
  8
0
 62
7
  6
CONTINUOUS
 10
69.7255674692
 20
227.3605561263
  0
VERTEX
  8
0
 62
7
  6
CONTINUOUS
 10
69.7654231608
 20
227.3499474074
  0
VERTEX
  8
0
 62
7
  6
CONTINUOUS
 10
69.8013397713
 20
227.338499959
  0
VERTEX
  8
0
 62
7
  6
CONTINUOUS
 10
69.8327646072
 20
227.326653933
  0
VERTEX
  8
0
 62
7
  6
CONTINUOUS
 10
69.8595981764
 20
227.3148180743
  0
VERTEX
  8
0
 62
7
  6
CONTINUOUS
 10
69.8822062489
 20
227.3032608702
  0
VERTEX
  8
0
 62
7
  6
CONTINUOUS
 10
69.9014469569
 20
227.2919542446
  0
VERTEX
  8
0
 62
7
  6
CONTINUOUS
 10
69.9184680467
 20
227.2805247719
  0
VERTEX
  8
0
 62
7
  6
CONTINUOUS
 10
69.9344121768
 20
227.2683354479
  0
VERTEX
  8
0
 62
7
  6
CONTINUOUS
 10
69.9503922496
 20
227.2544528296
  0
VERTEX
  8
0
 62
7
  6
CONTINUOUS
 10
69.9672626558
 20
227.2378209807
  0
VERTEX
  8
0
 62
7
  6
CONTINUOUS
 10
69.985522283
 20
227.2174385217
  0
VERTEX
  8
0
 62
7
  6
CONTINUOUS
 10
70.0053306765
 20
227.1924881806
  0
VERTEX
  8
0
 62
7
  6
CONTINUOUS
 10
70.0267965778
 20
227.1620847034
  0
VERTEX
  8
0
 62
7
  6
CONTINUOUS
 10
70.0502782138
 20
227.12474554
  0
VERTEX
  8
0
 62
7
  6
CONTINUOUS
 10
70.0760609246
 20
227.0786622838
  0
VERTEX
  8
0
 62
7
  6
CONTINUOUS
 10
70.1039078939
 20
227.0225593927
  0
VERTEX
  8
0
 62
7
  6
CONTINUOUS
 10
70.1327911949
 20
226.956830854
  0
VERTEX
  8
0
 62
7
  6
CONTINUOUS
 10
70.1615906619
 20
226.8827884237
  0
VERTEX
  8
0
 62
7
  6
CONTINUOUS
 10
70.1894016222
 20
226.8021089923
  0
VERTEX
  8
0
 62
7
  6
CONTINUOUS
 10
70.2156358547
 20
226.7164214983
  0
VERTEX
  8
0
 62
7
  6
CONTINUOUS
 10
70.2398803909
 20
226.6274769146
  0
VERTEX
  8
0
 62
7
  6
CONTINUOUS
 10
70.261871798
 20
226.5371311113
  0
VERTEX
  8
0
 62
7
  6
CONTINUOUS
 10
70.2814872018
 20
226.4472164707
  0
VERTEX
  8
0
 62
7
  6
CONTINUOUS
 10
70.298781585
 20
226.3591399882
  0
VERTEX
  8
0
 62
7
  6
CONTINUOUS
 10
70.3140043104
 20
226.2734139188
  0
VERTEX
  8
0
 62
7
  6
CONTINUOUS
 10
70.3274280499
 20
226.1902768726
  0
VERTEX
  8
0
 62
7
  6
CONTINUOUS
 10
70.3393762209
 20
226.1094719402
  0
VERTEX
  8
0
 62
7
  6
CONTINUOUS
 10
70.3501143916
 20
226.0311139321
  0
SEQEND
  0
LINE
  8
SURFACE
 62
7
  6
CONTINUOUS
 10
120.8478203672
 20
223.0950532961
 11
120.8478797897
 21
223.0950342745
  0
LINE
  8
SURFACE
 62
7
  6
CONTINUOUS
 10
151.6574170924
 20
229.3418312696
 11
151.9643640959
 21
229.3677681871
  0
LINE
  8
0
 62
7
  6
CONTINUOUS
 10
145.472591354
 20
228.8192155959
 11
222.9628441998
 21
235.3671156348
  0
LINE
  8
SURFACE
 62
7
  6
CONTINUOUS
 10
222.9628441998
 20
235.3671156348
 11
222.9629283986
 21
235.3671227319
  0
LINE
  8
0
 62
7
  6
CONTINUOUS
 10
225.5526315789
 20
227.6592155666
 11
222.0526315789
 21
227.6592155666
  0
LINE
  8
0
 62
7
  6
CONTINUOUS
 10
235.4526315789
 20
227.9592155666
 11
235.2491588058
 21
227.9592155666
  0
LINE
  8
0
 62
7
  6
CONTINUOUS
 10
227.4682838575
 20
227.9592155666
 11
220.6879084247
 21
227.9592155666
  0
LINE
  8
0
 62
7
  6
CONTINUOUS
 10
62.5894870188
 20
227.9592155666
 11
53.4049840416
 21
227.9592155666
  0
LINE
  8
0
 62
7
  6
CONTINUOUS
 10
39.5815445677
 20
227.9592155666
 11
38.6526315789
 21
227.9592155666
  0
POLYLINE
  8
0
 62
7
  6
CONTINUOUS
 66
1
 70
0
  0
VERTEX
  8
0
 62
7
  6
CONTINUOUS
 10
235.249158806
 20
227.9592155578
  0
VERTEX
  8
0
 62
7
  6
CONTINUOUS
 10
235.183638541
 20
227.9600743023
  0
VERTEX
  8
0
 62
7
  6
CONTINUOUS
 10
235.1172342863
 20
227.9626986691
  0
VERTEX
  8
0
 62
7
  6
CONTINUOUS
 10
235.0498698121
 20
227.9671708454
  0
VERTEX
  8
0
 62
7
  6
CONTINUOUS
 10
234.9815529188
 20
227.9735778838
  0
VERTEX
  8
0
 62
7
  6
CONTINUOUS
 10
234.9119401387
 20
227.9820601763
  0
VERTEX
  8
0
 62
7
  6
CONTINUOUS
 10
234.8404721652
 20
227.9928413159
  0
VERTEX
  8
0
 62
7
  6
CONTINUOUS
 10
234.7670449101
 20
228.0061340842
  0
VERTEX
  8
0
 62
7
  6
CONTINUOUS
 10
234.6917320236
 20
228.0221397613
  0
VERTEX
  8
0
 62
7
  6
CONTINUOUS
 10
234.614617891
 20
228.0410662873
  0
VERTEX
  8
0
 62
7
  6
CONTINUOUS
 10
234.5359203231
 20
228.0630921313
  0
VERTEX
  8
0
 62
7
  6
CONTINUOUS
 10
234.4564959139
 20
228.0881752698
  0
VERTEX
  8
0
 62
7
  6
CONTINUOUS
 10
234.3775026733
 20
228.1160574456
  0
VERTEX
  8
0
 62
7
  6
CONTINUOUS
 10
234.3000531927
 20
228.1463397808
  0
SEQEND
  0
LINE
  8
SURFACE
 62
7
  6
CONTINUOUS
 10
51.1423345055
 20
235.3671227886
 11
50.6807774065
 21
235.3953904691
  0
POLYLINE
  8
0
 62
7
  6
CONTINUOUS
 66
1
 70
0
  0
VERTEX
  8
0
 62
7
  6
CONTINUOUS
 10
51.1423346546
 20
235.3671227759
  0
VERTEX
  8
0
 62
7
  6
CONTINUOUS
 10
50.8009172354
 20
235.3900939843
  0
VERTEX
  8
0
 62
7
  6
CONTINUOUS
 10
50.3177066774
 20
235.4026116225
  0
VERTEX
  8
0
 62
7
  6
CONTINUOUS
 10
49.8344557365
 20
235.3917643823
  0
VERTEX
  8
0
 62
7
  6
CONTINUOUS
 10
49.3522935243
 20
235.3575776082
  0
VERTEX
  8
0
 62
7
  6
CONTINUOUS
 10
48.8723466085
 20
235.3001311774
  0
VERTEX
  8
0
 62
7
  6
CONTINUOUS
 10
48.395736381
 20
235.2195593128
  0
VERTEX
  8
0
 62
7
  6
CONTINUOUS
 10
47.9235764375
 20
235.1160502701
  0
VERTEX
  8
0
 62
7
  6
CONTINUOUS
 10
47.4569699755
 20
234.989845897
  0
VERTEX
  8
0
 62
7
  6
CONTINUOUS
 10
46.997007217
 20
234.8412410692
  0
VERTEX
  8
0
 62
7
  6
CONTINUOUS
 10
46.544762861
 20
234.6705830005
  0
VERTEX
  8
0
 62
7
  6
CONTINUOUS
 10
46.1012935725
 20
234.4782704319
  0
VERTEX
  8
0
 62
7
  6
CONTINUOUS
 10
45.6676355136
 20
234.2647527002
  0
VERTEX
  8
0
 62
7
  6
CONTINUOUS
 10
45.2448019226
 20
234.0305286877
  0
VERTEX
  8
0
 62
7
  6
CONTINUOUS
 10
44.8337807467
 20
233.7761456567
  0
VERTEX
  8
0
 62
7
  6
CONTINUOUS
 10
44.435532333
 20
233.502197971
  0
VERTEX
  8
0
 62
7
  6
CONTINUOUS
 10
44.0509871858
 20
233.2093257071
  0
VERTEX
  8
0
 62
7
  6
CONTINUOUS
 10
43.6810437912
 20
232.8982131585
  0
VERTEX
  8
0
 62
7
  6
CONTINUOUS
 10
43.326566519
 20
232.5695872369
  0
VERTEX
  8
0
 62
7
  6
CONTINUOUS
 10
42.9883836021
 20
232.224215774
  0
VERTEX
  8
0
 62
7
  6
CONTINUOUS
 10
42.667285202
 20
231.8629057273
  0
VERTEX
  8
0
 62
7
  6
CONTINUOUS
 10
42.5825697685
 20
231.7614582971
  0
SEQEND
  0
LINE
  8
SURFACE
 62
7
  6
CONTINUOUS
 10
105.4432122262
 20
230.7787170518
 11
105.725514728
 21
230.7548625864
  0
LINE
  8
0
 62
7
  6
CONTINUOUS
 10
51.1424189581
 20
235.3671156348
 11
128.632672151
 21
228.8192155666
  0
LINE
  8
SURFACE
 62
7
  6
CONTINUOUS
 10
118.5434148272
 20
229.6717543827
 11
118.8450522206
 21
229.6462661255
  0
LINE
  8
0
 62
7
  6
CONTINUOUS
 10
153.6089078236
 20
227.5325154694
 11
153.3663968277
 21
199.7435078027
  0
LINE
  8
SURFACE
 62
7
  6
CONTINUOUS
 10
153.3663968277
 20
199.7435078027
 11
153.4359125176
 21
207.7092168755
  0
LINE
  8
SURFACE
 62
7
  6
CONTINUOUS
 10
153.5275446066
 20
218.2092142577
 11
153.5806315903
 21
224.2923800623
  0
POLYLINE
  8
SURFACE
 62
7
  6
CONTINUOUS
 66
1
 70
0
  0
VERTEX
  8
SURFACE
 62
7
  6
CONTINUOUS
 10
223.7875564805
 20
235.4026116225
  0
VERTEX
  8
SURFACE
 62
7
  6
CONTINUOUS
 10
223.3043459225
 20
235.3900939843
  0
VERTEX
  8
SURFACE
 62
7
  6
CONTINUOUS
 10
222.9629285033
 20
235.3671227759
  0
SEQEND
  0
POLYLINE
  8
SURFACE
 62
7
  6
CONTINUOUS
 66
1
 70
0
  0
VERTEX
  8
SURFACE
 62
7
  6
CONTINUOUS
 10
50.6807774065
 20
235.3953904691
  0
VERTEX
  8
SURFACE
 62
7
  6
CONTINUOUS
 10
50.2016874292
 20
235.4021391106
  0
VERTEX
  8
SURFACE
 62
7
  6
CONTINUOUS
 10
49.7228239171
 20
235.3859315845
  0
VERTEX
  8
SURFACE
 62
7
  6
CONTINUOUS
 10
49.245286475
 20
235.3468050972
  0
VERTEX
  8
SURFACE
 62
7
  6
CONTINUOUS
 10
48.7701716595
 20
235.2848495213
  0
VERTEX
  8
SURFACE
 62
7
  6
CONTINUOUS
 10
48.2985704344
 20
235.2002071842
  0
VERTEX
  8
SURFACE
 62
7
  6
CONTINUOUS
 10
47.8315650027
 20
235.0930723669
  0
VERTEX
  8
SURFACE
 62
7
  6
CONTINUOUS
 10
47.3702262508
 20
234.96369066
  0
VERTEX
  8
SURFACE
 62
7
  6
CONTINUOUS
 10
46.9156123842
 20
234.8123585849
  0
VERTEX
  8
SURFACE
 62
7
  6
CONTINUOUS
 10
46.4687696328
 20
234.6394242806
  0
VERTEX
  8
SURFACE
 62
7
  6
CONTINUOUS
 10
46.0307283343
 20
234.4452869593
  0
VERTEX
  8
SURFACE
 62
7
  6
CONTINUOUS
 10
45.6024957196
 20
234.2303940515
  0
VERTEX
  8
SURFACE
 62
7
  6
CONTINUOUS
 10
45.1850428385
 20
233.9952329983
  0
VERTEX
  8
SURFACE
 62
7
  6
CONTINUOUS
 10
44.7793128379
 20
233.7403326093
  0
VERTEX
  8
SURFACE
 62
7
  6
CONTINUOUS
 10
44.3862403204
 20
233.4662760321
  0
VERTEX
  8
SURFACE
 62
7
  6
CONTINUOUS
 10
44.0067762084
 20
233.1737274879
  0
VERTEX
  8
SURFACE
 62
7
  6
CONTINUOUS
 10
43.6418392776
 20
232.8634081797
  0
VERTEX
  8
SURFACE
 62
7
  6
CONTINUOUS
 10
43.2922169922
 20
232.5360022065
  0
VERTEX
  8
SURFACE
 62
7
  6
CONTINUOUS
 10
42.9585386842
 20
232.1920841418
  0
SEQEND
  0
POLYLINE
  8
0
 62
7
  6
CONTINUOUS
 66
1
 70
0
  0
VERTEX
  8
0
 62
7
  6
CONTINUOUS
 10
53.4111225793
 20
227.9396478339
  0
VERTEX
  8
0
 62
7
  6
CONTINUOUS
 10
53.4353923399
 20
227.9447011255
  0
VERTEX
  8
0
 62
7
  6
CONTINUOUS
 10
53.4647821168
 20
227.9494530265
  0
VERTEX
  8
0
 62
7
  6
CONTINUOUS
 10
53.4986235756
 20
227.9535079293
  0
VERTEX
  8
0
 62
7
  6
CONTINUOUS
 10
53.5372705935
 20
227.9566560938
  0
VERTEX
  8
0
 62
7
  6
CONTINUOUS
 10
53.5817179629
 20
227.9586647424
  0
VERTEX
  8
0
 62
7
  6
CONTINUOUS
 10
53.6220751691
 20
227.9592155286
  0
SEQEND
  0
LINE
  8
SURFACE
 62
7
  6
CONTINUOUS
 10
170.6546315676
 20
224.2923800623
 11
170.7077185513
 21
218.2092142577
  0
LINE
  8
SURFACE
 62
7
  6
CONTINUOUS
 10
170.7993506403
 20
207.7092168755
 11
170.8688663302
 21
199.7435078027
  0
LINE
  8
0
 62
7
  6
CONTINUOUS
 10
170.8688663302
 20
199.7435078027
 11
170.6111629747
 21
229.2733874473
  0
LINE
  8
0
 62
7
  6
CONTINUOUS
 10
53.3944990649
 20
227.935328518
 11
53.4111225793
 21
227.9396478339
  0
LINE
  8
0
 62
7
  6
CONTINUOUS
 10
187.052775952
 20
230.2675320792
 11
186.7863968277
 21
199.7435078027
  0
LINE
  8
SURFACE
 62
7
  6
CONTINUOUS
 10
186.7863968277
 20
199.7435078027
 11
186.8559125176
 21
207.7092168755
  0
LINE
  8
SURFACE
 62
7
  6
CONTINUOUS
 10
186.9475446066
 20
218.2092142577
 11
187.000409061
 21
224.2668807259
  0
LINE
  8
0
 62
7
  6
CONTINUOUS
 10
187.0028673419
 20
224.3465157914
 11
187.0059368571
 21
224.4037950094
  0
POLYLINE
  8
0
 62
7
  6
CONTINUOUS
 66
1
 70
0
  0
VERTEX
  8
0
 62
7
  6
CONTINUOUS
 10
187.0059368571
 20
224.4037950094
  0
VERTEX
  8
0
 62
7
  6
CONTINUOUS
 10
187.0106676879
 20
224.4862025294
  0
VERTEX
  8
0
 62
7
  6
CONTINUOUS
 10
187.0167139282
 20
224.5743697252
  0
VERTEX
  8
0
 62
7
  6
CONTINUOUS
 10
187.0242036172
 20
224.6634143659
  0
VERTEX
  8
0
 62
7
  6
CONTINUOUS
 10
187.0333976421
 20
224.7571460947
  0
VERTEX
  8
0
 62
7
  6
CONTINUOUS
 10
187.0442761092
 20
224.8527248431
  0
VERTEX
  8
0
 62
7
  6
CONTINUOUS
 10
187.0570592573
 20
224.9487682534
  0
VERTEX
  8
0
 62
7
  6
CONTINUOUS
 10
187.0721575524
 20
225.0468098904
  0
VERTEX
  8
0
 62
7
  6
CONTINUOUS
 10
187.089766435
 20
225.1463172639
  0
VERTEX
  8
0
 62
7
  6
CONTINUOUS
 10
187.1101178103
 20
225.2461791912
  0
VERTEX
  8
0
 62
7
  6
CONTINUOUS
 10
187.1334398842
 20
225.3452586361
  0
VERTEX
  8
0
 62
7
  6
CONTINUOUS
 10
187.1595006767
 20
225.4410023162
  0
VERTEX
  8
0
 62
7
  6
CONTINUOUS
 10
187.1865762826
 20
225.5270943043
  0
VERTEX
  8
0
 62
7
  6
CONTINUOUS
 10
187.2127598749
 20
225.5996043175
  0
VERTEX
  8
0
 62
7
  6
CONTINUOUS
 10
187.237452851
 20
225.6596691693
  0
VERTEX
  8
0
 62
7
  6
CONTINUOUS
 10
187.2604524385
 20
225.7091318989
  0
VERTEX
  8
0
 62
7
  6
CONTINUOUS
 10
187.2816982459
 20
225.7496923779
  0
VERTEX
  8
0
 62
7
  6
CONTINUOUS
 10
187.3012131322
 20
225.7828110658
  0
VERTEX
  8
0
 62
7
  6
CONTINUOUS
 10
187.318963541
 20
225.8095532305
  0
VERTEX
  8
0
 62
7
  6
CONTINUOUS
 10
187.3346619478
 20
225.8304841349
  0
VERTEX
  8
0
 62
7
  6
CONTINUOUS
 10
187.3481976855
 20
225.8464002518
  0
VERTEX
  8
0
 62
7
  6
CONTINUOUS
 10
187.3598369184
 20
225.8584260342
  0
VERTEX
  8
0
 62
7
  6
CONTINUOUS
 10
187.3702277335
 20
225.8678262719
  0
VERTEX
  8
0
 62
7
  6
CONTINUOUS
 10
187.3803439867
 20
225.8758182162
  0
VERTEX
  8
0
 62
7
  6
CONTINUOUS
 10
187.3913328951
 20
225.8833876606
  0
VERTEX
  8
0
 62
7
  6
CONTINUOUS
 10
187.4044315819
 20
225.891239552
  0
VERTEX
  8
0
 62
7
  6
CONTINUOUS
 10
187.4208252307
 20
225.8997558785
  0
VERTEX
  8
0
 62
7
  6
CONTINUOUS
 10
187.4416157837
 20
225.9090490698
  0
VERTEX
  8
0
 62
7
  6
CONTINUOUS
 10
187.4674612832
 20
225.9188934748
  0
VERTEX
  8
0
 62
7
  6
CONTINUOUS
 10
187.4984011572
 20
225.9288229755
  0
VERTEX
  8
0
 62
7
  6
CONTINUOUS
 10
187.5338936836
 20
225.9382991942
  0
VERTEX
  8
0
 62
7
  6
CONTINUOUS
 10
187.5732390475
 20
225.9469047016
  0
VERTEX
  8
0
 62
7
  6
CONTINUOUS
 10
187.6166213219
 20
225.9544984819
  0
VERTEX
  8
0
 62
7
  6
CONTINUOUS
 10
187.6647712286
 20
225.9609763685
  0
VERTEX
  8
0
 62
7
  6
CONTINUOUS
 10
187.7081185325
 20
225.9652952639
  0
SEQEND
  0
LINE
  8
SURFACE
 62
7
  6
CONTINUOUS
 10
204.0688909103
 20
224.9501942378
 11
204.1277185513
 21
218.2092142577
  0
LINE
  8
SURFACE
 62
7
  6
CONTINUOUS
 10
204.2193506403
 20
207.7092168755
 11
204.2888663302
 21
199.7435078027
  0
LINE
  8
0
 62
7
  6
CONTINUOUS
 10
204.2888663302
 20
199.7435078027
 11
204.0143136998
 21
231.2041231114
  0
POLYLINE
  8
0
 62
7
  6
CONTINUOUS
 66
1
 70
0
  0
VERTEX
  8
0
 62
7
  6
CONTINUOUS
 10
204.0306274445
 20
225.790190692
  0
VERTEX
  8
0
 62
7
  6
CONTINUOUS
 10
204.0394478533
 20
225.7158945063
  0
VERTEX
  8
0
 62
7
  6
CONTINUOUS
 10
204.0531685125
 20
225.5949175735
  0
SEQEND
  0
POLYLINE
  8
0
 62
7
  6
CONTINUOUS
 66
1
 70
0
  0
VERTEX
  8
0
 62
7
  6
CONTINUOUS
 10
220.459017471
 20
226.439942153
  0
VERTEX
  8
0
 62
7
  6
CONTINUOUS
 10
220.4814848214
 20
226.5837701621
  0
VERTEX
  8
0
 62
7
  6
CONTINUOUS
 10
220.4952338824
 20
226.6680925641
  0
VERTEX
  8
0
 62
7
  6
CONTINUOUS
 10
220.5106111262
 20
226.7564220412
  0
VERTEX
  8
0
 62
7
  6
CONTINUOUS
 10
220.528070364
 20
226.8489602527
  0
VERTEX
  8
0
 62
7
  6
CONTINUOUS
 10
220.5479607562
 20
226.945233808
  0
VERTEX
  8
0
 62
7
  6
CONTINUOUS
 10
220.5704660863
 20
227.043938449
  0
VERTEX
  8
0
 62
7
  6
CONTINUOUS
 10
220.595615016
 20
227.1432810208
  0
VERTEX
  8
0
 62
7
  6
CONTINUOUS
 10
220.6233202942
 20
227.2413664547
  0
VERTEX
  8
0
 62
7
  6
CONTINUOUS
 10
220.6533275875
 20
227.3361780957
  0
VERTEX
  8
0
 62
7
  6
CONTINUOUS
 10
220.684997574
 20
227.4251808419
  0
VERTEX
  8
0
 62
7
  6
CONTINUOUS
 10
220.71735472
 20
227.5058982338
  0
VERTEX
  8
0
 62
7
  6
CONTINUOUS
 10
220.7492246159
 20
227.5764415287
  0
VERTEX
  8
0
 62
7
  6
CONTINUOUS
 10
220.779433201
 20
227.635858892
  0
VERTEX
  8
0
 62
7
  6
CONTINUOUS
 10
220.8071384536
 20
227.6844278636
  0
VERTEX
  8
0
 62
7
  6
CONTINUOUS
 10
220.8320364548
 20
227.7234733784
  0
VERTEX
  8
0
 62
7
  6
CONTINUOUS
 10
220.854938721
 20
227.7556509076
  0
VERTEX
  8
0
 62
7
  6
CONTINUOUS
 10
220.8767172451
 20
227.7829661218
  0
VERTEX
  8
0
 62
7
  6
CONTINUOUS
 10
220.897220412
 20
227.8057597573
  0
VERTEX
  8
0
 62
7
  6
CONTINUOUS
 10
220.9160941805
 20
227.8242400245
  0
VERTEX
  8
0
 62
7
  6
CONTINUOUS
 10
220.933684827
 20
227.8393494571
  0
VERTEX
  8
0
 62
7
  6
CONTINUOUS
 10
220.9509231622
 20
227.8523018856
  0
VERTEX
  8
0
 62
7
  6
CONTINUOUS
 10
220.9688669361
 20
227.8640647869
  0
VERTEX
  8
0
 62
7
  6
CONTINUOUS
 10
220.9886463777
 20
227.8753407841
  0
VERTEX
  8
0
 62
7
  6
CONTINUOUS
 10
221.0113271617
 20
227.8865293871
  0
VERTEX
  8
0
 62
7
  6
CONTINUOUS
 10
221.0377875449
 20
227.8977415561
  0
VERTEX
  8
0
 62
7
  6
CONTINUOUS
 10
221.0684103292
 20
227.9087818735
  0
VERTEX
  8
0
 62
7
  6
CONTINUOUS
 10
221.1031354075
 20
227.9193131517
  0
VERTEX
  8
0
 62
7
  6
CONTINUOUS
 10
221.1416021234
 20
227.9289902667
  0
VERTEX
  8
0
 62
7
  6
CONTINUOUS
 10
221.1837182717
 20
227.9376105317
  0
VERTEX
  8
0
 62
7
  6
CONTINUOUS
 10
221.2296459206
 20
227.9450325744
  0
VERTEX
  8
0
 62
7
  6
CONTINUOUS
 10
221.2796982634
 20
227.9511095981
  0
VERTEX
  8
0
 62
7
  6
CONTINUOUS
 10
221.3343846809
 20
227.9556655602
  0
VERTEX
  8
0
 62
7
  6
CONTINUOUS
 10
221.3944335935
 20
227.9584634194
  0
VERTEX
  8
0
 62
7
  6
CONTINUOUS
 10
221.4473940397
 20
227.9592155077
  0
SEQEND
  0
POLYLINE
  8
SURFACE
 62
7
  6
CONTINUOUS
 66
1
 70
0
  0
VERTEX
  8
SURFACE
 62
7
  6
CONTINUOUS
 10
231.5226933893
 20
231.7614582972
  0
VERTEX
  8
SURFACE
 62
7
  6
CONTINUOUS
 10
231.4379779559
 20
231.8629057273
  0
VERTEX
  8
SURFACE
 62
7
  6
CONTINUOUS
 10
231.1168795558
 20
232.224215774
  0
VERTEX
  8
SURFACE
 62
7
  6
CONTINUOUS
 10
230.7786966389
 20
232.5695872369
  0
VERTEX
  8
SURFACE
 62
7
  6
CONTINUOUS
 10
230.4242193667
 20
232.8982131585
  0
VERTEX
  8
SURFACE
 62
7
  6
CONTINUOUS
 10
230.0542759721
 20
233.2093257071
  0
VERTEX
  8
SURFACE
 62
7
  6
CONTINUOUS
 10
229.6697308249
 20
233.502197971
  0
VERTEX
  8
SURFACE
 62
7
  6
CONTINUOUS
 10
229.2714824112
 20
233.7761456567
  0
VERTEX
  8
SURFACE
 62
7
  6
CONTINUOUS
 10
228.8604612353
 20
234.0305286877
  0
VERTEX
  8
SURFACE
 62
7
  6
CONTINUOUS
 10
228.4376276443
 20
234.2647527002
  0
VERTEX
  8
SURFACE
 62
7
  6
CONTINUOUS
 10
228.0039695854
 20
234.4782704319
  0
VERTEX
  8
SURFACE
 62
7
  6
CONTINUOUS
 10
227.5605002969
 20
234.6705830005
  0
VERTEX
  8
SURFACE
 62
7
  6
CONTINUOUS
 10
227.1082559409
 20
234.8412410692
  0
VERTEX
  8
SURFACE
 62
7
  6
CONTINUOUS
 10
226.6482931824
 20
234.989845897
  0
VERTEX
  8
SURFACE
 62
7
  6
CONTINUOUS
 10
226.1816867204
 20
235.1160502701
  0
VERTEX
  8
SURFACE
 62
7
  6
CONTINUOUS
 10
225.7095267769
 20
235.2195593128
  0
VERTEX
  8
SURFACE
 62
7
  6
CONTINUOUS
 10
225.2329165494
 20
235.3001311774
  0
VERTEX
  8
SURFACE
 62
7
  6
CONTINUOUS
 10
224.7529696336
 20
235.3575776082
  0
VERTEX
  8
SURFACE
 62
7
  6
CONTINUOUS
 10
224.2708074214
 20
235.3917643823
  0
VERTEX
  8
SURFACE
 62
7
  6
CONTINUOUS
 10
223.7875564805
 20
235.4026116225
  0
SEQEND
  0
LINE
  8
0
 62
7
  6
CONTINUOUS
 10
222.0526315789
 20
227.9592155666
 11
222.0526315789
 21
227.6592155666
  0
LINE
  8
0
 62
7
  6
CONTINUOUS
 10
223.8398656171
 20
227.9592155666
 11
223.8398656171
 21
227.6592155666
  0
LINE
  8
0
 62
7
  6
CONTINUOUS
 10
225.5526315789
 20
227.9592155666
 11
225.5526315789
 21
227.6592155666
  0
LINE
  8
0
 62
7
  6
CONTINUOUS
 10
220.483273606
 20
231.4704440894
 11
220.2063968277
 21
199.7435078027
  0
LINE
  8
SURFACE
 62
7
  6
CONTINUOUS
 10
220.2063968277
 20
199.7435078027
 11
220.2759125176
 21
207.7092168755
  0
LINE
  8
SURFACE
 62
7
  6
CONTINUOUS
 10
220.3675446066
 20
218.2092142577
 11
220.4263722476
 21
224.9501942378
  0
POLYLINE
  8
0
 62
7
  6
CONTINUOUS
 66
1
 70
0
  0
VERTEX
  8
0
 62
7
  6
CONTINUOUS
 10
231.6681876255
 20
231.5806332101
  0
VERTEX
  8
0
 62
7
  6
CONTINUOUS
 10
231.463816348
 20
231.8322519988
  0
VERTEX
  8
0
 62
7
  6
CONTINUOUS
 10
231.1467243043
 20
232.192084325
  0
VERTEX
  8
0
 62
7
  6
CONTINUOUS
 10
230.813045998
 20
232.5360023712
  0
VERTEX
  8
0
 62
7
  6
CONTINUOUS
 10
230.4634237127
 20
232.8634083292
  0
VERTEX
  8
0
 62
7
  6
CONTINUOUS
 10
230.0984867837
 20
233.1737276222
  0
VERTEX
  8
0
 62
7
  6
CONTINUOUS
 10
229.7190226763
 20
233.4662761504
  0
VERTEX
  8
0
 62
7
  6
CONTINUOUS
 10
229.325950165
 20
233.7403327119
  0
VERTEX
  8
0
 62
7
  6
CONTINUOUS
 10
228.9202201714
 20
233.9952330864
  0
VERTEX
  8
0
 62
7
  6
CONTINUOUS
 10
228.5027672979
 20
234.2303941263
  0
VERTEX
  8
0
 62
7
  6
CONTINUOUS
 10
228.0745346915
 20
234.4452870217
  0
VERTEX
  8
0
 62
7
  6
CONTINUOUS
 10
227.6364934025
 20
234.6394243315
  0
VERTEX
  8
0
 62
7
  6
CONTINUOUS
 10
227.1896506612
 20
234.8123586253
  0
VERTEX
  8
0
 62
7
  6
CONTINUOUS
 10
226.7350368056
 20
234.9636906911
  0
VERTEX
  8
0
 62
7
  6
CONTINUOUS
 10
226.2736980651
 20
235.0930723898
  0
VERTEX
  8
0
 62
7
  6
CONTINUOUS
 10
225.8066926455
 20
235.2002072002
  0
VERTEX
  8
0
 62
7
  6
CONTINUOUS
 10
225.3350914328
 20
235.2848495315
  0
VERTEX
  8
0
 62
7
  6
CONTINUOUS
 10
224.8599766301
 20
235.3468051028
  0
VERTEX
  8
0
 62
7
  6
CONTINUOUS
 10
224.382439201
 20
235.3859315868
  0
VERTEX
  8
0
 62
7
  6
CONTINUOUS
 10
223.9035757022
 20
235.4021391109
  0
VERTEX
  8
0
 62
7
  6
CONTINUOUS
 10
223.4244857381
 20
235.3953904686
  0
VERTEX
  8
0
 62
7
  6
CONTINUOUS
 10
222.9629286524
 20
235.3671227886
  0
SEQEND
  0
LINE
  8
0
 62
7
  6
CONTINUOUS
 10
229.3256691614
 20
219.5966279945
 11
229.2682152133
 21
226.174935441
  0
LINE
  8
0
 62
7
  6
CONTINUOUS
 10
237.2526315789
 20
226.1592155666
 11
237.2526315789
 21
199.7592155666
  0
LINE
  8
0
 62
7
  6
CONTINUOUS
 10
232.5636905576
 20
230.2278249233
 11
232.7627336433
 21
229.8474149566
  0
LINE
  8
SURFACE
 62
7
  6
CONTINUOUS
 10
232.7627336433
 20
229.8474149566
 11
233.0105275856
 21
229.3480184636
  0
LINE
  8
0
 62
7
  6
CONTINUOUS
 10
233.0105275856
 20
229.3480184636
 11
232.7627344907
 21
229.8474132489
  0
POLYLINE
  8
0
 62
7
  6
CONTINUOUS
 66
1
 70
0
  0
VERTEX
  8
0
 62
7
  6
CONTINUOUS
 10
233.0231399761
 20
229.3210865671
  0
VERTEX
  8
0
 62
7
  6
CONTINUOUS
 10
233.0169227281
 20
229.3347607662
  0
VERTEX
  8
0
 62
7
  6
CONTINUOUS
 10
233.0105275856
 20
229.3480184636
  0
SEQEND
  0
LINE
  8
SURF_PART
 62
2
  6
CONTINUOUS
 10
312.1901366192
 20
84.2138157895
 11
310.0901366192
 21
84.2138157895
  0
LINE
  8
SURF_PART
 62
2
  6
CENTER
 10
305.8901366192
 20
84.2138157895
 11
303.8901366192
 21
84.2138157895
  0
LINE
  8
SURF_PART
 62
2
  6
CENTER
 10
316.3901366192
 20
84.2138157895
 11
318.3901366192
 21
84.2138157895
  0
LINE
  8
SURFACE
 62
7
  6
CONTINUOUS
 10
296.1401366192
 20
147.7138157895
 11
296.1401366192
 21
116.3727734862
  0
LINE
  8
0
 62
7
  6
CONTINUOUS
 10
296.1401366192
 20
84.2138157895
 11
296.1401366192
 21
116.3727734862
  0
LINE
  8
SURF_PART
 62
2
  6
CONTINUOUS
 10
311.1401366192
 20
148.7638157895
 11
311.1401366192
 21
146.6638157895
  0
LINE
  8
SURF_PART
 62
2
  6
CENTER
 10
311.1401366192
 20
142.4638157895
 11
311.1401366192
 21
140.4638157895
  0
LINE
  8
SURF_PART
 62
2
  6
CONTINUOUS
 10
311.1401366192
 20
85.2638157895
 11
311.1401366192
 21
83.1638157895
  0
LINE
  8
SURF_PART
 62
2
  6
CENTER
 10
311.1401366192
 20
78.9638157895
 11
311.1401366192
 21
76.9638157895
  0
LINE
  8
SURF_PART
 62
2
  6
CENTER
 10
311.1401366192
 20
89.4638157895
 11
311.1401366192
 21
91.4638157895
  0
LINE
  8
SURF_PART
 62
2
  6
CENTER
 10
311.1401366192
 20
152.9638157895
 11
311.1401366192
 21
154.9638157895
  0
LINE
  8
SURFACE
 62
7
  6
CONTINUOUS
 10
302.6266786626
 20
118.761726179
 11
297.7207718011
 21
118.1593565591
  0
LINE
  8
0
 62
7
  6
CONTINUOUS
 10
326.1401366192
 20
134.989847722
 11
326.1401366192
 21
84.2138157895
  0
POLYLINE
  8
0
 62
7
  6
CONTINUOUS
 66
1
 70
0
  0
VERTEX
  8
0
 62
7
  6
CONTINUOUS
 10
326.6893901375
 20
84.4803583157
  0
VERTEX
  8
0
 62
7
  6
CONTINUOUS
 10
326.6067310459
 20
83.8279544722
  0
VERTEX
  8
0
 62
7
  6
CONTINUOUS
 10
326.5053608786
 20
83.2038080654
  0
VERTEX
  8
0
 62
7
  6
CONTINUOUS
 10
326.3905652122
 20
82.6198412457
  0
VERTEX
  8
0
 62
7
  6
CONTINUOUS
 10
326.2746017298
 20
82.110911019
  0
VERTEX
  8
0
 62
7
  6
CONTINUOUS
 10
326.1619177051
 20
81.6696502934
  0
VERTEX
  8
0
 62
7
  6
CONTINUOUS
 10
326.0540063457
 20
81.2836485835
  0
VERTEX
  8
0
 62
7
  6
CONTINUOUS
 10
325.9532891783
 20
80.9488235746
  0
VERTEX
  8
0
 62
7
  6
CONTINUOUS
 10
325.8597357024
 20
80.6559191482
  0
VERTEX
  8
0
 62
7
  6
CONTINUOUS
 10
325.7717665094
 20
80.3940041499
  0
VERTEX
  8
0
 62
7
  6
CONTINUOUS
 10
325.6890755171
 20
80.158169468
  0
VERTEX
  8
0
 62
7
  6
CONTINUOUS
 10
325.6132993867
 20
79.949849683
  0
VERTEX
  8
0
 62
7
  6
CONTINUOUS
 10
325.5436941797
 20
79.7643808682
  0
VERTEX
  8
0
 62
7
  6
CONTINUOUS
 10
325.47992754
 20
79.5989551132
  0
VERTEX
  8
0
 62
7
  6
CONTINUOUS
 10
325.4216077686
 20
79.4510962337
  0
VERTEX
  8
0
 62
7
  6
CONTINUOUS
 10
325.3682956904
 20
79.3185809081
  0
VERTEX
  8
0
 62
7
  6
CONTINUOUS
 10
325.3195020728
 20
79.1993513716
  0
VERTEX
  8
0
 62
7
  6
CONTINUOUS
 10
325.2746724577
 20
79.0914193506
  0
VERTEX
  8
0
 62
7
  6
CONTINUOUS
 10
325.2333417399
 20
78.9931880017
  0
SEQEND
  0
POLYLINE
  8
SURFACE
 62
7
  6
CONTINUOUS
 66
1
 70
0
  0
VERTEX
  8
SURFACE
 62
7
  6
CONTINUOUS
 10
333.5835475966
 20
127.3037683989
  0
VERTEX
  8
SURFACE
 62
7
  6
CONTINUOUS
 10
333.5684403418
 20
128.3527645953
  0
VERTEX
  8
SURFACE
 62
7
  6
CONTINUOUS
 10
333.5229667799
 20
129.3973450792
  0
VERTEX
  8
SURFACE
 62
7
  6
CONTINUOUS
 10
333.4484076701
 20
130.4192660042
  0
VERTEX
  8
SURFACE
 62
7
  6
CONTINUOUS
 10
333.3459091531
 20
131.4196141006
  0
VERTEX
  8
SURFACE
 62
7
  6
CONTINUOUS
 10
333.2164486039
 20
132.3996404097
  0
VERTEX
  8
SURFACE
 62
7
  6
CONTINUOUS
 10
333.060914767
 20
133.3601730111
  0
VERTEX
  8
SURFACE
 62
7
  6
CONTINUOUS
 10
332.8803344416
 20
134.300815662
  0
VERTEX
  8
SURFACE
 62
7
  6
CONTINUOUS
 10
332.6759316549
 20
135.2204772707
  0
VERTEX
  8
SURFACE
 62
7
  6
CONTINUOUS
 10
332.6172476217
 20
135.4633476168
  0
SEQEND
  0
LINE
  8
0
 62
7
  6
CONTINUOUS
 10
333.5835475986
 20
104.6238483843
 11
333.583547597
 21
115.9638157895
  0
LINE
  8
SURFACE
 62
7
  6
CONTINUOUS
 10
333.583547597
 20
115.9638157895
 11
333.583547596
 21
127.3037683994
  0
LINE
  8
0
 62
7
  6
CONTINUOUS
 10
333.5684403418
 20
103.5748669837
 11
333.5835475966
 21
104.6238631801
  0
LINE
  8
0
 62
7
  6
CONTINUOUS
 10
333.5227622263
 20
102.5268730575
 11
333.5684386088
 21
103.5748572971
  0
LINE
  8
0
 62
7
  6
CONTINUOUS
 10
333.4476386814
 20
101.4997362724
 11
333.5229667799
 21
102.5302864997
  0
LINE
  8
0
 62
7
  6
CONTINUOUS
 10
333.3443047638
 20
100.4945040677
 11
333.4484076701
 21
101.5083655748
  0
LINE
  8
0
 62
7
  6
CONTINUOUS
 10
333.2138730703
 20
99.5106574823
 11
333.3459091531
 21
100.5080174784
  0
POLYLINE
  8
0
 62
7
  6
CONTINUOUS
 66
1
 70
0
  0
VERTEX
  8
0
 62
7
  6
CONTINUOUS
 10
332.6172476217
 20
96.4642839622
  0
VERTEX
  8
0
 62
7
  6
CONTINUOUS
 10
332.6759316549
 20
96.7071543082
  0
VERTEX
  8
0
 62
7
  6
CONTINUOUS
 10
332.8803344416
 20
97.6268159169
  0
VERTEX
  8
0
 62
7
  6
CONTINUOUS
 10
333.060914767
 20
98.5674585679
  0
SEQEND
  0
LINE
  8
0
 62
7
  6
CONTINUOUS
 10
332.0968172478
 20
94.9980910867
 11
332.2944956827
 21
95.6801902658
  0
LINE
  8
0
 62
7
  6
CONTINUOUS
 10
332.0299775291
 20
94.7703703708
 11
332.0968172478
 21
94.9980910867
  0
LINE
  8
0
 62
7
  6
CONTINUOUS
 10
332.2944956827
 20
95.6801902658
 11
332.3454332157
 21
95.8539265356
  0
LINE
  8
0
 62
7
  6
CONTINUOUS
 10
332.3454332157
 20
95.8539265356
 11
332.3733356348
 21
95.9473910772
  0
LINE
  8
0
 62
7
  6
CONTINUOUS
 10
332.3733356348
 20
95.9473910772
 11
332.3966649603
 21
96.0239684121
  0
POLYLINE
  8
0
 62
7
  6
CONTINUOUS
 66
1
 70
0
  0
VERTEX
  8
0
 62
7
  6
CONTINUOUS
 10
332.3966649603
 20
96.0239684121
  0
VERTEX
  8
0
 62
7
  6
CONTINUOUS
 10
332.4155444249
 20
96.0843481997
  0
VERTEX
  8
0
 62
7
  6
CONTINUOUS
 10
332.4233051751
 20
96.1085754089
  0
VERTEX
  8
0
 62
7
  6
CONTINUOUS
 10
332.4299266732
 20
96.1288718191
  0
VERTEX
  8
0
 62
7
  6
CONTINUOUS
 10
332.4353489536
 20
96.145157584
  0
VERTEX
  8
0
 62
7
  6
CONTINUOUS
 10
332.4395209991
 20
96.1574077255
  0
VERTEX
  8
0
 62
7
  6
CONTINUOUS
 10
332.4423408589
 20
96.1654834568
  0
VERTEX
  8
0
 62
7
  6
CONTINUOUS
 10
332.4431511863
 20
96.1677555614
  0
SEQEND
  0
POLYLINE
  8
0
 62
7
  6
CONTINUOUS
 66
1
 70
0
  0
VERTEX
  8
0
 62
7
  6
CONTINUOUS
 10
331.3651467933
 20
92.6966993499
  0
VERTEX
  8
0
 62
7
  6
CONTINUOUS
 10
331.4361614827
 20
92.9006619658
  0
VERTEX
  8
0
 62
7
  6
CONTINUOUS
 10
331.5101759253
 20
93.1175937424
  0
VERTEX
  8
0
 62
7
  6
CONTINUOUS
 10
331.5801975418
 20
93.3270037231
  0
VERTEX
  8
0
 62
7
  6
CONTINUOUS
 10
331.6460851851
 20
93.5278252555
  0
VERTEX
  8
0
 62
7
  6
CONTINUOUS
 10
331.7077386366
 20
93.7190916368
  0
VERTEX
  8
0
 62
7
  6
CONTINUOUS
 10
331.7650979974
 20
93.8999547932
  0
VERTEX
  8
0
 62
7
  6
CONTINUOUS
 10
331.8181374507
 20
94.0696889118
  0
VERTEX
  8
0
 62
7
  6
CONTINUOUS
 10
331.8669608003
 20
94.2280204344
  0
VERTEX
  8
0
 62
7
  6
CONTINUOUS
 10
331.9120640894
 20
94.3760271833
  0
VERTEX
  8
0
 62
7
  6
CONTINUOUS
 10
331.953999999
 20
94.5150889421
  0
VERTEX
  8
0
 62
7
  6
CONTINUOUS
 10
332.0299775291
 20
94.7703703708
  0
SEQEND
  0
LINE
  8
SURFACE
 62
7
  6
CONTINUOUS
 10
324.662000946
 20
136.8338157895
 11
330.8692496028
 21
136.8338157895
  0
POLYLINE
  8
SURFACE
 62
7
  6
CONTINUOUS
 66
1
 70
0
  0
VERTEX
  8
SURFACE
 62
7
  6
CONTINUOUS
 10
331.3651464726
 20
139.2309321208
  0
VERTEX
  8
SURFACE
 62
7
  6
CONTINUOUS
 10
331.040154086
 20
140.1128173848
  0
VERTEX
  8
SURFACE
 62
7
  6
CONTINUOUS
 10
330.6836656938
 20
140.9969854528
  0
VERTEX
  8
SURFACE
 62
7
  6
CONTINUOUS
 10
330.3078293238
 20
141.8535523578
  0
SEQEND
  0
POLYLINE
  8
SURFACE
 62
7
  6
CONTINUOUS
 66
1
 70
0
  0
VERTEX
  8
SURFACE
 62
7
  6
CONTINUOUS
 10
331.9845114051
 20
137.3105226873
  0
VERTEX
  8
SURFACE
 62
7
  6
CONTINUOUS
 10
331.9415097311
 20
137.4541036667
  0
VERTEX
  8
SURFACE
 62
7
  6
CONTINUOUS
 10
331.8952241864
 20
137.607057244
  0
VERTEX
  8
SURFACE
 62
7
  6
CONTINUOUS
 10
331.8450232035
 20
137.7709985897
  0
VERTEX
  8
SURFACE
 62
7
  6
CONTINUOUS
 10
331.7902073691
 20
137.9476196828
  0
VERTEX
  8
SURFACE
 62
7
  6
CONTINUOUS
 10
331.7303940798
 20
138.1374397083
  0
VERTEX
  8
SURFACE
 62
7
  6
CONTINUOUS
 10
331.66558244
 20
138.3396718931
  0
VERTEX
  8
SURFACE
 62
7
  6
CONTINUOUS
 10
331.5958317341
 20
138.5533092322
  0
VERTEX
  8
SURFACE
 62
7
  6
CONTINUOUS
 10
331.5212532357
 20
138.7771822824
  0
VERTEX
  8
SURFACE
 62
7
  6
CONTINUOUS
 10
331.4420142496
 20
139.0099787554
  0
VERTEX
  8
SURFACE
 62
7
  6
CONTINUOUS
 10
331.3651467936
 20
139.2309322281
  0
SEQEND
  0
LINE
  8
SURFACE
 62
7
  6
CONTINUOUS
 10
332.0619950485
 20
137.0485100782
 11
331.9845114051
 21
137.3105226873
  0
LINE
  8
SURFACE
 62
7
  6
CONTINUOUS
 10
332.3516497394
 20
136.0527996539
 11
332.3060355769
 21
136.207838997
  0
POLYLINE
  8
SURFACE
 62
7
  6
CONTINUOUS
 66
1
 70
0
  0
VERTEX
  8
SURFACE
 62
7
  6
CONTINUOUS
 10
332.3060355769
 20
136.207838997
  0
VERTEX
  8
SURFACE
 62
7
  6
CONTINUOUS
 10
332.2156047602
 20
136.5198984116
  0
VERTEX
  8
SURFACE
 62
7
  6
CONTINUOUS
 10
332.0619950485
 20
137.0485100782
  0
SEQEND
  0
POLYLINE
  8
SURFACE
 62
7
  6
CONTINUOUS
 66
1
 70
0
  0
VERTEX
  8
SURFACE
 62
7
  6
CONTINUOUS
 10
332.6148110852
 20
135.4627351795
  0
VERTEX
  8
SURFACE
 62
7
  6
CONTINUOUS
 10
332.4427670454
 20
136.1413049128
  0
VERTEX
  8
SURFACE
 62
7
  6
CONTINUOUS
 10
332.1935727464
 20
137.0176815166
  0
VERTEX
  8
SURFACE
 62
7
  6
CONTINUOUS
 10
331.9246392713
 20
137.8704179143
  0
VERTEX
  8
SURFACE
 62
7
  6
CONTINUOUS
 10
331.6375691311
 20
138.6986225622
  0
VERTEX
  8
SURFACE
 62
7
  6
CONTINUOUS
 10
331.3340396042
 20
139.501506117
  0
VERTEX
  8
SURFACE
 62
7
  6
CONTINUOUS
 10
331.0158139641
 20
140.2783302756
  0
VERTEX
  8
SURFACE
 62
7
  6
CONTINUOUS
 10
330.69969199
 20
140.9956651021
  0
SEQEND
  0
POLYLINE
  8
SURFACE
 62
7
  6
CONTINUOUS
 66
1
 70
0
  0
VERTEX
  8
SURFACE
 62
7
  6
CONTINUOUS
 10
332.5879845177
 20
135.5654724881
  0
VERTEX
  8
SURFACE
 62
7
  6
CONTINUOUS
 10
332.5834950489
 20
135.5839386783
  0
VERTEX
  8
SURFACE
 62
7
  6
CONTINUOUS
 10
332.5090114034
 20
135.8780186115
  0
VERTEX
  8
SURFACE
 62
7
  6
CONTINUOUS
 10
332.4320892128
 20
136.1699813161
  0
VERTEX
  8
SURFACE
 62
7
  6
CONTINUOUS
 10
332.3527725875
 20
136.4597910809
  0
VERTEX
  8
SURFACE
 62
7
  6
CONTINUOUS
 10
332.2711084147
 20
136.7474070664
  0
VERTEX
  8
SURFACE
 62
7
  6
CONTINUOUS
 10
332.1871484022
 20
137.0327774491
  0
VERTEX
  8
SURFACE
 62
7
  6
CONTINUOUS
 10
332.1009450306
 20
137.3158544013
  0
VERTEX
  8
SURFACE
 62
7
  6
CONTINUOUS
 10
332.0125511432
 20
137.5965947895
  0
VERTEX
  8
SURFACE
 62
7
  6
CONTINUOUS
 10
331.922021581
 20
137.8749545707
  0
VERTEX
  8
SURFACE
 62
7
  6
CONTINUOUS
 10
331.8294128344
 20
138.1508900236
  0
VERTEX
  8
SURFACE
 62
7
  6
CONTINUOUS
 10
331.7347830762
 20
138.4243576847
  0
VERTEX
  8
SURFACE
 62
7
  6
CONTINUOUS
 10
331.6381920848
 20
138.6953145957
  0
VERTEX
  8
SURFACE
 62
7
  6
CONTINUOUS
 10
331.5397011767
 20
138.9637184855
  0
VERTEX
  8
SURFACE
 62
7
  6
CONTINUOUS
 10
331.4393731139
 20
139.2295279897
  0
VERTEX
  8
SURFACE
 62
7
  6
CONTINUOUS
 10
331.3372720163
 20
139.4927028207
  0
VERTEX
  8
SURFACE
 62
7
  6
CONTINUOUS
 10
331.2334631957
 20
139.7532041045
  0
VERTEX
  8
SURFACE
 62
7
  6
CONTINUOUS
 10
331.1280131718
 20
140.0109942263
  0
VERTEX
  8
SURFACE
 62
7
  6
CONTINUOUS
 10
331.020989106
 20
140.2660380695
  0
VERTEX
  8
SURFACE
 62
7
  6
CONTINUOUS
 10
330.9124598304
 20
140.5183004059
  0
VERTEX
  8
SURFACE
 62
7
  6
CONTINUOUS
 10
330.8024925602
 20
140.7677533363
  0
VERTEX
  8
SURFACE
 62
7
  6
CONTINUOUS
 10
330.6995845423
 20
140.9959006372
  0
SEQEND
  0
POLYLINE
  8
0
 62
7
  6
CONTINUOUS
 66
1
 70
0
  0
VERTEX
  8
0
 62
7
  6
CONTINUOUS
 10
330.6862678758
 20
90.9371000986
  0
VERTEX
  8
0
 62
7
  6
CONTINUOUS
 10
331.040154086
 20
91.8148141941
  0
VERTEX
  8
0
 62
7
  6
CONTINUOUS
 10
331.3651464726
 20
92.6966994582
  0
SEQEND
  0
LINE
  8
0
 62
7
  6
CONTINUOUS
 10
325.2333417399
 20
78.9931880017
 11
325.1606296409
 21
78.8231014049
  0
LINE
  8
0
 62
7
  6
CONTINUOUS
 10
325.1606296409
 20
78.8231014049
 11
325.1001192938
 21
78.6839499137
  0
POLYLINE
  8
0
 62
7
  6
CONTINUOUS
 66
1
 70
0
  0
VERTEX
  8
0
 62
7
  6
CONTINUOUS
 10
330.6996919901
 20
90.9319664769
  0
VERTEX
  8
0
 62
7
  6
CONTINUOUS
 10
331.0158139641
 20
91.6493013034
  0
VERTEX
  8
0
 62
7
  6
CONTINUOUS
 10
331.3340396042
 20
92.426125462
  0
VERTEX
  8
0
 62
7
  6
CONTINUOUS
 10
331.6375691311
 20
93.2290090168
  0
VERTEX
  8
0
 62
7
  6
CONTINUOUS
 10
331.9246392713
 20
94.0572136646
  0
VERTEX
  8
0
 62
7
  6
CONTINUOUS
 10
332.1935727464
 20
94.9099500624
  0
VERTEX
  8
0
 62
7
  6
CONTINUOUS
 10
332.4427670454
 20
95.7863266661
  0
VERTEX
  8
0
 62
7
  6
CONTINUOUS
 10
332.6707106635
 20
96.6853734469
  0
VERTEX
  8
0
 62
7
  6
CONTINUOUS
 10
332.8760075232
 20
97.6061268074
  0
VERTEX
  8
0
 62
7
  6
CONTINUOUS
 10
333.0574187456
 20
98.5478988696
  0
VERTEX
  8
0
 62
7
  6
CONTINUOUS
 10
333.2164486039
 20
99.5279911692
  0
SEQEND
  0
LINE
  8
0
 62
7
  6
CONTINUOUS
 10
325.1001192938
 20
78.6839499137
 11
325.0283505623
 21
78.5213566805
  0
LINE
  8
0
 62
7
  6
CONTINUOUS
 10
325.0283505623
 20
78.5213566805
 11
324.9585867036
 21
78.365446868
  0
LINE
  8
0
 62
7
  6
CONTINUOUS
 10
324.9585867036
 20
78.365446868
 11
324.8752759933
 21
78.1813714882
  0
LINE
  8
0
 62
7
  6
CONTINUOUS
 10
324.8139422561
 20
78.0468022252
 11
324.8061543237
 21
78.0297459429
  0
LINE
  8
0
 62
7
  6
CONTINUOUS
 10
330.6995845423
 20
90.9317309418
 11
324.7840984773
 21
77.9814562992
  0
LINE
  8
SURFACE
 62
7
  6
CONTINUOUS
 10
330.6995845423
 20
140.9959006372
 11
324.784100976
 21
153.9461698095
  0
LINE
  8
SURF_PART
 62
2
  6
CONTINUOUS
 10
312.1901366192
 20
147.7138157895
 11
310.0901366192
 21
147.7138157895
  0
LINE
  8
SURF_PART
 62
2
  6
CENTER
 10
305.8901366192
 20
147.7138157895
 11
303.8901366192
 21
147.7138157895
  0
LINE
  8
SURF_PART
 62
2
  6
CENTER
 10
316.3901366192
 20
147.7138157895
 11
318.3901366192
 21
147.7138157895
  0
ARC
  8
SURFACE
 62
7
  6
CONTINUOUS
 10
235.4526315789
 20
160.9138157895
 40
1.8
 50
0.0
 51
90.0
  0
ARC
  8
0
 62
7
  6
CONTINUOUS
 10
38.6526315789
 20
71.0138157895
 40
1.8
 50
179.9999999984
 51
270.0
  0
ARC
  8
0
 62
7
  6
CONTINUOUS
 10
38.6526315789
 20
199.7592155666
 40
1.8
 50
180.0
 51
270.0
  0
ARC
  8
0
 62
7
  6
CONTINUOUS
 10
72.4087977916
 20
199.7592155807
 40
1.8
 50
180.5000004482
 51
270.0000000039
  0
ARC
  8
0
 62
7
  6
CONTINUOUS
 10
51.1562683494
 20
199.7592155666
 40
1.8
 50
270.0000006025
 51
359.4996000053
  0
ARC
  8
0
 62
7
  6
CONTINUOUS
 10
38.8526315789
 20
199.4592155666
 40
1.5
 50
270.0
 51
354.050828258
  0
ARC
  8
0
 62
7
  6
CONTINUOUS
 10
45.3526315789
 20
199.4592155666
 40
1.5
 50
185.9488920142
 51
270.0
  0
ARC
  8
SURFACE
 62
7
  6
CONTINUOUS
 10
50.3004230269
 20
225.4026265239
 40
10.0000000194
 50
87.9075491633
 51
151.149892379
  0
ARC
  8
0
 62
7
  6
CONTINUOUS
 10
50.3004230108
 20
225.4026265524
 40
9.9999999962
 50
85.1699999704
 51
153.6100000255
  0
ARC
  8
0
 62
7
  6
CONTINUOUS
 10
62.5894870188
 20
222.9592155666
 40
5.0
 50
85.17
 51
90.0
  0
ARC
  8
0
 62
7
  6
CONTINUOUS
 10
38.8552618603
 20
230.4592155666
 40
2.5000001287
 50
270.5621972604
 51
333.6100034304
  0
ARC
  8
SURFACE
 62
7
  6
CONTINUOUS
 10
38.8552621971
 20
230.4592155666
 40
2.5
 50
270.5621895455
 51
317.707499632
  0
ARC
  8
0
 62
7
  6
CONTINUOUS
 10
38.6526315789
 20
226.1592155666
 40
1.8
 50
90.0
 51
180.0
  0
ARC
  8
0
 62
7
  6
CONTINUOUS
 10
68.5825912979
 20
225.6642042788
 40
1.8
 50
0.4999616166
 51
7.4237458386
  0
ARC
  8
0
 62
7
  6
CONTINUOUS
 10
118.1464653492
 20
199.7592155666
 40
1.8
 50
270.0000005403
 51
359.5000000047
  0
ARC
  8
0
 62
7
  6
CONTINUOUS
 10
84.7264653662
 20
199.7592155755
 40
1.8
 50
269.9999999975
 51
359.4999997176
  0
ARC
  8
0
 62
7
  6
CONTINUOUS
 10
105.8287978078
 20
199.7592155666
 40
1.8
 50
180.4999999955
 51
269.9999994884
  0
ARC
  8
0
 62
7
  6
CONTINUOUS
 10
88.5379564272
 20
223.977982705
 40
1.8
 50
177.809436724
 51
179.5
  0
ARC
  8
0
 62
7
  6
CONTINUOUS
 10
118.3918555574
 20
227.8781463388
 40
1.8
 50
359.5000002451
 51
85.1700000186
  0
ARC
  8
0
 62
7
  6
CONTINUOUS
 10
105.5739554584
 20
228.9612545451
 40
1.8
 50
85.1700000149
 51
180.4999998401
  0
ARC
  8
0
 62
7
  6
CONTINUOUS
 10
184.9864653492
 20
199.7592155666
 40
1.8
 50
270.0000005403
 51
359.5000000047
  0
ARC
  8
0
 62
7
  6
CONTINUOUS
 10
172.6687977917
 20
199.7592155759
 40
1.8
 50
180.5000002957
 51
270.0000000026
  0
ARC
  8
0
 62
7
  6
CONTINUOUS
 10
151.5664653492
 20
199.7592155666
 40
1.8
 50
270.0000005403
 51
359.5000000047
  0
ARC
  8
0
 62
7
  6
CONTINUOUS
 10
139.2487977917
 20
199.7592155759
 40
1.8
 50
180.5000002957
 51
270.0000000026
  0
ARC
  8
0
 62
7
  6
CONTINUOUS
 10
137.0526315789
 20
226.702742611
 40
5.0
 50
265.1699444049
 51
272.3447662956
  0
ARC
  8
0
 62
7
  6
CONTINUOUS
 10
151.808976362
 20
227.5482232235
 40
1.8
 50
359.5000003146
 51
94.8299999708
  0
ARC
  8
0
 62
7
  6
CONTINUOUS
 10
139.0138373949
 20
226.6829998129
 40
1.7999999544
 50
91.1038848483
 51
180.4999998636
  0
ARC
  8
0
 62
7
  6
CONTINUOUS
 10
172.4110943441
 20
229.2890952034
 40
1.7999999539
 50
94.8299970593
 51
180.499999778
  0
ARC
  8
0
 62
7
  6
CONTINUOUS
 10
218.4064653492
 20
199.7592155666
 40
1.8
 50
270.0000005403
 51
359.5000000047
  0
ARC
  8
0
 62
7
  6
CONTINUOUS
 10
235.4526315789
 20
199.7592155666
 40
1.8
 50
270.0
 51
360.0
  0
ARC
  8
0
 62
7
  6
CONTINUOUS
 10
206.0887977917
 20
199.7592155759
 40
1.8
 50
180.5000002957
 51
270.0000000026
  0
ARC
  8
0
 62
7
  6
CONTINUOUS
 10
188.8003405225
 20
224.251172962
 40
1.8
 50
176.9636988554
 51
179.5
  0
ARC
  8
0
 62
7
  6
CONTINUOUS
 10
202.2649935665
 20
225.3889315698
 40
1.8
 50
0.4999733168
 51
6.5666368301
  0
ARC
  8
0
 62
7
  6
CONTINUOUS
 10
223.8048401425
 20
225.4026265444
 40
10.0
 50
26.39
 51
94.8299999243
  0
ARC
  8
SURFACE
 62
7
  6
CONTINUOUS
 10
223.804840147
 20
225.4026265524
 40
9.9999999962
 50
26.389999971
 51
92.0924510078
  0
ARC
  8
0
 62
7
  6
CONTINUOUS
 10
227.4682838575
 20
226.1592155666
 40
1.8
 50
0.5003855025
 51
90.0
  0
ARC
  8
0
 62
7
  6
CONTINUOUS
 10
222.236991758
 20
226.1592155666
 40
1.8
 50
171.0308903834
 51
179.5
  0
ARC
  8
0
 62
7
  6
CONTINUOUS
 10
235.4526315789
 20
226.1592155666
 40
1.8
 50
0.0
 51
90.0
  0
ARC
  8
SURFACE
 62
7
  6
CONTINUOUS
 10
235.2500012975
 20
230.4592155666
 40
2.5000001287
 50
247.6708293555
 51
269.9651834349
  0
ARC
  8
0
 62
7
  6
CONTINUOUS
 10
235.2500009608
 20
230.4592155666
 40
2.5
 50
206.39
 51
269.9651911524
  0
ARC
  8
SURFACE
 62
7
  6
CONTINUOUS
 10
137.0526315789
 20
328.4641064704
 40
100.0
 50
270.918711618
 51
271.1038823206
  0
ARC
  8
0
 62
7
  6
CONTINUOUS
 10
137.0526315789
 20
328.4641064704
 40
100.0
 50
265.17
 51
274.8300001996
  0
ARC
  8
0
 62
7
  6
CONTINUOUS
 10
311.1401366192
 20
84.2138157895
 40
15.0
 50
180.0
 51
360.0
  0
CIRCLE
  8
SURF_PART
 62
7
  6
CONTINUOUS
 10
311.1401366192
 20
84.2138157895
 40
5.25
  0
ARC
  8
SURFACE
 62
7
  6
CONTINUOUS
 10
297.9401366192
 20
116.3727735111
 40
1.7999999946
 50
97.0
 51
180.0000007937
  0
ARC
  8
SURFACE
 62
7
  6
CONTINUOUS
 10
300.1661366192
 20
138.8012329806
 40
20.19
 50
277.0
 51
342.7986888667
  0
ARC
  8
SURFACE
 62
7
  6
CONTINUOUS
 10
311.2820453809
 20
148.0192687196
 40
16.5
 50
304.471190007
 51
313.3261956999
  0
ARC
  8
SURFACE
 62
7
  6
CONTINUOUS
 10
311.1401366192
 20
147.7138157895
 40
15.0
 50
24.5501947871
 51
180.0000204093
  0
CIRCLE
  8
SURF_PART
 62
7
  6
CONTINUOUS
 10
311.1401366192
 20
147.7138157895
 40
5.25
  0
ARC
  8
0
 62
7
  6
CONTINUOUS
 10
330.8692480292
 20
96.8938157895
 40
1.8
 50
345.8565401811
 51
346.1944115583
  0
ARC
  8
0
 62
7
  6
CONTINUOUS
 10
327.9401366192
 20
96.8938156934
 40
1.799999952
 50
179.9999969414
 51
188.5714258515
  0
ARC
  8
SURFACE
 62
7
  6
CONTINUOUS
 10
324.6619902674
 20
133.8338157895
 40
3.0
 50
89.9997960535
 51
133.3261956999
  0
ARC
  8
SURFACE
 62
7
  6
CONTINUOUS
 10
322.3188849075
 20
131.9432563638
 40
3.0
 50
124.4711475413
 51
162.7987477825
  0
ARC
  8
SURFACE
 62
7
  6
CONTINUOUS
 10
330.8692480292
 20
135.0338157895
 40
1.8
 50
13.8055884417
 51
90.0
  0
ARC
  8
SURFACE
 62
7
  6
CONTINUOUS
 10
324.3401366192
 20
134.9898478951
 40
1.8
 50
0.0
 51
105.557860835
  0
ENDSEC
  0
EOF
