  0
SECTION
  2
HEADER
  9
$EXTMAX
 10
420.0
 20
297.0
 30
0.0
  9
$EXTMIN
 10
0.0
 20
0.0
 30
0.0
  9
$LIMMIN
 10
0.0
 20
0.0
  9
$LIMMAX
 10
420.0
 20
297.0
  9
$VIEWCTR
 10
210.0
 20
148.5
  9
$VIEWSIZE
 40
297.0
  9
$CLAYER
  8
0
  9
$LTSCALE
 40
23.1
  9
$CELTYPE
  6
BYLAYER
  9
$DIMSCALE
 40
1.0
  9
$DIMASZ
 40
3.5
  9
$DIMEXO
 40
2.625
  9
$DIMDLI
 40
15.96
  9
$DIMEXE
 40
7.56
  9
$DIMCEN
 40
3.78
  9
$DIMLFAC
 40
1.0
  9
$DIMBLK
  1
_FILLED
  9
$DIMTXT
 40
3.5
  9
$PDMODE
 70
3
  9
$PDSIZE
 40
0.3125
  9
$TILEMODE
 70
1
  0
ENDSEC
  0
SECTION
  2
TABLES
  0
TABLE
  2
LTYPE
 70
6
  0
LTYPE
  2
BYBLOCK
 70
0
  3

 72
65
 73
0
 40
0.0
  0
LTYPE
  2
BYLAYER
 70
0
  3

 72
65
 73
0
 40
0.0
  0
LTYPE
  2
CONTINUOUS
 70
64
  3
Solid line
 72
65
 73
0
 40
0.0
  0
LTYPE
  2
CENTER
 70
64
  3
____ _ ____ _ ____ _ ____ _ ____ _ ____ _ ____
 72
65
 73
4
 40
0.6
 49
0.375
 49
-0.075
 49
0.075
 49
-0.075
  0
LTYPE
  2
HIDDEN
 70
64
  3
- - - - - - - - - - - - - - - - - - - -
 72
65
 73
2
 40
0.2
 49
0.1
 49
-0.1
  0
LTYPE
  2
PHANTOM
 70
64
  3
_____ _ _ _____ _ _ _____ _ _ _____
 72
65
 73
6
 40
0.8
 49
0.45
 49
-0.05
 49
0.1
 49
-0.05
 49
0.1
 49
-0.05
  0
LTYPE
  2
DOT
 70
64
  3
. . . . . . . . . . . . . . . . . . . .
 72
65
 73
2
 40
0.2
 49
0.1
 49
-0.1
  0
LTYPE
  2
DASHED
 70
64
  3
- - - - - - - - - - - - - - - - - - - -
 72
65
 73
2
 40
0.2
 49
0.1
 49
-0.1
  0
ENDTAB
  0
TABLE
  2
LAYER
 70
36
  0
LAYER
  2
0
 70
0
 62
7
  6
CONTINUOUS
  0
LAYER
  2
DEFAULT_1
 70
0
 62
7
  6
CENTER
  0
LAYER
  2
DEFAULT_2
 70
0
 62
8
  6
HIDDEN
  0
LAYER
  2
DEFAULT_3
 70
0
 62
7
  6
PHANTOM
  0
LAYER
  2
1_DATUMPLANE
 70
0
 62
7
  6
CONTINUOUS
  0
LAYER
  2
3_CURVE
 70
0
 62
7
  6
CONTINUOUS
  0
LAYER
  2
6_DIM
 70
0
 62
7
  6
CONTINUOUS
  0
LAYER
  2
CSYS
 70
0
 62
7
  6
CONTINUOUS
  0
LAYER
  2
CURVE
 70
0
 62
7
  6
CONTINUOUS
  0
LAYER
  2
SURFACE
 70
0
 62
7
  6
CONTINUOUS
  0
ENDTAB
  0
TABLE
  2
STYLE
 70
1
  0
STYLE
  2
STANDARD
 70
0
 40
0.0
 41
0.8
 50
0.0
 71
0
 42
0.2
  3
txt
  4

  0
STYLE
  2
TEXTSTYLE_1
 70
0
 40
0.0
 41
0.8
 50
0.0
 71
0
 42
0.2
  3
gdt
  4

  0
STYLE
  2
TEXTSTYLE_2
 70
0
 40
0.0
 41
0.6
 50
0.0
 71
0
 42
0.2
  3
txt
  4

  0
STYLE
  2
TEXTSTYLE_3
 70
0
 40
0.0
 41
1.0
 50
0.0
 71
0
 42
0.2
  3
ftb_____.ttf
  4

  0
STYLE
  2
TEXTSTYLE_4
 70
0
 40
0.0
 41
1.0
 50
0.0
 71
0
 42
0.2
  3
fti_____.ttf
  4

  0
STYLE
  2
TEXTSTYLE_5
 70
0
 40
0.0
 41
1.0
 50
0.0
 71
0
 42
0.2
  3
frutiger light.ttf
  4

  0
STYLE
  2
TEXTSTYLE_6
 70
0
 40
0.0
 41
0.7
 50
0.0
 71
0
 42
0.2
  3
txt
  4

  0
STYLE
  2
TEXTSTYLE_7
 70
0
 40
0.0
 41
0.5
 50
0.0
 71
0
 42
0.2
  3
txt
  4

  0
ENDTAB
  0
ENDSEC
  0
SECTION
  2
BLOCKS
  0
BLOCK
  8
0
 62
2
  6
CONTINUOUS
  2
SYMBOL_5_BL1
 70
64
 10
382.7840918555
 20
35.5067593403
  0
TEXT
  8
0
 62
7
  6
CONTINUOUS
 10
373.842376864
 20
30.5995157174
  7
TEXTSTYLE_4
 40
1.0655737705
  1
The brand for plastic modular belts and chains
 41
1.0
 72
0
  0
LINE
  8
0
 62
7
  6
CONTINUOUS
 10
358.7621602445
 20
36.0805298321
 11
358.7621602445
 21
33.9493822911
  0
LINE
  8
0
 62
7
  6
CONTINUOUS
 10
359.0512227376
 20
30.9584509954
 11
359.0512227376
 21
31.0552420547
  0
LINE
  8
0
 62
7
  6
CONTINUOUS
 10
358.7621602445
 20
31.0229783683
 11
358.8199727462
 21
30.8293962497
  0
LINE
  8
0
 62
7
  6
CONTINUOUS
 10
360.1556028675
 20
33.867415078
 11
360.1556028675
 21
36.0805298321
  0
LINE
  8
0
 62
7
  6
CONTINUOUS
 10
361.0746601894
 20
32.0231527829
 11
361.0746601894
 21
30.5067593403
  0
LINE
  8
0
 62
7
  6
CONTINUOUS
 10
361.3637227445
 20
30.5067593403
 11
361.3637227445
 21
31.2488242184
  0
LINE
  8
0
 62
7
  6
CONTINUOUS
 10
361.3637227445
 20
31.3778789641
 11
361.3637227445
 21
32.0231527829
  0
LINE
  8
0
 62
7
  6
CONTINUOUS
 10
358.8199727462
 20
31.216560532
 11
358.7621602445
 21
31.0229783683
  0
LINE
  8
0
 62
7
  6
CONTINUOUS
 10
359.1668477307
 20
30.7971325633
 11
359.0512227376
 21
30.9584509954
  0
LINE
  8
0
 62
7
  6
CONTINUOUS
 10
360.2652852997
 20
31.3133515913
 11
360.3230977445
 21
31.216560532
  0
LINE
  8
0
 62
7
  6
CONTINUOUS
 10
360.6121602997
 20
31.216560532
 11
360.5543476894
 21
31.3456152777
  0
LINE
  8
0
 62
7
  6
CONTINUOUS
 10
362.0408487691
 20
36.0805298321
 11
362.0408487691
 21
34.2772511436
  0
LINE
  8
0
 62
7
  6
CONTINUOUS
 10
362.0408487691
 20
32.9657757338
 11
362.0408487691
 21
32.3100380288
  0
LINE
  8
0
 62
7
  6
CONTINUOUS
 10
362.4043477445
 20
31.1520331591
 11
362.4043477445
 21
30.5067593403
  0
LINE
  8
0
 62
7
  6
CONTINUOUS
 10
362.6934101343
 20
30.5067593403
 11
362.6934101343
 21
31.1520331591
  0
LINE
  8
0
 62
7
  6
CONTINUOUS
 10
359.0512227376
 20
31.0552420547
 11
359.1090352445
 21
31.1842968456
  0
LINE
  8
0
 62
7
  6
CONTINUOUS
 10
358.8199727462
 20
30.8293962497
 11
358.9355977445
 21
30.7003414814
  0
LINE
  8
0
 62
7
  6
CONTINUOUS
 10
362.3465351343
 20
31.2810879048
 11
362.4043477445
 21
31.1520331591
  0
LINE
  8
0
 62
7
  6
CONTINUOUS
 10
363.1559103548
 20
30.7971325633
 11
363.2137226343
 21
30.668077795
  0
LINE
  8
0
 62
7
  6
CONTINUOUS
 10
362.6934101343
 20
31.1520331591
 11
362.6355978548
 21
31.3133515913
  0
LINE
  8
0
 62
7
  6
CONTINUOUS
 10
363.1559103548
 20
31.3456152777
 11
363.1559103548
 21
31.2810879048
  0
LINE
  8
0
 62
7
  6
CONTINUOUS
 10
363.1559103548
 20
30.8939236226
 11
363.1559103548
 21
30.7971325633
  0
LINE
  8
0
 62
7
  6
CONTINUOUS
 10
363.4342913921
 20
32.3100380288
 11
363.4342913921
 21
36.0805298321
  0
LINE
  8
0
 62
7
  6
CONTINUOUS
 10
363.4449727445
 20
30.7648688543
 11
363.4449727445
 21
30.8293962497
  0
LINE
  8
0
 62
7
  6
CONTINUOUS
 10
363.7621602445
 20
36.0805298321
 11
363.7621602445
 21
32.3100380288
  0
LINE
  8
0
 62
7
  6
CONTINUOUS
 10
360.5543476894
 20
30.7003414814
 11
360.6121602997
 21
30.8293962497
  0
LINE
  8
0
 62
7
  6
CONTINUOUS
 10
364.9480979651
 20
30.6035504109
 11
364.890285024
 21
30.7648688543
  0
LINE
  8
0
 62
7
  6
CONTINUOUS
 10
364.6012229651
 20
31.2810879048
 11
364.6012229651
 21
31.1842968456
  0
LINE
  8
0
 62
7
  6
CONTINUOUS
 10
364.6012229651
 20
31.0552420547
 11
364.6012229651
 21
30.8616599362
  0
LINE
  8
0
 62
7
  6
CONTINUOUS
 10
364.890285024
 20
30.7648688543
 11
364.890285024
 21
31.2810879048
  0
LINE
  8
0
 62
7
  6
CONTINUOUS
 10
365.1556028675
 20
32.3100380288
 11
365.1556028675
 21
34.1133167174
  0
LINE
  8
0
 62
7
  6
CONTINUOUS
 10
365.1556028675
 20
35.4247921272
 11
365.1556028675
 21
36.0805298321
  0
LINE
  8
0
 62
7
  6
CONTINUOUS
 10
365.4684104651
 20
32.0231527829
 11
365.4684104651
 21
31.8618343508
  0
LINE
  8
0
 62
7
  6
CONTINUOUS
 10
365.4684104651
 20
31.5391973962
 11
365.4684104651
 21
30.5067593403
  0
LINE
  8
0
 62
7
  6
CONTINUOUS
 10
365.757472524
 20
30.5067593403
 11
365.757472524
 21
31.5391973962
  0
LINE
  8
0
 62
7
  6
CONTINUOUS
 10
365.757472524
 20
31.8618343508
 11
365.757472524
 21
32.0231527829
  0
LINE
  8
0
 62
7
  6
CONTINUOUS
 10
360.3230977445
 20
30.8293962497
 11
360.2652852997
 21
30.7326051679
  0
LINE
  8
0
 62
7
  6
CONTINUOUS
 10
362.6355978548
 20
31.3133515913
 11
362.5777852445
 21
31.3778789641
  0
LINE
  8
0
 62
7
  6
CONTINUOUS
 10
363.5027853548
 20
30.7003414814
 11
363.4449727445
 21
30.7648688543
  0
LINE
  8
0
 62
7
  6
CONTINUOUS
 10
364.6590352445
 20
30.5712867188
 11
364.716847524
 21
30.5067593403
  0
LINE
  8
0
 62
7
  6
CONTINUOUS
 10
364.6012229651
 20
30.668077795
 11
364.6590352445
 21
30.5712867188
  0
LINE
  8
0
 62
7
  6
CONTINUOUS
 10
365.0059102445
 20
30.5067593403
 11
364.9480979651
 21
30.6035504109
  0
LINE
  8
0
 62
7
  6
CONTINUOUS
 10
364.890285024
 20
31.2810879048
 11
364.8324727445
 21
31.3778789641
  0
LINE
  8
0
 62
7
  6
CONTINUOUS
 10
366.2199727445
 20
31.5391973962
 11
366.2199727445
 21
30.5067593403
  0
LINE
  8
0
 62
7
  6
CONTINUOUS
 10
366.5090354651
 20
30.5067593403
 11
366.5090354651
 21
31.2488242184
  0
LINE
  8
0
 62
7
  6
CONTINUOUS
 10
366.5090354651
 20
31.3778789641
 11
366.5090354651
 21
31.5391973962
  0
LINE
  8
0
 62
7
  6
CONTINUOUS
 10
367.0408487691
 20
34.5231527829
 11
367.0408487691
 21
32.3100380288
  0
LINE
  8
0
 62
7
  6
CONTINUOUS
 10
358.9355977445
 20
31.3456152777
 11
358.8199727462
 21
31.216560532
  0
LINE
  8
0
 62
7
  6
CONTINUOUS
 10
359.1090352445
 20
31.1842968456
 11
359.1668477307
 21
31.2488242184
  0
LINE
  8
0
 62
7
  6
CONTINUOUS
 10
358.9355977445
 20
30.7003414814
 11
359.0512227376
 21
30.6358140973
  0
LINE
  8
0
 62
7
  6
CONTINUOUS
 10
359.3402852307
 20
30.7003414814
 11
359.1668477307
 21
30.7971325633
  0
LINE
  8
0
 62
7
  6
CONTINUOUS
 10
364.543410024
 20
31.3456152777
 11
364.6012229651
 21
31.2810879048
  0
LINE
  8
0
 62
7
  6
CONTINUOUS
 10
367.491847524
 20
31.2810879048
 11
367.5496604651
 21
31.1197694727
  0
LINE
  8
0
 62
7
  6
CONTINUOUS
 10
367.838722524
 20
31.1197694727
 11
367.7809102445
 21
31.2810879048
  0
LINE
  8
0
 62
7
  6
CONTINUOUS
 10
367.5496604651
 20
31.1197694727
 11
367.5496604651
 21
30.5067593403
  0
LINE
  8
0
 62
7
  6
CONTINUOUS
 10
367.838722524
 20
30.5067593403
 11
367.838722524
 21
31.1197694727
  0
LINE
  8
0
 62
7
  6
CONTINUOUS
 10
368.3012227445
 20
31.3456152777
 11
368.3012227445
 21
31.2810879048
  0
LINE
  8
0
 62
7
  6
CONTINUOUS
 10
368.4342913921
 20
32.3100380288
 11
368.4342913921
 21
34.4411855698
  0
LINE
  8
0
 62
7
  6
CONTINUOUS
 10
368.7621602445
 20
36.0805298321
 11
368.7621602445
 21
32.3100380288
  0
LINE
  8
0
 62
7
  6
CONTINUOUS
 10
363.4449727445
 20
30.8293962497
 11
363.5027853548
 21
30.926187309
  0
LINE
  8
0
 62
7
  6
CONTINUOUS
 10
359.0512227376
 20
30.6358140973
 11
359.2246602583
 21
30.5712867188
  0
LINE
  8
0
 62
7
  6
CONTINUOUS
 10
360.5543476894
 20
31.3456152777
 11
360.3809101894
 21
31.4424063369
  0
LINE
  8
0
 62
7
  6
CONTINUOUS
 10
363.2137226343
 20
30.668077795
 11
363.3871601343
 21
30.5712867188
  0
LINE
  8
0
 62
7
  6
CONTINUOUS
 10
362.2309102445
 20
31.3456152777
 11
362.3465351343
 21
31.2810879048
  0
LINE
  8
0
 62
7
  6
CONTINUOUS
 10
362.5777852445
 20
31.3778789641
 11
362.4621603548
 21
31.4424063369
  0
LINE
  8
0
 62
7
  6
CONTINUOUS
 10
368.3012227445
 20
30.7648688543
 11
368.4168479651
 21
30.6358140973
  0
LINE
  8
0
 62
7
  6
CONTINUOUS
 10
368.6480977445
 20
30.7003414814
 11
368.5902854651
 21
30.7648688543
  0
LINE
  8
0
 62
7
  6
CONTINUOUS
 10
368.3012227445
 20
31.2810879048
 11
368.4168479651
 21
31.1520331591
  0
LINE
  8
0
 62
7
  6
CONTINUOUS
 10
367.7809102445
 20
31.2810879048
 11
367.7230979651
 21
31.3778789641
  0
LINE
  8
0
 62
7
  6
CONTINUOUS
 10
370.1512223035
 20
30.7003414814
 11
370.1512223035
 21
30.7648688543
  0
LINE
  8
0
 62
7
  6
CONTINUOUS
 10
370.1556028675
 20
32.3100380288
 11
370.1556028675
 21
36.0805298321
  0
LINE
  8
0
 62
7
  6
CONTINUOUS
 10
363.2137226343
 20
31.4101426505
 11
363.1559103548
 21
31.3456152777
  0
LINE
  8
0
 62
7
  6
CONTINUOUS
 10
360.091847717
 20
31.3778789641
 11
360.2652852997
 21
31.3133515913
  0
LINE
  8
0
 62
7
  6
CONTINUOUS
 10
364.8324727445
 20
31.3778789641
 11
364.716847524
 21
31.4424063369
  0
LINE
  8
0
 62
7
  6
CONTINUOUS
 10
368.6480977445
 20
31.216560532
 11
368.5902854651
 21
31.2810879048
  0
LINE
  8
0
 62
7
  6
CONTINUOUS
 10
369.8043479651
 20
30.8293962497
 11
369.8621602445
 21
30.7648688543
  0
LINE
  8
0
 62
7
  6
CONTINUOUS
 10
370.1512223035
 20
30.7648688543
 11
370.0355977445
 21
30.8939236226
  0
LINE
  8
0
 62
7
  6
CONTINUOUS
 10
369.8043479651
 20
31.3456152777
 11
369.8621602445
 21
31.2810879048
  0
LINE
  8
0
 62
7
  6
CONTINUOUS
 10
370.1512223035
 20
31.2810879048
 11
370.0355977445
 21
31.4101426505
  0
LINE
  8
0
 62
7
  6
CONTINUOUS
 10
363.4449727445
 20
31.2810879048
 11
363.5027853548
 21
31.3456152777
  0
LINE
  8
0
 62
7
  6
CONTINUOUS
 10
363.2715352445
 20
31.0229783683
 11
363.1559103548
 21
30.8939236226
  0
LINE
  8
0
 62
7
  6
CONTINUOUS
 10
364.6012229651
 20
30.8616599362
 11
364.543410024
 21
30.7971325633
  0
LINE
  8
0
 62
7
  6
CONTINUOUS
 10
364.543410024
 20
30.6035504109
 11
364.6012229651
 21
30.668077795
  0
LINE
  8
0
 62
7
  6
CONTINUOUS
 10
363.3871601343
 20
30.5712867188
 11
363.5027853548
 21
30.5390230296
  0
LINE
  8
0
 62
7
  6
CONTINUOUS
 10
360.3809101894
 20
31.4424063369
 11
360.1496602445
 21
31.5069337098
  0
LINE
  8
0
 62
7
  6
CONTINUOUS
 10
363.7340351343
 20
30.6358140973
 11
363.5027853548
 21
30.7003414814
  0
LINE
  8
0
 62
7
  6
CONTINUOUS
 10
362.4621603548
 20
31.4424063369
 11
362.2887228548
 21
31.5069337098
  0
LINE
  8
0
 62
7
  6
CONTINUOUS
 10
364.716847524
 20
31.4424063369
 11
364.543410024
 21
31.5069337098
  0
LINE
  8
0
 62
7
  6
CONTINUOUS
 10
367.3762229651
 20
31.3456152777
 11
367.491847524
 21
31.2810879048
  0
LINE
  8
0
 62
7
  6
CONTINUOUS
 10
367.7230979651
 20
31.3778789641
 11
367.6074727445
 21
31.4424063369
  0
LINE
  8
0
 62
7
  6
CONTINUOUS
 10
359.2246602583
 20
30.5712867188
 11
359.3980977583
 21
30.5390230296
  0
LINE
  8
0
 62
7
  6
CONTINUOUS
 10
359.6871602721
 20
30.6358140973
 11
359.3402852307
 21
30.7003414814
  0
LINE
  8
0
 62
7
  6
CONTINUOUS
 10
362.1152853548
 20
31.3778789641
 11
362.2309102445
 21
31.3456152777
  0
LINE
  8
0
 62
7
  6
CONTINUOUS
 10
364.4277854651
 20
31.3778789641
 11
364.543410024
 21
31.3456152777
  0
LINE
  8
0
 62
7
  6
CONTINUOUS
 10
368.7637229651
 20
30.668077795
 11
368.6480977445
 21
30.7003414814
  0
LINE
  8
0
 62
7
  6
CONTINUOUS
 10
367.2605977445
 20
31.3778789641
 11
367.3762229651
 21
31.3456152777
  0
LINE
  8
0
 62
7
  6
CONTINUOUS
 10
368.4168479651
 20
30.6358140973
 11
368.5902854651
 21
30.5712867188
  0
LINE
  8
0
 62
7
  6
CONTINUOUS
 10
367.6074727445
 20
31.4424063369
 11
367.4340352445
 21
31.5069337098
  0
LINE
  8
0
 62
7
  6
CONTINUOUS
 10
368.8215352445
 20
31.1520331591
 11
368.6480977445
 21
31.216560532
  0
LINE
  8
0
 62
7
  6
CONTINUOUS
 10
369.6309104651
 20
30.8939236226
 11
369.8043479651
 21
30.8293962497
  0
LINE
  8
0
 62
7
  6
CONTINUOUS
 10
370.0355977445
 20
31.4101426505
 11
369.8621602445
 21
31.4746700234
  0
LINE
  8
0
 62
7
  6
CONTINUOUS
 10
368.4168479651
 20
31.1520331591
 11
368.6480977445
 21
31.0552420547
  0
LINE
  8
0
 62
7
  6
CONTINUOUS
 10
370.0355977445
 20
30.8939236226
 11
369.8043479651
 21
30.9907146818
  0
LINE
  8
0
 62
7
  6
CONTINUOUS
 10
368.5902854651
 20
31.2810879048
 11
368.6480977445
 21
31.3456152777
  0
LINE
  8
0
 62
7
  6
CONTINUOUS
 10
359.0512227376
 20
31.4101426505
 11
358.9355977445
 21
31.3456152777
  0
LINE
  8
0
 62
7
  6
CONTINUOUS
 10
359.1668477307
 20
31.2488242184
 11
359.3402852307
 21
31.3456152777
  0
LINE
  8
0
 62
7
  6
CONTINUOUS
 10
361.4793477997
 20
31.4424063369
 11
361.3637227445
 21
31.3778789641
  0
LINE
  8
0
 62
7
  6
CONTINUOUS
 10
361.3637227445
 20
31.2488242184
 11
361.4793477997
 21
31.3133515913
  0
LINE
  8
0
 62
7
  6
CONTINUOUS
 10
360.3809101894
 20
30.6035504109
 11
360.5543476894
 21
30.7003414814
  0
LINE
  8
0
 62
7
  6
CONTINUOUS
 10
359.3980977583
 20
30.5390230296
 11
359.744972717
 21
30.5067593403
  0
LINE
  8
0
 62
7
  6
CONTINUOUS
 10
363.5027853548
 20
30.5390230296
 11
363.7340351343
 21
30.5067593403
  0
LINE
  8
0
 62
7
  6
CONTINUOUS
 10
361.8840352445
 20
31.4101426505
 11
362.1152853548
 21
31.3778789641
  0
LINE
  8
0
 62
7
  6
CONTINUOUS
 10
364.1965353548
 20
31.4101426505
 11
364.4277854651
 21
31.3778789641
  0
LINE
  8
0
 62
7
  6
CONTINUOUS
 10
368.6480977445
 20
31.0552420547
 11
369.6309104651
 21
30.8939236226
  0
LINE
  8
0
 62
7
  6
CONTINUOUS
 10
369.8043479651
 20
30.9907146818
 11
368.8215352445
 21
31.1520331591
  0
LINE
  8
0
 62
7
  6
CONTINUOUS
 10
362.2887228548
 20
31.5069337098
 11
362.1152853548
 21
31.5391973962
  0
LINE
  8
0
 62
7
  6
CONTINUOUS
 10
368.5902854651
 20
30.5712867188
 11
368.7637229651
 21
30.5390230296
  0
LINE
  8
0
 62
7
  6
CONTINUOUS
 10
367.4340352445
 20
31.5069337098
 11
367.2605977445
 21
31.5391973962
  0
LINE
  8
0
 62
7
  6
CONTINUOUS
 10
369.6887227445
 20
31.3778789641
 11
369.8043479651
 21
31.3456152777
  0
LINE
  8
0
 62
7
  6
CONTINUOUS
 10
369.8621602445
 20
30.7648688543
 11
369.8043479651
 21
30.7003414814
  0
LINE
  8
0
 62
7
  6
CONTINUOUS
 10
368.4168479651
 20
31.4424063369
 11
368.3012227445
 21
31.3456152777
  0
LINE
  8
0
 62
7
  6
CONTINUOUS
 10
363.3293478548
 20
31.4746700234
 11
363.2137226343
 21
31.4101426505
  0
LINE
  8
0
 62
7
  6
CONTINUOUS
 10
363.3871601343
 20
31.0875057863
 11
363.2715352445
 21
31.0229783683
  0
LINE
  8
0
 62
7
  6
CONTINUOUS
 10
363.5027853548
 20
30.926187309
 11
363.6184102445
 21
30.9907146818
  0
LINE
  8
0
 62
7
  6
CONTINUOUS
 10
361.0746601894
 20
30.5067593403
 11
361.3637227445
 21
30.5067593403
  0
LINE
  8
0
 62
7
  6
CONTINUOUS
 10
362.4043477445
 20
30.5067593403
 11
362.6934101343
 21
30.5067593403
  0
LINE
  8
0
 62
7
  6
CONTINUOUS
 10
363.7340351343
 20
30.5067593403
 11
364.0809101343
 21
30.5067593403
  0
LINE
  8
0
 62
7
  6
CONTINUOUS
 10
364.716847524
 20
30.5067593403
 11
365.0059102445
 21
30.5067593403
  0
LINE
  8
0
 62
7
  6
CONTINUOUS
 10
365.4684104651
 20
30.5067593403
 11
365.757472524
 21
30.5067593403
  0
LINE
  8
0
 62
7
  6
CONTINUOUS
 10
366.2199727445
 20
30.5067593403
 11
366.5090354651
 21
30.5067593403
  0
LINE
  8
0
 62
7
  6
CONTINUOUS
 10
367.5496604651
 20
30.5067593403
 11
367.838722524
 21
30.5067593403
  0
LINE
  8
0
 62
7
  6
CONTINUOUS
 10
369.1105979651
 20
30.5067593403
 11
369.4574729651
 21
30.5067593403
  0
LINE
  8
0
 62
7
  6
CONTINUOUS
 10
369.4574729651
 20
30.6358140973
 11
369.1105979651
 21
30.6358140973
  0
LINE
  8
0
 62
7
  6
CONTINUOUS
 10
364.0809101343
 20
30.6358140973
 11
363.7340351343
 21
30.6358140973
  0
LINE
  8
0
 62
7
  6
CONTINUOUS
 10
368.5902854651
 20
30.7648688543
 11
368.3012227445
 21
30.7648688543
  0
LINE
  8
0
 62
7
  6
CONTINUOUS
 10
360.6121602997
 20
30.8293962497
 11
360.3230977445
 21
30.8293962497
  0
LINE
  8
0
 62
7
  6
CONTINUOUS
 10
359.6871602721
 20
31.4101426505
 11
360.091847717
 21
31.3778789641
  0
LINE
  8
0
 62
7
  6
CONTINUOUS
 10
360.1496602445
 20
31.5069337098
 11
359.744972717
 21
31.5391973962
  0
LINE
  8
0
 62
7
  6
CONTINUOUS
 10
368.7637229651
 20
30.5390230296
 11
369.1105979651
 21
30.5067593403
  0
LINE
  8
0
 62
7
  6
CONTINUOUS
 10
369.1105979651
 20
30.6358140973
 11
368.7637229651
 21
30.668077795
  0
LINE
  8
0
 62
7
  6
CONTINUOUS
 10
364.543410024
 20
31.5069337098
 11
364.1965353548
 21
31.5391973962
  0
LINE
  8
0
 62
7
  6
CONTINUOUS
 10
369.3418477445
 20
31.4101426505
 11
369.6887227445
 21
31.3778789641
  0
LINE
  8
0
 62
7
  6
CONTINUOUS
 10
369.6887227445
 20
31.5069337098
 11
369.3418477445
 21
31.5391973962
  0
LINE
  8
0
 62
7
  6
CONTINUOUS
 10
367.0293479651
 20
31.4101426505
 11
367.2605977445
 21
31.3778789641
  0
LINE
  8
0
 62
7
  6
CONTINUOUS
 10
369.8621602445
 20
31.4746700234
 11
369.6887227445
 21
31.5069337098
  0
LINE
  8
0
 62
7
  6
CONTINUOUS
 10
370.0355977445
 20
30.6035504109
 11
370.1512223035
 21
30.7003414814
  0
LINE
  8
0
 62
7
  6
CONTINUOUS
 10
364.543410024
 20
30.7971325633
 11
364.369972524
 21
30.7003414814
  0
LINE
  8
0
 62
7
  6
CONTINUOUS
 10
366.624660024
 20
31.4424063369
 11
366.5090354651
 21
31.3778789641
  0
LINE
  8
0
 62
7
  6
CONTINUOUS
 10
366.5090354651
 20
31.2488242184
 11
366.624660024
 21
31.3133515913
  0
LINE
  8
0
 62
7
  6
CONTINUOUS
 10
359.2246602583
 20
31.4746700234
 11
359.0512227376
 21
31.4101426505
  0
LINE
  8
0
 62
7
  6
CONTINUOUS
 10
361.6527851343
 20
31.5069337098
 11
361.4793477997
 21
31.4424063369
  0
LINE
  8
0
 62
7
  6
CONTINUOUS
 10
361.4793477997
 20
31.3133515913
 11
361.6527851343
 21
31.3778789641
  0
LINE
  8
0
 62
7
  6
CONTINUOUS
 10
360.2652852997
 20
30.7326051679
 11
360.091847717
 21
30.668077795
  0
LINE
  8
0
 62
7
  6
CONTINUOUS
 10
369.6887227445
 20
30.668077795
 11
369.4574729651
 21
30.6358140973
  0
LINE
  8
0
 62
7
  6
CONTINUOUS
 10
364.0809101343
 20
30.5067593403
 11
364.369972524
 21
30.5390230296
  0
LINE
  8
0
 62
7
  6
CONTINUOUS
 10
369.4574729651
 20
30.5067593403
 11
369.8043479651
 21
30.5390230296
  0
LINE
  8
0
 62
7
  6
CONTINUOUS
 10
359.744972717
 20
30.5067593403
 11
360.1496602445
 21
30.5390230296
  0
LINE
  8
0
 62
7
  6
CONTINUOUS
 10
360.091847717
 20
30.668077795
 11
359.6871602721
 21
30.6358140973
  0
LINE
  8
0
 62
7
  6
CONTINUOUS
 10
363.9652852445
 20
31.0552420547
 11
364.6012229651
 21
31.0552420547
  0
LINE
  8
0
 62
7
  6
CONTINUOUS
 10
364.6012229651
 20
31.1842968456
 11
363.9652852445
 21
31.1842968456
  0
LINE
  8
0
 62
7
  6
CONTINUOUS
 10
360.3230977445
 20
31.216560532
 11
360.6121602997
 21
31.216560532
  0
LINE
  8
0
 62
7
  6
CONTINUOUS
 10
363.1559103548
 20
31.2810879048
 11
363.4449727445
 21
31.2810879048
  0
LINE
  8
0
 62
7
  6
CONTINUOUS
 10
369.8621602445
 20
31.2810879048
 11
370.1512223035
 21
31.2810879048
  0
LINE
  8
0
 62
7
  6
CONTINUOUS
 10
363.8496603548
 20
31.4101426505
 11
364.1965353548
 21
31.4101426505
  0
LINE
  8
0
 62
7
  6
CONTINUOUS
 10
368.9949727445
 20
31.4101426505
 11
369.3418477445
 21
31.4101426505
  0
LINE
  8
0
 62
7
  6
CONTINUOUS
 10
369.3418477445
 20
31.5391973962
 11
368.9949727445
 21
31.5391973962
  0
LINE
  8
0
 62
7
  6
CONTINUOUS
 10
367.2605977445
 20
31.5391973962
 11
367.0293479651
 21
31.5391973962
  0
LINE
  8
0
 62
7
  6
CONTINUOUS
 10
366.5090354651
 20
31.5391973962
 11
366.2199727445
 21
31.5391973962
  0
LINE
  8
0
 62
7
  6
CONTINUOUS
 10
365.757472524
 20
31.5391973962
 11
365.4684104651
 21
31.5391973962
  0
LINE
  8
0
 62
7
  6
CONTINUOUS
 10
364.1965353548
 20
31.5391973962
 11
363.8496603548
 21
31.5391973962
  0
LINE
  8
0
 62
7
  6
CONTINUOUS
 10
362.1152853548
 20
31.5391973962
 11
361.8840352445
 21
31.5391973962
  0
LINE
  8
0
 62
7
  6
CONTINUOUS
 10
365.4684104651
 20
31.8618343508
 11
365.757472524
 21
31.8618343508
  0
LINE
  8
0
 62
7
  6
CONTINUOUS
 10
365.757472524
 20
32.0231527829
 11
365.4684104651
 21
32.0231527829
  0
LINE
  8
0
 62
7
  6
CONTINUOUS
 10
361.3637227445
 20
32.0231527829
 11
361.0746601894
 21
32.0231527829
  0
LINE
  8
0
 62
7
  6
CONTINUOUS
 10
360.4015045068
 20
32.3100380288
 11
360.8140758554
 21
32.3100380288
  0
LINE
  8
0
 62
7
  6
CONTINUOUS
 10
362.0408487691
 20
32.3100380288
 11
363.4342913921
 21
32.3100380288
  0
LINE
  8
0
 62
7
  6
CONTINUOUS
 10
363.7621602445
 20
32.3100380288
 11
365.1556028675
 21
32.3100380288
  0
LINE
  8
0
 62
7
  6
CONTINUOUS
 10
367.0408487691
 20
32.3100380288
 11
368.4342913921
 21
32.3100380288
  0
LINE
  8
0
 62
7
  6
CONTINUOUS
 10
368.7621602445
 20
32.3100380288
 11
370.1556028675
 21
32.3100380288
  0
LINE
  8
0
 62
7
  6
CONTINUOUS
 10
366.798097524
 20
31.5069337098
 11
366.624660024
 21
31.4424063369
  0
LINE
  8
0
 62
7
  6
CONTINUOUS
 10
364.369972524
 20
30.5390230296
 11
364.543410024
 21
30.6035504109
  0
LINE
  8
0
 62
7
  6
CONTINUOUS
 10
369.8043479651
 20
30.5390230296
 11
370.0355977445
 21
30.6035504109
  0
LINE
  8
0
 62
7
  6
CONTINUOUS
 10
369.8043479651
 20
30.7003414814
 11
369.6887227445
 21
30.668077795
  0
LINE
  8
0
 62
7
  6
CONTINUOUS
 10
368.7637229651
 20
31.3778789641
 11
368.9949727445
 21
31.4101426505
  0
LINE
  8
0
 62
7
  6
CONTINUOUS
 10
366.798097524
 20
31.3778789641
 11
367.0293479651
 21
31.4101426505
  0
LINE
  8
0
 62
7
  6
CONTINUOUS
 10
363.7340351343
 20
31.0229783683
 11
363.9652852445
 21
31.0552420547
  0
LINE
  8
0
 62
7
  6
CONTINUOUS
 10
367.0293479651
 20
31.5391973962
 11
366.798097524
 21
31.5069337098
  0
LINE
  8
0
 62
7
  6
CONTINUOUS
 10
363.6184102445
 20
31.3778789641
 11
363.8496603548
 21
31.4101426505
  0
LINE
  8
0
 62
7
  6
CONTINUOUS
 10
368.9949727445
 20
31.5391973962
 11
368.6480977445
 21
31.5069337098
  0
LINE
  8
0
 62
7
  6
CONTINUOUS
 10
363.9652852445
 20
31.1842968456
 11
363.6184102445
 21
31.1520331591
  0
LINE
  8
0
 62
7
  6
CONTINUOUS
 10
359.744972717
 20
31.5391973962
 11
359.3980977583
 21
31.5069337098
  0
LINE
  8
0
 62
7
  6
CONTINUOUS
 10
363.8496603548
 20
31.5391973962
 11
363.4449727445
 21
31.5069337098
  0
LINE
  8
0
 62
7
  6
CONTINUOUS
 10
361.221176638
 20
33.4575790124
 11
360.565438933
 21
33.4575790124
  0
LINE
  8
0
 62
7
  6
CONTINUOUS
 10
366.624660024
 20
31.3133515913
 11
366.798097524
 21
31.3778789641
  0
LINE
  8
0
 62
7
  6
CONTINUOUS
 10
368.6480977445
 20
31.3456152777
 11
368.7637229651
 21
31.3778789641
  0
LINE
  8
0
 62
7
  6
CONTINUOUS
 10
368.6480977445
 20
31.5069337098
 11
368.4168479651
 21
31.4424063369
  0
LINE
  8
0
 62
7
  6
CONTINUOUS
 10
364.369972524
 20
30.7003414814
 11
364.0809101343
 21
30.6358140973
  0
LINE
  8
0
 62
7
  6
CONTINUOUS
 10
361.6527851343
 20
31.3778789641
 11
361.8840352445
 21
31.4101426505
  0
LINE
  8
0
 62
7
  6
CONTINUOUS
 10
361.8840352445
 20
31.5391973962
 11
361.6527851343
 21
31.5069337098
  0
LINE
  8
0
 62
7
  6
CONTINUOUS
 10
359.4559102445
 20
31.3778789641
 11
359.6871602721
 21
31.4101426505
  0
LINE
  8
0
 62
7
  6
CONTINUOUS
 10
365.9752749986
 20
34.9329888485
 11
366.6310127035
 21
34.9329888485
  0
LINE
  8
0
 62
7
  6
CONTINUOUS
 10
363.6184102445
 20
30.9907146818
 11
363.7340351343
 21
31.0229783683
  0
LINE
  8
0
 62
7
  6
CONTINUOUS
 10
363.6184102445
 20
31.1520331591
 11
363.3871601343
 21
31.0875057863
  0
LINE
  8
0
 62
7
  6
CONTINUOUS
 10
363.5027853548
 20
31.3456152777
 11
363.6184102445
 21
31.3778789641
  0
LINE
  8
0
 62
7
  6
CONTINUOUS
 10
360.1496602445
 20
30.5390230296
 11
360.3809101894
 21
30.6035504109
  0
LINE
  8
0
 62
7
  6
CONTINUOUS
 10
363.4449727445
 20
31.5069337098
 11
363.3293478548
 21
31.4746700234
  0
LINE
  8
0
 62
7
  6
CONTINUOUS
 10
359.3980977583
 20
31.5069337098
 11
359.2246602583
 21
31.4746700234
  0
LINE
  8
0
 62
7
  6
CONTINUOUS
 10
370.1556028675
 20
36.0805298321
 11
368.7621602445
 21
36.0805298321
  0
LINE
  8
0
 62
7
  6
CONTINUOUS
 10
366.7949471298
 20
36.0805298321
 11
366.3823757812
 21
36.0805298321
  0
LINE
  8
0
 62
7
  6
CONTINUOUS
 10
365.1556028675
 20
36.0805298321
 11
363.7621602445
 21
36.0805298321
  0
LINE
  8
0
 62
7
  6
CONTINUOUS
 10
363.4342913921
 20
36.0805298321
 11
362.0408487691
 21
36.0805298321
  0
LINE
  8
0
 62
7
  6
CONTINUOUS
 10
360.1556028675
 20
36.0805298321
 11
358.7621602445
 21
36.0805298321
  0
LINE
  8
0
 62
7
  6
CONTINUOUS
 10
359.3402852307
 20
31.3456152777
 11
359.4559102445
 21
31.3778789641
  0
CIRCLE
  8
0
 62
7
  6
CONTINUOUS
 10
369.458881556
 20
38.4165954059
 40
2.0901639344
  0
ARC
  8
0
 62
7
  6
CONTINUOUS
 10
360.4015045068
 20
33.9493822911
 40
1.6393442623
 50
180.0
 51
270.0
  0
ARC
  8
0
 62
7
  6
CONTINUOUS
 10
366.7949471298
 20
34.4411855698
 40
1.6393442623
 50
0.0
 51
90.0
  0
ARC
  8
0
 62
7
  6
CONTINUOUS
 10
360.8140758554
 20
33.7854478649
 40
1.4754098361
 50
270.0
 51
326.2510114041
  0
ARC
  8
0
 62
7
  6
CONTINUOUS
 10
366.3823757812
 20
34.6051199961
 40
1.4754098361
 50
90.0
 51
146.2510114041
  0
ARC
  8
0
 62
7
  6
CONTINUOUS
 10
361.221176638
 20
34.2772511436
 40
0.8196721311
 50
270.0
 51
360.0
  0
ARC
  8
0
 62
7
  6
CONTINUOUS
 10
365.9752749986
 20
34.1133167174
 40
0.8196721311
 50
90.0
 51
180.0
  0
ARC
  8
0
 62
7
  6
CONTINUOUS
 10
360.565438933
 20
33.867415078
 40
0.4098360656
 50
180.0
 51
270.0
  0
ARC
  8
0
 62
7
  6
CONTINUOUS
 10
366.6310127035
 20
34.5231527829
 40
0.4098360656
 50
0.0
 51
90.0
  0
SOLID
  8
0
 62
7
  6
CONTINUOUS
 10
365.4684104651
 20
31.8618347111
 11
365.4684104651
 21
32.0231531947
 12
365.757472524
 22
31.8618347111
 13
365.757472524
 23
32.0231531947
  0
SOLID
  8
0
 62
7
  6
CONTINUOUS
 10
359.744972717
 20
31.5391977439
 11
360.1496602445
 21
31.5069333244
 12
359.3980977583
 22
31.5069333244
 13
359.3980977583
 23
31.5069333244
  0
SOLID
  8
0
 62
7
  6
CONTINUOUS
 10
359.2246602583
 20
31.4746706537
 11
359.3980977583
 21
31.5069333244
 12
360.1496602445
 22
31.5069333244
 13
360.1496602445
 23
31.5069333244
  0
SOLID
  8
0
 62
7
  6
CONTINUOUS
 10
360.1496602445
 20
31.5069333244
 11
360.3809101894
 21
31.4424063504
 12
359.2246602583
 22
31.4746706537
 13
359.2246602583
 23
31.4746706537
  0
SOLID
  8
0
 62
7
  6
CONTINUOUS
 10
359.0512227376
 20
31.4101419116
 11
359.2246602583
 21
31.4746706537
 12
360.3809101894
 22
31.4424063504
 13
360.3809101894
 23
31.4424063504
  0
SOLID
  8
0
 62
7
  6
CONTINUOUS
 10
359.0512227376
 20
31.4101419116
 11
360.3809101894
 21
31.4424063504
 12
359.6871602721
 22
31.4101419116
 13
359.6871602721
 23
31.4101419116
  0
SOLID
  8
0
 62
7
  6
CONTINUOUS
 10
359.6871602721
 20
31.4101419116
 11
360.3809101894
 21
31.4424063504
 12
360.091847717
 22
31.3778792603
 13
360.091847717
 23
31.3778792603
  0
SOLID
  8
0
 62
7
  6
CONTINUOUS
 10
360.3809101894
 20
31.4424063504
 11
360.5543476894
 21
31.345614957
 12
360.091847717
 22
31.3778792603
 13
360.091847717
 23
31.3778792603
  0
SOLID
  8
0
 62
7
  6
CONTINUOUS
 10
360.2652852997
 20
31.3133521701
 11
360.091847717
 21
31.3778792603
 12
360.5543476894
 22
31.345614957
 13
360.5543476894
 23
31.345614957
  0
SOLID
  8
0
 62
7
  6
CONTINUOUS
 10
360.2652852997
 20
31.3133521701
 11
360.5543476894
 21
31.345614957
 12
360.3230977445
 22
31.2165606992
 13
360.3230977445
 23
31.2165606992
  0
SOLID
  8
0
 62
7
  6
CONTINUOUS
 10
360.5543476894
 20
31.345614957
 11
360.6121602997
 21
31.2165606992
 12
360.3230977445
 22
31.2165606992
 13
360.3230977445
 23
31.2165606992
  0
SOLID
  8
0
 62
7
  6
CONTINUOUS
 10
361.6527851343
 20
31.5069329918
 11
361.8840352445
 21
31.5391972951
 12
362.1152853548
 22
31.5391972951
 13
362.1152853548
 23
31.5391972951
  0
SOLID
  8
0
 62
7
  6
CONTINUOUS
 10
362.1152853548
 20
31.5391972951
 11
362.2887228548
 21
31.5069329918
 12
361.6527851343
 22
31.5069329918
 13
361.6527851343
 23
31.5069329918
  0
SOLID
  8
0
 62
7
  6
CONTINUOUS
 10
361.4793477997
 20
31.4424059016
 11
361.6527851343
 21
31.5069329918
 12
362.2887228548
 22
31.5069329918
 13
362.2887228548
 23
31.5069329918
  0
SOLID
  8
0
 62
7
  6
CONTINUOUS
 10
362.2887228548
 20
31.5069329918
 11
362.4621603548
 21
31.4424059016
 12
361.4793477997
 22
31.4424059016
 13
361.4793477997
 23
31.4424059016
  0
SOLID
  8
0
 62
7
  6
CONTINUOUS
 10
362.4621603548
 20
31.4424059016
 11
361.8840352445
 21
31.4101420472
 12
361.4793477997
 22
31.4424059016
 13
361.4793477997
 23
31.4424059016
  0
SOLID
  8
0
 62
7
  6
CONTINUOUS
 10
361.3637227445
 20
31.3778788115
 11
361.4793477997
 21
31.4424059016
 12
361.8840352445
 22
31.4101420472
 13
361.8840352445
 23
31.4101420472
  0
SOLID
  8
0
 62
7
  6
CONTINUOUS
 10
361.8840352445
 20
31.4101420472
 11
361.6527851343
 21
31.3778788115
 12
361.3637227445
 22
31.3778788115
 13
361.3637227445
 23
31.3778788115
  0
SOLID
  8
0
 62
7
  6
CONTINUOUS
 10
361.8840352445
 20
31.4101420472
 11
362.4621603548
 21
31.4424059016
 12
362.1152853548
 22
31.3778788115
 13
362.1152853548
 23
31.3778788115
  0
SOLID
  8
0
 62
7
  6
CONTINUOUS
 10
362.4621603548
 20
31.4424059016
 11
362.5777852445
 21
31.3778788115
 12
362.1152853548
 22
31.3778788115
 13
362.1152853548
 23
31.3778788115
  0
SOLID
  8
0
 62
7
  6
CONTINUOUS
 10
362.2309102445
 20
31.345614957
 11
362.1152853548
 21
31.3778788115
 12
362.5777852445
 22
31.3778788115
 13
362.5777852445
 23
31.3778788115
  0
SOLID
  8
0
 62
7
  6
CONTINUOUS
 10
362.5777852445
 20
31.3778788115
 11
362.6355978548
 21
31.3133517213
 12
362.2309102445
 22
31.345614957
 13
362.2309102445
 23
31.345614957
  0
SOLID
  8
0
 62
7
  6
CONTINUOUS
 10
362.3465351343
 20
31.2810878668
 11
362.2309102445
 21
31.345614957
 12
362.6355978548
 22
31.3133517213
 13
362.6355978548
 23
31.3133517213
  0
SOLID
  8
0
 62
7
  6
CONTINUOUS
 10
362.3465351343
 20
31.2810878668
 11
362.6355978548
 21
31.3133517213
 12
362.4043477445
 22
31.1520332377
 13
362.4043477445
 23
31.1520332377
  0
SOLID
  8
0
 62
7
  6
CONTINUOUS
 10
362.6355978548
 20
31.3133517213
 11
362.6934101343
 21
31.1520332377
 12
362.4043477445
 22
31.1520332377
 13
362.4043477445
 23
31.1520332377
  0
SOLID
  8
0
 62
7
  6
CONTINUOUS
 10
361.6527851343
 20
31.3778788115
 11
361.4793477997
 21
31.3133517213
 12
361.3637227445
 22
31.3778788115
 13
361.3637227445
 23
31.3778788115
  0
SOLID
  8
0
 62
7
  6
CONTINUOUS
 10
361.4793477997
 20
31.3133517213
 11
361.3637227445
 21
31.2488235635
 12
361.3637227445
 22
31.3778788115
 13
361.3637227445
 23
31.3778788115
  0
SOLID
  8
0
 62
7
  6
CONTINUOUS
 10
361.3637227445
 20
31.2488235635
 11
361.0746601894
 21
30.5067593033
 12
361.3637227445
 22
31.3778788115
 13
361.3637227445
 23
31.3778788115
  0
SOLID
  8
0
 62
7
  6
CONTINUOUS
 10
361.3637227445
 20
31.3778788115
 11
361.0746601894
 21
30.5067593033
 12
361.3637227445
 22
32.0231527459
 13
361.3637227445
 23
32.0231527459
  0
SOLID
  8
0
 62
7
  6
CONTINUOUS
 10
361.0746601894
 20
30.5067593033
 11
361.0746601894
 21
32.0231527459
 12
361.3637227445
 22
32.0231527459
 13
361.3637227445
 23
32.0231527459
  0
SOLID
  8
0
 62
7
  6
CONTINUOUS
 10
361.3637227445
 20
31.2488235635
 11
361.3637227445
 21
30.5067593033
 12
361.0746601894
 22
30.5067593033
 13
361.0746601894
 23
30.5067593033
  0
SOLID
  8
0
 62
7
  6
CONTINUOUS
 10
362.4043477445
 20
30.5067593033
 11
362.4043477445
 21
31.1520332377
 12
362.6934101343
 22
31.1520332377
 13
362.6934101343
 23
31.1520332377
  0
SOLID
  8
0
 62
7
  6
CONTINUOUS
 10
362.6934101343
 20
31.1520332377
 11
362.6934101343
 21
30.5067593033
 12
362.4043477445
 22
30.5067593033
 13
362.4043477445
 23
30.5067593033
  0
SOLID
  8
0
 62
7
  6
CONTINUOUS
 10
363.4449727445
 20
31.506933758
 11
363.8496603548
 21
31.5391977507
 12
364.1965353548
 22
31.5391977507
 13
364.1965353548
 23
31.5391977507
  0
SOLID
  8
0
 62
7
  6
CONTINUOUS
 10
364.1965353548
 20
31.5391977507
 11
364.543410024
 21
31.506933758
 12
363.4449727445
 22
31.506933758
 13
363.4449727445
 23
31.506933758
  0
SOLID
  8
0
 62
7
  6
CONTINUOUS
 10
363.3293478548
 20
31.4746706537
 11
363.4449727445
 21
31.506933758
 12
364.543410024
 22
31.506933758
 13
364.543410024
 23
31.506933758
  0
SOLID
  8
0
 62
7
  6
CONTINUOUS
 10
364.543410024
 20
31.506933758
 11
364.716847524
 21
31.4424063504
 12
363.3293478548
 22
31.4746706537
 13
363.3293478548
 23
31.4746706537
  0
SOLID
  8
0
 62
7
  6
CONTINUOUS
 10
363.2137226343
 20
31.4101417797
 11
363.3293478548
 21
31.4746706537
 12
364.716847524
 22
31.4424063504
 13
364.716847524
 23
31.4424063504
  0
SOLID
  8
0
 62
7
  6
CONTINUOUS
 10
363.2137226343
 20
31.4101417797
 11
364.716847524
 21
31.4424063504
 12
363.8496603548
 22
31.4101417797
 13
363.8496603548
 23
31.4101417797
  0
SOLID
  8
0
 62
7
  6
CONTINUOUS
 10
363.8496603548
 20
31.4101417797
 11
364.716847524
 21
31.4424063504
 12
364.1965353548
 22
31.4101417797
 13
364.1965353548
 23
31.4101417797
  0
SOLID
  8
0
 62
7
  6
CONTINUOUS
 10
364.1965353548
 20
31.4101417797
 11
364.716847524
 21
31.4424063504
 12
364.4277854651
 22
31.3778793357
 13
364.4277854651
 23
31.3778793357
  0
SOLID
  8
0
 62
7
  6
CONTINUOUS
 10
364.716847524
 20
31.4424063504
 11
364.8324727445
 21
31.3778793357
 12
364.4277854651
 22
31.3778793357
 13
364.4277854651
 23
31.3778793357
  0
SOLID
  8
0
 62
7
  6
CONTINUOUS
 10
363.1559103548
 20
31.3456153429
 11
363.2137226343
 21
31.4101417797
 12
363.8496603548
 22
31.4101417797
 13
363.8496603548
 23
31.4101417797
  0
SOLID
  8
0
 62
7
  6
CONTINUOUS
 10
364.543410024
 20
31.3456153429
 11
364.4277854651
 21
31.3778793357
 12
364.8324727445
 22
31.3778793357
 13
364.8324727445
 23
31.3778793357
  0
SOLID
  8
0
 62
7
  6
CONTINUOUS
 10
364.543410024
 20
31.3456153429
 11
364.8324727445
 21
31.3778793357
 12
364.6012229651
 22
31.2810881318
 13
364.6012229651
 23
31.2810881318
  0
SOLID
  8
0
 62
7
  6
CONTINUOUS
 10
364.8324727445
 20
31.3778793357
 11
364.890285024
 21
31.2810881318
 12
364.6012229651
 22
31.2810881318
 13
364.6012229651
 23
31.2810881318
  0
SOLID
  8
0
 62
7
  6
CONTINUOUS
 10
364.6012229651
 20
31.1842964734
 11
364.6012229651
 21
31.2810881318
 12
364.890285024
 22
31.2810881318
 13
364.890285024
 23
31.2810881318
  0
SOLID
  8
0
 62
7
  6
CONTINUOUS
 10
364.6012229651
 20
31.1842964734
 11
364.890285024
 21
31.2810881318
 12
364.6012229651
 22
31.0552422931
 13
364.6012229651
 23
31.0552422931
  0
SOLID
  8
0
 62
7
  6
CONTINUOUS
 10
364.6012229651
 20
31.0552422931
 11
364.890285024
 21
31.2810881318
 12
364.6012229651
 22
30.8616599362
 13
364.6012229651
 23
30.8616599362
  0
SOLID
  8
0
 62
7
  6
CONTINUOUS
 10
364.890285024
 20
31.2810881318
 11
364.890285024
 21
30.7648681127
 12
364.6012229651
 22
30.8616599362
 13
364.6012229651
 23
30.8616599362
  0
SOLID
  8
0
 62
7
  6
CONTINUOUS
 10
366.798097524
 20
31.5069339419
 11
367.0293479651
 21
31.5391976292
 12
367.2605977445
 22
31.5391976292
 13
367.2605977445
 23
31.5391976292
  0
SOLID
  8
0
 62
7
  6
CONTINUOUS
 10
367.2605977445
 20
31.5391976292
 11
367.4340352445
 21
31.5069339419
 12
366.798097524
 22
31.5069339419
 13
366.798097524
 23
31.5069339419
  0
SOLID
  8
0
 62
7
  6
CONTINUOUS
 10
366.624660024
 20
31.4424065674
 11
366.798097524
 21
31.5069339419
 12
367.4340352445
 22
31.5069339419
 13
367.4340352445
 23
31.5069339419
  0
SOLID
  8
0
 62
7
  6
CONTINUOUS
 10
367.4340352445
 20
31.5069339419
 11
367.6074727445
 21
31.4424065674
 12
366.624660024
 22
31.4424065674
 13
366.624660024
 23
31.4424065674
  0
SOLID
  8
0
 62
7
  6
CONTINUOUS
 10
367.6074727445
 20
31.4424065674
 11
367.0293479651
 21
31.4101420472
 12
366.624660024
 22
31.4424065674
 13
366.624660024
 23
31.4424065674
  0
SOLID
  8
0
 62
7
  6
CONTINUOUS
 10
366.5090354651
 20
31.377879193
 11
366.624660024
 21
31.4424065674
 12
367.0293479651
 22
31.4101420472
 13
367.0293479651
 23
31.4101420472
  0
SOLID
  8
0
 62
7
  6
CONTINUOUS
 10
367.0293479651
 20
31.4101420472
 11
366.798097524
 21
31.377879193
 12
366.5090354651
 22
31.377879193
 13
366.5090354651
 23
31.377879193
  0
SOLID
  8
0
 62
7
  6
CONTINUOUS
 10
367.0293479651
 20
31.4101420472
 11
367.6074727445
 21
31.4424065674
 12
367.2605977445
 22
31.377879193
 13
367.2605977445
 23
31.377879193
  0
SOLID
  8
0
 62
7
  6
CONTINUOUS
 10
367.6074727445
 20
31.4424065674
 11
367.7230979651
 21
31.377879193
 12
367.2605977445
 22
31.377879193
 13
367.2605977445
 23
31.377879193
  0
SOLID
  8
0
 62
7
  6
CONTINUOUS
 10
367.3762229651
 20
31.345614957
 11
367.2605977445
 21
31.377879193
 12
367.7230979651
 22
31.377879193
 13
367.7230979651
 23
31.377879193
  0
SOLID
  8
0
 62
7
  6
CONTINUOUS
 10
367.3762229651
 20
31.345614957
 11
367.7230979651
 21
31.377879193
 12
367.491847524
 22
31.2810881312
 13
367.491847524
 23
31.2810881312
  0
SOLID
  8
0
 62
7
  6
CONTINUOUS
 10
367.7230979651
 20
31.377879193
 11
367.7809102445
 21
31.2810881312
 12
367.491847524
 22
31.2810881312
 13
367.491847524
 23
31.2810881312
  0
SOLID
  8
0
 62
7
  6
CONTINUOUS
 10
367.5496604651
 20
31.119769695
 11
367.491847524
 21
31.2810881312
 12
367.7809102445
 22
31.2810881312
 13
367.7809102445
 23
31.2810881312
  0
SOLID
  8
0
 62
7
  6
CONTINUOUS
 10
367.7809102445
 20
31.2810881312
 11
367.838722524
 21
31.119769695
 12
367.5496604651
 22
31.119769695
 13
367.5496604651
 23
31.119769695
  0
SOLID
  8
0
 62
7
  6
CONTINUOUS
 10
366.798097524
 20
31.377879193
 11
366.624660024
 21
31.3133521701
 12
366.5090354651
 22
31.377879193
 13
366.5090354651
 23
31.377879193
  0
SOLID
  8
0
 62
7
  6
CONTINUOUS
 10
366.624660024
 20
31.3133521701
 11
366.5090354651
 21
31.2488235635
 12
366.5090354651
 22
31.377879193
 13
366.5090354651
 23
31.377879193
  0
SOLID
  8
0
 62
7
  6
CONTINUOUS
 10
366.5090354651
 20
31.2488235635
 11
366.2199727445
 21
30.5067596374
 12
366.5090354651
 22
31.377879193
 13
366.5090354651
 23
31.377879193
  0
SOLID
  8
0
 62
7
  6
CONTINUOUS
 10
366.5090354651
 20
31.377879193
 11
366.2199727445
 21
30.5067596374
 12
366.5090354651
 22
31.5391976292
 13
366.5090354651
 23
31.5391976292
  0
SOLID
  8
0
 62
7
  6
CONTINUOUS
 10
366.2199727445
 20
30.5067596374
 11
366.2199727445
 21
31.5391976292
 12
366.5090354651
 22
31.5391976292
 13
366.5090354651
 23
31.5391976292
  0
SOLID
  8
0
 62
7
  6
CONTINUOUS
 10
366.5090354651
 20
31.2488235635
 11
366.5090354651
 21
30.5067596374
 12
366.2199727445
 22
30.5067596374
 13
366.2199727445
 23
30.5067596374
  0
SOLID
  8
0
 62
7
  6
CONTINUOUS
 10
367.5496604651
 20
30.5067596374
 11
367.5496604651
 21
31.119769695
 12
367.838722524
 22
31.119769695
 13
367.838722524
 23
31.119769695
  0
SOLID
  8
0
 62
7
  6
CONTINUOUS
 10
367.838722524
 20
31.119769695
 11
367.838722524
 21
30.5067596374
 12
367.5496604651
 22
30.5067596374
 13
367.5496604651
 23
30.5067596374
  0
SOLID
  8
0
 62
7
  6
CONTINUOUS
 10
368.6480977445
 20
31.5069334157
 11
368.9949727445
 21
31.539197762
 12
369.3418477445
 22
31.539197762
 13
369.3418477445
 23
31.539197762
  0
SOLID
  8
0
 62
7
  6
CONTINUOUS
 10
369.3418477445
 20
31.539197762
 11
369.6887227445
 21
31.5069334157
 12
368.6480977445
 22
31.5069334157
 13
368.6480977445
 23
31.5069334157
  0
SOLID
  8
0
 62
7
  6
CONTINUOUS
 10
368.4168479651
 20
31.4424063504
 11
368.6480977445
 21
31.5069334157
 12
369.6887227445
 22
31.5069334157
 13
369.6887227445
 23
31.5069334157
  0
SOLID
  8
0
 62
7
  6
CONTINUOUS
 10
368.4168479651
 20
31.4424063504
 11
369.6887227445
 21
31.5069334406
 12
369.8621602445
 22
31.4746706537
 13
369.8621602445
 23
31.4746706537
  0
SOLID
  8
0
 62
7
  6
CONTINUOUS
 10
368.4168479651
 20
31.4424063504
 11
369.8621602445
 21
31.4746706537
 12
368.9949727445
 22
31.4101421267
 13
368.9949727445
 23
31.4101421267
  0
SOLID
  8
0
 62
7
  6
CONTINUOUS
 10
368.9949727445
 20
31.4101421267
 11
369.8621602445
 21
31.4746706537
 12
369.3418477445
 22
31.4101421267
 13
369.3418477445
 23
31.4101421267
  0
SOLID
  8
0
 62
7
  6
CONTINUOUS
 10
369.8621602445
 20
31.4746706537
 11
370.0355977445
 21
31.4101421267
 12
369.3418477445
 22
31.4101421267
 13
369.3418477445
 23
31.4101421267
  0
SOLID
  8
0
 62
7
  6
CONTINUOUS
 10
369.6887227445
 20
31.3778792603
 11
369.3418477445
 21
31.4101421267
 12
370.0355977445
 22
31.4101421267
 13
370.0355977445
 23
31.4101421267
  0
SOLID
  8
0
 62
7
  6
CONTINUOUS
 10
368.3012227445
 20
31.3456148845
 11
368.4168479651
 21
31.4424063504
 12
368.9949727445
 22
31.4101421267
 13
368.9949727445
 23
31.4101421267
  0
SOLID
  8
0
 62
7
  6
CONTINUOUS
 10
369.6887227445
 20
31.3778792603
 11
370.0355977445
 21
31.4101421267
 12
369.8043479651
 22
31.3456148845
 13
369.8043479651
 23
31.3456148845
  0
SOLID
  8
0
 62
7
  6
CONTINUOUS
 10
369.8043479651
 20
31.3456148845
 11
370.0355977445
 21
31.4101421267
 12
369.8621602445
 22
31.281087868
 13
369.8621602445
 23
31.281087868
  0
SOLID
  8
0
 62
7
  6
CONTINUOUS
 10
370.0355977445
 20
31.4101421267
 11
370.1512223035
 21
31.281087868
 12
369.8621602445
 22
31.281087868
 13
369.8621602445
 23
31.281087868
  0
SOLID
  8
0
 62
7
  6
CONTINUOUS
 10
359.4559102445
 20
31.3778792603
 11
358.9355977445
 21
31.3456148963
 12
359.6871602721
 22
31.4101421155
 13
359.6871602721
 23
31.4101421155
  0
SOLID
  8
0
 62
7
  6
CONTINUOUS
 10
358.9355977445
 20
31.3456148963
 11
359.0512227376
 21
31.4101421155
 12
359.6871602721
 22
31.4101421155
 13
359.6871602721
 23
31.4101421155
  0
SOLID
  8
0
 62
7
  6
CONTINUOUS
 10
359.4559102445
 20
31.3778792603
 11
359.3402852307
 21
31.3456148963
 12
358.9355977445
 22
31.3456148963
 13
358.9355977445
 23
31.3456148963
  0
SOLID
  8
0
 62
7
  6
CONTINUOUS
 10
358.8199727462
 20
31.2165607767
 11
358.9355977445
 21
31.3456148963
 12
359.3402852307
 22
31.3456148963
 13
359.3402852307
 23
31.3456148963
  0
SOLID
  8
0
 62
7
  6
CONTINUOUS
 10
363.1559103548
 20
31.3456149608
 11
363.8496603548
 21
31.4101420472
 12
363.6184102445
 22
31.3778792603
 13
363.6184102445
 23
31.3778792603
  0
SOLID
  8
0
 62
7
  6
CONTINUOUS
 10
363.6184102445
 20
31.3778792603
 11
363.5027853548
 21
31.3456149608
 12
363.1559103548
 22
31.3456149608
 13
363.1559103548
 23
31.3456149608
  0
SOLID
  8
0
 62
7
  6
CONTINUOUS
 10
363.1559103548
 20
31.2810878707
 11
363.1559103548
 21
31.3456149608
 12
363.5027853548
 22
31.3456149608
 13
363.5027853548
 23
31.3456149608
  0
SOLID
  8
0
 62
7
  6
CONTINUOUS
 10
363.5027853548
 20
31.3456149608
 11
363.4449727445
 21
31.2810878707
 12
363.1559103548
 22
31.2810878707
 13
363.1559103548
 23
31.2810878707
  0
SOLID
  8
0
 62
7
  6
CONTINUOUS
 10
368.3012227445
 20
31.3456149608
 11
368.9949727445
 21
31.4101420472
 12
368.7637229651
 22
31.3778792603
 13
368.7637229651
 23
31.3778792603
  0
SOLID
  8
0
 62
7
  6
CONTINUOUS
 10
368.7637229651
 20
31.3778792603
 11
368.6480977445
 21
31.3456149608
 12
368.3012227445
 22
31.3456149608
 13
368.3012227445
 23
31.3456149608
  0
SOLID
  8
0
 62
7
  6
CONTINUOUS
 10
368.3012227445
 20
31.2810878707
 11
368.3012227445
 21
31.3456149608
 12
368.6480977445
 22
31.3456149608
 13
368.6480977445
 23
31.3456149608
  0
SOLID
  8
0
 62
7
  6
CONTINUOUS
 10
368.6480977445
 20
31.3456149608
 11
368.5902854651
 21
31.2810878707
 12
368.3012227445
 22
31.2810878707
 13
368.3012227445
 23
31.2810878707
  0
SOLID
  8
0
 62
7
  6
CONTINUOUS
 10
368.4168479651
 20
31.1520336865
 11
368.3012227445
 21
31.2810878707
 12
368.5902854651
 22
31.2810878707
 13
368.5902854651
 23
31.2810878707
  0
SOLID
  8
0
 62
7
  6
CONTINUOUS
 10
358.8199727462
 20
31.2165607767
 11
359.3402852307
 21
31.345614957
 12
359.1668477307
 22
31.2488235635
 13
359.1668477307
 23
31.2488235635
  0
SOLID
  8
0
 62
7
  6
CONTINUOUS
 10
359.1668477307
 20
31.2488235635
 11
359.1090352445
 21
31.1842964734
 12
358.8199727462
 22
31.2165607767
 13
358.8199727462
 23
31.2165607767
  0
SOLID
  8
0
 62
7
  6
CONTINUOUS
 10
358.7621602445
 20
31.0229779898
 11
358.8199727462
 21
31.2165607767
 12
359.1090352445
 22
31.1842964734
 13
359.1090352445
 23
31.1842964734
  0
SOLID
  8
0
 62
7
  6
CONTINUOUS
 10
363.6184102445
 20
31.1520336865
 11
363.9652852445
 21
31.1842964611
 12
364.6012229651
 22
31.1842964611
 13
364.6012229651
 23
31.1842964611
  0
SOLID
  8
0
 62
7
  6
CONTINUOUS
 10
363.6184102445
 20
31.1520336865
 11
364.6012229651
 21
31.1842964611
 12
363.3871601343
 22
31.0875057863
 13
363.3871601343
 23
31.0875057863
  0
SOLID
  8
0
 62
7
  6
CONTINUOUS
 10
363.3871601343
 20
31.0875057863
 11
364.6012229651
 21
31.1842964611
 12
363.9652852445
 22
31.0552422808
 13
363.9652852445
 23
31.0552422808
  0
SOLID
  8
0
 62
7
  6
CONTINUOUS
 10
364.6012229651
 20
31.1842964611
 11
364.6012229651
 21
31.0552422808
 12
363.9652852445
 22
31.0552422808
 13
363.9652852445
 23
31.0552422808
  0
SOLID
  8
0
 62
7
  6
CONTINUOUS
 10
368.4168479651
 20
31.1520338754
 11
368.5902854651
 21
31.2810878668
 12
368.6480977445
 22
31.2165607767
 13
368.6480977445
 23
31.2165607767
  0
SOLID
  8
0
 62
7
  6
CONTINUOUS
 10
368.6480977445
 20
31.2165607767
 11
368.8215352445
 21
31.1520338754
 12
368.4168479651
 22
31.1520338754
 13
368.4168479651
 23
31.1520338754
  0
SOLID
  8
0
 62
7
  6
CONTINUOUS
 10
368.6480977445
 20
31.0552422931
 11
368.4168479651
 21
31.1520338754
 12
368.8215352445
 22
31.1520338754
 13
368.8215352445
 23
31.1520338754
  0
SOLID
  8
0
 62
7
  6
CONTINUOUS
 10
368.8215352445
 20
31.1520338754
 11
369.8043479651
 21
30.9907152029
 12
368.6480977445
 22
31.0552422931
 13
368.6480977445
 23
31.0552422931
  0
SOLID
  8
0
 62
7
  6
CONTINUOUS
 10
369.6309104651
 20
30.8939239876
 11
368.6480977445
 21
31.0552422931
 12
369.8043479651
 22
30.9907152029
 13
369.8043479651
 23
30.9907152029
  0
SOLID
  8
0
 62
7
  6
CONTINUOUS
 10
369.8043479651
 20
30.9907152029
 11
370.0355977445
 21
30.8939239876
 12
369.6309104651
 22
30.8939239876
 13
369.6309104651
 23
30.8939239876
  0
SOLID
  8
0
 62
7
  6
CONTINUOUS
 10
369.8043479651
 20
30.8293967193
 11
369.6309104651
 21
30.8939239876
 12
370.0355977445
 22
30.8939239876
 13
370.0355977445
 23
30.8939239876
  0
SOLID
  8
0
 62
7
  6
CONTINUOUS
 10
369.8043479651
 20
30.8293967193
 11
370.0355977445
 21
30.8939239876
 12
369.8621602445
 22
30.7648682694
 13
369.8621602445
 23
30.7648682694
  0
SOLID
  8
0
 62
7
  6
CONTINUOUS
 10
370.0355977445
 20
30.8939239876
 11
370.1512223035
 21
30.7648682694
 12
369.8621602445
 22
30.7648682694
 13
369.8621602445
 23
30.7648682694
  0
SOLID
  8
0
 62
7
  6
CONTINUOUS
 10
369.8043479651
 20
30.7003411846
 11
369.8621602445
 21
30.7648682694
 12
370.1512223035
 22
30.7648682694
 13
370.1512223035
 23
30.7648682694
  0
SOLID
  8
0
 62
7
  6
CONTINUOUS
 10
370.1512223035
 20
30.7648682694
 11
370.1512223035
 21
30.7003411846
 12
369.8043479651
 22
30.7003411846
 13
369.8043479651
 23
30.7003411846
  0
SOLID
  8
0
 62
7
  6
CONTINUOUS
 10
369.6887227445
 20
30.6680782357
 11
369.8043479651
 21
30.7003411846
 12
370.1512223035
 22
30.7003411846
 13
370.1512223035
 23
30.7003411846
  0
SOLID
  8
0
 62
7
  6
CONTINUOUS
 10
369.6887227445
 20
30.6680782357
 11
370.1512223035
 21
30.7003411846
 12
369.4574729651
 22
30.6358140998
 13
369.4574729651
 23
30.6358140998
  0
SOLID
  8
0
 62
7
  6
CONTINUOUS
 10
370.1512223035
 20
30.7003411846
 11
370.0355977445
 21
30.6035511455
 12
369.4574729651
 22
30.6358140998
 13
369.4574729651
 23
30.6358140998
  0
SOLID
  8
0
 62
7
  6
CONTINUOUS
 10
370.0355977445
 20
30.6035511455
 11
368.5902854651
 21
30.5712868422
 12
369.4574729651
 22
30.6358140998
 13
369.4574729651
 23
30.6358140998
  0
SOLID
  8
0
 62
7
  6
CONTINUOUS
 10
369.4574729651
 20
30.6358140998
 11
368.5902854651
 21
30.5712868422
 12
369.1105979651
 22
30.6358140998
 13
369.1105979651
 23
30.6358140998
  0
SOLID
  8
0
 62
7
  6
CONTINUOUS
 10
368.5902854651
 20
30.5712868422
 11
368.4168479651
 21
30.6358140998
 12
369.1105979651
 22
30.6358140998
 13
369.1105979651
 23
30.6358140998
  0
SOLID
  8
0
 62
7
  6
CONTINUOUS
 10
368.5902854651
 20
30.5712868422
 11
370.0355977445
 21
30.6035511455
 12
368.7637229651
 22
30.5390223111
 13
368.7637229651
 23
30.5390223111
  0
SOLID
  8
0
 62
7
  6
CONTINUOUS
 10
370.0355977445
 20
30.6035511455
 11
369.8043479651
 21
30.5390223111
 12
368.7637229651
 22
30.5390223111
 13
368.7637229651
 23
30.5390223111
  0
SOLID
  8
0
 62
7
  6
CONTINUOUS
 10
369.1105979651
 20
30.5067599302
 11
368.7637229651
 21
30.5390223111
 12
369.8043479651
 22
30.5390223111
 13
369.8043479651
 23
30.5390223111
  0
SOLID
  8
0
 62
7
  6
CONTINUOUS
 10
369.8043479651
 20
30.5390223111
 11
369.4574729651
 21
30.5067599302
 12
369.1105979651
 22
30.5067599302
 13
369.1105979651
 23
30.5067599302
  0
SOLID
  8
0
 62
7
  6
CONTINUOUS
 10
358.7621602445
 20
31.0229779898
 11
359.1090352445
 21
31.1842964734
 12
359.0512227376
 22
31.0552422931
 13
359.0512227376
 23
31.0552422931
  0
SOLID
  8
0
 62
7
  6
CONTINUOUS
 10
359.0512227376
 20
31.0552422931
 11
359.0512227376
 21
30.9584509954
 12
358.7621602445
 22
31.0229779898
 13
358.7621602445
 23
31.0229779898
  0
SOLID
  8
0
 62
7
  6
CONTINUOUS
 10
358.8199727462
 20
30.8293967193
 11
358.7621602445
 21
31.0229779898
 12
359.0512227376
 22
30.9584509954
 13
359.0512227376
 23
30.9584509954
  0
SOLID
  8
0
 62
7
  6
CONTINUOUS
 10
359.0512227376
 20
30.9584509954
 11
359.1668477307
 21
30.797132416
 12
358.8199727462
 22
30.8293967193
 13
358.8199727462
 23
30.8293967193
  0
SOLID
  8
0
 62
7
  6
CONTINUOUS
 10
358.9355977445
 20
30.7003413087
 11
358.8199727462
 21
30.8293967193
 12
359.1668477307
 22
30.797132416
 13
359.1668477307
 23
30.797132416
  0
SOLID
  8
0
 62
7
  6
CONTINUOUS
 10
359.1668477307
 20
30.797132416
 11
359.3402852307
 21
30.7003413087
 12
358.9355977445
 22
30.7003413087
 13
358.9355977445
 23
30.7003413087
  0
SOLID
  8
0
 62
7
  6
CONTINUOUS
 10
359.0512227376
 20
30.6358140759
 11
358.9355977445
 21
30.7003413087
 12
359.3402852307
 22
30.7003413087
 13
359.3402852307
 23
30.7003413087
  0
SOLID
  8
0
 62
7
  6
CONTINUOUS
 10
359.3402852307
 20
30.7003413087
 11
359.6871602721
 21
30.6358140759
 12
359.0512227376
 22
30.6358140759
 13
359.0512227376
 23
30.6358140759
  0
SOLID
  8
0
 62
7
  6
CONTINUOUS
 10
359.2246602583
 20
30.5712868422
 11
359.0512227376
 21
30.6358140759
 12
359.6871602721
 22
30.6358140759
 13
359.6871602721
 23
30.6358140759
  0
SOLID
  8
0
 62
7
  6
CONTINUOUS
 10
363.2715352445
 20
31.0229779808
 11
363.3871601343
 21
31.0875057863
 12
363.9652852445
 22
31.0552422931
 13
363.9652852445
 23
31.0552422931
  0
SOLID
  8
0
 62
7
  6
CONTINUOUS
 10
363.9652852445
 20
31.0552422931
 11
363.7340351343
 21
31.0229779808
 12
363.2715352445
 22
31.0229779808
 13
363.2715352445
 23
31.0229779808
  0
SOLID
  8
0
 62
7
  6
CONTINUOUS
 10
363.1559103548
 20
30.8939238094
 11
363.2715352445
 21
31.0229779808
 12
363.7340351343
 22
31.0229779808
 13
363.7340351343
 23
31.0229779808
  0
SOLID
  8
0
 62
7
  6
CONTINUOUS
 10
363.5027853548
 20
30.926187309
 11
363.1559103548
 21
30.8939238094
 12
363.6184102445
 22
30.9907152029
 13
363.6184102445
 23
30.9907152029
  0
SOLID
  8
0
 62
7
  6
CONTINUOUS
 10
363.1559103548
 20
30.8939238094
 11
363.7340351343
 21
31.0229779898
 12
363.6184102445
 22
30.9907152029
 13
363.6184102445
 23
30.9907152029
  0
SOLID
  8
0
 62
7
  6
CONTINUOUS
 10
363.5027853548
 20
30.926187309
 11
363.4449727445
 21
30.8293967193
 12
363.1559103548
 22
30.8939238094
 13
363.1559103548
 23
30.8939238094
  0
SOLID
  8
0
 62
7
  6
CONTINUOUS
 10
363.1559103548
 20
30.797132416
 11
363.1559103548
 21
30.8939238094
 12
363.4449727445
 22
30.8293967193
 13
363.4449727445
 23
30.8293967193
  0
SOLID
  8
0
 62
7
  6
CONTINUOUS
 10
363.4449727445
 20
30.8293967193
 11
363.4449727445
 21
30.7648681127
 12
363.1559103548
 22
30.797132416
 13
363.1559103548
 23
30.797132416
  0
SOLID
  8
0
 62
7
  6
CONTINUOUS
 10
363.2137226343
 20
30.6680782357
 11
363.1559103548
 21
30.797132416
 12
363.4449727445
 22
30.7648681127
 13
363.4449727445
 23
30.7648681127
  0
SOLID
  8
0
 62
7
  6
CONTINUOUS
 10
364.6012229651
 20
30.8616599362
 11
364.890285024
 21
30.7648681127
 12
364.543410024
 22
30.797132416
 13
364.543410024
 23
30.797132416
  0
SOLID
  8
0
 62
7
  6
CONTINUOUS
 10
364.369972524
 20
30.7003410226
 11
364.543410024
 21
30.797132416
 12
364.890285024
 22
30.7648681127
 13
364.890285024
 23
30.7648681127
  0
SOLID
  8
0
 62
7
  6
CONTINUOUS
 10
364.369972524
 20
30.7003410226
 11
364.890285024
 21
30.7648681127
 12
364.6012229651
 22
30.6680782357
 13
364.6012229651
 23
30.6680782357
  0
SOLID
  8
0
 62
7
  6
CONTINUOUS
 10
364.890285024
 20
30.7648681127
 11
364.9480979651
 21
30.6035511455
 12
364.6012229651
 22
30.6680782357
 13
364.6012229651
 23
30.6680782357
  0
SOLID
  8
0
 62
7
  6
CONTINUOUS
 10
364.6590352445
 20
30.5712868422
 11
364.6012229651
 21
30.6680782357
 12
364.9480979651
 22
30.6035511455
 13
364.9480979651
 23
30.6035511455
  0
SOLID
  8
0
 62
7
  6
CONTINUOUS
 10
364.6590352445
 20
30.5712868422
 11
364.9480979651
 21
30.6035511455
 12
364.716847524
 22
30.5067598731
 13
364.716847524
 23
30.5067598731
  0
SOLID
  8
0
 62
7
  6
CONTINUOUS
 10
364.9480979651
 20
30.6035511455
 11
365.0059102445
 21
30.5067598731
 12
364.716847524
 22
30.5067598731
 13
364.716847524
 23
30.5067598731
  0
SOLID
  8
0
 62
7
  6
CONTINUOUS
 10
360.2652852997
 20
30.7326051679
 11
360.3230977445
 21
30.8293966612
 12
360.6121602997
 22
30.8293966612
 13
360.6121602997
 23
30.8293966612
  0
SOLID
  8
0
 62
7
  6
CONTINUOUS
 10
360.6121602997
 20
30.8293966612
 11
360.5543476894
 21
30.7003410226
 12
360.2652852997
 22
30.7326051679
 13
360.2652852997
 23
30.7326051679
  0
SOLID
  8
0
 62
7
  6
CONTINUOUS
 10
360.091847717
 20
30.6680782357
 11
360.2652852997
 21
30.7326051679
 12
360.5543476894
 22
30.7003410226
 13
360.5543476894
 23
30.7003410226
  0
SOLID
  8
0
 62
7
  6
CONTINUOUS
 10
360.091847717
 20
30.6680782357
 11
360.5543476894
 21
30.7003410226
 12
359.6871602721
 22
30.6358139324
 13
359.6871602721
 23
30.6358139324
  0
SOLID
  8
0
 62
7
  6
CONTINUOUS
 10
360.5543476894
 20
30.7003410226
 11
360.3809101894
 21
30.6035511455
 12
359.6871602721
 22
30.6358139324
 13
359.6871602721
 23
30.6358139324
  0
SOLID
  8
0
 62
7
  6
CONTINUOUS
 10
359.2246602583
 20
30.5712868422
 11
359.6871602721
 21
30.6358139324
 12
360.3809101894
 22
30.6035511455
 13
360.3809101894
 23
30.6035511455
  0
SOLID
  8
0
 62
7
  6
CONTINUOUS
 10
359.2246602583
 20
30.5712868422
 11
360.3809101894
 21
30.6035511455
 12
359.3980977583
 22
30.5390224228
 13
359.3980977583
 23
30.5390224228
  0
SOLID
  8
0
 62
7
  6
CONTINUOUS
 10
360.3809101894
 20
30.6035511455
 11
360.1496602445
 21
30.5390224228
 12
359.3980977583
 22
30.5390224228
 13
359.3980977583
 23
30.5390224228
  0
SOLID
  8
0
 62
7
  6
CONTINUOUS
 10
359.744972717
 20
30.5067597521
 11
359.3980977583
 21
30.5390224228
 12
360.1496602445
 22
30.5390224228
 13
360.1496602445
 23
30.5390224228
  0
SOLID
  8
0
 62
7
  6
CONTINUOUS
 10
363.2137226343
 20
30.6680782357
 11
363.4449727445
 21
30.7648681127
 12
363.5027853548
 22
30.7003410226
 13
363.5027853548
 23
30.7003410226
  0
SOLID
  8
0
 62
7
  6
CONTINUOUS
 10
363.5027853548
 20
30.7003410226
 11
363.7340351343
 21
30.6358139324
 12
363.2137226343
 22
30.6680782357
 13
363.2137226343
 23
30.6680782357
  0
SOLID
  8
0
 62
7
  6
CONTINUOUS
 10
363.3871601343
 20
30.5712868422
 11
363.2137226343
 21
30.6680782357
 12
363.7340351343
 22
30.6358139324
 13
363.7340351343
 23
30.6358139324
  0
SOLID
  8
0
 62
7
  6
CONTINUOUS
 10
364.0809101343
 20
30.6358139363
 11
364.369972524
 21
30.7003410226
 12
364.6012229651
 22
30.6680782357
 13
364.6012229651
 23
30.6680782357
  0
SOLID
  8
0
 62
7
  6
CONTINUOUS
 10
364.6012229651
 20
30.6680782357
 11
364.543410024
 21
30.6035511455
 12
364.0809101343
 22
30.6358139363
 13
364.0809101343
 23
30.6358139363
  0
SOLID
  8
0
 62
7
  6
CONTINUOUS
 10
364.543410024
 20
30.6035511455
 11
363.3871601343
 21
30.5712868422
 12
364.0809101343
 22
30.6358139363
 13
364.0809101343
 23
30.6358139363
  0
SOLID
  8
0
 62
7
  6
CONTINUOUS
 10
363.3871601343
 20
30.5712868422
 11
363.7340351343
 21
30.6358139363
 12
364.0809101343
 22
30.6358139363
 13
364.0809101343
 23
30.6358139363
  0
SOLID
  8
0
 62
7
  6
CONTINUOUS
 10
363.3871601343
 20
30.5712868422
 11
364.543410024
 21
30.6035511455
 12
363.5027853548
 22
30.5390225267
 13
363.5027853548
 23
30.5390225267
  0
SOLID
  8
0
 62
7
  6
CONTINUOUS
 10
364.543410024
 20
30.6035511455
 11
364.369972524
 21
30.5390225267
 12
363.5027853548
 22
30.5390225267
 13
363.5027853548
 23
30.5390225267
  0
SOLID
  8
0
 62
7
  6
CONTINUOUS
 10
363.7340351343
 20
30.5067596914
 11
363.5027853548
 21
30.5390225267
 12
364.369972524
 22
30.5390225267
 13
364.369972524
 23
30.5390225267
  0
SOLID
  8
0
 62
7
  6
CONTINUOUS
 10
364.369972524
 20
30.5390225267
 11
364.0809101343
 21
30.5067596914
 12
363.7340351343
 22
30.5067596914
 13
363.7340351343
 23
30.5067596914
  0
SOLID
  8
0
 62
7
  6
CONTINUOUS
 10
368.7637229651
 20
30.6680782357
 11
368.4168479651
 21
30.6358138717
 12
368.6480977445
 22
30.7003410226
 13
368.6480977445
 23
30.7003410226
  0
SOLID
  8
0
 62
7
  6
CONTINUOUS
 10
368.6480977445
 20
30.7003410226
 11
368.4168479651
 21
30.6358138717
 12
368.5902854651
 22
30.7648680521
 13
368.5902854651
 23
30.7648680521
  0
SOLID
  8
0
 62
7
  6
CONTINUOUS
 10
368.4168479651
 20
30.6358138717
 11
368.3012227445
 21
30.7648680521
 12
368.5902854651
 22
30.7648680521
 13
368.5902854651
 23
30.7648680521
  0
SOLID
  8
0
 62
7
  6
CONTINUOUS
 10
368.7637229651
 20
30.6680782357
 11
369.1105979651
 21
30.6358138717
 12
368.4168479651
 22
30.6358138717
 13
368.4168479651
 23
30.6358138717
  0
SOLID
  8
0
 62
7
  6
CONTINUOUS
 10
365.4684104651
 20
30.5067597521
 11
365.4684104651
 21
31.5391977439
 12
365.757472524
 22
30.5067597521
 13
365.757472524
 23
31.5391977439
  0
ENDBLK
  8
0
  6
BYBLOCK
 62
0
  0
BLOCK
  8
0
 62
2
  6
CONTINUOUS
  2
SYMBOL_0_BL0
 70
64
 10
240.8592468615
 20
19.762288695
  0
TEXT
  8
0
 62
7
  6
CONTINUOUS
 10
227.1239507038
 20
19.1357028027
  7
TEXTSTYLE_3
 40
2.7338706658
  1
Ammeraal Beltech
 41
1.0
 51
15.0
 72
0
  0
TEXT
  8
0
 62
7
  6
CONTINUOUS
 10
237.9247515296
 20
16.8621661299
  7
TEXTSTYLE_4
 40
1.0935482663
  1
Innovation & Service in Belting
 41
1.0
 72
0
  0
LINE
  8
0
 62
7
  6
CONTINUOUS
 10
221.0994100525
 20
19.9022961113
 11
221.8775620458
 21
23.5632134089
  0
LINE
  8
0
 62
7
  6
CONTINUOUS
 10
231.9727303357
 20
27.2266073205
 11
222.3653797889
 21
24.1049898993
  0
LINE
  8
0
 62
7
  6
CONTINUOUS
 10
221.3246933848
 20
19.2089453082
 11
228.8317686459
 21
12.4495443822
  0
LINE
  8
0
 62
7
  6
CONTINUOUS
 10
221.5872277955
 20
20.4440726016
 11
232.3954971607
 21
23.9558922005
  0
LINE
  8
0
 62
7
  6
CONTINUOUS
 10
232.3912920235
 20
13.6061036368
 11
223.9458323548
 21
21.2104296785
  0
LINE
  8
0
 62
7
  6
CONTINUOUS
 10
232.9111147433
 20
26.3816822048
 11
231.9345552061
 21
21.7873308023
  0
LINE
  8
0
 62
7
  6
CONTINUOUS
 10
231.2347532584
 20
18.4950214885
 11
230.5483050469
 21
15.2655365641
  0
LINE
  8
0
 62
7
  6
CONTINUOUS
 10
233.5922108419
 20
13.9963058145
 11
234.5484423775
 21
18.4950214885
  0
LINE
  8
0
 62
7
  6
CONTINUOUS
 10
235.2482443252
 20
21.7873308023
 11
235.6924861276
 21
23.8773241617
  0
LINE
  8
0
 62
7
  6
CONTINUOUS
 10
229.5448697213
 20
12.2979700695
 11
233.1043930989
 21
13.4545293241
  0
LINE
  8
0
 62
7
  6
CONTINUOUS
 10
232.685831411
 20
27.0750330078
 11
235.4672027953
 21
24.5706749648
  0
ARC
  8
0
 62
7
  6
CONTINUOUS
 10
222.5906631212
 20
23.4116390962
 40
0.7290321776
 50
108.0
 51
168.0
  0
ARC
  8
0
 62
7
  6
CONTINUOUS
 10
232.198013668
 20
26.5332565175
 40
0.7290321776
 50
348.0
 51
108.0
  0
ARC
  8
0
 62
7
  6
CONTINUOUS
 10
234.9793850522
 20
24.0288984744
 40
0.7290321776
 50
348.0
 51
48.0
  0
ARC
  8
0
 62
7
  6
CONTINUOUS
 10
229.319586389
 20
12.9913208726
 40
0.7290321776
 50
228.0
 51
288.0
  0
ARC
  8
0
 62
7
  6
CONTINUOUS
 10
221.8125111278
 20
19.7507217986
 40
0.7290321776
 50
108.0
 51
228.0
  0
ARC
  8
0
 62
7
  6
CONTINUOUS
 10
232.8791097665
 20
14.1478801272
 40
0.7290321776
 50
228.0
 51
348.0
  0
ENDBLK
  8
0
  6
BYBLOCK
 62
0
  0
ENDSEC
  0
SECTION
  2
ENTITIES
  0
TEXT
  8
0
 62
5
  6
CONTINUOUS
 10
304.937007874
 20
25.636
  7
TEXTSTYLE_2
 40
2.8
  1
Scale :
 41
0.6
 51
0.000019
 72
0
  0
TEXT
  8
0
 62
5
  6
CONTINUOUS
 10
324.937007874
 20
25.636
  7
TEXTSTYLE_2
 40
2.8
  1
Belt type:
 41
0.6
 51
0.000019
 72
0
  0
INSERT
  8
0
 62
2
  6
CONTINUOUS
  2
SYMBOL_0_BL0
 10
240.8592468615
 20
19.762288695
  0
INSERT
  8
0
 62
2
  6
CONTINUOUS
  2
SYMBOL_5_BL1
 10
382.7840918555
 20
35.5067593403
  0
LINE
  8
0
 62
2
  6
CONTINUOUS
 10
218.937007874
 20
30.0
 11
408.937007874
 21
30.0
  0
LINE
  8
0
 62
2
  6
CONTINUOUS
 10
218.937007874
 20
30.0
 11
218.937007874
 21
10.0
  0
LINE
  8
0
 62
2
  6
CONTINUOUS
 10
218.937007874
 20
10.0
 11
408.937007874
 21
10.0
  0
LINE
  8
0
 62
2
  6
CONTINUOUS
 10
303.937007874
 20
30.0
 11
303.937007874
 21
10.0
  0
LINE
  8
0
 62
2
  6
CONTINUOUS
 10
323.937007874
 20
30.0
 11
323.937007874
 21
10.0
  0
LINE
  8
0
 62
2
  6
CONTINUOUS
 10
408.937007874
 20
30.0
 11
408.937007874
 21
10.0
  0
TEXT
  8
0
 62
5
  6
CONTINUOUS
 10
221.937007874
 20
23.303
  7
TEXTSTYLE_5
 40
1.52
  1
                                                                     Ammeraal Beltech Modular A/S
 41
1.0
 72
0
  0
TEXT
  8
0
 62
5
  6
CONTINUOUS
 10
221.937007874
 20
20.595
  7
TEXTSTYLE_5
 40
1.5
  1
                                                                      Hjulmagervej 21, 7100 Vejle,  DK
 41
1.0
 72
0
  0
TEXT
  8
0
 62
5
  6
CONTINUOUS
 10
221.937007874
 20
17.881
  7
TEXTSTYLE_5
 40
1.495
  1
                                                                      tel: 
 41
1.0
 72
0
  0
TEXT
  8
0
 62
5
  6
CONTINUOUS
 10
266.9239544389
 20
17.881
  7
TEXTSTYLE_5
 40
1.51
  1
+45 75723100     fax: +45 75723348
 41
1.0
 72
0
  0
TEXT
  8
0
 62
5
  6
CONTINUOUS
 10
221.937007874
 20
15.177
  7
TEXTSTYLE_5
 40
1.5
  1
                                                                      admin@unichains.dk  www.unichains.com
 41
1.0
 72
0
  0
TEXT
  8
0
 62
5
  6
CONTINUOUS
 10
308.687007874
 20
13.75
  7
TEXTSTYLE_6
 40
5.0
  1
1:1
 41
0.7
 72
1
 11
313.937007874
 21
13.75
  0
TEXT
  8
0
 62
5
  6
CONTINUOUS
 10
326.937007874
 20
13.75
  7
TEXTSTYLE_7
 40
7.5
  1
uni XLB M2-00-ROUGH-K400
 41
0.4292534722
 72
0
  0
LINE
  8
0
 62
7
  6
CONTINUOUS
 10
0.0
 20
0.0
 11
0.0
 21
297.0
  0
LINE
  8
0
 62
7
  6
CONTINUOUS
 10
8.937007874
 20
10.0
 11
8.937007874
 21
287.0
  0
LINE
  8
0
 62
7
  6
CONTINUOUS
 10
0.0
 20
0.0
 11
420.0
 21
0.0
  0
LINE
  8
0
 62
7
  6
CONTINUOUS
 10
408.937007874
 20
10.0
 11
8.937007874
 21
10.0
  0
LINE
  8
0
 62
7
  6
CONTINUOUS
 10
218.937007874
 20
30.0
 11
408.937007874
 21
30.0
  0
LINE
  8
0
 62
7
  6
CONTINUOUS
 10
210.0
 20
297.0
 11
210.0
 21
292.0
  0
LINE
  8
0
 62
7
  6
CONTINUOUS
 10
210.0
 20
0.0
 11
210.0
 21
5.0
  0
LINE
  8
0
 62
7
  6
CONTINUOUS
 10
8.937007874
 20
287.0
 11
408.937007874
 21
287.0
  0
LINE
  8
0
 62
7
  6
CONTINUOUS
 10
0.0
 20
297.0
 11
420.0
 21
297.0
  0
LINE
  8
0
 62
7
  6
CONTINUOUS
 10
408.937007874
 20
287.0
 11
408.937007874
 21
10.0
  0
LINE
  8
0
 62
7
  6
CONTINUOUS
 10
420.0
 20
0.0
 11
420.0
 21
297.0
  0
LINE
  8
0
 62
7
  6
CONTINUOUS
 10
58.2514057592
 20
76.20326855
 11
58.2514057592
 21
140.3877917901
  0
POLYLINE
  8
0
 62
7
  6
CONTINUOUS
 66
1
 70
0
  0
VERTEX
  8
0
 62
7
  6
CONTINUOUS
 10
58.2514057592
 20
140.387790014
  0
VERTEX
  8
0
 62
7
  6
CONTINUOUS
 10
58.2560345813
 20
140.5167951839
  0
VERTEX
  8
0
 62
7
  6
CONTINUOUS
 10
58.2693172447
 20
140.6410892969
  0
VERTEX
  8
0
 62
7
  6
CONTINUOUS
 10
58.2915098331
 20
140.7656343332
  0
VERTEX
  8
0
 62
7
  6
CONTINUOUS
 10
58.3213834988
 20
140.8848040768
  0
VERTEX
  8
0
 62
7
  6
CONTINUOUS
 10
58.3604396768
 20
141.0047452055
  0
VERTEX
  8
0
 62
7
  6
CONTINUOUS
 10
58.4072112589
 20
141.1203365622
  0
VERTEX
  8
0
 62
7
  6
CONTINUOUS
 10
58.4628790901
 20
141.234302283
  0
VERTEX
  8
0
 62
7
  6
CONTINUOUS
 10
58.5256824252
 20
141.3428650416
  0
VERTEX
  8
0
 62
7
  6
CONTINUOUS
 10
58.5982315616
 20
141.4499975038
  0
VERTEX
  8
0
 62
7
  6
CONTINUOUS
 10
58.6763319175
 20
141.5493286186
  0
VERTEX
  8
0
 62
7
  6
CONTINUOUS
 10
58.7643274857
 20
141.6461339726
  0
VERTEX
  8
0
 62
7
  6
CONTINUOUS
 10
58.8581408494
 20
141.7354245547
  0
VERTEX
  8
0
 62
7
  6
CONTINUOUS
 10
58.9596548564
 20
141.8189014584
  0
VERTEX
  8
0
 62
7
  6
CONTINUOUS
 10
59.0684945192
 20
141.8957308266
  0
VERTEX
  8
0
 62
7
  6
CONTINUOUS
 10
59.1833966382
 20
141.964673068
  0
VERTEX
  8
0
 62
7
  6
CONTINUOUS
 10
59.3033372789
 20
142.0249807631
  0
VERTEX
  8
0
 62
7
  6
CONTINUOUS
 10
59.4311615907
 20
142.0775524741
  0
VERTEX
  8
0
 62
7
  6
CONTINUOUS
 10
59.5599823855
 20
142.1194086406
  0
VERTEX
  8
0
 62
7
  6
CONTINUOUS
 10
59.6974275577
 20
142.1526411219
  0
VERTEX
  8
0
 62
7
  6
CONTINUOUS
 10
59.8327692112
 20
142.1744623566
  0
VERTEX
  8
0
 62
7
  6
CONTINUOUS
 10
59.9759480427
 20
142.1862076888
  0
VERTEX
  8
0
 62
7
  6
CONTINUOUS
 10
60.0514057592
 20
142.1877900133
  0
SEQEND
  0
LINE
  8
0
 62
7
  6
CONTINUOUS
 10
62.5514057592
 20
91.903268384
 11
62.5514057592
 21
137.8877900221
  0
LINE
  8
0
 62
7
  6
CONTINUOUS
 10
62.9965717632
 20
91.9032685659
 11
62.9965717632
 21
137.8877900235
  0
LINE
  8
0
 62
7
  6
CONTINUOUS
 10
64.4107853256
 20
91.9032691437
 11
64.4107853256
 21
137.8877900281
  0
LINE
  8
0
 62
7
  6
CONTINUOUS
 10
65.824998888
 20
91.9032697215
 11
65.824998888
 21
137.8877900326
  0
LINE
  8
0
 62
7
  6
CONTINUOUS
 10
67.2392124503
 20
91.9032702994
 11
67.2392124503
 21
137.8877900372
  0
LINE
  8
0
 62
7
  6
CONTINUOUS
 10
68.6534260127
 20
91.9032708772
 11
68.6534260127
 21
137.8877900418
  0
LINE
  8
0
 62
7
  6
CONTINUOUS
 10
70.0676395751
 20
91.903271455
 11
70.0676395751
 21
137.8877900463
  0
LINE
  8
0
 62
7
  6
CONTINUOUS
 10
71.4818531375
 20
101.5455699943
 11
71.4818531375
 21
137.8877900509
  0
LINE
  8
0
 62
7
  6
CONTINUOUS
 10
72.8960666998
 20
103.3015351753
 11
72.8960666998
 21
137.8877900555
  0
LINE
  8
0
 62
7
  6
CONTINUOUS
 10
74.3102802622
 20
104.10950465
 11
74.3102802622
 21
137.9935030134
  0
LINE
  8
0
 62
7
  6
CONTINUOUS
 10
75.7244938246
 20
104.408152697
 11
75.7244938246
 21
138.5194700332
  0
LINE
  8
0
 62
7
  6
CONTINUOUS
 10
70.2856171206
 20
95.9154007854
 11
70.285616179
 21
91.9032715441
  0
LINE
  8
0
 62
7
  6
CONTINUOUS
 10
74.5852637349
 20
88.3712873331
 11
74.585616179
 21
95.9093026892
  0
LINE
  8
0
 62
7
  6
CONTINUOUS
 10
74.9975343192
 20
153.9345072726
 11
74.9971826623
 21
146.3972799386
  0
LINE
  8
0
 62
7
  6
CONTINUOUS
 10
74.583574103
 20
86.928317735
 11
74.5852637349
 21
88.3712873331
  0
LINE
  8
0
 62
7
  6
CONTINUOUS
 10
74.999222961
 20
155.3781287049
 11
74.9975343192
 21
153.9345072726
  0
LINE
  8
0
 62
7
  6
CONTINUOUS
 10
74.5808460506
 20
85.6432122196
 11
74.583574103
 21
86.928317735
  0
LINE
  8
0
 62
7
  6
CONTINUOUS
 10
75.0019500404
 20
156.6637310435
 11
74.999222961
 21
155.3781287049
  0
LINE
  8
0
 62
7
  6
CONTINUOUS
 10
74.5761791331
 20
84.1693834668
 11
74.5808460506
 21
85.6432122196
  0
LINE
  8
0
 62
7
  6
CONTINUOUS
 10
75.0066151415
 20
158.1379395687
 11
75.0019500404
 21
156.6637310435
  0
LINE
  8
0
 62
7
  6
CONTINUOUS
 10
74.570700117
 20
82.9049557956
 11
74.5761791331
 21
84.1693834668
  0
LINE
  8
0
 62
7
  6
CONTINUOUS
 10
75.012092074
 20
159.4026456387
 11
75.0066151415
 21
158.1379395687
  0
LINE
  8
0
 62
7
  6
CONTINUOUS
 10
75.0196606845
 20
160.7426241294
 11
75.012092074
 21
159.4026456387
  0
LINE
  8
0
 62
7
  6
CONTINUOUS
 10
74.5631284296
 20
81.5651896529
 11
74.570700117
 21
82.9049557956
  0
LINE
  8
0
 62
7
  6
CONTINUOUS
 10
75.0290420299
 20
162.0240047704
 11
75.0196606845
 21
160.7426241294
  0
LINE
  8
0
 62
7
  6
CONTINUOUS
 10
74.5537430763
 20
80.2839365336
 11
74.5631284296
 21
81.5651896529
  0
LINE
  8
0
 62
7
  6
CONTINUOUS
 10
75.0398923761
 20
163.1721559398
 11
75.0290420299
 21
162.0240047704
  0
LINE
  8
0
 62
7
  6
CONTINUOUS
 10
74.5428881017
 20
79.1358399775
 11
74.5537430763
 21
80.2839365336
  0
POLYLINE
  8
0
 62
7
  6
CONTINUOUS
 66
1
 70
0
  0
VERTEX
  8
0
 62
7
  6
CONTINUOUS
 10
74.9971827722
 20
146.3972799386
  0
VERTEX
  8
0
 62
7
  6
CONTINUOUS
 10
74.9932200776
 20
146.0612175341
  0
VERTEX
  8
0
 62
7
  6
CONTINUOUS
 10
74.9806323798
 20
145.7271694335
  0
VERTEX
  8
0
 62
7
  6
CONTINUOUS
 10
74.9594370697
 20
145.4090145789
  0
VERTEX
  8
0
 62
7
  6
CONTINUOUS
 10
74.9297195753
 20
145.1061483272
  0
VERTEX
  8
0
 62
7
  6
CONTINUOUS
 10
74.8915714504
 20
144.8178423107
  0
VERTEX
  8
0
 62
7
  6
CONTINUOUS
 10
74.8450907685
 20
144.5435126789
  0
VERTEX
  8
0
 62
7
  6
CONTINUOUS
 10
74.7903850949
 20
144.2827588014
  0
VERTEX
  8
0
 62
7
  6
CONTINUOUS
 10
74.7275256689
 20
144.0351728094
  0
VERTEX
  8
0
 62
7
  6
CONTINUOUS
 10
74.656582953
 20
143.8005527196
  0
VERTEX
  8
0
 62
7
  6
CONTINUOUS
 10
74.5776947366
 20
143.5790408656
  0
VERTEX
  8
0
 62
7
  6
CONTINUOUS
 10
74.4908450081
 20
143.3704891757
  0
VERTEX
  8
0
 62
7
  6
CONTINUOUS
 10
74.3958217
 20
143.1746564097
  0
VERTEX
  8
0
 62
7
  6
CONTINUOUS
 10
74.2986762421
 20
143.0020626704
  0
SEQEND
  0
LINE
  8
0
 62
7
  6
CONTINUOUS
 10
75.0521769719
 20
164.1701100848
 11
75.0398923761
 21
163.1721559398
  0
LINE
  8
0
 62
7
  6
CONTINUOUS
 10
74.5305977567
 20
78.1378160998
 11
74.5428881017
 21
79.1358399775
  0
POLYLINE
  8
0
 62
7
  6
CONTINUOUS
 66
1
 70
0
  0
VERTEX
  8
0
 62
7
  6
CONTINUOUS
 10
74.5856160956
 20
95.9093026892
  0
VERTEX
  8
0
 62
7
  6
CONTINUOUS
 10
74.5916545901
 20
96.3218075867
  0
VERTEX
  8
0
 62
7
  6
CONTINUOUS
 10
74.6111078451
 20
96.7316036645
  0
VERTEX
  8
0
 62
7
  6
CONTINUOUS
 10
74.6444820653
 20
97.1225820029
  0
VERTEX
  8
0
 62
7
  6
CONTINUOUS
 10
74.692008097
 20
97.4939022431
  0
VERTEX
  8
0
 62
7
  6
CONTINUOUS
 10
74.7537483634
 20
97.8451090741
  0
VERTEX
  8
0
 62
7
  6
CONTINUOUS
 10
74.8263697301
 20
98.1631047095
  0
SEQEND
  0
LINE
  8
0
 62
7
  6
CONTINUOUS
 10
75.0640567745
 20
164.9027572941
 11
75.0521769719
 21
164.1701100848
  0
LINE
  8
0
 62
7
  6
CONTINUOUS
 10
74.5187113675
 20
77.4049803288
 11
74.5305977567
 21
78.1378160998
  0
LINE
  8
0
 62
7
  6
CONTINUOUS
 10
75.0725697994
 20
165.3112426456
 11
75.0640567745
 21
164.9027572941
  0
LINE
  8
0
 62
7
  6
CONTINUOUS
 10
74.5101927664
 20
76.9963033576
 11
74.5187113675
 21
77.4049803288
  0
LINE
  8
0
 62
7
  6
CONTINUOUS
 10
75.0791874043
 20
165.569299946
 11
75.0725697994
 21
165.3112426456
  0
LINE
  8
0
 62
7
  6
CONTINUOUS
 10
74.5035692017
 20
76.7380390184
 11
74.5101927664
 21
76.9963033576
  0
LINE
  8
0
 62
7
  6
CONTINUOUS
 10
75.0840714534
 20
165.7289572487
 11
75.0791874043
 21
165.569299946
  0
LINE
  8
0
 62
7
  6
CONTINUOUS
 10
74.4986807937
 20
76.5782439978
 11
74.5035692017
 21
76.7380390184
  0
LINE
  8
0
 62
7
  6
CONTINUOUS
 10
75.0875709709
 20
165.8282253502
 11
75.0840714534
 21
165.7289572487
  0
LINE
  8
0
 62
7
  6
CONTINUOUS
 10
74.4951784546
 20
76.4788918989
 11
74.4986807937
 21
76.5782439978
  0
LINE
  8
0
 62
7
  6
CONTINUOUS
 10
75.0910104679
 20
165.9141432231
 11
75.0875709709
 21
165.8282253502
  0
POLYLINE
  8
0
 62
7
  6
CONTINUOUS
 66
1
 70
0
  0
VERTEX
  8
0
 62
7
  6
CONTINUOUS
 10
74.4905866152
 20
76.3666360781
  0
VERTEX
  8
0
 62
7
  6
CONTINUOUS
 10
74.4917366529
 20
76.3929060008
  0
VERTEX
  8
0
 62
7
  6
CONTINUOUS
 10
74.4951784546
 20
76.4788918989
  0
SEQEND
  0
LINE
  8
0
 62
7
  6
CONTINUOUS
 10
75.0944888832
 20
165.9899743506
 11
75.0910104679
 21
165.9141432231
  0
LINE
  8
0
 62
7
  6
CONTINUOUS
 10
75.0968848865
 20
166.0361702279
 11
75.0944888832
 21
165.9899743506
  0
LINE
  8
0
 62
7
  6
CONTINUOUS
 10
75.0993916549
 20
166.0796354456
 11
75.0968848865
 21
166.0361702279
  0
POLYLINE
  8
0
 62
7
  6
CONTINUOUS
 66
1
 70
0
  0
VERTEX
  8
0
 62
7
  6
CONTINUOUS
 10
70.3271389725
 20
97.1116368022
  0
VERTEX
  8
0
 62
7
  6
CONTINUOUS
 10
70.3048332352
 20
96.7398653042
  0
VERTEX
  8
0
 62
7
  6
CONTINUOUS
 10
70.2906341205
 20
96.3409478214
  0
VERTEX
  8
0
 62
7
  6
CONTINUOUS
 10
70.2856171206
 20
95.9154007854
  0
SEQEND
  0
POLYLINE
  8
0
 62
7
  6
CONTINUOUS
 66
1
 70
0
  0
VERTEX
  8
0
 62
7
  6
CONTINUOUS
 10
70.442494491
 20
98.1509954486
  0
VERTEX
  8
0
 62
7
  6
CONTINUOUS
 10
70.3965319365
 20
97.8192375769
  0
VERTEX
  8
0
 62
7
  6
CONTINUOUS
 10
70.3579105614
 20
97.472792946
  0
VERTEX
  8
0
 62
7
  6
CONTINUOUS
 10
70.3271389725
 20
97.1116368022
  0
SEQEND
  0
POLYLINE
  8
0
 62
7
  6
CONTINUOUS
 66
1
 70
0
  0
VERTEX
  8
0
 62
7
  6
CONTINUOUS
 10
79.076987874
 20
143.7806843605
  0
VERTEX
  8
0
 62
7
  6
CONTINUOUS
 10
79.1290347653
 20
144.0831111053
  0
VERTEX
  8
0
 62
7
  6
CONTINUOUS
 10
79.175471421
 20
144.4032348322
  0
SEQEND
  0
POLYLINE
  8
0
 62
7
  6
CONTINUOUS
 66
1
 70
0
  0
VERTEX
  8
0
 62
7
  6
CONTINUOUS
 10
70.5058033918
 20
98.5258503646
  0
VERTEX
  8
0
 62
7
  6
CONTINUOUS
 10
70.4728824969
 20
98.3401816897
  0
VERTEX
  8
0
 62
7
  6
CONTINUOUS
 10
70.442494491
 20
98.1509954486
  0
SEQEND
  0
POLYLINE
  8
0
 62
7
  6
CONTINUOUS
 66
1
 70
0
  0
VERTEX
  8
0
 62
7
  6
CONTINUOUS
 10
78.9872643104
 20
143.3463409995
  0
VERTEX
  8
0
 62
7
  6
CONTINUOUS
 10
79.0338348488
 20
143.560689142
  0
VERTEX
  8
0
 62
7
  6
CONTINUOUS
 10
79.076987874
 20
143.7806843605
  0
SEQEND
  0
POLYLINE
  8
0
 62
7
  6
CONTINUOUS
 66
1
 70
0
  0
VERTEX
  8
0
 62
7
  6
CONTINUOUS
 10
78.7110147833
 20
142.3664707982
  0
VERTEX
  8
0
 62
7
  6
CONTINUOUS
 10
78.8118410515
 20
142.6810527189
  0
VERTEX
  8
0
 62
7
  6
CONTINUOUS
 10
78.9040712293
 20
143.0077419561
  0
VERTEX
  8
0
 62
7
  6
CONTINUOUS
 10
78.9872643104
 20
143.3463409995
  0
SEQEND
  0
POLYLINE
  8
0
 62
7
  6
CONTINUOUS
 66
1
 70
0
  0
VERTEX
  8
0
 62
7
  6
CONTINUOUS
 10
78.5529209493
 20
141.9380694328
  0
VERTEX
  8
0
 62
7
  6
CONTINUOUS
 10
78.6084196945
 20
142.0808408082
  0
VERTEX
  8
0
 62
7
  6
CONTINUOUS
 10
78.6610737333
 20
142.2236207543
  0
VERTEX
  8
0
 62
7
  6
CONTINUOUS
 10
78.7110147833
 20
142.3664707982
  0
SEQEND
  0
POLYLINE
  8
0
 62
7
  6
CONTINUOUS
 66
1
 70
0
  0
VERTEX
  8
0
 62
7
  6
CONTINUOUS
 10
74.298676293
 20
143.0020626395
  0
VERTEX
  8
0
 62
7
  6
CONTINUOUS
 10
74.2511389974
 20
142.9253837795
  0
VERTEX
  8
0
 62
7
  6
CONTINUOUS
 10
74.1929604641
 20
142.8366564108
  0
VERTEX
  8
0
 62
7
  6
CONTINUOUS
 10
74.1348528693
 20
142.7537661743
  0
VERTEX
  8
0
 62
7
  6
CONTINUOUS
 10
74.0764802903
 20
142.6763161237
  0
VERTEX
  8
0
 62
7
  6
CONTINUOUS
 10
74.0175391808
 20
142.6040403338
  0
VERTEX
  8
0
 62
7
  6
CONTINUOUS
 10
73.9578045835
 20
142.5368519982
  0
VERTEX
  8
0
 62
7
  6
CONTINUOUS
 10
73.8971092346
 20
142.474794884
  0
VERTEX
  8
0
 62
7
  6
CONTINUOUS
 10
73.8354555062
 20
142.4181256254
  0
VERTEX
  8
0
 62
7
  6
CONTINUOUS
 10
73.7732490104
 20
142.3674115243
  0
VERTEX
  8
0
 62
7
  6
CONTINUOUS
 10
73.7109721706
 20
142.3231093857
  0
VERTEX
  8
0
 62
7
  6
CONTINUOUS
 10
73.6492829555
 20
142.2855785366
  0
VERTEX
  8
0
 62
7
  6
CONTINUOUS
 10
73.5888094462
 20
142.2548900232
  0
VERTEX
  8
0
 62
7
  6
CONTINUOUS
 10
73.5296806077
 20
142.230665618
  0
VERTEX
  8
0
 62
7
  6
CONTINUOUS
 10
73.4707252102
 20
142.2120959369
  0
VERTEX
  8
0
 62
7
  6
CONTINUOUS
 10
73.4098995898
 20
142.1985984779
  0
VERTEX
  8
0
 62
7
  6
CONTINUOUS
 10
73.3450993775
 20
142.1902595611
  0
VERTEX
  8
0
 62
7
  6
CONTINUOUS
 10
73.2845349237
 20
142.1877900786
  0
SEQEND
  0
LINE
  8
0
 62
7
  6
CONTINUOUS
 10
62.5514057592
 20
94.7283756815
 11
65.3765119024
 21
91.9032695383
  0
LINE
  8
0
 62
7
  6
CONTINUOUS
 10
62.5514057592
 20
97.5568028063
 11
68.2049378715
 21
91.9032706939
  0
LINE
  8
0
 62
7
  6
CONTINUOUS
 10
62.5514057592
 20
100.385229931
 11
70.285616179
 21
92.6510195112
  0
LINE
  8
0
 62
7
  6
CONTINUOUS
 10
62.5514057592
 20
103.2136570558
 11
70.285616179
 21
95.4794466359
  0
LINE
  8
0
 62
7
  6
CONTINUOUS
 10
77.138707387
 20
104.4187447251
 11
77.138707387
 21
139.6433037256
  0
LINE
  8
0
 62
7
  6
CONTINUOUS
 10
78.5529209493
 20
104.4187447194
 11
78.5529209493
 21
141.9380694328
  0
LINE
  8
0
 62
7
  6
CONTINUOUS
 10
79.2971826623
 20
146.3971924858
 11
79.2971826623
 21
150.4032615768
  0
LINE
  8
0
 62
7
  6
CONTINUOUS
 10
79.9671345117
 20
104.4187447137
 11
79.9671345117
 21
150.4032616147
  0
LINE
  8
0
 62
7
  6
CONTINUOUS
 10
81.3813480741
 20
104.4187447081
 11
81.3813480741
 21
150.4032616949
  0
LINE
  8
0
 62
7
  6
CONTINUOUS
 10
82.7955616364
 20
104.4187447024
 11
82.7955616364
 21
150.4032617751
  0
POLYLINE
  8
0
 62
7
  6
CONTINUOUS
 66
1
 70
0
  0
VERTEX
  8
0
 62
7
  6
CONTINUOUS
 10
79.2897013801
 20
145.8723310545
  0
VERTEX
  8
0
 62
7
  6
CONTINUOUS
 10
79.2938107307
 20
146.0421808385
  0
VERTEX
  8
0
 62
7
  6
CONTINUOUS
 10
79.2963289689
 20
146.2171310866
  0
VERTEX
  8
0
 62
7
  6
CONTINUOUS
 10
79.2971826623
 20
146.3971924498
  0
SEQEND
  0
LINE
  8
0
 62
7
  6
CONTINUOUS
 10
74.4882565892
 20
76.3170212302
 11
74.4905866152
 21
76.3666360781
  0
LINE
  8
0
 62
7
  6
CONTINUOUS
 10
74.4858597164
 20
76.2707924833
 11
74.4882565892
 21
76.3170212302
  0
LINE
  8
0
 62
7
  6
CONTINUOUS
 10
74.4833524116
 20
76.2272982483
 11
74.4858597164
 21
76.2707924833
  0
POLYLINE
  8
0
 62
7
  6
CONTINUOUS
 66
1
 70
0
  0
VERTEX
  8
0
 62
7
  6
CONTINUOUS
 10
79.255658353
 20
145.1948979229
  0
VERTEX
  8
0
 62
7
  6
CONTINUOUS
 10
79.2759994685
 20
145.5267039038
  0
VERTEX
  8
0
 62
7
  6
CONTINUOUS
 10
79.2897013801
 20
145.8723310545
  0
SEQEND
  0
POLYLINE
  8
0
 62
7
  6
CONTINUOUS
 66
1
 70
0
  0
VERTEX
  8
0
 62
7
  6
CONTINUOUS
 10
79.175471421
 20
144.4032348322
  0
VERTEX
  8
0
 62
7
  6
CONTINUOUS
 10
79.2196746896
 20
144.78176101
  0
VERTEX
  8
0
 62
7
  6
CONTINUOUS
 10
79.255658353
 20
145.1948979229
  0
SEQEND
  0
POLYLINE
  8
0
 62
7
  6
CONTINUOUS
 66
1
 70
0
  0
VERTEX
  8
0
 62
7
  6
CONTINUOUS
 10
70.6241476028
 20
99.0823583923
  0
VERTEX
  8
0
 62
7
  6
CONTINUOUS
 10
70.5627394052
 20
98.8115051511
  0
VERTEX
  8
0
 62
7
  6
CONTINUOUS
 10
70.5058033918
 20
98.5258503646
  0
SEQEND
  0
POLYLINE
  8
0
 62
7
  6
CONTINUOUS
 66
1
 70
0
  0
VERTEX
  8
0
 62
7
  6
CONTINUOUS
 10
70.6487063345
 20
99.1822329492
  0
VERTEX
  8
0
 62
7
  6
CONTINUOUS
 10
70.6363485167
 20
99.1325137082
  0
VERTEX
  8
0
 62
7
  6
CONTINUOUS
 10
70.6241476028
 20
99.0823583923
  0
SEQEND
  0
POLYLINE
  8
0
 62
7
  6
CONTINUOUS
 66
1
 70
0
  0
VERTEX
  8
0
 62
7
  6
CONTINUOUS
 10
74.8263696545
 20
98.1631047289
  0
VERTEX
  8
0
 62
7
  6
CONTINUOUS
 10
74.8716915084
 20
98.3385418434
  0
VERTEX
  8
0
 62
7
  6
CONTINUOUS
 10
74.8993438274
 20
98.4435294557
  0
VERTEX
  8
0
 62
7
  6
CONTINUOUS
 10
74.9282460606
 20
98.5507171778
  0
VERTEX
  8
0
 62
7
  6
CONTINUOUS
 10
74.9584044025
 20
98.6591097651
  0
VERTEX
  8
0
 62
7
  6
CONTINUOUS
 10
74.9898187188
 20
98.7676608157
  0
VERTEX
  8
0
 62
7
  6
CONTINUOUS
 10
75.0224627016
 20
98.8752598127
  0
VERTEX
  8
0
 62
7
  6
CONTINUOUS
 10
75.0562486524
 20
98.9807209496
  0
VERTEX
  8
0
 62
7
  6
CONTINUOUS
 10
75.091007546
 20
99.0828027301
  0
VERTEX
  8
0
 62
7
  6
CONTINUOUS
 10
75.1264545369
 20
99.1802270286
  0
VERTEX
  8
0
 62
7
  6
CONTINUOUS
 10
75.1621830227
 20
99.2717541332
  0
VERTEX
  8
0
 62
7
  6
CONTINUOUS
 10
75.1977927427
 20
99.3565597324
  0
VERTEX
  8
0
 62
7
  6
CONTINUOUS
 10
75.233025049
 20
99.4344460758
  0
VERTEX
  8
0
 62
7
  6
CONTINUOUS
 10
75.2682385834
 20
99.5066140984
  0
VERTEX
  8
0
 62
7
  6
CONTINUOUS
 10
75.3039398489
 20
99.5742968281
  0
VERTEX
  8
0
 62
7
  6
CONTINUOUS
 10
75.3405804132
 20
99.6383390189
  0
VERTEX
  8
0
 62
7
  6
CONTINUOUS
 10
75.3783515369
 20
99.6989295157
  0
VERTEX
  8
0
 62
7
  6
CONTINUOUS
 10
75.4173465391
 20
99.7560287866
  0
VERTEX
  8
0
 62
7
  6
CONTINUOUS
 10
75.4576047527
 20
99.8094861994
  0
VERTEX
  8
0
 62
7
  6
CONTINUOUS
 10
75.4991356327
 20
99.8591021303
  0
VERTEX
  8
0
 62
7
  6
CONTINUOUS
 10
75.5416914344
 20
99.9044199013
  0
VERTEX
  8
0
 62
7
  6
CONTINUOUS
 10
75.5849690154
 20
99.9450662473
  0
VERTEX
  8
0
 62
7
  6
CONTINUOUS
 10
75.6287116059
 20
99.9808626493
  0
VERTEX
  8
0
 62
7
  6
CONTINUOUS
 10
75.6730216135
 20
100.0120056171
  0
VERTEX
  8
0
 62
7
  6
CONTINUOUS
 10
75.718577892
 20
100.03899977
  0
VERTEX
  8
0
 62
7
  6
CONTINUOUS
 10
75.7666284108
 20
100.0623828831
  0
VERTEX
  8
0
 62
7
  6
CONTINUOUS
 10
75.8180154319
 20
100.082159844
  0
VERTEX
  8
0
 62
7
  6
CONTINUOUS
 10
75.87329297
 20
100.0980728735
  0
VERTEX
  8
0
 62
7
  6
CONTINUOUS
 10
75.9325536512
 20
100.1097112805
  0
VERTEX
  8
0
 62
7
  6
CONTINUOUS
 10
75.9960669314
 20
100.1167238208
  0
VERTEX
  8
0
 62
7
  6
CONTINUOUS
 10
76.0551728953
 20
100.1187446998
  0
SEQEND
  0
POLYLINE
  8
0
 62
7
  6
CONTINUOUS
 66
1
 70
0
  0
VERTEX
  8
0
 62
7
  6
CONTINUOUS
 10
70.8525316447
 20
99.940063927
  0
VERTEX
  8
0
 62
7
  6
CONTINUOUS
 10
70.8119201231
 20
99.7982115405
  0
VERTEX
  8
0
 62
7
  6
CONTINUOUS
 10
70.7727763488
 20
99.6565023674
  0
VERTEX
  8
0
 62
7
  6
CONTINUOUS
 10
70.7347729884
 20
99.5147063644
  0
VERTEX
  8
0
 62
7
  6
CONTINUOUS
 10
70.697681065
 20
99.3730134329
  0
VERTEX
  8
0
 62
7
  6
CONTINUOUS
 10
70.6487063345
 20
99.1822329492
  0
SEQEND
  0
POLYLINE
  8
0
 62
7
  6
CONTINUOUS
 66
1
 70
0
  0
VERTEX
  8
0
 62
7
  6
CONTINUOUS
 10
71.0031778026
 20
100.4187392618
  0
VERTEX
  8
0
 62
7
  6
CONTINUOUS
 10
70.9636058718
 20
100.3001095648
  0
VERTEX
  8
0
 62
7
  6
CONTINUOUS
 10
70.9253790711
 20
100.1808007699
  0
VERTEX
  8
0
 62
7
  6
CONTINUOUS
 10
70.8883940117
 20
100.0607925683
  0
VERTEX
  8
0
 62
7
  6
CONTINUOUS
 10
70.8525316447
 20
99.940063927
  0
SEQEND
  0
POLYLINE
  8
0
 62
7
  6
CONTINUOUS
 66
1
 70
0
  0
VERTEX
  8
0
 62
7
  6
CONTINUOUS
 10
78.2460507679
 20
141.2591274172
  0
VERTEX
  8
0
 62
7
  6
CONTINUOUS
 10
78.353375771
 20
141.478304702
  0
VERTEX
  8
0
 62
7
  6
CONTINUOUS
 10
78.4557250065
 20
141.7046157721
  0
VERTEX
  8
0
 62
7
  6
CONTINUOUS
 10
78.5529209493
 20
141.9380694328
  0
SEQEND
  0
POLYLINE
  8
0
 62
7
  6
CONTINUOUS
 66
1
 70
0
  0
VERTEX
  8
0
 62
7
  6
CONTINUOUS
 10
78.0809734006
 20
140.9522572358
  0
VERTEX
  8
0
 62
7
  6
CONTINUOUS
 10
78.1647940444
 20
141.1038762673
  0
VERTEX
  8
0
 62
7
  6
CONTINUOUS
 10
78.2460507679
 20
141.2591274172
  0
SEQEND
  0
POLYLINE
  8
0
 62
7
  6
CONTINUOUS
 66
1
 70
0
  0
VERTEX
  8
0
 62
7
  6
CONTINUOUS
 10
77.9770203218
 20
140.7750051441
  0
VERTEX
  8
0
 62
7
  6
CONTINUOUS
 10
78.0307290239
 20
140.8651713817
  0
VERTEX
  8
0
 62
7
  6
CONTINUOUS
 10
78.0809734006
 20
140.9522572358
  0
SEQEND
  0
LINE
  8
0
 62
7
  6
CONTINUOUS
 10
64.1747452419
 20
137.8877900273
 11
62.5514057592
 21
136.2644505446
  0
LINE
  8
0
 62
7
  6
CONTINUOUS
 10
79.5186439286
 20
150.4032615893
 11
79.2971826623
 21
150.181800323
  0
LINE
  8
0
 62
7
  6
CONTINUOUS
 10
67.0031723757
 20
137.8877900364
 11
62.5514057592
 21
133.4360234199
  0
LINE
  8
0
 62
7
  6
CONTINUOUS
 10
82.3470712137
 20
150.4032617497
 11
79.2971826623
 21
147.3533731982
  0
LINE
  8
0
 62
7
  6
CONTINUOUS
 10
69.8315995096
 20
137.8877900456
 11
62.5514057592
 21
130.6075962951
  0
LINE
  8
0
 62
7
  6
CONTINUOUS
 10
62.5514057592
 20
106.0420841805
 11
70.442494491
 21
98.1509954486
  0
LINE
  8
0
 62
7
  6
CONTINUOUS
 10
62.5514057592
 20
108.8705113053
 11
71.0031778026
 21
100.4187392618
  0
LINE
  8
0
 62
7
  6
CONTINUOUS
 10
62.5514057592
 20
111.69893843
 11
71.9504513593
 21
102.2998928299
  0
POLYLINE
  8
0
 62
7
  6
CONTINUOUS
 66
1
 70
0
  0
VERTEX
  8
0
 62
7
  6
CONTINUOUS
 10
87.1171531689
 20
145.1948979229
  0
VERTEX
  8
0
 62
7
  6
CONTINUOUS
 10
87.1534946419
 20
144.7782632816
  0
VERTEX
  8
0
 62
7
  6
CONTINUOUS
 10
87.2004438121
 20
144.3798476022
  0
VERTEX
  8
0
 62
7
  6
CONTINUOUS
 10
87.2573021042
 20
143.9997841412
  0
SEQEND
  0
POLYLINE
  8
0
 62
7
  6
CONTINUOUS
 66
1
 70
0
  0
VERTEX
  8
0
 62
7
  6
CONTINUOUS
 10
91.8108223984
 20
76.2041595243
  0
VERTEX
  8
0
 62
7
  6
CONTINUOUS
 10
91.8125324107
 20
76.1788010705
  0
VERTEX
  8
0
 62
7
  6
CONTINUOUS
 10
91.8143160483
 20
76.1542998872
  0
VERTEX
  8
0
 62
7
  6
CONTINUOUS
 10
91.8162031564
 20
76.1303423962
  0
VERTEX
  8
0
 62
7
  6
CONTINUOUS
 10
91.8182350382
 20
76.1065625719
  0
VERTEX
  8
0
 62
7
  6
CONTINUOUS
 10
91.8204661114
 20
76.0825610609
  0
VERTEX
  8
0
 62
7
  6
CONTINUOUS
 10
91.8229626964
 20
76.0579519149
  0
VERTEX
  8
0
 62
7
  6
CONTINUOUS
 10
91.8258080018
 20
76.0323403706
  0
VERTEX
  8
0
 62
7
  6
CONTINUOUS
 10
91.82911121
 20
76.0052834588
  0
VERTEX
  8
0
 62
7
  6
CONTINUOUS
 10
91.8330134635
 20
75.976301028
  0
VERTEX
  8
0
 62
7
  6
CONTINUOUS
 10
91.8376945046
 20
75.9448898765
  0
VERTEX
  8
0
 62
7
  6
CONTINUOUS
 10
91.8433805693
 20
75.9105360076
  0
VERTEX
  8
0
 62
7
  6
CONTINUOUS
 10
91.8502706749
 20
75.8731518246
  0
VERTEX
  8
0
 62
7
  6
CONTINUOUS
 10
91.8584793147
 20
75.8331765388
  0
VERTEX
  8
0
 62
7
  6
CONTINUOUS
 10
91.8680381775
 20
75.7913146542
  0
VERTEX
  8
0
 62
7
  6
CONTINUOUS
 10
91.8792392979
 20
75.7470901919
  0
VERTEX
  8
0
 62
7
  6
CONTINUOUS
 10
91.8927655418
 20
75.6989271732
  0
VERTEX
  8
0
 62
7
  6
CONTINUOUS
 10
91.9096333917
 20
75.6449147917
  0
VERTEX
  8
0
 62
7
  6
CONTINUOUS
 10
91.9307643392
 20
75.5843397694
  0
VERTEX
  8
0
 62
7
  6
CONTINUOUS
 10
91.9566933705
 20
75.5180285341
  0
VERTEX
  8
0
 62
7
  6
CONTINUOUS
 10
91.9877635893
 20
75.4472380304
  0
VERTEX
  8
0
 62
7
  6
CONTINUOUS
 10
92.0243290673
 20
75.3730104812
  0
VERTEX
  8
0
 62
7
  6
CONTINUOUS
 10
92.0667705778
 20
75.2962038196
  0
VERTEX
  8
0
 62
7
  6
CONTINUOUS
 10
92.1153733192
 20
75.2177463766
  0
VERTEX
  8
0
 62
7
  6
CONTINUOUS
 10
92.170372069
 20
75.1385287149
  0
VERTEX
  8
0
 62
7
  6
CONTINUOUS
 10
92.2319360817
 20
75.0594273248
  0
VERTEX
  8
0
 62
7
  6
CONTINUOUS
 10
92.3001389997
 20
74.9813334944
  0
VERTEX
  8
0
 62
7
  6
CONTINUOUS
 10
92.3749401376
 20
74.9051517614
  0
VERTEX
  8
0
 62
7
  6
CONTINUOUS
 10
92.456482365
 20
74.831522508
  0
VERTEX
  8
0
 62
7
  6
CONTINUOUS
 10
92.5453680579
 20
74.76074928
  0
VERTEX
  8
0
 62
7
  6
CONTINUOUS
 10
92.6422852131
 20
74.6932812305
  0
VERTEX
  8
0
 62
7
  6
CONTINUOUS
 10
92.7479429712
 20
74.6297832242
  0
VERTEX
  8
0
 62
7
  6
CONTINUOUS
 10
92.8626380733
 20
74.5713509544
  0
VERTEX
  8
0
 62
7
  6
CONTINUOUS
 10
92.9852848878
 20
74.5197130955
  0
VERTEX
  8
0
 62
7
  6
CONTINUOUS
 10
93.1142761566
 20
74.4764254731
  0
VERTEX
  8
0
 62
7
  6
CONTINUOUS
 10
93.24775266
 20
74.4426606676
  0
VERTEX
  8
0
 62
7
  6
CONTINUOUS
 10
93.3836723538
 20
74.4191565206
  0
VERTEX
  8
0
 62
7
  6
CONTINUOUS
 10
93.5198863373
 20
74.4061861366
  0
VERTEX
  8
0
 62
7
  6
CONTINUOUS
 10
93.6223773652
 20
74.4032675127
  0
SEQEND
  0
LINE
  8
0
 62
7
  6
CONTINUOUS
 10
91.8075493636
 20
76.2583746252
 11
91.8108223984
 21
76.2041595243
  0
LINE
  8
0
 62
7
  6
CONTINUOUS
 10
91.8043848461
 20
76.3186746354
 11
91.8075493636
 21
76.2583746252
  0
LINE
  8
0
 62
7
  6
CONTINUOUS
 10
91.8012463869
 20
76.3869052229
 11
91.8043848461
 21
76.3186746354
  0
LINE
  8
0
 62
7
  6
CONTINUOUS
 10
91.7980760148
 20
76.4649851763
 11
91.8012463869
 21
76.3869052229
  0
LINE
  8
0
 62
7
  6
CONTINUOUS
 10
91.7931111598
 20
76.6069887868
 11
91.7980760148
 21
76.4649851763
  0
POLYLINE
  8
0
 62
7
  6
CONTINUOUS
 66
1
 70
0
  0
VERTEX
  8
0
 62
7
  6
CONTINUOUS
 10
91.7859176949
 20
76.8585434611
  0
VERTEX
  8
0
 62
7
  6
CONTINUOUS
 10
91.7877653816
 20
76.7885359515
  0
VERTEX
  8
0
 62
7
  6
CONTINUOUS
 10
91.7931111598
 20
76.6069887868
  0
SEQEND
  0
POLYLINE
  8
0
 62
7
  6
CONTINUOUS
 66
1
 70
0
  0
VERTEX
  8
0
 62
7
  6
CONTINUOUS
 10
87.075628856
 20
146.3971954816
  0
VERTEX
  8
0
 62
7
  6
CONTINUOUS
 10
87.0805067404
 20
145.9715412249
  0
VERTEX
  8
0
 62
7
  6
CONTINUOUS
 10
87.0946615428
 20
145.5705829369
  0
VERTEX
  8
0
 62
7
  6
CONTINUOUS
 10
87.1171531689
 20
145.1948979229
  0
SEQEND
  0
LINE
  8
0
 62
7
  6
CONTINUOUS
 10
84.2097751988
 20
104.4187446967
 11
84.2097751988
 21
150.4032618553
  0
LINE
  8
0
 62
7
  6
CONTINUOUS
 10
85.6239887612
 20
104.418744691
 11
85.6239887612
 21
150.4032619355
  0
LINE
  8
0
 62
7
  6
CONTINUOUS
 10
87.0382023236
 20
104.4187446853
 11
87.0382023236
 21
150.4032620157
  0
LINE
  8
0
 62
7
  6
CONTINUOUS
 10
87.075628856
 20
146.3971954944
 11
87.075628856
 21
150.4032620178
  0
LINE
  8
0
 62
7
  6
CONTINUOUS
 10
88.4524158859
 20
104.4187446797
 11
88.4524158859
 21
140.6827821364
  0
LINE
  8
0
 62
7
  6
CONTINUOUS
 10
89.8666294483
 20
104.418744674
 11
89.8666294483
 21
139.0467834446
  0
POLYLINE
  8
0
 62
7
  6
CONTINUOUS
 66
1
 70
0
  0
VERTEX
  8
0
 62
7
  6
CONTINUOUS
 10
71.3848710341
 20
101.3542774893
  0
VERTEX
  8
0
 62
7
  6
CONTINUOUS
 10
71.2991695592
 20
101.1719239199
  0
VERTEX
  8
0
 62
7
  6
CONTINUOUS
 10
71.2173004688
 20
100.9844109081
  0
VERTEX
  8
0
 62
7
  6
CONTINUOUS
 10
71.1402959417
 20
100.7945567807
  0
VERTEX
  8
0
 62
7
  6
CONTINUOUS
 10
71.0687813057
 20
100.6050446277
  0
VERTEX
  8
0
 62
7
  6
CONTINUOUS
 10
71.0031778026
 20
100.4187392618
  0
SEQEND
  0
POLYLINE
  8
0
 62
7
  6
CONTINUOUS
 66
1
 70
0
  0
VERTEX
  8
0
 62
7
  6
CONTINUOUS
 10
71.4818531375
 20
101.5455699943
  0
VERTEX
  8
0
 62
7
  6
CONTINUOUS
 10
71.4331572431
 20
101.4513888853
  0
VERTEX
  8
0
 62
7
  6
CONTINUOUS
 10
71.3848710341
 20
101.3542774893
  0
SEQEND
  0
POLYLINE
  8
0
 62
7
  6
CONTINUOUS
 66
1
 70
0
  0
VERTEX
  8
0
 62
7
  6
CONTINUOUS
 10
77.138707387
 20
139.6433037256
  0
VERTEX
  8
0
 62
7
  6
CONTINUOUS
 10
77.3058096079
 20
139.8332268862
  0
VERTEX
  8
0
 62
7
  6
CONTINUOUS
 10
77.4721657785
 20
140.0382427863
  0
VERTEX
  8
0
 62
7
  6
CONTINUOUS
 10
77.6390173865
 20
140.2614627837
  0
VERTEX
  8
0
 62
7
  6
CONTINUOUS
 10
77.8072190173
 20
140.5061255427
  0
VERTEX
  8
0
 62
7
  6
CONTINUOUS
 10
77.9770203218
 20
140.7750051441
  0
SEQEND
  0
POLYLINE
  8
0
 62
7
  6
CONTINUOUS
 66
1
 70
0
  0
VERTEX
  8
0
 62
7
  6
CONTINUOUS
 10
77.0880624006
 20
139.5886886598
  0
VERTEX
  8
0
 62
7
  6
CONTINUOUS
 10
77.1133961318
 20
139.6158430081
  0
VERTEX
  8
0
 62
7
  6
CONTINUOUS
 10
77.138707387
 20
139.6433037256
  0
SEQEND
  0
POLYLINE
  8
0
 62
7
  6
CONTINUOUS
 66
1
 70
0
  0
VERTEX
  8
0
 62
7
  6
CONTINUOUS
 10
77.0399790901
 20
139.5380436734
  0
VERTEX
  8
0
 62
7
  6
CONTINUOUS
 10
77.0640533038
 20
139.5632554138
  0
VERTEX
  8
0
 62
7
  6
CONTINUOUS
 10
77.0880624006
 20
139.5886886598
  0
SEQEND
  0
LINE
  8
0
 62
7
  6
CONTINUOUS
 10
85.1754984989
 20
150.4032619101
 11
79.175471421
 21
144.4032348322
  0
LINE
  8
0
 62
7
  6
CONTINUOUS
 10
72.6600266435
 20
137.8877900547
 11
62.5514057592
 21
127.7791691704
  0
LINE
  8
0
 62
7
  6
CONTINUOUS
 10
87.075628856
 20
149.4749651425
 11
62.5514057592
 21
124.9507420456
  0
LINE
  8
0
 62
7
  6
CONTINUOUS
 10
87.075628856
 20
146.6465380178
 11
62.5514057592
 21
122.1223149209
  0
LINE
  8
0
 62
7
  6
CONTINUOUS
 10
87.2573021042
 20
143.9997841412
 11
62.5514057592
 21
119.2938877961
  0
LINE
  8
0
 62
7
  6
CONTINUOUS
 10
62.5514057592
 20
114.5273655548
 11
73.4101834357
 21
103.6685878782
  0
LINE
  8
0
 62
7
  6
CONTINUOUS
 10
62.5514057592
 20
117.3557926795
 11
75.5166732795
 21
104.3905251591
  0
LINE
  8
0
 62
7
  6
CONTINUOUS
 10
62.5514057592
 20
120.1842198043
 11
78.316880843
 21
104.4187447204
  0
LINE
  8
0
 62
7
  6
CONTINUOUS
 10
62.5514057592
 20
123.012646929
 11
81.1453079792
 21
104.418744709
  0
POLYLINE
  8
0
 62
7
  6
CONTINUOUS
 66
1
 70
0
  0
VERTEX
  8
0
 62
7
  6
CONTINUOUS
 10
91.0086762935
 20
99.3044720037
  0
VERTEX
  8
0
 62
7
  6
CONTINUOUS
 10
91.1058218209
 20
99.1318780765
  0
VERTEX
  8
0
 62
7
  6
CONTINUOUS
 10
91.20084515
 20
98.9360452323
  0
VERTEX
  8
0
 62
7
  6
CONTINUOUS
 10
91.2876947969
 20
98.7274937019
  0
VERTEX
  8
0
 62
7
  6
CONTINUOUS
 10
91.3665829633
 20
98.5059819491
  0
VERTEX
  8
0
 62
7
  6
CONTINUOUS
 10
91.4375256943
 20
98.2713618329
  0
VERTEX
  8
0
 62
7
  6
CONTINUOUS
 10
91.5003851002
 20
98.0237759336
  0
VERTEX
  8
0
 62
7
  6
CONTINUOUS
 10
91.5550907692
 20
97.7630220353
  0
VERTEX
  8
0
 62
7
  6
CONTINUOUS
 10
91.6015714411
 20
97.4886924585
  0
VERTEX
  8
0
 62
7
  6
CONTINUOUS
 10
91.6397195714
 20
97.200386467
  0
VERTEX
  8
0
 62
7
  6
CONTINUOUS
 10
91.6694370735
 20
96.8975201312
  0
VERTEX
  8
0
 62
7
  6
CONTINUOUS
 10
91.6906323709
 20
96.57936528
  0
VERTEX
  8
0
 62
7
  6
CONTINUOUS
 10
91.7032200824
 20
96.2453172023
  0
VERTEX
  8
0
 62
7
  6
CONTINUOUS
 10
91.7071827626
 20
95.9092547447
  0
SEQEND
  0
POLYLINE
  8
0
 62
7
  6
CONTINUOUS
 66
1
 70
0
  0
VERTEX
  8
0
 62
7
  6
CONTINUOUS
 10
95.9656583486
 20
97.1116368022
  0
VERTEX
  8
0
 62
7
  6
CONTINUOUS
 10
95.9319945819
 20
97.5018744869
  0
VERTEX
  8
0
 62
7
  6
CONTINUOUS
 10
95.8903289575
 20
97.8660062583
  0
VERTEX
  8
0
 62
7
  6
CONTINUOUS
 10
95.8414974163
 20
98.2078366461
  0
SEQEND
  0
POLYLINE
  8
0
 62
7
  6
CONTINUOUS
 66
1
 70
0
  0
VERTEX
  8
0
 62
7
  6
CONTINUOUS
 10
91.2719891244
 20
166.1023751321
  0
VERTEX
  8
0
 62
7
  6
CONTINUOUS
 10
91.270279112
 20
166.1277335922
  0
VERTEX
  8
0
 62
7
  6
CONTINUOUS
 10
91.268495475
 20
166.152234772
  0
VERTEX
  8
0
 62
7
  6
CONTINUOUS
 10
91.2666083667
 20
166.1761922711
  0
VERTEX
  8
0
 62
7
  6
CONTINUOUS
 10
91.2645764836
 20
166.1999721154
  0
VERTEX
  8
0
 62
7
  6
CONTINUOUS
 10
91.2623454095
 20
166.2239736379
  0
VERTEX
  8
0
 62
7
  6
CONTINUOUS
 10
91.2598488246
 20
166.2485827846
  0
VERTEX
  8
0
 62
7
  6
CONTINUOUS
 10
91.2570035209
 20
166.2741943163
  0
VERTEX
  8
0
 62
7
  6
CONTINUOUS
 10
91.2537003172
 20
166.3012511973
  0
VERTEX
  8
0
 62
7
  6
CONTINUOUS
 10
91.2497980627
 20
166.330233642
  0
VERTEX
  8
0
 62
7
  6
CONTINUOUS
 10
91.2451170178
 20
166.3616448233
  0
VERTEX
  8
0
 62
7
  6
CONTINUOUS
 10
91.2394309493
 20
166.3959987164
  0
VERTEX
  8
0
 62
7
  6
CONTINUOUS
 10
91.2325408404
 20
166.4333829158
  0
VERTEX
  8
0
 62
7
  6
CONTINUOUS
 10
91.2243321987
 20
166.473358209
  0
VERTEX
  8
0
 62
7
  6
CONTINUOUS
 10
91.2147733355
 20
166.5152200923
  0
VERTEX
  8
0
 62
7
  6
CONTINUOUS
 10
91.2035722165
 20
166.5594445473
  0
VERTEX
  8
0
 62
7
  6
CONTINUOUS
 10
91.1900459752
 20
166.6076075555
  0
VERTEX
  8
0
 62
7
  6
CONTINUOUS
 10
91.1731781286
 20
166.6616199266
  0
VERTEX
  8
0
 62
7
  6
CONTINUOUS
 10
91.1520471849
 20
166.7221949398
  0
VERTEX
  8
0
 62
7
  6
CONTINUOUS
 10
91.1261181487
 20
166.7885061891
  0
VERTEX
  8
0
 62
7
  6
CONTINUOUS
 10
91.0950479127
 20
166.8592967303
  0
VERTEX
  8
0
 62
7
  6
CONTINUOUS
 10
91.0584824158
 20
166.9335243122
  0
VERTEX
  8
0
 62
7
  6
CONTINUOUS
 10
91.0160408838
 20
167.0103310033
  0
VERTEX
  8
0
 62
7
  6
CONTINUOUS
 10
90.9674381177
 20
167.0887884735
  0
VERTEX
  8
0
 62
7
  6
CONTINUOUS
 10
90.91243934
 20
167.1680061598
  0
VERTEX
  8
0
 62
7
  6
CONTINUOUS
 10
90.850875297
 20
167.2471075706
  0
VERTEX
  8
0
 62
7
  6
CONTINUOUS
 10
90.7826723469
 20
167.3252014172
  0
VERTEX
  8
0
 62
7
  6
CONTINUOUS
 10
90.7078711762
 20
167.4013831608
  0
VERTEX
  8
0
 62
7
  6
CONTINUOUS
 10
90.6263289136
 20
167.4750124213
  0
VERTEX
  8
0
 62
7
  6
CONTINUOUS
 10
90.5374431792
 20
167.5457856555
  0
VERTEX
  8
0
 62
7
  6
CONTINUOUS
 10
90.4405259717
 20
167.6132537115
  0
VERTEX
  8
0
 62
7
  6
CONTINUOUS
 10
90.3348681455
 20
167.6767517244
  0
VERTEX
  8
0
 62
7
  6
CONTINUOUS
 10
90.220172963
 20
167.7351839954
  0
VERTEX
  8
0
 62
7
  6
CONTINUOUS
 10
90.0975260759
 20
167.7868218397
  0
VERTEX
  8
0
 62
7
  6
CONTINUOUS
 10
89.9685347645
 20
167.8301094279
  0
VERTEX
  8
0
 62
7
  6
CONTINUOUS
 10
89.8350582725
 20
167.8638741823
  0
VERTEX
  8
0
 62
7
  6
CONTINUOUS
 10
89.6991386676
 20
167.887378271
  0
VERTEX
  8
0
 62
7
  6
CONTINUOUS
 10
89.5629248731
 20
167.9003486062
  0
VERTEX
  8
0
 62
7
  6
CONTINUOUS
 10
89.4604341549
 20
167.9032672124
  0
SEQEND
  0
LINE
  8
0
 62
7
  6
CONTINUOUS
 10
91.2752621606
 20
166.0481599949
 11
91.2719891244
 21
166.1023751321
  0
LINE
  8
0
 62
7
  6
CONTINUOUS
 10
91.2784266782
 20
165.987859969
 11
91.2752621606
 21
166.0481599949
  0
LINE
  8
0
 62
7
  6
CONTINUOUS
 10
91.2815651384
 20
165.9196293389
 11
91.2784266782
 21
165.987859969
  0
LINE
  8
0
 62
7
  6
CONTINUOUS
 10
91.2847355112
 20
165.8415493504
 11
91.2815651384
 21
165.9196293389
  0
LINE
  8
0
 62
7
  6
CONTINUOUS
 10
91.2897003679
 20
165.6995456464
 11
91.2847355112
 21
165.8415493504
  0
POLYLINE
  8
0
 62
7
  6
CONTINUOUS
 66
1
 70
0
  0
VERTEX
  8
0
 62
7
  6
CONTINUOUS
 10
96.005249404
 20
96.179188946
  0
VERTEX
  8
0
 62
7
  6
CONTINUOUS
 10
95.9916148624
 20
96.6592992074
  0
VERTEX
  8
0
 62
7
  6
CONTINUOUS
 10
95.9656583486
 20
97.1116368022
  0
SEQEND
  0
LINE
  8
0
 62
7
  6
CONTINUOUS
 10
91.295046148
 20
165.517998357
 11
91.2897003679
 21
165.6995456464
  0
LINE
  8
0
 62
7
  6
CONTINUOUS
 10
91.3025821584
 20
165.2078388023
 11
91.295046148
 21
165.517998357
  0
LINE
  8
0
 62
7
  6
CONTINUOUS
 10
91.7782917902
 20
77.1893138502
 11
91.7859176949
 21
76.8585434611
  0
LINE
  8
0
 62
7
  6
CONTINUOUS
 10
91.3104232315
 20
164.8118642488
 11
91.3025821584
 21
165.2078388023
  0
LINE
  8
0
 62
7
  6
CONTINUOUS
 10
91.7703988457
 20
77.60795595
 11
91.7782917902
 21
77.1893138502
  0
LINE
  8
0
 62
7
  6
CONTINUOUS
 10
91.3184295933
 20
164.3217931226
 11
91.3104232315
 21
164.8118642488
  0
LINE
  8
0
 62
7
  6
CONTINUOUS
 10
91.7623613026
 20
78.1234510869
 11
91.7703988457
 21
77.60795595
  0
LINE
  8
0
 62
7
  6
CONTINUOUS
 10
91.3265472705
 20
163.7240417336
 11
91.3184295933
 21
164.3217931226
  0
LINE
  8
0
 62
7
  6
CONTINUOUS
 10
91.7542237795
 20
78.75069127
 11
91.7623613026
 21
78.1234510869
  0
LINE
  8
0
 62
7
  6
CONTINUOUS
 10
91.3347172973
 20
163.0014637997
 11
91.3265472705
 21
163.7240417336
  0
LINE
  8
0
 62
7
  6
CONTINUOUS
 10
91.7460525136
 20
79.5076265235
 11
91.7542237795
 21
78.75069127
  0
LINE
  8
0
 62
7
  6
CONTINUOUS
 10
91.3428547813
 20
162.1327582224
 11
91.3347172973
 21
163.0014637997
  0
LINE
  8
0
 62
7
  6
CONTINUOUS
 10
91.7379421023
 20
80.4166611522
 11
91.7460525136
 21
79.5076265235
  0
LINE
  8
0
 62
7
  6
CONTINUOUS
 10
91.34887143
 20
161.3681880414
 11
91.3428547813
 21
162.1327582224
  0
POLYLINE
  8
0
 62
7
  6
CONTINUOUS
 66
1
 70
0
  0
VERTEX
  8
0
 62
7
  6
CONTINUOUS
 10
96.0069645147
 20
96.0007409225
  0
VERTEX
  8
0
 62
7
  6
CONTINUOUS
 10
96.0063166023
 20
96.0906903219
  0
VERTEX
  8
0
 62
7
  6
CONTINUOUS
 10
96.005249404
 20
96.179188946
  0
SEQEND
  0
LINE
  8
0
 62
7
  6
CONTINUOUS
 10
91.7319519048
 20
81.2193812393
 11
91.7379421023
 21
80.4166611522
  0
LINE
  8
0
 62
7
  6
CONTINUOUS
 10
91.3548045376
 20
160.4785965429
 11
91.34887143
 21
161.3681880414
  0
LINE
  8
0
 62
7
  6
CONTINUOUS
 10
91.7260494203
 20
82.1592858559
 11
91.7319519048
 21
81.2193812393
  0
LINE
  8
0
 62
7
  6
CONTINUOUS
 10
91.3606656983
 20
159.4135400401
 11
91.3548045376
 21
160.4785965429
  0
LINE
  8
0
 62
7
  6
CONTINUOUS
 10
91.7202125802
 20
83.3009781217
 11
91.7260494203
 21
82.1592858559
  0
LINE
  8
0
 62
7
  6
CONTINUOUS
 10
91.3644930246
 20
158.5690776439
 11
91.3606656983
 21
159.4135400401
  0
LINE
  8
0
 62
7
  6
CONTINUOUS
 10
91.7164860986
 20
84.2030116276
 11
91.7202125802
 21
83.3009781217
  0
LINE
  8
0
 62
7
  6
CONTINUOUS
 10
91.368078535
 20
157.6064975139
 11
91.3644930246
 21
158.5690776439
  0
LINE
  8
0
 62
7
  6
CONTINUOUS
 10
91.7130796948
 20
85.2313930791
 11
91.7164860986
 21
84.2030116276
  0
LINE
  8
0
 62
7
  6
CONTINUOUS
 10
91.3712554713
 20
156.5081270507
 11
91.368078535
 21
157.6064975139
  0
LINE
  8
0
 62
7
  6
CONTINUOUS
 10
91.7102176295
 20
86.3914028535
 11
91.7130796948
 21
85.2313930791
  0
LINE
  8
0
 62
7
  6
CONTINUOUS
 10
91.3736986053
 20
155.3110388481
 11
91.3712554713
 21
156.5081270507
  0
LINE
  8
0
 62
7
  6
CONTINUOUS
 10
91.7082628612
 20
87.5987344604
 11
91.7102176295
 21
86.3914028535
  0
LINE
  8
0
 62
7
  6
CONTINUOUS
 10
91.3751510115
 20
154.1050459826
 11
91.3736986053
 21
155.3110388481
  0
LINE
  8
0
 62
7
  6
CONTINUOUS
 10
91.7073001745
 20
88.8068334642
 11
91.7082628612
 21
87.5987344604
  0
LINE
  8
0
 62
7
  6
CONTINUOUS
 10
91.375628856
 20
152.9032673626
 11
91.3751510115
 21
154.1050459826
  0
LINE
  8
0
 62
7
  6
CONTINUOUS
 10
91.2808430107
 20
104.2513334957
 11
91.2808430107
 21
138.2243056847
  0
LINE
  8
0
 62
7
  6
CONTINUOUS
 10
91.375628856
 20
146.3972799997
 11
91.375628856
 21
152.9032673626
  0
LINE
  8
0
 62
7
  6
CONTINUOUS
 10
91.7071826623
 20
95.9092547447
 11
91.7073001745
 21
88.8068334642
  0
LINE
  8
0
 62
7
  6
CONTINUOUS
 10
92.6950565731
 20
103.6332075266
 11
92.6950565731
 21
137.9031400209
  0
LINE
  8
0
 62
7
  6
CONTINUOUS
 10
94.1092701354
 20
102.3601855713
 11
94.1092701354
 21
137.8877900465
  0
LINE
  8
0
 62
7
  6
CONTINUOUS
 10
95.5234836978
 20
99.620023458
 11
95.5234836978
 21
137.8877900466
  0
LINE
  8
0
 62
7
  6
CONTINUOUS
 10
96.0071826623
 20
91.9032727062
 11
96.0069645147
 21
96.0007409225
  0
LINE
  8
0
 62
7
  6
CONTINUOUS
 10
96.9376972602
 20
91.9032727062
 11
96.9376972602
 21
137.8877900466
  0
POLYLINE
  8
0
 62
7
  6
CONTINUOUS
 66
1
 70
0
  0
VERTEX
  8
0
 62
7
  6
CONTINUOUS
 10
71.9504513593
 20
102.2998928299
  0
VERTEX
  8
0
 62
7
  6
CONTINUOUS
 10
71.8276244322
 20
102.1247791055
  0
VERTEX
  8
0
 62
7
  6
CONTINUOUS
 10
71.7050354738
 20
101.9353949538
  0
VERTEX
  8
0
 62
7
  6
CONTINUOUS
 10
71.5881224034
 20
101.7391719269
  0
VERTEX
  8
0
 62
7
  6
CONTINUOUS
 10
71.4818531375
 20
101.5455699943
  0
SEQEND
  0
LINE
  8
0
 62
7
  6
CONTINUOUS
 10
87.8792088184
 20
141.7932637306
 11
62.5514057592
 21
116.4654606714
  0
LINE
  8
0
 62
7
  6
CONTINUOUS
 10
88.9234776797
 20
140.0091054671
 11
62.5514057592
 21
113.6370335466
  0
LINE
  8
0
 62
7
  6
CONTINUOUS
 10
90.4051905326
 20
138.6623911954
 11
62.5514057592
 21
110.8086064219
  0
LINE
  8
0
 62
7
  6
CONTINUOUS
 10
62.5514057592
 20
125.8410740537
 11
83.9737351153
 21
104.4187446976
  0
LINE
  8
0
 62
7
  6
CONTINUOUS
 10
96.0071826623
 20
92.3852971506
 11
96.4892071067
 21
91.9032727062
  0
LINE
  8
0
 62
7
  6
CONTINUOUS
 10
62.5514057592
 20
128.6695011785
 11
86.8021622514
 21
104.4187446863
  0
LINE
  8
0
 62
7
  6
CONTINUOUS
 10
96.0071826623
 20
95.2137242754
 11
99.3176342314
 21
91.9032727062
  0
LINE
  8
0
 62
7
  6
CONTINUOUS
 10
62.5514057592
 20
131.4979283032
 11
89.6305893875
 21
104.4187446749
  0
LINE
  8
0
 62
7
  6
CONTINUOUS
 10
95.8414974163
 20
98.2078366461
 11
102.1460613562
 21
91.9032727062
  0
POLYLINE
  8
0
 62
7
  6
CONTINUOUS
 66
1
 70
0
  0
VERTEX
  8
0
 62
7
  6
CONTINUOUS
 10
93.922275667
 20
102.5814965833
  0
VERTEX
  8
0
 62
7
  6
CONTINUOUS
 10
93.8365566987
 20
102.6764550507
  0
VERTEX
  8
0
 62
7
  6
CONTINUOUS
 10
93.7499790904
 20
102.7684910517
  0
SEQEND
  0
POLYLINE
  8
0
 62
7
  6
CONTINUOUS
 66
1
 70
0
  0
VERTEX
  8
0
 62
7
  6
CONTINUOUS
 10
94.1092701354
 20
102.3601855713
  0
VERTEX
  8
0
 62
7
  6
CONTINUOUS
 10
94.0159210552
 20
102.4731760013
  0
VERTEX
  8
0
 62
7
  6
CONTINUOUS
 10
93.922275667
 20
102.5814965833
  0
SEQEND
  0
POLYLINE
  8
0
 62
7
  6
CONTINUOUS
 66
1
 70
0
  0
VERTEX
  8
0
 62
7
  6
CONTINUOUS
 10
94.6869878107
 20
101.5315832997
  0
VERTEX
  8
0
 62
7
  6
CONTINUOUS
 10
94.5409684111
 20
101.7641684451
  0
VERTEX
  8
0
 62
7
  6
CONTINUOUS
 10
94.3961165768
 20
101.9786298915
  0
VERTEX
  8
0
 62
7
  6
CONTINUOUS
 10
94.2523555686
 20
102.1766349641
  0
VERTEX
  8
0
 62
7
  6
CONTINUOUS
 10
94.1092701354
 20
102.3601855713
  0
SEQEND
  0
POLYLINE
  8
0
 62
7
  6
CONTINUOUS
 66
1
 70
0
  0
VERTEX
  8
0
 62
7
  6
CONTINUOUS
 10
94.7909734224
 20
101.3542774893
  0
VERTEX
  8
0
 62
7
  6
CONTINUOUS
 10
94.7395932972
 20
101.4433006983
  0
VERTEX
  8
0
 62
7
  6
CONTINUOUS
 10
94.6869878107
 20
101.5315832997
  0
SEQEND
  0
POLYLINE
  8
0
 62
7
  6
CONTINUOUS
 66
1
 70
0
  0
VERTEX
  8
0
 62
7
  6
CONTINUOUS
 10
95.0421542748
 20
100.8729480663
  0
VERTEX
  8
0
 62
7
  6
CONTINUOUS
 10
94.9611861365
 20
101.0373009363
  0
VERTEX
  8
0
 62
7
  6
CONTINUOUS
 10
94.8774368844
 20
101.1977417903
  0
VERTEX
  8
0
 62
7
  6
CONTINUOUS
 10
94.7909734224
 20
101.3542774893
  0
SEQEND
  0
POLYLINE
  8
0
 62
7
  6
CONTINUOUS
 66
1
 70
0
  0
VERTEX
  8
0
 62
7
  6
CONTINUOUS
 10
95.4210147756
 20
99.940063927
  0
VERTEX
  8
0
 62
7
  6
CONTINUOUS
 10
95.3040115375
 20
100.2634839445
  0
VERTEX
  8
0
 62
7
  6
CONTINUOUS
 10
95.1775803253
 20
100.5744765554
  0
VERTEX
  8
0
 62
7
  6
CONTINUOUS
 10
95.0421542748
 20
100.8729480663
  0
SEQEND
  0
POLYLINE
  8
0
 62
7
  6
CONTINUOUS
 66
1
 70
0
  0
VERTEX
  8
0
 62
7
  6
CONTINUOUS
 10
95.5234836978
 20
99.620023458
  0
VERTEX
  8
0
 62
7
  6
CONTINUOUS
 10
95.4738689604
 20
99.7799406539
  0
VERTEX
  8
0
 62
7
  6
CONTINUOUS
 10
95.4210147756
 20
99.940063927
  0
SEQEND
  0
POLYLINE
  8
0
 62
7
  6
CONTINUOUS
 66
1
 70
0
  0
VERTEX
  8
0
 62
7
  6
CONTINUOUS
 10
87.3606703028
 20
143.4582163813
  0
VERTEX
  8
0
 62
7
  6
CONTINUOUS
 10
87.4528673461
 20
143.0686684157
  0
VERTEX
  8
0
 62
7
  6
CONTINUOUS
 10
87.5536519587
 20
142.7054636153
  0
VERTEX
  8
0
 62
7
  6
CONTINUOUS
 10
87.6617967448
 20
142.3664707982
  0
SEQEND
  0
POLYLINE
  8
0
 62
7
  6
CONTINUOUS
 66
1
 70
0
  0
VERTEX
  8
0
 62
7
  6
CONTINUOUS
 10
95.7437738843
 20
98.746140551
  0
VERTEX
  8
0
 62
7
  6
CONTINUOUS
 10
95.6772056924
 20
99.0464941364
  0
VERTEX
  8
0
 62
7
  6
CONTINUOUS
 10
95.6036937921
 20
99.3378025337
  0
VERTEX
  8
0
 62
7
  6
CONTINUOUS
 10
95.5234836978
 20
99.620023458
  0
SEQEND
  0
POLYLINE
  8
0
 62
7
  6
CONTINUOUS
 66
1
 70
0
  0
VERTEX
  8
0
 62
7
  6
CONTINUOUS
 10
87.2958236452
 20
143.7806843605
  0
VERTEX
  8
0
 62
7
  6
CONTINUOUS
 10
87.3276186606
 20
143.616369781
  0
VERTEX
  8
0
 62
7
  6
CONTINUOUS
 10
87.3606703028
 20
143.4582163813
  0
SEQEND
  0
POLYLINE
  8
0
 62
7
  6
CONTINUOUS
 66
1
 70
0
  0
VERTEX
  8
0
 62
7
  6
CONTINUOUS
 10
95.7869878732
 20
98.5258503646
  0
VERTEX
  8
0
 62
7
  6
CONTINUOUS
 10
95.7658090069
 20
98.6367484416
  0
VERTEX
  8
0
 62
7
  6
CONTINUOUS
 10
95.7437738843
 20
98.746140551
  0
SEQEND
  0
POLYLINE
  8
0
 62
7
  6
CONTINUOUS
 66
1
 70
0
  0
VERTEX
  8
0
 62
7
  6
CONTINUOUS
 10
87.2573021042
 20
143.9997841412
  0
VERTEX
  8
0
 62
7
  6
CONTINUOUS
 10
87.2761223475
 20
143.8896536375
  0
VERTEX
  8
0
 62
7
  6
CONTINUOUS
 10
87.2958236452
 20
143.7806843605
  0
SEQEND
  0
POLYLINE
  8
0
 62
7
  6
CONTINUOUS
 66
1
 70
0
  0
VERTEX
  8
0
 62
7
  6
CONTINUOUS
 10
95.8414974163
 20
98.2078366461
  0
VERTEX
  8
0
 62
7
  6
CONTINUOUS
 10
95.8151683347
 20
98.3680473106
  0
VERTEX
  8
0
 62
7
  6
CONTINUOUS
 10
95.7869878732
 20
98.5258503646
  0
SEQEND
  0
LINE
  8
0
 62
7
  6
CONTINUOUS
 10
98.3519108226
 20
91.9032727062
 11
98.3519108226
 21
137.8877900466
  0
LINE
  8
0
 62
7
  6
CONTINUOUS
 10
99.7661243849
 20
91.9032727062
 11
99.7661243849
 21
137.8877900466
  0
LINE
  8
0
 62
7
  6
CONTINUOUS
 10
101.1803379473
 20
91.9032727062
 11
101.1803379473
 21
137.8877900466
  0
LINE
  8
0
 62
7
  6
CONTINUOUS
 10
102.5945515097
 20
91.9032727062
 11
102.5945515097
 21
137.8877900466
  0
LINE
  8
0
 62
7
  6
CONTINUOUS
 10
104.008765072
 20
98.5416195886
 11
104.008765072
 21
137.8877900466
  0
LINE
  8
0
 62
7
  6
CONTINUOUS
 10
103.7856321161
 20
95.9205561958
 11
103.785628856
 21
91.9032727062
  0
POLYLINE
  8
0
 62
7
  6
CONTINUOUS
 66
1
 70
0
  0
VERTEX
  8
0
 62
7
  6
CONTINUOUS
 10
108.251407935
 20
144.4731913379
  0
VERTEX
  8
0
 62
7
  6
CONTINUOUS
 10
108.200127203
 20
144.2391406026
  0
VERTEX
  8
0
 62
7
  6
CONTINUOUS
 10
108.1377021089
 20
144.0002244341
  0
VERTEX
  8
0
 62
7
  6
CONTINUOUS
 10
108.0674224875
 20
143.7729457936
  0
VERTEX
  8
0
 62
7
  6
CONTINUOUS
 10
107.9895183238
 20
143.5579857087
  0
VERTEX
  8
0
 62
7
  6
CONTINUOUS
 10
107.9042250894
 20
143.3558456695
  0
VERTEX
  8
0
 62
7
  6
CONTINUOUS
 10
107.8116867915
 20
143.1667838598
  0
VERTEX
  8
0
 62
7
  6
CONTINUOUS
 10
107.7186761087
 20
143.0020624646
  0
SEQEND
  0
POLYLINE
  8
0
 62
7
  6
CONTINUOUS
 66
1
 70
0
  0
VERTEX
  8
0
 62
7
  6
CONTINUOUS
 10
107.7186761709
 20
143.002062427
  0
VERTEX
  8
0
 62
7
  6
CONTINUOUS
 10
107.6710746777
 20
142.9252825424
  0
VERTEX
  8
0
 62
7
  6
CONTINUOUS
 10
107.6129056242
 20
142.8365754466
  0
VERTEX
  8
0
 62
7
  6
CONTINUOUS
 10
107.5555547168
 20
142.7547329724
  0
VERTEX
  8
0
 62
7
  6
CONTINUOUS
 10
107.4984282498
 20
142.678806388
  0
VERTEX
  8
0
 62
7
  6
CONTINUOUS
 10
107.4409091414
 20
142.6080123781
  0
VERTEX
  8
0
 62
7
  6
CONTINUOUS
 10
107.3824895936
 20
142.5419019901
  0
VERTEX
  8
0
 62
7
  6
CONTINUOUS
 10
107.3229642065
 20
142.4805094533
  0
VERTEX
  8
0
 62
7
  6
CONTINUOUS
 10
107.2622618457
 20
142.4240678033
  0
VERTEX
  8
0
 62
7
  6
CONTINUOUS
 10
107.2004237387
 20
142.3729306545
  0
VERTEX
  8
0
 62
7
  6
CONTINUOUS
 10
107.1374746411
 20
142.3274332569
  0
VERTEX
  8
0
 62
7
  6
CONTINUOUS
 10
107.0734559323
 20
142.2879185199
  0
VERTEX
  8
0
 62
7
  6
CONTINUOUS
 10
107.009113383
 20
142.2550292252
  0
VERTEX
  8
0
 62
7
  6
CONTINUOUS
 10
106.9447229
 20
142.2288912503
  0
VERTEX
  8
0
 62
7
  6
CONTINUOUS
 10
106.8804063175
 20
142.2094072473
  0
VERTEX
  8
0
 62
7
  6
CONTINUOUS
 10
106.817019556
 20
142.1964551622
  0
VERTEX
  8
0
 62
7
  6
CONTINUOUS
 10
106.7550145968
 20
142.1894999104
  0
VERTEX
  8
0
 62
7
  6
CONTINUOUS
 10
106.7045348955
 20
142.1877900626
  0
SEQEND
  0
POLYLINE
  8
0
 62
7
  6
CONTINUOUS
 66
1
 70
0
  0
VERTEX
  8
0
 62
7
  6
CONTINUOUS
 10
72.3326344587
 20
102.7684910517
  0
VERTEX
  8
0
 62
7
  6
CONTINUOUS
 10
72.194937783
 20
102.6115161755
  0
VERTEX
  8
0
 62
7
  6
CONTINUOUS
 10
72.0663036968
 20
102.4532269035
  0
VERTEX
  8
0
 62
7
  6
CONTINUOUS
 10
71.9504513593
 20
102.2998928299
  0
SEQEND
  0
LINE
  8
0
 62
7
  6
CONTINUOUS
 10
92.4941637888
 20
137.9229373268
 11
62.5514057592
 21
107.9801792971
  0
LINE
  8
0
 62
7
  6
CONTINUOUS
 10
95.2874436333
 20
137.8877900466
 11
62.5514057592
 21
105.1517521724
  0
LINE
  8
0
 62
7
  6
CONTINUOUS
 10
98.1158707581
 20
137.8877900466
 11
62.5514057592
 21
102.3233250477
  0
LINE
  8
0
 62
7
  6
CONTINUOUS
 10
113.4597698552
 20
150.4032620189
 11
112.7171826623
 21
149.660674826
  0
LINE
  8
0
 62
7
  6
CONTINUOUS
 10
100.9442978828
 20
137.8877900466
 11
62.5514057592
 21
99.4948979229
  0
POLYLINE
  8
0
 62
7
  6
CONTINUOUS
 66
1
 70
0
  0
VERTEX
  8
0
 62
7
  6
CONTINUOUS
 10
75.7244938246
 20
138.5194700332
  0
VERTEX
  8
0
 62
7
  6
CONTINUOUS
 10
75.9269160089
 20
138.6372258367
  0
VERTEX
  8
0
 62
7
  6
CONTINUOUS
 10
76.1237690252
 20
138.7637577286
  0
VERTEX
  8
0
 62
7
  6
CONTINUOUS
 10
76.3154032053
 20
138.8991334226
  0
VERTEX
  8
0
 62
7
  6
CONTINUOUS
 10
76.5025075998
 20
139.0438119023
  0
VERTEX
  8
0
 62
7
  6
CONTINUOUS
 10
76.685328639
 20
139.1980832479
  0
VERTEX
  8
0
 62
7
  6
CONTINUOUS
 10
76.8643723521
 20
139.3625978896
  0
VERTEX
  8
0
 62
7
  6
CONTINUOUS
 10
77.0399790901
 20
139.5380436734
  0
SEQEND
  0
POLYLINE
  8
0
 62
7
  6
CONTINUOUS
 66
1
 70
0
  0
VERTEX
  8
0
 62
7
  6
CONTINUOUS
 10
75.4634587252
 20
138.3848652105
  0
VERTEX
  8
0
 62
7
  6
CONTINUOUS
 10
75.5944293857
 20
138.4500526043
  0
VERTEX
  8
0
 62
7
  6
CONTINUOUS
 10
75.7244938246
 20
138.5194700332
  0
SEQEND
  0
LINE
  8
0
 62
7
  6
CONTINUOUS
 10
62.5514057592
 20
134.326355428
 11
103.785628856
 21
93.0921323311
  0
LINE
  8
0
 62
7
  6
CONTINUOUS
 10
62.5514057592
 20
137.1547825527
 11
103.7856321161
 21
95.9205561958
  0
LINE
  8
0
 62
7
  6
CONTINUOUS
 10
64.6468254078
 20
137.8877900288
 11
104.0062847672
 21
98.5283306695
  0
LINE
  8
0
 62
7
  6
CONTINUOUS
 10
67.4752525234
 20
137.887790038
 11
104.6681379738
 21
100.6949045876
  0
POLYLINE
  8
0
 62
7
  6
CONTINUOUS
 66
1
 70
0
  0
VERTEX
  8
0
 62
7
  6
CONTINUOUS
 10
93.7499790904
 20
102.7684910517
  0
VERTEX
  8
0
 62
7
  6
CONTINUOUS
 10
93.6070137863
 20
102.9124186516
  0
VERTEX
  8
0
 62
7
  6
CONTINUOUS
 10
93.4618609935
 20
103.0489315858
  0
VERTEX
  8
0
 62
7
  6
CONTINUOUS
 10
93.3142653216
 20
103.1784975594
  0
VERTEX
  8
0
 62
7
  6
CONTINUOUS
 10
93.1639950239
 20
103.3014749855
  0
VERTEX
  8
0
 62
7
  6
CONTINUOUS
 10
93.0108663127
 20
103.4181126401
  0
VERTEX
  8
0
 62
7
  6
CONTINUOUS
 10
92.854662907
 20
103.5286170909
  0
VERTEX
  8
0
 62
7
  6
CONTINUOUS
 10
92.6950565731
 20
103.6332075266
  0
SEQEND
  0
POLYLINE
  8
0
 62
7
  6
CONTINUOUS
 66
1
 70
0
  0
VERTEX
  8
0
 62
7
  6
CONTINUOUS
 10
87.8792088184
 20
141.7932637306
  0
VERTEX
  8
0
 62
7
  6
CONTINUOUS
 10
88.0085586433
 20
141.5015044762
  0
VERTEX
  8
0
 62
7
  6
CONTINUOUS
 10
88.146227201
 20
141.2211447123
  0
VERTEX
  8
0
 62
7
  6
CONTINUOUS
 10
88.2918380958
 20
140.9522572358
  0
SEQEND
  0
POLYLINE
  8
0
 62
7
  6
CONTINUOUS
 66
1
 70
0
  0
VERTEX
  8
0
 62
7
  6
CONTINUOUS
 10
87.6617967448
 20
142.3664707982
  0
VERTEX
  8
0
 62
7
  6
CONTINUOUS
 10
87.7667520375
 20
142.074614236
  0
VERTEX
  8
0
 62
7
  6
CONTINUOUS
 10
87.8792088184
 20
141.7932637306
  0
SEQEND
  0
LINE
  8
0
 62
7
  6
CONTINUOUS
 10
105.4229786344
 20
102.0159009508
 11
105.4229786344
 21
137.8877900466
  0
LINE
  8
0
 62
7
  6
CONTINUOUS
 10
106.8371921968
 20
103.4581478985
 11
106.8371921968
 21
137.8895318618
  0
LINE
  8
0
 62
7
  6
CONTINUOUS
 10
108.2514057592
 20
104.1746248812
 11
108.2514057592
 21
138.1319098335
  0
LINE
  8
0
 62
7
  6
CONTINUOUS
 10
109.6656193215
 20
104.417002857
 11
109.6656193215
 21
138.8483868255
  0
LINE
  8
0
 62
7
  6
CONTINUOUS
 10
111.0798328839
 20
104.4187446785
 11
111.0798328839
 21
140.2906337702
  0
LINE
  8
0
 62
7
  6
CONTINUOUS
 10
108.0852767935
 20
88.371433867
 11
108.085628856
 21
95.909254751
  0
LINE
  8
SURFACE
 62
7
  6
CONTINUOUS
 10
108.4175347248
 20
153.9351008581
 11
108.4171826623
 21
146.3972799742
  0
LINE
  8
0
 62
7
  6
CONTINUOUS
 10
108.0835890469
 20
86.9287003432
 11
108.0852767935
 21
88.371433867
  0
LINE
  8
SURFACE
 62
7
  6
CONTINUOUS
 10
108.4192224714
 20
155.3778343819
 11
108.4175347248
 21
153.9351008581
  0
LINE
  8
0
 62
7
  6
CONTINUOUS
 10
108.0808639733
 20
85.6437672337
 11
108.0835890469
 21
86.9287003432
  0
LINE
  8
SURFACE
 62
7
  6
CONTINUOUS
 10
108.421947545
 20
156.6627674915
 11
108.4192224714
 21
155.3778343819
  0
LINE
  8
0
 62
7
  6
CONTINUOUS
 10
108.0762015936
 20
84.1699812983
 11
108.0808639733
 21
85.6437672337
  0
LINE
  8
SURFACE
 62
7
  6
CONTINUOUS
 10
108.4266099247
 20
158.1365534268
 11
108.421947545
 21
156.6627674915
  0
LINE
  8
SURFACE
 62
7
  6
CONTINUOUS
 10
108.4320838855
 20
159.4009836987
 11
108.4266099247
 21
158.1365534268
  0
LINE
  8
0
 62
7
  6
CONTINUOUS
 10
108.0707276329
 20
82.9055510264
 11
108.0762015936
 21
84.1699812983
  0
LINE
  8
SURFACE
 62
7
  6
CONTINUOUS
 10
108.4396485865
 20
160.7407414888
 11
108.4320838855
 21
159.4009836987
  0
LINE
  8
0
 62
7
  6
CONTINUOUS
 10
108.0631629318
 20
81.5657932363
 11
108.0707276329
 21
82.9055510264
  0
LINE
  8
SURFACE
 62
7
  6
CONTINUOUS
 10
108.4490249112
 20
162.0219456525
 11
108.4396485865
 21
160.7407414888
  0
LINE
  8
0
 62
7
  6
CONTINUOUS
 10
108.0537866071
 20
80.2845890727
 11
108.0631629318
 21
81.5657932363
  0
LINE
  8
SURFACE
 62
7
  6
CONTINUOUS
 10
108.4598695587
 20
163.1700335365
 11
108.4490249112
 21
162.0219456525
  0
LINE
  8
0
 62
7
  6
CONTINUOUS
 10
108.0429419596
 20
79.1365011887
 11
108.0537866071
 21
80.2845890727
  0
POLYLINE
  8
SURFACE
 62
7
  6
CONTINUOUS
 66
1
 70
0
  0
VERTEX
  8
SURFACE
 62
7
  6
CONTINUOUS
 10
108.4171827619
 20
146.3972799742
  0
VERTEX
  8
SURFACE
 62
7
  6
CONTINUOUS
 10
108.4132508918
 20
146.0624944531
  0
VERTEX
  8
SURFACE
 62
7
  6
CONTINUOUS
 10
108.4006967345
 20
145.7284123254
  0
VERTEX
  8
SURFACE
 62
7
  6
CONTINUOUS
 10
108.3795362916
 20
145.4102245059
  0
VERTEX
  8
SURFACE
 62
7
  6
CONTINUOUS
 10
108.3498548124
 20
145.1073258928
  0
VERTEX
  8
SURFACE
 62
7
  6
CONTINUOUS
 10
108.311743778
 20
144.8189877953
  0
VERTEX
  8
SURFACE
 62
7
  6
CONTINUOUS
 10
108.2653012658
 20
144.544625751
  0
VERTEX
  8
SURFACE
 62
7
  6
CONTINUOUS
 10
108.2514079375
 20
144.473191344
  0
SEQEND
  0
POLYLINE
  8
0
 62
7
  6
CONTINUOUS
 66
1
 70
0
  0
VERTEX
  8
0
 62
7
  6
CONTINUOUS
 10
108.0856287564
 20
95.909254751
  0
VERTEX
  8
0
 62
7
  6
CONTINUOUS
 10
108.0895606265
 20
96.2440402721
  0
VERTEX
  8
0
 62
7
  6
CONTINUOUS
 10
108.1021147838
 20
96.5781223997
  0
VERTEX
  8
0
 62
7
  6
CONTINUOUS
 10
108.1232752267
 20
96.8963102192
  0
VERTEX
  8
0
 62
7
  6
CONTINUOUS
 10
108.152956706
 20
97.1992088323
  0
VERTEX
  8
0
 62
7
  6
CONTINUOUS
 10
108.1910677403
 20
97.4875469298
  0
VERTEX
  8
0
 62
7
  6
CONTINUOUS
 10
108.2375102526
 20
97.7619089741
  0
VERTEX
  8
0
 62
7
  6
CONTINUOUS
 10
108.2514051995
 20
97.833351474
  0
SEQEND
  0
LINE
  8
SURFACE
 62
7
  6
CONTINUOUS
 10
108.4721487122
 20
164.1681163234
 11
108.4598695587
 21
163.1700335365
  0
LINE
  8
0
 62
7
  6
CONTINUOUS
 10
108.0306628061
 20
78.1384184017
 11
108.0429419596
 21
79.1365011887
  0
LINE
  8
SURFACE
 62
7
  6
CONTINUOUS
 10
108.4840248061
 20
164.9010504339
 11
108.4721487122
 21
164.1681163234
  0
LINE
  8
0
 62
7
  6
CONTINUOUS
 10
108.0187867123
 20
77.4054842912
 11
108.0306628061
 21
78.1384184017
  0
LINE
  8
SURFACE
 62
7
  6
CONTINUOUS
 10
108.4925362566
 20
165.3098066665
 11
108.4840248061
 21
164.9010504339
  0
LINE
  8
0
 62
7
  6
CONTINUOUS
 10
108.0102752617
 20
76.9967280586
 11
108.0187867123
 21
77.4054842912
  0
LINE
  8
SURFACE
 62
7
  6
CONTINUOUS
 10
108.4991544238
 20
165.5681352194
 11
108.4925362566
 21
165.3098066665
  0
LINE
  8
0
 62
7
  6
CONTINUOUS
 10
108.0036570945
 20
76.7383995057
 11
108.0102752617
 21
76.9967280586
  0
LINE
  8
SURFACE
 62
7
  6
CONTINUOUS
 10
108.5040385319
 20
165.7279646679
 11
108.4991544238
 21
165.5681352194
  0
LINE
  8
0
 62
7
  6
CONTINUOUS
 10
107.9987729865
 20
76.5785700572
 11
108.0036570945
 21
76.7383995057
  0
LINE
  8
SURFACE
 62
7
  6
CONTINUOUS
 10
108.5075376504
 20
165.8273375454
 11
108.5040385319
 21
165.7279646679
  0
LINE
  8
0
 62
7
  6
CONTINUOUS
 10
107.9952738679
 20
76.4791971797
 11
107.9987729865
 21
76.5785700572
  0
LINE
  8
SURFACE
 62
7
  6
CONTINUOUS
 10
108.5109760821
 20
165.9133393099
 11
108.5075376504
 21
165.8273375454
  0
LINE
  8
0
 62
7
  6
CONTINUOUS
 10
107.9918354362
 20
76.3931954152
 11
107.9952738679
 21
76.4791971797
  0
LINE
  8
SURFACE
 62
7
  6
CONTINUOUS
 10
108.5144524063
 20
165.9892341096
 11
108.5109760821
 21
165.9133393099
  0
LINE
  8
0
 62
7
  6
CONTINUOUS
 10
107.9883591121
 20
76.3173006155
 11
107.9918354362
 21
76.3931954152
  0
LINE
  8
SURFACE
 62
7
  6
CONTINUOUS
 10
108.5168465066
 20
166.0354670661
 11
108.5144524063
 21
165.9892341096
  0
LINE
  8
0
 62
7
  6
CONTINUOUS
 10
107.9859650117
 20
76.271067659
 11
107.9883591121
 21
76.3173006155
  0
LINE
  8
SURFACE
 62
7
  6
CONTINUOUS
 10
108.5193506455
 20
166.0789622214
 11
108.5168465066
 21
166.0354670661
  0
LINE
  8
0
 62
7
  6
CONTINUOUS
 10
107.9834608728
 20
76.2275725037
 11
107.9859650117
 21
76.271067659
  0
POLYLINE
  8
0
 62
7
  6
CONTINUOUS
 66
1
 70
0
  0
VERTEX
  8
0
 62
7
  6
CONTINUOUS
 10
103.8271531767
 20
97.1116368022
  0
VERTEX
  8
0
 62
7
  6
CONTINUOUS
 10
103.8046723571
 20
96.7361787516
  0
VERTEX
  8
0
 62
7
  6
CONTINUOUS
 10
103.790604302
 20
96.3391501278
  0
VERTEX
  8
0
 62
7
  6
CONTINUOUS
 10
103.7856321161
 20
95.9205561958
  0
SEQEND
  0
POLYLINE
  8
0
 62
7
  6
CONTINUOUS
 66
1
 70
0
  0
VERTEX
  8
0
 62
7
  6
CONTINUOUS
 10
112.6756583416
 20
145.1948979229
  0
VERTEX
  8
0
 62
7
  6
CONTINUOUS
 10
112.6981391612
 20
145.5703559735
  0
VERTEX
  8
0
 62
7
  6
CONTINUOUS
 10
112.7122072164
 20
145.9673845973
  0
VERTEX
  8
0
 62
7
  6
CONTINUOUS
 10
112.7171794022
 20
146.3859785294
  0
SEQEND
  0
POLYLINE
  8
0
 62
7
  6
CONTINUOUS
 66
1
 70
0
  0
VERTEX
  8
0
 62
7
  6
CONTINUOUS
 10
104.0051531593
 20
98.5222384518
  0
VERTEX
  8
0
 62
7
  6
CONTINUOUS
 10
103.9333197923
 20
98.0896360555
  0
VERTEX
  8
0
 62
7
  6
CONTINUOUS
 10
103.8735809236
 20
97.6233945229
  0
VERTEX
  8
0
 62
7
  6
CONTINUOUS
 10
103.8271531767
 20
97.1116368022
  0
SEQEND
  0
POLYLINE
  8
0
 62
7
  6
CONTINUOUS
 66
1
 70
0
  0
VERTEX
  8
0
 62
7
  6
CONTINUOUS
 10
112.4976583591
 20
143.7842962733
  0
VERTEX
  8
0
 62
7
  6
CONTINUOUS
 10
112.569491726
 20
144.2168986698
  0
VERTEX
  8
0
 62
7
  6
CONTINUOUS
 10
112.6292305948
 20
144.6831402024
  0
VERTEX
  8
0
 62
7
  6
CONTINUOUS
 10
112.6756583416
 20
145.1948979229
  0
SEQEND
  0
LINE
  8
0
 62
7
  6
CONTINUOUS
 10
104.008765072
 20
98.5416195886
 11
104.0051531593
 21
98.5222384518
  0
LINE
  8
0
 62
7
  6
CONTINUOUS
 10
112.4940464463
 20
143.7649151366
 11
112.4976583591
 21
143.7842962733
  0
POLYLINE
  8
0
 62
7
  6
CONTINUOUS
 66
1
 70
0
  0
VERTEX
  8
0
 62
7
  6
CONTINUOUS
 10
112.1310147833
 20
142.3664707982
  0
VERTEX
  8
0
 62
7
  6
CONTINUOUS
 10
112.2323056749
 20
142.6825954493
  0
VERTEX
  8
0
 62
7
  6
CONTINUOUS
 10
112.3271807125
 20
143.0195553437
  0
VERTEX
  8
0
 62
7
  6
CONTINUOUS
 10
112.4147578309
 20
143.3794498095
  0
VERTEX
  8
0
 62
7
  6
CONTINUOUS
 10
112.4940464463
 20
143.7649151366
  0
SEQEND
  0
POLYLINE
  8
0
 62
7
  6
CONTINUOUS
 66
1
 70
0
  0
VERTEX
  8
0
 62
7
  6
CONTINUOUS
 10
111.8346735445
 20
141.6116301376
  0
VERTEX
  8
0
 62
7
  6
CONTINUOUS
 10
111.9393659512
 20
141.855224007
  0
VERTEX
  8
0
 62
7
  6
CONTINUOUS
 10
112.0382189016
 20
142.1068466559
  0
VERTEX
  8
0
 62
7
  6
CONTINUOUS
 10
112.1310147833
 20
142.3664707982
  0
SEQEND
  0
POLYLINE
  8
0
 62
7
  6
CONTINUOUS
 66
1
 70
0
  0
VERTEX
  8
0
 62
7
  6
CONTINUOUS
 10
111.5009733466
 20
140.9522572358
  0
VERTEX
  8
0
 62
7
  6
CONTINUOUS
 10
111.6172634337
 20
141.1648869999
  0
VERTEX
  8
0
 62
7
  6
CONTINUOUS
 10
111.728556262
 20
141.384684049
  0
VERTEX
  8
0
 62
7
  6
CONTINUOUS
 10
111.8346735445
 20
141.6116301376
  0
SEQEND
  0
POLYLINE
  8
0
 62
7
  6
CONTINUOUS
 66
1
 70
0
  0
VERTEX
  8
0
 62
7
  6
CONTINUOUS
 10
111.3970151866
 20
140.7749966527
  0
VERTEX
  8
0
 62
7
  6
CONTINUOUS
 10
111.449186599
 20
140.8625407296
  0
VERTEX
  8
0
 62
7
  6
CONTINUOUS
 10
111.5009733466
 20
140.9522572358
  0
SEQEND
  0
POLYLINE
  8
0
 62
7
  6
CONTINUOUS
 66
1
 70
0
  0
VERTEX
  8
0
 62
7
  6
CONTINUOUS
 10
111.0798328839
 20
140.2906337702
  0
VERTEX
  8
0
 62
7
  6
CONTINUOUS
 10
111.2377265759
 20
140.5221062033
  0
VERTEX
  8
0
 62
7
  6
CONTINUOUS
 10
111.3970151866
 20
140.7749966527
  0
SEQEND
  0
POLYLINE
  8
0
 62
7
  6
CONTINUOUS
 66
1
 70
0
  0
VERTEX
  8
0
 62
7
  6
CONTINUOUS
 10
110.7526673538
 20
139.8652092036
  0
VERTEX
  8
0
 62
7
  6
CONTINUOUS
 10
110.8618893004
 20
139.9996756504
  0
VERTEX
  8
0
 62
7
  6
CONTINUOUS
 10
110.9715768801
 20
140.14217959
  0
VERTEX
  8
0
 62
7
  6
CONTINUOUS
 10
111.0798328839
 20
140.2906337702
  0
SEQEND
  0
POLYLINE
  8
0
 62
7
  6
CONTINUOUS
 66
1
 70
0
  0
VERTEX
  8
0
 62
7
  6
CONTINUOUS
 10
110.4599790505
 20
139.5380436734
  0
VERTEX
  8
0
 62
7
  6
CONTINUOUS
 10
110.5623442607
 20
139.6472768946
  0
VERTEX
  8
0
 62
7
  6
CONTINUOUS
 10
110.66020122
 20
139.7568287621
  0
VERTEX
  8
0
 62
7
  6
CONTINUOUS
 10
110.7526673538
 20
139.8652092036
  0
SEQEND
  0
LINE
  8
0
 62
7
  6
CONTINUOUS
 10
116.2881969799
 20
150.4032620189
 11
112.7171826623
 21
146.8322477013
  0
LINE
  8
0
 62
7
  6
CONTINUOUS
 10
103.7727250076
 20
137.8877900466
 11
62.5514057592
 21
96.6664707982
  0
LINE
  8
0
 62
7
  6
CONTINUOUS
 10
119.1166241046
 20
150.4032620189
 11
112.4976583591
 21
143.7842962733
  0
LINE
  8
0
 62
7
  6
CONTINUOUS
 10
106.6011521324
 20
137.8877900466
 11
62.5514057592
 21
93.8380436734
  0
LINE
  8
0
 62
7
  6
CONTINUOUS
 10
120.495628856
 20
148.9538396456
 11
75.9596540186
 21
104.4178648081
  0
LINE
  8
0
 62
7
  6
CONTINUOUS
 10
70.6241476028
 20
99.0823583923
 11
63.4450579596
 21
91.9032687491
  0
POLYLINE
  8
SURFACE
 62
7
  6
CONTINUOUS
 66
1
 70
0
  0
VERTEX
  8
SURFACE
 62
7
  6
CONTINUOUS
 10
139.5904341513
 20
74.4032675128
  0
VERTEX
  8
SURFACE
 62
7
  6
CONTINUOUS
 10
139.6974945106
 20
74.4064524139
  0
VERTEX
  8
SURFACE
 62
7
  6
CONTINUOUS
 10
139.8335614893
 20
74.4197534468
  0
VERTEX
  8
SURFACE
 62
7
  6
CONTINUOUS
 10
139.9667411238
 20
74.4430192539
  0
VERTEX
  8
SURFACE
 62
7
  6
CONTINUOUS
 10
140.0957338472
 20
74.4756041305
  0
VERTEX
  8
SURFACE
 62
7
  6
CONTINUOUS
 10
140.2193583112
 20
74.516646601
  0
VERTEX
  8
SURFACE
 62
7
  6
CONTINUOUS
 10
140.3365787266
 20
74.5650948098
  0
VERTEX
  8
SURFACE
 62
7
  6
CONTINUOUS
 10
140.4465302153
 20
74.6197383483
  0
VERTEX
  8
SURFACE
 62
7
  6
CONTINUOUS
 10
140.5485932367
 20
74.6792804802
  0
VERTEX
  8
SURFACE
 62
7
  6
CONTINUOUS
 10
140.6428658946
 20
74.7427370008
  0
VERTEX
  8
SURFACE
 62
7
  6
CONTINUOUS
 10
140.729807036
 20
74.8094364164
  0
VERTEX
  8
SURFACE
 62
7
  6
CONTINUOUS
 10
140.8098886399
 20
74.8788587109
  0
VERTEX
  8
SURFACE
 62
7
  6
CONTINUOUS
 10
140.883571273
 20
74.9506154327
  0
VERTEX
  8
SURFACE
 62
7
  6
CONTINUOUS
 10
140.9511576333
 20
75.0242811574
  0
VERTEX
  8
SURFACE
 62
7
  6
CONTINUOUS
 10
141.0127056007
 20
75.0991915853
  0
VERTEX
  8
SURFACE
 62
7
  6
CONTINUOUS
 10
141.0683188136
 20
75.1746817478
  0
VERTEX
  8
SURFACE
 62
7
  6
CONTINUOUS
 10
141.118164416
 20
75.2501159862
  0
VERTEX
  8
SURFACE
 62
7
  6
CONTINUOUS
 10
141.162453367
 20
75.3248722678
  0
VERTEX
  8
SURFACE
 62
7
  6
CONTINUOUS
 10
141.2013672225
 20
75.3982040134
  0
VERTEX
  8
SURFACE
 62
7
  6
CONTINUOUS
 10
141.235038325
 20
75.4691221257
  0
VERTEX
  8
SURFACE
 62
7
  6
CONTINUOUS
 10
141.2637188298
 20
75.5366907202
  0
VERTEX
  8
SURFACE
 62
7
  6
CONTINUOUS
 10
141.2878049327
 20
75.600182926
  0
VERTEX
  8
SURFACE
 62
7
  6
CONTINUOUS
 10
141.3078218753
 20
75.6592141352
  0
VERTEX
  8
SURFACE
 62
7
  6
CONTINUOUS
 10
141.3243132497
 20
75.7135911125
  0
VERTEX
  8
SURFACE
 62
7
  6
CONTINUOUS
 10
141.3378195803
 20
75.7633317323
  0
VERTEX
  8
SURFACE
 62
7
  6
CONTINUOUS
 10
141.3488405189
 20
75.8085950947
  0
VERTEX
  8
SURFACE
 62
7
  6
CONTINUOUS
 10
141.3578713714
 20
75.8498878698
  0
VERTEX
  8
SURFACE
 62
7
  6
CONTINUOUS
 10
141.3653173084
 20
75.8877339061
  0
VERTEX
  8
SURFACE
 62
7
  6
CONTINUOUS
 10
141.3714977649
 20
75.9226056192
  0
VERTEX
  8
SURFACE
 62
7
  6
CONTINUOUS
 10
141.3766321625
 20
75.9547079553
  0
VERTEX
  8
SURFACE
 62
7
  6
CONTINUOUS
 10
141.3808959606
 20
75.9841686638
  0
VERTEX
  8
SURFACE
 62
7
  6
CONTINUOUS
 10
141.3844533451
 20
76.0112276588
  0
VERTEX
  8
SURFACE
 62
7
  6
CONTINUOUS
 10
141.387454082
 20
76.0362418063
  0
VERTEX
  8
SURFACE
 62
7
  6
CONTINUOUS
 10
141.3900303846
 20
76.0596695594
  0
VERTEX
  8
SURFACE
 62
7
  6
CONTINUOUS
 10
141.3922825551
 20
76.0819139094
  0
VERTEX
  8
SURFACE
 62
7
  6
CONTINUOUS
 10
141.3942853029
 20
76.1033112762
  0
VERTEX
  8
SURFACE
 62
7
  6
CONTINUOUS
 10
141.3960943207
 20
76.1241387465
  0
VERTEX
  8
SURFACE
 62
7
  6
CONTINUOUS
 10
141.3977512473
 20
76.1446220872
  0
VERTEX
  8
SURFACE
 62
7
  6
CONTINUOUS
 10
141.3992884518
 20
76.164958519
  0
VERTEX
  8
SURFACE
 62
7
  6
CONTINUOUS
 10
141.4007327688
 20
76.1853434697
  0
VERTEX
  8
SURFACE
 62
7
  6
CONTINUOUS
 10
141.4034198634
 20
76.2268992795
  0
SEQEND
  0
POLYLINE
  8
0
 62
7
  6
CONTINUOUS
 66
1
 70
0
  0
VERTEX
  8
0
 62
7
  6
CONTINUOUS
 10
106.1704341535
 20
74.4032675127
  0
VERTEX
  8
0
 62
7
  6
CONTINUOUS
 10
106.2762333227
 20
74.4063777539
  0
VERTEX
  8
0
 62
7
  6
CONTINUOUS
 10
106.4124477719
 20
74.4196020656
  0
VERTEX
  8
0
 62
7
  6
CONTINUOUS
 10
106.5458293222
 20
74.4428246885
  0
VERTEX
  8
0
 62
7
  6
CONTINUOUS
 10
106.6750569661
 20
74.4754064225
  0
VERTEX
  8
0
 62
7
  6
CONTINUOUS
 10
106.798928058
 20
74.5164863278
  0
VERTEX
  8
0
 62
7
  6
CONTINUOUS
 10
106.9163867621
 20
74.5650074469
  0
VERTEX
  8
0
 62
7
  6
CONTINUOUS
 10
107.0265503324
 20
74.6197492153
  0
VERTEX
  8
0
 62
7
  6
CONTINUOUS
 10
107.128787983
 20
74.6794028404
  0
VERTEX
  8
0
 62
7
  6
CONTINUOUS
 10
107.2232040082
 20
74.7429804864
  0
VERTEX
  8
0
 62
7
  6
CONTINUOUS
 10
107.3102633609
 20
74.8098091991
  0
VERTEX
  8
0
 62
7
  6
CONTINUOUS
 10
107.3904433003
 20
74.8793690781
  0
VERTEX
  8
0
 62
7
  6
CONTINUOUS
 10
107.4642086459
 20
74.9512729299
  0
VERTEX
  8
0
 62
7
  6
CONTINUOUS
 10
107.5318581729
 20
75.0250890195
  0
VERTEX
  8
0
 62
7
  6
CONTINUOUS
 10
107.5934475456
 20
75.1001464304
  0
VERTEX
  8
0
 62
7
  6
CONTINUOUS
 10
107.6490810142
 20
75.1757755794
  0
VERTEX
  8
0
 62
7
  6
CONTINUOUS
 10
107.6989267211
 20
75.2513359736
  0
VERTEX
  8
0
 62
7
  6
CONTINUOUS
 10
107.7431968045
 20
75.3262001334
  0
VERTEX
  8
0
 62
7
  6
CONTINUOUS
 10
107.7820723285
 20
75.3996112131
  0
VERTEX
  8
0
 62
7
  6
CONTINUOUS
 10
107.8156921772
 20
75.4705816254
  0
VERTEX
  8
0
 62
7
  6
CONTINUOUS
 10
107.8443156872
 20
75.5381816644
  0
VERTEX
  8
0
 62
7
  6
CONTINUOUS
 10
107.8683454483
 20
75.6016939781
  0
VERTEX
  8
0
 62
7
  6
CONTINUOUS
 10
107.8883031257
 20
75.6607192003
  0
VERTEX
  8
0
 62
7
  6
CONTINUOUS
 10
107.9047305224
 20
75.7150496983
  0
VERTEX
  8
0
 62
7
  6
CONTINUOUS
 10
107.9181688997
 20
75.7646946535
  0
VERTEX
  8
0
 62
7
  6
CONTINUOUS
 10
107.9291255545
 20
75.8098341397
  0
VERTEX
  8
0
 62
7
  6
CONTINUOUS
 10
107.9381033778
 20
75.8510096695
  0
VERTEX
  8
0
 62
7
  6
CONTINUOUS
 10
107.9455090609
 20
75.8887637379
  0
VERTEX
  8
0
 62
7
  6
CONTINUOUS
 10
107.9516601743
 20
75.92357314
  0
VERTEX
  8
0
 62
7
  6
CONTINUOUS
 10
107.9567703636
 20
75.9556192038
  0
VERTEX
  8
0
 62
7
  6
CONTINUOUS
 10
107.9610136848
 20
75.9850248854
  0
VERTEX
  8
0
 62
7
  6
CONTINUOUS
 10
107.9645535874
 20
76.0120283877
  0
VERTEX
  8
0
 62
7
  6
CONTINUOUS
 10
107.9675404529
 20
76.0369959784
  0
VERTEX
  8
0
 62
7
  6
CONTINUOUS
 10
107.9701060184
 20
76.0603882463
  0
VERTEX
  8
0
 62
7
  6
CONTINUOUS
 10
107.9723498252
 20
76.0826066098
  0
VERTEX
  8
0
 62
7
  6
CONTINUOUS
 10
107.9743459807
 20
76.1039857295
  0
VERTEX
  8
0
 62
7
  6
CONTINUOUS
 10
107.9761497138
 20
76.1248009337
  0
VERTEX
  8
0
 62
7
  6
CONTINUOUS
 10
107.9778023066
 20
76.1452762748
  0
VERTEX
  8
0
 62
7
  6
CONTINUOUS
 10
107.9793360834
 20
76.165610482
  0
VERTEX
  8
0
 62
7
  6
CONTINUOUS
 10
107.9807776914
 20
76.1859984452
  0
VERTEX
  8
0
 62
7
  6
CONTINUOUS
 10
107.9834608728
 20
76.2275725037
  0
SEQEND
  0
POLYLINE
  8
0
 62
7
  6
CONTINUOUS
 66
1
 70
0
  0
VERTEX
  8
0
 62
7
  6
CONTINUOUS
 10
72.6703293178
 20
74.4032675127
  0
VERTEX
  8
0
 62
7
  6
CONTINUOUS
 10
72.7760463249
 20
74.4063729182
  0
VERTEX
  8
0
 62
7
  6
CONTINUOUS
 10
72.9121942055
 20
74.4195818885
  0
VERTEX
  8
0
 62
7
  6
CONTINUOUS
 10
73.0455140769
 20
74.442779824
  0
VERTEX
  8
0
 62
7
  6
CONTINUOUS
 10
73.1746866092
 20
74.4753288778
  0
VERTEX
  8
0
 62
7
  6
CONTINUOUS
 10
73.2985105475
 20
74.5163698213
  0
VERTEX
  8
0
 62
7
  6
CONTINUOUS
 10
73.415931093
 20
74.5648476885
  0
VERTEX
  8
0
 62
7
  6
CONTINUOUS
 10
73.5260661554
 20
74.6195441012
  0
VERTEX
  8
0
 62
7
  6
CONTINUOUS
 10
73.6282842016
 20
74.6791518986
  0
VERTEX
  8
0
 62
7
  6
CONTINUOUS
 10
73.7226865011
 20
74.7426829076
  0
VERTEX
  8
0
 62
7
  6
CONTINUOUS
 10
73.8097370282
 20
74.8094643222
  0
VERTEX
  8
0
 62
7
  6
CONTINUOUS
 10
73.8899122892
 20
74.8789762162
  0
VERTEX
  8
0
 62
7
  6
CONTINUOUS
 10
73.9636765686
 20
74.9508312688
  0
VERTEX
  8
0
 62
7
  6
CONTINUOUS
 10
74.0313302029
 20
75.0245998758
  0
VERTEX
  8
0
 62
7
  6
CONTINUOUS
 10
74.0929291991
 20
75.0996127683
  0
VERTEX
  8
0
 62
7
  6
CONTINUOUS
 10
74.1485772988
 20
75.1752012775
  0
VERTEX
  8
0
 62
7
  6
CONTINUOUS
 10
74.1984421137
 20
75.2507258601
  0
VERTEX
  8
0
 62
7
  6
CONTINUOUS
 10
74.2427352912
 20
75.3255601733
  0
VERTEX
  8
0
 62
7
  6
CONTINUOUS
 10
74.2816381235
 20
75.3989502991
  0
VERTEX
  8
0
 62
7
  6
CONTINUOUS
 10
74.3152878171
 20
75.4699086065
  0
VERTEX
  8
0
 62
7
  6
CONTINUOUS
 10
74.3439417794
 20
75.537504036
  0
VERTEX
  8
0
 62
7
  6
CONTINUOUS
 10
74.3680006945
 20
75.6010164698
  0
VERTEX
  8
0
 62
7
  6
CONTINUOUS
 10
74.3879869914
 20
75.6600499717
  0
VERTEX
  8
0
 62
7
  6
CONTINUOUS
 10
74.4044428135
 20
75.7144000816
  0
VERTEX
  8
0
 62
7
  6
CONTINUOUS
 10
74.4179092319
 20
75.7640777895
  0
VERTEX
  8
0
 62
7
  6
CONTINUOUS
 10
74.4288917026
 20
75.8092576486
  0
VERTEX
  8
0
 62
7
  6
CONTINUOUS
 10
74.4378915307
 20
75.8504730398
  0
VERTEX
  8
0
 62
7
  6
CONTINUOUS
 10
74.4453152493
 20
75.8882623264
  0
VERTEX
  8
0
 62
7
  6
CONTINUOUS
 10
74.4514810157
 20
75.9231015101
  0
VERTEX
  8
0
 62
7
  6
CONTINUOUS
 10
74.4566038426
 20
75.9551772226
  0
VERTEX
  8
0
 62
7
  6
CONTINUOUS
 10
74.4608579883
 20
75.9846121936
  0
VERTEX
  8
0
 62
7
  6
CONTINUOUS
 10
74.4644070812
 20
76.0116440469
  0
VERTEX
  8
0
 62
7
  6
CONTINUOUS
 10
74.4674014431
 20
76.036636175
  0
VERTEX
  8
0
 62
7
  6
CONTINUOUS
 10
74.4699730978
 20
76.060048768
  0
VERTEX
  8
0
 62
7
  6
CONTINUOUS
 10
74.4722219077
 20
76.0822837662
  0
VERTEX
  8
0
 62
7
  6
CONTINUOUS
 10
74.4742222339
 20
76.1036764078
  0
VERTEX
  8
0
 62
7
  6
CONTINUOUS
 10
74.4760295012
 20
76.1245025942
  0
VERTEX
  8
0
 62
7
  6
CONTINUOUS
 10
74.4776851425
 20
76.1449869189
  0
VERTEX
  8
0
 62
7
  6
CONTINUOUS
 10
74.4792215324
 20
76.165327702
  0
VERTEX
  8
0
 62
7
  6
CONTINUOUS
 10
74.4806654143
 20
76.185720165
  0
VERTEX
  8
0
 62
7
  6
CONTINUOUS
 10
74.4833524116
 20
76.2272982483
  0
SEQEND
  0
LINE
  8
SURFACE
 62
7
  6
CONTINUOUS
 10
139.5904342013
 20
74.4032673626
 11
127.0423773171
 21
74.4032673626
  0
LINE
  8
0
 62
7
  6
CONTINUOUS
 10
72.6703293637
 20
74.4032673626
 11
60.0514057592
 21
74.4032673626
  0
LINE
  8
0
 62
7
  6
CONTINUOUS
 10
93.6223773171
 20
74.4032673626
 11
106.1704342012
 21
74.4032673626
  0
POLYLINE
  8
0
 62
7
  6
CONTINUOUS
 66
1
 70
0
  0
VERTEX
  8
0
 62
7
  6
CONTINUOUS
 10
92.3467613004
 20
103.8344093414
  0
VERTEX
  8
0
 62
7
  6
CONTINUOUS
 10
92.1401341432
 20
103.9375209631
  0
VERTEX
  8
0
 62
7
  6
CONTINUOUS
 10
91.9325347176
 20
104.029774261
  0
VERTEX
  8
0
 62
7
  6
CONTINUOUS
 10
91.724405829
 20
104.1114194924
  0
VERTEX
  8
0
 62
7
  6
CONTINUOUS
 10
91.5162442277
 20
104.1827046141
  0
SEQEND
  0
POLYLINE
  8
0
 62
7
  6
CONTINUOUS
 66
1
 70
0
  0
VERTEX
  8
0
 62
7
  6
CONTINUOUS
 10
92.6950565731
 20
103.6332075266
  0
VERTEX
  8
0
 62
7
  6
CONTINUOUS
 10
92.5770976103
 20
103.7053742555
  0
VERTEX
  8
0
 62
7
  6
CONTINUOUS
 10
92.4605263644
 20
103.7725946489
  0
VERTEX
  8
0
 62
7
  6
CONTINUOUS
 10
92.3467613004
 20
103.8344093414
  0
SEQEND
  0
LINE
  8
0
 62
7
  6
CONTINUOUS
 10
70.303679639
 20
137.8877900471
 11
105.7501441646
 21
102.4413255215
  0
LINE
  8
0
 62
7
  6
CONTINUOUS
 10
73.1321067546
 20
137.8877900562
 11
107.2780687439
 21
103.741828067
  0
LINE
  8
0
 62
7
  6
CONTINUOUS
 10
75.4634587252
 20
138.3848652105
 11
109.4421625709
 21
104.4061613647
  0
POLYLINE
  8
0
 62
7
  6
CONTINUOUS
 66
1
 70
0
  0
VERTEX
  8
0
 62
7
  6
CONTINUOUS
 10
88.4524158859
 20
140.6827821364
  0
VERTEX
  8
0
 62
7
  6
CONTINUOUS
 10
88.6061195887
 20
140.4452736461
  0
VERTEX
  8
0
 62
7
  6
CONTINUOUS
 10
88.7632403509
 20
140.2207115586
  0
VERTEX
  8
0
 62
7
  6
CONTINUOUS
 10
88.9234776797
 20
140.0091054671
  0
SEQEND
  0
POLYLINE
  8
0
 62
7
  6
CONTINUOUS
 66
1
 70
0
  0
VERTEX
  8
0
 62
7
  6
CONTINUOUS
 10
88.3958237705
 20
140.774951318
  0
VERTEX
  8
0
 62
7
  6
CONTINUOUS
 10
88.4241289102
 20
140.7285263766
  0
VERTEX
  8
0
 62
7
  6
CONTINUOUS
 10
88.4524158859
 20
140.6827821364
  0
SEQEND
  0
POLYLINE
  8
0
 62
7
  6
CONTINUOUS
 66
1
 70
0
  0
VERTEX
  8
0
 62
7
  6
CONTINUOUS
 10
88.2918380958
 20
140.9522572358
  0
VERTEX
  8
0
 62
7
  6
CONTINUOUS
 10
88.3435829711
 20
140.8626121238
  0
VERTEX
  8
0
 62
7
  6
CONTINUOUS
 10
88.3958237705
 20
140.774951318
  0
SEQEND
  0
POLYLINE
  8
0
 62
7
  6
CONTINUOUS
 66
1
 70
0
  0
VERTEX
  8
0
 62
7
  6
CONTINUOUS
 10
92.0741352218
 20
143.0020627194
  0
VERTEX
  8
0
 62
7
  6
CONTINUOUS
 10
91.9769896841
 20
143.1746566758
  0
VERTEX
  8
0
 62
7
  6
CONTINUOUS
 10
91.881966352
 20
143.3704895287
  0
VERTEX
  8
0
 62
7
  6
CONTINUOUS
 10
91.7951167152
 20
143.579041039
  0
VERTEX
  8
0
 62
7
  6
CONTINUOUS
 10
91.7162285546
 20
143.8005527834
  0
VERTEX
  8
0
 62
7
  6
CONTINUOUS
 10
91.6452858171
 20
144.0351729109
  0
VERTEX
  8
0
 62
7
  6
CONTINUOUS
 10
91.5824264174
 20
144.2827587851
  0
VERTEX
  8
0
 62
7
  6
CONTINUOUS
 10
91.5277207481
 20
144.5435126949
  0
VERTEX
  8
0
 62
7
  6
CONTINUOUS
 10
91.4812400797
 20
144.8178422519
  0
VERTEX
  8
0
 62
7
  6
CONTINUOUS
 10
91.4430919485
 20
145.1061482366
  0
VERTEX
  8
0
 62
7
  6
CONTINUOUS
 10
91.413374443
 20
145.4090146033
  0
VERTEX
  8
0
 62
7
  6
CONTINUOUS
 10
91.3921791469
 20
145.7271694546
  0
VERTEX
  8
0
 62
7
  6
CONTINUOUS
 10
91.379591436
 20
146.061217534
  0
VERTEX
  8
0
 62
7
  6
CONTINUOUS
 10
91.3756287558
 20
146.3972799997
  0
SEQEND
  0
LINE
  8
0
 62
7
  6
CONTINUOUS
 10
112.4940464463
 20
104.4187446785
 11
112.4940464463
 21
143.7649151366
  0
LINE
  8
0
 62
7
  6
CONTINUOUS
 10
113.9082600087
 20
104.4187446785
 11
113.9082600087
 21
150.4032620189
  0
LINE
  8
0
 62
7
  6
CONTINUOUS
 10
115.322473571
 20
104.4187446785
 11
115.322473571
 21
150.4032620189
  0
LINE
  8
0
 62
7
  6
CONTINUOUS
 10
116.7366871334
 20
104.4187446785
 11
116.7366871334
 21
150.4032620189
  0
LINE
  8
0
 62
7
  6
CONTINUOUS
 10
118.1509006958
 20
104.4187446786
 11
118.1509006958
 21
150.4032620189
  0
LINE
  8
0
 62
7
  6
CONTINUOUS
 10
112.7171794022
 20
146.3859785294
 11
112.7171826623
 21
150.4032620189
  0
POLYLINE
  8
SURFACE
 62
7
  6
CONTINUOUS
 66
1
 70
0
  0
VERTEX
  8
SURFACE
 62
7
  6
CONTINUOUS
 10
108.2514051995
 20
97.8333514681
  0
VERTEX
  8
SURFACE
 62
7
  6
CONTINUOUS
 10
108.3026887177
 20
98.067412541
  0
VERTEX
  8
SURFACE
 62
7
  6
CONTINUOUS
 10
108.3651136431
 20
98.3063251643
  0
VERTEX
  8
SURFACE
 62
7
  6
CONTINUOUS
 10
108.4353928806
 20
98.5336004194
  0
VERTEX
  8
SURFACE
 62
7
  6
CONTINUOUS
 10
108.513296438
 20
98.748557305
  0
VERTEX
  8
SURFACE
 62
7
  6
CONTINUOUS
 10
108.598588837
 20
98.9506943529
  0
VERTEX
  8
SURFACE
 62
7
  6
CONTINUOUS
 10
108.6911260577
 20
99.139753391
  0
VERTEX
  8
SURFACE
 62
7
  6
CONTINUOUS
 10
108.7841354096
 20
99.3044722605
  0
SEQEND
  0
POLYLINE
  8
0
 62
7
  6
CONTINUOUS
 66
1
 70
0
  0
VERTEX
  8
0
 62
7
  6
CONTINUOUS
 10
104.371796735
 20
99.940063927
  0
VERTEX
  8
0
 62
7
  6
CONTINUOUS
 10
104.2705058433
 20
99.6239392753
  0
VERTEX
  8
0
 62
7
  6
CONTINUOUS
 10
104.1756308057
 20
99.2869793808
  0
VERTEX
  8
0
 62
7
  6
CONTINUOUS
 10
104.0880536873
 20
98.927084915
  0
VERTEX
  8
0
 62
7
  6
CONTINUOUS
 10
104.008765072
 20
98.5416195886
  0
SEQEND
  0
POLYLINE
  8
0
 62
7
  6
CONTINUOUS
 66
1
 70
0
  0
VERTEX
  8
0
 62
7
  6
CONTINUOUS
 10
104.6681379738
 20
100.6949045876
  0
VERTEX
  8
0
 62
7
  6
CONTINUOUS
 10
104.5634455666
 20
100.4513107167
  0
VERTEX
  8
0
 62
7
  6
CONTINUOUS
 10
104.4645926167
 20
100.1996880692
  0
VERTEX
  8
0
 62
7
  6
CONTINUOUS
 10
104.371796735
 20
99.940063927
  0
SEQEND
  0
LINE
  8
0
 62
7
  6
CONTINUOUS
 10
120.4975621143
 20
146.1273457791
 11
78.7889610537
 21
104.4187447185
  0
LINE
  8
0
 62
7
  6
CONTINUOUS
 10
70.2856171206
 20
95.9154007854
 11
66.27348624
 21
91.9032699048
  0
LINE
  8
0
 62
7
  6
CONTINUOUS
 10
120.7590376341
 20
143.5603941741
 11
81.6173881671
 21
104.4187447071
  0
LINE
  8
0
 62
7
  6
CONTINUOUS
 10
70.285616179
 20
93.086972719
 11
69.1019145204
 21
91.9032710604
  0
LINE
  8
0
 62
7
  6
CONTINUOUS
 10
121.4606572436
 20
141.4335866588
 11
84.4458152805
 21
104.4187446958
  0
LINE
  8
0
 62
7
  6
CONTINUOUS
 10
122.5805358513
 20
139.7250381418
 11
87.2742423939
 21
104.4187446844
  0
POLYLINE
  8
0
 62
7
  6
CONTINUOUS
 66
1
 70
0
  0
VERTEX
  8
0
 62
7
  6
CONTINUOUS
 10
72.8960666998
 20
103.3015351753
  0
VERTEX
  8
0
 62
7
  6
CONTINUOUS
 10
72.7494153739
 20
103.1776553854
  0
VERTEX
  8
0
 62
7
  6
CONTINUOUS
 10
72.6068093993
 20
103.0477566372
  0
VERTEX
  8
0
 62
7
  6
CONTINUOUS
 10
72.4678819661
 20
102.9114198823
  0
VERTEX
  8
0
 62
7
  6
CONTINUOUS
 10
72.3326344587
 20
102.7684910517
  0
SEQEND
  0
POLYLINE
  8
0
 62
7
  6
CONTINUOUS
 66
1
 70
0
  0
VERTEX
  8
0
 62
7
  6
CONTINUOUS
 10
109.6656193215
 20
138.8483868255
  0
VERTEX
  8
0
 62
7
  6
CONTINUOUS
 10
109.830670032
 20
138.9711949462
  0
VERTEX
  8
0
 62
7
  6
CONTINUOUS
 10
109.9924310405
 20
139.1012521717
  0
VERTEX
  8
0
 62
7
  6
CONTINUOUS
 10
110.1509975629
 20
139.2387378188
  0
VERTEX
  8
0
 62
7
  6
CONTINUOUS
 10
110.3067811235
 20
139.384183248
  0
VERTEX
  8
0
 62
7
  6
CONTINUOUS
 10
110.4599790505
 20
139.5380436734
  0
SEQEND
  0
POLYLINE
  8
0
 62
7
  6
CONTINUOUS
 66
1
 70
0
  0
VERTEX
  8
0
 62
7
  6
CONTINUOUS
 10
109.2247427797
 20
138.5647066529
  0
VERTEX
  8
0
 62
7
  6
CONTINUOUS
 10
109.4464122183
 20
138.6996466327
  0
VERTEX
  8
0
 62
7
  6
CONTINUOUS
 10
109.6656193215
 20
138.8483868255
  0
SEQEND
  0
POLYLINE
  8
0
 62
7
  6
CONTINUOUS
 66
1
 70
0
  0
VERTEX
  8
0
 62
7
  6
CONTINUOUS
 10
74.8062441756
 20
138.123830111
  0
VERTEX
  8
0
 62
7
  6
CONTINUOUS
 10
74.9775329648
 20
138.1817444046
  0
VERTEX
  8
0
 62
7
  6
CONTINUOUS
 10
75.1460926321
 20
138.2455400034
  0
VERTEX
  8
0
 62
7
  6
CONTINUOUS
 10
75.3088793981
 20
138.3137883201
  0
VERTEX
  8
0
 62
7
  6
CONTINUOUS
 10
75.4634587252
 20
138.3848652105
  0
SEQEND
  0
LINE
  8
0
 62
7
  6
CONTINUOUS
 10
77.0880624006
 20
139.5886886598
 11
112.2580063818
 21
104.4187446785
  0
LINE
  8
0
 62
7
  6
CONTINUOUS
 10
78.2460507679
 20
141.2591274172
 11
115.0864335066
 21
104.4187446785
  0
LINE
  8
0
 62
7
  6
CONTINUOUS
 10
78.9872643104
 20
143.3463409995
 11
117.9148606313
 21
104.4187446786
  0
LINE
  8
0
 62
7
  6
CONTINUOUS
 10
129.4271826623
 20
92.9064226476
 11
130.4303325457
 21
91.9032727642
  0
LINE
  8
0
 62
7
  6
CONTINUOUS
 10
79.2897013801
 20
145.8723310545
 11
120.743287756
 21
104.4187446786
  0
LINE
  8
0
 62
7
  6
CONTINUOUS
 10
129.4271826623
 20
95.7348497723
 11
133.25875951
 21
91.9032729246
  0
POLYLINE
  8
0
 62
7
  6
CONTINUOUS
 66
1
 70
0
  0
VERTEX
  8
0
 62
7
  6
CONTINUOUS
 10
88.9234776797
 20
140.0091054671
  0
VERTEX
  8
0
 62
7
  6
CONTINUOUS
 10
89.0485874344
 20
139.8551098537
  0
VERTEX
  8
0
 62
7
  6
CONTINUOUS
 10
89.1869849377
 20
139.6953200728
  0
VERTEX
  8
0
 62
7
  6
CONTINUOUS
 10
89.3328324216
 20
139.5380436734
  0
SEQEND
  0
POLYLINE
  8
SURFACE
 62
7
  6
CONTINUOUS
 66
1
 70
0
  0
VERTEX
  8
SURFACE
 62
7
  6
CONTINUOUS
 10
124.4286762965
 20
99.3044720058
  0
VERTEX
  8
SURFACE
 62
7
  6
CONTINUOUS
 10
124.5258218343
 20
99.1318780493
  0
VERTEX
  8
SURFACE
 62
7
  6
CONTINUOUS
 10
124.6208451663
 20
98.9360451964
  0
VERTEX
  8
SURFACE
 62
7
  6
CONTINUOUS
 10
124.7076948032
 20
98.7274936861
  0
VERTEX
  8
SURFACE
 62
7
  6
CONTINUOUS
 10
124.7865829637
 20
98.5059819418
  0
VERTEX
  8
SURFACE
 62
7
  6
CONTINUOUS
 10
124.8575257012
 20
98.2713618143
  0
VERTEX
  8
SURFACE
 62
7
  6
CONTINUOUS
 10
124.9203851009
 20
98.02377594
  0
VERTEX
  8
SURFACE
 62
7
  6
CONTINUOUS
 10
124.9750907702
 20
97.7630220302
  0
VERTEX
  8
SURFACE
 62
7
  6
CONTINUOUS
 10
125.0215714386
 20
97.4886924732
  0
VERTEX
  8
SURFACE
 62
7
  6
CONTINUOUS
 10
125.0597195698
 20
97.2003864885
  0
VERTEX
  8
SURFACE
 62
7
  6
CONTINUOUS
 10
125.0894370753
 20
96.8975201218
  0
VERTEX
  8
SURFACE
 62
7
  6
CONTINUOUS
 10
125.1106323714
 20
96.5793652706
  0
VERTEX
  8
SURFACE
 62
7
  6
CONTINUOUS
 10
125.1232200823
 20
96.2453171911
  0
VERTEX
  8
SURFACE
 62
7
  6
CONTINUOUS
 10
125.1271827626
 20
95.9092547254
  0
SEQEND
  0
POLYLINE
  8
0
 62
7
  6
CONTINUOUS
 66
1
 70
0
  0
VERTEX
  8
0
 62
7
  6
CONTINUOUS
 10
120.5371531697
 20
145.1948979229
  0
VERTEX
  8
0
 62
7
  6
CONTINUOUS
 10
120.5708169364
 20
144.8046602383
  0
VERTEX
  8
0
 62
7
  6
CONTINUOUS
 10
120.6124825608
 20
144.4405284669
  0
VERTEX
  8
0
 62
7
  6
CONTINUOUS
 10
120.661314102
 20
144.098698079
  0
SEQEND
  0
POLYLINE
  8
SURFACE
 62
7
  6
CONTINUOUS
 66
1
 70
0
  0
VERTEX
  8
SURFACE
 62
7
  6
CONTINUOUS
 10
125.2308223939
 20
76.2041595931
  0
VERTEX
  8
SURFACE
 62
7
  6
CONTINUOUS
 10
125.2325324063
 20
76.178801133
  0
VERTEX
  8
SURFACE
 62
7
  6
CONTINUOUS
 10
125.2343160434
 20
76.1542999531
  0
VERTEX
  8
SURFACE
 62
7
  6
CONTINUOUS
 10
125.2362031517
 20
76.130342454
  0
VERTEX
  8
SURFACE
 62
7
  6
CONTINUOUS
 10
125.2382350348
 20
76.1065626097
  0
VERTEX
  8
SURFACE
 62
7
  6
CONTINUOUS
 10
125.2404661088
 20
76.0825610873
  0
VERTEX
  8
SURFACE
 62
7
  6
CONTINUOUS
 10
125.2429626937
 20
76.0579519405
  0
VERTEX
  8
SURFACE
 62
7
  6
CONTINUOUS
 10
125.2458079974
 20
76.0323404089
  0
VERTEX
  8
SURFACE
 62
7
  6
CONTINUOUS
 10
125.2491112012
 20
76.0052835278
  0
VERTEX
  8
SURFACE
 62
7
  6
CONTINUOUS
 10
125.2530134557
 20
75.9763010831
  0
VERTEX
  8
SURFACE
 62
7
  6
CONTINUOUS
 10
125.2576945005
 20
75.9448899018
  0
VERTEX
  8
SURFACE
 62
7
  6
CONTINUOUS
 10
125.263380569
 20
75.9105360087
  0
VERTEX
  8
SURFACE
 62
7
  6
CONTINUOUS
 10
125.2702706779
 20
75.8731518093
  0
VERTEX
  8
SURFACE
 62
7
  6
CONTINUOUS
 10
125.2784793196
 20
75.8331765161
  0
VERTEX
  8
SURFACE
 62
7
  6
CONTINUOUS
 10
125.2880381828
 20
75.7913146329
  0
VERTEX
  8
SURFACE
 62
7
  6
CONTINUOUS
 10
125.2992393019
 20
75.7470901779
  0
VERTEX
  8
SURFACE
 62
7
  6
CONTINUOUS
 10
125.3127655432
 20
75.6989271696
  0
VERTEX
  8
SURFACE
 62
7
  6
CONTINUOUS
 10
125.3296333897
 20
75.6449147985
  0
VERTEX
  8
SURFACE
 62
7
  6
CONTINUOUS
 10
125.3507643334
 20
75.5843397854
  0
VERTEX
  8
SURFACE
 62
7
  6
CONTINUOUS
 10
125.3766933696
 20
75.518028536
  0
VERTEX
  8
SURFACE
 62
7
  6
CONTINUOUS
 10
125.4077636056
 20
75.4472379948
  0
VERTEX
  8
SURFACE
 62
7
  6
CONTINUOUS
 10
125.4443291025
 20
75.3730104129
  0
VERTEX
  8
SURFACE
 62
7
  6
CONTINUOUS
 10
125.4867706345
 20
75.2962037218
  0
VERTEX
  8
SURFACE
 62
7
  6
CONTINUOUS
 10
125.5353734006
 20
75.2177462516
  0
VERTEX
  8
SURFACE
 62
7
  6
CONTINUOUS
 10
125.5903721783
 20
75.1385285653
  0
VERTEX
  8
SURFACE
 62
7
  6
CONTINUOUS
 10
125.6519362214
 20
75.0594271545
  0
VERTEX
  8
SURFACE
 62
7
  6
CONTINUOUS
 10
125.7201391714
 20
74.981333308
  0
VERTEX
  8
SURFACE
 62
7
  6
CONTINUOUS
 10
125.7949403421
 20
74.9051515644
  0
VERTEX
  8
SURFACE
 62
7
  6
CONTINUOUS
 10
125.8764826047
 20
74.8315223038
  0
VERTEX
  8
SURFACE
 62
7
  6
CONTINUOUS
 10
125.9653683391
 20
74.7607490696
  0
VERTEX
  8
SURFACE
 62
7
  6
CONTINUOUS
 10
126.0622855466
 20
74.6932810136
  0
VERTEX
  8
SURFACE
 62
7
  6
CONTINUOUS
 10
126.1679433728
 20
74.6297830007
  0
VERTEX
  8
SURFACE
 62
7
  6
CONTINUOUS
 10
126.2826385553
 20
74.5713507297
  0
VERTEX
  8
SURFACE
 62
7
  6
CONTINUOUS
 10
126.4052854425
 20
74.5197128854
  0
VERTEX
  8
SURFACE
 62
7
  6
CONTINUOUS
 10
126.5342767539
 20
74.4764252972
  0
VERTEX
  8
SURFACE
 62
7
  6
CONTINUOUS
 10
126.6677532458
 20
74.4426605428
  0
VERTEX
  8
SURFACE
 62
7
  6
CONTINUOUS
 10
126.8036728507
 20
74.4191564541
  0
VERTEX
  8
SURFACE
 62
7
  6
CONTINUOUS
 10
126.9398866452
 20
74.406186119
  0
VERTEX
  8
SURFACE
 62
7
  6
CONTINUOUS
 10
127.0423773634
 20
74.4032675127
  0
SEQEND
  0
LINE
  8
SURFACE
 62
7
  6
CONTINUOUS
 10
125.2275493577
 20
76.2583747303
 11
125.2308223939
 21
76.2041595931
  0
LINE
  8
SURFACE
 62
7
  6
CONTINUOUS
 10
125.2243848402
 20
76.3186747561
 11
125.2275493577
 21
76.2583747303
  0
LINE
  8
SURFACE
 62
7
  6
CONTINUOUS
 10
125.2212463799
 20
76.3869053863
 11
125.2243848402
 21
76.3186747561
  0
LINE
  8
SURFACE
 62
7
  6
CONTINUOUS
 10
125.2180760072
 20
76.4649853747
 11
125.2212463799
 21
76.3869053863
  0
LINE
  8
SURFACE
 62
7
  6
CONTINUOUS
 10
125.2131111504
 20
76.6069890787
 11
125.2180760072
 21
76.4649853747
  0
POLYLINE
  8
0
 62
7
  6
CONTINUOUS
 66
1
 70
0
  0
VERTEX
  8
0
 62
7
  6
CONTINUOUS
 10
120.4975621143
 20
146.1273457791
  0
VERTEX
  8
0
 62
7
  6
CONTINUOUS
 10
120.5111966559
 20
145.6472355178
  0
VERTEX
  8
0
 62
7
  6
CONTINUOUS
 10
120.5371531697
 20
145.1948979229
  0
SEQEND
  0
LINE
  8
SURFACE
 62
7
  6
CONTINUOUS
 10
125.2077653703
 20
76.7885363681
 11
125.2131111504
 21
76.6069890787
  0
LINE
  8
SURFACE
 62
7
  6
CONTINUOUS
 10
124.7187670172
 20
165.3730736489
 11
124.7132270888
 21
165.5832283313
  0
LINE
  8
SURFACE
 62
7
  6
CONTINUOUS
 10
125.20022936
 20
77.0986959229
 11
125.2077653703
 21
76.7885363681
  0
LINE
  8
SURFACE
 62
7
  6
CONTINUOUS
 10
124.7264741508
 20
165.0210917884
 11
124.7187670172
 21
165.3730736489
  0
LINE
  8
SURFACE
 62
7
  6
CONTINUOUS
 10
125.1923882869
 20
77.4946704763
 11
125.20022936
 21
77.0986959229
  0
LINE
  8
SURFACE
 62
7
  6
CONTINUOUS
 10
124.7344103638
 20
164.5792964539
 11
124.7264741508
 21
165.0210917884
  0
LINE
  8
SURFACE
 62
7
  6
CONTINUOUS
 10
125.184381925
 20
77.9847416025
 11
125.1923882869
 21
77.4946704763
  0
LINE
  8
SURFACE
 62
7
  6
CONTINUOUS
 10
124.7424773287
 20
164.0373956487
 11
124.7344103638
 21
164.5792964539
  0
LINE
  8
SURFACE
 62
7
  6
CONTINUOUS
 10
125.1762642479
 20
78.5824929915
 11
125.184381925
 21
77.9847416025
  0
LINE
  8
SURFACE
 62
7
  6
CONTINUOUS
 10
124.7506302821
 20
163.379575785
 11
124.7424773287
 21
164.0373956487
  0
LINE
  8
SURFACE
 62
7
  6
CONTINUOUS
 10
125.168094221
 20
79.3050709254
 11
125.1762642479
 21
78.5824929915
  0
LINE
  8
SURFACE
 62
7
  6
CONTINUOUS
 10
124.7587972712
 20
162.5868572608
 11
124.7506302821
 21
163.379575785
  0
LINE
  8
SURFACE
 62
7
  6
CONTINUOUS
 10
125.1599567371
 20
80.1737765027
 11
125.168094221
 21
79.3050709254
  0
LINE
  8
SURFACE
 62
7
  6
CONTINUOUS
 10
124.7668746415
 20
161.6353814259
 11
124.7587972712
 21
162.5868572608
  0
LINE
  8
SURFACE
 62
7
  6
CONTINUOUS
 10
125.1539400884
 20
80.9383466837
 11
125.1599567371
 21
80.1737765027
  0
POLYLINE
  8
0
 62
7
  6
CONTINUOUS
 66
1
 70
0
  0
VERTEX
  8
0
 62
7
  6
CONTINUOUS
 10
120.4958470036
 20
146.3057938026
  0
VERTEX
  8
0
 62
7
  6
CONTINUOUS
 10
120.4964949161
 20
146.2158444032
  0
VERTEX
  8
0
 62
7
  6
CONTINUOUS
 10
120.4975621143
 20
146.1273457791
  0
SEQEND
  0
LINE
  8
SURFACE
 62
7
  6
CONTINUOUS
 10
124.7728380087
 20
160.7910644913
 11
124.7668746415
 21
161.6353814259
  0
LINE
  8
SURFACE
 62
7
  6
CONTINUOUS
 10
125.1480069808
 20
81.8279381823
 11
125.1539400884
 21
80.9383466837
  0
LINE
  8
SURFACE
 62
7
  6
CONTINUOUS
 10
124.7787157305
 20
159.7934521301
 11
124.7728380087
 21
160.7910644913
  0
LINE
  8
SURFACE
 62
7
  6
CONTINUOUS
 10
125.14214582
 20
82.892994685
 11
125.1480069808
 21
81.8279381823
  0
LINE
  8
SURFACE
 62
7
  6
CONTINUOUS
 10
124.7825989381
 20
159.0055566034
 11
124.7787157305
 21
159.7934521301
  0
LINE
  8
SURFACE
 62
7
  6
CONTINUOUS
 10
125.1383184938
 20
83.7374570812
 11
125.14214582
 21
82.892994685
  0
LINE
  8
SURFACE
 62
7
  6
CONTINUOUS
 10
124.7863254198
 20
158.1035230975
 11
124.7825989381
 21
159.0055566034
  0
LINE
  8
SURFACE
 62
7
  6
CONTINUOUS
 10
125.1347329833
 20
84.7000372113
 11
125.1383184938
 21
83.7374570812
  0
LINE
  8
SURFACE
 62
7
  6
CONTINUOUS
 10
124.7897318235
 20
157.075141646
 11
124.7863254198
 21
158.1035230975
  0
LINE
  8
SURFACE
 62
7
  6
CONTINUOUS
 10
125.131556047
 20
85.7984076745
 11
125.1347329833
 21
84.7000372113
  0
LINE
  8
SURFACE
 62
7
  6
CONTINUOUS
 10
124.7925938888
 20
155.9151318716
 11
124.7897318235
 21
157.075141646
  0
LINE
  8
SURFACE
 62
7
  6
CONTINUOUS
 10
125.129112913
 20
86.995495877
 11
125.131556047
 21
85.7984076745
  0
LINE
  8
SURFACE
 62
7
  6
CONTINUOUS
 10
124.7945486571
 20
154.7078002647
 11
124.7925938888
 21
155.9151318716
  0
LINE
  8
SURFACE
 62
7
  6
CONTINUOUS
 10
125.1276605069
 20
88.2014887425
 11
125.129112913
 21
86.995495877
  0
LINE
  8
SURFACE
 62
7
  6
CONTINUOUS
 10
124.7955113438
 20
153.499701261
 11
124.7945486571
 21
154.7078002647
  0
LINE
  8
SURFACE
 62
7
  6
CONTINUOUS
 10
125.1271826624
 20
89.4032673626
 11
125.1276605069
 21
88.2014887425
  0
LINE
  8
0
 62
7
  6
CONTINUOUS
 10
119.5651142581
 20
104.4187446786
 11
119.5651142581
 21
150.4032620189
  0
LINE
  8
0
 62
7
  6
CONTINUOUS
 10
120.4958470036
 20
146.3057938026
 11
120.495628856
 21
150.4032620189
  0
LINE
  8
0
 62
7
  6
CONTINUOUS
 10
120.9793278205
 20
104.4187446786
 11
120.9793278205
 21
142.6865112671
  0
LINE
  8
0
 62
7
  6
CONTINUOUS
 10
122.3935413829
 20
104.4187446786
 11
122.3935413829
 21
139.9463491539
  0
LINE
  8
0
 62
7
  6
CONTINUOUS
 10
123.8077549453
 20
104.4033947042
 11
123.8077549453
 21
138.6733271985
  0
LINE
  8
SURFACE
 62
7
  6
CONTINUOUS
 10
124.795628856
 20
146.3972799804
 11
124.7955113438
 21
153.499701261
  0
LINE
  8
SURFACE
 62
7
  6
CONTINUOUS
 10
125.1271826623
 20
95.9092547254
 11
125.1271826623
 21
89.4032673626
  0
LINE
  8
0
 62
7
  6
CONTINUOUS
 10
125.2219685076
 20
104.0822290404
 11
125.2219685076
 21
138.0552012294
  0
POLYLINE
  8
0
 62
7
  6
CONTINUOUS
 66
1
 70
0
  0
VERTEX
  8
0
 62
7
  6
CONTINUOUS
 10
105.0018381717
 20
101.3542774893
  0
VERTEX
  8
0
 62
7
  6
CONTINUOUS
 10
104.8855480725
 20
101.1416477022
  0
VERTEX
  8
0
 62
7
  6
CONTINUOUS
 10
104.7742552572
 20
100.9218506779
  0
VERTEX
  8
0
 62
7
  6
CONTINUOUS
 10
104.6681379738
 20
100.6949045876
  0
SEQEND
  0
POLYLINE
  8
0
 62
7
  6
CONTINUOUS
 66
1
 70
0
  0
VERTEX
  8
0
 62
7
  6
CONTINUOUS
 10
105.1057965257
 20
101.5315383962
  0
VERTEX
  8
0
 62
7
  6
CONTINUOUS
 10
105.0536249925
 20
101.4439941203
  0
VERTEX
  8
0
 62
7
  6
CONTINUOUS
 10
105.0018381717
 20
101.3542774893
  0
SEQEND
  0
POLYLINE
  8
0
 62
7
  6
CONTINUOUS
 66
1
 70
0
  0
VERTEX
  8
0
 62
7
  6
CONTINUOUS
 10
105.4229786344
 20
102.0159009508
  0
VERTEX
  8
0
 62
7
  6
CONTINUOUS
 10
105.2650849657
 20
101.7844285501
  0
VERTEX
  8
0
 62
7
  6
CONTINUOUS
 10
105.1057965257
 20
101.5315383962
  0
SEQEND
  0
LINE
  8
0
 62
7
  6
CONTINUOUS
 10
124.156050218
 20
138.4721253837
 11
90.1015364731
 21
104.4176116388
  0
LINE
  8
0
 62
7
  6
CONTINUOUS
 10
92.3467613004
 20
103.8344093414
 11
126.4012750453
 21
137.8889230863
  0
LINE
  8
0
 62
7
  6
CONTINUOUS
 10
93.922275667
 20
102.5814965833
 11
129.2285691245
 21
137.8877900407
  0
POLYLINE
  8
0
 62
7
  6
CONTINUOUS
 66
1
 70
0
  0
VERTEX
  8
0
 62
7
  6
CONTINUOUS
 10
73.4101834357
 20
103.6685878782
  0
VERTEX
  8
0
 62
7
  6
CONTINUOUS
 10
73.279073087
 20
103.584074161
  0
VERTEX
  8
0
 62
7
  6
CONTINUOUS
 10
73.1486718318
 20
103.4940876876
  0
VERTEX
  8
0
 62
7
  6
CONTINUOUS
 10
73.0204640725
 20
103.3994962712
  0
VERTEX
  8
0
 62
7
  6
CONTINUOUS
 10
72.8960666998
 20
103.3015351753
  0
SEQEND
  0
POLYLINE
  8
0
 62
7
  6
CONTINUOUS
 66
1
 70
0
  0
VERTEX
  8
0
 62
7
  6
CONTINUOUS
 10
108.2514057592
 20
138.1319098335
  0
VERTEX
  8
0
 62
7
  6
CONTINUOUS
 10
108.4535999847
 20
138.2022040044
  0
VERTEX
  8
0
 62
7
  6
CONTINUOUS
 10
108.6586313538
 20
138.2835204578
  0
VERTEX
  8
0
 62
7
  6
CONTINUOUS
 10
108.859416308
 20
138.3733994429
  0
VERTEX
  8
0
 62
7
  6
CONTINUOUS
 10
109.049985861
 20
138.4685590589
  0
VERTEX
  8
0
 62
7
  6
CONTINUOUS
 10
109.2247427797
 20
138.5647066529
  0
SEQEND
  0
LINE
  8
0
 62
7
  6
CONTINUOUS
 10
108.2262442613
 20
138.123830111
 11
108.2514057592
 21
138.1319098335
  0
LINE
  8
DEFAULT_1
 62
2
  6
CENTER
 10
56.2514057592
 20
89.4032673626
 11
154.9439277899
 21
89.4032673626
  0
LINE
  8
0
 62
7
  6
CONTINUOUS
 10
96.0071826623
 20
91.9032727062
 11
103.785628856
 21
91.9032727062
  0
LINE
  8
0
 62
7
  6
CONTINUOUS
 10
129.4271826623
 20
91.9032727073
 11
137.205628856
 21
91.9032731484
  0
LINE
  8
0
 62
7
  6
CONTINUOUS
 10
62.5514057592
 20
91.903268384
 11
70.285616179
 21
91.9032715441
  0
LINE
  8
0
 62
7
  6
CONTINUOUS
 10
62.5514057592
 20
92.8689961151
 11
70.285616179
 21
92.8689961151
  0
LINE
  8
0
 62
7
  6
CONTINUOUS
 10
96.0071826623
 20
92.8689961151
 11
103.785628856
 21
92.8689961151
  0
LINE
  8
0
 62
7
  6
CONTINUOUS
 10
129.4271826623
 20
92.8689961151
 11
137.205628856
 21
92.8689961151
  0
POLYLINE
  8
0
 62
7
  6
CONTINUOUS
 66
1
 70
0
  0
VERTEX
  8
0
 62
7
  6
CONTINUOUS
 10
91.2808430107
 20
104.2513334957
  0
VERTEX
  8
0
 62
7
  6
CONTINUOUS
 10
91.053716622
 20
104.3059340759
  0
VERTEX
  8
0
 62
7
  6
CONTINUOUS
 10
90.8211322533
 20
104.3504063663
  0
VERTEX
  8
0
 62
7
  6
CONTINUOUS
 10
90.5842481104
 20
104.3841186107
  0
VERTEX
  8
0
 62
7
  6
CONTINUOUS
 10
90.343939901
 20
104.406632129
  0
VERTEX
  8
0
 62
7
  6
CONTINUOUS
 10
90.1015364731
 20
104.4176116388
  0
SEQEND
  0
POLYLINE
  8
0
 62
7
  6
CONTINUOUS
 66
1
 70
0
  0
VERTEX
  8
0
 62
7
  6
CONTINUOUS
 10
91.5162442277
 20
104.1827046141
  0
VERTEX
  8
0
 62
7
  6
CONTINUOUS
 10
91.3994644802
 20
104.2183108206
  0
VERTEX
  8
0
 62
7
  6
CONTINUOUS
 10
91.2808430107
 20
104.2513334957
  0
SEQEND
  0
POLYLINE
  8
0
 62
7
  6
CONTINUOUS
 66
1
 70
0
  0
VERTEX
  8
0
 62
7
  6
CONTINUOUS
 10
126.0976209857
 20
103.6441435298
  0
VERTEX
  8
0
 62
7
  6
CONTINUOUS
 10
125.962122215
 20
103.7259635048
  0
VERTEX
  8
0
 62
7
  6
CONTINUOUS
 10
125.8216981813
 20
103.805017732
  0
VERTEX
  8
0
 62
7
  6
CONTINUOUS
 10
125.676863659
 20
103.880694976
  0
VERTEX
  8
0
 62
7
  6
CONTINUOUS
 10
125.5282033016
 20
103.9524347666
  0
VERTEX
  8
0
 62
7
  6
CONTINUOUS
 10
125.3763249161
 20
104.0197602286
  0
VERTEX
  8
0
 62
7
  6
CONTINUOUS
 10
125.2219685076
 20
104.0822290404
  0
SEQEND
  0
POLYLINE
  8
0
 62
7
  6
CONTINUOUS
 66
1
 70
0
  0
VERTEX
  8
0
 62
7
  6
CONTINUOUS
 10
126.63618207
 20
103.2597512805
  0
VERTEX
  8
0
 62
7
  6
CONTINUOUS
 10
126.5050995031
 20
103.3626283405
  0
VERTEX
  8
0
 62
7
  6
CONTINUOUS
 10
126.3699662124
 20
103.4621850063
  0
VERTEX
  8
0
 62
7
  6
CONTINUOUS
 10
126.2332272355
 20
103.5565589409
  0
VERTEX
  8
0
 62
7
  6
CONTINUOUS
 10
126.0976209857
 20
103.6441435298
  0
SEQEND
  0
LINE
  8
0
 62
7
  6
CONTINUOUS
 10
79.2971826623
 20
148.6932768971
 11
123.5742399339
 21
104.4162196255
  0
LINE
  8
0
 62
7
  6
CONTINUOUS
 10
129.1421412155
 20
98.8483183438
 11
136.0871864744
 21
91.903273085
  0
LINE
  8
0
 62
7
  6
CONTINUOUS
 10
137.205628856
 20
93.6132578281
 11
92.9285715844
 21
137.8903150997
  0
LINE
  8
0
 62
7
  6
CONTINUOUS
 10
87.3606703028
 20
143.4582163813
 11
80.4156250439
 21
150.4032616402
  0
LINE
  8
0
 62
7
  6
CONTINUOUS
 10
137.2131101382
 20
96.4342036706
 11
95.7595237623
 21
137.8877900466
  0
LINE
  8
0
 62
7
  6
CONTINUOUS
 10
87.075628856
 20
146.5716849528
 11
83.2440520083
 21
150.4032618006
  0
POLYLINE
  8
0
 62
7
  6
CONTINUOUS
 66
1
 70
0
  0
VERTEX
  8
0
 62
7
  6
CONTINUOUS
 10
89.3328324216
 20
139.5380436734
  0
VERTEX
  8
0
 62
7
  6
CONTINUOUS
 10
89.4633881783
 20
139.4062266563
  0
VERTEX
  8
0
 62
7
  6
CONTINUOUS
 10
89.5957541608
 20
139.2806348301
  0
VERTEX
  8
0
 62
7
  6
CONTINUOUS
 10
89.7300980535
 20
139.1609268958
  0
VERTEX
  8
0
 62
7
  6
CONTINUOUS
 10
89.8666294483
 20
139.0467834446
  0
SEQEND
  0
POLYLINE
  8
0
 62
7
  6
CONTINUOUS
 66
1
 70
0
  0
VERTEX
  8
0
 62
7
  6
CONTINUOUS
 10
127.1699790968
 20
102.7684910517
  0
VERTEX
  8
0
 62
7
  6
CONTINUOUS
 10
127.0394233425
 20
102.9003080664
  0
VERTEX
  8
0
 62
7
  6
CONTINUOUS
 10
126.9070573603
 20
103.0258998925
  0
VERTEX
  8
0
 62
7
  6
CONTINUOUS
 10
126.7727134665
 20
103.1456078279
  0
VERTEX
  8
0
 62
7
  6
CONTINUOUS
 10
126.63618207
 20
103.2597512805
  0
SEQEND
  0
POLYLINE
  8
0
 62
7
  6
CONTINUOUS
 66
1
 70
0
  0
VERTEX
  8
0
 62
7
  6
CONTINUOUS
 10
127.5793338387
 20
102.297429258
  0
VERTEX
  8
0
 62
7
  6
CONTINUOUS
 10
127.4542240839
 20
102.4514248714
  0
VERTEX
  8
0
 62
7
  6
CONTINUOUS
 10
127.3158265806
 20
102.6112146523
  0
VERTEX
  8
0
 62
7
  6
CONTINUOUS
 10
127.1699790968
 20
102.7684910517
  0
SEQEND
  0
POLYLINE
  8
0
 62
7
  6
CONTINUOUS
 66
1
 70
0
  0
VERTEX
  8
0
 62
7
  6
CONTINUOUS
 10
128.0503956324
 20
101.6237525887
  0
VERTEX
  8
0
 62
7
  6
CONTINUOUS
 10
127.8966919297
 20
101.861261079
  0
VERTEX
  8
0
 62
7
  6
CONTINUOUS
 10
127.7395711674
 20
102.0858231666
  0
VERTEX
  8
0
 62
7
  6
CONTINUOUS
 10
127.5793338387
 20
102.297429258
  0
SEQEND
  0
POLYLINE
  8
0
 62
7
  6
CONTINUOUS
 66
1
 70
0
  0
VERTEX
  8
0
 62
7
  6
CONTINUOUS
 10
128.1069877478
 20
101.5315834071
  0
VERTEX
  8
0
 62
7
  6
CONTINUOUS
 10
128.0786826082
 20
101.5780083483
  0
VERTEX
  8
0
 62
7
  6
CONTINUOUS
 10
128.0503956324
 20
101.6237525887
  0
SEQEND
  0
POLYLINE
  8
0
 62
7
  6
CONTINUOUS
 66
1
 70
0
  0
VERTEX
  8
0
 62
7
  6
CONTINUOUS
 10
128.2109734226
 20
101.3542774893
  0
VERTEX
  8
0
 62
7
  6
CONTINUOUS
 10
128.1592285472
 20
101.4439226013
  0
VERTEX
  8
0
 62
7
  6
CONTINUOUS
 10
128.1069877478
 20
101.5315834071
  0
SEQEND
  0
POLYLINE
  8
0
 62
7
  6
CONTINUOUS
 66
1
 70
0
  0
VERTEX
  8
0
 62
7
  6
CONTINUOUS
 10
128.6236026999
 20
100.5132709945
  0
VERTEX
  8
0
 62
7
  6
CONTINUOUS
 10
128.4942528751
 20
100.8050302489
  0
VERTEX
  8
0
 62
7
  6
CONTINUOUS
 10
128.3565843173
 20
101.0853900128
  0
VERTEX
  8
0
 62
7
  6
CONTINUOUS
 10
128.2109734226
 20
101.3542774893
  0
SEQEND
  0
POLYLINE
  8
0
 62
7
  6
CONTINUOUS
 66
1
 70
0
  0
VERTEX
  8
0
 62
7
  6
CONTINUOUS
 10
128.8410147735
 20
99.940063927
  0
VERTEX
  8
0
 62
7
  6
CONTINUOUS
 10
128.7360594808
 20
100.2319204892
  0
VERTEX
  8
0
 62
7
  6
CONTINUOUS
 10
128.6236026999
 20
100.5132709945
  0
SEQEND
  0
POLYLINE
  8
0
 62
7
  6
CONTINUOUS
 66
1
 70
0
  0
VERTEX
  8
0
 62
7
  6
CONTINUOUS
 10
129.1421412155
 20
98.8483183438
  0
VERTEX
  8
0
 62
7
  6
CONTINUOUS
 10
129.0499439992
 20
99.2378669821
  0
VERTEX
  8
0
 62
7
  6
CONTINUOUS
 10
128.9491593588
 20
99.6010717829
  0
VERTEX
  8
0
 62
7
  6
CONTINUOUS
 10
128.8410147735
 20
99.940063927
  0
SEQEND
  0
POLYLINE
  8
0
 62
7
  6
CONTINUOUS
 66
1
 70
0
  0
VERTEX
  8
0
 62
7
  6
CONTINUOUS
 10
129.2069878731
 20
98.5258503646
  0
VERTEX
  8
0
 62
7
  6
CONTINUOUS
 10
129.1751928376
 20
98.690165044
  0
VERTEX
  8
0
 62
7
  6
CONTINUOUS
 10
129.1421412155
 20
98.8483183438
  0
SEQEND
  0
POLYLINE
  8
0
 62
7
  6
CONTINUOUS
 66
1
 70
0
  0
VERTEX
  8
0
 62
7
  6
CONTINUOUS
 10
120.7158236451
 20
143.7806843605
  0
VERTEX
  8
0
 62
7
  6
CONTINUOUS
 10
120.7370025115
 20
143.6697862835
  0
VERTEX
  8
0
 62
7
  6
CONTINUOUS
 10
120.7590376341
 20
143.5603941741
  0
SEQEND
  0
POLYLINE
  8
0
 62
7
  6
CONTINUOUS
 66
1
 70
0
  0
VERTEX
  8
0
 62
7
  6
CONTINUOUS
 10
129.2455094141
 20
98.3067505839
  0
VERTEX
  8
0
 62
7
  6
CONTINUOUS
 10
129.2266891708
 20
98.4168810876
  0
VERTEX
  8
0
 62
7
  6
CONTINUOUS
 10
129.2069878731
 20
98.5258503646
  0
SEQEND
  0
POLYLINE
  8
0
 62
7
  6
CONTINUOUS
 66
1
 70
0
  0
VERTEX
  8
0
 62
7
  6
CONTINUOUS
 10
120.661314102
 20
144.098698079
  0
VERTEX
  8
0
 62
7
  6
CONTINUOUS
 10
120.6876431837
 20
143.9384874145
  0
VERTEX
  8
0
 62
7
  6
CONTINUOUS
 10
120.7158236451
 20
143.7806843605
  0
SEQEND
  0
POLYLINE
  8
0
 62
7
  6
CONTINUOUS
 66
1
 70
0
  0
VERTEX
  8
0
 62
7
  6
CONTINUOUS
 10
129.3856583494
 20
97.1116368022
  0
VERTEX
  8
0
 62
7
  6
CONTINUOUS
 10
129.3493168764
 20
97.5282714435
  0
VERTEX
  8
0
 62
7
  6
CONTINUOUS
 10
129.3023677062
 20
97.926687123
  0
VERTEX
  8
0
 62
7
  6
CONTINUOUS
 10
129.2455094141
 20
98.3067505839
  0
SEQEND
  0
POLYLINE
  8
SURFACE
 62
7
  6
CONTINUOUS
 66
1
 70
0
  0
VERTEX
  8
SURFACE
 62
7
  6
CONTINUOUS
 10
124.6919891199
 20
166.1023752008
  0
VERTEX
  8
SURFACE
 62
7
  6
CONTINUOUS
 10
124.6902791077
 20
166.1277336547
  0
VERTEX
  8
SURFACE
 62
7
  6
CONTINUOUS
 10
124.68849547
 20
166.1522348379
  0
VERTEX
  8
SURFACE
 62
7
  6
CONTINUOUS
 10
124.6866083619
 20
166.1761923289
  0
VERTEX
  8
SURFACE
 62
7
  6
CONTINUOUS
 10
124.6845764801
 20
166.1999721532
  0
VERTEX
  8
SURFACE
 62
7
  6
CONTINUOUS
 10
124.682345407
 20
166.2239736643
  0
VERTEX
  8
SURFACE
 62
7
  6
CONTINUOUS
 10
124.679848822
 20
166.2485828102
  0
VERTEX
  8
SURFACE
 62
7
  6
CONTINUOUS
 10
124.6770035166
 20
166.2741943545
  0
VERTEX
  8
SURFACE
 62
7
  6
CONTINUOUS
 10
124.6737003084
 20
166.3012512663
  0
VERTEX
  8
SURFACE
 62
7
  6
CONTINUOUS
 10
124.6697980548
 20
166.3302336972
  0
VERTEX
  8
SURFACE
 62
7
  6
CONTINUOUS
 10
124.6651170137
 20
166.3616448487
  0
VERTEX
  8
SURFACE
 62
7
  6
CONTINUOUS
 10
124.6594309491
 20
166.3959987175
  0
VERTEX
  8
SURFACE
 62
7
  6
CONTINUOUS
 10
124.6525408434
 20
166.4333829005
  0
VERTEX
  8
SURFACE
 62
7
  6
CONTINUOUS
 10
124.6443322037
 20
166.4733581864
  0
VERTEX
  8
SURFACE
 62
7
  6
CONTINUOUS
 10
124.6347733408
 20
166.515220071
  0
VERTEX
  8
SURFACE
 62
7
  6
CONTINUOUS
 10
124.6235722204
 20
166.5594445332
  0
VERTEX
  8
SURFACE
 62
7
  6
CONTINUOUS
 10
124.6100459765
 20
166.6076075519
  0
VERTEX
  8
SURFACE
 62
7
  6
CONTINUOUS
 10
124.5931781266
 20
166.6616199335
  0
VERTEX
  8
SURFACE
 62
7
  6
CONTINUOUS
 10
124.5720471791
 20
166.7221949557
  0
VERTEX
  8
SURFACE
 62
7
  6
CONTINUOUS
 10
124.5461181478
 20
166.788506191
  0
VERTEX
  8
SURFACE
 62
7
  6
CONTINUOUS
 10
124.515047929
 20
166.8592966947
  0
VERTEX
  8
SURFACE
 62
7
  6
CONTINUOUS
 10
124.4784824511
 20
166.9335242439
  0
VERTEX
  8
SURFACE
 62
7
  6
CONTINUOUS
 10
124.4360409405
 20
167.0103309055
  0
VERTEX
  8
SURFACE
 62
7
  6
CONTINUOUS
 10
124.3874381991
 20
167.0887883485
  0
VERTEX
  8
SURFACE
 62
7
  6
CONTINUOUS
 10
124.3324394493
 20
167.1680060103
  0
VERTEX
  8
SURFACE
 62
7
  6
CONTINUOUS
 10
124.2708754366
 20
167.2471074003
  0
VERTEX
  8
SURFACE
 62
7
  6
CONTINUOUS
 10
124.2026725187
 20
167.3252012308
  0
VERTEX
  8
SURFACE
 62
7
  6
CONTINUOUS
 10
124.1278713808
 20
167.4013829637
  0
VERTEX
  8
SURFACE
 62
7
  6
CONTINUOUS
 10
124.0463291533
 20
167.4750122171
  0
VERTEX
  8
SURFACE
 62
7
  6
CONTINUOUS
 10
123.9574434604
 20
167.5457854451
  0
VERTEX
  8
SURFACE
 62
7
  6
CONTINUOUS
 10
123.8605263052
 20
167.6132534947
  0
VERTEX
  8
SURFACE
 62
7
  6
CONTINUOUS
 10
123.7548685472
 20
167.6767515009
  0
VERTEX
  8
SURFACE
 62
7
  6
CONTINUOUS
 10
123.640173445
 20
167.7351837708
  0
VERTEX
  8
SURFACE
 62
7
  6
CONTINUOUS
 10
123.5175266305
 20
167.7868216296
  0
VERTEX
  8
SURFACE
 62
7
  6
CONTINUOUS
 10
123.3885353617
 20
167.830109252
  0
VERTEX
  8
SURFACE
 62
7
  6
CONTINUOUS
 10
123.2550588584
 20
167.8638740575
  0
VERTEX
  8
SURFACE
 62
7
  6
CONTINUOUS
 10
123.1191391645
 20
167.8873782045
  0
VERTEX
  8
SURFACE
 62
7
  6
CONTINUOUS
 10
122.982925181
 20
167.9003485886
  0
VERTEX
  8
SURFACE
 62
7
  6
CONTINUOUS
 10
122.8804341531
 20
167.9032672124
  0
SEQEND
  0
LINE
  8
SURFACE
 62
7
  6
CONTINUOUS
 10
124.6952621547
 20
166.0481600999
 11
124.6919891199
 21
166.1023752008
  0
LINE
  8
SURFACE
 62
7
  6
CONTINUOUS
 10
124.6984266722
 20
165.9878600897
 11
124.6952621547
 21
166.0481600999
  0
LINE
  8
SURFACE
 62
7
  6
CONTINUOUS
 10
124.7015651314
 20
165.9196295022
 11
124.6984266722
 21
165.9878600897
  0
LINE
  8
SURFACE
 62
7
  6
CONTINUOUS
 10
124.7047355036
 20
165.8415495488
 11
124.7015651314
 21
165.9196295022
  0
LINE
  8
SURFACE
 62
7
  6
CONTINUOUS
 10
124.7097003585
 20
165.6995459383
 11
124.7047355036
 21
165.8415495488
  0
LINE
  8
SURFACE
 62
7
  6
CONTINUOUS
 10
124.7132270888
 20
165.5832283313
 11
124.7097003585
 21
165.6995459383
  0
POLYLINE
  8
0
 62
7
  6
CONTINUOUS
 66
1
 70
0
  0
VERTEX
  8
0
 62
7
  6
CONTINUOUS
 10
129.4271826623
 20
95.9093392435
  0
VERTEX
  8
0
 62
7
  6
CONTINUOUS
 10
129.4223047689
 20
96.3349938877
  0
VERTEX
  8
0
 62
7
  6
CONTINUOUS
 10
129.4081499572
 20
96.7359521734
  0
VERTEX
  8
0
 62
7
  6
CONTINUOUS
 10
129.3856583494
 20
97.1116368022
  0
SEQEND
  0
LINE
  8
0
 62
7
  6
CONTINUOUS
 10
126.63618207
 20
137.8877900511
 11
126.63618207
 21
103.2597512805
  0
LINE
  8
0
 62
7
  6
CONTINUOUS
 10
128.0503956324
 20
137.8877900455
 11
128.0503956324
 21
101.6237525887
  0
LINE
  8
0
 62
7
  6
CONTINUOUS
 10
129.4271826623
 20
91.9032727073
 11
129.4271826623
 21
95.9093392307
  0
LINE
  8
0
 62
7
  6
CONTINUOUS
 10
129.4646091948
 20
91.9032727094
 11
129.4646091948
 21
137.8877900398
  0
LINE
  8
0
 62
7
  6
CONTINUOUS
 10
130.8788227571
 20
91.9032727896
 11
130.8788227571
 21
137.8877900341
  0
LINE
  8
0
 62
7
  6
CONTINUOUS
 10
132.2930363195
 20
91.9032728698
 11
132.2930363195
 21
137.8877900284
  0
POLYLINE
  8
SURFACE
 62
7
  6
CONTINUOUS
 66
1
 70
0
  0
VERTEX
  8
SURFACE
 62
7
  6
CONTINUOUS
 10
108.7841353475
 20
99.3044722982
  0
VERTEX
  8
SURFACE
 62
7
  6
CONTINUOUS
 10
108.8317368406
 20
99.3812521827
  0
VERTEX
  8
SURFACE
 62
7
  6
CONTINUOUS
 10
108.8899058941
 20
99.4699592785
  0
VERTEX
  8
SURFACE
 62
7
  6
CONTINUOUS
 10
108.9472568015
 20
99.5518017528
  0
VERTEX
  8
SURFACE
 62
7
  6
CONTINUOUS
 10
109.0043832685
 20
99.6277283371
  0
VERTEX
  8
SURFACE
 62
7
  6
CONTINUOUS
 10
109.0619023769
 20
99.698522347
  0
VERTEX
  8
SURFACE
 62
7
  6
CONTINUOUS
 10
109.1203219247
 20
99.764632735
  0
VERTEX
  8
SURFACE
 62
7
  6
CONTINUOUS
 10
109.1798473118
 20
99.8260252718
  0
VERTEX
  8
SURFACE
 62
7
  6
CONTINUOUS
 10
109.2405496726
 20
99.8824669219
  0
VERTEX
  8
SURFACE
 62
7
  6
CONTINUOUS
 10
109.3023877796
 20
99.9336040706
  0
VERTEX
  8
SURFACE
 62
7
  6
CONTINUOUS
 10
109.3653368772
 20
99.9791014682
  0
VERTEX
  8
SURFACE
 62
7
  6
CONTINUOUS
 10
109.4293555861
 20
100.0186162052
  0
VERTEX
  8
SURFACE
 62
7
  6
CONTINUOUS
 10
109.4936981353
 20
100.0515055
  0
VERTEX
  8
SURFACE
 62
7
  6
CONTINUOUS
 10
109.5580886184
 20
100.0776434748
  0
VERTEX
  8
SURFACE
 62
7
  6
CONTINUOUS
 10
109.6224052008
 20
100.0971274778
  0
VERTEX
  8
SURFACE
 62
7
  6
CONTINUOUS
 10
109.6857919624
 20
100.1100795629
  0
VERTEX
  8
SURFACE
 62
7
  6
CONTINUOUS
 10
109.7477969215
 20
100.1170348147
  0
VERTEX
  8
SURFACE
 62
7
  6
CONTINUOUS
 10
109.7982766228
 20
100.1187446625
  0
SEQEND
  0
POLYLINE
  8
0
 62
7
  6
CONTINUOUS
 66
1
 70
0
  0
VERTEX
  8
0
 62
7
  6
CONTINUOUS
 10
105.7501441646
 20
102.4413255215
  0
VERTEX
  8
0
 62
7
  6
CONTINUOUS
 10
105.6409222151
 20
102.3068590723
  0
VERTEX
  8
0
 62
7
  6
CONTINUOUS
 10
105.5312346335
 20
102.1643551313
  0
VERTEX
  8
0
 62
7
  6
CONTINUOUS
 10
105.4229786344
 20
102.0159009508
  0
SEQEND
  0
POLYLINE
  8
0
 62
7
  6
CONTINUOUS
 66
1
 70
0
  0
VERTEX
  8
0
 62
7
  6
CONTINUOUS
 10
106.0428324742
 20
102.7684910517
  0
VERTEX
  8
0
 62
7
  6
CONTINUOUS
 10
105.9404672647
 20
102.659257833
  0
VERTEX
  8
0
 62
7
  6
CONTINUOUS
 10
105.8426103028
 20
102.5497059665
  0
VERTEX
  8
0
 62
7
  6
CONTINUOUS
 10
105.7501441646
 20
102.4413255215
  0
SEQEND
  0
LINE
  8
0
 62
7
  6
CONTINUOUS
 10
95.0421542748
 20
100.8729480663
 11
132.0569962378
 21
137.8877900294
  0
LINE
  8
0
 62
7
  6
CONTINUOUS
 10
95.7437738843
 20
98.746140551
 11
134.8854233512
 21
137.887790018
  0
LINE
  8
0
 62
7
  6
CONTINUOUS
 10
146.2171953393
 20
149.2195620061
 11
147.4008969979
 21
150.4032636647
  0
LINE
  8
0
 62
7
  6
CONTINUOUS
 10
96.005249404
 20
96.179188946
 11
137.7138504646
 21
137.8877900067
  0
LINE
  8
0
 62
7
  6
CONTINUOUS
 10
146.2171943977
 20
146.3911339397
 11
150.2293252783
 21
150.4032648203
  0
LINE
  8
0
 62
7
  6
CONTINUOUS
 10
96.0071826623
 20
93.3526950796
 11
140.5431574998
 21
137.8886699171
  0
LINE
  8
0
 62
7
  6
CONTINUOUS
 10
145.8786639155
 20
143.2241763328
 11
153.0577535587
 21
150.403265976
  0
POLYLINE
  8
0
 62
7
  6
CONTINUOUS
 66
1
 70
0
  0
VERTEX
  8
0
 62
7
  6
CONTINUOUS
 10
143.0926280826
 20
138.637946847
  0
VERTEX
  8
0
 62
7
  6
CONTINUOUS
 10
143.2237384313
 20
138.7224605641
  0
VERTEX
  8
0
 62
7
  6
CONTINUOUS
 10
143.3541396866
 20
138.8124470375
  0
VERTEX
  8
0
 62
7
  6
CONTINUOUS
 10
143.4823474458
 20
138.907038454
  0
VERTEX
  8
0
 62
7
  6
CONTINUOUS
 10
143.6067448185
 20
139.0049995498
  0
SEQEND
  0
LINE
  8
0
 62
7
  6
CONTINUOUS
 10
62.5514057592
 20
94.2832096775
 11
70.285616179
 21
94.2832096775
  0
LINE
  8
0
 62
7
  6
CONTINUOUS
 10
96.0071826623
 20
94.2832096775
 11
103.785628856
 21
94.2832096775
  0
LINE
  8
0
 62
7
  6
CONTINUOUS
 10
129.4271826623
 20
94.2832096775
 11
137.205628856
 21
94.2832096775
  0
LINE
  8
0
 62
7
  6
CONTINUOUS
 10
62.5514057592
 20
95.6974232398
 11
70.285616179
 21
95.6974232398
  0
LINE
  8
0
 62
7
  6
CONTINUOUS
 10
96.0071826623
 20
95.6974232398
 11
103.785628856
 21
95.6974232398
  0
LINE
  8
0
 62
7
  6
CONTINUOUS
 10
129.4271826623
 20
95.6974232398
 11
137.205628856
 21
95.6974232398
  0
LINE
  8
0
 62
7
  6
CONTINUOUS
 10
62.5514057592
 20
97.1116368022
 11
70.3271389725
 21
97.1116368022
  0
LINE
  8
0
 62
7
  6
CONTINUOUS
 10
95.9656583486
 20
97.1116368022
 11
103.8271531767
 21
97.1116368022
  0
LINE
  8
0
 62
7
  6
CONTINUOUS
 10
129.3856583494
 20
97.1116368022
 11
137.2471531653
 21
97.1116368022
  0
LINE
  8
0
 62
7
  6
CONTINUOUS
 10
62.5514057592
 20
98.5258503646
 11
70.5058033918
 21
98.5258503646
  0
LINE
  8
0
 62
7
  6
CONTINUOUS
 10
95.7869878732
 20
98.5258503646
 11
104.0058236447
 21
98.5258503646
  0
LINE
  8
0
 62
7
  6
CONTINUOUS
 10
129.2069878731
 20
98.5258503646
 11
137.4258236443
 21
98.5258503646
  0
LINE
  8
0
 62
7
  6
CONTINUOUS
 10
62.5514057592
 20
99.940063927
 11
70.8525316447
 21
99.940063927
  0
LINE
  8
0
 62
7
  6
CONTINUOUS
 10
95.4210147756
 20
99.940063927
 11
104.371796735
 21
99.940063927
  0
LINE
  8
0
 62
7
  6
CONTINUOUS
 10
128.8410147735
 20
99.940063927
 11
137.791796735
 21
99.940063927
  0
LINE
  8
SURFACE
 62
7
  6
CONTINUOUS
 10
156.4514057592
 20
100.1187447111
 11
143.2182765946
 21
100.1187447111
  0
LINE
  8
0
 62
7
  6
CONTINUOUS
 10
76.0551728953
 20
100.1187447111
 11
89.9945349369
 21
100.1187447111
  0
LINE
  8
SURFACE
 62
7
  6
CONTINUOUS
 10
109.7982766228
 20
100.1187447111
 11
123.4145349392
 21
100.1187447111
  0
POLYLINE
  8
0
 62
7
  6
CONTINUOUS
 66
1
 70
0
  0
VERTEX
  8
0
 62
7
  6
CONTINUOUS
 10
89.994534937
 20
100.1187446532
  0
VERTEX
  8
0
 62
7
  6
CONTINUOUS
 10
90.044125716
 20
100.117094977
  0
VERTEX
  8
0
 62
7
  6
CONTINUOUS
 10
90.106103122
 20
100.1102227218
  0
VERTEX
  8
0
 62
7
  6
CONTINUOUS
 10
90.1694640051
 20
100.0973647816
  0
VERTEX
  8
0
 62
7
  6
CONTINUOUS
 10
90.233761874
 20
100.0779828508
  0
VERTEX
  8
0
 62
7
  6
CONTINUOUS
 10
90.2981430734
 20
100.0519494154
  0
VERTEX
  8
0
 62
7
  6
CONTINUOUS
 10
90.3624840062
 20
100.0191637766
  0
VERTEX
  8
0
 62
7
  6
CONTINUOUS
 10
90.426510445
 20
99.9797470526
  0
VERTEX
  8
0
 62
7
  6
CONTINUOUS
 10
90.4894741035
 20
99.9343395057
  0
VERTEX
  8
0
 62
7
  6
CONTINUOUS
 10
90.5513294593
 20
99.8832855189
  0
VERTEX
  8
0
 62
7
  6
CONTINUOUS
 10
90.612048464
 20
99.8269228601
  0
VERTEX
  8
0
 62
7
  6
CONTINUOUS
 10
90.6715860496
 20
99.7656095769
  0
VERTEX
  8
0
 62
7
  6
CONTINUOUS
 10
90.7300097393
 20
99.6995843574
  0
VERTEX
  8
0
 62
7
  6
CONTINUOUS
 10
90.7875231873
 20
99.6288861474
  0
VERTEX
  8
0
 62
7
  6
CONTINUOUS
 10
90.8446368684
 20
99.5530659287
  0
VERTEX
  8
0
 62
7
  6
CONTINUOUS
 10
90.9019693508
 20
99.4713403384
  0
VERTEX
  8
0
 62
7
  6
CONTINUOUS
 10
90.9601169146
 20
99.382758668
  0
VERTEX
  8
0
 62
7
  6
CONTINUOUS
 10
91.0086763228
 20
99.3044720215
  0
SEQEND
  0
POLYLINE
  8
SURFACE
 62
7
  6
CONTINUOUS
 66
1
 70
0
  0
VERTEX
  8
SURFACE
 62
7
  6
CONTINUOUS
 10
123.4145349392
 20
100.1187446634
  0
VERTEX
  8
SURFACE
 62
7
  6
CONTINUOUS
 10
123.4641257186
 20
100.117094987
  0
VERTEX
  8
SURFACE
 62
7
  6
CONTINUOUS
 10
123.5261031239
 20
100.1102227315
  0
VERTEX
  8
SURFACE
 62
7
  6
CONTINUOUS
 10
123.5894640085
 20
100.0973647908
  0
VERTEX
  8
SURFACE
 62
7
  6
CONTINUOUS
 10
123.6537618788
 20
100.0779828598
  0
VERTEX
  8
SURFACE
 62
7
  6
CONTINUOUS
 10
123.7181430796
 20
100.0519494233
  0
VERTEX
  8
SURFACE
 62
7
  6
CONTINUOUS
 10
123.7824840118
 20
100.0191637821
  0
VERTEX
  8
SURFACE
 62
7
  6
CONTINUOUS
 10
123.846510449
 20
99.9797470536
  0
VERTEX
  8
SURFACE
 62
7
  6
CONTINUOUS
 10
123.9094741074
 20
99.9343395001
  0
VERTEX
  8
SURFACE
 62
7
  6
CONTINUOUS
 10
123.9713294816
 20
99.8832854933
  0
VERTEX
  8
SURFACE
 62
7
  6
CONTINUOUS
 10
124.0320484977
 20
99.8269228286
  0
VERTEX
  8
SURFACE
 62
7
  6
CONTINUOUS
 10
124.091586072
 20
99.7656095595
  0
VERTEX
  8
SURFACE
 62
7
  6
CONTINUOUS
 10
124.1500097474
 20
99.6995843485
  0
VERTEX
  8
SURFACE
 62
7
  6
CONTINUOUS
 10
124.2075231991
 20
99.6288861284
  0
VERTEX
  8
SURFACE
 62
7
  6
CONTINUOUS
 10
124.2646368828
 20
99.5530659102
  0
VERTEX
  8
SURFACE
 62
7
  6
CONTINUOUS
 10
124.3219693637
 20
99.4713403296
  0
VERTEX
  8
SURFACE
 62
7
  6
CONTINUOUS
 10
124.3801169243
 20
99.3827586584
  0
VERTEX
  8
SURFACE
 62
7
  6
CONTINUOUS
 10
124.4286763228
 20
99.3044720217
  0
SEQEND
  0
POLYLINE
  8
0
 62
7
  6
CONTINUOUS
 66
1
 70
0
  0
VERTEX
  8
0
 62
7
  6
CONTINUOUS
 10
124.9362442604
 20
104.1827046141
  0
VERTEX
  8
0
 62
7
  6
CONTINUOUS
 10
124.7841787516
 20
104.2284623581
  0
VERTEX
  8
0
 62
7
  6
CONTINUOUS
 10
124.6321294604
 20
104.269037048
  0
VERTEX
  8
0
 62
7
  6
CONTINUOUS
 10
124.4793558896
 20
104.3047134812
  0
VERTEX
  8
0
 62
7
  6
CONTINUOUS
 10
124.3250820244
 20
104.3356684136
  0
VERTEX
  8
0
 62
7
  6
CONTINUOUS
 10
124.1684831325
 20
104.3619749555
  0
VERTEX
  8
0
 62
7
  6
CONTINUOUS
 10
124.0086477295
 20
104.3835973983
  0
SEQEND
  0
POLYLINE
  8
0
 62
7
  6
CONTINUOUS
 66
1
 70
0
  0
VERTEX
  8
0
 62
7
  6
CONTINUOUS
 10
125.2219685076
 20
104.0822290404
  0
VERTEX
  8
0
 62
7
  6
CONTINUOUS
 10
125.0805431865
 20
104.1343725153
  0
VERTEX
  8
0
 62
7
  6
CONTINUOUS
 10
124.9362442604
 20
104.1827046141
  0
SEQEND
  0
POLYLINE
  8
0
 62
7
  6
CONTINUOUS
 66
1
 70
0
  0
VERTEX
  8
0
 62
7
  6
CONTINUOUS
 10
89.8666294483
 20
139.0467834446
  0
VERTEX
  8
0
 62
7
  6
CONTINUOUS
 10
89.9977120152
 20
138.9439063847
  0
VERTEX
  8
0
 62
7
  6
CONTINUOUS
 10
90.1328453059
 20
138.8443497188
  0
VERTEX
  8
0
 62
7
  6
CONTINUOUS
 10
90.2695842829
 20
138.7499757842
  0
VERTEX
  8
0
 62
7
  6
CONTINUOUS
 10
90.4051905326
 20
138.6623911954
  0
SEQEND
  0
LINE
  8
0
 62
7
  6
CONTINUOUS
 10
137.515547208
 20
98.9601937256
 11
98.587950887
 21
137.8877900466
  0
LINE
  8
0
 62
7
  6
CONTINUOUS
 10
87.075628856
 20
149.4001120775
 11
86.0724789726
 21
150.4032619609
  0
LINE
  8
0
 62
7
  6
CONTINUOUS
 10
138.2567607504
 20
101.047407308
 11
101.4163780117
 21
137.8877900466
  0
LINE
  8
0
 62
7
  6
CONTINUOUS
 10
139.4147491177
 20
102.7178460653
 11
104.2448051365
 21
137.8877900466
  0
LINE
  8
0
 62
7
  6
CONTINUOUS
 10
141.0393527932
 20
103.9216695147
 11
107.0606489575
 21
137.9003733503
  0
POLYLINE
  8
0
 62
7
  6
CONTINUOUS
 66
1
 70
0
  0
VERTEX
  8
0
 62
7
  6
CONTINUOUS
 10
121.0817967427
 20
142.3664707982
  0
VERTEX
  8
0
 62
7
  6
CONTINUOUS
 10
121.1987999808
 20
142.0430507806
  0
VERTEX
  8
0
 62
7
  6
CONTINUOUS
 10
121.325231193
 20
141.7320581697
  0
VERTEX
  8
0
 62
7
  6
CONTINUOUS
 10
121.4606572436
 20
141.4335866588
  0
SEQEND
  0
POLYLINE
  8
0
 62
7
  6
CONTINUOUS
 66
1
 70
0
  0
VERTEX
  8
0
 62
7
  6
CONTINUOUS
 10
120.9793278205
 20
142.6865112671
  0
VERTEX
  8
0
 62
7
  6
CONTINUOUS
 10
121.0289425579
 20
142.5265940712
  0
VERTEX
  8
0
 62
7
  6
CONTINUOUS
 10
121.0817967427
 20
142.3664707982
  0
SEQEND
  0
POLYLINE
  8
0
 62
7
  6
CONTINUOUS
 66
1
 70
0
  0
VERTEX
  8
0
 62
7
  6
CONTINUOUS
 10
120.7590376341
 20
143.5603941741
  0
VERTEX
  8
0
 62
7
  6
CONTINUOUS
 10
120.825605826
 20
143.2600405888
  0
VERTEX
  8
0
 62
7
  6
CONTINUOUS
 10
120.8991177262
 20
142.9687321915
  0
VERTEX
  8
0
 62
7
  6
CONTINUOUS
 10
120.9793278205
 20
142.6865112671
  0
SEQEND
  0
LINE
  8
0
 62
7
  6
CONTINUOUS
 10
133.7072498819
 20
91.90327295
 11
133.7072498819
 21
137.8877900227
  0
LINE
  8
0
 62
7
  6
CONTINUOUS
 10
135.1214634443
 20
91.9032730302
 11
135.1214634443
 21
137.8877900171
  0
LINE
  8
0
 62
7
  6
CONTINUOUS
 10
136.5356770066
 20
91.9032731104
 11
136.5356770066
 21
137.8877900114
  0
LINE
  8
0
 62
7
  6
CONTINUOUS
 10
137.205628856
 20
91.9032731484
 11
137.205628856
 21
95.9093422393
  0
LINE
  8
0
 62
7
  6
CONTINUOUS
 10
137.949890569
 20
137.8877900057
 11
137.949890569
 21
100.3684652923
  0
LINE
  8
0
 62
7
  6
CONTINUOUS
 10
139.3641041314
 20
137.88779
 11
139.3641041314
 21
102.6632309995
  0
POLYLINE
  8
0
 62
7
  6
CONTINUOUS
 66
1
 70
0
  0
VERTEX
  8
0
 62
7
  6
CONTINUOUS
 10
137.2131101382
 20
96.4342036706
  0
VERTEX
  8
0
 62
7
  6
CONTINUOUS
 10
137.2090007876
 20
96.2643538866
  0
VERTEX
  8
0
 62
7
  6
CONTINUOUS
 10
137.2064825494
 20
96.0894036385
  0
VERTEX
  8
0
 62
7
  6
CONTINUOUS
 10
137.205628856
 20
95.9093422753
  0
SEQEND
  0
LINE
  8
SURFACE
 62
7
  6
CONTINUOUS
 10
142.0145549291
 20
165.9895134949
 11
142.0110748654
 21
165.9136287243
  0
LINE
  8
SURFACE
 62
7
  6
CONTINUOUS
 10
142.016951802
 20
166.0357422418
 11
142.0145549291
 21
165.9895134949
  0
LINE
  8
SURFACE
 62
7
  6
CONTINUOUS
 10
142.0194591067
 20
166.0792364768
 11
142.016951802
 21
166.0357422418
  0
POLYLINE
  8
0
 62
7
  6
CONTINUOUS
 66
1
 70
0
  0
VERTEX
  8
0
 62
7
  6
CONTINUOUS
 10
137.2471531653
 20
97.1116368022
  0
VERTEX
  8
0
 62
7
  6
CONTINUOUS
 10
137.2268120499
 20
96.7798308214
  0
VERTEX
  8
0
 62
7
  6
CONTINUOUS
 10
137.2131101382
 20
96.4342036706
  0
SEQEND
  0
POLYLINE
  8
0
 62
7
  6
CONTINUOUS
 66
1
 70
0
  0
VERTEX
  8
0
 62
7
  6
CONTINUOUS
 10
137.3273400973
 20
97.9032998929
  0
VERTEX
  8
0
 62
7
  6
CONTINUOUS
 10
137.2831368287
 20
97.5247737151
  0
VERTEX
  8
0
 62
7
  6
CONTINUOUS
 10
137.2471531653
 20
97.1116368022
  0
SEQEND
  0
POLYLINE
  8
SURFACE
 62
7
  6
CONTINUOUS
 66
1
 70
0
  0
VERTEX
  8
SURFACE
 62
7
  6
CONTINUOUS
 10
141.6764418638
 20
144.1434299962
  0
VERTEX
  8
SURFACE
 62
7
  6
CONTINUOUS
 10
141.6311200099
 20
143.9679928818
  0
VERTEX
  8
SURFACE
 62
7
  6
CONTINUOUS
 10
141.603467691
 20
143.8630052694
  0
VERTEX
  8
SURFACE
 62
7
  6
CONTINUOUS
 10
141.5745654577
 20
143.7558175473
  0
VERTEX
  8
SURFACE
 62
7
  6
CONTINUOUS
 10
141.5444071158
 20
143.6474249601
  0
VERTEX
  8
SURFACE
 62
7
  6
CONTINUOUS
 10
141.5129927996
 20
143.5388739094
  0
VERTEX
  8
SURFACE
 62
7
  6
CONTINUOUS
 10
141.4803488167
 20
143.4312749125
  0
VERTEX
  8
SURFACE
 62
7
  6
CONTINUOUS
 10
141.446562866
 20
143.3258137755
  0
VERTEX
  8
SURFACE
 62
7
  6
CONTINUOUS
 10
141.4118039723
 20
143.223731995
  0
VERTEX
  8
SURFACE
 62
7
  6
CONTINUOUS
 10
141.3763569815
 20
143.1263076965
  0
VERTEX
  8
SURFACE
 62
7
  6
CONTINUOUS
 10
141.3406284956
 20
143.0347805919
  0
VERTEX
  8
SURFACE
 62
7
  6
CONTINUOUS
 10
141.3050187756
 20
142.9499749927
  0
VERTEX
  8
SURFACE
 62
7
  6
CONTINUOUS
 10
141.2697864693
 20
142.8720886494
  0
VERTEX
  8
SURFACE
 62
7
  6
CONTINUOUS
 10
141.2345729349
 20
142.7999206267
  0
VERTEX
  8
SURFACE
 62
7
  6
CONTINUOUS
 10
141.1988716694
 20
142.732237897
  0
VERTEX
  8
SURFACE
 62
7
  6
CONTINUOUS
 10
141.1622311051
 20
142.6681957062
  0
VERTEX
  8
SURFACE
 62
7
  6
CONTINUOUS
 10
141.1244599814
 20
142.6076052094
  0
VERTEX
  8
SURFACE
 62
7
  6
CONTINUOUS
 10
141.0854649792
 20
142.5505059385
  0
VERTEX
  8
SURFACE
 62
7
  6
CONTINUOUS
 10
141.0452067656
 20
142.4970485258
  0
VERTEX
  8
SURFACE
 62
7
  6
CONTINUOUS
 10
141.0036758856
 20
142.4474325948
  0
VERTEX
  8
SURFACE
 62
7
  6
CONTINUOUS
 10
140.9611200839
 20
142.4021148239
  0
VERTEX
  8
SURFACE
 62
7
  6
CONTINUOUS
 10
140.9178425029
 20
142.3614684779
  0
VERTEX
  8
SURFACE
 62
7
  6
CONTINUOUS
 10
140.8740999124
 20
142.3256720759
  0
VERTEX
  8
SURFACE
 62
7
  6
CONTINUOUS
 10
140.8297899048
 20
142.294529108
  0
VERTEX
  8
SURFACE
 62
7
  6
CONTINUOUS
 10
140.7842336263
 20
142.2675349551
  0
VERTEX
  8
SURFACE
 62
7
  6
CONTINUOUS
 10
140.7361831076
 20
142.244151842
  0
VERTEX
  8
SURFACE
 62
7
  6
CONTINUOUS
 10
140.6847960865
 20
142.2243748812
  0
VERTEX
  8
SURFACE
 62
7
  6
CONTINUOUS
 10
140.6295185484
 20
142.2084618517
  0
VERTEX
  8
SURFACE
 62
7
  6
CONTINUOUS
 10
140.5702578671
 20
142.1968234446
  0
VERTEX
  8
SURFACE
 62
7
  6
CONTINUOUS
 10
140.5067445869
 20
142.1898109043
  0
VERTEX
  8
SURFACE
 62
7
  6
CONTINUOUS
 10
140.4476386231
 20
142.1877900254
  0
SEQEND
  0
POLYLINE
  8
0
 62
7
  6
CONTINUOUS
 66
1
 70
0
  0
VERTEX
  8
0
 62
7
  6
CONTINUOUS
 10
145.6502798737
 20
142.3664707982
  0
VERTEX
  8
0
 62
7
  6
CONTINUOUS
 10
145.6908913953
 20
142.5083231846
  0
VERTEX
  8
0
 62
7
  6
CONTINUOUS
 10
145.7300351695
 20
142.6500323577
  0
VERTEX
  8
0
 62
7
  6
CONTINUOUS
 10
145.7680385299
 20
142.7918283607
  0
VERTEX
  8
0
 62
7
  6
CONTINUOUS
 10
145.8051304534
 20
142.9335212922
  0
VERTEX
  8
0
 62
7
  6
CONTINUOUS
 10
145.8541051838
 20
143.1243017759
  0
SEQEND
  0
POLYLINE
  8
0
 62
7
  6
CONTINUOUS
 66
1
 70
0
  0
VERTEX
  8
0
 62
7
  6
CONTINUOUS
 10
145.4996337157
 20
141.8877954633
  0
VERTEX
  8
0
 62
7
  6
CONTINUOUS
 10
145.5392056465
 20
142.0064251603
  0
VERTEX
  8
0
 62
7
  6
CONTINUOUS
 10
145.5774324472
 20
142.1257339552
  0
VERTEX
  8
0
 62
7
  6
CONTINUOUS
 10
145.6144175066
 20
142.2457421569
  0
VERTEX
  8
0
 62
7
  6
CONTINUOUS
 10
145.6502798737
 20
142.3664707982
  0
SEQEND
  0
POLYLINE
  8
0
 62
7
  6
CONTINUOUS
 66
1
 70
0
  0
VERTEX
  8
0
 62
7
  6
CONTINUOUS
 10
145.1179404843
 20
140.9522572358
  0
VERTEX
  8
0
 62
7
  6
CONTINUOUS
 10
145.2036419591
 20
141.1346108052
  0
VERTEX
  8
0
 62
7
  6
CONTINUOUS
 10
145.2855110495
 20
141.3221238171
  0
VERTEX
  8
0
 62
7
  6
CONTINUOUS
 10
145.3625155767
 20
141.5119779444
  0
VERTEX
  8
0
 62
7
  6
CONTINUOUS
 10
145.4340302126
 20
141.7014900975
  0
VERTEX
  8
0
 62
7
  6
CONTINUOUS
 10
145.4996337157
 20
141.8877954633
  0
SEQEND
  0
POLYLINE
  8
0
 62
7
  6
CONTINUOUS
 66
1
 70
0
  0
VERTEX
  8
0
 62
7
  6
CONTINUOUS
 10
145.0209583809
 20
140.7609647308
  0
VERTEX
  8
0
 62
7
  6
CONTINUOUS
 10
145.0696542752
 20
140.8551458398
  0
VERTEX
  8
0
 62
7
  6
CONTINUOUS
 10
145.1179404843
 20
140.9522572358
  0
SEQEND
  0
POLYLINE
  8
0
 62
7
  6
CONTINUOUS
 66
1
 70
0
  0
VERTEX
  8
0
 62
7
  6
CONTINUOUS
 10
144.552360159
 20
140.0066418952
  0
VERTEX
  8
0
 62
7
  6
CONTINUOUS
 10
144.6751870861
 20
140.1817556196
  0
VERTEX
  8
0
 62
7
  6
CONTINUOUS
 10
144.7977760445
 20
140.3711397714
  0
VERTEX
  8
0
 62
7
  6
CONTINUOUS
 10
144.9146891149
 20
140.5673627982
  0
VERTEX
  8
0
 62
7
  6
CONTINUOUS
 10
145.0209583809
 20
140.7609647308
  0
SEQEND
  0
POLYLINE
  8
0
 62
7
  6
CONTINUOUS
 66
1
 70
0
  0
VERTEX
  8
0
 62
7
  6
CONTINUOUS
 10
144.1701770596
 20
139.5380436734
  0
VERTEX
  8
0
 62
7
  6
CONTINUOUS
 10
144.3078737354
 20
139.6950185496
  0
VERTEX
  8
0
 62
7
  6
CONTINUOUS
 10
144.4365078216
 20
139.8533078216
  0
VERTEX
  8
0
 62
7
  6
CONTINUOUS
 10
144.552360159
 20
140.0066418952
  0
SEQEND
  0
LINE
  8
0
 62
7
  6
CONTINUOUS
 10
97.3861874137
 20
91.9032727062
 11
104.0051531593
 21
98.5222384518
  0
LINE
  8
0
 62
7
  6
CONTINUOUS
 10
109.901659386
 20
104.4187446785
 11
153.9514057592
 21
148.4684910517
  0
LINE
  8
0
 62
7
  6
CONTINUOUS
 10
100.2146145384
 20
91.9032727062
 11
103.785628856
 21
95.4742870238
  0
LINE
  8
0
 62
7
  6
CONTINUOUS
 10
112.7300865107
 20
104.4187446785
 11
153.9514057592
 21
145.640063927
  0
LINE
  8
0
 62
7
  6
CONTINUOUS
 10
103.0430416632
 20
91.9032727062
 11
103.785628856
 21
92.6458598991
  0
LINE
  8
0
 62
7
  6
CONTINUOUS
 10
115.5585136355
 20
104.4187446785
 11
153.9514057592
 21
142.8116368022
  0
POLYLINE
  8
0
 62
7
  6
CONTINUOUS
 66
1
 70
0
  0
VERTEX
  8
0
 62
7
  6
CONTINUOUS
 10
143.6067448185
 20
139.0049995498
  0
VERTEX
  8
0
 62
7
  6
CONTINUOUS
 10
143.7533961444
 20
139.1288793397
  0
VERTEX
  8
0
 62
7
  6
CONTINUOUS
 10
143.896002119
 20
139.2587780879
  0
VERTEX
  8
0
 62
7
  6
CONTINUOUS
 10
144.0349295522
 20
139.3951148428
  0
VERTEX
  8
0
 62
7
  6
CONTINUOUS
 10
144.1701770596
 20
139.5380436734
  0
SEQEND
  0
POLYLINE
  8
0
 62
7
  6
CONTINUOUS
 66
1
 70
0
  0
VERTEX
  8
0
 62
7
  6
CONTINUOUS
 10
106.8371921968
 20
103.4581478985
  0
VERTEX
  8
0
 62
7
  6
CONTINUOUS
 10
106.6721415196
 20
103.3353398079
  0
VERTEX
  8
0
 62
7
  6
CONTINUOUS
 10
106.5103805388
 20
103.2052826097
  0
VERTEX
  8
0
 62
7
  6
CONTINUOUS
 10
106.3518140209
 20
103.0677969696
  0
VERTEX
  8
0
 62
7
  6
CONTINUOUS
 10
106.1960304402
 20
102.9223515213
  0
VERTEX
  8
0
 62
7
  6
CONTINUOUS
 10
106.0428324742
 20
102.7684910517
  0
SEQEND
  0
POLYLINE
  8
0
 62
7
  6
CONTINUOUS
 66
1
 70
0
  0
VERTEX
  8
0
 62
7
  6
CONTINUOUS
 10
142.1925312561
 20
138.1970300751
  0
VERTEX
  8
0
 62
7
  6
CONTINUOUS
 10
142.3503933082
 20
138.2584367923
  0
VERTEX
  8
0
 62
7
  6
CONTINUOUS
 10
142.5048760963
 20
138.3246961757
  0
VERTEX
  8
0
 62
7
  6
CONTINUOUS
 10
142.6561792231
 20
138.3957729273
  0
VERTEX
  8
0
 62
7
  6
CONTINUOUS
 10
142.8044691816
 20
138.4716526236
  0
VERTEX
  8
0
 62
7
  6
CONTINUOUS
 10
142.9499091534
 20
138.5523621964
  0
VERTEX
  8
0
 62
7
  6
CONTINUOUS
 10
143.0926280826
 20
138.637946847
  0
SEQEND
  0
POLYLINE
  8
0
 62
7
  6
CONTINUOUS
 66
1
 70
0
  0
VERTEX
  8
0
 62
7
  6
CONTINUOUS
 10
141.979535988
 20
138.123830111
  0
VERTEX
  8
0
 62
7
  6
CONTINUOUS
 10
142.0861853298
 20
138.1591260888
  0
VERTEX
  8
0
 62
7
  6
CONTINUOUS
 10
142.1925312561
 20
138.1970300751
  0
SEQEND
  0
POLYLINE
  8
0
 62
7
  6
CONTINUOUS
 66
1
 70
0
  0
VERTEX
  8
0
 62
7
  6
CONTINUOUS
 10
142.1925312561
 20
104.3130317117
  0
VERTEX
  8
0
 62
7
  6
CONTINUOUS
 10
142.0235892049
 20
104.2747090252
  0
VERTEX
  8
0
 62
7
  6
CONTINUOUS
 10
141.8583321803
 20
104.2312038561
  0
VERTEX
  8
0
 62
7
  6
CONTINUOUS
 10
141.6965673428
 20
104.1827046141
  0
SEQEND
  0
POLYLINE
  8
0
 62
7
  6
CONTINUOUS
 66
1
 70
0
  0
VERTEX
  8
0
 62
7
  6
CONTINUOUS
 10
109.6656193215
 20
104.417002857
  0
VERTEX
  8
0
 62
7
  6
CONTINUOUS
 10
109.5542513663
 20
104.4128444686
  0
VERTEX
  8
0
 62
7
  6
CONTINUOUS
 10
109.4421625709
 20
104.4061613647
  0
SEQEND
  0
POLYLINE
  8
0
 62
7
  6
CONTINUOUS
 66
1
 70
0
  0
VERTEX
  8
0
 62
7
  6
CONTINUOUS
 10
75.9596540186
 20
104.4178648081
  0
VERTEX
  8
0
 62
7
  6
CONTINUOUS
 10
75.8391522072
 20
104.4142348443
  0
VERTEX
  8
0
 62
7
  6
CONTINUOUS
 10
75.7244938246
 20
104.408152697
  0
SEQEND
  0
POLYLINE
  8
0
 62
7
  6
CONTINUOUS
 66
1
 70
0
  0
VERTEX
  8
0
 62
7
  6
CONTINUOUS
 10
143.2182823454
 20
104.4187446684
  0
VERTEX
  8
0
 62
7
  6
CONTINUOUS
 10
142.9670610385
 20
104.4124911379
  0
VERTEX
  8
0
 62
7
  6
CONTINUOUS
 10
142.7117579458
 20
104.3932333414
  0
VERTEX
  8
0
 62
7
  6
CONTINUOUS
 10
142.4532968489
 20
104.3602887289
  0
VERTEX
  8
0
 62
7
  6
CONTINUOUS
 10
142.1925312561
 20
104.3130317117
  0
SEQEND
  0
POLYLINE
  8
0
 62
7
  6
CONTINUOUS
 66
1
 70
0
  0
VERTEX
  8
0
 62
7
  6
CONTINUOUS
 10
76.023217803
 20
104.4186463415
  0
VERTEX
  8
0
 62
7
  6
CONTINUOUS
 10
75.9913769687
 20
104.4183524111
  0
VERTEX
  8
0
 62
7
  6
CONTINUOUS
 10
75.9596540186
 20
104.4178648081
  0
SEQEND
  0
POLYLINE
  8
0
 62
7
  6
CONTINUOUS
 66
1
 70
0
  0
VERTEX
  8
0
 62
7
  6
CONTINUOUS
 10
109.7982849314
 20
104.4187446779
  0
VERTEX
  8
0
 62
7
  6
CONTINUOUS
 10
109.7317348248
 20
104.4183065792
  0
VERTEX
  8
0
 62
7
  6
CONTINUOUS
 10
109.6656193215
 20
104.417002857
  0
SEQEND
  0
LINE
  8
0
 62
7
  6
CONTINUOUS
 10
62.5514057592
 20
101.3542774893
 11
71.3848710341
 21
101.3542774893
  0
LINE
  8
0
 62
7
  6
CONTINUOUS
 10
94.7909734224
 20
101.3542774893
 11
105.0018381717
 21
101.3542774893
  0
LINE
  8
0
 62
7
  6
CONTINUOUS
 10
128.2109734226
 20
101.3542774893
 11
138.4218381177
 21
101.3542774893
  0
LINE
  8
0
 62
7
  6
CONTINUOUS
 10
62.5514057592
 20
102.7684910517
 11
72.3326344587
 21
102.7684910517
  0
LINE
  8
0
 62
7
  6
CONTINUOUS
 10
93.7499790904
 20
102.7684910517
 11
106.0428324742
 21
102.7684910517
  0
LINE
  8
0
 62
7
  6
CONTINUOUS
 10
127.1699790968
 20
102.7684910517
 11
139.4628324282
 21
102.7684910517
  0
LINE
  8
0
 62
7
  6
CONTINUOUS
 10
62.5514057592
 20
104.1827046141
 11
74.5232755303
 21
104.1827046141
  0
LINE
  8
0
 62
7
  6
CONTINUOUS
 10
91.5162442277
 20
104.1827046141
 11
108.2765672898
 21
104.1827046141
  0
LINE
  8
0
 62
7
  6
CONTINUOUS
 10
124.9362442604
 20
104.1827046141
 11
141.6965673428
 21
104.1827046141
  0
LINE
  8
0
 62
7
  6
CONTINUOUS
 10
109.7982843483
 20
104.4187446785
 11
123.4145272809
 21
104.4187446786
  0
LINE
  8
0
 62
7
  6
CONTINUOUS
 10
143.2182823456
 20
104.4187446684
 11
153.9514057592
 21
104.418744703
  0
LINE
  8
0
 62
7
  6
CONTINUOUS
 10
62.5514057592
 20
105.5969181765
 11
153.9514057592
 21
105.5969181765
  0
LINE
  8
0
 62
7
  6
CONTINUOUS
 10
62.5514057592
 20
107.0111317388
 11
153.9514057592
 21
107.0111317388
  0
POLYLINE
  8
0
 62
7
  6
CONTINUOUS
 66
1
 70
0
  0
VERTEX
  8
0
 62
7
  6
CONTINUOUS
 10
90.1015364731
 20
104.4176116388
  0
VERTEX
  8
0
 62
7
  6
CONTINUOUS
 10
90.0657815142
 20
104.4182424321
  0
VERTEX
  8
0
 62
7
  6
CONTINUOUS
 10
90.0301108198
 20
104.4186194471
  0
VERTEX
  8
0
 62
7
  6
CONTINUOUS
 10
76.023217803
 20
104.4186463415
  0
SEQEND
  0
POLYLINE
  8
0
 62
7
  6
CONTINUOUS
 66
1
 70
0
  0
VERTEX
  8
0
 62
7
  6
CONTINUOUS
 10
123.5742399339
 20
104.4162196255
  0
VERTEX
  8
0
 62
7
  6
CONTINUOUS
 10
123.5212873645
 20
104.4176169159
  0
VERTEX
  8
0
 62
7
  6
CONTINUOUS
 10
123.468046663
 20
104.4184613669
  0
VERTEX
  8
0
 62
7
  6
CONTINUOUS
 10
123.4145272825
 20
104.4187446786
  0
SEQEND
  0
POLYLINE
  8
0
 62
7
  6
CONTINUOUS
 66
1
 70
0
  0
VERTEX
  8
0
 62
7
  6
CONTINUOUS
 10
123.8077549453
 20
104.4033947042
  0
VERTEX
  8
0
 62
7
  6
CONTINUOUS
 10
123.6917279667
 20
104.4111285966
  0
VERTEX
  8
0
 62
7
  6
CONTINUOUS
 10
123.5742399339
 20
104.4162196255
  0
SEQEND
  0
POLYLINE
  8
0
 62
7
  6
CONTINUOUS
 66
1
 70
0
  0
VERTEX
  8
0
 62
7
  6
CONTINUOUS
 10
124.0086477295
 20
104.3835973983
  0
VERTEX
  8
0
 62
7
  6
CONTINUOUS
 10
123.9079583176
 20
104.3945401809
  0
VERTEX
  8
0
 62
7
  6
CONTINUOUS
 10
123.8077549453
 20
104.4033947042
  0
SEQEND
  0
POLYLINE
  8
0
 62
7
  6
CONTINUOUS
 66
1
 70
0
  0
VERTEX
  8
0
 62
7
  6
CONTINUOUS
 10
90.4051905326
 20
138.6623911954
  0
VERTEX
  8
0
 62
7
  6
CONTINUOUS
 10
90.5406893033
 20
138.5805712203
  0
VERTEX
  8
0
 62
7
  6
CONTINUOUS
 10
90.681113337
 20
138.5015169932
  0
VERTEX
  8
0
 62
7
  6
CONTINUOUS
 10
90.8259478594
 20
138.4258397491
  0
VERTEX
  8
0
 62
7
  6
CONTINUOUS
 10
90.9746082168
 20
138.3540999586
  0
VERTEX
  8
0
 62
7
  6
CONTINUOUS
 10
91.1264866022
 20
138.2867744966
  0
VERTEX
  8
0
 62
7
  6
CONTINUOUS
 10
91.2808430107
 20
138.2243056847
  0
SEQEND
  0
LINE
  8
0
 62
7
  6
CONTINUOUS
 10
143.3707047637
 20
104.4187446689
 11
109.2247427797
 21
138.5647066529
  0
LINE
  8
0
 62
7
  6
CONTINUOUS
 10
146.1991318793
 20
104.418744678
 11
110.7526673538
 21
139.8652092036
  0
LINE
  8
0
 62
7
  6
CONTINUOUS
 10
149.0275589949
 20
104.4187446872
 11
111.8346735445
 21
141.6116301376
  0
POLYLINE
  8
0
 62
7
  6
CONTINUOUS
 66
1
 70
0
  0
VERTEX
  8
0
 62
7
  6
CONTINUOUS
 10
121.8158237077
 20
140.7749514255
  0
VERTEX
  8
0
 62
7
  6
CONTINUOUS
 10
121.9618369569
 20
140.5423757214
  0
VERTEX
  8
0
 62
7
  6
CONTINUOUS
 10
122.1066873339
 20
140.3279156928
  0
VERTEX
  8
0
 62
7
  6
CONTINUOUS
 10
122.2504507901
 20
140.1299066164
  0
VERTEX
  8
0
 62
7
  6
CONTINUOUS
 10
122.3935413829
 20
139.9463491539
  0
SEQEND
  0
POLYLINE
  8
0
 62
7
  6
CONTINUOUS
 66
1
 70
0
  0
VERTEX
  8
0
 62
7
  6
CONTINUOUS
 10
121.711838096
 20
140.9522572358
  0
VERTEX
  8
0
 62
7
  6
CONTINUOUS
 10
121.7632182211
 20
140.8632340268
  0
VERTEX
  8
0
 62
7
  6
CONTINUOUS
 10
121.8158237077
 20
140.7749514255
  0
SEQEND
  0
POLYLINE
  8
SURFACE
 62
7
  6
CONTINUOUS
 66
1
 70
0
  0
VERTEX
  8
SURFACE
 62
7
  6
CONTINUOUS
 10
125.4941352248
 20
143.0020627214
  0
VERTEX
  8
SURFACE
 62
7
  6
CONTINUOUS
 10
125.3969896975
 20
143.1746566486
  0
VERTEX
  8
SURFACE
 62
7
  6
CONTINUOUS
 10
125.3019663683
 20
143.3704894928
  0
VERTEX
  8
SURFACE
 62
7
  6
CONTINUOUS
 10
125.2151167214
 20
143.5790410233
  0
VERTEX
  8
SURFACE
 62
7
  6
CONTINUOUS
 10
125.136228555
 20
143.800552776
  0
VERTEX
  8
SURFACE
 62
7
  6
CONTINUOUS
 10
125.065285824
 20
144.0351728922
  0
VERTEX
  8
SURFACE
 62
7
  6
CONTINUOUS
 10
125.0024264181
 20
144.2827587916
  0
VERTEX
  8
SURFACE
 62
7
  6
CONTINUOUS
 10
124.9477207491
 20
144.5435126898
  0
VERTEX
  8
SURFACE
 62
7
  6
CONTINUOUS
 10
124.9012400772
 20
144.8178422666
  0
VERTEX
  8
SURFACE
 62
7
  6
CONTINUOUS
 10
124.8630919469
 20
145.1061482581
  0
VERTEX
  8
SURFACE
 62
7
  6
CONTINUOUS
 10
124.8333744448
 20
145.4090145939
  0
VERTEX
  8
SURFACE
 62
7
  6
CONTINUOUS
 10
124.8121791475
 20
145.7271694451
  0
VERTEX
  8
SURFACE
 62
7
  6
CONTINUOUS
 10
124.7995914359
 20
146.0612175228
  0
VERTEX
  8
SURFACE
 62
7
  6
CONTINUOUS
 10
124.7956287558
 20
146.3972799804
  0
SEQEND
  0
POLYLINE
  8
0
 62
7
  6
CONTINUOUS
 66
1
 70
0
  0
VERTEX
  8
0
 62
7
  6
CONTINUOUS
 10
121.4606572436
 20
141.4335866588
  0
VERTEX
  8
0
 62
7
  6
CONTINUOUS
 10
121.5416253818
 20
141.2692337888
  0
VERTEX
  8
0
 62
7
  6
CONTINUOUS
 10
121.6253746339
 20
141.1087929348
  0
VERTEX
  8
0
 62
7
  6
CONTINUOUS
 10
121.711838096
 20
140.9522572358
  0
SEQEND
  0
LINE
  8
0
 62
7
  6
CONTINUOUS
 10
140.7783176937
 20
137.8983820282
 11
140.7783176937
 21
103.787064692
  0
LINE
  8
0
 62
7
  6
CONTINUOUS
 10
142.1925312561
 20
104.3130317117
 11
142.1925312561
 21
138.1970300751
  0
LINE
  8
0
 62
7
  6
CONTINUOUS
 10
143.6067448185
 20
104.4187446697
 11
143.6067448185
 21
139.0049995498
  0
LINE
  8
0
 62
7
  6
CONTINUOUS
 10
145.0209583809
 20
104.4187446742
 11
145.0209583809
 21
140.7609647308
  0
LINE
  8
0
 62
7
  6
CONTINUOUS
 10
146.4351719432
 20
104.4187446788
 11
146.4351719432
 21
150.4032632701
  0
LINE
  8
0
 62
7
  6
CONTINUOUS
 10
146.2171943977
 20
146.3911339397
 11
146.2171953393
 21
150.4032631811
  0
LINE
  8
SURFACE
 62
7
  6
CONTINUOUS
 10
141.5052771991
 20
88.3720274525
 11
141.505628856
 21
95.9092547865
  0
LINE
  8
SURFACE
 62
7
  6
CONTINUOUS
 10
141.9175477834
 20
153.935247392
 11
141.9171953393
 21
146.3972320359
  0
LINE
  8
SURFACE
 62
7
  6
CONTINUOUS
 10
141.5035885573
 20
86.9284060202
 11
141.5052771991
 21
88.3720274525
  0
LINE
  8
SURFACE
 62
7
  6
CONTINUOUS
 10
141.9192374154
 20
155.3782169901
 11
141.9175477834
 21
153.935247392
  0
LINE
  8
SURFACE
 62
7
  6
CONTINUOUS
 10
141.5008614779
 20
85.6428036817
 11
141.5035885573
 21
86.9284060202
  0
LINE
  8
SURFACE
 62
7
  6
CONTINUOUS
 10
141.9219654678
 20
156.6633225055
 11
141.9192374154
 21
155.3782169901
  0
LINE
  8
SURFACE
 62
7
  6
CONTINUOUS
 10
141.4961963768
 20
84.1685951564
 11
141.5008614779
 21
85.6428036817
  0
LINE
  8
SURFACE
 62
7
  6
CONTINUOUS
 10
141.9266323853
 20
158.1371512583
 11
141.9219654678
 21
156.6633225055
  0
LINE
  8
SURFACE
 62
7
  6
CONTINUOUS
 10
141.4907194444
 20
82.9038890864
 11
141.4961963768
 21
84.1685951564
  0
LINE
  8
SURFACE
 62
7
  6
CONTINUOUS
 10
141.9321114014
 20
159.4015789295
 11
141.9266323853
 21
158.1371512583
  0
LINE
  8
SURFACE
 62
7
  6
CONTINUOUS
 10
141.9396830887
 20
160.7413450722
 11
141.9321114014
 21
159.4015789295
  0
LINE
  8
SURFACE
 62
7
  6
CONTINUOUS
 10
141.4831508339
 20
81.5639105958
 11
141.4907194444
 21
82.9038890864
  0
LINE
  8
SURFACE
 62
7
  6
CONTINUOUS
 10
141.949068442
 20
162.0225981915
 11
141.9396830887
 21
160.7413450722
  0
LINE
  8
SURFACE
 62
7
  6
CONTINUOUS
 10
141.4737694884
 20
80.2825299547
 11
141.4831508339
 21
81.5639105958
  0
LINE
  8
SURFACE
 62
7
  6
CONTINUOUS
 10
141.9599234166
 20
163.1706947477
 11
141.949068442
 21
162.0225981915
  0
LINE
  8
SURFACE
 62
7
  6
CONTINUOUS
 10
141.4629191422
 20
79.1343787853
 11
141.4737694884
 21
80.2825299547
  0
POLYLINE
  8
SURFACE
 62
7
  6
CONTINUOUS
 66
1
 70
0
  0
VERTEX
  8
SURFACE
 62
7
  6
CONTINUOUS
 10
141.5056287461
 20
95.9092547865
  0
VERTEX
  8
SURFACE
 62
7
  6
CONTINUOUS
 10
141.5095914408
 20
96.245317191
  0
VERTEX
  8
SURFACE
 62
7
  6
CONTINUOUS
 10
141.5221791386
 20
96.5793652916
  0
VERTEX
  8
SURFACE
 62
7
  6
CONTINUOUS
 10
141.5433744486
 20
96.8975201462
  0
VERTEX
  8
SURFACE
 62
7
  6
CONTINUOUS
 10
141.5730919431
 20
97.200386398
  0
VERTEX
  8
SURFACE
 62
7
  6
CONTINUOUS
 10
141.6112400679
 20
97.4886924145
  0
VERTEX
  8
SURFACE
 62
7
  6
CONTINUOUS
 10
141.6577207498
 20
97.7630220462
  0
VERTEX
  8
SURFACE
 62
7
  6
CONTINUOUS
 10
141.7124264234
 20
98.0237759237
  0
VERTEX
  8
SURFACE
 62
7
  6
CONTINUOUS
 10
141.7752858495
 20
98.2713619158
  0
VERTEX
  8
SURFACE
 62
7
  6
CONTINUOUS
 10
141.8462285653
 20
98.5059820055
  0
VERTEX
  8
SURFACE
 62
7
  6
CONTINUOUS
 10
141.9251167818
 20
98.7274938595
  0
VERTEX
  8
SURFACE
 62
7
  6
CONTINUOUS
 10
142.0119665103
 20
98.9360455495
  0
VERTEX
  8
SURFACE
 62
7
  6
CONTINUOUS
 10
142.1069898183
 20
99.1318783154
  0
VERTEX
  8
SURFACE
 62
7
  6
CONTINUOUS
 10
142.2041352763
 20
99.3044720547
  0
SEQEND
  0
LINE
  8
SURFACE
 62
7
  6
CONTINUOUS
 10
141.9722137616
 20
164.1687186253
 11
141.9599234166
 21
163.1706947477
  0
LINE
  8
SURFACE
 62
7
  6
CONTINUOUS
 10
141.4506345465
 20
78.1364246403
 11
141.4629191422
 21
79.1343787853
  0
POLYLINE
  8
SURFACE
 62
7
  6
CONTINUOUS
 66
1
 70
0
  0
VERTEX
  8
SURFACE
 62
7
  6
CONTINUOUS
 10
141.9171954227
 20
146.3972320359
  0
VERTEX
  8
SURFACE
 62
7
  6
CONTINUOUS
 10
141.9111569283
 20
145.9847271384
  0
VERTEX
  8
SURFACE
 62
7
  6
CONTINUOUS
 10
141.8917036732
 20
145.5749310606
  0
VERTEX
  8
SURFACE
 62
7
  6
CONTINUOUS
 10
141.858329453
 20
145.1839527222
  0
VERTEX
  8
SURFACE
 62
7
  6
CONTINUOUS
 10
141.8108034213
 20
144.812632482
  0
VERTEX
  8
SURFACE
 62
7
  6
CONTINUOUS
 10
141.749063155
 20
144.461425651
  0
VERTEX
  8
SURFACE
 62
7
  6
CONTINUOUS
 10
141.6764417882
 20
144.1434300156
  0
SEQEND
  0
LINE
  8
SURFACE
 62
7
  6
CONTINUOUS
 10
141.9841001508
 20
164.9015543963
 11
141.9722137616
 21
164.1687186253
  0
LINE
  8
SURFACE
 62
7
  6
CONTINUOUS
 10
141.4387547438
 20
77.403777431
 11
141.4506345465
 21
78.1364246403
  0
LINE
  8
SURFACE
 62
7
  6
CONTINUOUS
 10
141.9926187519
 20
165.3102313675
 11
141.9841001508
 21
164.9015543963
  0
LINE
  8
SURFACE
 62
7
  6
CONTINUOUS
 10
141.4302417189
 20
76.9952920795
 11
141.4387547438
 21
77.403777431
  0
LINE
  8
SURFACE
 62
7
  6
CONTINUOUS
 10
141.9992423166
 20
165.5684957068
 11
141.9926187519
 21
165.3102313675
  0
LINE
  8
SURFACE
 62
7
  6
CONTINUOUS
 10
141.4236241141
 20
76.7372347791
 11
141.4302417189
 21
76.9952920795
  0
LINE
  8
SURFACE
 62
7
  6
CONTINUOUS
 10
142.0041307246
 20
165.7282907274
 11
141.9992423166
 21
165.5684957068
  0
LINE
  8
SURFACE
 62
7
  6
CONTINUOUS
 10
141.4187400649
 20
76.5775774764
 11
141.4236241141
 21
76.7372347791
  0
LINE
  8
SURFACE
 62
7
  6
CONTINUOUS
 10
142.0076330637
 20
165.8276428262
 11
142.0041307246
 21
165.7282907274
  0
LINE
  8
SURFACE
 62
7
  6
CONTINUOUS
 10
141.4152405474
 20
76.4783093749
 11
141.4187400649
 21
76.5775774764
  0
LINE
  8
SURFACE
 62
7
  6
CONTINUOUS
 10
142.0110748654
 20
165.9136287243
 11
142.0076330637
 21
165.8276428262
  0
LINE
  8
SURFACE
 62
7
  6
CONTINUOUS
 10
141.4118010504
 20
76.3923915021
 11
141.4152405474
 21
76.4783093749
  0
LINE
  8
SURFACE
 62
7
  6
CONTINUOUS
 10
141.4083226351
 20
76.3165603745
 11
141.4118010504
 21
76.3923915021
  0
LINE
  8
SURFACE
 62
7
  6
CONTINUOUS
 10
141.4059266318
 20
76.2703644973
 11
141.4083226351
 21
76.3165603745
  0
LINE
  8
SURFACE
 62
7
  6
CONTINUOUS
 10
141.4034198634
 20
76.2268992795
 11
141.4059266318
 21
76.2703644973
  0
POLYLINE
  8
0
 62
7
  6
CONTINUOUS
 66
1
 70
0
  0
VERTEX
  8
0
 62
7
  6
CONTINUOUS
 10
146.1756725459
 20
145.1948979229
  0
VERTEX
  8
0
 62
7
  6
CONTINUOUS
 10
146.1979782832
 20
145.5666694209
  0
VERTEX
  8
0
 62
7
  6
CONTINUOUS
 10
146.2121773978
 20
145.9655869037
  0
VERTEX
  8
0
 62
7
  6
CONTINUOUS
 10
146.2171943977
 20
146.3911339397
  0
SEQEND
  0
POLYLINE
  8
0
 62
7
  6
CONTINUOUS
 66
1
 70
0
  0
VERTEX
  8
0
 62
7
  6
CONTINUOUS
 10
146.0603170273
 20
144.1555392765
  0
VERTEX
  8
0
 62
7
  6
CONTINUOUS
 10
146.1062795819
 20
144.4872971482
  0
VERTEX
  8
0
 62
7
  6
CONTINUOUS
 10
146.1449009569
 20
144.8337417792
  0
VERTEX
  8
0
 62
7
  6
CONTINUOUS
 10
146.1756725459
 20
145.1948979229
  0
SEQEND
  0
POLYLINE
  8
0
 62
7
  6
CONTINUOUS
 66
1
 70
0
  0
VERTEX
  8
0
 62
7
  6
CONTINUOUS
 10
137.4258236443
 20
98.5258503646
  0
VERTEX
  8
0
 62
7
  6
CONTINUOUS
 10
137.373776753
 20
98.2234236198
  0
VERTEX
  8
0
 62
7
  6
CONTINUOUS
 10
137.3273400973
 20
97.9032998929
  0
SEQEND
  0
POLYLINE
  8
0
 62
7
  6
CONTINUOUS
 66
1
 70
0
  0
VERTEX
  8
0
 62
7
  6
CONTINUOUS
 10
145.9970081265
 20
143.7806843605
  0
VERTEX
  8
0
 62
7
  6
CONTINUOUS
 10
146.0299290215
 20
143.9663530355
  0
VERTEX
  8
0
 62
7
  6
CONTINUOUS
 10
146.0603170273
 20
144.1555392765
  0
SEQEND
  0
POLYLINE
  8
0
 62
7
  6
CONTINUOUS
 66
1
 70
0
  0
VERTEX
  8
0
 62
7
  6
CONTINUOUS
 10
137.515547208
 20
98.9601937256
  0
VERTEX
  8
0
 62
7
  6
CONTINUOUS
 10
137.4689766695
 20
98.7458455831
  0
VERTEX
  8
0
 62
7
  6
CONTINUOUS
 10
137.4258236443
 20
98.5258503646
  0
SEQEND
  0
POLYLINE
  8
0
 62
7
  6
CONTINUOUS
 66
1
 70
0
  0
VERTEX
  8
0
 62
7
  6
CONTINUOUS
 10
145.8786639155
 20
143.2241763328
  0
VERTEX
  8
0
 62
7
  6
CONTINUOUS
 10
145.9400721131
 20
143.4950295741
  0
VERTEX
  8
0
 62
7
  6
CONTINUOUS
 10
145.9970081265
 20
143.7806843605
  0
SEQEND
  0
POLYLINE
  8
0
 62
7
  6
CONTINUOUS
 66
1
 70
0
  0
VERTEX
  8
0
 62
7
  6
CONTINUOUS
 10
145.8541051838
 20
143.1243017759
  0
VERTEX
  8
0
 62
7
  6
CONTINUOUS
 10
145.8664630017
 20
143.1740210169
  0
VERTEX
  8
0
 62
7
  6
CONTINUOUS
 10
145.8786639155
 20
143.2241763328
  0
SEQEND
  0
POLYLINE
  8
0
 62
7
  6
CONTINUOUS
 66
1
 70
0
  0
VERTEX
  8
0
 62
7
  6
CONTINUOUS
 10
137.791796735
 20
99.940063927
  0
VERTEX
  8
0
 62
7
  6
CONTINUOUS
 10
137.6909704668
 20
99.6254820063
  0
VERTEX
  8
0
 62
7
  6
CONTINUOUS
 10
137.598740289
 20
99.2987927691
  0
VERTEX
  8
0
 62
7
  6
CONTINUOUS
 10
137.515547208
 20
98.9601937256
  0
SEQEND
  0
POLYLINE
  8
0
 62
7
  6
CONTINUOUS
 66
1
 70
0
  0
VERTEX
  8
0
 62
7
  6
CONTINUOUS
 10
137.949890569
 20
100.3684652923
  0
VERTEX
  8
0
 62
7
  6
CONTINUOUS
 10
137.8943918238
 20
100.2256939169
  0
VERTEX
  8
0
 62
7
  6
CONTINUOUS
 10
137.841737785
 20
100.0829139709
  0
VERTEX
  8
0
 62
7
  6
CONTINUOUS
 10
137.791796735
 20
99.940063927
  0
SEQEND
  0
LINE
  8
0
 62
7
  6
CONTINUOUS
 10
118.3869407602
 20
104.4187446786
 11
153.9514057592
 21
139.9832096775
  0
LINE
  8
0
 62
7
  6
CONTINUOUS
 10
121.215367885
 20
104.4187446786
 11
153.9514057592
 21
137.1547825527
  0
LINE
  8
0
 62
7
  6
CONTINUOUS
 10
124.0086477295
 20
104.3835973983
 11
153.9514057592
 21
134.326355428
  0
LINE
  8
0
 62
7
  6
CONTINUOUS
 10
126.0976209857
 20
103.6441435298
 11
153.9514057592
 21
131.4979283032
  0
POLYLINE
  8
0
 62
7
  6
CONTINUOUS
 66
1
 70
0
  0
VERTEX
  8
0
 62
7
  6
CONTINUOUS
 10
107.2780687439
 20
103.741828067
  0
VERTEX
  8
0
 62
7
  6
CONTINUOUS
 10
107.0563992994
 20
103.6068880869
  0
VERTEX
  8
0
 62
7
  6
CONTINUOUS
 10
106.8371921968
 20
103.4581478985
  0
SEQEND
  0
POLYLINE
  8
0
 62
7
  6
CONTINUOUS
 66
1
 70
0
  0
VERTEX
  8
0
 62
7
  6
CONTINUOUS
 10
74.3102802622
 20
104.10950465
  0
VERTEX
  8
0
 62
7
  6
CONTINUOUS
 10
74.1524182101
 20
104.0480979328
  0
VERTEX
  8
0
 62
7
  6
CONTINUOUS
 10
73.997935422
 20
103.9818385495
  0
VERTEX
  8
0
 62
7
  6
CONTINUOUS
 10
73.8466322952
 20
103.9107617978
  0
VERTEX
  8
0
 62
7
  6
CONTINUOUS
 10
73.6983423367
 20
103.8348821015
  0
VERTEX
  8
0
 62
7
  6
CONTINUOUS
 10
73.552902365
 20
103.7541725287
  0
VERTEX
  8
0
 62
7
  6
CONTINUOUS
 10
73.4101834357
 20
103.6685878782
  0
SEQEND
  0
POLYLINE
  8
0
 62
7
  6
CONTINUOUS
 66
1
 70
0
  0
VERTEX
  8
0
 62
7
  6
CONTINUOUS
 10
74.5232755303
 20
104.1827046141
  0
VERTEX
  8
0
 62
7
  6
CONTINUOUS
 10
74.4166261885
 20
104.1474086363
  0
VERTEX
  8
0
 62
7
  6
CONTINUOUS
 10
74.3102802622
 20
104.10950465
  0
SEQEND
  0
POLYLINE
  8
0
 62
7
  6
CONTINUOUS
 66
1
 70
0
  0
VERTEX
  8
0
 62
7
  6
CONTINUOUS
 10
75.5166732795
 20
104.3905251591
  0
VERTEX
  8
0
 62
7
  6
CONTINUOUS
 10
75.3703542685
 20
104.3729384597
  0
VERTEX
  8
0
 62
7
  6
CONTINUOUS
 10
75.2269102231
 20
104.3514705632
  0
VERTEX
  8
0
 62
7
  6
CONTINUOUS
 10
75.0854520599
 20
104.3261302943
  0
VERTEX
  8
0
 62
7
  6
CONTINUOUS
 10
74.9451329748
 20
104.2968212831
  0
VERTEX
  8
0
 62
7
  6
CONTINUOUS
 10
74.8051554444
 20
104.2633541682
  0
VERTEX
  8
0
 62
7
  6
CONTINUOUS
 10
74.6647644612
 20
104.2254391055
  0
VERTEX
  8
0
 62
7
  6
CONTINUOUS
 10
74.5232755303
 20
104.1827046141
  0
SEQEND
  0
POLYLINE
  8
0
 62
7
  6
CONTINUOUS
 66
1
 70
0
  0
VERTEX
  8
0
 62
7
  6
CONTINUOUS
 10
109.4421625709
 20
104.4061613647
  0
VERTEX
  8
0
 62
7
  6
CONTINUOUS
 10
109.1980789582
 20
104.3828700116
  0
VERTEX
  8
0
 62
7
  6
CONTINUOUS
 10
108.9565285705
 20
104.3478555181
  0
VERTEX
  8
0
 62
7
  6
CONTINUOUS
 10
108.7206062435
 20
104.3019068131
  0
VERTEX
  8
0
 62
7
  6
CONTINUOUS
 10
108.4930844615
 20
104.2462859913
  0
VERTEX
  8
0
 62
7
  6
CONTINUOUS
 10
108.2765672898
 20
104.1827046141
  0
SEQEND
  0
POLYLINE
  8
0
 62
7
  6
CONTINUOUS
 66
1
 70
0
  0
VERTEX
  8
0
 62
7
  6
CONTINUOUS
 10
75.7244938246
 20
104.408152697
  0
VERTEX
  8
0
 62
7
  6
CONTINUOUS
 10
75.6207562633
 20
104.400423361
  0
VERTEX
  8
0
 62
7
  6
CONTINUOUS
 10
75.5166732795
 20
104.3905251591
  0
SEQEND
  0
LINE
  8
0
 62
7
  6
CONTINUOUS
 10
62.5514057592
 20
108.4253453012
 11
153.9514057592
 21
108.4253453012
  0
LINE
  8
0
 62
7
  6
CONTINUOUS
 10
62.5514057592
 20
109.8395588636
 11
153.9514057592
 21
109.8395588636
  0
LINE
  8
0
 62
7
  6
CONTINUOUS
 10
62.5514057592
 20
111.253772426
 11
153.9514057592
 21
111.253772426
  0
LINE
  8
0
 62
7
  6
CONTINUOUS
 10
62.5514057592
 20
112.6679859883
 11
153.9514057592
 21
112.6679859883
  0
LINE
  8
0
 62
7
  6
CONTINUOUS
 10
62.5514057592
 20
114.0821995507
 11
153.9514057592
 21
114.0821995507
  0
LINE
  8
0
 62
7
  6
CONTINUOUS
 10
151.8559861105
 20
104.4187446963
 11
112.4965267511
 21
143.7782040557
  0
LINE
  8
0
 62
7
  6
CONTINUOUS
 10
153.9514057592
 20
105.1517521724
 11
112.7171794022
 21
146.3859785294
  0
LINE
  8
0
 62
7
  6
CONTINUOUS
 10
153.9514057592
 20
107.9801792971
 11
112.7171826623
 21
149.214402394
  0
LINE
  8
0
 62
7
  6
CONTINUOUS
 10
153.9514057592
 20
110.8086064219
 11
126.8722221309
 21
137.8877900502
  0
LINE
  8
0
 62
7
  6
CONTINUOUS
 10
120.661314102
 20
144.098698079
 11
114.3567501622
 21
150.4032620189
  0
POLYLINE
  8
0
 62
7
  6
CONTINUOUS
 66
1
 70
0
  0
VERTEX
  8
0
 62
7
  6
CONTINUOUS
 10
122.7528324279
 20
139.5380436734
  0
VERTEX
  8
0
 62
7
  6
CONTINUOUS
 10
122.8957832657
 20
139.39413015
  0
VERTEX
  8
0
 62
7
  6
CONTINUOUS
 10
123.0409519967
 20
139.2576018019
  0
VERTEX
  8
0
 62
7
  6
CONTINUOUS
 10
123.1885449601
 20
139.1280382141
  0
VERTEX
  8
0
 62
7
  6
CONTINUOUS
 10
123.3388124502
 20
139.0050629333
  0
VERTEX
  8
0
 62
7
  6
CONTINUOUS
 10
123.491964584
 20
138.8884078559
  0
VERTEX
  8
0
 62
7
  6
CONTINUOUS
 10
123.6481567058
 20
138.7779121207
  0
VERTEX
  8
0
 62
7
  6
CONTINUOUS
 10
123.8077549453
 20
138.6733271985
  0
SEQEND
  0
POLYLINE
  8
0
 62
7
  6
CONTINUOUS
 66
1
 70
0
  0
VERTEX
  8
0
 62
7
  6
CONTINUOUS
 10
122.5805358513
 20
139.7250381418
  0
VERTEX
  8
0
 62
7
  6
CONTINUOUS
 10
122.6655250815
 20
139.6308717068
  0
VERTEX
  8
0
 62
7
  6
CONTINUOUS
 10
122.7528324279
 20
139.5380436734
  0
SEQEND
  0
POLYLINE
  8
0
 62
7
  6
CONTINUOUS
 66
1
 70
0
  0
VERTEX
  8
0
 62
7
  6
CONTINUOUS
 10
122.3935413829
 20
139.9463491539
  0
VERTEX
  8
0
 62
7
  6
CONTINUOUS
 10
122.4869061132
 20
139.833340208
  0
VERTEX
  8
0
 62
7
  6
CONTINUOUS
 10
122.5805358513
 20
139.7250381418
  0
SEQEND
  0
LINE
  8
0
 62
7
  6
CONTINUOUS
 10
147.8493855056
 20
150.4032638479
 11
147.8493855056
 21
104.4187446834
  0
LINE
  8
0
 62
7
  6
CONTINUOUS
 10
149.263599068
 20
150.4032644258
 11
149.263599068
 21
104.4187446879
  0
LINE
  8
0
 62
7
  6
CONTINUOUS
 10
150.6778126304
 20
150.4032650036
 11
150.6778126304
 21
104.4187446925
  0
LINE
  8
0
 62
7
  6
CONTINUOUS
 10
152.0920261927
 20
150.4032655814
 11
152.0920261927
 21
104.418744697
  0
LINE
  8
0
 62
7
  6
CONTINUOUS
 10
153.5062397551
 20
150.4032661592
 11
153.5062397551
 21
104.4187447016
  0
LINE
  8
0
 62
7
  6
CONTINUOUS
 10
153.9514057592
 20
104.418744703
 11
153.9514057592
 21
150.4032663411
  0
POLYLINE
  8
0
 62
7
  6
CONTINUOUS
 66
1
 70
0
  0
VERTEX
  8
0
 62
7
  6
CONTINUOUS
 10
138.2567607504
 20
101.047407308
  0
VERTEX
  8
0
 62
7
  6
CONTINUOUS
 10
138.1494357473
 20
100.8282300232
  0
VERTEX
  8
0
 62
7
  6
CONTINUOUS
 10
138.0470865119
 20
100.601918953
  0
VERTEX
  8
0
 62
7
  6
CONTINUOUS
 10
137.949890569
 20
100.3684652923
  0
SEQEND
  0
POLYLINE
  8
0
 62
7
  6
CONTINUOUS
 66
1
 70
0
  0
VERTEX
  8
0
 62
7
  6
CONTINUOUS
 10
138.4218381177
 20
101.3542774893
  0
VERTEX
  8
0
 62
7
  6
CONTINUOUS
 10
138.3380174739
 20
101.2026584578
  0
VERTEX
  8
0
 62
7
  6
CONTINUOUS
 10
138.2567607504
 20
101.047407308
  0
SEQEND
  0
POLYLINE
  8
0
 62
7
  6
CONTINUOUS
 66
1
 70
0
  0
VERTEX
  8
0
 62
7
  6
CONTINUOUS
 10
138.5257911965
 20
101.5315295811
  0
VERTEX
  8
0
 62
7
  6
CONTINUOUS
 10
138.4720824945
 20
101.4413633434
  0
VERTEX
  8
0
 62
7
  6
CONTINUOUS
 10
138.4218381177
 20
101.3542774893
  0
SEQEND
  0
LINE
  8
0
 62
7
  6
CONTINUOUS
 10
127.5793338387
 20
102.297429258
 11
153.9514057592
 21
128.6695011785
  0
LINE
  8
0
 62
7
  6
CONTINUOUS
 10
128.6236026999
 20
100.5132709945
 11
153.9514057592
 21
125.8410740537
  0
LINE
  8
0
 62
7
  6
CONTINUOUS
 10
129.2455094141
 20
98.3067505839
 11
153.9514057592
 21
123.012646929
  0
LINE
  8
0
 62
7
  6
CONTINUOUS
 10
62.5514057592
 20
115.4964131131
 11
153.9514057592
 21
115.4964131131
  0
LINE
  8
0
 62
7
  6
CONTINUOUS
 10
62.5514057592
 20
116.9106266754
 11
153.9514057592
 21
116.9106266754
  0
LINE
  8
0
 62
7
  6
CONTINUOUS
 10
62.5514057592
 20
118.3248402378
 11
153.9514057592
 21
118.3248402378
  0
LINE
  8
0
 62
7
  6
CONTINUOUS
 10
62.5514057592
 20
119.7390538002
 11
153.9514057592
 21
119.7390538002
  0
LINE
  8
0
 62
7
  6
CONTINUOUS
 10
62.5514057592
 20
121.1532673626
 11
153.9514057592
 21
121.1532673626
  0
POLYLINE
  8
0
 62
7
  6
CONTINUOUS
 66
1
 70
0
  0
VERTEX
  8
0
 62
7
  6
CONTINUOUS
 10
91.566567258
 20
138.123830111
  0
VERTEX
  8
0
 62
7
  6
CONTINUOUS
 10
91.7186327667
 20
138.078072367
  0
VERTEX
  8
0
 62
7
  6
CONTINUOUS
 10
91.8706820579
 20
138.0374976771
  0
VERTEX
  8
0
 62
7
  6
CONTINUOUS
 10
92.0234556287
 20
138.001821244
  0
VERTEX
  8
0
 62
7
  6
CONTINUOUS
 10
92.177729494
 20
137.9708663115
  0
VERTEX
  8
0
 62
7
  6
CONTINUOUS
 10
92.3343283859
 20
137.9445597696
  0
VERTEX
  8
0
 62
7
  6
CONTINUOUS
 10
92.4941637888
 20
137.9229373268
  0
SEQEND
  0
POLYLINE
  8
0
 62
7
  6
CONTINUOUS
 66
1
 70
0
  0
VERTEX
  8
0
 62
7
  6
CONTINUOUS
 10
91.2808430107
 20
138.2243056847
  0
VERTEX
  8
0
 62
7
  6
CONTINUOUS
 10
91.4222683318
 20
138.1721622099
  0
VERTEX
  8
0
 62
7
  6
CONTINUOUS
 10
91.566567258
 20
138.123830111
  0
SEQEND
  0
POLYLINE
  8
0
 62
7
  6
CONTINUOUS
 66
1
 70
0
  0
VERTEX
  8
0
 62
7
  6
CONTINUOUS
 10
123.8077549453
 20
138.6733271985
  0
VERTEX
  8
0
 62
7
  6
CONTINUOUS
 10
123.9844983289
 20
138.5667629544
  0
VERTEX
  8
0
 62
7
  6
CONTINUOUS
 10
124.156050218
 20
138.4721253837
  0
SEQEND
  0
LINE
  8
0
 62
7
  6
CONTINUOUS
 10
153.9514057592
 20
113.6370335466
 11
129.700649267
 21
137.8877900388
  0
LINE
  8
0
 62
7
  6
CONTINUOUS
 10
120.495628856
 20
147.0928104498
 11
117.1851772869
 21
150.4032620189
  0
LINE
  8
0
 62
7
  6
CONTINUOUS
 10
153.9514057592
 20
116.4654606714
 11
132.5290764031
 21
137.8877900275
  0
LINE
  8
0
 62
7
  6
CONTINUOUS
 10
120.495628856
 20
149.9212375745
 11
120.0136044117
 21
150.4032620189
  0
LINE
  8
0
 62
7
  6
CONTINUOUS
 10
153.9514057592
 20
119.2938877961
 11
135.3575035392
 21
137.8877900161
  0
LINE
  8
SURFACE
 62
7
  6
CONTINUOUS
 10
158.2514057592
 20
166.1032661751
 11
158.2514057592
 21
101.9187429351
  0
POLYLINE
  8
SURFACE
 62
7
  6
CONTINUOUS
 66
1
 70
0
  0
VERTEX
  8
SURFACE
 62
7
  6
CONTINUOUS
 10
158.2514057592
 20
101.9187447111
  0
VERTEX
  8
SURFACE
 62
7
  6
CONTINUOUS
 10
158.246776937
 20
101.7897395413
  0
VERTEX
  8
SURFACE
 62
7
  6
CONTINUOUS
 10
158.2334942736
 20
101.6654454282
  0
VERTEX
  8
SURFACE
 62
7
  6
CONTINUOUS
 10
158.2113016852
 20
101.540900392
  0
VERTEX
  8
SURFACE
 62
7
  6
CONTINUOUS
 10
158.1814280195
 20
101.4217306483
  0
VERTEX
  8
SURFACE
 62
7
  6
CONTINUOUS
 10
158.1423718415
 20
101.3017895196
  0
VERTEX
  8
SURFACE
 62
7
  6
CONTINUOUS
 10
158.0956002594
 20
101.1861981629
  0
VERTEX
  8
SURFACE
 62
7
  6
CONTINUOUS
 10
158.0399324283
 20
101.0722324421
  0
VERTEX
  8
SURFACE
 62
7
  6
CONTINUOUS
 10
157.9771290931
 20
100.9636696836
  0
VERTEX
  8
SURFACE
 62
7
  6
CONTINUOUS
 10
157.9045799568
 20
100.8565372213
  0
VERTEX
  8
SURFACE
 62
7
  6
CONTINUOUS
 10
157.8264796008
 20
100.7572061065
  0
VERTEX
  8
SURFACE
 62
7
  6
CONTINUOUS
 10
157.7384840326
 20
100.6604007526
  0
VERTEX
  8
SURFACE
 62
7
  6
CONTINUOUS
 10
157.6446706689
 20
100.5711101705
  0
VERTEX
  8
SURFACE
 62
7
  6
CONTINUOUS
 10
157.5431566619
 20
100.4876332667
  0
VERTEX
  8
SURFACE
 62
7
  6
CONTINUOUS
 10
157.4343169991
 20
100.4108038985
  0
VERTEX
  8
SURFACE
 62
7
  6
CONTINUOUS
 10
157.3194148801
 20
100.3418616571
  0
VERTEX
  8
SURFACE
 62
7
  6
CONTINUOUS
 10
157.1994742394
 20
100.281553962
  0
VERTEX
  8
SURFACE
 62
7
  6
CONTINUOUS
 10
157.0716499277
 20
100.2289822511
  0
VERTEX
  8
SURFACE
 62
7
  6
CONTINUOUS
 10
156.9428291328
 20
100.1871260846
  0
VERTEX
  8
SURFACE
 62
7
  6
CONTINUOUS
 10
156.8053839606
 20
100.1538936033
  0
VERTEX
  8
SURFACE
 62
7
  6
CONTINUOUS
 10
156.6700423072
 20
100.1320723685
  0
VERTEX
  8
SURFACE
 62
7
  6
CONTINUOUS
 10
156.5268634757
 20
100.1203270363
  0
VERTEX
  8
SURFACE
 62
7
  6
CONTINUOUS
 10
156.4514057592
 20
100.1187447118
  0
SEQEND
  0
POLYLINE
  8
SURFACE
 62
7
  6
CONTINUOUS
 66
1
 70
0
  0
VERTEX
  8
SURFACE
 62
7
  6
CONTINUOUS
 10
142.2041352253
 20
99.3044720856
  0
VERTEX
  8
SURFACE
 62
7
  6
CONTINUOUS
 10
142.2516725209
 20
99.3811509456
  0
VERTEX
  8
SURFACE
 62
7
  6
CONTINUOUS
 10
142.3098510543
 20
99.4698783144
  0
VERTEX
  8
SURFACE
 62
7
  6
CONTINUOUS
 10
142.367958649
 20
99.5527685509
  0
VERTEX
  8
SURFACE
 62
7
  6
CONTINUOUS
 10
142.4263312281
 20
99.6302186014
  0
VERTEX
  8
SURFACE
 62
7
  6
CONTINUOUS
 10
142.4852723375
 20
99.7024943913
  0
VERTEX
  8
SURFACE
 62
7
  6
CONTINUOUS
 10
142.5450069348
 20
99.769682727
  0
VERTEX
  8
SURFACE
 62
7
  6
CONTINUOUS
 10
142.6057022837
 20
99.8317398412
  0
VERTEX
  8
SURFACE
 62
7
  6
CONTINUOUS
 10
142.6673560121
 20
99.8884090997
  0
VERTEX
  8
SURFACE
 62
7
  6
CONTINUOUS
 10
142.7295625079
 20
99.9391232008
  0
VERTEX
  8
SURFACE
 62
7
  6
CONTINUOUS
 10
142.7918393477
 20
99.9834253395
  0
VERTEX
  8
SURFACE
 62
7
  6
CONTINUOUS
 10
142.8535285628
 20
100.0209561886
  0
VERTEX
  8
SURFACE
 62
7
  6
CONTINUOUS
 10
142.9140020722
 20
100.0516447019
  0
VERTEX
  8
SURFACE
 62
7
  6
CONTINUOUS
 10
142.9731309106
 20
100.0758691072
  0
VERTEX
  8
SURFACE
 62
7
  6
CONTINUOUS
 10
143.0320863081
 20
100.0944387883
  0
VERTEX
  8
SURFACE
 62
7
  6
CONTINUOUS
 10
143.0929119286
 20
100.1079362473
  0
VERTEX
  8
SURFACE
 62
7
  6
CONTINUOUS
 10
143.1577121408
 20
100.116275164
  0
VERTEX
  8
SURFACE
 62
7
  6
CONTINUOUS
 10
143.2182765946
 20
100.1187446465
  0
SEQEND
  0
POLYLINE
  8
0
 62
7
  6
CONTINUOUS
 66
1
 70
0
  0
VERTEX
  8
0
 62
7
  6
CONTINUOUS
 10
139.3641041314
 20
102.6632309995
  0
VERTEX
  8
0
 62
7
  6
CONTINUOUS
 10
139.1970019104
 20
102.473307839
  0
VERTEX
  8
0
 62
7
  6
CONTINUOUS
 10
139.0306457399
 20
102.2682919388
  0
VERTEX
  8
0
 62
7
  6
CONTINUOUS
 10
138.8637941318
 20
102.0450719414
  0
VERTEX
  8
0
 62
7
  6
CONTINUOUS
 10
138.6955925011
 20
101.8004091824
  0
VERTEX
  8
0
 62
7
  6
CONTINUOUS
 10
138.5257911965
 20
101.5315295811
  0
SEQEND
  0
POLYLINE
  8
0
 62
7
  6
CONTINUOUS
 66
1
 70
0
  0
VERTEX
  8
0
 62
7
  6
CONTINUOUS
 10
139.4147491177
 20
102.7178460653
  0
VERTEX
  8
0
 62
7
  6
CONTINUOUS
 10
139.3894153865
 20
102.690691717
  0
VERTEX
  8
0
 62
7
  6
CONTINUOUS
 10
139.3641041314
 20
102.6632309995
  0
SEQEND
  0
POLYLINE
  8
0
 62
7
  6
CONTINUOUS
 66
1
 70
0
  0
VERTEX
  8
0
 62
7
  6
CONTINUOUS
 10
139.4628324282
 20
102.7684910517
  0
VERTEX
  8
0
 62
7
  6
CONTINUOUS
 10
139.4387582146
 20
102.7432793113
  0
VERTEX
  8
0
 62
7
  6
CONTINUOUS
 10
139.4147491177
 20
102.7178460653
  0
SEQEND
  0
LINE
  8
0
 62
7
  6
CONTINUOUS
 10
129.4271826623
 20
95.6599967074
 11
153.9514057592
 21
120.1842198043
  0
LINE
  8
0
 62
7
  6
CONTINUOUS
 10
129.4271826623
 20
92.8315695826
 11
153.9514057592
 21
117.3557926795
  0
LINE
  8
0
 62
7
  6
CONTINUOUS
 10
131.3273130194
 20
91.903272815
 11
137.3273400973
 21
97.9032998929
  0
LINE
  8
0
 62
7
  6
CONTINUOUS
 10
143.8427848748
 20
104.4187446704
 11
153.9514057592
 21
114.5273655548
  0
LINE
  8
0
 62
7
  6
CONTINUOUS
 10
134.1557403046
 20
91.9032729754
 11
137.205628856
 21
94.9531615269
  0
LINE
  8
0
 62
7
  6
CONTINUOUS
 10
146.6712120087
 20
104.4187446796
 11
153.9514057592
 21
111.69893843
  0
POLYLINE
  8
0
 62
7
  6
CONTINUOUS
 66
1
 70
0
  0
VERTEX
  8
0
 62
7
  6
CONTINUOUS
 10
108.2514057592
 20
104.1746248812
  0
VERTEX
  8
0
 62
7
  6
CONTINUOUS
 10
108.0492115351
 20
104.1043307105
  0
VERTEX
  8
0
 62
7
  6
CONTINUOUS
 10
107.8441801673
 20
104.0230142576
  0
VERTEX
  8
0
 62
7
  6
CONTINUOUS
 10
107.6433952142
 20
103.9331352733
  0
VERTEX
  8
0
 62
7
  6
CONTINUOUS
 10
107.4528256621
 20
103.837975659
  0
VERTEX
  8
0
 62
7
  6
CONTINUOUS
 10
107.2780687439
 20
103.741828067
  0
SEQEND
  0
LINE
  8
0
 62
7
  6
CONTINUOUS
 10
108.2765672898
 20
104.1827046141
 11
108.2514057592
 21
104.1746248812
  0
LINE
  8
0
 62
7
  6
CONTINUOUS
 10
62.5514057592
 20
122.5674809249
 11
153.9514057592
 21
122.5674809249
  0
LINE
  8
0
 62
7
  6
CONTINUOUS
 10
62.5514057592
 20
123.9816944873
 11
153.9514057592
 21
123.9816944873
  0
LINE
  8
0
 62
7
  6
CONTINUOUS
 10
62.5514057592
 20
125.3959080497
 11
153.9514057592
 21
125.3959080497
  0
LINE
  8
0
 62
7
  6
CONTINUOUS
 10
62.5514057592
 20
126.8101216121
 11
153.9514057592
 21
126.8101216121
  0
LINE
  8
0
 62
7
  6
CONTINUOUS
 10
62.5514057592
 20
128.2243351744
 11
153.9514057592
 21
128.2243351744
  0
POLYLINE
  8
0
 62
7
  6
CONTINUOUS
 66
1
 70
0
  0
VERTEX
  8
0
 62
7
  6
CONTINUOUS
 10
124.156050218
 20
138.4721253837
  0
VERTEX
  8
0
 62
7
  6
CONTINUOUS
 10
124.3626269013
 20
138.3690375488
  0
VERTEX
  8
0
 62
7
  6
CONTINUOUS
 10
124.5701984641
 20
138.2767932051
  0
VERTEX
  8
0
 62
7
  6
CONTINUOUS
 10
124.7783366143
 20
138.1951405853
  0
VERTEX
  8
0
 62
7
  6
CONTINUOUS
 10
124.9865672907
 20
138.123830111
  0
SEQEND
  0
LINE
  8
0
 62
7
  6
CONTINUOUS
 10
153.9514057592
 20
122.1223149209
 11
138.1859306753
 21
137.8877900048
  0
LINE
  8
0
 62
7
  6
CONTINUOUS
 10
153.9514057592
 20
124.9507420456
 11
140.9861382388
 21
137.916009566
  0
LINE
  8
0
 62
7
  6
CONTINUOUS
 10
153.9514057592
 20
127.7791691704
 11
143.0926280826
 21
138.637946847
  0
LINE
  8
0
 62
7
  6
CONTINUOUS
 10
153.9514057592
 20
130.6075962951
 11
144.552360159
 21
140.0066418952
  0
LINE
  8
0
 62
7
  6
CONTINUOUS
 10
136.9841675897
 20
91.9032731358
 11
137.205628856
 21
92.1247344021
  0
LINE
  8
0
 62
7
  6
CONTINUOUS
 10
149.4996391426
 20
104.4187446887
 11
153.9514057592
 21
108.8705113053
  0
LINE
  8
0
 62
7
  6
CONTINUOUS
 10
152.3280662764
 20
104.4187446978
 11
153.9514057592
 21
106.0420841805
  0
POLYLINE
  8
0
 62
7
  6
CONTINUOUS
 66
1
 70
0
  0
VERTEX
  8
0
 62
7
  6
CONTINUOUS
 10
140.7783176937
 20
103.787064692
  0
VERTEX
  8
0
 62
7
  6
CONTINUOUS
 10
140.5758955095
 20
103.6693088884
  0
VERTEX
  8
0
 62
7
  6
CONTINUOUS
 10
140.3790424931
 20
103.5427769965
  0
VERTEX
  8
0
 62
7
  6
CONTINUOUS
 10
140.187408313
 20
103.4074013026
  0
VERTEX
  8
0
 62
7
  6
CONTINUOUS
 10
140.0003039186
 20
103.2627228228
  0
VERTEX
  8
0
 62
7
  6
CONTINUOUS
 10
139.8174828793
 20
103.1084514773
  0
VERTEX
  8
0
 62
7
  6
CONTINUOUS
 10
139.6384391662
 20
102.9439368355
  0
VERTEX
  8
0
 62
7
  6
CONTINUOUS
 10
139.4628324282
 20
102.7684910517
  0
SEQEND
  0
POLYLINE
  8
0
 62
7
  6
CONTINUOUS
 66
1
 70
0
  0
VERTEX
  8
0
 62
7
  6
CONTINUOUS
 10
141.0393527932
 20
103.9216695147
  0
VERTEX
  8
0
 62
7
  6
CONTINUOUS
 10
140.9083821326
 20
103.8564821209
  0
VERTEX
  8
0
 62
7
  6
CONTINUOUS
 10
140.7783176937
 20
103.787064692
  0
SEQEND
  0
POLYLINE
  8
0
 62
7
  6
CONTINUOUS
 66
1
 70
0
  0
VERTEX
  8
0
 62
7
  6
CONTINUOUS
 10
141.6965673428
 20
104.1827046141
  0
VERTEX
  8
0
 62
7
  6
CONTINUOUS
 10
141.5252785536
 20
104.1247903205
  0
VERTEX
  8
0
 62
7
  6
CONTINUOUS
 10
141.3567188862
 20
104.0609947217
  0
VERTEX
  8
0
 62
7
  6
CONTINUOUS
 10
141.1939321202
 20
103.992746405
  0
VERTEX
  8
0
 62
7
  6
CONTINUOUS
 10
141.0393527932
 20
103.9216695147
  0
SEQEND
  0
LINE
  8
0
 62
7
  6
CONTINUOUS
 10
62.5514057592
 20
129.6385487368
 11
153.9514057592
 21
129.6385487368
  0
LINE
  8
0
 62
7
  6
CONTINUOUS
 10
62.5514057592
 20
131.0527622992
 11
153.9514057592
 21
131.0527622992
  0
LINE
  8
0
 62
7
  6
CONTINUOUS
 10
62.5514057592
 20
132.4669758615
 11
153.9514057592
 21
132.4669758615
  0
LINE
  8
0
 62
7
  6
CONTINUOUS
 10
62.5514057592
 20
133.8811894239
 11
153.9514057592
 21
133.8811894239
  0
LINE
  8
0
 62
7
  6
CONTINUOUS
 10
62.5514057592
 20
135.2954029863
 11
153.9514057592
 21
135.2954029863
  0
POLYLINE
  8
0
 62
7
  6
CONTINUOUS
 66
1
 70
0
  0
VERTEX
  8
0
 62
7
  6
CONTINUOUS
 10
92.6950565731
 20
137.9031400209
  0
VERTEX
  8
0
 62
7
  6
CONTINUOUS
 10
92.8110835516
 20
137.8954061286
  0
VERTEX
  8
0
 62
7
  6
CONTINUOUS
 10
92.9285715844
 20
137.8903150997
  0
SEQEND
  0
POLYLINE
  8
0
 62
7
  6
CONTINUOUS
 66
1
 70
0
  0
VERTEX
  8
0
 62
7
  6
CONTINUOUS
 10
92.4941637888
 20
137.9229373268
  0
VERTEX
  8
0
 62
7
  6
CONTINUOUS
 10
92.5948532007
 20
137.9119945442
  0
VERTEX
  8
0
 62
7
  6
CONTINUOUS
 10
92.6950565731
 20
137.9031400209
  0
SEQEND
  0
POLYLINE
  8
0
 62
7
  6
CONTINUOUS
 66
1
 70
0
  0
VERTEX
  8
0
 62
7
  6
CONTINUOUS
 10
125.2219685076
 20
138.0552012294
  0
VERTEX
  8
0
 62
7
  6
CONTINUOUS
 10
125.4490948963
 20
138.0006006492
  0
VERTEX
  8
0
 62
7
  6
CONTINUOUS
 10
125.681679265
 20
137.9561283588
  0
VERTEX
  8
0
 62
7
  6
CONTINUOUS
 10
125.9185634079
 20
137.9224161144
  0
VERTEX
  8
0
 62
7
  6
CONTINUOUS
 10
126.1588716174
 20
137.8999025961
  0
VERTEX
  8
0
 62
7
  6
CONTINUOUS
 10
126.4012750453
 20
137.8889230863
  0
SEQEND
  0
POLYLINE
  8
0
 62
7
  6
CONTINUOUS
 66
1
 70
0
  0
VERTEX
  8
0
 62
7
  6
CONTINUOUS
 10
124.9865672907
 20
138.123830111
  0
VERTEX
  8
0
 62
7
  6
CONTINUOUS
 10
125.103350778
 20
138.0882228137
  0
VERTEX
  8
0
 62
7
  6
CONTINUOUS
 10
125.2219685076
 20
138.0552012294
  0
SEQEND
  0
LINE
  8
0
 62
7
  6
CONTINUOUS
 10
153.9514057592
 20
133.4360234199
 11
145.4996337157
 21
141.8877954633
  0
LINE
  8
0
 62
7
  6
CONTINUOUS
 10
153.9514057592
 20
136.2644505446
 11
146.0603170273
 21
144.1555392765
  0
LINE
  8
0
 62
7
  6
CONTINUOUS
 10
153.9514057592
 20
139.0928776694
 11
146.2171953393
 21
146.8270880892
  0
POLYLINE
  8
0
 62
7
  6
CONTINUOUS
 66
1
 70
0
  0
VERTEX
  8
0
 62
7
  6
CONTINUOUS
 10
140.9861382388
 20
137.916009566
  0
VERTEX
  8
0
 62
7
  6
CONTINUOUS
 10
141.1324572498
 20
137.9335962655
  0
VERTEX
  8
0
 62
7
  6
CONTINUOUS
 10
141.2759012953
 20
137.955064162
  0
VERTEX
  8
0
 62
7
  6
CONTINUOUS
 10
141.4173594585
 20
137.9804044308
  0
VERTEX
  8
0
 62
7
  6
CONTINUOUS
 10
141.5576785436
 20
138.009713442
  0
VERTEX
  8
0
 62
7
  6
CONTINUOUS
 10
141.6976560739
 20
138.0431805569
  0
VERTEX
  8
0
 62
7
  6
CONTINUOUS
 10
141.8380470572
 20
138.0810956196
  0
VERTEX
  8
0
 62
7
  6
CONTINUOUS
 10
141.979535988
 20
138.123830111
  0
SEQEND
  0
POLYLINE
  8
0
 62
7
  6
CONTINUOUS
 66
1
 70
0
  0
VERTEX
  8
0
 62
7
  6
CONTINUOUS
 10
107.0606489575
 20
137.9003733503
  0
VERTEX
  8
0
 62
7
  6
CONTINUOUS
 10
107.3047325348
 20
137.9236647003
  0
VERTEX
  8
0
 62
7
  6
CONTINUOUS
 10
107.5462832321
 20
137.9586792453
  0
VERTEX
  8
0
 62
7
  6
CONTINUOUS
 10
107.7822058758
 20
138.0046280343
  0
VERTEX
  8
0
 62
7
  6
CONTINUOUS
 10
108.0097276747
 20
138.0602488899
  0
VERTEX
  8
0
 62
7
  6
CONTINUOUS
 10
108.2262442613
 20
138.123830111
  0
SEQEND
  0
POLYLINE
  8
0
 62
7
  6
CONTINUOUS
 66
1
 70
0
  0
VERTEX
  8
0
 62
7
  6
CONTINUOUS
 10
140.7783176937
 20
137.8983820282
  0
VERTEX
  8
0
 62
7
  6
CONTINUOUS
 10
140.882055255
 20
137.9061113642
  0
VERTEX
  8
0
 62
7
  6
CONTINUOUS
 10
140.9861382388
 20
137.916009566
  0
SEQEND
  0
POLYLINE
  8
0
 62
7
  6
CONTINUOUS
 66
1
 70
0
  0
VERTEX
  8
0
 62
7
  6
CONTINUOUS
 10
106.8371921968
 20
137.8895318618
  0
VERTEX
  8
0
 62
7
  6
CONTINUOUS
 10
106.948560173
 20
137.8936902483
  0
VERTEX
  8
0
 62
7
  6
CONTINUOUS
 10
107.0606489575
 20
137.9003733503
  0
SEQEND
  0
POLYLINE
  8
0
 62
7
  6
CONTINUOUS
 66
1
 70
0
  0
VERTEX
  8
0
 62
7
  6
CONTINUOUS
 10
140.5431574998
 20
137.8886699171
  0
VERTEX
  8
0
 62
7
  6
CONTINUOUS
 10
140.6636593111
 20
137.8922998809
  0
VERTEX
  8
0
 62
7
  6
CONTINUOUS
 10
140.7783176937
 20
137.8983820282
  0
SEQEND
  0
POLYLINE
  8
0
 62
7
  6
CONTINUOUS
 66
1
 70
0
  0
VERTEX
  8
0
 62
7
  6
CONTINUOUS
 10
73.2845291729
 20
137.8877900567
  0
VERTEX
  8
0
 62
7
  6
CONTINUOUS
 10
73.5357504798
 20
137.8940435872
  0
VERTEX
  8
0
 62
7
  6
CONTINUOUS
 10
73.7910535726
 20
137.9133013837
  0
VERTEX
  8
0
 62
7
  6
CONTINUOUS
 10
74.0495146694
 20
137.9462459963
  0
VERTEX
  8
0
 62
7
  6
CONTINUOUS
 10
74.3102802622
 20
137.9935030134
  0
SEQEND
  0
POLYLINE
  8
0
 62
7
  6
CONTINUOUS
 66
1
 70
0
  0
VERTEX
  8
0
 62
7
  6
CONTINUOUS
 10
140.4795937153
 20
137.8878883836
  0
VERTEX
  8
0
 62
7
  6
CONTINUOUS
 10
140.5114345497
 20
137.888182314
  0
VERTEX
  8
0
 62
7
  6
CONTINUOUS
 10
140.5431574998
 20
137.8886699171
  0
SEQEND
  0
POLYLINE
  8
0
 62
7
  6
CONTINUOUS
 66
1
 70
0
  0
VERTEX
  8
0
 62
7
  6
CONTINUOUS
 10
106.7045271746
 20
137.8877900466
  0
VERTEX
  8
0
 62
7
  6
CONTINUOUS
 10
106.7710766955
 20
137.8882281406
  0
VERTEX
  8
0
 62
7
  6
CONTINUOUS
 10
106.8371921968
 20
137.8895318618
  0
SEQEND
  0
LINE
  8
0
 62
7
  6
CONTINUOUS
 10
62.5514057592
 20
136.7096165487
 11
153.9514057592
 21
136.7096165487
  0
LINE
  8
0
 62
7
  6
CONTINUOUS
 10
93.0882842374
 20
137.8877900465
 11
106.7045271733
 21
137.8877900466
  0
LINE
  8
0
 62
7
  6
CONTINUOUS
 10
62.5514057592
 20
137.8877900221
 11
73.2845291727
 21
137.8877900567
  0
LINE
  8
0
 62
7
  6
CONTINUOUS
 10
153.9514057592
 20
138.123830111
 11
141.979535988
 21
138.123830111
  0
LINE
  8
0
 62
7
  6
CONTINUOUS
 10
124.9865672907
 20
138.123830111
 11
108.2262442613
 21
138.123830111
  0
LINE
  8
0
 62
7
  6
CONTINUOUS
 10
74.8062441756
 20
138.123830111
 11
91.566567258
 21
138.123830111
  0
LINE
  8
0
 62
7
  6
CONTINUOUS
 10
153.9514057592
 20
139.5380436734
 11
144.1701770596
 21
139.5380436734
  0
LINE
  8
0
 62
7
  6
CONTINUOUS
 10
122.7528324279
 20
139.5380436734
 11
110.4599790505
 21
139.5380436734
  0
LINE
  8
0
 62
7
  6
CONTINUOUS
 10
77.0399790901
 20
139.5380436734
 11
89.3328324216
 21
139.5380436734
  0
LINE
  8
0
 62
7
  6
CONTINUOUS
 10
153.9514057592
 20
140.9522572358
 11
145.1179404843
 21
140.9522572358
  0
LINE
  8
0
 62
7
  6
CONTINUOUS
 10
121.711838096
 20
140.9522572358
 11
111.5009733466
 21
140.9522572358
  0
LINE
  8
0
 62
7
  6
CONTINUOUS
 10
78.0809734006
 20
140.9522572358
 11
88.2918380958
 21
140.9522572358
  0
LINE
  8
SURFACE
 62
7
  6
CONTINUOUS
 10
140.4476386231
 20
142.187790014
 11
126.5082765814
 21
142.187790014
  0
LINE
  8
0
 62
7
  6
CONTINUOUS
 10
106.7045348955
 20
142.187790014
 11
93.0882765791
 21
142.187790014
  0
LINE
  8
0
 62
7
  6
CONTINUOUS
 10
60.0514057592
 20
142.187790014
 11
73.2845349237
 21
142.187790014
  0
LINE
  8
0
 62
7
  6
CONTINUOUS
 10
153.9514057592
 20
142.3664707982
 11
145.6502798737
 21
142.3664707982
  0
LINE
  8
0
 62
7
  6
CONTINUOUS
 10
121.0817967427
 20
142.3664707982
 11
112.1310147833
 21
142.3664707982
  0
LINE
  8
0
 62
7
  6
CONTINUOUS
 10
78.7110147833
 20
142.3664707982
 11
87.6617967448
 21
142.3664707982
  0
POLYLINE
  8
0
 62
7
  6
CONTINUOUS
 66
1
 70
0
  0
VERTEX
  8
0
 62
7
  6
CONTINUOUS
 10
126.4012750453
 20
137.8889230863
  0
VERTEX
  8
0
 62
7
  6
CONTINUOUS
 10
126.4370300042
 20
137.888292293
  0
VERTEX
  8
0
 62
7
  6
CONTINUOUS
 10
126.4727006985
 20
137.887915278
  0
VERTEX
  8
0
 62
7
  6
CONTINUOUS
 10
140.4795937153
 20
137.8878883836
  0
SEQEND
  0
POLYLINE
  8
0
 62
7
  6
CONTINUOUS
 66
1
 70
0
  0
VERTEX
  8
0
 62
7
  6
CONTINUOUS
 10
92.9285715844
 20
137.8903150997
  0
VERTEX
  8
0
 62
7
  6
CONTINUOUS
 10
92.9815241538
 20
137.8889178092
  0
VERTEX
  8
0
 62
7
  6
CONTINUOUS
 10
93.0347648554
 20
137.8880733582
  0
VERTEX
  8
0
 62
7
  6
CONTINUOUS
 10
93.0882842358
 20
137.8877900465
  0
SEQEND
  0
POLYLINE
  8
0
 62
7
  6
CONTINUOUS
 66
1
 70
0
  0
VERTEX
  8
0
 62
7
  6
CONTINUOUS
 10
93.0882765791
 20
142.1877900617
  0
VERTEX
  8
0
 62
7
  6
CONTINUOUS
 10
93.0386857997
 20
142.1894397381
  0
VERTEX
  8
0
 62
7
  6
CONTINUOUS
 10
92.9767083944
 20
142.1963119937
  0
VERTEX
  8
0
 62
7
  6
CONTINUOUS
 10
92.9133475098
 20
142.2091699343
  0
VERTEX
  8
0
 62
7
  6
CONTINUOUS
 10
92.8490496395
 20
142.2285518653
  0
VERTEX
  8
0
 62
7
  6
CONTINUOUS
 10
92.7846684388
 20
142.2545853018
  0
VERTEX
  8
0
 62
7
  6
CONTINUOUS
 10
92.7203275065
 20
142.287370943
  0
VERTEX
  8
0
 62
7
  6
CONTINUOUS
 10
92.6563010694
 20
142.3267876715
  0
VERTEX
  8
0
 62
7
  6
CONTINUOUS
 10
92.5933374109
 20
142.372195225
  0
VERTEX
  8
0
 62
7
  6
CONTINUOUS
 10
92.5314820367
 20
142.4232492319
  0
VERTEX
  8
0
 62
7
  6
CONTINUOUS
 10
92.4707630206
 20
142.4796118966
  0
VERTEX
  8
0
 62
7
  6
CONTINUOUS
 10
92.4112254464
 20
142.5409251656
  0
VERTEX
  8
0
 62
7
  6
CONTINUOUS
 10
92.3528017709
 20
142.6069503766
  0
VERTEX
  8
0
 62
7
  6
CONTINUOUS
 10
92.2952883193
 20
142.6776485968
  0
VERTEX
  8
0
 62
7
  6
CONTINUOUS
 10
92.2381746355
 20
142.753468815
  0
VERTEX
  8
0
 62
7
  6
CONTINUOUS
 10
92.1808421546
 20
142.8351943955
  0
VERTEX
  8
0
 62
7
  6
CONTINUOUS
 10
92.122694594
 20
142.9237760667
  0
VERTEX
  8
0
 62
7
  6
CONTINUOUS
 10
92.0741351956
 20
143.0020627035
  0
SEQEND
  0
POLYLINE
  8
SURFACE
 62
7
  6
CONTINUOUS
 66
1
 70
0
  0
VERTEX
  8
SURFACE
 62
7
  6
CONTINUOUS
 10
126.5082765814
 20
142.1877900719
  0
VERTEX
  8
SURFACE
 62
7
  6
CONTINUOUS
 10
126.4586858023
 20
142.1894397482
  0
VERTEX
  8
SURFACE
 62
7
  6
CONTINUOUS
 10
126.3967083963
 20
142.1963120033
  0
VERTEX
  8
SURFACE
 62
7
  6
CONTINUOUS
 10
126.3333475132
 20
142.2091699436
  0
VERTEX
  8
SURFACE
 62
7
  6
CONTINUOUS
 10
126.2690496443
 20
142.2285518743
  0
VERTEX
  8
SURFACE
 62
7
  6
CONTINUOUS
 10
126.204668445
 20
142.2545853098
  0
VERTEX
  8
SURFACE
 62
7
  6
CONTINUOUS
 10
126.1403275122
 20
142.2873709486
  0
VERTEX
  8
SURFACE
 62
7
  6
CONTINUOUS
 10
126.0763010733
 20
142.3267876726
  0
VERTEX
  8
SURFACE
 62
7
  6
CONTINUOUS
 10
126.0133374148
 20
142.3721952195
  0
VERTEX
  8
SURFACE
 62
7
  6
CONTINUOUS
 10
125.951482059
 20
142.4232492062
  0
VERTEX
  8
SURFACE
 62
7
  6
CONTINUOUS
 10
125.8907630543
 20
142.479611865
  0
VERTEX
  8
SURFACE
 62
7
  6
CONTINUOUS
 10
125.8312254687
 20
142.5409251482
  0
VERTEX
  8
SURFACE
 62
7
  6
CONTINUOUS
 10
125.7728017791
 20
142.6069503678
  0
VERTEX
  8
SURFACE
 62
7
  6
CONTINUOUS
 10
125.715288331
 20
142.6776485777
  0
VERTEX
  8
SURFACE
 62
7
  6
CONTINUOUS
 10
125.6581746499
 20
142.7534687965
  0
VERTEX
  8
SURFACE
 62
7
  6
CONTINUOUS
 10
125.6008421675
 20
142.8351943867
  0
VERTEX
  8
SURFACE
 62
7
  6
CONTINUOUS
 10
125.5426946037
 20
142.9237760571
  0
VERTEX
  8
SURFACE
 62
7
  6
CONTINUOUS
 10
125.4941351955
 20
143.0020627037
  0
SEQEND
  0
LINE
  8
0
 62
7
  6
CONTINUOUS
 10
153.9514057592
 20
141.9213047941
 11
146.2171953393
 21
149.6555152139
  0
LINE
  8
0
 62
7
  6
CONTINUOUS
 10
153.9514057592
 20
144.7497319188
 11
148.2978736468
 21
150.4032640312
  0
LINE
  8
0
 62
7
  6
CONTINUOUS
 10
153.9514057592
 20
147.5781590436
 11
151.1262996159
 21
150.4032651868
  0
LINE
  8
0
 62
7
  6
CONTINUOUS
 10
153.9514057592
 20
143.7806843605
 11
145.9970081265
 21
143.7806843605
  0
LINE
  8
0
 62
7
  6
CONTINUOUS
 10
120.7158236451
 20
143.7806843605
 11
112.4969878737
 21
143.7806843605
  0
LINE
  8
0
 62
7
  6
CONTINUOUS
 10
79.076987874
 20
143.7806843605
 11
87.2958236452
 21
143.7806843605
  0
LINE
  8
0
 62
7
  6
CONTINUOUS
 10
153.9514057592
 20
145.1948979229
 11
146.1756725459
 21
145.1948979229
  0
LINE
  8
0
 62
7
  6
CONTINUOUS
 10
120.5371531697
 20
145.1948979229
 11
112.6756583416
 21
145.1948979229
  0
LINE
  8
0
 62
7
  6
CONTINUOUS
 10
79.255658353
 20
145.1948979229
 11
87.1171531689
 21
145.1948979229
  0
LINE
  8
0
 62
7
  6
CONTINUOUS
 10
153.9514057592
 20
146.6091114853
 11
146.2171953393
 21
146.6091114853
  0
LINE
  8
0
 62
7
  6
CONTINUOUS
 10
120.495628856
 20
146.6091114853
 11
112.7171826623
 21
146.6091114853
  0
LINE
  8
0
 62
7
  6
CONTINUOUS
 10
79.2971826623
 20
146.6091114853
 11
87.075628856
 21
146.6091114853
  0
LINE
  8
0
 62
7
  6
CONTINUOUS
 10
153.9514057592
 20
148.0233250477
 11
146.2171953393
 21
148.0233250477
  0
LINE
  8
0
 62
7
  6
CONTINUOUS
 10
120.495628856
 20
148.0233250477
 11
112.7171826623
 21
148.0233250477
  0
LINE
  8
0
 62
7
  6
CONTINUOUS
 10
79.2971826623
 20
148.0233250477
 11
87.075628856
 21
148.0233250477
  0
LINE
  8
0
 62
7
  6
CONTINUOUS
 10
153.9514057592
 20
149.43753861
 11
146.2171953393
 21
149.43753861
  0
LINE
  8
0
 62
7
  6
CONTINUOUS
 10
120.495628856
 20
149.43753861
 11
112.7171826623
 21
149.43753861
  0
LINE
  8
0
 62
7
  6
CONTINUOUS
 10
87.075628856
 20
149.43753861
 11
79.2971826623
 21
149.43753861
  0
POLYLINE
  8
0
 62
7
  6
CONTINUOUS
 66
1
 70
0
  0
VERTEX
  8
0
 62
7
  6
CONTINUOUS
 10
74.3102802622
 20
137.9935030134
  0
VERTEX
  8
0
 62
7
  6
CONTINUOUS
 10
74.4792223134
 20
138.0318257
  0
VERTEX
  8
0
 62
7
  6
CONTINUOUS
 10
74.644479338
 20
138.075330869
  0
VERTEX
  8
0
 62
7
  6
CONTINUOUS
 10
74.8062441756
 20
138.123830111
  0
SEQEND
  0
LINE
  8
0
 62
7
  6
CONTINUOUS
 10
112.7171826623
 20
150.4032620189
 11
120.495628856
 21
150.4032620189
  0
LINE
  8
0
 62
7
  6
CONTINUOUS
 10
79.2971826623
 20
150.4032615768
 11
87.075628856
 21
150.4032620178
  0
LINE
  8
0
 62
7
  6
CONTINUOUS
 10
146.2171953393
 20
150.4032631811
 11
153.9514057592
 21
150.4032663411
  0
LINE
  8
DEFAULT_1
 62
2
  6
CENTER
 10
73.06648713
 20
152.9032673626
 11
162.3105853392
 21
152.9032673626
  0
POLYLINE
  8
0
 62
7
  6
CONTINUOUS
 66
1
 70
0
  0
VERTEX
  8
0
 62
7
  6
CONTINUOUS
 10
76.912377367
 20
167.9032672124
  0
VERTEX
  8
0
 62
7
  6
CONTINUOUS
 10
76.8053170078
 20
167.9000823112
  0
VERTEX
  8
0
 62
7
  6
CONTINUOUS
 10
76.669250029
 20
167.8867812784
  0
VERTEX
  8
0
 62
7
  6
CONTINUOUS
 10
76.5360703946
 20
167.8635154713
  0
VERTEX
  8
0
 62
7
  6
CONTINUOUS
 10
76.4070776711
 20
167.8309305947
  0
VERTEX
  8
0
 62
7
  6
CONTINUOUS
 10
76.2834532071
 20
167.7898881242
  0
VERTEX
  8
0
 62
7
  6
CONTINUOUS
 10
76.1662327917
 20
167.7414399154
  0
VERTEX
  8
0
 62
7
  6
CONTINUOUS
 10
76.056281303
 20
167.6867963769
  0
VERTEX
  8
0
 62
7
  6
CONTINUOUS
 10
75.9542182816
 20
167.627254245
  0
VERTEX
  8
0
 62
7
  6
CONTINUOUS
 10
75.8599456237
 20
167.5637977244
  0
VERTEX
  8
0
 62
7
  6
CONTINUOUS
 10
75.7730044823
 20
167.4970983087
  0
VERTEX
  8
0
 62
7
  6
CONTINUOUS
 10
75.6929228784
 20
167.4276760142
  0
VERTEX
  8
0
 62
7
  6
CONTINUOUS
 10
75.6192402453
 20
167.3559192924
  0
VERTEX
  8
0
 62
7
  6
CONTINUOUS
 10
75.551653885
 20
167.2822535677
  0
VERTEX
  8
0
 62
7
  6
CONTINUOUS
 10
75.4901059176
 20
167.2073431398
  0
VERTEX
  8
0
 62
7
  6
CONTINUOUS
 10
75.4344927047
 20
167.1318529774
  0
VERTEX
  8
0
 62
7
  6
CONTINUOUS
 10
75.3846471024
 20
167.0564187389
  0
VERTEX
  8
0
 62
7
  6
CONTINUOUS
 10
75.3403581513
 20
166.9816624573
  0
VERTEX
  8
0
 62
7
  6
CONTINUOUS
 10
75.3014442958
 20
166.9083307117
  0
VERTEX
  8
0
 62
7
  6
CONTINUOUS
 10
75.2677731933
 20
166.8374125994
  0
VERTEX
  8
0
 62
7
  6
CONTINUOUS
 10
75.2390926885
 20
166.769844005
  0
VERTEX
  8
0
 62
7
  6
CONTINUOUS
 10
75.2150065857
 20
166.7063517991
  0
VERTEX
  8
0
 62
7
  6
CONTINUOUS
 10
75.1949896431
 20
166.64732059
  0
VERTEX
  8
0
 62
7
  6
CONTINUOUS
 10
75.1784982686
 20
166.5929436126
  0
VERTEX
  8
0
 62
7
  6
CONTINUOUS
 10
75.1649919381
 20
166.5432029928
  0
VERTEX
  8
0
 62
7
  6
CONTINUOUS
 10
75.1539709995
 20
166.4979396304
  0
VERTEX
  8
0
 62
7
  6
CONTINUOUS
 10
75.1449401469
 20
166.4566468553
  0
VERTEX
  8
0
 62
7
  6
CONTINUOUS
 10
75.13749421
 20
166.418800819
  0
VERTEX
  8
0
 62
7
  6
CONTINUOUS
 10
75.1313137534
 20
166.3839291059
  0
VERTEX
  8
0
 62
7
  6
CONTINUOUS
 10
75.1261793558
 20
166.3518267698
  0
VERTEX
  8
0
 62
7
  6
CONTINUOUS
 10
75.1219155577
 20
166.3223660613
  0
VERTEX
  8
0
 62
7
  6
CONTINUOUS
 10
75.1183581732
 20
166.2953070663
  0
VERTEX
  8
0
 62
7
  6
CONTINUOUS
 10
75.1153574363
 20
166.2702929188
  0
VERTEX
  8
0
 62
7
  6
CONTINUOUS
 10
75.1127811337
 20
166.2468651657
  0
VERTEX
  8
0
 62
7
  6
CONTINUOUS
 10
75.1105289632
 20
166.2246208157
  0
VERTEX
  8
0
 62
7
  6
CONTINUOUS
 10
75.1085262154
 20
166.2032234489
  0
VERTEX
  8
0
 62
7
  6
CONTINUOUS
 10
75.1067171976
 20
166.1823959787
  0
VERTEX
  8
0
 62
7
  6
CONTINUOUS
 10
75.105060271
 20
166.1619126379
  0
VERTEX
  8
0
 62
7
  6
CONTINUOUS
 10
75.1035230665
 20
166.1415762061
  0
VERTEX
  8
0
 62
7
  6
CONTINUOUS
 10
75.1020787495
 20
166.1211912554
  0
VERTEX
  8
0
 62
7
  6
CONTINUOUS
 10
75.0993916549
 20
166.0796354456
  0
SEQEND
  0
POLYLINE
  8
SURFACE
 62
7
  6
CONTINUOUS
 66
1
 70
0
  0
VERTEX
  8
SURFACE
 62
7
  6
CONTINUOUS
 10
143.8324822005
 20
167.9032672124
  0
VERTEX
  8
SURFACE
 62
7
  6
CONTINUOUS
 10
143.7267651935
 20
167.900161807
  0
VERTEX
  8
SURFACE
 62
7
  6
CONTINUOUS
 10
143.5906173128
 20
167.8869528367
  0
VERTEX
  8
SURFACE
 62
7
  6
CONTINUOUS
 10
143.4572974415
 20
167.8637549012
  0
VERTEX
  8
SURFACE
 62
7
  6
CONTINUOUS
 10
143.3281249091
 20
167.8312058474
  0
VERTEX
  8
SURFACE
 62
7
  6
CONTINUOUS
 10
143.2043009709
 20
167.7901649038
  0
VERTEX
  8
SURFACE
 62
7
  6
CONTINUOUS
 10
143.0868804253
 20
167.7416870366
  0
VERTEX
  8
SURFACE
 62
7
  6
CONTINUOUS
 10
142.976745363
 20
167.6869906239
  0
VERTEX
  8
SURFACE
 62
7
  6
CONTINUOUS
 10
142.8745273167
 20
167.6273828265
  0
VERTEX
  8
SURFACE
 62
7
  6
CONTINUOUS
 10
142.7801250172
 20
167.5638518175
  0
VERTEX
  8
SURFACE
 62
7
  6
CONTINUOUS
 10
142.6930744902
 20
167.4970704029
  0
VERTEX
  8
SURFACE
 62
7
  6
CONTINUOUS
 10
142.6128992292
 20
167.427558509
  0
VERTEX
  8
SURFACE
 62
7
  6
CONTINUOUS
 10
142.5391349497
 20
167.3557034563
  0
VERTEX
  8
SURFACE
 62
7
  6
CONTINUOUS
 10
142.4714813155
 20
167.2819348493
  0
VERTEX
  8
SURFACE
 62
7
  6
CONTINUOUS
 10
142.4098823192
 20
167.2069219568
  0
VERTEX
  8
SURFACE
 62
7
  6
CONTINUOUS
 10
142.3542342195
 20
167.1313334477
  0
VERTEX
  8
SURFACE
 62
7
  6
CONTINUOUS
 10
142.3043694046
 20
167.055808865
  0
VERTEX
  8
SURFACE
 62
7
  6
CONTINUOUS
 10
142.2600762272
 20
166.9809745518
  0
VERTEX
  8
SURFACE
 62
7
  6
CONTINUOUS
 10
142.2211733948
 20
166.9075844261
  0
VERTEX
  8
SURFACE
 62
7
  6
CONTINUOUS
 10
142.1875237013
 20
166.8366261186
  0
VERTEX
  8
SURFACE
 62
7
  6
CONTINUOUS
 10
142.158869739
 20
166.7690306891
  0
VERTEX
  8
SURFACE
 62
7
  6
CONTINUOUS
 10
142.1348108238
 20
166.7055182553
  0
VERTEX
  8
SURFACE
 62
7
  6
CONTINUOUS
 10
142.1148245269
 20
166.6464847534
  0
VERTEX
  8
SURFACE
 62
7
  6
CONTINUOUS
 10
142.0983687049
 20
166.5921346435
  0
VERTEX
  8
SURFACE
 62
7
  6
CONTINUOUS
 10
142.0849022865
 20
166.5424569356
  0
VERTEX
  8
SURFACE
 62
7
  6
CONTINUOUS
 10
142.0739198157
 20
166.4972770765
  0
VERTEX
  8
SURFACE
 62
7
  6
CONTINUOUS
 10
142.0649199877
 20
166.4560616854
  0
VERTEX
  8
SURFACE
 62
7
  6
CONTINUOUS
 10
142.057496269
 20
166.4182723987
  0
VERTEX
  8
SURFACE
 62
7
  6
CONTINUOUS
 10
142.0513305026
 20
166.383433215
  0
VERTEX
  8
SURFACE
 62
7
  6
CONTINUOUS
 10
142.0462076757
 20
166.3513575025
  0
VERTEX
  8
SURFACE
 62
7
  6
CONTINUOUS
 10
142.04195353
 20
166.3219225316
  0
VERTEX
  8
SURFACE
 62
7
  6
CONTINUOUS
 10
142.0384044372
 20
166.2948906782
  0
VERTEX
  8
SURFACE
 62
7
  6
CONTINUOUS
 10
142.0354100752
 20
166.2698985501
  0
VERTEX
  8
SURFACE
 62
7
  6
CONTINUOUS
 10
142.0328384205
 20
166.2464859571
  0
VERTEX
  8
SURFACE
 62
7
  6
CONTINUOUS
 10
142.0305896106
 20
166.2242509589
  0
VERTEX
  8
SURFACE
 62
7
  6
CONTINUOUS
 10
142.0285892845
 20
166.2028583173
  0
VERTEX
  8
SURFACE
 62
7
  6
CONTINUOUS
 10
142.0267820171
 20
166.1820321309
  0
VERTEX
  8
SURFACE
 62
7
  6
CONTINUOUS
 10
142.0251263758
 20
166.1615478062
  0
VERTEX
  8
SURFACE
 62
7
  6
CONTINUOUS
 10
142.0235899859
 20
166.1412070232
  0
VERTEX
  8
SURFACE
 62
7
  6
CONTINUOUS
 10
142.022146104
 20
166.1208145601
  0
VERTEX
  8
SURFACE
 62
7
  6
CONTINUOUS
 10
142.0194591067
 20
166.0792364768
  0
SEQEND
  0
POLYLINE
  8
SURFACE
 62
7
  6
CONTINUOUS
 66
1
 70
0
  0
VERTEX
  8
SURFACE
 62
7
  6
CONTINUOUS
 10
110.3323773648
 20
167.9032672124
  0
VERTEX
  8
SURFACE
 62
7
  6
CONTINUOUS
 10
110.2265781956
 20
167.9001569712
  0
VERTEX
  8
SURFACE
 62
7
  6
CONTINUOUS
 10
110.0903637464
 20
167.8869326595
  0
VERTEX
  8
SURFACE
 62
7
  6
CONTINUOUS
 10
109.9569821961
 20
167.8637100366
  0
VERTEX
  8
SURFACE
 62
7
  6
CONTINUOUS
 10
109.8277545522
 20
167.8311283027
  0
VERTEX
  8
SURFACE
 62
7
  6
CONTINUOUS
 10
109.7038834603
 20
167.7900483974
  0
VERTEX
  8
SURFACE
 62
7
  6
CONTINUOUS
 10
109.5864247562
 20
167.7415272782
  0
VERTEX
  8
SURFACE
 62
7
  6
CONTINUOUS
 10
109.476261186
 20
167.6867855098
  0
VERTEX
  8
SURFACE
 62
7
  6
CONTINUOUS
 10
109.3740235353
 20
167.6271318848
  0
VERTEX
  8
SURFACE
 62
7
  6
CONTINUOUS
 10
109.2796075102
 20
167.5635542388
  0
VERTEX
  8
SURFACE
 62
7
  6
CONTINUOUS
 10
109.1925481574
 20
167.496725526
  0
VERTEX
  8
SURFACE
 62
7
  6
CONTINUOUS
 10
109.112368218
 20
167.427165647
  0
VERTEX
  8
SURFACE
 62
7
  6
CONTINUOUS
 10
109.0386028724
 20
167.3552617953
  0
VERTEX
  8
SURFACE
 62
7
  6
CONTINUOUS
 10
108.9709533454
 20
167.2814457057
  0
VERTEX
  8
SURFACE
 62
7
  6
CONTINUOUS
 10
108.9093639727
 20
167.2063882947
  0
VERTEX
  8
SURFACE
 62
7
  6
CONTINUOUS
 10
108.8537305041
 20
167.1307591458
  0
VERTEX
  8
SURFACE
 62
7
  6
CONTINUOUS
 10
108.8038847973
 20
167.0551987515
  0
VERTEX
  8
SURFACE
 62
7
  6
CONTINUOUS
 10
108.7596147138
 20
166.9803345917
  0
VERTEX
  8
SURFACE
 62
7
  6
CONTINUOUS
 10
108.7207391898
 20
166.906923512
  0
VERTEX
  8
SURFACE
 62
7
  6
CONTINUOUS
 10
108.6871193412
 20
166.8359530997
  0
VERTEX
  8
SURFACE
 62
7
  6
CONTINUOUS
 10
108.6584958311
 20
166.7683530607
  0
VERTEX
  8
SURFACE
 62
7
  6
CONTINUOUS
 10
108.63446607
 20
166.704840747
  0
VERTEX
  8
SURFACE
 62
7
  6
CONTINUOUS
 10
108.6145083926
 20
166.6458155249
  0
VERTEX
  8
SURFACE
 62
7
  6
CONTINUOUS
 10
108.5980809959
 20
166.5914850268
  0
VERTEX
  8
SURFACE
 62
7
  6
CONTINUOUS
 10
108.5846426186
 20
166.5418400716
  0
VERTEX
  8
SURFACE
 62
7
  6
CONTINUOUS
 10
108.5736859639
 20
166.4967005855
  0
VERTEX
  8
SURFACE
 62
7
  6
CONTINUOUS
 10
108.5647081405
 20
166.4555250557
  0
VERTEX
  8
SURFACE
 62
7
  6
CONTINUOUS
 10
108.5573024574
 20
166.4177709872
  0
VERTEX
  8
SURFACE
 62
7
  6
CONTINUOUS
 10
108.551151344
 20
166.3829615851
  0
VERTEX
  8
SURFACE
 62
7
  6
CONTINUOUS
 10
108.5460411547
 20
166.3509155213
  0
VERTEX
  8
SURFACE
 62
7
  6
CONTINUOUS
 10
108.5417978335
 20
166.3215098397
  0
VERTEX
  8
SURFACE
 62
7
  6
CONTINUOUS
 10
108.5382579309
 20
166.2945063374
  0
VERTEX
  8
SURFACE
 62
7
  6
CONTINUOUS
 10
108.5352710654
 20
166.2695387467
  0
VERTEX
  8
SURFACE
 62
7
  6
CONTINUOUS
 10
108.5327054999
 20
166.2461464788
  0
VERTEX
  8
SURFACE
 62
7
  6
CONTINUOUS
 10
108.5304616931
 20
166.2239281154
  0
VERTEX
  8
SURFACE
 62
7
  6
CONTINUOUS
 10
108.5284655376
 20
166.2025489956
  0
VERTEX
  8
SURFACE
 62
7
  6
CONTINUOUS
 10
108.5266618045
 20
166.1817337914
  0
VERTEX
  8
SURFACE
 62
7
  6
CONTINUOUS
 10
108.5250092117
 20
166.1612584503
  0
VERTEX
  8
SURFACE
 62
7
  6
CONTINUOUS
 10
108.523475435
 20
166.1409242432
  0
VERTEX
  8
SURFACE
 62
7
  6
CONTINUOUS
 10
108.5220338269
 20
166.1205362799
  0
VERTEX
  8
SURFACE
 62
7
  6
CONTINUOUS
 10
108.5193506455
 20
166.0789622214
  0
SEQEND
  0
LINE
  8
SURFACE
 62
7
  6
CONTINUOUS
 10
122.8804342012
 20
167.9032673626
 11
110.3323773171
 21
167.9032673626
  0
LINE
  8
0
 62
7
  6
CONTINUOUS
 10
76.9123773171
 20
167.9032673626
 11
89.4604342012
 21
167.9032673626
  0
LINE
  8
SURFACE
 62
7
  6
CONTINUOUS
 10
143.8324821546
 20
167.9032673626
 11
156.4514057592
 21
167.9032673626
  0
LINE
  8
0
 62
7
  6
CONTINUOUS
 10
58.2514057592
 20
211.3519554974
 11
58.2514057592
 21
237.7519554974
  0
LINE
  8
0
 62
7
  6
CONTINUOUS
 10
62.5514057592
 20
239.5519554974
 11
62.5514057592
 21
240.2371755972
  0
LINE
  8
0
 62
7
  6
CONTINUOUS
 10
62.9965717632
 20
239.8690829986
 11
62.9965717632
 21
240.5519554974
  0
LINE
  8
0
 62
7
  6
CONTINUOUS
 10
64.4107853256
 20
240.2348275876
 11
64.4107853256
 21
240.5519554974
  0
LINE
  8
0
 62
7
  6
CONTINUOUS
 10
65.824998888
 20
239.8690838157
 11
65.824998888
 21
240.5519554974
  0
LINE
  8
0
 62
7
  6
CONTINUOUS
 10
67.2392124503
 20
240.2348267705
 11
67.2392124503
 21
240.5519554974
  0
LINE
  8
0
 62
7
  6
CONTINUOUS
 10
68.6534260127
 20
239.8690846329
 11
68.6534260127
 21
240.5519554974
  0
LINE
  8
0
 62
7
  6
CONTINUOUS
 10
70.0676395751
 20
240.2348259533
 11
70.0676395751
 21
240.5519554974
  0
LINE
  8
0
 62
7
  6
CONTINUOUS
 10
70.285616179
 20
239.5519554974
 11
70.285616179
 21
240.3978227626
  0
POLYLINE
  8
0
 62
7
  6
CONTINUOUS
 66
1
 70
0
  0
VERTEX
  8
0
 62
7
  6
CONTINUOUS
 10
70.3048332352
 20
240.1213521046
  0
VERTEX
  8
0
 62
7
  6
CONTINUOUS
 10
70.2906341205
 20
239.8493151376
  0
VERTEX
  8
0
 62
7
  6
CONTINUOUS
 10
70.2882168809
 20
239.7060443536
  0
SEQEND
  0
LINE
  8
0
 62
7
  6
CONTINUOUS
 10
70.3271389725
 20
240.3684617138
 11
70.3048332352
 21
240.1213521046
  0
POLYLINE
  8
0
 62
7
  6
CONTINUOUS
 66
1
 70
0
  0
VERTEX
  8
0
 62
7
  6
CONTINUOUS
 10
70.5058033918
 20
239.8617841035
  0
VERTEX
  8
0
 62
7
  6
CONTINUOUS
 10
70.4728824969
 20
239.7072179363
  0
VERTEX
  8
0
 62
7
  6
CONTINUOUS
 10
70.442494491
 20
239.5519554974
  0
SEQEND
  0
LINE
  8
0
 62
7
  6
CONTINUOUS
 10
71.4818531375
 20
240.4166912699
 11
71.4818531375
 21
240.5519554974
  0
LINE
  8
0
 62
7
  6
CONTINUOUS
 10
72.8960666998
 20
240.1750363829
 11
72.8960666998
 21
240.5519554974
  0
LINE
  8
0
 62
7
  6
CONTINUOUS
 10
74.3102802622
 20
240.5519554974
 11
74.3102802622
 21
240.5001953064
  0
LINE
  8
0
 62
7
  6
CONTINUOUS
 10
75.7244938246
 20
239.7113713656
 11
75.7244938246
 21
240.5519554974
  0
LINE
  8
0
 62
7
  6
CONTINUOUS
 10
74.3549739003
 20
211.3362351676
 11
74.5855475308
 21
237.7362351676
  0
POLYLINE
  8
0
 62
7
  6
CONTINUOUS
 66
1
 70
0
  0
VERTEX
  8
0
 62
7
  6
CONTINUOUS
 10
71.3848710341
 20
240.4833787944
  0
VERTEX
  8
0
 62
7
  6
CONTINUOUS
 10
71.2991695592
 20
240.2938352549
  0
VERTEX
  8
0
 62
7
  6
CONTINUOUS
 10
71.2173004688
 20
240.1033533436
  0
VERTEX
  8
0
 62
7
  6
CONTINUOUS
 10
71.1402959417
 20
239.9146557794
  0
VERTEX
  8
0
 62
7
  6
CONTINUOUS
 10
71.0687813057
 20
239.7300819669
  0
VERTEX
  8
0
 62
7
  6
CONTINUOUS
 10
71.0031778026
 20
239.5519554974
  0
SEQEND
  0
POLYLINE
  8
0
 62
7
  6
CONTINUOUS
 66
1
 70
0
  0
VERTEX
  8
0
 62
7
  6
CONTINUOUS
 10
70.6612163724
 20
239.6312126706
  0
VERTEX
  8
0
 62
7
  6
CONTINUOUS
 10
70.6487063345
 20
239.6052118281
  0
VERTEX
  8
0
 62
7
  6
CONTINUOUS
 10
70.6363485167
 20
239.5787933124
  0
VERTEX
  8
0
 62
7
  6
CONTINUOUS
 10
70.6241476028
 20
239.5519554974
  0
SEQEND
  0
POLYLINE
  8
0
 62
7
  6
CONTINUOUS
 66
1
 70
0
  0
VERTEX
  8
0
 62
7
  6
CONTINUOUS
 10
70.8525316447
 20
239.9969529925
  0
VERTEX
  8
0
 62
7
  6
CONTINUOUS
 10
70.8119201231
 20
239.9253648904
  0
VERTEX
  8
0
 62
7
  6
CONTINUOUS
 10
70.7727763488
 20
239.8528402014
  0
VERTEX
  8
0
 62
7
  6
CONTINUOUS
 10
70.7347729884
 20
239.7794477199
  0
VERTEX
  8
0
 62
7
  6
CONTINUOUS
 10
70.697681065
 20
239.7054836378
  0
VERTEX
  8
0
 62
7
  6
CONTINUOUS
 10
70.6612163724
 20
239.6312126706
  0
SEQEND
  0
POLYLINE
  8
0
 62
7
  6
CONTINUOUS
 66
1
 70
0
  0
VERTEX
  8
0
 62
7
  6
CONTINUOUS
 10
70.442494491
 20
239.5519554974
  0
VERTEX
  8
0
 62
7
  6
CONTINUOUS
 10
70.3965319365
 20
239.8190441722
  0
VERTEX
  8
0
 62
7
  6
CONTINUOUS
 10
70.3579105614
 20
240.0913269562
  0
VERTEX
  8
0
 62
7
  6
CONTINUOUS
 10
70.3271389725
 20
240.3684617138
  0
SEQEND
  0
LINE
  8
0
 62
7
  6
CONTINUOUS
 10
77.138707387
 20
240.3850499343
 11
77.138707387
 21
240.5519554974
  0
LINE
  8
0
 62
7
  6
CONTINUOUS
 10
78.5529209493
 20
239.7188610565
 11
78.5529209493
 21
240.5519554974
  0
LINE
  8
0
 62
7
  6
CONTINUOUS
 10
79.9671345117
 20
240.3850499423
 11
79.9671345117
 21
240.5519554974
  0
LINE
  8
0
 62
7
  6
CONTINUOUS
 10
81.3813480741
 20
239.7188610485
 11
81.3813480741
 21
240.5519554974
  0
LINE
  8
0
 62
7
  6
CONTINUOUS
 10
82.7955616364
 20
240.3850499503
 11
82.7955616364
 21
240.5519554974
  0
POLYLINE
  8
0
 62
7
  6
CONTINUOUS
 66
1
 70
0
  0
VERTEX
  8
0
 62
7
  6
CONTINUOUS
 10
72.3326344587
 20
240.153548739
  0
VERTEX
  8
0
 62
7
  6
CONTINUOUS
 10
72.194937783
 20
239.9451844863
  0
VERTEX
  8
0
 62
7
  6
CONTINUOUS
 10
72.0663036968
 20
239.7422990341
  0
VERTEX
  8
0
 62
7
  6
CONTINUOUS
 10
71.9504513593
 20
239.5519554974
  0
SEQEND
  0
POLYLINE
  8
0
 62
7
  6
CONTINUOUS
 66
1
 70
0
  0
VERTEX
  8
0
 62
7
  6
CONTINUOUS
 10
70.6241476028
 20
239.5519554974
  0
VERTEX
  8
0
 62
7
  6
CONTINUOUS
 10
70.5627394052
 20
239.7000555081
  0
VERTEX
  8
0
 62
7
  6
CONTINUOUS
 10
70.5058033918
 20
239.8617841035
  0
SEQEND
  0
POLYLINE
  8
0
 62
7
  6
CONTINUOUS
 66
1
 70
0
  0
VERTEX
  8
0
 62
7
  6
CONTINUOUS
 10
71.0031778026
 20
239.5519554974
  0
VERTEX
  8
0
 62
7
  6
CONTINUOUS
 10
70.9636058718
 20
239.6638209412
  0
VERTEX
  8
0
 62
7
  6
CONTINUOUS
 10
70.9253790711
 20
239.7752154291
  0
VERTEX
  8
0
 62
7
  6
CONTINUOUS
 10
70.8883940117
 20
239.8862264286
  0
VERTEX
  8
0
 62
7
  6
CONTINUOUS
 10
70.8525316447
 20
239.9969529925
  0
SEQEND
  0
LINE
  8
0
 62
7
  6
CONTINUOUS
 10
84.2097751988
 20
239.7188610404
 11
84.2097751988
 21
240.5519554974
  0
LINE
  8
0
 62
7
  6
CONTINUOUS
 10
85.6239887612
 20
240.3850499584
 11
85.6239887612
 21
240.5519554974
  0
LINE
  8
0
 62
7
  6
CONTINUOUS
 10
87.0382023236
 20
239.7188610324
 11
87.0382023236
 21
240.5519554974
  0
LINE
  8
0
 62
7
  6
CONTINUOUS
 10
88.4524158859
 20
240.3850499664
 11
88.4524158859
 21
240.5519554974
  0
LINE
  8
0
 62
7
  6
CONTINUOUS
 10
89.8666294483
 20
239.7188610244
 11
89.8666294483
 21
240.5519554974
  0
POLYLINE
  8
0
 62
7
  6
CONTINUOUS
 66
1
 70
0
  0
VERTEX
  8
0
 62
7
  6
CONTINUOUS
 10
74.3102802622
 20
240.5001953064
  0
VERTEX
  8
0
 62
7
  6
CONTINUOUS
 10
74.1524182101
 20
240.3451488727
  0
VERTEX
  8
0
 62
7
  6
CONTINUOUS
 10
73.997935422
 20
240.1890605864
  0
VERTEX
  8
0
 62
7
  6
CONTINUOUS
 10
73.8466322952
 20
240.0318142663
  0
VERTEX
  8
0
 62
7
  6
CONTINUOUS
 10
73.6983423367
 20
239.8733023833
  0
VERTEX
  8
0
 62
7
  6
CONTINUOUS
 10
73.552902365
 20
239.7133905068
  0
VERTEX
  8
0
 62
7
  6
CONTINUOUS
 10
73.4101834357
 20
239.5519554974
  0
SEQEND
  0
LINE
  8
0
 62
7
  6
CONTINUOUS
 10
62.9965717632
 20
240.5519554974
 11
62.5514057592
 21
240.2371755972
  0
LINE
  8
0
 62
7
  6
CONTINUOUS
 10
62.5514057592
 20
239.5543029697
 11
62.9965717632
 21
239.8690829986
  0
LINE
  8
0
 62
7
  6
CONTINUOUS
 10
63.7036785444
 20
240.0519554974
 11
64.4107853256
 21
240.5519554974
  0
LINE
  8
0
 62
7
  6
CONTINUOUS
 10
63.4450579596
 20
239.5519554974
 11
64.4107853256
 21
240.2348275876
  0
POLYLINE
  8
0
 62
7
  6
CONTINUOUS
 66
1
 70
0
  0
VERTEX
  8
0
 62
7
  6
CONTINUOUS
 10
96.2853040642
 20
216.3566613947
  0
VERTEX
  8
0
 62
7
  6
CONTINUOUS
 10
96.3130313052
 20
216.0421681994
  0
VERTEX
  8
0
 62
7
  6
CONTINUOUS
 10
96.3418010239
 20
215.7329176226
  0
SEQEND
  0
POLYLINE
  8
0
 62
7
  6
CONTINUOUS
 66
1
 70
0
  0
VERTEX
  8
0
 62
7
  6
CONTINUOUS
 10
96.2853040642
 20
216.5424083548
  0
VERTEX
  8
0
 62
7
  6
CONTINUOUS
 10
96.3130087673
 20
216.2211545215
  0
VERTEX
  8
0
 62
7
  6
CONTINUOUS
 10
96.3418010239
 20
215.9052550263
  0
SEQEND
  0
LINE
  8
0
 62
7
  6
CONTINUOUS
 10
91.7072512008
 20
237.7362477335
 11
91.9376405104
 21
211.3362477335
  0
LINE
  8
0
 62
7
  6
CONTINUOUS
 10
91.2808430107
 20
240.5034275498
 11
91.2808430107
 21
240.5519554974
  0
LINE
  8
0
 62
7
  6
CONTINUOUS
 10
92.6950565731
 20
239.9405086142
 11
92.6950565731
 21
240.5519554974
  0
LINE
  8
0
 62
7
  6
CONTINUOUS
 10
94.1092701354
 20
239.8406710714
 11
94.1092701354
 21
240.5519554974
  0
LINE
  8
0
 62
7
  6
CONTINUOUS
 10
94.2514057592
 20
215.305485755
 11
94.2514057592
 21
216.2150252125
  0
LINE
  8
0
 62
7
  6
CONTINUOUS
 10
94.364400325
 20
216.6957004303
 11
94.364400325
 21
216.8896618669
  0
LINE
  8
0
 62
7
  6
CONTINUOUS
 10
94.4208972846
 20
213.0728558714
 11
94.4208972846
 21
213.2047211108
  0
LINE
  8
0
 62
7
  6
CONTINUOUS
 10
94.59038881
 20
215.8826859122
 11
94.59038881
 21
215.4444908219
  0
LINE
  8
0
 62
7
  6
CONTINUOUS
 10
94.59038881
 20
217.4410535213
 11
94.59038881
 21
217.6559474555
  0
LINE
  8
0
 62
7
  6
CONTINUOUS
 10
94.7033833758
 20
215.037131172
 11
94.7033833758
 21
215.1966424645
  0
LINE
  8
0
 62
7
  6
CONTINUOUS
 10
94.7598803354
 20
213.0728558714
 11
94.7598803354
 21
213.2047211108
  0
LINE
  8
0
 62
7
  6
CONTINUOUS
 10
94.8163772951
 20
212.8943821243
 11
94.8163772951
 21
213.0242056324
  0
LINE
  8
0
 62
7
  6
CONTINUOUS
 10
94.8163772951
 20
217.8548508819
 11
94.8163772951
 21
218.0834772969
  0
LINE
  8
0
 62
7
  6
CONTINUOUS
 10
94.8728749012
 20
214.7807724089
 11
94.8728749012
 21
214.9360302196
  0
LINE
  8
0
 62
7
  6
CONTINUOUS
 10
94.9293718609
 20
212.7224260482
 11
94.9293718609
 21
212.8503416348
  0
LINE
  8
0
 62
7
  6
CONTINUOUS
 10
95.0988633863
 20
212.6388035213
 11
95.0988633863
 21
212.7658115137
  0
LINE
  8
0
 62
7
  6
CONTINUOUS
 10
95.0988633863
 20
214.6567983261
 11
95.0988633863
 21
214.8100801417
  0
LINE
  8
0
 62
7
  6
CONTINUOUS
 10
95.0988633863
 20
218.0742707258
 11
95.0988633863
 21
218.3109299406
  0
LINE
  8
0
 62
7
  6
CONTINUOUS
 10
95.4378464371
 20
212.6388035213
 11
95.4378464371
 21
212.7658115137
  0
LINE
  8
0
 62
7
  6
CONTINUOUS
 10
95.4378464371
 20
214.6567983261
 11
95.4378464371
 21
214.8100801417
  0
LINE
  8
0
 62
7
  6
CONTINUOUS
 10
95.5234836978
 20
240.3256527115
 11
95.5234836978
 21
240.5519554974
  0
LINE
  8
0
 62
7
  6
CONTINUOUS
 10
95.5508410029
 20
218.0742707258
 11
95.5508410029
 21
218.3109299406
  0
LINE
  8
0
 62
7
  6
CONTINUOUS
 10
95.6073379626
 20
212.7224260482
 11
95.6073379626
 21
212.8503416348
  0
LINE
  8
0
 62
7
  6
CONTINUOUS
 10
95.6638349222
 20
214.5354881925
 11
95.6638349222
 21
214.6868849315
  0
LINE
  8
0
 62
7
  6
CONTINUOUS
 10
95.776829488
 20
212.8943821243
 11
95.776829488
 21
213.0242056324
  0
LINE
  8
0
 62
7
  6
CONTINUOUS
 10
95.8333264476
 20
213.3534721596
 11
95.8333264476
 21
213.1646324606
  0
LINE
  8
0
 62
7
  6
CONTINUOUS
 10
95.8333264476
 20
217.8548508819
 11
95.8333264476
 21
218.0834772969
  0
LINE
  8
0
 62
7
  6
CONTINUOUS
 10
95.8898240538
 20
214.3004835588
 11
95.8898240538
 21
214.4483582713
  0
LINE
  8
0
 62
7
  6
CONTINUOUS
 10
96.0071826623
 20
239.5519554974
 11
96.0071826623
 21
239.8927982507
  0
LINE
  8
0
 62
7
  6
CONTINUOUS
 10
96.0071826623
 20
239.8939823152
 11
96.0071826623
 21
240.2099286795
  0
LINE
  8
0
 62
7
  6
CONTINUOUS
 10
96.1158125388
 20
213.8586314056
 11
96.1158125388
 21
214.0003120172
  0
LINE
  8
0
 62
7
  6
CONTINUOUS
 10
96.1158125388
 20
217.2452576884
 11
96.1158125388
 21
217.4542211496
  0
LINE
  8
0
 62
7
  6
CONTINUOUS
 10
96.1723094984
 20
213.0728558714
 11
96.1723094984
 21
213.5870328519
  0
LINE
  8
0
 62
7
  6
CONTINUOUS
 10
96.2853040642
 20
216.3566613947
 11
96.2853040642
 21
216.5424083548
  0
LINE
  8
0
 62
7
  6
CONTINUOUS
 10
96.3418010239
 20
215.7329176226
 11
96.3418010239
 21
215.9052550263
  0
POLYLINE
  8
0
 62
7
  6
CONTINUOUS
 66
1
 70
0
  0
VERTEX
  8
0
 62
7
  6
CONTINUOUS
 10
95.9656583486
 20
240.2392908033
  0
VERTEX
  8
0
 62
7
  6
CONTINUOUS
 10
95.9319945819
 20
239.987154968
  0
VERTEX
  8
0
 62
7
  6
CONTINUOUS
 10
95.8903289575
 20
239.7591369687
  0
VERTEX
  8
0
 62
7
  6
CONTINUOUS
 10
95.8414974163
 20
239.5519554974
  0
SEQEND
  0
POLYLINE
  8
0
 62
7
  6
CONTINUOUS
 66
1
 70
0
  0
VERTEX
  8
0
 62
7
  6
CONTINUOUS
 10
95.7869878732
 20
239.7382810867
  0
VERTEX
  8
0
 62
7
  6
CONTINUOUS
 10
95.7658090069
 20
239.6448885844
  0
VERTEX
  8
0
 62
7
  6
CONTINUOUS
 10
95.7437738843
 20
239.5519554974
  0
SEQEND
  0
POLYLINE
  8
0
 62
7
  6
CONTINUOUS
 66
1
 70
0
  0
VERTEX
  8
0
 62
7
  6
CONTINUOUS
 10
95.4210147756
 20
240.4794990277
  0
VERTEX
  8
0
 62
7
  6
CONTINUOUS
 10
95.3040115375
 20
240.168072757
  0
VERTEX
  8
0
 62
7
  6
CONTINUOUS
 10
95.1775803253
 20
239.8587674054
  0
VERTEX
  8
0
 62
7
  6
CONTINUOUS
 10
95.0421542748
 20
239.5519554974
  0
SEQEND
  0
POLYLINE
  8
0
 62
7
  6
CONTINUOUS
 66
1
 70
0
  0
VERTEX
  8
0
 62
7
  6
CONTINUOUS
 10
94.1092701354
 20
239.8406710714
  0
VERTEX
  8
0
 62
7
  6
CONTINUOUS
 10
94.0159210552
 20
239.6947670045
  0
VERTEX
  8
0
 62
7
  6
CONTINUOUS
 10
93.922275667
 20
239.5519554974
  0
SEQEND
  0
POLYLINE
  8
0
 62
7
  6
CONTINUOUS
 66
1
 70
0
  0
VERTEX
  8
0
 62
7
  6
CONTINUOUS
 10
75.7244938246
 20
239.7113713656
  0
VERTEX
  8
0
 62
7
  6
CONTINUOUS
 10
75.6207562633
 20
239.6325523666
  0
VERTEX
  8
0
 62
7
  6
CONTINUOUS
 10
75.5166732795
 20
239.5519554974
  0
SEQEND
  0
LINE
  8
0
 62
7
  6
CONTINUOUS
 10
64.8936487126
 20
239.8933914727
 11
65.824998888
 21
240.5519554974
  0
LINE
  8
0
 62
7
  6
CONTINUOUS
 10
65.3765119024
 20
239.5519554974
 11
65.824998888
 21
239.8690838157
  0
LINE
  8
0
 62
7
  6
CONTINUOUS
 10
66.5321056692
 20
240.0519554974
 11
67.2392124503
 21
240.5519554974
  0
LINE
  8
0
 62
7
  6
CONTINUOUS
 10
66.27348624
 20
239.5519554974
 11
67.2392124503
 21
240.2348267705
  0
LINE
  8
0
 62
7
  6
CONTINUOUS
 10
67.7220752596
 20
239.8933910642
 11
68.6534260127
 21
240.5519554974
  0
LINE
  8
0
 62
7
  6
CONTINUOUS
 10
68.2049378715
 20
239.5519554974
 11
68.6534260127
 21
239.8690846329
  0
LINE
  8
0
 62
7
  6
CONTINUOUS
 10
69.3605327939
 20
240.0519554974
 11
70.0676395751
 21
240.5519554974
  0
LINE
  8
0
 62
7
  6
CONTINUOUS
 10
70.0676395751
 20
240.2348259533
 11
69.1019145204
 21
239.5519554974
  0
LINE
  8
0
 62
7
  6
CONTINUOUS
 10
70.4018289692
 20
239.7882630841
 11
70.5058033918
 21
239.8617841035
  0
LINE
  8
0
 62
7
  6
CONTINUOUS
 10
70.7747463563
 20
240.0519554974
 11
71.4818531375
 21
240.5519554974
  0
LINE
  8
0
 62
7
  6
CONTINUOUS
 10
71.8141315179
 20
239.7869117935
 11
72.8960666998
 21
240.5519554974
  0
LINE
  8
0
 62
7
  6
CONTINUOUS
 10
73.2168508799
 20
239.7787841664
 11
74.3102802622
 21
240.5519554974
  0
LINE
  8
0
 62
7
  6
CONTINUOUS
 10
74.9588917804
 20
240.0105931002
 11
75.7244938246
 21
240.5519554974
  0
POLYLINE
  8
0
 62
7
  6
CONTINUOUS
 66
1
 70
0
  0
VERTEX
  8
0
 62
7
  6
CONTINUOUS
 10
71.9504513593
 20
239.5519554974
  0
VERTEX
  8
0
 62
7
  6
CONTINUOUS
 10
71.8276244322
 20
239.7626313524
  0
VERTEX
  8
0
 62
7
  6
CONTINUOUS
 10
71.7050354738
 20
239.9832296542
  0
VERTEX
  8
0
 62
7
  6
CONTINUOUS
 10
71.5881224034
 20
240.2046503119
  0
VERTEX
  8
0
 62
7
  6
CONTINUOUS
 10
71.4818531375
 20
240.4166912699
  0
SEQEND
  0
POLYLINE
  8
0
 62
7
  6
CONTINUOUS
 66
1
 70
0
  0
VERTEX
  8
0
 62
7
  6
CONTINUOUS
 10
94.4773942442
 20
212.8076075246
  0
VERTEX
  8
0
 62
7
  6
CONTINUOUS
 10
94.5614842023
 20
212.6400860353
  0
VERTEX
  8
0
 62
7
  6
CONTINUOUS
 10
94.6468857696
 20
212.4761063753
  0
SEQEND
  0
POLYLINE
  8
0
 62
7
  6
CONTINUOUS
 66
1
 70
0
  0
VERTEX
  8
0
 62
7
  6
CONTINUOUS
 10
94.364400325
 20
214.7807724089
  0
VERTEX
  8
0
 62
7
  6
CONTINUOUS
 10
94.4383566158
 20
214.6190303204
  0
VERTEX
  8
0
 62
7
  6
CONTINUOUS
 10
94.5136915429
 20
214.4589124221
  0
VERTEX
  8
0
 62
7
  6
CONTINUOUS
 10
94.59038881
 20
214.3004835588
  0
SEQEND
  0
POLYLINE
  8
0
 62
7
  6
CONTINUOUS
 66
1
 70
0
  0
VERTEX
  8
0
 62
7
  6
CONTINUOUS
 10
95.776829488
 20
216.6957004303
  0
VERTEX
  8
0
 62
7
  6
CONTINUOUS
 10
95.8601422119
 20
216.4438072231
  0
VERTEX
  8
0
 62
7
  6
CONTINUOUS
 10
95.9463210134
 20
216.1943276439
  0
SEQEND
  0
POLYLINE
  8
0
 62
7
  6
CONTINUOUS
 66
1
 70
0
  0
VERTEX
  8
0
 62
7
  6
CONTINUOUS
 10
94.7598803354
 20
213.0728558714
  0
VERTEX
  8
0
 62
7
  6
CONTINUOUS
 10
94.7880144686
 20
212.9831469033
  0
VERTEX
  8
0
 62
7
  6
CONTINUOUS
 10
94.8163772951
 20
212.8943821243
  0
SEQEND
  0
POLYLINE
  8
0
 62
7
  6
CONTINUOUS
 66
1
 70
0
  0
VERTEX
  8
0
 62
7
  6
CONTINUOUS
 10
94.7598803354
 20
213.2047211108
  0
VERTEX
  8
0
 62
7
  6
CONTINUOUS
 10
94.7880118878
 20
213.1139861122
  0
VERTEX
  8
0
 62
7
  6
CONTINUOUS
 10
94.8163772951
 20
213.0242056324
  0
SEQEND
  0
POLYLINE
  8
0
 62
7
  6
CONTINUOUS
 66
1
 70
0
  0
VERTEX
  8
0
 62
7
  6
CONTINUOUS
 10
94.59038881
 20
215.4444908219
  0
VERTEX
  8
0
 62
7
  6
CONTINUOUS
 10
94.6462331618
 20
215.2395700338
  0
VERTEX
  8
0
 62
7
  6
CONTINUOUS
 10
94.7033833758
 20
215.037131172
  0
SEQEND
  0
POLYLINE
  8
0
 62
7
  6
CONTINUOUS
 66
1
 70
0
  0
VERTEX
  8
0
 62
7
  6
CONTINUOUS
 10
94.59038881
 20
215.6112668878
  0
VERTEX
  8
0
 62
7
  6
CONTINUOUS
 10
94.6462104295
 20
215.4026934163
  0
VERTEX
  8
0
 62
7
  6
CONTINUOUS
 10
94.7033833758
 20
215.1966424645
  0
SEQEND
  0
POLYLINE
  8
0
 62
7
  6
CONTINUOUS
 66
1
 70
0
  0
VERTEX
  8
0
 62
7
  6
CONTINUOUS
 10
94.2514057592
 20
215.305485755
  0
VERTEX
  8
0
 62
7
  6
CONTINUOUS
 10
94.307097331
 20
215.040871608
  0
VERTEX
  8
0
 62
7
  6
CONTINUOUS
 10
94.364400325
 20
214.7807724089
  0
SEQEND
  0
POLYLINE
  8
0
 62
7
  6
CONTINUOUS
 66
1
 70
0
  0
VERTEX
  8
0
 62
7
  6
CONTINUOUS
 10
94.4208972846
 20
213.0728558714
  0
VERTEX
  8
0
 62
7
  6
CONTINUOUS
 10
94.4489807991
 20
212.9391524166
  0
VERTEX
  8
0
 62
7
  6
CONTINUOUS
 10
94.4773942442
 20
212.8076075246
  0
SEQEND
  0
POLYLINE
  8
0
 62
7
  6
CONTINUOUS
 66
1
 70
0
  0
VERTEX
  8
0
 62
7
  6
CONTINUOUS
 10
95.776829488
 20
213.6506425618
  0
VERTEX
  8
0
 62
7
  6
CONTINUOUS
 10
95.8048841562
 20
213.5009256874
  0
VERTEX
  8
0
 62
7
  6
CONTINUOUS
 10
95.8333264476
 20
213.3534721596
  0
SEQEND
  0
POLYLINE
  8
0
 62
7
  6
CONTINUOUS
 66
1
 70
0
  0
VERTEX
  8
0
 62
7
  6
CONTINUOUS
 10
96.1158125388
 20
217.2452576884
  0
VERTEX
  8
0
 62
7
  6
CONTINUOUS
 10
96.1700749251
 20
216.9454150166
  0
VERTEX
  8
0
 62
7
  6
CONTINUOUS
 10
96.226584463
 20
216.649132306
  0
VERTEX
  8
0
 62
7
  6
CONTINUOUS
 10
96.2853040642
 20
216.3566613947
  0
SEQEND
  0
POLYLINE
  8
0
 62
7
  6
CONTINUOUS
 66
1
 70
0
  0
VERTEX
  8
0
 62
7
  6
CONTINUOUS
 10
96.1158125388
 20
217.4542211496
  0
VERTEX
  8
0
 62
7
  6
CONTINUOUS
 10
96.1699594151
 20
217.1465520108
  0
VERTEX
  8
0
 62
7
  6
CONTINUOUS
 10
96.2264695202
 20
216.8425241636
  0
VERTEX
  8
0
 62
7
  6
CONTINUOUS
 10
96.2853040642
 20
216.5424083548
  0
SEQEND
  0
POLYLINE
  8
0
 62
7
  6
CONTINUOUS
 66
1
 70
0
  0
VERTEX
  8
0
 62
7
  6
CONTINUOUS
 10
96.1158125388
 20
213.8586314056
  0
VERTEX
  8
0
 62
7
  6
CONTINUOUS
 10
96.1437936487
 20
213.6525730868
  0
VERTEX
  8
0
 62
7
  6
CONTINUOUS
 10
96.1723094984
 20
213.450625459
  0
SEQEND
  0
POLYLINE
  8
0
 62
7
  6
CONTINUOUS
 66
1
 70
0
  0
VERTEX
  8
0
 62
7
  6
CONTINUOUS
 10
96.1158125388
 20
214.0003120172
  0
VERTEX
  8
0
 62
7
  6
CONTINUOUS
 10
96.1437867318
 20
213.791590818
  0
VERTEX
  8
0
 62
7
  6
CONTINUOUS
 10
96.1723094984
 20
213.5870328519
  0
SEQEND
  0
POLYLINE
  8
0
 62
7
  6
CONTINUOUS
 66
1
 70
0
  0
VERTEX
  8
0
 62
7
  6
CONTINUOUS
 10
95.9463210134
 20
216.1943276439
  0
VERTEX
  8
0
 62
7
  6
CONTINUOUS
 10
95.9741854215
 20
215.9621785921
  0
VERTEX
  8
0
 62
7
  6
CONTINUOUS
 10
96.002817973
 20
215.7329176226
  0
SEQEND
  0
POLYLINE
  8
0
 62
7
  6
CONTINUOUS
 66
1
 70
0
  0
VERTEX
  8
0
 62
7
  6
CONTINUOUS
 10
96.7937786405
 20
218.0742707258
  0
VERTEX
  8
0
 62
7
  6
CONTINUOUS
 10
96.8421822061
 20
217.5382220993
  0
VERTEX
  8
0
 62
7
  6
CONTINUOUS
 10
96.8944350484
 20
217.012809423
  0
VERTEX
  8
0
 62
7
  6
CONTINUOUS
 10
96.9504585419
 20
216.4989330923
  0
VERTEX
  8
0
 62
7
  6
CONTINUOUS
 10
97.0101737952
 20
215.9974153043
  0
VERTEX
  8
0
 62
7
  6
CONTINUOUS
 10
97.0734959107
 20
215.5090653553
  0
VERTEX
  8
0
 62
7
  6
CONTINUOUS
 10
97.1403339681
 20
215.0346782806
  0
VERTEX
  8
0
 62
7
  6
CONTINUOUS
 10
97.2105910253
 20
214.5750333801
  0
VERTEX
  8
0
 62
7
  6
CONTINUOUS
 10
97.2841641415
 20
214.1308926179
  0
VERTEX
  8
0
 62
7
  6
CONTINUOUS
 10
97.3609443583
 20
213.7029993073
  0
VERTEX
  8
0
 62
7
  6
CONTINUOUS
 10
97.440816247
 20
213.2920788351
  0
VERTEX
  8
0
 62
7
  6
CONTINUOUS
 10
97.5236588852
 20
212.8988317808
  0
VERTEX
  8
0
 62
7
  6
CONTINUOUS
 10
97.6093457639
 20
212.5239337314
  0
VERTEX
  8
0
 62
7
  6
CONTINUOUS
 10
97.6977332273
 20
212.168078883
  0
SEQEND
  0
POLYLINE
  8
0
 62
7
  6
CONTINUOUS
 66
1
 70
0
  0
VERTEX
  8
0
 62
7
  6
CONTINUOUS
 10
97.1327616914
 20
218.0742707258
  0
VERTEX
  8
0
 62
7
  6
CONTINUOUS
 10
97.1726371099
 20
217.6198138874
  0
VERTEX
  8
0
 62
7
  6
CONTINUOUS
 10
97.2152216282
 20
217.1728800973
  0
VERTEX
  8
0
 62
7
  6
CONTINUOUS
 10
97.2604686105
 20
216.7340270933
  0
VERTEX
  8
0
 62
7
  6
CONTINUOUS
 10
97.3083305579
 20
216.3037746725
  0
VERTEX
  8
0
 62
7
  6
CONTINUOUS
 10
97.3587501764
 20
215.8826859122
  0
SEQEND
  0
POLYLINE
  8
0
 62
7
  6
CONTINUOUS
 66
1
 70
0
  0
VERTEX
  8
0
 62
7
  6
CONTINUOUS
 10
97.1327616914
 20
218.3109299406
  0
VERTEX
  8
0
 62
7
  6
CONTINUOUS
 10
97.1723382649
 20
217.843804334
  0
VERTEX
  8
0
 62
7
  6
CONTINUOUS
 10
97.2147758079
 20
217.3843623643
  0
VERTEX
  8
0
 62
7
  6
CONTINUOUS
 10
97.2600254248
 20
216.9332079562
  0
VERTEX
  8
0
 62
7
  6
CONTINUOUS
 10
97.3080371333
 20
216.4909038076
  0
VERTEX
  8
0
 62
7
  6
CONTINUOUS
 10
97.3587501764
 20
216.0580615057
  0
SEQEND
  0
POLYLINE
  8
0
 62
7
  6
CONTINUOUS
 66
1
 70
0
  0
VERTEX
  8
0
 62
7
  6
CONTINUOUS
 10
96.005249404
 20
239.5519554974
  0
VERTEX
  8
0
 62
7
  6
CONTINUOUS
 10
95.9916148624
 20
239.9010857957
  0
VERTEX
  8
0
 62
7
  6
CONTINUOUS
 10
95.9656583486
 20
240.2392908033
  0
SEQEND
  0
LINE
  8
0
 62
7
  6
CONTINUOUS
 10
96.7937786405
 20
218.0742707258
 11
96.7937786405
 21
218.3109299406
  0
LINE
  8
0
 62
7
  6
CONTINUOUS
 10
96.9376972602
 20
239.8690859262
 11
96.9376972602
 21
240.5519554974
  0
LINE
  8
0
 62
7
  6
CONTINUOUS
 10
97.1327616914
 20
218.0742707258
 11
97.1327616914
 21
218.3109299406
  0
LINE
  8
0
 62
7
  6
CONTINUOUS
 10
97.3587501764
 20
215.8826859122
 11
97.3587501764
 21
216.0580615057
  0
LINE
  8
0
 62
7
  6
CONTINUOUS
 10
97.9237223589
 20
212.4761063753
 11
97.9237223589
 21
212.6013851336
  0
LINE
  8
0
 62
7
  6
CONTINUOUS
 10
98.3519108226
 20
240.2348250685
 11
98.3519108226
 21
240.5519554974
  0
LINE
  8
0
 62
7
  6
CONTINUOUS
 10
98.4886938948
 20
215.8826859122
 11
98.4886938948
 21
216.0580615057
  0
LINE
  8
0
 62
7
  6
CONTINUOUS
 10
98.7146823798
 20
218.0742707258
 11
98.7146823798
 21
218.3109299406
  0
LINE
  8
0
 62
7
  6
CONTINUOUS
 10
99.0536657539
 20
218.0742707258
 11
99.0536657539
 21
218.3109299406
  0
LINE
  8
0
 62
7
  6
CONTINUOUS
 10
99.5056430473
 20
216.8730400959
 11
99.5056430473
 21
218.3109299406
  0
LINE
  8
0
 62
7
  6
CONTINUOUS
 10
99.7661243849
 20
239.8690859262
 11
99.7661243849
 21
240.5519554974
  0
LINE
  8
0
 62
7
  6
CONTINUOUS
 10
101.1803379473
 20
240.2348250685
 11
101.1803379473
 21
240.5519554974
  0
LINE
  8
0
 62
7
  6
CONTINUOUS
 10
101.2005583015
 20
216.8730400959
 11
101.2005583015
 21
212.168078883
  0
LINE
  8
0
 62
7
  6
CONTINUOUS
 10
101.5395413524
 20
212.168078883
 11
101.5395413524
 21
218.3109299406
  0
LINE
  8
0
 62
7
  6
CONTINUOUS
 10
101.9915188074
 20
212.168078883
 11
101.9915188074
 21
218.3109299406
  0
LINE
  8
0
 62
7
  6
CONTINUOUS
 10
102.3305018582
 20
216.6957004303
 11
102.3305018582
 21
212.168078883
  0
LINE
  8
0
 62
7
  6
CONTINUOUS
 10
102.4999933837
 20
218.0742707258
 11
102.4999933837
 21
218.3109299406
  0
LINE
  8
0
 62
7
  6
CONTINUOUS
 10
102.5945515097
 20
239.8690859262
 11
102.5945515097
 21
240.5519554974
  0
LINE
  8
0
 62
7
  6
CONTINUOUS
 10
103.8271531767
 20
240.4235364946
 11
103.8046723571
 21
240.142151221
  0
POLYLINE
  8
0
 62
7
  6
CONTINUOUS
 66
1
 70
0
  0
VERTEX
  8
0
 62
7
  6
CONTINUOUS
 10
98.7146823798
 20
218.3109299406
  0
VERTEX
  8
0
 62
7
  6
CONTINUOUS
 10
98.6751058062
 20
217.843804334
  0
VERTEX
  8
0
 62
7
  6
CONTINUOUS
 10
98.6326682632
 20
217.3843623643
  0
VERTEX
  8
0
 62
7
  6
CONTINUOUS
 10
98.5874186464
 20
216.9332079562
  0
VERTEX
  8
0
 62
7
  6
CONTINUOUS
 10
98.5394069378
 20
216.4909038076
  0
VERTEX
  8
0
 62
7
  6
CONTINUOUS
 10
98.4886938948
 20
216.0580615057
  0
SEQEND
  0
POLYLINE
  8
0
 62
7
  6
CONTINUOUS
 66
1
 70
0
  0
VERTEX
  8
0
 62
7
  6
CONTINUOUS
 10
98.7146823798
 20
218.0742707258
  0
VERTEX
  8
0
 62
7
  6
CONTINUOUS
 10
98.6748069612
 20
217.6198138874
  0
VERTEX
  8
0
 62
7
  6
CONTINUOUS
 10
98.6322224429
 20
217.1728800973
  0
VERTEX
  8
0
 62
7
  6
CONTINUOUS
 10
98.5869754607
 20
216.7340270933
  0
VERTEX
  8
0
 62
7
  6
CONTINUOUS
 10
98.5391135132
 20
216.3037746725
  0
VERTEX
  8
0
 62
7
  6
CONTINUOUS
 10
98.4886938948
 20
215.8826859122
  0
SEQEND
  0
POLYLINE
  8
0
 62
7
  6
CONTINUOUS
 66
1
 70
0
  0
VERTEX
  8
0
 62
7
  6
CONTINUOUS
 10
99.0536657539
 20
218.0742707258
  0
VERTEX
  8
0
 62
7
  6
CONTINUOUS
 10
99.0052621712
 20
217.538222101
  0
VERTEX
  8
0
 62
7
  6
CONTINUOUS
 10
98.9530093103
 20
217.012809426
  0
VERTEX
  8
0
 62
7
  6
CONTINUOUS
 10
98.896985797
 20
216.4989330964
  0
VERTEX
  8
0
 62
7
  6
CONTINUOUS
 10
98.8372705224
 20
215.9974153091
  0
VERTEX
  8
0
 62
7
  6
CONTINUOUS
 10
98.7739483845
 20
215.5090653605
  0
VERTEX
  8
0
 62
7
  6
CONTINUOUS
 10
98.7071103032
 20
215.034678286
  0
VERTEX
  8
0
 62
7
  6
CONTINUOUS
 10
98.6368532209
 20
214.5750333853
  0
VERTEX
  8
0
 62
7
  6
CONTINUOUS
 10
98.5632800784
 20
214.1308926227
  0
VERTEX
  8
0
 62
7
  6
CONTINUOUS
 10
98.4864998341
 20
213.7029993115
  0
VERTEX
  8
0
 62
7
  6
CONTINUOUS
 10
98.4066279167
 20
213.2920788384
  0
VERTEX
  8
0
 62
7
  6
CONTINUOUS
 10
98.3237852487
 20
212.8988317832
  0
VERTEX
  8
0
 62
7
  6
CONTINUOUS
 10
98.2380983392
 20
212.5239337326
  0
VERTEX
  8
0
 62
7
  6
CONTINUOUS
 10
98.1497108439
 20
212.168078883
  0
SEQEND
  0
POLYLINE
  8
0
 62
7
  6
CONTINUOUS
 66
1
 70
0
  0
VERTEX
  8
0
 62
7
  6
CONTINUOUS
 10
98.4091782976
 20
215.305485755
  0
VERTEX
  8
0
 62
7
  6
CONTINUOUS
 10
98.3684290837
 20
215.0147663182
  0
VERTEX
  8
0
 62
7
  6
CONTINUOUS
 10
98.3015338311
 20
214.5737157887
  0
VERTEX
  8
0
 62
7
  6
CONTINUOUS
 10
98.2316126573
 20
214.1473108433
  0
VERTEX
  8
0
 62
7
  6
CONTINUOUS
 10
98.1587634793
 20
213.7362234702
  0
VERTEX
  8
0
 62
7
  6
CONTINUOUS
 10
98.0830901703
 20
213.3411116448
  0
VERTEX
  8
0
 62
7
  6
CONTINUOUS
 10
98.0047017754
 20
212.9626128644
  0
VERTEX
  8
0
 62
7
  6
CONTINUOUS
 10
97.9237223589
 20
212.6013851336
  0
SEQEND
  0
POLYLINE
  8
0
 62
7
  6
CONTINUOUS
 66
1
 70
0
  0
VERTEX
  8
0
 62
7
  6
CONTINUOUS
 10
98.4321969351
 20
215.305485755
  0
VERTEX
  8
0
 62
7
  6
CONTINUOUS
 10
98.3681936145
 20
214.856658921
  0
VERTEX
  8
0
 62
7
  6
CONTINUOUS
 10
98.3011454784
 20
214.4215851926
  0
VERTEX
  8
0
 62
7
  6
CONTINUOUS
 10
98.2311517
 20
214.0009890415
  0
VERTEX
  8
0
 62
7
  6
CONTINUOUS
 10
98.1583078365
 20
213.595516521
  0
VERTEX
  8
0
 62
7
  6
CONTINUOUS
 10
98.0827151506
 20
213.2058002148
  0
VERTEX
  8
0
 62
7
  6
CONTINUOUS
 10
98.0044797766
 20
212.8324527005
  0
VERTEX
  8
0
 62
7
  6
CONTINUOUS
 10
97.9237223589
 20
212.4761063753
  0
SEQEND
  0
POLYLINE
  8
0
 62
7
  6
CONTINUOUS
 66
1
 70
0
  0
VERTEX
  8
0
 62
7
  6
CONTINUOUS
 10
96.1723094984
 20
213.0728558714
  0
VERTEX
  8
0
 62
7
  6
CONTINUOUS
 10
96.1442760908
 20
212.8957159536
  0
VERTEX
  8
0
 62
7
  6
CONTINUOUS
 10
96.1158125388
 20
212.7224260482
  0
SEQEND
  0
POLYLINE
  8
0
 62
7
  6
CONTINUOUS
 66
1
 70
0
  0
VERTEX
  8
0
 62
7
  6
CONTINUOUS
 10
94.364400325
 20
216.8896618669
  0
VERTEX
  8
0
 62
7
  6
CONTINUOUS
 10
94.3091230656
 20
216.5496881831
  0
VERTEX
  8
0
 62
7
  6
CONTINUOUS
 10
94.2514057592
 20
216.2150252125
  0
SEQEND
  0
POLYLINE
  8
0
 62
7
  6
CONTINUOUS
 66
1
 70
0
  0
VERTEX
  8
0
 62
7
  6
CONTINUOUS
 10
94.364400325
 20
216.6957004303
  0
VERTEX
  8
0
 62
7
  6
CONTINUOUS
 10
94.309069098
 20
216.36346118
  0
VERTEX
  8
0
 62
7
  6
CONTINUOUS
 10
94.2514057592
 20
216.0364163732
  0
SEQEND
  0
POLYLINE
  8
0
 62
7
  6
CONTINUOUS
 66
1
 70
0
  0
VERTEX
  8
0
 62
7
  6
CONTINUOUS
 10
95.8333264476
 20
213.2975729757
  0
VERTEX
  8
0
 62
7
  6
CONTINUOUS
 10
95.8052511811
 20
213.1597897451
  0
VERTEX
  8
0
 62
7
  6
CONTINUOUS
 10
95.776829488
 20
213.0242056324
  0
SEQEND
  0
POLYLINE
  8
0
 62
7
  6
CONTINUOUS
 66
1
 70
0
  0
VERTEX
  8
0
 62
7
  6
CONTINUOUS
 10
95.8333264476
 20
213.1646324606
  0
VERTEX
  8
0
 62
7
  6
CONTINUOUS
 10
95.8052472891
 20
213.0284200331
  0
VERTEX
  8
0
 62
7
  6
CONTINUOUS
 10
95.776829488
 20
212.8943821243
  0
SEQEND
  0
LINE
  8
0
 62
7
  6
CONTINUOUS
 10
104.008765072
 20
239.5631060226
 11
104.0067033671
 21
239.5538399889
  0
POLYLINE
  8
0
 62
7
  6
CONTINUOUS
 66
1
 70
0
  0
VERTEX
  8
0
 62
7
  6
CONTINUOUS
 10
94.7033833758
 20
216.3566613947
  0
VERTEX
  8
0
 62
7
  6
CONTINUOUS
 10
94.6477171315
 20
216.1183198651
  0
VERTEX
  8
0
 62
7
  6
CONTINUOUS
 10
94.59038881
 20
215.8826859122
  0
SEQEND
  0
POLYLINE
  8
0
 62
7
  6
CONTINUOUS
 66
1
 70
0
  0
VERTEX
  8
0
 62
7
  6
CONTINUOUS
 10
94.59038881
 20
217.6559474555
  0
VERTEX
  8
0
 62
7
  6
CONTINUOUS
 10
94.4805986399
 20
217.2704789509
  0
VERTEX
  8
0
 62
7
  6
CONTINUOUS
 10
94.364400325
 20
216.8896618669
  0
SEQEND
  0
POLYLINE
  8
0
 62
7
  6
CONTINUOUS
 66
1
 70
0
  0
VERTEX
  8
0
 62
7
  6
CONTINUOUS
 10
94.59038881
 20
217.4410535213
  0
VERTEX
  8
0
 62
7
  6
CONTINUOUS
 10
94.4804348412
 20
217.0661028291
  0
VERTEX
  8
0
 62
7
  6
CONTINUOUS
 10
94.364400325
 20
216.6957004303
  0
SEQEND
  0
LINE
  8
0
 62
7
  6
CONTINUOUS
 10
104.0058236447
 20
239.5540354006
 11
104.0051531593
 21
239.5519554974
  0
POLYLINE
  8
0
 62
7
  6
CONTINUOUS
 66
1
 70
0
  0
VERTEX
  8
0
 62
7
  6
CONTINUOUS
 10
92.6950565731
 20
239.9405086142
  0
VERTEX
  8
0
 62
7
  6
CONTINUOUS
 10
92.5770976103
 20
239.8060694483
  0
VERTEX
  8
0
 62
7
  6
CONTINUOUS
 10
92.4605263644
 20
239.6761091339
  0
VERTEX
  8
0
 62
7
  6
CONTINUOUS
 10
92.3467613004
 20
239.5519554974
  0
SEQEND
  0
POLYLINE
  8
0
 62
7
  6
CONTINUOUS
 66
1
 70
0
  0
VERTEX
  8
0
 62
7
  6
CONTINUOUS
 10
91.2808430107
 20
240.5034275498
  0
VERTEX
  8
0
 62
7
  6
CONTINUOUS
 10
91.053716622
 20
240.3042164997
  0
VERTEX
  8
0
 62
7
  6
CONTINUOUS
 10
90.8211322533
 20
240.1083078573
  0
VERTEX
  8
0
 62
7
  6
CONTINUOUS
 10
90.5842481104
 20
239.9169673168
  0
VERTEX
  8
0
 62
7
  6
CONTINUOUS
 10
90.343939901
 20
239.7311242909
  0
VERTEX
  8
0
 62
7
  6
CONTINUOUS
 10
90.1015364731
 20
239.5519554974
  0
SEQEND
  0
LINE
  8
0
 62
7
  6
CONTINUOUS
 10
76.4316006058
 20
240.0519554974
 11
77.138707387
 21
240.5519554974
  0
LINE
  8
0
 62
7
  6
CONTINUOUS
 10
77.7277941138
 20
239.9685027167
 11
78.5529209493
 21
240.5519554974
  0
LINE
  8
0
 62
7
  6
CONTINUOUS
 10
78.316880843
 20
239.5519554974
 11
78.5529209493
 21
239.7188610565
  0
LINE
  8
0
 62
7
  6
CONTINUOUS
 10
79.2600277305
 20
240.0519554974
 11
79.9671345117
 21
240.5519554974
  0
LINE
  8
0
 62
7
  6
CONTINUOUS
 10
78.7889610537
 20
239.5519554974
 11
79.9671345117
 21
240.3850499423
  0
LINE
  8
0
 62
7
  6
CONTINUOUS
 10
80.5562212442
 20
239.9685027207
 11
81.3813480741
 21
240.5519554974
  0
LINE
  8
0
 62
7
  6
CONTINUOUS
 10
81.1453079792
 20
239.5519554974
 11
81.3813480741
 21
239.7188610485
  0
LINE
  8
0
 62
7
  6
CONTINUOUS
 10
82.0884548553
 20
240.0519554974
 11
82.7955616364
 21
240.5519554974
  0
LINE
  8
0
 62
7
  6
CONTINUOUS
 10
81.6173881671
 20
239.5519554974
 11
82.7955616364
 21
240.3850499503
  0
LINE
  8
0
 62
7
  6
CONTINUOUS
 10
83.3846483747
 20
239.9685027247
 11
84.2097751988
 21
240.5519554974
  0
LINE
  8
0
 62
7
  6
CONTINUOUS
 10
83.9737351153
 20
239.5519554974
 11
84.2097751988
 21
239.7188610404
  0
LINE
  8
0
 62
7
  6
CONTINUOUS
 10
84.91688198
 20
240.0519554974
 11
85.6239887612
 21
240.5519554974
  0
LINE
  8
0
 62
7
  6
CONTINUOUS
 10
84.4458152805
 20
239.5519554974
 11
85.6239887612
 21
240.3850499584
  0
LINE
  8
0
 62
7
  6
CONTINUOUS
 10
86.2130755051
 20
239.9685027287
 11
87.0382023236
 21
240.5519554974
  0
LINE
  8
0
 62
7
  6
CONTINUOUS
 10
77.138707387
 20
240.3850499343
 11
76.023217803
 21
239.5963492528
  0
LINE
  8
0
 62
7
  6
CONTINUOUS
 10
76.023217803
 20
239.5963492528
 11
75.9596540186
 21
239.5519554974
  0
POLYLINE
  8
0
 62
7
  6
CONTINUOUS
 66
1
 70
0
  0
VERTEX
  8
0
 62
7
  6
CONTINUOUS
 10
94.6468857696
 20
212.4761063753
  0
VERTEX
  8
0
 62
7
  6
CONTINUOUS
 10
94.7591739763
 20
212.3586723716
  0
VERTEX
  8
0
 62
7
  6
CONTINUOUS
 10
94.8728749012
 20
212.242983769
  0
SEQEND
  0
POLYLINE
  8
0
 62
7
  6
CONTINUOUS
 66
1
 70
0
  0
VERTEX
  8
0
 62
7
  6
CONTINUOUS
 10
73.4101834357
 20
239.5519554974
  0
VERTEX
  8
0
 62
7
  6
CONTINUOUS
 10
73.279073087
 20
239.7044247365
  0
VERTEX
  8
0
 62
7
  6
CONTINUOUS
 10
73.1486718318
 20
239.860262394
  0
VERTEX
  8
0
 62
7
  6
CONTINUOUS
 10
73.0204640725
 20
240.017805202
  0
VERTEX
  8
0
 62
7
  6
CONTINUOUS
 10
72.8960666998
 20
240.1750363829
  0
SEQEND
  0
POLYLINE
  8
0
 62
7
  6
CONTINUOUS
 66
1
 70
0
  0
VERTEX
  8
0
 62
7
  6
CONTINUOUS
 10
95.6073379626
 20
213.8586314056
  0
VERTEX
  8
0
 62
7
  6
CONTINUOUS
 10
95.6915507088
 20
213.7542662013
  0
VERTEX
  8
0
 62
7
  6
CONTINUOUS
 10
95.776829488
 20
213.6506425618
  0
SEQEND
  0
POLYLINE
  8
0
 62
7
  6
CONTINUOUS
 66
1
 70
0
  0
VERTEX
  8
0
 62
7
  6
CONTINUOUS
 10
94.7033833758
 20
215.037131172
  0
VERTEX
  8
0
 62
7
  6
CONTINUOUS
 10
94.7874212576
 20
214.9085837936
  0
VERTEX
  8
0
 62
7
  6
CONTINUOUS
 10
94.8728749012
 20
214.7807724089
  0
SEQEND
  0
POLYLINE
  8
0
 62
7
  6
CONTINUOUS
 66
1
 70
0
  0
VERTEX
  8
0
 62
7
  6
CONTINUOUS
 10
94.8163772951
 20
212.8943821243
  0
VERTEX
  8
0
 62
7
  6
CONTINUOUS
 10
94.8726301233
 20
212.8079795275
  0
VERTEX
  8
0
 62
7
  6
CONTINUOUS
 10
94.9293718609
 20
212.7224260482
  0
SEQEND
  0
POLYLINE
  8
0
 62
7
  6
CONTINUOUS
 66
1
 70
0
  0
VERTEX
  8
0
 62
7
  6
CONTINUOUS
 10
94.8163772951
 20
213.0242056324
  0
VERTEX
  8
0
 62
7
  6
CONTINUOUS
 10
94.8726249572
 20
212.9368452129
  0
VERTEX
  8
0
 62
7
  6
CONTINUOUS
 10
94.9293718609
 20
212.8503416348
  0
SEQEND
  0
POLYLINE
  8
0
 62
7
  6
CONTINUOUS
 66
1
 70
0
  0
VERTEX
  8
0
 62
7
  6
CONTINUOUS
 10
94.7033833758
 20
215.1966424645
  0
VERTEX
  8
0
 62
7
  6
CONTINUOUS
 10
94.7873998931
 20
215.0659661154
  0
VERTEX
  8
0
 62
7
  6
CONTINUOUS
 10
94.8728749012
 20
214.9360302196
  0
SEQEND
  0
POLYLINE
  8
0
 62
7
  6
CONTINUOUS
 66
1
 70
0
  0
VERTEX
  8
0
 62
7
  6
CONTINUOUS
 10
95.8898240538
 20
214.3004835588
  0
VERTEX
  8
0
 62
7
  6
CONTINUOUS
 10
95.9639334253
 20
214.1515971366
  0
VERTEX
  8
0
 62
7
  6
CONTINUOUS
 10
96.0392682991
 20
214.0042941889
  0
VERTEX
  8
0
 62
7
  6
CONTINUOUS
 10
96.1158125388
 20
213.8586314056
  0
SEQEND
  0
POLYLINE
  8
0
 62
7
  6
CONTINUOUS
 66
1
 70
0
  0
VERTEX
  8
0
 62
7
  6
CONTINUOUS
 10
95.8898240538
 20
214.4483582713
  0
VERTEX
  8
0
 62
7
  6
CONTINUOUS
 10
95.9639010904
 20
214.2973896384
  0
VERTEX
  8
0
 62
7
  6
CONTINUOUS
 10
96.0392360447
 20
214.1480213109
  0
VERTEX
  8
0
 62
7
  6
CONTINUOUS
 10
96.1158125388
 20
214.0003120172
  0
SEQEND
  0
POLYLINE
  8
0
 62
7
  6
CONTINUOUS
 66
1
 70
0
  0
VERTEX
  8
0
 62
7
  6
CONTINUOUS
 10
95.8333264476
 20
217.8548508819
  0
VERTEX
  8
0
 62
7
  6
CONTINUOUS
 10
95.9709422995
 20
217.5494304994
  0
VERTEX
  8
0
 62
7
  6
CONTINUOUS
 10
96.1158125388
 20
217.2452576884
  0
SEQEND
  0
POLYLINE
  8
0
 62
7
  6
CONTINUOUS
 66
1
 70
0
  0
VERTEX
  8
0
 62
7
  6
CONTINUOUS
 10
95.8333264476
 20
218.0834772969
  0
VERTEX
  8
0
 62
7
  6
CONTINUOUS
 10
95.9707294884
 20
217.7682306172
  0
VERTEX
  8
0
 62
7
  6
CONTINUOUS
 10
96.1158125388
 20
217.4542211496
  0
SEQEND
  0
POLYLINE
  8
0
 62
7
  6
CONTINUOUS
 66
1
 70
0
  0
VERTEX
  8
0
 62
7
  6
CONTINUOUS
 10
95.8414974163
 20
239.5519554974
  0
VERTEX
  8
0
 62
7
  6
CONTINUOUS
 10
95.8151683347
 20
239.6466240725
  0
VERTEX
  8
0
 62
7
  6
CONTINUOUS
 10
95.7869878732
 20
239.7382810867
  0
SEQEND
  0
POLYLINE
  8
0
 62
7
  6
CONTINUOUS
 66
1
 70
0
  0
VERTEX
  8
0
 62
7
  6
CONTINUOUS
 10
95.7437738843
 20
239.5519554974
  0
VERTEX
  8
0
 62
7
  6
CONTINUOUS
 10
95.6772056924
 20
239.8114083742
  0
VERTEX
  8
0
 62
7
  6
CONTINUOUS
 10
95.6036937921
 20
240.0693752805
  0
VERTEX
  8
0
 62
7
  6
CONTINUOUS
 10
95.5234836978
 20
240.3256527115
  0
SEQEND
  0
POLYLINE
  8
0
 62
7
  6
CONTINUOUS
 66
1
 70
0
  0
VERTEX
  8
0
 62
7
  6
CONTINUOUS
 10
102.3305018582
 20
216.6957004303
  0
VERTEX
  8
0
 62
7
  6
CONTINUOUS
 10
102.4408474065
 20
216.1743543534
  0
VERTEX
  8
0
 62
7
  6
CONTINUOUS
 10
102.5585060169
 20
215.6657263814
  0
VERTEX
  8
0
 62
7
  6
CONTINUOUS
 10
102.6833273941
 20
215.1708164923
  0
VERTEX
  8
0
 62
7
  6
CONTINUOUS
 10
102.8151611078
 20
214.6905535641
  0
VERTEX
  8
0
 62
7
  6
CONTINUOUS
 10
102.9538412668
 20
214.2258649578
  0
VERTEX
  8
0
 62
7
  6
CONTINUOUS
 10
103.0991858393
 20
213.7776736111
  0
VERTEX
  8
0
 62
7
  6
CONTINUOUS
 10
103.2509954584
 20
213.3468963993
  0
VERTEX
  8
0
 62
7
  6
CONTINUOUS
 10
103.4090526133
 20
212.9344406515
  0
VERTEX
  8
0
 62
7
  6
CONTINUOUS
 10
103.573123191
 20
212.5411949767
  0
VERTEX
  8
0
 62
7
  6
CONTINUOUS
 10
103.7429311829
 20
212.168078883
  0
SEQEND
  0
POLYLINE
  8
0
 62
7
  6
CONTINUOUS
 66
1
 70
0
  0
VERTEX
  8
0
 62
7
  6
CONTINUOUS
 10
102.4999933837
 20
218.0742707258
  0
VERTEX
  8
0
 62
7
  6
CONTINUOUS
 10
102.5836189022
 20
217.5563445566
  0
VERTEX
  8
0
 62
7
  6
CONTINUOUS
 10
102.6738081627
 20
217.0476256266
  0
VERTEX
  8
0
 62
7
  6
CONTINUOUS
 10
102.7704679137
 20
216.5489350159
  0
VERTEX
  8
0
 62
7
  6
CONTINUOUS
 10
102.8735040675
 20
216.0610403136
  0
VERTEX
  8
0
 62
7
  6
CONTINUOUS
 10
102.982812352
 20
215.5847116386
  0
VERTEX
  8
0
 62
7
  6
CONTINUOUS
 10
103.0982778106
 20
215.1207200769
  0
VERTEX
  8
0
 62
7
  6
CONTINUOUS
 10
103.219774224
 20
214.6698363163
  0
VERTEX
  8
0
 62
7
  6
CONTINUOUS
 10
103.3471636246
 20
214.2328287276
  0
VERTEX
  8
0
 62
7
  6
CONTINUOUS
 10
103.4802949469
 20
213.8104639873
  0
VERTEX
  8
0
 62
7
  6
CONTINUOUS
 10
103.6190046243
 20
213.4035008874
  0
VERTEX
  8
0
 62
7
  6
CONTINUOUS
 10
103.7631166926
 20
213.012686864
  0
VERTEX
  8
0
 62
7
  6
CONTINUOUS
 10
103.9124227083
 20
212.6388035213
  0
SEQEND
  0
POLYLINE
  8
0
 62
7
  6
CONTINUOUS
 66
1
 70
0
  0
VERTEX
  8
0
 62
7
  6
CONTINUOUS
 10
102.4999933837
 20
218.3109299406
  0
VERTEX
  8
0
 62
7
  6
CONTINUOUS
 10
102.5823016765
 20
217.7829312098
  0
VERTEX
  8
0
 62
7
  6
CONTINUOUS
 10
102.6714220342
 20
217.2641706352
  0
VERTEX
  8
0
 62
7
  6
CONTINUOUS
 10
102.7672598965
 20
216.7555117701
  0
VERTEX
  8
0
 62
7
  6
CONTINUOUS
 10
102.8697194059
 20
216.2577627033
  0
VERTEX
  8
0
 62
7
  6
CONTINUOUS
 10
102.978693942
 20
215.7717346386
  0
VERTEX
  8
0
 62
7
  6
CONTINUOUS
 10
103.0940655659
 20
215.2982402724
  0
VERTEX
  8
0
 62
7
  6
CONTINUOUS
 10
103.2157043807
 20
214.8380923682
  0
VERTEX
  8
0
 62
7
  6
CONTINUOUS
 10
103.3434679945
 20
214.3921017066
  0
VERTEX
  8
0
 62
7
  6
CONTINUOUS
 10
103.4772001596
 20
213.9610774785
  0
VERTEX
  8
0
 62
7
  6
CONTINUOUS
 10
103.6167310479
 20
213.5458216789
  0
VERTEX
  8
0
 62
7
  6
CONTINUOUS
 10
103.7618776624
 20
213.1471242482
  0
VERTEX
  8
0
 62
7
  6
CONTINUOUS
 10
103.9124227083
 20
212.7658115137
  0
SEQEND
  0
POLYLINE
  8
0
 62
7
  6
CONTINUOUS
 66
1
 70
0
  0
VERTEX
  8
0
 62
7
  6
CONTINUOUS
 10
97.4152477826
 20
215.305485755
  0
VERTEX
  8
0
 62
7
  6
CONTINUOUS
 10
97.4792511032
 20
214.856658921
  0
VERTEX
  8
0
 62
7
  6
CONTINUOUS
 10
97.5462992394
 20
214.4215851926
  0
VERTEX
  8
0
 62
7
  6
CONTINUOUS
 10
97.6162930177
 20
214.0009890415
  0
VERTEX
  8
0
 62
7
  6
CONTINUOUS
 10
97.6891368812
 20
213.595516521
  0
VERTEX
  8
0
 62
7
  6
CONTINUOUS
 10
97.7647295671
 20
213.2058002148
  0
VERTEX
  8
0
 62
7
  6
CONTINUOUS
 10
97.8429649411
 20
212.8324527005
  0
VERTEX
  8
0
 62
7
  6
CONTINUOUS
 10
97.9237223589
 20
212.4761063753
  0
SEQEND
  0
POLYLINE
  8
0
 62
7
  6
CONTINUOUS
 66
1
 70
0
  0
VERTEX
  8
0
 62
7
  6
CONTINUOUS
 10
97.4382664201
 20
215.305485755
  0
VERTEX
  8
0
 62
7
  6
CONTINUOUS
 10
97.479015634
 20
215.0147663182
  0
VERTEX
  8
0
 62
7
  6
CONTINUOUS
 10
97.5459108866
 20
214.5737157887
  0
VERTEX
  8
0
 62
7
  6
CONTINUOUS
 10
97.6158320604
 20
214.1473108433
  0
VERTEX
  8
0
 62
7
  6
CONTINUOUS
 10
97.6886812384
 20
213.7362234702
  0
VERTEX
  8
0
 62
7
  6
CONTINUOUS
 10
97.7643545475
 20
213.3411116448
  0
VERTEX
  8
0
 62
7
  6
CONTINUOUS
 10
97.8427429423
 20
212.9626128644
  0
VERTEX
  8
0
 62
7
  6
CONTINUOUS
 10
97.9237223589
 20
212.6013851336
  0
SEQEND
  0
LINE
  8
0
 62
7
  6
CONTINUOUS
 10
103.785628856
 20
239.5519554974
 11
103.785628856
 21
240.3941743659
  0
LINE
  8
0
 62
7
  6
CONTINUOUS
 10
103.9124227083
 20
212.6388035213
 11
103.9124227083
 21
218.3109299406
  0
LINE
  8
0
 62
7
  6
CONTINUOUS
 10
104.008765072
 20
239.5631060226
 11
104.008765072
 21
240.5519554974
  0
LINE
  8
0
 62
7
  6
CONTINUOUS
 10
104.2514057592
 20
212.168078883
 11
104.2514057592
 21
218.3109299406
  0
LINE
  8
0
 62
7
  6
CONTINUOUS
 10
105.4229786344
 20
240.0841170612
 11
105.4229786344
 21
240.5519554974
  0
LINE
  8
0
 62
7
  6
CONTINUOUS
 10
106.8371921968
 20
240.0642944643
 11
106.8371921968
 21
240.5519554974
  0
LINE
  8
0
 62
7
  6
CONTINUOUS
 10
108.2514057592
 20
240.5519554974
 11
108.2514057592
 21
240.5462422635
  0
LINE
  8
0
 62
7
  6
CONTINUOUS
 10
107.8551710079
 20
211.3362477335
 11
108.0855603176
 21
237.7362477335
  0
POLYLINE
  8
0
 62
7
  6
CONTINUOUS
 66
1
 70
0
  0
VERTEX
  8
0
 62
7
  6
CONTINUOUS
 10
103.8046723571
 20
240.142151221
  0
VERTEX
  8
0
 62
7
  6
CONTINUOUS
 10
103.790604302
 20
239.8514619716
  0
VERTEX
  8
0
 62
7
  6
CONTINUOUS
 10
103.7882507596
 20
239.7096931019
  0
SEQEND
  0
POLYLINE
  8
0
 62
7
  6
CONTINUOUS
 66
1
 70
0
  0
VERTEX
  8
0
 62
7
  6
CONTINUOUS
 10
94.8728749012
 20
216.6957004303
  0
VERTEX
  8
0
 62
7
  6
CONTINUOUS
 10
94.7891940118
 20
216.5258157818
  0
VERTEX
  8
0
 62
7
  6
CONTINUOUS
 10
94.7033833758
 20
216.3566613947
  0
SEQEND
  0
POLYLINE
  8
0
 62
7
  6
CONTINUOUS
 66
1
 70
0
  0
VERTEX
  8
0
 62
7
  6
CONTINUOUS
 10
105.0018381717
 20
240.2541642204
  0
VERTEX
  8
0
 62
7
  6
CONTINUOUS
 10
104.8855480725
 20
240.0215827383
  0
VERTEX
  8
0
 62
7
  6
CONTINUOUS
 10
104.7742552572
 20
239.7874668675
  0
VERTEX
  8
0
 62
7
  6
CONTINUOUS
 10
104.6681379738
 20
239.5519554974
  0
SEQEND
  0
POLYLINE
  8
0
 62
7
  6
CONTINUOUS
 66
1
 70
0
  0
VERTEX
  8
0
 62
7
  6
CONTINUOUS
 10
94.8163772951
 20
218.0834772969
  0
VERTEX
  8
0
 62
7
  6
CONTINUOUS
 10
94.705603356
 20
217.8696471298
  0
VERTEX
  8
0
 62
7
  6
CONTINUOUS
 10
94.59038881
 20
217.6559474555
  0
SEQEND
  0
POLYLINE
  8
0
 62
7
  6
CONTINUOUS
 66
1
 70
0
  0
VERTEX
  8
0
 62
7
  6
CONTINUOUS
 10
94.8163772951
 20
217.8548508819
  0
VERTEX
  8
0
 62
7
  6
CONTINUOUS
 10
94.7054797417
 20
217.6478718536
  0
VERTEX
  8
0
 62
7
  6
CONTINUOUS
 10
94.59038881
 20
217.4410535213
  0
SEQEND
  0
POLYLINE
  8
0
 62
7
  6
CONTINUOUS
 66
1
 70
0
  0
VERTEX
  8
0
 62
7
  6
CONTINUOUS
 10
104.371796735
 20
240.2952533467
  0
VERTEX
  8
0
 62
7
  6
CONTINUOUS
 10
104.2705058433
 20
240.1433429382
  0
VERTEX
  8
0
 62
7
  6
CONTINUOUS
 10
104.1756308057
 20
239.9721630943
  0
VERTEX
  8
0
 62
7
  6
CONTINUOUS
 10
104.0880536873
 20
239.7796056513
  0
VERTEX
  8
0
 62
7
  6
CONTINUOUS
 10
104.008765072
 20
239.5631060226
  0
SEQEND
  0
POLYLINE
  8
0
 62
7
  6
CONTINUOUS
 66
1
 70
0
  0
VERTEX
  8
0
 62
7
  6
CONTINUOUS
 10
106.0428324742
 20
239.9902583509
  0
VERTEX
  8
0
 62
7
  6
CONTINUOUS
 10
105.9404672647
 20
239.8406356674
  0
VERTEX
  8
0
 62
7
  6
CONTINUOUS
 10
105.8426103028
 20
239.6939754784
  0
VERTEX
  8
0
 62
7
  6
CONTINUOUS
 10
105.7501441646
 20
239.5519554974
  0
SEQEND
  0
POLYLINE
  8
0
 62
7
  6
CONTINUOUS
 66
1
 70
0
  0
VERTEX
  8
0
 62
7
  6
CONTINUOUS
 10
61.4262936843
 20
210.7492833024
  0
VERTEX
  8
0
 62
7
  6
CONTINUOUS
 10
61.4260985654
 20
210.749131909
  0
VERTEX
  8
0
 62
7
  6
CONTINUOUS
 10
61.4302380061
 20
210.7520894994
  0
VERTEX
  8
0
 62
7
  6
CONTINUOUS
 10
61.4414814845
 20
210.7595636178
  0
VERTEX
  8
0
 62
7
  6
CONTINUOUS
 10
61.4606838339
 20
210.7713698101
  0
VERTEX
  8
0
 62
7
  6
CONTINUOUS
 10
61.4886919666
 20
210.787251992
  0
VERTEX
  8
0
 62
7
  6
CONTINUOUS
 10
61.5260266506
 20
210.8067190016
  0
VERTEX
  8
0
 62
7
  6
CONTINUOUS
 10
61.5728299186
 20
210.8290831181
  0
VERTEX
  8
0
 62
7
  6
CONTINUOUS
 10
61.6288223197
 20
210.8535057559
  0
VERTEX
  8
0
 62
7
  6
CONTINUOUS
 10
61.6934037747
 20
210.8790990125
  0
VERTEX
  8
0
 62
7
  6
CONTINUOUS
 10
61.7656968006
 20
210.9049803432
  0
VERTEX
  8
0
 62
7
  6
CONTINUOUS
 10
61.8445567169
 20
210.9303076686
  0
VERTEX
  8
0
 62
7
  6
CONTINUOUS
 10
61.9286677214
 20
210.9543366319
  0
VERTEX
  8
0
 62
7
  6
CONTINUOUS
 10
62.0168213844
 20
210.9765023055
  0
VERTEX
  8
0
 62
7
  6
CONTINUOUS
 10
62.1078791695
 20
210.9963842908
  0
VERTEX
  8
0
 62
7
  6
CONTINUOUS
 10
62.2007167057
 20
211.0136805923
  0
VERTEX
  8
0
 62
7
  6
CONTINUOUS
 10
62.2946391759
 20
211.0282602939
  0
VERTEX
  8
0
 62
7
  6
CONTINUOUS
 10
62.3892557809
 20
211.0400831406
  0
VERTEX
  8
0
 62
7
  6
CONTINUOUS
 10
62.4842612745
 20
211.0491384654
  0
VERTEX
  8
0
 62
7
  6
CONTINUOUS
 10
62.5793750483
 20
211.0554319575
  0
VERTEX
  8
0
 62
7
  6
CONTINUOUS
 10
62.6743510322
 20
211.0589844793
  0
VERTEX
  8
0
 62
7
  6
CONTINUOUS
 10
62.751405757
 20
211.0598750137
  0
SEQEND
  0
LINE
  8
0
 62
7
  6
CONTINUOUS
 10
86.8021622514
 20
239.5519554974
 11
87.0382023236
 21
239.7188610324
  0
LINE
  8
0
 62
7
  6
CONTINUOUS
 10
87.7453091048
 20
240.0519554974
 11
88.4524158859
 21
240.5519554974
  0
LINE
  8
0
 62
7
  6
CONTINUOUS
 10
87.2742423939
 20
239.5519554974
 11
88.4524158859
 21
240.3850499664
  0
LINE
  8
0
 62
7
  6
CONTINUOUS
 10
89.0415026355
 20
239.9685027327
 11
89.8666294483
 21
240.5519554974
  0
LINE
  8
0
 62
7
  6
CONTINUOUS
 10
89.8666294483
 20
239.7188610244
 11
89.6305893875
 21
239.5519554974
  0
LINE
  8
0
 62
7
  6
CONTINUOUS
 10
90.5737362295
 20
240.0519554974
 11
91.2808430107
 21
240.5519554974
  0
LINE
  8
0
 62
7
  6
CONTINUOUS
 10
91.9879497919
 20
240.0519554974
 11
92.6950565731
 21
240.5519554974
  0
LINE
  8
0
 62
7
  6
CONTINUOUS
 10
93.1182491398
 20
239.8511978311
 11
94.1092701354
 21
240.5519554974
  0
LINE
  8
0
 62
7
  6
CONTINUOUS
 10
94.8163769166
 20
240.0519554974
 11
95.5234836978
 21
240.5519554974
  0
LINE
  8
0
 62
7
  6
CONTINUOUS
 10
95.7869878732
 20
239.7382810867
 11
95.9012864047
 21
239.8191023534
  0
LINE
  8
0
 62
7
  6
CONTINUOUS
 10
96.0071826623
 20
239.8939823152
 11
96.9376972602
 21
240.5519554974
  0
LINE
  8
0
 62
7
  6
CONTINUOUS
 10
96.4892071067
 20
239.5519554974
 11
96.9376972602
 21
239.8690859262
  0
LINE
  8
0
 62
7
  6
CONTINUOUS
 10
97.6448040414
 20
240.0519554974
 11
98.3519108226
 21
240.5519554974
  0
LINE
  8
0
 62
7
  6
CONTINUOUS
 10
98.3519108226
 20
240.2348250685
 11
97.3861874137
 21
239.5519554974
  0
POLYLINE
  8
0
 62
7
  6
CONTINUOUS
 66
1
 70
0
  0
VERTEX
  8
0
 62
7
  6
CONTINUOUS
 10
94.59038881
 20
214.3004835588
  0
VERTEX
  8
0
 62
7
  6
CONTINUOUS
 10
94.7025022301
 20
214.1874949608
  0
VERTEX
  8
0
 62
7
  6
CONTINUOUS
 10
94.8163772951
 20
214.0750667482
  0
SEQEND
  0
POLYLINE
  8
0
 62
7
  6
CONTINUOUS
 66
1
 70
0
  0
VERTEX
  8
0
 62
7
  6
CONTINUOUS
 10
95.6638349222
 20
214.5354881925
  0
VERTEX
  8
0
 62
7
  6
CONTINUOUS
 10
95.7758986148
 20
214.4177143266
  0
VERTEX
  8
0
 62
7
  6
CONTINUOUS
 10
95.8898240538
 20
214.3004835588
  0
SEQEND
  0
POLYLINE
  8
0
 62
7
  6
CONTINUOUS
 66
1
 70
0
  0
VERTEX
  8
0
 62
7
  6
CONTINUOUS
 10
95.6638349222
 20
214.6868849315
  0
VERTEX
  8
0
 62
7
  6
CONTINUOUS
 10
95.7758735993
 20
214.5673515078
  0
VERTEX
  8
0
 62
7
  6
CONTINUOUS
 10
95.8898240538
 20
214.4483582713
  0
SEQEND
  0
POLYLINE
  8
0
 62
7
  6
CONTINUOUS
 66
1
 70
0
  0
VERTEX
  8
0
 62
7
  6
CONTINUOUS
 10
95.0421542748
 20
239.5519554974
  0
VERTEX
  8
0
 62
7
  6
CONTINUOUS
 10
94.9611861365
 20
239.7254236459
  0
VERTEX
  8
0
 62
7
  6
CONTINUOUS
 10
94.8774368844
 20
239.8980921258
  0
VERTEX
  8
0
 62
7
  6
CONTINUOUS
 10
94.7909734224
 20
240.0699184804
  0
SEQEND
  0
LINE
  8
0
 62
7
  6
CONTINUOUS
 10
104.0060541533
 20
239.5529954155
 11
104.0058236447
 21
239.5540354006
  0
LINE
  8
0
 62
7
  6
CONTINUOUS
 10
109.6656193215
 20
239.7176293738
 11
109.6656193215
 21
240.5519554974
  0
LINE
  8
0
 62
7
  6
CONTINUOUS
 10
111.0798328839
 20
240.3850499672
 11
111.0798328839
 21
240.5519554974
  0
LINE
  8
0
 62
7
  6
CONTINUOUS
 10
112.4940464463
 20
239.7188610276
 11
112.4940464463
 21
240.5519554974
  0
LINE
  8
0
 62
7
  6
CONTINUOUS
 10
113.9082600087
 20
240.3850499672
 11
113.9082600087
 21
240.5519554974
  0
LINE
  8
0
 62
7
  6
CONTINUOUS
 10
115.322473571
 20
239.7188610276
 11
115.322473571
 21
240.5519554974
  0
POLYLINE
  8
0
 62
7
  6
CONTINUOUS
 66
1
 70
0
  0
VERTEX
  8
0
 62
7
  6
CONTINUOUS
 10
96.1158125388
 20
212.7224260482
  0
VERTEX
  8
0
 62
7
  6
CONTINUOUS
 10
96.0412956445
 20
212.6124546588
  0
VERTEX
  8
0
 62
7
  6
CONTINUOUS
 10
95.9659609366
 20
212.5039575563
  0
VERTEX
  8
0
 62
7
  6
CONTINUOUS
 10
95.8898240538
 20
212.3969708811
  0
SEQEND
  0
POLYLINE
  8
0
 62
7
  6
CONTINUOUS
 66
1
 70
0
  0
VERTEX
  8
0
 62
7
  6
CONTINUOUS
 10
108.2514057592
 20
240.5462422635
  0
VERTEX
  8
0
 62
7
  6
CONTINUOUS
 10
108.0492115351
 20
240.3535638717
  0
VERTEX
  8
0
 62
7
  6
CONTINUOUS
 10
107.8441801673
 20
240.1510853859
  0
VERTEX
  8
0
 62
7
  6
CONTINUOUS
 10
107.6433952142
 20
239.9455549448
  0
VERTEX
  8
0
 62
7
  6
CONTINUOUS
 10
107.4528256621
 20
239.7435139136
  0
VERTEX
  8
0
 62
7
  6
CONTINUOUS
 10
107.2780687439
 20
239.5519554974
  0
SEQEND
  0
POLYLINE
  8
0
 62
7
  6
CONTINUOUS
 66
1
 70
0
  0
VERTEX
  8
0
 62
7
  6
CONTINUOUS
 10
109.6656193215
 20
239.7176293738
  0
VERTEX
  8
0
 62
7
  6
CONTINUOUS
 10
109.5542513663
 20
239.6359399128
  0
VERTEX
  8
0
 62
7
  6
CONTINUOUS
 10
109.4421625709
 20
239.5519554974
  0
SEQEND
  0
LINE
  8
0
 62
7
  6
CONTINUOUS
 10
98.834772527
 20
239.893390283
 11
99.7661243849
 21
240.5519554974
  0
LINE
  8
0
 62
7
  6
CONTINUOUS
 10
99.3176342314
 20
239.5519554974
 11
99.7661243849
 21
239.8690859262
  0
LINE
  8
0
 62
7
  6
CONTINUOUS
 10
100.4732311661
 20
240.0519554974
 11
101.1803379473
 21
240.5519554974
  0
LINE
  8
0
 62
7
  6
CONTINUOUS
 10
101.1803379473
 20
240.2348250685
 11
100.2146145384
 21
239.5519554974
  0
LINE
  8
0
 62
7
  6
CONTINUOUS
 10
101.6631996517
 20
239.893390283
 11
102.5945515097
 21
240.5519554974
  0
LINE
  8
0
 62
7
  6
CONTINUOUS
 10
102.1460613562
 20
239.5519554974
 11
102.5945515097
 21
239.8690859262
  0
LINE
  8
0
 62
7
  6
CONTINUOUS
 10
103.3016582909
 20
240.0519554974
 11
104.008765072
 21
240.5519554974
  0
LINE
  8
0
 62
7
  6
CONTINUOUS
 10
103.785628856
 20
240.0770439371
 11
103.0430416632
 21
239.5519554974
  0
LINE
  8
0
 62
7
  6
CONTINUOUS
 10
104.5180385314
 20
239.912066214
 11
105.4229786344
 21
240.5519554974
  0
LINE
  8
0
 62
7
  6
CONTINUOUS
 10
105.6488899588
 20
239.7116989268
 11
106.0428324742
 21
239.9902583509
  0
LINE
  8
0
 62
7
  6
CONTINUOUS
 10
106.1300854156
 20
240.0519554974
 11
106.8371921968
 21
240.5519554974
  0
LINE
  8
0
 62
7
  6
CONTINUOUS
 10
107.1090692101
 20
239.7442015771
 11
108.2514057592
 21
240.5519554974
  0
LINE
  8
0
 62
7
  6
CONTINUOUS
 10
108.8830887333
 20
239.9986228119
 11
109.6656193215
 21
240.5519554974
  0
POLYLINE
  8
0
 62
7
  6
CONTINUOUS
 66
1
 70
0
  0
VERTEX
  8
0
 62
7
  6
CONTINUOUS
 10
94.7909734224
 20
240.0699184804
  0
VERTEX
  8
0
 62
7
  6
CONTINUOUS
 10
94.7395932972
 20
240.0433008006
  0
VERTEX
  8
0
 62
7
  6
CONTINUOUS
 10
94.6869878107
 20
240.0180732708
  0
SEQEND
  0
POLYLINE
  8
0
 62
7
  6
CONTINUOUS
 66
1
 70
0
  0
VERTEX
  8
0
 62
7
  6
CONTINUOUS
 10
95.4378464371
 20
213.9657613591
  0
VERTEX
  8
0
 62
7
  6
CONTINUOUS
 10
95.5222302057
 20
213.9121573947
  0
VERTEX
  8
0
 62
7
  6
CONTINUOUS
 10
95.6073379626
 20
213.8586314056
  0
SEQEND
  0
LINE
  8
0
 62
7
  6
CONTINUOUS
 10
62.9965717632
 20
239.8690829986
 11
63.4450579596
 21
239.5519554974
  0
LINE
  8
0
 62
7
  6
CONTINUOUS
 10
62.9965717632
 20
240.5519554974
 11
63.9279217413
 21
239.8933916123
  0
LINE
  8
0
 62
7
  6
CONTINUOUS
 10
64.4107853256
 20
240.2348275876
 11
65.3765119024
 21
239.5519554974
  0
LINE
  8
0
 62
7
  6
CONTINUOUS
 10
64.4107853256
 20
240.5519554974
 11
65.1178921068
 21
240.0519554974
  0
LINE
  8
0
 62
7
  6
CONTINUOUS
 10
65.824998888
 20
239.8690838157
 11
66.27348624
 21
239.5519554974
  0
LINE
  8
0
 62
7
  6
CONTINUOUS
 10
65.824998888
 20
240.5519554974
 11
66.7563494438
 21
239.8933912037
  0
POLYLINE
  8
0
 62
7
  6
CONTINUOUS
 66
1
 70
0
  0
VERTEX
  8
0
 62
7
  6
CONTINUOUS
 10
95.5508410029
 20
218.0742707258
  0
VERTEX
  8
0
 62
7
  6
CONTINUOUS
 10
95.690064712
 20
217.9650007889
  0
VERTEX
  8
0
 62
7
  6
CONTINUOUS
 10
95.8333264476
 20
217.8548508819
  0
SEQEND
  0
POLYLINE
  8
0
 62
7
  6
CONTINUOUS
 66
1
 70
0
  0
VERTEX
  8
0
 62
7
  6
CONTINUOUS
 10
95.5508410029
 20
216.8730400959
  0
VERTEX
  8
0
 62
7
  6
CONTINUOUS
 10
95.6627514287
 20
216.78453256
  0
VERTEX
  8
0
 62
7
  6
CONTINUOUS
 10
95.776829488
 20
216.6957004303
  0
SEQEND
  0
POLYLINE
  8
0
 62
7
  6
CONTINUOUS
 66
1
 70
0
  0
VERTEX
  8
0
 62
7
  6
CONTINUOUS
 10
95.5508410029
 20
218.3109299406
  0
VERTEX
  8
0
 62
7
  6
CONTINUOUS
 10
95.6899368775
 20
218.1976920417
  0
VERTEX
  8
0
 62
7
  6
CONTINUOUS
 10
95.8333264476
 20
218.0834772969
  0
SEQEND
  0
POLYLINE
  8
0
 62
7
  6
CONTINUOUS
 66
1
 70
0
  0
VERTEX
  8
0
 62
7
  6
CONTINUOUS
 10
93.922275667
 20
239.5519554974
  0
VERTEX
  8
0
 62
7
  6
CONTINUOUS
 10
93.8365566987
 20
239.6797137374
  0
VERTEX
  8
0
 62
7
  6
CONTINUOUS
 10
93.7499790904
 20
239.8060126317
  0
SEQEND
  0
POLYLINE
  8
0
 62
7
  6
CONTINUOUS
 66
1
 70
0
  0
VERTEX
  8
0
 62
7
  6
CONTINUOUS
 10
95.5234836978
 20
240.3256527115
  0
VERTEX
  8
0
 62
7
  6
CONTINUOUS
 10
95.4738689604
 20
240.4036483279
  0
VERTEX
  8
0
 62
7
  6
CONTINUOUS
 10
95.4210147756
 20
240.4794990277
  0
SEQEND
  0
POLYLINE
  8
0
 62
7
  6
CONTINUOUS
 66
1
 70
0
  0
VERTEX
  8
0
 62
7
  6
CONTINUOUS
 10
104.6681379738
 20
239.5519554974
  0
VERTEX
  8
0
 62
7
  6
CONTINUOUS
 10
104.5634455666
 20
239.7982310864
  0
VERTEX
  8
0
 62
7
  6
CONTINUOUS
 10
104.4645926167
 20
240.046054758
  0
VERTEX
  8
0
 62
7
  6
CONTINUOUS
 10
104.371796735
 20
240.2952533467
  0
SEQEND
  0
POLYLINE
  8
0
 62
7
  6
CONTINUOUS
 66
1
 70
0
  0
VERTEX
  8
0
 62
7
  6
CONTINUOUS
 10
104.0051531593
 20
239.5519554974
  0
VERTEX
  8
0
 62
7
  6
CONTINUOUS
 10
103.9333197923
 20
239.8070577245
  0
VERTEX
  8
0
 62
7
  6
CONTINUOUS
 10
103.8735809236
 20
240.0944985147
  0
VERTEX
  8
0
 62
7
  6
CONTINUOUS
 10
103.8271531767
 20
240.4235364946
  0
SEQEND
  0
LINE
  8
0
 62
7
  6
CONTINUOUS
 10
116.7366871334
 20
240.3850499672
 11
116.7366871334
 21
240.5519554974
  0
LINE
  8
0
 62
7
  6
CONTINUOUS
 10
118.1509006958
 20
239.7188610276
 11
118.1509006958
 21
240.5519554974
  0
LINE
  8
0
 62
7
  6
CONTINUOUS
 10
119.5651142581
 20
240.3850499672
 11
119.5651142581
 21
240.5519554974
  0
LINE
  8
0
 62
7
  6
CONTINUOUS
 10
120.9793278205
 20
239.7188610276
 11
120.9793278205
 21
240.5519554974
  0
POLYLINE
  8
0
 62
7
  6
CONTINUOUS
 66
1
 70
0
  0
VERTEX
  8
0
 62
7
  6
CONTINUOUS
 10
95.776829488
 20
213.0242056324
  0
VERTEX
  8
0
 62
7
  6
CONTINUOUS
 10
95.6925100785
 20
212.9368984761
  0
VERTEX
  8
0
 62
7
  6
CONTINUOUS
 10
95.6073379626
 20
212.8503416348
  0
SEQEND
  0
POLYLINE
  8
0
 62
7
  6
CONTINUOUS
 66
1
 70
0
  0
VERTEX
  8
0
 62
7
  6
CONTINUOUS
 10
95.776829488
 20
212.8943821243
  0
VERTEX
  8
0
 62
7
  6
CONTINUOUS
 10
95.6925014544
 20
212.8080313185
  0
VERTEX
  8
0
 62
7
  6
CONTINUOUS
 10
95.6073379626
 20
212.7224260482
  0
SEQEND
  0
POLYLINE
  8
0
 62
7
  6
CONTINUOUS
 66
1
 70
0
  0
VERTEX
  8
0
 62
7
  6
CONTINUOUS
 10
95.0988633863
 20
218.3109299406
  0
VERTEX
  8
0
 62
7
  6
CONTINUOUS
 10
94.9597671951
 20
218.1976920431
  0
VERTEX
  8
0
 62
7
  6
CONTINUOUS
 10
94.8163772951
 20
218.0834772969
  0
SEQEND
  0
LINE
  8
0
 62
7
  6
CONTINUOUS
 10
110.3727261027
 20
240.0519554974
 11
111.0798328839
 21
240.5519554974
  0
LINE
  8
0
 62
7
  6
CONTINUOUS
 10
111.0798328839
 20
240.3850499672
 11
109.901659386
 21
239.5519554974
  0
LINE
  8
0
 62
7
  6
CONTINUOUS
 10
111.6689196329
 20
239.9685027323
 11
112.4940464463
 21
240.5519554974
  0
LINE
  8
0
 62
7
  6
CONTINUOUS
 10
112.2580063818
 20
239.5519554974
 11
112.4940464463
 21
239.7188610276
  0
LINE
  8
0
 62
7
  6
CONTINUOUS
 10
113.2011532275
 20
240.0519554974
 11
113.9082600087
 21
240.5519554974
  0
LINE
  8
0
 62
7
  6
CONTINUOUS
 10
113.9082600087
 20
240.3850499672
 11
112.7300865107
 21
239.5519554974
  0
LINE
  8
0
 62
7
  6
CONTINUOUS
 10
114.4973467576
 20
239.9685027323
 11
115.322473571
 21
240.5519554974
  0
LINE
  8
0
 62
7
  6
CONTINUOUS
 10
115.0864335066
 20
239.5519554974
 11
115.322473571
 21
239.7188610276
  0
LINE
  8
0
 62
7
  6
CONTINUOUS
 10
116.0295803522
 20
240.0519554974
 11
116.7366871334
 21
240.5519554974
  0
LINE
  8
0
 62
7
  6
CONTINUOUS
 10
116.7366871334
 20
240.3850499672
 11
115.5585136355
 21
239.5519554974
  0
LINE
  8
0
 62
7
  6
CONTINUOUS
 10
117.3257738824
 20
239.9685027323
 11
118.1509006958
 21
240.5519554974
  0
LINE
  8
0
 62
7
  6
CONTINUOUS
 10
117.9148606313
 20
239.5519554974
 11
118.1509006958
 21
239.7188610276
  0
LINE
  8
0
 62
7
  6
CONTINUOUS
 10
118.858007477
 20
240.0519554974
 11
119.5651142581
 21
240.5519554974
  0
LINE
  8
0
 62
7
  6
CONTINUOUS
 10
119.5651142581
 20
240.3850499672
 11
118.3869407602
 21
239.5519554974
  0
LINE
  8
0
 62
7
  6
CONTINUOUS
 10
120.1542010071
 20
239.9685027323
 11
120.9793278205
 21
240.5519554974
  0
POLYLINE
  8
0
 62
7
  6
CONTINUOUS
 66
1
 70
0
  0
VERTEX
  8
0
 62
7
  6
CONTINUOUS
 10
94.6869878107
 20
240.0180732708
  0
VERTEX
  8
0
 62
7
  6
CONTINUOUS
 10
94.5409684111
 20
239.9568620449
  0
VERTEX
  8
0
 62
7
  6
CONTINUOUS
 10
94.3961165768
 20
239.9076406161
  0
VERTEX
  8
0
 62
7
  6
CONTINUOUS
 10
94.2523555686
 20
239.8692842704
  0
VERTEX
  8
0
 62
7
  6
CONTINUOUS
 10
94.1092701354
 20
239.8406710714
  0
SEQEND
  0
POLYLINE
  8
0
 62
7
  6
CONTINUOUS
 66
1
 70
0
  0
VERTEX
  8
0
 62
7
  6
CONTINUOUS
 10
94.8163772951
 20
214.0750667482
  0
VERTEX
  8
0
 62
7
  6
CONTINUOUS
 10
94.956899148
 20
214.0204169812
  0
VERTEX
  8
0
 62
7
  6
CONTINUOUS
 10
95.0988633863
 20
213.9657613591
  0
SEQEND
  0
POLYLINE
  8
0
 62
7
  6
CONTINUOUS
 66
1
 70
0
  0
VERTEX
  8
0
 62
7
  6
CONTINUOUS
 10
94.9293718609
 20
212.7224260482
  0
VERTEX
  8
0
 62
7
  6
CONTINUOUS
 10
95.0138544657
 20
212.6805518241
  0
VERTEX
  8
0
 62
7
  6
CONTINUOUS
 10
95.0988633863
 20
212.6388035213
  0
SEQEND
  0
POLYLINE
  8
0
 62
7
  6
CONTINUOUS
 66
1
 70
0
  0
VERTEX
  8
0
 62
7
  6
CONTINUOUS
 10
94.9293718609
 20
212.8503416348
  0
VERTEX
  8
0
 62
7
  6
CONTINUOUS
 10
95.0138490989
 20
212.8080139825
  0
VERTEX
  8
0
 62
7
  6
CONTINUOUS
 10
95.0988633863
 20
212.7658115137
  0
SEQEND
  0
POLYLINE
  8
0
 62
7
  6
CONTINUOUS
 66
1
 70
0
  0
VERTEX
  8
0
 62
7
  6
CONTINUOUS
 10
95.4378464371
 20
214.6567983261
  0
VERTEX
  8
0
 62
7
  6
CONTINUOUS
 10
95.5502114723
 20
214.596154158
  0
VERTEX
  8
0
 62
7
  6
CONTINUOUS
 10
95.6638349222
 20
214.5354881925
  0
SEQEND
  0
POLYLINE
  8
0
 62
7
  6
CONTINUOUS
 66
1
 70
0
  0
VERTEX
  8
0
 62
7
  6
CONTINUOUS
 10
95.4378464371
 20
214.8100801417
  0
VERTEX
  8
0
 62
7
  6
CONTINUOUS
 10
95.5501935096
 20
214.7484975202
  0
VERTEX
  8
0
 62
7
  6
CONTINUOUS
 10
95.6638349222
 20
214.6868849315
  0
SEQEND
  0
POLYLINE
  8
0
 62
7
  6
CONTINUOUS
 66
1
 70
0
  0
VERTEX
  8
0
 62
7
  6
CONTINUOUS
 10
94.8728749012
 20
214.7807724089
  0
VERTEX
  8
0
 62
7
  6
CONTINUOUS
 10
94.9852205741
 20
214.7188019224
  0
VERTEX
  8
0
 62
7
  6
CONTINUOUS
 10
95.0988633863
 20
214.6567983261
  0
SEQEND
  0
POLYLINE
  8
0
 62
7
  6
CONTINUOUS
 66
1
 70
0
  0
VERTEX
  8
0
 62
7
  6
CONTINUOUS
 10
94.8728749012
 20
214.9360302196
  0
VERTEX
  8
0
 62
7
  6
CONTINUOUS
 10
94.9852016365
 20
214.8730761763
  0
VERTEX
  8
0
 62
7
  6
CONTINUOUS
 10
95.0988633863
 20
214.8100801417
  0
SEQEND
  0
POLYLINE
  8
0
 62
7
  6
CONTINUOUS
 66
1
 70
0
  0
VERTEX
  8
0
 62
7
  6
CONTINUOUS
 10
71.4818531375
 20
240.4166912699
  0
VERTEX
  8
0
 62
7
  6
CONTINUOUS
 10
71.4331572431
 20
240.4488541736
  0
VERTEX
  8
0
 62
7
  6
CONTINUOUS
 10
71.3848710341
 20
240.4833787944
  0
SEQEND
  0
POLYLINE
  8
0
 62
7
  6
CONTINUOUS
 66
1
 70
0
  0
VERTEX
  8
0
 62
7
  6
CONTINUOUS
 10
75.9596540186
 20
239.5519554974
  0
VERTEX
  8
0
 62
7
  6
CONTINUOUS
 10
75.8391522072
 20
239.6345963733
  0
VERTEX
  8
0
 62
7
  6
CONTINUOUS
 10
75.7244938246
 20
239.7113713656
  0
SEQEND
  0
LINE
  8
0
 62
7
  6
CONTINUOUS
 10
67.2392124503
 20
240.2348267705
 11
68.2049378715
 21
239.5519554974
  0
LINE
  8
0
 62
7
  6
CONTINUOUS
 10
67.2392124503
 20
240.5519554974
 11
67.9463192315
 21
240.0519554974
  0
LINE
  8
0
 62
7
  6
CONTINUOUS
 10
68.6534260127
 20
239.8690846329
 11
69.1019145204
 21
239.5519554974
  0
LINE
  8
0
 62
7
  6
CONTINUOUS
 10
68.6534260127
 20
240.5519554974
 11
69.5847771464
 21
239.8933907951
  0
LINE
  8
0
 62
7
  6
CONTINUOUS
 10
70.285616179
 20
240.0806931555
 11
70.0676395751
 21
240.2348259533
  0
LINE
  8
0
 62
7
  6
CONTINUOUS
 10
70.0676395751
 20
240.5519554974
 11
70.8525316447
 21
239.9969529925
  0
LINE
  8
0
 62
7
  6
CONTINUOUS
 10
71.4818531375
 20
240.5519554974
 11
72.1889599186
 21
240.0519554974
  0
LINE
  8
0
 62
7
  6
CONTINUOUS
 10
72.8960666998
 20
240.5519554974
 11
73.603173481
 21
240.0519554974
  0
LINE
  8
0
 62
7
  6
CONTINUOUS
 10
74.3102802622
 20
240.5519554974
 11
75.0173870434
 21
240.0519554974
  0
LINE
  8
0
 62
7
  6
CONTINUOUS
 10
75.7244938246
 20
240.5519554974
 11
76.5496206625
 21
239.968502715
  0
LINE
  8
0
 62
7
  6
CONTINUOUS
 10
77.138707387
 20
240.3850499343
 11
78.316880843
 21
239.5519554974
  0
LINE
  8
0
 62
7
  6
CONTINUOUS
 10
77.138707387
 20
240.5519554974
 11
77.8458141681
 21
240.0519554974
  0
POLYLINE
  8
0
 62
7
  6
CONTINUOUS
 66
1
 70
0
  0
VERTEX
  8
0
 62
7
  6
CONTINUOUS
 10
75.5166732795
 20
239.5519554974
  0
VERTEX
  8
0
 62
7
  6
CONTINUOUS
 10
75.3703542685
 20
239.6678543367
  0
VERTEX
  8
0
 62
7
  6
CONTINUOUS
 10
75.2269102231
 20
239.7844646892
  0
VERTEX
  8
0
 62
7
  6
CONTINUOUS
 10
75.0854520599
 20
239.9024089916
  0
VERTEX
  8
0
 62
7
  6
CONTINUOUS
 10
74.9451329748
 20
240.0223541687
  0
VERTEX
  8
0
 62
7
  6
CONTINUOUS
 10
74.8051554444
 20
240.1449980536
  0
VERTEX
  8
0
 62
7
  6
CONTINUOUS
 10
74.6647644612
 20
240.2710794678
  0
VERTEX
  8
0
 62
7
  6
CONTINUOUS
 10
74.5232755303
 20
240.4013450989
  0
SEQEND
  0
POLYLINE
  8
0
 62
7
  6
CONTINUOUS
 66
1
 70
0
  0
VERTEX
  8
0
 62
7
  6
CONTINUOUS
 10
92.3467613004
 20
239.5519554974
  0
VERTEX
  8
0
 62
7
  6
CONTINUOUS
 10
92.1401341432
 20
239.7709738883
  0
VERTEX
  8
0
 62
7
  6
CONTINUOUS
 10
91.9325347176
 20
239.9830017825
  0
VERTEX
  8
0
 62
7
  6
CONTINUOUS
 10
91.724405829
 20
240.1879030278
  0
VERTEX
  8
0
 62
7
  6
CONTINUOUS
 10
91.5162442277
 20
240.3855017005
  0
SEQEND
  0
POLYLINE
  8
0
 62
7
  6
CONTINUOUS
 66
1
 70
0
  0
VERTEX
  8
0
 62
7
  6
CONTINUOUS
 10
105.7501441646
 20
239.5519554974
  0
VERTEX
  8
0
 62
7
  6
CONTINUOUS
 10
105.6409222151
 20
239.7242692166
  0
VERTEX
  8
0
 62
7
  6
CONTINUOUS
 10
105.5312346335
 20
239.9025955524
  0
VERTEX
  8
0
 62
7
  6
CONTINUOUS
 10
105.4229786344
 20
240.0841170612
  0
SEQEND
  0
LINE
  8
SURFACE
 62
7
  6
CONTINUOUS
 10
125.1272512008
 20
237.7362477335
 11
125.3576405104
 21
211.3362477335
  0
LINE
  8
0
 62
7
  6
CONTINUOUS
 10
122.3935413829
 20
240.3850499671
 11
122.3935413829
 21
240.5519554974
  0
LINE
  8
0
 62
7
  6
CONTINUOUS
 10
123.8077549453
 20
239.7080069566
 11
123.8077549453
 21
240.5519554974
  0
LINE
  8
0
 62
7
  6
CONTINUOUS
 10
125.2219685076
 20
240.4809085379
 11
125.2219685076
 21
240.5519554974
  0
LINE
  8
0
 62
7
  6
CONTINUOUS
 10
126.63618207
 20
240.5519554974
 11
126.63618207
 21
240.2045820582
  0
LINE
  8
0
 62
7
  6
CONTINUOUS
 10
128.0503956324
 20
240.5519554974
 11
128.0503956324
 21
240.3614078273
  0
POLYLINE
  8
0
 62
7
  6
CONTINUOUS
 66
1
 70
0
  0
VERTEX
  8
0
 62
7
  6
CONTINUOUS
 10
129.3856583494
 20
240.4961288193
  0
VERTEX
  8
0
 62
7
  6
CONTINUOUS
 10
129.3493168764
 20
240.1758263371
  0
VERTEX
  8
0
 62
7
  6
CONTINUOUS
 10
129.3023677062
 20
239.8609058318
  0
VERTEX
  8
0
 62
7
  6
CONTINUOUS
 10
129.2455094141
 20
239.5519554974
  0
SEQEND
  0
POLYLINE
  8
0
 62
7
  6
CONTINUOUS
 66
1
 70
0
  0
VERTEX
  8
0
 62
7
  6
CONTINUOUS
 10
129.2069878731
 20
239.7341212809
  0
VERTEX
  8
0
 62
7
  6
CONTINUOUS
 10
129.1751928376
 20
239.640415742
  0
VERTEX
  8
0
 62
7
  6
CONTINUOUS
 10
129.1421412155
 20
239.5519554974
  0
SEQEND
  0
POLYLINE
  8
0
 62
7
  6
CONTINUOUS
 66
1
 70
0
  0
VERTEX
  8
0
 62
7
  6
CONTINUOUS
 10
128.8410147735
 20
240.1110076534
  0
VERTEX
  8
0
 62
7
  6
CONTINUOUS
 10
128.7360594808
 20
239.8304193
  0
VERTEX
  8
0
 62
7
  6
CONTINUOUS
 10
128.6236026999
 20
239.5519554974
  0
SEQEND
  0
POLYLINE
  8
0
 62
7
  6
CONTINUOUS
 66
1
 70
0
  0
VERTEX
  8
0
 62
7
  6
CONTINUOUS
 10
128.0503956324
 20
240.3614078273
  0
VERTEX
  8
0
 62
7
  6
CONTINUOUS
 10
127.8966919297
 20
240.0847790327
  0
VERTEX
  8
0
 62
7
  6
CONTINUOUS
 10
127.7395711674
 20
239.8148885013
  0
VERTEX
  8
0
 62
7
  6
CONTINUOUS
 10
127.5793338387
 20
239.5519554974
  0
SEQEND
  0
POLYLINE
  8
0
 62
7
  6
CONTINUOUS
 66
1
 70
0
  0
VERTEX
  8
0
 62
7
  6
CONTINUOUS
 10
126.63618207
 20
240.2045820582
  0
VERTEX
  8
0
 62
7
  6
CONTINUOUS
 10
126.5050995031
 20
240.0391476196
  0
VERTEX
  8
0
 62
7
  6
CONTINUOUS
 10
126.3699662124
 20
239.8731967599
  0
VERTEX
  8
0
 62
7
  6
CONTINUOUS
 10
126.2332272355
 20
239.7097752528
  0
VERTEX
  8
0
 62
7
  6
CONTINUOUS
 10
126.0976209857
 20
239.5519554974
  0
SEQEND
  0
POLYLINE
  8
0
 62
7
  6
CONTINUOUS
 66
1
 70
0
  0
VERTEX
  8
0
 62
7
  6
CONTINUOUS
 10
124.9362442604
 20
240.3499179446
  0
VERTEX
  8
0
 62
7
  6
CONTINUOUS
 10
124.7841787516
 20
240.2100357811
  0
VERTEX
  8
0
 62
7
  6
CONTINUOUS
 10
124.6321294604
 20
240.0738300578
  0
VERTEX
  8
0
 62
7
  6
CONTINUOUS
 10
124.4793558896
 20
239.9405757821
  0
VERTEX
  8
0
 62
7
  6
CONTINUOUS
 10
124.3250820244
 20
239.8095992432
  0
VERTEX
  8
0
 62
7
  6
CONTINUOUS
 10
124.1684831325
 20
239.6802655706
  0
VERTEX
  8
0
 62
7
  6
CONTINUOUS
 10
124.0086477295
 20
239.5519554974
  0
SEQEND
  0
POLYLINE
  8
0
 62
7
  6
CONTINUOUS
 66
1
 70
0
  0
VERTEX
  8
0
 62
7
  6
CONTINUOUS
 10
95.0988633863
 20
216.8730400959
  0
VERTEX
  8
0
 62
7
  6
CONTINUOUS
 10
94.9869529605
 20
216.78453256
  0
VERTEX
  8
0
 62
7
  6
CONTINUOUS
 10
94.8728749012
 20
216.6957004303
  0
SEQEND
  0
POLYLINE
  8
0
 62
7
  6
CONTINUOUS
 66
1
 70
0
  0
VERTEX
  8
0
 62
7
  6
CONTINUOUS
 10
95.0988633863
 20
218.0742707258
  0
VERTEX
  8
0
 62
7
  6
CONTINUOUS
 10
94.9596393602
 20
217.9650007902
  0
VERTEX
  8
0
 62
7
  6
CONTINUOUS
 10
94.8163772951
 20
217.8548508819
  0
SEQEND
  0
LINE
  8
0
 62
7
  6
CONTINUOUS
 10
120.743287756
 20
239.5519554974
 11
120.9793278205
 21
239.7188610276
  0
LINE
  8
0
 62
7
  6
CONTINUOUS
 10
121.6864346017
 20
240.0519554974
 11
122.3935413829
 21
240.5519554974
  0
LINE
  8
0
 62
7
  6
CONTINUOUS
 10
122.3935413829
 20
240.3850499671
 11
121.215367885
 21
239.5519554974
  0
LINE
  8
0
 62
7
  6
CONTINUOUS
 10
122.9826281318
 20
239.9685027323
 11
123.8077549453
 21
240.5519554974
  0
LINE
  8
0
 62
7
  6
CONTINUOUS
 10
124.5148617265
 20
240.0519554974
 11
125.2219685076
 21
240.5519554974
  0
LINE
  8
0
 62
7
  6
CONTINUOUS
 10
126.63618207
 20
240.5519554974
 11
125.9290752888
 21
240.0519554974
  0
LINE
  8
0
 62
7
  6
CONTINUOUS
 10
128.0503956324
 20
240.5519554974
 11
127.3432888512
 21
240.0519554974
  0
LINE
  8
0
 62
7
  6
CONTINUOUS
 10
128.7575024136
 20
240.0519554974
 11
129.4646091948
 21
240.5519554974
  0
LINE
  8
0
 62
7
  6
CONTINUOUS
 10
129.4271826623
 20
240.2083605129
 11
129.4646091948
 21
240.2348250663
  0
LINE
  8
0
 62
7
  6
CONTINUOUS
 10
129.9474708839
 20
239.8933902722
 11
130.8788227571
 21
240.5519554974
  0
LINE
  8
0
 62
7
  6
CONTINUOUS
 10
130.4303325457
 20
239.5519554974
 11
130.8788227571
 21
239.8690859852
  0
LINE
  8
0
 62
7
  6
CONTINUOUS
 10
131.5859295383
 20
240.0519554974
 11
132.2930363195
 21
240.5519554974
  0
POLYLINE
  8
0
 62
7
  6
CONTINUOUS
 66
1
 70
0
  0
VERTEX
  8
0
 62
7
  6
CONTINUOUS
 10
123.8077549453
 20
239.7080069566
  0
VERTEX
  8
0
 62
7
  6
CONTINUOUS
 10
123.6917279667
 20
239.631432181
  0
VERTEX
  8
0
 62
7
  6
CONTINUOUS
 10
123.5742399339
 20
239.5519554974
  0
SEQEND
  0
POLYLINE
  8
0
 62
7
  6
CONTINUOUS
 66
1
 70
0
  0
VERTEX
  8
0
 62
7
  6
CONTINUOUS
 10
128.2109734226
 20
240.438409853
  0
VERTEX
  8
0
 62
7
  6
CONTINUOUS
 10
128.1592285472
 20
240.4116103387
  0
VERTEX
  8
0
 62
7
  6
CONTINUOUS
 10
128.1069877478
 20
240.386564612
  0
SEQEND
  0
POLYLINE
  8
0
 62
7
  6
CONTINUOUS
 66
1
 70
0
  0
VERTEX
  8
0
 62
7
  6
CONTINUOUS
 10
125.2219685076
 20
240.4809085379
  0
VERTEX
  8
0
 62
7
  6
CONTINUOUS
 10
125.0805431865
 20
240.417776739
  0
VERTEX
  8
0
 62
7
  6
CONTINUOUS
 10
124.9362442604
 20
240.3499179446
  0
SEQEND
  0
LINE
  8
0
 62
7
  6
CONTINUOUS
 10
94.8728749012
 20
212.242983769
 11
95.1553603459
 21
212.168078883
  0
LINE
  8
0
 62
7
  6
CONTINUOUS
 10
78.5529209493
 20
239.7188610565
 11
78.7889610537
 21
239.5519554974
  0
LINE
  8
0
 62
7
  6
CONTINUOUS
 10
78.5529209493
 20
240.5519554974
 11
79.3780477815
 21
239.968502719
  0
LINE
  8
0
 62
7
  6
CONTINUOUS
 10
79.9671345117
 20
240.3850499423
 11
81.1453079792
 21
239.5519554974
  0
LINE
  8
0
 62
7
  6
CONTINUOUS
 10
79.9671345117
 20
240.5519554974
 11
80.6742412929
 21
240.0519554974
  0
LINE
  8
0
 62
7
  6
CONTINUOUS
 10
81.3813480741
 20
239.7188610485
 11
81.6173881671
 21
239.5519554974
  0
LINE
  8
0
 62
7
  6
CONTINUOUS
 10
81.3813480741
 20
240.5519554974
 11
82.2064749006
 21
239.968502723
  0
LINE
  8
0
 62
7
  6
CONTINUOUS
 10
82.7955616364
 20
240.3850499503
 11
83.9737351153
 21
239.5519554974
  0
LINE
  8
0
 62
7
  6
CONTINUOUS
 10
82.7955616364
 20
240.5519554974
 11
83.5026684176
 21
240.0519554974
  0
LINE
  8
0
 62
7
  6
CONTINUOUS
 10
84.2097751988
 20
239.7188610404
 11
84.4458152805
 21
239.5519554974
  0
LINE
  8
0
 62
7
  6
CONTINUOUS
 10
84.2097751988
 20
240.5519554974
 11
85.0349020197
 21
239.968502727
  0
LINE
  8
0
 62
7
  6
CONTINUOUS
 10
85.6239887612
 20
240.3850499584
 11
86.8021622514
 21
239.5519554974
  0
LINE
  8
0
 62
7
  6
CONTINUOUS
 10
85.6239887612
 20
240.5519554974
 11
86.3310955424
 21
240.0519554974
  0
LINE
  8
0
 62
7
  6
CONTINUOUS
 10
87.0382023236
 20
239.7188610324
 11
87.2742423939
 21
239.5519554974
  0
LINE
  8
0
 62
7
  6
CONTINUOUS
 10
87.0382023236
 20
240.5519554974
 11
87.8633291387
 21
239.968502731
  0
LINE
  8
0
 62
7
  6
CONTINUOUS
 10
88.4524158859
 20
240.3850499664
 11
89.6305893875
 21
239.5519554974
  0
LINE
  8
0
 62
7
  6
CONTINUOUS
 10
90.1015364731
 20
239.5519554974
 11
90.0301108198
 21
239.6031736892
  0
POLYLINE
  8
0
 62
7
  6
CONTINUOUS
 66
1
 70
0
  0
VERTEX
  8
0
 62
7
  6
CONTINUOUS
 10
107.2780687439
 20
239.5519554974
  0
VERTEX
  8
0
 62
7
  6
CONTINUOUS
 10
107.0563992994
 20
239.8041164397
  0
VERTEX
  8
0
 62
7
  6
CONTINUOUS
 10
106.8371921968
 20
240.0642944643
  0
SEQEND
  0
POLYLINE
  8
0
 62
7
  6
CONTINUOUS
 66
1
 70
0
  0
VERTEX
  8
0
 62
7
  6
CONTINUOUS
 10
129.4223047689
 20
239.9728722796
  0
VERTEX
  8
0
 62
7
  6
CONTINUOUS
 10
129.4081499572
 20
240.246383639
  0
VERTEX
  8
0
 62
7
  6
CONTINUOUS
 10
129.3856583494
 20
240.4961288193
  0
SEQEND
  0
LINE
  8
0
 62
7
  6
CONTINUOUS
 10
129.4271826623
 20
239.6753381857
 11
129.4223047689
 21
239.9728722796
  0
LINE
  8
0
 62
7
  6
CONTINUOUS
 10
129.4271826623
 20
239.5519554974
 11
129.4271826623
 21
240.5254909425
  0
LINE
  8
0
 62
7
  6
CONTINUOUS
 10
129.4646091948
 20
240.2348250663
 11
129.4646091948
 21
240.5519554974
  0
LINE
  8
0
 62
7
  6
CONTINUOUS
 10
130.8788227571
 20
239.8690859852
 11
130.8788227571
 21
240.5519554974
  0
LINE
  8
0
 62
7
  6
CONTINUOUS
 10
132.2930363195
 20
240.2348249529
 11
132.2930363195
 21
240.5519554974
  0
LINE
  8
0
 62
7
  6
CONTINUOUS
 10
133.7072498819
 20
239.8690860986
 11
133.7072498819
 21
240.5519554974
  0
POLYLINE
  8
0
 62
7
  6
CONTINUOUS
 66
1
 70
0
  0
VERTEX
  8
0
 62
7
  6
CONTINUOUS
 10
137.4258236443
 20
239.9225267736
  0
VERTEX
  8
0
 62
7
  6
CONTINUOUS
 10
137.373776753
 20
239.7454814814
  0
VERTEX
  8
0
 62
7
  6
CONTINUOUS
 10
137.3273400973
 20
239.5519554974
  0
SEQEND
  0
POLYLINE
  8
0
 62
7
  6
CONTINUOUS
 66
1
 70
0
  0
VERTEX
  8
0
 62
7
  6
CONTINUOUS
 10
137.791796735
 20
240.4401662753
  0
VERTEX
  8
0
 62
7
  6
CONTINUOUS
 10
137.6909704668
 20
240.146428328
  0
VERTEX
  8
0
 62
7
  6
CONTINUOUS
 10
137.598740289
 20
239.8502075688
  0
VERTEX
  8
0
 62
7
  6
CONTINUOUS
 10
137.515547208
 20
239.5519554974
  0
SEQEND
  0
POLYLINE
  8
0
 62
7
  6
CONTINUOUS
 66
1
 70
0
  0
VERTEX
  8
0
 62
7
  6
CONTINUOUS
 10
138.4218381177
 20
239.8856728094
  0
VERTEX
  8
0
 62
7
  6
CONTINUOUS
 10
138.3380174739
 20
239.7191918185
  0
VERTEX
  8
0
 62
7
  6
CONTINUOUS
 10
138.2567607504
 20
239.5519554974
  0
SEQEND
  0
LINE
  8
0
 62
7
  6
CONTINUOUS
 10
139.4628324282
 20
239.6217669456
 11
139.4147491177
 21
239.5519554974
  0
POLYLINE
  8
0
 62
7
  6
CONTINUOUS
 66
1
 70
0
  0
VERTEX
  8
0
 62
7
  6
CONTINUOUS
 10
141.6965673428
 20
240.201256051
  0
VERTEX
  8
0
 62
7
  6
CONTINUOUS
 10
141.5252785536
 20
240.0391849969
  0
VERTEX
  8
0
 62
7
  6
CONTINUOUS
 10
141.3567188862
 20
239.8748850126
  0
VERTEX
  8
0
 62
7
  6
CONTINUOUS
 10
141.1939321202
 20
239.7115185389
  0
VERTEX
  8
0
 62
7
  6
CONTINUOUS
 10
141.0393527932
 20
239.5519554974
  0
SEQEND
  0
LINE
  8
0
 62
7
  6
CONTINUOUS
 10
132.2930363195
 20
240.2348249529
 11
131.3273130194
 21
239.5519554974
  0
LINE
  8
0
 62
7
  6
CONTINUOUS
 10
132.7758979285
 20
239.8933902155
 11
133.7072498819
 21
240.5519554974
  0
LINE
  8
0
 62
7
  6
CONTINUOUS
 10
133.25875951
 20
239.5519554974
 11
133.7072498819
 21
239.8690860986
  0
LINE
  8
0
 62
7
  6
CONTINUOUS
 10
134.4143566631
 20
240.0519554974
 11
135.1214634443
 21
240.5519554974
  0
LINE
  8
0
 62
7
  6
CONTINUOUS
 10
135.1214634443
 20
240.2348248395
 11
134.1557403046
 21
239.5519554974
  0
LINE
  8
0
 62
7
  6
CONTINUOUS
 10
135.604324973
 20
239.8933901587
 11
136.5356770066
 21
240.5519554974
  0
LINE
  8
0
 62
7
  6
CONTINUOUS
 10
136.5356770066
 20
239.869086212
 11
136.0871864744
 21
239.5519554974
  0
LINE
  8
0
 62
7
  6
CONTINUOUS
 10
137.949890569
 20
240.5519554974
 11
137.205628856
 21
240.0256829932
  0
LINE
  8
0
 62
7
  6
CONTINUOUS
 10
137.205628856
 20
239.7085522517
 11
136.9841675897
 21
239.5519554974
  0
LINE
  8
0
 62
7
  6
CONTINUOUS
 10
139.3641041314
 20
240.5519554974
 11
138.6569973502
 21
240.0519554974
  0
LINE
  8
0
 62
7
  6
CONTINUOUS
 10
138.1808438041
 20
239.715264096
 11
138.4218381177
 21
239.8856728094
  0
LINE
  8
0
 62
7
  6
CONTINUOUS
 10
140.7783176937
 20
240.5519554974
 11
140.0712109126
 21
240.0519554974
  0
LINE
  8
0
 62
7
  6
CONTINUOUS
 10
139.3982623969
 20
239.5761090385
 11
139.4628324282
 21
239.6217669456
  0
LINE
  8
0
 62
7
  6
CONTINUOUS
 10
140.934843657
 20
239.6626360675
 11
142.1925312561
 21
240.5519554974
  0
POLYLINE
  8
0
 62
7
  6
CONTINUOUS
 66
1
 70
0
  0
VERTEX
  8
0
 62
7
  6
CONTINUOUS
 10
95.8898240538
 20
212.3969708811
  0
VERTEX
  8
0
 62
7
  6
CONTINUOUS
 10
95.7773741496
 20
212.3196435396
  0
VERTEX
  8
0
 62
7
  6
CONTINUOUS
 10
95.6638349222
 20
212.242983769
  0
SEQEND
  0
POLYLINE
  8
0
 62
7
  6
CONTINUOUS
 66
1
 70
0
  0
VERTEX
  8
0
 62
7
  6
CONTINUOUS
 10
142.1925312561
 20
240.4598003229
  0
VERTEX
  8
0
 62
7
  6
CONTINUOUS
 10
142.0235892049
 20
240.3674384844
  0
VERTEX
  8
0
 62
7
  6
CONTINUOUS
 10
141.8583321803
 20
240.2813469217
  0
VERTEX
  8
0
 62
7
  6
CONTINUOUS
 10
141.6965673428
 20
240.201256051
  0
SEQEND
  0
POLYLINE
  8
0
 62
7
  6
CONTINUOUS
 66
1
 70
0
  0
VERTEX
  8
0
 62
7
  6
CONTINUOUS
 10
128.1069877478
 20
240.386564612
  0
VERTEX
  8
0
 62
7
  6
CONTINUOUS
 10
128.0786826082
 20
240.3737519774
  0
VERTEX
  8
0
 62
7
  6
CONTINUOUS
 10
128.0503956324
 20
240.3614078273
  0
SEQEND
  0
POLYLINE
  8
0
 62
7
  6
CONTINUOUS
 66
1
 70
0
  0
VERTEX
  8
0
 62
7
  6
CONTINUOUS
 10
74.5232755303
 20
240.4013450989
  0
VERTEX
  8
0
 62
7
  6
CONTINUOUS
 10
74.4166261885
 20
240.4517995465
  0
VERTEX
  8
0
 62
7
  6
CONTINUOUS
 10
74.3102802622
 20
240.5001953064
  0
SEQEND
  0
LINE
  8
0
 62
7
  6
CONTINUOUS
 10
88.4524158859
 20
240.5519554974
 11
89.1595226671
 21
240.0519554974
  0
LINE
  8
0
 62
7
  6
CONTINUOUS
 10
89.8666294483
 20
240.5519554974
 11
90.6684515106
 21
239.9849816799
  0
LINE
  8
0
 62
7
  6
CONTINUOUS
 10
91.2808430107
 20
240.5519554974
 11
92.4834051154
 21
239.7016156784
  0
LINE
  8
0
 62
7
  6
CONTINUOUS
 10
92.6950565731
 20
240.5519554974
 11
93.4021633542
 21
240.0519554974
  0
LINE
  8
0
 62
7
  6
CONTINUOUS
 10
93.7499790904
 20
239.8060126317
 11
93.9815128008
 21
239.642293575
  0
LINE
  8
0
 62
7
  6
CONTINUOUS
 10
94.1092701354
 20
240.5519554974
 11
95.1566489864
 21
239.8113468094
  0
LINE
  8
0
 62
7
  6
CONTINUOUS
 10
96.0071826623
 20
239.8927982507
 11
96.4892071067
 21
239.5519554974
  0
LINE
  8
0
 62
7
  6
CONTINUOUS
 10
95.5234836978
 20
240.5519554974
 11
96.230590479
 21
240.0519554974
  0
LINE
  8
0
 62
7
  6
CONTINUOUS
 10
96.9376972602
 20
239.8690859262
 11
97.3861874137
 21
239.5519554974
  0
LINE
  8
0
 62
7
  6
CONTINUOUS
 10
96.9376972602
 20
240.5519554974
 11
97.8690491181
 21
239.893390283
  0
LINE
  8
0
 62
7
  6
CONTINUOUS
 10
98.3519108226
 20
240.2348250685
 11
99.3176342314
 21
239.5519554974
  0
LINE
  8
0
 62
7
  6
CONTINUOUS
 10
98.3519108226
 20
240.5519554974
 11
99.0590176037
 21
240.0519554974
  0
LINE
  8
0
 62
7
  6
CONTINUOUS
 10
100.2146145384
 20
239.5519554974
 11
99.7661243849
 21
239.8690859262
  0
LINE
  8
0
 62
7
  6
CONTINUOUS
 10
90.0301108198
 20
239.6031736892
 11
89.8666294483
 21
239.7188610244
  0
POLYLINE
  8
0
 62
7
  6
CONTINUOUS
 66
1
 70
0
  0
VERTEX
  8
0
 62
7
  6
CONTINUOUS
 10
129.2455094141
 20
239.5519554974
  0
VERTEX
  8
0
 62
7
  6
CONTINUOUS
 10
129.2266891708
 20
239.643137445
  0
VERTEX
  8
0
 62
7
  6
CONTINUOUS
 10
129.2069878731
 20
239.7341212809
  0
SEQEND
  0
POLYLINE
  8
0
 62
7
  6
CONTINUOUS
 66
1
 70
0
  0
VERTEX
  8
0
 62
7
  6
CONTINUOUS
 10
137.2131101382
 20
239.5519554974
  0
VERTEX
  8
0
 62
7
  6
CONTINUOUS
 10
137.2090007876
 20
239.6749631811
  0
VERTEX
  8
0
 62
7
  6
CONTINUOUS
 10
137.2083256572
 20
239.7086063694
  0
SEQEND
  0
LINE
  8
0
 62
7
  6
CONTINUOUS
 10
135.1214634443
 20
240.2348248395
 11
135.1214634443
 21
240.5519554974
  0
LINE
  8
0
 62
7
  6
CONTINUOUS
 10
136.5356770066
 20
239.869086212
 11
136.5356770066
 21
240.5519554974
  0
LINE
  8
0
 62
7
  6
CONTINUOUS
 10
137.205628856
 20
239.5519554974
 11
137.205628856
 21
240.0782280016
  0
LINE
  8
0
 62
7
  6
CONTINUOUS
 10
137.949890569
 20
240.5519554974
 11
137.949890569
 21
240.2490299869
  0
LINE
  8
0
 62
7
  6
CONTINUOUS
 10
139.3641041314
 20
240.5519554974
 11
139.3641041314
 21
239.6263855941
  0
LINE
  8
0
 62
7
  6
CONTINUOUS
 10
140.7783176937
 20
240.5519554974
 11
140.7783176937
 21
239.8317151692
  0
LINE
  8
0
 62
7
  6
CONTINUOUS
 10
137.2268120499
 20
239.8060395141
 11
137.2131101382
 21
239.5519554974
  0
LINE
  8
0
 62
7
  6
CONTINUOUS
 10
137.2471531653
 20
240.0550451139
 11
137.2268120499
 21
239.8060395141
  0
LINE
  8
0
 62
7
  6
CONTINUOUS
 10
143.6067448185
 20
240.5519554974
 11
142.7913710221
 21
239.9753991568
  0
LINE
  8
0
 62
7
  6
CONTINUOUS
 10
143.6067448185
 20
239.7188610213
 11
143.3707047637
 21
239.5519554974
  0
LINE
  8
0
 62
7
  6
CONTINUOUS
 10
145.0209583809
 20
240.5519554974
 11
144.3138515997
 21
240.0519554974
  0
LINE
  8
0
 62
7
  6
CONTINUOUS
 10
145.0209583809
 20
240.3850499702
 11
143.8427848748
 21
239.5519554974
  0
LINE
  8
0
 62
7
  6
CONTINUOUS
 10
146.4351719432
 20
240.5519554974
 11
145.610045131
 21
239.9685027331
  0
LINE
  8
0
 62
7
  6
CONTINUOUS
 10
146.4351719432
 20
239.7188610278
 11
146.1991318793
 21
239.5519554974
  0
LINE
  8
0
 62
7
  6
CONTINUOUS
 10
147.8493855056
 20
240.5519554974
 11
147.1422787244
 21
240.0519554974
  0
LINE
  8
0
 62
7
  6
CONTINUOUS
 10
147.8493855056
 20
240.3850499638
 11
146.6712120087
 21
239.5519554974
  0
LINE
  8
0
 62
7
  6
CONTINUOUS
 10
149.263599068
 20
240.5519554974
 11
148.4384722512
 21
239.9685027299
  0
LINE
  8
0
 62
7
  6
CONTINUOUS
 10
149.263599068
 20
239.7188610342
 11
149.0275589949
 21
239.5519554974
  0
LINE
  8
0
 62
7
  6
CONTINUOUS
 10
150.6778126304
 20
240.5519554974
 11
149.9707058492
 21
240.0519554974
  0
LINE
  8
0
 62
7
  6
CONTINUOUS
 10
150.6778126304
 20
240.3850499573
 11
149.4996391426
 21
239.5519554974
  0
LINE
  8
0
 62
7
  6
CONTINUOUS
 10
152.0920261927
 20
240.5519554974
 11
151.2668993714
 21
239.9685027267
  0
LINE
  8
0
 62
7
  6
CONTINUOUS
 10
152.0920261927
 20
239.7188610407
 11
151.8559861105
 21
239.5519554974
  0
LINE
  8
0
 62
7
  6
CONTINUOUS
 10
153.5062397551
 20
240.5519554974
 11
152.7991329739
 21
240.0519554974
  0
LINE
  8
0
 62
7
  6
CONTINUOUS
 10
153.5062397551
 20
240.3850499509
 11
152.3280662764
 21
239.5519554974
  0
POLYLINE
  8
0
 62
7
  6
CONTINUOUS
 66
1
 70
0
  0
VERTEX
  8
0
 62
7
  6
CONTINUOUS
 10
95.6073379626
 20
212.8503416348
  0
VERTEX
  8
0
 62
7
  6
CONTINUOUS
 10
95.5228607246
 20
212.8080139825
  0
VERTEX
  8
0
 62
7
  6
CONTINUOUS
 10
95.4378464371
 20
212.7658115137
  0
SEQEND
  0
POLYLINE
  8
0
 62
7
  6
CONTINUOUS
 66
1
 70
0
  0
VERTEX
  8
0
 62
7
  6
CONTINUOUS
 10
95.6073379626
 20
212.7224260482
  0
VERTEX
  8
0
 62
7
  6
CONTINUOUS
 10
95.5228553577
 20
212.6805518241
  0
VERTEX
  8
0
 62
7
  6
CONTINUOUS
 10
95.4378464371
 20
212.6388035213
  0
SEQEND
  0
POLYLINE
  8
0
 62
7
  6
CONTINUOUS
 66
1
 70
0
  0
VERTEX
  8
0
 62
7
  6
CONTINUOUS
 10
140.7783176937
 20
239.8317151692
  0
VERTEX
  8
0
 62
7
  6
CONTINUOUS
 10
140.5758955095
 20
239.7718469973
  0
VERTEX
  8
0
 62
7
  6
CONTINUOUS
 10
140.3790424931
 20
239.7221224533
  0
VERTEX
  8
0
 62
7
  6
CONTINUOUS
 10
140.187408313
 20
239.6823416963
  0
VERTEX
  8
0
 62
7
  6
CONTINUOUS
 10
140.0003039186
 20
239.6523420443
  0
VERTEX
  8
0
 62
7
  6
CONTINUOUS
 10
139.8174828793
 20
239.6321543623
  0
VERTEX
  8
0
 62
7
  6
CONTINUOUS
 10
139.6384391662
 20
239.6218807574
  0
VERTEX
  8
0
 62
7
  6
CONTINUOUS
 10
139.4628324282
 20
239.6217669456
  0
SEQEND
  0
LINE
  8
0
 62
7
  6
CONTINUOUS
 10
60.0514057592
 20
209.5519554974
 11
111.1417282345
 21
209.5519554974
  0
LINE
  8
SURFACE
 62
7
  6
CONTINUOUS
 10
111.1417282345
 20
209.5519554974
 11
156.4514057592
 21
209.5519554974
  0
LINE
  8
0
 62
7
  6
CONTINUOUS
 10
62.751405757
 20
211.0598747772
 11
64.2514057609
 21
211.0598747772
  0
LINE
  8
0
 62
7
  6
CONTINUOUS
 10
95.1553603459
 20
212.168078883
 11
95.4378464371
 21
212.168078883
  0
LINE
  8
0
 62
7
  6
CONTINUOUS
 10
97.6977332273
 20
212.168078883
 11
98.1497108439
 21
212.168078883
  0
LINE
  8
0
 62
7
  6
CONTINUOUS
 10
101.2005583015
 20
212.168078883
 11
101.5395413524
 21
212.168078883
  0
LINE
  8
0
 62
7
  6
CONTINUOUS
 10
101.9915188074
 20
212.168078883
 11
102.3305018582
 21
212.168078883
  0
LINE
  8
0
 62
7
  6
CONTINUOUS
 10
103.7429311829
 20
212.168078883
 11
104.2514057592
 21
212.168078883
  0
LINE
  8
0
 62
7
  6
CONTINUOUS
 10
95.0988633863
 20
212.6388035213
 11
95.4378464371
 21
212.6388035213
  0
LINE
  8
0
 62
7
  6
CONTINUOUS
 10
95.0988633863
 20
212.7658115137
 11
95.4378464371
 21
212.7658115137
  0
POLYLINE
  8
0
 62
7
  6
CONTINUOUS
 66
1
 70
0
  0
VERTEX
  8
0
 62
7
  6
CONTINUOUS
 10
64.2514057609
 20
211.0598750436
  0
VERTEX
  8
0
 62
7
  6
CONTINUOUS
 10
64.3298702244
 20
211.0589515954
  0
VERTEX
  8
0
 62
7
  6
CONTINUOUS
 10
64.4248042325
 20
211.0553609205
  0
VERTEX
  8
0
 62
7
  6
CONTINUOUS
 10
64.5198770832
 20
211.0490311358
  0
VERTEX
  8
0
 62
7
  6
CONTINUOUS
 10
64.6148406086
 20
211.0399414572
  0
VERTEX
  8
0
 62
7
  6
CONTINUOUS
 10
64.7094129157
 20
211.0280863518
  0
VERTEX
  8
0
 62
7
  6
CONTINUOUS
 10
64.8032875482
 20
211.0134767974
  0
VERTEX
  8
0
 62
7
  6
CONTINUOUS
 10
64.8960726905
 20
210.996153472
  0
VERTEX
  8
0
 62
7
  6
CONTINUOUS
 10
64.987070236
 20
210.9762484787
  0
VERTEX
  8
0
 62
7
  6
CONTINUOUS
 10
65.0751481157
 20
210.9540667793
  0
VERTEX
  8
0
 62
7
  6
CONTINUOUS
 10
65.1591620506
 20
210.9300322416
  0
VERTEX
  8
0
 62
7
  6
CONTINUOUS
 10
65.2379116469
 20
210.9047095415
  0
VERTEX
  8
0
 62
7
  6
CONTINUOUS
 10
65.310102611
 20
210.8788367337
  0
VERTEX
  8
0
 62
7
  6
CONTINUOUS
 10
65.3745892083
 20
210.8532557639
  0
VERTEX
  8
0
 62
7
  6
CONTINUOUS
 10
65.4304834002
 20
210.8288535169
  0
VERTEX
  8
0
 62
7
  6
CONTINUOUS
 10
65.4771799859
 20
210.8065213182
  0
VERTEX
  8
0
 62
7
  6
CONTINUOUS
 10
65.5144067401
 20
210.787095437
  0
VERTEX
  8
0
 62
7
  6
CONTINUOUS
 10
65.5423177295
 20
210.7712572464
  0
VERTEX
  8
0
 62
7
  6
CONTINUOUS
 10
65.5614416681
 20
210.7594919586
  0
VERTEX
  8
0
 62
7
  6
CONTINUOUS
 10
65.5726258298
 20
210.7520531751
  0
VERTEX
  8
0
 62
7
  6
CONTINUOUS
 10
65.5753359491
 20
210.7501395815
  0
SEQEND
  0
POLYLINE
  8
0
 62
7
  6
CONTINUOUS
 66
1
 70
0
  0
VERTEX
  8
0
 62
7
  6
CONTINUOUS
 10
91.5162442277
 20
240.3855017005
  0
VERTEX
  8
0
 62
7
  6
CONTINUOUS
 10
91.3994644802
 20
240.4429000618
  0
VERTEX
  8
0
 62
7
  6
CONTINUOUS
 10
91.2808430107
 20
240.5034275498
  0
SEQEND
  0
LINE
  8
0
 62
7
  6
CONTINUOUS
 10
109.7317348248
 20
239.6718005239
 11
109.6656193215
 21
239.7176293738
  0
LINE
  8
0
 62
7
  6
CONTINUOUS
 10
99.7661243849
 20
240.5519554974
 11
100.6974762429
 21
239.893390283
  0
LINE
  8
0
 62
7
  6
CONTINUOUS
 10
101.1803379473
 20
240.2348250685
 11
102.1460613562
 21
239.5519554974
  0
LINE
  8
0
 62
7
  6
CONTINUOUS
 10
101.1803379473
 20
240.5519554974
 11
101.8874447285
 21
240.0519554974
  0
LINE
  8
0
 62
7
  6
CONTINUOUS
 10
103.0430416632
 20
239.5519554974
 11
102.5945515097
 21
239.8690859262
  0
LINE
  8
0
 62
7
  6
CONTINUOUS
 10
102.5945515097
 20
240.5519554974
 11
103.5259033676
 21
239.893390283
  0
LINE
  8
0
 62
7
  6
CONTINUOUS
 10
104.0042551882
 20
239.5551444668
 11
104.0058236447
 21
239.5540354006
  0
LINE
  8
0
 62
7
  6
CONTINUOUS
 10
104.008765072
 20
240.5519554974
 11
104.7158718532
 21
240.0519554974
  0
LINE
  8
0
 62
7
  6
CONTINUOUS
 10
105.4229786344
 20
240.5519554974
 11
106.2166335913
 21
239.9907566955
  0
LINE
  8
0
 62
7
  6
CONTINUOUS
 10
106.8371921968
 20
240.5519554974
 11
107.544298978
 21
240.0519554974
  0
LINE
  8
0
 62
7
  6
CONTINUOUS
 10
108.2514057592
 20
240.5519554974
 11
108.9585125403
 21
240.0519554974
  0
LINE
  8
0
 62
7
  6
CONTINUOUS
 10
109.7317348248
 20
239.6718005239
 11
109.901659386
 21
239.5519554974
  0
LINE
  8
0
 62
7
  6
CONTINUOUS
 10
109.6656193215
 20
240.5519554974
 11
110.4907461349
 21
239.9685027323
  0
POLYLINE
  8
0
 62
7
  6
CONTINUOUS
 66
1
 70
0
  0
VERTEX
  8
0
 62
7
  6
CONTINUOUS
 10
109.4421625709
 20
239.5519554974
  0
VERTEX
  8
0
 62
7
  6
CONTINUOUS
 10
109.1980789582
 20
239.7410181489
  0
VERTEX
  8
0
 62
7
  6
CONTINUOUS
 10
108.9565285705
 20
239.9365790518
  0
VERTEX
  8
0
 62
7
  6
CONTINUOUS
 10
108.7206062435
 20
240.1358919699
  0
VERTEX
  8
0
 62
7
  6
CONTINUOUS
 10
108.4930844615
 20
240.3361040251
  0
VERTEX
  8
0
 62
7
  6
CONTINUOUS
 10
108.2765672898
 20
240.5341636085
  0
SEQEND
  0
POLYLINE
  8
0
 62
7
  6
CONTINUOUS
 66
1
 70
0
  0
VERTEX
  8
0
 62
7
  6
CONTINUOUS
 10
127.5793338387
 20
239.5519554974
  0
VERTEX
  8
0
 62
7
  6
CONTINUOUS
 10
127.4542240839
 20
239.7493127959
  0
VERTEX
  8
0
 62
7
  6
CONTINUOUS
 10
127.3158265806
 20
239.9601630466
  0
VERTEX
  8
0
 62
7
  6
CONTINUOUS
 10
127.1699790968
 20
240.174504
  0
SEQEND
  0
POLYLINE
  8
0
 62
7
  6
CONTINUOUS
 66
1
 70
0
  0
VERTEX
  8
0
 62
7
  6
CONTINUOUS
 10
129.1421412155
 20
239.5519554974
  0
VERTEX
  8
0
 62
7
  6
CONTINUOUS
 10
129.0499439992
 20
239.7622147042
  0
VERTEX
  8
0
 62
7
  6
CONTINUOUS
 10
128.9491593588
 20
239.9477737791
  0
VERTEX
  8
0
 62
7
  6
CONTINUOUS
 10
128.8410147735
 20
240.1110076534
  0
SEQEND
  0
POLYLINE
  8
0
 62
7
  6
CONTINUOUS
 66
1
 70
0
  0
VERTEX
  8
0
 62
7
  6
CONTINUOUS
 10
128.6236026999
 20
239.5519554974
  0
VERTEX
  8
0
 62
7
  6
CONTINUOUS
 10
128.4942528751
 20
239.8497245829
  0
VERTEX
  8
0
 62
7
  6
CONTINUOUS
 10
128.3565843173
 20
240.1453152439
  0
VERTEX
  8
0
 62
7
  6
CONTINUOUS
 10
128.2109734226
 20
240.438409853
  0
SEQEND
  0
POLYLINE
  8
0
 62
7
  6
CONTINUOUS
 66
1
 70
0
  0
VERTEX
  8
0
 62
7
  6
CONTINUOUS
 10
137.3273400973
 20
239.5519554974
  0
VERTEX
  8
0
 62
7
  6
CONTINUOUS
 10
137.2831368287
 20
239.7883574936
  0
VERTEX
  8
0
 62
7
  6
CONTINUOUS
 10
137.2471531653
 20
240.0550451139
  0
SEQEND
  0
LINE
  8
0
 62
7
  6
CONTINUOUS
 10
142.1925312561
 20
240.5519554974
 11
142.1925312561
 21
240.4598003229
  0
LINE
  8
0
 62
7
  6
CONTINUOUS
 10
143.0514057592
 20
233.1519554974
 11
143.0514057592
 21
232.8519554974
  0
LINE
  8
0
 62
7
  6
CONTINUOUS
 10
143.6067448185
 20
240.5519554974
 11
143.6067448185
 21
239.7188610213
  0
LINE
  8
0
 62
7
  6
CONTINUOUS
 10
144.8386397973
 20
233.1519554974
 11
144.8386397973
 21
232.8519554974
  0
LINE
  8
0
 62
7
  6
CONTINUOUS
 10
145.0209583809
 20
240.5519554974
 11
145.0209583809
 21
240.3850499702
  0
LINE
  8
0
 62
7
  6
CONTINUOUS
 10
146.4351719432
 20
240.5519554974
 11
146.4351719432
 21
239.7188610278
  0
LINE
  8
0
 62
7
  6
CONTINUOUS
 10
146.5514057592
 20
233.1519554974
 11
146.5514057592
 21
232.8519554974
  0
LINE
  8
SURFACE
 62
7
  6
CONTINUOUS
 10
141.5055603176
 20
237.7362477335
 11
141.2751710079
 21
211.3362477335
  0
LINE
  8
0
 62
7
  6
CONTINUOUS
 10
95.6638349222
 20
212.242983769
 11
95.4378464371
 21
212.168078883
  0
LINE
  8
0
 62
7
  6
CONTINUOUS
 10
94.4208972846
 20
213.0728558714
 11
94.7598803354
 21
213.0728558714
  0
LINE
  8
0
 62
7
  6
CONTINUOUS
 10
94.4208972846
 20
213.2047211108
 11
94.7598803354
 21
213.2047211108
  0
LINE
  8
0
 62
7
  6
CONTINUOUS
 10
95.0988633863
 20
213.9657613591
 11
95.4378464371
 21
213.9657613591
  0
LINE
  8
0
 62
7
  6
CONTINUOUS
 10
95.0988633863
 20
214.6567983261
 11
95.4378464371
 21
214.6567983261
  0
LINE
  8
0
 62
7
  6
CONTINUOUS
 10
95.0988633863
 20
214.8100801417
 11
95.4378464371
 21
214.8100801417
  0
LINE
  8
0
 62
7
  6
CONTINUOUS
 10
97.4152477826
 20
215.305485755
 11
98.4321969351
 21
215.305485755
  0
LINE
  8
0
 62
7
  6
CONTINUOUS
 10
96.002817973
 20
215.7329176226
 11
96.3418010239
 21
215.7329176226
  0
LINE
  8
0
 62
7
  6
CONTINUOUS
 10
97.3587501764
 20
215.8826859122
 11
98.4886938948
 21
215.8826859122
  0
LINE
  8
0
 62
7
  6
CONTINUOUS
 10
97.3587501764
 20
216.0580615057
 11
98.4886938948
 21
216.0580615057
  0
LINE
  8
0
 62
7
  6
CONTINUOUS
 10
95.0988633863
 20
216.8730400959
 11
95.5508410029
 21
216.8730400959
  0
LINE
  8
0
 62
7
  6
CONTINUOUS
 10
99.5056430473
 20
216.8730400959
 11
101.2005583015
 21
216.8730400959
  0
LINE
  8
0
 62
7
  6
CONTINUOUS
 10
95.0988633863
 20
218.0742707258
 11
95.5508410029
 21
218.0742707258
  0
LINE
  8
0
 62
7
  6
CONTINUOUS
 10
96.7937786405
 20
218.0742707258
 11
97.1327616914
 21
218.0742707258
  0
LINE
  8
0
 62
7
  6
CONTINUOUS
 10
98.7146823798
 20
218.0742707258
 11
99.0536657539
 21
218.0742707258
  0
LINE
  8
0
 62
7
  6
CONTINUOUS
 10
99.5056430473
 20
218.0742707258
 11
101.5395413524
 21
218.0742707258
  0
LINE
  8
0
 62
7
  6
CONTINUOUS
 10
101.9915188074
 20
218.0742707258
 11
102.4999933837
 21
218.0742707258
  0
LINE
  8
0
 62
7
  6
CONTINUOUS
 10
103.9124227083
 20
218.0742707258
 11
104.2514057592
 21
218.0742707258
  0
LINE
  8
0
 62
7
  6
CONTINUOUS
 10
95.0988633863
 20
218.3109299406
 11
95.5508410029
 21
218.3109299406
  0
LINE
  8
0
 62
7
  6
CONTINUOUS
 10
96.7937786405
 20
218.3109299406
 11
97.1327616914
 21
218.3109299406
  0
LINE
  8
0
 62
7
  6
CONTINUOUS
 10
98.7146823798
 20
218.3109299406
 11
99.0536657539
 21
218.3109299406
  0
LINE
  8
0
 62
7
  6
CONTINUOUS
 10
99.5056430473
 20
218.3109299406
 11
101.5395413524
 21
218.3109299406
  0
LINE
  8
0
 62
7
  6
CONTINUOUS
 10
101.9915188074
 20
218.3109299406
 11
102.4999933837
 21
218.3109299406
  0
LINE
  8
0
 62
7
  6
CONTINUOUS
 10
103.9124227083
 20
218.3109299406
 11
104.2514057592
 21
218.3109299406
  0
POLYLINE
  8
0
 62
7
  6
CONTINUOUS
 66
1
 70
0
  0
VERTEX
  8
0
 62
7
  6
CONTINUOUS
 10
105.1057965257
 20
240.2023314882
  0
VERTEX
  8
0
 62
7
  6
CONTINUOUS
 10
105.0536249925
 20
240.2273437944
  0
VERTEX
  8
0
 62
7
  6
CONTINUOUS
 10
105.0018381717
 20
240.2541642204
  0
SEQEND
  0
LINE
  8
0
 62
7
  6
CONTINUOUS
 10
111.0798328839
 20
240.3850499672
 11
112.2580063818
 21
239.5519554974
  0
LINE
  8
0
 62
7
  6
CONTINUOUS
 10
111.0798328839
 20
240.5519554974
 11
111.7869396651
 21
240.0519554974
  0
LINE
  8
0
 62
7
  6
CONTINUOUS
 10
112.7300865107
 20
239.5519554974
 11
112.4940464463
 21
239.7188610276
  0
LINE
  8
0
 62
7
  6
CONTINUOUS
 10
112.4940464463
 20
240.5519554974
 11
113.3191732597
 21
239.9685027323
  0
LINE
  8
0
 62
7
  6
CONTINUOUS
 10
113.9082600087
 20
240.3850499672
 11
115.0864335066
 21
239.5519554974
  0
LINE
  8
0
 62
7
  6
CONTINUOUS
 10
113.9082600087
 20
240.5519554974
 11
114.6153667898
 21
240.0519554974
  0
LINE
  8
0
 62
7
  6
CONTINUOUS
 10
115.5585136355
 20
239.5519554974
 11
115.322473571
 21
239.7188610276
  0
LINE
  8
0
 62
7
  6
CONTINUOUS
 10
115.322473571
 20
240.5519554974
 11
116.1476003844
 21
239.9685027323
  0
LINE
  8
0
 62
7
  6
CONTINUOUS
 10
116.7366871334
 20
240.3850499672
 11
117.9148606313
 21
239.5519554974
  0
LINE
  8
0
 62
7
  6
CONTINUOUS
 10
116.7366871334
 20
240.5519554974
 11
117.4437939146
 21
240.0519554974
  0
LINE
  8
0
 62
7
  6
CONTINUOUS
 10
118.3869407602
 20
239.5519554974
 11
118.1509006958
 21
239.7188610276
  0
LINE
  8
0
 62
7
  6
CONTINUOUS
 10
118.1509006958
 20
240.5519554974
 11
118.9760275092
 21
239.9685027323
  0
LINE
  8
0
 62
7
  6
CONTINUOUS
 10
119.5651142581
 20
240.3850499672
 11
120.743287756
 21
239.5519554974
  0
LINE
  8
0
 62
7
  6
CONTINUOUS
 10
119.5651142581
 20
240.5519554974
 11
120.2722210393
 21
240.0519554974
  0
LINE
  8
0
 62
7
  6
CONTINUOUS
 10
121.215367885
 20
239.5519554974
 11
120.9793278205
 21
239.7188610276
  0
LINE
  8
0
 62
7
  6
CONTINUOUS
 10
120.9793278205
 20
240.5519554974
 11
121.804454634
 21
239.9685027323
  0
POLYLINE
  8
0
 62
7
  6
CONTINUOUS
 66
1
 70
0
  0
VERTEX
  8
0
 62
7
  6
CONTINUOUS
 10
124.0086477295
 20
239.5519554974
  0
VERTEX
  8
0
 62
7
  6
CONTINUOUS
 10
123.9079583176
 20
239.6308913791
  0
VERTEX
  8
0
 62
7
  6
CONTINUOUS
 10
123.8077549453
 20
239.7080069566
  0
SEQEND
  0
POLYLINE
  8
0
 62
7
  6
CONTINUOUS
 66
1
 70
0
  0
VERTEX
  8
0
 62
7
  6
CONTINUOUS
 10
126.0976209857
 20
239.5519554974
  0
VERTEX
  8
0
 62
7
  6
CONTINUOUS
 10
125.962122215
 20
239.7056230562
  0
VERTEX
  8
0
 62
7
  6
CONTINUOUS
 10
125.8216981813
 20
239.8608176227
  0
VERTEX
  8
0
 62
7
  6
CONTINUOUS
 10
125.676863659
 20
240.0167429881
  0
VERTEX
  8
0
 62
7
  6
CONTINUOUS
 10
125.5282033016
 20
240.1725894273
  0
VERTEX
  8
0
 62
7
  6
CONTINUOUS
 10
125.3763249161
 20
240.3275899543
  0
VERTEX
  8
0
 62
7
  6
CONTINUOUS
 10
125.2219685076
 20
240.4809085379
  0
SEQEND
  0
POLYLINE
  8
0
 62
7
  6
CONTINUOUS
 66
1
 70
0
  0
VERTEX
  8
0
 62
7
  6
CONTINUOUS
 10
138.2567607504
 20
239.5519554974
  0
VERTEX
  8
0
 62
7
  6
CONTINUOUS
 10
138.1494357473
 20
239.7828274792
  0
VERTEX
  8
0
 62
7
  6
CONTINUOUS
 10
138.0470865119
 20
240.01522541
  0
VERTEX
  8
0
 62
7
  6
CONTINUOUS
 10
137.949890569
 20
240.2490299869
  0
SEQEND
  0
POLYLINE
  8
0
 62
7
  6
CONTINUOUS
 66
1
 70
0
  0
VERTEX
  8
0
 62
7
  6
CONTINUOUS
 10
137.515547208
 20
239.5519554974
  0
VERTEX
  8
0
 62
7
  6
CONTINUOUS
 10
137.4689766695
 20
239.736452866
  0
VERTEX
  8
0
 62
7
  6
CONTINUOUS
 10
137.4258236443
 20
239.9225267736
  0
SEQEND
  0
LINE
  8
SURFACE
 62
7
  6
CONTINUOUS
 10
150.3244433415
 20
231.1893679397
 11
150.3228859937
 21
231.3676796639
  0
LINE
  8
0
 62
7
  6
CONTINUOUS
 10
147.8493855056
 20
240.5519554974
 11
147.8493855056
 21
240.3850499638
  0
LINE
  8
0
 62
7
  6
CONTINUOUS
 10
149.263599068
 20
240.5519554974
 11
149.263599068
 21
239.7188610342
  0
LINE
  8
0
 62
7
  6
CONTINUOUS
 10
150.6778126304
 20
240.5519554974
 11
150.6778126304
 21
240.3850499573
  0
LINE
  8
0
 62
7
  6
CONTINUOUS
 10
152.0920261927
 20
240.5519554974
 11
152.0920261927
 21
239.7188610407
  0
LINE
  8
0
 62
7
  6
CONTINUOUS
 10
153.5062397551
 20
240.5519554974
 11
153.5062397551
 21
240.3850499509
  0
LINE
  8
0
 62
7
  6
CONTINUOUS
 10
153.9514057592
 20
239.5519554974
 11
153.9514057592
 21
240.2371755972
  0
LINE
  8
DEFAULT_1
 62
2
  6
CENTER
 10
56.2514057592
 20
224.5519554974
 11
168.1263676149
 21
224.5519554974
  0
POLYLINE
  8
0
 62
7
  6
CONTINUOUS
 66
1
 70
0
  0
VERTEX
  8
0
 62
7
  6
CONTINUOUS
 10
105.4229786344
 20
240.0841170612
  0
VERTEX
  8
0
 62
7
  6
CONTINUOUS
 10
105.2650849657
 20
240.1361450816
  0
VERTEX
  8
0
 62
7
  6
CONTINUOUS
 10
105.1057965257
 20
240.2023314882
  0
SEQEND
  0
LINE
  8
0
 62
7
  6
CONTINUOUS
 10
108.2765672898
 20
240.5341636085
 11
108.2514057592
 21
240.5462422635
  0
POLYLINE
  8
0
 62
7
  6
CONTINUOUS
 66
1
 70
0
  0
VERTEX
  8
0
 62
7
  6
CONTINUOUS
 10
123.5742399339
 20
239.5519554974
  0
VERTEX
  8
0
 62
7
  6
CONTINUOUS
 10
123.5212873645
 20
239.5884105847
  0
VERTEX
  8
0
 62
7
  6
CONTINUOUS
 10
123.468046663
 20
239.6254603288
  0
SEQEND
  0
LINE
  8
0
 62
7
  6
CONTINUOUS
 10
123.468046663
 20
239.6254603288
 11
122.3935413829
 21
240.3850499671
  0
LINE
  8
0
 62
7
  6
CONTINUOUS
 10
123.1006481641
 20
240.0519554974
 11
122.3935413829
 21
240.5519554974
  0
LINE
  8
0
 62
7
  6
CONTINUOUS
 10
124.5657755846
 20
240.015953963
 11
123.8077549453
 21
240.5519554974
  0
LINE
  8
0
 62
7
  6
CONTINUOUS
 10
126.3000496324
 20
239.7896370234
 11
125.2219685076
 21
240.5519554974
  0
LINE
  8
0
 62
7
  6
CONTINUOUS
 10
127.7211951702
 20
239.7847353766
 11
126.63618207
 21
240.5519554974
  0
LINE
  8
0
 62
7
  6
CONTINUOUS
 10
129.2069878731
 20
239.7341212809
 11
129.2707385408
 21
239.6890427515
  0
LINE
  8
0
 62
7
  6
CONTINUOUS
 10
128.8060779937
 20
240.0176073753
 11
128.0503956324
 21
240.5519554974
  0
LINE
  8
0
 62
7
  6
CONTINUOUS
 10
129.4646091948
 20
240.2348250663
 11
130.4303325457
 21
239.5519554974
  0
LINE
  8
0
 62
7
  6
CONTINUOUS
 10
129.4646091948
 20
240.5519554974
 11
130.1717159759
 21
240.0519554974
  0
LINE
  8
0
 62
7
  6
CONTINUOUS
 10
131.3273130194
 20
239.5519554974
 11
130.8788227571
 21
239.8690859852
  0
LINE
  8
0
 62
7
  6
CONTINUOUS
 10
130.8788227571
 20
240.5519554974
 11
131.8101746832
 21
239.8933902348
  0
LINE
  8
0
 62
7
  6
CONTINUOUS
 10
132.2930363195
 20
240.2348249529
 11
133.25875951
 21
239.5519554974
  0
LINE
  8
0
 62
7
  6
CONTINUOUS
 10
132.2930363195
 20
240.5519554974
 11
133.0001431007
 21
240.0519554974
  0
LINE
  8
0
 62
7
  6
CONTINUOUS
 10
134.1557403046
 20
239.5519554974
 11
133.7072498819
 21
239.8690860986
  0
POLYLINE
  8
0
 62
7
  6
CONTINUOUS
 66
1
 70
0
  0
VERTEX
  8
0
 62
7
  6
CONTINUOUS
 10
137.949890569
 20
240.2490299869
  0
VERTEX
  8
0
 62
7
  6
CONTINUOUS
 10
137.8943918238
 20
240.3107410555
  0
VERTEX
  8
0
 62
7
  6
CONTINUOUS
 10
137.841737785
 20
240.3744696957
  0
VERTEX
  8
0
 62
7
  6
CONTINUOUS
 10
137.791796735
 20
240.4401662753
  0
SEQEND
  0
LINE
  8
0
 62
7
  6
CONTINUOUS
 10
139.4147491177
 20
239.5519554974
 11
139.3641041314
 21
239.6263855941
  0
LINE
  8
SURFACE
 62
7
  6
CONTINUOUS
 10
158.2514057592
 20
237.7519554974
 11
158.2514057592
 21
211.3519554974
  0
POLYLINE
  8
0
 62
7
  6
CONTINUOUS
 66
1
 70
0
  0
VERTEX
  8
0
 62
7
  6
CONTINUOUS
 10
138.5257911965
 20
239.8338425804
  0
VERTEX
  8
0
 62
7
  6
CONTINUOUS
 10
138.4720824945
 20
239.859621951
  0
VERTEX
  8
0
 62
7
  6
CONTINUOUS
 10
138.4218381177
 20
239.8856728094
  0
SEQEND
  0
LINE
  8
0
 62
7
  6
CONTINUOUS
 10
133.7072498819
 20
240.5519554974
 11
134.6386018881
 21
239.8933901781
  0
LINE
  8
0
 62
7
  6
CONTINUOUS
 10
135.1214634443
 20
240.2348248395
 11
136.0871864744
 21
239.5519554974
  0
LINE
  8
0
 62
7
  6
CONTINUOUS
 10
135.8285702254
 20
240.0519554974
 11
135.1214634443
 21
240.5519554974
  0
LINE
  8
0
 62
7
  6
CONTINUOUS
 10
136.5356770066
 20
239.869086212
 11
136.9841675897
 21
239.5519554974
  0
LINE
  8
0
 62
7
  6
CONTINUOUS
 10
137.4258236443
 20
239.9225267736
 11
137.2480748548
 21
240.048214148
  0
LINE
  8
0
 62
7
  6
CONTINUOUS
 10
137.2427837878
 20
240.0519554974
 11
136.5356770066
 21
240.5519554974
  0
LINE
  8
0
 62
7
  6
CONTINUOUS
 10
139.2421951191
 20
239.6381581867
 11
137.949890569
 21
240.5519554974
  0
LINE
  8
0
 62
7
  6
CONTINUOUS
 10
140.4959152314
 20
239.7516441935
 11
139.3641041314
 21
240.5519554974
  0
LINE
  8
0
 62
7
  6
CONTINUOUS
 10
141.4854244749
 20
240.0519554974
 11
140.7783176937
 21
240.5519554974
  0
LINE
  8
0
 62
7
  6
CONTINUOUS
 10
143.2182823456
 20
239.6597344231
 11
143.3707047637
 21
239.5519554974
  0
LINE
  8
0
 62
7
  6
CONTINUOUS
 10
142.8996380373
 20
240.0519554974
 11
142.1925312561
 21
240.5519554974
  0
LINE
  8
0
 62
7
  6
CONTINUOUS
 10
143.6067448185
 20
239.7188610213
 11
143.8427848748
 21
239.5519554974
  0
LINE
  8
0
 62
7
  6
CONTINUOUS
 10
144.4318716288
 20
239.9685027345
 11
143.6067448185
 21
240.5519554974
  0
POLYLINE
  8
0
 62
7
  6
CONTINUOUS
 66
1
 70
0
  0
VERTEX
  8
0
 62
7
  6
CONTINUOUS
 10
143.2182823454
 20
239.6597344233
  0
VERTEX
  8
0
 62
7
  6
CONTINUOUS
 10
142.9670610385
 20
239.8417966268
  0
VERTEX
  8
0
 62
7
  6
CONTINUOUS
 10
142.7117579458
 20
240.0359404934
  0
VERTEX
  8
0
 62
7
  6
CONTINUOUS
 10
142.4532968489
 20
240.2419954467
  0
VERTEX
  8
0
 62
7
  6
CONTINUOUS
 10
142.1925312561
 20
240.4598003229
  0
SEQEND
  0
POLYLINE
  8
0
 62
7
  6
CONTINUOUS
 66
1
 70
0
  0
VERTEX
  8
0
 62
7
  6
CONTINUOUS
 10
141.0393527932
 20
239.5519554974
  0
VERTEX
  8
0
 62
7
  6
CONTINUOUS
 10
140.9083821326
 20
239.6906601878
  0
VERTEX
  8
0
 62
7
  6
CONTINUOUS
 10
140.7783176937
 20
239.8317151692
  0
SEQEND
  0
LINE
  8
0
 62
7
  6
CONTINUOUS
 10
146.5514057592
 20
232.8519554974
 11
143.0514057592
 21
232.8519554974
  0
LINE
  8
0
 62
7
  6
CONTINUOUS
 10
125.167257713
 20
233.1519554974
 11
108.0455538053
 21
233.1519554974
  0
LINE
  8
0
 62
7
  6
CONTINUOUS
 10
91.747257713
 20
233.1519554974
 11
74.5455091215
 21
233.1519554974
  0
LINE
  8
SURFACE
 62
7
  6
CONTINUOUS
 10
141.4655538053
 20
233.1519554974
 11
148.5229546754
 21
233.1519554974
  0
POLYLINE
  8
0
 62
7
  6
CONTINUOUS
 66
1
 70
0
  0
VERTEX
  8
0
 62
7
  6
CONTINUOUS
 10
139.3641041314
 20
239.6263855941
  0
VERTEX
  8
0
 62
7
  6
CONTINUOUS
 10
139.1970019104
 20
239.6425224352
  0
VERTEX
  8
0
 62
7
  6
CONTINUOUS
 10
139.0306457399
 20
239.6698589922
  0
VERTEX
  8
0
 62
7
  6
CONTINUOUS
 10
138.8637941318
 20
239.7097174625
  0
VERTEX
  8
0
 62
7
  6
CONTINUOUS
 10
138.6955925011
 20
239.7637836448
  0
VERTEX
  8
0
 62
7
  6
CONTINUOUS
 10
138.5257911965
 20
239.8338425804
  0
SEQEND
  0
LINE
  8
0
 62
7
  6
CONTINUOUS
 10
146.1991318793
 20
239.5519554974
 11
145.0209583809
 21
240.3850499702
  0
LINE
  8
0
 62
7
  6
CONTINUOUS
 10
145.728065162
 20
240.0519554974
 11
145.0209583809
 21
240.5519554974
  0
LINE
  8
0
 62
7
  6
CONTINUOUS
 10
146.6712120087
 20
239.5519554974
 11
146.4351719432
 21
239.7188610278
  0
LINE
  8
0
 62
7
  6
CONTINUOUS
 10
147.2602987581
 20
239.9685027312
 11
146.4351719432
 21
240.5519554974
  0
LINE
  8
0
 62
7
  6
CONTINUOUS
 10
149.0275589949
 20
239.5519554974
 11
147.8493855056
 21
240.3850499638
  0
LINE
  8
0
 62
7
  6
CONTINUOUS
 10
148.5564922868
 20
240.0519554974
 11
147.8493855056
 21
240.5519554974
  0
LINE
  8
0
 62
7
  6
CONTINUOUS
 10
149.4996391426
 20
239.5519554974
 11
149.263599068
 21
239.7188610342
  0
LINE
  8
0
 62
7
  6
CONTINUOUS
 10
150.0887258874
 20
239.968502728
 11
149.263599068
 21
240.5519554974
  0
LINE
  8
0
 62
7
  6
CONTINUOUS
 10
151.8559861105
 20
239.5519554974
 11
150.6778126304
 21
240.3850499573
  0
LINE
  8
0
 62
7
  6
CONTINUOUS
 10
151.3849194115
 20
240.0519554974
 11
150.6778126304
 21
240.5519554974
  0
LINE
  8
0
 62
7
  6
CONTINUOUS
 10
152.3280662764
 20
239.5519554974
 11
152.0920261927
 21
239.7188610407
  0
LINE
  8
0
 62
7
  6
CONTINUOUS
 10
152.9171530167
 20
239.9685027248
 11
152.0920261927
 21
240.5519554974
  0
LINE
  8
0
 62
7
  6
CONTINUOUS
 10
153.9514057592
 20
240.0702700496
 11
153.5062397551
 21
240.3850499509
  0
LINE
  8
0
 62
7
  6
CONTINUOUS
 10
153.9514057592
 20
240.2371755972
 11
153.5062397551
 21
240.5519554974
  0
POLYLINE
  8
0
 62
7
  6
CONTINUOUS
 66
1
 70
0
  0
VERTEX
  8
0
 62
7
  6
CONTINUOUS
 10
127.1699790968
 20
240.174504
  0
VERTEX
  8
0
 62
7
  6
CONTINUOUS
 10
127.0394233425
 20
240.1736121542
  0
VERTEX
  8
0
 62
7
  6
CONTINUOUS
 10
126.9070573603
 20
240.1784022059
  0
VERTEX
  8
0
 62
7
  6
CONTINUOUS
 10
126.7727134665
 20
240.1887513913
  0
VERTEX
  8
0
 62
7
  6
CONTINUOUS
 10
126.63618207
 20
240.2045820582
  0
SEQEND
  0
POLYLINE
  8
0
 62
7
  6
CONTINUOUS
 66
1
 70
0
  0
VERTEX
  8
0
 62
7
  6
CONTINUOUS
 10
93.7499790904
 20
239.8060126317
  0
VERTEX
  8
0
 62
7
  6
CONTINUOUS
 10
93.6070137863
 20
239.8053321859
  0
VERTEX
  8
0
 62
7
  6
CONTINUOUS
 10
93.4618609935
 20
239.8114414885
  0
VERTEX
  8
0
 62
7
  6
CONTINUOUS
 10
93.3142653216
 20
239.8241904104
  0
VERTEX
  8
0
 62
7
  6
CONTINUOUS
 10
93.1639950239
 20
239.843489385
  0
VERTEX
  8
0
 62
7
  6
CONTINUOUS
 10
93.0108663127
 20
239.8692924586
  0
VERTEX
  8
0
 62
7
  6
CONTINUOUS
 10
92.854662907
 20
239.9016064994
  0
VERTEX
  8
0
 62
7
  6
CONTINUOUS
 10
92.6950565731
 20
239.9405086142
  0
SEQEND
  0
LINE
  8
0
 62
7
  6
CONTINUOUS
 10
60.0514057592
 20
239.5519554974
 11
109.7982766557
 21
239.5519554974
  0
LINE
  8
SURFACE
 62
7
  6
CONTINUOUS
 10
109.7982766557
 20
239.5519554974
 11
156.4514057592
 21
239.5519554974
  0
POLYLINE
  8
0
 62
7
  6
CONTINUOUS
 66
1
 70
0
  0
VERTEX
  8
0
 62
7
  6
CONTINUOUS
 10
106.8371921968
 20
240.0642944643
  0
VERTEX
  8
0
 62
7
  6
CONTINUOUS
 10
106.6721415196
 20
240.0344244449
  0
VERTEX
  8
0
 62
7
  6
CONTINUOUS
 10
106.5103805388
 20
240.0120064852
  0
VERTEX
  8
0
 62
7
  6
CONTINUOUS
 10
106.3518140209
 20
239.9971000535
  0
VERTEX
  8
0
 62
7
  6
CONTINUOUS
 10
106.1960304402
 20
239.9897898901
  0
VERTEX
  8
0
 62
7
  6
CONTINUOUS
 10
106.0428324742
 20
239.9902583509
  0
SEQEND
  0
POLYLINE
  8
0
 62
7
  6
CONTINUOUS
 66
1
 70
0
  0
VERTEX
  8
0
 62
7
  6
CONTINUOUS
 10
72.8960666998
 20
240.1750363829
  0
VERTEX
  8
0
 62
7
  6
CONTINUOUS
 10
72.7494153739
 20
240.1589344754
  0
VERTEX
  8
0
 62
7
  6
CONTINUOUS
 10
72.6068093993
 20
240.1499491094
  0
VERTEX
  8
0
 62
7
  6
CONTINUOUS
 10
72.4678819661
 20
240.1481172232
  0
VERTEX
  8
0
 62
7
  6
CONTINUOUS
 10
72.3326344587
 20
240.153548739
  0
SEQEND
  0
LINE
  8
0
 62
7
  6
CONTINUOUS
 10
260.9501018776
 20
75.7632673626
 11
261.1867610925
 21
75.7632673626
  0
LINE
  8
0
 62
7
  6
CONTINUOUS
 10
260.7306820338
 20
75.8696503379
 11
260.9593084487
 21
75.8696503379
  0
LINE
  8
0
 62
7
  6
CONTINUOUS
 10
260.3168846731
 20
76.0824162979
 11
260.5317786073
 21
76.0824162979
  0
LINE
  8
0
 62
7
  6
CONTINUOUS
 10
259.5715315821
 20
76.5079481994
 11
259.7654930188
 21
76.5079481994
  0
LINE
  8
0
 62
7
  6
CONTINUOUS
 10
258.9122475251
 20
76.933480138
 11
259.0908563643
 21
76.933480138
  0
LINE
  8
0
 62
7
  6
CONTINUOUS
 10
258.1813169068
 20
77.4653949682
 11
258.3455400826
 21
77.4653949682
  0
LINE
  8
0
 62
7
  6
CONTINUOUS
 10
257.6566035607
 20
77.8909269814
 11
257.8118613714
 21
77.8909269814
  0
LINE
  8
0
 62
7
  6
CONTINUOUS
 10
257.1763147106
 20
78.3164588456
 11
257.3241894231
 21
78.3164588456
  0
LINE
  8
0
 62
7
  6
CONTINUOUS
 10
256.9508979001
 20
78.5292247777
 11
257.0955459502
 21
78.5292247777
  0
LINE
  8
0
 62
7
  6
CONTINUOUS
 10
256.841592511
 20
78.6356077437
 11
256.9847264496
 21
78.6356077437
  0
LINE
  8
0
 62
7
  6
CONTINUOUS
 10
256.7344625574
 20
78.7419907098
 11
256.8761431691
 21
78.7419907098
  0
LINE
  8
0
 62
7
  6
CONTINUOUS
 10
256.5264737137
 20
78.9547566418
 11
256.6654159197
 21
78.9547566418
  0
LINE
  8
0
 62
7
  6
CONTINUOUS
 10
256.2293033114
 20
79.27390554
 11
256.3645127637
 21
79.27390554
  0
LINE
  8
0
 62
7
  6
CONTINUOUS
 10
256.0404636124
 20
79.486671472
 11
256.1734041275
 21
79.486671472
  0
LINE
  8
0
 62
7
  6
CONTINUOUS
 10
255.9486870232
 20
79.5930547361
 11
256.0805522626
 21
79.5930547361
  0
LINE
  8
0
 62
7
  6
CONTINUOUS
 10
255.6834386765
 20
79.9122036342
 11
255.8122922859
 21
79.9122036342
  0
LINE
  8
0
 62
7
  6
CONTINUOUS
 10
255.3519375271
 20
80.3377354984
 11
255.4772162854
 21
80.3377354984
  0
LINE
  8
0
 62
7
  6
CONTINUOUS
 10
255.1188149208
 20
80.6568843965
 11
255.2416968329
 21
80.6568843965
  0
LINE
  8
0
 62
7
  6
CONTINUOUS
 10
255.0439100348
 20
80.7632673626
 11
255.1660412596
 21
80.7632673626
  0
LINE
  8
0
 62
2
  6
CONTINUOUS
 10
268.4777866492
 20
89.4032673626
 11
266.3777866492
 21
89.4032673626
  0
LINE
  8
DEFAULT_1
 62
2
  6
CENTER
 10
262.1777866492
 20
89.4032673626
 11
260.1777866492
 21
89.4032673626
  0
LINE
  8
DEFAULT_1
 62
2
  6
CENTER
 10
272.6777866492
 20
89.4032673626
 11
274.6777866492
 21
89.4032673626
  0
LINE
  8
0
 62
7
  6
CONTINUOUS
 10
282.4277866492
 20
91.903268384
 11
283.1106587395
 21
91.9032691437
  0
LINE
  8
0
 62
7
  6
CONTINUOUS
 10
283.4277866492
 20
92.8689961151
 11
283.113006749
 21
92.8689961151
  0
LINE
  8
0
 62
7
  6
CONTINUOUS
 10
282.7425665494
 20
94.2832096775
 11
283.4277866492
 21
94.2832096775
  0
LINE
  8
0
 62
7
  6
CONTINUOUS
 10
283.4277866492
 20
95.6974232398
 11
283.113006749
 21
95.6974232398
  0
LINE
  8
0
 62
7
  6
CONTINUOUS
 10
282.7425665494
 20
97.1116368022
 11
283.4277866492
 21
97.1116368022
  0
LINE
  8
0
 62
7
  6
CONTINUOUS
 10
283.4277866492
 20
98.5258503646
 11
283.113006749
 21
98.5258503646
  0
LINE
  8
0
 62
7
  6
CONTINUOUS
 10
282.7425665494
 20
99.940063927
 11
283.4277866492
 21
99.940063927
  0
LINE
  8
0
 62
7
  6
CONTINUOUS
 10
283.4277866492
 20
101.3542774893
 11
283.113006749
 21
101.3542774893
  0
LINE
  8
0
 62
7
  6
CONTINUOUS
 10
282.7425665494
 20
102.7684910517
 11
283.4277866492
 21
102.7684910517
  0
LINE
  8
0
 62
7
  6
CONTINUOUS
 10
283.4277866492
 20
104.1827046141
 11
283.113006749
 21
104.1827046141
  0
LINE
  8
SURFACE
 62
7
  6
CONTINUOUS
 10
252.4277866492
 20
148.4308189548
 11
252.4277866492
 21
146.9071284603
  0
LINE
  8
0
 62
7
  6
CONTINUOUS
 10
252.4277866492
 20
152.903262095
 11
252.4277866492
 21
89.4032673626
  0
LINE
  8
SURFACE
 62
7
  6
CONTINUOUS
 10
252.4277866492
 20
121.5622250593
 11
252.4277866492
 21
122.0858017971
  0
LINE
  8
0
 62
7
  6
CONTINUOUS
 10
282.7425665494
 20
105.5969181765
 11
283.4277866492
 21
105.5969181765
  0
LINE
  8
0
 62
7
  6
CONTINUOUS
 10
283.4277866492
 20
107.0111317388
 11
283.113006749
 21
107.0111317388
  0
POLYLINE
  8
0
 62
7
  6
CONTINUOUS
 66
1
 70
0
  0
VERTEX
  8
0
 62
7
  6
CONTINUOUS
 10
282.4277866492
 20
138.3848652105
  0
VERTEX
  8
0
 62
7
  6
CONTINUOUS
 10
282.5664913397
 20
138.4500526043
  0
VERTEX
  8
0
 62
7
  6
CONTINUOUS
 10
282.7075463211
 20
138.5194700332
  0
SEQEND
  0
LINE
  8
0
 62
7
  6
CONTINUOUS
 10
282.7425665494
 20
108.4253453012
 11
283.4277866492
 21
108.4253453012
  0
LINE
  8
0
 62
7
  6
CONTINUOUS
 10
283.4277866492
 20
109.8395588636
 11
283.113006749
 21
109.8395588636
  0
LINE
  8
0
 62
7
  6
CONTINUOUS
 10
282.7425665494
 20
111.253772426
 11
283.4277866492
 21
111.253772426
  0
LINE
  8
0
 62
7
  6
CONTINUOUS
 10
282.4277866492
 20
139.5886886598
 11
282.5022167459
 21
139.6433037256
  0
LINE
  8
0
 62
7
  6
CONTINUOUS
 10
283.4277866492
 20
112.6679859883
 11
283.113006749
 21
112.6679859883
  0
LINE
  8
0
 62
7
  6
CONTINUOUS
 10
282.7425665494
 20
114.0821995507
 11
283.4277866492
 21
114.0821995507
  0
LINE
  8
0
 62
7
  6
CONTINUOUS
 10
282.5843834035
 20
150.4032615768
 11
282.4277866492
 21
150.181800323
  0
LINE
  8
0
 62
7
  6
CONTINUOUS
 10
283.1106559913
 20
150.4032616949
 11
282.9277866492
 21
150.1446453912
  0
LINE
  8
0
 62
7
  6
CONTINUOUS
 10
282.4277866492
 20
148.6932768971
 11
282.9540591534
 21
149.43753861
  0
LINE
  8
0
 62
7
  6
CONTINUOUS
 10
282.6646503971
 20
148.3583009724
 11
283.4277866492
 21
149.43753861
  0
LINE
  8
0
 62
7
  6
CONTINUOUS
 10
282.901514145
 20
148.0233250477
 11
282.4277866492
 21
147.3533731982
  0
LINE
  8
0
 62
7
  6
CONTINUOUS
 10
282.9277866492
 20
147.3162182665
 11
283.4277866492
 21
148.0233250477
  0
POLYLINE
  8
0
 62
7
  6
CONTINUOUS
 66
1
 70
0
  0
VERTEX
  8
0
 62
7
  6
CONTINUOUS
 10
282.4277866492
 20
143.3463409995
  0
VERTEX
  8
0
 62
7
  6
CONTINUOUS
 10
282.6122840179
 20
143.560689142
  0
VERTEX
  8
0
 62
7
  6
CONTINUOUS
 10
282.7983579254
 20
143.7806843605
  0
SEQEND
  0
POLYLINE
  8
0
 62
7
  6
CONTINUOUS
 66
1
 70
0
  0
VERTEX
  8
0
 62
7
  6
CONTINUOUS
 10
282.4277866492
 20
141.2591274172
  0
VERTEX
  8
0
 62
7
  6
CONTINUOUS
 10
282.658658631
 20
141.478304702
  0
VERTEX
  8
0
 62
7
  6
CONTINUOUS
 10
282.8910565618
 20
141.7046157721
  0
VERTEX
  8
0
 62
7
  6
CONTINUOUS
 10
283.1248611387
 20
141.9380694328
  0
SEQEND
  0
LINE
  8
0
 62
7
  6
CONTINUOUS
 10
283.4277866492
 20
115.4964131131
 11
283.113006749
 21
115.4964131131
  0
LINE
  8
0
 62
7
  6
CONTINUOUS
 10
282.7425665494
 20
116.9106266754
 11
283.4277866492
 21
116.9106266754
  0
LINE
  8
0
 62
7
  6
CONTINUOUS
 10
283.1106587395
 20
91.9032691437
 11
282.9277866492
 21
92.1618893339
  0
LINE
  8
0
 62
7
  6
CONTINUOUS
 10
282.4277866492
 20
93.8380436734
 11
283.113006749
 21
92.8689961151
  0
LINE
  8
0
 62
7
  6
CONTINUOUS
 10
283.4277866492
 20
92.8689961151
 11
282.5851765993
 21
94.0606266754
  0
LINE
  8
0
 62
7
  6
CONTINUOUS
 10
282.7425665494
 20
94.2832096775
 11
282.4277866492
 21
94.7283756815
  0
LINE
  8
0
 62
2
  6
CONTINUOUS
 10
267.4277866492
 20
153.9532673626
 11
267.4277866492
 21
151.8532673626
  0
LINE
  8
DEFAULT_1
 62
2
  6
CENTER
 10
267.4277866492
 20
147.6532673626
 11
267.4277866492
 21
145.6532673626
  0
LINE
  8
0
 62
2
  6
CONTINUOUS
 10
267.4277866492
 20
90.4532673626
 11
267.4277866492
 21
88.3532673626
  0
LINE
  8
DEFAULT_1
 62
2
  6
CENTER
 10
267.4277866492
 20
84.1532673626
 11
267.4277866492
 21
82.1532673626
  0
LINE
  8
DEFAULT_1
 62
2
  6
CENTER
 10
267.4277866492
 20
94.6532673626
 11
267.4277866492
 21
96.6532673626
  0
LINE
  8
DEFAULT_1
 62
2
  6
CENTER
 10
267.4277866492
 20
158.1532673626
 11
267.4277866492
 21
160.1532673626
  0
POLYLINE
  8
0
 62
7
  6
CONTINUOUS
 66
1
 70
0
  0
VERTEX
  8
0
 62
7
  6
CONTINUOUS
 10
282.4277866492
 20
144.4032348322
  0
VERTEX
  8
0
 62
7
  6
CONTINUOUS
 10
282.6641886454
 20
144.78176101
  0
VERTEX
  8
0
 62
7
  6
CONTINUOUS
 10
282.9308762657
 20
145.1948979229
  0
SEQEND
  0
LINE
  8
0
 62
7
  6
CONTINUOUS
 10
282.8042097919
 20
146.3971924858
 11
282.9540591534
 21
146.6091114853
  0
LINE
  8
0
 62
7
  6
CONTINUOUS
 10
282.6719506525
 20
145.5401979678
 11
283.4277866492
 21
146.6091114853
  0
LINE
  8
0
 62
7
  6
CONTINUOUS
 10
282.9277866492
 20
144.4877911417
 11
283.4277866492
 21
145.1948979229
  0
LINE
  8
0
 62
7
  6
CONTINUOUS
 10
282.813234927
 20
142.9115769802
 11
283.4277866492
 21
143.7806843605
  0
LINE
  8
0
 62
7
  6
CONTINUOUS
 10
282.5587851384
 20
141.1375170759
 11
283.4277866492
 21
142.3664707982
  0
POLYLINE
  8
0
 62
7
  6
CONTINUOUS
 66
1
 70
0
  0
VERTEX
  8
0
 62
7
  6
CONTINUOUS
 10
282.4277866492
 20
145.8723310545
  0
VERTEX
  8
0
 62
7
  6
CONTINUOUS
 10
282.5507943329
 20
146.0421808385
  0
VERTEX
  8
0
 62
7
  6
CONTINUOUS
 10
282.676283503
 20
146.2171310866
  0
VERTEX
  8
0
 62
7
  6
CONTINUOUS
 10
282.8042097664
 20
146.3971924498
  0
SEQEND
  0
LINE
  8
0
 62
7
  6
CONTINUOUS
 10
283.4277866492
 20
118.3248402378
 11
283.113006749
 21
118.3248402378
  0
LINE
  8
0
 62
7
  6
CONTINUOUS
 10
282.7425665494
 20
119.7390538002
 11
283.4277866492
 21
119.7390538002
  0
LINE
  8
0
 62
7
  6
CONTINUOUS
 10
283.4277866492
 20
121.1532673626
 11
283.113006749
 21
121.1532673626
  0
LINE
  8
0
 62
7
  6
CONTINUOUS
 10
283.4277866492
 20
94.2832096775
 11
282.9277866492
 21
94.9903164587
  0
LINE
  8
0
 62
7
  6
CONTINUOUS
 10
282.4277866492
 20
96.6664707982
 11
283.113006749
 21
95.6974232398
  0
LINE
  8
0
 62
7
  6
CONTINUOUS
 10
283.4277866492
 20
95.6974232398
 11
282.5851765993
 21
96.8890538002
  0
LINE
  8
0
 62
7
  6
CONTINUOUS
 10
282.7425665494
 20
97.1116368022
 11
282.4277866492
 21
97.5568028063
  0
LINE
  8
0
 62
7
  6
CONTINUOUS
 10
283.4277866492
 20
97.1116368022
 11
282.9277866492
 21
97.8187435834
  0
LINE
  8
0
 62
7
  6
CONTINUOUS
 10
282.4277866492
 20
99.4948979229
 11
283.113006749
 21
98.5258503646
  0
LINE
  8
0
 62
7
  6
CONTINUOUS
 10
283.4277866492
 20
98.5258503646
 11
282.5851765993
 21
99.7174809249
  0
LINE
  8
0
 62
7
  6
CONTINUOUS
 10
282.7425665494
 20
99.940063927
 11
282.4277866492
 21
100.385229931
  0
LINE
  8
0
 62
7
  6
CONTINUOUS
 10
282.4514338779
 20
139.571485905
 11
282.5022167459
 21
139.6433037256
  0
LINE
  8
0
 62
7
  6
CONTINUOUS
 10
282.9277866492
 20
140.2451504546
 11
283.4277866492
 21
140.9522572358
  0
LINE
  8
0
 62
7
  6
CONTINUOUS
 10
282.5681537108
 20
138.3223391132
 11
282.7075463211
 21
138.5194700332
  0
LINE
  8
0
 62
7
  6
CONTINUOUS
 10
282.9277866492
 20
138.8309368922
 11
283.4277866492
 21
139.5380436734
  0
LINE
  8
0
 62
7
  6
CONTINUOUS
 10
282.9461012015
 20
137.8877900221
 11
282.4277866492
 21
137.1547825527
  0
LINE
  8
0
 62
7
  6
CONTINUOUS
 10
282.5851765993
 20
136.9321995507
 11
283.4277866492
 21
138.123830111
  0
LINE
  8
0
 62
7
  6
CONTINUOUS
 10
282.7425665494
 20
136.7096165487
 11
282.4277866492
 21
136.2644505446
  0
LINE
  8
0
 62
7
  6
CONTINUOUS
 10
282.9277866492
 20
136.0025097675
 11
283.4277866492
 21
136.7096165487
  0
LINE
  8
0
 62
7
  6
CONTINUOUS
 10
282.7425665494
 20
122.5674809249
 11
283.4277866492
 21
122.5674809249
  0
LINE
  8
0
 62
7
  6
CONTINUOUS
 10
283.4277866492
 20
123.9816944873
 11
283.113006749
 21
123.9816944873
  0
LINE
  8
0
 62
7
  6
CONTINUOUS
 10
283.4277866492
 20
99.940063927
 11
282.9277866492
 21
100.6471707082
  0
LINE
  8
0
 62
7
  6
CONTINUOUS
 10
282.4277866492
 20
102.3233250477
 11
283.113006749
 21
101.3542774893
  0
LINE
  8
0
 62
7
  6
CONTINUOUS
 10
283.4277866492
 20
101.3542774893
 11
282.5851765993
 21
102.5459080497
  0
LINE
  8
0
 62
7
  6
CONTINUOUS
 10
282.7425665494
 20
102.7684910517
 11
282.4277866492
 21
103.2136570558
  0
LINE
  8
0
 62
7
  6
CONTINUOUS
 10
283.4277866492
 20
102.7684910517
 11
282.9277866492
 21
103.4755978329
  0
LINE
  8
0
 62
7
  6
CONTINUOUS
 10
282.4277866492
 20
105.1517521724
 11
283.113006749
 21
104.1827046141
  0
LINE
  8
0
 62
7
  6
CONTINUOUS
 10
283.4277866492
 20
104.1827046141
 11
282.5851765993
 21
105.3743351744
  0
LINE
  8
0
 62
7
  6
CONTINUOUS
 10
282.7425665494
 20
105.5969181765
 11
282.4277866492
 21
106.0420841805
  0
POLYLINE
  8
0
 62
7
  6
CONTINUOUS
 66
1
 70
0
  0
VERTEX
  8
0
 62
7
  6
CONTINUOUS
 10
283.1248611387
 20
141.9380694328
  0
VERTEX
  8
0
 62
7
  6
CONTINUOUS
 10
283.1865722073
 20
142.0808408082
  0
VERTEX
  8
0
 62
7
  6
CONTINUOUS
 10
283.2503008475
 20
142.2236207543
  0
VERTEX
  8
0
 62
7
  6
CONTINUOUS
 10
283.3159974272
 20
142.3664707982
  0
SEQEND
  0
LINE
  8
0
 62
7
  6
CONTINUOUS
 10
282.4277866492
 20
134.326355428
 11
283.113006749
 21
135.2954029863
  0
LINE
  8
0
 62
7
  6
CONTINUOUS
 10
282.5851765993
 20
134.103772426
 11
283.4277866492
 21
135.2954029863
  0
LINE
  8
0
 62
7
  6
CONTINUOUS
 10
282.7425665494
 20
133.8811894239
 11
282.4277866492
 21
133.4360234199
  0
LINE
  8
0
 62
7
  6
CONTINUOUS
 10
282.9277866492
 20
133.1740826427
 11
283.4277866492
 21
133.8811894239
  0
LINE
  8
0
 62
7
  6
CONTINUOUS
 10
282.4277866492
 20
131.4979283032
 11
283.113006749
 21
132.4669758615
  0
LINE
  8
0
 62
7
  6
CONTINUOUS
 10
282.5851765993
 20
131.2753453012
 11
283.4277866492
 21
132.4669758615
  0
LINE
  8
0
 62
7
  6
CONTINUOUS
 10
282.7425665494
 20
131.0527622992
 11
282.4277866492
 21
130.6075962951
  0
LINE
  8
0
 62
7
  6
CONTINUOUS
 10
282.9277866492
 20
130.345655518
 11
283.4277866492
 21
131.0527622992
  0
LINE
  8
0
 62
7
  6
CONTINUOUS
 10
258.9143286926
 20
123.951177752
 11
254.0084218311
 21
123.3488081322
  0
LINE
  8
0
 62
7
  6
CONTINUOUS
 10
282.7425665494
 20
125.3959080497
 11
283.4277866492
 21
125.3959080497
  0
LINE
  8
0
 62
7
  6
CONTINUOUS
 10
283.4277866492
 20
126.8101216121
 11
283.113006749
 21
126.8101216121
  0
LINE
  8
0
 62
7
  6
CONTINUOUS
 10
283.4277866492
 20
105.5969181765
 11
282.9277866492
 21
106.3040249576
  0
LINE
  8
0
 62
7
  6
CONTINUOUS
 10
282.4277866492
 20
107.9801792971
 11
283.113006749
 21
107.0111317388
  0
LINE
  8
0
 62
7
  6
CONTINUOUS
 10
283.4277866492
 20
107.0111317388
 11
282.5851765993
 21
108.2027622992
  0
LINE
  8
0
 62
7
  6
CONTINUOUS
 10
282.7425665494
 20
108.4253453012
 11
282.4277866492
 21
108.8705113053
  0
LINE
  8
0
 62
7
  6
CONTINUOUS
 10
283.4277866492
 20
108.4253453012
 11
282.9277866492
 21
109.1324520824
  0
LINE
  8
0
 62
7
  6
CONTINUOUS
 10
282.4277866492
 20
110.8086064219
 11
283.113006749
 21
109.8395588636
  0
LINE
  8
0
 62
7
  6
CONTINUOUS
 10
283.4277866492
 20
109.8395588636
 11
282.5851765993
 21
111.0311894239
  0
LINE
  8
0
 62
7
  6
CONTINUOUS
 10
282.7425665494
 20
111.253772426
 11
282.4277866492
 21
111.69893843
  0
LINE
  8
0
 62
7
  6
CONTINUOUS
 10
283.4277866492
 20
111.253772426
 11
282.9277866492
 21
111.9608792071
  0
POLYLINE
  8
0
 62
7
  6
CONTINUOUS
 66
1
 70
0
  0
VERTEX
  8
0
 62
7
  6
CONTINUOUS
 10
282.7096737322
 20
140.7750051441
  0
VERTEX
  8
0
 62
7
  6
CONTINUOUS
 10
282.7354531028
 20
140.8651713817
  0
VERTEX
  8
0
 62
7
  6
CONTINUOUS
 10
282.7615039613
 20
140.9522572358
  0
SEQEND
  0
LINE
  8
0
 62
7
  6
CONTINUOUS
 10
282.4277866492
 20
128.6695011785
 11
283.113006749
 21
129.6385487368
  0
LINE
  8
0
 62
7
  6
CONTINUOUS
 10
282.5851765993
 20
128.4469181765
 11
283.4277866492
 21
129.6385487368
  0
LINE
  8
0
 62
7
  6
CONTINUOUS
 10
282.7425665494
 20
128.2243351744
 11
282.4277866492
 21
127.7791691704
  0
LINE
  8
0
 62
7
  6
CONTINUOUS
 10
282.9277866492
 20
127.5172283932
 11
283.4277866492
 21
128.2243351744
  0
LINE
  8
0
 62
7
  6
CONTINUOUS
 10
282.4277866492
 20
125.8410740537
 11
283.113006749
 21
126.8101216121
  0
LINE
  8
0
 62
7
  6
CONTINUOUS
 10
282.5851765993
 20
125.6184910517
 11
283.4277866492
 21
126.8101216121
  0
LINE
  8
0
 62
7
  6
CONTINUOUS
 10
282.7425665494
 20
125.3959080497
 11
282.4277866492
 21
124.9507420456
  0
LINE
  8
0
 62
7
  6
CONTINUOUS
 10
282.9277866492
 20
124.6888012685
 11
283.4277866492
 21
125.3959080497
  0
LINE
  8
0
 62
7
  6
CONTINUOUS
 10
282.7425665494
 20
128.2243351744
 11
283.4277866492
 21
128.2243351744
  0
LINE
  8
0
 62
7
  6
CONTINUOUS
 10
283.4277866492
 20
129.6385487368
 11
283.113006749
 21
129.6385487368
  0
LINE
  8
0
 62
7
  6
CONTINUOUS
 10
282.7425665494
 20
131.0527622992
 11
283.4277866492
 21
131.0527622992
  0
LINE
  8
0
 62
7
  6
CONTINUOUS
 10
282.4277866492
 20
113.6370335466
 11
283.113006749
 21
112.6679859883
  0
LINE
  8
0
 62
7
  6
CONTINUOUS
 10
283.4277866492
 20
112.6679859883
 11
282.5851765993
 21
113.8596165487
  0
LINE
  8
0
 62
7
  6
CONTINUOUS
 10
282.7425665494
 20
114.0821995507
 11
282.4277866492
 21
114.5273655548
  0
LINE
  8
0
 62
7
  6
CONTINUOUS
 10
283.4277866492
 20
114.0821995507
 11
282.9277866492
 21
114.7893063319
  0
LINE
  8
0
 62
7
  6
CONTINUOUS
 10
282.4277866492
 20
116.4654606714
 11
283.113006749
 21
115.4964131131
  0
LINE
  8
0
 62
7
  6
CONTINUOUS
 10
283.4277866492
 20
115.4964131131
 11
282.5851765993
 21
116.6880436734
  0
LINE
  8
0
 62
7
  6
CONTINUOUS
 10
282.7425665494
 20
116.9106266754
 11
282.4277866492
 21
117.3557926795
  0
LINE
  8
0
 62
7
  6
CONTINUOUS
 10
283.4277866492
 20
116.9106266754
 11
282.9277866492
 21
117.6177334566
  0
POLYLINE
  8
0
 62
7
  6
CONTINUOUS
 66
1
 70
0
  0
VERTEX
  8
0
 62
7
  6
CONTINUOUS
 10
282.5022167459
 20
139.6433037256
  0
VERTEX
  8
0
 62
7
  6
CONTINUOUS
 10
282.5183535871
 20
139.8332268862
  0
VERTEX
  8
0
 62
7
  6
CONTINUOUS
 10
282.545690144
 20
140.0382427863
  0
VERTEX
  8
0
 62
7
  6
CONTINUOUS
 10
282.5855486143
 20
140.2614627837
  0
VERTEX
  8
0
 62
7
  6
CONTINUOUS
 10
282.6396147967
 20
140.5061255427
  0
VERTEX
  8
0
 62
7
  6
CONTINUOUS
 10
282.7096737322
 20
140.7750051441
  0
SEQEND
  0
LINE
  8
0
 62
7
  6
CONTINUOUS
 10
282.4277866492
 20
123.012646929
 11
283.113006749
 21
123.9816944873
  0
LINE
  8
0
 62
7
  6
CONTINUOUS
 10
282.5851765993
 20
122.790063927
 11
283.4277866492
 21
123.9816944873
  0
LINE
  8
0
 62
7
  6
CONTINUOUS
 10
282.7425665494
 20
122.5674809249
 11
282.4277866492
 21
122.1223149209
  0
LINE
  8
0
 62
7
  6
CONTINUOUS
 10
282.9277866492
 20
121.8603741438
 11
283.4277866492
 21
122.5674809249
  0
LINE
  8
0
 62
7
  6
CONTINUOUS
 10
282.4277866492
 20
120.1842198043
 11
283.113006749
 21
121.1532673626
  0
LINE
  8
0
 62
7
  6
CONTINUOUS
 10
282.5851765993
 20
119.9616368022
 11
283.4277866492
 21
121.1532673626
  0
LINE
  8
0
 62
7
  6
CONTINUOUS
 10
282.7425665494
 20
119.7390538002
 11
282.4277866492
 21
119.2938877961
  0
LINE
  8
0
 62
7
  6
CONTINUOUS
 10
282.9277866492
 20
119.031947019
 11
283.4277866492
 21
119.7390538002
  0
LINE
  8
0
 62
7
  6
CONTINUOUS
 10
283.4277866492
 20
132.4669758615
 11
283.113006749
 21
132.4669758615
  0
LINE
  8
0
 62
7
  6
CONTINUOUS
 10
282.7425665494
 20
133.8811894239
 11
283.4277866492
 21
133.8811894239
  0
LINE
  8
0
 62
7
  6
CONTINUOUS
 10
282.4277866492
 20
119.2938877961
 11
283.113006749
 21
118.3248402378
  0
LINE
  8
0
 62
7
  6
CONTINUOUS
 10
283.4277866492
 20
118.3248402378
 11
282.5851765993
 21
119.5164707982
  0
LINE
  8
0
 62
7
  6
CONTINUOUS
 10
282.7425665494
 20
119.7390538002
 11
282.4277866492
 21
120.1842198043
  0
LINE
  8
0
 62
7
  6
CONTINUOUS
 10
283.4277866492
 20
119.7390538002
 11
282.9277866492
 21
120.4461605814
  0
LINE
  8
0
 62
7
  6
CONTINUOUS
 10
282.4277866492
 20
122.1223149209
 11
283.113006749
 21
121.1532673626
  0
LINE
  8
0
 62
7
  6
CONTINUOUS
 10
283.4277866492
 20
121.1532673626
 11
282.5851765993
 21
122.3448979229
  0
LINE
  8
0
 62
7
  6
CONTINUOUS
 10
282.7425665494
 20
122.5674809249
 11
282.4277866492
 21
123.012646929
  0
LINE
  8
0
 62
7
  6
CONTINUOUS
 10
283.4277866492
 20
122.5674809249
 11
282.9277866492
 21
123.2745877061
  0
LINE
  8
0
 62
7
  6
CONTINUOUS
 10
282.4277866492
 20
89.4032673626
 11
282.4277866492
 21
152.903261435
  0
LINE
  8
0
 62
7
  6
CONTINUOUS
 10
282.4277866492
 20
117.3557926795
 11
283.113006749
 21
118.3248402378
  0
LINE
  8
0
 62
7
  6
CONTINUOUS
 10
282.5851765993
 20
117.1332096775
 11
283.4277866492
 21
118.3248402378
  0
LINE
  8
0
 62
7
  6
CONTINUOUS
 10
282.7425665494
 20
116.9106266754
 11
282.4277866492
 21
116.4654606714
  0
LINE
  8
0
 62
7
  6
CONTINUOUS
 10
282.9277866492
 20
116.2035198943
 11
283.4277866492
 21
116.9106266754
  0
LINE
  8
0
 62
7
  6
CONTINUOUS
 10
282.4277866492
 20
114.5273655548
 11
283.113006749
 21
115.4964131131
  0
LINE
  8
0
 62
7
  6
CONTINUOUS
 10
282.5851765993
 20
114.3047825527
 11
283.4277866492
 21
115.4964131131
  0
LINE
  8
0
 62
7
  6
CONTINUOUS
 10
282.7425665494
 20
114.0821995507
 11
282.4277866492
 21
113.6370335466
  0
LINE
  8
0
 62
7
  6
CONTINUOUS
 10
282.9277866492
 20
113.3750927695
 11
283.4277866492
 21
114.0821995507
  0
POLYLINE
  8
0
 62
7
  6
CONTINUOUS
 66
1
 70
0
  0
VERTEX
  8
0
 62
7
  6
CONTINUOUS
 10
282.5946224973
 20
137.8898185627
  0
VERTEX
  8
0
 62
7
  6
CONTINUOUS
 10
282.7176277786
 20
137.8940435872
  0
VERTEX
  8
0
 62
7
  6
CONTINUOUS
 10
282.9117716453
 20
137.9133013837
  0
VERTEX
  8
0
 62
7
  6
CONTINUOUS
 10
283.1178265985
 20
137.9462459963
  0
VERTEX
  8
0
 62
7
  6
CONTINUOUS
 10
283.3356314747
 20
137.9935030134
  0
SEQEND
  0
LINE
  8
0
 62
7
  6
CONTINUOUS
 10
283.4277866492
 20
135.2954029863
 11
283.113006749
 21
135.2954029863
  0
LINE
  8
0
 62
7
  6
CONTINUOUS
 10
282.7425665494
 20
136.7096165487
 11
283.4277866492
 21
136.7096165487
  0
LINE
  8
0
 62
7
  6
CONTINUOUS
 10
282.4277866492
 20
137.8877900221
 11
283.2608811027
 21
137.8877900235
  0
LINE
  8
0
 62
7
  6
CONTINUOUS
 10
282.4277866492
 20
124.9507420456
 11
283.113006749
 21
123.9816944873
  0
LINE
  8
0
 62
7
  6
CONTINUOUS
 10
283.4277866492
 20
123.9816944873
 11
282.5851765993
 21
125.1733250477
  0
LINE
  8
0
 62
7
  6
CONTINUOUS
 10
282.7425665494
 20
125.3959080497
 11
282.4277866492
 21
125.8410740537
  0
LINE
  8
0
 62
7
  6
CONTINUOUS
 10
283.4277866492
 20
125.3959080497
 11
282.9277866492
 21
126.1030148309
  0
LINE
  8
0
 62
7
  6
CONTINUOUS
 10
282.4277866492
 20
127.7791691704
 11
283.113006749
 21
126.8101216121
  0
LINE
  8
0
 62
7
  6
CONTINUOUS
 10
283.4277866492
 20
126.8101216121
 11
282.5851765993
 21
128.0017521724
  0
LINE
  8
0
 62
7
  6
CONTINUOUS
 10
282.7425665494
 20
128.2243351744
 11
282.4277866492
 21
128.6695011785
  0
LINE
  8
0
 62
7
  6
CONTINUOUS
 10
283.4277866492
 20
128.2243351744
 11
282.9277866492
 21
128.9314419556
  0
LINE
  8
0
 62
7
  6
CONTINUOUS
 10
282.4277866492
 20
111.69893843
 11
283.113006749
 21
112.6679859883
  0
LINE
  8
0
 62
7
  6
CONTINUOUS
 10
282.5851765993
 20
111.476355428
 11
283.4277866492
 21
112.6679859883
  0
LINE
  8
0
 62
7
  6
CONTINUOUS
 10
282.7425665494
 20
111.253772426
 11
282.4277866492
 21
110.8086064219
  0
LINE
  8
0
 62
7
  6
CONTINUOUS
 10
282.9277866492
 20
110.5466656448
 11
283.4277866492
 21
111.253772426
  0
LINE
  8
0
 62
7
  6
CONTINUOUS
 10
282.4277866492
 20
108.8705113053
 11
283.113006749
 21
109.8395588636
  0
LINE
  8
0
 62
7
  6
CONTINUOUS
 10
282.5851765993
 20
108.6479283032
 11
283.4277866492
 21
109.8395588636
  0
LINE
  8
0
 62
7
  6
CONTINUOUS
 10
282.7425665494
 20
108.4253453012
 11
282.4277866492
 21
107.9801792971
  0
LINE
  8
0
 62
7
  6
CONTINUOUS
 10
282.9277866492
 20
107.71823852
 11
283.4277866492
 21
108.4253453012
  0
LINE
  8
0
 62
7
  6
CONTINUOUS
 10
283.0770872029
 20
138.123830111
 11
283.4277866492
 21
138.123830111
  0
LINE
  8
0
 62
7
  6
CONTINUOUS
 10
282.4975980974
 20
139.5380436734
 11
283.4277866492
 21
139.5380436734
  0
LINE
  8
0
 62
7
  6
CONTINUOUS
 10
282.7615039613
 20
140.9522572358
 11
283.4277866492
 21
140.9522572358
  0
LINE
  8
0
 62
7
  6
CONTINUOUS
 10
282.4277866492
 20
130.6075962951
 11
283.113006749
 21
129.6385487368
  0
LINE
  8
0
 62
7
  6
CONTINUOUS
 10
283.4277866492
 20
129.6385487368
 11
282.5851765993
 21
130.8301792971
  0
LINE
  8
0
 62
7
  6
CONTINUOUS
 10
282.7425665494
 20
131.0527622992
 11
282.4277866492
 21
131.4979283032
  0
LINE
  8
0
 62
7
  6
CONTINUOUS
 10
283.4277866492
 20
131.0527622992
 11
282.9277866492
 21
131.7598690804
  0
LINE
  8
0
 62
7
  6
CONTINUOUS
 10
282.4277866492
 20
133.4360234199
 11
283.113006749
 21
132.4669758615
  0
LINE
  8
0
 62
7
  6
CONTINUOUS
 10
283.4277866492
 20
132.4669758615
 11
282.5851765993
 21
133.6586064219
  0
LINE
  8
0
 62
7
  6
CONTINUOUS
 10
282.7425665494
 20
133.8811894239
 11
282.4277866492
 21
134.326355428
  0
LINE
  8
0
 62
7
  6
CONTINUOUS
 10
283.4277866492
 20
133.8811894239
 11
282.9277866492
 21
134.5882962051
  0
LINE
  8
0
 62
7
  6
CONTINUOUS
 10
282.4277866492
 20
106.0420841805
 11
283.113006749
 21
107.0111317388
  0
LINE
  8
0
 62
7
  6
CONTINUOUS
 10
282.5851765993
 20
105.8195011785
 11
283.4277866492
 21
107.0111317388
  0
LINE
  8
0
 62
7
  6
CONTINUOUS
 10
282.7425665494
 20
105.5969181765
 11
282.4277866492
 21
105.1517521724
  0
LINE
  8
0
 62
7
  6
CONTINUOUS
 10
282.9277866492
 20
104.8898113953
 11
283.4277866492
 21
105.5969181765
  0
LINE
  8
0
 62
7
  6
CONTINUOUS
 10
282.4277866492
 20
103.2136570558
 11
283.113006749
 21
104.1827046141
  0
LINE
  8
0
 62
7
  6
CONTINUOUS
 10
282.5851765993
 20
102.9910740537
 11
283.4277866492
 21
104.1827046141
  0
LINE
  8
0
 62
7
  6
CONTINUOUS
 10
282.7425665494
 20
102.7684910517
 11
282.4277866492
 21
102.3233250477
  0
LINE
  8
0
 62
7
  6
CONTINUOUS
 10
282.9277866492
 20
102.0613842705
 11
283.4277866492
 21
102.7684910517
  0
LINE
  8
0
 62
7
  6
CONTINUOUS
 10
283.3159974272
 20
142.3664707982
 11
283.4277866492
 21
142.3664707982
  0
LINE
  8
0
 62
7
  6
CONTINUOUS
 10
282.7983579254
 20
143.7806843605
 11
283.4277866492
 21
143.7806843605
  0
POLYLINE
  8
0
 62
7
  6
CONTINUOUS
 66
1
 70
0
  0
VERTEX
  8
0
 62
7
  6
CONTINUOUS
 10
283.0770872029
 20
138.123830111
  0
VERTEX
  8
0
 62
7
  6
CONTINUOUS
 10
282.9150161488
 20
138.1817444046
  0
VERTEX
  8
0
 62
7
  6
CONTINUOUS
 10
282.7507161644
 20
138.2455400034
  0
VERTEX
  8
0
 62
7
  6
CONTINUOUS
 10
282.5873496908
 20
138.3137883201
  0
VERTEX
  8
0
 62
7
  6
CONTINUOUS
 10
282.4277866492
 20
138.3848652105
  0
SEQEND
  0
POLYLINE
  8
0
 62
7
  6
CONTINUOUS
 66
1
 70
0
  0
VERTEX
  8
0
 62
7
  6
CONTINUOUS
 10
283.3356314747
 20
137.9935030134
  0
VERTEX
  8
0
 62
7
  6
CONTINUOUS
 10
283.2432696362
 20
138.0318257
  0
VERTEX
  8
0
 62
7
  6
CONTINUOUS
 10
283.1571780735
 20
138.075330869
  0
VERTEX
  8
0
 62
7
  6
CONTINUOUS
 10
283.0770872029
 20
138.123830111
  0
SEQEND
  0
LINE
  8
0
 62
7
  6
CONTINUOUS
 10
282.4277866492
 20
136.2644505446
 11
283.113006749
 21
135.2954029863
  0
LINE
  8
0
 62
7
  6
CONTINUOUS
 10
283.4277866492
 20
135.2954029863
 11
282.5851765993
 21
136.4870335466
  0
LINE
  8
0
 62
7
  6
CONTINUOUS
 10
282.7425665494
 20
136.7096165487
 11
282.4277866492
 21
137.1547825527
  0
LINE
  8
0
 62
7
  6
CONTINUOUS
 10
283.4277866492
 20
136.7096165487
 11
282.9277866492
 21
137.4167233299
  0
LINE
  8
0
 62
7
  6
CONTINUOUS
 10
283.4277866492
 20
138.123830111
 11
282.4976622013
 21
139.4392247199
  0
LINE
  8
0
 62
7
  6
CONTINUOUS
 10
283.4277866492
 20
139.5380436734
 11
282.6675199986
 21
140.6132230817
  0
POLYLINE
  8
0
 62
7
  6
CONTINUOUS
 66
1
 70
0
  0
VERTEX
  8
0
 62
7
  6
CONTINUOUS
 10
282.7075463211
 20
138.5194700332
  0
VERTEX
  8
0
 62
7
  6
CONTINUOUS
 10
282.6476781491
 20
138.6372258367
  0
VERTEX
  8
0
 62
7
  6
CONTINUOUS
 10
282.5979536052
 20
138.7637577286
  0
VERTEX
  8
0
 62
7
  6
CONTINUOUS
 10
282.5581728481
 20
138.8991334226
  0
VERTEX
  8
0
 62
7
  6
CONTINUOUS
 10
282.5281731961
 20
139.0438119023
  0
VERTEX
  8
0
 62
7
  6
CONTINUOUS
 10
282.5079855141
 20
139.1980832479
  0
VERTEX
  8
0
 62
7
  6
CONTINUOUS
 10
282.4977119092
 20
139.3625978896
  0
VERTEX
  8
0
 62
7
  6
CONTINUOUS
 10
282.4975980974
 20
139.5380436734
  0
SEQEND
  0
LINE
  8
0
 62
7
  6
CONTINUOUS
 10
282.4277866492
 20
100.385229931
 11
283.113006749
 21
101.3542774893
  0
LINE
  8
0
 62
7
  6
CONTINUOUS
 10
282.5851765993
 20
100.162646929
 11
283.4277866492
 21
101.3542774893
  0
LINE
  8
0
 62
7
  6
CONTINUOUS
 10
282.7425665494
 20
99.940063927
 11
282.4277866492
 21
99.4948979229
  0
LINE
  8
0
 62
7
  6
CONTINUOUS
 10
282.9277866492
 20
99.2329571458
 11
283.4277866492
 21
99.940063927
  0
LINE
  8
0
 62
7
  6
CONTINUOUS
 10
282.4277866492
 20
97.5568028063
 11
283.113006749
 21
98.5258503646
  0
LINE
  8
0
 62
7
  6
CONTINUOUS
 10
282.5851765993
 20
97.3342198043
 11
283.4277866492
 21
98.5258503646
  0
LINE
  8
0
 62
7
  6
CONTINUOUS
 10
282.7425665494
 20
97.1116368022
 11
282.4277866492
 21
96.6664707982
  0
LINE
  8
0
 62
7
  6
CONTINUOUS
 10
282.9277866492
 20
96.404530021
 11
283.4277866492
 21
97.1116368022
  0
LINE
  8
0
 62
7
  6
CONTINUOUS
 10
282.9308762657
 20
145.1948979229
 11
283.4277866492
 21
145.1948979229
  0
LINE
  8
0
 62
7
  6
CONTINUOUS
 10
283.4277866492
 20
146.6091114853
 11
282.9540591534
 21
146.6091114853
  0
LINE
  8
0
 62
7
  6
CONTINUOUS
 10
282.4975980974
 20
139.5380436734
 11
282.4277866492
 21
139.5886886598
  0
POLYLINE
  8
0
 62
7
  6
CONTINUOUS
 66
1
 70
0
  0
VERTEX
  8
0
 62
7
  6
CONTINUOUS
 10
282.7615039613
 20
140.9522572358
  0
VERTEX
  8
0
 62
7
  6
CONTINUOUS
 10
282.5950229703
 20
141.1038762673
  0
VERTEX
  8
0
 62
7
  6
CONTINUOUS
 10
282.4277866492
 20
141.2591274172
  0
SEQEND
  0
POLYLINE
  8
0
 62
7
  6
CONTINUOUS
 66
1
 70
0
  0
VERTEX
  8
0
 62
7
  6
CONTINUOUS
 10
283.3159974272
 20
142.3664707982
  0
VERTEX
  8
0
 62
7
  6
CONTINUOUS
 10
283.0222594798
 20
142.6810527189
  0
VERTEX
  8
0
 62
7
  6
CONTINUOUS
 10
282.7260387207
 20
143.0077419561
  0
VERTEX
  8
0
 62
7
  6
CONTINUOUS
 10
282.4277866492
 20
143.3463409995
  0
SEQEND
  0
POLYLINE
  8
0
 62
7
  6
CONTINUOUS
 66
1
 70
0
  0
VERTEX
  8
0
 62
7
  6
CONTINUOUS
 10
282.9308762657
 20
145.1948979229
  0
VERTEX
  8
0
 62
7
  6
CONTINUOUS
 10
282.6818706659
 20
145.5267039038
  0
VERTEX
  8
0
 62
7
  6
CONTINUOUS
 10
282.4277866492
 20
145.8723310545
  0
SEQEND
  0
LINE
  8
0
 62
7
  6
CONTINUOUS
 10
283.4277866492
 20
140.9522572358
 11
282.9277866492
 21
141.659364017
  0
LINE
  8
0
 62
7
  6
CONTINUOUS
 10
283.4277866492
 20
142.3664707982
 11
282.9277866492
 21
143.0735775793
  0
LINE
  8
0
 62
7
  6
CONTINUOUS
 10
283.4277866492
 20
143.7806843605
 11
282.6907848503
 21
144.8229623
  0
LINE
  8
0
 62
7
  6
CONTINUOUS
 10
283.4277866492
 20
145.1948979229
 11
282.9277866492
 21
145.9020047041
  0
POLYLINE
  8
0
 62
7
  6
CONTINUOUS
 66
1
 70
0
  0
VERTEX
  8
0
 62
7
  6
CONTINUOUS
 10
282.7983579254
 20
143.7806843605
  0
VERTEX
  8
0
 62
7
  6
CONTINUOUS
 10
282.6213126332
 20
144.0831111053
  0
VERTEX
  8
0
 62
7
  6
CONTINUOUS
 10
282.4277866492
 20
144.4032348322
  0
SEQEND
  0
LINE
  8
0
 62
7
  6
CONTINUOUS
 10
282.4277866492
 20
94.7283756815
 11
283.113006749
 21
95.6974232398
  0
LINE
  8
0
 62
7
  6
CONTINUOUS
 10
282.5851765993
 20
94.5057926795
 11
283.4277866492
 21
95.6974232398
  0
LINE
  8
0
 62
7
  6
CONTINUOUS
 10
282.7425665494
 20
94.2832096775
 11
282.4277866492
 21
93.8380436734
  0
LINE
  8
0
 62
7
  6
CONTINUOUS
 10
282.9277866492
 20
93.5761028963
 11
283.4277866492
 21
94.2832096775
  0
LINE
  8
0
 62
7
  6
CONTINUOUS
 10
282.4301341216
 20
91.903268384
 11
283.113006749
 21
92.8689961151
  0
LINE
  8
0
 62
7
  6
CONTINUOUS
 10
282.7449141504
 20
91.9032685659
 11
283.4277866492
 21
92.8689961151
  0
LINE
  8
0
 62
7
  6
CONTINUOUS
 10
282.901514145
 20
148.0233250477
 11
283.4277866492
 21
148.0233250477
  0
LINE
  8
0
 62
7
  6
CONTINUOUS
 10
283.4277866492
 20
149.43753861
 11
282.9540591534
 21
149.43753861
  0
LINE
  8
0
 62
7
  6
CONTINUOUS
 10
282.4277866492
 20
150.4032615768
 11
283.1106559913
 21
150.4032616949
  0
LINE
  8
0
 62
7
  6
CONTINUOUS
 10
282.9540591534
 20
146.6091114853
 11
282.4277866492
 21
147.3533731982
  0
LINE
  8
0
 62
7
  6
CONTINUOUS
 10
283.4277866492
 20
146.6091114853
 11
282.6646503971
 21
147.6883491229
  0
LINE
  8
0
 62
7
  6
CONTINUOUS
 10
282.901514145
 20
148.0233250477
 11
282.4277866492
 21
148.6932768971
  0
LINE
  8
0
 62
7
  6
CONTINUOUS
 10
282.9277866492
 20
148.7304318288
 11
283.4277866492
 21
148.0233250477
  0
LINE
  8
0
 62
7
  6
CONTINUOUS
 10
282.4277866492
 20
150.181800323
 11
282.9540591534
 21
149.43753861
  0
LINE
  8
0
 62
7
  6
CONTINUOUS
 10
282.7449173638
 20
150.4032616147
 11
283.4277866492
 21
149.43753861
  0
LINE
  8
0
 62
2
  6
CONTINUOUS
 10
268.4777866492
 20
152.9032673626
 11
266.3777866492
 21
152.9032673626
  0
LINE
  8
DEFAULT_1
 62
2
  6
CENTER
 10
262.1777866492
 20
152.9032673626
 11
260.1777866492
 21
152.9032673626
  0
LINE
  8
DEFAULT_1
 62
2
  6
CENTER
 10
272.6777866492
 20
152.9032673626
 11
274.6777866492
 21
152.9032673626
  0
ARC
  8
SURFACE
 62
7
  6
CONTINUOUS
 10
156.4514057592
 20
166.1032673626
 40
1.8
 50
0.0
 51
90.0
  0
ARC
  8
0
 62
7
  6
CONTINUOUS
 10
60.0514057592
 20
76.2032673626
 40
1.8
 50
179.9999999984
 51
270.0
  0
ARC
  8
0
 62
7
  6
CONTINUOUS
 10
60.0514057592
 20
237.7519554974
 40
1.8
 50
90.0
 51
180.0
  0
ARC
  8
0
 62
7
  6
CONTINUOUS
 10
60.0514057592
 20
211.3519554974
 40
1.8
 50
180.0
 51
270.0
  0
ARC
  8
0
 62
7
  6
CONTINUOUS
 10
106.285628856
 20
237.7519554974
 40
1.8
 50
359.5
 51
90.0
  0
ARC
  8
0
 62
7
  6
CONTINUOUS
 10
106.0552395464
 20
211.3519555061
 40
1.8
 50
269.9999999976
 51
359.4999997218
  0
ARC
  8
0
 62
7
  6
CONTINUOUS
 10
72.785616179
 20
237.7519554974
 40
1.8
 50
359.4996
 51
90.0
  0
ARC
  8
0
 62
7
  6
CONTINUOUS
 10
93.5071826624
 20
237.7519554877
 40
1.8
 50
90.0000000027
 51
180.4999996924
  0
ARC
  8
0
 62
7
  6
CONTINUOUS
 10
93.737571988
 20
211.3519554974
 40
1.8
 50
180.4999999955
 51
269.9999994887
  0
ARC
  8
0
 62
7
  6
CONTINUOUS
 10
72.5550425486
 20
211.351955507
 40
1.8
 50
269.9999999973
 51
359.4995996924
  0
ARC
  8
SURFACE
 62
7
  6
CONTINUOUS
 10
148.5229546754
 20
231.3519554974
 40
1.8
 50
0.500522134
 51
90.0
  0
ARC
  8
SURFACE
 62
7
  6
CONTINUOUS
 10
139.4752395464
 20
211.3519554974
 40
1.8
 50
270.0
 51
359.5
  0
ARC
  8
SURFACE
 62
7
  6
CONTINUOUS
 10
139.705628856
 20
237.7519554974
 40
1.8
 50
359.5
 51
90.0
  0
ARC
  8
SURFACE
 62
7
  6
CONTINUOUS
 10
126.9271826623
 20
237.7519554974
 40
1.8
 50
90.0
 51
180.5
  0
ARC
  8
SURFACE
 62
7
  6
CONTINUOUS
 10
127.157571972
 20
211.3519554974
 40
1.8
 50
180.5
 51
270.0
  0
ARC
  8
SURFACE
 62
7
  6
CONTINUOUS
 10
156.4514057592
 20
211.3519554974
 40
1.8
 50
270.0
 51
360.0
  0
ARC
  8
SURFACE
 62
7
  6
CONTINUOUS
 10
156.4514057592
 20
237.7519554974
 40
1.8
 50
0.0
 51
90.0
  0
ARC
  8
0
 62
7
  6
CONTINUOUS
 10
66.7514057592
 20
211.0519554974
 40
1.5
 50
185.9484459312
 51
270.0
  0
ARC
  8
0
 62
7
  6
CONTINUOUS
 10
60.2514057592
 20
211.0519554974
 40
1.5
 50
270.0
 51
354.0513233311
  0
ARC
  8
0
 62
7
  6
CONTINUOUS
 10
256.4537866492
 20
143.9906845537
 40
20.19
 50
277.0
 51
342.7986888667
  0
ARC
  8
0
 62
7
  6
CONTINUOUS
 10
254.2277866492
 20
121.5622250593
 40
1.8
 50
97.0
 51
180.0
  0
ARC
  8
0
 62
7
  6
CONTINUOUS
 10
267.4277866492
 20
89.4032673626
 40
15.1
 50
214.9027634983
 51
244.5967897266
  0
ARC
  8
0
 62
7
  6
CONTINUOUS
 10
267.4277866492
 20
89.4032673626
 40
15.0
 50
180.0
 51
360.0
  0
ARC
  8
SURFACE
 62
7
  6
CONTINUOUS
 10
267.4277866492
 20
89.4032673626
 40
15.0
 50
359.1950365439
 51
359.2432540631
  0
ARC
  8
SURFACE
 62
7
  6
CONTINUOUS
 10
267.4277866492
 20
89.4032673626
 40
15.0
 50
189.6661156586
 51
190.6835576797
  0
ARC
  8
SURFACE
 62
7
  6
CONTINUOUS
 10
267.4277866492
 20
89.4032673626
 40
15.0
 50
185.7691264201
 51
187.2433456908
  0
ARC
  8
SURFACE
 62
7
  6
CONTINUOUS
 10
267.4277866492
 20
89.4032673626
 40
15.0
 50
180.7698268562
 51
180.8194782838
  0
ARC
  8
SURFACE
 62
7
  6
CONTINUOUS
 10
267.4277866492
 20
89.4032673626
 40
15.0
 50
357.5392027971
 51
359.1732746803
  0
ARC
  8
SURFACE
 62
7
  6
CONTINUOUS
 10
267.4277866492
 20
89.4032673626
 40
15.0
 50
314.3667228634
 51
357.4648315339
  0
CIRCLE
  8
0
 62
7
  6
CONTINUOUS
 10
267.4277866492
 20
89.4032673626
 40
5.25
  0
ARC
  8
0
 62
7
  6
CONTINUOUS
 10
267.5696954108
 20
153.2087202927
 40
16.5
 50
304.471190007
 51
315.5250560978
  0
ARC
  8
0
 62
7
  6
CONTINUOUS
 10
267.4277866492
 20
152.9032673626
 40
15.0
 50
359.9999773584
 51
180.0000201205
  0
ARC
  8
SURFACE
 62
7
  6
CONTINUOUS
 10
267.4277866492
 20
152.9032673626
 40
15.0
 50
359.9999795886
 51
180.0000198738
  0
CIRCLE
  8
0
 62
7
  6
CONTINUOUS
 10
267.4277866492
 20
152.9032673626
 40
5.25
  0
ARC
  8
0
 62
7
  6
CONTINUOUS
 10
278.6065349375
 20
137.1327079369
 40
3.0
 50
124.471190007
 51
162.7986888667
  0
ARC
  8
SURFACE
 62
7
  6
CONTINUOUS
 10
280.6277866492
 20
140.387790014
 40
1.8
 50
4.3044675963
 51
133.3065041361
  0
ARC
  8
0
 62
7
  6
CONTINUOUS
 10
280.6277866492
 20
140.3877902783
 40
1.7999999338
 50
359.9999929462
 51
135.5250865281
  0
ENDSEC
  0
EOF
