  0
SECTION
  2
HEADER
  9
$EXTMAX
 10
420.0
 20
297.0
 30
0.0
  9
$EXTMIN
 10
0.0
 20
0.0
 30
0.0
  9
$LIMMIN
 10
0.0
 20
0.0
  9
$LIMMAX
 10
420.0
 20
297.0
  9
$VIEWCTR
 10
210.0
 20
148.5
  9
$VIEWSIZE
 40
297.0
  9
$CLAYER
  8
0
  9
$LTSCALE
 40
23.1
  9
$CELTYPE
  6
BYLAYER
  9
$DIMSCALE
 40
1.0
  9
$DIMASZ
 40
3.5
  9
$DIMEXO
 40
2.625
  9
$DIMDLI
 40
15.96
  9
$DIMEXE
 40
7.56
  9
$DIMCEN
 40
3.78
  9
$DIMLFAC
 40
1.0
  9
$DIMBLK
  1
_FILLED
  9
$DIMTXT
 40
3.5
  9
$PDMODE
 70
3
  9
$PDSIZE
 40
0.3125
  9
$TILEMODE
 70
1
  0
ENDSEC
  0
SECTION
  2
TABLES
  0
TABLE
  2
LTYPE
 70
6
  0
LTYPE
  2
BYBLOCK
 70
0
  3

 72
65
 73
0
 40
0.0
  0
LTYPE
  2
BYLAYER
 70
0
  3

 72
65
 73
0
 40
0.0
  0
LTYPE
  2
CONTINUOUS
 70
64
  3
Solid line
 72
65
 73
0
 40
0.0
  0
LTYPE
  2
CENTER
 70
64
  3
____ _ ____ _ ____ _ ____ _ ____ _ ____ _ ____
 72
65
 73
4
 40
0.6
 49
0.375
 49
-0.075
 49
0.075
 49
-0.075
  0
LTYPE
  2
HIDDEN
 70
64
  3
- - - - - - - - - - - - - - - - - - - -
 72
65
 73
2
 40
0.2
 49
0.1
 49
-0.1
  0
LTYPE
  2
PHANTOM
 70
64
  3
_____ _ _ _____ _ _ _____ _ _ _____
 72
65
 73
6
 40
0.8
 49
0.45
 49
-0.05
 49
0.1
 49
-0.05
 49
0.1
 49
-0.05
  0
LTYPE
  2
DOT
 70
64
  3
. . . . . . . . . . . . . . . . . . . .
 72
65
 73
2
 40
0.2
 49
0.1
 49
-0.1
  0
LTYPE
  2
DASHED
 70
64
  3
- - - - - - - - - - - - - - - - - - - -
 72
65
 73
2
 40
0.2
 49
0.1
 49
-0.1
  0
ENDTAB
  0
TABLE
  2
LAYER
 70
36
  0
LAYER
  2
0
 70
0
 62
7
  6
CONTINUOUS
  0
LAYER
  2
DEFAULT_1
 70
0
 62
7
  6
CENTER
  0
LAYER
  2
DEFAULT_2
 70
0
 62
8
  6
HIDDEN
  0
LAYER
  2
DEFAULT_3
 70
0
 62
7
  6
PHANTOM
  0
LAYER
  2
1_DATUMPLANE
 70
0
 62
7
  6
CONTINUOUS
  0
LAYER
  2
3_CURVE
 70
0
 62
7
  6
CONTINUOUS
  0
LAYER
  2
6_DIM
 70
0
 62
7
  6
CONTINUOUS
  0
LAYER
  2
CSYS
 70
0
 62
7
  6
CONTINUOUS
  0
LAYER
  2
CURVE
 70
0
 62
7
  6
CONTINUOUS
  0
LAYER
  2
SURFACE
 70
0
 62
7
  6
CONTINUOUS
  0
ENDTAB
  0
TABLE
  2
STYLE
 70
1
  0
STYLE
  2
STANDARD
 70
0
 40
0.0
 41
0.8
 50
0.0
 71
0
 42
0.2
  3
txt
  4

  0
STYLE
  2
TEXTSTYLE_1
 70
0
 40
0.0
 41
0.8
 50
0.0
 71
0
 42
0.2
  3
gdt
  4

  0
STYLE
  2
TEXTSTYLE_2
 70
0
 40
0.0
 41
0.6
 50
0.0
 71
0
 42
0.2
  3
txt
  4

  0
STYLE
  2
TEXTSTYLE_3
 70
0
 40
0.0
 41
1.0
 50
0.0
 71
0
 42
0.2
  3
ftb_____.ttf
  4

  0
STYLE
  2
TEXTSTYLE_4
 70
0
 40
0.0
 41
1.0
 50
0.0
 71
0
 42
0.2
  3
fti_____.ttf
  4

  0
STYLE
  2
TEXTSTYLE_5
 70
0
 40
0.0
 41
1.0
 50
0.0
 71
0
 42
0.2
  3
frutiger light.ttf
  4

  0
STYLE
  2
TEXTSTYLE_6
 70
0
 40
0.0
 41
0.7
 50
0.0
 71
0
 42
0.2
  3
txt
  4

  0
STYLE
  2
TEXTSTYLE_7
 70
0
 40
0.0
 41
0.8
 50
0.0
 71
0
 42
0.2
  3
txt
  4

  0
ENDTAB
  0
ENDSEC
  0
SECTION
  2
BLOCKS
  0
BLOCK
  8
0
 62
2
  6
CONTINUOUS
  2
SYMBOL_5_BL1
 70
64
 10
382.7840918555
 20
35.5067593403
  0
TEXT
  8
0
 62
7
  6
CONTINUOUS
 10
373.842376864
 20
30.5995157174
  7
TEXTSTYLE_4
 40
1.0655737705
  1
The brand for plastic modular belts and chains
 41
1.0
 72
0
  0
LINE
  8
0
 62
7
  6
CONTINUOUS
 10
358.7621602445
 20
36.0805298321
 11
358.7621602445
 21
33.9493822911
  0
LINE
  8
0
 62
7
  6
CONTINUOUS
 10
359.0512227376
 20
30.9584509954
 11
359.0512227376
 21
31.0552420547
  0
LINE
  8
0
 62
7
  6
CONTINUOUS
 10
358.7621602445
 20
31.0229783683
 11
358.8199727462
 21
30.8293962497
  0
LINE
  8
0
 62
7
  6
CONTINUOUS
 10
360.1556028675
 20
33.867415078
 11
360.1556028675
 21
36.0805298321
  0
LINE
  8
0
 62
7
  6
CONTINUOUS
 10
361.0746601894
 20
32.0231527829
 11
361.0746601894
 21
30.5067593403
  0
LINE
  8
0
 62
7
  6
CONTINUOUS
 10
361.3637227445
 20
30.5067593403
 11
361.3637227445
 21
31.2488242184
  0
LINE
  8
0
 62
7
  6
CONTINUOUS
 10
361.3637227445
 20
31.3778789641
 11
361.3637227445
 21
32.0231527829
  0
LINE
  8
0
 62
7
  6
CONTINUOUS
 10
358.8199727462
 20
31.216560532
 11
358.7621602445
 21
31.0229783683
  0
LINE
  8
0
 62
7
  6
CONTINUOUS
 10
359.1668477307
 20
30.7971325633
 11
359.0512227376
 21
30.9584509954
  0
LINE
  8
0
 62
7
  6
CONTINUOUS
 10
360.2652852997
 20
31.3133515913
 11
360.3230977445
 21
31.216560532
  0
LINE
  8
0
 62
7
  6
CONTINUOUS
 10
360.6121602997
 20
31.216560532
 11
360.5543476894
 21
31.3456152777
  0
LINE
  8
0
 62
7
  6
CONTINUOUS
 10
362.0408487691
 20
36.0805298321
 11
362.0408487691
 21
34.2772511436
  0
LINE
  8
0
 62
7
  6
CONTINUOUS
 10
362.0408487691
 20
32.9657757338
 11
362.0408487691
 21
32.3100380288
  0
LINE
  8
0
 62
7
  6
CONTINUOUS
 10
362.4043477445
 20
31.1520331591
 11
362.4043477445
 21
30.5067593403
  0
LINE
  8
0
 62
7
  6
CONTINUOUS
 10
362.6934101343
 20
30.5067593403
 11
362.6934101343
 21
31.1520331591
  0
LINE
  8
0
 62
7
  6
CONTINUOUS
 10
359.0512227376
 20
31.0552420547
 11
359.1090352445
 21
31.1842968456
  0
LINE
  8
0
 62
7
  6
CONTINUOUS
 10
358.8199727462
 20
30.8293962497
 11
358.9355977445
 21
30.7003414814
  0
LINE
  8
0
 62
7
  6
CONTINUOUS
 10
362.3465351343
 20
31.2810879048
 11
362.4043477445
 21
31.1520331591
  0
LINE
  8
0
 62
7
  6
CONTINUOUS
 10
363.1559103548
 20
30.7971325633
 11
363.2137226343
 21
30.668077795
  0
LINE
  8
0
 62
7
  6
CONTINUOUS
 10
362.6934101343
 20
31.1520331591
 11
362.6355978548
 21
31.3133515913
  0
LINE
  8
0
 62
7
  6
CONTINUOUS
 10
363.1559103548
 20
31.3456152777
 11
363.1559103548
 21
31.2810879048
  0
LINE
  8
0
 62
7
  6
CONTINUOUS
 10
363.1559103548
 20
30.8939236226
 11
363.1559103548
 21
30.7971325633
  0
LINE
  8
0
 62
7
  6
CONTINUOUS
 10
363.4342913921
 20
32.3100380288
 11
363.4342913921
 21
36.0805298321
  0
LINE
  8
0
 62
7
  6
CONTINUOUS
 10
363.4449727445
 20
30.7648688543
 11
363.4449727445
 21
30.8293962497
  0
LINE
  8
0
 62
7
  6
CONTINUOUS
 10
363.7621602445
 20
36.0805298321
 11
363.7621602445
 21
32.3100380288
  0
LINE
  8
0
 62
7
  6
CONTINUOUS
 10
360.5543476894
 20
30.7003414814
 11
360.6121602997
 21
30.8293962497
  0
LINE
  8
0
 62
7
  6
CONTINUOUS
 10
364.9480979651
 20
30.6035504109
 11
364.890285024
 21
30.7648688543
  0
LINE
  8
0
 62
7
  6
CONTINUOUS
 10
364.6012229651
 20
31.2810879048
 11
364.6012229651
 21
31.1842968456
  0
LINE
  8
0
 62
7
  6
CONTINUOUS
 10
364.6012229651
 20
31.0552420547
 11
364.6012229651
 21
30.8616599362
  0
LINE
  8
0
 62
7
  6
CONTINUOUS
 10
364.890285024
 20
30.7648688543
 11
364.890285024
 21
31.2810879048
  0
LINE
  8
0
 62
7
  6
CONTINUOUS
 10
365.1556028675
 20
32.3100380288
 11
365.1556028675
 21
34.1133167174
  0
LINE
  8
0
 62
7
  6
CONTINUOUS
 10
365.1556028675
 20
35.4247921272
 11
365.1556028675
 21
36.0805298321
  0
LINE
  8
0
 62
7
  6
CONTINUOUS
 10
365.4684104651
 20
32.0231527829
 11
365.4684104651
 21
31.8618343508
  0
LINE
  8
0
 62
7
  6
CONTINUOUS
 10
365.4684104651
 20
31.5391973962
 11
365.4684104651
 21
30.5067593403
  0
LINE
  8
0
 62
7
  6
CONTINUOUS
 10
365.757472524
 20
30.5067593403
 11
365.757472524
 21
31.5391973962
  0
LINE
  8
0
 62
7
  6
CONTINUOUS
 10
365.757472524
 20
31.8618343508
 11
365.757472524
 21
32.0231527829
  0
LINE
  8
0
 62
7
  6
CONTINUOUS
 10
360.3230977445
 20
30.8293962497
 11
360.2652852997
 21
30.7326051679
  0
LINE
  8
0
 62
7
  6
CONTINUOUS
 10
362.6355978548
 20
31.3133515913
 11
362.5777852445
 21
31.3778789641
  0
LINE
  8
0
 62
7
  6
CONTINUOUS
 10
363.5027853548
 20
30.7003414814
 11
363.4449727445
 21
30.7648688543
  0
LINE
  8
0
 62
7
  6
CONTINUOUS
 10
364.6590352445
 20
30.5712867188
 11
364.716847524
 21
30.5067593403
  0
LINE
  8
0
 62
7
  6
CONTINUOUS
 10
364.6012229651
 20
30.668077795
 11
364.6590352445
 21
30.5712867188
  0
LINE
  8
0
 62
7
  6
CONTINUOUS
 10
365.0059102445
 20
30.5067593403
 11
364.9480979651
 21
30.6035504109
  0
LINE
  8
0
 62
7
  6
CONTINUOUS
 10
364.890285024
 20
31.2810879048
 11
364.8324727445
 21
31.3778789641
  0
LINE
  8
0
 62
7
  6
CONTINUOUS
 10
366.2199727445
 20
31.5391973962
 11
366.2199727445
 21
30.5067593403
  0
LINE
  8
0
 62
7
  6
CONTINUOUS
 10
366.5090354651
 20
30.5067593403
 11
366.5090354651
 21
31.2488242184
  0
LINE
  8
0
 62
7
  6
CONTINUOUS
 10
366.5090354651
 20
31.3778789641
 11
366.5090354651
 21
31.5391973962
  0
LINE
  8
0
 62
7
  6
CONTINUOUS
 10
367.0408487691
 20
34.5231527829
 11
367.0408487691
 21
32.3100380288
  0
LINE
  8
0
 62
7
  6
CONTINUOUS
 10
358.9355977445
 20
31.3456152777
 11
358.8199727462
 21
31.216560532
  0
LINE
  8
0
 62
7
  6
CONTINUOUS
 10
359.1090352445
 20
31.1842968456
 11
359.1668477307
 21
31.2488242184
  0
LINE
  8
0
 62
7
  6
CONTINUOUS
 10
358.9355977445
 20
30.7003414814
 11
359.0512227376
 21
30.6358140973
  0
LINE
  8
0
 62
7
  6
CONTINUOUS
 10
359.3402852307
 20
30.7003414814
 11
359.1668477307
 21
30.7971325633
  0
LINE
  8
0
 62
7
  6
CONTINUOUS
 10
364.543410024
 20
31.3456152777
 11
364.6012229651
 21
31.2810879048
  0
LINE
  8
0
 62
7
  6
CONTINUOUS
 10
367.491847524
 20
31.2810879048
 11
367.5496604651
 21
31.1197694727
  0
LINE
  8
0
 62
7
  6
CONTINUOUS
 10
367.838722524
 20
31.1197694727
 11
367.7809102445
 21
31.2810879048
  0
LINE
  8
0
 62
7
  6
CONTINUOUS
 10
367.5496604651
 20
31.1197694727
 11
367.5496604651
 21
30.5067593403
  0
LINE
  8
0
 62
7
  6
CONTINUOUS
 10
367.838722524
 20
30.5067593403
 11
367.838722524
 21
31.1197694727
  0
LINE
  8
0
 62
7
  6
CONTINUOUS
 10
368.3012227445
 20
31.3456152777
 11
368.3012227445
 21
31.2810879048
  0
LINE
  8
0
 62
7
  6
CONTINUOUS
 10
368.4342913921
 20
32.3100380288
 11
368.4342913921
 21
34.4411855698
  0
LINE
  8
0
 62
7
  6
CONTINUOUS
 10
368.7621602445
 20
36.0805298321
 11
368.7621602445
 21
32.3100380288
  0
LINE
  8
0
 62
7
  6
CONTINUOUS
 10
363.4449727445
 20
30.8293962497
 11
363.5027853548
 21
30.926187309
  0
LINE
  8
0
 62
7
  6
CONTINUOUS
 10
359.0512227376
 20
30.6358140973
 11
359.2246602583
 21
30.5712867188
  0
LINE
  8
0
 62
7
  6
CONTINUOUS
 10
360.5543476894
 20
31.3456152777
 11
360.3809101894
 21
31.4424063369
  0
LINE
  8
0
 62
7
  6
CONTINUOUS
 10
363.2137226343
 20
30.668077795
 11
363.3871601343
 21
30.5712867188
  0
LINE
  8
0
 62
7
  6
CONTINUOUS
 10
362.2309102445
 20
31.3456152777
 11
362.3465351343
 21
31.2810879048
  0
LINE
  8
0
 62
7
  6
CONTINUOUS
 10
362.5777852445
 20
31.3778789641
 11
362.4621603548
 21
31.4424063369
  0
LINE
  8
0
 62
7
  6
CONTINUOUS
 10
368.3012227445
 20
30.7648688543
 11
368.4168479651
 21
30.6358140973
  0
LINE
  8
0
 62
7
  6
CONTINUOUS
 10
368.6480977445
 20
30.7003414814
 11
368.5902854651
 21
30.7648688543
  0
LINE
  8
0
 62
7
  6
CONTINUOUS
 10
368.3012227445
 20
31.2810879048
 11
368.4168479651
 21
31.1520331591
  0
LINE
  8
0
 62
7
  6
CONTINUOUS
 10
367.7809102445
 20
31.2810879048
 11
367.7230979651
 21
31.3778789641
  0
LINE
  8
0
 62
7
  6
CONTINUOUS
 10
370.1512223035
 20
30.7003414814
 11
370.1512223035
 21
30.7648688543
  0
LINE
  8
0
 62
7
  6
CONTINUOUS
 10
370.1556028675
 20
32.3100380288
 11
370.1556028675
 21
36.0805298321
  0
LINE
  8
0
 62
7
  6
CONTINUOUS
 10
363.2137226343
 20
31.4101426505
 11
363.1559103548
 21
31.3456152777
  0
LINE
  8
0
 62
7
  6
CONTINUOUS
 10
360.091847717
 20
31.3778789641
 11
360.2652852997
 21
31.3133515913
  0
LINE
  8
0
 62
7
  6
CONTINUOUS
 10
364.8324727445
 20
31.3778789641
 11
364.716847524
 21
31.4424063369
  0
LINE
  8
0
 62
7
  6
CONTINUOUS
 10
368.6480977445
 20
31.216560532
 11
368.5902854651
 21
31.2810879048
  0
LINE
  8
0
 62
7
  6
CONTINUOUS
 10
369.8043479651
 20
30.8293962497
 11
369.8621602445
 21
30.7648688543
  0
LINE
  8
0
 62
7
  6
CONTINUOUS
 10
370.1512223035
 20
30.7648688543
 11
370.0355977445
 21
30.8939236226
  0
LINE
  8
0
 62
7
  6
CONTINUOUS
 10
369.8043479651
 20
31.3456152777
 11
369.8621602445
 21
31.2810879048
  0
LINE
  8
0
 62
7
  6
CONTINUOUS
 10
370.1512223035
 20
31.2810879048
 11
370.0355977445
 21
31.4101426505
  0
LINE
  8
0
 62
7
  6
CONTINUOUS
 10
363.4449727445
 20
31.2810879048
 11
363.5027853548
 21
31.3456152777
  0
LINE
  8
0
 62
7
  6
CONTINUOUS
 10
363.2715352445
 20
31.0229783683
 11
363.1559103548
 21
30.8939236226
  0
LINE
  8
0
 62
7
  6
CONTINUOUS
 10
364.6012229651
 20
30.8616599362
 11
364.543410024
 21
30.7971325633
  0
LINE
  8
0
 62
7
  6
CONTINUOUS
 10
364.543410024
 20
30.6035504109
 11
364.6012229651
 21
30.668077795
  0
LINE
  8
0
 62
7
  6
CONTINUOUS
 10
363.3871601343
 20
30.5712867188
 11
363.5027853548
 21
30.5390230296
  0
LINE
  8
0
 62
7
  6
CONTINUOUS
 10
360.3809101894
 20
31.4424063369
 11
360.1496602445
 21
31.5069337098
  0
LINE
  8
0
 62
7
  6
CONTINUOUS
 10
363.7340351343
 20
30.6358140973
 11
363.5027853548
 21
30.7003414814
  0
LINE
  8
0
 62
7
  6
CONTINUOUS
 10
362.4621603548
 20
31.4424063369
 11
362.2887228548
 21
31.5069337098
  0
LINE
  8
0
 62
7
  6
CONTINUOUS
 10
364.716847524
 20
31.4424063369
 11
364.543410024
 21
31.5069337098
  0
LINE
  8
0
 62
7
  6
CONTINUOUS
 10
367.3762229651
 20
31.3456152777
 11
367.491847524
 21
31.2810879048
  0
LINE
  8
0
 62
7
  6
CONTINUOUS
 10
367.7230979651
 20
31.3778789641
 11
367.6074727445
 21
31.4424063369
  0
LINE
  8
0
 62
7
  6
CONTINUOUS
 10
359.2246602583
 20
30.5712867188
 11
359.3980977583
 21
30.5390230296
  0
LINE
  8
0
 62
7
  6
CONTINUOUS
 10
359.6871602721
 20
30.6358140973
 11
359.3402852307
 21
30.7003414814
  0
LINE
  8
0
 62
7
  6
CONTINUOUS
 10
362.1152853548
 20
31.3778789641
 11
362.2309102445
 21
31.3456152777
  0
LINE
  8
0
 62
7
  6
CONTINUOUS
 10
364.4277854651
 20
31.3778789641
 11
364.543410024
 21
31.3456152777
  0
LINE
  8
0
 62
7
  6
CONTINUOUS
 10
368.7637229651
 20
30.668077795
 11
368.6480977445
 21
30.7003414814
  0
LINE
  8
0
 62
7
  6
CONTINUOUS
 10
367.2605977445
 20
31.3778789641
 11
367.3762229651
 21
31.3456152777
  0
LINE
  8
0
 62
7
  6
CONTINUOUS
 10
368.4168479651
 20
30.6358140973
 11
368.5902854651
 21
30.5712867188
  0
LINE
  8
0
 62
7
  6
CONTINUOUS
 10
367.6074727445
 20
31.4424063369
 11
367.4340352445
 21
31.5069337098
  0
LINE
  8
0
 62
7
  6
CONTINUOUS
 10
368.8215352445
 20
31.1520331591
 11
368.6480977445
 21
31.216560532
  0
LINE
  8
0
 62
7
  6
CONTINUOUS
 10
369.6309104651
 20
30.8939236226
 11
369.8043479651
 21
30.8293962497
  0
LINE
  8
0
 62
7
  6
CONTINUOUS
 10
370.0355977445
 20
31.4101426505
 11
369.8621602445
 21
31.4746700234
  0
LINE
  8
0
 62
7
  6
CONTINUOUS
 10
368.4168479651
 20
31.1520331591
 11
368.6480977445
 21
31.0552420547
  0
LINE
  8
0
 62
7
  6
CONTINUOUS
 10
370.0355977445
 20
30.8939236226
 11
369.8043479651
 21
30.9907146818
  0
LINE
  8
0
 62
7
  6
CONTINUOUS
 10
368.5902854651
 20
31.2810879048
 11
368.6480977445
 21
31.3456152777
  0
LINE
  8
0
 62
7
  6
CONTINUOUS
 10
359.0512227376
 20
31.4101426505
 11
358.9355977445
 21
31.3456152777
  0
LINE
  8
0
 62
7
  6
CONTINUOUS
 10
359.1668477307
 20
31.2488242184
 11
359.3402852307
 21
31.3456152777
  0
LINE
  8
0
 62
7
  6
CONTINUOUS
 10
361.4793477997
 20
31.4424063369
 11
361.3637227445
 21
31.3778789641
  0
LINE
  8
0
 62
7
  6
CONTINUOUS
 10
361.3637227445
 20
31.2488242184
 11
361.4793477997
 21
31.3133515913
  0
LINE
  8
0
 62
7
  6
CONTINUOUS
 10
360.3809101894
 20
30.6035504109
 11
360.5543476894
 21
30.7003414814
  0
LINE
  8
0
 62
7
  6
CONTINUOUS
 10
359.3980977583
 20
30.5390230296
 11
359.744972717
 21
30.5067593403
  0
LINE
  8
0
 62
7
  6
CONTINUOUS
 10
363.5027853548
 20
30.5390230296
 11
363.7340351343
 21
30.5067593403
  0
LINE
  8
0
 62
7
  6
CONTINUOUS
 10
361.8840352445
 20
31.4101426505
 11
362.1152853548
 21
31.3778789641
  0
LINE
  8
0
 62
7
  6
CONTINUOUS
 10
364.1965353548
 20
31.4101426505
 11
364.4277854651
 21
31.3778789641
  0
LINE
  8
0
 62
7
  6
CONTINUOUS
 10
368.6480977445
 20
31.0552420547
 11
369.6309104651
 21
30.8939236226
  0
LINE
  8
0
 62
7
  6
CONTINUOUS
 10
369.8043479651
 20
30.9907146818
 11
368.8215352445
 21
31.1520331591
  0
LINE
  8
0
 62
7
  6
CONTINUOUS
 10
362.2887228548
 20
31.5069337098
 11
362.1152853548
 21
31.5391973962
  0
LINE
  8
0
 62
7
  6
CONTINUOUS
 10
368.5902854651
 20
30.5712867188
 11
368.7637229651
 21
30.5390230296
  0
LINE
  8
0
 62
7
  6
CONTINUOUS
 10
367.4340352445
 20
31.5069337098
 11
367.2605977445
 21
31.5391973962
  0
LINE
  8
0
 62
7
  6
CONTINUOUS
 10
369.6887227445
 20
31.3778789641
 11
369.8043479651
 21
31.3456152777
  0
LINE
  8
0
 62
7
  6
CONTINUOUS
 10
369.8621602445
 20
30.7648688543
 11
369.8043479651
 21
30.7003414814
  0
LINE
  8
0
 62
7
  6
CONTINUOUS
 10
368.4168479651
 20
31.4424063369
 11
368.3012227445
 21
31.3456152777
  0
LINE
  8
0
 62
7
  6
CONTINUOUS
 10
363.3293478548
 20
31.4746700234
 11
363.2137226343
 21
31.4101426505
  0
LINE
  8
0
 62
7
  6
CONTINUOUS
 10
363.3871601343
 20
31.0875057863
 11
363.2715352445
 21
31.0229783683
  0
LINE
  8
0
 62
7
  6
CONTINUOUS
 10
363.5027853548
 20
30.926187309
 11
363.6184102445
 21
30.9907146818
  0
LINE
  8
0
 62
7
  6
CONTINUOUS
 10
361.0746601894
 20
30.5067593403
 11
361.3637227445
 21
30.5067593403
  0
LINE
  8
0
 62
7
  6
CONTINUOUS
 10
362.4043477445
 20
30.5067593403
 11
362.6934101343
 21
30.5067593403
  0
LINE
  8
0
 62
7
  6
CONTINUOUS
 10
363.7340351343
 20
30.5067593403
 11
364.0809101343
 21
30.5067593403
  0
LINE
  8
0
 62
7
  6
CONTINUOUS
 10
364.716847524
 20
30.5067593403
 11
365.0059102445
 21
30.5067593403
  0
LINE
  8
0
 62
7
  6
CONTINUOUS
 10
365.4684104651
 20
30.5067593403
 11
365.757472524
 21
30.5067593403
  0
LINE
  8
0
 62
7
  6
CONTINUOUS
 10
366.2199727445
 20
30.5067593403
 11
366.5090354651
 21
30.5067593403
  0
LINE
  8
0
 62
7
  6
CONTINUOUS
 10
367.5496604651
 20
30.5067593403
 11
367.838722524
 21
30.5067593403
  0
LINE
  8
0
 62
7
  6
CONTINUOUS
 10
369.1105979651
 20
30.5067593403
 11
369.4574729651
 21
30.5067593403
  0
LINE
  8
0
 62
7
  6
CONTINUOUS
 10
369.4574729651
 20
30.6358140973
 11
369.1105979651
 21
30.6358140973
  0
LINE
  8
0
 62
7
  6
CONTINUOUS
 10
364.0809101343
 20
30.6358140973
 11
363.7340351343
 21
30.6358140973
  0
LINE
  8
0
 62
7
  6
CONTINUOUS
 10
368.5902854651
 20
30.7648688543
 11
368.3012227445
 21
30.7648688543
  0
LINE
  8
0
 62
7
  6
CONTINUOUS
 10
360.6121602997
 20
30.8293962497
 11
360.3230977445
 21
30.8293962497
  0
LINE
  8
0
 62
7
  6
CONTINUOUS
 10
359.6871602721
 20
31.4101426505
 11
360.091847717
 21
31.3778789641
  0
LINE
  8
0
 62
7
  6
CONTINUOUS
 10
360.1496602445
 20
31.5069337098
 11
359.744972717
 21
31.5391973962
  0
LINE
  8
0
 62
7
  6
CONTINUOUS
 10
368.7637229651
 20
30.5390230296
 11
369.1105979651
 21
30.5067593403
  0
LINE
  8
0
 62
7
  6
CONTINUOUS
 10
369.1105979651
 20
30.6358140973
 11
368.7637229651
 21
30.668077795
  0
LINE
  8
0
 62
7
  6
CONTINUOUS
 10
364.543410024
 20
31.5069337098
 11
364.1965353548
 21
31.5391973962
  0
LINE
  8
0
 62
7
  6
CONTINUOUS
 10
369.3418477445
 20
31.4101426505
 11
369.6887227445
 21
31.3778789641
  0
LINE
  8
0
 62
7
  6
CONTINUOUS
 10
369.6887227445
 20
31.5069337098
 11
369.3418477445
 21
31.5391973962
  0
LINE
  8
0
 62
7
  6
CONTINUOUS
 10
367.0293479651
 20
31.4101426505
 11
367.2605977445
 21
31.3778789641
  0
LINE
  8
0
 62
7
  6
CONTINUOUS
 10
369.8621602445
 20
31.4746700234
 11
369.6887227445
 21
31.5069337098
  0
LINE
  8
0
 62
7
  6
CONTINUOUS
 10
370.0355977445
 20
30.6035504109
 11
370.1512223035
 21
30.7003414814
  0
LINE
  8
0
 62
7
  6
CONTINUOUS
 10
364.543410024
 20
30.7971325633
 11
364.369972524
 21
30.7003414814
  0
LINE
  8
0
 62
7
  6
CONTINUOUS
 10
366.624660024
 20
31.4424063369
 11
366.5090354651
 21
31.3778789641
  0
LINE
  8
0
 62
7
  6
CONTINUOUS
 10
366.5090354651
 20
31.2488242184
 11
366.624660024
 21
31.3133515913
  0
LINE
  8
0
 62
7
  6
CONTINUOUS
 10
359.2246602583
 20
31.4746700234
 11
359.0512227376
 21
31.4101426505
  0
LINE
  8
0
 62
7
  6
CONTINUOUS
 10
361.6527851343
 20
31.5069337098
 11
361.4793477997
 21
31.4424063369
  0
LINE
  8
0
 62
7
  6
CONTINUOUS
 10
361.4793477997
 20
31.3133515913
 11
361.6527851343
 21
31.3778789641
  0
LINE
  8
0
 62
7
  6
CONTINUOUS
 10
360.2652852997
 20
30.7326051679
 11
360.091847717
 21
30.668077795
  0
LINE
  8
0
 62
7
  6
CONTINUOUS
 10
369.6887227445
 20
30.668077795
 11
369.4574729651
 21
30.6358140973
  0
LINE
  8
0
 62
7
  6
CONTINUOUS
 10
364.0809101343
 20
30.5067593403
 11
364.369972524
 21
30.5390230296
  0
LINE
  8
0
 62
7
  6
CONTINUOUS
 10
369.4574729651
 20
30.5067593403
 11
369.8043479651
 21
30.5390230296
  0
LINE
  8
0
 62
7
  6
CONTINUOUS
 10
359.744972717
 20
30.5067593403
 11
360.1496602445
 21
30.5390230296
  0
LINE
  8
0
 62
7
  6
CONTINUOUS
 10
360.091847717
 20
30.668077795
 11
359.6871602721
 21
30.6358140973
  0
LINE
  8
0
 62
7
  6
CONTINUOUS
 10
363.9652852445
 20
31.0552420547
 11
364.6012229651
 21
31.0552420547
  0
LINE
  8
0
 62
7
  6
CONTINUOUS
 10
364.6012229651
 20
31.1842968456
 11
363.9652852445
 21
31.1842968456
  0
LINE
  8
0
 62
7
  6
CONTINUOUS
 10
360.3230977445
 20
31.216560532
 11
360.6121602997
 21
31.216560532
  0
LINE
  8
0
 62
7
  6
CONTINUOUS
 10
363.1559103548
 20
31.2810879048
 11
363.4449727445
 21
31.2810879048
  0
LINE
  8
0
 62
7
  6
CONTINUOUS
 10
369.8621602445
 20
31.2810879048
 11
370.1512223035
 21
31.2810879048
  0
LINE
  8
0
 62
7
  6
CONTINUOUS
 10
363.8496603548
 20
31.4101426505
 11
364.1965353548
 21
31.4101426505
  0
LINE
  8
0
 62
7
  6
CONTINUOUS
 10
368.9949727445
 20
31.4101426505
 11
369.3418477445
 21
31.4101426505
  0
LINE
  8
0
 62
7
  6
CONTINUOUS
 10
369.3418477445
 20
31.5391973962
 11
368.9949727445
 21
31.5391973962
  0
LINE
  8
0
 62
7
  6
CONTINUOUS
 10
367.2605977445
 20
31.5391973962
 11
367.0293479651
 21
31.5391973962
  0
LINE
  8
0
 62
7
  6
CONTINUOUS
 10
366.5090354651
 20
31.5391973962
 11
366.2199727445
 21
31.5391973962
  0
LINE
  8
0
 62
7
  6
CONTINUOUS
 10
365.757472524
 20
31.5391973962
 11
365.4684104651
 21
31.5391973962
  0
LINE
  8
0
 62
7
  6
CONTINUOUS
 10
364.1965353548
 20
31.5391973962
 11
363.8496603548
 21
31.5391973962
  0
LINE
  8
0
 62
7
  6
CONTINUOUS
 10
362.1152853548
 20
31.5391973962
 11
361.8840352445
 21
31.5391973962
  0
LINE
  8
0
 62
7
  6
CONTINUOUS
 10
365.4684104651
 20
31.8618343508
 11
365.757472524
 21
31.8618343508
  0
LINE
  8
0
 62
7
  6
CONTINUOUS
 10
365.757472524
 20
32.0231527829
 11
365.4684104651
 21
32.0231527829
  0
LINE
  8
0
 62
7
  6
CONTINUOUS
 10
361.3637227445
 20
32.0231527829
 11
361.0746601894
 21
32.0231527829
  0
LINE
  8
0
 62
7
  6
CONTINUOUS
 10
360.4015045068
 20
32.3100380288
 11
360.8140758554
 21
32.3100380288
  0
LINE
  8
0
 62
7
  6
CONTINUOUS
 10
362.0408487691
 20
32.3100380288
 11
363.4342913921
 21
32.3100380288
  0
LINE
  8
0
 62
7
  6
CONTINUOUS
 10
363.7621602445
 20
32.3100380288
 11
365.1556028675
 21
32.3100380288
  0
LINE
  8
0
 62
7
  6
CONTINUOUS
 10
367.0408487691
 20
32.3100380288
 11
368.4342913921
 21
32.3100380288
  0
LINE
  8
0
 62
7
  6
CONTINUOUS
 10
368.7621602445
 20
32.3100380288
 11
370.1556028675
 21
32.3100380288
  0
LINE
  8
0
 62
7
  6
CONTINUOUS
 10
366.798097524
 20
31.5069337098
 11
366.624660024
 21
31.4424063369
  0
LINE
  8
0
 62
7
  6
CONTINUOUS
 10
364.369972524
 20
30.5390230296
 11
364.543410024
 21
30.6035504109
  0
LINE
  8
0
 62
7
  6
CONTINUOUS
 10
369.8043479651
 20
30.5390230296
 11
370.0355977445
 21
30.6035504109
  0
LINE
  8
0
 62
7
  6
CONTINUOUS
 10
369.8043479651
 20
30.7003414814
 11
369.6887227445
 21
30.668077795
  0
LINE
  8
0
 62
7
  6
CONTINUOUS
 10
368.7637229651
 20
31.3778789641
 11
368.9949727445
 21
31.4101426505
  0
LINE
  8
0
 62
7
  6
CONTINUOUS
 10
366.798097524
 20
31.3778789641
 11
367.0293479651
 21
31.4101426505
  0
LINE
  8
0
 62
7
  6
CONTINUOUS
 10
363.7340351343
 20
31.0229783683
 11
363.9652852445
 21
31.0552420547
  0
LINE
  8
0
 62
7
  6
CONTINUOUS
 10
367.0293479651
 20
31.5391973962
 11
366.798097524
 21
31.5069337098
  0
LINE
  8
0
 62
7
  6
CONTINUOUS
 10
363.6184102445
 20
31.3778789641
 11
363.8496603548
 21
31.4101426505
  0
LINE
  8
0
 62
7
  6
CONTINUOUS
 10
368.9949727445
 20
31.5391973962
 11
368.6480977445
 21
31.5069337098
  0
LINE
  8
0
 62
7
  6
CONTINUOUS
 10
363.9652852445
 20
31.1842968456
 11
363.6184102445
 21
31.1520331591
  0
LINE
  8
0
 62
7
  6
CONTINUOUS
 10
359.744972717
 20
31.5391973962
 11
359.3980977583
 21
31.5069337098
  0
LINE
  8
0
 62
7
  6
CONTINUOUS
 10
363.8496603548
 20
31.5391973962
 11
363.4449727445
 21
31.5069337098
  0
LINE
  8
0
 62
7
  6
CONTINUOUS
 10
361.221176638
 20
33.4575790124
 11
360.565438933
 21
33.4575790124
  0
LINE
  8
0
 62
7
  6
CONTINUOUS
 10
366.624660024
 20
31.3133515913
 11
366.798097524
 21
31.3778789641
  0
LINE
  8
0
 62
7
  6
CONTINUOUS
 10
368.6480977445
 20
31.3456152777
 11
368.7637229651
 21
31.3778789641
  0
LINE
  8
0
 62
7
  6
CONTINUOUS
 10
368.6480977445
 20
31.5069337098
 11
368.4168479651
 21
31.4424063369
  0
LINE
  8
0
 62
7
  6
CONTINUOUS
 10
364.369972524
 20
30.7003414814
 11
364.0809101343
 21
30.6358140973
  0
LINE
  8
0
 62
7
  6
CONTINUOUS
 10
361.6527851343
 20
31.3778789641
 11
361.8840352445
 21
31.4101426505
  0
LINE
  8
0
 62
7
  6
CONTINUOUS
 10
361.8840352445
 20
31.5391973962
 11
361.6527851343
 21
31.5069337098
  0
LINE
  8
0
 62
7
  6
CONTINUOUS
 10
359.4559102445
 20
31.3778789641
 11
359.6871602721
 21
31.4101426505
  0
LINE
  8
0
 62
7
  6
CONTINUOUS
 10
365.9752749986
 20
34.9329888485
 11
366.6310127035
 21
34.9329888485
  0
LINE
  8
0
 62
7
  6
CONTINUOUS
 10
363.6184102445
 20
30.9907146818
 11
363.7340351343
 21
31.0229783683
  0
LINE
  8
0
 62
7
  6
CONTINUOUS
 10
363.6184102445
 20
31.1520331591
 11
363.3871601343
 21
31.0875057863
  0
LINE
  8
0
 62
7
  6
CONTINUOUS
 10
363.5027853548
 20
31.3456152777
 11
363.6184102445
 21
31.3778789641
  0
LINE
  8
0
 62
7
  6
CONTINUOUS
 10
360.1496602445
 20
30.5390230296
 11
360.3809101894
 21
30.6035504109
  0
LINE
  8
0
 62
7
  6
CONTINUOUS
 10
363.4449727445
 20
31.5069337098
 11
363.3293478548
 21
31.4746700234
  0
LINE
  8
0
 62
7
  6
CONTINUOUS
 10
359.3980977583
 20
31.5069337098
 11
359.2246602583
 21
31.4746700234
  0
LINE
  8
0
 62
7
  6
CONTINUOUS
 10
370.1556028675
 20
36.0805298321
 11
368.7621602445
 21
36.0805298321
  0
LINE
  8
0
 62
7
  6
CONTINUOUS
 10
366.7949471298
 20
36.0805298321
 11
366.3823757812
 21
36.0805298321
  0
LINE
  8
0
 62
7
  6
CONTINUOUS
 10
365.1556028675
 20
36.0805298321
 11
363.7621602445
 21
36.0805298321
  0
LINE
  8
0
 62
7
  6
CONTINUOUS
 10
363.4342913921
 20
36.0805298321
 11
362.0408487691
 21
36.0805298321
  0
LINE
  8
0
 62
7
  6
CONTINUOUS
 10
360.1556028675
 20
36.0805298321
 11
358.7621602445
 21
36.0805298321
  0
LINE
  8
0
 62
7
  6
CONTINUOUS
 10
359.3402852307
 20
31.3456152777
 11
359.4559102445
 21
31.3778789641
  0
CIRCLE
  8
0
 62
7
  6
CONTINUOUS
 10
369.458881556
 20
38.4165954059
 40
2.0901639344
  0
ARC
  8
0
 62
7
  6
CONTINUOUS
 10
360.4015045068
 20
33.9493822911
 40
1.6393442623
 50
180.0
 51
270.0
  0
ARC
  8
0
 62
7
  6
CONTINUOUS
 10
366.7949471298
 20
34.4411855698
 40
1.6393442623
 50
0.0
 51
90.0
  0
ARC
  8
0
 62
7
  6
CONTINUOUS
 10
360.8140758554
 20
33.7854478649
 40
1.4754098361
 50
270.0
 51
326.2510114041
  0
ARC
  8
0
 62
7
  6
CONTINUOUS
 10
366.3823757812
 20
34.6051199961
 40
1.4754098361
 50
90.0
 51
146.2510114041
  0
ARC
  8
0
 62
7
  6
CONTINUOUS
 10
361.221176638
 20
34.2772511436
 40
0.8196721311
 50
270.0
 51
360.0
  0
ARC
  8
0
 62
7
  6
CONTINUOUS
 10
365.9752749986
 20
34.1133167174
 40
0.8196721311
 50
90.0
 51
180.0
  0
ARC
  8
0
 62
7
  6
CONTINUOUS
 10
360.565438933
 20
33.867415078
 40
0.4098360656
 50
180.0
 51
270.0
  0
ARC
  8
0
 62
7
  6
CONTINUOUS
 10
366.6310127035
 20
34.5231527829
 40
0.4098360656
 50
0.0
 51
90.0
  0
SOLID
  8
0
 62
7
  6
CONTINUOUS
 10
365.4684104651
 20
31.8618347111
 11
365.4684104651
 21
32.0231531947
 12
365.757472524
 22
31.8618347111
 13
365.757472524
 23
32.0231531947
  0
SOLID
  8
0
 62
7
  6
CONTINUOUS
 10
359.744972717
 20
31.5391977439
 11
360.1496602445
 21
31.5069333244
 12
359.3980977583
 22
31.5069333244
 13
359.3980977583
 23
31.5069333244
  0
SOLID
  8
0
 62
7
  6
CONTINUOUS
 10
359.2246602583
 20
31.4746706537
 11
359.3980977583
 21
31.5069333244
 12
360.1496602445
 22
31.5069333244
 13
360.1496602445
 23
31.5069333244
  0
SOLID
  8
0
 62
7
  6
CONTINUOUS
 10
360.1496602445
 20
31.5069333244
 11
360.3809101894
 21
31.4424063504
 12
359.2246602583
 22
31.4746706537
 13
359.2246602583
 23
31.4746706537
  0
SOLID
  8
0
 62
7
  6
CONTINUOUS
 10
359.0512227376
 20
31.4101419116
 11
359.2246602583
 21
31.4746706537
 12
360.3809101894
 22
31.4424063504
 13
360.3809101894
 23
31.4424063504
  0
SOLID
  8
0
 62
7
  6
CONTINUOUS
 10
359.0512227376
 20
31.4101419116
 11
360.3809101894
 21
31.4424063504
 12
359.6871602721
 22
31.4101419116
 13
359.6871602721
 23
31.4101419116
  0
SOLID
  8
0
 62
7
  6
CONTINUOUS
 10
359.6871602721
 20
31.4101419116
 11
360.3809101894
 21
31.4424063504
 12
360.091847717
 22
31.3778792603
 13
360.091847717
 23
31.3778792603
  0
SOLID
  8
0
 62
7
  6
CONTINUOUS
 10
360.3809101894
 20
31.4424063504
 11
360.5543476894
 21
31.345614957
 12
360.091847717
 22
31.3778792603
 13
360.091847717
 23
31.3778792603
  0
SOLID
  8
0
 62
7
  6
CONTINUOUS
 10
360.2652852997
 20
31.3133521701
 11
360.091847717
 21
31.3778792603
 12
360.5543476894
 22
31.345614957
 13
360.5543476894
 23
31.345614957
  0
SOLID
  8
0
 62
7
  6
CONTINUOUS
 10
360.2652852997
 20
31.3133521701
 11
360.5543476894
 21
31.345614957
 12
360.3230977445
 22
31.2165606992
 13
360.3230977445
 23
31.2165606992
  0
SOLID
  8
0
 62
7
  6
CONTINUOUS
 10
360.5543476894
 20
31.345614957
 11
360.6121602997
 21
31.2165606992
 12
360.3230977445
 22
31.2165606992
 13
360.3230977445
 23
31.2165606992
  0
SOLID
  8
0
 62
7
  6
CONTINUOUS
 10
361.6527851343
 20
31.5069329918
 11
361.8840352445
 21
31.5391972951
 12
362.1152853548
 22
31.5391972951
 13
362.1152853548
 23
31.5391972951
  0
SOLID
  8
0
 62
7
  6
CONTINUOUS
 10
362.1152853548
 20
31.5391972951
 11
362.2887228548
 21
31.5069329918
 12
361.6527851343
 22
31.5069329918
 13
361.6527851343
 23
31.5069329918
  0
SOLID
  8
0
 62
7
  6
CONTINUOUS
 10
361.4793477997
 20
31.4424059016
 11
361.6527851343
 21
31.5069329918
 12
362.2887228548
 22
31.5069329918
 13
362.2887228548
 23
31.5069329918
  0
SOLID
  8
0
 62
7
  6
CONTINUOUS
 10
362.2887228548
 20
31.5069329918
 11
362.4621603548
 21
31.4424059016
 12
361.4793477997
 22
31.4424059016
 13
361.4793477997
 23
31.4424059016
  0
SOLID
  8
0
 62
7
  6
CONTINUOUS
 10
362.4621603548
 20
31.4424059016
 11
361.8840352445
 21
31.4101420472
 12
361.4793477997
 22
31.4424059016
 13
361.4793477997
 23
31.4424059016
  0
SOLID
  8
0
 62
7
  6
CONTINUOUS
 10
361.3637227445
 20
31.3778788115
 11
361.4793477997
 21
31.4424059016
 12
361.8840352445
 22
31.4101420472
 13
361.8840352445
 23
31.4101420472
  0
SOLID
  8
0
 62
7
  6
CONTINUOUS
 10
361.8840352445
 20
31.4101420472
 11
361.6527851343
 21
31.3778788115
 12
361.3637227445
 22
31.3778788115
 13
361.3637227445
 23
31.3778788115
  0
SOLID
  8
0
 62
7
  6
CONTINUOUS
 10
361.8840352445
 20
31.4101420472
 11
362.4621603548
 21
31.4424059016
 12
362.1152853548
 22
31.3778788115
 13
362.1152853548
 23
31.3778788115
  0
SOLID
  8
0
 62
7
  6
CONTINUOUS
 10
362.4621603548
 20
31.4424059016
 11
362.5777852445
 21
31.3778788115
 12
362.1152853548
 22
31.3778788115
 13
362.1152853548
 23
31.3778788115
  0
SOLID
  8
0
 62
7
  6
CONTINUOUS
 10
362.2309102445
 20
31.345614957
 11
362.1152853548
 21
31.3778788115
 12
362.5777852445
 22
31.3778788115
 13
362.5777852445
 23
31.3778788115
  0
SOLID
  8
0
 62
7
  6
CONTINUOUS
 10
362.5777852445
 20
31.3778788115
 11
362.6355978548
 21
31.3133517213
 12
362.2309102445
 22
31.345614957
 13
362.2309102445
 23
31.345614957
  0
SOLID
  8
0
 62
7
  6
CONTINUOUS
 10
362.3465351343
 20
31.2810878668
 11
362.2309102445
 21
31.345614957
 12
362.6355978548
 22
31.3133517213
 13
362.6355978548
 23
31.3133517213
  0
SOLID
  8
0
 62
7
  6
CONTINUOUS
 10
362.3465351343
 20
31.2810878668
 11
362.6355978548
 21
31.3133517213
 12
362.4043477445
 22
31.1520332377
 13
362.4043477445
 23
31.1520332377
  0
SOLID
  8
0
 62
7
  6
CONTINUOUS
 10
362.6355978548
 20
31.3133517213
 11
362.6934101343
 21
31.1520332377
 12
362.4043477445
 22
31.1520332377
 13
362.4043477445
 23
31.1520332377
  0
SOLID
  8
0
 62
7
  6
CONTINUOUS
 10
361.6527851343
 20
31.3778788115
 11
361.4793477997
 21
31.3133517213
 12
361.3637227445
 22
31.3778788115
 13
361.3637227445
 23
31.3778788115
  0
SOLID
  8
0
 62
7
  6
CONTINUOUS
 10
361.4793477997
 20
31.3133517213
 11
361.3637227445
 21
31.2488235635
 12
361.3637227445
 22
31.3778788115
 13
361.3637227445
 23
31.3778788115
  0
SOLID
  8
0
 62
7
  6
CONTINUOUS
 10
361.3637227445
 20
31.2488235635
 11
361.0746601894
 21
30.5067593033
 12
361.3637227445
 22
31.3778788115
 13
361.3637227445
 23
31.3778788115
  0
SOLID
  8
0
 62
7
  6
CONTINUOUS
 10
361.3637227445
 20
31.3778788115
 11
361.0746601894
 21
30.5067593033
 12
361.3637227445
 22
32.0231527459
 13
361.3637227445
 23
32.0231527459
  0
SOLID
  8
0
 62
7
  6
CONTINUOUS
 10
361.0746601894
 20
30.5067593033
 11
361.0746601894
 21
32.0231527459
 12
361.3637227445
 22
32.0231527459
 13
361.3637227445
 23
32.0231527459
  0
SOLID
  8
0
 62
7
  6
CONTINUOUS
 10
361.3637227445
 20
31.2488235635
 11
361.3637227445
 21
30.5067593033
 12
361.0746601894
 22
30.5067593033
 13
361.0746601894
 23
30.5067593033
  0
SOLID
  8
0
 62
7
  6
CONTINUOUS
 10
362.4043477445
 20
30.5067593033
 11
362.4043477445
 21
31.1520332377
 12
362.6934101343
 22
31.1520332377
 13
362.6934101343
 23
31.1520332377
  0
SOLID
  8
0
 62
7
  6
CONTINUOUS
 10
362.6934101343
 20
31.1520332377
 11
362.6934101343
 21
30.5067593033
 12
362.4043477445
 22
30.5067593033
 13
362.4043477445
 23
30.5067593033
  0
SOLID
  8
0
 62
7
  6
CONTINUOUS
 10
363.4449727445
 20
31.506933758
 11
363.8496603548
 21
31.5391977507
 12
364.1965353548
 22
31.5391977507
 13
364.1965353548
 23
31.5391977507
  0
SOLID
  8
0
 62
7
  6
CONTINUOUS
 10
364.1965353548
 20
31.5391977507
 11
364.543410024
 21
31.506933758
 12
363.4449727445
 22
31.506933758
 13
363.4449727445
 23
31.506933758
  0
SOLID
  8
0
 62
7
  6
CONTINUOUS
 10
363.3293478548
 20
31.4746706537
 11
363.4449727445
 21
31.506933758
 12
364.543410024
 22
31.506933758
 13
364.543410024
 23
31.506933758
  0
SOLID
  8
0
 62
7
  6
CONTINUOUS
 10
364.543410024
 20
31.506933758
 11
364.716847524
 21
31.4424063504
 12
363.3293478548
 22
31.4746706537
 13
363.3293478548
 23
31.4746706537
  0
SOLID
  8
0
 62
7
  6
CONTINUOUS
 10
363.2137226343
 20
31.4101417797
 11
363.3293478548
 21
31.4746706537
 12
364.716847524
 22
31.4424063504
 13
364.716847524
 23
31.4424063504
  0
SOLID
  8
0
 62
7
  6
CONTINUOUS
 10
363.2137226343
 20
31.4101417797
 11
364.716847524
 21
31.4424063504
 12
363.8496603548
 22
31.4101417797
 13
363.8496603548
 23
31.4101417797
  0
SOLID
  8
0
 62
7
  6
CONTINUOUS
 10
363.8496603548
 20
31.4101417797
 11
364.716847524
 21
31.4424063504
 12
364.1965353548
 22
31.4101417797
 13
364.1965353548
 23
31.4101417797
  0
SOLID
  8
0
 62
7
  6
CONTINUOUS
 10
364.1965353548
 20
31.4101417797
 11
364.716847524
 21
31.4424063504
 12
364.4277854651
 22
31.3778793357
 13
364.4277854651
 23
31.3778793357
  0
SOLID
  8
0
 62
7
  6
CONTINUOUS
 10
364.716847524
 20
31.4424063504
 11
364.8324727445
 21
31.3778793357
 12
364.4277854651
 22
31.3778793357
 13
364.4277854651
 23
31.3778793357
  0
SOLID
  8
0
 62
7
  6
CONTINUOUS
 10
363.1559103548
 20
31.3456153429
 11
363.2137226343
 21
31.4101417797
 12
363.8496603548
 22
31.4101417797
 13
363.8496603548
 23
31.4101417797
  0
SOLID
  8
0
 62
7
  6
CONTINUOUS
 10
364.543410024
 20
31.3456153429
 11
364.4277854651
 21
31.3778793357
 12
364.8324727445
 22
31.3778793357
 13
364.8324727445
 23
31.3778793357
  0
SOLID
  8
0
 62
7
  6
CONTINUOUS
 10
364.543410024
 20
31.3456153429
 11
364.8324727445
 21
31.3778793357
 12
364.6012229651
 22
31.2810881318
 13
364.6012229651
 23
31.2810881318
  0
SOLID
  8
0
 62
7
  6
CONTINUOUS
 10
364.8324727445
 20
31.3778793357
 11
364.890285024
 21
31.2810881318
 12
364.6012229651
 22
31.2810881318
 13
364.6012229651
 23
31.2810881318
  0
SOLID
  8
0
 62
7
  6
CONTINUOUS
 10
364.6012229651
 20
31.1842964734
 11
364.6012229651
 21
31.2810881318
 12
364.890285024
 22
31.2810881318
 13
364.890285024
 23
31.2810881318
  0
SOLID
  8
0
 62
7
  6
CONTINUOUS
 10
364.6012229651
 20
31.1842964734
 11
364.890285024
 21
31.2810881318
 12
364.6012229651
 22
31.0552422931
 13
364.6012229651
 23
31.0552422931
  0
SOLID
  8
0
 62
7
  6
CONTINUOUS
 10
364.6012229651
 20
31.0552422931
 11
364.890285024
 21
31.2810881318
 12
364.6012229651
 22
30.8616599362
 13
364.6012229651
 23
30.8616599362
  0
SOLID
  8
0
 62
7
  6
CONTINUOUS
 10
364.890285024
 20
31.2810881318
 11
364.890285024
 21
30.7648681127
 12
364.6012229651
 22
30.8616599362
 13
364.6012229651
 23
30.8616599362
  0
SOLID
  8
0
 62
7
  6
CONTINUOUS
 10
366.798097524
 20
31.5069339419
 11
367.0293479651
 21
31.5391976292
 12
367.2605977445
 22
31.5391976292
 13
367.2605977445
 23
31.5391976292
  0
SOLID
  8
0
 62
7
  6
CONTINUOUS
 10
367.2605977445
 20
31.5391976292
 11
367.4340352445
 21
31.5069339419
 12
366.798097524
 22
31.5069339419
 13
366.798097524
 23
31.5069339419
  0
SOLID
  8
0
 62
7
  6
CONTINUOUS
 10
366.624660024
 20
31.4424065674
 11
366.798097524
 21
31.5069339419
 12
367.4340352445
 22
31.5069339419
 13
367.4340352445
 23
31.5069339419
  0
SOLID
  8
0
 62
7
  6
CONTINUOUS
 10
367.4340352445
 20
31.5069339419
 11
367.6074727445
 21
31.4424065674
 12
366.624660024
 22
31.4424065674
 13
366.624660024
 23
31.4424065674
  0
SOLID
  8
0
 62
7
  6
CONTINUOUS
 10
367.6074727445
 20
31.4424065674
 11
367.0293479651
 21
31.4101420472
 12
366.624660024
 22
31.4424065674
 13
366.624660024
 23
31.4424065674
  0
SOLID
  8
0
 62
7
  6
CONTINUOUS
 10
366.5090354651
 20
31.377879193
 11
366.624660024
 21
31.4424065674
 12
367.0293479651
 22
31.4101420472
 13
367.0293479651
 23
31.4101420472
  0
SOLID
  8
0
 62
7
  6
CONTINUOUS
 10
367.0293479651
 20
31.4101420472
 11
366.798097524
 21
31.377879193
 12
366.5090354651
 22
31.377879193
 13
366.5090354651
 23
31.377879193
  0
SOLID
  8
0
 62
7
  6
CONTINUOUS
 10
367.0293479651
 20
31.4101420472
 11
367.6074727445
 21
31.4424065674
 12
367.2605977445
 22
31.377879193
 13
367.2605977445
 23
31.377879193
  0
SOLID
  8
0
 62
7
  6
CONTINUOUS
 10
367.6074727445
 20
31.4424065674
 11
367.7230979651
 21
31.377879193
 12
367.2605977445
 22
31.377879193
 13
367.2605977445
 23
31.377879193
  0
SOLID
  8
0
 62
7
  6
CONTINUOUS
 10
367.3762229651
 20
31.345614957
 11
367.2605977445
 21
31.377879193
 12
367.7230979651
 22
31.377879193
 13
367.7230979651
 23
31.377879193
  0
SOLID
  8
0
 62
7
  6
CONTINUOUS
 10
367.3762229651
 20
31.345614957
 11
367.7230979651
 21
31.377879193
 12
367.491847524
 22
31.2810881312
 13
367.491847524
 23
31.2810881312
  0
SOLID
  8
0
 62
7
  6
CONTINUOUS
 10
367.7230979651
 20
31.377879193
 11
367.7809102445
 21
31.2810881312
 12
367.491847524
 22
31.2810881312
 13
367.491847524
 23
31.2810881312
  0
SOLID
  8
0
 62
7
  6
CONTINUOUS
 10
367.5496604651
 20
31.119769695
 11
367.491847524
 21
31.2810881312
 12
367.7809102445
 22
31.2810881312
 13
367.7809102445
 23
31.2810881312
  0
SOLID
  8
0
 62
7
  6
CONTINUOUS
 10
367.7809102445
 20
31.2810881312
 11
367.838722524
 21
31.119769695
 12
367.5496604651
 22
31.119769695
 13
367.5496604651
 23
31.119769695
  0
SOLID
  8
0
 62
7
  6
CONTINUOUS
 10
366.798097524
 20
31.377879193
 11
366.624660024
 21
31.3133521701
 12
366.5090354651
 22
31.377879193
 13
366.5090354651
 23
31.377879193
  0
SOLID
  8
0
 62
7
  6
CONTINUOUS
 10
366.624660024
 20
31.3133521701
 11
366.5090354651
 21
31.2488235635
 12
366.5090354651
 22
31.377879193
 13
366.5090354651
 23
31.377879193
  0
SOLID
  8
0
 62
7
  6
CONTINUOUS
 10
366.5090354651
 20
31.2488235635
 11
366.2199727445
 21
30.5067596374
 12
366.5090354651
 22
31.377879193
 13
366.5090354651
 23
31.377879193
  0
SOLID
  8
0
 62
7
  6
CONTINUOUS
 10
366.5090354651
 20
31.377879193
 11
366.2199727445
 21
30.5067596374
 12
366.5090354651
 22
31.5391976292
 13
366.5090354651
 23
31.5391976292
  0
SOLID
  8
0
 62
7
  6
CONTINUOUS
 10
366.2199727445
 20
30.5067596374
 11
366.2199727445
 21
31.5391976292
 12
366.5090354651
 22
31.5391976292
 13
366.5090354651
 23
31.5391976292
  0
SOLID
  8
0
 62
7
  6
CONTINUOUS
 10
366.5090354651
 20
31.2488235635
 11
366.5090354651
 21
30.5067596374
 12
366.2199727445
 22
30.5067596374
 13
366.2199727445
 23
30.5067596374
  0
SOLID
  8
0
 62
7
  6
CONTINUOUS
 10
367.5496604651
 20
30.5067596374
 11
367.5496604651
 21
31.119769695
 12
367.838722524
 22
31.119769695
 13
367.838722524
 23
31.119769695
  0
SOLID
  8
0
 62
7
  6
CONTINUOUS
 10
367.838722524
 20
31.119769695
 11
367.838722524
 21
30.5067596374
 12
367.5496604651
 22
30.5067596374
 13
367.5496604651
 23
30.5067596374
  0
SOLID
  8
0
 62
7
  6
CONTINUOUS
 10
368.6480977445
 20
31.5069334157
 11
368.9949727445
 21
31.539197762
 12
369.3418477445
 22
31.539197762
 13
369.3418477445
 23
31.539197762
  0
SOLID
  8
0
 62
7
  6
CONTINUOUS
 10
369.3418477445
 20
31.539197762
 11
369.6887227445
 21
31.5069334157
 12
368.6480977445
 22
31.5069334157
 13
368.6480977445
 23
31.5069334157
  0
SOLID
  8
0
 62
7
  6
CONTINUOUS
 10
368.4168479651
 20
31.4424063504
 11
368.6480977445
 21
31.5069334157
 12
369.6887227445
 22
31.5069334157
 13
369.6887227445
 23
31.5069334157
  0
SOLID
  8
0
 62
7
  6
CONTINUOUS
 10
368.4168479651
 20
31.4424063504
 11
369.6887227445
 21
31.5069334406
 12
369.8621602445
 22
31.4746706537
 13
369.8621602445
 23
31.4746706537
  0
SOLID
  8
0
 62
7
  6
CONTINUOUS
 10
368.4168479651
 20
31.4424063504
 11
369.8621602445
 21
31.4746706537
 12
368.9949727445
 22
31.4101421267
 13
368.9949727445
 23
31.4101421267
  0
SOLID
  8
0
 62
7
  6
CONTINUOUS
 10
368.9949727445
 20
31.4101421267
 11
369.8621602445
 21
31.4746706537
 12
369.3418477445
 22
31.4101421267
 13
369.3418477445
 23
31.4101421267
  0
SOLID
  8
0
 62
7
  6
CONTINUOUS
 10
369.8621602445
 20
31.4746706537
 11
370.0355977445
 21
31.4101421267
 12
369.3418477445
 22
31.4101421267
 13
369.3418477445
 23
31.4101421267
  0
SOLID
  8
0
 62
7
  6
CONTINUOUS
 10
369.6887227445
 20
31.3778792603
 11
369.3418477445
 21
31.4101421267
 12
370.0355977445
 22
31.4101421267
 13
370.0355977445
 23
31.4101421267
  0
SOLID
  8
0
 62
7
  6
CONTINUOUS
 10
368.3012227445
 20
31.3456148845
 11
368.4168479651
 21
31.4424063504
 12
368.9949727445
 22
31.4101421267
 13
368.9949727445
 23
31.4101421267
  0
SOLID
  8
0
 62
7
  6
CONTINUOUS
 10
369.6887227445
 20
31.3778792603
 11
370.0355977445
 21
31.4101421267
 12
369.8043479651
 22
31.3456148845
 13
369.8043479651
 23
31.3456148845
  0
SOLID
  8
0
 62
7
  6
CONTINUOUS
 10
369.8043479651
 20
31.3456148845
 11
370.0355977445
 21
31.4101421267
 12
369.8621602445
 22
31.281087868
 13
369.8621602445
 23
31.281087868
  0
SOLID
  8
0
 62
7
  6
CONTINUOUS
 10
370.0355977445
 20
31.4101421267
 11
370.1512223035
 21
31.281087868
 12
369.8621602445
 22
31.281087868
 13
369.8621602445
 23
31.281087868
  0
SOLID
  8
0
 62
7
  6
CONTINUOUS
 10
359.4559102445
 20
31.3778792603
 11
358.9355977445
 21
31.3456148963
 12
359.6871602721
 22
31.4101421155
 13
359.6871602721
 23
31.4101421155
  0
SOLID
  8
0
 62
7
  6
CONTINUOUS
 10
358.9355977445
 20
31.3456148963
 11
359.0512227376
 21
31.4101421155
 12
359.6871602721
 22
31.4101421155
 13
359.6871602721
 23
31.4101421155
  0
SOLID
  8
0
 62
7
  6
CONTINUOUS
 10
359.4559102445
 20
31.3778792603
 11
359.3402852307
 21
31.3456148963
 12
358.9355977445
 22
31.3456148963
 13
358.9355977445
 23
31.3456148963
  0
SOLID
  8
0
 62
7
  6
CONTINUOUS
 10
358.8199727462
 20
31.2165607767
 11
358.9355977445
 21
31.3456148963
 12
359.3402852307
 22
31.3456148963
 13
359.3402852307
 23
31.3456148963
  0
SOLID
  8
0
 62
7
  6
CONTINUOUS
 10
363.1559103548
 20
31.3456149608
 11
363.8496603548
 21
31.4101420472
 12
363.6184102445
 22
31.3778792603
 13
363.6184102445
 23
31.3778792603
  0
SOLID
  8
0
 62
7
  6
CONTINUOUS
 10
363.6184102445
 20
31.3778792603
 11
363.5027853548
 21
31.3456149608
 12
363.1559103548
 22
31.3456149608
 13
363.1559103548
 23
31.3456149608
  0
SOLID
  8
0
 62
7
  6
CONTINUOUS
 10
363.1559103548
 20
31.2810878707
 11
363.1559103548
 21
31.3456149608
 12
363.5027853548
 22
31.3456149608
 13
363.5027853548
 23
31.3456149608
  0
SOLID
  8
0
 62
7
  6
CONTINUOUS
 10
363.5027853548
 20
31.3456149608
 11
363.4449727445
 21
31.2810878707
 12
363.1559103548
 22
31.2810878707
 13
363.1559103548
 23
31.2810878707
  0
SOLID
  8
0
 62
7
  6
CONTINUOUS
 10
368.3012227445
 20
31.3456149608
 11
368.9949727445
 21
31.4101420472
 12
368.7637229651
 22
31.3778792603
 13
368.7637229651
 23
31.3778792603
  0
SOLID
  8
0
 62
7
  6
CONTINUOUS
 10
368.7637229651
 20
31.3778792603
 11
368.6480977445
 21
31.3456149608
 12
368.3012227445
 22
31.3456149608
 13
368.3012227445
 23
31.3456149608
  0
SOLID
  8
0
 62
7
  6
CONTINUOUS
 10
368.3012227445
 20
31.2810878707
 11
368.3012227445
 21
31.3456149608
 12
368.6480977445
 22
31.3456149608
 13
368.6480977445
 23
31.3456149608
  0
SOLID
  8
0
 62
7
  6
CONTINUOUS
 10
368.6480977445
 20
31.3456149608
 11
368.5902854651
 21
31.2810878707
 12
368.3012227445
 22
31.2810878707
 13
368.3012227445
 23
31.2810878707
  0
SOLID
  8
0
 62
7
  6
CONTINUOUS
 10
368.4168479651
 20
31.1520336865
 11
368.3012227445
 21
31.2810878707
 12
368.5902854651
 22
31.2810878707
 13
368.5902854651
 23
31.2810878707
  0
SOLID
  8
0
 62
7
  6
CONTINUOUS
 10
358.8199727462
 20
31.2165607767
 11
359.3402852307
 21
31.345614957
 12
359.1668477307
 22
31.2488235635
 13
359.1668477307
 23
31.2488235635
  0
SOLID
  8
0
 62
7
  6
CONTINUOUS
 10
359.1668477307
 20
31.2488235635
 11
359.1090352445
 21
31.1842964734
 12
358.8199727462
 22
31.2165607767
 13
358.8199727462
 23
31.2165607767
  0
SOLID
  8
0
 62
7
  6
CONTINUOUS
 10
358.7621602445
 20
31.0229779898
 11
358.8199727462
 21
31.2165607767
 12
359.1090352445
 22
31.1842964734
 13
359.1090352445
 23
31.1842964734
  0
SOLID
  8
0
 62
7
  6
CONTINUOUS
 10
363.6184102445
 20
31.1520336865
 11
363.9652852445
 21
31.1842964611
 12
364.6012229651
 22
31.1842964611
 13
364.6012229651
 23
31.1842964611
  0
SOLID
  8
0
 62
7
  6
CONTINUOUS
 10
363.6184102445
 20
31.1520336865
 11
364.6012229651
 21
31.1842964611
 12
363.3871601343
 22
31.0875057863
 13
363.3871601343
 23
31.0875057863
  0
SOLID
  8
0
 62
7
  6
CONTINUOUS
 10
363.3871601343
 20
31.0875057863
 11
364.6012229651
 21
31.1842964611
 12
363.9652852445
 22
31.0552422808
 13
363.9652852445
 23
31.0552422808
  0
SOLID
  8
0
 62
7
  6
CONTINUOUS
 10
364.6012229651
 20
31.1842964611
 11
364.6012229651
 21
31.0552422808
 12
363.9652852445
 22
31.0552422808
 13
363.9652852445
 23
31.0552422808
  0
SOLID
  8
0
 62
7
  6
CONTINUOUS
 10
368.4168479651
 20
31.1520338754
 11
368.5902854651
 21
31.2810878668
 12
368.6480977445
 22
31.2165607767
 13
368.6480977445
 23
31.2165607767
  0
SOLID
  8
0
 62
7
  6
CONTINUOUS
 10
368.6480977445
 20
31.2165607767
 11
368.8215352445
 21
31.1520338754
 12
368.4168479651
 22
31.1520338754
 13
368.4168479651
 23
31.1520338754
  0
SOLID
  8
0
 62
7
  6
CONTINUOUS
 10
368.6480977445
 20
31.0552422931
 11
368.4168479651
 21
31.1520338754
 12
368.8215352445
 22
31.1520338754
 13
368.8215352445
 23
31.1520338754
  0
SOLID
  8
0
 62
7
  6
CONTINUOUS
 10
368.8215352445
 20
31.1520338754
 11
369.8043479651
 21
30.9907152029
 12
368.6480977445
 22
31.0552422931
 13
368.6480977445
 23
31.0552422931
  0
SOLID
  8
0
 62
7
  6
CONTINUOUS
 10
369.6309104651
 20
30.8939239876
 11
368.6480977445
 21
31.0552422931
 12
369.8043479651
 22
30.9907152029
 13
369.8043479651
 23
30.9907152029
  0
SOLID
  8
0
 62
7
  6
CONTINUOUS
 10
369.8043479651
 20
30.9907152029
 11
370.0355977445
 21
30.8939239876
 12
369.6309104651
 22
30.8939239876
 13
369.6309104651
 23
30.8939239876
  0
SOLID
  8
0
 62
7
  6
CONTINUOUS
 10
369.8043479651
 20
30.8293967193
 11
369.6309104651
 21
30.8939239876
 12
370.0355977445
 22
30.8939239876
 13
370.0355977445
 23
30.8939239876
  0
SOLID
  8
0
 62
7
  6
CONTINUOUS
 10
369.8043479651
 20
30.8293967193
 11
370.0355977445
 21
30.8939239876
 12
369.8621602445
 22
30.7648682694
 13
369.8621602445
 23
30.7648682694
  0
SOLID
  8
0
 62
7
  6
CONTINUOUS
 10
370.0355977445
 20
30.8939239876
 11
370.1512223035
 21
30.7648682694
 12
369.8621602445
 22
30.7648682694
 13
369.8621602445
 23
30.7648682694
  0
SOLID
  8
0
 62
7
  6
CONTINUOUS
 10
369.8043479651
 20
30.7003411846
 11
369.8621602445
 21
30.7648682694
 12
370.1512223035
 22
30.7648682694
 13
370.1512223035
 23
30.7648682694
  0
SOLID
  8
0
 62
7
  6
CONTINUOUS
 10
370.1512223035
 20
30.7648682694
 11
370.1512223035
 21
30.7003411846
 12
369.8043479651
 22
30.7003411846
 13
369.8043479651
 23
30.7003411846
  0
SOLID
  8
0
 62
7
  6
CONTINUOUS
 10
369.6887227445
 20
30.6680782357
 11
369.8043479651
 21
30.7003411846
 12
370.1512223035
 22
30.7003411846
 13
370.1512223035
 23
30.7003411846
  0
SOLID
  8
0
 62
7
  6
CONTINUOUS
 10
369.6887227445
 20
30.6680782357
 11
370.1512223035
 21
30.7003411846
 12
369.4574729651
 22
30.6358140998
 13
369.4574729651
 23
30.6358140998
  0
SOLID
  8
0
 62
7
  6
CONTINUOUS
 10
370.1512223035
 20
30.7003411846
 11
370.0355977445
 21
30.6035511455
 12
369.4574729651
 22
30.6358140998
 13
369.4574729651
 23
30.6358140998
  0
SOLID
  8
0
 62
7
  6
CONTINUOUS
 10
370.0355977445
 20
30.6035511455
 11
368.5902854651
 21
30.5712868422
 12
369.4574729651
 22
30.6358140998
 13
369.4574729651
 23
30.6358140998
  0
SOLID
  8
0
 62
7
  6
CONTINUOUS
 10
369.4574729651
 20
30.6358140998
 11
368.5902854651
 21
30.5712868422
 12
369.1105979651
 22
30.6358140998
 13
369.1105979651
 23
30.6358140998
  0
SOLID
  8
0
 62
7
  6
CONTINUOUS
 10
368.5902854651
 20
30.5712868422
 11
368.4168479651
 21
30.6358140998
 12
369.1105979651
 22
30.6358140998
 13
369.1105979651
 23
30.6358140998
  0
SOLID
  8
0
 62
7
  6
CONTINUOUS
 10
368.5902854651
 20
30.5712868422
 11
370.0355977445
 21
30.6035511455
 12
368.7637229651
 22
30.5390223111
 13
368.7637229651
 23
30.5390223111
  0
SOLID
  8
0
 62
7
  6
CONTINUOUS
 10
370.0355977445
 20
30.6035511455
 11
369.8043479651
 21
30.5390223111
 12
368.7637229651
 22
30.5390223111
 13
368.7637229651
 23
30.5390223111
  0
SOLID
  8
0
 62
7
  6
CONTINUOUS
 10
369.1105979651
 20
30.5067599302
 11
368.7637229651
 21
30.5390223111
 12
369.8043479651
 22
30.5390223111
 13
369.8043479651
 23
30.5390223111
  0
SOLID
  8
0
 62
7
  6
CONTINUOUS
 10
369.8043479651
 20
30.5390223111
 11
369.4574729651
 21
30.5067599302
 12
369.1105979651
 22
30.5067599302
 13
369.1105979651
 23
30.5067599302
  0
SOLID
  8
0
 62
7
  6
CONTINUOUS
 10
358.7621602445
 20
31.0229779898
 11
359.1090352445
 21
31.1842964734
 12
359.0512227376
 22
31.0552422931
 13
359.0512227376
 23
31.0552422931
  0
SOLID
  8
0
 62
7
  6
CONTINUOUS
 10
359.0512227376
 20
31.0552422931
 11
359.0512227376
 21
30.9584509954
 12
358.7621602445
 22
31.0229779898
 13
358.7621602445
 23
31.0229779898
  0
SOLID
  8
0
 62
7
  6
CONTINUOUS
 10
358.8199727462
 20
30.8293967193
 11
358.7621602445
 21
31.0229779898
 12
359.0512227376
 22
30.9584509954
 13
359.0512227376
 23
30.9584509954
  0
SOLID
  8
0
 62
7
  6
CONTINUOUS
 10
359.0512227376
 20
30.9584509954
 11
359.1668477307
 21
30.797132416
 12
358.8199727462
 22
30.8293967193
 13
358.8199727462
 23
30.8293967193
  0
SOLID
  8
0
 62
7
  6
CONTINUOUS
 10
358.9355977445
 20
30.7003413087
 11
358.8199727462
 21
30.8293967193
 12
359.1668477307
 22
30.797132416
 13
359.1668477307
 23
30.797132416
  0
SOLID
  8
0
 62
7
  6
CONTINUOUS
 10
359.1668477307
 20
30.797132416
 11
359.3402852307
 21
30.7003413087
 12
358.9355977445
 22
30.7003413087
 13
358.9355977445
 23
30.7003413087
  0
SOLID
  8
0
 62
7
  6
CONTINUOUS
 10
359.0512227376
 20
30.6358140759
 11
358.9355977445
 21
30.7003413087
 12
359.3402852307
 22
30.7003413087
 13
359.3402852307
 23
30.7003413087
  0
SOLID
  8
0
 62
7
  6
CONTINUOUS
 10
359.3402852307
 20
30.7003413087
 11
359.6871602721
 21
30.6358140759
 12
359.0512227376
 22
30.6358140759
 13
359.0512227376
 23
30.6358140759
  0
SOLID
  8
0
 62
7
  6
CONTINUOUS
 10
359.2246602583
 20
30.5712868422
 11
359.0512227376
 21
30.6358140759
 12
359.6871602721
 22
30.6358140759
 13
359.6871602721
 23
30.6358140759
  0
SOLID
  8
0
 62
7
  6
CONTINUOUS
 10
363.2715352445
 20
31.0229779808
 11
363.3871601343
 21
31.0875057863
 12
363.9652852445
 22
31.0552422931
 13
363.9652852445
 23
31.0552422931
  0
SOLID
  8
0
 62
7
  6
CONTINUOUS
 10
363.9652852445
 20
31.0552422931
 11
363.7340351343
 21
31.0229779808
 12
363.2715352445
 22
31.0229779808
 13
363.2715352445
 23
31.0229779808
  0
SOLID
  8
0
 62
7
  6
CONTINUOUS
 10
363.1559103548
 20
30.8939238094
 11
363.2715352445
 21
31.0229779808
 12
363.7340351343
 22
31.0229779808
 13
363.7340351343
 23
31.0229779808
  0
SOLID
  8
0
 62
7
  6
CONTINUOUS
 10
363.5027853548
 20
30.926187309
 11
363.1559103548
 21
30.8939238094
 12
363.6184102445
 22
30.9907152029
 13
363.6184102445
 23
30.9907152029
  0
SOLID
  8
0
 62
7
  6
CONTINUOUS
 10
363.1559103548
 20
30.8939238094
 11
363.7340351343
 21
31.0229779898
 12
363.6184102445
 22
30.9907152029
 13
363.6184102445
 23
30.9907152029
  0
SOLID
  8
0
 62
7
  6
CONTINUOUS
 10
363.5027853548
 20
30.926187309
 11
363.4449727445
 21
30.8293967193
 12
363.1559103548
 22
30.8939238094
 13
363.1559103548
 23
30.8939238094
  0
SOLID
  8
0
 62
7
  6
CONTINUOUS
 10
363.1559103548
 20
30.797132416
 11
363.1559103548
 21
30.8939238094
 12
363.4449727445
 22
30.8293967193
 13
363.4449727445
 23
30.8293967193
  0
SOLID
  8
0
 62
7
  6
CONTINUOUS
 10
363.4449727445
 20
30.8293967193
 11
363.4449727445
 21
30.7648681127
 12
363.1559103548
 22
30.797132416
 13
363.1559103548
 23
30.797132416
  0
SOLID
  8
0
 62
7
  6
CONTINUOUS
 10
363.2137226343
 20
30.6680782357
 11
363.1559103548
 21
30.797132416
 12
363.4449727445
 22
30.7648681127
 13
363.4449727445
 23
30.7648681127
  0
SOLID
  8
0
 62
7
  6
CONTINUOUS
 10
364.6012229651
 20
30.8616599362
 11
364.890285024
 21
30.7648681127
 12
364.543410024
 22
30.797132416
 13
364.543410024
 23
30.797132416
  0
SOLID
  8
0
 62
7
  6
CONTINUOUS
 10
364.369972524
 20
30.7003410226
 11
364.543410024
 21
30.797132416
 12
364.890285024
 22
30.7648681127
 13
364.890285024
 23
30.7648681127
  0
SOLID
  8
0
 62
7
  6
CONTINUOUS
 10
364.369972524
 20
30.7003410226
 11
364.890285024
 21
30.7648681127
 12
364.6012229651
 22
30.6680782357
 13
364.6012229651
 23
30.6680782357
  0
SOLID
  8
0
 62
7
  6
CONTINUOUS
 10
364.890285024
 20
30.7648681127
 11
364.9480979651
 21
30.6035511455
 12
364.6012229651
 22
30.6680782357
 13
364.6012229651
 23
30.6680782357
  0
SOLID
  8
0
 62
7
  6
CONTINUOUS
 10
364.6590352445
 20
30.5712868422
 11
364.6012229651
 21
30.6680782357
 12
364.9480979651
 22
30.6035511455
 13
364.9480979651
 23
30.6035511455
  0
SOLID
  8
0
 62
7
  6
CONTINUOUS
 10
364.6590352445
 20
30.5712868422
 11
364.9480979651
 21
30.6035511455
 12
364.716847524
 22
30.5067598731
 13
364.716847524
 23
30.5067598731
  0
SOLID
  8
0
 62
7
  6
CONTINUOUS
 10
364.9480979651
 20
30.6035511455
 11
365.0059102445
 21
30.5067598731
 12
364.716847524
 22
30.5067598731
 13
364.716847524
 23
30.5067598731
  0
SOLID
  8
0
 62
7
  6
CONTINUOUS
 10
360.2652852997
 20
30.7326051679
 11
360.3230977445
 21
30.8293966612
 12
360.6121602997
 22
30.8293966612
 13
360.6121602997
 23
30.8293966612
  0
SOLID
  8
0
 62
7
  6
CONTINUOUS
 10
360.6121602997
 20
30.8293966612
 11
360.5543476894
 21
30.7003410226
 12
360.2652852997
 22
30.7326051679
 13
360.2652852997
 23
30.7326051679
  0
SOLID
  8
0
 62
7
  6
CONTINUOUS
 10
360.091847717
 20
30.6680782357
 11
360.2652852997
 21
30.7326051679
 12
360.5543476894
 22
30.7003410226
 13
360.5543476894
 23
30.7003410226
  0
SOLID
  8
0
 62
7
  6
CONTINUOUS
 10
360.091847717
 20
30.6680782357
 11
360.5543476894
 21
30.7003410226
 12
359.6871602721
 22
30.6358139324
 13
359.6871602721
 23
30.6358139324
  0
SOLID
  8
0
 62
7
  6
CONTINUOUS
 10
360.5543476894
 20
30.7003410226
 11
360.3809101894
 21
30.6035511455
 12
359.6871602721
 22
30.6358139324
 13
359.6871602721
 23
30.6358139324
  0
SOLID
  8
0
 62
7
  6
CONTINUOUS
 10
359.2246602583
 20
30.5712868422
 11
359.6871602721
 21
30.6358139324
 12
360.3809101894
 22
30.6035511455
 13
360.3809101894
 23
30.6035511455
  0
SOLID
  8
0
 62
7
  6
CONTINUOUS
 10
359.2246602583
 20
30.5712868422
 11
360.3809101894
 21
30.6035511455
 12
359.3980977583
 22
30.5390224228
 13
359.3980977583
 23
30.5390224228
  0
SOLID
  8
0
 62
7
  6
CONTINUOUS
 10
360.3809101894
 20
30.6035511455
 11
360.1496602445
 21
30.5390224228
 12
359.3980977583
 22
30.5390224228
 13
359.3980977583
 23
30.5390224228
  0
SOLID
  8
0
 62
7
  6
CONTINUOUS
 10
359.744972717
 20
30.5067597521
 11
359.3980977583
 21
30.5390224228
 12
360.1496602445
 22
30.5390224228
 13
360.1496602445
 23
30.5390224228
  0
SOLID
  8
0
 62
7
  6
CONTINUOUS
 10
363.2137226343
 20
30.6680782357
 11
363.4449727445
 21
30.7648681127
 12
363.5027853548
 22
30.7003410226
 13
363.5027853548
 23
30.7003410226
  0
SOLID
  8
0
 62
7
  6
CONTINUOUS
 10
363.5027853548
 20
30.7003410226
 11
363.7340351343
 21
30.6358139324
 12
363.2137226343
 22
30.6680782357
 13
363.2137226343
 23
30.6680782357
  0
SOLID
  8
0
 62
7
  6
CONTINUOUS
 10
363.3871601343
 20
30.5712868422
 11
363.2137226343
 21
30.6680782357
 12
363.7340351343
 22
30.6358139324
 13
363.7340351343
 23
30.6358139324
  0
SOLID
  8
0
 62
7
  6
CONTINUOUS
 10
364.0809101343
 20
30.6358139363
 11
364.369972524
 21
30.7003410226
 12
364.6012229651
 22
30.6680782357
 13
364.6012229651
 23
30.6680782357
  0
SOLID
  8
0
 62
7
  6
CONTINUOUS
 10
364.6012229651
 20
30.6680782357
 11
364.543410024
 21
30.6035511455
 12
364.0809101343
 22
30.6358139363
 13
364.0809101343
 23
30.6358139363
  0
SOLID
  8
0
 62
7
  6
CONTINUOUS
 10
364.543410024
 20
30.6035511455
 11
363.3871601343
 21
30.5712868422
 12
364.0809101343
 22
30.6358139363
 13
364.0809101343
 23
30.6358139363
  0
SOLID
  8
0
 62
7
  6
CONTINUOUS
 10
363.3871601343
 20
30.5712868422
 11
363.7340351343
 21
30.6358139363
 12
364.0809101343
 22
30.6358139363
 13
364.0809101343
 23
30.6358139363
  0
SOLID
  8
0
 62
7
  6
CONTINUOUS
 10
363.3871601343
 20
30.5712868422
 11
364.543410024
 21
30.6035511455
 12
363.5027853548
 22
30.5390225267
 13
363.5027853548
 23
30.5390225267
  0
SOLID
  8
0
 62
7
  6
CONTINUOUS
 10
364.543410024
 20
30.6035511455
 11
364.369972524
 21
30.5390225267
 12
363.5027853548
 22
30.5390225267
 13
363.5027853548
 23
30.5390225267
  0
SOLID
  8
0
 62
7
  6
CONTINUOUS
 10
363.7340351343
 20
30.5067596914
 11
363.5027853548
 21
30.5390225267
 12
364.369972524
 22
30.5390225267
 13
364.369972524
 23
30.5390225267
  0
SOLID
  8
0
 62
7
  6
CONTINUOUS
 10
364.369972524
 20
30.5390225267
 11
364.0809101343
 21
30.5067596914
 12
363.7340351343
 22
30.5067596914
 13
363.7340351343
 23
30.5067596914
  0
SOLID
  8
0
 62
7
  6
CONTINUOUS
 10
368.7637229651
 20
30.6680782357
 11
368.4168479651
 21
30.6358138717
 12
368.6480977445
 22
30.7003410226
 13
368.6480977445
 23
30.7003410226
  0
SOLID
  8
0
 62
7
  6
CONTINUOUS
 10
368.6480977445
 20
30.7003410226
 11
368.4168479651
 21
30.6358138717
 12
368.5902854651
 22
30.7648680521
 13
368.5902854651
 23
30.7648680521
  0
SOLID
  8
0
 62
7
  6
CONTINUOUS
 10
368.4168479651
 20
30.6358138717
 11
368.3012227445
 21
30.7648680521
 12
368.5902854651
 22
30.7648680521
 13
368.5902854651
 23
30.7648680521
  0
SOLID
  8
0
 62
7
  6
CONTINUOUS
 10
368.7637229651
 20
30.6680782357
 11
369.1105979651
 21
30.6358138717
 12
368.4168479651
 22
30.6358138717
 13
368.4168479651
 23
30.6358138717
  0
SOLID
  8
0
 62
7
  6
CONTINUOUS
 10
365.4684104651
 20
30.5067597521
 11
365.4684104651
 21
31.5391977439
 12
365.757472524
 22
30.5067597521
 13
365.757472524
 23
31.5391977439
  0
ENDBLK
  8
0
  6
BYBLOCK
 62
0
  0
BLOCK
  8
0
 62
2
  6
CONTINUOUS
  2
SYMBOL_0_BL0
 70
64
 10
240.8592468615
 20
19.762288695
  0
TEXT
  8
0
 62
7
  6
CONTINUOUS
 10
227.1239507038
 20
19.1357028027
  7
TEXTSTYLE_3
 40
2.7338706658
  1
Ammeraal Beltech
 41
1.0
 51
15.0
 72
0
  0
TEXT
  8
0
 62
7
  6
CONTINUOUS
 10
237.9247515296
 20
16.8621661299
  7
TEXTSTYLE_4
 40
1.0935482663
  1
Innovation & Service in Belting
 41
1.0
 72
0
  0
LINE
  8
0
 62
7
  6
CONTINUOUS
 10
221.0994100525
 20
19.9022961113
 11
221.8775620458
 21
23.5632134089
  0
LINE
  8
0
 62
7
  6
CONTINUOUS
 10
231.9727303357
 20
27.2266073205
 11
222.3653797889
 21
24.1049898993
  0
LINE
  8
0
 62
7
  6
CONTINUOUS
 10
221.3246933848
 20
19.2089453082
 11
228.8317686459
 21
12.4495443822
  0
LINE
  8
0
 62
7
  6
CONTINUOUS
 10
221.5872277955
 20
20.4440726016
 11
232.3954971607
 21
23.9558922005
  0
LINE
  8
0
 62
7
  6
CONTINUOUS
 10
232.3912920235
 20
13.6061036368
 11
223.9458323548
 21
21.2104296785
  0
LINE
  8
0
 62
7
  6
CONTINUOUS
 10
232.9111147433
 20
26.3816822048
 11
231.9345552061
 21
21.7873308023
  0
LINE
  8
0
 62
7
  6
CONTINUOUS
 10
231.2347532584
 20
18.4950214885
 11
230.5483050469
 21
15.2655365641
  0
LINE
  8
0
 62
7
  6
CONTINUOUS
 10
233.5922108419
 20
13.9963058145
 11
234.5484423775
 21
18.4950214885
  0
LINE
  8
0
 62
7
  6
CONTINUOUS
 10
235.2482443252
 20
21.7873308023
 11
235.6924861276
 21
23.8773241617
  0
LINE
  8
0
 62
7
  6
CONTINUOUS
 10
229.5448697213
 20
12.2979700695
 11
233.1043930989
 21
13.4545293241
  0
LINE
  8
0
 62
7
  6
CONTINUOUS
 10
232.685831411
 20
27.0750330078
 11
235.4672027953
 21
24.5706749648
  0
ARC
  8
0
 62
7
  6
CONTINUOUS
 10
222.5906631212
 20
23.4116390962
 40
0.7290321776
 50
108.0
 51
168.0
  0
ARC
  8
0
 62
7
  6
CONTINUOUS
 10
232.198013668
 20
26.5332565175
 40
0.7290321776
 50
348.0
 51
108.0
  0
ARC
  8
0
 62
7
  6
CONTINUOUS
 10
234.9793850522
 20
24.0288984744
 40
0.7290321776
 50
348.0
 51
48.0
  0
ARC
  8
0
 62
7
  6
CONTINUOUS
 10
229.319586389
 20
12.9913208726
 40
0.7290321776
 50
228.0
 51
288.0
  0
ARC
  8
0
 62
7
  6
CONTINUOUS
 10
221.8125111278
 20
19.7507217986
 40
0.7290321776
 50
108.0
 51
228.0
  0
ARC
  8
0
 62
7
  6
CONTINUOUS
 10
232.8791097665
 20
14.1478801272
 40
0.7290321776
 50
228.0
 51
348.0
  0
ENDBLK
  8
0
  6
BYBLOCK
 62
0
  0
ENDSEC
  0
SECTION
  2
ENTITIES
  0
TEXT
  8
0
 62
5
  6
CONTINUOUS
 10
304.937007874
 20
25.636
  7
TEXTSTYLE_2
 40
2.8
  1
Scale :
 41
0.6
 51
0.000019
 72
0
  0
TEXT
  8
0
 62
5
  6
CONTINUOUS
 10
324.937007874
 20
25.636
  7
TEXTSTYLE_2
 40
2.8
  1
Belt type:
 41
0.6
 51
0.000019
 72
0
  0
INSERT
  8
0
 62
2
  6
CONTINUOUS
  2
SYMBOL_0_BL0
 10
240.8592468615
 20
19.762288695
  0
INSERT
  8
0
 62
2
  6
CONTINUOUS
  2
SYMBOL_5_BL1
 10
382.7840918555
 20
35.5067593403
  0
LINE
  8
0
 62
2
  6
CONTINUOUS
 10
218.937007874
 20
30.0
 11
408.937007874
 21
30.0
  0
LINE
  8
0
 62
2
  6
CONTINUOUS
 10
218.937007874
 20
30.0
 11
218.937007874
 21
10.0
  0
LINE
  8
0
 62
2
  6
CONTINUOUS
 10
218.937007874
 20
10.0
 11
408.937007874
 21
10.0
  0
LINE
  8
0
 62
2
  6
CONTINUOUS
 10
303.937007874
 20
30.0
 11
303.937007874
 21
10.0
  0
LINE
  8
0
 62
2
  6
CONTINUOUS
 10
323.937007874
 20
30.0
 11
323.937007874
 21
10.0
  0
LINE
  8
0
 62
2
  6
CONTINUOUS
 10
408.937007874
 20
30.0
 11
408.937007874
 21
10.0
  0
TEXT
  8
0
 62
5
  6
CONTINUOUS
 10
221.937007874
 20
23.303
  7
TEXTSTYLE_5
 40
1.52
  1
                                                                     Ammeraal Beltech Modular A/S
 41
1.0
 72
0
  0
TEXT
  8
0
 62
5
  6
CONTINUOUS
 10
221.937007874
 20
20.595
  7
TEXTSTYLE_5
 40
1.5
  1
                                                                      Hjulmagervej 21, 7100 Vejle,  DK
 41
1.0
 72
0
  0
TEXT
  8
0
 62
5
  6
CONTINUOUS
 10
221.937007874
 20
17.881
  7
TEXTSTYLE_5
 40
1.495
  1
                                                                      tel: 
 41
1.0
 72
0
  0
TEXT
  8
0
 62
5
  6
CONTINUOUS
 10
266.9239544389
 20
17.881
  7
TEXTSTYLE_5
 40
1.51
  1
+45 75723100     fax: +45 75723348
 41
1.0
 72
0
  0
TEXT
  8
0
 62
5
  6
CONTINUOUS
 10
221.937007874
 20
15.177
  7
TEXTSTYLE_5
 40
1.5
  1
                                                                      admin@unichains.dk  www.unichains.com
 41
1.0
 72
0
  0
TEXT
  8
0
 62
5
  6
CONTINUOUS
 10
308.687007874
 20
13.75
  7
TEXTSTYLE_6
 40
5.0
  1
1:1
 41
0.7
 72
1
 11
313.937007874
 21
13.75
  0
TEXT
  8
0
 62
5
  6
CONTINUOUS
 10
326.937007874
 20
13.75
  7
TEXTSTYLE_7
 40
7.5
  1
uni XLB M2-K400
 41
0.6922222222
 72
0
  0
LINE
  8
0
 62
7
  6
CONTINUOUS
 10
0.0
 20
0.0
 11
0.0
 21
297.0
  0
LINE
  8
0
 62
7
  6
CONTINUOUS
 10
8.937007874
 20
10.0
 11
8.937007874
 21
287.0
  0
LINE
  8
0
 62
7
  6
CONTINUOUS
 10
0.0
 20
0.0
 11
420.0
 21
0.0
  0
LINE
  8
0
 62
7
  6
CONTINUOUS
 10
408.937007874
 20
10.0
 11
8.937007874
 21
10.0
  0
LINE
  8
0
 62
7
  6
CONTINUOUS
 10
218.937007874
 20
30.0
 11
408.937007874
 21
30.0
  0
LINE
  8
0
 62
7
  6
CONTINUOUS
 10
210.0
 20
297.0
 11
210.0
 21
292.0
  0
LINE
  8
0
 62
7
  6
CONTINUOUS
 10
210.0
 20
0.0
 11
210.0
 21
5.0
  0
LINE
  8
0
 62
7
  6
CONTINUOUS
 10
8.937007874
 20
287.0
 11
408.937007874
 21
287.0
  0
LINE
  8
0
 62
7
  6
CONTINUOUS
 10
0.0
 20
297.0
 11
420.0
 21
297.0
  0
LINE
  8
0
 62
7
  6
CONTINUOUS
 10
408.937007874
 20
287.0
 11
408.937007874
 21
10.0
  0
LINE
  8
0
 62
7
  6
CONTINUOUS
 10
420.0
 20
0.0
 11
420.0
 21
297.0
  0
LINE
  8
0
 62
7
  6
CONTINUOUS
 10
94.8215556199
 20
82.0436819199
 11
94.8215556199
 21
146.22820516
  0
POLYLINE
  8
0
 62
7
  6
CONTINUOUS
 66
1
 70
0
  0
VERTEX
  8
0
 62
7
  6
CONTINUOUS
 10
94.8215556199
 20
146.2282033839
  0
VERTEX
  8
0
 62
7
  6
CONTINUOUS
 10
94.8261844421
 20
146.3572085538
  0
VERTEX
  8
0
 62
7
  6
CONTINUOUS
 10
94.8394671055
 20
146.4815026668
  0
VERTEX
  8
0
 62
7
  6
CONTINUOUS
 10
94.8616596939
 20
146.6060477031
  0
VERTEX
  8
0
 62
7
  6
CONTINUOUS
 10
94.8915333596
 20
146.7252174467
  0
VERTEX
  8
0
 62
7
  6
CONTINUOUS
 10
94.9305895376
 20
146.8451585754
  0
VERTEX
  8
0
 62
7
  6
CONTINUOUS
 10
94.9773611197
 20
146.9607499321
  0
VERTEX
  8
0
 62
7
  6
CONTINUOUS
 10
95.0330289508
 20
147.0747156529
  0
VERTEX
  8
0
 62
7
  6
CONTINUOUS
 10
95.095832286
 20
147.1832784115
  0
VERTEX
  8
0
 62
7
  6
CONTINUOUS
 10
95.1683814223
 20
147.2904108737
  0
VERTEX
  8
0
 62
7
  6
CONTINUOUS
 10
95.2464817783
 20
147.3897419885
  0
VERTEX
  8
0
 62
7
  6
CONTINUOUS
 10
95.3344773465
 20
147.4865473425
  0
VERTEX
  8
0
 62
7
  6
CONTINUOUS
 10
95.4282907102
 20
147.5758379246
  0
VERTEX
  8
0
 62
7
  6
CONTINUOUS
 10
95.5298047172
 20
147.6593148283
  0
VERTEX
  8
0
 62
7
  6
CONTINUOUS
 10
95.63864438
 20
147.7361441965
  0
VERTEX
  8
0
 62
7
  6
CONTINUOUS
 10
95.753546499
 20
147.8050864379
  0
VERTEX
  8
0
 62
7
  6
CONTINUOUS
 10
95.8734871397
 20
147.865394133
  0
VERTEX
  8
0
 62
7
  6
CONTINUOUS
 10
96.0013114514
 20
147.917965844
  0
VERTEX
  8
0
 62
7
  6
CONTINUOUS
 10
96.1301322463
 20
147.9598220105
  0
VERTEX
  8
0
 62
7
  6
CONTINUOUS
 10
96.2675774184
 20
147.9930544918
  0
VERTEX
  8
0
 62
7
  6
CONTINUOUS
 10
96.4029190719
 20
148.0148757265
  0
VERTEX
  8
0
 62
7
  6
CONTINUOUS
 10
96.5460979034
 20
148.0266210587
  0
VERTEX
  8
0
 62
7
  6
CONTINUOUS
 10
96.6215556199
 20
148.0282033832
  0
SEQEND
  0
LINE
  8
0
 62
7
  6
CONTINUOUS
 10
111.1554135911
 20
94.2116940525
 11
111.1557660398
 21
101.7497160591
  0
LINE
  8
0
 62
7
  6
CONTINUOUS
 10
111.5676841845
 20
159.7749272842
 11
111.567332523
 21
152.2376933085
  0
LINE
  8
0
 62
7
  6
CONTINUOUS
 10
111.1537239144
 20
92.7687014924
 11
111.1554135911
 21
94.2116940525
  0
LINE
  8
0
 62
7
  6
CONTINUOUS
 10
111.5693728711
 20
161.2185717088
 11
111.5676841845
 21
159.7749272842
  0
LINE
  8
0
 62
7
  6
CONTINUOUS
 10
111.1509957929
 20
91.4835798851
 11
111.1537239144
 21
92.7687014924
  0
LINE
  8
0
 62
7
  6
CONTINUOUS
 10
111.5721000196
 20
162.5041901457
 11
111.5693728711
 21
161.2185717088
  0
LINE
  8
0
 62
7
  6
CONTINUOUS
 10
111.1463288843
 20
90.0097677634
 11
111.1509957929
 21
91.4835798851
  0
LINE
  8
0
 62
7
  6
CONTINUOUS
 10
111.5767651116
 20
163.9783819721
 11
111.5721000196
 21
162.5041901457
  0
LINE
  8
0
 62
7
  6
CONTINUOUS
 10
111.1408499437
 20
88.7453622753
 11
111.1463288843
 21
90.0097677634
  0
LINE
  8
0
 62
7
  6
CONTINUOUS
 10
111.5822419685
 20
165.2430658615
 11
111.5767651116
 21
163.9783819721
  0
LINE
  8
0
 62
7
  6
CONTINUOUS
 10
111.5898105233
 20
166.5830340835
 11
111.5822419685
 21
165.2430658615
  0
LINE
  8
0
 62
7
  6
CONTINUOUS
 10
111.1332783124
 20
87.4056064429
 11
111.1408499437
 21
88.7453622753
  0
LINE
  8
0
 62
7
  6
CONTINUOUS
 10
111.5991919733
 20
167.8644280765
 11
111.5898105233
 21
166.5830340835
  0
LINE
  8
0
 62
7
  6
CONTINUOUS
 10
111.1238928546
 20
86.1243399934
 11
111.1332783124
 21
87.4056064429
  0
LINE
  8
0
 62
7
  6
CONTINUOUS
 10
111.6100424195
 20
169.0125862947
 11
111.5991919733
 21
167.8644280765
  0
LINE
  8
0
 62
7
  6
CONTINUOUS
 10
111.1130377798
 20
84.9762363717
 11
111.1238928546
 21
86.1243399934
  0
POLYLINE
  8
0
 62
7
  6
CONTINUOUS
 66
1
 70
0
  0
VERTEX
  8
0
 62
7
  6
CONTINUOUS
 10
111.567332633
 20
152.2376933085
  0
VERTEX
  8
0
 62
7
  6
CONTINUOUS
 10
111.5633699383
 20
151.901630904
  0
VERTEX
  8
0
 62
7
  6
CONTINUOUS
 10
111.5507822405
 20
151.5675828034
  0
VERTEX
  8
0
 62
7
  6
CONTINUOUS
 10
111.5295869305
 20
151.2494279488
  0
VERTEX
  8
0
 62
7
  6
CONTINUOUS
 10
111.499869436
 20
150.9465616971
  0
VERTEX
  8
0
 62
7
  6
CONTINUOUS
 10
111.4617213112
 20
150.6582556806
  0
VERTEX
  8
0
 62
7
  6
CONTINUOUS
 10
111.4152406293
 20
150.3839260488
  0
VERTEX
  8
0
 62
7
  6
CONTINUOUS
 10
111.3605349557
 20
150.1231721713
  0
VERTEX
  8
0
 62
7
  6
CONTINUOUS
 10
111.2976755296
 20
149.8755861793
  0
VERTEX
  8
0
 62
7
  6
CONTINUOUS
 10
111.2267328138
 20
149.6409660895
  0
VERTEX
  8
0
 62
7
  6
CONTINUOUS
 10
111.1478445973
 20
149.4194542355
  0
VERTEX
  8
0
 62
7
  6
CONTINUOUS
 10
111.0609948688
 20
149.2109025455
  0
VERTEX
  8
0
 62
7
  6
CONTINUOUS
 10
110.9659715607
 20
149.0150697796
  0
VERTEX
  8
0
 62
7
  6
CONTINUOUS
 10
110.8688261028
 20
148.8424760403
  0
SEQEND
  0
LINE
  8
0
 62
7
  6
CONTINUOUS
 10
111.6223270117
 20
170.0105360831
 11
111.6100424195
 21
169.0125862947
  0
LINE
  8
0
 62
7
  6
CONTINUOUS
 10
111.1007474382
 20
83.9782168281
 11
111.1130377798
 21
84.9762363717
  0
POLYLINE
  8
0
 62
7
  6
CONTINUOUS
 66
1
 70
0
  0
VERTEX
  8
0
 62
7
  6
CONTINUOUS
 10
111.1557659564
 20
101.7497160591
  0
VERTEX
  8
0
 62
7
  6
CONTINUOUS
 10
111.1618044508
 20
102.1622209566
  0
VERTEX
  8
0
 62
7
  6
CONTINUOUS
 10
111.1812577059
 20
102.5720170344
  0
VERTEX
  8
0
 62
7
  6
CONTINUOUS
 10
111.2146319261
 20
102.9629953728
  0
VERTEX
  8
0
 62
7
  6
CONTINUOUS
 10
111.2621579578
 20
103.334315613
  0
VERTEX
  8
0
 62
7
  6
CONTINUOUS
 10
111.3238982241
 20
103.685522444
  0
VERTEX
  8
0
 62
7
  6
CONTINUOUS
 10
111.3965195909
 20
104.0035180794
  0
SEQEND
  0
LINE
  8
0
 62
7
  6
CONTINUOUS
 10
111.6342067151
 20
170.7431749241
 11
111.6223270117
 21
170.0105360831
  0
LINE
  8
0
 62
7
  6
CONTINUOUS
 10
111.0888611481
 20
83.2453894167
 11
111.1007474382
 21
83.9782168281
  0
LINE
  8
0
 62
7
  6
CONTINUOUS
 10
111.6427196463
 20
171.1516554245
 11
111.6342067151
 21
170.7431749241
  0
LINE
  8
0
 62
7
  6
CONTINUOUS
 10
111.0803426406
 20
82.8367173012
 11
111.0888611481
 21
83.2453894167
  0
LINE
  8
0
 62
7
  6
CONTINUOUS
 10
111.6493372348
 20
171.4097122483
 11
111.6427196463
 21
171.1516554245
  0
LINE
  8
0
 62
7
  6
CONTINUOUS
 10
111.073719093
 20
82.5784534658
 11
111.0803426406
 21
82.8367173012
  0
LINE
  8
0
 62
7
  6
CONTINUOUS
 10
111.6542213414
 20
171.5693714386
 11
111.6493372348
 21
171.4097122483
  0
LINE
  8
0
 62
7
  6
CONTINUOUS
 10
111.0688306276
 20
82.4186565587
 11
111.073719093
 21
82.5784534658
  0
LINE
  8
0
 62
7
  6
CONTINUOUS
 10
111.6577208942
 20
171.6686403845
 11
111.6542213414
 21
171.5693714386
  0
LINE
  8
0
 62
7
  6
CONTINUOUS
 10
111.0653282531
 20
82.319303611
 11
111.0688306276
 21
82.4186565587
  0
LINE
  8
0
 62
7
  6
CONTINUOUS
 10
111.6611604131
 20
171.7545585644
 11
111.6577208942
 21
171.6686403845
  0
POLYLINE
  8
0
 62
7
  6
CONTINUOUS
 66
1
 70
0
  0
VERTEX
  8
0
 62
7
  6
CONTINUOUS
 10
111.0607363877
 20
82.2070474786
  0
VERTEX
  8
0
 62
7
  6
CONTINUOUS
 10
111.0618864293
 20
82.2333174008
  0
VERTEX
  8
0
 62
7
  6
CONTINUOUS
 10
111.0653282531
 20
82.319303611
  0
SEQEND
  0
LINE
  8
0
 62
7
  6
CONTINUOUS
 10
111.6646388339
 20
171.8303895452
 11
111.6611604131
 21
171.7545585644
  0
LINE
  8
0
 62
7
  6
CONTINUOUS
 10
111.6670348316
 20
171.8765851422
 11
111.6646388339
 21
171.8303895452
  0
LINE
  8
0
 62
7
  6
CONTINUOUS
 10
111.6695415885
 20
171.9200500096
 11
111.6670348316
 21
171.8765851422
  0
POLYLINE
  8
0
 62
7
  6
CONTINUOUS
 66
1
 70
0
  0
VERTEX
  8
0
 62
7
  6
CONTINUOUS
 10
110.8688261538
 20
148.8424760094
  0
VERTEX
  8
0
 62
7
  6
CONTINUOUS
 10
110.8212888582
 20
148.7657971494
  0
VERTEX
  8
0
 62
7
  6
CONTINUOUS
 10
110.7631103248
 20
148.6770697807
  0
VERTEX
  8
0
 62
7
  6
CONTINUOUS
 10
110.7050027301
 20
148.5941795442
  0
VERTEX
  8
0
 62
7
  6
CONTINUOUS
 10
110.646630151
 20
148.5167294936
  0
VERTEX
  8
0
 62
7
  6
CONTINUOUS
 10
110.5876890416
 20
148.4444537037
  0
VERTEX
  8
0
 62
7
  6
CONTINUOUS
 10
110.5279544443
 20
148.3772653681
  0
VERTEX
  8
0
 62
7
  6
CONTINUOUS
 10
110.4672590954
 20
148.3152082538
  0
VERTEX
  8
0
 62
7
  6
CONTINUOUS
 10
110.405605367
 20
148.2585389953
  0
VERTEX
  8
0
 62
7
  6
CONTINUOUS
 10
110.3433988712
 20
148.2078248942
  0
VERTEX
  8
0
 62
7
  6
CONTINUOUS
 10
110.2811220313
 20
148.1635227556
  0
VERTEX
  8
0
 62
7
  6
CONTINUOUS
 10
110.2194328163
 20
148.1259919065
  0
VERTEX
  8
0
 62
7
  6
CONTINUOUS
 10
110.1589593069
 20
148.0953033931
  0
VERTEX
  8
0
 62
7
  6
CONTINUOUS
 10
110.0998304684
 20
148.0710789879
  0
VERTEX
  8
0
 62
7
  6
CONTINUOUS
 10
110.040875071
 20
148.0525093068
  0
VERTEX
  8
0
 62
7
  6
CONTINUOUS
 10
109.9800494505
 20
148.0390118478
  0
VERTEX
  8
0
 62
7
  6
CONTINUOUS
 10
109.9152492383
 20
148.030672931
  0
VERTEX
  8
0
 62
7
  6
CONTINUOUS
 10
109.8546847845
 20
148.0282034485
  0
SEQEND
  0
LINE
  8
0
 62
7
  6
CONTINUOUS
 10
111.0584063598
 20
82.1574327714
 11
111.0607363877
 21
82.2070474786
  0
LINE
  8
0
 62
7
  6
CONTINUOUS
 10
111.0560094924
 20
82.1112043022
 11
111.0584063598
 21
82.1574327714
  0
LINE
  8
0
 62
7
  6
CONTINUOUS
 10
111.0535021991
 20
82.0677104158
 11
111.0560094924
 21
82.1112043022
  0
POLYLINE
  8
0
 62
7
  6
CONTINUOUS
 66
1
 70
0
  0
VERTEX
  8
0
 62
7
  6
CONTINUOUS
 10
111.3965195153
 20
104.0035180988
  0
VERTEX
  8
0
 62
7
  6
CONTINUOUS
 10
111.4418413692
 20
104.1789552132
  0
VERTEX
  8
0
 62
7
  6
CONTINUOUS
 10
111.4694936881
 20
104.2839428256
  0
VERTEX
  8
0
 62
7
  6
CONTINUOUS
 10
111.4983959214
 20
104.3911305477
  0
VERTEX
  8
0
 62
7
  6
CONTINUOUS
 10
111.5285542633
 20
104.499523135
  0
VERTEX
  8
0
 62
7
  6
CONTINUOUS
 10
111.5599685795
 20
104.6080741856
  0
VERTEX
  8
0
 62
7
  6
CONTINUOUS
 10
111.5926125624
 20
104.7156731825
  0
VERTEX
  8
0
 62
7
  6
CONTINUOUS
 10
111.6263985131
 20
104.8211343195
  0
VERTEX
  8
0
 62
7
  6
CONTINUOUS
 10
111.6611574068
 20
104.9232161
  0
VERTEX
  8
0
 62
7
  6
CONTINUOUS
 10
111.6966043976
 20
105.0206403985
  0
VERTEX
  8
0
 62
7
  6
CONTINUOUS
 10
111.7323328835
 20
105.1121675031
  0
VERTEX
  8
0
 62
7
  6
CONTINUOUS
 10
111.7679426034
 20
105.1969731023
  0
VERTEX
  8
0
 62
7
  6
CONTINUOUS
 10
111.8031749098
 20
105.2748594457
  0
VERTEX
  8
0
 62
7
  6
CONTINUOUS
 10
111.8383884442
 20
105.3470274683
  0
VERTEX
  8
0
 62
7
  6
CONTINUOUS
 10
111.8740897097
 20
105.414710198
  0
VERTEX
  8
0
 62
7
  6
CONTINUOUS
 10
111.910730274
 20
105.4787523888
  0
VERTEX
  8
0
 62
7
  6
CONTINUOUS
 10
111.9485013977
 20
105.5393428856
  0
VERTEX
  8
0
 62
7
  6
CONTINUOUS
 10
111.9874963999
 20
105.5964421565
  0
VERTEX
  8
0
 62
7
  6
CONTINUOUS
 10
112.0277546134
 20
105.6498995692
  0
VERTEX
  8
0
 62
7
  6
CONTINUOUS
 10
112.0692854935
 20
105.6995155002
  0
VERTEX
  8
0
 62
7
  6
CONTINUOUS
 10
112.1118412952
 20
105.7448332712
  0
VERTEX
  8
0
 62
7
  6
CONTINUOUS
 10
112.1551188762
 20
105.7854796172
  0
VERTEX
  8
0
 62
7
  6
CONTINUOUS
 10
112.1988614667
 20
105.8212760192
  0
VERTEX
  8
0
 62
7
  6
CONTINUOUS
 10
112.2431714742
 20
105.852418987
  0
VERTEX
  8
0
 62
7
  6
CONTINUOUS
 10
112.2887277528
 20
105.8794131399
  0
VERTEX
  8
0
 62
7
  6
CONTINUOUS
 10
112.3367782715
 20
105.902796253
  0
VERTEX
  8
0
 62
7
  6
CONTINUOUS
 10
112.3881652926
 20
105.9225732139
  0
VERTEX
  8
0
 62
7
  6
CONTINUOUS
 10
112.4434428307
 20
105.9384862434
  0
VERTEX
  8
0
 62
7
  6
CONTINUOUS
 10
112.502703512
 20
105.9501246504
  0
VERTEX
  8
0
 62
7
  6
CONTINUOUS
 10
112.5662167922
 20
105.9571371907
  0
VERTEX
  8
0
 62
7
  6
CONTINUOUS
 10
112.625322756
 20
105.9591580697
  0
SEQEND
  0
POLYLINE
  8
0
 62
7
  6
CONTINUOUS
 66
1
 70
0
  0
VERTEX
  8
0
 62
7
  6
CONTINUOUS
 10
128.380972241
 20
82.0445731739
  0
VERTEX
  8
0
 62
7
  6
CONTINUOUS
 10
128.3826822847
 20
82.0192142509
  0
VERTEX
  8
0
 62
7
  6
CONTINUOUS
 10
128.3844659616
 20
81.9947125636
  0
VERTEX
  8
0
 62
7
  6
CONTINUOUS
 10
128.3863531107
 20
81.9707546257
  0
VERTEX
  8
0
 62
7
  6
CONTINUOUS
 10
128.3883850275
 20
81.9469744982
  0
VERTEX
  8
0
 62
7
  6
CONTINUOUS
 10
128.3906161179
 20
81.9229729278
  0
VERTEX
  8
0
 62
7
  6
CONTINUOUS
 10
128.3931126948
 20
81.8983639863
  0
VERTEX
  8
0
 62
7
  6
CONTINUOUS
 10
128.3959579629
 20
81.8727528775
  0
VERTEX
  8
0
 62
7
  6
CONTINUOUS
 10
128.3992611
 20
81.8456965998
  0
VERTEX
  8
0
 62
7
  6
CONTINUOUS
 10
128.4031632465
 20
81.8167149479
  0
VERTEX
  8
0
 62
7
  6
CONTINUOUS
 10
128.407844154
 20
81.7853045946
  0
VERTEX
  8
0
 62
7
  6
CONTINUOUS
 10
128.4135300796
 20
81.750951387
  0
VERTEX
  8
0
 62
7
  6
CONTINUOUS
 10
128.4204200406
 20
81.7135677419
  0
VERTEX
  8
0
 62
7
  6
CONTINUOUS
 10
128.4286285483
 20
81.673592806
  0
VERTEX
  8
0
 62
7
  6
CONTINUOUS
 10
128.4381873064
 20
81.6317310691
  0
VERTEX
  8
0
 62
7
  6
CONTINUOUS
 10
128.4493883242
 20
81.5875066948
  0
VERTEX
  8
0
 62
7
  6
CONTINUOUS
 10
128.462914445
 20
81.5393437839
  0
VERTEX
  8
0
 62
7
  6
CONTINUOUS
 10
128.4797821212
 20
81.485331597
  0
VERTEX
  8
0
 62
7
  6
CONTINUOUS
 10
128.5009128644
 20
81.424756762
  0
VERTEX
  8
0
 62
7
  6
CONTINUOUS
 10
128.5268416834
 20
81.3584456452
  0
VERTEX
  8
0
 62
7
  6
CONTINUOUS
 10
128.557911704
 20
81.2876551589
  0
VERTEX
  8
0
 62
7
  6
CONTINUOUS
 10
128.5944770006
 20
81.2134275483
  0
VERTEX
  8
0
 62
7
  6
CONTINUOUS
 10
128.6369183506
 20
81.1366207606
  0
VERTEX
  8
0
 62
7
  6
CONTINUOUS
 10
128.6855209543
 20
81.0581631425
  0
VERTEX
  8
0
 62
7
  6
CONTINUOUS
 10
128.7405195924
 20
80.9789452666
  0
VERTEX
  8
0
 62
7
  6
CONTINUOUS
 10
128.8020835246
 20
80.8998436294
  0
VERTEX
  8
0
 62
7
  6
CONTINUOUS
 10
128.8702863987
 20
80.8217495246
  0
VERTEX
  8
0
 62
7
  6
CONTINUOUS
 10
128.9450875332
 20
80.7455674976
  0
VERTEX
  8
0
 62
7
  6
CONTINUOUS
 10
129.0266297828
 20
80.6719379522
  0
VERTEX
  8
0
 62
7
  6
CONTINUOUS
 10
129.1155155216
 20
80.6011644381
  0
VERTEX
  8
0
 62
7
  6
CONTINUOUS
 10
129.2124327509
 20
80.5336961069
  0
VERTEX
  8
0
 62
7
  6
CONTINUOUS
 10
129.3180906172
 20
80.470197824
  0
VERTEX
  8
0
 62
7
  6
CONTINUOUS
 10
129.4327858869
 20
80.4117652767
  0
VERTEX
  8
0
 62
7
  6
CONTINUOUS
 10
129.5554329394
 20
80.3601271496
  0
VERTEX
  8
0
 62
7
  6
CONTINUOUS
 10
129.6844245074
 20
80.316839287
  0
VERTEX
  8
0
 62
7
  6
CONTINUOUS
 10
129.817901358
 20
80.2830742847
  0
VERTEX
  8
0
 62
7
  6
CONTINUOUS
 10
129.9538214313
 20
80.2595699953
  0
VERTEX
  8
0
 62
7
  6
CONTINUOUS
 10
130.0900358086
 20
80.2465995287
  0
VERTEX
  8
0
 62
7
  6
CONTINUOUS
 10
130.192527226
 20
80.2436808826
  0
SEQEND
  0
LINE
  8
0
 62
7
  6
CONTINUOUS
 10
128.377699166
 20
82.0987890329
 11
128.380972241
 21
82.0445731739
  0
LINE
  8
0
 62
7
  6
CONTINUOUS
 10
128.3745346322
 20
82.1590895251
 11
128.377699166
 21
82.0987890329
  0
LINE
  8
0
 62
7
  6
CONTINUOUS
 10
128.3713961676
 20
82.2273204475
 11
128.3745346322
 21
82.1590895251
  0
LINE
  8
0
 62
7
  6
CONTINUOUS
 10
128.3682257887
 20
82.3054008164
 11
128.3713961676
 21
82.2273204475
  0
LINE
  8
0
 62
7
  6
CONTINUOUS
 10
128.3632609101
 20
82.4474055959
 11
128.3682257887
 21
82.3054008164
  0
POLYLINE
  8
0
 62
7
  6
CONTINUOUS
 66
1
 70
0
  0
VERTEX
  8
0
 62
7
  6
CONTINUOUS
 10
128.3560674226
 20
82.6989620127
  0
VERTEX
  8
0
 62
7
  6
CONTINUOUS
 10
128.3579151081
 20
82.6289542702
  0
VERTEX
  8
0
 62
7
  6
CONTINUOUS
 10
128.3632609101
 20
82.4474055959
  0
SEQEND
  0
POLYLINE
  8
0
 62
7
  6
CONTINUOUS
 66
1
 70
0
  0
VERTEX
  8
0
 62
7
  6
CONTINUOUS
 10
127.5788261542
 20
105.1448853736
  0
VERTEX
  8
0
 62
7
  6
CONTINUOUS
 10
127.6759716816
 20
104.9722914464
  0
VERTEX
  8
0
 62
7
  6
CONTINUOUS
 10
127.7709950108
 20
104.7764586022
  0
VERTEX
  8
0
 62
7
  6
CONTINUOUS
 10
127.8578446577
 20
104.5679070718
  0
VERTEX
  8
0
 62
7
  6
CONTINUOUS
 10
127.9367328241
 20
104.346395319
  0
VERTEX
  8
0
 62
7
  6
CONTINUOUS
 10
128.0076755551
 20
104.1117752028
  0
VERTEX
  8
0
 62
7
  6
CONTINUOUS
 10
128.070534961
 20
103.8641893035
  0
VERTEX
  8
0
 62
7
  6
CONTINUOUS
 10
128.12524063
 20
103.6034354052
  0
VERTEX
  8
0
 62
7
  6
CONTINUOUS
 10
128.1717213019
 20
103.3291058284
  0
VERTEX
  8
0
 62
7
  6
CONTINUOUS
 10
128.2098694322
 20
103.0407998369
  0
VERTEX
  8
0
 62
7
  6
CONTINUOUS
 10
128.2395869343
 20
102.7379335011
  0
VERTEX
  8
0
 62
7
  6
CONTINUOUS
 10
128.2607822316
 20
102.4197786499
  0
VERTEX
  8
0
 62
7
  6
CONTINUOUS
 10
128.2733699432
 20
102.0857305722
  0
VERTEX
  8
0
 62
7
  6
CONTINUOUS
 10
128.2773326233
 20
101.7496681146
  0
SEQEND
  0
POLYLINE
  8
0
 62
7
  6
CONTINUOUS
 66
1
 70
0
  0
VERTEX
  8
0
 62
7
  6
CONTINUOUS
 10
127.8421390033
 20
171.9427882223
  0
VERTEX
  8
0
 62
7
  6
CONTINUOUS
 10
127.8404289595
 20
171.9681471516
  0
VERTEX
  8
0
 62
7
  6
CONTINUOUS
 10
127.8386452832
 20
171.9926488355
  0
VERTEX
  8
0
 62
7
  6
CONTINUOUS
 10
127.8367581339
 20
172.0166067815
  0
VERTEX
  8
0
 62
7
  6
CONTINUOUS
 10
127.8347262158
 20
172.040386929
  0
VERTEX
  8
0
 62
7
  6
CONTINUOUS
 10
127.8324951245
 20
172.0643885108
  0
VERTEX
  8
0
 62
7
  6
CONTINUOUS
 10
127.8299985477
 20
172.0889974531
  0
VERTEX
  8
0
 62
7
  6
CONTINUOUS
 10
127.8271532813
 20
172.1146085492
  0
VERTEX
  8
0
 62
7
  6
CONTINUOUS
 10
127.8238501486
 20
172.1416647962
  0
VERTEX
  8
0
 62
7
  6
CONTINUOUS
 10
127.8199480012
 20
172.1706464619
  0
VERTEX
  8
0
 62
7
  6
CONTINUOUS
 10
127.8152670899
 20
172.2020568451
  0
VERTEX
  8
0
 62
7
  6
CONTINUOUS
 10
127.8095811605
 20
172.2364100769
  0
VERTEX
  8
0
 62
7
  6
CONTINUOUS
 10
127.8026911962
 20
172.2737937384
  0
VERTEX
  8
0
 62
7
  6
CONTINUOUS
 10
127.7944826866
 20
172.3137686816
  0
VERTEX
  8
0
 62
7
  6
CONTINUOUS
 10
127.7849239281
 20
172.3556304172
  0
VERTEX
  8
0
 62
7
  6
CONTINUOUS
 10
127.7737229116
 20
172.3998547842
  0
VERTEX
  8
0
 62
7
  6
CONTINUOUS
 10
127.7601967935
 20
172.4480176847
  0
VERTEX
  8
0
 62
7
  6
CONTINUOUS
 10
127.7433291206
 20
172.5020298612
  0
VERTEX
  8
0
 62
7
  6
CONTINUOUS
 10
127.7221983812
 20
172.562604687
  0
VERTEX
  8
0
 62
7
  6
CONTINUOUS
 10
127.6962695573
 20
172.6289158179
  0
VERTEX
  8
0
 62
7
  6
CONTINUOUS
 10
127.6651995195
 20
172.6997063417
  0
VERTEX
  8
0
 62
7
  6
CONTINUOUS
 10
127.628634204
 20
172.773933985
  0
VERTEX
  8
0
 62
7
  6
CONTINUOUS
 10
127.5861928325
 20
172.8507408022
  0
VERTEX
  8
0
 62
7
  6
CONTINUOUS
 10
127.5375902042
 20
172.9291984475
  0
VERTEX
  8
0
 62
7
  6
CONTINUOUS
 10
127.4825915382
 20
173.008416348
  0
VERTEX
  8
0
 62
7
  6
CONTINUOUS
 10
127.4210275756
 20
173.0875180059
  0
VERTEX
  8
0
 62
7
  6
CONTINUOUS
 10
127.3528246693
 20
173.1656121268
  0
VERTEX
  8
0
 62
7
  6
CONTINUOUS
 10
127.2780235021
 20
173.2417941645
  0
VERTEX
  8
0
 62
7
  6
CONTINUOUS
 10
127.1964812173
 20
173.315423717
  0
VERTEX
  8
0
 62
7
  6
CONTINUOUS
 10
127.107595437
 20
173.3861972373
  0
VERTEX
  8
0
 62
7
  6
CONTINUOUS
 10
127.0106781553
 20
173.4536655749
  0
VERTEX
  8
0
 62
7
  6
CONTINUOUS
 10
126.9050202209
 20
173.5171638645
  0
VERTEX
  8
0
 62
7
  6
CONTINUOUS
 10
126.7903248709
 20
173.5755964129
  0
VERTEX
  8
0
 62
7
  6
CONTINUOUS
 10
126.6676777458
 20
173.6272345254
  0
VERTEX
  8
0
 62
7
  6
CONTINUOUS
 10
126.5386861352
 20
173.6705223538
  0
VERTEX
  8
0
 62
7
  6
CONTINUOUS
 10
126.4052092959
 20
173.704287305
  0
VERTEX
  8
0
 62
7
  6
CONTINUOUS
 10
126.2692893116
 20
173.7277915362
  0
VERTEX
  8
0
 62
7
  6
CONTINUOUS
 10
126.1330751233
 20
173.7407619539
  0
VERTEX
  8
0
 62
7
  6
CONTINUOUS
 10
126.0305840156
 20
173.7436805823
  0
SEQEND
  0
LINE
  8
0
 62
7
  6
CONTINUOUS
 10
127.8454120798
 20
171.888572327
 11
127.8421390033
 21
171.9427882223
  0
LINE
  8
0
 62
7
  6
CONTINUOUS
 10
127.8485766135
 20
171.8282718192
 11
127.8454120798
 21
171.888572327
  0
LINE
  8
0
 62
7
  6
CONTINUOUS
 10
127.8517150793
 20
171.7600408542
 11
127.8485766135
 21
171.8282718192
  0
LINE
  8
0
 62
7
  6
CONTINUOUS
 10
127.8548854588
 20
171.6819604503
 11
127.8517150793
 21
171.7600408542
  0
LINE
  8
0
 62
7
  6
CONTINUOUS
 10
127.8598503391
 20
171.5399555774
 11
127.8548854588
 21
171.6819604503
  0
LINE
  8
0
 62
7
  6
CONTINUOUS
 10
127.865196143
 20
171.3584067784
 11
127.8598503391
 21
171.5399555774
  0
LINE
  8
0
 62
7
  6
CONTINUOUS
 10
127.8727321204
 20
171.0482475558
 11
127.865196143
 21
171.3584067784
  0
LINE
  8
0
 62
7
  6
CONTINUOUS
 10
128.3484415665
 20
83.0297312712
 11
128.3560674226
 21
82.6989620127
  0
LINE
  8
0
 62
7
  6
CONTINUOUS
 10
127.8805731206
 20
170.6522760442
 11
127.8727321204
 21
171.0482475558
  0
LINE
  8
0
 62
7
  6
CONTINUOUS
 10
128.3405486968
 20
83.4483698848
 11
128.3484415665
 21
83.0297312712
  0
LINE
  8
0
 62
7
  6
CONTINUOUS
 10
127.8885794072
 20
170.162209638
 11
127.8805731206
 21
170.6522760442
  0
LINE
  8
0
 62
7
  6
CONTINUOUS
 10
128.3325112255
 20
83.9638600986
 11
128.3405486968
 21
83.4483698848
  0
LINE
  8
0
 62
7
  6
CONTINUOUS
 10
127.8966970498
 20
169.5644616635
 11
127.8885794072
 21
170.162209638
  0
LINE
  8
0
 62
7
  6
CONTINUOUS
 10
128.3243737163
 20
84.5910982251
 11
128.3325112255
 21
83.9638600986
  0
LINE
  8
0
 62
7
  6
CONTINUOUS
 10
127.9048671339
 20
168.8418795127
 11
127.8966970498
 21
169.5644616635
  0
LINE
  8
0
 62
7
  6
CONTINUOUS
 10
128.3162023727
 20
85.3480400638
 11
128.3243737163
 21
84.5910982251
  0
LINE
  8
0
 62
7
  6
CONTINUOUS
 10
127.9130047329
 20
167.973160909
 11
127.9048671339
 21
168.8418795127
  0
LINE
  8
0
 62
7
  6
CONTINUOUS
 10
128.3080918402
 20
86.2570897213
 11
128.3162023727
 21
85.3480400638
  0
LINE
  8
0
 62
7
  6
CONTINUOUS
 10
127.9190214774
 20
167.2085757483
 11
127.9130047329
 21
167.973160909
  0
LINE
  8
0
 62
7
  6
CONTINUOUS
 10
128.3021015538
 20
87.0598254039
 11
128.3080918402
 21
86.2570897213
  0
LINE
  8
0
 62
7
  6
CONTINUOUS
 10
127.9249546334
 20
166.3189713895
 11
127.9190214774
 21
167.2085757483
  0
LINE
  8
0
 62
7
  6
CONTINUOUS
 10
128.296199053
 20
87.9997391128
 11
128.3021015538
 21
87.0598254039
  0
LINE
  8
0
 62
7
  6
CONTINUOUS
 10
127.9308157168
 20
165.2539214803
 11
127.9249546334
 21
166.3189713895
  0
LINE
  8
0
 62
7
  6
CONTINUOUS
 10
128.2903623378
 20
89.1414142055
 11
128.296199053
 21
87.9997391128
  0
LINE
  8
0
 62
7
  6
CONTINUOUS
 10
127.9346429366
 20
164.409478642
 11
127.9308157168
 21
165.2539214803
  0
LINE
  8
0
 62
7
  6
CONTINUOUS
 10
128.2866359513
 20
90.043427138
 11
128.2903623378
 21
89.1414142055
  0
LINE
  8
0
 62
7
  6
CONTINUOUS
 10
127.9382283737
 20
163.446917519
 11
127.9346429366
 21
164.409478642
  0
LINE
  8
0
 62
7
  6
CONTINUOUS
 10
128.2832295883
 20
91.0717951942
 11
128.2866359513
 21
90.043427138
  0
LINE
  8
0
 62
7
  6
CONTINUOUS
 10
127.9414053084
 20
162.3485500199
 11
127.9382283737
 21
163.446917519
  0
LINE
  8
0
 62
7
  6
CONTINUOUS
 10
128.2803675006
 20
92.2318111807
 11
128.2832295883
 21
91.0717951942
  0
LINE
  8
0
 62
7
  6
CONTINUOUS
 10
127.9438484599
 20
161.1514560441
 11
127.9414053084
 21
162.3485500199
  0
LINE
  8
0
 62
7
  6
CONTINUOUS
 10
128.2784127279
 20
93.4391428796
 11
128.2803675006
 21
92.2318111807
  0
LINE
  8
0
 62
7
  6
CONTINUOUS
 10
127.9453008686
 20
159.9454638688
 11
127.9438484599
 21
161.1514560441
  0
LINE
  8
0
 62
7
  6
CONTINUOUS
 10
128.2774500364
 20
94.647244057
 11
128.2784127279
 21
93.4391428796
  0
LINE
  8
0
 62
7
  6
CONTINUOUS
 10
127.9457787167
 20
158.7436807325
 11
127.9453008686
 21
159.9454638688
  0
LINE
  8
0
 62
7
  6
CONTINUOUS
 10
127.9457787168
 20
152.2376933696
 11
127.9457787168
 21
158.7436807325
  0
LINE
  8
0
 62
7
  6
CONTINUOUS
 10
128.277332523
 20
101.7496681146
 11
128.2774500364
 21
94.647244057
  0
POLYLINE
  8
0
 62
7
  6
CONTINUOUS
 66
1
 70
0
  0
VERTEX
  8
0
 62
7
  6
CONTINUOUS
 10
144.8215577958
 20
150.3136047078
  0
VERTEX
  8
0
 62
7
  6
CONTINUOUS
 10
144.7702770637
 20
150.0795539725
  0
VERTEX
  8
0
 62
7
  6
CONTINUOUS
 10
144.7078519697
 20
149.840637804
  0
VERTEX
  8
0
 62
7
  6
CONTINUOUS
 10
144.6375723483
 20
149.6133591635
  0
VERTEX
  8
0
 62
7
  6
CONTINUOUS
 10
144.5596681846
 20
149.3983990786
  0
VERTEX
  8
0
 62
7
  6
CONTINUOUS
 10
144.4743749502
 20
149.1962590394
  0
VERTEX
  8
0
 62
7
  6
CONTINUOUS
 10
144.3818366523
 20
149.0071972297
  0
VERTEX
  8
0
 62
7
  6
CONTINUOUS
 10
144.2888259695
 20
148.8424758345
  0
SEQEND
  0
POLYLINE
  8
0
 62
7
  6
CONTINUOUS
 66
1
 70
0
  0
VERTEX
  8
0
 62
7
  6
CONTINUOUS
 10
144.2888260316
 20
148.8424757969
  0
VERTEX
  8
0
 62
7
  6
CONTINUOUS
 10
144.2412245385
 20
148.7656959123
  0
VERTEX
  8
0
 62
7
  6
CONTINUOUS
 10
144.183055485
 20
148.6769888165
  0
VERTEX
  8
0
 62
7
  6
CONTINUOUS
 10
144.1257045776
 20
148.5951463422
  0
VERTEX
  8
0
 62
7
  6
CONTINUOUS
 10
144.0685781106
 20
148.5192197579
  0
VERTEX
  8
0
 62
7
  6
CONTINUOUS
 10
144.0110590022
 20
148.448425748
  0
VERTEX
  8
0
 62
7
  6
CONTINUOUS
 10
143.9526394544
 20
148.38231536
  0
VERTEX
  8
0
 62
7
  6
CONTINUOUS
 10
143.8931140673
 20
148.3209228232
  0
VERTEX
  8
0
 62
7
  6
CONTINUOUS
 10
143.8324117065
 20
148.2644811732
  0
VERTEX
  8
0
 62
7
  6
CONTINUOUS
 10
143.7705735995
 20
148.2133440244
  0
VERTEX
  8
0
 62
7
  6
CONTINUOUS
 10
143.7076245019
 20
148.1678466268
  0
VERTEX
  8
0
 62
7
  6
CONTINUOUS
 10
143.643605793
 20
148.1283318898
  0
VERTEX
  8
0
 62
7
  6
CONTINUOUS
 10
143.5792632438
 20
148.0954425951
  0
VERTEX
  8
0
 62
7
  6
CONTINUOUS
 10
143.5148727607
 20
148.0693046202
  0
VERTEX
  8
0
 62
7
  6
CONTINUOUS
 10
143.4505561783
 20
148.0498206172
  0
VERTEX
  8
0
 62
7
  6
CONTINUOUS
 10
143.3871694167
 20
148.0368685321
  0
VERTEX
  8
0
 62
7
  6
CONTINUOUS
 10
143.3251644575
 20
148.0299132803
  0
VERTEX
  8
0
 62
7
  6
CONTINUOUS
 10
143.2746847562
 20
148.0282034325
  0
SEQEND
  0
LINE
  8
DEFAULT_1
 62
2
  6
CENTER
 10
144.8215556199
 20
132.2436807325
 11
144.8215556199
 21
128.9937807325
  0
LINE
  8
0
 62
2
  6
CONTINUOUS
 10
144.8215556199
 20
128.0436807325
 11
144.8215556199
 21
125.9436807325
  0
LINE
  8
DEFAULT_1
 62
2
  6
CENTER
 10
144.8215556199
 20
121.7436807325
 11
144.8215556199
 21
124.9935807325
  0
LINE
  8
0
 62
7
  6
CONTINUOUS
 10
144.6554266497
 20
94.2118405709
 11
144.6557787168
 21
101.7496681209
  0
LINE
  8
SURFACE
 62
7
  6
CONTINUOUS
 10
144.9876845901
 20
159.7755208941
 11
144.987332523
 21
152.237693344
  0
LINE
  8
0
 62
7
  6
CONTINUOUS
 10
144.6537388585
 20
92.7690841099
 11
144.6554266497
 21
94.2118405709
  0
LINE
  8
SURFACE
 62
7
  6
CONTINUOUS
 10
144.9893723814
 20
161.218277355
 11
144.9876845901
 21
159.7755208941
  0
LINE
  8
0
 62
7
  6
CONTINUOUS
 10
144.6510137158
 20
91.4841349271
 11
144.6537388585
 21
92.7690841099
  0
LINE
  8
SURFACE
 62
7
  6
CONTINUOUS
 10
144.9920975241
 20
162.5032265379
 11
144.9893723814
 21
161.218277355
  0
LINE
  8
0
 62
7
  6
CONTINUOUS
 10
144.6463513449
 20
90.0103655817
 11
144.6510137158
 21
91.4841349271
  0
LINE
  8
SURFACE
 62
7
  6
CONTINUOUS
 10
144.9967598949
 20
163.9769958832
 11
144.9920975241
 21
162.5032265379
  0
LINE
  8
SURFACE
 62
7
  6
CONTINUOUS
 10
145.0022337802
 20
165.2414039737
 11
144.9967598949
 21
163.9769958832
  0
LINE
  8
0
 62
7
  6
CONTINUOUS
 10
144.6408774596
 20
88.7459574912
 11
144.6463513449
 21
90.0103655817
  0
LINE
  8
SURFACE
 62
7
  6
CONTINUOUS
 10
145.0097984253
 20
166.5811514391
 11
145.0022337802
 21
165.2414039737
  0
LINE
  8
0
 62
7
  6
CONTINUOUS
 10
144.6333128146
 20
87.4062100258
 11
144.6408774596
 21
88.7459574912
  0
LINE
  8
SURFACE
 62
7
  6
CONTINUOUS
 10
145.0191748543
 20
167.8623689238
 11
145.0097984253
 21
166.5811514391
  0
LINE
  8
0
 62
7
  6
CONTINUOUS
 10
144.6239363856
 20
86.1249925411
 11
144.6333128146
 21
87.4062100258
  0
LINE
  8
SURFACE
 62
7
  6
CONTINUOUS
 10
145.0300196018
 20
169.010463873
 11
145.0191748543
 21
167.8623689238
  0
LINE
  8
0
 62
7
  6
CONTINUOUS
 10
144.613091638
 20
84.9768975919
 11
144.6239363856
 21
86.1249925411
  0
POLYLINE
  8
SURFACE
 62
7
  6
CONTINUOUS
 66
1
 70
0
  0
VERTEX
  8
SURFACE
 62
7
  6
CONTINUOUS
 10
144.9873326227
 20
152.2376933441
  0
VERTEX
  8
SURFACE
 62
7
  6
CONTINUOUS
 10
144.9834007526
 20
151.902907823
  0
VERTEX
  8
SURFACE
 62
7
  6
CONTINUOUS
 10
144.9708465952
 20
151.5688256953
  0
VERTEX
  8
SURFACE
 62
7
  6
CONTINUOUS
 10
144.9496861524
 20
151.2506378758
  0
VERTEX
  8
SURFACE
 62
7
  6
CONTINUOUS
 10
144.9200046731
 20
150.9477392627
  0
VERTEX
  8
SURFACE
 62
7
  6
CONTINUOUS
 10
144.8818936388
 20
150.6594011652
  0
VERTEX
  8
SURFACE
 62
7
  6
CONTINUOUS
 10
144.8354511265
 20
150.3850391209
  0
VERTEX
  8
SURFACE
 62
7
  6
CONTINUOUS
 10
144.8215577983
 20
150.3136047139
  0
SEQEND
  0
POLYLINE
  8
0
 62
7
  6
CONTINUOUS
 66
1
 70
0
  0
VERTEX
  8
0
 62
7
  6
CONTINUOUS
 10
144.6557786172
 20
101.7496681209
  0
VERTEX
  8
0
 62
7
  6
CONTINUOUS
 10
144.6597104873
 20
102.084453642
  0
VERTEX
  8
0
 62
7
  6
CONTINUOUS
 10
144.6722646446
 20
102.4185357696
  0
VERTEX
  8
0
 62
7
  6
CONTINUOUS
 10
144.6934250875
 20
102.7367235891
  0
VERTEX
  8
0
 62
7
  6
CONTINUOUS
 10
144.7231065667
 20
103.0396222022
  0
VERTEX
  8
0
 62
7
  6
CONTINUOUS
 10
144.7612176011
 20
103.3279602997
  0
VERTEX
  8
0
 62
7
  6
CONTINUOUS
 10
144.8076601133
 20
103.602322344
  0
VERTEX
  8
0
 62
7
  6
CONTINUOUS
 10
144.8215550603
 20
103.6737648439
  0
SEQEND
  0
LINE
  8
SURFACE
 62
7
  6
CONTINUOUS
 10
145.0422987521
 20
170.0085423345
 11
145.0300196018
 21
169.010463873
  0
LINE
  8
0
 62
7
  6
CONTINUOUS
 10
144.6008124878
 20
83.9788191304
 11
144.613091638
 21
84.9768975919
  0
LINE
  8
SURFACE
 62
7
  6
CONTINUOUS
 10
145.0541747471
 20
170.741468092
 11
145.0422987521
 21
170.0085423345
  0
LINE
  8
0
 62
7
  6
CONTINUOUS
 10
144.5889364927
 20
83.245893373
 11
144.6008124878
 21
83.9788191304
  0
LINE
  8
SURFACE
 62
7
  6
CONTINUOUS
 10
145.0626861041
 20
171.1502194685
 11
145.0541747471
 21
170.741468092
  0
LINE
  8
0
 62
7
  6
CONTINUOUS
 10
144.5804251358
 20
82.8371419964
 11
144.5889364927
 21
83.245893373
  0
LINE
  8
SURFACE
 62
7
  6
CONTINUOUS
 10
145.0693042541
 20
171.4085475099
 11
145.0626861041
 21
171.1502194685
  0
LINE
  8
0
 62
7
  6
CONTINUOUS
 10
144.5738069858
 20
82.5788139551
 11
144.5804251358
 21
82.8371419964
  0
LINE
  8
SURFACE
 62
7
  6
CONTINUOUS
 10
145.0741884194
 20
171.5683788438
 11
145.0693042541
 21
171.4085475099
  0
LINE
  8
0
 62
7
  6
CONTINUOUS
 10
144.5689228205
 20
82.4189826211
 11
144.5738069858
 21
82.5788139551
  0
LINE
  8
SURFACE
 62
7
  6
CONTINUOUS
 10
145.0776875733
 20
171.6677525707
 11
145.0741884194
 21
171.5683788438
  0
LINE
  8
0
 62
7
  6
CONTINUOUS
 10
144.5654236666
 20
82.3196088942
 11
144.5689228205
 21
82.4189826211
  0
LINE
  8
SURFACE
 62
7
  6
CONTINUOUS
 10
145.081126027
 20
171.7537546483
 11
145.0776875733
 21
171.6677525707
  0
LINE
  8
0
 62
7
  6
CONTINUOUS
 10
144.5619852129
 20
82.2336068166
 11
144.5654236666
 21
82.3196088942
  0
LINE
  8
SURFACE
 62
7
  6
CONTINUOUS
 10
145.0846023571
 20
171.8296493084
 11
145.081126027
 21
171.7537546483
  0
LINE
  8
0
 62
7
  6
CONTINUOUS
 10
144.5585088828
 20
82.1577121565
 11
144.5619852129
 21
82.2336068166
  0
LINE
  8
SURFACE
 62
7
  6
CONTINUOUS
 10
145.086996452
 20
171.8758819883
 11
145.0846023571
 21
171.8296493084
  0
LINE
  8
0
 62
7
  6
CONTINUOUS
 10
144.5561147878
 20
82.1114794766
 11
144.5585088828
 21
82.1577121565
  0
LINE
  8
SURFACE
 62
7
  6
CONTINUOUS
 10
145.0895005796
 20
171.9193767959
 11
145.086996452
 21
171.8758819883
  0
LINE
  8
0
 62
7
  6
CONTINUOUS
 10
144.5536106603
 20
82.0679846691
 11
144.5561147878
 21
82.1114794766
  0
POLYLINE
  8
SURFACE
 62
7
  6
CONTINUOUS
 66
1
 70
0
  0
VERTEX
  8
SURFACE
 62
7
  6
CONTINUOUS
 10
176.1605840121
 20
80.2436808827
  0
VERTEX
  8
SURFACE
 62
7
  6
CONTINUOUS
 10
176.2676445077
 20
80.2468657919
  0
VERTEX
  8
SURFACE
 62
7
  6
CONTINUOUS
 10
176.4037116184
 20
80.2601668532
  0
VERTEX
  8
SURFACE
 62
7
  6
CONTINUOUS
 10
176.5368913765
 20
80.2834327075
  0
VERTEX
  8
SURFACE
 62
7
  6
CONTINUOUS
 10
176.6658842115
 20
80.3160176476
  0
VERTEX
  8
SURFACE
 62
7
  6
CONTINUOUS
 10
176.7895087721
 20
80.3570601945
  0
VERTEX
  8
SURFACE
 62
7
  6
CONTINUOUS
 10
176.9067292665
 20
80.4055084888
  0
VERTEX
  8
SURFACE
 62
7
  6
CONTINUOUS
 10
177.0166808151
 20
80.4601521174
  0
VERTEX
  8
SURFACE
 62
7
  6
CONTINUOUS
 10
177.1187438784
 20
80.5196943406
  0
VERTEX
  8
SURFACE
 62
7
  6
CONTINUOUS
 10
177.213016566
 20
80.5831509543
  0
VERTEX
  8
SURFACE
 62
7
  6
CONTINUOUS
 10
177.2999577268
 20
80.6498504642
  0
VERTEX
  8
SURFACE
 62
7
  6
CONTINUOUS
 10
177.3800393414
 20
80.719272854
  0
VERTEX
  8
SURFACE
 62
7
  6
CONTINUOUS
 10
177.4537219773
 20
80.7910296723
  0
VERTEX
  8
SURFACE
 62
7
  6
CONTINUOUS
 10
177.5213083298
 20
80.8646954906
  0
VERTEX
  8
SURFACE
 62
7
  6
CONTINUOUS
 10
177.5828562782
 20
80.9396060056
  0
VERTEX
  8
SURFACE
 62
7
  6
CONTINUOUS
 10
177.638469462
 20
81.0150962471
  0
VERTEX
  8
SURFACE
 62
7
  6
CONTINUOUS
 10
177.6883150261
 20
81.0905305544
  0
VERTEX
  8
SURFACE
 62
7
  6
CONTINUOUS
 10
177.7326039311
 20
81.1652868925
  0
VERTEX
  8
SURFACE
 62
7
  6
CONTINUOUS
 10
177.7715177317
 20
81.2386186759
  0
VERTEX
  8
SURFACE
 62
7
  6
CONTINUOUS
 10
177.8051887731
 20
81.309536805
  0
VERTEX
  8
SURFACE
 62
7
  6
CONTINUOUS
 10
177.8338692142
 20
81.3771053963
  0
VERTEX
  8
SURFACE
 62
7
  6
CONTINUOUS
 10
177.8579552549
 20
81.4405975843
  0
VERTEX
  8
SURFACE
 62
7
  6
CONTINUOUS
 10
177.8779721374
 20
81.4996287585
  0
VERTEX
  8
SURFACE
 62
7
  6
CONTINUOUS
 10
177.8944634542
 20
81.5540056818
  0
VERTEX
  8
SURFACE
 62
7
  6
CONTINUOUS
 10
177.9079697302
 20
81.6037462286
  0
VERTEX
  8
SURFACE
 62
7
  6
CONTINUOUS
 10
177.9189906213
 20
81.6490095134
  0
VERTEX
  8
SURFACE
 62
7
  6
CONTINUOUS
 10
177.9280214372
 20
81.6903022293
  0
VERTEX
  8
SURFACE
 62
7
  6
CONTINUOUS
 10
177.9354673482
 20
81.7281482361
  0
VERTEX
  8
SURFACE
 62
7
  6
CONTINUOUS
 10
177.9416477871
 20
81.763019949
  0
VERTEX
  8
SURFACE
 62
7
  6
CONTINUOUS
 10
177.9467821674
 20
81.7951222746
  0
VERTEX
  8
SURFACE
 62
7
  6
CONTINUOUS
 10
177.9510459443
 20
81.8245829265
  0
VERTEX
  8
SURFACE
 62
7
  6
CONTINUOUS
 10
177.9546033025
 20
81.8516417995
  0
VERTEX
  8
SURFACE
 62
7
  6
CONTINUOUS
 10
177.9576040103
 20
81.8766557653
  0
VERTEX
  8
SURFACE
 62
7
  6
CONTINUOUS
 10
177.9601802851
 20
81.900083306
  0
VERTEX
  8
SURFACE
 62
7
  6
CONTINUOUS
 10
177.9624324309
 20
81.9223274334
  0
VERTEX
  8
SURFACE
 62
7
  6
CONTINUOUS
 10
177.9644351578
 20
81.9437245809
  0
VERTEX
  8
SURFACE
 62
7
  6
CONTINUOUS
 10
177.9662441588
 20
81.9645518461
  0
VERTEX
  8
SURFACE
 62
7
  6
CONTINUOUS
 10
177.9679010729
 20
81.9850350066
  0
VERTEX
  8
SURFACE
 62
7
  6
CONTINUOUS
 10
177.9694382662
 20
82.0053712554
  0
VERTEX
  8
SURFACE
 62
7
  6
CONTINUOUS
 10
177.9708825733
 20
82.0257560195
  0
VERTEX
  8
SURFACE
 62
7
  6
CONTINUOUS
 10
177.9735696514
 20
82.0673114554
  0
SEQEND
  0
POLYLINE
  8
0
 62
7
  6
CONTINUOUS
 66
1
 70
0
  0
VERTEX
  8
0
 62
7
  6
CONTINUOUS
 10
142.7405840143
 20
80.2436808826
  0
VERTEX
  8
0
 62
7
  6
CONTINUOUS
 10
142.8463833198
 20
80.2467911318
  0
VERTEX
  8
0
 62
7
  6
CONTINUOUS
 10
142.9825979012
 20
80.2600154719
  0
VERTEX
  8
0
 62
7
  6
CONTINUOUS
 10
143.1159795753
 20
80.283238142
  0
VERTEX
  8
0
 62
7
  6
CONTINUOUS
 10
143.2452073311
 20
80.3158199395
  0
VERTEX
  8
0
 62
7
  6
CONTINUOUS
 10
143.3690785197
 20
80.3568999214
  0
VERTEX
  8
0
 62
7
  6
CONTINUOUS
 10
143.4865373029
 20
80.4054211262
  0
VERTEX
  8
0
 62
7
  6
CONTINUOUS
 10
143.596700933
 20
80.4601629849
  0
VERTEX
  8
0
 62
7
  6
CONTINUOUS
 10
143.6989386254
 20
80.5198167014
  0
VERTEX
  8
0
 62
7
  6
CONTINUOUS
 10
143.7933546802
 20
80.5833944406
  0
VERTEX
  8
0
 62
7
  6
CONTINUOUS
 10
143.8804140522
 20
80.6502232477
  0
VERTEX
  8
0
 62
7
  6
CONTINUOUS
 10
143.9605940022
 20
80.7197832223
  0
VERTEX
  8
0
 62
7
  6
CONTINUOUS
 10
144.0343593506
 20
80.7916871707
  0
VERTEX
  8
0
 62
7
  6
CONTINUOUS
 10
144.1020088696
 20
80.8655033539
  0
VERTEX
  8
0
 62
7
  6
CONTINUOUS
 10
144.163598223
 20
80.940560852
  0
VERTEX
  8
0
 62
7
  6
CONTINUOUS
 10
144.2192316622
 20
81.0161900799
  0
VERTEX
  8
0
 62
7
  6
CONTINUOUS
 10
144.2690773306
 20
81.0917505428
  0
VERTEX
  8
0
 62
7
  6
CONTINUOUS
 10
144.3133473676
 20
81.1666147588
  0
VERTEX
  8
0
 62
7
  6
CONTINUOUS
 10
144.3522228364
 20
81.2400258758
  0
VERTEX
  8
0
 62
7
  6
CONTINUOUS
 10
144.3858426238
 20
81.3109963046
  0
VERTEX
  8
0
 62
7
  6
CONTINUOUS
 10
144.4144660702
 20
81.3785963404
  0
VERTEX
  8
0
 62
7
  6
CONTINUOUS
 10
144.4384957692
 20
81.442108636
  0
VERTEX
  8
0
 62
7
  6
CONTINUOUS
 10
144.4584533862
 20
81.5011338222
  0
VERTEX
  8
0
 62
7
  6
CONTINUOUS
 10
144.474880725
 20
81.5554642648
  0
VERTEX
  8
0
 62
7
  6
CONTINUOUS
 10
144.4883190476
 20
81.6051091453
  0
VERTEX
  8
0
 62
7
  6
CONTINUOUS
 10
144.4992756551
 20
81.6502485539
  0
VERTEX
  8
0
 62
7
  6
CONTINUOUS
 10
144.5082534423
 20
81.6914240259
  0
VERTEX
  8
0
 62
7
  6
CONTINUOUS
 10
144.5156591
 20
81.7291780669
  0
VERTEX
  8
0
 62
7
  6
CONTINUOUS
 10
144.521810196
 20
81.7639874702
  0
VERTEX
  8
0
 62
7
  6
CONTINUOUS
 10
144.5269203679
 20
81.7960335217
  0
VERTEX
  8
0
 62
7
  6
CONTINUOUS
 10
144.5311636675
 20
81.8254391429
  0
VERTEX
  8
0
 62
7
  6
CONTINUOUS
 10
144.5347035433
 20
81.8524425182
  0
VERTEX
  8
0
 62
7
  6
CONTINUOUS
 10
144.5376903795
 20
81.8774099238
  0
VERTEX
  8
0
 62
7
  6
CONTINUOUS
 10
144.5402559171
 20
81.9008019775
  0
VERTEX
  8
0
 62
7
  6
CONTINUOUS
 10
144.5424996994
 20
81.9230201177
  0
VERTEX
  8
0
 62
7
  6
CONTINUOUS
 10
144.5444958342
 20
81.9443990186
  0
VERTEX
  8
0
 62
7
  6
CONTINUOUS
 10
144.5462995508
 20
81.9652140193
  0
VERTEX
  8
0
 62
7
  6
CONTINUOUS
 10
144.5479521313
 20
81.985689182
  0
VERTEX
  8
0
 62
7
  6
CONTINUOUS
 10
144.549485897
 20
82.0060232058
  0
VERTEX
  8
0
 62
7
  6
CONTINUOUS
 10
144.5509274952
 20
82.0264109829
  0
VERTEX
  8
0
 62
7
  6
CONTINUOUS
 10
144.5536106603
 20
82.0679846691
  0
SEQEND
  0
POLYLINE
  8
0
 62
7
  6
CONTINUOUS
 66
1
 70
0
  0
VERTEX
  8
0
 62
7
  6
CONTINUOUS
 10
109.2404791786
 20
80.2436808826
  0
VERTEX
  8
0
 62
7
  6
CONTINUOUS
 10
109.346196322
 20
80.2467862961
  0
VERTEX
  8
0
 62
7
  6
CONTINUOUS
 10
109.4823443348
 20
80.2599952948
  0
VERTEX
  8
0
 62
7
  6
CONTINUOUS
 10
109.61566433
 20
80.2831932774
  0
VERTEX
  8
0
 62
7
  6
CONTINUOUS
 10
109.7448369743
 20
80.3157423947
  0
VERTEX
  8
0
 62
7
  6
CONTINUOUS
 10
109.8686610092
 20
80.3567834149
  0
VERTEX
  8
0
 62
7
  6
CONTINUOUS
 10
109.9860816339
 20
80.4052613677
  0
VERTEX
  8
0
 62
7
  6
CONTINUOUS
 10
110.0962167562
 20
80.4599578706
  0
VERTEX
  8
0
 62
7
  6
CONTINUOUS
 10
110.1984348442
 20
80.5195657596
  0
VERTEX
  8
0
 62
7
  6
CONTINUOUS
 10
110.2928371734
 20
80.5830968617
  0
VERTEX
  8
0
 62
7
  6
CONTINUOUS
 10
110.3798877198
 20
80.6498783707
  0
VERTEX
  8
0
 62
7
  6
CONTINUOUS
 10
110.4600629914
 20
80.7193903601
  0
VERTEX
  8
0
 62
7
  6
CONTINUOUS
 10
110.5338272736
 20
80.7912455095
  0
VERTEX
  8
0
 62
7
  6
CONTINUOUS
 10
110.6014809
 20
80.8650142101
  0
VERTEX
  8
0
 62
7
  6
CONTINUOUS
 10
110.6630798771
 20
80.9400271898
  0
VERTEX
  8
0
 62
7
  6
CONTINUOUS
 10
110.7187279474
 20
81.0156157779
  0
VERTEX
  8
0
 62
7
  6
CONTINUOUS
 10
110.7685927239
 20
81.0911404294
  0
VERTEX
  8
0
 62
7
  6
CONTINUOUS
 10
110.8128858549
 20
81.1659747989
  0
VERTEX
  8
0
 62
7
  6
CONTINUOUS
 10
110.8517886322
 20
81.2393649621
  0
VERTEX
  8
0
 62
7
  6
CONTINUOUS
 10
110.8854382645
 20
81.3103232861
  0
VERTEX
  8
0
 62
7
  6
CONTINUOUS
 10
110.9140921631
 20
81.3779187125
  0
VERTEX
  8
0
 62
7
  6
CONTINUOUS
 10
110.9381510161
 20
81.4414311283
  0
VERTEX
  8
0
 62
7
  6
CONTINUOUS
 10
110.9581372528
 20
81.5004645946
  0
VERTEX
  8
0
 62
7
  6
CONTINUOUS
 10
110.9745930169
 20
81.5548146494
  0
VERTEX
  8
0
 62
7
  6
CONTINUOUS
 10
110.9880593806
 20
81.604492283
  0
VERTEX
  8
0
 62
7
  6
CONTINUOUS
 10
110.999041804
 20
81.6496720645
  0
VERTEX
  8
0
 62
7
  6
CONTINUOUS
 10
111.0080415957
 20
81.6908873975
  0
VERTEX
  8
0
 62
7
  6
CONTINUOUS
 10
111.0154652888
 20
81.7286766562
  0
VERTEX
  8
0
 62
7
  6
CONTINUOUS
 10
111.0216310378
 20
81.7635158408
  0
VERTEX
  8
0
 62
7
  6
CONTINUOUS
 10
111.0267538473
 20
81.7955915416
  0
VERTEX
  8
0
 62
7
  6
CONTINUOUS
 10
111.0310079714
 20
81.8250264531
  0
VERTEX
  8
0
 62
7
  6
CONTINUOUS
 10
111.0345570376
 20
81.8520581807
  0
VERTEX
  8
0
 62
7
  6
CONTINUOUS
 10
111.0375513703
 20
81.8770501244
  0
VERTEX
  8
0
 62
7
  6
CONTINUOUS
 10
111.0401229971
 20
81.9004625036
  0
VERTEX
  8
0
 62
7
  6
CONTINUOUS
 10
111.0423717823
 20
81.9226972785
  0
VERTEX
  8
0
 62
7
  6
CONTINUOUS
 10
111.0443720877
 20
81.9440897011
  0
VERTEX
  8
0
 62
7
  6
CONTINUOUS
 10
111.0461793385
 20
81.9649156834
  0
VERTEX
  8
0
 62
7
  6
CONTINUOUS
 10
111.0478349674
 20
81.9853998293
  0
VERTEX
  8
0
 62
7
  6
CONTINUOUS
 10
111.0493713462
 20
82.0057404288
  0
VERTEX
  8
0
 62
7
  6
CONTINUOUS
 10
111.0508152182
 20
82.0261327055
  0
VERTEX
  8
0
 62
7
  6
CONTINUOUS
 10
111.0535021991
 20
82.0677104158
  0
SEQEND
  0
LINE
  8
SURFACE
 62
7
  6
CONTINUOUS
 10
176.160584062
 20
80.2436807325
 11
163.6125271779
 21
80.2436807325
  0
LINE
  8
0
 62
7
  6
CONTINUOUS
 10
109.2404792245
 20
80.2436807325
 11
96.6215556199
 21
80.2436807325
  0
LINE
  8
0
 62
7
  6
CONTINUOUS
 10
130.1925271779
 20
80.2436807325
 11
142.740584062
 21
80.2436807325
  0
POLYLINE
  8
0
 62
7
  6
CONTINUOUS
 66
1
 70
0
  0
VERTEX
  8
0
 62
7
  6
CONTINUOUS
 10
128.6442850826
 20
148.8424760893
  0
VERTEX
  8
0
 62
7
  6
CONTINUOUS
 10
128.5471395448
 20
149.0150700457
  0
VERTEX
  8
0
 62
7
  6
CONTINUOUS
 10
128.4521162128
 20
149.2109028986
  0
VERTEX
  8
0
 62
7
  6
CONTINUOUS
 10
128.3652665759
 20
149.4194544089
  0
VERTEX
  8
0
 62
7
  6
CONTINUOUS
 10
128.2863784154
 20
149.6409661532
  0
VERTEX
  8
0
 62
7
  6
CONTINUOUS
 10
128.2154356778
 20
149.8755862808
  0
VERTEX
  8
0
 62
7
  6
CONTINUOUS
 10
128.1525762782
 20
150.123172155
  0
VERTEX
  8
0
 62
7
  6
CONTINUOUS
 10
128.0978706089
 20
150.3839260648
  0
VERTEX
  8
0
 62
7
  6
CONTINUOUS
 10
128.0513899405
 20
150.6582556218
  0
VERTEX
  8
0
 62
7
  6
CONTINUOUS
 10
128.0132418093
 20
150.9465616065
  0
VERTEX
  8
0
 62
7
  6
CONTINUOUS
 10
127.9835243038
 20
151.2494279732
  0
VERTEX
  8
0
 62
7
  6
CONTINUOUS
 10
127.9623290077
 20
151.5675828245
  0
VERTEX
  8
0
 62
7
  6
CONTINUOUS
 10
127.9497412967
 20
151.9016309039
  0
VERTEX
  8
0
 62
7
  6
CONTINUOUS
 10
127.9457786165
 20
152.2376933696
  0
SEQEND
  0
POLYLINE
  8
SURFACE
 62
7
  6
CONTINUOUS
 66
1
 70
0
  0
VERTEX
  8
SURFACE
 62
7
  6
CONTINUOUS
 10
144.8215550603
 20
103.673764838
  0
VERTEX
  8
SURFACE
 62
7
  6
CONTINUOUS
 10
144.8728385785
 20
103.9078259109
  0
VERTEX
  8
SURFACE
 62
7
  6
CONTINUOUS
 10
144.9352635039
 20
104.1467385342
  0
VERTEX
  8
SURFACE
 62
7
  6
CONTINUOUS
 10
145.0055427413
 20
104.3740137893
  0
VERTEX
  8
SURFACE
 62
7
  6
CONTINUOUS
 10
145.0834462988
 20
104.5889706749
  0
VERTEX
  8
SURFACE
 62
7
  6
CONTINUOUS
 10
145.1687386978
 20
104.7911077228
  0
VERTEX
  8
SURFACE
 62
7
  6
CONTINUOUS
 10
145.2612759184
 20
104.9801667609
  0
VERTEX
  8
SURFACE
 62
7
  6
CONTINUOUS
 10
145.3542852704
 20
105.1448856304
  0
SEQEND
  0
POLYLINE
  8
SURFACE
 62
7
  6
CONTINUOUS
 66
1
 70
0
  0
VERTEX
  8
SURFACE
 62
7
  6
CONTINUOUS
 10
160.9988261572
 20
105.1448853757
  0
VERTEX
  8
SURFACE
 62
7
  6
CONTINUOUS
 10
161.095971695
 20
104.9722914192
  0
VERTEX
  8
SURFACE
 62
7
  6
CONTINUOUS
 10
161.1909950271
 20
104.7764585663
  0
VERTEX
  8
SURFACE
 62
7
  6
CONTINUOUS
 10
161.2778446639
 20
104.567907056
  0
VERTEX
  8
SURFACE
 62
7
  6
CONTINUOUS
 10
161.3567328245
 20
104.3463953117
  0
VERTEX
  8
SURFACE
 62
7
  6
CONTINUOUS
 10
161.427675562
 20
104.1117751842
  0
VERTEX
  8
SURFACE
 62
7
  6
CONTINUOUS
 10
161.4905349617
 20
103.8641893099
  0
VERTEX
  8
SURFACE
 62
7
  6
CONTINUOUS
 10
161.545240631
 20
103.6034354001
  0
VERTEX
  8
SURFACE
 62
7
  6
CONTINUOUS
 10
161.5917212994
 20
103.3291058431
  0
VERTEX
  8
SURFACE
 62
7
  6
CONTINUOUS
 10
161.6298694305
 20
103.0407998584
  0
VERTEX
  8
SURFACE
 62
7
  6
CONTINUOUS
 10
161.6595869361
 20
102.7379334917
  0
VERTEX
  8
SURFACE
 62
7
  6
CONTINUOUS
 10
161.6807822321
 20
102.4197786404
  0
VERTEX
  8
SURFACE
 62
7
  6
CONTINUOUS
 10
161.6933699431
 20
102.085730561
  0
VERTEX
  8
SURFACE
 62
7
  6
CONTINUOUS
 10
161.6973326233
 20
101.7496680953
  0
SEQEND
  0
POLYLINE
  8
SURFACE
 62
7
  6
CONTINUOUS
 66
1
 70
0
  0
VERTEX
  8
SURFACE
 62
7
  6
CONTINUOUS
 10
161.8009722365
 20
82.0445732426
  0
VERTEX
  8
SURFACE
 62
7
  6
CONTINUOUS
 10
161.8026822804
 20
82.0192143134
  0
VERTEX
  8
SURFACE
 62
7
  6
CONTINUOUS
 10
161.8044659566
 20
81.9947126294
  0
VERTEX
  8
SURFACE
 62
7
  6
CONTINUOUS
 10
161.8063531059
 20
81.9707546834
  0
VERTEX
  8
SURFACE
 62
7
  6
CONTINUOUS
 10
161.8083850241
 20
81.9469745359
  0
VERTEX
  8
SURFACE
 62
7
  6
CONTINUOUS
 10
161.8106161154
 20
81.9229729541
  0
VERTEX
  8
SURFACE
 62
7
  6
CONTINUOUS
 10
161.8131126922
 20
81.8983640118
  0
VERTEX
  8
SURFACE
 62
7
  6
CONTINUOUS
 10
161.8159579585
 20
81.8727529157
  0
VERTEX
  8
SURFACE
 62
7
  6
CONTINUOUS
 10
161.8192610912
 20
81.8456966687
  0
VERTEX
  8
SURFACE
 62
7
  6
CONTINUOUS
 10
161.8231632386
 20
81.816715003
  0
VERTEX
  8
SURFACE
 62
7
  6
CONTINUOUS
 10
161.8278441499
 20
81.7853046198
  0
VERTEX
  8
SURFACE
 62
7
  6
CONTINUOUS
 10
161.8335300794
 20
81.750951388
  0
VERTEX
  8
SURFACE
 62
7
  6
CONTINUOUS
 10
161.8404200436
 20
81.7135677265
  0
VERTEX
  8
SURFACE
 62
7
  6
CONTINUOUS
 10
161.8486285533
 20
81.6735927833
  0
VERTEX
  8
SURFACE
 62
7
  6
CONTINUOUS
 10
161.8581873117
 20
81.6317310477
  0
VERTEX
  8
SURFACE
 62
7
  6
CONTINUOUS
 10
161.8693883282
 20
81.5875066807
  0
VERTEX
  8
SURFACE
 62
7
  6
CONTINUOUS
 10
161.8829144463
 20
81.5393437802
  0
VERTEX
  8
SURFACE
 62
7
  6
CONTINUOUS
 10
161.8997821192
 20
81.4853316037
  0
VERTEX
  8
SURFACE
 62
7
  6
CONTINUOUS
 10
161.9209128587
 20
81.4247567779
  0
VERTEX
  8
SURFACE
 62
7
  6
CONTINUOUS
 10
161.9468416825
 20
81.358445647
  0
VERTEX
  8
SURFACE
 62
7
  6
CONTINUOUS
 10
161.9779117204
 20
81.2876551233
  0
VERTEX
  8
SURFACE
 62
7
  6
CONTINUOUS
 10
162.0144770359
 20
81.2134274799
  0
VERTEX
  8
SURFACE
 62
7
  6
CONTINUOUS
 10
162.0569184074
 20
81.1366206628
  0
VERTEX
  8
SURFACE
 62
7
  6
CONTINUOUS
 10
162.1055210357
 20
81.0581630174
  0
VERTEX
  8
SURFACE
 62
7
  6
CONTINUOUS
 10
162.1605197017
 20
80.9789451169
  0
VERTEX
  8
SURFACE
 62
7
  6
CONTINUOUS
 10
162.2220836643
 20
80.899843459
  0
VERTEX
  8
SURFACE
 62
7
  6
CONTINUOUS
 10
162.2902865705
 20
80.8217493381
  0
VERTEX
  8
SURFACE
 62
7
  6
CONTINUOUS
 10
162.3650877377
 20
80.7455673005
  0
VERTEX
  8
SURFACE
 62
7
  6
CONTINUOUS
 10
162.4466300226
 20
80.671937748
  0
VERTEX
  8
SURFACE
 62
7
  6
CONTINUOUS
 10
162.5355158028
 20
80.6011642276
  0
VERTEX
  8
SURFACE
 62
7
  6
CONTINUOUS
 10
162.6324330845
 20
80.53369589
  0
VERTEX
  8
SURFACE
 62
7
  6
CONTINUOUS
 10
162.7380910189
 20
80.4701976004
  0
VERTEX
  8
SURFACE
 62
7
  6
CONTINUOUS
 10
162.852786369
 20
80.411765052
  0
VERTEX
  8
SURFACE
 62
7
  6
CONTINUOUS
 10
162.9754334941
 20
80.3601269395
  0
VERTEX
  8
SURFACE
 62
7
  6
CONTINUOUS
 10
163.1044251047
 20
80.3168391111
  0
VERTEX
  8
SURFACE
 62
7
  6
CONTINUOUS
 10
163.2379019439
 20
80.2830741599
  0
VERTEX
  8
SURFACE
 62
7
  6
CONTINUOUS
 10
163.3738219282
 20
80.2595699287
  0
VERTEX
  8
SURFACE
 62
7
  6
CONTINUOUS
 10
163.5100361165
 20
80.2465995111
  0
VERTEX
  8
SURFACE
 62
7
  6
CONTINUOUS
 10
163.6125272242
 20
80.2436808826
  0
SEQEND
  0
LINE
  8
SURFACE
 62
7
  6
CONTINUOUS
 10
161.7976991601
 20
82.0987891379
 11
161.8009722365
 21
82.0445732426
  0
LINE
  8
SURFACE
 62
7
  6
CONTINUOUS
 10
161.7945346263
 20
82.1590896457
 11
161.7976991601
 21
82.0987891379
  0
LINE
  8
SURFACE
 62
7
  6
CONTINUOUS
 10
161.7913961605
 20
82.2273206107
 11
161.7945346263
 21
82.1590896457
  0
LINE
  8
SURFACE
 62
7
  6
CONTINUOUS
 10
161.7882257811
 20
82.3054010147
 11
161.7913961605
 21
82.2273206107
  0
LINE
  8
SURFACE
 62
7
  6
CONTINUOUS
 10
161.7832609007
 20
82.4474058876
 11
161.7882257811
 21
82.3054010147
  0
LINE
  8
SURFACE
 62
7
  6
CONTINUOUS
 10
161.7779150968
 20
82.6289546865
 11
161.7832609007
 21
82.4474058876
  0
LINE
  8
SURFACE
 62
7
  6
CONTINUOUS
 10
161.2889170045
 20
171.213481821
 11
161.2833770792
 21
171.4236371819
  0
LINE
  8
SURFACE
 62
7
  6
CONTINUOUS
 10
161.7703791195
 20
82.9391139091
 11
161.7779150968
 21
82.6289546865
  0
LINE
  8
SURFACE
 62
7
  6
CONTINUOUS
 10
161.2966240777
 20
170.8615018248
 11
161.2889170045
 21
171.213481821
  0
LINE
  8
SURFACE
 62
7
  6
CONTINUOUS
 10
161.7625381193
 20
83.3350854207
 11
161.7703791195
 21
82.9391139091
  0
LINE
  8
SURFACE
 62
7
  6
CONTINUOUS
 10
161.3045602147
 20
170.4197104255
 11
161.2966240777
 21
170.8615018248
  0
LINE
  8
SURFACE
 62
7
  6
CONTINUOUS
 10
161.7545318326
 20
83.8251518269
 11
161.7625381193
 21
83.3350854207
  0
LINE
  8
SURFACE
 62
7
  6
CONTINUOUS
 10
161.312627116
 20
169.8778144246
 11
161.3045602147
 21
170.4197104255
  0
LINE
  8
SURFACE
 62
7
  6
CONTINUOUS
 10
161.7464141901
 20
84.4228998014
 11
161.7545318326
 21
83.8251518269
  0
LINE
  8
SURFACE
 62
7
  6
CONTINUOUS
 10
161.3207800788
 20
169.2199948134
 11
161.312627116
 21
169.8778144246
  0
LINE
  8
SURFACE
 62
7
  6
CONTINUOUS
 10
161.738244106
 20
85.1454819522
 11
161.7464141901
 21
84.4228998014
  0
LINE
  8
SURFACE
 62
7
  6
CONTINUOUS
 10
161.3289471621
 20
168.4272674221
 11
161.3207800788
 21
169.2199948134
  0
LINE
  8
SURFACE
 62
7
  6
CONTINUOUS
 10
161.7301065069
 20
86.0142005559
 11
161.738244106
 21
85.1454819522
  0
LINE
  8
SURFACE
 62
7
  6
CONTINUOUS
 10
161.3370246583
 20
167.4757744736
 11
161.3289471621
 21
168.4272674221
  0
LINE
  8
SURFACE
 62
7
  6
CONTINUOUS
 10
161.7240897624
 20
86.7787857166
 11
161.7301065069
 21
86.0142005559
  0
LINE
  8
SURFACE
 62
7
  6
CONTINUOUS
 10
161.3429880982
 20
166.6314426173
 11
161.3370246583
 21
167.4757744736
  0
LINE
  8
SURFACE
 62
7
  6
CONTINUOUS
 10
161.7181566065
 20
87.6683900754
 11
161.7240897624
 21
86.7787857166
  0
LINE
  8
SURFACE
 62
7
  6
CONTINUOUS
 10
161.3488657942
 20
165.6338274418
 11
161.3429880982
 21
166.6314426173
  0
LINE
  8
SURFACE
 62
7
  6
CONTINUOUS
 10
161.7122955231
 20
88.7334399847
 11
161.7181566065
 21
87.6683900754
  0
LINE
  8
SURFACE
 62
7
  6
CONTINUOUS
 10
161.3527489021
 20
164.8459472594
 11
161.3488657942
 21
165.6338274418
  0
LINE
  8
SURFACE
 62
7
  6
CONTINUOUS
 10
161.7084683033
 20
89.5778828229
 11
161.7122955231
 21
88.7334399847
  0
LINE
  8
SURFACE
 62
7
  6
CONTINUOUS
 10
161.3564752885
 20
163.9439343269
 11
161.3527489021
 21
164.8459472594
  0
LINE
  8
SURFACE
 62
7
  6
CONTINUOUS
 10
161.7048828662
 20
90.5404439459
 11
161.7084683033
 21
89.5778828229
  0
LINE
  8
SURFACE
 62
7
  6
CONTINUOUS
 10
161.3598816516
 20
162.9155662707
 11
161.3564752885
 21
163.9439343269
  0
LINE
  8
SURFACE
 62
7
  6
CONTINUOUS
 10
161.7017059315
 20
91.638811445
 11
161.7048828662
 21
90.5404439459
  0
LINE
  8
SURFACE
 62
7
  6
CONTINUOUS
 10
161.3627437393
 20
161.7555502842
 11
161.3598816516
 21
162.9155662707
  0
LINE
  8
SURFACE
 62
7
  6
CONTINUOUS
 10
161.6992627799
 20
92.8359054208
 11
161.7017059315
 21
91.638811445
  0
LINE
  8
SURFACE
 62
7
  6
CONTINUOUS
 10
161.3646985119
 20
160.5482185854
 11
161.3627437393
 21
161.7555502842
  0
LINE
  8
SURFACE
 62
7
  6
CONTINUOUS
 10
161.6978103712
 20
94.0418975961
 11
161.6992627799
 21
92.8359054208
  0
LINE
  8
SURFACE
 62
7
  6
CONTINUOUS
 10
161.3656612035
 20
159.340117408
 11
161.3646985119
 21
160.5482185854
  0
LINE
  8
SURFACE
 62
7
  6
CONTINUOUS
 10
161.6973325231
 20
95.2436807325
 11
161.6978103712
 21
94.0418975961
  0
LINE
  8
SURFACE
 62
7
  6
CONTINUOUS
 10
161.3657787168
 20
152.2376933503
 11
161.3656612035
 21
159.340117408
  0
LINE
  8
SURFACE
 62
7
  6
CONTINUOUS
 10
161.697332523
 20
101.7496680953
 11
161.697332523
 21
95.2436807325
  0
LINE
  8
DEFAULT_1
 62
2
  6
CENTER
 10
92.8215556199
 20
95.2436807325
 11
189.0631838074
 21
95.2436807325
  0
POLYLINE
  8
SURFACE
 62
7
  6
CONTINUOUS
 66
1
 70
0
  0
VERTEX
  8
SURFACE
 62
7
  6
CONTINUOUS
 10
161.2621389989
 20
171.942788291
  0
VERTEX
  8
SURFACE
 62
7
  6
CONTINUOUS
 10
161.2604289552
 20
171.968147214
  0
VERTEX
  8
SURFACE
 62
7
  6
CONTINUOUS
 10
161.2586452783
 20
171.9926489013
  0
VERTEX
  8
SURFACE
 62
7
  6
CONTINUOUS
 10
161.2567581291
 20
172.0166068392
  0
VERTEX
  8
SURFACE
 62
7
  6
CONTINUOUS
 10
161.2547262124
 20
172.0403869667
  0
VERTEX
  8
SURFACE
 62
7
  6
CONTINUOUS
 10
161.2524951219
 20
172.0643885371
  0
VERTEX
  8
SURFACE
 62
7
  6
CONTINUOUS
 10
161.249998545
 20
172.0889974786
  0
VERTEX
  8
SURFACE
 62
7
  6
CONTINUOUS
 10
161.247153277
 20
172.1146085875
  0
VERTEX
  8
SURFACE
 62
7
  6
CONTINUOUS
 10
161.2438501398
 20
172.1416648652
  0
VERTEX
  8
SURFACE
 62
7
  6
CONTINUOUS
 10
161.2399479933
 20
172.170646517
  0
VERTEX
  8
SURFACE
 62
7
  6
CONTINUOUS
 10
161.2352670859
 20
172.2020568703
  0
VERTEX
  8
SURFACE
 62
7
  6
CONTINUOUS
 10
161.2295811602
 20
172.236410078
  0
VERTEX
  8
SURFACE
 62
7
  6
CONTINUOUS
 10
161.2226911992
 20
172.273793723
  0
VERTEX
  8
SURFACE
 62
7
  6
CONTINUOUS
 10
161.2144826916
 20
172.3137686589
  0
VERTEX
  8
SURFACE
 62
7
  6
CONTINUOUS
 10
161.2049239334
 20
172.3556303958
  0
VERTEX
  8
SURFACE
 62
7
  6
CONTINUOUS
 10
161.1937229156
 20
172.3998547701
  0
VERTEX
  8
SURFACE
 62
7
  6
CONTINUOUS
 10
161.1801967949
 20
172.448017681
  0
VERTEX
  8
SURFACE
 62
7
  6
CONTINUOUS
 10
161.1633291186
 20
172.5020298679
  0
VERTEX
  8
SURFACE
 62
7
  6
CONTINUOUS
 10
161.1421983755
 20
172.5626047029
  0
VERTEX
  8
SURFACE
 62
7
  6
CONTINUOUS
 10
161.1162695565
 20
172.6289158198
  0
VERTEX
  8
SURFACE
 62
7
  6
CONTINUOUS
 10
161.0851995358
 20
172.699706306
  0
VERTEX
  8
SURFACE
 62
7
  6
CONTINUOUS
 10
161.0486342393
 20
172.7739339166
  0
VERTEX
  8
SURFACE
 62
7
  6
CONTINUOUS
 10
161.0061928892
 20
172.8507407043
  0
VERTEX
  8
SURFACE
 62
7
  6
CONTINUOUS
 10
160.9575902856
 20
172.9291983224
  0
VERTEX
  8
SURFACE
 62
7
  6
CONTINUOUS
 10
160.9025916475
 20
173.0084161983
  0
VERTEX
  8
SURFACE
 62
7
  6
CONTINUOUS
 10
160.8410277153
 20
173.0875178355
  0
VERTEX
  8
SURFACE
 62
7
  6
CONTINUOUS
 10
160.7728248411
 20
173.1656119404
  0
VERTEX
  8
SURFACE
 62
7
  6
CONTINUOUS
 10
160.6980237067
 20
173.2417939673
  0
VERTEX
  8
SURFACE
 62
7
  6
CONTINUOUS
 10
160.616481457
 20
173.3154235127
  0
VERTEX
  8
SURFACE
 62
7
  6
CONTINUOUS
 10
160.5275957183
 20
173.3861970269
  0
VERTEX
  8
SURFACE
 62
7
  6
CONTINUOUS
 10
160.4306784889
 20
173.453665358
  0
VERTEX
  8
SURFACE
 62
7
  6
CONTINUOUS
 10
160.3250206226
 20
173.5171636409
  0
VERTEX
  8
SURFACE
 62
7
  6
CONTINUOUS
 10
160.210325353
 20
173.5755961882
  0
VERTEX
  8
SURFACE
 62
7
  6
CONTINUOUS
 10
160.0876783005
 20
173.6272343153
  0
VERTEX
  8
SURFACE
 62
7
  6
CONTINUOUS
 10
159.9586867325
 20
173.6705221779
  0
VERTEX
  8
SURFACE
 62
7
  6
CONTINUOUS
 10
159.8252098819
 20
173.7042871802
  0
VERTEX
  8
SURFACE
 62
7
  6
CONTINUOUS
 10
159.6892898086
 20
173.7277914696
  0
VERTEX
  8
SURFACE
 62
7
  6
CONTINUOUS
 10
159.5530754312
 20
173.7407619362
  0
VERTEX
  8
SURFACE
 62
7
  6
CONTINUOUS
 10
159.4505840139
 20
173.7436805823
  0
SEQEND
  0
LINE
  8
SURFACE
 62
7
  6
CONTINUOUS
 10
161.2654120738
 20
171.888572432
 11
161.2621389989
 21
171.942788291
  0
LINE
  8
SURFACE
 62
7
  6
CONTINUOUS
 10
161.2685766076
 20
171.8282719399
 11
161.2654120738
 21
171.888572432
  0
LINE
  8
SURFACE
 62
7
  6
CONTINUOUS
 10
161.2717150723
 20
171.7600410174
 11
161.2685766076
 21
171.8282719399
  0
LINE
  8
SURFACE
 62
7
  6
CONTINUOUS
 10
161.2748854512
 20
171.6819606485
 11
161.2717150723
 21
171.7600410174
  0
LINE
  8
SURFACE
 62
7
  6
CONTINUOUS
 10
161.2798503298
 20
171.5399558691
 11
161.2748854512
 21
171.6819606485
  0
LINE
  8
SURFACE
 62
7
  6
CONTINUOUS
 10
161.2833770792
 20
171.4236371819
 11
161.2798503298
 21
171.5399558691
  0
POLYLINE
  8
SURFACE
 62
7
  6
CONTINUOUS
 66
1
 70
0
  0
VERTEX
  8
SURFACE
 62
7
  6
CONTINUOUS
 10
145.3542852082
 20
105.1448856681
  0
VERTEX
  8
SURFACE
 62
7
  6
CONTINUOUS
 10
145.4018867014
 20
105.2216655526
  0
VERTEX
  8
SURFACE
 62
7
  6
CONTINUOUS
 10
145.4600557549
 20
105.3103726484
  0
VERTEX
  8
SURFACE
 62
7
  6
CONTINUOUS
 10
145.5174066623
 20
105.3922151227
  0
VERTEX
  8
SURFACE
 62
7
  6
CONTINUOUS
 10
145.5745331293
 20
105.468141707
  0
VERTEX
  8
SURFACE
 62
7
  6
CONTINUOUS
 10
145.6320522376
 20
105.5389357169
  0
VERTEX
  8
SURFACE
 62
7
  6
CONTINUOUS
 10
145.6904717855
 20
105.6050461049
  0
VERTEX
  8
SURFACE
 62
7
  6
CONTINUOUS
 10
145.7499971725
 20
105.6664386417
  0
VERTEX
  8
SURFACE
 62
7
  6
CONTINUOUS
 10
145.8106995334
 20
105.7228802918
  0
VERTEX
  8
SURFACE
 62
7
  6
CONTINUOUS
 10
145.8725376403
 20
105.7740174405
  0
VERTEX
  8
SURFACE
 62
7
  6
CONTINUOUS
 10
145.935486738
 20
105.8195148381
  0
VERTEX
  8
SURFACE
 62
7
  6
CONTINUOUS
 10
145.9995054468
 20
105.8590295751
  0
VERTEX
  8
SURFACE
 62
7
  6
CONTINUOUS
 10
146.0638479961
 20
105.8919188698
  0
VERTEX
  8
SURFACE
 62
7
  6
CONTINUOUS
 10
146.1282384791
 20
105.9180568447
  0
VERTEX
  8
SURFACE
 62
7
  6
CONTINUOUS
 10
146.1925550616
 20
105.9375408477
  0
VERTEX
  8
SURFACE
 62
7
  6
CONTINUOUS
 10
146.2559418231
 20
105.9504929328
  0
VERTEX
  8
SURFACE
 62
7
  6
CONTINUOUS
 10
146.3179467823
 20
105.9574481846
  0
VERTEX
  8
SURFACE
 62
7
  6
CONTINUOUS
 10
146.3684264836
 20
105.9591580324
  0
SEQEND
  0
LINE
  8
SURFACE
 62
7
  6
CONTINUOUS
 10
193.0215556199
 20
105.959158081
 11
179.7884264554
 21
105.959158081
  0
LINE
  8
0
 62
7
  6
CONTINUOUS
 10
112.625322756
 20
105.959158081
 11
126.5646847977
 21
105.959158081
  0
LINE
  8
SURFACE
 62
7
  6
CONTINUOUS
 10
146.3684264836
 20
105.959158081
 11
159.9846848
 21
105.959158081
  0
POLYLINE
  8
0
 62
7
  6
CONTINUOUS
 66
1
 70
0
  0
VERTEX
  8
0
 62
7
  6
CONTINUOUS
 10
126.5646847977
 20
105.9591580231
  0
VERTEX
  8
0
 62
7
  6
CONTINUOUS
 10
126.6142755768
 20
105.9575083469
  0
VERTEX
  8
0
 62
7
  6
CONTINUOUS
 10
126.6762529828
 20
105.9506360917
  0
VERTEX
  8
0
 62
7
  6
CONTINUOUS
 10
126.7396138659
 20
105.9377781515
  0
VERTEX
  8
0
 62
7
  6
CONTINUOUS
 10
126.8039117348
 20
105.9183962207
  0
VERTEX
  8
0
 62
7
  6
CONTINUOUS
 10
126.8682929341
 20
105.8923627853
  0
VERTEX
  8
0
 62
7
  6
CONTINUOUS
 10
126.9326338669
 20
105.8595771465
  0
VERTEX
  8
0
 62
7
  6
CONTINUOUS
 10
126.9966603058
 20
105.8201604225
  0
VERTEX
  8
0
 62
7
  6
CONTINUOUS
 10
127.0596239643
 20
105.7747528756
  0
VERTEX
  8
0
 62
7
  6
CONTINUOUS
 10
127.1214793201
 20
105.7236988888
  0
VERTEX
  8
0
 62
7
  6
CONTINUOUS
 10
127.1821983248
 20
105.66733623
  0
VERTEX
  8
0
 62
7
  6
CONTINUOUS
 10
127.2417359104
 20
105.6060229468
  0
VERTEX
  8
0
 62
7
  6
CONTINUOUS
 10
127.3001596
 20
105.5399977273
  0
VERTEX
  8
0
 62
7
  6
CONTINUOUS
 10
127.3576730481
 20
105.4692995173
  0
VERTEX
  8
0
 62
7
  6
CONTINUOUS
 10
127.4147867291
 20
105.3934792986
  0
VERTEX
  8
0
 62
7
  6
CONTINUOUS
 10
127.4721192116
 20
105.3117537083
  0
VERTEX
  8
0
 62
7
  6
CONTINUOUS
 10
127.5302667753
 20
105.2231720379
  0
VERTEX
  8
0
 62
7
  6
CONTINUOUS
 10
127.5788261836
 20
105.1448853914
  0
SEQEND
  0
POLYLINE
  8
SURFACE
 62
7
  6
CONTINUOUS
 66
1
 70
0
  0
VERTEX
  8
SURFACE
 62
7
  6
CONTINUOUS
 10
159.9846848
 20
105.9591580333
  0
VERTEX
  8
SURFACE
 62
7
  6
CONTINUOUS
 10
160.0342755794
 20
105.9575083569
  0
VERTEX
  8
SURFACE
 62
7
  6
CONTINUOUS
 10
160.0962529847
 20
105.9506361014
  0
VERTEX
  8
SURFACE
 62
7
  6
CONTINUOUS
 10
160.1596138693
 20
105.9377781607
  0
VERTEX
  8
SURFACE
 62
7
  6
CONTINUOUS
 10
160.2239117396
 20
105.9183962297
  0
VERTEX
  8
SURFACE
 62
7
  6
CONTINUOUS
 10
160.2882929403
 20
105.8923627932
  0
VERTEX
  8
SURFACE
 62
7
  6
CONTINUOUS
 10
160.3526338726
 20
105.859577152
  0
VERTEX
  8
SURFACE
 62
7
  6
CONTINUOUS
 10
160.4166603097
 20
105.8201604235
  0
VERTEX
  8
SURFACE
 62
7
  6
CONTINUOUS
 10
160.4796239682
 20
105.77475287
  0
VERTEX
  8
SURFACE
 62
7
  6
CONTINUOUS
 10
160.5414793424
 20
105.7236988632
  0
VERTEX
  8
SURFACE
 62
7
  6
CONTINUOUS
 10
160.6021983585
 20
105.6673361985
  0
VERTEX
  8
SURFACE
 62
7
  6
CONTINUOUS
 10
160.6617359327
 20
105.6060229294
  0
VERTEX
  8
SURFACE
 62
7
  6
CONTINUOUS
 10
160.7201596082
 20
105.5399977184
  0
VERTEX
  8
SURFACE
 62
7
  6
CONTINUOUS
 10
160.7776730598
 20
105.4692994983
  0
VERTEX
  8
SURFACE
 62
7
  6
CONTINUOUS
 10
160.8347867436
 20
105.3934792801
  0
VERTEX
  8
SURFACE
 62
7
  6
CONTINUOUS
 10
160.8921192245
 20
105.3117536995
  0
VERTEX
  8
SURFACE
 62
7
  6
CONTINUOUS
 10
160.9502667851
 20
105.2231720283
  0
VERTEX
  8
SURFACE
 62
7
  6
CONTINUOUS
 10
160.9988261835
 20
105.1448853916
  0
SEQEND
  0
LINE
  8
SURFACE
 62
7
  6
CONTINUOUS
 10
178.58470488
 20
171.8299286935
 11
178.5812248105
 21
171.7540440641
  0
LINE
  8
SURFACE
 62
7
  6
CONTINUOUS
 10
178.5871017474
 20
171.8761571627
 11
178.58470488
 21
171.8299286935
  0
LINE
  8
SURFACE
 62
7
  6
CONTINUOUS
 10
178.5896090407
 20
171.9196510492
 11
178.5871017474
 21
171.8761571627
  0
POLYLINE
  8
SURFACE
 62
7
  6
CONTINUOUS
 66
1
 70
0
  0
VERTEX
  8
SURFACE
 62
7
  6
CONTINUOUS
 10
178.2465917246
 20
149.9838433661
  0
VERTEX
  8
SURFACE
 62
7
  6
CONTINUOUS
 10
178.2012698707
 20
149.8084062517
  0
VERTEX
  8
SURFACE
 62
7
  6
CONTINUOUS
 10
178.1736175517
 20
149.7034186393
  0
VERTEX
  8
SURFACE
 62
7
  6
CONTINUOUS
 10
178.1447153185
 20
149.5962309172
  0
VERTEX
  8
SURFACE
 62
7
  6
CONTINUOUS
 10
178.1145569766
 20
149.48783833
  0
VERTEX
  8
SURFACE
 62
7
  6
CONTINUOUS
 10
178.0831426603
 20
149.3792872793
  0
VERTEX
  8
SURFACE
 62
7
  6
CONTINUOUS
 10
178.0504986775
 20
149.2716882824
  0
VERTEX
  8
SURFACE
 62
7
  6
CONTINUOUS
 10
178.0167127267
 20
149.1662271454
  0
VERTEX
  8
SURFACE
 62
7
  6
CONTINUOUS
 10
177.9819538331
 20
149.0641453649
  0
VERTEX
  8
SURFACE
 62
7
  6
CONTINUOUS
 10
177.9465068422
 20
148.9667210664
  0
VERTEX
  8
SURFACE
 62
7
  6
CONTINUOUS
 10
177.9107783564
 20
148.8751939618
  0
VERTEX
  8
SURFACE
 62
7
  6
CONTINUOUS
 10
177.8751686364
 20
148.7903883626
  0
VERTEX
  8
SURFACE
 62
7
  6
CONTINUOUS
 10
177.8399363301
 20
148.7125020193
  0
VERTEX
  8
SURFACE
 62
7
  6
CONTINUOUS
 10
177.8047227957
 20
148.6403339966
  0
VERTEX
  8
SURFACE
 62
7
  6
CONTINUOUS
 10
177.7690215302
 20
148.5726512669
  0
VERTEX
  8
SURFACE
 62
7
  6
CONTINUOUS
 10
177.7323809659
 20
148.5086090761
  0
VERTEX
  8
SURFACE
 62
7
  6
CONTINUOUS
 10
177.6946098421
 20
148.4480185793
  0
VERTEX
  8
SURFACE
 62
7
  6
CONTINUOUS
 10
177.65561484
 20
148.3909193084
  0
VERTEX
  8
SURFACE
 62
7
  6
CONTINUOUS
 10
177.6153566264
 20
148.3374618957
  0
VERTEX
  8
SURFACE
 62
7
  6
CONTINUOUS
 10
177.5738257464
 20
148.2878459647
  0
VERTEX
  8
SURFACE
 62
7
  6
CONTINUOUS
 10
177.5312699447
 20
148.2425281938
  0
VERTEX
  8
SURFACE
 62
7
  6
CONTINUOUS
 10
177.4879923637
 20
148.2018818478
  0
VERTEX
  8
SURFACE
 62
7
  6
CONTINUOUS
 10
177.4442497732
 20
148.1660854458
  0
VERTEX
  8
SURFACE
 62
7
  6
CONTINUOUS
 10
177.3999397656
 20
148.1349424779
  0
VERTEX
  8
SURFACE
 62
7
  6
CONTINUOUS
 10
177.3543834871
 20
148.107948325
  0
VERTEX
  8
SURFACE
 62
7
  6
CONTINUOUS
 10
177.3063329683
 20
148.0845652119
  0
VERTEX
  8
SURFACE
 62
7
  6
CONTINUOUS
 10
177.2549459472
 20
148.0647882511
  0
VERTEX
  8
SURFACE
 62
7
  6
CONTINUOUS
 10
177.1996684091
 20
148.0488752215
  0
VERTEX
  8
SURFACE
 62
7
  6
CONTINUOUS
 10
177.1404077279
 20
148.0372368145
  0
VERTEX
  8
SURFACE
 62
7
  6
CONTINUOUS
 10
177.0768944477
 20
148.0302242742
  0
VERTEX
  8
SURFACE
 62
7
  6
CONTINUOUS
 10
177.0177884838
 20
148.0282033953
  0
SEQEND
  0
POLYLINE
  8
SURFACE
 62
7
  6
CONTINUOUS
 66
1
 70
0
  0
VERTEX
  8
SURFACE
 62
7
  6
CONTINUOUS
 10
162.0642850856
 20
148.8424760913
  0
VERTEX
  8
SURFACE
 62
7
  6
CONTINUOUS
 10
161.9671395582
 20
149.0150700185
  0
VERTEX
  8
SURFACE
 62
7
  6
CONTINUOUS
 10
161.8721162291
 20
149.2109028627
  0
VERTEX
  8
SURFACE
 62
7
  6
CONTINUOUS
 10
161.7852665822
 20
149.4194543932
  0
VERTEX
  8
SURFACE
 62
7
  6
CONTINUOUS
 10
161.7063784158
 20
149.6409661459
  0
VERTEX
  8
SURFACE
 62
7
  6
CONTINUOUS
 10
161.6354356848
 20
149.8755862621
  0
VERTEX
  8
SURFACE
 62
7
  6
CONTINUOUS
 10
161.5725762789
 20
150.1231721615
  0
VERTEX
  8
SURFACE
 62
7
  6
CONTINUOUS
 10
161.5178706099
 20
150.3839260597
  0
VERTEX
  8
SURFACE
 62
7
  6
CONTINUOUS
 10
161.471389938
 20
150.6582556365
  0
VERTEX
  8
SURFACE
 62
7
  6
CONTINUOUS
 10
161.4332418077
 20
150.946561628
  0
VERTEX
  8
SURFACE
 62
7
  6
CONTINUOUS
 10
161.4035243056
 20
151.2494279638
  0
VERTEX
  8
SURFACE
 62
7
  6
CONTINUOUS
 10
161.3823290082
 20
151.567582815
  0
VERTEX
  8
SURFACE
 62
7
  6
CONTINUOUS
 10
161.3697412967
 20
151.9016308927
  0
VERTEX
  8
SURFACE
 62
7
  6
CONTINUOUS
 10
161.3657786165
 20
152.2376933503
  0
SEQEND
  0
LINE
  8
SURFACE
 62
7
  6
CONTINUOUS
 10
178.0754270553
 20
94.2124341807
 11
178.0757787168
 21
101.7496681564
  0
LINE
  8
SURFACE
 62
7
  6
CONTINUOUS
 10
178.4876976487
 20
159.7756674124
 11
178.4873452001
 21
152.2376454058
  0
LINE
  8
SURFACE
 62
7
  6
CONTINUOUS
 10
178.0737383688
 20
92.7687897561
 11
178.0754270553
 21
94.2124341807
  0
LINE
  8
SURFACE
 62
7
  6
CONTINUOUS
 10
178.4893873254
 20
161.2186599725
 11
178.4876976487
 21
159.7756674124
  0
LINE
  8
SURFACE
 62
7
  6
CONTINUOUS
 10
178.0710112202
 20
91.4831713192
 11
178.0737383688
 21
92.7687897561
  0
LINE
  8
SURFACE
 62
7
  6
CONTINUOUS
 10
178.492115447
 20
162.5037815798
 11
178.4893873254
 21
161.2186599725
  0
LINE
  8
SURFACE
 62
7
  6
CONTINUOUS
 10
178.0663461283
 20
90.0089794928
 11
178.0710112202
 21
91.4831713192
  0
LINE
  8
SURFACE
 62
7
  6
CONTINUOUS
 10
178.4967823555
 20
163.9775937015
 11
178.492115447
 21
162.5037815798
  0
LINE
  8
SURFACE
 62
7
  6
CONTINUOUS
 10
178.0608692714
 20
88.7442956034
 11
178.0663461283
 21
90.0089794928
  0
LINE
  8
SURFACE
 62
7
  6
CONTINUOUS
 10
178.5022612961
 20
165.2419991896
 11
178.4967823555
 21
163.9775937015
  0
LINE
  8
SURFACE
 62
7
  6
CONTINUOUS
 10
178.5098329275
 20
166.581755022
 11
178.5022612961
 21
165.2419991896
  0
LINE
  8
SURFACE
 62
7
  6
CONTINUOUS
 10
178.0533007166
 20
87.4043273814
 11
178.0608692714
 21
88.7442956034
  0
LINE
  8
SURFACE
 62
7
  6
CONTINUOUS
 10
178.5192183852
 20
167.8630214715
 11
178.5098329275
 21
166.581755022
  0
LINE
  8
SURFACE
 62
7
  6
CONTINUOUS
 10
178.0439192666
 20
86.1229333884
 11
178.0533007166
 21
87.4043273814
  0
LINE
  8
SURFACE
 62
7
  6
CONTINUOUS
 10
178.53007346
 20
169.0111250932
 11
178.5192183852
 21
167.8630214715
  0
LINE
  8
SURFACE
 62
7
  6
CONTINUOUS
 10
178.0330688203
 20
84.9747751702
 11
178.0439192666
 21
86.1229333884
  0
POLYLINE
  8
SURFACE
 62
7
  6
CONTINUOUS
 66
1
 70
0
  0
VERTEX
  8
SURFACE
 62
7
  6
CONTINUOUS
 10
178.0757786069
 20
101.7496681564
  0
VERTEX
  8
SURFACE
 62
7
  6
CONTINUOUS
 10
178.0797413015
 20
102.0857305609
  0
VERTEX
  8
SURFACE
 62
7
  6
CONTINUOUS
 10
178.0923289993
 20
102.4197786615
  0
VERTEX
  8
SURFACE
 62
7
  6
CONTINUOUS
 10
178.1135243094
 20
102.7379335161
  0
VERTEX
  8
SURFACE
 62
7
  6
CONTINUOUS
 10
178.1432418038
 20
103.0407997679
  0
VERTEX
  8
SURFACE
 62
7
  6
CONTINUOUS
 10
178.1813899287
 20
103.3291057843
  0
VERTEX
  8
SURFACE
 62
7
  6
CONTINUOUS
 10
178.2278706106
 20
103.6034354161
  0
VERTEX
  8
SURFACE
 62
7
  6
CONTINUOUS
 10
178.2825762842
 20
103.8641892936
  0
VERTEX
  8
SURFACE
 62
7
  6
CONTINUOUS
 10
178.3454357102
 20
104.1117752857
  0
VERTEX
  8
SURFACE
 62
7
  6
CONTINUOUS
 10
178.4163784261
 20
104.3463953754
  0
VERTEX
  8
SURFACE
 62
7
  6
CONTINUOUS
 10
178.4952666425
 20
104.5679072294
  0
VERTEX
  8
SURFACE
 62
7
  6
CONTINUOUS
 10
178.582116371
 20
104.7764589194
  0
VERTEX
  8
SURFACE
 62
7
  6
CONTINUOUS
 10
178.6771396791
 20
104.9722916853
  0
VERTEX
  8
SURFACE
 62
7
  6
CONTINUOUS
 10
178.774285137
 20
105.1448854246
  0
SEQEND
  0
LINE
  8
SURFACE
 62
7
  6
CONTINUOUS
 10
178.5423638016
 20
170.0091446368
 11
178.53007346
 21
169.0111250932
  0
LINE
  8
SURFACE
 62
7
  6
CONTINUOUS
 10
178.0207842282
 20
83.9768253818
 11
178.0330688203
 21
84.9747751702
  0
POLYLINE
  8
SURFACE
 62
7
  6
CONTINUOUS
 66
1
 70
0
  0
VERTEX
  8
SURFACE
 62
7
  6
CONTINUOUS
 10
178.4873452835
 20
152.2376454058
  0
VERTEX
  8
SURFACE
 62
7
  6
CONTINUOUS
 10
178.481306789
 20
151.8251405083
  0
VERTEX
  8
SURFACE
 62
7
  6
CONTINUOUS
 10
178.461853534
 20
151.4153444305
  0
VERTEX
  8
SURFACE
 62
7
  6
CONTINUOUS
 10
178.4284793138
 20
151.0243660921
  0
VERTEX
  8
SURFACE
 62
7
  6
CONTINUOUS
 10
178.3809532821
 20
150.6530458519
  0
VERTEX
  8
SURFACE
 62
7
  6
CONTINUOUS
 10
178.3192130157
 20
150.3018390209
  0
VERTEX
  8
SURFACE
 62
7
  6
CONTINUOUS
 10
178.246591649
 20
149.9838433855
  0
SEQEND
  0
LINE
  8
SURFACE
 62
7
  6
CONTINUOUS
 10
178.5542500918
 20
170.7419720482
 11
178.5423638016
 21
170.0091446368
  0
LINE
  8
SURFACE
 62
7
  6
CONTINUOUS
 10
178.0089045247
 20
83.2441865408
 11
178.0207842282
 21
83.9768253818
  0
LINE
  8
SURFACE
 62
7
  6
CONTINUOUS
 10
178.5627685993
 20
171.1506441637
 11
178.5542500918
 21
170.7419720482
  0
LINE
  8
SURFACE
 62
7
  6
CONTINUOUS
 10
178.0003915935
 20
82.8357060404
 11
178.0089045247
 21
83.2441865408
  0
LINE
  8
SURFACE
 62
7
  6
CONTINUOUS
 10
178.5693921469
 20
171.4089079991
 11
178.5627685993
 21
171.1506441637
  0
LINE
  8
SURFACE
 62
7
  6
CONTINUOUS
 10
177.9937740051
 20
82.5776492166
 11
178.0003915935
 21
82.8357060404
  0
LINE
  8
SURFACE
 62
7
  6
CONTINUOUS
 10
178.5742806123
 20
171.5687049062
 11
178.5693921469
 21
171.4089079991
  0
LINE
  8
SURFACE
 62
7
  6
CONTINUOUS
 10
177.9888898985
 20
82.4179900263
 11
177.9937740051
 21
82.5776492166
  0
LINE
  8
SURFACE
 62
7
  6
CONTINUOUS
 10
178.5777829868
 20
171.668057854
 11
178.5742806123
 21
171.5687049062
  0
LINE
  8
SURFACE
 62
7
  6
CONTINUOUS
 10
177.9853903457
 20
82.3187210804
 11
177.9888898985
 21
82.4179900263
  0
LINE
  8
SURFACE
 62
7
  6
CONTINUOUS
 10
178.5812248105
 20
171.7540440641
 11
178.5777829868
 21
171.668057854
  0
LINE
  8
SURFACE
 62
7
  6
CONTINUOUS
 10
177.9819508268
 20
82.2328029005
 11
177.9853903457
 21
82.3187210804
  0
LINE
  8
SURFACE
 62
7
  6
CONTINUOUS
 10
177.9784724059
 20
82.1569719197
 11
177.9819508268
 21
82.2328029005
  0
LINE
  8
SURFACE
 62
7
  6
CONTINUOUS
 10
177.9760764082
 20
82.1107763228
 11
177.9784724059
 21
82.1569719197
  0
LINE
  8
SURFACE
 62
7
  6
CONTINUOUS
 10
177.9735696514
 20
82.0673114554
 11
177.9760764082
 21
82.1107763228
  0
LINE
  8
DEFAULT_1
 62
2
  6
CENTER
 10
150.0715556199
 20
126.9936807325
 11
146.8216556199
 21
126.9936807325
  0
LINE
  8
0
 62
2
  6
CONTINUOUS
 10
145.8715556199
 20
126.9936807325
 11
143.7715556199
 21
126.9936807325
  0
LINE
  8
DEFAULT_1
 62
2
  6
CENTER
 10
139.5715556199
 20
126.9936807325
 11
142.8214556199
 21
126.9936807325
  0
LINE
  8
SURFACE
 62
7
  6
CONTINUOUS
 10
194.8215556199
 20
171.943679545
 11
194.8215556199
 21
107.7591563049
  0
POLYLINE
  8
SURFACE
 62
7
  6
CONTINUOUS
 66
1
 70
0
  0
VERTEX
  8
SURFACE
 62
7
  6
CONTINUOUS
 10
194.8215556199
 20
107.759158081
  0
VERTEX
  8
SURFACE
 62
7
  6
CONTINUOUS
 10
194.8169267978
 20
107.6301529112
  0
VERTEX
  8
SURFACE
 62
7
  6
CONTINUOUS
 10
194.8036441344
 20
107.5058587981
  0
VERTEX
  8
SURFACE
 62
7
  6
CONTINUOUS
 10
194.781451546
 20
107.3813137619
  0
VERTEX
  8
SURFACE
 62
7
  6
CONTINUOUS
 10
194.7515778803
 20
107.2621440182
  0
VERTEX
  8
SURFACE
 62
7
  6
CONTINUOUS
 10
194.7125217023
 20
107.1422028895
  0
VERTEX
  8
SURFACE
 62
7
  6
CONTINUOUS
 10
194.6657501202
 20
107.0266115328
  0
VERTEX
  8
SURFACE
 62
7
  6
CONTINUOUS
 10
194.610082289
 20
106.912645812
  0
VERTEX
  8
SURFACE
 62
7
  6
CONTINUOUS
 10
194.5472789539
 20
106.8040830535
  0
VERTEX
  8
SURFACE
 62
7
  6
CONTINUOUS
 10
194.4747298175
 20
106.6969505912
  0
VERTEX
  8
SURFACE
 62
7
  6
CONTINUOUS
 10
194.3966294616
 20
106.5976194764
  0
VERTEX
  8
SURFACE
 62
7
  6
CONTINUOUS
 10
194.3086338934
 20
106.5008141224
  0
VERTEX
  8
SURFACE
 62
7
  6
CONTINUOUS
 10
194.2148205297
 20
106.4115235404
  0
VERTEX
  8
SURFACE
 62
7
  6
CONTINUOUS
 10
194.1133065227
 20
106.3280466366
  0
VERTEX
  8
SURFACE
 62
7
  6
CONTINUOUS
 10
194.0044668599
 20
106.2512172684
  0
VERTEX
  8
SURFACE
 62
7
  6
CONTINUOUS
 10
193.8895647409
 20
106.182275027
  0
VERTEX
  8
SURFACE
 62
7
  6
CONTINUOUS
 10
193.7696241002
 20
106.1219673319
  0
VERTEX
  8
SURFACE
 62
7
  6
CONTINUOUS
 10
193.6417997884
 20
106.069395621
  0
VERTEX
  8
SURFACE
 62
7
  6
CONTINUOUS
 10
193.5129789936
 20
106.0275394545
  0
VERTEX
  8
SURFACE
 62
7
  6
CONTINUOUS
 10
193.3755338214
 20
105.9943069732
  0
VERTEX
  8
SURFACE
 62
7
  6
CONTINUOUS
 10
193.2401921679
 20
105.9724857384
  0
VERTEX
  8
SURFACE
 62
7
  6
CONTINUOUS
 10
193.0970133364
 20
105.9607404062
  0
VERTEX
  8
SURFACE
 62
7
  6
CONTINUOUS
 10
193.0215556199
 20
105.9591580817
  0
SEQEND
  0
POLYLINE
  8
SURFACE
 62
7
  6
CONTINUOUS
 66
1
 70
0
  0
VERTEX
  8
SURFACE
 62
7
  6
CONTINUOUS
 10
178.7742850861
 20
105.1448854555
  0
VERTEX
  8
SURFACE
 62
7
  6
CONTINUOUS
 10
178.8218223817
 20
105.2215643155
  0
VERTEX
  8
SURFACE
 62
7
  6
CONTINUOUS
 10
178.880000915
 20
105.3102916843
  0
VERTEX
  8
SURFACE
 62
7
  6
CONTINUOUS
 10
178.9381085098
 20
105.3931819208
  0
VERTEX
  8
SURFACE
 62
7
  6
CONTINUOUS
 10
178.9964810888
 20
105.4706319713
  0
VERTEX
  8
SURFACE
 62
7
  6
CONTINUOUS
 10
179.0554221982
 20
105.5429077612
  0
VERTEX
  8
SURFACE
 62
7
  6
CONTINUOUS
 10
179.1151567956
 20
105.6100960969
  0
VERTEX
  8
SURFACE
 62
7
  6
CONTINUOUS
 10
179.1758521445
 20
105.6721532111
  0
VERTEX
  8
SURFACE
 62
7
  6
CONTINUOUS
 10
179.2375058729
 20
105.7288224696
  0
VERTEX
  8
SURFACE
 62
7
  6
CONTINUOUS
 10
179.2997123687
 20
105.7795365707
  0
VERTEX
  8
SURFACE
 62
7
  6
CONTINUOUS
 10
179.3619892085
 20
105.8238387094
  0
VERTEX
  8
SURFACE
 62
7
  6
CONTINUOUS
 10
179.4236784236
 20
105.8613695585
  0
VERTEX
  8
SURFACE
 62
7
  6
CONTINUOUS
 10
179.4841519329
 20
105.8920580718
  0
VERTEX
  8
SURFACE
 62
7
  6
CONTINUOUS
 10
179.5432807714
 20
105.9162824771
  0
VERTEX
  8
SURFACE
 62
7
  6
CONTINUOUS
 10
179.6022361689
 20
105.9348521581
  0
VERTEX
  8
SURFACE
 62
7
  6
CONTINUOUS
 10
179.6630617893
 20
105.9483496171
  0
VERTEX
  8
SURFACE
 62
7
  6
CONTINUOUS
 10
179.7278620016
 20
105.9566885339
  0
VERTEX
  8
SURFACE
 62
7
  6
CONTINUOUS
 10
179.7884264554
 20
105.9591580164
  0
SEQEND
  0
LINE
  8
SURFACE
 62
7
  6
CONTINUOUS
 10
177.0177884838
 20
148.0282033839
 11
163.0784264422
 21
148.0282033839
  0
LINE
  8
0
 62
7
  6
CONTINUOUS
 10
143.2746847562
 20
148.0282033839
 11
129.6584264399
 21
148.0282033839
  0
LINE
  8
0
 62
7
  6
CONTINUOUS
 10
96.6215556199
 20
148.0282033839
 11
109.8546847845
 21
148.0282033839
  0
POLYLINE
  8
0
 62
7
  6
CONTINUOUS
 66
1
 70
0
  0
VERTEX
  8
0
 62
7
  6
CONTINUOUS
 10
129.6584264399
 20
148.0282034316
  0
VERTEX
  8
0
 62
7
  6
CONTINUOUS
 10
129.6088356605
 20
148.029853108
  0
VERTEX
  8
0
 62
7
  6
CONTINUOUS
 10
129.5468582552
 20
148.0367253636
  0
VERTEX
  8
0
 62
7
  6
CONTINUOUS
 10
129.4834973706
 20
148.0495833042
  0
VERTEX
  8
0
 62
7
  6
CONTINUOUS
 10
129.4191995003
 20
148.0689652352
  0
VERTEX
  8
0
 62
7
  6
CONTINUOUS
 10
129.3548182995
 20
148.0949986717
  0
VERTEX
  8
0
 62
7
  6
CONTINUOUS
 10
129.2904773673
 20
148.1277843129
  0
VERTEX
  8
0
 62
7
  6
CONTINUOUS
 10
129.2264509301
 20
148.1672010414
  0
VERTEX
  8
0
 62
7
  6
CONTINUOUS
 10
129.1634872717
 20
148.2126085949
  0
VERTEX
  8
0
 62
7
  6
CONTINUOUS
 10
129.1016318975
 20
148.2636626018
  0
VERTEX
  8
0
 62
7
  6
CONTINUOUS
 10
129.0409128814
 20
148.3200252664
  0
VERTEX
  8
0
 62
7
  6
CONTINUOUS
 10
128.9813753071
 20
148.3813385355
  0
VERTEX
  8
0
 62
7
  6
CONTINUOUS
 10
128.9229516317
 20
148.4473637465
  0
VERTEX
  8
0
 62
7
  6
CONTINUOUS
 10
128.86543818
 20
148.5180619667
  0
VERTEX
  8
0
 62
7
  6
CONTINUOUS
 10
128.8083244963
 20
148.5938821849
  0
VERTEX
  8
0
 62
7
  6
CONTINUOUS
 10
128.7509920154
 20
148.6756077654
  0
VERTEX
  8
0
 62
7
  6
CONTINUOUS
 10
128.6928444548
 20
148.7641894366
  0
VERTEX
  8
0
 62
7
  6
CONTINUOUS
 10
128.6442850563
 20
148.8424760734
  0
SEQEND
  0
POLYLINE
  8
SURFACE
 62
7
  6
CONTINUOUS
 66
1
 70
0
  0
VERTEX
  8
SURFACE
 62
7
  6
CONTINUOUS
 10
163.0784264421
 20
148.0282034418
  0
VERTEX
  8
SURFACE
 62
7
  6
CONTINUOUS
 10
163.0288356631
 20
148.0298531181
  0
VERTEX
  8
SURFACE
 62
7
  6
CONTINUOUS
 10
162.9668582571
 20
148.0367253732
  0
VERTEX
  8
SURFACE
 62
7
  6
CONTINUOUS
 10
162.903497374
 20
148.0495833135
  0
VERTEX
  8
SURFACE
 62
7
  6
CONTINUOUS
 10
162.8391995051
 20
148.0689652442
  0
VERTEX
  8
SURFACE
 62
7
  6
CONTINUOUS
 10
162.7748183057
 20
148.0949986797
  0
VERTEX
  8
SURFACE
 62
7
  6
CONTINUOUS
 10
162.7104773729
 20
148.1277843185
  0
VERTEX
  8
SURFACE
 62
7
  6
CONTINUOUS
 10
162.646450934
 20
148.1672010425
  0
VERTEX
  8
SURFACE
 62
7
  6
CONTINUOUS
 10
162.5834872756
 20
148.2126085894
  0
VERTEX
  8
SURFACE
 62
7
  6
CONTINUOUS
 10
162.5216319198
 20
148.2636625761
  0
VERTEX
  8
SURFACE
 62
7
  6
CONTINUOUS
 10
162.4609129151
 20
148.3200252349
  0
VERTEX
  8
SURFACE
 62
7
  6
CONTINUOUS
 10
162.4013753295
 20
148.3813385181
  0
VERTEX
  8
SURFACE
 62
7
  6
CONTINUOUS
 10
162.3429516398
 20
148.4473637377
  0
VERTEX
  8
SURFACE
 62
7
  6
CONTINUOUS
 10
162.2854381918
 20
148.5180619476
  0
VERTEX
  8
SURFACE
 62
7
  6
CONTINUOUS
 10
162.2283245107
 20
148.5938821664
  0
VERTEX
  8
SURFACE
 62
7
  6
CONTINUOUS
 10
162.1709920283
 20
148.6756077566
  0
VERTEX
  8
SURFACE
 62
7
  6
CONTINUOUS
 10
162.1128444645
 20
148.764189427
  0
VERTEX
  8
SURFACE
 62
7
  6
CONTINUOUS
 10
162.0642850563
 20
148.8424760735
  0
SEQEND
  0
LINE
  8
DEFAULT_1
 62
2
  6
CENTER
 10
109.6366369908
 20
158.7436807325
 11
203.4087800875
 21
158.7436807325
  0
POLYLINE
  8
0
 62
7
  6
CONTINUOUS
 66
1
 70
0
  0
VERTEX
  8
0
 62
7
  6
CONTINUOUS
 10
113.4825272277
 20
173.7436805822
  0
VERTEX
  8
0
 62
7
  6
CONTINUOUS
 10
113.3754667322
 20
173.740495673
  0
VERTEX
  8
0
 62
7
  6
CONTINUOUS
 10
113.2393996214
 20
173.7271946117
  0
VERTEX
  8
0
 62
7
  6
CONTINUOUS
 10
113.1062198634
 20
173.7039287574
  0
VERTEX
  8
0
 62
7
  6
CONTINUOUS
 10
112.9772270283
 20
173.6713438174
  0
VERTEX
  8
0
 62
7
  6
CONTINUOUS
 10
112.8536024678
 20
173.6303012704
  0
VERTEX
  8
0
 62
7
  6
CONTINUOUS
 10
112.7363819734
 20
173.5818529761
  0
VERTEX
  8
0
 62
7
  6
CONTINUOUS
 10
112.6264304247
 20
173.5272093475
  0
VERTEX
  8
0
 62
7
  6
CONTINUOUS
 10
112.5243673614
 20
173.4676671243
  0
VERTEX
  8
0
 62
7
  6
CONTINUOUS
 10
112.4300946739
 20
173.4042105106
  0
VERTEX
  8
0
 62
7
  6
CONTINUOUS
 10
112.343153513
 20
173.3375110007
  0
VERTEX
  8
0
 62
7
  6
CONTINUOUS
 10
112.2630718985
 20
173.2680886109
  0
VERTEX
  8
0
 62
7
  6
CONTINUOUS
 10
112.1893892626
 20
173.1963317926
  0
VERTEX
  8
0
 62
7
  6
CONTINUOUS
 10
112.12180291
 20
173.1226659743
  0
VERTEX
  8
0
 62
7
  6
CONTINUOUS
 10
112.0602549616
 20
173.0477554593
  0
VERTEX
  8
0
 62
7
  6
CONTINUOUS
 10
112.0046417779
 20
172.9722652179
  0
VERTEX
  8
0
 62
7
  6
CONTINUOUS
 10
111.9547962137
 20
172.8968309105
  0
VERTEX
  8
0
 62
7
  6
CONTINUOUS
 10
111.9105073088
 20
172.8220745724
  0
VERTEX
  8
0
 62
7
  6
CONTINUOUS
 10
111.8715935082
 20
172.748742789
  0
VERTEX
  8
0
 62
7
  6
CONTINUOUS
 10
111.8379224668
 20
172.67782466
  0
VERTEX
  8
0
 62
7
  6
CONTINUOUS
 10
111.8092420257
 20
172.6102560686
  0
VERTEX
  8
0
 62
7
  6
CONTINUOUS
 10
111.7851559849
 20
172.5467638806
  0
VERTEX
  8
0
 62
7
  6
CONTINUOUS
 10
111.7651391024
 20
172.4877327064
  0
VERTEX
  8
0
 62
7
  6
CONTINUOUS
 10
111.7486477857
 20
172.4333557831
  0
VERTEX
  8
0
 62
7
  6
CONTINUOUS
 10
111.7351415097
 20
172.3836152363
  0
VERTEX
  8
0
 62
7
  6
CONTINUOUS
 10
111.7241206186
 20
172.3383519516
  0
VERTEX
  8
0
 62
7
  6
CONTINUOUS
 10
111.7150898027
 20
172.2970592356
  0
VERTEX
  8
0
 62
7
  6
CONTINUOUS
 10
111.7076438917
 20
172.2592132288
  0
VERTEX
  8
0
 62
7
  6
CONTINUOUS
 10
111.7014634528
 20
172.224341516
  0
VERTEX
  8
0
 62
7
  6
CONTINUOUS
 10
111.6963290724
 20
172.1922391903
  0
VERTEX
  8
0
 62
7
  6
CONTINUOUS
 10
111.6920652956
 20
172.1627785384
  0
VERTEX
  8
0
 62
7
  6
CONTINUOUS
 10
111.6885079374
 20
172.1357196655
  0
VERTEX
  8
0
 62
7
  6
CONTINUOUS
 10
111.6855072296
 20
172.1107056997
  0
VERTEX
  8
0
 62
7
  6
CONTINUOUS
 10
111.6829309548
 20
172.0872781589
  0
VERTEX
  8
0
 62
7
  6
CONTINUOUS
 10
111.680678809
 20
172.0650340315
  0
VERTEX
  8
0
 62
7
  6
CONTINUOUS
 10
111.6786760821
 20
172.0436368841
  0
VERTEX
  8
0
 62
7
  6
CONTINUOUS
 10
111.676867081
 20
172.0228096188
  0
VERTEX
  8
0
 62
7
  6
CONTINUOUS
 10
111.675210167
 20
172.0023264584
  0
VERTEX
  8
0
 62
7
  6
CONTINUOUS
 10
111.6736729736
 20
171.9819902095
  0
VERTEX
  8
0
 62
7
  6
CONTINUOUS
 10
111.6722286666
 20
171.9616054454
  0
VERTEX
  8
0
 62
7
  6
CONTINUOUS
 10
111.6695415885
 20
171.9200500096
  0
SEQEND
  0
POLYLINE
  8
SURFACE
 62
7
  6
CONTINUOUS
 66
1
 70
0
  0
VERTEX
  8
SURFACE
 62
7
  6
CONTINUOUS
 10
180.4026320613
 20
173.7436805823
  0
VERTEX
  8
SURFACE
 62
7
  6
CONTINUOUS
 10
180.2969149179
 20
173.7405751689
  0
VERTEX
  8
SURFACE
 62
7
  6
CONTINUOUS
 10
180.1607669051
 20
173.7273661702
  0
VERTEX
  8
SURFACE
 62
7
  6
CONTINUOUS
 10
180.0274469099
 20
173.7041681875
  0
VERTEX
  8
SURFACE
 62
7
  6
CONTINUOUS
 10
179.8982742656
 20
173.6716190702
  0
VERTEX
  8
SURFACE
 62
7
  6
CONTINUOUS
 10
179.7744502306
 20
173.63057805
  0
VERTEX
  8
SURFACE
 62
7
  6
CONTINUOUS
 10
179.657029606
 20
173.5821000972
  0
VERTEX
  8
SURFACE
 62
7
  6
CONTINUOUS
 10
179.5468944837
 20
173.5274035943
  0
VERTEX
  8
SURFACE
 62
7
  6
CONTINUOUS
 10
179.4446763956
 20
173.4677957054
  0
VERTEX
  8
SURFACE
 62
7
  6
CONTINUOUS
 10
179.3502740664
 20
173.4042646032
  0
VERTEX
  8
SURFACE
 62
7
  6
CONTINUOUS
 10
179.26322352
 20
173.3374830943
  0
VERTEX
  8
SURFACE
 62
7
  6
CONTINUOUS
 10
179.1830482485
 20
173.2679711048
  0
VERTEX
  8
SURFACE
 62
7
  6
CONTINUOUS
 10
179.1092839662
 20
173.1961159554
  0
VERTEX
  8
SURFACE
 62
7
  6
CONTINUOUS
 10
179.0416303398
 20
173.1223472548
  0
VERTEX
  8
SURFACE
 62
7
  6
CONTINUOUS
 10
178.9800313628
 20
173.0473342751
  0
VERTEX
  8
SURFACE
 62
7
  6
CONTINUOUS
 10
178.9243832924
 20
172.971745687
  0
VERTEX
  8
SURFACE
 62
7
  6
CONTINUOUS
 10
178.874518516
 20
172.8962210356
  0
VERTEX
  8
SURFACE
 62
7
  6
CONTINUOUS
 10
178.8302253849
 20
172.821386666
  0
VERTEX
  8
SURFACE
 62
7
  6
CONTINUOUS
 10
178.7913226077
 20
172.7479965029
  0
VERTEX
  8
SURFACE
 62
7
  6
CONTINUOUS
 10
178.7576729753
 20
172.6770381788
  0
VERTEX
  8
SURFACE
 62
7
  6
CONTINUOUS
 10
178.7290190767
 20
172.6094427524
  0
VERTEX
  8
SURFACE
 62
7
  6
CONTINUOUS
 10
178.7049602237
 20
172.5459303366
  0
VERTEX
  8
SURFACE
 62
7
  6
CONTINUOUS
 10
178.6849739871
 20
172.4868968703
  0
VERTEX
  8
SURFACE
 62
7
  6
CONTINUOUS
 10
178.668518223
 20
172.4325468155
  0
VERTEX
  8
SURFACE
 62
7
  6
CONTINUOUS
 10
178.6550518593
 20
172.3828691819
  0
VERTEX
  8
SURFACE
 62
7
  6
CONTINUOUS
 10
178.6440694358
 20
172.3376894004
  0
VERTEX
  8
SURFACE
 62
7
  6
CONTINUOUS
 10
178.6350696441
 20
172.2964740674
  0
VERTEX
  8
SURFACE
 62
7
  6
CONTINUOUS
 10
178.6276459511
 20
172.2586848087
  0
VERTEX
  8
SURFACE
 62
7
  6
CONTINUOUS
 10
178.6214802021
 20
172.2238456241
  0
VERTEX
  8
SURFACE
 62
7
  6
CONTINUOUS
 10
178.6163573926
 20
172.1917699233
  0
VERTEX
  8
SURFACE
 62
7
  6
CONTINUOUS
 10
178.6121032684
 20
172.1623350118
  0
VERTEX
  8
SURFACE
 62
7
  6
CONTINUOUS
 10
178.6085542023
 20
172.1353032843
  0
VERTEX
  8
SURFACE
 62
7
  6
CONTINUOUS
 10
178.6055598696
 20
172.1103113405
  0
VERTEX
  8
SURFACE
 62
7
  6
CONTINUOUS
 10
178.6029882428
 20
172.0868989614
  0
VERTEX
  8
SURFACE
 62
7
  6
CONTINUOUS
 10
178.6007394575
 20
172.0646641864
  0
VERTEX
  8
SURFACE
 62
7
  6
CONTINUOUS
 10
178.5987391521
 20
172.0432717639
  0
VERTEX
  8
SURFACE
 62
7
  6
CONTINUOUS
 10
178.5969319014
 20
172.0224457816
  0
VERTEX
  8
SURFACE
 62
7
  6
CONTINUOUS
 10
178.5952762725
 20
172.0019616356
  0
VERTEX
  8
SURFACE
 62
7
  6
CONTINUOUS
 10
178.5937398937
 20
171.9816210361
  0
VERTEX
  8
SURFACE
 62
7
  6
CONTINUOUS
 10
178.5922960217
 20
171.9612287595
  0
VERTEX
  8
SURFACE
 62
7
  6
CONTINUOUS
 10
178.5896090407
 20
171.9196510492
  0
SEQEND
  0
POLYLINE
  8
SURFACE
 62
7
  6
CONTINUOUS
 66
1
 70
0
  0
VERTEX
  8
SURFACE
 62
7
  6
CONTINUOUS
 10
146.9025272256
 20
173.7436805823
  0
VERTEX
  8
SURFACE
 62
7
  6
CONTINUOUS
 10
146.79672792
 20
173.7405703331
  0
VERTEX
  8
SURFACE
 62
7
  6
CONTINUOUS
 10
146.6605133386
 20
173.727345993
  0
VERTEX
  8
SURFACE
 62
7
  6
CONTINUOUS
 10
146.5271316645
 20
173.7041233229
  0
VERTEX
  8
SURFACE
 62
7
  6
CONTINUOUS
 10
146.3979039087
 20
173.6715415254
  0
VERTEX
  8
SURFACE
 62
7
  6
CONTINUOUS
 10
146.2740327202
 20
173.6304615435
  0
VERTEX
  8
SURFACE
 62
7
  6
CONTINUOUS
 10
146.156573937
 20
173.5819403387
  0
VERTEX
  8
SURFACE
 62
7
  6
CONTINUOUS
 10
146.0464103069
 20
173.52719848
  0
VERTEX
  8
SURFACE
 62
7
  6
CONTINUOUS
 10
145.9441726144
 20
173.4675447635
  0
VERTEX
  8
SURFACE
 62
7
  6
CONTINUOUS
 10
145.8497565597
 20
173.4039670243
  0
VERTEX
  8
SURFACE
 62
7
  6
CONTINUOUS
 10
145.7626971876
 20
173.3371382172
  0
VERTEX
  8
SURFACE
 62
7
  6
CONTINUOUS
 10
145.6825172377
 20
173.2675782426
  0
VERTEX
  8
SURFACE
 62
7
  6
CONTINUOUS
 10
145.6087518893
 20
173.1956742942
  0
VERTEX
  8
SURFACE
 62
7
  6
CONTINUOUS
 10
145.5411023703
 20
173.121858111
  0
VERTEX
  8
SURFACE
 62
7
  6
CONTINUOUS
 10
145.4795130168
 20
173.0468006129
  0
VERTEX
  8
SURFACE
 62
7
  6
CONTINUOUS
 10
145.4238795777
 20
172.9711713851
  0
VERTEX
  8
SURFACE
 62
7
  6
CONTINUOUS
 10
145.3740339093
 20
172.8956109221
  0
VERTEX
  8
SURFACE
 62
7
  6
CONTINUOUS
 10
145.3297638723
 20
172.8207467061
  0
VERTEX
  8
SURFACE
 62
7
  6
CONTINUOUS
 10
145.2908884035
 20
172.7473355891
  0
VERTEX
  8
SURFACE
 62
7
  6
CONTINUOUS
 10
145.2572686161
 20
172.6763651603
  0
VERTEX
  8
SURFACE
 62
7
  6
CONTINUOUS
 10
145.2286451696
 20
172.6087651245
  0
VERTEX
  8
SURFACE
 62
7
  6
CONTINUOUS
 10
145.2046154707
 20
172.5452528289
  0
VERTEX
  8
SURFACE
 62
7
  6
CONTINUOUS
 10
145.1846578536
 20
172.4862276427
  0
VERTEX
  8
SURFACE
 62
7
  6
CONTINUOUS
 10
145.1682305149
 20
172.4318972001
  0
VERTEX
  8
SURFACE
 62
7
  6
CONTINUOUS
 10
145.1547921923
 20
172.3822523196
  0
VERTEX
  8
SURFACE
 62
7
  6
CONTINUOUS
 10
145.1438355848
 20
172.337112911
  0
VERTEX
  8
SURFACE
 62
7
  6
CONTINUOUS
 10
145.1348577975
 20
172.2959374391
  0
VERTEX
  8
SURFACE
 62
7
  6
CONTINUOUS
 10
145.1274521398
 20
172.258183398
  0
VERTEX
  8
SURFACE
 62
7
  6
CONTINUOUS
 10
145.1213010439
 20
172.2233739947
  0
VERTEX
  8
SURFACE
 62
7
  6
CONTINUOUS
 10
145.1161908719
 20
172.1913279432
  0
VERTEX
  8
SURFACE
 62
7
  6
CONTINUOUS
 10
145.1119475724
 20
172.161922322
  0
VERTEX
  8
SURFACE
 62
7
  6
CONTINUOUS
 10
145.1084076966
 20
172.1349189467
  0
VERTEX
  8
SURFACE
 62
7
  6
CONTINUOUS
 10
145.1054208604
 20
172.1099515411
  0
VERTEX
  8
SURFACE
 62
7
  6
CONTINUOUS
 10
145.1028553227
 20
172.0865594874
  0
VERTEX
  8
SURFACE
 62
7
  6
CONTINUOUS
 10
145.1006115405
 20
172.0643413472
  0
VERTEX
  8
SURFACE
 62
7
  6
CONTINUOUS
 10
145.0986154056
 20
172.0429624463
  0
VERTEX
  8
SURFACE
 62
7
  6
CONTINUOUS
 10
145.096811689
 20
172.0221474456
  0
VERTEX
  8
SURFACE
 62
7
  6
CONTINUOUS
 10
145.0951591085
 20
172.0016722829
  0
VERTEX
  8
SURFACE
 62
7
  6
CONTINUOUS
 10
145.0936253429
 20
171.9813382591
  0
VERTEX
  8
SURFACE
 62
7
  6
CONTINUOUS
 10
145.0921837447
 20
171.960950482
  0
VERTEX
  8
SURFACE
 62
7
  6
CONTINUOUS
 10
145.0895005796
 20
171.9193767959
  0
SEQEND
  0
LINE
  8
SURFACE
 62
7
  6
CONTINUOUS
 10
159.450584062
 20
173.7436807325
 11
146.9025271779
 21
173.7436807325
  0
LINE
  8
0
 62
7
  6
CONTINUOUS
 10
113.4825271778
 20
173.7436807325
 11
126.030584062
 21
173.7436807325
  0
LINE
  8
SURFACE
 62
7
  6
CONTINUOUS
 10
180.4026320153
 20
173.7436807325
 11
193.0215556199
 21
173.7436807325
  0
LINE
  8
0
 62
7
  6
CONTINUOUS
 10
94.8215556199
 20
215.9890932793
 11
94.8215556199
 21
242.3890932793
  0
LINE
  8
0
 62
7
  6
CONTINUOUS
 10
110.9251237611
 20
215.9733729495
 11
111.1556973916
 21
242.3733729495
  0
POLYLINE
  8
0
 62
7
  6
CONTINUOUS
 66
1
 70
0
  0
VERTEX
  8
0
 62
7
  6
CONTINUOUS
 10
132.855453925
 20
220.9937991766
  0
VERTEX
  8
0
 62
7
  6
CONTINUOUS
 10
132.883181166
 20
220.6793059813
  0
VERTEX
  8
0
 62
7
  6
CONTINUOUS
 10
132.9119508846
 20
220.3700554045
  0
SEQEND
  0
POLYLINE
  8
0
 62
7
  6
CONTINUOUS
 66
1
 70
0
  0
VERTEX
  8
0
 62
7
  6
CONTINUOUS
 10
132.855453925
 20
221.1795461367
  0
VERTEX
  8
0
 62
7
  6
CONTINUOUS
 10
132.8831586281
 20
220.8582923034
  0
VERTEX
  8
0
 62
7
  6
CONTINUOUS
 10
132.9119508846
 20
220.5423928082
  0
SEQEND
  0
LINE
  8
0
 62
7
  6
CONTINUOUS
 10
128.2774010615
 20
242.3733855154
 11
128.5077903712
 21
215.9733855154
  0
LINE
  8
0
 62
7
  6
CONTINUOUS
 10
130.8215556199
 20
219.9426235369
 11
130.8215556199
 21
220.8521629944
  0
LINE
  8
0
 62
7
  6
CONTINUOUS
 10
130.9345501857
 20
221.3328382122
 11
130.9345501857
 21
221.5267996488
  0
LINE
  8
0
 62
7
  6
CONTINUOUS
 10
130.9910471454
 20
217.7099936533
 11
130.9910471454
 21
217.8418588927
  0
LINE
  8
0
 62
7
  6
CONTINUOUS
 10
131.1605386708
 20
220.519823694
 11
131.1605386708
 21
220.0816286038
  0
LINE
  8
0
 62
7
  6
CONTINUOUS
 10
131.1605386708
 20
222.0781913031
 11
131.1605386708
 21
222.2930852373
  0
LINE
  8
0
 62
7
  6
CONTINUOUS
 10
131.2735332366
 20
219.6742689538
 11
131.2735332366
 21
219.8337802464
  0
LINE
  8
0
 62
7
  6
CONTINUOUS
 10
131.3300301962
 20
217.7099936533
 11
131.3300301962
 21
217.8418588927
  0
LINE
  8
0
 62
7
  6
CONTINUOUS
 10
131.3865271558
 20
217.5315199062
 11
131.3865271558
 21
217.6613434143
  0
LINE
  8
0
 62
7
  6
CONTINUOUS
 10
131.3865271558
 20
222.4919886638
 11
131.3865271558
 21
222.7206150788
  0
LINE
  8
0
 62
7
  6
CONTINUOUS
 10
131.443024762
 20
219.4179101908
 11
131.443024762
 21
219.5731680014
  0
LINE
  8
0
 62
7
  6
CONTINUOUS
 10
131.4995217216
 20
217.35956383
 11
131.4995217216
 21
217.4874794166
  0
LINE
  8
0
 62
7
  6
CONTINUOUS
 10
131.669013247
 20
217.2759413032
 11
131.669013247
 21
217.4029492956
  0
LINE
  8
0
 62
7
  6
CONTINUOUS
 10
131.669013247
 20
219.293936108
 11
131.669013247
 21
219.4472179236
  0
LINE
  8
0
 62
7
  6
CONTINUOUS
 10
131.669013247
 20
222.7114085077
 11
131.669013247
 21
222.9480677225
  0
LINE
  8
0
 62
7
  6
CONTINUOUS
 10
132.0079962979
 20
217.2759413032
 11
132.0079962979
 21
217.4029492956
  0
LINE
  8
0
 62
7
  6
CONTINUOUS
 10
132.0079962979
 20
219.293936108
 11
132.0079962979
 21
219.4472179236
  0
LINE
  8
0
 62
7
  6
CONTINUOUS
 10
132.1209908637
 20
222.7114085077
 11
132.1209908637
 21
222.9480677225
  0
LINE
  8
0
 62
7
  6
CONTINUOUS
 10
132.1774878233
 20
217.35956383
 11
132.1774878233
 21
217.4874794166
  0
LINE
  8
0
 62
7
  6
CONTINUOUS
 10
132.2339847829
 20
219.1726259744
 11
132.2339847829
 21
219.3240227134
  0
LINE
  8
0
 62
7
  6
CONTINUOUS
 10
132.3469793487
 20
217.5315199062
 11
132.3469793487
 21
217.6613434143
  0
LINE
  8
0
 62
7
  6
CONTINUOUS
 10
132.4034763084
 20
217.9906099415
 11
132.4034763084
 21
217.8017702425
  0
LINE
  8
0
 62
7
  6
CONTINUOUS
 10
132.4034763084
 20
222.4919886638
 11
132.4034763084
 21
222.7206150788
  0
LINE
  8
0
 62
7
  6
CONTINUOUS
 10
132.4599739145
 20
218.9376213407
 11
132.4599739145
 21
219.0854960531
  0
LINE
  8
0
 62
7
  6
CONTINUOUS
 10
132.6859623996
 20
218.4957691875
 11
132.6859623996
 21
218.6374497991
  0
LINE
  8
0
 62
7
  6
CONTINUOUS
 10
132.6859623996
 20
221.8823954703
 11
132.6859623996
 21
222.0913589315
  0
LINE
  8
0
 62
7
  6
CONTINUOUS
 10
132.7424593592
 20
217.7099936533
 11
132.7424593592
 21
218.2241706338
  0
LINE
  8
0
 62
7
  6
CONTINUOUS
 10
132.855453925
 20
220.9937991766
 11
132.855453925
 21
221.1795461367
  0
LINE
  8
0
 62
7
  6
CONTINUOUS
 10
132.9119508846
 20
220.3700554045
 11
132.9119508846
 21
220.5423928082
  0
POLYLINE
  8
0
 62
7
  6
CONTINUOUS
 66
1
 70
0
  0
VERTEX
  8
0
 62
7
  6
CONTINUOUS
 10
130.9345501857
 20
221.5267996488
  0
VERTEX
  8
0
 62
7
  6
CONTINUOUS
 10
130.8792729264
 20
221.186825965
  0
VERTEX
  8
0
 62
7
  6
CONTINUOUS
 10
130.8215556199
 20
220.8521629944
  0
SEQEND
  0
POLYLINE
  8
0
 62
7
  6
CONTINUOUS
 66
1
 70
0
  0
VERTEX
  8
0
 62
7
  6
CONTINUOUS
 10
131.047544105
 20
217.4447453065
  0
VERTEX
  8
0
 62
7
  6
CONTINUOUS
 10
131.1316340631
 20
217.2772238171
  0
VERTEX
  8
0
 62
7
  6
CONTINUOUS
 10
131.2170356304
 20
217.1132441572
  0
SEQEND
  0
POLYLINE
  8
0
 62
7
  6
CONTINUOUS
 66
1
 70
0
  0
VERTEX
  8
0
 62
7
  6
CONTINUOUS
 10
130.9345501857
 20
219.4179101908
  0
VERTEX
  8
0
 62
7
  6
CONTINUOUS
 10
131.0085064766
 20
219.2561681022
  0
VERTEX
  8
0
 62
7
  6
CONTINUOUS
 10
131.0838414037
 20
219.096050204
  0
VERTEX
  8
0
 62
7
  6
CONTINUOUS
 10
131.1605386708
 20
218.9376213407
  0
SEQEND
  0
POLYLINE
  8
0
 62
7
  6
CONTINUOUS
 66
1
 70
0
  0
VERTEX
  8
0
 62
7
  6
CONTINUOUS
 10
132.3469793487
 20
221.3328382122
  0
VERTEX
  8
0
 62
7
  6
CONTINUOUS
 10
132.4302920726
 20
221.080945005
  0
VERTEX
  8
0
 62
7
  6
CONTINUOUS
 10
132.5164708742
 20
220.8314654257
  0
SEQEND
  0
POLYLINE
  8
0
 62
7
  6
CONTINUOUS
 66
1
 70
0
  0
VERTEX
  8
0
 62
7
  6
CONTINUOUS
 10
131.3300301962
 20
217.7099936533
  0
VERTEX
  8
0
 62
7
  6
CONTINUOUS
 10
131.3581643293
 20
217.6202846852
  0
VERTEX
  8
0
 62
7
  6
CONTINUOUS
 10
131.3865271558
 20
217.5315199062
  0
SEQEND
  0
POLYLINE
  8
0
 62
7
  6
CONTINUOUS
 66
1
 70
0
  0
VERTEX
  8
0
 62
7
  6
CONTINUOUS
 10
131.3300301962
 20
217.8418588927
  0
VERTEX
  8
0
 62
7
  6
CONTINUOUS
 10
131.3581617486
 20
217.7511238941
  0
VERTEX
  8
0
 62
7
  6
CONTINUOUS
 10
131.3865271558
 20
217.6613434143
  0
SEQEND
  0
POLYLINE
  8
0
 62
7
  6
CONTINUOUS
 66
1
 70
0
  0
VERTEX
  8
0
 62
7
  6
CONTINUOUS
 10
131.1605386708
 20
220.0816286038
  0
VERTEX
  8
0
 62
7
  6
CONTINUOUS
 10
131.2163830226
 20
219.8767078156
  0
VERTEX
  8
0
 62
7
  6
CONTINUOUS
 10
131.2735332366
 20
219.6742689538
  0
SEQEND
  0
POLYLINE
  8
0
 62
7
  6
CONTINUOUS
 66
1
 70
0
  0
VERTEX
  8
0
 62
7
  6
CONTINUOUS
 10
131.1605386708
 20
220.2484046696
  0
VERTEX
  8
0
 62
7
  6
CONTINUOUS
 10
131.2163602902
 20
220.0398311982
  0
VERTEX
  8
0
 62
7
  6
CONTINUOUS
 10
131.2735332366
 20
219.8337802464
  0
SEQEND
  0
POLYLINE
  8
0
 62
7
  6
CONTINUOUS
 66
1
 70
0
  0
VERTEX
  8
0
 62
7
  6
CONTINUOUS
 10
130.8215556199
 20
219.9426235369
  0
VERTEX
  8
0
 62
7
  6
CONTINUOUS
 10
130.8772471918
 20
219.6780093899
  0
VERTEX
  8
0
 62
7
  6
CONTINUOUS
 10
130.9345501857
 20
219.4179101908
  0
SEQEND
  0
POLYLINE
  8
0
 62
7
  6
CONTINUOUS
 66
1
 70
0
  0
VERTEX
  8
0
 62
7
  6
CONTINUOUS
 10
130.9910471454
 20
217.7099936533
  0
VERTEX
  8
0
 62
7
  6
CONTINUOUS
 10
131.0191306599
 20
217.5762901984
  0
VERTEX
  8
0
 62
7
  6
CONTINUOUS
 10
131.047544105
 20
217.4447453065
  0
SEQEND
  0
POLYLINE
  8
0
 62
7
  6
CONTINUOUS
 66
1
 70
0
  0
VERTEX
  8
0
 62
7
  6
CONTINUOUS
 10
132.3469793487
 20
218.2877803437
  0
VERTEX
  8
0
 62
7
  6
CONTINUOUS
 10
132.375034017
 20
218.1380634693
  0
VERTEX
  8
0
 62
7
  6
CONTINUOUS
 10
132.4034763084
 20
217.9906099415
  0
SEQEND
  0
POLYLINE
  8
0
 62
7
  6
CONTINUOUS
 66
1
 70
0
  0
VERTEX
  8
0
 62
7
  6
CONTINUOUS
 10
132.6859623996
 20
221.8823954703
  0
VERTEX
  8
0
 62
7
  6
CONTINUOUS
 10
132.7402247858
 20
221.5825527984
  0
VERTEX
  8
0
 62
7
  6
CONTINUOUS
 10
132.7967343238
 20
221.2862700879
  0
VERTEX
  8
0
 62
7
  6
CONTINUOUS
 10
132.855453925
 20
220.9937991766
  0
SEQEND
  0
POLYLINE
  8
0
 62
7
  6
CONTINUOUS
 66
1
 70
0
  0
VERTEX
  8
0
 62
7
  6
CONTINUOUS
 10
132.6859623996
 20
222.0913589315
  0
VERTEX
  8
0
 62
7
  6
CONTINUOUS
 10
132.7401092758
 20
221.7836897926
  0
VERTEX
  8
0
 62
7
  6
CONTINUOUS
 10
132.796619381
 20
221.4796619455
  0
VERTEX
  8
0
 62
7
  6
CONTINUOUS
 10
132.855453925
 20
221.1795461367
  0
SEQEND
  0
POLYLINE
  8
0
 62
7
  6
CONTINUOUS
 66
1
 70
0
  0
VERTEX
  8
0
 62
7
  6
CONTINUOUS
 10
132.6859623996
 20
218.4957691875
  0
VERTEX
  8
0
 62
7
  6
CONTINUOUS
 10
132.7139435095
 20
218.2897108687
  0
VERTEX
  8
0
 62
7
  6
CONTINUOUS
 10
132.7424593592
 20
218.0877632408
  0
SEQEND
  0
POLYLINE
  8
0
 62
7
  6
CONTINUOUS
 66
1
 70
0
  0
VERTEX
  8
0
 62
7
  6
CONTINUOUS
 10
132.6859623996
 20
218.6374497991
  0
VERTEX
  8
0
 62
7
  6
CONTINUOUS
 10
132.7139365926
 20
218.4287285999
  0
VERTEX
  8
0
 62
7
  6
CONTINUOUS
 10
132.7424593592
 20
218.2241706338
  0
SEQEND
  0
POLYLINE
  8
0
 62
7
  6
CONTINUOUS
 66
1
 70
0
  0
VERTEX
  8
0
 62
7
  6
CONTINUOUS
 10
132.5164708742
 20
220.8314654257
  0
VERTEX
  8
0
 62
7
  6
CONTINUOUS
 10
132.5443352823
 20
220.5993163739
  0
VERTEX
  8
0
 62
7
  6
CONTINUOUS
 10
132.5729678338
 20
220.3700554045
  0
SEQEND
  0
POLYLINE
  8
0
 62
7
  6
CONTINUOUS
 66
1
 70
0
  0
VERTEX
  8
0
 62
7
  6
CONTINUOUS
 10
133.3639285013
 20
222.7114085077
  0
VERTEX
  8
0
 62
7
  6
CONTINUOUS
 10
133.4123320668
 20
222.1753598812
  0
VERTEX
  8
0
 62
7
  6
CONTINUOUS
 10
133.4645849092
 20
221.6499472049
  0
VERTEX
  8
0
 62
7
  6
CONTINUOUS
 10
133.5206084027
 20
221.1360708742
  0
VERTEX
  8
0
 62
7
  6
CONTINUOUS
 10
133.580323656
 20
220.6345530861
  0
VERTEX
  8
0
 62
7
  6
CONTINUOUS
 10
133.6436457714
 20
220.1462031371
  0
VERTEX
  8
0
 62
7
  6
CONTINUOUS
 10
133.7104838289
 20
219.6718160625
  0
VERTEX
  8
0
 62
7
  6
CONTINUOUS
 10
133.780740886
 20
219.212171162
  0
VERTEX
  8
0
 62
7
  6
CONTINUOUS
 10
133.8543140023
 20
218.7680303998
  0
VERTEX
  8
0
 62
7
  6
CONTINUOUS
 10
133.9310942191
 20
218.3401370892
  0
VERTEX
  8
0
 62
7
  6
CONTINUOUS
 10
134.0109661078
 20
217.9292166169
  0
VERTEX
  8
0
 62
7
  6
CONTINUOUS
 10
134.093808746
 20
217.5359695627
  0
VERTEX
  8
0
 62
7
  6
CONTINUOUS
 10
134.1794956246
 20
217.1610715133
  0
VERTEX
  8
0
 62
7
  6
CONTINUOUS
 10
134.267883088
 20
216.8052166649
  0
SEQEND
  0
POLYLINE
  8
0
 62
7
  6
CONTINUOUS
 66
1
 70
0
  0
VERTEX
  8
0
 62
7
  6
CONTINUOUS
 10
133.7029115521
 20
222.7114085077
  0
VERTEX
  8
0
 62
7
  6
CONTINUOUS
 10
133.7427869707
 20
222.2569516693
  0
VERTEX
  8
0
 62
7
  6
CONTINUOUS
 10
133.785371489
 20
221.8100178792
  0
VERTEX
  8
0
 62
7
  6
CONTINUOUS
 10
133.8306184713
 20
221.3711648752
  0
VERTEX
  8
0
 62
7
  6
CONTINUOUS
 10
133.8784804187
 20
220.9409124544
  0
VERTEX
  8
0
 62
7
  6
CONTINUOUS
 10
133.9289000372
 20
220.519823694
  0
SEQEND
  0
POLYLINE
  8
0
 62
7
  6
CONTINUOUS
 66
1
 70
0
  0
VERTEX
  8
0
 62
7
  6
CONTINUOUS
 10
133.7029115521
 20
222.9480677225
  0
VERTEX
  8
0
 62
7
  6
CONTINUOUS
 10
133.7424881257
 20
222.4809421159
  0
VERTEX
  8
0
 62
7
  6
CONTINUOUS
 10
133.7849256687
 20
222.0215001461
  0
VERTEX
  8
0
 62
7
  6
CONTINUOUS
 10
133.8301752855
 20
221.5703457381
  0
VERTEX
  8
0
 62
7
  6
CONTINUOUS
 10
133.8781869941
 20
221.1280415895
  0
VERTEX
  8
0
 62
7
  6
CONTINUOUS
 10
133.9289000372
 20
220.6951992876
  0
SEQEND
  0
LINE
  8
0
 62
7
  6
CONTINUOUS
 10
133.3639285013
 20
222.7114085077
 11
133.3639285013
 21
222.9480677225
  0
LINE
  8
0
 62
7
  6
CONTINUOUS
 10
133.7029115521
 20
222.7114085077
 11
133.7029115521
 21
222.9480677225
  0
LINE
  8
0
 62
7
  6
CONTINUOUS
 10
133.9289000372
 20
220.519823694
 11
133.9289000372
 21
220.6951992876
  0
LINE
  8
0
 62
7
  6
CONTINUOUS
 10
134.4938722196
 20
217.1132441572
 11
134.4938722196
 21
217.2385229155
  0
LINE
  8
0
 62
7
  6
CONTINUOUS
 10
135.0588437555
 20
220.519823694
 11
135.0588437555
 21
220.6951992876
  0
LINE
  8
0
 62
7
  6
CONTINUOUS
 10
135.2848322406
 20
222.7114085077
 11
135.2848322406
 21
222.9480677225
  0
LINE
  8
0
 62
7
  6
CONTINUOUS
 10
135.6238156147
 20
222.7114085077
 11
135.6238156147
 21
222.9480677225
  0
LINE
  8
0
 62
7
  6
CONTINUOUS
 10
136.0757929081
 20
221.5101778778
 11
136.0757929081
 21
222.9480677225
  0
LINE
  8
0
 62
7
  6
CONTINUOUS
 10
137.7707081623
 20
221.5101778778
 11
137.7707081623
 21
216.8052166649
  0
LINE
  8
0
 62
7
  6
CONTINUOUS
 10
138.1096912132
 20
216.8052166649
 11
138.1096912132
 21
222.9480677225
  0
LINE
  8
0
 62
7
  6
CONTINUOUS
 10
138.5616686682
 20
216.8052166649
 11
138.5616686682
 21
222.9480677225
  0
LINE
  8
0
 62
7
  6
CONTINUOUS
 10
138.900651719
 20
221.3328382122
 11
138.900651719
 21
216.8052166649
  0
LINE
  8
0
 62
7
  6
CONTINUOUS
 10
139.0701432444
 20
222.7114085077
 11
139.0701432444
 21
222.9480677225
  0
POLYLINE
  8
0
 62
7
  6
CONTINUOUS
 66
1
 70
0
  0
VERTEX
  8
0
 62
7
  6
CONTINUOUS
 10
135.2848322406
 20
222.9480677225
  0
VERTEX
  8
0
 62
7
  6
CONTINUOUS
 10
135.245255667
 20
222.4809421159
  0
VERTEX
  8
0
 62
7
  6
CONTINUOUS
 10
135.202818124
 20
222.0215001461
  0
VERTEX
  8
0
 62
7
  6
CONTINUOUS
 10
135.1575685072
 20
221.5703457381
  0
VERTEX
  8
0
 62
7
  6
CONTINUOUS
 10
135.1095567986
 20
221.1280415895
  0
VERTEX
  8
0
 62
7
  6
CONTINUOUS
 10
135.0588437555
 20
220.6951992876
  0
SEQEND
  0
POLYLINE
  8
0
 62
7
  6
CONTINUOUS
 66
1
 70
0
  0
VERTEX
  8
0
 62
7
  6
CONTINUOUS
 10
135.2848322406
 20
222.7114085077
  0
VERTEX
  8
0
 62
7
  6
CONTINUOUS
 10
135.244956822
 20
222.2569516693
  0
VERTEX
  8
0
 62
7
  6
CONTINUOUS
 10
135.2023723037
 20
221.8100178792
  0
VERTEX
  8
0
 62
7
  6
CONTINUOUS
 10
135.1571253214
 20
221.3711648752
  0
VERTEX
  8
0
 62
7
  6
CONTINUOUS
 10
135.109263374
 20
220.9409124544
  0
VERTEX
  8
0
 62
7
  6
CONTINUOUS
 10
135.0588437555
 20
220.519823694
  0
SEQEND
  0
POLYLINE
  8
0
 62
7
  6
CONTINUOUS
 66
1
 70
0
  0
VERTEX
  8
0
 62
7
  6
CONTINUOUS
 10
135.6238156147
 20
222.7114085077
  0
VERTEX
  8
0
 62
7
  6
CONTINUOUS
 10
135.575412032
 20
222.1753598828
  0
VERTEX
  8
0
 62
7
  6
CONTINUOUS
 10
135.5231591711
 20
221.6499472079
  0
VERTEX
  8
0
 62
7
  6
CONTINUOUS
 10
135.4671356577
 20
221.1360708783
  0
VERTEX
  8
0
 62
7
  6
CONTINUOUS
 10
135.4074203832
 20
220.6345530909
  0
VERTEX
  8
0
 62
7
  6
CONTINUOUS
 10
135.3440982452
 20
220.1462031424
  0
VERTEX
  8
0
 62
7
  6
CONTINUOUS
 10
135.2772601639
 20
219.6718160679
  0
VERTEX
  8
0
 62
7
  6
CONTINUOUS
 10
135.2070030817
 20
219.2121711672
  0
VERTEX
  8
0
 62
7
  6
CONTINUOUS
 10
135.1334299391
 20
218.7680304046
  0
VERTEX
  8
0
 62
7
  6
CONTINUOUS
 10
135.0566496948
 20
218.3401370934
  0
VERTEX
  8
0
 62
7
  6
CONTINUOUS
 10
134.9767777774
 20
217.9292166203
  0
VERTEX
  8
0
 62
7
  6
CONTINUOUS
 10
134.8939351095
 20
217.535969565
  0
VERTEX
  8
0
 62
7
  6
CONTINUOUS
 10
134.8082481999
 20
217.1610715145
  0
VERTEX
  8
0
 62
7
  6
CONTINUOUS
 10
134.7198607047
 20
216.8052166649
  0
SEQEND
  0
POLYLINE
  8
0
 62
7
  6
CONTINUOUS
 66
1
 70
0
  0
VERTEX
  8
0
 62
7
  6
CONTINUOUS
 10
134.9793281584
 20
219.9426235369
  0
VERTEX
  8
0
 62
7
  6
CONTINUOUS
 10
134.9385789445
 20
219.6519041001
  0
VERTEX
  8
0
 62
7
  6
CONTINUOUS
 10
134.8716836919
 20
219.2108535706
  0
VERTEX
  8
0
 62
7
  6
CONTINUOUS
 10
134.8017625181
 20
218.7844486252
  0
VERTEX
  8
0
 62
7
  6
CONTINUOUS
 10
134.7289133401
 20
218.3733612521
  0
VERTEX
  8
0
 62
7
  6
CONTINUOUS
 10
134.653240031
 20
217.9782494267
  0
VERTEX
  8
0
 62
7
  6
CONTINUOUS
 10
134.5748516362
 20
217.5997506463
  0
VERTEX
  8
0
 62
7
  6
CONTINUOUS
 10
134.4938722196
 20
217.2385229155
  0
SEQEND
  0
POLYLINE
  8
0
 62
7
  6
CONTINUOUS
 66
1
 70
0
  0
VERTEX
  8
0
 62
7
  6
CONTINUOUS
 10
135.0023467959
 20
219.9426235369
  0
VERTEX
  8
0
 62
7
  6
CONTINUOUS
 10
134.9383434753
 20
219.4937967029
  0
VERTEX
  8
0
 62
7
  6
CONTINUOUS
 10
134.8712953391
 20
219.0587229745
  0
VERTEX
  8
0
 62
7
  6
CONTINUOUS
 10
134.8013015608
 20
218.6381268234
  0
VERTEX
  8
0
 62
7
  6
CONTINUOUS
 10
134.7284576973
 20
218.2326543028
  0
VERTEX
  8
0
 62
7
  6
CONTINUOUS
 10
134.6528650114
 20
217.8429379967
  0
VERTEX
  8
0
 62
7
  6
CONTINUOUS
 10
134.5746296374
 20
217.4695904823
  0
VERTEX
  8
0
 62
7
  6
CONTINUOUS
 10
134.4938722196
 20
217.1132441572
  0
SEQEND
  0
POLYLINE
  8
0
 62
7
  6
CONTINUOUS
 66
1
 70
0
  0
VERTEX
  8
0
 62
7
  6
CONTINUOUS
 10
132.7424593592
 20
217.7099936533
  0
VERTEX
  8
0
 62
7
  6
CONTINUOUS
 10
132.7144259516
 20
217.5328537355
  0
VERTEX
  8
0
 62
7
  6
CONTINUOUS
 10
132.6859623996
 20
217.35956383
  0
SEQEND
  0
POLYLINE
  8
0
 62
7
  6
CONTINUOUS
 66
1
 70
0
  0
VERTEX
  8
0
 62
7
  6
CONTINUOUS
 10
130.9345501857
 20
221.3328382122
  0
VERTEX
  8
0
 62
7
  6
CONTINUOUS
 10
130.8792189587
 20
221.0005989619
  0
VERTEX
  8
0
 62
7
  6
CONTINUOUS
 10
130.8215556199
 20
220.6735541551
  0
SEQEND
  0
POLYLINE
  8
0
 62
7
  6
CONTINUOUS
 66
1
 70
0
  0
VERTEX
  8
0
 62
7
  6
CONTINUOUS
 10
132.4034763084
 20
217.9347107576
  0
VERTEX
  8
0
 62
7
  6
CONTINUOUS
 10
132.3754010419
 20
217.796927527
  0
VERTEX
  8
0
 62
7
  6
CONTINUOUS
 10
132.3469793487
 20
217.6613434143
  0
SEQEND
  0
POLYLINE
  8
0
 62
7
  6
CONTINUOUS
 66
1
 70
0
  0
VERTEX
  8
0
 62
7
  6
CONTINUOUS
 10
132.4034763084
 20
217.8017702425
  0
VERTEX
  8
0
 62
7
  6
CONTINUOUS
 10
132.3753971499
 20
217.6655578149
  0
VERTEX
  8
0
 62
7
  6
CONTINUOUS
 10
132.3469793487
 20
217.5315199062
  0
SEQEND
  0
POLYLINE
  8
0
 62
7
  6
CONTINUOUS
 66
1
 70
0
  0
VERTEX
  8
0
 62
7
  6
CONTINUOUS
 10
131.2735332366
 20
220.9937991766
  0
VERTEX
  8
0
 62
7
  6
CONTINUOUS
 10
131.2178669923
 20
220.755457647
  0
VERTEX
  8
0
 62
7
  6
CONTINUOUS
 10
131.1605386708
 20
220.519823694
  0
SEQEND
  0
POLYLINE
  8
0
 62
7
  6
CONTINUOUS
 66
1
 70
0
  0
VERTEX
  8
0
 62
7
  6
CONTINUOUS
 10
131.1605386708
 20
222.2930852373
  0
VERTEX
  8
0
 62
7
  6
CONTINUOUS
 10
131.0507485007
 20
221.9076167328
  0
VERTEX
  8
0
 62
7
  6
CONTINUOUS
 10
130.9345501857
 20
221.5267996488
  0
SEQEND
  0
POLYLINE
  8
0
 62
7
  6
CONTINUOUS
 66
1
 70
0
  0
VERTEX
  8
0
 62
7
  6
CONTINUOUS
 10
131.1605386708
 20
222.0781913031
  0
VERTEX
  8
0
 62
7
  6
CONTINUOUS
 10
131.050584702
 20
221.703240611
  0
VERTEX
  8
0
 62
7
  6
CONTINUOUS
 10
130.9345501857
 20
221.3328382122
  0
SEQEND
  0
POLYLINE
  8
0
 62
7
  6
CONTINUOUS
 66
1
 70
0
  0
VERTEX
  8
0
 62
7
  6
CONTINUOUS
 10
131.2170356304
 20
217.1132441572
  0
VERTEX
  8
0
 62
7
  6
CONTINUOUS
 10
131.3293238371
 20
216.9958101535
  0
VERTEX
  8
0
 62
7
  6
CONTINUOUS
 10
131.443024762
 20
216.8801215508
  0
SEQEND
  0
POLYLINE
  8
0
 62
7
  6
CONTINUOUS
 66
1
 70
0
  0
VERTEX
  8
0
 62
7
  6
CONTINUOUS
 10
132.1774878233
 20
218.4957691875
  0
VERTEX
  8
0
 62
7
  6
CONTINUOUS
 10
132.2617005696
 20
218.3914039832
  0
VERTEX
  8
0
 62
7
  6
CONTINUOUS
 10
132.3469793487
 20
218.2877803437
  0
SEQEND
  0
POLYLINE
  8
0
 62
7
  6
CONTINUOUS
 66
1
 70
0
  0
VERTEX
  8
0
 62
7
  6
CONTINUOUS
 10
131.2735332366
 20
219.6742689538
  0
VERTEX
  8
0
 62
7
  6
CONTINUOUS
 10
131.3575711184
 20
219.5457215755
  0
VERTEX
  8
0
 62
7
  6
CONTINUOUS
 10
131.443024762
 20
219.4179101908
  0
SEQEND
  0
POLYLINE
  8
0
 62
7
  6
CONTINUOUS
 66
1
 70
0
  0
VERTEX
  8
0
 62
7
  6
CONTINUOUS
 10
131.3865271558
 20
217.5315199062
  0
VERTEX
  8
0
 62
7
  6
CONTINUOUS
 10
131.4427799841
 20
217.4451173093
  0
VERTEX
  8
0
 62
7
  6
CONTINUOUS
 10
131.4995217216
 20
217.35956383
  0
SEQEND
  0
POLYLINE
  8
0
 62
7
  6
CONTINUOUS
 66
1
 70
0
  0
VERTEX
  8
0
 62
7
  6
CONTINUOUS
 10
131.3865271558
 20
217.6613434143
  0
VERTEX
  8
0
 62
7
  6
CONTINUOUS
 10
131.442774818
 20
217.5739829947
  0
VERTEX
  8
0
 62
7
  6
CONTINUOUS
 10
131.4995217216
 20
217.4874794166
  0
SEQEND
  0
POLYLINE
  8
0
 62
7
  6
CONTINUOUS
 66
1
 70
0
  0
VERTEX
  8
0
 62
7
  6
CONTINUOUS
 10
131.2735332366
 20
219.8337802464
  0
VERTEX
  8
0
 62
7
  6
CONTINUOUS
 10
131.3575497538
 20
219.7031038972
  0
VERTEX
  8
0
 62
7
  6
CONTINUOUS
 10
131.443024762
 20
219.5731680014
  0
SEQEND
  0
POLYLINE
  8
0
 62
7
  6
CONTINUOUS
 66
1
 70
0
  0
VERTEX
  8
0
 62
7
  6
CONTINUOUS
 10
132.4599739145
 20
218.9376213407
  0
VERTEX
  8
0
 62
7
  6
CONTINUOUS
 10
132.5340832861
 20
218.7887349185
  0
VERTEX
  8
0
 62
7
  6
CONTINUOUS
 10
132.6094181598
 20
218.6414319708
  0
VERTEX
  8
0
 62
7
  6
CONTINUOUS
 10
132.6859623996
 20
218.4957691875
  0
SEQEND
  0
POLYLINE
  8
0
 62
7
  6
CONTINUOUS
 66
1
 70
0
  0
VERTEX
  8
0
 62
7
  6
CONTINUOUS
 10
132.4599739145
 20
219.0854960531
  0
VERTEX
  8
0
 62
7
  6
CONTINUOUS
 10
132.5340509511
 20
218.9345274203
  0
VERTEX
  8
0
 62
7
  6
CONTINUOUS
 10
132.6093859055
 20
218.7851590927
  0
VERTEX
  8
0
 62
7
  6
CONTINUOUS
 10
132.6859623996
 20
218.6374497991
  0
SEQEND
  0
POLYLINE
  8
0
 62
7
  6
CONTINUOUS
 66
1
 70
0
  0
VERTEX
  8
0
 62
7
  6
CONTINUOUS
 10
132.4034763084
 20
222.4919886638
  0
VERTEX
  8
0
 62
7
  6
CONTINUOUS
 10
132.5410921603
 20
222.1865682813
  0
VERTEX
  8
0
 62
7
  6
CONTINUOUS
 10
132.6859623996
 20
221.8823954703
  0
SEQEND
  0
POLYLINE
  8
0
 62
7
  6
CONTINUOUS
 66
1
 70
0
  0
VERTEX
  8
0
 62
7
  6
CONTINUOUS
 10
132.4034763084
 20
222.7206150788
  0
VERTEX
  8
0
 62
7
  6
CONTINUOUS
 10
132.5408793492
 20
222.4053683991
  0
VERTEX
  8
0
 62
7
  6
CONTINUOUS
 10
132.6859623996
 20
222.0913589315
  0
SEQEND
  0
POLYLINE
  8
0
 62
7
  6
CONTINUOUS
 66
1
 70
0
  0
VERTEX
  8
0
 62
7
  6
CONTINUOUS
 10
138.900651719
 20
221.3328382122
  0
VERTEX
  8
0
 62
7
  6
CONTINUOUS
 10
139.0109972673
 20
220.8114921353
  0
VERTEX
  8
0
 62
7
  6
CONTINUOUS
 10
139.1286558776
 20
220.3028641633
  0
VERTEX
  8
0
 62
7
  6
CONTINUOUS
 10
139.2534772548
 20
219.8079542742
  0
VERTEX
  8
0
 62
7
  6
CONTINUOUS
 10
139.3853109686
 20
219.327691346
  0
VERTEX
  8
0
 62
7
  6
CONTINUOUS
 10
139.5239911275
 20
218.8630027396
  0
VERTEX
  8
0
 62
7
  6
CONTINUOUS
 10
139.6693357001
 20
218.4148113929
  0
VERTEX
  8
0
 62
7
  6
CONTINUOUS
 10
139.8211453192
 20
217.9840341812
  0
VERTEX
  8
0
 62
7
  6
CONTINUOUS
 10
139.9792024741
 20
217.5715784334
  0
VERTEX
  8
0
 62
7
  6
CONTINUOUS
 10
140.1432730518
 20
217.1783327586
  0
VERTEX
  8
0
 62
7
  6
CONTINUOUS
 10
140.3130810437
 20
216.8052166649
  0
SEQEND
  0
POLYLINE
  8
0
 62
7
  6
CONTINUOUS
 66
1
 70
0
  0
VERTEX
  8
0
 62
7
  6
CONTINUOUS
 10
139.0701432444
 20
222.7114085077
  0
VERTEX
  8
0
 62
7
  6
CONTINUOUS
 10
139.1537687629
 20
222.1934823385
  0
VERTEX
  8
0
 62
7
  6
CONTINUOUS
 10
139.2439580235
 20
221.6847634085
  0
VERTEX
  8
0
 62
7
  6
CONTINUOUS
 10
139.3406177745
 20
221.1860727978
  0
VERTEX
  8
0
 62
7
  6
CONTINUOUS
 10
139.4436539283
 20
220.6981780955
  0
VERTEX
  8
0
 62
7
  6
CONTINUOUS
 10
139.5529622127
 20
220.2218494205
  0
VERTEX
  8
0
 62
7
  6
CONTINUOUS
 10
139.6684276714
 20
219.7578578587
  0
VERTEX
  8
0
 62
7
  6
CONTINUOUS
 10
139.7899240848
 20
219.3069740982
  0
VERTEX
  8
0
 62
7
  6
CONTINUOUS
 10
139.9173134854
 20
218.8699665095
  0
VERTEX
  8
0
 62
7
  6
CONTINUOUS
 10
140.0504448077
 20
218.4476017692
  0
VERTEX
  8
0
 62
7
  6
CONTINUOUS
 10
140.1891544851
 20
218.0406386692
  0
VERTEX
  8
0
 62
7
  6
CONTINUOUS
 10
140.3332665533
 20
217.6498246459
  0
VERTEX
  8
0
 62
7
  6
CONTINUOUS
 10
140.4825725691
 20
217.2759413032
  0
SEQEND
  0
POLYLINE
  8
0
 62
7
  6
CONTINUOUS
 66
1
 70
0
  0
VERTEX
  8
0
 62
7
  6
CONTINUOUS
 10
139.0701432444
 20
222.9480677225
  0
VERTEX
  8
0
 62
7
  6
CONTINUOUS
 10
139.1524515373
 20
222.4200689917
  0
VERTEX
  8
0
 62
7
  6
CONTINUOUS
 10
139.241571895
 20
221.901308417
  0
VERTEX
  8
0
 62
7
  6
CONTINUOUS
 10
139.3374097572
 20
221.3926495519
  0
VERTEX
  8
0
 62
7
  6
CONTINUOUS
 10
139.4398692666
 20
220.8949004852
  0
VERTEX
  8
0
 62
7
  6
CONTINUOUS
 10
139.5488438027
 20
220.4088724205
  0
VERTEX
  8
0
 62
7
  6
CONTINUOUS
 10
139.6642154267
 20
219.9353780543
  0
VERTEX
  8
0
 62
7
  6
CONTINUOUS
 10
139.7858542415
 20
219.4752301501
  0
VERTEX
  8
0
 62
7
  6
CONTINUOUS
 10
139.9136178553
 20
219.0292394885
  0
VERTEX
  8
0
 62
7
  6
CONTINUOUS
 10
140.0473500204
 20
218.5982152603
  0
VERTEX
  8
0
 62
7
  6
CONTINUOUS
 10
140.1868809087
 20
218.1829594608
  0
VERTEX
  8
0
 62
7
  6
CONTINUOUS
 10
140.3320275232
 20
217.7842620301
  0
VERTEX
  8
0
 62
7
  6
CONTINUOUS
 10
140.4825725691
 20
217.4029492956
  0
SEQEND
  0
POLYLINE
  8
0
 62
7
  6
CONTINUOUS
 66
1
 70
0
  0
VERTEX
  8
0
 62
7
  6
CONTINUOUS
 10
133.9853976434
 20
219.9426235369
  0
VERTEX
  8
0
 62
7
  6
CONTINUOUS
 10
134.049400964
 20
219.4937967029
  0
VERTEX
  8
0
 62
7
  6
CONTINUOUS
 10
134.1164491001
 20
219.0587229745
  0
VERTEX
  8
0
 62
7
  6
CONTINUOUS
 10
134.1864428785
 20
218.6381268234
  0
VERTEX
  8
0
 62
7
  6
CONTINUOUS
 10
134.259286742
 20
218.2326543028
  0
VERTEX
  8
0
 62
7
  6
CONTINUOUS
 10
134.3348794279
 20
217.8429379967
  0
VERTEX
  8
0
 62
7
  6
CONTINUOUS
 10
134.4131148019
 20
217.4695904823
  0
VERTEX
  8
0
 62
7
  6
CONTINUOUS
 10
134.4938722196
 20
217.1132441572
  0
SEQEND
  0
POLYLINE
  8
0
 62
7
  6
CONTINUOUS
 66
1
 70
0
  0
VERTEX
  8
0
 62
7
  6
CONTINUOUS
 10
134.0084162808
 20
219.9426235369
  0
VERTEX
  8
0
 62
7
  6
CONTINUOUS
 10
134.0491654948
 20
219.6519041001
  0
VERTEX
  8
0
 62
7
  6
CONTINUOUS
 10
134.1160607474
 20
219.2108535706
  0
VERTEX
  8
0
 62
7
  6
CONTINUOUS
 10
134.1859819212
 20
218.7844486252
  0
VERTEX
  8
0
 62
7
  6
CONTINUOUS
 10
134.2588310992
 20
218.3733612521
  0
VERTEX
  8
0
 62
7
  6
CONTINUOUS
 10
134.3345044082
 20
217.9782494267
  0
VERTEX
  8
0
 62
7
  6
CONTINUOUS
 10
134.4128928031
 20
217.5997506463
  0
VERTEX
  8
0
 62
7
  6
CONTINUOUS
 10
134.4938722196
 20
217.2385229155
  0
SEQEND
  0
LINE
  8
0
 62
7
  6
CONTINUOUS
 10
140.4825725691
 20
217.2759413032
 11
140.4825725691
 21
222.9480677225
  0
LINE
  8
0
 62
7
  6
CONTINUOUS
 10
140.8215556199
 20
216.8052166649
 11
140.8215556199
 21
222.9480677225
  0
LINE
  8
0
 62
7
  6
CONTINUOUS
 10
144.4253208687
 20
215.9733855154
 11
144.6557101783
 21
242.3733855154
  0
POLYLINE
  8
0
 62
7
  6
CONTINUOUS
 66
1
 70
0
  0
VERTEX
  8
0
 62
7
  6
CONTINUOUS
 10
131.443024762
 20
221.3328382122
  0
VERTEX
  8
0
 62
7
  6
CONTINUOUS
 10
131.3593438726
 20
221.1629535637
  0
VERTEX
  8
0
 62
7
  6
CONTINUOUS
 10
131.2735332366
 20
220.9937991766
  0
SEQEND
  0
POLYLINE
  8
0
 62
7
  6
CONTINUOUS
 66
1
 70
0
  0
VERTEX
  8
0
 62
7
  6
CONTINUOUS
 10
131.3865271558
 20
222.7206150788
  0
VERTEX
  8
0
 62
7
  6
CONTINUOUS
 10
131.2757532167
 20
222.5067849117
  0
VERTEX
  8
0
 62
7
  6
CONTINUOUS
 10
131.1605386708
 20
222.2930852373
  0
SEQEND
  0
POLYLINE
  8
0
 62
7
  6
CONTINUOUS
 66
1
 70
0
  0
VERTEX
  8
0
 62
7
  6
CONTINUOUS
 10
131.3865271558
 20
222.4919886638
  0
VERTEX
  8
0
 62
7
  6
CONTINUOUS
 10
131.2756296024
 20
222.2850096355
  0
VERTEX
  8
0
 62
7
  6
CONTINUOUS
 10
131.1605386708
 20
222.0781913031
  0
SEQEND
  0
POLYLINE
  8
0
 62
7
  6
CONTINUOUS
 66
1
 70
0
  0
VERTEX
  8
0
 62
7
  6
CONTINUOUS
 10
97.996443545
 20
215.3864210843
  0
VERTEX
  8
0
 62
7
  6
CONTINUOUS
 10
97.9962484262
 20
215.3862696908
  0
VERTEX
  8
0
 62
7
  6
CONTINUOUS
 10
98.0003878669
 20
215.3892272813
  0
VERTEX
  8
0
 62
7
  6
CONTINUOUS
 10
98.0116313453
 20
215.3967013997
  0
VERTEX
  8
0
 62
7
  6
CONTINUOUS
 10
98.0308336947
 20
215.4085075919
  0
VERTEX
  8
0
 62
7
  6
CONTINUOUS
 10
98.0588418273
 20
215.4243897739
  0
VERTEX
  8
0
 62
7
  6
CONTINUOUS
 10
98.0961765114
 20
215.4438567835
  0
VERTEX
  8
0
 62
7
  6
CONTINUOUS
 10
98.1429797794
 20
215.4662209
  0
VERTEX
  8
0
 62
7
  6
CONTINUOUS
 10
98.1989721805
 20
215.4906435378
  0
VERTEX
  8
0
 62
7
  6
CONTINUOUS
 10
98.2635536354
 20
215.5162367944
  0
VERTEX
  8
0
 62
7
  6
CONTINUOUS
 10
98.3358466614
 20
215.5421181251
  0
VERTEX
  8
0
 62
7
  6
CONTINUOUS
 10
98.4147065776
 20
215.5674454504
  0
VERTEX
  8
0
 62
7
  6
CONTINUOUS
 10
98.4988175821
 20
215.5914744138
  0
VERTEX
  8
0
 62
7
  6
CONTINUOUS
 10
98.5869712452
 20
215.6136400874
  0
VERTEX
  8
0
 62
7
  6
CONTINUOUS
 10
98.6780290303
 20
215.6335220727
  0
VERTEX
  8
0
 62
7
  6
CONTINUOUS
 10
98.7708665664
 20
215.6508183742
  0
VERTEX
  8
0
 62
7
  6
CONTINUOUS
 10
98.8647890367
 20
215.6653980758
  0
VERTEX
  8
0
 62
7
  6
CONTINUOUS
 10
98.9594056416
 20
215.6772209224
  0
VERTEX
  8
0
 62
7
  6
CONTINUOUS
 10
99.0544111353
 20
215.6862762472
  0
VERTEX
  8
0
 62
7
  6
CONTINUOUS
 10
99.1495249091
 20
215.6925697394
  0
VERTEX
  8
0
 62
7
  6
CONTINUOUS
 10
99.244500893
 20
215.6961222612
  0
VERTEX
  8
0
 62
7
  6
CONTINUOUS
 10
99.3215556177
 20
215.6970127956
  0
SEQEND
  0
POLYLINE
  8
0
 62
7
  6
CONTINUOUS
 66
1
 70
0
  0
VERTEX
  8
0
 62
7
  6
CONTINUOUS
 10
131.1605386708
 20
218.9376213407
  0
VERTEX
  8
0
 62
7
  6
CONTINUOUS
 10
131.2726520909
 20
218.8246327427
  0
VERTEX
  8
0
 62
7
  6
CONTINUOUS
 10
131.3865271558
 20
218.7122045301
  0
SEQEND
  0
POLYLINE
  8
0
 62
7
  6
CONTINUOUS
 66
1
 70
0
  0
VERTEX
  8
0
 62
7
  6
CONTINUOUS
 10
132.2339847829
 20
219.1726259744
  0
VERTEX
  8
0
 62
7
  6
CONTINUOUS
 10
132.3460484755
 20
219.0548521084
  0
VERTEX
  8
0
 62
7
  6
CONTINUOUS
 10
132.4599739145
 20
218.9376213407
  0
SEQEND
  0
POLYLINE
  8
0
 62
7
  6
CONTINUOUS
 66
1
 70
0
  0
VERTEX
  8
0
 62
7
  6
CONTINUOUS
 10
132.2339847829
 20
219.3240227134
  0
VERTEX
  8
0
 62
7
  6
CONTINUOUS
 10
132.3460234601
 20
219.2044892897
  0
VERTEX
  8
0
 62
7
  6
CONTINUOUS
 10
132.4599739145
 20
219.0854960531
  0
SEQEND
  0
POLYLINE
  8
0
 62
7
  6
CONTINUOUS
 66
1
 70
0
  0
VERTEX
  8
0
 62
7
  6
CONTINUOUS
 10
132.6859623996
 20
217.35956383
  0
VERTEX
  8
0
 62
7
  6
CONTINUOUS
 10
132.6114455053
 20
217.2495924407
  0
VERTEX
  8
0
 62
7
  6
CONTINUOUS
 10
132.5361107974
 20
217.1410953382
  0
VERTEX
  8
0
 62
7
  6
CONTINUOUS
 10
132.4599739145
 20
217.034108663
  0
SEQEND
  0
POLYLINE
  8
0
 62
7
  6
CONTINUOUS
 66
1
 70
0
  0
VERTEX
  8
0
 62
7
  6
CONTINUOUS
 10
132.0079962979
 20
218.602899141
  0
VERTEX
  8
0
 62
7
  6
CONTINUOUS
 10
132.0923800665
 20
218.5492951766
  0
VERTEX
  8
0
 62
7
  6
CONTINUOUS
 10
132.1774878233
 20
218.4957691875
  0
SEQEND
  0
POLYLINE
  8
0
 62
7
  6
CONTINUOUS
 66
1
 70
0
  0
VERTEX
  8
0
 62
7
  6
CONTINUOUS
 10
132.1209908637
 20
222.7114085077
  0
VERTEX
  8
0
 62
7
  6
CONTINUOUS
 10
132.2602145727
 20
222.6021385708
  0
VERTEX
  8
0
 62
7
  6
CONTINUOUS
 10
132.4034763084
 20
222.4919886638
  0
SEQEND
  0
POLYLINE
  8
0
 62
7
  6
CONTINUOUS
 66
1
 70
0
  0
VERTEX
  8
0
 62
7
  6
CONTINUOUS
 10
132.1209908637
 20
221.5101778778
  0
VERTEX
  8
0
 62
7
  6
CONTINUOUS
 10
132.2329012894
 20
221.4216703419
  0
VERTEX
  8
0
 62
7
  6
CONTINUOUS
 10
132.3469793487
 20
221.3328382122
  0
SEQEND
  0
POLYLINE
  8
0
 62
7
  6
CONTINUOUS
 66
1
 70
0
  0
VERTEX
  8
0
 62
7
  6
CONTINUOUS
 10
132.1209908637
 20
222.9480677225
  0
VERTEX
  8
0
 62
7
  6
CONTINUOUS
 10
132.2600867383
 20
222.8348298236
  0
VERTEX
  8
0
 62
7
  6
CONTINUOUS
 10
132.4034763084
 20
222.7206150788
  0
SEQEND
  0
POLYLINE
  8
0
 62
7
  6
CONTINUOUS
 66
1
 70
0
  0
VERTEX
  8
0
 62
7
  6
CONTINUOUS
 10
132.3469793487
 20
217.6613434143
  0
VERTEX
  8
0
 62
7
  6
CONTINUOUS
 10
132.2626599393
 20
217.574036258
  0
VERTEX
  8
0
 62
7
  6
CONTINUOUS
 10
132.1774878233
 20
217.4874794166
  0
SEQEND
  0
POLYLINE
  8
0
 62
7
  6
CONTINUOUS
 66
1
 70
0
  0
VERTEX
  8
0
 62
7
  6
CONTINUOUS
 10
132.3469793487
 20
217.5315199062
  0
VERTEX
  8
0
 62
7
  6
CONTINUOUS
 10
132.2626513152
 20
217.4451691004
  0
VERTEX
  8
0
 62
7
  6
CONTINUOUS
 10
132.1774878233
 20
217.35956383
  0
SEQEND
  0
POLYLINE
  8
0
 62
7
  6
CONTINUOUS
 66
1
 70
0
  0
VERTEX
  8
0
 62
7
  6
CONTINUOUS
 10
131.669013247
 20
222.9480677225
  0
VERTEX
  8
0
 62
7
  6
CONTINUOUS
 10
131.5299170559
 20
222.834829825
  0
VERTEX
  8
0
 62
7
  6
CONTINUOUS
 10
131.3865271558
 20
222.7206150788
  0
SEQEND
  0
POLYLINE
  8
0
 62
7
  6
CONTINUOUS
 66
1
 70
0
  0
VERTEX
  8
0
 62
7
  6
CONTINUOUS
 10
131.4995217216
 20
217.35956383
  0
VERTEX
  8
0
 62
7
  6
CONTINUOUS
 10
131.5840043265
 20
217.317689606
  0
VERTEX
  8
0
 62
7
  6
CONTINUOUS
 10
131.669013247
 20
217.2759413032
  0
SEQEND
  0
POLYLINE
  8
0
 62
7
  6
CONTINUOUS
 66
1
 70
0
  0
VERTEX
  8
0
 62
7
  6
CONTINUOUS
 10
131.4995217216
 20
217.4874794166
  0
VERTEX
  8
0
 62
7
  6
CONTINUOUS
 10
131.5839989596
 20
217.4451517644
  0
VERTEX
  8
0
 62
7
  6
CONTINUOUS
 10
131.669013247
 20
217.4029492956
  0
SEQEND
  0
POLYLINE
  8
0
 62
7
  6
CONTINUOUS
 66
1
 70
0
  0
VERTEX
  8
0
 62
7
  6
CONTINUOUS
 10
132.0079962979
 20
219.293936108
  0
VERTEX
  8
0
 62
7
  6
CONTINUOUS
 10
132.1203613331
 20
219.2332919398
  0
VERTEX
  8
0
 62
7
  6
CONTINUOUS
 10
132.2339847829
 20
219.1726259744
  0
SEQEND
  0
POLYLINE
  8
0
 62
7
  6
CONTINUOUS
 66
1
 70
0
  0
VERTEX
  8
0
 62
7
  6
CONTINUOUS
 10
132.0079962979
 20
219.4472179236
  0
VERTEX
  8
0
 62
7
  6
CONTINUOUS
 10
132.1203433704
 20
219.3856353021
  0
VERTEX
  8
0
 62
7
  6
CONTINUOUS
 10
132.2339847829
 20
219.3240227134
  0
SEQEND
  0
POLYLINE
  8
0
 62
7
  6
CONTINUOUS
 66
1
 70
0
  0
VERTEX
  8
0
 62
7
  6
CONTINUOUS
 10
131.443024762
 20
219.4179101908
  0
VERTEX
  8
0
 62
7
  6
CONTINUOUS
 10
131.5553704349
 20
219.3559397042
  0
VERTEX
  8
0
 62
7
  6
CONTINUOUS
 10
131.669013247
 20
219.293936108
  0
SEQEND
  0
POLYLINE
  8
0
 62
7
  6
CONTINUOUS
 66
1
 70
0
  0
VERTEX
  8
0
 62
7
  6
CONTINUOUS
 10
131.443024762
 20
219.5731680014
  0
VERTEX
  8
0
 62
7
  6
CONTINUOUS
 10
131.5553514973
 20
219.5102139581
  0
VERTEX
  8
0
 62
7
  6
CONTINUOUS
 10
131.669013247
 20
219.4472179236
  0
SEQEND
  0
LINE
  8
SURFACE
 62
7
  6
CONTINUOUS
 10
161.6974010615
 20
242.3733855154
 11
161.9277903712
 21
215.9733855154
  0
POLYLINE
  8
0
 62
7
  6
CONTINUOUS
 66
1
 70
0
  0
VERTEX
  8
0
 62
7
  6
CONTINUOUS
 10
131.669013247
 20
221.5101778778
  0
VERTEX
  8
0
 62
7
  6
CONTINUOUS
 10
131.5571028213
 20
221.4216703419
  0
VERTEX
  8
0
 62
7
  6
CONTINUOUS
 10
131.443024762
 20
221.3328382122
  0
SEQEND
  0
POLYLINE
  8
0
 62
7
  6
CONTINUOUS
 66
1
 70
0
  0
VERTEX
  8
0
 62
7
  6
CONTINUOUS
 10
131.669013247
 20
222.7114085077
  0
VERTEX
  8
0
 62
7
  6
CONTINUOUS
 10
131.529789221
 20
222.6021385721
  0
VERTEX
  8
0
 62
7
  6
CONTINUOUS
 10
131.3865271558
 20
222.4919886638
  0
SEQEND
  0
LINE
  8
0
 62
7
  6
CONTINUOUS
 10
131.443024762
 20
216.8801215508
 11
131.7255102067
 21
216.8052166649
  0
POLYLINE
  8
0
 62
7
  6
CONTINUOUS
 66
1
 70
0
  0
VERTEX
  8
0
 62
7
  6
CONTINUOUS
 10
131.3865271558
 20
218.7122045301
  0
VERTEX
  8
0
 62
7
  6
CONTINUOUS
 10
131.5270490088
 20
218.6575547631
  0
VERTEX
  8
0
 62
7
  6
CONTINUOUS
 10
131.669013247
 20
218.602899141
  0
SEQEND
  0
POLYLINE
  8
0
 62
7
  6
CONTINUOUS
 66
1
 70
0
  0
VERTEX
  8
0
 62
7
  6
CONTINUOUS
 10
132.4599739145
 20
217.034108663
  0
VERTEX
  8
0
 62
7
  6
CONTINUOUS
 10
132.3475240103
 20
216.9567813215
  0
VERTEX
  8
0
 62
7
  6
CONTINUOUS
 10
132.2339847829
 20
216.8801215508
  0
SEQEND
  0
POLYLINE
  8
0
 62
7
  6
CONTINUOUS
 66
1
 70
0
  0
VERTEX
  8
0
 62
7
  6
CONTINUOUS
 10
132.1774878233
 20
217.4874794166
  0
VERTEX
  8
0
 62
7
  6
CONTINUOUS
 10
132.0930105853
 20
217.4451517644
  0
VERTEX
  8
0
 62
7
  6
CONTINUOUS
 10
132.0079962979
 20
217.4029492956
  0
SEQEND
  0
POLYLINE
  8
0
 62
7
  6
CONTINUOUS
 66
1
 70
0
  0
VERTEX
  8
0
 62
7
  6
CONTINUOUS
 10
132.1774878233
 20
217.35956383
  0
VERTEX
  8
0
 62
7
  6
CONTINUOUS
 10
132.0930052184
 20
217.317689606
  0
VERTEX
  8
0
 62
7
  6
CONTINUOUS
 10
132.0079962979
 20
217.2759413032
  0
SEQEND
  0
LINE
  8
0
 62
7
  6
CONTINUOUS
 10
96.6215556199
 20
214.1890932793
 11
147.7118780953
 21
214.1890932793
  0
LINE
  8
SURFACE
 62
7
  6
CONTINUOUS
 10
147.7118780953
 20
214.1890932793
 11
193.0215556199
 21
214.1890932793
  0
LINE
  8
0
 62
7
  6
CONTINUOUS
 10
99.3215556177
 20
215.697012559
 11
100.8215556216
 21
215.697012559
  0
LINE
  8
0
 62
7
  6
CONTINUOUS
 10
131.7255102067
 20
216.8052166649
 11
132.0079962979
 21
216.8052166649
  0
LINE
  8
0
 62
7
  6
CONTINUOUS
 10
134.267883088
 20
216.8052166649
 11
134.7198607047
 21
216.8052166649
  0
LINE
  8
0
 62
7
  6
CONTINUOUS
 10
137.7707081623
 20
216.8052166649
 11
138.1096912132
 21
216.8052166649
  0
LINE
  8
0
 62
7
  6
CONTINUOUS
 10
138.5616686682
 20
216.8052166649
 11
138.900651719
 21
216.8052166649
  0
LINE
  8
0
 62
7
  6
CONTINUOUS
 10
140.3130810437
 20
216.8052166649
 11
140.8215556199
 21
216.8052166649
  0
POLYLINE
  8
0
 62
7
  6
CONTINUOUS
 66
1
 70
0
  0
VERTEX
  8
0
 62
7
  6
CONTINUOUS
 10
100.8215556216
 20
215.6970128254
  0
VERTEX
  8
0
 62
7
  6
CONTINUOUS
 10
100.9000200852
 20
215.6960893772
  0
VERTEX
  8
0
 62
7
  6
CONTINUOUS
 10
100.9949540933
 20
215.6924987024
  0
VERTEX
  8
0
 62
7
  6
CONTINUOUS
 10
101.090026944
 20
215.6861689177
  0
VERTEX
  8
0
 62
7
  6
CONTINUOUS
 10
101.1849904693
 20
215.6770792391
  0
VERTEX
  8
0
 62
7
  6
CONTINUOUS
 10
101.2795627764
 20
215.6652241337
  0
VERTEX
  8
0
 62
7
  6
CONTINUOUS
 10
101.3734374089
 20
215.6506145793
  0
VERTEX
  8
0
 62
7
  6
CONTINUOUS
 10
101.4662225513
 20
215.6332912539
  0
VERTEX
  8
0
 62
7
  6
CONTINUOUS
 10
101.5572200968
 20
215.6133862606
  0
VERTEX
  8
0
 62
7
  6
CONTINUOUS
 10
101.6452979765
 20
215.5912045612
  0
VERTEX
  8
0
 62
7
  6
CONTINUOUS
 10
101.7293119113
 20
215.5671700234
  0
VERTEX
  8
0
 62
7
  6
CONTINUOUS
 10
101.8080615077
 20
215.5418473234
  0
VERTEX
  8
0
 62
7
  6
CONTINUOUS
 10
101.8802524718
 20
215.5159745156
  0
VERTEX
  8
0
 62
7
  6
CONTINUOUS
 10
101.944739069
 20
215.4903935457
  0
VERTEX
  8
0
 62
7
  6
CONTINUOUS
 10
102.000633261
 20
215.4659912988
  0
VERTEX
  8
0
 62
7
  6
CONTINUOUS
 10
102.0473298467
 20
215.4436591001
  0
VERTEX
  8
0
 62
7
  6
CONTINUOUS
 10
102.0845566009
 20
215.4242332189
  0
VERTEX
  8
0
 62
7
  6
CONTINUOUS
 10
102.1124675903
 20
215.4083950282
  0
VERTEX
  8
0
 62
7
  6
CONTINUOUS
 10
102.1315915288
 20
215.3966297405
  0
VERTEX
  8
0
 62
7
  6
CONTINUOUS
 10
102.1427756906
 20
215.389190957
  0
VERTEX
  8
0
 62
7
  6
CONTINUOUS
 10
102.1454858099
 20
215.3872773634
  0
SEQEND
  0
LINE
  8
0
 62
7
  6
CONTINUOUS
 10
179.6215556199
 20
237.7890932793
 11
179.6215556199
 21
237.4890932793
  0
LINE
  8
0
 62
7
  6
CONTINUOUS
 10
181.408789658
 20
237.7890932793
 11
181.408789658
 21
237.4890932793
  0
LINE
  8
0
 62
7
  6
CONTINUOUS
 10
183.1215556199
 20
237.7890932793
 11
183.1215556199
 21
237.4890932793
  0
LINE
  8
SURFACE
 62
7
  6
CONTINUOUS
 10
178.0757101783
 20
242.3733855154
 11
177.8453208687
 21
215.9733855154
  0
LINE
  8
0
 62
7
  6
CONTINUOUS
 10
132.2339847829
 20
216.8801215508
 11
132.0079962979
 21
216.8052166649
  0
LINE
  8
0
 62
7
  6
CONTINUOUS
 10
131.669013247
 20
217.2759413032
 11
132.0079962979
 21
217.2759413032
  0
LINE
  8
0
 62
7
  6
CONTINUOUS
 10
131.669013247
 20
217.4029492956
 11
132.0079962979
 21
217.4029492956
  0
LINE
  8
0
 62
7
  6
CONTINUOUS
 10
130.9910471454
 20
217.7099936533
 11
131.3300301962
 21
217.7099936533
  0
LINE
  8
0
 62
7
  6
CONTINUOUS
 10
130.9910471454
 20
217.8418588927
 11
131.3300301962
 21
217.8418588927
  0
LINE
  8
0
 62
7
  6
CONTINUOUS
 10
131.669013247
 20
218.602899141
 11
132.0079962979
 21
218.602899141
  0
LINE
  8
0
 62
7
  6
CONTINUOUS
 10
131.669013247
 20
219.293936108
 11
132.0079962979
 21
219.293936108
  0
LINE
  8
0
 62
7
  6
CONTINUOUS
 10
131.669013247
 20
219.4472179236
 11
132.0079962979
 21
219.4472179236
  0
LINE
  8
0
 62
7
  6
CONTINUOUS
 10
133.9853976434
 20
219.9426235369
 11
135.0023467959
 21
219.9426235369
  0
LINE
  8
0
 62
7
  6
CONTINUOUS
 10
132.5729678338
 20
220.3700554045
 11
132.9119508846
 21
220.3700554045
  0
LINE
  8
0
 62
7
  6
CONTINUOUS
 10
133.9289000372
 20
220.519823694
 11
135.0588437555
 21
220.519823694
  0
LINE
  8
0
 62
7
  6
CONTINUOUS
 10
133.9289000372
 20
220.6951992876
 11
135.0588437555
 21
220.6951992876
  0
LINE
  8
0
 62
7
  6
CONTINUOUS
 10
131.669013247
 20
221.5101778778
 11
132.1209908637
 21
221.5101778778
  0
LINE
  8
0
 62
7
  6
CONTINUOUS
 10
136.0757929081
 20
221.5101778778
 11
137.7707081623
 21
221.5101778778
  0
LINE
  8
0
 62
7
  6
CONTINUOUS
 10
131.669013247
 20
222.7114085077
 11
132.1209908637
 21
222.7114085077
  0
LINE
  8
0
 62
7
  6
CONTINUOUS
 10
133.3639285013
 20
222.7114085077
 11
133.7029115521
 21
222.7114085077
  0
LINE
  8
0
 62
7
  6
CONTINUOUS
 10
135.2848322406
 20
222.7114085077
 11
135.6238156147
 21
222.7114085077
  0
LINE
  8
0
 62
7
  6
CONTINUOUS
 10
136.0757929081
 20
222.7114085077
 11
138.1096912132
 21
222.7114085077
  0
LINE
  8
0
 62
7
  6
CONTINUOUS
 10
138.5616686682
 20
222.7114085077
 11
139.0701432444
 21
222.7114085077
  0
LINE
  8
0
 62
7
  6
CONTINUOUS
 10
140.4825725691
 20
222.7114085077
 11
140.8215556199
 21
222.7114085077
  0
LINE
  8
0
 62
7
  6
CONTINUOUS
 10
131.669013247
 20
222.9480677225
 11
132.1209908637
 21
222.9480677225
  0
LINE
  8
0
 62
7
  6
CONTINUOUS
 10
133.3639285013
 20
222.9480677225
 11
133.7029115521
 21
222.9480677225
  0
LINE
  8
0
 62
7
  6
CONTINUOUS
 10
135.2848322406
 20
222.9480677225
 11
135.6238156147
 21
222.9480677225
  0
LINE
  8
0
 62
7
  6
CONTINUOUS
 10
136.0757929081
 20
222.9480677225
 11
138.1096912132
 21
222.9480677225
  0
LINE
  8
0
 62
7
  6
CONTINUOUS
 10
138.5616686682
 20
222.9480677225
 11
139.0701432444
 21
222.9480677225
  0
LINE
  8
0
 62
7
  6
CONTINUOUS
 10
140.4825725691
 20
222.9480677225
 11
140.8215556199
 21
222.9480677225
  0
LINE
  8
SURFACE
 62
7
  6
CONTINUOUS
 10
186.8945932023
 20
235.8265057216
 11
186.8930358545
 21
236.0048174458
  0
LINE
  8
DEFAULT_1
 62
2
  6
CENTER
 10
92.8215556199
 20
229.1890932793
 11
202.2456236324
 21
229.1890932793
  0
LINE
  8
SURFACE
 62
7
  6
CONTINUOUS
 10
194.8215556199
 20
242.3890932793
 11
194.8215556199
 21
215.9890932793
  0
LINE
  8
0
 62
7
  6
CONTINUOUS
 10
183.1215556199
 20
237.4890932793
 11
179.6215556199
 21
237.4890932793
  0
LINE
  8
0
 62
7
  6
CONTINUOUS
 10
161.7374075738
 20
237.7890932793
 11
144.6157036661
 21
237.7890932793
  0
LINE
  8
0
 62
7
  6
CONTINUOUS
 10
128.3174075738
 20
237.7890932793
 11
111.1156589822
 21
237.7890932793
  0
LINE
  8
SURFACE
 62
7
  6
CONTINUOUS
 10
178.0357036661
 20
237.7890932793
 11
185.0931045362
 21
237.7890932793
  0
LINE
  8
0
 62
7
  6
CONTINUOUS
 10
96.6215556199
 20
244.1890932793
 11
146.3684265165
 21
244.1890932793
  0
LINE
  8
SURFACE
 62
7
  6
CONTINUOUS
 10
145.8286588052
 20
244.1890932793
 11
193.0215556199
 21
244.1890932793
  0
LINE
  8
0
 62
7
  6
CONTINUOUS
 10
284.0060927487
 20
81.6036807325
 11
284.2427519635
 21
81.6036807325
  0
LINE
  8
0
 62
7
  6
CONTINUOUS
 10
283.7866729048
 20
81.7100637078
 11
284.0152993198
 21
81.7100637078
  0
LINE
  8
0
 62
7
  6
CONTINUOUS
 10
283.3728755441
 20
81.9228296678
 11
283.5877694784
 21
81.9228296678
  0
LINE
  8
0
 62
7
  6
CONTINUOUS
 10
282.6275224532
 20
82.3483615693
 11
282.8214838898
 21
82.3483615693
  0
LINE
  8
0
 62
7
  6
CONTINUOUS
 10
281.9682383961
 20
82.7738935079
 11
282.1468472354
 21
82.7738935079
  0
LINE
  8
0
 62
7
  6
CONTINUOUS
 10
281.2373077779
 20
83.3058083381
 11
281.4015309537
 21
83.3058083381
  0
LINE
  8
0
 62
7
  6
CONTINUOUS
 10
280.7125944318
 20
83.7313403513
 11
280.8678522425
 21
83.7313403513
  0
LINE
  8
0
 62
7
  6
CONTINUOUS
 10
280.2323055817
 20
84.1568722155
 11
280.3801802941
 21
84.1568722155
  0
LINE
  8
0
 62
7
  6
CONTINUOUS
 10
280.0068887711
 20
84.3696381476
 11
280.1515368213
 21
84.3696381476
  0
LINE
  8
0
 62
7
  6
CONTINUOUS
 10
279.897583382
 20
84.4760211136
 11
280.0407173207
 21
84.4760211136
  0
LINE
  8
0
 62
7
  6
CONTINUOUS
 10
279.7904534285
 20
84.5824040796
 11
279.9321340401
 21
84.5824040796
  0
LINE
  8
0
 62
7
  6
CONTINUOUS
 10
279.5824645847
 20
84.7951700117
 11
279.7214067908
 21
84.7951700117
  0
LINE
  8
0
 62
7
  6
CONTINUOUS
 10
279.2852941825
 20
85.1143189099
 11
279.4205036347
 21
85.1143189099
  0
LINE
  8
0
 62
7
  6
CONTINUOUS
 10
279.0964544835
 20
85.3270848419
 11
279.2293949986
 21
85.3270848419
  0
LINE
  8
0
 62
7
  6
CONTINUOUS
 10
279.0046778943
 20
85.433468106
 11
279.1365431337
 21
85.433468106
  0
LINE
  8
0
 62
7
  6
CONTINUOUS
 10
278.7394295475
 20
85.7526170041
 11
278.8682831569
 21
85.7526170041
  0
LINE
  8
0
 62
7
  6
CONTINUOUS
 10
278.4079283982
 20
86.1781488683
 11
278.5332071565
 21
86.1781488683
  0
LINE
  8
0
 62
7
  6
CONTINUOUS
 10
278.1748057918
 20
86.4972977664
 11
278.297687704
 21
86.4972977664
  0
LINE
  8
0
 62
7
  6
CONTINUOUS
 10
278.0999009059
 20
86.6036807325
 11
278.2220321307
 21
86.6036807325
  0
LINE
  8
0
 62
2
  6
CONTINUOUS
 10
291.5337775203
 20
95.2436807325
 11
289.4337775203
 21
95.2436807325
  0
LINE
  8
DEFAULT_1
 62
2
  6
CENTER
 10
285.2337775203
 20
95.2436807325
 11
283.2337775203
 21
95.2436807325
  0
LINE
  8
DEFAULT_1
 62
2
  6
CENTER
 10
295.7337775203
 20
95.2436807325
 11
297.7337775203
 21
95.2436807325
  0
LINE
  8
SURFACE
 62
7
  6
CONTINUOUS
 10
275.4837775203
 20
154.2712323247
 11
275.4837775203
 21
152.7475418302
  0
LINE
  8
0
 62
7
  6
CONTINUOUS
 10
275.4837775203
 20
158.7436754649
 11
275.4837775203
 21
95.2436807325
  0
LINE
  8
SURFACE
 62
7
  6
CONTINUOUS
 10
275.4837775203
 20
127.4026384292
 11
275.4837775203
 21
127.9262151669
  0
LINE
  8
0
 62
2
  6
CONTINUOUS
 10
290.4837775203
 20
159.7936807325
 11
290.4837775203
 21
157.6936807325
  0
LINE
  8
DEFAULT_1
 62
2
  6
CENTER
 10
290.4837775203
 20
153.4936807325
 11
290.4837775203
 21
151.4936807325
  0
LINE
  8
0
 62
2
  6
CONTINUOUS
 10
290.4837775203
 20
96.2936807325
 11
290.4837775203
 21
94.1936807325
  0
LINE
  8
DEFAULT_1
 62
2
  6
CENTER
 10
290.4837775203
 20
89.9936807325
 11
290.4837775203
 21
87.9936807325
  0
LINE
  8
DEFAULT_1
 62
2
  6
CENTER
 10
290.4837775203
 20
100.4936807325
 11
290.4837775203
 21
102.4936807325
  0
LINE
  8
DEFAULT_1
 62
2
  6
CENTER
 10
290.4837775203
 20
163.9936807325
 11
290.4837775203
 21
165.9936807325
  0
LINE
  8
0
 62
7
  6
CONTINUOUS
 10
281.9703195636
 20
129.7915911219
 11
277.0644127021
 21
129.1892215021
  0
LINE
  8
SURFACE
 62
7
  6
CONTINUOUS
 10
305.4837775203
 20
152.2376933436
 11
305.4837775203
 21
147.910319711
  0
LINE
  8
SURFACE
 62
7
  6
CONTINUOUS
 10
305.4837775203
 20
146.7514476398
 11
305.4837775203
 21
146.2282033656
  0
LINE
  8
0
 62
7
  6
CONTINUOUS
 10
305.4837775203
 20
95.2436807325
 11
305.4837775203
 21
158.7436748049
  0
LINE
  8
0
 62
2
  6
CONTINUOUS
 10
291.5337775203
 20
158.7436807325
 11
289.4337775203
 21
158.7436807325
  0
LINE
  8
DEFAULT_1
 62
2
  6
CENTER
 10
285.2337775203
 20
158.7436807325
 11
283.2337775203
 21
158.7436807325
  0
LINE
  8
DEFAULT_1
 62
2
  6
CENTER
 10
295.7337775203
 20
158.7436807325
 11
297.7337775203
 21
158.7436807325
  0
ARC
  8
SURFACE
 62
7
  6
CONTINUOUS
 10
193.0215556199
 20
171.9436807325
 40
1.8
 50
0.0
 51
90.0
  0
ARC
  8
0
 62
7
  6
CONTINUOUS
 10
96.6215556199
 20
82.0436807325
 40
1.8
 50
179.9999999984
 51
270.0
  0
ARC
  8
0
 62
7
  6
CONTINUOUS
 10
96.6215556199
 20
215.9890932793
 40
1.8
 50
180.0
 51
270.0
  0
ARC
  8
0
 62
7
  6
CONTINUOUS
 10
142.6253894072
 20
215.989093288
 40
1.8
 50
269.9999999976
 51
359.4999997218
  0
ARC
  8
0
 62
7
  6
CONTINUOUS
 10
130.3077218488
 20
215.9890932793
 40
1.8
 50
180.4999999955
 51
269.9999994887
  0
ARC
  8
0
 62
7
  6
CONTINUOUS
 10
109.1251924094
 20
215.9890932889
 40
1.8
 50
269.9999999973
 51
359.4995996924
  0
ARC
  8
0
 62
7
  6
CONTINUOUS
 10
103.3215556199
 20
215.6890932793
 40
1.5
 50
185.9484459312
 51
270.0
  0
ARC
  8
0
 62
7
  6
CONTINUOUS
 10
96.8215556199
 20
215.6890932793
 40
1.5
 50
270.0
 51
354.0513233311
  0
ARC
  8
0
 62
7
  6
CONTINUOUS
 10
96.6215556199
 20
242.3890932793
 40
1.8
 50
90.0
 51
180.0
  0
ARC
  8
0
 62
7
  6
CONTINUOUS
 10
142.8557787168
 20
242.3890932793
 40
1.8
 50
359.5
 51
90.0
  0
ARC
  8
0
 62
7
  6
CONTINUOUS
 10
109.3557660398
 20
242.3890932793
 40
1.8
 50
359.4996
 51
90.0
  0
ARC
  8
0
 62
7
  6
CONTINUOUS
 10
130.0773325231
 20
242.3890932696
 40
1.8
 50
90.0000000027
 51
180.4999996924
  0
ARC
  8
SURFACE
 62
7
  6
CONTINUOUS
 10
193.0215556199
 20
215.9890932793
 40
1.8
 50
270.0
 51
360.0
  0
ARC
  8
SURFACE
 62
7
  6
CONTINUOUS
 10
176.0453894071
 20
215.9890932793
 40
1.8
 50
270.0
 51
359.5
  0
ARC
  8
SURFACE
 62
7
  6
CONTINUOUS
 10
163.7277218327
 20
215.9890932793
 40
1.8
 50
180.5
 51
270.0
  0
ARC
  8
SURFACE
 62
7
  6
CONTINUOUS
 10
185.0931045362
 20
235.9890932793
 40
1.8
 50
0.500522134
 51
90.0
  0
ARC
  8
SURFACE
 62
7
  6
CONTINUOUS
 10
193.0215556199
 20
242.3890932793
 40
1.8
 50
0.0
 51
90.0
  0
ARC
  8
SURFACE
 62
7
  6
CONTINUOUS
 10
176.2757787168
 20
242.3890932793
 40
1.8
 50
359.5
 51
90.0
  0
ARC
  8
SURFACE
 62
7
  6
CONTINUOUS
 10
163.497332523
 20
242.3890932793
 40
1.8
 50
90.0
 51
180.5
  0
ARC
  8
0
 62
7
  6
CONTINUOUS
 10
279.5097775203
 20
149.8310979236
 40
20.19
 50
277.0
 51
342.7986888667
  0
ARC
  8
0
 62
7
  6
CONTINUOUS
 10
277.2837775203
 20
127.4026384292
 40
1.8
 50
97.0
 51
180.0
  0
ARC
  8
0
 62
7
  6
CONTINUOUS
 10
290.4837775203
 20
95.2436807325
 40
15.1
 50
214.9027634983
 51
244.5967897266
  0
ARC
  8
0
 62
7
  6
CONTINUOUS
 10
290.4837775203
 20
95.2436807325
 40
15.0
 50
180.0
 51
360.0
  0
ARC
  8
SURFACE
 62
7
  6
CONTINUOUS
 10
290.4837775203
 20
95.2436807325
 40
15.0
 50
206.9852669503
 51
207.3393586628
  0
ARC
  8
SURFACE
 62
7
  6
CONTINUOUS
 10
290.4837775203
 20
95.2436807325
 40
15.0
 50
180.8194782826
 51
182.4118182495
  0
ARC
  8
SURFACE
 62
7
  6
CONTINUOUS
 10
290.4837775203
 20
95.2436807325
 40
15.0
 50
357.46483145
 51
359.2432540611
  0
ARC
  8
SURFACE
 62
7
  6
CONTINUOUS
 10
290.4837775203
 20
95.2436807325
 40
15.0
 50
185.7691264201
 51
192.0980460236
  0
CIRCLE
  8
0
 62
7
  6
CONTINUOUS
 10
290.4837775203
 20
95.2436807325
 40
5.25
  0
ARC
  8
0
 62
7
  6
CONTINUOUS
 10
290.6256862819
 20
159.0491336626
 40
16.5
 50
304.471190007
 51
315.5250560978
  0
ARC
  8
0
 62
7
  6
CONTINUOUS
 10
290.4837775203
 20
158.7436807325
 40
15.0
 50
359.9999773584
 51
180.0000201205
  0
ARC
  8
SURFACE
 62
7
  6
CONTINUOUS
 10
290.4837775203
 20
158.7436807325
 40
15.0
 50
359.9999795886
 51
180.0000198738
  0
CIRCLE
  8
0
 62
7
  6
CONTINUOUS
 10
290.4837775203
 20
158.7436807325
 40
5.25
  0
ARC
  8
0
 62
7
  6
CONTINUOUS
 10
301.6625258086
 20
142.9731213068
 40
3.0
 50
124.471190007
 51
162.7986888667
  0
ARC
  8
SURFACE
 62
7
  6
CONTINUOUS
 10
303.6837775203
 20
146.2282033839
 40
1.8
 50
133.9318013085
 51
135.5250486322
  0
ARC
  8
SURFACE
 62
7
  6
CONTINUOUS
 10
303.6837775203
 20
146.2282033839
 40
1.8
 50
4.3044675963
 51
133.3065041361
  0
ARC
  8
0
 62
7
  6
CONTINUOUS
 10
303.6837775203
 20
146.2282036482
 40
1.7999999338
 50
359.9999929462
 51
135.5250728927
  0
ENDSEC
  0
EOF
