  0
SECTION
  2
HEADER
  9
$EXTMAX
 10
420.0
 20
297.0
 30
0.0
  9
$EXTMIN
 10
0.0
 20
0.0
 30
0.0
  9
$LIMMIN
 10
0.0
 20
0.0
  9
$LIMMAX
 10
420.0
 20
297.0
  9
$VIEWCTR
 10
210.0
 20
148.5
  9
$VIEWSIZE
 40
297.0
  9
$CLAYER
  8
0
  9
$LTSCALE
 40
23.1
  9
$CELTYPE
  6
BYLAYER
  9
$DIMSCALE
 40
1.0
  9
$DIMASZ
 40
3.5
  9
$DIMEXO
 40
1.0
  9
$DIMDLI
 40
15.96
  9
$DIMEXE
 40
2.0
  9
$DIMCEN
 40
3.78
  9
$DIMLFAC
 40
1.0
  9
$DIMBLK
  1
_FILLED
  9
$DIMTXT
 40
3.5
  9
$PDMODE
 70
3
  9
$PDSIZE
 40
0.3125
  9
$TILEMODE
 70
1
  0
ENDSEC
  0
SECTION
  2
TABLES
  0
TABLE
  2
LTYPE
 70
6
  0
LTYPE
  2
BYBLOCK
 70
0
  3

 72
65
 73
0
 40
0.0
  0
LTYPE
  2
BYLAYER
 70
0
  3

 72
65
 73
0
 40
0.0
  0
LTYPE
  2
CONTINUOUS
 70
64
  3
Solid line
 72
65
 73
0
 40
0.0
  0
LTYPE
  2
CENTER
 70
64
  3
____ _ ____ _ ____ _ ____ _ ____ _ ____ _ ____
 72
65
 73
4
 40
0.6
 49
0.375
 49
-0.075
 49
0.075
 49
-0.075
  0
LTYPE
  2
HIDDEN
 70
64
  3
- - - - - - - - - - - - - - - - - - - -
 72
65
 73
2
 40
0.2
 49
0.1
 49
-0.1
  0
LTYPE
  2
PHANTOM
 70
64
  3
_____ _ _ _____ _ _ _____ _ _ _____
 72
65
 73
6
 40
0.8
 49
0.45
 49
-0.05
 49
0.1
 49
-0.05
 49
0.1
 49
-0.05
  0
LTYPE
  2
DOT
 70
64
  3
. . . . . . . . . . . . . . . . . . . .
 72
65
 73
2
 40
0.2
 49
0.1
 49
-0.1
  0
LTYPE
  2
DASHED
 70
64
  3
- - - - - - - - - - - - - - - - - - - -
 72
65
 73
2
 40
0.2
 49
0.1
 49
-0.1
  0
ENDTAB
  0
TABLE
  2
LAYER
 70
36
  0
LAYER
  2
0
 70
0
 62
7
  6
CONTINUOUS
  0
LAYER
  2
DEFAULT_1
 70
0
 62
7
  6
CENTER
  0
LAYER
  2
DEFAULT_2
 70
0
 62
8
  6
HIDDEN
  0
LAYER
  2
DEFAULT_3
 70
0
 62
7
  6
PHANTOM
  0
LAYER
  2
1_DATUMPLANE
 70
0
 62
7
  6
CONTINUOUS
  0
LAYER
  2
3_CURVE
 70
0
 62
7
  6
CONTINUOUS
  0
LAYER
  2
6_DIM
 70
0
 62
7
  6
CONTINUOUS
  0
LAYER
  2
CSYS
 70
0
 62
7
  6
CONTINUOUS
  0
LAYER
  2
CURVE
 70
0
 62
7
  6
CONTINUOUS
  0
LAYER
  2
SURFACE
 70
0
 62
7
  6
CONTINUOUS
  0
LAYER
  2
SURF_PART
 70
0
 62
7
  6
CONTINUOUS
  0
ENDTAB
  0
TABLE
  2
STYLE
 70
1
  0
STYLE
  2
STANDARD
 70
0
 40
0.0
 41
0.8
 50
0.0
 71
0
 42
0.2
  3
txt
  4

  0
STYLE
  2
TEXTSTYLE_1
 70
0
 40
0.0
 41
0.8
 50
0.0
 71
0
 42
0.2
  3
gdt
  4

  0
STYLE
  2
TEXTSTYLE_2
 70
0
 40
0.0
 41
0.6
 50
0.0
 71
0
 42
0.2
  3
txt
  4

  0
STYLE
  2
TEXTSTYLE_3
 70
0
 40
0.0
 41
1.0
 50
0.0
 71
0
 42
0.2
  3
ftb_____.ttf
  4

  0
STYLE
  2
TEXTSTYLE_4
 70
0
 40
0.0
 41
1.0
 50
0.0
 71
0
 42
0.2
  3
fti_____.ttf
  4

  0
STYLE
  2
TEXTSTYLE_5
 70
0
 40
0.0
 41
1.0
 50
0.0
 71
0
 42
0.2
  3
frutiger light.ttf
  4

  0
STYLE
  2
TEXTSTYLE_6
 70
0
 40
0.0
 41
0.7
 50
0.0
 71
0
 42
0.2
  3
txt
  4

  0
STYLE
  2
TEXTSTYLE_7
 70
0
 40
0.0
 41
0.45
 50
0.0
 71
0
 42
0.2
  3
txt
  4

  0
ENDTAB
  0
ENDSEC
  0
SECTION
  2
BLOCKS
  0
BLOCK
  8
0
 62
2
  6
CONTINUOUS
  2
SYMBOL_5_BL1
 70
64
 10
382.7840918555
 20
35.5067593403
  0
TEXT
  8
0
 62
7
  6
CONTINUOUS
 10
373.842376864
 20
30.5995157174
  7
TEXTSTYLE_4
 40
1.0655737705
  1
The brand for plastic modular belts and chains
 41
1.0
 72
0
  0
LINE
  8
0
 62
7
  6
CONTINUOUS
 10
358.7621602445
 20
36.0805298321
 11
358.7621602445
 21
33.9493822911
  0
LINE
  8
0
 62
7
  6
CONTINUOUS
 10
359.0512227376
 20
30.9584509954
 11
359.0512227376
 21
31.0552420547
  0
LINE
  8
0
 62
7
  6
CONTINUOUS
 10
358.7621602445
 20
31.0229783683
 11
358.8199727462
 21
30.8293962497
  0
LINE
  8
0
 62
7
  6
CONTINUOUS
 10
360.1556028675
 20
33.867415078
 11
360.1556028675
 21
36.0805298321
  0
LINE
  8
0
 62
7
  6
CONTINUOUS
 10
361.0746601894
 20
32.0231527829
 11
361.0746601894
 21
30.5067593403
  0
LINE
  8
0
 62
7
  6
CONTINUOUS
 10
361.3637227445
 20
30.5067593403
 11
361.3637227445
 21
31.2488242184
  0
LINE
  8
0
 62
7
  6
CONTINUOUS
 10
361.3637227445
 20
31.3778789641
 11
361.3637227445
 21
32.0231527829
  0
LINE
  8
0
 62
7
  6
CONTINUOUS
 10
358.8199727462
 20
31.216560532
 11
358.7621602445
 21
31.0229783683
  0
LINE
  8
0
 62
7
  6
CONTINUOUS
 10
359.1668477307
 20
30.7971325633
 11
359.0512227376
 21
30.9584509954
  0
LINE
  8
0
 62
7
  6
CONTINUOUS
 10
360.2652852997
 20
31.3133515913
 11
360.3230977445
 21
31.216560532
  0
LINE
  8
0
 62
7
  6
CONTINUOUS
 10
360.6121602997
 20
31.216560532
 11
360.5543476894
 21
31.3456152777
  0
LINE
  8
0
 62
7
  6
CONTINUOUS
 10
362.0408487691
 20
36.0805298321
 11
362.0408487691
 21
34.2772511436
  0
LINE
  8
0
 62
7
  6
CONTINUOUS
 10
362.0408487691
 20
32.9657757338
 11
362.0408487691
 21
32.3100380288
  0
LINE
  8
0
 62
7
  6
CONTINUOUS
 10
362.4043477445
 20
31.1520331591
 11
362.4043477445
 21
30.5067593403
  0
LINE
  8
0
 62
7
  6
CONTINUOUS
 10
362.6934101343
 20
30.5067593403
 11
362.6934101343
 21
31.1520331591
  0
LINE
  8
0
 62
7
  6
CONTINUOUS
 10
359.0512227376
 20
31.0552420547
 11
359.1090352445
 21
31.1842968456
  0
LINE
  8
0
 62
7
  6
CONTINUOUS
 10
358.8199727462
 20
30.8293962497
 11
358.9355977445
 21
30.7003414814
  0
LINE
  8
0
 62
7
  6
CONTINUOUS
 10
362.3465351343
 20
31.2810879048
 11
362.4043477445
 21
31.1520331591
  0
LINE
  8
0
 62
7
  6
CONTINUOUS
 10
363.1559103548
 20
30.7971325633
 11
363.2137226343
 21
30.668077795
  0
LINE
  8
0
 62
7
  6
CONTINUOUS
 10
362.6934101343
 20
31.1520331591
 11
362.6355978548
 21
31.3133515913
  0
LINE
  8
0
 62
7
  6
CONTINUOUS
 10
363.1559103548
 20
31.3456152777
 11
363.1559103548
 21
31.2810879048
  0
LINE
  8
0
 62
7
  6
CONTINUOUS
 10
363.1559103548
 20
30.8939236226
 11
363.1559103548
 21
30.7971325633
  0
LINE
  8
0
 62
7
  6
CONTINUOUS
 10
363.4342913921
 20
32.3100380288
 11
363.4342913921
 21
36.0805298321
  0
LINE
  8
0
 62
7
  6
CONTINUOUS
 10
363.4449727445
 20
30.7648688543
 11
363.4449727445
 21
30.8293962497
  0
LINE
  8
0
 62
7
  6
CONTINUOUS
 10
363.7621602445
 20
36.0805298321
 11
363.7621602445
 21
32.3100380288
  0
LINE
  8
0
 62
7
  6
CONTINUOUS
 10
360.5543476894
 20
30.7003414814
 11
360.6121602997
 21
30.8293962497
  0
LINE
  8
0
 62
7
  6
CONTINUOUS
 10
364.9480979651
 20
30.6035504109
 11
364.890285024
 21
30.7648688543
  0
LINE
  8
0
 62
7
  6
CONTINUOUS
 10
364.6012229651
 20
31.2810879048
 11
364.6012229651
 21
31.1842968456
  0
LINE
  8
0
 62
7
  6
CONTINUOUS
 10
364.6012229651
 20
31.0552420547
 11
364.6012229651
 21
30.8616599362
  0
LINE
  8
0
 62
7
  6
CONTINUOUS
 10
364.890285024
 20
30.7648688543
 11
364.890285024
 21
31.2810879048
  0
LINE
  8
0
 62
7
  6
CONTINUOUS
 10
365.1556028675
 20
32.3100380288
 11
365.1556028675
 21
34.1133167174
  0
LINE
  8
0
 62
7
  6
CONTINUOUS
 10
365.1556028675
 20
35.4247921272
 11
365.1556028675
 21
36.0805298321
  0
LINE
  8
0
 62
7
  6
CONTINUOUS
 10
365.4684104651
 20
32.0231527829
 11
365.4684104651
 21
31.8618343508
  0
LINE
  8
0
 62
7
  6
CONTINUOUS
 10
365.4684104651
 20
31.5391973962
 11
365.4684104651
 21
30.5067593403
  0
LINE
  8
0
 62
7
  6
CONTINUOUS
 10
365.757472524
 20
30.5067593403
 11
365.757472524
 21
31.5391973962
  0
LINE
  8
0
 62
7
  6
CONTINUOUS
 10
365.757472524
 20
31.8618343508
 11
365.757472524
 21
32.0231527829
  0
LINE
  8
0
 62
7
  6
CONTINUOUS
 10
360.3230977445
 20
30.8293962497
 11
360.2652852997
 21
30.7326051679
  0
LINE
  8
0
 62
7
  6
CONTINUOUS
 10
362.6355978548
 20
31.3133515913
 11
362.5777852445
 21
31.3778789641
  0
LINE
  8
0
 62
7
  6
CONTINUOUS
 10
363.5027853548
 20
30.7003414814
 11
363.4449727445
 21
30.7648688543
  0
LINE
  8
0
 62
7
  6
CONTINUOUS
 10
364.6590352445
 20
30.5712867188
 11
364.716847524
 21
30.5067593403
  0
LINE
  8
0
 62
7
  6
CONTINUOUS
 10
364.6012229651
 20
30.668077795
 11
364.6590352445
 21
30.5712867188
  0
LINE
  8
0
 62
7
  6
CONTINUOUS
 10
365.0059102445
 20
30.5067593403
 11
364.9480979651
 21
30.6035504109
  0
LINE
  8
0
 62
7
  6
CONTINUOUS
 10
364.890285024
 20
31.2810879048
 11
364.8324727445
 21
31.3778789641
  0
LINE
  8
0
 62
7
  6
CONTINUOUS
 10
366.2199727445
 20
31.5391973962
 11
366.2199727445
 21
30.5067593403
  0
LINE
  8
0
 62
7
  6
CONTINUOUS
 10
366.5090354651
 20
30.5067593403
 11
366.5090354651
 21
31.2488242184
  0
LINE
  8
0
 62
7
  6
CONTINUOUS
 10
366.5090354651
 20
31.3778789641
 11
366.5090354651
 21
31.5391973962
  0
LINE
  8
0
 62
7
  6
CONTINUOUS
 10
367.0408487691
 20
34.5231527829
 11
367.0408487691
 21
32.3100380288
  0
LINE
  8
0
 62
7
  6
CONTINUOUS
 10
358.9355977445
 20
31.3456152777
 11
358.8199727462
 21
31.216560532
  0
LINE
  8
0
 62
7
  6
CONTINUOUS
 10
359.1090352445
 20
31.1842968456
 11
359.1668477307
 21
31.2488242184
  0
LINE
  8
0
 62
7
  6
CONTINUOUS
 10
358.9355977445
 20
30.7003414814
 11
359.0512227376
 21
30.6358140973
  0
LINE
  8
0
 62
7
  6
CONTINUOUS
 10
359.3402852307
 20
30.7003414814
 11
359.1668477307
 21
30.7971325633
  0
LINE
  8
0
 62
7
  6
CONTINUOUS
 10
364.543410024
 20
31.3456152777
 11
364.6012229651
 21
31.2810879048
  0
LINE
  8
0
 62
7
  6
CONTINUOUS
 10
367.491847524
 20
31.2810879048
 11
367.5496604651
 21
31.1197694727
  0
LINE
  8
0
 62
7
  6
CONTINUOUS
 10
367.838722524
 20
31.1197694727
 11
367.7809102445
 21
31.2810879048
  0
LINE
  8
0
 62
7
  6
CONTINUOUS
 10
367.5496604651
 20
31.1197694727
 11
367.5496604651
 21
30.5067593403
  0
LINE
  8
0
 62
7
  6
CONTINUOUS
 10
367.838722524
 20
30.5067593403
 11
367.838722524
 21
31.1197694727
  0
LINE
  8
0
 62
7
  6
CONTINUOUS
 10
368.3012227445
 20
31.3456152777
 11
368.3012227445
 21
31.2810879048
  0
LINE
  8
0
 62
7
  6
CONTINUOUS
 10
368.4342913921
 20
32.3100380288
 11
368.4342913921
 21
34.4411855698
  0
LINE
  8
0
 62
7
  6
CONTINUOUS
 10
368.7621602445
 20
36.0805298321
 11
368.7621602445
 21
32.3100380288
  0
LINE
  8
0
 62
7
  6
CONTINUOUS
 10
363.4449727445
 20
30.8293962497
 11
363.5027853548
 21
30.926187309
  0
LINE
  8
0
 62
7
  6
CONTINUOUS
 10
359.0512227376
 20
30.6358140973
 11
359.2246602583
 21
30.5712867188
  0
LINE
  8
0
 62
7
  6
CONTINUOUS
 10
360.5543476894
 20
31.3456152777
 11
360.3809101894
 21
31.4424063369
  0
LINE
  8
0
 62
7
  6
CONTINUOUS
 10
363.2137226343
 20
30.668077795
 11
363.3871601343
 21
30.5712867188
  0
LINE
  8
0
 62
7
  6
CONTINUOUS
 10
362.2309102445
 20
31.3456152777
 11
362.3465351343
 21
31.2810879048
  0
LINE
  8
0
 62
7
  6
CONTINUOUS
 10
362.5777852445
 20
31.3778789641
 11
362.4621603548
 21
31.4424063369
  0
LINE
  8
0
 62
7
  6
CONTINUOUS
 10
368.3012227445
 20
30.7648688543
 11
368.4168479651
 21
30.6358140973
  0
LINE
  8
0
 62
7
  6
CONTINUOUS
 10
368.6480977445
 20
30.7003414814
 11
368.5902854651
 21
30.7648688543
  0
LINE
  8
0
 62
7
  6
CONTINUOUS
 10
368.3012227445
 20
31.2810879048
 11
368.4168479651
 21
31.1520331591
  0
LINE
  8
0
 62
7
  6
CONTINUOUS
 10
367.7809102445
 20
31.2810879048
 11
367.7230979651
 21
31.3778789641
  0
LINE
  8
0
 62
7
  6
CONTINUOUS
 10
370.1512223035
 20
30.7003414814
 11
370.1512223035
 21
30.7648688543
  0
LINE
  8
0
 62
7
  6
CONTINUOUS
 10
370.1556028675
 20
32.3100380288
 11
370.1556028675
 21
36.0805298321
  0
LINE
  8
0
 62
7
  6
CONTINUOUS
 10
363.2137226343
 20
31.4101426505
 11
363.1559103548
 21
31.3456152777
  0
LINE
  8
0
 62
7
  6
CONTINUOUS
 10
360.091847717
 20
31.3778789641
 11
360.2652852997
 21
31.3133515913
  0
LINE
  8
0
 62
7
  6
CONTINUOUS
 10
364.8324727445
 20
31.3778789641
 11
364.716847524
 21
31.4424063369
  0
LINE
  8
0
 62
7
  6
CONTINUOUS
 10
368.6480977445
 20
31.216560532
 11
368.5902854651
 21
31.2810879048
  0
LINE
  8
0
 62
7
  6
CONTINUOUS
 10
369.8043479651
 20
30.8293962497
 11
369.8621602445
 21
30.7648688543
  0
LINE
  8
0
 62
7
  6
CONTINUOUS
 10
370.1512223035
 20
30.7648688543
 11
370.0355977445
 21
30.8939236226
  0
LINE
  8
0
 62
7
  6
CONTINUOUS
 10
369.8043479651
 20
31.3456152777
 11
369.8621602445
 21
31.2810879048
  0
LINE
  8
0
 62
7
  6
CONTINUOUS
 10
370.1512223035
 20
31.2810879048
 11
370.0355977445
 21
31.4101426505
  0
LINE
  8
0
 62
7
  6
CONTINUOUS
 10
363.4449727445
 20
31.2810879048
 11
363.5027853548
 21
31.3456152777
  0
LINE
  8
0
 62
7
  6
CONTINUOUS
 10
363.2715352445
 20
31.0229783683
 11
363.1559103548
 21
30.8939236226
  0
LINE
  8
0
 62
7
  6
CONTINUOUS
 10
364.6012229651
 20
30.8616599362
 11
364.543410024
 21
30.7971325633
  0
LINE
  8
0
 62
7
  6
CONTINUOUS
 10
364.543410024
 20
30.6035504109
 11
364.6012229651
 21
30.668077795
  0
LINE
  8
0
 62
7
  6
CONTINUOUS
 10
363.3871601343
 20
30.5712867188
 11
363.5027853548
 21
30.5390230296
  0
LINE
  8
0
 62
7
  6
CONTINUOUS
 10
360.3809101894
 20
31.4424063369
 11
360.1496602445
 21
31.5069337098
  0
LINE
  8
0
 62
7
  6
CONTINUOUS
 10
363.7340351343
 20
30.6358140973
 11
363.5027853548
 21
30.7003414814
  0
LINE
  8
0
 62
7
  6
CONTINUOUS
 10
362.4621603548
 20
31.4424063369
 11
362.2887228548
 21
31.5069337098
  0
LINE
  8
0
 62
7
  6
CONTINUOUS
 10
364.716847524
 20
31.4424063369
 11
364.543410024
 21
31.5069337098
  0
LINE
  8
0
 62
7
  6
CONTINUOUS
 10
367.3762229651
 20
31.3456152777
 11
367.491847524
 21
31.2810879048
  0
LINE
  8
0
 62
7
  6
CONTINUOUS
 10
367.7230979651
 20
31.3778789641
 11
367.6074727445
 21
31.4424063369
  0
LINE
  8
0
 62
7
  6
CONTINUOUS
 10
359.2246602583
 20
30.5712867188
 11
359.3980977583
 21
30.5390230296
  0
LINE
  8
0
 62
7
  6
CONTINUOUS
 10
359.6871602721
 20
30.6358140973
 11
359.3402852307
 21
30.7003414814
  0
LINE
  8
0
 62
7
  6
CONTINUOUS
 10
362.1152853548
 20
31.3778789641
 11
362.2309102445
 21
31.3456152777
  0
LINE
  8
0
 62
7
  6
CONTINUOUS
 10
364.4277854651
 20
31.3778789641
 11
364.543410024
 21
31.3456152777
  0
LINE
  8
0
 62
7
  6
CONTINUOUS
 10
368.7637229651
 20
30.668077795
 11
368.6480977445
 21
30.7003414814
  0
LINE
  8
0
 62
7
  6
CONTINUOUS
 10
367.2605977445
 20
31.3778789641
 11
367.3762229651
 21
31.3456152777
  0
LINE
  8
0
 62
7
  6
CONTINUOUS
 10
368.4168479651
 20
30.6358140973
 11
368.5902854651
 21
30.5712867188
  0
LINE
  8
0
 62
7
  6
CONTINUOUS
 10
367.6074727445
 20
31.4424063369
 11
367.4340352445
 21
31.5069337098
  0
LINE
  8
0
 62
7
  6
CONTINUOUS
 10
368.8215352445
 20
31.1520331591
 11
368.6480977445
 21
31.216560532
  0
LINE
  8
0
 62
7
  6
CONTINUOUS
 10
369.6309104651
 20
30.8939236226
 11
369.8043479651
 21
30.8293962497
  0
LINE
  8
0
 62
7
  6
CONTINUOUS
 10
370.0355977445
 20
31.4101426505
 11
369.8621602445
 21
31.4746700234
  0
LINE
  8
0
 62
7
  6
CONTINUOUS
 10
368.4168479651
 20
31.1520331591
 11
368.6480977445
 21
31.0552420547
  0
LINE
  8
0
 62
7
  6
CONTINUOUS
 10
370.0355977445
 20
30.8939236226
 11
369.8043479651
 21
30.9907146818
  0
LINE
  8
0
 62
7
  6
CONTINUOUS
 10
368.5902854651
 20
31.2810879048
 11
368.6480977445
 21
31.3456152777
  0
LINE
  8
0
 62
7
  6
CONTINUOUS
 10
359.0512227376
 20
31.4101426505
 11
358.9355977445
 21
31.3456152777
  0
LINE
  8
0
 62
7
  6
CONTINUOUS
 10
359.1668477307
 20
31.2488242184
 11
359.3402852307
 21
31.3456152777
  0
LINE
  8
0
 62
7
  6
CONTINUOUS
 10
361.4793477997
 20
31.4424063369
 11
361.3637227445
 21
31.3778789641
  0
LINE
  8
0
 62
7
  6
CONTINUOUS
 10
361.3637227445
 20
31.2488242184
 11
361.4793477997
 21
31.3133515913
  0
LINE
  8
0
 62
7
  6
CONTINUOUS
 10
360.3809101894
 20
30.6035504109
 11
360.5543476894
 21
30.7003414814
  0
LINE
  8
0
 62
7
  6
CONTINUOUS
 10
359.3980977583
 20
30.5390230296
 11
359.744972717
 21
30.5067593403
  0
LINE
  8
0
 62
7
  6
CONTINUOUS
 10
363.5027853548
 20
30.5390230296
 11
363.7340351343
 21
30.5067593403
  0
LINE
  8
0
 62
7
  6
CONTINUOUS
 10
361.8840352445
 20
31.4101426505
 11
362.1152853548
 21
31.3778789641
  0
LINE
  8
0
 62
7
  6
CONTINUOUS
 10
364.1965353548
 20
31.4101426505
 11
364.4277854651
 21
31.3778789641
  0
LINE
  8
0
 62
7
  6
CONTINUOUS
 10
368.6480977445
 20
31.0552420547
 11
369.6309104651
 21
30.8939236226
  0
LINE
  8
0
 62
7
  6
CONTINUOUS
 10
369.8043479651
 20
30.9907146818
 11
368.8215352445
 21
31.1520331591
  0
LINE
  8
0
 62
7
  6
CONTINUOUS
 10
362.2887228548
 20
31.5069337098
 11
362.1152853548
 21
31.5391973962
  0
LINE
  8
0
 62
7
  6
CONTINUOUS
 10
368.5902854651
 20
30.5712867188
 11
368.7637229651
 21
30.5390230296
  0
LINE
  8
0
 62
7
  6
CONTINUOUS
 10
367.4340352445
 20
31.5069337098
 11
367.2605977445
 21
31.5391973962
  0
LINE
  8
0
 62
7
  6
CONTINUOUS
 10
369.6887227445
 20
31.3778789641
 11
369.8043479651
 21
31.3456152777
  0
LINE
  8
0
 62
7
  6
CONTINUOUS
 10
369.8621602445
 20
30.7648688543
 11
369.8043479651
 21
30.7003414814
  0
LINE
  8
0
 62
7
  6
CONTINUOUS
 10
368.4168479651
 20
31.4424063369
 11
368.3012227445
 21
31.3456152777
  0
LINE
  8
0
 62
7
  6
CONTINUOUS
 10
363.3293478548
 20
31.4746700234
 11
363.2137226343
 21
31.4101426505
  0
LINE
  8
0
 62
7
  6
CONTINUOUS
 10
363.3871601343
 20
31.0875057863
 11
363.2715352445
 21
31.0229783683
  0
LINE
  8
0
 62
7
  6
CONTINUOUS
 10
363.5027853548
 20
30.926187309
 11
363.6184102445
 21
30.9907146818
  0
LINE
  8
0
 62
7
  6
CONTINUOUS
 10
361.0746601894
 20
30.5067593403
 11
361.3637227445
 21
30.5067593403
  0
LINE
  8
0
 62
7
  6
CONTINUOUS
 10
362.4043477445
 20
30.5067593403
 11
362.6934101343
 21
30.5067593403
  0
LINE
  8
0
 62
7
  6
CONTINUOUS
 10
363.7340351343
 20
30.5067593403
 11
364.0809101343
 21
30.5067593403
  0
LINE
  8
0
 62
7
  6
CONTINUOUS
 10
364.716847524
 20
30.5067593403
 11
365.0059102445
 21
30.5067593403
  0
LINE
  8
0
 62
7
  6
CONTINUOUS
 10
365.4684104651
 20
30.5067593403
 11
365.757472524
 21
30.5067593403
  0
LINE
  8
0
 62
7
  6
CONTINUOUS
 10
366.2199727445
 20
30.5067593403
 11
366.5090354651
 21
30.5067593403
  0
LINE
  8
0
 62
7
  6
CONTINUOUS
 10
367.5496604651
 20
30.5067593403
 11
367.838722524
 21
30.5067593403
  0
LINE
  8
0
 62
7
  6
CONTINUOUS
 10
369.1105979651
 20
30.5067593403
 11
369.4574729651
 21
30.5067593403
  0
LINE
  8
0
 62
7
  6
CONTINUOUS
 10
369.4574729651
 20
30.6358140973
 11
369.1105979651
 21
30.6358140973
  0
LINE
  8
0
 62
7
  6
CONTINUOUS
 10
364.0809101343
 20
30.6358140973
 11
363.7340351343
 21
30.6358140973
  0
LINE
  8
0
 62
7
  6
CONTINUOUS
 10
368.5902854651
 20
30.7648688543
 11
368.3012227445
 21
30.7648688543
  0
LINE
  8
0
 62
7
  6
CONTINUOUS
 10
360.6121602997
 20
30.8293962497
 11
360.3230977445
 21
30.8293962497
  0
LINE
  8
0
 62
7
  6
CONTINUOUS
 10
359.6871602721
 20
31.4101426505
 11
360.091847717
 21
31.3778789641
  0
LINE
  8
0
 62
7
  6
CONTINUOUS
 10
360.1496602445
 20
31.5069337098
 11
359.744972717
 21
31.5391973962
  0
LINE
  8
0
 62
7
  6
CONTINUOUS
 10
368.7637229651
 20
30.5390230296
 11
369.1105979651
 21
30.5067593403
  0
LINE
  8
0
 62
7
  6
CONTINUOUS
 10
369.1105979651
 20
30.6358140973
 11
368.7637229651
 21
30.668077795
  0
LINE
  8
0
 62
7
  6
CONTINUOUS
 10
364.543410024
 20
31.5069337098
 11
364.1965353548
 21
31.5391973962
  0
LINE
  8
0
 62
7
  6
CONTINUOUS
 10
369.3418477445
 20
31.4101426505
 11
369.6887227445
 21
31.3778789641
  0
LINE
  8
0
 62
7
  6
CONTINUOUS
 10
369.6887227445
 20
31.5069337098
 11
369.3418477445
 21
31.5391973962
  0
LINE
  8
0
 62
7
  6
CONTINUOUS
 10
367.0293479651
 20
31.4101426505
 11
367.2605977445
 21
31.3778789641
  0
LINE
  8
0
 62
7
  6
CONTINUOUS
 10
369.8621602445
 20
31.4746700234
 11
369.6887227445
 21
31.5069337098
  0
LINE
  8
0
 62
7
  6
CONTINUOUS
 10
370.0355977445
 20
30.6035504109
 11
370.1512223035
 21
30.7003414814
  0
LINE
  8
0
 62
7
  6
CONTINUOUS
 10
364.543410024
 20
30.7971325633
 11
364.369972524
 21
30.7003414814
  0
LINE
  8
0
 62
7
  6
CONTINUOUS
 10
366.624660024
 20
31.4424063369
 11
366.5090354651
 21
31.3778789641
  0
LINE
  8
0
 62
7
  6
CONTINUOUS
 10
366.5090354651
 20
31.2488242184
 11
366.624660024
 21
31.3133515913
  0
LINE
  8
0
 62
7
  6
CONTINUOUS
 10
359.2246602583
 20
31.4746700234
 11
359.0512227376
 21
31.4101426505
  0
LINE
  8
0
 62
7
  6
CONTINUOUS
 10
361.6527851343
 20
31.5069337098
 11
361.4793477997
 21
31.4424063369
  0
LINE
  8
0
 62
7
  6
CONTINUOUS
 10
361.4793477997
 20
31.3133515913
 11
361.6527851343
 21
31.3778789641
  0
LINE
  8
0
 62
7
  6
CONTINUOUS
 10
360.2652852997
 20
30.7326051679
 11
360.091847717
 21
30.668077795
  0
LINE
  8
0
 62
7
  6
CONTINUOUS
 10
369.6887227445
 20
30.668077795
 11
369.4574729651
 21
30.6358140973
  0
LINE
  8
0
 62
7
  6
CONTINUOUS
 10
364.0809101343
 20
30.5067593403
 11
364.369972524
 21
30.5390230296
  0
LINE
  8
0
 62
7
  6
CONTINUOUS
 10
369.4574729651
 20
30.5067593403
 11
369.8043479651
 21
30.5390230296
  0
LINE
  8
0
 62
7
  6
CONTINUOUS
 10
359.744972717
 20
30.5067593403
 11
360.1496602445
 21
30.5390230296
  0
LINE
  8
0
 62
7
  6
CONTINUOUS
 10
360.091847717
 20
30.668077795
 11
359.6871602721
 21
30.6358140973
  0
LINE
  8
0
 62
7
  6
CONTINUOUS
 10
363.9652852445
 20
31.0552420547
 11
364.6012229651
 21
31.0552420547
  0
LINE
  8
0
 62
7
  6
CONTINUOUS
 10
364.6012229651
 20
31.1842968456
 11
363.9652852445
 21
31.1842968456
  0
LINE
  8
0
 62
7
  6
CONTINUOUS
 10
360.3230977445
 20
31.216560532
 11
360.6121602997
 21
31.216560532
  0
LINE
  8
0
 62
7
  6
CONTINUOUS
 10
363.1559103548
 20
31.2810879048
 11
363.4449727445
 21
31.2810879048
  0
LINE
  8
0
 62
7
  6
CONTINUOUS
 10
369.8621602445
 20
31.2810879048
 11
370.1512223035
 21
31.2810879048
  0
LINE
  8
0
 62
7
  6
CONTINUOUS
 10
363.8496603548
 20
31.4101426505
 11
364.1965353548
 21
31.4101426505
  0
LINE
  8
0
 62
7
  6
CONTINUOUS
 10
368.9949727445
 20
31.4101426505
 11
369.3418477445
 21
31.4101426505
  0
LINE
  8
0
 62
7
  6
CONTINUOUS
 10
369.3418477445
 20
31.5391973962
 11
368.9949727445
 21
31.5391973962
  0
LINE
  8
0
 62
7
  6
CONTINUOUS
 10
367.2605977445
 20
31.5391973962
 11
367.0293479651
 21
31.5391973962
  0
LINE
  8
0
 62
7
  6
CONTINUOUS
 10
366.5090354651
 20
31.5391973962
 11
366.2199727445
 21
31.5391973962
  0
LINE
  8
0
 62
7
  6
CONTINUOUS
 10
365.757472524
 20
31.5391973962
 11
365.4684104651
 21
31.5391973962
  0
LINE
  8
0
 62
7
  6
CONTINUOUS
 10
364.1965353548
 20
31.5391973962
 11
363.8496603548
 21
31.5391973962
  0
LINE
  8
0
 62
7
  6
CONTINUOUS
 10
362.1152853548
 20
31.5391973962
 11
361.8840352445
 21
31.5391973962
  0
LINE
  8
0
 62
7
  6
CONTINUOUS
 10
365.4684104651
 20
31.8618343508
 11
365.757472524
 21
31.8618343508
  0
LINE
  8
0
 62
7
  6
CONTINUOUS
 10
365.757472524
 20
32.0231527829
 11
365.4684104651
 21
32.0231527829
  0
LINE
  8
0
 62
7
  6
CONTINUOUS
 10
361.3637227445
 20
32.0231527829
 11
361.0746601894
 21
32.0231527829
  0
LINE
  8
0
 62
7
  6
CONTINUOUS
 10
360.4015045068
 20
32.3100380288
 11
360.8140758554
 21
32.3100380288
  0
LINE
  8
0
 62
7
  6
CONTINUOUS
 10
362.0408487691
 20
32.3100380288
 11
363.4342913921
 21
32.3100380288
  0
LINE
  8
0
 62
7
  6
CONTINUOUS
 10
363.7621602445
 20
32.3100380288
 11
365.1556028675
 21
32.3100380288
  0
LINE
  8
0
 62
7
  6
CONTINUOUS
 10
367.0408487691
 20
32.3100380288
 11
368.4342913921
 21
32.3100380288
  0
LINE
  8
0
 62
7
  6
CONTINUOUS
 10
368.7621602445
 20
32.3100380288
 11
370.1556028675
 21
32.3100380288
  0
LINE
  8
0
 62
7
  6
CONTINUOUS
 10
366.798097524
 20
31.5069337098
 11
366.624660024
 21
31.4424063369
  0
LINE
  8
0
 62
7
  6
CONTINUOUS
 10
364.369972524
 20
30.5390230296
 11
364.543410024
 21
30.6035504109
  0
LINE
  8
0
 62
7
  6
CONTINUOUS
 10
369.8043479651
 20
30.5390230296
 11
370.0355977445
 21
30.6035504109
  0
LINE
  8
0
 62
7
  6
CONTINUOUS
 10
369.8043479651
 20
30.7003414814
 11
369.6887227445
 21
30.668077795
  0
LINE
  8
0
 62
7
  6
CONTINUOUS
 10
368.7637229651
 20
31.3778789641
 11
368.9949727445
 21
31.4101426505
  0
LINE
  8
0
 62
7
  6
CONTINUOUS
 10
366.798097524
 20
31.3778789641
 11
367.0293479651
 21
31.4101426505
  0
LINE
  8
0
 62
7
  6
CONTINUOUS
 10
363.7340351343
 20
31.0229783683
 11
363.9652852445
 21
31.0552420547
  0
LINE
  8
0
 62
7
  6
CONTINUOUS
 10
367.0293479651
 20
31.5391973962
 11
366.798097524
 21
31.5069337098
  0
LINE
  8
0
 62
7
  6
CONTINUOUS
 10
363.6184102445
 20
31.3778789641
 11
363.8496603548
 21
31.4101426505
  0
LINE
  8
0
 62
7
  6
CONTINUOUS
 10
368.9949727445
 20
31.5391973962
 11
368.6480977445
 21
31.5069337098
  0
LINE
  8
0
 62
7
  6
CONTINUOUS
 10
363.9652852445
 20
31.1842968456
 11
363.6184102445
 21
31.1520331591
  0
LINE
  8
0
 62
7
  6
CONTINUOUS
 10
359.744972717
 20
31.5391973962
 11
359.3980977583
 21
31.5069337098
  0
LINE
  8
0
 62
7
  6
CONTINUOUS
 10
363.8496603548
 20
31.5391973962
 11
363.4449727445
 21
31.5069337098
  0
LINE
  8
0
 62
7
  6
CONTINUOUS
 10
361.221176638
 20
33.4575790124
 11
360.565438933
 21
33.4575790124
  0
LINE
  8
0
 62
7
  6
CONTINUOUS
 10
366.624660024
 20
31.3133515913
 11
366.798097524
 21
31.3778789641
  0
LINE
  8
0
 62
7
  6
CONTINUOUS
 10
368.6480977445
 20
31.3456152777
 11
368.7637229651
 21
31.3778789641
  0
LINE
  8
0
 62
7
  6
CONTINUOUS
 10
368.6480977445
 20
31.5069337098
 11
368.4168479651
 21
31.4424063369
  0
LINE
  8
0
 62
7
  6
CONTINUOUS
 10
364.369972524
 20
30.7003414814
 11
364.0809101343
 21
30.6358140973
  0
LINE
  8
0
 62
7
  6
CONTINUOUS
 10
361.6527851343
 20
31.3778789641
 11
361.8840352445
 21
31.4101426505
  0
LINE
  8
0
 62
7
  6
CONTINUOUS
 10
361.8840352445
 20
31.5391973962
 11
361.6527851343
 21
31.5069337098
  0
LINE
  8
0
 62
7
  6
CONTINUOUS
 10
359.4559102445
 20
31.3778789641
 11
359.6871602721
 21
31.4101426505
  0
LINE
  8
0
 62
7
  6
CONTINUOUS
 10
365.9752749986
 20
34.9329888485
 11
366.6310127035
 21
34.9329888485
  0
LINE
  8
0
 62
7
  6
CONTINUOUS
 10
363.6184102445
 20
30.9907146818
 11
363.7340351343
 21
31.0229783683
  0
LINE
  8
0
 62
7
  6
CONTINUOUS
 10
363.6184102445
 20
31.1520331591
 11
363.3871601343
 21
31.0875057863
  0
LINE
  8
0
 62
7
  6
CONTINUOUS
 10
363.5027853548
 20
31.3456152777
 11
363.6184102445
 21
31.3778789641
  0
LINE
  8
0
 62
7
  6
CONTINUOUS
 10
360.1496602445
 20
30.5390230296
 11
360.3809101894
 21
30.6035504109
  0
LINE
  8
0
 62
7
  6
CONTINUOUS
 10
363.4449727445
 20
31.5069337098
 11
363.3293478548
 21
31.4746700234
  0
LINE
  8
0
 62
7
  6
CONTINUOUS
 10
359.3980977583
 20
31.5069337098
 11
359.2246602583
 21
31.4746700234
  0
LINE
  8
0
 62
7
  6
CONTINUOUS
 10
370.1556028675
 20
36.0805298321
 11
368.7621602445
 21
36.0805298321
  0
LINE
  8
0
 62
7
  6
CONTINUOUS
 10
366.7949471298
 20
36.0805298321
 11
366.3823757812
 21
36.0805298321
  0
LINE
  8
0
 62
7
  6
CONTINUOUS
 10
365.1556028675
 20
36.0805298321
 11
363.7621602445
 21
36.0805298321
  0
LINE
  8
0
 62
7
  6
CONTINUOUS
 10
363.4342913921
 20
36.0805298321
 11
362.0408487691
 21
36.0805298321
  0
LINE
  8
0
 62
7
  6
CONTINUOUS
 10
360.1556028675
 20
36.0805298321
 11
358.7621602445
 21
36.0805298321
  0
LINE
  8
0
 62
7
  6
CONTINUOUS
 10
359.3402852307
 20
31.3456152777
 11
359.4559102445
 21
31.3778789641
  0
CIRCLE
  8
0
 62
7
  6
CONTINUOUS
 10
369.458881556
 20
38.4165954059
 40
2.0901639344
  0
ARC
  8
0
 62
7
  6
CONTINUOUS
 10
360.4015045068
 20
33.9493822911
 40
1.6393442623
 50
180.0
 51
270.0
  0
ARC
  8
0
 62
7
  6
CONTINUOUS
 10
366.7949471298
 20
34.4411855698
 40
1.6393442623
 50
0.0
 51
90.0
  0
ARC
  8
0
 62
7
  6
CONTINUOUS
 10
360.8140758554
 20
33.7854478649
 40
1.4754098361
 50
270.0
 51
326.2510114041
  0
ARC
  8
0
 62
7
  6
CONTINUOUS
 10
366.3823757812
 20
34.6051199961
 40
1.4754098361
 50
90.0
 51
146.2510114041
  0
ARC
  8
0
 62
7
  6
CONTINUOUS
 10
361.221176638
 20
34.2772511436
 40
0.8196721311
 50
270.0
 51
360.0
  0
ARC
  8
0
 62
7
  6
CONTINUOUS
 10
365.9752749986
 20
34.1133167174
 40
0.8196721311
 50
90.0
 51
180.0
  0
ARC
  8
0
 62
7
  6
CONTINUOUS
 10
360.565438933
 20
33.867415078
 40
0.4098360656
 50
180.0
 51
270.0
  0
ARC
  8
0
 62
7
  6
CONTINUOUS
 10
366.6310127035
 20
34.5231527829
 40
0.4098360656
 50
0.0
 51
90.0
  0
SOLID
  8
0
 62
7
  6
CONTINUOUS
 10
365.4684104651
 20
31.8618347111
 11
365.4684104651
 21
32.0231531947
 12
365.757472524
 22
31.8618347111
 13
365.757472524
 23
32.0231531947
  0
SOLID
  8
0
 62
7
  6
CONTINUOUS
 10
359.744972717
 20
31.5391977439
 11
360.1496602445
 21
31.5069333244
 12
359.3980977583
 22
31.5069333244
 13
359.3980977583
 23
31.5069333244
  0
SOLID
  8
0
 62
7
  6
CONTINUOUS
 10
359.2246602583
 20
31.4746706537
 11
359.3980977583
 21
31.5069333244
 12
360.1496602445
 22
31.5069333244
 13
360.1496602445
 23
31.5069333244
  0
SOLID
  8
0
 62
7
  6
CONTINUOUS
 10
360.1496602445
 20
31.5069333244
 11
360.3809101894
 21
31.4424063504
 12
359.2246602583
 22
31.4746706537
 13
359.2246602583
 23
31.4746706537
  0
SOLID
  8
0
 62
7
  6
CONTINUOUS
 10
359.0512227376
 20
31.4101419116
 11
359.2246602583
 21
31.4746706537
 12
360.3809101894
 22
31.4424063504
 13
360.3809101894
 23
31.4424063504
  0
SOLID
  8
0
 62
7
  6
CONTINUOUS
 10
359.0512227376
 20
31.4101419116
 11
360.3809101894
 21
31.4424063504
 12
359.6871602721
 22
31.4101419116
 13
359.6871602721
 23
31.4101419116
  0
SOLID
  8
0
 62
7
  6
CONTINUOUS
 10
359.6871602721
 20
31.4101419116
 11
360.3809101894
 21
31.4424063504
 12
360.091847717
 22
31.3778792603
 13
360.091847717
 23
31.3778792603
  0
SOLID
  8
0
 62
7
  6
CONTINUOUS
 10
360.3809101894
 20
31.4424063504
 11
360.5543476894
 21
31.345614957
 12
360.091847717
 22
31.3778792603
 13
360.091847717
 23
31.3778792603
  0
SOLID
  8
0
 62
7
  6
CONTINUOUS
 10
360.2652852997
 20
31.3133521701
 11
360.091847717
 21
31.3778792603
 12
360.5543476894
 22
31.345614957
 13
360.5543476894
 23
31.345614957
  0
SOLID
  8
0
 62
7
  6
CONTINUOUS
 10
360.2652852997
 20
31.3133521701
 11
360.5543476894
 21
31.345614957
 12
360.3230977445
 22
31.2165606992
 13
360.3230977445
 23
31.2165606992
  0
SOLID
  8
0
 62
7
  6
CONTINUOUS
 10
360.5543476894
 20
31.345614957
 11
360.6121602997
 21
31.2165606992
 12
360.3230977445
 22
31.2165606992
 13
360.3230977445
 23
31.2165606992
  0
SOLID
  8
0
 62
7
  6
CONTINUOUS
 10
361.6527851343
 20
31.5069329918
 11
361.8840352445
 21
31.5391972951
 12
362.1152853548
 22
31.5391972951
 13
362.1152853548
 23
31.5391972951
  0
SOLID
  8
0
 62
7
  6
CONTINUOUS
 10
362.1152853548
 20
31.5391972951
 11
362.2887228548
 21
31.5069329918
 12
361.6527851343
 22
31.5069329918
 13
361.6527851343
 23
31.5069329918
  0
SOLID
  8
0
 62
7
  6
CONTINUOUS
 10
361.4793477997
 20
31.4424059016
 11
361.6527851343
 21
31.5069329918
 12
362.2887228548
 22
31.5069329918
 13
362.2887228548
 23
31.5069329918
  0
SOLID
  8
0
 62
7
  6
CONTINUOUS
 10
362.2887228548
 20
31.5069329918
 11
362.4621603548
 21
31.4424059016
 12
361.4793477997
 22
31.4424059016
 13
361.4793477997
 23
31.4424059016
  0
SOLID
  8
0
 62
7
  6
CONTINUOUS
 10
362.4621603548
 20
31.4424059016
 11
361.8840352445
 21
31.4101420472
 12
361.4793477997
 22
31.4424059016
 13
361.4793477997
 23
31.4424059016
  0
SOLID
  8
0
 62
7
  6
CONTINUOUS
 10
361.3637227445
 20
31.3778788115
 11
361.4793477997
 21
31.4424059016
 12
361.8840352445
 22
31.4101420472
 13
361.8840352445
 23
31.4101420472
  0
SOLID
  8
0
 62
7
  6
CONTINUOUS
 10
361.8840352445
 20
31.4101420472
 11
361.6527851343
 21
31.3778788115
 12
361.3637227445
 22
31.3778788115
 13
361.3637227445
 23
31.3778788115
  0
SOLID
  8
0
 62
7
  6
CONTINUOUS
 10
361.8840352445
 20
31.4101420472
 11
362.4621603548
 21
31.4424059016
 12
362.1152853548
 22
31.3778788115
 13
362.1152853548
 23
31.3778788115
  0
SOLID
  8
0
 62
7
  6
CONTINUOUS
 10
362.4621603548
 20
31.4424059016
 11
362.5777852445
 21
31.3778788115
 12
362.1152853548
 22
31.3778788115
 13
362.1152853548
 23
31.3778788115
  0
SOLID
  8
0
 62
7
  6
CONTINUOUS
 10
362.2309102445
 20
31.345614957
 11
362.1152853548
 21
31.3778788115
 12
362.5777852445
 22
31.3778788115
 13
362.5777852445
 23
31.3778788115
  0
SOLID
  8
0
 62
7
  6
CONTINUOUS
 10
362.5777852445
 20
31.3778788115
 11
362.6355978548
 21
31.3133517213
 12
362.2309102445
 22
31.345614957
 13
362.2309102445
 23
31.345614957
  0
SOLID
  8
0
 62
7
  6
CONTINUOUS
 10
362.3465351343
 20
31.2810878668
 11
362.2309102445
 21
31.345614957
 12
362.6355978548
 22
31.3133517213
 13
362.6355978548
 23
31.3133517213
  0
SOLID
  8
0
 62
7
  6
CONTINUOUS
 10
362.3465351343
 20
31.2810878668
 11
362.6355978548
 21
31.3133517213
 12
362.4043477445
 22
31.1520332377
 13
362.4043477445
 23
31.1520332377
  0
SOLID
  8
0
 62
7
  6
CONTINUOUS
 10
362.6355978548
 20
31.3133517213
 11
362.6934101343
 21
31.1520332377
 12
362.4043477445
 22
31.1520332377
 13
362.4043477445
 23
31.1520332377
  0
SOLID
  8
0
 62
7
  6
CONTINUOUS
 10
361.6527851343
 20
31.3778788115
 11
361.4793477997
 21
31.3133517213
 12
361.3637227445
 22
31.3778788115
 13
361.3637227445
 23
31.3778788115
  0
SOLID
  8
0
 62
7
  6
CONTINUOUS
 10
361.4793477997
 20
31.3133517213
 11
361.3637227445
 21
31.2488235635
 12
361.3637227445
 22
31.3778788115
 13
361.3637227445
 23
31.3778788115
  0
SOLID
  8
0
 62
7
  6
CONTINUOUS
 10
361.3637227445
 20
31.2488235635
 11
361.0746601894
 21
30.5067593033
 12
361.3637227445
 22
31.3778788115
 13
361.3637227445
 23
31.3778788115
  0
SOLID
  8
0
 62
7
  6
CONTINUOUS
 10
361.3637227445
 20
31.3778788115
 11
361.0746601894
 21
30.5067593033
 12
361.3637227445
 22
32.0231527459
 13
361.3637227445
 23
32.0231527459
  0
SOLID
  8
0
 62
7
  6
CONTINUOUS
 10
361.0746601894
 20
30.5067593033
 11
361.0746601894
 21
32.0231527459
 12
361.3637227445
 22
32.0231527459
 13
361.3637227445
 23
32.0231527459
  0
SOLID
  8
0
 62
7
  6
CONTINUOUS
 10
361.3637227445
 20
31.2488235635
 11
361.3637227445
 21
30.5067593033
 12
361.0746601894
 22
30.5067593033
 13
361.0746601894
 23
30.5067593033
  0
SOLID
  8
0
 62
7
  6
CONTINUOUS
 10
362.4043477445
 20
30.5067593033
 11
362.4043477445
 21
31.1520332377
 12
362.6934101343
 22
31.1520332377
 13
362.6934101343
 23
31.1520332377
  0
SOLID
  8
0
 62
7
  6
CONTINUOUS
 10
362.6934101343
 20
31.1520332377
 11
362.6934101343
 21
30.5067593033
 12
362.4043477445
 22
30.5067593033
 13
362.4043477445
 23
30.5067593033
  0
SOLID
  8
0
 62
7
  6
CONTINUOUS
 10
363.4449727445
 20
31.506933758
 11
363.8496603548
 21
31.5391977507
 12
364.1965353548
 22
31.5391977507
 13
364.1965353548
 23
31.5391977507
  0
SOLID
  8
0
 62
7
  6
CONTINUOUS
 10
364.1965353548
 20
31.5391977507
 11
364.543410024
 21
31.506933758
 12
363.4449727445
 22
31.506933758
 13
363.4449727445
 23
31.506933758
  0
SOLID
  8
0
 62
7
  6
CONTINUOUS
 10
363.3293478548
 20
31.4746706537
 11
363.4449727445
 21
31.506933758
 12
364.543410024
 22
31.506933758
 13
364.543410024
 23
31.506933758
  0
SOLID
  8
0
 62
7
  6
CONTINUOUS
 10
364.543410024
 20
31.506933758
 11
364.716847524
 21
31.4424063504
 12
363.3293478548
 22
31.4746706537
 13
363.3293478548
 23
31.4746706537
  0
SOLID
  8
0
 62
7
  6
CONTINUOUS
 10
363.2137226343
 20
31.4101417797
 11
363.3293478548
 21
31.4746706537
 12
364.716847524
 22
31.4424063504
 13
364.716847524
 23
31.4424063504
  0
SOLID
  8
0
 62
7
  6
CONTINUOUS
 10
363.2137226343
 20
31.4101417797
 11
364.716847524
 21
31.4424063504
 12
363.8496603548
 22
31.4101417797
 13
363.8496603548
 23
31.4101417797
  0
SOLID
  8
0
 62
7
  6
CONTINUOUS
 10
363.8496603548
 20
31.4101417797
 11
364.716847524
 21
31.4424063504
 12
364.1965353548
 22
31.4101417797
 13
364.1965353548
 23
31.4101417797
  0
SOLID
  8
0
 62
7
  6
CONTINUOUS
 10
364.1965353548
 20
31.4101417797
 11
364.716847524
 21
31.4424063504
 12
364.4277854651
 22
31.3778793357
 13
364.4277854651
 23
31.3778793357
  0
SOLID
  8
0
 62
7
  6
CONTINUOUS
 10
364.716847524
 20
31.4424063504
 11
364.8324727445
 21
31.3778793357
 12
364.4277854651
 22
31.3778793357
 13
364.4277854651
 23
31.3778793357
  0
SOLID
  8
0
 62
7
  6
CONTINUOUS
 10
363.1559103548
 20
31.3456153429
 11
363.2137226343
 21
31.4101417797
 12
363.8496603548
 22
31.4101417797
 13
363.8496603548
 23
31.4101417797
  0
SOLID
  8
0
 62
7
  6
CONTINUOUS
 10
364.543410024
 20
31.3456153429
 11
364.4277854651
 21
31.3778793357
 12
364.8324727445
 22
31.3778793357
 13
364.8324727445
 23
31.3778793357
  0
SOLID
  8
0
 62
7
  6
CONTINUOUS
 10
364.543410024
 20
31.3456153429
 11
364.8324727445
 21
31.3778793357
 12
364.6012229651
 22
31.2810881318
 13
364.6012229651
 23
31.2810881318
  0
SOLID
  8
0
 62
7
  6
CONTINUOUS
 10
364.8324727445
 20
31.3778793357
 11
364.890285024
 21
31.2810881318
 12
364.6012229651
 22
31.2810881318
 13
364.6012229651
 23
31.2810881318
  0
SOLID
  8
0
 62
7
  6
CONTINUOUS
 10
364.6012229651
 20
31.1842964734
 11
364.6012229651
 21
31.2810881318
 12
364.890285024
 22
31.2810881318
 13
364.890285024
 23
31.2810881318
  0
SOLID
  8
0
 62
7
  6
CONTINUOUS
 10
364.6012229651
 20
31.1842964734
 11
364.890285024
 21
31.2810881318
 12
364.6012229651
 22
31.0552422931
 13
364.6012229651
 23
31.0552422931
  0
SOLID
  8
0
 62
7
  6
CONTINUOUS
 10
364.6012229651
 20
31.0552422931
 11
364.890285024
 21
31.2810881318
 12
364.6012229651
 22
30.8616599362
 13
364.6012229651
 23
30.8616599362
  0
SOLID
  8
0
 62
7
  6
CONTINUOUS
 10
364.890285024
 20
31.2810881318
 11
364.890285024
 21
30.7648681127
 12
364.6012229651
 22
30.8616599362
 13
364.6012229651
 23
30.8616599362
  0
SOLID
  8
0
 62
7
  6
CONTINUOUS
 10
366.798097524
 20
31.5069339419
 11
367.0293479651
 21
31.5391976292
 12
367.2605977445
 22
31.5391976292
 13
367.2605977445
 23
31.5391976292
  0
SOLID
  8
0
 62
7
  6
CONTINUOUS
 10
367.2605977445
 20
31.5391976292
 11
367.4340352445
 21
31.5069339419
 12
366.798097524
 22
31.5069339419
 13
366.798097524
 23
31.5069339419
  0
SOLID
  8
0
 62
7
  6
CONTINUOUS
 10
366.624660024
 20
31.4424065674
 11
366.798097524
 21
31.5069339419
 12
367.4340352445
 22
31.5069339419
 13
367.4340352445
 23
31.5069339419
  0
SOLID
  8
0
 62
7
  6
CONTINUOUS
 10
367.4340352445
 20
31.5069339419
 11
367.6074727445
 21
31.4424065674
 12
366.624660024
 22
31.4424065674
 13
366.624660024
 23
31.4424065674
  0
SOLID
  8
0
 62
7
  6
CONTINUOUS
 10
367.6074727445
 20
31.4424065674
 11
367.0293479651
 21
31.4101420472
 12
366.624660024
 22
31.4424065674
 13
366.624660024
 23
31.4424065674
  0
SOLID
  8
0
 62
7
  6
CONTINUOUS
 10
366.5090354651
 20
31.377879193
 11
366.624660024
 21
31.4424065674
 12
367.0293479651
 22
31.4101420472
 13
367.0293479651
 23
31.4101420472
  0
SOLID
  8
0
 62
7
  6
CONTINUOUS
 10
367.0293479651
 20
31.4101420472
 11
366.798097524
 21
31.377879193
 12
366.5090354651
 22
31.377879193
 13
366.5090354651
 23
31.377879193
  0
SOLID
  8
0
 62
7
  6
CONTINUOUS
 10
367.0293479651
 20
31.4101420472
 11
367.6074727445
 21
31.4424065674
 12
367.2605977445
 22
31.377879193
 13
367.2605977445
 23
31.377879193
  0
SOLID
  8
0
 62
7
  6
CONTINUOUS
 10
367.6074727445
 20
31.4424065674
 11
367.7230979651
 21
31.377879193
 12
367.2605977445
 22
31.377879193
 13
367.2605977445
 23
31.377879193
  0
SOLID
  8
0
 62
7
  6
CONTINUOUS
 10
367.3762229651
 20
31.345614957
 11
367.2605977445
 21
31.377879193
 12
367.7230979651
 22
31.377879193
 13
367.7230979651
 23
31.377879193
  0
SOLID
  8
0
 62
7
  6
CONTINUOUS
 10
367.3762229651
 20
31.345614957
 11
367.7230979651
 21
31.377879193
 12
367.491847524
 22
31.2810881312
 13
367.491847524
 23
31.2810881312
  0
SOLID
  8
0
 62
7
  6
CONTINUOUS
 10
367.7230979651
 20
31.377879193
 11
367.7809102445
 21
31.2810881312
 12
367.491847524
 22
31.2810881312
 13
367.491847524
 23
31.2810881312
  0
SOLID
  8
0
 62
7
  6
CONTINUOUS
 10
367.5496604651
 20
31.119769695
 11
367.491847524
 21
31.2810881312
 12
367.7809102445
 22
31.2810881312
 13
367.7809102445
 23
31.2810881312
  0
SOLID
  8
0
 62
7
  6
CONTINUOUS
 10
367.7809102445
 20
31.2810881312
 11
367.838722524
 21
31.119769695
 12
367.5496604651
 22
31.119769695
 13
367.5496604651
 23
31.119769695
  0
SOLID
  8
0
 62
7
  6
CONTINUOUS
 10
366.798097524
 20
31.377879193
 11
366.624660024
 21
31.3133521701
 12
366.5090354651
 22
31.377879193
 13
366.5090354651
 23
31.377879193
  0
SOLID
  8
0
 62
7
  6
CONTINUOUS
 10
366.624660024
 20
31.3133521701
 11
366.5090354651
 21
31.2488235635
 12
366.5090354651
 22
31.377879193
 13
366.5090354651
 23
31.377879193
  0
SOLID
  8
0
 62
7
  6
CONTINUOUS
 10
366.5090354651
 20
31.2488235635
 11
366.2199727445
 21
30.5067596374
 12
366.5090354651
 22
31.377879193
 13
366.5090354651
 23
31.377879193
  0
SOLID
  8
0
 62
7
  6
CONTINUOUS
 10
366.5090354651
 20
31.377879193
 11
366.2199727445
 21
30.5067596374
 12
366.5090354651
 22
31.5391976292
 13
366.5090354651
 23
31.5391976292
  0
SOLID
  8
0
 62
7
  6
CONTINUOUS
 10
366.2199727445
 20
30.5067596374
 11
366.2199727445
 21
31.5391976292
 12
366.5090354651
 22
31.5391976292
 13
366.5090354651
 23
31.5391976292
  0
SOLID
  8
0
 62
7
  6
CONTINUOUS
 10
366.5090354651
 20
31.2488235635
 11
366.5090354651
 21
30.5067596374
 12
366.2199727445
 22
30.5067596374
 13
366.2199727445
 23
30.5067596374
  0
SOLID
  8
0
 62
7
  6
CONTINUOUS
 10
367.5496604651
 20
30.5067596374
 11
367.5496604651
 21
31.119769695
 12
367.838722524
 22
31.119769695
 13
367.838722524
 23
31.119769695
  0
SOLID
  8
0
 62
7
  6
CONTINUOUS
 10
367.838722524
 20
31.119769695
 11
367.838722524
 21
30.5067596374
 12
367.5496604651
 22
30.5067596374
 13
367.5496604651
 23
30.5067596374
  0
SOLID
  8
0
 62
7
  6
CONTINUOUS
 10
368.6480977445
 20
31.5069334157
 11
368.9949727445
 21
31.539197762
 12
369.3418477445
 22
31.539197762
 13
369.3418477445
 23
31.539197762
  0
SOLID
  8
0
 62
7
  6
CONTINUOUS
 10
369.3418477445
 20
31.539197762
 11
369.6887227445
 21
31.5069334157
 12
368.6480977445
 22
31.5069334157
 13
368.6480977445
 23
31.5069334157
  0
SOLID
  8
0
 62
7
  6
CONTINUOUS
 10
368.4168479651
 20
31.4424063504
 11
368.6480977445
 21
31.5069334157
 12
369.6887227445
 22
31.5069334157
 13
369.6887227445
 23
31.5069334157
  0
SOLID
  8
0
 62
7
  6
CONTINUOUS
 10
368.4168479651
 20
31.4424063504
 11
369.6887227445
 21
31.5069334406
 12
369.8621602445
 22
31.4746706537
 13
369.8621602445
 23
31.4746706537
  0
SOLID
  8
0
 62
7
  6
CONTINUOUS
 10
368.4168479651
 20
31.4424063504
 11
369.8621602445
 21
31.4746706537
 12
368.9949727445
 22
31.4101421267
 13
368.9949727445
 23
31.4101421267
  0
SOLID
  8
0
 62
7
  6
CONTINUOUS
 10
368.9949727445
 20
31.4101421267
 11
369.8621602445
 21
31.4746706537
 12
369.3418477445
 22
31.4101421267
 13
369.3418477445
 23
31.4101421267
  0
SOLID
  8
0
 62
7
  6
CONTINUOUS
 10
369.8621602445
 20
31.4746706537
 11
370.0355977445
 21
31.4101421267
 12
369.3418477445
 22
31.4101421267
 13
369.3418477445
 23
31.4101421267
  0
SOLID
  8
0
 62
7
  6
CONTINUOUS
 10
369.6887227445
 20
31.3778792603
 11
369.3418477445
 21
31.4101421267
 12
370.0355977445
 22
31.4101421267
 13
370.0355977445
 23
31.4101421267
  0
SOLID
  8
0
 62
7
  6
CONTINUOUS
 10
368.3012227445
 20
31.3456148845
 11
368.4168479651
 21
31.4424063504
 12
368.9949727445
 22
31.4101421267
 13
368.9949727445
 23
31.4101421267
  0
SOLID
  8
0
 62
7
  6
CONTINUOUS
 10
369.6887227445
 20
31.3778792603
 11
370.0355977445
 21
31.4101421267
 12
369.8043479651
 22
31.3456148845
 13
369.8043479651
 23
31.3456148845
  0
SOLID
  8
0
 62
7
  6
CONTINUOUS
 10
369.8043479651
 20
31.3456148845
 11
370.0355977445
 21
31.4101421267
 12
369.8621602445
 22
31.281087868
 13
369.8621602445
 23
31.281087868
  0
SOLID
  8
0
 62
7
  6
CONTINUOUS
 10
370.0355977445
 20
31.4101421267
 11
370.1512223035
 21
31.281087868
 12
369.8621602445
 22
31.281087868
 13
369.8621602445
 23
31.281087868
  0
SOLID
  8
0
 62
7
  6
CONTINUOUS
 10
359.4559102445
 20
31.3778792603
 11
358.9355977445
 21
31.3456148963
 12
359.6871602721
 22
31.4101421155
 13
359.6871602721
 23
31.4101421155
  0
SOLID
  8
0
 62
7
  6
CONTINUOUS
 10
358.9355977445
 20
31.3456148963
 11
359.0512227376
 21
31.4101421155
 12
359.6871602721
 22
31.4101421155
 13
359.6871602721
 23
31.4101421155
  0
SOLID
  8
0
 62
7
  6
CONTINUOUS
 10
359.4559102445
 20
31.3778792603
 11
359.3402852307
 21
31.3456148963
 12
358.9355977445
 22
31.3456148963
 13
358.9355977445
 23
31.3456148963
  0
SOLID
  8
0
 62
7
  6
CONTINUOUS
 10
358.8199727462
 20
31.2165607767
 11
358.9355977445
 21
31.3456148963
 12
359.3402852307
 22
31.3456148963
 13
359.3402852307
 23
31.3456148963
  0
SOLID
  8
0
 62
7
  6
CONTINUOUS
 10
363.1559103548
 20
31.3456149608
 11
363.8496603548
 21
31.4101420472
 12
363.6184102445
 22
31.3778792603
 13
363.6184102445
 23
31.3778792603
  0
SOLID
  8
0
 62
7
  6
CONTINUOUS
 10
363.6184102445
 20
31.3778792603
 11
363.5027853548
 21
31.3456149608
 12
363.1559103548
 22
31.3456149608
 13
363.1559103548
 23
31.3456149608
  0
SOLID
  8
0
 62
7
  6
CONTINUOUS
 10
363.1559103548
 20
31.2810878707
 11
363.1559103548
 21
31.3456149608
 12
363.5027853548
 22
31.3456149608
 13
363.5027853548
 23
31.3456149608
  0
SOLID
  8
0
 62
7
  6
CONTINUOUS
 10
363.5027853548
 20
31.3456149608
 11
363.4449727445
 21
31.2810878707
 12
363.1559103548
 22
31.2810878707
 13
363.1559103548
 23
31.2810878707
  0
SOLID
  8
0
 62
7
  6
CONTINUOUS
 10
368.3012227445
 20
31.3456149608
 11
368.9949727445
 21
31.4101420472
 12
368.7637229651
 22
31.3778792603
 13
368.7637229651
 23
31.3778792603
  0
SOLID
  8
0
 62
7
  6
CONTINUOUS
 10
368.7637229651
 20
31.3778792603
 11
368.6480977445
 21
31.3456149608
 12
368.3012227445
 22
31.3456149608
 13
368.3012227445
 23
31.3456149608
  0
SOLID
  8
0
 62
7
  6
CONTINUOUS
 10
368.3012227445
 20
31.2810878707
 11
368.3012227445
 21
31.3456149608
 12
368.6480977445
 22
31.3456149608
 13
368.6480977445
 23
31.3456149608
  0
SOLID
  8
0
 62
7
  6
CONTINUOUS
 10
368.6480977445
 20
31.3456149608
 11
368.5902854651
 21
31.2810878707
 12
368.3012227445
 22
31.2810878707
 13
368.3012227445
 23
31.2810878707
  0
SOLID
  8
0
 62
7
  6
CONTINUOUS
 10
368.4168479651
 20
31.1520336865
 11
368.3012227445
 21
31.2810878707
 12
368.5902854651
 22
31.2810878707
 13
368.5902854651
 23
31.2810878707
  0
SOLID
  8
0
 62
7
  6
CONTINUOUS
 10
358.8199727462
 20
31.2165607767
 11
359.3402852307
 21
31.345614957
 12
359.1668477307
 22
31.2488235635
 13
359.1668477307
 23
31.2488235635
  0
SOLID
  8
0
 62
7
  6
CONTINUOUS
 10
359.1668477307
 20
31.2488235635
 11
359.1090352445
 21
31.1842964734
 12
358.8199727462
 22
31.2165607767
 13
358.8199727462
 23
31.2165607767
  0
SOLID
  8
0
 62
7
  6
CONTINUOUS
 10
358.7621602445
 20
31.0229779898
 11
358.8199727462
 21
31.2165607767
 12
359.1090352445
 22
31.1842964734
 13
359.1090352445
 23
31.1842964734
  0
SOLID
  8
0
 62
7
  6
CONTINUOUS
 10
363.6184102445
 20
31.1520336865
 11
363.9652852445
 21
31.1842964611
 12
364.6012229651
 22
31.1842964611
 13
364.6012229651
 23
31.1842964611
  0
SOLID
  8
0
 62
7
  6
CONTINUOUS
 10
363.6184102445
 20
31.1520336865
 11
364.6012229651
 21
31.1842964611
 12
363.3871601343
 22
31.0875057863
 13
363.3871601343
 23
31.0875057863
  0
SOLID
  8
0
 62
7
  6
CONTINUOUS
 10
363.3871601343
 20
31.0875057863
 11
364.6012229651
 21
31.1842964611
 12
363.9652852445
 22
31.0552422808
 13
363.9652852445
 23
31.0552422808
  0
SOLID
  8
0
 62
7
  6
CONTINUOUS
 10
364.6012229651
 20
31.1842964611
 11
364.6012229651
 21
31.0552422808
 12
363.9652852445
 22
31.0552422808
 13
363.9652852445
 23
31.0552422808
  0
SOLID
  8
0
 62
7
  6
CONTINUOUS
 10
368.4168479651
 20
31.1520338754
 11
368.5902854651
 21
31.2810878668
 12
368.6480977445
 22
31.2165607767
 13
368.6480977445
 23
31.2165607767
  0
SOLID
  8
0
 62
7
  6
CONTINUOUS
 10
368.6480977445
 20
31.2165607767
 11
368.8215352445
 21
31.1520338754
 12
368.4168479651
 22
31.1520338754
 13
368.4168479651
 23
31.1520338754
  0
SOLID
  8
0
 62
7
  6
CONTINUOUS
 10
368.6480977445
 20
31.0552422931
 11
368.4168479651
 21
31.1520338754
 12
368.8215352445
 22
31.1520338754
 13
368.8215352445
 23
31.1520338754
  0
SOLID
  8
0
 62
7
  6
CONTINUOUS
 10
368.8215352445
 20
31.1520338754
 11
369.8043479651
 21
30.9907152029
 12
368.6480977445
 22
31.0552422931
 13
368.6480977445
 23
31.0552422931
  0
SOLID
  8
0
 62
7
  6
CONTINUOUS
 10
369.6309104651
 20
30.8939239876
 11
368.6480977445
 21
31.0552422931
 12
369.8043479651
 22
30.9907152029
 13
369.8043479651
 23
30.9907152029
  0
SOLID
  8
0
 62
7
  6
CONTINUOUS
 10
369.8043479651
 20
30.9907152029
 11
370.0355977445
 21
30.8939239876
 12
369.6309104651
 22
30.8939239876
 13
369.6309104651
 23
30.8939239876
  0
SOLID
  8
0
 62
7
  6
CONTINUOUS
 10
369.8043479651
 20
30.8293967193
 11
369.6309104651
 21
30.8939239876
 12
370.0355977445
 22
30.8939239876
 13
370.0355977445
 23
30.8939239876
  0
SOLID
  8
0
 62
7
  6
CONTINUOUS
 10
369.8043479651
 20
30.8293967193
 11
370.0355977445
 21
30.8939239876
 12
369.8621602445
 22
30.7648682694
 13
369.8621602445
 23
30.7648682694
  0
SOLID
  8
0
 62
7
  6
CONTINUOUS
 10
370.0355977445
 20
30.8939239876
 11
370.1512223035
 21
30.7648682694
 12
369.8621602445
 22
30.7648682694
 13
369.8621602445
 23
30.7648682694
  0
SOLID
  8
0
 62
7
  6
CONTINUOUS
 10
369.8043479651
 20
30.7003411846
 11
369.8621602445
 21
30.7648682694
 12
370.1512223035
 22
30.7648682694
 13
370.1512223035
 23
30.7648682694
  0
SOLID
  8
0
 62
7
  6
CONTINUOUS
 10
370.1512223035
 20
30.7648682694
 11
370.1512223035
 21
30.7003411846
 12
369.8043479651
 22
30.7003411846
 13
369.8043479651
 23
30.7003411846
  0
SOLID
  8
0
 62
7
  6
CONTINUOUS
 10
369.6887227445
 20
30.6680782357
 11
369.8043479651
 21
30.7003411846
 12
370.1512223035
 22
30.7003411846
 13
370.1512223035
 23
30.7003411846
  0
SOLID
  8
0
 62
7
  6
CONTINUOUS
 10
369.6887227445
 20
30.6680782357
 11
370.1512223035
 21
30.7003411846
 12
369.4574729651
 22
30.6358140998
 13
369.4574729651
 23
30.6358140998
  0
SOLID
  8
0
 62
7
  6
CONTINUOUS
 10
370.1512223035
 20
30.7003411846
 11
370.0355977445
 21
30.6035511455
 12
369.4574729651
 22
30.6358140998
 13
369.4574729651
 23
30.6358140998
  0
SOLID
  8
0
 62
7
  6
CONTINUOUS
 10
370.0355977445
 20
30.6035511455
 11
368.5902854651
 21
30.5712868422
 12
369.4574729651
 22
30.6358140998
 13
369.4574729651
 23
30.6358140998
  0
SOLID
  8
0
 62
7
  6
CONTINUOUS
 10
369.4574729651
 20
30.6358140998
 11
368.5902854651
 21
30.5712868422
 12
369.1105979651
 22
30.6358140998
 13
369.1105979651
 23
30.6358140998
  0
SOLID
  8
0
 62
7
  6
CONTINUOUS
 10
368.5902854651
 20
30.5712868422
 11
368.4168479651
 21
30.6358140998
 12
369.1105979651
 22
30.6358140998
 13
369.1105979651
 23
30.6358140998
  0
SOLID
  8
0
 62
7
  6
CONTINUOUS
 10
368.5902854651
 20
30.5712868422
 11
370.0355977445
 21
30.6035511455
 12
368.7637229651
 22
30.5390223111
 13
368.7637229651
 23
30.5390223111
  0
SOLID
  8
0
 62
7
  6
CONTINUOUS
 10
370.0355977445
 20
30.6035511455
 11
369.8043479651
 21
30.5390223111
 12
368.7637229651
 22
30.5390223111
 13
368.7637229651
 23
30.5390223111
  0
SOLID
  8
0
 62
7
  6
CONTINUOUS
 10
369.1105979651
 20
30.5067599302
 11
368.7637229651
 21
30.5390223111
 12
369.8043479651
 22
30.5390223111
 13
369.8043479651
 23
30.5390223111
  0
SOLID
  8
0
 62
7
  6
CONTINUOUS
 10
369.8043479651
 20
30.5390223111
 11
369.4574729651
 21
30.5067599302
 12
369.1105979651
 22
30.5067599302
 13
369.1105979651
 23
30.5067599302
  0
SOLID
  8
0
 62
7
  6
CONTINUOUS
 10
358.7621602445
 20
31.0229779898
 11
359.1090352445
 21
31.1842964734
 12
359.0512227376
 22
31.0552422931
 13
359.0512227376
 23
31.0552422931
  0
SOLID
  8
0
 62
7
  6
CONTINUOUS
 10
359.0512227376
 20
31.0552422931
 11
359.0512227376
 21
30.9584509954
 12
358.7621602445
 22
31.0229779898
 13
358.7621602445
 23
31.0229779898
  0
SOLID
  8
0
 62
7
  6
CONTINUOUS
 10
358.8199727462
 20
30.8293967193
 11
358.7621602445
 21
31.0229779898
 12
359.0512227376
 22
30.9584509954
 13
359.0512227376
 23
30.9584509954
  0
SOLID
  8
0
 62
7
  6
CONTINUOUS
 10
359.0512227376
 20
30.9584509954
 11
359.1668477307
 21
30.797132416
 12
358.8199727462
 22
30.8293967193
 13
358.8199727462
 23
30.8293967193
  0
SOLID
  8
0
 62
7
  6
CONTINUOUS
 10
358.9355977445
 20
30.7003413087
 11
358.8199727462
 21
30.8293967193
 12
359.1668477307
 22
30.797132416
 13
359.1668477307
 23
30.797132416
  0
SOLID
  8
0
 62
7
  6
CONTINUOUS
 10
359.1668477307
 20
30.797132416
 11
359.3402852307
 21
30.7003413087
 12
358.9355977445
 22
30.7003413087
 13
358.9355977445
 23
30.7003413087
  0
SOLID
  8
0
 62
7
  6
CONTINUOUS
 10
359.0512227376
 20
30.6358140759
 11
358.9355977445
 21
30.7003413087
 12
359.3402852307
 22
30.7003413087
 13
359.3402852307
 23
30.7003413087
  0
SOLID
  8
0
 62
7
  6
CONTINUOUS
 10
359.3402852307
 20
30.7003413087
 11
359.6871602721
 21
30.6358140759
 12
359.0512227376
 22
30.6358140759
 13
359.0512227376
 23
30.6358140759
  0
SOLID
  8
0
 62
7
  6
CONTINUOUS
 10
359.2246602583
 20
30.5712868422
 11
359.0512227376
 21
30.6358140759
 12
359.6871602721
 22
30.6358140759
 13
359.6871602721
 23
30.6358140759
  0
SOLID
  8
0
 62
7
  6
CONTINUOUS
 10
363.2715352445
 20
31.0229779808
 11
363.3871601343
 21
31.0875057863
 12
363.9652852445
 22
31.0552422931
 13
363.9652852445
 23
31.0552422931
  0
SOLID
  8
0
 62
7
  6
CONTINUOUS
 10
363.9652852445
 20
31.0552422931
 11
363.7340351343
 21
31.0229779808
 12
363.2715352445
 22
31.0229779808
 13
363.2715352445
 23
31.0229779808
  0
SOLID
  8
0
 62
7
  6
CONTINUOUS
 10
363.1559103548
 20
30.8939238094
 11
363.2715352445
 21
31.0229779808
 12
363.7340351343
 22
31.0229779808
 13
363.7340351343
 23
31.0229779808
  0
SOLID
  8
0
 62
7
  6
CONTINUOUS
 10
363.5027853548
 20
30.926187309
 11
363.1559103548
 21
30.8939238094
 12
363.6184102445
 22
30.9907152029
 13
363.6184102445
 23
30.9907152029
  0
SOLID
  8
0
 62
7
  6
CONTINUOUS
 10
363.1559103548
 20
30.8939238094
 11
363.7340351343
 21
31.0229779898
 12
363.6184102445
 22
30.9907152029
 13
363.6184102445
 23
30.9907152029
  0
SOLID
  8
0
 62
7
  6
CONTINUOUS
 10
363.5027853548
 20
30.926187309
 11
363.4449727445
 21
30.8293967193
 12
363.1559103548
 22
30.8939238094
 13
363.1559103548
 23
30.8939238094
  0
SOLID
  8
0
 62
7
  6
CONTINUOUS
 10
363.1559103548
 20
30.797132416
 11
363.1559103548
 21
30.8939238094
 12
363.4449727445
 22
30.8293967193
 13
363.4449727445
 23
30.8293967193
  0
SOLID
  8
0
 62
7
  6
CONTINUOUS
 10
363.4449727445
 20
30.8293967193
 11
363.4449727445
 21
30.7648681127
 12
363.1559103548
 22
30.797132416
 13
363.1559103548
 23
30.797132416
  0
SOLID
  8
0
 62
7
  6
CONTINUOUS
 10
363.2137226343
 20
30.6680782357
 11
363.1559103548
 21
30.797132416
 12
363.4449727445
 22
30.7648681127
 13
363.4449727445
 23
30.7648681127
  0
SOLID
  8
0
 62
7
  6
CONTINUOUS
 10
364.6012229651
 20
30.8616599362
 11
364.890285024
 21
30.7648681127
 12
364.543410024
 22
30.797132416
 13
364.543410024
 23
30.797132416
  0
SOLID
  8
0
 62
7
  6
CONTINUOUS
 10
364.369972524
 20
30.7003410226
 11
364.543410024
 21
30.797132416
 12
364.890285024
 22
30.7648681127
 13
364.890285024
 23
30.7648681127
  0
SOLID
  8
0
 62
7
  6
CONTINUOUS
 10
364.369972524
 20
30.7003410226
 11
364.890285024
 21
30.7648681127
 12
364.6012229651
 22
30.6680782357
 13
364.6012229651
 23
30.6680782357
  0
SOLID
  8
0
 62
7
  6
CONTINUOUS
 10
364.890285024
 20
30.7648681127
 11
364.9480979651
 21
30.6035511455
 12
364.6012229651
 22
30.6680782357
 13
364.6012229651
 23
30.6680782357
  0
SOLID
  8
0
 62
7
  6
CONTINUOUS
 10
364.6590352445
 20
30.5712868422
 11
364.6012229651
 21
30.6680782357
 12
364.9480979651
 22
30.6035511455
 13
364.9480979651
 23
30.6035511455
  0
SOLID
  8
0
 62
7
  6
CONTINUOUS
 10
364.6590352445
 20
30.5712868422
 11
364.9480979651
 21
30.6035511455
 12
364.716847524
 22
30.5067598731
 13
364.716847524
 23
30.5067598731
  0
SOLID
  8
0
 62
7
  6
CONTINUOUS
 10
364.9480979651
 20
30.6035511455
 11
365.0059102445
 21
30.5067598731
 12
364.716847524
 22
30.5067598731
 13
364.716847524
 23
30.5067598731
  0
SOLID
  8
0
 62
7
  6
CONTINUOUS
 10
360.2652852997
 20
30.7326051679
 11
360.3230977445
 21
30.8293966612
 12
360.6121602997
 22
30.8293966612
 13
360.6121602997
 23
30.8293966612
  0
SOLID
  8
0
 62
7
  6
CONTINUOUS
 10
360.6121602997
 20
30.8293966612
 11
360.5543476894
 21
30.7003410226
 12
360.2652852997
 22
30.7326051679
 13
360.2652852997
 23
30.7326051679
  0
SOLID
  8
0
 62
7
  6
CONTINUOUS
 10
360.091847717
 20
30.6680782357
 11
360.2652852997
 21
30.7326051679
 12
360.5543476894
 22
30.7003410226
 13
360.5543476894
 23
30.7003410226
  0
SOLID
  8
0
 62
7
  6
CONTINUOUS
 10
360.091847717
 20
30.6680782357
 11
360.5543476894
 21
30.7003410226
 12
359.6871602721
 22
30.6358139324
 13
359.6871602721
 23
30.6358139324
  0
SOLID
  8
0
 62
7
  6
CONTINUOUS
 10
360.5543476894
 20
30.7003410226
 11
360.3809101894
 21
30.6035511455
 12
359.6871602721
 22
30.6358139324
 13
359.6871602721
 23
30.6358139324
  0
SOLID
  8
0
 62
7
  6
CONTINUOUS
 10
359.2246602583
 20
30.5712868422
 11
359.6871602721
 21
30.6358139324
 12
360.3809101894
 22
30.6035511455
 13
360.3809101894
 23
30.6035511455
  0
SOLID
  8
0
 62
7
  6
CONTINUOUS
 10
359.2246602583
 20
30.5712868422
 11
360.3809101894
 21
30.6035511455
 12
359.3980977583
 22
30.5390224228
 13
359.3980977583
 23
30.5390224228
  0
SOLID
  8
0
 62
7
  6
CONTINUOUS
 10
360.3809101894
 20
30.6035511455
 11
360.1496602445
 21
30.5390224228
 12
359.3980977583
 22
30.5390224228
 13
359.3980977583
 23
30.5390224228
  0
SOLID
  8
0
 62
7
  6
CONTINUOUS
 10
359.744972717
 20
30.5067597521
 11
359.3980977583
 21
30.5390224228
 12
360.1496602445
 22
30.5390224228
 13
360.1496602445
 23
30.5390224228
  0
SOLID
  8
0
 62
7
  6
CONTINUOUS
 10
363.2137226343
 20
30.6680782357
 11
363.4449727445
 21
30.7648681127
 12
363.5027853548
 22
30.7003410226
 13
363.5027853548
 23
30.7003410226
  0
SOLID
  8
0
 62
7
  6
CONTINUOUS
 10
363.5027853548
 20
30.7003410226
 11
363.7340351343
 21
30.6358139324
 12
363.2137226343
 22
30.6680782357
 13
363.2137226343
 23
30.6680782357
  0
SOLID
  8
0
 62
7
  6
CONTINUOUS
 10
363.3871601343
 20
30.5712868422
 11
363.2137226343
 21
30.6680782357
 12
363.7340351343
 22
30.6358139324
 13
363.7340351343
 23
30.6358139324
  0
SOLID
  8
0
 62
7
  6
CONTINUOUS
 10
364.0809101343
 20
30.6358139363
 11
364.369972524
 21
30.7003410226
 12
364.6012229651
 22
30.6680782357
 13
364.6012229651
 23
30.6680782357
  0
SOLID
  8
0
 62
7
  6
CONTINUOUS
 10
364.6012229651
 20
30.6680782357
 11
364.543410024
 21
30.6035511455
 12
364.0809101343
 22
30.6358139363
 13
364.0809101343
 23
30.6358139363
  0
SOLID
  8
0
 62
7
  6
CONTINUOUS
 10
364.543410024
 20
30.6035511455
 11
363.3871601343
 21
30.5712868422
 12
364.0809101343
 22
30.6358139363
 13
364.0809101343
 23
30.6358139363
  0
SOLID
  8
0
 62
7
  6
CONTINUOUS
 10
363.3871601343
 20
30.5712868422
 11
363.7340351343
 21
30.6358139363
 12
364.0809101343
 22
30.6358139363
 13
364.0809101343
 23
30.6358139363
  0
SOLID
  8
0
 62
7
  6
CONTINUOUS
 10
363.3871601343
 20
30.5712868422
 11
364.543410024
 21
30.6035511455
 12
363.5027853548
 22
30.5390225267
 13
363.5027853548
 23
30.5390225267
  0
SOLID
  8
0
 62
7
  6
CONTINUOUS
 10
364.543410024
 20
30.6035511455
 11
364.369972524
 21
30.5390225267
 12
363.5027853548
 22
30.5390225267
 13
363.5027853548
 23
30.5390225267
  0
SOLID
  8
0
 62
7
  6
CONTINUOUS
 10
363.7340351343
 20
30.5067596914
 11
363.5027853548
 21
30.5390225267
 12
364.369972524
 22
30.5390225267
 13
364.369972524
 23
30.5390225267
  0
SOLID
  8
0
 62
7
  6
CONTINUOUS
 10
364.369972524
 20
30.5390225267
 11
364.0809101343
 21
30.5067596914
 12
363.7340351343
 22
30.5067596914
 13
363.7340351343
 23
30.5067596914
  0
SOLID
  8
0
 62
7
  6
CONTINUOUS
 10
368.7637229651
 20
30.6680782357
 11
368.4168479651
 21
30.6358138717
 12
368.6480977445
 22
30.7003410226
 13
368.6480977445
 23
30.7003410226
  0
SOLID
  8
0
 62
7
  6
CONTINUOUS
 10
368.6480977445
 20
30.7003410226
 11
368.4168479651
 21
30.6358138717
 12
368.5902854651
 22
30.7648680521
 13
368.5902854651
 23
30.7648680521
  0
SOLID
  8
0
 62
7
  6
CONTINUOUS
 10
368.4168479651
 20
30.6358138717
 11
368.3012227445
 21
30.7648680521
 12
368.5902854651
 22
30.7648680521
 13
368.5902854651
 23
30.7648680521
  0
SOLID
  8
0
 62
7
  6
CONTINUOUS
 10
368.7637229651
 20
30.6680782357
 11
369.1105979651
 21
30.6358138717
 12
368.4168479651
 22
30.6358138717
 13
368.4168479651
 23
30.6358138717
  0
SOLID
  8
0
 62
7
  6
CONTINUOUS
 10
365.4684104651
 20
30.5067597521
 11
365.4684104651
 21
31.5391977439
 12
365.757472524
 22
30.5067597521
 13
365.757472524
 23
31.5391977439
  0
ENDBLK
  8
0
  6
BYBLOCK
 62
0
  0
BLOCK
  8
0
 62
2
  6
CONTINUOUS
  2
SYMBOL_0_BL0
 70
64
 10
240.8592468615
 20
19.762288695
  0
TEXT
  8
0
 62
7
  6
CONTINUOUS
 10
227.1239507038
 20
19.1357028027
  7
TEXTSTYLE_3
 40
2.7338706658
  1
Ammeraal Beltech
 41
1.0
 51
15.0
 72
0
  0
TEXT
  8
0
 62
7
  6
CONTINUOUS
 10
237.9247515296
 20
16.8621661299
  7
TEXTSTYLE_4
 40
1.0935482663
  1
Innovation & Service in Belting
 41
1.0
 72
0
  0
LINE
  8
0
 62
7
  6
CONTINUOUS
 10
221.0994100525
 20
19.9022961113
 11
221.8775620458
 21
23.5632134089
  0
LINE
  8
0
 62
7
  6
CONTINUOUS
 10
231.9727303357
 20
27.2266073205
 11
222.3653797889
 21
24.1049898993
  0
LINE
  8
0
 62
7
  6
CONTINUOUS
 10
221.3246933848
 20
19.2089453082
 11
228.8317686459
 21
12.4495443822
  0
LINE
  8
0
 62
7
  6
CONTINUOUS
 10
221.5872277955
 20
20.4440726016
 11
232.3954971607
 21
23.9558922005
  0
LINE
  8
0
 62
7
  6
CONTINUOUS
 10
232.3912920235
 20
13.6061036368
 11
223.9458323548
 21
21.2104296785
  0
LINE
  8
0
 62
7
  6
CONTINUOUS
 10
232.9111147433
 20
26.3816822048
 11
231.9345552061
 21
21.7873308023
  0
LINE
  8
0
 62
7
  6
CONTINUOUS
 10
231.2347532584
 20
18.4950214885
 11
230.5483050469
 21
15.2655365641
  0
LINE
  8
0
 62
7
  6
CONTINUOUS
 10
233.5922108419
 20
13.9963058145
 11
234.5484423775
 21
18.4950214885
  0
LINE
  8
0
 62
7
  6
CONTINUOUS
 10
235.2482443252
 20
21.7873308023
 11
235.6924861276
 21
23.8773241617
  0
LINE
  8
0
 62
7
  6
CONTINUOUS
 10
229.5448697213
 20
12.2979700695
 11
233.1043930989
 21
13.4545293241
  0
LINE
  8
0
 62
7
  6
CONTINUOUS
 10
232.685831411
 20
27.0750330078
 11
235.4672027953
 21
24.5706749648
  0
ARC
  8
0
 62
7
  6
CONTINUOUS
 10
222.5906631212
 20
23.4116390962
 40
0.7290321776
 50
108.0
 51
168.0
  0
ARC
  8
0
 62
7
  6
CONTINUOUS
 10
232.198013668
 20
26.5332565175
 40
0.7290321776
 50
348.0
 51
108.0
  0
ARC
  8
0
 62
7
  6
CONTINUOUS
 10
234.9793850522
 20
24.0288984744
 40
0.7290321776
 50
348.0
 51
48.0
  0
ARC
  8
0
 62
7
  6
CONTINUOUS
 10
229.319586389
 20
12.9913208726
 40
0.7290321776
 50
228.0
 51
288.0
  0
ARC
  8
0
 62
7
  6
CONTINUOUS
 10
221.8125111278
 20
19.7507217986
 40
0.7290321776
 50
108.0
 51
228.0
  0
ARC
  8
0
 62
7
  6
CONTINUOUS
 10
232.8791097665
 20
14.1478801272
 40
0.7290321776
 50
228.0
 51
348.0
  0
ENDBLK
  8
0
  6
BYBLOCK
 62
0
  0
ENDSEC
  0
SECTION
  2
ENTITIES
  0
TEXT
  8
0
 62
5
  6
CONTINUOUS
 10
304.937007874
 20
25.636
  7
TEXTSTYLE_2
 40
2.8
  1
Scale :
 41
0.6
 51
0.000019
 72
0
  0
TEXT
  8
0
 62
5
  6
CONTINUOUS
 10
324.937007874
 20
25.636
  7
TEXTSTYLE_2
 40
2.8
  1
Belt type:
 41
0.6
 51
0.000019
 72
0
  0
INSERT
  8
0
 62
2
  6
CONTINUOUS
  2
SYMBOL_0_BL0
 10
240.8592468615
 20
19.762288695
  0
INSERT
  8
0
 62
2
  6
CONTINUOUS
  2
SYMBOL_5_BL1
 10
382.7840918555
 20
35.5067593403
  0
LINE
  8
0
 62
2
  6
CONTINUOUS
 10
218.937007874
 20
30.0
 11
408.937007874
 21
30.0
  0
LINE
  8
0
 62
2
  6
CONTINUOUS
 10
218.937007874
 20
30.0
 11
218.937007874
 21
10.0
  0
LINE
  8
0
 62
2
  6
CONTINUOUS
 10
218.937007874
 20
10.0
 11
408.937007874
 21
10.0
  0
LINE
  8
0
 62
2
  6
CONTINUOUS
 10
303.937007874
 20
30.0
 11
303.937007874
 21
10.0
  0
LINE
  8
0
 62
2
  6
CONTINUOUS
 10
323.937007874
 20
30.0
 11
323.937007874
 21
10.0
  0
LINE
  8
0
 62
2
  6
CONTINUOUS
 10
408.937007874
 20
30.0
 11
408.937007874
 21
10.0
  0
TEXT
  8
0
 62
5
  6
CONTINUOUS
 10
221.937007874
 20
23.303
  7
TEXTSTYLE_5
 40
1.52
  1
                                                                     Ammeraal Beltech Modular A/S
 41
1.0
 72
0
  0
TEXT
  8
0
 62
5
  6
CONTINUOUS
 10
221.937007874
 20
20.595
  7
TEXTSTYLE_5
 40
1.5
  1
                                                                      Hjulmagervej 21, 7100 Vejle,  DK
 41
1.0
 72
0
  0
TEXT
  8
0
 62
5
  6
CONTINUOUS
 10
221.937007874
 20
17.881
  7
TEXTSTYLE_5
 40
1.495
  1
                                                                      tel: 
 41
1.0
 72
0
  0
TEXT
  8
0
 62
5
  6
CONTINUOUS
 10
266.9239544389
 20
17.881
  7
TEXTSTYLE_5
 40
1.51
  1
+45 75723100     fax: +45 75723348
 41
1.0
 72
0
  0
TEXT
  8
0
 62
5
  6
CONTINUOUS
 10
221.937007874
 20
15.177
  7
TEXTSTYLE_5
 40
1.5
  1
                                                                      admin@unichains.dk  www.unichains.com
 41
1.0
 72
0
  0
TEXT
  8
0
 62
5
  6
CONTINUOUS
 10
308.687007874
 20
13.75
  7
TEXTSTYLE_6
 40
5.0
  1
1:1
 41
0.7
 72
1
 11
313.937007874
 21
13.75
  0
TEXT
  8
0
 62
5
  6
CONTINUOUS
 10
326.937007874
 20
13.75
  7
TEXTSTYLE_7
 40
7.5
  1
uni XLB M2-00-HALF-V8mm-K800
 41
0.3813616071
 72
0
  0
LINE
  8
0
 62
7
  6
CONTINUOUS
 10
0.0
 20
0.0
 11
0.0
 21
297.0
  0
LINE
  8
0
 62
7
  6
CONTINUOUS
 10
8.937007874
 20
10.0
 11
8.937007874
 21
287.0
  0
LINE
  8
0
 62
7
  6
CONTINUOUS
 10
0.0
 20
0.0
 11
420.0
 21
0.0
  0
LINE
  8
0
 62
7
  6
CONTINUOUS
 10
408.937007874
 20
10.0
 11
8.937007874
 21
10.0
  0
LINE
  8
0
 62
7
  6
CONTINUOUS
 10
218.937007874
 20
30.0
 11
408.937007874
 21
30.0
  0
LINE
  8
0
 62
7
  6
CONTINUOUS
 10
210.0
 20
297.0
 11
210.0
 21
292.0
  0
LINE
  8
0
 62
7
  6
CONTINUOUS
 10
210.0
 20
0.0
 11
210.0
 21
5.0
  0
LINE
  8
0
 62
7
  6
CONTINUOUS
 10
8.937007874
 20
287.0
 11
408.937007874
 21
287.0
  0
LINE
  8
0
 62
7
  6
CONTINUOUS
 10
0.0
 20
297.0
 11
420.0
 21
297.0
  0
LINE
  8
0
 62
7
  6
CONTINUOUS
 10
408.937007874
 20
287.0
 11
408.937007874
 21
10.0
  0
LINE
  8
0
 62
7
  6
CONTINUOUS
 10
420.0
 20
0.0
 11
420.0
 21
297.0
  0
LINE
  8
0
 62
7
  6
CONTINUOUS
 10
49.0265353418
 20
73.7824298687
 11
49.0265353418
 21
137.8024254249
  0
LINE
  8
0
 62
7
  6
CONTINUOUS
 10
65.372734186
 20
96.0624254249
 11
65.372734186
 21
91.5775524356
  0
LINE
  8
0
 62
7
  6
CONTINUOUS
 10
65.8273352255
 20
140.885870234
 11
65.8273352255
 21
145.0405465707
  0
POLYLINE
  8
0
 62
7
  6
CONTINUOUS
 66
1
 70
0
  0
VERTEX
  8
0
 62
7
  6
CONTINUOUS
 10
65.3565983351
 20
83.0671887111
  0
VERTEX
  8
0
 62
7
  6
CONTINUOUS
 10
65.3635477652
 20
85.0880529166
  0
VERTEX
  8
0
 62
7
  6
CONTINUOUS
 10
65.3686438949
 20
87.2140930895
  0
VERTEX
  8
0
 62
7
  6
CONTINUOUS
 10
65.3717208464
 20
89.3956896015
  0
VERTEX
  8
0
 62
7
  6
CONTINUOUS
 10
65.3727341855
 20
91.5775524356
  0
SEQEND
  0
POLYLINE
  8
0
 62
7
  6
CONTINUOUS
 66
1
 70
0
  0
VERTEX
  8
0
 62
7
  6
CONTINUOUS
 10
65.8437764461
 20
153.7253798601
  0
VERTEX
  8
0
 62
7
  6
CONTINUOUS
 10
65.8366989826
 20
151.6654536476
  0
VERTEX
  8
0
 62
7
  6
CONTINUOUS
 10
65.8315065169
 20
149.4969736204
  0
VERTEX
  8
0
 62
7
  6
CONTINUOUS
 10
65.8283692932
 20
147.2700509946
  0
VERTEX
  8
0
 62
7
  6
CONTINUOUS
 10
65.827335226
 20
145.0405465707
  0
SEQEND
  0
LINE
  8
0
 62
7
  6
CONTINUOUS
 10
65.3449408325
 20
80.3070527602
 11
65.3565983354
 21
83.0671887191
  0
LINE
  8
0
 62
7
  6
CONTINUOUS
 10
65.8581035946
 20
157.157609333
 11
65.8437764458
 21
153.7253798525
  0
LINE
  8
0
 62
7
  6
CONTINUOUS
 10
65.3358021454
 20
78.7761339514
 11
65.3449408325
 21
80.3070527602
  0
LINE
  8
0
 62
7
  6
CONTINUOUS
 10
65.8672330204
 20
158.688292069
 11
65.8581035946
 21
157.157609333
  0
LINE
  8
0
 62
7
  6
CONTINUOUS
 10
65.8769091746
 20
159.9214502097
 11
65.8672330204
 21
158.688292069
  0
LINE
  8
0
 62
7
  6
CONTINUOUS
 10
65.3261167118
 20
77.5428954236
 11
65.3358021454
 21
78.7761339514
  0
LINE
  8
0
 62
7
  6
CONTINUOUS
 10
65.8867627466
 20
160.9100400353
 11
65.8769091746
 21
159.9214502097
  0
LINE
  8
0
 62
7
  6
CONTINUOUS
 10
65.3162548404
 20
76.5543688963
 11
65.3261167118
 21
77.5428954236
  0
LINE
  8
0
 62
7
  6
CONTINUOUS
 10
65.8999038788
 20
161.9271532362
 11
65.8867627466
 21
160.9100400353
  0
LINE
  8
0
 62
7
  6
CONTINUOUS
 10
65.3031029531
 20
75.5373480975
 11
65.3162548404
 21
76.5543688963
  0
LINE
  8
0
 62
7
  6
CONTINUOUS
 10
65.9124468118
 20
162.6490452777
 11
65.8999038788
 21
161.9271532362
  0
LINE
  8
0
 62
7
  6
CONTINUOUS
 10
65.2905488399
 20
74.8154841061
 11
65.3031029531
 21
75.5373480975
  0
LINE
  8
0
 62
7
  6
CONTINUOUS
 10
65.9213727838
 20
163.0397601386
 11
65.9124468118
 21
162.6490452777
  0
LINE
  8
0
 62
7
  6
CONTINUOUS
 10
65.2816145289
 20
74.4247853336
 11
65.2905488399
 21
74.8154841061
  0
LINE
  8
0
 62
7
  6
CONTINUOUS
 10
65.9257515136
 20
163.1979792754
 11
65.9213727838
 21
163.0397601386
  0
LINE
  8
0
 62
7
  6
CONTINUOUS
 10
65.2772318085
 20
74.2665828749
 11
65.2816145289
 21
74.4247853336
  0
POLYLINE
  8
0
 62
7
  6
CONTINUOUS
 66
1
 70
0
  0
VERTEX
  8
0
 62
7
  6
CONTINUOUS
 10
65.3727344292
 20
96.0624254249
  0
VERTEX
  8
0
 62
7
  6
CONTINUOUS
 10
65.4034930524
 20
96.3935074125
  0
VERTEX
  8
0
 62
7
  6
CONTINUOUS
 10
65.5034293308
 20
96.7352862653
  0
VERTEX
  8
0
 62
7
  6
CONTINUOUS
 10
65.6693189759
 20
97.0515435892
  0
VERTEX
  8
0
 62
7
  6
CONTINUOUS
 10
65.8953369531
 20
97.3297760232
  0
VERTEX
  8
0
 62
7
  6
CONTINUOUS
 10
66.1731664797
 20
97.5585448426
  0
VERTEX
  8
0
 62
7
  6
CONTINUOUS
 10
66.4921115406
 20
97.7280722597
  0
VERTEX
  8
0
 62
7
  6
CONTINUOUS
 10
66.8393512851
 20
97.8308509042
  0
VERTEX
  8
0
 62
7
  6
CONTINUOUS
 10
67.1360183062
 20
97.8619923739
  0
SEQEND
  0
POLYLINE
  8
0
 62
7
  6
CONTINUOUS
 66
1
 70
0
  0
VERTEX
  8
0
 62
7
  6
CONTINUOUS
 10
65.6140359142
 20
140.5519370962
  0
VERTEX
  8
0
 62
7
  6
CONTINUOUS
 10
65.5339424174
 20
140.4168419377
  0
VERTEX
  8
0
 62
7
  6
CONTINUOUS
 10
65.3085155903
 20
140.1373401443
  0
VERTEX
  8
0
 62
7
  6
CONTINUOUS
 10
65.0312393715
 20
139.9076285081
  0
VERTEX
  8
0
 62
7
  6
CONTINUOUS
 10
64.8764316409
 20
139.8145653482
  0
VERTEX
  8
0
 62
7
  6
CONTINUOUS
 10
64.5421992345
 20
139.6770940198
  0
VERTEX
  8
0
 62
7
  6
CONTINUOUS
 10
64.1867670015
 20
139.6092967151
  0
SEQEND
  0
LINE
  8
0
 62
7
  6
CONTINUOUS
 10
65.8275336715
 20
140.886660248
 11
65.6140354792
 21
140.5519368864
  0
POLYLINE
  8
0
 62
7
  6
CONTINUOUS
 66
1
 70
0
  0
VERTEX
  8
0
 62
7
  6
CONTINUOUS
 10
67.4753609698
 20
139.884191546
  0
VERTEX
  8
0
 62
7
  6
CONTINUOUS
 10
67.4666590418
 20
139.923624013
  0
VERTEX
  8
0
 62
7
  6
CONTINUOUS
 10
67.4319823276
 20
140.0024011628
  0
VERTEX
  8
0
 62
7
  6
CONTINUOUS
 10
67.3715275364
 20
140.079373909
  0
VERTEX
  8
0
 62
7
  6
CONTINUOUS
 10
67.2940693869
 20
140.1506432888
  0
VERTEX
  8
0
 62
7
  6
CONTINUOUS
 10
67.2074696968
 20
140.2161231528
  0
VERTEX
  8
0
 62
7
  6
CONTINUOUS
 10
67.1157492369
 20
140.2768297655
  0
VERTEX
  8
0
 62
7
  6
CONTINUOUS
 10
67.0210720789
 20
140.3336298215
  0
VERTEX
  8
0
 62
7
  6
CONTINUOUS
 10
66.9247780126
 20
140.3871382268
  0
VERTEX
  8
0
 62
7
  6
CONTINUOUS
 10
66.8278165062
 20
140.4377828459
  0
VERTEX
  8
0
 62
7
  6
CONTINUOUS
 10
66.7309457816
 20
140.4858508654
  0
VERTEX
  8
0
 62
7
  6
CONTINUOUS
 10
66.6348393438
 20
140.5315277022
  0
VERTEX
  8
0
 62
7
  6
CONTINUOUS
 10
66.5401467294
 20
140.5749274512
  0
VERTEX
  8
0
 62
7
  6
CONTINUOUS
 10
66.4935372842
 20
140.5957892246
  0
VERTEX
  8
0
 62
7
  6
CONTINUOUS
 10
66.4022275714
 20
140.6358367922
  0
VERTEX
  8
0
 62
7
  6
CONTINUOUS
 10
66.3140889783
 20
140.6736221185
  0
VERTEX
  8
0
 62
7
  6
CONTINUOUS
 10
66.229940423
 20
140.7090585417
  0
VERTEX
  8
0
 62
7
  6
CONTINUOUS
 10
66.0110333873
 20
140.7997608559
  0
SEQEND
  0
POLYLINE
  8
0
 62
7
  6
CONTINUOUS
 66
1
 70
0
  0
VERTEX
  8
0
 62
7
  6
CONTINUOUS
 10
82.6438076961
 20
74.0285810913
  0
VERTEX
  8
0
 62
7
  6
CONTINUOUS
 10
82.6471387997
 20
73.9486719829
  0
VERTEX
  8
0
 62
7
  6
CONTINUOUS
 10
82.6505754925
 20
73.8766985363
  0
VERTEX
  8
0
 62
7
  6
CONTINUOUS
 10
82.6542091106
 20
73.8112122394
  0
VERTEX
  8
0
 62
7
  6
CONTINUOUS
 10
82.658224664
 20
73.7500238833
  0
VERTEX
  8
0
 62
7
  6
CONTINUOUS
 10
82.6629901512
 20
73.689957515
  0
VERTEX
  8
0
 62
7
  6
CONTINUOUS
 10
82.6692326486
 20
73.6265593554
  0
VERTEX
  8
0
 62
7
  6
CONTINUOUS
 10
82.678498494
 20
73.5529565438
  0
VERTEX
  8
0
 62
7
  6
CONTINUOUS
 10
82.6939356984
 20
73.4599266674
  0
VERTEX
  8
0
 62
7
  6
CONTINUOUS
 10
82.7195769567
 20
73.3446162791
  0
VERTEX
  8
0
 62
7
  6
CONTINUOUS
 10
82.7613327288
 20
73.20449391
  0
VERTEX
  8
0
 62
7
  6
CONTINUOUS
 10
82.8309162916
 20
73.030666274
  0
VERTEX
  8
0
 62
7
  6
CONTINUOUS
 10
82.9350516389
 20
72.8368713874
  0
VERTEX
  8
0
 62
7
  6
CONTINUOUS
 10
83.0749162431
 20
72.6411995819
  0
VERTEX
  8
0
 62
7
  6
CONTINUOUS
 10
83.2524810825
 20
72.4539574983
  0
VERTEX
  8
0
 62
7
  6
CONTINUOUS
 10
83.4685966378
 20
72.2848119986
  0
VERTEX
  8
0
 62
7
  6
CONTINUOUS
 10
83.7234902871
 20
72.1432864018
  0
VERTEX
  8
0
 62
7
  6
CONTINUOUS
 10
84.0153167146
 20
72.0401166195
  0
VERTEX
  8
0
 62
7
  6
CONTINUOUS
 10
84.3395208775
 20
71.986979323
  0
VERTEX
  8
0
 62
7
  6
CONTINUOUS
 10
84.4675070501
 20
71.9824259913
  0
SEQEND
  0
POLYLINE
  8
0
 62
7
  6
CONTINUOUS
 66
1
 70
0
  0
VERTEX
  8
0
 62
7
  6
CONTINUOUS
 10
82.2451451117
 20
141.4024345583
  0
VERTEX
  8
0
 62
7
  6
CONTINUOUS
 10
82.2511560468
 20
141.2555618683
  0
VERTEX
  8
0
 62
7
  6
CONTINUOUS
 10
82.299663956
 20
140.9631162135
  0
VERTEX
  8
0
 62
7
  6
CONTINUOUS
 10
82.3960327861
 20
140.6815673719
  0
VERTEX
  8
0
 62
7
  6
CONTINUOUS
 10
82.5372012201
 20
140.42023248
  0
VERTEX
  8
0
 62
7
  6
CONTINUOUS
 10
82.7197834853
 20
140.1852921731
  0
VERTEX
  8
0
 62
7
  6
CONTINUOUS
 10
82.8251510947
 20
140.0797912777
  0
VERTEX
  8
0
 62
7
  6
CONTINUOUS
 10
83.0602857733
 20
139.8966051551
  0
VERTEX
  8
0
 62
7
  6
CONTINUOUS
 10
83.3225057777
 20
139.7546053636
  0
VERTEX
  8
0
 62
7
  6
CONTINUOUS
 10
83.6055035069
 20
139.6574880017
  0
VERTEX
  8
0
 62
7
  6
CONTINUOUS
 10
83.8999561329
 20
139.6085055957
  0
VERTEX
  8
0
 62
7
  6
CONTINUOUS
 10
84.008568311
 20
139.6028563294
  0
SEQEND
  0
LINE
  8
0
 62
7
  6
CONTINUOUS
 10
82.6372660964
 20
74.2169767444
 11
82.6438076961
 21
74.0285810913
  0
LINE
  8
0
 62
7
  6
CONTINUOUS
 10
82.1358046098
 20
163.2478733647
 11
82.1292630039
 21
163.4362693455
  0
LINE
  8
0
 62
7
  6
CONTINUOUS
 10
82.6323325335
 20
74.3886005372
 11
82.6372660964
 21
74.2169767444
  0
LINE
  8
0
 62
7
  6
CONTINUOUS
 10
82.1407381741
 20
163.0762494077
 11
82.1358046098
 21
163.2478733647
  0
LINE
  8
0
 62
7
  6
CONTINUOUS
 10
82.6256042338
 20
74.6667091773
 11
82.6323325335
 21
74.3886005372
  0
LINE
  8
0
 62
7
  6
CONTINUOUS
 10
82.1474664673
 20
162.7981408748
 11
82.1407381741
 21
163.0762494077
  0
LINE
  8
0
 62
7
  6
CONTINUOUS
 10
82.6186390075
 20
75.0123458309
 11
82.6256042338
 21
74.6667091773
  0
LINE
  8
0
 62
7
  6
CONTINUOUS
 10
82.1544316818
 20
162.4525047009
 11
82.1474664673
 21
162.7981408748
  0
LINE
  8
0
 62
7
  6
CONTINUOUS
 10
82.6113996189
 20
75.4399512822
 11
82.6186390075
 21
75.0123458309
  0
LINE
  8
0
 62
7
  6
CONTINUOUS
 10
82.1616710714
 20
162.0248991212
 11
82.1544316818
 21
162.4525047009
  0
LINE
  8
0
 62
7
  6
CONTINUOUS
 10
82.6039507295
 20
75.9614598725
 11
82.6113996189
 21
75.4399512822
  0
LINE
  8
0
 62
7
  6
CONTINUOUS
 10
82.1691199761
 20
161.5033892973
 11
82.1616710714
 21
162.0248991212
  0
LINE
  8
0
 62
7
  6
CONTINUOUS
 10
82.5964257191
 20
76.5850549379
 11
82.6039507295
 21
75.9614598725
  0
LINE
  8
0
 62
7
  6
CONTINUOUS
 10
82.1766450059
 20
160.8797922116
 11
82.1691199761
 21
161.5033892973
  0
LINE
  8
0
 62
7
  6
CONTINUOUS
 10
82.5889201795
 20
77.3227292503
 11
82.5964257191
 21
76.5850549379
  0
LINE
  8
0
 62
7
  6
CONTINUOUS
 10
82.1841505618
 20
160.1421154063
 11
82.1766450059
 21
160.8797922116
  0
LINE
  8
0
 62
7
  6
CONTINUOUS
 10
82.5814628918
 20
78.1989382294
 11
82.5889201795
 21
77.3227292503
  0
LINE
  8
0
 62
7
  6
CONTINUOUS
 10
82.1916078461
 20
159.2659056494
 11
82.1841505618
 21
160.1421154063
  0
LINE
  8
0
 62
7
  6
CONTINUOUS
 10
82.5741792524
 20
79.2390346484
 11
82.5814628918
 21
78.1989382294
  0
LINE
  8
0
 62
7
  6
CONTINUOUS
 10
82.1988914625
 20
158.2258112195
 11
82.1916078461
 21
159.2659056494
  0
LINE
  8
0
 62
7
  6
CONTINUOUS
 10
82.5673153722
 20
80.4640663447
 11
82.5741792524
 21
79.2390346484
  0
LINE
  8
0
 62
7
  6
CONTINUOUS
 10
82.205755325
 20
157.000781749
 11
82.1988914625
 21
158.2258112195
  0
LINE
  8
0
 62
7
  6
CONTINUOUS
 10
82.2103302476
 20
155.9740770661
 11
82.227651038
 21
151.6290017375
  0
LINE
  8
0
 62
7
  6
CONTINUOUS
 10
82.2103302469
 20
155.9740770387
 11
82.205755325
 21
157.000781749
  0
LINE
  8
0
 62
7
  6
CONTINUOUS
 10
82.5627404365
 20
81.4907738
 11
82.5673153722
 21
80.4640663447
  0
LINE
  8
0
 62
7
  6
CONTINUOUS
 10
82.562740436
 20
81.4907737836
 11
82.5428668773
 21
86.4762338991
  0
POLYLINE
  8
0
 62
7
  6
CONTINUOUS
 66
1
 70
0
  0
VERTEX
  8
0
 62
7
  6
CONTINUOUS
 10
82.2441067062
 20
144.7386054108
  0
VERTEX
  8
0
 62
7
  6
CONTINUOUS
 10
82.2407556548
 20
147.1145038359
  0
VERTEX
  8
0
 62
7
  6
CONTINUOUS
 10
82.2352097629
 20
149.4293524882
  0
VERTEX
  8
0
 62
7
  6
CONTINUOUS
 10
82.2276510377
 20
151.6290017448
  0
SEQEND
  0
POLYLINE
  8
0
 62
7
  6
CONTINUOUS
 66
1
 70
0
  0
VERTEX
  8
0
 62
7
  6
CONTINUOUS
 10
82.5261165528
 20
93.4927332744
  0
VERTEX
  8
0
 62
7
  6
CONTINUOUS
 10
82.5295300504
 20
91.071660896
  0
VERTEX
  8
0
 62
7
  6
CONTINUOUS
 10
82.5351757116
 20
88.7146170227
  0
VERTEX
  8
0
 62
7
  6
CONTINUOUS
 10
82.5428668777
 20
86.4762338927
  0
SEQEND
  0
LINE
  8
0
 62
7
  6
CONTINUOUS
 10
82.2441067062
 20
144.7386054108
 11
82.2452136508
 21
141.4024254249
  0
LINE
  8
0
 62
7
  6
CONTINUOUS
 10
82.5261165528
 20
93.4927332744
 11
82.5249881299
 21
96.0624254249
  0
POLYLINE
  8
0
 62
7
  6
CONTINUOUS
 66
1
 70
0
  0
VERTEX
  8
0
 62
7
  6
CONTINUOUS
 10
82.1292630039
 20
163.4362693455
  0
VERTEX
  8
0
 62
7
  6
CONTINUOUS
 10
82.125931902
 20
163.5161784506
  0
VERTEX
  8
0
 62
7
  6
CONTINUOUS
 10
82.1224952015
 20
163.5881521357
  0
VERTEX
  8
0
 62
7
  6
CONTINUOUS
 10
82.1188615777
 20
163.6536385109
  0
VERTEX
  8
0
 62
7
  6
CONTINUOUS
 10
82.1148460306
 20
163.7148268227
  0
VERTEX
  8
0
 62
7
  6
CONTINUOUS
 10
82.1100805111
 20
163.7748935919
  0
VERTEX
  8
0
 62
7
  6
CONTINUOUS
 10
82.1038380433
 20
163.8382913981
  0
VERTEX
  8
0
 62
7
  6
CONTINUOUS
 10
82.0945722519
 20
163.911893874
  0
VERTEX
  8
0
 62
7
  6
CONTINUOUS
 10
82.0791349581
 20
164.0049243476
  0
VERTEX
  8
0
 62
7
  6
CONTINUOUS
 10
82.0534932164
 20
164.1202365738
  0
VERTEX
  8
0
 62
7
  6
CONTINUOUS
 10
82.011737498
 20
164.2603582576
  0
VERTEX
  8
0
 62
7
  6
CONTINUOUS
 10
81.9421540699
 20
164.4341852512
  0
VERTEX
  8
0
 62
7
  6
CONTINUOUS
 10
81.8380187921
 20
164.6279798508
  0
VERTEX
  8
0
 62
7
  6
CONTINUOUS
 10
81.6981542221
 20
164.8236515182
  0
VERTEX
  8
0
 62
7
  6
CONTINUOUS
 10
81.5205894013
 20
165.0108935224
  0
VERTEX
  8
0
 62
7
  6
CONTINUOUS
 10
81.3044738688
 20
165.1800389615
  0
VERTEX
  8
0
 62
7
  6
CONTINUOUS
 10
81.0495802498
 20
165.3215645104
  0
VERTEX
  8
0
 62
7
  6
CONTINUOUS
 10
80.7577538646
 20
165.4247342567
  0
VERTEX
  8
0
 62
7
  6
CONTINUOUS
 10
80.4335497568
 20
165.477871533
  0
VERTEX
  8
0
 62
7
  6
CONTINUOUS
 10
80.3055636002
 20
165.4824248625
  0
SEQEND
  0
LINE
  8
0
 62
7
  6
CONTINUOUS
 10
99.3354540963
 20
162.7913285036
 11
99.3231225105
 21
162.1333815964
  0
LINE
  8
0
 62
7
  6
CONTINUOUS
 10
99.3428365873
 20
163.0950028371
 11
99.3354540963
 21
162.7913285036
  0
LINE
  8
0
 62
7
  6
CONTINUOUS
 10
99.3486587312
 20
163.2916226595
 11
99.3428365873
 21
163.0950028371
  0
POLYLINE
  8
0
 62
7
  6
CONTINUOUS
 66
1
 70
0
  0
VERTEX
  8
0
 62
7
  6
CONTINUOUS
 10
99.2246514584
 20
141.4045838626
  0
VERTEX
  8
0
 62
7
  6
CONTINUOUS
 10
99.2183273203
 20
141.2556930778
  0
VERTEX
  8
0
 62
7
  6
CONTINUOUS
 10
99.1602052914
 20
140.9284051906
  0
VERTEX
  8
0
 62
7
  6
CONTINUOUS
 10
99.0446816103
 20
140.6204342372
  0
VERTEX
  8
0
 62
7
  6
CONTINUOUS
 10
98.9662798457
 20
140.4754032564
  0
VERTEX
  8
0
 62
7
  6
CONTINUOUS
 10
98.7697043509
 20
140.2076748385
  0
VERTEX
  8
0
 62
7
  6
CONTINUOUS
 10
98.5226759514
 20
139.9769069392
  0
VERTEX
  8
0
 62
7
  6
CONTINUOUS
 10
98.4003321057
 20
139.8903492617
  0
SEQEND
  0
POLYLINE
  8
0
 62
7
  6
CONTINUOUS
 66
1
 70
0
  0
VERTEX
  8
0
 62
7
  6
CONTINUOUS
 10
230.6955636465
 20
71.982425991
  0
VERTEX
  8
0
 62
7
  6
CONTINUOUS
 10
231.0262467845
 20
72.0130445014
  0
VERTEX
  8
0
 62
7
  6
CONTINUOUS
 10
231.3666219131
 20
72.1121110816
  0
VERTEX
  8
0
 62
7
  6
CONTINUOUS
 10
231.6617594459
 20
72.2635173466
  0
VERTEX
  8
0
 62
7
  6
CONTINUOUS
 10
231.9070770487
 20
72.4507568033
  0
VERTEX
  8
0
 62
7
  6
CONTINUOUS
 10
232.1020353569
 20
72.6583241877
  0
VERTEX
  8
0
 62
7
  6
CONTINUOUS
 10
232.2481443272
 20
72.870205975
  0
VERTEX
  8
0
 62
7
  6
CONTINUOUS
 10
232.3505741533
 20
73.0719307103
  0
VERTEX
  8
0
 62
7
  6
CONTINUOUS
 10
232.4164542818
 20
73.2494308547
  0
VERTEX
  8
0
 62
7
  6
CONTINUOUS
 10
232.4532402422
 20
73.3845976844
  0
VERTEX
  8
0
 62
7
  6
CONTINUOUS
 10
232.4743292407
 20
73.4883706322
  0
VERTEX
  8
0
 62
7
  6
CONTINUOUS
 10
232.4871591997
 20
73.5716785155
  0
VERTEX
  8
0
 62
7
  6
CONTINUOUS
 10
232.4951613295
 20
73.6388405933
  0
VERTEX
  8
0
 62
7
  6
CONTINUOUS
 10
232.5007171838
 20
73.6973086701
  0
VERTEX
  8
0
 62
7
  6
CONTINUOUS
 10
232.5050479291
 20
73.752849079
  0
VERTEX
  8
0
 62
7
  6
CONTINUOUS
 10
232.5087544262
 20
73.8094346798
  0
VERTEX
  8
0
 62
7
  6
CONTINUOUS
 10
232.5121305247
 20
73.8696520328
  0
VERTEX
  8
0
 62
7
  6
CONTINUOUS
 10
232.5153253617
 20
73.9352188893
  0
VERTEX
  8
0
 62
7
  6
CONTINUOUS
 10
232.5184442693
 20
74.0079776225
  0
VERTEX
  8
0
 62
7
  6
CONTINUOUS
 10
232.5247618482
 20
74.1840300397
  0
SEQEND
  0
POLYLINE
  8
0
 62
7
  6
CONTINUOUS
 66
1
 70
0
  0
VERTEX
  8
0
 62
7
  6
CONTINUOUS
 10
197.2755636465
 20
71.982425991
  0
VERTEX
  8
0
 62
7
  6
CONTINUOUS
 10
197.6062467845
 20
72.0130445014
  0
VERTEX
  8
0
 62
7
  6
CONTINUOUS
 10
197.9466219131
 20
72.1121110816
  0
VERTEX
  8
0
 62
7
  6
CONTINUOUS
 10
198.2417594459
 20
72.2635173466
  0
VERTEX
  8
0
 62
7
  6
CONTINUOUS
 10
198.4870770487
 20
72.4507568033
  0
VERTEX
  8
0
 62
7
  6
CONTINUOUS
 10
198.6820353569
 20
72.6583241877
  0
VERTEX
  8
0
 62
7
  6
CONTINUOUS
 10
198.8281443272
 20
72.8702059751
  0
VERTEX
  8
0
 62
7
  6
CONTINUOUS
 10
198.9305741533
 20
73.0719307103
  0
VERTEX
  8
0
 62
7
  6
CONTINUOUS
 10
198.9964542818
 20
73.2494308547
  0
VERTEX
  8
0
 62
7
  6
CONTINUOUS
 10
199.0332402422
 20
73.3845976844
  0
VERTEX
  8
0
 62
7
  6
CONTINUOUS
 10
199.0543292407
 20
73.4883706322
  0
VERTEX
  8
0
 62
7
  6
CONTINUOUS
 10
199.0671591997
 20
73.5716785155
  0
VERTEX
  8
0
 62
7
  6
CONTINUOUS
 10
199.0751613295
 20
73.6388405933
  0
VERTEX
  8
0
 62
7
  6
CONTINUOUS
 10
199.0807171838
 20
73.6973086701
  0
VERTEX
  8
0
 62
7
  6
CONTINUOUS
 10
199.0850479291
 20
73.752849079
  0
VERTEX
  8
0
 62
7
  6
CONTINUOUS
 10
199.0887544262
 20
73.8094346798
  0
VERTEX
  8
0
 62
7
  6
CONTINUOUS
 10
199.0921305247
 20
73.8696520328
  0
VERTEX
  8
0
 62
7
  6
CONTINUOUS
 10
199.0953253617
 20
73.9352188893
  0
VERTEX
  8
0
 62
7
  6
CONTINUOUS
 10
199.0984442693
 20
74.0079776225
  0
VERTEX
  8
0
 62
7
  6
CONTINUOUS
 10
199.1047618482
 20
74.1840300397
  0
SEQEND
  0
POLYLINE
  8
0
 62
7
  6
CONTINUOUS
 66
1
 70
0
  0
VERTEX
  8
0
 62
7
  6
CONTINUOUS
 10
98.9485379038
 20
88.5669169132
  0
VERTEX
  8
0
 62
7
  6
CONTINUOUS
 10
98.9567795091
 20
90.9678395478
  0
VERTEX
  8
0
 62
7
  6
CONTINUOUS
 10
98.9628067863
 20
93.4940770931
  0
VERTEX
  8
0
 62
7
  6
CONTINUOUS
 10
98.9663999178
 20
96.0607623773
  0
SEQEND
  0
POLYLINE
  8
0
 62
7
  6
CONTINUOUS
 66
1
 70
0
  0
VERTEX
  8
0
 62
7
  6
CONTINUOUS
 10
99.2420024069
 20
148.2631671834
  0
VERTEX
  8
0
 62
7
  6
CONTINUOUS
 10
99.234331916
 20
146.0618599064
  0
VERTEX
  8
0
 62
7
  6
CONTINUOUS
 10
99.2284794451
 20
143.7497796425
  0
VERTEX
  8
0
 62
7
  6
CONTINUOUS
 10
99.2246517017
 20
141.4045835737
  0
SEQEND
  0
LINE
  8
0
 62
7
  6
CONTINUOUS
 10
99.2781035946
 20
157.157609333
 11
99.2420024065
 21
148.2631671855
  0
LINE
  8
0
 62
7
  6
CONTINUOUS
 10
98.9149614069
 20
80.3061288058
 11
98.948537904
 21
88.5669169223
  0
LINE
  8
0
 62
7
  6
CONTINUOUS
 10
99.2872330204
 20
158.688292069
 11
99.2781035946
 21
157.157609333
  0
LINE
  8
0
 62
7
  6
CONTINUOUS
 10
98.9058399201
 20
78.7768854523
 11
98.9149614069
 21
80.3061288058
  0
LINE
  8
0
 62
7
  6
CONTINUOUS
 10
99.2969091746
 20
159.9214502097
 11
99.2872330204
 21
158.688292069
  0
LINE
  8
0
 62
7
  6
CONTINUOUS
 10
98.8961701126
 20
77.5443678494
 11
98.9058399201
 21
78.7768854523
  0
LINE
  8
0
 62
7
  6
CONTINUOUS
 10
99.3067627466
 20
160.9100400353
 11
99.2969091746
 21
159.9214502097
  0
LINE
  8
0
 62
7
  6
CONTINUOUS
 10
98.886317682
 20
76.555682098
 11
98.8961701126
 21
77.5443678494
  0
LINE
  8
0
 62
7
  6
CONTINUOUS
 10
98.8731767234
 20
75.5383570633
 11
98.886317682
 21
76.555682098
  0
POLYLINE
  8
0
 62
7
  6
CONTINUOUS
 66
1
 70
0
  0
VERTEX
  8
0
 62
7
  6
CONTINUOUS
 10
99.3231225105
 20
162.1333815964
  0
VERTEX
  8
0
 62
7
  6
CONTINUOUS
 10
99.3199038788
 20
161.9271532362
  0
VERTEX
  8
0
 62
7
  6
CONTINUOUS
 10
99.3067627466
 20
160.9100400353
  0
SEQEND
  0
LINE
  8
0
 62
7
  6
CONTINUOUS
 10
98.8606381796
 20
74.8165093494
 11
98.8731767234
 21
75.5383570633
  0
LINE
  8
0
 62
7
  6
CONTINUOUS
 10
98.8517170492
 20
74.4258292897
 11
98.8606381796
 21
74.8165093494
  0
LINE
  8
0
 62
7
  6
CONTINUOUS
 10
98.8473399775
 20
74.2675740433
 11
98.8517170492
 21
74.4258292897
  0
POLYLINE
  8
0
 62
7
  6
CONTINUOUS
 66
1
 70
0
  0
VERTEX
  8
0
 62
7
  6
CONTINUOUS
 10
98.966400339
 20
96.0607622038
  0
VERTEX
  8
0
 62
7
  6
CONTINUOUS
 10
99.001084636
 20
96.4110486118
  0
VERTEX
  8
0
 62
7
  6
CONTINUOUS
 10
99.1123674352
 20
96.7698060224
  0
VERTEX
  8
0
 62
7
  6
CONTINUOUS
 10
99.1955484754
 20
96.9388165761
  0
VERTEX
  8
0
 62
7
  6
CONTINUOUS
 10
99.4126924193
 20
97.2466863591
  0
VERTEX
  8
0
 62
7
  6
CONTINUOUS
 10
99.6714894703
 20
97.4893756161
  0
SEQEND
  0
POLYLINE
  8
0
 62
7
  6
CONTINUOUS
 66
1
 70
0
  0
VERTEX
  8
0
 62
7
  6
CONTINUOUS
 10
130.4355636053
 20
71.9824259913
  0
VERTEX
  8
0
 62
7
  6
CONTINUOUS
 10
130.7680983819
 20
72.0133913567
  0
VERTEX
  8
0
 62
7
  6
CONTINUOUS
 10
131.1087324963
 20
72.1129600261
  0
VERTEX
  8
0
 62
7
  6
CONTINUOUS
 10
131.4039484903
 20
72.2649109451
  0
VERTEX
  8
0
 62
7
  6
CONTINUOUS
 10
131.6491794537
 20
72.4526705199
  0
VERTEX
  8
0
 62
7
  6
CONTINUOUS
 10
131.843910709
 20
72.6606709172
  0
VERTEX
  8
0
 62
7
  6
CONTINUOUS
 10
131.989681182
 20
72.8728196947
  0
VERTEX
  8
0
 62
7
  6
CONTINUOUS
 10
132.0917326411
 20
73.0746212621
  0
VERTEX
  8
0
 62
7
  6
CONTINUOUS
 10
132.1572191633
 20
73.2518783915
  0
VERTEX
  8
0
 62
7
  6
CONTINUOUS
 10
132.1936876242
 20
73.3865289229
  0
VERTEX
  8
0
 62
7
  6
CONTINUOUS
 10
132.2146732405
 20
73.4903412383
  0
VERTEX
  8
0
 62
7
  6
CONTINUOUS
 10
132.2274635796
 20
73.5739622016
  0
VERTEX
  8
0
 62
7
  6
CONTINUOUS
 10
132.2354505874
 20
73.6415994678
  0
VERTEX
  8
0
 62
7
  6
CONTINUOUS
 10
132.2410063164
 20
73.7007103114
  0
VERTEX
  8
0
 62
7
  6
CONTINUOUS
 10
132.2453417123
 20
73.7570046312
  0
VERTEX
  8
0
 62
7
  6
CONTINUOUS
 10
132.2490456854
 20
73.8142862787
  0
VERTEX
  8
0
 62
7
  6
CONTINUOUS
 10
132.2523991871
 20
73.8748327803
  0
VERTEX
  8
0
 62
7
  6
CONTINUOUS
 10
132.2555387402
 20
73.9399142191
  0
VERTEX
  8
0
 62
7
  6
CONTINUOUS
 10
132.25855176
 20
74.0106463252
  0
VERTEX
  8
0
 62
7
  6
CONTINUOUS
 10
132.2614976303
 20
74.0881152106
  0
VERTEX
  8
0
 62
7
  6
CONTINUOUS
 10
132.2673196991
 20
74.2668894437
  0
SEQEND
  0
POLYLINE
  8
0
 62
7
  6
CONTINUOUS
 66
1
 70
0
  0
VERTEX
  8
0
 62
7
  6
CONTINUOUS
 10
163.8555636465
 20
71.982425991
  0
VERTEX
  8
0
 62
7
  6
CONTINUOUS
 10
164.1862467845
 20
72.0130445014
  0
VERTEX
  8
0
 62
7
  6
CONTINUOUS
 10
164.5266219131
 20
72.1121110816
  0
VERTEX
  8
0
 62
7
  6
CONTINUOUS
 10
164.8217594459
 20
72.2635173466
  0
VERTEX
  8
0
 62
7
  6
CONTINUOUS
 10
165.0670770487
 20
72.4507568033
  0
VERTEX
  8
0
 62
7
  6
CONTINUOUS
 10
165.2620353569
 20
72.6583241877
  0
VERTEX
  8
0
 62
7
  6
CONTINUOUS
 10
165.4081443272
 20
72.8702059751
  0
VERTEX
  8
0
 62
7
  6
CONTINUOUS
 10
165.5105741533
 20
73.0719307103
  0
VERTEX
  8
0
 62
7
  6
CONTINUOUS
 10
165.5764542818
 20
73.2494308547
  0
VERTEX
  8
0
 62
7
  6
CONTINUOUS
 10
165.6132402422
 20
73.3845976844
  0
VERTEX
  8
0
 62
7
  6
CONTINUOUS
 10
165.6343292407
 20
73.4883706322
  0
VERTEX
  8
0
 62
7
  6
CONTINUOUS
 10
165.6471591997
 20
73.5716785155
  0
VERTEX
  8
0
 62
7
  6
CONTINUOUS
 10
165.6551613295
 20
73.6388405933
  0
VERTEX
  8
0
 62
7
  6
CONTINUOUS
 10
165.6607171838
 20
73.6973086701
  0
VERTEX
  8
0
 62
7
  6
CONTINUOUS
 10
165.6650479291
 20
73.752849079
  0
VERTEX
  8
0
 62
7
  6
CONTINUOUS
 10
165.6687544262
 20
73.8094346798
  0
VERTEX
  8
0
 62
7
  6
CONTINUOUS
 10
165.6721305247
 20
73.8696520328
  0
VERTEX
  8
0
 62
7
  6
CONTINUOUS
 10
165.6753253617
 20
73.9352188893
  0
VERTEX
  8
0
 62
7
  6
CONTINUOUS
 10
165.6784442693
 20
74.0079776225
  0
VERTEX
  8
0
 62
7
  6
CONTINUOUS
 10
165.6847618482
 20
74.1840300397
  0
SEQEND
  0
LINE
  8
SURFACE
 62
7
  6
CONTINUOUS
 10
230.6955637841
 20
71.9824254249
 11
218.1475068995
 21
71.9824254249
  0
LINE
  8
SURFACE
 62
7
  6
CONTINUOUS
 10
197.2755637841
 20
71.9824254249
 11
184.7275068995
 21
71.9824254249
  0
LINE
  8
SURFACE
 62
7
  6
CONTINUOUS
 10
163.8555637841
 20
71.9824254249
 11
151.3075068995
 21
71.9824254249
  0
LINE
  8
0
 62
7
  6
CONTINUOUS
 10
63.4454588897
 20
71.9824254249
 11
50.8265353418
 21
71.9824254249
  0
LINE
  8
0
 62
7
  6
CONTINUOUS
 10
84.467506957
 20
71.9824254249
 11
97.0155637269
 21
71.9824254249
  0
LINE
  8
0
 62
7
  6
CONTINUOUS
 10
117.8875069567
 20
71.9824254249
 11
130.4355637267
 21
71.9824254249
  0
POLYLINE
  8
0
 62
7
  6
CONTINUOUS
 66
1
 70
0
  0
VERTEX
  8
0
 62
7
  6
CONTINUOUS
 10
98.4003322863
 20
139.8903490937
  0
VERTEX
  8
0
 62
7
  6
CONTINUOUS
 10
98.1024757976
 20
139.7351044297
  0
VERTEX
  8
0
 62
7
  6
CONTINUOUS
 10
97.7585940027
 20
139.6336657047
  0
SEQEND
  0
POLYLINE
  8
0
 62
7
  6
CONTINUOUS
 66
1
 70
0
  0
VERTEX
  8
0
 62
7
  6
CONTINUOUS
 10
63.4454587344
 20
71.9824259872
  0
VERTEX
  8
0
 62
7
  6
CONTINUOUS
 10
63.7778182134
 20
72.0133583978
  0
VERTEX
  8
0
 62
7
  6
CONTINUOUS
 10
64.1183272237
 20
72.1128388663
  0
VERTEX
  8
0
 62
7
  6
CONTINUOUS
 10
64.413465445
 20
72.264669535
  0
VERTEX
  8
0
 62
7
  6
CONTINUOUS
 10
64.6586661412
 20
72.4522975775
  0
VERTEX
  8
0
 62
7
  6
CONTINUOUS
 10
64.853410986
 20
72.6601748682
  0
VERTEX
  8
0
 62
7
  6
CONTINUOUS
 10
64.9992336823
 20
72.8722337564
  0
VERTEX
  8
0
 62
7
  6
CONTINUOUS
 10
65.1013541767
 20
73.0739803736
  0
VERTEX
  8
0
 62
7
  6
CONTINUOUS
 10
65.1669209797
 20
73.2512503342
  0
VERTEX
  8
0
 62
7
  6
CONTINUOUS
 10
65.2034701408
 20
73.3860267519
  0
VERTEX
  8
0
 62
7
  6
CONTINUOUS
 10
65.2244984956
 20
73.489913344
  0
VERTEX
  8
0
 62
7
  6
CONTINUOUS
 10
65.2373167014
 20
73.5736002729
  0
VERTEX
  8
0
 62
7
  6
CONTINUOUS
 10
65.2453212549
 20
73.6412912853
  0
VERTEX
  8
0
 62
7
  6
CONTINUOUS
 10
65.2508876639
 20
73.70043496
  0
VERTEX
  8
0
 62
7
  6
CONTINUOUS
 10
65.255229934
 20
73.7567442668
  0
VERTEX
  8
0
 62
7
  6
CONTINUOUS
 10
65.2589388279
 20
73.8140289875
  0
VERTEX
  8
0
 62
7
  6
CONTINUOUS
 10
65.2622963436
 20
73.8745733702
  0
VERTEX
  8
0
 62
7
  6
CONTINUOUS
 10
65.2654394468
 20
73.9396512643
  0
VERTEX
  8
0
 62
7
  6
CONTINUOUS
 10
65.2684555792
 20
74.0103754808
  0
VERTEX
  8
0
 62
7
  6
CONTINUOUS
 10
65.2714043222
 20
74.0878337807
  0
VERTEX
  8
0
 62
7
  6
CONTINUOUS
 10
65.2772318085
 20
74.2665828749
  0
SEQEND
  0
POLYLINE
  8
0
 62
7
  6
CONTINUOUS
 66
1
 70
0
  0
VERTEX
  8
0
 62
7
  6
CONTINUOUS
 10
97.0155635832
 20
71.9824259887
  0
VERTEX
  8
0
 62
7
  6
CONTINUOUS
 10
97.3461732278
 20
72.0130307675
  0
VERTEX
  8
0
 62
7
  6
CONTINUOUS
 10
97.6875054217
 20
72.112466087
  0
VERTEX
  8
0
 62
7
  6
CONTINUOUS
 10
97.9833090881
 20
72.2645034355
  0
VERTEX
  8
0
 62
7
  6
CONTINUOUS
 10
98.2289852513
 20
72.4524934999
  0
VERTEX
  8
0
 62
7
  6
CONTINUOUS
 10
98.4240072053
 20
72.6607918919
  0
VERTEX
  8
0
 62
7
  6
CONTINUOUS
 10
98.5699100285
 20
72.8732097583
  0
VERTEX
  8
0
 62
7
  6
CONTINUOUS
 10
98.6719990863
 20
73.0752417716
  0
VERTEX
  8
0
 62
7
  6
CONTINUOUS
 10
98.7374428797
 20
73.2525965366
  0
VERTEX
  8
0
 62
7
  6
CONTINUOUS
 10
98.7737932608
 20
73.3869862784
  0
VERTEX
  8
0
 62
7
  6
CONTINUOUS
 10
98.7947419929
 20
73.4907364841
  0
VERTEX
  8
0
 62
7
  6
CONTINUOUS
 10
98.8075153262
 20
73.5743522397
  0
VERTEX
  8
0
 62
7
  6
CONTINUOUS
 10
98.8154902404
 20
73.6419798326
  0
VERTEX
  8
0
 62
7
  6
CONTINUOUS
 10
98.8210392204
 20
73.7010999725
  0
VERTEX
  8
0
 62
7
  6
CONTINUOUS
 10
98.8253713706
 20
73.7574271265
  0
VERTEX
  8
0
 62
7
  6
CONTINUOUS
 10
98.829073584
 20
73.8147542783
  0
VERTEX
  8
0
 62
7
  6
CONTINUOUS
 10
98.8324254889
 20
73.8753431632
  0
VERTEX
  8
0
 62
7
  6
CONTINUOUS
 10
98.8355631869
 20
73.9404547603
  0
VERTEX
  8
0
 62
7
  6
CONTINUOUS
 10
98.8385748946
 20
74.0112221296
  0
VERTEX
  8
0
 62
7
  6
CONTINUOUS
 10
98.8415197502
 20
74.0887290218
  0
VERTEX
  8
0
 62
7
  6
CONTINUOUS
 10
98.8473399775
 20
74.2675740433
  0
SEQEND
  0
POLYLINE
  8
0
 62
7
  6
CONTINUOUS
 66
1
 70
0
  0
VERTEX
  8
0
 62
7
  6
CONTINUOUS
 10
115.6836407266
 20
141.4024336954
  0
VERTEX
  8
0
 62
7
  6
CONTINUOUS
 10
115.69102013
 20
141.246766535
  0
VERTEX
  8
0
 62
7
  6
CONTINUOUS
 10
115.7458450347
 20
140.9401292226
  0
VERTEX
  8
0
 62
7
  6
CONTINUOUS
 10
115.8510875191
 20
140.6505354567
  0
VERTEX
  8
0
 62
7
  6
CONTINUOUS
 10
116.0010162017
 20
140.3872948298
  0
VERTEX
  8
0
 62
7
  6
CONTINUOUS
 10
116.1892760583
 20
140.1563899114
  0
VERTEX
  8
0
 62
7
  6
CONTINUOUS
 10
116.2959000239
 20
140.0543295508
  0
VERTEX
  8
0
 62
7
  6
CONTINUOUS
 10
116.5302429936
 20
139.8792117722
  0
VERTEX
  8
0
 62
7
  6
CONTINUOUS
 10
116.78757445
 20
139.7450986987
  0
VERTEX
  8
0
 62
7
  6
CONTINUOUS
 10
117.0629119721
 20
139.6539292316
  0
VERTEX
  8
0
 62
7
  6
CONTINUOUS
 10
117.3479453771
 20
139.6081067593
  0
VERTEX
  8
0
 62
7
  6
CONTINUOUS
 10
117.4535888532
 20
139.6028138192
  0
SEQEND
  0
POLYLINE
  8
0
 62
7
  6
CONTINUOUS
 66
1
 70
0
  0
VERTEX
  8
0
 62
7
  6
CONTINUOUS
 10
116.0638284576
 20
74.028050704
  0
VERTEX
  8
0
 62
7
  6
CONTINUOUS
 10
116.0671605313
 20
73.9481842584
  0
VERTEX
  8
0
 62
7
  6
CONTINUOUS
 10
116.0705981102
 20
73.8762582818
  0
VERTEX
  8
0
 62
7
  6
CONTINUOUS
 10
116.0742332139
 20
73.8108116522
  0
VERTEX
  8
0
 62
7
  6
CONTINUOUS
 10
116.0782520533
 20
73.7496425527
  0
VERTEX
  8
0
 62
7
  6
CONTINUOUS
 10
116.0830240154
 20
73.6895717429
  0
VERTEX
  8
0
 62
7
  6
CONTINUOUS
 10
116.0892778991
 20
73.6261488978
  0
VERTEX
  8
0
 62
7
  6
CONTINUOUS
 10
116.0985629564
 20
73.5525048467
  0
VERTEX
  8
0
 62
7
  6
CONTINUOUS
 10
116.1140241648
 20
73.4594618916
  0
VERTEX
  8
0
 62
7
  6
CONTINUOUS
 10
116.139683761
 20
73.3441983762
  0
VERTEX
  8
0
 62
7
  6
CONTINUOUS
 10
116.1815628821
 20
73.2038210662
  0
VERTEX
  8
0
 62
7
  6
CONTINUOUS
 10
116.2514012228
 20
73.02961617
  0
VERTEX
  8
0
 62
7
  6
CONTINUOUS
 10
116.3558134167
 20
72.8356409106
  0
VERTEX
  8
0
 62
7
  6
CONTINUOUS
 10
116.4959709305
 20
72.6399157773
  0
VERTEX
  8
0
 62
7
  6
CONTINUOUS
 10
116.6738434279
 20
72.4527141075
  0
VERTEX
  8
0
 62
7
  6
CONTINUOUS
 10
116.890276547
 20
72.2836937774
  0
VERTEX
  8
0
 62
7
  6
CONTINUOUS
 10
117.1454867797
 20
72.1423822586
  0
VERTEX
  8
0
 62
7
  6
CONTINUOUS
 10
117.4376131692
 20
72.039522578
  0
VERTEX
  8
0
 62
7
  6
CONTINUOUS
 10
117.7620795509
 20
71.9867988629
  0
VERTEX
  8
0
 62
7
  6
CONTINUOUS
 10
117.8875070705
 20
71.9824259887
  0
SEQEND
  0
POLYLINE
  8
0
 62
7
  6
CONTINUOUS
 66
1
 70
0
  0
VERTEX
  8
0
 62
7
  6
CONTINUOUS
 10
115.5492630039
 20
163.4362693455
  0
VERTEX
  8
0
 62
7
  6
CONTINUOUS
 10
115.545931902
 20
163.5161784506
  0
VERTEX
  8
0
 62
7
  6
CONTINUOUS
 10
115.5424952015
 20
163.5881521357
  0
VERTEX
  8
0
 62
7
  6
CONTINUOUS
 10
115.5388615777
 20
163.6536385109
  0
VERTEX
  8
0
 62
7
  6
CONTINUOUS
 10
115.5348460306
 20
163.7148268227
  0
VERTEX
  8
0
 62
7
  6
CONTINUOUS
 10
115.5300805111
 20
163.7748935919
  0
VERTEX
  8
0
 62
7
  6
CONTINUOUS
 10
115.5238380433
 20
163.8382913981
  0
VERTEX
  8
0
 62
7
  6
CONTINUOUS
 10
115.5145722519
 20
163.911893874
  0
VERTEX
  8
0
 62
7
  6
CONTINUOUS
 10
115.4991349581
 20
164.0049243476
  0
VERTEX
  8
0
 62
7
  6
CONTINUOUS
 10
115.4734932164
 20
164.1202365738
  0
VERTEX
  8
0
 62
7
  6
CONTINUOUS
 10
115.431737498
 20
164.2603582576
  0
VERTEX
  8
0
 62
7
  6
CONTINUOUS
 10
115.3621540699
 20
164.4341852512
  0
VERTEX
  8
0
 62
7
  6
CONTINUOUS
 10
115.2580187921
 20
164.6279798508
  0
VERTEX
  8
0
 62
7
  6
CONTINUOUS
 10
115.1181542221
 20
164.8236515182
  0
VERTEX
  8
0
 62
7
  6
CONTINUOUS
 10
114.9405894013
 20
165.0108935224
  0
VERTEX
  8
0
 62
7
  6
CONTINUOUS
 10
114.7244738688
 20
165.1800389615
  0
VERTEX
  8
0
 62
7
  6
CONTINUOUS
 10
114.4695802498
 20
165.3215645104
  0
VERTEX
  8
0
 62
7
  6
CONTINUOUS
 10
114.1777538646
 20
165.4247342567
  0
VERTEX
  8
0
 62
7
  6
CONTINUOUS
 10
113.8535497568
 20
165.477871533
  0
VERTEX
  8
0
 62
7
  6
CONTINUOUS
 10
113.7255636002
 20
165.4824248625
  0
SEQEND
  0
LINE
  8
0
 62
7
  6
CONTINUOUS
 10
116.0572850938
 20
74.2163663273
 11
116.0638284576
 21
74.028050704
  0
LINE
  8
0
 62
7
  6
CONTINUOUS
 10
115.5558046098
 20
163.2478733647
 11
115.5492630039
 21
163.4362693455
  0
LINE
  8
0
 62
7
  6
CONTINUOUS
 10
116.0523499964
 20
74.3879461352
 11
116.0572850938
 21
74.2163663273
  0
LINE
  8
0
 62
7
  6
CONTINUOUS
 10
115.5607381741
 20
163.0762494077
 11
115.5558046098
 21
163.2478733647
  0
LINE
  8
0
 62
7
  6
CONTINUOUS
 10
116.0456184524
 20
74.6660653611
 11
116.0523499964
 21
74.3879461352
  0
LINE
  8
0
 62
7
  6
CONTINUOUS
 10
115.5674664673
 20
162.7981408748
 11
115.5607381741
 21
163.0762494077
  0
LINE
  8
0
 62
7
  6
CONTINUOUS
 10
116.0386488363
 20
75.0118142297
 11
116.0456184524
 21
74.6660653611
  0
LINE
  8
0
 62
7
  6
CONTINUOUS
 10
115.5744316818
 20
162.4525047009
 11
115.5674664673
 21
162.7981408748
  0
LINE
  8
0
 62
7
  6
CONTINUOUS
 10
116.0314073873
 20
75.4394523622
 11
116.0386488363
 21
75.0118142297
  0
LINE
  8
0
 62
7
  6
CONTINUOUS
 10
115.5816710714
 20
162.0248991212
 11
115.5744316818
 21
162.4525047009
  0
LINE
  8
0
 62
7
  6
CONTINUOUS
 10
116.0239588549
 20
75.960841834
 11
116.0314073873
 21
75.4394523622
  0
LINE
  8
0
 62
7
  6
CONTINUOUS
 10
115.5891199761
 20
161.5033892973
 11
115.5816710714
 21
162.0248991212
  0
LINE
  8
0
 62
7
  6
CONTINUOUS
 10
116.0164346915
 20
76.5842467776
 11
116.0239588549
 21
75.960841834
  0
LINE
  8
0
 62
7
  6
CONTINUOUS
 10
115.5966450059
 20
160.8797922116
 11
115.5891199761
 21
161.5033892973
  0
LINE
  8
0
 62
7
  6
CONTINUOUS
 10
116.0089297121
 20
77.3217082769
 11
116.0164346915
 21
76.5842467776
  0
LINE
  8
0
 62
7
  6
CONTINUOUS
 10
115.6041505618
 20
160.1421154063
 11
115.5966450059
 21
160.8797922116
  0
LINE
  8
0
 62
7
  6
CONTINUOUS
 10
116.001469395
 20
78.198099942
 11
116.0089297121
 21
77.3217082769
  0
LINE
  8
0
 62
7
  6
CONTINUOUS
 10
115.6116078461
 20
159.2659056494
 11
115.6041505618
 21
160.1421154063
  0
LINE
  8
0
 62
7
  6
CONTINUOUS
 10
115.9941791246
 20
79.2390549264
 11
116.001469395
 21
78.198099942
  0
LINE
  8
0
 62
7
  6
CONTINUOUS
 10
115.6188914625
 20
158.2258112195
 11
115.6116078461
 21
159.2659056494
  0
LINE
  8
0
 62
7
  6
CONTINUOUS
 10
115.9873090495
 20
80.4653446299
 11
115.9941791246
 21
79.2390549264
  0
LINE
  8
0
 62
7
  6
CONTINUOUS
 10
115.625755325
 20
157.000781749
 11
115.6188914625
 21
158.2258112195
  0
LINE
  8
0
 62
7
  6
CONTINUOUS
 10
115.6303302476
 20
155.9740770661
 11
115.6693984298
 21
146.1734738266
  0
LINE
  8
0
 62
7
  6
CONTINUOUS
 10
115.6303302469
 20
155.9740770387
 11
115.625755325
 21
157.000781749
  0
LINE
  8
0
 62
7
  6
CONTINUOUS
 10
115.9827404365
 20
81.4907738014
 11
115.9873090495
 21
80.4653446299
  0
LINE
  8
0
 62
7
  6
CONTINUOUS
 10
115.9411587234
 20
91.9219186447
 11
115.982740436
 21
81.4907737836
  0
POLYLINE
  8
0
 62
7
  6
CONTINUOUS
 66
1
 70
0
  0
VERTEX
  8
0
 62
7
  6
CONTINUOUS
 10
115.9281898593
 20
96.0582196924
  0
VERTEX
  8
0
 62
7
  6
CONTINUOUS
 10
115.9339289623
 20
93.9564988793
  0
VERTEX
  8
0
 62
7
  6
CONTINUOUS
 10
115.9411587237
 20
91.9219186495
  0
SEQEND
  0
POLYLINE
  8
0
 62
7
  6
CONTINUOUS
 66
1
 70
0
  0
VERTEX
  8
0
 62
7
  6
CONTINUOUS
 10
115.6837053915
 20
141.4061738954
  0
VERTEX
  8
0
 62
7
  6
CONTINUOUS
 10
115.6775463712
 20
143.8350946982
  0
VERTEX
  8
0
 62
7
  6
CONTINUOUS
 10
115.6693984296
 20
146.1734738349
  0
SEQEND
  0
LINE
  8
SURF_PART
 62
2
  6
CENTER
 10
47.0265353418
 20
86.9824254249
 11
234.5414594687
 21
86.9824254249
  0
POLYLINE
  8
0
 62
7
  6
CONTINUOUS
 66
1
 70
0
  0
VERTEX
  8
0
 62
7
  6
CONTINUOUS
 10
247.6265353418
 20
97.6979027734
  0
VERTEX
  8
0
 62
7
  6
CONTINUOUS
 10
247.8162874732
 20
97.7079323467
  0
VERTEX
  8
0
 62
7
  6
CONTINUOUS
 10
248.1858204656
 20
97.7869965368
  0
VERTEX
  8
0
 62
7
  6
CONTINUOUS
 10
248.5292301241
 20
97.9406159886
  0
VERTEX
  8
0
 62
7
  6
CONTINUOUS
 10
248.8323566047
 20
98.1614915036
  0
VERTEX
  8
0
 62
7
  6
CONTINUOUS
 10
248.9641028777
 20
98.2933642364
  0
VERTEX
  8
0
 62
7
  6
CONTINUOUS
 10
249.1844293508
 20
98.596256359
  0
VERTEX
  8
0
 62
7
  6
CONTINUOUS
 10
249.3376434999
 20
98.9392357245
  0
VERTEX
  8
0
 62
7
  6
CONTINUOUS
 10
249.4165261509
 20
99.3083430111
  0
VERTEX
  8
0
 62
7
  6
CONTINUOUS
 10
249.4265353418
 20
99.4979027734
  0
SEQEND
  0
POLYLINE
  8
0
 62
7
  6
CONTINUOUS
 66
1
 70
0
  0
VERTEX
  8
0
 62
7
  6
CONTINUOUS
 10
80.7275110728
 20
97.862425162
  0
VERTEX
  8
0
 62
7
  6
CONTINUOUS
 10
81.06478613
 20
97.8304539319
  0
VERTEX
  8
0
 62
7
  6
CONTINUOUS
 10
81.4101966854
 20
97.7275471998
  0
VERTEX
  8
0
 62
7
  6
CONTINUOUS
 10
81.7275878954
 20
97.5580977977
  0
VERTEX
  8
0
 62
7
  6
CONTINUOUS
 10
82.0042426502
 20
97.3294597014
  0
VERTEX
  8
0
 62
7
  6
CONTINUOUS
 10
82.2294622495
 20
97.0512655885
  0
VERTEX
  8
0
 62
7
  6
CONTINUOUS
 10
82.3948483881
 20
96.7348656265
  0
VERTEX
  8
0
 62
7
  6
CONTINUOUS
 10
82.4944576246
 20
96.3927709167
  0
VERTEX
  8
0
 62
7
  6
CONTINUOUS
 10
82.524987889
 20
96.0624254249
  0
SEQEND
  0
POLYLINE
  8
0
 62
7
  6
CONTINUOUS
 66
1
 70
0
  0
VERTEX
  8
0
 62
7
  6
CONTINUOUS
 10
114.1238792406
 20
97.8624251689
  0
VERTEX
  8
0
 62
7
  6
CONTINUOUS
 10
114.4662698571
 20
97.8295027531
  0
VERTEX
  8
0
 62
7
  6
CONTINUOUS
 10
114.8116270338
 20
97.7256720801
  0
VERTEX
  8
0
 62
7
  6
CONTINUOUS
 10
115.124628462
 20
97.5583366537
  0
VERTEX
  8
0
 62
7
  6
CONTINUOUS
 10
115.395391278
 20
97.3364475427
  0
VERTEX
  8
0
 62
7
  6
CONTINUOUS
 10
115.617546684
 20
97.0677319442
  0
VERTEX
  8
0
 62
7
  6
CONTINUOUS
 10
115.7855812812
 20
96.7579189545
  0
VERTEX
  8
0
 62
7
  6
CONTINUOUS
 10
115.89224016
 20
96.4126984133
  0
VERTEX
  8
0
 62
7
  6
CONTINUOUS
 10
115.928189531
 20
96.0582189363
  0
SEQEND
  0
LINE
  8
0
 62
7
  6
CONTINUOUS
 10
132.3902570217
 20
94.0153520423
 11
132.3969114702
 21
95.8565694325
  0
LINE
  8
0
 62
7
  6
CONTINUOUS
 10
132.6952868098
 20
156.5725119001
 11
132.6350793383
 21
141.4085904277
  0
LINE
  8
0
 62
7
  6
CONTINUOUS
 10
132.3349671199
 20
80.307247573
 11
132.3902570218
 21
94.0153520428
  0
LINE
  8
0
 62
7
  6
CONTINUOUS
 10
132.7041025133
 20
158.2136347121
 11
132.6952868098
 21
156.5725119001
  0
LINE
  8
0
 62
7
  6
CONTINUOUS
 10
132.3258377492
 20
78.776571235
 11
132.3349671199
 21
80.307247573
  0
LINE
  8
0
 62
7
  6
CONTINUOUS
 10
132.7136514205
 20
159.5401928396
 11
132.7041025133
 21
158.2136347121
  0
LINE
  8
0
 62
7
  6
CONTINUOUS
 10
132.3161616618
 20
77.5434178111
 11
132.3258377492
 21
78.776571235
  0
LINE
  8
0
 62
7
  6
CONTINUOUS
 10
132.7234690939
 20
160.6043217572
 11
132.7136514205
 21
159.5401928396
  0
LINE
  8
0
 62
7
  6
CONTINUOUS
 10
132.3063081888
 20
76.5548333511
 11
132.3161616618
 21
77.5434178111
  0
LINE
  8
0
 62
7
  6
CONTINUOUS
 10
132.7366444384
 20
161.7022175473
 11
132.7234690939
 21
160.6043217572
  0
LINE
  8
0
 62
7
  6
CONTINUOUS
 10
132.2931671883
 20
75.5377230994
 11
132.3063081888
 21
76.5548333511
  0
LINE
  8
0
 62
7
  6
CONTINUOUS
 10
132.7493939943
 20
162.492968384
 11
132.7366444384
 21
161.7022175473
  0
LINE
  8
0
 62
7
  6
CONTINUOUS
 10
132.2806243259
 20
74.8158279085
 11
132.2931671883
 21
75.5377230994
  0
LINE
  8
0
 62
7
  6
CONTINUOUS
 10
132.7584263171
 20
162.9211965771
 11
132.7493939943
 21
162.492968384
  0
LINE
  8
0
 62
7
  6
CONTINUOUS
 10
132.2716983989
 20
74.4251099332
 11
132.2806243259
 21
74.8158279085
  0
LINE
  8
0
 62
7
  6
CONTINUOUS
 10
132.7657502147
 20
163.1979353903
 11
132.7584263171
 21
162.9211965771
  0
LINE
  8
0
 62
7
  6
CONTINUOUS
 10
132.2673196991
 20
74.2668894437
 11
132.2716983989
 21
74.4251099332
  0
POLYLINE
  8
0
 62
7
  6
CONTINUOUS
 66
1
 70
0
  0
VERTEX
  8
0
 62
7
  6
CONTINUOUS
 10
132.396911689
 20
95.8565684557
  0
VERTEX
  8
0
 62
7
  6
CONTINUOUS
 10
132.4400122202
 20
96.2637969309
  0
VERTEX
  8
0
 62
7
  6
CONTINUOUS
 10
132.567653568
 20
96.6605136564
  0
VERTEX
  8
0
 62
7
  6
CONTINUOUS
 10
132.7687534106
 20
97.014825049
  0
VERTEX
  8
0
 62
7
  6
CONTINUOUS
 10
133.0313128047
 20
97.3161270958
  0
VERTEX
  8
0
 62
7
  6
CONTINUOUS
 10
133.3427452065
 20
97.5562979114
  0
VERTEX
  8
0
 62
7
  6
CONTINUOUS
 10
133.6894507865
 20
97.729243501
  0
VERTEX
  8
0
 62
7
  6
CONTINUOUS
 10
134.0569865854
 20
97.8314275327
  0
VERTEX
  8
0
 62
7
  6
CONTINUOUS
 10
134.361151226
 20
97.8618743203
  0
SEQEND
  0
POLYLINE
  8
0
 62
7
  6
CONTINUOUS
 66
1
 70
0
  0
VERTEX
  8
0
 62
7
  6
CONTINUOUS
 10
132.6350791716
 20
141.4085911129
  0
VERTEX
  8
0
 62
7
  6
CONTINUOUS
 10
132.5931925596
 20
141.0278362127
  0
VERTEX
  8
0
 62
7
  6
CONTINUOUS
 10
132.473620701
 20
140.6675257829
  0
VERTEX
  8
0
 62
7
  6
CONTINUOUS
 10
132.2918369725
 20
140.3538064431
  0
VERTEX
  8
0
 62
7
  6
CONTINUOUS
 10
132.0604259057
 20
140.090874929
  0
VERTEX
  8
0
 62
7
  6
CONTINUOUS
 10
131.7882403302
 20
139.8807210331
  0
VERTEX
  8
0
 62
7
  6
CONTINUOUS
 10
131.4826697433
 20
139.7263725148
  0
VERTEX
  8
0
 62
7
  6
CONTINUOUS
 10
131.1519392805
 20
139.6321639489
  0
SEQEND
  0
POLYLINE
  8
0
 62
7
  6
CONTINUOUS
 66
1
 70
0
  0
VERTEX
  8
0
 62
7
  6
CONTINUOUS
 10
67.1360805572
 20
97.861994289
  0
VERTEX
  8
0
 62
7
  6
CONTINUOUS
 10
67.0274787204
 20
97.856345246
  0
VERTEX
  8
0
 62
7
  6
CONTINUOUS
 10
66.7330255499
 20
97.8073627873
  0
VERTEX
  8
0
 62
7
  6
CONTINUOUS
 10
66.4500273704
 20
97.7102453526
  0
VERTEX
  8
0
 62
7
  6
CONTINUOUS
 10
66.1878069845
 20
97.5682454804
  0
VERTEX
  8
0
 62
7
  6
CONTINUOUS
 10
65.952672004
 20
97.3850592879
  0
VERTEX
  8
0
 62
7
  6
CONTINUOUS
 10
65.8473042769
 20
97.2795583697
  0
VERTEX
  8
0
 62
7
  6
CONTINUOUS
 10
65.6647218377
 20
97.0446180527
  0
VERTEX
  8
0
 62
7
  6
CONTINUOUS
 10
65.5235532955
 20
96.7832831985
  0
VERTEX
  8
0
 62
7
  6
CONTINUOUS
 10
65.4271844045
 20
96.501734432
  0
VERTEX
  8
0
 62
7
  6
CONTINUOUS
 10
65.378676474
 20
96.2092889015
  0
VERTEX
  8
0
 62
7
  6
CONTINUOUS
 10
65.3726655372
 20
96.0624162896
  0
SEQEND
  0
POLYLINE
  8
0
 62
7
  6
CONTINUOUS
 66
1
 70
0
  0
VERTEX
  8
0
 62
7
  6
CONTINUOUS
 10
134.3611840276
 20
97.8618757604
  0
VERTEX
  8
0
 62
7
  6
CONTINUOUS
 10
134.2513873517
 20
97.8562865135
  0
VERTEX
  8
0
 62
7
  6
CONTINUOUS
 10
133.9382637411
 20
97.8065900009
  0
VERTEX
  8
0
 62
7
  6
CONTINUOUS
 10
133.6346497541
 20
97.7073078764
  0
VERTEX
  8
0
 62
7
  6
CONTINUOUS
 10
133.3497728706
 20
97.5606989087
  0
VERTEX
  8
0
 62
7
  6
CONTINUOUS
 10
133.0887120284
 20
97.368106237
  0
VERTEX
  8
0
 62
7
  6
CONTINUOUS
 10
132.9695417433
 20
97.2555417021
  0
VERTEX
  8
0
 62
7
  6
CONTINUOUS
 10
132.7584267023
 20
97.0002359947
  0
VERTEX
  8
0
 62
7
  6
CONTINUOUS
 10
132.589417064
 20
96.7083743525
  0
VERTEX
  8
0
 62
7
  6
CONTINUOUS
 10
132.4696335666
 20
96.3858180791
  0
VERTEX
  8
0
 62
7
  6
CONTINUOUS
 10
132.4058854304
 20
96.0405784496
  0
VERTEX
  8
0
 62
7
  6
CONTINUOUS
 10
132.3968524076
 20
95.8624172239
  0
SEQEND
  0
LINE
  8
0
 62
7
  6
CONTINUOUS
 10
134.4081064461
 20
97.8624254249
 11
134.3611840276
 21
97.8618757604
  0
LINE
  8
0
 62
7
  6
CONTINUOUS
 10
100.7293228932
 20
97.8619586053
 11
100.7703802247
 21
97.8624254249
  0
LINE
  8
0
 62
7
  6
CONTINUOUS
 10
67.1755377426
 20
97.8624254249
 11
67.1360805572
 21
97.861994289
  0
LINE
  8
0
 62
7
  6
CONTINUOUS
 10
247.6265353418
 20
97.6979027734
 11
234.3234065151
 21
97.6979027734
  0
LINE
  8
0
 62
7
  6
CONTINUOUS
 10
214.5196643435
 20
97.6979027734
 11
200.9034067253
 21
97.6979027734
  0
LINE
  8
0
 62
7
  6
CONTINUOUS
 10
181.0996643435
 20
97.6979027734
 11
167.4834067253
 21
97.6979027734
  0
LINE
  8
0
 62
7
  6
CONTINUOUS
 10
80.7275024114
 20
97.8624254249
 11
67.1755464687
 21
97.8624254249
  0
LINE
  8
0
 62
7
  6
CONTINUOUS
 10
100.7703891165
 20
97.8624254249
 11
114.1238701808
 21
97.8624254249
  0
LINE
  8
0
 62
7
  6
CONTINUOUS
 10
134.4081178121
 20
97.8624254249
 11
147.3928780703
 21
97.8624254249
  0
LINE
  8
0
 62
7
  6
CONTINUOUS
 10
147.4707472034
 20
97.8608814675
 11
147.3921515804
 21
97.8624254248
  0
POLYLINE
  8
0
 62
7
  6
CONTINUOUS
 66
1
 70
0
  0
VERTEX
  8
0
 62
7
  6
CONTINUOUS
 10
181.0996643434
 20
97.6979028263
  0
VERTEX
  8
0
 62
7
  6
CONTINUOUS
 10
181.2563020044
 20
97.6808587144
  0
VERTEX
  8
0
 62
7
  6
CONTINUOUS
 10
181.4358842555
 20
97.6153415582
  0
VERTEX
  8
0
 62
7
  6
CONTINUOUS
 10
181.6075115048
 20
97.5033718611
  0
VERTEX
  8
0
 62
7
  6
CONTINUOUS
 10
181.6893824809
 20
97.4326518166
  0
VERTEX
  8
0
 62
7
  6
CONTINUOUS
 10
181.8439341992
 20
97.2682982419
  0
VERTEX
  8
0
 62
7
  6
CONTINUOUS
 10
181.9910489013
 20
97.0739414308
  0
VERTEX
  8
0
 62
7
  6
CONTINUOUS
 10
182.1138055263
 20
96.8836305047
  0
SEQEND
  0
POLYLINE
  8
0
 62
7
  6
CONTINUOUS
 66
1
 70
0
  0
VERTEX
  8
0
 62
7
  6
CONTINUOUS
 10
214.5196643434
 20
97.6979028263
  0
VERTEX
  8
0
 62
7
  6
CONTINUOUS
 10
214.6763020043
 20
97.6808587144
  0
VERTEX
  8
0
 62
7
  6
CONTINUOUS
 10
214.8558842555
 20
97.6153415582
  0
VERTEX
  8
0
 62
7
  6
CONTINUOUS
 10
215.0275115048
 20
97.5033718611
  0
VERTEX
  8
0
 62
7
  6
CONTINUOUS
 10
215.1093824809
 20
97.4326518167
  0
VERTEX
  8
0
 62
7
  6
CONTINUOUS
 10
215.2639341992
 20
97.2682982419
  0
VERTEX
  8
0
 62
7
  6
CONTINUOUS
 10
215.4110489013
 20
97.0739414308
  0
VERTEX
  8
0
 62
7
  6
CONTINUOUS
 10
215.5338055263
 20
96.8836305048
  0
SEQEND
  0
POLYLINE
  8
0
 62
7
  6
CONTINUOUS
 66
1
 70
0
  0
VERTEX
  8
0
 62
7
  6
CONTINUOUS
 10
147.4707471791
 20
97.8608808508
  0
VERTEX
  8
0
 62
7
  6
CONTINUOUS
 10
147.832848377
 20
97.8132785689
  0
VERTEX
  8
0
 62
7
  6
CONTINUOUS
 10
148.2016897769
 20
97.6912962204
  0
VERTEX
  8
0
 62
7
  6
CONTINUOUS
 10
148.5399677223
 20
97.5003339548
  0
VERTEX
  8
0
 62
7
  6
CONTINUOUS
 10
148.8349357203
 20
97.2476042983
  0
VERTEX
  8
0
 62
7
  6
CONTINUOUS
 10
149.0754696504
 20
96.942658716
  0
VERTEX
  8
0
 62
7
  6
CONTINUOUS
 10
149.2525118171
 20
96.5970130803
  0
VERTEX
  8
0
 62
7
  6
CONTINUOUS
 10
149.35940381
 20
96.2237288104
  0
VERTEX
  8
0
 62
7
  6
CONTINUOUS
 10
149.3923119874
 20
95.8624254248
  0
SEQEND
  0
POLYLINE
  8
0
 62
7
  6
CONTINUOUS
 66
1
 70
0
  0
VERTEX
  8
0
 62
7
  6
CONTINUOUS
 10
99.671489314
 20
97.4893758439
  0
VERTEX
  8
0
 62
7
  6
CONTINUOUS
 10
99.7943754385
 20
97.5758228531
  0
VERTEX
  8
0
 62
7
  6
CONTINUOUS
 10
100.1057100504
 20
97.7356212288
  0
VERTEX
  8
0
 62
7
  6
CONTINUOUS
 10
100.2717538714
 20
97.7922065643
  0
VERTEX
  8
0
 62
7
  6
CONTINUOUS
 10
100.6170022895
 20
97.8558992576
  0
VERTEX
  8
0
 62
7
  6
CONTINUOUS
 10
100.7292582784
 20
97.8619565696
  0
SEQEND
  0
POLYLINE
  8
0
 62
7
  6
CONTINUOUS
 66
1
 70
0
  0
VERTEX
  8
0
 62
7
  6
CONTINUOUS
 10
99.6719838945
 20
97.4897877875
  0
VERTEX
  8
0
 62
7
  6
CONTINUOUS
 10
99.9196876007
 20
97.649442785
  0
VERTEX
  8
0
 62
7
  6
CONTINUOUS
 10
100.1907122747
 20
97.7668473054
  0
VERTEX
  8
0
 62
7
  6
CONTINUOUS
 10
100.4777210558
 20
97.8385512846
  0
VERTEX
  8
0
 62
7
  6
CONTINUOUS
 10
100.7293228932
 20
97.8619586053
  0
SEQEND
  0
POLYLINE
  8
0
 62
7
  6
CONTINUOUS
 66
1
 70
0
  0
VERTEX
  8
0
 62
7
  6
CONTINUOUS
 10
66.0110333873
 20
140.7997608559
  0
VERTEX
  8
0
 62
7
  6
CONTINUOUS
 10
65.9529418132
 20
140.8240686831
  0
VERTEX
  8
0
 62
7
  6
CONTINUOUS
 10
65.9043592192
 20
140.8449506751
  0
VERTEX
  8
0
 62
7
  6
CONTINUOUS
 10
65.8666025165
 20
140.8620826155
  0
VERTEX
  8
0
 62
7
  6
CONTINUOUS
 10
65.8409447304
 20
140.8751284598
  0
VERTEX
  8
0
 62
7
  6
CONTINUOUS
 10
65.8284648054
 20
140.8837804407
  0
VERTEX
  8
0
 62
7
  6
CONTINUOUS
 10
65.8273352258
 20
140.8859618721
  0
SEQEND
  0
POLYLINE
  8
0
 62
7
  6
CONTINUOUS
 66
1
 70
0
  0
VERTEX
  8
0
 62
7
  6
CONTINUOUS
 10
149.4800186501
 20
74.1324404577
  0
VERTEX
  8
0
 62
7
  6
CONTINUOUS
 10
149.4838039308
 20
74.0286773389
  0
VERTEX
  8
0
 62
7
  6
CONTINUOUS
 10
149.487554271
 20
73.9394209907
  0
VERTEX
  8
0
 62
7
  6
CONTINUOUS
 10
149.4913471411
 20
73.8619165981
  0
VERTEX
  8
0
 62
7
  6
CONTINUOUS
 10
149.4953244616
 20
73.7931145021
  0
VERTEX
  8
0
 62
7
  6
CONTINUOUS
 10
149.4997375791
 20
73.7296250901
  0
VERTEX
  8
0
 62
7
  6
CONTINUOUS
 10
149.5050928828
 20
73.6669511419
  0
VERTEX
  8
0
 62
7
  6
CONTINUOUS
 10
149.5124725518
 20
73.5986021176
  0
VERTEX
  8
0
 62
7
  6
CONTINUOUS
 10
149.5241870709
 20
73.5154722193
  0
VERTEX
  8
0
 62
7
  6
CONTINUOUS
 10
149.5442212373
 20
73.4095160089
  0
VERTEX
  8
0
 62
7
  6
CONTINUOUS
 10
149.5766576097
 20
73.2822914759
  0
VERTEX
  8
0
 62
7
  6
CONTINUOUS
 10
149.6298176871
 20
73.1269426788
  0
VERTEX
  8
0
 62
7
  6
CONTINUOUS
 10
149.7154826783
 20
72.9407137869
  0
VERTEX
  8
0
 62
7
  6
CONTINUOUS
 10
149.8366720523
 20
72.7438038131
  0
VERTEX
  8
0
 62
7
  6
CONTINUOUS
 10
149.9950673314
 20
72.5499868772
  0
VERTEX
  8
0
 62
7
  6
CONTINUOUS
 10
150.1920517783
 20
72.3693992698
  0
VERTEX
  8
0
 62
7
  6
CONTINUOUS
 10
150.4283174611
 20
72.211591701
  0
VERTEX
  8
0
 62
7
  6
CONTINUOUS
 10
150.7031742741
 20
72.086843932
  0
VERTEX
  8
0
 62
7
  6
CONTINUOUS
 10
151.0134523674
 20
72.0065935496
  0
VERTEX
  8
0
 62
7
  6
CONTINUOUS
 10
151.3075070097
 20
71.982425991
  0
SEQEND
  0
LINE
  8
0
 62
7
  6
CONTINUOUS
 10
149.47224307
 20
74.3919583987
 11
149.4800186501
 21
74.1324404577
  0
LINE
  8
0
 62
7
  6
CONTINUOUS
 10
149.4642167522
 20
74.7307156006
 11
149.47224307
 21
74.3919583987
  0
LINE
  8
0
 62
7
  6
CONTINUOUS
 10
148.9888539315
 20
162.734135249
 11
148.9808276137
 21
163.072892451
  0
LINE
  8
0
 62
7
  6
CONTINUOUS
 10
149.4560185536
 20
75.1587011779
 11
149.4642167522
 21
74.7307156006
  0
LINE
  8
0
 62
7
  6
CONTINUOUS
 10
148.9970521301
 20
162.3061496716
 11
148.9888539315
 21
162.734135249
  0
LINE
  8
0
 62
7
  6
CONTINUOUS
 10
149.4477716471
 20
75.6829529309
 11
149.4560185536
 21
75.1587011779
  0
LINE
  8
0
 62
7
  6
CONTINUOUS
 10
149.0052990366
 20
161.7818979184
 11
148.9970521301
 21
162.3061496716
  0
LINE
  8
0
 62
7
  6
CONTINUOUS
 10
149.4395687801
 20
76.311726825
 11
149.4477716471
 21
75.6829529309
  0
LINE
  8
0
 62
7
  6
CONTINUOUS
 10
149.0135019036
 20
161.1531240243
 11
149.0052990366
 21
161.7818979184
  0
LINE
  8
0
 62
7
  6
CONTINUOUS
 10
149.4314637062
 20
77.0582742427
 11
149.4395687801
 21
76.311726825
  0
LINE
  8
0
 62
7
  6
CONTINUOUS
 10
149.0216069774
 20
160.4065766066
 11
149.0135019036
 21
161.1531240243
  0
LINE
  8
0
 62
7
  6
CONTINUOUS
 10
149.4235468972
 20
77.9374107279
 11
149.4314637062
 21
77.0582742427
  0
LINE
  8
0
 62
7
  6
CONTINUOUS
 10
149.0295237864
 20
159.5274401217
 11
149.0216069774
 21
160.4065766066
  0
LINE
  8
0
 62
7
  6
CONTINUOUS
 10
149.4159392754
 20
78.9673694401
 11
149.4235468972
 21
77.9374107279
  0
LINE
  8
0
 62
7
  6
CONTINUOUS
 10
149.0371314082
 20
158.4974814099
 11
149.0295237864
 21
159.5274401217
  0
LINE
  8
0
 62
7
  6
CONTINUOUS
 10
149.408823866
 20
80.1681359341
 11
149.4159392754
 21
78.9673694401
  0
LINE
  8
0
 62
7
  6
CONTINUOUS
 10
149.0442468177
 20
157.2967149161
 11
149.0371314082
 21
158.4974814099
  0
LINE
  8
0
 62
7
  6
CONTINUOUS
 10
149.0505931864
 20
155.9076318705
 11
149.0442468177
 21
157.2967149161
  0
LINE
  8
0
 62
7
  6
CONTINUOUS
 10
149.4024774972
 20
81.5572189797
 11
149.408823866
 21
80.1681359341
  0
LINE
  8
0
 62
7
  6
CONTINUOUS
 10
149.0558018234
 20
154.315192625
 11
149.0505931864
 21
155.9076318705
  0
LINE
  8
0
 62
7
  6
CONTINUOUS
 10
149.3972688602
 20
83.1496582251
 11
149.4024774972
 21
81.5572189797
  0
POLYLINE
  8
0
 62
7
  6
CONTINUOUS
 66
1
 70
0
  0
VERTEX
  8
0
 62
7
  6
CONTINUOUS
 10
149.0604113503
 20
151.5069552717
  0
VERTEX
  8
0
 62
7
  6
CONTINUOUS
 10
149.0594053161
 20
152.5008968905
  0
VERTEX
  8
0
 62
7
  6
CONTINUOUS
 10
149.0558018234
 20
154.315192625
  0
SEQEND
  0
POLYLINE
  8
0
 62
7
  6
CONTINUOUS
 66
1
 70
0
  0
VERTEX
  8
0
 62
7
  6
CONTINUOUS
 10
149.3926593333
 20
85.9578955792
  0
VERTEX
  8
0
 62
7
  6
CONTINUOUS
 10
149.3936653676
 20
84.9639539598
  0
VERTEX
  8
0
 62
7
  6
CONTINUOUS
 10
149.3972688602
 20
83.1496582251
  0
SEQEND
  0
LINE
  8
0
 62
7
  6
CONTINUOUS
 10
149.0607781564
 20
143.9807869161
 11
149.0604113503
 21
151.5069552717
  0
LINE
  8
DEFAULT_1
 62
2
  6
CENTER
 10
149.2265353418
 20
123.9824254249
 11
149.2265353418
 21
120.7325254249
  0
LINE
  8
0
 62
2
  6
CONTINUOUS
 10
149.2265353418
 20
119.7824254249
 11
149.2265353418
 21
117.6824254249
  0
LINE
  8
DEFAULT_1
 62
2
  6
CENTER
 10
149.2265353418
 20
113.4824254249
 11
149.2265353418
 21
116.7323254249
  0
LINE
  8
0
 62
7
  6
CONTINUOUS
 10
149.3926593333
 20
85.9578955792
 11
149.3923122449
 21
95.8624254249
  0
LINE
  8
DEFAULT_1
 62
2
  6
CENTER
 10
154.4765353418
 20
118.7324254249
 11
151.2266353418
 21
118.7324254249
  0
LINE
  8
0
 62
2
  6
CONTINUOUS
 10
150.2765353418
 20
118.7324254249
 11
148.1765353418
 21
118.7324254249
  0
LINE
  8
DEFAULT_1
 62
2
  6
CENTER
 10
143.9765353418
 20
118.7324254249
 11
147.2264353418
 21
118.7324254249
  0
POLYLINE
  8
0
 62
7
  6
CONTINUOUS
 66
1
 70
0
  0
VERTEX
  8
0
 62
7
  6
CONTINUOUS
 10
148.9730520335
 20
163.332410392
  0
VERTEX
  8
0
 62
7
  6
CONTINUOUS
 10
148.9692667529
 20
163.4361735108
  0
VERTEX
  8
0
 62
7
  6
CONTINUOUS
 10
148.9655164126
 20
163.525429859
  0
VERTEX
  8
0
 62
7
  6
CONTINUOUS
 10
148.9617235426
 20
163.6029342517
  0
VERTEX
  8
0
 62
7
  6
CONTINUOUS
 10
148.9577462221
 20
163.6717363476
  0
VERTEX
  8
0
 62
7
  6
CONTINUOUS
 10
148.9533331046
 20
163.7352257596
  0
VERTEX
  8
0
 62
7
  6
CONTINUOUS
 10
148.9479778009
 20
163.7978997078
  0
VERTEX
  8
0
 62
7
  6
CONTINUOUS
 10
148.9405981318
 20
163.866248732
  0
VERTEX
  8
0
 62
7
  6
CONTINUOUS
 10
148.9288836128
 20
163.9493786304
  0
VERTEX
  8
0
 62
7
  6
CONTINUOUS
 10
148.9088494463
 20
164.0553348409
  0
VERTEX
  8
0
 62
7
  6
CONTINUOUS
 10
148.8764130738
 20
164.1825593742
  0
VERTEX
  8
0
 62
7
  6
CONTINUOUS
 10
148.8232529965
 20
164.3379081712
  0
VERTEX
  8
0
 62
7
  6
CONTINUOUS
 10
148.7375880053
 20
164.5241370629
  0
VERTEX
  8
0
 62
7
  6
CONTINUOUS
 10
148.6163986313
 20
164.7210470367
  0
VERTEX
  8
0
 62
7
  6
CONTINUOUS
 10
148.4580033522
 20
164.9148639725
  0
VERTEX
  8
0
 62
7
  6
CONTINUOUS
 10
148.2610189053
 20
165.0954515799
  0
VERTEX
  8
0
 62
7
  6
CONTINUOUS
 10
148.0247532225
 20
165.2532591487
  0
VERTEX
  8
0
 62
7
  6
CONTINUOUS
 10
147.7498964095
 20
165.3780069177
  0
VERTEX
  8
0
 62
7
  6
CONTINUOUS
 10
147.4396183163
 20
165.4582573001
  0
VERTEX
  8
0
 62
7
  6
CONTINUOUS
 10
147.1455636739
 20
165.4824248587
  0
SEQEND
  0
LINE
  8
0
 62
7
  6
CONTINUOUS
 10
148.9808276137
 20
163.072892451
 11
148.9730520335
 21
163.332410392
  0
POLYLINE
  8
0
 62
7
  6
CONTINUOUS
 66
1
 70
0
  0
VERTEX
  8
0
 62
7
  6
CONTINUOUS
 10
165.4038053613
 20
140.581220074
  0
VERTEX
  8
0
 62
7
  6
CONTINUOUS
 10
165.2791639372
 20
140.3881852823
  0
VERTEX
  8
0
 62
7
  6
CONTINUOUS
 10
165.1320940999
 20
140.1943565583
  0
VERTEX
  8
0
 62
7
  6
CONTINUOUS
 10
164.977533824
 20
140.0304778979
  0
VERTEX
  8
0
 62
7
  6
CONTINUOUS
 10
164.8956305885
 20
139.9599863126
  0
VERTEX
  8
0
 62
7
  6
CONTINUOUS
 10
164.7239509849
 20
139.8485259258
  0
VERTEX
  8
0
 62
7
  6
CONTINUOUS
 10
164.5443984297
 20
139.7835702067
  0
VERTEX
  8
0
 62
7
  6
CONTINUOUS
 10
164.3896641305
 20
139.7669479596
  0
SEQEND
  0
POLYLINE
  8
0
 62
7
  6
CONTINUOUS
 66
1
 70
0
  0
VERTEX
  8
0
 62
7
  6
CONTINUOUS
 10
149.2593662986
 20
141.8977925639
  0
VERTEX
  8
0
 62
7
  6
CONTINUOUS
 10
149.1101021263
 20
142.8613795926
  0
VERTEX
  8
0
 62
7
  6
CONTINUOUS
 10
149.0607773408
 20
143.9807869603
  0
SEQEND
  0
POLYLINE
  8
0
 62
7
  6
CONTINUOUS
 66
1
 70
0
  0
VERTEX
  8
0
 62
7
  6
CONTINUOUS
 10
84.0085061425
 20
139.6028582424
  0
VERTEX
  8
0
 62
7
  6
CONTINUOUS
 10
83.7097754671
 20
139.6343903228
  0
VERTEX
  8
0
 62
7
  6
CONTINUOUS
 10
83.3626470417
 20
139.7375744449
  0
VERTEX
  8
0
 62
7
  6
CONTINUOUS
 10
83.0438971475
 20
139.9074748163
  0
VERTEX
  8
0
 62
7
  6
CONTINUOUS
 10
82.7663351867
 20
140.1365674787
  0
VERTEX
  8
0
 62
7
  6
CONTINUOUS
 10
82.5406441711
 20
140.4150611329
  0
VERTEX
  8
0
 62
7
  6
CONTINUOUS
 10
82.375125569
 20
140.7315077768
  0
VERTEX
  8
0
 62
7
  6
CONTINUOUS
 10
82.2755889606
 20
141.0733963031
  0
VERTEX
  8
0
 62
7
  6
CONTINUOUS
 10
82.2452138935
 20
141.4024254249
  0
SEQEND
  0
POLYLINE
  8
0
 62
7
  6
CONTINUOUS
 66
1
 70
0
  0
VERTEX
  8
0
 62
7
  6
CONTINUOUS
 10
149.7592657085
 20
140.5812207966
  0
VERTEX
  8
0
 62
7
  6
CONTINUOUS
 10
149.5276023499
 20
141.0405197046
  0
VERTEX
  8
0
 62
7
  6
CONTINUOUS
 10
149.4231413751
 20
141.3149364068
  0
VERTEX
  8
0
 62
7
  6
CONTINUOUS
 10
149.2593665671
 20
141.8977926243
  0
SEQEND
  0
LINE
  8
0
 62
7
  6
CONTINUOUS
 10
165.7704145134
 20
85.9625675197
 11
165.7707584387
 21
93.4884118657
  0
LINE
  8
0
 62
7
  6
CONTINUOUS
 10
166.1026561665
 20
151.5022778811
 11
166.1023122449
 21
143.976439052
  0
LINE
  8
0
 62
7
  6
CONTINUOUS
 10
165.7678632376
 20
84.0398287458
 11
165.7704145134
 21
85.9625675197
  0
LINE
  8
0
 62
7
  6
CONTINUOUS
 10
166.1052074098
 20
153.4250038462
 11
166.1026561665
 21
151.5022778811
  0
LINE
  8
0
 62
7
  6
CONTINUOUS
 10
165.7634207839
 20
82.3436992281
 11
165.7678632376
 21
84.0398287458
  0
LINE
  8
0
 62
7
  6
CONTINUOUS
 10
166.1096498123
 20
155.1211248415
 11
166.1052074098
 21
153.4250038462
  0
LINE
  8
0
 62
7
  6
CONTINUOUS
 10
165.7576071659
 20
80.8534919691
 11
165.7634207839
 21
82.3436992281
  0
LINE
  8
0
 62
7
  6
CONTINUOUS
 10
166.1154633684
 20
156.6113261156
 11
166.1096498123
 21
155.1211248415
  0
LINE
  8
0
 62
7
  6
CONTINUOUS
 10
166.1222064343
 20
157.903004237
 11
166.1154633684
 21
156.6113261156
  0
LINE
  8
0
 62
7
  6
CONTINUOUS
 10
165.7508640351
 20
79.5618103837
 11
165.7576071659
 21
80.8534919691
  0
LINE
  8
0
 62
7
  6
CONTINUOUS
 10
166.1294176162
 20
158.9949493799
 11
166.1222064343
 21
157.903004237
  0
LINE
  8
0
 62
7
  6
CONTINUOUS
 10
165.7436527878
 20
78.4698634161
 11
165.7508640351
 21
79.5618103837
  0
LINE
  8
0
 62
7
  6
CONTINUOUS
 10
166.1405502652
 20
160.3134135608
 11
166.1294176162
 21
158.9949493799
  0
LINE
  8
0
 62
7
  6
CONTINUOUS
 10
165.732520042
 20
77.1513984606
 11
165.7436527878
 21
78.4698634161
  0
LINE
  8
0
 62
7
  6
CONTINUOUS
 10
166.15184817
 20
161.339615276
 11
166.1405502652
 21
160.3134135608
  0
LINE
  8
0
 62
7
  6
CONTINUOUS
 10
165.7212220466
 20
76.125198304
 11
165.732520042
 21
77.1513984606
  0
LINE
  8
0
 62
7
  6
CONTINUOUS
 10
166.1632488352
 20
162.1411658048
 11
166.15184817
 21
161.339615276
  0
LINE
  8
0
 62
7
  6
CONTINUOUS
 10
165.7098213106
 20
75.3236519478
 11
165.7212220466
 21
76.125198304
  0
LINE
  8
0
 62
7
  6
CONTINUOUS
 10
166.1744551991
 20
162.7453023646
 11
166.1632488352
 21
162.1411658048
  0
LINE
  8
0
 62
7
  6
CONTINUOUS
 10
165.6986149018
 20
74.7195213007
 11
165.7098213106
 21
75.3236519478
  0
LINE
  8
0
 62
7
  6
CONTINUOUS
 10
165.6914657811
 20
74.4161706545
 11
165.6986149018
 21
74.7195213007
  0
POLYLINE
  8
0
 62
7
  6
CONTINUOUS
 66
1
 70
0
  0
VERTEX
  8
0
 62
7
  6
CONTINUOUS
 10
166.1850147332
 20
163.1728222192
  0
VERTEX
  8
0
 62
7
  6
CONTINUOUS
 10
166.1816043085
 20
163.0486574664
  0
VERTEX
  8
0
 62
7
  6
CONTINUOUS
 10
166.1744551991
 20
162.7453023646
  0
SEQEND
  0
POLYLINE
  8
0
 62
7
  6
CONTINUOUS
 66
1
 70
0
  0
VERTEX
  8
0
 62
7
  6
CONTINUOUS
 10
166.1023124151
 20
143.976439052
  0
VERTEX
  8
0
 62
7
  6
CONTINUOUS
 10
166.0785214552
 20
143.1804812127
  0
VERTEX
  8
0
 62
7
  6
CONTINUOUS
 10
165.998407022
 20
142.4083943674
  0
VERTEX
  8
0
 62
7
  6
CONTINUOUS
 10
165.8566782703
 20
141.7037239746
  0
VERTEX
  8
0
 62
7
  6
CONTINUOUS
 10
165.6527069603
 20
141.082191648
  0
VERTEX
  8
0
 62
7
  6
CONTINUOUS
 10
165.4038047423
 20
140.5812204488
  0
SEQEND
  0
POLYLINE
  8
0
 62
7
  6
CONTINUOUS
 66
1
 70
0
  0
VERTEX
  8
0
 62
7
  6
CONTINUOUS
 10
165.7707582683
 20
93.4884118657
  0
VERTEX
  8
0
 62
7
  6
CONTINUOUS
 10
165.794549223
 20
94.2843694997
  0
VERTEX
  8
0
 62
7
  6
CONTINUOUS
 10
165.8746636469
 20
95.0564561874
  0
VERTEX
  8
0
 62
7
  6
CONTINUOUS
 10
166.016392312
 20
95.7611264864
  0
VERTEX
  8
0
 62
7
  6
CONTINUOUS
 10
166.2203635816
 20
96.3826588837
  0
VERTEX
  8
0
 62
7
  6
CONTINUOUS
 10
166.4692658456
 20
96.8836300905
  0
SEQEND
  0
LINE
  8
0
 62
7
  6
CONTINUOUS
 10
165.6847618482
 20
74.1840300397
 11
165.6914657811
 21
74.4161706545
  0
LINE
  8
0
 62
7
  6
CONTINUOUS
 10
131.1519392805
 20
139.6321639489
 11
130.8261874099
 21
139.6024257138
  0
LINE
  8
0
 62
7
  6
CONTINUOUS
 10
50.8265353418
 20
139.6024254249
 11
64.0298583012
 21
139.6024254249
  0
LINE
  8
0
 62
7
  6
CONTINUOUS
 10
84.0480148278
 20
139.6024254249
 11
97.4251641099
 21
139.6024254249
  0
LINE
  8
0
 62
7
  6
CONTINUOUS
 10
117.4910239375
 20
139.6024254249
 11
130.8261777511
 21
139.6024254249
  0
LINE
  8
0
 62
7
  6
CONTINUOUS
 10
197.8096644035
 20
139.7669480763
 11
184.1934066867
 21
139.7669480763
  0
LINE
  8
0
 62
7
  6
CONTINUOUS
 10
150.7734062787
 20
139.7669480763
 11
164.3896641311
 21
139.7669480763
  0
LINE
  8
0
 62
7
  6
CONTINUOUS
 10
217.6134062787
 20
139.7669480763
 11
231.6227679387
 21
139.7669480763
  0
LINE
  8
0
 62
7
  6
CONTINUOUS
 10
117.4535888532
 20
139.6028138192
 11
117.4910239375
 21
139.6024254249
  0
LINE
  8
0
 62
7
  6
CONTINUOUS
 10
84.008568311
 20
139.6028563294
 11
84.0480235888
 21
139.6024254249
  0
POLYLINE
  8
0
 62
7
  6
CONTINUOUS
 66
1
 70
0
  0
VERTEX
  8
0
 62
7
  6
CONTINUOUS
 10
117.4535442147
 20
139.6028153167
  0
VERTEX
  8
0
 62
7
  6
CONTINUOUS
 10
117.3251705946
 20
139.6100639615
  0
VERTEX
  8
0
 62
7
  6
CONTINUOUS
 10
116.9551954005
 20
139.6837875206
  0
VERTEX
  8
0
 62
7
  6
CONTINUOUS
 10
116.6059352415
 20
139.8342266165
  0
VERTEX
  8
0
 62
7
  6
CONTINUOUS
 10
116.2946426894
 20
140.0554811234
  0
VERTEX
  8
0
 62
7
  6
CONTINUOUS
 10
116.1579652957
 20
140.1898023505
  0
VERTEX
  8
0
 62
7
  6
CONTINUOUS
 10
115.9304481936
 20
140.4986863713
  0
VERTEX
  8
0
 62
7
  6
CONTINUOUS
 10
115.7725742056
 20
140.8505058597
  0
VERTEX
  8
0
 62
7
  6
CONTINUOUS
 10
115.6925682439
 20
141.2312887107
  0
VERTEX
  8
0
 62
7
  6
CONTINUOUS
 10
115.6837056186
 20
141.4061744429
  0
SEQEND
  0
POLYLINE
  8
0
 62
7
  6
CONTINUOUS
 66
1
 70
0
  0
VERTEX
  8
0
 62
7
  6
CONTINUOUS
 10
150.7734062788
 20
139.7669479609
  0
VERTEX
  8
0
 62
7
  6
CONTINUOUS
 10
150.6167684776
 20
139.7839920804
  0
VERTEX
  8
0
 62
7
  6
CONTINUOUS
 10
150.4371864834
 20
139.8495092689
  0
VERTEX
  8
0
 62
7
  6
CONTINUOUS
 10
150.2655595939
 20
139.9614787769
  0
VERTEX
  8
0
 62
7
  6
CONTINUOUS
 10
150.1836885269
 20
140.032198705
  0
VERTEX
  8
0
 62
7
  6
CONTINUOUS
 10
150.0291371598
 20
140.1965517859
  0
VERTEX
  8
0
 62
7
  6
CONTINUOUS
 10
149.8820224068
 20
140.3909089834
  0
VERTEX
  8
0
 62
7
  6
CONTINUOUS
 10
149.7592651116
 20
140.5812204352
  0
SEQEND
  0
POLYLINE
  8
0
 62
7
  6
CONTINUOUS
 66
1
 70
0
  0
VERTEX
  8
0
 62
7
  6
CONTINUOUS
 10
182.1138048552
 20
96.8836300985
  0
VERTEX
  8
0
 62
7
  6
CONTINUOUS
 10
182.3634824723
 20
96.3807541474
  0
VERTEX
  8
0
 62
7
  6
CONTINUOUS
 10
182.5672267285
 20
95.7590164338
  0
VERTEX
  8
0
 62
7
  6
CONTINUOUS
 10
182.708747799
 20
95.0541672333
  0
VERTEX
  8
0
 62
7
  6
CONTINUOUS
 10
182.7886767311
 20
94.2819127344
  0
VERTEX
  8
0
 62
7
  6
CONTINUOUS
 10
182.8123124146
 20
93.4884118443
  0
SEQEND
  0
POLYLINE
  8
0
 62
7
  6
CONTINUOUS
 66
1
 70
0
  0
VERTEX
  8
0
 62
7
  6
CONTINUOUS
 10
198.8238056208
 20
140.5812204862
  0
VERTEX
  8
0
 62
7
  6
CONTINUOUS
 10
198.7009041852
 20
140.3907005664
  0
VERTEX
  8
0
 62
7
  6
CONTINUOUS
 10
198.5536637726
 20
140.1962293972
  0
VERTEX
  8
0
 62
7
  6
CONTINUOUS
 10
198.3990583704
 20
140.0318968984
  0
VERTEX
  8
0
 62
7
  6
CONTINUOUS
 10
198.317204995
 20
139.9612354393
  0
VERTEX
  8
0
 62
7
  6
CONTINUOUS
 10
198.1456887465
 20
139.8494095832
  0
VERTEX
  8
0
 62
7
  6
CONTINUOUS
 10
197.9662513861
 20
139.7839807885
  0
VERTEX
  8
0
 62
7
  6
CONTINUOUS
 10
197.8096644034
 20
139.7669479318
  0
SEQEND
  0
POLYLINE
  8
0
 62
7
  6
CONTINUOUS
 66
1
 70
0
  0
VERTEX
  8
0
 62
7
  6
CONTINUOUS
 10
166.4692651523
 20
96.8836305102
  0
VERTEX
  8
0
 62
7
  6
CONTINUOUS
 10
166.59390616
 20
97.0766651933
  0
VERTEX
  8
0
 62
7
  6
CONTINUOUS
 10
166.7409759409
 20
97.270493503
  0
VERTEX
  8
0
 62
7
  6
CONTINUOUS
 10
166.8955365723
 20
97.4343726611
  0
VERTEX
  8
0
 62
7
  6
CONTINUOUS
 10
166.9774397189
 20
97.504864357
  0
VERTEX
  8
0
 62
7
  6
CONTINUOUS
 10
167.1491196828
 20
97.6163249167
  0
VERTEX
  8
0
 62
7
  6
CONTINUOUS
 10
167.3286724859
 20
97.6812805933
  0
VERTEX
  8
0
 62
7
  6
CONTINUOUS
 10
167.4834067262
 20
97.6979028261
  0
SEQEND
  0
LINE
  8
0
 62
7
  6
CONTINUOUS
 10
97.7585940027
 20
139.6336657047
 11
97.4251639832
 21
139.6024256872
  0
LINE
  8
0
 62
7
  6
CONTINUOUS
 10
64.1867670015
 20
139.6092967151
 11
64.0298581724
 21
139.6024256873
  0
POLYLINE
  8
0
 62
7
  6
CONTINUOUS
 66
1
 70
0
  0
VERTEX
  8
0
 62
7
  6
CONTINUOUS
 10
184.1934066877
 20
139.7669479311
  0
VERTEX
  8
0
 62
7
  6
CONTINUOUS
 10
184.0387230446
 20
139.7835590673
  0
VERTEX
  8
0
 62
7
  6
CONTINUOUS
 10
183.8593150654
 20
139.8484269087
  0
VERTEX
  8
0
 62
7
  6
CONTINUOUS
 10
183.6877462439
 20
139.9597439138
  0
VERTEX
  8
0
 62
7
  6
CONTINUOUS
 10
183.6058606895
 20
140.0301770579
  0
VERTEX
  8
0
 62
7
  6
CONTINUOUS
 10
183.4512461783
 20
140.1940353641
  0
VERTEX
  8
0
 62
7
  6
CONTINUOUS
 10
183.3040507138
 20
140.3879773734
  0
VERTEX
  8
0
 62
7
  6
CONTINUOUS
 10
183.1792653812
 20
140.581220115
  0
SEQEND
  0
POLYLINE
  8
0
 62
7
  6
CONTINUOUS
 66
1
 70
0
  0
VERTEX
  8
0
 62
7
  6
CONTINUOUS
 10
217.6134062788
 20
139.7669479609
  0
VERTEX
  8
0
 62
7
  6
CONTINUOUS
 10
217.4567684776
 20
139.7839920804
  0
VERTEX
  8
0
 62
7
  6
CONTINUOUS
 10
217.2771864834
 20
139.8495092689
  0
VERTEX
  8
0
 62
7
  6
CONTINUOUS
 10
217.1055595939
 20
139.9614787769
  0
VERTEX
  8
0
 62
7
  6
CONTINUOUS
 10
217.0236885269
 20
140.0321987049
  0
VERTEX
  8
0
 62
7
  6
CONTINUOUS
 10
216.8691371598
 20
140.1965517859
  0
VERTEX
  8
0
 62
7
  6
CONTINUOUS
 10
216.7220224068
 20
140.3909089834
  0
VERTEX
  8
0
 62
7
  6
CONTINUOUS
 10
216.5992651116
 20
140.5812204352
  0
SEQEND
  0
POLYLINE
  8
0
 62
7
  6
CONTINUOUS
 66
1
 70
0
  0
VERTEX
  8
0
 62
7
  6
CONTINUOUS
 10
182.9000186501
 20
74.1324404576
  0
VERTEX
  8
0
 62
7
  6
CONTINUOUS
 10
182.9038039308
 20
74.0286773388
  0
VERTEX
  8
0
 62
7
  6
CONTINUOUS
 10
182.907554271
 20
73.9394209906
  0
VERTEX
  8
0
 62
7
  6
CONTINUOUS
 10
182.9113471411
 20
73.861916598
  0
VERTEX
  8
0
 62
7
  6
CONTINUOUS
 10
182.9153244616
 20
73.793114502
  0
VERTEX
  8
0
 62
7
  6
CONTINUOUS
 10
182.9197375791
 20
73.72962509
  0
VERTEX
  8
0
 62
7
  6
CONTINUOUS
 10
182.9250928828
 20
73.666951142
  0
VERTEX
  8
0
 62
7
  6
CONTINUOUS
 10
182.9324725518
 20
73.5986021176
  0
VERTEX
  8
0
 62
7
  6
CONTINUOUS
 10
182.9441870709
 20
73.5154722192
  0
VERTEX
  8
0
 62
7
  6
CONTINUOUS
 10
182.9642212373
 20
73.4095160089
  0
VERTEX
  8
0
 62
7
  6
CONTINUOUS
 10
182.9966576097
 20
73.2822914761
  0
VERTEX
  8
0
 62
7
  6
CONTINUOUS
 10
183.0498176871
 20
73.1269426788
  0
VERTEX
  8
0
 62
7
  6
CONTINUOUS
 10
183.1354826783
 20
72.9407137869
  0
VERTEX
  8
0
 62
7
  6
CONTINUOUS
 10
183.2566720523
 20
72.7438038131
  0
VERTEX
  8
0
 62
7
  6
CONTINUOUS
 10
183.4150673314
 20
72.5499868772
  0
VERTEX
  8
0
 62
7
  6
CONTINUOUS
 10
183.6120517783
 20
72.3693992698
  0
VERTEX
  8
0
 62
7
  6
CONTINUOUS
 10
183.8483174611
 20
72.211591701
  0
VERTEX
  8
0
 62
7
  6
CONTINUOUS
 10
184.1231742741
 20
72.086843932
  0
VERTEX
  8
0
 62
7
  6
CONTINUOUS
 10
184.4334523674
 20
72.0065935496
  0
VERTEX
  8
0
 62
7
  6
CONTINUOUS
 10
184.7275070097
 20
71.982425991
  0
SEQEND
  0
POLYLINE
  8
0
 62
7
  6
CONTINUOUS
 66
1
 70
0
  0
VERTEX
  8
0
 62
7
  6
CONTINUOUS
 10
182.3930240884
 20
163.3332287583
  0
VERTEX
  8
0
 62
7
  6
CONTINUOUS
 10
182.3892383404
 20
163.436899348
  0
VERTEX
  8
0
 62
7
  6
CONTINUOUS
 10
182.3854874422
 20
163.5260691539
  0
VERTEX
  8
0
 62
7
  6
CONTINUOUS
 10
182.3816934394
 20
163.6035010558
  0
VERTEX
  8
0
 62
7
  6
CONTINUOUS
 10
182.3777137503
 20
163.6722499941
  0
VERTEX
  8
0
 62
7
  6
CONTINUOUS
 10
182.3732961868
 20
163.7357070723
  0
VERTEX
  8
0
 62
7
  6
CONTINUOUS
 10
182.3679323324
 20
163.7983769114
  0
VERTEX
  8
0
 62
7
  6
CONTINUOUS
 10
182.3605354148
 20
163.8667632875
  0
VERTEX
  8
0
 62
7
  6
CONTINUOUS
 10
182.3487920293
 20
163.9499466254
  0
VERTEX
  8
0
 62
7
  6
CONTINUOUS
 10
182.328734793
 20
164.0558603041
  0
VERTEX
  8
0
 62
7
  6
CONTINUOUS
 10
182.2962540884
 20
164.183101836
  0
VERTEX
  8
0
 62
7
  6
CONTINUOUS
 10
182.2428890085
 20
164.3388330464
  0
VERTEX
  8
0
 62
7
  6
CONTINUOUS
 10
182.1569365879
 20
164.5253639604
  0
VERTEX
  8
0
 62
7
  6
CONTINUOUS
 10
182.0354557686
 20
164.7223784163
  0
VERTEX
  8
0
 62
7
  6
CONTINUOUS
 10
181.8767543759
 20
164.9161909889
  0
VERTEX
  8
0
 62
7
  6
CONTINUOUS
 10
181.6794560237
 20
165.0966827887
  0
VERTEX
  8
0
 62
7
  6
CONTINUOUS
 10
181.4428754468
 20
165.2543078878
  0
VERTEX
  8
0
 62
7
  6
CONTINUOUS
 10
181.1677167643
 20
165.3787817146
  0
VERTEX
  8
0
 62
7
  6
CONTINUOUS
 10
180.8571676758
 20
165.4586611269
  0
VERTEX
  8
0
 62
7
  6
CONTINUOUS
 10
180.5655636846
 20
165.4824248591
  0
SEQEND
  0
LINE
  8
0
 62
7
  6
CONTINUOUS
 10
182.4008006521
 20
163.073905362
 11
182.3930240884
 21
163.3332287583
  0
LINE
  8
0
 62
7
  6
CONTINUOUS
 10
182.89224307
 20
74.3919583986
 11
182.9000186501
 21
74.1324404576
  0
LINE
  8
0
 62
7
  6
CONTINUOUS
 10
182.8842167522
 20
74.7307156003
 11
182.89224307
 21
74.3919583986
  0
LINE
  8
0
 62
7
  6
CONTINUOUS
 10
182.4088263163
 20
162.7354321265
 11
182.4008006521
 21
163.073905362
  0
LINE
  8
0
 62
7
  6
CONTINUOUS
 10
182.8760185536
 20
75.1587011775
 11
182.8842167522
 21
74.7307156003
  0
LINE
  8
0
 62
7
  6
CONTINUOUS
 10
182.4170238126
 20
162.3077811173
 11
182.4088263163
 21
162.7354321265
  0
LINE
  8
0
 62
7
  6
CONTINUOUS
 10
182.8677716471
 20
75.6829529302
 11
182.8760185536
 21
75.1587011775
  0
LINE
  8
0
 62
7
  6
CONTINUOUS
 10
182.4252720075
 20
161.7837836816
 11
182.4170238126
 21
162.3077811173
  0
LINE
  8
0
 62
7
  6
CONTINUOUS
 10
182.8595687801
 20
76.3117268241
 11
182.8677716471
 21
75.6829529302
  0
LINE
  8
0
 62
7
  6
CONTINUOUS
 10
182.4334776704
 20
161.1551572547
 11
182.4252720075
 21
161.7837836816
  0
LINE
  8
0
 62
7
  6
CONTINUOUS
 10
182.8514637062
 20
77.0582742417
 11
182.8595687801
 21
76.3117268241
  0
LINE
  8
0
 62
7
  6
CONTINUOUS
 10
182.441587314
 20
160.4085603873
 11
182.4334776704
 21
161.1551572547
  0
LINE
  8
0
 62
7
  6
CONTINUOUS
 10
182.8435468972
 20
77.9374107269
 11
182.8514637062
 21
77.0582742417
  0
LINE
  8
0
 62
7
  6
CONTINUOUS
 10
182.4495106043
 20
159.5290503386
 11
182.441587314
 21
160.4085603873
  0
LINE
  8
0
 62
7
  6
CONTINUOUS
 10
182.8359392755
 20
78.9673694391
 11
182.8435468972
 21
77.9374107269
  0
LINE
  8
0
 62
7
  6
CONTINUOUS
 10
182.4571245519
 20
158.4985117954
 11
182.4495106043
 21
159.5290503386
  0
LINE
  8
0
 62
7
  6
CONTINUOUS
 10
182.828823866
 20
80.168135933
 11
182.8359392755
 21
78.9673694391
  0
LINE
  8
0
 62
7
  6
CONTINUOUS
 10
182.4642439207
 20
157.2972666288
 11
182.4571245519
 21
158.4985117954
  0
LINE
  8
0
 62
7
  6
CONTINUOUS
 10
182.470592737
 20
155.9077462365
 11
182.4642439207
 21
157.2972666288
  0
LINE
  8
0
 62
7
  6
CONTINUOUS
 10
182.8224774972
 20
81.5572189785
 11
182.828823866
 21
80.168135933
  0
LINE
  8
0
 62
7
  6
CONTINUOUS
 10
182.4758032297
 20
154.3146607482
 11
182.470592737
 21
155.9077462365
  0
LINE
  8
0
 62
7
  6
CONTINUOUS
 10
182.8172688603
 20
83.1496582242
 11
182.8224774972
 21
81.5572189785
  0
POLYLINE
  8
0
 62
7
  6
CONTINUOUS
 66
1
 70
0
  0
VERTEX
  8
0
 62
7
  6
CONTINUOUS
 10
182.4804126419
 20
151.5050502785
  0
VERTEX
  8
0
 62
7
  6
CONTINUOUS
 10
182.4794072101
 20
152.4994920044
  0
VERTEX
  8
0
 62
7
  6
CONTINUOUS
 10
182.4758032297
 20
154.3146607482
  0
SEQEND
  0
POLYLINE
  8
0
 62
7
  6
CONTINUOUS
 66
1
 70
0
  0
VERTEX
  8
0
 62
7
  6
CONTINUOUS
 10
182.8126593333
 20
85.957895577
  0
VERTEX
  8
0
 62
7
  6
CONTINUOUS
 10
182.8136653676
 20
84.9639539586
  0
VERTEX
  8
0
 62
7
  6
CONTINUOUS
 10
182.8172688603
 20
83.1496582242
  0
SEQEND
  0
LINE
  8
0
 62
7
  6
CONTINUOUS
 10
182.4807584387
 20
143.9764390624
 11
182.4804126419
 21
151.5050502785
  0
LINE
  8
0
 62
7
  6
CONTINUOUS
 10
182.8126593333
 20
85.957895577
 11
182.8123122449
 21
93.4884118444
  0
LINE
  8
SURF_PART
 62
2
  6
CENTER
 10
63.911611215
 20
150.4824254249
 11
251.4265353418
 21
150.4824254249
  0
POLYLINE
  8
0
 62
7
  6
CONTINUOUS
 66
1
 70
0
  0
VERTEX
  8
0
 62
7
  6
CONTINUOUS
 10
168.0175070035
 20
165.4824248587
  0
VERTEX
  8
0
 62
7
  6
CONTINUOUS
 10
167.6868121777
 20
165.4518041622
  0
VERTEX
  8
0
 62
7
  6
CONTINUOUS
 10
167.3464280767
 20
165.3527314665
  0
VERTEX
  8
0
 62
7
  6
CONTINUOUS
 10
167.0512849233
 20
165.2013167879
  0
VERTEX
  8
0
 62
7
  6
CONTINUOUS
 10
166.8059650823
 20
165.014068112
  0
VERTEX
  8
0
 62
7
  6
CONTINUOUS
 10
166.6110076703
 20
164.8064921311
  0
VERTEX
  8
0
 62
7
  6
CONTINUOUS
 10
166.4649023902
 20
164.5946042147
  0
VERTEX
  8
0
 62
7
  6
CONTINUOUS
 10
166.3624775236
 20
164.3928761155
  0
VERTEX
  8
0
 62
7
  6
CONTINUOUS
 10
166.2966030774
 20
164.2153774705
  0
VERTEX
  8
0
 62
7
  6
CONTINUOUS
 10
166.2598232072
 20
164.0802219921
  0
VERTEX
  8
0
 62
7
  6
CONTINUOUS
 10
166.2387374189
 20
163.9764572141
  0
VERTEX
  8
0
 62
7
  6
CONTINUOUS
 10
166.2259090972
 20
163.8931545028
  0
VERTEX
  8
0
 62
7
  6
CONTINUOUS
 10
166.2179077664
 20
163.8259952089
  0
VERTEX
  8
0
 62
7
  6
CONTINUOUS
 10
166.2123523515
 20
163.7675287285
  0
VERTEX
  8
0
 62
7
  6
CONTINUOUS
 10
166.2080218485
 20
163.7119890345
  0
VERTEX
  8
0
 62
7
  6
CONTINUOUS
 10
166.2043154634
 20
163.6554030498
  0
VERTEX
  8
0
 62
7
  6
CONTINUOUS
 10
166.2009394415
 20
163.5951850395
  0
VERTEX
  8
0
 62
7
  6
CONTINUOUS
 10
166.1977446582
 20
163.529617424
  0
VERTEX
  8
0
 62
7
  6
CONTINUOUS
 10
166.1946257761
 20
163.456857424
  0
VERTEX
  8
0
 62
7
  6
CONTINUOUS
 10
166.1914997187
 20
163.3746987217
  0
VERTEX
  8
0
 62
7
  6
CONTINUOUS
 10
166.1850147332
 20
163.1728222192
  0
SEQEND
  0
POLYLINE
  8
0
 62
7
  6
CONTINUOUS
 66
1
 70
0
  0
VERTEX
  8
0
 62
7
  6
CONTINUOUS
 10
235.0076118747
 20
165.4824248587
  0
VERTEX
  8
0
 62
7
  6
CONTINUOUS
 10
234.6771003814
 20
165.4518384282
  0
VERTEX
  8
0
 62
7
  6
CONTINUOUS
 10
234.3368467892
 20
165.3528575784
  0
VERTEX
  8
0
 62
7
  6
CONTINUOUS
 10
234.0417848925
 20
165.2015681875
  0
VERTEX
  8
0
 62
7
  6
CONTINUOUS
 10
233.7964967862
 20
165.0144565896
  0
VERTEX
  8
0
 62
7
  6
CONTINUOUS
 10
233.6015254048
 20
164.8070089927
  0
VERTEX
  8
0
 62
7
  6
CONTINUOUS
 10
233.4553659523
 20
164.5952151761
  0
VERTEX
  8
0
 62
7
  6
CONTINUOUS
 10
233.3528688956
 20
164.3935440754
  0
VERTEX
  8
0
 62
7
  6
CONTINUOUS
 10
233.286910724
 20
164.2160326486
  0
VERTEX
  8
0
 62
7
  6
CONTINUOUS
 10
233.2500466059
 20
164.0807471875
  0
VERTEX
  8
0
 62
7
  6
CONTINUOUS
 10
233.2289155656
 20
163.9769018677
  0
VERTEX
  8
0
 62
7
  6
CONTINUOUS
 10
233.216057959
 20
163.8935280682
  0
VERTEX
  8
0
 62
7
  6
CONTINUOUS
 10
233.2080382005
 20
163.8263100745
  0
VERTEX
  8
0
 62
7
  6
CONTINUOUS
 10
233.202471561
 20
163.7678060944
  0
VERTEX
  8
0
 62
7
  6
CONTINUOUS
 10
233.1981337657
 20
163.7122460296
  0
VERTEX
  8
0
 62
7
  6
CONTINUOUS
 10
233.1944221848
 20
163.6556520695
  0
VERTEX
  8
0
 62
7
  6
CONTINUOUS
 10
233.1910420249
 20
163.595433258
  0
VERTEX
  8
0
 62
7
  6
CONTINUOUS
 10
233.187843694
 20
163.5298693198
  0
VERTEX
  8
0
 62
7
  6
CONTINUOUS
 10
233.1847216946
 20
163.4571187986
  0
VERTEX
  8
0
 62
7
  6
CONTINUOUS
 10
233.1783984127
 20
163.2810952626
  0
SEQEND
  0
POLYLINE
  8
0
 62
7
  6
CONTINUOUS
 66
1
 70
0
  0
VERTEX
  8
0
 62
7
  6
CONTINUOUS
 10
201.4375070283
 20
165.4824248591
  0
VERTEX
  8
0
 62
7
  6
CONTINUOUS
 10
201.1086838292
 20
165.4521527441
  0
VERTEX
  8
0
 62
7
  6
CONTINUOUS
 10
200.7675601209
 20
165.3531855432
  0
VERTEX
  8
0
 62
7
  6
CONTINUOUS
 10
200.4718029586
 20
165.2016459369
  0
VERTEX
  8
0
 62
7
  6
CONTINUOUS
 10
200.2260273323
 20
165.0141246761
  0
VERTEX
  8
0
 62
7
  6
CONTINUOUS
 10
200.03078311
 20
164.8062115266
  0
VERTEX
  8
0
 62
7
  6
CONTINUOUS
 10
199.8845610871
 20
164.5940245876
  0
VERTEX
  8
0
 62
7
  6
CONTINUOUS
 10
199.7821223055
 20
164.3920523382
  0
VERTEX
  8
0
 62
7
  6
CONTINUOUS
 10
199.7163178218
 20
164.2144660086
  0
VERTEX
  8
0
 62
7
  6
CONTINUOUS
 10
199.6796783047
 20
164.0795974487
  0
VERTEX
  8
0
 62
7
  6
CONTINUOUS
 10
199.6586470867
 20
163.9759408415
  0
VERTEX
  8
0
 62
7
  6
CONTINUOUS
 10
199.6458485766
 20
163.8927018332
  0
VERTEX
  8
0
 62
7
  6
CONTINUOUS
 10
199.6378672074
 20
163.8256099952
  0
VERTEX
  8
0
 62
7
  6
CONTINUOUS
 10
199.6323227489
 20
163.7671822862
  0
VERTEX
  8
0
 62
7
  6
CONTINUOUS
 10
199.6279980034
 20
163.7116537249
  0
VERTEX
  8
0
 62
7
  6
CONTINUOUS
 10
199.6242948181
 20
163.6550611805
  0
VERTEX
  8
0
 62
7
  6
CONTINUOUS
 10
199.620920779
 20
163.5948270794
  0
VERTEX
  8
0
 62
7
  6
CONTINUOUS
 10
199.617727297
 20
163.5292369015
  0
VERTEX
  8
0
 62
7
  6
CONTINUOUS
 10
199.6146088986
 20
163.4564391121
  0
VERTEX
  8
0
 62
7
  6
CONTINUOUS
 10
199.6082907208
 20
163.2802581359
  0
SEQEND
  0
POLYLINE
  8
0
 62
7
  6
CONTINUOUS
 66
1
 70
0
  0
VERTEX
  8
0
 62
7
  6
CONTINUOUS
 10
183.1792659182
 20
140.5812204401
  0
VERTEX
  8
0
 62
7
  6
CONTINUOUS
 10
182.9303637009
 20
141.0821917118
  0
VERTEX
  8
0
 62
7
  6
CONTINUOUS
 10
182.7263924187
 20
141.7037239608
  0
VERTEX
  8
0
 62
7
  6
CONTINUOUS
 10
182.5846636763
 20
142.4083942193
  0
VERTEX
  8
0
 62
7
  6
CONTINUOUS
 10
182.5045492114
 20
143.180481148
  0
VERTEX
  8
0
 62
7
  6
CONTINUOUS
 10
182.4807582942
 20
143.9764390624
  0
SEQEND
  0
LINE
  8
0
 62
7
  6
CONTINUOUS
 10
199.1904145134
 20
85.9625675197
 11
199.1907584387
 21
93.4884118657
  0
LINE
  8
0
 62
7
  6
CONTINUOUS
 10
199.5226574956
 20
151.504243557
 11
199.5223122449
 21
143.9764390526
  0
LINE
  8
0
 62
7
  6
CONTINUOUS
 10
199.1878632376
 20
84.0398287458
 11
199.1904145134
 21
85.9625675197
  0
LINE
  8
0
 62
7
  6
CONTINUOUS
 10
199.5252097127
 20
153.4261590703
 11
199.5226574956
 21
151.504243557
  0
LINE
  8
0
 62
7
  6
CONTINUOUS
 10
199.1834207839
 20
82.3436992281
 11
199.1878632376
 21
84.0398287458
  0
LINE
  8
0
 62
7
  6
CONTINUOUS
 10
199.5296514341
 20
155.1216206525
 11
199.5252097127
 21
153.4261590703
  0
LINE
  8
0
 62
7
  6
CONTINUOUS
 10
199.1776071659
 20
80.8534919691
 11
199.1834207839
 21
82.3436992281
  0
LINE
  8
0
 62
7
  6
CONTINUOUS
 10
199.5354631972
 20
156.6112886489
 11
199.5296514341
 21
155.1216206525
  0
LINE
  8
0
 62
7
  6
CONTINUOUS
 10
199.5422040788
 20
157.9026063186
 11
199.5354631972
 21
156.6112886489
  0
LINE
  8
0
 62
7
  6
CONTINUOUS
 10
199.1708640351
 20
79.5618103837
 11
199.1776071659
 21
80.8534919691
  0
LINE
  8
0
 62
7
  6
CONTINUOUS
 10
199.5494133699
 20
158.9943711499
 11
199.5422040788
 21
157.9026063186
  0
LINE
  8
0
 62
7
  6
CONTINUOUS
 10
199.1636527878
 20
78.4698634161
 11
199.1708640351
 21
79.5618103837
  0
LINE
  8
0
 62
7
  6
CONTINUOUS
 10
199.5605432576
 20
160.3126911575
 11
199.5494133699
 21
158.9943711499
  0
LINE
  8
0
 62
7
  6
CONTINUOUS
 10
199.152520042
 20
77.1513984605
 11
199.1636527878
 21
78.4698634161
  0
LINE
  8
0
 62
7
  6
CONTINUOUS
 10
199.5718376384
 20
161.3387753526
 11
199.5605432576
 21
160.3126911575
  0
LINE
  8
0
 62
7
  6
CONTINUOUS
 10
199.1412220466
 20
76.125198304
 11
199.152520042
 21
77.1513984605
  0
LINE
  8
0
 62
7
  6
CONTINUOUS
 10
199.5832343459
 20
162.1402741287
 11
199.5718376384
 21
161.3387753526
  0
LINE
  8
0
 62
7
  6
CONTINUOUS
 10
199.1298213106
 20
75.3236519478
 11
199.1412220466
 21
76.125198304
  0
LINE
  8
0
 62
7
  6
CONTINUOUS
 10
199.5944374119
 20
162.7444717406
 11
199.5832343459
 21
162.1402741287
  0
LINE
  8
0
 62
7
  6
CONTINUOUS
 10
199.1186149018
 20
74.7195213007
 11
199.1298213106
 21
75.3236519478
  0
LINE
  8
0
 62
7
  6
CONTINUOUS
 10
199.6015858551
 20
163.0479505249
 11
199.5944374119
 21
162.7444717406
  0
LINE
  8
0
 62
7
  6
CONTINUOUS
 10
199.1114657811
 20
74.4161706545
 11
199.1186149018
 21
74.7195213007
  0
POLYLINE
  8
0
 62
7
  6
CONTINUOUS
 66
1
 70
0
  0
VERTEX
  8
0
 62
7
  6
CONTINUOUS
 10
199.5223124057
 20
143.9764390526
  0
VERTEX
  8
0
 62
7
  6
CONTINUOUS
 10
199.4986767192
 20
143.1829379987
  0
VERTEX
  8
0
 62
7
  6
CONTINUOUS
 10
199.418747818
 20
142.4106834958
  0
VERTEX
  8
0
 62
7
  6
CONTINUOUS
 10
199.2772266566
 20
141.7058341539
  0
VERTEX
  8
0
 62
7
  6
CONTINUOUS
 10
199.0734820312
 20
141.0840956394
  0
VERTEX
  8
0
 62
7
  6
CONTINUOUS
 10
198.8238049727
 20
140.5812208786
  0
SEQEND
  0
POLYLINE
  8
0
 62
7
  6
CONTINUOUS
 66
1
 70
0
  0
VERTEX
  8
0
 62
7
  6
CONTINUOUS
 10
199.1907582683
 20
93.4884118657
  0
VERTEX
  8
0
 62
7
  6
CONTINUOUS
 10
199.214549223
 20
94.2843694997
  0
VERTEX
  8
0
 62
7
  6
CONTINUOUS
 10
199.2946636469
 20
95.0564561874
  0
VERTEX
  8
0
 62
7
  6
CONTINUOUS
 10
199.436392312
 20
95.7611264864
  0
VERTEX
  8
0
 62
7
  6
CONTINUOUS
 10
199.6403635816
 20
96.3826588837
  0
VERTEX
  8
0
 62
7
  6
CONTINUOUS
 10
199.8892658456
 20
96.8836300905
  0
SEQEND
  0
LINE
  8
0
 62
7
  6
CONTINUOUS
 10
199.6082907208
 20
163.2802581359
 11
199.6015858551
 21
163.0479505249
  0
LINE
  8
0
 62
7
  6
CONTINUOUS
 10
199.1047618482
 20
74.1840300397
 11
199.1114657811
 21
74.4161706545
  0
POLYLINE
  8
0
 62
7
  6
CONTINUOUS
 66
1
 70
0
  0
VERTEX
  8
0
 62
7
  6
CONTINUOUS
 10
134.5975070353
 20
165.4824248587
  0
VERTEX
  8
0
 62
7
  6
CONTINUOUS
 10
134.2649558724
 20
165.4514564109
  0
VERTEX
  8
0
 62
7
  6
CONTINUOUS
 10
133.9243091913
 20
165.3518791483
  0
VERTEX
  8
0
 62
7
  6
CONTINUOUS
 10
133.6290853412
 20
165.1999164203
  0
VERTEX
  8
0
 62
7
  6
CONTINUOUS
 10
133.3838512736
 20
165.0121439206
  0
VERTEX
  8
0
 62
7
  6
CONTINUOUS
 10
133.1891213173
 20
164.8041314994
  0
VERTEX
  8
0
 62
7
  6
CONTINUOUS
 10
133.0433560495
 20
164.5919741815
  0
VERTEX
  8
0
 62
7
  6
CONTINUOUS
 10
132.9413115618
 20
164.390167978
  0
VERTEX
  8
0
 62
7
  6
CONTINUOUS
 10
132.8758330692
 20
164.2129132843
  0
VERTEX
  8
0
 62
7
  6
CONTINUOUS
 10
132.8393729424
 20
164.0782781253
  0
VERTEX
  8
0
 62
7
  6
CONTINUOUS
 10
132.8183917595
 20
163.9744769294
  0
VERTEX
  8
0
 62
7
  6
CONTINUOUS
 10
132.8056037294
 20
163.8908632377
  0
VERTEX
  8
0
 62
7
  6
CONTINUOUS
 10
132.7976178505
 20
163.8232298839
  0
VERTEX
  8
0
 62
7
  6
CONTINUOUS
 10
132.7920627487
 20
163.7641213544
  0
VERTEX
  8
0
 62
7
  6
CONTINUOUS
 10
132.7877277008
 20
163.7078281307
  0
VERTEX
  8
0
 62
7
  6
CONTINUOUS
 10
132.7840238926
 20
163.6505460666
  0
VERTEX
  8
0
 62
7
  6
CONTINUOUS
 10
132.7806705078
 20
163.5899988596
  0
VERTEX
  8
0
 62
7
  6
CONTINUOUS
 10
132.7775310356
 20
163.5249165803
  0
VERTEX
  8
0
 62
7
  6
CONTINUOUS
 10
132.7745180605
 20
163.4541830647
  0
VERTEX
  8
0
 62
7
  6
CONTINUOUS
 10
132.7715722338
 20
163.376712879
  0
VERTEX
  8
0
 62
7
  6
CONTINUOUS
 10
132.7657502147
 20
163.1979353903
  0
SEQEND
  0
POLYLINE
  8
0
 62
7
  6
CONTINUOUS
 66
1
 70
0
  0
VERTEX
  8
0
 62
7
  6
CONTINUOUS
 10
101.1775071116
 20
165.4824248625
  0
VERTEX
  8
0
 62
7
  6
CONTINUOUS
 10
100.8449849867
 20
165.4514618767
  0
VERTEX
  8
0
 62
7
  6
CONTINUOUS
 10
100.5043605729
 20
165.3518998408
  0
VERTEX
  8
0
 62
7
  6
CONTINUOUS
 10
100.2091506425
 20
165.1999580371
  0
VERTEX
  8
0
 62
7
  6
CONTINUOUS
 10
99.9639220756
 20
165.0122084392
  0
VERTEX
  8
0
 62
7
  6
CONTINUOUS
 10
99.7691898185
 20
164.804217324
  0
VERTEX
  8
0
 62
7
  6
CONTINUOUS
 10
99.6234153207
 20
164.5920751271
  0
VERTEX
  8
0
 62
7
  6
CONTINUOUS
 10
99.521358477
 20
164.3902771266
  0
VERTEX
  8
0
 62
7
  6
CONTINUOUS
 10
99.4558657564
 20
164.2130181073
  0
VERTEX
  8
0
 62
7
  6
CONTINUOUS
 10
99.4193909069
 20
164.0783558962
  0
VERTEX
  8
0
 62
7
  6
CONTINUOUS
 10
99.3984018123
 20
163.9745347341
  0
VERTEX
  8
0
 62
7
  6
CONTINUOUS
 10
99.3856096723
 20
163.8909079892
  0
VERTEX
  8
0
 62
7
  6
CONTINUOUS
 10
99.3776217861
 20
163.8232675572
  0
VERTEX
  8
0
 62
7
  6
CONTINUOUS
 10
99.3720655815
 20
163.7641549278
  0
VERTEX
  8
0
 62
7
  6
CONTINUOUS
 10
99.367729915
 20
163.7078596552
  0
VERTEX
  8
0
 62
7
  6
CONTINUOUS
 10
99.3640258097
 20
163.6505781523
  0
VERTEX
  8
0
 62
7
  6
CONTINUOUS
 10
99.3606722168
 20
163.5900320596
  0
VERTEX
  8
0
 62
7
  6
CONTINUOUS
 10
99.3575325978
 20
163.5249510837
  0
VERTEX
  8
0
 62
7
  6
CONTINUOUS
 10
99.3545195383
 20
163.4542198005
  0
VERTEX
  8
0
 62
7
  6
CONTINUOUS
 10
99.3486587312
 20
163.2916226595
  0
SEQEND
  0
LINE
  8
SURFACE
 62
7
  6
CONTINUOUS
 10
213.9855637836
 20
165.4824254249
 11
201.4375068997
 21
165.4824254249
  0
LINE
  8
SURFACE
 62
7
  6
CONTINUOUS
 10
180.5655637839
 20
165.4824254249
 11
168.0175069
 21
165.4824254249
  0
LINE
  8
0
 62
7
  6
CONTINUOUS
 10
67.7575069565
 20
165.4824254249
 11
80.3055637272
 21
165.4824254249
  0
LINE
  8
0
 62
7
  6
CONTINUOUS
 10
101.1775069565
 20
165.4824254249
 11
113.7255637272
 21
165.4824254249
  0
LINE
  8
0
 62
7
  6
CONTINUOUS
 10
134.5975069576
 20
165.4824254249
 11
147.1455637841
 21
165.4824254249
  0
LINE
  8
SURFACE
 62
7
  6
CONTINUOUS
 10
235.007611737
 20
165.4824254249
 11
247.6265353418
 21
165.4824254249
  0
POLYLINE
  8
0
 62
7
  6
CONTINUOUS
 66
1
 70
0
  0
VERTEX
  8
0
 62
7
  6
CONTINUOUS
 10
215.5338048552
 20
96.8836300986
  0
VERTEX
  8
0
 62
7
  6
CONTINUOUS
 10
215.7834824723
 20
96.3807541474
  0
VERTEX
  8
0
 62
7
  6
CONTINUOUS
 10
215.9872267285
 20
95.7590164339
  0
VERTEX
  8
0
 62
7
  6
CONTINUOUS
 10
216.128747799
 20
95.0541672333
  0
VERTEX
  8
0
 62
7
  6
CONTINUOUS
 10
216.2086767311
 20
94.2819127344
  0
VERTEX
  8
0
 62
7
  6
CONTINUOUS
 10
216.2323124146
 20
93.4884118443
  0
SEQEND
  0
POLYLINE
  8
0
 62
7
  6
CONTINUOUS
 66
1
 70
0
  0
VERTEX
  8
0
 62
7
  6
CONTINUOUS
 10
199.8892651523
 20
96.8836305102
  0
VERTEX
  8
0
 62
7
  6
CONTINUOUS
 10
200.01390616
 20
97.0766651933
  0
VERTEX
  8
0
 62
7
  6
CONTINUOUS
 10
200.1609759409
 20
97.270493503
  0
VERTEX
  8
0
 62
7
  6
CONTINUOUS
 10
200.3155365723
 20
97.4343726611
  0
VERTEX
  8
0
 62
7
  6
CONTINUOUS
 10
200.3974397189
 20
97.504864357
  0
VERTEX
  8
0
 62
7
  6
CONTINUOUS
 10
200.5691196828
 20
97.6163249167
  0
VERTEX
  8
0
 62
7
  6
CONTINUOUS
 10
200.7486724859
 20
97.6812805933
  0
VERTEX
  8
0
 62
7
  6
CONTINUOUS
 10
200.9034067262
 20
97.6979028261
  0
SEQEND
  0
POLYLINE
  8
0
 62
7
  6
CONTINUOUS
 66
1
 70
0
  0
VERTEX
  8
0
 62
7
  6
CONTINUOUS
 10
67.7575071116
 20
165.4824248625
  0
VERTEX
  8
0
 62
7
  6
CONTINUOUS
 10
67.4249849867
 20
165.4514618767
  0
VERTEX
  8
0
 62
7
  6
CONTINUOUS
 10
67.0843605729
 20
165.3518998408
  0
VERTEX
  8
0
 62
7
  6
CONTINUOUS
 10
66.7891506425
 20
165.1999580371
  0
VERTEX
  8
0
 62
7
  6
CONTINUOUS
 10
66.5439220756
 20
165.0122084392
  0
VERTEX
  8
0
 62
7
  6
CONTINUOUS
 10
66.3491898185
 20
164.804217324
  0
VERTEX
  8
0
 62
7
  6
CONTINUOUS
 10
66.2034153207
 20
164.5920751271
  0
VERTEX
  8
0
 62
7
  6
CONTINUOUS
 10
66.101358477
 20
164.3902771266
  0
VERTEX
  8
0
 62
7
  6
CONTINUOUS
 10
66.0358657564
 20
164.2130181073
  0
VERTEX
  8
0
 62
7
  6
CONTINUOUS
 10
65.9993909069
 20
164.0783558962
  0
VERTEX
  8
0
 62
7
  6
CONTINUOUS
 10
65.9784018123
 20
163.9745347341
  0
VERTEX
  8
0
 62
7
  6
CONTINUOUS
 10
65.9656096723
 20
163.8909079892
  0
VERTEX
  8
0
 62
7
  6
CONTINUOUS
 10
65.9576217861
 20
163.8232675572
  0
VERTEX
  8
0
 62
7
  6
CONTINUOUS
 10
65.9520655815
 20
163.7641549278
  0
VERTEX
  8
0
 62
7
  6
CONTINUOUS
 10
65.947729915
 20
163.7078596552
  0
VERTEX
  8
0
 62
7
  6
CONTINUOUS
 10
65.9440258097
 20
163.6505781523
  0
VERTEX
  8
0
 62
7
  6
CONTINUOUS
 10
65.9406722168
 20
163.5900320596
  0
VERTEX
  8
0
 62
7
  6
CONTINUOUS
 10
65.9375325978
 20
163.5249510837
  0
VERTEX
  8
0
 62
7
  6
CONTINUOUS
 10
65.9345195383
 20
163.4542198005
  0
VERTEX
  8
0
 62
7
  6
CONTINUOUS
 10
65.9315736311
 20
163.376751684
  0
VERTEX
  8
0
 62
7
  6
CONTINUOUS
 10
65.9257515136
 20
163.1979792754
  0
SEQEND
  0
POLYLINE
  8
0
 62
7
  6
CONTINUOUS
 66
1
 70
0
  0
VERTEX
  8
0
 62
7
  6
CONTINUOUS
 10
216.3200186501
 20
74.1324404576
  0
VERTEX
  8
0
 62
7
  6
CONTINUOUS
 10
216.3238039308
 20
74.0286773388
  0
VERTEX
  8
0
 62
7
  6
CONTINUOUS
 10
216.327554271
 20
73.9394209906
  0
VERTEX
  8
0
 62
7
  6
CONTINUOUS
 10
216.3313471411
 20
73.861916598
  0
VERTEX
  8
0
 62
7
  6
CONTINUOUS
 10
216.3353244616
 20
73.793114502
  0
VERTEX
  8
0
 62
7
  6
CONTINUOUS
 10
216.3397375791
 20
73.72962509
  0
VERTEX
  8
0
 62
7
  6
CONTINUOUS
 10
216.3450928828
 20
73.666951142
  0
VERTEX
  8
0
 62
7
  6
CONTINUOUS
 10
216.3524725518
 20
73.5986021176
  0
VERTEX
  8
0
 62
7
  6
CONTINUOUS
 10
216.3641870709
 20
73.5154722192
  0
VERTEX
  8
0
 62
7
  6
CONTINUOUS
 10
216.3842212373
 20
73.4095160089
  0
VERTEX
  8
0
 62
7
  6
CONTINUOUS
 10
216.4166576097
 20
73.2822914761
  0
VERTEX
  8
0
 62
7
  6
CONTINUOUS
 10
216.4698176871
 20
73.1269426788
  0
VERTEX
  8
0
 62
7
  6
CONTINUOUS
 10
216.5554826783
 20
72.9407137869
  0
VERTEX
  8
0
 62
7
  6
CONTINUOUS
 10
216.6766720523
 20
72.7438038131
  0
VERTEX
  8
0
 62
7
  6
CONTINUOUS
 10
216.8350673314
 20
72.5499868772
  0
VERTEX
  8
0
 62
7
  6
CONTINUOUS
 10
217.0320517783
 20
72.3693992698
  0
VERTEX
  8
0
 62
7
  6
CONTINUOUS
 10
217.2683174611
 20
72.211591701
  0
VERTEX
  8
0
 62
7
  6
CONTINUOUS
 10
217.5431742741
 20
72.086843932
  0
VERTEX
  8
0
 62
7
  6
CONTINUOUS
 10
217.8534523674
 20
72.0065935496
  0
VERTEX
  8
0
 62
7
  6
CONTINUOUS
 10
218.1475070097
 20
71.982425991
  0
SEQEND
  0
LINE
  8
0
 62
7
  6
CONTINUOUS
 10
216.31224307
 20
74.3919583986
 11
216.3200186501
 21
74.1324404576
  0
LINE
  8
0
 62
7
  6
CONTINUOUS
 10
216.3042167522
 20
74.7307156003
 11
216.31224307
 21
74.3919583986
  0
LINE
  8
0
 62
7
  6
CONTINUOUS
 10
216.2960185536
 20
75.1587011775
 11
216.3042167522
 21
74.7307156003
  0
LINE
  8
0
 62
7
  6
CONTINUOUS
 10
216.2877716471
 20
75.6829529302
 11
216.2960185536
 21
75.1587011775
  0
LINE
  8
0
 62
7
  6
CONTINUOUS
 10
215.8452989909
 20
161.7819010908
 11
215.8370520933
 21
162.3061517818
  0
LINE
  8
0
 62
7
  6
CONTINUOUS
 10
216.2795687801
 20
76.3117268241
 11
216.2877716471
 21
75.6829529302
  0
LINE
  8
0
 62
7
  6
CONTINUOUS
 10
215.853501856
 20
161.1531280412
 11
215.8452989909
 21
161.7819010908
  0
LINE
  8
0
 62
7
  6
CONTINUOUS
 10
216.2714637062
 20
77.0582742417
 11
216.2795687801
 21
76.3117268241
  0
LINE
  8
0
 62
7
  6
CONTINUOUS
 10
215.8616069355
 20
160.4065808086
 11
215.853501856
 21
161.1531280412
  0
LINE
  8
0
 62
7
  6
CONTINUOUS
 10
216.2635468972
 20
77.9374107269
 11
216.2714637062
 21
77.0582742417
  0
LINE
  8
0
 62
7
  6
CONTINUOUS
 10
215.8695237593
 20
159.5274434674
 11
215.8616069355
 21
160.4065808086
  0
LINE
  8
0
 62
7
  6
CONTINUOUS
 10
216.2559392755
 20
78.9673694391
 11
216.2635468972
 21
77.9374107269
  0
LINE
  8
0
 62
7
  6
CONTINUOUS
 10
215.8771313954
 20
158.4974833159
 11
215.8695237593
 21
159.5274434674
  0
LINE
  8
0
 62
7
  6
CONTINUOUS
 10
216.248823866
 20
80.168135933
 11
216.2559392755
 21
78.9673694391
  0
LINE
  8
0
 62
7
  6
CONTINUOUS
 10
215.88424681
 20
157.2967163288
 11
215.8771313954
 21
158.4974833159
  0
LINE
  8
0
 62
7
  6
CONTINUOUS
 10
215.8905931799
 20
155.9076334936
 11
215.88424681
 21
157.2967163288
  0
LINE
  8
0
 62
7
  6
CONTINUOUS
 10
216.2424774972
 20
81.5572189785
 11
216.248823866
 21
80.168135933
  0
LINE
  8
0
 62
7
  6
CONTINUOUS
 10
215.8958018197
 20
154.3151939371
 11
215.8905931799
 21
155.9076334936
  0
LINE
  8
0
 62
7
  6
CONTINUOUS
 10
216.2372688603
 20
83.1496582242
 11
216.2424774972
 21
81.5572189785
  0
POLYLINE
  8
0
 62
7
  6
CONTINUOUS
 66
1
 70
0
  0
VERTEX
  8
0
 62
7
  6
CONTINUOUS
 10
215.9004113493
 20
151.5069569389
  0
VERTEX
  8
0
 62
7
  6
CONTINUOUS
 10
215.8994053145
 20
152.5008980712
  0
VERTEX
  8
0
 62
7
  6
CONTINUOUS
 10
215.8958018197
 20
154.3151939371
  0
SEQEND
  0
POLYLINE
  8
0
 62
7
  6
CONTINUOUS
 66
1
 70
0
  0
VERTEX
  8
0
 62
7
  6
CONTINUOUS
 10
216.2326593333
 20
85.957895577
  0
VERTEX
  8
0
 62
7
  6
CONTINUOUS
 10
216.2336653676
 20
84.9639539586
  0
VERTEX
  8
0
 62
7
  6
CONTINUOUS
 10
216.2372688603
 20
83.1496582242
  0
SEQEND
  0
LINE
  8
0
 62
7
  6
CONTINUOUS
 10
215.9004113493
 20
151.5069569389
 11
215.9007584387
 21
143.976439063
  0
LINE
  8
0
 62
7
  6
CONTINUOUS
 10
216.2326593333
 20
85.957895577
 11
216.2323122449
 21
93.4884118444
  0
POLYLINE
  8
0
 62
7
  6
CONTINUOUS
 66
1
 70
0
  0
VERTEX
  8
0
 62
7
  6
CONTINUOUS
 10
215.8130520231
 20
163.3324107038
  0
VERTEX
  8
0
 62
7
  6
CONTINUOUS
 10
215.809266745
 20
163.4361737009
  0
VERTEX
  8
0
 62
7
  6
CONTINUOUS
 10
215.8055164001
 20
163.5254301445
  0
VERTEX
  8
0
 62
7
  6
CONTINUOUS
 10
215.8017235348
 20
163.6029343786
  0
VERTEX
  8
0
 62
7
  6
CONTINUOUS
 10
215.7977462091
 20
163.6717365734
  0
VERTEX
  8
0
 62
7
  6
CONTINUOUS
 10
215.7933330853
 20
163.7352259946
  0
VERTEX
  8
0
 62
7
  6
CONTINUOUS
 10
215.7879778315
 20
163.7978993897
  0
VERTEX
  8
0
 62
7
  6
CONTINUOUS
 10
215.7805980897
 20
163.8662490944
  0
VERTEX
  8
0
 62
7
  6
CONTINUOUS
 10
215.7688835275
 20
163.9493791465
  0
VERTEX
  8
0
 62
7
  6
CONTINUOUS
 10
215.748849551
 20
164.0553343404
  0
VERTEX
  8
0
 62
7
  6
CONTINUOUS
 10
215.7164136559
 20
164.1825573908
  0
VERTEX
  8
0
 62
7
  6
CONTINUOUS
 10
215.663253404
 20
164.3379071552
  0
VERTEX
  8
0
 62
7
  6
CONTINUOUS
 10
215.5775882977
 20
164.5241365343
  0
VERTEX
  8
0
 62
7
  6
CONTINUOUS
 10
215.4563988672
 20
164.7210467235
  0
VERTEX
  8
0
 62
7
  6
CONTINUOUS
 10
215.2980035612
 20
164.914863767
  0
VERTEX
  8
0
 62
7
  6
CONTINUOUS
 10
215.1010190924
 20
165.0954514455
  0
VERTEX
  8
0
 62
7
  6
CONTINUOUS
 10
214.8647533828
 20
165.2532590687
  0
VERTEX
  8
0
 62
7
  6
CONTINUOUS
 10
214.5898965342
 20
165.3780068796
  0
VERTEX
  8
0
 62
7
  6
CONTINUOUS
 10
214.2796183931
 20
165.4582572903
  0
VERTEX
  8
0
 62
7
  6
CONTINUOUS
 10
213.9855637076
 20
165.4824248587
  0
SEQEND
  0
LINE
  8
0
 62
7
  6
CONTINUOUS
 10
215.8208276033
 20
163.0728928555
 11
215.8130520231
 21
163.3324107038
  0
LINE
  8
0
 62
7
  6
CONTINUOUS
 10
215.8288539098
 20
162.7341362919
 11
215.8208276033
 21
163.0728928555
  0
LINE
  8
0
 62
7
  6
CONTINUOUS
 10
215.8370520933
 20
162.3061517818
 11
215.8288539098
 21
162.7341362919
  0
POLYLINE
  8
0
 62
7
  6
CONTINUOUS
 66
1
 70
0
  0
VERTEX
  8
0
 62
7
  6
CONTINUOUS
 10
216.5992657085
 20
140.5812207965
  0
VERTEX
  8
0
 62
7
  6
CONTINUOUS
 10
216.3495883332
 20
141.0840964338
  0
VERTEX
  8
0
 62
7
  6
CONTINUOUS
 10
216.1458440519
 20
141.7058340498
  0
VERTEX
  8
0
 62
7
  6
CONTINUOUS
 10
216.0043228955
 20
142.4106833445
  0
VERTEX
  8
0
 62
7
  6
CONTINUOUS
 10
215.9243939566
 20
143.1829379893
  0
VERTEX
  8
0
 62
7
  6
CONTINUOUS
 10
215.9007582694
 20
143.9764390631
  0
SEQEND
  0
POLYLINE
  8
0
 62
7
  6
CONTINUOUS
 66
1
 70
0
  0
VERTEX
  8
0
 62
7
  6
CONTINUOUS
 10
232.8515717588
 20
141.7225891901
  0
VERTEX
  8
0
 62
7
  6
CONTINUOUS
 10
232.7983661541
 20
141.5170290727
  0
VERTEX
  8
0
 62
7
  6
CONTINUOUS
 10
232.7297537036
 20
141.2628690907
  0
VERTEX
  8
0
 62
7
  6
CONTINUOUS
 10
232.6560517994
 20
141.0122757167
  0
VERTEX
  8
0
 62
7
  6
CONTINUOUS
 10
232.5769661004
 20
140.7748199188
  0
VERTEX
  8
0
 62
7
  6
CONTINUOUS
 10
232.4939104085
 20
140.5611687402
  0
VERTEX
  8
0
 62
7
  6
CONTINUOUS
 10
232.4086488725
 20
140.3770064137
  0
VERTEX
  8
0
 62
7
  6
CONTINUOUS
 10
232.3643062138
 20
140.2939287434
  0
VERTEX
  8
0
 62
7
  6
CONTINUOUS
 10
232.2687073217
 20
140.1411023944
  0
VERTEX
  8
0
 62
7
  6
CONTINUOUS
 10
232.1613847036
 20
140.007379878
  0
VERTEX
  8
0
 62
7
  6
CONTINUOUS
 10
232.0446700588
 20
139.9013928686
  0
VERTEX
  8
0
 62
7
  6
CONTINUOUS
 10
231.9197637496
 20
139.8270644591
  0
VERTEX
  8
0
 62
7
  6
CONTINUOUS
 10
231.7774319331
 20
139.7816213218
  0
VERTEX
  8
0
 62
7
  6
CONTINUOUS
 10
231.6227679381
 20
139.7669477688
  0
SEQEND
  0
LINE
  8
0
 62
7
  6
CONTINUOUS
 10
232.6104145134
 20
85.9625675197
 11
232.6107584387
 21
93.4884118657
  0
LINE
  8
0
 62
7
  6
CONTINUOUS
 10
233.092669181
 20
151.5023703991
 11
233.092324922
 21
143.9763899218
  0
LINE
  8
0
 62
7
  6
CONTINUOUS
 10
232.6078632376
 20
84.0398287458
 11
232.6104145134
 21
85.9625675197
  0
LINE
  8
0
 62
7
  6
CONTINUOUS
 10
233.0952229012
 20
153.4252550625
 11
233.092669181
 21
151.5023703991
  0
LINE
  8
0
 62
7
  6
CONTINUOUS
 10
232.6034207839
 20
82.3436992281
 11
232.6078632376
 21
84.0398287458
  0
LINE
  8
0
 62
7
  6
CONTINUOUS
 10
233.0996695602
 20
155.1214939629
 11
233.0952229012
 21
153.4252550625
  0
LINE
  8
0
 62
7
  6
CONTINUOUS
 10
232.5976071659
 20
80.8534919691
 11
232.6034207839
 21
82.3436992281
  0
LINE
  8
0
 62
7
  6
CONTINUOUS
 10
233.1054886149
 20
156.611777498
 11
233.0996695602
 21
155.1214939629
  0
LINE
  8
0
 62
7
  6
CONTINUOUS
 10
232.5908640351
 20
79.5618103837
 11
232.5976071659
 21
80.8534919691
  0
LINE
  8
0
 62
7
  6
CONTINUOUS
 10
233.1122379507
 20
157.9035019265
 11
233.1054886149
 21
156.611777498
  0
LINE
  8
0
 62
7
  6
CONTINUOUS
 10
233.1194557643
 20
158.9954696716
 11
233.1122379507
 21
157.9035019265
  0
LINE
  8
0
 62
7
  6
CONTINUOUS
 10
232.5836527878
 20
78.4698634161
 11
232.5908640351
 21
79.5618103837
  0
LINE
  8
0
 62
7
  6
CONTINUOUS
 10
233.130598598
 20
160.313942108
 11
233.1194557643
 21
158.9954696716
  0
LINE
  8
0
 62
7
  6
CONTINUOUS
 10
232.572520042
 20
77.1513984605
 11
232.5836527878
 21
78.4698634161
  0
LINE
  8
0
 62
7
  6
CONTINUOUS
 10
233.1419067648
 20
161.340125241
 11
233.130598598
 21
160.313942108
  0
LINE
  8
0
 62
7
  6
CONTINUOUS
 10
232.5612220466
 20
76.125198304
 11
232.572520042
 21
77.1513984605
  0
LINE
  8
0
 62
7
  6
CONTINUOUS
 10
233.1533175626
 20
162.1416261915
 11
233.1419067648
 21
161.340125241
  0
LINE
  8
0
 62
7
  6
CONTINUOUS
 10
232.5498213106
 20
75.3236519478
 11
232.5612220466
 21
76.125198304
  0
LINE
  8
0
 62
7
  6
CONTINUOUS
 10
233.1645336276
 20
162.745692509
 11
233.1533175626
 21
162.1416261915
  0
LINE
  8
0
 62
7
  6
CONTINUOUS
 10
232.5386149018
 20
74.7195213007
 11
232.5498213106
 21
75.3236519478
  0
LINE
  8
0
 62
7
  6
CONTINUOUS
 10
233.1716887599
 20
163.0489952593
 11
233.1645336276
 21
162.745692509
  0
LINE
  8
0
 62
7
  6
CONTINUOUS
 10
232.5314657811
 20
74.4161706545
 11
232.5386149018
 21
74.7195213007
  0
POLYLINE
  8
0
 62
7
  6
CONTINUOUS
 66
1
 70
0
  0
VERTEX
  8
0
 62
7
  6
CONTINUOUS
 10
232.6107582683
 20
93.4884118657
  0
VERTEX
  8
0
 62
7
  6
CONTINUOUS
 10
232.6345492316
 20
94.2843696354
  0
VERTEX
  8
0
 62
7
  6
CONTINUOUS
 10
232.7146636863
 20
95.0564564514
  0
VERTEX
  8
0
 62
7
  6
CONTINUOUS
 10
232.8563924099
 20
95.7611268631
  0
VERTEX
  8
0
 62
7
  6
CONTINUOUS
 10
233.0603637701
 20
96.3826593465
  0
VERTEX
  8
0
 62
7
  6
CONTINUOUS
 10
233.3092660943
 20
96.8836305013
  0
SEQEND
  0
LINE
  8
0
 62
7
  6
CONTINUOUS
 10
233.1783984127
 20
163.2810952626
 11
233.1716887599
 21
163.0489952593
  0
LINE
  8
0
 62
7
  6
CONTINUOUS
 10
232.5247618482
 20
74.1840300397
 11
232.5314657811
 21
74.4161706545
  0
POLYLINE
  8
0
 62
7
  6
CONTINUOUS
 66
1
 70
0
  0
VERTEX
  8
0
 62
7
  6
CONTINUOUS
 10
233.092325663
 20
143.9763899218
  0
VERTEX
  8
0
 62
7
  6
CONTINUOUS
 10
233.0552479828
 20
142.9962932469
  0
VERTEX
  8
0
 62
7
  6
CONTINUOUS
 10
233.0060364717
 20
142.533307472
  0
VERTEX
  8
0
 62
7
  6
CONTINUOUS
 10
232.8515712338
 20
141.7225893247
  0
SEQEND
  0
POLYLINE
  8
0
 62
7
  6
CONTINUOUS
 66
1
 70
0
  0
VERTEX
  8
0
 62
7
  6
CONTINUOUS
 10
233.3092654299
 20
96.8836309036
  0
VERTEX
  8
0
 62
7
  6
CONTINUOUS
 10
233.4339078958
 20
97.0766669119
  0
VERTEX
  8
0
 62
7
  6
CONTINUOUS
 10
233.5809776433
 20
97.2704959335
  0
VERTEX
  8
0
 62
7
  6
CONTINUOUS
 10
233.7355370146
 20
97.4343728706
  0
VERTEX
  8
0
 62
7
  6
CONTINUOUS
 10
233.8174401239
 20
97.5048646162
  0
VERTEX
  8
0
 62
7
  6
CONTINUOUS
 10
233.9891197235
 20
97.6163249673
  0
VERTEX
  8
0
 62
7
  6
CONTINUOUS
 10
234.1686723765
 20
97.6812808078
  0
VERTEX
  8
0
 62
7
  6
CONTINUOUS
 10
234.3234065156
 20
97.6979027856
  0
SEQEND
  0
LINE
  8
0
 62
7
  6
CONTINUOUS
 10
249.4265353418
 20
163.6824209828
 11
249.4265353418
 21
99.4979027734
  0
LINE
  8
SURFACE
 62
2
  6
CONTINUOUS
 10
331.8817260528
 20
86.6769724947
 11
329.7817260528
 21
86.6769724947
  0
LINE
  8
SURFACE
 62
2
  6
CENTER
 10
325.5817260528
 20
86.6769724947
 11
314.1371789829
 21
86.6769724947
  0
LINE
  8
SURFACE
 62
2
  6
CENTER
 10
336.0817260528
 20
86.6769724947
 11
347.5262731227
 21
86.6769724947
  0
LINE
  8
0
 62
7
  6
CONTINUOUS
 10
315.6898172912
 20
150.482409282
 11
315.6898172912
 21
86.9824254249
  0
LINE
  8
SURFACE
 62
7
  6
CONTINUOUS
 10
315.6898172912
 20
144.4983293408
 11
315.6898172912
 21
146.0099770171
  0
LINE
  8
0
 62
7
  6
CONTINUOUS
 10
344.8533272777
 20
140.6879962069
 11
345.1644886627
 21
140.8116205056
  0
POLYLINE
  8
0
 62
7
  6
CONTINUOUS
 66
1
 70
0
  0
VERTEX
  8
0
 62
7
  6
CONTINUOUS
 10
342.944042459
 20
139.5833350796
  0
VERTEX
  8
0
 62
7
  6
CONTINUOUS
 10
343.2282245847
 20
139.8445315194
  0
VERTEX
  8
0
 62
7
  6
CONTINUOUS
 10
343.5795928781
 20
140.0878424359
  0
VERTEX
  8
0
 62
7
  6
CONTINUOUS
 10
343.9939846337
 20
140.3139588387
  0
VERTEX
  8
0
 62
7
  6
CONTINUOUS
 10
344.4411568592
 20
140.5174531644
  0
VERTEX
  8
0
 62
7
  6
CONTINUOUS
 10
344.8533272777
 20
140.6879962069
  0
SEQEND
  0
LINE
  8
SURFACE
 62
2
  6
CONTINUOUS
 10
330.8317260528
 20
151.837878355
 11
330.8317260528
 21
149.737878355
  0
LINE
  8
SURFACE
 62
2
  6
CENTER
 10
330.8317260528
 20
145.537878355
 11
330.8317260528
 21
134.0933312851
  0
LINE
  8
SURFACE
 62
2
  6
CONTINUOUS
 10
330.8317260528
 20
87.7269724947
 11
330.8317260528
 21
85.6269724947
  0
LINE
  8
SURFACE
 62
2
  6
CENTER
 10
330.8317260528
 20
81.4269724947
 11
330.8317260528
 21
69.9824254249
  0
LINE
  8
SURFACE
 62
2
  6
CENTER
 10
330.8317260528
 20
91.9269724947
 11
330.8317260528
 21
103.3715195646
  0
LINE
  8
SURFACE
 62
2
  6
CENTER
 10
330.8317260528
 20
156.037878355
 11
330.8317260528
 21
167.4824254249
  0
POLYLINE
  8
0
 62
7
  6
CONTINUOUS
 66
1
 70
0
  0
VERTEX
  8
0
 62
7
  6
CONTINUOUS
 10
342.6891616895
 20
139.2573722719
  0
VERTEX
  8
0
 62
7
  6
CONTINUOUS
 10
342.8155435822
 20
139.4369477207
  0
VERTEX
  8
0
 62
7
  6
CONTINUOUS
 10
342.9171482705
 20
139.554331287
  0
SEQEND
  0
LINE
  8
DEFAULT_1
 62
2
  6
CENTER
 10
312.6700696435
 20
118.7324254249
 11
355.1748200459
 21
118.7324254249
  0
LINE
  8
0
 62
7
  6
CONTINUOUS
 10
322.1763593345
 20
121.5303358143
 11
317.2704524731
 21
120.9279661945
  0
POLYLINE
  8
0
 62
7
  6
CONTINUOUS
 66
1
 70
0
  0
VERTEX
  8
0
 62
7
  6
CONTINUOUS
 10
347.3995866496
 20
139.884191546
  0
VERTEX
  8
0
 62
7
  6
CONTINUOUS
 10
347.3988280417
 20
139.923624013
  0
VERTEX
  8
0
 62
7
  6
CONTINUOUS
 10
347.3953815618
 20
140.0024011628
  0
VERTEX
  8
0
 62
7
  6
CONTINUOUS
 10
347.3877439055
 20
140.079373909
  0
VERTEX
  8
0
 62
7
  6
CONTINUOUS
 10
347.3748930004
 20
140.1506432888
  0
VERTEX
  8
0
 62
7
  6
CONTINUOUS
 10
347.3563602472
 20
140.2161231528
  0
VERTEX
  8
0
 62
7
  6
CONTINUOUS
 10
347.3317830566
 20
140.2768297655
  0
VERTEX
  8
0
 62
7
  6
CONTINUOUS
 10
347.3008426269
 20
140.3336298215
  0
VERTEX
  8
0
 62
7
  6
CONTINUOUS
 10
347.2632443583
 20
140.3871382268
  0
VERTEX
  8
0
 62
7
  6
CONTINUOUS
 10
347.2187039701
 20
140.4377828459
  0
VERTEX
  8
0
 62
7
  6
CONTINUOUS
 10
347.1669384425
 20
140.4858508654
  0
VERTEX
  8
0
 62
7
  6
CONTINUOUS
 10
347.1076634622
 20
140.5315277022
  0
VERTEX
  8
0
 62
7
  6
CONTINUOUS
 10
347.0405942149
 20
140.5749274512
  0
VERTEX
  8
0
 62
7
  6
CONTINUOUS
 10
347.0040488591
 20
140.5957892246
  0
VERTEX
  8
0
 62
7
  6
CONTINUOUS
 10
346.9247673954
 20
140.6358367922
  0
VERTEX
  8
0
 62
7
  6
CONTINUOUS
 10
346.8370231893
 20
140.6736221185
  0
VERTEX
  8
0
 62
7
  6
CONTINUOUS
 10
346.7406007742
 20
140.7090585417
  0
VERTEX
  8
0
 62
7
  6
CONTINUOUS
 10
346.6353451818
 20
140.7420157812
  0
VERTEX
  8
0
 62
7
  6
CONTINUOUS
 10
346.5211924644
 20
140.7723230005
  0
VERTEX
  8
0
 62
7
  6
CONTINUOUS
 10
346.3982058559
 20
140.7997608559
  0
VERTEX
  8
0
 62
7
  6
CONTINUOUS
 10
346.266624582
 20
140.8240686831
  0
VERTEX
  8
0
 62
7
  6
CONTINUOUS
 10
346.1269299221
 20
140.8449506751
  0
VERTEX
  8
0
 62
7
  6
CONTINUOUS
 10
345.9799392916
 20
140.8620826155
  0
VERTEX
  8
0
 62
7
  6
CONTINUOUS
 10
345.8269413153
 20
140.8751284598
  0
VERTEX
  8
0
 62
7
  6
CONTINUOUS
 10
345.6697727406
 20
140.8837804407
  0
VERTEX
  8
0
 62
7
  6
CONTINUOUS
 10
345.5903059639
 20
140.8863849774
  0
SEQEND
  0
LINE
  8
0
 62
7
  6
CONTINUOUS
 10
347.0624564808
 20
96.0624254249
 11
347.0624564808
 21
91.5775524357
  0
POLYLINE
  8
0
 62
7
  6
CONTINUOUS
 66
1
 70
0
  0
VERTEX
  8
0
 62
7
  6
CONTINUOUS
 10
347.062456133
 20
96.0624254248
  0
VERTEX
  8
0
 62
7
  6
CONTINUOUS
 10
347.064700551
 20
96.4887302744
  0
VERTEX
  8
0
 62
7
  6
CONTINUOUS
 10
347.0716698305
 20
96.9207844006
  0
VERTEX
  8
0
 62
7
  6
CONTINUOUS
 10
347.0823574483
 20
97.3116003145
  0
VERTEX
  8
0
 62
7
  6
CONTINUOUS
 10
347.0958741997
 20
97.6605623147
  0
VERTEX
  8
0
 62
7
  6
CONTINUOUS
 10
347.1114647365
 20
97.9684428639
  0
VERTEX
  8
0
 62
7
  6
CONTINUOUS
 10
347.1284804034
 20
98.2366013479
  0
VERTEX
  8
0
 62
7
  6
CONTINUOUS
 10
347.1463389159
 20
98.4665613462
  0
VERTEX
  8
0
 62
7
  6
CONTINUOUS
 10
347.1644172248
 20
98.6591260464
  0
VERTEX
  8
0
 62
7
  6
CONTINUOUS
 10
347.1818700341
 20
98.8136678406
  0
VERTEX
  8
0
 62
7
  6
CONTINUOUS
 10
347.1975603757
 20
98.9291480597
  0
VERTEX
  8
0
 62
7
  6
CONTINUOUS
 10
347.2098440916
 20
99.0040273445
  0
VERTEX
  8
0
 62
7
  6
CONTINUOUS
 10
347.2153173156
 20
99.032097117
  0
SEQEND
  0
POLYLINE
  8
0
 62
7
  6
CONTINUOUS
 66
1
 70
0
  0
VERTEX
  8
0
 62
7
  6
CONTINUOUS
 10
348.4921069773
 20
142.3567644343
  0
VERTEX
  8
0
 62
7
  6
CONTINUOUS
 10
348.3551195731
 20
144.9285966759
  0
VERTEX
  8
0
 62
7
  6
CONTINUOUS
 10
347.9403915521
 20
147.4942367066
  0
VERTEX
  8
0
 62
7
  6
CONTINUOUS
 10
347.2540121806
 20
149.9941224975
  0
VERTEX
  8
0
 62
7
  6
CONTINUOUS
 10
346.3185451103
 20
152.3697095734
  0
SEQEND
  0
LINE
  8
0
 62
7
  6
CONTINUOUS
 10
348.4921070282
 20
142.3567644343
 11
348.4921070282
 21
141.4024254249
  0
POLYLINE
  8
0
 62
7
  6
CONTINUOUS
 66
1
 70
0
  0
VERTEX
  8
0
 62
7
  6
CONTINUOUS
 10
353.1527439841
 20
130.8312543431
  0
VERTEX
  8
0
 62
7
  6
CONTINUOUS
 10
353.063022641
 20
133.3072419054
  0
VERTEX
  8
0
 62
7
  6
CONTINUOUS
 10
352.7666674136
 20
135.8106037642
  0
VERTEX
  8
0
 62
7
  6
CONTINUOUS
 10
352.2575235519
 20
138.2764651351
  0
VERTEX
  8
0
 62
7
  6
CONTINUOUS
 10
351.5342835066
 20
140.6799685722
  0
VERTEX
  8
0
 62
7
  6
CONTINUOUS
 10
350.6120966057
 20
142.970211284
  0
SEQEND
  0
LINE
  8
0
 62
7
  6
CONTINUOUS
 10
353.1527444917
 20
106.6334207569
 11
353.1511628495
 21
108.5159440497
  0
POLYLINE
  8
0
 62
7
  6
CONTINUOUS
 66
1
 70
0
  0
VERTEX
  8
0
 62
7
  6
CONTINUOUS
 10
353.1511628495
 20
108.5159440497
  0
VERTEX
  8
0
 62
7
  6
CONTINUOUS
 10
353.1511627373
 20
128.9732908233
  0
VERTEX
  8
0
 62
7
  6
CONTINUOUS
 10
353.1527440151
 20
130.8312697769
  0
SEQEND
  0
LINE
  8
0
 62
7
  6
CONTINUOUS
 10
353.0659085152
 20
104.1954306016
 11
353.1527444638
 21
106.6334343531
  0
POLYLINE
  8
0
 62
7
  6
CONTINUOUS
 66
1
 70
0
  0
VERTEX
  8
0
 62
7
  6
CONTINUOUS
 10
349.957213497
 20
98.0673808097
  0
VERTEX
  8
0
 62
7
  6
CONTINUOUS
 10
349.9906646778
 20
98.4529589042
  0
VERTEX
  8
0
 62
7
  6
CONTINUOUS
 10
350.017456462
 20
98.7196516306
  0
SEQEND
  0
POLYLINE
  8
0
 62
7
  6
CONTINUOUS
 66
1
 70
0
  0
VERTEX
  8
0
 62
7
  6
CONTINUOUS
 10
349.7640096235
 20
95.8729147689
  0
VERTEX
  8
0
 62
7
  6
CONTINUOUS
 10
349.8218283387
 20
96.4540327979
  0
VERTEX
  8
0
 62
7
  6
CONTINUOUS
 10
349.8746896119
 20
97.0511354049
  0
VERTEX
  8
0
 62
7
  6
CONTINUOUS
 10
349.957213497
 20
98.0673808097
  0
SEQEND
  0
LINE
  8
0
 62
7
  6
CONTINUOUS
 10
350.0174611872
 20
98.719691245
 11
350.0323313313
 21
98.8442370861
  0
LINE
  8
0
 62
7
  6
CONTINUOUS
 10
350.0323313313
 20
98.8442370861
 11
350.0476249318
 21
98.951828408
  0
POLYLINE
  8
0
 62
7
  6
CONTINUOUS
 66
1
 70
0
  0
VERTEX
  8
0
 62
7
  6
CONTINUOUS
 10
350.0476249318
 20
98.951828408
  0
VERTEX
  8
0
 62
7
  6
CONTINUOUS
 10
350.0588165292
 20
99.0167926525
  0
VERTEX
  8
0
 62
7
  6
CONTINUOUS
 10
350.0629429777
 20
99.0368469506
  0
SEQEND
  0
POLYLINE
  8
0
 62
7
  6
CONTINUOUS
 66
1
 70
0
  0
VERTEX
  8
0
 62
7
  6
CONTINUOUS
 10
345.1644886627
 20
140.8116205056
  0
VERTEX
  8
0
 62
7
  6
CONTINUOUS
 10
345.3757461074
 20
140.8704938629
  0
VERTEX
  8
0
 62
7
  6
CONTINUOUS
 10
345.5903059639
 20
140.8863849774
  0
SEQEND
  0
POLYLINE
  8
0
 62
7
  6
CONTINUOUS
 66
1
 70
0
  0
VERTEX
  8
0
 62
7
  6
CONTINUOUS
 10
348.6460240239
 20
138.4279521514
  0
VERTEX
  8
0
 62
7
  6
CONTINUOUS
 10
348.6457807571
 20
138.4290209077
  0
VERTEX
  8
0
 62
7
  6
CONTINUOUS
 10
348.6393178794
 20
138.4617931503
  0
VERTEX
  8
0
 62
7
  6
CONTINUOUS
 10
348.6269565892
 20
138.5374009418
  0
VERTEX
  8
0
 62
7
  6
CONTINUOUS
 10
348.6112375473
 20
138.6534646489
  0
VERTEX
  8
0
 62
7
  6
CONTINUOUS
 10
348.5937853449
 20
138.808464569
  0
VERTEX
  8
0
 62
7
  6
CONTINUOUS
 10
348.5757239502
 20
139.0013944976
  0
VERTEX
  8
0
 62
7
  6
CONTINUOUS
 10
348.5578902761
 20
139.2316695082
  0
VERTEX
  8
0
 62
7
  6
CONTINUOUS
 10
348.5409049721
 20
139.5001023679
  0
VERTEX
  8
0
 62
7
  6
CONTINUOUS
 10
348.5253501525
 20
139.8082005561
  0
VERTEX
  8
0
 62
7
  6
CONTINUOUS
 10
348.5118740078
 20
140.1573065007
  0
VERTEX
  8
0
 62
7
  6
CONTINUOUS
 10
348.5012306568
 20
140.5481868634
  0
VERTEX
  8
0
 62
7
  6
CONTINUOUS
 10
348.4943079894
 20
140.9802177989
  0
VERTEX
  8
0
 62
7
  6
CONTINUOUS
 10
348.4921066805
 20
141.4024254249
  0
SEQEND
  0
POLYLINE
  8
0
 62
7
  6
CONTINUOUS
 66
1
 70
0
  0
VERTEX
  8
0
 62
7
  6
CONTINUOUS
 10
350.9596705135
 20
139.9792239557
  0
VERTEX
  8
0
 62
7
  6
CONTINUOUS
 10
350.8887742083
 20
140.3321512699
  0
VERTEX
  8
0
 62
7
  6
CONTINUOUS
 10
350.8078035508
 20
140.7235796507
  0
VERTEX
  8
0
 62
7
  6
CONTINUOUS
 10
350.7152477524
 20
141.1532827948
  0
VERTEX
  8
0
 62
7
  6
CONTINUOUS
 10
350.6095737224
 20
141.6198315849
  0
VERTEX
  8
0
 62
7
  6
CONTINUOUS
 10
350.5623352348
 20
141.8202395003
  0
SEQEND
  0
LINE
  8
0
 62
7
  6
CONTINUOUS
 10
351.1242080075
 20
139.1466844261
 11
350.9596705135
 21
139.9792239557
  0
POLYLINE
  8
0
 62
7
  6
CONTINUOUS
 66
1
 70
0
  0
VERTEX
  8
0
 62
7
  6
CONTINUOUS
 10
352.2664954913
 20
99.2236087385
  0
VERTEX
  8
0
 62
7
  6
CONTINUOUS
 10
352.7769693086
 20
101.7179290573
  0
VERTEX
  8
0
 62
7
  6
CONTINUOUS
 10
353.0659085152
 20
104.1954306016
  0
SEQEND
  0
POLYLINE
  8
0
 62
7
  6
CONTINUOUS
 66
1
 70
0
  0
VERTEX
  8
0
 62
7
  6
CONTINUOUS
 10
351.721260661
 20
97.804839478
  0
VERTEX
  8
0
 62
7
  6
CONTINUOUS
 10
351.9054174976
 20
98.4138140332
  0
VERTEX
  8
0
 62
7
  6
CONTINUOUS
 10
351.9510306091
 20
98.5623395966
  0
VERTEX
  8
0
 62
7
  6
CONTINUOUS
 10
351.98900651
 20
98.6834725593
  0
VERTEX
  8
0
 62
7
  6
CONTINUOUS
 10
352.0192834658
 20
98.7772193953
  0
VERTEX
  8
0
 62
7
  6
CONTINUOUS
 10
352.0314664437
 20
98.8138420746
  0
VERTEX
  8
0
 62
7
  6
CONTINUOUS
 10
352.0496434427
 20
98.8666181036
  0
VERTEX
  8
0
 62
7
  6
CONTINUOUS
 10
352.0593659767
 20
98.8932077336
  0
SEQEND
  0
POLYLINE
  8
0
 62
7
  6
CONTINUOUS
 66
1
 70
0
  0
VERTEX
  8
0
 62
7
  6
CONTINUOUS
 10
350.8661332376
 20
95.2336628284
  0
VERTEX
  8
0
 62
7
  6
CONTINUOUS
 10
350.9342019111
 20
95.4179531211
  0
VERTEX
  8
0
 62
7
  6
CONTINUOUS
 10
351.0864394461
 20
95.8427055994
  0
VERTEX
  8
0
 62
7
  6
CONTINUOUS
 10
351.2235008395
 20
96.2404656995
  0
VERTEX
  8
0
 62
7
  6
CONTINUOUS
 10
351.3465107622
 20
96.6100797862
  0
VERTEX
  8
0
 62
7
  6
CONTINUOUS
 10
351.4566584705
 20
96.951099663
  0
VERTEX
  8
0
 62
7
  6
CONTINUOUS
 10
351.5551241848
 20
97.2636157895
  0
VERTEX
  8
0
 62
7
  6
CONTINUOUS
 10
351.6430007444
 20
97.5480149225
  0
VERTEX
  8
0
 62
7
  6
CONTINUOUS
 10
351.721260661
 20
97.804839478
  0
SEQEND
  0
POLYLINE
  8
0
 62
7
  6
CONTINUOUS
 66
1
 70
0
  0
VERTEX
  8
0
 62
7
  6
CONTINUOUS
 10
344.3829111519
 20
80.85762635
  0
VERTEX
  8
0
 62
7
  6
CONTINUOUS
 10
345.1746781462
 20
82.8697847414
  0
VERTEX
  8
0
 62
7
  6
CONTINUOUS
 10
345.746952494
 20
84.9562149931
  0
VERTEX
  8
0
 62
7
  6
CONTINUOUS
 10
346.0930813463
 20
87.0936332891
  0
VERTEX
  8
0
 62
7
  6
CONTINUOUS
 10
346.2088265356
 20
89.2581969095
  0
SEQEND
  0
POLYLINE
  8
0
 62
7
  6
CONTINUOUS
 66
1
 70
0
  0
VERTEX
  8
0
 62
7
  6
CONTINUOUS
 10
347.5660564007
 20
87.8262090838
  0
VERTEX
  8
0
 62
7
  6
CONTINUOUS
 10
348.5802309875
 20
90.4044410923
  0
VERTEX
  8
0
 62
7
  6
CONTINUOUS
 10
349.3219070592
 20
93.117075271
  0
VERTEX
  8
0
 62
7
  6
CONTINUOUS
 10
349.7640102932
 20
95.8729146876
  0
SEQEND
  0
POLYLINE
  8
0
 62
7
  6
CONTINUOUS
 66
1
 70
0
  0
VERTEX
  8
0
 62
7
  6
CONTINUOUS
 10
345.0538647152
 20
82.3264866229
  0
VERTEX
  8
0
 62
7
  6
CONTINUOUS
 10
345.9189122223
 20
84.523394799
  0
VERTEX
  8
0
 62
7
  6
CONTINUOUS
 10
346.5532958196
 20
86.8345697567
  0
VERTEX
  8
0
 62
7
  6
CONTINUOUS
 10
346.9363208525
 20
89.2060067928
  0
VERTEX
  8
0
 62
7
  6
CONTINUOUS
 10
347.0624564245
 20
91.5775524357
  0
SEQEND
  0
LINE
  8
0
 62
7
  6
CONTINUOUS
 10
343.8083909182
 20
139.6024254249
 11
345.3011898361
 21
139.6024254249
  0
POLYLINE
  8
0
 62
7
  6
CONTINUOUS
 66
1
 70
0
  0
VERTEX
  8
0
 62
7
  6
CONTINUOUS
 10
350.5623352101
 20
141.8202395071
  0
VERTEX
  8
0
 62
7
  6
CONTINUOUS
 10
349.8082279364
 20
144.4155154541
  0
VERTEX
  8
0
 62
7
  6
CONTINUOUS
 10
348.8105493892
 20
146.9141816686
  0
SEQEND
  0
POLYLINE
  8
0
 62
7
  6
CONTINUOUS
 66
1
 70
0
  0
VERTEX
  8
0
 62
7
  6
CONTINUOUS
 10
351.2671372637
 20
138.5047756879
  0
VERTEX
  8
0
 62
7
  6
CONTINUOUS
 10
351.2599704075
 20
138.5298528435
  0
VERTEX
  8
0
 62
7
  6
CONTINUOUS
 10
351.252344231
 20
138.5585687799
  0
VERTEX
  8
0
 62
7
  6
CONTINUOUS
 10
351.2304850603
 20
138.6475312569
  0
VERTEX
  8
0
 62
7
  6
CONTINUOUS
 10
351.2012911254
 20
138.7763855448
  0
VERTEX
  8
0
 62
7
  6
CONTINUOUS
 10
351.165785447
 20
138.9430048845
  0
VERTEX
  8
0
 62
7
  6
CONTINUOUS
 10
351.1242080075
 20
139.1466844261
  0
SEQEND
  0
POLYLINE
  8
0
 62
7
  6
CONTINUOUS
 66
1
 70
0
  0
VERTEX
  8
0
 62
7
  6
CONTINUOUS
 10
350.0548208014
 20
93.2746441967
  0
VERTEX
  8
0
 62
7
  6
CONTINUOUS
 10
350.3369668038
 20
93.91210609
  0
VERTEX
  8
0
 62
7
  6
CONTINUOUS
 10
350.6154560962
 20
94.5846139311
  0
VERTEX
  8
0
 62
7
  6
CONTINUOUS
 10
350.8661336325
 20
95.2336626732
  0
SEQEND
  0
LINE
  8
0
 62
7
  6
CONTINUOUS
 10
344.3337791493
 20
80.7500659346
 11
350.0548189737
 21
93.2746401791
  0
LINE
  8
0
 62
7
  6
CONTINUOUS
 10
350.6121114743
 20
142.9701787336
 11
344.3337868393
 21
156.7147680799
  0
LINE
  8
SURFACE
 62
2
  6
CONTINUOUS
 10
331.8817260528
 20
150.787878355
 11
329.7817260528
 21
150.787878355
  0
LINE
  8
SURFACE
 62
2
  6
CENTER
 10
325.5817260528
 20
150.787878355
 11
314.1371789829
 21
150.787878355
  0
LINE
  8
SURFACE
 62
2
  6
CENTER
 10
336.0817260528
 20
150.787878355
 11
347.5262731227
 21
150.787878355
  0
LINE
  8
0
 62
7
  6
CONTINUOUS
 10
49.0265353418
 20
199.9386150896
 11
49.0265353418
 21
226.8579128192
  0
LINE
  8
0
 62
7
  6
CONTINUOUS
 10
65.3726655378
 20
227.6955339494
 11
65.130103483
 21
199.9228947598
  0
LINE
  8
0
 62
7
  6
CONTINUOUS
 10
82.7827700931
 20
199.9229073257
 11
82.5250566684
 21
229.4539407849
  0
LINE
  8
0
 62
7
  6
CONTINUOUS
 10
98.7003005906
 20
199.9229073257
 11
98.9663321396
 21
230.4071034243
  0
LINE
  8
0
 62
7
  6
CONTINUOUS
 10
98.9168385494
 20
224.5312386345
 11
98.9143551637
 21
224.4511319169
  0
LINE
  8
0
 62
7
  6
CONTINUOUS
 10
98.9167570742
 20
224.5446095864
 11
98.9217735978
 21
224.5996099111
  0
LINE
  8
0
 62
7
  6
CONTINUOUS
 10
98.9217735978
 20
224.5996099111
 11
98.9228985907
 21
224.611291765
  0
POLYLINE
  8
0
 62
7
  6
CONTINUOUS
 66
1
 70
0
  0
VERTEX
  8
0
 62
7
  6
CONTINUOUS
 10
98.9228985907
 20
224.611291765
  0
VERTEX
  8
0
 62
7
  6
CONTINUOUS
 10
98.9261568466
 20
224.6427395742
  0
VERTEX
  8
0
 62
7
  6
CONTINUOUS
 10
98.9324111361
 20
224.6951964659
  0
VERTEX
  8
0
 62
7
  6
CONTINUOUS
 10
98.9413279812
 20
224.7579390069
  0
VERTEX
  8
0
 62
7
  6
CONTINUOUS
 10
98.9540351893
 20
224.8323621789
  0
VERTEX
  8
0
 62
7
  6
CONTINUOUS
 10
98.9722162902
 20
224.9204555673
  0
VERTEX
  8
0
 62
7
  6
CONTINUOUS
 10
98.9984142316
 20
225.0247031591
  0
VERTEX
  8
0
 62
7
  6
CONTINUOUS
 10
99.0365982478
 20
225.1481487529
  0
VERTEX
  8
0
 62
7
  6
CONTINUOUS
 10
99.0932347241
 20
225.2944288396
  0
VERTEX
  8
0
 62
7
  6
CONTINUOUS
 10
99.1795023737
 20
225.4676355733
  0
VERTEX
  8
0
 62
7
  6
CONTINUOUS
 10
99.3162003943
 20
225.6711642702
  0
VERTEX
  8
0
 62
7
  6
CONTINUOUS
 10
99.5368736562
 20
225.8954902968
  0
VERTEX
  8
0
 62
7
  6
CONTINUOUS
 10
99.7936749472
 20
226.0605443536
  0
VERTEX
  8
0
 62
7
  6
CONTINUOUS
 10
100.0634067154
 20
226.1619253295
  0
VERTEX
  8
0
 62
7
  6
CONTINUOUS
 10
100.3448689817
 20
226.2105725122
  0
SEQEND
  0
LINE
  8
0
 62
7
  6
CONTINUOUS
 10
98.9156513203
 20
224.5386734234
 11
98.9167570742
 21
224.5446095864
  0
LINE
  8
0
 62
7
  6
CONTINUOUS
 10
98.9156529566
 20
224.5386734091
 11
98.9168388091
 21
224.5312416448
  0
POLYLINE
  8
0
 62
7
  6
CONTINUOUS
 66
1
 70
0
  0
VERTEX
  8
0
 62
7
  6
CONTINUOUS
 10
52.2022106734
 20
199.3365619748
  0
VERTEX
  8
0
 62
7
  6
CONTINUOUS
 10
52.2071960308
 20
199.3400069216
  0
VERTEX
  8
0
 62
7
  6
CONTINUOUS
 10
52.226264107
 20
199.3522756948
  0
VERTEX
  8
0
 62
7
  6
CONTINUOUS
 10
52.3082733515
 20
199.39691155
  0
VERTEX
  8
0
 62
7
  6
CONTINUOUS
 10
52.4546923658
 20
199.4604830008
  0
VERTEX
  8
0
 62
7
  6
CONTINUOUS
 10
52.6644380914
 20
199.5301168433
  0
VERTEX
  8
0
 62
7
  6
CONTINUOUS
 10
52.9099252388
 20
199.5883609656
  0
VERTEX
  8
0
 62
7
  6
CONTINUOUS
 10
53.1706647285
 20
199.6274279376
  0
VERTEX
  8
0
 62
7
  6
CONTINUOUS
 10
53.4334377679
 20
199.6452347548
  0
VERTEX
  8
0
 62
7
  6
CONTINUOUS
 10
53.526535352
 20
199.6465351725
  0
SEQEND
  0
LINE
  8
0
 62
7
  6
CONTINUOUS
 10
115.928253496
 20
231.3793936237
 11
116.2027700931
 21
199.9229073257
  0
LINE
  8
0
 62
7
  6
CONTINUOUS
 10
115.9344214999
 20
225.9736651378
 11
115.978759152
 21
225.5920186814
  0
LINE
  8
0
 62
7
  6
CONTINUOUS
 10
132.4180208719
 20
227.4987494346
 11
132.4181055168
 21
227.4989086611
  0
POLYLINE
  8
0
 62
7
  6
CONTINUOUS
 66
1
 70
0
  0
VERTEX
  8
0
 62
7
  6
CONTINUOUS
 10
132.4181055168
 20
227.4989086611
  0
VERTEX
  8
0
 62
7
  6
CONTINUOUS
 10
132.4489195731
 20
227.5529213655
  0
VERTEX
  8
0
 62
7
  6
CONTINUOUS
 10
132.5914751087
 20
227.7407709039
  0
VERTEX
  8
0
 62
7
  6
CONTINUOUS
 10
132.8218448179
 20
227.9368580245
  0
VERTEX
  8
0
 62
7
  6
CONTINUOUS
 10
132.9590149147
 20
228.0164163063
  0
VERTEX
  8
0
 62
7
  6
CONTINUOUS
 10
133.2023739578
 20
228.1072952854
  0
VERTEX
  8
0
 62
7
  6
CONTINUOUS
 10
133.3808669082
 20
228.1365080695
  0
VERTEX
  8
0
 62
7
  6
CONTINUOUS
 10
133.4390891084
 20
228.1386159171
  0
SEQEND
  0
LINE
  8
0
 62
7
  6
CONTINUOUS
 10
132.3968524292
 20
231.6126092054
 11
132.1203005906
 21
199.9229073257
  0
POLYLINE
  8
0
 62
7
  6
CONTINUOUS
 66
1
 70
0
  0
VERTEX
  8
0
 62
7
  6
CONTINUOUS
 10
132.3597599102
 20
227.3622275221
  0
VERTEX
  8
0
 62
7
  6
CONTINUOUS
 10
132.3778149011
 20
227.4134769166
  0
VERTEX
  8
0
 62
7
  6
CONTINUOUS
 10
132.4180211265
 20
227.4987492994
  0
SEQEND
  0
LINE
  8
SURFACE
 62
7
  6
CONTINUOUS
 10
230.580369129
 20
198.1386150896
 11
218.2627015546
 21
198.1386150896
  0
LINE
  8
SURFACE
 62
7
  6
CONTINUOUS
 10
197.160369129
 20
198.1386150896
 11
184.8427015546
 21
198.1386150896
  0
LINE
  8
SURFACE
 62
7
  6
CONTINUOUS
 10
163.740369129
 20
198.1386150896
 11
151.4227015546
 21
198.1386150896
  0
LINE
  8
0
 62
7
  6
CONTINUOUS
 10
50.8265353418
 20
198.1386150896
 11
247.6265353418
 21
198.1386150896
  0
LINE
  8
0
 62
7
  6
CONTINUOUS
 10
53.5265353519
 20
199.6465343694
 11
55.0265353269
 21
199.6465343694
  0
POLYLINE
  8
0
 62
7
  6
CONTINUOUS
 66
1
 70
0
  0
VERTEX
  8
0
 62
7
  6
CONTINUOUS
 10
55.0265353268
 20
199.6465352055
  0
VERTEX
  8
0
 62
7
  6
CONTINUOUS
 10
55.122473901
 20
199.645154279
  0
VERTEX
  8
0
 62
7
  6
CONTINUOUS
 10
55.3850276819
 20
199.6271434641
  0
VERTEX
  8
0
 62
7
  6
CONTINUOUS
 10
55.6454453704
 20
199.5879163903
  0
VERTEX
  8
0
 62
7
  6
CONTINUOUS
 10
55.8905352641
 20
199.5295749236
  0
VERTEX
  8
0
 62
7
  6
CONTINUOUS
 10
56.0997177299
 20
199.4599666129
  0
VERTEX
  8
0
 62
7
  6
CONTINUOUS
 10
56.2454835863
 20
199.3965731495
  0
VERTEX
  8
0
 62
7
  6
CONTINUOUS
 10
56.3270769452
 20
199.3521096469
  0
VERTEX
  8
0
 62
7
  6
CONTINUOUS
 10
56.3502699448
 20
199.3369396913
  0
SEQEND
  0
LINE
  8
0
 62
7
  6
CONTINUOUS
 10
149.6227700931
 20
199.9229073257
 11
149.3923807834
 21
226.3229073257
  0
LINE
  8
DEFAULT_1
 62
2
  6
CENTER
 10
149.2265353418
 20
195.1188674418
 11
149.2265353418
 21
237.6236178442
  0
LINE
  8
SURF_PART
 62
2
  6
CENTER
 10
47.0265353418
 20
213.1386150896
 11
234.5414594687
 21
213.1386150896
  0
LINE
  8
0
 62
7
  6
CONTINUOUS
 10
140.8633480582
 20
223.4491407178
 11
139.3634196076
 21
226.4720516132
  0
LINE
  8
0
 62
7
  6
CONTINUOUS
 10
237.7265353418
 20
221.4825769476
 11
234.2265353418
 21
221.4825769476
  0
LINE
  8
0
 62
7
  6
CONTINUOUS
 10
239.6977003018
 20
221.7825769476
 11
232.5710670373
 21
221.7825769476
  0
LINE
  8
0
 62
7
  6
CONTINUOUS
 10
216.2720036464
 20
221.7825769476
 11
199.1510670373
 21
221.7825769476
  0
LINE
  8
0
 62
7
  6
CONTINUOUS
 10
182.8520036464
 20
221.7825769476
 11
165.7310670373
 21
221.7825769476
  0
LINE
  8
0
 62
7
  6
CONTINUOUS
 10
149.4320036464
 20
221.7825769476
 11
143.5507162542
 21
221.7825769476
  0
POLYLINE
  8
0
 62
7
  6
CONTINUOUS
 66
1
 70
0
  0
VERTEX
  8
0
 62
7
  6
CONTINUOUS
 10
82.4375428487
 20
224.6459636488
  0
VERTEX
  8
0
 62
7
  6
CONTINUOUS
 10
82.4796150584
 20
224.643826264
  0
VERTEX
  8
0
 62
7
  6
CONTINUOUS
 10
82.5470663398
 20
224.639738707
  0
VERTEX
  8
0
 62
7
  6
CONTINUOUS
 10
82.5670815247
 20
224.6383692305
  0
SEQEND
  0
LINE
  8
0
 62
7
  6
CONTINUOUS
 10
143.1903242616
 20
232.3104867431
 11
143.1469123011
 21
232.3587671537
  0
POLYLINE
  8
0
 62
7
  6
CONTINUOUS
 66
1
 70
0
  0
VERTEX
  8
0
 62
7
  6
CONTINUOUS
 10
143.3774406591
 20
232.0981093967
  0
VERTEX
  8
0
 62
7
  6
CONTINUOUS
 10
143.3013984763
 20
232.1869560705
  0
VERTEX
  8
0
 62
7
  6
CONTINUOUS
 10
143.2108895407
 20
232.2876151634
  0
SEQEND
  0
POLYLINE
  8
0
 62
7
  6
CONTINUOUS
 66
1
 70
0
  0
VERTEX
  8
0
 62
7
  6
CONTINUOUS
 10
144.0655894574
 20
231.2063546085
  0
VERTEX
  8
0
 62
7
  6
CONTINUOUS
 10
143.2720266574
 20
232.2347127607
  0
VERTEX
  8
0
 62
7
  6
CONTINUOUS
 10
142.3355338214
 20
233.1632716709
  0
VERTEX
  8
0
 62
7
  6
CONTINUOUS
 10
141.2680820286
 20
233.9701967672
  0
VERTEX
  8
0
 62
7
  6
CONTINUOUS
 10
140.0898297777
 20
234.6325447519
  0
VERTEX
  8
0
 62
7
  6
CONTINUOUS
 10
138.8250275284
 20
235.1319718939
  0
VERTEX
  8
0
 62
7
  6
CONTINUOUS
 10
137.4991308874
 20
235.4557401867
  0
VERTEX
  8
0
 62
7
  6
CONTINUOUS
 10
136.1384667336
 20
235.5958616969
  0
SEQEND
  0
POLYLINE
  8
0
 62
7
  6
CONTINUOUS
 66
1
 70
0
  0
VERTEX
  8
0
 62
7
  6
CONTINUOUS
 10
144.0066122123
 20
231.2811814496
  0
VERTEX
  8
0
 62
7
  6
CONTINUOUS
 10
143.2950951092
 20
232.2084110496
  0
VERTEX
  8
0
 62
7
  6
CONTINUOUS
 10
143.1659774156
 20
232.337563975
  0
SEQEND
  0
LINE
  8
0
 62
7
  6
CONTINUOUS
 10
144.7297888993
 20
230.0557004403
 11
144.7039330271
 21
230.0998309394
  0
LINE
  8
0
 62
7
  6
CONTINUOUS
 10
144.7073130022
 20
230.1010144784
 11
144.0655894574
 21
231.2063546085
  0
LINE
  8
0
 62
7
  6
CONTINUOUS
 10
144.85593109
 20
229.8014754556
 11
144.7070066998
 21
230.1016317912
  0
LINE
  8
0
 62
7
  6
CONTINUOUS
 10
114.1955600609
 20
227.3841788052
 11
100.3448689793
 21
226.2105725117
  0
LINE
  8
0
 62
7
  6
CONTINUOUS
 10
65.3337864166
 20
223.2439893574
 11
82.5665073413
 21
224.7041641322
  0
POLYLINE
  8
0
 62
7
  6
CONTINUOUS
 66
1
 70
0
  0
VERTEX
  8
0
 62
7
  6
CONTINUOUS
 10
81.849382925
 20
224.6434000856
  0
VERTEX
  8
0
 62
7
  6
CONTINUOUS
 10
81.8731623664
 20
224.6452768139
  0
VERTEX
  8
0
 62
7
  6
CONTINUOUS
 10
81.9360639648
 20
224.6488356732
  0
SEQEND
  0
POLYLINE
  8
0
 62
7
  6
CONTINUOUS
 66
1
 70
0
  0
VERTEX
  8
0
 62
7
  6
CONTINUOUS
 10
114.1955600605
 20
227.3841788052
  0
VERTEX
  8
0
 62
7
  6
CONTINUOUS
 10
114.3433528084
 20
227.390775727
  0
VERTEX
  8
0
 62
7
  6
CONTINUOUS
 10
114.6341707474
 20
227.3670709383
  0
VERTEX
  8
0
 62
7
  6
CONTINUOUS
 10
114.91332364
 20
227.2915870048
  0
VERTEX
  8
0
 62
7
  6
CONTINUOUS
 10
115.1822838824
 20
227.156391231
  0
VERTEX
  8
0
 62
7
  6
CONTINUOUS
 10
115.3126985628
 20
227.0618452053
  0
VERTEX
  8
0
 62
7
  6
CONTINUOUS
 10
115.5647453366
 20
226.8011192005
  0
VERTEX
  8
0
 62
7
  6
CONTINUOUS
 10
115.7750833376
 20
226.4502855768
  0
VERTEX
  8
0
 62
7
  6
CONTINUOUS
 10
115.8992287472
 20
226.1124552051
  0
VERTEX
  8
0
 62
7
  6
CONTINUOUS
 10
115.9344216365
 20
225.9736651687
  0
SEQEND
  0
LINE
  8
0
 62
7
  6
CONTINUOUS
 10
81.9360639648
 20
224.6488356732
 11
81.9901570988
 21
224.6505725851
  0
POLYLINE
  8
0
 62
7
  6
CONTINUOUS
 66
1
 70
0
  0
VERTEX
  8
0
 62
7
  6
CONTINUOUS
 10
81.9901524458
 20
224.6505728259
  0
VERTEX
  8
0
 62
7
  6
CONTINUOUS
 10
82.1070050184
 20
224.6530286051
  0
VERTEX
  8
0
 62
7
  6
CONTINUOUS
 10
82.2784399298
 20
224.6516312651
  0
VERTEX
  8
0
 62
7
  6
CONTINUOUS
 10
82.437543071
 20
224.6459636589
  0
SEQEND
  0
LINE
  8
SURFACE
 62
7
  6
CONTINUOUS
 10
230.8107584387
 20
228.1386150896
 11
218.0323122449
 21
228.1386150896
  0
LINE
  8
SURFACE
 62
7
  6
CONTINUOUS
 10
197.3907584387
 20
228.1386150896
 11
184.6123122449
 21
228.1386150896
  0
LINE
  8
SURFACE
 62
7
  6
CONTINUOUS
 10
163.9707584387
 20
228.1386150896
 11
151.1923122449
 21
228.1386150896
  0
LINE
  8
0
 62
7
  6
CONTINUOUS
 10
136.6760515574
 20
228.1386150896
 11
133.4391576591
 21
228.1386150896
  0
LINE
  8
0
 62
7
  6
CONTINUOUS
 10
147.5324220931
 20
228.1386150896
 11
247.6265353418
 21
228.1386150896
  0
LINE
  8
0
 62
7
  6
CONTINUOUS
 10
147.5414598688
 20
228.1386148615
 11
147.4481393099
 21
228.1400666517
  0
POLYLINE
  8
0
 62
7
  6
CONTINUOUS
 66
1
 70
0
  0
VERTEX
  8
0
 62
7
  6
CONTINUOUS
 10
147.4481393099
 20
228.1400666517
  0
VERTEX
  8
0
 62
7
  6
CONTINUOUS
 10
146.990269989
 20
228.1896844934
  0
VERTEX
  8
0
 62
7
  6
CONTINUOUS
 10
146.543843518
 20
228.3093459118
  0
VERTEX
  8
0
 62
7
  6
CONTINUOUS
 10
146.1216679801
 20
228.4958525211
  0
VERTEX
  8
0
 62
7
  6
CONTINUOUS
 10
145.7328927082
 20
228.7450636775
  0
VERTEX
  8
0
 62
7
  6
CONTINUOUS
 10
145.3871259228
 20
229.0508293489
  0
VERTEX
  8
0
 62
7
  6
CONTINUOUS
 10
145.0919319552
 20
229.4066169606
  0
VERTEX
  8
0
 62
7
  6
CONTINUOUS
 10
144.8559314312
 20
229.8014756325
  0
SEQEND
  0
LINE
  8
0
 62
7
  6
CONTINUOUS
 10
140.1691390243
 20
234.5943681185
 11
138.9266599002
 21
235.099061079
  0
LINE
  8
0
 62
7
  6
CONTINUOUS
 10
141.1175643151
 20
234.0512887069
 11
140.1691390243
 21
234.5943681185
  0
LINE
  8
0
 62
7
  6
CONTINUOUS
 10
165.7706899002
 20
226.3229073257
 11
165.5403005906
 21
199.9229073257
  0
LINE
  8
SURFACE
 62
7
  6
CONTINUOUS
 10
165.5403005906
 20
199.9229073257
 11
165.6098163142
 21
207.8886202653
  0
LINE
  8
SURFACE
 62
7
  6
CONTINUOUS
 10
165.7014483357
 20
218.3886099138
 11
165.7545353532
 21
224.4717795853
  0
LINE
  8
0
 62
7
  6
CONTINUOUS
 10
134.9664372888
 20
235.5670761767
 11
57.4470330096
 21
228.9986572583
  0
LINE
  8
0
 62
7
  6
CONTINUOUS
 10
136.1384667336
 20
235.5958616969
 11
134.9534719701
 21
235.5659861184
  0
LINE
  8
0
 62
7
  6
CONTINUOUS
 10
136.2835405591
 20
235.5898559833
 11
134.9663819773
 21
235.5662179772
  0
LINE
  8
0
 62
7
  6
CONTINUOUS
 10
137.6230867756
 20
235.4335197638
 11
136.2835405591
 21
235.5898559833
  0
LINE
  8
0
 62
7
  6
CONTINUOUS
 10
138.9266599002
 20
235.099061079
 11
137.6230867756
 21
235.4335197638
  0
LINE
  8
SURFACE
 62
7
  6
CONTINUOUS
 10
182.8285353305
 20
224.4717795853
 11
182.881622348
 21
218.3886099138
  0
LINE
  8
SURFACE
 62
7
  6
CONTINUOUS
 10
182.9732543694
 20
207.8886202653
 11
183.0427700931
 21
199.9229073257
  0
LINE
  8
0
 62
7
  6
CONTINUOUS
 10
183.0427700931
 20
199.9229073257
 11
182.8123807834
 21
226.3229073257
  0
LINE
  8
0
 62
7
  6
CONTINUOUS
 10
199.1906899002
 20
226.3229073257
 11
198.9603005906
 21
199.9229073257
  0
LINE
  8
SURFACE
 62
7
  6
CONTINUOUS
 10
198.9603005906
 20
199.9229073257
 11
199.0298163142
 21
207.8886202653
  0
LINE
  8
SURFACE
 62
7
  6
CONTINUOUS
 10
199.1214483357
 20
218.3886099138
 11
199.1745353532
 21
224.4717795853
  0
LINE
  8
SURFACE
 62
7
  6
CONTINUOUS
 10
216.2485353305
 20
224.4717795853
 11
216.301622348
 21
218.3886099138
  0
LINE
  8
SURFACE
 62
7
  6
CONTINUOUS
 10
216.3932543694
 20
207.8886202653
 11
216.4627700931
 21
199.9229073257
  0
LINE
  8
0
 62
7
  6
CONTINUOUS
 10
216.4627700931
 20
199.9229073257
 11
216.2323807834
 21
226.3229073257
  0
LINE
  8
0
 62
7
  6
CONTINUOUS
 10
234.2265353418
 20
221.7825769476
 11
234.2265353418
 21
221.4825769476
  0
LINE
  8
0
 62
7
  6
CONTINUOUS
 10
236.0137693799
 20
221.7825769476
 11
236.0137693799
 21
221.4825769476
  0
LINE
  8
0
 62
7
  6
CONTINUOUS
 10
237.7265353418
 20
221.7825769476
 11
237.7265353418
 21
221.4825769476
  0
LINE
  8
0
 62
7
  6
CONTINUOUS
 10
232.6106899002
 20
226.3229073257
 11
232.3803005906
 21
199.9229073257
  0
LINE
  8
SURFACE
 62
7
  6
CONTINUOUS
 10
232.3803005906
 20
199.9229073257
 11
232.4498163142
 21
207.8886202653
  0
LINE
  8
SURFACE
 62
7
  6
CONTINUOUS
 10
232.5414483357
 20
218.3886099138
 11
232.5945353532
 21
224.4717795853
  0
LINE
  8
0
 62
7
  6
CONTINUOUS
 10
249.4265353418
 20
226.3386150896
 11
249.4265353418
 21
199.9386150896
  0
ARC
  8
0
 62
7
  6
CONTINUOUS
 10
247.6265353418
 20
163.6824254249
 40
1.8
 50
0.0
 51
90.0
  0
ARC
  8
0
 62
7
  6
CONTINUOUS
 10
50.8265353418
 20
73.7824254249
 40
1.8
 50
179.9999999559
 51
270.0
  0
ARC
  8
0
 62
7
  6
CONTINUOUS
 10
50.8265353418
 20
137.8024254249
 40
1.8
 50
90.0
 51
180.0
  0
ARC
  8
0
 62
7
  6
CONTINUOUS
 10
330.6898172912
 20
86.9824254249
 40
15.0
 50
179.9999385413
 51
335.4497822418
  0
CIRCLE
  8
SURF_PART
 62
7
  6
CONTINUOUS
 10
330.6898172912
 20
86.9824254249
 40
5.25
  0
ARC
  8
0
 62
7
  6
CONTINUOUS
 10
317.4898172912
 20
119.1413831216
 40
1.8
 50
97.0
 51
180.0
  0
ARC
  8
0
 62
7
  6
CONTINUOUS
 10
319.7158172912
 20
141.569842616
 40
20.19
 50
277.0
 51
343.7006950191
  0
ARC
  8
SURFACE
 62
7
  6
CONTINUOUS
 10
330.6898172912
 20
150.4824254249
 40
15.0
 50
158.9130210539
 51
162.2565810659
  0
ARC
  8
SURFACE
 62
7
  6
CONTINUOUS
 10
330.6898172912
 20
150.4824254249
 40
15.0
 50
152.66068082
 51
155.2053126231
  0
ARC
  8
SURFACE
 62
7
  6
CONTINUOUS
 10
330.6898172912
 20
150.4824254249
 40
15.0
 50
155.2862156765
 51
158.6360023561
  0
ARC
  8
SURFACE
 62
7
  6
CONTINUOUS
 10
330.6898172912
 20
150.4824254249
 40
15.0
 50
175.9854463308
 51
180.0
  0
ARC
  8
SURFACE
 62
7
  6
CONTINUOUS
 10
330.6898172912
 20
150.4824254249
 40
15.0
 50
166.8639584417
 51
172.9776373057
  0
ARC
  8
SURFACE
 62
7
  6
CONTINUOUS
 10
330.6898172912
 20
150.4824254249
 40
15.0
 50
162.4917331344
 51
164.886600245
  0
ARC
  8
0
 62
7
  6
CONTINUOUS
 10
330.6898172912
 20
150.4824254249
 40
15.0
 50
24.5501470621
 51
180.0000605498
  0
CIRCLE
  8
SURF_PART
 62
7
  6
CONTINUOUS
 10
330.6898172912
 20
150.4824254249
 40
5.25
  0
ARC
  8
0
 62
7
  6
CONTINUOUS
 10
330.8317260528
 20
150.787878355
 40
16.5
 50
303.3938884988
 51
317.2295195553
  0
ARC
  8
0
 62
7
  6
CONTINUOUS
 10
350.5208028926
 20
99.6624254249
 40
1.8
 50
324.8674397405
 51
345.8898987253
  0
ARC
  8
0
 62
7
  6
CONTINUOUS
 10
343.8083909182
 20
137.6024254249
 40
2.0
 50
90.0
 51
134.5427579272
  0
ARC
  8
0
 62
7
  6
CONTINUOUS
 10
341.0139722664
 20
135.3421066991
 40
2.0
 50
123.3938884988
 51
163.7006950191
  0
ARC
  8
0
 62
7
  6
CONTINUOUS
 10
57.5265353418
 20
199.6386150896
 40
1.5
 50
190.0083398754
 51
270.0
  0
ARC
  8
0
 62
7
  6
CONTINUOUS
 10
51.0265353418
 20
199.6386150896
 40
1.5
 50
270.0
 51
360.0
  0
ARC
  8
0
 62
7
  6
CONTINUOUS
 10
50.8265353418
 20
199.9386150896
 40
1.8
 50
180.0
 51
270.0
  0
ARC
  8
0
 62
7
  6
CONTINUOUS
 10
63.3301721312
 20
199.9386150896
 40
1.8
 50
270.0
 51
359.4996
  0
ARC
  8
0
 62
7
  6
CONTINUOUS
 10
80.1903691295
 20
199.9386151427
 40
1.8
 50
269.9999999852
 51
282.5118214056
  0
ARC
  8
0
 62
7
  6
CONTINUOUS
 10
96.900369129
 20
199.9386150896
 40
1.8
 50
270.0
 51
359.5
  0
ARC
  8
0
 62
7
  6
CONTINUOUS
 10
84.5827015546
 20
199.9386150896
 40
1.8
 50
180.5
 51
270.0
  0
ARC
  8
0
 62
7
  6
CONTINUOUS
 10
50.8265353418
 20
226.8579128192
 40
1.8
 50
91.0258165482
 51
179.9999999372
  0
ARC
  8
0
 62
7
  6
CONTINUOUS
 10
63.572734186
 20
227.7112542792
 40
1.8
 50
359.4996
 51
94.843256621
  0
ARC
  8
0
 62
7
  6
CONTINUOUS
 10
84.3249876478
 20
229.4696485083
 40
1.7999997588
 50
94.8432412196
 51
180.4999988336
  0
ARC
  8
0
 62
7
  6
CONTINUOUS
 10
130.320369129
 20
199.9386150896
 40
1.8
 50
270.0
 51
359.5
  0
ARC
  8
0
 62
7
  6
CONTINUOUS
 10
147.0303691295
 20
199.9386151425
 40
1.8
 50
269.9999999853
 51
282.5119318692
  0
ARC
  8
0
 62
7
  6
CONTINUOUS
 10
134.7127015546
 20
199.9386150896
 40
1.8
 50
257.2060789922
 51
270.0
  0
ARC
  8
0
 62
7
  6
CONTINUOUS
 10
113.6103691295
 20
199.9386151427
 40
1.8
 50
269.9999999852
 51
282.5119324504
  0
ARC
  8
0
 62
7
  6
CONTINUOUS
 10
101.2927015546
 20
199.9386150896
 40
1.8
 50
257.2060592381
 51
270.0
  0
ARC
  8
0
 62
7
  6
CONTINUOUS
 10
118.0027015546
 20
199.9386150896
 40
1.8
 50
180.5
 51
270.0
  0
ARC
  8
0
 62
7
  6
CONTINUOUS
 10
136.6760515574
 20
225.1386150896
 40
3.0
 50
26.39
 51
90.0
  0
ARC
  8
0
 62
7
  6
CONTINUOUS
 10
143.5507162542
 20
224.7825769476
 40
3.0
 50
206.3899937365
 51
270.0005739497
  0
ARC
  8
0
 62
7
  6
CONTINUOUS
 10
147.541470924
 20
231.1386150896
 40
3.0
 50
206.39
 51
270.0
  0
ARC
  8
0
 62
7
  6
CONTINUOUS
 10
49.0040185127
 20
328.6415973291
 40
100.0
 50
271.0258163157
 51
274.8432567868
  0
ARC
  8
0
 62
7
  6
CONTINUOUS
 10
151.4227015546
 20
199.9386150896
 40
1.8
 50
180.5
 51
270.0
  0
ARC
  8
0
 62
7
  6
CONTINUOUS
 10
180.450369129
 20
199.9386150896
 40
1.8
 50
270.0
 51
282.794917948
  0
ARC
  8
0
 62
7
  6
CONTINUOUS
 10
168.1327015546
 20
199.9386150896
 40
1.8
 50
257.2060647577
 51
270.0
  0
ARC
  8
0
 62
7
  6
CONTINUOUS
 10
197.160369129
 20
199.9386150896
 40
1.8
 50
270.0
 51
359.5
  0
ARC
  8
0
 62
7
  6
CONTINUOUS
 10
163.740369129
 20
199.9386150896
 40
1.8
 50
270.0
 51
359.5
  0
ARC
  8
0
 62
7
  6
CONTINUOUS
 10
184.8427015546
 20
199.9386150896
 40
1.8
 50
180.5
 51
270.0
  0
ARC
  8
0
 62
7
  6
CONTINUOUS
 10
197.3907584387
 20
226.3386150896
 40
1.8
 50
359.5
 51
90.0
  0
ARC
  8
0
 62
7
  6
CONTINUOUS
 10
163.9707584387
 20
226.3386150896
 40
1.8
 50
359.5
 51
90.0
  0
ARC
  8
0
 62
7
  6
CONTINUOUS
 10
184.6123122449
 20
226.3386150896
 40
1.8
 50
90.0
 51
180.5
  0
ARC
  8
0
 62
7
  6
CONTINUOUS
 10
151.1923117556
 20
226.3386150896
 40
1.7999997682
 50
89.9999844229
 51
180.5000001359
  0
ARC
  8
0
 62
7
  6
CONTINUOUS
 10
247.6265353418
 20
199.9386150896
 40
1.8
 50
270.0
 51
360.0
  0
ARC
  8
0
 62
7
  6
CONTINUOUS
 10
235.1228985525
 20
199.9386150896
 40
1.8
 50
257.2062000456
 51
270.0
  0
ARC
  8
0
 62
7
  6
CONTINUOUS
 10
213.8703691297
 20
199.9386151712
 40
1.8
 50
269.9999999773
 51
282.51453098
  0
ARC
  8
0
 62
7
  6
CONTINUOUS
 10
201.5527015542
 20
199.93861514
 40
1.8
 50
257.4885951704
 51
270.000000014
  0
ARC
  8
0
 62
7
  6
CONTINUOUS
 10
218.2627015546
 20
199.9386150896
 40
1.8
 50
180.5
 51
270.0
  0
ARC
  8
0
 62
7
  6
CONTINUOUS
 10
230.580369129
 20
199.9386150896
 40
1.8
 50
270.0
 51
359.5
  0
ARC
  8
0
 62
7
  6
CONTINUOUS
 10
247.6265353418
 20
226.3386150896
 40
1.8
 50
0.0
 51
90.0
  0
ARC
  8
0
 62
7
  6
CONTINUOUS
 10
239.6977003018
 20
219.9825769476
 40
1.8
 50
1.1774779367
 51
90.00013341
  0
ARC
  8
0
 62
7
  6
CONTINUOUS
 10
218.0323122449
 20
226.3386150896
 40
1.8
 50
90.0
 51
180.5
  0
ARC
  8
0
 62
7
  6
CONTINUOUS
 10
230.8107584387
 20
226.3386150896
 40
1.8
 50
359.5
 51
90.0
  0
ENDSEC
  0
EOF
