  0
SECTION
  2
HEADER
  9
$EXTMAX
 10
210.0
 20
297.0
 30
0.0
  9
$EXTMIN
 10
0.0
 20
0.0
 30
0.0
  9
$LIMMIN
 10
0.0
 20
0.0
  9
$LIMMAX
 10
210.0
 20
297.0
  9
$VIEWCTR
 10
105.0
 20
148.5
  9
$VIEWSIZE
 40
297.0
  9
$CLAYER
  8
0
  9
$LTSCALE
 40
19.36
  9
$CELTYPE
  6
BYLAYER
  9
$DIMSCALE
 40
1.0
  9
$DIMASZ
 40
3.5
  9
$DIMEXO
 40
2.2
  9
$DIMDLI
 40
13.376
  9
$DIMEXE
 40
6.336
  9
$DIMCEN
 40
3.168
  9
$DIMLFAC
 40
1.0
  9
$DIMBLK
  1
_FILLED
  9
$DIMTXT
 40
3.5
  9
$PDMODE
 70
3
  9
$PDSIZE
 40
0.3125
  9
$TILEMODE
 70
1
  0
ENDSEC
  0
SECTION
  2
TABLES
  0
TABLE
  2
LTYPE
 70
6
  0
LTYPE
  2
BYBLOCK
 70
0
  3

 72
65
 73
0
 40
0.0
  0
LTYPE
  2
BYLAYER
 70
0
  3

 72
65
 73
0
 40
0.0
  0
LTYPE
  2
CONTINUOUS
 70
64
  3
Solid line
 72
65
 73
0
 40
0.0
  0
LTYPE
  2
CENTER
 70
64
  3
____ _ ____ _ ____ _ ____ _ ____ _ ____ _ ____
 72
65
 73
4
 40
0.6
 49
0.375
 49
-0.075
 49
0.075
 49
-0.075
  0
LTYPE
  2
HIDDEN
 70
64
  3
- - - - - - - - - - - - - - - - - - - -
 72
65
 73
2
 40
0.2
 49
0.1
 49
-0.1
  0
LTYPE
  2
PHANTOM
 70
64
  3
_____ _ _ _____ _ _ _____ _ _ _____
 72
65
 73
6
 40
0.8
 49
0.45
 49
-0.05
 49
0.1
 49
-0.05
 49
0.1
 49
-0.05
  0
LTYPE
  2
DOT
 70
64
  3
. . . . . . . . . . . . . . . . . . . .
 72
65
 73
2
 40
0.2
 49
0.1
 49
-0.1
  0
LTYPE
  2
DASHED
 70
64
  3
- - - - - - - - - - - - - - - - - - - -
 72
65
 73
2
 40
0.2
 49
0.1
 49
-0.1
  0
ENDTAB
  0
TABLE
  2
LAYER
 70
36
  0
LAYER
  2
0
 70
0
 62
7
  6
CONTINUOUS
  0
LAYER
  2
DEFAULT_1
 70
0
 62
7
  6
CENTER
  0
LAYER
  2
DEFAULT_2
 70
0
 62
8
  6
HIDDEN
  0
LAYER
  2
DEFAULT_3
 70
0
 62
7
  6
PHANTOM
  0
LAYER
  2
1_DATUMPLANE
 70
0
 62
7
  6
CONTINUOUS
  0
LAYER
  2
3_CURVE
 70
0
 62
7
  6
CONTINUOUS
  0
LAYER
  2
6_DIM
 70
0
 62
7
  6
CONTINUOUS
  0
LAYER
  2
CURVE
 70
0
 62
7
  6
CONTINUOUS
  0
LAYER
  2
NOTES
 70
0
 62
7
  6
CONTINUOUS
  0
LAYER
  2
SURFACE
 70
0
 62
7
  6
CONTINUOUS
  0
ENDTAB
  0
TABLE
  2
STYLE
 70
1
  0
STYLE
  2
STANDARD
 70
0
 40
0.0
 41
0.8
 50
0.0
 71
0
 42
0.2
  3
txt
  4

  0
STYLE
  2
TEXTSTYLE_1
 70
0
 40
0.0
 41
0.8
 50
0.0
 71
0
 42
0.2
  3
gdt
  4

  0
STYLE
  2
TEXTSTYLE_2
 70
0
 40
0.0
 41
0.6
 50
0.0
 71
0
 42
0.2
  3
txt
  4

  0
STYLE
  2
TEXTSTYLE_3
 70
0
 40
0.0
 41
1.0
 50
0.0
 71
0
 42
0.2
  3
ftb_____.ttf
  4

  0
STYLE
  2
TEXTSTYLE_4
 70
0
 40
0.0
 41
1.0
 50
0.0
 71
0
 42
0.2
  3
fti_____.ttf
  4

  0
STYLE
  2
TEXTSTYLE_5
 70
0
 40
0.0
 41
1.0
 50
0.0
 71
0
 42
0.2
  3
frutiger light.ttf
  4

  0
STYLE
  2
TEXTSTYLE_6
 70
0
 40
0.0
 41
0.7
 50
0.0
 71
0
 42
0.2
  3
txt
  4

  0
STYLE
  2
TEXTSTYLE_7
 70
0
 40
0.0
 41
0.8
 50
0.0
 71
0
 42
0.2
  3
txt
  4

  0
ENDTAB
  0
ENDSEC
  0
SECTION
  2
BLOCKS
  0
BLOCK
  8
0
 62
2
  6
CONTINUOUS
  2
SYMBOL_8_BL1
 70
64
 10
173.5956734183
 20
35.5937998301
  0
TEXT
  8
0
 62
7
  6
CONTINUOUS
 10
164.6539584268
 20
30.6865562072
  7
TEXTSTYLE_4
 40
1.0655737705
  1
The brand for plastic modular belts and chains
 41
1.0
 72
0
  0
LINE
  8
0
 62
7
  6
CONTINUOUS
 10
149.5737418074
 20
36.1675703219
 11
149.5737418074
 21
34.0364227809
  0
LINE
  8
0
 62
7
  6
CONTINUOUS
 10
149.8628043005
 20
31.0454914852
 11
149.8628043005
 21
31.1422825445
  0
LINE
  8
0
 62
7
  6
CONTINUOUS
 10
149.5737418074
 20
31.1100188581
 11
149.6315543091
 21
30.9164367395
  0
LINE
  8
0
 62
7
  6
CONTINUOUS
 10
150.9671844304
 20
33.9544555678
 11
150.9671844304
 21
36.1675703219
  0
LINE
  8
0
 62
7
  6
CONTINUOUS
 10
151.8862417523
 20
32.1101932727
 11
151.8862417523
 21
30.5937998301
  0
LINE
  8
0
 62
7
  6
CONTINUOUS
 10
152.1753043074
 20
30.5937998301
 11
152.1753043074
 21
31.3358647082
  0
LINE
  8
0
 62
7
  6
CONTINUOUS
 10
152.1753043074
 20
31.4649194539
 11
152.1753043074
 21
32.1101932727
  0
LINE
  8
0
 62
7
  6
CONTINUOUS
 10
149.6315543091
 20
31.3036010218
 11
149.5737418074
 21
31.1100188581
  0
LINE
  8
0
 62
7
  6
CONTINUOUS
 10
149.9784292936
 20
30.8841730531
 11
149.8628043005
 21
31.0454914852
  0
LINE
  8
0
 62
7
  6
CONTINUOUS
 10
151.0768668626
 20
31.400392081
 11
151.1346793074
 21
31.3036010218
  0
LINE
  8
0
 62
7
  6
CONTINUOUS
 10
151.4237418626
 20
31.3036010218
 11
151.3659292523
 21
31.4326557675
  0
LINE
  8
0
 62
7
  6
CONTINUOUS
 10
152.852430332
 20
36.1675703219
 11
152.852430332
 21
34.3642916334
  0
LINE
  8
0
 62
7
  6
CONTINUOUS
 10
152.852430332
 20
33.0528162235
 11
152.852430332
 21
32.3970785186
  0
LINE
  8
0
 62
7
  6
CONTINUOUS
 10
153.2159293074
 20
31.2390736489
 11
153.2159293074
 21
30.5937998301
  0
LINE
  8
0
 62
7
  6
CONTINUOUS
 10
153.5049916972
 20
30.5937998301
 11
153.5049916972
 21
31.2390736489
  0
LINE
  8
0
 62
7
  6
CONTINUOUS
 10
149.8628043005
 20
31.1422825445
 11
149.9206168074
 21
31.2713373354
  0
LINE
  8
0
 62
7
  6
CONTINUOUS
 10
149.6315543091
 20
30.9164367395
 11
149.7471793074
 21
30.7873819712
  0
LINE
  8
0
 62
7
  6
CONTINUOUS
 10
153.1581166972
 20
31.3681283946
 11
153.2159293074
 21
31.2390736489
  0
LINE
  8
0
 62
7
  6
CONTINUOUS
 10
153.9674919177
 20
30.8841730531
 11
154.0253041972
 21
30.7551182848
  0
LINE
  8
0
 62
7
  6
CONTINUOUS
 10
153.5049916972
 20
31.2390736489
 11
153.4471794177
 21
31.400392081
  0
LINE
  8
0
 62
7
  6
CONTINUOUS
 10
153.9674919177
 20
31.4326557675
 11
153.9674919177
 21
31.3681283946
  0
LINE
  8
0
 62
7
  6
CONTINUOUS
 10
153.9674919177
 20
30.9809641124
 11
153.9674919177
 21
30.8841730531
  0
LINE
  8
0
 62
7
  6
CONTINUOUS
 10
154.245872955
 20
32.3970785186
 11
154.245872955
 21
36.1675703219
  0
LINE
  8
0
 62
7
  6
CONTINUOUS
 10
154.2565543074
 20
30.8519093441
 11
154.2565543074
 21
30.9164367395
  0
LINE
  8
0
 62
7
  6
CONTINUOUS
 10
154.5737418074
 20
36.1675703219
 11
154.5737418074
 21
32.3970785186
  0
LINE
  8
0
 62
7
  6
CONTINUOUS
 10
151.3659292523
 20
30.7873819712
 11
151.4237418626
 21
30.9164367395
  0
LINE
  8
0
 62
7
  6
CONTINUOUS
 10
155.759679528
 20
30.6905909007
 11
155.7018665869
 21
30.8519093441
  0
LINE
  8
0
 62
7
  6
CONTINUOUS
 10
155.412804528
 20
31.3681283946
 11
155.412804528
 21
31.2713373354
  0
LINE
  8
0
 62
7
  6
CONTINUOUS
 10
155.412804528
 20
31.1422825445
 11
155.412804528
 21
30.9487004259
  0
LINE
  8
0
 62
7
  6
CONTINUOUS
 10
155.7018665869
 20
30.8519093441
 11
155.7018665869
 21
31.3681283946
  0
LINE
  8
0
 62
7
  6
CONTINUOUS
 10
155.9671844304
 20
32.3970785186
 11
155.9671844304
 21
34.2003572071
  0
LINE
  8
0
 62
7
  6
CONTINUOUS
 10
155.9671844304
 20
35.511832617
 11
155.9671844304
 21
36.1675703219
  0
LINE
  8
0
 62
7
  6
CONTINUOUS
 10
156.279992028
 20
32.1101932727
 11
156.279992028
 21
31.9488748406
  0
LINE
  8
0
 62
7
  6
CONTINUOUS
 10
156.279992028
 20
31.626237886
 11
156.279992028
 21
30.5937998301
  0
LINE
  8
0
 62
7
  6
CONTINUOUS
 10
156.5690540869
 20
30.5937998301
 11
156.5690540869
 21
31.626237886
  0
LINE
  8
0
 62
7
  6
CONTINUOUS
 10
156.5690540869
 20
31.9488748406
 11
156.5690540869
 21
32.1101932727
  0
LINE
  8
0
 62
7
  6
CONTINUOUS
 10
151.1346793074
 20
30.9164367395
 11
151.0768668626
 21
30.8196456577
  0
LINE
  8
0
 62
7
  6
CONTINUOUS
 10
153.4471794177
 20
31.400392081
 11
153.3893668074
 21
31.4649194539
  0
LINE
  8
0
 62
7
  6
CONTINUOUS
 10
154.3143669177
 20
30.7873819712
 11
154.2565543074
 21
30.8519093441
  0
LINE
  8
0
 62
7
  6
CONTINUOUS
 10
155.4706168074
 20
30.6583272086
 11
155.5284290869
 21
30.5937998301
  0
LINE
  8
0
 62
7
  6
CONTINUOUS
 10
155.412804528
 20
30.7551182848
 11
155.4706168074
 21
30.6583272086
  0
LINE
  8
0
 62
7
  6
CONTINUOUS
 10
155.8174918074
 20
30.5937998301
 11
155.759679528
 21
30.6905909007
  0
LINE
  8
0
 62
7
  6
CONTINUOUS
 10
155.7018665869
 20
31.3681283946
 11
155.6440543074
 21
31.4649194539
  0
LINE
  8
0
 62
7
  6
CONTINUOUS
 10
157.0315543074
 20
31.626237886
 11
157.0315543074
 21
30.5937998301
  0
LINE
  8
0
 62
7
  6
CONTINUOUS
 10
157.320617028
 20
30.5937998301
 11
157.320617028
 21
31.3358647082
  0
LINE
  8
0
 62
7
  6
CONTINUOUS
 10
157.320617028
 20
31.4649194539
 11
157.320617028
 21
31.626237886
  0
LINE
  8
0
 62
7
  6
CONTINUOUS
 10
157.852430332
 20
34.6101932727
 11
157.852430332
 21
32.3970785186
  0
LINE
  8
0
 62
7
  6
CONTINUOUS
 10
149.7471793074
 20
31.4326557675
 11
149.6315543091
 21
31.3036010218
  0
LINE
  8
0
 62
7
  6
CONTINUOUS
 10
149.9206168074
 20
31.2713373354
 11
149.9784292936
 21
31.3358647082
  0
LINE
  8
0
 62
7
  6
CONTINUOUS
 10
149.7471793074
 20
30.7873819712
 11
149.8628043005
 21
30.7228545871
  0
LINE
  8
0
 62
7
  6
CONTINUOUS
 10
150.1518667936
 20
30.7873819712
 11
149.9784292936
 21
30.8841730531
  0
LINE
  8
0
 62
7
  6
CONTINUOUS
 10
155.3549915869
 20
31.4326557675
 11
155.412804528
 21
31.3681283946
  0
LINE
  8
0
 62
7
  6
CONTINUOUS
 10
158.3034290869
 20
31.3681283946
 11
158.361242028
 21
31.2068099625
  0
LINE
  8
0
 62
7
  6
CONTINUOUS
 10
158.6503040869
 20
31.2068099625
 11
158.5924918074
 21
31.3681283946
  0
LINE
  8
0
 62
7
  6
CONTINUOUS
 10
158.361242028
 20
31.2068099625
 11
158.361242028
 21
30.5937998301
  0
LINE
  8
0
 62
7
  6
CONTINUOUS
 10
158.6503040869
 20
30.5937998301
 11
158.6503040869
 21
31.2068099625
  0
LINE
  8
0
 62
7
  6
CONTINUOUS
 10
159.1128043074
 20
31.4326557675
 11
159.1128043074
 21
31.3681283946
  0
LINE
  8
0
 62
7
  6
CONTINUOUS
 10
159.245872955
 20
32.3970785186
 11
159.245872955
 21
34.5282260596
  0
LINE
  8
0
 62
7
  6
CONTINUOUS
 10
159.5737418074
 20
36.1675703219
 11
159.5737418074
 21
32.3970785186
  0
LINE
  8
0
 62
7
  6
CONTINUOUS
 10
154.2565543074
 20
30.9164367395
 11
154.3143669177
 21
31.0132277988
  0
LINE
  8
0
 62
7
  6
CONTINUOUS
 10
149.8628043005
 20
30.7228545871
 11
150.0362418212
 21
30.6583272086
  0
LINE
  8
0
 62
7
  6
CONTINUOUS
 10
151.3659292523
 20
31.4326557675
 11
151.1924917523
 21
31.5294468267
  0
LINE
  8
0
 62
7
  6
CONTINUOUS
 10
154.0253041972
 20
30.7551182848
 11
154.1987416972
 21
30.6583272086
  0
LINE
  8
0
 62
7
  6
CONTINUOUS
 10
153.0424918074
 20
31.4326557675
 11
153.1581166972
 21
31.3681283946
  0
LINE
  8
0
 62
7
  6
CONTINUOUS
 10
153.3893668074
 20
31.4649194539
 11
153.2737419177
 21
31.5294468267
  0
LINE
  8
0
 62
7
  6
CONTINUOUS
 10
159.1128043074
 20
30.8519093441
 11
159.228429528
 21
30.7228545871
  0
LINE
  8
0
 62
7
  6
CONTINUOUS
 10
159.4596793074
 20
30.7873819712
 11
159.401867028
 21
30.8519093441
  0
LINE
  8
0
 62
7
  6
CONTINUOUS
 10
159.1128043074
 20
31.3681283946
 11
159.228429528
 21
31.2390736489
  0
LINE
  8
0
 62
7
  6
CONTINUOUS
 10
158.5924918074
 20
31.3681283946
 11
158.534679528
 21
31.4649194539
  0
LINE
  8
0
 62
7
  6
CONTINUOUS
 10
160.9628038663
 20
30.7873819712
 11
160.9628038663
 21
30.8519093441
  0
LINE
  8
0
 62
7
  6
CONTINUOUS
 10
160.9671844304
 20
32.3970785186
 11
160.9671844304
 21
36.1675703219
  0
LINE
  8
0
 62
7
  6
CONTINUOUS
 10
154.0253041972
 20
31.4971831403
 11
153.9674919177
 21
31.4326557675
  0
LINE
  8
0
 62
7
  6
CONTINUOUS
 10
150.9034292799
 20
31.4649194539
 11
151.0768668626
 21
31.400392081
  0
LINE
  8
0
 62
7
  6
CONTINUOUS
 10
155.6440543074
 20
31.4649194539
 11
155.5284290869
 21
31.5294468267
  0
LINE
  8
0
 62
7
  6
CONTINUOUS
 10
159.4596793074
 20
31.3036010218
 11
159.401867028
 21
31.3681283946
  0
LINE
  8
0
 62
7
  6
CONTINUOUS
 10
160.615929528
 20
30.9164367395
 11
160.6737418074
 21
30.8519093441
  0
LINE
  8
0
 62
7
  6
CONTINUOUS
 10
160.9628038663
 20
30.8519093441
 11
160.8471793074
 21
30.9809641124
  0
LINE
  8
0
 62
7
  6
CONTINUOUS
 10
160.615929528
 20
31.4326557675
 11
160.6737418074
 21
31.3681283946
  0
LINE
  8
0
 62
7
  6
CONTINUOUS
 10
160.9628038663
 20
31.3681283946
 11
160.8471793074
 21
31.4971831403
  0
LINE
  8
0
 62
7
  6
CONTINUOUS
 10
154.2565543074
 20
31.3681283946
 11
154.3143669177
 21
31.4326557675
  0
LINE
  8
0
 62
7
  6
CONTINUOUS
 10
154.0831168074
 20
31.1100188581
 11
153.9674919177
 21
30.9809641124
  0
LINE
  8
0
 62
7
  6
CONTINUOUS
 10
155.412804528
 20
30.9487004259
 11
155.3549915869
 21
30.8841730531
  0
LINE
  8
0
 62
7
  6
CONTINUOUS
 10
155.3549915869
 20
30.6905909007
 11
155.412804528
 21
30.7551182848
  0
LINE
  8
0
 62
7
  6
CONTINUOUS
 10
154.1987416972
 20
30.6583272086
 11
154.3143669177
 21
30.6260635193
  0
LINE
  8
0
 62
7
  6
CONTINUOUS
 10
151.1924917523
 20
31.5294468267
 11
150.9612418074
 21
31.5939741996
  0
LINE
  8
0
 62
7
  6
CONTINUOUS
 10
154.5456166972
 20
30.7228545871
 11
154.3143669177
 21
30.7873819712
  0
LINE
  8
0
 62
7
  6
CONTINUOUS
 10
153.2737419177
 20
31.5294468267
 11
153.1003044177
 21
31.5939741996
  0
LINE
  8
0
 62
7
  6
CONTINUOUS
 10
155.5284290869
 20
31.5294468267
 11
155.3549915869
 21
31.5939741996
  0
LINE
  8
0
 62
7
  6
CONTINUOUS
 10
158.187804528
 20
31.4326557675
 11
158.3034290869
 21
31.3681283946
  0
LINE
  8
0
 62
7
  6
CONTINUOUS
 10
158.534679528
 20
31.4649194539
 11
158.4190543074
 21
31.5294468267
  0
LINE
  8
0
 62
7
  6
CONTINUOUS
 10
150.0362418212
 20
30.6583272086
 11
150.2096793212
 21
30.6260635193
  0
LINE
  8
0
 62
7
  6
CONTINUOUS
 10
150.498741835
 20
30.7228545871
 11
150.1518667936
 21
30.7873819712
  0
LINE
  8
0
 62
7
  6
CONTINUOUS
 10
152.9268669177
 20
31.4649194539
 11
153.0424918074
 21
31.4326557675
  0
LINE
  8
0
 62
7
  6
CONTINUOUS
 10
155.239367028
 20
31.4649194539
 11
155.3549915869
 21
31.4326557675
  0
LINE
  8
0
 62
7
  6
CONTINUOUS
 10
159.575304528
 20
30.7551182848
 11
159.4596793074
 21
30.7873819712
  0
LINE
  8
0
 62
7
  6
CONTINUOUS
 10
158.0721793074
 20
31.4649194539
 11
158.187804528
 21
31.4326557675
  0
LINE
  8
0
 62
7
  6
CONTINUOUS
 10
159.228429528
 20
30.7228545871
 11
159.401867028
 21
30.6583272086
  0
LINE
  8
0
 62
7
  6
CONTINUOUS
 10
158.4190543074
 20
31.5294468267
 11
158.2456168074
 21
31.5939741996
  0
LINE
  8
0
 62
7
  6
CONTINUOUS
 10
159.6331168074
 20
31.2390736489
 11
159.4596793074
 21
31.3036010218
  0
LINE
  8
0
 62
7
  6
CONTINUOUS
 10
160.442492028
 20
30.9809641124
 11
160.615929528
 21
30.9164367395
  0
LINE
  8
0
 62
7
  6
CONTINUOUS
 10
160.8471793074
 20
31.4971831403
 11
160.6737418074
 21
31.5617105132
  0
LINE
  8
0
 62
7
  6
CONTINUOUS
 10
159.228429528
 20
31.2390736489
 11
159.4596793074
 21
31.1422825445
  0
LINE
  8
0
 62
7
  6
CONTINUOUS
 10
160.8471793074
 20
30.9809641124
 11
160.615929528
 21
31.0777551716
  0
LINE
  8
0
 62
7
  6
CONTINUOUS
 10
159.401867028
 20
31.3681283946
 11
159.4596793074
 21
31.4326557675
  0
LINE
  8
0
 62
7
  6
CONTINUOUS
 10
149.8628043005
 20
31.4971831403
 11
149.7471793074
 21
31.4326557675
  0
LINE
  8
0
 62
7
  6
CONTINUOUS
 10
149.9784292936
 20
31.3358647082
 11
150.1518667936
 21
31.4326557675
  0
LINE
  8
0
 62
7
  6
CONTINUOUS
 10
152.2909293626
 20
31.5294468267
 11
152.1753043074
 21
31.4649194539
  0
LINE
  8
0
 62
7
  6
CONTINUOUS
 10
152.1753043074
 20
31.3358647082
 11
152.2909293626
 21
31.400392081
  0
LINE
  8
0
 62
7
  6
CONTINUOUS
 10
151.1924917523
 20
30.6905909007
 11
151.3659292523
 21
30.7873819712
  0
LINE
  8
0
 62
7
  6
CONTINUOUS
 10
150.2096793212
 20
30.6260635193
 11
150.5565542799
 21
30.5937998301
  0
LINE
  8
0
 62
7
  6
CONTINUOUS
 10
154.3143669177
 20
30.6260635193
 11
154.5456166972
 21
30.5937998301
  0
LINE
  8
0
 62
7
  6
CONTINUOUS
 10
152.6956168074
 20
31.4971831403
 11
152.9268669177
 21
31.4649194539
  0
LINE
  8
0
 62
7
  6
CONTINUOUS
 10
155.0081169177
 20
31.4971831403
 11
155.239367028
 21
31.4649194539
  0
LINE
  8
0
 62
7
  6
CONTINUOUS
 10
159.4596793074
 20
31.1422825445
 11
160.442492028
 21
30.9809641124
  0
LINE
  8
0
 62
7
  6
CONTINUOUS
 10
160.615929528
 20
31.0777551716
 11
159.6331168074
 21
31.2390736489
  0
LINE
  8
0
 62
7
  6
CONTINUOUS
 10
153.1003044177
 20
31.5939741996
 11
152.9268669177
 21
31.626237886
  0
LINE
  8
0
 62
7
  6
CONTINUOUS
 10
159.401867028
 20
30.6583272086
 11
159.575304528
 21
30.6260635193
  0
LINE
  8
0
 62
7
  6
CONTINUOUS
 10
158.2456168074
 20
31.5939741996
 11
158.0721793074
 21
31.626237886
  0
LINE
  8
0
 62
7
  6
CONTINUOUS
 10
160.5003043074
 20
31.4649194539
 11
160.615929528
 21
31.4326557675
  0
LINE
  8
0
 62
7
  6
CONTINUOUS
 10
160.6737418074
 20
30.8519093441
 11
160.615929528
 21
30.7873819712
  0
LINE
  8
0
 62
7
  6
CONTINUOUS
 10
159.228429528
 20
31.5294468267
 11
159.1128043074
 21
31.4326557675
  0
LINE
  8
0
 62
7
  6
CONTINUOUS
 10
154.1409294177
 20
31.5617105132
 11
154.0253041972
 21
31.4971831403
  0
LINE
  8
0
 62
7
  6
CONTINUOUS
 10
154.1987416972
 20
31.1745462761
 11
154.0831168074
 21
31.1100188581
  0
LINE
  8
0
 62
7
  6
CONTINUOUS
 10
154.3143669177
 20
31.0132277988
 11
154.4299918074
 21
31.0777551716
  0
LINE
  8
0
 62
7
  6
CONTINUOUS
 10
151.8862417523
 20
30.5937998301
 11
152.1753043074
 21
30.5937998301
  0
LINE
  8
0
 62
7
  6
CONTINUOUS
 10
153.2159293074
 20
30.5937998301
 11
153.5049916972
 21
30.5937998301
  0
LINE
  8
0
 62
7
  6
CONTINUOUS
 10
154.5456166972
 20
30.5937998301
 11
154.8924916972
 21
30.5937998301
  0
LINE
  8
0
 62
7
  6
CONTINUOUS
 10
155.5284290869
 20
30.5937998301
 11
155.8174918074
 21
30.5937998301
  0
LINE
  8
0
 62
7
  6
CONTINUOUS
 10
156.279992028
 20
30.5937998301
 11
156.5690540869
 21
30.5937998301
  0
LINE
  8
0
 62
7
  6
CONTINUOUS
 10
157.0315543074
 20
30.5937998301
 11
157.320617028
 21
30.5937998301
  0
LINE
  8
0
 62
7
  6
CONTINUOUS
 10
158.361242028
 20
30.5937998301
 11
158.6503040869
 21
30.5937998301
  0
LINE
  8
0
 62
7
  6
CONTINUOUS
 10
159.922179528
 20
30.5937998301
 11
160.269054528
 21
30.5937998301
  0
LINE
  8
0
 62
7
  6
CONTINUOUS
 10
160.269054528
 20
30.7228545871
 11
159.922179528
 21
30.7228545871
  0
LINE
  8
0
 62
7
  6
CONTINUOUS
 10
154.8924916972
 20
30.7228545871
 11
154.5456166972
 21
30.7228545871
  0
LINE
  8
0
 62
7
  6
CONTINUOUS
 10
159.401867028
 20
30.8519093441
 11
159.1128043074
 21
30.8519093441
  0
LINE
  8
0
 62
7
  6
CONTINUOUS
 10
151.4237418626
 20
30.9164367395
 11
151.1346793074
 21
30.9164367395
  0
LINE
  8
0
 62
7
  6
CONTINUOUS
 10
150.498741835
 20
31.4971831403
 11
150.9034292799
 21
31.4649194539
  0
LINE
  8
0
 62
7
  6
CONTINUOUS
 10
150.9612418074
 20
31.5939741996
 11
150.5565542799
 21
31.626237886
  0
LINE
  8
0
 62
7
  6
CONTINUOUS
 10
159.575304528
 20
30.6260635193
 11
159.922179528
 21
30.5937998301
  0
LINE
  8
0
 62
7
  6
CONTINUOUS
 10
159.922179528
 20
30.7228545871
 11
159.575304528
 21
30.7551182848
  0
LINE
  8
0
 62
7
  6
CONTINUOUS
 10
155.3549915869
 20
31.5939741996
 11
155.0081169177
 21
31.626237886
  0
LINE
  8
0
 62
7
  6
CONTINUOUS
 10
160.1534293074
 20
31.4971831403
 11
160.5003043074
 21
31.4649194539
  0
LINE
  8
0
 62
7
  6
CONTINUOUS
 10
160.5003043074
 20
31.5939741996
 11
160.1534293074
 21
31.626237886
  0
LINE
  8
0
 62
7
  6
CONTINUOUS
 10
157.840929528
 20
31.4971831403
 11
158.0721793074
 21
31.4649194539
  0
LINE
  8
0
 62
7
  6
CONTINUOUS
 10
160.6737418074
 20
31.5617105132
 11
160.5003043074
 21
31.5939741996
  0
LINE
  8
0
 62
7
  6
CONTINUOUS
 10
160.8471793074
 20
30.6905909007
 11
160.9628038663
 21
30.7873819712
  0
LINE
  8
0
 62
7
  6
CONTINUOUS
 10
155.3549915869
 20
30.8841730531
 11
155.1815540869
 21
30.7873819712
  0
LINE
  8
0
 62
7
  6
CONTINUOUS
 10
157.4362415869
 20
31.5294468267
 11
157.320617028
 21
31.4649194539
  0
LINE
  8
0
 62
7
  6
CONTINUOUS
 10
157.320617028
 20
31.3358647082
 11
157.4362415869
 21
31.400392081
  0
LINE
  8
0
 62
7
  6
CONTINUOUS
 10
150.0362418212
 20
31.5617105132
 11
149.8628043005
 21
31.4971831403
  0
LINE
  8
0
 62
7
  6
CONTINUOUS
 10
152.4643666972
 20
31.5939741996
 11
152.2909293626
 21
31.5294468267
  0
LINE
  8
0
 62
7
  6
CONTINUOUS
 10
152.2909293626
 20
31.400392081
 11
152.4643666972
 21
31.4649194539
  0
LINE
  8
0
 62
7
  6
CONTINUOUS
 10
151.0768668626
 20
30.8196456577
 11
150.9034292799
 21
30.7551182848
  0
LINE
  8
0
 62
7
  6
CONTINUOUS
 10
160.5003043074
 20
30.7551182848
 11
160.269054528
 21
30.7228545871
  0
LINE
  8
0
 62
7
  6
CONTINUOUS
 10
154.8924916972
 20
30.5937998301
 11
155.1815540869
 21
30.6260635193
  0
LINE
  8
0
 62
7
  6
CONTINUOUS
 10
160.269054528
 20
30.5937998301
 11
160.615929528
 21
30.6260635193
  0
LINE
  8
0
 62
7
  6
CONTINUOUS
 10
150.5565542799
 20
30.5937998301
 11
150.9612418074
 21
30.6260635193
  0
LINE
  8
0
 62
7
  6
CONTINUOUS
 10
150.9034292799
 20
30.7551182848
 11
150.498741835
 21
30.7228545871
  0
LINE
  8
0
 62
7
  6
CONTINUOUS
 10
154.7768668074
 20
31.1422825445
 11
155.412804528
 21
31.1422825445
  0
LINE
  8
0
 62
7
  6
CONTINUOUS
 10
155.412804528
 20
31.2713373354
 11
154.7768668074
 21
31.2713373354
  0
LINE
  8
0
 62
7
  6
CONTINUOUS
 10
151.1346793074
 20
31.3036010218
 11
151.4237418626
 21
31.3036010218
  0
LINE
  8
0
 62
7
  6
CONTINUOUS
 10
153.9674919177
 20
31.3681283946
 11
154.2565543074
 21
31.3681283946
  0
LINE
  8
0
 62
7
  6
CONTINUOUS
 10
160.6737418074
 20
31.3681283946
 11
160.9628038663
 21
31.3681283946
  0
LINE
  8
0
 62
7
  6
CONTINUOUS
 10
154.6612419177
 20
31.4971831403
 11
155.0081169177
 21
31.4971831403
  0
LINE
  8
0
 62
7
  6
CONTINUOUS
 10
159.8065543074
 20
31.4971831403
 11
160.1534293074
 21
31.4971831403
  0
LINE
  8
0
 62
7
  6
CONTINUOUS
 10
160.1534293074
 20
31.626237886
 11
159.8065543074
 21
31.626237886
  0
LINE
  8
0
 62
7
  6
CONTINUOUS
 10
158.0721793074
 20
31.626237886
 11
157.840929528
 21
31.626237886
  0
LINE
  8
0
 62
7
  6
CONTINUOUS
 10
157.320617028
 20
31.626237886
 11
157.0315543074
 21
31.626237886
  0
LINE
  8
0
 62
7
  6
CONTINUOUS
 10
156.5690540869
 20
31.626237886
 11
156.279992028
 21
31.626237886
  0
LINE
  8
0
 62
7
  6
CONTINUOUS
 10
155.0081169177
 20
31.626237886
 11
154.6612419177
 21
31.626237886
  0
LINE
  8
0
 62
7
  6
CONTINUOUS
 10
152.9268669177
 20
31.626237886
 11
152.6956168074
 21
31.626237886
  0
LINE
  8
0
 62
7
  6
CONTINUOUS
 10
156.279992028
 20
31.9488748406
 11
156.5690540869
 21
31.9488748406
  0
LINE
  8
0
 62
7
  6
CONTINUOUS
 10
156.5690540869
 20
32.1101932727
 11
156.279992028
 21
32.1101932727
  0
LINE
  8
0
 62
7
  6
CONTINUOUS
 10
152.1753043074
 20
32.1101932727
 11
151.8862417523
 21
32.1101932727
  0
LINE
  8
0
 62
7
  6
CONTINUOUS
 10
151.2130860697
 20
32.3970785186
 11
151.6256574183
 21
32.3970785186
  0
LINE
  8
0
 62
7
  6
CONTINUOUS
 10
152.852430332
 20
32.3970785186
 11
154.245872955
 21
32.3970785186
  0
LINE
  8
0
 62
7
  6
CONTINUOUS
 10
154.5737418074
 20
32.3970785186
 11
155.9671844304
 21
32.3970785186
  0
LINE
  8
0
 62
7
  6
CONTINUOUS
 10
157.852430332
 20
32.3970785186
 11
159.245872955
 21
32.3970785186
  0
LINE
  8
0
 62
7
  6
CONTINUOUS
 10
159.5737418074
 20
32.3970785186
 11
160.9671844304
 21
32.3970785186
  0
LINE
  8
0
 62
7
  6
CONTINUOUS
 10
157.6096790869
 20
31.5939741996
 11
157.4362415869
 21
31.5294468267
  0
LINE
  8
0
 62
7
  6
CONTINUOUS
 10
155.1815540869
 20
30.6260635193
 11
155.3549915869
 21
30.6905909007
  0
LINE
  8
0
 62
7
  6
CONTINUOUS
 10
160.615929528
 20
30.6260635193
 11
160.8471793074
 21
30.6905909007
  0
LINE
  8
0
 62
7
  6
CONTINUOUS
 10
160.615929528
 20
30.7873819712
 11
160.5003043074
 21
30.7551182848
  0
LINE
  8
0
 62
7
  6
CONTINUOUS
 10
159.575304528
 20
31.4649194539
 11
159.8065543074
 21
31.4971831403
  0
LINE
  8
0
 62
7
  6
CONTINUOUS
 10
157.6096790869
 20
31.4649194539
 11
157.840929528
 21
31.4971831403
  0
LINE
  8
0
 62
7
  6
CONTINUOUS
 10
154.5456166972
 20
31.1100188581
 11
154.7768668074
 21
31.1422825445
  0
LINE
  8
0
 62
7
  6
CONTINUOUS
 10
157.840929528
 20
31.626237886
 11
157.6096790869
 21
31.5939741996
  0
LINE
  8
0
 62
7
  6
CONTINUOUS
 10
154.4299918074
 20
31.4649194539
 11
154.6612419177
 21
31.4971831403
  0
LINE
  8
0
 62
7
  6
CONTINUOUS
 10
159.8065543074
 20
31.626237886
 11
159.4596793074
 21
31.5939741996
  0
LINE
  8
0
 62
7
  6
CONTINUOUS
 10
154.7768668074
 20
31.2713373354
 11
154.4299918074
 21
31.2390736489
  0
LINE
  8
0
 62
7
  6
CONTINUOUS
 10
150.5565542799
 20
31.626237886
 11
150.2096793212
 21
31.5939741996
  0
LINE
  8
0
 62
7
  6
CONTINUOUS
 10
154.6612419177
 20
31.626237886
 11
154.2565543074
 21
31.5939741996
  0
LINE
  8
0
 62
7
  6
CONTINUOUS
 10
152.0327582009
 20
33.5446195022
 11
151.3770204959
 21
33.5446195022
  0
LINE
  8
0
 62
7
  6
CONTINUOUS
 10
157.4362415869
 20
31.400392081
 11
157.6096790869
 21
31.4649194539
  0
LINE
  8
0
 62
7
  6
CONTINUOUS
 10
159.4596793074
 20
31.4326557675
 11
159.575304528
 21
31.4649194539
  0
LINE
  8
0
 62
7
  6
CONTINUOUS
 10
159.4596793074
 20
31.5939741996
 11
159.228429528
 21
31.5294468267
  0
LINE
  8
0
 62
7
  6
CONTINUOUS
 10
155.1815540869
 20
30.7873819712
 11
154.8924916972
 21
30.7228545871
  0
LINE
  8
0
 62
7
  6
CONTINUOUS
 10
152.4643666972
 20
31.4649194539
 11
152.6956168074
 21
31.4971831403
  0
LINE
  8
0
 62
7
  6
CONTINUOUS
 10
152.6956168074
 20
31.626237886
 11
152.4643666972
 21
31.5939741996
  0
LINE
  8
0
 62
7
  6
CONTINUOUS
 10
150.2674918074
 20
31.4649194539
 11
150.498741835
 21
31.4971831403
  0
LINE
  8
0
 62
7
  6
CONTINUOUS
 10
156.7868565615
 20
35.0200293383
 11
157.4425942664
 21
35.0200293383
  0
LINE
  8
0
 62
7
  6
CONTINUOUS
 10
154.4299918074
 20
31.0777551716
 11
154.5456166972
 21
31.1100188581
  0
LINE
  8
0
 62
7
  6
CONTINUOUS
 10
154.4299918074
 20
31.2390736489
 11
154.1987416972
 21
31.1745462761
  0
LINE
  8
0
 62
7
  6
CONTINUOUS
 10
154.3143669177
 20
31.4326557675
 11
154.4299918074
 21
31.4649194539
  0
LINE
  8
0
 62
7
  6
CONTINUOUS
 10
150.9612418074
 20
30.6260635193
 11
151.1924917523
 21
30.6905909007
  0
LINE
  8
0
 62
7
  6
CONTINUOUS
 10
154.2565543074
 20
31.5939741996
 11
154.1409294177
 21
31.5617105132
  0
LINE
  8
0
 62
7
  6
CONTINUOUS
 10
150.2096793212
 20
31.5939741996
 11
150.0362418212
 21
31.5617105132
  0
LINE
  8
0
 62
7
  6
CONTINUOUS
 10
160.9671844304
 20
36.1675703219
 11
159.5737418074
 21
36.1675703219
  0
LINE
  8
0
 62
7
  6
CONTINUOUS
 10
157.6065286927
 20
36.1675703219
 11
157.1939573441
 21
36.1675703219
  0
LINE
  8
0
 62
7
  6
CONTINUOUS
 10
155.9671844304
 20
36.1675703219
 11
154.5737418074
 21
36.1675703219
  0
LINE
  8
0
 62
7
  6
CONTINUOUS
 10
154.245872955
 20
36.1675703219
 11
152.852430332
 21
36.1675703219
  0
LINE
  8
0
 62
7
  6
CONTINUOUS
 10
150.9671844304
 20
36.1675703219
 11
149.5737418074
 21
36.1675703219
  0
LINE
  8
0
 62
7
  6
CONTINUOUS
 10
150.1518667936
 20
31.4326557675
 11
150.2674918074
 21
31.4649194539
  0
CIRCLE
  8
0
 62
7
  6
CONTINUOUS
 10
160.2704631189
 20
38.5036358957
 40
2.0901639344
  0
ARC
  8
0
 62
7
  6
CONTINUOUS
 10
151.2130860697
 20
34.0364227809
 40
1.6393442623
 50
180.0
 51
270.0
  0
ARC
  8
0
 62
7
  6
CONTINUOUS
 10
157.6065286927
 20
34.5282260596
 40
1.6393442623
 50
0.0
 51
90.0
  0
ARC
  8
0
 62
7
  6
CONTINUOUS
 10
151.6256574183
 20
33.8724883547
 40
1.4754098361
 50
270.0
 51
326.2510114041
  0
ARC
  8
0
 62
7
  6
CONTINUOUS
 10
157.1939573441
 20
34.6921604858
 40
1.4754098361
 50
90.0
 51
146.2510114041
  0
ARC
  8
0
 62
7
  6
CONTINUOUS
 10
152.0327582009
 20
34.3642916334
 40
0.8196721311
 50
270.0
 51
360.0
  0
ARC
  8
0
 62
7
  6
CONTINUOUS
 10
156.7868565615
 20
34.2003572071
 40
0.8196721311
 50
90.0
 51
180.0
  0
ARC
  8
0
 62
7
  6
CONTINUOUS
 10
151.3770204959
 20
33.9544555678
 40
0.4098360656
 50
180.0
 51
270.0
  0
ARC
  8
0
 62
7
  6
CONTINUOUS
 10
157.4425942664
 20
34.6101932727
 40
0.4098360656
 50
0.0
 51
90.0
  0
SOLID
  8
0
 62
7
  6
CONTINUOUS
 10
156.279992028
 20
31.9488752009
 11
156.279992028
 21
32.1101936845
 12
156.5690540869
 22
31.9488752009
 13
156.5690540869
 23
32.1101936845
  0
SOLID
  8
0
 62
7
  6
CONTINUOUS
 10
150.5565542799
 20
31.6262382337
 11
150.9612418074
 21
31.5939740028
 12
150.2096793212
 22
31.5939740028
 13
150.2096793212
 23
31.5939740028
  0
SOLID
  8
0
 62
7
  6
CONTINUOUS
 10
150.0362418212
 20
31.5617111435
 11
150.2096793212
 21
31.5939740028
 12
150.9612418074
 22
31.5939740028
 13
150.9612418074
 23
31.5939740028
  0
SOLID
  8
0
 62
7
  6
CONTINUOUS
 10
150.9612418074
 20
31.5939740028
 11
151.1924917523
 21
31.5294468402
 12
150.0362418212
 22
31.5617111435
 13
150.0362418212
 23
31.5617111435
  0
SOLID
  8
0
 62
7
  6
CONTINUOUS
 10
149.8628043005
 20
31.49718259
 11
150.0362418212
 21
31.5617111435
 12
151.1924917523
 22
31.5294468402
 13
151.1924917523
 23
31.5294468402
  0
SOLID
  8
0
 62
7
  6
CONTINUOUS
 10
149.8628043005
 20
31.49718259
 11
151.1924917523
 21
31.5294468402
 12
150.498741835
 22
31.49718259
 13
150.498741835
 23
31.49718259
  0
SOLID
  8
0
 62
7
  6
CONTINUOUS
 10
150.498741835
 20
31.49718259
 11
151.1924917523
 21
31.5294468402
 12
150.9034292799
 22
31.4649197501
 13
150.9034292799
 23
31.4649197501
  0
SOLID
  8
0
 62
7
  6
CONTINUOUS
 10
151.1924917523
 20
31.5294468402
 11
151.3659292523
 21
31.4326554468
 12
150.9034292799
 22
31.4649197501
 13
150.9034292799
 23
31.4649197501
  0
SOLID
  8
0
 62
7
  6
CONTINUOUS
 10
151.0768668626
 20
31.4003926599
 11
150.9034292799
 21
31.4649197501
 12
151.3659292523
 22
31.4326554468
 13
151.3659292523
 23
31.4326554468
  0
SOLID
  8
0
 62
7
  6
CONTINUOUS
 10
151.0768668626
 20
31.4003926599
 11
151.3659292523
 21
31.4326554468
 12
151.1346793074
 22
31.3036013776
 13
151.1346793074
 23
31.3036013776
  0
SOLID
  8
0
 62
7
  6
CONTINUOUS
 10
151.3659292523
 20
31.4326554468
 11
151.4237418626
 21
31.3036013776
 12
151.1346793074
 22
31.3036013776
 13
151.1346793074
 23
31.3036013776
  0
SOLID
  8
0
 62
7
  6
CONTINUOUS
 10
152.4643666972
 20
31.5939739754
 11
152.6956168074
 21
31.6262382787
 12
152.9268669177
 22
31.6262382787
 13
152.9268669177
 23
31.6262382787
  0
SOLID
  8
0
 62
7
  6
CONTINUOUS
 10
152.9268669177
 20
31.6262382787
 11
153.1003044177
 21
31.5939739754
 12
152.4643666972
 22
31.5939739754
 13
152.4643666972
 23
31.5939739754
  0
SOLID
  8
0
 62
7
  6
CONTINUOUS
 10
152.2909293626
 20
31.5294468852
 11
152.4643666972
 21
31.5939739754
 12
153.1003044177
 22
31.5939739754
 13
153.1003044177
 23
31.5939739754
  0
SOLID
  8
0
 62
7
  6
CONTINUOUS
 10
153.1003044177
 20
31.5939739754
 11
153.2737419177
 21
31.5294468852
 12
152.2909293626
 22
31.5294468852
 13
152.2909293626
 23
31.5294468852
  0
SOLID
  8
0
 62
7
  6
CONTINUOUS
 10
153.2737419177
 20
31.5294468852
 11
152.6956168074
 21
31.4971825369
 12
152.2909293626
 22
31.5294468852
 13
152.2909293626
 23
31.5294468852
  0
SOLID
  8
0
 62
7
  6
CONTINUOUS
 10
152.1753043074
 20
31.4649197951
 11
152.2909293626
 21
31.5294468852
 12
152.6956168074
 22
31.4971825369
 13
152.6956168074
 23
31.4971825369
  0
SOLID
  8
0
 62
7
  6
CONTINUOUS
 10
152.6956168074
 20
31.4971825369
 11
152.4643666972
 21
31.4649197951
 12
152.1753043074
 22
31.4649197951
 13
152.1753043074
 23
31.4649197951
  0
SOLID
  8
0
 62
7
  6
CONTINUOUS
 10
152.6956168074
 20
31.4971825369
 11
153.2737419177
 21
31.5294468852
 12
152.9268669177
 22
31.4649197951
 13
152.9268669177
 23
31.4649197951
  0
SOLID
  8
0
 62
7
  6
CONTINUOUS
 10
153.2737419177
 20
31.5294468852
 11
153.3893668074
 21
31.4649197951
 12
152.9268669177
 22
31.4649197951
 13
152.9268669177
 23
31.4649197951
  0
SOLID
  8
0
 62
7
  6
CONTINUOUS
 10
153.0424918074
 20
31.4326554468
 11
152.9268669177
 21
31.4649197951
 12
153.3893668074
 22
31.4649197951
 13
153.3893668074
 23
31.4649197951
  0
SOLID
  8
0
 62
7
  6
CONTINUOUS
 10
153.3893668074
 20
31.4649197951
 11
153.4471794177
 21
31.4003927049
 12
153.0424918074
 22
31.4326554468
 13
153.0424918074
 23
31.4326554468
  0
SOLID
  8
0
 62
7
  6
CONTINUOUS
 10
153.1581166972
 20
31.3681283566
 11
153.0424918074
 21
31.4326554468
 12
153.4471794177
 22
31.4003927049
 13
153.4471794177
 23
31.4003927049
  0
SOLID
  8
0
 62
7
  6
CONTINUOUS
 10
153.1581166972
 20
31.3681283566
 11
153.4471794177
 21
31.4003927049
 12
153.2159293074
 22
31.2390742213
 13
153.2159293074
 23
31.2390742213
  0
SOLID
  8
0
 62
7
  6
CONTINUOUS
 10
153.4471794177
 20
31.4003927049
 11
153.5049916972
 21
31.2390742213
 12
153.2159293074
 22
31.2390742213
 13
153.2159293074
 23
31.2390742213
  0
SOLID
  8
0
 62
7
  6
CONTINUOUS
 10
152.4643666972
 20
31.4649197951
 11
152.2909293626
 21
31.4003927049
 12
152.1753043074
 22
31.4649197951
 13
152.1753043074
 23
31.4649197951
  0
SOLID
  8
0
 62
7
  6
CONTINUOUS
 10
152.2909293626
 20
31.4003927049
 11
152.1753043074
 21
31.3358640533
 12
152.1753043074
 22
31.4649197951
 13
152.1753043074
 23
31.4649197951
  0
SOLID
  8
0
 62
7
  6
CONTINUOUS
 10
152.1753043074
 20
31.3358640533
 11
151.8862417523
 21
30.5938002869
 12
152.1753043074
 22
31.4649197951
 13
152.1753043074
 23
31.4649197951
  0
SOLID
  8
0
 62
7
  6
CONTINUOUS
 10
152.1753043074
 20
31.4649197951
 11
151.8862417523
 21
30.5938002869
 12
152.1753043074
 22
32.1101937295
 13
152.1753043074
 23
32.1101937295
  0
SOLID
  8
0
 62
7
  6
CONTINUOUS
 10
151.8862417523
 20
30.5938002869
 11
151.8862417523
 21
32.1101937295
 12
152.1753043074
 22
32.1101937295
 13
152.1753043074
 23
32.1101937295
  0
SOLID
  8
0
 62
7
  6
CONTINUOUS
 10
152.1753043074
 20
31.3358640533
 11
152.1753043074
 21
30.5938002869
 12
151.8862417523
 22
30.5938002869
 13
151.8862417523
 23
30.5938002869
  0
SOLID
  8
0
 62
7
  6
CONTINUOUS
 10
153.2159293074
 20
30.5938002869
 11
153.2159293074
 21
31.2390742213
 12
153.5049916972
 22
31.2390742213
 13
153.5049916972
 23
31.2390742213
  0
SOLID
  8
0
 62
7
  6
CONTINUOUS
 10
153.5049916972
 20
31.2390742213
 11
153.5049916972
 21
30.5938002869
 12
153.2159293074
 22
30.5938002869
 13
153.2159293074
 23
30.5938002869
  0
SOLID
  8
0
 62
7
  6
CONTINUOUS
 10
154.2565543074
 20
31.5939738288
 11
154.6612419177
 21
31.6262385959
 12
155.0081169177
 22
31.6262385959
 13
155.0081169177
 23
31.6262385959
  0
SOLID
  8
0
 62
7
  6
CONTINUOUS
 10
155.0081169177
 20
31.6262385959
 11
155.3549915869
 21
31.5939738288
 12
154.2565543074
 22
31.5939738288
 13
154.2565543074
 23
31.5939738288
  0
SOLID
  8
0
 62
7
  6
CONTINUOUS
 10
154.1409294177
 20
31.5617111435
 11
154.2565543074
 21
31.5939738288
 12
155.3549915869
 22
31.5939738288
 13
155.3549915869
 23
31.5939738288
  0
SOLID
  8
0
 62
7
  6
CONTINUOUS
 10
155.3549915869
 20
31.5939738288
 11
155.5284290869
 21
31.5294468402
 12
154.1409294177
 22
31.5617111435
 13
154.1409294177
 23
31.5617111435
  0
SOLID
  8
0
 62
7
  6
CONTINUOUS
 10
154.0253041972
 20
31.4971826249
 11
154.1409294177
 21
31.5617111435
 12
155.5284290869
 22
31.5294468402
 13
155.5284290869
 23
31.5294468402
  0
SOLID
  8
0
 62
7
  6
CONTINUOUS
 10
154.0253041972
 20
31.4971826249
 11
155.5284290869
 21
31.5294468402
 12
154.6612419177
 22
31.4971826249
 13
154.6612419177
 23
31.4971826249
  0
SOLID
  8
0
 62
7
  6
CONTINUOUS
 10
154.6612419177
 20
31.4971826249
 11
155.5284290869
 21
31.5294468402
 12
155.0081169177
 22
31.4971826249
 13
155.0081169177
 23
31.4971826249
  0
SOLID
  8
0
 62
7
  6
CONTINUOUS
 10
155.0081169177
 20
31.4971826249
 11
155.5284290869
 21
31.5294468402
 12
155.239367028
 22
31.4649194065
 13
155.239367028
 23
31.4649194065
  0
SOLID
  8
0
 62
7
  6
CONTINUOUS
 10
155.5284290869
 20
31.5294468402
 11
155.6440543074
 21
31.4649194065
 12
155.239367028
 22
31.4649194065
 13
155.239367028
 23
31.4649194065
  0
SOLID
  8
0
 62
7
  6
CONTINUOUS
 10
153.9674919177
 20
31.4326554138
 11
154.0253041972
 21
31.4971826249
 12
154.6612419177
 22
31.4971826249
 13
154.6612419177
 23
31.4971826249
  0
SOLID
  8
0
 62
7
  6
CONTINUOUS
 10
155.3549915869
 20
31.4326554138
 11
155.239367028
 21
31.4649194065
 12
155.6440543074
 22
31.4649194065
 13
155.6440543074
 23
31.4649194065
  0
SOLID
  8
0
 62
7
  6
CONTINUOUS
 10
155.3549915869
 20
31.4326554138
 11
155.6440543074
 21
31.4649194065
 12
155.412804528
 22
31.3681282026
 13
155.412804528
 23
31.3681282026
  0
SOLID
  8
0
 62
7
  6
CONTINUOUS
 10
155.6440543074
 20
31.4649194065
 11
155.7018665869
 21
31.3681282026
 12
155.412804528
 22
31.3681282026
 13
155.412804528
 23
31.3681282026
  0
SOLID
  8
0
 62
7
  6
CONTINUOUS
 10
155.412804528
 20
31.2713369632
 11
155.412804528
 21
31.3681282026
 12
155.7018665869
 22
31.3681282026
 13
155.7018665869
 23
31.3681282026
  0
SOLID
  8
0
 62
7
  6
CONTINUOUS
 10
155.412804528
 20
31.2713369632
 11
155.7018665869
 21
31.3681282026
 12
155.412804528
 22
31.1422827828
 13
155.412804528
 23
31.1422827828
  0
SOLID
  8
0
 62
7
  6
CONTINUOUS
 10
155.412804528
 20
31.1422827828
 11
155.7018665869
 21
31.3681282026
 12
155.412804528
 22
30.9487004259
 13
155.412804528
 23
30.9487004259
  0
SOLID
  8
0
 62
7
  6
CONTINUOUS
 10
155.7018665869
 20
31.3681282026
 11
155.7018665869
 21
30.8519086025
 12
155.412804528
 22
30.9487004259
 13
155.412804528
 23
30.9487004259
  0
SOLID
  8
0
 62
7
  6
CONTINUOUS
 10
157.6096790869
 20
31.5939736268
 11
157.840929528
 21
31.6262383465
 12
158.0721793074
 22
31.6262383465
 13
158.0721793074
 23
31.6262383465
  0
SOLID
  8
0
 62
7
  6
CONTINUOUS
 10
158.0721793074
 20
31.6262383465
 11
158.2456168074
 21
31.5939736268
 12
157.6096790869
 22
31.5939736268
 13
157.6096790869
 23
31.5939736268
  0
SOLID
  8
0
 62
7
  6
CONTINUOUS
 10
157.4362415869
 20
31.5294472848
 11
157.6096790869
 21
31.5939736268
 12
158.2456168074
 22
31.5939736268
 13
158.2456168074
 23
31.5939736268
  0
SOLID
  8
0
 62
7
  6
CONTINUOUS
 10
158.2456168074
 20
31.5939736268
 11
158.4190543074
 21
31.5294472848
 12
157.4362415869
 22
31.5294472848
 13
157.4362415869
 23
31.5294472848
  0
SOLID
  8
0
 62
7
  6
CONTINUOUS
 10
158.4190543074
 20
31.5294472848
 11
157.840929528
 21
31.4971825369
 12
157.4362415869
 22
31.5294472848
 13
157.4362415869
 23
31.5294472848
  0
SOLID
  8
0
 62
7
  6
CONTINUOUS
 10
157.320617028
 20
31.4649199103
 11
157.4362415869
 21
31.5294472848
 12
157.840929528
 22
31.4971825369
 13
157.840929528
 23
31.4971825369
  0
SOLID
  8
0
 62
7
  6
CONTINUOUS
 10
157.840929528
 20
31.4971825369
 11
157.6096790869
 21
31.4649199103
 12
157.320617028
 22
31.4649199103
 13
157.320617028
 23
31.4649199103
  0
SOLID
  8
0
 62
7
  6
CONTINUOUS
 10
157.840929528
 20
31.4971825369
 11
158.4190543074
 21
31.5294472848
 12
158.0721793074
 22
31.4649199103
 13
158.0721793074
 23
31.4649199103
  0
SOLID
  8
0
 62
7
  6
CONTINUOUS
 10
158.4190543074
 20
31.5294472848
 11
158.534679528
 21
31.4649199103
 12
158.0721793074
 22
31.4649199103
 13
158.0721793074
 23
31.4649199103
  0
SOLID
  8
0
 62
7
  6
CONTINUOUS
 10
158.187804528
 20
31.4326554468
 11
158.0721793074
 21
31.4649199103
 12
158.534679528
 22
31.4649199103
 13
158.534679528
 23
31.4649199103
  0
SOLID
  8
0
 62
7
  6
CONTINUOUS
 10
158.187804528
 20
31.4326554468
 11
158.534679528
 21
31.4649199103
 12
158.3034290869
 22
31.3681288486
 13
158.3034290869
 23
31.3681288486
  0
SOLID
  8
0
 62
7
  6
CONTINUOUS
 10
158.534679528
 20
31.4649199103
 11
158.5924918074
 21
31.3681288486
 12
158.3034290869
 22
31.3681288486
 13
158.3034290869
 23
31.3681288486
  0
SOLID
  8
0
 62
7
  6
CONTINUOUS
 10
158.361242028
 20
31.2068093799
 11
158.3034290869
 21
31.3681288486
 12
158.5924918074
 22
31.3681288486
 13
158.5924918074
 23
31.3681288486
  0
SOLID
  8
0
 62
7
  6
CONTINUOUS
 10
158.5924918074
 20
31.3681288486
 11
158.6503040869
 21
31.2068093799
 12
158.361242028
 22
31.2068093799
 13
158.361242028
 23
31.2068093799
  0
SOLID
  8
0
 62
7
  6
CONTINUOUS
 10
157.6096790869
 20
31.4649199103
 11
157.4362415869
 21
31.4003926599
 12
157.320617028
 22
31.4649199103
 13
157.320617028
 23
31.4649199103
  0
SOLID
  8
0
 62
7
  6
CONTINUOUS
 10
157.4362415869
 20
31.4003926599
 11
157.320617028
 21
31.3358640533
 12
157.320617028
 22
31.4649199103
 13
157.320617028
 23
31.4649199103
  0
SOLID
  8
0
 62
7
  6
CONTINUOUS
 10
157.320617028
 20
31.3358640533
 11
157.0315543074
 21
30.5938003547
 12
157.320617028
 22
31.4649199103
 13
157.320617028
 23
31.4649199103
  0
SOLID
  8
0
 62
7
  6
CONTINUOUS
 10
157.320617028
 20
31.4649199103
 11
157.0315543074
 21
30.5938003547
 12
157.320617028
 22
31.6262383465
 13
157.320617028
 23
31.6262383465
  0
SOLID
  8
0
 62
7
  6
CONTINUOUS
 10
157.0315543074
 20
30.5938003547
 11
157.0315543074
 21
31.6262383465
 12
157.320617028
 22
31.6262383465
 13
157.320617028
 23
31.6262383465
  0
SOLID
  8
0
 62
7
  6
CONTINUOUS
 10
157.320617028
 20
31.3358640533
 11
157.320617028
 21
30.5938003547
 12
157.0315543074
 22
30.5938003547
 13
157.0315543074
 23
30.5938003547
  0
SOLID
  8
0
 62
7
  6
CONTINUOUS
 10
158.361242028
 20
30.5938003547
 11
158.361242028
 21
31.2068093799
 12
158.6503040869
 22
31.2068093799
 13
158.6503040869
 23
31.2068093799
  0
SOLID
  8
0
 62
7
  6
CONTINUOUS
 10
158.6503040869
 20
31.2068093799
 11
158.6503040869
 21
30.5938003547
 12
158.361242028
 22
30.5938003547
 13
158.361242028
 23
30.5938003547
  0
SOLID
  8
0
 62
7
  6
CONTINUOUS
 10
159.4596793074
 20
31.5939739474
 11
159.8065543074
 21
31.6262381969
 12
160.1534293074
 22
31.6262381969
 13
160.1534293074
 23
31.6262381969
  0
SOLID
  8
0
 62
7
  6
CONTINUOUS
 10
160.1534293074
 20
31.6262381969
 11
160.5003043074
 21
31.5939739474
 12
159.4596793074
 22
31.5939739474
 13
159.4596793074
 23
31.5939739474
  0
SOLID
  8
0
 62
7
  6
CONTINUOUS
 10
159.228429528
 20
31.5294468402
 11
159.4596793074
 21
31.5939739474
 12
160.5003043074
 22
31.5939739474
 13
160.5003043074
 23
31.5939739474
  0
SOLID
  8
0
 62
7
  6
CONTINUOUS
 10
159.228429528
 20
31.5294468402
 11
160.5003043074
 21
31.5939739304
 12
160.6737418074
 22
31.5617111435
 13
160.6737418074
 23
31.5617111435
  0
SOLID
  8
0
 62
7
  6
CONTINUOUS
 10
159.228429528
 20
31.5294468402
 11
160.6737418074
 21
31.5617111435
 12
159.8065543074
 22
31.4971825592
 13
159.8065543074
 23
31.4971825592
  0
SOLID
  8
0
 62
7
  6
CONTINUOUS
 10
159.8065543074
 20
31.4971825592
 11
160.6737418074
 21
31.5617111435
 12
160.1534293074
 22
31.4971825592
 13
160.1534293074
 23
31.4971825592
  0
SOLID
  8
0
 62
7
  6
CONTINUOUS
 10
160.6737418074
 20
31.5617111435
 11
160.8471793074
 21
31.4971825592
 12
160.1534293074
 22
31.4971825592
 13
160.1534293074
 23
31.4971825592
  0
SOLID
  8
0
 62
7
  6
CONTINUOUS
 10
160.5003043074
 20
31.4649197501
 11
160.1534293074
 21
31.4971825592
 12
160.8471793074
 22
31.4971825592
 13
160.8471793074
 23
31.4971825592
  0
SOLID
  8
0
 62
7
  6
CONTINUOUS
 10
159.1128043074
 20
31.4326555427
 11
159.228429528
 21
31.5294468402
 12
159.8065543074
 22
31.4971825592
 13
159.8065543074
 23
31.4971825592
  0
SOLID
  8
0
 62
7
  6
CONTINUOUS
 10
160.5003043074
 20
31.4649197501
 11
160.8471793074
 21
31.4971825592
 12
160.615929528
 22
31.4326555427
 13
160.615929528
 23
31.4326555427
  0
SOLID
  8
0
 62
7
  6
CONTINUOUS
 10
160.615929528
 20
31.4326555427
 11
160.8471793074
 21
31.4971825592
 12
160.6737418074
 22
31.3681283005
 13
160.6737418074
 23
31.3681283005
  0
SOLID
  8
0
 62
7
  6
CONTINUOUS
 10
160.8471793074
 20
31.4971825592
 11
160.9628038663
 21
31.3681283005
 12
160.6737418074
 22
31.3681283005
 13
160.6737418074
 23
31.3681283005
  0
SOLID
  8
0
 62
7
  6
CONTINUOUS
 10
150.2674918074
 20
31.4649197501
 11
149.7471793074
 21
31.4326554237
 12
150.498741835
 22
31.4971824493
 13
150.498741835
 23
31.4971824493
  0
SOLID
  8
0
 62
7
  6
CONTINUOUS
 10
149.7471793074
 20
31.4326554237
 11
149.8628043005
 21
31.4971824493
 12
150.498741835
 22
31.4971824493
 13
150.498741835
 23
31.4971824493
  0
SOLID
  8
0
 62
7
  6
CONTINUOUS
 10
150.2674918074
 20
31.4649197501
 11
150.1518667936
 21
31.4326554237
 12
149.7471793074
 22
31.4326554237
 13
149.7471793074
 23
31.4326554237
  0
SOLID
  8
0
 62
7
  6
CONTINUOUS
 10
149.6315543091
 20
31.3036012664
 11
149.7471793074
 21
31.4326554237
 12
150.1518667936
 22
31.4326554237
 13
150.1518667936
 23
31.4326554237
  0
SOLID
  8
0
 62
7
  6
CONTINUOUS
 10
153.9674919177
 20
31.4326554237
 11
154.6612419177
 21
31.4971825369
 12
154.4299918074
 22
31.4649197501
 13
154.4299918074
 23
31.4649197501
  0
SOLID
  8
0
 62
7
  6
CONTINUOUS
 10
154.4299918074
 20
31.4649197501
 11
154.3143669177
 21
31.4326554237
 12
153.9674919177
 22
31.4326554237
 13
153.9674919177
 23
31.4326554237
  0
SOLID
  8
0
 62
7
  6
CONTINUOUS
 10
153.9674919177
 20
31.3681283335
 11
153.9674919177
 21
31.4326554237
 12
154.3143669177
 22
31.4326554237
 13
154.3143669177
 23
31.4326554237
  0
SOLID
  8
0
 62
7
  6
CONTINUOUS
 10
154.3143669177
 20
31.4326554237
 11
154.2565543074
 21
31.3681283335
 12
153.9674919177
 22
31.3681283335
 13
153.9674919177
 23
31.3681283335
  0
SOLID
  8
0
 62
7
  6
CONTINUOUS
 10
159.1128043074
 20
31.4326555528
 11
159.8065543074
 21
31.4971825369
 12
159.575304528
 22
31.4649197501
 13
159.575304528
 23
31.4649197501
  0
SOLID
  8
0
 62
7
  6
CONTINUOUS
 10
159.575304528
 20
31.4649197501
 11
159.4596793074
 21
31.4326555528
 12
159.1128043074
 22
31.4326555528
 13
159.1128043074
 23
31.4326555528
  0
SOLID
  8
0
 62
7
  6
CONTINUOUS
 10
159.1128043074
 20
31.3681284626
 11
159.1128043074
 21
31.4326555528
 12
159.4596793074
 22
31.4326555528
 13
159.4596793074
 23
31.4326555528
  0
SOLID
  8
0
 62
7
  6
CONTINUOUS
 10
159.4596793074
 20
31.4326555528
 11
159.401867028
 21
31.3681284626
 12
159.1128043074
 22
31.3681284626
 13
159.1128043074
 23
31.3681284626
  0
SOLID
  8
0
 62
7
  6
CONTINUOUS
 10
159.228429528
 20
31.2390741763
 11
159.1128043074
 21
31.3681284626
 12
159.401867028
 22
31.3681284626
 13
159.401867028
 23
31.3681284626
  0
SOLID
  8
0
 62
7
  6
CONTINUOUS
 10
149.6315543091
 20
31.3036012664
 11
150.1518667936
 21
31.4326554468
 12
149.9784292936
 22
31.3358640533
 13
149.9784292936
 23
31.3358640533
  0
SOLID
  8
0
 62
7
  6
CONTINUOUS
 10
149.9784292936
 20
31.3358640533
 11
149.9206168074
 21
31.2713369632
 12
149.6315543091
 22
31.3036012664
 13
149.6315543091
 23
31.3036012664
  0
SOLID
  8
0
 62
7
  6
CONTINUOUS
 10
149.5737418074
 20
31.1100184796
 11
149.6315543091
 21
31.3036012664
 12
149.9206168074
 22
31.2713369632
 13
149.9206168074
 23
31.2713369632
  0
SOLID
  8
0
 62
7
  6
CONTINUOUS
 10
154.4299918074
 20
31.2390741763
 11
154.7768668074
 21
31.271336924
 12
155.412804528
 22
31.271336924
 13
155.412804528
 23
31.271336924
  0
SOLID
  8
0
 62
7
  6
CONTINUOUS
 10
154.4299918074
 20
31.2390741763
 11
155.412804528
 21
31.271336924
 12
154.1987416972
 22
31.1745462761
 13
154.1987416972
 23
31.1745462761
  0
SOLID
  8
0
 62
7
  6
CONTINUOUS
 10
154.1987416972
 20
31.1745462761
 11
155.412804528
 21
31.271336924
 12
154.7768668074
 22
31.1422827436
 13
154.7768668074
 23
31.1422827436
  0
SOLID
  8
0
 62
7
  6
CONTINUOUS
 10
155.412804528
 20
31.271336924
 11
155.412804528
 21
31.1422827436
 12
154.7768668074
 22
31.1422827436
 13
154.7768668074
 23
31.1422827436
  0
SOLID
  8
0
 62
7
  6
CONTINUOUS
 10
159.228429528
 20
31.2390745501
 11
159.401867028
 21
31.3681283566
 12
159.4596793074
 22
31.3036012664
 13
159.4596793074
 23
31.3036012664
  0
SOLID
  8
0
 62
7
  6
CONTINUOUS
 10
159.4596793074
 20
31.3036012664
 11
159.6331168074
 21
31.2390745501
 12
159.228429528
 22
31.2390745501
 13
159.228429528
 23
31.2390745501
  0
SOLID
  8
0
 62
7
  6
CONTINUOUS
 10
159.4596793074
 20
31.1422827828
 11
159.228429528
 21
31.2390745501
 12
159.6331168074
 22
31.2390745501
 13
159.6331168074
 23
31.2390745501
  0
SOLID
  8
0
 62
7
  6
CONTINUOUS
 10
159.6331168074
 20
31.2390745501
 11
160.615929528
 21
31.0777556927
 12
159.4596793074
 22
31.1422827828
 13
159.4596793074
 23
31.1422827828
  0
SOLID
  8
0
 62
7
  6
CONTINUOUS
 10
160.442492028
 20
30.9809646623
 11
159.4596793074
 21
31.1422827828
 12
160.615929528
 22
31.0777556927
 13
160.615929528
 23
31.0777556927
  0
SOLID
  8
0
 62
7
  6
CONTINUOUS
 10
160.615929528
 20
31.0777556927
 11
160.8471793074
 21
30.9809646623
 12
160.442492028
 22
30.9809646623
 13
160.442492028
 23
30.9809646623
  0
SOLID
  8
0
 62
7
  6
CONTINUOUS
 10
160.615929528
 20
30.9164372091
 11
160.442492028
 21
30.9809646623
 12
160.8471793074
 22
30.9809646623
 13
160.8471793074
 23
30.9809646623
  0
SOLID
  8
0
 62
7
  6
CONTINUOUS
 10
160.615929528
 20
30.9164372091
 11
160.8471793074
 21
30.9809646623
 12
160.6737418074
 22
30.8519089441
 13
160.6737418074
 23
30.8519089441
  0
SOLID
  8
0
 62
7
  6
CONTINUOUS
 10
160.8471793074
 20
30.9809646623
 11
160.9628038663
 21
30.8519089441
 12
160.6737418074
 22
30.8519089441
 13
160.6737418074
 23
30.8519089441
  0
SOLID
  8
0
 62
7
  6
CONTINUOUS
 10
160.615929528
 20
30.7873818593
 11
160.6737418074
 21
30.8519089441
 12
160.9628038663
 22
30.8519089441
 13
160.9628038663
 23
30.8519089441
  0
SOLID
  8
0
 62
7
  6
CONTINUOUS
 10
160.9628038663
 20
30.8519089441
 11
160.9628038663
 21
30.7873818593
 12
160.615929528
 22
30.7873818593
 13
160.615929528
 23
30.7873818593
  0
SOLID
  8
0
 62
7
  6
CONTINUOUS
 10
160.5003043074
 20
30.7551187255
 11
160.615929528
 21
30.7873818593
 12
160.9628038663
 22
30.7873818593
 13
160.9628038663
 23
30.7873818593
  0
SOLID
  8
0
 62
7
  6
CONTINUOUS
 10
160.5003043074
 20
30.7551187255
 11
160.9628038663
 21
30.7873818593
 12
160.269054528
 22
30.7228547745
 13
160.269054528
 23
30.7228547745
  0
SOLID
  8
0
 62
7
  6
CONTINUOUS
 10
160.9628038663
 20
30.7873818593
 11
160.8471793074
 21
30.6905916353
 12
160.269054528
 22
30.7228547745
 13
160.269054528
 23
30.7228547745
  0
SOLID
  8
0
 62
7
  6
CONTINUOUS
 10
160.8471793074
 20
30.6905916353
 11
159.401867028
 21
30.658327332
 12
160.269054528
 22
30.7228547745
 13
160.269054528
 23
30.7228547745
  0
SOLID
  8
0
 62
7
  6
CONTINUOUS
 10
160.269054528
 20
30.7228547745
 11
159.401867028
 21
30.658327332
 12
159.922179528
 22
30.7228547745
 13
159.922179528
 23
30.7228547745
  0
SOLID
  8
0
 62
7
  6
CONTINUOUS
 10
159.401867028
 20
30.658327332
 11
159.228429528
 21
30.7228547745
 12
159.922179528
 22
30.7228547745
 13
159.922179528
 23
30.7228547745
  0
SOLID
  8
0
 62
7
  6
CONTINUOUS
 10
159.401867028
 20
30.658327332
 11
160.8471793074
 21
30.6905916353
 12
159.575304528
 22
30.6260629858
 13
159.575304528
 23
30.6260629858
  0
SOLID
  8
0
 62
7
  6
CONTINUOUS
 10
160.8471793074
 20
30.6905916353
 11
160.615929528
 21
30.6260629858
 12
159.575304528
 22
30.6260629858
 13
159.575304528
 23
30.6260629858
  0
SOLID
  8
0
 62
7
  6
CONTINUOUS
 10
159.922179528
 20
30.5938006049
 11
159.575304528
 21
30.6260629858
 12
160.615929528
 22
30.6260629858
 13
160.615929528
 23
30.6260629858
  0
SOLID
  8
0
 62
7
  6
CONTINUOUS
 10
160.615929528
 20
30.6260629858
 11
160.269054528
 21
30.5938006049
 12
159.922179528
 22
30.5938006049
 13
159.922179528
 23
30.5938006049
  0
SOLID
  8
0
 62
7
  6
CONTINUOUS
 10
149.5737418074
 20
31.1100184796
 11
149.9206168074
 21
31.2713369632
 12
149.8628043005
 22
31.1422827828
 13
149.8628043005
 23
31.1422827828
  0
SOLID
  8
0
 62
7
  6
CONTINUOUS
 10
149.8628043005
 20
31.1422827828
 11
149.8628043005
 21
31.0454914852
 12
149.5737418074
 22
31.1100184796
 13
149.5737418074
 23
31.1100184796
  0
SOLID
  8
0
 62
7
  6
CONTINUOUS
 10
149.6315543091
 20
30.9164372091
 11
149.5737418074
 21
31.1100184796
 12
149.8628043005
 22
31.0454914852
 13
149.8628043005
 23
31.0454914852
  0
SOLID
  8
0
 62
7
  6
CONTINUOUS
 10
149.8628043005
 20
31.0454914852
 11
149.9784292936
 21
30.8841729058
 12
149.6315543091
 22
30.9164372091
 13
149.6315543091
 23
30.9164372091
  0
SOLID
  8
0
 62
7
  6
CONTINUOUS
 10
149.7471793074
 20
30.7873813202
 11
149.6315543091
 21
30.9164372091
 12
149.9784292936
 22
30.8841729058
 13
149.9784292936
 23
30.8841729058
  0
SOLID
  8
0
 62
7
  6
CONTINUOUS
 10
149.9784292936
 20
30.8841729058
 11
150.1518667936
 21
30.7873813202
 12
149.7471793074
 22
30.7873813202
 13
149.7471793074
 23
30.7873813202
  0
SOLID
  8
0
 62
7
  6
CONTINUOUS
 10
149.8628043005
 20
30.7228547004
 11
149.7471793074
 21
30.7873813202
 12
150.1518667936
 22
30.7873813202
 13
150.1518667936
 23
30.7873813202
  0
SOLID
  8
0
 62
7
  6
CONTINUOUS
 10
150.1518667936
 20
30.7873813202
 11
150.498741835
 21
30.7228547004
 12
149.8628043005
 22
30.7228547004
 13
149.8628043005
 23
30.7228547004
  0
SOLID
  8
0
 62
7
  6
CONTINUOUS
 10
150.0362418212
 20
30.658327332
 11
149.8628043005
 21
30.7228547004
 12
150.498741835
 22
30.7228547004
 13
150.498741835
 23
30.7228547004
  0
SOLID
  8
0
 62
7
  6
CONTINUOUS
 10
154.0831168074
 20
31.1100184386
 11
154.1987416972
 21
31.1745462761
 12
154.7768668074
 22
31.1422827828
 13
154.7768668074
 23
31.1422827828
  0
SOLID
  8
0
 62
7
  6
CONTINUOUS
 10
154.7768668074
 20
31.1422827828
 11
154.5456166972
 21
31.1100184386
 12
154.0831168074
 22
31.1100184386
 13
154.0831168074
 23
31.1100184386
  0
SOLID
  8
0
 62
7
  6
CONTINUOUS
 10
153.9674919177
 20
30.9809642992
 11
154.0831168074
 21
31.1100184386
 12
154.5456166972
 22
31.1100184386
 13
154.5456166972
 23
31.1100184386
  0
SOLID
  8
0
 62
7
  6
CONTINUOUS
 10
154.3143669177
 20
31.0132277988
 11
153.9674919177
 21
30.9809642992
 12
154.4299918074
 22
31.0777556927
 13
154.4299918074
 23
31.0777556927
  0
SOLID
  8
0
 62
7
  6
CONTINUOUS
 10
153.9674919177
 20
30.9809642992
 11
154.5456166972
 21
31.1100184796
 12
154.4299918074
 22
31.0777556927
 13
154.4299918074
 23
31.0777556927
  0
SOLID
  8
0
 62
7
  6
CONTINUOUS
 10
154.3143669177
 20
31.0132277988
 11
154.2565543074
 21
30.9164372091
 12
153.9674919177
 22
30.9809642992
 13
153.9674919177
 23
30.9809642992
  0
SOLID
  8
0
 62
7
  6
CONTINUOUS
 10
153.9674919177
 20
30.8841729058
 11
153.9674919177
 21
30.9809642992
 12
154.2565543074
 22
30.9164372091
 13
154.2565543074
 23
30.9164372091
  0
SOLID
  8
0
 62
7
  6
CONTINUOUS
 10
154.2565543074
 20
30.9164372091
 11
154.2565543074
 21
30.8519086025
 12
153.9674919177
 22
30.8841729058
 13
153.9674919177
 23
30.8841729058
  0
SOLID
  8
0
 62
7
  6
CONTINUOUS
 10
154.0253041972
 20
30.7551187255
 11
153.9674919177
 21
30.8841729058
 12
154.2565543074
 22
30.8519086025
 13
154.2565543074
 23
30.8519086025
  0
SOLID
  8
0
 62
7
  6
CONTINUOUS
 10
155.412804528
 20
30.9487004259
 11
155.7018665869
 21
30.8519086025
 12
155.3549915869
 22
30.8841729058
 13
155.3549915869
 23
30.8841729058
  0
SOLID
  8
0
 62
7
  6
CONTINUOUS
 10
155.1815540869
 20
30.7873815123
 11
155.3549915869
 21
30.8841729058
 12
155.7018665869
 22
30.8519086025
 13
155.7018665869
 23
30.8519086025
  0
SOLID
  8
0
 62
7
  6
CONTINUOUS
 10
155.1815540869
 20
30.7873815123
 11
155.7018665869
 21
30.8519086025
 12
155.412804528
 22
30.7551187255
 13
155.412804528
 23
30.7551187255
  0
SOLID
  8
0
 62
7
  6
CONTINUOUS
 10
155.7018665869
 20
30.8519086025
 11
155.759679528
 21
30.6905916353
 12
155.412804528
 22
30.7551187255
 13
155.412804528
 23
30.7551187255
  0
SOLID
  8
0
 62
7
  6
CONTINUOUS
 10
155.4706168074
 20
30.658327332
 11
155.412804528
 21
30.7551187255
 12
155.759679528
 22
30.6905916353
 13
155.759679528
 23
30.6905916353
  0
SOLID
  8
0
 62
7
  6
CONTINUOUS
 10
155.4706168074
 20
30.658327332
 11
155.759679528
 21
30.6905916353
 12
155.5284290869
 22
30.5938002079
 13
155.5284290869
 23
30.5938002079
  0
SOLID
  8
0
 62
7
  6
CONTINUOUS
 10
155.759679528
 20
30.6905916353
 11
155.8174918074
 21
30.5938002079
 12
155.5284290869
 22
30.5938002079
 13
155.5284290869
 23
30.5938002079
  0
SOLID
  8
0
 62
7
  6
CONTINUOUS
 10
151.0768668626
 20
30.8196456577
 11
151.1346793074
 21
30.9164373395
 12
151.4237418626
 22
30.9164373395
 13
151.4237418626
 23
30.9164373395
  0
SOLID
  8
0
 62
7
  6
CONTINUOUS
 10
151.4237418626
 20
30.9164373395
 11
151.3659292523
 21
30.7873815123
 12
151.0768668626
 22
30.8196456577
 13
151.0768668626
 23
30.8196456577
  0
SOLID
  8
0
 62
7
  6
CONTINUOUS
 10
150.9034292799
 20
30.7551187255
 11
151.0768668626
 21
30.8196456577
 12
151.3659292523
 22
30.7873815123
 13
151.3659292523
 23
30.7873815123
  0
SOLID
  8
0
 62
7
  6
CONTINUOUS
 10
150.9034292799
 20
30.7551187255
 11
151.3659292523
 21
30.7873815123
 12
150.498741835
 22
30.7228544222
 13
150.498741835
 23
30.7228544222
  0
SOLID
  8
0
 62
7
  6
CONTINUOUS
 10
151.3659292523
 20
30.7873815123
 11
151.1924917523
 21
30.6905916353
 12
150.498741835
 22
30.7228544222
 13
150.498741835
 23
30.7228544222
  0
SOLID
  8
0
 62
7
  6
CONTINUOUS
 10
150.0362418212
 20
30.658327332
 11
150.498741835
 21
30.7228544222
 12
151.1924917523
 22
30.6905916353
 13
151.1924917523
 23
30.6905916353
  0
SOLID
  8
0
 62
7
  6
CONTINUOUS
 10
150.0362418212
 20
30.658327332
 11
151.1924917523
 21
30.6905916353
 12
150.2096793212
 22
30.6260631011
 13
150.2096793212
 23
30.6260631011
  0
SOLID
  8
0
 62
7
  6
CONTINUOUS
 10
151.1924917523
 20
30.6905916353
 11
150.9612418074
 21
30.6260631011
 12
150.2096793212
 22
30.6260631011
 13
150.2096793212
 23
30.6260631011
  0
SOLID
  8
0
 62
7
  6
CONTINUOUS
 10
150.5565542799
 20
30.5938002419
 11
150.2096793212
 21
30.6260631011
 12
150.9612418074
 22
30.6260631011
 13
150.9612418074
 23
30.6260631011
  0
SOLID
  8
0
 62
7
  6
CONTINUOUS
 10
154.0253041972
 20
30.7551187255
 11
154.2565543074
 21
30.8519086025
 12
154.3143669177
 22
30.7873815123
 13
154.3143669177
 23
30.7873815123
  0
SOLID
  8
0
 62
7
  6
CONTINUOUS
 10
154.3143669177
 20
30.7873815123
 11
154.5456166972
 21
30.7228544222
 12
154.0253041972
 22
30.7551187255
 13
154.0253041972
 23
30.7551187255
  0
SOLID
  8
0
 62
7
  6
CONTINUOUS
 10
154.1987416972
 20
30.658327332
 11
154.0253041972
 21
30.7551187255
 12
154.5456166972
 22
30.7228544222
 13
154.5456166972
 23
30.7228544222
  0
SOLID
  8
0
 62
7
  6
CONTINUOUS
 10
154.8924916972
 20
30.7228544637
 11
155.1815540869
 21
30.7873815123
 12
155.412804528
 22
30.7551187255
 13
155.412804528
 23
30.7551187255
  0
SOLID
  8
0
 62
7
  6
CONTINUOUS
 10
155.412804528
 20
30.7551187255
 11
155.3549915869
 21
30.6905916353
 12
154.8924916972
 22
30.7228544637
 13
154.8924916972
 23
30.7228544637
  0
SOLID
  8
0
 62
7
  6
CONTINUOUS
 10
155.3549915869
 20
30.6905916353
 11
154.1987416972
 21
30.658327332
 12
154.8924916972
 22
30.7228544637
 13
154.8924916972
 23
30.7228544637
  0
SOLID
  8
0
 62
7
  6
CONTINUOUS
 10
154.1987416972
 20
30.658327332
 11
154.5456166972
 21
30.7228544637
 12
154.8924916972
 22
30.7228544637
 13
154.8924916972
 23
30.7228544637
  0
SOLID
  8
0
 62
7
  6
CONTINUOUS
 10
154.1987416972
 20
30.658327332
 11
155.3549915869
 21
30.6905916353
 12
154.3143669177
 22
30.6260630541
 13
154.3143669177
 23
30.6260630541
  0
SOLID
  8
0
 62
7
  6
CONTINUOUS
 10
155.3549915869
 20
30.6905916353
 11
155.1815540869
 21
30.6260630541
 12
154.3143669177
 22
30.6260630541
 13
154.3143669177
 23
30.6260630541
  0
SOLID
  8
0
 62
7
  6
CONTINUOUS
 10
154.5456166972
 20
30.5938002188
 11
154.3143669177
 21
30.6260630541
 12
155.1815540869
 22
30.6260630541
 13
155.1815540869
 23
30.6260630541
  0
SOLID
  8
0
 62
7
  6
CONTINUOUS
 10
155.1815540869
 20
30.6260630541
 11
154.8924916972
 21
30.5938002188
 12
154.5456166972
 22
30.5938002188
 13
154.5456166972
 23
30.5938002188
  0
SOLID
  8
0
 62
7
  6
CONTINUOUS
 10
159.575304528
 20
30.7551187255
 11
159.228429528
 21
30.7228544637
 12
159.4596793074
 22
30.7873815123
 13
159.4596793074
 23
30.7873815123
  0
SOLID
  8
0
 62
7
  6
CONTINUOUS
 10
159.4596793074
 20
30.7873815123
 11
159.228429528
 21
30.7228544637
 12
159.401867028
 22
30.851908644
 13
159.401867028
 23
30.851908644
  0
SOLID
  8
0
 62
7
  6
CONTINUOUS
 10
159.228429528
 20
30.7228544637
 11
159.1128043074
 21
30.851908644
 12
159.401867028
 22
30.851908644
 13
159.401867028
 23
30.851908644
  0
SOLID
  8
0
 62
7
  6
CONTINUOUS
 10
159.575304528
 20
30.7551187255
 11
159.922179528
 21
30.7228544637
 12
159.228429528
 22
30.7228544637
 13
159.228429528
 23
30.7228544637
  0
SOLID
  8
0
 62
7
  6
CONTINUOUS
 10
156.279992028
 20
30.5938002419
 11
156.279992028
 21
31.6262382337
 12
156.5690540869
 22
30.5938002419
 13
156.5690540869
 23
31.6262382337
  0
ENDBLK
  8
0
  6
BYBLOCK
 62
0
  0
BLOCK
  8
0
 62
2
  6
CONTINUOUS
  2
SYMBOL_3_BL0
 70
64
 10
32.1213064866
 20
19.8534310916
  0
TEXT
  8
0
 62
7
  6
CONTINUOUS
 10
18.3860103289
 20
19.2268451992
  7
TEXTSTYLE_3
 40
2.7338706658
  1
Ammeraal Beltech
 41
1.0
 51
15.0
 72
0
  0
TEXT
  8
0
 62
7
  6
CONTINUOUS
 10
29.1868111546
 20
16.9533085264
  7
TEXTSTYLE_4
 40
1.0935482663
  1
Innovation & Service in Belting
 41
1.0
 72
0
  0
LINE
  8
0
 62
7
  6
CONTINUOUS
 10
12.3614696776
 20
19.9934385078
 11
13.1396216709
 21
23.6543558055
  0
LINE
  8
0
 62
7
  6
CONTINUOUS
 10
23.2347899607
 20
27.3177497171
 11
13.6274394139
 21
24.1961322958
  0
LINE
  8
0
 62
7
  6
CONTINUOUS
 10
12.5867530099
 20
19.3000877048
 11
20.093828271
 21
12.5406867788
  0
LINE
  8
0
 62
7
  6
CONTINUOUS
 10
12.8492874206
 20
20.5352149982
 11
23.6575567857
 21
24.0470345971
  0
LINE
  8
0
 62
7
  6
CONTINUOUS
 10
23.6533516486
 20
13.6972460334
 11
15.2078919798
 21
21.3015720751
  0
LINE
  8
0
 62
7
  6
CONTINUOUS
 10
24.1731743684
 20
26.4728246013
 11
23.1966148312
 21
21.8784731989
  0
LINE
  8
0
 62
7
  6
CONTINUOUS
 10
22.4968128835
 20
18.5861638851
 11
21.810364672
 21
15.3566789607
  0
LINE
  8
0
 62
7
  6
CONTINUOUS
 10
24.8542704669
 20
14.087448211
 11
25.8105020025
 21
18.5861638851
  0
LINE
  8
0
 62
7
  6
CONTINUOUS
 10
26.5103039502
 20
21.8784731989
 11
26.9545457526
 21
23.9684665583
  0
LINE
  8
0
 62
7
  6
CONTINUOUS
 10
20.8069293463
 20
12.3891124661
 11
24.3664527239
 21
13.5456717207
  0
LINE
  8
0
 62
7
  6
CONTINUOUS
 10
23.9478910361
 20
27.1661754044
 11
26.7292624203
 21
24.6618173613
  0
ARC
  8
0
 62
7
  6
CONTINUOUS
 10
13.8527227462
 20
23.5027814928
 40
0.7290321776
 50
108.0
 51
168.0
  0
ARC
  8
0
 62
7
  6
CONTINUOUS
 10
23.4600732931
 20
26.624398914
 40
0.7290321776
 50
348.0
 51
108.0
  0
ARC
  8
0
 62
7
  6
CONTINUOUS
 10
26.2414446773
 20
24.120040871
 40
0.7290321776
 50
348.0
 51
48.0
  0
ARC
  8
0
 62
7
  6
CONTINUOUS
 10
20.581646014
 20
13.0824632691
 40
0.7290321776
 50
228.0
 51
288.0
  0
ARC
  8
0
 62
7
  6
CONTINUOUS
 10
13.0745707529
 20
19.8418641951
 40
0.7290321776
 50
108.0
 51
228.0
  0
ARC
  8
0
 62
7
  6
CONTINUOUS
 10
24.1411693916
 20
14.2390225237
 40
0.7290321776
 50
228.0
 51
348.0
  0
ENDBLK
  8
0
  6
BYBLOCK
 62
0
  0
ENDSEC
  0
SECTION
  2
ENTITIES
  0
TEXT
  8
0
 62
5
  6
CONTINUOUS
 10
96.0
 20
25.636
  7
TEXTSTYLE_2
 40
2.8
  1
Scale :
 41
0.6
 51
0.000019
 72
0
  0
TEXT
  8
0
 62
5
  6
CONTINUOUS
 10
116.0
 20
25.636
  7
TEXTSTYLE_2
 40
2.8
  1
Belt type:
 41
0.6
 51
0.000019
 72
0
  0
INSERT
  8
0
 62
2
  6
CONTINUOUS
  2
SYMBOL_3_BL0
 10
32.1213064866
 20
19.8534310916
  0
INSERT
  8
0
 62
2
  6
CONTINUOUS
  2
SYMBOL_8_BL1
 10
173.5956734183
 20
35.5937998301
  0
LINE
  8
0
 62
2
  6
CONTINUOUS
 10
10.0
 20
30.0
 11
200.0
 21
30.0
  0
LINE
  8
0
 62
2
  6
CONTINUOUS
 10
10.0
 20
30.0
 11
10.0
 21
10.0
  0
LINE
  8
0
 62
2
  6
CONTINUOUS
 10
10.0
 20
10.0
 11
200.0
 21
10.0
  0
LINE
  8
0
 62
2
  6
CONTINUOUS
 10
95.0
 20
30.0
 11
95.0
 21
10.0
  0
LINE
  8
0
 62
2
  6
CONTINUOUS
 10
115.0
 20
30.0
 11
115.0
 21
10.0
  0
LINE
  8
0
 62
2
  6
CONTINUOUS
 10
200.0
 20
30.0
 11
200.0
 21
10.0
  0
TEXT
  8
0
 62
5
  6
CONTINUOUS
 10
13.0
 20
23.303
  7
TEXTSTYLE_5
 40
1.52
  1
                                                                     Ammeraal Beltech Modular A/S
 41
1.0
 72
0
  0
TEXT
  8
0
 62
5
  6
CONTINUOUS
 10
13.0
 20
20.595
  7
TEXTSTYLE_5
 40
1.5
  1
                                                                      Hjulmagervej 21,  7100 Vejle,  DK
 41
1.0
 72
0
  0
TEXT
  8
0
 62
5
  6
CONTINUOUS
 10
13.0
 20
17.881
  7
TEXTSTYLE_5
 40
1.495
  1
                                                                      tel: 
 41
1.0
 72
0
  0
TEXT
  8
0
 62
5
  6
CONTINUOUS
 10
57.9869465649
 20
17.881
  7
TEXTSTYLE_5
 40
1.51
  1
+45 75723100     fax: +45 75723348
 41
1.0
 72
0
  0
TEXT
  8
0
 62
5
  6
CONTINUOUS
 10
13.0
 20
15.177
  7
TEXTSTYLE_5
 40
1.5
  1
                                                                      admin@unichains.dk  www.unichains.com
 41
1.0
 72
0
  0
TEXT
  8
0
 62
5
  6
CONTINUOUS
 10
99.75
 20
13.75
  7
TEXTSTYLE_6
 40
5.0
  1
1:1
 41
0.7
 72
1
 11
105.0
 21
13.75
  0
TEXT
  8
0
 62
5
  6
CONTINUOUS
 10
118.0
 20
13.75
  7
TEXTSTYLE_7
 40
7.5
  1
uni XLB C K318 
 41
0.6855555556
 72
0
  0
LINE
  8
0
 62
7
  6
CONTINUOUS
 10
210.0
 20
0.0
 11
0.0
 21
0.0
  0
LINE
  8
0
 62
7
  6
CONTINUOUS
 10
10.0
 20
10.0
 11
200.0
 21
10.0
  0
LINE
  8
0
 62
7
  6
CONTINUOUS
 10
10.0
 20
30.0
 11
200.0
 21
30.0
  0
LINE
  8
0
 62
7
  6
CONTINUOUS
 10
0.0
 20
0.0
 11
0.0
 21
297.0
  0
LINE
  8
0
 62
7
  6
CONTINUOUS
 10
10.0
 20
10.0
 11
10.0
 21
287.0
  0
LINE
  8
0
 62
7
  6
CONTINUOUS
 10
200.0
 20
287.0
 11
200.0
 21
10.0
  0
LINE
  8
0
 62
7
  6
CONTINUOUS
 10
210.0
 20
0.0
 11
210.0
 21
297.0
  0
LINE
  8
0
 62
7
  6
CONTINUOUS
 10
10.0
 20
287.0
 11
200.0
 21
287.0
  0
LINE
  8
0
 62
7
  6
CONTINUOUS
 10
0.0
 20
297.0
 11
210.0
 21
297.0
  0
POLYLINE
  8
0
 62
7
  6
CONTINUOUS
 66
1
 70
0
  0
VERTEX
  8
0
 62
7
  6
CONTINUOUS
 10
98.4740405508
 20
84.3672839507
  0
VERTEX
  8
0
 62
7
  6
CONTINUOUS
 10
98.5521026906
 20
84.3689623552
  0
VERTEX
  8
0
 62
7
  6
CONTINUOUS
 10
98.7096324604
 20
84.382629048
  0
VERTEX
  8
0
 62
7
  6
CONTINUOUS
 10
98.8653529561
 20
84.4099379011
  0
VERTEX
  8
0
 62
7
  6
CONTINUOUS
 10
99.0176930129
 20
84.4505463593
  0
VERTEX
  8
0
 62
7
  6
CONTINUOUS
 10
99.165100644
 20
84.5038500581
  0
VERTEX
  8
0
 62
7
  6
CONTINUOUS
 10
99.3060974148
 20
84.5689783046
  0
VERTEX
  8
0
 62
7
  6
CONTINUOUS
 10
99.4393109388
 20
84.644788636
  0
VERTEX
  8
0
 62
7
  6
CONTINUOUS
 10
99.5630058045
 20
84.7294857123
  0
VERTEX
  8
0
 62
7
  6
CONTINUOUS
 10
99.6754981611
 20
84.8206176042
  0
VERTEX
  8
0
 62
7
  6
CONTINUOUS
 10
99.7756899153
 20
84.9154278115
  0
VERTEX
  8
0
 62
7
  6
CONTINUOUS
 10
99.8631689864
 20
85.0111320575
  0
VERTEX
  8
0
 62
7
  6
CONTINUOUS
 10
99.9384344062
 20
85.1055175212
  0
VERTEX
  8
0
 62
7
  6
CONTINUOUS
 10
100.0025572539
 20
85.1970346447
  0
VERTEX
  8
0
 62
7
  6
CONTINUOUS
 10
100.0570683966
 20
85.285070585
  0
VERTEX
  8
0
 62
7
  6
CONTINUOUS
 10
100.1035458069
 20
85.3696509251
  0
VERTEX
  8
0
 62
7
  6
CONTINUOUS
 10
100.1436334625
 20
85.4516579507
  0
VERTEX
  8
0
 62
7
  6
CONTINUOUS
 10
100.1785635585
 20
85.5319441359
  0
VERTEX
  8
0
 62
7
  6
CONTINUOUS
 10
100.2088363324
 20
85.6101316629
  0
VERTEX
  8
0
 62
7
  6
CONTINUOUS
 10
100.2346110339
 20
85.6848218823
  0
VERTEX
  8
0
 62
7
  6
CONTINUOUS
 10
100.2564124145
 20
85.7554254172
  0
VERTEX
  8
0
 62
7
  6
CONTINUOUS
 10
100.2750659019
 20
85.8225865121
  0
VERTEX
  8
0
 62
7
  6
CONTINUOUS
 10
100.2913160103
 20
85.8872901898
  0
VERTEX
  8
0
 62
7
  6
CONTINUOUS
 10
100.3057330349
 20
85.950451159
  0
VERTEX
  8
0
 62
7
  6
CONTINUOUS
 10
100.3187477289
 20
86.0128802178
  0
VERTEX
  8
0
 62
7
  6
CONTINUOUS
 10
100.3306866018
 20
86.0752947194
  0
VERTEX
  8
0
 62
7
  6
CONTINUOUS
 10
100.3418505763
 20
86.1386388936
  0
VERTEX
  8
0
 62
7
  6
CONTINUOUS
 10
100.352482985
 20
86.203889189
  0
VERTEX
  8
0
 62
7
  6
CONTINUOUS
 10
100.3627663523
 20
86.2719559096
  0
VERTEX
  8
0
 62
7
  6
CONTINUOUS
 10
100.3728392368
 20
86.3437052047
  0
VERTEX
  8
0
 62
7
  6
CONTINUOUS
 10
100.3828071594
 20
86.4199703177
  0
VERTEX
  8
0
 62
7
  6
CONTINUOUS
 10
100.3927339894
 20
86.5014228266
  0
VERTEX
  8
0
 62
7
  6
CONTINUOUS
 10
100.4026622659
 20
86.5886621244
  0
VERTEX
  8
0
 62
7
  6
CONTINUOUS
 10
100.4126243702
 20
86.6822782457
  0
VERTEX
  8
0
 62
7
  6
CONTINUOUS
 10
100.4226331413
 20
86.7827376091
  0
VERTEX
  8
0
 62
7
  6
CONTINUOUS
 10
100.4326888578
 20
86.890404997
  0
VERTEX
  8
0
 62
7
  6
CONTINUOUS
 10
100.4427870405
 20
87.0056010178
  0
VERTEX
  8
0
 62
7
  6
CONTINUOUS
 10
100.4529192173
 20
87.1285962121
  0
VERTEX
  8
0
 62
7
  6
CONTINUOUS
 10
100.4630736799
 20
87.259611736
  0
VERTEX
  8
0
 62
7
  6
CONTINUOUS
 10
100.4732390136
 20
87.3988561351
  0
VERTEX
  8
0
 62
7
  6
CONTINUOUS
 10
100.4834128257
 20
87.54666096
  0
VERTEX
  8
0
 62
7
  6
CONTINUOUS
 10
100.4935923108
 20
87.7033705933
  0
VERTEX
  8
0
 62
7
  6
CONTINUOUS
 10
100.503772272
 20
87.8693147735
  0
VERTEX
  8
0
 62
7
  6
CONTINUOUS
 10
100.5139453171
 20
88.0448036701
  0
VERTEX
  8
0
 62
7
  6
CONTINUOUS
 10
100.5241022106
 20
88.2301313005
  0
VERTEX
  8
0
 62
7
  6
CONTINUOUS
 10
100.5342320882
 20
88.4255720754
  0
VERTEX
  8
0
 62
7
  6
CONTINUOUS
 10
100.5443225954
 20
88.6313820157
  0
VERTEX
  8
0
 62
7
  6
CONTINUOUS
 10
100.5543668062
 20
88.8479453195
  0
VERTEX
  8
0
 62
7
  6
CONTINUOUS
 10
100.5643718367
 20
89.0760168501
  0
VERTEX
  8
0
 62
7
  6
CONTINUOUS
 10
100.5743438816
 20
89.3164555362
  0
VERTEX
  8
0
 62
7
  6
CONTINUOUS
 10
100.5842854528
 20
89.5701702676
  0
VERTEX
  8
0
 62
7
  6
CONTINUOUS
 10
100.594195192
 20
89.8381200601
  0
VERTEX
  8
0
 62
7
  6
CONTINUOUS
 10
100.6040676497
 20
90.1213096404
  0
VERTEX
  8
0
 62
7
  6
CONTINUOUS
 10
100.6138929443
 20
90.4207860385
  0
VERTEX
  8
0
 62
7
  6
CONTINUOUS
 10
100.6236566211
 20
90.7376400579
  0
VERTEX
  8
0
 62
7
  6
CONTINUOUS
 10
100.633339253
 20
91.0729991974
  0
VERTEX
  8
0
 62
7
  6
CONTINUOUS
 10
100.6429158573
 20
91.4280165019
  0
VERTEX
  8
0
 62
7
  6
CONTINUOUS
 10
100.6523545236
 20
91.8038223613
  0
VERTEX
  8
0
 62
7
  6
CONTINUOUS
 10
100.6616047074
 20
92.2009938476
  0
VERTEX
  8
0
 62
7
  6
CONTINUOUS
 10
100.6706036357
 20
92.6196338644
  0
VERTEX
  8
0
 62
7
  6
CONTINUOUS
 10
100.6792868101
 20
93.0597279861
  0
VERTEX
  8
0
 62
7
  6
CONTINUOUS
 10
100.687588492
 20
93.5211445421
  0
VERTEX
  8
0
 62
7
  6
CONTINUOUS
 10
100.6954419954
 20
94.0036267554
  0
VERTEX
  8
0
 62
7
  6
CONTINUOUS
 10
100.7027842203
 20
94.5070916198
  0
VERTEX
  8
0
 62
7
  6
CONTINUOUS
 10
100.7095620455
 20
95.0323352584
  0
VERTEX
  8
0
 62
7
  6
CONTINUOUS
 10
100.7157165115
 20
95.5802827823
  0
VERTEX
  8
0
 62
7
  6
CONTINUOUS
 10
100.7211790907
 20
96.1517695493
  0
VERTEX
  8
0
 62
7
  6
CONTINUOUS
 10
100.725871248
 20
96.7475085092
  0
VERTEX
  8
0
 62
7
  6
CONTINUOUS
 10
100.7297040227
 20
97.3680459959
  0
VERTEX
  8
0
 62
7
  6
CONTINUOUS
 10
100.732577866
 20
98.0137435734
  0
VERTEX
  8
0
 62
7
  6
CONTINUOUS
 10
100.7343823088
 20
98.684721575
  0
VERTEX
  8
0
 62
7
  6
CONTINUOUS
 10
100.7349960521
 20
99.3672839506
  0
SEQEND
  0
POLYLINE
  8
0
 62
7
  6
CONTINUOUS
 66
1
 70
0
  0
VERTEX
  8
0
 62
7
  6
CONTINUOUS
 10
65.0540405508
 20
84.3672839507
  0
VERTEX
  8
0
 62
7
  6
CONTINUOUS
 10
65.1321026906
 20
84.3689623552
  0
VERTEX
  8
0
 62
7
  6
CONTINUOUS
 10
65.2896324604
 20
84.382629048
  0
VERTEX
  8
0
 62
7
  6
CONTINUOUS
 10
65.4453529561
 20
84.4099379011
  0
VERTEX
  8
0
 62
7
  6
CONTINUOUS
 10
65.5976930129
 20
84.4505463593
  0
VERTEX
  8
0
 62
7
  6
CONTINUOUS
 10
65.745100644
 20
84.5038500581
  0
VERTEX
  8
0
 62
7
  6
CONTINUOUS
 10
65.8860974148
 20
84.5689783046
  0
VERTEX
  8
0
 62
7
  6
CONTINUOUS
 10
66.0193109388
 20
84.644788636
  0
VERTEX
  8
0
 62
7
  6
CONTINUOUS
 10
66.1430058045
 20
84.7294857123
  0
VERTEX
  8
0
 62
7
  6
CONTINUOUS
 10
66.2554981611
 20
84.8206176042
  0
VERTEX
  8
0
 62
7
  6
CONTINUOUS
 10
66.3556899153
 20
84.9154278115
  0
VERTEX
  8
0
 62
7
  6
CONTINUOUS
 10
66.4431689864
 20
85.0111320575
  0
VERTEX
  8
0
 62
7
  6
CONTINUOUS
 10
66.5184344062
 20
85.1055175212
  0
VERTEX
  8
0
 62
7
  6
CONTINUOUS
 10
66.5825572539
 20
85.1970346447
  0
VERTEX
  8
0
 62
7
  6
CONTINUOUS
 10
66.6370683967
 20
85.285070585
  0
VERTEX
  8
0
 62
7
  6
CONTINUOUS
 10
66.6835458069
 20
85.3696509251
  0
VERTEX
  8
0
 62
7
  6
CONTINUOUS
 10
66.7236334625
 20
85.4516579507
  0
VERTEX
  8
0
 62
7
  6
CONTINUOUS
 10
66.7585635585
 20
85.5319441359
  0
VERTEX
  8
0
 62
7
  6
CONTINUOUS
 10
66.7888363324
 20
85.6101316629
  0
VERTEX
  8
0
 62
7
  6
CONTINUOUS
 10
66.8146110339
 20
85.6848218823
  0
VERTEX
  8
0
 62
7
  6
CONTINUOUS
 10
66.8364124145
 20
85.7554254172
  0
VERTEX
  8
0
 62
7
  6
CONTINUOUS
 10
66.8550659019
 20
85.8225865121
  0
VERTEX
  8
0
 62
7
  6
CONTINUOUS
 10
66.8713160103
 20
85.8872901898
  0
VERTEX
  8
0
 62
7
  6
CONTINUOUS
 10
66.8857330349
 20
85.950451159
  0
VERTEX
  8
0
 62
7
  6
CONTINUOUS
 10
66.8987477289
 20
86.0128802178
  0
VERTEX
  8
0
 62
7
  6
CONTINUOUS
 10
66.9106866018
 20
86.0752947194
  0
VERTEX
  8
0
 62
7
  6
CONTINUOUS
 10
66.9218505763
 20
86.1386388936
  0
VERTEX
  8
0
 62
7
  6
CONTINUOUS
 10
66.932482985
 20
86.203889189
  0
VERTEX
  8
0
 62
7
  6
CONTINUOUS
 10
66.9427663523
 20
86.2719559096
  0
VERTEX
  8
0
 62
7
  6
CONTINUOUS
 10
66.9528392368
 20
86.3437052047
  0
VERTEX
  8
0
 62
7
  6
CONTINUOUS
 10
66.9628071594
 20
86.4199703177
  0
VERTEX
  8
0
 62
7
  6
CONTINUOUS
 10
66.9727339894
 20
86.5014228266
  0
VERTEX
  8
0
 62
7
  6
CONTINUOUS
 10
66.9826622659
 20
86.5886621244
  0
VERTEX
  8
0
 62
7
  6
CONTINUOUS
 10
66.9926243702
 20
86.6822782457
  0
VERTEX
  8
0
 62
7
  6
CONTINUOUS
 10
67.0026331413
 20
86.7827376091
  0
VERTEX
  8
0
 62
7
  6
CONTINUOUS
 10
67.0126888578
 20
86.890404997
  0
VERTEX
  8
0
 62
7
  6
CONTINUOUS
 10
67.0227870405
 20
87.0056010178
  0
VERTEX
  8
0
 62
7
  6
CONTINUOUS
 10
67.0329192173
 20
87.1285962121
  0
VERTEX
  8
0
 62
7
  6
CONTINUOUS
 10
67.0430736799
 20
87.259611736
  0
VERTEX
  8
0
 62
7
  6
CONTINUOUS
 10
67.0532390136
 20
87.3988561351
  0
VERTEX
  8
0
 62
7
  6
CONTINUOUS
 10
67.0634128257
 20
87.54666096
  0
VERTEX
  8
0
 62
7
  6
CONTINUOUS
 10
67.0735923108
 20
87.7033705933
  0
VERTEX
  8
0
 62
7
  6
CONTINUOUS
 10
67.083772272
 20
87.8693147735
  0
VERTEX
  8
0
 62
7
  6
CONTINUOUS
 10
67.0939453171
 20
88.0448036701
  0
VERTEX
  8
0
 62
7
  6
CONTINUOUS
 10
67.1041022106
 20
88.2301313005
  0
VERTEX
  8
0
 62
7
  6
CONTINUOUS
 10
67.1142320882
 20
88.4255720754
  0
VERTEX
  8
0
 62
7
  6
CONTINUOUS
 10
67.1243225954
 20
88.6313820157
  0
VERTEX
  8
0
 62
7
  6
CONTINUOUS
 10
67.1343668062
 20
88.8479453195
  0
VERTEX
  8
0
 62
7
  6
CONTINUOUS
 10
67.1443718367
 20
89.0760168501
  0
VERTEX
  8
0
 62
7
  6
CONTINUOUS
 10
67.1543438816
 20
89.3164555362
  0
VERTEX
  8
0
 62
7
  6
CONTINUOUS
 10
67.1642854528
 20
89.5701702676
  0
VERTEX
  8
0
 62
7
  6
CONTINUOUS
 10
67.174195192
 20
89.8381200601
  0
VERTEX
  8
0
 62
7
  6
CONTINUOUS
 10
67.1840676497
 20
90.1213096404
  0
VERTEX
  8
0
 62
7
  6
CONTINUOUS
 10
67.1938929443
 20
90.4207860385
  0
VERTEX
  8
0
 62
7
  6
CONTINUOUS
 10
67.2036566211
 20
90.7376400579
  0
VERTEX
  8
0
 62
7
  6
CONTINUOUS
 10
67.213339253
 20
91.0729991974
  0
VERTEX
  8
0
 62
7
  6
CONTINUOUS
 10
67.2229158573
 20
91.4280165019
  0
VERTEX
  8
0
 62
7
  6
CONTINUOUS
 10
67.2323545236
 20
91.8038223613
  0
VERTEX
  8
0
 62
7
  6
CONTINUOUS
 10
67.2416047074
 20
92.2009938476
  0
VERTEX
  8
0
 62
7
  6
CONTINUOUS
 10
67.2506036357
 20
92.6196338644
  0
VERTEX
  8
0
 62
7
  6
CONTINUOUS
 10
67.2592868101
 20
93.0597279861
  0
VERTEX
  8
0
 62
7
  6
CONTINUOUS
 10
67.267588492
 20
93.5211445421
  0
VERTEX
  8
0
 62
7
  6
CONTINUOUS
 10
67.2754419954
 20
94.0036267554
  0
VERTEX
  8
0
 62
7
  6
CONTINUOUS
 10
67.2827842203
 20
94.5070916198
  0
VERTEX
  8
0
 62
7
  6
CONTINUOUS
 10
67.2895620455
 20
95.0323352584
  0
VERTEX
  8
0
 62
7
  6
CONTINUOUS
 10
67.2957165115
 20
95.5802827823
  0
VERTEX
  8
0
 62
7
  6
CONTINUOUS
 10
67.3011790907
 20
96.1517695493
  0
VERTEX
  8
0
 62
7
  6
CONTINUOUS
 10
67.305871248
 20
96.7475085092
  0
VERTEX
  8
0
 62
7
  6
CONTINUOUS
 10
67.3097040227
 20
97.3680459959
  0
VERTEX
  8
0
 62
7
  6
CONTINUOUS
 10
67.312577866
 20
98.0137435734
  0
VERTEX
  8
0
 62
7
  6
CONTINUOUS
 10
67.3143823088
 20
98.684721575
  0
VERTEX
  8
0
 62
7
  6
CONTINUOUS
 10
67.3149960521
 20
99.3672839506
  0
SEQEND
  0
LINE
  8
0
 62
7
  6
CONTINUOUS
 10
98.4740418951
 20
84.3672839506
 11
86.7138593395
 21
84.3672839506
  0
LINE
  8
0
 62
7
  6
CONTINUOUS
 10
65.0540418951
 20
84.3672839506
 11
53.2938593395
 21
84.3672839506
  0
POLYLINE
  8
0
 62
7
  6
CONTINUOUS
 66
1
 70
0
  0
VERTEX
  8
0
 62
7
  6
CONTINUOUS
 10
35.3839506173
 20
112.0420620552
  0
VERTEX
  8
0
 62
7
  6
CONTINUOUS
 10
35.3901883293
 20
111.8923394649
  0
VERTEX
  8
0
 62
7
  6
CONTINUOUS
 10
35.4087822369
 20
111.7441069891
  0
VERTEX
  8
0
 62
7
  6
CONTINUOUS
 10
35.438322398
 20
111.6029924479
  0
VERTEX
  8
0
 62
7
  6
CONTINUOUS
 10
35.4787438179
 20
111.4656335936
  0
VERTEX
  8
0
 62
7
  6
CONTINUOUS
 10
35.5318081207
 20
111.3276215951
  0
VERTEX
  8
0
 62
7
  6
CONTINUOUS
 10
35.5895079197
 20
111.2067462562
  0
VERTEX
  8
0
 62
7
  6
CONTINUOUS
 10
35.6587586428
 20
111.0861387104
  0
VERTEX
  8
0
 62
7
  6
CONTINUOUS
 10
35.7410486062
 20
110.9659422726
  0
VERTEX
  8
0
 62
7
  6
CONTINUOUS
 10
35.8234494188
 20
110.8634881335
  0
VERTEX
  8
0
 62
7
  6
CONTINUOUS
 10
35.914240384
 20
110.7661953209
  0
VERTEX
  8
0
 62
7
  6
CONTINUOUS
 10
36.0172759961
 20
110.6713431459
  0
VERTEX
  8
0
 62
7
  6
CONTINUOUS
 10
36.1338490278
 20
110.5801158688
  0
VERTEX
  8
0
 62
7
  6
CONTINUOUS
 10
36.2476254274
 20
110.5047608034
  0
VERTEX
  8
0
 62
7
  6
CONTINUOUS
 10
36.3731102096
 20
110.435034416
  0
VERTEX
  8
0
 62
7
  6
CONTINUOUS
 10
36.5028556107
 20
110.3758959194
  0
VERTEX
  8
0
 62
7
  6
CONTINUOUS
 10
36.6408253026
 20
110.3259574859
  0
VERTEX
  8
0
 62
7
  6
CONTINUOUS
 10
36.7829479928
 20
110.2872979984
  0
VERTEX
  8
0
 62
7
  6
CONTINUOUS
 10
36.9276725076
 20
110.2603994804
  0
VERTEX
  8
0
 62
7
  6
CONTINUOUS
 10
37.0763282473
 20
110.2452823176
  0
VERTEX
  8
0
 62
7
  6
CONTINUOUS
 10
37.1839506173
 20
110.2420620552
  0
SEQEND
  0
LINE
  8
0
 62
7
  6
CONTINUOUS
 10
35.3839506173
 20
176.0672839506
 11
35.3839506173
 21
112.0420604308
  0
LINE
  8
DEFAULT_1
 62
7
  6
CENTER
 10
49.3020696636
 20
99.3672839506
 11
102.4658315709
 21
99.3672839506
  0
POLYLINE
  8
0
 62
7
  6
CONTINUOUS
 66
1
 70
0
  0
VERTEX
  8
0
 62
7
  6
CONTINUOUS
 10
50.6049960521
 20
162.8672839506
  0
VERTEX
  8
0
 62
7
  6
CONTINUOUS
 10
50.6043843921
 20
163.5486876664
  0
VERTEX
  8
0
 62
7
  6
CONTINUOUS
 10
50.6025817998
 20
164.2197257795
  0
VERTEX
  8
0
 62
7
  6
CONTINUOUS
 10
50.5997095583
 20
164.8654819756
  0
VERTEX
  8
0
 62
7
  6
CONTINUOUS
 10
50.5958781632
 20
165.4860763265
  0
VERTEX
  8
0
 62
7
  6
CONTINUOUS
 10
50.5911871877
 20
166.0818702276
  0
VERTEX
  8
0
 62
7
  6
CONTINUOUS
 10
50.585725614
 20
166.6534099301
  0
VERTEX
  8
0
 62
7
  6
CONTINUOUS
 10
50.5795719961
 20
167.2014083734
  0
VERTEX
  8
0
 62
7
  6
CONTINUOUS
 10
50.5727948784
 20
167.7267009577
  0
VERTEX
  8
0
 62
7
  6
CONTINUOUS
 10
50.5654532341
 20
168.2302128789
  0
VERTEX
  8
0
 62
7
  6
CONTINUOUS
 10
50.5576002043
 20
168.7127398659
  0
VERTEX
  8
0
 62
7
  6
CONTINUOUS
 10
50.5492989119
 20
169.1741983308
  0
VERTEX
  8
0
 62
7
  6
CONTINUOUS
 10
50.5406160549
 20
169.6143315797
  0
VERTEX
  8
0
 62
7
  6
CONTINUOUS
 10
50.5316173828
 20
170.0330080485
  0
VERTEX
  8
0
 62
7
  6
CONTINUOUS
 10
50.5223674031
 20
170.4302134338
  0
VERTEX
  8
0
 62
7
  6
CONTINUOUS
 10
50.5129288949
 20
170.8060508596
  0
VERTEX
  8
0
 62
7
  6
CONTINUOUS
 10
50.5033523877
 20
171.1610983407
  0
VERTEX
  8
0
 62
7
  6
CONTINUOUS
 10
50.4936697951
 20
171.4964864021
  0
VERTEX
  8
0
 62
7
  6
CONTINUOUS
 10
50.4839061094
 20
171.8133679959
  0
VERTEX
  8
0
 62
7
  6
CONTINUOUS
 10
50.4740807668
 20
172.1128705546
  0
VERTEX
  8
0
 62
7
  6
CONTINUOUS
 10
50.4642082272
 20
172.3960849322
  0
VERTEX
  8
0
 62
7
  6
CONTINUOUS
 10
50.4542983746
 20
172.6640582866
  0
VERTEX
  8
0
 62
7
  6
CONTINUOUS
 10
50.4443566598
 20
172.917795463
  0
VERTEX
  8
0
 62
7
  6
CONTINUOUS
 10
50.4343844413
 20
173.1582555954
  0
VERTEX
  8
0
 62
7
  6
CONTINUOUS
 10
50.4243792076
 20
173.3863476807
  0
VERTEX
  8
0
 62
7
  6
CONTINUOUS
 10
50.414334763
 20
173.6029307429
  0
VERTEX
  8
0
 62
7
  6
CONTINUOUS
 10
50.4042440113
 20
173.8087593169
  0
VERTEX
  8
0
 62
7
  6
CONTINUOUS
 10
50.3941139178
 20
174.0042169507
  0
VERTEX
  8
0
 62
7
  6
CONTINUOUS
 10
50.3839568386
 20
174.1895598271
  0
VERTEX
  8
0
 62
7
  6
CONTINUOUS
 10
50.3737836394
 20
174.3650625087
  0
VERTEX
  8
0
 62
7
  6
CONTINUOUS
 10
50.3636035557
 20
174.5310191716
  0
VERTEX
  8
0
 62
7
  6
CONTINUOUS
 10
50.3534239807
 20
174.6877401152
  0
VERTEX
  8
0
 62
7
  6
CONTINUOUS
 10
50.3432501109
 20
174.8355552102
  0
VERTEX
  8
0
 62
7
  6
CONTINUOUS
 10
50.3330847534
 20
174.9748089439
  0
VERTEX
  8
0
 62
7
  6
CONTINUOUS
 10
50.322930331
 20
175.1058325935
  0
VERTEX
  8
0
 62
7
  6
CONTINUOUS
 10
50.3127982996
 20
175.228834383
  0
VERTEX
  8
0
 62
7
  6
CONTINUOUS
 10
50.3027003741
 20
175.3440356211
  0
VERTEX
  8
0
 62
7
  6
CONTINUOUS
 10
50.2926450392
 20
175.4517069438
  0
VERTEX
  8
0
 62
7
  6
CONTINUOUS
 10
50.2826367857
 20
175.5521690726
  0
VERTEX
  8
0
 62
7
  6
CONTINUOUS
 10
50.2726753515
 20
175.6457868617
  0
VERTEX
  8
0
 62
7
  6
CONTINUOUS
 10
50.2627478589
 20
175.7330272973
  0
VERTEX
  8
0
 62
7
  6
CONTINUOUS
 10
50.2528219129
 20
175.8144806716
  0
VERTEX
  8
0
 62
7
  6
CONTINUOUS
 10
50.2428549768
 20
175.8907464772
  0
VERTEX
  8
0
 62
7
  6
CONTINUOUS
 10
50.2327831202
 20
175.9624968216
  0
VERTEX
  8
0
 62
7
  6
CONTINUOUS
 10
50.2225008143
 20
176.0305650256
  0
VERTEX
  8
0
 62
7
  6
CONTINUOUS
 10
50.2118695362
 20
176.095817055
  0
VERTEX
  8
0
 62
7
  6
CONTINUOUS
 10
50.2007068098
 20
176.1591630253
  0
VERTEX
  8
0
 62
7
  6
CONTINUOUS
 10
50.188769376
 20
176.2215791575
  0
VERTEX
  8
0
 62
7
  6
CONTINUOUS
 10
50.1757564685
 20
176.2840091786
  0
VERTEX
  8
0
 62
7
  6
CONTINUOUS
 10
50.1613417126
 20
176.3471702047
  0
VERTEX
  8
0
 62
7
  6
CONTINUOUS
 10
50.1450944753
 20
176.4118730189
  0
VERTEX
  8
0
 62
7
  6
CONTINUOUS
 10
50.1264445665
 20
176.4790324873
  0
VERTEX
  8
0
 62
7
  6
CONTINUOUS
 10
50.1046475118
 20
176.549634054
  0
VERTEX
  8
0
 62
7
  6
CONTINUOUS
 10
50.0788775353
 20
176.6243233412
  0
VERTEX
  8
0
 62
7
  6
CONTINUOUS
 10
50.0486093329
 20
176.7025121308
  0
VERTEX
  8
0
 62
7
  6
CONTINUOUS
 10
50.01368322
 20
176.7828019699
  0
VERTEX
  8
0
 62
7
  6
CONTINUOUS
 10
49.9735997217
 20
176.8648128289
  0
VERTEX
  8
0
 62
7
  6
CONTINUOUS
 10
49.9271269835
 20
176.9493967136
  0
VERTEX
  8
0
 62
7
  6
CONTINUOUS
 10
49.8726209521
 20
177.0374363626
  0
VERTEX
  8
0
 62
7
  6
CONTINUOUS
 10
49.8085032582
 20
177.1289580668
  0
VERTEX
  8
0
 62
7
  6
CONTINUOUS
 10
49.7332427999
 20
177.2233491857
  0
VERTEX
  8
0
 62
7
  6
CONTINUOUS
 10
49.645767566
 20
177.3190608915
  0
VERTEX
  8
0
 62
7
  6
CONTINUOUS
 10
49.5455775992
 20
177.4138805736
  0
VERTEX
  8
0
 62
7
  6
CONTINUOUS
 10
49.433084335
 20
177.5050235468
  0
VERTEX
  8
0
 62
7
  6
CONTINUOUS
 10
49.3093857358
 20
177.5897324332
  0
VERTEX
  8
0
 62
7
  6
CONTINUOUS
 10
49.1761657778
 20
177.6655544078
  0
VERTEX
  8
0
 62
7
  6
CONTINUOUS
 10
49.0351605574
 20
177.7306932107
  0
VERTEX
  8
0
 62
7
  6
CONTINUOUS
 10
48.8877428338
 20
177.7840059187
  0
VERTEX
  8
0
 62
7
  6
CONTINUOUS
 10
48.7353913595
 20
177.8246215289
  0
VERTEX
  8
0
 62
7
  6
CONTINUOUS
 10
48.5796584966
 20
177.8519354478
  0
VERTEX
  8
0
 62
7
  6
CONTINUOUS
 10
48.4221157899
 20
177.8656049827
  0
VERTEX
  8
0
 62
7
  6
CONTINUOUS
 10
48.3440405649
 20
177.8672839506
  0
SEQEND
  0
POLYLINE
  8
0
 62
7
  6
CONTINUOUS
 66
1
 70
0
  0
VERTEX
  8
0
 62
7
  6
CONTINUOUS
 10
51.0329051825
 20
99.3672839506
  0
VERTEX
  8
0
 62
7
  6
CONTINUOUS
 10
51.0335168434
 20
98.6858797246
  0
VERTEX
  8
0
 62
7
  6
CONTINUOUS
 10
51.035319438
 20
98.0148412064
  0
VERTEX
  8
0
 62
7
  6
CONTINUOUS
 10
51.0381916826
 20
97.3690847191
  0
VERTEX
  8
0
 62
7
  6
CONTINUOUS
 10
51.0420230818
 20
96.7484900885
  0
VERTEX
  8
0
 62
7
  6
CONTINUOUS
 10
51.0467140624
 20
96.1526958893
  0
VERTEX
  8
0
 62
7
  6
CONTINUOUS
 10
51.052175642
 20
95.5811559146
  0
VERTEX
  8
0
 62
7
  6
CONTINUOUS
 10
51.0583292662
 20
95.0331572262
  0
VERTEX
  8
0
 62
7
  6
CONTINUOUS
 10
51.0651063908
 20
94.5078644228
  0
VERTEX
  8
0
 62
7
  6
CONTINUOUS
 10
51.0724480424
 20
94.0043523072
  0
VERTEX
  8
0
 62
7
  6
CONTINUOUS
 10
51.0803010797
 20
93.5218251523
  0
VERTEX
  8
0
 62
7
  6
CONTINUOUS
 10
51.0886023797
 20
93.0603665484
  0
VERTEX
  8
0
 62
7
  6
CONTINUOUS
 10
51.0972852443
 20
92.6202331872
  0
VERTEX
  8
0
 62
7
  6
CONTINUOUS
 10
51.1062839239
 20
92.2015566312
  0
VERTEX
  8
0
 62
7
  6
CONTINUOUS
 10
51.115533911
 20
91.8043511823
  0
VERTEX
  8
0
 62
7
  6
CONTINUOUS
 10
51.1249724264
 20
91.428513714
  0
VERTEX
  8
0
 62
7
  6
CONTINUOUS
 10
51.1345489407
 20
91.073466201
  0
VERTEX
  8
0
 62
7
  6
CONTINUOUS
 10
51.1442315403
 20
90.7380781178
  0
VERTEX
  8
0
 62
7
  6
CONTINUOUS
 10
51.153995233
 20
90.4211965144
  0
VERTEX
  8
0
 62
7
  6
CONTINUOUS
 10
51.1638205826
 20
90.1216939538
  0
VERTEX
  8
0
 62
7
  6
CONTINUOUS
 10
51.173693129
 20
89.8384795824
  0
VERTEX
  8
0
 62
7
  6
CONTINUOUS
 10
51.1836029883
 20
89.5705062451
  0
VERTEX
  8
0
 62
7
  6
CONTINUOUS
 10
51.1935447099
 20
89.3167690888
  0
VERTEX
  8
0
 62
7
  6
CONTINUOUS
 10
51.2035169349
 20
89.0763089835
  0
VERTEX
  8
0
 62
7
  6
CONTINUOUS
 10
51.2135221754
 20
88.8482169313
  0
VERTEX
  8
0
 62
7
  6
CONTINUOUS
 10
51.2235666267
 20
88.6316339034
  0
VERTEX
  8
0
 62
7
  6
CONTINUOUS
 10
51.2336573851
 20
88.4258053745
  0
VERTEX
  8
0
 62
7
  6
CONTINUOUS
 10
51.2437874852
 20
88.2303477911
  0
VERTEX
  8
0
 62
7
  6
CONTINUOUS
 10
51.2539445703
 20
88.045004981
  0
VERTEX
  8
0
 62
7
  6
CONTINUOUS
 10
51.2641177756
 20
87.8695023664
  0
VERTEX
  8
0
 62
7
  6
CONTINUOUS
 10
51.2742978648
 20
87.7035457834
  0
VERTEX
  8
0
 62
7
  6
CONTINUOUS
 10
51.2844774456
 20
87.54682492
  0
VERTEX
  8
0
 62
7
  6
CONTINUOUS
 10
51.2946513204
 20
87.3990099143
  0
VERTEX
  8
0
 62
7
  6
CONTINUOUS
 10
51.3048166835
 20
87.2597562676
  0
VERTEX
  8
0
 62
7
  6
CONTINUOUS
 10
51.3149711106
 20
87.1287327154
  0
VERTEX
  8
0
 62
7
  6
CONTINUOUS
 10
51.3251031473
 20
87.0057310201
  0
VERTEX
  8
0
 62
7
  6
CONTINUOUS
 10
51.3352010766
 20
86.8905298906
  0
VERTEX
  8
0
 62
7
  6
CONTINUOUS
 10
51.3452564168
 20
86.7828586613
  0
VERTEX
  8
0
 62
7
  6
CONTINUOUS
 10
51.355264674
 20
86.6823966422
  0
VERTEX
  8
0
 62
7
  6
CONTINUOUS
 10
51.3652261139
 20
86.5887789403
  0
VERTEX
  8
0
 62
7
  6
CONTINUOUS
 10
51.375153612
 20
86.5015385979
  0
VERTEX
  8
0
 62
7
  6
CONTINUOUS
 10
51.3850795643
 20
86.4200853055
  0
VERTEX
  8
0
 62
7
  6
CONTINUOUS
 10
51.3950465097
 20
86.3438195639
  0
VERTEX
  8
0
 62
7
  6
CONTINUOUS
 10
51.4051183744
 20
86.2720692945
  0
VERTEX
  8
0
 62
7
  6
CONTINUOUS
 10
51.4154006954
 20
86.2040011204
  0
VERTEX
  8
0
 62
7
  6
CONTINUOUS
 10
51.4260319927
 20
86.1387491089
  0
VERTEX
  8
0
 62
7
  6
CONTINUOUS
 10
51.4371947391
 20
86.0754031631
  0
VERTEX
  8
0
 62
7
  6
CONTINUOUS
 10
51.4491322099
 20
86.0129869809
  0
VERTEX
  8
0
 62
7
  6
CONTINUOUS
 10
51.462145164
 20
85.9505568965
  0
VERTEX
  8
0
 62
7
  6
CONTINUOUS
 10
51.4765599695
 20
85.8873958256
  0
VERTEX
  8
0
 62
7
  6
CONTINUOUS
 10
51.4928072786
 20
85.8226929118
  0
VERTEX
  8
0
 62
7
  6
CONTINUOUS
 10
51.5114572898
 20
85.7555332865
  0
VERTEX
  8
0
 62
7
  6
CONTINUOUS
 10
51.533254459
 20
85.6849315881
  0
VERTEX
  8
0
 62
7
  6
CONTINUOUS
 10
51.5590245481
 20
85.6102422348
  0
VERTEX
  8
0
 62
7
  6
CONTINUOUS
 10
51.5892929206
 20
85.5320532842
  0
VERTEX
  8
0
 62
7
  6
CONTINUOUS
 10
51.6242192658
 20
85.4517632151
  0
VERTEX
  8
0
 62
7
  6
CONTINUOUS
 10
51.6643030346
 20
85.3697521327
  0
VERTEX
  8
0
 62
7
  6
CONTINUOUS
 10
51.7107759578
 20
85.2851682575
  0
VERTEX
  8
0
 62
7
  6
CONTINUOUS
 10
51.7652819212
 20
85.1971290467
  0
VERTEX
  8
0
 62
7
  6
CONTINUOUS
 10
51.8293994072
 20
85.1056079161
  0
VERTEX
  8
0
 62
7
  6
CONTINUOUS
 10
51.9046599337
 20
85.0112169547
  0
VERTEX
  8
0
 62
7
  6
CONTINUOUS
 10
51.9921354129
 20
84.9155052295
  0
VERTEX
  8
0
 62
7
  6
CONTINUOUS
 10
52.0923255578
 20
84.8206856395
  0
VERTEX
  8
0
 62
7
  6
CONTINUOUS
 10
52.2048188582
 20
84.7295428914
  0
VERTEX
  8
0
 62
7
  6
CONTINUOUS
 10
52.328517369
 20
84.6448342971
  0
VERTEX
  8
0
 62
7
  6
CONTINUOUS
 10
52.4617371518
 20
84.5690126215
  0
VERTEX
  8
0
 62
7
  6
CONTINUOUS
 10
52.6027421562
 20
84.5038740833
  0
VERTEX
  8
0
 62
7
  6
CONTINUOUS
 10
52.7501596321
 20
84.4505615974
  0
VERTEX
  8
0
 62
7
  6
CONTINUOUS
 10
52.9025108301
 20
84.4099461627
  0
VERTEX
  8
0
 62
7
  6
CONTINUOUS
 10
53.0582433911
 20
84.3826323688
  0
VERTEX
  8
0
 62
7
  6
CONTINUOUS
 10
53.2157857733
 20
84.3689629047
  0
VERTEX
  8
0
 62
7
  6
CONTINUOUS
 10
53.2938606841
 20
84.3672839507
  0
SEQEND
  0
LINE
  8
0
 62
7
  6
CONTINUOUS
 10
50.6049960525
 20
156.1478298815
 11
50.6049960525
 21
162.8672839506
  0
LINE
  8
0
 62
7
  6
CONTINUOUS
 10
51.0329051821
 20
106.0867380198
 11
51.0329051821
 21
99.3672839506
  0
LINE
  8
0
 62
7
  6
CONTINUOUS
 10
37.1839506173
 20
110.2420620552
 11
49.321390316
 21
110.2420620552
  0
LINE
  8
0
 62
7
  6
CONTINUOUS
 10
69.026510999
 20
110.2420620552
 11
82.741390316
 21
110.2420620552
  0
LINE
  8
0
 62
7
  6
CONTINUOUS
 10
102.446510999
 20
110.2420620552
 11
114.5839506173
 21
110.2420620552
  0
POLYLINE
  8
0
 62
7
  6
CONTINUOUS
 66
1
 70
0
  0
VERTEX
  8
0
 62
7
  6
CONTINUOUS
 10
49.321390316
 20
110.2420618442
  0
VERTEX
  8
0
 62
7
  6
CONTINUOUS
 10
49.3905413724
 20
110.2386065207
  0
VERTEX
  8
0
 62
7
  6
CONTINUOUS
 10
49.4671698387
 20
110.2266846502
  0
VERTEX
  8
0
 62
7
  6
CONTINUOUS
 10
49.5457024813
 20
110.2056950962
  0
VERTEX
  8
0
 62
7
  6
CONTINUOUS
 10
49.6253648603
 20
110.1754611402
  0
VERTEX
  8
0
 62
7
  6
CONTINUOUS
 10
49.7063566186
 20
110.1356025884
  0
VERTEX
  8
0
 62
7
  6
CONTINUOUS
 10
49.7884944843
 20
110.0858079471
  0
VERTEX
  8
0
 62
7
  6
CONTINUOUS
 10
49.8710954336
 20
110.0260906014
  0
VERTEX
  8
0
 62
7
  6
CONTINUOUS
 10
49.9528906711
 20
109.9571374852
  0
VERTEX
  8
0
 62
7
  6
CONTINUOUS
 10
50.0331008971
 20
109.8795743233
  0
VERTEX
  8
0
 62
7
  6
CONTINUOUS
 10
50.111113905
 20
109.7940700695
  0
VERTEX
  8
0
 62
7
  6
CONTINUOUS
 10
50.1864700041
 20
109.7012857772
  0
VERTEX
  8
0
 62
7
  6
CONTINUOUS
 10
50.258974171
 20
109.6016473726
  0
VERTEX
  8
0
 62
7
  6
CONTINUOUS
 10
50.3286461079
 20
109.4952632433
  0
VERTEX
  8
0
 62
7
  6
CONTINUOUS
 10
50.3953808253
 20
109.3823698835
  0
VERTEX
  8
0
 62
7
  6
CONTINUOUS
 10
50.4590540709
 20
109.2632363435
  0
VERTEX
  8
0
 62
7
  6
CONTINUOUS
 10
50.5196472515
 20
109.1379259839
  0
VERTEX
  8
0
 62
7
  6
CONTINUOUS
 10
50.577187505
 20
109.0063393665
  0
VERTEX
  8
0
 62
7
  6
CONTINUOUS
 10
50.6316759812
 20
108.8683394787
  0
VERTEX
  8
0
 62
7
  6
CONTINUOUS
 10
50.6830401317
 20
108.7239089017
  0
VERTEX
  8
0
 62
7
  6
CONTINUOUS
 10
50.7312193351
 20
108.5729613537
  0
VERTEX
  8
0
 62
7
  6
CONTINUOUS
 10
50.7761621878
 20
108.415330475
  0
VERTEX
  8
0
 62
7
  6
CONTINUOUS
 10
50.8178136457
 20
108.2507833303
  0
VERTEX
  8
0
 62
7
  6
CONTINUOUS
 10
50.8560224335
 20
108.0794503072
  0
VERTEX
  8
0
 62
7
  6
CONTINUOUS
 10
50.8906154903
 20
107.9017166445
  0
VERTEX
  8
0
 62
7
  6
CONTINUOUS
 10
50.9214763431
 20
107.7179298795
  0
VERTEX
  8
0
 62
7
  6
CONTINUOUS
 10
50.9485383173
 20
107.5283799242
  0
VERTEX
  8
0
 62
7
  6
CONTINUOUS
 10
50.9717675914
 20
107.3333830861
  0
VERTEX
  8
0
 62
7
  6
CONTINUOUS
 10
50.9911558655
 20
107.1333393454
  0
VERTEX
  8
0
 62
7
  6
CONTINUOUS
 10
51.0067399257
 20
106.9286311354
  0
VERTEX
  8
0
 62
7
  6
CONTINUOUS
 10
51.0185885566
 20
106.7195987523
  0
VERTEX
  8
0
 62
7
  6
CONTINUOUS
 10
51.0268075897
 20
106.5065519895
  0
VERTEX
  8
0
 62
7
  6
CONTINUOUS
 10
51.0315264273
 20
106.289762927
  0
VERTEX
  8
0
 62
7
  6
CONTINUOUS
 10
51.0329053315
 20
106.0867380196
  0
SEQEND
  0
POLYLINE
  8
0
 62
7
  6
CONTINUOUS
 66
1
 70
0
  0
VERTEX
  8
0
 62
7
  6
CONTINUOUS
 10
82.741390316
 20
110.2420618442
  0
VERTEX
  8
0
 62
7
  6
CONTINUOUS
 10
82.8105413724
 20
110.2386065207
  0
VERTEX
  8
0
 62
7
  6
CONTINUOUS
 10
82.8871698387
 20
110.2266846502
  0
VERTEX
  8
0
 62
7
  6
CONTINUOUS
 10
82.9657024813
 20
110.2056950962
  0
VERTEX
  8
0
 62
7
  6
CONTINUOUS
 10
83.0453648603
 20
110.1754611402
  0
VERTEX
  8
0
 62
7
  6
CONTINUOUS
 10
83.1263566186
 20
110.1356025884
  0
VERTEX
  8
0
 62
7
  6
CONTINUOUS
 10
83.2084944843
 20
110.0858079471
  0
VERTEX
  8
0
 62
7
  6
CONTINUOUS
 10
83.2910954336
 20
110.0260906014
  0
VERTEX
  8
0
 62
7
  6
CONTINUOUS
 10
83.3728906711
 20
109.9571374852
  0
VERTEX
  8
0
 62
7
  6
CONTINUOUS
 10
83.4531008971
 20
109.8795743233
  0
VERTEX
  8
0
 62
7
  6
CONTINUOUS
 10
83.531113905
 20
109.7940700695
  0
VERTEX
  8
0
 62
7
  6
CONTINUOUS
 10
83.6064700041
 20
109.7012857772
  0
VERTEX
  8
0
 62
7
  6
CONTINUOUS
 10
83.678974171
 20
109.6016473726
  0
VERTEX
  8
0
 62
7
  6
CONTINUOUS
 10
83.7486461079
 20
109.4952632433
  0
VERTEX
  8
0
 62
7
  6
CONTINUOUS
 10
83.8153808253
 20
109.3823698835
  0
VERTEX
  8
0
 62
7
  6
CONTINUOUS
 10
83.8790540709
 20
109.2632363435
  0
VERTEX
  8
0
 62
7
  6
CONTINUOUS
 10
83.9396472515
 20
109.1379259839
  0
VERTEX
  8
0
 62
7
  6
CONTINUOUS
 10
83.997187505
 20
109.0063393665
  0
VERTEX
  8
0
 62
7
  6
CONTINUOUS
 10
84.0516759812
 20
108.8683394787
  0
VERTEX
  8
0
 62
7
  6
CONTINUOUS
 10
84.1030401317
 20
108.7239089017
  0
VERTEX
  8
0
 62
7
  6
CONTINUOUS
 10
84.1512193351
 20
108.5729613537
  0
VERTEX
  8
0
 62
7
  6
CONTINUOUS
 10
84.1961621878
 20
108.415330475
  0
VERTEX
  8
0
 62
7
  6
CONTINUOUS
 10
84.2378136457
 20
108.2507833303
  0
VERTEX
  8
0
 62
7
  6
CONTINUOUS
 10
84.2760224335
 20
108.0794503072
  0
VERTEX
  8
0
 62
7
  6
CONTINUOUS
 10
84.3106154903
 20
107.9017166445
  0
VERTEX
  8
0
 62
7
  6
CONTINUOUS
 10
84.3414763431
 20
107.7179298795
  0
VERTEX
  8
0
 62
7
  6
CONTINUOUS
 10
84.3685383173
 20
107.5283799242
  0
VERTEX
  8
0
 62
7
  6
CONTINUOUS
 10
84.3917675914
 20
107.3333830861
  0
VERTEX
  8
0
 62
7
  6
CONTINUOUS
 10
84.4111558655
 20
107.1333393454
  0
VERTEX
  8
0
 62
7
  6
CONTINUOUS
 10
84.4267399257
 20
106.9286311354
  0
VERTEX
  8
0
 62
7
  6
CONTINUOUS
 10
84.4385885566
 20
106.7195987523
  0
VERTEX
  8
0
 62
7
  6
CONTINUOUS
 10
84.4468075897
 20
106.5065519895
  0
VERTEX
  8
0
 62
7
  6
CONTINUOUS
 10
84.4515264273
 20
106.289762927
  0
VERTEX
  8
0
 62
7
  6
CONTINUOUS
 10
84.4529053315
 20
106.0867380196
  0
SEQEND
  0
LINE
  8
0
 62
7
  6
CONTINUOUS
 10
67.3149960525
 20
99.3672839506
 11
67.3149960525
 21
106.0867380231
  0
LINE
  8
0
 62
7
  6
CONTINUOUS
 10
67.7429051821
 20
162.8672839506
 11
67.7429051821
 21
156.1478298781
  0
POLYLINE
  8
0
 62
7
  6
CONTINUOUS
 66
1
 70
0
  0
VERTEX
  8
0
 62
7
  6
CONTINUOUS
 10
67.3149959006
 20
106.0867380231
  0
VERTEX
  8
0
 62
7
  6
CONTINUOUS
 10
67.3163940174
 20
106.2911502391
  0
VERTEX
  8
0
 62
7
  6
CONTINUOUS
 10
67.3211340897
 20
106.5078984296
  0
VERTEX
  8
0
 62
7
  6
CONTINUOUS
 10
67.3293747194
 20
106.7209050727
  0
VERTEX
  8
0
 62
7
  6
CONTINUOUS
 10
67.3412452721
 20
106.9298980555
  0
VERTEX
  8
0
 62
7
  6
CONTINUOUS
 10
67.3568515022
 20
107.1345677718
  0
VERTEX
  8
0
 62
7
  6
CONTINUOUS
 10
67.3762621461
 20
107.3345740563
  0
VERTEX
  8
0
 62
7
  6
CONTINUOUS
 10
67.3995139671
 20
107.5295344721
  0
VERTEX
  8
0
 62
7
  6
CONTINUOUS
 10
67.4265986099
 20
107.7190490103
  0
VERTEX
  8
0
 62
7
  6
CONTINUOUS
 10
67.4574822299
 20
107.9028012427
  0
VERTEX
  8
0
 62
7
  6
CONTINUOUS
 10
67.4920981728
 20
108.0805013953
  0
VERTEX
  8
0
 62
7
  6
CONTINUOUS
 10
67.5303299912
 20
108.2518019975
  0
VERTEX
  8
0
 62
7
  6
CONTINUOUS
 10
67.5720046318
 20
108.4163177433
  0
VERTEX
  8
0
 62
7
  6
CONTINUOUS
 10
67.616970647
 20
108.5739174637
  0
VERTEX
  8
0
 62
7
  6
CONTINUOUS
 10
67.6651729953
 20
108.7248337748
  0
VERTEX
  8
0
 62
7
  6
CONTINUOUS
 10
67.7165602899
 20
108.8692328742
  0
VERTEX
  8
0
 62
7
  6
CONTINUOUS
 10
67.7710718846
 20
109.0072007611
  0
VERTEX
  8
0
 62
7
  6
CONTINUOUS
 10
67.8286350988
 20
109.1387544054
  0
VERTEX
  8
0
 62
7
  6
CONTINUOUS
 10
67.8892510452
 20
109.2640305602
  0
VERTEX
  8
0
 62
7
  6
CONTINUOUS
 10
67.9529470454
 20
109.3831287791
  0
VERTEX
  8
0
 62
7
  6
CONTINUOUS
 10
68.0197045883
 20
109.4959855928
  0
VERTEX
  8
0
 62
7
  6
CONTINUOUS
 10
68.0893994321
 20
109.60233173
  0
VERTEX
  8
0
 62
7
  6
CONTINUOUS
 10
68.1619261765
 20
109.7019298521
  0
VERTEX
  8
0
 62
7
  6
CONTINUOUS
 10
68.2373046122
 20
109.7946713736
  0
VERTEX
  8
0
 62
7
  6
CONTINUOUS
 10
68.3153394326
 20
109.8801298234
  0
VERTEX
  8
0
 62
7
  6
CONTINUOUS
 10
68.3955701957
 20
109.9576434009
  0
VERTEX
  8
0
 62
7
  6
CONTINUOUS
 10
68.477383141
 20
110.0265421165
  0
VERTEX
  8
0
 62
7
  6
CONTINUOUS
 10
68.5599943795
 20
110.0861978917
  0
VERTEX
  8
0
 62
7
  6
CONTINUOUS
 10
68.6421298405
 20
110.1359234567
  0
VERTEX
  8
0
 62
7
  6
CONTINUOUS
 10
68.7231078227
 20
110.1757097919
  0
VERTEX
  8
0
 62
7
  6
CONTINUOUS
 10
68.8027513401
 20
110.2058735217
  0
VERTEX
  8
0
 62
7
  6
CONTINUOUS
 10
68.881265252
 20
110.2267970664
  0
VERTEX
  8
0
 62
7
  6
CONTINUOUS
 10
68.9578742321
 20
110.2386577835
  0
VERTEX
  8
0
 62
7
  6
CONTINUOUS
 10
69.0265110374
 20
110.2420619519
  0
SEQEND
  0
POLYLINE
  8
0
 62
7
  6
CONTINUOUS
 66
1
 70
0
  0
VERTEX
  8
0
 62
7
  6
CONTINUOUS
 10
67.742905334
 20
156.1478298781
  0
VERTEX
  8
0
 62
7
  6
CONTINUOUS
 10
67.7415072172
 20
155.9434176622
  0
VERTEX
  8
0
 62
7
  6
CONTINUOUS
 10
67.7367671449
 20
155.7266694717
  0
VERTEX
  8
0
 62
7
  6
CONTINUOUS
 10
67.7285265152
 20
155.5136628285
  0
VERTEX
  8
0
 62
7
  6
CONTINUOUS
 10
67.7166559625
 20
155.3046698458
  0
VERTEX
  8
0
 62
7
  6
CONTINUOUS
 10
67.7010497324
 20
155.1000001294
  0
VERTEX
  8
0
 62
7
  6
CONTINUOUS
 10
67.6816390885
 20
154.8999938449
  0
VERTEX
  8
0
 62
7
  6
CONTINUOUS
 10
67.6583872674
 20
154.7050334292
  0
VERTEX
  8
0
 62
7
  6
CONTINUOUS
 10
67.6313026246
 20
154.515518891
  0
VERTEX
  8
0
 62
7
  6
CONTINUOUS
 10
67.6004190047
 20
154.3317666585
  0
VERTEX
  8
0
 62
7
  6
CONTINUOUS
 10
67.5658030618
 20
154.1540665059
  0
VERTEX
  8
0
 62
7
  6
CONTINUOUS
 10
67.5275712433
 20
153.9827659038
  0
VERTEX
  8
0
 62
7
  6
CONTINUOUS
 10
67.4858966028
 20
153.8182501579
  0
VERTEX
  8
0
 62
7
  6
CONTINUOUS
 10
67.4409305876
 20
153.6606504376
  0
VERTEX
  8
0
 62
7
  6
CONTINUOUS
 10
67.3927282393
 20
153.5097341264
  0
VERTEX
  8
0
 62
7
  6
CONTINUOUS
 10
67.3413409447
 20
153.3653350271
  0
VERTEX
  8
0
 62
7
  6
CONTINUOUS
 10
67.28682935
 20
153.2273671401
  0
VERTEX
  8
0
 62
7
  6
CONTINUOUS
 10
67.2292661358
 20
153.0958134958
  0
VERTEX
  8
0
 62
7
  6
CONTINUOUS
 10
67.1686501894
 20
152.970537341
  0
VERTEX
  8
0
 62
7
  6
CONTINUOUS
 10
67.1049541892
 20
152.8514391221
  0
VERTEX
  8
0
 62
7
  6
CONTINUOUS
 10
67.0381966462
 20
152.7385823084
  0
VERTEX
  8
0
 62
7
  6
CONTINUOUS
 10
66.9685018024
 20
152.6322361712
  0
VERTEX
  8
0
 62
7
  6
CONTINUOUS
 10
66.8959750581
 20
152.5326380491
  0
VERTEX
  8
0
 62
7
  6
CONTINUOUS
 10
66.8205966223
 20
152.4398965277
  0
VERTEX
  8
0
 62
7
  6
CONTINUOUS
 10
66.7425618019
 20
152.3544380778
  0
VERTEX
  8
0
 62
7
  6
CONTINUOUS
 10
66.6623310389
 20
152.2769245003
  0
VERTEX
  8
0
 62
7
  6
CONTINUOUS
 10
66.5805180936
 20
152.2080257847
  0
VERTEX
  8
0
 62
7
  6
CONTINUOUS
 10
66.4979068551
 20
152.1483700096
  0
VERTEX
  8
0
 62
7
  6
CONTINUOUS
 10
66.4157713941
 20
152.0986444445
  0
VERTEX
  8
0
 62
7
  6
CONTINUOUS
 10
66.3347934119
 20
152.0588581093
  0
VERTEX
  8
0
 62
7
  6
CONTINUOUS
 10
66.2551498945
 20
152.0286943795
  0
VERTEX
  8
0
 62
7
  6
CONTINUOUS
 10
66.1766359826
 20
152.0077708348
  0
VERTEX
  8
0
 62
7
  6
CONTINUOUS
 10
66.1000270025
 20
151.9959101177
  0
VERTEX
  8
0
 62
7
  6
CONTINUOUS
 10
66.0313901972
 20
151.9925059493
  0
SEQEND
  0
LINE
  8
DEFAULT_1
 62
7
  6
CENTER
 10
75.8839506173
 20
135.5172839506
 11
75.8839506173
 21
133.1173839506
  0
LINE
  8
0
 62
2
  6
CONTINUOUS
 10
75.8839506173
 20
131.9972839506
 11
75.8839506173
 21
130.2372839506
  0
LINE
  8
DEFAULT_1
 62
7
  6
CENTER
 10
75.8839506173
 20
126.7172839506
 11
75.8839506173
 21
129.1171839506
  0
LINE
  8
DEFAULT_1
 62
7
  6
CENTER
 10
33.3839506173
 20
131.1172839506
 11
118.3839506173
 21
131.1172839506
  0
POLYLINE
  8
0
 62
7
  6
CONTINUOUS
 66
1
 70
0
  0
VERTEX
  8
0
 62
7
  6
CONTINUOUS
 10
84.0249960521
 20
162.8672839506
  0
VERTEX
  8
0
 62
7
  6
CONTINUOUS
 10
84.0243843921
 20
163.5486876664
  0
VERTEX
  8
0
 62
7
  6
CONTINUOUS
 10
84.0225817998
 20
164.2197257795
  0
VERTEX
  8
0
 62
7
  6
CONTINUOUS
 10
84.0197095583
 20
164.8654819756
  0
VERTEX
  8
0
 62
7
  6
CONTINUOUS
 10
84.0158781632
 20
165.4860763265
  0
VERTEX
  8
0
 62
7
  6
CONTINUOUS
 10
84.0111871877
 20
166.0818702276
  0
VERTEX
  8
0
 62
7
  6
CONTINUOUS
 10
84.005725614
 20
166.6534099301
  0
VERTEX
  8
0
 62
7
  6
CONTINUOUS
 10
83.9995719961
 20
167.2014083734
  0
VERTEX
  8
0
 62
7
  6
CONTINUOUS
 10
83.9927948784
 20
167.7267009577
  0
VERTEX
  8
0
 62
7
  6
CONTINUOUS
 10
83.9854532341
 20
168.2302128789
  0
VERTEX
  8
0
 62
7
  6
CONTINUOUS
 10
83.9776002043
 20
168.7127398659
  0
VERTEX
  8
0
 62
7
  6
CONTINUOUS
 10
83.9692989119
 20
169.1741983308
  0
VERTEX
  8
0
 62
7
  6
CONTINUOUS
 10
83.9606160549
 20
169.6143315797
  0
VERTEX
  8
0
 62
7
  6
CONTINUOUS
 10
83.9516173828
 20
170.0330080485
  0
VERTEX
  8
0
 62
7
  6
CONTINUOUS
 10
83.9423674031
 20
170.4302134338
  0
VERTEX
  8
0
 62
7
  6
CONTINUOUS
 10
83.9329288949
 20
170.8060508596
  0
VERTEX
  8
0
 62
7
  6
CONTINUOUS
 10
83.9233523877
 20
171.1610983407
  0
VERTEX
  8
0
 62
7
  6
CONTINUOUS
 10
83.9136697951
 20
171.4964864021
  0
VERTEX
  8
0
 62
7
  6
CONTINUOUS
 10
83.9039061094
 20
171.8133679959
  0
VERTEX
  8
0
 62
7
  6
CONTINUOUS
 10
83.8940807668
 20
172.1128705546
  0
VERTEX
  8
0
 62
7
  6
CONTINUOUS
 10
83.8842082272
 20
172.3960849322
  0
VERTEX
  8
0
 62
7
  6
CONTINUOUS
 10
83.8742983746
 20
172.6640582866
  0
VERTEX
  8
0
 62
7
  6
CONTINUOUS
 10
83.8643566598
 20
172.917795463
  0
VERTEX
  8
0
 62
7
  6
CONTINUOUS
 10
83.8543844413
 20
173.1582555954
  0
VERTEX
  8
0
 62
7
  6
CONTINUOUS
 10
83.8443792076
 20
173.3863476807
  0
VERTEX
  8
0
 62
7
  6
CONTINUOUS
 10
83.834334763
 20
173.6029307429
  0
VERTEX
  8
0
 62
7
  6
CONTINUOUS
 10
83.8242440113
 20
173.8087593169
  0
VERTEX
  8
0
 62
7
  6
CONTINUOUS
 10
83.8141139178
 20
174.0042169507
  0
VERTEX
  8
0
 62
7
  6
CONTINUOUS
 10
83.8039568386
 20
174.1895598271
  0
VERTEX
  8
0
 62
7
  6
CONTINUOUS
 10
83.7937836394
 20
174.3650625087
  0
VERTEX
  8
0
 62
7
  6
CONTINUOUS
 10
83.7836035557
 20
174.5310191716
  0
VERTEX
  8
0
 62
7
  6
CONTINUOUS
 10
83.7734239807
 20
174.6877401152
  0
VERTEX
  8
0
 62
7
  6
CONTINUOUS
 10
83.7632501109
 20
174.8355552102
  0
VERTEX
  8
0
 62
7
  6
CONTINUOUS
 10
83.7530847534
 20
174.9748089439
  0
VERTEX
  8
0
 62
7
  6
CONTINUOUS
 10
83.742930331
 20
175.1058325935
  0
VERTEX
  8
0
 62
7
  6
CONTINUOUS
 10
83.7327982996
 20
175.228834383
  0
VERTEX
  8
0
 62
7
  6
CONTINUOUS
 10
83.7227003741
 20
175.3440356211
  0
VERTEX
  8
0
 62
7
  6
CONTINUOUS
 10
83.7126450392
 20
175.4517069438
  0
VERTEX
  8
0
 62
7
  6
CONTINUOUS
 10
83.7026367857
 20
175.5521690726
  0
VERTEX
  8
0
 62
7
  6
CONTINUOUS
 10
83.6926753515
 20
175.6457868617
  0
VERTEX
  8
0
 62
7
  6
CONTINUOUS
 10
83.6827478589
 20
175.7330272973
  0
VERTEX
  8
0
 62
7
  6
CONTINUOUS
 10
83.6728219129
 20
175.8144806716
  0
VERTEX
  8
0
 62
7
  6
CONTINUOUS
 10
83.6628549768
 20
175.8907464772
  0
VERTEX
  8
0
 62
7
  6
CONTINUOUS
 10
83.6527831202
 20
175.9624968216
  0
VERTEX
  8
0
 62
7
  6
CONTINUOUS
 10
83.6425008143
 20
176.0305650256
  0
VERTEX
  8
0
 62
7
  6
CONTINUOUS
 10
83.6318695362
 20
176.095817055
  0
VERTEX
  8
0
 62
7
  6
CONTINUOUS
 10
83.6207068098
 20
176.1591630253
  0
VERTEX
  8
0
 62
7
  6
CONTINUOUS
 10
83.608769376
 20
176.2215791575
  0
VERTEX
  8
0
 62
7
  6
CONTINUOUS
 10
83.5957564685
 20
176.2840091786
  0
VERTEX
  8
0
 62
7
  6
CONTINUOUS
 10
83.5813417126
 20
176.3471702047
  0
VERTEX
  8
0
 62
7
  6
CONTINUOUS
 10
83.5650944753
 20
176.4118730189
  0
VERTEX
  8
0
 62
7
  6
CONTINUOUS
 10
83.5464445665
 20
176.4790324873
  0
VERTEX
  8
0
 62
7
  6
CONTINUOUS
 10
83.5246475118
 20
176.549634054
  0
VERTEX
  8
0
 62
7
  6
CONTINUOUS
 10
83.4988775353
 20
176.6243233412
  0
VERTEX
  8
0
 62
7
  6
CONTINUOUS
 10
83.4686093329
 20
176.7025121308
  0
VERTEX
  8
0
 62
7
  6
CONTINUOUS
 10
83.43368322
 20
176.7828019699
  0
VERTEX
  8
0
 62
7
  6
CONTINUOUS
 10
83.3935997217
 20
176.864812829
  0
VERTEX
  8
0
 62
7
  6
CONTINUOUS
 10
83.3471269835
 20
176.9493967136
  0
VERTEX
  8
0
 62
7
  6
CONTINUOUS
 10
83.2926209521
 20
177.0374363626
  0
VERTEX
  8
0
 62
7
  6
CONTINUOUS
 10
83.2285032582
 20
177.1289580668
  0
VERTEX
  8
0
 62
7
  6
CONTINUOUS
 10
83.1532427998
 20
177.2233491857
  0
VERTEX
  8
0
 62
7
  6
CONTINUOUS
 10
83.065767566
 20
177.3190608915
  0
VERTEX
  8
0
 62
7
  6
CONTINUOUS
 10
82.9655775992
 20
177.4138805736
  0
VERTEX
  8
0
 62
7
  6
CONTINUOUS
 10
82.853084335
 20
177.5050235468
  0
VERTEX
  8
0
 62
7
  6
CONTINUOUS
 10
82.7293857357
 20
177.5897324332
  0
VERTEX
  8
0
 62
7
  6
CONTINUOUS
 10
82.5961657778
 20
177.6655544078
  0
VERTEX
  8
0
 62
7
  6
CONTINUOUS
 10
82.4551605574
 20
177.7306932107
  0
VERTEX
  8
0
 62
7
  6
CONTINUOUS
 10
82.3077428338
 20
177.7840059187
  0
VERTEX
  8
0
 62
7
  6
CONTINUOUS
 10
82.1553913595
 20
177.8246215289
  0
VERTEX
  8
0
 62
7
  6
CONTINUOUS
 10
81.9996584966
 20
177.8519354478
  0
VERTEX
  8
0
 62
7
  6
CONTINUOUS
 10
81.8421157899
 20
177.8656049827
  0
VERTEX
  8
0
 62
7
  6
CONTINUOUS
 10
81.7640405649
 20
177.8672839506
  0
SEQEND
  0
POLYLINE
  8
0
 62
7
  6
CONTINUOUS
 66
1
 70
0
  0
VERTEX
  8
0
 62
7
  6
CONTINUOUS
 10
84.4529051825
 20
99.3672839506
  0
VERTEX
  8
0
 62
7
  6
CONTINUOUS
 10
84.4535168434
 20
98.6858797246
  0
VERTEX
  8
0
 62
7
  6
CONTINUOUS
 10
84.455319438
 20
98.0148412064
  0
VERTEX
  8
0
 62
7
  6
CONTINUOUS
 10
84.4581916826
 20
97.3690847191
  0
VERTEX
  8
0
 62
7
  6
CONTINUOUS
 10
84.4620230818
 20
96.7484900885
  0
VERTEX
  8
0
 62
7
  6
CONTINUOUS
 10
84.4667140624
 20
96.1526958893
  0
VERTEX
  8
0
 62
7
  6
CONTINUOUS
 10
84.472175642
 20
95.5811559146
  0
VERTEX
  8
0
 62
7
  6
CONTINUOUS
 10
84.4783292662
 20
95.0331572262
  0
VERTEX
  8
0
 62
7
  6
CONTINUOUS
 10
84.4851063908
 20
94.5078644228
  0
VERTEX
  8
0
 62
7
  6
CONTINUOUS
 10
84.4924480424
 20
94.0043523072
  0
VERTEX
  8
0
 62
7
  6
CONTINUOUS
 10
84.5003010797
 20
93.5218251523
  0
VERTEX
  8
0
 62
7
  6
CONTINUOUS
 10
84.5086023797
 20
93.0603665484
  0
VERTEX
  8
0
 62
7
  6
CONTINUOUS
 10
84.5172852443
 20
92.6202331872
  0
VERTEX
  8
0
 62
7
  6
CONTINUOUS
 10
84.5262839239
 20
92.2015566312
  0
VERTEX
  8
0
 62
7
  6
CONTINUOUS
 10
84.535533911
 20
91.8043511823
  0
VERTEX
  8
0
 62
7
  6
CONTINUOUS
 10
84.5449724264
 20
91.428513714
  0
VERTEX
  8
0
 62
7
  6
CONTINUOUS
 10
84.5545489407
 20
91.073466201
  0
VERTEX
  8
0
 62
7
  6
CONTINUOUS
 10
84.5642315403
 20
90.7380781178
  0
VERTEX
  8
0
 62
7
  6
CONTINUOUS
 10
84.573995233
 20
90.4211965144
  0
VERTEX
  8
0
 62
7
  6
CONTINUOUS
 10
84.5838205826
 20
90.1216939538
  0
VERTEX
  8
0
 62
7
  6
CONTINUOUS
 10
84.593693129
 20
89.8384795824
  0
VERTEX
  8
0
 62
7
  6
CONTINUOUS
 10
84.6036029883
 20
89.5705062451
  0
VERTEX
  8
0
 62
7
  6
CONTINUOUS
 10
84.6135447099
 20
89.3167690888
  0
VERTEX
  8
0
 62
7
  6
CONTINUOUS
 10
84.6235169349
 20
89.0763089835
  0
VERTEX
  8
0
 62
7
  6
CONTINUOUS
 10
84.6335221754
 20
88.8482169313
  0
VERTEX
  8
0
 62
7
  6
CONTINUOUS
 10
84.6435666267
 20
88.6316339034
  0
VERTEX
  8
0
 62
7
  6
CONTINUOUS
 10
84.6536573851
 20
88.4258053745
  0
VERTEX
  8
0
 62
7
  6
CONTINUOUS
 10
84.6637874852
 20
88.2303477911
  0
VERTEX
  8
0
 62
7
  6
CONTINUOUS
 10
84.6739445703
 20
88.045004981
  0
VERTEX
  8
0
 62
7
  6
CONTINUOUS
 10
84.6841177756
 20
87.8695023664
  0
VERTEX
  8
0
 62
7
  6
CONTINUOUS
 10
84.6942978648
 20
87.7035457834
  0
VERTEX
  8
0
 62
7
  6
CONTINUOUS
 10
84.7044774456
 20
87.54682492
  0
VERTEX
  8
0
 62
7
  6
CONTINUOUS
 10
84.7146513204
 20
87.3990099143
  0
VERTEX
  8
0
 62
7
  6
CONTINUOUS
 10
84.7248166835
 20
87.2597562676
  0
VERTEX
  8
0
 62
7
  6
CONTINUOUS
 10
84.7349711106
 20
87.1287327153
  0
VERTEX
  8
0
 62
7
  6
CONTINUOUS
 10
84.7451031473
 20
87.0057310201
  0
VERTEX
  8
0
 62
7
  6
CONTINUOUS
 10
84.7552010766
 20
86.8905298906
  0
VERTEX
  8
0
 62
7
  6
CONTINUOUS
 10
84.7652564168
 20
86.7828586613
  0
VERTEX
  8
0
 62
7
  6
CONTINUOUS
 10
84.775264674
 20
86.6823966422
  0
VERTEX
  8
0
 62
7
  6
CONTINUOUS
 10
84.7852261139
 20
86.5887789403
  0
VERTEX
  8
0
 62
7
  6
CONTINUOUS
 10
84.795153612
 20
86.5015385978
  0
VERTEX
  8
0
 62
7
  6
CONTINUOUS
 10
84.8050795643
 20
86.4200853055
  0
VERTEX
  8
0
 62
7
  6
CONTINUOUS
 10
84.8150465097
 20
86.3438195639
  0
VERTEX
  8
0
 62
7
  6
CONTINUOUS
 10
84.8251183744
 20
86.2720692945
  0
VERTEX
  8
0
 62
7
  6
CONTINUOUS
 10
84.8354006954
 20
86.2040011204
  0
VERTEX
  8
0
 62
7
  6
CONTINUOUS
 10
84.8460319927
 20
86.1387491089
  0
VERTEX
  8
0
 62
7
  6
CONTINUOUS
 10
84.8571947391
 20
86.0754031631
  0
VERTEX
  8
0
 62
7
  6
CONTINUOUS
 10
84.8691322099
 20
86.0129869809
  0
VERTEX
  8
0
 62
7
  6
CONTINUOUS
 10
84.882145164
 20
85.9505568965
  0
VERTEX
  8
0
 62
7
  6
CONTINUOUS
 10
84.8965599695
 20
85.8873958256
  0
VERTEX
  8
0
 62
7
  6
CONTINUOUS
 10
84.9128072786
 20
85.8226929118
  0
VERTEX
  8
0
 62
7
  6
CONTINUOUS
 10
84.9314572898
 20
85.7555332865
  0
VERTEX
  8
0
 62
7
  6
CONTINUOUS
 10
84.953254459
 20
85.6849315881
  0
VERTEX
  8
0
 62
7
  6
CONTINUOUS
 10
84.9790245481
 20
85.6102422348
  0
VERTEX
  8
0
 62
7
  6
CONTINUOUS
 10
85.0092929206
 20
85.5320532842
  0
VERTEX
  8
0
 62
7
  6
CONTINUOUS
 10
85.0442192658
 20
85.4517632151
  0
VERTEX
  8
0
 62
7
  6
CONTINUOUS
 10
85.0843030346
 20
85.3697521327
  0
VERTEX
  8
0
 62
7
  6
CONTINUOUS
 10
85.1307759578
 20
85.2851682575
  0
VERTEX
  8
0
 62
7
  6
CONTINUOUS
 10
85.1852819212
 20
85.1971290467
  0
VERTEX
  8
0
 62
7
  6
CONTINUOUS
 10
85.2493994072
 20
85.1056079161
  0
VERTEX
  8
0
 62
7
  6
CONTINUOUS
 10
85.3246599337
 20
85.0112169547
  0
VERTEX
  8
0
 62
7
  6
CONTINUOUS
 10
85.4121354129
 20
84.9155052295
  0
VERTEX
  8
0
 62
7
  6
CONTINUOUS
 10
85.5123255578
 20
84.8206856395
  0
VERTEX
  8
0
 62
7
  6
CONTINUOUS
 10
85.6248188582
 20
84.7295428914
  0
VERTEX
  8
0
 62
7
  6
CONTINUOUS
 10
85.748517369
 20
84.6448342971
  0
VERTEX
  8
0
 62
7
  6
CONTINUOUS
 10
85.8817371518
 20
84.5690126215
  0
VERTEX
  8
0
 62
7
  6
CONTINUOUS
 10
86.0227421562
 20
84.5038740833
  0
VERTEX
  8
0
 62
7
  6
CONTINUOUS
 10
86.1701596321
 20
84.4505615974
  0
VERTEX
  8
0
 62
7
  6
CONTINUOUS
 10
86.3225108301
 20
84.4099461627
  0
VERTEX
  8
0
 62
7
  6
CONTINUOUS
 10
86.4782433911
 20
84.3826323688
  0
VERTEX
  8
0
 62
7
  6
CONTINUOUS
 10
86.6357857733
 20
84.3689629047
  0
VERTEX
  8
0
 62
7
  6
CONTINUOUS
 10
86.7138606841
 20
84.3672839507
  0
SEQEND
  0
LINE
  8
0
 62
7
  6
CONTINUOUS
 10
84.0249960525
 20
156.1478298815
 11
84.0249960525
 21
162.8672839506
  0
LINE
  8
0
 62
7
  6
CONTINUOUS
 10
84.4529051821
 20
106.0867380198
 11
84.4529051821
 21
99.3672839506
  0
LINE
  8
0
 62
7
  6
CONTINUOUS
 10
99.4513902356
 20
151.9925058461
 11
85.7365109186
 21
151.9925058461
  0
LINE
  8
0
 62
7
  6
CONTINUOUS
 10
66.0313902356
 20
151.9925058461
 11
52.3165109186
 21
151.9925058461
  0
POLYLINE
  8
0
 62
7
  6
CONTINUOUS
 66
1
 70
0
  0
VERTEX
  8
0
 62
7
  6
CONTINUOUS
 10
52.3165109186
 20
151.9925060571
  0
VERTEX
  8
0
 62
7
  6
CONTINUOUS
 10
52.2473598622
 20
151.9959613805
  0
VERTEX
  8
0
 62
7
  6
CONTINUOUS
 10
52.1707313959
 20
152.0078832511
  0
VERTEX
  8
0
 62
7
  6
CONTINUOUS
 10
52.0921987533
 20
152.028872805
  0
VERTEX
  8
0
 62
7
  6
CONTINUOUS
 10
52.0125363743
 20
152.059106761
  0
VERTEX
  8
0
 62
7
  6
CONTINUOUS
 10
51.9315446159
 20
152.0989653128
  0
VERTEX
  8
0
 62
7
  6
CONTINUOUS
 10
51.8494067503
 20
152.1487599541
  0
VERTEX
  8
0
 62
7
  6
CONTINUOUS
 10
51.7668058009
 20
152.2084772999
  0
VERTEX
  8
0
 62
7
  6
CONTINUOUS
 10
51.6850105635
 20
152.2774304161
  0
VERTEX
  8
0
 62
7
  6
CONTINUOUS
 10
51.6048003375
 20
152.354993578
  0
VERTEX
  8
0
 62
7
  6
CONTINUOUS
 10
51.5267873295
 20
152.4404978318
  0
VERTEX
  8
0
 62
7
  6
CONTINUOUS
 10
51.4514312304
 20
152.533282124
  0
VERTEX
  8
0
 62
7
  6
CONTINUOUS
 10
51.3789270635
 20
152.6329205286
  0
VERTEX
  8
0
 62
7
  6
CONTINUOUS
 10
51.3092551266
 20
152.7393046579
  0
VERTEX
  8
0
 62
7
  6
CONTINUOUS
 10
51.2425204093
 20
152.8521980177
  0
VERTEX
  8
0
 62
7
  6
CONTINUOUS
 10
51.1788471637
 20
152.9713315577
  0
VERTEX
  8
0
 62
7
  6
CONTINUOUS
 10
51.1182539831
 20
153.0966419173
  0
VERTEX
  8
0
 62
7
  6
CONTINUOUS
 10
51.0607137295
 20
153.2282285347
  0
VERTEX
  8
0
 62
7
  6
CONTINUOUS
 10
51.0062252534
 20
153.3662284226
  0
VERTEX
  8
0
 62
7
  6
CONTINUOUS
 10
50.9548611028
 20
153.5106589996
  0
VERTEX
  8
0
 62
7
  6
CONTINUOUS
 10
50.9066818995
 20
153.6616065475
  0
VERTEX
  8
0
 62
7
  6
CONTINUOUS
 10
50.8617390468
 20
153.8192374263
  0
VERTEX
  8
0
 62
7
  6
CONTINUOUS
 10
50.8200875889
 20
153.983784571
  0
VERTEX
  8
0
 62
7
  6
CONTINUOUS
 10
50.781878801
 20
154.1551175941
  0
VERTEX
  8
0
 62
7
  6
CONTINUOUS
 10
50.7472857443
 20
154.3328512568
  0
VERTEX
  8
0
 62
7
  6
CONTINUOUS
 10
50.7164248915
 20
154.5166380217
  0
VERTEX
  8
0
 62
7
  6
CONTINUOUS
 10
50.6893629173
 20
154.706187977
  0
VERTEX
  8
0
 62
7
  6
CONTINUOUS
 10
50.6661336431
 20
154.9011848151
  0
VERTEX
  8
0
 62
7
  6
CONTINUOUS
 10
50.6467453691
 20
155.1012285558
  0
VERTEX
  8
0
 62
7
  6
CONTINUOUS
 10
50.6311613089
 20
155.3059367658
  0
VERTEX
  8
0
 62
7
  6
CONTINUOUS
 10
50.6193126779
 20
155.5149691489
  0
VERTEX
  8
0
 62
7
  6
CONTINUOUS
 10
50.6110936449
 20
155.7280159117
  0
VERTEX
  8
0
 62
7
  6
CONTINUOUS
 10
50.6063748073
 20
155.9448049742
  0
VERTEX
  8
0
 62
7
  6
CONTINUOUS
 10
50.6049959031
 20
156.1478298816
  0
SEQEND
  0
LINE
  8
0
 62
7
  6
CONTINUOUS
 10
100.7349960525
 20
99.3672839506
 11
100.7349960525
 21
106.0867380231
  0
LINE
  8
0
 62
7
  6
CONTINUOUS
 10
101.1629051821
 20
162.8672839506
 11
101.1629051821
 21
156.1478298781
  0
POLYLINE
  8
0
 62
7
  6
CONTINUOUS
 66
1
 70
0
  0
VERTEX
  8
0
 62
7
  6
CONTINUOUS
 10
100.7349959006
 20
106.0867380231
  0
VERTEX
  8
0
 62
7
  6
CONTINUOUS
 10
100.7363940174
 20
106.2911502391
  0
VERTEX
  8
0
 62
7
  6
CONTINUOUS
 10
100.7411340897
 20
106.5078984296
  0
VERTEX
  8
0
 62
7
  6
CONTINUOUS
 10
100.7493747194
 20
106.7209050727
  0
VERTEX
  8
0
 62
7
  6
CONTINUOUS
 10
100.7612452721
 20
106.9298980555
  0
VERTEX
  8
0
 62
7
  6
CONTINUOUS
 10
100.7768515022
 20
107.1345677718
  0
VERTEX
  8
0
 62
7
  6
CONTINUOUS
 10
100.7962621461
 20
107.3345740563
  0
VERTEX
  8
0
 62
7
  6
CONTINUOUS
 10
100.8195139671
 20
107.5295344721
  0
VERTEX
  8
0
 62
7
  6
CONTINUOUS
 10
100.8465986099
 20
107.7190490103
  0
VERTEX
  8
0
 62
7
  6
CONTINUOUS
 10
100.8774822299
 20
107.9028012427
  0
VERTEX
  8
0
 62
7
  6
CONTINUOUS
 10
100.9120981728
 20
108.0805013953
  0
VERTEX
  8
0
 62
7
  6
CONTINUOUS
 10
100.9503299912
 20
108.2518019975
  0
VERTEX
  8
0
 62
7
  6
CONTINUOUS
 10
100.9920046318
 20
108.4163177433
  0
VERTEX
  8
0
 62
7
  6
CONTINUOUS
 10
101.036970647
 20
108.5739174637
  0
VERTEX
  8
0
 62
7
  6
CONTINUOUS
 10
101.0851729953
 20
108.7248337748
  0
VERTEX
  8
0
 62
7
  6
CONTINUOUS
 10
101.1365602899
 20
108.8692328742
  0
VERTEX
  8
0
 62
7
  6
CONTINUOUS
 10
101.1910718846
 20
109.0072007611
  0
VERTEX
  8
0
 62
7
  6
CONTINUOUS
 10
101.2486350988
 20
109.1387544054
  0
VERTEX
  8
0
 62
7
  6
CONTINUOUS
 10
101.3092510452
 20
109.2640305602
  0
VERTEX
  8
0
 62
7
  6
CONTINUOUS
 10
101.3729470454
 20
109.3831287791
  0
VERTEX
  8
0
 62
7
  6
CONTINUOUS
 10
101.4397045883
 20
109.4959855928
  0
VERTEX
  8
0
 62
7
  6
CONTINUOUS
 10
101.5093994321
 20
109.60233173
  0
VERTEX
  8
0
 62
7
  6
CONTINUOUS
 10
101.5819261765
 20
109.7019298521
  0
VERTEX
  8
0
 62
7
  6
CONTINUOUS
 10
101.6573046122
 20
109.7946713736
  0
VERTEX
  8
0
 62
7
  6
CONTINUOUS
 10
101.7353394326
 20
109.8801298234
  0
VERTEX
  8
0
 62
7
  6
CONTINUOUS
 10
101.8155701957
 20
109.9576434009
  0
VERTEX
  8
0
 62
7
  6
CONTINUOUS
 10
101.897383141
 20
110.0265421165
  0
VERTEX
  8
0
 62
7
  6
CONTINUOUS
 10
101.9799943795
 20
110.0861978917
  0
VERTEX
  8
0
 62
7
  6
CONTINUOUS
 10
102.0621298405
 20
110.1359234567
  0
VERTEX
  8
0
 62
7
  6
CONTINUOUS
 10
102.1431078227
 20
110.1757097919
  0
VERTEX
  8
0
 62
7
  6
CONTINUOUS
 10
102.2227513401
 20
110.2058735217
  0
VERTEX
  8
0
 62
7
  6
CONTINUOUS
 10
102.301265252
 20
110.2267970664
  0
VERTEX
  8
0
 62
7
  6
CONTINUOUS
 10
102.3778742321
 20
110.2386577835
  0
VERTEX
  8
0
 62
7
  6
CONTINUOUS
 10
102.4465110374
 20
110.2420619519
  0
SEQEND
  0
POLYLINE
  8
0
 62
7
  6
CONTINUOUS
 66
1
 70
0
  0
VERTEX
  8
0
 62
7
  6
CONTINUOUS
 10
101.162905334
 20
156.1478298781
  0
VERTEX
  8
0
 62
7
  6
CONTINUOUS
 10
101.1615072172
 20
155.9434176622
  0
VERTEX
  8
0
 62
7
  6
CONTINUOUS
 10
101.1567671449
 20
155.7266694717
  0
VERTEX
  8
0
 62
7
  6
CONTINUOUS
 10
101.1485265152
 20
155.5136628285
  0
VERTEX
  8
0
 62
7
  6
CONTINUOUS
 10
101.1366559625
 20
155.3046698458
  0
VERTEX
  8
0
 62
7
  6
CONTINUOUS
 10
101.1210497324
 20
155.1000001294
  0
VERTEX
  8
0
 62
7
  6
CONTINUOUS
 10
101.1016390885
 20
154.8999938449
  0
VERTEX
  8
0
 62
7
  6
CONTINUOUS
 10
101.0783872674
 20
154.7050334292
  0
VERTEX
  8
0
 62
7
  6
CONTINUOUS
 10
101.0513026246
 20
154.515518891
  0
VERTEX
  8
0
 62
7
  6
CONTINUOUS
 10
101.0204190047
 20
154.3317666585
  0
VERTEX
  8
0
 62
7
  6
CONTINUOUS
 10
100.9858030618
 20
154.1540665059
  0
VERTEX
  8
0
 62
7
  6
CONTINUOUS
 10
100.9475712433
 20
153.9827659038
  0
VERTEX
  8
0
 62
7
  6
CONTINUOUS
 10
100.9058966028
 20
153.8182501579
  0
VERTEX
  8
0
 62
7
  6
CONTINUOUS
 10
100.8609305876
 20
153.6606504376
  0
VERTEX
  8
0
 62
7
  6
CONTINUOUS
 10
100.8127282393
 20
153.5097341264
  0
VERTEX
  8
0
 62
7
  6
CONTINUOUS
 10
100.7613409447
 20
153.3653350271
  0
VERTEX
  8
0
 62
7
  6
CONTINUOUS
 10
100.70682935
 20
153.2273671401
  0
VERTEX
  8
0
 62
7
  6
CONTINUOUS
 10
100.6492661358
 20
153.0958134958
  0
VERTEX
  8
0
 62
7
  6
CONTINUOUS
 10
100.5886501894
 20
152.970537341
  0
VERTEX
  8
0
 62
7
  6
CONTINUOUS
 10
100.5249541892
 20
152.8514391221
  0
VERTEX
  8
0
 62
7
  6
CONTINUOUS
 10
100.4581966462
 20
152.7385823084
  0
VERTEX
  8
0
 62
7
  6
CONTINUOUS
 10
100.3885018024
 20
152.6322361712
  0
VERTEX
  8
0
 62
7
  6
CONTINUOUS
 10
100.3159750581
 20
152.5326380491
  0
VERTEX
  8
0
 62
7
  6
CONTINUOUS
 10
100.2405966223
 20
152.4398965277
  0
VERTEX
  8
0
 62
7
  6
CONTINUOUS
 10
100.1625618019
 20
152.3544380778
  0
VERTEX
  8
0
 62
7
  6
CONTINUOUS
 10
100.0823310389
 20
152.2769245003
  0
VERTEX
  8
0
 62
7
  6
CONTINUOUS
 10
100.0005180936
 20
152.2080257847
  0
VERTEX
  8
0
 62
7
  6
CONTINUOUS
 10
99.9179068551
 20
152.1483700096
  0
VERTEX
  8
0
 62
7
  6
CONTINUOUS
 10
99.8357713941
 20
152.0986444445
  0
VERTEX
  8
0
 62
7
  6
CONTINUOUS
 10
99.7547934119
 20
152.0588581093
  0
VERTEX
  8
0
 62
7
  6
CONTINUOUS
 10
99.6751498945
 20
152.0286943795
  0
VERTEX
  8
0
 62
7
  6
CONTINUOUS
 10
99.5966359826
 20
152.0077708348
  0
VERTEX
  8
0
 62
7
  6
CONTINUOUS
 10
99.5200270025
 20
151.9959101177
  0
VERTEX
  8
0
 62
7
  6
CONTINUOUS
 10
99.4513901972
 20
151.9925059493
  0
SEQEND
  0
POLYLINE
  8
0
 62
7
  6
CONTINUOUS
 66
1
 70
0
  0
VERTEX
  8
0
 62
7
  6
CONTINUOUS
 10
85.7365109186
 20
151.9925060571
  0
VERTEX
  8
0
 62
7
  6
CONTINUOUS
 10
85.6673598622
 20
151.9959613805
  0
VERTEX
  8
0
 62
7
  6
CONTINUOUS
 10
85.5907313959
 20
152.0078832511
  0
VERTEX
  8
0
 62
7
  6
CONTINUOUS
 10
85.5121987533
 20
152.028872805
  0
VERTEX
  8
0
 62
7
  6
CONTINUOUS
 10
85.4325363743
 20
152.059106761
  0
VERTEX
  8
0
 62
7
  6
CONTINUOUS
 10
85.3515446159
 20
152.0989653128
  0
VERTEX
  8
0
 62
7
  6
CONTINUOUS
 10
85.2694067503
 20
152.1487599541
  0
VERTEX
  8
0
 62
7
  6
CONTINUOUS
 10
85.1868058009
 20
152.2084772999
  0
VERTEX
  8
0
 62
7
  6
CONTINUOUS
 10
85.1050105635
 20
152.2774304161
  0
VERTEX
  8
0
 62
7
  6
CONTINUOUS
 10
85.0248003375
 20
152.354993578
  0
VERTEX
  8
0
 62
7
  6
CONTINUOUS
 10
84.9467873295
 20
152.4404978318
  0
VERTEX
  8
0
 62
7
  6
CONTINUOUS
 10
84.8714312304
 20
152.533282124
  0
VERTEX
  8
0
 62
7
  6
CONTINUOUS
 10
84.7989270635
 20
152.6329205286
  0
VERTEX
  8
0
 62
7
  6
CONTINUOUS
 10
84.7292551266
 20
152.7393046579
  0
VERTEX
  8
0
 62
7
  6
CONTINUOUS
 10
84.6625204093
 20
152.8521980177
  0
VERTEX
  8
0
 62
7
  6
CONTINUOUS
 10
84.5988471637
 20
152.9713315577
  0
VERTEX
  8
0
 62
7
  6
CONTINUOUS
 10
84.5382539831
 20
153.0966419173
  0
VERTEX
  8
0
 62
7
  6
CONTINUOUS
 10
84.4807137295
 20
153.2282285347
  0
VERTEX
  8
0
 62
7
  6
CONTINUOUS
 10
84.4262252534
 20
153.3662284226
  0
VERTEX
  8
0
 62
7
  6
CONTINUOUS
 10
84.3748611028
 20
153.5106589996
  0
VERTEX
  8
0
 62
7
  6
CONTINUOUS
 10
84.3266818995
 20
153.6616065475
  0
VERTEX
  8
0
 62
7
  6
CONTINUOUS
 10
84.2817390468
 20
153.8192374263
  0
VERTEX
  8
0
 62
7
  6
CONTINUOUS
 10
84.2400875889
 20
153.983784571
  0
VERTEX
  8
0
 62
7
  6
CONTINUOUS
 10
84.201878801
 20
154.1551175941
  0
VERTEX
  8
0
 62
7
  6
CONTINUOUS
 10
84.1672857443
 20
154.3328512568
  0
VERTEX
  8
0
 62
7
  6
CONTINUOUS
 10
84.1364248915
 20
154.5166380217
  0
VERTEX
  8
0
 62
7
  6
CONTINUOUS
 10
84.1093629173
 20
154.706187977
  0
VERTEX
  8
0
 62
7
  6
CONTINUOUS
 10
84.0861336431
 20
154.9011848151
  0
VERTEX
  8
0
 62
7
  6
CONTINUOUS
 10
84.0667453691
 20
155.1012285558
  0
VERTEX
  8
0
 62
7
  6
CONTINUOUS
 10
84.0511613089
 20
155.3059367658
  0
VERTEX
  8
0
 62
7
  6
CONTINUOUS
 10
84.0393126779
 20
155.5149691489
  0
VERTEX
  8
0
 62
7
  6
CONTINUOUS
 10
84.0310936449
 20
155.7280159117
  0
VERTEX
  8
0
 62
7
  6
CONTINUOUS
 10
84.0263748073
 20
155.9448049742
  0
VERTEX
  8
0
 62
7
  6
CONTINUOUS
 10
84.0249959031
 20
156.1478298816
  0
SEQEND
  0
LINE
  8
DEFAULT_1
 62
7
  6
CENTER
 10
33.3839506173
 20
162.8672839506
 11
118.3839506173
 21
162.8672839506
  0
LINE
  8
0
 62
7
  6
CONTINUOUS
 10
116.3839506173
 20
112.0420608662
 11
116.3839506173
 21
176.0672839506
  0
POLYLINE
  8
0
 62
7
  6
CONTINUOUS
 66
1
 70
0
  0
VERTEX
  8
0
 62
7
  6
CONTINUOUS
 10
116.3839506173
 20
112.0420620552
  0
VERTEX
  8
0
 62
7
  6
CONTINUOUS
 10
116.3777129053
 20
111.8923394649
  0
VERTEX
  8
0
 62
7
  6
CONTINUOUS
 10
116.3591189976
 20
111.7441069891
  0
VERTEX
  8
0
 62
7
  6
CONTINUOUS
 10
116.3295788366
 20
111.6029924479
  0
VERTEX
  8
0
 62
7
  6
CONTINUOUS
 10
116.2891574167
 20
111.4656335936
  0
VERTEX
  8
0
 62
7
  6
CONTINUOUS
 10
116.2360931139
 20
111.3276215951
  0
VERTEX
  8
0
 62
7
  6
CONTINUOUS
 10
116.1783933149
 20
111.2067462562
  0
VERTEX
  8
0
 62
7
  6
CONTINUOUS
 10
116.1091425917
 20
111.0861387104
  0
VERTEX
  8
0
 62
7
  6
CONTINUOUS
 10
116.0268526284
 20
110.9659422726
  0
VERTEX
  8
0
 62
7
  6
CONTINUOUS
 10
115.9444518158
 20
110.8634881335
  0
VERTEX
  8
0
 62
7
  6
CONTINUOUS
 10
115.8536608506
 20
110.7661953209
  0
VERTEX
  8
0
 62
7
  6
CONTINUOUS
 10
115.7506252384
 20
110.6713431459
  0
VERTEX
  8
0
 62
7
  6
CONTINUOUS
 10
115.6340522067
 20
110.5801158688
  0
VERTEX
  8
0
 62
7
  6
CONTINUOUS
 10
115.5202758072
 20
110.5047608034
  0
VERTEX
  8
0
 62
7
  6
CONTINUOUS
 10
115.394791025
 20
110.435034416
  0
VERTEX
  8
0
 62
7
  6
CONTINUOUS
 10
115.2650456238
 20
110.3758959194
  0
VERTEX
  8
0
 62
7
  6
CONTINUOUS
 10
115.1270759319
 20
110.3259574859
  0
VERTEX
  8
0
 62
7
  6
CONTINUOUS
 10
114.9849532418
 20
110.2872979984
  0
VERTEX
  8
0
 62
7
  6
CONTINUOUS
 10
114.8402287269
 20
110.2603994804
  0
VERTEX
  8
0
 62
7
  6
CONTINUOUS
 10
114.6915729872
 20
110.2452823176
  0
VERTEX
  8
0
 62
7
  6
CONTINUOUS
 10
114.5839506173
 20
110.2420620552
  0
SEQEND
  0
POLYLINE
  8
0
 62
7
  6
CONTINUOUS
 66
1
 70
0
  0
VERTEX
  8
0
 62
7
  6
CONTINUOUS
 10
103.4238606693
 20
177.8672839506
  0
VERTEX
  8
0
 62
7
  6
CONTINUOUS
 10
103.3457982153
 20
177.8656055322
  0
VERTEX
  8
0
 62
7
  6
CONTINUOUS
 10
103.1882681211
 20
177.8519387686
  0
VERTEX
  8
0
 62
7
  6
CONTINUOUS
 10
103.0325473234
 20
177.8246297905
  0
VERTEX
  8
0
 62
7
  6
CONTINUOUS
 10
102.8802069904
 20
177.7840211568
  0
VERTEX
  8
0
 62
7
  6
CONTINUOUS
 10
102.7327991116
 20
177.730717236
  0
VERTEX
  8
0
 62
7
  6
CONTINUOUS
 10
102.5918021249
 20
177.6655887248
  0
VERTEX
  8
0
 62
7
  6
CONTINUOUS
 10
102.4585884256
 20
177.5897780945
  0
VERTEX
  8
0
 62
7
  6
CONTINUOUS
 10
102.3348934715
 20
177.5050807261
  0
VERTEX
  8
0
 62
7
  6
CONTINUOUS
 10
102.2224011511
 20
177.413948609
  0
VERTEX
  8
0
 62
7
  6
CONTINUOUS
 10
102.1222095748
 20
177.3191383096
  0
VERTEX
  8
0
 62
7
  6
CONTINUOUS
 10
102.034730749
 20
177.223434083
  0
VERTEX
  8
0
 62
7
  6
CONTINUOUS
 10
101.9594653978
 20
177.1290484622
  0
VERTEX
  8
0
 62
7
  6
CONTINUOUS
 10
101.8953423421
 20
177.0375307651
  0
VERTEX
  8
0
 62
7
  6
CONTINUOUS
 10
101.8408311311
 20
176.9494943865
  0
VERTEX
  8
0
 62
7
  6
CONTINUOUS
 10
101.7943539056
 20
176.8649140364
  0
VERTEX
  8
0
 62
7
  6
CONTINUOUS
 10
101.7542665205
 20
176.782907234
  0
VERTEX
  8
0
 62
7
  6
CONTINUOUS
 10
101.7193366568
 20
176.7026212788
  0
VERTEX
  8
0
 62
7
  6
CONTINUOUS
 10
101.6890640533
 20
176.624433913
  0
VERTEX
  8
0
 62
7
  6
CONTINUOUS
 10
101.6632894643
 20
176.5497437596
  0
VERTEX
  8
0
 62
7
  6
CONTINUOUS
 10
101.6414881982
 20
176.4791403564
  0
VERTEX
  8
0
 62
7
  6
CONTINUOUS
 10
101.6228348132
 20
176.4119794183
  0
VERTEX
  8
0
 62
7
  6
CONTINUOUS
 10
101.6065847767
 20
176.3472758404
  0
VERTEX
  8
0
 62
7
  6
CONTINUOUS
 10
101.5921678017
 20
176.284114916
  0
VERTEX
  8
0
 62
7
  6
CONTINUOUS
 10
101.5791531542
 20
176.2216859205
  0
VERTEX
  8
0
 62
7
  6
CONTINUOUS
 10
101.5672143184
 20
176.1592714691
  0
VERTEX
  8
0
 62
7
  6
CONTINUOUS
 10
101.556050364
 20
176.0959272702
  0
VERTEX
  8
0
 62
7
  6
CONTINUOUS
 10
101.5454179744
 20
176.0306769568
  0
VERTEX
  8
0
 62
7
  6
CONTINUOUS
 10
101.5351346223
 20
175.9626102064
  0
VERTEX
  8
0
 62
7
  6
CONTINUOUS
 10
101.5250617458
 20
175.8908608363
  0
VERTEX
  8
0
 62
7
  6
CONTINUOUS
 10
101.5150938325
 20
175.8145956593
  0
VERTEX
  8
0
 62
7
  6
CONTINUOUS
 10
101.5051670088
 20
175.7331430685
  0
VERTEX
  8
0
 62
7
  6
CONTINUOUS
 10
101.4952387377
 20
175.6459036774
  0
VERTEX
  8
0
 62
7
  6
CONTINUOUS
 10
101.4852766391
 20
175.552287469
  0
VERTEX
  8
0
 62
7
  6
CONTINUOUS
 10
101.4752678718
 20
175.4518279959
  0
VERTEX
  8
0
 62
7
  6
CONTINUOUS
 10
101.4652121606
 20
175.3441605147
  0
VERTEX
  8
0
 62
7
  6
CONTINUOUS
 10
101.4551139818
 20
175.2289643853
  0
VERTEX
  8
0
 62
7
  6
CONTINUOUS
 10
101.4449818102
 20
175.1059690966
  0
VERTEX
  8
0
 62
7
  6
CONTINUOUS
 10
101.4348273523
 20
174.9749534755
  0
VERTEX
  8
0
 62
7
  6
CONTINUOUS
 10
101.4246620242
 20
174.8357089893
  0
VERTEX
  8
0
 62
7
  6
CONTINUOUS
 10
101.4144882171
 20
174.6879040751
  0
VERTEX
  8
0
 62
7
  6
CONTINUOUS
 10
101.4043087378
 20
174.5311943617
  0
VERTEX
  8
0
 62
7
  6
CONTINUOUS
 10
101.3941287821
 20
174.3652501016
  0
VERTEX
  8
0
 62
7
  6
CONTINUOUS
 10
101.3839557431
 20
174.189761138
  0
VERTEX
  8
0
 62
7
  6
CONTINUOUS
 10
101.3737988556
 20
174.0044334414
  0
VERTEX
  8
0
 62
7
  6
CONTINUOUS
 10
101.3636689845
 20
173.8089926161
  0
VERTEX
  8
0
 62
7
  6
CONTINUOUS
 10
101.353578484
 20
173.6031826307
  0
VERTEX
  8
0
 62
7
  6
CONTINUOUS
 10
101.3435342799
 20
173.3866192926
  0
VERTEX
  8
0
 62
7
  6
CONTINUOUS
 10
101.3335292562
 20
173.158547729
  0
VERTEX
  8
0
 62
7
  6
CONTINUOUS
 10
101.3235572179
 20
172.9181090157
  0
VERTEX
  8
0
 62
7
  6
CONTINUOUS
 10
101.3136156534
 20
172.6643942643
  0
VERTEX
  8
0
 62
7
  6
CONTINUOUS
 10
101.303705921
 20
172.3964444547
  0
VERTEX
  8
0
 62
7
  6
CONTINUOUS
 10
101.29383347
 20
172.1132548682
  0
VERTEX
  8
0
 62
7
  6
CONTINUOUS
 10
101.2840081824
 20
171.8137784721
  0
VERTEX
  8
0
 62
7
  6
CONTINUOUS
 10
101.2742445126
 20
171.4969244623
  0
VERTEX
  8
0
 62
7
  6
CONTINUOUS
 10
101.2645618878
 20
171.1615653446
  0
VERTEX
  8
0
 62
7
  6
CONTINUOUS
 10
101.2549852906
 20
170.8065480719
  0
VERTEX
  8
0
 62
7
  6
CONTINUOUS
 10
101.2455466315
 20
170.4307422551
  0
VERTEX
  8
0
 62
7
  6
CONTINUOUS
 10
101.236296455
 20
170.0335708325
  0
VERTEX
  8
0
 62
7
  6
CONTINUOUS
 10
101.2272975343
 20
169.6149309029
  0
VERTEX
  8
0
 62
7
  6
CONTINUOUS
 10
101.2186143674
 20
169.1748368935
  0
VERTEX
  8
0
 62
7
  6
CONTINUOUS
 10
101.2103126931
 20
168.7134204766
  0
VERTEX
  8
0
 62
7
  6
CONTINUOUS
 10
101.2024591973
 20
168.2309384311
  0
VERTEX
  8
0
 62
7
  6
CONTINUOUS
 10
101.1951169796
 20
167.7274737611
  0
VERTEX
  8
0
 62
7
  6
CONTINUOUS
 10
101.1883391613
 20
167.2022303418
  0
VERTEX
  8
0
 62
7
  6
CONTINUOUS
 10
101.1821847017
 20
166.6542830629
  0
VERTEX
  8
0
 62
7
  6
CONTINUOUS
 10
101.1767221283
 20
166.082796568
  0
VERTEX
  8
0
 62
7
  6
CONTINUOUS
 10
101.1720299762
 20
165.4870579063
  0
VERTEX
  8
0
 62
7
  6
CONTINUOUS
 10
101.1681972054
 20
164.8665206995
  0
VERTEX
  8
0
 62
7
  6
CONTINUOUS
 10
101.1653233654
 20
164.2208234131
  0
VERTEX
  8
0
 62
7
  6
CONTINUOUS
 10
101.1635189248
 20
163.5498458164
  0
VERTEX
  8
0
 62
7
  6
CONTINUOUS
 10
101.1629051825
 20
162.8672839506
  0
SEQEND
  0
POLYLINE
  8
0
 62
7
  6
CONTINUOUS
 66
1
 70
0
  0
VERTEX
  8
0
 62
7
  6
CONTINUOUS
 10
70.0038606693
 20
177.8672839506
  0
VERTEX
  8
0
 62
7
  6
CONTINUOUS
 10
69.9257982153
 20
177.8656055322
  0
VERTEX
  8
0
 62
7
  6
CONTINUOUS
 10
69.7682681211
 20
177.8519387686
  0
VERTEX
  8
0
 62
7
  6
CONTINUOUS
 10
69.6125473234
 20
177.8246297905
  0
VERTEX
  8
0
 62
7
  6
CONTINUOUS
 10
69.4602069904
 20
177.7840211568
  0
VERTEX
  8
0
 62
7
  6
CONTINUOUS
 10
69.3127991116
 20
177.730717236
  0
VERTEX
  8
0
 62
7
  6
CONTINUOUS
 10
69.1718021249
 20
177.6655887248
  0
VERTEX
  8
0
 62
7
  6
CONTINUOUS
 10
69.0385884256
 20
177.5897780945
  0
VERTEX
  8
0
 62
7
  6
CONTINUOUS
 10
68.9148934715
 20
177.5050807261
  0
VERTEX
  8
0
 62
7
  6
CONTINUOUS
 10
68.8024011511
 20
177.4139486091
  0
VERTEX
  8
0
 62
7
  6
CONTINUOUS
 10
68.7022095748
 20
177.3191383096
  0
VERTEX
  8
0
 62
7
  6
CONTINUOUS
 10
68.614730749
 20
177.223434083
  0
VERTEX
  8
0
 62
7
  6
CONTINUOUS
 10
68.5394653978
 20
177.1290484622
  0
VERTEX
  8
0
 62
7
  6
CONTINUOUS
 10
68.4753423421
 20
177.0375307651
  0
VERTEX
  8
0
 62
7
  6
CONTINUOUS
 10
68.4208311311
 20
176.9494943865
  0
VERTEX
  8
0
 62
7
  6
CONTINUOUS
 10
68.3743539056
 20
176.8649140364
  0
VERTEX
  8
0
 62
7
  6
CONTINUOUS
 10
68.3342665205
 20
176.782907234
  0
VERTEX
  8
0
 62
7
  6
CONTINUOUS
 10
68.2993366568
 20
176.7026212788
  0
VERTEX
  8
0
 62
7
  6
CONTINUOUS
 10
68.2690640533
 20
176.624433913
  0
VERTEX
  8
0
 62
7
  6
CONTINUOUS
 10
68.2432894643
 20
176.5497437596
  0
VERTEX
  8
0
 62
7
  6
CONTINUOUS
 10
68.2214881982
 20
176.4791403564
  0
VERTEX
  8
0
 62
7
  6
CONTINUOUS
 10
68.2028348132
 20
176.4119794183
  0
VERTEX
  8
0
 62
7
  6
CONTINUOUS
 10
68.1865847767
 20
176.3472758404
  0
VERTEX
  8
0
 62
7
  6
CONTINUOUS
 10
68.1721678017
 20
176.284114916
  0
VERTEX
  8
0
 62
7
  6
CONTINUOUS
 10
68.1591531542
 20
176.2216859205
  0
VERTEX
  8
0
 62
7
  6
CONTINUOUS
 10
68.1472143184
 20
176.1592714691
  0
VERTEX
  8
0
 62
7
  6
CONTINUOUS
 10
68.136050364
 20
176.0959272702
  0
VERTEX
  8
0
 62
7
  6
CONTINUOUS
 10
68.1254179744
 20
176.0306769568
  0
VERTEX
  8
0
 62
7
  6
CONTINUOUS
 10
68.1151346223
 20
175.9626102064
  0
VERTEX
  8
0
 62
7
  6
CONTINUOUS
 10
68.1050617458
 20
175.8908608363
  0
VERTEX
  8
0
 62
7
  6
CONTINUOUS
 10
68.0950938325
 20
175.8145956593
  0
VERTEX
  8
0
 62
7
  6
CONTINUOUS
 10
68.0851670088
 20
175.7331430685
  0
VERTEX
  8
0
 62
7
  6
CONTINUOUS
 10
68.0752387377
 20
175.6459036774
  0
VERTEX
  8
0
 62
7
  6
CONTINUOUS
 10
68.0652766391
 20
175.552287469
  0
VERTEX
  8
0
 62
7
  6
CONTINUOUS
 10
68.0552678718
 20
175.4518279959
  0
VERTEX
  8
0
 62
7
  6
CONTINUOUS
 10
68.0452121606
 20
175.3441605147
  0
VERTEX
  8
0
 62
7
  6
CONTINUOUS
 10
68.0351139818
 20
175.2289643853
  0
VERTEX
  8
0
 62
7
  6
CONTINUOUS
 10
68.0249818102
 20
175.1059690966
  0
VERTEX
  8
0
 62
7
  6
CONTINUOUS
 10
68.0148273523
 20
174.9749534755
  0
VERTEX
  8
0
 62
7
  6
CONTINUOUS
 10
68.0046620242
 20
174.8357089893
  0
VERTEX
  8
0
 62
7
  6
CONTINUOUS
 10
67.9944882171
 20
174.6879040751
  0
VERTEX
  8
0
 62
7
  6
CONTINUOUS
 10
67.9843087378
 20
174.5311943617
  0
VERTEX
  8
0
 62
7
  6
CONTINUOUS
 10
67.9741287821
 20
174.3652501016
  0
VERTEX
  8
0
 62
7
  6
CONTINUOUS
 10
67.9639557431
 20
174.189761138
  0
VERTEX
  8
0
 62
7
  6
CONTINUOUS
 10
67.9537988556
 20
174.0044334414
  0
VERTEX
  8
0
 62
7
  6
CONTINUOUS
 10
67.9436689845
 20
173.8089926161
  0
VERTEX
  8
0
 62
7
  6
CONTINUOUS
 10
67.933578484
 20
173.6031826307
  0
VERTEX
  8
0
 62
7
  6
CONTINUOUS
 10
67.9235342799
 20
173.3866192926
  0
VERTEX
  8
0
 62
7
  6
CONTINUOUS
 10
67.9135292562
 20
173.158547729
  0
VERTEX
  8
0
 62
7
  6
CONTINUOUS
 10
67.9035572179
 20
172.9181090157
  0
VERTEX
  8
0
 62
7
  6
CONTINUOUS
 10
67.8936156534
 20
172.6643942643
  0
VERTEX
  8
0
 62
7
  6
CONTINUOUS
 10
67.883705921
 20
172.3964444547
  0
VERTEX
  8
0
 62
7
  6
CONTINUOUS
 10
67.87383347
 20
172.1132548682
  0
VERTEX
  8
0
 62
7
  6
CONTINUOUS
 10
67.8640081824
 20
171.8137784721
  0
VERTEX
  8
0
 62
7
  6
CONTINUOUS
 10
67.8542445126
 20
171.4969244623
  0
VERTEX
  8
0
 62
7
  6
CONTINUOUS
 10
67.8445618878
 20
171.1615653446
  0
VERTEX
  8
0
 62
7
  6
CONTINUOUS
 10
67.8349852906
 20
170.8065480719
  0
VERTEX
  8
0
 62
7
  6
CONTINUOUS
 10
67.8255466315
 20
170.4307422551
  0
VERTEX
  8
0
 62
7
  6
CONTINUOUS
 10
67.816296455
 20
170.0335708325
  0
VERTEX
  8
0
 62
7
  6
CONTINUOUS
 10
67.8072975343
 20
169.6149309029
  0
VERTEX
  8
0
 62
7
  6
CONTINUOUS
 10
67.7986143674
 20
169.1748368935
  0
VERTEX
  8
0
 62
7
  6
CONTINUOUS
 10
67.7903126931
 20
168.7134204766
  0
VERTEX
  8
0
 62
7
  6
CONTINUOUS
 10
67.7824591973
 20
168.2309384311
  0
VERTEX
  8
0
 62
7
  6
CONTINUOUS
 10
67.7751169796
 20
167.7274737611
  0
VERTEX
  8
0
 62
7
  6
CONTINUOUS
 10
67.7683391613
 20
167.2022303418
  0
VERTEX
  8
0
 62
7
  6
CONTINUOUS
 10
67.7621847017
 20
166.6542830629
  0
VERTEX
  8
0
 62
7
  6
CONTINUOUS
 10
67.7567221283
 20
166.082796568
  0
VERTEX
  8
0
 62
7
  6
CONTINUOUS
 10
67.7520299762
 20
165.4870579063
  0
VERTEX
  8
0
 62
7
  6
CONTINUOUS
 10
67.7481972054
 20
164.8665206995
  0
VERTEX
  8
0
 62
7
  6
CONTINUOUS
 10
67.7453233654
 20
164.2208234131
  0
VERTEX
  8
0
 62
7
  6
CONTINUOUS
 10
67.7435189248
 20
163.5498458164
  0
VERTEX
  8
0
 62
7
  6
CONTINUOUS
 10
67.7429051825
 20
162.8672839506
  0
SEQEND
  0
LINE
  8
0
 62
7
  6
CONTINUOUS
 10
114.5839506173
 20
177.8672839506
 11
103.4238593393
 21
177.8672839506
  0
LINE
  8
0
 62
7
  6
CONTINUOUS
 10
81.7640418952
 20
177.8672839506
 11
70.0038593393
 21
177.8672839506
  0
LINE
  8
0
 62
7
  6
CONTINUOUS
 10
48.3440418952
 20
177.8672839506
 11
37.1839506173
 21
177.8672839506
  0
LINE
  8
0
 62
7
  6
CONTINUOUS
 10
35.3839506173
 20
252.0901232217
 11
35.3839506173
 21
225.6901232217
  0
LINE
  8
0
 62
7
  6
CONTINUOUS
 10
51.0340016935
 20
252.0273041276
 11
51.9559100081
 21
225.6273041276
  0
LINE
  8
0
 62
7
  6
CONTINUOUS
 10
37.1839506173
 20
223.8901232217
 11
114.5839506173
 21
223.8901232217
  0
LINE
  8
0
 62
7
  6
CONTINUOUS
 10
66.3919912265
 20
225.6273041276
 11
67.3138995411
 21
252.0273041276
  0
LINE
  8
DEFAULT_1
 62
7
  6
CENTER
 10
33.3839506173
 20
238.8901232217
 11
118.3839506173
 21
238.8901232217
  0
LINE
  8
0
 62
7
  6
CONTINUOUS
 10
84.4540016935
 20
252.0273041276
 11
85.3759100081
 21
225.6273041276
  0
LINE
  8
0
 62
7
  6
CONTINUOUS
 10
37.1839506173
 20
253.8901232217
 11
114.5839506173
 21
253.8901232217
  0
LINE
  8
0
 62
7
  6
CONTINUOUS
 10
99.8119912265
 20
225.6273041276
 11
100.7338995411
 21
252.0273041276
  0
LINE
  8
0
 62
7
  6
CONTINUOUS
 10
116.3839506173
 20
225.6901232217
 11
116.3839506173
 21
252.0901232217
  0
LINE
  8
0
 62
2
  6
CONTINUOUS
 10
161.9392590242
 20
99.3672839506
 11
160.1792590242
 21
99.3672839506
  0
LINE
  8
DEFAULT_1
 62
7
  6
CENTER
 10
156.6592590242
 20
99.3672839506
 11
153.5992590242
 21
99.3672839506
  0
LINE
  8
DEFAULT_1
 62
7
  6
CENTER
 10
165.4592590242
 20
99.3672839506
 11
168.5192590242
 21
99.3672839506
  0
LINE
  8
0
 62
7
  6
CONTINUOUS
 10
146.0592590242
 20
99.3672839506
 11
146.0592590242
 21
162.8672839506
  0
LINE
  8
0
 62
7
  6
CONTINUOUS
 10
154.0092590242
 20
128.070960493
 11
147.5158028325
 21
129.3331605149
  0
LINE
  8
0
 62
2
  6
CONTINUOUS
 10
161.0592590242
 20
163.7472839506
 11
161.0592590242
 21
161.9872839506
  0
LINE
  8
DEFAULT_1
 62
7
  6
CENTER
 10
161.0592590242
 20
158.4672839506
 11
161.0592590242
 21
155.4072839506
  0
LINE
  8
0
 62
2
  6
CONTINUOUS
 10
161.0592590242
 20
100.2472839506
 11
161.0592590242
 21
98.4872839506
  0
LINE
  8
DEFAULT_1
 62
7
  6
CENTER
 10
161.0592590242
 20
94.9672839506
 11
161.0592590242
 21
91.9072839506
  0
LINE
  8
DEFAULT_1
 62
7
  6
CENTER
 10
161.0592590242
 20
103.7672839506
 11
161.0592590242
 21
106.8272839506
  0
LINE
  8
DEFAULT_1
 62
7
  6
CENTER
 10
161.0592590242
 20
167.2672839506
 11
161.0592590242
 21
170.3272839506
  0
LINE
  8
0
 62
7
  6
CONTINUOUS
 10
176.0592590242
 20
162.8672839506
 11
176.0592590242
 21
99.3672839506
  0
LINE
  8
0
 62
2
  6
CONTINUOUS
 10
161.9392590242
 20
162.8672839506
 11
160.1792590242
 21
162.8672839506
  0
LINE
  8
DEFAULT_1
 62
7
  6
CENTER
 10
156.6592590242
 20
162.8672839506
 11
153.5992590242
 21
162.8672839506
  0
LINE
  8
DEFAULT_1
 62
7
  6
CENTER
 10
165.4592590242
 20
162.8672839506
 11
168.5192590242
 21
162.8672839506
  0
ARC
  8
0
 62
7
  6
CONTINUOUS
 10
37.1839506173
 20
176.0672839506
 40
1.8
 50
90.0
 51
180.0000000001
  0
ARC
  8
0
 62
7
  6
CONTINUOUS
 10
114.5839506173
 20
176.0672839506
 40
1.8
 50
0.0
 51
90.0
  0
ARC
  8
0
 62
7
  6
CONTINUOUS
 10
37.1839506173
 20
252.0901232217
 40
1.8
 50
90.0
 51
180.0
  0
ARC
  8
0
 62
7
  6
CONTINUOUS
 10
114.5839506173
 20
225.6901232217
 40
1.8
 50
270.0
 51
360.0
  0
ARC
  8
0
 62
7
  6
CONTINUOUS
 10
114.5839506173
 20
252.0901232217
 40
1.8
 50
0.0
 51
90.0
  0
ARC
  8
0
 62
7
  6
CONTINUOUS
 10
53.7548134967
 20
225.6901232217
 40
1.8
 50
182.0
 51
270.0
  0
ARC
  8
0
 62
7
  6
CONTINUOUS
 10
52.8329051821
 20
252.0901232217
 40
1.8
 50
90.0
 51
182.0
  0
ARC
  8
0
 62
7
  6
CONTINUOUS
 10
37.1839506173
 20
225.6901232217
 40
1.8
 50
180.0
 51
270.0
  0
ARC
  8
0
 62
7
  6
CONTINUOUS
 10
87.1748134967
 20
225.6901232217
 40
1.8
 50
182.0
 51
270.0
  0
ARC
  8
0
 62
7
  6
CONTINUOUS
 10
86.2529051821
 20
252.0901232217
 40
1.8
 50
90.0
 51
182.0
  0
ARC
  8
0
 62
7
  6
CONTINUOUS
 10
64.5930877383
 20
225.6901232326
 40
1.8
 50
269.9999999879
 51
357.9999996519
  0
ARC
  8
0
 62
7
  6
CONTINUOUS
 10
65.5149960525
 20
252.0901232217
 40
1.8
 50
358.0
 51
90.0
  0
ARC
  8
0
 62
7
  6
CONTINUOUS
 10
98.0130877383
 20
225.6901232326
 40
1.8
 50
269.9999999879
 51
357.9999996519
  0
ARC
  8
0
 62
7
  6
CONTINUOUS
 10
98.9349960525
 20
252.0901232217
 40
1.8
 50
358.0
 51
90.0
  0
ARC
  8
0
 62
7
  6
CONTINUOUS
 10
150.1582592133
 20
108.2592839506
 40
20.1824856487
 50
16.9380835731
 51
79.0
  0
ARC
  8
0
 62
7
  6
CONTINUOUS
 10
147.8592590242
 20
131.1000894451
 40
1.8
 50
180.0
 51
259.0
  0
ARC
  8
0
 62
7
  6
CONTINUOUS
 10
161.0592590242
 20
99.3672839506
 40
16.5
 50
43.8371353095
 51
56.0965358515
  0
ARC
  8
0
 62
7
  6
CONTINUOUS
 10
161.0592590242
 20
99.3672839506
 40
15.0
 50
180.0
 51
360.0
  0
CIRCLE
  8
0
 62
7
  6
CONTINUOUS
 10
161.0592590242
 20
99.3672839506
 40
5.46
  0
ARC
  8
0
 62
7
  6
CONTINUOUS
 10
171.3784719107
 20
114.7218873451
 40
2.0
 50
196.9380835731
 51
236.0965358515
  0
ARC
  8
0
 62
7
  6
CONTINUOUS
 10
174.2592590242
 20
112.0420620552
 40
1.8
 50
223.8371353095
 51
360.0
  0
ARC
  8
0
 62
7
  6
CONTINUOUS
 10
161.0592590242
 20
162.8672839506
 40
15.0
 50
0.0
 51
180.0
  0
CIRCLE
  8
0
 62
7
  6
CONTINUOUS
 10
161.0592590242
 20
162.8672839506
 40
5.46
  0
ENDSEC
  0
EOF
