  0
SECTION
  2
HEADER
  9
$EXTMAX
 10
420.0
 20
297.0
 30
0.0
  9
$EXTMIN
 10
0.0
 20
0.0
 30
0.0
  9
$LIMMIN
 10
0.0
 20
0.0
  9
$LIMMAX
 10
420.0
 20
297.0
  9
$VIEWCTR
 10
210.0
 20
148.5
  9
$VIEWSIZE
 40
297.0
  9
$CLAYER
  8
0
  9
$LTSCALE
 40
23.1
  9
$CELTYPE
  6
BYLAYER
  9
$DIMSCALE
 40
1.0
  9
$DIMASZ
 40
3.5
  9
$DIMEXO
 40
2.625
  9
$DIMDLI
 40
15.96
  9
$DIMEXE
 40
7.56
  9
$DIMCEN
 40
3.78
  9
$DIMLFAC
 40
1.0
  9
$DIMBLK
  1
_FILLED
  9
$DIMTXT
 40
3.5
  9
$PDMODE
 70
3
  9
$PDSIZE
 40
0.3125
  9
$TILEMODE
 70
1
  0
ENDSEC
  0
SECTION
  2
TABLES
  0
TABLE
  2
LTYPE
 70
6
  0
LTYPE
  2
BYBLOCK
 70
0
  3

 72
65
 73
0
 40
0.0
  0
LTYPE
  2
BYLAYER
 70
0
  3

 72
65
 73
0
 40
0.0
  0
LTYPE
  2
CONTINUOUS
 70
64
  3
Solid line
 72
65
 73
0
 40
0.0
  0
LTYPE
  2
CENTER
 70
64
  3
____ _ ____ _ ____ _ ____ _ ____ _ ____ _ ____
 72
65
 73
4
 40
0.6
 49
0.375
 49
-0.075
 49
0.075
 49
-0.075
  0
LTYPE
  2
HIDDEN
 70
64
  3
- - - - - - - - - - - - - - - - - - - -
 72
65
 73
2
 40
0.2
 49
0.1
 49
-0.1
  0
LTYPE
  2
PHANTOM
 70
64
  3
_____ _ _ _____ _ _ _____ _ _ _____
 72
65
 73
6
 40
0.8
 49
0.45
 49
-0.05
 49
0.1
 49
-0.05
 49
0.1
 49
-0.05
  0
LTYPE
  2
DOT
 70
64
  3
. . . . . . . . . . . . . . . . . . . .
 72
65
 73
2
 40
0.2
 49
0.1
 49
-0.1
  0
LTYPE
  2
DASHED
 70
64
  3
- - - - - - - - - - - - - - - - - - - -
 72
65
 73
2
 40
0.2
 49
0.1
 49
-0.1
  0
ENDTAB
  0
TABLE
  2
LAYER
 70
36
  0
LAYER
  2
0
 70
0
 62
7
  6
CONTINUOUS
  0
LAYER
  2
DEFAULT_1
 70
0
 62
7
  6
CENTER
  0
LAYER
  2
DEFAULT_2
 70
0
 62
8
  6
HIDDEN
  0
LAYER
  2
DEFAULT_3
 70
0
 62
7
  6
PHANTOM
  0
LAYER
  2
CURVE
 70
0
 62
7
  6
CONTINUOUS
  0
LAYER
  2
CURVE_KW
 70
0
 62
7
  6
CONTINUOUS
  0
LAYER
  2
SURFACE
 70
0
 62
7
  6
CONTINUOUS
  0
LAYER
  2
SURF_PART
 70
0
 62
7
  6
CONTINUOUS
  0
LAYER
  2
XSEC_DATUMS
 70
0
 62
7
  6
CONTINUOUS
  0
ENDTAB
  0
TABLE
  2
STYLE
 70
1
  0
STYLE
  2
STANDARD
 70
0
 40
0.0
 41
0.8
 50
0.0
 71
0
 42
0.2
  3
txt
  4

  0
STYLE
  2
TEXTSTYLE_1
 70
0
 40
0.0
 41
0.8
 50
0.0
 71
0
 42
0.2
  3
gdt
  4

  0
STYLE
  2
TEXTSTYLE_2
 70
0
 40
0.0
 41
0.6
 50
0.0
 71
0
 42
0.2
  3
txt
  4

  0
STYLE
  2
TEXTSTYLE_3
 70
0
 40
0.0
 41
1.0
 50
0.0
 71
0
 42
0.2
  3
ftb_____.ttf
  4

  0
STYLE
  2
TEXTSTYLE_4
 70
0
 40
0.0
 41
1.0
 50
0.0
 71
0
 42
0.2
  3
fti_____.ttf
  4

  0
STYLE
  2
TEXTSTYLE_5
 70
0
 40
0.0
 41
1.0
 50
0.0
 71
0
 42
0.2
  3
frutiger light.ttf
  4

  0
STYLE
  2
TEXTSTYLE_6
 70
0
 40
0.0
 41
0.7
 50
0.0
 71
0
 42
0.2
  3
txt
  4

  0
STYLE
  2
TEXTSTYLE_7
 70
0
 40
0.0
 41
0.5
 50
0.0
 71
0
 42
0.2
  3
txt
  4

  0
ENDTAB
  0
ENDSEC
  0
SECTION
  2
BLOCKS
  0
BLOCK
  8
0
 62
2
  6
CONTINUOUS
  2
SYMBOL_5_BL1
 70
64
 10
382.7840918555
 20
35.5067593403
  0
TEXT
  8
0
 62
7
  6
CONTINUOUS
 10
373.842376864
 20
30.5995157174
  7
TEXTSTYLE_4
 40
1.0655737705
  1
The brand for plastic modular belts and chains
 41
1.0
 72
0
  0
LINE
  8
0
 62
7
  6
CONTINUOUS
 10
358.7621602445
 20
36.0805298321
 11
358.7621602445
 21
33.9493822911
  0
LINE
  8
0
 62
7
  6
CONTINUOUS
 10
359.0512227376
 20
30.9584509954
 11
359.0512227376
 21
31.0552420547
  0
LINE
  8
0
 62
7
  6
CONTINUOUS
 10
358.7621602445
 20
31.0229783683
 11
358.8199727462
 21
30.8293962497
  0
LINE
  8
0
 62
7
  6
CONTINUOUS
 10
360.1556028675
 20
33.867415078
 11
360.1556028675
 21
36.0805298321
  0
LINE
  8
0
 62
7
  6
CONTINUOUS
 10
361.0746601894
 20
32.0231527829
 11
361.0746601894
 21
30.5067593403
  0
LINE
  8
0
 62
7
  6
CONTINUOUS
 10
361.3637227445
 20
30.5067593403
 11
361.3637227445
 21
31.2488242184
  0
LINE
  8
0
 62
7
  6
CONTINUOUS
 10
361.3637227445
 20
31.3778789641
 11
361.3637227445
 21
32.0231527829
  0
LINE
  8
0
 62
7
  6
CONTINUOUS
 10
358.8199727462
 20
31.216560532
 11
358.7621602445
 21
31.0229783683
  0
LINE
  8
0
 62
7
  6
CONTINUOUS
 10
359.1668477307
 20
30.7971325633
 11
359.0512227376
 21
30.9584509954
  0
LINE
  8
0
 62
7
  6
CONTINUOUS
 10
360.2652852997
 20
31.3133515913
 11
360.3230977445
 21
31.216560532
  0
LINE
  8
0
 62
7
  6
CONTINUOUS
 10
360.6121602997
 20
31.216560532
 11
360.5543476894
 21
31.3456152777
  0
LINE
  8
0
 62
7
  6
CONTINUOUS
 10
362.0408487691
 20
36.0805298321
 11
362.0408487691
 21
34.2772511436
  0
LINE
  8
0
 62
7
  6
CONTINUOUS
 10
362.0408487691
 20
32.9657757338
 11
362.0408487691
 21
32.3100380288
  0
LINE
  8
0
 62
7
  6
CONTINUOUS
 10
362.4043477445
 20
31.1520331591
 11
362.4043477445
 21
30.5067593403
  0
LINE
  8
0
 62
7
  6
CONTINUOUS
 10
362.6934101343
 20
30.5067593403
 11
362.6934101343
 21
31.1520331591
  0
LINE
  8
0
 62
7
  6
CONTINUOUS
 10
359.0512227376
 20
31.0552420547
 11
359.1090352445
 21
31.1842968456
  0
LINE
  8
0
 62
7
  6
CONTINUOUS
 10
358.8199727462
 20
30.8293962497
 11
358.9355977445
 21
30.7003414814
  0
LINE
  8
0
 62
7
  6
CONTINUOUS
 10
362.3465351343
 20
31.2810879048
 11
362.4043477445
 21
31.1520331591
  0
LINE
  8
0
 62
7
  6
CONTINUOUS
 10
363.1559103548
 20
30.7971325633
 11
363.2137226343
 21
30.668077795
  0
LINE
  8
0
 62
7
  6
CONTINUOUS
 10
362.6934101343
 20
31.1520331591
 11
362.6355978548
 21
31.3133515913
  0
LINE
  8
0
 62
7
  6
CONTINUOUS
 10
363.1559103548
 20
31.3456152777
 11
363.1559103548
 21
31.2810879048
  0
LINE
  8
0
 62
7
  6
CONTINUOUS
 10
363.1559103548
 20
30.8939236226
 11
363.1559103548
 21
30.7971325633
  0
LINE
  8
0
 62
7
  6
CONTINUOUS
 10
363.4342913921
 20
32.3100380288
 11
363.4342913921
 21
36.0805298321
  0
LINE
  8
0
 62
7
  6
CONTINUOUS
 10
363.4449727445
 20
30.7648688543
 11
363.4449727445
 21
30.8293962497
  0
LINE
  8
0
 62
7
  6
CONTINUOUS
 10
363.7621602445
 20
36.0805298321
 11
363.7621602445
 21
32.3100380288
  0
LINE
  8
0
 62
7
  6
CONTINUOUS
 10
360.5543476894
 20
30.7003414814
 11
360.6121602997
 21
30.8293962497
  0
LINE
  8
0
 62
7
  6
CONTINUOUS
 10
364.9480979651
 20
30.6035504109
 11
364.890285024
 21
30.7648688543
  0
LINE
  8
0
 62
7
  6
CONTINUOUS
 10
364.6012229651
 20
31.2810879048
 11
364.6012229651
 21
31.1842968456
  0
LINE
  8
0
 62
7
  6
CONTINUOUS
 10
364.6012229651
 20
31.0552420547
 11
364.6012229651
 21
30.8616599362
  0
LINE
  8
0
 62
7
  6
CONTINUOUS
 10
364.890285024
 20
30.7648688543
 11
364.890285024
 21
31.2810879048
  0
LINE
  8
0
 62
7
  6
CONTINUOUS
 10
365.1556028675
 20
32.3100380288
 11
365.1556028675
 21
34.1133167174
  0
LINE
  8
0
 62
7
  6
CONTINUOUS
 10
365.1556028675
 20
35.4247921272
 11
365.1556028675
 21
36.0805298321
  0
LINE
  8
0
 62
7
  6
CONTINUOUS
 10
365.4684104651
 20
32.0231527829
 11
365.4684104651
 21
31.8618343508
  0
LINE
  8
0
 62
7
  6
CONTINUOUS
 10
365.4684104651
 20
31.5391973962
 11
365.4684104651
 21
30.5067593403
  0
LINE
  8
0
 62
7
  6
CONTINUOUS
 10
365.757472524
 20
30.5067593403
 11
365.757472524
 21
31.5391973962
  0
LINE
  8
0
 62
7
  6
CONTINUOUS
 10
365.757472524
 20
31.8618343508
 11
365.757472524
 21
32.0231527829
  0
LINE
  8
0
 62
7
  6
CONTINUOUS
 10
360.3230977445
 20
30.8293962497
 11
360.2652852997
 21
30.7326051679
  0
LINE
  8
0
 62
7
  6
CONTINUOUS
 10
362.6355978548
 20
31.3133515913
 11
362.5777852445
 21
31.3778789641
  0
LINE
  8
0
 62
7
  6
CONTINUOUS
 10
363.5027853548
 20
30.7003414814
 11
363.4449727445
 21
30.7648688543
  0
LINE
  8
0
 62
7
  6
CONTINUOUS
 10
364.6590352445
 20
30.5712867188
 11
364.716847524
 21
30.5067593403
  0
LINE
  8
0
 62
7
  6
CONTINUOUS
 10
364.6012229651
 20
30.668077795
 11
364.6590352445
 21
30.5712867188
  0
LINE
  8
0
 62
7
  6
CONTINUOUS
 10
365.0059102445
 20
30.5067593403
 11
364.9480979651
 21
30.6035504109
  0
LINE
  8
0
 62
7
  6
CONTINUOUS
 10
364.890285024
 20
31.2810879048
 11
364.8324727445
 21
31.3778789641
  0
LINE
  8
0
 62
7
  6
CONTINUOUS
 10
366.2199727445
 20
31.5391973962
 11
366.2199727445
 21
30.5067593403
  0
LINE
  8
0
 62
7
  6
CONTINUOUS
 10
366.5090354651
 20
30.5067593403
 11
366.5090354651
 21
31.2488242184
  0
LINE
  8
0
 62
7
  6
CONTINUOUS
 10
366.5090354651
 20
31.3778789641
 11
366.5090354651
 21
31.5391973962
  0
LINE
  8
0
 62
7
  6
CONTINUOUS
 10
367.0408487691
 20
34.5231527829
 11
367.0408487691
 21
32.3100380288
  0
LINE
  8
0
 62
7
  6
CONTINUOUS
 10
358.9355977445
 20
31.3456152777
 11
358.8199727462
 21
31.216560532
  0
LINE
  8
0
 62
7
  6
CONTINUOUS
 10
359.1090352445
 20
31.1842968456
 11
359.1668477307
 21
31.2488242184
  0
LINE
  8
0
 62
7
  6
CONTINUOUS
 10
358.9355977445
 20
30.7003414814
 11
359.0512227376
 21
30.6358140973
  0
LINE
  8
0
 62
7
  6
CONTINUOUS
 10
359.3402852307
 20
30.7003414814
 11
359.1668477307
 21
30.7971325633
  0
LINE
  8
0
 62
7
  6
CONTINUOUS
 10
364.543410024
 20
31.3456152777
 11
364.6012229651
 21
31.2810879048
  0
LINE
  8
0
 62
7
  6
CONTINUOUS
 10
367.491847524
 20
31.2810879048
 11
367.5496604651
 21
31.1197694727
  0
LINE
  8
0
 62
7
  6
CONTINUOUS
 10
367.838722524
 20
31.1197694727
 11
367.7809102445
 21
31.2810879048
  0
LINE
  8
0
 62
7
  6
CONTINUOUS
 10
367.5496604651
 20
31.1197694727
 11
367.5496604651
 21
30.5067593403
  0
LINE
  8
0
 62
7
  6
CONTINUOUS
 10
367.838722524
 20
30.5067593403
 11
367.838722524
 21
31.1197694727
  0
LINE
  8
0
 62
7
  6
CONTINUOUS
 10
368.3012227445
 20
31.3456152777
 11
368.3012227445
 21
31.2810879048
  0
LINE
  8
0
 62
7
  6
CONTINUOUS
 10
368.4342913921
 20
32.3100380288
 11
368.4342913921
 21
34.4411855698
  0
LINE
  8
0
 62
7
  6
CONTINUOUS
 10
368.7621602445
 20
36.0805298321
 11
368.7621602445
 21
32.3100380288
  0
LINE
  8
0
 62
7
  6
CONTINUOUS
 10
363.4449727445
 20
30.8293962497
 11
363.5027853548
 21
30.926187309
  0
LINE
  8
0
 62
7
  6
CONTINUOUS
 10
359.0512227376
 20
30.6358140973
 11
359.2246602583
 21
30.5712867188
  0
LINE
  8
0
 62
7
  6
CONTINUOUS
 10
360.5543476894
 20
31.3456152777
 11
360.3809101894
 21
31.4424063369
  0
LINE
  8
0
 62
7
  6
CONTINUOUS
 10
363.2137226343
 20
30.668077795
 11
363.3871601343
 21
30.5712867188
  0
LINE
  8
0
 62
7
  6
CONTINUOUS
 10
362.2309102445
 20
31.3456152777
 11
362.3465351343
 21
31.2810879048
  0
LINE
  8
0
 62
7
  6
CONTINUOUS
 10
362.5777852445
 20
31.3778789641
 11
362.4621603548
 21
31.4424063369
  0
LINE
  8
0
 62
7
  6
CONTINUOUS
 10
368.3012227445
 20
30.7648688543
 11
368.4168479651
 21
30.6358140973
  0
LINE
  8
0
 62
7
  6
CONTINUOUS
 10
368.6480977445
 20
30.7003414814
 11
368.5902854651
 21
30.7648688543
  0
LINE
  8
0
 62
7
  6
CONTINUOUS
 10
368.3012227445
 20
31.2810879048
 11
368.4168479651
 21
31.1520331591
  0
LINE
  8
0
 62
7
  6
CONTINUOUS
 10
367.7809102445
 20
31.2810879048
 11
367.7230979651
 21
31.3778789641
  0
LINE
  8
0
 62
7
  6
CONTINUOUS
 10
370.1512223035
 20
30.7003414814
 11
370.1512223035
 21
30.7648688543
  0
LINE
  8
0
 62
7
  6
CONTINUOUS
 10
370.1556028675
 20
32.3100380288
 11
370.1556028675
 21
36.0805298321
  0
LINE
  8
0
 62
7
  6
CONTINUOUS
 10
363.2137226343
 20
31.4101426505
 11
363.1559103548
 21
31.3456152777
  0
LINE
  8
0
 62
7
  6
CONTINUOUS
 10
360.091847717
 20
31.3778789641
 11
360.2652852997
 21
31.3133515913
  0
LINE
  8
0
 62
7
  6
CONTINUOUS
 10
364.8324727445
 20
31.3778789641
 11
364.716847524
 21
31.4424063369
  0
LINE
  8
0
 62
7
  6
CONTINUOUS
 10
368.6480977445
 20
31.216560532
 11
368.5902854651
 21
31.2810879048
  0
LINE
  8
0
 62
7
  6
CONTINUOUS
 10
369.8043479651
 20
30.8293962497
 11
369.8621602445
 21
30.7648688543
  0
LINE
  8
0
 62
7
  6
CONTINUOUS
 10
370.1512223035
 20
30.7648688543
 11
370.0355977445
 21
30.8939236226
  0
LINE
  8
0
 62
7
  6
CONTINUOUS
 10
369.8043479651
 20
31.3456152777
 11
369.8621602445
 21
31.2810879048
  0
LINE
  8
0
 62
7
  6
CONTINUOUS
 10
370.1512223035
 20
31.2810879048
 11
370.0355977445
 21
31.4101426505
  0
LINE
  8
0
 62
7
  6
CONTINUOUS
 10
363.4449727445
 20
31.2810879048
 11
363.5027853548
 21
31.3456152777
  0
LINE
  8
0
 62
7
  6
CONTINUOUS
 10
363.2715352445
 20
31.0229783683
 11
363.1559103548
 21
30.8939236226
  0
LINE
  8
0
 62
7
  6
CONTINUOUS
 10
364.6012229651
 20
30.8616599362
 11
364.543410024
 21
30.7971325633
  0
LINE
  8
0
 62
7
  6
CONTINUOUS
 10
364.543410024
 20
30.6035504109
 11
364.6012229651
 21
30.668077795
  0
LINE
  8
0
 62
7
  6
CONTINUOUS
 10
363.3871601343
 20
30.5712867188
 11
363.5027853548
 21
30.5390230296
  0
LINE
  8
0
 62
7
  6
CONTINUOUS
 10
360.3809101894
 20
31.4424063369
 11
360.1496602445
 21
31.5069337098
  0
LINE
  8
0
 62
7
  6
CONTINUOUS
 10
363.7340351343
 20
30.6358140973
 11
363.5027853548
 21
30.7003414814
  0
LINE
  8
0
 62
7
  6
CONTINUOUS
 10
362.4621603548
 20
31.4424063369
 11
362.2887228548
 21
31.5069337098
  0
LINE
  8
0
 62
7
  6
CONTINUOUS
 10
364.716847524
 20
31.4424063369
 11
364.543410024
 21
31.5069337098
  0
LINE
  8
0
 62
7
  6
CONTINUOUS
 10
367.3762229651
 20
31.3456152777
 11
367.491847524
 21
31.2810879048
  0
LINE
  8
0
 62
7
  6
CONTINUOUS
 10
367.7230979651
 20
31.3778789641
 11
367.6074727445
 21
31.4424063369
  0
LINE
  8
0
 62
7
  6
CONTINUOUS
 10
359.2246602583
 20
30.5712867188
 11
359.3980977583
 21
30.5390230296
  0
LINE
  8
0
 62
7
  6
CONTINUOUS
 10
359.6871602721
 20
30.6358140973
 11
359.3402852307
 21
30.7003414814
  0
LINE
  8
0
 62
7
  6
CONTINUOUS
 10
362.1152853548
 20
31.3778789641
 11
362.2309102445
 21
31.3456152777
  0
LINE
  8
0
 62
7
  6
CONTINUOUS
 10
364.4277854651
 20
31.3778789641
 11
364.543410024
 21
31.3456152777
  0
LINE
  8
0
 62
7
  6
CONTINUOUS
 10
368.7637229651
 20
30.668077795
 11
368.6480977445
 21
30.7003414814
  0
LINE
  8
0
 62
7
  6
CONTINUOUS
 10
367.2605977445
 20
31.3778789641
 11
367.3762229651
 21
31.3456152777
  0
LINE
  8
0
 62
7
  6
CONTINUOUS
 10
368.4168479651
 20
30.6358140973
 11
368.5902854651
 21
30.5712867188
  0
LINE
  8
0
 62
7
  6
CONTINUOUS
 10
367.6074727445
 20
31.4424063369
 11
367.4340352445
 21
31.5069337098
  0
LINE
  8
0
 62
7
  6
CONTINUOUS
 10
368.8215352445
 20
31.1520331591
 11
368.6480977445
 21
31.216560532
  0
LINE
  8
0
 62
7
  6
CONTINUOUS
 10
369.6309104651
 20
30.8939236226
 11
369.8043479651
 21
30.8293962497
  0
LINE
  8
0
 62
7
  6
CONTINUOUS
 10
370.0355977445
 20
31.4101426505
 11
369.8621602445
 21
31.4746700234
  0
LINE
  8
0
 62
7
  6
CONTINUOUS
 10
368.4168479651
 20
31.1520331591
 11
368.6480977445
 21
31.0552420547
  0
LINE
  8
0
 62
7
  6
CONTINUOUS
 10
370.0355977445
 20
30.8939236226
 11
369.8043479651
 21
30.9907146818
  0
LINE
  8
0
 62
7
  6
CONTINUOUS
 10
368.5902854651
 20
31.2810879048
 11
368.6480977445
 21
31.3456152777
  0
LINE
  8
0
 62
7
  6
CONTINUOUS
 10
359.0512227376
 20
31.4101426505
 11
358.9355977445
 21
31.3456152777
  0
LINE
  8
0
 62
7
  6
CONTINUOUS
 10
359.1668477307
 20
31.2488242184
 11
359.3402852307
 21
31.3456152777
  0
LINE
  8
0
 62
7
  6
CONTINUOUS
 10
361.4793477997
 20
31.4424063369
 11
361.3637227445
 21
31.3778789641
  0
LINE
  8
0
 62
7
  6
CONTINUOUS
 10
361.3637227445
 20
31.2488242184
 11
361.4793477997
 21
31.3133515913
  0
LINE
  8
0
 62
7
  6
CONTINUOUS
 10
360.3809101894
 20
30.6035504109
 11
360.5543476894
 21
30.7003414814
  0
LINE
  8
0
 62
7
  6
CONTINUOUS
 10
359.3980977583
 20
30.5390230296
 11
359.744972717
 21
30.5067593403
  0
LINE
  8
0
 62
7
  6
CONTINUOUS
 10
363.5027853548
 20
30.5390230296
 11
363.7340351343
 21
30.5067593403
  0
LINE
  8
0
 62
7
  6
CONTINUOUS
 10
361.8840352445
 20
31.4101426505
 11
362.1152853548
 21
31.3778789641
  0
LINE
  8
0
 62
7
  6
CONTINUOUS
 10
364.1965353548
 20
31.4101426505
 11
364.4277854651
 21
31.3778789641
  0
LINE
  8
0
 62
7
  6
CONTINUOUS
 10
368.6480977445
 20
31.0552420547
 11
369.6309104651
 21
30.8939236226
  0
LINE
  8
0
 62
7
  6
CONTINUOUS
 10
369.8043479651
 20
30.9907146818
 11
368.8215352445
 21
31.1520331591
  0
LINE
  8
0
 62
7
  6
CONTINUOUS
 10
362.2887228548
 20
31.5069337098
 11
362.1152853548
 21
31.5391973962
  0
LINE
  8
0
 62
7
  6
CONTINUOUS
 10
368.5902854651
 20
30.5712867188
 11
368.7637229651
 21
30.5390230296
  0
LINE
  8
0
 62
7
  6
CONTINUOUS
 10
367.4340352445
 20
31.5069337098
 11
367.2605977445
 21
31.5391973962
  0
LINE
  8
0
 62
7
  6
CONTINUOUS
 10
369.6887227445
 20
31.3778789641
 11
369.8043479651
 21
31.3456152777
  0
LINE
  8
0
 62
7
  6
CONTINUOUS
 10
369.8621602445
 20
30.7648688543
 11
369.8043479651
 21
30.7003414814
  0
LINE
  8
0
 62
7
  6
CONTINUOUS
 10
368.4168479651
 20
31.4424063369
 11
368.3012227445
 21
31.3456152777
  0
LINE
  8
0
 62
7
  6
CONTINUOUS
 10
363.3293478548
 20
31.4746700234
 11
363.2137226343
 21
31.4101426505
  0
LINE
  8
0
 62
7
  6
CONTINUOUS
 10
363.3871601343
 20
31.0875057863
 11
363.2715352445
 21
31.0229783683
  0
LINE
  8
0
 62
7
  6
CONTINUOUS
 10
363.5027853548
 20
30.926187309
 11
363.6184102445
 21
30.9907146818
  0
LINE
  8
0
 62
7
  6
CONTINUOUS
 10
361.0746601894
 20
30.5067593403
 11
361.3637227445
 21
30.5067593403
  0
LINE
  8
0
 62
7
  6
CONTINUOUS
 10
362.4043477445
 20
30.5067593403
 11
362.6934101343
 21
30.5067593403
  0
LINE
  8
0
 62
7
  6
CONTINUOUS
 10
363.7340351343
 20
30.5067593403
 11
364.0809101343
 21
30.5067593403
  0
LINE
  8
0
 62
7
  6
CONTINUOUS
 10
364.716847524
 20
30.5067593403
 11
365.0059102445
 21
30.5067593403
  0
LINE
  8
0
 62
7
  6
CONTINUOUS
 10
365.4684104651
 20
30.5067593403
 11
365.757472524
 21
30.5067593403
  0
LINE
  8
0
 62
7
  6
CONTINUOUS
 10
366.2199727445
 20
30.5067593403
 11
366.5090354651
 21
30.5067593403
  0
LINE
  8
0
 62
7
  6
CONTINUOUS
 10
367.5496604651
 20
30.5067593403
 11
367.838722524
 21
30.5067593403
  0
LINE
  8
0
 62
7
  6
CONTINUOUS
 10
369.1105979651
 20
30.5067593403
 11
369.4574729651
 21
30.5067593403
  0
LINE
  8
0
 62
7
  6
CONTINUOUS
 10
369.4574729651
 20
30.6358140973
 11
369.1105979651
 21
30.6358140973
  0
LINE
  8
0
 62
7
  6
CONTINUOUS
 10
364.0809101343
 20
30.6358140973
 11
363.7340351343
 21
30.6358140973
  0
LINE
  8
0
 62
7
  6
CONTINUOUS
 10
368.5902854651
 20
30.7648688543
 11
368.3012227445
 21
30.7648688543
  0
LINE
  8
0
 62
7
  6
CONTINUOUS
 10
360.6121602997
 20
30.8293962497
 11
360.3230977445
 21
30.8293962497
  0
LINE
  8
0
 62
7
  6
CONTINUOUS
 10
359.6871602721
 20
31.4101426505
 11
360.091847717
 21
31.3778789641
  0
LINE
  8
0
 62
7
  6
CONTINUOUS
 10
360.1496602445
 20
31.5069337098
 11
359.744972717
 21
31.5391973962
  0
LINE
  8
0
 62
7
  6
CONTINUOUS
 10
368.7637229651
 20
30.5390230296
 11
369.1105979651
 21
30.5067593403
  0
LINE
  8
0
 62
7
  6
CONTINUOUS
 10
369.1105979651
 20
30.6358140973
 11
368.7637229651
 21
30.668077795
  0
LINE
  8
0
 62
7
  6
CONTINUOUS
 10
364.543410024
 20
31.5069337098
 11
364.1965353548
 21
31.5391973962
  0
LINE
  8
0
 62
7
  6
CONTINUOUS
 10
369.3418477445
 20
31.4101426505
 11
369.6887227445
 21
31.3778789641
  0
LINE
  8
0
 62
7
  6
CONTINUOUS
 10
369.6887227445
 20
31.5069337098
 11
369.3418477445
 21
31.5391973962
  0
LINE
  8
0
 62
7
  6
CONTINUOUS
 10
367.0293479651
 20
31.4101426505
 11
367.2605977445
 21
31.3778789641
  0
LINE
  8
0
 62
7
  6
CONTINUOUS
 10
369.8621602445
 20
31.4746700234
 11
369.6887227445
 21
31.5069337098
  0
LINE
  8
0
 62
7
  6
CONTINUOUS
 10
370.0355977445
 20
30.6035504109
 11
370.1512223035
 21
30.7003414814
  0
LINE
  8
0
 62
7
  6
CONTINUOUS
 10
364.543410024
 20
30.7971325633
 11
364.369972524
 21
30.7003414814
  0
LINE
  8
0
 62
7
  6
CONTINUOUS
 10
366.624660024
 20
31.4424063369
 11
366.5090354651
 21
31.3778789641
  0
LINE
  8
0
 62
7
  6
CONTINUOUS
 10
366.5090354651
 20
31.2488242184
 11
366.624660024
 21
31.3133515913
  0
LINE
  8
0
 62
7
  6
CONTINUOUS
 10
359.2246602583
 20
31.4746700234
 11
359.0512227376
 21
31.4101426505
  0
LINE
  8
0
 62
7
  6
CONTINUOUS
 10
361.6527851343
 20
31.5069337098
 11
361.4793477997
 21
31.4424063369
  0
LINE
  8
0
 62
7
  6
CONTINUOUS
 10
361.4793477997
 20
31.3133515913
 11
361.6527851343
 21
31.3778789641
  0
LINE
  8
0
 62
7
  6
CONTINUOUS
 10
360.2652852997
 20
30.7326051679
 11
360.091847717
 21
30.668077795
  0
LINE
  8
0
 62
7
  6
CONTINUOUS
 10
369.6887227445
 20
30.668077795
 11
369.4574729651
 21
30.6358140973
  0
LINE
  8
0
 62
7
  6
CONTINUOUS
 10
364.0809101343
 20
30.5067593403
 11
364.369972524
 21
30.5390230296
  0
LINE
  8
0
 62
7
  6
CONTINUOUS
 10
369.4574729651
 20
30.5067593403
 11
369.8043479651
 21
30.5390230296
  0
LINE
  8
0
 62
7
  6
CONTINUOUS
 10
359.744972717
 20
30.5067593403
 11
360.1496602445
 21
30.5390230296
  0
LINE
  8
0
 62
7
  6
CONTINUOUS
 10
360.091847717
 20
30.668077795
 11
359.6871602721
 21
30.6358140973
  0
LINE
  8
0
 62
7
  6
CONTINUOUS
 10
363.9652852445
 20
31.0552420547
 11
364.6012229651
 21
31.0552420547
  0
LINE
  8
0
 62
7
  6
CONTINUOUS
 10
364.6012229651
 20
31.1842968456
 11
363.9652852445
 21
31.1842968456
  0
LINE
  8
0
 62
7
  6
CONTINUOUS
 10
360.3230977445
 20
31.216560532
 11
360.6121602997
 21
31.216560532
  0
LINE
  8
0
 62
7
  6
CONTINUOUS
 10
363.1559103548
 20
31.2810879048
 11
363.4449727445
 21
31.2810879048
  0
LINE
  8
0
 62
7
  6
CONTINUOUS
 10
369.8621602445
 20
31.2810879048
 11
370.1512223035
 21
31.2810879048
  0
LINE
  8
0
 62
7
  6
CONTINUOUS
 10
363.8496603548
 20
31.4101426505
 11
364.1965353548
 21
31.4101426505
  0
LINE
  8
0
 62
7
  6
CONTINUOUS
 10
368.9949727445
 20
31.4101426505
 11
369.3418477445
 21
31.4101426505
  0
LINE
  8
0
 62
7
  6
CONTINUOUS
 10
369.3418477445
 20
31.5391973962
 11
368.9949727445
 21
31.5391973962
  0
LINE
  8
0
 62
7
  6
CONTINUOUS
 10
367.2605977445
 20
31.5391973962
 11
367.0293479651
 21
31.5391973962
  0
LINE
  8
0
 62
7
  6
CONTINUOUS
 10
366.5090354651
 20
31.5391973962
 11
366.2199727445
 21
31.5391973962
  0
LINE
  8
0
 62
7
  6
CONTINUOUS
 10
365.757472524
 20
31.5391973962
 11
365.4684104651
 21
31.5391973962
  0
LINE
  8
0
 62
7
  6
CONTINUOUS
 10
364.1965353548
 20
31.5391973962
 11
363.8496603548
 21
31.5391973962
  0
LINE
  8
0
 62
7
  6
CONTINUOUS
 10
362.1152853548
 20
31.5391973962
 11
361.8840352445
 21
31.5391973962
  0
LINE
  8
0
 62
7
  6
CONTINUOUS
 10
365.4684104651
 20
31.8618343508
 11
365.757472524
 21
31.8618343508
  0
LINE
  8
0
 62
7
  6
CONTINUOUS
 10
365.757472524
 20
32.0231527829
 11
365.4684104651
 21
32.0231527829
  0
LINE
  8
0
 62
7
  6
CONTINUOUS
 10
361.3637227445
 20
32.0231527829
 11
361.0746601894
 21
32.0231527829
  0
LINE
  8
0
 62
7
  6
CONTINUOUS
 10
360.4015045068
 20
32.3100380288
 11
360.8140758554
 21
32.3100380288
  0
LINE
  8
0
 62
7
  6
CONTINUOUS
 10
362.0408487691
 20
32.3100380288
 11
363.4342913921
 21
32.3100380288
  0
LINE
  8
0
 62
7
  6
CONTINUOUS
 10
363.7621602445
 20
32.3100380288
 11
365.1556028675
 21
32.3100380288
  0
LINE
  8
0
 62
7
  6
CONTINUOUS
 10
367.0408487691
 20
32.3100380288
 11
368.4342913921
 21
32.3100380288
  0
LINE
  8
0
 62
7
  6
CONTINUOUS
 10
368.7621602445
 20
32.3100380288
 11
370.1556028675
 21
32.3100380288
  0
LINE
  8
0
 62
7
  6
CONTINUOUS
 10
366.798097524
 20
31.5069337098
 11
366.624660024
 21
31.4424063369
  0
LINE
  8
0
 62
7
  6
CONTINUOUS
 10
364.369972524
 20
30.5390230296
 11
364.543410024
 21
30.6035504109
  0
LINE
  8
0
 62
7
  6
CONTINUOUS
 10
369.8043479651
 20
30.5390230296
 11
370.0355977445
 21
30.6035504109
  0
LINE
  8
0
 62
7
  6
CONTINUOUS
 10
369.8043479651
 20
30.7003414814
 11
369.6887227445
 21
30.668077795
  0
LINE
  8
0
 62
7
  6
CONTINUOUS
 10
368.7637229651
 20
31.3778789641
 11
368.9949727445
 21
31.4101426505
  0
LINE
  8
0
 62
7
  6
CONTINUOUS
 10
366.798097524
 20
31.3778789641
 11
367.0293479651
 21
31.4101426505
  0
LINE
  8
0
 62
7
  6
CONTINUOUS
 10
363.7340351343
 20
31.0229783683
 11
363.9652852445
 21
31.0552420547
  0
LINE
  8
0
 62
7
  6
CONTINUOUS
 10
367.0293479651
 20
31.5391973962
 11
366.798097524
 21
31.5069337098
  0
LINE
  8
0
 62
7
  6
CONTINUOUS
 10
363.6184102445
 20
31.3778789641
 11
363.8496603548
 21
31.4101426505
  0
LINE
  8
0
 62
7
  6
CONTINUOUS
 10
368.9949727445
 20
31.5391973962
 11
368.6480977445
 21
31.5069337098
  0
LINE
  8
0
 62
7
  6
CONTINUOUS
 10
363.9652852445
 20
31.1842968456
 11
363.6184102445
 21
31.1520331591
  0
LINE
  8
0
 62
7
  6
CONTINUOUS
 10
359.744972717
 20
31.5391973962
 11
359.3980977583
 21
31.5069337098
  0
LINE
  8
0
 62
7
  6
CONTINUOUS
 10
363.8496603548
 20
31.5391973962
 11
363.4449727445
 21
31.5069337098
  0
LINE
  8
0
 62
7
  6
CONTINUOUS
 10
361.221176638
 20
33.4575790124
 11
360.565438933
 21
33.4575790124
  0
LINE
  8
0
 62
7
  6
CONTINUOUS
 10
366.624660024
 20
31.3133515913
 11
366.798097524
 21
31.3778789641
  0
LINE
  8
0
 62
7
  6
CONTINUOUS
 10
368.6480977445
 20
31.3456152777
 11
368.7637229651
 21
31.3778789641
  0
LINE
  8
0
 62
7
  6
CONTINUOUS
 10
368.6480977445
 20
31.5069337098
 11
368.4168479651
 21
31.4424063369
  0
LINE
  8
0
 62
7
  6
CONTINUOUS
 10
364.369972524
 20
30.7003414814
 11
364.0809101343
 21
30.6358140973
  0
LINE
  8
0
 62
7
  6
CONTINUOUS
 10
361.6527851343
 20
31.3778789641
 11
361.8840352445
 21
31.4101426505
  0
LINE
  8
0
 62
7
  6
CONTINUOUS
 10
361.8840352445
 20
31.5391973962
 11
361.6527851343
 21
31.5069337098
  0
LINE
  8
0
 62
7
  6
CONTINUOUS
 10
359.4559102445
 20
31.3778789641
 11
359.6871602721
 21
31.4101426505
  0
LINE
  8
0
 62
7
  6
CONTINUOUS
 10
365.9752749986
 20
34.9329888485
 11
366.6310127035
 21
34.9329888485
  0
LINE
  8
0
 62
7
  6
CONTINUOUS
 10
363.6184102445
 20
30.9907146818
 11
363.7340351343
 21
31.0229783683
  0
LINE
  8
0
 62
7
  6
CONTINUOUS
 10
363.6184102445
 20
31.1520331591
 11
363.3871601343
 21
31.0875057863
  0
LINE
  8
0
 62
7
  6
CONTINUOUS
 10
363.5027853548
 20
31.3456152777
 11
363.6184102445
 21
31.3778789641
  0
LINE
  8
0
 62
7
  6
CONTINUOUS
 10
360.1496602445
 20
30.5390230296
 11
360.3809101894
 21
30.6035504109
  0
LINE
  8
0
 62
7
  6
CONTINUOUS
 10
363.4449727445
 20
31.5069337098
 11
363.3293478548
 21
31.4746700234
  0
LINE
  8
0
 62
7
  6
CONTINUOUS
 10
359.3980977583
 20
31.5069337098
 11
359.2246602583
 21
31.4746700234
  0
LINE
  8
0
 62
7
  6
CONTINUOUS
 10
370.1556028675
 20
36.0805298321
 11
368.7621602445
 21
36.0805298321
  0
LINE
  8
0
 62
7
  6
CONTINUOUS
 10
366.7949471298
 20
36.0805298321
 11
366.3823757812
 21
36.0805298321
  0
LINE
  8
0
 62
7
  6
CONTINUOUS
 10
365.1556028675
 20
36.0805298321
 11
363.7621602445
 21
36.0805298321
  0
LINE
  8
0
 62
7
  6
CONTINUOUS
 10
363.4342913921
 20
36.0805298321
 11
362.0408487691
 21
36.0805298321
  0
LINE
  8
0
 62
7
  6
CONTINUOUS
 10
360.1556028675
 20
36.0805298321
 11
358.7621602445
 21
36.0805298321
  0
LINE
  8
0
 62
7
  6
CONTINUOUS
 10
359.3402852307
 20
31.3456152777
 11
359.4559102445
 21
31.3778789641
  0
CIRCLE
  8
0
 62
7
  6
CONTINUOUS
 10
369.458881556
 20
38.4165954059
 40
2.0901639344
  0
ARC
  8
0
 62
7
  6
CONTINUOUS
 10
360.4015045068
 20
33.9493822911
 40
1.6393442623
 50
180.0
 51
270.0
  0
ARC
  8
0
 62
7
  6
CONTINUOUS
 10
366.7949471298
 20
34.4411855698
 40
1.6393442623
 50
0.0
 51
90.0
  0
ARC
  8
0
 62
7
  6
CONTINUOUS
 10
360.8140758554
 20
33.7854478649
 40
1.4754098361
 50
270.0
 51
326.2510114041
  0
ARC
  8
0
 62
7
  6
CONTINUOUS
 10
366.3823757812
 20
34.6051199961
 40
1.4754098361
 50
90.0
 51
146.2510114041
  0
ARC
  8
0
 62
7
  6
CONTINUOUS
 10
361.221176638
 20
34.2772511436
 40
0.8196721311
 50
270.0
 51
360.0
  0
ARC
  8
0
 62
7
  6
CONTINUOUS
 10
365.9752749986
 20
34.1133167174
 40
0.8196721311
 50
90.0
 51
180.0
  0
ARC
  8
0
 62
7
  6
CONTINUOUS
 10
360.565438933
 20
33.867415078
 40
0.4098360656
 50
180.0
 51
270.0
  0
ARC
  8
0
 62
7
  6
CONTINUOUS
 10
366.6310127035
 20
34.5231527829
 40
0.4098360656
 50
0.0
 51
90.0
  0
SOLID
  8
0
 62
7
  6
CONTINUOUS
 10
365.4684104651
 20
31.8618347111
 11
365.4684104651
 21
32.0231531947
 12
365.757472524
 22
31.8618347111
 13
365.757472524
 23
32.0231531947
  0
SOLID
  8
0
 62
7
  6
CONTINUOUS
 10
359.744972717
 20
31.5391977439
 11
360.1496602445
 21
31.5069333244
 12
359.3980977583
 22
31.5069333244
 13
359.3980977583
 23
31.5069333244
  0
SOLID
  8
0
 62
7
  6
CONTINUOUS
 10
359.2246602583
 20
31.4746706537
 11
359.3980977583
 21
31.5069333244
 12
360.1496602445
 22
31.5069333244
 13
360.1496602445
 23
31.5069333244
  0
SOLID
  8
0
 62
7
  6
CONTINUOUS
 10
360.1496602445
 20
31.5069333244
 11
360.3809101894
 21
31.4424063504
 12
359.2246602583
 22
31.4746706537
 13
359.2246602583
 23
31.4746706537
  0
SOLID
  8
0
 62
7
  6
CONTINUOUS
 10
359.0512227376
 20
31.4101419116
 11
359.2246602583
 21
31.4746706537
 12
360.3809101894
 22
31.4424063504
 13
360.3809101894
 23
31.4424063504
  0
SOLID
  8
0
 62
7
  6
CONTINUOUS
 10
359.0512227376
 20
31.4101419116
 11
360.3809101894
 21
31.4424063504
 12
359.6871602721
 22
31.4101419116
 13
359.6871602721
 23
31.4101419116
  0
SOLID
  8
0
 62
7
  6
CONTINUOUS
 10
359.6871602721
 20
31.4101419116
 11
360.3809101894
 21
31.4424063504
 12
360.091847717
 22
31.3778792603
 13
360.091847717
 23
31.3778792603
  0
SOLID
  8
0
 62
7
  6
CONTINUOUS
 10
360.3809101894
 20
31.4424063504
 11
360.5543476894
 21
31.345614957
 12
360.091847717
 22
31.3778792603
 13
360.091847717
 23
31.3778792603
  0
SOLID
  8
0
 62
7
  6
CONTINUOUS
 10
360.2652852997
 20
31.3133521701
 11
360.091847717
 21
31.3778792603
 12
360.5543476894
 22
31.345614957
 13
360.5543476894
 23
31.345614957
  0
SOLID
  8
0
 62
7
  6
CONTINUOUS
 10
360.2652852997
 20
31.3133521701
 11
360.5543476894
 21
31.345614957
 12
360.3230977445
 22
31.2165606992
 13
360.3230977445
 23
31.2165606992
  0
SOLID
  8
0
 62
7
  6
CONTINUOUS
 10
360.5543476894
 20
31.345614957
 11
360.6121602997
 21
31.2165606992
 12
360.3230977445
 22
31.2165606992
 13
360.3230977445
 23
31.2165606992
  0
SOLID
  8
0
 62
7
  6
CONTINUOUS
 10
361.6527851343
 20
31.5069329918
 11
361.8840352445
 21
31.5391972951
 12
362.1152853548
 22
31.5391972951
 13
362.1152853548
 23
31.5391972951
  0
SOLID
  8
0
 62
7
  6
CONTINUOUS
 10
362.1152853548
 20
31.5391972951
 11
362.2887228548
 21
31.5069329918
 12
361.6527851343
 22
31.5069329918
 13
361.6527851343
 23
31.5069329918
  0
SOLID
  8
0
 62
7
  6
CONTINUOUS
 10
361.4793477997
 20
31.4424059016
 11
361.6527851343
 21
31.5069329918
 12
362.2887228548
 22
31.5069329918
 13
362.2887228548
 23
31.5069329918
  0
SOLID
  8
0
 62
7
  6
CONTINUOUS
 10
362.2887228548
 20
31.5069329918
 11
362.4621603548
 21
31.4424059016
 12
361.4793477997
 22
31.4424059016
 13
361.4793477997
 23
31.4424059016
  0
SOLID
  8
0
 62
7
  6
CONTINUOUS
 10
362.4621603548
 20
31.4424059016
 11
361.8840352445
 21
31.4101420472
 12
361.4793477997
 22
31.4424059016
 13
361.4793477997
 23
31.4424059016
  0
SOLID
  8
0
 62
7
  6
CONTINUOUS
 10
361.3637227445
 20
31.3778788115
 11
361.4793477997
 21
31.4424059016
 12
361.8840352445
 22
31.4101420472
 13
361.8840352445
 23
31.4101420472
  0
SOLID
  8
0
 62
7
  6
CONTINUOUS
 10
361.8840352445
 20
31.4101420472
 11
361.6527851343
 21
31.3778788115
 12
361.3637227445
 22
31.3778788115
 13
361.3637227445
 23
31.3778788115
  0
SOLID
  8
0
 62
7
  6
CONTINUOUS
 10
361.8840352445
 20
31.4101420472
 11
362.4621603548
 21
31.4424059016
 12
362.1152853548
 22
31.3778788115
 13
362.1152853548
 23
31.3778788115
  0
SOLID
  8
0
 62
7
  6
CONTINUOUS
 10
362.4621603548
 20
31.4424059016
 11
362.5777852445
 21
31.3778788115
 12
362.1152853548
 22
31.3778788115
 13
362.1152853548
 23
31.3778788115
  0
SOLID
  8
0
 62
7
  6
CONTINUOUS
 10
362.2309102445
 20
31.345614957
 11
362.1152853548
 21
31.3778788115
 12
362.5777852445
 22
31.3778788115
 13
362.5777852445
 23
31.3778788115
  0
SOLID
  8
0
 62
7
  6
CONTINUOUS
 10
362.5777852445
 20
31.3778788115
 11
362.6355978548
 21
31.3133517213
 12
362.2309102445
 22
31.345614957
 13
362.2309102445
 23
31.345614957
  0
SOLID
  8
0
 62
7
  6
CONTINUOUS
 10
362.3465351343
 20
31.2810878668
 11
362.2309102445
 21
31.345614957
 12
362.6355978548
 22
31.3133517213
 13
362.6355978548
 23
31.3133517213
  0
SOLID
  8
0
 62
7
  6
CONTINUOUS
 10
362.3465351343
 20
31.2810878668
 11
362.6355978548
 21
31.3133517213
 12
362.4043477445
 22
31.1520332377
 13
362.4043477445
 23
31.1520332377
  0
SOLID
  8
0
 62
7
  6
CONTINUOUS
 10
362.6355978548
 20
31.3133517213
 11
362.6934101343
 21
31.1520332377
 12
362.4043477445
 22
31.1520332377
 13
362.4043477445
 23
31.1520332377
  0
SOLID
  8
0
 62
7
  6
CONTINUOUS
 10
361.6527851343
 20
31.3778788115
 11
361.4793477997
 21
31.3133517213
 12
361.3637227445
 22
31.3778788115
 13
361.3637227445
 23
31.3778788115
  0
SOLID
  8
0
 62
7
  6
CONTINUOUS
 10
361.4793477997
 20
31.3133517213
 11
361.3637227445
 21
31.2488235635
 12
361.3637227445
 22
31.3778788115
 13
361.3637227445
 23
31.3778788115
  0
SOLID
  8
0
 62
7
  6
CONTINUOUS
 10
361.3637227445
 20
31.2488235635
 11
361.0746601894
 21
30.5067593033
 12
361.3637227445
 22
31.3778788115
 13
361.3637227445
 23
31.3778788115
  0
SOLID
  8
0
 62
7
  6
CONTINUOUS
 10
361.3637227445
 20
31.3778788115
 11
361.0746601894
 21
30.5067593033
 12
361.3637227445
 22
32.0231527459
 13
361.3637227445
 23
32.0231527459
  0
SOLID
  8
0
 62
7
  6
CONTINUOUS
 10
361.0746601894
 20
30.5067593033
 11
361.0746601894
 21
32.0231527459
 12
361.3637227445
 22
32.0231527459
 13
361.3637227445
 23
32.0231527459
  0
SOLID
  8
0
 62
7
  6
CONTINUOUS
 10
361.3637227445
 20
31.2488235635
 11
361.3637227445
 21
30.5067593033
 12
361.0746601894
 22
30.5067593033
 13
361.0746601894
 23
30.5067593033
  0
SOLID
  8
0
 62
7
  6
CONTINUOUS
 10
362.4043477445
 20
30.5067593033
 11
362.4043477445
 21
31.1520332377
 12
362.6934101343
 22
31.1520332377
 13
362.6934101343
 23
31.1520332377
  0
SOLID
  8
0
 62
7
  6
CONTINUOUS
 10
362.6934101343
 20
31.1520332377
 11
362.6934101343
 21
30.5067593033
 12
362.4043477445
 22
30.5067593033
 13
362.4043477445
 23
30.5067593033
  0
SOLID
  8
0
 62
7
  6
CONTINUOUS
 10
363.4449727445
 20
31.506933758
 11
363.8496603548
 21
31.5391977507
 12
364.1965353548
 22
31.5391977507
 13
364.1965353548
 23
31.5391977507
  0
SOLID
  8
0
 62
7
  6
CONTINUOUS
 10
364.1965353548
 20
31.5391977507
 11
364.543410024
 21
31.506933758
 12
363.4449727445
 22
31.506933758
 13
363.4449727445
 23
31.506933758
  0
SOLID
  8
0
 62
7
  6
CONTINUOUS
 10
363.3293478548
 20
31.4746706537
 11
363.4449727445
 21
31.506933758
 12
364.543410024
 22
31.506933758
 13
364.543410024
 23
31.506933758
  0
SOLID
  8
0
 62
7
  6
CONTINUOUS
 10
364.543410024
 20
31.506933758
 11
364.716847524
 21
31.4424063504
 12
363.3293478548
 22
31.4746706537
 13
363.3293478548
 23
31.4746706537
  0
SOLID
  8
0
 62
7
  6
CONTINUOUS
 10
363.2137226343
 20
31.4101417797
 11
363.3293478548
 21
31.4746706537
 12
364.716847524
 22
31.4424063504
 13
364.716847524
 23
31.4424063504
  0
SOLID
  8
0
 62
7
  6
CONTINUOUS
 10
363.2137226343
 20
31.4101417797
 11
364.716847524
 21
31.4424063504
 12
363.8496603548
 22
31.4101417797
 13
363.8496603548
 23
31.4101417797
  0
SOLID
  8
0
 62
7
  6
CONTINUOUS
 10
363.8496603548
 20
31.4101417797
 11
364.716847524
 21
31.4424063504
 12
364.1965353548
 22
31.4101417797
 13
364.1965353548
 23
31.4101417797
  0
SOLID
  8
0
 62
7
  6
CONTINUOUS
 10
364.1965353548
 20
31.4101417797
 11
364.716847524
 21
31.4424063504
 12
364.4277854651
 22
31.3778793357
 13
364.4277854651
 23
31.3778793357
  0
SOLID
  8
0
 62
7
  6
CONTINUOUS
 10
364.716847524
 20
31.4424063504
 11
364.8324727445
 21
31.3778793357
 12
364.4277854651
 22
31.3778793357
 13
364.4277854651
 23
31.3778793357
  0
SOLID
  8
0
 62
7
  6
CONTINUOUS
 10
363.1559103548
 20
31.3456153429
 11
363.2137226343
 21
31.4101417797
 12
363.8496603548
 22
31.4101417797
 13
363.8496603548
 23
31.4101417797
  0
SOLID
  8
0
 62
7
  6
CONTINUOUS
 10
364.543410024
 20
31.3456153429
 11
364.4277854651
 21
31.3778793357
 12
364.8324727445
 22
31.3778793357
 13
364.8324727445
 23
31.3778793357
  0
SOLID
  8
0
 62
7
  6
CONTINUOUS
 10
364.543410024
 20
31.3456153429
 11
364.8324727445
 21
31.3778793357
 12
364.6012229651
 22
31.2810881318
 13
364.6012229651
 23
31.2810881318
  0
SOLID
  8
0
 62
7
  6
CONTINUOUS
 10
364.8324727445
 20
31.3778793357
 11
364.890285024
 21
31.2810881318
 12
364.6012229651
 22
31.2810881318
 13
364.6012229651
 23
31.2810881318
  0
SOLID
  8
0
 62
7
  6
CONTINUOUS
 10
364.6012229651
 20
31.1842964734
 11
364.6012229651
 21
31.2810881318
 12
364.890285024
 22
31.2810881318
 13
364.890285024
 23
31.2810881318
  0
SOLID
  8
0
 62
7
  6
CONTINUOUS
 10
364.6012229651
 20
31.1842964734
 11
364.890285024
 21
31.2810881318
 12
364.6012229651
 22
31.0552422931
 13
364.6012229651
 23
31.0552422931
  0
SOLID
  8
0
 62
7
  6
CONTINUOUS
 10
364.6012229651
 20
31.0552422931
 11
364.890285024
 21
31.2810881318
 12
364.6012229651
 22
30.8616599362
 13
364.6012229651
 23
30.8616599362
  0
SOLID
  8
0
 62
7
  6
CONTINUOUS
 10
364.890285024
 20
31.2810881318
 11
364.890285024
 21
30.7648681127
 12
364.6012229651
 22
30.8616599362
 13
364.6012229651
 23
30.8616599362
  0
SOLID
  8
0
 62
7
  6
CONTINUOUS
 10
366.798097524
 20
31.5069339419
 11
367.0293479651
 21
31.5391976292
 12
367.2605977445
 22
31.5391976292
 13
367.2605977445
 23
31.5391976292
  0
SOLID
  8
0
 62
7
  6
CONTINUOUS
 10
367.2605977445
 20
31.5391976292
 11
367.4340352445
 21
31.5069339419
 12
366.798097524
 22
31.5069339419
 13
366.798097524
 23
31.5069339419
  0
SOLID
  8
0
 62
7
  6
CONTINUOUS
 10
366.624660024
 20
31.4424065674
 11
366.798097524
 21
31.5069339419
 12
367.4340352445
 22
31.5069339419
 13
367.4340352445
 23
31.5069339419
  0
SOLID
  8
0
 62
7
  6
CONTINUOUS
 10
367.4340352445
 20
31.5069339419
 11
367.6074727445
 21
31.4424065674
 12
366.624660024
 22
31.4424065674
 13
366.624660024
 23
31.4424065674
  0
SOLID
  8
0
 62
7
  6
CONTINUOUS
 10
367.6074727445
 20
31.4424065674
 11
367.0293479651
 21
31.4101420472
 12
366.624660024
 22
31.4424065674
 13
366.624660024
 23
31.4424065674
  0
SOLID
  8
0
 62
7
  6
CONTINUOUS
 10
366.5090354651
 20
31.377879193
 11
366.624660024
 21
31.4424065674
 12
367.0293479651
 22
31.4101420472
 13
367.0293479651
 23
31.4101420472
  0
SOLID
  8
0
 62
7
  6
CONTINUOUS
 10
367.0293479651
 20
31.4101420472
 11
366.798097524
 21
31.377879193
 12
366.5090354651
 22
31.377879193
 13
366.5090354651
 23
31.377879193
  0
SOLID
  8
0
 62
7
  6
CONTINUOUS
 10
367.0293479651
 20
31.4101420472
 11
367.6074727445
 21
31.4424065674
 12
367.2605977445
 22
31.377879193
 13
367.2605977445
 23
31.377879193
  0
SOLID
  8
0
 62
7
  6
CONTINUOUS
 10
367.6074727445
 20
31.4424065674
 11
367.7230979651
 21
31.377879193
 12
367.2605977445
 22
31.377879193
 13
367.2605977445
 23
31.377879193
  0
SOLID
  8
0
 62
7
  6
CONTINUOUS
 10
367.3762229651
 20
31.345614957
 11
367.2605977445
 21
31.377879193
 12
367.7230979651
 22
31.377879193
 13
367.7230979651
 23
31.377879193
  0
SOLID
  8
0
 62
7
  6
CONTINUOUS
 10
367.3762229651
 20
31.345614957
 11
367.7230979651
 21
31.377879193
 12
367.491847524
 22
31.2810881312
 13
367.491847524
 23
31.2810881312
  0
SOLID
  8
0
 62
7
  6
CONTINUOUS
 10
367.7230979651
 20
31.377879193
 11
367.7809102445
 21
31.2810881312
 12
367.491847524
 22
31.2810881312
 13
367.491847524
 23
31.2810881312
  0
SOLID
  8
0
 62
7
  6
CONTINUOUS
 10
367.5496604651
 20
31.119769695
 11
367.491847524
 21
31.2810881312
 12
367.7809102445
 22
31.2810881312
 13
367.7809102445
 23
31.2810881312
  0
SOLID
  8
0
 62
7
  6
CONTINUOUS
 10
367.7809102445
 20
31.2810881312
 11
367.838722524
 21
31.119769695
 12
367.5496604651
 22
31.119769695
 13
367.5496604651
 23
31.119769695
  0
SOLID
  8
0
 62
7
  6
CONTINUOUS
 10
366.798097524
 20
31.377879193
 11
366.624660024
 21
31.3133521701
 12
366.5090354651
 22
31.377879193
 13
366.5090354651
 23
31.377879193
  0
SOLID
  8
0
 62
7
  6
CONTINUOUS
 10
366.624660024
 20
31.3133521701
 11
366.5090354651
 21
31.2488235635
 12
366.5090354651
 22
31.377879193
 13
366.5090354651
 23
31.377879193
  0
SOLID
  8
0
 62
7
  6
CONTINUOUS
 10
366.5090354651
 20
31.2488235635
 11
366.2199727445
 21
30.5067596374
 12
366.5090354651
 22
31.377879193
 13
366.5090354651
 23
31.377879193
  0
SOLID
  8
0
 62
7
  6
CONTINUOUS
 10
366.5090354651
 20
31.377879193
 11
366.2199727445
 21
30.5067596374
 12
366.5090354651
 22
31.5391976292
 13
366.5090354651
 23
31.5391976292
  0
SOLID
  8
0
 62
7
  6
CONTINUOUS
 10
366.2199727445
 20
30.5067596374
 11
366.2199727445
 21
31.5391976292
 12
366.5090354651
 22
31.5391976292
 13
366.5090354651
 23
31.5391976292
  0
SOLID
  8
0
 62
7
  6
CONTINUOUS
 10
366.5090354651
 20
31.2488235635
 11
366.5090354651
 21
30.5067596374
 12
366.2199727445
 22
30.5067596374
 13
366.2199727445
 23
30.5067596374
  0
SOLID
  8
0
 62
7
  6
CONTINUOUS
 10
367.5496604651
 20
30.5067596374
 11
367.5496604651
 21
31.119769695
 12
367.838722524
 22
31.119769695
 13
367.838722524
 23
31.119769695
  0
SOLID
  8
0
 62
7
  6
CONTINUOUS
 10
367.838722524
 20
31.119769695
 11
367.838722524
 21
30.5067596374
 12
367.5496604651
 22
30.5067596374
 13
367.5496604651
 23
30.5067596374
  0
SOLID
  8
0
 62
7
  6
CONTINUOUS
 10
368.6480977445
 20
31.5069334157
 11
368.9949727445
 21
31.539197762
 12
369.3418477445
 22
31.539197762
 13
369.3418477445
 23
31.539197762
  0
SOLID
  8
0
 62
7
  6
CONTINUOUS
 10
369.3418477445
 20
31.539197762
 11
369.6887227445
 21
31.5069334157
 12
368.6480977445
 22
31.5069334157
 13
368.6480977445
 23
31.5069334157
  0
SOLID
  8
0
 62
7
  6
CONTINUOUS
 10
368.4168479651
 20
31.4424063504
 11
368.6480977445
 21
31.5069334157
 12
369.6887227445
 22
31.5069334157
 13
369.6887227445
 23
31.5069334157
  0
SOLID
  8
0
 62
7
  6
CONTINUOUS
 10
368.4168479651
 20
31.4424063504
 11
369.6887227445
 21
31.5069334406
 12
369.8621602445
 22
31.4746706537
 13
369.8621602445
 23
31.4746706537
  0
SOLID
  8
0
 62
7
  6
CONTINUOUS
 10
368.4168479651
 20
31.4424063504
 11
369.8621602445
 21
31.4746706537
 12
368.9949727445
 22
31.4101421267
 13
368.9949727445
 23
31.4101421267
  0
SOLID
  8
0
 62
7
  6
CONTINUOUS
 10
368.9949727445
 20
31.4101421267
 11
369.8621602445
 21
31.4746706537
 12
369.3418477445
 22
31.4101421267
 13
369.3418477445
 23
31.4101421267
  0
SOLID
  8
0
 62
7
  6
CONTINUOUS
 10
369.8621602445
 20
31.4746706537
 11
370.0355977445
 21
31.4101421267
 12
369.3418477445
 22
31.4101421267
 13
369.3418477445
 23
31.4101421267
  0
SOLID
  8
0
 62
7
  6
CONTINUOUS
 10
369.6887227445
 20
31.3778792603
 11
369.3418477445
 21
31.4101421267
 12
370.0355977445
 22
31.4101421267
 13
370.0355977445
 23
31.4101421267
  0
SOLID
  8
0
 62
7
  6
CONTINUOUS
 10
368.3012227445
 20
31.3456148845
 11
368.4168479651
 21
31.4424063504
 12
368.9949727445
 22
31.4101421267
 13
368.9949727445
 23
31.4101421267
  0
SOLID
  8
0
 62
7
  6
CONTINUOUS
 10
369.6887227445
 20
31.3778792603
 11
370.0355977445
 21
31.4101421267
 12
369.8043479651
 22
31.3456148845
 13
369.8043479651
 23
31.3456148845
  0
SOLID
  8
0
 62
7
  6
CONTINUOUS
 10
369.8043479651
 20
31.3456148845
 11
370.0355977445
 21
31.4101421267
 12
369.8621602445
 22
31.281087868
 13
369.8621602445
 23
31.281087868
  0
SOLID
  8
0
 62
7
  6
CONTINUOUS
 10
370.0355977445
 20
31.4101421267
 11
370.1512223035
 21
31.281087868
 12
369.8621602445
 22
31.281087868
 13
369.8621602445
 23
31.281087868
  0
SOLID
  8
0
 62
7
  6
CONTINUOUS
 10
359.4559102445
 20
31.3778792603
 11
358.9355977445
 21
31.3456148963
 12
359.6871602721
 22
31.4101421155
 13
359.6871602721
 23
31.4101421155
  0
SOLID
  8
0
 62
7
  6
CONTINUOUS
 10
358.9355977445
 20
31.3456148963
 11
359.0512227376
 21
31.4101421155
 12
359.6871602721
 22
31.4101421155
 13
359.6871602721
 23
31.4101421155
  0
SOLID
  8
0
 62
7
  6
CONTINUOUS
 10
359.4559102445
 20
31.3778792603
 11
359.3402852307
 21
31.3456148963
 12
358.9355977445
 22
31.3456148963
 13
358.9355977445
 23
31.3456148963
  0
SOLID
  8
0
 62
7
  6
CONTINUOUS
 10
358.8199727462
 20
31.2165607767
 11
358.9355977445
 21
31.3456148963
 12
359.3402852307
 22
31.3456148963
 13
359.3402852307
 23
31.3456148963
  0
SOLID
  8
0
 62
7
  6
CONTINUOUS
 10
363.1559103548
 20
31.3456149608
 11
363.8496603548
 21
31.4101420472
 12
363.6184102445
 22
31.3778792603
 13
363.6184102445
 23
31.3778792603
  0
SOLID
  8
0
 62
7
  6
CONTINUOUS
 10
363.6184102445
 20
31.3778792603
 11
363.5027853548
 21
31.3456149608
 12
363.1559103548
 22
31.3456149608
 13
363.1559103548
 23
31.3456149608
  0
SOLID
  8
0
 62
7
  6
CONTINUOUS
 10
363.1559103548
 20
31.2810878707
 11
363.1559103548
 21
31.3456149608
 12
363.5027853548
 22
31.3456149608
 13
363.5027853548
 23
31.3456149608
  0
SOLID
  8
0
 62
7
  6
CONTINUOUS
 10
363.5027853548
 20
31.3456149608
 11
363.4449727445
 21
31.2810878707
 12
363.1559103548
 22
31.2810878707
 13
363.1559103548
 23
31.2810878707
  0
SOLID
  8
0
 62
7
  6
CONTINUOUS
 10
368.3012227445
 20
31.3456149608
 11
368.9949727445
 21
31.4101420472
 12
368.7637229651
 22
31.3778792603
 13
368.7637229651
 23
31.3778792603
  0
SOLID
  8
0
 62
7
  6
CONTINUOUS
 10
368.7637229651
 20
31.3778792603
 11
368.6480977445
 21
31.3456149608
 12
368.3012227445
 22
31.3456149608
 13
368.3012227445
 23
31.3456149608
  0
SOLID
  8
0
 62
7
  6
CONTINUOUS
 10
368.3012227445
 20
31.2810878707
 11
368.3012227445
 21
31.3456149608
 12
368.6480977445
 22
31.3456149608
 13
368.6480977445
 23
31.3456149608
  0
SOLID
  8
0
 62
7
  6
CONTINUOUS
 10
368.6480977445
 20
31.3456149608
 11
368.5902854651
 21
31.2810878707
 12
368.3012227445
 22
31.2810878707
 13
368.3012227445
 23
31.2810878707
  0
SOLID
  8
0
 62
7
  6
CONTINUOUS
 10
368.4168479651
 20
31.1520336865
 11
368.3012227445
 21
31.2810878707
 12
368.5902854651
 22
31.2810878707
 13
368.5902854651
 23
31.2810878707
  0
SOLID
  8
0
 62
7
  6
CONTINUOUS
 10
358.8199727462
 20
31.2165607767
 11
359.3402852307
 21
31.345614957
 12
359.1668477307
 22
31.2488235635
 13
359.1668477307
 23
31.2488235635
  0
SOLID
  8
0
 62
7
  6
CONTINUOUS
 10
359.1668477307
 20
31.2488235635
 11
359.1090352445
 21
31.1842964734
 12
358.8199727462
 22
31.2165607767
 13
358.8199727462
 23
31.2165607767
  0
SOLID
  8
0
 62
7
  6
CONTINUOUS
 10
358.7621602445
 20
31.0229779898
 11
358.8199727462
 21
31.2165607767
 12
359.1090352445
 22
31.1842964734
 13
359.1090352445
 23
31.1842964734
  0
SOLID
  8
0
 62
7
  6
CONTINUOUS
 10
363.6184102445
 20
31.1520336865
 11
363.9652852445
 21
31.1842964611
 12
364.6012229651
 22
31.1842964611
 13
364.6012229651
 23
31.1842964611
  0
SOLID
  8
0
 62
7
  6
CONTINUOUS
 10
363.6184102445
 20
31.1520336865
 11
364.6012229651
 21
31.1842964611
 12
363.3871601343
 22
31.0875057863
 13
363.3871601343
 23
31.0875057863
  0
SOLID
  8
0
 62
7
  6
CONTINUOUS
 10
363.3871601343
 20
31.0875057863
 11
364.6012229651
 21
31.1842964611
 12
363.9652852445
 22
31.0552422808
 13
363.9652852445
 23
31.0552422808
  0
SOLID
  8
0
 62
7
  6
CONTINUOUS
 10
364.6012229651
 20
31.1842964611
 11
364.6012229651
 21
31.0552422808
 12
363.9652852445
 22
31.0552422808
 13
363.9652852445
 23
31.0552422808
  0
SOLID
  8
0
 62
7
  6
CONTINUOUS
 10
368.4168479651
 20
31.1520338754
 11
368.5902854651
 21
31.2810878668
 12
368.6480977445
 22
31.2165607767
 13
368.6480977445
 23
31.2165607767
  0
SOLID
  8
0
 62
7
  6
CONTINUOUS
 10
368.6480977445
 20
31.2165607767
 11
368.8215352445
 21
31.1520338754
 12
368.4168479651
 22
31.1520338754
 13
368.4168479651
 23
31.1520338754
  0
SOLID
  8
0
 62
7
  6
CONTINUOUS
 10
368.6480977445
 20
31.0552422931
 11
368.4168479651
 21
31.1520338754
 12
368.8215352445
 22
31.1520338754
 13
368.8215352445
 23
31.1520338754
  0
SOLID
  8
0
 62
7
  6
CONTINUOUS
 10
368.8215352445
 20
31.1520338754
 11
369.8043479651
 21
30.9907152029
 12
368.6480977445
 22
31.0552422931
 13
368.6480977445
 23
31.0552422931
  0
SOLID
  8
0
 62
7
  6
CONTINUOUS
 10
369.6309104651
 20
30.8939239876
 11
368.6480977445
 21
31.0552422931
 12
369.8043479651
 22
30.9907152029
 13
369.8043479651
 23
30.9907152029
  0
SOLID
  8
0
 62
7
  6
CONTINUOUS
 10
369.8043479651
 20
30.9907152029
 11
370.0355977445
 21
30.8939239876
 12
369.6309104651
 22
30.8939239876
 13
369.6309104651
 23
30.8939239876
  0
SOLID
  8
0
 62
7
  6
CONTINUOUS
 10
369.8043479651
 20
30.8293967193
 11
369.6309104651
 21
30.8939239876
 12
370.0355977445
 22
30.8939239876
 13
370.0355977445
 23
30.8939239876
  0
SOLID
  8
0
 62
7
  6
CONTINUOUS
 10
369.8043479651
 20
30.8293967193
 11
370.0355977445
 21
30.8939239876
 12
369.8621602445
 22
30.7648682694
 13
369.8621602445
 23
30.7648682694
  0
SOLID
  8
0
 62
7
  6
CONTINUOUS
 10
370.0355977445
 20
30.8939239876
 11
370.1512223035
 21
30.7648682694
 12
369.8621602445
 22
30.7648682694
 13
369.8621602445
 23
30.7648682694
  0
SOLID
  8
0
 62
7
  6
CONTINUOUS
 10
369.8043479651
 20
30.7003411846
 11
369.8621602445
 21
30.7648682694
 12
370.1512223035
 22
30.7648682694
 13
370.1512223035
 23
30.7648682694
  0
SOLID
  8
0
 62
7
  6
CONTINUOUS
 10
370.1512223035
 20
30.7648682694
 11
370.1512223035
 21
30.7003411846
 12
369.8043479651
 22
30.7003411846
 13
369.8043479651
 23
30.7003411846
  0
SOLID
  8
0
 62
7
  6
CONTINUOUS
 10
369.6887227445
 20
30.6680782357
 11
369.8043479651
 21
30.7003411846
 12
370.1512223035
 22
30.7003411846
 13
370.1512223035
 23
30.7003411846
  0
SOLID
  8
0
 62
7
  6
CONTINUOUS
 10
369.6887227445
 20
30.6680782357
 11
370.1512223035
 21
30.7003411846
 12
369.4574729651
 22
30.6358140998
 13
369.4574729651
 23
30.6358140998
  0
SOLID
  8
0
 62
7
  6
CONTINUOUS
 10
370.1512223035
 20
30.7003411846
 11
370.0355977445
 21
30.6035511455
 12
369.4574729651
 22
30.6358140998
 13
369.4574729651
 23
30.6358140998
  0
SOLID
  8
0
 62
7
  6
CONTINUOUS
 10
370.0355977445
 20
30.6035511455
 11
368.5902854651
 21
30.5712868422
 12
369.4574729651
 22
30.6358140998
 13
369.4574729651
 23
30.6358140998
  0
SOLID
  8
0
 62
7
  6
CONTINUOUS
 10
369.4574729651
 20
30.6358140998
 11
368.5902854651
 21
30.5712868422
 12
369.1105979651
 22
30.6358140998
 13
369.1105979651
 23
30.6358140998
  0
SOLID
  8
0
 62
7
  6
CONTINUOUS
 10
368.5902854651
 20
30.5712868422
 11
368.4168479651
 21
30.6358140998
 12
369.1105979651
 22
30.6358140998
 13
369.1105979651
 23
30.6358140998
  0
SOLID
  8
0
 62
7
  6
CONTINUOUS
 10
368.5902854651
 20
30.5712868422
 11
370.0355977445
 21
30.6035511455
 12
368.7637229651
 22
30.5390223111
 13
368.7637229651
 23
30.5390223111
  0
SOLID
  8
0
 62
7
  6
CONTINUOUS
 10
370.0355977445
 20
30.6035511455
 11
369.8043479651
 21
30.5390223111
 12
368.7637229651
 22
30.5390223111
 13
368.7637229651
 23
30.5390223111
  0
SOLID
  8
0
 62
7
  6
CONTINUOUS
 10
369.1105979651
 20
30.5067599302
 11
368.7637229651
 21
30.5390223111
 12
369.8043479651
 22
30.5390223111
 13
369.8043479651
 23
30.5390223111
  0
SOLID
  8
0
 62
7
  6
CONTINUOUS
 10
369.8043479651
 20
30.5390223111
 11
369.4574729651
 21
30.5067599302
 12
369.1105979651
 22
30.5067599302
 13
369.1105979651
 23
30.5067599302
  0
SOLID
  8
0
 62
7
  6
CONTINUOUS
 10
358.7621602445
 20
31.0229779898
 11
359.1090352445
 21
31.1842964734
 12
359.0512227376
 22
31.0552422931
 13
359.0512227376
 23
31.0552422931
  0
SOLID
  8
0
 62
7
  6
CONTINUOUS
 10
359.0512227376
 20
31.0552422931
 11
359.0512227376
 21
30.9584509954
 12
358.7621602445
 22
31.0229779898
 13
358.7621602445
 23
31.0229779898
  0
SOLID
  8
0
 62
7
  6
CONTINUOUS
 10
358.8199727462
 20
30.8293967193
 11
358.7621602445
 21
31.0229779898
 12
359.0512227376
 22
30.9584509954
 13
359.0512227376
 23
30.9584509954
  0
SOLID
  8
0
 62
7
  6
CONTINUOUS
 10
359.0512227376
 20
30.9584509954
 11
359.1668477307
 21
30.797132416
 12
358.8199727462
 22
30.8293967193
 13
358.8199727462
 23
30.8293967193
  0
SOLID
  8
0
 62
7
  6
CONTINUOUS
 10
358.9355977445
 20
30.7003413087
 11
358.8199727462
 21
30.8293967193
 12
359.1668477307
 22
30.797132416
 13
359.1668477307
 23
30.797132416
  0
SOLID
  8
0
 62
7
  6
CONTINUOUS
 10
359.1668477307
 20
30.797132416
 11
359.3402852307
 21
30.7003413087
 12
358.9355977445
 22
30.7003413087
 13
358.9355977445
 23
30.7003413087
  0
SOLID
  8
0
 62
7
  6
CONTINUOUS
 10
359.0512227376
 20
30.6358140759
 11
358.9355977445
 21
30.7003413087
 12
359.3402852307
 22
30.7003413087
 13
359.3402852307
 23
30.7003413087
  0
SOLID
  8
0
 62
7
  6
CONTINUOUS
 10
359.3402852307
 20
30.7003413087
 11
359.6871602721
 21
30.6358140759
 12
359.0512227376
 22
30.6358140759
 13
359.0512227376
 23
30.6358140759
  0
SOLID
  8
0
 62
7
  6
CONTINUOUS
 10
359.2246602583
 20
30.5712868422
 11
359.0512227376
 21
30.6358140759
 12
359.6871602721
 22
30.6358140759
 13
359.6871602721
 23
30.6358140759
  0
SOLID
  8
0
 62
7
  6
CONTINUOUS
 10
363.2715352445
 20
31.0229779808
 11
363.3871601343
 21
31.0875057863
 12
363.9652852445
 22
31.0552422931
 13
363.9652852445
 23
31.0552422931
  0
SOLID
  8
0
 62
7
  6
CONTINUOUS
 10
363.9652852445
 20
31.0552422931
 11
363.7340351343
 21
31.0229779808
 12
363.2715352445
 22
31.0229779808
 13
363.2715352445
 23
31.0229779808
  0
SOLID
  8
0
 62
7
  6
CONTINUOUS
 10
363.1559103548
 20
30.8939238094
 11
363.2715352445
 21
31.0229779808
 12
363.7340351343
 22
31.0229779808
 13
363.7340351343
 23
31.0229779808
  0
SOLID
  8
0
 62
7
  6
CONTINUOUS
 10
363.5027853548
 20
30.926187309
 11
363.1559103548
 21
30.8939238094
 12
363.6184102445
 22
30.9907152029
 13
363.6184102445
 23
30.9907152029
  0
SOLID
  8
0
 62
7
  6
CONTINUOUS
 10
363.1559103548
 20
30.8939238094
 11
363.7340351343
 21
31.0229779898
 12
363.6184102445
 22
30.9907152029
 13
363.6184102445
 23
30.9907152029
  0
SOLID
  8
0
 62
7
  6
CONTINUOUS
 10
363.5027853548
 20
30.926187309
 11
363.4449727445
 21
30.8293967193
 12
363.1559103548
 22
30.8939238094
 13
363.1559103548
 23
30.8939238094
  0
SOLID
  8
0
 62
7
  6
CONTINUOUS
 10
363.1559103548
 20
30.797132416
 11
363.1559103548
 21
30.8939238094
 12
363.4449727445
 22
30.8293967193
 13
363.4449727445
 23
30.8293967193
  0
SOLID
  8
0
 62
7
  6
CONTINUOUS
 10
363.4449727445
 20
30.8293967193
 11
363.4449727445
 21
30.7648681127
 12
363.1559103548
 22
30.797132416
 13
363.1559103548
 23
30.797132416
  0
SOLID
  8
0
 62
7
  6
CONTINUOUS
 10
363.2137226343
 20
30.6680782357
 11
363.1559103548
 21
30.797132416
 12
363.4449727445
 22
30.7648681127
 13
363.4449727445
 23
30.7648681127
  0
SOLID
  8
0
 62
7
  6
CONTINUOUS
 10
364.6012229651
 20
30.8616599362
 11
364.890285024
 21
30.7648681127
 12
364.543410024
 22
30.797132416
 13
364.543410024
 23
30.797132416
  0
SOLID
  8
0
 62
7
  6
CONTINUOUS
 10
364.369972524
 20
30.7003410226
 11
364.543410024
 21
30.797132416
 12
364.890285024
 22
30.7648681127
 13
364.890285024
 23
30.7648681127
  0
SOLID
  8
0
 62
7
  6
CONTINUOUS
 10
364.369972524
 20
30.7003410226
 11
364.890285024
 21
30.7648681127
 12
364.6012229651
 22
30.6680782357
 13
364.6012229651
 23
30.6680782357
  0
SOLID
  8
0
 62
7
  6
CONTINUOUS
 10
364.890285024
 20
30.7648681127
 11
364.9480979651
 21
30.6035511455
 12
364.6012229651
 22
30.6680782357
 13
364.6012229651
 23
30.6680782357
  0
SOLID
  8
0
 62
7
  6
CONTINUOUS
 10
364.6590352445
 20
30.5712868422
 11
364.6012229651
 21
30.6680782357
 12
364.9480979651
 22
30.6035511455
 13
364.9480979651
 23
30.6035511455
  0
SOLID
  8
0
 62
7
  6
CONTINUOUS
 10
364.6590352445
 20
30.5712868422
 11
364.9480979651
 21
30.6035511455
 12
364.716847524
 22
30.5067598731
 13
364.716847524
 23
30.5067598731
  0
SOLID
  8
0
 62
7
  6
CONTINUOUS
 10
364.9480979651
 20
30.6035511455
 11
365.0059102445
 21
30.5067598731
 12
364.716847524
 22
30.5067598731
 13
364.716847524
 23
30.5067598731
  0
SOLID
  8
0
 62
7
  6
CONTINUOUS
 10
360.2652852997
 20
30.7326051679
 11
360.3230977445
 21
30.8293966612
 12
360.6121602997
 22
30.8293966612
 13
360.6121602997
 23
30.8293966612
  0
SOLID
  8
0
 62
7
  6
CONTINUOUS
 10
360.6121602997
 20
30.8293966612
 11
360.5543476894
 21
30.7003410226
 12
360.2652852997
 22
30.7326051679
 13
360.2652852997
 23
30.7326051679
  0
SOLID
  8
0
 62
7
  6
CONTINUOUS
 10
360.091847717
 20
30.6680782357
 11
360.2652852997
 21
30.7326051679
 12
360.5543476894
 22
30.7003410226
 13
360.5543476894
 23
30.7003410226
  0
SOLID
  8
0
 62
7
  6
CONTINUOUS
 10
360.091847717
 20
30.6680782357
 11
360.5543476894
 21
30.7003410226
 12
359.6871602721
 22
30.6358139324
 13
359.6871602721
 23
30.6358139324
  0
SOLID
  8
0
 62
7
  6
CONTINUOUS
 10
360.5543476894
 20
30.7003410226
 11
360.3809101894
 21
30.6035511455
 12
359.6871602721
 22
30.6358139324
 13
359.6871602721
 23
30.6358139324
  0
SOLID
  8
0
 62
7
  6
CONTINUOUS
 10
359.2246602583
 20
30.5712868422
 11
359.6871602721
 21
30.6358139324
 12
360.3809101894
 22
30.6035511455
 13
360.3809101894
 23
30.6035511455
  0
SOLID
  8
0
 62
7
  6
CONTINUOUS
 10
359.2246602583
 20
30.5712868422
 11
360.3809101894
 21
30.6035511455
 12
359.3980977583
 22
30.5390224228
 13
359.3980977583
 23
30.5390224228
  0
SOLID
  8
0
 62
7
  6
CONTINUOUS
 10
360.3809101894
 20
30.6035511455
 11
360.1496602445
 21
30.5390224228
 12
359.3980977583
 22
30.5390224228
 13
359.3980977583
 23
30.5390224228
  0
SOLID
  8
0
 62
7
  6
CONTINUOUS
 10
359.744972717
 20
30.5067597521
 11
359.3980977583
 21
30.5390224228
 12
360.1496602445
 22
30.5390224228
 13
360.1496602445
 23
30.5390224228
  0
SOLID
  8
0
 62
7
  6
CONTINUOUS
 10
363.2137226343
 20
30.6680782357
 11
363.4449727445
 21
30.7648681127
 12
363.5027853548
 22
30.7003410226
 13
363.5027853548
 23
30.7003410226
  0
SOLID
  8
0
 62
7
  6
CONTINUOUS
 10
363.5027853548
 20
30.7003410226
 11
363.7340351343
 21
30.6358139324
 12
363.2137226343
 22
30.6680782357
 13
363.2137226343
 23
30.6680782357
  0
SOLID
  8
0
 62
7
  6
CONTINUOUS
 10
363.3871601343
 20
30.5712868422
 11
363.2137226343
 21
30.6680782357
 12
363.7340351343
 22
30.6358139324
 13
363.7340351343
 23
30.6358139324
  0
SOLID
  8
0
 62
7
  6
CONTINUOUS
 10
364.0809101343
 20
30.6358139363
 11
364.369972524
 21
30.7003410226
 12
364.6012229651
 22
30.6680782357
 13
364.6012229651
 23
30.6680782357
  0
SOLID
  8
0
 62
7
  6
CONTINUOUS
 10
364.6012229651
 20
30.6680782357
 11
364.543410024
 21
30.6035511455
 12
364.0809101343
 22
30.6358139363
 13
364.0809101343
 23
30.6358139363
  0
SOLID
  8
0
 62
7
  6
CONTINUOUS
 10
364.543410024
 20
30.6035511455
 11
363.3871601343
 21
30.5712868422
 12
364.0809101343
 22
30.6358139363
 13
364.0809101343
 23
30.6358139363
  0
SOLID
  8
0
 62
7
  6
CONTINUOUS
 10
363.3871601343
 20
30.5712868422
 11
363.7340351343
 21
30.6358139363
 12
364.0809101343
 22
30.6358139363
 13
364.0809101343
 23
30.6358139363
  0
SOLID
  8
0
 62
7
  6
CONTINUOUS
 10
363.3871601343
 20
30.5712868422
 11
364.543410024
 21
30.6035511455
 12
363.5027853548
 22
30.5390225267
 13
363.5027853548
 23
30.5390225267
  0
SOLID
  8
0
 62
7
  6
CONTINUOUS
 10
364.543410024
 20
30.6035511455
 11
364.369972524
 21
30.5390225267
 12
363.5027853548
 22
30.5390225267
 13
363.5027853548
 23
30.5390225267
  0
SOLID
  8
0
 62
7
  6
CONTINUOUS
 10
363.7340351343
 20
30.5067596914
 11
363.5027853548
 21
30.5390225267
 12
364.369972524
 22
30.5390225267
 13
364.369972524
 23
30.5390225267
  0
SOLID
  8
0
 62
7
  6
CONTINUOUS
 10
364.369972524
 20
30.5390225267
 11
364.0809101343
 21
30.5067596914
 12
363.7340351343
 22
30.5067596914
 13
363.7340351343
 23
30.5067596914
  0
SOLID
  8
0
 62
7
  6
CONTINUOUS
 10
368.7637229651
 20
30.6680782357
 11
368.4168479651
 21
30.6358138717
 12
368.6480977445
 22
30.7003410226
 13
368.6480977445
 23
30.7003410226
  0
SOLID
  8
0
 62
7
  6
CONTINUOUS
 10
368.6480977445
 20
30.7003410226
 11
368.4168479651
 21
30.6358138717
 12
368.5902854651
 22
30.7648680521
 13
368.5902854651
 23
30.7648680521
  0
SOLID
  8
0
 62
7
  6
CONTINUOUS
 10
368.4168479651
 20
30.6358138717
 11
368.3012227445
 21
30.7648680521
 12
368.5902854651
 22
30.7648680521
 13
368.5902854651
 23
30.7648680521
  0
SOLID
  8
0
 62
7
  6
CONTINUOUS
 10
368.7637229651
 20
30.6680782357
 11
369.1105979651
 21
30.6358138717
 12
368.4168479651
 22
30.6358138717
 13
368.4168479651
 23
30.6358138717
  0
SOLID
  8
0
 62
7
  6
CONTINUOUS
 10
365.4684104651
 20
30.5067597521
 11
365.4684104651
 21
31.5391977439
 12
365.757472524
 22
30.5067597521
 13
365.757472524
 23
31.5391977439
  0
ENDBLK
  8
0
  6
BYBLOCK
 62
0
  0
BLOCK
  8
0
 62
2
  6
CONTINUOUS
  2
SYMBOL_0_BL0
 70
64
 10
240.8592468615
 20
19.762288695
  0
TEXT
  8
0
 62
7
  6
CONTINUOUS
 10
227.1239507038
 20
19.1357028027
  7
TEXTSTYLE_3
 40
2.7338706658
  1
Ammeraal Beltech
 41
1.0
 51
15.0
 72
0
  0
TEXT
  8
0
 62
7
  6
CONTINUOUS
 10
237.9247515296
 20
16.8621661299
  7
TEXTSTYLE_4
 40
1.0935482663
  1
Innovation & Service in Belting
 41
1.0
 72
0
  0
LINE
  8
0
 62
7
  6
CONTINUOUS
 10
221.0994100525
 20
19.9022961113
 11
221.8775620458
 21
23.5632134089
  0
LINE
  8
0
 62
7
  6
CONTINUOUS
 10
231.9727303357
 20
27.2266073205
 11
222.3653797889
 21
24.1049898993
  0
LINE
  8
0
 62
7
  6
CONTINUOUS
 10
221.3246933848
 20
19.2089453082
 11
228.8317686459
 21
12.4495443822
  0
LINE
  8
0
 62
7
  6
CONTINUOUS
 10
221.5872277955
 20
20.4440726016
 11
232.3954971607
 21
23.9558922005
  0
LINE
  8
0
 62
7
  6
CONTINUOUS
 10
232.3912920235
 20
13.6061036368
 11
223.9458323548
 21
21.2104296785
  0
LINE
  8
0
 62
7
  6
CONTINUOUS
 10
232.9111147433
 20
26.3816822048
 11
231.9345552061
 21
21.7873308023
  0
LINE
  8
0
 62
7
  6
CONTINUOUS
 10
231.2347532584
 20
18.4950214885
 11
230.5483050469
 21
15.2655365641
  0
LINE
  8
0
 62
7
  6
CONTINUOUS
 10
233.5922108419
 20
13.9963058145
 11
234.5484423775
 21
18.4950214885
  0
LINE
  8
0
 62
7
  6
CONTINUOUS
 10
235.2482443252
 20
21.7873308023
 11
235.6924861276
 21
23.8773241617
  0
LINE
  8
0
 62
7
  6
CONTINUOUS
 10
229.5448697213
 20
12.2979700695
 11
233.1043930989
 21
13.4545293241
  0
LINE
  8
0
 62
7
  6
CONTINUOUS
 10
232.685831411
 20
27.0750330078
 11
235.4672027953
 21
24.5706749648
  0
ARC
  8
0
 62
7
  6
CONTINUOUS
 10
222.5906631212
 20
23.4116390962
 40
0.7290321776
 50
108.0
 51
168.0
  0
ARC
  8
0
 62
7
  6
CONTINUOUS
 10
232.198013668
 20
26.5332565175
 40
0.7290321776
 50
348.0
 51
108.0
  0
ARC
  8
0
 62
7
  6
CONTINUOUS
 10
234.9793850522
 20
24.0288984744
 40
0.7290321776
 50
348.0
 51
48.0
  0
ARC
  8
0
 62
7
  6
CONTINUOUS
 10
229.319586389
 20
12.9913208726
 40
0.7290321776
 50
228.0
 51
288.0
  0
ARC
  8
0
 62
7
  6
CONTINUOUS
 10
221.8125111278
 20
19.7507217986
 40
0.7290321776
 50
108.0
 51
228.0
  0
ARC
  8
0
 62
7
  6
CONTINUOUS
 10
232.8791097665
 20
14.1478801272
 40
0.7290321776
 50
228.0
 51
348.0
  0
ENDBLK
  8
0
  6
BYBLOCK
 62
0
  0
ENDSEC
  0
SECTION
  2
ENTITIES
  0
TEXT
  8
0
 62
5
  6
CONTINUOUS
 10
304.937007874
 20
25.636
  7
TEXTSTYLE_2
 40
2.8
  1
Scale :
 41
0.6
 51
0.000019
 72
0
  0
TEXT
  8
0
 62
5
  6
CONTINUOUS
 10
324.937007874
 20
25.636
  7
TEXTSTYLE_2
 40
2.8
  1
Belt type:
 41
0.6
 51
0.000019
 72
0
  0
INSERT
  8
0
 62
2
  6
CONTINUOUS
  2
SYMBOL_0_BL0
 10
240.8592468615
 20
19.762288695
  0
INSERT
  8
0
 62
2
  6
CONTINUOUS
  2
SYMBOL_5_BL1
 10
382.7840918555
 20
35.5067593403
  0
LINE
  8
0
 62
2
  6
CONTINUOUS
 10
218.937007874
 20
30.0
 11
408.937007874
 21
30.0
  0
LINE
  8
0
 62
2
  6
CONTINUOUS
 10
218.937007874
 20
30.0
 11
218.937007874
 21
10.0
  0
LINE
  8
0
 62
2
  6
CONTINUOUS
 10
218.937007874
 20
10.0
 11
408.937007874
 21
10.0
  0
LINE
  8
0
 62
2
  6
CONTINUOUS
 10
303.937007874
 20
30.0
 11
303.937007874
 21
10.0
  0
LINE
  8
0
 62
2
  6
CONTINUOUS
 10
323.937007874
 20
30.0
 11
323.937007874
 21
10.0
  0
LINE
  8
0
 62
2
  6
CONTINUOUS
 10
408.937007874
 20
30.0
 11
408.937007874
 21
10.0
  0
TEXT
  8
0
 62
5
  6
CONTINUOUS
 10
221.937007874
 20
23.303
  7
TEXTSTYLE_5
 40
1.52
  1
                                                                     Ammeraal Beltech Modular A/S
 41
1.0
 72
0
  0
TEXT
  8
0
 62
5
  6
CONTINUOUS
 10
221.937007874
 20
20.595
  7
TEXTSTYLE_5
 40
1.5
  1
                                                                      Hjulmagervej 21, 7100 Vejle,  DK
 41
1.0
 72
0
  0
TEXT
  8
0
 62
5
  6
CONTINUOUS
 10
221.937007874
 20
17.881
  7
TEXTSTYLE_5
 40
1.495
  1
                                                                      tel: 
 41
1.0
 72
0
  0
TEXT
  8
0
 62
5
  6
CONTINUOUS
 10
266.9239544389
 20
17.881
  7
TEXTSTYLE_5
 40
1.51
  1
+45 75723100     fax: +45 75723348
 41
1.0
 72
0
  0
TEXT
  8
0
 62
5
  6
CONTINUOUS
 10
221.937007874
 20
15.177
  7
TEXTSTYLE_5
 40
1.5
  1
                                                                      admin@unichains.dk  www.unichains.com
 41
1.0
 72
0
  0
TEXT
  8
0
 62
5
  6
CONTINUOUS
 10
308.687007874
 20
13.75
  7
TEXTSTYLE_6
 40
5.0
  1
1:1
 41
0.7
 72
1
 11
313.937007874
 21
13.75
  0
TEXT
  8
0
 62
5
  6
CONTINUOUS
 10
326.937007874
 20
13.75
  7
TEXTSTYLE_7
 40
7.5
  1
uni XLB-M2 PS 12,5mm K400
 41
0.4266666667
 72
0
  0
LINE
  8
0
 62
7
  6
CONTINUOUS
 10
0.0
 20
0.0
 11
0.0
 21
297.0
  0
LINE
  8
0
 62
7
  6
CONTINUOUS
 10
8.937007874
 20
10.0
 11
8.937007874
 21
287.0
  0
LINE
  8
0
 62
7
  6
CONTINUOUS
 10
0.0
 20
0.0
 11
420.0
 21
0.0
  0
LINE
  8
0
 62
7
  6
CONTINUOUS
 10
408.937007874
 20
10.0
 11
8.937007874
 21
10.0
  0
LINE
  8
0
 62
7
  6
CONTINUOUS
 10
218.937007874
 20
30.0
 11
408.937007874
 21
30.0
  0
LINE
  8
0
 62
7
  6
CONTINUOUS
 10
210.0
 20
297.0
 11
210.0
 21
292.0
  0
LINE
  8
0
 62
7
  6
CONTINUOUS
 10
210.0
 20
0.0
 11
210.0
 21
5.0
  0
LINE
  8
0
 62
7
  6
CONTINUOUS
 10
8.937007874
 20
287.0
 11
408.937007874
 21
287.0
  0
LINE
  8
0
 62
7
  6
CONTINUOUS
 10
0.0
 20
297.0
 11
420.0
 21
297.0
  0
LINE
  8
0
 62
7
  6
CONTINUOUS
 10
408.937007874
 20
287.0
 11
408.937007874
 21
10.0
  0
LINE
  8
0
 62
7
  6
CONTINUOUS
 10
420.0
 20
0.0
 11
420.0
 21
297.0
  0
LINE
  8
SURFACE
 62
7
  6
CONTINUOUS
 10
84.9802631579
 20
104.5230263158
 11
84.9802631579
 21
91.3230280008
  0
LINE
  8
0
 62
7
  6
CONTINUOUS
 10
84.9802631579
 20
104.5230263158
 11
84.9802631579
 21
155.5053043291
  0
LINE
  8
0
 62
7
  6
CONTINUOUS
 10
88.0802631579
 20
122.2338907971
 11
88.0802631579
 21
150.3121618345
  0
POLYLINE
  8
0
 62
7
  6
CONTINUOUS
 66
1
 70
0
  0
VERTEX
  8
0
 62
7
  6
CONTINUOUS
 10
84.9802631579
 20
155.5053043291
  0
VERTEX
  8
0
 62
7
  6
CONTINUOUS
 10
84.986307758
 20
155.6526950457
  0
VERTEX
  8
0
 62
7
  6
CONTINUOUS
 10
85.0044164787
 20
155.799189633
  0
VERTEX
  8
0
 62
7
  6
CONTINUOUS
 10
85.0346027854
 20
155.9442460837
  0
VERTEX
  8
0
 62
7
  6
CONTINUOUS
 10
85.0767959011
 20
156.0868533854
  0
VERTEX
  8
0
 62
7
  6
CONTINUOUS
 10
85.1303101414
 20
156.2247868121
  0
VERTEX
  8
0
 62
7
  6
CONTINUOUS
 10
85.1958715197
 20
156.3595309599
  0
VERTEX
  8
0
 62
7
  6
CONTINUOUS
 10
85.2719243601
 20
156.4876047267
  0
VERTEX
  8
0
 62
7
  6
CONTINUOUS
 10
85.3584815188
 20
156.6091779499
  0
VERTEX
  8
0
 62
7
  6
CONTINUOUS
 10
85.4553456207
 20
156.7237432975
  0
VERTEX
  8
0
 62
7
  6
CONTINUOUS
 10
85.560170729
 20
156.8286993816
  0
VERTEX
  8
0
 62
7
  6
CONTINUOUS
 10
85.6752217076
 20
156.9261784942
  0
VERTEX
  8
0
 62
7
  6
CONTINUOUS
 10
85.7964087899
 20
157.0126299683
  0
VERTEX
  8
0
 62
7
  6
CONTINUOUS
 10
85.9251376665
 20
157.0892110164
  0
VERTEX
  8
0
 62
7
  6
CONTINUOUS
 10
86.0591957277
 20
157.1545653033
  0
VERTEX
  8
0
 62
7
  6
CONTINUOUS
 10
86.1978607626
 20
157.2084800247
  0
VERTEX
  8
0
 62
7
  6
CONTINUOUS
 10
86.3406714188
 20
157.250801136
  0
VERTEX
  8
0
 62
7
  6
CONTINUOUS
 10
86.4855933695
 20
157.2810210058
  0
VERTEX
  8
0
 62
7
  6
CONTINUOUS
 10
86.6327730212
 20
157.2992515579
  0
VERTEX
  8
0
 62
7
  6
CONTINUOUS
 10
86.7802631579
 20
157.3053043291
  0
SEQEND
  0
POLYLINE
  8
SURFACE
 62
7
  6
CONTINUOUS
 66
1
 70
0
  0
VERTEX
  8
SURFACE
 62
7
  6
CONTINUOUS
 10
166.3191944642
 20
89.5230265297
  0
VERTEX
  8
SURFACE
 62
7
  6
CONTINUOUS
 10
166.4388310414
 20
89.5270045025
  0
VERTEX
  8
SURFACE
 62
7
  6
CONTINUOUS
 10
166.5870471711
 20
89.5430558786
  0
VERTEX
  8
SURFACE
 62
7
  6
CONTINUOUS
 10
166.7315318314
 20
89.5708634124
  0
VERTEX
  8
SURFACE
 62
7
  6
CONTINUOUS
 10
166.8706250033
 20
89.6095204758
  0
VERTEX
  8
SURFACE
 62
7
  6
CONTINUOUS
 10
167.0028454424
 20
89.657822684
  0
VERTEX
  8
SURFACE
 62
7
  6
CONTINUOUS
 10
167.1269331751
 20
89.714310782
  0
VERTEX
  8
SURFACE
 62
7
  6
CONTINUOUS
 10
167.241890114
 20
89.7773269983
  0
VERTEX
  8
SURFACE
 62
7
  6
CONTINUOUS
 10
167.3474266288
 20
89.845373455
  0
VERTEX
  8
SURFACE
 62
7
  6
CONTINUOUS
 10
167.4440730121
 20
89.9174824788
  0
VERTEX
  8
SURFACE
 62
7
  6
CONTINUOUS
 10
167.5324429255
 20
89.9929357177
  0
VERTEX
  8
SURFACE
 62
7
  6
CONTINUOUS
 10
167.6131387489
 20
90.0712064013
  0
VERTEX
  8
SURFACE
 62
7
  6
CONTINUOUS
 10
167.6865606144
 20
90.1517386352
  0
VERTEX
  8
SURFACE
 62
7
  6
CONTINUOUS
 10
167.7527923819
 20
90.2336715819
  0
VERTEX
  8
SURFACE
 62
7
  6
CONTINUOUS
 10
167.8119822925
 20
90.3161454376
  0
VERTEX
  8
SURFACE
 62
7
  6
CONTINUOUS
 10
167.8643634641
 20
90.39833861
  0
VERTEX
  8
SURFACE
 62
7
  6
CONTINUOUS
 10
167.9102139361
 20
90.4794203119
  0
VERTEX
  8
SURFACE
 62
7
  6
CONTINUOUS
 10
167.9497200789
 20
90.5582543415
  0
VERTEX
  8
SURFACE
 62
7
  6
CONTINUOUS
 10
167.9831286843
 20
90.6335691302
  0
VERTEX
  8
SURFACE
 62
7
  6
CONTINUOUS
 10
168.0108745585
 20
90.704275183
  0
VERTEX
  8
SURFACE
 62
7
  6
CONTINUOUS
 10
168.0336066158
 20
90.7697577262
  0
VERTEX
  8
SURFACE
 62
7
  6
CONTINUOUS
 10
168.0520303547
 20
90.8297142145
  0
VERTEX
  8
SURFACE
 62
7
  6
CONTINUOUS
 10
168.0668508859
 20
90.8841362741
  0
VERTEX
  8
SURFACE
 62
7
  6
CONTINUOUS
 10
168.0787241065
 20
90.9332448752
  0
VERTEX
  8
SURFACE
 62
7
  6
CONTINUOUS
 10
168.088286178
 20
90.9777036596
  0
VERTEX
  8
SURFACE
 62
7
  6
CONTINUOUS
 10
168.0960459644
 20
91.0181904184
  0
VERTEX
  8
SURFACE
 62
7
  6
CONTINUOUS
 10
168.1023862949
 20
91.0552504405
  0
VERTEX
  8
SURFACE
 62
7
  6
CONTINUOUS
 10
168.1075582591
 20
91.0890347687
  0
VERTEX
  8
SURFACE
 62
7
  6
CONTINUOUS
 10
168.1117837517
 20
91.1197592734
  0
VERTEX
  8
SURFACE
 62
7
  6
CONTINUOUS
 10
168.1152659451
 20
91.1477973747
  0
VERTEX
  8
SURFACE
 62
7
  6
CONTINUOUS
 10
168.1181909867
 20
91.1737309756
  0
VERTEX
  8
SURFACE
 62
7
  6
CONTINUOUS
 10
168.1207032959
 20
91.1981258244
  0
VERTEX
  8
SURFACE
 62
7
  6
CONTINUOUS
 10
168.1229072401
 20
91.2214478444
  0
VERTEX
  8
SURFACE
 62
7
  6
CONTINUOUS
 10
168.1248782474
 20
91.2440741191
  0
VERTEX
  8
SURFACE
 62
7
  6
CONTINUOUS
 10
168.1266711329
 20
91.2663074799
  0
VERTEX
  8
SURFACE
 62
7
  6
CONTINUOUS
 10
168.1283264
 20
91.2883950913
  0
VERTEX
  8
SURFACE
 62
7
  6
CONTINUOUS
 10
168.1298768923
 20
91.3105783066
  0
VERTEX
  8
SURFACE
 62
7
  6
CONTINUOUS
 10
168.1313476244
 20
91.3330669763
  0
VERTEX
  8
SURFACE
 62
7
  6
CONTINUOUS
 10
168.1341211121
 20
91.3796572047
  0
SEQEND
  0
POLYLINE
  8
SURFACE
 62
7
  6
CONTINUOUS
 66
1
 70
0
  0
VERTEX
  8
SURFACE
 62
7
  6
CONTINUOUS
 10
132.8991944642
 20
89.5230265297
  0
VERTEX
  8
SURFACE
 62
7
  6
CONTINUOUS
 10
133.0188310414
 20
89.5270045025
  0
VERTEX
  8
SURFACE
 62
7
  6
CONTINUOUS
 10
133.1670471711
 20
89.5430558786
  0
VERTEX
  8
SURFACE
 62
7
  6
CONTINUOUS
 10
133.3115318314
 20
89.5708634124
  0
VERTEX
  8
SURFACE
 62
7
  6
CONTINUOUS
 10
133.4506250033
 20
89.6095204758
  0
VERTEX
  8
SURFACE
 62
7
  6
CONTINUOUS
 10
133.5828454424
 20
89.657822684
  0
VERTEX
  8
SURFACE
 62
7
  6
CONTINUOUS
 10
133.7069331751
 20
89.714310782
  0
VERTEX
  8
SURFACE
 62
7
  6
CONTINUOUS
 10
133.821890114
 20
89.7773269983
  0
VERTEX
  8
SURFACE
 62
7
  6
CONTINUOUS
 10
133.9274266288
 20
89.845373455
  0
VERTEX
  8
SURFACE
 62
7
  6
CONTINUOUS
 10
134.0240730121
 20
89.9174824788
  0
VERTEX
  8
SURFACE
 62
7
  6
CONTINUOUS
 10
134.1124429255
 20
89.9929357177
  0
VERTEX
  8
SURFACE
 62
7
  6
CONTINUOUS
 10
134.1931387489
 20
90.0712064013
  0
VERTEX
  8
SURFACE
 62
7
  6
CONTINUOUS
 10
134.2665606144
 20
90.1517386352
  0
VERTEX
  8
SURFACE
 62
7
  6
CONTINUOUS
 10
134.3327923819
 20
90.2336715819
  0
VERTEX
  8
SURFACE
 62
7
  6
CONTINUOUS
 10
134.3919822925
 20
90.3161454376
  0
VERTEX
  8
SURFACE
 62
7
  6
CONTINUOUS
 10
134.4443634641
 20
90.39833861
  0
VERTEX
  8
SURFACE
 62
7
  6
CONTINUOUS
 10
134.490213936
 20
90.4794203119
  0
VERTEX
  8
SURFACE
 62
7
  6
CONTINUOUS
 10
134.5297200789
 20
90.5582543415
  0
VERTEX
  8
SURFACE
 62
7
  6
CONTINUOUS
 10
134.5631286843
 20
90.6335691302
  0
VERTEX
  8
SURFACE
 62
7
  6
CONTINUOUS
 10
134.5908745585
 20
90.704275183
  0
VERTEX
  8
SURFACE
 62
7
  6
CONTINUOUS
 10
134.6136066158
 20
90.7697577262
  0
VERTEX
  8
SURFACE
 62
7
  6
CONTINUOUS
 10
134.6320303547
 20
90.8297142145
  0
VERTEX
  8
SURFACE
 62
7
  6
CONTINUOUS
 10
134.6468508859
 20
90.8841362741
  0
VERTEX
  8
SURFACE
 62
7
  6
CONTINUOUS
 10
134.6587241065
 20
90.9332448752
  0
VERTEX
  8
SURFACE
 62
7
  6
CONTINUOUS
 10
134.668286178
 20
90.9777036596
  0
VERTEX
  8
SURFACE
 62
7
  6
CONTINUOUS
 10
134.6760459644
 20
91.0181904184
  0
VERTEX
  8
SURFACE
 62
7
  6
CONTINUOUS
 10
134.6823862949
 20
91.0552504405
  0
VERTEX
  8
SURFACE
 62
7
  6
CONTINUOUS
 10
134.6875582591
 20
91.0890347687
  0
VERTEX
  8
SURFACE
 62
7
  6
CONTINUOUS
 10
134.6917837517
 20
91.1197592734
  0
VERTEX
  8
SURFACE
 62
7
  6
CONTINUOUS
 10
134.6952659451
 20
91.1477973747
  0
VERTEX
  8
SURFACE
 62
7
  6
CONTINUOUS
 10
134.6981909867
 20
91.1737309756
  0
VERTEX
  8
SURFACE
 62
7
  6
CONTINUOUS
 10
134.7007032959
 20
91.1981258244
  0
VERTEX
  8
SURFACE
 62
7
  6
CONTINUOUS
 10
134.7029072401
 20
91.2214478444
  0
VERTEX
  8
SURFACE
 62
7
  6
CONTINUOUS
 10
134.7048782474
 20
91.2440741191
  0
VERTEX
  8
SURFACE
 62
7
  6
CONTINUOUS
 10
134.7066711329
 20
91.2663074799
  0
VERTEX
  8
SURFACE
 62
7
  6
CONTINUOUS
 10
134.7083264
 20
91.2883950913
  0
VERTEX
  8
SURFACE
 62
7
  6
CONTINUOUS
 10
134.7098768923
 20
91.3105783066
  0
VERTEX
  8
SURFACE
 62
7
  6
CONTINUOUS
 10
134.7113476244
 20
91.3330669763
  0
VERTEX
  8
SURFACE
 62
7
  6
CONTINUOUS
 10
134.7141211121
 20
91.3796572047
  0
SEQEND
  0
LINE
  8
SURFACE
 62
7
  6
CONTINUOUS
 10
99.3991945153
 20
89.5230263158
 11
86.7802631579
 21
89.5230263158
  0
LINE
  8
SURFACE
 62
7
  6
CONTINUOUS
 10
120.3513318007
 20
89.5230263158
 11
132.8991945151
 21
89.5230263158
  0
LINE
  8
SURFACE
 62
7
  6
CONTINUOUS
 10
153.7713318007
 20
89.5230263158
 11
166.3191945151
 21
89.5230263158
  0
POLYLINE
  8
SURFACE
 62
7
  6
CONTINUOUS
 66
1
 70
0
  0
VERTEX
  8
SURFACE
 62
7
  6
CONTINUOUS
 10
99.3991944538
 20
89.5230265297
  0
VERTEX
  8
SURFACE
 62
7
  6
CONTINUOUS
 10
99.5188305103
 20
89.5270044675
  0
VERTEX
  8
SURFACE
 62
7
  6
CONTINUOUS
 10
99.6670472842
 20
89.5430558964
  0
VERTEX
  8
SURFACE
 62
7
  6
CONTINUOUS
 10
99.8115334358
 20
89.5708637911
  0
VERTEX
  8
SURFACE
 62
7
  6
CONTINUOUS
 10
99.9506286043
 20
89.6095216357
  0
VERTEX
  8
SURFACE
 62
7
  6
CONTINUOUS
 10
100.082851207
 20
89.6578250513
  0
VERTEX
  8
SURFACE
 62
7
  6
CONTINUOUS
 10
100.2069409568
 20
89.7143146891
  0
VERTEX
  8
SURFACE
 62
7
  6
CONTINUOUS
 10
100.3218995018
 20
89.7773326011
  0
VERTEX
  8
SURFACE
 62
7
  6
CONTINUOUS
 10
100.4274371733
 20
89.8453807898
  0
VERTEX
  8
SURFACE
 62
7
  6
CONTINUOUS
 10
100.5240843659
 20
89.9174915609
  0
VERTEX
  8
SURFACE
 62
7
  6
CONTINUOUS
 10
100.6124548289
 20
89.9929465682
  0
VERTEX
  8
SURFACE
 62
7
  6
CONTINUOUS
 10
100.6931510134
 20
90.0712190678
  0
VERTEX
  8
SURFACE
 62
7
  6
CONTINUOUS
 10
100.7665730254
 20
90.1517531082
  0
VERTEX
  8
SURFACE
 62
7
  6
CONTINUOUS
 10
100.8328046997
 20
90.2336877698
  0
VERTEX
  8
SURFACE
 62
7
  6
CONTINUOUS
 10
100.8919942856
 20
90.316163187
  0
VERTEX
  8
SURFACE
 62
7
  6
CONTINUOUS
 10
100.9443749154
 20
90.3983577014
  0
VERTEX
  8
SURFACE
 62
7
  6
CONTINUOUS
 10
100.9902246371
 20
90.4794404328
  0
VERTEX
  8
SURFACE
 62
7
  6
CONTINUOUS
 10
101.0297298397
 20
90.558275068
  0
VERTEX
  8
SURFACE
 62
7
  6
CONTINUOUS
 10
101.0631374088
 20
90.6335900708
  0
VERTEX
  8
SURFACE
 62
7
  6
CONTINUOUS
 10
101.0908822413
 20
90.7042960301
  0
VERTEX
  8
SURFACE
 62
7
  6
CONTINUOUS
 10
101.1136133553
 20
90.7697783933
  0
VERTEX
  8
SURFACE
 62
7
  6
CONTINUOUS
 10
101.1320361347
 20
90.8297342279
  0
VERTEX
  8
SURFACE
 62
7
  6
CONTINUOUS
 10
101.1468556836
 20
90.8841550031
  0
VERTEX
  8
SURFACE
 62
7
  6
CONTINUOUS
 10
101.1587279795
 20
90.9332618864
  0
VERTEX
  8
SURFACE
 62
7
  6
CONTINUOUS
 10
101.1682892661
 20
90.9777188933
  0
VERTEX
  8
SURFACE
 62
7
  6
CONTINUOUS
 10
101.1760484261
 20
91.0182040357
  0
VERTEX
  8
SURFACE
 62
7
  6
CONTINUOUS
 10
101.1823882634
 20
91.0552626308
  0
VERTEX
  8
SURFACE
 62
7
  6
CONTINUOUS
 10
101.1875598305
 20
91.0890456264
  0
VERTEX
  8
SURFACE
 62
7
  6
CONTINUOUS
 10
101.1917850087
 20
91.1197689169
  0
VERTEX
  8
SURFACE
 62
7
  6
CONTINUOUS
 10
101.195266968
 20
91.1478060332
  0
VERTEX
  8
SURFACE
 62
7
  6
CONTINUOUS
 10
101.1981918632
 20
91.1737391166
  0
VERTEX
  8
SURFACE
 62
7
  6
CONTINUOUS
 10
101.2007040562
 20
91.198133538
  0
VERTEX
  8
SURFACE
 62
7
  6
CONTINUOUS
 10
101.2029079077
 20
91.2214552109
  0
VERTEX
  8
SURFACE
 62
7
  6
CONTINUOUS
 10
101.2048788405
 20
91.2440812075
  0
VERTEX
  8
SURFACE
 62
7
  6
CONTINUOUS
 10
101.2066716659
 20
91.2663143473
  0
VERTEX
  8
SURFACE
 62
7
  6
CONTINUOUS
 10
101.2083268845
 20
91.2884017916
  0
VERTEX
  8
SURFACE
 62
7
  6
CONTINUOUS
 10
101.2098773481
 20
91.310585047
  0
VERTEX
  8
SURFACE
 62
7
  6
CONTINUOUS
 10
101.2113480564
 20
91.3330737951
  0
VERTEX
  8
SURFACE
 62
7
  6
CONTINUOUS
 10
101.2141215057
 20
91.3796642324
  0
SEQEND
  0
POLYLINE
  8
0
 62
7
  6
CONTINUOUS
 66
1
 70
0
  0
VERTEX
  8
0
 62
7
  6
CONTINUOUS
 10
96.1648505522
 20
148.5182374511
  0
VERTEX
  8
0
 62
7
  6
CONTINUOUS
 10
96.159629526
 20
148.7585685654
  0
VERTEX
  8
0
 62
7
  6
CONTINUOUS
 10
96.174110013
 20
148.9974013214
  0
VERTEX
  8
0
 62
7
  6
CONTINUOUS
 10
96.205217829
 20
149.2185821995
  0
VERTEX
  8
0
 62
7
  6
CONTINUOUS
 10
96.2496901039
 20
149.4234783001
  0
VERTEX
  8
0
 62
7
  6
CONTINUOUS
 10
96.3050298656
 20
149.6135198468
  0
VERTEX
  8
0
 62
7
  6
CONTINUOUS
 10
96.3693548145
 20
149.7901170279
  0
VERTEX
  8
0
 62
7
  6
CONTINUOUS
 10
96.4412414185
 20
149.9545355514
  0
VERTEX
  8
0
 62
7
  6
CONTINUOUS
 10
96.5196011153
 20
150.1078625454
  0
VERTEX
  8
0
 62
7
  6
CONTINUOUS
 10
96.6036404103
 20
150.2510951847
  0
VERTEX
  8
0
 62
7
  6
CONTINUOUS
 10
96.6927733401
 20
150.385083758
  0
VERTEX
  8
0
 62
7
  6
CONTINUOUS
 10
96.7863735012
 20
150.5102929789
  0
VERTEX
  8
0
 62
7
  6
CONTINUOUS
 10
96.883840242
 20
150.6270557904
  0
VERTEX
  8
0
 62
7
  6
CONTINUOUS
 10
96.9846131869
 20
150.7356522918
  0
VERTEX
  8
0
 62
7
  6
CONTINUOUS
 10
97.0881714967
 20
150.8363387025
  0
VERTEX
  8
0
 62
7
  6
CONTINUOUS
 10
97.1940448602
 20
150.9293678121
  0
VERTEX
  8
0
 62
7
  6
CONTINUOUS
 10
97.3017473285
 20
151.0149405795
  0
VERTEX
  8
0
 62
7
  6
CONTINUOUS
 10
97.4108539789
 20
151.0932878633
  0
VERTEX
  8
0
 62
7
  6
CONTINUOUS
 10
97.5213760718
 20
151.1648914546
  0
VERTEX
  8
0
 62
7
  6
CONTINUOUS
 10
97.6335318132
 20
151.2302297412
  0
VERTEX
  8
0
 62
7
  6
CONTINUOUS
 10
97.7475908227
 20
151.2896664481
  0
VERTEX
  8
0
 62
7
  6
CONTINUOUS
 10
97.8636302566
 20
151.3433542114
  0
VERTEX
  8
0
 62
7
  6
CONTINUOUS
 10
97.9814641697
 20
151.3912768934
  0
VERTEX
  8
0
 62
7
  6
CONTINUOUS
 10
98.1008214548
 20
151.4333854636
  0
VERTEX
  8
0
 62
7
  6
CONTINUOUS
 10
98.2213200083
 20
151.4696145774
  0
VERTEX
  8
0
 62
7
  6
CONTINUOUS
 10
98.3421631164
 20
151.4998421909
  0
VERTEX
  8
0
 62
7
  6
CONTINUOUS
 10
98.4621622174
 20
151.5239928547
  0
VERTEX
  8
0
 62
7
  6
CONTINUOUS
 10
98.580060654
 20
151.5421652996
  0
VERTEX
  8
0
 62
7
  6
CONTINUOUS
 10
98.695533948
 20
151.5547228294
  0
VERTEX
  8
0
 62
7
  6
CONTINUOUS
 10
98.8092362502
 20
151.5620831197
  0
VERTEX
  8
0
 62
7
  6
CONTINUOUS
 10
98.922025484
 20
151.5645138551
  0
VERTEX
  8
0
 62
7
  6
CONTINUOUS
 10
99.0348058653
 20
151.5621058698
  0
VERTEX
  8
0
 62
7
  6
CONTINUOUS
 10
99.1484928077
 20
151.5547699511
  0
VERTEX
  8
0
 62
7
  6
CONTINUOUS
 10
99.2639591835
 20
151.5422376487
  0
VERTEX
  8
0
 62
7
  6
CONTINUOUS
 10
99.3818706138
 20
151.5240884382
  0
VERTEX
  8
0
 62
7
  6
CONTINUOUS
 10
99.5018918864
 20
151.4999587076
  0
VERTEX
  8
0
 62
7
  6
CONTINUOUS
 10
99.6227573506
 20
151.4697506864
  0
VERTEX
  8
0
 62
7
  6
CONTINUOUS
 10
99.743272959
 20
151.433541419
  0
VERTEX
  8
0
 62
7
  6
CONTINUOUS
 10
99.862643023
 20
151.3914533138
  0
VERTEX
  8
0
 62
7
  6
CONTINUOUS
 10
99.9804867289
 20
151.3435518913
  0
VERTEX
  8
0
 62
7
  6
CONTINUOUS
 10
100.0965337503
 20
151.2898864091
  0
VERTEX
  8
0
 62
7
  6
CONTINUOUS
 10
100.2105994485
 20
151.2304728235
  0
VERTEX
  8
0
 62
7
  6
CONTINUOUS
 10
100.3227642284
 20
151.1651568791
  0
VERTEX
  8
0
 62
7
  6
CONTINUOUS
 10
100.4332969764
 20
151.093575129
  0
VERTEX
  8
0
 62
7
  6
CONTINUOUS
 10
100.5424143915
 20
151.015250497
  0
VERTEX
  8
0
 62
7
  6
CONTINUOUS
 10
100.650126588
 20
150.9297025488
  0
VERTEX
  8
0
 62
7
  6
CONTINUOUS
 10
100.7560077785
 20
150.8367017159
  0
VERTEX
  8
0
 62
7
  6
CONTINUOUS
 10
100.8595712277
 20
150.7360488576
  0
VERTEX
  8
0
 62
7
  6
CONTINUOUS
 10
100.9603485654
 20
150.6274909881
  0
VERTEX
  8
0
 62
7
  6
CONTINUOUS
 10
101.0578203367
 20
150.5107714519
  0
VERTEX
  8
0
 62
7
  6
CONTINUOUS
 10
101.1514264007
 20
150.385611074
  0
VERTEX
  8
0
 62
7
  6
CONTINUOUS
 10
101.2405663643
 20
150.251678871
  0
VERTEX
  8
0
 62
7
  6
CONTINUOUS
 10
101.3246170184
 20
150.1085074082
  0
VERTEX
  8
0
 62
7
  6
CONTINUOUS
 10
101.4029932913
 20
149.9552468882
  0
VERTEX
  8
0
 62
7
  6
CONTINUOUS
 10
101.4749025359
 20
149.7909016877
  0
VERTEX
  8
0
 62
7
  6
CONTINUOUS
 10
101.539257591
 20
149.6143867727
  0
VERTEX
  8
0
 62
7
  6
CONTINUOUS
 10
101.5946378401
 20
149.424435987
  0
VERTEX
  8
0
 62
7
  6
CONTINUOUS
 10
101.6391637589
 20
149.2196411441
  0
VERTEX
  8
0
 62
7
  6
CONTINUOUS
 10
101.670342498
 20
148.9985738346
  0
VERTEX
  8
0
 62
7
  6
CONTINUOUS
 10
101.6849169791
 20
148.7598675394
  0
SEQEND
  0
POLYLINE
  8
0
 62
7
  6
CONTINUOUS
 66
1
 70
0
  0
VERTEX
  8
0
 62
7
  6
CONTINUOUS
 10
100.9869405899
 20
158.0547201975
  0
VERTEX
  8
0
 62
7
  6
CONTINUOUS
 10
100.9354018487
 20
157.9766532356
  0
VERTEX
  8
0
 62
7
  6
CONTINUOUS
 10
100.8708961729
 20
157.8852472518
  0
VERTEX
  8
0
 62
7
  6
CONTINUOUS
 10
100.8048311399
 20
157.7988602775
  0
VERTEX
  8
0
 62
7
  6
CONTINUOUS
 10
100.7373888686
 20
157.7181371838
  0
VERTEX
  8
0
 62
7
  6
CONTINUOUS
 10
100.6689788216
 20
157.6438570236
  0
VERTEX
  8
0
 62
7
  6
CONTINUOUS
 10
100.6002243172
 20
157.5768098464
  0
VERTEX
  8
0
 62
7
  6
CONTINUOUS
 10
100.5315809709
 20
157.5173850036
  0
VERTEX
  8
0
 62
7
  6
CONTINUOUS
 10
100.4632596135
 20
157.4656253998
  0
VERTEX
  8
0
 62
7
  6
CONTINUOUS
 10
100.3955072286
 20
157.4215338691
  0
VERTEX
  8
0
 62
7
  6
CONTINUOUS
 10
100.3283511896
 20
157.3849225865
  0
VERTEX
  8
0
 62
7
  6
CONTINUOUS
 10
100.2615076001
 20
157.3554742825
  0
VERTEX
  8
0
 62
7
  6
CONTINUOUS
 10
100.1946898775
 20
157.3329591156
  0
VERTEX
  8
0
 62
7
  6
CONTINUOUS
 10
100.1271597976
 20
157.3171140811
  0
VERTEX
  8
0
 62
7
  6
CONTINUOUS
 10
100.0579339484
 20
157.3078550642
  0
VERTEX
  8
0
 62
7
  6
CONTINUOUS
 10
99.9968040539
 20
157.3053044262
  0
SEQEND
  0
LINE
  8
SURFACE
 62
7
  6
CONTINUOUS
 10
101.314053714
 20
103.3955351978
 11
101.3144745152
 21
111.0293954093
  0
LINE
  8
0
 62
7
  6
CONTINUOUS
 10
101.7264726058
 20
169.1505228849
 11
101.7260518006
 21
161.5166570798
  0
LINE
  8
SURFACE
 62
7
  6
CONTINUOUS
 10
101.3128682653
 20
102.3258631643
 11
101.314053714
 21
103.3955351978
  0
LINE
  8
0
 62
7
  6
CONTINUOUS
 10
101.7276580655
 20
170.2201996804
 11
101.7264726058
 21
169.1505228849
  0
LINE
  8
SURFACE
 62
7
  6
CONTINUOUS
 10
101.3100035328
 20
100.88027095
 11
101.3128682653
 21
102.3258631643
  0
LINE
  8
0
 62
7
  6
CONTINUOUS
 10
101.7305228241
 20
171.6657981012
 11
101.7276580655
 21
170.2201996804
  0
LINE
  8
SURFACE
 62
7
  6
CONTINUOUS
 10
101.3063134968
 20
99.6417135161
 11
101.3100035328
 21
100.88027095
  0
LINE
  8
0
 62
7
  6
CONTINUOUS
 10
101.7342128834
 20
172.9043576649
 11
101.7305228241
 21
171.6657981012
  0
LINE
  8
SURFACE
 62
7
  6
CONTINUOUS
 10
101.3005562715
 20
98.2311941427
 11
101.3063134968
 21
99.6417135161
  0
LINE
  8
0
 62
7
  6
CONTINUOUS
 10
101.7399701382
 20
174.3148783714
 11
101.7342128834
 21
172.9043576649
  0
LINE
  8
0
 62
7
  6
CONTINUOUS
 10
101.7464480007
 20
175.525205629
 11
101.7399701382
 21
174.3148783714
  0
LINE
  8
SURFACE
 62
7
  6
CONTINUOUS
 10
101.2940784404
 20
97.0208678089
 11
101.3005562715
 21
98.2311941427
  0
LINE
  8
0
 62
7
  6
CONTINUOUS
 10
101.7550082236
 20
176.7786381257
 11
101.7464480007
 21
175.525205629
  0
LINE
  8
SURFACE
 62
7
  6
CONTINUOUS
 10
101.2855182603
 20
95.7674362869
 11
101.2940784404
 21
97.0208678089
  0
LINE
  8
0
 62
7
  6
CONTINUOUS
 10
101.7652718905
 20
177.951177634
 11
101.7550082236
 21
176.7786381257
  0
LINE
  8
SURFACE
 62
7
  6
CONTINUOUS
 10
101.275254641
 20
94.5948967331
 11
101.2855182603
 21
95.7674362869
  0
POLYLINE
  8
0
 62
7
  6
CONTINUOUS
 66
1
 70
0
  0
VERTEX
  8
0
 62
7
  6
CONTINUOUS
 10
101.7260518563
 20
161.5166570798
  0
VERTEX
  8
0
 62
7
  6
CONTINUOUS
 10
101.7226303012
 20
161.2036670765
  0
VERTEX
  8
0
 62
7
  6
CONTINUOUS
 10
101.7113599047
 20
160.8831799026
  0
VERTEX
  8
0
 62
7
  6
CONTINUOUS
 10
101.6916912622
 20
160.5701862874
  0
VERTEX
  8
0
 62
7
  6
CONTINUOUS
 10
101.6631459805
 20
160.2653055018
  0
VERTEX
  8
0
 62
7
  6
CONTINUOUS
 10
101.6253354531
 20
159.9693711987
  0
VERTEX
  8
0
 62
7
  6
CONTINUOUS
 10
101.5779932533
 20
159.6834205259
  0
VERTEX
  8
0
 62
7
  6
CONTINUOUS
 10
101.5209908153
 20
159.4085789413
  0
VERTEX
  8
0
 62
7
  6
CONTINUOUS
 10
101.4542242181
 20
159.1455631766
  0
VERTEX
  8
0
 62
7
  6
CONTINUOUS
 10
101.3777064175
 20
158.8952687301
  0
VERTEX
  8
0
 62
7
  6
CONTINUOUS
 10
101.2917150747
 20
158.6590477999
  0
VERTEX
  8
0
 62
7
  6
CONTINUOUS
 10
101.1966060744
 20
158.4379949441
  0
VERTEX
  8
0
 62
7
  6
CONTINUOUS
 10
101.0926617346
 20
158.2328118751
  0
VERTEX
  8
0
 62
7
  6
CONTINUOUS
 10
100.986940508
 20
158.0547202501
  0
SEQEND
  0
LINE
  8
0
 62
7
  6
CONTINUOUS
 10
101.7754187177
 20
178.8637953535
 11
101.7652718905
 21
177.951177634
  0
LINE
  8
SURFACE
 62
7
  6
CONTINUOUS
 10
101.2651078552
 20
93.6822778566
 11
101.275254641
 21
94.5948967331
  0
POLYLINE
  8
SURFACE
 62
7
  6
CONTINUOUS
 66
1
 70
0
  0
VERTEX
  8
SURFACE
 62
7
  6
CONTINUOUS
 10
101.3144743976
 20
111.0293954093
  0
VERTEX
  8
SURFACE
 62
7
  6
CONTINUOUS
 10
101.3191702218
 20
111.3946780705
  0
VERTEX
  8
SURFACE
 62
7
  6
CONTINUOUS
 10
101.3344877912
 20
111.7632812812
  0
VERTEX
  8
SURFACE
 62
7
  6
CONTINUOUS
 10
101.3610838957
 20
112.1198315236
  0
VERTEX
  8
SURFACE
 62
7
  6
CONTINUOUS
 10
101.399415376
 20
112.4630971789
  0
VERTEX
  8
SURFACE
 62
7
  6
CONTINUOUS
 10
101.4496886139
 20
112.7915388051
  0
VERTEX
  8
SURFACE
 62
7
  6
CONTINUOUS
 10
101.511885177
 20
113.1037844081
  0
VERTEX
  8
SURFACE
 62
7
  6
CONTINUOUS
 10
101.585779279
 20
113.3986149081
  0
VERTEX
  8
SURFACE
 62
7
  6
CONTINUOUS
 10
101.6707694319
 20
113.6743863486
  0
VERTEX
  8
SURFACE
 62
7
  6
CONTINUOUS
 10
101.7660511239
 20
113.9298570587
  0
VERTEX
  8
SURFACE
 62
7
  6
CONTINUOUS
 10
101.8650206151
 20
114.1524762453
  0
SEQEND
  0
LINE
  8
0
 62
7
  6
CONTINUOUS
 10
101.7869669938
 20
179.6776833722
 11
101.7754187177
 21
178.8637953535
  0
LINE
  8
SURFACE
 62
7
  6
CONTINUOUS
 10
101.2535596119
 20
92.8683871205
 11
101.2651078552
 21
93.6822778566
  0
LINE
  8
0
 62
7
  6
CONTINUOUS
 10
101.7980115103
 20
180.2748409552
 11
101.7869669938
 21
179.6776833722
  0
LINE
  8
SURFACE
 62
7
  6
CONTINUOUS
 10
101.2425151175
 20
92.2712263277
 11
101.2535596119
 21
92.8683871205
  0
LINE
  8
0
 62
7
  6
CONTINUOUS
 10
101.6849169791
 20
148.7598675394
 11
101.6797216574
 21
148.5182373423
  0
LINE
  8
SURFACE
 62
7
  6
CONTINUOUS
 10
101.6526322851
 20
123.7861850921
 11
101.6578276069
 21
124.0278152893
  0
LINE
  8
0
 62
7
  6
CONTINUOUS
 10
101.8054630621
 20
180.5915875392
 11
101.7980115103
 21
180.2748409552
  0
LINE
  8
SURFACE
 62
7
  6
CONTINUOUS
 10
101.2350635703
 20
91.9544771805
 11
101.2425151175
 21
92.2712263277
  0
LINE
  8
0
 62
7
  6
CONTINUOUS
 10
101.8109992522
 20
180.7862660686
 11
101.8054630621
 21
180.5915875392
  0
LINE
  8
SURFACE
 62
7
  6
CONTINUOUS
 10
101.2295273824
 20
91.7597968223
 11
101.2350635703
 21
91.9544771805
  0
LINE
  8
0
 62
7
  6
CONTINUOUS
 10
101.8149168264
 20
180.9044510418
 11
101.8109992522
 21
180.7862660686
  0
LINE
  8
SURFACE
 62
7
  6
CONTINUOUS
 10
101.2256098144
 20
91.6416107471
 11
101.2295273824
 21
91.7597968223
  0
LINE
  8
0
 62
7
  6
CONTINUOUS
 10
101.8187108591
 20
181.0043106814
 11
101.8149168264
 21
180.9044510418
  0
LINE
  8
0
 62
7
  6
CONTINUOUS
 10
101.8212247045
 20
181.0629703494
 11
101.8187108591
 21
181.0043106814
  0
LINE
  8
0
 62
7
  6
CONTINUOUS
 10
101.8237748414
 20
181.1167015421
 11
101.8212247045
 21
181.0629703494
  0
LINE
  8
0
 62
7
  6
CONTINUOUS
 10
101.8264052037
 20
181.1663954269
 11
101.8237748414
 21
181.1167015421
  0
POLYLINE
  8
0
 62
7
  6
CONTINUOUS
 66
1
 70
0
  0
VERTEX
  8
0
 62
7
  6
CONTINUOUS
 10
101.6797216524
 20
148.5182374664
  0
VERTEX
  8
0
 62
7
  6
CONTINUOUS
 10
101.6589911403
 20
148.3097694808
  0
VERTEX
  8
0
 62
7
  6
CONTINUOUS
 10
101.6217096395
 20
148.096083659
  0
VERTEX
  8
0
 62
7
  6
CONTINUOUS
 10
101.5692267452
 20
147.888338727
  0
VERTEX
  8
0
 62
7
  6
CONTINUOUS
 10
101.5023651351
 20
147.6876271905
  0
VERTEX
  8
0
 62
7
  6
CONTINUOUS
 10
101.4220683075
 20
147.4950374279
  0
VERTEX
  8
0
 62
7
  6
CONTINUOUS
 10
101.3294178308
 20
147.3116195101
  0
VERTEX
  8
0
 62
7
  6
CONTINUOUS
 10
101.225634151
 20
147.1383385505
  0
VERTEX
  8
0
 62
7
  6
CONTINUOUS
 10
101.1120456627
 20
146.9760085003
  0
VERTEX
  8
0
 62
7
  6
CONTINUOUS
 10
100.9897597255
 20
146.8249216856
  0
VERTEX
  8
0
 62
7
  6
CONTINUOUS
 10
100.8596023532
 20
146.6850276621
  0
VERTEX
  8
0
 62
7
  6
CONTINUOUS
 10
100.7222707089
 20
146.5562366178
  0
VERTEX
  8
0
 62
7
  6
CONTINUOUS
 10
100.5784918061
 20
146.4385636559
  0
VERTEX
  8
0
 62
7
  6
CONTINUOUS
 10
100.4289619353
 20
146.3320306043
  0
VERTEX
  8
0
 62
7
  6
CONTINUOUS
 10
100.2742922866
 20
146.2366262082
  0
VERTEX
  8
0
 62
7
  6
CONTINUOUS
 10
100.1151060582
 20
146.1523727685
  0
VERTEX
  8
0
 62
7
  6
CONTINUOUS
 10
99.9520219641
 20
146.0792989341
  0
VERTEX
  8
0
 62
7
  6
CONTINUOUS
 10
99.7855978978
 20
146.0174125973
  0
VERTEX
  8
0
 62
7
  6
CONTINUOUS
 10
99.6163758884
 20
145.9667273027
  0
VERTEX
  8
0
 62
7
  6
CONTINUOUS
 10
99.4449266927
 20
145.9272698112
  0
VERTEX
  8
0
 62
7
  6
CONTINUOUS
 10
99.2717952803
 20
145.899058708
  0
VERTEX
  8
0
 62
7
  6
CONTINUOUS
 10
99.0975089841
 20
145.8821105782
  0
VERTEX
  8
0
 62
7
  6
CONTINUOUS
 10
98.9226351798
 20
145.8764437151
  0
VERTEX
  8
0
 62
7
  6
CONTINUOUS
 10
98.7477589983
 20
145.8820656132
  0
VERTEX
  8
0
 62
7
  6
CONTINUOUS
 10
98.573465601
 20
145.8989693041
  0
VERTEX
  8
0
 62
7
  6
CONTINUOUS
 10
98.4003229036
 20
145.9271369203
  0
VERTEX
  8
0
 62
7
  6
CONTINUOUS
 10
98.2288600728
 20
145.9665518284
  0
VERTEX
  8
0
 62
7
  6
CONTINUOUS
 10
98.0596239827
 20
146.0171948877
  0
VERTEX
  8
0
 62
7
  6
CONTINUOUS
 10
97.8931867737
 20
146.0790384456
  0
VERTEX
  8
0
 62
7
  6
CONTINUOUS
 10
97.7300895317
 20
146.1520687141
  0
VERTEX
  8
0
 62
7
  6
CONTINUOUS
 10
97.5708882686
 20
146.2362782996
  0
VERTEX
  8
0
 62
7
  6
CONTINUOUS
 10
97.4162000619
 20
146.3316394646
  0
VERTEX
  8
0
 62
7
  6
CONTINUOUS
 10
97.266647385
 20
146.4381307073
  0
VERTEX
  8
0
 62
7
  6
CONTINUOUS
 10
97.1228421857
 20
146.5557630997
  0
VERTEX
  8
0
 62
7
  6
CONTINUOUS
 10
96.9854815053
 20
146.6845143463
  0
VERTEX
  8
0
 62
7
  6
CONTINUOUS
 10
96.8552925472
 20
146.824369101
  0
VERTEX
  8
0
 62
7
  6
CONTINUOUS
 10
96.7329718659
 20
146.9754177166
  0
VERTEX
  8
0
 62
7
  6
CONTINUOUS
 10
96.6193449668
 20
147.1377113629
  0
VERTEX
  8
0
 62
7
  6
CONTINUOUS
 10
96.5155194967
 20
147.3109576011
  0
VERTEX
  8
0
 62
7
  6
CONTINUOUS
 10
96.422824105
 20
147.494342438
  0
VERTEX
  8
0
 62
7
  6
CONTINUOUS
 10
96.3424793301
 20
147.6869008573
  0
VERTEX
  8
0
 62
7
  6
CONTINUOUS
 10
96.2755668097
 20
147.8875827554
  0
VERTEX
  8
0
 62
7
  6
CONTINUOUS
 10
96.223030044
 20
148.0952995081
  0
VERTEX
  8
0
 62
7
  6
CONTINUOUS
 10
96.1856914328
 20
148.308959367
  0
VERTEX
  8
0
 62
7
  6
CONTINUOUS
 10
96.1648505463
 20
148.5182375757
  0
SEQEND
  0
POLYLINE
  8
SURFACE
 62
7
  6
CONTINUOUS
 66
1
 70
0
  0
VERTEX
  8
SURFACE
 62
7
  6
CONTINUOUS
 10
107.172698712
 20
124.0278151805
  0
VERTEX
  8
SURFACE
 62
7
  6
CONTINUOUS
 10
107.1779197382
 20
123.7874840661
  0
VERTEX
  8
SURFACE
 62
7
  6
CONTINUOUS
 10
107.1634392512
 20
123.5486513102
  0
VERTEX
  8
SURFACE
 62
7
  6
CONTINUOUS
 10
107.1323314352
 20
123.3274704321
  0
VERTEX
  8
SURFACE
 62
7
  6
CONTINUOUS
 10
107.0878591603
 20
123.1225743314
  0
VERTEX
  8
SURFACE
 62
7
  6
CONTINUOUS
 10
107.0325193986
 20
122.9325327848
  0
VERTEX
  8
SURFACE
 62
7
  6
CONTINUOUS
 10
106.9681944497
 20
122.7559356036
  0
VERTEX
  8
SURFACE
 62
7
  6
CONTINUOUS
 10
106.8963078457
 20
122.5915170802
  0
VERTEX
  8
SURFACE
 62
7
  6
CONTINUOUS
 10
106.8179481489
 20
122.4381900862
  0
VERTEX
  8
SURFACE
 62
7
  6
CONTINUOUS
 10
106.733908854
 20
122.2949574469
  0
VERTEX
  8
SURFACE
 62
7
  6
CONTINUOUS
 10
106.6447759242
 20
122.1609688736
  0
VERTEX
  8
SURFACE
 62
7
  6
CONTINUOUS
 10
106.551175763
 20
122.0357596526
  0
VERTEX
  8
SURFACE
 62
7
  6
CONTINUOUS
 10
106.4537090222
 20
121.9189968412
  0
VERTEX
  8
SURFACE
 62
7
  6
CONTINUOUS
 10
106.3529360773
 20
121.8104003398
  0
VERTEX
  8
SURFACE
 62
7
  6
CONTINUOUS
 10
106.2493777675
 20
121.7097139291
  0
VERTEX
  8
SURFACE
 62
7
  6
CONTINUOUS
 10
106.143504404
 20
121.6166848195
  0
VERTEX
  8
SURFACE
 62
7
  6
CONTINUOUS
 10
106.0358019357
 20
121.5311120521
  0
VERTEX
  8
SURFACE
 62
7
  6
CONTINUOUS
 10
105.9266952853
 20
121.4527647682
  0
VERTEX
  8
SURFACE
 62
7
  6
CONTINUOUS
 10
105.8161731924
 20
121.381161177
  0
VERTEX
  8
SURFACE
 62
7
  6
CONTINUOUS
 10
105.704017451
 20
121.3158228904
  0
VERTEX
  8
SURFACE
 62
7
  6
CONTINUOUS
 10
105.5899584415
 20
121.2563861835
  0
VERTEX
  8
SURFACE
 62
7
  6
CONTINUOUS
 10
105.4739190076
 20
121.2026984202
  0
VERTEX
  8
SURFACE
 62
7
  6
CONTINUOUS
 10
105.3560850945
 20
121.1547757382
  0
VERTEX
  8
SURFACE
 62
7
  6
CONTINUOUS
 10
105.2367278094
 20
121.1126671679
  0
VERTEX
  8
SURFACE
 62
7
  6
CONTINUOUS
 10
105.1162292559
 20
121.0764380541
  0
VERTEX
  8
SURFACE
 62
7
  6
CONTINUOUS
 10
104.9953861478
 20
121.0462104407
  0
VERTEX
  8
SURFACE
 62
7
  6
CONTINUOUS
 10
104.8753870468
 20
121.0220597768
  0
VERTEX
  8
SURFACE
 62
7
  6
CONTINUOUS
 10
104.7574886102
 20
121.003887332
  0
VERTEX
  8
SURFACE
 62
7
  6
CONTINUOUS
 10
104.6420153162
 20
120.9913298022
  0
VERTEX
  8
SURFACE
 62
7
  6
CONTINUOUS
 10
104.528313014
 20
120.9839695119
  0
VERTEX
  8
SURFACE
 62
7
  6
CONTINUOUS
 10
104.4155237802
 20
120.9815387764
  0
VERTEX
  8
SURFACE
 62
7
  6
CONTINUOUS
 10
104.3027433989
 20
120.9839467618
  0
VERTEX
  8
SURFACE
 62
7
  6
CONTINUOUS
 10
104.1890564565
 20
120.9912826805
  0
VERTEX
  8
SURFACE
 62
7
  6
CONTINUOUS
 10
104.0735900807
 20
121.0038149828
  0
VERTEX
  8
SURFACE
 62
7
  6
CONTINUOUS
 10
103.9556786504
 20
121.0219641934
  0
VERTEX
  8
SURFACE
 62
7
  6
CONTINUOUS
 10
103.8356573778
 20
121.046093924
  0
VERTEX
  8
SURFACE
 62
7
  6
CONTINUOUS
 10
103.7147919137
 20
121.0763019452
  0
VERTEX
  8
SURFACE
 62
7
  6
CONTINUOUS
 10
103.5942763052
 20
121.1125112126
  0
VERTEX
  8
SURFACE
 62
7
  6
CONTINUOUS
 10
103.4749062412
 20
121.1545993178
  0
VERTEX
  8
SURFACE
 62
7
  6
CONTINUOUS
 10
103.3570625353
 20
121.2025007403
  0
VERTEX
  8
SURFACE
 62
7
  6
CONTINUOUS
 10
103.2410155139
 20
121.2561662225
  0
VERTEX
  8
SURFACE
 62
7
  6
CONTINUOUS
 10
103.1269498157
 20
121.3155798081
  0
VERTEX
  8
SURFACE
 62
7
  6
CONTINUOUS
 10
103.0147850358
 20
121.3808957525
  0
VERTEX
  8
SURFACE
 62
7
  6
CONTINUOUS
 10
102.9042522878
 20
121.4524775026
  0
VERTEX
  8
SURFACE
 62
7
  6
CONTINUOUS
 10
102.7951348727
 20
121.5308021346
  0
VERTEX
  8
SURFACE
 62
7
  6
CONTINUOUS
 10
102.6874226762
 20
121.6163500828
  0
VERTEX
  8
SURFACE
 62
7
  6
CONTINUOUS
 10
102.5815414857
 20
121.7093509156
  0
VERTEX
  8
SURFACE
 62
7
  6
CONTINUOUS
 10
102.4779780365
 20
121.810003774
  0
VERTEX
  8
SURFACE
 62
7
  6
CONTINUOUS
 10
102.3772006988
 20
121.9185616435
  0
VERTEX
  8
SURFACE
 62
7
  6
CONTINUOUS
 10
102.2797289275
 20
122.0352811797
  0
VERTEX
  8
SURFACE
 62
7
  6
CONTINUOUS
 10
102.1861228635
 20
122.1604415576
  0
VERTEX
  8
SURFACE
 62
7
  6
CONTINUOUS
 10
102.0969828999
 20
122.2943737606
  0
VERTEX
  8
SURFACE
 62
7
  6
CONTINUOUS
 10
102.0129322458
 20
122.4375452234
  0
VERTEX
  8
SURFACE
 62
7
  6
CONTINUOUS
 10
101.9345559729
 20
122.5908057433
  0
VERTEX
  8
SURFACE
 62
7
  6
CONTINUOUS
 10
101.8626467283
 20
122.7551509439
  0
VERTEX
  8
SURFACE
 62
7
  6
CONTINUOUS
 10
101.7982916732
 20
122.9316658589
  0
VERTEX
  8
SURFACE
 62
7
  6
CONTINUOUS
 10
101.7429114241
 20
123.1216166446
  0
VERTEX
  8
SURFACE
 62
7
  6
CONTINUOUS
 10
101.6983855053
 20
123.3264114875
  0
VERTEX
  8
SURFACE
 62
7
  6
CONTINUOUS
 10
101.6672067662
 20
123.547478797
  0
VERTEX
  8
SURFACE
 62
7
  6
CONTINUOUS
 10
101.6526322851
 20
123.7861850921
  0
SEQEND
  0
LINE
  8
SURFACE
 62
7
  6
CONTINUOUS
 10
101.2218157925
 20
91.5417501817
 11
101.2256098144
 21
91.6416107471
  0
LINE
  8
SURFACE
 62
7
  6
CONTINUOUS
 10
101.2193019611
 20
91.4830900443
 11
101.2218157925
 21
91.5417501817
  0
LINE
  8
SURFACE
 62
7
  6
CONTINUOUS
 10
101.2167518406
 20
91.4293584005
 11
101.2193019611
 21
91.4830900443
  0
LINE
  8
SURFACE
 62
7
  6
CONTINUOUS
 10
101.2141215057
 20
91.3796642324
 11
101.2167518406
 21
91.4293584005
  0
POLYLINE
  8
SURFACE
 62
7
  6
CONTINUOUS
 66
1
 70
0
  0
VERTEX
  8
SURFACE
 62
7
  6
CONTINUOUS
 10
101.6578276118
 20
124.0278151652
  0
VERTEX
  8
SURFACE
 62
7
  6
CONTINUOUS
 10
101.6785581239
 20
124.2362831508
  0
VERTEX
  8
SURFACE
 62
7
  6
CONTINUOUS
 10
101.7158396247
 20
124.4499689725
  0
VERTEX
  8
SURFACE
 62
7
  6
CONTINUOUS
 10
101.768322519
 20
124.6577139046
  0
VERTEX
  8
SURFACE
 62
7
  6
CONTINUOUS
 10
101.8351841291
 20
124.8584254411
  0
VERTEX
  8
SURFACE
 62
7
  6
CONTINUOUS
 10
101.9154809568
 20
125.0510152036
  0
VERTEX
  8
SURFACE
 62
7
  6
CONTINUOUS
 10
102.0081314334
 20
125.2344331215
  0
VERTEX
  8
SURFACE
 62
7
  6
CONTINUOUS
 10
102.1119151132
 20
125.4077140811
  0
VERTEX
  8
SURFACE
 62
7
  6
CONTINUOUS
 10
102.2255036015
 20
125.5700441313
  0
VERTEX
  8
SURFACE
 62
7
  6
CONTINUOUS
 10
102.3477895387
 20
125.721130946
  0
VERTEX
  8
SURFACE
 62
7
  6
CONTINUOUS
 10
102.477946911
 20
125.8610249694
  0
VERTEX
  8
SURFACE
 62
7
  6
CONTINUOUS
 10
102.6152785554
 20
125.9898160138
  0
VERTEX
  8
SURFACE
 62
7
  6
CONTINUOUS
 10
102.7590574581
 20
126.1074889757
  0
VERTEX
  8
SURFACE
 62
7
  6
CONTINUOUS
 10
102.908587329
 20
126.2140220273
  0
VERTEX
  8
SURFACE
 62
7
  6
CONTINUOUS
 10
103.0632569776
 20
126.3094264234
  0
VERTEX
  8
SURFACE
 62
7
  6
CONTINUOUS
 10
103.222443206
 20
126.3936798631
  0
VERTEX
  8
SURFACE
 62
7
  6
CONTINUOUS
 10
103.3855273001
 20
126.4667536974
  0
VERTEX
  8
SURFACE
 62
7
  6
CONTINUOUS
 10
103.5519513664
 20
126.5286400343
  0
VERTEX
  8
SURFACE
 62
7
  6
CONTINUOUS
 10
103.7211733758
 20
126.5793253288
  0
VERTEX
  8
SURFACE
 62
7
  6
CONTINUOUS
 10
103.8926225716
 20
126.6187828204
  0
VERTEX
  8
SURFACE
 62
7
  6
CONTINUOUS
 10
104.0657539839
 20
126.6469939236
  0
VERTEX
  8
SURFACE
 62
7
  6
CONTINUOUS
 10
104.2400402801
 20
126.6639420534
  0
VERTEX
  8
SURFACE
 62
7
  6
CONTINUOUS
 10
104.4149140844
 20
126.6696089165
  0
VERTEX
  8
SURFACE
 62
7
  6
CONTINUOUS
 10
104.5897902659
 20
126.6639870183
  0
VERTEX
  8
SURFACE
 62
7
  6
CONTINUOUS
 10
104.7640836632
 20
126.6470833275
  0
VERTEX
  8
SURFACE
 62
7
  6
CONTINUOUS
 10
104.9372263606
 20
126.6189157113
  0
VERTEX
  8
SURFACE
 62
7
  6
CONTINUOUS
 10
105.1086891914
 20
126.5795008032
  0
VERTEX
  8
SURFACE
 62
7
  6
CONTINUOUS
 10
105.2779252815
 20
126.5288577439
  0
VERTEX
  8
SURFACE
 62
7
  6
CONTINUOUS
 10
105.4443624905
 20
126.467014186
  0
VERTEX
  8
SURFACE
 62
7
  6
CONTINUOUS
 10
105.6074597325
 20
126.3939839175
  0
VERTEX
  8
SURFACE
 62
7
  6
CONTINUOUS
 10
105.7666609956
 20
126.309774332
  0
VERTEX
  8
SURFACE
 62
7
  6
CONTINUOUS
 10
105.9213492023
 20
126.214413167
  0
VERTEX
  8
SURFACE
 62
7
  6
CONTINUOUS
 10
106.0709018792
 20
126.1079219243
  0
VERTEX
  8
SURFACE
 62
7
  6
CONTINUOUS
 10
106.2147070785
 20
125.9902895319
  0
VERTEX
  8
SURFACE
 62
7
  6
CONTINUOUS
 10
106.3520677589
 20
125.8615382853
  0
VERTEX
  8
SURFACE
 62
7
  6
CONTINUOUS
 10
106.482256717
 20
125.7216835306
  0
VERTEX
  8
SURFACE
 62
7
  6
CONTINUOUS
 10
106.6045773983
 20
125.570634915
  0
VERTEX
  8
SURFACE
 62
7
  6
CONTINUOUS
 10
106.7182042974
 20
125.4083412687
  0
VERTEX
  8
SURFACE
 62
7
  6
CONTINUOUS
 10
106.8220297675
 20
125.2350950305
  0
VERTEX
  8
SURFACE
 62
7
  6
CONTINUOUS
 10
106.9147251592
 20
125.0517101936
  0
VERTEX
  8
SURFACE
 62
7
  6
CONTINUOUS
 10
106.9950699341
 20
124.8591517743
  0
VERTEX
  8
SURFACE
 62
7
  6
CONTINUOUS
 10
107.0619824545
 20
124.6584698762
  0
VERTEX
  8
SURFACE
 62
7
  6
CONTINUOUS
 10
107.1145192202
 20
124.4507531234
  0
VERTEX
  8
SURFACE
 62
7
  6
CONTINUOUS
 10
107.1518578314
 20
124.2370932646
  0
VERTEX
  8
SURFACE
 62
7
  6
CONTINUOUS
 10
107.1726987179
 20
124.0278150559
  0
SEQEND
  0
LINE
  8
DEFAULT_1
 62
2
  6
CENTER
 10
82.9802631579
 20
104.5230263158
 11
170.1651131579
 21
104.5230263158
  0
POLYLINE
  8
SURFACE
 62
7
  6
CONTINUOUS
 66
1
 70
0
  0
VERTEX
  8
SURFACE
 62
7
  6
CONTINUOUS
 10
117.6969410765
 20
114.4913315135
  0
VERTEX
  8
SURFACE
 62
7
  6
CONTINUOUS
 10
117.8031335068
 20
114.3123819542
  0
VERTEX
  8
SURFACE
 62
7
  6
CONTINUOUS
 10
117.9070302822
 20
114.1071489363
  0
VERTEX
  8
SURFACE
 62
7
  6
CONTINUOUS
 10
118.0020930832
 20
113.8860500488
  0
VERTEX
  8
SURFACE
 62
7
  6
CONTINUOUS
 10
118.0880393589
 20
113.6497866283
  0
VERTEX
  8
SURFACE
 62
7
  6
CONTINUOUS
 10
118.164513449
 20
113.3994524276
  0
VERTEX
  8
SURFACE
 62
7
  6
CONTINUOUS
 10
118.2312378453
 20
113.1363990846
  0
VERTEX
  8
SURFACE
 62
7
  6
CONTINUOUS
 10
118.2881996058
 20
112.8615216077
  0
VERTEX
  8
SURFACE
 62
7
  6
CONTINUOUS
 10
118.3355027044
 20
112.575536342
  0
VERTEX
  8
SURFACE
 62
7
  6
CONTINUOUS
 10
118.3732758288
 20
112.2795681369
  0
VERTEX
  8
SURFACE
 62
7
  6
CONTINUOUS
 10
118.4017854968
 20
111.9746536086
  0
VERTEX
  8
SURFACE
 62
7
  6
CONTINUOUS
 10
118.4214203637
 20
111.6616261373
  0
VERTEX
  8
SURFACE
 62
7
  6
CONTINUOUS
 10
118.4326588714
 20
111.3411049777
  0
VERTEX
  8
SURFACE
 62
7
  6
CONTINUOUS
 10
118.4360518651
 20
111.0293955795
  0
SEQEND
  0
POLYLINE
  8
SURFACE
 62
7
  6
CONTINUOUS
 66
1
 70
0
  0
VERTEX
  8
SURFACE
 62
7
  6
CONTINUOUS
 10
118.5393950277
 20
91.3296666818
  0
VERTEX
  8
SURFACE
 62
7
  6
CONTINUOUS
 10
118.5410046806
 20
91.3053614362
  0
VERTEX
  8
SURFACE
 62
7
  6
CONTINUOUS
 10
118.5426980744
 20
91.2815809202
  0
VERTEX
  8
SURFACE
 62
7
  6
CONTINUOUS
 10
118.5445088081
 20
91.2580075633
  0
VERTEX
  8
SURFACE
 62
7
  6
CONTINUOUS
 10
118.5464760109
 20
91.234350838
  0
VERTEX
  8
SURFACE
 62
7
  6
CONTINUOUS
 10
118.5486508928
 20
91.2102864
  0
VERTEX
  8
SURFACE
 62
7
  6
CONTINUOUS
 10
118.551103618
 20
91.1854223148
  0
VERTEX
  8
SURFACE
 62
7
  6
CONTINUOUS
 10
118.5539308737
 20
91.1592855887
  0
VERTEX
  8
SURFACE
 62
7
  6
CONTINUOUS
 10
118.5572657914
 20
91.1313132868
  0
VERTEX
  8
SURFACE
 62
7
  6
CONTINUOUS
 10
118.5612778603
 20
91.1009422669
  0
VERTEX
  8
SURFACE
 62
7
  6
CONTINUOUS
 10
118.5661776242
 20
91.0676393358
  0
VERTEX
  8
SURFACE
 62
7
  6
CONTINUOUS
 10
118.5722237705
 20
91.0309092211
  0
VERTEX
  8
SURFACE
 62
7
  6
CONTINUOUS
 10
118.5796539797
 20
90.9906916885
  0
VERTEX
  8
SURFACE
 62
7
  6
CONTINUOUS
 10
118.5886242937
 20
90.9474589511
  0
VERTEX
  8
SURFACE
 62
7
  6
CONTINUOUS
 10
118.5992133729
 20
90.9019224826
  0
VERTEX
  8
SURFACE
 62
7
  6
CONTINUOUS
 10
118.611880949
 20
90.8532039604
  0
VERTEX
  8
SURFACE
 62
7
  6
CONTINUOUS
 10
118.6275819566
 20
90.7992356852
  0
VERTEX
  8
SURFACE
 62
7
  6
CONTINUOUS
 10
118.6476302054
 20
90.7379041269
  0
VERTEX
  8
SURFACE
 62
7
  6
CONTINUOUS
 10
118.6729565312
 20
90.6692858583
  0
VERTEX
  8
SURFACE
 62
7
  6
CONTINUOUS
 10
118.7041216317
 20
90.5947150728
  0
VERTEX
  8
SURFACE
 62
7
  6
CONTINUOUS
 10
118.7415440071
 20
90.5156809666
  0
VERTEX
  8
SURFACE
 62
7
  6
CONTINUOUS
 10
118.7857171841
 20
90.433296776
  0
VERTEX
  8
SURFACE
 62
7
  6
CONTINUOUS
 10
118.8370244934
 20
90.3487374615
  0
VERTEX
  8
SURFACE
 62
7
  6
CONTINUOUS
 10
118.8957692303
 20
90.2631456625
  0
VERTEX
  8
SURFACE
 62
7
  6
CONTINUOUS
 10
118.9621741655
 20
90.1776290499
  0
VERTEX
  8
SURFACE
 62
7
  6
CONTINUOUS
 10
119.0363333878
 20
90.0933137372
  0
VERTEX
  8
SURFACE
 62
7
  6
CONTINUOUS
 10
119.1181967842
 20
90.0113313671
  0
VERTEX
  8
SURFACE
 62
7
  6
CONTINUOUS
 10
119.2080522341
 20
89.9323945024
  0
VERTEX
  8
SURFACE
 62
7
  6
CONTINUOUS
 10
119.3067022457
 20
89.8569099028
  0
VERTEX
  8
SURFACE
 62
7
  6
CONTINUOUS
 10
119.415028427
 20
89.7855254051
  0
VERTEX
  8
SURFACE
 62
7
  6
CONTINUOUS
 10
119.5338591859
 20
89.7192317174
  0
VERTEX
  8
SURFACE
 62
7
  6
CONTINUOUS
 10
119.6627321177
 20
89.6598616643
  0
VERTEX
  8
SURFACE
 62
7
  6
CONTINUOUS
 10
119.7998132769
 20
89.6095487919
  0
VERTEX
  8
SURFACE
 62
7
  6
CONTINUOUS
 10
119.9428623519
 20
89.5699582228
  0
VERTEX
  8
SURFACE
 62
7
  6
CONTINUOUS
 10
120.0893567728
 20
89.542181823
  0
VERTEX
  8
SURFACE
 62
7
  6
CONTINUOUS
 10
120.236602566
 20
89.5266845306
  0
VERTEX
  8
SURFACE
 62
7
  6
CONTINUOUS
 10
120.3513318514
 20
89.5230265297
  0
SEQEND
  0
LINE
  8
SURFACE
 62
7
  6
CONTINUOUS
 10
118.5363286109
 20
91.3810259539
 11
118.5393950277
 21
91.3296666818
  0
LINE
  8
SURFACE
 62
7
  6
CONTINUOUS
 10
118.5333556234
 20
91.4377982597
 11
118.5363286109
 21
91.3810259539
  0
LINE
  8
SURFACE
 62
7
  6
CONTINUOUS
 10
118.5304020565
 20
91.5016413745
 11
118.5333556234
 21
91.4377982597
  0
POLYLINE
  8
SURFACE
 62
7
  6
CONTINUOUS
 66
1
 70
0
  0
VERTEX
  8
SURFACE
 62
7
  6
CONTINUOUS
 10
118.5259108606
 20
91.6140820986
  0
VERTEX
  8
SURFACE
 62
7
  6
CONTINUOUS
 10
118.5274243783
 20
91.5740425538
  0
VERTEX
  8
SURFACE
 62
7
  6
CONTINUOUS
 10
118.5304020565
 20
91.5016413745
  0
SEQEND
  0
LINE
  8
SURFACE
 62
7
  6
CONTINUOUS
 10
112.6526322851
 20
123.7861850921
 11
112.6578276069
 21
124.0278152893
  0
POLYLINE
  8
SURFACE
 62
7
  6
CONTINUOUS
 66
1
 70
0
  0
VERTEX
  8
SURFACE
 62
7
  6
CONTINUOUS
 10
112.6578276118
 20
124.0278151652
  0
VERTEX
  8
SURFACE
 62
7
  6
CONTINUOUS
 10
112.6785581239
 20
124.2362831508
  0
VERTEX
  8
SURFACE
 62
7
  6
CONTINUOUS
 10
112.7158396247
 20
124.4499689725
  0
VERTEX
  8
SURFACE
 62
7
  6
CONTINUOUS
 10
112.768322519
 20
124.6577139046
  0
VERTEX
  8
SURFACE
 62
7
  6
CONTINUOUS
 10
112.8351841291
 20
124.8584254411
  0
VERTEX
  8
SURFACE
 62
7
  6
CONTINUOUS
 10
112.9154809568
 20
125.0510152036
  0
VERTEX
  8
SURFACE
 62
7
  6
CONTINUOUS
 10
113.0081314334
 20
125.2344331215
  0
VERTEX
  8
SURFACE
 62
7
  6
CONTINUOUS
 10
113.1119151132
 20
125.4077140811
  0
VERTEX
  8
SURFACE
 62
7
  6
CONTINUOUS
 10
113.2255036015
 20
125.5700441313
  0
VERTEX
  8
SURFACE
 62
7
  6
CONTINUOUS
 10
113.3477895387
 20
125.721130946
  0
VERTEX
  8
SURFACE
 62
7
  6
CONTINUOUS
 10
113.477946911
 20
125.8610249694
  0
VERTEX
  8
SURFACE
 62
7
  6
CONTINUOUS
 10
113.6152785554
 20
125.9898160138
  0
VERTEX
  8
SURFACE
 62
7
  6
CONTINUOUS
 10
113.7590574581
 20
126.1074889757
  0
VERTEX
  8
SURFACE
 62
7
  6
CONTINUOUS
 10
113.908587329
 20
126.2140220273
  0
VERTEX
  8
SURFACE
 62
7
  6
CONTINUOUS
 10
114.0632569776
 20
126.3094264234
  0
VERTEX
  8
SURFACE
 62
7
  6
CONTINUOUS
 10
114.222443206
 20
126.393679863
  0
VERTEX
  8
SURFACE
 62
7
  6
CONTINUOUS
 10
114.3855273001
 20
126.4667536974
  0
VERTEX
  8
SURFACE
 62
7
  6
CONTINUOUS
 10
114.5519513664
 20
126.5286400343
  0
VERTEX
  8
SURFACE
 62
7
  6
CONTINUOUS
 10
114.7211733758
 20
126.5793253288
  0
VERTEX
  8
SURFACE
 62
7
  6
CONTINUOUS
 10
114.8926225716
 20
126.6187828204
  0
VERTEX
  8
SURFACE
 62
7
  6
CONTINUOUS
 10
115.0657539839
 20
126.6469939236
  0
VERTEX
  8
SURFACE
 62
7
  6
CONTINUOUS
 10
115.2400402801
 20
126.6639420534
  0
VERTEX
  8
SURFACE
 62
7
  6
CONTINUOUS
 10
115.4149140844
 20
126.6696089165
  0
VERTEX
  8
SURFACE
 62
7
  6
CONTINUOUS
 10
115.5897902659
 20
126.6639870183
  0
VERTEX
  8
SURFACE
 62
7
  6
CONTINUOUS
 10
115.7640836632
 20
126.6470833275
  0
VERTEX
  8
SURFACE
 62
7
  6
CONTINUOUS
 10
115.9372263606
 20
126.6189157113
  0
VERTEX
  8
SURFACE
 62
7
  6
CONTINUOUS
 10
116.1086891914
 20
126.5795008032
  0
VERTEX
  8
SURFACE
 62
7
  6
CONTINUOUS
 10
116.2779252815
 20
126.5288577439
  0
VERTEX
  8
SURFACE
 62
7
  6
CONTINUOUS
 10
116.4443624905
 20
126.467014186
  0
VERTEX
  8
SURFACE
 62
7
  6
CONTINUOUS
 10
116.6074597325
 20
126.3939839175
  0
VERTEX
  8
SURFACE
 62
7
  6
CONTINUOUS
 10
116.7666609956
 20
126.309774332
  0
VERTEX
  8
SURFACE
 62
7
  6
CONTINUOUS
 10
116.9213492023
 20
126.214413167
  0
VERTEX
  8
SURFACE
 62
7
  6
CONTINUOUS
 10
117.0709018792
 20
126.1079219243
  0
VERTEX
  8
SURFACE
 62
7
  6
CONTINUOUS
 10
117.2147070785
 20
125.9902895319
  0
VERTEX
  8
SURFACE
 62
7
  6
CONTINUOUS
 10
117.3520677589
 20
125.8615382853
  0
VERTEX
  8
SURFACE
 62
7
  6
CONTINUOUS
 10
117.482256717
 20
125.7216835306
  0
VERTEX
  8
SURFACE
 62
7
  6
CONTINUOUS
 10
117.6045773983
 20
125.570634915
  0
VERTEX
  8
SURFACE
 62
7
  6
CONTINUOUS
 10
117.7182042974
 20
125.4083412687
  0
VERTEX
  8
SURFACE
 62
7
  6
CONTINUOUS
 10
117.8220297675
 20
125.2350950305
  0
VERTEX
  8
SURFACE
 62
7
  6
CONTINUOUS
 10
117.9147251592
 20
125.0517101936
  0
VERTEX
  8
SURFACE
 62
7
  6
CONTINUOUS
 10
117.9950699341
 20
124.8591517743
  0
VERTEX
  8
SURFACE
 62
7
  6
CONTINUOUS
 10
118.0619824545
 20
124.6584698762
  0
VERTEX
  8
SURFACE
 62
7
  6
CONTINUOUS
 10
118.1145192202
 20
124.4507531234
  0
VERTEX
  8
SURFACE
 62
7
  6
CONTINUOUS
 10
118.1518578314
 20
124.2370932646
  0
VERTEX
  8
SURFACE
 62
7
  6
CONTINUOUS
 10
118.1726987179
 20
124.0278150559
  0
SEQEND
  0
POLYLINE
  8
SURFACE
 62
7
  6
CONTINUOUS
 66
1
 70
0
  0
VERTEX
  8
SURFACE
 62
7
  6
CONTINUOUS
 10
101.8650206164
 20
114.1524762447
  0
VERTEX
  8
SURFACE
 62
7
  6
CONTINUOUS
 10
101.9017611308
 20
114.2275345096
  0
VERTEX
  8
SURFACE
 62
7
  6
CONTINUOUS
 10
101.9492466482
 20
114.3214048273
  0
VERTEX
  8
SURFACE
 62
7
  6
CONTINUOUS
 10
101.9970082415
 20
114.411834303
  0
VERTEX
  8
SURFACE
 62
7
  6
CONTINUOUS
 10
102.0451218884
 20
114.4985309861
  0
VERTEX
  8
SURFACE
 62
7
  6
CONTINUOUS
 10
102.0936038755
 20
114.5811569981
  0
VERTEX
  8
SURFACE
 62
7
  6
CONTINUOUS
 10
102.14255555
 20
114.6595758622
  0
VERTEX
  8
SURFACE
 62
7
  6
CONTINUOUS
 10
102.1920237252
 20
114.7335946815
  0
VERTEX
  8
SURFACE
 62
7
  6
CONTINUOUS
 10
102.2419385198
 20
114.80290217
  0
VERTEX
  8
SURFACE
 62
7
  6
CONTINUOUS
 10
102.2921643429
 20
114.8671771552
  0
VERTEX
  8
SURFACE
 62
7
  6
CONTINUOUS
 10
102.3428880546
 20
114.9265519958
  0
VERTEX
  8
SURFACE
 62
7
  6
CONTINUOUS
 10
102.3944776213
 20
114.98128067
  0
VERTEX
  8
SURFACE
 62
7
  6
CONTINUOUS
 10
102.447148925
 20
115.0313330263
  0
VERTEX
  8
SURFACE
 62
7
  6
CONTINUOUS
 10
102.5004389967
 20
115.076062976
  0
VERTEX
  8
SURFACE
 62
7
  6
CONTINUOUS
 10
102.5539602513
 20
115.1150970227
  0
VERTEX
  8
SURFACE
 62
7
  6
CONTINUOUS
 10
102.6075339584
 20
115.1483790824
  0
VERTEX
  8
SURFACE
 62
7
  6
CONTINUOUS
 10
102.6611647658
 20
115.1760629807
  0
VERTEX
  8
SURFACE
 62
7
  6
CONTINUOUS
 10
102.7153998857
 20
115.198567542
  0
VERTEX
  8
SURFACE
 62
7
  6
CONTINUOUS
 10
102.7718120985
 20
115.2164566571
  0
VERTEX
  8
SURFACE
 62
7
  6
CONTINUOUS
 10
102.832177602
 20
115.2298319609
  0
VERTEX
  8
SURFACE
 62
7
  6
CONTINUOUS
 10
102.8983373366
 20
115.2382478328
  0
VERTEX
  8
SURFACE
 62
7
  6
CONTINUOUS
 10
102.9610028551
 20
115.2407485538
  0
SEQEND
  0
LINE
  8
SURFACE
 62
7
  6
CONTINUOUS
 10
183.1802631579
 20
115.2407483025
 11
169.9637222617
 21
115.2407483025
  0
LINE
  8
SURFACE
 62
7
  6
CONTINUOUS
 10
150.1268042348
 20
115.2407483025
 11
136.5437222671
 21
115.2407483025
  0
LINE
  8
SURFACE
 62
7
  6
CONTINUOUS
 10
116.7068042348
 20
115.2407483025
 11
102.9610028549
 21
115.2407483025
  0
POLYLINE
  8
SURFACE
 62
7
  6
CONTINUOUS
 66
1
 70
0
  0
VERTEX
  8
SURFACE
 62
7
  6
CONTINUOUS
 10
116.7068042348
 20
115.2407482067
  0
VERTEX
  8
SURFACE
 62
7
  6
CONTINUOUS
 10
116.7686572308
 20
115.238136347
  0
VERTEX
  8
SURFACE
 62
7
  6
CONTINUOUS
 10
116.8378212679
 20
115.2288164176
  0
VERTEX
  8
SURFACE
 62
7
  6
CONTINUOUS
 10
116.905361624
 20
115.2129012804
  0
VERTEX
  8
SURFACE
 62
7
  6
CONTINUOUS
 10
116.9722279
 20
115.1902980717
  0
VERTEX
  8
SURFACE
 62
7
  6
CONTINUOUS
 10
117.0391282679
 20
115.1607467291
  0
VERTEX
  8
SURFACE
 62
7
  6
CONTINUOUS
 10
117.1063373507
 20
115.1240220561
  0
VERTEX
  8
SURFACE
 62
7
  6
CONTINUOUS
 10
117.1741376429
 20
115.0798085859
  0
VERTEX
  8
SURFACE
 62
7
  6
CONTINUOUS
 10
117.2425015738
 20
115.0279199878
  0
VERTEX
  8
SURFACE
 62
7
  6
CONTINUOUS
 10
117.3111853675
 20
114.9683577013
  0
VERTEX
  8
SURFACE
 62
7
  6
CONTINUOUS
 10
117.3799732943
 20
114.901170148
  0
VERTEX
  8
SURFACE
 62
7
  6
CONTINUOUS
 10
117.4484068745
 20
114.8267525589
  0
VERTEX
  8
SURFACE
 62
7
  6
CONTINUOUS
 10
117.5158635318
 20
114.7458982694
  0
VERTEX
  8
SURFACE
 62
7
  6
CONTINUOUS
 10
117.581934709
 20
114.6593891576
  0
VERTEX
  8
SURFACE
 62
7
  6
CONTINUOUS
 10
117.6464389614
 20
114.5678725849
  0
VERTEX
  8
SURFACE
 62
7
  6
CONTINUOUS
 10
117.6969411501
 20
114.4913315608
  0
SEQEND
  0
POLYLINE
  8
SURFACE
 62
7
  6
CONTINUOUS
 66
1
 70
0
  0
VERTEX
  8
SURFACE
 62
7
  6
CONTINUOUS
 10
150.1268042348
 20
115.2407482067
  0
VERTEX
  8
SURFACE
 62
7
  6
CONTINUOUS
 10
150.1886572308
 20
115.238136347
  0
VERTEX
  8
SURFACE
 62
7
  6
CONTINUOUS
 10
150.2578212679
 20
115.2288164176
  0
VERTEX
  8
SURFACE
 62
7
  6
CONTINUOUS
 10
150.325361624
 20
115.2129012804
  0
VERTEX
  8
SURFACE
 62
7
  6
CONTINUOUS
 10
150.3922279
 20
115.1902980717
  0
VERTEX
  8
SURFACE
 62
7
  6
CONTINUOUS
 10
150.4591282679
 20
115.1607467291
  0
VERTEX
  8
SURFACE
 62
7
  6
CONTINUOUS
 10
150.5263373507
 20
115.1240220561
  0
VERTEX
  8
SURFACE
 62
7
  6
CONTINUOUS
 10
150.5941376429
 20
115.0798085859
  0
VERTEX
  8
SURFACE
 62
7
  6
CONTINUOUS
 10
150.6625015738
 20
115.0279199878
  0
VERTEX
  8
SURFACE
 62
7
  6
CONTINUOUS
 10
150.7311853675
 20
114.9683577013
  0
VERTEX
  8
SURFACE
 62
7
  6
CONTINUOUS
 10
150.7999732943
 20
114.901170148
  0
VERTEX
  8
SURFACE
 62
7
  6
CONTINUOUS
 10
150.8684068745
 20
114.8267525589
  0
VERTEX
  8
SURFACE
 62
7
  6
CONTINUOUS
 10
150.9358635318
 20
114.7458982694
  0
VERTEX
  8
SURFACE
 62
7
  6
CONTINUOUS
 10
151.001934709
 20
114.6593891576
  0
VERTEX
  8
SURFACE
 62
7
  6
CONTINUOUS
 10
151.0664389614
 20
114.5678725849
  0
VERTEX
  8
SURFACE
 62
7
  6
CONTINUOUS
 10
151.1169411501
 20
114.4913315608
  0
SEQEND
  0
POLYLINE
  8
0
 62
7
  6
CONTINUOUS
 66
1
 70
0
  0
VERTEX
  8
0
 62
7
  6
CONTINUOUS
 10
118.0011312881
 20
181.2163859497
  0
VERTEX
  8
0
 62
7
  6
CONTINUOUS
 10
117.9995216352
 20
181.2406911954
  0
VERTEX
  8
0
 62
7
  6
CONTINUOUS
 10
117.9978282414
 20
181.2644717114
  0
VERTEX
  8
0
 62
7
  6
CONTINUOUS
 10
117.9960175077
 20
181.2880450683
  0
VERTEX
  8
0
 62
7
  6
CONTINUOUS
 10
117.9940503049
 20
181.3117017936
  0
VERTEX
  8
0
 62
7
  6
CONTINUOUS
 10
117.991875423
 20
181.3357662316
  0
VERTEX
  8
0
 62
7
  6
CONTINUOUS
 10
117.9894226978
 20
181.3606303168
  0
VERTEX
  8
0
 62
7
  6
CONTINUOUS
 10
117.9865954421
 20
181.3867670429
  0
VERTEX
  8
0
 62
7
  6
CONTINUOUS
 10
117.9832605244
 20
181.4147393447
  0
VERTEX
  8
0
 62
7
  6
CONTINUOUS
 10
117.9792484555
 20
181.4451103647
  0
VERTEX
  8
0
 62
7
  6
CONTINUOUS
 10
117.9743486916
 20
181.4784132958
  0
VERTEX
  8
0
 62
7
  6
CONTINUOUS
 10
117.9683025453
 20
181.5151434104
  0
VERTEX
  8
0
 62
7
  6
CONTINUOUS
 10
117.9608723361
 20
181.5553609431
  0
VERTEX
  8
0
 62
7
  6
CONTINUOUS
 10
117.951902022
 20
181.5985936805
  0
VERTEX
  8
0
 62
7
  6
CONTINUOUS
 10
117.9413129428
 20
181.6441301489
  0
VERTEX
  8
0
 62
7
  6
CONTINUOUS
 10
117.9286453668
 20
181.6928486712
  0
VERTEX
  8
0
 62
7
  6
CONTINUOUS
 10
117.9129443592
 20
181.7468169464
  0
VERTEX
  8
0
 62
7
  6
CONTINUOUS
 10
117.8928961103
 20
181.8081485047
  0
VERTEX
  8
0
 62
7
  6
CONTINUOUS
 10
117.8675697846
 20
181.8767667733
  0
VERTEX
  8
0
 62
7
  6
CONTINUOUS
 10
117.8364046841
 20
181.9513375588
  0
VERTEX
  8
0
 62
7
  6
CONTINUOUS
 10
117.7989823087
 20
182.030371665
  0
VERTEX
  8
0
 62
7
  6
CONTINUOUS
 10
117.7548091317
 20
182.1127558556
  0
VERTEX
  8
0
 62
7
  6
CONTINUOUS
 10
117.7035018223
 20
182.1973151701
  0
VERTEX
  8
0
 62
7
  6
CONTINUOUS
 10
117.6447570855
 20
182.282906969
  0
VERTEX
  8
0
 62
7
  6
CONTINUOUS
 10
117.5783521503
 20
182.3684235816
  0
VERTEX
  8
0
 62
7
  6
CONTINUOUS
 10
117.504192928
 20
182.4527388944
  0
VERTEX
  8
0
 62
7
  6
CONTINUOUS
 10
117.4223295316
 20
182.5347212645
  0
VERTEX
  8
0
 62
7
  6
CONTINUOUS
 10
117.3324740817
 20
182.6136581292
  0
VERTEX
  8
0
 62
7
  6
CONTINUOUS
 10
117.2338240701
 20
182.6891427287
  0
VERTEX
  8
0
 62
7
  6
CONTINUOUS
 10
117.1254978888
 20
182.7605272265
  0
VERTEX
  8
0
 62
7
  6
CONTINUOUS
 10
117.0066671298
 20
182.8268209142
  0
VERTEX
  8
0
 62
7
  6
CONTINUOUS
 10
116.8777941981
 20
182.8861909673
  0
VERTEX
  8
0
 62
7
  6
CONTINUOUS
 10
116.7407130389
 20
182.9365038397
  0
VERTEX
  8
0
 62
7
  6
CONTINUOUS
 10
116.5976639639
 20
182.9760944087
  0
VERTEX
  8
0
 62
7
  6
CONTINUOUS
 10
116.451169543
 20
183.0038708086
  0
VERTEX
  8
0
 62
7
  6
CONTINUOUS
 10
116.3039237497
 20
183.019368101
  0
VERTEX
  8
0
 62
7
  6
CONTINUOUS
 10
116.1891944643
 20
183.0230261019
  0
SEQEND
  0
LINE
  8
0
 62
7
  6
CONTINUOUS
 10
118.0041977049
 20
181.1650266776
 11
118.0011312881
 21
181.2163859497
  0
LINE
  8
0
 62
7
  6
CONTINUOUS
 10
118.0071706924
 20
181.1082543719
 11
118.0041977049
 21
181.1650266776
  0
LINE
  8
0
 62
7
  6
CONTINUOUS
 10
118.0101242593
 20
181.0444112571
 11
118.0071706924
 21
181.1082543719
  0
LINE
  8
0
 62
7
  6
CONTINUOUS
 10
118.0131019375
 20
180.9720100777
 11
118.0101242593
 21
181.0444112571
  0
LINE
  8
0
 62
7
  6
CONTINUOUS
 10
118.0177347636
 20
180.8422888562
 11
118.0131019375
 21
180.9720100777
  0
LINE
  8
SURFACE
 62
7
  6
CONTINUOUS
 10
118.5211715936
 20
91.7542541594
 11
118.5259108606
 21
91.6140820986
  0
LINE
  8
0
 62
7
  6
CONTINUOUS
 10
118.0227068177
 20
180.6785254474
 11
118.0177347636
 21
180.8422888562
  0
LINE
  8
SURFACE
 62
7
  6
CONTINUOUS
 10
118.5161005585
 20
91.9303379466
 11
118.5211715936
 21
91.7542541594
  0
LINE
  8
0
 62
7
  6
CONTINUOUS
 10
118.0297036936
 20
180.4020095213
 11
118.0227068177
 21
180.6785254474
  0
LINE
  8
SURFACE
 62
7
  6
CONTINUOUS
 10
118.5090273983
 20
92.2241538897
 11
118.5161005585
 21
91.9303379466
  0
POLYLINE
  8
SURFACE
 62
7
  6
CONTINUOUS
 66
1
 70
0
  0
VERTEX
  8
SURFACE
 62
7
  6
CONTINUOUS
 10
118.172698712
 20
124.0278151805
  0
VERTEX
  8
SURFACE
 62
7
  6
CONTINUOUS
 10
118.1779197382
 20
123.7874840661
  0
VERTEX
  8
SURFACE
 62
7
  6
CONTINUOUS
 10
118.1634392512
 20
123.5486513102
  0
VERTEX
  8
SURFACE
 62
7
  6
CONTINUOUS
 10
118.1323314352
 20
123.3274704321
  0
VERTEX
  8
SURFACE
 62
7
  6
CONTINUOUS
 10
118.0878591603
 20
123.1225743314
  0
VERTEX
  8
SURFACE
 62
7
  6
CONTINUOUS
 10
118.0325193986
 20
122.9325327848
  0
VERTEX
  8
SURFACE
 62
7
  6
CONTINUOUS
 10
117.9681944497
 20
122.7559356036
  0
VERTEX
  8
SURFACE
 62
7
  6
CONTINUOUS
 10
117.8963078457
 20
122.5915170802
  0
VERTEX
  8
SURFACE
 62
7
  6
CONTINUOUS
 10
117.8179481489
 20
122.4381900862
  0
VERTEX
  8
SURFACE
 62
7
  6
CONTINUOUS
 10
117.733908854
 20
122.2949574469
  0
VERTEX
  8
SURFACE
 62
7
  6
CONTINUOUS
 10
117.6447759242
 20
122.1609688736
  0
VERTEX
  8
SURFACE
 62
7
  6
CONTINUOUS
 10
117.551175763
 20
122.0357596526
  0
VERTEX
  8
SURFACE
 62
7
  6
CONTINUOUS
 10
117.4537090222
 20
121.9189968412
  0
VERTEX
  8
SURFACE
 62
7
  6
CONTINUOUS
 10
117.3529360773
 20
121.8104003398
  0
VERTEX
  8
SURFACE
 62
7
  6
CONTINUOUS
 10
117.2493777675
 20
121.7097139291
  0
VERTEX
  8
SURFACE
 62
7
  6
CONTINUOUS
 10
117.143504404
 20
121.6166848195
  0
VERTEX
  8
SURFACE
 62
7
  6
CONTINUOUS
 10
117.0358019357
 20
121.5311120521
  0
VERTEX
  8
SURFACE
 62
7
  6
CONTINUOUS
 10
116.9266952853
 20
121.4527647682
  0
VERTEX
  8
SURFACE
 62
7
  6
CONTINUOUS
 10
116.8161731924
 20
121.381161177
  0
VERTEX
  8
SURFACE
 62
7
  6
CONTINUOUS
 10
116.704017451
 20
121.3158228904
  0
VERTEX
  8
SURFACE
 62
7
  6
CONTINUOUS
 10
116.5899584415
 20
121.2563861835
  0
VERTEX
  8
SURFACE
 62
7
  6
CONTINUOUS
 10
116.4739190076
 20
121.2026984202
  0
VERTEX
  8
SURFACE
 62
7
  6
CONTINUOUS
 10
116.3560850945
 20
121.1547757382
  0
VERTEX
  8
SURFACE
 62
7
  6
CONTINUOUS
 10
116.2367278094
 20
121.1126671679
  0
VERTEX
  8
SURFACE
 62
7
  6
CONTINUOUS
 10
116.1162292559
 20
121.0764380541
  0
VERTEX
  8
SURFACE
 62
7
  6
CONTINUOUS
 10
115.9953861478
 20
121.0462104407
  0
VERTEX
  8
SURFACE
 62
7
  6
CONTINUOUS
 10
115.8753870468
 20
121.0220597768
  0
VERTEX
  8
SURFACE
 62
7
  6
CONTINUOUS
 10
115.7574886102
 20
121.003887332
  0
VERTEX
  8
SURFACE
 62
7
  6
CONTINUOUS
 10
115.6420153162
 20
120.9913298022
  0
VERTEX
  8
SURFACE
 62
7
  6
CONTINUOUS
 10
115.528313014
 20
120.9839695119
  0
VERTEX
  8
SURFACE
 62
7
  6
CONTINUOUS
 10
115.4155237802
 20
120.9815387764
  0
VERTEX
  8
SURFACE
 62
7
  6
CONTINUOUS
 10
115.3027433989
 20
120.9839467618
  0
VERTEX
  8
SURFACE
 62
7
  6
CONTINUOUS
 10
115.1890564565
 20
120.9912826805
  0
VERTEX
  8
SURFACE
 62
7
  6
CONTINUOUS
 10
115.0735900807
 20
121.0038149828
  0
VERTEX
  8
SURFACE
 62
7
  6
CONTINUOUS
 10
114.9556786504
 20
121.0219641934
  0
VERTEX
  8
SURFACE
 62
7
  6
CONTINUOUS
 10
114.8356573778
 20
121.046093924
  0
VERTEX
  8
SURFACE
 62
7
  6
CONTINUOUS
 10
114.7147919137
 20
121.0763019452
  0
VERTEX
  8
SURFACE
 62
7
  6
CONTINUOUS
 10
114.5942763052
 20
121.1125112126
  0
VERTEX
  8
SURFACE
 62
7
  6
CONTINUOUS
 10
114.4749062412
 20
121.1545993178
  0
VERTEX
  8
SURFACE
 62
7
  6
CONTINUOUS
 10
114.3570625353
 20
121.2025007403
  0
VERTEX
  8
SURFACE
 62
7
  6
CONTINUOUS
 10
114.2410155139
 20
121.2561662225
  0
VERTEX
  8
SURFACE
 62
7
  6
CONTINUOUS
 10
114.1269498157
 20
121.3155798081
  0
VERTEX
  8
SURFACE
 62
7
  6
CONTINUOUS
 10
114.0147850358
 20
121.3808957525
  0
VERTEX
  8
SURFACE
 62
7
  6
CONTINUOUS
 10
113.9042522878
 20
121.4524775026
  0
VERTEX
  8
SURFACE
 62
7
  6
CONTINUOUS
 10
113.7951348727
 20
121.5308021346
  0
VERTEX
  8
SURFACE
 62
7
  6
CONTINUOUS
 10
113.6874226762
 20
121.6163500828
  0
VERTEX
  8
SURFACE
 62
7
  6
CONTINUOUS
 10
113.5815414857
 20
121.7093509156
  0
VERTEX
  8
SURFACE
 62
7
  6
CONTINUOUS
 10
113.4779780365
 20
121.810003774
  0
VERTEX
  8
SURFACE
 62
7
  6
CONTINUOUS
 10
113.3772006988
 20
121.9185616435
  0
VERTEX
  8
SURFACE
 62
7
  6
CONTINUOUS
 10
113.2797289275
 20
122.0352811797
  0
VERTEX
  8
SURFACE
 62
7
  6
CONTINUOUS
 10
113.1861228635
 20
122.1604415576
  0
VERTEX
  8
SURFACE
 62
7
  6
CONTINUOUS
 10
113.0969828999
 20
122.2943737606
  0
VERTEX
  8
SURFACE
 62
7
  6
CONTINUOUS
 10
113.0129322458
 20
122.4375452234
  0
VERTEX
  8
SURFACE
 62
7
  6
CONTINUOUS
 10
112.9345559729
 20
122.5908057433
  0
VERTEX
  8
SURFACE
 62
7
  6
CONTINUOUS
 10
112.8626467283
 20
122.7551509439
  0
VERTEX
  8
SURFACE
 62
7
  6
CONTINUOUS
 10
112.7982916732
 20
122.9316658589
  0
VERTEX
  8
SURFACE
 62
7
  6
CONTINUOUS
 10
112.7429114241
 20
123.1216166446
  0
VERTEX
  8
SURFACE
 62
7
  6
CONTINUOUS
 10
112.6983855053
 20
123.3264114875
  0
VERTEX
  8
SURFACE
 62
7
  6
CONTINUOUS
 10
112.6672067662
 20
123.547478797
  0
VERTEX
  8
SURFACE
 62
7
  6
CONTINUOUS
 10
112.6526322851
 20
123.7861850921
  0
SEQEND
  0
POLYLINE
  8
0
 62
7
  6
CONTINUOUS
 66
1
 70
0
  0
VERTEX
  8
0
 62
7
  6
CONTINUOUS
 10
118.3678276038
 20
148.5182374511
  0
VERTEX
  8
0
 62
7
  6
CONTINUOUS
 10
118.3626065776
 20
148.7585685654
  0
VERTEX
  8
0
 62
7
  6
CONTINUOUS
 10
118.3770870646
 20
148.9974013214
  0
VERTEX
  8
0
 62
7
  6
CONTINUOUS
 10
118.4081948806
 20
149.2185821995
  0
VERTEX
  8
0
 62
7
  6
CONTINUOUS
 10
118.4526671555
 20
149.4234783001
  0
VERTEX
  8
0
 62
7
  6
CONTINUOUS
 10
118.5080069172
 20
149.6135198468
  0
VERTEX
  8
0
 62
7
  6
CONTINUOUS
 10
118.5723318661
 20
149.7901170279
  0
VERTEX
  8
0
 62
7
  6
CONTINUOUS
 10
118.6442184701
 20
149.9545355514
  0
VERTEX
  8
0
 62
7
  6
CONTINUOUS
 10
118.7225781669
 20
150.1078625454
  0
VERTEX
  8
0
 62
7
  6
CONTINUOUS
 10
118.8066174618
 20
150.2510951847
  0
VERTEX
  8
0
 62
7
  6
CONTINUOUS
 10
118.8957503916
 20
150.385083758
  0
VERTEX
  8
0
 62
7
  6
CONTINUOUS
 10
118.9893505528
 20
150.5102929789
  0
VERTEX
  8
0
 62
7
  6
CONTINUOUS
 10
119.0868172936
 20
150.6270557904
  0
VERTEX
  8
0
 62
7
  6
CONTINUOUS
 10
119.1875902385
 20
150.7356522918
  0
VERTEX
  8
0
 62
7
  6
CONTINUOUS
 10
119.2911485483
 20
150.8363387025
  0
VERTEX
  8
0
 62
7
  6
CONTINUOUS
 10
119.3970219118
 20
150.9293678121
  0
VERTEX
  8
0
 62
7
  6
CONTINUOUS
 10
119.5047243801
 20
151.0149405795
  0
VERTEX
  8
0
 62
7
  6
CONTINUOUS
 10
119.6138310305
 20
151.0932878633
  0
VERTEX
  8
0
 62
7
  6
CONTINUOUS
 10
119.7243531234
 20
151.1648914546
  0
VERTEX
  8
0
 62
7
  6
CONTINUOUS
 10
119.8365088648
 20
151.2302297412
  0
VERTEX
  8
0
 62
7
  6
CONTINUOUS
 10
119.9505678742
 20
151.2896664481
  0
VERTEX
  8
0
 62
7
  6
CONTINUOUS
 10
120.0666073082
 20
151.3433542114
  0
VERTEX
  8
0
 62
7
  6
CONTINUOUS
 10
120.1844412213
 20
151.3912768934
  0
VERTEX
  8
0
 62
7
  6
CONTINUOUS
 10
120.3037985064
 20
151.4333854636
  0
VERTEX
  8
0
 62
7
  6
CONTINUOUS
 10
120.4242970599
 20
151.4696145774
  0
VERTEX
  8
0
 62
7
  6
CONTINUOUS
 10
120.545140168
 20
151.4998421909
  0
VERTEX
  8
0
 62
7
  6
CONTINUOUS
 10
120.6651392689
 20
151.5239928547
  0
VERTEX
  8
0
 62
7
  6
CONTINUOUS
 10
120.7830377056
 20
151.5421652996
  0
VERTEX
  8
0
 62
7
  6
CONTINUOUS
 10
120.8985109996
 20
151.5547228294
  0
VERTEX
  8
0
 62
7
  6
CONTINUOUS
 10
121.0122133018
 20
151.5620831197
  0
VERTEX
  8
0
 62
7
  6
CONTINUOUS
 10
121.1250025356
 20
151.5645138551
  0
VERTEX
  8
0
 62
7
  6
CONTINUOUS
 10
121.2377829169
 20
151.5621058698
  0
VERTEX
  8
0
 62
7
  6
CONTINUOUS
 10
121.3514698593
 20
151.5547699511
  0
VERTEX
  8
0
 62
7
  6
CONTINUOUS
 10
121.4669362351
 20
151.5422376487
  0
VERTEX
  8
0
 62
7
  6
CONTINUOUS
 10
121.5848476654
 20
151.5240884382
  0
VERTEX
  8
0
 62
7
  6
CONTINUOUS
 10
121.704868938
 20
151.4999587076
  0
VERTEX
  8
0
 62
7
  6
CONTINUOUS
 10
121.8257344021
 20
151.4697506864
  0
VERTEX
  8
0
 62
7
  6
CONTINUOUS
 10
121.9462500106
 20
151.433541419
  0
VERTEX
  8
0
 62
7
  6
CONTINUOUS
 10
122.0656200746
 20
151.3914533138
  0
VERTEX
  8
0
 62
7
  6
CONTINUOUS
 10
122.1834637805
 20
151.3435518913
  0
VERTEX
  8
0
 62
7
  6
CONTINUOUS
 10
122.2995108019
 20
151.2898864091
  0
VERTEX
  8
0
 62
7
  6
CONTINUOUS
 10
122.4135765001
 20
151.2304728235
  0
VERTEX
  8
0
 62
7
  6
CONTINUOUS
 10
122.52574128
 20
151.1651568791
  0
VERTEX
  8
0
 62
7
  6
CONTINUOUS
 10
122.636274028
 20
151.093575129
  0
VERTEX
  8
0
 62
7
  6
CONTINUOUS
 10
122.7453914431
 20
151.015250497
  0
VERTEX
  8
0
 62
7
  6
CONTINUOUS
 10
122.8531036396
 20
150.9297025488
  0
VERTEX
  8
0
 62
7
  6
CONTINUOUS
 10
122.9589848301
 20
150.8367017159
  0
VERTEX
  8
0
 62
7
  6
CONTINUOUS
 10
123.0625482793
 20
150.7360488576
  0
VERTEX
  8
0
 62
7
  6
CONTINUOUS
 10
123.163325617
 20
150.6274909881
  0
VERTEX
  8
0
 62
7
  6
CONTINUOUS
 10
123.2607973883
 20
150.5107714519
  0
VERTEX
  8
0
 62
7
  6
CONTINUOUS
 10
123.3544034523
 20
150.385611074
  0
VERTEX
  8
0
 62
7
  6
CONTINUOUS
 10
123.4435434159
 20
150.251678871
  0
VERTEX
  8
0
 62
7
  6
CONTINUOUS
 10
123.52759407
 20
150.1085074082
  0
VERTEX
  8
0
 62
7
  6
CONTINUOUS
 10
123.6059703429
 20
149.9552468882
  0
VERTEX
  8
0
 62
7
  6
CONTINUOUS
 10
123.6778795875
 20
149.7909016877
  0
VERTEX
  8
0
 62
7
  6
CONTINUOUS
 10
123.7422346426
 20
149.6143867727
  0
VERTEX
  8
0
 62
7
  6
CONTINUOUS
 10
123.7976148917
 20
149.424435987
  0
VERTEX
  8
0
 62
7
  6
CONTINUOUS
 10
123.8421408105
 20
149.2196411441
  0
VERTEX
  8
0
 62
7
  6
CONTINUOUS
 10
123.8733195496
 20
148.9985738346
  0
VERTEX
  8
0
 62
7
  6
CONTINUOUS
 10
123.8878940307
 20
148.7598675394
  0
SEQEND
  0
LINE
  8
0
 62
7
  6
CONTINUOUS
 10
118.0369717655
 20
180.0531930876
 11
118.0297036936
 21
180.4020095213
  0
LINE
  8
SURFACE
 62
7
  6
CONTINUOUS
 10
118.5017069181
 20
92.5922397763
 11
118.5090273983
 21
92.2241538897
  0
LINE
  8
0
 62
7
  6
CONTINUOUS
 10
118.0444086421
 20
179.624861268
 11
118.0369717655
 21
180.0531930876
  0
LINE
  8
SURFACE
 62
7
  6
CONTINUOUS
 10
118.4942405241
 20
93.0416913543
 11
118.5017069181
 21
92.5922397763
  0
LINE
  8
0
 62
7
  6
CONTINUOUS
 10
118.0519624484
 20
179.1069054152
 11
118.0444086421
 21
179.624861268
  0
LINE
  8
SURFACE
 62
7
  6
CONTINUOUS
 10
118.4866568257
 20
93.5845048538
 11
118.4942405241
 21
93.0416913543
  0
LINE
  8
0
 62
7
  6
CONTINUOUS
 10
118.0596287791
 20
178.4828811553
 11
118.0519624484
 21
179.1069054152
  0
LINE
  8
SURFACE
 62
7
  6
CONTINUOUS
 10
118.4789684432
 20
94.23787484
 11
118.4866568257
 21
93.5845048538
  0
LINE
  8
0
 62
7
  6
CONTINUOUS
 10
118.0673507378
 20
177.7347393743
 11
118.0596287791
 21
178.4828811553
  0
LINE
  8
SURFACE
 62
7
  6
CONTINUOUS
 10
118.471249498
 20
95.0198403341
 11
118.4789684432
 21
94.23787484
  0
LINE
  8
0
 62
7
  6
CONTINUOUS
 10
118.0750114515
 20
176.843839692
 11
118.0673507378
 21
177.7347393743
  0
LINE
  8
SURFACE
 62
7
  6
CONTINUOUS
 10
118.4636200761
 20
95.950606468
 11
118.471249498
 21
95.0198403341
  0
LINE
  8
0
 62
7
  6
CONTINUOUS
 10
118.0825258935
 20
175.7767747184
 11
118.0750114515
 21
176.843839692
  0
LINE
  8
SURFACE
 62
7
  6
CONTINUOUS
 10
118.456155674
 20
97.0696414318
 11
118.4636200761
 21
95.950606468
  0
LINE
  8
0
 62
7
  6
CONTINUOUS
 10
118.08802009
 20
174.824087951
 11
118.0825258935
 21
175.7767747184
  0
LINE
  8
SURFACE
 62
7
  6
CONTINUOUS
 10
118.4507026078
 20
98.0786291201
 11
118.456155674
 21
97.0696414318
  0
LINE
  8
0
 62
7
  6
CONTINUOUS
 10
118.0933547109
 20
173.6829765719
 11
118.08802009
 21
174.824087951
  0
LINE
  8
SURFACE
 62
7
  6
CONTINUOUS
 10
118.4454695629
 20
99.2941177775
 11
118.4507026078
 21
98.0786291201
  0
LINE
  8
0
 62
7
  6
CONTINUOUS
 10
118.0966956708
 20
172.7927565411
 11
118.0933547109
 21
173.6829765719
  0
LINE
  8
SURFACE
 62
7
  6
CONTINUOUS
 10
118.4422736869
 20
100.2424160571
 11
118.4454695629
 21
99.2941177775
  0
LINE
  8
0
 62
7
  6
CONTINUOUS
 10
118.0997056766
 20
171.7826929019
 11
118.0966956708
 21
172.7927565411
  0
LINE
  8
SURFACE
 62
7
  6
CONTINUOUS
 10
118.4394924822
 20
101.3201834966
 11
118.4422736869
 21
100.2424160571
  0
LINE
  8
0
 62
7
  6
CONTINUOUS
 10
118.1022112458
 20
170.6273893469
 11
118.0997056766
 21
171.7826929019
  0
LINE
  8
SURFACE
 62
7
  6
CONTINUOUS
 10
118.4373336325
 20
102.5588603444
 11
118.4394924822
 21
101.3201834966
  0
LINE
  8
0
 62
7
  6
CONTINUOUS
 10
118.1039148387
 20
169.3229334621
 11
118.1022112458
 21
170.6273893469
  0
LINE
  8
SURFACE
 62
7
  6
CONTINUOUS
 10
118.4361844064
 20
103.8897006154
 11
118.4373336325
 21
102.5588603444
  0
LINE
  8
0
 62
7
  6
CONTINUOUS
 10
118.1044745151
 20
168.0230263158
 11
118.1039148387
 21
169.3229334621
  0
LINE
  8
0
 62
7
  6
CONTINUOUS
 10
118.1044745152
 20
168.0230263158
 11
118.1044745152
 21
161.516657052
  0
LINE
  8
SURFACE
 62
7
  6
CONTINUOUS
 10
118.4361844064
 20
103.8897006154
 11
118.4360518006
 21
111.0293955795
  0
LINE
  8
0
 62
7
  6
CONTINUOUS
 10
123.8878940307
 20
148.7598675394
 11
123.8826987089
 21
148.5182373423
  0
POLYLINE
  8
0
 62
7
  6
CONTINUOUS
 66
1
 70
0
  0
VERTEX
  8
0
 62
7
  6
CONTINUOUS
 10
123.882698704
 20
148.5182374664
  0
VERTEX
  8
0
 62
7
  6
CONTINUOUS
 10
123.8619681919
 20
148.3097694808
  0
VERTEX
  8
0
 62
7
  6
CONTINUOUS
 10
123.8246866911
 20
148.096083659
  0
VERTEX
  8
0
 62
7
  6
CONTINUOUS
 10
123.7722037968
 20
147.888338727
  0
VERTEX
  8
0
 62
7
  6
CONTINUOUS
 10
123.7053421867
 20
147.6876271905
  0
VERTEX
  8
0
 62
7
  6
CONTINUOUS
 10
123.625045359
 20
147.4950374279
  0
VERTEX
  8
0
 62
7
  6
CONTINUOUS
 10
123.5323948823
 20
147.3116195101
  0
VERTEX
  8
0
 62
7
  6
CONTINUOUS
 10
123.4286112025
 20
147.1383385505
  0
VERTEX
  8
0
 62
7
  6
CONTINUOUS
 10
123.3150227143
 20
146.9760085003
  0
VERTEX
  8
0
 62
7
  6
CONTINUOUS
 10
123.1927367771
 20
146.8249216856
  0
VERTEX
  8
0
 62
7
  6
CONTINUOUS
 10
123.0625794048
 20
146.6850276621
  0
VERTEX
  8
0
 62
7
  6
CONTINUOUS
 10
122.9252477604
 20
146.5562366178
  0
VERTEX
  8
0
 62
7
  6
CONTINUOUS
 10
122.7814688577
 20
146.4385636559
  0
VERTEX
  8
0
 62
7
  6
CONTINUOUS
 10
122.6319389868
 20
146.3320306043
  0
VERTEX
  8
0
 62
7
  6
CONTINUOUS
 10
122.4772693382
 20
146.2366262082
  0
VERTEX
  8
0
 62
7
  6
CONTINUOUS
 10
122.3180831098
 20
146.1523727685
  0
VERTEX
  8
0
 62
7
  6
CONTINUOUS
 10
122.1549990157
 20
146.0792989341
  0
VERTEX
  8
0
 62
7
  6
CONTINUOUS
 10
121.9885749494
 20
146.0174125973
  0
VERTEX
  8
0
 62
7
  6
CONTINUOUS
 10
121.81935294
 20
145.9667273027
  0
VERTEX
  8
0
 62
7
  6
CONTINUOUS
 10
121.6479037442
 20
145.9272698112
  0
VERTEX
  8
0
 62
7
  6
CONTINUOUS
 10
121.4747723318
 20
145.899058708
  0
VERTEX
  8
0
 62
7
  6
CONTINUOUS
 10
121.3004860357
 20
145.8821105782
  0
VERTEX
  8
0
 62
7
  6
CONTINUOUS
 10
121.1256122313
 20
145.8764437151
  0
VERTEX
  8
0
 62
7
  6
CONTINUOUS
 10
120.9507360499
 20
145.8820656132
  0
VERTEX
  8
0
 62
7
  6
CONTINUOUS
 10
120.7764426526
 20
145.8989693041
  0
VERTEX
  8
0
 62
7
  6
CONTINUOUS
 10
120.6032999552
 20
145.9271369203
  0
VERTEX
  8
0
 62
7
  6
CONTINUOUS
 10
120.4318371244
 20
145.9665518284
  0
VERTEX
  8
0
 62
7
  6
CONTINUOUS
 10
120.2626010343
 20
146.0171948877
  0
VERTEX
  8
0
 62
7
  6
CONTINUOUS
 10
120.0961638253
 20
146.0790384456
  0
VERTEX
  8
0
 62
7
  6
CONTINUOUS
 10
119.9330665833
 20
146.1520687141
  0
VERTEX
  8
0
 62
7
  6
CONTINUOUS
 10
119.7738653202
 20
146.2362782996
  0
VERTEX
  8
0
 62
7
  6
CONTINUOUS
 10
119.6191771134
 20
146.3316394646
  0
VERTEX
  8
0
 62
7
  6
CONTINUOUS
 10
119.4696244366
 20
146.4381307073
  0
VERTEX
  8
0
 62
7
  6
CONTINUOUS
 10
119.3258192372
 20
146.5557630997
  0
VERTEX
  8
0
 62
7
  6
CONTINUOUS
 10
119.1884585569
 20
146.6845143463
  0
VERTEX
  8
0
 62
7
  6
CONTINUOUS
 10
119.0582695988
 20
146.824369101
  0
VERTEX
  8
0
 62
7
  6
CONTINUOUS
 10
118.9359489175
 20
146.9754177166
  0
VERTEX
  8
0
 62
7
  6
CONTINUOUS
 10
118.8223220184
 20
147.1377113629
  0
VERTEX
  8
0
 62
7
  6
CONTINUOUS
 10
118.7184965483
 20
147.3109576011
  0
VERTEX
  8
0
 62
7
  6
CONTINUOUS
 10
118.6258011566
 20
147.494342438
  0
VERTEX
  8
0
 62
7
  6
CONTINUOUS
 10
118.5454563817
 20
147.6869008573
  0
VERTEX
  8
0
 62
7
  6
CONTINUOUS
 10
118.4785438613
 20
147.8875827554
  0
VERTEX
  8
0
 62
7
  6
CONTINUOUS
 10
118.4260070956
 20
148.0952995081
  0
VERTEX
  8
0
 62
7
  6
CONTINUOUS
 10
118.3886684844
 20
148.308959367
  0
VERTEX
  8
0
 62
7
  6
CONTINUOUS
 10
118.3678275979
 20
148.5182375757
  0
SEQEND
  0
POLYLINE
  8
0
 62
7
  6
CONTINUOUS
 66
1
 70
0
  0
VERTEX
  8
0
 62
7
  6
CONTINUOUS
 10
134.4069405704
 20
158.0547201672
  0
VERTEX
  8
0
 62
7
  6
CONTINUOUS
 10
134.3554018577
 20
157.9766532499
  0
VERTEX
  8
0
 62
7
  6
CONTINUOUS
 10
134.2908961501
 20
157.8852472211
  0
VERTEX
  8
0
 62
7
  6
CONTINUOUS
 10
134.2248310911
 20
157.7988602107
  0
VERTEX
  8
0
 62
7
  6
CONTINUOUS
 10
134.157388789
 20
157.7181370901
  0
VERTEX
  8
0
 62
7
  6
CONTINUOUS
 10
134.0889787078
 20
157.6438569101
  0
VERTEX
  8
0
 62
7
  6
CONTINUOUS
 10
134.0202241733
 20
157.5768097145
  0
VERTEX
  8
0
 62
7
  6
CONTINUOUS
 10
133.9515808028
 20
157.5173848639
  0
VERTEX
  8
0
 62
7
  6
CONTINUOUS
 10
133.8832594233
 20
157.4656252624
  0
VERTEX
  8
0
 62
7
  6
CONTINUOUS
 10
133.8155070175
 20
157.4215337415
  0
VERTEX
  8
0
 62
7
  6
CONTINUOUS
 10
133.7483509481
 20
157.3849224686
  0
VERTEX
  8
0
 62
7
  6
CONTINUOUS
 10
133.6815073075
 20
157.3554741723
  0
VERTEX
  8
0
 62
7
  6
CONTINUOUS
 10
133.6146895452
 20
157.3329590226
  0
VERTEX
  8
0
 62
7
  6
CONTINUOUS
 10
133.5471594632
 20
157.3171140218
  0
VERTEX
  8
0
 62
7
  6
CONTINUOUS
 10
133.4779337205
 20
157.3078550494
  0
VERTEX
  8
0
 62
7
  6
CONTINUOUS
 10
133.4168040486
 20
157.3053044285
  0
SEQEND
  0
POLYLINE
  8
0
 62
7
  6
CONTINUOUS
 66
1
 70
0
  0
VERTEX
  8
0
 62
7
  6
CONTINUOUS
 10
129.3678276038
 20
148.5182374511
  0
VERTEX
  8
0
 62
7
  6
CONTINUOUS
 10
129.3626065776
 20
148.7585685654
  0
VERTEX
  8
0
 62
7
  6
CONTINUOUS
 10
129.3770870646
 20
148.9974013214
  0
VERTEX
  8
0
 62
7
  6
CONTINUOUS
 10
129.4081948806
 20
149.2185821995
  0
VERTEX
  8
0
 62
7
  6
CONTINUOUS
 10
129.4526671555
 20
149.4234783001
  0
VERTEX
  8
0
 62
7
  6
CONTINUOUS
 10
129.5080069172
 20
149.6135198468
  0
VERTEX
  8
0
 62
7
  6
CONTINUOUS
 10
129.5723318661
 20
149.7901170279
  0
VERTEX
  8
0
 62
7
  6
CONTINUOUS
 10
129.6442184701
 20
149.9545355514
  0
VERTEX
  8
0
 62
7
  6
CONTINUOUS
 10
129.7225781669
 20
150.1078625454
  0
VERTEX
  8
0
 62
7
  6
CONTINUOUS
 10
129.8066174618
 20
150.2510951847
  0
VERTEX
  8
0
 62
7
  6
CONTINUOUS
 10
129.8957503916
 20
150.385083758
  0
VERTEX
  8
0
 62
7
  6
CONTINUOUS
 10
129.9893505528
 20
150.5102929789
  0
VERTEX
  8
0
 62
7
  6
CONTINUOUS
 10
130.0868172936
 20
150.6270557904
  0
VERTEX
  8
0
 62
7
  6
CONTINUOUS
 10
130.1875902385
 20
150.7356522918
  0
VERTEX
  8
0
 62
7
  6
CONTINUOUS
 10
130.2911485483
 20
150.8363387025
  0
VERTEX
  8
0
 62
7
  6
CONTINUOUS
 10
130.3970219118
 20
150.9293678121
  0
VERTEX
  8
0
 62
7
  6
CONTINUOUS
 10
130.5047243801
 20
151.0149405795
  0
VERTEX
  8
0
 62
7
  6
CONTINUOUS
 10
130.6138310305
 20
151.0932878633
  0
VERTEX
  8
0
 62
7
  6
CONTINUOUS
 10
130.7243531234
 20
151.1648914546
  0
VERTEX
  8
0
 62
7
  6
CONTINUOUS
 10
130.8365088648
 20
151.2302297412
  0
VERTEX
  8
0
 62
7
  6
CONTINUOUS
 10
130.9505678742
 20
151.2896664481
  0
VERTEX
  8
0
 62
7
  6
CONTINUOUS
 10
131.0666073082
 20
151.3433542114
  0
VERTEX
  8
0
 62
7
  6
CONTINUOUS
 10
131.1844412213
 20
151.3912768934
  0
VERTEX
  8
0
 62
7
  6
CONTINUOUS
 10
131.3037985064
 20
151.4333854636
  0
VERTEX
  8
0
 62
7
  6
CONTINUOUS
 10
131.4242970599
 20
151.4696145774
  0
VERTEX
  8
0
 62
7
  6
CONTINUOUS
 10
131.545140168
 20
151.4998421909
  0
VERTEX
  8
0
 62
7
  6
CONTINUOUS
 10
131.6651392689
 20
151.5239928547
  0
VERTEX
  8
0
 62
7
  6
CONTINUOUS
 10
131.7830377056
 20
151.5421652996
  0
VERTEX
  8
0
 62
7
  6
CONTINUOUS
 10
131.8985109996
 20
151.5547228294
  0
VERTEX
  8
0
 62
7
  6
CONTINUOUS
 10
132.0122133018
 20
151.5620831197
  0
VERTEX
  8
0
 62
7
  6
CONTINUOUS
 10
132.1250025356
 20
151.5645138551
  0
VERTEX
  8
0
 62
7
  6
CONTINUOUS
 10
132.2377829169
 20
151.5621058698
  0
VERTEX
  8
0
 62
7
  6
CONTINUOUS
 10
132.3514698593
 20
151.5547699511
  0
VERTEX
  8
0
 62
7
  6
CONTINUOUS
 10
132.4669362351
 20
151.5422376487
  0
VERTEX
  8
0
 62
7
  6
CONTINUOUS
 10
132.5848476654
 20
151.5240884382
  0
VERTEX
  8
0
 62
7
  6
CONTINUOUS
 10
132.704868938
 20
151.4999587076
  0
VERTEX
  8
0
 62
7
  6
CONTINUOUS
 10
132.8257344021
 20
151.4697506864
  0
VERTEX
  8
0
 62
7
  6
CONTINUOUS
 10
132.9462500106
 20
151.433541419
  0
VERTEX
  8
0
 62
7
  6
CONTINUOUS
 10
133.0656200746
 20
151.3914533138
  0
VERTEX
  8
0
 62
7
  6
CONTINUOUS
 10
133.1834637805
 20
151.3435518913
  0
VERTEX
  8
0
 62
7
  6
CONTINUOUS
 10
133.2995108019
 20
151.2898864091
  0
VERTEX
  8
0
 62
7
  6
CONTINUOUS
 10
133.4135765001
 20
151.2304728235
  0
VERTEX
  8
0
 62
7
  6
CONTINUOUS
 10
133.52574128
 20
151.1651568791
  0
VERTEX
  8
0
 62
7
  6
CONTINUOUS
 10
133.636274028
 20
151.093575129
  0
VERTEX
  8
0
 62
7
  6
CONTINUOUS
 10
133.7453914431
 20
151.015250497
  0
VERTEX
  8
0
 62
7
  6
CONTINUOUS
 10
133.8531036396
 20
150.9297025488
  0
VERTEX
  8
0
 62
7
  6
CONTINUOUS
 10
133.9589848301
 20
150.8367017159
  0
VERTEX
  8
0
 62
7
  6
CONTINUOUS
 10
134.0625482793
 20
150.7360488576
  0
VERTEX
  8
0
 62
7
  6
CONTINUOUS
 10
134.163325617
 20
150.6274909881
  0
VERTEX
  8
0
 62
7
  6
CONTINUOUS
 10
134.2607973883
 20
150.5107714519
  0
VERTEX
  8
0
 62
7
  6
CONTINUOUS
 10
134.3544034523
 20
150.385611074
  0
VERTEX
  8
0
 62
7
  6
CONTINUOUS
 10
134.4435434159
 20
150.251678871
  0
VERTEX
  8
0
 62
7
  6
CONTINUOUS
 10
134.52759407
 20
150.1085074082
  0
VERTEX
  8
0
 62
7
  6
CONTINUOUS
 10
134.6059703429
 20
149.9552468882
  0
VERTEX
  8
0
 62
7
  6
CONTINUOUS
 10
134.6778795875
 20
149.7909016877
  0
VERTEX
  8
0
 62
7
  6
CONTINUOUS
 10
134.7422346426
 20
149.6143867727
  0
VERTEX
  8
0
 62
7
  6
CONTINUOUS
 10
134.7976148917
 20
149.424435987
  0
VERTEX
  8
0
 62
7
  6
CONTINUOUS
 10
134.8421408105
 20
149.2196411441
  0
VERTEX
  8
0
 62
7
  6
CONTINUOUS
 10
134.8733195496
 20
148.9985738346
  0
VERTEX
  8
0
 62
7
  6
CONTINUOUS
 10
134.8878940307
 20
148.7598675394
  0
SEQEND
  0
LINE
  8
SURFACE
 62
7
  6
CONTINUOUS
 10
134.8140537099
 20
103.3955297466
 11
134.8144745152
 21
111.0293955799
  0
LINE
  8
0
 62
7
  6
CONTINUOUS
 10
135.1464726058
 20
169.1505228849
 11
135.1460518006
 21
161.5166570517
  0
LINE
  8
SURFACE
 62
7
  6
CONTINUOUS
 10
134.8128682502
 20
102.3258529511
 11
134.8140537099
 21
103.3955297466
  0
LINE
  8
0
 62
7
  6
CONTINUOUS
 10
135.1476580655
 20
170.2201996804
 11
135.1464726058
 21
169.1505228849
  0
LINE
  8
SURFACE
 62
7
  6
CONTINUOUS
 10
134.8100034917
 20
100.8802545304
 11
134.8128682502
 21
102.3258529511
  0
LINE
  8
0
 62
7
  6
CONTINUOUS
 10
135.1505228241
 20
171.6657981012
 11
135.1476580655
 21
170.2201996804
  0
LINE
  8
SURFACE
 62
7
  6
CONTINUOUS
 10
134.8063134324
 20
99.6416949667
 11
134.8100034917
 21
100.8802545304
  0
LINE
  8
0
 62
7
  6
CONTINUOUS
 10
135.1542128834
 20
172.9043576649
 11
135.1505228241
 21
171.6657981012
  0
LINE
  8
SURFACE
 62
7
  6
CONTINUOUS
 10
134.8005561775
 20
98.2311742602
 11
134.8063134324
 21
99.6416949667
  0
LINE
  8
0
 62
7
  6
CONTINUOUS
 10
135.1599701382
 20
174.3148783714
 11
135.1542128834
 21
172.9043576649
  0
LINE
  8
0
 62
7
  6
CONTINUOUS
 10
135.1664480007
 20
175.525205629
 11
135.1599701382
 21
174.3148783714
  0
LINE
  8
SURFACE
 62
7
  6
CONTINUOUS
 10
134.7940783151
 20
97.0208470026
 11
134.8005561775
 21
98.2311742602
  0
LINE
  8
0
 62
7
  6
CONTINUOUS
 10
135.1750082236
 20
176.7786381257
 11
135.1664480007
 21
175.525205629
  0
LINE
  8
SURFACE
 62
7
  6
CONTINUOUS
 10
134.7855180922
 20
95.7674145059
 11
134.7940783151
 21
97.0208470026
  0
LINE
  8
0
 62
7
  6
CONTINUOUS
 10
135.1852718905
 20
177.951177634
 11
135.1750082236
 21
176.7786381257
  0
LINE
  8
SURFACE
 62
7
  6
CONTINUOUS
 10
134.7752544252
 20
94.5948749976
 11
134.7855180922
 21
95.7674145059
  0
POLYLINE
  8
0
 62
7
  6
CONTINUOUS
 66
1
 70
0
  0
VERTEX
  8
0
 62
7
  6
CONTINUOUS
 10
135.1460518656
 20
161.5166570517
  0
VERTEX
  8
0
 62
7
  6
CONTINUOUS
 10
135.1426302935
 20
161.2036671647
  0
VERTEX
  8
0
 62
7
  6
CONTINUOUS
 10
135.1313599096
 20
160.8831800755
  0
VERTEX
  8
0
 62
7
  6
CONTINUOUS
 10
135.1116912705
 20
160.5701863855
  0
VERTEX
  8
0
 62
7
  6
CONTINUOUS
 10
135.0831459833
 20
160.2653055003
  0
VERTEX
  8
0
 62
7
  6
CONTINUOUS
 10
135.0453354499
 20
159.9693711712
  0
VERTEX
  8
0
 62
7
  6
CONTINUOUS
 10
134.9979932416
 20
159.6834204865
  0
VERTEX
  8
0
 62
7
  6
CONTINUOUS
 10
134.9409908247
 20
159.4085789618
  0
VERTEX
  8
0
 62
7
  6
CONTINUOUS
 10
134.8742242377
 20
159.1455632636
  0
VERTEX
  8
0
 62
7
  6
CONTINUOUS
 10
134.7977064071
 20
158.895268702
  0
VERTEX
  8
0
 62
7
  6
CONTINUOUS
 10
134.7117150811
 20
158.6590477915
  0
VERTEX
  8
0
 62
7
  6
CONTINUOUS
 10
134.6166060943
 20
158.4379950028
  0
VERTEX
  8
0
 62
7
  6
CONTINUOUS
 10
134.512661722
 20
158.23281186
  0
VERTEX
  8
0
 62
7
  6
CONTINUOUS
 10
134.4069404959
 20
158.054720215
  0
SEQEND
  0
POLYLINE
  8
SURFACE
 62
7
  6
CONTINUOUS
 66
1
 70
0
  0
VERTEX
  8
SURFACE
 62
7
  6
CONTINUOUS
 10
134.8144744502
 20
111.0293955799
  0
VERTEX
  8
SURFACE
 62
7
  6
CONTINUOUS
 10
134.8178960223
 20
111.3423854669
  0
VERTEX
  8
SURFACE
 62
7
  6
CONTINUOUS
 10
134.8291664062
 20
111.662872556
  0
VERTEX
  8
SURFACE
 62
7
  6
CONTINUOUS
 10
134.8488350453
 20
111.9758662461
  0
VERTEX
  8
SURFACE
 62
7
  6
CONTINUOUS
 10
134.8773803325
 20
112.2807471313
  0
VERTEX
  8
SURFACE
 62
7
  6
CONTINUOUS
 10
134.9151908659
 20
112.5766814604
  0
VERTEX
  8
SURFACE
 62
7
  6
CONTINUOUS
 10
134.9625330742
 20
112.862632145
  0
VERTEX
  8
SURFACE
 62
7
  6
CONTINUOUS
 10
135.0195354911
 20
113.1374736698
  0
VERTEX
  8
SURFACE
 62
7
  6
CONTINUOUS
 10
135.0863020781
 20
113.4004893679
  0
VERTEX
  8
SURFACE
 62
7
  6
CONTINUOUS
 10
135.1628199087
 20
113.6507839295
  0
VERTEX
  8
SURFACE
 62
7
  6
CONTINUOUS
 10
135.2488112347
 20
113.8870048401
  0
VERTEX
  8
SURFACE
 62
7
  6
CONTINUOUS
 10
135.3439202215
 20
114.1080576288
  0
VERTEX
  8
SURFACE
 62
7
  6
CONTINUOUS
 10
135.4478645937
 20
114.3132407716
  0
VERTEX
  8
SURFACE
 62
7
  6
CONTINUOUS
 10
135.5535858199
 20
114.4913324166
  0
SEQEND
  0
LINE
  8
0
 62
7
  6
CONTINUOUS
 10
135.1954187177
 20
178.8637953535
 11
135.1852718905
 21
177.951177634
  0
LINE
  8
SURFACE
 62
7
  6
CONTINUOUS
 10
134.7651075981
 20
93.682257278
 11
134.7752544252
 21
94.5948749976
  0
LINE
  8
0
 62
7
  6
CONTINUOUS
 10
135.2069669938
 20
179.6776833722
 11
135.1954187177
 21
178.8637953535
  0
LINE
  8
SURFACE
 62
7
  6
CONTINUOUS
 10
134.753559322
 20
92.8683692594
 11
134.7651075981
 21
93.682257278
  0
LINE
  8
SURFACE
 62
7
  6
CONTINUOUS
 10
134.7456140554
 20
92.4226709708
 11
134.753559322
 21
92.8683692594
  0
LINE
  8
0
 62
7
  6
CONTINUOUS
 10
135.2180115103
 20
180.2748409552
 11
135.2069669938
 21
179.6776833722
  0
LINE
  8
0
 62
7
  6
CONTINUOUS
 10
134.8878940307
 20
148.7598675394
 11
134.8826987089
 21
148.5182373423
  0
LINE
  8
SURFACE
 62
7
  6
CONTINUOUS
 10
135.0726322851
 20
123.7861850921
 11
135.0778276069
 21
124.0278152893
  0
LINE
  8
0
 62
7
  6
CONTINUOUS
 10
135.2254630621
 20
180.5915875392
 11
135.2180115103
 21
180.2748409552
  0
LINE
  8
0
 62
7
  6
CONTINUOUS
 10
135.2309992522
 20
180.7862660686
 11
135.2254630621
 21
180.5915875392
  0
LINE
  8
0
 62
7
  6
CONTINUOUS
 10
135.2349168264
 20
180.9044510418
 11
135.2309992522
 21
180.7862660686
  0
LINE
  8
0
 62
7
  6
CONTINUOUS
 10
135.2387108591
 20
181.0043106814
 11
135.2349168264
 21
180.9044510418
  0
LINE
  8
0
 62
7
  6
CONTINUOUS
 10
135.2412247045
 20
181.0629703494
 11
135.2387108591
 21
181.0043106814
  0
LINE
  8
0
 62
7
  6
CONTINUOUS
 10
135.2437748414
 20
181.1167015421
 11
135.2412247045
 21
181.0629703494
  0
LINE
  8
0
 62
7
  6
CONTINUOUS
 10
135.2464052037
 20
181.1663954269
 11
135.2437748414
 21
181.1167015421
  0
POLYLINE
  8
0
 62
7
  6
CONTINUOUS
 66
1
 70
0
  0
VERTEX
  8
0
 62
7
  6
CONTINUOUS
 10
134.882698704
 20
148.5182374664
  0
VERTEX
  8
0
 62
7
  6
CONTINUOUS
 10
134.8619681919
 20
148.3097694808
  0
VERTEX
  8
0
 62
7
  6
CONTINUOUS
 10
134.8246866911
 20
148.096083659
  0
VERTEX
  8
0
 62
7
  6
CONTINUOUS
 10
134.7722037968
 20
147.888338727
  0
VERTEX
  8
0
 62
7
  6
CONTINUOUS
 10
134.7053421867
 20
147.6876271905
  0
VERTEX
  8
0
 62
7
  6
CONTINUOUS
 10
134.625045359
 20
147.4950374279
  0
VERTEX
  8
0
 62
7
  6
CONTINUOUS
 10
134.5323948823
 20
147.3116195101
  0
VERTEX
  8
0
 62
7
  6
CONTINUOUS
 10
134.4286112025
 20
147.1383385505
  0
VERTEX
  8
0
 62
7
  6
CONTINUOUS
 10
134.3150227143
 20
146.9760085003
  0
VERTEX
  8
0
 62
7
  6
CONTINUOUS
 10
134.1927367771
 20
146.8249216856
  0
VERTEX
  8
0
 62
7
  6
CONTINUOUS
 10
134.0625794048
 20
146.6850276621
  0
VERTEX
  8
0
 62
7
  6
CONTINUOUS
 10
133.9252477604
 20
146.5562366178
  0
VERTEX
  8
0
 62
7
  6
CONTINUOUS
 10
133.7814688577
 20
146.4385636559
  0
VERTEX
  8
0
 62
7
  6
CONTINUOUS
 10
133.6319389868
 20
146.3320306043
  0
VERTEX
  8
0
 62
7
  6
CONTINUOUS
 10
133.4772693382
 20
146.2366262082
  0
VERTEX
  8
0
 62
7
  6
CONTINUOUS
 10
133.3180831098
 20
146.1523727685
  0
VERTEX
  8
0
 62
7
  6
CONTINUOUS
 10
133.1549990157
 20
146.0792989341
  0
VERTEX
  8
0
 62
7
  6
CONTINUOUS
 10
132.9885749494
 20
146.0174125973
  0
VERTEX
  8
0
 62
7
  6
CONTINUOUS
 10
132.81935294
 20
145.9667273027
  0
VERTEX
  8
0
 62
7
  6
CONTINUOUS
 10
132.6479037442
 20
145.9272698112
  0
VERTEX
  8
0
 62
7
  6
CONTINUOUS
 10
132.4747723318
 20
145.899058708
  0
VERTEX
  8
0
 62
7
  6
CONTINUOUS
 10
132.3004860357
 20
145.8821105782
  0
VERTEX
  8
0
 62
7
  6
CONTINUOUS
 10
132.1256122313
 20
145.8764437151
  0
VERTEX
  8
0
 62
7
  6
CONTINUOUS
 10
131.9507360499
 20
145.8820656132
  0
VERTEX
  8
0
 62
7
  6
CONTINUOUS
 10
131.7764426526
 20
145.8989693041
  0
VERTEX
  8
0
 62
7
  6
CONTINUOUS
 10
131.6032999552
 20
145.9271369203
  0
VERTEX
  8
0
 62
7
  6
CONTINUOUS
 10
131.4318371244
 20
145.9665518284
  0
VERTEX
  8
0
 62
7
  6
CONTINUOUS
 10
131.2626010343
 20
146.0171948877
  0
VERTEX
  8
0
 62
7
  6
CONTINUOUS
 10
131.0961638253
 20
146.0790384456
  0
VERTEX
  8
0
 62
7
  6
CONTINUOUS
 10
130.9330665833
 20
146.1520687141
  0
VERTEX
  8
0
 62
7
  6
CONTINUOUS
 10
130.7738653202
 20
146.2362782996
  0
VERTEX
  8
0
 62
7
  6
CONTINUOUS
 10
130.6191771134
 20
146.3316394646
  0
VERTEX
  8
0
 62
7
  6
CONTINUOUS
 10
130.4696244366
 20
146.4381307073
  0
VERTEX
  8
0
 62
7
  6
CONTINUOUS
 10
130.3258192372
 20
146.5557630997
  0
VERTEX
  8
0
 62
7
  6
CONTINUOUS
 10
130.1884585569
 20
146.6845143463
  0
VERTEX
  8
0
 62
7
  6
CONTINUOUS
 10
130.0582695988
 20
146.824369101
  0
VERTEX
  8
0
 62
7
  6
CONTINUOUS
 10
129.9359489175
 20
146.9754177166
  0
VERTEX
  8
0
 62
7
  6
CONTINUOUS
 10
129.8223220184
 20
147.1377113629
  0
VERTEX
  8
0
 62
7
  6
CONTINUOUS
 10
129.7184965483
 20
147.3109576011
  0
VERTEX
  8
0
 62
7
  6
CONTINUOUS
 10
129.6258011566
 20
147.494342438
  0
VERTEX
  8
0
 62
7
  6
CONTINUOUS
 10
129.5454563817
 20
147.6869008573
  0
VERTEX
  8
0
 62
7
  6
CONTINUOUS
 10
129.4785438613
 20
147.8875827554
  0
VERTEX
  8
0
 62
7
  6
CONTINUOUS
 10
129.4260070956
 20
148.0952995081
  0
VERTEX
  8
0
 62
7
  6
CONTINUOUS
 10
129.3886684844
 20
148.308959367
  0
VERTEX
  8
0
 62
7
  6
CONTINUOUS
 10
129.3678275979
 20
148.5182375757
  0
SEQEND
  0
POLYLINE
  8
0
 62
7
  6
CONTINUOUS
 66
1
 70
0
  0
VERTEX
  8
0
 62
7
  6
CONTINUOUS
 10
118.8435852393
 20
158.0547211181
  0
VERTEX
  8
0
 62
7
  6
CONTINUOUS
 10
118.7373928089
 20
158.2336706774
  0
VERTEX
  8
0
 62
7
  6
CONTINUOUS
 10
118.6334960336
 20
158.4389036953
  0
VERTEX
  8
0
 62
7
  6
CONTINUOUS
 10
118.5384332326
 20
158.6600025828
  0
VERTEX
  8
0
 62
7
  6
CONTINUOUS
 10
118.4524869569
 20
158.8962660033
  0
VERTEX
  8
0
 62
7
  6
CONTINUOUS
 10
118.3760128668
 20
159.146600204
  0
VERTEX
  8
0
 62
7
  6
CONTINUOUS
 10
118.3092884705
 20
159.409653547
  0
VERTEX
  8
0
 62
7
  6
CONTINUOUS
 10
118.25232671
 20
159.6845310239
  0
VERTEX
  8
0
 62
7
  6
CONTINUOUS
 10
118.2050236114
 20
159.9705162896
  0
VERTEX
  8
0
 62
7
  6
CONTINUOUS
 10
118.167250487
 20
160.2664844947
  0
VERTEX
  8
0
 62
7
  6
CONTINUOUS
 10
118.138740819
 20
160.5713990229
  0
VERTEX
  8
0
 62
7
  6
CONTINUOUS
 10
118.119105952
 20
160.8844264943
  0
VERTEX
  8
0
 62
7
  6
CONTINUOUS
 10
118.1078674444
 20
161.2049476539
  0
VERTEX
  8
0
 62
7
  6
CONTINUOUS
 10
118.1044744507
 20
161.5166570521
  0
SEQEND
  0
LINE
  8
SURFACE
 62
7
  6
CONTINUOUS
 10
134.737982082
 20
92.0708064245
 11
134.7456140554
 21
92.4226709708
  0
LINE
  8
SURFACE
 62
7
  6
CONTINUOUS
 10
134.7322450897
 20
91.8512074627
 11
134.737982082
 21
92.0708064245
  0
LINE
  8
SURFACE
 62
7
  6
CONTINUOUS
 10
134.7268971503
 20
91.6787178208
 11
134.7322450897
 21
91.8512074627
  0
LINE
  8
SURFACE
 62
7
  6
CONTINUOUS
 10
134.723072468
 20
91.5732849693
 11
134.7268971503
 21
91.6787178208
  0
LINE
  8
SURFACE
 62
7
  6
CONTINUOUS
 10
134.7193016112
 20
91.4830822822
 11
134.723072468
 21
91.5732849693
  0
LINE
  8
SURFACE
 62
7
  6
CONTINUOUS
 10
134.7167514744
 20
91.4293510895
 11
134.7193016112
 21
91.4830822822
  0
LINE
  8
SURFACE
 62
7
  6
CONTINUOUS
 10
134.7141211121
 20
91.3796572047
 11
134.7167514744
 21
91.4293510895
  0
POLYLINE
  8
SURFACE
 62
7
  6
CONTINUOUS
 66
1
 70
0
  0
VERTEX
  8
SURFACE
 62
7
  6
CONTINUOUS
 10
135.0778276118
 20
124.0278151652
  0
VERTEX
  8
SURFACE
 62
7
  6
CONTINUOUS
 10
135.0985581239
 20
124.2362831508
  0
VERTEX
  8
SURFACE
 62
7
  6
CONTINUOUS
 10
135.1358396247
 20
124.4499689725
  0
VERTEX
  8
SURFACE
 62
7
  6
CONTINUOUS
 10
135.188322519
 20
124.6577139046
  0
VERTEX
  8
SURFACE
 62
7
  6
CONTINUOUS
 10
135.2551841291
 20
124.8584254411
  0
VERTEX
  8
SURFACE
 62
7
  6
CONTINUOUS
 10
135.3354809568
 20
125.0510152036
  0
VERTEX
  8
SURFACE
 62
7
  6
CONTINUOUS
 10
135.4281314334
 20
125.2344331215
  0
VERTEX
  8
SURFACE
 62
7
  6
CONTINUOUS
 10
135.5319151132
 20
125.4077140811
  0
VERTEX
  8
SURFACE
 62
7
  6
CONTINUOUS
 10
135.6455036015
 20
125.5700441313
  0
VERTEX
  8
SURFACE
 62
7
  6
CONTINUOUS
 10
135.7677895387
 20
125.721130946
  0
VERTEX
  8
SURFACE
 62
7
  6
CONTINUOUS
 10
135.897946911
 20
125.8610249694
  0
VERTEX
  8
SURFACE
 62
7
  6
CONTINUOUS
 10
136.0352785554
 20
125.9898160138
  0
VERTEX
  8
SURFACE
 62
7
  6
CONTINUOUS
 10
136.1790574581
 20
126.1074889757
  0
VERTEX
  8
SURFACE
 62
7
  6
CONTINUOUS
 10
136.328587329
 20
126.2140220273
  0
VERTEX
  8
SURFACE
 62
7
  6
CONTINUOUS
 10
136.4832569776
 20
126.3094264234
  0
VERTEX
  8
SURFACE
 62
7
  6
CONTINUOUS
 10
136.642443206
 20
126.3936798631
  0
VERTEX
  8
SURFACE
 62
7
  6
CONTINUOUS
 10
136.8055273001
 20
126.4667536974
  0
VERTEX
  8
SURFACE
 62
7
  6
CONTINUOUS
 10
136.9719513664
 20
126.5286400343
  0
VERTEX
  8
SURFACE
 62
7
  6
CONTINUOUS
 10
137.1411733758
 20
126.5793253288
  0
VERTEX
  8
SURFACE
 62
7
  6
CONTINUOUS
 10
137.3126225716
 20
126.6187828204
  0
VERTEX
  8
SURFACE
 62
7
  6
CONTINUOUS
 10
137.4857539839
 20
126.6469939236
  0
VERTEX
  8
SURFACE
 62
7
  6
CONTINUOUS
 10
137.6600402801
 20
126.6639420534
  0
VERTEX
  8
SURFACE
 62
7
  6
CONTINUOUS
 10
137.8349140845
 20
126.6696089165
  0
VERTEX
  8
SURFACE
 62
7
  6
CONTINUOUS
 10
138.0097902659
 20
126.6639870183
  0
VERTEX
  8
SURFACE
 62
7
  6
CONTINUOUS
 10
138.1840836632
 20
126.6470833275
  0
VERTEX
  8
SURFACE
 62
7
  6
CONTINUOUS
 10
138.3572263606
 20
126.6189157113
  0
VERTEX
  8
SURFACE
 62
7
  6
CONTINUOUS
 10
138.5286891914
 20
126.5795008032
  0
VERTEX
  8
SURFACE
 62
7
  6
CONTINUOUS
 10
138.6979252815
 20
126.5288577439
  0
VERTEX
  8
SURFACE
 62
7
  6
CONTINUOUS
 10
138.8643624905
 20
126.467014186
  0
VERTEX
  8
SURFACE
 62
7
  6
CONTINUOUS
 10
139.0274597325
 20
126.3939839175
  0
VERTEX
  8
SURFACE
 62
7
  6
CONTINUOUS
 10
139.1866609956
 20
126.309774332
  0
VERTEX
  8
SURFACE
 62
7
  6
CONTINUOUS
 10
139.3413492023
 20
126.214413167
  0
VERTEX
  8
SURFACE
 62
7
  6
CONTINUOUS
 10
139.4909018792
 20
126.1079219243
  0
VERTEX
  8
SURFACE
 62
7
  6
CONTINUOUS
 10
139.6347070785
 20
125.9902895319
  0
VERTEX
  8
SURFACE
 62
7
  6
CONTINUOUS
 10
139.7720677589
 20
125.8615382853
  0
VERTEX
  8
SURFACE
 62
7
  6
CONTINUOUS
 10
139.902256717
 20
125.7216835306
  0
VERTEX
  8
SURFACE
 62
7
  6
CONTINUOUS
 10
140.0245773983
 20
125.570634915
  0
VERTEX
  8
SURFACE
 62
7
  6
CONTINUOUS
 10
140.1382042974
 20
125.4083412687
  0
VERTEX
  8
SURFACE
 62
7
  6
CONTINUOUS
 10
140.2420297675
 20
125.2350950305
  0
VERTEX
  8
SURFACE
 62
7
  6
CONTINUOUS
 10
140.3347251592
 20
125.0517101936
  0
VERTEX
  8
SURFACE
 62
7
  6
CONTINUOUS
 10
140.4150699341
 20
124.8591517743
  0
VERTEX
  8
SURFACE
 62
7
  6
CONTINUOUS
 10
140.4819824545
 20
124.6584698762
  0
VERTEX
  8
SURFACE
 62
7
  6
CONTINUOUS
 10
140.5345192202
 20
124.4507531234
  0
VERTEX
  8
SURFACE
 62
7
  6
CONTINUOUS
 10
140.5718578314
 20
124.2370932646
  0
VERTEX
  8
SURFACE
 62
7
  6
CONTINUOUS
 10
140.5926987179
 20
124.0278150559
  0
SEQEND
  0
POLYLINE
  8
SURFACE
 62
7
  6
CONTINUOUS
 66
1
 70
0
  0
VERTEX
  8
SURFACE
 62
7
  6
CONTINUOUS
 10
151.1169410765
 20
114.4913315135
  0
VERTEX
  8
SURFACE
 62
7
  6
CONTINUOUS
 10
151.2231335068
 20
114.3123819542
  0
VERTEX
  8
SURFACE
 62
7
  6
CONTINUOUS
 10
151.3270302822
 20
114.1071489363
  0
VERTEX
  8
SURFACE
 62
7
  6
CONTINUOUS
 10
151.4220930832
 20
113.8860500488
  0
VERTEX
  8
SURFACE
 62
7
  6
CONTINUOUS
 10
151.5080393589
 20
113.6497866283
  0
VERTEX
  8
SURFACE
 62
7
  6
CONTINUOUS
 10
151.584513449
 20
113.3994524276
  0
VERTEX
  8
SURFACE
 62
7
  6
CONTINUOUS
 10
151.6512378453
 20
113.1363990846
  0
VERTEX
  8
SURFACE
 62
7
  6
CONTINUOUS
 10
151.7081996058
 20
112.8615216077
  0
VERTEX
  8
SURFACE
 62
7
  6
CONTINUOUS
 10
151.7555027044
 20
112.575536342
  0
VERTEX
  8
SURFACE
 62
7
  6
CONTINUOUS
 10
151.7932758288
 20
112.2795681369
  0
VERTEX
  8
SURFACE
 62
7
  6
CONTINUOUS
 10
151.8217854968
 20
111.9746536086
  0
VERTEX
  8
SURFACE
 62
7
  6
CONTINUOUS
 10
151.8414203637
 20
111.6616261373
  0
VERTEX
  8
SURFACE
 62
7
  6
CONTINUOUS
 10
151.8526588714
 20
111.3411049777
  0
VERTEX
  8
SURFACE
 62
7
  6
CONTINUOUS
 10
151.8560518651
 20
111.0293955795
  0
SEQEND
  0
POLYLINE
  8
SURFACE
 62
7
  6
CONTINUOUS
 66
1
 70
0
  0
VERTEX
  8
SURFACE
 62
7
  6
CONTINUOUS
 10
140.592698712
 20
124.0278151805
  0
VERTEX
  8
SURFACE
 62
7
  6
CONTINUOUS
 10
140.5979197382
 20
123.7874840661
  0
VERTEX
  8
SURFACE
 62
7
  6
CONTINUOUS
 10
140.5834392512
 20
123.5486513102
  0
VERTEX
  8
SURFACE
 62
7
  6
CONTINUOUS
 10
140.5523314352
 20
123.3274704321
  0
VERTEX
  8
SURFACE
 62
7
  6
CONTINUOUS
 10
140.5078591603
 20
123.1225743314
  0
VERTEX
  8
SURFACE
 62
7
  6
CONTINUOUS
 10
140.4525193986
 20
122.9325327848
  0
VERTEX
  8
SURFACE
 62
7
  6
CONTINUOUS
 10
140.3881944497
 20
122.7559356036
  0
VERTEX
  8
SURFACE
 62
7
  6
CONTINUOUS
 10
140.3163078457
 20
122.5915170802
  0
VERTEX
  8
SURFACE
 62
7
  6
CONTINUOUS
 10
140.2379481489
 20
122.4381900862
  0
VERTEX
  8
SURFACE
 62
7
  6
CONTINUOUS
 10
140.153908854
 20
122.2949574469
  0
VERTEX
  8
SURFACE
 62
7
  6
CONTINUOUS
 10
140.0647759242
 20
122.1609688736
  0
VERTEX
  8
SURFACE
 62
7
  6
CONTINUOUS
 10
139.971175763
 20
122.0357596526
  0
VERTEX
  8
SURFACE
 62
7
  6
CONTINUOUS
 10
139.8737090222
 20
121.9189968412
  0
VERTEX
  8
SURFACE
 62
7
  6
CONTINUOUS
 10
139.7729360773
 20
121.8104003398
  0
VERTEX
  8
SURFACE
 62
7
  6
CONTINUOUS
 10
139.6693777675
 20
121.7097139291
  0
VERTEX
  8
SURFACE
 62
7
  6
CONTINUOUS
 10
139.563504404
 20
121.6166848195
  0
VERTEX
  8
SURFACE
 62
7
  6
CONTINUOUS
 10
139.4558019357
 20
121.5311120521
  0
VERTEX
  8
SURFACE
 62
7
  6
CONTINUOUS
 10
139.3466952853
 20
121.4527647682
  0
VERTEX
  8
SURFACE
 62
7
  6
CONTINUOUS
 10
139.2361731924
 20
121.381161177
  0
VERTEX
  8
SURFACE
 62
7
  6
CONTINUOUS
 10
139.124017451
 20
121.3158228904
  0
VERTEX
  8
SURFACE
 62
7
  6
CONTINUOUS
 10
139.0099584415
 20
121.2563861835
  0
VERTEX
  8
SURFACE
 62
7
  6
CONTINUOUS
 10
138.8939190076
 20
121.2026984202
  0
VERTEX
  8
SURFACE
 62
7
  6
CONTINUOUS
 10
138.7760850945
 20
121.1547757382
  0
VERTEX
  8
SURFACE
 62
7
  6
CONTINUOUS
 10
138.6567278094
 20
121.1126671679
  0
VERTEX
  8
SURFACE
 62
7
  6
CONTINUOUS
 10
138.5362292559
 20
121.0764380541
  0
VERTEX
  8
SURFACE
 62
7
  6
CONTINUOUS
 10
138.4153861478
 20
121.0462104407
  0
VERTEX
  8
SURFACE
 62
7
  6
CONTINUOUS
 10
138.2953870468
 20
121.0220597768
  0
VERTEX
  8
SURFACE
 62
7
  6
CONTINUOUS
 10
138.1774886102
 20
121.003887332
  0
VERTEX
  8
SURFACE
 62
7
  6
CONTINUOUS
 10
138.0620153162
 20
120.9913298022
  0
VERTEX
  8
SURFACE
 62
7
  6
CONTINUOUS
 10
137.948313014
 20
120.9839695119
  0
VERTEX
  8
SURFACE
 62
7
  6
CONTINUOUS
 10
137.8355237802
 20
120.9815387764
  0
VERTEX
  8
SURFACE
 62
7
  6
CONTINUOUS
 10
137.7227433989
 20
120.9839467618
  0
VERTEX
  8
SURFACE
 62
7
  6
CONTINUOUS
 10
137.6090564565
 20
120.9912826805
  0
VERTEX
  8
SURFACE
 62
7
  6
CONTINUOUS
 10
137.4935900807
 20
121.0038149828
  0
VERTEX
  8
SURFACE
 62
7
  6
CONTINUOUS
 10
137.3756786504
 20
121.0219641934
  0
VERTEX
  8
SURFACE
 62
7
  6
CONTINUOUS
 10
137.2556573778
 20
121.046093924
  0
VERTEX
  8
SURFACE
 62
7
  6
CONTINUOUS
 10
137.1347919137
 20
121.0763019452
  0
VERTEX
  8
SURFACE
 62
7
  6
CONTINUOUS
 10
137.0142763052
 20
121.1125112126
  0
VERTEX
  8
SURFACE
 62
7
  6
CONTINUOUS
 10
136.8949062412
 20
121.1545993178
  0
VERTEX
  8
SURFACE
 62
7
  6
CONTINUOUS
 10
136.7770625353
 20
121.2025007403
  0
VERTEX
  8
SURFACE
 62
7
  6
CONTINUOUS
 10
136.6610155139
 20
121.2561662225
  0
VERTEX
  8
SURFACE
 62
7
  6
CONTINUOUS
 10
136.5469498157
 20
121.3155798081
  0
VERTEX
  8
SURFACE
 62
7
  6
CONTINUOUS
 10
136.4347850358
 20
121.3808957525
  0
VERTEX
  8
SURFACE
 62
7
  6
CONTINUOUS
 10
136.3242522878
 20
121.4524775026
  0
VERTEX
  8
SURFACE
 62
7
  6
CONTINUOUS
 10
136.2151348727
 20
121.5308021346
  0
VERTEX
  8
SURFACE
 62
7
  6
CONTINUOUS
 10
136.1074226762
 20
121.6163500828
  0
VERTEX
  8
SURFACE
 62
7
  6
CONTINUOUS
 10
136.0015414857
 20
121.7093509156
  0
VERTEX
  8
SURFACE
 62
7
  6
CONTINUOUS
 10
135.8979780365
 20
121.810003774
  0
VERTEX
  8
SURFACE
 62
7
  6
CONTINUOUS
 10
135.7972006988
 20
121.9185616435
  0
VERTEX
  8
SURFACE
 62
7
  6
CONTINUOUS
 10
135.6997289275
 20
122.0352811797
  0
VERTEX
  8
SURFACE
 62
7
  6
CONTINUOUS
 10
135.6061228635
 20
122.1604415576
  0
VERTEX
  8
SURFACE
 62
7
  6
CONTINUOUS
 10
135.5169828999
 20
122.2943737606
  0
VERTEX
  8
SURFACE
 62
7
  6
CONTINUOUS
 10
135.4329322458
 20
122.4375452234
  0
VERTEX
  8
SURFACE
 62
7
  6
CONTINUOUS
 10
135.3545559729
 20
122.5908057433
  0
VERTEX
  8
SURFACE
 62
7
  6
CONTINUOUS
 10
135.2826467283
 20
122.7551509439
  0
VERTEX
  8
SURFACE
 62
7
  6
CONTINUOUS
 10
135.2182916732
 20
122.9316658589
  0
VERTEX
  8
SURFACE
 62
7
  6
CONTINUOUS
 10
135.1629114241
 20
123.1216166446
  0
VERTEX
  8
SURFACE
 62
7
  6
CONTINUOUS
 10
135.1183855053
 20
123.3264114875
  0
VERTEX
  8
SURFACE
 62
7
  6
CONTINUOUS
 10
135.0872067662
 20
123.547478797
  0
VERTEX
  8
SURFACE
 62
7
  6
CONTINUOUS
 10
135.0726322851
 20
123.7861850921
  0
SEQEND
  0
POLYLINE
  8
SURFACE
 62
7
  6
CONTINUOUS
 66
1
 70
0
  0
VERTEX
  8
SURFACE
 62
7
  6
CONTINUOUS
 10
151.9593950277
 20
91.3296666818
  0
VERTEX
  8
SURFACE
 62
7
  6
CONTINUOUS
 10
151.9610046806
 20
91.3053614362
  0
VERTEX
  8
SURFACE
 62
7
  6
CONTINUOUS
 10
151.9626980744
 20
91.2815809202
  0
VERTEX
  8
SURFACE
 62
7
  6
CONTINUOUS
 10
151.9645088081
 20
91.2580075633
  0
VERTEX
  8
SURFACE
 62
7
  6
CONTINUOUS
 10
151.9664760109
 20
91.234350838
  0
VERTEX
  8
SURFACE
 62
7
  6
CONTINUOUS
 10
151.9686508928
 20
91.2102864
  0
VERTEX
  8
SURFACE
 62
7
  6
CONTINUOUS
 10
151.971103618
 20
91.1854223148
  0
VERTEX
  8
SURFACE
 62
7
  6
CONTINUOUS
 10
151.9739308737
 20
91.1592855887
  0
VERTEX
  8
SURFACE
 62
7
  6
CONTINUOUS
 10
151.9772657914
 20
91.1313132868
  0
VERTEX
  8
SURFACE
 62
7
  6
CONTINUOUS
 10
151.9812778603
 20
91.1009422669
  0
VERTEX
  8
SURFACE
 62
7
  6
CONTINUOUS
 10
151.9861776242
 20
91.0676393358
  0
VERTEX
  8
SURFACE
 62
7
  6
CONTINUOUS
 10
151.9922237705
 20
91.0309092211
  0
VERTEX
  8
SURFACE
 62
7
  6
CONTINUOUS
 10
151.9996539797
 20
90.9906916885
  0
VERTEX
  8
SURFACE
 62
7
  6
CONTINUOUS
 10
152.0086242937
 20
90.9474589511
  0
VERTEX
  8
SURFACE
 62
7
  6
CONTINUOUS
 10
152.0192133729
 20
90.9019224826
  0
VERTEX
  8
SURFACE
 62
7
  6
CONTINUOUS
 10
152.031880949
 20
90.8532039604
  0
VERTEX
  8
SURFACE
 62
7
  6
CONTINUOUS
 10
152.0475819566
 20
90.7992356852
  0
VERTEX
  8
SURFACE
 62
7
  6
CONTINUOUS
 10
152.0676302054
 20
90.7379041269
  0
VERTEX
  8
SURFACE
 62
7
  6
CONTINUOUS
 10
152.0929565312
 20
90.6692858583
  0
VERTEX
  8
SURFACE
 62
7
  6
CONTINUOUS
 10
152.1241216317
 20
90.5947150728
  0
VERTEX
  8
SURFACE
 62
7
  6
CONTINUOUS
 10
152.1615440071
 20
90.5156809666
  0
VERTEX
  8
SURFACE
 62
7
  6
CONTINUOUS
 10
152.2057171841
 20
90.433296776
  0
VERTEX
  8
SURFACE
 62
7
  6
CONTINUOUS
 10
152.2570244934
 20
90.3487374615
  0
VERTEX
  8
SURFACE
 62
7
  6
CONTINUOUS
 10
152.3157692303
 20
90.2631456625
  0
VERTEX
  8
SURFACE
 62
7
  6
CONTINUOUS
 10
152.3821741655
 20
90.1776290499
  0
VERTEX
  8
SURFACE
 62
7
  6
CONTINUOUS
 10
152.4563333878
 20
90.0933137372
  0
VERTEX
  8
SURFACE
 62
7
  6
CONTINUOUS
 10
152.5381967842
 20
90.0113313671
  0
VERTEX
  8
SURFACE
 62
7
  6
CONTINUOUS
 10
152.6280522341
 20
89.9323945024
  0
VERTEX
  8
SURFACE
 62
7
  6
CONTINUOUS
 10
152.7267022457
 20
89.8569099028
  0
VERTEX
  8
SURFACE
 62
7
  6
CONTINUOUS
 10
152.835028427
 20
89.7855254051
  0
VERTEX
  8
SURFACE
 62
7
  6
CONTINUOUS
 10
152.9538591859
 20
89.7192317174
  0
VERTEX
  8
SURFACE
 62
7
  6
CONTINUOUS
 10
153.0827321177
 20
89.6598616643
  0
VERTEX
  8
SURFACE
 62
7
  6
CONTINUOUS
 10
153.2198132769
 20
89.6095487919
  0
VERTEX
  8
SURFACE
 62
7
  6
CONTINUOUS
 10
153.3628623519
 20
89.5699582228
  0
VERTEX
  8
SURFACE
 62
7
  6
CONTINUOUS
 10
153.5093567728
 20
89.542181823
  0
VERTEX
  8
SURFACE
 62
7
  6
CONTINUOUS
 10
153.656602566
 20
89.5266845306
  0
VERTEX
  8
SURFACE
 62
7
  6
CONTINUOUS
 10
153.7713318514
 20
89.5230265297
  0
SEQEND
  0
LINE
  8
SURFACE
 62
7
  6
CONTINUOUS
 10
151.9563286109
 20
91.3810259539
 11
151.9593950277
 21
91.3296666818
  0
LINE
  8
SURFACE
 62
7
  6
CONTINUOUS
 10
151.9533556234
 20
91.4377982597
 11
151.9563286109
 21
91.3810259539
  0
LINE
  8
SURFACE
 62
7
  6
CONTINUOUS
 10
146.0726322851
 20
123.7861850921
 11
146.0778276069
 21
124.0278152893
  0
POLYLINE
  8
SURFACE
 62
7
  6
CONTINUOUS
 66
1
 70
0
  0
VERTEX
  8
SURFACE
 62
7
  6
CONTINUOUS
 10
146.0778276118
 20
124.0278151652
  0
VERTEX
  8
SURFACE
 62
7
  6
CONTINUOUS
 10
146.0985581239
 20
124.2362831508
  0
VERTEX
  8
SURFACE
 62
7
  6
CONTINUOUS
 10
146.1358396247
 20
124.4499689725
  0
VERTEX
  8
SURFACE
 62
7
  6
CONTINUOUS
 10
146.188322519
 20
124.6577139046
  0
VERTEX
  8
SURFACE
 62
7
  6
CONTINUOUS
 10
146.2551841291
 20
124.8584254411
  0
VERTEX
  8
SURFACE
 62
7
  6
CONTINUOUS
 10
146.3354809568
 20
125.0510152036
  0
VERTEX
  8
SURFACE
 62
7
  6
CONTINUOUS
 10
146.4281314334
 20
125.2344331215
  0
VERTEX
  8
SURFACE
 62
7
  6
CONTINUOUS
 10
146.5319151132
 20
125.4077140811
  0
VERTEX
  8
SURFACE
 62
7
  6
CONTINUOUS
 10
146.6455036015
 20
125.5700441313
  0
VERTEX
  8
SURFACE
 62
7
  6
CONTINUOUS
 10
146.7677895387
 20
125.721130946
  0
VERTEX
  8
SURFACE
 62
7
  6
CONTINUOUS
 10
146.897946911
 20
125.8610249694
  0
VERTEX
  8
SURFACE
 62
7
  6
CONTINUOUS
 10
147.0352785554
 20
125.9898160138
  0
VERTEX
  8
SURFACE
 62
7
  6
CONTINUOUS
 10
147.1790574581
 20
126.1074889757
  0
VERTEX
  8
SURFACE
 62
7
  6
CONTINUOUS
 10
147.328587329
 20
126.2140220273
  0
VERTEX
  8
SURFACE
 62
7
  6
CONTINUOUS
 10
147.4832569776
 20
126.3094264234
  0
VERTEX
  8
SURFACE
 62
7
  6
CONTINUOUS
 10
147.642443206
 20
126.3936798631
  0
VERTEX
  8
SURFACE
 62
7
  6
CONTINUOUS
 10
147.8055273001
 20
126.4667536974
  0
VERTEX
  8
SURFACE
 62
7
  6
CONTINUOUS
 10
147.9719513664
 20
126.5286400343
  0
VERTEX
  8
SURFACE
 62
7
  6
CONTINUOUS
 10
148.1411733758
 20
126.5793253288
  0
VERTEX
  8
SURFACE
 62
7
  6
CONTINUOUS
 10
148.3126225716
 20
126.6187828204
  0
VERTEX
  8
SURFACE
 62
7
  6
CONTINUOUS
 10
148.4857539839
 20
126.6469939236
  0
VERTEX
  8
SURFACE
 62
7
  6
CONTINUOUS
 10
148.6600402801
 20
126.6639420534
  0
VERTEX
  8
SURFACE
 62
7
  6
CONTINUOUS
 10
148.8349140844
 20
126.6696089165
  0
VERTEX
  8
SURFACE
 62
7
  6
CONTINUOUS
 10
149.0097902659
 20
126.6639870183
  0
VERTEX
  8
SURFACE
 62
7
  6
CONTINUOUS
 10
149.1840836632
 20
126.6470833275
  0
VERTEX
  8
SURFACE
 62
7
  6
CONTINUOUS
 10
149.3572263606
 20
126.6189157113
  0
VERTEX
  8
SURFACE
 62
7
  6
CONTINUOUS
 10
149.5286891914
 20
126.5795008032
  0
VERTEX
  8
SURFACE
 62
7
  6
CONTINUOUS
 10
149.6979252815
 20
126.5288577439
  0
VERTEX
  8
SURFACE
 62
7
  6
CONTINUOUS
 10
149.8643624905
 20
126.467014186
  0
VERTEX
  8
SURFACE
 62
7
  6
CONTINUOUS
 10
150.0274597325
 20
126.3939839175
  0
VERTEX
  8
SURFACE
 62
7
  6
CONTINUOUS
 10
150.1866609956
 20
126.309774332
  0
VERTEX
  8
SURFACE
 62
7
  6
CONTINUOUS
 10
150.3413492023
 20
126.214413167
  0
VERTEX
  8
SURFACE
 62
7
  6
CONTINUOUS
 10
150.4909018792
 20
126.1079219243
  0
VERTEX
  8
SURFACE
 62
7
  6
CONTINUOUS
 10
150.6347070785
 20
125.9902895319
  0
VERTEX
  8
SURFACE
 62
7
  6
CONTINUOUS
 10
150.7720677589
 20
125.8615382853
  0
VERTEX
  8
SURFACE
 62
7
  6
CONTINUOUS
 10
150.902256717
 20
125.7216835306
  0
VERTEX
  8
SURFACE
 62
7
  6
CONTINUOUS
 10
151.0245773983
 20
125.570634915
  0
VERTEX
  8
SURFACE
 62
7
  6
CONTINUOUS
 10
151.1382042974
 20
125.4083412687
  0
VERTEX
  8
SURFACE
 62
7
  6
CONTINUOUS
 10
151.2420297675
 20
125.2350950305
  0
VERTEX
  8
SURFACE
 62
7
  6
CONTINUOUS
 10
151.3347251592
 20
125.0517101936
  0
VERTEX
  8
SURFACE
 62
7
  6
CONTINUOUS
 10
151.4150699341
 20
124.8591517743
  0
VERTEX
  8
SURFACE
 62
7
  6
CONTINUOUS
 10
151.4819824545
 20
124.6584698762
  0
VERTEX
  8
SURFACE
 62
7
  6
CONTINUOUS
 10
151.5345192202
 20
124.4507531234
  0
VERTEX
  8
SURFACE
 62
7
  6
CONTINUOUS
 10
151.5718578314
 20
124.2370932646
  0
VERTEX
  8
SURFACE
 62
7
  6
CONTINUOUS
 10
151.5926987179
 20
124.0278150559
  0
SEQEND
  0
POLYLINE
  8
SURFACE
 62
7
  6
CONTINUOUS
 66
1
 70
0
  0
VERTEX
  8
SURFACE
 62
7
  6
CONTINUOUS
 10
135.5535857454
 20
114.4913324644
  0
VERTEX
  8
SURFACE
 62
7
  6
CONTINUOUS
 10
135.6051244581
 20
114.5693993817
  0
VERTEX
  8
SURFACE
 62
7
  6
CONTINUOUS
 10
135.6696301657
 20
114.6608054105
  0
VERTEX
  8
SURFACE
 62
7
  6
CONTINUOUS
 10
135.7356952247
 20
114.7471924209
  0
VERTEX
  8
SURFACE
 62
7
  6
CONTINUOUS
 10
135.8031375268
 20
114.8279155415
  0
VERTEX
  8
SURFACE
 62
7
  6
CONTINUOUS
 10
135.871547608
 20
114.9021957215
  0
VERTEX
  8
SURFACE
 62
7
  6
CONTINUOUS
 10
135.9403021425
 20
114.9692429171
  0
VERTEX
  8
SURFACE
 62
7
  6
CONTINUOUS
 10
136.008945513
 20
115.0286677677
  0
VERTEX
  8
SURFACE
 62
7
  6
CONTINUOUS
 10
136.0772668925
 20
115.0804273692
  0
VERTEX
  8
SURFACE
 62
7
  6
CONTINUOUS
 10
136.1450192983
 20
115.1245188901
  0
VERTEX
  8
SURFACE
 62
7
  6
CONTINUOUS
 10
136.2121753677
 20
115.161130163
  0
VERTEX
  8
SURFACE
 62
7
  6
CONTINUOUS
 10
136.2790190083
 20
115.1905784593
  0
VERTEX
  8
SURFACE
 62
7
  6
CONTINUOUS
 10
136.3458367706
 20
115.2130936089
  0
VERTEX
  8
SURFACE
 62
7
  6
CONTINUOUS
 10
136.4133668526
 20
115.2289386098
  0
VERTEX
  8
SURFACE
 62
7
  6
CONTINUOUS
 10
136.4825925953
 20
115.2381975821
  0
VERTEX
  8
SURFACE
 62
7
  6
CONTINUOUS
 10
136.5437222672
 20
115.2407482031
  0
SEQEND
  0
POLYLINE
  8
0
 62
7
  6
CONTINUOUS
 66
1
 70
0
  0
VERTEX
  8
0
 62
7
  6
CONTINUOUS
 10
151.4211312881
 20
181.2163859497
  0
VERTEX
  8
0
 62
7
  6
CONTINUOUS
 10
151.4195216352
 20
181.2406911954
  0
VERTEX
  8
0
 62
7
  6
CONTINUOUS
 10
151.4178282414
 20
181.2644717114
  0
VERTEX
  8
0
 62
7
  6
CONTINUOUS
 10
151.4160175077
 20
181.2880450683
  0
VERTEX
  8
0
 62
7
  6
CONTINUOUS
 10
151.4140503049
 20
181.3117017936
  0
VERTEX
  8
0
 62
7
  6
CONTINUOUS
 10
151.411875423
 20
181.3357662316
  0
VERTEX
  8
0
 62
7
  6
CONTINUOUS
 10
151.4094226978
 20
181.3606303168
  0
VERTEX
  8
0
 62
7
  6
CONTINUOUS
 10
151.4065954421
 20
181.3867670429
  0
VERTEX
  8
0
 62
7
  6
CONTINUOUS
 10
151.4032605244
 20
181.4147393447
  0
VERTEX
  8
0
 62
7
  6
CONTINUOUS
 10
151.3992484555
 20
181.4451103647
  0
VERTEX
  8
0
 62
7
  6
CONTINUOUS
 10
151.3943486916
 20
181.4784132958
  0
VERTEX
  8
0
 62
7
  6
CONTINUOUS
 10
151.3883025453
 20
181.5151434104
  0
VERTEX
  8
0
 62
7
  6
CONTINUOUS
 10
151.3808723361
 20
181.5553609431
  0
VERTEX
  8
0
 62
7
  6
CONTINUOUS
 10
151.371902022
 20
181.5985936805
  0
VERTEX
  8
0
 62
7
  6
CONTINUOUS
 10
151.3613129428
 20
181.6441301489
  0
VERTEX
  8
0
 62
7
  6
CONTINUOUS
 10
151.3486453668
 20
181.6928486712
  0
VERTEX
  8
0
 62
7
  6
CONTINUOUS
 10
151.3329443592
 20
181.7468169464
  0
VERTEX
  8
0
 62
7
  6
CONTINUOUS
 10
151.3128961103
 20
181.8081485047
  0
VERTEX
  8
0
 62
7
  6
CONTINUOUS
 10
151.2875697846
 20
181.8767667733
  0
VERTEX
  8
0
 62
7
  6
CONTINUOUS
 10
151.2564046841
 20
181.9513375588
  0
VERTEX
  8
0
 62
7
  6
CONTINUOUS
 10
151.2189823087
 20
182.030371665
  0
VERTEX
  8
0
 62
7
  6
CONTINUOUS
 10
151.1748091317
 20
182.1127558556
  0
VERTEX
  8
0
 62
7
  6
CONTINUOUS
 10
151.1235018223
 20
182.1973151701
  0
VERTEX
  8
0
 62
7
  6
CONTINUOUS
 10
151.0647570855
 20
182.282906969
  0
VERTEX
  8
0
 62
7
  6
CONTINUOUS
 10
150.9983521503
 20
182.3684235816
  0
VERTEX
  8
0
 62
7
  6
CONTINUOUS
 10
150.924192928
 20
182.4527388944
  0
VERTEX
  8
0
 62
7
  6
CONTINUOUS
 10
150.8423295316
 20
182.5347212645
  0
VERTEX
  8
0
 62
7
  6
CONTINUOUS
 10
150.7524740817
 20
182.6136581292
  0
VERTEX
  8
0
 62
7
  6
CONTINUOUS
 10
150.6538240701
 20
182.6891427287
  0
VERTEX
  8
0
 62
7
  6
CONTINUOUS
 10
150.5454978888
 20
182.7605272265
  0
VERTEX
  8
0
 62
7
  6
CONTINUOUS
 10
150.4266671298
 20
182.8268209142
  0
VERTEX
  8
0
 62
7
  6
CONTINUOUS
 10
150.2977941981
 20
182.8861909673
  0
VERTEX
  8
0
 62
7
  6
CONTINUOUS
 10
150.1607130389
 20
182.9365038397
  0
VERTEX
  8
0
 62
7
  6
CONTINUOUS
 10
150.0176639639
 20
182.9760944087
  0
VERTEX
  8
0
 62
7
  6
CONTINUOUS
 10
149.871169543
 20
183.0038708086
  0
VERTEX
  8
0
 62
7
  6
CONTINUOUS
 10
149.7239237497
 20
183.019368101
  0
VERTEX
  8
0
 62
7
  6
CONTINUOUS
 10
149.6091944643
 20
183.0230261019
  0
SEQEND
  0
LINE
  8
0
 62
7
  6
CONTINUOUS
 10
151.4241977049
 20
181.1650266776
 11
151.4211312881
 21
181.2163859497
  0
LINE
  8
0
 62
7
  6
CONTINUOUS
 10
151.4271706924
 20
181.1082543719
 11
151.4241977049
 21
181.1650266776
  0
LINE
  8
SURFACE
 62
7
  6
CONTINUOUS
 10
151.9504020565
 20
91.5016413745
 11
151.9533556234
 21
91.4377982597
  0
LINE
  8
0
 62
7
  6
CONTINUOUS
 10
151.4301242593
 20
181.0444112571
 11
151.4271706924
 21
181.1082543719
  0
LINE
  8
SURFACE
 62
7
  6
CONTINUOUS
 10
151.9474243783
 20
91.5740425538
 11
151.9504020565
 21
91.5016413745
  0
LINE
  8
0
 62
7
  6
CONTINUOUS
 10
151.4331019375
 20
180.9720100777
 11
151.4301242593
 21
181.0444112571
  0
LINE
  8
SURFACE
 62
7
  6
CONTINUOUS
 10
151.9427915522
 20
91.7037637753
 11
151.9474243783
 21
91.5740425538
  0
LINE
  8
0
 62
7
  6
CONTINUOUS
 10
151.4377347636
 20
180.8422888562
 11
151.4331019375
 21
180.9720100777
  0
LINE
  8
SURFACE
 62
7
  6
CONTINUOUS
 10
151.9378194981
 20
91.8675271841
 11
151.9427915522
 21
91.7037637753
  0
LINE
  8
0
 62
7
  6
CONTINUOUS
 10
151.4427068177
 20
180.6785254474
 11
151.4377347636
 21
180.8422888562
  0
LINE
  8
SURFACE
 62
7
  6
CONTINUOUS
 10
151.9308226222
 20
92.1440431103
 11
151.9378194981
 21
91.8675271841
  0
LINE
  8
0
 62
7
  6
CONTINUOUS
 10
151.4497036936
 20
180.4020095213
 11
151.4427068177
 21
180.6785254474
  0
POLYLINE
  8
SURFACE
 62
7
  6
CONTINUOUS
 66
1
 70
0
  0
VERTEX
  8
SURFACE
 62
7
  6
CONTINUOUS
 10
151.592698712
 20
124.0278151805
  0
VERTEX
  8
SURFACE
 62
7
  6
CONTINUOUS
 10
151.5979197382
 20
123.7874840661
  0
VERTEX
  8
SURFACE
 62
7
  6
CONTINUOUS
 10
151.5834392512
 20
123.5486513102
  0
VERTEX
  8
SURFACE
 62
7
  6
CONTINUOUS
 10
151.5523314352
 20
123.3274704321
  0
VERTEX
  8
SURFACE
 62
7
  6
CONTINUOUS
 10
151.5078591603
 20
123.1225743314
  0
VERTEX
  8
SURFACE
 62
7
  6
CONTINUOUS
 10
151.4525193986
 20
122.9325327848
  0
VERTEX
  8
SURFACE
 62
7
  6
CONTINUOUS
 10
151.3881944497
 20
122.7559356036
  0
VERTEX
  8
SURFACE
 62
7
  6
CONTINUOUS
 10
151.3163078457
 20
122.5915170802
  0
VERTEX
  8
SURFACE
 62
7
  6
CONTINUOUS
 10
151.2379481489
 20
122.4381900862
  0
VERTEX
  8
SURFACE
 62
7
  6
CONTINUOUS
 10
151.153908854
 20
122.2949574469
  0
VERTEX
  8
SURFACE
 62
7
  6
CONTINUOUS
 10
151.0647759242
 20
122.1609688736
  0
VERTEX
  8
SURFACE
 62
7
  6
CONTINUOUS
 10
150.971175763
 20
122.0357596526
  0
VERTEX
  8
SURFACE
 62
7
  6
CONTINUOUS
 10
150.8737090222
 20
121.9189968412
  0
VERTEX
  8
SURFACE
 62
7
  6
CONTINUOUS
 10
150.7729360773
 20
121.8104003398
  0
VERTEX
  8
SURFACE
 62
7
  6
CONTINUOUS
 10
150.6693777675
 20
121.7097139291
  0
VERTEX
  8
SURFACE
 62
7
  6
CONTINUOUS
 10
150.563504404
 20
121.6166848195
  0
VERTEX
  8
SURFACE
 62
7
  6
CONTINUOUS
 10
150.4558019357
 20
121.5311120521
  0
VERTEX
  8
SURFACE
 62
7
  6
CONTINUOUS
 10
150.3466952853
 20
121.4527647682
  0
VERTEX
  8
SURFACE
 62
7
  6
CONTINUOUS
 10
150.2361731924
 20
121.381161177
  0
VERTEX
  8
SURFACE
 62
7
  6
CONTINUOUS
 10
150.124017451
 20
121.3158228904
  0
VERTEX
  8
SURFACE
 62
7
  6
CONTINUOUS
 10
150.0099584415
 20
121.2563861835
  0
VERTEX
  8
SURFACE
 62
7
  6
CONTINUOUS
 10
149.8939190076
 20
121.2026984202
  0
VERTEX
  8
SURFACE
 62
7
  6
CONTINUOUS
 10
149.7760850945
 20
121.1547757382
  0
VERTEX
  8
SURFACE
 62
7
  6
CONTINUOUS
 10
149.6567278094
 20
121.1126671679
  0
VERTEX
  8
SURFACE
 62
7
  6
CONTINUOUS
 10
149.5362292559
 20
121.0764380541
  0
VERTEX
  8
SURFACE
 62
7
  6
CONTINUOUS
 10
149.4153861478
 20
121.0462104407
  0
VERTEX
  8
SURFACE
 62
7
  6
CONTINUOUS
 10
149.2953870468
 20
121.0220597768
  0
VERTEX
  8
SURFACE
 62
7
  6
CONTINUOUS
 10
149.1774886102
 20
121.003887332
  0
VERTEX
  8
SURFACE
 62
7
  6
CONTINUOUS
 10
149.0620153162
 20
120.9913298022
  0
VERTEX
  8
SURFACE
 62
7
  6
CONTINUOUS
 10
148.948313014
 20
120.9839695119
  0
VERTEX
  8
SURFACE
 62
7
  6
CONTINUOUS
 10
148.8355237802
 20
120.9815387764
  0
VERTEX
  8
SURFACE
 62
7
  6
CONTINUOUS
 10
148.7227433989
 20
120.9839467618
  0
VERTEX
  8
SURFACE
 62
7
  6
CONTINUOUS
 10
148.6090564565
 20
120.9912826805
  0
VERTEX
  8
SURFACE
 62
7
  6
CONTINUOUS
 10
148.4935900807
 20
121.0038149828
  0
VERTEX
  8
SURFACE
 62
7
  6
CONTINUOUS
 10
148.3756786504
 20
121.0219641934
  0
VERTEX
  8
SURFACE
 62
7
  6
CONTINUOUS
 10
148.2556573778
 20
121.046093924
  0
VERTEX
  8
SURFACE
 62
7
  6
CONTINUOUS
 10
148.1347919137
 20
121.0763019452
  0
VERTEX
  8
SURFACE
 62
7
  6
CONTINUOUS
 10
148.0142763052
 20
121.1125112126
  0
VERTEX
  8
SURFACE
 62
7
  6
CONTINUOUS
 10
147.8949062412
 20
121.1545993178
  0
VERTEX
  8
SURFACE
 62
7
  6
CONTINUOUS
 10
147.7770625353
 20
121.2025007403
  0
VERTEX
  8
SURFACE
 62
7
  6
CONTINUOUS
 10
147.6610155139
 20
121.2561662225
  0
VERTEX
  8
SURFACE
 62
7
  6
CONTINUOUS
 10
147.5469498157
 20
121.3155798081
  0
VERTEX
  8
SURFACE
 62
7
  6
CONTINUOUS
 10
147.4347850358
 20
121.3808957525
  0
VERTEX
  8
SURFACE
 62
7
  6
CONTINUOUS
 10
147.3242522878
 20
121.4524775026
  0
VERTEX
  8
SURFACE
 62
7
  6
CONTINUOUS
 10
147.2151348727
 20
121.5308021346
  0
VERTEX
  8
SURFACE
 62
7
  6
CONTINUOUS
 10
147.1074226762
 20
121.6163500828
  0
VERTEX
  8
SURFACE
 62
7
  6
CONTINUOUS
 10
147.0015414857
 20
121.7093509156
  0
VERTEX
  8
SURFACE
 62
7
  6
CONTINUOUS
 10
146.8979780365
 20
121.810003774
  0
VERTEX
  8
SURFACE
 62
7
  6
CONTINUOUS
 10
146.7972006988
 20
121.9185616435
  0
VERTEX
  8
SURFACE
 62
7
  6
CONTINUOUS
 10
146.6997289275
 20
122.0352811797
  0
VERTEX
  8
SURFACE
 62
7
  6
CONTINUOUS
 10
146.6061228635
 20
122.1604415576
  0
VERTEX
  8
SURFACE
 62
7
  6
CONTINUOUS
 10
146.5169828999
 20
122.2943737606
  0
VERTEX
  8
SURFACE
 62
7
  6
CONTINUOUS
 10
146.4329322458
 20
122.4375452234
  0
VERTEX
  8
SURFACE
 62
7
  6
CONTINUOUS
 10
146.3545559729
 20
122.5908057433
  0
VERTEX
  8
SURFACE
 62
7
  6
CONTINUOUS
 10
146.2826467283
 20
122.7551509439
  0
VERTEX
  8
SURFACE
 62
7
  6
CONTINUOUS
 10
146.2182916732
 20
122.9316658589
  0
VERTEX
  8
SURFACE
 62
7
  6
CONTINUOUS
 10
146.1629114241
 20
123.1216166446
  0
VERTEX
  8
SURFACE
 62
7
  6
CONTINUOUS
 10
146.1183855053
 20
123.3264114875
  0
VERTEX
  8
SURFACE
 62
7
  6
CONTINUOUS
 10
146.0872067662
 20
123.547478797
  0
VERTEX
  8
SURFACE
 62
7
  6
CONTINUOUS
 10
146.0726322851
 20
123.7861850921
  0
SEQEND
  0
POLYLINE
  8
0
 62
7
  6
CONTINUOUS
 66
1
 70
0
  0
VERTEX
  8
0
 62
7
  6
CONTINUOUS
 10
151.7878276038
 20
148.5182374511
  0
VERTEX
  8
0
 62
7
  6
CONTINUOUS
 10
151.7826065776
 20
148.7585685654
  0
VERTEX
  8
0
 62
7
  6
CONTINUOUS
 10
151.7970870646
 20
148.9974013214
  0
VERTEX
  8
0
 62
7
  6
CONTINUOUS
 10
151.8281948806
 20
149.2185821995
  0
VERTEX
  8
0
 62
7
  6
CONTINUOUS
 10
151.8726671555
 20
149.4234783001
  0
VERTEX
  8
0
 62
7
  6
CONTINUOUS
 10
151.9280069172
 20
149.6135198468
  0
VERTEX
  8
0
 62
7
  6
CONTINUOUS
 10
151.9923318661
 20
149.7901170279
  0
VERTEX
  8
0
 62
7
  6
CONTINUOUS
 10
152.0642184701
 20
149.9545355514
  0
VERTEX
  8
0
 62
7
  6
CONTINUOUS
 10
152.1425781669
 20
150.1078625454
  0
VERTEX
  8
0
 62
7
  6
CONTINUOUS
 10
152.2266174618
 20
150.2510951847
  0
VERTEX
  8
0
 62
7
  6
CONTINUOUS
 10
152.3157503916
 20
150.385083758
  0
VERTEX
  8
0
 62
7
  6
CONTINUOUS
 10
152.4093505528
 20
150.5102929789
  0
VERTEX
  8
0
 62
7
  6
CONTINUOUS
 10
152.5068172936
 20
150.6270557904
  0
VERTEX
  8
0
 62
7
  6
CONTINUOUS
 10
152.6075902385
 20
150.7356522918
  0
VERTEX
  8
0
 62
7
  6
CONTINUOUS
 10
152.7111485483
 20
150.8363387025
  0
VERTEX
  8
0
 62
7
  6
CONTINUOUS
 10
152.8170219118
 20
150.9293678121
  0
VERTEX
  8
0
 62
7
  6
CONTINUOUS
 10
152.9247243801
 20
151.0149405795
  0
VERTEX
  8
0
 62
7
  6
CONTINUOUS
 10
153.0338310305
 20
151.0932878633
  0
VERTEX
  8
0
 62
7
  6
CONTINUOUS
 10
153.1443531234
 20
151.1648914546
  0
VERTEX
  8
0
 62
7
  6
CONTINUOUS
 10
153.2565088648
 20
151.2302297412
  0
VERTEX
  8
0
 62
7
  6
CONTINUOUS
 10
153.3705678742
 20
151.2896664481
  0
VERTEX
  8
0
 62
7
  6
CONTINUOUS
 10
153.4866073082
 20
151.3433542114
  0
VERTEX
  8
0
 62
7
  6
CONTINUOUS
 10
153.6044412213
 20
151.3912768934
  0
VERTEX
  8
0
 62
7
  6
CONTINUOUS
 10
153.7237985064
 20
151.4333854636
  0
VERTEX
  8
0
 62
7
  6
CONTINUOUS
 10
153.8442970599
 20
151.4696145774
  0
VERTEX
  8
0
 62
7
  6
CONTINUOUS
 10
153.965140168
 20
151.4998421909
  0
VERTEX
  8
0
 62
7
  6
CONTINUOUS
 10
154.0851392689
 20
151.5239928547
  0
VERTEX
  8
0
 62
7
  6
CONTINUOUS
 10
154.2030377056
 20
151.5421652996
  0
VERTEX
  8
0
 62
7
  6
CONTINUOUS
 10
154.3185109996
 20
151.5547228294
  0
VERTEX
  8
0
 62
7
  6
CONTINUOUS
 10
154.4322133018
 20
151.5620831197
  0
VERTEX
  8
0
 62
7
  6
CONTINUOUS
 10
154.5450025356
 20
151.5645138551
  0
VERTEX
  8
0
 62
7
  6
CONTINUOUS
 10
154.6577829169
 20
151.5621058698
  0
VERTEX
  8
0
 62
7
  6
CONTINUOUS
 10
154.7714698593
 20
151.5547699511
  0
VERTEX
  8
0
 62
7
  6
CONTINUOUS
 10
154.8869362351
 20
151.5422376487
  0
VERTEX
  8
0
 62
7
  6
CONTINUOUS
 10
155.0048476654
 20
151.5240884382
  0
VERTEX
  8
0
 62
7
  6
CONTINUOUS
 10
155.124868938
 20
151.4999587076
  0
VERTEX
  8
0
 62
7
  6
CONTINUOUS
 10
155.2457344021
 20
151.4697506864
  0
VERTEX
  8
0
 62
7
  6
CONTINUOUS
 10
155.3662500106
 20
151.433541419
  0
VERTEX
  8
0
 62
7
  6
CONTINUOUS
 10
155.4856200746
 20
151.3914533138
  0
VERTEX
  8
0
 62
7
  6
CONTINUOUS
 10
155.6034637805
 20
151.3435518913
  0
VERTEX
  8
0
 62
7
  6
CONTINUOUS
 10
155.7195108019
 20
151.2898864091
  0
VERTEX
  8
0
 62
7
  6
CONTINUOUS
 10
155.8335765001
 20
151.2304728235
  0
VERTEX
  8
0
 62
7
  6
CONTINUOUS
 10
155.94574128
 20
151.1651568791
  0
VERTEX
  8
0
 62
7
  6
CONTINUOUS
 10
156.056274028
 20
151.093575129
  0
VERTEX
  8
0
 62
7
  6
CONTINUOUS
 10
156.1653914431
 20
151.015250497
  0
VERTEX
  8
0
 62
7
  6
CONTINUOUS
 10
156.2731036396
 20
150.9297025488
  0
VERTEX
  8
0
 62
7
  6
CONTINUOUS
 10
156.3789848301
 20
150.8367017159
  0
VERTEX
  8
0
 62
7
  6
CONTINUOUS
 10
156.4825482793
 20
150.7360488576
  0
VERTEX
  8
0
 62
7
  6
CONTINUOUS
 10
156.583325617
 20
150.6274909881
  0
VERTEX
  8
0
 62
7
  6
CONTINUOUS
 10
156.6807973883
 20
150.5107714519
  0
VERTEX
  8
0
 62
7
  6
CONTINUOUS
 10
156.7744034523
 20
150.385611074
  0
VERTEX
  8
0
 62
7
  6
CONTINUOUS
 10
156.8635434159
 20
150.251678871
  0
VERTEX
  8
0
 62
7
  6
CONTINUOUS
 10
156.94759407
 20
150.1085074082
  0
VERTEX
  8
0
 62
7
  6
CONTINUOUS
 10
157.0259703429
 20
149.9552468882
  0
VERTEX
  8
0
 62
7
  6
CONTINUOUS
 10
157.0978795875
 20
149.7909016877
  0
VERTEX
  8
0
 62
7
  6
CONTINUOUS
 10
157.1622346426
 20
149.6143867727
  0
VERTEX
  8
0
 62
7
  6
CONTINUOUS
 10
157.2176148917
 20
149.424435987
  0
VERTEX
  8
0
 62
7
  6
CONTINUOUS
 10
157.2621408105
 20
149.2196411441
  0
VERTEX
  8
0
 62
7
  6
CONTINUOUS
 10
157.2933195496
 20
148.9985738346
  0
VERTEX
  8
0
 62
7
  6
CONTINUOUS
 10
157.3078940307
 20
148.7598675394
  0
SEQEND
  0
LINE
  8
SURFACE
 62
7
  6
CONTINUOUS
 10
151.9235545503
 20
92.492859544
 11
151.9308226222
 21
92.1440431103
  0
LINE
  8
0
 62
7
  6
CONTINUOUS
 10
151.4569717655
 20
180.0531930876
 11
151.4497036936
 21
180.4020095213
  0
LINE
  8
SURFACE
 62
7
  6
CONTINUOUS
 10
151.9161176737
 20
92.9211913635
 11
151.9235545503
 21
92.492859544
  0
LINE
  8
0
 62
7
  6
CONTINUOUS
 10
151.4644086421
 20
179.624861268
 11
151.4569717655
 21
180.0531930876
  0
LINE
  8
SURFACE
 62
7
  6
CONTINUOUS
 10
151.9085638674
 20
93.4391472164
 11
151.9161176737
 21
92.9211913635
  0
LINE
  8
0
 62
7
  6
CONTINUOUS
 10
151.4719624484
 20
179.1069054152
 11
151.4644086421
 21
179.624861268
  0
LINE
  8
SURFACE
 62
7
  6
CONTINUOUS
 10
151.9008975367
 20
94.0631714763
 11
151.9085638674
 21
93.4391472164
  0
LINE
  8
0
 62
7
  6
CONTINUOUS
 10
151.4796287791
 20
178.4828811553
 11
151.4719624484
 21
179.1069054152
  0
LINE
  8
SURFACE
 62
7
  6
CONTINUOUS
 10
151.893175578
 20
94.8113132573
 11
151.9008975367
 21
94.0631714763
  0
LINE
  8
0
 62
7
  6
CONTINUOUS
 10
151.4873507378
 20
177.7347393743
 11
151.4796287791
 21
178.4828811553
  0
LINE
  8
SURFACE
 62
7
  6
CONTINUOUS
 10
151.8855148643
 20
95.7022129396
 11
151.893175578
 21
94.8113132573
  0
LINE
  8
0
 62
7
  6
CONTINUOUS
 10
151.4950114515
 20
176.843839692
 11
151.4873507378
 21
177.7347393743
  0
LINE
  8
SURFACE
 62
7
  6
CONTINUOUS
 10
151.8780004223
 20
96.7692779132
 11
151.8855148643
 21
95.7022129396
  0
LINE
  8
0
 62
7
  6
CONTINUOUS
 10
151.5025258935
 20
175.7767747184
 11
151.4950114515
 21
176.843839692
  0
LINE
  8
SURFACE
 62
7
  6
CONTINUOUS
 10
151.8725062258
 20
97.7219646806
 11
151.8780004223
 21
96.7692779132
  0
LINE
  8
0
 62
7
  6
CONTINUOUS
 10
151.50802009
 20
174.824087951
 11
151.5025258935
 21
175.7767747184
  0
LINE
  8
0
 62
7
  6
CONTINUOUS
 10
151.5133547109
 20
173.6829765719
 11
151.50802009
 21
174.824087951
  0
LINE
  8
SURFACE
 62
7
  6
CONTINUOUS
 10
151.8671716048
 20
98.8630760597
 11
151.8725062258
 21
97.7219646806
  0
LINE
  8
0
 62
7
  6
CONTINUOUS
 10
151.5166956708
 20
172.7927565411
 11
151.5133547109
 21
173.6829765719
  0
LINE
  8
SURFACE
 62
7
  6
CONTINUOUS
 10
151.8638306449
 20
99.7532960905
 11
151.8671716048
 21
98.8630760597
  0
LINE
  8
0
 62
7
  6
CONTINUOUS
 10
151.5197056766
 20
171.7826929019
 11
151.5166956708
 21
172.7927565411
  0
LINE
  8
SURFACE
 62
7
  6
CONTINUOUS
 10
151.8608206392
 20
100.7633597297
 11
151.8638306449
 21
99.7532960905
  0
LINE
  8
0
 62
7
  6
CONTINUOUS
 10
151.5222112458
 20
170.6273893469
 11
151.5197056766
 21
171.7826929019
  0
LINE
  8
SURFACE
 62
7
  6
CONTINUOUS
 10
151.85831507
 20
101.9186632846
 11
151.8608206392
 21
100.7633597297
  0
LINE
  8
0
 62
7
  6
CONTINUOUS
 10
151.5239148387
 20
169.3229334621
 11
151.5222112458
 21
170.6273893469
  0
LINE
  8
SURFACE
 62
7
  6
CONTINUOUS
 10
151.8566114771
 20
103.2231191695
 11
151.85831507
 21
101.9186632846
  0
LINE
  8
0
 62
7
  6
CONTINUOUS
 10
151.5244745151
 20
168.0230263158
 11
151.5239148387
 21
169.3229334621
  0
LINE
  8
SURFACE
 62
7
  6
CONTINUOUS
 10
151.8560518007
 20
104.5230263158
 11
151.8566114771
 21
103.2231191695
  0
LINE
  8
0
 62
7
  6
CONTINUOUS
 10
151.5244745152
 20
168.0230263158
 11
151.5244745152
 21
161.516657052
  0
LINE
  8
SURFACE
 62
7
  6
CONTINUOUS
 10
151.8560518006
 20
104.5230263158
 11
151.8560518006
 21
111.0293955795
  0
LINE
  8
0
 62
7
  6
CONTINUOUS
 10
157.3078940307
 20
148.7598675394
 11
157.3026987089
 21
148.5182373423
  0
POLYLINE
  8
0
 62
7
  6
CONTINUOUS
 66
1
 70
0
  0
VERTEX
  8
0
 62
7
  6
CONTINUOUS
 10
157.302698704
 20
148.5182374664
  0
VERTEX
  8
0
 62
7
  6
CONTINUOUS
 10
157.2819681919
 20
148.3097694808
  0
VERTEX
  8
0
 62
7
  6
CONTINUOUS
 10
157.2446866911
 20
148.096083659
  0
VERTEX
  8
0
 62
7
  6
CONTINUOUS
 10
157.1922037968
 20
147.888338727
  0
VERTEX
  8
0
 62
7
  6
CONTINUOUS
 10
157.1253421867
 20
147.6876271905
  0
VERTEX
  8
0
 62
7
  6
CONTINUOUS
 10
157.045045359
 20
147.4950374279
  0
VERTEX
  8
0
 62
7
  6
CONTINUOUS
 10
156.9523948823
 20
147.3116195101
  0
VERTEX
  8
0
 62
7
  6
CONTINUOUS
 10
156.8486112025
 20
147.1383385505
  0
VERTEX
  8
0
 62
7
  6
CONTINUOUS
 10
156.7350227143
 20
146.9760085003
  0
VERTEX
  8
0
 62
7
  6
CONTINUOUS
 10
156.6127367771
 20
146.8249216856
  0
VERTEX
  8
0
 62
7
  6
CONTINUOUS
 10
156.4825794048
 20
146.6850276621
  0
VERTEX
  8
0
 62
7
  6
CONTINUOUS
 10
156.3452477604
 20
146.5562366178
  0
VERTEX
  8
0
 62
7
  6
CONTINUOUS
 10
156.2014688577
 20
146.4385636559
  0
VERTEX
  8
0
 62
7
  6
CONTINUOUS
 10
156.0519389868
 20
146.3320306043
  0
VERTEX
  8
0
 62
7
  6
CONTINUOUS
 10
155.8972693382
 20
146.2366262082
  0
VERTEX
  8
0
 62
7
  6
CONTINUOUS
 10
155.7380831098
 20
146.1523727685
  0
VERTEX
  8
0
 62
7
  6
CONTINUOUS
 10
155.5749990157
 20
146.0792989341
  0
VERTEX
  8
0
 62
7
  6
CONTINUOUS
 10
155.4085749494
 20
146.0174125973
  0
VERTEX
  8
0
 62
7
  6
CONTINUOUS
 10
155.23935294
 20
145.9667273027
  0
VERTEX
  8
0
 62
7
  6
CONTINUOUS
 10
155.0679037442
 20
145.9272698112
  0
VERTEX
  8
0
 62
7
  6
CONTINUOUS
 10
154.8947723318
 20
145.899058708
  0
VERTEX
  8
0
 62
7
  6
CONTINUOUS
 10
154.7204860357
 20
145.8821105782
  0
VERTEX
  8
0
 62
7
  6
CONTINUOUS
 10
154.5456122313
 20
145.8764437151
  0
VERTEX
  8
0
 62
7
  6
CONTINUOUS
 10
154.3707360499
 20
145.8820656132
  0
VERTEX
  8
0
 62
7
  6
CONTINUOUS
 10
154.1964426526
 20
145.8989693041
  0
VERTEX
  8
0
 62
7
  6
CONTINUOUS
 10
154.0232999552
 20
145.9271369203
  0
VERTEX
  8
0
 62
7
  6
CONTINUOUS
 10
153.8518371244
 20
145.9665518284
  0
VERTEX
  8
0
 62
7
  6
CONTINUOUS
 10
153.6826010343
 20
146.0171948877
  0
VERTEX
  8
0
 62
7
  6
CONTINUOUS
 10
153.5161638253
 20
146.0790384456
  0
VERTEX
  8
0
 62
7
  6
CONTINUOUS
 10
153.3530665833
 20
146.1520687141
  0
VERTEX
  8
0
 62
7
  6
CONTINUOUS
 10
153.1938653202
 20
146.2362782996
  0
VERTEX
  8
0
 62
7
  6
CONTINUOUS
 10
153.0391771134
 20
146.3316394646
  0
VERTEX
  8
0
 62
7
  6
CONTINUOUS
 10
152.8896244366
 20
146.4381307073
  0
VERTEX
  8
0
 62
7
  6
CONTINUOUS
 10
152.7458192372
 20
146.5557630997
  0
VERTEX
  8
0
 62
7
  6
CONTINUOUS
 10
152.6084585569
 20
146.6845143463
  0
VERTEX
  8
0
 62
7
  6
CONTINUOUS
 10
152.4782695988
 20
146.824369101
  0
VERTEX
  8
0
 62
7
  6
CONTINUOUS
 10
152.3559489175
 20
146.9754177166
  0
VERTEX
  8
0
 62
7
  6
CONTINUOUS
 10
152.2423220184
 20
147.1377113629
  0
VERTEX
  8
0
 62
7
  6
CONTINUOUS
 10
152.1384965483
 20
147.3109576011
  0
VERTEX
  8
0
 62
7
  6
CONTINUOUS
 10
152.0458011566
 20
147.494342438
  0
VERTEX
  8
0
 62
7
  6
CONTINUOUS
 10
151.9654563817
 20
147.6869008573
  0
VERTEX
  8
0
 62
7
  6
CONTINUOUS
 10
151.8985438613
 20
147.8875827554
  0
VERTEX
  8
0
 62
7
  6
CONTINUOUS
 10
151.8460070956
 20
148.0952995081
  0
VERTEX
  8
0
 62
7
  6
CONTINUOUS
 10
151.8086684844
 20
148.308959367
  0
VERTEX
  8
0
 62
7
  6
CONTINUOUS
 10
151.7878275979
 20
148.5182375757
  0
SEQEND
  0
POLYLINE
  8
0
 62
7
  6
CONTINUOUS
 66
1
 70
0
  0
VERTEX
  8
0
 62
7
  6
CONTINUOUS
 10
168.0955056994
 20
158.3935763869
  0
VERTEX
  8
0
 62
7
  6
CONTINUOUS
 10
168.058765185
 20
158.318518122
  0
VERTEX
  8
0
 62
7
  6
CONTINUOUS
 10
168.0112796676
 20
158.2246478042
  0
VERTEX
  8
0
 62
7
  6
CONTINUOUS
 10
167.9635180743
 20
158.1342183286
  0
VERTEX
  8
0
 62
7
  6
CONTINUOUS
 10
167.9154044274
 20
158.0475216455
  0
VERTEX
  8
0
 62
7
  6
CONTINUOUS
 10
167.8669224403
 20
157.9648956335
  0
VERTEX
  8
0
 62
7
  6
CONTINUOUS
 10
167.8179707658
 20
157.8864767694
  0
VERTEX
  8
0
 62
7
  6
CONTINUOUS
 10
167.7685025906
 20
157.8124579501
  0
VERTEX
  8
0
 62
7
  6
CONTINUOUS
 10
167.7185877959
 20
157.7431504616
  0
VERTEX
  8
0
 62
7
  6
CONTINUOUS
 10
167.6683619729
 20
157.6788754764
  0
VERTEX
  8
0
 62
7
  6
CONTINUOUS
 10
167.6176382612
 20
157.6195006358
  0
VERTEX
  8
0
 62
7
  6
CONTINUOUS
 10
167.5660486945
 20
157.5647719616
  0
VERTEX
  8
0
 62
7
  6
CONTINUOUS
 10
167.5133773908
 20
157.5147196053
  0
VERTEX
  8
0
 62
7
  6
CONTINUOUS
 10
167.4600873191
 20
157.4699896556
  0
VERTEX
  8
0
 62
7
  6
CONTINUOUS
 10
167.4065660645
 20
157.4309556088
  0
VERTEX
  8
0
 62
7
  6
CONTINUOUS
 10
167.3529923574
 20
157.3976735492
  0
VERTEX
  8
0
 62
7
  6
CONTINUOUS
 10
167.29936155
 20
157.3699896508
  0
VERTEX
  8
0
 62
7
  6
CONTINUOUS
 10
167.24512643
 20
157.3474850896
  0
VERTEX
  8
0
 62
7
  6
CONTINUOUS
 10
167.1887142173
 20
157.3295959745
  0
VERTEX
  8
0
 62
7
  6
CONTINUOUS
 10
167.1283487137
 20
157.3162206707
  0
VERTEX
  8
0
 62
7
  6
CONTINUOUS
 10
167.0621889791
 20
157.3078047988
  0
VERTEX
  8
0
 62
7
  6
CONTINUOUS
 10
166.9995234607
 20
157.3053040778
  0
SEQEND
  0
LINE
  8
0
 62
7
  6
CONTINUOUS
 10
86.7802631579
 20
157.3053043291
 11
99.9968040541
 21
157.3053043291
  0
LINE
  8
0
 62
7
  6
CONTINUOUS
 10
119.8337220809
 20
157.3053043291
 11
133.4168040487
 21
157.3053043291
  0
LINE
  8
0
 62
7
  6
CONTINUOUS
 10
153.2537220809
 20
157.3053043291
 11
166.9995234609
 21
157.3053043291
  0
POLYLINE
  8
0
 62
7
  6
CONTINUOUS
 66
1
 70
0
  0
VERTEX
  8
0
 62
7
  6
CONTINUOUS
 10
119.8337220809
 20
157.3053044249
  0
VERTEX
  8
0
 62
7
  6
CONTINUOUS
 10
119.771869085
 20
157.3079162846
  0
VERTEX
  8
0
 62
7
  6
CONTINUOUS
 10
119.7027050479
 20
157.317236214
  0
VERTEX
  8
0
 62
7
  6
CONTINUOUS
 10
119.6351646918
 20
157.3331513512
  0
VERTEX
  8
0
 62
7
  6
CONTINUOUS
 10
119.5682984158
 20
157.3557545599
  0
VERTEX
  8
0
 62
7
  6
CONTINUOUS
 10
119.5013980479
 20
157.3853059025
  0
VERTEX
  8
0
 62
7
  6
CONTINUOUS
 10
119.4341889651
 20
157.4220305754
  0
VERTEX
  8
0
 62
7
  6
CONTINUOUS
 10
119.3663886729
 20
157.4662440456
  0
VERTEX
  8
0
 62
7
  6
CONTINUOUS
 10
119.298024742
 20
157.5181326437
  0
VERTEX
  8
0
 62
7
  6
CONTINUOUS
 10
119.2293409483
 20
157.5776949303
  0
VERTEX
  8
0
 62
7
  6
CONTINUOUS
 10
119.1605530215
 20
157.6448824836
  0
VERTEX
  8
0
 62
7
  6
CONTINUOUS
 10
119.0921194413
 20
157.7193000727
  0
VERTEX
  8
0
 62
7
  6
CONTINUOUS
 10
119.024662784
 20
157.8001543622
  0
VERTEX
  8
0
 62
7
  6
CONTINUOUS
 10
118.9585916068
 20
157.886663474
  0
VERTEX
  8
0
 62
7
  6
CONTINUOUS
 10
118.8940873544
 20
157.9781800467
  0
VERTEX
  8
0
 62
7
  6
CONTINUOUS
 10
118.8435851657
 20
158.0547210708
  0
SEQEND
  0
POLYLINE
  8
0
 62
7
  6
CONTINUOUS
 66
1
 70
0
  0
VERTEX
  8
0
 62
7
  6
CONTINUOUS
 10
153.2537220809
 20
157.3053044249
  0
VERTEX
  8
0
 62
7
  6
CONTINUOUS
 10
153.191869085
 20
157.3079162846
  0
VERTEX
  8
0
 62
7
  6
CONTINUOUS
 10
153.1227050479
 20
157.317236214
  0
VERTEX
  8
0
 62
7
  6
CONTINUOUS
 10
153.0551646918
 20
157.3331513512
  0
VERTEX
  8
0
 62
7
  6
CONTINUOUS
 10
152.9882984158
 20
157.3557545599
  0
VERTEX
  8
0
 62
7
  6
CONTINUOUS
 10
152.9213980479
 20
157.3853059025
  0
VERTEX
  8
0
 62
7
  6
CONTINUOUS
 10
152.8541889651
 20
157.4220305754
  0
VERTEX
  8
0
 62
7
  6
CONTINUOUS
 10
152.7863886729
 20
157.4662440456
  0
VERTEX
  8
0
 62
7
  6
CONTINUOUS
 10
152.718024742
 20
157.5181326437
  0
VERTEX
  8
0
 62
7
  6
CONTINUOUS
 10
152.6493409483
 20
157.5776949303
  0
VERTEX
  8
0
 62
7
  6
CONTINUOUS
 10
152.5805530215
 20
157.6448824836
  0
VERTEX
  8
0
 62
7
  6
CONTINUOUS
 10
152.5121194413
 20
157.7193000727
  0
VERTEX
  8
0
 62
7
  6
CONTINUOUS
 10
152.444662784
 20
157.8001543622
  0
VERTEX
  8
0
 62
7
  6
CONTINUOUS
 10
152.3785916068
 20
157.886663474
  0
VERTEX
  8
0
 62
7
  6
CONTINUOUS
 10
152.3140873544
 20
157.9781800467
  0
VERTEX
  8
0
 62
7
  6
CONTINUOUS
 10
152.2635851657
 20
158.0547210708
  0
SEQEND
  0
POLYLINE
  8
0
 62
7
  6
CONTINUOUS
 66
1
 70
0
  0
VERTEX
  8
0
 62
7
  6
CONTINUOUS
 10
162.7878276038
 20
148.5182374511
  0
VERTEX
  8
0
 62
7
  6
CONTINUOUS
 10
162.7826065776
 20
148.7585685654
  0
VERTEX
  8
0
 62
7
  6
CONTINUOUS
 10
162.7970870646
 20
148.9974013214
  0
VERTEX
  8
0
 62
7
  6
CONTINUOUS
 10
162.8281948806
 20
149.2185821995
  0
VERTEX
  8
0
 62
7
  6
CONTINUOUS
 10
162.8726671555
 20
149.4234783001
  0
VERTEX
  8
0
 62
7
  6
CONTINUOUS
 10
162.9280069172
 20
149.6135198468
  0
VERTEX
  8
0
 62
7
  6
CONTINUOUS
 10
162.9923318661
 20
149.7901170279
  0
VERTEX
  8
0
 62
7
  6
CONTINUOUS
 10
163.0642184701
 20
149.9545355514
  0
VERTEX
  8
0
 62
7
  6
CONTINUOUS
 10
163.1425781669
 20
150.1078625454
  0
VERTEX
  8
0
 62
7
  6
CONTINUOUS
 10
163.2266174618
 20
150.2510951847
  0
VERTEX
  8
0
 62
7
  6
CONTINUOUS
 10
163.3157503916
 20
150.385083758
  0
VERTEX
  8
0
 62
7
  6
CONTINUOUS
 10
163.4093505528
 20
150.5102929789
  0
VERTEX
  8
0
 62
7
  6
CONTINUOUS
 10
163.5068172936
 20
150.6270557904
  0
VERTEX
  8
0
 62
7
  6
CONTINUOUS
 10
163.6075902385
 20
150.7356522918
  0
VERTEX
  8
0
 62
7
  6
CONTINUOUS
 10
163.7111485483
 20
150.8363387025
  0
VERTEX
  8
0
 62
7
  6
CONTINUOUS
 10
163.8170219118
 20
150.9293678121
  0
VERTEX
  8
0
 62
7
  6
CONTINUOUS
 10
163.9247243801
 20
151.0149405795
  0
VERTEX
  8
0
 62
7
  6
CONTINUOUS
 10
164.0338310305
 20
151.0932878633
  0
VERTEX
  8
0
 62
7
  6
CONTINUOUS
 10
164.1443531234
 20
151.1648914546
  0
VERTEX
  8
0
 62
7
  6
CONTINUOUS
 10
164.2565088648
 20
151.2302297412
  0
VERTEX
  8
0
 62
7
  6
CONTINUOUS
 10
164.3705678742
 20
151.2896664481
  0
VERTEX
  8
0
 62
7
  6
CONTINUOUS
 10
164.4866073082
 20
151.3433542114
  0
VERTEX
  8
0
 62
7
  6
CONTINUOUS
 10
164.6044412213
 20
151.3912768934
  0
VERTEX
  8
0
 62
7
  6
CONTINUOUS
 10
164.7237985064
 20
151.4333854636
  0
VERTEX
  8
0
 62
7
  6
CONTINUOUS
 10
164.8442970599
 20
151.4696145774
  0
VERTEX
  8
0
 62
7
  6
CONTINUOUS
 10
164.965140168
 20
151.4998421909
  0
VERTEX
  8
0
 62
7
  6
CONTINUOUS
 10
165.0851392689
 20
151.5239928547
  0
VERTEX
  8
0
 62
7
  6
CONTINUOUS
 10
165.2030377056
 20
151.5421652996
  0
VERTEX
  8
0
 62
7
  6
CONTINUOUS
 10
165.3185109996
 20
151.5547228294
  0
VERTEX
  8
0
 62
7
  6
CONTINUOUS
 10
165.4322133018
 20
151.5620831197
  0
VERTEX
  8
0
 62
7
  6
CONTINUOUS
 10
165.5450025356
 20
151.5645138551
  0
VERTEX
  8
0
 62
7
  6
CONTINUOUS
 10
165.6577829169
 20
151.5621058698
  0
VERTEX
  8
0
 62
7
  6
CONTINUOUS
 10
165.7714698593
 20
151.5547699511
  0
VERTEX
  8
0
 62
7
  6
CONTINUOUS
 10
165.8869362351
 20
151.5422376487
  0
VERTEX
  8
0
 62
7
  6
CONTINUOUS
 10
166.0048476654
 20
151.5240884382
  0
VERTEX
  8
0
 62
7
  6
CONTINUOUS
 10
166.124868938
 20
151.4999587076
  0
VERTEX
  8
0
 62
7
  6
CONTINUOUS
 10
166.2457344021
 20
151.4697506864
  0
VERTEX
  8
0
 62
7
  6
CONTINUOUS
 10
166.3662500106
 20
151.433541419
  0
VERTEX
  8
0
 62
7
  6
CONTINUOUS
 10
166.4856200746
 20
151.3914533138
  0
VERTEX
  8
0
 62
7
  6
CONTINUOUS
 10
166.6034637805
 20
151.3435518913
  0
VERTEX
  8
0
 62
7
  6
CONTINUOUS
 10
166.7195108019
 20
151.2898864091
  0
VERTEX
  8
0
 62
7
  6
CONTINUOUS
 10
166.8335765001
 20
151.2304728235
  0
VERTEX
  8
0
 62
7
  6
CONTINUOUS
 10
166.94574128
 20
151.1651568791
  0
VERTEX
  8
0
 62
7
  6
CONTINUOUS
 10
167.056274028
 20
151.093575129
  0
VERTEX
  8
0
 62
7
  6
CONTINUOUS
 10
167.1653914431
 20
151.015250497
  0
VERTEX
  8
0
 62
7
  6
CONTINUOUS
 10
167.2731036396
 20
150.9297025488
  0
VERTEX
  8
0
 62
7
  6
CONTINUOUS
 10
167.3789848301
 20
150.8367017159
  0
VERTEX
  8
0
 62
7
  6
CONTINUOUS
 10
167.4825482793
 20
150.7360488576
  0
VERTEX
  8
0
 62
7
  6
CONTINUOUS
 10
167.583325617
 20
150.6274909881
  0
VERTEX
  8
0
 62
7
  6
CONTINUOUS
 10
167.6807973883
 20
150.5107714519
  0
VERTEX
  8
0
 62
7
  6
CONTINUOUS
 10
167.7744034523
 20
150.385611074
  0
VERTEX
  8
0
 62
7
  6
CONTINUOUS
 10
167.8635434159
 20
150.251678871
  0
VERTEX
  8
0
 62
7
  6
CONTINUOUS
 10
167.94759407
 20
150.1085074082
  0
VERTEX
  8
0
 62
7
  6
CONTINUOUS
 10
168.0259703429
 20
149.9552468882
  0
VERTEX
  8
0
 62
7
  6
CONTINUOUS
 10
168.0978795875
 20
149.7909016877
  0
VERTEX
  8
0
 62
7
  6
CONTINUOUS
 10
168.1622346426
 20
149.6143867727
  0
VERTEX
  8
0
 62
7
  6
CONTINUOUS
 10
168.2176148917
 20
149.424435987
  0
VERTEX
  8
0
 62
7
  6
CONTINUOUS
 10
168.2621408105
 20
149.2196411441
  0
VERTEX
  8
0
 62
7
  6
CONTINUOUS
 10
168.2933195496
 20
148.9985738346
  0
VERTEX
  8
0
 62
7
  6
CONTINUOUS
 10
168.3078940307
 20
148.7598675394
  0
SEQEND
  0
POLYLINE
  8
0
 62
7
  6
CONTINUOUS
 66
1
 70
0
  0
VERTEX
  8
0
 62
7
  6
CONTINUOUS
 10
152.2635852393
 20
158.0547211181
  0
VERTEX
  8
0
 62
7
  6
CONTINUOUS
 10
152.1573928089
 20
158.2336706774
  0
VERTEX
  8
0
 62
7
  6
CONTINUOUS
 10
152.0534960336
 20
158.4389036953
  0
VERTEX
  8
0
 62
7
  6
CONTINUOUS
 10
151.9584332326
 20
158.6600025828
  0
VERTEX
  8
0
 62
7
  6
CONTINUOUS
 10
151.8724869569
 20
158.8962660033
  0
VERTEX
  8
0
 62
7
  6
CONTINUOUS
 10
151.7960128668
 20
159.146600204
  0
VERTEX
  8
0
 62
7
  6
CONTINUOUS
 10
151.7292884705
 20
159.409653547
  0
VERTEX
  8
0
 62
7
  6
CONTINUOUS
 10
151.67232671
 20
159.6845310239
  0
VERTEX
  8
0
 62
7
  6
CONTINUOUS
 10
151.6250236114
 20
159.9705162896
  0
VERTEX
  8
0
 62
7
  6
CONTINUOUS
 10
151.587250487
 20
160.2664844947
  0
VERTEX
  8
0
 62
7
  6
CONTINUOUS
 10
151.558740819
 20
160.5713990229
  0
VERTEX
  8
0
 62
7
  6
CONTINUOUS
 10
151.539105952
 20
160.8844264943
  0
VERTEX
  8
0
 62
7
  6
CONTINUOUS
 10
151.5278674444
 20
161.2049476539
  0
VERTEX
  8
0
 62
7
  6
CONTINUOUS
 10
151.5244744507
 20
161.5166570521
  0
SEQEND
  0
LINE
  8
SURFACE
 62
7
  6
CONTINUOUS
 10
168.2340537099
 20
103.3955297466
 11
168.2344745152
 21
111.0293955518
  0
LINE
  8
SURFACE
 62
7
  6
CONTINUOUS
 10
168.2328682502
 20
102.3258529511
 11
168.2340537099
 21
103.3955297466
  0
LINE
  8
SURFACE
 62
7
  6
CONTINUOUS
 10
168.2300034917
 20
100.8802545304
 11
168.2328682502
 21
102.3258529511
  0
LINE
  8
SURFACE
 62
7
  6
CONTINUOUS
 10
168.2263134324
 20
99.6416949667
 11
168.2300034917
 21
100.8802545304
  0
POLYLINE
  8
SURFACE
 62
7
  6
CONTINUOUS
 66
1
 70
0
  0
VERTEX
  8
SURFACE
 62
7
  6
CONTINUOUS
 10
168.2189893159
 20
97.9104361056
  0
VERTEX
  8
SURFACE
 62
7
  6
CONTINUOUS
 10
168.2205561775
 20
98.2311742602
  0
VERTEX
  8
SURFACE
 62
7
  6
CONTINUOUS
 10
168.2263134324
 20
99.6416949667
  0
SEQEND
  0
LINE
  8
0
 62
7
  6
CONTINUOUS
 10
168.6767305013
 20
176.9968282372
 11
168.6681363428
 21
175.7982199734
  0
LINE
  8
0
 62
7
  6
CONTINUOUS
 10
168.6869689152
 20
178.1188323352
 11
168.6767305013
 21
176.9968282372
  0
LINE
  8
0
 62
7
  6
CONTINUOUS
 10
168.6970934395
 20
178.995378032
 11
168.6869689152
 21
178.1188323352
  0
POLYLINE
  8
0
 62
7
  6
CONTINUOUS
 66
1
 70
0
  0
VERTEX
  8
0
 62
7
  6
CONTINUOUS
 10
168.6460519182
 20
161.5166572223
  0
VERTEX
  8
0
 62
7
  6
CONTINUOUS
 10
168.641356094
 20
161.1513745611
  0
VERTEX
  8
0
 62
7
  6
CONTINUOUS
 10
168.6260385245
 20
160.7827713504
  0
VERTEX
  8
0
 62
7
  6
CONTINUOUS
 10
168.5994424201
 20
160.4262211079
  0
VERTEX
  8
0
 62
7
  6
CONTINUOUS
 10
168.5611109397
 20
160.0829554526
  0
VERTEX
  8
0
 62
7
  6
CONTINUOUS
 10
168.5108377019
 20
159.7545138265
  0
VERTEX
  8
0
 62
7
  6
CONTINUOUS
 10
168.4486411388
 20
159.4422682235
  0
VERTEX
  8
0
 62
7
  6
CONTINUOUS
 10
168.3747470368
 20
159.1474377235
  0
VERTEX
  8
0
 62
7
  6
CONTINUOUS
 10
168.2897568838
 20
158.871666283
  0
VERTEX
  8
0
 62
7
  6
CONTINUOUS
 10
168.1944751919
 20
158.6161955729
  0
VERTEX
  8
0
 62
7
  6
CONTINUOUS
 10
168.0955057006
 20
158.3935763863
  0
SEQEND
  0
LINE
  8
0
 62
7
  6
CONTINUOUS
 10
168.7085776557
 20
179.7750189792
 11
168.6970934395
 21
178.995378032
  0
LINE
  8
0
 62
7
  6
CONTINUOUS
 10
168.7180111982
 20
180.2748263039
 11
168.7085776557
 21
179.7750189792
  0
LINE
  8
0
 62
7
  6
CONTINUOUS
 10
168.3078940307
 20
148.7598675394
 11
168.3026987089
 21
148.5182373423
  0
LINE
  8
0
 62
7
  6
CONTINUOUS
 10
168.7254627455
 20
180.5915754511
 11
168.7180111982
 21
180.2748263039
  0
LINE
  8
0
 62
7
  6
CONTINUOUS
 10
168.7309989333
 20
180.7862558093
 11
168.7254627455
 21
180.5915754511
  0
LINE
  8
0
 62
7
  6
CONTINUOUS
 10
168.7349165014
 20
180.9044418845
 11
168.7309989333
 21
180.7862558093
  0
LINE
  8
0
 62
7
  6
CONTINUOUS
 10
168.7387105233
 20
181.0043024499
 11
168.7349165014
 21
180.9044418845
  0
LINE
  8
0
 62
7
  6
CONTINUOUS
 10
168.7412243547
 20
181.0629625873
 11
168.7387105233
 21
181.0043024499
  0
LINE
  8
0
 62
7
  6
CONTINUOUS
 10
168.7437744752
 20
181.116694231
 11
168.7412243547
 21
181.0629625873
  0
LINE
  8
0
 62
7
  6
CONTINUOUS
 10
168.74640481
 20
181.1663883992
 11
168.7437744752
 21
181.116694231
  0
POLYLINE
  8
0
 62
7
  6
CONTINUOUS
 66
1
 70
0
  0
VERTEX
  8
0
 62
7
  6
CONTINUOUS
 10
168.302698704
 20
148.5182374664
  0
VERTEX
  8
0
 62
7
  6
CONTINUOUS
 10
168.2819681919
 20
148.3097694808
  0
VERTEX
  8
0
 62
7
  6
CONTINUOUS
 10
168.2446866911
 20
148.096083659
  0
VERTEX
  8
0
 62
7
  6
CONTINUOUS
 10
168.1922037968
 20
147.888338727
  0
VERTEX
  8
0
 62
7
  6
CONTINUOUS
 10
168.1253421867
 20
147.6876271905
  0
VERTEX
  8
0
 62
7
  6
CONTINUOUS
 10
168.045045359
 20
147.4950374279
  0
VERTEX
  8
0
 62
7
  6
CONTINUOUS
 10
167.9523948823
 20
147.3116195101
  0
VERTEX
  8
0
 62
7
  6
CONTINUOUS
 10
167.8486112025
 20
147.1383385505
  0
VERTEX
  8
0
 62
7
  6
CONTINUOUS
 10
167.7350227143
 20
146.9760085003
  0
VERTEX
  8
0
 62
7
  6
CONTINUOUS
 10
167.6127367771
 20
146.8249216856
  0
VERTEX
  8
0
 62
7
  6
CONTINUOUS
 10
167.4825794048
 20
146.6850276621
  0
VERTEX
  8
0
 62
7
  6
CONTINUOUS
 10
167.3452477604
 20
146.5562366178
  0
VERTEX
  8
0
 62
7
  6
CONTINUOUS
 10
167.2014688577
 20
146.4385636559
  0
VERTEX
  8
0
 62
7
  6
CONTINUOUS
 10
167.0519389868
 20
146.3320306043
  0
VERTEX
  8
0
 62
7
  6
CONTINUOUS
 10
166.8972693382
 20
146.2366262082
  0
VERTEX
  8
0
 62
7
  6
CONTINUOUS
 10
166.7380831098
 20
146.1523727685
  0
VERTEX
  8
0
 62
7
  6
CONTINUOUS
 10
166.5749990157
 20
146.0792989341
  0
VERTEX
  8
0
 62
7
  6
CONTINUOUS
 10
166.4085749494
 20
146.0174125973
  0
VERTEX
  8
0
 62
7
  6
CONTINUOUS
 10
166.23935294
 20
145.9667273027
  0
VERTEX
  8
0
 62
7
  6
CONTINUOUS
 10
166.0679037442
 20
145.9272698112
  0
VERTEX
  8
0
 62
7
  6
CONTINUOUS
 10
165.8947723318
 20
145.899058708
  0
VERTEX
  8
0
 62
7
  6
CONTINUOUS
 10
165.7204860357
 20
145.8821105782
  0
VERTEX
  8
0
 62
7
  6
CONTINUOUS
 10
165.5456122313
 20
145.8764437151
  0
VERTEX
  8
0
 62
7
  6
CONTINUOUS
 10
165.3707360499
 20
145.8820656132
  0
VERTEX
  8
0
 62
7
  6
CONTINUOUS
 10
165.1964426526
 20
145.8989693041
  0
VERTEX
  8
0
 62
7
  6
CONTINUOUS
 10
165.0232999552
 20
145.9271369203
  0
VERTEX
  8
0
 62
7
  6
CONTINUOUS
 10
164.8518371244
 20
145.9665518284
  0
VERTEX
  8
0
 62
7
  6
CONTINUOUS
 10
164.6826010343
 20
146.0171948877
  0
VERTEX
  8
0
 62
7
  6
CONTINUOUS
 10
164.5161638253
 20
146.0790384456
  0
VERTEX
  8
0
 62
7
  6
CONTINUOUS
 10
164.3530665833
 20
146.1520687141
  0
VERTEX
  8
0
 62
7
  6
CONTINUOUS
 10
164.1938653202
 20
146.2362782996
  0
VERTEX
  8
0
 62
7
  6
CONTINUOUS
 10
164.0391771134
 20
146.3316394646
  0
VERTEX
  8
0
 62
7
  6
CONTINUOUS
 10
163.8896244366
 20
146.4381307073
  0
VERTEX
  8
0
 62
7
  6
CONTINUOUS
 10
163.7458192372
 20
146.5557630997
  0
VERTEX
  8
0
 62
7
  6
CONTINUOUS
 10
163.6084585569
 20
146.6845143463
  0
VERTEX
  8
0
 62
7
  6
CONTINUOUS
 10
163.4782695988
 20
146.824369101
  0
VERTEX
  8
0
 62
7
  6
CONTINUOUS
 10
163.3559489175
 20
146.9754177166
  0
VERTEX
  8
0
 62
7
  6
CONTINUOUS
 10
163.2423220184
 20
147.1377113629
  0
VERTEX
  8
0
 62
7
  6
CONTINUOUS
 10
163.1384965483
 20
147.3109576011
  0
VERTEX
  8
0
 62
7
  6
CONTINUOUS
 10
163.0458011566
 20
147.494342438
  0
VERTEX
  8
0
 62
7
  6
CONTINUOUS
 10
162.9654563817
 20
147.6869008573
  0
VERTEX
  8
0
 62
7
  6
CONTINUOUS
 10
162.8985438613
 20
147.8875827554
  0
VERTEX
  8
0
 62
7
  6
CONTINUOUS
 10
162.8460070956
 20
148.0952995081
  0
VERTEX
  8
0
 62
7
  6
CONTINUOUS
 10
162.8086684844
 20
148.308959367
  0
VERTEX
  8
0
 62
7
  6
CONTINUOUS
 10
162.7878275979
 20
148.5182375757
  0
SEQEND
  0
LINE
  8
DEFAULT_1
 62
2
  6
CENTER
 10
99.7954131579
 20
168.0230263158
 11
186.9802631579
 21
168.0230263158
  0
LINE
  8
0
 62
7
  6
CONTINUOUS
 10
168.6464726018
 20
169.1505174338
 11
168.6460518006
 21
161.5166572223
  0
LINE
  8
0
 62
7
  6
CONTINUOUS
 10
168.6476580505
 20
170.2201894673
 11
168.6464726018
 21
169.1505174338
  0
LINE
  8
0
 62
7
  6
CONTINUOUS
 10
168.650522783
 20
171.6657816816
 11
168.6476580505
 21
170.2201894673
  0
LINE
  8
0
 62
7
  6
CONTINUOUS
 10
168.654212819
 20
172.9043391154
 11
168.650522783
 21
171.6657816816
  0
LINE
  8
0
 62
7
  6
CONTINUOUS
 10
168.6599700443
 20
174.3148584889
 11
168.654212819
 21
172.9043391154
  0
POLYLINE
  8
0
 62
7
  6
CONTINUOUS
 66
1
 70
0
  0
VERTEX
  8
0
 62
7
  6
CONTINUOUS
 10
168.6681363428
 20
175.7982199734
  0
VERTEX
  8
0
 62
7
  6
CONTINUOUS
 10
168.6664478754
 20
175.5251848226
  0
VERTEX
  8
0
 62
7
  6
CONTINUOUS
 10
168.6599700443
 20
174.3148584889
  0
SEQEND
  0
LINE
  8
SURFACE
 62
7
  6
CONTINUOUS
 10
168.2123898395
 20
96.7478116326
 11
168.2189893159
 21
97.9104361056
  0
LINE
  8
SURFACE
 62
7
  6
CONTINUOUS
 10
168.2037956381
 20
95.5492025348
 11
168.2123898395
 21
96.7478116326
  0
LINE
  8
SURFACE
 62
7
  6
CONTINUOUS
 10
168.1935571772
 20
94.4271986564
 11
168.2037956381
 21
95.5492025348
  0
POLYLINE
  8
SURFACE
 62
7
  6
CONTINUOUS
 66
1
 70
0
  0
VERTEX
  8
SURFACE
 62
7
  6
CONTINUOUS
 10
168.2344744595
 20
111.0293955518
  0
VERTEX
  8
SURFACE
 62
7
  6
CONTINUOUS
 10
168.2378960146
 20
111.3423855551
  0
VERTEX
  8
SURFACE
 62
7
  6
CONTINUOUS
 10
168.2491664111
 20
111.6628727289
  0
VERTEX
  8
SURFACE
 62
7
  6
CONTINUOUS
 10
168.2688350536
 20
111.9758663442
  0
VERTEX
  8
SURFACE
 62
7
  6
CONTINUOUS
 10
168.2973803353
 20
112.2807471298
  0
VERTEX
  8
SURFACE
 62
7
  6
CONTINUOUS
 10
168.3351908627
 20
112.5766814329
  0
VERTEX
  8
SURFACE
 62
7
  6
CONTINUOUS
 10
168.3825330624
 20
112.8626321057
  0
VERTEX
  8
SURFACE
 62
7
  6
CONTINUOUS
 10
168.4395355005
 20
113.1374736903
  0
VERTEX
  8
SURFACE
 62
7
  6
CONTINUOUS
 10
168.5063020976
 20
113.4004894549
  0
VERTEX
  8
SURFACE
 62
7
  6
CONTINUOUS
 10
168.5828198982
 20
113.6507839015
  0
VERTEX
  8
SURFACE
 62
7
  6
CONTINUOUS
 10
168.6688112411
 20
113.8870048317
  0
VERTEX
  8
SURFACE
 62
7
  6
CONTINUOUS
 10
168.7639202414
 20
114.1080576875
  0
VERTEX
  8
SURFACE
 62
7
  6
CONTINUOUS
 10
168.8678645812
 20
114.3132407565
  0
VERTEX
  8
SURFACE
 62
7
  6
CONTINUOUS
 10
168.9735858078
 20
114.4913323815
  0
SEQEND
  0
LINE
  8
SURFACE
 62
7
  6
CONTINUOUS
 10
168.1834326135
 20
93.5506543346
 11
168.1935571772
 21
94.4271986564
  0
LINE
  8
SURFACE
 62
7
  6
CONTINUOUS
 10
168.1719483665
 20
92.7710162448
 11
168.1834326135
 21
93.5506543346
  0
LINE
  8
SURFACE
 62
7
  6
CONTINUOUS
 10
168.1625148055
 20
92.2712116763
 11
168.1719483665
 21
92.7710162448
  0
LINE
  8
SURFACE
 62
7
  6
CONTINUOUS
 10
168.2756093367
 20
123.7861850921
 11
168.2808046584
 21
124.0278152893
  0
LINE
  8
SURFACE
 62
7
  6
CONTINUOUS
 10
168.1550632537
 20
91.9544650923
 11
168.1625148055
 21
92.2712116763
  0
LINE
  8
SURFACE
 62
7
  6
CONTINUOUS
 10
168.1495270636
 20
91.759786563
 11
168.1550632537
 21
91.9544650923
  0
LINE
  8
SURFACE
 62
7
  6
CONTINUOUS
 10
168.1456094894
 20
91.6416015898
 11
168.1495270636
 21
91.759786563
  0
LINE
  8
SURFACE
 62
7
  6
CONTINUOUS
 10
168.1418154567
 20
91.5417419502
 11
168.1456094894
 21
91.6416015898
  0
LINE
  8
SURFACE
 62
7
  6
CONTINUOUS
 10
168.1393016112
 20
91.4830822822
 11
168.1418154567
 21
91.5417419502
  0
LINE
  8
SURFACE
 62
7
  6
CONTINUOUS
 10
168.1367514744
 20
91.4293510895
 11
168.1393016112
 21
91.4830822822
  0
LINE
  8
SURFACE
 62
7
  6
CONTINUOUS
 10
168.1341211121
 20
91.3796572047
 11
168.1367514744
 21
91.4293510895
  0
POLYLINE
  8
SURFACE
 62
7
  6
CONTINUOUS
 66
1
 70
0
  0
VERTEX
  8
SURFACE
 62
7
  6
CONTINUOUS
 10
168.2808046634
 20
124.0278151652
  0
VERTEX
  8
SURFACE
 62
7
  6
CONTINUOUS
 10
168.3015351755
 20
124.2362831508
  0
VERTEX
  8
SURFACE
 62
7
  6
CONTINUOUS
 10
168.3388166763
 20
124.4499689725
  0
VERTEX
  8
SURFACE
 62
7
  6
CONTINUOUS
 10
168.3912995706
 20
124.6577139046
  0
VERTEX
  8
SURFACE
 62
7
  6
CONTINUOUS
 10
168.4581611807
 20
124.8584254411
  0
VERTEX
  8
SURFACE
 62
7
  6
CONTINUOUS
 10
168.5384580083
 20
125.0510152036
  0
VERTEX
  8
SURFACE
 62
7
  6
CONTINUOUS
 10
168.631108485
 20
125.2344331215
  0
VERTEX
  8
SURFACE
 62
7
  6
CONTINUOUS
 10
168.7348921648
 20
125.407714081
  0
VERTEX
  8
SURFACE
 62
7
  6
CONTINUOUS
 10
168.8484806531
 20
125.5700441313
  0
VERTEX
  8
SURFACE
 62
7
  6
CONTINUOUS
 10
168.9707665903
 20
125.721130946
  0
VERTEX
  8
SURFACE
 62
7
  6
CONTINUOUS
 10
169.1009239626
 20
125.8610249694
  0
VERTEX
  8
SURFACE
 62
7
  6
CONTINUOUS
 10
169.2382556069
 20
125.9898160138
  0
VERTEX
  8
SURFACE
 62
7
  6
CONTINUOUS
 10
169.3820345096
 20
126.1074889757
  0
VERTEX
  8
SURFACE
 62
7
  6
CONTINUOUS
 10
169.5315643805
 20
126.2140220273
  0
VERTEX
  8
SURFACE
 62
7
  6
CONTINUOUS
 10
169.6862340292
 20
126.3094264234
  0
VERTEX
  8
SURFACE
 62
7
  6
CONTINUOUS
 10
169.8454202576
 20
126.393679863
  0
VERTEX
  8
SURFACE
 62
7
  6
CONTINUOUS
 10
170.0085043516
 20
126.4667536974
  0
VERTEX
  8
SURFACE
 62
7
  6
CONTINUOUS
 10
170.174928418
 20
126.5286400343
  0
VERTEX
  8
SURFACE
 62
7
  6
CONTINUOUS
 10
170.3441504274
 20
126.5793253288
  0
VERTEX
  8
SURFACE
 62
7
  6
CONTINUOUS
 10
170.5155996231
 20
126.6187828204
  0
VERTEX
  8
SURFACE
 62
7
  6
CONTINUOUS
 10
170.6887310355
 20
126.6469939236
  0
VERTEX
  8
SURFACE
 62
7
  6
CONTINUOUS
 10
170.8630173317
 20
126.6639420534
  0
VERTEX
  8
SURFACE
 62
7
  6
CONTINUOUS
 10
171.037891136
 20
126.6696089165
  0
VERTEX
  8
SURFACE
 62
7
  6
CONTINUOUS
 10
171.2127673175
 20
126.6639870183
  0
VERTEX
  8
SURFACE
 62
7
  6
CONTINUOUS
 10
171.3870607148
 20
126.6470833275
  0
VERTEX
  8
SURFACE
 62
7
  6
CONTINUOUS
 10
171.5602034122
 20
126.6189157113
  0
VERTEX
  8
SURFACE
 62
7
  6
CONTINUOUS
 10
171.731666243
 20
126.5795008032
  0
VERTEX
  8
SURFACE
 62
7
  6
CONTINUOUS
 10
171.9009023331
 20
126.5288577439
  0
VERTEX
  8
SURFACE
 62
7
  6
CONTINUOUS
 10
172.0673395421
 20
126.467014186
  0
VERTEX
  8
SURFACE
 62
7
  6
CONTINUOUS
 10
172.230436784
 20
126.3939839175
  0
VERTEX
  8
SURFACE
 62
7
  6
CONTINUOUS
 10
172.3896380472
 20
126.309774332
  0
VERTEX
  8
SURFACE
 62
7
  6
CONTINUOUS
 10
172.5443262539
 20
126.214413167
  0
VERTEX
  8
SURFACE
 62
7
  6
CONTINUOUS
 10
172.6938789308
 20
126.1079219243
  0
VERTEX
  8
SURFACE
 62
7
  6
CONTINUOUS
 10
172.8376841301
 20
125.9902895319
  0
VERTEX
  8
SURFACE
 62
7
  6
CONTINUOUS
 10
172.9750448105
 20
125.8615382853
  0
VERTEX
  8
SURFACE
 62
7
  6
CONTINUOUS
 10
173.1052337686
 20
125.7216835306
  0
VERTEX
  8
SURFACE
 62
7
  6
CONTINUOUS
 10
173.2275544498
 20
125.570634915
  0
VERTEX
  8
SURFACE
 62
7
  6
CONTINUOUS
 10
173.341181349
 20
125.4083412687
  0
VERTEX
  8
SURFACE
 62
7
  6
CONTINUOUS
 10
173.4450068191
 20
125.2350950305
  0
VERTEX
  8
SURFACE
 62
7
  6
CONTINUOUS
 10
173.5377022108
 20
125.0517101936
  0
VERTEX
  8
SURFACE
 62
7
  6
CONTINUOUS
 10
173.6180469857
 20
124.8591517743
  0
VERTEX
  8
SURFACE
 62
7
  6
CONTINUOUS
 10
173.6849595061
 20
124.6584698762
  0
VERTEX
  8
SURFACE
 62
7
  6
CONTINUOUS
 10
173.7374962717
 20
124.4507531234
  0
VERTEX
  8
SURFACE
 62
7
  6
CONTINUOUS
 10
173.774834883
 20
124.2370932646
  0
VERTEX
  8
SURFACE
 62
7
  6
CONTINUOUS
 10
173.7956757695
 20
124.0278150559
  0
SEQEND
  0
POLYLINE
  8
SURFACE
 62
7
  6
CONTINUOUS
 66
1
 70
0
  0
VERTEX
  8
SURFACE
 62
7
  6
CONTINUOUS
 10
173.7956757636
 20
124.0278151805
  0
VERTEX
  8
SURFACE
 62
7
  6
CONTINUOUS
 10
173.8008967898
 20
123.7874840661
  0
VERTEX
  8
SURFACE
 62
7
  6
CONTINUOUS
 10
173.7864163028
 20
123.5486513102
  0
VERTEX
  8
SURFACE
 62
7
  6
CONTINUOUS
 10
173.7553084868
 20
123.3274704321
  0
VERTEX
  8
SURFACE
 62
7
  6
CONTINUOUS
 10
173.7108362119
 20
123.1225743314
  0
VERTEX
  8
SURFACE
 62
7
  6
CONTINUOUS
 10
173.6554964501
 20
122.9325327848
  0
VERTEX
  8
SURFACE
 62
7
  6
CONTINUOUS
 10
173.5911715013
 20
122.7559356036
  0
VERTEX
  8
SURFACE
 62
7
  6
CONTINUOUS
 10
173.5192848973
 20
122.5915170802
  0
VERTEX
  8
SURFACE
 62
7
  6
CONTINUOUS
 10
173.4409252005
 20
122.4381900862
  0
VERTEX
  8
SURFACE
 62
7
  6
CONTINUOUS
 10
173.3568859055
 20
122.2949574469
  0
VERTEX
  8
SURFACE
 62
7
  6
CONTINUOUS
 10
173.2677529757
 20
122.1609688736
  0
VERTEX
  8
SURFACE
 62
7
  6
CONTINUOUS
 10
173.1741528146
 20
122.0357596526
  0
VERTEX
  8
SURFACE
 62
7
  6
CONTINUOUS
 10
173.0766860738
 20
121.9189968412
  0
VERTEX
  8
SURFACE
 62
7
  6
CONTINUOUS
 10
172.9759131289
 20
121.8104003398
  0
VERTEX
  8
SURFACE
 62
7
  6
CONTINUOUS
 10
172.8723548191
 20
121.7097139291
  0
VERTEX
  8
SURFACE
 62
7
  6
CONTINUOUS
 10
172.7664814556
 20
121.6166848195
  0
VERTEX
  8
SURFACE
 62
7
  6
CONTINUOUS
 10
172.6587789873
 20
121.5311120521
  0
VERTEX
  8
SURFACE
 62
7
  6
CONTINUOUS
 10
172.5496723369
 20
121.4527647682
  0
VERTEX
  8
SURFACE
 62
7
  6
CONTINUOUS
 10
172.4391502439
 20
121.381161177
  0
VERTEX
  8
SURFACE
 62
7
  6
CONTINUOUS
 10
172.3269945026
 20
121.3158228904
  0
VERTEX
  8
SURFACE
 62
7
  6
CONTINUOUS
 10
172.2129354931
 20
121.2563861835
  0
VERTEX
  8
SURFACE
 62
7
  6
CONTINUOUS
 10
172.0968960591
 20
121.2026984202
  0
VERTEX
  8
SURFACE
 62
7
  6
CONTINUOUS
 10
171.9790621461
 20
121.1547757382
  0
VERTEX
  8
SURFACE
 62
7
  6
CONTINUOUS
 10
171.859704861
 20
121.1126671679
  0
VERTEX
  8
SURFACE
 62
7
  6
CONTINUOUS
 10
171.7392063075
 20
121.0764380541
  0
VERTEX
  8
SURFACE
 62
7
  6
CONTINUOUS
 10
171.6183631994
 20
121.0462104407
  0
VERTEX
  8
SURFACE
 62
7
  6
CONTINUOUS
 10
171.4983640984
 20
121.0220597768
  0
VERTEX
  8
SURFACE
 62
7
  6
CONTINUOUS
 10
171.3804656618
 20
121.003887332
  0
VERTEX
  8
SURFACE
 62
7
  6
CONTINUOUS
 10
171.2649923677
 20
120.9913298022
  0
VERTEX
  8
SURFACE
 62
7
  6
CONTINUOUS
 10
171.1512900656
 20
120.9839695119
  0
VERTEX
  8
SURFACE
 62
7
  6
CONTINUOUS
 10
171.0385008318
 20
120.9815387764
  0
VERTEX
  8
SURFACE
 62
7
  6
CONTINUOUS
 10
170.9257204505
 20
120.9839467618
  0
VERTEX
  8
SURFACE
 62
7
  6
CONTINUOUS
 10
170.8120335081
 20
120.9912826805
  0
VERTEX
  8
SURFACE
 62
7
  6
CONTINUOUS
 10
170.6965671322
 20
121.0038149828
  0
VERTEX
  8
SURFACE
 62
7
  6
CONTINUOUS
 10
170.578655702
 20
121.0219641934
  0
VERTEX
  8
SURFACE
 62
7
  6
CONTINUOUS
 10
170.4586344294
 20
121.046093924
  0
VERTEX
  8
SURFACE
 62
7
  6
CONTINUOUS
 10
170.3377689652
 20
121.0763019452
  0
VERTEX
  8
SURFACE
 62
7
  6
CONTINUOUS
 10
170.2172533567
 20
121.1125112126
  0
VERTEX
  8
SURFACE
 62
7
  6
CONTINUOUS
 10
170.0978832927
 20
121.1545993178
  0
VERTEX
  8
SURFACE
 62
7
  6
CONTINUOUS
 10
169.9800395869
 20
121.2025007403
  0
VERTEX
  8
SURFACE
 62
7
  6
CONTINUOUS
 10
169.8639925655
 20
121.2561662225
  0
VERTEX
  8
SURFACE
 62
7
  6
CONTINUOUS
 10
169.7499268673
 20
121.3155798081
  0
VERTEX
  8
SURFACE
 62
7
  6
CONTINUOUS
 10
169.6377620874
 20
121.3808957525
  0
VERTEX
  8
SURFACE
 62
7
  6
CONTINUOUS
 10
169.5272293394
 20
121.4524775026
  0
VERTEX
  8
SURFACE
 62
7
  6
CONTINUOUS
 10
169.4181119243
 20
121.5308021346
  0
VERTEX
  8
SURFACE
 62
7
  6
CONTINUOUS
 10
169.3103997278
 20
121.6163500828
  0
VERTEX
  8
SURFACE
 62
7
  6
CONTINUOUS
 10
169.2045185373
 20
121.7093509156
  0
VERTEX
  8
SURFACE
 62
7
  6
CONTINUOUS
 10
169.1009550881
 20
121.810003774
  0
VERTEX
  8
SURFACE
 62
7
  6
CONTINUOUS
 10
169.0001777503
 20
121.9185616435
  0
VERTEX
  8
SURFACE
 62
7
  6
CONTINUOUS
 10
168.9027059791
 20
122.0352811797
  0
VERTEX
  8
SURFACE
 62
7
  6
CONTINUOUS
 10
168.8090999151
 20
122.1604415576
  0
VERTEX
  8
SURFACE
 62
7
  6
CONTINUOUS
 10
168.7199599514
 20
122.2943737606
  0
VERTEX
  8
SURFACE
 62
7
  6
CONTINUOUS
 10
168.6359092974
 20
122.4375452234
  0
VERTEX
  8
SURFACE
 62
7
  6
CONTINUOUS
 10
168.5575330245
 20
122.5908057433
  0
VERTEX
  8
SURFACE
 62
7
  6
CONTINUOUS
 10
168.4856237799
 20
122.7551509439
  0
VERTEX
  8
SURFACE
 62
7
  6
CONTINUOUS
 10
168.4212687248
 20
122.9316658589
  0
VERTEX
  8
SURFACE
 62
7
  6
CONTINUOUS
 10
168.3658884757
 20
123.1216166446
  0
VERTEX
  8
SURFACE
 62
7
  6
CONTINUOUS
 10
168.3213625569
 20
123.3264114875
  0
VERTEX
  8
SURFACE
 62
7
  6
CONTINUOUS
 10
168.2901838178
 20
123.547478797
  0
VERTEX
  8
SURFACE
 62
7
  6
CONTINUOUS
 10
168.2756093367
 20
123.7861850921
  0
SEQEND
  0
POLYLINE
  8
SURFACE
 62
7
  6
CONTINUOUS
 66
1
 70
0
  0
VERTEX
  8
SURFACE
 62
7
  6
CONTINUOUS
 10
168.9735857259
 20
114.4913324341
  0
VERTEX
  8
SURFACE
 62
7
  6
CONTINUOUS
 10
169.0251244671
 20
114.569399396
  0
VERTEX
  8
SURFACE
 62
7
  6
CONTINUOUS
 10
169.0896301429
 20
114.6608053798
  0
VERTEX
  8
SURFACE
 62
7
  6
CONTINUOUS
 10
169.1556951759
 20
114.7471923541
  0
VERTEX
  8
SURFACE
 62
7
  6
CONTINUOUS
 10
169.2231374472
 20
114.8279154478
  0
VERTEX
  8
SURFACE
 62
7
  6
CONTINUOUS
 10
169.2915474942
 20
114.902195608
  0
VERTEX
  8
SURFACE
 62
7
  6
CONTINUOUS
 10
169.3603019986
 20
114.9692427852
  0
VERTEX
  8
SURFACE
 62
7
  6
CONTINUOUS
 10
169.4289453449
 20
115.028667628
  0
VERTEX
  8
SURFACE
 62
7
  6
CONTINUOUS
 10
169.4972667023
 20
115.0804272318
  0
VERTEX
  8
SURFACE
 62
7
  6
CONTINUOUS
 10
169.5650190872
 20
115.1245187625
  0
VERTEX
  8
SURFACE
 62
7
  6
CONTINUOUS
 10
169.6321751262
 20
115.1611300451
  0
VERTEX
  8
SURFACE
 62
7
  6
CONTINUOUS
 10
169.6990187157
 20
115.1905783491
  0
VERTEX
  8
SURFACE
 62
7
  6
CONTINUOUS
 10
169.7658364383
 20
115.2130935159
  0
VERTEX
  8
SURFACE
 62
7
  6
CONTINUOUS
 10
169.8333665182
 20
115.2289385504
  0
VERTEX
  8
SURFACE
 62
7
  6
CONTINUOUS
 10
169.9025923674
 20
115.2381975673
  0
VERTEX
  8
SURFACE
 62
7
  6
CONTINUOUS
 10
169.9637222619
 20
115.2407482054
  0
SEQEND
  0
LINE
  8
0
 62
7
  6
CONTINUOUS
 10
181.8802631579
 20
150.3121583537
 11
181.8802631579
 21
122.2338925098
  0
POLYLINE
  8
0
 62
7
  6
CONTINUOUS
 66
1
 70
0
  0
VERTEX
  8
0
 62
7
  6
CONTINUOUS
 10
170.5613318619
 20
183.0230261019
  0
VERTEX
  8
0
 62
7
  6
CONTINUOUS
 10
170.4416958055
 20
183.0190481641
  0
VERTEX
  8
0
 62
7
  6
CONTINUOUS
 10
170.2934790316
 20
183.0029967352
  0
VERTEX
  8
0
 62
7
  6
CONTINUOUS
 10
170.14899288
 20
182.9751888405
  0
VERTEX
  8
0
 62
7
  6
CONTINUOUS
 10
170.0098977115
 20
182.9365309959
  0
VERTEX
  8
0
 62
7
  6
CONTINUOUS
 10
169.8776751088
 20
182.8882275803
  0
VERTEX
  8
0
 62
7
  6
CONTINUOUS
 10
169.753585359
 20
182.8317379425
  0
VERTEX
  8
0
 62
7
  6
CONTINUOUS
 10
169.638626814
 20
182.7687200304
  0
VERTEX
  8
0
 62
7
  6
CONTINUOUS
 10
169.5330891425
 20
182.7006718418
  0
VERTEX
  8
0
 62
7
  6
CONTINUOUS
 10
169.4364419498
 20
182.6285610707
  0
VERTEX
  8
0
 62
7
  6
CONTINUOUS
 10
169.3480714869
 20
182.5531060634
  0
VERTEX
  8
0
 62
7
  6
CONTINUOUS
 10
169.2673753024
 20
182.4748335638
  0
VERTEX
  8
0
 62
7
  6
CONTINUOUS
 10
169.1939532904
 20
182.3942995234
  0
VERTEX
  8
0
 62
7
  6
CONTINUOUS
 10
169.1277216161
 20
182.3123648617
  0
VERTEX
  8
0
 62
7
  6
CONTINUOUS
 10
169.0685320302
 20
182.2298894446
  0
VERTEX
  8
0
 62
7
  6
CONTINUOUS
 10
169.0161514004
 20
182.1476949302
  0
VERTEX
  8
0
 62
7
  6
CONTINUOUS
 10
168.9703016787
 20
182.0666121988
  0
VERTEX
  8
0
 62
7
  6
CONTINUOUS
 10
168.9307964761
 20
181.9877775636
  0
VERTEX
  8
0
 62
7
  6
CONTINUOUS
 10
168.897388907
 20
181.9124625608
  0
VERTEX
  8
0
 62
7
  6
CONTINUOUS
 10
168.8696440745
 20
181.8417566015
  0
VERTEX
  8
0
 62
7
  6
CONTINUOUS
 10
168.8469129605
 20
181.7762742382
  0
VERTEX
  8
0
 62
7
  6
CONTINUOUS
 10
168.8284901811
 20
181.7163184036
  0
VERTEX
  8
0
 62
7
  6
CONTINUOUS
 10
168.8136706322
 20
181.6618976285
  0
VERTEX
  8
0
 62
7
  6
CONTINUOUS
 10
168.8017983363
 20
181.6127907452
  0
VERTEX
  8
0
 62
7
  6
CONTINUOUS
 10
168.7922370497
 20
181.5683337383
  0
VERTEX
  8
0
 62
7
  6
CONTINUOUS
 10
168.7844778897
 20
181.5278485959
  0
VERTEX
  8
0
 62
7
  6
CONTINUOUS
 10
168.7781380524
 20
181.4907900007
  0
VERTEX
  8
0
 62
7
  6
CONTINUOUS
 10
168.7729664853
 20
181.4570070052
  0
VERTEX
  8
0
 62
7
  6
CONTINUOUS
 10
168.7687413071
 20
181.4262837146
  0
VERTEX
  8
0
 62
7
  6
CONTINUOUS
 10
168.7652593478
 20
181.3982465983
  0
VERTEX
  8
0
 62
7
  6
CONTINUOUS
 10
168.7623344526
 20
181.372313515
  0
VERTEX
  8
0
 62
7
  6
CONTINUOUS
 10
168.7598222596
 20
181.3479190936
  0
VERTEX
  8
0
 62
7
  6
CONTINUOUS
 10
168.7576184081
 20
181.3245974207
  0
VERTEX
  8
0
 62
7
  6
CONTINUOUS
 10
168.7556474753
 20
181.3019714241
  0
VERTEX
  8
0
 62
7
  6
CONTINUOUS
 10
168.7538546499
 20
181.2797382843
  0
VERTEX
  8
0
 62
7
  6
CONTINUOUS
 10
168.7521994313
 20
181.25765084
  0
VERTEX
  8
0
 62
7
  6
CONTINUOUS
 10
168.7506489677
 20
181.2354675846
  0
VERTEX
  8
0
 62
7
  6
CONTINUOUS
 10
168.7491782594
 20
181.2129788365
  0
VERTEX
  8
0
 62
7
  6
CONTINUOUS
 10
168.74640481
 20
181.1663883992
  0
SEQEND
  0
POLYLINE
  8
0
 62
7
  6
CONTINUOUS
 66
1
 70
0
  0
VERTEX
  8
0
 62
7
  6
CONTINUOUS
 10
137.0613318516
 20
183.0230261019
  0
VERTEX
  8
0
 62
7
  6
CONTINUOUS
 10
136.9416952744
 20
183.0190481291
  0
VERTEX
  8
0
 62
7
  6
CONTINUOUS
 10
136.7934791447
 20
183.002996753
  0
VERTEX
  8
0
 62
7
  6
CONTINUOUS
 10
136.6489944844
 20
182.9751892192
  0
VERTEX
  8
0
 62
7
  6
CONTINUOUS
 10
136.5099013125
 20
182.9365321558
  0
VERTEX
  8
0
 62
7
  6
CONTINUOUS
 10
136.3776808734
 20
182.8882299476
  0
VERTEX
  8
0
 62
7
  6
CONTINUOUS
 10
136.2535931407
 20
182.8317418496
  0
VERTEX
  8
0
 62
7
  6
CONTINUOUS
 10
136.1386362018
 20
182.7687256332
  0
VERTEX
  8
0
 62
7
  6
CONTINUOUS
 10
136.033099687
 20
182.7006791766
  0
VERTEX
  8
0
 62
7
  6
CONTINUOUS
 10
135.9364533037
 20
182.6285701528
  0
VERTEX
  8
0
 62
7
  6
CONTINUOUS
 10
135.8480833903
 20
182.5531169139
  0
VERTEX
  8
0
 62
7
  6
CONTINUOUS
 10
135.7673875669
 20
182.4748462303
  0
VERTEX
  8
0
 62
7
  6
CONTINUOUS
 10
135.6939657014
 20
182.3943139964
  0
VERTEX
  8
0
 62
7
  6
CONTINUOUS
 10
135.6277339339
 20
182.3123810497
  0
VERTEX
  8
0
 62
7
  6
CONTINUOUS
 10
135.5685440233
 20
182.229907194
  0
VERTEX
  8
0
 62
7
  6
CONTINUOUS
 10
135.5161628517
 20
182.1477140216
  0
VERTEX
  8
0
 62
7
  6
CONTINUOUS
 10
135.4703123797
 20
182.0666323197
  0
VERTEX
  8
0
 62
7
  6
CONTINUOUS
 10
135.4308062369
 20
181.9877982901
  0
VERTEX
  8
0
 62
7
  6
CONTINUOUS
 10
135.3973976315
 20
181.9124835014
  0
VERTEX
  8
0
 62
7
  6
CONTINUOUS
 10
135.3696517573
 20
181.8417774486
  0
VERTEX
  8
0
 62
7
  6
CONTINUOUS
 10
135.3469197
 20
181.7762949054
  0
VERTEX
  8
0
 62
7
  6
CONTINUOUS
 10
135.3284959611
 20
181.7163384171
  0
VERTEX
  8
0
 62
7
  6
CONTINUOUS
 10
135.3136754299
 20
181.6619163575
  0
VERTEX
  8
0
 62
7
  6
CONTINUOUS
 10
135.3018022093
 20
181.6128077563
  0
VERTEX
  8
0
 62
7
  6
CONTINUOUS
 10
135.2922401378
 20
181.568348972
  0
VERTEX
  8
0
 62
7
  6
CONTINUOUS
 10
135.2844803513
 20
181.5278622132
  0
VERTEX
  8
0
 62
7
  6
CONTINUOUS
 10
135.2781400209
 20
181.4908021911
  0
VERTEX
  8
0
 62
7
  6
CONTINUOUS
 10
135.2729680567
 20
181.4570178629
  0
VERTEX
  8
0
 62
7
  6
CONTINUOUS
 10
135.2687425641
 20
181.4262933581
  0
VERTEX
  8
0
 62
7
  6
CONTINUOUS
 10
135.2652603707
 20
181.3982552569
  0
VERTEX
  8
0
 62
7
  6
CONTINUOUS
 10
135.2623353291
 20
181.372321656
  0
VERTEX
  8
0
 62
7
  6
CONTINUOUS
 10
135.2598230198
 20
181.3479268071
  0
VERTEX
  8
0
 62
7
  6
CONTINUOUS
 10
135.2576190756
 20
181.3246047872
  0
VERTEX
  8
0
 62
7
  6
CONTINUOUS
 10
135.2556480684
 20
181.3019785124
  0
VERTEX
  8
0
 62
7
  6
CONTINUOUS
 10
135.2538551828
 20
181.2797451516
  0
VERTEX
  8
0
 62
7
  6
CONTINUOUS
 10
135.2521999158
 20
181.2576575403
  0
VERTEX
  8
0
 62
7
  6
CONTINUOUS
 10
135.2506494235
 20
181.235474325
  0
VERTEX
  8
0
 62
7
  6
CONTINUOUS
 10
135.2491786914
 20
181.2129856552
  0
VERTEX
  8
0
 62
7
  6
CONTINUOUS
 10
135.2464052037
 20
181.1663954269
  0
SEQEND
  0
LINE
  8
0
 62
7
  6
CONTINUOUS
 10
149.6091945151
 20
183.0230263158
 11
137.0613318007
 21
183.0230263158
  0
LINE
  8
0
 62
7
  6
CONTINUOUS
 10
116.1891945151
 20
183.0230263158
 11
103.6413318007
 21
183.0230263158
  0
LINE
  8
SURFACE
 62
7
  6
CONTINUOUS
 10
170.5613318005
 20
183.0230263158
 11
183.1802631579
 21
183.0230263158
  0
LINE
  8
0
 62
7
  6
CONTINUOUS
 10
184.9802631579
 20
181.2230263158
 11
184.9802631579
 21
117.0407483025
  0
POLYLINE
  8
SURFACE
 62
7
  6
CONTINUOUS
 66
1
 70
0
  0
VERTEX
  8
SURFACE
 62
7
  6
CONTINUOUS
 10
184.9802631579
 20
117.0407483025
  0
VERTEX
  8
SURFACE
 62
7
  6
CONTINUOUS
 10
184.9742185577
 20
116.8933575858
  0
VERTEX
  8
SURFACE
 62
7
  6
CONTINUOUS
 10
184.9561098371
 20
116.7468629986
  0
VERTEX
  8
SURFACE
 62
7
  6
CONTINUOUS
 10
184.9259235304
 20
116.6018065479
  0
VERTEX
  8
SURFACE
 62
7
  6
CONTINUOUS
 10
184.8837304147
 20
116.4591992462
  0
VERTEX
  8
SURFACE
 62
7
  6
CONTINUOUS
 10
184.8302161744
 20
116.3212658195
  0
VERTEX
  8
SURFACE
 62
7
  6
CONTINUOUS
 10
184.7646547961
 20
116.1865216717
  0
VERTEX
  8
SURFACE
 62
7
  6
CONTINUOUS
 10
184.6886019557
 20
116.0584479049
  0
VERTEX
  8
SURFACE
 62
7
  6
CONTINUOUS
 10
184.602044797
 20
115.9368746817
  0
VERTEX
  8
SURFACE
 62
7
  6
CONTINUOUS
 10
184.5051806951
 20
115.8223093341
  0
VERTEX
  8
SURFACE
 62
7
  6
CONTINUOUS
 10
184.4003555868
 20
115.71735325
  0
VERTEX
  8
SURFACE
 62
7
  6
CONTINUOUS
 10
184.2853046082
 20
115.6198741374
  0
VERTEX
  8
SURFACE
 62
7
  6
CONTINUOUS
 10
184.1641175259
 20
115.5334226633
  0
VERTEX
  8
SURFACE
 62
7
  6
CONTINUOUS
 10
184.0353886493
 20
115.4568416152
  0
VERTEX
  8
SURFACE
 62
7
  6
CONTINUOUS
 10
183.9013305881
 20
115.3914873283
  0
VERTEX
  8
SURFACE
 62
7
  6
CONTINUOUS
 10
183.7626655532
 20
115.3375726069
  0
VERTEX
  8
SURFACE
 62
7
  6
CONTINUOUS
 10
183.619854897
 20
115.2952514956
  0
VERTEX
  8
SURFACE
 62
7
  6
CONTINUOUS
 10
183.4749329463
 20
115.2650316258
  0
VERTEX
  8
SURFACE
 62
7
  6
CONTINUOUS
 10
183.3277532946
 20
115.2468010737
  0
VERTEX
  8
SURFACE
 62
7
  6
CONTINUOUS
 10
183.1802631579
 20
115.2407483025
  0
SEQEND
  0
POLYLINE
  8
0
 62
7
  6
CONTINUOUS
 66
1
 70
0
  0
VERTEX
  8
0
 62
7
  6
CONTINUOUS
 10
103.6413318516
 20
183.0230261019
  0
VERTEX
  8
0
 62
7
  6
CONTINUOUS
 10
103.5216952744
 20
183.0190481291
  0
VERTEX
  8
0
 62
7
  6
CONTINUOUS
 10
103.3734791447
 20
183.002996753
  0
VERTEX
  8
0
 62
7
  6
CONTINUOUS
 10
103.2289944844
 20
182.9751892192
  0
VERTEX
  8
0
 62
7
  6
CONTINUOUS
 10
103.0899013125
 20
182.9365321558
  0
VERTEX
  8
0
 62
7
  6
CONTINUOUS
 10
102.9576808734
 20
182.8882299476
  0
VERTEX
  8
0
 62
7
  6
CONTINUOUS
 10
102.8335931407
 20
182.8317418496
  0
VERTEX
  8
0
 62
7
  6
CONTINUOUS
 10
102.7186362018
 20
182.7687256332
  0
VERTEX
  8
0
 62
7
  6
CONTINUOUS
 10
102.613099687
 20
182.7006791766
  0
VERTEX
  8
0
 62
7
  6
CONTINUOUS
 10
102.5164533037
 20
182.6285701528
  0
VERTEX
  8
0
 62
7
  6
CONTINUOUS
 10
102.4280833903
 20
182.5531169139
  0
VERTEX
  8
0
 62
7
  6
CONTINUOUS
 10
102.3473875669
 20
182.4748462303
  0
VERTEX
  8
0
 62
7
  6
CONTINUOUS
 10
102.2739657014
 20
182.3943139964
  0
VERTEX
  8
0
 62
7
  6
CONTINUOUS
 10
102.2077339339
 20
182.3123810497
  0
VERTEX
  8
0
 62
7
  6
CONTINUOUS
 10
102.1485440233
 20
182.229907194
  0
VERTEX
  8
0
 62
7
  6
CONTINUOUS
 10
102.0961628517
 20
182.1477140216
  0
VERTEX
  8
0
 62
7
  6
CONTINUOUS
 10
102.0503123797
 20
182.0666323197
  0
VERTEX
  8
0
 62
7
  6
CONTINUOUS
 10
102.0108062369
 20
181.9877982901
  0
VERTEX
  8
0
 62
7
  6
CONTINUOUS
 10
101.9773976315
 20
181.9124835014
  0
VERTEX
  8
0
 62
7
  6
CONTINUOUS
 10
101.9496517573
 20
181.8417774486
  0
VERTEX
  8
0
 62
7
  6
CONTINUOUS
 10
101.9269197
 20
181.7762949054
  0
VERTEX
  8
0
 62
7
  6
CONTINUOUS
 10
101.9084959611
 20
181.7163384171
  0
VERTEX
  8
0
 62
7
  6
CONTINUOUS
 10
101.8936754299
 20
181.6619163575
  0
VERTEX
  8
0
 62
7
  6
CONTINUOUS
 10
101.8818022093
 20
181.6128077563
  0
VERTEX
  8
0
 62
7
  6
CONTINUOUS
 10
101.8722401378
 20
181.568348972
  0
VERTEX
  8
0
 62
7
  6
CONTINUOUS
 10
101.8644803513
 20
181.5278622132
  0
VERTEX
  8
0
 62
7
  6
CONTINUOUS
 10
101.8581400209
 20
181.4908021911
  0
VERTEX
  8
0
 62
7
  6
CONTINUOUS
 10
101.8529680567
 20
181.4570178629
  0
VERTEX
  8
0
 62
7
  6
CONTINUOUS
 10
101.8487425641
 20
181.4262933581
  0
VERTEX
  8
0
 62
7
  6
CONTINUOUS
 10
101.8452603707
 20
181.3982552569
  0
VERTEX
  8
0
 62
7
  6
CONTINUOUS
 10
101.8423353291
 20
181.3723216559
  0
VERTEX
  8
0
 62
7
  6
CONTINUOUS
 10
101.8398230198
 20
181.3479268071
  0
VERTEX
  8
0
 62
7
  6
CONTINUOUS
 10
101.8376190756
 20
181.3246047872
  0
VERTEX
  8
0
 62
7
  6
CONTINUOUS
 10
101.8356480684
 20
181.3019785124
  0
VERTEX
  8
0
 62
7
  6
CONTINUOUS
 10
101.8338551828
 20
181.2797451516
  0
VERTEX
  8
0
 62
7
  6
CONTINUOUS
 10
101.8321999158
 20
181.2576575403
  0
VERTEX
  8
0
 62
7
  6
CONTINUOUS
 10
101.8306494235
 20
181.235474325
  0
VERTEX
  8
0
 62
7
  6
CONTINUOUS
 10
101.8291786914
 20
181.2129856552
  0
VERTEX
  8
0
 62
7
  6
CONTINUOUS
 10
101.8264052037
 20
181.1663954269
  0
SEQEND
  0
LINE
  8
SURFACE
 62
7
  6
CONTINUOUS
 10
84.9802631579
 20
234.8217107878
 11
84.9802631579
 21
208.4217107878
  0
LINE
  8
0
 62
7
  6
CONTINUOUS
 10
88.0802631579
 20
238.3868194818
 11
88.0802631579
 21
245.1217089193
  0
POLYLINE
  8
SURFACE
 62
7
  6
CONTINUOUS
 66
1
 70
0
  0
VERTEX
  8
SURFACE
 62
7
  6
CONTINUOUS
 10
88.0675032055
 20
238.1728730857
  0
VERTEX
  8
SURFACE
 62
7
  6
CONTINUOUS
 10
88.0596228705
 20
238.1150124717
  0
VERTEX
  8
SURFACE
 62
7
  6
CONTINUOUS
 10
88.0322522116
 20
237.9738614133
  0
VERTEX
  8
SURFACE
 62
7
  6
CONTINUOUS
 10
87.993703012
 20
237.8353452312
  0
VERTEX
  8
SURFACE
 62
7
  6
CONTINUOUS
 10
87.944221163
 20
237.7003475512
  0
VERTEX
  8
SURFACE
 62
7
  6
CONTINUOUS
 10
87.8841222552
 20
237.5697295715
  0
VERTEX
  8
SURFACE
 62
7
  6
CONTINUOUS
 10
87.8137896513
 20
237.4443247122
  0
VERTEX
  8
SURFACE
 62
7
  6
CONTINUOUS
 10
87.7336724691
 20
237.3249337809
  0
VERTEX
  8
SURFACE
 62
7
  6
CONTINUOUS
 10
87.6442826016
 20
237.2123192492
  0
VERTEX
  8
SURFACE
 62
7
  6
CONTINUOUS
 10
87.5461908514
 20
237.1071996609
  0
VERTEX
  8
SURFACE
 62
7
  6
CONTINUOUS
 10
87.440021231
 20
237.0102436591
  0
VERTEX
  8
SURFACE
 62
7
  6
CONTINUOUS
 10
87.3264479042
 20
236.9220678871
  0
VERTEX
  8
SURFACE
 62
7
  6
CONTINUOUS
 10
87.2061936557
 20
236.8432351965
  0
VERTEX
  8
SURFACE
 62
7
  6
CONTINUOUS
 10
87.080035219
 20
236.774254953
  0
VERTEX
  8
SURFACE
 62
7
  6
CONTINUOUS
 10
86.948791526
 20
236.7155715924
  0
VERTEX
  8
SURFACE
 62
7
  6
CONTINUOUS
 10
86.8133330612
 20
236.6675649504
  0
VERTEX
  8
SURFACE
 62
7
  6
CONTINUOUS
 10
86.6745057943
 20
236.6305244077
  0
VERTEX
  8
SURFACE
 62
7
  6
CONTINUOUS
 10
86.533203543
 20
236.6046801011
  0
SEQEND
  0
LINE
  8
SURFACE
 62
7
  6
CONTINUOUS
 10
101.3144058751
 20
234.8059913873
 11
101.0838458751
 21
208.4059913873
  0
LINE
  8
SURFACE
 62
7
  6
CONTINUOUS
 10
101.6521585928
 20
243.7847017413
 11
101.6556416678
 21
243.885415952
  0
POLYLINE
  8
SURFACE
 62
7
  6
CONTINUOUS
 66
1
 70
0
  0
VERTEX
  8
SURFACE
 62
7
  6
CONTINUOUS
 10
107.1748846132
 20
243.8854162885
  0
VERTEX
  8
SURFACE
 62
7
  6
CONTINUOUS
 10
107.1784280505
 20
243.7898517327
  0
VERTEX
  8
SURFACE
 62
7
  6
CONTINUOUS
 10
107.171914643
 20
243.6756719911
  0
VERTEX
  8
SURFACE
 62
7
  6
CONTINUOUS
 10
107.1543149839
 20
243.5527773907
  0
VERTEX
  8
SURFACE
 62
7
  6
CONTINUOUS
 10
107.1259743415
 20
243.4239999368
  0
VERTEX
  8
SURFACE
 62
7
  6
CONTINUOUS
 10
107.0876799389
 20
243.2918081689
  0
VERTEX
  8
SURFACE
 62
7
  6
CONTINUOUS
 10
107.0404641227
 20
243.158312406
  0
VERTEX
  8
SURFACE
 62
7
  6
CONTINUOUS
 10
106.9854376712
 20
243.0251957531
  0
VERTEX
  8
SURFACE
 62
7
  6
CONTINUOUS
 10
106.9235920416
 20
242.8935620156
  0
VERTEX
  8
SURFACE
 62
7
  6
CONTINUOUS
 10
106.8556873274
 20
242.7639950252
  0
VERTEX
  8
SURFACE
 62
7
  6
CONTINUOUS
 10
106.7823001655
 20
242.6368230104
  0
VERTEX
  8
SURFACE
 62
7
  6
CONTINUOUS
 10
106.7038646318
 20
242.5122465596
  0
VERTEX
  8
SURFACE
 62
7
  6
CONTINUOUS
 10
106.6209020343
 20
242.3906906863
  0
VERTEX
  8
SURFACE
 62
7
  6
CONTINUOUS
 10
106.5339258951
 20
242.272579487
  0
VERTEX
  8
SURFACE
 62
7
  6
CONTINUOUS
 10
106.4433763863
 20
242.1582465547
  0
VERTEX
  8
SURFACE
 62
7
  6
CONTINUOUS
 10
106.3496660108
 20
242.0480036644
  0
VERTEX
  8
SURFACE
 62
7
  6
CONTINUOUS
 10
106.2531607178
 20
241.9421172004
  0
VERTEX
  8
SURFACE
 62
7
  6
CONTINUOUS
 10
106.1543289327
 20
241.8409640027
  0
VERTEX
  8
SURFACE
 62
7
  6
CONTINUOUS
 10
106.0537780518
 20
241.7450182455
  0
VERTEX
  8
SURFACE
 62
7
  6
CONTINUOUS
 10
105.9521755522
 20
241.6547383029
  0
VERTEX
  8
SURFACE
 62
7
  6
CONTINUOUS
 10
105.8500114504
 20
241.5703547324
  0
VERTEX
  8
SURFACE
 62
7
  6
CONTINUOUS
 10
105.7472765457
 20
241.4916907004
  0
VERTEX
  8
SURFACE
 62
7
  6
CONTINUOUS
 10
105.6438753313
 20
241.4185774095
  0
VERTEX
  8
SURFACE
 62
7
  6
CONTINUOUS
 10
105.5396191632
 20
241.350862726
  0
VERTEX
  8
SURFACE
 62
7
  6
CONTINUOUS
 10
105.4343587941
 20
241.2885089532
  0
VERTEX
  8
SURFACE
 62
7
  6
CONTINUOUS
 10
105.3281603269
 20
241.2316615527
  0
VERTEX
  8
SURFACE
 62
7
  6
CONTINUOUS
 10
105.2210557437
 20
241.1804714827
  0
VERTEX
  8
SURFACE
 62
7
  6
CONTINUOUS
 10
105.1130325256
 20
241.1351004209
  0
VERTEX
  8
SURFACE
 62
7
  6
CONTINUOUS
 10
105.0041406722
 20
241.0957645182
  0
VERTEX
  8
SURFACE
 62
7
  6
CONTINUOUS
 10
104.8952262194
 20
241.0629091789
  0
VERTEX
  8
SURFACE
 62
7
  6
CONTINUOUS
 10
104.7874124548
 20
241.036850668
  0
VERTEX
  8
SURFACE
 62
7
  6
CONTINUOUS
 10
104.6817844346
 20
241.0176320734
  0
VERTEX
  8
SURFACE
 62
7
  6
CONTINUOUS
 10
104.5788535459
 20
241.0049775005
  0
VERTEX
  8
SURFACE
 62
7
  6
CONTINUOUS
 10
104.4775349664
 20
240.9984223072
  0
VERTEX
  8
SURFACE
 62
7
  6
CONTINUOUS
 10
104.3763104502
 20
240.9977455604
  0
VERTEX
  8
SURFACE
 62
7
  6
CONTINUOUS
 10
104.2738036245
 20
241.003044623
  0
VERTEX
  8
SURFACE
 62
7
  6
CONTINUOUS
 10
104.1693761739
 20
241.0146129613
  0
VERTEX
  8
SURFACE
 62
7
  6
CONTINUOUS
 10
104.0626282099
 20
241.0328275
  0
VERTEX
  8
SURFACE
 62
7
  6
CONTINUOUS
 10
103.953449828
 20
241.0580700682
  0
VERTEX
  8
SURFACE
 62
7
  6
CONTINUOUS
 10
103.8423844754
 20
241.0905300683
  0
VERTEX
  8
SURFACE
 62
7
  6
CONTINUOUS
 10
103.7303718778
 20
241.130112418
  0
VERTEX
  8
SURFACE
 62
7
  6
CONTINUOUS
 10
103.6183012282
 20
241.1765262757
  0
VERTEX
  8
SURFACE
 62
7
  6
CONTINUOUS
 10
103.506591309
 20
241.2295252261
  0
VERTEX
  8
SURFACE
 62
7
  6
CONTINUOUS
 10
103.395539471
 20
241.2888632759
  0
VERTEX
  8
SURFACE
 62
7
  6
CONTINUOUS
 10
103.2854487363
 20
241.3542600743
  0
VERTEX
  8
SURFACE
 62
7
  6
CONTINUOUS
 10
103.1765924893
 20
241.4254271984
  0
VERTEX
  8
SURFACE
 62
7
  6
CONTINUOUS
 10
103.0688065201
 20
241.502383488
  0
VERTEX
  8
SURFACE
 62
7
  6
CONTINUOUS
 10
102.9618003569
 20
241.585345567
  0
VERTEX
  8
SURFACE
 62
7
  6
CONTINUOUS
 10
102.8553948887
 20
241.6745699774
  0
VERTEX
  8
SURFACE
 62
7
  6
CONTINUOUS
 10
102.749640788
 20
241.7702208057
  0
VERTEX
  8
SURFACE
 62
7
  6
CONTINUOUS
 10
102.6452033184
 20
241.8719306571
  0
VERTEX
  8
SURFACE
 62
7
  6
CONTINUOUS
 10
102.5428495501
 20
241.9791471031
  0
VERTEX
  8
SURFACE
 62
7
  6
CONTINUOUS
 10
102.4432427102
 20
242.0913333595
  0
VERTEX
  8
SURFACE
 62
7
  6
CONTINUOUS
 10
102.3468485448
 20
242.2081256283
  0
VERTEX
  8
SURFACE
 62
7
  6
CONTINUOUS
 10
102.2540897831
 20
242.3292139026
  0
VERTEX
  8
SURFACE
 62
7
  6
CONTINUOUS
 10
102.1654470329
 20
242.4542358019
  0
VERTEX
  8
SURFACE
 62
7
  6
CONTINUOUS
 10
102.0814634071
 20
242.5827558699
  0
VERTEX
  8
SURFACE
 62
7
  6
CONTINUOUS
 10
102.0027256779
 20
242.7142903253
  0
VERTEX
  8
SURFACE
 62
7
  6
CONTINUOUS
 10
101.9297659082
 20
242.8484986159
  0
VERTEX
  8
SURFACE
 62
7
  6
CONTINUOUS
 10
101.8631479171
 20
242.985117595
  0
VERTEX
  8
SURFACE
 62
7
  6
CONTINUOUS
 10
101.8036575453
 20
243.1236191948
  0
VERTEX
  8
SURFACE
 62
7
  6
CONTINUOUS
 10
101.7523609552
 20
243.2629197912
  0
VERTEX
  8
SURFACE
 62
7
  6
CONTINUOUS
 10
101.7105170948
 20
243.4012161997
  0
VERTEX
  8
SURFACE
 62
7
  6
CONTINUOUS
 10
101.6793260731
 20
243.5361858281
  0
VERTEX
  8
SURFACE
 62
7
  6
CONTINUOUS
 10
101.6597261557
 20
243.6650741944
  0
VERTEX
  8
SURFACE
 62
7
  6
CONTINUOUS
 10
101.6521585928
 20
243.7847017413
  0
SEQEND
  0
LINE
  8
SURFACE
 62
7
  6
CONTINUOUS
 10
112.6521585928
 20
243.7847017413
 11
112.6556416678
 21
243.885415952
  0
LINE
  8
0
 62
7
  6
CONTINUOUS
 10
99.726936418
 20
206.6217107878
 11
99.2839145152
 21
206.6217107878
  0
LINE
  8
SURFACE
 62
7
  6
CONTINUOUS
 10
86.7802631579
 20
206.6217107878
 11
183.1802631579
 21
206.6217107878
  0
LINE
  8
SURFACE
 62
7
  6
CONTINUOUS
 10
89.4802631579
 20
208.2895512216
 11
90.9802631608
 21
208.2895512216
  0
POLYLINE
  8
SURFACE
 62
7
  6
CONTINUOUS
 66
1
 70
0
  0
VERTEX
  8
SURFACE
 62
7
  6
CONTINUOUS
 10
90.9802631608
 20
208.2895515257
  0
VERTEX
  8
SURFACE
 62
7
  6
CONTINUOUS
 10
91.059481658
 20
208.2885223724
  0
VERTEX
  8
SURFACE
 62
7
  6
CONTINUOUS
 10
91.1561914061
 20
208.2844703223
  0
VERTEX
  8
SURFACE
 62
7
  6
CONTINUOUS
 10
91.2532161952
 20
208.2772917814
  0
VERTEX
  8
SURFACE
 62
7
  6
CONTINUOUS
 10
91.3502780921
 20
208.26694415
  0
VERTEX
  8
SURFACE
 62
7
  6
CONTINUOUS
 10
91.4470620721
 20
208.2534023455
  0
VERTEX
  8
SURFACE
 62
7
  6
CONTINUOUS
 10
91.5431988583
 20
208.2366645531
  0
VERTEX
  8
SURFACE
 62
7
  6
CONTINUOUS
 10
91.6381700922
 20
208.2167785865
  0
VERTEX
  8
SURFACE
 62
7
  6
CONTINUOUS
 10
91.7310081818
 20
208.1939423232
  0
VERTEX
  8
SURFACE
 62
7
  6
CONTINUOUS
 10
91.8204045707
 20
208.168551384
  0
VERTEX
  8
SURFACE
 62
7
  6
CONTINUOUS
 10
91.9050045772
 20
208.1411664083
  0
VERTEX
  8
SURFACE
 62
7
  6
CONTINUOUS
 10
91.9830963763
 20
208.1126508394
  0
VERTEX
  8
SURFACE
 62
7
  6
CONTINUOUS
 10
92.0530279751
 20
208.0840846583
  0
VERTEX
  8
SURFACE
 62
7
  6
CONTINUOUS
 10
92.1135273034
 20
208.0566285699
  0
VERTEX
  8
SURFACE
 62
7
  6
CONTINUOUS
 10
92.1637072705
 20
208.0314721493
  0
VERTEX
  8
SURFACE
 62
7
  6
CONTINUOUS
 10
92.2032644202
 20
208.0096701063
  0
VERTEX
  8
SURFACE
 62
7
  6
CONTINUOUS
 10
92.2325149658
 20
207.9920141418
  0
VERTEX
  8
SURFACE
 62
7
  6
CONTINUOUS
 10
92.2520737722
 20
207.9791228401
  0
VERTEX
  8
SURFACE
 62
7
  6
CONTINUOUS
 10
92.2627660574
 20
207.9714508796
  0
VERTEX
  8
SURFACE
 62
7
  6
CONTINUOUS
 10
92.2649310635
 20
207.9697926014
  0
SEQEND
  0
POLYLINE
  8
SURFACE
 62
7
  6
CONTINUOUS
 66
1
 70
0
  0
VERTEX
  8
SURFACE
 62
7
  6
CONTINUOUS
 10
118.1748846132
 20
243.8854162885
  0
VERTEX
  8
SURFACE
 62
7
  6
CONTINUOUS
 10
118.1784280505
 20
243.7898517327
  0
VERTEX
  8
SURFACE
 62
7
  6
CONTINUOUS
 10
118.171914643
 20
243.6756719911
  0
VERTEX
  8
SURFACE
 62
7
  6
CONTINUOUS
 10
118.1543149839
 20
243.5527773907
  0
VERTEX
  8
SURFACE
 62
7
  6
CONTINUOUS
 10
118.1259743415
 20
243.4239999368
  0
VERTEX
  8
SURFACE
 62
7
  6
CONTINUOUS
 10
118.0876799389
 20
243.2918081689
  0
VERTEX
  8
SURFACE
 62
7
  6
CONTINUOUS
 10
118.0404641227
 20
243.158312406
  0
VERTEX
  8
SURFACE
 62
7
  6
CONTINUOUS
 10
117.9854376712
 20
243.0251957531
  0
VERTEX
  8
SURFACE
 62
7
  6
CONTINUOUS
 10
117.9235920416
 20
242.8935620156
  0
VERTEX
  8
SURFACE
 62
7
  6
CONTINUOUS
 10
117.8556873274
 20
242.7639950252
  0
VERTEX
  8
SURFACE
 62
7
  6
CONTINUOUS
 10
117.7823001655
 20
242.6368230104
  0
VERTEX
  8
SURFACE
 62
7
  6
CONTINUOUS
 10
117.7038646318
 20
242.5122465596
  0
VERTEX
  8
SURFACE
 62
7
  6
CONTINUOUS
 10
117.6209020343
 20
242.3906906863
  0
VERTEX
  8
SURFACE
 62
7
  6
CONTINUOUS
 10
117.5339258951
 20
242.272579487
  0
VERTEX
  8
SURFACE
 62
7
  6
CONTINUOUS
 10
117.4433763863
 20
242.1582465547
  0
VERTEX
  8
SURFACE
 62
7
  6
CONTINUOUS
 10
117.3496660108
 20
242.0480036644
  0
VERTEX
  8
SURFACE
 62
7
  6
CONTINUOUS
 10
117.2531607178
 20
241.9421172004
  0
VERTEX
  8
SURFACE
 62
7
  6
CONTINUOUS
 10
117.1543289327
 20
241.8409640027
  0
VERTEX
  8
SURFACE
 62
7
  6
CONTINUOUS
 10
117.0537780518
 20
241.7450182455
  0
VERTEX
  8
SURFACE
 62
7
  6
CONTINUOUS
 10
116.9521755522
 20
241.6547383029
  0
VERTEX
  8
SURFACE
 62
7
  6
CONTINUOUS
 10
116.8500114504
 20
241.5703547324
  0
VERTEX
  8
SURFACE
 62
7
  6
CONTINUOUS
 10
116.7472765457
 20
241.4916907004
  0
VERTEX
  8
SURFACE
 62
7
  6
CONTINUOUS
 10
116.6438753313
 20
241.4185774095
  0
VERTEX
  8
SURFACE
 62
7
  6
CONTINUOUS
 10
116.5396191632
 20
241.350862726
  0
VERTEX
  8
SURFACE
 62
7
  6
CONTINUOUS
 10
116.4343587941
 20
241.2885089532
  0
VERTEX
  8
SURFACE
 62
7
  6
CONTINUOUS
 10
116.3281603269
 20
241.2316615527
  0
VERTEX
  8
SURFACE
 62
7
  6
CONTINUOUS
 10
116.2210557437
 20
241.1804714827
  0
VERTEX
  8
SURFACE
 62
7
  6
CONTINUOUS
 10
116.1130325256
 20
241.135100421
  0
VERTEX
  8
SURFACE
 62
7
  6
CONTINUOUS
 10
116.0041406722
 20
241.0957645182
  0
VERTEX
  8
SURFACE
 62
7
  6
CONTINUOUS
 10
115.8952262194
 20
241.0629091789
  0
VERTEX
  8
SURFACE
 62
7
  6
CONTINUOUS
 10
115.7874124548
 20
241.036850668
  0
VERTEX
  8
SURFACE
 62
7
  6
CONTINUOUS
 10
115.6817844346
 20
241.0176320734
  0
VERTEX
  8
SURFACE
 62
7
  6
CONTINUOUS
 10
115.5788535459
 20
241.0049775005
  0
VERTEX
  8
SURFACE
 62
7
  6
CONTINUOUS
 10
115.4775349664
 20
240.9984223072
  0
VERTEX
  8
SURFACE
 62
7
  6
CONTINUOUS
 10
115.3763104502
 20
240.9977455604
  0
VERTEX
  8
SURFACE
 62
7
  6
CONTINUOUS
 10
115.2738036245
 20
241.003044623
  0
VERTEX
  8
SURFACE
 62
7
  6
CONTINUOUS
 10
115.1693761739
 20
241.0146129613
  0
VERTEX
  8
SURFACE
 62
7
  6
CONTINUOUS
 10
115.0626282099
 20
241.0328275
  0
VERTEX
  8
SURFACE
 62
7
  6
CONTINUOUS
 10
114.953449828
 20
241.0580700682
  0
VERTEX
  8
SURFACE
 62
7
  6
CONTINUOUS
 10
114.8423844754
 20
241.0905300683
  0
VERTEX
  8
SURFACE
 62
7
  6
CONTINUOUS
 10
114.7303718778
 20
241.130112418
  0
VERTEX
  8
SURFACE
 62
7
  6
CONTINUOUS
 10
114.6183012282
 20
241.1765262757
  0
VERTEX
  8
SURFACE
 62
7
  6
CONTINUOUS
 10
114.506591309
 20
241.2295252261
  0
VERTEX
  8
SURFACE
 62
7
  6
CONTINUOUS
 10
114.395539471
 20
241.2888632759
  0
VERTEX
  8
SURFACE
 62
7
  6
CONTINUOUS
 10
114.2854487363
 20
241.3542600743
  0
VERTEX
  8
SURFACE
 62
7
  6
CONTINUOUS
 10
114.1765924893
 20
241.4254271984
  0
VERTEX
  8
SURFACE
 62
7
  6
CONTINUOUS
 10
114.0688065201
 20
241.502383488
  0
VERTEX
  8
SURFACE
 62
7
  6
CONTINUOUS
 10
113.9618003569
 20
241.585345567
  0
VERTEX
  8
SURFACE
 62
7
  6
CONTINUOUS
 10
113.8553948887
 20
241.6745699774
  0
VERTEX
  8
SURFACE
 62
7
  6
CONTINUOUS
 10
113.749640788
 20
241.7702208057
  0
VERTEX
  8
SURFACE
 62
7
  6
CONTINUOUS
 10
113.6452033184
 20
241.8719306571
  0
VERTEX
  8
SURFACE
 62
7
  6
CONTINUOUS
 10
113.5428495501
 20
241.9791471031
  0
VERTEX
  8
SURFACE
 62
7
  6
CONTINUOUS
 10
113.4432427102
 20
242.0913333595
  0
VERTEX
  8
SURFACE
 62
7
  6
CONTINUOUS
 10
113.3468485448
 20
242.2081256283
  0
VERTEX
  8
SURFACE
 62
7
  6
CONTINUOUS
 10
113.2540897831
 20
242.3292139026
  0
VERTEX
  8
SURFACE
 62
7
  6
CONTINUOUS
 10
113.1654470329
 20
242.4542358019
  0
VERTEX
  8
SURFACE
 62
7
  6
CONTINUOUS
 10
113.0814634071
 20
242.5827558699
  0
VERTEX
  8
SURFACE
 62
7
  6
CONTINUOUS
 10
113.0027256779
 20
242.7142903253
  0
VERTEX
  8
SURFACE
 62
7
  6
CONTINUOUS
 10
112.9297659082
 20
242.8484986159
  0
VERTEX
  8
SURFACE
 62
7
  6
CONTINUOUS
 10
112.8631479171
 20
242.985117595
  0
VERTEX
  8
SURFACE
 62
7
  6
CONTINUOUS
 10
112.8036575453
 20
243.1236191948
  0
VERTEX
  8
SURFACE
 62
7
  6
CONTINUOUS
 10
112.7523609552
 20
243.2629197912
  0
VERTEX
  8
SURFACE
 62
7
  6
CONTINUOUS
 10
112.7105170948
 20
243.4012161997
  0
VERTEX
  8
SURFACE
 62
7
  6
CONTINUOUS
 10
112.6793260731
 20
243.5361858281
  0
VERTEX
  8
SURFACE
 62
7
  6
CONTINUOUS
 10
112.6597261557
 20
243.6650741944
  0
VERTEX
  8
SURFACE
 62
7
  6
CONTINUOUS
 10
112.6521585928
 20
243.7847017413
  0
SEQEND
  0
LINE
  8
SURFACE
 62
7
  6
CONTINUOUS
 10
118.6666804407
 20
208.4059913873
 11
118.4361204407
 21
234.8059913873
  0
POLYLINE
  8
SURFACE
 62
7
  6
CONTINUOUS
 66
1
 70
0
  0
VERTEX
  8
SURFACE
 62
7
  6
CONTINUOUS
 10
88.1957923559
 20
207.9699910095
  0
VERTEX
  8
SURFACE
 62
7
  6
CONTINUOUS
 10
88.1949133031
 20
207.9692534965
  0
VERTEX
  8
SURFACE
 62
7
  6
CONTINUOUS
 10
88.1977074883
 20
207.9714111
  0
VERTEX
  8
SURFACE
 62
7
  6
CONTINUOUS
 10
88.2083154696
 20
207.9790281781
  0
VERTEX
  8
SURFACE
 62
7
  6
CONTINUOUS
 10
88.2277522314
 20
207.9918500466
  0
VERTEX
  8
SURFACE
 62
7
  6
CONTINUOUS
 10
88.2568932059
 20
208.0094568181
  0
VERTEX
  8
SURFACE
 62
7
  6
CONTINUOUS
 10
88.2964602161
 20
208.0312831313
  0
VERTEX
  8
SURFACE
 62
7
  6
CONTINUOUS
 10
88.3465893525
 20
208.0564327086
  0
VERTEX
  8
SURFACE
 62
7
  6
CONTINUOUS
 10
88.4069259597
 20
208.083837553
  0
VERTEX
  8
SURFACE
 62
7
  6
CONTINUOUS
 10
88.4766966234
 20
208.1123668943
  0
VERTEX
  8
SURFACE
 62
7
  6
CONTINUOUS
 10
88.554684361
 20
208.1408778255
  0
VERTEX
  8
SURFACE
 62
7
  6
CONTINUOUS
 10
88.6392621699
 20
208.1682901393
  0
VERTEX
  8
SURFACE
 62
7
  6
CONTINUOUS
 10
88.7285921049
 20
208.1936969
  0
VERTEX
  8
SURFACE
 62
7
  6
CONTINUOUS
 10
88.8213284758
 20
208.2165445537
  0
VERTEX
  8
SURFACE
 62
7
  6
CONTINUOUS
 10
88.91621315
 20
208.2364508064
  0
VERTEX
  8
SURFACE
 62
7
  6
CONTINUOUS
 10
89.0123027226
 20
208.2532198031
  0
VERTEX
  8
SURFACE
 62
7
  6
CONTINUOUS
 10
89.1090674536
 20
208.266798379
  0
VERTEX
  8
SURFACE
 62
7
  6
CONTINUOUS
 10
89.2061193412
 20
208.2771840252
  0
VERTEX
  8
SURFACE
 62
7
  6
CONTINUOUS
 10
89.3031206008
 20
208.2843998421
  0
VERTEX
  8
SURFACE
 62
7
  6
CONTINUOUS
 10
89.3997673442
 20
208.2884889886
  0
VERTEX
  8
SURFACE
 62
7
  6
CONTINUOUS
 10
89.4802631579
 20
208.2895516833
  0
SEQEND
  0
LINE
  8
DEFAULT_1
 62
2
  6
CENTER
 10
80.4802631579
 20
221.6217107878
 11
189.4802631579
 21
221.6217107878
  0
LINE
  8
SURFACE
 62
7
  6
CONTINUOUS
 10
134.8144058751
 20
234.8059913873
 11
134.5838458751
 21
208.4059913873
  0
LINE
  8
SURFACE
 62
7
  6
CONTINUOUS
 10
135.0721585928
 20
243.7847017413
 11
135.0756416678
 21
243.885415952
  0
POLYLINE
  8
SURFACE
 62
7
  6
CONTINUOUS
 66
1
 70
0
  0
VERTEX
  8
SURFACE
 62
7
  6
CONTINUOUS
 10
168.6771145995
 20
231.3335996392
  0
VERTEX
  8
SURFACE
 62
7
  6
CONTINUOUS
 10
168.9813193733
 20
231.3394817771
  0
VERTEX
  8
SURFACE
 62
7
  6
CONTINUOUS
 10
169.2854369984
 20
231.3547055533
  0
VERTEX
  8
SURFACE
 62
7
  6
CONTINUOUS
 10
169.5955469297
 20
231.376156755
  0
VERTEX
  8
SURFACE
 62
7
  6
CONTINUOUS
 10
169.9052711753
 20
231.3998870434
  0
VERTEX
  8
SURFACE
 62
7
  6
CONTINUOUS
 10
170.2078547625
 20
231.4218681641
  0
VERTEX
  8
SURFACE
 62
7
  6
CONTINUOUS
 10
170.4966534901
 20
231.4388653154
  0
VERTEX
  8
SURFACE
 62
7
  6
CONTINUOUS
 10
170.7713457498
 20
231.4493051364
  0
VERTEX
  8
SURFACE
 62
7
  6
CONTINUOUS
 10
171.0386536115
 20
231.4528029475
  0
VERTEX
  8
SURFACE
 62
7
  6
CONTINUOUS
 10
171.3059313454
 20
231.4492844466
  0
VERTEX
  8
SURFACE
 62
7
  6
CONTINUOUS
 10
171.5805691288
 20
231.438828736
  0
VERTEX
  8
SURFACE
 62
7
  6
CONTINUOUS
 10
171.8693148982
 20
231.4218218849
  0
VERTEX
  8
SURFACE
 62
7
  6
CONTINUOUS
 10
172.171799511
 20
231.3998419221
  0
VERTEX
  8
SURFACE
 62
7
  6
CONTINUOUS
 10
172.481391249
 20
231.3761224865
  0
VERTEX
  8
SURFACE
 62
7
  6
CONTINUOUS
 10
172.791359804
 20
231.3546861016
  0
VERTEX
  8
SURFACE
 62
7
  6
CONTINUOUS
 10
173.0953511446
 20
231.3394748074
  0
SEQEND
  0
POLYLINE
  8
SURFACE
 62
7
  6
CONTINUOUS
 66
1
 70
0
  0
VERTEX
  8
SURFACE
 62
7
  6
CONTINUOUS
 10
146.4741375489
 20
231.3335996392
  0
VERTEX
  8
SURFACE
 62
7
  6
CONTINUOUS
 10
146.7783423221
 20
231.3394817771
  0
VERTEX
  8
SURFACE
 62
7
  6
CONTINUOUS
 10
147.0824599472
 20
231.3547055533
  0
VERTEX
  8
SURFACE
 62
7
  6
CONTINUOUS
 10
147.3925698784
 20
231.3761567551
  0
VERTEX
  8
SURFACE
 62
7
  6
CONTINUOUS
 10
147.702294124
 20
231.3998870434
  0
VERTEX
  8
SURFACE
 62
7
  6
CONTINUOUS
 10
148.0048777111
 20
231.4218681641
  0
VERTEX
  8
SURFACE
 62
7
  6
CONTINUOUS
 10
148.2936764386
 20
231.4388653154
  0
VERTEX
  8
SURFACE
 62
7
  6
CONTINUOUS
 10
148.5683686983
 20
231.4493051364
  0
VERTEX
  8
SURFACE
 62
7
  6
CONTINUOUS
 10
148.8356765599
 20
231.4528029475
  0
VERTEX
  8
SURFACE
 62
7
  6
CONTINUOUS
 10
149.1029542938
 20
231.4492844466
  0
VERTEX
  8
SURFACE
 62
7
  6
CONTINUOUS
 10
149.3775920772
 20
231.438828736
  0
VERTEX
  8
SURFACE
 62
7
  6
CONTINUOUS
 10
149.6663378466
 20
231.4218218849
  0
VERTEX
  8
SURFACE
 62
7
  6
CONTINUOUS
 10
149.9688224593
 20
231.3998419221
  0
VERTEX
  8
SURFACE
 62
7
  6
CONTINUOUS
 10
150.2784141972
 20
231.3761224865
  0
VERTEX
  8
SURFACE
 62
7
  6
CONTINUOUS
 10
150.5883827523
 20
231.3546861016
  0
VERTEX
  8
SURFACE
 62
7
  6
CONTINUOUS
 10
150.8923740928
 20
231.3394748074
  0
SEQEND
  0
POLYLINE
  8
SURFACE
 62
7
  6
CONTINUOUS
 66
1
 70
0
  0
VERTEX
  8
SURFACE
 62
7
  6
CONTINUOUS
 10
135.4741375489
 20
231.3335996392
  0
VERTEX
  8
SURFACE
 62
7
  6
CONTINUOUS
 10
135.7783423221
 20
231.3394817771
  0
VERTEX
  8
SURFACE
 62
7
  6
CONTINUOUS
 10
136.0824599472
 20
231.3547055533
  0
VERTEX
  8
SURFACE
 62
7
  6
CONTINUOUS
 10
136.3925698784
 20
231.3761567551
  0
VERTEX
  8
SURFACE
 62
7
  6
CONTINUOUS
 10
136.702294124
 20
231.3998870434
  0
VERTEX
  8
SURFACE
 62
7
  6
CONTINUOUS
 10
137.0048777111
 20
231.4218681641
  0
VERTEX
  8
SURFACE
 62
7
  6
CONTINUOUS
 10
137.2936764386
 20
231.4388653154
  0
VERTEX
  8
SURFACE
 62
7
  6
CONTINUOUS
 10
137.5683686983
 20
231.4493051364
  0
VERTEX
  8
SURFACE
 62
7
  6
CONTINUOUS
 10
137.8356765599
 20
231.4528029475
  0
VERTEX
  8
SURFACE
 62
7
  6
CONTINUOUS
 10
138.1029542938
 20
231.4492844466
  0
VERTEX
  8
SURFACE
 62
7
  6
CONTINUOUS
 10
138.3775920772
 20
231.438828736
  0
VERTEX
  8
SURFACE
 62
7
  6
CONTINUOUS
 10
138.6663378466
 20
231.4218218849
  0
VERTEX
  8
SURFACE
 62
7
  6
CONTINUOUS
 10
138.9688224593
 20
231.3998419221
  0
VERTEX
  8
SURFACE
 62
7
  6
CONTINUOUS
 10
139.2784141972
 20
231.3761224865
  0
VERTEX
  8
SURFACE
 62
7
  6
CONTINUOUS
 10
139.5883827523
 20
231.3546861016
  0
VERTEX
  8
SURFACE
 62
7
  6
CONTINUOUS
 10
139.8923740929
 20
231.3394748074
  0
SEQEND
  0
POLYLINE
  8
SURFACE
 62
7
  6
CONTINUOUS
 66
1
 70
0
  0
VERTEX
  8
SURFACE
 62
7
  6
CONTINUOUS
 10
113.0541375488
 20
231.3335996392
  0
VERTEX
  8
SURFACE
 62
7
  6
CONTINUOUS
 10
113.358342322
 20
231.3394817771
  0
VERTEX
  8
SURFACE
 62
7
  6
CONTINUOUS
 10
113.6624599472
 20
231.3547055533
  0
VERTEX
  8
SURFACE
 62
7
  6
CONTINUOUS
 10
113.9725698784
 20
231.3761567551
  0
VERTEX
  8
SURFACE
 62
7
  6
CONTINUOUS
 10
114.282294124
 20
231.3998870434
  0
VERTEX
  8
SURFACE
 62
7
  6
CONTINUOUS
 10
114.584877711
 20
231.4218681641
  0
VERTEX
  8
SURFACE
 62
7
  6
CONTINUOUS
 10
114.8736764386
 20
231.4388653154
  0
VERTEX
  8
SURFACE
 62
7
  6
CONTINUOUS
 10
115.1483686983
 20
231.4493051364
  0
VERTEX
  8
SURFACE
 62
7
  6
CONTINUOUS
 10
115.4156765599
 20
231.4528029475
  0
VERTEX
  8
SURFACE
 62
7
  6
CONTINUOUS
 10
115.6829542938
 20
231.4492844466
  0
VERTEX
  8
SURFACE
 62
7
  6
CONTINUOUS
 10
115.9575920772
 20
231.438828736
  0
VERTEX
  8
SURFACE
 62
7
  6
CONTINUOUS
 10
116.2463378466
 20
231.4218218849
  0
VERTEX
  8
SURFACE
 62
7
  6
CONTINUOUS
 10
116.5488224593
 20
231.3998419221
  0
VERTEX
  8
SURFACE
 62
7
  6
CONTINUOUS
 10
116.8584141972
 20
231.3761224865
  0
VERTEX
  8
SURFACE
 62
7
  6
CONTINUOUS
 10
117.1683827523
 20
231.3546861016
  0
VERTEX
  8
SURFACE
 62
7
  6
CONTINUOUS
 10
117.4723740929
 20
231.3394748074
  0
SEQEND
  0
POLYLINE
  8
SURFACE
 62
7
  6
CONTINUOUS
 66
1
 70
0
  0
VERTEX
  8
SURFACE
 62
7
  6
CONTINUOUS
 10
102.0541375488
 20
231.3335996392
  0
VERTEX
  8
SURFACE
 62
7
  6
CONTINUOUS
 10
102.358342322
 20
231.3394817771
  0
VERTEX
  8
SURFACE
 62
7
  6
CONTINUOUS
 10
102.6624599472
 20
231.3547055533
  0
VERTEX
  8
SURFACE
 62
7
  6
CONTINUOUS
 10
102.9725698784
 20
231.3761567551
  0
VERTEX
  8
SURFACE
 62
7
  6
CONTINUOUS
 10
103.282294124
 20
231.3998870434
  0
VERTEX
  8
SURFACE
 62
7
  6
CONTINUOUS
 10
103.5848777111
 20
231.4218681641
  0
VERTEX
  8
SURFACE
 62
7
  6
CONTINUOUS
 10
103.8736764386
 20
231.4388653154
  0
VERTEX
  8
SURFACE
 62
7
  6
CONTINUOUS
 10
104.1483686983
 20
231.4493051364
  0
VERTEX
  8
SURFACE
 62
7
  6
CONTINUOUS
 10
104.4156765599
 20
231.4528029475
  0
VERTEX
  8
SURFACE
 62
7
  6
CONTINUOUS
 10
104.6829542938
 20
231.4492844466
  0
VERTEX
  8
SURFACE
 62
7
  6
CONTINUOUS
 10
104.9575920772
 20
231.438828736
  0
VERTEX
  8
SURFACE
 62
7
  6
CONTINUOUS
 10
105.2463378466
 20
231.4218218849
  0
VERTEX
  8
SURFACE
 62
7
  6
CONTINUOUS
 10
105.5488224593
 20
231.3998419221
  0
VERTEX
  8
SURFACE
 62
7
  6
CONTINUOUS
 10
105.8584141972
 20
231.3761224865
  0
VERTEX
  8
SURFACE
 62
7
  6
CONTINUOUS
 10
106.1683827523
 20
231.3546861016
  0
VERTEX
  8
SURFACE
 62
7
  6
CONTINUOUS
 10
106.4723740929
 20
231.3394748074
  0
SEQEND
  0
LINE
  8
SURFACE
 62
7
  6
CONTINUOUS
 10
168.677113801
 20
231.3336000936
 11
168.6775579365
 21
231.3336001423
  0
LINE
  8
SURFACE
 62
7
  6
CONTINUOUS
 10
146.4741367499
 20
231.3336000936
 11
146.4745808847
 21
231.3336001423
  0
LINE
  8
SURFACE
 62
7
  6
CONTINUOUS
 10
175.2420317513
 20
231.3336000936
 11
173.3976072841
 21
231.3336000936
  0
LINE
  8
SURFACE
 62
7
  6
CONTINUOUS
 10
168.6788726353
 20
231.3336000936
 11
168.2040803245
 21
231.3336000936
  0
LINE
  8
SURFACE
 62
7
  6
CONTINUOUS
 10
151.8864459913
 20
231.3336000936
 11
151.1946302326
 21
231.3336000936
  0
LINE
  8
SURFACE
 62
7
  6
CONTINUOUS
 10
146.4758955837
 20
231.3336000936
 11
140.1946302326
 21
231.3336000936
  0
LINE
  8
SURFACE
 62
7
  6
CONTINUOUS
 10
135.4758955837
 20
231.3336000936
 11
134.7840803245
 21
231.3336000936
  0
LINE
  8
SURFACE
 62
7
  6
CONTINUOUS
 10
118.4664459913
 20
231.3336000936
 11
117.7746302326
 21
231.3336000936
  0
LINE
  8
SURFACE
 62
7
  6
CONTINUOUS
 10
113.0558955837
 20
231.3336000936
 11
106.7746302326
 21
231.3336000936
  0
LINE
  8
SURFACE
 62
7
  6
CONTINUOUS
 10
102.0558955837
 20
231.3336000936
 11
101.2840803245
 21
231.3336000936
  0
LINE
  8
SURFACE
 62
7
  6
CONTINUOUS
 10
113.0541367499
 20
231.3336000936
 11
113.0545808847
 21
231.3336001423
  0
LINE
  8
SURFACE
 62
7
  6
CONTINUOUS
 10
102.0541367499
 20
231.3336000936
 11
102.0545808847
 21
231.3336001423
  0
LINE
  8
SURFACE
 62
7
  6
CONTINUOUS
 10
106.4723740929
 20
231.3394748074
 11
106.7763887031
 21
231.3335996388
  0
LINE
  8
SURFACE
 62
7
  6
CONTINUOUS
 10
117.4723740929
 20
231.3394748074
 11
117.7763887031
 21
231.3335996388
  0
LINE
  8
SURFACE
 62
7
  6
CONTINUOUS
 10
139.8923740929
 20
231.3394748074
 11
140.196388703
 21
231.3335996388
  0
LINE
  8
SURFACE
 62
7
  6
CONTINUOUS
 10
150.8923740928
 20
231.3394748074
 11
151.196388703
 21
231.3335996388
  0
LINE
  8
SURFACE
 62
7
  6
CONTINUOUS
 10
173.0953511446
 20
231.3394748074
 11
173.3993657556
 21
231.3335996388
  0
POLYLINE
  8
SURFACE
 62
7
  6
CONTINUOUS
 66
1
 70
0
  0
VERTEX
  8
SURFACE
 62
7
  6
CONTINUOUS
 10
140.5948846132
 20
243.8854162885
  0
VERTEX
  8
SURFACE
 62
7
  6
CONTINUOUS
 10
140.5984280505
 20
243.7898517327
  0
VERTEX
  8
SURFACE
 62
7
  6
CONTINUOUS
 10
140.591914643
 20
243.6756719911
  0
VERTEX
  8
SURFACE
 62
7
  6
CONTINUOUS
 10
140.5743149839
 20
243.5527773907
  0
VERTEX
  8
SURFACE
 62
7
  6
CONTINUOUS
 10
140.5459743415
 20
243.4239999368
  0
VERTEX
  8
SURFACE
 62
7
  6
CONTINUOUS
 10
140.5076799389
 20
243.2918081689
  0
VERTEX
  8
SURFACE
 62
7
  6
CONTINUOUS
 10
140.4604641227
 20
243.158312406
  0
VERTEX
  8
SURFACE
 62
7
  6
CONTINUOUS
 10
140.4054376712
 20
243.0251957531
  0
VERTEX
  8
SURFACE
 62
7
  6
CONTINUOUS
 10
140.3435920416
 20
242.8935620156
  0
VERTEX
  8
SURFACE
 62
7
  6
CONTINUOUS
 10
140.2756873274
 20
242.7639950252
  0
VERTEX
  8
SURFACE
 62
7
  6
CONTINUOUS
 10
140.2023001655
 20
242.6368230104
  0
VERTEX
  8
SURFACE
 62
7
  6
CONTINUOUS
 10
140.1238646318
 20
242.5122465596
  0
VERTEX
  8
SURFACE
 62
7
  6
CONTINUOUS
 10
140.0409020343
 20
242.3906906863
  0
VERTEX
  8
SURFACE
 62
7
  6
CONTINUOUS
 10
139.9539258951
 20
242.272579487
  0
VERTEX
  8
SURFACE
 62
7
  6
CONTINUOUS
 10
139.8633763863
 20
242.1582465547
  0
VERTEX
  8
SURFACE
 62
7
  6
CONTINUOUS
 10
139.7696660108
 20
242.0480036644
  0
VERTEX
  8
SURFACE
 62
7
  6
CONTINUOUS
 10
139.6731607178
 20
241.9421172004
  0
VERTEX
  8
SURFACE
 62
7
  6
CONTINUOUS
 10
139.5743289327
 20
241.8409640027
  0
VERTEX
  8
SURFACE
 62
7
  6
CONTINUOUS
 10
139.4737780518
 20
241.7450182455
  0
VERTEX
  8
SURFACE
 62
7
  6
CONTINUOUS
 10
139.3721755522
 20
241.6547383029
  0
VERTEX
  8
SURFACE
 62
7
  6
CONTINUOUS
 10
139.2700114504
 20
241.5703547324
  0
VERTEX
  8
SURFACE
 62
7
  6
CONTINUOUS
 10
139.1672765457
 20
241.4916907004
  0
VERTEX
  8
SURFACE
 62
7
  6
CONTINUOUS
 10
139.0638753313
 20
241.4185774095
  0
VERTEX
  8
SURFACE
 62
7
  6
CONTINUOUS
 10
138.9596191632
 20
241.350862726
  0
VERTEX
  8
SURFACE
 62
7
  6
CONTINUOUS
 10
138.8543587941
 20
241.2885089532
  0
VERTEX
  8
SURFACE
 62
7
  6
CONTINUOUS
 10
138.7481603269
 20
241.2316615527
  0
VERTEX
  8
SURFACE
 62
7
  6
CONTINUOUS
 10
138.6410557437
 20
241.1804714827
  0
VERTEX
  8
SURFACE
 62
7
  6
CONTINUOUS
 10
138.5330325256
 20
241.1351004209
  0
VERTEX
  8
SURFACE
 62
7
  6
CONTINUOUS
 10
138.4241406722
 20
241.0957645182
  0
VERTEX
  8
SURFACE
 62
7
  6
CONTINUOUS
 10
138.3152262194
 20
241.0629091789
  0
VERTEX
  8
SURFACE
 62
7
  6
CONTINUOUS
 10
138.2074124548
 20
241.036850668
  0
VERTEX
  8
SURFACE
 62
7
  6
CONTINUOUS
 10
138.1017844346
 20
241.0176320734
  0
VERTEX
  8
SURFACE
 62
7
  6
CONTINUOUS
 10
137.9988535459
 20
241.0049775005
  0
VERTEX
  8
SURFACE
 62
7
  6
CONTINUOUS
 10
137.8975349664
 20
240.9984223072
  0
VERTEX
  8
SURFACE
 62
7
  6
CONTINUOUS
 10
137.7963104502
 20
240.9977455604
  0
VERTEX
  8
SURFACE
 62
7
  6
CONTINUOUS
 10
137.6938036245
 20
241.003044623
  0
VERTEX
  8
SURFACE
 62
7
  6
CONTINUOUS
 10
137.5893761739
 20
241.0146129613
  0
VERTEX
  8
SURFACE
 62
7
  6
CONTINUOUS
 10
137.4826282099
 20
241.0328275
  0
VERTEX
  8
SURFACE
 62
7
  6
CONTINUOUS
 10
137.373449828
 20
241.0580700682
  0
VERTEX
  8
SURFACE
 62
7
  6
CONTINUOUS
 10
137.2623844754
 20
241.0905300683
  0
VERTEX
  8
SURFACE
 62
7
  6
CONTINUOUS
 10
137.1503718778
 20
241.130112418
  0
VERTEX
  8
SURFACE
 62
7
  6
CONTINUOUS
 10
137.0383012282
 20
241.1765262757
  0
VERTEX
  8
SURFACE
 62
7
  6
CONTINUOUS
 10
136.926591309
 20
241.2295252261
  0
VERTEX
  8
SURFACE
 62
7
  6
CONTINUOUS
 10
136.815539471
 20
241.2888632759
  0
VERTEX
  8
SURFACE
 62
7
  6
CONTINUOUS
 10
136.7054487363
 20
241.3542600743
  0
VERTEX
  8
SURFACE
 62
7
  6
CONTINUOUS
 10
136.5965924893
 20
241.4254271984
  0
VERTEX
  8
SURFACE
 62
7
  6
CONTINUOUS
 10
136.4888065201
 20
241.502383488
  0
VERTEX
  8
SURFACE
 62
7
  6
CONTINUOUS
 10
136.3818003569
 20
241.585345567
  0
VERTEX
  8
SURFACE
 62
7
  6
CONTINUOUS
 10
136.2753948887
 20
241.6745699774
  0
VERTEX
  8
SURFACE
 62
7
  6
CONTINUOUS
 10
136.169640788
 20
241.7702208057
  0
VERTEX
  8
SURFACE
 62
7
  6
CONTINUOUS
 10
136.0652033184
 20
241.8719306571
  0
VERTEX
  8
SURFACE
 62
7
  6
CONTINUOUS
 10
135.9628495501
 20
241.9791471031
  0
VERTEX
  8
SURFACE
 62
7
  6
CONTINUOUS
 10
135.8632427102
 20
242.0913333595
  0
VERTEX
  8
SURFACE
 62
7
  6
CONTINUOUS
 10
135.7668485448
 20
242.2081256283
  0
VERTEX
  8
SURFACE
 62
7
  6
CONTINUOUS
 10
135.6740897831
 20
242.3292139026
  0
VERTEX
  8
SURFACE
 62
7
  6
CONTINUOUS
 10
135.5854470329
 20
242.4542358019
  0
VERTEX
  8
SURFACE
 62
7
  6
CONTINUOUS
 10
135.5014634071
 20
242.5827558699
  0
VERTEX
  8
SURFACE
 62
7
  6
CONTINUOUS
 10
135.4227256779
 20
242.7142903253
  0
VERTEX
  8
SURFACE
 62
7
  6
CONTINUOUS
 10
135.3497659082
 20
242.8484986159
  0
VERTEX
  8
SURFACE
 62
7
  6
CONTINUOUS
 10
135.2831479171
 20
242.985117595
  0
VERTEX
  8
SURFACE
 62
7
  6
CONTINUOUS
 10
135.2236575453
 20
243.1236191948
  0
VERTEX
  8
SURFACE
 62
7
  6
CONTINUOUS
 10
135.1723609552
 20
243.2629197912
  0
VERTEX
  8
SURFACE
 62
7
  6
CONTINUOUS
 10
135.1305170948
 20
243.4012161997
  0
VERTEX
  8
SURFACE
 62
7
  6
CONTINUOUS
 10
135.0993260731
 20
243.536185828
  0
VERTEX
  8
SURFACE
 62
7
  6
CONTINUOUS
 10
135.0797261557
 20
243.6650741944
  0
VERTEX
  8
SURFACE
 62
7
  6
CONTINUOUS
 10
135.0721585928
 20
243.7847017413
  0
SEQEND
  0
POLYLINE
  8
SURFACE
 62
7
  6
CONTINUOUS
 66
1
 70
0
  0
VERTEX
  8
SURFACE
 62
7
  6
CONTINUOUS
 10
175.2420516201
 20
231.3336002065
  0
VERTEX
  8
SURFACE
 62
7
  6
CONTINUOUS
 10
175.374657641
 20
231.3287090169
  0
VERTEX
  8
SURFACE
 62
7
  6
CONTINUOUS
 10
175.5224766936
 20
231.3116220762
  0
VERTEX
  8
SURFACE
 62
7
  6
CONTINUOUS
 10
175.668379253
 20
231.2823839921
  0
VERTEX
  8
SURFACE
 62
7
  6
CONTINUOUS
 10
175.8113682477
 20
231.2411945789
  0
VERTEX
  8
SURFACE
 62
7
  6
CONTINUOUS
 10
175.9504665148
 20
231.1883353151
  0
VERTEX
  8
SURFACE
 62
7
  6
CONTINUOUS
 10
176.0847234762
 20
231.1241674201
  0
VERTEX
  8
SURFACE
 62
7
  6
CONTINUOUS
 10
176.2132216252
 20
231.0491293919
  0
VERTEX
  8
SURFACE
 62
7
  6
CONTINUOUS
 10
176.3457627712
 20
230.9555079222
  0
SEQEND
  0
LINE
  8
SURFACE
 62
7
  6
CONTINUOUS
 10
146.0721585928
 20
243.7847017413
 11
146.0756416678
 21
243.885415952
  0
LINE
  8
SURFACE
 62
7
  6
CONTINUOUS
 10
183.1802631579
 20
236.6217107878
 11
181.6092161946
 21
236.6217107878
  0
LINE
  8
SURFACE
 62
7
  6
CONTINUOUS
 10
100.6280441447
 20
236.6217107878
 11
86.7802631579
 21
236.6217107878
  0
LINE
  8
SURFACE
 62
7
  6
CONTINUOUS
 10
119.0988997067
 20
236.6217107878
 11
134.1516266496
 21
236.6217107878
  0
LINE
  8
SURFACE
 62
7
  6
CONTINUOUS
 10
152.5188997067
 20
236.6217107878
 11
167.5716264798
 21
236.6217107878
  0
LINE
  8
0
 62
7
  6
CONTINUOUS
 10
86.5302631579
 20
236.6042651348
 11
86.5320909803
 21
236.6045224393
  0
LINE
  8
SURFACE
 62
7
  6
CONTINUOUS
 10
86.5302631579
 20
236.6042651348
 11
86.5329357948
 21
236.6046407957
  0
LINE
  8
0
 62
7
  6
CONTINUOUS
 10
183.4302631579
 20
236.6042651348
 11
183.427556867
 21
236.604645468
  0
LINE
  8
SURFACE
 62
7
  6
CONTINUOUS
 10
183.4302631579
 20
236.6042651348
 11
183.4284353379
 21
236.6045224389
  0
POLYLINE
  8
SURFACE
 62
7
  6
CONTINUOUS
 66
1
 70
0
  0
VERTEX
  8
SURFACE
 62
7
  6
CONTINUOUS
 10
151.5948846132
 20
243.8854162885
  0
VERTEX
  8
SURFACE
 62
7
  6
CONTINUOUS
 10
151.5984280505
 20
243.7898517327
  0
VERTEX
  8
SURFACE
 62
7
  6
CONTINUOUS
 10
151.591914643
 20
243.6756719911
  0
VERTEX
  8
SURFACE
 62
7
  6
CONTINUOUS
 10
151.5743149839
 20
243.5527773907
  0
VERTEX
  8
SURFACE
 62
7
  6
CONTINUOUS
 10
151.5459743415
 20
243.4239999368
  0
VERTEX
  8
SURFACE
 62
7
  6
CONTINUOUS
 10
151.5076799389
 20
243.2918081689
  0
VERTEX
  8
SURFACE
 62
7
  6
CONTINUOUS
 10
151.4604641227
 20
243.158312406
  0
VERTEX
  8
SURFACE
 62
7
  6
CONTINUOUS
 10
151.4054376712
 20
243.0251957531
  0
VERTEX
  8
SURFACE
 62
7
  6
CONTINUOUS
 10
151.3435920416
 20
242.8935620156
  0
VERTEX
  8
SURFACE
 62
7
  6
CONTINUOUS
 10
151.2756873274
 20
242.7639950252
  0
VERTEX
  8
SURFACE
 62
7
  6
CONTINUOUS
 10
151.2023001655
 20
242.6368230104
  0
VERTEX
  8
SURFACE
 62
7
  6
CONTINUOUS
 10
151.1238646318
 20
242.5122465596
  0
VERTEX
  8
SURFACE
 62
7
  6
CONTINUOUS
 10
151.0409020343
 20
242.3906906863
  0
VERTEX
  8
SURFACE
 62
7
  6
CONTINUOUS
 10
150.9539258951
 20
242.272579487
  0
VERTEX
  8
SURFACE
 62
7
  6
CONTINUOUS
 10
150.8633763863
 20
242.1582465547
  0
VERTEX
  8
SURFACE
 62
7
  6
CONTINUOUS
 10
150.7696660108
 20
242.0480036644
  0
VERTEX
  8
SURFACE
 62
7
  6
CONTINUOUS
 10
150.6731607178
 20
241.9421172004
  0
VERTEX
  8
SURFACE
 62
7
  6
CONTINUOUS
 10
150.5743289327
 20
241.8409640027
  0
VERTEX
  8
SURFACE
 62
7
  6
CONTINUOUS
 10
150.4737780518
 20
241.7450182455
  0
VERTEX
  8
SURFACE
 62
7
  6
CONTINUOUS
 10
150.3721755522
 20
241.6547383029
  0
VERTEX
  8
SURFACE
 62
7
  6
CONTINUOUS
 10
150.2700114504
 20
241.5703547324
  0
VERTEX
  8
SURFACE
 62
7
  6
CONTINUOUS
 10
150.1672765457
 20
241.4916907004
  0
VERTEX
  8
SURFACE
 62
7
  6
CONTINUOUS
 10
150.0638753313
 20
241.4185774094
  0
VERTEX
  8
SURFACE
 62
7
  6
CONTINUOUS
 10
149.9596191632
 20
241.350862726
  0
VERTEX
  8
SURFACE
 62
7
  6
CONTINUOUS
 10
149.8543587941
 20
241.2885089532
  0
VERTEX
  8
SURFACE
 62
7
  6
CONTINUOUS
 10
149.7481603269
 20
241.2316615527
  0
VERTEX
  8
SURFACE
 62
7
  6
CONTINUOUS
 10
149.6410557437
 20
241.1804714827
  0
VERTEX
  8
SURFACE
 62
7
  6
CONTINUOUS
 10
149.5330325256
 20
241.1351004209
  0
VERTEX
  8
SURFACE
 62
7
  6
CONTINUOUS
 10
149.4241406722
 20
241.0957645182
  0
VERTEX
  8
SURFACE
 62
7
  6
CONTINUOUS
 10
149.3152262194
 20
241.0629091789
  0
VERTEX
  8
SURFACE
 62
7
  6
CONTINUOUS
 10
149.2074124548
 20
241.036850668
  0
VERTEX
  8
SURFACE
 62
7
  6
CONTINUOUS
 10
149.1017844346
 20
241.0176320734
  0
VERTEX
  8
SURFACE
 62
7
  6
CONTINUOUS
 10
148.9988535459
 20
241.0049775005
  0
VERTEX
  8
SURFACE
 62
7
  6
CONTINUOUS
 10
148.8975349664
 20
240.9984223072
  0
VERTEX
  8
SURFACE
 62
7
  6
CONTINUOUS
 10
148.7963104502
 20
240.9977455604
  0
VERTEX
  8
SURFACE
 62
7
  6
CONTINUOUS
 10
148.6938036245
 20
241.003044623
  0
VERTEX
  8
SURFACE
 62
7
  6
CONTINUOUS
 10
148.5893761739
 20
241.0146129613
  0
VERTEX
  8
SURFACE
 62
7
  6
CONTINUOUS
 10
148.4826282099
 20
241.0328275
  0
VERTEX
  8
SURFACE
 62
7
  6
CONTINUOUS
 10
148.373449828
 20
241.0580700682
  0
VERTEX
  8
SURFACE
 62
7
  6
CONTINUOUS
 10
148.2623844754
 20
241.0905300683
  0
VERTEX
  8
SURFACE
 62
7
  6
CONTINUOUS
 10
148.1503718778
 20
241.130112418
  0
VERTEX
  8
SURFACE
 62
7
  6
CONTINUOUS
 10
148.0383012282
 20
241.1765262757
  0
VERTEX
  8
SURFACE
 62
7
  6
CONTINUOUS
 10
147.926591309
 20
241.2295252261
  0
VERTEX
  8
SURFACE
 62
7
  6
CONTINUOUS
 10
147.815539471
 20
241.2888632759
  0
VERTEX
  8
SURFACE
 62
7
  6
CONTINUOUS
 10
147.7054487363
 20
241.3542600743
  0
VERTEX
  8
SURFACE
 62
7
  6
CONTINUOUS
 10
147.5965924893
 20
241.4254271984
  0
VERTEX
  8
SURFACE
 62
7
  6
CONTINUOUS
 10
147.4888065201
 20
241.502383488
  0
VERTEX
  8
SURFACE
 62
7
  6
CONTINUOUS
 10
147.3818003569
 20
241.585345567
  0
VERTEX
  8
SURFACE
 62
7
  6
CONTINUOUS
 10
147.2753948887
 20
241.6745699774
  0
VERTEX
  8
SURFACE
 62
7
  6
CONTINUOUS
 10
147.169640788
 20
241.7702208057
  0
VERTEX
  8
SURFACE
 62
7
  6
CONTINUOUS
 10
147.0652033184
 20
241.8719306571
  0
VERTEX
  8
SURFACE
 62
7
  6
CONTINUOUS
 10
146.9628495501
 20
241.9791471031
  0
VERTEX
  8
SURFACE
 62
7
  6
CONTINUOUS
 10
146.8632427102
 20
242.0913333595
  0
VERTEX
  8
SURFACE
 62
7
  6
CONTINUOUS
 10
146.7668485448
 20
242.2081256283
  0
VERTEX
  8
SURFACE
 62
7
  6
CONTINUOUS
 10
146.6740897831
 20
242.3292139026
  0
VERTEX
  8
SURFACE
 62
7
  6
CONTINUOUS
 10
146.5854470329
 20
242.4542358019
  0
VERTEX
  8
SURFACE
 62
7
  6
CONTINUOUS
 10
146.5014634071
 20
242.5827558699
  0
VERTEX
  8
SURFACE
 62
7
  6
CONTINUOUS
 10
146.4227256779
 20
242.7142903253
  0
VERTEX
  8
SURFACE
 62
7
  6
CONTINUOUS
 10
146.3497659082
 20
242.8484986159
  0
VERTEX
  8
SURFACE
 62
7
  6
CONTINUOUS
 10
146.2831479171
 20
242.9851175951
  0
VERTEX
  8
SURFACE
 62
7
  6
CONTINUOUS
 10
146.2236575453
 20
243.1236191948
  0
VERTEX
  8
SURFACE
 62
7
  6
CONTINUOUS
 10
146.1723609552
 20
243.2629197912
  0
VERTEX
  8
SURFACE
 62
7
  6
CONTINUOUS
 10
146.1305170948
 20
243.4012161997
  0
VERTEX
  8
SURFACE
 62
7
  6
CONTINUOUS
 10
146.0993260731
 20
243.536185828
  0
VERTEX
  8
SURFACE
 62
7
  6
CONTINUOUS
 10
146.0797261557
 20
243.6650741944
  0
VERTEX
  8
SURFACE
 62
7
  6
CONTINUOUS
 10
146.0721585928
 20
243.7847017413
  0
SEQEND
  0
LINE
  8
SURFACE
 62
7
  6
CONTINUOUS
 10
152.0866804407
 20
208.4059913873
 11
151.8561204407
 21
234.8059913873
  0
LINE
  8
0
 62
7
  6
CONTINUOUS
 10
183.4273227728
 20
236.6046801011
 11
183.4130937619
 21
236.6072825997
  0
LINE
  8
SURFACE
 62
7
  6
CONTINUOUS
 10
177.8802631579
 20
249.1217107878
 11
92.0802631579
 21
249.1217107878
  0
POLYLINE
  8
SURFACE
 62
7
  6
CONTINUOUS
 66
1
 70
0
  0
VERTEX
  8
SURFACE
 62
7
  6
CONTINUOUS
 10
176.3457747421
 20
230.9554983255
  0
VERTEX
  8
SURFACE
 62
7
  6
CONTINUOUS
 10
176.4152385979
 20
230.8999406163
  0
VERTEX
  8
SURFACE
 62
7
  6
CONTINUOUS
 10
176.5297639844
 20
230.8000146234
  0
SEQEND
  0
POLYLINE
  8
SURFACE
 62
7
  6
CONTINUOUS
 66
1
 70
0
  0
VERTEX
  8
SURFACE
 62
7
  6
CONTINUOUS
 10
177.1113435141
 20
230.2469233122
  0
VERTEX
  8
SURFACE
 62
7
  6
CONTINUOUS
 10
177.1530705087
 20
230.2134565777
  0
VERTEX
  8
SURFACE
 62
7
  6
CONTINUOUS
 10
177.1894256317
 20
230.1836691728
  0
VERTEX
  8
SURFACE
 62
7
  6
CONTINUOUS
 10
177.2159061981
 20
230.1611767684
  0
VERTEX
  8
SURFACE
 62
7
  6
CONTINUOUS
 10
177.2328402162
 20
230.1460910088
  0
VERTEX
  8
SURFACE
 62
7
  6
CONTINUOUS
 10
177.2411400702
 20
230.1382705823
  0
VERTEX
  8
SURFACE
 62
7
  6
CONTINUOUS
 10
177.2423304544
 20
230.1370905907
  0
SEQEND
  0
LINE
  8
SURFACE
 62
7
  6
CONTINUOUS
 10
168.2344058751
 20
234.8059913873
 11
168.0038458751
 21
208.4059913873
  0
LINE
  8
SURFACE
 62
7
  6
CONTINUOUS
 10
168.2751356444
 20
243.7847017413
 11
168.2786187194
 21
243.885415952
  0
POLYLINE
  8
SURFACE
 62
7
  6
CONTINUOUS
 66
1
 70
0
  0
VERTEX
  8
SURFACE
 62
7
  6
CONTINUOUS
 10
176.5297584204
 20
230.8000198562
  0
VERTEX
  8
SURFACE
 62
7
  6
CONTINUOUS
 10
176.6058555421
 20
230.7275864946
  0
VERTEX
  8
SURFACE
 62
7
  6
CONTINUOUS
 10
176.6777636114
 20
230.6562231195
  0
VERTEX
  8
SURFACE
 62
7
  6
CONTINUOUS
 10
176.807701067
 20
230.5247526144
  0
SEQEND
  0
POLYLINE
  8
SURFACE
 62
7
  6
CONTINUOUS
 66
1
 70
0
  0
VERTEX
  8
SURFACE
 62
7
  6
CONTINUOUS
 10
176.807701067
 20
230.5247526144
  0
VERTEX
  8
SURFACE
 62
7
  6
CONTINUOUS
 10
176.8699593566
 20
230.4629025973
  0
VERTEX
  8
SURFACE
 62
7
  6
CONTINUOUS
 10
176.9322029835
 20
230.4030769959
  0
VERTEX
  8
SURFACE
 62
7
  6
CONTINUOUS
 10
176.9951054741
 20
230.3453161997
  0
VERTEX
  8
SURFACE
 62
7
  6
CONTINUOUS
 10
177.0588655187
 20
230.2899478709
  0
VERTEX
  8
SURFACE
 62
7
  6
CONTINUOUS
 10
177.1113435141
 20
230.2469233122
  0
SEQEND
  0
POLYLINE
  8
SURFACE
 62
7
  6
CONTINUOUS
 66
1
 70
0
  0
VERTEX
  8
SURFACE
 62
7
  6
CONTINUOUS
 10
173.7978616648
 20
243.8854162885
  0
VERTEX
  8
SURFACE
 62
7
  6
CONTINUOUS
 10
173.8014051021
 20
243.7898517327
  0
VERTEX
  8
SURFACE
 62
7
  6
CONTINUOUS
 10
173.7948916946
 20
243.6756719911
  0
VERTEX
  8
SURFACE
 62
7
  6
CONTINUOUS
 10
173.7772920355
 20
243.5527773907
  0
VERTEX
  8
SURFACE
 62
7
  6
CONTINUOUS
 10
173.7489513931
 20
243.4239999368
  0
VERTEX
  8
SURFACE
 62
7
  6
CONTINUOUS
 10
173.7106569905
 20
243.2918081689
  0
VERTEX
  8
SURFACE
 62
7
  6
CONTINUOUS
 10
173.6634411743
 20
243.158312406
  0
VERTEX
  8
SURFACE
 62
7
  6
CONTINUOUS
 10
173.6084147228
 20
243.0251957531
  0
VERTEX
  8
SURFACE
 62
7
  6
CONTINUOUS
 10
173.5465690931
 20
242.8935620156
  0
VERTEX
  8
SURFACE
 62
7
  6
CONTINUOUS
 10
173.478664379
 20
242.7639950252
  0
VERTEX
  8
SURFACE
 62
7
  6
CONTINUOUS
 10
173.4052772171
 20
242.6368230104
  0
VERTEX
  8
SURFACE
 62
7
  6
CONTINUOUS
 10
173.3268416834
 20
242.5122465596
  0
VERTEX
  8
SURFACE
 62
7
  6
CONTINUOUS
 10
173.2438790859
 20
242.3906906863
  0
VERTEX
  8
SURFACE
 62
7
  6
CONTINUOUS
 10
173.1569029467
 20
242.272579487
  0
VERTEX
  8
SURFACE
 62
7
  6
CONTINUOUS
 10
173.0663534379
 20
242.1582465547
  0
VERTEX
  8
SURFACE
 62
7
  6
CONTINUOUS
 10
172.9726430624
 20
242.0480036644
  0
VERTEX
  8
SURFACE
 62
7
  6
CONTINUOUS
 10
172.8761377694
 20
241.9421172004
  0
VERTEX
  8
SURFACE
 62
7
  6
CONTINUOUS
 10
172.7773059843
 20
241.8409640027
  0
VERTEX
  8
SURFACE
 62
7
  6
CONTINUOUS
 10
172.6767551034
 20
241.7450182455
  0
VERTEX
  8
SURFACE
 62
7
  6
CONTINUOUS
 10
172.5751526038
 20
241.6547383029
  0
VERTEX
  8
SURFACE
 62
7
  6
CONTINUOUS
 10
172.472988502
 20
241.5703547324
  0
VERTEX
  8
SURFACE
 62
7
  6
CONTINUOUS
 10
172.3702535973
 20
241.4916907004
  0
VERTEX
  8
SURFACE
 62
7
  6
CONTINUOUS
 10
172.2668523829
 20
241.4185774095
  0
VERTEX
  8
SURFACE
 62
7
  6
CONTINUOUS
 10
172.1625962147
 20
241.350862726
  0
VERTEX
  8
SURFACE
 62
7
  6
CONTINUOUS
 10
172.0573358457
 20
241.2885089532
  0
VERTEX
  8
SURFACE
 62
7
  6
CONTINUOUS
 10
171.9511373785
 20
241.2316615527
  0
VERTEX
  8
SURFACE
 62
7
  6
CONTINUOUS
 10
171.8440327953
 20
241.1804714827
  0
VERTEX
  8
SURFACE
 62
7
  6
CONTINUOUS
 10
171.7360095772
 20
241.135100421
  0
VERTEX
  8
SURFACE
 62
7
  6
CONTINUOUS
 10
171.6271177238
 20
241.0957645182
  0
VERTEX
  8
SURFACE
 62
7
  6
CONTINUOUS
 10
171.518203271
 20
241.0629091789
  0
VERTEX
  8
SURFACE
 62
7
  6
CONTINUOUS
 10
171.4103895064
 20
241.036850668
  0
VERTEX
  8
SURFACE
 62
7
  6
CONTINUOUS
 10
171.3047614862
 20
241.0176320734
  0
VERTEX
  8
SURFACE
 62
7
  6
CONTINUOUS
 10
171.2018305975
 20
241.0049775005
  0
VERTEX
  8
SURFACE
 62
7
  6
CONTINUOUS
 10
171.100512018
 20
240.9984223072
  0
VERTEX
  8
SURFACE
 62
7
  6
CONTINUOUS
 10
170.9992875018
 20
240.9977455604
  0
VERTEX
  8
SURFACE
 62
7
  6
CONTINUOUS
 10
170.8967806761
 20
241.003044623
  0
VERTEX
  8
SURFACE
 62
7
  6
CONTINUOUS
 10
170.7923532255
 20
241.0146129613
  0
VERTEX
  8
SURFACE
 62
7
  6
CONTINUOUS
 10
170.6856052615
 20
241.0328275
  0
VERTEX
  8
SURFACE
 62
7
  6
CONTINUOUS
 10
170.5764268796
 20
241.0580700682
  0
VERTEX
  8
SURFACE
 62
7
  6
CONTINUOUS
 10
170.465361527
 20
241.0905300683
  0
VERTEX
  8
SURFACE
 62
7
  6
CONTINUOUS
 10
170.3533489294
 20
241.130112418
  0
VERTEX
  8
SURFACE
 62
7
  6
CONTINUOUS
 10
170.2412782798
 20
241.1765262757
  0
VERTEX
  8
SURFACE
 62
7
  6
CONTINUOUS
 10
170.1295683606
 20
241.2295252261
  0
VERTEX
  8
SURFACE
 62
7
  6
CONTINUOUS
 10
170.0185165226
 20
241.2888632759
  0
VERTEX
  8
SURFACE
 62
7
  6
CONTINUOUS
 10
169.9084257879
 20
241.3542600743
  0
VERTEX
  8
SURFACE
 62
7
  6
CONTINUOUS
 10
169.7995695408
 20
241.4254271984
  0
VERTEX
  8
SURFACE
 62
7
  6
CONTINUOUS
 10
169.6917835716
 20
241.502383488
  0
VERTEX
  8
SURFACE
 62
7
  6
CONTINUOUS
 10
169.5847774085
 20
241.585345567
  0
VERTEX
  8
SURFACE
 62
7
  6
CONTINUOUS
 10
169.4783719403
 20
241.6745699774
  0
VERTEX
  8
SURFACE
 62
7
  6
CONTINUOUS
 10
169.3726178396
 20
241.7702208057
  0
VERTEX
  8
SURFACE
 62
7
  6
CONTINUOUS
 10
169.26818037
 20
241.8719306571
  0
VERTEX
  8
SURFACE
 62
7
  6
CONTINUOUS
 10
169.1658266017
 20
241.9791471031
  0
VERTEX
  8
SURFACE
 62
7
  6
CONTINUOUS
 10
169.0662197618
 20
242.0913333595
  0
VERTEX
  8
SURFACE
 62
7
  6
CONTINUOUS
 10
168.9698255963
 20
242.2081256283
  0
VERTEX
  8
SURFACE
 62
7
  6
CONTINUOUS
 10
168.8770668347
 20
242.3292139026
  0
VERTEX
  8
SURFACE
 62
7
  6
CONTINUOUS
 10
168.7884240845
 20
242.4542358019
  0
VERTEX
  8
SURFACE
 62
7
  6
CONTINUOUS
 10
168.7044404587
 20
242.5827558699
  0
VERTEX
  8
SURFACE
 62
7
  6
CONTINUOUS
 10
168.6257027295
 20
242.7142903253
  0
VERTEX
  8
SURFACE
 62
7
  6
CONTINUOUS
 10
168.5527429598
 20
242.8484986159
  0
VERTEX
  8
SURFACE
 62
7
  6
CONTINUOUS
 10
168.4861249687
 20
242.985117595
  0
VERTEX
  8
SURFACE
 62
7
  6
CONTINUOUS
 10
168.4266345969
 20
243.1236191948
  0
VERTEX
  8
SURFACE
 62
7
  6
CONTINUOUS
 10
168.3753380068
 20
243.2629197912
  0
VERTEX
  8
SURFACE
 62
7
  6
CONTINUOUS
 10
168.3334941464
 20
243.4012161997
  0
VERTEX
  8
SURFACE
 62
7
  6
CONTINUOUS
 10
168.3023031247
 20
243.536185828
  0
VERTEX
  8
SURFACE
 62
7
  6
CONTINUOUS
 10
168.2827032073
 20
243.6650741944
  0
VERTEX
  8
SURFACE
 62
7
  6
CONTINUOUS
 10
168.2751356444
 20
243.7847017413
  0
SEQEND
  0
LINE
  8
SURFACE
 62
7
  6
CONTINUOUS
 10
177.0532383741
 20
228.2595792744
 11
177.0353413427
 21
230.3103759355
  0
LINE
  8
0
 62
7
  6
CONTINUOUS
 10
181.8802631579
 20
245.1217089193
 11
181.8802631579
 21
238.3868194818
  0
LINE
  8
SURFACE
 62
7
  6
CONTINUOUS
 10
184.9802631579
 20
208.4217107878
 11
184.9802631579
 21
234.8217107878
  0
LINE
  8
DEFAULT_1
 62
2
  6
CENTER
 10
278.2171055247
 20
104.5230263158
 11
274.9672055247
 21
104.5230263158
  0
LINE
  8
0
 62
2
  6
CONTINUOUS
 10
274.0171055247
 20
104.5230263158
 11
271.9171055247
 21
104.5230263158
  0
LINE
  8
DEFAULT_1
 62
2
  6
CENTER
 10
267.7171055247
 20
104.5230263158
 11
270.9670055247
 21
104.5230263158
  0
LINE
  8
0
 62
7
  6
CONTINUOUS
 10
257.9671055247
 20
104.5230263158
 11
257.9671055247
 21
168.0230188302
  0
LINE
  8
0
 62
2
  6
CONTINUOUS
 10
272.9671055247
 20
169.0730263158
 11
272.9671055247
 21
166.9730263158
  0
LINE
  8
DEFAULT_1
 62
2
  6
CENTER
 10
272.9671055247
 20
162.7730263158
 11
272.9671055247
 21
160.7730263158
  0
LINE
  8
DEFAULT_1
 62
2
  6
CENTER
 10
272.9671055247
 20
109.7730263158
 11
272.9671055247
 21
106.5231263158
  0
LINE
  8
0
 62
2
  6
CONTINUOUS
 10
272.9671055247
 20
105.5730263158
 11
272.9671055247
 21
103.4730263158
  0
LINE
  8
DEFAULT_1
 62
2
  6
CENTER
 10
272.9671055247
 20
99.2730263158
 11
272.9671055247
 21
102.5229263158
  0
LINE
  8
DEFAULT_1
 62
2
  6
CENTER
 10
272.9671055247
 20
173.2730263158
 11
272.9671055247
 21
175.2730263158
  0
LINE
  8
0
 62
7
  6
CONTINUOUS
 10
259.5477407065
 20
138.4671039125
 11
264.4540861037
 21
139.0695273778
  0
LINE
  8
0
 62
7
  6
CONTINUOUS
 10
287.9671055247
 20
119.341683288
 11
287.9671055247
 21
104.5230263158
  0
LINE
  8
SURFACE
 62
7
  6
CONTINUOUS
 10
287.9671055247
 20
119.341683288
 11
287.9671055247
 21
104.5230263158
  0
LINE
  8
0
 62
7
  6
CONTINUOUS
 10
287.9671055247
 20
153.2043693435
 11
287.9671055247
 21
155.5097152253
  0
LINE
  8
0
 62
7
  6
CONTINUOUS
 10
287.9671055247
 20
156.9137044311
 11
287.9671055247
 21
168.0230196312
  0
LINE
  8
0
 62
7
  6
CONTINUOUS
 10
289.3456445393
 20
155.1637317228
 11
289.3481015304
 21
155.1631436021
  0
LINE
  8
0
 62
2
  6
CONTINUOUS
 10
274.0171055247
 20
168.0230263158
 11
271.9171055247
 21
168.0230263158
  0
LINE
  8
DEFAULT_1
 62
2
  6
CENTER
 10
267.7171055247
 20
168.0230263158
 11
265.7171055247
 21
168.0230263158
  0
LINE
  8
DEFAULT_1
 62
2
  6
CENTER
 10
278.2171055247
 20
168.0230263158
 11
280.2171055247
 21
168.0230263158
  0
ARC
  8
SURFACE
 62
7
  6
CONTINUOUS
 10
86.7802631579
 20
91.3230263158
 40
1.8
 50
179.9999999999
 51
270.0
  0
ARC
  8
0
 62
7
  6
CONTINUOUS
 10
183.1802631579
 20
181.2230263158
 40
1.8
 50
0.0
 51
90.0
  0
ARC
  8
SURFACE
 62
7
  6
CONTINUOUS
 10
99.2839145152
 20
208.4217107878
 40
1.8
 50
270.0
 51
359.4996295799
  0
ARC
  8
SURFACE
 62
7
  6
CONTINUOUS
 10
120.4666118006
 20
208.4217107878
 40
1.8
 50
180.5003704201
 51
270.0
  0
ARC
  8
SURFACE
 62
7
  6
CONTINUOUS
 10
132.7839145152
 20
208.4217107878
 40
1.8
 50
270.0
 51
359.4996295799
  0
ARC
  8
SURFACE
 62
7
  6
CONTINUOUS
 10
86.7802631579
 20
208.4217107878
 40
1.8
 50
180.0
 51
270.0
  0
ARC
  8
SURFACE
 62
7
  6
CONTINUOUS
 10
93.4802631579
 20
208.1217107878
 40
1.5
 50
180.3116027564
 51
270.0
  0
ARC
  8
SURFACE
 62
7
  6
CONTINUOUS
 10
86.9802631579
 20
208.1217107878
 40
1.5
 50
270.0
 51
359.6878229834
  0
ARC
  8
0
 62
7
  6
CONTINUOUS
 10
92.0802631579
 20
245.1217107878
 40
4.0
 50
90.0
 51
180.0
  0
ARC
  8
0
 62
7
  6
CONTINUOUS
 10
86.2802631579
 20
238.3868194818
 40
1.8
 50
278.0423111905
 51
278.0780589624
  0
ARC
  8
0
 62
7
  6
CONTINUOUS
 10
86.2802631579
 20
238.3868194818
 40
1.8
 50
350.3510066054
 51
350.8174294036
  0
ARC
  8
SURFACE
 62
7
  6
CONTINUOUS
 10
86.7802631579
 20
234.8217107878
 40
1.8
 50
90.0
 51
180.0
  0
ARC
  8
SURFACE
 62
7
  6
CONTINUOUS
 10
99.5144745152
 20
234.8217107878
 40
1.8
 50
359.4996295799
 51
90.0
  0
ARC
  8
SURFACE
 62
7
  6
CONTINUOUS
 10
120.2360518006
 20
234.8217107878
 40
1.8
 50
90.0
 51
180.5003704201
  0
ARC
  8
SURFACE
 62
7
  6
CONTINUOUS
 10
133.0144745152
 20
234.8217107878
 40
1.8
 50
359.4996295799
 51
90.0
  0
ARC
  8
SURFACE
 62
7
  6
CONTINUOUS
 10
86.2802631925
 20
238.3868195665
 40
1.7999999892
 50
278.0332220106
 51
359.9999973052
  0
ARC
  8
SURFACE
 62
7
  6
CONTINUOUS
 10
153.8866118006
 20
208.4217107878
 40
1.8
 50
180.5003704201
 51
270.0
  0
ARC
  8
SURFACE
 62
7
  6
CONTINUOUS
 10
166.2039144914
 20
208.4217107878
 40
1.8
 50
270.0000007564
 51
359.4996295865
  0
ARC
  8
SURFACE
 62
7
  6
CONTINUOUS
 10
183.1802631579
 20
208.4217107878
 40
1.8
 50
270.0
 51
360.0
  0
ARC
  8
0
 62
7
  6
CONTINUOUS
 10
177.8802631579
 20
245.1217107878
 40
4.0
 50
0.0
 51
90.0
  0
ARC
  8
SURFACE
 62
7
  6
CONTINUOUS
 10
183.6802631579
 20
238.3868194818
 40
1.8
 50
180.0
 51
261.9576888866
  0
ARC
  8
0
 62
7
  6
CONTINUOUS
 10
183.1802631579
 20
234.8217107878
 40
1.8
 50
83.6586693339
 51
90.0
  0
ARC
  8
0
 62
7
  6
CONTINUOUS
 10
183.1802631579
 20
234.8217107878
 40
1.8
 50
82.016228084
 51
82.9822317995
  0
ARC
  8
SURFACE
 62
7
  6
CONTINUOUS
 10
183.1802631579
 20
234.8217107878
 40
1.8
 50
0.0
 51
90.0
  0
ARC
  8
SURFACE
 62
7
  6
CONTINUOUS
 10
153.6560518006
 20
234.8217107878
 40
1.8
 50
90.0
 51
180.5003704201
  0
ARC
  8
SURFACE
 62
7
  6
CONTINUOUS
 10
166.4344745151
 20
234.8217107761
 40
1.8
 50
359.4996299543
 51
89.9999999967
  0
ARC
  8
0
 62
7
  6
CONTINUOUS
 10
183.6802631232
 20
238.3868195665
 40
1.7999999892
 50
261.4613989682
 51
261.966777642
  0
ARC
  8
0
 62
7
  6
CONTINUOUS
 10
183.6802631232
 20
238.3868195665
 40
1.7999999892
 50
186.8262658655
 51
189.6489959197
  0
ARC
  8
SURFACE
 62
7
  6
CONTINUOUS
 10
272.9671055247
 20
104.5230263158
 40
15.0
 50
179.9999714072
 51
0.0000255334
  0
CIRCLE
  8
SURFACE
 62
7
  6
CONTINUOUS
 10
272.9671055247
 20
104.5230263158
 40
5.25
  0
ARC
  8
0
 62
7
  6
CONTINUOUS
 10
259.7671055247
 20
136.6805208396
 40
1.8
 50
97.0
 51
180.0
  0
ARC
  8
0
 62
7
  6
CONTINUOUS
 10
261.9935440603
 20
159.1090341794
 40
20.19
 50
277.0
 51
342.7946088705
  0
ARC
  8
0
 62
7
  6
CONTINUOUS
 10
272.9671055247
 20
168.0230263158
 40
15.0
 50
0.0
 51
180.0
  0
CIRCLE
  8
0
 62
7
  6
CONTINUOUS
 10
272.9671055247
 20
168.0230263158
 40
5.25
  0
ARC
  8
0
 62
7
  6
CONTINUOUS
 10
273.1068822254
 20
168.3240627469
 40
16.5
 50
304.4786113686
 51
315.5345850659
  0
ARC
  8
SURFACE
 62
7
  6
CONTINUOUS
 10
278.4671055247
 20
136.2730263158
 40
22.0
 50
308.5584216728
 51
323.1711132025
  0
ARC
  8
SURFACE
 62
7
  6
CONTINUOUS
 10
278.4671055247
 20
136.2730263158
 40
22.0
 50
324.191509669
 51
326.1346268803
  0
ARC
  8
SURFACE
 62
7
  6
CONTINUOUS
 10
278.4671055247
 20
136.2730263158
 40
22.0
 50
307.5464100405
 51
307.5618769749
  0
ARC
  8
SURFACE
 62
7
  6
CONTINUOUS
 10
278.4671055247
 20
136.2730263158
 40
22.0
 50
331.1265172542
 51
333.6824886423
  0
ARC
  8
SURFACE
 62
7
  6
CONTINUOUS
 10
278.4671055247
 20
136.2730263158
 40
22.0
 50
335.9102495979
 51
336.1708703246
  0
ARC
  8
0
 62
7
  6
CONTINUOUS
 10
278.4671055247
 20
136.2730263158
 40
22.0
 50
303.5573097619
 51
56.4426902381
  0
ARC
  8
SURFACE
 62
7
  6
CONTINUOUS
 10
288.4169798957
 20
121.2730263158
 40
4.0
 50
283.4608553514
 51
303.5573097619
  0
ARC
  8
SURFACE
 62
7
  6
CONTINUOUS
 10
289.7671055247
 20
115.6323560732
 40
1.8
 50
103.4608139627
 51
180.0
  0
ARC
  8
0
 62
7
  6
CONTINUOUS
 10
288.4169798957
 20
151.2730263158
 40
4.0
 50
56.4426902381
 51
79.7288081788
  0
ARC
  8
0
 62
7
  6
CONTINUOUS
 10
284.1458039402
 20
152.2494800968
 40
3.0
 50
124.4786113686
 51
162.7941096519
  0
ARC
  8
0
 62
7
  6
CONTINUOUS
 10
289.7671055247
 20
156.9136965584
 40
1.8
 50
179.9997404468
 51
256.4980024028
  0
ARC
  8
0
 62
7
  6
CONTINUOUS
 10
289.4511634255
 20
156.9800802231
 40
1.7999999966
 50
204.1834756795
 51
259.7288066886
  0
ARC
  8
0
 62
7
  6
CONTINUOUS
 10
286.1671055247
 20
155.5053044491
 40
1.799999992
 50
0.0
 51
135.5345701241
  0
ENDSEC
  0
EOF
