  0
SECTION
  2
HEADER
  9
$EXTMAX
 10
594.0
 20
420.0
 30
0.0
  9
$EXTMIN
 10
0.0
 20
0.0
 30
0.0
  9
$LIMMIN
 10
0.0
 20
0.0
  9
$LIMMAX
 10
594.0
 20
420.0
  9
$VIEWCTR
 10
297.0
 20
210.0
  9
$VIEWSIZE
 40
420.0
  9
$CLAYER
  8
0
  9
$LTSCALE
 40
32.67
  9
$CELTYPE
  6
BYLAYER
  9
$DIMSCALE
 40
1.0
  9
$DIMASZ
 40
3.5
  9
$DIMEXO
 40
3.7125
  9
$DIMDLI
 40
22.572
  9
$DIMEXE
 40
10.692
  9
$DIMCEN
 40
5.346
  9
$DIMLFAC
 40
1.0
  9
$DIMBLK
  1
_FILLED
  9
$DIMTXT
 40
3.5
  9
$PDMODE
 70
3
  9
$PDSIZE
 40
0.3125
  9
$TILEMODE
 70
1
  0
ENDSEC
  0
SECTION
  2
TABLES
  0
TABLE
  2
LTYPE
 70
6
  0
LTYPE
  2
BYBLOCK
 70
0
  3

 72
65
 73
0
 40
0.0
  0
LTYPE
  2
BYLAYER
 70
0
  3

 72
65
 73
0
 40
0.0
  0
LTYPE
  2
CONTINUOUS
 70
64
  3
Solid line
 72
65
 73
0
 40
0.0
  0
LTYPE
  2
CENTER
 70
64
  3
____ _ ____ _ ____ _ ____ _ ____ _ ____ _ ____
 72
65
 73
4
 40
0.6
 49
0.375
 49
-0.075
 49
0.075
 49
-0.075
  0
LTYPE
  2
HIDDEN
 70
64
  3
- - - - - - - - - - - - - - - - - - - -
 72
65
 73
2
 40
0.2
 49
0.1
 49
-0.1
  0
LTYPE
  2
PHANTOM
 70
64
  3
_____ _ _ _____ _ _ _____ _ _ _____
 72
65
 73
6
 40
0.8
 49
0.45
 49
-0.05
 49
0.1
 49
-0.05
 49
0.1
 49
-0.05
  0
LTYPE
  2
DOT
 70
64
  3
. . . . . . . . . . . . . . . . . . . .
 72
65
 73
2
 40
0.2
 49
0.1
 49
-0.1
  0
LTYPE
  2
DASHED
 70
64
  3
- - - - - - - - - - - - - - - - - - - -
 72
65
 73
2
 40
0.2
 49
0.1
 49
-0.1
  0
ENDTAB
  0
TABLE
  2
LAYER
 70
36
  0
LAYER
  2
0
 70
0
 62
7
  6
CONTINUOUS
  0
LAYER
  2
DEFAULT_1
 70
0
 62
7
  6
CENTER
  0
LAYER
  2
DEFAULT_2
 70
0
 62
8
  6
HIDDEN
  0
LAYER
  2
DEFAULT_3
 70
0
 62
7
  6
PHANTOM
  0
LAYER
  2
CURVE
 70
0
 62
7
  6
CONTINUOUS
  0
LAYER
  2
SOLID
 70
0
 62
7
  6
CONTINUOUS
  0
LAYER
  2
SURFACE
 70
0
 62
7
  6
CONTINUOUS
  0
ENDTAB
  0
TABLE
  2
STYLE
 70
1
  0
STYLE
  2
STANDARD
 70
0
 40
0.0
 41
0.8
 50
0.0
 71
0
 42
0.2
  3
txt
  4

  0
STYLE
  2
TEXTSTYLE_1
 70
0
 40
0.0
 41
0.8
 50
0.0
 71
0
 42
0.2
  3
gdt
  4

  0
STYLE
  2
TEXTSTYLE_2
 70
0
 40
0.0
 41
0.6
 50
0.0
 71
0
 42
0.2
  3
txt
  4

  0
STYLE
  2
TEXTSTYLE_3
 70
0
 40
0.0
 41
1.0
 50
0.0
 71
0
 42
0.2
  3
ftb_____.ttf
  4

  0
STYLE
  2
TEXTSTYLE_4
 70
0
 40
0.0
 41
1.0
 50
0.0
 71
0
 42
0.2
  3
fti_____.ttf
  4

  0
STYLE
  2
TEXTSTYLE_5
 70
0
 40
0.0
 41
1.0
 50
0.0
 71
0
 42
0.2
  3
frutiger light.ttf
  4

  0
STYLE
  2
TEXTSTYLE_6
 70
0
 40
0.0
 41
0.7
 50
0.0
 71
0
 42
0.2
  3
txt
  4

  0
STYLE
  2
TEXTSTYLE_7
 70
0
 40
0.0
 41
0.8
 50
0.0
 71
0
 42
0.2
  3
txt
  4

  0
ENDTAB
  0
ENDSEC
  0
SECTION
  2
BLOCKS
  0
BLOCK
  8
0
 62
2
  6
CONTINUOUS
  2
SYMBOL_3_BL1
 70
64
 10
557.4079930916
 20
35.8092573885
  0
TEXT
  8
0
 62
7
  6
CONTINUOUS
 10
548.4662781001
 20
30.9020137655
  7
TEXTSTYLE_4
 40
1.0655737705
  1
The brand for plastic modular belts and chains
 41
1.0
 72
0
  0
LINE
  8
0
 62
7
  6
CONTINUOUS
 10
533.3860614807
 20
36.3830278803
 11
533.3860614807
 21
34.2518803393
  0
LINE
  8
0
 62
7
  6
CONTINUOUS
 10
533.6751239738
 20
31.2609490436
 11
533.6751239738
 21
31.3577401029
  0
LINE
  8
0
 62
7
  6
CONTINUOUS
 10
533.3860614807
 20
31.3254764164
 11
533.4438739824
 21
31.1318942979
  0
LINE
  8
0
 62
7
  6
CONTINUOUS
 10
534.7795041036
 20
34.1699131262
 11
534.7795041036
 21
36.3830278803
  0
LINE
  8
0
 62
7
  6
CONTINUOUS
 10
535.6985614255
 20
32.3256508311
 11
535.6985614255
 21
30.8092573885
  0
LINE
  8
0
 62
7
  6
CONTINUOUS
 10
535.9876239807
 20
30.8092573885
 11
535.9876239807
 21
31.5513222666
  0
LINE
  8
0
 62
7
  6
CONTINUOUS
 10
535.9876239807
 20
31.6803770123
 11
535.9876239807
 21
32.3256508311
  0
LINE
  8
0
 62
7
  6
CONTINUOUS
 10
533.4438739824
 20
31.5190585802
 11
533.3860614807
 21
31.3254764164
  0
LINE
  8
0
 62
7
  6
CONTINUOUS
 10
533.7907489669
 20
31.0996306115
 11
533.6751239738
 21
31.2609490436
  0
LINE
  8
0
 62
7
  6
CONTINUOUS
 10
534.8891865358
 20
31.6158496394
 11
534.9469989807
 21
31.5190585802
  0
LINE
  8
0
 62
7
  6
CONTINUOUS
 10
535.2360615358
 20
31.5190585802
 11
535.1782489255
 21
31.6481133259
  0
LINE
  8
0
 62
7
  6
CONTINUOUS
 10
536.6647500053
 20
36.3830278803
 11
536.6647500053
 21
34.5797491918
  0
LINE
  8
0
 62
7
  6
CONTINUOUS
 10
536.6647500053
 20
33.2682737819
 11
536.6647500053
 21
32.612536077
  0
LINE
  8
0
 62
7
  6
CONTINUOUS
 10
537.0282489807
 20
31.4545312073
 11
537.0282489807
 21
30.8092573885
  0
LINE
  8
0
 62
7
  6
CONTINUOUS
 10
537.3173113704
 20
30.8092573885
 11
537.3173113704
 21
31.4545312073
  0
LINE
  8
0
 62
7
  6
CONTINUOUS
 10
533.6751239738
 20
31.3577401029
 11
533.7329364807
 21
31.4867948937
  0
LINE
  8
0
 62
7
  6
CONTINUOUS
 10
533.4438739824
 20
31.1318942979
 11
533.5594989807
 21
31.0028395296
  0
LINE
  8
0
 62
7
  6
CONTINUOUS
 10
536.9704363704
 20
31.583585953
 11
537.0282489807
 21
31.4545312073
  0
LINE
  8
0
 62
7
  6
CONTINUOUS
 10
537.7798115909
 20
31.0996306115
 11
537.8376238704
 21
30.9705758432
  0
LINE
  8
0
 62
7
  6
CONTINUOUS
 10
537.3173113704
 20
31.4545312073
 11
537.2594990909
 21
31.6158496394
  0
LINE
  8
0
 62
7
  6
CONTINUOUS
 10
537.7798115909
 20
31.6481133259
 11
537.7798115909
 21
31.583585953
  0
LINE
  8
0
 62
7
  6
CONTINUOUS
 10
537.7798115909
 20
31.1964216708
 11
537.7798115909
 21
31.0996306115
  0
LINE
  8
0
 62
7
  6
CONTINUOUS
 10
538.0581926282
 20
32.612536077
 11
538.0581926282
 21
36.3830278803
  0
LINE
  8
0
 62
7
  6
CONTINUOUS
 10
538.0688739807
 20
31.0673669025
 11
538.0688739807
 21
31.1318942979
  0
LINE
  8
0
 62
7
  6
CONTINUOUS
 10
538.3860614807
 20
36.3830278803
 11
538.3860614807
 21
32.612536077
  0
LINE
  8
0
 62
7
  6
CONTINUOUS
 10
535.1782489255
 20
31.0028395296
 11
535.2360615358
 21
31.1318942979
  0
LINE
  8
0
 62
7
  6
CONTINUOUS
 10
539.5719992012
 20
30.9060484591
 11
539.5141862601
 21
31.0673669025
  0
LINE
  8
0
 62
7
  6
CONTINUOUS
 10
539.2251242012
 20
31.583585953
 11
539.2251242012
 21
31.4867948937
  0
LINE
  8
0
 62
7
  6
CONTINUOUS
 10
539.2251242012
 20
31.3577401029
 11
539.2251242012
 21
31.1641579843
  0
LINE
  8
0
 62
7
  6
CONTINUOUS
 10
539.5141862601
 20
31.0673669025
 11
539.5141862601
 21
31.583585953
  0
LINE
  8
0
 62
7
  6
CONTINUOUS
 10
539.7795041036
 20
32.612536077
 11
539.7795041036
 21
34.4158147655
  0
LINE
  8
0
 62
7
  6
CONTINUOUS
 10
539.7795041036
 20
35.7272901754
 11
539.7795041036
 21
36.3830278803
  0
LINE
  8
0
 62
7
  6
CONTINUOUS
 10
540.0923117012
 20
32.3256508311
 11
540.0923117012
 21
32.164332399
  0
LINE
  8
0
 62
7
  6
CONTINUOUS
 10
540.0923117012
 20
31.8416954444
 11
540.0923117012
 21
30.8092573885
  0
LINE
  8
0
 62
7
  6
CONTINUOUS
 10
540.3813737601
 20
30.8092573885
 11
540.3813737601
 21
31.8416954444
  0
LINE
  8
0
 62
7
  6
CONTINUOUS
 10
540.3813737601
 20
32.164332399
 11
540.3813737601
 21
32.3256508311
  0
LINE
  8
0
 62
7
  6
CONTINUOUS
 10
534.9469989807
 20
31.1318942979
 11
534.8891865358
 21
31.035103216
  0
LINE
  8
0
 62
7
  6
CONTINUOUS
 10
537.2594990909
 20
31.6158496394
 11
537.2016864807
 21
31.6803770123
  0
LINE
  8
0
 62
7
  6
CONTINUOUS
 10
538.1266865909
 20
31.0028395296
 11
538.0688739807
 21
31.0673669025
  0
LINE
  8
0
 62
7
  6
CONTINUOUS
 10
539.2829364807
 20
30.873784767
 11
539.3407487601
 21
30.8092573885
  0
LINE
  8
0
 62
7
  6
CONTINUOUS
 10
539.2251242012
 20
30.9705758432
 11
539.2829364807
 21
30.873784767
  0
LINE
  8
0
 62
7
  6
CONTINUOUS
 10
539.6298114807
 20
30.8092573885
 11
539.5719992012
 21
30.9060484591
  0
LINE
  8
0
 62
7
  6
CONTINUOUS
 10
539.5141862601
 20
31.583585953
 11
539.4563739807
 21
31.6803770123
  0
LINE
  8
0
 62
7
  6
CONTINUOUS
 10
540.8438739807
 20
31.8416954444
 11
540.8438739807
 21
30.8092573885
  0
LINE
  8
0
 62
7
  6
CONTINUOUS
 10
541.1329367012
 20
30.8092573885
 11
541.1329367012
 21
31.5513222666
  0
LINE
  8
0
 62
7
  6
CONTINUOUS
 10
541.1329367012
 20
31.6803770123
 11
541.1329367012
 21
31.8416954444
  0
LINE
  8
0
 62
7
  6
CONTINUOUS
 10
541.6647500053
 20
34.8256508311
 11
541.6647500053
 21
32.612536077
  0
LINE
  8
0
 62
7
  6
CONTINUOUS
 10
533.5594989807
 20
31.6481133259
 11
533.4438739824
 21
31.5190585802
  0
LINE
  8
0
 62
7
  6
CONTINUOUS
 10
533.7329364807
 20
31.4867948937
 11
533.7907489669
 21
31.5513222666
  0
LINE
  8
0
 62
7
  6
CONTINUOUS
 10
533.5594989807
 20
31.0028395296
 11
533.6751239738
 21
30.9383121455
  0
LINE
  8
0
 62
7
  6
CONTINUOUS
 10
533.9641864669
 20
31.0028395296
 11
533.7907489669
 21
31.0996306115
  0
LINE
  8
0
 62
7
  6
CONTINUOUS
 10
539.1673112601
 20
31.6481133259
 11
539.2251242012
 21
31.583585953
  0
LINE
  8
0
 62
7
  6
CONTINUOUS
 10
542.1157487601
 20
31.583585953
 11
542.1735617012
 21
31.4222675209
  0
LINE
  8
0
 62
7
  6
CONTINUOUS
 10
542.4626237601
 20
31.4222675209
 11
542.4048114807
 21
31.583585953
  0
LINE
  8
0
 62
7
  6
CONTINUOUS
 10
542.1735617012
 20
31.4222675209
 11
542.1735617012
 21
30.8092573885
  0
LINE
  8
0
 62
7
  6
CONTINUOUS
 10
542.4626237601
 20
30.8092573885
 11
542.4626237601
 21
31.4222675209
  0
LINE
  8
0
 62
7
  6
CONTINUOUS
 10
542.9251239807
 20
31.6481133259
 11
542.9251239807
 21
31.583585953
  0
LINE
  8
0
 62
7
  6
CONTINUOUS
 10
543.0581926282
 20
32.612536077
 11
543.0581926282
 21
34.743683618
  0
LINE
  8
0
 62
7
  6
CONTINUOUS
 10
543.3860614807
 20
36.3830278803
 11
543.3860614807
 21
32.612536077
  0
LINE
  8
0
 62
7
  6
CONTINUOUS
 10
538.0688739807
 20
31.1318942979
 11
538.1266865909
 21
31.2286853572
  0
LINE
  8
0
 62
7
  6
CONTINUOUS
 10
533.6751239738
 20
30.9383121455
 11
533.8485614944
 21
30.873784767
  0
LINE
  8
0
 62
7
  6
CONTINUOUS
 10
535.1782489255
 20
31.6481133259
 11
535.0048114255
 21
31.7449043851
  0
LINE
  8
0
 62
7
  6
CONTINUOUS
 10
537.8376238704
 20
30.9705758432
 11
538.0110613704
 21
30.873784767
  0
LINE
  8
0
 62
7
  6
CONTINUOUS
 10
536.8548114807
 20
31.6481133259
 11
536.9704363704
 21
31.583585953
  0
LINE
  8
0
 62
7
  6
CONTINUOUS
 10
537.2016864807
 20
31.6803770123
 11
537.0860615909
 21
31.7449043851
  0
LINE
  8
0
 62
7
  6
CONTINUOUS
 10
542.9251239807
 20
31.0673669025
 11
543.0407492012
 21
30.9383121455
  0
LINE
  8
0
 62
7
  6
CONTINUOUS
 10
543.2719989807
 20
31.0028395296
 11
543.2141867012
 21
31.0673669025
  0
LINE
  8
0
 62
7
  6
CONTINUOUS
 10
542.9251239807
 20
31.583585953
 11
543.0407492012
 21
31.4545312073
  0
LINE
  8
0
 62
7
  6
CONTINUOUS
 10
542.4048114807
 20
31.583585953
 11
542.3469992012
 21
31.6803770123
  0
LINE
  8
0
 62
7
  6
CONTINUOUS
 10
544.7751235396
 20
31.0028395296
 11
544.7751235396
 21
31.0673669025
  0
LINE
  8
0
 62
7
  6
CONTINUOUS
 10
544.7795041036
 20
32.612536077
 11
544.7795041036
 21
36.3830278803
  0
LINE
  8
0
 62
7
  6
CONTINUOUS
 10
537.8376238704
 20
31.7126406987
 11
537.7798115909
 21
31.6481133259
  0
LINE
  8
0
 62
7
  6
CONTINUOUS
 10
534.7157489531
 20
31.6803770123
 11
534.8891865358
 21
31.6158496394
  0
LINE
  8
0
 62
7
  6
CONTINUOUS
 10
539.4563739807
 20
31.6803770123
 11
539.3407487601
 21
31.7449043851
  0
LINE
  8
0
 62
7
  6
CONTINUOUS
 10
543.2719989807
 20
31.5190585802
 11
543.2141867012
 21
31.583585953
  0
LINE
  8
0
 62
7
  6
CONTINUOUS
 10
544.4282492012
 20
31.1318942979
 11
544.4860614807
 21
31.0673669025
  0
LINE
  8
0
 62
7
  6
CONTINUOUS
 10
544.7751235396
 20
31.0673669025
 11
544.6594989807
 21
31.1964216708
  0
LINE
  8
0
 62
7
  6
CONTINUOUS
 10
544.4282492012
 20
31.6481133259
 11
544.4860614807
 21
31.583585953
  0
LINE
  8
0
 62
7
  6
CONTINUOUS
 10
544.7751235396
 20
31.583585953
 11
544.6594989807
 21
31.7126406987
  0
LINE
  8
0
 62
7
  6
CONTINUOUS
 10
538.0688739807
 20
31.583585953
 11
538.1266865909
 21
31.6481133259
  0
LINE
  8
0
 62
7
  6
CONTINUOUS
 10
537.8954364807
 20
31.3254764164
 11
537.7798115909
 21
31.1964216708
  0
LINE
  8
0
 62
7
  6
CONTINUOUS
 10
539.2251242012
 20
31.1641579843
 11
539.1673112601
 21
31.0996306115
  0
LINE
  8
0
 62
7
  6
CONTINUOUS
 10
539.1673112601
 20
30.9060484591
 11
539.2251242012
 21
30.9705758432
  0
LINE
  8
0
 62
7
  6
CONTINUOUS
 10
538.0110613704
 20
30.873784767
 11
538.1266865909
 21
30.8415210777
  0
LINE
  8
0
 62
7
  6
CONTINUOUS
 10
535.0048114255
 20
31.7449043851
 11
534.7735614807
 21
31.809431758
  0
LINE
  8
0
 62
7
  6
CONTINUOUS
 10
538.3579363704
 20
30.9383121455
 11
538.1266865909
 21
31.0028395296
  0
LINE
  8
0
 62
7
  6
CONTINUOUS
 10
537.0860615909
 20
31.7449043851
 11
536.9126240909
 21
31.809431758
  0
LINE
  8
0
 62
7
  6
CONTINUOUS
 10
539.3407487601
 20
31.7449043851
 11
539.1673112601
 21
31.809431758
  0
LINE
  8
0
 62
7
  6
CONTINUOUS
 10
542.0001242012
 20
31.6481133259
 11
542.1157487601
 21
31.583585953
  0
LINE
  8
0
 62
7
  6
CONTINUOUS
 10
542.3469992012
 20
31.6803770123
 11
542.2313739807
 21
31.7449043851
  0
LINE
  8
0
 62
7
  6
CONTINUOUS
 10
533.8485614944
 20
30.873784767
 11
534.0219989944
 21
30.8415210777
  0
LINE
  8
0
 62
7
  6
CONTINUOUS
 10
534.3110615082
 20
30.9383121455
 11
533.9641864669
 21
31.0028395296
  0
LINE
  8
0
 62
7
  6
CONTINUOUS
 10
536.7391865909
 20
31.6803770123
 11
536.8548114807
 21
31.6481133259
  0
LINE
  8
0
 62
7
  6
CONTINUOUS
 10
539.0516867012
 20
31.6803770123
 11
539.1673112601
 21
31.6481133259
  0
LINE
  8
0
 62
7
  6
CONTINUOUS
 10
543.3876242012
 20
30.9705758432
 11
543.2719989807
 21
31.0028395296
  0
LINE
  8
0
 62
7
  6
CONTINUOUS
 10
541.8844989807
 20
31.6803770123
 11
542.0001242012
 21
31.6481133259
  0
LINE
  8
0
 62
7
  6
CONTINUOUS
 10
543.0407492012
 20
30.9383121455
 11
543.2141867012
 21
30.873784767
  0
LINE
  8
0
 62
7
  6
CONTINUOUS
 10
542.2313739807
 20
31.7449043851
 11
542.0579364807
 21
31.809431758
  0
LINE
  8
0
 62
7
  6
CONTINUOUS
 10
543.4454364807
 20
31.4545312073
 11
543.2719989807
 21
31.5190585802
  0
LINE
  8
0
 62
7
  6
CONTINUOUS
 10
544.2548117012
 20
31.1964216708
 11
544.4282492012
 21
31.1318942979
  0
LINE
  8
0
 62
7
  6
CONTINUOUS
 10
544.6594989807
 20
31.7126406987
 11
544.4860614807
 21
31.7771680715
  0
LINE
  8
0
 62
7
  6
CONTINUOUS
 10
543.0407492012
 20
31.4545312073
 11
543.2719989807
 21
31.3577401029
  0
LINE
  8
0
 62
7
  6
CONTINUOUS
 10
544.6594989807
 20
31.1964216708
 11
544.4282492012
 21
31.29321273
  0
LINE
  8
0
 62
7
  6
CONTINUOUS
 10
543.2141867012
 20
31.583585953
 11
543.2719989807
 21
31.6481133259
  0
LINE
  8
0
 62
7
  6
CONTINUOUS
 10
533.6751239738
 20
31.7126406987
 11
533.5594989807
 21
31.6481133259
  0
LINE
  8
0
 62
7
  6
CONTINUOUS
 10
533.7907489669
 20
31.5513222666
 11
533.9641864669
 21
31.6481133259
  0
LINE
  8
0
 62
7
  6
CONTINUOUS
 10
536.1032490358
 20
31.7449043851
 11
535.9876239807
 21
31.6803770123
  0
LINE
  8
0
 62
7
  6
CONTINUOUS
 10
535.9876239807
 20
31.5513222666
 11
536.1032490358
 21
31.6158496394
  0
LINE
  8
0
 62
7
  6
CONTINUOUS
 10
535.0048114255
 20
30.9060484591
 11
535.1782489255
 21
31.0028395296
  0
LINE
  8
0
 62
7
  6
CONTINUOUS
 10
534.0219989944
 20
30.8415210777
 11
534.3688739531
 21
30.8092573885
  0
LINE
  8
0
 62
7
  6
CONTINUOUS
 10
538.1266865909
 20
30.8415210777
 11
538.3579363704
 21
30.8092573885
  0
LINE
  8
0
 62
7
  6
CONTINUOUS
 10
536.5079364807
 20
31.7126406987
 11
536.7391865909
 21
31.6803770123
  0
LINE
  8
0
 62
7
  6
CONTINUOUS
 10
538.8204365909
 20
31.7126406987
 11
539.0516867012
 21
31.6803770123
  0
LINE
  8
0
 62
7
  6
CONTINUOUS
 10
543.2719989807
 20
31.3577401029
 11
544.2548117012
 21
31.1964216708
  0
LINE
  8
0
 62
7
  6
CONTINUOUS
 10
544.4282492012
 20
31.29321273
 11
543.4454364807
 21
31.4545312073
  0
LINE
  8
0
 62
7
  6
CONTINUOUS
 10
536.9126240909
 20
31.809431758
 11
536.7391865909
 21
31.8416954444
  0
LINE
  8
0
 62
7
  6
CONTINUOUS
 10
543.2141867012
 20
30.873784767
 11
543.3876242012
 21
30.8415210777
  0
LINE
  8
0
 62
7
  6
CONTINUOUS
 10
542.0579364807
 20
31.809431758
 11
541.8844989807
 21
31.8416954444
  0
LINE
  8
0
 62
7
  6
CONTINUOUS
 10
544.3126239807
 20
31.6803770123
 11
544.4282492012
 21
31.6481133259
  0
LINE
  8
0
 62
7
  6
CONTINUOUS
 10
544.4860614807
 20
31.0673669025
 11
544.4282492012
 21
31.0028395296
  0
LINE
  8
0
 62
7
  6
CONTINUOUS
 10
543.0407492012
 20
31.7449043851
 11
542.9251239807
 21
31.6481133259
  0
LINE
  8
0
 62
7
  6
CONTINUOUS
 10
537.9532490909
 20
31.7771680715
 11
537.8376238704
 21
31.7126406987
  0
LINE
  8
0
 62
7
  6
CONTINUOUS
 10
538.0110613704
 20
31.3900038345
 11
537.8954364807
 21
31.3254764164
  0
LINE
  8
0
 62
7
  6
CONTINUOUS
 10
538.1266865909
 20
31.2286853572
 11
538.2423114807
 21
31.29321273
  0
LINE
  8
0
 62
7
  6
CONTINUOUS
 10
535.6985614255
 20
30.8092573885
 11
535.9876239807
 21
30.8092573885
  0
LINE
  8
0
 62
7
  6
CONTINUOUS
 10
537.0282489807
 20
30.8092573885
 11
537.3173113704
 21
30.8092573885
  0
LINE
  8
0
 62
7
  6
CONTINUOUS
 10
538.3579363704
 20
30.8092573885
 11
538.7048113704
 21
30.8092573885
  0
LINE
  8
0
 62
7
  6
CONTINUOUS
 10
539.3407487601
 20
30.8092573885
 11
539.6298114807
 21
30.8092573885
  0
LINE
  8
0
 62
7
  6
CONTINUOUS
 10
540.0923117012
 20
30.8092573885
 11
540.3813737601
 21
30.8092573885
  0
LINE
  8
0
 62
7
  6
CONTINUOUS
 10
540.8438739807
 20
30.8092573885
 11
541.1329367012
 21
30.8092573885
  0
LINE
  8
0
 62
7
  6
CONTINUOUS
 10
542.1735617012
 20
30.8092573885
 11
542.4626237601
 21
30.8092573885
  0
LINE
  8
0
 62
7
  6
CONTINUOUS
 10
543.7344992012
 20
30.8092573885
 11
544.0813742012
 21
30.8092573885
  0
LINE
  8
0
 62
7
  6
CONTINUOUS
 10
544.0813742012
 20
30.9383121455
 11
543.7344992012
 21
30.9383121455
  0
LINE
  8
0
 62
7
  6
CONTINUOUS
 10
538.7048113704
 20
30.9383121455
 11
538.3579363704
 21
30.9383121455
  0
LINE
  8
0
 62
7
  6
CONTINUOUS
 10
543.2141867012
 20
31.0673669025
 11
542.9251239807
 21
31.0673669025
  0
LINE
  8
0
 62
7
  6
CONTINUOUS
 10
535.2360615358
 20
31.1318942979
 11
534.9469989807
 21
31.1318942979
  0
LINE
  8
0
 62
7
  6
CONTINUOUS
 10
534.3110615082
 20
31.7126406987
 11
534.7157489531
 21
31.6803770123
  0
LINE
  8
0
 62
7
  6
CONTINUOUS
 10
534.7735614807
 20
31.809431758
 11
534.3688739531
 21
31.8416954444
  0
LINE
  8
0
 62
7
  6
CONTINUOUS
 10
543.3876242012
 20
30.8415210777
 11
543.7344992012
 21
30.8092573885
  0
LINE
  8
0
 62
7
  6
CONTINUOUS
 10
543.7344992012
 20
30.9383121455
 11
543.3876242012
 21
30.9705758432
  0
LINE
  8
0
 62
7
  6
CONTINUOUS
 10
539.1673112601
 20
31.809431758
 11
538.8204365909
 21
31.8416954444
  0
LINE
  8
0
 62
7
  6
CONTINUOUS
 10
543.9657489807
 20
31.7126406987
 11
544.3126239807
 21
31.6803770123
  0
LINE
  8
0
 62
7
  6
CONTINUOUS
 10
544.3126239807
 20
31.809431758
 11
543.9657489807
 21
31.8416954444
  0
LINE
  8
0
 62
7
  6
CONTINUOUS
 10
541.6532492012
 20
31.7126406987
 11
541.8844989807
 21
31.6803770123
  0
LINE
  8
0
 62
7
  6
CONTINUOUS
 10
544.4860614807
 20
31.7771680715
 11
544.3126239807
 21
31.809431758
  0
LINE
  8
0
 62
7
  6
CONTINUOUS
 10
544.6594989807
 20
30.9060484591
 11
544.7751235396
 21
31.0028395296
  0
LINE
  8
0
 62
7
  6
CONTINUOUS
 10
539.1673112601
 20
31.0996306115
 11
538.9938737601
 21
31.0028395296
  0
LINE
  8
0
 62
7
  6
CONTINUOUS
 10
541.2485612601
 20
31.7449043851
 11
541.1329367012
 21
31.6803770123
  0
LINE
  8
0
 62
7
  6
CONTINUOUS
 10
541.1329367012
 20
31.5513222666
 11
541.2485612601
 21
31.6158496394
  0
LINE
  8
0
 62
7
  6
CONTINUOUS
 10
533.8485614944
 20
31.7771680715
 11
533.6751239738
 21
31.7126406987
  0
LINE
  8
0
 62
7
  6
CONTINUOUS
 10
536.2766863704
 20
31.809431758
 11
536.1032490358
 21
31.7449043851
  0
LINE
  8
0
 62
7
  6
CONTINUOUS
 10
536.1032490358
 20
31.6158496394
 11
536.2766863704
 21
31.6803770123
  0
LINE
  8
0
 62
7
  6
CONTINUOUS
 10
534.8891865358
 20
31.035103216
 11
534.7157489531
 21
30.9705758432
  0
LINE
  8
0
 62
7
  6
CONTINUOUS
 10
544.3126239807
 20
30.9705758432
 11
544.0813742012
 21
30.9383121455
  0
LINE
  8
0
 62
7
  6
CONTINUOUS
 10
538.7048113704
 20
30.8092573885
 11
538.9938737601
 21
30.8415210777
  0
LINE
  8
0
 62
7
  6
CONTINUOUS
 10
544.0813742012
 20
30.8092573885
 11
544.4282492012
 21
30.8415210777
  0
LINE
  8
0
 62
7
  6
CONTINUOUS
 10
534.3688739531
 20
30.8092573885
 11
534.7735614807
 21
30.8415210777
  0
LINE
  8
0
 62
7
  6
CONTINUOUS
 10
534.7157489531
 20
30.9705758432
 11
534.3110615082
 21
30.9383121455
  0
LINE
  8
0
 62
7
  6
CONTINUOUS
 10
538.5891864807
 20
31.3577401029
 11
539.2251242012
 21
31.3577401029
  0
LINE
  8
0
 62
7
  6
CONTINUOUS
 10
539.2251242012
 20
31.4867948937
 11
538.5891864807
 21
31.4867948937
  0
LINE
  8
0
 62
7
  6
CONTINUOUS
 10
534.9469989807
 20
31.5190585802
 11
535.2360615358
 21
31.5190585802
  0
LINE
  8
0
 62
7
  6
CONTINUOUS
 10
537.7798115909
 20
31.583585953
 11
538.0688739807
 21
31.583585953
  0
LINE
  8
0
 62
7
  6
CONTINUOUS
 10
544.4860614807
 20
31.583585953
 11
544.7751235396
 21
31.583585953
  0
LINE
  8
0
 62
7
  6
CONTINUOUS
 10
538.4735615909
 20
31.7126406987
 11
538.8204365909
 21
31.7126406987
  0
LINE
  8
0
 62
7
  6
CONTINUOUS
 10
543.6188739807
 20
31.7126406987
 11
543.9657489807
 21
31.7126406987
  0
LINE
  8
0
 62
7
  6
CONTINUOUS
 10
543.9657489807
 20
31.8416954444
 11
543.6188739807
 21
31.8416954444
  0
LINE
  8
0
 62
7
  6
CONTINUOUS
 10
541.8844989807
 20
31.8416954444
 11
541.6532492012
 21
31.8416954444
  0
LINE
  8
0
 62
7
  6
CONTINUOUS
 10
541.1329367012
 20
31.8416954444
 11
540.8438739807
 21
31.8416954444
  0
LINE
  8
0
 62
7
  6
CONTINUOUS
 10
540.3813737601
 20
31.8416954444
 11
540.0923117012
 21
31.8416954444
  0
LINE
  8
0
 62
7
  6
CONTINUOUS
 10
538.8204365909
 20
31.8416954444
 11
538.4735615909
 21
31.8416954444
  0
LINE
  8
0
 62
7
  6
CONTINUOUS
 10
536.7391865909
 20
31.8416954444
 11
536.5079364807
 21
31.8416954444
  0
LINE
  8
0
 62
7
  6
CONTINUOUS
 10
540.0923117012
 20
32.164332399
 11
540.3813737601
 21
32.164332399
  0
LINE
  8
0
 62
7
  6
CONTINUOUS
 10
540.3813737601
 20
32.3256508311
 11
540.0923117012
 21
32.3256508311
  0
LINE
  8
0
 62
7
  6
CONTINUOUS
 10
535.9876239807
 20
32.3256508311
 11
535.6985614255
 21
32.3256508311
  0
LINE
  8
0
 62
7
  6
CONTINUOUS
 10
535.025405743
 20
32.612536077
 11
535.4379770916
 21
32.612536077
  0
LINE
  8
0
 62
7
  6
CONTINUOUS
 10
536.6647500053
 20
32.612536077
 11
538.0581926282
 21
32.612536077
  0
LINE
  8
0
 62
7
  6
CONTINUOUS
 10
538.3860614807
 20
32.612536077
 11
539.7795041036
 21
32.612536077
  0
LINE
  8
0
 62
7
  6
CONTINUOUS
 10
541.6647500053
 20
32.612536077
 11
543.0581926282
 21
32.612536077
  0
LINE
  8
0
 62
7
  6
CONTINUOUS
 10
543.3860614807
 20
32.612536077
 11
544.7795041036
 21
32.612536077
  0
LINE
  8
0
 62
7
  6
CONTINUOUS
 10
541.4219987601
 20
31.809431758
 11
541.2485612601
 21
31.7449043851
  0
LINE
  8
0
 62
7
  6
CONTINUOUS
 10
538.9938737601
 20
30.8415210777
 11
539.1673112601
 21
30.9060484591
  0
LINE
  8
0
 62
7
  6
CONTINUOUS
 10
544.4282492012
 20
30.8415210777
 11
544.6594989807
 21
30.9060484591
  0
LINE
  8
0
 62
7
  6
CONTINUOUS
 10
544.4282492012
 20
31.0028395296
 11
544.3126239807
 21
30.9705758432
  0
LINE
  8
0
 62
7
  6
CONTINUOUS
 10
543.3876242012
 20
31.6803770123
 11
543.6188739807
 21
31.7126406987
  0
LINE
  8
0
 62
7
  6
CONTINUOUS
 10
541.4219987601
 20
31.6803770123
 11
541.6532492012
 21
31.7126406987
  0
LINE
  8
0
 62
7
  6
CONTINUOUS
 10
538.3579363704
 20
31.3254764164
 11
538.5891864807
 21
31.3577401029
  0
LINE
  8
0
 62
7
  6
CONTINUOUS
 10
541.6532492012
 20
31.8416954444
 11
541.4219987601
 21
31.809431758
  0
LINE
  8
0
 62
7
  6
CONTINUOUS
 10
538.2423114807
 20
31.6803770123
 11
538.4735615909
 21
31.7126406987
  0
LINE
  8
0
 62
7
  6
CONTINUOUS
 10
543.6188739807
 20
31.8416954444
 11
543.2719989807
 21
31.809431758
  0
LINE
  8
0
 62
7
  6
CONTINUOUS
 10
538.5891864807
 20
31.4867948937
 11
538.2423114807
 21
31.4545312073
  0
LINE
  8
0
 62
7
  6
CONTINUOUS
 10
534.3688739531
 20
31.8416954444
 11
534.0219989944
 21
31.809431758
  0
LINE
  8
0
 62
7
  6
CONTINUOUS
 10
538.4735615909
 20
31.8416954444
 11
538.0688739807
 21
31.809431758
  0
LINE
  8
0
 62
7
  6
CONTINUOUS
 10
535.8450778741
 20
33.7600770606
 11
535.1893401692
 21
33.7600770606
  0
LINE
  8
0
 62
7
  6
CONTINUOUS
 10
541.2485612601
 20
31.6158496394
 11
541.4219987601
 21
31.6803770123
  0
LINE
  8
0
 62
7
  6
CONTINUOUS
 10
543.2719989807
 20
31.6481133259
 11
543.3876242012
 21
31.6803770123
  0
LINE
  8
0
 62
7
  6
CONTINUOUS
 10
543.2719989807
 20
31.809431758
 11
543.0407492012
 21
31.7449043851
  0
LINE
  8
0
 62
7
  6
CONTINUOUS
 10
538.9938737601
 20
31.0028395296
 11
538.7048113704
 21
30.9383121455
  0
LINE
  8
0
 62
7
  6
CONTINUOUS
 10
536.2766863704
 20
31.6803770123
 11
536.5079364807
 21
31.7126406987
  0
LINE
  8
0
 62
7
  6
CONTINUOUS
 10
536.5079364807
 20
31.8416954444
 11
536.2766863704
 21
31.809431758
  0
LINE
  8
0
 62
7
  6
CONTINUOUS
 10
534.0798114807
 20
31.6803770123
 11
534.3110615082
 21
31.7126406987
  0
LINE
  8
0
 62
7
  6
CONTINUOUS
 10
540.5991762348
 20
35.2354868967
 11
541.2549139397
 21
35.2354868967
  0
LINE
  8
0
 62
7
  6
CONTINUOUS
 10
538.2423114807
 20
31.29321273
 11
538.3579363704
 21
31.3254764164
  0
LINE
  8
0
 62
7
  6
CONTINUOUS
 10
538.2423114807
 20
31.4545312073
 11
538.0110613704
 21
31.3900038345
  0
LINE
  8
0
 62
7
  6
CONTINUOUS
 10
538.1266865909
 20
31.6481133259
 11
538.2423114807
 21
31.6803770123
  0
LINE
  8
0
 62
7
  6
CONTINUOUS
 10
534.7735614807
 20
30.8415210777
 11
535.0048114255
 21
30.9060484591
  0
LINE
  8
0
 62
7
  6
CONTINUOUS
 10
538.0688739807
 20
31.809431758
 11
537.9532490909
 21
31.7771680715
  0
LINE
  8
0
 62
7
  6
CONTINUOUS
 10
534.0219989944
 20
31.809431758
 11
533.8485614944
 21
31.7771680715
  0
LINE
  8
0
 62
7
  6
CONTINUOUS
 10
544.7795041036
 20
36.3830278803
 11
543.3860614807
 21
36.3830278803
  0
LINE
  8
0
 62
7
  6
CONTINUOUS
 10
541.4188483659
 20
36.3830278803
 11
541.0062770173
 21
36.3830278803
  0
LINE
  8
0
 62
7
  6
CONTINUOUS
 10
539.7795041036
 20
36.3830278803
 11
538.3860614807
 21
36.3830278803
  0
LINE
  8
0
 62
7
  6
CONTINUOUS
 10
538.0581926282
 20
36.3830278803
 11
536.6647500053
 21
36.3830278803
  0
LINE
  8
0
 62
7
  6
CONTINUOUS
 10
534.7795041036
 20
36.3830278803
 11
533.3860614807
 21
36.3830278803
  0
LINE
  8
0
 62
7
  6
CONTINUOUS
 10
533.9641864669
 20
31.6481133259
 11
534.0798114807
 21
31.6803770123
  0
CIRCLE
  8
0
 62
7
  6
CONTINUOUS
 10
544.0827827921
 20
38.7190934541
 40
2.0901639344
  0
ARC
  8
0
 62
7
  6
CONTINUOUS
 10
535.025405743
 20
34.2518803393
 40
1.6393442623
 50
180.0
 51
270.0
  0
ARC
  8
0
 62
7
  6
CONTINUOUS
 10
541.4188483659
 20
34.743683618
 40
1.6393442623
 50
0.0
 51
90.0
  0
ARC
  8
0
 62
7
  6
CONTINUOUS
 10
535.4379770916
 20
34.0879459131
 40
1.4754098361
 50
270.0
 51
326.2510114041
  0
ARC
  8
0
 62
7
  6
CONTINUOUS
 10
541.0062770173
 20
34.9076180442
 40
1.4754098361
 50
90.0
 51
146.2510114041
  0
ARC
  8
0
 62
7
  6
CONTINUOUS
 10
535.8450778741
 20
34.5797491918
 40
0.8196721311
 50
270.0
 51
360.0
  0
ARC
  8
0
 62
7
  6
CONTINUOUS
 10
540.5991762348
 20
34.4158147655
 40
0.8196721311
 50
90.0
 51
180.0
  0
ARC
  8
0
 62
7
  6
CONTINUOUS
 10
535.1893401692
 20
34.1699131262
 40
0.4098360656
 50
180.0
 51
270.0
  0
ARC
  8
0
 62
7
  6
CONTINUOUS
 10
541.2549139397
 20
34.8256508311
 40
0.4098360656
 50
0.0
 51
90.0
  0
SOLID
  8
0
 62
7
  6
CONTINUOUS
 10
540.0923117012
 20
32.1643327593
 11
540.0923117012
 21
32.3256512429
 12
540.3813737601
 22
32.1643327593
 13
540.3813737601
 23
32.3256512429
  0
SOLID
  8
0
 62
7
  6
CONTINUOUS
 10
534.3688739531
 20
31.841695792
 11
534.7735614807
 21
31.8094316148
 12
534.0219989944
 22
31.8094316148
 13
534.0219989944
 23
31.8094316148
  0
SOLID
  8
0
 62
7
  6
CONTINUOUS
 10
533.8485614944
 20
31.7771687019
 11
534.0219989944
 21
31.8094316148
 12
534.7735614807
 22
31.8094316148
 13
534.7735614807
 23
31.8094316148
  0
SOLID
  8
0
 62
7
  6
CONTINUOUS
 10
534.7735614807
 20
31.8094316148
 11
535.0048114255
 21
31.7449043986
 12
533.8485614944
 22
31.7771687019
 13
533.8485614944
 23
31.7771687019
  0
SOLID
  8
0
 62
7
  6
CONTINUOUS
 10
533.6751239738
 20
31.712640202
 11
533.8485614944
 21
31.7771687019
 12
535.0048114255
 22
31.7449043986
 13
535.0048114255
 23
31.7449043986
  0
SOLID
  8
0
 62
7
  6
CONTINUOUS
 10
533.6751239738
 20
31.712640202
 11
535.0048114255
 21
31.7449043986
 12
534.3110615082
 22
31.712640202
 13
534.3110615082
 23
31.712640202
  0
SOLID
  8
0
 62
7
  6
CONTINUOUS
 10
534.3110615082
 20
31.712640202
 11
535.0048114255
 21
31.7449043986
 12
534.7157489531
 22
31.6803773084
 13
534.7157489531
 23
31.6803773084
  0
SOLID
  8
0
 62
7
  6
CONTINUOUS
 10
535.0048114255
 20
31.7449043986
 11
535.1782489255
 21
31.6481130052
 12
534.7157489531
 22
31.6803773084
 13
534.7157489531
 23
31.6803773084
  0
SOLID
  8
0
 62
7
  6
CONTINUOUS
 10
534.8891865358
 20
31.6158502183
 11
534.7157489531
 21
31.6803773084
 12
535.1782489255
 22
31.6481130052
 13
535.1782489255
 23
31.6481130052
  0
SOLID
  8
0
 62
7
  6
CONTINUOUS
 10
534.8891865358
 20
31.6158502183
 11
535.1782489255
 21
31.6481130052
 12
534.9469989807
 22
31.5190586669
 13
534.9469989807
 23
31.5190586669
  0
SOLID
  8
0
 62
7
  6
CONTINUOUS
 10
535.1782489255
 20
31.6481130052
 11
535.2360615358
 21
31.5190586669
 12
534.9469989807
 22
31.5190586669
 13
534.9469989807
 23
31.5190586669
  0
SOLID
  8
0
 62
7
  6
CONTINUOUS
 10
536.2766863704
 20
31.8094307377
 11
536.5079364807
 21
31.841695041
 12
536.7391865909
 22
31.841695041
 13
536.7391865909
 23
31.841695041
  0
SOLID
  8
0
 62
7
  6
CONTINUOUS
 10
536.7391865909
 20
31.841695041
 11
536.9126240909
 21
31.8094307377
 12
536.2766863704
 22
31.8094307377
 13
536.2766863704
 23
31.8094307377
  0
SOLID
  8
0
 62
7
  6
CONTINUOUS
 10
536.1032490358
 20
31.7449036475
 11
536.2766863704
 21
31.8094307377
 12
536.9126240909
 22
31.8094307377
 13
536.9126240909
 23
31.8094307377
  0
SOLID
  8
0
 62
7
  6
CONTINUOUS
 10
536.9126240909
 20
31.8094307377
 11
537.0860615909
 21
31.7449036475
 12
536.1032490358
 22
31.7449036475
 13
536.1032490358
 23
31.7449036475
  0
SOLID
  8
0
 62
7
  6
CONTINUOUS
 10
537.0860615909
 20
31.7449036475
 11
536.5079364807
 21
31.7126400953
 12
536.1032490358
 22
31.7449036475
 13
536.1032490358
 23
31.7449036475
  0
SOLID
  8
0
 62
7
  6
CONTINUOUS
 10
535.9876239807
 20
31.6803765574
 11
536.1032490358
 21
31.7449036475
 12
536.5079364807
 22
31.7126400953
 13
536.5079364807
 23
31.7126400953
  0
SOLID
  8
0
 62
7
  6
CONTINUOUS
 10
536.5079364807
 20
31.7126400953
 11
536.2766863704
 21
31.6803765574
 12
535.9876239807
 22
31.6803765574
 13
535.9876239807
 23
31.6803765574
  0
SOLID
  8
0
 62
7
  6
CONTINUOUS
 10
536.5079364807
 20
31.7126400953
 11
537.0860615909
 21
31.7449036475
 12
536.7391865909
 22
31.6803765574
 13
536.7391865909
 23
31.6803765574
  0
SOLID
  8
0
 62
7
  6
CONTINUOUS
 10
537.0860615909
 20
31.7449036475
 11
537.2016864807
 21
31.6803765574
 12
536.7391865909
 22
31.6803765574
 13
536.7391865909
 23
31.6803765574
  0
SOLID
  8
0
 62
7
  6
CONTINUOUS
 10
536.8548114807
 20
31.6481130052
 11
536.7391865909
 21
31.6803765574
 12
537.2016864807
 22
31.6803765574
 13
537.2016864807
 23
31.6803765574
  0
SOLID
  8
0
 62
7
  6
CONTINUOUS
 10
537.2016864807
 20
31.6803765574
 11
537.2594990909
 21
31.6158494672
 12
536.8548114807
 22
31.6481130052
 13
536.8548114807
 23
31.6481130052
  0
SOLID
  8
0
 62
7
  6
CONTINUOUS
 10
536.9704363704
 20
31.583585915
 11
536.8548114807
 21
31.6481130052
 12
537.2594990909
 22
31.6158494672
 13
537.2594990909
 23
31.6158494672
  0
SOLID
  8
0
 62
7
  6
CONTINUOUS
 10
536.9704363704
 20
31.583585915
 11
537.2594990909
 21
31.6158494672
 12
537.0282489807
 22
31.4545309836
 13
537.0282489807
 23
31.4545309836
  0
SOLID
  8
0
 62
7
  6
CONTINUOUS
 10
537.2594990909
 20
31.6158494672
 11
537.3173113704
 21
31.4545309836
 12
537.0282489807
 22
31.4545309836
 13
537.0282489807
 23
31.4545309836
  0
SOLID
  8
0
 62
7
  6
CONTINUOUS
 10
536.2766863704
 20
31.6803765574
 11
536.1032490358
 21
31.6158494672
 12
535.9876239807
 22
31.6803765574
 13
535.9876239807
 23
31.6803765574
  0
SOLID
  8
0
 62
7
  6
CONTINUOUS
 10
536.1032490358
 20
31.6158494672
 11
535.9876239807
 21
31.5513216117
 12
535.9876239807
 22
31.6803765574
 13
535.9876239807
 23
31.6803765574
  0
SOLID
  8
0
 62
7
  6
CONTINUOUS
 10
535.9876239807
 20
31.5513216117
 11
535.6985614255
 21
30.8092570492
 12
535.9876239807
 22
31.6803765574
 13
535.9876239807
 23
31.6803765574
  0
SOLID
  8
0
 62
7
  6
CONTINUOUS
 10
535.9876239807
 20
31.6803765574
 11
535.6985614255
 21
30.8092570492
 12
535.9876239807
 22
32.3256504918
 13
535.9876239807
 23
32.3256504918
  0
SOLID
  8
0
 62
7
  6
CONTINUOUS
 10
535.6985614255
 20
30.8092570492
 11
535.6985614255
 21
32.3256504918
 12
535.9876239807
 22
32.3256504918
 13
535.9876239807
 23
32.3256504918
  0
SOLID
  8
0
 62
7
  6
CONTINUOUS
 10
535.9876239807
 20
31.5513216117
 11
535.9876239807
 21
30.8092570492
 12
535.6985614255
 22
30.8092570492
 13
535.6985614255
 23
30.8092570492
  0
SOLID
  8
0
 62
7
  6
CONTINUOUS
 10
537.0282489807
 20
30.8092570492
 11
537.0282489807
 21
31.4545309836
 12
537.3173113704
 22
31.4545309836
 13
537.3173113704
 23
31.4545309836
  0
SOLID
  8
0
 62
7
  6
CONTINUOUS
 10
537.3173113704
 20
31.4545309836
 11
537.3173113704
 21
30.8092570492
 12
537.0282489807
 22
30.8092570492
 13
537.0282489807
 23
30.8092570492
  0
SOLID
  8
0
 62
7
  6
CONTINUOUS
 10
538.0688739807
 20
31.809431823
 11
538.4735615909
 21
31.8416958158
 12
538.8204365909
 22
31.8416958158
 13
538.8204365909
 23
31.8416958158
  0
SOLID
  8
0
 62
7
  6
CONTINUOUS
 10
538.8204365909
 20
31.8416958158
 11
539.1673112601
 21
31.809431823
 12
538.0688739807
 22
31.809431823
 13
538.0688739807
 23
31.809431823
  0
SOLID
  8
0
 62
7
  6
CONTINUOUS
 10
537.9532490909
 20
31.7771687019
 11
538.0688739807
 21
31.809431823
 12
539.1673112601
 22
31.809431823
 13
539.1673112601
 23
31.809431823
  0
SOLID
  8
0
 62
7
  6
CONTINUOUS
 10
539.1673112601
 20
31.809431823
 11
539.3407487601
 21
31.7449043986
 12
537.9532490909
 22
31.7771687019
 13
537.9532490909
 23
31.7771687019
  0
SOLID
  8
0
 62
7
  6
CONTINUOUS
 10
537.8376238704
 20
31.7126398448
 11
537.9532490909
 21
31.7771687019
 12
539.3407487601
 22
31.7449043986
 13
539.3407487601
 23
31.7449043986
  0
SOLID
  8
0
 62
7
  6
CONTINUOUS
 10
537.8376238704
 20
31.7126398448
 11
539.3407487601
 21
31.7449043986
 12
538.4735615909
 22
31.7126398448
 13
538.4735615909
 23
31.7126398448
  0
SOLID
  8
0
 62
7
  6
CONTINUOUS
 10
538.4735615909
 20
31.7126398448
 11
539.3407487601
 21
31.7449043986
 12
538.8204365909
 22
31.7126398448
 13
538.8204365909
 23
31.7126398448
  0
SOLID
  8
0
 62
7
  6
CONTINUOUS
 10
538.8204365909
 20
31.7126398448
 11
539.3407487601
 21
31.7449043986
 12
539.0516867012
 22
31.6803774007
 13
539.0516867012
 23
31.6803774007
  0
SOLID
  8
0
 62
7
  6
CONTINUOUS
 10
539.3407487601
 20
31.7449043986
 11
539.4563739807
 21
31.6803774007
 12
539.0516867012
 22
31.6803774007
 13
539.0516867012
 23
31.6803774007
  0
SOLID
  8
0
 62
7
  6
CONTINUOUS
 10
537.7798115909
 20
31.6481126336
 11
537.8376238704
 21
31.7126398448
 12
538.4735615909
 22
31.7126398448
 13
538.4735615909
 23
31.7126398448
  0
SOLID
  8
0
 62
7
  6
CONTINUOUS
 10
539.1673112601
 20
31.6481126336
 11
539.0516867012
 21
31.6803774007
 12
539.4563739807
 22
31.6803774007
 13
539.4563739807
 23
31.6803774007
  0
SOLID
  8
0
 62
7
  6
CONTINUOUS
 10
539.1673112601
 20
31.6481126336
 11
539.4563739807
 21
31.6803774007
 12
539.2251242012
 22
31.5835861968
 13
539.2251242012
 23
31.5835861968
  0
SOLID
  8
0
 62
7
  6
CONTINUOUS
 10
539.4563739807
 20
31.6803774007
 11
539.5141862601
 21
31.5835861968
 12
539.2251242012
 22
31.5835861968
 13
539.2251242012
 23
31.5835861968
  0
SOLID
  8
0
 62
7
  6
CONTINUOUS
 10
539.2251242012
 20
31.4867945216
 11
539.2251242012
 21
31.5835861968
 12
539.5141862601
 22
31.5835861968
 13
539.5141862601
 23
31.5835861968
  0
SOLID
  8
0
 62
7
  6
CONTINUOUS
 10
539.2251242012
 20
31.4867945216
 11
539.5141862601
 21
31.5835861968
 12
539.2251242012
 22
31.3577403412
 13
539.2251242012
 23
31.3577403412
  0
SOLID
  8
0
 62
7
  6
CONTINUOUS
 10
539.2251242012
 20
31.3577403412
 11
539.5141862601
 21
31.5835861968
 12
539.2251242012
 22
31.1641579843
 13
539.2251242012
 23
31.1641579843
  0
SOLID
  8
0
 62
7
  6
CONTINUOUS
 10
539.5141862601
 20
31.5835861968
 11
539.5141862601
 21
31.0673661609
 12
539.2251242012
 22
31.1641579843
 13
539.2251242012
 23
31.1641579843
  0
SOLID
  8
0
 62
7
  6
CONTINUOUS
 10
541.4219987601
 20
31.8094310465
 11
541.6532492012
 21
31.8416957661
 12
541.8844989807
 22
31.8416957661
 13
541.8844989807
 23
31.8416957661
  0
SOLID
  8
0
 62
7
  6
CONTINUOUS
 10
541.8844989807
 20
31.8416957661
 11
542.0579364807
 21
31.8094310465
 12
541.4219987601
 22
31.8094310465
 13
541.4219987601
 23
31.8094310465
  0
SOLID
  8
0
 62
7
  6
CONTINUOUS
 10
541.2485612601
 20
31.7449047044
 11
541.4219987601
 21
31.8094310465
 12
542.0579364807
 22
31.8094310465
 13
542.0579364807
 23
31.8094310465
  0
SOLID
  8
0
 62
7
  6
CONTINUOUS
 10
542.0579364807
 20
31.8094310465
 11
542.2313739807
 21
31.7449047044
 12
541.2485612601
 22
31.7449047044
 13
541.2485612601
 23
31.7449047044
  0
SOLID
  8
0
 62
7
  6
CONTINUOUS
 10
542.2313739807
 20
31.7449047044
 11
541.6532492012
 21
31.7126400953
 12
541.2485612601
 22
31.7449047044
 13
541.2485612601
 23
31.7449047044
  0
SOLID
  8
0
 62
7
  6
CONTINUOUS
 10
541.1329367012
 20
31.6803773299
 11
541.2485612601
 21
31.7449047044
 12
541.6532492012
 22
31.7126400953
 13
541.6532492012
 23
31.7126400953
  0
SOLID
  8
0
 62
7
  6
CONTINUOUS
 10
541.6532492012
 20
31.7126400953
 11
541.4219987601
 21
31.6803773299
 12
541.1329367012
 22
31.6803773299
 13
541.1329367012
 23
31.6803773299
  0
SOLID
  8
0
 62
7
  6
CONTINUOUS
 10
541.6532492012
 20
31.7126400953
 11
542.2313739807
 21
31.7449047044
 12
541.8844989807
 22
31.6803773299
 13
541.8844989807
 23
31.6803773299
  0
SOLID
  8
0
 62
7
  6
CONTINUOUS
 10
542.2313739807
 20
31.7449047044
 11
542.3469992012
 21
31.6803773299
 12
541.8844989807
 22
31.6803773299
 13
541.8844989807
 23
31.6803773299
  0
SOLID
  8
0
 62
7
  6
CONTINUOUS
 10
542.0001242012
 20
31.6481130052
 11
541.8844989807
 21
31.6803773299
 12
542.3469992012
 22
31.6803773299
 13
542.3469992012
 23
31.6803773299
  0
SOLID
  8
0
 62
7
  6
CONTINUOUS
 10
542.0001242012
 20
31.6481130052
 11
542.3469992012
 21
31.6803773299
 12
542.1157487601
 22
31.5835862682
 13
542.1157487601
 23
31.5835862682
  0
SOLID
  8
0
 62
7
  6
CONTINUOUS
 10
542.3469992012
 20
31.6803773299
 11
542.4048114807
 21
31.5835862682
 12
542.1157487601
 22
31.5835862682
 13
542.1157487601
 23
31.5835862682
  0
SOLID
  8
0
 62
7
  6
CONTINUOUS
 10
542.1735617012
 20
31.422267832
 11
542.1157487601
 21
31.5835862682
 12
542.4048114807
 22
31.5835862682
 13
542.4048114807
 23
31.5835862682
  0
SOLID
  8
0
 62
7
  6
CONTINUOUS
 10
542.4048114807
 20
31.5835862682
 11
542.4626237601
 21
31.422267832
 12
542.1735617012
 22
31.422267832
 13
542.1735617012
 23
31.422267832
  0
SOLID
  8
0
 62
7
  6
CONTINUOUS
 10
541.4219987601
 20
31.6803773299
 11
541.2485612601
 21
31.6158502183
 12
541.1329367012
 22
31.6803773299
 13
541.1329367012
 23
31.6803773299
  0
SOLID
  8
0
 62
7
  6
CONTINUOUS
 10
541.2485612601
 20
31.6158502183
 11
541.1329367012
 21
31.5513216117
 12
541.1329367012
 22
31.6803773299
 13
541.1329367012
 23
31.6803773299
  0
SOLID
  8
0
 62
7
  6
CONTINUOUS
 10
541.1329367012
 20
31.5513216117
 11
540.8438739807
 21
30.8092577743
 12
541.1329367012
 22
31.6803773299
 13
541.1329367012
 23
31.6803773299
  0
SOLID
  8
0
 62
7
  6
CONTINUOUS
 10
541.1329367012
 20
31.6803773299
 11
540.8438739807
 21
30.8092577743
 12
541.1329367012
 22
31.8416957661
 13
541.1329367012
 23
31.8416957661
  0
SOLID
  8
0
 62
7
  6
CONTINUOUS
 10
540.8438739807
 20
30.8092577743
 11
540.8438739807
 21
31.8416957661
 12
541.1329367012
 22
31.8416957661
 13
541.1329367012
 23
31.8416957661
  0
SOLID
  8
0
 62
7
  6
CONTINUOUS
 10
541.1329367012
 20
31.5513216117
 11
541.1329367012
 21
30.8092577743
 12
540.8438739807
 22
30.8092577743
 13
540.8438739807
 23
30.8092577743
  0
SOLID
  8
0
 62
7
  6
CONTINUOUS
 10
542.1735617012
 20
30.8092577743
 11
542.1735617012
 21
31.422267832
 12
542.4626237601
 22
31.422267832
 13
542.4626237601
 23
31.422267832
  0
SOLID
  8
0
 62
7
  6
CONTINUOUS
 10
542.4626237601
 20
31.422267832
 11
542.4626237601
 21
30.8092577743
 12
542.1735617012
 22
30.8092577743
 13
542.1735617012
 23
30.8092577743
  0
SOLID
  8
0
 62
7
  6
CONTINUOUS
 10
543.2719989807
 20
31.8094314924
 11
543.6188739807
 21
31.8416958387
 12
543.9657489807
 22
31.8416958387
 13
543.9657489807
 23
31.8416958387
  0
SOLID
  8
0
 62
7
  6
CONTINUOUS
 10
543.9657489807
 20
31.8416958387
 11
544.3126239807
 21
31.8094314924
 12
543.2719989807
 22
31.8094314924
 13
543.2719989807
 23
31.8094314924
  0
SOLID
  8
0
 62
7
  6
CONTINUOUS
 10
543.0407492012
 20
31.7449043986
 11
543.2719989807
 21
31.8094314924
 12
544.3126239807
 22
31.8094314924
 13
544.3126239807
 23
31.8094314924
  0
SOLID
  8
0
 62
7
  6
CONTINUOUS
 10
543.0407492012
 20
31.7449043986
 11
544.3126239807
 21
31.8094314888
 12
544.4860614807
 22
31.7771687019
 13
544.4860614807
 23
31.7771687019
  0
SOLID
  8
0
 62
7
  6
CONTINUOUS
 10
543.0407492012
 20
31.7449043986
 11
544.4860614807
 21
31.7771687019
 12
543.6188739807
 22
31.7126401399
 13
543.6188739807
 23
31.7126401399
  0
SOLID
  8
0
 62
7
  6
CONTINUOUS
 10
543.6188739807
 20
31.7126401399
 11
544.4860614807
 21
31.7771687019
 12
543.9657489807
 22
31.7126401399
 13
543.9657489807
 23
31.7126401399
  0
SOLID
  8
0
 62
7
  6
CONTINUOUS
 10
544.4860614807
 20
31.7771687019
 11
544.6594989807
 21
31.7126401399
 12
543.9657489807
 22
31.7126401399
 13
543.9657489807
 23
31.7126401399
  0
SOLID
  8
0
 62
7
  6
CONTINUOUS
 10
544.3126239807
 20
31.6803773084
 11
543.9657489807
 21
31.7126401399
 12
544.6594989807
 22
31.7126401399
 13
544.6594989807
 23
31.7126401399
  0
SOLID
  8
0
 62
7
  6
CONTINUOUS
 10
542.9251239807
 20
31.6481128977
 11
543.0407492012
 21
31.7449043986
 12
543.6188739807
 22
31.7126401399
 13
543.6188739807
 23
31.7126401399
  0
SOLID
  8
0
 62
7
  6
CONTINUOUS
 10
544.3126239807
 20
31.6803773084
 11
544.6594989807
 21
31.7126401399
 12
544.4282492012
 22
31.6481128977
 13
544.4282492012
 23
31.6481128977
  0
SOLID
  8
0
 62
7
  6
CONTINUOUS
 10
544.4282492012
 20
31.6481128977
 11
544.6594989807
 21
31.7126401399
 12
544.4860614807
 22
31.5835858812
 13
544.4860614807
 23
31.5835858812
  0
SOLID
  8
0
 62
7
  6
CONTINUOUS
 10
544.6594989807
 20
31.7126401399
 11
544.7751235396
 21
31.5835858812
 12
544.4860614807
 22
31.5835858812
 13
544.4860614807
 23
31.5835858812
  0
SOLID
  8
0
 62
7
  6
CONTINUOUS
 10
534.0798114807
 20
31.6803773084
 11
533.5594989807
 21
31.6481129264
 12
534.3110615082
 22
31.7126401456
 13
534.3110615082
 23
31.7126401456
  0
SOLID
  8
0
 62
7
  6
CONTINUOUS
 10
533.5594989807
 20
31.6481129264
 11
533.6751239738
 21
31.7126401456
 12
534.3110615082
 22
31.7126401456
 13
534.3110615082
 23
31.7126401456
  0
SOLID
  8
0
 62
7
  6
CONTINUOUS
 10
534.0798114807
 20
31.6803773084
 11
533.9641864669
 21
31.6481129264
 12
533.5594989807
 22
31.6481129264
 13
533.5594989807
 23
31.6481129264
  0
SOLID
  8
0
 62
7
  6
CONTINUOUS
 10
533.4438739824
 20
31.5190588248
 11
533.5594989807
 21
31.6481129264
 12
533.9641864669
 22
31.6481129264
 13
533.9641864669
 23
31.6481129264
  0
SOLID
  8
0
 62
7
  6
CONTINUOUS
 10
537.7798115909
 20
31.6481130555
 11
538.4735615909
 21
31.7126400953
 12
538.2423114807
 22
31.6803773084
 13
538.2423114807
 23
31.6803773084
  0
SOLID
  8
0
 62
7
  6
CONTINUOUS
 10
538.2423114807
 20
31.6803773084
 11
538.1266865909
 21
31.6481130555
 12
537.7798115909
 22
31.6481130555
 13
537.7798115909
 23
31.6481130555
  0
SOLID
  8
0
 62
7
  6
CONTINUOUS
 10
537.7798115909
 20
31.5835859653
 11
537.7798115909
 21
31.6481130555
 12
538.1266865909
 22
31.6481130555
 13
538.1266865909
 23
31.6481130555
  0
SOLID
  8
0
 62
7
  6
CONTINUOUS
 10
538.1266865909
 20
31.6481130555
 11
538.0688739807
 21
31.5835859653
 12
537.7798115909
 22
31.5835859653
 13
537.7798115909
 23
31.5835859653
  0
SOLID
  8
0
 62
7
  6
CONTINUOUS
 10
542.9251239807
 20
31.6481130555
 11
543.6188739807
 21
31.7126400953
 12
543.3876242012
 22
31.6803773084
 13
543.3876242012
 23
31.6803773084
  0
SOLID
  8
0
 62
7
  6
CONTINUOUS
 10
543.3876242012
 20
31.6803773084
 11
543.2719989807
 21
31.6481130555
 12
542.9251239807
 22
31.6481130555
 13
542.9251239807
 23
31.6481130555
  0
SOLID
  8
0
 62
7
  6
CONTINUOUS
 10
542.9251239807
 20
31.5835859653
 11
542.9251239807
 21
31.6481130555
 12
543.2719989807
 22
31.6481130555
 13
543.2719989807
 23
31.6481130555
  0
SOLID
  8
0
 62
7
  6
CONTINUOUS
 10
543.2719989807
 20
31.6481130555
 11
543.2141867012
 21
31.5835859653
 12
542.9251239807
 22
31.5835859653
 13
542.9251239807
 23
31.5835859653
  0
SOLID
  8
0
 62
7
  6
CONTINUOUS
 10
543.0407492012
 20
31.4545317347
 11
542.9251239807
 21
31.5835859653
 12
543.2141867012
 22
31.5835859653
 13
543.2141867012
 23
31.5835859653
  0
SOLID
  8
0
 62
7
  6
CONTINUOUS
 10
533.4438739824
 20
31.5190588248
 11
533.9641864669
 21
31.6481130052
 12
533.7907489669
 22
31.5513216117
 13
533.7907489669
 23
31.5513216117
  0
SOLID
  8
0
 62
7
  6
CONTINUOUS
 10
533.7907489669
 20
31.5513216117
 11
533.7329364807
 21
31.4867945216
 12
533.4438739824
 22
31.5190588248
 13
533.4438739824
 23
31.5190588248
  0
SOLID
  8
0
 62
7
  6
CONTINUOUS
 10
533.3860614807
 20
31.325476038
 11
533.4438739824
 21
31.5190588248
 12
533.7329364807
 22
31.4867945216
 13
533.7329364807
 23
31.4867945216
  0
SOLID
  8
0
 62
7
  6
CONTINUOUS
 10
538.2423114807
 20
31.4545317347
 11
538.5891864807
 21
31.4867945557
 12
539.2251242012
 22
31.4867945557
 13
539.2251242012
 23
31.4867945557
  0
SOLID
  8
0
 62
7
  6
CONTINUOUS
 10
538.2423114807
 20
31.4545317347
 11
539.2251242012
 21
31.4867945557
 12
538.0110613704
 22
31.3900038345
 13
538.0110613704
 23
31.3900038345
  0
SOLID
  8
0
 62
7
  6
CONTINUOUS
 10
538.0110613704
 20
31.3900038345
 11
539.2251242012
 21
31.4867945557
 12
538.5891864807
 22
31.3577403754
 13
538.5891864807
 23
31.3577403754
  0
SOLID
  8
0
 62
7
  6
CONTINUOUS
 10
539.2251242012
 20
31.4867945557
 11
539.2251242012
 21
31.3577403754
 12
538.5891864807
 22
31.3577403754
 13
538.5891864807
 23
31.3577403754
  0
SOLID
  8
0
 62
7
  6
CONTINUOUS
 10
543.0407492012
 20
31.4545313481
 11
543.2141867012
 21
31.583585915
 12
543.2719989807
 22
31.5190588248
 13
543.2719989807
 23
31.5190588248
  0
SOLID
  8
0
 62
7
  6
CONTINUOUS
 10
543.2719989807
 20
31.5190588248
 11
543.4454364807
 21
31.4545313481
 12
543.0407492012
 22
31.4545313481
 13
543.0407492012
 23
31.4545313481
  0
SOLID
  8
0
 62
7
  6
CONTINUOUS
 10
543.2719989807
 20
31.3577403412
 11
543.0407492012
 21
31.4545313481
 12
543.4454364807
 22
31.4545313481
 13
543.4454364807
 23
31.4545313481
  0
SOLID
  8
0
 62
7
  6
CONTINUOUS
 10
543.4454364807
 20
31.4545313481
 11
544.4282492012
 21
31.2932132511
 12
543.2719989807
 22
31.3577403412
 13
543.2719989807
 23
31.3577403412
  0
SOLID
  8
0
 62
7
  6
CONTINUOUS
 10
544.2548117012
 20
31.1964222346
 11
543.2719989807
 21
31.3577403412
 12
544.4282492012
 22
31.2932132511
 13
544.4282492012
 23
31.2932132511
  0
SOLID
  8
0
 62
7
  6
CONTINUOUS
 10
544.4282492012
 20
31.2932132511
 11
544.6594989807
 21
31.1964222346
 12
544.2548117012
 22
31.1964222346
 13
544.2548117012
 23
31.1964222346
  0
SOLID
  8
0
 62
7
  6
CONTINUOUS
 10
544.4282492012
 20
31.1318947675
 11
544.2548117012
 21
31.1964222346
 12
544.6594989807
 22
31.1964222346
 13
544.6594989807
 23
31.1964222346
  0
SOLID
  8
0
 62
7
  6
CONTINUOUS
 10
544.4282492012
 20
31.1318947675
 11
544.6594989807
 21
31.1964222346
 12
544.4860614807
 22
31.0673665164
 13
544.4860614807
 23
31.0673665164
  0
SOLID
  8
0
 62
7
  6
CONTINUOUS
 10
544.6594989807
 20
31.1964222346
 11
544.7751235396
 21
31.0673665164
 12
544.4860614807
 22
31.0673665164
 13
544.4860614807
 23
31.0673665164
  0
SOLID
  8
0
 62
7
  6
CONTINUOUS
 10
544.4282492012
 20
31.0028394316
 11
544.4860614807
 21
31.0673665164
 12
544.7751235396
 22
31.0673665164
 13
544.7751235396
 23
31.0673665164
  0
SOLID
  8
0
 62
7
  6
CONTINUOUS
 10
544.7751235396
 20
31.0673665164
 11
544.7751235396
 21
31.0028394316
 12
544.4282492012
 22
31.0028394316
 13
544.4282492012
 23
31.0028394316
  0
SOLID
  8
0
 62
7
  6
CONTINUOUS
 10
544.3126239807
 20
30.9705762839
 11
544.4282492012
 21
31.0028394316
 12
544.7751235396
 22
31.0028394316
 13
544.7751235396
 23
31.0028394316
  0
SOLID
  8
0
 62
7
  6
CONTINUOUS
 10
544.3126239807
 20
30.9705762839
 11
544.7751235396
 21
31.0028394316
 12
544.0813742012
 22
30.9383123468
 13
544.0813742012
 23
30.9383123468
  0
SOLID
  8
0
 62
7
  6
CONTINUOUS
 10
544.7751235396
 20
31.0028394316
 11
544.6594989807
 21
30.9060491937
 12
544.0813742012
 22
30.9383123468
 13
544.0813742012
 23
30.9383123468
  0
SOLID
  8
0
 62
7
  6
CONTINUOUS
 10
544.6594989807
 20
30.9060491937
 11
543.2141867012
 21
30.8737848904
 12
544.0813742012
 22
30.9383123468
 13
544.0813742012
 23
30.9383123468
  0
SOLID
  8
0
 62
7
  6
CONTINUOUS
 10
544.0813742012
 20
30.9383123468
 11
543.2141867012
 21
30.8737848904
 12
543.7344992012
 22
30.9383123468
 13
543.7344992012
 23
30.9383123468
  0
SOLID
  8
0
 62
7
  6
CONTINUOUS
 10
543.2141867012
 20
30.8737848904
 11
543.0407492012
 21
30.9383123468
 12
543.7344992012
 22
30.9383123468
 13
543.7344992012
 23
30.9383123468
  0
SOLID
  8
0
 62
7
  6
CONTINUOUS
 10
543.2141867012
 20
30.8737848904
 11
544.6594989807
 21
30.9060491937
 12
543.3876242012
 22
30.8415205581
 13
543.3876242012
 23
30.8415205581
  0
SOLID
  8
0
 62
7
  6
CONTINUOUS
 10
544.6594989807
 20
30.9060491937
 11
544.4282492012
 21
30.8415205581
 12
543.3876242012
 22
30.8415205581
 13
543.3876242012
 23
30.8415205581
  0
SOLID
  8
0
 62
7
  6
CONTINUOUS
 10
543.7344992012
 20
30.8092581772
 11
543.3876242012
 21
30.8415205581
 12
544.4282492012
 22
30.8415205581
 13
544.4282492012
 23
30.8415205581
  0
SOLID
  8
0
 62
7
  6
CONTINUOUS
 10
544.4282492012
 20
30.8415205581
 11
544.0813742012
 21
30.8092581772
 12
543.7344992012
 22
30.8092581772
 13
543.7344992012
 23
30.8092581772
  0
SOLID
  8
0
 62
7
  6
CONTINUOUS
 10
533.3860614807
 20
31.325476038
 11
533.7329364807
 21
31.4867945216
 12
533.6751239738
 22
31.3577403412
 13
533.6751239738
 23
31.3577403412
  0
SOLID
  8
0
 62
7
  6
CONTINUOUS
 10
533.6751239738
 20
31.3577403412
 11
533.6751239738
 21
31.2609490436
 12
533.3860614807
 22
31.325476038
 13
533.3860614807
 23
31.325476038
  0
SOLID
  8
0
 62
7
  6
CONTINUOUS
 10
533.4438739824
 20
31.1318947675
 11
533.3860614807
 21
31.325476038
 12
533.6751239738
 22
31.2609490436
 13
533.6751239738
 23
31.2609490436
  0
SOLID
  8
0
 62
7
  6
CONTINUOUS
 10
533.6751239738
 20
31.2609490436
 11
533.7907489669
 21
31.0996304642
 12
533.4438739824
 22
31.1318947675
 13
533.4438739824
 23
31.1318947675
  0
SOLID
  8
0
 62
7
  6
CONTINUOUS
 10
533.5594989807
 20
31.0028388804
 11
533.4438739824
 21
31.1318947675
 12
533.7907489669
 22
31.0996304642
 13
533.7907489669
 23
31.0996304642
  0
SOLID
  8
0
 62
7
  6
CONTINUOUS
 10
533.7907489669
 20
31.0996304642
 11
533.9641864669
 21
31.0028388804
 12
533.5594989807
 22
31.0028388804
 13
533.5594989807
 23
31.0028388804
  0
SOLID
  8
0
 62
7
  6
CONTINUOUS
 10
533.6751239738
 20
30.9383122606
 11
533.5594989807
 21
31.0028388804
 12
533.9641864669
 22
31.0028388804
 13
533.9641864669
 23
31.0028388804
  0
SOLID
  8
0
 62
7
  6
CONTINUOUS
 10
533.9641864669
 20
31.0028388804
 11
534.3110615082
 21
30.9383122606
 12
533.6751239738
 22
30.9383122606
 13
533.6751239738
 23
30.9383122606
  0
SOLID
  8
0
 62
7
  6
CONTINUOUS
 10
533.8485614944
 20
30.8737848904
 11
533.6751239738
 21
30.9383122606
 12
534.3110615082
 22
30.9383122606
 13
534.3110615082
 23
30.9383122606
  0
SOLID
  8
0
 62
7
  6
CONTINUOUS
 10
537.8954364807
 20
31.3254759532
 11
538.0110613704
 21
31.3900038345
 12
538.5891864807
 22
31.3577403412
 13
538.5891864807
 23
31.3577403412
  0
SOLID
  8
0
 62
7
  6
CONTINUOUS
 10
538.5891864807
 20
31.3577403412
 11
538.3579363704
 21
31.3254759532
 12
537.8954364807
 22
31.3254759532
 13
537.8954364807
 23
31.3254759532
  0
SOLID
  8
0
 62
7
  6
CONTINUOUS
 10
537.7798115909
 20
31.1964218576
 11
537.8954364807
 21
31.3254759532
 12
538.3579363704
 22
31.3254759532
 13
538.3579363704
 23
31.3254759532
  0
SOLID
  8
0
 62
7
  6
CONTINUOUS
 10
538.1266865909
 20
31.2286853572
 11
537.7798115909
 21
31.1964218576
 12
538.2423114807
 22
31.2932132511
 13
538.2423114807
 23
31.2932132511
  0
SOLID
  8
0
 62
7
  6
CONTINUOUS
 10
537.7798115909
 20
31.1964218576
 11
538.3579363704
 21
31.325476038
 12
538.2423114807
 22
31.2932132511
 13
538.2423114807
 23
31.2932132511
  0
SOLID
  8
0
 62
7
  6
CONTINUOUS
 10
538.1266865909
 20
31.2286853572
 11
538.0688739807
 21
31.1318947675
 12
537.7798115909
 22
31.1964218576
 13
537.7798115909
 23
31.1964218576
  0
SOLID
  8
0
 62
7
  6
CONTINUOUS
 10
537.7798115909
 20
31.0996304642
 11
537.7798115909
 21
31.1964218576
 12
538.0688739807
 22
31.1318947675
 13
538.0688739807
 23
31.1318947675
  0
SOLID
  8
0
 62
7
  6
CONTINUOUS
 10
538.0688739807
 20
31.1318947675
 11
538.0688739807
 21
31.0673661609
 12
537.7798115909
 22
31.0996304642
 13
537.7798115909
 23
31.0996304642
  0
SOLID
  8
0
 62
7
  6
CONTINUOUS
 10
537.8376238704
 20
30.9705762839
 11
537.7798115909
 21
31.0996304642
 12
538.0688739807
 22
31.0673661609
 13
538.0688739807
 23
31.0673661609
  0
SOLID
  8
0
 62
7
  6
CONTINUOUS
 10
539.2251242012
 20
31.1641579843
 11
539.5141862601
 21
31.0673661609
 12
539.1673112601
 22
31.0996304642
 13
539.1673112601
 23
31.0996304642
  0
SOLID
  8
0
 62
7
  6
CONTINUOUS
 10
538.9938737601
 20
31.0028390707
 11
539.1673112601
 21
31.0996304642
 12
539.5141862601
 22
31.0673661609
 13
539.5141862601
 23
31.0673661609
  0
SOLID
  8
0
 62
7
  6
CONTINUOUS
 10
538.9938737601
 20
31.0028390707
 11
539.5141862601
 21
31.0673661609
 12
539.2251242012
 22
30.9705762839
 13
539.2251242012
 23
30.9705762839
  0
SOLID
  8
0
 62
7
  6
CONTINUOUS
 10
539.5141862601
 20
31.0673661609
 11
539.5719992012
 21
30.9060491937
 12
539.2251242012
 22
30.9705762839
 13
539.2251242012
 23
30.9705762839
  0
SOLID
  8
0
 62
7
  6
CONTINUOUS
 10
539.2829364807
 20
30.8737848904
 11
539.2251242012
 21
30.9705762839
 12
539.5719992012
 22
30.9060491937
 13
539.5719992012
 23
30.9060491937
  0
SOLID
  8
0
 62
7
  6
CONTINUOUS
 10
539.2829364807
 20
30.8737848904
 11
539.5719992012
 21
30.9060491937
 12
539.3407487601
 22
30.8092576254
 13
539.3407487601
 23
30.8092576254
  0
SOLID
  8
0
 62
7
  6
CONTINUOUS
 10
539.5719992012
 20
30.9060491937
 11
539.6298114807
 21
30.8092576254
 12
539.3407487601
 22
30.8092576254
 13
539.3407487601
 23
30.8092576254
  0
SOLID
  8
0
 62
7
  6
CONTINUOUS
 10
534.8891865358
 20
31.035103216
 11
534.9469989807
 21
31.1318946289
 12
535.2360615358
 22
31.1318946289
 13
535.2360615358
 23
31.1318946289
  0
SOLID
  8
0
 62
7
  6
CONTINUOUS
 10
535.2360615358
 20
31.1318946289
 11
535.1782489255
 21
31.0028390707
 12
534.8891865358
 22
31.035103216
 13
534.8891865358
 23
31.035103216
  0
SOLID
  8
0
 62
7
  6
CONTINUOUS
 10
534.7157489531
 20
30.9705762839
 11
534.8891865358
 21
31.035103216
 12
535.1782489255
 22
31.0028390707
 13
535.1782489255
 23
31.0028390707
  0
SOLID
  8
0
 62
7
  6
CONTINUOUS
 10
534.7157489531
 20
30.9705762839
 11
535.1782489255
 21
31.0028390707
 12
534.3110615082
 22
30.9383119806
 13
534.3110615082
 23
30.9383119806
  0
SOLID
  8
0
 62
7
  6
CONTINUOUS
 10
535.1782489255
 20
31.0028390707
 11
535.0048114255
 21
30.9060491937
 12
534.3110615082
 22
30.9383119806
 13
534.3110615082
 23
30.9383119806
  0
SOLID
  8
0
 62
7
  6
CONTINUOUS
 10
533.8485614944
 20
30.8737848904
 11
534.3110615082
 21
30.9383119806
 12
535.0048114255
 22
30.9060491937
 13
535.0048114255
 23
30.9060491937
  0
SOLID
  8
0
 62
7
  6
CONTINUOUS
 10
533.8485614944
 20
30.8737848904
 11
535.0048114255
 21
30.9060491937
 12
534.0219989944
 22
30.8415207131
 13
534.0219989944
 23
30.8415207131
  0
SOLID
  8
0
 62
7
  6
CONTINUOUS
 10
535.0048114255
 20
30.9060491937
 11
534.7735614807
 21
30.8415207131
 12
534.0219989944
 22
30.8415207131
 13
534.0219989944
 23
30.8415207131
  0
SOLID
  8
0
 62
7
  6
CONTINUOUS
 10
534.3688739531
 20
30.8092578002
 11
534.0219989944
 21
30.8415207131
 12
534.7735614807
 22
30.8415207131
 13
534.7735614807
 23
30.8415207131
  0
SOLID
  8
0
 62
7
  6
CONTINUOUS
 10
537.8376238704
 20
30.9705762839
 11
538.0688739807
 21
31.0673661609
 12
538.1266865909
 22
31.0028390707
 13
538.1266865909
 23
31.0028390707
  0
SOLID
  8
0
 62
7
  6
CONTINUOUS
 10
538.1266865909
 20
31.0028390707
 11
538.3579363704
 21
30.9383119806
 12
537.8376238704
 22
30.9705762839
 13
537.8376238704
 23
30.9705762839
  0
SOLID
  8
0
 62
7
  6
CONTINUOUS
 10
538.0110613704
 20
30.8737848904
 11
537.8376238704
 21
30.9705762839
 12
538.3579363704
 22
30.9383119806
 13
538.3579363704
 23
30.9383119806
  0
SOLID
  8
0
 62
7
  6
CONTINUOUS
 10
538.7048113704
 20
30.9383119664
 11
538.9938737601
 21
31.0028390707
 12
539.2251242012
 22
30.9705762839
 13
539.2251242012
 23
30.9705762839
  0
SOLID
  8
0
 62
7
  6
CONTINUOUS
 10
539.2251242012
 20
30.9705762839
 11
539.1673112601
 21
30.9060491937
 12
538.7048113704
 22
30.9383119664
 13
538.7048113704
 23
30.9383119664
  0
SOLID
  8
0
 62
7
  6
CONTINUOUS
 10
539.1673112601
 20
30.9060491937
 11
538.0110613704
 21
30.8737848904
 12
538.7048113704
 22
30.9383119664
 13
538.7048113704
 23
30.9383119664
  0
SOLID
  8
0
 62
7
  6
CONTINUOUS
 10
538.0110613704
 20
30.8737848904
 11
538.3579363704
 21
30.9383119664
 12
538.7048113704
 22
30.9383119664
 13
538.7048113704
 23
30.9383119664
  0
SOLID
  8
0
 62
7
  6
CONTINUOUS
 10
538.0110613704
 20
30.8737848904
 11
539.1673112601
 21
30.9060491937
 12
538.1266865909
 22
30.8415205568
 13
538.1266865909
 23
30.8415205568
  0
SOLID
  8
0
 62
7
  6
CONTINUOUS
 10
539.1673112601
 20
30.9060491937
 11
538.9938737601
 21
30.8415205568
 12
538.1266865909
 22
30.8415205568
 13
538.1266865909
 23
30.8415205568
  0
SOLID
  8
0
 62
7
  6
CONTINUOUS
 10
538.3579363704
 20
30.8092577215
 11
538.1266865909
 21
30.8415205568
 12
538.9938737601
 22
30.8415205568
 13
538.9938737601
 23
30.8415205568
  0
SOLID
  8
0
 62
7
  6
CONTINUOUS
 10
538.9938737601
 20
30.8415205568
 11
538.7048113704
 21
30.8092577215
 12
538.3579363704
 22
30.8092577215
 13
538.3579363704
 23
30.8092577215
  0
SOLID
  8
0
 62
7
  6
CONTINUOUS
 10
543.3876242012
 20
30.9705762839
 11
543.0407492012
 21
30.9383119664
 12
543.2719989807
 22
31.0028390707
 13
543.2719989807
 23
31.0028390707
  0
SOLID
  8
0
 62
7
  6
CONTINUOUS
 10
543.2719989807
 20
31.0028390707
 11
543.0407492012
 21
30.9383119664
 12
543.2141867012
 22
31.0673661467
 13
543.2141867012
 23
31.0673661467
  0
SOLID
  8
0
 62
7
  6
CONTINUOUS
 10
543.0407492012
 20
30.9383119664
 11
542.9251239807
 21
31.0673661467
 12
543.2141867012
 22
31.0673661467
 13
543.2141867012
 23
31.0673661467
  0
SOLID
  8
0
 62
7
  6
CONTINUOUS
 10
543.3876242012
 20
30.9705762839
 11
543.7344992012
 21
30.9383119664
 12
543.0407492012
 22
30.9383119664
 13
543.0407492012
 23
30.9383119664
  0
SOLID
  8
0
 62
7
  6
CONTINUOUS
 10
540.0923117012
 20
30.8092578002
 11
540.0923117012
 21
31.841695792
 12
540.3813737601
 22
30.8092578002
 13
540.3813737601
 23
31.841695792
  0
ENDBLK
  8
0
  6
BYBLOCK
 62
0
  0
BLOCK
  8
0
 62
2
  6
CONTINUOUS
  2
SYMBOL_2_BL0
 70
64
 10
416.1419631151
 20
19.7009994242
  0
TEXT
  8
0
 62
7
  6
CONTINUOUS
 10
402.4066669574
 20
19.0744135318
  7
TEXTSTYLE_3
 40
2.7338706658
  1
Ammeraal Beltech
 41
1.0
 51
15.0
 72
0
  0
TEXT
  8
0
 62
7
  6
CONTINUOUS
 10
413.2074677831
 20
16.800876859
  7
TEXTSTYLE_4
 40
1.0935482663
  1
Innovation & Service in Belting
 41
1.0
 72
0
  0
LINE
  8
0
 62
7
  6
CONTINUOUS
 10
396.382126306
 20
19.8410068404
 11
397.1602782994
 21
23.5019241381
  0
LINE
  8
0
 62
7
  6
CONTINUOUS
 10
407.2554465892
 20
27.1653180497
 11
397.6480960424
 21
24.0437006284
  0
LINE
  8
0
 62
7
  6
CONTINUOUS
 10
396.6074096383
 20
19.1476560374
 11
404.1144848995
 21
12.3882551114
  0
LINE
  8
0
 62
7
  6
CONTINUOUS
 10
396.869944049
 20
20.3827833308
 11
407.6782134142
 21
23.8946029297
  0
LINE
  8
0
 62
7
  6
CONTINUOUS
 10
407.674008277
 20
13.544814366
 11
399.2285486083
 21
21.1491404077
  0
LINE
  8
0
 62
7
  6
CONTINUOUS
 10
408.1938309968
 20
26.320392934
 11
407.2172714596
 21
21.7260415315
  0
LINE
  8
0
 62
7
  6
CONTINUOUS
 10
406.5174695119
 20
18.4337322177
 11
405.8310213004
 21
15.2042472933
  0
LINE
  8
0
 62
7
  6
CONTINUOUS
 10
408.8749270954
 20
13.9350165436
 11
409.831158631
 21
18.4337322177
  0
LINE
  8
0
 62
7
  6
CONTINUOUS
 10
410.5309605787
 20
21.7260415315
 11
410.9752023811
 21
23.8160348909
  0
LINE
  8
0
 62
7
  6
CONTINUOUS
 10
404.8275859748
 20
12.2366807987
 11
408.3871093524
 21
13.3932400533
  0
LINE
  8
0
 62
7
  6
CONTINUOUS
 10
407.9685476645
 20
27.013743737
 11
410.7499190488
 21
24.5093856939
  0
ARC
  8
0
 62
7
  6
CONTINUOUS
 10
397.8733793747
 20
23.3503498254
 40
0.7290321776
 50
108.0
 51
168.0
  0
ARC
  8
0
 62
7
  6
CONTINUOUS
 10
407.4807299215
 20
26.4719672466
 40
0.7290321776
 50
348.0
 51
108.0
  0
ARC
  8
0
 62
7
  6
CONTINUOUS
 10
410.2621013058
 20
23.9676092036
 40
0.7290321776
 50
348.0
 51
48.0
  0
ARC
  8
0
 62
7
  6
CONTINUOUS
 10
404.6023026425
 20
12.9300316018
 40
0.7290321776
 50
228.0
 51
288.0
  0
ARC
  8
0
 62
7
  6
CONTINUOUS
 10
397.0952273813
 20
19.6894325277
 40
0.7290321776
 50
108.0
 51
228.0
  0
ARC
  8
0
 62
7
  6
CONTINUOUS
 10
408.1618260201
 20
14.0865908563
 40
0.7290321776
 50
228.0
 51
348.0
  0
ENDBLK
  8
0
  6
BYBLOCK
 62
0
  0
ENDSEC
  0
SECTION
  2
ENTITIES
  0
TEXT
  8
0
 62
5
  6
CONTINUOUS
 10
480.0
 20
25.636
  7
TEXTSTYLE_2
 40
2.8
  1
Scale :
 41
0.6
 51
0.000019
 72
0
  0
TEXT
  8
0
 62
5
  6
CONTINUOUS
 10
500.0
 20
25.636
  7
TEXTSTYLE_2
 40
2.8
  1
Belt type:
 41
0.6
 51
0.000019
 72
0
  0
INSERT
  8
0
 62
2
  6
CONTINUOUS
  2
SYMBOL_2_BL0
 10
416.1419631151
 20
19.7009994242
  0
INSERT
  8
0
 62
2
  6
CONTINUOUS
  2
SYMBOL_3_BL1
 10
557.4079930916
 20
35.8092573885
  0
LINE
  8
0
 62
2
  6
CONTINUOUS
 10
394.0
 20
30.0
 11
584.0
 21
30.0
  0
LINE
  8
0
 62
2
  6
CONTINUOUS
 10
394.0
 20
30.0
 11
394.0
 21
10.0
  0
LINE
  8
0
 62
2
  6
CONTINUOUS
 10
394.0
 20
10.0
 11
584.0
 21
10.0
  0
LINE
  8
0
 62
2
  6
CONTINUOUS
 10
479.0
 20
30.0
 11
479.0
 21
10.0
  0
LINE
  8
0
 62
2
  6
CONTINUOUS
 10
499.0
 20
30.0
 11
499.0
 21
10.0
  0
LINE
  8
0
 62
2
  6
CONTINUOUS
 10
584.0
 20
30.0
 11
584.0
 21
10.0
  0
TEXT
  8
0
 62
5
  6
CONTINUOUS
 10
397.0
 20
23.303
  7
TEXTSTYLE_5
 40
1.52
  1
                                                                     Ammeraal Beltech Modular A/S
 41
1.0
 72
0
  0
TEXT
  8
0
 62
5
  6
CONTINUOUS
 10
397.0
 20
20.595
  7
TEXTSTYLE_5
 40
1.5
  1
                                                                      Hjulmagervej 21, 7100 Vejle,  DK
 41
1.0
 72
0
  0
TEXT
  8
0
 62
5
  6
CONTINUOUS
 10
397.0
 20
17.881
  7
TEXTSTYLE_5
 40
1.495
  1
                                                                      tel: 
 41
1.0
 72
0
  0
TEXT
  8
0
 62
5
  6
CONTINUOUS
 10
441.9869465649
 20
17.881
  7
TEXTSTYLE_5
 40
1.51
  1
+45 75723100     fax: +45 75723348
 41
1.0
 72
0
  0
TEXT
  8
0
 62
5
  6
CONTINUOUS
 10
397.0
 20
15.177
  7
TEXTSTYLE_5
 40
1.5
  1
                                                                      admin@unichains.dk  www.unichains.com
 41
1.0
 72
0
  0
TEXT
  8
0
 62
5
  6
CONTINUOUS
 10
483.75
 20
13.75
  7
TEXTSTYLE_6
 40
5.0
  1
1:1
 41
0.7
 72
1
 11
489.0
 21
13.75
  0
TEXT
  8
0
 62
5
  6
CONTINUOUS
 10
502.0
 20
13.75
  7
TEXTSTYLE_7
 40
7.5
  1
Sprocket Z13
 41
0.6361111111
 72
0
  0
LINE
  8
0
 62
7
  6
CONTINUOUS
 10
0.0
 20
0.0
 11
0.0
 21
420.0
  0
LINE
  8
0
 62
7
  6
CONTINUOUS
 10
10.0
 20
10.0
 11
10.0
 21
410.0
  0
LINE
  8
0
 62
7
  6
CONTINUOUS
 10
0.0
 20
0.0
 11
594.0
 21
0.0
  0
LINE
  8
0
 62
7
  6
CONTINUOUS
 10
10.0
 20
10.0
 11
584.0
 21
10.0
  0
LINE
  8
0
 62
7
  6
CONTINUOUS
 10
394.0
 20
30.0
 11
584.0
 21
30.0
  0
LINE
  8
0
 62
7
  6
CONTINUOUS
 10
179.0
 20
5.0
 11
179.0
 21
10.0
  0
LINE
  8
0
 62
7
  6
CONTINUOUS
 10
179.0
 20
410.0
 11
179.0
 21
415.0
  0
LINE
  8
0
 62
7
  6
CONTINUOUS
 10
594.0
 20
420.0
 11
584.0
 21
410.0
  0
LINE
  8
0
 62
7
  6
CONTINUOUS
 10
384.0
 20
410.0
 11
384.0
 21
415.0
  0
LINE
  8
0
 62
7
  6
CONTINUOUS
 10
584.0
 20
297.0
 11
589.0
 21
297.0
  0
LINE
  8
0
 62
7
  6
CONTINUOUS
 10
10.0
 20
410.0
 11
584.0
 21
410.0
  0
LINE
  8
0
 62
7
  6
CONTINUOUS
 10
0.0
 20
420.0
 11
594.0
 21
420.0
  0
LINE
  8
0
 62
7
  6
CONTINUOUS
 10
584.0
 20
10.0
 11
584.0
 21
410.0
  0
LINE
  8
0
 62
7
  6
CONTINUOUS
 10
594.0
 20
0.0
 11
594.0
 21
420.0
  0
LINE
  8
SURFACE
 62
7
  6
CONTINUOUS
 10
75.0204092301
 20
269.9379766823
 11
70.5952281626
 21
233.4933317342
  0
LINE
  8
0
 62
7
  6
CONTINUOUS
 10
67.67570541
 20
209.4488986323
 11
67.384946176
 21
207.0542809017
  0
LINE
  8
SURFACE
 62
7
  6
CONTINUOUS
 10
109.3437384757
 20
317.6905235403
 11
88.4887642307
 21
287.4768772507
  0
LINE
  8
0
 62
7
  6
CONTINUOUS
 10
74.7296499962
 20
267.5433589517
 11
73.3593611329
 21
265.5581528065
  0
LINE
  8
SURFACE
 62
7
  6
CONTINUOUS
 10
161.9272522257
 20
344.0224574538
 11
129.4201080729
 21
326.9613920738
  0
LINE
  8
0
 62
7
  6
CONTINUOUS
 10
107.9734496124
 20
315.705317395
 11
105.8375477846
 21
314.5843096387
  0
LINE
  8
SURFACE
 62
7
  6
CONTINUOUS
 10
186.7098119585
 20
101.3416743891
 11
222.3553377764
 21
110.1275074194
  0
LINE
  8
0
 62
7
  6
CONTINUOUS
 10
245.8725503088
 20
115.9239797088
 11
248.2146614272
 21
116.5012582523
  0
LINE
  8
SURFACE
 62
7
  6
CONTINUOUS
 10
129.8891847266
 20
116.5012582523
 11
165.5347105446
 21
107.715425222
  0
LINE
  8
0
 62
7
  6
CONTINUOUS
 10
189.0519230769
 20
101.9189529326
 11
191.3940341954
 21
101.3416743891
  0
LINE
  8
SURFACE
 62
7
  6
CONTINUOUS
 10
86.6220278626
 20
156.330265255
 11
114.1015932907
 21
131.9854946307
  0
LINE
  8
0
 62
7
  6
CONTINUOUS
 10
132.2312958451
 20
115.9239797088
 11
134.0368575318
 21
114.3243916358
  0
LINE
  8
SURFACE
 62
7
  6
CONTINUOUS
 10
66.820325578
 20
211.7043498845
 11
79.8386933416
 21
177.3777352299
  0
LINE
  8
0
 62
7
  6
CONTINUOUS
 10
88.4275895493
 20
154.730677182
 11
89.2829693812
 21
152.4752259298
  0
LINE
  8
0
 62
7
  6
CONTINUOUS
 10
95.2701644968
 20
258.9431037544
 11
95.0904409584
 21
258.4542616491
  0
LINE
  8
0
 62
7
  6
CONTINUOUS
 10
95.5896840905
 20
258.2707141576
 11
95.7694076289
 21
258.7595562629
  0
LINE
  8
0
 62
7
  6
CONTINUOUS
 10
99.3785075871
 20
268.5260245677
 11
99.1132153444
 21
267.9601226098
  0
LINE
  8
0
 62
7
  6
CONTINUOUS
 10
97.8751850473
 20
265.3192471659
 11
97.6098928047
 21
264.753345208
  0
LINE
  8
0
 62
7
  6
CONTINUOUS
 10
103.4735086862
 20
276.0089052761
 11
103.0080891899
 21
275.1950926795
  0
LINE
  8
0
 62
7
  6
CONTINUOUS
 10
101.4566908691
 20
272.4823840239
 11
100.9912713728
 21
271.6685714272
  0
LINE
  8
0
 62
7
  6
CONTINUOUS
 10
105.4244657003
 20
279.0477263172
 11
104.0651605672
 21
276.9495629406
  0
LINE
  8
0
 62
7
  6
CONTINUOUS
 10
104.851404537
 20
277.1848899611
 11
105.9275215327
 21
278.8459366346
  0
LINE
  8
0
 62
7
  6
CONTINUOUS
 10
108.2316566524
 20
283.1050153323
 11
106.7705357025
 21
281.0764381044
  0
LINE
  8
0
 62
7
  6
CONTINUOUS
 10
107.6537504896
 20
281.2105302984
 11
108.8104717061
 21
282.8164879154
  0
LINE
  8
0
 62
7
  6
CONTINUOUS
 10
115.7629475496
 20
292.275027547
 11
112.9911552629
 21
289.1640364855
  0
LINE
  8
0
 62
7
  6
CONTINUOUS
 10
113.3883031621
 20
288.8101905688
 11
115.8136202234
 21
291.5323064126
  0
LINE
  8
0
 62
7
  6
CONTINUOUS
 10
117.341225764
 20
293.9070006778
 11
116.9083553068
 21
293.4561701472
  0
LINE
  8
0
 62
7
  6
CONTINUOUS
 10
119.4571152023
 20
296.0165484235
 11
119.3076417304
 21
295.8714239209
  0
LINE
  8
0
 62
7
  6
CONTINUOUS
 10
119.6034344789
 20
295.4172318912
 11
119.9023780015
 21
295.7074775747
  0
LINE
  8
0
 62
7
  6
CONTINUOUS
 10
131.6839969432
 20
306.1147270965
 11
129.6443793178
 21
304.6690577213
  0
LINE
  8
0
 62
7
  6
CONTINUOUS
 10
130.4618729163
 20
304.59651392
 11
132.0765689062
 21
305.7410012562
  0
LINE
  8
0
 62
7
  6
CONTINUOUS
 10
135.8014059122
 20
308.8478365517
 11
135.0978597101
 21
308.401216092
  0
LINE
  8
0
 62
7
  6
CONTINUOUS
 10
139.9555336863
 20
311.3218803959
 11
139.5929488131
 21
311.1165855593
  0
LINE
  8
0
 62
7
  6
CONTINUOUS
 10
139.7643811536
 20
310.6023923053
 11
140.308254314
 21
310.9103322108
  0
LINE
  8
0
 62
7
  6
CONTINUOUS
 10
97.4436935288
 20
251.3395866849
 11
97.4291552106
 21
250.9097995178
  0
LINE
  8
0
 62
7
  6
CONTINUOUS
 10
97.8376660127
 20
250.7906511913
 11
97.8522043577
 21
251.2204383506
  0
LINE
  8
0
 62
7
  6
CONTINUOUS
 10
95.7992636378
 20
255.6549396929
 11
95.7668379757
 21
255.2261306578
  0
LINE
  8
0
 62
7
  6
CONTINUOUS
 10
96.1700319904
 20
255.0900720164
 11
96.2024576525
 21
255.5188810515
  0
LINE
  8
0
 62
7
  6
CONTINUOUS
 10
107.3474044467
 20
278.2984081885
 11
107.2667748424
 21
277.9782950017
  0
LINE
  8
0
 62
7
  6
CONTINUOUS
 10
94.9779108386
 20
253.1438383607
 11
94.8320782191
 21
252.643838049
  0
LINE
  8
0
 62
7
  6
CONTINUOUS
 10
94.2487478769
 20
250.6438372672
 11
94.1029152887
 21
250.1438370628
  0
LINE
  8
0
 62
7
  6
CONTINUOUS
 10
97.4291552106
 20
250.9097995178
 11
97.3124891234
 21
250.509799297
  0
LINE
  8
0
 62
7
  6
CONTINUOUS
 10
97.7209999255
 20
250.3906509706
 11
97.8376660127
 21
250.7906511913
  0
LINE
  8
0
 62
7
  6
CONTINUOUS
 10
98.1584977004
 20
251.8906516196
 11
98.3043303199
 21
252.3906519313
  0
LINE
  8
0
 62
7
  6
CONTINUOUS
 10
110.1153035909
 20
282.2617803167
 11
110.0189858971
 21
281.946032811
  0
LINE
  8
0
 62
7
  6
CONTINUOUS
 10
111.928074696
 20
280.9560977907
 11
111.8317570022
 21
280.6403502851
  0
LINE
  8
0
 62
7
  6
CONTINUOUS
 10
95.9324878035
 20
256.0497340677
 11
95.7992636378
 21
255.6549396929
  0
LINE
  8
0
 62
7
  6
CONTINUOUS
 10
95.4995094077
 20
254.7666527733
 11
95.3329792482
 21
254.273159946
  0
LINE
  8
0
 62
7
  6
CONTINUOUS
 10
98.5585316485
 20
253.1846907197
 11
98.7250618081
 21
253.6781835469
  0
LINE
  8
0
 62
7
  6
CONTINUOUS
 10
99.3245702681
 20
255.4547573862
 11
99.4911003324
 21
255.948249931
  0
LINE
  8
0
 62
7
  6
CONTINUOUS
 10
118.8585952652
 20
295.2871668563
 11
118.707859431
 21
294.8442652755
  0
LINE
  8
0
 62
7
  6
CONTINUOUS
 10
96.7678941728
 20
258.3924611769
 11
96.5881706344
 21
257.9036190716
  0
LINE
  8
0
 62
7
  6
CONTINUOUS
 10
99.7833269595
 20
256.7289150227
 11
99.9630504978
 21
257.217757128
  0
LINE
  8
0
 62
7
  6
CONTINUOUS
 10
107.7458379202
 20
277.5438142724
 11
107.9397438165
 21
278.0387757412
  0
LINE
  8
0
 62
7
  6
CONTINUOUS
 10
112.2888111083
 20
280.1827734326
 11
112.5068898026
 21
280.6675703357
  0
LINE
  8
0
 62
7
  6
CONTINUOUS
 10
102.1371084681
 20
262.6310072667
 11
102.4024007107
 21
263.1969092246
  0
LINE
  8
0
 62
7
  6
CONTINUOUS
 10
103.6404310078
 20
265.8377846685
 11
103.9057232505
 21
266.4036866264
  0
LINE
  8
0
 62
7
  6
CONTINUOUS
 10
121.3882729704
 20
295.0742795173
 11
121.0880670854
 21
294.4862567554
  0
LINE
  8
0
 62
7
  6
CONTINUOUS
 10
102.8885030554
 20
269.5113159847
 11
102.2181763609
 21
268.2161714396
  0
LINE
  8
0
 62
7
  6
CONTINUOUS
 10
102.6905694553
 20
267.9716754081
 11
103.3608961498
 21
269.2668199532
  0
LINE
  8
0
 62
7
  6
CONTINUOUS
 10
105.3316052218
 20
269.1863341138
 11
105.6418848859
 21
269.728875845
  0
LINE
  8
0
 62
7
  6
CONTINUOUS
 10
106.3658703744
 20
270.994805861
 11
106.7795773824
 21
271.7181962156
  0
LINE
  8
0
 62
7
  6
CONTINUOUS
 10
107.5035628709
 20
272.9841262316
 11
107.8138425351
 21
273.5266679628
  0
LINE
  8
0
 62
7
  6
CONTINUOUS
 10
97.5022061586
 20
250.020437903
 11
97.7209999255
 21
250.3906509706
  0
LINE
  8
0
 62
7
  6
CONTINUOUS
 10
123.164285189
 20
292.6468975603
 11
123.3891231504
 21
293.0134695384
  0
LINE
  8
0
 62
7
  6
CONTINUOUS
 10
107.2667748424
 20
277.9782950017
 11
106.1906578466
 21
276.3172483282
  0
LINE
  8
0
 62
7
  6
CONTINUOUS
 10
106.7263590704
 20
275.9701917399
 11
107.7458379202
 21
277.5438142724
  0
LINE
  8
0
 62
7
  6
CONTINUOUS
 10
108.2614873205
 20
274.2309526744
 11
108.6013136038
 21
274.7554935186
  0
LINE
  8
0
 62
7
  6
CONTINUOUS
 10
96.2024576525
 20
255.5188810515
 11
96.436480322
 21
255.8796607659
  0
LINE
  8
0
 62
7
  6
CONTINUOUS
 10
119.3038580645
 20
294.9780960076
 11
119.6034344789
 21
295.4172318912
  0
LINE
  8
0
 62
7
  6
CONTINUOUS
 10
123.0185953311
 20
293.3951010244
 11
122.7190189167
 21
292.9559651409
  0
LINE
  8
0
 62
7
  6
CONTINUOUS
 10
110.0189858971
 20
281.946032811
 11
108.8622646806
 21
280.340075194
  0
LINE
  8
0
 62
7
  6
CONTINUOUS
 10
109.3801992303
 20
279.9670230811
 11
110.5369204467
 21
281.5729806981
  0
LINE
  8
0
 62
7
  6
CONTINUOUS
 10
111.8317570022
 20
280.6403502851
 11
110.6750357858
 21
279.0343926681
  0
LINE
  8
0
 62
7
  6
CONTINUOUS
 10
110.8276901584
 20
278.1541962046
 11
112.2888111083
 21
280.1827734326
  0
LINE
  8
0
 62
7
  6
CONTINUOUS
 10
133.1927710196
 20
304.7066184786
 11
132.9993366549
 21
304.4391175776
  0
LINE
  8
0
 62
7
  6
CONTINUOUS
 10
96.1332043839
 20
256.3118150472
 11
95.9324878035
 21
256.0497340677
  0
LINE
  8
0
 62
7
  6
CONTINUOUS
 10
119.3076417304
 20
295.8714239209
 11
118.8585952652
 21
295.2871668563
  0
LINE
  8
0
 62
7
  6
CONTINUOUS
 10
139.5448598702
 20
310.3558482086
 11
139.7643811536
 21
310.6023923053
  0
LINE
  8
0
 62
7
  6
CONTINUOUS
 10
140.435920063
 20
308.7820875025
 11
140.6554413463
 21
309.0286315992
  0
LINE
  8
0
 62
7
  6
CONTINUOUS
 10
142.5577859802
 20
307.7829550629
 11
142.3382646968
 21
307.5364109662
  0
LINE
  8
0
 62
7
  6
CONTINUOUS
 10
119.0195607128
 20
289.3734906837
 11
116.6635374278
 21
286.7291484594
  0
LINE
  8
0
 62
7
  6
CONTINUOUS
 10
116.7243459609
 20
285.8378844726
 11
119.4961382475
 21
288.9488755342
  0
LINE
  8
0
 62
7
  6
CONTINUOUS
 10
133.2834609145
 20
303.8581288986
 11
133.6468647114
 21
304.2461031666
  0
LINE
  8
0
 62
7
  6
CONTINUOUS
 10
120.5149995513
 20
289.9932064897
 11
120.9478700085
 21
290.4440370202
  0
LINE
  8
0
 62
7
  6
CONTINUOUS
 10
105.7969386712
 20
279.4270022566
 11
105.4244657003
 21
279.0477263172
  0
LINE
  8
0
 62
7
  6
CONTINUOUS
 10
96.436480322
 20
255.8796607659
 11
96.6038908132
 21
256.0430430106
  0
LINE
  8
0
 62
7
  6
CONTINUOUS
 10
118.9270253212
 20
293.8708486986
 11
119.3007038692
 21
294.2336549727
  0
LINE
  8
0
 62
7
  6
CONTINUOUS
 10
121.0880670854
 20
294.4862567554
 11
120.7891235628
 21
294.1960110719
  0
LINE
  8
0
 62
7
  6
CONTINUOUS
 10
121.0855457819
 20
293.8907059205
 11
121.3844893045
 21
294.1809516041
  0
LINE
  8
0
 62
7
  6
CONTINUOUS
 10
121.0786080245
 20
292.2529368654
 11
120.7049260553
 21
291.8901272697
  0
LINE
  8
0
 62
7
  6
CONTINUOUS
 10
122.7190189167
 20
292.9559651409
 11
122.2706019222
 21
292.5205949547
  0
LINE
  8
0
 62
7
  6
CONTINUOUS
 10
122.5663947226
 20
292.0664028715
 11
123.164285189
 21
292.6468975603
  0
LINE
  8
0
 62
7
  6
CONTINUOUS
 10
108.6223802041
 20
283.4654615257
 11
108.2316566524
 21
283.1050153323
  0
LINE
  8
0
 62
7
  6
CONTINUOUS
 10
139.5929488131
 20
311.1165855593
 11
139.1921392425
 21
310.7673963937
  0
LINE
  8
0
 62
7
  6
CONTINUOUS
 10
140.4840090058
 20
309.5428248533
 11
140.0831994353
 21
309.1936356877
  0
LINE
  8
0
 62
7
  6
CONTINUOUS
 10
142.509697074
 20
307.0222176473
 11
142.9105107894
 21
307.3714091704
  0
LINE
  8
0
 62
7
  6
CONTINUOUS
 10
105.9275215327
 20
278.8459366346
 11
106.1867182117
 21
279.050364292
  0
LINE
  8
0
 62
7
  6
CONTINUOUS
 10
120.0543727769
 20
296.4481529123
 11
119.4571152023
 21
296.0165484235
  0
LINE
  8
0
 62
7
  6
CONTINUOUS
 10
108.8104717061
 20
282.8164879154
 11
109.0794342497
 21
283.0078847168
  0
LINE
  8
0
 62
7
  6
CONTINUOUS
 10
110.5369204467
 20
281.5729806981
 11
110.8058829904
 21
281.7643774994
  0
LINE
  8
0
 62
7
  6
CONTINUOUS
 10
132.9993366549
 20
304.4391175776
 11
131.3846406649
 21
303.2946302414
  0
LINE
  8
0
 62
7
  6
CONTINUOUS
 10
131.7537476955
 20
302.7738768672
 11
133.2834609145
 21
303.8581288986
  0
LINE
  8
0
 62
7
  6
CONTINUOUS
 10
132.5357180683
 20
300.5898224707
 11
133.0456224746
 21
300.9512398145
  0
LINE
  8
0
 62
7
  6
CONTINUOUS
 10
121.3844893045
 20
294.1809516041
 11
121.9070118538
 21
294.5399955024
  0
LINE
  8
0
 62
7
  6
CONTINUOUS
 10
119.9023780015
 20
295.7074775747
 11
120.3501655254
 21
295.9939608826
  0
LINE
  8
0
 62
7
  6
CONTINUOUS
 10
122.2706019222
 20
292.5205949547
 11
121.8228178194
 21
292.2341149685
  0
LINE
  8
0
 62
7
  6
CONTINUOUS
 10
138.0085961623
 20
306.3427332513
 11
136.4256202268
 21
305.3378391337
  0
LINE
  8
0
 62
7
  6
CONTINUOUS
 10
136.5657354847
 20
304.9227530719
 11
138.3245989771
 21
306.0393029434
  0
LINE
  8
0
 62
7
  6
CONTINUOUS
 10
136.3704889787
 20
303.2867085669
 11
136.8981476238
 21
303.6216732728
  0
LINE
  8
0
 62
7
  6
CONTINUOUS
 10
139.3605532926
 20
305.1848410484
 11
139.8882119378
 21
305.5198057543
  0
LINE
  8
0
 62
7
  6
CONTINUOUS
 10
122.1933456387
 20
291.8524834825
 11
122.5663947226
 21
292.0664028715
  0
LINE
  8
0
 62
7
  6
CONTINUOUS
 10
141.3479116919
 20
310.7654746711
 11
141.8011365592
 21
311.0220896927
  0
LINE
  8
0
 62
7
  6
CONTINUOUS
 10
140.9372380226
 20
309.7994422243
 11
140.4840090058
 21
309.5428248533
  0
LINE
  8
0
 62
7
  6
CONTINUOUS
 10
140.6554413463
 20
309.0286315992
 11
141.2899586503
 21
309.3878940392
  0
LINE
  8
0
 62
7
  6
CONTINUOUS
 10
142.3382646968
 20
307.5364109662
 11
141.7037473928
 21
307.1771485262
  0
LINE
  8
0
 62
7
  6
CONTINUOUS
 10
142.0564680572
 20
306.7656002762
 11
142.509697074
 21
307.0222176473
  0
LINE
  8
0
 62
7
  6
CONTINUOUS
 10
110.851315449
 20
282.3735231669
 11
110.6432334094
 21
282.2666510616
  0
LINE
  8
0
 62
7
  6
CONTINUOUS
 10
132.170436417
 20
306.3291169065
 11
131.6839969432
 21
306.1147270965
  0
LINE
  8
0
 62
7
  6
CONTINUOUS
 10
122.356058319
 20
295.1242525669
 11
121.8341686614
 21
294.9140988685
  0
LINE
  8
0
 62
7
  6
CONTINUOUS
 10
140.4611738505
 20
311.4859212737
 11
139.9555336863
 21
311.3218803959
  0
LINE
  8
0
 62
7
  6
CONTINUOUS
 10
141.4428823362
 20
309.9634854515
 11
140.9372380226
 21
309.7994422243
  0
LINE
  8
0
 62
7
  6
CONTINUOUS
 10
141.5508278884
 20
306.6015594066
 11
142.0564680572
 21
306.7656002762
  0
LINE
  8
0
 62
7
  6
CONTINUOUS
 10
120.5015274091
 20
296.5857460202
 11
120.0543727769
 21
296.4481529123
  0
LINE
  8
0
 62
7
  6
CONTINUOUS
 10
132.0765689062
 20
305.7410012562
 11
132.3930389478
 21
305.8349176991
  0
LINE
  8
0
 62
7
  6
CONTINUOUS
 10
107.9397438165
 20
278.0387757412
 11
107.8984431959
 21
278.5619965975
  0
LINE
  8
0
 62
7
  6
CONTINUOUS
 10
112.5068898026
 20
280.6675703357
 11
112.4914417345
 21
281.1921913235
  0
LINE
  8
0
 62
7
  6
CONTINUOUS
 10
121.8341686614
 20
294.9140988685
 11
121.9107955197
 21
295.4333234156
  0
LINE
  8
0
 62
7
  6
CONTINUOUS
 10
110.6432334094
 20
282.2666510616
 11
110.6786705991
 21
282.4978738712
  0
LINE
  8
0
 62
7
  6
CONTINUOUS
 10
119.2278606767
 20
294.6077583388
 11
119.3038580645
 21
294.9780960076
  0
LINE
  8
0
 62
7
  6
CONTINUOUS
 10
123.539855544
 20
293.4563678177
 11
123.6158529058
 21
293.8267055132
  0
LINE
  8
0
 62
7
  6
CONTINUOUS
 10
133.6468647114
 20
304.2461031666
 11
133.8022461703
 21
304.7474238305
  0
LINE
  8
0
 62
7
  6
CONTINUOUS
 10
123.0939632482
 20
293.6165518148
 11
123.0185953311
 21
293.3951010244
  0
LINE
  8
0
 62
7
  6
CONTINUOUS
 10
123.3891231504
 20
293.0134695384
 11
123.539855544
 21
293.4563678177
  0
LINE
  8
0
 62
7
  6
CONTINUOUS
 10
139.3777538836
 20
310.016729968
 11
139.5448598702
 21
310.3558482086
  0
LINE
  8
0
 62
7
  6
CONTINUOUS
 10
140.0831994353
 20
309.1936356877
 11
139.7489874622
 21
308.5153992065
  0
LINE
  8
0
 62
7
  6
CONTINUOUS
 10
140.2688140764
 20
308.4429692619
 11
140.435920063
 21
308.7820875025
  0
LINE
  8
0
 62
7
  6
CONTINUOUS
 10
142.7248919667
 20
308.1220733035
 11
142.5577859802
 21
307.7829550629
  0
LINE
  8
0
 62
7
  6
CONTINUOUS
 10
139.1921392425
 20
310.7673963937
 11
138.8961561162
 21
310.2330565909
  0
LINE
  8
0
 62
7
  6
CONTINUOUS
 10
142.9105107894
 20
307.3714091704
 11
143.2064897526
 21
307.9057466481
  0
LINE
  8
0
 62
7
  6
CONTINUOUS
 10
97.3124891234
 20
250.509799297
 11
96.9915676381
 21
250.1693733162
  0
LINE
  8
0
 62
7
  6
CONTINUOUS
 10
97.2104511832
 20
249.7800119032
 11
97.5022061586
 21
250.020437903
  0
LINE
  8
0
 62
7
  6
CONTINUOUS
 10
96.434719468
 20
256.5398813664
 11
96.1332043839
 21
256.3118150472
  0
LINE
  8
0
 62
7
  6
CONTINUOUS
 10
106.2913392744
 20
279.6031665246
 11
105.7969386712
 21
279.4270022566
  0
LINE
  8
0
 62
7
  6
CONTINUOUS
 10
121.8228178194
 20
292.2341149685
 11
121.5992387927
 21
292.1653167537
  0
LINE
  8
0
 62
7
  6
CONTINUOUS
 10
121.7461875659
 20
291.714887073
 11
122.1933456387
 21
291.8524834825
  0
LINE
  8
0
 62
7
  6
CONTINUOUS
 10
109.1248667083
 20
283.6170303842
 11
108.6223802041
 21
283.4654615257
  0
LINE
  8
0
 62
7
  6
CONTINUOUS
 10
97.3269377006
 20
251.6991609727
 11
97.4436935288
 21
251.3395866849
  0
LINE
  8
0
 62
7
  6
CONTINUOUS
 10
95.7668379757
 20
255.2261306578
 11
95.8685170017
 21
254.8620059796
  0
LINE
  8
0
 62
7
  6
CONTINUOUS
 10
96.2717110164
 20
254.7259473382
 11
96.1700319904
 21
255.0900720164
  0
LINE
  8
0
 62
7
  6
CONTINUOUS
 10
97.8522043577
 20
251.2204383506
 11
97.8084097217
 21
251.4502256141
  0
LINE
  8
0
 62
7
  6
CONTINUOUS
 10
116.9083553068
 20
293.4561701472
 11
117.0126445666
 21
292.4895791334
  0
LINE
  8
0
 62
7
  6
CONTINUOUS
 10
117.6265416011
 20
291.9001383747
 11
117.5222521263
 21
292.8667295949
  0
LINE
  8
0
 62
7
  6
CONTINUOUS
 10
116.6635374278
 20
286.7291484594
 11
116.3189546085
 21
291.7796432638
  0
LINE
  8
0
 62
7
  6
CONTINUOUS
 10
115.8136202234
 20
291.5323064126
 11
116.0889092664
 21
286.4040379888
  0
LINE
  8
0
 62
7
  6
CONTINUOUS
 10
118.707859431
 20
294.8442652755
 11
118.7053381274
 21
294.2487144405
  0
LINE
  8
0
 62
7
  6
CONTINUOUS
 10
123.0952221375
 20
293.914325625
 11
123.0939632482
 21
293.6165518148
  0
LINE
  8
0
 62
7
  6
CONTINUOUS
 10
121.3895353328
 20
295.3720565956
 11
121.3882729704
 21
295.0742795173
  0
LINE
  8
0
 62
7
  6
CONTINUOUS
 10
133.239704775
 20
305.0006763037
 11
133.1927710196
 21
304.7066184786
  0
LINE
  8
0
 62
7
  6
CONTINUOUS
 10
140.1923522334
 20
308.1551735558
 11
140.2688140764
 21
308.4429692619
  0
LINE
  8
0
 62
7
  6
CONTINUOUS
 10
96.8165685229
 20
249.5693730387
 11
97.2104511832
 21
249.7800119032
  0
LINE
  8
0
 62
7
  6
CONTINUOUS
 10
96.7029284629
 20
256.6692489507
 11
96.434719468
 21
256.5398813664
  0
LINE
  8
0
 62
7
  6
CONTINUOUS
 10
96.6038908132
 20
256.0430430106
 11
96.8720998082
 21
256.1724105949
  0
LINE
  8
0
 62
7
  6
CONTINUOUS
 10
97.8084097217
 20
251.4502256141
 11
97.5895261065
 21
251.8395868535
  0
LINE
  8
0
 62
7
  6
CONTINUOUS
 10
95.8685170017
 20
254.8620059796
 11
96.0035019262
 21
254.5965794716
  0
LINE
  8
0
 62
7
  6
CONTINUOUS
 10
96.4066959409
 20
254.4605208302
 11
96.2717110164
 21
254.7259473382
  0
LINE
  8
0
 62
7
  6
CONTINUOUS
 10
107.2821123677
 20
278.5889399991
 11
107.3474044467
 21
278.2984081885
  0
LINE
  8
0
 62
7
  6
CONTINUOUS
 10
110.0644183557
 20
282.5551784785
 11
110.1153035909
 21
282.2617803167
  0
LINE
  8
0
 62
7
  6
CONTINUOUS
 10
111.8771894004
 20
281.2494959961
 11
111.928074696
 21
280.9560977907
  0
LINE
  8
0
 62
7
  6
CONTINUOUS
 10
133.8022461703
 20
304.7474238305
 11
133.8111270197
 21
305.2753014185
  0
LINE
  8
0
 62
7
  6
CONTINUOUS
 10
139.3537073375
 20
309.6363601179
 11
139.3777538836
 21
310.016729968
  0
LINE
  8
0
 62
7
  6
CONTINUOUS
 10
142.7489384762
 20
308.5024432184
 11
142.7248919667
 21
308.1220733035
  0
LINE
  8
0
 62
7
  6
CONTINUOUS
 10
138.8961561162
 20
310.2330565909
 11
138.8338807233
 21
309.7087900624
  0
LINE
  8
0
 62
7
  6
CONTINUOUS
 10
143.2064897526
 20
307.9057466481
 11
143.2687651271
 21
308.430013209
  0
LINE
  8
0
 62
7
  6
CONTINUOUS
 10
96.9915676381
 20
250.1693733162
 11
96.6268514482
 21
250.0587344637
  0
LINE
  8
0
 62
7
  6
CONTINUOUS
 10
97.0788875771
 20
251.9885222694
 11
97.3269377006
 21
251.6991609727
  0
LINE
  8
0
 62
7
  6
CONTINUOUS
 10
100.5769997902
 20
265.3181424591
 11
102.1371084681
 21
262.6310072667
  0
LINE
  8
0
 62
7
  6
CONTINUOUS
 10
99.1132153444
 20
267.9601226098
 11
100.3243510074
 21
265.7817179221
  0
LINE
  8
0
 62
7
  6
CONTINUOUS
 10
102.4024007107
 20
263.1969092246
 11
101.1912645417
 21
265.3753128329
  0
LINE
  8
0
 62
7
  6
CONTINUOUS
 10
100.8422920329
 20
265.884044417
 11
99.3785075871
 21
268.5260245677
  0
LINE
  8
0
 62
7
  6
CONTINUOUS
 10
107.8984431959
 20
278.5619965975
 11
107.7112221883
 21
279.0556380785
  0
LINE
  8
0
 62
7
  6
CONTINUOUS
 10
110.6786705991
 20
282.4978738712
 11
110.5160210181
 21
283.0001474333
  0
LINE
  8
0
 62
7
  6
CONTINUOUS
 10
112.4914417345
 20
281.1921913235
 11
112.3287921232
 21
281.6944649074
  0
LINE
  8
0
 62
7
  6
CONTINUOUS
 10
119.3007038692
 20
294.2336549727
 11
119.2278606767
 21
294.6077583388
  0
LINE
  8
0
 62
7
  6
CONTINUOUS
 10
121.9107955197
 20
295.4333234156
 11
121.8379523273
 21
295.8074267818
  0
LINE
  8
0
 62
7
  6
CONTINUOUS
 10
123.6158529058
 20
293.8267055132
 11
123.5430097133
 21
294.2008088794
  0
LINE
  8
0
 62
7
  6
CONTINUOUS
 10
121.2425831644
 20
295.8224829279
 11
121.3895353328
 21
295.3720565956
  0
LINE
  8
0
 62
7
  6
CONTINUOUS
 10
123.0217494745
 20
294.1395421128
 11
123.0952221375
 21
293.914325625
  0
LINE
  8
0
 62
7
  6
CONTINUOUS
 10
138.8338807233
 20
309.7087900624
 11
138.9146649176
 21
309.1432716652
  0
LINE
  8
0
 62
7
  6
CONTINUOUS
 10
103.0080891899
 20
275.1950926795
 11
106.1109862253
 21
271.6205688431
  0
LINE
  8
0
 62
7
  6
CONTINUOUS
 10
106.7795773824
 20
271.7181962156
 11
104.0867041989
 21
274.9382280094
  0
LINE
  8
0
 62
7
  6
CONTINUOUS
 10
107.0708999018
 20
278.8498924342
 11
107.2821123677
 21
278.5889399991
  0
LINE
  8
0
 62
7
  6
CONTINUOUS
 10
107.7112221883
 20
279.0556380785
 11
107.5000097224
 21
279.3165905137
  0
LINE
  8
0
 62
7
  6
CONTINUOUS
 10
109.8663315849
 20
282.826229231
 11
110.0644183557
 21
282.5551784785
  0
LINE
  8
0
 62
7
  6
CONTINUOUS
 10
110.5160210181
 20
283.0001474333
 11
110.3179342473
 21
283.2711981858
  0
LINE
  8
0
 62
7
  6
CONTINUOUS
 10
111.6791026296
 20
281.5205467486
 11
111.8771894004
 21
281.2494959961
  0
LINE
  8
0
 62
7
  6
CONTINUOUS
 10
112.3287921232
 20
281.6944649074
 11
112.130705292
 21
281.9655157034
  0
LINE
  8
0
 62
7
  6
CONTINUOUS
 10
118.7053381274
 20
294.2487144405
 11
118.9270253212
 21
293.8708486986
  0
LINE
  8
0
 62
7
  6
CONTINUOUS
 10
123.5430097133
 20
294.2008088794
 11
123.3954280225
 21
294.5023483868
  0
LINE
  8
0
 62
7
  6
CONTINUOUS
 10
133.1401340307
 20
305.3212882956
 11
133.239704775
 21
305.0006763037
  0
LINE
  8
0
 62
7
  6
CONTINUOUS
 10
133.8111270197
 20
305.2753014185
 11
133.7115562755
 21
305.5959134104
  0
LINE
  8
0
 62
7
  6
CONTINUOUS
 10
136.4256202268
 20
305.3378391337
 11
135.6776958731
 21
308.2652706926
  0
LINE
  8
0
 62
7
  6
CONTINUOUS
 10
136.8981476238
 20
303.6216732728
 11
136.5657354847
 21
304.9227530719
  0
LINE
  8
0
 62
7
  6
CONTINUOUS
 10
135.0978597101
 20
308.401216092
 11
136.3704889787
 21
303.2867085669
  0
LINE
  8
0
 62
7
  6
CONTINUOUS
 10
139.4203092312
 20
309.3073148923
 11
139.3537073375
 21
309.6363601179
  0
LINE
  8
0
 62
7
  6
CONTINUOUS
 10
140.2589540537
 20
307.8261284599
 11
140.1923522334
 21
308.1551735558
  0
LINE
  8
0
 62
7
  6
CONTINUOUS
 10
142.6823367293
 20
308.8314881846
 11
142.7489384762
 21
308.5024432184
  0
LINE
  8
0
 62
7
  6
CONTINUOUS
 10
143.2687651271
 20
308.430013209
 11
143.1879810429
 21
308.9955314118
  0
LINE
  8
SURFACE
 62
7
  6
CONTINUOUS
 10
167.0123820913
 20
355.3425234183
 11
167.0123820913
 21
352.4342896975
  0
LINE
  8
0
 62
7
  6
CONTINUOUS
 10
136.9611395441
 20
104.9400407174
 11
136.2651536593
 21
102.116314983
  0
LINE
  8
SURFACE
 62
7
  6
CONTINUOUS
 10
230.4880570235
 20
350.5616926352
 11
229.1365334237
 21
347.9865795631
  0
LINE
  8
0
 62
7
  6
CONTINUOUS
 10
87.5111671833
 20
142.8068142496
 11
85.5826515076
 21
140.6299700513
  0
LINE
  8
DEFAULT_3
 62
2
  6
PHANTOM
 10
176.552280948
 20
241.6329697518
 11
171.6055930226
 21
236.6862818264
  0
LINE
  8
DEFAULT_3
 62
2
  6
PHANTOM
 10
184.9196183945
 20
247.7375654985
 11
180.6769777073
 21
243.4949248114
  0
LINE
  8
DEFAULT_3
 62
2
  6
PHANTOM
 10
165.5009972759
 20
228.3189443799
 11
169.7436379631
 21
232.5615850671
  0
LINE
  8
SURFACE
 62
7
  6
CONTINUOUS
 10
284.4712130281
 20
316.8298602085
 11
282.0777835976
 21
315.1777951565
  0
LINE
  8
0
 62
7
  6
CONTINUOUS
 10
61.322958299
 20
199.3167250586
 11
58.6037125325
 21
198.2854511686
  0
LINE
  8
0
 62
7
  6
CONTINUOUS
 10
319.0210764189
 20
217.7663377616
 11
321.9081058415
 21
218.1168865997
  0
LINE
  8
SURFACE
 62
7
  6
CONTINUOUS
 10
56.1957403123
 20
218.1168865997
 11
59.0827697349
 21
217.7663377616
  0
LINE
  8
0
 62
7
  6
CONTINUOUS
 10
301.1502299715
 20
158.1020674529
 11
303.869475738
 21
157.0707935628
  0
LINE
  8
SURFACE
 62
7
  6
CONTINUOUS
 10
68.5928605896
 20
280.5534869228
 11
70.9862900201
 21
278.9014218707
  0
LINE
  8
DEFAULT_3
 62
2
  6
PHANTOM
 10
171.6055930226
 20
211.6869975686
 11
176.552280948
 21
206.7403096431
  0
LINE
  8
DEFAULT_3
 62
2
  6
PHANTOM
 10
180.6769777073
 20
204.8783545836
 11
184.9196183945
 21
200.6357138965
  0
LINE
  8
DEFAULT_3
 62
2
  6
PHANTOM
 10
169.7436379631
 20
215.8116943279
 11
165.5009972759
 21
220.054335015
  0
LINE
  8
0
 62
7
  6
CONTINUOUS
 10
257.5990123456
 20
113.57697624
 11
259.5275280213
 21
111.4001320418
  0
LINE
  8
0
 62
7
  6
CONTINUOUS
 10
121.8379523273
 20
295.8074267818
 11
121.6162651336
 21
296.1852925236
  0
LINE
  8
SURFACE
 62
7
  6
CONTINUOUS
 10
108.5857003936
 20
330.0771218407
 11
109.9372239934
 21
327.5020087686
  0
LINE
  8
0
 62
7
  6
CONTINUOUS
 10
138.9146649176
 20
309.1432716652
 11
139.1909278517
 21
308.4439301233
  0
LINE
  8
0
 62
7
  6
CONTINUOUS
 10
139.6441568685
 20
308.7005474943
 11
139.4203092312
 21
309.3073148923
  0
LINE
  8
0
 62
7
  6
CONTINUOUS
 10
198.3444826502
 20
94.3912259343
 11
199.040468535
 21
91.5675001999
  0
LINE
  8
0
 62
2
  6
CONTINUOUS
 10
189.0519230769
 20
225.6716396975
 11
189.0519230769
 21
222.7016396975
  0
LINE
  8
DEFAULT_1
 62
2
  6
CENTER
 10
189.0519230769
 20
216.7616396975
 11
189.0519230769
 21
88.730315158
  0
LINE
  8
DEFAULT_1
 62
2
  6
CENTER
 10
189.0519230769
 20
231.6116396975
 11
189.0519230769
 21
359.642964237
  0
LINE
  8
0
 62
2
  6
CONTINUOUS
 10
190.5369230769
 20
224.1866396975
 11
187.5669230769
 21
224.1866396975
  0
LINE
  8
DEFAULT_1
 62
2
  6
CENTER
 10
181.6269230769
 20
224.1866396975
 11
53.5955985374
 21
224.1866396975
  0
LINE
  8
DEFAULT_1
 62
2
  6
CENTER
 10
196.4769230769
 20
224.1866396975
 11
324.5082476164
 21
224.1866396975
  0
LINE
  8
0
 62
7
  6
CONTINUOUS
 10
94.1029152887
 20
250.1438370628
 11
96.1454692635
 21
249.5480954411
  0
LINE
  8
0
 62
7
  6
CONTINUOUS
 10
96.2913018517
 20
250.0480956455
 11
94.2487478769
 21
250.6438372672
  0
LINE
  8
0
 62
7
  6
CONTINUOUS
 10
94.8320782191
 20
252.643838049
 11
97.0788875771
 21
251.9885222694
  0
LINE
  8
0
 62
7
  6
CONTINUOUS
 10
97.6332310344
 20
252.3693742442
 11
94.9779108386
 21
253.1438383607
  0
LINE
  8
0
 62
7
  6
CONTINUOUS
 10
95.3329792482
 20
254.273159946
 11
98.5585316485
 21
253.1846907197
  0
LINE
  8
0
 62
7
  6
CONTINUOUS
 10
98.7250618081
 20
253.6781835469
 11
96.4066959409
 21
254.4605208302
  0
LINE
  8
0
 62
7
  6
CONTINUOUS
 10
96.0035019262
 20
254.5965794716
 11
95.4995094077
 21
254.7666527733
  0
LINE
  8
0
 62
7
  6
CONTINUOUS
 10
97.4093984157
 20
256.101036028
 11
99.3245702681
 21
255.4547573862
  0
LINE
  8
0
 62
7
  6
CONTINUOUS
 10
99.4911003324
 20
255.948249931
 11
97.57592848
 21
256.5945285729
  0
LINE
  8
0
 62
7
  6
CONTINUOUS
 10
95.0904409584
 20
258.4542616491
 11
95.5896840905
 21
258.2707141576
  0
LINE
  8
0
 62
7
  6
CONTINUOUS
 10
96.5881706344
 20
257.9036190716
 11
99.7833269595
 21
256.7289150227
  0
LINE
  8
0
 62
7
  6
CONTINUOUS
 10
99.9630504978
 20
257.217757128
 11
96.7678941728
 21
258.3924611769
  0
LINE
  8
0
 62
7
  6
CONTINUOUS
 10
95.7694076289
 20
258.7595562629
 11
95.2701644968
 21
258.9431037544
  0
LINE
  8
0
 62
7
  6
CONTINUOUS
 10
102.2181763609
 20
268.2161714396
 11
102.6905694553
 21
267.9716754081
  0
LINE
  8
0
 62
7
  6
CONTINUOUS
 10
103.3608961498
 20
269.2668199532
 11
102.8885030554
 21
269.5113159847
  0
LINE
  8
0
 62
7
  6
CONTINUOUS
 10
100.9912713728
 20
271.6685714272
 11
105.3316052218
 21
269.1863341138
  0
LINE
  8
0
 62
7
  6
CONTINUOUS
 10
105.6418848859
 20
269.728875845
 11
102.2250262139
 21
271.6829776227
  0
LINE
  8
0
 62
7
  6
CONTINUOUS
 10
104.0651605672
 20
276.9495629406
 11
108.2614873205
 21
274.2309526744
  0
LINE
  8
0
 62
7
  6
CONTINUOUS
 10
108.6013136038
 20
274.7554935186
 11
106.7263590704
 21
275.9701917399
  0
LINE
  8
0
 62
7
  6
CONTINUOUS
 10
106.1906578466
 20
276.3172483282
 11
104.851404537
 21
277.1848899611
  0
LINE
  8
0
 62
7
  6
CONTINUOUS
 10
106.8030490398
 20
279.0234208905
 11
107.0708999018
 21
278.8498924342
  0
LINE
  8
0
 62
7
  6
CONTINUOUS
 10
106.7705357025
 20
281.0764381044
 11
110.8276901584
 21
278.1541962046
  0
LINE
  8
0
 62
7
  6
CONTINUOUS
 10
110.6750357858
 20
279.0343926681
 11
109.3801992303
 21
279.9670230811
  0
LINE
  8
0
 62
7
  6
CONTINUOUS
 10
108.8622646806
 20
280.340075194
 11
107.6537504896
 21
281.2105302984
  0
LINE
  8
0
 62
7
  6
CONTINUOUS
 10
109.693686735
 20
282.9505799353
 11
109.8663315849
 21
282.826229231
  0
LINE
  8
0
 62
7
  6
CONTINUOUS
 10
111.4201353548
 20
281.707072805
 11
111.6791026296
 21
281.5205467486
  0
LINE
  8
0
 62
7
  6
CONTINUOUS
 10
112.9911552629
 20
289.1640364855
 11
113.3883031621
 21
288.8101905688
  0
LINE
  8
0
 62
7
  6
CONTINUOUS
 10
116.0889092664
 20
286.4040379888
 11
116.7243459609
 21
285.8378844726
  0
LINE
  8
0
 62
7
  6
CONTINUOUS
 10
117.0126445666
 20
292.4895791334
 11
117.6265416011
 21
291.9001383747
  0
LINE
  8
0
 62
7
  6
CONTINUOUS
 10
117.5222521263
 20
292.8667295949
 11
120.5149995513
 21
289.9932064897
  0
LINE
  8
0
 62
7
  6
CONTINUOUS
 10
120.9478700085
 20
290.4440370202
 11
117.341225764
 21
293.9070006778
  0
LINE
  8
0
 62
7
  6
CONTINUOUS
 10
120.7891235628
 20
294.1960110719
 11
121.0855457819
 21
293.8907059205
  0
LINE
  8
0
 62
7
  6
CONTINUOUS
 10
121.0943718473
 20
295.9751357174
 11
121.2425831644
 21
295.8224829279
  0
LINE
  8
0
 62
7
  6
CONTINUOUS
 10
122.7253272554
 20
294.4448472641
 11
123.0217494745
 21
294.1395421128
  0
LINE
  8
0
 62
7
  6
CONTINUOUS
 10
121.6162651336
 20
296.1852925236
 11
121.4680538164
 21
296.3379453131
  0
LINE
  8
0
 62
7
  6
CONTINUOUS
 10
129.6443793178
 20
304.6690577213
 11
132.5357180683
 21
300.5898224707
  0
LINE
  8
0
 62
7
  6
CONTINUOUS
 10
133.0456224746
 20
300.9512398145
 11
131.7537476955
 21
302.7738768672
  0
LINE
  8
0
 62
7
  6
CONTINUOUS
 10
131.3846406649
 20
303.2946302414
 11
130.4618729163
 21
304.59651392
  0
LINE
  8
0
 62
7
  6
CONTINUOUS
 10
132.9555803431
 20
305.5816652259
 11
133.1401340307
 21
305.3212882956
  0
LINE
  8
0
 62
7
  6
CONTINUOUS
 10
139.1909278517
 20
308.4439301233
 11
139.5578349295
 21
307.7959111158
  0
LINE
  8
0
 62
7
  6
CONTINUOUS
 10
139.7489874622
 20
308.5153992065
 11
139.6441568685
 21
308.7005474943
  0
LINE
  8
0
 62
7
  6
CONTINUOUS
 10
140.4161999442
 20
307.5484060281
 11
140.2589540537
 21
307.8261284599
  0
LINE
  8
0
 62
7
  6
CONTINUOUS
 10
142.5250908389
 20
309.1092106164
 11
142.6823367293
 21
308.8314881846
  0
LINE
  8
0
 62
7
  6
CONTINUOUS
 10
104.0867041989
 20
274.9382280094
 11
107.5035628709
 21
272.9841262316
  0
LINE
  8
0
 62
7
  6
CONTINUOUS
 10
107.8138425351
 20
273.5266679628
 11
103.4735086862
 21
276.0089052761
  0
LINE
  8
0
 62
7
  6
CONTINUOUS
 10
107.5000097224
 20
279.3165905137
 11
107.1428753231
 21
279.5479617346
  0
LINE
  8
0
 62
7
  6
CONTINUOUS
 10
112.130705292
 20
281.9655157034
 11
111.6990931673
 21
282.2763924642
  0
LINE
  8
0
 62
7
  6
CONTINUOUS
 10
110.3179342473
 20
283.2711981858
 11
109.9726443057
 21
283.5198997686
  0
LINE
  8
0
 62
7
  6
CONTINUOUS
 10
119.4961382475
 20
288.9488755342
 11
119.0195607128
 21
289.3734906837
  0
LINE
  8
0
 62
7
  6
CONTINUOUS
 10
116.3189546085
 20
291.7796432638
 11
115.7629475496
 21
292.275027547
  0
LINE
  8
0
 62
7
  6
CONTINUOUS
 10
123.3954280225
 20
294.5023483868
 11
123.0990058034
 21
294.8076535382
  0
LINE
  8
0
 62
7
  6
CONTINUOUS
 10
139.5578349295
 20
307.7959111158
 11
140.0153862242
 21
307.1992145131
  0
LINE
  8
0
 62
7
  6
CONTINUOUS
 10
133.7115562755
 20
305.5959134104
 11
133.4654847494
 21
305.9430825697
  0
LINE
  8
0
 62
7
  6
CONTINUOUS
 10
143.1879810429
 20
308.9955314118
 11
142.9259044854
 21
309.4584022611
  0
LINE
  8
0
 62
7
  6
CONTINUOUS
 10
211.0914640625
 20
352.4342896975
 11
211.0914640625
 21
355.3425234183
  0
LINE
  8
SURFACE
 62
7
  6
CONTINUOUS
 10
179.0633776189
 20
91.5675001999
 11
179.7593635037
 21
94.3912259343
  0
LINE
  8
0
 62
7
  6
CONTINUOUS
 10
268.1666221604
 20
327.5020087686
 11
269.5181457602
 21
330.0771218407
  0
LINE
  8
SURFACE
 62
7
  6
CONTINUOUS
 10
118.5763181325
 20
111.4001320418
 11
120.5048338083
 21
113.57697624
  0
LINE
  8
DEFAULT_3
 62
2
  6
PHANTOM
 10
212.6028488779
 20
220.054335015
 11
208.3602081908
 21
215.8116943279
  0
LINE
  8
DEFAULT_3
 62
2
  6
PHANTOM
 10
193.1842277594
 20
200.6357138965
 11
197.4268684465
 21
204.8783545836
  0
LINE
  8
DEFAULT_3
 62
2
  6
PHANTOM
 10
206.4982531313
 20
211.6869975686
 11
201.5515652058
 21
206.7403096431
  0
LINE
  8
0
 62
7
  6
CONTINUOUS
 10
307.1175561338
 20
278.9014218707
 11
309.5109855642
 21
280.5534869228
  0
LINE
  8
SURFACE
 62
7
  6
CONTINUOUS
 10
74.2343704159
 20
157.0707935628
 11
76.9536161824
 21
158.1020674529
  0
LINE
  8
SURFACE
 62
7
  6
CONTINUOUS
 10
316.594959632
 20
261.8745824346
 11
313.7079302094
 21
261.5240335965
  0
LINE
  8
0
 62
7
  6
CONTINUOUS
 10
96.1454692635
 20
249.5480954411
 11
96.5831466206
 21
249.5289471505
  0
LINE
  8
0
 62
7
  6
CONTINUOUS
 10
98.0709083449
 20
252.3502258605
 11
97.6332310344
 21
252.3693742442
  0
LINE
  8
0
 62
7
  6
CONTINUOUS
 10
64.3959159445
 20
261.5240335965
 11
61.5088865218
 21
261.8745824346
  0
LINE
  8
0
 62
7
  6
CONTINUOUS
 10
96.8720998082
 20
256.1724105949
 11
97.4093984157
 21
256.101036028
  0
LINE
  8
0
 62
7
  6
CONTINUOUS
 10
97.57592848
 20
256.5945285729
 11
97.0386300631
 21
256.6659037045
  0
LINE
  8
SURFACE
 62
7
  6
CONTINUOUS
 10
319.5001336213
 20
198.2854511686
 11
316.7808878548
 21
199.3167250586
  0
LINE
  8
0
 62
7
  6
CONTINUOUS
 10
123.0990058034
 20
294.8076535382
 11
122.7278484552
 21
295.040398206
  0
LINE
  8
0
 62
7
  6
CONTINUOUS
 10
121.4680538164
 20
296.3379453131
 11
121.096896572
 21
296.570689874
  0
LINE
  8
0
 62
7
  6
CONTINUOUS
 10
96.0260625562
 20
315.1777951565
 11
93.6326331257
 21
316.8298602085
  0
LINE
  8
DEFAULT_3
 62
2
  6
PHANTOM
 10
208.3602081908
 20
232.5615850671
 11
212.6028488779
 21
228.3189443799
  0
LINE
  8
DEFAULT_3
 62
2
  6
PHANTOM
 10
197.4268684465
 20
243.4949248114
 11
193.1842277594
 21
247.7375654985
  0
LINE
  8
DEFAULT_3
 62
2
  6
PHANTOM
 10
201.5515652058
 20
241.6329697518
 11
206.4982531313
 21
236.6862818264
  0
LINE
  8
SURFACE
 62
7
  6
CONTINUOUS
 10
292.5211946463
 20
140.6299700513
 11
290.5926789705
 21
142.8068142496
  0
LINE
  8
0
 62
7
  6
CONTINUOUS
 10
148.9673127301
 20
347.9865795631
 11
147.6157891303
 21
350.5616926352
  0
LINE
  8
SURFACE
 62
7
  6
CONTINUOUS
 10
241.8386924946
 20
102.116314983
 11
241.1427066098
 21
104.9400407174
  0
LINE
  8
0
 62
7
  6
CONTINUOUS
 10
97.5895261065
 20
251.8395868535
 11
98.1584977004
 21
251.8906516196
  0
LINE
  8
0
 62
7
  6
CONTINUOUS
 10
96.6268514482
 20
250.0587344637
 11
96.2913018517
 21
250.0480956455
  0
LINE
  8
0
 62
7
  6
CONTINUOUS
 10
97.0386300631
 20
256.6659037045
 11
96.7029284629
 21
256.6692489507
  0
LINE
  8
0
 62
7
  6
CONTINUOUS
 10
102.2250262139
 20
271.6829776227
 11
106.3658703744
 21
270.994805861
  0
LINE
  8
0
 62
7
  6
CONTINUOUS
 10
106.1109862253
 20
271.6205688431
 11
101.4566908691
 21
272.4823840239
  0
LINE
  8
0
 62
7
  6
CONTINUOUS
 10
106.4785602819
 20
279.1095250436
 11
106.8030490398
 21
279.0234208905
  0
LINE
  8
0
 62
7
  6
CONTINUOUS
 10
107.1428753231
 20
279.5479617346
 11
106.8183865652
 21
279.6340658878
  0
LINE
  8
0
 62
7
  6
CONTINUOUS
 10
111.100287455
 20
281.8090742526
 11
111.4201353548
 21
281.707072805
  0
LINE
  8
0
 62
7
  6
CONTINUOUS
 10
111.6990931673
 20
282.2763924642
 11
111.3792452675
 21
282.3783939117
  0
LINE
  8
0
 62
7
  6
CONTINUOUS
 10
109.3738387143
 20
283.0525814699
 11
109.693686735
 21
282.9505799353
  0
LINE
  8
0
 62
7
  6
CONTINUOUS
 10
109.9726443057
 20
283.5198997686
 11
109.6527965268
 21
283.6219011291
  0
LINE
  8
0
 62
7
  6
CONTINUOUS
 10
120.7049260553
 20
291.8901272697
 11
121.0019812181
 21
291.7337122649
  0
LINE
  8
0
 62
7
  6
CONTINUOUS
 10
132.6860440569
 20
305.7818066081
 11
132.9555803431
 21
305.5816652259
  0
LINE
  8
0
 62
7
  6
CONTINUOUS
 10
133.4654847494
 20
305.9430825697
 11
133.1959484632
 21
306.1432239519
  0
LINE
  8
0
 62
7
  6
CONTINUOUS
 10
140.0153862242
 20
307.1992145131
 11
140.4587551816
 21
306.838991147
  0
LINE
  8
0
 62
7
  6
CONTINUOUS
 10
142.9259044854
 20
309.4584022611
 11
142.4825355647
 21
309.8186255624
  0
LINE
  8
0
 62
7
  6
CONTINUOUS
 10
139.8882119378
 20
305.5198057543
 11
135.8014059122
 21
308.8478365517
  0
LINE
  8
0
 62
7
  6
CONTINUOUS
 10
138.3245989771
 20
306.0393029434
 11
139.3605532926
 21
305.1848410484
  0
LINE
  8
0
 62
7
  6
CONTINUOUS
 10
135.6776958731
 20
308.2652706926
 11
138.0085961623
 21
306.3427332513
  0
LINE
  8
0
 62
7
  6
CONTINUOUS
 10
140.6640899782
 20
307.3220061308
 11
140.4161999442
 21
307.5484060281
  0
LINE
  8
0
 62
7
  6
CONTINUOUS
 10
142.2772007314
 20
309.3356106434
 11
142.5250908389
 21
309.1092106164
  0
LINE
  8
0
 62
7
  6
CONTINUOUS
 10
141.8011365592
 20
311.0220896927
 11
141.5532465252
 21
311.24848959
  0
LINE
  8
0
 62
7
  6
CONTINUOUS
 10
96.5831466206
 20
249.5289471505
 11
96.8165685229
 21
249.5693730387
  0
LINE
  8
0
 62
7
  6
CONTINUOUS
 10
98.3043303199
 20
252.3906519313
 11
98.0709083449
 21
252.3502258605
  0
LINE
  8
0
 62
7
  6
CONTINUOUS
 10
121.0019812181
 20
291.7337122649
 11
121.3737679331
 21
291.6498545823
  0
LINE
  8
0
 62
7
  6
CONTINUOUS
 10
121.3015541594
 20
292.1728448802
 11
121.0786080245
 21
292.2529368654
  0
LINE
  8
0
 62
7
  6
CONTINUOUS
 10
122.2794314606
 20
294.6050280198
 11
122.7253272554
 21
294.4448472641
  0
LINE
  8
0
 62
7
  6
CONTINUOUS
 10
141.002628342
 20
307.1469310525
 11
140.6640899782
 21
307.3220061308
  0
LINE
  8
0
 62
7
  6
CONTINUOUS
 10
97.6098928047
 20
264.753345208
 11
100.5769997902
 21
265.3181424591
  0
LINE
  8
0
 62
7
  6
CONTINUOUS
 10
101.1912645417
 20
265.3753128329
 11
103.6404310078
 21
265.8377846685
  0
LINE
  8
0
 62
7
  6
CONTINUOUS
 10
100.3243510074
 20
265.7817179221
 11
97.8751850473
 21
265.3192471659
  0
LINE
  8
0
 62
7
  6
CONTINUOUS
 10
103.9057232505
 20
266.4036866264
 11
100.8422920329
 21
265.884044417
  0
LINE
  8
0
 62
7
  6
CONTINUOUS
 10
106.8183865652
 20
279.6340658878
 11
106.2913392744
 21
279.6031665246
  0
LINE
  8
0
 62
7
  6
CONTINUOUS
 10
111.3792452675
 20
282.3783939117
 11
110.851315449
 21
282.3735231669
  0
LINE
  8
0
 62
7
  6
CONTINUOUS
 10
109.6527965268
 20
283.6219011291
 11
109.1248667083
 21
283.6170303842
  0
LINE
  8
0
 62
7
  6
CONTINUOUS
 10
122.7278484552
 20
295.040398206
 11
122.356058319
 21
295.1242525669
  0
LINE
  8
0
 62
7
  6
CONTINUOUS
 10
120.7225851322
 20
296.0589934
 11
121.0943718473
 21
295.9751357174
  0
LINE
  8
0
 62
7
  6
CONTINUOUS
 10
133.1959484632
 20
306.1432239519
 11
132.6949249063
 21
306.3096841961
  0
LINE
  8
0
 62
7
  6
CONTINUOUS
 10
140.4587551816
 20
306.838991147
 11
140.9403529674
 21
306.6226644916
  0
LINE
  8
0
 62
7
  6
CONTINUOUS
 10
141.5532465252
 20
311.24848959
 11
141.0716487577
 21
311.464816213
  0
LINE
  8
0
 62
7
  6
CONTINUOUS
 10
141.0093733648
 20
310.9405496845
 11
141.3479116919
 21
310.7654746711
  0
LINE
  8
0
 62
7
  6
CONTINUOUS
 10
106.1867182117
 20
279.050364292
 11
106.4785602819
 21
279.1095250436
  0
LINE
  8
0
 62
7
  6
CONTINUOUS
 10
110.8058829904
 20
281.7643774994
 11
111.100287455
 21
281.8090742526
  0
LINE
  8
0
 62
7
  6
CONTINUOUS
 10
109.0794342497
 20
283.0078847168
 11
109.3738387143
 21
283.0525814699
  0
LINE
  8
0
 62
7
  6
CONTINUOUS
 10
121.5992387927
 20
292.1653167537
 11
121.3015541594
 21
292.1728448802
  0
LINE
  8
0
 62
7
  6
CONTINUOUS
 10
121.096896572
 20
296.570689874
 11
120.5015274091
 21
296.5857460202
  0
LINE
  8
0
 62
7
  6
CONTINUOUS
 10
132.3930389478
 20
305.8349176991
 11
132.6860440569
 21
305.7818066081
  0
LINE
  8
0
 62
7
  6
CONTINUOUS
 10
141.9910777011
 20
309.4181115129
 11
142.2772007314
 21
309.3356106434
  0
LINE
  8
0
 62
7
  6
CONTINUOUS
 10
142.4825355647
 20
309.8186255624
 11
142.0533530941
 21
309.9423780414
  0
LINE
  8
0
 62
7
  6
CONTINUOUS
 10
121.3737679331
 20
291.6498545823
 11
121.7461875659
 21
291.714887073
  0
LINE
  8
0
 62
7
  6
CONTINUOUS
 10
121.9070118538
 20
294.5399955024
 11
122.2794314606
 21
294.6050280198
  0
LINE
  8
0
 62
7
  6
CONTINUOUS
 10
120.3501655254
 20
295.9939608826
 11
120.7225851322
 21
296.0589934
  0
LINE
  8
0
 62
7
  6
CONTINUOUS
 10
140.9403529674
 20
306.6226644916
 11
141.5508278884
 21
306.6015594066
  0
LINE
  8
0
 62
7
  6
CONTINUOUS
 10
142.0533530941
 20
309.9423780414
 11
141.4428823362
 21
309.9634854515
  0
LINE
  8
0
 62
7
  6
CONTINUOUS
 10
141.0716487577
 20
311.464816213
 11
140.4611738505
 21
311.4859212737
  0
LINE
  8
0
 62
7
  6
CONTINUOUS
 10
132.6949249063
 20
306.3096841961
 11
132.170436417
 21
306.3291169065
  0
LINE
  8
0
 62
7
  6
CONTINUOUS
 10
141.3793955158
 20
307.1157527174
 11
141.002628342
 21
307.1469310525
  0
LINE
  8
0
 62
7
  6
CONTINUOUS
 10
141.6143105273
 20
309.449289848
 11
141.9910777011
 21
309.4181115129
  0
LINE
  8
0
 62
7
  6
CONTINUOUS
 10
140.632606191
 20
310.9717280196
 11
141.0093733648
 21
310.9405496845
  0
LINE
  8
0
 62
7
  6
CONTINUOUS
 10
141.7037473928
 20
307.1771485262
 11
141.3793955158
 21
307.1157527174
  0
LINE
  8
0
 62
7
  6
CONTINUOUS
 10
141.2899586503
 20
309.3878940392
 11
141.6143105273
 21
309.449289848
  0
LINE
  8
0
 62
7
  6
CONTINUOUS
 10
140.308254314
 20
310.9103322108
 11
140.632606191
 21
310.9717280196
  0
LINE
  8
SURFACE
 62
7
  6
CONTINUOUS
 10
288.8208767727
 20
152.4752259298
 11
301.8392445362
 21
186.8018405844
  0
LINE
  8
0
 62
7
  6
CONTINUOUS
 10
310.4281407439
 20
209.4488986323
 11
311.2835205758
 21
211.7043498845
  0
LINE
  8
SURFACE
 62
7
  6
CONTINUOUS
 10
244.0669886221
 20
114.3243916358
 11
271.5465540503
 21
138.6691622601
  0
LINE
  8
0
 62
7
  6
CONTINUOUS
 10
289.6762566046
 20
154.730677182
 11
291.4818182913
 21
156.330265255
  0
LINE
  8
SURFACE
 62
7
  6
CONTINUOUS
 10
220.72470118
 20
342.9014496975
 11
184.0123820913
 21
342.9014496975
  0
LINE
  8
0
 62
7
  6
CONTINUOUS
 10
159.7913503979
 20
342.9014496975
 11
157.3791449738
 21
342.9014496975
  0
LINE
  8
SURFACE
 62
7
  6
CONTINUOUS
 10
272.2662983693
 20
314.5843096387
 11
239.7591542165
 21
331.6453750187
  0
LINE
  8
0
 62
7
  6
CONTINUOUS
 10
218.312495756
 20
342.9014496975
 11
216.1765939281
 21
344.0224574538
  0
LINE
  8
SURFACE
 62
7
  6
CONTINUOUS
 10
304.744485021
 20
265.5581528065
 11
283.8895107759
 21
295.771799096
  0
LINE
  8
0
 62
7
  6
CONTINUOUS
 10
270.1303965414
 20
315.705317395
 11
268.7601076781
 21
317.6905235403
  0
LINE
  8
SURFACE
 62
7
  6
CONTINUOUS
 10
310.7188999778
 20
207.0542809017
 11
306.2937189104
 21
243.4989258498
  0
LINE
  8
0
 62
7
  6
CONTINUOUS
 10
303.3741961577
 20
267.5433589517
 11
303.0834369238
 21
269.9379766823
  0
POLYLINE
  8
SURFACE
 62
7
  6
CONTINUOUS
 66
1
 70
0
  0
VERTEX
  8
SURFACE
 62
7
  6
CONTINUOUS
 10
481.8078075068
 20
90.7307785716
  0
VERTEX
  8
SURFACE
 62
7
  6
CONTINUOUS
 10
481.8344591003
 20
90.7313428369
  0
VERTEX
  8
SURFACE
 62
7
  6
CONTINUOUS
 10
481.8608459101
 20
90.7326026209
  0
VERTEX
  8
SURFACE
 62
7
  6
CONTINUOUS
 10
481.8869538113
 20
90.7345382884
  0
VERTEX
  8
SURFACE
 62
7
  6
CONTINUOUS
 10
481.9127696595
 20
90.7371303114
  0
VERTEX
  8
SURFACE
 62
7
  6
CONTINUOUS
 10
481.9382812549
 20
90.7403593011
  0
VERTEX
  8
SURFACE
 62
7
  6
CONTINUOUS
 10
481.9634773076
 20
90.7442060369
  0
VERTEX
  8
SURFACE
 62
7
  6
CONTINUOUS
 10
481.9883474021
 20
90.7486514936
  0
VERTEX
  8
SURFACE
 62
7
  6
CONTINUOUS
 10
482.012881963
 20
90.7536768659
  0
VERTEX
  8
SURFACE
 62
7
  6
CONTINUOUS
 10
482.0370722199
 20
90.7592635912
  0
VERTEX
  8
SURFACE
 62
7
  6
CONTINUOUS
 10
482.0609101737
 20
90.76539337
  0
VERTEX
  8
SURFACE
 62
7
  6
CONTINUOUS
 10
482.0843885624
 20
90.7720481843
  0
VERTEX
  8
SURFACE
 62
7
  6
CONTINUOUS
 10
482.107500828
 20
90.7792103145
  0
VERTEX
  8
SURFACE
 62
7
  6
CONTINUOUS
 10
482.130241084
 20
90.7868623541
  0
VERTEX
  8
SURFACE
 62
7
  6
CONTINUOUS
 10
482.1526040827
 20
90.7949872229
  0
VERTEX
  8
SURFACE
 62
7
  6
CONTINUOUS
 10
482.1745851839
 20
90.8035681784
  0
VERTEX
  8
SURFACE
 62
7
  6
CONTINUOUS
 10
482.1961803243
 20
90.8125888262
  0
VERTEX
  8
SURFACE
 62
7
  6
CONTINUOUS
 10
482.2173859868
 20
90.8220331283
  0
VERTEX
  8
SURFACE
 62
7
  6
CONTINUOUS
 10
482.238199171
 20
90.8318854105
  0
VERTEX
  8
SURFACE
 62
7
  6
CONTINUOUS
 10
482.2586173651
 20
90.8421303685
  0
VERTEX
  8
SURFACE
 62
7
  6
CONTINUOUS
 10
482.278638517
 20
90.8527530721
  0
VERTEX
  8
SURFACE
 62
7
  6
CONTINUOUS
 10
482.2982610077
 20
90.8637389696
  0
VERTEX
  8
SURFACE
 62
7
  6
CONTINUOUS
 10
482.3174836241
 20
90.8750738897
  0
VERTEX
  8
SURFACE
 62
7
  6
CONTINUOUS
 10
482.3363055342
 20
90.8867440436
  0
VERTEX
  8
SURFACE
 62
7
  6
CONTINUOUS
 10
482.3547262611
 20
90.898736025
  0
VERTEX
  8
SURFACE
 62
7
  6
CONTINUOUS
 10
482.3727456598
 20
90.9110368107
  0
VERTEX
  8
SURFACE
 62
7
  6
CONTINUOUS
 10
482.3903638931
 20
90.9236337587
  0
VERTEX
  8
SURFACE
 62
7
  6
CONTINUOUS
 10
482.4075814092
 20
90.9365146069
  0
VERTEX
  8
SURFACE
 62
7
  6
CONTINUOUS
 10
482.4243989199
 20
90.9496674705
  0
VERTEX
  8
SURFACE
 62
7
  6
CONTINUOUS
 10
482.4408173798
 20
90.9630808387
  0
VERTEX
  8
SURFACE
 62
7
  6
CONTINUOUS
 10
482.4568379652
 20
90.9767435712
  0
VERTEX
  8
SURFACE
 62
7
  6
CONTINUOUS
 10
482.4724620497
 20
90.9906448884
  0
VERTEX
  8
SURFACE
 62
7
  6
CONTINUOUS
 10
482.4876903937
 20
91.0047736161
  0
VERTEX
  8
SURFACE
 62
7
  6
CONTINUOUS
 10
482.5025223993
 20
91.0191173035
  0
VERTEX
  8
SURFACE
 62
7
  6
CONTINUOUS
 10
482.5169576242
 20
91.033663466
  0
VERTEX
  8
SURFACE
 62
7
  6
CONTINUOUS
 10
482.5309959758
 20
91.0483997712
  0
VERTEX
  8
SURFACE
 62
7
  6
CONTINUOUS
 10
482.5446377016
 20
91.0633140468
  0
VERTEX
  8
SURFACE
 62
7
  6
CONTINUOUS
 10
482.5578833787
 20
91.0783942875
  0
VERTEX
  8
SURFACE
 62
7
  6
CONTINUOUS
 10
482.5707339043
 20
91.0936286618
  0
VERTEX
  8
SURFACE
 62
7
  6
CONTINUOUS
 10
482.5831904855
 20
91.1090055185
  0
VERTEX
  8
SURFACE
 62
7
  6
CONTINUOUS
 10
482.5952546291
 20
91.1245133924
  0
VERTEX
  8
SURFACE
 62
7
  6
CONTINUOUS
 10
482.6069281318
 20
91.1401410101
  0
VERTEX
  8
SURFACE
 62
7
  6
CONTINUOUS
 10
482.6182130699
 20
91.1558772948
  0
VERTEX
  8
SURFACE
 62
7
  6
CONTINUOUS
 10
482.6291117894
 20
91.171711371
  0
VERTEX
  8
SURFACE
 62
7
  6
CONTINUOUS
 10
482.6396268958
 20
91.1876325688
  0
VERTEX
  8
SURFACE
 62
7
  6
CONTINUOUS
 10
482.649761244
 20
91.2036304273
  0
VERTEX
  8
SURFACE
 62
7
  6
CONTINUOUS
 10
482.6595179282
 20
91.219694698
  0
VERTEX
  8
SURFACE
 62
7
  6
CONTINUOUS
 10
482.6689002721
 20
91.2358153475
  0
VERTEX
  8
SURFACE
 62
7
  6
CONTINUOUS
 10
482.6779118183
 20
91.251982559
  0
VERTEX
  8
SURFACE
 62
7
  6
CONTINUOUS
 10
482.6865563188
 20
91.2681867337
  0
VERTEX
  8
SURFACE
 62
7
  6
CONTINUOUS
 10
482.6948377244
 20
91.2844184911
  0
VERTEX
  8
SURFACE
 62
7
  6
CONTINUOUS
 10
482.7027601744
 20
91.3006686677
  0
VERTEX
  8
SURFACE
 62
7
  6
CONTINUOUS
 10
482.7103279271
 20
91.3169281836
  0
VERTEX
  8
SURFACE
 62
7
  6
CONTINUOUS
 10
482.7175439788
 20
91.3331848439
  0
VERTEX
  8
SURFACE
 62
7
  6
CONTINUOUS
 10
482.724410295
 20
91.3494230799
  0
VERTEX
  8
SURFACE
 62
7
  6
CONTINUOUS
 10
482.7309294311
 20
91.3656272159
  0
VERTEX
  8
SURFACE
 62
7
  6
CONTINUOUS
 10
482.7371045948
 20
91.3817816564
  0
VERTEX
  8
SURFACE
 62
7
  6
CONTINUOUS
 10
482.7429396312
 20
91.3978709129
  0
VERTEX
  8
SURFACE
 62
7
  6
CONTINUOUS
 10
482.748439006
 20
91.4138796286
  0
VERTEX
  8
SURFACE
 62
7
  6
CONTINUOUS
 10
482.7536077846
 20
91.4297925971
  0
VERTEX
  8
SURFACE
 62
7
  6
CONTINUOUS
 10
482.7584516074
 20
91.4455947645
  0
VERTEX
  8
SURFACE
 62
7
  6
CONTINUOUS
 10
482.7629766575
 20
91.4612712038
  0
VERTEX
  8
SURFACE
 62
7
  6
CONTINUOUS
 10
482.7671896181
 20
91.4768070353
  0
VERTEX
  8
SURFACE
 62
7
  6
CONTINUOUS
 10
482.7710976162
 20
91.4921872534
  0
VERTEX
  8
SURFACE
 62
7
  6
CONTINUOUS
 10
482.7747079576
 20
91.5073955689
  0
VERTEX
  8
SURFACE
 62
7
  6
CONTINUOUS
 10
482.7780271473
 20
91.5224093752
  0
VERTEX
  8
SURFACE
 62
7
  6
CONTINUOUS
 10
482.7810629657
 20
91.5372078319
  0
VERTEX
  8
SURFACE
 62
7
  6
CONTINUOUS
 10
482.7838243493
 20
91.5517721759
  0
VERTEX
  8
SURFACE
 62
7
  6
CONTINUOUS
 10
482.7863210919
 20
91.566085071
  0
VERTEX
  8
SURFACE
 62
7
  6
CONTINUOUS
 10
482.7885634192
 20
91.5801286745
  0
VERTEX
  8
SURFACE
 62
7
  6
CONTINUOUS
 10
482.7905608661
 20
91.5938764118
  0
VERTEX
  8
SURFACE
 62
7
  6
CONTINUOUS
 10
482.7923172249
 20
91.6072477568
  0
VERTEX
  8
SURFACE
 62
7
  6
CONTINUOUS
 10
482.7938399225
 20
91.6201609186
  0
VERTEX
  8
SURFACE
 62
7
  6
CONTINUOUS
 10
482.7951613294
 20
91.632751397
  0
VERTEX
  8
SURFACE
 62
7
  6
CONTINUOUS
 10
482.7962986087
 20
91.6450648256
  0
VERTEX
  8
SURFACE
 62
7
  6
CONTINUOUS
 10
482.7972234398
 20
91.6565682671
  0
SEQEND
  0
LINE
  8
SURFACE
 62
7
  6
CONTINUOUS
 10
481.8078075068
 20
90.7307785716
 11
471.0387362637
 21
90.7307474306
  0
LINE
  8
0
 62
7
  6
CONTINUOUS
 10
460.2774988699
 20
90.7307474306
 11
471.0387362637
 21
90.7307474306
  0
LINE
  8
0
 62
7
  6
CONTINUOUS
 10
460.2772369298
 20
100.7530677523
 11
471.0387362637
 21
100.7530677523
  0
POLYLINE
  8
SURFACE
 62
7
  6
CONTINUOUS
 66
1
 70
0
  0
VERTEX
  8
SURFACE
 62
7
  6
CONTINUOUS
 10
481.8005015581
 20
111.0295674075
  0
VERTEX
  8
SURFACE
 62
7
  6
CONTINUOUS
 10
481.8190580763
 20
111.0297395888
  0
VERTEX
  8
SURFACE
 62
7
  6
CONTINUOUS
 10
481.8615064144
 20
111.0314298731
  0
VERTEX
  8
SURFACE
 62
7
  6
CONTINUOUS
 10
481.9032382511
 20
111.0348586333
  0
VERTEX
  8
SURFACE
 62
7
  6
CONTINUOUS
 10
481.9442007336
 20
111.0399456186
  0
VERTEX
  8
SURFACE
 62
7
  6
CONTINUOUS
 10
481.9843471068
 20
111.0466116435
  0
VERTEX
  8
SURFACE
 62
7
  6
CONTINUOUS
 10
482.0236363394
 20
111.0547788741
  0
VERTEX
  8
SURFACE
 62
7
  6
CONTINUOUS
 10
482.0620327533
 20
111.0643710768
  0
VERTEX
  8
SURFACE
 62
7
  6
CONTINUOUS
 10
482.0995056592
 20
111.0753138314
  0
VERTEX
  8
SURFACE
 62
7
  6
CONTINUOUS
 10
482.1360290002
 20
111.087534711
  0
VERTEX
  8
SURFACE
 62
7
  6
CONTINUOUS
 10
482.1715810065
 20
111.1009634327
  0
VERTEX
  8
SURFACE
 62
7
  6
CONTINUOUS
 10
482.2061438513
 20
111.1155319761
  0
VERTEX
  8
SURFACE
 62
7
  6
CONTINUOUS
 10
482.2397033329
 20
111.1311746817
  0
VERTEX
  8
SURFACE
 62
7
  6
CONTINUOUS
 10
482.272248566
 20
111.147828326
  0
VERTEX
  8
SURFACE
 62
7
  6
CONTINUOUS
 10
482.3037716803
 20
111.1654321741
  0
VERTEX
  8
SURFACE
 62
7
  6
CONTINUOUS
 10
482.334267533
 20
111.1839280126
  0
VERTEX
  8
SURFACE
 62
7
  6
CONTINUOUS
 10
482.363733433
 20
111.2032601642
  0
VERTEX
  8
SURFACE
 62
7
  6
CONTINUOUS
 10
482.3921688786
 20
111.2233754862
  0
VERTEX
  8
SURFACE
 62
7
  6
CONTINUOUS
 10
482.4195753074
 20
111.2442233543
  0
VERTEX
  8
SURFACE
 62
7
  6
CONTINUOUS
 10
482.4459558587
 20
111.2657556315
  0
VERTEX
  8
SURFACE
 62
7
  6
CONTINUOUS
 10
482.4713151477
 20
111.287926623
  0
VERTEX
  8
SURFACE
 62
7
  6
CONTINUOUS
 10
482.4956580347
 20
111.3106920369
  0
VERTEX
  8
SURFACE
 62
7
  6
CONTINUOUS
 10
482.5189831905
 20
111.33400214
  0
VERTEX
  8
SURFACE
 62
7
  6
CONTINUOUS
 10
482.5412881522
 20
111.3578048917
  0
VERTEX
  8
SURFACE
 62
7
  6
CONTINUOUS
 10
482.5625729189
 20
111.3820491768
  0
VERTEX
  8
SURFACE
 62
7
  6
CONTINUOUS
 10
482.5828398614
 20
111.4066849265
  0
VERTEX
  8
SURFACE
 62
7
  6
CONTINUOUS
 10
482.6020936149
 20
111.4316632187
  0
VERTEX
  8
SURFACE
 62
7
  6
CONTINUOUS
 10
482.6203409683
 20
111.4569363693
  0
VERTEX
  8
SURFACE
 62
7
  6
CONTINUOUS
 10
482.637590743
 20
111.482458004
  0
VERTEX
  8
SURFACE
 62
7
  6
CONTINUOUS
 10
482.6538536532
 20
111.5081830903
  0
VERTEX
  8
SURFACE
 62
7
  6
CONTINUOUS
 10
482.6691421381
 20
111.5340678949
  0
VERTEX
  8
SURFACE
 62
7
  6
CONTINUOUS
 10
482.683470149
 20
111.5600698062
  0
VERTEX
  8
SURFACE
 62
7
  6
CONTINUOUS
 10
482.6968528669
 20
111.5861469091
  0
VERTEX
  8
SURFACE
 62
7
  6
CONTINUOUS
 10
482.7093063585
 20
111.6122572148
  0
VERTEX
  8
SURFACE
 62
7
  6
CONTINUOUS
 10
482.7208450767
 20
111.6383524567
  0
VERTEX
  8
SURFACE
 62
7
  6
CONTINUOUS
 10
482.7314812313
 20
111.6643735861
  0
VERTEX
  8
SURFACE
 62
7
  6
CONTINUOUS
 10
482.7412363356
 20
111.6902779827
  0
VERTEX
  8
SURFACE
 62
7
  6
CONTINUOUS
 10
482.7501359467
 20
111.7160313965
  0
VERTEX
  8
SURFACE
 62
7
  6
CONTINUOUS
 10
482.7582083828
 20
111.7416074527
  0
VERTEX
  8
SURFACE
 62
7
  6
CONTINUOUS
 10
482.7654824484
 20
111.7669827728
  0
VERTEX
  8
SURFACE
 62
7
  6
CONTINUOUS
 10
482.7719816875
 20
111.7921141968
  0
VERTEX
  8
SURFACE
 62
7
  6
CONTINUOUS
 10
482.7777118446
 20
111.81686791
  0
VERTEX
  8
SURFACE
 62
7
  6
CONTINUOUS
 10
482.7826305112
 20
111.8408007424
  0
VERTEX
  8
SURFACE
 62
7
  6
CONTINUOUS
 10
482.7868361027
 20
111.8640624563
  0
VERTEX
  8
SURFACE
 62
7
  6
CONTINUOUS
 10
482.7904402925
 20
111.887017983
  0
VERTEX
  8
SURFACE
 62
7
  6
CONTINUOUS
 10
482.7934138411
 20
111.9091668447
  0
VERTEX
  8
SURFACE
 62
7
  6
CONTINUOUS
 10
482.7957414176
 20
111.9297118642
  0
VERTEX
  8
SURFACE
 62
7
  6
CONTINUOUS
 10
482.7975593877
 20
111.9489237908
  0
VERTEX
  8
SURFACE
 62
7
  6
CONTINUOUS
 10
482.7989439054
 20
111.966508827
  0
VERTEX
  8
SURFACE
 62
7
  6
CONTINUOUS
 10
482.8000835721
 20
111.9838210979
  0
SEQEND
  0
LINE
  8
SURFACE
 62
7
  6
CONTINUOUS
 10
481.8005055654
 20
111.0295669658
 11
471.0387362637
 21
111.0295669658
  0
LINE
  8
0
 62
7
  6
CONTINUOUS
 10
460.1334310075
 20
134.8562857742
 11
471.0387362637
 21
134.8562857742
  0
POLYLINE
  8
SURFACE
 62
7
  6
CONTINUOUS
 66
1
 70
0
  0
VERTEX
  8
SURFACE
 62
7
  6
CONTINUOUS
 10
481.8017097024
 20
156.9993118363
  0
VERTEX
  8
SURFACE
 62
7
  6
CONTINUOUS
 10
481.8171550726
 20
156.9994311126
  0
VERTEX
  8
SURFACE
 62
7
  6
CONTINUOUS
 10
481.8862474766
 20
157.0028912311
  0
VERTEX
  8
SURFACE
 62
7
  6
CONTINUOUS
 10
481.9526022387
 20
157.0107605914
  0
VERTEX
  8
SURFACE
 62
7
  6
CONTINUOUS
 10
482.0161124229
 20
157.0225642657
  0
VERTEX
  8
SURFACE
 62
7
  6
CONTINUOUS
 10
482.076723289
 20
157.0378677159
  0
VERTEX
  8
SURFACE
 62
7
  6
CONTINUOUS
 10
482.1344228108
 20
157.056277984
  0
VERTEX
  8
SURFACE
 62
7
  6
CONTINUOUS
 10
482.1892331805
 20
157.0774438209
  0
VERTEX
  8
SURFACE
 62
7
  6
CONTINUOUS
 10
482.2412032314
 20
157.1010549877
  0
VERTEX
  8
SURFACE
 62
7
  6
CONTINUOUS
 10
482.2904006836
 20
157.1268403389
  0
VERTEX
  8
SURFACE
 62
7
  6
CONTINUOUS
 10
482.3368588402
 20
157.154535611
  0
VERTEX
  8
SURFACE
 62
7
  6
CONTINUOUS
 10
482.3805602721
 20
157.1838547891
  0
VERTEX
  8
SURFACE
 62
7
  6
CONTINUOUS
 10
482.42150506
 20
157.2145193562
  0
VERTEX
  8
SURFACE
 62
7
  6
CONTINUOUS
 10
482.459714215
 20
157.2462623127
  0
VERTEX
  8
SURFACE
 62
7
  6
CONTINUOUS
 10
482.4952274951
 20
157.2788291632
  0
VERTEX
  8
SURFACE
 62
7
  6
CONTINUOUS
 10
482.528110509
 20
157.3119884083
  0
VERTEX
  8
SURFACE
 62
7
  6
CONTINUOUS
 10
482.5584673537
 20
157.3455537076
  0
VERTEX
  8
SURFACE
 62
7
  6
CONTINUOUS
 10
482.5864120852
 20
157.3793641866
  0
VERTEX
  8
SURFACE
 62
7
  6
CONTINUOUS
 10
482.6120612605
 20
157.4132782693
  0
VERTEX
  8
SURFACE
 62
7
  6
CONTINUOUS
 10
482.6355395337
 20
157.4471832203
  0
VERTEX
  8
SURFACE
 62
7
  6
CONTINUOUS
 10
482.6569893427
 20
157.4810170549
  0
VERTEX
  8
SURFACE
 62
7
  6
CONTINUOUS
 10
482.6765484045
 20
157.5147438344
  0
VERTEX
  8
SURFACE
 62
7
  6
CONTINUOUS
 10
482.6943441721
 20
157.5483453885
  0
VERTEX
  8
SURFACE
 62
7
  6
CONTINUOUS
 10
482.7104921108
 20
157.5818167466
  0
VERTEX
  8
SURFACE
 62
7
  6
CONTINUOUS
 10
482.725087765
 20
157.6151448873
  0
VERTEX
  8
SURFACE
 62
7
  6
CONTINUOUS
 10
482.7381702178
 20
157.6481985518
  0
VERTEX
  8
SURFACE
 62
7
  6
CONTINUOUS
 10
482.7498070814
 20
157.6809052948
  0
VERTEX
  8
SURFACE
 62
7
  6
CONTINUOUS
 10
482.7600871215
 20
157.71326414
  0
VERTEX
  8
SURFACE
 62
7
  6
CONTINUOUS
 10
482.7691053733
 20
157.7453341762
  0
VERTEX
  8
SURFACE
 62
7
  6
CONTINUOUS
 10
482.7769383727
 20
157.7771633586
  0
VERTEX
  8
SURFACE
 62
7
  6
CONTINUOUS
 10
482.7835884126
 20
157.8084812935
  0
VERTEX
  8
SURFACE
 62
7
  6
CONTINUOUS
 10
482.7890027198
 20
157.8384931111
  0
VERTEX
  8
SURFACE
 62
7
  6
CONTINUOUS
 10
482.7933893008
 20
157.867649506
  0
VERTEX
  8
SURFACE
 62
7
  6
CONTINUOUS
 10
482.7968619906
 20
157.8960298262
  0
VERTEX
  8
SURFACE
 62
7
  6
CONTINUOUS
 10
482.7981864415
 20
157.9088717461
  0
SEQEND
  0
LINE
  8
SURFACE
 62
7
  6
CONTINUOUS
 10
481.8017111395
 20
156.9993114298
 11
471.0387362637
 21
156.9993114298
  0
POLYLINE
  8
0
 62
7
  6
CONTINUOUS
 66
1
 70
0
  0
VERTEX
  8
0
 62
7
  6
CONTINUOUS
 10
459.3649290858
 20
101.3435235686
  0
VERTEX
  8
0
 62
7
  6
CONTINUOUS
 10
459.4111624443
 20
101.2531315861
  0
VERTEX
  8
0
 62
7
  6
CONTINUOUS
 10
459.4793330591
 20
101.1502725951
  0
VERTEX
  8
0
 62
7
  6
CONTINUOUS
 10
459.5606498712
 20
101.0555652358
  0
VERTEX
  8
0
 62
7
  6
CONTINUOUS
 10
459.6531510863
 20
100.9717101925
  0
VERTEX
  8
0
 62
7
  6
CONTINUOUS
 10
459.7549041818
 20
100.9003259482
  0
VERTEX
  8
0
 62
7
  6
CONTINUOUS
 10
459.8643871251
 20
100.8422695092
  0
VERTEX
  8
0
 62
7
  6
CONTINUOUS
 10
459.9800589778
 20
100.7982469198
  0
VERTEX
  8
0
 62
7
  6
CONTINUOUS
 10
460.100338273
 20
100.7688399755
  0
VERTEX
  8
0
 62
7
  6
CONTINUOUS
 10
460.2236001256
 20
100.7545082328
  0
VERTEX
  8
0
 62
7
  6
CONTINUOUS
 10
460.277241645
 20
100.7530685199
  0
SEQEND
  0
LINE
  8
0
 62
7
  6
CONTINUOUS
 10
459.3649290858
 20
101.3435235686
 11
459.3655515013
 21
101.3421401166
  0
LINE
  8
0
 62
7
  6
CONTINUOUS
 10
484.0387362637
 20
319.1866396975
 11
483.0387362637
 21
317.4545888899
  0
LINE
  8
0
 62
7
  6
CONTINUOUS
 10
460.0387362637
 20
188.0913287237
 11
471.0387362637
 21
188.0913287237
  0
LINE
  8
0
 62
7
  6
CONTINUOUS
 10
459.0387362637
 20
189.1866396975
 11
451.8887362637
 21
189.1866396975
  0
LINE
  8
SURFACE
 62
7
  6
CONTINUOUS
 10
483.0387362637
 20
189.1866396975
 11
490.1887362637
 21
189.1866396975
  0
POLYLINE
  8
0
 62
7
  6
CONTINUOUS
 66
1
 70
0
  0
VERTEX
  8
0
 62
7
  6
CONTINUOUS
 10
459.2132644693
 20
101.8347773356
  0
VERTEX
  8
0
 62
7
  6
CONTINUOUS
 10
459.2784564733
 20
101.5789585919
  0
VERTEX
  8
0
 62
7
  6
CONTINUOUS
 10
459.3653327399
 20
101.3427343746
  0
SEQEND
  0
LINE
  8
0
 62
7
  6
CONTINUOUS
 10
459.155137477
 20
102.1406886832
 11
459.2132644693
 21
101.8347773356
  0
POLYLINE
  8
0
 62
7
  6
CONTINUOUS
 66
1
 70
0
  0
VERTEX
  8
0
 62
7
  6
CONTINUOUS
 10
459.1447591539
 20
102.2201676495
  0
VERTEX
  8
0
 62
7
  6
CONTINUOUS
 10
459.1468611683
 20
102.200149856
  0
VERTEX
  8
0
 62
7
  6
CONTINUOUS
 10
459.1496688863
 20
102.1772257697
  0
VERTEX
  8
0
 62
7
  6
CONTINUOUS
 10
459.1535913233
 20
102.1501964688
  0
VERTEX
  8
0
 62
7
  6
CONTINUOUS
 10
459.1551427144
 20
102.1406577315
  0
SEQEND
  0
POLYLINE
  8
0
 62
7
  6
CONTINUOUS
 66
1
 70
0
  0
VERTEX
  8
0
 62
7
  6
CONTINUOUS
 10
459.1263873431
 20
135.8373316733
  0
VERTEX
  8
0
 62
7
  6
CONTINUOUS
 10
459.1292519885
 20
135.8069535172
  0
VERTEX
  8
0
 62
7
  6
CONTINUOUS
 10
459.132409939
 20
135.7776621981
  0
VERTEX
  8
0
 62
7
  6
CONTINUOUS
 10
459.1361832933
 20
135.7474889942
  0
VERTEX
  8
0
 62
7
  6
CONTINUOUS
 10
459.1410257009
 20
135.7146568286
  0
VERTEX
  8
0
 62
7
  6
CONTINUOUS
 10
459.1475817936
 20
135.6775353778
  0
VERTEX
  8
0
 62
7
  6
CONTINUOUS
 10
459.1565223553
 20
135.6356402905
  0
VERTEX
  8
0
 62
7
  6
CONTINUOUS
 10
459.1684245112
 20
135.5894832613
  0
VERTEX
  8
0
 62
7
  6
CONTINUOUS
 10
459.1837415561
 20
135.5399853158
  0
VERTEX
  8
0
 62
7
  6
CONTINUOUS
 10
459.202765956
 20
135.4882355008
  0
VERTEX
  8
0
 62
7
  6
CONTINUOUS
 10
459.2259041473
 20
135.4347284269
  0
VERTEX
  8
0
 62
7
  6
CONTINUOUS
 10
459.2535077808
 20
135.3800278939
  0
VERTEX
  8
0
 62
7
  6
CONTINUOUS
 10
459.2858941402
 20
135.3247049047
  0
VERTEX
  8
0
 62
7
  6
CONTINUOUS
 10
459.3233138422
 20
135.2693889365
  0
VERTEX
  8
0
 62
7
  6
CONTINUOUS
 10
459.3660195751
 20
135.214661458
  0
VERTEX
  8
0
 62
7
  6
CONTINUOUS
 10
459.4141991258
 20
135.1611663783
  0
VERTEX
  8
0
 62
7
  6
CONTINUOUS
 10
459.4679741473
 20
135.1095917556
  0
VERTEX
  8
0
 62
7
  6
CONTINUOUS
 10
459.5274201876
 20
135.0606422019
  0
VERTEX
  8
0
 62
7
  6
CONTINUOUS
 10
459.5925588724
 20
135.0150483835
  0
VERTEX
  8
0
 62
7
  6
CONTINUOUS
 10
459.6633302847
 20
134.9735826812
  0
VERTEX
  8
0
 62
7
  6
CONTINUOUS
 10
459.7395799576
 20
134.9370535504
  0
VERTEX
  8
0
 62
7
  6
CONTINUOUS
 10
459.821047372
 20
134.9062960279
  0
VERTEX
  8
0
 62
7
  6
CONTINUOUS
 10
459.9073602246
 20
134.8821584523
  0
VERTEX
  8
0
 62
7
  6
CONTINUOUS
 10
459.9980218126
 20
134.865490592
  0
VERTEX
  8
0
 62
7
  6
CONTINUOUS
 10
460.0924016125
 20
134.857127516
  0
VERTEX
  8
0
 62
7
  6
CONTINUOUS
 10
460.1334350339
 20
134.8562858311
  0
SEQEND
  0
LINE
  8
0
 62
7
  6
CONTINUOUS
 10
459.0418673157
 20
136.8779383163
 11
459.1263873431
 21
135.8373316733
  0
POLYLINE
  8
0
 62
7
  6
CONTINUOUS
 66
1
 70
0
  0
VERTEX
  8
0
 62
7
  6
CONTINUOUS
 10
459.138977506
 20
102.293683368
  0
VERTEX
  8
0
 62
7
  6
CONTINUOUS
 10
459.1402712792
 20
102.2746206685
  0
VERTEX
  8
0
 62
7
  6
CONTINUOUS
 10
459.141611172
 20
102.2564757436
  0
VERTEX
  8
0
 62
7
  6
CONTINUOUS
 10
459.1430703715
 20
102.2385863042
  0
VERTEX
  8
0
 62
7
  6
CONTINUOUS
 10
459.1447591539
 20
102.2201676495
  0
SEQEND
  0
POLYLINE
  8
0
 62
7
  6
CONTINUOUS
 66
1
 70
0
  0
VERTEX
  8
0
 62
7
  6
CONTINUOUS
 10
459.0418673025
 20
136.8779383452
  0
VERTEX
  8
0
 62
7
  6
CONTINUOUS
 10
459.0401286229
 20
136.9042576092
  0
VERTEX
  8
0
 62
7
  6
CONTINUOUS
 10
459.0390844206
 20
136.9306242056
  0
SEQEND
  0
LINE
  8
0
 62
7
  6
CONTINUOUS
 10
459.1363465489
 20
102.3367164104
 11
459.138977506
 21
102.293683368
  0
POLYLINE
  8
0
 62
7
  6
CONTINUOUS
 66
1
 70
0
  0
VERTEX
  8
0
 62
7
  6
CONTINUOUS
 10
459.2787608247
 20
91.680139479
  0
VERTEX
  8
0
 62
7
  6
CONTINUOUS
 10
459.2792433187
 20
91.6715182156
  0
VERTEX
  8
0
 62
7
  6
CONTINUOUS
 10
459.2798855636
 20
91.6616067719
  0
VERTEX
  8
0
 62
7
  6
CONTINUOUS
 10
459.2806740447
 20
91.6510770279
  0
VERTEX
  8
0
 62
7
  6
CONTINUOUS
 10
459.2816547332
 20
91.6396551736
  0
VERTEX
  8
0
 62
7
  6
CONTINUOUS
 10
459.2827913622
 20
91.6279963999
  0
VERTEX
  8
0
 62
7
  6
CONTINUOUS
 10
459.2840700808
 20
91.6162999059
  0
VERTEX
  8
0
 62
7
  6
CONTINUOUS
 10
459.2855144087
 20
91.6043968835
  0
VERTEX
  8
0
 62
7
  6
CONTINUOUS
 10
459.28715032
 20
91.5921606046
  0
VERTEX
  8
0
 62
7
  6
CONTINUOUS
 10
459.2889983255
 20
91.579544374
  0
VERTEX
  8
0
 62
7
  6
CONTINUOUS
 10
459.2910552079
 20
91.566662441
  0
VERTEX
  8
0
 62
7
  6
CONTINUOUS
 10
459.2933286049
 20
91.5535377093
  0
VERTEX
  8
0
 62
7
  6
CONTINUOUS
 10
459.2958349354
 20
91.5401435931
  0
VERTEX
  8
0
 62
7
  6
CONTINUOUS
 10
459.2985931628
 20
91.5264508304
  0
VERTEX
  8
0
 62
7
  6
CONTINUOUS
 10
459.3016245137
 20
91.5124303088
  0
VERTEX
  8
0
 62
7
  6
CONTINUOUS
 10
459.3049523083
 20
91.4980545011
  0
VERTEX
  8
0
 62
7
  6
CONTINUOUS
 10
459.3085952245
 20
91.4833241688
  0
VERTEX
  8
0
 62
7
  6
CONTINUOUS
 10
459.3125614923
 20
91.468281874
  0
VERTEX
  8
0
 62
7
  6
CONTINUOUS
 10
459.3168565648
 20
91.4529732939
  0
VERTEX
  8
0
 62
7
  6
CONTINUOUS
 10
459.3214837371
 20
91.437443831
  0
VERTEX
  8
0
 62
7
  6
CONTINUOUS
 10
459.3264440062
 20
91.4217386394
  0
VERTEX
  8
0
 62
7
  6
CONTINUOUS
 10
459.3317381554
 20
91.4058961864
  0
VERTEX
  8
0
 62
7
  6
CONTINUOUS
 10
459.3373727817
 20
91.3899329783
  0
VERTEX
  8
0
 62
7
  6
CONTINUOUS
 10
459.3433556484
 20
91.3738610277
  0
VERTEX
  8
0
 62
7
  6
CONTINUOUS
 10
459.3496942244
 20
91.3576925702
  0
VERTEX
  8
0
 62
7
  6
CONTINUOUS
 10
459.3563956603
 20
91.3414400879
  0
VERTEX
  8
0
 62
7
  6
CONTINUOUS
 10
459.3634667659
 20
91.3251163217
  0
VERTEX
  8
0
 62
7
  6
CONTINUOUS
 10
459.3709139896
 20
91.3087342738
  0
VERTEX
  8
0
 62
7
  6
CONTINUOUS
 10
459.3787433992
 20
91.2923072053
  0
VERTEX
  8
0
 62
7
  6
CONTINUOUS
 10
459.386960664
 20
91.2758486293
  0
VERTEX
  8
0
 62
7
  6
CONTINUOUS
 10
459.3955710374
 20
91.2593723016
  0
VERTEX
  8
0
 62
7
  6
CONTINUOUS
 10
459.4045793406
 20
91.2428922088
  0
VERTEX
  8
0
 62
7
  6
CONTINUOUS
 10
459.4139899474
 20
91.2264225552
  0
VERTEX
  8
0
 62
7
  6
CONTINUOUS
 10
459.4238067691
 20
91.2099777483
  0
VERTEX
  8
0
 62
7
  6
CONTINUOUS
 10
459.4340332405
 20
91.1935723836
  0
VERTEX
  8
0
 62
7
  6
CONTINUOUS
 10
459.444672306
 20
91.1772212288
  0
VERTEX
  8
0
 62
7
  6
CONTINUOUS
 10
459.4557300711
 20
91.1609339233
  0
VERTEX
  8
0
 62
7
  6
CONTINUOUS
 10
459.4672355736
 20
91.144688696
  0
VERTEX
  8
0
 62
7
  6
CONTINUOUS
 10
459.4792292212
 20
91.1284542433
  0
VERTEX
  8
0
 62
7
  6
CONTINUOUS
 10
459.4917547944
 20
91.1122024951
  0
VERTEX
  8
0
 62
7
  6
CONTINUOUS
 10
459.504859398
 20
91.0959089331
  0
VERTEX
  8
0
 62
7
  6
CONTINUOUS
 10
459.5185934297
 20
91.0795529168
  0
VERTEX
  8
0
 62
7
  6
CONTINUOUS
 10
459.5330105472
 20
91.0631180432
  0
VERTEX
  8
0
 62
7
  6
CONTINUOUS
 10
459.5481676283
 20
91.0465925428
  0
VERTEX
  8
0
 62
7
  6
CONTINUOUS
 10
459.5641280946
 20
91.0299662762
  0
VERTEX
  8
0
 62
7
  6
CONTINUOUS
 10
459.5809761629
 20
91.0132181018
  0
VERTEX
  8
0
 62
7
  6
CONTINUOUS
 10
459.5988065838
 20
90.9963298782
  0
VERTEX
  8
0
 62
7
  6
CONTINUOUS
 10
459.6177167205
 20
90.9792954828
  0
VERTEX
  8
0
 62
7
  6
CONTINUOUS
 10
459.6377351806
 20
90.9621805151
  0
VERTEX
  8
0
 62
7
  6
CONTINUOUS
 10
459.6588080517
 20
90.9451174074
  0
VERTEX
  8
0
 62
7
  6
CONTINUOUS
 10
459.6808682366
 20
90.9282357847
  0
VERTEX
  8
0
 62
7
  6
CONTINUOUS
 10
459.7038390376
 20
90.911657902
  0
VERTEX
  8
0
 62
7
  6
CONTINUOUS
 10
459.7276342443
 20
90.8954975468
  0
VERTEX
  8
0
 62
7
  6
CONTINUOUS
 10
459.7521601068
 20
90.8798579636
  0
VERTEX
  8
0
 62
7
  6
CONTINUOUS
 10
459.777365907
 20
90.8648023072
  0
VERTEX
  8
0
 62
7
  6
CONTINUOUS
 10
459.8032566472
 20
90.8503563256
  0
VERTEX
  8
0
 62
7
  6
CONTINUOUS
 10
459.8298401179
 20
90.8365460653
  0
VERTEX
  8
0
 62
7
  6
CONTINUOUS
 10
459.8571235639
 20
90.8234000281
  0
VERTEX
  8
0
 62
7
  6
CONTINUOUS
 10
459.8851134941
 20
90.8109492459
  0
VERTEX
  8
0
 62
7
  6
CONTINUOUS
 10
459.9138154791
 20
90.7992273489
  0
VERTEX
  8
0
 62
7
  6
CONTINUOUS
 10
459.9432339364
 20
90.7882706277
  0
VERTEX
  8
0
 62
7
  6
CONTINUOUS
 10
459.9733719008
 20
90.7781180874
  0
VERTEX
  8
0
 62
7
  6
CONTINUOUS
 10
460.0042307814
 20
90.7688114916
  0
VERTEX
  8
0
 62
7
  6
CONTINUOUS
 10
460.0358101028
 20
90.7603953966
  0
VERTEX
  8
0
 62
7
  6
CONTINUOUS
 10
460.0681072311
 20
90.7529171723
  0
VERTEX
  8
0
 62
7
  6
CONTINUOUS
 10
460.1011170837
 20
90.7464270094
  0
VERTEX
  8
0
 62
7
  6
CONTINUOUS
 10
460.1348318229
 20
90.7409779096
  0
VERTEX
  8
0
 62
7
  6
CONTINUOUS
 10
460.1692405321
 20
90.7366256575
  0
VERTEX
  8
0
 62
7
  6
CONTINUOUS
 10
460.2043288764
 20
90.7334287717
  0
VERTEX
  8
0
 62
7
  6
CONTINUOUS
 10
460.2400787455
 20
90.7314484318
  0
VERTEX
  8
0
 62
7
  6
CONTINUOUS
 10
460.2775045405
 20
90.7307478421
  0
SEQEND
  0
LINE
  8
0
 62
7
  6
CONTINUOUS
 10
459.133516077
 20
102.388421616
 11
459.1363465489
 21
102.3367164104
  0
LINE
  8
0
 62
7
  6
CONTINUOUS
 10
459.1287484326
 20
102.4853120497
 11
459.133516077
 21
102.388421616
  0
LINE
  8
0
 62
7
  6
CONTINUOUS
 10
459.2781672527
 20
91.6926927282
 11
459.2787608247
 21
91.680139479
  0
LINE
  8
0
 62
7
  6
CONTINUOUS
 10
459.0396046082
 20
104.6020057812
 11
459.1287484326
 21
102.4853120497
  0
LINE
  8
0
 62
7
  6
CONTINUOUS
 10
459.2771012058
 20
91.719433753
 11
459.2781672527
 21
91.6926927282
  0
LINE
  8
0
 62
7
  6
CONTINUOUS
 10
449.8887362637
 20
191.1866396975
 11
449.8887362637
 21
257.1866396975
  0
LINE
  8
0
 62
7
  6
CONTINUOUS
 10
459.1283092584
 20
346.3873123262
 11
459.0818444487
 21
345.2815554631
  0
LINE
  8
0
 62
7
  6
CONTINUOUS
 10
459.1424144384
 20
352.6986690984
 11
459.1353346081
 21
352.5243126374
  0
LINE
  8
0
 62
7
  6
CONTINUOUS
 10
459.0818444487
 20
345.2815554631
 11
459.0398006664
 21
344.3396011562
  0
LINE
  8
0
 62
7
  6
CONTINUOUS
 10
459.2774338318
 20
350.1841551752
 11
459.2759291939
 21
350.1507482322
  0
POLYLINE
  8
0
 62
7
  6
CONTINUOUS
 66
1
 70
0
  0
VERTEX
  8
0
 62
7
  6
CONTINUOUS
 10
459.2329408552
 20
354.6166219744
  0
VERTEX
  8
0
 62
7
  6
CONTINUOUS
 10
459.1870756544
 20
353.675948032
  0
VERTEX
  8
0
 62
7
  6
CONTINUOUS
 10
459.1424107754
 20
352.6985865858
  0
SEQEND
  0
POLYLINE
  8
0
 62
7
  6
CONTINUOUS
 66
1
 70
0
  0
VERTEX
  8
0
 62
7
  6
CONTINUOUS
 10
459.0387362637
 20
312.7164224649
  0
VERTEX
  8
0
 62
7
  6
CONTINUOUS
 10
459.0459534639
 20
312.8363487435
  0
VERTEX
  8
0
 62
7
  6
CONTINUOUS
 10
459.0610514535
 20
312.9514947787
  0
SEQEND
  0
POLYLINE
  8
0
 62
7
  6
CONTINUOUS
 66
1
 70
0
  0
VERTEX
  8
0
 62
7
  6
CONTINUOUS
 10
459.2790552246
 20
350.2123100077
  0
VERTEX
  8
0
 62
7
  6
CONTINUOUS
 10
459.278191054
 20
350.1983378883
  0
VERTEX
  8
0
 62
7
  6
CONTINUOUS
 10
459.2774338318
 20
350.1841551752
  0
SEQEND
  0
POLYLINE
  8
0
 62
7
  6
CONTINUOUS
 66
1
 70
0
  0
VERTEX
  8
0
 62
7
  6
CONTINUOUS
 10
459.1552590117
 20
314.0838297146
  0
VERTEX
  8
0
 62
7
  6
CONTINUOUS
 10
459.1336870598
 20
313.7699232675
  0
VERTEX
  8
0
 62
7
  6
CONTINUOUS
 10
459.1133151198
 20
313.5011856426
  0
VERTEX
  8
0
 62
7
  6
CONTINUOUS
 10
459.094269704
 20
313.2760237584
  0
VERTEX
  8
0
 62
7
  6
CONTINUOUS
 10
459.0767380977
 20
313.0930644356
  0
VERTEX
  8
0
 62
7
  6
CONTINUOUS
 10
459.0610514535
 20
312.9514947787
  0
SEQEND
  0
LINE
  8
0
 62
7
  6
CONTINUOUS
 10
459.0489235479
 20
312.8587979772
 11
459.0489636114
 21
312.8590762274
  0
LINE
  8
0
 62
7
  6
CONTINUOUS
 10
459.2128497196
 20
260.806201244
 11
459.3134640052
 21
261.1580307226
  0
LINE
  8
0
 62
7
  6
CONTINUOUS
 10
459.1749384284
 20
94.5957511018
 11
459.0393454367
 21
98.358650153
  0
LINE
  8
0
 62
7
  6
CONTINUOUS
 10
459.2771012058
 20
91.719433753
 11
459.1749384284
 21
94.5957511018
  0
POLYLINE
  8
0
 62
7
  6
CONTINUOUS
 66
1
 70
0
  0
VERTEX
  8
0
 62
7
  6
CONTINUOUS
 10
459.0396046095
 20
104.6020056847
  0
VERTEX
  8
0
 62
7
  6
CONTINUOUS
 10
459.0391173475
 20
104.6160655176
  0
VERTEX
  8
0
 62
7
  6
CONTINUOUS
 10
459.0388303297
 20
104.6299544727
  0
SEQEND
  0
LINE
  8
0
 62
7
  6
CONTINUOUS
 10
459.2751856584
 20
91.7720353548
 11
459.2752064304
 21
91.7713265241
  0
POLYLINE
  8
0
 62
7
  6
CONTINUOUS
 66
1
 70
0
  0
VERTEX
  8
0
 62
7
  6
CONTINUOUS
 10
459.0393454367
 20
98.358650515
  0
VERTEX
  8
0
 62
7
  6
CONTINUOUS
 10
459.0390070226
 20
98.3702546763
  0
VERTEX
  8
0
 62
7
  6
CONTINUOUS
 10
459.0388039557
 20
98.3818619806
  0
VERTEX
  8
0
 62
7
  6
CONTINUOUS
 10
459.0387362637
 20
98.3934708567
  0
SEQEND
  0
LINE
  8
0
 62
7
  6
CONTINUOUS
 10
459.0390844206
 20
136.9306242056
 11
459.0387362637
 21
136.9570096677
  0
LINE
  8
0
 62
7
  6
CONTINUOUS
 10
459.0388303297
 20
104.6299544727
 11
459.0387362637
 21
104.6436702673
  0
LINE
  8
0
 62
7
  6
CONTINUOUS
 10
459.0387362637
 20
98.3934708835
 11
459.0387362637
 21
349.8447482647
  0
POLYLINE
  8
0
 62
7
  6
CONTINUOUS
 66
1
 70
0
  0
VERTEX
  8
0
 62
7
  6
CONTINUOUS
 10
459.0387362637
 20
349.8447482647
  0
VERTEX
  8
0
 62
7
  6
CONTINUOUS
 10
459.0388039557
 20
349.8563446767
  0
VERTEX
  8
0
 62
7
  6
CONTINUOUS
 10
459.0390070226
 20
349.8679395187
  0
SEQEND
  0
LINE
  8
0
 62
7
  6
CONTINUOUS
 10
459.0387362637
 20
344.2934754805
 11
459.0398182515
 21
344.3399804817
  0
LINE
  8
0
 62
7
  6
CONTINUOUS
 10
459.0390070226
 20
349.8679395187
 11
459.0393860622
 21
349.8807923319
  0
LINE
  8
0
 62
7
  6
CONTINUOUS
 10
459.1353346081
 20
352.5243126374
 11
459.0393860606
 21
349.880792263
  0
LINE
  8
0
 62
7
  6
CONTINUOUS
 10
459.2759291939
 20
350.1507482322
 11
459.1523853481
 21
346.9840887445
  0
LINE
  8
0
 62
7
  6
CONTINUOUS
 10
459.1523853481
 20
346.9840887445
 11
459.1283092584
 21
346.3873123262
  0
LINE
  8
0
 62
7
  6
CONTINUOUS
 10
471.0387362637
 20
351.1504927295
 11
471.0387362637
 21
333.4098100204
  0
LINE
  8
0
 62
7
  6
CONTINUOUS
 10
471.0387362637
 20
111.0295672133
 11
471.0387362637
 21
100.7530811629
  0
LINE
  8
SURFACE
 62
7
  6
CONTINUOUS
 10
471.0387362637
 20
90.730756415
 11
471.0387362637
 21
100.7530811629
  0
LINE
  8
SURFACE
 62
7
  6
CONTINUOUS
 10
471.0387362637
 20
111.0295672133
 11
471.0387362637
 21
129.7702543616
  0
LINE
  8
0
 62
7
  6
CONTINUOUS
 10
471.0387362637
 20
129.7702543616
 11
471.0387362637
 21
131.9854942379
  0
LINE
  8
0
 62
7
  6
CONTINUOUS
 10
471.0387362637
 20
134.8562859475
 11
471.0387362637
 21
156.330265255
  0
LINE
  8
SURFACE
 62
7
  6
CONTINUOUS
 10
471.0387362637
 20
156.330265255
 11
471.0387362637
 21
175.1651262461
  0
LINE
  8
0
 62
7
  6
CONTINUOUS
 10
471.0387362637
 20
175.1651262461
 11
471.0387362637
 21
177.3777352299
  0
LINE
  8
0
 62
7
  6
CONTINUOUS
 10
471.0387362637
 20
186.8018405844
 11
471.0387362637
 21
211.7043498845
  0
LINE
  8
SURFACE
 62
7
  6
CONTINUOUS
 10
471.0387362637
 20
211.7043498845
 11
471.0387362637
 21
231.790236089
  0
LINE
  8
0
 62
7
  6
CONTINUOUS
 10
471.0387362637
 20
231.790236089
 11
471.0387362637
 21
233.4933317342
  0
LINE
  8
0
 62
7
  6
CONTINUOUS
 10
471.0387362637
 20
243.4989263807
 11
471.0387362637
 21
269.9379766823
  0
LINE
  8
SURFACE
 62
7
  6
CONTINUOUS
 10
471.0387362637
 20
269.9379766823
 11
471.0387362637
 21
288.5488542921
  0
LINE
  8
0
 62
7
  6
CONTINUOUS
 10
471.0387362637
 20
295.7717994394
 11
471.0387362637
 21
317.6905235403
  0
LINE
  8
SURFACE
 62
7
  6
CONTINUOUS
 10
471.0387362637
 20
317.6905235403
 11
471.0387362637
 21
333.4098099081
  0
LINE
  8
SURFACE
 62
7
  6
CONTINUOUS
 10
471.0387362637
 20
351.1504927295
 11
471.0387362637
 21
356.4425059041
  0
LINE
  8
DEFAULT_1
 62
2
  6
CENTER
 10
447.8887362637
 20
224.1866396975
 11
494.1887362637
 21
224.1866396975
  0
LINE
  8
SURFACE
 62
7
  6
CONTINUOUS
 10
482.9489268505
 20
332.3567403249
 11
482.9468547433
 21
332.3874860386
  0
LINE
  8
SURFACE
 62
7
  6
CONTINUOUS
 10
482.9532476656
 20
332.2849589418
 11
482.9489268505
 21
332.3567403249
  0
LINE
  8
SURFACE
 62
7
  6
CONTINUOUS
 10
483.0373307562
 20
330.7200673972
 11
482.9532476656
 21
332.2849589418
  0
LINE
  8
SURFACE
 62
7
  6
CONTINUOUS
 10
482.8445316723
 20
354.6166219744
 11
482.7986950615
 21
355.4950280135
  0
LINE
  8
SURFACE
 62
7
  6
CONTINUOUS
 10
482.8903968731
 20
353.675948032
 11
482.8445316723
 21
354.6166219744
  0
POLYLINE
  8
SURFACE
 62
7
  6
CONTINUOUS
 66
1
 70
0
  0
VERTEX
  8
SURFACE
 62
7
  6
CONTINUOUS
 10
483.0373307572
 20
330.7200674837
  0
VERTEX
  8
SURFACE
 62
7
  6
CONTINUOUS
 10
483.0381145212
 20
330.7023247317
  0
VERTEX
  8
SURFACE
 62
7
  6
CONTINUOUS
 10
483.0385830527
 20
330.6845713755
  0
SEQEND
  0
LINE
  8
SURFACE
 62
7
  6
CONTINUOUS
 10
482.9421379194
 20
352.5243126374
 11
482.8903968731
 21
353.675948032
  0
LINE
  8
SURFACE
 62
7
  6
CONTINUOUS
 10
483.0380864669
 20
349.880792263
 11
482.9421379194
 21
352.5243126374
  0
LINE
  8
SURFACE
 62
7
  6
CONTINUOUS
 10
483.0370257759
 20
287.1544673857
 11
483.0387362637
 21
287.0960032957
  0
LINE
  8
SURFACE
 62
7
  6
CONTINUOUS
 10
483.0385830527
 20
330.6845713755
 11
483.0387362637
 21
330.6670671283
  0
POLYLINE
  8
SURFACE
 62
7
  6
CONTINUOUS
 66
1
 70
0
  0
VERTEX
  8
SURFACE
 62
7
  6
CONTINUOUS
 10
483.0387362637
 20
349.8447482647
  0
VERTEX
  8
SURFACE
 62
7
  6
CONTINUOUS
 10
483.0386685717
 20
349.8563446767
  0
VERTEX
  8
SURFACE
 62
7
  6
CONTINUOUS
 10
483.0384655049
 20
349.8679395187
  0
VERTEX
  8
SURFACE
 62
7
  6
CONTINUOUS
 10
483.0380864652
 20
349.8807923319
  0
SEQEND
  0
LINE
  8
SURFACE
 62
7
  6
CONTINUOUS
 10
483.0387362637
 20
349.8447482647
 11
483.0387362637
 21
98.3934708835
  0
LINE
  8
0
 62
7
  6
CONTINUOUS
 10
483.1387362637
 20
311.4859212737
 11
483.1387362637
 21
300.5898224707
  0
LINE
  8
0
 62
7
  6
CONTINUOUS
 10
483.1387362637
 20
296.5857460202
 11
483.1387362637
 21
285.8378844726
  0
LINE
  8
0
 62
7
  6
CONTINUOUS
 10
483.1387362637
 20
283.6219011291
 11
483.1387362637
 21
262.6310072667
  0
LINE
  8
0
 62
7
  6
CONTINUOUS
 10
483.1387362637
 20
258.9431037544
 11
483.1387362637
 21
256.7289150227
  0
LINE
  8
0
 62
7
  6
CONTINUOUS
 10
483.1387362637
 20
256.6692489507
 11
483.1387362637
 21
253.1846907197
  0
LINE
  8
0
 62
7
  6
CONTINUOUS
 10
483.1387362637
 20
253.1438383607
 11
483.1387362637
 21
249.5289471505
  0
POLYLINE
  8
SURFACE
 62
7
  6
CONTINUOUS
 66
1
 70
0
  0
VERTEX
  8
SURFACE
 62
7
  6
CONTINUOUS
 10
483.0381270908
 20
98.358650515
  0
VERTEX
  8
SURFACE
 62
7
  6
CONTINUOUS
 10
483.0384655049
 20
98.3702546763
  0
VERTEX
  8
SURFACE
 62
7
  6
CONTINUOUS
 10
483.0386685717
 20
98.3818619806
  0
VERTEX
  8
SURFACE
 62
7
  6
CONTINUOUS
 10
483.0387362637
 20
98.3934708567
  0
SEQEND
  0
LINE
  8
SURFACE
 62
7
  6
CONTINUOUS
 10
482.8022868691
 20
91.7720353548
 11
482.8022660969
 21
91.7713265215
  0
LINE
  8
SURFACE
 62
7
  6
CONTINUOUS
 10
483.0387362637
 20
116.7463096973
 11
483.0364040864
 21
116.678053833
  0
LINE
  8
SURFACE
 62
7
  6
CONTINUOUS
 10
482.8022868691
 20
91.7720353548
 11
482.902534099
 21
94.5957511018
  0
LINE
  8
SURFACE
 62
7
  6
CONTINUOUS
 10
482.902534099
 20
94.5957511018
 11
482.995981404
 21
97.201380695
  0
LINE
  8
SURFACE
 62
7
  6
CONTINUOUS
 10
482.995981404
 20
97.201380695
 11
483.0381270908
 21
98.358650153
  0
LINE
  8
SURFACE
 62
7
  6
CONTINUOUS
 10
482.7996356633
 20
91.7005871027
 11
482.8022660966
 21
91.7713265215
  0
LINE
  8
SURFACE
 62
7
  6
CONTINUOUS
 10
482.801103681
 20
112.0021601584
 11
482.924893999
 21
114.6781341964
  0
POLYLINE
  8
SURFACE
 62
7
  6
CONTINUOUS
 66
1
 70
0
  0
VERTEX
  8
SURFACE
 62
7
  6
CONTINUOUS
 10
482.924893999
 20
114.6781341964
  0
VERTEX
  8
SURFACE
 62
7
  6
CONTINUOUS
 10
482.9489776457
 20
115.1637828109
  0
VERTEX
  8
SURFACE
 62
7
  6
CONTINUOUS
 10
482.9724376754
 20
115.6104262557
  0
VERTEX
  8
SURFACE
 62
7
  6
CONTINUOUS
 10
482.9951499198
 20
116.0162345695
  0
VERTEX
  8
SURFACE
 62
7
  6
CONTINUOUS
 10
483.0169845245
 20
116.379491006
  0
VERTEX
  8
SURFACE
 62
7
  6
CONTINUOUS
 10
483.0364388028
 20
116.6785633647
  0
SEQEND
  0
LINE
  8
SURFACE
 62
7
  6
CONTINUOUS
 10
482.8000835721
 20
111.9838210979
 11
482.801103681
 21
112.0021601584
  0
LINE
  8
SURFACE
 62
7
  6
CONTINUOUS
 10
482.7981864563
 20
157.9088717449
 11
482.903456776
 21
158.9908916058
  0
LINE
  8
SURFACE
 62
7
  6
CONTINUOUS
 10
482.903456776
 20
158.9908916058
 11
482.9098914595
 21
159.0530815617
  0
POLYLINE
  8
SURFACE
 62
7
  6
CONTINUOUS
 66
1
 70
0
  0
VERTEX
  8
SURFACE
 62
7
  6
CONTINUOUS
 10
482.9098914595
 20
159.0530815617
  0
VERTEX
  8
SURFACE
 62
7
  6
CONTINUOUS
 10
482.9160703288
 20
159.1097521386
  0
VERTEX
  8
SURFACE
 62
7
  6
CONTINUOUS
 10
482.9219748786
 20
159.1610362325
  0
VERTEX
  8
SURFACE
 62
7
  6
CONTINUOUS
 10
482.9275820032
 20
159.2070493986
  0
VERTEX
  8
SURFACE
 62
7
  6
CONTINUOUS
 10
482.9328637301
 20
159.2478954653
  0
VERTEX
  8
SURFACE
 62
7
  6
CONTINUOUS
 10
482.937784184
 20
159.2836545722
  0
VERTEX
  8
SURFACE
 62
7
  6
CONTINUOUS
 10
482.9422965988
 20
159.3143763064
  0
VERTEX
  8
SURFACE
 62
7
  6
CONTINUOUS
 10
482.9463395002
 20
159.3400734719
  0
VERTEX
  8
SURFACE
 62
7
  6
CONTINUOUS
 10
482.9498315356
 20
159.3607161258
  0
VERTEX
  8
SURFACE
 62
7
  6
CONTINUOUS
 10
482.9526621371
 20
159.3762133643
  0
VERTEX
  8
SURFACE
 62
7
  6
CONTINUOUS
 10
482.9546782121
 20
159.3863931894
  0
VERTEX
  8
SURFACE
 62
7
  6
CONTINUOUS
 10
482.9553951966
 20
159.3897679431
  0
SEQEND
  0
POLYLINE
  8
SURFACE
 62
7
  6
CONTINUOUS
 66
1
 70
0
  0
VERTEX
  8
SURFACE
 62
7
  6
CONTINUOUS
 10
482.9404084719
 20
332.4668858214
  0
VERTEX
  8
SURFACE
 62
7
  6
CONTINUOUS
 10
482.9378048201
 20
332.4922884856
  0
VERTEX
  8
SURFACE
 62
7
  6
CONTINUOUS
 10
482.9345837595
 20
332.5194030164
  0
VERTEX
  8
SURFACE
 62
7
  6
CONTINUOUS
 10
482.930424296
 20
332.549061891
  0
VERTEX
  8
SURFACE
 62
7
  6
CONTINUOUS
 10
482.9250493654
 20
332.5812313078
  0
VERTEX
  8
SURFACE
 62
7
  6
CONTINUOUS
 10
482.9181171488
 20
332.616075287
  0
VERTEX
  8
SURFACE
 62
7
  6
CONTINUOUS
 10
482.908853553
 20
332.6552531221
  0
VERTEX
  8
SURFACE
 62
7
  6
CONTINUOUS
 10
482.8964314861
 20
332.6994682035
  0
VERTEX
  8
SURFACE
 62
7
  6
CONTINUOUS
 10
482.8806268174
 20
332.7470052013
  0
VERTEX
  8
SURFACE
 62
7
  6
CONTINUOUS
 10
482.8614637488
 20
332.7961510149
  0
VERTEX
  8
SURFACE
 62
7
  6
CONTINUOUS
 10
482.8387397597
 20
332.84632135
  0
VERTEX
  8
SURFACE
 62
7
  6
CONTINUOUS
 10
482.8121788979
 20
332.8971861768
  0
VERTEX
  8
SURFACE
 62
7
  6
CONTINUOUS
 10
482.7815231956
 20
332.9483788784
  0
VERTEX
  8
SURFACE
 62
7
  6
CONTINUOUS
 10
482.7465455865
 20
332.9994829986
  0
VERTEX
  8
SURFACE
 62
7
  6
CONTINUOUS
 10
482.7070473529
 20
333.0500477337
  0
VERTEX
  8
SURFACE
 62
7
  6
CONTINUOUS
 10
482.6628862582
 20
333.0995631355
  0
VERTEX
  8
SURFACE
 62
7
  6
CONTINUOUS
 10
482.6139690085
 20
333.1474876905
  0
VERTEX
  8
SURFACE
 62
7
  6
CONTINUOUS
 10
482.5602383299
 20
333.1932674067
  0
VERTEX
  8
SURFACE
 62
7
  6
CONTINUOUS
 10
482.5016641935
 20
333.2363401359
  0
VERTEX
  8
SURFACE
 62
7
  6
CONTINUOUS
 10
482.4382711708
 20
333.2761129337
  0
VERTEX
  8
SURFACE
 62
7
  6
CONTINUOUS
 10
482.3701482311
 20
333.3119638847
  0
VERTEX
  8
SURFACE
 62
7
  6
CONTINUOUS
 10
482.2974568232
 20
333.3432473793
  0
VERTEX
  8
SURFACE
 62
7
  6
CONTINUOUS
 10
482.2204377179
 20
333.3693013667
  0
VERTEX
  8
SURFACE
 62
7
  6
CONTINUOUS
 10
482.1394163361
 20
333.3894559823
  0
VERTEX
  8
SURFACE
 62
7
  6
CONTINUOUS
 10
482.0548115397
 20
333.4030423123
  0
VERTEX
  8
SURFACE
 62
7
  6
CONTINUOUS
 10
481.9671410479
 20
333.4094039947
  0
SEQEND
  0
POLYLINE
  8
SURFACE
 62
7
  6
CONTINUOUS
 66
1
 70
0
  0
VERTEX
  8
SURFACE
 62
7
  6
CONTINUOUS
 10
482.9468547433
 20
332.3874860386
  0
VERTEX
  8
SURFACE
 62
7
  6
CONTINUOUS
 10
482.944789924
 20
332.4156125139
  0
VERTEX
  8
SURFACE
 62
7
  6
CONTINUOUS
 10
482.9426746972
 20
332.441775837
  0
VERTEX
  8
SURFACE
 62
7
  6
CONTINUOUS
 10
482.9404084719
 20
332.4668858214
  0
SEQEND
  0
POLYLINE
  8
SURFACE
 62
7
  6
CONTINUOUS
 66
1
 70
0
  0
VERTEX
  8
SURFACE
 62
7
  6
CONTINUOUS
 10
482.7981012987
 20
355.5049423527
  0
VERTEX
  8
SURFACE
 62
7
  6
CONTINUOUS
 10
482.7972718497
 20
355.5168329187
  0
VERTEX
  8
SURFACE
 62
7
  6
CONTINUOUS
 10
482.7962008282
 20
355.5299245317
  0
VERTEX
  8
SURFACE
 62
7
  6
CONTINUOUS
 10
482.7948779804
 20
355.543820986
  0
VERTEX
  8
SURFACE
 62
7
  6
CONTINUOUS
 10
482.7932481068
 20
355.5586846009
  0
VERTEX
  8
SURFACE
 62
7
  6
CONTINUOUS
 10
482.7913696177
 20
355.5737322024
  0
VERTEX
  8
SURFACE
 62
7
  6
CONTINUOUS
 10
482.7892496947
 20
355.5888458602
  0
VERTEX
  8
SURFACE
 62
7
  6
CONTINUOUS
 10
482.7868580469
 20
355.604180817
  0
VERTEX
  8
SURFACE
 62
7
  6
CONTINUOUS
 10
482.7841627811
 20
355.6198448477
  0
VERTEX
  8
SURFACE
 62
7
  6
CONTINUOUS
 10
482.7811374084
 20
355.6358792323
  0
VERTEX
  8
SURFACE
 62
7
  6
CONTINUOUS
 10
482.7777810984
 20
355.6521883566
  0
VERTEX
  8
SURFACE
 62
7
  6
CONTINUOUS
 10
482.7740982452
 20
355.6686789712
  0
VERTEX
  8
SURFACE
 62
7
  6
CONTINUOUS
 10
482.7700784855
 20
355.6853405137
  0
VERTEX
  8
SURFACE
 62
7
  6
CONTINUOUS
 10
482.765709912
 20
355.70216863
  0
VERTEX
  8
SURFACE
 62
7
  6
CONTINUOUS
 10
482.7609797481
 20
355.719160718
  0
VERTEX
  8
SURFACE
 62
7
  6
CONTINUOUS
 10
482.7558747087
 20
355.736314041
  0
VERTEX
  8
SURFACE
 62
7
  6
CONTINUOUS
 10
482.7503811785
 20
355.7536250363
  0
VERTEX
  8
SURFACE
 62
7
  6
CONTINUOUS
 10
482.7444852886
 20
355.7710891396
  0
VERTEX
  8
SURFACE
 62
7
  6
CONTINUOUS
 10
482.7381729498
 20
355.7887007857
  0
VERTEX
  8
SURFACE
 62
7
  6
CONTINUOUS
 10
482.7314298833
 20
355.806453416
  0
VERTEX
  8
SURFACE
 62
7
  6
CONTINUOUS
 10
482.7242421159
 20
355.8243383591
  0
VERTEX
  8
SURFACE
 62
7
  6
CONTINUOUS
 10
482.7165954103
 20
355.8423465062
  0
VERTEX
  8
SURFACE
 62
7
  6
CONTINUOUS
 10
482.7084747916
 20
355.860469286
  0
VERTEX
  8
SURFACE
 62
7
  6
CONTINUOUS
 10
482.699865027
 20
355.8786973617
  0
VERTEX
  8
SURFACE
 62
7
  6
CONTINUOUS
 10
482.6907506611
 20
355.8970205524
  0
VERTEX
  8
SURFACE
 62
7
  6
CONTINUOUS
 10
482.6811160509
 20
355.9154277694
  0
VERTEX
  8
SURFACE
 62
7
  6
CONTINUOUS
 10
482.6709454008
 20
355.9339069627
  0
VERTEX
  8
SURFACE
 62
7
  6
CONTINUOUS
 10
482.6602227995
 20
355.9524450724
  0
VERTEX
  8
SURFACE
 62
7
  6
CONTINUOUS
 10
482.6489322314
 20
355.9710280282
  0
VERTEX
  8
SURFACE
 62
7
  6
CONTINUOUS
 10
482.6370518414
 20
355.9896495334
  0
VERTEX
  8
SURFACE
 62
7
  6
CONTINUOUS
 10
482.6245457229
 20
356.0083209544
  0
VERTEX
  8
SURFACE
 62
7
  6
CONTINUOUS
 10
482.6113736313
 20
356.0270532079
  0
VERTEX
  8
SURFACE
 62
7
  6
CONTINUOUS
 10
482.5974926281
 20
356.0458537658
  0
VERTEX
  8
SURFACE
 62
7
  6
CONTINUOUS
 10
482.5828571348
 20
356.064726338
  0
VERTEX
  8
SURFACE
 62
7
  6
CONTINUOUS
 10
482.5674190005
 20
356.0836705319
  0
VERTEX
  8
SURFACE
 62
7
  6
CONTINUOUS
 10
482.5511275881
 20
356.1026814875
  0
VERTEX
  8
SURFACE
 62
7
  6
CONTINUOUS
 10
482.5339295899
 20
356.1217498033
  0
VERTEX
  8
SURFACE
 62
7
  6
CONTINUOUS
 10
482.5157650554
 20
356.1408652501
  0
VERTEX
  8
SURFACE
 62
7
  6
CONTINUOUS
 10
482.4965680567
 20
356.1600146604
  0
VERTEX
  8
SURFACE
 62
7
  6
CONTINUOUS
 10
482.4762698392
 20
356.1791777902
  0
VERTEX
  8
SURFACE
 62
7
  6
CONTINUOUS
 10
482.454803597
 20
356.1983227535
  0
VERTEX
  8
SURFACE
 62
7
  6
CONTINUOUS
 10
482.4321547539
 20
356.2173657167
  0
VERTEX
  8
SURFACE
 62
7
  6
CONTINUOUS
 10
482.4083488339
 20
356.2361932235
  0
VERTEX
  8
SURFACE
 62
7
  6
CONTINUOUS
 10
482.3834196308
 20
356.2546942438
  0
VERTEX
  8
SURFACE
 62
7
  6
CONTINUOUS
 10
482.3574087392
 20
356.2727615012
  0
VERTEX
  8
SURFACE
 62
7
  6
CONTINUOUS
 10
482.3303655542
 20
356.2902922706
  0
VERTEX
  8
SURFACE
 62
7
  6
CONTINUOUS
 10
482.3023471625
 20
356.3071891673
  0
VERTEX
  8
SURFACE
 62
7
  6
CONTINUOUS
 10
482.2734117403
 20
356.3233643488
  0
VERTEX
  8
SURFACE
 62
7
  6
CONTINUOUS
 10
482.2435696665
 20
356.3387629362
  0
VERTEX
  8
SURFACE
 62
7
  6
CONTINUOUS
 10
482.2128064753
 20
356.3533417583
  0
VERTEX
  8
SURFACE
 62
7
  6
CONTINUOUS
 10
482.1811087763
 20
356.3670531677
  0
VERTEX
  8
SURFACE
 62
7
  6
CONTINUOUS
 10
482.1484648564
 20
356.3798447791
  0
VERTEX
  8
SURFACE
 62
7
  6
CONTINUOUS
 10
482.1148651206
 20
356.3916593352
  0
VERTEX
  8
SURFACE
 62
7
  6
CONTINUOUS
 10
482.0803025658
 20
356.4024345906
  0
VERTEX
  8
SURFACE
 62
7
  6
CONTINUOUS
 10
482.0447732924
 20
356.4121032179
  0
VERTEX
  8
SURFACE
 62
7
  6
CONTINUOUS
 10
482.0082770524
 20
356.4205927404
  0
VERTEX
  8
SURFACE
 62
7
  6
CONTINUOUS
 10
481.9708178382
 20
356.427825496
  0
VERTEX
  8
SURFACE
 62
7
  6
CONTINUOUS
 10
481.9324045118
 20
356.4337186386
  0
VERTEX
  8
SURFACE
 62
7
  6
CONTINUOUS
 10
481.8930514756
 20
356.4381841821
  0
VERTEX
  8
SURFACE
 62
7
  6
CONTINUOUS
 10
481.8527793858
 20
356.4411290951
  0
VERTEX
  8
SURFACE
 62
7
  6
CONTINUOUS
 10
481.811615908
 20
356.4424554529
  0
VERTEX
  8
SURFACE
 62
7
  6
CONTINUOUS
 10
481.799999354
 20
356.442522927
  0
SEQEND
  0
LINE
  8
SURFACE
 62
7
  6
CONTINUOUS
 10
482.7986950615
 20
355.4950280135
 11
482.7981012987
 21
355.5049423527
  0
LINE
  8
SURFACE
 62
7
  6
CONTINUOUS
 10
492.1887362637
 20
257.1866396975
 11
492.1887362637
 21
191.1866396975
  0
LINE
  8
SURFACE
 62
7
  6
CONTINUOUS
 10
483.0364383209
 20
116.6785556944
 11
483.0364040864
 21
116.678053833
  0
POLYLINE
  8
SURFACE
 62
7
  6
CONTINUOUS
 66
1
 70
0
  0
VERTEX
  8
SURFACE
 62
7
  6
CONTINUOUS
 10
482.7972234398
 20
91.6565682671
  0
VERTEX
  8
SURFACE
 62
7
  6
CONTINUOUS
 10
482.7979737674
 20
91.6673966824
  0
VERTEX
  8
SURFACE
 62
7
  6
CONTINUOUS
 10
482.7985398519
 20
91.6769262236
  0
VERTEX
  8
SURFACE
 62
7
  6
CONTINUOUS
 10
482.7989209025
 20
91.6842972982
  0
VERTEX
  8
SURFACE
 62
7
  6
CONTINUOUS
 10
482.7991878951
 20
91.690027192
  0
VERTEX
  8
SURFACE
 62
7
  6
CONTINUOUS
 10
482.7996356633
 20
91.7005871027
  0
SEQEND
  0
LINE
  8
0
 62
7
  6
CONTINUOUS
 10
483.0387362637
 20
249.5289471505
 11
483.1387362637
 21
249.5289471505
  0
LINE
  8
0
 62
7
  6
CONTINUOUS
 10
483.0387362637
 20
249.5480954411
 11
483.1387362637
 21
249.5480954411
  0
LINE
  8
0
 62
7
  6
CONTINUOUS
 10
483.0387362637
 20
250.1438370628
 11
483.1387362637
 21
250.1438370628
  0
LINE
  8
0
 62
7
  6
CONTINUOUS
 10
483.0387362637
 20
250.6438372672
 11
483.1387362637
 21
250.6438372672
  0
LINE
  8
0
 62
7
  6
CONTINUOUS
 10
483.0387362637
 20
250.9097995178
 11
483.1387362637
 21
250.9097995178
  0
LINE
  8
0
 62
7
  6
CONTINUOUS
 10
483.0387362637
 20
251.3395866849
 11
483.1387362637
 21
251.3395866849
  0
LINE
  8
0
 62
7
  6
CONTINUOUS
 10
483.0387362637
 20
251.6991609727
 11
483.1387362637
 21
251.6991609727
  0
LINE
  8
0
 62
7
  6
CONTINUOUS
 10
483.0387362637
 20
251.9885222694
 11
483.1387362637
 21
251.9885222694
  0
POLYLINE
  8
SURFACE
 62
7
  6
CONTINUOUS
 66
1
 70
0
  0
VERTEX
  8
SURFACE
 62
7
  6
CONTINUOUS
 10
482.9364419743
 20
287.732262405
  0
VERTEX
  8
SURFACE
 62
7
  6
CONTINUOUS
 10
482.9355902351
 20
287.7364643094
  0
VERTEX
  8
SURFACE
 62
7
  6
CONTINUOUS
 10
482.9259909035
 20
287.7791118838
  0
VERTEX
  8
SURFACE
 62
7
  6
CONTINUOUS
 10
482.9127757189
 20
287.8278237039
  0
VERTEX
  8
SURFACE
 62
7
  6
CONTINUOUS
 10
482.8954850907
 20
287.880778426
  0
VERTEX
  8
SURFACE
 62
7
  6
CONTINUOUS
 10
482.8739533642
 20
287.9360405536
  0
VERTEX
  8
SURFACE
 62
7
  6
CONTINUOUS
 10
482.8480790693
 20
287.9922946852
  0
VERTEX
  8
SURFACE
 62
7
  6
CONTINUOUS
 10
482.8176941313
 20
288.0487946414
  0
VERTEX
  8
SURFACE
 62
7
  6
CONTINUOUS
 10
482.7826077884
 20
288.1049939341
  0
VERTEX
  8
SURFACE
 62
7
  6
CONTINUOUS
 10
482.7426946744
 20
288.1603181753
  0
VERTEX
  8
SURFACE
 62
7
  6
CONTINUOUS
 10
482.6979440259
 20
288.2141228872
  0
VERTEX
  8
SURFACE
 62
7
  6
CONTINUOUS
 10
482.6484804117
 20
288.2657193317
  0
VERTEX
  8
SURFACE
 62
7
  6
CONTINUOUS
 10
482.5943864212
 20
288.3145684632
  0
VERTEX
  8
SURFACE
 62
7
  6
CONTINUOUS
 10
482.5355804143
 20
288.3602972054
  0
VERTEX
  8
SURFACE
 62
7
  6
CONTINUOUS
 10
482.4720244092
 20
288.402455192
  0
VERTEX
  8
SURFACE
 62
7
  6
CONTINUOUS
 10
482.4037131791
 20
288.4405351962
  0
VERTEX
  8
SURFACE
 62
7
  6
CONTINUOUS
 10
482.3306879304
 20
288.47397022
  0
VERTEX
  8
SURFACE
 62
7
  6
CONTINUOUS
 10
482.2530492503
 20
288.5021338127
  0
VERTEX
  8
SURFACE
 62
7
  6
CONTINUOUS
 10
482.1709668288
 20
288.5243429957
  0
VERTEX
  8
SURFACE
 62
7
  6
CONTINUOUS
 10
482.0847019267
 20
288.5398591269
  0
VERTEX
  8
SURFACE
 62
7
  6
CONTINUOUS
 10
481.9946251876
 20
288.5478951149
  0
VERTEX
  8
SURFACE
 62
7
  6
CONTINUOUS
 10
481.9508117502
 20
288.5488544889
  0
SEQEND
  0
LINE
  8
SURFACE
 62
7
  6
CONTINUOUS
 10
482.9653854183
 20
287.5849322622
 11
482.9364347801
 21
287.7322988537
  0
LINE
  8
SURFACE
 62
7
  6
CONTINUOUS
 10
482.9954164786
 20
287.4253392279
 11
482.9653854183
 21
287.5849322622
  0
LINE
  8
SURFACE
 62
7
  6
CONTINUOUS
 10
483.0233813555
 20
287.2705712943
 11
482.9954164786
 21
287.4253392279
  0
POLYLINE
  8
SURFACE
 62
7
  6
CONTINUOUS
 66
1
 70
0
  0
VERTEX
  8
SURFACE
 62
7
  6
CONTINUOUS
 10
483.0233813404
 20
287.2705715432
  0
VERTEX
  8
SURFACE
 62
7
  6
CONTINUOUS
 10
483.031900561
 20
287.2127280946
  0
VERTEX
  8
SURFACE
 62
7
  6
CONTINUOUS
 10
483.0370257759
 20
287.1544673857
  0
SEQEND
  0
LINE
  8
0
 62
7
  6
CONTINUOUS
 10
483.0387362637
 20
252.643838049
 11
483.1387362637
 21
252.643838049
  0
LINE
  8
0
 62
7
  6
CONTINUOUS
 10
483.0387362637
 20
253.1438383607
 11
483.1387362637
 21
253.1438383607
  0
LINE
  8
0
 62
7
  6
CONTINUOUS
 10
483.0387362637
 20
253.1846907197
 11
483.1387362637
 21
253.1846907197
  0
LINE
  8
0
 62
7
  6
CONTINUOUS
 10
483.0387362637
 20
254.273159946
 11
483.1387362637
 21
254.273159946
  0
LINE
  8
0
 62
7
  6
CONTINUOUS
 10
483.0387362637
 20
254.7666527733
 11
483.1387362637
 21
254.7666527733
  0
LINE
  8
0
 62
7
  6
CONTINUOUS
 10
483.0387362637
 20
254.8620059796
 11
483.1387362637
 21
254.8620059796
  0
LINE
  8
0
 62
7
  6
CONTINUOUS
 10
483.0387362637
 20
255.2261306578
 11
483.1387362637
 21
255.2261306578
  0
LINE
  8
0
 62
7
  6
CONTINUOUS
 10
483.0387362637
 20
255.6549396929
 11
483.1387362637
 21
255.6549396929
  0
LINE
  8
0
 62
7
  6
CONTINUOUS
 10
483.0387362637
 20
256.0497340677
 11
483.1387362637
 21
256.0497340677
  0
LINE
  8
0
 62
7
  6
CONTINUOUS
 10
483.0387362637
 20
256.3118150472
 11
483.1387362637
 21
256.3118150472
  0
LINE
  8
0
 62
7
  6
CONTINUOUS
 10
483.0387362637
 20
256.5398813664
 11
483.1387362637
 21
256.5398813664
  0
LINE
  8
0
 62
7
  6
CONTINUOUS
 10
483.0387362637
 20
256.6692489507
 11
483.1387362637
 21
256.6692489507
  0
LINE
  8
0
 62
7
  6
CONTINUOUS
 10
483.0387362637
 20
256.7289150227
 11
483.1387362637
 21
256.7289150227
  0
LINE
  8
0
 62
7
  6
CONTINUOUS
 10
483.0387362637
 20
257.9036190716
 11
483.1387362637
 21
257.9036190716
  0
LINE
  8
0
 62
7
  6
CONTINUOUS
 10
483.0387362637
 20
258.2707141576
 11
483.1387362637
 21
258.2707141576
  0
LINE
  8
0
 62
7
  6
CONTINUOUS
 10
483.0387362637
 20
258.4542616491
 11
483.1387362637
 21
258.4542616491
  0
LINE
  8
0
 62
7
  6
CONTINUOUS
 10
483.0387362637
 20
258.9431037544
 11
483.1387362637
 21
258.9431037544
  0
LINE
  8
0
 62
7
  6
CONTINUOUS
 10
459.0387362637
 20
259.1866396975
 11
451.8887362637
 21
259.1866396975
  0
LINE
  8
SURFACE
 62
7
  6
CONTINUOUS
 10
483.0387362637
 20
259.1866396975
 11
490.1887362637
 21
259.1866396975
  0
POLYLINE
  8
0
 62
7
  6
CONTINUOUS
 66
1
 70
0
  0
VERTEX
  8
0
 62
7
  6
CONTINUOUS
 10
460.2749878142
 20
261.8826025971
  0
VERTEX
  8
0
 62
7
  6
CONTINUOUS
 10
460.1995030854
 20
261.879749879
  0
VERTEX
  8
0
 62
7
  6
CONTINUOUS
 10
460.0755090505
 20
261.8625070889
  0
VERTEX
  8
0
 62
7
  6
CONTINUOUS
 10
459.9539982987
 20
261.8296918395
  0
VERTEX
  8
0
 62
7
  6
CONTINUOUS
 10
459.8374413042
 20
261.7818117725
  0
VERTEX
  8
0
 62
7
  6
CONTINUOUS
 10
459.728155563
 20
261.7198689405
  0
VERTEX
  8
0
 62
7
  6
CONTINUOUS
 10
459.6281992886
 20
261.645312747
  0
VERTEX
  8
0
 62
7
  6
CONTINUOUS
 10
459.5392937081
 20
261.5599834899
  0
VERTEX
  8
0
 62
7
  6
CONTINUOUS
 10
459.4629897669
 20
261.466372768
  0
VERTEX
  8
0
 62
7
  6
CONTINUOUS
 10
459.4004110378
 20
261.3676751209
  0
VERTEX
  8
0
 62
7
  6
CONTINUOUS
 10
459.3519636134
 20
261.2676741187
  0
VERTEX
  8
0
 62
7
  6
CONTINUOUS
 10
459.316918757
 20
261.1697840938
  0
VERTEX
  8
0
 62
7
  6
CONTINUOUS
 10
459.3134640865
 20
261.1580306991
  0
SEQEND
  0
LINE
  8
0
 62
7
  6
CONTINUOUS
 10
460.2749874985
 20
261.8826026731
 11
471.0387362637
 21
261.8826026731
  0
LINE
  8
0
 62
7
  6
CONTINUOUS
 10
483.0387362637
 20
262.6310072667
 11
483.1387362637
 21
262.6310072667
  0
LINE
  8
0
 62
7
  6
CONTINUOUS
 10
483.0387362637
 20
264.753345208
 11
483.1387362637
 21
264.753345208
  0
LINE
  8
0
 62
7
  6
CONTINUOUS
 10
483.0387362637
 20
265.3192471659
 11
483.1387362637
 21
265.3192471659
  0
LINE
  8
0
 62
7
  6
CONTINUOUS
 10
483.0387362637
 20
265.7817179221
 11
483.1387362637
 21
265.7817179221
  0
LINE
  8
0
 62
7
  6
CONTINUOUS
 10
483.0387362637
 20
267.9601226098
 11
483.1387362637
 21
267.9601226098
  0
LINE
  8
0
 62
7
  6
CONTINUOUS
 10
483.0387362637
 20
268.5260245677
 11
483.1387362637
 21
268.5260245677
  0
LINE
  8
0
 62
7
  6
CONTINUOUS
 10
483.0387362637
 20
269.5113159847
 11
483.1387362637
 21
269.5113159847
  0
LINE
  8
0
 62
7
  6
CONTINUOUS
 10
483.0387362637
 20
271.6685714272
 11
483.1387362637
 21
271.6685714272
  0
LINE
  8
0
 62
7
  6
CONTINUOUS
 10
483.0387362637
 20
272.4823840239
 11
483.1387362637
 21
272.4823840239
  0
LINE
  8
0
 62
7
  6
CONTINUOUS
 10
483.0387362637
 20
275.1950926795
 11
483.1387362637
 21
275.1950926795
  0
LINE
  8
0
 62
7
  6
CONTINUOUS
 10
483.0387362637
 20
276.0089052761
 11
483.1387362637
 21
276.0089052761
  0
LINE
  8
0
 62
7
  6
CONTINUOUS
 10
483.0387362637
 20
276.9495629406
 11
483.1387362637
 21
276.9495629406
  0
LINE
  8
0
 62
7
  6
CONTINUOUS
 10
483.0387362637
 20
279.0477263172
 11
483.1387362637
 21
279.0477263172
  0
LINE
  8
0
 62
7
  6
CONTINUOUS
 10
483.0387362637
 20
279.4270022566
 11
483.1387362637
 21
279.4270022566
  0
LINE
  8
0
 62
7
  6
CONTINUOUS
 10
483.0387362637
 20
279.6031665246
 11
483.1387362637
 21
279.6031665246
  0
LINE
  8
0
 62
7
  6
CONTINUOUS
 10
483.0387362637
 20
279.6340658878
 11
483.1387362637
 21
279.6340658878
  0
LINE
  8
0
 62
7
  6
CONTINUOUS
 10
483.0387362637
 20
281.0764381044
 11
483.1387362637
 21
281.0764381044
  0
LINE
  8
0
 62
7
  6
CONTINUOUS
 10
483.0387362637
 20
283.1050153323
 11
483.1387362637
 21
283.1050153323
  0
LINE
  8
0
 62
7
  6
CONTINUOUS
 10
483.0387362637
 20
283.4654615257
 11
483.1387362637
 21
283.4654615257
  0
LINE
  8
0
 62
7
  6
CONTINUOUS
 10
483.0387362637
 20
283.6170303842
 11
483.1387362637
 21
283.6170303842
  0
LINE
  8
0
 62
7
  6
CONTINUOUS
 10
483.0387362637
 20
283.6219011291
 11
483.1387362637
 21
283.6219011291
  0
LINE
  8
0
 62
7
  6
CONTINUOUS
 10
483.0387362637
 20
285.8378844726
 11
483.1387362637
 21
285.8378844726
  0
LINE
  8
0
 62
7
  6
CONTINUOUS
 10
483.0387362637
 20
286.4040379888
 11
483.1387362637
 21
286.4040379888
  0
LINE
  8
SURFACE
 62
7
  6
CONTINUOUS
 10
481.9508321005
 20
288.5488544839
 11
471.0387362637
 21
288.5488544839
  0
LINE
  8
0
 62
7
  6
CONTINUOUS
 10
484.0387362637
 20
319.1866396975
 11
483.0387362637
 21
320.918690505
  0
LINE
  8
0
 62
7
  6
CONTINUOUS
 10
483.0387362637
 20
288.8101905688
 11
483.1387362637
 21
288.8101905688
  0
LINE
  8
0
 62
7
  6
CONTINUOUS
 10
483.0387362637
 20
289.1640364855
 11
483.1387362637
 21
289.1640364855
  0
LINE
  8
0
 62
7
  6
CONTINUOUS
 10
483.0387362637
 20
292.275027547
 11
483.1387362637
 21
292.275027547
  0
LINE
  8
0
 62
7
  6
CONTINUOUS
 10
483.0387362637
 20
292.4895791334
 11
483.1387362637
 21
292.4895791334
  0
LINE
  8
0
 62
7
  6
CONTINUOUS
 10
483.0387362637
 20
293.4561701472
 11
483.1387362637
 21
293.4561701472
  0
LINE
  8
0
 62
7
  6
CONTINUOUS
 10
483.0387362637
 20
293.9070006778
 11
483.1387362637
 21
293.9070006778
  0
LINE
  8
0
 62
7
  6
CONTINUOUS
 10
483.0387362637
 20
294.2487144405
 11
483.1387362637
 21
294.2487144405
  0
LINE
  8
0
 62
7
  6
CONTINUOUS
 10
483.0387362637
 20
294.8442652755
 11
483.1387362637
 21
294.8442652755
  0
LINE
  8
0
 62
7
  6
CONTINUOUS
 10
483.0387362637
 20
295.2871668563
 11
483.1387362637
 21
295.2871668563
  0
LINE
  8
0
 62
7
  6
CONTINUOUS
 10
483.0387362637
 20
295.8714239209
 11
483.1387362637
 21
295.8714239209
  0
LINE
  8
0
 62
7
  6
CONTINUOUS
 10
483.0387362637
 20
296.0165484235
 11
483.1387362637
 21
296.0165484235
  0
LINE
  8
0
 62
7
  6
CONTINUOUS
 10
483.0387362637
 20
296.4481529123
 11
483.1387362637
 21
296.4481529123
  0
LINE
  8
0
 62
7
  6
CONTINUOUS
 10
483.0387362637
 20
296.5857460202
 11
483.1387362637
 21
296.5857460202
  0
LINE
  8
0
 62
7
  6
CONTINUOUS
 10
483.0387362637
 20
300.5898224707
 11
483.1387362637
 21
300.5898224707
  0
LINE
  8
0
 62
7
  6
CONTINUOUS
 10
483.0387362637
 20
304.6690577213
 11
483.1387362637
 21
304.6690577213
  0
LINE
  8
0
 62
7
  6
CONTINUOUS
 10
483.0387362637
 20
306.1147270965
 11
483.1387362637
 21
306.1147270965
  0
LINE
  8
0
 62
7
  6
CONTINUOUS
 10
483.0387362637
 20
306.3291169065
 11
483.1387362637
 21
306.3291169065
  0
LINE
  8
0
 62
7
  6
CONTINUOUS
 10
483.0387362637
 20
308.401216092
 11
483.1387362637
 21
308.401216092
  0
LINE
  8
0
 62
7
  6
CONTINUOUS
 10
483.0387362637
 20
308.8478365517
 11
483.1387362637
 21
308.8478365517
  0
LINE
  8
0
 62
7
  6
CONTINUOUS
 10
483.0387362637
 20
309.1432716652
 11
483.1387362637
 21
309.1432716652
  0
LINE
  8
0
 62
7
  6
CONTINUOUS
 10
483.0387362637
 20
309.7087900624
 11
483.1387362637
 21
309.7087900624
  0
LINE
  8
0
 62
7
  6
CONTINUOUS
 10
483.0387362637
 20
310.2330565909
 11
483.1387362637
 21
310.2330565909
  0
LINE
  8
0
 62
7
  6
CONTINUOUS
 10
483.0387362637
 20
310.7673963937
 11
483.1387362637
 21
310.7673963937
  0
LINE
  8
0
 62
7
  6
CONTINUOUS
 10
483.0387362637
 20
311.1165855593
 11
483.1387362637
 21
311.1165855593
  0
LINE
  8
0
 62
7
  6
CONTINUOUS
 10
483.0387362637
 20
311.3218803959
 11
483.1387362637
 21
311.3218803959
  0
LINE
  8
0
 62
7
  6
CONTINUOUS
 10
483.0387362637
 20
311.4859212737
 11
483.1387362637
 21
311.4859212737
  0
POLYLINE
  8
0
 62
7
  6
CONTINUOUS
 66
1
 70
0
  0
VERTEX
  8
0
 62
7
  6
CONTINUOUS
 10
460.2764369629
 20
317.0245775016
  0
VERTEX
  8
0
 62
7
  6
CONTINUOUS
 10
460.2450610382
 20
317.0240851868
  0
VERTEX
  8
0
 62
7
  6
CONTINUOUS
 10
460.1990538633
 20
317.0215791255
  0
VERTEX
  8
0
 62
7
  6
CONTINUOUS
 10
460.1539141041
 20
317.0170436807
  0
VERTEX
  8
0
 62
7
  6
CONTINUOUS
 10
460.1097078043
 20
317.0105811508
  0
VERTEX
  8
0
 62
7
  6
CONTINUOUS
 10
460.0664927241
 20
317.0022923444
  0
VERTEX
  8
0
 62
7
  6
CONTINUOUS
 10
460.024318888
 20
316.9922761653
  0
VERTEX
  8
0
 62
7
  6
CONTINUOUS
 10
459.9832291269
 20
316.9806292572
  0
VERTEX
  8
0
 62
7
  6
CONTINUOUS
 10
459.9432596102
 20
316.9674457036
  0
VERTEX
  8
0
 62
7
  6
CONTINUOUS
 10
459.9044403611
 20
316.9528167782
  0
VERTEX
  8
0
 62
7
  6
CONTINUOUS
 10
459.8667957706
 20
316.9368307464
  0
VERTEX
  8
0
 62
7
  6
CONTINUOUS
 10
459.8303450785
 20
316.9195727055
  0
VERTEX
  8
0
 62
7
  6
CONTINUOUS
 10
459.7951028233
 20
316.9011244547
  0
VERTEX
  8
0
 62
7
  6
CONTINUOUS
 10
459.761079291
 20
316.8815644074
  0
VERTEX
  8
0
 62
7
  6
CONTINUOUS
 10
459.7282809449
 20
316.8609675342
  0
VERTEX
  8
0
 62
7
  6
CONTINUOUS
 10
459.696710836
 20
316.839405338
  0
VERTEX
  8
0
 62
7
  6
CONTINUOUS
 10
459.6663689934
 20
316.816945855
  0
VERTEX
  8
0
 62
7
  6
CONTINUOUS
 10
459.6372527973
 20
316.7936536843
  0
VERTEX
  8
0
 62
7
  6
CONTINUOUS
 10
459.6093573334
 20
316.7695900422
  0
VERTEX
  8
0
 62
7
  6
CONTINUOUS
 10
459.5826758512
 20
316.7448129603
  0
VERTEX
  8
0
 62
7
  6
CONTINUOUS
 10
459.5572052154
 20
316.7193827481
  0
VERTEX
  8
0
 62
7
  6
CONTINUOUS
 10
459.5329469492
 20
316.6933649674
  0
VERTEX
  8
0
 62
7
  6
CONTINUOUS
 10
459.5098997465
 20
316.6668240639
  0
VERTEX
  8
0
 62
7
  6
CONTINUOUS
 10
459.4880591073
 20
316.6398227147
  0
VERTEX
  8
0
 62
7
  6
CONTINUOUS
 10
459.4674175231
 20
316.6124216782
  0
VERTEX
  8
0
 62
7
  6
CONTINUOUS
 10
459.4479646655
 20
316.5846796547
  0
VERTEX
  8
0
 62
7
  6
CONTINUOUS
 10
459.4296876146
 20
316.5566532189
  0
VERTEX
  8
0
 62
7
  6
CONTINUOUS
 10
459.4125710956
 20
316.5283967999
  0
VERTEX
  8
0
 62
7
  6
CONTINUOUS
 10
459.3965978655
 20
316.4999629898
  0
VERTEX
  8
0
 62
7
  6
CONTINUOUS
 10
459.3817492256
 20
316.471403306
  0
VERTEX
  8
0
 62
7
  6
CONTINUOUS
 10
459.3680057576
 20
316.4427698569
  0
VERTEX
  8
0
 62
7
  6
CONTINUOUS
 10
459.3553489448
 20
316.4141199637
  0
VERTEX
  8
0
 62
7
  6
CONTINUOUS
 10
459.3437740691
 20
316.3855523571
  0
VERTEX
  8
0
 62
7
  6
CONTINUOUS
 10
459.333260923
 20
316.357144677
  0
VERTEX
  8
0
 62
7
  6
CONTINUOUS
 10
459.323773434
 20
316.328939999
  0
VERTEX
  8
0
 62
7
  6
CONTINUOUS
 10
459.3152686504
 20
316.3009585851
  0
VERTEX
  8
0
 62
7
  6
CONTINUOUS
 10
459.3077028616
 20
316.273209385
  0
VERTEX
  8
0
 62
7
  6
CONTINUOUS
 10
459.3010478855
 20
316.2457568316
  0
VERTEX
  8
0
 62
7
  6
CONTINUOUS
 10
459.2953203152
 20
316.2189115816
  0
VERTEX
  8
0
 62
7
  6
CONTINUOUS
 10
459.2905567263
 20
316.1932826456
  0
VERTEX
  8
0
 62
7
  6
CONTINUOUS
 10
459.2865450429
 20
316.1681898099
  0
VERTEX
  8
0
 62
7
  6
CONTINUOUS
 10
459.2831863716
 20
316.1432944983
  0
VERTEX
  8
0
 62
7
  6
CONTINUOUS
 10
459.2805491147
 20
316.1196567166
  0
VERTEX
  8
0
 62
7
  6
CONTINUOUS
 10
459.2785697703
 20
316.0979340333
  0
VERTEX
  8
0
 62
7
  6
CONTINUOUS
 10
459.2771063022
 20
316.0782875444
  0
VERTEX
  8
0
 62
7
  6
CONTINUOUS
 10
459.1552590117
 20
314.0838297146
  0
SEQEND
  0
LINE
  8
0
 62
7
  6
CONTINUOUS
 10
460.276434179
 20
317.024577956
 11
471.0387362637
 21
317.024577956
  0
LINE
  8
SURFACE
 62
7
  6
CONTINUOUS
 10
481.9386827914
 20
333.4098100204
 11
471.0387362637
 21
333.4098100204
  0
LINE
  8
SURFACE
 62
7
  6
CONTINUOUS
 10
481.9671410479
 20
333.4094039947
 11
481.9386466859
 21
333.4098098959
  0
POLYLINE
  8
0
 62
7
  6
CONTINUOUS
 66
1
 70
0
  0
VERTEX
  8
0
 62
7
  6
CONTINUOUS
 10
460.2590238441
 20
356.4423527244
  0
VERTEX
  8
0
 62
7
  6
CONTINUOUS
 10
460.2290834787
 20
356.4413514641
  0
VERTEX
  8
0
 62
7
  6
CONTINUOUS
 10
460.1994900177
 20
356.4394776151
  0
VERTEX
  8
0
 62
7
  6
CONTINUOUS
 10
460.1702629126
 20
356.4367593186
  0
VERTEX
  8
0
 62
7
  6
CONTINUOUS
 10
460.1414200627
 20
356.4332245062
  0
VERTEX
  8
0
 62
7
  6
CONTINUOUS
 10
460.1129778788
 20
356.4289008451
  0
VERTEX
  8
0
 62
7
  6
CONTINUOUS
 10
460.0849513482
 20
356.423815688
  0
VERTEX
  8
0
 62
7
  6
CONTINUOUS
 10
460.057354098
 20
356.4179960281
  0
VERTEX
  8
0
 62
7
  6
CONTINUOUS
 10
460.0301984591
 20
356.4114684578
  0
VERTEX
  8
0
 62
7
  6
CONTINUOUS
 10
460.003495528
 20
356.4042591324
  0
VERTEX
  8
0
 62
7
  6
CONTINUOUS
 10
459.9772552287
 20
356.3963937373
  0
VERTEX
  8
0
 62
7
  6
CONTINUOUS
 10
459.9514863733
 20
356.3878974594
  0
VERTEX
  8
0
 62
7
  6
CONTINUOUS
 10
459.9261967213
 20
356.3787949616
  0
VERTEX
  8
0
 62
7
  6
CONTINUOUS
 10
459.9013930375
 20
356.3691103613
  0
VERTEX
  8
0
 62
7
  6
CONTINUOUS
 10
459.8770811496
 20
356.3588672114
  0
VERTEX
  8
0
 62
7
  6
CONTINUOUS
 10
459.8532660026
 20
356.3480884849
  0
VERTEX
  8
0
 62
7
  6
CONTINUOUS
 10
459.8299517127
 20
356.3367965618
  0
VERTEX
  8
0
 62
7
  6
CONTINUOUS
 10
459.8071416203
 20
356.3250132187
  0
VERTEX
  8
0
 62
7
  6
CONTINUOUS
 10
459.7848383403
 20
356.3127596212
  0
VERTEX
  8
0
 62
7
  6
CONTINUOUS
 10
459.7630438114
 20
356.3000563184
  0
VERTEX
  8
0
 62
7
  6
CONTINUOUS
 10
459.7417593439
 20
356.286923239
  0
VERTEX
  8
0
 62
7
  6
CONTINUOUS
 10
459.7209856658
 20
356.2733796904
  0
VERTEX
  8
0
 62
7
  6
CONTINUOUS
 10
459.7007229669
 20
356.2594443587
  0
VERTEX
  8
0
 62
7
  6
CONTINUOUS
 10
459.6809709422
 20
356.2451353107
  0
VERTEX
  8
0
 62
7
  6
CONTINUOUS
 10
459.6617288325
 20
356.230469998
  0
VERTEX
  8
0
 62
7
  6
CONTINUOUS
 10
459.6429954644
 20
356.2154652615
  0
VERTEX
  8
0
 62
7
  6
CONTINUOUS
 10
459.6247692885
 20
356.2001373381
  0
VERTEX
  8
0
 62
7
  6
CONTINUOUS
 10
459.6070484158
 20
356.1845018686
  0
VERTEX
  8
0
 62
7
  6
CONTINUOUS
 10
459.5898314435
 20
356.1685746547
  0
VERTEX
  8
0
 62
7
  6
CONTINUOUS
 10
459.5731190898
 20
356.1523734371
  0
VERTEX
  8
0
 62
7
  6
CONTINUOUS
 10
459.5569120082
 20
356.1359161762
  0
VERTEX
  8
0
 62
7
  6
CONTINUOUS
 10
459.5412102824
 20
356.1192205871
  0
VERTEX
  8
0
 62
7
  6
CONTINUOUS
 10
459.5260134446
 20
356.1023041249
  0
VERTEX
  8
0
 62
7
  6
CONTINUOUS
 10
459.5113204933
 20
356.0851839716
  0
VERTEX
  8
0
 62
7
  6
CONTINUOUS
 10
459.4971299123
 20
356.0678770238
  0
VERTEX
  8
0
 62
7
  6
CONTINUOUS
 10
459.4834396885
 20
356.0503998806
  0
VERTEX
  8
0
 62
7
  6
CONTINUOUS
 10
459.4702473306
 20
356.0327688336
  0
VERTEX
  8
0
 62
7
  6
CONTINUOUS
 10
459.4575498876
 20
356.0149998568
  0
VERTEX
  8
0
 62
7
  6
CONTINUOUS
 10
459.4453439679
 20
355.9971085982
  0
VERTEX
  8
0
 62
7
  6
CONTINUOUS
 10
459.4336257577
 20
355.9791103725
  0
VERTEX
  8
0
 62
7
  6
CONTINUOUS
 10
459.4223910403
 20
355.9610201559
  0
VERTEX
  8
0
 62
7
  6
CONTINUOUS
 10
459.4116352161
 20
355.9428525817
  0
VERTEX
  8
0
 62
7
  6
CONTINUOUS
 10
459.4013533216
 20
355.9246219401
  0
VERTEX
  8
0
 62
7
  6
CONTINUOUS
 10
459.3915400508
 20
355.9063421804
  0
VERTEX
  8
0
 62
7
  6
CONTINUOUS
 10
459.382189776
 20
355.8880269177
  0
VERTEX
  8
0
 62
7
  6
CONTINUOUS
 10
459.3732965699
 20
355.8696894476
  0
VERTEX
  8
0
 62
7
  6
CONTINUOUS
 10
459.3648545034
 20
355.8513433793
  0
VERTEX
  8
0
 62
7
  6
CONTINUOUS
 10
459.3568597936
 20
355.8330078491
  0
VERTEX
  8
0
 62
7
  6
CONTINUOUS
 10
459.34930909
 20
355.8147048956
  0
VERTEX
  8
0
 62
7
  6
CONTINUOUS
 10
459.3421979934
 20
355.7964563747
  0
VERTEX
  8
0
 62
7
  6
CONTINUOUS
 10
459.3355210794
 20
355.7782838885
  0
VERTEX
  8
0
 62
7
  6
CONTINUOUS
 10
459.3292719346
 20
355.7602087354
  0
VERTEX
  8
0
 62
7
  6
CONTINUOUS
 10
459.3234432045
 20
355.7422518934
  0
VERTEX
  8
0
 62
7
  6
CONTINUOUS
 10
459.3180266676
 20
355.7244340958
  0
VERTEX
  8
0
 62
7
  6
CONTINUOUS
 10
459.3130133526
 20
355.7067761112
  0
VERTEX
  8
0
 62
7
  6
CONTINUOUS
 10
459.3083937239
 20
355.6892994276
  0
VERTEX
  8
0
 62
7
  6
CONTINUOUS
 10
459.3041579867
 20
355.6720277721
  0
VERTEX
  8
0
 62
7
  6
CONTINUOUS
 10
459.3002990875
 20
355.6550017687
  0
VERTEX
  8
0
 62
7
  6
CONTINUOUS
 10
459.2968067252
 20
355.6382563522
  0
VERTEX
  8
0
 62
7
  6
CONTINUOUS
 10
459.2936657427
 20
355.6218086284
  0
VERTEX
  8
0
 62
7
  6
CONTINUOUS
 10
459.2908595548
 20
355.6056690052
  0
VERTEX
  8
0
 62
7
  6
CONTINUOUS
 10
459.2883726622
 20
355.5898544342
  0
VERTEX
  8
0
 62
7
  6
CONTINUOUS
 10
459.2861972677
 20
355.5744423133
  0
VERTEX
  8
0
 62
7
  6
CONTINUOUS
 10
459.2843490631
 20
355.5597434429
  0
VERTEX
  8
0
 62
7
  6
CONTINUOUS
 10
459.2827703597
 20
355.5455276739
  0
VERTEX
  8
0
 62
7
  6
CONTINUOUS
 10
459.2814045454
 20
355.5314171376
  0
VERTEX
  8
0
 62
7
  6
CONTINUOUS
 10
459.2802870495
 20
355.5179699356
  0
VERTEX
  8
0
 62
7
  6
CONTINUOUS
 10
459.2794004602
 20
355.5053960924
  0
VERTEX
  8
0
 62
7
  6
CONTINUOUS
 10
459.2787973587
 20
355.4953838379
  0
VERTEX
  8
0
 62
7
  6
CONTINUOUS
 10
459.2329408552
 20
354.6166219744
  0
SEQEND
  0
POLYLINE
  8
0
 62
7
  6
CONTINUOUS
 66
1
 70
0
  0
VERTEX
  8
0
 62
7
  6
CONTINUOUS
 10
460.2773338454
 20
351.1504967243
  0
VERTEX
  8
0
 62
7
  6
CONTINUOUS
 10
460.2552496276
 20
351.150252841
  0
VERTEX
  8
0
 62
7
  6
CONTINUOUS
 10
460.2099558145
 20
351.148224271
  0
VERTEX
  8
0
 62
7
  6
CONTINUOUS
 10
460.1658403715
 20
351.1442619696
  0
VERTEX
  8
0
 62
7
  6
CONTINUOUS
 10
460.1229343047
 20
351.1385053717
  0
VERTEX
  8
0
 62
7
  6
CONTINUOUS
 10
460.0812579211
 20
351.1310856954
  0
VERTEX
  8
0
 62
7
  6
CONTINUOUS
 10
460.0408221581
 20
351.1221257458
  0
VERTEX
  8
0
 62
7
  6
CONTINUOUS
 10
460.0016298233
 20
351.1117398266
  0
VERTEX
  8
0
 62
7
  6
CONTINUOUS
 10
459.9636767444
 20
351.1000337418
  0
VERTEX
  8
0
 62
7
  6
CONTINUOUS
 10
459.9269528326
 20
351.0871048727
  0
VERTEX
  8
0
 62
7
  6
CONTINUOUS
 10
459.8914430631
 20
351.0730423179
  0
VERTEX
  8
0
 62
7
  6
CONTINUOUS
 10
459.8571283755
 20
351.0579270844
  0
VERTEX
  8
0
 62
7
  6
CONTINUOUS
 10
459.8239864991
 20
351.0418323194
  0
VERTEX
  8
0
 62
7
  6
CONTINUOUS
 10
459.7920017703
 20
351.0248286048
  0
VERTEX
  8
0
 62
7
  6
CONTINUOUS
 10
459.7611910175
 20
351.0070015867
  0
VERTEX
  8
0
 62
7
  6
CONTINUOUS
 10
459.731574504
 20
350.9884414205
  0
VERTEX
  8
0
 62
7
  6
CONTINUOUS
 10
459.7031669353
 20
350.9692381628
  0
VERTEX
  8
0
 62
7
  6
CONTINUOUS
 10
459.675977633
 20
350.949481416
  0
VERTEX
  8
0
 62
7
  6
CONTINUOUS
 10
459.6500107335
 20
350.9292599938
  0
VERTEX
  8
0
 62
7
  6
CONTINUOUS
 10
459.6252654123
 20
350.9086616124
  0
VERTEX
  8
0
 62
7
  6
CONTINUOUS
 10
459.6017361251
 20
350.8877726016
  0
VERTEX
  8
0
 62
7
  6
CONTINUOUS
 10
459.5794052073
 20
350.8666701765
  0
VERTEX
  8
0
 62
7
  6
CONTINUOUS
 10
459.5582288634
 20
350.8454051079
  0
VERTEX
  8
0
 62
7
  6
CONTINUOUS
 10
459.5381588998
 20
350.8240180074
  0
VERTEX
  8
0
 62
7
  6
CONTINUOUS
 10
459.5191478203
 20
350.8025438076
  0
VERTEX
  8
0
 62
7
  6
CONTINUOUS
 10
459.5011491082
 20
350.7810121326
  0
VERTEX
  8
0
 62
7
  6
CONTINUOUS
 10
459.4841174435
 20
350.7594476251
  0
VERTEX
  8
0
 62
7
  6
CONTINUOUS
 10
459.4680087734
 20
350.7378700993
  0
VERTEX
  8
0
 62
7
  6
CONTINUOUS
 10
459.4527806143
 20
350.7162949956
  0
VERTEX
  8
0
 62
7
  6
CONTINUOUS
 10
459.4383922292
 20
350.6947337269
  0
VERTEX
  8
0
 62
7
  6
CONTINUOUS
 10
459.4248047585
 20
350.6731939848
  0
VERTEX
  8
0
 62
7
  6
CONTINUOUS
 10
459.4119813334
 20
350.6516800394
  0
VERTEX
  8
0
 62
7
  6
CONTINUOUS
 10
459.3998871765
 20
350.6301930374
  0
VERTEX
  8
0
 62
7
  6
CONTINUOUS
 10
459.388489694
 20
350.6087313084
  0
VERTEX
  8
0
 62
7
  6
CONTINUOUS
 10
459.3777585659
 20
350.5872906939
  0
VERTEX
  8
0
 62
7
  6
CONTINUOUS
 10
459.3676690409
 20
350.565871934
  0
VERTEX
  8
0
 62
7
  6
CONTINUOUS
 10
459.3582054938
 20
350.5444914694
  0
VERTEX
  8
0
 62
7
  6
CONTINUOUS
 10
459.3493524797
 20
350.5231651681
  0
VERTEX
  8
0
 62
7
  6
CONTINUOUS
 10
459.3410942221
 20
350.501907065
  0
VERTEX
  8
0
 62
7
  6
CONTINUOUS
 10
459.3334146863
 20
350.4807292039
  0
VERTEX
  8
0
 62
7
  6
CONTINUOUS
 10
459.3262976055
 20
350.4596412803
  0
VERTEX
  8
0
 62
7
  6
CONTINUOUS
 10
459.3197265183
 20
350.4386501792
  0
VERTEX
  8
0
 62
7
  6
CONTINUOUS
 10
459.3136851606
 20
350.417760588
  0
VERTEX
  8
0
 62
7
  6
CONTINUOUS
 10
459.3081584403
 20
350.3969782886
  0
VERTEX
  8
0
 62
7
  6
CONTINUOUS
 10
459.3031344715
 20
350.3763199628
  0
VERTEX
  8
0
 62
7
  6
CONTINUOUS
 10
459.2986095901
 20
350.3558433042
  0
VERTEX
  8
0
 62
7
  6
CONTINUOUS
 10
459.2946354478
 20
350.3359200584
  0
VERTEX
  8
0
 62
7
  6
CONTINUOUS
 10
459.2911838901
 20
350.3166235689
  0
VERTEX
  8
0
 62
7
  6
CONTINUOUS
 10
459.288166151
 20
350.2976451259
  0
VERTEX
  8
0
 62
7
  6
CONTINUOUS
 10
459.2855100753
 20
350.2786082146
  0
VERTEX
  8
0
 62
7
  6
CONTINUOUS
 10
459.2832526658
 20
350.2598621306
  0
VERTEX
  8
0
 62
7
  6
CONTINUOUS
 10
459.2814970175
 20
350.242755214
  0
VERTEX
  8
0
 62
7
  6
CONTINUOUS
 10
459.280115959
 20
350.2268353513
  0
VERTEX
  8
0
 62
7
  6
CONTINUOUS
 10
459.2790552246
 20
350.2123100077
  0
SEQEND
  0
LINE
  8
0
 62
7
  6
CONTINUOUS
 10
460.2774731735
 20
356.442522927
 11
460.2590238441
 21
356.4423527244
  0
LINE
  8
0
 62
7
  6
CONTINUOUS
 10
460.2773287729
 20
351.1504971459
 11
471.0387362637
 21
351.1504971459
  0
LINE
  8
SURFACE
 62
7
  6
CONTINUOUS
 10
481.800004915
 20
356.4425234183
 11
471.0387362637
 21
356.4425234183
  0
LINE
  8
0
 62
7
  6
CONTINUOUS
 10
460.2774676125
 20
356.4425234183
 11
471.0387362637
 21
356.4425234183
  0
ARC
  8
0
 62
7
  6
CONTINUOUS
 10
101.8005684067
 20
118.7373696534
 40
110.0000000855
 50
348.6274276383
 51
353.3532027771
  0
ARC
  8
SURFACE
 62
7
  6
CONTINUOUS
 10
94.8884855767
 20
124.8609406928
 40
110.0000000855
 50
103.569874146
 51
108.2956492848
  0
ARC
  8
0
 62
7
  6
CONTINUOUS
 10
80.4003150757
 20
149.1064795029
 40
9.5
 50
318.4615384615
 51
20.7692307692
  0
ARC
  8
SURFACE
 62
7
  6
CONTINUOUS
 10
80.3223626093
 20
149.2194131474
 40
9.5
 50
48.4615384615
 51
110.7692307692
  0
ARC
  8
0
 62
7
  6
CONTINUOUS
 10
105.2310467871
 20
137.1721407637
 40
2.0
 50
48.4615384615
 51
117.9685873925
  0
ARC
  8
0
 62
7
  6
CONTINUOUS
 10
95.3243443369
 20
136.8562857742
 40
2.0
 50
247.1804080055
 51
293.2428122537
  0
ARC
  8
SURFACE
 62
7
  6
CONTINUOUS
 10
112.7753479743
 20
130.4884731344
 40
2.0
 50
338.9544895306
 51
48.4615384615
  0
ARC
  8
SURFACE
 62
7
  6
CONTINUOUS
 10
113.6559169489
 20
120.6159295871
 40
2.0
 50
163.6802646694
 51
209.7426689176
  0
ARC
  8
0
 62
7
  6
CONTINUOUS
 10
86.4060133306
 20
139.9005351273
 40
1.1
 50
138.4615384615
 51
244.1682051961
  0
ARC
  8
SURFACE
 62
7
  6
CONTINUOUS
 10
117.7529563095
 20
112.1295669658
 40
1.1
 50
212.754871727
 51
318.4615384615
  0
ARC
  8
0
 62
7
  6
CONTINUOUS
 10
109.8972399757
 20
208.9226929677
 40
180.0
 50
327.245128273
 51
330.2573310824
  0
ARC
  8
SURFACE
 62
7
  6
CONTINUOUS
 10
108.5444296576
 20
220.0640883085
 40
180.0
 50
43.5888227638
 51
46.6010255732
  0
ARC
  8
SURFACE
 62
7
  6
CONTINUOUS
 10
119.6819230769
 20
183.1226040139
 40
180.0
 50
71.2811304561
 51
74.2933332655
  0
ARC
  8
0
 62
7
  6
CONTINUOUS
 10
62.7899660732
 20
171.3636744436
 40
110.0000000855
 50
320.935119946
 51
325.6608950848
  0
ARC
  8
SURFACE
 62
7
  6
CONTINUOUS
 10
59.5153860392
 20
179.9980323773
 40
110.0000000855
 50
75.8775664537
 51
80.6033415925
  0
ARC
  8
0
 62
7
  6
CONTINUOUS
 10
57.9542118721
 20
208.1993793641
 40
9.5
 50
290.7692307692
 51
353.0769230769
  0
ARC
  8
SURFACE
 62
7
  6
CONTINUOUS
 10
57.9376712725
 20
208.3356034576
 40
9.5
 50
20.7692307692
 51
83.0769230769
  0
ARC
  8
0
 62
7
  6
CONTINUOUS
 10
74.3945691323
 20
186.0926308103
 40
2.0
 50
20.7692307692
 51
90.2762797002
  0
ARC
  8
0
 62
7
  6
CONTINUOUS
 10
65.4758346208
 20
190.4168292938
 40
2.0
 50
219.4881003132
 51
265.5505045614
  0
ARC
  8
SURFACE
 62
7
  6
CONTINUOUS
 10
77.9686608562
 20
176.6685254558
 40
2.0
 50
311.2621818383
 51
20.7692307692
  0
ARC
  8
SURFACE
 62
7
  6
CONTINUOUS
 10
74.1603662074
 20
167.5176014763
 40
2.0
 50
135.9879569771
 51
182.0503612253
  0
ARC
  8
0
 62
7
  6
CONTINUOUS
 10
58.9937779083
 20
197.2569333016
 40
1.1
 50
110.7692307692
 51
216.4758975038
  0
ARC
  8
SURFACE
 62
7
  6
CONTINUOUS
 10
73.8443050401
 20
158.0993114298
 40
1.1
 50
185.0625640347
 51
290.7692307692
  0
ARC
  8
SURFACE
 62
7
  6
CONTINUOUS
 10
56.3283306606
 20
219.2088663612
 40
1.1
 50
157.3702563424
 51
263.0769230769
  0
ARC
  8
0
 62
7
  6
CONTINUOUS
 10
156.6489199569
 20
150.3727025621
 40
180.0
 50
22.6297436576
 51
25.641946467
  0
ARC
  8
SURFACE
 62
7
  6
CONTINUOUS
 10
183.4403104322
 20
143.7692178901
 40
180.0
 50
126.6657458407
 51
129.6779486501
  0
ARC
  8
SURFACE
 62
7
  6
CONTINUOUS
 10
146.7112474971
 20
155.5883954191
 40
180.0
 50
98.9734381484
 51
101.9856409578
  0
ARC
  8
0
 62
7
  6
CONTINUOUS
 10
160.7994046024
 20
90.2682218287
 40
110.0000000855
 50
16.3197353306
 51
21.0455104694
  0
ARC
  8
SURFACE
 62
7
  6
CONTINUOUS
 10
151.833293853
 20
92.4781696459
 40
110.0000000855
 50
131.2621818383
 51
135.9879569771
  0
ARC
  8
0
 62
7
  6
CONTINUOUS
 10
127.7371922785
 20
107.2135395282
 40
9.5
 50
346.1538461538
 51
48.4615384615
  0
ARC
  8
SURFACE
 62
7
  6
CONTINUOUS
 10
188.9833107692
 20
92.1177271236
 40
9.5
 50
103.8461538462
 51
166.1538461538
  0
ARC
  8
SURFACE
 62
7
  6
CONTINUOUS
 10
127.6156859159
 20
107.2773109867
 40
9.5
 50
76.1538461538
 51
138.4615384615
  0
ARC
  8
0
 62
7
  6
CONTINUOUS
 10
155.2698770489
 20
108.1856237845
 40
2.0
 50
76.1538461538
 51
145.6608950848
  0
ARC
  8
0
 62
7
  6
CONTINUOUS
 10
146.6447128026
 20
103.3020738937
 40
2.0
 50
274.8727156978
 51
320.935119946
  0
ARC
  8
SURFACE
 62
7
  6
CONTINUOUS
 10
165.056079216
 20
105.7735415872
 40
2.0
 50
6.6467972229
 51
76.1538461538
  0
ARC
  8
SURFACE
 62
7
  6
CONTINUOUS
 10
170.423784074
 20
97.4410592218
 40
2.0
 50
191.3725723617
 51
237.4349766099
  0
ARC
  8
0
 62
7
  6
CONTINUOUS
 10
137.3331896584
 20
101.8530677523
 40
1.1
 50
166.1538461538
 51
271.8605128884
  0
ARC
  8
SURFACE
 62
7
  6
CONTINUOUS
 10
177.9953416197
 20
91.8307474306
 40
1.1
 50
240.4471794193
 51
346.1538461539
  0
ARC
  8
0
 62
7
  6
CONTINUOUS
 10
126.0574417084
 20
173.8860706775
 40
180.0
 50
354.9374359653
 51
357.9496387747
  0
ARC
  8
DEFAULT_3
 62
2
  6
PHANTOM
 10
163.490012937
 20
224.1866396975
 40
3.2
 50
92.2544307753
 51
267.7455692247
  0
ARC
  8
DEFAULT_3
 62
2
  6
PHANTOM
 10
163.2382555761
 20
217.7915933152
 40
3.2
 50
45.0
 51
87.7455692247
  0
ARC
  8
DEFAULT_3
 62
2
  6
PHANTOM
 10
167.4808962633
 20
213.5489526281
 40
3.2
 50
3.5903778907
 51
45.0
  0
ARC
  8
DEFAULT_3
 62
2
  6
PHANTOM
 10
173.8683347224
 20
213.9497392684
 40
3.2
 50
183.5903778907
 51
225.0
  0
ARC
  8
DEFAULT_3
 62
2
  6
PHANTOM
 10
178.8150226478
 20
209.0030513429
 40
3.2
 50
225.0
 51
266.4096221093
  0
ARC
  8
DEFAULT_3
 62
2
  6
PHANTOM
 10
178.4142360075
 20
202.6156128838
 40
3.2
 50
45.0
 51
86.4096221093
  0
ARC
  8
DEFAULT_3
 62
2
  6
PHANTOM
 10
182.6568766947
 20
198.3729721967
 40
3.2
 50
2.2544307753
 51
45.0
  0
ARC
  8
0
 62
7
  6
CONTINUOUS
 10
111.8704222241
 20
247.4561015033
 40
180.0
 50
299.5528205807
 51
302.5650233901
  0
ARC
  8
SURFACE
 62
7
  6
CONTINUOUS
 10
115.8502327601
 20
257.9499994442
 40
180.0
 50
15.8965150715
 51
18.9087178809
  0
ARC
  8
0
 62
7
  6
CONTINUOUS
 10
52.7044564677
 20
236.0910839878
 40
110.0000000855
 50
293.2428122537
 51
297.9685873925
  0
ARC
  8
SURFACE
 62
7
  6
CONTINUOUS
 10
53.8175460526
 20
245.2582014683
 40
110.0000000855
 50
48.1852587614
 51
52.9110339002
  0
ARC
  8
0
 62
7
  6
CONTINUOUS
 10
65.5410144069
 20
270.9547679004
 40
9.5
 50
263.0769230769
 51
325.3846153846
  0
ARC
  8
SURFACE
 62
7
  6
CONTINUOUS
 10
65.5896749261
 20
271.0830751447
 40
9.5
 50
353.0769230769
 51
55.3846153846
  0
ARC
  8
0
 62
7
  6
CONTINUOUS
 10
69.8247094953
 20
243.7399992103
 40
2.0
 50
353.0769383978
 51
62.5839720079
  0
ARC
  8
0
 62
7
  6
CONTINUOUS
 10
63.9371175166
 20
251.7136294065
 40
2.0
 50
191.7957926208
 51
237.8581968691
  0
ARC
  8
SURFACE
 62
7
  6
CONTINUOUS
 10
68.6098104144
 20
233.7344050947
 40
2.0
 50
283.569874146
 51
353.0769230769
  0
ARC
  8
SURFACE
 62
7
  6
CONTINUOUS
 10
60.9850865513
 20
227.401467086
 40
2.0
 50
108.2956492848
 51
154.358053533
  0
ARC
  8
SURFACE
 62
7
  6
CONTINUOUS
 10
86.8427964989
 20
288.6130067442
 40
2.0
 50
255.8775664537
 51
325.3846153846
  0
ARC
  8
SURFACE
 62
7
  6
CONTINUOUS
 10
77.1483757705
 20
286.5488544839
 40
2.0
 50
80.6033415925
 51
126.6657458407
  0
ARC
  8
0
 62
7
  6
CONTINUOUS
 10
61.3762961736
 20
260.7826026731
 40
1.1
 50
83.0769230769
 51
188.7835898114
  0
ARC
  8
SURFACE
 62
7
  6
CONTINUOUS
 10
69.217731811
 20
281.4587691753
 40
1.1
 50
129.6779486501
 51
235.3846153846
  0
ARC
  8
0
 62
7
  6
CONTINUOUS
 10
73.8545082972
 20
298.0913288092
 40
110.0000000855
 50
265.5505045614
 51
270.2762797002
  0
ARC
  8
SURFACE
 62
7
  6
CONTINUOUS
 10
79.1002720913
 20
305.6911296975
 40
110.0000000855
 50
20.4929510691
 51
25.2187262079
  0
ARC
  8
0
 62
7
  6
CONTINUOUS
 10
101.4226776502
 20
322.9961418824
 40
9.5
 50
235.3846153846
 51
297.6923076923
  0
ARC
  8
SURFACE
 62
7
  6
CONTINUOUS
 10
101.5253917497
 20
323.0871386342
 40
9.5
 50
325.3846153846
 51
27.6923076923
  0
ARC
  8
0
 62
7
  6
CONTINUOUS
 10
92.5683676461
 20
296.9079285895
 40
2.0
 50
325.3846273387
 51
34.8916643156
  0
ARC
  8
0
 62
7
  6
CONTINUOUS
 10
91.0606945695
 20
306.704327913
 40
2.0
 50
164.1034849285
 51
210.1658891768
  0
ARC
  8
0
 62
7
  6
CONTINUOUS
 10
93.0077619043
 20
315.924577956
 40
1.1
 50
55.3846153846
 51
161.0912821191
  0
ARC
  8
SURFACE
 62
7
  6
CONTINUOUS
 10
109.5597020219
 20
330.58831733
 40
1.1
 50
101.9856409578
 51
207.6923076923
  0
ARC
  8
0
 62
7
  6
CONTINUOUS
 10
131.52495618
 20
280.6587567666
 40
180.0
 50
271.8605128884
 51
274.8727156978
  0
ARC
  8
SURFACE
 62
7
  6
CONTINUOUS
 10
139.9256609383
 20
288.1011317545
 40
180.0
 50
348.2042073792
 51
351.2164101886
  0
ARC
  8
DEFAULT_3
 62
2
  6
PHANTOM
 10
163.2382555761
 20
230.5816860797
 40
3.2
 50
272.2544307753
 51
315.0
  0
ARC
  8
DEFAULT_3
 62
2
  6
PHANTOM
 10
182.6568766947
 20
250.0003071983
 40
3.2
 50
315.0
 51
357.7455692247
  0
ARC
  8
DEFAULT_3
 62
2
  6
PHANTOM
 10
178.4142360075
 20
245.7576665111
 40
3.2
 50
273.5903778907
 51
315.0
  0
ARC
  8
DEFAULT_3
 62
2
  6
PHANTOM
 10
178.8150226478
 20
239.370228052
 40
3.2
 50
93.5903778907
 51
135.0
  0
ARC
  8
DEFAULT_3
 62
2
  6
PHANTOM
 10
173.8683347224
 20
234.4235401266
 40
3.2
 50
135.0
 51
176.4096221093
  0
ARC
  8
DEFAULT_3
 62
2
  6
PHANTOM
 10
167.4808962633
 20
234.8243267669
 40
3.2
 50
315.0
 51
356.4096221093
  0
ARC
  8
0
 62
7
  6
CONTINUOUS
 10
164.3582249769
 20
300.9243305721
 40
180.0
 50
244.1682051961
 51
247.1804080055
  0
ARC
  8
SURFACE
 62
7
  6
CONTINUOUS
 10
175.2553237367
 20
303.6102241876
 40
180.0
 50
320.5118996868
 51
323.5241024962
  0
ARC
  8
0
 62
7
  6
CONTINUOUS
 10
184.4346995788
 20
360.9749019563
 40
110.0000000855
 50
210.1658891768
 51
214.8916643156
  0
ARC
  8
0
 62
7
  6
CONTINUOUS
 10
121.3948995735
 20
343.1609000031
 40
110.0000000855
 50
237.8581968691
 51
242.5839720079
  0
ARC
  8
SURFACE
 62
7
  6
CONTINUOUS
 10
129.5715963098
 20
347.4523615033
 40
110.0000000855
 50
352.8006433768
 51
357.5264185155
  0
ARC
  8
0
 62
7
  6
CONTINUOUS
 10
157.3791449738
 20
352.4014496975
 40
9.5
 50
207.6923076923
 51
270.0
  0
ARC
  8
SURFACE
 62
7
  6
CONTINUOUS
 10
157.5123820913
 20
352.4342896975
 40
9.5
 50
297.6923076923
 51
360.0
  0
ARC
  8
0
 62
7
  6
CONTINUOUS
 10
137.4152455933
 20
333.41628707
 40
2.0
 50
297.6923192459
 51
7.1993566233
  0
ARC
  8
0
 62
7
  6
CONTINUOUS
 10
140.6328811511
 20
342.7912184953
 40
2.0
 50
136.4111772362
 51
182.4735814844
  0
ARC
  8
SURFACE
 62
7
  6
CONTINUOUS
 10
128.4906617288
 20
328.7323041251
 40
2.0
 50
228.1852587614
 51
297.6923076923
  0
ARC
  8
SURFACE
 62
7
  6
CONTINUOUS
 10
118.9474190937
 20
331.4098100204
 40
2.0
 50
52.9110339002
 51
98.9734381484
  0
ARC
  8
SURFACE
 62
7
  6
CONTINUOUS
 10
184.0123820913
 20
344.9014496975
 40
2.0
 50
200.4929510691
 51
270.0
  0
ARC
  8
SURFACE
 62
7
  6
CONTINUOUS
 10
176.8065594286
 20
351.7072294152
 40
2.0
 50
25.2187262079
 51
71.2811304561
  0
ARC
  8
0
 62
7
  6
CONTINUOUS
 10
146.6417875021
 20
350.0504971459
 40
1.1
 50
27.6923076923
 51
133.3989744268
  0
ARC
  8
SURFACE
 62
7
  6
CONTINUOUS
 10
168.1123820913
 20
355.3425234183
 40
1.1
 50
74.2933332655
 51
180.0
  0
ARC
  8
0
 62
7
  6
CONTINUOUS
 10
231.3925986567
 20
155.5883954191
 40
180.0
 50
78.0143590422
 51
81.0265618516
  0
ARC
  8
0
 62
7
  6
CONTINUOUS
 10
194.6635357216
 20
143.7692178901
 40
180.0
 50
50.3220513499
 51
53.3342541593
  0
ARC
  8
SURFACE
 62
7
  6
CONTINUOUS
 10
221.454926197
 20
150.3727025621
 40
180.0
 50
154.358053533
 51
157.3702563424
  0
ARC
  8
0
 62
7
  6
CONTINUOUS
 10
226.2705523008
 20
92.4781696459
 40
110.0000000855
 50
44.0120430229
 51
48.7378181617
  0
ARC
  8
SURFACE
 62
7
  6
CONTINUOUS
 10
217.3044415514
 20
90.2682218287
 40
110.0000000855
 50
158.9544895306
 51
163.6802646694
  0
ARC
  8
0
 62
7
  6
CONTINUOUS
 10
250.4881602379
 20
107.2773109867
 40
9.5
 50
41.5384615385
 51
103.8461538462
  0
ARC
  8
0
 62
7
  6
CONTINUOUS
 10
189.1205353846
 20
92.1177271236
 40
9.5
 50
13.8461538462
 51
76.1538461538
  0
ARC
  8
SURFACE
 62
7
  6
CONTINUOUS
 10
250.3666538753
 20
107.2135395282
 40
9.5
 50
131.5384615385
 51
193.8461538462
  0
ARC
  8
0
 62
7
  6
CONTINUOUS
 10
213.0477669379
 20
105.7735415872
 40
2.0
 50
103.8461770982
 51
173.3532027771
  0
ARC
  8
0
 62
7
  6
CONTINUOUS
 10
207.6800620798
 20
97.4410592218
 40
2.0
 50
302.5650233901
 51
348.6274276383
  0
ARC
  8
SURFACE
 62
7
  6
CONTINUOUS
 10
222.833969105
 20
108.1856237845
 40
2.0
 50
34.3391049152
 51
103.8461538462
  0
ARC
  8
SURFACE
 62
7
  6
CONTINUOUS
 10
231.4591333513
 20
103.3020738937
 40
2.0
 50
219.064880054
 51
265.1272843022
  0
ARC
  8
0
 62
7
  6
CONTINUOUS
 10
200.1085045342
 20
91.8307474306
 40
1.1
 50
193.8461538462
 51
299.5528205807
  0
ARC
  8
SURFACE
 62
7
  6
CONTINUOUS
 10
240.7706564954
 20
101.8530677523
 40
1.1
 50
268.1394871116
 51
13.8461538462
  0
ARC
  8
SURFACE
 62
7
  6
CONTINUOUS
 10
252.0464044454
 20
173.8860706775
 40
180.0
 50
182.0503612253
 51
185.0625640347
  0
CIRCLE
  8
SURFACE
 62
7
  6
CONTINUOUS
 10
189.0519230769
 20
224.1866396975
 40
35.0
  0
CIRCLE
  8
DEFAULT_3
 62
2
  6
PHANTOM
 10
189.0519230769
 20
224.1866396975
 40
9.0
  0
ARC
  8
DEFAULT_3
 62
2
  6
PHANTOM
 10
189.0519230769
 20
198.6247295576
 40
3.2
 50
182.2544307753
 51
357.7455692247
  0
ARC
  8
DEFAULT_3
 62
2
  6
PHANTOM
 10
195.4469694592
 20
198.3729721967
 40
3.2
 50
135.0
 51
177.7455692247
  0
ARC
  8
DEFAULT_3
 62
2
  6
PHANTOM
 10
199.6896101463
 20
202.6156128838
 40
3.2
 50
93.5903778907
 51
135.0
  0
ARC
  8
DEFAULT_3
 62
2
  6
PHANTOM
 10
199.288823506
 20
209.0030513429
 40
3.2
 50
273.5903778907
 51
315.0
  0
ARC
  8
DEFAULT_3
 62
2
  6
PHANTOM
 10
204.2355114315
 20
213.9497392684
 40
3.2
 50
315.0
 51
356.4096221093
  0
ARC
  8
DEFAULT_3
 62
2
  6
PHANTOM
 10
210.6229498906
 20
213.5489526281
 40
3.2
 50
135.0
 51
176.4096221093
  0
ARC
  8
DEFAULT_3
 62
2
  6
PHANTOM
 10
214.8655905777
 20
217.7915933152
 40
3.2
 50
92.2544307753
 51
135.0
  0
ARC
  8
DEFAULT_3
 62
2
  6
PHANTOM
 10
214.6138332168
 20
224.1866396975
 40
3.2
 50
272.2544307753
 51
87.7455692247
  0
ARC
  8
0
 62
7
  6
CONTINUOUS
 10
283.2153605772
 20
124.8609406928
 40
110.0000000855
 50
71.7043507152
 51
76.430125854
  0
ARC
  8
SURFACE
 62
7
  6
CONTINUOUS
 10
276.3032777471
 20
118.7373696534
 40
110.0000000855
 50
186.6467972229
 51
191.3725723617
  0
ARC
  8
0
 62
7
  6
CONTINUOUS
 10
297.7814835446
 20
149.2194131474
 40
9.5
 50
69.2307692308
 51
131.5384615385
  0
ARC
  8
SURFACE
 62
7
  6
CONTINUOUS
 10
297.7035310782
 20
149.1064795029
 40
9.5
 50
159.2307692308
 51
221.5384615385
  0
ARC
  8
0
 62
7
  6
CONTINUOUS
 10
265.3284981796
 20
130.4884731344
 40
2.0
 50
131.538479373
 51
201.0455104694
  0
ARC
  8
0
 62
7
  6
CONTINUOUS
 10
264.4479292049
 20
120.6159295871
 40
2.0
 50
330.2573310824
 51
16.3197353306
  0
ARC
  8
SURFACE
 62
7
  6
CONTINUOUS
 10
272.8727993667
 20
137.1721407637
 40
2.0
 50
62.0314126075
 51
131.5384615385
  0
ARC
  8
SURFACE
 62
7
  6
CONTINUOUS
 10
282.779501817
 20
136.8562857742
 40
2.0
 50
246.7571877463
 51
292.8195919945
  0
ARC
  8
0
 62
7
  6
CONTINUOUS
 10
260.3508898443
 20
112.1295669658
 40
1.1
 50
221.5384615385
 51
327.245128273
  0
ARC
  8
SURFACE
 62
7
  6
CONTINUOUS
 10
291.6978328233
 20
139.9005351273
 40
1.1
 50
295.8317948039
 51
41.5384615385
  0
ARC
  8
0
 62
7
  6
CONTINUOUS
 10
269.5594164963
 20
220.0640883085
 40
180.0
 50
133.3989744268
 51
136.4111772362
  0
ARC
  8
0
 62
7
  6
CONTINUOUS
 10
258.4219230769
 20
183.1226040139
 40
180.0
 50
105.7066667345
 51
108.7188695439
  0
ARC
  8
SURFACE
 62
7
  6
CONTINUOUS
 10
268.2066061781
 20
208.9226929677
 40
180.0
 50
209.7426689176
 51
212.754871727
  0
ARC
  8
0
 62
7
  6
CONTINUOUS
 10
318.5884601146
 20
179.9980323773
 40
110.0000000855
 50
99.3966584075
 51
104.1224335463
  0
ARC
  8
SURFACE
 62
7
  6
CONTINUOUS
 10
315.3138800807
 20
171.3636744436
 40
110.0000000855
 50
214.3391049152
 51
219.064880054
  0
ARC
  8
0
 62
7
  6
CONTINUOUS
 10
320.1661748813
 20
208.3356034576
 40
9.5
 50
96.9230769231
 51
159.2307692308
  0
ARC
  8
SURFACE
 62
7
  6
CONTINUOUS
 10
320.1496342817
 20
208.1993793641
 40
9.5
 50
186.9230769231
 51
249.2307692308
  0
ARC
  8
0
 62
7
  6
CONTINUOUS
 10
300.1351852977
 20
176.6685254558
 40
2.0
 50
159.2307692308
 51
228.7378181617
  0
ARC
  8
0
 62
7
  6
CONTINUOUS
 10
303.9434799465
 20
167.5176014763
 40
2.0
 50
357.9496387747
 51
44.0120430229
  0
ARC
  8
SURFACE
 62
7
  6
CONTINUOUS
 10
303.7092770216
 20
186.0926308103
 40
2.0
 50
89.7237202998
 51
159.2307692308
  0
ARC
  8
SURFACE
 62
7
  6
CONTINUOUS
 10
312.6280115331
 20
190.4168292938
 40
2.0
 50
274.4494954386
 51
320.5118996868
  0
ARC
  8
0
 62
7
  6
CONTINUOUS
 10
321.7755154932
 20
219.2088663612
 40
1.1
 50
276.9230769231
 51
22.6297436576
  0
ARC
  8
0
 62
7
  6
CONTINUOUS
 10
304.2595411137
 20
158.0993114298
 40
1.1
 50
249.2307692308
 51
354.9374359653
  0
ARC
  8
SURFACE
 62
7
  6
CONTINUOUS
 10
319.1100682456
 20
197.2569333016
 40
1.1
 50
323.5241024962
 51
69.2307692308
  0
ARC
  8
0
 62
7
  6
CONTINUOUS
 10
238.1781852156
 20
288.1011317545
 40
180.0
 50
188.7835898114
 51
191.7957926208
  0
ARC
  8
SURFACE
 62
7
  6
CONTINUOUS
 10
246.5788899738
 20
280.6587567666
 40
180.0
 50
265.1272843022
 51
268.1394871116
  0
ARC
  8
DEFAULT_3
 62
2
  6
PHANTOM
 10
214.8655905777
 20
230.5816860797
 40
3.2
 50
225.0
 51
267.7455692247
  0
ARC
  8
DEFAULT_3
 62
2
  6
PHANTOM
 10
210.6229498906
 20
234.8243267669
 40
3.2
 50
183.5903778907
 51
225.0
  0
ARC
  8
DEFAULT_3
 62
2
  6
PHANTOM
 10
204.2355114315
 20
234.4235401266
 40
3.2
 50
3.5903778907
 51
45.0
  0
ARC
  8
DEFAULT_3
 62
2
  6
PHANTOM
 10
199.288823506
 20
239.370228052
 40
3.2
 50
45.0
 51
86.4096221093
  0
ARC
  8
DEFAULT_3
 62
2
  6
PHANTOM
 10
199.6896101463
 20
245.7576665111
 40
3.2
 50
225.0
 51
266.4096221093
  0
ARC
  8
DEFAULT_3
 62
2
  6
PHANTOM
 10
195.4469694592
 20
250.0003071983
 40
3.2
 50
182.2544307753
 51
225.0
  0
ARC
  8
DEFAULT_3
 62
2
  6
PHANTOM
 10
189.0519230769
 20
249.7485498374
 40
3.2
 50
2.2544307753
 51
177.7455692247
  0
ARC
  8
0
 62
7
  6
CONTINUOUS
 10
202.8485224171
 20
303.6102241876
 40
180.0
 50
216.4758975038
 51
219.4881003132
  0
ARC
  8
SURFACE
 62
7
  6
CONTINUOUS
 10
213.745621177
 20
300.9243305721
 40
180.0
 50
292.8195919945
 51
295.8317948039
  0
ARC
  8
0
 62
7
  6
CONTINUOUS
 10
248.532249844
 20
347.4523615033
 40
110.0000000855
 50
182.4735814845
 51
187.1993566232
  0
ARC
  8
SURFACE
 62
7
  6
CONTINUOUS
 10
193.669146575
 20
360.9749019563
 40
110.0000000855
 50
325.1083356844
 51
329.8341108232
  0
ARC
  8
SURFACE
 62
7
  6
CONTINUOUS
 10
256.7089465804
 20
343.1609000031
 40
110.0000000855
 50
297.4160279921
 51
302.1418031309
  0
ARC
  8
0
 62
7
  6
CONTINUOUS
 10
220.5914640625
 20
352.4342896975
 40
9.5
 50
180.0
 51
242.3076923077
  0
ARC
  8
SURFACE
 62
7
  6
CONTINUOUS
 10
220.72470118
 20
352.4014496975
 40
9.5
 50
270.0
 51
332.3076923077
  0
ARC
  8
0
 62
7
  6
CONTINUOUS
 10
194.0914640625
 20
344.9014496975
 40
2.0
 50
270.0
 51
339.5070489309
  0
ARC
  8
0
 62
7
  6
CONTINUOUS
 10
201.2972867252
 20
351.7072294152
 40
2.0
 50
108.7188695439
 51
154.7812737921
  0
ARC
  8
0
 62
7
  6
CONTINUOUS
 10
249.613184425
 20
328.7323041251
 40
2.0
 50
242.3076923077
 51
311.8147412386
  0
ARC
  8
SURFACE
 62
7
  6
CONTINUOUS
 10
240.6886005606
 20
333.41628707
 40
2.0
 50
172.8006433768
 51
242.3076923077
  0
ARC
  8
SURFACE
 62
7
  6
CONTINUOUS
 10
237.4709650027
 20
342.7912184953
 40
2.0
 50
357.5264185155
 51
43.5888227638
  0
CIRCLE
  8
0
 62
7
  6
CONTINUOUS
 10
189.0519230769
 20
319.1866396975
 40
1.7320508076
  0
ARC
  8
0
 62
7
  6
CONTINUOUS
 10
209.9914640625
 20
355.3425234183
 40
1.1
 50
0.0
 51
105.7066667345
  0
ARC
  8
SURFACE
 62
7
  6
CONTINUOUS
 10
231.4620586517
 20
350.0504971459
 40
1.1
 50
46.6010255732
 51
152.3076923077
  0
ARC
  8
0
 62
7
  6
CONTINUOUS
 10
262.2536133937
 20
257.9499994442
 40
180.0
 50
161.0912821191
 51
164.1034849285
  0
ARC
  8
SURFACE
 62
7
  6
CONTINUOUS
 10
266.2334239297
 20
247.4561015033
 40
180.0
 50
237.4349766099
 51
240.4471794193
  0
ARC
  8
0
 62
7
  6
CONTINUOUS
 10
324.2863001013
 20
245.2582014683
 40
110.0000000855
 50
127.0889660998
 51
131.8147412386
  0
ARC
  8
SURFACE
 62
7
  6
CONTINUOUS
 10
325.3993896862
 20
236.0910839878
 40
110.0000000855
 50
242.0314126075
 51
246.7571877463
  0
ARC
  8
0
 62
7
  6
CONTINUOUS
 10
312.5141712277
 20
271.0830751447
 40
9.5
 50
124.6153846154
 51
186.9230769231
  0
ARC
  8
SURFACE
 62
7
  6
CONTINUOUS
 10
312.562831747
 20
270.9547679004
 40
9.5
 50
214.6153846154
 51
276.9230769231
  0
ARC
  8
0
 62
7
  6
CONTINUOUS
 10
291.261049655
 20
288.6130067442
 40
2.0
 50
214.6153846154
 51
284.1224335463
  0
ARC
  8
0
 62
7
  6
CONTINUOUS
 10
300.9554703833
 20
286.5488544839
 40
2.0
 50
53.3342541593
 51
99.3966584075
  0
ARC
  8
0
 62
7
  6
CONTINUOUS
 10
309.4940357394
 20
233.7344050947
 40
2.0
 50
186.9230769231
 51
256.430125854
  0
ARC
  8
0
 62
7
  6
CONTINUOUS
 10
317.1187596026
 20
227.401467086
 40
2.0
 50
25.641946467
 51
71.7043507152
  0
ARC
  8
SURFACE
 62
7
  6
CONTINUOUS
 10
308.2791366586
 20
243.7399992103
 40
2.0
 50
117.4160279921
 51
186.9230769231
  0
ARC
  8
SURFACE
 62
7
  6
CONTINUOUS
 10
314.1667286372
 20
251.7136294065
 40
2.0
 50
302.1418031309
 51
348.2042073792
  0
ARC
  8
0
 62
7
  6
CONTINUOUS
 10
308.8861143428
 20
281.4587691753
 40
1.1
 50
304.6153846154
 51
50.3220513499
  0
ARC
  8
SURFACE
 62
7
  6
CONTINUOUS
 10
316.7275499803
 20
260.7826026731
 40
1.1
 50
351.2164101886
 51
96.9230769231
  0
ARC
  8
0
 62
7
  6
CONTINUOUS
 10
299.0035740625
 20
305.6911296975
 40
110.0000000855
 50
154.7812737921
 51
159.5070489309
  0
ARC
  8
SURFACE
 62
7
  6
CONTINUOUS
 10
304.2493378566
 20
298.0913288092
 40
110.0000000855
 50
269.7237202998
 51
274.4494954386
  0
ARC
  8
0
 62
7
  6
CONTINUOUS
 10
276.5784544041
 20
323.0871386342
 40
9.5
 50
152.3076923077
 51
214.6153846154
  0
ARC
  8
SURFACE
 62
7
  6
CONTINUOUS
 10
276.6811685037
 20
322.9961418824
 40
9.5
 50
242.3076923077
 51
304.6153846154
  0
ARC
  8
0
 62
7
  6
CONTINUOUS
 10
259.1564270601
 20
331.4098100204
 40
2.0
 50
81.0265618516
 51
127.0889660998
  0
ARC
  8
SURFACE
 62
7
  6
CONTINUOUS
 10
285.5354785077
 20
296.9079285895
 40
2.0
 50
145.1083356844
 51
214.6153846154
  0
ARC
  8
SURFACE
 62
7
  6
CONTINUOUS
 10
287.0431515843
 20
306.704327913
 40
2.0
 50
329.8341108232
 51
15.8965150715
  0
ARC
  8
0
 62
7
  6
CONTINUOUS
 10
268.544144132
 20
330.58831733
 40
1.1
 50
332.3076923077
 51
78.0143590422
  0
ARC
  8
SURFACE
 62
7
  6
CONTINUOUS
 10
285.0960842495
 20
315.924577956
 40
1.1
 50
18.9087178809
 51
124.6153846154
  0
ARC
  8
SURFACE
 62
7
  6
CONTINUOUS
 10
490.1887362637
 20
257.1866396975
 40
2.0
 50
0.0
 51
90.0
  0
ARC
  8
SURFACE
 62
7
  6
CONTINUOUS
 10
490.1887362637
 20
191.1866396975
 40
2.0
 50
270.0
 51
360.0
  0
ARC
  8
0
 62
7
  6
CONTINUOUS
 10
451.8887362637
 20
191.1866396975
 40
2.0
 50
180.0
 51
270.0
  0
ARC
  8
0
 62
7
  6
CONTINUOUS
 10
451.8887362637
 20
257.1866396975
 40
2.0
 50
90.0
 51
180.0
  0
ARC
  8
0
 62
7
  6
CONTINUOUS
 10
460.0387362637
 20
189.0913287237
 40
1.0
 50
180.0
 51
270.0
  0
ENDSEC
  0
EOF
