  0
SECTION
  2
HEADER
  9
$EXTMAX
 10
420.0
 20
297.0
 30
0.0
  9
$EXTMIN
 10
0.0
 20
0.0
 30
0.0
  9
$LIMMIN
 10
0.0
 20
0.0
  9
$LIMMAX
 10
420.0
 20
297.0
  9
$VIEWCTR
 10
210.0
 20
148.5
  9
$VIEWSIZE
 40
297.0
  9
$CLAYER
  8
0
  9
$LTSCALE
 40
23.1
  9
$CELTYPE
  6
BYLAYER
  9
$DIMSCALE
 40
1.0
  9
$DIMASZ
 40
3.5
  9
$DIMEXO
 40
2.625
  9
$DIMDLI
 40
15.96
  9
$DIMEXE
 40
7.56
  9
$DIMCEN
 40
3.78
  9
$DIMLFAC
 40
1.0
  9
$DIMBLK
  1
_FILLED
  9
$DIMTXT
 40
3.5
  9
$PDMODE
 70
3
  9
$PDSIZE
 40
0.3125
  9
$TILEMODE
 70
1
  0
ENDSEC
  0
SECTION
  2
TABLES
  0
TABLE
  2
LTYPE
 70
6
  0
LTYPE
  2
BYBLOCK
 70
0
  3

 72
65
 73
0
 40
0.0
  0
LTYPE
  2
BYLAYER
 70
0
  3

 72
65
 73
0
 40
0.0
  0
LTYPE
  2
CONTINUOUS
 70
64
  3
Solid line
 72
65
 73
0
 40
0.0
  0
LTYPE
  2
CENTER
 70
64
  3
____ _ ____ _ ____ _ ____ _ ____ _ ____ _ ____
 72
65
 73
4
 40
0.6
 49
0.375
 49
-0.075
 49
0.075
 49
-0.075
  0
LTYPE
  2
HIDDEN
 70
64
  3
- - - - - - - - - - - - - - - - - - - -
 72
65
 73
2
 40
0.2
 49
0.1
 49
-0.1
  0
LTYPE
  2
PHANTOM
 70
64
  3
_____ _ _ _____ _ _ _____ _ _ _____
 72
65
 73
6
 40
0.8
 49
0.45
 49
-0.05
 49
0.1
 49
-0.05
 49
0.1
 49
-0.05
  0
LTYPE
  2
DOT
 70
64
  3
. . . . . . . . . . . . . . . . . . . .
 72
65
 73
2
 40
0.2
 49
0.1
 49
-0.1
  0
LTYPE
  2
DASHED
 70
64
  3
- - - - - - - - - - - - - - - - - - - -
 72
65
 73
2
 40
0.2
 49
0.1
 49
-0.1
  0
ENDTAB
  0
TABLE
  2
LAYER
 70
36
  0
LAYER
  2
0
 70
0
 62
7
  6
CONTINUOUS
  0
LAYER
  2
DEFAULT_1
 70
0
 62
7
  6
CENTER
  0
LAYER
  2
DEFAULT_2
 70
0
 62
8
  6
HIDDEN
  0
LAYER
  2
DEFAULT_3
 70
0
 62
7
  6
PHANTOM
  0
LAYER
  2
CURVE
 70
0
 62
7
  6
CONTINUOUS
  0
LAYER
  2
SOLID
 70
0
 62
7
  6
CONTINUOUS
  0
LAYER
  2
SURFACE
 70
0
 62
7
  6
CONTINUOUS
  0
ENDTAB
  0
TABLE
  2
STYLE
 70
1
  0
STYLE
  2
STANDARD
 70
0
 40
0.0
 41
0.8
 50
0.0
 71
0
 42
0.2
  3
txt
  4

  0
STYLE
  2
TEXTSTYLE_1
 70
0
 40
0.0
 41
0.8
 50
0.0
 71
0
 42
0.2
  3
gdt
  4

  0
STYLE
  2
TEXTSTYLE_2
 70
0
 40
0.0
 41
0.6
 50
0.0
 71
0
 42
0.2
  3
txt
  4

  0
STYLE
  2
TEXTSTYLE_3
 70
0
 40
0.0
 41
1.0
 50
0.0
 71
0
 42
0.2
  3
ftb_____.ttf
  4

  0
STYLE
  2
TEXTSTYLE_4
 70
0
 40
0.0
 41
1.0
 50
0.0
 71
0
 42
0.2
  3
fti_____.ttf
  4

  0
STYLE
  2
TEXTSTYLE_5
 70
0
 40
0.0
 41
1.0
 50
0.0
 71
0
 42
0.2
  3
frutiger light.ttf
  4

  0
STYLE
  2
TEXTSTYLE_6
 70
0
 40
0.0
 41
0.7
 50
0.0
 71
0
 42
0.2
  3
txt
  4

  0
STYLE
  2
TEXTSTYLE_7
 70
0
 40
0.0
 41
0.8
 50
0.0
 71
0
 42
0.2
  3
txt
  4

  0
ENDTAB
  0
ENDSEC
  0
SECTION
  2
BLOCKS
  0
BLOCK
  8
0
 62
2
  6
CONTINUOUS
  2
SYMBOL_5_BL1
 70
64
 10
382.7840918555
 20
35.5067593403
  0
TEXT
  8
0
 62
7
  6
CONTINUOUS
 10
373.842376864
 20
30.5995157174
  7
TEXTSTYLE_4
 40
1.0655737705
  1
The brand for plastic modular belts and chains
 41
1.0
 72
0
  0
LINE
  8
0
 62
7
  6
CONTINUOUS
 10
358.7621602445
 20
36.0805298321
 11
358.7621602445
 21
33.9493822911
  0
LINE
  8
0
 62
7
  6
CONTINUOUS
 10
359.0512227376
 20
30.9584509954
 11
359.0512227376
 21
31.0552420547
  0
LINE
  8
0
 62
7
  6
CONTINUOUS
 10
358.7621602445
 20
31.0229783683
 11
358.8199727462
 21
30.8293962497
  0
LINE
  8
0
 62
7
  6
CONTINUOUS
 10
360.1556028675
 20
33.867415078
 11
360.1556028675
 21
36.0805298321
  0
LINE
  8
0
 62
7
  6
CONTINUOUS
 10
361.0746601894
 20
32.0231527829
 11
361.0746601894
 21
30.5067593403
  0
LINE
  8
0
 62
7
  6
CONTINUOUS
 10
361.3637227445
 20
30.5067593403
 11
361.3637227445
 21
31.2488242184
  0
LINE
  8
0
 62
7
  6
CONTINUOUS
 10
361.3637227445
 20
31.3778789641
 11
361.3637227445
 21
32.0231527829
  0
LINE
  8
0
 62
7
  6
CONTINUOUS
 10
358.8199727462
 20
31.216560532
 11
358.7621602445
 21
31.0229783683
  0
LINE
  8
0
 62
7
  6
CONTINUOUS
 10
359.1668477307
 20
30.7971325633
 11
359.0512227376
 21
30.9584509954
  0
LINE
  8
0
 62
7
  6
CONTINUOUS
 10
360.2652852997
 20
31.3133515913
 11
360.3230977445
 21
31.216560532
  0
LINE
  8
0
 62
7
  6
CONTINUOUS
 10
360.6121602997
 20
31.216560532
 11
360.5543476894
 21
31.3456152777
  0
LINE
  8
0
 62
7
  6
CONTINUOUS
 10
362.0408487691
 20
36.0805298321
 11
362.0408487691
 21
34.2772511436
  0
LINE
  8
0
 62
7
  6
CONTINUOUS
 10
362.0408487691
 20
32.9657757338
 11
362.0408487691
 21
32.3100380288
  0
LINE
  8
0
 62
7
  6
CONTINUOUS
 10
362.4043477445
 20
31.1520331591
 11
362.4043477445
 21
30.5067593403
  0
LINE
  8
0
 62
7
  6
CONTINUOUS
 10
362.6934101343
 20
30.5067593403
 11
362.6934101343
 21
31.1520331591
  0
LINE
  8
0
 62
7
  6
CONTINUOUS
 10
359.0512227376
 20
31.0552420547
 11
359.1090352445
 21
31.1842968456
  0
LINE
  8
0
 62
7
  6
CONTINUOUS
 10
358.8199727462
 20
30.8293962497
 11
358.9355977445
 21
30.7003414814
  0
LINE
  8
0
 62
7
  6
CONTINUOUS
 10
362.3465351343
 20
31.2810879048
 11
362.4043477445
 21
31.1520331591
  0
LINE
  8
0
 62
7
  6
CONTINUOUS
 10
363.1559103548
 20
30.7971325633
 11
363.2137226343
 21
30.668077795
  0
LINE
  8
0
 62
7
  6
CONTINUOUS
 10
362.6934101343
 20
31.1520331591
 11
362.6355978548
 21
31.3133515913
  0
LINE
  8
0
 62
7
  6
CONTINUOUS
 10
363.1559103548
 20
31.3456152777
 11
363.1559103548
 21
31.2810879048
  0
LINE
  8
0
 62
7
  6
CONTINUOUS
 10
363.1559103548
 20
30.8939236226
 11
363.1559103548
 21
30.7971325633
  0
LINE
  8
0
 62
7
  6
CONTINUOUS
 10
363.4342913921
 20
32.3100380288
 11
363.4342913921
 21
36.0805298321
  0
LINE
  8
0
 62
7
  6
CONTINUOUS
 10
363.4449727445
 20
30.7648688543
 11
363.4449727445
 21
30.8293962497
  0
LINE
  8
0
 62
7
  6
CONTINUOUS
 10
363.7621602445
 20
36.0805298321
 11
363.7621602445
 21
32.3100380288
  0
LINE
  8
0
 62
7
  6
CONTINUOUS
 10
360.5543476894
 20
30.7003414814
 11
360.6121602997
 21
30.8293962497
  0
LINE
  8
0
 62
7
  6
CONTINUOUS
 10
364.9480979651
 20
30.6035504109
 11
364.890285024
 21
30.7648688543
  0
LINE
  8
0
 62
7
  6
CONTINUOUS
 10
364.6012229651
 20
31.2810879048
 11
364.6012229651
 21
31.1842968456
  0
LINE
  8
0
 62
7
  6
CONTINUOUS
 10
364.6012229651
 20
31.0552420547
 11
364.6012229651
 21
30.8616599362
  0
LINE
  8
0
 62
7
  6
CONTINUOUS
 10
364.890285024
 20
30.7648688543
 11
364.890285024
 21
31.2810879048
  0
LINE
  8
0
 62
7
  6
CONTINUOUS
 10
365.1556028675
 20
32.3100380288
 11
365.1556028675
 21
34.1133167174
  0
LINE
  8
0
 62
7
  6
CONTINUOUS
 10
365.1556028675
 20
35.4247921272
 11
365.1556028675
 21
36.0805298321
  0
LINE
  8
0
 62
7
  6
CONTINUOUS
 10
365.4684104651
 20
32.0231527829
 11
365.4684104651
 21
31.8618343508
  0
LINE
  8
0
 62
7
  6
CONTINUOUS
 10
365.4684104651
 20
31.5391973962
 11
365.4684104651
 21
30.5067593403
  0
LINE
  8
0
 62
7
  6
CONTINUOUS
 10
365.757472524
 20
30.5067593403
 11
365.757472524
 21
31.5391973962
  0
LINE
  8
0
 62
7
  6
CONTINUOUS
 10
365.757472524
 20
31.8618343508
 11
365.757472524
 21
32.0231527829
  0
LINE
  8
0
 62
7
  6
CONTINUOUS
 10
360.3230977445
 20
30.8293962497
 11
360.2652852997
 21
30.7326051679
  0
LINE
  8
0
 62
7
  6
CONTINUOUS
 10
362.6355978548
 20
31.3133515913
 11
362.5777852445
 21
31.3778789641
  0
LINE
  8
0
 62
7
  6
CONTINUOUS
 10
363.5027853548
 20
30.7003414814
 11
363.4449727445
 21
30.7648688543
  0
LINE
  8
0
 62
7
  6
CONTINUOUS
 10
364.6590352445
 20
30.5712867188
 11
364.716847524
 21
30.5067593403
  0
LINE
  8
0
 62
7
  6
CONTINUOUS
 10
364.6012229651
 20
30.668077795
 11
364.6590352445
 21
30.5712867188
  0
LINE
  8
0
 62
7
  6
CONTINUOUS
 10
365.0059102445
 20
30.5067593403
 11
364.9480979651
 21
30.6035504109
  0
LINE
  8
0
 62
7
  6
CONTINUOUS
 10
364.890285024
 20
31.2810879048
 11
364.8324727445
 21
31.3778789641
  0
LINE
  8
0
 62
7
  6
CONTINUOUS
 10
366.2199727445
 20
31.5391973962
 11
366.2199727445
 21
30.5067593403
  0
LINE
  8
0
 62
7
  6
CONTINUOUS
 10
366.5090354651
 20
30.5067593403
 11
366.5090354651
 21
31.2488242184
  0
LINE
  8
0
 62
7
  6
CONTINUOUS
 10
366.5090354651
 20
31.3778789641
 11
366.5090354651
 21
31.5391973962
  0
LINE
  8
0
 62
7
  6
CONTINUOUS
 10
367.0408487691
 20
34.5231527829
 11
367.0408487691
 21
32.3100380288
  0
LINE
  8
0
 62
7
  6
CONTINUOUS
 10
358.9355977445
 20
31.3456152777
 11
358.8199727462
 21
31.216560532
  0
LINE
  8
0
 62
7
  6
CONTINUOUS
 10
359.1090352445
 20
31.1842968456
 11
359.1668477307
 21
31.2488242184
  0
LINE
  8
0
 62
7
  6
CONTINUOUS
 10
358.9355977445
 20
30.7003414814
 11
359.0512227376
 21
30.6358140973
  0
LINE
  8
0
 62
7
  6
CONTINUOUS
 10
359.3402852307
 20
30.7003414814
 11
359.1668477307
 21
30.7971325633
  0
LINE
  8
0
 62
7
  6
CONTINUOUS
 10
364.543410024
 20
31.3456152777
 11
364.6012229651
 21
31.2810879048
  0
LINE
  8
0
 62
7
  6
CONTINUOUS
 10
367.491847524
 20
31.2810879048
 11
367.5496604651
 21
31.1197694727
  0
LINE
  8
0
 62
7
  6
CONTINUOUS
 10
367.838722524
 20
31.1197694727
 11
367.7809102445
 21
31.2810879048
  0
LINE
  8
0
 62
7
  6
CONTINUOUS
 10
367.5496604651
 20
31.1197694727
 11
367.5496604651
 21
30.5067593403
  0
LINE
  8
0
 62
7
  6
CONTINUOUS
 10
367.838722524
 20
30.5067593403
 11
367.838722524
 21
31.1197694727
  0
LINE
  8
0
 62
7
  6
CONTINUOUS
 10
368.3012227445
 20
31.3456152777
 11
368.3012227445
 21
31.2810879048
  0
LINE
  8
0
 62
7
  6
CONTINUOUS
 10
368.4342913921
 20
32.3100380288
 11
368.4342913921
 21
34.4411855698
  0
LINE
  8
0
 62
7
  6
CONTINUOUS
 10
368.7621602445
 20
36.0805298321
 11
368.7621602445
 21
32.3100380288
  0
LINE
  8
0
 62
7
  6
CONTINUOUS
 10
363.4449727445
 20
30.8293962497
 11
363.5027853548
 21
30.926187309
  0
LINE
  8
0
 62
7
  6
CONTINUOUS
 10
359.0512227376
 20
30.6358140973
 11
359.2246602583
 21
30.5712867188
  0
LINE
  8
0
 62
7
  6
CONTINUOUS
 10
360.5543476894
 20
31.3456152777
 11
360.3809101894
 21
31.4424063369
  0
LINE
  8
0
 62
7
  6
CONTINUOUS
 10
363.2137226343
 20
30.668077795
 11
363.3871601343
 21
30.5712867188
  0
LINE
  8
0
 62
7
  6
CONTINUOUS
 10
362.2309102445
 20
31.3456152777
 11
362.3465351343
 21
31.2810879048
  0
LINE
  8
0
 62
7
  6
CONTINUOUS
 10
362.5777852445
 20
31.3778789641
 11
362.4621603548
 21
31.4424063369
  0
LINE
  8
0
 62
7
  6
CONTINUOUS
 10
368.3012227445
 20
30.7648688543
 11
368.4168479651
 21
30.6358140973
  0
LINE
  8
0
 62
7
  6
CONTINUOUS
 10
368.6480977445
 20
30.7003414814
 11
368.5902854651
 21
30.7648688543
  0
LINE
  8
0
 62
7
  6
CONTINUOUS
 10
368.3012227445
 20
31.2810879048
 11
368.4168479651
 21
31.1520331591
  0
LINE
  8
0
 62
7
  6
CONTINUOUS
 10
367.7809102445
 20
31.2810879048
 11
367.7230979651
 21
31.3778789641
  0
LINE
  8
0
 62
7
  6
CONTINUOUS
 10
370.1512223035
 20
30.7003414814
 11
370.1512223035
 21
30.7648688543
  0
LINE
  8
0
 62
7
  6
CONTINUOUS
 10
370.1556028675
 20
32.3100380288
 11
370.1556028675
 21
36.0805298321
  0
LINE
  8
0
 62
7
  6
CONTINUOUS
 10
363.2137226343
 20
31.4101426505
 11
363.1559103548
 21
31.3456152777
  0
LINE
  8
0
 62
7
  6
CONTINUOUS
 10
360.091847717
 20
31.3778789641
 11
360.2652852997
 21
31.3133515913
  0
LINE
  8
0
 62
7
  6
CONTINUOUS
 10
364.8324727445
 20
31.3778789641
 11
364.716847524
 21
31.4424063369
  0
LINE
  8
0
 62
7
  6
CONTINUOUS
 10
368.6480977445
 20
31.216560532
 11
368.5902854651
 21
31.2810879048
  0
LINE
  8
0
 62
7
  6
CONTINUOUS
 10
369.8043479651
 20
30.8293962497
 11
369.8621602445
 21
30.7648688543
  0
LINE
  8
0
 62
7
  6
CONTINUOUS
 10
370.1512223035
 20
30.7648688543
 11
370.0355977445
 21
30.8939236226
  0
LINE
  8
0
 62
7
  6
CONTINUOUS
 10
369.8043479651
 20
31.3456152777
 11
369.8621602445
 21
31.2810879048
  0
LINE
  8
0
 62
7
  6
CONTINUOUS
 10
370.1512223035
 20
31.2810879048
 11
370.0355977445
 21
31.4101426505
  0
LINE
  8
0
 62
7
  6
CONTINUOUS
 10
363.4449727445
 20
31.2810879048
 11
363.5027853548
 21
31.3456152777
  0
LINE
  8
0
 62
7
  6
CONTINUOUS
 10
363.2715352445
 20
31.0229783683
 11
363.1559103548
 21
30.8939236226
  0
LINE
  8
0
 62
7
  6
CONTINUOUS
 10
364.6012229651
 20
30.8616599362
 11
364.543410024
 21
30.7971325633
  0
LINE
  8
0
 62
7
  6
CONTINUOUS
 10
364.543410024
 20
30.6035504109
 11
364.6012229651
 21
30.668077795
  0
LINE
  8
0
 62
7
  6
CONTINUOUS
 10
363.3871601343
 20
30.5712867188
 11
363.5027853548
 21
30.5390230296
  0
LINE
  8
0
 62
7
  6
CONTINUOUS
 10
360.3809101894
 20
31.4424063369
 11
360.1496602445
 21
31.5069337098
  0
LINE
  8
0
 62
7
  6
CONTINUOUS
 10
363.7340351343
 20
30.6358140973
 11
363.5027853548
 21
30.7003414814
  0
LINE
  8
0
 62
7
  6
CONTINUOUS
 10
362.4621603548
 20
31.4424063369
 11
362.2887228548
 21
31.5069337098
  0
LINE
  8
0
 62
7
  6
CONTINUOUS
 10
364.716847524
 20
31.4424063369
 11
364.543410024
 21
31.5069337098
  0
LINE
  8
0
 62
7
  6
CONTINUOUS
 10
367.3762229651
 20
31.3456152777
 11
367.491847524
 21
31.2810879048
  0
LINE
  8
0
 62
7
  6
CONTINUOUS
 10
367.7230979651
 20
31.3778789641
 11
367.6074727445
 21
31.4424063369
  0
LINE
  8
0
 62
7
  6
CONTINUOUS
 10
359.2246602583
 20
30.5712867188
 11
359.3980977583
 21
30.5390230296
  0
LINE
  8
0
 62
7
  6
CONTINUOUS
 10
359.6871602721
 20
30.6358140973
 11
359.3402852307
 21
30.7003414814
  0
LINE
  8
0
 62
7
  6
CONTINUOUS
 10
362.1152853548
 20
31.3778789641
 11
362.2309102445
 21
31.3456152777
  0
LINE
  8
0
 62
7
  6
CONTINUOUS
 10
364.4277854651
 20
31.3778789641
 11
364.543410024
 21
31.3456152777
  0
LINE
  8
0
 62
7
  6
CONTINUOUS
 10
368.7637229651
 20
30.668077795
 11
368.6480977445
 21
30.7003414814
  0
LINE
  8
0
 62
7
  6
CONTINUOUS
 10
367.2605977445
 20
31.3778789641
 11
367.3762229651
 21
31.3456152777
  0
LINE
  8
0
 62
7
  6
CONTINUOUS
 10
368.4168479651
 20
30.6358140973
 11
368.5902854651
 21
30.5712867188
  0
LINE
  8
0
 62
7
  6
CONTINUOUS
 10
367.6074727445
 20
31.4424063369
 11
367.4340352445
 21
31.5069337098
  0
LINE
  8
0
 62
7
  6
CONTINUOUS
 10
368.8215352445
 20
31.1520331591
 11
368.6480977445
 21
31.216560532
  0
LINE
  8
0
 62
7
  6
CONTINUOUS
 10
369.6309104651
 20
30.8939236226
 11
369.8043479651
 21
30.8293962497
  0
LINE
  8
0
 62
7
  6
CONTINUOUS
 10
370.0355977445
 20
31.4101426505
 11
369.8621602445
 21
31.4746700234
  0
LINE
  8
0
 62
7
  6
CONTINUOUS
 10
368.4168479651
 20
31.1520331591
 11
368.6480977445
 21
31.0552420547
  0
LINE
  8
0
 62
7
  6
CONTINUOUS
 10
370.0355977445
 20
30.8939236226
 11
369.8043479651
 21
30.9907146818
  0
LINE
  8
0
 62
7
  6
CONTINUOUS
 10
368.5902854651
 20
31.2810879048
 11
368.6480977445
 21
31.3456152777
  0
LINE
  8
0
 62
7
  6
CONTINUOUS
 10
359.0512227376
 20
31.4101426505
 11
358.9355977445
 21
31.3456152777
  0
LINE
  8
0
 62
7
  6
CONTINUOUS
 10
359.1668477307
 20
31.2488242184
 11
359.3402852307
 21
31.3456152777
  0
LINE
  8
0
 62
7
  6
CONTINUOUS
 10
361.4793477997
 20
31.4424063369
 11
361.3637227445
 21
31.3778789641
  0
LINE
  8
0
 62
7
  6
CONTINUOUS
 10
361.3637227445
 20
31.2488242184
 11
361.4793477997
 21
31.3133515913
  0
LINE
  8
0
 62
7
  6
CONTINUOUS
 10
360.3809101894
 20
30.6035504109
 11
360.5543476894
 21
30.7003414814
  0
LINE
  8
0
 62
7
  6
CONTINUOUS
 10
359.3980977583
 20
30.5390230296
 11
359.744972717
 21
30.5067593403
  0
LINE
  8
0
 62
7
  6
CONTINUOUS
 10
363.5027853548
 20
30.5390230296
 11
363.7340351343
 21
30.5067593403
  0
LINE
  8
0
 62
7
  6
CONTINUOUS
 10
361.8840352445
 20
31.4101426505
 11
362.1152853548
 21
31.3778789641
  0
LINE
  8
0
 62
7
  6
CONTINUOUS
 10
364.1965353548
 20
31.4101426505
 11
364.4277854651
 21
31.3778789641
  0
LINE
  8
0
 62
7
  6
CONTINUOUS
 10
368.6480977445
 20
31.0552420547
 11
369.6309104651
 21
30.8939236226
  0
LINE
  8
0
 62
7
  6
CONTINUOUS
 10
369.8043479651
 20
30.9907146818
 11
368.8215352445
 21
31.1520331591
  0
LINE
  8
0
 62
7
  6
CONTINUOUS
 10
362.2887228548
 20
31.5069337098
 11
362.1152853548
 21
31.5391973962
  0
LINE
  8
0
 62
7
  6
CONTINUOUS
 10
368.5902854651
 20
30.5712867188
 11
368.7637229651
 21
30.5390230296
  0
LINE
  8
0
 62
7
  6
CONTINUOUS
 10
367.4340352445
 20
31.5069337098
 11
367.2605977445
 21
31.5391973962
  0
LINE
  8
0
 62
7
  6
CONTINUOUS
 10
369.6887227445
 20
31.3778789641
 11
369.8043479651
 21
31.3456152777
  0
LINE
  8
0
 62
7
  6
CONTINUOUS
 10
369.8621602445
 20
30.7648688543
 11
369.8043479651
 21
30.7003414814
  0
LINE
  8
0
 62
7
  6
CONTINUOUS
 10
368.4168479651
 20
31.4424063369
 11
368.3012227445
 21
31.3456152777
  0
LINE
  8
0
 62
7
  6
CONTINUOUS
 10
363.3293478548
 20
31.4746700234
 11
363.2137226343
 21
31.4101426505
  0
LINE
  8
0
 62
7
  6
CONTINUOUS
 10
363.3871601343
 20
31.0875057863
 11
363.2715352445
 21
31.0229783683
  0
LINE
  8
0
 62
7
  6
CONTINUOUS
 10
363.5027853548
 20
30.926187309
 11
363.6184102445
 21
30.9907146818
  0
LINE
  8
0
 62
7
  6
CONTINUOUS
 10
361.0746601894
 20
30.5067593403
 11
361.3637227445
 21
30.5067593403
  0
LINE
  8
0
 62
7
  6
CONTINUOUS
 10
362.4043477445
 20
30.5067593403
 11
362.6934101343
 21
30.5067593403
  0
LINE
  8
0
 62
7
  6
CONTINUOUS
 10
363.7340351343
 20
30.5067593403
 11
364.0809101343
 21
30.5067593403
  0
LINE
  8
0
 62
7
  6
CONTINUOUS
 10
364.716847524
 20
30.5067593403
 11
365.0059102445
 21
30.5067593403
  0
LINE
  8
0
 62
7
  6
CONTINUOUS
 10
365.4684104651
 20
30.5067593403
 11
365.757472524
 21
30.5067593403
  0
LINE
  8
0
 62
7
  6
CONTINUOUS
 10
366.2199727445
 20
30.5067593403
 11
366.5090354651
 21
30.5067593403
  0
LINE
  8
0
 62
7
  6
CONTINUOUS
 10
367.5496604651
 20
30.5067593403
 11
367.838722524
 21
30.5067593403
  0
LINE
  8
0
 62
7
  6
CONTINUOUS
 10
369.1105979651
 20
30.5067593403
 11
369.4574729651
 21
30.5067593403
  0
LINE
  8
0
 62
7
  6
CONTINUOUS
 10
369.4574729651
 20
30.6358140973
 11
369.1105979651
 21
30.6358140973
  0
LINE
  8
0
 62
7
  6
CONTINUOUS
 10
364.0809101343
 20
30.6358140973
 11
363.7340351343
 21
30.6358140973
  0
LINE
  8
0
 62
7
  6
CONTINUOUS
 10
368.5902854651
 20
30.7648688543
 11
368.3012227445
 21
30.7648688543
  0
LINE
  8
0
 62
7
  6
CONTINUOUS
 10
360.6121602997
 20
30.8293962497
 11
360.3230977445
 21
30.8293962497
  0
LINE
  8
0
 62
7
  6
CONTINUOUS
 10
359.6871602721
 20
31.4101426505
 11
360.091847717
 21
31.3778789641
  0
LINE
  8
0
 62
7
  6
CONTINUOUS
 10
360.1496602445
 20
31.5069337098
 11
359.744972717
 21
31.5391973962
  0
LINE
  8
0
 62
7
  6
CONTINUOUS
 10
368.7637229651
 20
30.5390230296
 11
369.1105979651
 21
30.5067593403
  0
LINE
  8
0
 62
7
  6
CONTINUOUS
 10
369.1105979651
 20
30.6358140973
 11
368.7637229651
 21
30.668077795
  0
LINE
  8
0
 62
7
  6
CONTINUOUS
 10
364.543410024
 20
31.5069337098
 11
364.1965353548
 21
31.5391973962
  0
LINE
  8
0
 62
7
  6
CONTINUOUS
 10
369.3418477445
 20
31.4101426505
 11
369.6887227445
 21
31.3778789641
  0
LINE
  8
0
 62
7
  6
CONTINUOUS
 10
369.6887227445
 20
31.5069337098
 11
369.3418477445
 21
31.5391973962
  0
LINE
  8
0
 62
7
  6
CONTINUOUS
 10
367.0293479651
 20
31.4101426505
 11
367.2605977445
 21
31.3778789641
  0
LINE
  8
0
 62
7
  6
CONTINUOUS
 10
369.8621602445
 20
31.4746700234
 11
369.6887227445
 21
31.5069337098
  0
LINE
  8
0
 62
7
  6
CONTINUOUS
 10
370.0355977445
 20
30.6035504109
 11
370.1512223035
 21
30.7003414814
  0
LINE
  8
0
 62
7
  6
CONTINUOUS
 10
364.543410024
 20
30.7971325633
 11
364.369972524
 21
30.7003414814
  0
LINE
  8
0
 62
7
  6
CONTINUOUS
 10
366.624660024
 20
31.4424063369
 11
366.5090354651
 21
31.3778789641
  0
LINE
  8
0
 62
7
  6
CONTINUOUS
 10
366.5090354651
 20
31.2488242184
 11
366.624660024
 21
31.3133515913
  0
LINE
  8
0
 62
7
  6
CONTINUOUS
 10
359.2246602583
 20
31.4746700234
 11
359.0512227376
 21
31.4101426505
  0
LINE
  8
0
 62
7
  6
CONTINUOUS
 10
361.6527851343
 20
31.5069337098
 11
361.4793477997
 21
31.4424063369
  0
LINE
  8
0
 62
7
  6
CONTINUOUS
 10
361.4793477997
 20
31.3133515913
 11
361.6527851343
 21
31.3778789641
  0
LINE
  8
0
 62
7
  6
CONTINUOUS
 10
360.2652852997
 20
30.7326051679
 11
360.091847717
 21
30.668077795
  0
LINE
  8
0
 62
7
  6
CONTINUOUS
 10
369.6887227445
 20
30.668077795
 11
369.4574729651
 21
30.6358140973
  0
LINE
  8
0
 62
7
  6
CONTINUOUS
 10
364.0809101343
 20
30.5067593403
 11
364.369972524
 21
30.5390230296
  0
LINE
  8
0
 62
7
  6
CONTINUOUS
 10
369.4574729651
 20
30.5067593403
 11
369.8043479651
 21
30.5390230296
  0
LINE
  8
0
 62
7
  6
CONTINUOUS
 10
359.744972717
 20
30.5067593403
 11
360.1496602445
 21
30.5390230296
  0
LINE
  8
0
 62
7
  6
CONTINUOUS
 10
360.091847717
 20
30.668077795
 11
359.6871602721
 21
30.6358140973
  0
LINE
  8
0
 62
7
  6
CONTINUOUS
 10
363.9652852445
 20
31.0552420547
 11
364.6012229651
 21
31.0552420547
  0
LINE
  8
0
 62
7
  6
CONTINUOUS
 10
364.6012229651
 20
31.1842968456
 11
363.9652852445
 21
31.1842968456
  0
LINE
  8
0
 62
7
  6
CONTINUOUS
 10
360.3230977445
 20
31.216560532
 11
360.6121602997
 21
31.216560532
  0
LINE
  8
0
 62
7
  6
CONTINUOUS
 10
363.1559103548
 20
31.2810879048
 11
363.4449727445
 21
31.2810879048
  0
LINE
  8
0
 62
7
  6
CONTINUOUS
 10
369.8621602445
 20
31.2810879048
 11
370.1512223035
 21
31.2810879048
  0
LINE
  8
0
 62
7
  6
CONTINUOUS
 10
363.8496603548
 20
31.4101426505
 11
364.1965353548
 21
31.4101426505
  0
LINE
  8
0
 62
7
  6
CONTINUOUS
 10
368.9949727445
 20
31.4101426505
 11
369.3418477445
 21
31.4101426505
  0
LINE
  8
0
 62
7
  6
CONTINUOUS
 10
369.3418477445
 20
31.5391973962
 11
368.9949727445
 21
31.5391973962
  0
LINE
  8
0
 62
7
  6
CONTINUOUS
 10
367.2605977445
 20
31.5391973962
 11
367.0293479651
 21
31.5391973962
  0
LINE
  8
0
 62
7
  6
CONTINUOUS
 10
366.5090354651
 20
31.5391973962
 11
366.2199727445
 21
31.5391973962
  0
LINE
  8
0
 62
7
  6
CONTINUOUS
 10
365.757472524
 20
31.5391973962
 11
365.4684104651
 21
31.5391973962
  0
LINE
  8
0
 62
7
  6
CONTINUOUS
 10
364.1965353548
 20
31.5391973962
 11
363.8496603548
 21
31.5391973962
  0
LINE
  8
0
 62
7
  6
CONTINUOUS
 10
362.1152853548
 20
31.5391973962
 11
361.8840352445
 21
31.5391973962
  0
LINE
  8
0
 62
7
  6
CONTINUOUS
 10
365.4684104651
 20
31.8618343508
 11
365.757472524
 21
31.8618343508
  0
LINE
  8
0
 62
7
  6
CONTINUOUS
 10
365.757472524
 20
32.0231527829
 11
365.4684104651
 21
32.0231527829
  0
LINE
  8
0
 62
7
  6
CONTINUOUS
 10
361.3637227445
 20
32.0231527829
 11
361.0746601894
 21
32.0231527829
  0
LINE
  8
0
 62
7
  6
CONTINUOUS
 10
360.4015045068
 20
32.3100380288
 11
360.8140758554
 21
32.3100380288
  0
LINE
  8
0
 62
7
  6
CONTINUOUS
 10
362.0408487691
 20
32.3100380288
 11
363.4342913921
 21
32.3100380288
  0
LINE
  8
0
 62
7
  6
CONTINUOUS
 10
363.7621602445
 20
32.3100380288
 11
365.1556028675
 21
32.3100380288
  0
LINE
  8
0
 62
7
  6
CONTINUOUS
 10
367.0408487691
 20
32.3100380288
 11
368.4342913921
 21
32.3100380288
  0
LINE
  8
0
 62
7
  6
CONTINUOUS
 10
368.7621602445
 20
32.3100380288
 11
370.1556028675
 21
32.3100380288
  0
LINE
  8
0
 62
7
  6
CONTINUOUS
 10
366.798097524
 20
31.5069337098
 11
366.624660024
 21
31.4424063369
  0
LINE
  8
0
 62
7
  6
CONTINUOUS
 10
364.369972524
 20
30.5390230296
 11
364.543410024
 21
30.6035504109
  0
LINE
  8
0
 62
7
  6
CONTINUOUS
 10
369.8043479651
 20
30.5390230296
 11
370.0355977445
 21
30.6035504109
  0
LINE
  8
0
 62
7
  6
CONTINUOUS
 10
369.8043479651
 20
30.7003414814
 11
369.6887227445
 21
30.668077795
  0
LINE
  8
0
 62
7
  6
CONTINUOUS
 10
368.7637229651
 20
31.3778789641
 11
368.9949727445
 21
31.4101426505
  0
LINE
  8
0
 62
7
  6
CONTINUOUS
 10
366.798097524
 20
31.3778789641
 11
367.0293479651
 21
31.4101426505
  0
LINE
  8
0
 62
7
  6
CONTINUOUS
 10
363.7340351343
 20
31.0229783683
 11
363.9652852445
 21
31.0552420547
  0
LINE
  8
0
 62
7
  6
CONTINUOUS
 10
367.0293479651
 20
31.5391973962
 11
366.798097524
 21
31.5069337098
  0
LINE
  8
0
 62
7
  6
CONTINUOUS
 10
363.6184102445
 20
31.3778789641
 11
363.8496603548
 21
31.4101426505
  0
LINE
  8
0
 62
7
  6
CONTINUOUS
 10
368.9949727445
 20
31.5391973962
 11
368.6480977445
 21
31.5069337098
  0
LINE
  8
0
 62
7
  6
CONTINUOUS
 10
363.9652852445
 20
31.1842968456
 11
363.6184102445
 21
31.1520331591
  0
LINE
  8
0
 62
7
  6
CONTINUOUS
 10
359.744972717
 20
31.5391973962
 11
359.3980977583
 21
31.5069337098
  0
LINE
  8
0
 62
7
  6
CONTINUOUS
 10
363.8496603548
 20
31.5391973962
 11
363.4449727445
 21
31.5069337098
  0
LINE
  8
0
 62
7
  6
CONTINUOUS
 10
361.221176638
 20
33.4575790124
 11
360.565438933
 21
33.4575790124
  0
LINE
  8
0
 62
7
  6
CONTINUOUS
 10
366.624660024
 20
31.3133515913
 11
366.798097524
 21
31.3778789641
  0
LINE
  8
0
 62
7
  6
CONTINUOUS
 10
368.6480977445
 20
31.3456152777
 11
368.7637229651
 21
31.3778789641
  0
LINE
  8
0
 62
7
  6
CONTINUOUS
 10
368.6480977445
 20
31.5069337098
 11
368.4168479651
 21
31.4424063369
  0
LINE
  8
0
 62
7
  6
CONTINUOUS
 10
364.369972524
 20
30.7003414814
 11
364.0809101343
 21
30.6358140973
  0
LINE
  8
0
 62
7
  6
CONTINUOUS
 10
361.6527851343
 20
31.3778789641
 11
361.8840352445
 21
31.4101426505
  0
LINE
  8
0
 62
7
  6
CONTINUOUS
 10
361.8840352445
 20
31.5391973962
 11
361.6527851343
 21
31.5069337098
  0
LINE
  8
0
 62
7
  6
CONTINUOUS
 10
359.4559102445
 20
31.3778789641
 11
359.6871602721
 21
31.4101426505
  0
LINE
  8
0
 62
7
  6
CONTINUOUS
 10
365.9752749986
 20
34.9329888485
 11
366.6310127035
 21
34.9329888485
  0
LINE
  8
0
 62
7
  6
CONTINUOUS
 10
363.6184102445
 20
30.9907146818
 11
363.7340351343
 21
31.0229783683
  0
LINE
  8
0
 62
7
  6
CONTINUOUS
 10
363.6184102445
 20
31.1520331591
 11
363.3871601343
 21
31.0875057863
  0
LINE
  8
0
 62
7
  6
CONTINUOUS
 10
363.5027853548
 20
31.3456152777
 11
363.6184102445
 21
31.3778789641
  0
LINE
  8
0
 62
7
  6
CONTINUOUS
 10
360.1496602445
 20
30.5390230296
 11
360.3809101894
 21
30.6035504109
  0
LINE
  8
0
 62
7
  6
CONTINUOUS
 10
363.4449727445
 20
31.5069337098
 11
363.3293478548
 21
31.4746700234
  0
LINE
  8
0
 62
7
  6
CONTINUOUS
 10
359.3980977583
 20
31.5069337098
 11
359.2246602583
 21
31.4746700234
  0
LINE
  8
0
 62
7
  6
CONTINUOUS
 10
370.1556028675
 20
36.0805298321
 11
368.7621602445
 21
36.0805298321
  0
LINE
  8
0
 62
7
  6
CONTINUOUS
 10
366.7949471298
 20
36.0805298321
 11
366.3823757812
 21
36.0805298321
  0
LINE
  8
0
 62
7
  6
CONTINUOUS
 10
365.1556028675
 20
36.0805298321
 11
363.7621602445
 21
36.0805298321
  0
LINE
  8
0
 62
7
  6
CONTINUOUS
 10
363.4342913921
 20
36.0805298321
 11
362.0408487691
 21
36.0805298321
  0
LINE
  8
0
 62
7
  6
CONTINUOUS
 10
360.1556028675
 20
36.0805298321
 11
358.7621602445
 21
36.0805298321
  0
LINE
  8
0
 62
7
  6
CONTINUOUS
 10
359.3402852307
 20
31.3456152777
 11
359.4559102445
 21
31.3778789641
  0
CIRCLE
  8
0
 62
7
  6
CONTINUOUS
 10
369.458881556
 20
38.4165954059
 40
2.0901639344
  0
ARC
  8
0
 62
7
  6
CONTINUOUS
 10
360.4015045068
 20
33.9493822911
 40
1.6393442623
 50
180.0
 51
270.0
  0
ARC
  8
0
 62
7
  6
CONTINUOUS
 10
366.7949471298
 20
34.4411855698
 40
1.6393442623
 50
0.0
 51
90.0
  0
ARC
  8
0
 62
7
  6
CONTINUOUS
 10
360.8140758554
 20
33.7854478649
 40
1.4754098361
 50
270.0
 51
326.2510114041
  0
ARC
  8
0
 62
7
  6
CONTINUOUS
 10
366.3823757812
 20
34.6051199961
 40
1.4754098361
 50
90.0
 51
146.2510114041
  0
ARC
  8
0
 62
7
  6
CONTINUOUS
 10
361.221176638
 20
34.2772511436
 40
0.8196721311
 50
270.0
 51
360.0
  0
ARC
  8
0
 62
7
  6
CONTINUOUS
 10
365.9752749986
 20
34.1133167174
 40
0.8196721311
 50
90.0
 51
180.0
  0
ARC
  8
0
 62
7
  6
CONTINUOUS
 10
360.565438933
 20
33.867415078
 40
0.4098360656
 50
180.0
 51
270.0
  0
ARC
  8
0
 62
7
  6
CONTINUOUS
 10
366.6310127035
 20
34.5231527829
 40
0.4098360656
 50
0.0
 51
90.0
  0
SOLID
  8
0
 62
7
  6
CONTINUOUS
 10
365.4684104651
 20
31.8618347111
 11
365.4684104651
 21
32.0231531947
 12
365.757472524
 22
31.8618347111
 13
365.757472524
 23
32.0231531947
  0
SOLID
  8
0
 62
7
  6
CONTINUOUS
 10
359.744972717
 20
31.5391977439
 11
360.1496602445
 21
31.5069333244
 12
359.3980977583
 22
31.5069333244
 13
359.3980977583
 23
31.5069333244
  0
SOLID
  8
0
 62
7
  6
CONTINUOUS
 10
359.2246602583
 20
31.4746706537
 11
359.3980977583
 21
31.5069333244
 12
360.1496602445
 22
31.5069333244
 13
360.1496602445
 23
31.5069333244
  0
SOLID
  8
0
 62
7
  6
CONTINUOUS
 10
360.1496602445
 20
31.5069333244
 11
360.3809101894
 21
31.4424063504
 12
359.2246602583
 22
31.4746706537
 13
359.2246602583
 23
31.4746706537
  0
SOLID
  8
0
 62
7
  6
CONTINUOUS
 10
359.0512227376
 20
31.4101419116
 11
359.2246602583
 21
31.4746706537
 12
360.3809101894
 22
31.4424063504
 13
360.3809101894
 23
31.4424063504
  0
SOLID
  8
0
 62
7
  6
CONTINUOUS
 10
359.0512227376
 20
31.4101419116
 11
360.3809101894
 21
31.4424063504
 12
359.6871602721
 22
31.4101419116
 13
359.6871602721
 23
31.4101419116
  0
SOLID
  8
0
 62
7
  6
CONTINUOUS
 10
359.6871602721
 20
31.4101419116
 11
360.3809101894
 21
31.4424063504
 12
360.091847717
 22
31.3778792603
 13
360.091847717
 23
31.3778792603
  0
SOLID
  8
0
 62
7
  6
CONTINUOUS
 10
360.3809101894
 20
31.4424063504
 11
360.5543476894
 21
31.345614957
 12
360.091847717
 22
31.3778792603
 13
360.091847717
 23
31.3778792603
  0
SOLID
  8
0
 62
7
  6
CONTINUOUS
 10
360.2652852997
 20
31.3133521701
 11
360.091847717
 21
31.3778792603
 12
360.5543476894
 22
31.345614957
 13
360.5543476894
 23
31.345614957
  0
SOLID
  8
0
 62
7
  6
CONTINUOUS
 10
360.2652852997
 20
31.3133521701
 11
360.5543476894
 21
31.345614957
 12
360.3230977445
 22
31.2165606992
 13
360.3230977445
 23
31.2165606992
  0
SOLID
  8
0
 62
7
  6
CONTINUOUS
 10
360.5543476894
 20
31.345614957
 11
360.6121602997
 21
31.2165606992
 12
360.3230977445
 22
31.2165606992
 13
360.3230977445
 23
31.2165606992
  0
SOLID
  8
0
 62
7
  6
CONTINUOUS
 10
361.6527851343
 20
31.5069329918
 11
361.8840352445
 21
31.5391972951
 12
362.1152853548
 22
31.5391972951
 13
362.1152853548
 23
31.5391972951
  0
SOLID
  8
0
 62
7
  6
CONTINUOUS
 10
362.1152853548
 20
31.5391972951
 11
362.2887228548
 21
31.5069329918
 12
361.6527851343
 22
31.5069329918
 13
361.6527851343
 23
31.5069329918
  0
SOLID
  8
0
 62
7
  6
CONTINUOUS
 10
361.4793477997
 20
31.4424059016
 11
361.6527851343
 21
31.5069329918
 12
362.2887228548
 22
31.5069329918
 13
362.2887228548
 23
31.5069329918
  0
SOLID
  8
0
 62
7
  6
CONTINUOUS
 10
362.2887228548
 20
31.5069329918
 11
362.4621603548
 21
31.4424059016
 12
361.4793477997
 22
31.4424059016
 13
361.4793477997
 23
31.4424059016
  0
SOLID
  8
0
 62
7
  6
CONTINUOUS
 10
362.4621603548
 20
31.4424059016
 11
361.8840352445
 21
31.4101420472
 12
361.4793477997
 22
31.4424059016
 13
361.4793477997
 23
31.4424059016
  0
SOLID
  8
0
 62
7
  6
CONTINUOUS
 10
361.3637227445
 20
31.3778788115
 11
361.4793477997
 21
31.4424059016
 12
361.8840352445
 22
31.4101420472
 13
361.8840352445
 23
31.4101420472
  0
SOLID
  8
0
 62
7
  6
CONTINUOUS
 10
361.8840352445
 20
31.4101420472
 11
361.6527851343
 21
31.3778788115
 12
361.3637227445
 22
31.3778788115
 13
361.3637227445
 23
31.3778788115
  0
SOLID
  8
0
 62
7
  6
CONTINUOUS
 10
361.8840352445
 20
31.4101420472
 11
362.4621603548
 21
31.4424059016
 12
362.1152853548
 22
31.3778788115
 13
362.1152853548
 23
31.3778788115
  0
SOLID
  8
0
 62
7
  6
CONTINUOUS
 10
362.4621603548
 20
31.4424059016
 11
362.5777852445
 21
31.3778788115
 12
362.1152853548
 22
31.3778788115
 13
362.1152853548
 23
31.3778788115
  0
SOLID
  8
0
 62
7
  6
CONTINUOUS
 10
362.2309102445
 20
31.345614957
 11
362.1152853548
 21
31.3778788115
 12
362.5777852445
 22
31.3778788115
 13
362.5777852445
 23
31.3778788115
  0
SOLID
  8
0
 62
7
  6
CONTINUOUS
 10
362.5777852445
 20
31.3778788115
 11
362.6355978548
 21
31.3133517213
 12
362.2309102445
 22
31.345614957
 13
362.2309102445
 23
31.345614957
  0
SOLID
  8
0
 62
7
  6
CONTINUOUS
 10
362.3465351343
 20
31.2810878668
 11
362.2309102445
 21
31.345614957
 12
362.6355978548
 22
31.3133517213
 13
362.6355978548
 23
31.3133517213
  0
SOLID
  8
0
 62
7
  6
CONTINUOUS
 10
362.3465351343
 20
31.2810878668
 11
362.6355978548
 21
31.3133517213
 12
362.4043477445
 22
31.1520332377
 13
362.4043477445
 23
31.1520332377
  0
SOLID
  8
0
 62
7
  6
CONTINUOUS
 10
362.6355978548
 20
31.3133517213
 11
362.6934101343
 21
31.1520332377
 12
362.4043477445
 22
31.1520332377
 13
362.4043477445
 23
31.1520332377
  0
SOLID
  8
0
 62
7
  6
CONTINUOUS
 10
361.6527851343
 20
31.3778788115
 11
361.4793477997
 21
31.3133517213
 12
361.3637227445
 22
31.3778788115
 13
361.3637227445
 23
31.3778788115
  0
SOLID
  8
0
 62
7
  6
CONTINUOUS
 10
361.4793477997
 20
31.3133517213
 11
361.3637227445
 21
31.2488235635
 12
361.3637227445
 22
31.3778788115
 13
361.3637227445
 23
31.3778788115
  0
SOLID
  8
0
 62
7
  6
CONTINUOUS
 10
361.3637227445
 20
31.2488235635
 11
361.0746601894
 21
30.5067593033
 12
361.3637227445
 22
31.3778788115
 13
361.3637227445
 23
31.3778788115
  0
SOLID
  8
0
 62
7
  6
CONTINUOUS
 10
361.3637227445
 20
31.3778788115
 11
361.0746601894
 21
30.5067593033
 12
361.3637227445
 22
32.0231527459
 13
361.3637227445
 23
32.0231527459
  0
SOLID
  8
0
 62
7
  6
CONTINUOUS
 10
361.0746601894
 20
30.5067593033
 11
361.0746601894
 21
32.0231527459
 12
361.3637227445
 22
32.0231527459
 13
361.3637227445
 23
32.0231527459
  0
SOLID
  8
0
 62
7
  6
CONTINUOUS
 10
361.3637227445
 20
31.2488235635
 11
361.3637227445
 21
30.5067593033
 12
361.0746601894
 22
30.5067593033
 13
361.0746601894
 23
30.5067593033
  0
SOLID
  8
0
 62
7
  6
CONTINUOUS
 10
362.4043477445
 20
30.5067593033
 11
362.4043477445
 21
31.1520332377
 12
362.6934101343
 22
31.1520332377
 13
362.6934101343
 23
31.1520332377
  0
SOLID
  8
0
 62
7
  6
CONTINUOUS
 10
362.6934101343
 20
31.1520332377
 11
362.6934101343
 21
30.5067593033
 12
362.4043477445
 22
30.5067593033
 13
362.4043477445
 23
30.5067593033
  0
SOLID
  8
0
 62
7
  6
CONTINUOUS
 10
363.4449727445
 20
31.506933758
 11
363.8496603548
 21
31.5391977507
 12
364.1965353548
 22
31.5391977507
 13
364.1965353548
 23
31.5391977507
  0
SOLID
  8
0
 62
7
  6
CONTINUOUS
 10
364.1965353548
 20
31.5391977507
 11
364.543410024
 21
31.506933758
 12
363.4449727445
 22
31.506933758
 13
363.4449727445
 23
31.506933758
  0
SOLID
  8
0
 62
7
  6
CONTINUOUS
 10
363.3293478548
 20
31.4746706537
 11
363.4449727445
 21
31.506933758
 12
364.543410024
 22
31.506933758
 13
364.543410024
 23
31.506933758
  0
SOLID
  8
0
 62
7
  6
CONTINUOUS
 10
364.543410024
 20
31.506933758
 11
364.716847524
 21
31.4424063504
 12
363.3293478548
 22
31.4746706537
 13
363.3293478548
 23
31.4746706537
  0
SOLID
  8
0
 62
7
  6
CONTINUOUS
 10
363.2137226343
 20
31.4101417797
 11
363.3293478548
 21
31.4746706537
 12
364.716847524
 22
31.4424063504
 13
364.716847524
 23
31.4424063504
  0
SOLID
  8
0
 62
7
  6
CONTINUOUS
 10
363.2137226343
 20
31.4101417797
 11
364.716847524
 21
31.4424063504
 12
363.8496603548
 22
31.4101417797
 13
363.8496603548
 23
31.4101417797
  0
SOLID
  8
0
 62
7
  6
CONTINUOUS
 10
363.8496603548
 20
31.4101417797
 11
364.716847524
 21
31.4424063504
 12
364.1965353548
 22
31.4101417797
 13
364.1965353548
 23
31.4101417797
  0
SOLID
  8
0
 62
7
  6
CONTINUOUS
 10
364.1965353548
 20
31.4101417797
 11
364.716847524
 21
31.4424063504
 12
364.4277854651
 22
31.3778793357
 13
364.4277854651
 23
31.3778793357
  0
SOLID
  8
0
 62
7
  6
CONTINUOUS
 10
364.716847524
 20
31.4424063504
 11
364.8324727445
 21
31.3778793357
 12
364.4277854651
 22
31.3778793357
 13
364.4277854651
 23
31.3778793357
  0
SOLID
  8
0
 62
7
  6
CONTINUOUS
 10
363.1559103548
 20
31.3456153429
 11
363.2137226343
 21
31.4101417797
 12
363.8496603548
 22
31.4101417797
 13
363.8496603548
 23
31.4101417797
  0
SOLID
  8
0
 62
7
  6
CONTINUOUS
 10
364.543410024
 20
31.3456153429
 11
364.4277854651
 21
31.3778793357
 12
364.8324727445
 22
31.3778793357
 13
364.8324727445
 23
31.3778793357
  0
SOLID
  8
0
 62
7
  6
CONTINUOUS
 10
364.543410024
 20
31.3456153429
 11
364.8324727445
 21
31.3778793357
 12
364.6012229651
 22
31.2810881318
 13
364.6012229651
 23
31.2810881318
  0
SOLID
  8
0
 62
7
  6
CONTINUOUS
 10
364.8324727445
 20
31.3778793357
 11
364.890285024
 21
31.2810881318
 12
364.6012229651
 22
31.2810881318
 13
364.6012229651
 23
31.2810881318
  0
SOLID
  8
0
 62
7
  6
CONTINUOUS
 10
364.6012229651
 20
31.1842964734
 11
364.6012229651
 21
31.2810881318
 12
364.890285024
 22
31.2810881318
 13
364.890285024
 23
31.2810881318
  0
SOLID
  8
0
 62
7
  6
CONTINUOUS
 10
364.6012229651
 20
31.1842964734
 11
364.890285024
 21
31.2810881318
 12
364.6012229651
 22
31.0552422931
 13
364.6012229651
 23
31.0552422931
  0
SOLID
  8
0
 62
7
  6
CONTINUOUS
 10
364.6012229651
 20
31.0552422931
 11
364.890285024
 21
31.2810881318
 12
364.6012229651
 22
30.8616599362
 13
364.6012229651
 23
30.8616599362
  0
SOLID
  8
0
 62
7
  6
CONTINUOUS
 10
364.890285024
 20
31.2810881318
 11
364.890285024
 21
30.7648681127
 12
364.6012229651
 22
30.8616599362
 13
364.6012229651
 23
30.8616599362
  0
SOLID
  8
0
 62
7
  6
CONTINUOUS
 10
366.798097524
 20
31.5069339419
 11
367.0293479651
 21
31.5391976292
 12
367.2605977445
 22
31.5391976292
 13
367.2605977445
 23
31.5391976292
  0
SOLID
  8
0
 62
7
  6
CONTINUOUS
 10
367.2605977445
 20
31.5391976292
 11
367.4340352445
 21
31.5069339419
 12
366.798097524
 22
31.5069339419
 13
366.798097524
 23
31.5069339419
  0
SOLID
  8
0
 62
7
  6
CONTINUOUS
 10
366.624660024
 20
31.4424065674
 11
366.798097524
 21
31.5069339419
 12
367.4340352445
 22
31.5069339419
 13
367.4340352445
 23
31.5069339419
  0
SOLID
  8
0
 62
7
  6
CONTINUOUS
 10
367.4340352445
 20
31.5069339419
 11
367.6074727445
 21
31.4424065674
 12
366.624660024
 22
31.4424065674
 13
366.624660024
 23
31.4424065674
  0
SOLID
  8
0
 62
7
  6
CONTINUOUS
 10
367.6074727445
 20
31.4424065674
 11
367.0293479651
 21
31.4101420472
 12
366.624660024
 22
31.4424065674
 13
366.624660024
 23
31.4424065674
  0
SOLID
  8
0
 62
7
  6
CONTINUOUS
 10
366.5090354651
 20
31.377879193
 11
366.624660024
 21
31.4424065674
 12
367.0293479651
 22
31.4101420472
 13
367.0293479651
 23
31.4101420472
  0
SOLID
  8
0
 62
7
  6
CONTINUOUS
 10
367.0293479651
 20
31.4101420472
 11
366.798097524
 21
31.377879193
 12
366.5090354651
 22
31.377879193
 13
366.5090354651
 23
31.377879193
  0
SOLID
  8
0
 62
7
  6
CONTINUOUS
 10
367.0293479651
 20
31.4101420472
 11
367.6074727445
 21
31.4424065674
 12
367.2605977445
 22
31.377879193
 13
367.2605977445
 23
31.377879193
  0
SOLID
  8
0
 62
7
  6
CONTINUOUS
 10
367.6074727445
 20
31.4424065674
 11
367.7230979651
 21
31.377879193
 12
367.2605977445
 22
31.377879193
 13
367.2605977445
 23
31.377879193
  0
SOLID
  8
0
 62
7
  6
CONTINUOUS
 10
367.3762229651
 20
31.345614957
 11
367.2605977445
 21
31.377879193
 12
367.7230979651
 22
31.377879193
 13
367.7230979651
 23
31.377879193
  0
SOLID
  8
0
 62
7
  6
CONTINUOUS
 10
367.3762229651
 20
31.345614957
 11
367.7230979651
 21
31.377879193
 12
367.491847524
 22
31.2810881312
 13
367.491847524
 23
31.2810881312
  0
SOLID
  8
0
 62
7
  6
CONTINUOUS
 10
367.7230979651
 20
31.377879193
 11
367.7809102445
 21
31.2810881312
 12
367.491847524
 22
31.2810881312
 13
367.491847524
 23
31.2810881312
  0
SOLID
  8
0
 62
7
  6
CONTINUOUS
 10
367.5496604651
 20
31.119769695
 11
367.491847524
 21
31.2810881312
 12
367.7809102445
 22
31.2810881312
 13
367.7809102445
 23
31.2810881312
  0
SOLID
  8
0
 62
7
  6
CONTINUOUS
 10
367.7809102445
 20
31.2810881312
 11
367.838722524
 21
31.119769695
 12
367.5496604651
 22
31.119769695
 13
367.5496604651
 23
31.119769695
  0
SOLID
  8
0
 62
7
  6
CONTINUOUS
 10
366.798097524
 20
31.377879193
 11
366.624660024
 21
31.3133521701
 12
366.5090354651
 22
31.377879193
 13
366.5090354651
 23
31.377879193
  0
SOLID
  8
0
 62
7
  6
CONTINUOUS
 10
366.624660024
 20
31.3133521701
 11
366.5090354651
 21
31.2488235635
 12
366.5090354651
 22
31.377879193
 13
366.5090354651
 23
31.377879193
  0
SOLID
  8
0
 62
7
  6
CONTINUOUS
 10
366.5090354651
 20
31.2488235635
 11
366.2199727445
 21
30.5067596374
 12
366.5090354651
 22
31.377879193
 13
366.5090354651
 23
31.377879193
  0
SOLID
  8
0
 62
7
  6
CONTINUOUS
 10
366.5090354651
 20
31.377879193
 11
366.2199727445
 21
30.5067596374
 12
366.5090354651
 22
31.5391976292
 13
366.5090354651
 23
31.5391976292
  0
SOLID
  8
0
 62
7
  6
CONTINUOUS
 10
366.2199727445
 20
30.5067596374
 11
366.2199727445
 21
31.5391976292
 12
366.5090354651
 22
31.5391976292
 13
366.5090354651
 23
31.5391976292
  0
SOLID
  8
0
 62
7
  6
CONTINUOUS
 10
366.5090354651
 20
31.2488235635
 11
366.5090354651
 21
30.5067596374
 12
366.2199727445
 22
30.5067596374
 13
366.2199727445
 23
30.5067596374
  0
SOLID
  8
0
 62
7
  6
CONTINUOUS
 10
367.5496604651
 20
30.5067596374
 11
367.5496604651
 21
31.119769695
 12
367.838722524
 22
31.119769695
 13
367.838722524
 23
31.119769695
  0
SOLID
  8
0
 62
7
  6
CONTINUOUS
 10
367.838722524
 20
31.119769695
 11
367.838722524
 21
30.5067596374
 12
367.5496604651
 22
30.5067596374
 13
367.5496604651
 23
30.5067596374
  0
SOLID
  8
0
 62
7
  6
CONTINUOUS
 10
368.6480977445
 20
31.5069334157
 11
368.9949727445
 21
31.539197762
 12
369.3418477445
 22
31.539197762
 13
369.3418477445
 23
31.539197762
  0
SOLID
  8
0
 62
7
  6
CONTINUOUS
 10
369.3418477445
 20
31.539197762
 11
369.6887227445
 21
31.5069334157
 12
368.6480977445
 22
31.5069334157
 13
368.6480977445
 23
31.5069334157
  0
SOLID
  8
0
 62
7
  6
CONTINUOUS
 10
368.4168479651
 20
31.4424063504
 11
368.6480977445
 21
31.5069334157
 12
369.6887227445
 22
31.5069334157
 13
369.6887227445
 23
31.5069334157
  0
SOLID
  8
0
 62
7
  6
CONTINUOUS
 10
368.4168479651
 20
31.4424063504
 11
369.6887227445
 21
31.5069334406
 12
369.8621602445
 22
31.4746706537
 13
369.8621602445
 23
31.4746706537
  0
SOLID
  8
0
 62
7
  6
CONTINUOUS
 10
368.4168479651
 20
31.4424063504
 11
369.8621602445
 21
31.4746706537
 12
368.9949727445
 22
31.4101421267
 13
368.9949727445
 23
31.4101421267
  0
SOLID
  8
0
 62
7
  6
CONTINUOUS
 10
368.9949727445
 20
31.4101421267
 11
369.8621602445
 21
31.4746706537
 12
369.3418477445
 22
31.4101421267
 13
369.3418477445
 23
31.4101421267
  0
SOLID
  8
0
 62
7
  6
CONTINUOUS
 10
369.8621602445
 20
31.4746706537
 11
370.0355977445
 21
31.4101421267
 12
369.3418477445
 22
31.4101421267
 13
369.3418477445
 23
31.4101421267
  0
SOLID
  8
0
 62
7
  6
CONTINUOUS
 10
369.6887227445
 20
31.3778792603
 11
369.3418477445
 21
31.4101421267
 12
370.0355977445
 22
31.4101421267
 13
370.0355977445
 23
31.4101421267
  0
SOLID
  8
0
 62
7
  6
CONTINUOUS
 10
368.3012227445
 20
31.3456148845
 11
368.4168479651
 21
31.4424063504
 12
368.9949727445
 22
31.4101421267
 13
368.9949727445
 23
31.4101421267
  0
SOLID
  8
0
 62
7
  6
CONTINUOUS
 10
369.6887227445
 20
31.3778792603
 11
370.0355977445
 21
31.4101421267
 12
369.8043479651
 22
31.3456148845
 13
369.8043479651
 23
31.3456148845
  0
SOLID
  8
0
 62
7
  6
CONTINUOUS
 10
369.8043479651
 20
31.3456148845
 11
370.0355977445
 21
31.4101421267
 12
369.8621602445
 22
31.281087868
 13
369.8621602445
 23
31.281087868
  0
SOLID
  8
0
 62
7
  6
CONTINUOUS
 10
370.0355977445
 20
31.4101421267
 11
370.1512223035
 21
31.281087868
 12
369.8621602445
 22
31.281087868
 13
369.8621602445
 23
31.281087868
  0
SOLID
  8
0
 62
7
  6
CONTINUOUS
 10
359.4559102445
 20
31.3778792603
 11
358.9355977445
 21
31.3456148963
 12
359.6871602721
 22
31.4101421155
 13
359.6871602721
 23
31.4101421155
  0
SOLID
  8
0
 62
7
  6
CONTINUOUS
 10
358.9355977445
 20
31.3456148963
 11
359.0512227376
 21
31.4101421155
 12
359.6871602721
 22
31.4101421155
 13
359.6871602721
 23
31.4101421155
  0
SOLID
  8
0
 62
7
  6
CONTINUOUS
 10
359.4559102445
 20
31.3778792603
 11
359.3402852307
 21
31.3456148963
 12
358.9355977445
 22
31.3456148963
 13
358.9355977445
 23
31.3456148963
  0
SOLID
  8
0
 62
7
  6
CONTINUOUS
 10
358.8199727462
 20
31.2165607767
 11
358.9355977445
 21
31.3456148963
 12
359.3402852307
 22
31.3456148963
 13
359.3402852307
 23
31.3456148963
  0
SOLID
  8
0
 62
7
  6
CONTINUOUS
 10
363.1559103548
 20
31.3456149608
 11
363.8496603548
 21
31.4101420472
 12
363.6184102445
 22
31.3778792603
 13
363.6184102445
 23
31.3778792603
  0
SOLID
  8
0
 62
7
  6
CONTINUOUS
 10
363.6184102445
 20
31.3778792603
 11
363.5027853548
 21
31.3456149608
 12
363.1559103548
 22
31.3456149608
 13
363.1559103548
 23
31.3456149608
  0
SOLID
  8
0
 62
7
  6
CONTINUOUS
 10
363.1559103548
 20
31.2810878707
 11
363.1559103548
 21
31.3456149608
 12
363.5027853548
 22
31.3456149608
 13
363.5027853548
 23
31.3456149608
  0
SOLID
  8
0
 62
7
  6
CONTINUOUS
 10
363.5027853548
 20
31.3456149608
 11
363.4449727445
 21
31.2810878707
 12
363.1559103548
 22
31.2810878707
 13
363.1559103548
 23
31.2810878707
  0
SOLID
  8
0
 62
7
  6
CONTINUOUS
 10
368.3012227445
 20
31.3456149608
 11
368.9949727445
 21
31.4101420472
 12
368.7637229651
 22
31.3778792603
 13
368.7637229651
 23
31.3778792603
  0
SOLID
  8
0
 62
7
  6
CONTINUOUS
 10
368.7637229651
 20
31.3778792603
 11
368.6480977445
 21
31.3456149608
 12
368.3012227445
 22
31.3456149608
 13
368.3012227445
 23
31.3456149608
  0
SOLID
  8
0
 62
7
  6
CONTINUOUS
 10
368.3012227445
 20
31.2810878707
 11
368.3012227445
 21
31.3456149608
 12
368.6480977445
 22
31.3456149608
 13
368.6480977445
 23
31.3456149608
  0
SOLID
  8
0
 62
7
  6
CONTINUOUS
 10
368.6480977445
 20
31.3456149608
 11
368.5902854651
 21
31.2810878707
 12
368.3012227445
 22
31.2810878707
 13
368.3012227445
 23
31.2810878707
  0
SOLID
  8
0
 62
7
  6
CONTINUOUS
 10
368.4168479651
 20
31.1520336865
 11
368.3012227445
 21
31.2810878707
 12
368.5902854651
 22
31.2810878707
 13
368.5902854651
 23
31.2810878707
  0
SOLID
  8
0
 62
7
  6
CONTINUOUS
 10
358.8199727462
 20
31.2165607767
 11
359.3402852307
 21
31.345614957
 12
359.1668477307
 22
31.2488235635
 13
359.1668477307
 23
31.2488235635
  0
SOLID
  8
0
 62
7
  6
CONTINUOUS
 10
359.1668477307
 20
31.2488235635
 11
359.1090352445
 21
31.1842964734
 12
358.8199727462
 22
31.2165607767
 13
358.8199727462
 23
31.2165607767
  0
SOLID
  8
0
 62
7
  6
CONTINUOUS
 10
358.7621602445
 20
31.0229779898
 11
358.8199727462
 21
31.2165607767
 12
359.1090352445
 22
31.1842964734
 13
359.1090352445
 23
31.1842964734
  0
SOLID
  8
0
 62
7
  6
CONTINUOUS
 10
363.6184102445
 20
31.1520336865
 11
363.9652852445
 21
31.1842964611
 12
364.6012229651
 22
31.1842964611
 13
364.6012229651
 23
31.1842964611
  0
SOLID
  8
0
 62
7
  6
CONTINUOUS
 10
363.6184102445
 20
31.1520336865
 11
364.6012229651
 21
31.1842964611
 12
363.3871601343
 22
31.0875057863
 13
363.3871601343
 23
31.0875057863
  0
SOLID
  8
0
 62
7
  6
CONTINUOUS
 10
363.3871601343
 20
31.0875057863
 11
364.6012229651
 21
31.1842964611
 12
363.9652852445
 22
31.0552422808
 13
363.9652852445
 23
31.0552422808
  0
SOLID
  8
0
 62
7
  6
CONTINUOUS
 10
364.6012229651
 20
31.1842964611
 11
364.6012229651
 21
31.0552422808
 12
363.9652852445
 22
31.0552422808
 13
363.9652852445
 23
31.0552422808
  0
SOLID
  8
0
 62
7
  6
CONTINUOUS
 10
368.4168479651
 20
31.1520338754
 11
368.5902854651
 21
31.2810878668
 12
368.6480977445
 22
31.2165607767
 13
368.6480977445
 23
31.2165607767
  0
SOLID
  8
0
 62
7
  6
CONTINUOUS
 10
368.6480977445
 20
31.2165607767
 11
368.8215352445
 21
31.1520338754
 12
368.4168479651
 22
31.1520338754
 13
368.4168479651
 23
31.1520338754
  0
SOLID
  8
0
 62
7
  6
CONTINUOUS
 10
368.6480977445
 20
31.0552422931
 11
368.4168479651
 21
31.1520338754
 12
368.8215352445
 22
31.1520338754
 13
368.8215352445
 23
31.1520338754
  0
SOLID
  8
0
 62
7
  6
CONTINUOUS
 10
368.8215352445
 20
31.1520338754
 11
369.8043479651
 21
30.9907152029
 12
368.6480977445
 22
31.0552422931
 13
368.6480977445
 23
31.0552422931
  0
SOLID
  8
0
 62
7
  6
CONTINUOUS
 10
369.6309104651
 20
30.8939239876
 11
368.6480977445
 21
31.0552422931
 12
369.8043479651
 22
30.9907152029
 13
369.8043479651
 23
30.9907152029
  0
SOLID
  8
0
 62
7
  6
CONTINUOUS
 10
369.8043479651
 20
30.9907152029
 11
370.0355977445
 21
30.8939239876
 12
369.6309104651
 22
30.8939239876
 13
369.6309104651
 23
30.8939239876
  0
SOLID
  8
0
 62
7
  6
CONTINUOUS
 10
369.8043479651
 20
30.8293967193
 11
369.6309104651
 21
30.8939239876
 12
370.0355977445
 22
30.8939239876
 13
370.0355977445
 23
30.8939239876
  0
SOLID
  8
0
 62
7
  6
CONTINUOUS
 10
369.8043479651
 20
30.8293967193
 11
370.0355977445
 21
30.8939239876
 12
369.8621602445
 22
30.7648682694
 13
369.8621602445
 23
30.7648682694
  0
SOLID
  8
0
 62
7
  6
CONTINUOUS
 10
370.0355977445
 20
30.8939239876
 11
370.1512223035
 21
30.7648682694
 12
369.8621602445
 22
30.7648682694
 13
369.8621602445
 23
30.7648682694
  0
SOLID
  8
0
 62
7
  6
CONTINUOUS
 10
369.8043479651
 20
30.7003411846
 11
369.8621602445
 21
30.7648682694
 12
370.1512223035
 22
30.7648682694
 13
370.1512223035
 23
30.7648682694
  0
SOLID
  8
0
 62
7
  6
CONTINUOUS
 10
370.1512223035
 20
30.7648682694
 11
370.1512223035
 21
30.7003411846
 12
369.8043479651
 22
30.7003411846
 13
369.8043479651
 23
30.7003411846
  0
SOLID
  8
0
 62
7
  6
CONTINUOUS
 10
369.6887227445
 20
30.6680782357
 11
369.8043479651
 21
30.7003411846
 12
370.1512223035
 22
30.7003411846
 13
370.1512223035
 23
30.7003411846
  0
SOLID
  8
0
 62
7
  6
CONTINUOUS
 10
369.6887227445
 20
30.6680782357
 11
370.1512223035
 21
30.7003411846
 12
369.4574729651
 22
30.6358140998
 13
369.4574729651
 23
30.6358140998
  0
SOLID
  8
0
 62
7
  6
CONTINUOUS
 10
370.1512223035
 20
30.7003411846
 11
370.0355977445
 21
30.6035511455
 12
369.4574729651
 22
30.6358140998
 13
369.4574729651
 23
30.6358140998
  0
SOLID
  8
0
 62
7
  6
CONTINUOUS
 10
370.0355977445
 20
30.6035511455
 11
368.5902854651
 21
30.5712868422
 12
369.4574729651
 22
30.6358140998
 13
369.4574729651
 23
30.6358140998
  0
SOLID
  8
0
 62
7
  6
CONTINUOUS
 10
369.4574729651
 20
30.6358140998
 11
368.5902854651
 21
30.5712868422
 12
369.1105979651
 22
30.6358140998
 13
369.1105979651
 23
30.6358140998
  0
SOLID
  8
0
 62
7
  6
CONTINUOUS
 10
368.5902854651
 20
30.5712868422
 11
368.4168479651
 21
30.6358140998
 12
369.1105979651
 22
30.6358140998
 13
369.1105979651
 23
30.6358140998
  0
SOLID
  8
0
 62
7
  6
CONTINUOUS
 10
368.5902854651
 20
30.5712868422
 11
370.0355977445
 21
30.6035511455
 12
368.7637229651
 22
30.5390223111
 13
368.7637229651
 23
30.5390223111
  0
SOLID
  8
0
 62
7
  6
CONTINUOUS
 10
370.0355977445
 20
30.6035511455
 11
369.8043479651
 21
30.5390223111
 12
368.7637229651
 22
30.5390223111
 13
368.7637229651
 23
30.5390223111
  0
SOLID
  8
0
 62
7
  6
CONTINUOUS
 10
369.1105979651
 20
30.5067599302
 11
368.7637229651
 21
30.5390223111
 12
369.8043479651
 22
30.5390223111
 13
369.8043479651
 23
30.5390223111
  0
SOLID
  8
0
 62
7
  6
CONTINUOUS
 10
369.8043479651
 20
30.5390223111
 11
369.4574729651
 21
30.5067599302
 12
369.1105979651
 22
30.5067599302
 13
369.1105979651
 23
30.5067599302
  0
SOLID
  8
0
 62
7
  6
CONTINUOUS
 10
358.7621602445
 20
31.0229779898
 11
359.1090352445
 21
31.1842964734
 12
359.0512227376
 22
31.0552422931
 13
359.0512227376
 23
31.0552422931
  0
SOLID
  8
0
 62
7
  6
CONTINUOUS
 10
359.0512227376
 20
31.0552422931
 11
359.0512227376
 21
30.9584509954
 12
358.7621602445
 22
31.0229779898
 13
358.7621602445
 23
31.0229779898
  0
SOLID
  8
0
 62
7
  6
CONTINUOUS
 10
358.8199727462
 20
30.8293967193
 11
358.7621602445
 21
31.0229779898
 12
359.0512227376
 22
30.9584509954
 13
359.0512227376
 23
30.9584509954
  0
SOLID
  8
0
 62
7
  6
CONTINUOUS
 10
359.0512227376
 20
30.9584509954
 11
359.1668477307
 21
30.797132416
 12
358.8199727462
 22
30.8293967193
 13
358.8199727462
 23
30.8293967193
  0
SOLID
  8
0
 62
7
  6
CONTINUOUS
 10
358.9355977445
 20
30.7003413087
 11
358.8199727462
 21
30.8293967193
 12
359.1668477307
 22
30.797132416
 13
359.1668477307
 23
30.797132416
  0
SOLID
  8
0
 62
7
  6
CONTINUOUS
 10
359.1668477307
 20
30.797132416
 11
359.3402852307
 21
30.7003413087
 12
358.9355977445
 22
30.7003413087
 13
358.9355977445
 23
30.7003413087
  0
SOLID
  8
0
 62
7
  6
CONTINUOUS
 10
359.0512227376
 20
30.6358140759
 11
358.9355977445
 21
30.7003413087
 12
359.3402852307
 22
30.7003413087
 13
359.3402852307
 23
30.7003413087
  0
SOLID
  8
0
 62
7
  6
CONTINUOUS
 10
359.3402852307
 20
30.7003413087
 11
359.6871602721
 21
30.6358140759
 12
359.0512227376
 22
30.6358140759
 13
359.0512227376
 23
30.6358140759
  0
SOLID
  8
0
 62
7
  6
CONTINUOUS
 10
359.2246602583
 20
30.5712868422
 11
359.0512227376
 21
30.6358140759
 12
359.6871602721
 22
30.6358140759
 13
359.6871602721
 23
30.6358140759
  0
SOLID
  8
0
 62
7
  6
CONTINUOUS
 10
363.2715352445
 20
31.0229779808
 11
363.3871601343
 21
31.0875057863
 12
363.9652852445
 22
31.0552422931
 13
363.9652852445
 23
31.0552422931
  0
SOLID
  8
0
 62
7
  6
CONTINUOUS
 10
363.9652852445
 20
31.0552422931
 11
363.7340351343
 21
31.0229779808
 12
363.2715352445
 22
31.0229779808
 13
363.2715352445
 23
31.0229779808
  0
SOLID
  8
0
 62
7
  6
CONTINUOUS
 10
363.1559103548
 20
30.8939238094
 11
363.2715352445
 21
31.0229779808
 12
363.7340351343
 22
31.0229779808
 13
363.7340351343
 23
31.0229779808
  0
SOLID
  8
0
 62
7
  6
CONTINUOUS
 10
363.5027853548
 20
30.926187309
 11
363.1559103548
 21
30.8939238094
 12
363.6184102445
 22
30.9907152029
 13
363.6184102445
 23
30.9907152029
  0
SOLID
  8
0
 62
7
  6
CONTINUOUS
 10
363.1559103548
 20
30.8939238094
 11
363.7340351343
 21
31.0229779898
 12
363.6184102445
 22
30.9907152029
 13
363.6184102445
 23
30.9907152029
  0
SOLID
  8
0
 62
7
  6
CONTINUOUS
 10
363.5027853548
 20
30.926187309
 11
363.4449727445
 21
30.8293967193
 12
363.1559103548
 22
30.8939238094
 13
363.1559103548
 23
30.8939238094
  0
SOLID
  8
0
 62
7
  6
CONTINUOUS
 10
363.1559103548
 20
30.797132416
 11
363.1559103548
 21
30.8939238094
 12
363.4449727445
 22
30.8293967193
 13
363.4449727445
 23
30.8293967193
  0
SOLID
  8
0
 62
7
  6
CONTINUOUS
 10
363.4449727445
 20
30.8293967193
 11
363.4449727445
 21
30.7648681127
 12
363.1559103548
 22
30.797132416
 13
363.1559103548
 23
30.797132416
  0
SOLID
  8
0
 62
7
  6
CONTINUOUS
 10
363.2137226343
 20
30.6680782357
 11
363.1559103548
 21
30.797132416
 12
363.4449727445
 22
30.7648681127
 13
363.4449727445
 23
30.7648681127
  0
SOLID
  8
0
 62
7
  6
CONTINUOUS
 10
364.6012229651
 20
30.8616599362
 11
364.890285024
 21
30.7648681127
 12
364.543410024
 22
30.797132416
 13
364.543410024
 23
30.797132416
  0
SOLID
  8
0
 62
7
  6
CONTINUOUS
 10
364.369972524
 20
30.7003410226
 11
364.543410024
 21
30.797132416
 12
364.890285024
 22
30.7648681127
 13
364.890285024
 23
30.7648681127
  0
SOLID
  8
0
 62
7
  6
CONTINUOUS
 10
364.369972524
 20
30.7003410226
 11
364.890285024
 21
30.7648681127
 12
364.6012229651
 22
30.6680782357
 13
364.6012229651
 23
30.6680782357
  0
SOLID
  8
0
 62
7
  6
CONTINUOUS
 10
364.890285024
 20
30.7648681127
 11
364.9480979651
 21
30.6035511455
 12
364.6012229651
 22
30.6680782357
 13
364.6012229651
 23
30.6680782357
  0
SOLID
  8
0
 62
7
  6
CONTINUOUS
 10
364.6590352445
 20
30.5712868422
 11
364.6012229651
 21
30.6680782357
 12
364.9480979651
 22
30.6035511455
 13
364.9480979651
 23
30.6035511455
  0
SOLID
  8
0
 62
7
  6
CONTINUOUS
 10
364.6590352445
 20
30.5712868422
 11
364.9480979651
 21
30.6035511455
 12
364.716847524
 22
30.5067598731
 13
364.716847524
 23
30.5067598731
  0
SOLID
  8
0
 62
7
  6
CONTINUOUS
 10
364.9480979651
 20
30.6035511455
 11
365.0059102445
 21
30.5067598731
 12
364.716847524
 22
30.5067598731
 13
364.716847524
 23
30.5067598731
  0
SOLID
  8
0
 62
7
  6
CONTINUOUS
 10
360.2652852997
 20
30.7326051679
 11
360.3230977445
 21
30.8293966612
 12
360.6121602997
 22
30.8293966612
 13
360.6121602997
 23
30.8293966612
  0
SOLID
  8
0
 62
7
  6
CONTINUOUS
 10
360.6121602997
 20
30.8293966612
 11
360.5543476894
 21
30.7003410226
 12
360.2652852997
 22
30.7326051679
 13
360.2652852997
 23
30.7326051679
  0
SOLID
  8
0
 62
7
  6
CONTINUOUS
 10
360.091847717
 20
30.6680782357
 11
360.2652852997
 21
30.7326051679
 12
360.5543476894
 22
30.7003410226
 13
360.5543476894
 23
30.7003410226
  0
SOLID
  8
0
 62
7
  6
CONTINUOUS
 10
360.091847717
 20
30.6680782357
 11
360.5543476894
 21
30.7003410226
 12
359.6871602721
 22
30.6358139324
 13
359.6871602721
 23
30.6358139324
  0
SOLID
  8
0
 62
7
  6
CONTINUOUS
 10
360.5543476894
 20
30.7003410226
 11
360.3809101894
 21
30.6035511455
 12
359.6871602721
 22
30.6358139324
 13
359.6871602721
 23
30.6358139324
  0
SOLID
  8
0
 62
7
  6
CONTINUOUS
 10
359.2246602583
 20
30.5712868422
 11
359.6871602721
 21
30.6358139324
 12
360.3809101894
 22
30.6035511455
 13
360.3809101894
 23
30.6035511455
  0
SOLID
  8
0
 62
7
  6
CONTINUOUS
 10
359.2246602583
 20
30.5712868422
 11
360.3809101894
 21
30.6035511455
 12
359.3980977583
 22
30.5390224228
 13
359.3980977583
 23
30.5390224228
  0
SOLID
  8
0
 62
7
  6
CONTINUOUS
 10
360.3809101894
 20
30.6035511455
 11
360.1496602445
 21
30.5390224228
 12
359.3980977583
 22
30.5390224228
 13
359.3980977583
 23
30.5390224228
  0
SOLID
  8
0
 62
7
  6
CONTINUOUS
 10
359.744972717
 20
30.5067597521
 11
359.3980977583
 21
30.5390224228
 12
360.1496602445
 22
30.5390224228
 13
360.1496602445
 23
30.5390224228
  0
SOLID
  8
0
 62
7
  6
CONTINUOUS
 10
363.2137226343
 20
30.6680782357
 11
363.4449727445
 21
30.7648681127
 12
363.5027853548
 22
30.7003410226
 13
363.5027853548
 23
30.7003410226
  0
SOLID
  8
0
 62
7
  6
CONTINUOUS
 10
363.5027853548
 20
30.7003410226
 11
363.7340351343
 21
30.6358139324
 12
363.2137226343
 22
30.6680782357
 13
363.2137226343
 23
30.6680782357
  0
SOLID
  8
0
 62
7
  6
CONTINUOUS
 10
363.3871601343
 20
30.5712868422
 11
363.2137226343
 21
30.6680782357
 12
363.7340351343
 22
30.6358139324
 13
363.7340351343
 23
30.6358139324
  0
SOLID
  8
0
 62
7
  6
CONTINUOUS
 10
364.0809101343
 20
30.6358139363
 11
364.369972524
 21
30.7003410226
 12
364.6012229651
 22
30.6680782357
 13
364.6012229651
 23
30.6680782357
  0
SOLID
  8
0
 62
7
  6
CONTINUOUS
 10
364.6012229651
 20
30.6680782357
 11
364.543410024
 21
30.6035511455
 12
364.0809101343
 22
30.6358139363
 13
364.0809101343
 23
30.6358139363
  0
SOLID
  8
0
 62
7
  6
CONTINUOUS
 10
364.543410024
 20
30.6035511455
 11
363.3871601343
 21
30.5712868422
 12
364.0809101343
 22
30.6358139363
 13
364.0809101343
 23
30.6358139363
  0
SOLID
  8
0
 62
7
  6
CONTINUOUS
 10
363.3871601343
 20
30.5712868422
 11
363.7340351343
 21
30.6358139363
 12
364.0809101343
 22
30.6358139363
 13
364.0809101343
 23
30.6358139363
  0
SOLID
  8
0
 62
7
  6
CONTINUOUS
 10
363.3871601343
 20
30.5712868422
 11
364.543410024
 21
30.6035511455
 12
363.5027853548
 22
30.5390225267
 13
363.5027853548
 23
30.5390225267
  0
SOLID
  8
0
 62
7
  6
CONTINUOUS
 10
364.543410024
 20
30.6035511455
 11
364.369972524
 21
30.5390225267
 12
363.5027853548
 22
30.5390225267
 13
363.5027853548
 23
30.5390225267
  0
SOLID
  8
0
 62
7
  6
CONTINUOUS
 10
363.7340351343
 20
30.5067596914
 11
363.5027853548
 21
30.5390225267
 12
364.369972524
 22
30.5390225267
 13
364.369972524
 23
30.5390225267
  0
SOLID
  8
0
 62
7
  6
CONTINUOUS
 10
364.369972524
 20
30.5390225267
 11
364.0809101343
 21
30.5067596914
 12
363.7340351343
 22
30.5067596914
 13
363.7340351343
 23
30.5067596914
  0
SOLID
  8
0
 62
7
  6
CONTINUOUS
 10
368.7637229651
 20
30.6680782357
 11
368.4168479651
 21
30.6358138717
 12
368.6480977445
 22
30.7003410226
 13
368.6480977445
 23
30.7003410226
  0
SOLID
  8
0
 62
7
  6
CONTINUOUS
 10
368.6480977445
 20
30.7003410226
 11
368.4168479651
 21
30.6358138717
 12
368.5902854651
 22
30.7648680521
 13
368.5902854651
 23
30.7648680521
  0
SOLID
  8
0
 62
7
  6
CONTINUOUS
 10
368.4168479651
 20
30.6358138717
 11
368.3012227445
 21
30.7648680521
 12
368.5902854651
 22
30.7648680521
 13
368.5902854651
 23
30.7648680521
  0
SOLID
  8
0
 62
7
  6
CONTINUOUS
 10
368.7637229651
 20
30.6680782357
 11
369.1105979651
 21
30.6358138717
 12
368.4168479651
 22
30.6358138717
 13
368.4168479651
 23
30.6358138717
  0
SOLID
  8
0
 62
7
  6
CONTINUOUS
 10
365.4684104651
 20
30.5067597521
 11
365.4684104651
 21
31.5391977439
 12
365.757472524
 22
30.5067597521
 13
365.757472524
 23
31.5391977439
  0
ENDBLK
  8
0
  6
BYBLOCK
 62
0
  0
BLOCK
  8
0
 62
2
  6
CONTINUOUS
  2
SYMBOL_0_BL0
 70
64
 10
240.8592468615
 20
19.762288695
  0
TEXT
  8
0
 62
7
  6
CONTINUOUS
 10
227.1239507038
 20
19.1357028027
  7
TEXTSTYLE_3
 40
2.7338706658
  1
Ammeraal Beltech
 41
1.0
 51
15.0
 72
0
  0
TEXT
  8
0
 62
7
  6
CONTINUOUS
 10
237.9247515296
 20
16.8621661299
  7
TEXTSTYLE_4
 40
1.0935482663
  1
Innovation & Service in Belting
 41
1.0
 72
0
  0
LINE
  8
0
 62
7
  6
CONTINUOUS
 10
221.0994100525
 20
19.9022961113
 11
221.8775620458
 21
23.5632134089
  0
LINE
  8
0
 62
7
  6
CONTINUOUS
 10
231.9727303357
 20
27.2266073205
 11
222.3653797889
 21
24.1049898993
  0
LINE
  8
0
 62
7
  6
CONTINUOUS
 10
221.3246933848
 20
19.2089453082
 11
228.8317686459
 21
12.4495443822
  0
LINE
  8
0
 62
7
  6
CONTINUOUS
 10
221.5872277955
 20
20.4440726016
 11
232.3954971607
 21
23.9558922005
  0
LINE
  8
0
 62
7
  6
CONTINUOUS
 10
232.3912920235
 20
13.6061036368
 11
223.9458323548
 21
21.2104296785
  0
LINE
  8
0
 62
7
  6
CONTINUOUS
 10
232.9111147433
 20
26.3816822048
 11
231.9345552061
 21
21.7873308023
  0
LINE
  8
0
 62
7
  6
CONTINUOUS
 10
231.2347532584
 20
18.4950214885
 11
230.5483050469
 21
15.2655365641
  0
LINE
  8
0
 62
7
  6
CONTINUOUS
 10
233.5922108419
 20
13.9963058145
 11
234.5484423775
 21
18.4950214885
  0
LINE
  8
0
 62
7
  6
CONTINUOUS
 10
235.2482443252
 20
21.7873308023
 11
235.6924861276
 21
23.8773241617
  0
LINE
  8
0
 62
7
  6
CONTINUOUS
 10
229.5448697213
 20
12.2979700695
 11
233.1043930989
 21
13.4545293241
  0
LINE
  8
0
 62
7
  6
CONTINUOUS
 10
232.685831411
 20
27.0750330078
 11
235.4672027953
 21
24.5706749648
  0
ARC
  8
0
 62
7
  6
CONTINUOUS
 10
222.5906631212
 20
23.4116390962
 40
0.7290321776
 50
108.0
 51
168.0
  0
ARC
  8
0
 62
7
  6
CONTINUOUS
 10
232.198013668
 20
26.5332565175
 40
0.7290321776
 50
348.0
 51
108.0
  0
ARC
  8
0
 62
7
  6
CONTINUOUS
 10
234.9793850522
 20
24.0288984744
 40
0.7290321776
 50
348.0
 51
48.0
  0
ARC
  8
0
 62
7
  6
CONTINUOUS
 10
229.319586389
 20
12.9913208726
 40
0.7290321776
 50
228.0
 51
288.0
  0
ARC
  8
0
 62
7
  6
CONTINUOUS
 10
221.8125111278
 20
19.7507217986
 40
0.7290321776
 50
108.0
 51
228.0
  0
ARC
  8
0
 62
7
  6
CONTINUOUS
 10
232.8791097665
 20
14.1478801272
 40
0.7290321776
 50
228.0
 51
348.0
  0
ENDBLK
  8
0
  6
BYBLOCK
 62
0
  0
ENDSEC
  0
SECTION
  2
ENTITIES
  0
TEXT
  8
0
 62
5
  6
CONTINUOUS
 10
304.937007874
 20
25.636
  7
TEXTSTYLE_2
 40
2.8
  1
Scale :
 41
0.6
 51
0.000019
 72
0
  0
TEXT
  8
0
 62
5
  6
CONTINUOUS
 10
324.937007874
 20
25.636
  7
TEXTSTYLE_2
 40
2.8
  1
Belt type:
 41
0.6
 51
0.000019
 72
0
  0
INSERT
  8
0
 62
2
  6
CONTINUOUS
  2
SYMBOL_0_BL0
 10
240.8592468615
 20
19.762288695
  0
INSERT
  8
0
 62
2
  6
CONTINUOUS
  2
SYMBOL_5_BL1
 10
382.7840918555
 20
35.5067593403
  0
LINE
  8
0
 62
2
  6
CONTINUOUS
 10
218.937007874
 20
30.0
 11
408.937007874
 21
30.0
  0
LINE
  8
0
 62
2
  6
CONTINUOUS
 10
218.937007874
 20
30.0
 11
218.937007874
 21
10.0
  0
LINE
  8
0
 62
2
  6
CONTINUOUS
 10
218.937007874
 20
10.0
 11
408.937007874
 21
10.0
  0
LINE
  8
0
 62
2
  6
CONTINUOUS
 10
303.937007874
 20
30.0
 11
303.937007874
 21
10.0
  0
LINE
  8
0
 62
2
  6
CONTINUOUS
 10
323.937007874
 20
30.0
 11
323.937007874
 21
10.0
  0
LINE
  8
0
 62
2
  6
CONTINUOUS
 10
408.937007874
 20
30.0
 11
408.937007874
 21
10.0
  0
TEXT
  8
0
 62
5
  6
CONTINUOUS
 10
221.937007874
 20
23.303
  7
TEXTSTYLE_5
 40
1.52
  1
                                                                     Ammeraal Beltech Modular A/S
 41
1.0
 72
0
  0
TEXT
  8
0
 62
5
  6
CONTINUOUS
 10
221.937007874
 20
20.595
  7
TEXTSTYLE_5
 40
1.5
  1
                                                                      Hjulmagervej 21, 7100 Vejle,  DK
 41
1.0
 72
0
  0
TEXT
  8
0
 62
5
  6
CONTINUOUS
 10
221.937007874
 20
17.881
  7
TEXTSTYLE_5
 40
1.495
  1
                                                                      tel: 
 41
1.0
 72
0
  0
TEXT
  8
0
 62
5
  6
CONTINUOUS
 10
266.9239544389
 20
17.881
  7
TEXTSTYLE_5
 40
1.51
  1
+45 75723100     fax: +45 75723348
 41
1.0
 72
0
  0
TEXT
  8
0
 62
5
  6
CONTINUOUS
 10
221.937007874
 20
15.177
  7
TEXTSTYLE_5
 40
1.5
  1
                                                                      admin@unichains.dk  www.unichains.com
 41
1.0
 72
0
  0
TEXT
  8
0
 62
5
  6
CONTINUOUS
 10
308.687007874
 20
13.75
  7
TEXTSTYLE_6
 40
5.0
  1
1:1
 41
0.7
 72
1
 11
313.937007874
 21
13.75
  0
TEXT
  8
0
 62
5
  6
CONTINUOUS
 10
326.937007874
 20
13.75
  7
TEXTSTYLE_7
 40
7.5
  1
Sprocket Z10
 41
0.6361111111
 72
0
  0
LINE
  8
0
 62
7
  6
CONTINUOUS
 10
0.0
 20
0.0
 11
0.0
 21
297.0
  0
LINE
  8
0
 62
7
  6
CONTINUOUS
 10
8.937007874
 20
10.0
 11
8.937007874
 21
287.0
  0
LINE
  8
0
 62
7
  6
CONTINUOUS
 10
0.0
 20
0.0
 11
420.0
 21
0.0
  0
LINE
  8
0
 62
7
  6
CONTINUOUS
 10
408.937007874
 20
10.0
 11
8.937007874
 21
10.0
  0
LINE
  8
0
 62
7
  6
CONTINUOUS
 10
218.937007874
 20
30.0
 11
408.937007874
 21
30.0
  0
LINE
  8
0
 62
7
  6
CONTINUOUS
 10
210.0
 20
297.0
 11
210.0
 21
292.0
  0
LINE
  8
0
 62
7
  6
CONTINUOUS
 10
210.0
 20
0.0
 11
210.0
 21
5.0
  0
LINE
  8
0
 62
7
  6
CONTINUOUS
 10
8.937007874
 20
287.0
 11
408.937007874
 21
287.0
  0
LINE
  8
0
 62
7
  6
CONTINUOUS
 10
0.0
 20
297.0
 11
420.0
 21
297.0
  0
LINE
  8
0
 62
7
  6
CONTINUOUS
 10
408.937007874
 20
287.0
 11
408.937007874
 21
10.0
  0
LINE
  8
0
 62
7
  6
CONTINUOUS
 10
420.0
 20
0.0
 11
420.0
 21
297.0
  0
LINE
  8
SURFACE
 62
7
  6
CONTINUOUS
 10
52.3051316291
 20
219.8062050674
 11
40.9886928263
 21
184.9777876644
  0
LINE
  8
0
 62
7
  6
CONTINUOUS
 10
33.7396290145
 20
162.667463311
 11
32.7685097793
 21
159.6786656283
  0
LINE
  8
SURFACE
 62
7
  6
CONTINUOUS
 10
99.9391292572
 20
252.1310918645
 11
70.3123078397
 21
230.6059461351
  0
LINE
  8
0
 62
7
  6
CONTINUOUS
 10
51.3340123939
 20
216.8174073847
 11
48.7915892291
 21
214.9702288312
  0
LINE
  8
SURFACE
 62
7
  6
CONTINUOUS
 10
94.2540982331
 20
75.051013311
 11
130.8748634623
 21
75.051013311
  0
LINE
  8
0
 62
7
  6
CONTINUOUS
 10
154.3333267304
 20
75.051013311
 11
157.4759345897
 21
75.051013311
  0
LINE
  8
SURFACE
 62
7
  6
CONTINUOUS
 10
48.7915892291
 20
110.3646977909
 11
78.4184106466
 21
88.8395520615
  0
LINE
  8
0
 62
7
  6
CONTINUOUS
 10
97.3967060924
 20
75.051013311
 11
99.9391292572
 21
73.2038347576
  0
LINE
  8
SURFACE
 62
7
  6
CONTINUOUS
 10
32.7685097793
 20
165.6562609938
 11
44.0849485822
 21
130.8278435908
  0
LINE
  8
0
 62
7
  6
CONTINUOUS
 10
51.3340123939
 20
108.5175192374
 11
52.3051316291
 21
105.5287215547
  0
LINE
  8
0
 62
7
  6
CONTINUOUS
 10
65.2203499056
 20
191.9322631656
 11
65.0042049348
 21
191.4583973448
  0
LINE
  8
0
 62
7
  6
CONTINUOUS
 10
64.1396252523
 20
189.562934502
 11
63.9234803278
 21
189.0890687829
  0
LINE
  8
0
 62
7
  6
CONTINUOUS
 10
66.6576967402
 20
194.7103136667
 11
66.4616500646
 21
194.3426494481
  0
LINE
  8
0
 62
7
  6
CONTINUOUS
 10
66.0205452546
 20
193.5154053508
 11
65.7754869801
 21
193.055825209
  0
LINE
  8
0
 62
7
  6
CONTINUOUS
 10
66.5280231686
 20
197.7197974744
 11
66.2648149259
 21
197.2703660835
  0
LINE
  8
0
 62
7
  6
CONTINUOUS
 10
66.7238088072
 20
197.0015575949
 11
66.9870170499
 21
197.4509889858
  0
LINE
  8
0
 62
7
  6
CONTINUOUS
 10
67.9050050696
 20
196.913371858
 11
67.6417968269
 21
196.4639404671
  0
LINE
  8
0
 62
7
  6
CONTINUOUS
 10
72.5995022922
 20
206.4464806958
 11
72.2174245279
 21
205.9518681382
  0
LINE
  8
0
 62
7
  6
CONTINUOUS
 10
70.4343952044
 20
203.6436765175
 11
70.0523174402
 21
203.14906396
  0
LINE
  8
0
 62
7
  6
CONTINUOUS
 10
78.5458961378
 20
212.8334671099
 11
77.8876834775
 21
212.1658876436
  0
LINE
  8
0
 62
7
  6
CONTINUOUS
 10
75.6936412764
 20
209.9406227561
 11
75.035428616
 21
209.2730432898
  0
LINE
  8
0
 62
7
  6
CONTINUOUS
 10
81.3689158732
 20
215.2973250869
 11
79.4732746522
 21
213.6674341822
  0
LINE
  8
0
 62
7
  6
CONTINUOUS
 10
80.293970215
 20
213.6715790371
 11
81.7946867842
 21
214.9619098548
  0
LINE
  8
0
 62
7
  6
CONTINUOUS
 10
85.3448283243
 20
218.4161823191
 11
83.334856926
 21
216.9295704067
  0
LINE
  8
0
 62
7
  6
CONTINUOUS
 10
84.2169102186
 20
216.7880392592
 11
85.8081382145
 21
217.9649408291
  0
LINE
  8
0
 62
7
  6
CONTINUOUS
 10
100.6066667894
 20
226.788387002
 11
100.0641472725
 21
226.4603398875
  0
LINE
  8
0
 62
7
  6
CONTINUOUS
 10
81.8331993843
 20
215.5562211541
 11
81.3689158732
 21
215.2973250869
  0
LINE
  8
0
 62
7
  6
CONTINUOUS
 10
95.7141321141
 20
224.6734431127
 11
92.0237504624
 21
222.7389713164
  0
LINE
  8
0
 62
7
  6
CONTINUOUS
 10
92.2707043735
 20
222.2678586416
 11
95.499786735
 21
223.9605206331
  0
LINE
  8
0
 62
7
  6
CONTINUOUS
 10
85.8268337173
 20
218.6403633918
 11
85.3448283243
 21
218.4161823191
  0
LINE
  8
0
 62
7
  6
CONTINUOUS
 10
97.8673075266
 20
225.6436175506
 11
97.298529262
 21
225.3845494403
  0
LINE
  8
0
 62
7
  6
CONTINUOUS
 10
67.788537407
 20
189.6159204037
 11
67.7782058272
 21
189.8496155365
  0
LINE
  8
0
 62
7
  6
CONTINUOUS
 10
67.4013790098
 20
189.7925154161
 11
67.3252527257
 21
189.3692741603
  0
LINE
  8
0
 62
7
  6
CONTINUOUS
 10
67.7124110975
 20
189.1926791595
 11
67.788537407
 21
189.6159204037
  0
LINE
  8
0
 62
7
  6
CONTINUOUS
 10
66.4616500646
 20
194.3426494481
 11
66.3594750483
 21
193.924930789
  0
LINE
  8
0
 62
7
  6
CONTINUOUS
 10
66.734961686
 20
193.7247130268
 11
66.8371367023
 21
194.1424316859
  0
LINE
  8
0
 62
7
  6
CONTINUOUS
 10
67.3252527257
 20
189.3692741603
 11
67.1523367614
 21
188.9901815307
  0
LINE
  8
0
 62
7
  6
CONTINUOUS
 10
67.5394951332
 20
188.81358653
 11
67.7124110975
 21
189.1926791595
  0
LINE
  8
0
 62
7
  6
CONTINUOUS
 10
68.1879299221
 20
190.2351837214
 11
68.4040748929
 21
190.7090495422
  0
LINE
  8
0
 62
7
  6
CONTINUOUS
 10
87.3860524966
 20
216.8825718784
 11
87.4902894003
 21
217.0919864194
  0
LINE
  8
0
 62
7
  6
CONTINUOUS
 10
68.7793803448
 20
191.454082971
 11
69.0244386193
 21
191.9136631128
  0
LINE
  8
0
 62
7
  6
CONTINUOUS
 10
69.9066482393
 20
193.5681513075
 11
70.1517063736
 21
194.0277311862
  0
LINE
  8
0
 62
7
  6
CONTINUOUS
 10
70.5793579243
 20
194.7435659895
 11
70.842566167
 21
195.1929973804
  0
LINE
  8
0
 62
7
  6
CONTINUOUS
 10
83.0026408522
 20
214.0363279524
 11
82.8350427511
 21
213.751926015
  0
LINE
  8
0
 62
7
  6
CONTINUOUS
 10
86.8817657764
 20
217.0388681397
 11
86.6937794255
 21
216.7675109631
  0
LINE
  8
0
 62
7
  6
CONTINUOUS
 10
88.21022746
 20
215.2427235204
 11
88.022241109
 21
214.9713663437
  0
LINE
  8
0
 62
7
  6
CONTINUOUS
 10
100.0641472725
 20
226.4603398875
 11
99.6965291474
 21
225.9725110415
  0
LINE
  8
0
 62
7
  6
CONTINUOUS
 10
74.0092179004
 20
200.092441846
 11
74.3912956647
 21
200.5870544036
  0
LINE
  8
0
 62
7
  6
CONTINUOUS
 10
76.1743249882
 20
202.8952460243
 11
76.5564027525
 21
203.3898585818
  0
LINE
  8
0
 62
7
  6
CONTINUOUS
 10
83.1721994067
 20
213.2000199303
 11
83.4977688148
 21
213.620247146
  0
LINE
  8
0
 62
7
  6
CONTINUOUS
 10
67.2697896068
 20
188.4786427184
 11
67.5394951332
 21
188.81358653
  0
LINE
  8
0
 62
7
  6
CONTINUOUS
 10
76.3056211757
 20
206.6476775309
 11
75.3483560595
 21
205.5475044685
  0
LINE
  8
0
 62
7
  6
CONTINUOUS
 10
75.7496349432
 20
205.1983500577
 11
76.7069000595
 21
206.2985231201
  0
LINE
  8
0
 62
7
  6
CONTINUOUS
 10
88.3180521491
 20
214.3962395226
 11
88.673537389
 21
214.7914819779
  0
LINE
  8
0
 62
7
  6
CONTINUOUS
 10
66.8371367023
 20
194.1424316859
 11
67.1270550374
 21
194.4600414639
  0
LINE
  8
0
 62
7
  6
CONTINUOUS
 10
78.5958524361
 20
205.762575768
 11
79.0346608763
 21
206.2076287455
  0
LINE
  8
0
 62
7
  6
CONTINUOUS
 10
80.0585466788
 20
207.2460851271
 11
80.6436257151
 21
207.8394902289
  0
LINE
  8
0
 62
7
  6
CONTINUOUS
 10
81.6675115177
 20
208.8779466105
 11
82.1063199579
 21
209.322999588
  0
LINE
  8
0
 62
7
  6
CONTINUOUS
 10
66.8986033363
 20
194.9360072586
 11
66.6576967402
 21
194.7103136667
  0
LINE
  8
0
 62
7
  6
CONTINUOUS
 10
82.8350427511
 20
213.751926015
 11
81.3343261819
 21
212.4615951973
  0
LINE
  8
0
 62
7
  6
CONTINUOUS
 10
81.750468491
 20
211.9776017518
 11
83.1721994067
 21
213.2000199303
  0
LINE
  8
0
 62
7
  6
CONTINUOUS
 10
82.7330564617
 20
209.8761517403
 11
83.2069667669
 21
210.2836244664
  0
LINE
  8
0
 62
7
  6
CONTINUOUS
 10
112.3369178905
 20
227.7589313251
 11
112.5163416555
 21
227.9090242566
  0
LINE
  8
0
 62
7
  6
CONTINUOUS
 10
86.6937794255
 20
216.7675109631
 11
85.1025514296
 21
215.5906093931
  0
LINE
  8
0
 62
7
  6
CONTINUOUS
 10
85.4821118726
 20
215.0774252675
 11
87.0733398685
 21
216.2543268375
  0
LINE
  8
0
 62
7
  6
CONTINUOUS
 10
88.022241109
 20
214.9713663437
 11
86.4310131131
 21
213.7944647738
  0
LINE
  8
0
 62
7
  6
CONTINUOUS
 10
86.3080807509
 20
212.9096276102
 11
88.3180521491
 21
214.3962395226
  0
LINE
  8
0
 62
7
  6
CONTINUOUS
 10
117.1426770748
 20
228.5751977154
 11
117.332616185
 21
228.7117404191
  0
LINE
  8
0
 62
7
  6
CONTINUOUS
 10
67.1270550374
 20
194.4600414639
 11
67.3189498945
 21
194.5938188697
  0
LINE
  8
0
 62
7
  6
CONTINUOUS
 10
100.3560189152
 20
226.0036171187
 11
100.8016172076
 21
226.2934852733
  0
LINE
  8
0
 62
7
  6
CONTINUOUS
 10
102.6898532226
 20
222.9210818982
 11
102.2442504937
 21
222.631211996
  0
LINE
  8
0
 62
7
  6
CONTINUOUS
 10
111.9375279011
 20
228.1042156338
 11
111.6565530629
 21
227.9309334196
  0
LINE
  8
0
 62
7
  6
CONTINUOUS
 10
112.4348715857
 20
225.9262360201
 11
112.1538967474
 21
225.7529538059
  0
LINE
  8
0
 62
7
  6
CONTINUOUS
 10
102.4392009392
 20
222.136310198
 11
102.9817204526
 21
222.4643573211
  0
LINE
  8
0
 62
7
  6
CONTINUOUS
 10
97.7391544272
 20
220.8103187171
 11
94.6023302345
 21
219.166017801
  0
LINE
  8
0
 62
7
  6
CONTINUOUS
 10
94.3451175035
 20
218.3105116451
 11
98.0354991552
 21
220.2449834413
  0
LINE
  8
0
 62
7
  6
CONTINUOUS
 10
116.7696603966
 20
228.9488180778
 11
116.4767440546
 21
228.7965892957
  0
LINE
  8
0
 62
7
  6
CONTINUOUS
 10
117.1060818426
 20
226.7402514501
 11
116.8131655007
 21
226.5880226681
  0
LINE
  8
0
 62
7
  6
CONTINUOUS
 10
99.3710741442
 20
220.8343233238
 11
99.9398524088
 21
221.0933914341
  0
LINE
  8
0
 62
7
  6
CONTINUOUS
 10
112.1944438721
 20
225.1074846233
 11
112.6785255035
 21
225.3271464734
  0
LINE
  8
0
 62
7
  6
CONTINUOUS
 10
81.7946867842
 20
214.9619098548
 11
82.1009989883
 21
215.0849806437
  0
LINE
  8
0
 62
7
  6
CONTINUOUS
 10
116.8063086838
 20
225.9413175427
 11
117.3051842017
 21
226.1249192088
  0
LINE
  8
0
 62
7
  6
CONTINUOUS
 10
85.8081382145
 20
217.9649408291
 11
86.1226447131
 21
218.0652366306
  0
LINE
  8
0
 62
7
  6
CONTINUOUS
 10
87.0733398685
 20
216.2543268375
 11
87.3878463671
 21
216.3546226389
  0
LINE
  8
0
 62
7
  6
CONTINUOUS
 10
66.3594750483
 20
193.924930789
 11
66.4001835707
 21
193.5490741384
  0
LINE
  8
0
 62
7
  6
CONTINUOUS
 10
66.7756702084
 20
193.3488563762
 11
66.734961686
 21
193.7247130268
  0
LINE
  8
0
 62
7
  6
CONTINUOUS
 10
83.4977688148
 20
213.620247146
 11
83.6056366585
 21
214.1338913166
  0
LINE
  8
0
 62
7
  6
CONTINUOUS
 10
88.673537389
 20
214.7914819779
 11
88.818751106
 21
215.2958417701
  0
LINE
  8
0
 62
7
  6
CONTINUOUS
 10
95.499786735
 20
223.9605206331
 11
93.9499912111
 21
219.0642919908
  0
LINE
  8
0
 62
7
  6
CONTINUOUS
 10
99.6965291474
 20
225.9725110415
 11
99.5227445981
 21
225.5610366199
  0
LINE
  8
0
 62
7
  6
CONTINUOUS
 10
100.1432442823
 20
225.6911230429
 11
100.3560189152
 21
226.0036171187
  0
LINE
  8
0
 62
7
  6
CONTINUOUS
 10
102.9026278556
 20
223.233575974
 11
102.6898532226
 21
222.9210818982
  0
LINE
  8
0
 62
7
  6
CONTINUOUS
 10
102.9817204526
 20
222.4643573211
 11
103.349343004
 21
222.9521879408
  0
LINE
  8
0
 62
7
  6
CONTINUOUS
 10
112.6785255035
 20
225.3271464734
 11
113.0136853483
 21
225.7310446066
  0
LINE
  8
0
 62
7
  6
CONTINUOUS
 10
117.3051842017
 20
226.1249192088
 11
117.6690376367
 21
226.5031737546
  0
LINE
  8
0
 62
7
  6
CONTINUOUS
 10
67.1523367614
 20
188.9901815307
 11
66.7858416252
 21
188.6993864771
  0
LINE
  8
0
 62
7
  6
CONTINUOUS
 10
66.9465234392
 20
188.2826207505
 11
67.2697896068
 21
188.4786427184
  0
LINE
  8
0
 62
7
  6
CONTINUOUS
 10
137.2955349473
 20
227.940069222
 11
137.7569447666
 21
228.1902106981
  0
LINE
  8
0
 62
7
  6
CONTINUOUS
 10
67.2333815919
 20
195.1116464099
 11
66.8986033363
 21
194.9360072586
  0
LINE
  8
0
 62
7
  6
CONTINUOUS
 10
145.5802023163
 20
227.8217966995
 11
145.9424547225
 21
227.9299576261
  0
LINE
  8
0
 62
7
  6
CONTINUOUS
 10
145.456649722
 20
226.7448239096
 11
144.7321449096
 21
226.5285020565
  0
LINE
  8
0
 62
7
  6
CONTINUOUS
 10
145.0326256083
 20
226.0981752864
 11
145.3948780145
 21
226.2063362129
  0
LINE
  8
0
 62
7
  6
CONTINUOUS
 10
146.4679500956
 20
224.0794738943
 11
146.1056976894
 21
223.9713129677
  0
LINE
  8
0
 62
7
  6
CONTINUOUS
 10
66.4001835707
 20
193.5490741384
 11
66.4899035517
 21
193.265133148
  0
LINE
  8
0
 62
7
  6
CONTINUOUS
 10
66.8653901895
 20
193.0649153858
 11
66.7756702084
 21
193.3488563762
  0
LINE
  8
0
 62
7
  6
CONTINUOUS
 10
67.3374867987
 20
190.165132347
 11
67.4013790098
 21
189.7925154161
  0
LINE
  8
0
 62
7
  6
CONTINUOUS
 10
83.6056366585
 20
214.1338913166
 11
83.5651636051
 21
214.6602899767
  0
LINE
  8
0
 62
7
  6
CONTINUOUS
 10
87.4902894003
 20
217.0919864194
 11
87.4884955297
 21
217.6199356589
  0
LINE
  8
0
 62
7
  6
CONTINUOUS
 10
83.0218962484
 20
214.3334828248
 11
83.0026408522
 21
214.0363279524
  0
LINE
  8
0
 62
7
  6
CONTINUOUS
 10
86.9227426063
 20
217.3338133684
 11
86.8817657764
 21
217.0388681397
  0
LINE
  8
0
 62
7
  6
CONTINUOUS
 10
88.2512042456
 20
215.5376688089
 11
88.21022746
 21
215.2427235204
  0
LINE
  8
0
 62
7
  6
CONTINUOUS
 10
99.9895088687
 20
224.944528347
 11
100.1432442823
 21
225.6911230429
  0
LINE
  8
0
 62
7
  6
CONTINUOUS
 10
97.298529262
 20
225.3845494403
 11
97.038427858
 21
224.4477881595
  0
LINE
  8
0
 62
7
  6
CONTINUOUS
 10
97.3912015365
 20
223.6732814075
 11
97.6513028169
 21
224.6100429596
  0
LINE
  8
0
 62
7
  6
CONTINUOUS
 10
94.6023302345
 20
219.166017801
 11
96.0598675896
 21
224.0138853679
  0
LINE
  8
0
 62
7
  6
CONTINUOUS
 10
103.349343004
 20
222.9521879408
 11
103.5231275397
 21
223.363662397
  0
LINE
  8
0
 62
7
  6
CONTINUOUS
 10
112.5163416555
 20
227.9090242566
 11
112.7262674031
 21
228.3934463844
  0
LINE
  8
0
 62
7
  6
CONTINUOUS
 10
117.332616185
 20
228.7117404191
 11
117.5774723251
 21
229.1794786879
  0
LINE
  8
0
 62
7
  6
CONTINUOUS
 10
112.0932686359
 20
228.3580218698
 11
111.9375279011
 21
228.1042156338
  0
LINE
  8
0
 62
7
  6
CONTINUOUS
 10
112.5906123039
 20
226.1800423288
 11
112.4348715857
 21
225.9262360201
  0
LINE
  8
0
 62
7
  6
CONTINUOUS
 10
116.9435794395
 20
229.1905306104
 11
116.7696603966
 21
228.9488180778
  0
LINE
  8
0
 62
7
  6
CONTINUOUS
 10
117.2800008744
 20
226.9819640564
 11
117.1060818426
 21
226.7402514501
  0
LINE
  8
0
 62
7
  6
CONTINUOUS
 10
137.7569447666
 20
228.1902106981
 11
138.1320820238
 21
228.5617018227
  0
LINE
  8
0
 62
7
  6
CONTINUOUS
 10
137.5313733543
 20
228.7644120343
 11
137.2923639409
 21
228.5868020813
  0
LINE
  8
0
 62
7
  6
CONTINUOUS
 10
145.4112122458
 20
228.321972642
 11
144.984539061
 21
228.0110327591
  0
LINE
  8
0
 62
7
  6
CONTINUOUS
 10
144.769653441
 20
225.958474054
 11
145.0326256083
 21
226.0981752864
  0
LINE
  8
0
 62
7
  6
CONTINUOUS
 10
66.5264677019
 20
188.1307475836
 11
66.9465234392
 21
188.2826207505
  0
LINE
  8
0
 62
7
  6
CONTINUOUS
 10
67.5191481084
 20
195.1953693752
 11
67.2333815919
 21
195.1116464099
  0
LINE
  8
0
 62
7
  6
CONTINUOUS
 10
67.3189498945
 20
194.5938188697
 11
67.604716411
 21
194.6775418349
  0
LINE
  8
0
 62
7
  6
CONTINUOUS
 10
67.7782058272
 20
189.8496155365
 11
67.6175239189
 21
190.2663811013
  0
LINE
  8
0
 62
7
  6
CONTINUOUS
 10
73.0712261691
 20
203.0546717731
 11
74.0092179004
 21
200.092441846
  0
LINE
  8
0
 62
7
  6
CONTINUOUS
 10
72.2174245279
 20
205.9518681382
 11
72.9255076054
 21
203.5621160731
  0
LINE
  8
0
 62
7
  6
CONTINUOUS
 10
74.3912956647
 20
200.5870544036
 11
73.6832118585
 21
202.9768055253
  0
LINE
  8
0
 62
7
  6
CONTINUOUS
 10
73.4533039333
 20
203.5492843306
 11
72.5995022922
 21
206.4464806958
  0
LINE
  8
0
 62
7
  6
CONTINUOUS
 10
88.818751106
 20
215.2958417701
 11
88.8169572133
 21
215.8237910395
  0
LINE
  8
0
 62
7
  6
CONTINUOUS
 10
99.5227445981
 20
225.5610366199
 11
99.4848669203
 21
225.0887590648
  0
LINE
  8
0
 62
7
  6
CONTINUOUS
 10
103.0563589145
 20
223.9801687144
 11
102.9026278556
 21
223.233575974
  0
LINE
  8
0
 62
7
  6
CONTINUOUS
 10
113.0136853483
 20
225.7310446066
 11
113.2236110876
 21
226.2154667707
  0
LINE
  8
0
 62
7
  6
CONTINUOUS
 10
117.6690376367
 20
226.5031737546
 11
117.9138937712
 21
226.9709120602
  0
LINE
  8
0
 62
7
  6
CONTINUOUS
 10
145.2850197597
 20
227.580705989
 11
145.5802023163
 21
227.8217966995
  0
LINE
  8
0
 62
7
  6
CONTINUOUS
 10
146.7631326747
 20
224.3205646758
 11
146.4679500956
 21
224.0794738943
  0
LINE
  8
0
 62
7
  6
CONTINUOUS
 10
146.6369401548
 20
223.5792979162
 11
147.0636133509
 21
223.8902378347
  0
LINE
  8
0
 62
7
  6
CONTINUOUS
 10
67.1335759287
 20
190.4871248639
 11
67.3374867987
 21
190.165132347
  0
LINE
  8
0
 62
7
  6
CONTINUOUS
 10
99.4848669203
 20
225.0887590648
 11
99.5049204926
 21
224.7536405381
  0
LINE
  8
0
 62
7
  6
CONTINUOUS
 10
103.5610051902
 20
223.8359400214
 11
103.5409517271
 21
224.1710582708
  0
LINE
  8
SURFACE
 62
7
  6
CONTINUOUS
 10
103.8551693604
 20
262.7250383923
 11
103.8551693604
 21
259.816753311
  0
LINE
  8
0
 62
7
  6
CONTINUOUS
 10
103.8551693604
 20
65.518173311
 11
103.8551693604
 21
62.6098882298
  0
LINE
  8
0
 62
7
  6
CONTINUOUS
 10
103.5231275397
 20
223.363662397
 11
103.5610051902
 21
223.8359400214
  0
LINE
  8
0
 62
7
  6
CONTINUOUS
 10
112.1237706185
 20
228.6923510662
 11
112.0932686359
 21
228.3580218698
  0
LINE
  8
0
 62
7
  6
CONTINUOUS
 10
112.7262674031
 20
228.3934463844
 11
112.7567693856
 21
228.7277755808
  0
LINE
  8
0
 62
7
  6
CONTINUOUS
 10
112.6211142864
 20
226.5143715251
 11
112.5906123039
 21
226.1800423288
  0
LINE
  8
0
 62
7
  6
CONTINUOUS
 10
113.2236110876
 20
226.2154667707
 11
113.2541130536
 21
226.5497960397
  0
LINE
  8
0
 62
7
  6
CONTINUOUS
 10
116.9984964695
 20
229.5217261754
 11
116.9435794395
 21
229.1905306104
  0
LINE
  8
0
 62
7
  6
CONTINUOUS
 10
117.5774723251
 20
229.1794786879
 11
117.6323893551
 21
229.5106742529
  0
LINE
  8
0
 62
7
  6
CONTINUOUS
 10
117.3349179043
 20
227.3131596214
 11
117.2800008744
 21
226.9819640564
  0
LINE
  8
0
 62
7
  6
CONTINUOUS
 10
117.9138937712
 20
226.9709120602
 11
117.96881079
 21
227.3021076989
  0
LINE
  8
0
 62
7
  6
CONTINUOUS
 10
137.6841196252
 20
229.0633701461
 11
137.5313733543
 21
228.7644120343
  0
LINE
  8
0
 62
7
  6
CONTINUOUS
 10
138.1320820238
 20
228.5617018227
 11
138.2848282947
 21
228.8606599345
  0
LINE
  8
0
 62
7
  6
CONTINUOUS
 10
140.0808296357
 20
226.7345164394
 11
141.6552798289
 21
229.3133442663
  0
LINE
  8
0
 62
7
  6
CONTINUOUS
 10
139.1816120937
 20
225.198316502
 11
139.8813708169
 21
226.3444614216
  0
LINE
  8
0
 62
7
  6
CONTINUOUS
 10
141.3479481234
 20
229.8234720965
 11
138.5734486168
 21
225.3424073947
  0
LINE
  8
0
 62
7
  6
CONTINUOUS
 10
145.0891082627
 20
227.3080775762
 11
145.2850197597
 21
227.580705989
  0
LINE
  8
0
 62
7
  6
CONTINUOUS
 10
144.5737419891
 20
225.6858457832
 11
144.769653441
 21
225.958474054
  0
LINE
  8
0
 62
7
  6
CONTINUOUS
 10
146.9590440815
 20
224.5931928046
 11
146.7631326747
 21
224.3205646758
  0
LINE
  8
SURFACE
 62
7
  6
CONTINUOUS
 10
166.8710431165
 20
256.5528054695
 11
165.1615960363
 21
254.1999534143
  0
LINE
  8
0
 62
7
  6
CONTINUOUS
 10
50.9557561709
 20
97.0091002114
 11
49.2463090906
 21
94.6562481561
  0
LINE
  8
0
 62
7
  6
CONTINUOUS
 10
144.984539061
 20
228.0110327591
 11
144.6249356356
 21
227.5671628082
  0
LINE
  8
0
 62
7
  6
CONTINUOUS
 10
147.0636133509
 20
223.8902378347
 11
147.4232167086
 21
224.3341075726
  0
LINE
  8
DEFAULT_3
 62
2
  6
PHANTOM
 10
113.3653742825
 20
180.1137933654
 11
108.418686357
 21
175.1671054399
  0
LINE
  8
DEFAULT_3
 62
2
  6
PHANTOM
 10
121.7327117289
 20
186.218389112
 11
117.4900710418
 21
181.9757484249
  0
LINE
  8
DEFAULT_3
 62
2
  6
PHANTOM
 10
102.3140906104
 20
166.7997679935
 11
106.5567312975
 21
171.0424086806
  0
LINE
  8
SURFACE
 62
7
  6
CONTINUOUS
 10
214.2240084148
 20
214.5195628876
 11
211.458064937
 21
213.620853373
  0
LINE
  8
0
 62
7
  6
CONTINUOUS
 10
26.6691343211
 20
153.5792901701
 11
23.9031908433
 21
152.6805806555
  0
LINE
  8
SURFACE
 62
7
  6
CONTINUOUS
 10
23.9031908433
 20
172.6543459666
 11
26.6691343211
 21
171.755636452
  0
LINE
  8
0
 62
7
  6
CONTINUOUS
 10
211.458064937
 20
111.7140732491
 11
214.2240084148
 21
110.8153637345
  0
LINE
  8
DEFAULT_3
 62
2
  6
PHANTOM
 10
108.418686357
 20
150.1678211822
 11
113.3653742825
 21
145.2211332567
  0
LINE
  8
DEFAULT_3
 62
2
  6
PHANTOM
 10
117.4900710418
 20
143.3591781972
 11
121.7327117289
 21
139.1165375101
  0
LINE
  8
DEFAULT_3
 62
2
  6
PHANTOM
 10
106.5567312975
 20
154.2925179415
 11
102.3140906104
 21
158.5351586286
  0
LINE
  8
SURFACE
 62
7
  6
CONTINUOUS
 10
49.2463090906
 20
230.678678466
 11
50.9557561709
 21
228.3258264107
  0
LINE
  8
0
 62
7
  6
CONTINUOUS
 10
165.1615960363
 20
71.1349732078
 11
166.8710431165
 21
68.7821211526
  0
LINE
  8
0
 62
7
  6
CONTINUOUS
 10
77.8876834775
 20
212.1658876436
 11
79.9723176976
 21
207.9162416775
  0
LINE
  8
0
 62
7
  6
CONTINUOUS
 10
80.6436257151
 20
207.8394902289
 11
78.8646245903
 21
211.641506238
  0
LINE
  8
0
 62
7
  6
CONTINUOUS
 10
82.8928107473
 20
214.6433921867
 11
83.0218962484
 21
214.3334828248
  0
LINE
  8
0
 62
7
  6
CONTINUOUS
 10
83.5651636051
 20
214.6602899767
 11
83.4360781041
 21
214.9701993387
  0
LINE
  8
0
 62
7
  6
CONTINUOUS
 10
86.816711832
 20
217.6523480668
 11
86.9227426063
 21
217.3338133684
  0
LINE
  8
0
 62
7
  6
CONTINUOUS
 10
87.4884955297
 20
217.6199356589
 11
87.3824647554
 21
217.9384703573
  0
LINE
  8
0
 62
7
  6
CONTINUOUS
 10
88.1451734712
 20
215.8562035073
 11
88.2512042456
 21
215.5376688089
  0
LINE
  8
0
 62
7
  6
CONTINUOUS
 10
88.8169572133
 20
215.8237910395
 11
88.7109263947
 21
216.1423257978
  0
LINE
  8
0
 62
7
  6
CONTINUOUS
 10
144.6249356356
 20
227.5671628082
 11
144.3001826717
 21
226.8889767667
  0
LINE
  8
0
 62
7
  6
CONTINUOUS
 10
144.7965656881
 20
226.7312810129
 11
145.0891082627
 21
227.3080775762
  0
LINE
  8
0
 62
7
  6
CONTINUOUS
 10
100.1265325826
 20
224.3124690603
 11
99.9895088687
 21
224.944528347
  0
LINE
  8
0
 62
7
  6
CONTINUOUS
 10
102.9193395825
 20
224.6122298873
 11
103.0563589145
 21
223.9801687144
  0
LINE
  8
0
 62
7
  6
CONTINUOUS
 10
99.5049204926
 20
224.7536405381
 11
99.6029496864
 21
224.2205598496
  0
LINE
  8
0
 62
7
  6
CONTINUOUS
 10
103.5409517271
 20
224.1710582708
 11
103.4429180422
 21
224.7041373504
  0
LINE
  8
0
 62
2
  6
CONTINUOUS
 10
125.8650164114
 20
163.717463311
 11
125.8650164114
 21
161.617463311
  0
LINE
  8
DEFAULT_1
 62
2
  6
CENTER
 10
125.8650164114
 20
157.417463311
 11
125.8650164114
 21
58.3134832949
  0
LINE
  8
DEFAULT_1
 62
2
  6
CENTER
 10
125.8650164114
 20
167.917463311
 11
125.8650164114
 21
267.0214433272
  0
LINE
  8
0
 62
7
  6
CONTINUOUS
 10
134.7272511799
 20
231.0388866677
 11
133.9461850082
 21
226.1002698942
  0
LINE
  8
0
 62
7
  6
CONTINUOUS
 10
134.5635121049
 20
226.0026366227
 11
134.9124991227
 21
228.2092526592
  0
LINE
  8
0
 62
7
  6
CONTINUOUS
 10
135.0122096859
 20
228.8397142998
 11
135.2614861405
 21
230.4158686957
  0
LINE
  8
0
 62
7
  6
CONTINUOUS
 10
144.3001826717
 20
226.8889767667
 11
144.0747099467
 21
226.1792504194
  0
LINE
  8
0
 62
7
  6
CONTINUOUS
 10
144.7321449096
 20
226.5285020565
 11
144.7965656881
 21
226.7312810129
  0
LINE
  8
0
 62
7
  6
CONTINUOUS
 10
144.4771108213
 20
225.3816773487
 11
144.5737419891
 21
225.6858457832
  0
LINE
  8
0
 62
2
  6
CONTINUOUS
 10
126.9150164114
 20
162.667463311
 11
124.8150164114
 21
162.667463311
  0
LINE
  8
DEFAULT_1
 62
2
  6
CENTER
 10
120.6150164114
 20
162.667463311
 11
21.5110363953
 21
162.667463311
  0
LINE
  8
DEFAULT_1
 62
2
  6
CENTER
 10
131.1150164114
 20
162.667463311
 11
230.2189964275
 21
162.667463311
  0
LINE
  8
0
 62
7
  6
CONTINUOUS
 10
63.9234803278
 20
189.0890687829
 11
65.8592721528
 21
188.2060937946
  0
LINE
  8
0
 62
7
  6
CONTINUOUS
 10
66.0754170773
 20
188.6799595138
 11
64.1396252523
 21
189.562934502
  0
LINE
  8
0
 62
7
  6
CONTINUOUS
 10
65.0042049348
 20
191.4583973448
 11
67.1335759287
 21
190.4871248639
  0
LINE
  8
0
 62
7
  6
CONTINUOUS
 10
67.7368793052
 20
190.7843956685
 11
65.2203499056
 21
191.9322631656
  0
LINE
  8
0
 62
7
  6
CONTINUOUS
 10
65.7754869801
 20
193.055825209
 11
68.7793803448
 21
191.454082971
  0
LINE
  8
0
 62
7
  6
CONTINUOUS
 10
69.0244386193
 20
191.9136631128
 11
66.8653901895
 21
193.0649153858
  0
LINE
  8
0
 62
7
  6
CONTINUOUS
 10
66.4899035517
 20
193.265133148
 11
66.0205452546
 21
193.5154053508
  0
LINE
  8
0
 62
7
  6
CONTINUOUS
 10
68.1230864471
 20
194.5191858183
 11
69.9066482393
 21
193.5681513075
  0
LINE
  8
0
 62
7
  6
CONTINUOUS
 10
70.1517063736
 20
194.0277311862
 11
68.3681445814
 21
194.978765697
  0
LINE
  8
0
 62
7
  6
CONTINUOUS
 10
66.2648149259
 20
197.2703660835
 11
66.7238088072
 21
197.0015575949
  0
LINE
  8
0
 62
7
  6
CONTINUOUS
 10
67.6417968269
 20
196.4639404671
 11
70.5793579243
 21
194.7435659895
  0
LINE
  8
0
 62
7
  6
CONTINUOUS
 10
70.842566167
 20
195.1929973804
 11
67.9050050696
 21
196.913371858
  0
LINE
  8
0
 62
7
  6
CONTINUOUS
 10
66.9870170499
 20
197.4509889858
 11
66.5280231686
 21
197.7197974744
  0
LINE
  8
0
 62
7
  6
CONTINUOUS
 10
75.3483560595
 20
205.5475044685
 11
75.7496349432
 21
205.1983500577
  0
LINE
  8
0
 62
7
  6
CONTINUOUS
 10
76.7069000595
 20
206.2985231201
 11
76.3056211757
 21
206.6476775309
  0
LINE
  8
0
 62
7
  6
CONTINUOUS
 10
75.035428616
 20
209.2730432898
 11
78.5958524361
 21
205.762575768
  0
LINE
  8
0
 62
7
  6
CONTINUOUS
 10
79.0346608763
 20
206.2076287455
 11
76.2317739489
 21
208.971188373
  0
LINE
  8
0
 62
7
  6
CONTINUOUS
 10
78.8646245903
 20
211.641506238
 11
81.6675115177
 21
208.8779466105
  0
LINE
  8
0
 62
7
  6
CONTINUOUS
 10
79.4732746522
 20
213.6674341822
 11
82.7330564617
 21
209.8761517403
  0
LINE
  8
0
 62
7
  6
CONTINUOUS
 10
83.2069667669
 20
210.2836244664
 11
81.750468491
 21
211.9776017518
  0
LINE
  8
0
 62
7
  6
CONTINUOUS
 10
81.3343261819
 20
212.4615951973
 11
80.293970215
 21
213.6715790371
  0
LINE
  8
0
 62
7
  6
CONTINUOUS
 10
82.6847393985
 20
214.8853891355
 11
82.8928107473
 21
214.6433921867
  0
LINE
  8
0
 62
7
  6
CONTINUOUS
 10
83.334856926
 20
216.9295704067
 11
86.3080807509
 21
212.9096276102
  0
LINE
  8
0
 62
7
  6
CONTINUOUS
 10
86.4310131131
 20
213.7944647738
 11
85.4821118726
 21
215.0774252675
  0
LINE
  8
0
 62
7
  6
CONTINUOUS
 10
85.1025514296
 20
215.5906093931
 11
84.2169102186
 21
216.7880392592
  0
LINE
  8
0
 62
7
  6
CONTINUOUS
 10
86.6901916843
 20
217.823409442
 11
86.816711832
 21
217.6523480668
  0
LINE
  8
0
 62
7
  6
CONTINUOUS
 10
87.9553932497
 20
216.1127955701
 11
88.1451734712
 21
215.8562035073
  0
LINE
  8
0
 62
7
  6
CONTINUOUS
 10
92.0237504624
 20
222.7389713164
 11
92.2707043735
 21
222.2678586416
  0
LINE
  8
0
 62
7
  6
CONTINUOUS
 10
93.9499912111
 20
219.0642919908
 11
94.3451175035
 21
218.3105116451
  0
LINE
  8
0
 62
7
  6
CONTINUOUS
 10
97.038427858
 20
224.4477881595
 11
97.3912015365
 21
223.6732814075
  0
LINE
  8
0
 62
7
  6
CONTINUOUS
 10
97.6513028169
 20
224.6100429596
 11
99.3710741442
 21
220.8343233238
  0
LINE
  8
0
 62
7
  6
CONTINUOUS
 10
99.9398524088
 20
221.0933914341
 11
97.8673075266
 21
225.6436175506
  0
LINE
  8
0
 62
7
  6
CONTINUOUS
 10
99.6029496864
 20
224.2205598496
 11
99.9538604392
 21
223.329736738
  0
LINE
  8
0
 62
7
  6
CONTINUOUS
 10
100.3994631682
 20
223.6196066402
 11
100.1265325826
 21
224.3124690603
  0
LINE
  8
0
 62
7
  6
CONTINUOUS
 10
102.646408997
 20
225.3050923074
 11
102.9193395825
 21
224.6122298873
  0
LINE
  8
0
 62
7
  6
CONTINUOUS
 10
108.644078371
 20
229.425459242
 11
109.7571809244
 21
224.5509333466
  0
LINE
  8
0
 62
7
  6
CONTINUOUS
 10
110.2243984634
 20
225.3123510657
 11
109.8691529602
 21
226.8680508521
  0
LINE
  8
0
 62
7
  6
CONTINUOUS
 10
109.7270547788
 20
227.4903306794
 11
109.3954922893
 21
228.9423172339
  0
LINE
  8
0
 62
7
  6
CONTINUOUS
 10
112.076404558
 20
228.8997776753
 11
112.1237706185
 21
228.6923510662
  0
LINE
  8
0
 62
7
  6
CONTINUOUS
 10
112.5500651957
 20
226.8255114388
 11
112.6211142864
 21
226.5143715251
  0
LINE
  8
0
 62
7
  6
CONTINUOUS
 10
113.5818741593
 20
230.5078284643
 11
114.3348174102
 21
225.5648459172
  0
LINE
  8
0
 62
7
  6
CONTINUOUS
 10
114.8565698138
 20
226.2899828706
 11
114.6162687713
 21
227.8675305249
  0
LINE
  8
0
 62
7
  6
CONTINUOUS
 10
114.5201483677
 20
228.4985494982
 11
114.2958673812
 21
229.9709273973
  0
LINE
  8
0
 62
7
  6
CONTINUOUS
 10
116.9664563349
 20
229.7320658332
 11
116.9984964695
 21
229.5217261754
  0
LINE
  8
0
 62
7
  6
CONTINUOUS
 10
117.2868577026
 20
227.6286691081
 11
117.3349179043
 21
227.3131596214
  0
LINE
  8
0
 62
7
  6
CONTINUOUS
 10
137.7339749534
 20
229.3786012608
 11
137.6841196252
 21
229.0633701461
  0
LINE
  8
0
 62
7
  6
CONTINUOUS
 10
138.2848282947
 20
228.8606599345
 11
138.3513020501
 21
229.2809679893
  0
LINE
  8
0
 62
7
  6
CONTINUOUS
 10
144.0747099467
 20
226.1792504194
 11
143.9485174156
 21
225.4379836243
  0
LINE
  8
0
 62
7
  6
CONTINUOUS
 10
147.0556752493
 20
224.8973612391
 11
146.9590440815
 21
224.5931928046
  0
LINE
  8
0
 62
7
  6
CONTINUOUS
 10
147.4232167086
 20
224.3341075726
 11
147.5842687002
 21
224.8410551055
  0
LINE
  8
0
 62
7
  6
CONTINUOUS
 10
82.1063199579
 20
209.322999588
 11
78.5458961378
 21
212.8334671099
  0
LINE
  8
0
 62
7
  6
CONTINUOUS
 10
83.4360781041
 20
214.9701993387
 11
83.1586497037
 21
215.2928618617
  0
LINE
  8
0
 62
7
  6
CONTINUOUS
 10
88.7109263947
 20
216.1423257978
 11
88.3946260255
 21
216.5699792359
  0
LINE
  8
0
 62
7
  6
CONTINUOUS
 10
87.3824647554
 20
217.9384703573
 11
87.1294242829
 21
218.2805933473
  0
LINE
  8
0
 62
7
  6
CONTINUOUS
 10
99.9538604392
 20
223.329736738
 11
100.2457321365
 21
222.8730138306
  0
LINE
  8
0
 62
7
  6
CONTINUOUS
 10
100.7303205125
 20
223.0639016394
 11
100.3994631682
 21
223.6196066402
  0
LINE
  8
0
 62
7
  6
CONTINUOUS
 10
98.0354991552
 20
220.2449834413
 11
97.7391544272
 21
220.8103187171
  0
LINE
  8
0
 62
7
  6
CONTINUOUS
 10
96.0598675896
 20
224.0138853679
 11
95.7141321141
 21
224.6734431127
  0
LINE
  8
0
 62
7
  6
CONTINUOUS
 10
103.4429180422
 20
224.7041373504
 11
103.0920072893
 21
225.594960462
  0
LINE
  8
0
 62
7
  6
CONTINUOUS
 10
113.2541130536
 20
226.5497960397
 11
113.1356979024
 21
227.0683625625
  0
LINE
  8
0
 62
7
  6
CONTINUOUS
 10
112.7567693856
 20
228.7277755808
 11
112.6620371984
 21
229.1426290896
  0
LINE
  8
0
 62
7
  6
CONTINUOUS
 10
117.96881079
 20
227.3021076989
 11
117.8887104537
 21
227.8279568433
  0
LINE
  8
0
 62
7
  6
CONTINUOUS
 10
117.6323893551
 20
229.5106742529
 11
117.5683090412
 21
229.9313538631
  0
LINE
  8
0
 62
7
  6
CONTINUOUS
 10
144.4797598923
 20
225.0459686084
 11
144.4771108213
 21
225.3816773487
  0
LINE
  8
DEFAULT_3
 62
2
  6
PHANTOM
 10
149.4159422124
 20
158.5351586286
 11
145.1733015253
 21
154.2925179415
  0
LINE
  8
DEFAULT_3
 62
2
  6
PHANTOM
 10
129.9973210938
 20
139.1165375101
 11
134.239961781
 21
143.3591781972
  0
LINE
  8
0
 62
7
  6
CONTINUOUS
 10
66.4090148218
 20
188.6422864322
 11
66.0754170773
 21
188.6799595138
  0
LINE
  8
0
 62
7
  6
CONTINUOUS
 10
65.8592721528
 20
188.2060937946
 11
66.2896595457
 21
188.1242719273
  0
LINE
  8
0
 62
7
  6
CONTINUOUS
 10
68.1672666387
 20
190.7025737157
 11
67.7368793052
 21
190.7843956685
  0
LINE
  8
0
 62
7
  6
CONTINUOUS
 10
67.604716411
 20
194.6775418349
 11
68.1230864471
 21
194.5191858183
  0
LINE
  8
0
 62
7
  6
CONTINUOUS
 10
68.3681445814
 20
194.978765697
 11
67.8497748257
 21
195.1371222396
  0
LINE
  8
0
 62
7
  6
CONTINUOUS
 10
79.9723176976
 20
207.9162416775
 11
75.6936412764
 21
209.9406227561
  0
LINE
  8
DEFAULT_3
 62
2
  6
PHANTOM
 10
145.1733015253
 20
171.0424086806
 11
149.4159422124
 21
166.7997679935
  0
LINE
  8
DEFAULT_3
 62
2
  6
PHANTOM
 10
134.239961781
 20
181.9757484249
 11
129.9973210938
 21
186.218389112
  0
LINE
  8
DEFAULT_3
 62
2
  6
PHANTOM
 10
138.3646585403
 20
180.1137933654
 11
143.3113464657
 21
175.1671054399
  0
LINE
  8
0
 62
7
  6
CONTINUOUS
 10
100.2457321365
 20
222.8730138306
 11
100.4596191753
 21
222.6142500056
  0
LINE
  8
0
 62
7
  6
CONTINUOUS
 10
103.0920072893
 20
225.594960462
 11
102.8001400832
 21
226.0516849784
  0
LINE
  8
0
 62
7
  6
CONTINUOUS
 10
102.3155472706
 20
225.8607954219
 11
102.646408997
 21
225.3050923074
  0
LINE
  8
0
 62
7
  6
CONTINUOUS
 10
142.6278748894
 20
224.3818007105
 11
142.158829666
 21
229.6313516391
  0
LINE
  8
0
 62
7
  6
CONTINUOUS
 10
141.9085793133
 20
225.8641591788
 11
142.0197114125
 21
224.5258916032
  0
LINE
  8
0
 62
7
  6
CONTINUOUS
 10
141.6552798289
 20
229.3133442663
 11
141.9053200664
 21
226.3022437613
  0
LINE
  8
0
 62
7
  6
CONTINUOUS
 10
143.9485174156
 20
225.4379836243
 11
143.9860168353
 21
224.8679584384
  0
LINE
  8
0
 62
7
  6
CONTINUOUS
 10
147.5842687002
 20
224.8410551055
 11
147.5467692578
 21
225.4110802204
  0
LINE
  8
0
 62
7
  6
CONTINUOUS
 10
147.0530262234
 20
225.2330701214
 11
147.0556752493
 21
224.8973612391
  0
LINE
  8
0
 62
7
  6
CONTINUOUS
 10
147.9655044087
 20
226.7291437208
 11
147.9628553376
 21
227.0648524612
  0
LINE
  8
SURFACE
 62
7
  6
CONTINUOUS
 10
147.8748634623
 20
62.6098882298
 11
147.8748634623
 21
65.518173311
  0
LINE
  8
0
 62
7
  6
CONTINUOUS
 10
147.8748634623
 20
259.816753311
 11
147.8748634623
 21
262.7250383923
  0
LINE
  8
SURFACE
 62
7
  6
CONTINUOUS
 10
84.8589897063
 20
68.7821211526
 11
86.5684367865
 21
71.1349732078
  0
LINE
  8
0
 62
7
  6
CONTINUOUS
 10
200.7742766519
 20
228.3258264107
 11
202.4837237321
 21
230.678678466
  0
LINE
  8
DEFAULT_3
 62
2
  6
PHANTOM
 10
143.3113464657
 20
150.1678211822
 11
138.3646585403
 21
145.2211332567
  0
LINE
  8
SURFACE
 62
7
  6
CONTINUOUS
 10
37.506024408
 20
110.8153637345
 11
40.2719678858
 21
111.7140732491
  0
LINE
  8
0
 62
7
  6
CONTINUOUS
 10
225.0608985017
 20
171.755636452
 11
227.8268419795
 21
172.6543459666
  0
LINE
  8
0
 62
7
  6
CONTINUOUS
 10
66.2896595457
 20
188.1242719273
 11
66.5264677019
 21
188.1307475836
  0
LINE
  8
0
 62
7
  6
CONTINUOUS
 10
68.4040748929
 20
190.7090495422
 11
68.1672666387
 21
190.7025737157
  0
LINE
  8
0
 62
7
  6
CONTINUOUS
 10
67.6175239189
 20
190.2663811013
 11
68.1879299221
 21
190.2351837214
  0
LINE
  8
0
 62
7
  6
CONTINUOUS
 10
67.8497748257
 20
195.1371222396
 11
67.5191481084
 21
195.1953693752
  0
LINE
  8
SURFACE
 62
7
  6
CONTINUOUS
 10
227.8268419795
 20
152.6805806555
 11
225.0608985017
 21
153.5792901701
  0
LINE
  8
0
 62
7
  6
CONTINUOUS
 10
40.2719678858
 20
213.620853373
 11
37.506024408
 21
214.5195628876
  0
LINE
  8
0
 62
7
  6
CONTINUOUS
 10
76.2317739489
 20
208.971188373
 11
80.0585466788
 21
207.2460851271
  0
LINE
  8
0
 62
7
  6
CONTINUOUS
 10
82.3976825905
 20
215.0594732191
 11
82.6847393985
 21
214.8853891355
  0
LINE
  8
0
 62
7
  6
CONTINUOUS
 10
83.1586497037
 20
215.2928618617
 11
82.8715928957
 21
215.4669459453
  0
LINE
  8
0
 62
7
  6
CONTINUOUS
 10
87.6818634924
 20
216.3074451172
 11
87.9553932497
 21
216.1127955701
  0
LINE
  8
0
 62
7
  6
CONTINUOUS
 10
88.3946260255
 20
216.5699792359
 11
88.1210962681
 21
216.7646287829
  0
LINE
  8
0
 62
7
  6
CONTINUOUS
 10
86.4166618384
 20
218.0180591088
 11
86.6901916843
 21
217.823409442
  0
LINE
  8
0
 62
7
  6
CONTINUOUS
 10
87.1294242829
 20
218.2805933473
 11
86.8558946141
 21
218.4752427745
  0
LINE
  8
0
 62
7
  6
CONTINUOUS
 10
100.4596191753
 20
222.6142500056
 11
100.8094175496
 21
222.2946847255
  0
LINE
  8
0
 62
7
  6
CONTINUOUS
 10
102.8001400832
 20
226.0516849784
 11
102.5862529352
 21
226.3104490806
  0
LINE
  8
SURFACE
 62
7
  6
CONTINUOUS
 10
202.4837237321
 20
94.6562481561
 11
200.7742766519
 21
97.0091002114
  0
LINE
  8
0
 62
7
  6
CONTINUOUS
 10
86.5684367865
 20
254.1999534143
 11
84.8589897063
 21
256.5528054695
  0
LINE
  8
0
 62
7
  6
CONTINUOUS
 10
112.3774649986
 20
227.1134622151
 11
112.5500651957
 21
226.8255114388
  0
LINE
  8
0
 62
7
  6
CONTINUOUS
 10
113.1356979024
 20
227.0683625625
 11
112.9630977053
 21
227.3563133388
  0
LINE
  8
0
 62
7
  6
CONTINUOUS
 10
111.9038043277
 20
229.1877285969
 11
112.076404558
 21
228.8997776753
  0
LINE
  8
0
 62
7
  6
CONTINUOUS
 10
112.6620371984
 20
229.1426290896
 11
112.4894370344
 21
229.4305797206
  0
LINE
  8
0
 62
7
  6
CONTINUOUS
 10
117.1358202466
 20
227.9284926637
 11
117.2868577026
 21
227.6286691081
  0
LINE
  8
0
 62
7
  6
CONTINUOUS
 10
117.8887104537
 20
227.8279568433
 11
117.7376729977
 21
228.127780399
  0
LINE
  8
0
 62
7
  6
CONTINUOUS
 10
116.8154188565
 20
230.0318895361
 11
116.9664563349
 21
229.7320658332
  0
LINE
  8
0
 62
7
  6
CONTINUOUS
 10
117.5683090412
 20
229.9313538631
 11
117.4172716077
 21
230.2311772714
  0
LINE
  8
0
 62
7
  6
CONTINUOUS
 10
137.6809392457
 20
229.7101047896
 11
137.7339749534
 21
229.3786012608
  0
LINE
  8
0
 62
7
  6
CONTINUOUS
 10
138.3513020501
 20
229.2809679893
 11
138.2982663424
 21
229.6124715181
  0
LINE
  8
0
 62
7
  6
CONTINUOUS
 10
66.7858416252
 20
188.6993864771
 11
66.4090148218
 21
188.6422864322
  0
LINE
  8
0
 62
7
  6
CONTINUOUS
 10
70.0523174402
 20
203.14906396
 11
73.0712261691
 21
203.0546717731
  0
LINE
  8
0
 62
7
  6
CONTINUOUS
 10
73.6832118585
 20
202.9768055253
 11
76.1743249882
 21
202.8952460243
  0
LINE
  8
0
 62
7
  6
CONTINUOUS
 10
72.9255076054
 20
203.5621160731
 11
70.4343952044
 21
203.6436765175
  0
LINE
  8
0
 62
7
  6
CONTINUOUS
 10
76.5564027525
 20
203.3898585818
 11
73.4533039333
 21
203.5492843306
  0
LINE
  8
0
 62
7
  6
CONTINUOUS
 10
88.1210962681
 20
216.7646287829
 11
87.616809548
 21
216.9209250442
  0
LINE
  8
0
 62
7
  6
CONTINUOUS
 10
101.3519370664
 20
222.62273184
 11
100.7303205125
 21
223.0639016394
  0
LINE
  8
0
 62
7
  6
CONTINUOUS
 10
101.6939350714
 20
226.301967177
 11
102.3155472706
 21
225.8607954219
  0
LINE
  8
0
 62
7
  6
CONTINUOUS
 10
112.9630977053
 20
227.3563133388
 11
112.563707716
 21
227.7015976475
  0
LINE
  8
0
 62
7
  6
CONTINUOUS
 10
102.5862529352
 20
226.3104490806
 11
102.2364545882
 21
226.6300142914
  0
LINE
  8
0
 62
7
  6
CONTINUOUS
 10
117.7376729977
 20
228.127780399
 11
117.3646563195
 21
228.5014007613
  0
LINE
  8
0
 62
7
  6
CONTINUOUS
 10
143.9860168353
 20
224.8679584384
 11
144.1550068946
 21
224.3677824604
  0
LINE
  8
0
 62
7
  6
CONTINUOUS
 10
144.5816800907
 20
224.6787223788
 11
144.4797598923
 21
225.0459686084
  0
LINE
  8
0
 62
7
  6
CONTINUOUS
 10
147.3671920823
 20
227.2540885207
 11
147.4691123032
 21
226.8868423622
  0
LINE
  8
0
 62
7
  6
CONTINUOUS
 10
82.1009989883
 20
215.0849806437
 11
82.3976825905
 21
215.0594732191
  0
LINE
  8
0
 62
7
  6
CONTINUOUS
 10
87.3878463671
 20
216.3546226389
 11
87.6818634924
 21
216.3074451172
  0
LINE
  8
0
 62
7
  6
CONTINUOUS
 10
86.1226447131
 20
218.0652366306
 11
86.4166618384
 21
218.0180591088
  0
LINE
  8
0
 62
7
  6
CONTINUOUS
 10
82.8715928957
 20
215.4669459453
 11
82.3572095371
 21
215.5858718792
  0
LINE
  8
0
 62
7
  6
CONTINUOUS
 10
86.8558946141
 20
218.4752427745
 11
86.351607894
 21
218.6315390359
  0
LINE
  8
0
 62
7
  6
CONTINUOUS
 10
100.8094175496
 20
222.2946847255
 11
101.2171426144
 21
222.112277038
  0
LINE
  8
0
 62
7
  6
CONTINUOUS
 10
102.2364545882
 20
226.6300142914
 11
101.828729537
 21
226.8124219442
  0
LINE
  8
0
 62
7
  6
CONTINUOUS
 10
112.126992143
 20
227.2745091973
 11
112.3774649986
 21
227.1134622151
  0
LINE
  8
0
 62
7
  6
CONTINUOUS
 10
111.6533314721
 20
229.3487755791
 11
111.9038043277
 21
229.1877285969
  0
LINE
  8
0
 62
7
  6
CONTINUOUS
 10
116.8978209346
 20
228.1074594467
 11
117.1358202466
 21
227.9284926637
  0
LINE
  8
0
 62
7
  6
CONTINUOUS
 10
116.5774195446
 20
230.2108563191
 11
116.8154188565
 21
230.0318895361
  0
LINE
  8
0
 62
7
  6
CONTINUOUS
 10
112.4894370344
 20
229.4305797206
 11
112.0900470451
 21
229.7758640292
  0
LINE
  8
0
 62
7
  6
CONTINUOUS
 10
117.4172716077
 20
230.2311772714
 11
117.0442549294
 21
230.6047976338
  0
LINE
  8
0
 62
7
  6
CONTINUOUS
 10
137.5084035411
 20
229.952802597
 11
137.6809392457
 21
229.7101047896
  0
LINE
  8
0
 62
7
  6
CONTINUOUS
 10
138.2982663424
 20
229.6124715181
 11
138.0560765028
 21
230.0815959142
  0
LINE
  8
0
 62
7
  6
CONTINUOUS
 10
146.9188956132
 20
225.4989268018
 11
147.0530262234
 21
225.2330701214
  0
LINE
  8
0
 62
7
  6
CONTINUOUS
 10
147.5467692578
 20
225.4110802204
 11
147.345568798
 21
225.8098666848
  0
LINE
  8
0
 62
7
  6
CONTINUOUS
 10
147.9628553376
 20
227.0648524612
 11
147.7938652671
 21
227.5650284037
  0
LINE
  8
0
 62
7
  6
CONTINUOUS
 10
146.043916873
 20
223.4328280964
 11
146.6369401548
 21
223.5792979162
  0
LINE
  8
0
 62
7
  6
CONTINUOUS
 10
146.00422643
 20
228.4684453228
 11
145.4112122458
 21
228.321972642
  0
LINE
  8
0
 62
7
  6
CONTINUOUS
 10
87.616809548
 20
216.9209250442
 11
87.3860524966
 21
216.8825718784
  0
LINE
  8
0
 62
7
  6
CONTINUOUS
 10
82.3572095371
 20
215.5858718792
 11
81.8331993843
 21
215.5562211541
  0
LINE
  8
0
 62
7
  6
CONTINUOUS
 10
86.351607894
 20
218.6315390359
 11
85.8268337173
 21
218.6403633918
  0
LINE
  8
0
 62
7
  6
CONTINUOUS
 10
101.2171426144
 20
222.112277038
 11
101.8187012516
 21
222.0062237837
  0
LINE
  8
0
 62
7
  6
CONTINUOUS
 10
101.828729537
 20
226.8124219442
 11
101.2271664735
 21
226.9184734249
  0
LINE
  8
0
 62
7
  6
CONTINUOUS
 10
101.720672034
 20
222.5393045329
 11
101.3519370664
 21
222.62273184
  0
LINE
  8
0
 62
7
  6
CONTINUOUS
 10
101.3252001038
 20
226.3853944841
 11
101.6939350714
 21
226.301967177
  0
LINE
  8
0
 62
7
  6
CONTINUOUS
 10
112.563707716
 20
227.7015976475
 11
112.3369178905
 21
227.7589313251
  0
LINE
  8
0
 62
7
  6
CONTINUOUS
 10
117.3646563195
 20
228.5014007613
 11
117.1426770748
 21
228.5751977154
  0
LINE
  8
0
 62
7
  6
CONTINUOUS
 10
112.0900470451
 20
229.7758640292
 11
111.6127890127
 21
229.9942457507
  0
LINE
  8
0
 62
7
  6
CONTINUOUS
 10
117.0442549294
 20
230.6047976338
 11
116.5842810867
 21
230.8575620889
  0
LINE
  8
0
 62
7
  6
CONTINUOUS
 10
138.0560765028
 20
230.0815959142
 11
137.6943772468
 21
230.4619160788
  0
LINE
  8
0
 62
7
  6
CONTINUOUS
 10
144.1550068946
 20
224.3677824604
 11
144.5547587347
 21
223.9059182454
  0
LINE
  8
0
 62
7
  6
CONTINUOUS
 10
147.345568798
 20
225.8098666848
 11
146.9458078603
 21
226.2717337607
  0
LINE
  8
0
 62
7
  6
CONTINUOUS
 10
147.7938652671
 20
227.5650284037
 11
147.3941134185
 21
228.026892592
  0
LINE
  8
0
 62
7
  6
CONTINUOUS
 10
144.8150909398
 20
224.3813253926
 11
144.5816800907
 21
224.6787223788
  0
LINE
  8
0
 62
7
  6
CONTINUOUS
 10
146.6854847641
 20
225.796323788
 11
146.9188956132
 21
225.4989268018
  0
LINE
  8
0
 62
7
  6
CONTINUOUS
 10
147.1337812332
 20
227.5514855069
 11
147.3671920823
 21
227.2540885207
  0
LINE
  8
0
 62
7
  6
CONTINUOUS
 10
109.7571809244
 20
224.5509333466
 11
112.1944438721
 21
225.1074846233
  0
LINE
  8
0
 62
7
  6
CONTINUOUS
 10
112.1538967474
 20
225.7529538059
 11
110.2243984634
 21
225.3123510657
  0
LINE
  8
0
 62
7
  6
CONTINUOUS
 10
109.8691529602
 20
226.8680508521
 11
111.7986512443
 21
227.3086535923
  0
LINE
  8
0
 62
7
  6
CONTINUOUS
 10
111.6565530629
 20
227.9309334196
 11
109.7270547788
 21
227.4903306794
  0
LINE
  8
0
 62
7
  6
CONTINUOUS
 10
109.3954922893
 20
228.9423172339
 11
111.3249905734
 21
229.3829199741
  0
LINE
  8
0
 62
7
  6
CONTINUOUS
 10
111.0813413188
 20
229.9820105187
 11
108.644078371
 21
229.425459242
  0
LINE
  8
0
 62
7
  6
CONTINUOUS
 10
101.8187012516
 20
222.0062237837
 11
102.4392009392
 21
222.136310198
  0
LINE
  8
0
 62
7
  6
CONTINUOUS
 10
101.2271664735
 20
226.9184734249
 11
100.6066667894
 21
226.788387002
  0
LINE
  8
0
 62
7
  6
CONTINUOUS
 10
102.2442504937
 20
222.631211996
 11
101.720672034
 21
222.5393045329
  0
LINE
  8
0
 62
7
  6
CONTINUOUS
 10
100.8016172076
 20
226.2934852733
 11
101.3252001038
 21
226.3853944841
  0
LINE
  8
0
 62
7
  6
CONTINUOUS
 10
137.2923639409
 20
228.5868020813
 11
136.9670819653
 21
228.5305417769
  0
LINE
  8
0
 62
7
  6
CONTINUOUS
 10
114.3348174102
 20
225.5648459172
 11
116.8063086838
 21
225.9413175427
  0
LINE
  8
0
 62
7
  6
CONTINUOUS
 10
116.8131655007
 20
226.5880226681
 11
114.8565698138
 21
226.2899828706
  0
LINE
  8
0
 62
7
  6
CONTINUOUS
 10
114.6162687713
 20
227.8675305249
 11
116.5728644582
 21
228.1655703224
  0
LINE
  8
0
 62
7
  6
CONTINUOUS
 10
116.4767440546
 20
228.7965892957
 11
114.5201483677
 21
228.4985494982
  0
LINE
  8
0
 62
7
  6
CONTINUOUS
 10
114.2958673812
 20
229.9709273973
 11
116.2524630681
 21
230.2689671948
  0
LINE
  8
0
 62
7
  6
CONTINUOUS
 10
116.0533654328
 20
230.8843000898
 11
113.5818741593
 21
230.5078284643
  0
LINE
  8
0
 62
7
  6
CONTINUOUS
 10
136.7644804128
 20
227.9163528448
 11
137.2955349473
 21
227.940069222
  0
LINE
  8
0
 62
7
  6
CONTINUOUS
 10
111.6127890127
 20
229.9942457507
 11
111.0813413188
 21
229.9820105187
  0
LINE
  8
0
 62
7
  6
CONTINUOUS
 10
146.1056976894
 20
223.9713129677
 11
145.7756556724
 21
223.9645415193
  0
LINE
  8
0
 62
7
  6
CONTINUOUS
 10
145.3948780145
 20
226.2063362129
 11
145.7249200315
 21
226.2131076613
  0
LINE
  8
0
 62
7
  6
CONTINUOUS
 10
145.9424547225
 20
227.9299576261
 11
146.2724967395
 21
227.9367290745
  0
LINE
  8
0
 62
7
  6
CONTINUOUS
 10
116.5842810867
 20
230.8575620889
 11
116.0533654328
 21
230.8843000898
  0
LINE
  8
0
 62
7
  6
CONTINUOUS
 10
111.7986512443
 20
227.3086535923
 11
112.126992143
 21
227.2745091973
  0
LINE
  8
0
 62
7
  6
CONTINUOUS
 10
111.3249905734
 20
229.3829199741
 11
111.6533314721
 21
229.3487755791
  0
LINE
  8
0
 62
7
  6
CONTINUOUS
 10
145.5153234645
 20
223.4891343631
 11
146.043916873
 21
223.4328280964
  0
LINE
  8
0
 62
7
  6
CONTINUOUS
 10
145.9852522168
 20
226.6885147465
 11
145.456649722
 21
226.7448239096
  0
LINE
  8
0
 62
7
  6
CONTINUOUS
 10
146.5328289248
 20
228.4121361596
 11
146.00422643
 21
228.4684453228
  0
LINE
  8
0
 62
7
  6
CONTINUOUS
 10
133.9461850082
 20
226.1002698942
 11
134.5635121049
 21
226.0026366227
  0
LINE
  8
0
 62
7
  6
CONTINUOUS
 10
134.9124991227
 20
228.2092526592
 11
136.7644804128
 21
227.9163528448
  0
LINE
  8
0
 62
7
  6
CONTINUOUS
 10
136.9670819653
 20
228.5305417769
 11
135.0122096859
 21
228.8397142998
  0
LINE
  8
0
 62
7
  6
CONTINUOUS
 10
135.2614861405
 20
230.4158686957
 11
137.2163584199
 21
230.1066961728
  0
LINE
  8
0
 62
7
  6
CONTINUOUS
 10
137.1965595666
 20
230.6483535818
 11
134.7272511799
 21
231.0388866677
  0
LINE
  8
0
 62
7
  6
CONTINUOUS
 10
116.5728644582
 20
228.1655703224
 11
116.8978209346
 21
228.1074594467
  0
LINE
  8
0
 62
7
  6
CONTINUOUS
 10
116.2524630681
 20
230.2689671948
 11
116.5774195446
 21
230.2108563191
  0
LINE
  8
0
 62
7
  6
CONTINUOUS
 10
138.5734486168
 20
225.3424073947
 11
139.1816120937
 21
225.198316502
  0
LINE
  8
0
 62
7
  6
CONTINUOUS
 10
142.0197114125
 20
224.5258916032
 11
142.6278748894
 21
224.3818007105
  0
LINE
  8
0
 62
7
  6
CONTINUOUS
 10
139.8813708169
 20
226.3444614216
 11
141.9085793133
 21
225.8641591788
  0
LINE
  8
0
 62
7
  6
CONTINUOUS
 10
141.9053200664
 20
226.3022437613
 11
140.0808296357
 21
226.7345164394
  0
LINE
  8
0
 62
7
  6
CONTINUOUS
 10
142.158829666
 20
229.6313516391
 11
141.3479481234
 21
229.8234720965
  0
LINE
  8
0
 62
7
  6
CONTINUOUS
 10
145.0189404481
 20
223.646830117
 11
145.5153234645
 21
223.4891343631
  0
LINE
  8
0
 62
7
  6
CONTINUOUS
 10
145.7756556724
 20
223.9645415193
 11
145.0807121782
 21
224.1853178847
  0
LINE
  8
0
 62
7
  6
CONTINUOUS
 10
145.7249200315
 20
226.2131076613
 11
146.4198635257
 21
225.992331296
  0
LINE
  8
0
 62
7
  6
CONTINUOUS
 10
146.4816352332
 20
226.5308189927
 11
145.9852522168
 21
226.6885147465
  0
LINE
  8
0
 62
7
  6
CONTINUOUS
 10
147.4691123032
 20
226.8868423622
 11
147.9655044087
 21
226.7291437208
  0
LINE
  8
0
 62
7
  6
CONTINUOUS
 10
146.2724967395
 20
227.9367290745
 11
146.8681599948
 21
227.7474930149
  0
LINE
  8
0
 62
7
  6
CONTINUOUS
 10
146.9299317023
 20
228.2859807116
 11
146.5328289248
 21
228.4121361596
  0
LINE
  8
0
 62
7
  6
CONTINUOUS
 10
137.6943772468
 20
230.4619160788
 11
137.1965595666
 21
230.6483535818
  0
LINE
  8
0
 62
7
  6
CONTINUOUS
 10
137.2163584199
 20
230.1066961728
 11
137.5084035411
 21
229.952802597
  0
LINE
  8
0
 62
7
  6
CONTINUOUS
 10
144.5547587347
 20
223.9059182454
 11
145.0189404481
 21
223.646830117
  0
LINE
  8
0
 62
7
  6
CONTINUOUS
 10
146.9458078603
 20
226.2717337607
 11
146.4816352332
 21
226.5308189927
  0
LINE
  8
0
 62
7
  6
CONTINUOUS
 10
147.3941134185
 20
228.026892592
 11
146.9299317023
 21
228.2859807116
  0
LINE
  8
0
 62
7
  6
CONTINUOUS
 10
145.0807121782
 20
224.1853178847
 11
144.8150909398
 21
224.3813253926
  0
LINE
  8
0
 62
7
  6
CONTINUOUS
 10
146.4198635257
 20
225.992331296
 11
146.6854847641
 21
225.796323788
  0
LINE
  8
0
 62
7
  6
CONTINUOUS
 10
146.8681599948
 20
227.7474930149
 11
147.1337812332
 21
227.5514855069
  0
LINE
  8
SURFACE
 62
7
  6
CONTINUOUS
 10
199.4249011936
 20
105.5287215547
 11
210.7413399965
 21
140.3571389577
  0
LINE
  8
0
 62
7
  6
CONTINUOUS
 10
217.9904038082
 20
162.667463311
 11
218.9615230434
 21
165.6562609938
  0
LINE
  8
SURFACE
 62
7
  6
CONTINUOUS
 10
157.4759345897
 20
250.283913311
 11
120.8551693604
 21
250.283913311
  0
LINE
  8
0
 62
7
  6
CONTINUOUS
 10
97.3967060924
 20
250.283913311
 11
94.2540982331
 21
250.283913311
  0
LINE
  8
SURFACE
 62
7
  6
CONTINUOUS
 10
202.9384435936
 20
214.9702288312
 11
173.3116221762
 21
236.4953745606
  0
LINE
  8
0
 62
7
  6
CONTINUOUS
 10
154.3333267304
 20
250.283913311
 11
151.7909035656
 21
252.1310918645
  0
LINE
  8
SURFACE
 62
7
  6
CONTINUOUS
 10
218.9615230434
 20
159.6786656283
 11
207.6450842406
 21
194.5070830313
  0
LINE
  8
0
 62
7
  6
CONTINUOUS
 10
200.3960204288
 20
216.8174073847
 11
199.4249011936
 21
219.8062050674
  0
LINE
  8
SURFACE
 62
7
  6
CONTINUOUS
 10
151.7909035655
 20
73.2038347576
 11
181.417724983
 21
94.728980487
  0
LINE
  8
0
 62
7
  6
CONTINUOUS
 10
200.3960204288
 20
108.5175192374
 11
202.9384435936
 21
110.3646977909
  0
POLYLINE
  8
SURFACE
 62
7
  6
CONTINUOUS
 66
1
 70
0
  0
VERTEX
  8
SURFACE
 62
7
  6
CONTINUOUS
 10
322.3436237106
 20
61.5098892584
  0
VERTEX
  8
SURFACE
 62
7
  6
CONTINUOUS
 10
322.3761131866
 20
61.5104171773
  0
VERTEX
  8
SURFACE
 62
7
  6
CONTINUOUS
 10
322.4098864527
 20
61.5120870352
  0
VERTEX
  8
SURFACE
 62
7
  6
CONTINUOUS
 10
322.4431973829
 20
61.5148590349
  0
VERTEX
  8
SURFACE
 62
7
  6
CONTINUOUS
 10
322.4760190573
 20
61.5186922137
  0
VERTEX
  8
SURFACE
 62
7
  6
CONTINUOUS
 10
322.5083270546
 20
61.523546023
  0
VERTEX
  8
SURFACE
 62
7
  6
CONTINUOUS
 10
322.5400993308
 20
61.5293804249
  0
VERTEX
  8
SURFACE
 62
7
  6
CONTINUOUS
 10
322.5713160993
 20
61.5361559773
  0
VERTEX
  8
SURFACE
 62
7
  6
CONTINUOUS
 10
322.6019597116
 20
61.5438339114
  0
VERTEX
  8
SURFACE
 62
7
  6
CONTINUOUS
 10
322.63201454
 20
61.5523761984
  0
VERTEX
  8
SURFACE
 62
7
  6
CONTINUOUS
 10
322.6614668623
 20
61.5617456087
  0
VERTEX
  8
SURFACE
 62
7
  6
CONTINUOUS
 10
322.690304749
 20
61.5719057632
  0
VERTEX
  8
SURFACE
 62
7
  6
CONTINUOUS
 10
322.7185179525
 20
61.5828211767
  0
VERTEX
  8
SURFACE
 62
7
  6
CONTINUOUS
 10
322.7460977995
 20
61.5944572947
  0
VERTEX
  8
SURFACE
 62
7
  6
CONTINUOUS
 10
322.773037087
 20
61.6067805235
  0
VERTEX
  8
SURFACE
 62
7
  6
CONTINUOUS
 10
322.7993299807
 20
61.6197582551
  0
VERTEX
  8
SURFACE
 62
7
  6
CONTINUOUS
 10
322.8249719173
 20
61.6333588852
  0
VERTEX
  8
SURFACE
 62
7
  6
CONTINUOUS
 10
322.8499595091
 20
61.6475518275
  0
VERTEX
  8
SURFACE
 62
7
  6
CONTINUOUS
 10
322.8742904528
 20
61.6623075222
  0
VERTEX
  8
SURFACE
 62
7
  6
CONTINUOUS
 10
322.8979634409
 20
61.6775974405
  0
VERTEX
  8
SURFACE
 62
7
  6
CONTINUOUS
 10
322.920978078
 20
61.6933940848
  0
VERTEX
  8
SURFACE
 62
7
  6
CONTINUOUS
 10
322.9433347983
 20
61.7096709856
  0
VERTEX
  8
SURFACE
 62
7
  6
CONTINUOUS
 10
322.965034789
 20
61.7264026949
  0
VERTEX
  8
SURFACE
 62
7
  6
CONTINUOUS
 10
322.9860799147
 20
61.7435647758
  0
VERTEX
  8
SURFACE
 62
7
  6
CONTINUOUS
 10
323.0064726471
 20
61.7611337907
  0
VERTEX
  8
SURFACE
 62
7
  6
CONTINUOUS
 10
323.0262157462
 20
61.7790870512
  0
VERTEX
  8
SURFACE
 62
7
  6
CONTINUOUS
 10
323.0453094141
 20
61.7973997979
  0
VERTEX
  8
SURFACE
 62
7
  6
CONTINUOUS
 10
323.063752588
 20
61.816045776
  0
VERTEX
  8
SURFACE
 62
7
  6
CONTINUOUS
 10
323.0815451106
 20
61.8349991026
  0
VERTEX
  8
SURFACE
 62
7
  6
CONTINUOUS
 10
323.0986877377
 20
61.8542343303
  0
VERTEX
  8
SURFACE
 62
7
  6
CONTINUOUS
 10
323.1151821037
 20
61.8737264726
  0
VERTEX
  8
SURFACE
 62
7
  6
CONTINUOUS
 10
323.1310306863
 20
61.8934510265
  0
VERTEX
  8
SURFACE
 62
7
  6
CONTINUOUS
 10
323.1462367724
 20
61.9133839938
  0
VERTEX
  8
SURFACE
 62
7
  6
CONTINUOUS
 10
323.160804422
 20
61.9335019005
  0
VERTEX
  8
SURFACE
 62
7
  6
CONTINUOUS
 10
323.1747384333
 20
61.9537818125
  0
VERTEX
  8
SURFACE
 62
7
  6
CONTINUOUS
 10
323.1880443057
 20
61.9742013494
  0
VERTEX
  8
SURFACE
 62
7
  6
CONTINUOUS
 10
323.2007282032
 20
61.994738693
  0
VERTEX
  8
SURFACE
 62
7
  6
CONTINUOUS
 10
323.2127969155
 20
62.0153725905
  0
VERTEX
  8
SURFACE
 62
7
  6
CONTINUOUS
 10
323.2242578182
 20
62.0360823486
  0
VERTEX
  8
SURFACE
 62
7
  6
CONTINUOUS
 10
323.2351188296
 20
62.0568478169
  0
VERTEX
  8
SURFACE
 62
7
  6
CONTINUOUS
 10
323.2453883657
 20
62.0776493515
  0
VERTEX
  8
SURFACE
 62
7
  6
CONTINUOUS
 10
323.2550751468
 20
62.0984674384
  0
VERTEX
  8
SURFACE
 62
7
  6
CONTINUOUS
 10
323.2641853509
 20
62.1192759131
  0
VERTEX
  8
SURFACE
 62
7
  6
CONTINUOUS
 10
323.2727237405
 20
62.1400424903
  0
VERTEX
  8
SURFACE
 62
7
  6
CONTINUOUS
 10
323.2806968075
 20
62.1607351415
  0
VERTEX
  8
SURFACE
 62
7
  6
CONTINUOUS
 10
323.2881127912
 20
62.1813223957
  0
VERTEX
  8
SURFACE
 62
7
  6
CONTINUOUS
 10
323.2949815923
 20
62.2017734262
  0
VERTEX
  8
SURFACE
 62
7
  6
CONTINUOUS
 10
323.3013146359
 20
62.2220579755
  0
VERTEX
  8
SURFACE
 62
7
  6
CONTINUOUS
 10
323.3071246247
 20
62.2421458149
  0
VERTEX
  8
SURFACE
 62
7
  6
CONTINUOUS
 10
323.3124251003
 20
62.262005146
  0
VERTEX
  8
SURFACE
 62
7
  6
CONTINUOUS
 10
323.3172296385
 20
62.2815985654
  0
VERTEX
  8
SURFACE
 62
7
  6
CONTINUOUS
 10
323.3215464523
 20
62.3008552663
  0
VERTEX
  8
SURFACE
 62
7
  6
CONTINUOUS
 10
323.3253939137
 20
62.3197341905
  0
VERTEX
  8
SURFACE
 62
7
  6
CONTINUOUS
 10
323.3287996681
 20
62.3382371252
  0
VERTEX
  8
SURFACE
 62
7
  6
CONTINUOUS
 10
323.3317910797
 20
62.35637369
  0
VERTEX
  8
SURFACE
 62
7
  6
CONTINUOUS
 10
323.3343835396
 20
62.3740799574
  0
VERTEX
  8
SURFACE
 62
7
  6
CONTINUOUS
 10
323.3365547805
 20
62.3909481587
  0
VERTEX
  8
SURFACE
 62
7
  6
CONTINUOUS
 10
323.3383631357
 20
62.4070959711
  0
VERTEX
  8
SURFACE
 62
7
  6
CONTINUOUS
 10
323.3398883595
 20
62.4229908127
  0
VERTEX
  8
SURFACE
 62
7
  6
CONTINUOUS
 10
323.3410790924
 20
62.4376950864
  0
VERTEX
  8
SURFACE
 62
7
  6
CONTINUOUS
 10
323.3419504679
 20
62.4504814742
  0
VERTEX
  8
SURFACE
 62
7
  6
CONTINUOUS
 10
323.3923600404
 20
63.3317863552
  0
SEQEND
  0
LINE
  8
SURFACE
 62
7
  6
CONTINUOUS
 10
322.3436284592
 20
61.5098882298
 11
311.5823304158
 21
61.5098882298
  0
LINE
  8
0
 62
7
  6
CONTINUOUS
 10
300.8210323723
 20
61.5098882298
 11
311.5823304158
 21
61.5098882298
  0
POLYLINE
  8
SURFACE
 62
7
  6
CONTINUOUS
 66
1
 70
0
  0
VERTEX
  8
SURFACE
 62
7
  6
CONTINUOUS
 10
322.3438563697
 20
68.3286857018
  0
VERTEX
  8
SURFACE
 62
7
  6
CONTINUOUS
 10
322.3632058106
 20
68.3288729155
  0
VERTEX
  8
SURFACE
 62
7
  6
CONTINUOUS
 10
322.4063851048
 20
68.3306424951
  0
VERTEX
  8
SURFACE
 62
7
  6
CONTINUOUS
 10
322.4488209714
 20
68.3342096229
  0
VERTEX
  8
SURFACE
 62
7
  6
CONTINUOUS
 10
322.4904578236
 20
68.3394898254
  0
VERTEX
  8
SURFACE
 62
7
  6
CONTINUOUS
 10
322.5312465912
 20
68.3463997583
  0
VERTEX
  8
SURFACE
 62
7
  6
CONTINUOUS
 10
322.5711443153
 20
68.3548575177
  0
VERTEX
  8
SURFACE
 62
7
  6
CONTINUOUS
 10
322.6101137476
 20
68.3647829095
  0
VERTEX
  8
SURFACE
 62
7
  6
CONTINUOUS
 10
322.6481229557
 20
68.3760976803
  0
VERTEX
  8
SURFACE
 62
7
  6
CONTINUOUS
 10
322.6851449381
 20
68.388725711
  0
VERTEX
  8
SURFACE
 62
7
  6
CONTINUOUS
 10
322.7211572495
 20
68.4025931789
  0
VERTEX
  8
SURFACE
 62
7
  6
CONTINUOUS
 10
322.7561416326
 20
68.4176286854
  0
VERTEX
  8
SURFACE
 62
7
  6
CONTINUOUS
 10
322.790083673
 20
68.4337633609
  0
VERTEX
  8
SURFACE
 62
7
  6
CONTINUOUS
 10
322.8229724628
 20
68.4509309429
  0
VERTEX
  8
SURFACE
 62
7
  6
CONTINUOUS
 10
322.8548002764
 20
68.46906783
  0
VERTEX
  8
SURFACE
 62
7
  6
CONTINUOUS
 10
322.8855622611
 20
68.4881131151
  0
VERTEX
  8
SURFACE
 62
7
  6
CONTINUOUS
 10
322.9152561409
 20
68.5080085998
  0
VERTEX
  8
SURFACE
 62
7
  6
CONTINUOUS
 10
322.9438819359
 20
68.52869879
  0
VERTEX
  8
SURFACE
 62
7
  6
CONTINUOUS
 10
322.9714416942
 20
68.5501308771
  0
VERTEX
  8
SURFACE
 62
7
  6
CONTINUOUS
 10
322.9979392397
 20
68.5722547036
  0
VERTEX
  8
SURFACE
 62
7
  6
CONTINUOUS
 10
323.0233799178
 20
68.5950227027
  0
VERTEX
  8
SURFACE
 62
7
  6
CONTINUOUS
 10
323.047767109
 20
68.6183866014
  0
VERTEX
  8
SURFACE
 62
7
  6
CONTINUOUS
 10
323.0710984395
 20
68.6422924381
  0
VERTEX
  8
SURFACE
 62
7
  6
CONTINUOUS
 10
323.0933730144
 20
68.6666862631
  0
VERTEX
  8
SURFACE
 62
7
  6
CONTINUOUS
 10
323.1145924409
 20
68.6915152285
  0
VERTEX
  8
SURFACE
 62
7
  6
CONTINUOUS
 10
323.134760713
 20
68.7167276863
  0
VERTEX
  8
SURFACE
 62
7
  6
CONTINUOUS
 10
323.1538840937
 20
68.7422732791
  0
VERTEX
  8
SURFACE
 62
7
  6
CONTINUOUS
 10
323.1719709938
 20
68.7681030192
  0
VERTEX
  8
SURFACE
 62
7
  6
CONTINUOUS
 10
323.1890318413
 20
68.7941693453
  0
VERTEX
  8
SURFACE
 62
7
  6
CONTINUOUS
 10
323.2050789355
 20
68.8204261405
  0
VERTEX
  8
SURFACE
 62
7
  6
CONTINUOUS
 10
323.2201262779
 20
68.8468286788
  0
VERTEX
  8
SURFACE
 62
7
  6
CONTINUOUS
 10
323.2341893681
 20
68.8733334511
  0
VERTEX
  8
SURFACE
 62
7
  6
CONTINUOUS
 10
323.2472849515
 20
68.8998977814
  0
VERTEX
  8
SURFACE
 62
7
  6
CONTINUOUS
 10
323.2594303199
 20
68.9264782307
  0
VERTEX
  8
SURFACE
 62
7
  6
CONTINUOUS
 10
323.2706382707
 20
68.9530174973
  0
VERTEX
  8
SURFACE
 62
7
  6
CONTINUOUS
 10
323.2809246147
 20
68.9794581763
  0
VERTEX
  8
SURFACE
 62
7
  6
CONTINUOUS
 10
323.2903103764
 20
69.005749338
  0
VERTEX
  8
SURFACE
 62
7
  6
CONTINUOUS
 10
323.2988204316
 20
69.0318454637
  0
VERTEX
  8
SURFACE
 62
7
  6
CONTINUOUS
 10
323.3064823589
 20
69.0577050742
  0
VERTEX
  8
SURFACE
 62
7
  6
CONTINUOUS
 10
323.3133233592
 20
69.0832804775
  0
VERTEX
  8
SURFACE
 62
7
  6
CONTINUOUS
 10
323.3193634262
 20
69.1084832021
  0
VERTEX
  8
SURFACE
 62
7
  6
CONTINUOUS
 10
323.3245834647
 20
69.1329970431
  0
VERTEX
  8
SURFACE
 62
7
  6
CONTINUOUS
 10
323.3290379722
 20
69.156760723
  0
VERTEX
  8
SURFACE
 62
7
  6
CONTINUOUS
 10
323.3328442213
 20
69.1801156961
  0
VERTEX
  8
SURFACE
 62
7
  6
CONTINUOUS
 10
323.3360231064
 20
69.2029209954
  0
VERTEX
  8
SURFACE
 62
7
  6
CONTINUOUS
 10
323.3385166611
 20
69.2241727143
  0
VERTEX
  8
SURFACE
 62
7
  6
CONTINUOUS
 10
323.3404548696
 20
69.2440793222
  0
VERTEX
  8
SURFACE
 62
7
  6
CONTINUOUS
 10
323.3419113056
 20
69.2622861557
  0
VERTEX
  8
SURFACE
 62
7
  6
CONTINUOUS
 10
323.3430138114
 20
69.2789658558
  0
SEQEND
  0
LINE
  8
SURFACE
 62
7
  6
CONTINUOUS
 10
322.3438616789
 20
68.3286849301
 11
311.5823304158
 21
68.3286849301
  0
LINE
  8
0
 62
7
  6
CONTINUOUS
 10
300.6675613253
 20
89.8414827967
 11
311.5823304158
 21
89.8414827967
  0
LINE
  8
0
 62
7
  6
CONTINUOUS
 10
299.5823304158
 20
102.667463311
 11
292.4323304158
 21
102.667463311
  0
LINE
  8
SURFACE
 62
7
  6
CONTINUOUS
 10
323.5823304158
 20
102.667463311
 11
330.7323304158
 21
102.667463311
  0
POLYLINE
  8
SURFACE
 62
7
  6
CONTINUOUS
 66
1
 70
0
  0
VERTEX
  8
SURFACE
 62
7
  6
CONTINUOUS
 10
322.3453043222
 20
110.7615265277
  0
VERTEX
  8
SURFACE
 62
7
  6
CONTINUOUS
 10
322.3807158724
 20
110.7621536526
  0
VERTEX
  8
SURFACE
 62
7
  6
CONTINUOUS
 10
322.4665545622
 20
110.7689038542
  0
VERTEX
  8
SURFACE
 62
7
  6
CONTINUOUS
 10
322.5479512595
 20
110.7822726535
  0
VERTEX
  8
SURFACE
 62
7
  6
CONTINUOUS
 10
322.6247407598
 20
110.8013583654
  0
VERTEX
  8
SURFACE
 62
7
  6
CONTINUOUS
 10
322.6968724488
 20
110.8253576138
  0
VERTEX
  8
SURFACE
 62
7
  6
CONTINUOUS
 10
322.7643838664
 20
110.8535670047
  0
VERTEX
  8
SURFACE
 62
7
  6
CONTINUOUS
 10
322.8273775887
 20
110.8853813936
  0
VERTEX
  8
SURFACE
 62
7
  6
CONTINUOUS
 10
322.8859600074
 20
110.9202631159
  0
VERTEX
  8
SURFACE
 62
7
  6
CONTINUOUS
 10
322.9401758941
 20
110.9576799665
  0
VERTEX
  8
SURFACE
 62
7
  6
CONTINUOUS
 10
322.9900986153
 20
110.9971368095
  0
VERTEX
  8
SURFACE
 62
7
  6
CONTINUOUS
 10
323.0358382949
 20
111.0381835078
  0
VERTEX
  8
SURFACE
 62
7
  6
CONTINUOUS
 10
323.0775267287
 20
111.0804062402
  0
VERTEX
  8
SURFACE
 62
7
  6
CONTINUOUS
 10
323.1152930948
 20
111.123400073
  0
VERTEX
  8
SURFACE
 62
7
  6
CONTINUOUS
 10
323.149286403
 20
111.1667862111
  0
VERTEX
  8
SURFACE
 62
7
  6
CONTINUOUS
 10
323.1796781258
 20
111.2102184926
  0
VERTEX
  8
SURFACE
 62
7
  6
CONTINUOUS
 10
323.2066899367
 20
111.2534378019
  0
VERTEX
  8
SURFACE
 62
7
  6
CONTINUOUS
 10
323.2305988338
 20
111.2963224771
  0
VERTEX
  8
SURFACE
 62
7
  6
CONTINUOUS
 10
323.2516659205
 20
111.3388030094
  0
VERTEX
  8
SURFACE
 62
7
  6
CONTINUOUS
 10
323.2701148537
 20
111.3808141337
  0
VERTEX
  8
SURFACE
 62
7
  6
CONTINUOUS
 10
323.2860947627
 20
111.422165665
  0
VERTEX
  8
SURFACE
 62
7
  6
CONTINUOUS
 10
323.2997639765
 20
111.4626895926
  0
VERTEX
  8
SURFACE
 62
7
  6
CONTINUOUS
 10
323.3112839873
 20
111.5022273073
  0
VERTEX
  8
SURFACE
 62
7
  6
CONTINUOUS
 10
323.3207691778
 20
111.5404064613
  0
VERTEX
  8
SURFACE
 62
7
  6
CONTINUOUS
 10
323.328383805
 20
111.5769218808
  0
VERTEX
  8
SURFACE
 62
7
  6
CONTINUOUS
 10
323.3343273538
 20
111.6115394623
  0
VERTEX
  8
SURFACE
 62
7
  6
CONTINUOUS
 10
323.33877961
 20
111.6437444917
  0
VERTEX
  8
SURFACE
 62
7
  6
CONTINUOUS
 10
323.340245006
 20
111.656306355
  0
SEQEND
  0
LINE
  8
SURFACE
 62
7
  6
CONTINUOUS
 10
322.3453088027
 20
110.7615259024
 11
311.5823304158
 21
110.7615259024
  0
LINE
  8
0
 62
7
  6
CONTINUOUS
 10
290.4323304158
 20
104.667463311
 11
290.4323304158
 21
220.667463311
  0
LINE
  8
0
 62
7
  6
CONTINUOUS
 10
324.5823304158
 20
229.667463311
 11
323.6818289275
 21
228.1077489811
  0
POLYLINE
  8
0
 62
7
  6
CONTINUOUS
 66
1
 70
0
  0
VERTEX
  8
0
 62
7
  6
CONTINUOUS
 10
299.6620235217
 20
90.8111425232
  0
VERTEX
  8
0
 62
7
  6
CONTINUOUS
 10
299.6649070704
 20
90.7814079903
  0
VERTEX
  8
0
 62
7
  6
CONTINUOUS
 10
299.6681865801
 20
90.7520366873
  0
VERTEX
  8
0
 62
7
  6
CONTINUOUS
 10
299.6721651747
 20
90.7215686534
  0
VERTEX
  8
0
 62
7
  6
CONTINUOUS
 10
299.6772430033
 20
90.6887580752
  0
VERTEX
  8
0
 62
7
  6
CONTINUOUS
 10
299.6840420907
 20
90.6520424828
  0
VERTEX
  8
0
 62
7
  6
CONTINUOUS
 10
299.6932419659
 20
90.6107320259
  0
VERTEX
  8
0
 62
7
  6
CONTINUOUS
 10
299.7054131044
 20
90.5652280284
  0
VERTEX
  8
0
 62
7
  6
CONTINUOUS
 10
299.7210089599
 20
90.5163645595
  0
VERTEX
  8
0
 62
7
  6
CONTINUOUS
 10
299.7403085767
 20
90.465227467
  0
VERTEX
  8
0
 62
7
  6
CONTINUOUS
 10
299.7635713404
 20
90.4126103458
  0
VERTEX
  8
0
 62
7
  6
CONTINUOUS
 10
299.7908863656
 20
90.359425164
  0
VERTEX
  8
0
 62
7
  6
CONTINUOUS
 10
299.8221640578
 20
90.3066131924
  0
VERTEX
  8
0
 62
7
  6
CONTINUOUS
 10
299.8575771829
 20
90.2544763558
  0
VERTEX
  8
0
 62
7
  6
CONTINUOUS
 10
299.8973149505
 20
90.2033138846
  0
VERTEX
  8
0
 62
7
  6
CONTINUOUS
 10
299.9415541821
 20
90.1534739869
  0
VERTEX
  8
0
 62
7
  6
CONTINUOUS
 10
299.9904511445
 20
90.1053576077
  0
VERTEX
  8
0
 62
7
  6
CONTINUOUS
 10
300.0441189597
 20
90.05943115
  0
VERTEX
  8
0
 62
7
  6
CONTINUOUS
 10
300.1025957339
 20
90.016234259
  0
VERTEX
  8
0
 62
7
  6
CONTINUOUS
 10
300.1658626063
 20
89.9763444376
  0
VERTEX
  8
0
 62
7
  6
CONTINUOUS
 10
300.2338392625
 20
89.9403701716
  0
VERTEX
  8
0
 62
7
  6
CONTINUOUS
 10
300.3063753365
 20
89.9089464235
  0
VERTEX
  8
0
 62
7
  6
CONTINUOUS
 10
300.3832435283
 20
89.8827278056
  0
VERTEX
  8
0
 62
7
  6
CONTINUOUS
 10
300.4641346432
 20
89.8623804213
  0
VERTEX
  8
0
 62
7
  6
CONTINUOUS
 10
300.5486468408
 20
89.8485742544
  0
VERTEX
  8
0
 62
7
  6
CONTINUOUS
 10
300.6362795016
 20
89.8419719145
  0
VERTEX
  8
0
 62
7
  6
CONTINUOUS
 10
300.6675614048
 20
89.8414827929
  0
SEQEND
  0
POLYLINE
  8
0
 62
7
  6
CONTINUOUS
 66
1
 70
0
  0
VERTEX
  8
0
 62
7
  6
CONTINUOUS
 10
299.6567743779
 20
90.8760864636
  0
VERTEX
  8
0
 62
7
  6
CONTINUOUS
 10
299.6593556525
 20
90.8423336445
  0
VERTEX
  8
0
 62
7
  6
CONTINUOUS
 10
299.6620235217
 20
90.8111425232
  0
SEQEND
  0
POLYLINE
  8
0
 62
7
  6
CONTINUOUS
 66
1
 70
0
  0
VERTEX
  8
0
 62
7
  6
CONTINUOUS
 10
299.8226888687
 20
62.450825935
  0
VERTEX
  8
0
 62
7
  6
CONTINUOUS
 10
299.8235381335
 20
62.4382868532
  0
VERTEX
  8
0
 62
7
  6
CONTINUOUS
 10
299.8247028138
 20
62.4237849827
  0
VERTEX
  8
0
 62
7
  6
CONTINUOUS
 10
299.8261837297
 20
62.4081990557
  0
VERTEX
  8
0
 62
7
  6
CONTINUOUS
 10
299.8279943033
 20
62.3918819787
  0
VERTEX
  8
0
 62
7
  6
CONTINUOUS
 10
299.8302106355
 20
62.3745662351
  0
VERTEX
  8
0
 62
7
  6
CONTINUOUS
 10
299.8327847958
 20
62.3569209027
  0
VERTEX
  8
0
 62
7
  6
CONTINUOUS
 10
299.8357124675
 20
62.33909206
  0
VERTEX
  8
0
 62
7
  6
CONTINUOUS
 10
299.8390231992
 20
62.3209961435
  0
VERTEX
  8
0
 62
7
  6
CONTINUOUS
 10
299.8427485156
 20
62.302573562
  0
VERTEX
  8
0
 62
7
  6
CONTINUOUS
 10
299.8469143061
 20
62.2838136172
  0
VERTEX
  8
0
 62
7
  6
CONTINUOUS
 10
299.8515346457
 20
62.2647608467
  0
VERTEX
  8
0
 62
7
  6
CONTINUOUS
 10
299.8566029289
 20
62.2455266555
  0
VERTEX
  8
0
 62
7
  6
CONTINUOUS
 10
299.8621283749
 20
62.2261409236
  0
VERTEX
  8
0
 62
7
  6
CONTINUOUS
 10
299.8681227604
 20
62.2066207934
  0
VERTEX
  8
0
 62
7
  6
CONTINUOUS
 10
299.8745982612
 20
62.1869811371
  0
VERTEX
  8
0
 62
7
  6
CONTINUOUS
 10
299.8815670256
 20
62.1672365251
  0
VERTEX
  8
0
 62
7
  6
CONTINUOUS
 10
299.8890409304
 20
62.1474020567
  0
VERTEX
  8
0
 62
7
  6
CONTINUOUS
 10
299.8970314458
 20
62.1274936435
  0
VERTEX
  8
0
 62
7
  6
CONTINUOUS
 10
299.9055495635
 20
62.1075280509
  0
VERTEX
  8
0
 62
7
  6
CONTINUOUS
 10
299.9146057544
 20
62.0875228531
  0
VERTEX
  8
0
 62
7
  6
CONTINUOUS
 10
299.9242099324
 20
62.0674963816
  0
VERTEX
  8
0
 62
7
  6
CONTINUOUS
 10
299.9343714687
 20
62.0474675848
  0
VERTEX
  8
0
 62
7
  6
CONTINUOUS
 10
299.9451048013
 20
62.0274457646
  0
VERTEX
  8
0
 62
7
  6
CONTINUOUS
 10
299.9564348625
 20
62.0074238346
  0
VERTEX
  8
0
 62
7
  6
CONTINUOUS
 10
299.9683895606
 20
61.9873950887
  0
VERTEX
  8
0
 62
7
  6
CONTINUOUS
 10
299.9809988687
 20
61.9673551674
  0
VERTEX
  8
0
 62
7
  6
CONTINUOUS
 10
299.9942947682
 20
61.9473022854
  0
VERTEX
  8
0
 62
7
  6
CONTINUOUS
 10
300.0083111849
 20
61.9272374638
  0
VERTEX
  8
0
 62
7
  6
CONTINUOUS
 10
300.0230839159
 20
61.9071647712
  0
VERTEX
  8
0
 62
7
  6
CONTINUOUS
 10
300.0386505445
 20
61.8870915746
  0
VERTEX
  8
0
 62
7
  6
CONTINUOUS
 10
300.0550503399
 20
61.8670288032
  0
VERTEX
  8
0
 62
7
  6
CONTINUOUS
 10
300.0723242819
 20
61.8469910617
  0
VERTEX
  8
0
 62
7
  6
CONTINUOUS
 10
300.0905181801
 20
61.826993477
  0
VERTEX
  8
0
 62
7
  6
CONTINUOUS
 10
300.1096829998
 20
61.8070524802
  0
VERTEX
  8
0
 62
7
  6
CONTINUOUS
 10
300.1298717433
 20
61.787189938
  0
VERTEX
  8
0
 62
7
  6
CONTINUOUS
 10
300.1511390763
 20
61.7674337556
  0
VERTEX
  8
0
 62
7
  6
CONTINUOUS
 10
300.1735317362
 20
61.7478262493
  0
VERTEX
  8
0
 62
7
  6
CONTINUOUS
 10
300.1970587789
 20
61.728445733
  0
VERTEX
  8
0
 62
7
  6
CONTINUOUS
 10
300.2217157428
 20
61.7093790747
  0
VERTEX
  8
0
 62
7
  6
CONTINUOUS
 10
300.2474930941
 20
61.6907130597
  0
VERTEX
  8
0
 62
7
  6
CONTINUOUS
 10
300.2743760669
 20
61.6725340012
  0
VERTEX
  8
0
 62
7
  6
CONTINUOUS
 10
300.3023445438
 20
61.6549273305
  0
VERTEX
  8
0
 62
7
  6
CONTINUOUS
 10
300.3313729786
 20
61.6379771745
  0
VERTEX
  8
0
 62
7
  6
CONTINUOUS
 10
300.3614303787
 20
61.6217659127
  0
VERTEX
  8
0
 62
7
  6
CONTINUOUS
 10
300.392494341
 20
61.6063670865
  0
VERTEX
  8
0
 62
7
  6
CONTINUOUS
 10
300.4245783484
 20
61.5918361664
  0
VERTEX
  8
0
 62
7
  6
CONTINUOUS
 10
300.4577009348
 20
61.5782306959
  0
VERTEX
  8
0
 62
7
  6
CONTINUOUS
 10
300.4918784068
 20
61.5656142773
  0
VERTEX
  8
0
 62
7
  6
CONTINUOUS
 10
300.5271242574
 20
61.5540567519
  0
VERTEX
  8
0
 62
7
  6
CONTINUOUS
 10
300.5634485288
 20
61.5436343554
  0
VERTEX
  8
0
 62
7
  6
CONTINUOUS
 10
300.6008571221
 20
61.534429842
  0
VERTEX
  8
0
 62
7
  6
CONTINUOUS
 10
300.6393510515
 20
61.5265325689
  0
VERTEX
  8
0
 62
7
  6
CONTINUOUS
 10
300.6789256395
 20
61.5200385359
  0
VERTEX
  8
0
 62
7
  6
CONTINUOUS
 10
300.7195696529
 20
61.5150503683
  0
VERTEX
  8
0
 62
7
  6
CONTINUOUS
 10
300.7612643757
 20
61.5116772361
  0
VERTEX
  8
0
 62
7
  6
CONTINUOUS
 10
300.8039826218
 20
61.5100346959
  0
VERTEX
  8
0
 62
7
  6
CONTINUOUS
 10
300.8210371208
 20
61.5098892584
  0
SEQEND
  0
LINE
  8
0
 62
7
  6
CONTINUOUS
 10
299.5845464079
 20
91.9420718619
 11
299.6567743779
 21
90.8760864636
  0
LINE
  8
0
 62
7
  6
CONTINUOUS
 10
299.7723007911
 20
63.3317863552
 11
299.8226888687
 21
62.450825935
  0
POLYLINE
  8
0
 62
7
  6
CONTINUOUS
 66
1
 70
0
  0
VERTEX
  8
0
 62
7
  6
CONTINUOUS
 10
299.5845463955
 20
91.9420718115
  0
VERTEX
  8
0
 62
7
  6
CONTINUOUS
 10
299.5833158479
 20
91.9642244042
  0
VERTEX
  8
0
 62
7
  6
CONTINUOUS
 10
299.5825767839
 20
91.9864115865
  0
SEQEND
  0
LINE
  8
0
 62
7
  6
CONTINUOUS
 10
299.7224992991
 20
64.2740266386
 11
299.7723007911
 21
63.3317863552
  0
LINE
  8
0
 62
7
  6
CONTINUOUS
 10
299.6690756041
 20
65.3805898009
 11
299.7224992991
 21
64.2740266386
  0
LINE
  8
0
 62
7
  6
CONTINUOUS
 10
299.5829928514
 20
67.7202179909
 11
299.6690756041
 21
65.3805898009
  0
POLYLINE
  8
0
 62
7
  6
CONTINUOUS
 66
1
 70
0
  0
VERTEX
  8
0
 62
7
  6
CONTINUOUS
 10
299.5829928544
 20
67.7202178494
  0
VERTEX
  8
0
 62
7
  6
CONTINUOUS
 10
299.582623314
 20
67.7324092269
  0
VERTEX
  8
0
 62
7
  6
CONTINUOUS
 10
299.5824032476
 20
67.7445417864
  0
VERTEX
  8
0
 62
7
  6
CONTINUOUS
 10
299.5823304158
 20
67.7566106857
  0
SEQEND
  0
LINE
  8
0
 62
7
  6
CONTINUOUS
 10
299.5823304158
 20
250.7232274734
 11
299.5838819335
 21
250.778910053
  0
POLYLINE
  8
0
 62
7
  6
CONTINUOUS
 66
1
 70
0
  0
VERTEX
  8
0
 62
7
  6
CONTINUOUS
 10
299.5829928544
 20
257.6147087727
  0
VERTEX
  8
0
 62
7
  6
CONTINUOUS
 10
299.582623314
 20
257.6025173952
  0
VERTEX
  8
0
 62
7
  6
CONTINUOUS
 10
299.5824032476
 20
257.5903848357
  0
VERTEX
  8
0
 62
7
  6
CONTINUOUS
 10
299.5823304158
 20
257.5783159364
  0
SEQEND
  0
LINE
  8
0
 62
7
  6
CONTINUOUS
 10
299.6690756041
 20
259.9543368212
 11
299.5829928514
 21
257.6147086312
  0
LINE
  8
0
 62
7
  6
CONTINUOUS
 10
299.674580528
 20
260.0820029375
 11
299.6690756041
 21
259.9543368212
  0
POLYLINE
  8
0
 62
7
  6
CONTINUOUS
 66
1
 70
0
  0
VERTEX
  8
0
 62
7
  6
CONTINUOUS
 10
299.6966097824
 20
253.1116142283
  0
VERTEX
  8
0
 62
7
  6
CONTINUOUS
 10
299.6483473813
 20
252.0483723314
  0
VERTEX
  8
0
 62
7
  6
CONTINUOUS
 10
299.6253990085
 20
251.5747039067
  0
VERTEX
  8
0
 62
7
  6
CONTINUOUS
 10
299.6034189096
 20
251.1427807597
  0
VERTEX
  8
0
 62
7
  6
CONTINUOUS
 10
299.5838539863
 20
250.7784073298
  0
SEQEND
  0
POLYLINE
  8
0
 62
7
  6
CONTINUOUS
 66
1
 70
0
  0
VERTEX
  8
0
 62
7
  6
CONTINUOUS
 10
299.7723007911
 20
262.0031402669
  0
VERTEX
  8
0
 62
7
  6
CONTINUOUS
 10
299.7224992991
 20
261.0608999835
  0
VERTEX
  8
0
 62
7
  6
CONTINUOUS
 10
299.6745738888
 20
260.0818624841
  0
SEQEND
  0
POLYLINE
  8
0
 62
7
  6
CONTINUOUS
 66
1
 70
0
  0
VERTEX
  8
0
 62
7
  6
CONTINUOUS
 10
299.8216470202
 20
256.0559607666
  0
VERTEX
  8
0
 62
7
  6
CONTINUOUS
 10
299.8207384415
 20
256.0397189136
  0
VERTEX
  8
0
 62
7
  6
CONTINUOUS
 10
299.8198743752
 20
256.0219791656
  0
VERTEX
  8
0
 62
7
  6
CONTINUOUS
 10
299.6966097824
 20
253.1116142283
  0
SEQEND
  0
LINE
  8
0
 62
7
  6
CONTINUOUS
 10
299.8243947817
 20
213.67843037
 11
299.7199080541
 21
212.7340911205
  0
POLYLINE
  8
0
 62
7
  6
CONTINUOUS
 66
1
 70
0
  0
VERTEX
  8
0
 62
7
  6
CONTINUOUS
 10
299.7199080541
 20
212.7340911205
  0
VERTEX
  8
0
 62
7
  6
CONTINUOUS
 10
299.7136106761
 20
212.6813440204
  0
VERTEX
  8
0
 62
7
  6
CONTINUOUS
 10
299.7077715358
 20
212.6354701824
  0
SEQEND
  0
POLYLINE
  8
0
 62
7
  6
CONTINUOUS
 66
1
 70
0
  0
VERTEX
  8
0
 62
7
  6
CONTINUOUS
 10
299.7077715358
 20
212.6354701824
  0
VERTEX
  8
0
 62
7
  6
CONTINUOUS
 10
299.7024106057
 20
212.5960624845
  0
VERTEX
  8
0
 62
7
  6
CONTINUOUS
 10
299.6975602297
 20
212.5627944431
  0
VERTEX
  8
0
 62
7
  6
CONTINUOUS
 10
299.6932691001
 20
212.5354207368
  0
VERTEX
  8
0
 62
7
  6
CONTINUOUS
 10
299.6896105057
 20
212.5137943986
  0
VERTEX
  8
0
 62
7
  6
CONTINUOUS
 10
299.6866942279
 20
212.4978872019
  0
VERTEX
  8
0
 62
7
  6
CONTINUOUS
 10
299.6846859203
 20
212.4878217585
  0
VERTEX
  8
0
 62
7
  6
CONTINUOUS
 10
299.6839917116
 20
212.4845953382
  0
SEQEND
  0
LINE
  8
0
 62
7
  6
CONTINUOUS
 10
299.5825767839
 20
91.9864115865
 11
299.5823304158
 21
92.0086078832
  0
LINE
  8
0
 62
7
  6
CONTINUOUS
 10
299.5823304158
 20
67.7566111151
 11
299.5823304158
 21
257.5783159364
  0
LINE
  8
0
 62
7
  6
CONTINUOUS
 10
311.5823304158
 20
257.0062328304
 11
311.5823304158
 21
236.4953745606
  0
LINE
  8
0
 62
7
  6
CONTINUOUS
 10
311.5823304158
 20
68.3286878563
 11
311.5823304158
 21
61.5098948261
  0
LINE
  8
SURFACE
 62
7
  6
CONTINUOUS
 10
311.5823304158
 20
68.3286878563
 11
311.5823304158
 21
86.6868042194
  0
LINE
  8
0
 62
7
  6
CONTINUOUS
 10
311.5823304158
 20
86.6868042194
 11
311.5823304158
 21
88.8395520615
  0
LINE
  8
0
 62
7
  6
CONTINUOUS
 10
311.5823304158
 20
89.8414912788
 11
311.5823304158
 21
110.3646977909
  0
LINE
  8
SURFACE
 62
7
  6
CONTINUOUS
 10
311.5823304158
 20
110.3646977909
 11
311.5823304158
 21
128.6444401279
  0
LINE
  8
0
 62
7
  6
CONTINUOUS
 10
311.5823304158
 20
128.6444401279
 11
311.5823304158
 21
130.827843212
  0
LINE
  8
0
 62
7
  6
CONTINUOUS
 10
311.5823304158
 20
140.3571389577
 11
311.5823304158
 21
165.6562609938
  0
LINE
  8
SURFACE
 62
7
  6
CONTINUOUS
 10
311.5823304158
 20
165.6562609938
 11
311.5823304158
 21
183.5977144924
  0
LINE
  8
0
 62
7
  6
CONTINUOUS
 10
311.5823304158
 20
183.5977144924
 11
311.5823304158
 21
184.9777874607
  0
LINE
  8
0
 62
7
  6
CONTINUOUS
 10
311.5823304158
 20
194.5070830313
 11
311.5823304158
 21
219.8062050674
  0
LINE
  8
SURFACE
 62
7
  6
CONTINUOUS
 10
311.5823304158
 20
219.8062050674
 11
311.5823304158
 21
235.4934378574
  0
LINE
  8
SURFACE
 62
7
  6
CONTINUOUS
 10
311.5823304158
 20
257.0062328304
 11
311.5823304158
 21
263.825008639
  0
LINE
  8
DEFAULT_1
 62
2
  6
CENTER
 10
288.4323304158
 20
162.667463311
 11
334.7323304158
 21
162.667463311
  0
LINE
  8
SURFACE
 62
7
  6
CONTINUOUS
 10
323.5820840476
 20
233.3485150356
 11
323.5823304158
 21
233.3263187389
  0
LINE
  8
SURFACE
 62
7
  6
CONTINUOUS
 10
323.5823304158
 20
257.578315507
 11
323.5823304158
 21
67.7566111151
  0
LINE
  8
0
 62
7
  6
CONTINUOUS
 10
323.6823304158
 20
230.8843000898
 11
323.6823304158
 21
200.092441846
  0
LINE
  8
0
 62
7
  6
CONTINUOUS
 10
323.6823304158
 20
197.7197974744
 11
323.6823304158
 21
197.0015575949
  0
LINE
  8
0
 62
7
  6
CONTINUOUS
 10
323.6823304158
 20
196.913371858
 11
323.6823304158
 21
188.1242719273
  0
LINE
  8
SURFACE
 62
7
  6
CONTINUOUS
 10
323.5823304158
 20
74.6116991487
 11
323.5807788981
 21
74.5560165694
  0
POLYLINE
  8
SURFACE
 62
7
  6
CONTINUOUS
 66
1
 70
0
  0
VERTEX
  8
SURFACE
 62
7
  6
CONTINUOUS
 10
323.5026373098
 20
234.5237840989
  0
VERTEX
  8
SURFACE
 62
7
  6
CONTINUOUS
 10
323.4997537611
 20
234.5535186318
  0
VERTEX
  8
SURFACE
 62
7
  6
CONTINUOUS
 10
323.4964742514
 20
234.5828899348
  0
VERTEX
  8
SURFACE
 62
7
  6
CONTINUOUS
 10
323.4924956568
 20
234.6133579687
  0
VERTEX
  8
SURFACE
 62
7
  6
CONTINUOUS
 10
323.4874178282
 20
234.6461685469
  0
VERTEX
  8
SURFACE
 62
7
  6
CONTINUOUS
 10
323.4806187408
 20
234.6828841393
  0
VERTEX
  8
SURFACE
 62
7
  6
CONTINUOUS
 10
323.4714188656
 20
234.7241945962
  0
VERTEX
  8
SURFACE
 62
7
  6
CONTINUOUS
 10
323.4592477271
 20
234.7696985937
  0
VERTEX
  8
SURFACE
 62
7
  6
CONTINUOUS
 10
323.4436518716
 20
234.8185620626
  0
VERTEX
  8
SURFACE
 62
7
  6
CONTINUOUS
 10
323.4243522548
 20
234.8696991551
  0
VERTEX
  8
SURFACE
 62
7
  6
CONTINUOUS
 10
323.4010894911
 20
234.9223162763
  0
VERTEX
  8
SURFACE
 62
7
  6
CONTINUOUS
 10
323.3737744659
 20
234.9755014581
  0
VERTEX
  8
SURFACE
 62
7
  6
CONTINUOUS
 10
323.3424967737
 20
235.0283134297
  0
VERTEX
  8
SURFACE
 62
7
  6
CONTINUOUS
 10
323.3070836486
 20
235.0804502663
  0
VERTEX
  8
SURFACE
 62
7
  6
CONTINUOUS
 10
323.267345881
 20
235.1316127375
  0
VERTEX
  8
SURFACE
 62
7
  6
CONTINUOUS
 10
323.2231066494
 20
235.1814526352
  0
VERTEX
  8
SURFACE
 62
7
  6
CONTINUOUS
 10
323.174209687
 20
235.2295690144
  0
VERTEX
  8
SURFACE
 62
7
  6
CONTINUOUS
 10
323.1205418718
 20
235.2754954721
  0
VERTEX
  8
SURFACE
 62
7
  6
CONTINUOUS
 10
323.0620650976
 20
235.3186923631
  0
VERTEX
  8
SURFACE
 62
7
  6
CONTINUOUS
 10
322.9987982253
 20
235.3585821845
  0
VERTEX
  8
SURFACE
 62
7
  6
CONTINUOUS
 10
322.930821569
 20
235.3945564505
  0
VERTEX
  8
SURFACE
 62
7
  6
CONTINUOUS
 10
322.858285495
 20
235.4259801986
  0
VERTEX
  8
SURFACE
 62
7
  6
CONTINUOUS
 10
322.7814173032
 20
235.4521988165
  0
VERTEX
  8
SURFACE
 62
7
  6
CONTINUOUS
 10
322.7005261883
 20
235.4725462008
  0
VERTEX
  8
SURFACE
 62
7
  6
CONTINUOUS
 10
322.6160139907
 20
235.4863523677
  0
VERTEX
  8
SURFACE
 62
7
  6
CONTINUOUS
 10
322.5283813299
 20
235.4929547076
  0
VERTEX
  8
SURFACE
 62
7
  6
CONTINUOUS
 10
322.4970994267
 20
235.4934438292
  0
SEQEND
  0
POLYLINE
  8
SURFACE
 62
7
  6
CONTINUOUS
 66
1
 70
0
  0
VERTEX
  8
SURFACE
 62
7
  6
CONTINUOUS
 10
323.5078864536
 20
234.4588401585
  0
VERTEX
  8
SURFACE
 62
7
  6
CONTINUOUS
 10
323.5053051791
 20
234.4925929776
  0
VERTEX
  8
SURFACE
 62
7
  6
CONTINUOUS
 10
323.5026373098
 20
234.5237840989
  0
SEQEND
  0
POLYLINE
  8
SURFACE
 62
7
  6
CONTINUOUS
 66
1
 70
0
  0
VERTEX
  8
SURFACE
 62
7
  6
CONTINUOUS
 10
323.3419719628
 20
262.8841006871
  0
VERTEX
  8
SURFACE
 62
7
  6
CONTINUOUS
 10
323.341122698
 20
262.8966397689
  0
VERTEX
  8
SURFACE
 62
7
  6
CONTINUOUS
 10
323.3399580177
 20
262.9111416394
  0
VERTEX
  8
SURFACE
 62
7
  6
CONTINUOUS
 10
323.3384771018
 20
262.9267275664
  0
VERTEX
  8
SURFACE
 62
7
  6
CONTINUOUS
 10
323.3366665282
 20
262.9430446434
  0
VERTEX
  8
SURFACE
 62
7
  6
CONTINUOUS
 10
323.334450196
 20
262.960360387
  0
VERTEX
  8
SURFACE
 62
7
  6
CONTINUOUS
 10
323.3318760357
 20
262.9780057194
  0
VERTEX
  8
SURFACE
 62
7
  6
CONTINUOUS
 10
323.3289483641
 20
262.9958345621
  0
VERTEX
  8
SURFACE
 62
7
  6
CONTINUOUS
 10
323.3256376324
 20
263.0139304786
  0
VERTEX
  8
SURFACE
 62
7
  6
CONTINUOUS
 10
323.3219123159
 20
263.0323530601
  0
VERTEX
  8
SURFACE
 62
7
  6
CONTINUOUS
 10
323.3177465255
 20
263.0511130049
  0
VERTEX
  8
SURFACE
 62
7
  6
CONTINUOUS
 10
323.3131261858
 20
263.0701657754
  0
VERTEX
  8
SURFACE
 62
7
  6
CONTINUOUS
 10
323.3080579026
 20
263.0893999666
  0
VERTEX
  8
SURFACE
 62
7
  6
CONTINUOUS
 10
323.3025324567
 20
263.1087856985
  0
VERTEX
  8
SURFACE
 62
7
  6
CONTINUOUS
 10
323.2965380711
 20
263.1283058287
  0
VERTEX
  8
SURFACE
 62
7
  6
CONTINUOUS
 10
323.2900625703
 20
263.147945485
  0
VERTEX
  8
SURFACE
 62
7
  6
CONTINUOUS
 10
323.2830938059
 20
263.167690097
  0
VERTEX
  8
SURFACE
 62
7
  6
CONTINUOUS
 10
323.2756199011
 20
263.1875245654
  0
VERTEX
  8
SURFACE
 62
7
  6
CONTINUOUS
 10
323.2676293857
 20
263.2074329786
  0
VERTEX
  8
SURFACE
 62
7
  6
CONTINUOUS
 10
323.259111268
 20
263.2273985712
  0
VERTEX
  8
SURFACE
 62
7
  6
CONTINUOUS
 10
323.2500550771
 20
263.247403769
  0
VERTEX
  8
SURFACE
 62
7
  6
CONTINUOUS
 10
323.2404508991
 20
263.2674302405
  0
VERTEX
  8
SURFACE
 62
7
  6
CONTINUOUS
 10
323.2302893628
 20
263.2874590373
  0
VERTEX
  8
SURFACE
 62
7
  6
CONTINUOUS
 10
323.2195560302
 20
263.3074808575
  0
VERTEX
  8
SURFACE
 62
7
  6
CONTINUOUS
 10
323.208225969
 20
263.3275027875
  0
VERTEX
  8
SURFACE
 62
7
  6
CONTINUOUS
 10
323.1962712709
 20
263.3475315334
  0
VERTEX
  8
SURFACE
 62
7
  6
CONTINUOUS
 10
323.1836619628
 20
263.3675714547
  0
VERTEX
  8
SURFACE
 62
7
  6
CONTINUOUS
 10
323.1703660633
 20
263.3876243367
  0
VERTEX
  8
SURFACE
 62
7
  6
CONTINUOUS
 10
323.1563496466
 20
263.4076891583
  0
VERTEX
  8
SURFACE
 62
7
  6
CONTINUOUS
 10
323.1415769156
 20
263.4277618509
  0
VERTEX
  8
SURFACE
 62
7
  6
CONTINUOUS
 10
323.126010287
 20
263.4478350475
  0
VERTEX
  8
SURFACE
 62
7
  6
CONTINUOUS
 10
323.1096104916
 20
263.4678978189
  0
VERTEX
  8
SURFACE
 62
7
  6
CONTINUOUS
 10
323.0923365496
 20
263.4879355604
  0
VERTEX
  8
SURFACE
 62
7
  6
CONTINUOUS
 10
323.0741426515
 20
263.5079331451
  0
VERTEX
  8
SURFACE
 62
7
  6
CONTINUOUS
 10
323.0549778317
 20
263.5278741419
  0
VERTEX
  8
SURFACE
 62
7
  6
CONTINUOUS
 10
323.0347890882
 20
263.5477366841
  0
VERTEX
  8
SURFACE
 62
7
  6
CONTINUOUS
 10
323.0135217552
 20
263.5674928665
  0
VERTEX
  8
SURFACE
 62
7
  6
CONTINUOUS
 10
322.9911290953
 20
263.5871003728
  0
VERTEX
  8
SURFACE
 62
7
  6
CONTINUOUS
 10
322.9676020526
 20
263.6064808891
  0
VERTEX
  8
SURFACE
 62
7
  6
CONTINUOUS
 10
322.9429450887
 20
263.6255475474
  0
VERTEX
  8
SURFACE
 62
7
  6
CONTINUOUS
 10
322.9171677374
 20
263.6442135624
  0
VERTEX
  8
SURFACE
 62
7
  6
CONTINUOUS
 10
322.8902847646
 20
263.6623926209
  0
VERTEX
  8
SURFACE
 62
7
  6
CONTINUOUS
 10
322.8623162877
 20
263.6799992916
  0
VERTEX
  8
SURFACE
 62
7
  6
CONTINUOUS
 10
322.8332878529
 20
263.6969494476
  0
VERTEX
  8
SURFACE
 62
7
  6
CONTINUOUS
 10
322.8032304528
 20
263.7131607094
  0
VERTEX
  8
SURFACE
 62
7
  6
CONTINUOUS
 10
322.7721664905
 20
263.7285595356
  0
VERTEX
  8
SURFACE
 62
7
  6
CONTINUOUS
 10
322.7400824831
 20
263.7430904557
  0
VERTEX
  8
SURFACE
 62
7
  6
CONTINUOUS
 10
322.7069598968
 20
263.7566959262
  0
VERTEX
  8
SURFACE
 62
7
  6
CONTINUOUS
 10
322.6727824247
 20
263.7693123448
  0
VERTEX
  8
SURFACE
 62
7
  6
CONTINUOUS
 10
322.6375365741
 20
263.7808698702
  0
VERTEX
  8
SURFACE
 62
7
  6
CONTINUOUS
 10
322.6012123028
 20
263.7912922667
  0
VERTEX
  8
SURFACE
 62
7
  6
CONTINUOUS
 10
322.5638037094
 20
263.8004967801
  0
VERTEX
  8
SURFACE
 62
7
  6
CONTINUOUS
 10
322.52530978
 20
263.8083940532
  0
VERTEX
  8
SURFACE
 62
7
  6
CONTINUOUS
 10
322.485735192
 20
263.8148880862
  0
VERTEX
  8
SURFACE
 62
7
  6
CONTINUOUS
 10
322.4450911786
 20
263.8198762538
  0
VERTEX
  8
SURFACE
 62
7
  6
CONTINUOUS
 10
322.4033964558
 20
263.823249386
  0
VERTEX
  8
SURFACE
 62
7
  6
CONTINUOUS
 10
322.3606782097
 20
263.8248919262
  0
VERTEX
  8
SURFACE
 62
7
  6
CONTINUOUS
 10
322.3436237107
 20
263.8250373637
  0
SEQEND
  0
LINE
  8
SURFACE
 62
7
  6
CONTINUOUS
 10
323.5801144236
 20
233.3928547601
 11
323.5078864536
 21
234.4588401585
  0
LINE
  8
SURFACE
 62
7
  6
CONTINUOUS
 10
323.3923600404
 20
262.0031402669
 11
323.3419719628
 21
262.8841006871
  0
POLYLINE
  8
SURFACE
 62
7
  6
CONTINUOUS
 66
1
 70
0
  0
VERTEX
  8
SURFACE
 62
7
  6
CONTINUOUS
 10
323.5801144361
 20
233.3928548104
  0
VERTEX
  8
SURFACE
 62
7
  6
CONTINUOUS
 10
323.5813449836
 20
233.3707022179
  0
VERTEX
  8
SURFACE
 62
7
  6
CONTINUOUS
 10
323.5820840476
 20
233.3485150356
  0
SEQEND
  0
LINE
  8
SURFACE
 62
7
  6
CONTINUOUS
 10
323.4421615324
 20
261.0608999835
 11
323.3923600404
 21
262.0031402669
  0
LINE
  8
SURFACE
 62
7
  6
CONTINUOUS
 10
323.4955852274
 20
259.9543368212
 11
323.4421615324
 21
261.0608999835
  0
LINE
  8
SURFACE
 62
7
  6
CONTINUOUS
 10
323.5816679801
 20
257.6147086312
 11
323.4955852274
 21
259.9543368212
  0
POLYLINE
  8
SURFACE
 62
7
  6
CONTINUOUS
 66
1
 70
0
  0
VERTEX
  8
SURFACE
 62
7
  6
CONTINUOUS
 10
323.5816679771
 20
257.6147087727
  0
VERTEX
  8
SURFACE
 62
7
  6
CONTINUOUS
 10
323.5820375176
 20
257.6025173952
  0
VERTEX
  8
SURFACE
 62
7
  6
CONTINUOUS
 10
323.5822575839
 20
257.5903848357
  0
VERTEX
  8
SURFACE
 62
7
  6
CONTINUOUS
 10
323.5823304158
 20
257.5783159364
  0
SEQEND
  0
LINE
  8
SURFACE
 62
7
  6
CONTINUOUS
 10
332.7323304158
 20
220.667463311
 11
332.7323304158
 21
104.667463311
  0
POLYLINE
  8
SURFACE
 62
7
  6
CONTINUOUS
 66
1
 70
0
  0
VERTEX
  8
SURFACE
 62
7
  6
CONTINUOUS
 10
323.5816679771
 20
67.7202178494
  0
VERTEX
  8
SURFACE
 62
7
  6
CONTINUOUS
 10
323.5820375176
 20
67.7324092269
  0
VERTEX
  8
SURFACE
 62
7
  6
CONTINUOUS
 10
323.5822575839
 20
67.7445417864
  0
VERTEX
  8
SURFACE
 62
7
  6
CONTINUOUS
 10
323.5823304158
 20
67.7566106857
  0
SEQEND
  0
LINE
  8
SURFACE
 62
7
  6
CONTINUOUS
 10
323.4955852274
 20
65.3805898009
 11
323.5816679801
 21
67.7202179909
  0
LINE
  8
SURFACE
 62
7
  6
CONTINUOUS
 10
323.4900803035
 20
65.2529236846
 11
323.4955852274
 21
65.3805898009
  0
POLYLINE
  8
SURFACE
 62
7
  6
CONTINUOUS
 66
1
 70
0
  0
VERTEX
  8
SURFACE
 62
7
  6
CONTINUOUS
 10
323.4680511
 20
72.2233135795
  0
VERTEX
  8
SURFACE
 62
7
  6
CONTINUOUS
 10
323.5163135206
 20
73.2865557749
  0
VERTEX
  8
SURFACE
 62
7
  6
CONTINUOUS
 10
323.5392618817
 20
73.7602238834
  0
VERTEX
  8
SURFACE
 62
7
  6
CONTINUOUS
 10
323.5612419565
 20
74.1921465086
  0
VERTEX
  8
SURFACE
 62
7
  6
CONTINUOUS
 10
323.580806845
 20
74.5565192801
  0
SEQEND
  0
POLYLINE
  8
SURFACE
 62
7
  6
CONTINUOUS
 66
1
 70
0
  0
VERTEX
  8
SURFACE
 62
7
  6
CONTINUOUS
 10
323.3923600404
 20
63.3317863552
  0
VERTEX
  8
SURFACE
 62
7
  6
CONTINUOUS
 10
323.4421615324
 20
64.2740266386
  0
VERTEX
  8
SURFACE
 62
7
  6
CONTINUOUS
 10
323.4900869427
 20
65.253064138
  0
SEQEND
  0
POLYLINE
  8
SURFACE
 62
7
  6
CONTINUOUS
 66
1
 70
0
  0
VERTEX
  8
SURFACE
 62
7
  6
CONTINUOUS
 10
323.3430138114
 20
69.2789658558
  0
VERTEX
  8
SURFACE
 62
7
  6
CONTINUOUS
 10
323.34392239
 20
69.2952077088
  0
VERTEX
  8
SURFACE
 62
7
  6
CONTINUOUS
 10
323.3447864563
 20
69.3129474566
  0
VERTEX
  8
SURFACE
 62
7
  6
CONTINUOUS
 10
323.4680511
 20
72.2233135795
  0
SEQEND
  0
LINE
  8
SURFACE
 62
7
  6
CONTINUOUS
 10
323.3402660498
 20
111.6564962521
 11
323.4447527674
 21
112.6008354154
  0
POLYLINE
  8
SURFACE
 62
7
  6
CONTINUOUS
 66
1
 70
0
  0
VERTEX
  8
SURFACE
 62
7
  6
CONTINUOUS
 10
323.4447527674
 20
112.6008354154
  0
VERTEX
  8
SURFACE
 62
7
  6
CONTINUOUS
 10
323.451050137
 20
112.6535824525
  0
VERTEX
  8
SURFACE
 62
7
  6
CONTINUOUS
 10
323.4568892704
 20
112.6994562475
  0
SEQEND
  0
POLYLINE
  8
SURFACE
 62
7
  6
CONTINUOUS
 66
1
 70
0
  0
VERTEX
  8
SURFACE
 62
7
  6
CONTINUOUS
 10
323.4568892704
 20
112.6994562475
  0
VERTEX
  8
SURFACE
 62
7
  6
CONTINUOUS
 10
323.4622501951
 20
112.7388639199
  0
VERTEX
  8
SURFACE
 62
7
  6
CONTINUOUS
 10
323.4671005678
 20
112.7721319532
  0
VERTEX
  8
SURFACE
 62
7
  6
CONTINUOUS
 10
323.471391696
 20
112.7995056676
  0
VERTEX
  8
SURFACE
 62
7
  6
CONTINUOUS
 10
323.4750502914
 20
112.8211320282
  0
VERTEX
  8
SURFACE
 62
7
  6
CONTINUOUS
 10
323.4779665732
 20
112.837039262
  0
VERTEX
  8
SURFACE
 62
7
  6
CONTINUOUS
 10
323.4799748911
 20
112.8471047677
  0
VERTEX
  8
SURFACE
 62
7
  6
CONTINUOUS
 10
323.4806691104
 20
112.8503312414
  0
SEQEND
  0
LINE
  8
0
 62
7
  6
CONTINUOUS
 10
323.5823304158
 20
188.1242719273
 11
323.6823304158
 21
188.1242719273
  0
LINE
  8
0
 62
7
  6
CONTINUOUS
 10
323.5823304158
 20
188.2060937946
 11
323.6823304158
 21
188.2060937946
  0
LINE
  8
0
 62
7
  6
CONTINUOUS
 10
323.5823304158
 20
189.0890687829
 11
323.6823304158
 21
189.0890687829
  0
LINE
  8
0
 62
7
  6
CONTINUOUS
 10
323.5823304158
 20
189.562934502
 11
323.6823304158
 21
189.562934502
  0
LINE
  8
0
 62
7
  6
CONTINUOUS
 10
323.5823304158
 20
189.7925154161
 11
323.6823304158
 21
189.7925154161
  0
LINE
  8
0
 62
7
  6
CONTINUOUS
 10
323.5823304158
 20
190.165132347
 11
323.6823304158
 21
190.165132347
  0
LINE
  8
0
 62
7
  6
CONTINUOUS
 10
323.5823304158
 20
190.4871248639
 11
323.6823304158
 21
190.4871248639
  0
LINE
  8
0
 62
7
  6
CONTINUOUS
 10
323.5823304158
 20
191.4583973448
 11
323.6823304158
 21
191.4583973448
  0
LINE
  8
0
 62
7
  6
CONTINUOUS
 10
323.5823304158
 20
191.9322631656
 11
323.6823304158
 21
191.9322631656
  0
LINE
  8
0
 62
7
  6
CONTINUOUS
 10
323.5823304158
 20
193.055825209
 11
323.6823304158
 21
193.055825209
  0
LINE
  8
0
 62
7
  6
CONTINUOUS
 10
323.5823304158
 20
193.5154053508
 11
323.6823304158
 21
193.5154053508
  0
LINE
  8
0
 62
7
  6
CONTINUOUS
 10
323.5823304158
 20
193.5490741384
 11
323.6823304158
 21
193.5490741384
  0
LINE
  8
0
 62
7
  6
CONTINUOUS
 10
323.5823304158
 20
193.924930789
 11
323.6823304158
 21
193.924930789
  0
LINE
  8
0
 62
7
  6
CONTINUOUS
 10
323.5823304158
 20
194.3426494481
 11
323.6823304158
 21
194.3426494481
  0
LINE
  8
0
 62
7
  6
CONTINUOUS
 10
323.5823304158
 20
194.7103136667
 11
323.6823304158
 21
194.7103136667
  0
LINE
  8
0
 62
7
  6
CONTINUOUS
 10
323.5823304158
 20
194.9360072586
 11
323.6823304158
 21
194.9360072586
  0
LINE
  8
0
 62
7
  6
CONTINUOUS
 10
323.5823304158
 20
195.1116464099
 11
323.6823304158
 21
195.1116464099
  0
LINE
  8
0
 62
7
  6
CONTINUOUS
 10
323.5823304158
 20
195.1953693752
 11
323.6823304158
 21
195.1953693752
  0
LINE
  8
0
 62
7
  6
CONTINUOUS
 10
323.5823304158
 20
196.4639404671
 11
323.6823304158
 21
196.4639404671
  0
LINE
  8
0
 62
7
  6
CONTINUOUS
 10
323.5823304158
 20
196.913371858
 11
323.6823304158
 21
196.913371858
  0
LINE
  8
0
 62
7
  6
CONTINUOUS
 10
323.5823304158
 20
197.0015575949
 11
323.6823304158
 21
197.0015575949
  0
LINE
  8
0
 62
7
  6
CONTINUOUS
 10
323.5823304158
 20
197.2703660835
 11
323.6823304158
 21
197.2703660835
  0
LINE
  8
0
 62
7
  6
CONTINUOUS
 10
323.5823304158
 20
197.7197974744
 11
323.6823304158
 21
197.7197974744
  0
LINE
  8
0
 62
7
  6
CONTINUOUS
 10
323.5823304158
 20
200.092441846
 11
323.6823304158
 21
200.092441846
  0
LINE
  8
0
 62
7
  6
CONTINUOUS
 10
323.5823304158
 20
203.0546717731
 11
323.6823304158
 21
203.0546717731
  0
LINE
  8
0
 62
7
  6
CONTINUOUS
 10
323.5823304158
 20
203.14906396
 11
323.6823304158
 21
203.14906396
  0
LINE
  8
0
 62
7
  6
CONTINUOUS
 10
323.5823304158
 20
203.6436765175
 11
323.6823304158
 21
203.6436765175
  0
LINE
  8
0
 62
7
  6
CONTINUOUS
 10
323.5823304158
 20
205.9518681382
 11
323.6823304158
 21
205.9518681382
  0
LINE
  8
0
 62
7
  6
CONTINUOUS
 10
323.5823304158
 20
206.4464806958
 11
323.6823304158
 21
206.4464806958
  0
LINE
  8
0
 62
7
  6
CONTINUOUS
 10
323.5823304158
 20
206.6476775309
 11
323.6823304158
 21
206.6476775309
  0
LINE
  8
0
 62
7
  6
CONTINUOUS
 10
323.5823304158
 20
209.2730432898
 11
323.6823304158
 21
209.2730432898
  0
LINE
  8
0
 62
7
  6
CONTINUOUS
 10
323.5823304158
 20
209.9406227561
 11
323.6823304158
 21
209.9406227561
  0
LINE
  8
0
 62
7
  6
CONTINUOUS
 10
323.5823304158
 20
212.1658876436
 11
323.6823304158
 21
212.1658876436
  0
LINE
  8
0
 62
7
  6
CONTINUOUS
 10
323.5823304158
 20
212.8334671099
 11
323.6823304158
 21
212.8334671099
  0
LINE
  8
0
 62
7
  6
CONTINUOUS
 10
324.5823304158
 20
229.667463311
 11
323.5823304158
 21
231.3995141186
  0
POLYLINE
  8
0
 62
7
  6
CONTINUOUS
 66
1
 70
0
  0
VERTEX
  8
0
 62
7
  6
CONTINUOUS
 10
300.8193565093
 20
214.5734000944
  0
VERTEX
  8
0
 62
7
  6
CONTINUOUS
 10
300.7839449591
 20
214.5727729695
  0
VERTEX
  8
0
 62
7
  6
CONTINUOUS
 10
300.6981062693
 20
214.5660227679
  0
VERTEX
  8
0
 62
7
  6
CONTINUOUS
 10
300.616709572
 20
214.5526539686
  0
VERTEX
  8
0
 62
7
  6
CONTINUOUS
 10
300.5399200717
 20
214.5335682567
  0
VERTEX
  8
0
 62
7
  6
CONTINUOUS
 10
300.4677883827
 20
214.5095690083
  0
VERTEX
  8
0
 62
7
  6
CONTINUOUS
 10
300.4002769651
 20
214.4813596174
  0
VERTEX
  8
0
 62
7
  6
CONTINUOUS
 10
300.3372832429
 20
214.4495452285
  0
VERTEX
  8
0
 62
7
  6
CONTINUOUS
 10
300.2787008241
 20
214.4146635062
  0
VERTEX
  8
0
 62
7
  6
CONTINUOUS
 10
300.2244849374
 20
214.3772466556
  0
VERTEX
  8
0
 62
7
  6
CONTINUOUS
 10
300.1745622163
 20
214.3377898126
  0
VERTEX
  8
0
 62
7
  6
CONTINUOUS
 10
300.1288225366
 20
214.2967431143
  0
VERTEX
  8
0
 62
7
  6
CONTINUOUS
 10
300.0871341028
 20
214.2545203819
  0
VERTEX
  8
0
 62
7
  6
CONTINUOUS
 10
300.0493677367
 20
214.2115265491
  0
VERTEX
  8
0
 62
7
  6
CONTINUOUS
 10
300.0153744286
 20
214.168140411
  0
VERTEX
  8
0
 62
7
  6
CONTINUOUS
 10
299.9849827057
 20
214.1247081295
  0
VERTEX
  8
0
 62
7
  6
CONTINUOUS
 10
299.9579708948
 20
214.0814888202
  0
VERTEX
  8
0
 62
7
  6
CONTINUOUS
 10
299.9340619977
 20
214.038604145
  0
VERTEX
  8
0
 62
7
  6
CONTINUOUS
 10
299.912994911
 20
213.9961236127
  0
VERTEX
  8
0
 62
7
  6
CONTINUOUS
 10
299.8945459778
 20
213.9541124884
  0
VERTEX
  8
0
 62
7
  6
CONTINUOUS
 10
299.8785660688
 20
213.9127609571
  0
VERTEX
  8
0
 62
7
  6
CONTINUOUS
 10
299.864896855
 20
213.8722370295
  0
VERTEX
  8
0
 62
7
  6
CONTINUOUS
 10
299.8533768442
 20
213.8326993148
  0
VERTEX
  8
0
 62
7
  6
CONTINUOUS
 10
299.8438916537
 20
213.7945201608
  0
VERTEX
  8
0
 62
7
  6
CONTINUOUS
 10
299.8362770265
 20
213.7580047413
  0
VERTEX
  8
0
 62
7
  6
CONTINUOUS
 10
299.8303334777
 20
213.7233871598
  0
VERTEX
  8
0
 62
7
  6
CONTINUOUS
 10
299.8258812215
 20
213.6911821304
  0
VERTEX
  8
0
 62
7
  6
CONTINUOUS
 10
299.8244158255
 20
213.6786202671
  0
SEQEND
  0
LINE
  8
0
 62
7
  6
CONTINUOUS
 10
323.5823304158
 20
213.6674341822
 11
323.6823304158
 21
213.6674341822
  0
LINE
  8
0
 62
7
  6
CONTINUOUS
 10
300.8193520288
 20
214.5734007197
 11
311.5823304158
 21
214.5734007197
  0
LINE
  8
0
 62
7
  6
CONTINUOUS
 10
323.5823304158
 20
215.2973250869
 11
323.6823304158
 21
215.2973250869
  0
LINE
  8
0
 62
7
  6
CONTINUOUS
 10
323.5823304158
 20
215.5562211541
 11
323.6823304158
 21
215.5562211541
  0
LINE
  8
0
 62
7
  6
CONTINUOUS
 10
323.5823304158
 20
215.5858718792
 11
323.6823304158
 21
215.5858718792
  0
LINE
  8
0
 62
7
  6
CONTINUOUS
 10
323.5823304158
 20
216.9295704067
 11
323.6823304158
 21
216.9295704067
  0
LINE
  8
0
 62
7
  6
CONTINUOUS
 10
323.5823304158
 20
218.4161823191
 11
323.6823304158
 21
218.4161823191
  0
LINE
  8
0
 62
7
  6
CONTINUOUS
 10
323.5823304158
 20
218.6403633918
 11
323.6823304158
 21
218.6403633918
  0
LINE
  8
0
 62
7
  6
CONTINUOUS
 10
323.5823304158
 20
219.0642919908
 11
323.6823304158
 21
219.0642919908
  0
LINE
  8
0
 62
7
  6
CONTINUOUS
 10
323.5823304158
 20
222.2678586416
 11
323.6823304158
 21
222.2678586416
  0
LINE
  8
0
 62
7
  6
CONTINUOUS
 10
299.5823304158
 20
222.667463311
 11
292.4323304158
 21
222.667463311
  0
LINE
  8
SURFACE
 62
7
  6
CONTINUOUS
 10
323.6823304158
 20
222.667463311
 11
330.7323304158
 21
222.667463311
  0
LINE
  8
0
 62
7
  6
CONTINUOUS
 10
323.5823304158
 20
222.7389713164
 11
323.6823304158
 21
222.7389713164
  0
LINE
  8
0
 62
7
  6
CONTINUOUS
 10
323.5823304158
 20
224.6734431127
 11
323.6823304158
 21
224.6734431127
  0
LINE
  8
0
 62
7
  6
CONTINUOUS
 10
323.5823304158
 20
225.3845494403
 11
323.6823304158
 21
225.3845494403
  0
LINE
  8
0
 62
7
  6
CONTINUOUS
 10
323.5823304158
 20
225.6436175506
 11
323.6823304158
 21
225.6436175506
  0
LINE
  8
0
 62
7
  6
CONTINUOUS
 10
323.5823304158
 20
225.9725110415
 11
323.6823304158
 21
225.9725110415
  0
LINE
  8
0
 62
7
  6
CONTINUOUS
 10
323.5823304158
 20
226.4603398875
 11
323.6823304158
 21
226.4603398875
  0
LINE
  8
0
 62
7
  6
CONTINUOUS
 10
323.5823304158
 20
226.788387002
 11
323.6823304158
 21
226.788387002
  0
LINE
  8
0
 62
7
  6
CONTINUOUS
 10
323.5823304158
 20
226.9184734249
 11
323.6823304158
 21
226.9184734249
  0
LINE
  8
0
 62
7
  6
CONTINUOUS
 10
323.5823304158
 20
229.425459242
 11
323.6823304158
 21
229.425459242
  0
LINE
  8
0
 62
7
  6
CONTINUOUS
 10
323.5823304158
 20
229.9820105187
 11
323.6823304158
 21
229.9820105187
  0
LINE
  8
0
 62
7
  6
CONTINUOUS
 10
323.5823304158
 20
229.9942457507
 11
323.6823304158
 21
229.9942457507
  0
LINE
  8
0
 62
7
  6
CONTINUOUS
 10
323.5823304158
 20
230.5078284643
 11
323.6823304158
 21
230.5078284643
  0
LINE
  8
0
 62
7
  6
CONTINUOUS
 10
323.5823304158
 20
230.8843000898
 11
323.6823304158
 21
230.8843000898
  0
LINE
  8
SURFACE
 62
7
  6
CONTINUOUS
 10
322.4970995062
 20
235.4934438254
 11
311.5823304158
 21
235.4934438254
  0
POLYLINE
  8
0
 62
7
  6
CONTINUOUS
 66
1
 70
0
  0
VERTEX
  8
0
 62
7
  6
CONTINUOUS
 10
300.8210371209
 20
263.8250373637
  0
VERTEX
  8
0
 62
7
  6
CONTINUOUS
 10
300.7885476449
 20
263.8245094448
  0
VERTEX
  8
0
 62
7
  6
CONTINUOUS
 10
300.7547743788
 20
263.8228395869
  0
VERTEX
  8
0
 62
7
  6
CONTINUOUS
 10
300.7214634486
 20
263.8200675872
  0
VERTEX
  8
0
 62
7
  6
CONTINUOUS
 10
300.6886417742
 20
263.8162344084
  0
VERTEX
  8
0
 62
7
  6
CONTINUOUS
 10
300.6563337769
 20
263.8113805991
  0
VERTEX
  8
0
 62
7
  6
CONTINUOUS
 10
300.6245615007
 20
263.8055461972
  0
VERTEX
  8
0
 62
7
  6
CONTINUOUS
 10
300.5933447322
 20
263.7987706448
  0
VERTEX
  8
0
 62
7
  6
CONTINUOUS
 10
300.5627011199
 20
263.7910927107
  0
VERTEX
  8
0
 62
7
  6
CONTINUOUS
 10
300.5326462915
 20
263.7825504237
  0
VERTEX
  8
0
 62
7
  6
CONTINUOUS
 10
300.5031939692
 20
263.7731810134
  0
VERTEX
  8
0
 62
7
  6
CONTINUOUS
 10
300.4743560825
 20
263.7630208589
  0
VERTEX
  8
0
 62
7
  6
CONTINUOUS
 10
300.446142879
 20
263.7521054454
  0
VERTEX
  8
0
 62
7
  6
CONTINUOUS
 10
300.418563032
 20
263.7404693274
  0
VERTEX
  8
0
 62
7
  6
CONTINUOUS
 10
300.3916237446
 20
263.7281460986
  0
VERTEX
  8
0
 62
7
  6
CONTINUOUS
 10
300.3653308508
 20
263.715168367
  0
VERTEX
  8
0
 62
7
  6
CONTINUOUS
 10
300.3396889142
 20
263.7015677369
  0
VERTEX
  8
0
 62
7
  6
CONTINUOUS
 10
300.3147013224
 20
263.6873747946
  0
VERTEX
  8
0
 62
7
  6
CONTINUOUS
 10
300.2903703787
 20
263.6726190999
  0
VERTEX
  8
0
 62
7
  6
CONTINUOUS
 10
300.2666973906
 20
263.6573291816
  0
VERTEX
  8
0
 62
7
  6
CONTINUOUS
 10
300.2436827535
 20
263.6415325373
  0
VERTEX
  8
0
 62
7
  6
CONTINUOUS
 10
300.2213260332
 20
263.6252556365
  0
VERTEX
  8
0
 62
7
  6
CONTINUOUS
 10
300.1996260425
 20
263.6085239272
  0
VERTEX
  8
0
 62
7
  6
CONTINUOUS
 10
300.1785809168
 20
263.5913618463
  0
VERTEX
  8
0
 62
7
  6
CONTINUOUS
 10
300.1581881844
 20
263.5737928314
  0
VERTEX
  8
0
 62
7
  6
CONTINUOUS
 10
300.1384450853
 20
263.5558395709
  0
VERTEX
  8
0
 62
7
  6
CONTINUOUS
 10
300.1193514174
 20
263.5375268242
  0
VERTEX
  8
0
 62
7
  6
CONTINUOUS
 10
300.1009082435
 20
263.5188808461
  0
VERTEX
  8
0
 62
7
  6
CONTINUOUS
 10
300.0831157209
 20
263.4999275195
  0
VERTEX
  8
0
 62
7
  6
CONTINUOUS
 10
300.0659730938
 20
263.4806922918
  0
VERTEX
  8
0
 62
7
  6
CONTINUOUS
 10
300.0494787278
 20
263.4612001495
  0
VERTEX
  8
0
 62
7
  6
CONTINUOUS
 10
300.0336301452
 20
263.4414755956
  0
VERTEX
  8
0
 62
7
  6
CONTINUOUS
 10
300.0184240591
 20
263.4215426283
  0
VERTEX
  8
0
 62
7
  6
CONTINUOUS
 10
300.0038564095
 20
263.4014247216
  0
VERTEX
  8
0
 62
7
  6
CONTINUOUS
 10
299.9899223982
 20
263.3811448096
  0
VERTEX
  8
0
 62
7
  6
CONTINUOUS
 10
299.9766165258
 20
263.3607252727
  0
VERTEX
  8
0
 62
7
  6
CONTINUOUS
 10
299.9639326283
 20
263.3401879291
  0
VERTEX
  8
0
 62
7
  6
CONTINUOUS
 10
299.951863916
 20
263.3195540316
  0
VERTEX
  8
0
 62
7
  6
CONTINUOUS
 10
299.9404030134
 20
263.2988442735
  0
VERTEX
  8
0
 62
7
  6
CONTINUOUS
 10
299.9295420019
 20
263.2780788052
  0
VERTEX
  8
0
 62
7
  6
CONTINUOUS
 10
299.9192724658
 20
263.2572772706
  0
VERTEX
  8
0
 62
7
  6
CONTINUOUS
 10
299.9095856847
 20
263.2364591837
  0
VERTEX
  8
0
 62
7
  6
CONTINUOUS
 10
299.9004754806
 20
263.215650709
  0
VERTEX
  8
0
 62
7
  6
CONTINUOUS
 10
299.891937091
 20
263.1948841318
  0
VERTEX
  8
0
 62
7
  6
CONTINUOUS
 10
299.883964024
 20
263.1741914806
  0
VERTEX
  8
0
 62
7
  6
CONTINUOUS
 10
299.8765480403
 20
263.1536042264
  0
VERTEX
  8
0
 62
7
  6
CONTINUOUS
 10
299.8696792392
 20
263.1331531959
  0
VERTEX
  8
0
 62
7
  6
CONTINUOUS
 10
299.8633461956
 20
263.1128686466
  0
VERTEX
  8
0
 62
7
  6
CONTINUOUS
 10
299.8575362068
 20
263.0927808072
  0
VERTEX
  8
0
 62
7
  6
CONTINUOUS
 10
299.8522357312
 20
263.0729214761
  0
VERTEX
  8
0
 62
7
  6
CONTINUOUS
 10
299.847431193
 20
263.0533280567
  0
VERTEX
  8
0
 62
7
  6
CONTINUOUS
 10
299.8431143792
 20
263.0340713558
  0
VERTEX
  8
0
 62
7
  6
CONTINUOUS
 10
299.8392669178
 20
263.0151924316
  0
VERTEX
  8
0
 62
7
  6
CONTINUOUS
 10
299.8358611634
 20
262.9966894969
  0
VERTEX
  8
0
 62
7
  6
CONTINUOUS
 10
299.8328697519
 20
262.9785529321
  0
VERTEX
  8
0
 62
7
  6
CONTINUOUS
 10
299.8302772919
 20
262.9608466647
  0
VERTEX
  8
0
 62
7
  6
CONTINUOUS
 10
299.828106051
 20
262.9439784634
  0
VERTEX
  8
0
 62
7
  6
CONTINUOUS
 10
299.8262976958
 20
262.927830651
  0
VERTEX
  8
0
 62
7
  6
CONTINUOUS
 10
299.824772472
 20
262.9119358094
  0
VERTEX
  8
0
 62
7
  6
CONTINUOUS
 10
299.8235817392
 20
262.8972315357
  0
VERTEX
  8
0
 62
7
  6
CONTINUOUS
 10
299.8227103636
 20
262.8844451479
  0
VERTEX
  8
0
 62
7
  6
CONTINUOUS
 10
299.7723007911
 20
262.0031402669
  0
SEQEND
  0
POLYLINE
  8
0
 62
7
  6
CONTINUOUS
 66
1
 70
0
  0
VERTEX
  8
0
 62
7
  6
CONTINUOUS
 10
300.8208044618
 20
257.0062409203
  0
VERTEX
  8
0
 62
7
  6
CONTINUOUS
 10
300.8014550209
 20
257.0060537066
  0
VERTEX
  8
0
 62
7
  6
CONTINUOUS
 10
300.7582757268
 20
257.004284127
  0
VERTEX
  8
0
 62
7
  6
CONTINUOUS
 10
300.7158398602
 20
257.0007169992
  0
VERTEX
  8
0
 62
7
  6
CONTINUOUS
 10
300.6742030081
 20
256.9954367967
  0
VERTEX
  8
0
 62
7
  6
CONTINUOUS
 10
300.6334142404
 20
256.9885268638
  0
VERTEX
  8
0
 62
7
  6
CONTINUOUS
 10
300.5935165163
 20
256.9800691045
  0
VERTEX
  8
0
 62
7
  6
CONTINUOUS
 10
300.5545470841
 20
256.9701437126
  0
VERTEX
  8
0
 62
7
  6
CONTINUOUS
 10
300.516537876
 20
256.9588289419
  0
VERTEX
  8
0
 62
7
  6
CONTINUOUS
 10
300.4795158936
 20
256.9462009111
  0
VERTEX
  8
0
 62
7
  6
CONTINUOUS
 10
300.4435035822
 20
256.9323334433
  0
VERTEX
  8
0
 62
7
  6
CONTINUOUS
 10
300.408519199
 20
256.9172979368
  0
VERTEX
  8
0
 62
7
  6
CONTINUOUS
 10
300.3745771587
 20
256.9011632613
  0
VERTEX
  8
0
 62
7
  6
CONTINUOUS
 10
300.3416883689
 20
256.8839956793
  0
VERTEX
  8
0
 62
7
  6
CONTINUOUS
 10
300.3098605553
 20
256.8658587923
  0
VERTEX
  8
0
 62
7
  6
CONTINUOUS
 10
300.2790985707
 20
256.8468135071
  0
VERTEX
  8
0
 62
7
  6
CONTINUOUS
 10
300.2494046908
 20
256.8269180225
  0
VERTEX
  8
0
 62
7
  6
CONTINUOUS
 10
300.2207788959
 20
256.8062278323
  0
VERTEX
  8
0
 62
7
  6
CONTINUOUS
 10
300.1932191375
 20
256.7847957452
  0
VERTEX
  8
0
 62
7
  6
CONTINUOUS
 10
300.1667215921
 20
256.7626719187
  0
VERTEX
  8
0
 62
7
  6
CONTINUOUS
 10
300.1412809139
 20
256.7399039197
  0
VERTEX
  8
0
 62
7
  6
CONTINUOUS
 10
300.1168937228
 20
256.716540021
  0
VERTEX
  8
0
 62
7
  6
CONTINUOUS
 10
300.0935623922
 20
256.6926341842
  0
VERTEX
  8
0
 62
7
  6
CONTINUOUS
 10
300.0712878174
 20
256.6682403593
  0
VERTEX
  8
0
 62
7
  6
CONTINUOUS
 10
300.0500683908
 20
256.6434113939
  0
VERTEX
  8
0
 62
7
  6
CONTINUOUS
 10
300.0299001187
 20
256.6181989361
  0
VERTEX
  8
0
 62
7
  6
CONTINUOUS
 10
300.010776738
 20
256.5926533433
  0
VERTEX
  8
0
 62
7
  6
CONTINUOUS
 10
299.9926898379
 20
256.5668236033
  0
VERTEX
  8
0
 62
7
  6
CONTINUOUS
 10
299.9756289904
 20
256.5407572771
  0
VERTEX
  8
0
 62
7
  6
CONTINUOUS
 10
299.9595818962
 20
256.514500482
  0
VERTEX
  8
0
 62
7
  6
CONTINUOUS
 10
299.9445345539
 20
256.4880979437
  0
VERTEX
  8
0
 62
7
  6
CONTINUOUS
 10
299.9304714636
 20
256.4615931714
  0
VERTEX
  8
0
 62
7
  6
CONTINUOUS
 10
299.9173758802
 20
256.4350288411
  0
VERTEX
  8
0
 62
7
  6
CONTINUOUS
 10
299.9052305118
 20
256.4084483918
  0
VERTEX
  8
0
 62
7
  6
CONTINUOUS
 10
299.894022561
 20
256.3819091252
  0
VERTEX
  8
0
 62
7
  6
CONTINUOUS
 10
299.883736217
 20
256.3554684462
  0
VERTEX
  8
0
 62
7
  6
CONTINUOUS
 10
299.8743504553
 20
256.3291772845
  0
VERTEX
  8
0
 62
7
  6
CONTINUOUS
 10
299.8658404001
 20
256.3030811588
  0
VERTEX
  8
0
 62
7
  6
CONTINUOUS
 10
299.8581784727
 20
256.2772215483
  0
VERTEX
  8
0
 62
7
  6
CONTINUOUS
 10
299.8513374724
 20
256.2516461451
  0
VERTEX
  8
0
 62
7
  6
CONTINUOUS
 10
299.8452974055
 20
256.2264434204
  0
VERTEX
  8
0
 62
7
  6
CONTINUOUS
 10
299.8400773669
 20
256.2019295794
  0
VERTEX
  8
0
 62
7
  6
CONTINUOUS
 10
299.8356228594
 20
256.1781658996
  0
VERTEX
  8
0
 62
7
  6
CONTINUOUS
 10
299.8318166103
 20
256.1548109264
  0
VERTEX
  8
0
 62
7
  6
CONTINUOUS
 10
299.8286377252
 20
256.1320056271
  0
VERTEX
  8
0
 62
7
  6
CONTINUOUS
 10
299.8261441705
 20
256.1107539082
  0
VERTEX
  8
0
 62
7
  6
CONTINUOUS
 10
299.824205962
 20
256.0908473003
  0
VERTEX
  8
0
 62
7
  6
CONTINUOUS
 10
299.8227495259
 20
256.0726404668
  0
VERTEX
  8
0
 62
7
  6
CONTINUOUS
 10
299.8216470202
 20
256.0559607666
  0
SEQEND
  0
LINE
  8
0
 62
7
  6
CONTINUOUS
 10
300.8207991526
 20
257.006241692
 11
311.5823304158
 21
257.006241692
  0
LINE
  8
SURFACE
 62
7
  6
CONTINUOUS
 10
322.3436284592
 20
263.8250383923
 11
311.5823304158
 21
263.8250383923
  0
LINE
  8
0
 62
7
  6
CONTINUOUS
 10
300.8210323723
 20
263.8250383923
 11
311.5823304158
 21
263.8250383923
  0
ARC
  8
SURFACE
 62
7
  6
CONTINUOUS
 10
56.4950164114
 20
90.5134720672
 40
180.0
 50
71.270722021
 51
74.2834541621
  0
ARC
  8
SURFACE
 62
7
  6
CONTINUOUS
 10
43.95818523
 20
73.7018205645
 40
110.0000000855
 50
92.4929510691
 51
97.2175676541
  0
ARC
  8
0
 62
7
  6
CONTINUOUS
 10
59.3086814253
 20
91.8414827967
 40
2.0
 50
252.729277979
 51
298.7824323459
  0
ARC
  8
0
 62
7
  6
CONTINUOUS
 10
50.1362277845
 20
94.0096843786
 40
1.1
 50
144.0
 51
249.7165458379
  0
ARC
  8
0
 62
7
  6
CONTINUOUS
 10
35.8059839624
 20
118.989482282
 40
180.0
 50
357.7165458379
 51
0.729277979
  0
ARC
  8
SURFACE
 62
7
  6
CONTINUOUS
 10
27.3324555644
 20
145.0683211343
 40
180.0
 50
35.270722021
 51
38.2834541621
  0
ARC
  8
0
 62
7
  6
CONTINUOUS
 10
15.9430593604
 20
112.261333311
 40
110.0000000855
 50
334.7824323459
 51
339.5070489309
  0
ARC
  8
SURFACE
 62
7
  6
CONTINUOUS
 10
7.3083052631
 20
138.836373844
 40
110.0000000855
 50
56.4929510691
 51
61.2175676541
  0
ARC
  8
0
 62
7
  6
CONTINUOUS
 10
23.7334728745
 20
162.6143270749
 40
9.5
 50
288.0
 51
342.0
  0
ARC
  8
0
 62
7
  6
CONTINUOUS
 10
43.2700947243
 20
102.5930601081
 40
9.5
 50
324.0
 51
18.0
  0
ARC
  8
SURFACE
 62
7
  6
CONTINUOUS
 10
43.2076293323
 20
102.6790363443
 40
9.5
 50
54.0
 51
108.0
  0
ARC
  8
0
 62
7
  6
CONTINUOUS
 10
39.0865797937
 20
139.7391049689
 40
2.0
 50
18.0
 51
87.5070489309
  0
ARC
  8
0
 62
7
  6
CONTINUOUS
 10
30.3893434989
 20
144.4888735831
 40
2.0
 50
216.729277979
 51
262.7824323458
  0
ARC
  8
SURFACE
 62
7
  6
CONTINUOUS
 10
42.1828355496
 20
130.209809602
 40
2.0
 50
308.4929510691
 51
18.0
  0
ARC
  8
SURFACE
 62
7
  6
CONTINUOUS
 10
37.9384675262
 20
121.255058844
 40
2.0
 50
133.2175676541
 51
179.270722021
  0
ARC
  8
0
 62
7
  6
CONTINUOUS
 10
24.2431095371
 20
151.6344184875
 40
1.1
 50
108.0
 51
213.7165458379
  0
ARC
  8
SURFACE
 62
7
  6
CONTINUOUS
 10
37.1661057142
 20
111.8615259024
 40
1.1
 50
182.2834541621
 51
288.0
  0
ARC
  8
0
 62
7
  6
CONTINUOUS
 10
78.679001762
 20
74.3958632693
 40
180.0
 50
33.7165458379
 51
36.729277979
  0
ARC
  8
SURFACE
 62
7
  6
CONTINUOUS
 10
112.1545594588
 20
63.5189952313
 40
180.0
 50
107.270722021
 51
110.2834541621
  0
ARC
  8
0
 62
7
  6
CONTINUOUS
 10
66.5642649413
 20
57.2775422627
 40
110.0000000855
 50
10.7824323459
 51
15.5070489309
  0
ARC
  8
SURFACE
 62
7
  6
CONTINUOUS
 10
111.8936907974
 20
42.5491189832
 40
110.0000000855
 50
128.4929510691
 51
133.2175676541
  0
ARC
  8
0
 62
7
  6
CONTINUOUS
 10
94.3551693604
 20
65.518173311
 40
9.5
 50
0.0
 51
54.0
  0
ARC
  8
SURFACE
 62
7
  6
CONTINUOUS
 10
94.2540982331
 20
65.551013311
 40
9.5
 50
90.0
 51
144.0
  0
ARC
  8
0
 62
7
  6
CONTINUOUS
 10
69.1367373351
 20
93.1109464983
 40
2.0
 50
54.0
 51
123.5070489309
  0
ARC
  8
0
 62
7
  6
CONTINUOUS
 10
120.8551693604
 20
73.051013311
 40
2.0
 50
90.0000076346
 51
159.5070489309
  0
ARC
  8
0
 62
7
  6
CONTINUOUS
 10
113.6502771498
 20
66.2472092802
 40
2.0
 50
288.729277979
 51
334.7824323459
  0
ARC
  8
SURFACE
 62
7
  6
CONTINUOUS
 10
77.242840142
 20
87.2215180727
 40
2.0
 50
344.4929510691
 51
54.0
  0
ARC
  8
SURFACE
 62
7
  6
CONTINUOUS
 10
79.0725447142
 20
77.4821955996
 40
2.0
 50
169.2175676541
 51
215.270722021
  0
ARC
  8
0
 62
7
  6
CONTINUOUS
 10
104.9551693604
 20
62.6098882298
 40
1.1
 50
180.0
 51
285.7165458379
  0
ARC
  8
SURFACE
 62
7
  6
CONTINUOUS
 10
83.9690710125
 20
69.4286849301
 40
1.1
 50
218.2834541621
 51
324.0
  0
ARC
  8
DEFAULT_3
 62
2
  6
PHANTOM
 10
100.0513489106
 20
156.2724169288
 40
3.2
 50
45.0
 51
87.7455692247
  0
ARC
  8
DEFAULT_3
 62
2
  6
PHANTOM
 10
104.2939895977
 20
152.0297762417
 40
3.2
 50
3.5903778907
 51
45.0
  0
ARC
  8
DEFAULT_3
 62
2
  6
PHANTOM
 10
110.6814280568
 20
152.4305628819
 40
3.2
 50
183.5903778907
 51
225.0
  0
ARC
  8
DEFAULT_3
 62
2
  6
PHANTOM
 10
115.6281159823
 20
147.4838749565
 40
3.2
 50
225.0
 51
266.4096221093
  0
ARC
  8
DEFAULT_3
 62
2
  6
PHANTOM
 10
115.227329342
 20
141.0964364974
 40
3.2
 50
45.0
 51
86.4096221093
  0
ARC
  8
DEFAULT_3
 62
2
  6
PHANTOM
 10
119.4699700291
 20
136.8537958103
 40
3.2
 50
2.2544307753
 51
45.0
  0
ARC
  8
0
 62
7
  6
CONTINUOUS
 10
27.3324555644
 20
180.2666054878
 40
180.0
 50
321.7165458379
 51
324.729277979
  0
ARC
  8
SURFACE
 62
7
  6
CONTINUOUS
 10
35.8059839624
 20
206.3454443401
 40
180.0
 50
359.270722021
 51
2.2834541621
  0
ARC
  8
0
 62
7
  6
CONTINUOUS
 10
7.3083052631
 20
186.4985527781
 40
110.0000000855
 50
298.7824323459
 51
303.5070489309
  0
ARC
  8
SURFACE
 62
7
  6
CONTINUOUS
 10
15.9430593604
 20
213.073593311
 40
110.0000000855
 50
20.4929510691
 51
25.2175676541
  0
ARC
  8
0
 62
7
  6
CONTINUOUS
 10
43.2076293323
 20
222.6558902778
 40
9.5
 50
252.0
 51
306.0
  0
ARC
  8
SURFACE
 62
7
  6
CONTINUOUS
 10
23.7334728745
 20
162.7205995472
 40
9.5
 50
18.0
 51
72.0
  0
ARC
  8
0
 62
7
  6
CONTINUOUS
 10
42.1828355496
 20
195.1251170201
 40
2.0
 50
342.0
 51
51.5070489309
  0
ARC
  8
0
 62
7
  6
CONTINUOUS
 10
37.9384675262
 20
204.0798677781
 40
2.0
 50
180.729277979
 51
226.7824323459
  0
ARC
  8
SURFACE
 62
7
  6
CONTINUOUS
 10
39.0865797937
 20
185.5958216532
 40
2.0
 50
272.4929510691
 51
342.0
  0
ARC
  8
SURFACE
 62
7
  6
CONTINUOUS
 10
30.3893434989
 20
180.846053039
 40
2.0
 50
97.2175676541
 51
143.270722021
  0
ARC
  8
0
 62
7
  6
CONTINUOUS
 10
37.1661057142
 20
213.4734007197
 40
1.1
 50
72.0
 51
177.7165458379
  0
ARC
  8
SURFACE
 62
7
  6
CONTINUOUS
 10
24.2431095371
 20
173.7005081346
 40
1.1
 50
146.2834541621
 51
252.0
  0
ARC
  8
0
 62
7
  6
CONTINUOUS
 10
56.4950164114
 20
234.8214545549
 40
180.0
 50
285.7165458379
 51
288.729277979
  0
ARC
  8
0
 62
7
  6
CONTINUOUS
 10
43.95818523
 20
251.6331060576
 40
110.0000000855
 50
262.7824323459
 51
267.5070489309
  0
ARC
  8
SURFACE
 62
7
  6
CONTINUOUS
 10
43.2700947243
 20
222.741866514
 40
9.5
 50
342.0
 51
36.0
  0
ARC
  8
SURFACE
 62
7
  6
CONTINUOUS
 10
59.3086814253
 20
233.4934438254
 40
2.0
 50
61.2175676541
 51
107.270722021
  0
ARC
  8
SURFACE
 62
7
  6
CONTINUOUS
 10
50.1362277845
 20
231.3252422435
 40
1.1
 50
110.2834541621
 51
216.0
  0
ARC
  8
DEFAULT_3
 62
2
  6
PHANTOM
 10
119.4699700291
 20
188.4811308118
 40
3.2
 50
315.0
 51
357.7455692247
  0
ARC
  8
DEFAULT_3
 62
2
  6
PHANTOM
 10
115.227329342
 20
184.2384901247
 40
3.2
 50
273.5903778907
 51
315.0
  0
ARC
  8
DEFAULT_3
 62
2
  6
PHANTOM
 10
115.6281159823
 20
177.8510516656
 40
3.2
 50
93.5903778907
 51
135.0
  0
ARC
  8
DEFAULT_3
 62
2
  6
PHANTOM
 10
110.6814280568
 20
172.9043637402
 40
3.2
 50
135.0
 51
176.4096221093
  0
ARC
  8
DEFAULT_3
 62
2
  6
PHANTOM
 10
104.2939895977
 20
173.3051503804
 40
3.2
 50
315.0
 51
356.4096221093
  0
ARC
  8
DEFAULT_3
 62
2
  6
PHANTOM
 10
100.0513489106
 20
169.0625096933
 40
3.2
 50
272.2544307753
 51
315.0
  0
ARC
  8
DEFAULT_3
 62
2
  6
PHANTOM
 10
100.3031062715
 20
162.667463311
 40
3.2
 50
92.2544307753
 51
267.7455692247
  0
ARC
  8
0
 62
7
  6
CONTINUOUS
 10
112.1545594588
 20
261.8159313908
 40
180.0
 50
249.7165458379
 51
252.729277979
  0
ARC
  8
SURFACE
 62
7
  6
CONTINUOUS
 10
78.679001762
 20
250.9390633528
 40
180.0
 50
323.270722021
 51
326.2834541621
  0
ARC
  8
0
 62
7
  6
CONTINUOUS
 10
111.8936907974
 20
282.7858076389
 40
110.0000000855
 50
226.7824323459
 51
231.5070489309
  0
ARC
  8
SURFACE
 62
7
  6
CONTINUOUS
 10
66.5642649413
 20
268.0573843594
 40
110.0000000855
 50
344.4929510691
 51
349.2175676541
  0
ARC
  8
0
 62
7
  6
CONTINUOUS
 10
94.2540982331
 20
259.783913311
 40
9.5
 50
216.0
 51
270.0
  0
ARC
  8
SURFACE
 62
7
  6
CONTINUOUS
 10
94.3551693604
 20
259.816753311
 40
9.5
 50
306.0
 51
360.0
  0
ARC
  8
0
 62
7
  6
CONTINUOUS
 10
77.242840142
 20
238.1134085494
 40
2.0
 50
306.0
 51
15.5070489309
  0
ARC
  8
0
 62
7
  6
CONTINUOUS
 10
79.0725447142
 20
247.8527310225
 40
2.0
 50
144.729277979
 51
190.7824323459
  0
ARC
  8
SURFACE
 62
7
  6
CONTINUOUS
 10
69.1367373351
 20
232.2239801238
 40
2.0
 50
236.4929510691
 51
306.0
  0
ARC
  8
SURFACE
 62
7
  6
CONTINUOUS
 10
120.8551693604
 20
252.283913311
 40
2.0
 50
200.4929510691
 51
270.0
  0
ARC
  8
SURFACE
 62
7
  6
CONTINUOUS
 10
113.6502771498
 20
259.0877173419
 40
2.0
 50
25.2175676541
 51
71.270722021
  0
ARC
  8
0
 62
7
  6
CONTINUOUS
 10
83.9690710125
 20
255.906241692
 40
1.1
 50
36.0
 51
141.7165458379
  0
ARC
  8
SURFACE
 62
7
  6
CONTINUOUS
 10
104.9551693604
 20
262.7250383923
 40
1.1
 50
74.2834541621
 51
180.0
  0
ARC
  8
0
 62
7
  6
CONTINUOUS
 10
139.575473364
 20
63.5189952313
 40
180.0
 50
69.7165458379
 51
72.729277979
  0
ARC
  8
SURFACE
 62
7
  6
CONTINUOUS
 10
173.0510310607
 20
74.3958632693
 40
180.0
 50
143.270722021
 51
146.2834541621
  0
ARC
  8
0
 62
7
  6
CONTINUOUS
 10
139.8363420254
 20
42.5491189832
 40
110.0000000855
 50
46.7824323459
 51
51.5070489309
  0
ARC
  8
0
 62
7
  6
CONTINUOUS
 10
157.4759345897
 20
65.551013311
 40
9.5
 50
36.0
 51
90.0
  0
ARC
  8
SURFACE
 62
7
  6
CONTINUOUS
 10
157.3748634623
 20
65.518173311
 40
9.5
 50
126.0
 51
180.0
  0
ARC
  8
0
 62
7
  6
CONTINUOUS
 10
174.4871926807
 20
87.2215180727
 40
2.0
 50
126.0
 51
195.5070489309
  0
ARC
  8
0
 62
7
  6
CONTINUOUS
 10
172.6574881085
 20
77.4821955996
 40
2.0
 50
324.729277979
 51
10.7824323459
  0
ARC
  8
SURFACE
 62
7
  6
CONTINUOUS
 10
182.5932954876
 20
93.1109464983
 40
2.0
 50
56.4929510691
 51
126.0
  0
ARC
  8
SURFACE
 62
7
  6
CONTINUOUS
 10
130.8748634623
 20
73.051013311
 40
2.0
 50
20.4929510691
 51
90.0
  0
ARC
  8
SURFACE
 62
7
  6
CONTINUOUS
 10
138.0797556729
 20
66.2472092802
 40
2.0
 50
205.2175676541
 51
251.270722021
  0
ARC
  8
0
 62
7
  6
CONTINUOUS
 10
167.7609618103
 20
69.4286849301
 40
1.1
 50
216.0
 51
321.7165458379
  0
ARC
  8
SURFACE
 62
7
  6
CONTINUOUS
 10
146.7748634623
 20
62.6098882298
 40
1.1
 50
254.2834541621
 51
360.0
  0
ARC
  8
DEFAULT_3
 62
2
  6
PHANTOM
 10
151.6786839122
 20
156.2724169288
 40
3.2
 50
92.2544307753
 51
135.0
  0
ARC
  8
DEFAULT_3
 62
2
  6
PHANTOM
 10
125.8650164114
 20
137.1055531712
 40
3.2
 50
182.2544307753
 51
357.7455692247
  0
ARC
  8
DEFAULT_3
 62
2
  6
PHANTOM
 10
132.2600627936
 20
136.8537958103
 40
3.2
 50
135.0
 51
177.7455692247
  0
ARC
  8
DEFAULT_3
 62
2
  6
PHANTOM
 10
136.5027034808
 20
141.0964364974
 40
3.2
 50
93.5903778907
 51
135.0
  0
ARC
  8
DEFAULT_3
 62
2
  6
PHANTOM
 10
136.1019168405
 20
147.4838749565
 40
3.2
 50
273.5903778907
 51
315.0
  0
ARC
  8
DEFAULT_3
 62
2
  6
PHANTOM
 10
141.0486047659
 20
152.4305628819
 40
3.2
 50
315.0
 51
356.4096221093
  0
ARC
  8
DEFAULT_3
 62
2
  6
PHANTOM
 10
147.436043225
 20
152.0297762417
 40
3.2
 50
135.0
 51
176.4096221093
  0
ARC
  8
0
 62
7
  6
CONTINUOUS
 10
195.2350164114
 20
90.5134720672
 40
180.0
 50
105.7165458379
 51
108.729277979
  0
ARC
  8
0
 62
7
  6
CONTINUOUS
 10
207.7718475928
 20
73.7018205645
 40
110.0000000855
 50
82.7824323459
 51
87.5070489309
  0
ARC
  8
SURFACE
 62
7
  6
CONTINUOUS
 10
185.1657678814
 20
57.2775422627
 40
110.0000000855
 50
164.4929510691
 51
169.2175676541
  0
ARC
  8
SURFACE
 62
7
  6
CONTINUOUS
 10
192.4213513974
 20
91.8414827967
 40
2.0
 50
241.2175676541
 51
287.270722021
  0
ARC
  8
SURFACE
 62
7
  6
CONTINUOUS
 10
201.5938050383
 20
94.0096843786
 40
1.1
 50
290.2834541621
 51
36.0
  0
ARC
  8
0
 62
7
  6
CONTINUOUS
 10
224.3975772583
 20
145.0683211343
 40
180.0
 50
141.7165458379
 51
144.729277979
  0
ARC
  8
SURFACE
 62
7
  6
CONTINUOUS
 10
215.9240488603
 20
118.989482282
 40
180.0
 50
179.270722021
 51
182.2834541621
  0
ARC
  8
0
 62
7
  6
CONTINUOUS
 10
244.4217275597
 20
138.836373844
 40
110.0000000855
 50
118.7824323459
 51
123.5070489309
  0
ARC
  8
SURFACE
 62
7
  6
CONTINUOUS
 10
235.7869734623
 20
112.261333311
 40
110.0000000855
 50
200.4929510691
 51
205.2175676541
  0
ARC
  8
0
 62
7
  6
CONTINUOUS
 10
208.5224034904
 20
102.6790363443
 40
9.5
 50
72.0
 51
126.0
  0
ARC
  8
SURFACE
 62
7
  6
CONTINUOUS
 10
227.9965599482
 20
162.6143270749
 40
9.5
 50
198.0
 51
252.0
  0
ARC
  8
SURFACE
 62
7
  6
CONTINUOUS
 10
208.4599380984
 20
102.5930601081
 40
9.5
 50
162.0
 51
216.0
  0
ARC
  8
0
 62
7
  6
CONTINUOUS
 10
209.5471972732
 20
130.209809602
 40
2.0
 50
162.0000118096
 51
231.5070489309
  0
ARC
  8
0
 62
7
  6
CONTINUOUS
 10
213.7915652965
 20
121.255058844
 40
2.0
 50
0.729277979
 51
46.7824323458
  0
ARC
  8
SURFACE
 62
7
  6
CONTINUOUS
 10
212.6434530291
 20
139.7391049689
 40
2.0
 50
92.4929510691
 51
162.0
  0
ARC
  8
SURFACE
 62
7
  6
CONTINUOUS
 10
221.3406893239
 20
144.4888735831
 40
2.0
 50
277.2175676541
 51
323.270722021
  0
ARC
  8
0
 62
7
  6
CONTINUOUS
 10
214.5639271086
 20
111.8615259024
 40
1.1
 50
252.0
 51
357.7165458379
  0
ARC
  8
SURFACE
 62
7
  6
CONTINUOUS
 10
227.4869232857
 20
151.6344184875
 40
1.1
 50
326.2834541621
 51
72.0
  0
CIRCLE
  8
SURFACE
 62
7
  6
CONTINUOUS
 10
125.8650164114
 20
162.667463311
 40
60.0
  0
CIRCLE
  8
DEFAULT_3
 62
2
  6
PHANTOM
 10
125.8650164114
 20
162.667463311
 40
9.0
  0
ARC
  8
DEFAULT_3
 62
2
  6
PHANTOM
 10
151.4269265513
 20
162.667463311
 40
3.2
 50
272.2544307753
 51
87.7455692247
  0
ARC
  8
DEFAULT_3
 62
2
  6
PHANTOM
 10
151.6786839122
 20
169.0625096933
 40
3.2
 50
225.0
 51
267.7455692247
  0
ARC
  8
DEFAULT_3
 62
2
  6
PHANTOM
 10
147.436043225
 20
173.3051503804
 40
3.2
 50
183.5903778907
 51
225.0
  0
ARC
  8
DEFAULT_3
 62
2
  6
PHANTOM
 10
141.0486047659
 20
172.9043637402
 40
3.2
 50
3.5903778907
 51
45.0
  0
ARC
  8
DEFAULT_3
 62
2
  6
PHANTOM
 10
136.1019168405
 20
177.8510516656
 40
3.2
 50
45.0
 51
86.4096221093
  0
ARC
  8
DEFAULT_3
 62
2
  6
PHANTOM
 10
136.5027034808
 20
184.2384901247
 40
3.2
 50
225.0
 51
266.4096221093
  0
ARC
  8
DEFAULT_3
 62
2
  6
PHANTOM
 10
132.2600627936
 20
188.4811308118
 40
3.2
 50
182.2544307753
 51
225.0
  0
ARC
  8
DEFAULT_3
 62
2
  6
PHANTOM
 10
125.8650164114
 20
188.2293734509
 40
3.2
 50
2.2544307753
 51
177.7455692247
  0
ARC
  8
0
 62
7
  6
CONTINUOUS
 10
173.0510310607
 20
250.9390633528
 40
180.0
 50
213.7165458379
 51
216.729277979
  0
ARC
  8
SURFACE
 62
7
  6
CONTINUOUS
 10
139.575473364
 20
261.8159313908
 40
180.0
 50
287.270722021
 51
290.2834541621
  0
ARC
  8
SURFACE
 62
7
  6
CONTINUOUS
 10
139.8363420254
 20
282.7858076389
 40
110.0000000855
 50
308.4929510691
 51
313.2175676541
  0
ARC
  8
0
 62
7
  6
CONTINUOUS
 10
157.3748634623
 20
259.816753311
 40
9.5
 50
180.0
 51
234.0
  0
ARC
  8
SURFACE
 62
7
  6
CONTINUOUS
 10
157.4759345897
 20
259.783913311
 40
9.5
 50
270.0
 51
324.0
  0
ARC
  8
0
 62
7
  6
CONTINUOUS
 10
130.8748634623
 20
252.283913311
 40
2.0
 50
270.0
 51
339.5070489309
  0
ARC
  8
0
 62
7
  6
CONTINUOUS
 10
138.0797556729
 20
259.0877173419
 40
2.0
 50
108.729277979
 51
154.7824323459
  0
ARC
  8
0
 62
7
  6
CONTINUOUS
 10
182.5932954876
 20
232.2239801238
 40
2.0
 50
234.0000133757
 51
303.5070489309
  0
ARC
  8
SURFACE
 62
7
  6
CONTINUOUS
 10
174.4871926807
 20
238.1134085494
 40
2.0
 50
164.4929510691
 51
234.0
  0
ARC
  8
SURFACE
 62
7
  6
CONTINUOUS
 10
172.6574881085
 20
247.8527310225
 40
2.0
 50
349.2175676541
 51
35.270722021
  0
CIRCLE
  8
0
 62
7
  6
CONTINUOUS
 10
125.8650164114
 20
229.667463311
 40
1.7320508076
  0
ARC
  8
0
 62
7
  6
CONTINUOUS
 10
146.7748634623
 20
262.7250383923
 40
1.1
 50
0.0
 51
105.7165458379
  0
ARC
  8
SURFACE
 62
7
  6
CONTINUOUS
 10
167.7609618103
 20
255.906241692
 40
1.1
 50
38.2834541621
 51
144.0
  0
ARC
  8
0
 62
7
  6
CONTINUOUS
 10
215.9240488603
 20
206.3454443401
 40
180.0
 50
177.7165458379
 51
180.729277979
  0
ARC
  8
SURFACE
 62
7
  6
CONTINUOUS
 10
224.3975772583
 20
180.2666054878
 40
180.0
 50
215.270722021
 51
218.2834541621
  0
ARC
  8
0
 62
7
  6
CONTINUOUS
 10
235.7869734623
 20
213.073593311
 40
110.0000000855
 50
154.7824323459
 51
159.5070489309
  0
ARC
  8
SURFACE
 62
7
  6
CONTINUOUS
 10
244.4217275597
 20
186.4985527781
 40
110.0000000855
 50
236.4929510691
 51
241.2175676541
  0
ARC
  8
0
 62
7
  6
CONTINUOUS
 10
227.9965599482
 20
162.7205995472
 40
9.5
 50
108.0
 51
162.0
  0
ARC
  8
SURFACE
 62
7
  6
CONTINUOUS
 10
208.5224034904
 20
222.6558902778
 40
9.5
 50
234.0
 51
288.0
  0
ARC
  8
0
 62
7
  6
CONTINUOUS
 10
212.6434530291
 20
185.5958216532
 40
2.0
 50
198.0000086118
 51
267.5070489309
  0
ARC
  8
0
 62
7
  6
CONTINUOUS
 10
221.3406893239
 20
180.846053039
 40
2.0
 50
36.729277979
 51
82.7824323459
  0
ARC
  8
SURFACE
 62
7
  6
CONTINUOUS
 10
209.5471972732
 20
195.1251170201
 40
2.0
 50
128.4929510691
 51
198.0
  0
ARC
  8
SURFACE
 62
7
  6
CONTINUOUS
 10
213.7915652965
 20
204.0798677781
 40
2.0
 50
313.2175676541
 51
359.270722021
  0
ARC
  8
0
 62
7
  6
CONTINUOUS
 10
227.4869232857
 20
173.7005081346
 40
1.1
 50
288.0
 51
33.7165458379
  0
ARC
  8
SURFACE
 62
7
  6
CONTINUOUS
 10
214.5639271086
 20
213.4734007197
 40
1.1
 50
2.2834541621
 51
108.0
  0
ARC
  8
SURFACE
 62
7
  6
CONTINUOUS
 10
195.2350164114
 20
234.8214545549
 40
180.0
 50
251.270722021
 51
254.2834541621
  0
ARC
  8
0
 62
7
  6
CONTINUOUS
 10
185.1657678814
 20
268.0573843594
 40
110.0000000855
 50
190.7824323459
 51
195.5070489309
  0
ARC
  8
SURFACE
 62
7
  6
CONTINUOUS
 10
207.7718475928
 20
251.6331060576
 40
110.0000000855
 50
272.4929510691
 51
277.2175676541
  0
ARC
  8
0
 62
7
  6
CONTINUOUS
 10
208.4599380984
 20
222.741866514
 40
9.5
 50
144.0
 51
198.0
  0
ARC
  8
0
 62
7
  6
CONTINUOUS
 10
192.4213513974
 20
233.4934438254
 40
2.0
 50
72.729277979
 51
118.7824323459
  0
ARC
  8
0
 62
7
  6
CONTINUOUS
 10
201.5938050383
 20
231.3252422435
 40
1.1
 50
324.0
 51
69.7165458379
  0
ARC
  8
SURFACE
 62
7
  6
CONTINUOUS
 10
330.7323304158
 20
220.667463311
 40
2.0
 50
0.0
 51
90.0
  0
ARC
  8
SURFACE
 62
7
  6
CONTINUOUS
 10
330.7323304158
 20
104.667463311
 40
2.0
 50
270.0
 51
360.0
  0
ARC
  8
0
 62
7
  6
CONTINUOUS
 10
292.4323304158
 20
104.667463311
 40
2.0
 50
180.0
 51
270.0
  0
ARC
  8
0
 62
7
  6
CONTINUOUS
 10
292.4323304158
 20
220.667463311
 40
2.0
 50
90.0
 51
180.0
  0
ENDSEC
  0
EOF
