  0
SECTION
  2
HEADER
  9
$EXTMAX
 10
420.0
 20
297.0
 30
0.0
  9
$EXTMIN
 10
0.0
 20
0.0
 30
0.0
  9
$LIMMIN
 10
0.0
 20
0.0
  9
$LIMMAX
 10
420.0
 20
297.0
  9
$VIEWCTR
 10
210.0
 20
148.5
  9
$VIEWSIZE
 40
297.0
  9
$CLAYER
  8
0
  9
$LTSCALE
 40
23.1
  9
$CELTYPE
  6
BYLAYER
  9
$DIMSCALE
 40
1.0
  9
$DIMASZ
 40
3.5
  9
$DIMEXO
 40
2.625
  9
$DIMDLI
 40
15.96
  9
$DIMEXE
 40
7.56
  9
$DIMCEN
 40
3.78
  9
$DIMLFAC
 40
1.0
  9
$DIMBLK
  1
_FILLED
  9
$DIMTXT
 40
3.5
  9
$PDMODE
 70
3
  9
$PDSIZE
 40
0.3125
  9
$TILEMODE
 70
1
  0
ENDSEC
  0
SECTION
  2
TABLES
  0
TABLE
  2
LTYPE
 70
6
  0
LTYPE
  2
BYBLOCK
 70
0
  3

 72
65
 73
0
 40
0.0
  0
LTYPE
  2
BYLAYER
 70
0
  3

 72
65
 73
0
 40
0.0
  0
LTYPE
  2
CONTINUOUS
 70
64
  3
Solid line
 72
65
 73
0
 40
0.0
  0
LTYPE
  2
CENTER
 70
64
  3
____ _ ____ _ ____ _ ____ _ ____ _ ____ _ ____
 72
65
 73
4
 40
0.6
 49
0.375
 49
-0.075
 49
0.075
 49
-0.075
  0
LTYPE
  2
HIDDEN
 70
64
  3
- - - - - - - - - - - - - - - - - - - -
 72
65
 73
2
 40
0.2
 49
0.1
 49
-0.1
  0
LTYPE
  2
PHANTOM
 70
64
  3
_____ _ _ _____ _ _ _____ _ _ _____
 72
65
 73
6
 40
0.8
 49
0.45
 49
-0.05
 49
0.1
 49
-0.05
 49
0.1
 49
-0.05
  0
LTYPE
  2
DOT
 70
64
  3
. . . . . . . . . . . . . . . . . . . .
 72
65
 73
2
 40
0.2
 49
0.1
 49
-0.1
  0
LTYPE
  2
DASHED
 70
64
  3
- - - - - - - - - - - - - - - - - - - -
 72
65
 73
2
 40
0.2
 49
0.1
 49
-0.1
  0
ENDTAB
  0
TABLE
  2
LAYER
 70
36
  0
LAYER
  2
0
 70
0
 62
7
  6
CONTINUOUS
  0
LAYER
  2
DEFAULT_1
 70
0
 62
7
  6
CENTER
  0
LAYER
  2
DEFAULT_2
 70
0
 62
8
  6
HIDDEN
  0
LAYER
  2
DEFAULT_3
 70
0
 62
7
  6
PHANTOM
  0
LAYER
  2
CURVE
 70
0
 62
7
  6
CONTINUOUS
  0
LAYER
  2
SOLID
 70
0
 62
7
  6
CONTINUOUS
  0
LAYER
  2
SURFACE
 70
0
 62
7
  6
CONTINUOUS
  0
ENDTAB
  0
TABLE
  2
STYLE
 70
1
  0
STYLE
  2
STANDARD
 70
0
 40
0.0
 41
0.8
 50
0.0
 71
0
 42
0.2
  3
txt
  4

  0
STYLE
  2
TEXTSTYLE_1
 70
0
 40
0.0
 41
0.8
 50
0.0
 71
0
 42
0.2
  3
gdt
  4

  0
STYLE
  2
TEXTSTYLE_2
 70
0
 40
0.0
 41
0.6
 50
0.0
 71
0
 42
0.2
  3
txt
  4

  0
STYLE
  2
TEXTSTYLE_3
 70
0
 40
0.0
 41
1.0
 50
0.0
 71
0
 42
0.2
  3
ftb_____.ttf
  4

  0
STYLE
  2
TEXTSTYLE_4
 70
0
 40
0.0
 41
1.0
 50
0.0
 71
0
 42
0.2
  3
fti_____.ttf
  4

  0
STYLE
  2
TEXTSTYLE_5
 70
0
 40
0.0
 41
1.0
 50
0.0
 71
0
 42
0.2
  3
frutiger light.ttf
  4

  0
STYLE
  2
TEXTSTYLE_6
 70
0
 40
0.0
 41
0.7
 50
0.0
 71
0
 42
0.2
  3
txt
  4

  0
STYLE
  2
TEXTSTYLE_7
 70
0
 40
0.0
 41
0.8
 50
0.0
 71
0
 42
0.2
  3
txt
  4

  0
ENDTAB
  0
ENDSEC
  0
SECTION
  2
BLOCKS
  0
BLOCK
  8
0
 62
2
  6
CONTINUOUS
  2
SYMBOL_5_BL1
 70
64
 10
382.7840918555
 20
35.5067593403
  0
TEXT
  8
0
 62
7
  6
CONTINUOUS
 10
373.842376864
 20
30.5995157174
  7
TEXTSTYLE_4
 40
1.0655737705
  1
The brand for plastic modular belts and chains
 41
1.0
 72
0
  0
LINE
  8
0
 62
7
  6
CONTINUOUS
 10
358.7621602445
 20
36.0805298321
 11
358.7621602445
 21
33.9493822911
  0
LINE
  8
0
 62
7
  6
CONTINUOUS
 10
359.0512227376
 20
30.9584509954
 11
359.0512227376
 21
31.0552420547
  0
LINE
  8
0
 62
7
  6
CONTINUOUS
 10
358.7621602445
 20
31.0229783683
 11
358.8199727462
 21
30.8293962497
  0
LINE
  8
0
 62
7
  6
CONTINUOUS
 10
360.1556028675
 20
33.867415078
 11
360.1556028675
 21
36.0805298321
  0
LINE
  8
0
 62
7
  6
CONTINUOUS
 10
361.0746601894
 20
32.0231527829
 11
361.0746601894
 21
30.5067593403
  0
LINE
  8
0
 62
7
  6
CONTINUOUS
 10
361.3637227445
 20
30.5067593403
 11
361.3637227445
 21
31.2488242184
  0
LINE
  8
0
 62
7
  6
CONTINUOUS
 10
361.3637227445
 20
31.3778789641
 11
361.3637227445
 21
32.0231527829
  0
LINE
  8
0
 62
7
  6
CONTINUOUS
 10
358.8199727462
 20
31.216560532
 11
358.7621602445
 21
31.0229783683
  0
LINE
  8
0
 62
7
  6
CONTINUOUS
 10
359.1668477307
 20
30.7971325633
 11
359.0512227376
 21
30.9584509954
  0
LINE
  8
0
 62
7
  6
CONTINUOUS
 10
360.2652852997
 20
31.3133515913
 11
360.3230977445
 21
31.216560532
  0
LINE
  8
0
 62
7
  6
CONTINUOUS
 10
360.6121602997
 20
31.216560532
 11
360.5543476894
 21
31.3456152777
  0
LINE
  8
0
 62
7
  6
CONTINUOUS
 10
362.0408487691
 20
36.0805298321
 11
362.0408487691
 21
34.2772511436
  0
LINE
  8
0
 62
7
  6
CONTINUOUS
 10
362.0408487691
 20
32.9657757338
 11
362.0408487691
 21
32.3100380288
  0
LINE
  8
0
 62
7
  6
CONTINUOUS
 10
362.4043477445
 20
31.1520331591
 11
362.4043477445
 21
30.5067593403
  0
LINE
  8
0
 62
7
  6
CONTINUOUS
 10
362.6934101343
 20
30.5067593403
 11
362.6934101343
 21
31.1520331591
  0
LINE
  8
0
 62
7
  6
CONTINUOUS
 10
359.0512227376
 20
31.0552420547
 11
359.1090352445
 21
31.1842968456
  0
LINE
  8
0
 62
7
  6
CONTINUOUS
 10
358.8199727462
 20
30.8293962497
 11
358.9355977445
 21
30.7003414814
  0
LINE
  8
0
 62
7
  6
CONTINUOUS
 10
362.3465351343
 20
31.2810879048
 11
362.4043477445
 21
31.1520331591
  0
LINE
  8
0
 62
7
  6
CONTINUOUS
 10
363.1559103548
 20
30.7971325633
 11
363.2137226343
 21
30.668077795
  0
LINE
  8
0
 62
7
  6
CONTINUOUS
 10
362.6934101343
 20
31.1520331591
 11
362.6355978548
 21
31.3133515913
  0
LINE
  8
0
 62
7
  6
CONTINUOUS
 10
363.1559103548
 20
31.3456152777
 11
363.1559103548
 21
31.2810879048
  0
LINE
  8
0
 62
7
  6
CONTINUOUS
 10
363.1559103548
 20
30.8939236226
 11
363.1559103548
 21
30.7971325633
  0
LINE
  8
0
 62
7
  6
CONTINUOUS
 10
363.4342913921
 20
32.3100380288
 11
363.4342913921
 21
36.0805298321
  0
LINE
  8
0
 62
7
  6
CONTINUOUS
 10
363.4449727445
 20
30.7648688543
 11
363.4449727445
 21
30.8293962497
  0
LINE
  8
0
 62
7
  6
CONTINUOUS
 10
363.7621602445
 20
36.0805298321
 11
363.7621602445
 21
32.3100380288
  0
LINE
  8
0
 62
7
  6
CONTINUOUS
 10
360.5543476894
 20
30.7003414814
 11
360.6121602997
 21
30.8293962497
  0
LINE
  8
0
 62
7
  6
CONTINUOUS
 10
364.9480979651
 20
30.6035504109
 11
364.890285024
 21
30.7648688543
  0
LINE
  8
0
 62
7
  6
CONTINUOUS
 10
364.6012229651
 20
31.2810879048
 11
364.6012229651
 21
31.1842968456
  0
LINE
  8
0
 62
7
  6
CONTINUOUS
 10
364.6012229651
 20
31.0552420547
 11
364.6012229651
 21
30.8616599362
  0
LINE
  8
0
 62
7
  6
CONTINUOUS
 10
364.890285024
 20
30.7648688543
 11
364.890285024
 21
31.2810879048
  0
LINE
  8
0
 62
7
  6
CONTINUOUS
 10
365.1556028675
 20
32.3100380288
 11
365.1556028675
 21
34.1133167174
  0
LINE
  8
0
 62
7
  6
CONTINUOUS
 10
365.1556028675
 20
35.4247921272
 11
365.1556028675
 21
36.0805298321
  0
LINE
  8
0
 62
7
  6
CONTINUOUS
 10
365.4684104651
 20
32.0231527829
 11
365.4684104651
 21
31.8618343508
  0
LINE
  8
0
 62
7
  6
CONTINUOUS
 10
365.4684104651
 20
31.5391973962
 11
365.4684104651
 21
30.5067593403
  0
LINE
  8
0
 62
7
  6
CONTINUOUS
 10
365.757472524
 20
30.5067593403
 11
365.757472524
 21
31.5391973962
  0
LINE
  8
0
 62
7
  6
CONTINUOUS
 10
365.757472524
 20
31.8618343508
 11
365.757472524
 21
32.0231527829
  0
LINE
  8
0
 62
7
  6
CONTINUOUS
 10
360.3230977445
 20
30.8293962497
 11
360.2652852997
 21
30.7326051679
  0
LINE
  8
0
 62
7
  6
CONTINUOUS
 10
362.6355978548
 20
31.3133515913
 11
362.5777852445
 21
31.3778789641
  0
LINE
  8
0
 62
7
  6
CONTINUOUS
 10
363.5027853548
 20
30.7003414814
 11
363.4449727445
 21
30.7648688543
  0
LINE
  8
0
 62
7
  6
CONTINUOUS
 10
364.6590352445
 20
30.5712867188
 11
364.716847524
 21
30.5067593403
  0
LINE
  8
0
 62
7
  6
CONTINUOUS
 10
364.6012229651
 20
30.668077795
 11
364.6590352445
 21
30.5712867188
  0
LINE
  8
0
 62
7
  6
CONTINUOUS
 10
365.0059102445
 20
30.5067593403
 11
364.9480979651
 21
30.6035504109
  0
LINE
  8
0
 62
7
  6
CONTINUOUS
 10
364.890285024
 20
31.2810879048
 11
364.8324727445
 21
31.3778789641
  0
LINE
  8
0
 62
7
  6
CONTINUOUS
 10
366.2199727445
 20
31.5391973962
 11
366.2199727445
 21
30.5067593403
  0
LINE
  8
0
 62
7
  6
CONTINUOUS
 10
366.5090354651
 20
30.5067593403
 11
366.5090354651
 21
31.2488242184
  0
LINE
  8
0
 62
7
  6
CONTINUOUS
 10
366.5090354651
 20
31.3778789641
 11
366.5090354651
 21
31.5391973962
  0
LINE
  8
0
 62
7
  6
CONTINUOUS
 10
367.0408487691
 20
34.5231527829
 11
367.0408487691
 21
32.3100380288
  0
LINE
  8
0
 62
7
  6
CONTINUOUS
 10
358.9355977445
 20
31.3456152777
 11
358.8199727462
 21
31.216560532
  0
LINE
  8
0
 62
7
  6
CONTINUOUS
 10
359.1090352445
 20
31.1842968456
 11
359.1668477307
 21
31.2488242184
  0
LINE
  8
0
 62
7
  6
CONTINUOUS
 10
358.9355977445
 20
30.7003414814
 11
359.0512227376
 21
30.6358140973
  0
LINE
  8
0
 62
7
  6
CONTINUOUS
 10
359.3402852307
 20
30.7003414814
 11
359.1668477307
 21
30.7971325633
  0
LINE
  8
0
 62
7
  6
CONTINUOUS
 10
364.543410024
 20
31.3456152777
 11
364.6012229651
 21
31.2810879048
  0
LINE
  8
0
 62
7
  6
CONTINUOUS
 10
367.491847524
 20
31.2810879048
 11
367.5496604651
 21
31.1197694727
  0
LINE
  8
0
 62
7
  6
CONTINUOUS
 10
367.838722524
 20
31.1197694727
 11
367.7809102445
 21
31.2810879048
  0
LINE
  8
0
 62
7
  6
CONTINUOUS
 10
367.5496604651
 20
31.1197694727
 11
367.5496604651
 21
30.5067593403
  0
LINE
  8
0
 62
7
  6
CONTINUOUS
 10
367.838722524
 20
30.5067593403
 11
367.838722524
 21
31.1197694727
  0
LINE
  8
0
 62
7
  6
CONTINUOUS
 10
368.3012227445
 20
31.3456152777
 11
368.3012227445
 21
31.2810879048
  0
LINE
  8
0
 62
7
  6
CONTINUOUS
 10
368.4342913921
 20
32.3100380288
 11
368.4342913921
 21
34.4411855698
  0
LINE
  8
0
 62
7
  6
CONTINUOUS
 10
368.7621602445
 20
36.0805298321
 11
368.7621602445
 21
32.3100380288
  0
LINE
  8
0
 62
7
  6
CONTINUOUS
 10
363.4449727445
 20
30.8293962497
 11
363.5027853548
 21
30.926187309
  0
LINE
  8
0
 62
7
  6
CONTINUOUS
 10
359.0512227376
 20
30.6358140973
 11
359.2246602583
 21
30.5712867188
  0
LINE
  8
0
 62
7
  6
CONTINUOUS
 10
360.5543476894
 20
31.3456152777
 11
360.3809101894
 21
31.4424063369
  0
LINE
  8
0
 62
7
  6
CONTINUOUS
 10
363.2137226343
 20
30.668077795
 11
363.3871601343
 21
30.5712867188
  0
LINE
  8
0
 62
7
  6
CONTINUOUS
 10
362.2309102445
 20
31.3456152777
 11
362.3465351343
 21
31.2810879048
  0
LINE
  8
0
 62
7
  6
CONTINUOUS
 10
362.5777852445
 20
31.3778789641
 11
362.4621603548
 21
31.4424063369
  0
LINE
  8
0
 62
7
  6
CONTINUOUS
 10
368.3012227445
 20
30.7648688543
 11
368.4168479651
 21
30.6358140973
  0
LINE
  8
0
 62
7
  6
CONTINUOUS
 10
368.6480977445
 20
30.7003414814
 11
368.5902854651
 21
30.7648688543
  0
LINE
  8
0
 62
7
  6
CONTINUOUS
 10
368.3012227445
 20
31.2810879048
 11
368.4168479651
 21
31.1520331591
  0
LINE
  8
0
 62
7
  6
CONTINUOUS
 10
367.7809102445
 20
31.2810879048
 11
367.7230979651
 21
31.3778789641
  0
LINE
  8
0
 62
7
  6
CONTINUOUS
 10
370.1512223035
 20
30.7003414814
 11
370.1512223035
 21
30.7648688543
  0
LINE
  8
0
 62
7
  6
CONTINUOUS
 10
370.1556028675
 20
32.3100380288
 11
370.1556028675
 21
36.0805298321
  0
LINE
  8
0
 62
7
  6
CONTINUOUS
 10
363.2137226343
 20
31.4101426505
 11
363.1559103548
 21
31.3456152777
  0
LINE
  8
0
 62
7
  6
CONTINUOUS
 10
360.091847717
 20
31.3778789641
 11
360.2652852997
 21
31.3133515913
  0
LINE
  8
0
 62
7
  6
CONTINUOUS
 10
364.8324727445
 20
31.3778789641
 11
364.716847524
 21
31.4424063369
  0
LINE
  8
0
 62
7
  6
CONTINUOUS
 10
368.6480977445
 20
31.216560532
 11
368.5902854651
 21
31.2810879048
  0
LINE
  8
0
 62
7
  6
CONTINUOUS
 10
369.8043479651
 20
30.8293962497
 11
369.8621602445
 21
30.7648688543
  0
LINE
  8
0
 62
7
  6
CONTINUOUS
 10
370.1512223035
 20
30.7648688543
 11
370.0355977445
 21
30.8939236226
  0
LINE
  8
0
 62
7
  6
CONTINUOUS
 10
369.8043479651
 20
31.3456152777
 11
369.8621602445
 21
31.2810879048
  0
LINE
  8
0
 62
7
  6
CONTINUOUS
 10
370.1512223035
 20
31.2810879048
 11
370.0355977445
 21
31.4101426505
  0
LINE
  8
0
 62
7
  6
CONTINUOUS
 10
363.4449727445
 20
31.2810879048
 11
363.5027853548
 21
31.3456152777
  0
LINE
  8
0
 62
7
  6
CONTINUOUS
 10
363.2715352445
 20
31.0229783683
 11
363.1559103548
 21
30.8939236226
  0
LINE
  8
0
 62
7
  6
CONTINUOUS
 10
364.6012229651
 20
30.8616599362
 11
364.543410024
 21
30.7971325633
  0
LINE
  8
0
 62
7
  6
CONTINUOUS
 10
364.543410024
 20
30.6035504109
 11
364.6012229651
 21
30.668077795
  0
LINE
  8
0
 62
7
  6
CONTINUOUS
 10
363.3871601343
 20
30.5712867188
 11
363.5027853548
 21
30.5390230296
  0
LINE
  8
0
 62
7
  6
CONTINUOUS
 10
360.3809101894
 20
31.4424063369
 11
360.1496602445
 21
31.5069337098
  0
LINE
  8
0
 62
7
  6
CONTINUOUS
 10
363.7340351343
 20
30.6358140973
 11
363.5027853548
 21
30.7003414814
  0
LINE
  8
0
 62
7
  6
CONTINUOUS
 10
362.4621603548
 20
31.4424063369
 11
362.2887228548
 21
31.5069337098
  0
LINE
  8
0
 62
7
  6
CONTINUOUS
 10
364.716847524
 20
31.4424063369
 11
364.543410024
 21
31.5069337098
  0
LINE
  8
0
 62
7
  6
CONTINUOUS
 10
367.3762229651
 20
31.3456152777
 11
367.491847524
 21
31.2810879048
  0
LINE
  8
0
 62
7
  6
CONTINUOUS
 10
367.7230979651
 20
31.3778789641
 11
367.6074727445
 21
31.4424063369
  0
LINE
  8
0
 62
7
  6
CONTINUOUS
 10
359.2246602583
 20
30.5712867188
 11
359.3980977583
 21
30.5390230296
  0
LINE
  8
0
 62
7
  6
CONTINUOUS
 10
359.6871602721
 20
30.6358140973
 11
359.3402852307
 21
30.7003414814
  0
LINE
  8
0
 62
7
  6
CONTINUOUS
 10
362.1152853548
 20
31.3778789641
 11
362.2309102445
 21
31.3456152777
  0
LINE
  8
0
 62
7
  6
CONTINUOUS
 10
364.4277854651
 20
31.3778789641
 11
364.543410024
 21
31.3456152777
  0
LINE
  8
0
 62
7
  6
CONTINUOUS
 10
368.7637229651
 20
30.668077795
 11
368.6480977445
 21
30.7003414814
  0
LINE
  8
0
 62
7
  6
CONTINUOUS
 10
367.2605977445
 20
31.3778789641
 11
367.3762229651
 21
31.3456152777
  0
LINE
  8
0
 62
7
  6
CONTINUOUS
 10
368.4168479651
 20
30.6358140973
 11
368.5902854651
 21
30.5712867188
  0
LINE
  8
0
 62
7
  6
CONTINUOUS
 10
367.6074727445
 20
31.4424063369
 11
367.4340352445
 21
31.5069337098
  0
LINE
  8
0
 62
7
  6
CONTINUOUS
 10
368.8215352445
 20
31.1520331591
 11
368.6480977445
 21
31.216560532
  0
LINE
  8
0
 62
7
  6
CONTINUOUS
 10
369.6309104651
 20
30.8939236226
 11
369.8043479651
 21
30.8293962497
  0
LINE
  8
0
 62
7
  6
CONTINUOUS
 10
370.0355977445
 20
31.4101426505
 11
369.8621602445
 21
31.4746700234
  0
LINE
  8
0
 62
7
  6
CONTINUOUS
 10
368.4168479651
 20
31.1520331591
 11
368.6480977445
 21
31.0552420547
  0
LINE
  8
0
 62
7
  6
CONTINUOUS
 10
370.0355977445
 20
30.8939236226
 11
369.8043479651
 21
30.9907146818
  0
LINE
  8
0
 62
7
  6
CONTINUOUS
 10
368.5902854651
 20
31.2810879048
 11
368.6480977445
 21
31.3456152777
  0
LINE
  8
0
 62
7
  6
CONTINUOUS
 10
359.0512227376
 20
31.4101426505
 11
358.9355977445
 21
31.3456152777
  0
LINE
  8
0
 62
7
  6
CONTINUOUS
 10
359.1668477307
 20
31.2488242184
 11
359.3402852307
 21
31.3456152777
  0
LINE
  8
0
 62
7
  6
CONTINUOUS
 10
361.4793477997
 20
31.4424063369
 11
361.3637227445
 21
31.3778789641
  0
LINE
  8
0
 62
7
  6
CONTINUOUS
 10
361.3637227445
 20
31.2488242184
 11
361.4793477997
 21
31.3133515913
  0
LINE
  8
0
 62
7
  6
CONTINUOUS
 10
360.3809101894
 20
30.6035504109
 11
360.5543476894
 21
30.7003414814
  0
LINE
  8
0
 62
7
  6
CONTINUOUS
 10
359.3980977583
 20
30.5390230296
 11
359.744972717
 21
30.5067593403
  0
LINE
  8
0
 62
7
  6
CONTINUOUS
 10
363.5027853548
 20
30.5390230296
 11
363.7340351343
 21
30.5067593403
  0
LINE
  8
0
 62
7
  6
CONTINUOUS
 10
361.8840352445
 20
31.4101426505
 11
362.1152853548
 21
31.3778789641
  0
LINE
  8
0
 62
7
  6
CONTINUOUS
 10
364.1965353548
 20
31.4101426505
 11
364.4277854651
 21
31.3778789641
  0
LINE
  8
0
 62
7
  6
CONTINUOUS
 10
368.6480977445
 20
31.0552420547
 11
369.6309104651
 21
30.8939236226
  0
LINE
  8
0
 62
7
  6
CONTINUOUS
 10
369.8043479651
 20
30.9907146818
 11
368.8215352445
 21
31.1520331591
  0
LINE
  8
0
 62
7
  6
CONTINUOUS
 10
362.2887228548
 20
31.5069337098
 11
362.1152853548
 21
31.5391973962
  0
LINE
  8
0
 62
7
  6
CONTINUOUS
 10
368.5902854651
 20
30.5712867188
 11
368.7637229651
 21
30.5390230296
  0
LINE
  8
0
 62
7
  6
CONTINUOUS
 10
367.4340352445
 20
31.5069337098
 11
367.2605977445
 21
31.5391973962
  0
LINE
  8
0
 62
7
  6
CONTINUOUS
 10
369.6887227445
 20
31.3778789641
 11
369.8043479651
 21
31.3456152777
  0
LINE
  8
0
 62
7
  6
CONTINUOUS
 10
369.8621602445
 20
30.7648688543
 11
369.8043479651
 21
30.7003414814
  0
LINE
  8
0
 62
7
  6
CONTINUOUS
 10
368.4168479651
 20
31.4424063369
 11
368.3012227445
 21
31.3456152777
  0
LINE
  8
0
 62
7
  6
CONTINUOUS
 10
363.3293478548
 20
31.4746700234
 11
363.2137226343
 21
31.4101426505
  0
LINE
  8
0
 62
7
  6
CONTINUOUS
 10
363.3871601343
 20
31.0875057863
 11
363.2715352445
 21
31.0229783683
  0
LINE
  8
0
 62
7
  6
CONTINUOUS
 10
363.5027853548
 20
30.926187309
 11
363.6184102445
 21
30.9907146818
  0
LINE
  8
0
 62
7
  6
CONTINUOUS
 10
361.0746601894
 20
30.5067593403
 11
361.3637227445
 21
30.5067593403
  0
LINE
  8
0
 62
7
  6
CONTINUOUS
 10
362.4043477445
 20
30.5067593403
 11
362.6934101343
 21
30.5067593403
  0
LINE
  8
0
 62
7
  6
CONTINUOUS
 10
363.7340351343
 20
30.5067593403
 11
364.0809101343
 21
30.5067593403
  0
LINE
  8
0
 62
7
  6
CONTINUOUS
 10
364.716847524
 20
30.5067593403
 11
365.0059102445
 21
30.5067593403
  0
LINE
  8
0
 62
7
  6
CONTINUOUS
 10
365.4684104651
 20
30.5067593403
 11
365.757472524
 21
30.5067593403
  0
LINE
  8
0
 62
7
  6
CONTINUOUS
 10
366.2199727445
 20
30.5067593403
 11
366.5090354651
 21
30.5067593403
  0
LINE
  8
0
 62
7
  6
CONTINUOUS
 10
367.5496604651
 20
30.5067593403
 11
367.838722524
 21
30.5067593403
  0
LINE
  8
0
 62
7
  6
CONTINUOUS
 10
369.1105979651
 20
30.5067593403
 11
369.4574729651
 21
30.5067593403
  0
LINE
  8
0
 62
7
  6
CONTINUOUS
 10
369.4574729651
 20
30.6358140973
 11
369.1105979651
 21
30.6358140973
  0
LINE
  8
0
 62
7
  6
CONTINUOUS
 10
364.0809101343
 20
30.6358140973
 11
363.7340351343
 21
30.6358140973
  0
LINE
  8
0
 62
7
  6
CONTINUOUS
 10
368.5902854651
 20
30.7648688543
 11
368.3012227445
 21
30.7648688543
  0
LINE
  8
0
 62
7
  6
CONTINUOUS
 10
360.6121602997
 20
30.8293962497
 11
360.3230977445
 21
30.8293962497
  0
LINE
  8
0
 62
7
  6
CONTINUOUS
 10
359.6871602721
 20
31.4101426505
 11
360.091847717
 21
31.3778789641
  0
LINE
  8
0
 62
7
  6
CONTINUOUS
 10
360.1496602445
 20
31.5069337098
 11
359.744972717
 21
31.5391973962
  0
LINE
  8
0
 62
7
  6
CONTINUOUS
 10
368.7637229651
 20
30.5390230296
 11
369.1105979651
 21
30.5067593403
  0
LINE
  8
0
 62
7
  6
CONTINUOUS
 10
369.1105979651
 20
30.6358140973
 11
368.7637229651
 21
30.668077795
  0
LINE
  8
0
 62
7
  6
CONTINUOUS
 10
364.543410024
 20
31.5069337098
 11
364.1965353548
 21
31.5391973962
  0
LINE
  8
0
 62
7
  6
CONTINUOUS
 10
369.3418477445
 20
31.4101426505
 11
369.6887227445
 21
31.3778789641
  0
LINE
  8
0
 62
7
  6
CONTINUOUS
 10
369.6887227445
 20
31.5069337098
 11
369.3418477445
 21
31.5391973962
  0
LINE
  8
0
 62
7
  6
CONTINUOUS
 10
367.0293479651
 20
31.4101426505
 11
367.2605977445
 21
31.3778789641
  0
LINE
  8
0
 62
7
  6
CONTINUOUS
 10
369.8621602445
 20
31.4746700234
 11
369.6887227445
 21
31.5069337098
  0
LINE
  8
0
 62
7
  6
CONTINUOUS
 10
370.0355977445
 20
30.6035504109
 11
370.1512223035
 21
30.7003414814
  0
LINE
  8
0
 62
7
  6
CONTINUOUS
 10
364.543410024
 20
30.7971325633
 11
364.369972524
 21
30.7003414814
  0
LINE
  8
0
 62
7
  6
CONTINUOUS
 10
366.624660024
 20
31.4424063369
 11
366.5090354651
 21
31.3778789641
  0
LINE
  8
0
 62
7
  6
CONTINUOUS
 10
366.5090354651
 20
31.2488242184
 11
366.624660024
 21
31.3133515913
  0
LINE
  8
0
 62
7
  6
CONTINUOUS
 10
359.2246602583
 20
31.4746700234
 11
359.0512227376
 21
31.4101426505
  0
LINE
  8
0
 62
7
  6
CONTINUOUS
 10
361.6527851343
 20
31.5069337098
 11
361.4793477997
 21
31.4424063369
  0
LINE
  8
0
 62
7
  6
CONTINUOUS
 10
361.4793477997
 20
31.3133515913
 11
361.6527851343
 21
31.3778789641
  0
LINE
  8
0
 62
7
  6
CONTINUOUS
 10
360.2652852997
 20
30.7326051679
 11
360.091847717
 21
30.668077795
  0
LINE
  8
0
 62
7
  6
CONTINUOUS
 10
369.6887227445
 20
30.668077795
 11
369.4574729651
 21
30.6358140973
  0
LINE
  8
0
 62
7
  6
CONTINUOUS
 10
364.0809101343
 20
30.5067593403
 11
364.369972524
 21
30.5390230296
  0
LINE
  8
0
 62
7
  6
CONTINUOUS
 10
369.4574729651
 20
30.5067593403
 11
369.8043479651
 21
30.5390230296
  0
LINE
  8
0
 62
7
  6
CONTINUOUS
 10
359.744972717
 20
30.5067593403
 11
360.1496602445
 21
30.5390230296
  0
LINE
  8
0
 62
7
  6
CONTINUOUS
 10
360.091847717
 20
30.668077795
 11
359.6871602721
 21
30.6358140973
  0
LINE
  8
0
 62
7
  6
CONTINUOUS
 10
363.9652852445
 20
31.0552420547
 11
364.6012229651
 21
31.0552420547
  0
LINE
  8
0
 62
7
  6
CONTINUOUS
 10
364.6012229651
 20
31.1842968456
 11
363.9652852445
 21
31.1842968456
  0
LINE
  8
0
 62
7
  6
CONTINUOUS
 10
360.3230977445
 20
31.216560532
 11
360.6121602997
 21
31.216560532
  0
LINE
  8
0
 62
7
  6
CONTINUOUS
 10
363.1559103548
 20
31.2810879048
 11
363.4449727445
 21
31.2810879048
  0
LINE
  8
0
 62
7
  6
CONTINUOUS
 10
369.8621602445
 20
31.2810879048
 11
370.1512223035
 21
31.2810879048
  0
LINE
  8
0
 62
7
  6
CONTINUOUS
 10
363.8496603548
 20
31.4101426505
 11
364.1965353548
 21
31.4101426505
  0
LINE
  8
0
 62
7
  6
CONTINUOUS
 10
368.9949727445
 20
31.4101426505
 11
369.3418477445
 21
31.4101426505
  0
LINE
  8
0
 62
7
  6
CONTINUOUS
 10
369.3418477445
 20
31.5391973962
 11
368.9949727445
 21
31.5391973962
  0
LINE
  8
0
 62
7
  6
CONTINUOUS
 10
367.2605977445
 20
31.5391973962
 11
367.0293479651
 21
31.5391973962
  0
LINE
  8
0
 62
7
  6
CONTINUOUS
 10
366.5090354651
 20
31.5391973962
 11
366.2199727445
 21
31.5391973962
  0
LINE
  8
0
 62
7
  6
CONTINUOUS
 10
365.757472524
 20
31.5391973962
 11
365.4684104651
 21
31.5391973962
  0
LINE
  8
0
 62
7
  6
CONTINUOUS
 10
364.1965353548
 20
31.5391973962
 11
363.8496603548
 21
31.5391973962
  0
LINE
  8
0
 62
7
  6
CONTINUOUS
 10
362.1152853548
 20
31.5391973962
 11
361.8840352445
 21
31.5391973962
  0
LINE
  8
0
 62
7
  6
CONTINUOUS
 10
365.4684104651
 20
31.8618343508
 11
365.757472524
 21
31.8618343508
  0
LINE
  8
0
 62
7
  6
CONTINUOUS
 10
365.757472524
 20
32.0231527829
 11
365.4684104651
 21
32.0231527829
  0
LINE
  8
0
 62
7
  6
CONTINUOUS
 10
361.3637227445
 20
32.0231527829
 11
361.0746601894
 21
32.0231527829
  0
LINE
  8
0
 62
7
  6
CONTINUOUS
 10
360.4015045068
 20
32.3100380288
 11
360.8140758554
 21
32.3100380288
  0
LINE
  8
0
 62
7
  6
CONTINUOUS
 10
362.0408487691
 20
32.3100380288
 11
363.4342913921
 21
32.3100380288
  0
LINE
  8
0
 62
7
  6
CONTINUOUS
 10
363.7621602445
 20
32.3100380288
 11
365.1556028675
 21
32.3100380288
  0
LINE
  8
0
 62
7
  6
CONTINUOUS
 10
367.0408487691
 20
32.3100380288
 11
368.4342913921
 21
32.3100380288
  0
LINE
  8
0
 62
7
  6
CONTINUOUS
 10
368.7621602445
 20
32.3100380288
 11
370.1556028675
 21
32.3100380288
  0
LINE
  8
0
 62
7
  6
CONTINUOUS
 10
366.798097524
 20
31.5069337098
 11
366.624660024
 21
31.4424063369
  0
LINE
  8
0
 62
7
  6
CONTINUOUS
 10
364.369972524
 20
30.5390230296
 11
364.543410024
 21
30.6035504109
  0
LINE
  8
0
 62
7
  6
CONTINUOUS
 10
369.8043479651
 20
30.5390230296
 11
370.0355977445
 21
30.6035504109
  0
LINE
  8
0
 62
7
  6
CONTINUOUS
 10
369.8043479651
 20
30.7003414814
 11
369.6887227445
 21
30.668077795
  0
LINE
  8
0
 62
7
  6
CONTINUOUS
 10
368.7637229651
 20
31.3778789641
 11
368.9949727445
 21
31.4101426505
  0
LINE
  8
0
 62
7
  6
CONTINUOUS
 10
366.798097524
 20
31.3778789641
 11
367.0293479651
 21
31.4101426505
  0
LINE
  8
0
 62
7
  6
CONTINUOUS
 10
363.7340351343
 20
31.0229783683
 11
363.9652852445
 21
31.0552420547
  0
LINE
  8
0
 62
7
  6
CONTINUOUS
 10
367.0293479651
 20
31.5391973962
 11
366.798097524
 21
31.5069337098
  0
LINE
  8
0
 62
7
  6
CONTINUOUS
 10
363.6184102445
 20
31.3778789641
 11
363.8496603548
 21
31.4101426505
  0
LINE
  8
0
 62
7
  6
CONTINUOUS
 10
368.9949727445
 20
31.5391973962
 11
368.6480977445
 21
31.5069337098
  0
LINE
  8
0
 62
7
  6
CONTINUOUS
 10
363.9652852445
 20
31.1842968456
 11
363.6184102445
 21
31.1520331591
  0
LINE
  8
0
 62
7
  6
CONTINUOUS
 10
359.744972717
 20
31.5391973962
 11
359.3980977583
 21
31.5069337098
  0
LINE
  8
0
 62
7
  6
CONTINUOUS
 10
363.8496603548
 20
31.5391973962
 11
363.4449727445
 21
31.5069337098
  0
LINE
  8
0
 62
7
  6
CONTINUOUS
 10
361.221176638
 20
33.4575790124
 11
360.565438933
 21
33.4575790124
  0
LINE
  8
0
 62
7
  6
CONTINUOUS
 10
366.624660024
 20
31.3133515913
 11
366.798097524
 21
31.3778789641
  0
LINE
  8
0
 62
7
  6
CONTINUOUS
 10
368.6480977445
 20
31.3456152777
 11
368.7637229651
 21
31.3778789641
  0
LINE
  8
0
 62
7
  6
CONTINUOUS
 10
368.6480977445
 20
31.5069337098
 11
368.4168479651
 21
31.4424063369
  0
LINE
  8
0
 62
7
  6
CONTINUOUS
 10
364.369972524
 20
30.7003414814
 11
364.0809101343
 21
30.6358140973
  0
LINE
  8
0
 62
7
  6
CONTINUOUS
 10
361.6527851343
 20
31.3778789641
 11
361.8840352445
 21
31.4101426505
  0
LINE
  8
0
 62
7
  6
CONTINUOUS
 10
361.8840352445
 20
31.5391973962
 11
361.6527851343
 21
31.5069337098
  0
LINE
  8
0
 62
7
  6
CONTINUOUS
 10
359.4559102445
 20
31.3778789641
 11
359.6871602721
 21
31.4101426505
  0
LINE
  8
0
 62
7
  6
CONTINUOUS
 10
365.9752749986
 20
34.9329888485
 11
366.6310127035
 21
34.9329888485
  0
LINE
  8
0
 62
7
  6
CONTINUOUS
 10
363.6184102445
 20
30.9907146818
 11
363.7340351343
 21
31.0229783683
  0
LINE
  8
0
 62
7
  6
CONTINUOUS
 10
363.6184102445
 20
31.1520331591
 11
363.3871601343
 21
31.0875057863
  0
LINE
  8
0
 62
7
  6
CONTINUOUS
 10
363.5027853548
 20
31.3456152777
 11
363.6184102445
 21
31.3778789641
  0
LINE
  8
0
 62
7
  6
CONTINUOUS
 10
360.1496602445
 20
30.5390230296
 11
360.3809101894
 21
30.6035504109
  0
LINE
  8
0
 62
7
  6
CONTINUOUS
 10
363.4449727445
 20
31.5069337098
 11
363.3293478548
 21
31.4746700234
  0
LINE
  8
0
 62
7
  6
CONTINUOUS
 10
359.3980977583
 20
31.5069337098
 11
359.2246602583
 21
31.4746700234
  0
LINE
  8
0
 62
7
  6
CONTINUOUS
 10
370.1556028675
 20
36.0805298321
 11
368.7621602445
 21
36.0805298321
  0
LINE
  8
0
 62
7
  6
CONTINUOUS
 10
366.7949471298
 20
36.0805298321
 11
366.3823757812
 21
36.0805298321
  0
LINE
  8
0
 62
7
  6
CONTINUOUS
 10
365.1556028675
 20
36.0805298321
 11
363.7621602445
 21
36.0805298321
  0
LINE
  8
0
 62
7
  6
CONTINUOUS
 10
363.4342913921
 20
36.0805298321
 11
362.0408487691
 21
36.0805298321
  0
LINE
  8
0
 62
7
  6
CONTINUOUS
 10
360.1556028675
 20
36.0805298321
 11
358.7621602445
 21
36.0805298321
  0
LINE
  8
0
 62
7
  6
CONTINUOUS
 10
359.3402852307
 20
31.3456152777
 11
359.4559102445
 21
31.3778789641
  0
CIRCLE
  8
0
 62
7
  6
CONTINUOUS
 10
369.458881556
 20
38.4165954059
 40
2.0901639344
  0
ARC
  8
0
 62
7
  6
CONTINUOUS
 10
360.4015045068
 20
33.9493822911
 40
1.6393442623
 50
180.0
 51
270.0
  0
ARC
  8
0
 62
7
  6
CONTINUOUS
 10
366.7949471298
 20
34.4411855698
 40
1.6393442623
 50
0.0
 51
90.0
  0
ARC
  8
0
 62
7
  6
CONTINUOUS
 10
360.8140758554
 20
33.7854478649
 40
1.4754098361
 50
270.0
 51
326.2510114041
  0
ARC
  8
0
 62
7
  6
CONTINUOUS
 10
366.3823757812
 20
34.6051199961
 40
1.4754098361
 50
90.0
 51
146.2510114041
  0
ARC
  8
0
 62
7
  6
CONTINUOUS
 10
361.221176638
 20
34.2772511436
 40
0.8196721311
 50
270.0
 51
360.0
  0
ARC
  8
0
 62
7
  6
CONTINUOUS
 10
365.9752749986
 20
34.1133167174
 40
0.8196721311
 50
90.0
 51
180.0
  0
ARC
  8
0
 62
7
  6
CONTINUOUS
 10
360.565438933
 20
33.867415078
 40
0.4098360656
 50
180.0
 51
270.0
  0
ARC
  8
0
 62
7
  6
CONTINUOUS
 10
366.6310127035
 20
34.5231527829
 40
0.4098360656
 50
0.0
 51
90.0
  0
SOLID
  8
0
 62
7
  6
CONTINUOUS
 10
365.4684104651
 20
31.8618347111
 11
365.4684104651
 21
32.0231531947
 12
365.757472524
 22
31.8618347111
 13
365.757472524
 23
32.0231531947
  0
SOLID
  8
0
 62
7
  6
CONTINUOUS
 10
359.744972717
 20
31.5391977439
 11
360.1496602445
 21
31.5069333244
 12
359.3980977583
 22
31.5069333244
 13
359.3980977583
 23
31.5069333244
  0
SOLID
  8
0
 62
7
  6
CONTINUOUS
 10
359.2246602583
 20
31.4746706537
 11
359.3980977583
 21
31.5069333244
 12
360.1496602445
 22
31.5069333244
 13
360.1496602445
 23
31.5069333244
  0
SOLID
  8
0
 62
7
  6
CONTINUOUS
 10
360.1496602445
 20
31.5069333244
 11
360.3809101894
 21
31.4424063504
 12
359.2246602583
 22
31.4746706537
 13
359.2246602583
 23
31.4746706537
  0
SOLID
  8
0
 62
7
  6
CONTINUOUS
 10
359.0512227376
 20
31.4101419116
 11
359.2246602583
 21
31.4746706537
 12
360.3809101894
 22
31.4424063504
 13
360.3809101894
 23
31.4424063504
  0
SOLID
  8
0
 62
7
  6
CONTINUOUS
 10
359.0512227376
 20
31.4101419116
 11
360.3809101894
 21
31.4424063504
 12
359.6871602721
 22
31.4101419116
 13
359.6871602721
 23
31.4101419116
  0
SOLID
  8
0
 62
7
  6
CONTINUOUS
 10
359.6871602721
 20
31.4101419116
 11
360.3809101894
 21
31.4424063504
 12
360.091847717
 22
31.3778792603
 13
360.091847717
 23
31.3778792603
  0
SOLID
  8
0
 62
7
  6
CONTINUOUS
 10
360.3809101894
 20
31.4424063504
 11
360.5543476894
 21
31.345614957
 12
360.091847717
 22
31.3778792603
 13
360.091847717
 23
31.3778792603
  0
SOLID
  8
0
 62
7
  6
CONTINUOUS
 10
360.2652852997
 20
31.3133521701
 11
360.091847717
 21
31.3778792603
 12
360.5543476894
 22
31.345614957
 13
360.5543476894
 23
31.345614957
  0
SOLID
  8
0
 62
7
  6
CONTINUOUS
 10
360.2652852997
 20
31.3133521701
 11
360.5543476894
 21
31.345614957
 12
360.3230977445
 22
31.2165606992
 13
360.3230977445
 23
31.2165606992
  0
SOLID
  8
0
 62
7
  6
CONTINUOUS
 10
360.5543476894
 20
31.345614957
 11
360.6121602997
 21
31.2165606992
 12
360.3230977445
 22
31.2165606992
 13
360.3230977445
 23
31.2165606992
  0
SOLID
  8
0
 62
7
  6
CONTINUOUS
 10
361.6527851343
 20
31.5069329918
 11
361.8840352445
 21
31.5391972951
 12
362.1152853548
 22
31.5391972951
 13
362.1152853548
 23
31.5391972951
  0
SOLID
  8
0
 62
7
  6
CONTINUOUS
 10
362.1152853548
 20
31.5391972951
 11
362.2887228548
 21
31.5069329918
 12
361.6527851343
 22
31.5069329918
 13
361.6527851343
 23
31.5069329918
  0
SOLID
  8
0
 62
7
  6
CONTINUOUS
 10
361.4793477997
 20
31.4424059016
 11
361.6527851343
 21
31.5069329918
 12
362.2887228548
 22
31.5069329918
 13
362.2887228548
 23
31.5069329918
  0
SOLID
  8
0
 62
7
  6
CONTINUOUS
 10
362.2887228548
 20
31.5069329918
 11
362.4621603548
 21
31.4424059016
 12
361.4793477997
 22
31.4424059016
 13
361.4793477997
 23
31.4424059016
  0
SOLID
  8
0
 62
7
  6
CONTINUOUS
 10
362.4621603548
 20
31.4424059016
 11
361.8840352445
 21
31.4101420472
 12
361.4793477997
 22
31.4424059016
 13
361.4793477997
 23
31.4424059016
  0
SOLID
  8
0
 62
7
  6
CONTINUOUS
 10
361.3637227445
 20
31.3778788115
 11
361.4793477997
 21
31.4424059016
 12
361.8840352445
 22
31.4101420472
 13
361.8840352445
 23
31.4101420472
  0
SOLID
  8
0
 62
7
  6
CONTINUOUS
 10
361.8840352445
 20
31.4101420472
 11
361.6527851343
 21
31.3778788115
 12
361.3637227445
 22
31.3778788115
 13
361.3637227445
 23
31.3778788115
  0
SOLID
  8
0
 62
7
  6
CONTINUOUS
 10
361.8840352445
 20
31.4101420472
 11
362.4621603548
 21
31.4424059016
 12
362.1152853548
 22
31.3778788115
 13
362.1152853548
 23
31.3778788115
  0
SOLID
  8
0
 62
7
  6
CONTINUOUS
 10
362.4621603548
 20
31.4424059016
 11
362.5777852445
 21
31.3778788115
 12
362.1152853548
 22
31.3778788115
 13
362.1152853548
 23
31.3778788115
  0
SOLID
  8
0
 62
7
  6
CONTINUOUS
 10
362.2309102445
 20
31.345614957
 11
362.1152853548
 21
31.3778788115
 12
362.5777852445
 22
31.3778788115
 13
362.5777852445
 23
31.3778788115
  0
SOLID
  8
0
 62
7
  6
CONTINUOUS
 10
362.5777852445
 20
31.3778788115
 11
362.6355978548
 21
31.3133517213
 12
362.2309102445
 22
31.345614957
 13
362.2309102445
 23
31.345614957
  0
SOLID
  8
0
 62
7
  6
CONTINUOUS
 10
362.3465351343
 20
31.2810878668
 11
362.2309102445
 21
31.345614957
 12
362.6355978548
 22
31.3133517213
 13
362.6355978548
 23
31.3133517213
  0
SOLID
  8
0
 62
7
  6
CONTINUOUS
 10
362.3465351343
 20
31.2810878668
 11
362.6355978548
 21
31.3133517213
 12
362.4043477445
 22
31.1520332377
 13
362.4043477445
 23
31.1520332377
  0
SOLID
  8
0
 62
7
  6
CONTINUOUS
 10
362.6355978548
 20
31.3133517213
 11
362.6934101343
 21
31.1520332377
 12
362.4043477445
 22
31.1520332377
 13
362.4043477445
 23
31.1520332377
  0
SOLID
  8
0
 62
7
  6
CONTINUOUS
 10
361.6527851343
 20
31.3778788115
 11
361.4793477997
 21
31.3133517213
 12
361.3637227445
 22
31.3778788115
 13
361.3637227445
 23
31.3778788115
  0
SOLID
  8
0
 62
7
  6
CONTINUOUS
 10
361.4793477997
 20
31.3133517213
 11
361.3637227445
 21
31.2488235635
 12
361.3637227445
 22
31.3778788115
 13
361.3637227445
 23
31.3778788115
  0
SOLID
  8
0
 62
7
  6
CONTINUOUS
 10
361.3637227445
 20
31.2488235635
 11
361.0746601894
 21
30.5067593033
 12
361.3637227445
 22
31.3778788115
 13
361.3637227445
 23
31.3778788115
  0
SOLID
  8
0
 62
7
  6
CONTINUOUS
 10
361.3637227445
 20
31.3778788115
 11
361.0746601894
 21
30.5067593033
 12
361.3637227445
 22
32.0231527459
 13
361.3637227445
 23
32.0231527459
  0
SOLID
  8
0
 62
7
  6
CONTINUOUS
 10
361.0746601894
 20
30.5067593033
 11
361.0746601894
 21
32.0231527459
 12
361.3637227445
 22
32.0231527459
 13
361.3637227445
 23
32.0231527459
  0
SOLID
  8
0
 62
7
  6
CONTINUOUS
 10
361.3637227445
 20
31.2488235635
 11
361.3637227445
 21
30.5067593033
 12
361.0746601894
 22
30.5067593033
 13
361.0746601894
 23
30.5067593033
  0
SOLID
  8
0
 62
7
  6
CONTINUOUS
 10
362.4043477445
 20
30.5067593033
 11
362.4043477445
 21
31.1520332377
 12
362.6934101343
 22
31.1520332377
 13
362.6934101343
 23
31.1520332377
  0
SOLID
  8
0
 62
7
  6
CONTINUOUS
 10
362.6934101343
 20
31.1520332377
 11
362.6934101343
 21
30.5067593033
 12
362.4043477445
 22
30.5067593033
 13
362.4043477445
 23
30.5067593033
  0
SOLID
  8
0
 62
7
  6
CONTINUOUS
 10
363.4449727445
 20
31.506933758
 11
363.8496603548
 21
31.5391977507
 12
364.1965353548
 22
31.5391977507
 13
364.1965353548
 23
31.5391977507
  0
SOLID
  8
0
 62
7
  6
CONTINUOUS
 10
364.1965353548
 20
31.5391977507
 11
364.543410024
 21
31.506933758
 12
363.4449727445
 22
31.506933758
 13
363.4449727445
 23
31.506933758
  0
SOLID
  8
0
 62
7
  6
CONTINUOUS
 10
363.3293478548
 20
31.4746706537
 11
363.4449727445
 21
31.506933758
 12
364.543410024
 22
31.506933758
 13
364.543410024
 23
31.506933758
  0
SOLID
  8
0
 62
7
  6
CONTINUOUS
 10
364.543410024
 20
31.506933758
 11
364.716847524
 21
31.4424063504
 12
363.3293478548
 22
31.4746706537
 13
363.3293478548
 23
31.4746706537
  0
SOLID
  8
0
 62
7
  6
CONTINUOUS
 10
363.2137226343
 20
31.4101417797
 11
363.3293478548
 21
31.4746706537
 12
364.716847524
 22
31.4424063504
 13
364.716847524
 23
31.4424063504
  0
SOLID
  8
0
 62
7
  6
CONTINUOUS
 10
363.2137226343
 20
31.4101417797
 11
364.716847524
 21
31.4424063504
 12
363.8496603548
 22
31.4101417797
 13
363.8496603548
 23
31.4101417797
  0
SOLID
  8
0
 62
7
  6
CONTINUOUS
 10
363.8496603548
 20
31.4101417797
 11
364.716847524
 21
31.4424063504
 12
364.1965353548
 22
31.4101417797
 13
364.1965353548
 23
31.4101417797
  0
SOLID
  8
0
 62
7
  6
CONTINUOUS
 10
364.1965353548
 20
31.4101417797
 11
364.716847524
 21
31.4424063504
 12
364.4277854651
 22
31.3778793357
 13
364.4277854651
 23
31.3778793357
  0
SOLID
  8
0
 62
7
  6
CONTINUOUS
 10
364.716847524
 20
31.4424063504
 11
364.8324727445
 21
31.3778793357
 12
364.4277854651
 22
31.3778793357
 13
364.4277854651
 23
31.3778793357
  0
SOLID
  8
0
 62
7
  6
CONTINUOUS
 10
363.1559103548
 20
31.3456153429
 11
363.2137226343
 21
31.4101417797
 12
363.8496603548
 22
31.4101417797
 13
363.8496603548
 23
31.4101417797
  0
SOLID
  8
0
 62
7
  6
CONTINUOUS
 10
364.543410024
 20
31.3456153429
 11
364.4277854651
 21
31.3778793357
 12
364.8324727445
 22
31.3778793357
 13
364.8324727445
 23
31.3778793357
  0
SOLID
  8
0
 62
7
  6
CONTINUOUS
 10
364.543410024
 20
31.3456153429
 11
364.8324727445
 21
31.3778793357
 12
364.6012229651
 22
31.2810881318
 13
364.6012229651
 23
31.2810881318
  0
SOLID
  8
0
 62
7
  6
CONTINUOUS
 10
364.8324727445
 20
31.3778793357
 11
364.890285024
 21
31.2810881318
 12
364.6012229651
 22
31.2810881318
 13
364.6012229651
 23
31.2810881318
  0
SOLID
  8
0
 62
7
  6
CONTINUOUS
 10
364.6012229651
 20
31.1842964734
 11
364.6012229651
 21
31.2810881318
 12
364.890285024
 22
31.2810881318
 13
364.890285024
 23
31.2810881318
  0
SOLID
  8
0
 62
7
  6
CONTINUOUS
 10
364.6012229651
 20
31.1842964734
 11
364.890285024
 21
31.2810881318
 12
364.6012229651
 22
31.0552422931
 13
364.6012229651
 23
31.0552422931
  0
SOLID
  8
0
 62
7
  6
CONTINUOUS
 10
364.6012229651
 20
31.0552422931
 11
364.890285024
 21
31.2810881318
 12
364.6012229651
 22
30.8616599362
 13
364.6012229651
 23
30.8616599362
  0
SOLID
  8
0
 62
7
  6
CONTINUOUS
 10
364.890285024
 20
31.2810881318
 11
364.890285024
 21
30.7648681127
 12
364.6012229651
 22
30.8616599362
 13
364.6012229651
 23
30.8616599362
  0
SOLID
  8
0
 62
7
  6
CONTINUOUS
 10
366.798097524
 20
31.5069339419
 11
367.0293479651
 21
31.5391976292
 12
367.2605977445
 22
31.5391976292
 13
367.2605977445
 23
31.5391976292
  0
SOLID
  8
0
 62
7
  6
CONTINUOUS
 10
367.2605977445
 20
31.5391976292
 11
367.4340352445
 21
31.5069339419
 12
366.798097524
 22
31.5069339419
 13
366.798097524
 23
31.5069339419
  0
SOLID
  8
0
 62
7
  6
CONTINUOUS
 10
366.624660024
 20
31.4424065674
 11
366.798097524
 21
31.5069339419
 12
367.4340352445
 22
31.5069339419
 13
367.4340352445
 23
31.5069339419
  0
SOLID
  8
0
 62
7
  6
CONTINUOUS
 10
367.4340352445
 20
31.5069339419
 11
367.6074727445
 21
31.4424065674
 12
366.624660024
 22
31.4424065674
 13
366.624660024
 23
31.4424065674
  0
SOLID
  8
0
 62
7
  6
CONTINUOUS
 10
367.6074727445
 20
31.4424065674
 11
367.0293479651
 21
31.4101420472
 12
366.624660024
 22
31.4424065674
 13
366.624660024
 23
31.4424065674
  0
SOLID
  8
0
 62
7
  6
CONTINUOUS
 10
366.5090354651
 20
31.377879193
 11
366.624660024
 21
31.4424065674
 12
367.0293479651
 22
31.4101420472
 13
367.0293479651
 23
31.4101420472
  0
SOLID
  8
0
 62
7
  6
CONTINUOUS
 10
367.0293479651
 20
31.4101420472
 11
366.798097524
 21
31.377879193
 12
366.5090354651
 22
31.377879193
 13
366.5090354651
 23
31.377879193
  0
SOLID
  8
0
 62
7
  6
CONTINUOUS
 10
367.0293479651
 20
31.4101420472
 11
367.6074727445
 21
31.4424065674
 12
367.2605977445
 22
31.377879193
 13
367.2605977445
 23
31.377879193
  0
SOLID
  8
0
 62
7
  6
CONTINUOUS
 10
367.6074727445
 20
31.4424065674
 11
367.7230979651
 21
31.377879193
 12
367.2605977445
 22
31.377879193
 13
367.2605977445
 23
31.377879193
  0
SOLID
  8
0
 62
7
  6
CONTINUOUS
 10
367.3762229651
 20
31.345614957
 11
367.2605977445
 21
31.377879193
 12
367.7230979651
 22
31.377879193
 13
367.7230979651
 23
31.377879193
  0
SOLID
  8
0
 62
7
  6
CONTINUOUS
 10
367.3762229651
 20
31.345614957
 11
367.7230979651
 21
31.377879193
 12
367.491847524
 22
31.2810881312
 13
367.491847524
 23
31.2810881312
  0
SOLID
  8
0
 62
7
  6
CONTINUOUS
 10
367.7230979651
 20
31.377879193
 11
367.7809102445
 21
31.2810881312
 12
367.491847524
 22
31.2810881312
 13
367.491847524
 23
31.2810881312
  0
SOLID
  8
0
 62
7
  6
CONTINUOUS
 10
367.5496604651
 20
31.119769695
 11
367.491847524
 21
31.2810881312
 12
367.7809102445
 22
31.2810881312
 13
367.7809102445
 23
31.2810881312
  0
SOLID
  8
0
 62
7
  6
CONTINUOUS
 10
367.7809102445
 20
31.2810881312
 11
367.838722524
 21
31.119769695
 12
367.5496604651
 22
31.119769695
 13
367.5496604651
 23
31.119769695
  0
SOLID
  8
0
 62
7
  6
CONTINUOUS
 10
366.798097524
 20
31.377879193
 11
366.624660024
 21
31.3133521701
 12
366.5090354651
 22
31.377879193
 13
366.5090354651
 23
31.377879193
  0
SOLID
  8
0
 62
7
  6
CONTINUOUS
 10
366.624660024
 20
31.3133521701
 11
366.5090354651
 21
31.2488235635
 12
366.5090354651
 22
31.377879193
 13
366.5090354651
 23
31.377879193
  0
SOLID
  8
0
 62
7
  6
CONTINUOUS
 10
366.5090354651
 20
31.2488235635
 11
366.2199727445
 21
30.5067596374
 12
366.5090354651
 22
31.377879193
 13
366.5090354651
 23
31.377879193
  0
SOLID
  8
0
 62
7
  6
CONTINUOUS
 10
366.5090354651
 20
31.377879193
 11
366.2199727445
 21
30.5067596374
 12
366.5090354651
 22
31.5391976292
 13
366.5090354651
 23
31.5391976292
  0
SOLID
  8
0
 62
7
  6
CONTINUOUS
 10
366.2199727445
 20
30.5067596374
 11
366.2199727445
 21
31.5391976292
 12
366.5090354651
 22
31.5391976292
 13
366.5090354651
 23
31.5391976292
  0
SOLID
  8
0
 62
7
  6
CONTINUOUS
 10
366.5090354651
 20
31.2488235635
 11
366.5090354651
 21
30.5067596374
 12
366.2199727445
 22
30.5067596374
 13
366.2199727445
 23
30.5067596374
  0
SOLID
  8
0
 62
7
  6
CONTINUOUS
 10
367.5496604651
 20
30.5067596374
 11
367.5496604651
 21
31.119769695
 12
367.838722524
 22
31.119769695
 13
367.838722524
 23
31.119769695
  0
SOLID
  8
0
 62
7
  6
CONTINUOUS
 10
367.838722524
 20
31.119769695
 11
367.838722524
 21
30.5067596374
 12
367.5496604651
 22
30.5067596374
 13
367.5496604651
 23
30.5067596374
  0
SOLID
  8
0
 62
7
  6
CONTINUOUS
 10
368.6480977445
 20
31.5069334157
 11
368.9949727445
 21
31.539197762
 12
369.3418477445
 22
31.539197762
 13
369.3418477445
 23
31.539197762
  0
SOLID
  8
0
 62
7
  6
CONTINUOUS
 10
369.3418477445
 20
31.539197762
 11
369.6887227445
 21
31.5069334157
 12
368.6480977445
 22
31.5069334157
 13
368.6480977445
 23
31.5069334157
  0
SOLID
  8
0
 62
7
  6
CONTINUOUS
 10
368.4168479651
 20
31.4424063504
 11
368.6480977445
 21
31.5069334157
 12
369.6887227445
 22
31.5069334157
 13
369.6887227445
 23
31.5069334157
  0
SOLID
  8
0
 62
7
  6
CONTINUOUS
 10
368.4168479651
 20
31.4424063504
 11
369.6887227445
 21
31.5069334406
 12
369.8621602445
 22
31.4746706537
 13
369.8621602445
 23
31.4746706537
  0
SOLID
  8
0
 62
7
  6
CONTINUOUS
 10
368.4168479651
 20
31.4424063504
 11
369.8621602445
 21
31.4746706537
 12
368.9949727445
 22
31.4101421267
 13
368.9949727445
 23
31.4101421267
  0
SOLID
  8
0
 62
7
  6
CONTINUOUS
 10
368.9949727445
 20
31.4101421267
 11
369.8621602445
 21
31.4746706537
 12
369.3418477445
 22
31.4101421267
 13
369.3418477445
 23
31.4101421267
  0
SOLID
  8
0
 62
7
  6
CONTINUOUS
 10
369.8621602445
 20
31.4746706537
 11
370.0355977445
 21
31.4101421267
 12
369.3418477445
 22
31.4101421267
 13
369.3418477445
 23
31.4101421267
  0
SOLID
  8
0
 62
7
  6
CONTINUOUS
 10
369.6887227445
 20
31.3778792603
 11
369.3418477445
 21
31.4101421267
 12
370.0355977445
 22
31.4101421267
 13
370.0355977445
 23
31.4101421267
  0
SOLID
  8
0
 62
7
  6
CONTINUOUS
 10
368.3012227445
 20
31.3456148845
 11
368.4168479651
 21
31.4424063504
 12
368.9949727445
 22
31.4101421267
 13
368.9949727445
 23
31.4101421267
  0
SOLID
  8
0
 62
7
  6
CONTINUOUS
 10
369.6887227445
 20
31.3778792603
 11
370.0355977445
 21
31.4101421267
 12
369.8043479651
 22
31.3456148845
 13
369.8043479651
 23
31.3456148845
  0
SOLID
  8
0
 62
7
  6
CONTINUOUS
 10
369.8043479651
 20
31.3456148845
 11
370.0355977445
 21
31.4101421267
 12
369.8621602445
 22
31.281087868
 13
369.8621602445
 23
31.281087868
  0
SOLID
  8
0
 62
7
  6
CONTINUOUS
 10
370.0355977445
 20
31.4101421267
 11
370.1512223035
 21
31.281087868
 12
369.8621602445
 22
31.281087868
 13
369.8621602445
 23
31.281087868
  0
SOLID
  8
0
 62
7
  6
CONTINUOUS
 10
359.4559102445
 20
31.3778792603
 11
358.9355977445
 21
31.3456148963
 12
359.6871602721
 22
31.4101421155
 13
359.6871602721
 23
31.4101421155
  0
SOLID
  8
0
 62
7
  6
CONTINUOUS
 10
358.9355977445
 20
31.3456148963
 11
359.0512227376
 21
31.4101421155
 12
359.6871602721
 22
31.4101421155
 13
359.6871602721
 23
31.4101421155
  0
SOLID
  8
0
 62
7
  6
CONTINUOUS
 10
359.4559102445
 20
31.3778792603
 11
359.3402852307
 21
31.3456148963
 12
358.9355977445
 22
31.3456148963
 13
358.9355977445
 23
31.3456148963
  0
SOLID
  8
0
 62
7
  6
CONTINUOUS
 10
358.8199727462
 20
31.2165607767
 11
358.9355977445
 21
31.3456148963
 12
359.3402852307
 22
31.3456148963
 13
359.3402852307
 23
31.3456148963
  0
SOLID
  8
0
 62
7
  6
CONTINUOUS
 10
363.1559103548
 20
31.3456149608
 11
363.8496603548
 21
31.4101420472
 12
363.6184102445
 22
31.3778792603
 13
363.6184102445
 23
31.3778792603
  0
SOLID
  8
0
 62
7
  6
CONTINUOUS
 10
363.6184102445
 20
31.3778792603
 11
363.5027853548
 21
31.3456149608
 12
363.1559103548
 22
31.3456149608
 13
363.1559103548
 23
31.3456149608
  0
SOLID
  8
0
 62
7
  6
CONTINUOUS
 10
363.1559103548
 20
31.2810878707
 11
363.1559103548
 21
31.3456149608
 12
363.5027853548
 22
31.3456149608
 13
363.5027853548
 23
31.3456149608
  0
SOLID
  8
0
 62
7
  6
CONTINUOUS
 10
363.5027853548
 20
31.3456149608
 11
363.4449727445
 21
31.2810878707
 12
363.1559103548
 22
31.2810878707
 13
363.1559103548
 23
31.2810878707
  0
SOLID
  8
0
 62
7
  6
CONTINUOUS
 10
368.3012227445
 20
31.3456149608
 11
368.9949727445
 21
31.4101420472
 12
368.7637229651
 22
31.3778792603
 13
368.7637229651
 23
31.3778792603
  0
SOLID
  8
0
 62
7
  6
CONTINUOUS
 10
368.7637229651
 20
31.3778792603
 11
368.6480977445
 21
31.3456149608
 12
368.3012227445
 22
31.3456149608
 13
368.3012227445
 23
31.3456149608
  0
SOLID
  8
0
 62
7
  6
CONTINUOUS
 10
368.3012227445
 20
31.2810878707
 11
368.3012227445
 21
31.3456149608
 12
368.6480977445
 22
31.3456149608
 13
368.6480977445
 23
31.3456149608
  0
SOLID
  8
0
 62
7
  6
CONTINUOUS
 10
368.6480977445
 20
31.3456149608
 11
368.5902854651
 21
31.2810878707
 12
368.3012227445
 22
31.2810878707
 13
368.3012227445
 23
31.2810878707
  0
SOLID
  8
0
 62
7
  6
CONTINUOUS
 10
368.4168479651
 20
31.1520336865
 11
368.3012227445
 21
31.2810878707
 12
368.5902854651
 22
31.2810878707
 13
368.5902854651
 23
31.2810878707
  0
SOLID
  8
0
 62
7
  6
CONTINUOUS
 10
358.8199727462
 20
31.2165607767
 11
359.3402852307
 21
31.345614957
 12
359.1668477307
 22
31.2488235635
 13
359.1668477307
 23
31.2488235635
  0
SOLID
  8
0
 62
7
  6
CONTINUOUS
 10
359.1668477307
 20
31.2488235635
 11
359.1090352445
 21
31.1842964734
 12
358.8199727462
 22
31.2165607767
 13
358.8199727462
 23
31.2165607767
  0
SOLID
  8
0
 62
7
  6
CONTINUOUS
 10
358.7621602445
 20
31.0229779898
 11
358.8199727462
 21
31.2165607767
 12
359.1090352445
 22
31.1842964734
 13
359.1090352445
 23
31.1842964734
  0
SOLID
  8
0
 62
7
  6
CONTINUOUS
 10
363.6184102445
 20
31.1520336865
 11
363.9652852445
 21
31.1842964611
 12
364.6012229651
 22
31.1842964611
 13
364.6012229651
 23
31.1842964611
  0
SOLID
  8
0
 62
7
  6
CONTINUOUS
 10
363.6184102445
 20
31.1520336865
 11
364.6012229651
 21
31.1842964611
 12
363.3871601343
 22
31.0875057863
 13
363.3871601343
 23
31.0875057863
  0
SOLID
  8
0
 62
7
  6
CONTINUOUS
 10
363.3871601343
 20
31.0875057863
 11
364.6012229651
 21
31.1842964611
 12
363.9652852445
 22
31.0552422808
 13
363.9652852445
 23
31.0552422808
  0
SOLID
  8
0
 62
7
  6
CONTINUOUS
 10
364.6012229651
 20
31.1842964611
 11
364.6012229651
 21
31.0552422808
 12
363.9652852445
 22
31.0552422808
 13
363.9652852445
 23
31.0552422808
  0
SOLID
  8
0
 62
7
  6
CONTINUOUS
 10
368.4168479651
 20
31.1520338754
 11
368.5902854651
 21
31.2810878668
 12
368.6480977445
 22
31.2165607767
 13
368.6480977445
 23
31.2165607767
  0
SOLID
  8
0
 62
7
  6
CONTINUOUS
 10
368.6480977445
 20
31.2165607767
 11
368.8215352445
 21
31.1520338754
 12
368.4168479651
 22
31.1520338754
 13
368.4168479651
 23
31.1520338754
  0
SOLID
  8
0
 62
7
  6
CONTINUOUS
 10
368.6480977445
 20
31.0552422931
 11
368.4168479651
 21
31.1520338754
 12
368.8215352445
 22
31.1520338754
 13
368.8215352445
 23
31.1520338754
  0
SOLID
  8
0
 62
7
  6
CONTINUOUS
 10
368.8215352445
 20
31.1520338754
 11
369.8043479651
 21
30.9907152029
 12
368.6480977445
 22
31.0552422931
 13
368.6480977445
 23
31.0552422931
  0
SOLID
  8
0
 62
7
  6
CONTINUOUS
 10
369.6309104651
 20
30.8939239876
 11
368.6480977445
 21
31.0552422931
 12
369.8043479651
 22
30.9907152029
 13
369.8043479651
 23
30.9907152029
  0
SOLID
  8
0
 62
7
  6
CONTINUOUS
 10
369.8043479651
 20
30.9907152029
 11
370.0355977445
 21
30.8939239876
 12
369.6309104651
 22
30.8939239876
 13
369.6309104651
 23
30.8939239876
  0
SOLID
  8
0
 62
7
  6
CONTINUOUS
 10
369.8043479651
 20
30.8293967193
 11
369.6309104651
 21
30.8939239876
 12
370.0355977445
 22
30.8939239876
 13
370.0355977445
 23
30.8939239876
  0
SOLID
  8
0
 62
7
  6
CONTINUOUS
 10
369.8043479651
 20
30.8293967193
 11
370.0355977445
 21
30.8939239876
 12
369.8621602445
 22
30.7648682694
 13
369.8621602445
 23
30.7648682694
  0
SOLID
  8
0
 62
7
  6
CONTINUOUS
 10
370.0355977445
 20
30.8939239876
 11
370.1512223035
 21
30.7648682694
 12
369.8621602445
 22
30.7648682694
 13
369.8621602445
 23
30.7648682694
  0
SOLID
  8
0
 62
7
  6
CONTINUOUS
 10
369.8043479651
 20
30.7003411846
 11
369.8621602445
 21
30.7648682694
 12
370.1512223035
 22
30.7648682694
 13
370.1512223035
 23
30.7648682694
  0
SOLID
  8
0
 62
7
  6
CONTINUOUS
 10
370.1512223035
 20
30.7648682694
 11
370.1512223035
 21
30.7003411846
 12
369.8043479651
 22
30.7003411846
 13
369.8043479651
 23
30.7003411846
  0
SOLID
  8
0
 62
7
  6
CONTINUOUS
 10
369.6887227445
 20
30.6680782357
 11
369.8043479651
 21
30.7003411846
 12
370.1512223035
 22
30.7003411846
 13
370.1512223035
 23
30.7003411846
  0
SOLID
  8
0
 62
7
  6
CONTINUOUS
 10
369.6887227445
 20
30.6680782357
 11
370.1512223035
 21
30.7003411846
 12
369.4574729651
 22
30.6358140998
 13
369.4574729651
 23
30.6358140998
  0
SOLID
  8
0
 62
7
  6
CONTINUOUS
 10
370.1512223035
 20
30.7003411846
 11
370.0355977445
 21
30.6035511455
 12
369.4574729651
 22
30.6358140998
 13
369.4574729651
 23
30.6358140998
  0
SOLID
  8
0
 62
7
  6
CONTINUOUS
 10
370.0355977445
 20
30.6035511455
 11
368.5902854651
 21
30.5712868422
 12
369.4574729651
 22
30.6358140998
 13
369.4574729651
 23
30.6358140998
  0
SOLID
  8
0
 62
7
  6
CONTINUOUS
 10
369.4574729651
 20
30.6358140998
 11
368.5902854651
 21
30.5712868422
 12
369.1105979651
 22
30.6358140998
 13
369.1105979651
 23
30.6358140998
  0
SOLID
  8
0
 62
7
  6
CONTINUOUS
 10
368.5902854651
 20
30.5712868422
 11
368.4168479651
 21
30.6358140998
 12
369.1105979651
 22
30.6358140998
 13
369.1105979651
 23
30.6358140998
  0
SOLID
  8
0
 62
7
  6
CONTINUOUS
 10
368.5902854651
 20
30.5712868422
 11
370.0355977445
 21
30.6035511455
 12
368.7637229651
 22
30.5390223111
 13
368.7637229651
 23
30.5390223111
  0
SOLID
  8
0
 62
7
  6
CONTINUOUS
 10
370.0355977445
 20
30.6035511455
 11
369.8043479651
 21
30.5390223111
 12
368.7637229651
 22
30.5390223111
 13
368.7637229651
 23
30.5390223111
  0
SOLID
  8
0
 62
7
  6
CONTINUOUS
 10
369.1105979651
 20
30.5067599302
 11
368.7637229651
 21
30.5390223111
 12
369.8043479651
 22
30.5390223111
 13
369.8043479651
 23
30.5390223111
  0
SOLID
  8
0
 62
7
  6
CONTINUOUS
 10
369.8043479651
 20
30.5390223111
 11
369.4574729651
 21
30.5067599302
 12
369.1105979651
 22
30.5067599302
 13
369.1105979651
 23
30.5067599302
  0
SOLID
  8
0
 62
7
  6
CONTINUOUS
 10
358.7621602445
 20
31.0229779898
 11
359.1090352445
 21
31.1842964734
 12
359.0512227376
 22
31.0552422931
 13
359.0512227376
 23
31.0552422931
  0
SOLID
  8
0
 62
7
  6
CONTINUOUS
 10
359.0512227376
 20
31.0552422931
 11
359.0512227376
 21
30.9584509954
 12
358.7621602445
 22
31.0229779898
 13
358.7621602445
 23
31.0229779898
  0
SOLID
  8
0
 62
7
  6
CONTINUOUS
 10
358.8199727462
 20
30.8293967193
 11
358.7621602445
 21
31.0229779898
 12
359.0512227376
 22
30.9584509954
 13
359.0512227376
 23
30.9584509954
  0
SOLID
  8
0
 62
7
  6
CONTINUOUS
 10
359.0512227376
 20
30.9584509954
 11
359.1668477307
 21
30.797132416
 12
358.8199727462
 22
30.8293967193
 13
358.8199727462
 23
30.8293967193
  0
SOLID
  8
0
 62
7
  6
CONTINUOUS
 10
358.9355977445
 20
30.7003413087
 11
358.8199727462
 21
30.8293967193
 12
359.1668477307
 22
30.797132416
 13
359.1668477307
 23
30.797132416
  0
SOLID
  8
0
 62
7
  6
CONTINUOUS
 10
359.1668477307
 20
30.797132416
 11
359.3402852307
 21
30.7003413087
 12
358.9355977445
 22
30.7003413087
 13
358.9355977445
 23
30.7003413087
  0
SOLID
  8
0
 62
7
  6
CONTINUOUS
 10
359.0512227376
 20
30.6358140759
 11
358.9355977445
 21
30.7003413087
 12
359.3402852307
 22
30.7003413087
 13
359.3402852307
 23
30.7003413087
  0
SOLID
  8
0
 62
7
  6
CONTINUOUS
 10
359.3402852307
 20
30.7003413087
 11
359.6871602721
 21
30.6358140759
 12
359.0512227376
 22
30.6358140759
 13
359.0512227376
 23
30.6358140759
  0
SOLID
  8
0
 62
7
  6
CONTINUOUS
 10
359.2246602583
 20
30.5712868422
 11
359.0512227376
 21
30.6358140759
 12
359.6871602721
 22
30.6358140759
 13
359.6871602721
 23
30.6358140759
  0
SOLID
  8
0
 62
7
  6
CONTINUOUS
 10
363.2715352445
 20
31.0229779808
 11
363.3871601343
 21
31.0875057863
 12
363.9652852445
 22
31.0552422931
 13
363.9652852445
 23
31.0552422931
  0
SOLID
  8
0
 62
7
  6
CONTINUOUS
 10
363.9652852445
 20
31.0552422931
 11
363.7340351343
 21
31.0229779808
 12
363.2715352445
 22
31.0229779808
 13
363.2715352445
 23
31.0229779808
  0
SOLID
  8
0
 62
7
  6
CONTINUOUS
 10
363.1559103548
 20
30.8939238094
 11
363.2715352445
 21
31.0229779808
 12
363.7340351343
 22
31.0229779808
 13
363.7340351343
 23
31.0229779808
  0
SOLID
  8
0
 62
7
  6
CONTINUOUS
 10
363.5027853548
 20
30.926187309
 11
363.1559103548
 21
30.8939238094
 12
363.6184102445
 22
30.9907152029
 13
363.6184102445
 23
30.9907152029
  0
SOLID
  8
0
 62
7
  6
CONTINUOUS
 10
363.1559103548
 20
30.8939238094
 11
363.7340351343
 21
31.0229779898
 12
363.6184102445
 22
30.9907152029
 13
363.6184102445
 23
30.9907152029
  0
SOLID
  8
0
 62
7
  6
CONTINUOUS
 10
363.5027853548
 20
30.926187309
 11
363.4449727445
 21
30.8293967193
 12
363.1559103548
 22
30.8939238094
 13
363.1559103548
 23
30.8939238094
  0
SOLID
  8
0
 62
7
  6
CONTINUOUS
 10
363.1559103548
 20
30.797132416
 11
363.1559103548
 21
30.8939238094
 12
363.4449727445
 22
30.8293967193
 13
363.4449727445
 23
30.8293967193
  0
SOLID
  8
0
 62
7
  6
CONTINUOUS
 10
363.4449727445
 20
30.8293967193
 11
363.4449727445
 21
30.7648681127
 12
363.1559103548
 22
30.797132416
 13
363.1559103548
 23
30.797132416
  0
SOLID
  8
0
 62
7
  6
CONTINUOUS
 10
363.2137226343
 20
30.6680782357
 11
363.1559103548
 21
30.797132416
 12
363.4449727445
 22
30.7648681127
 13
363.4449727445
 23
30.7648681127
  0
SOLID
  8
0
 62
7
  6
CONTINUOUS
 10
364.6012229651
 20
30.8616599362
 11
364.890285024
 21
30.7648681127
 12
364.543410024
 22
30.797132416
 13
364.543410024
 23
30.797132416
  0
SOLID
  8
0
 62
7
  6
CONTINUOUS
 10
364.369972524
 20
30.7003410226
 11
364.543410024
 21
30.797132416
 12
364.890285024
 22
30.7648681127
 13
364.890285024
 23
30.7648681127
  0
SOLID
  8
0
 62
7
  6
CONTINUOUS
 10
364.369972524
 20
30.7003410226
 11
364.890285024
 21
30.7648681127
 12
364.6012229651
 22
30.6680782357
 13
364.6012229651
 23
30.6680782357
  0
SOLID
  8
0
 62
7
  6
CONTINUOUS
 10
364.890285024
 20
30.7648681127
 11
364.9480979651
 21
30.6035511455
 12
364.6012229651
 22
30.6680782357
 13
364.6012229651
 23
30.6680782357
  0
SOLID
  8
0
 62
7
  6
CONTINUOUS
 10
364.6590352445
 20
30.5712868422
 11
364.6012229651
 21
30.6680782357
 12
364.9480979651
 22
30.6035511455
 13
364.9480979651
 23
30.6035511455
  0
SOLID
  8
0
 62
7
  6
CONTINUOUS
 10
364.6590352445
 20
30.5712868422
 11
364.9480979651
 21
30.6035511455
 12
364.716847524
 22
30.5067598731
 13
364.716847524
 23
30.5067598731
  0
SOLID
  8
0
 62
7
  6
CONTINUOUS
 10
364.9480979651
 20
30.6035511455
 11
365.0059102445
 21
30.5067598731
 12
364.716847524
 22
30.5067598731
 13
364.716847524
 23
30.5067598731
  0
SOLID
  8
0
 62
7
  6
CONTINUOUS
 10
360.2652852997
 20
30.7326051679
 11
360.3230977445
 21
30.8293966612
 12
360.6121602997
 22
30.8293966612
 13
360.6121602997
 23
30.8293966612
  0
SOLID
  8
0
 62
7
  6
CONTINUOUS
 10
360.6121602997
 20
30.8293966612
 11
360.5543476894
 21
30.7003410226
 12
360.2652852997
 22
30.7326051679
 13
360.2652852997
 23
30.7326051679
  0
SOLID
  8
0
 62
7
  6
CONTINUOUS
 10
360.091847717
 20
30.6680782357
 11
360.2652852997
 21
30.7326051679
 12
360.5543476894
 22
30.7003410226
 13
360.5543476894
 23
30.7003410226
  0
SOLID
  8
0
 62
7
  6
CONTINUOUS
 10
360.091847717
 20
30.6680782357
 11
360.5543476894
 21
30.7003410226
 12
359.6871602721
 22
30.6358139324
 13
359.6871602721
 23
30.6358139324
  0
SOLID
  8
0
 62
7
  6
CONTINUOUS
 10
360.5543476894
 20
30.7003410226
 11
360.3809101894
 21
30.6035511455
 12
359.6871602721
 22
30.6358139324
 13
359.6871602721
 23
30.6358139324
  0
SOLID
  8
0
 62
7
  6
CONTINUOUS
 10
359.2246602583
 20
30.5712868422
 11
359.6871602721
 21
30.6358139324
 12
360.3809101894
 22
30.6035511455
 13
360.3809101894
 23
30.6035511455
  0
SOLID
  8
0
 62
7
  6
CONTINUOUS
 10
359.2246602583
 20
30.5712868422
 11
360.3809101894
 21
30.6035511455
 12
359.3980977583
 22
30.5390224228
 13
359.3980977583
 23
30.5390224228
  0
SOLID
  8
0
 62
7
  6
CONTINUOUS
 10
360.3809101894
 20
30.6035511455
 11
360.1496602445
 21
30.5390224228
 12
359.3980977583
 22
30.5390224228
 13
359.3980977583
 23
30.5390224228
  0
SOLID
  8
0
 62
7
  6
CONTINUOUS
 10
359.744972717
 20
30.5067597521
 11
359.3980977583
 21
30.5390224228
 12
360.1496602445
 22
30.5390224228
 13
360.1496602445
 23
30.5390224228
  0
SOLID
  8
0
 62
7
  6
CONTINUOUS
 10
363.2137226343
 20
30.6680782357
 11
363.4449727445
 21
30.7648681127
 12
363.5027853548
 22
30.7003410226
 13
363.5027853548
 23
30.7003410226
  0
SOLID
  8
0
 62
7
  6
CONTINUOUS
 10
363.5027853548
 20
30.7003410226
 11
363.7340351343
 21
30.6358139324
 12
363.2137226343
 22
30.6680782357
 13
363.2137226343
 23
30.6680782357
  0
SOLID
  8
0
 62
7
  6
CONTINUOUS
 10
363.3871601343
 20
30.5712868422
 11
363.2137226343
 21
30.6680782357
 12
363.7340351343
 22
30.6358139324
 13
363.7340351343
 23
30.6358139324
  0
SOLID
  8
0
 62
7
  6
CONTINUOUS
 10
364.0809101343
 20
30.6358139363
 11
364.369972524
 21
30.7003410226
 12
364.6012229651
 22
30.6680782357
 13
364.6012229651
 23
30.6680782357
  0
SOLID
  8
0
 62
7
  6
CONTINUOUS
 10
364.6012229651
 20
30.6680782357
 11
364.543410024
 21
30.6035511455
 12
364.0809101343
 22
30.6358139363
 13
364.0809101343
 23
30.6358139363
  0
SOLID
  8
0
 62
7
  6
CONTINUOUS
 10
364.543410024
 20
30.6035511455
 11
363.3871601343
 21
30.5712868422
 12
364.0809101343
 22
30.6358139363
 13
364.0809101343
 23
30.6358139363
  0
SOLID
  8
0
 62
7
  6
CONTINUOUS
 10
363.3871601343
 20
30.5712868422
 11
363.7340351343
 21
30.6358139363
 12
364.0809101343
 22
30.6358139363
 13
364.0809101343
 23
30.6358139363
  0
SOLID
  8
0
 62
7
  6
CONTINUOUS
 10
363.3871601343
 20
30.5712868422
 11
364.543410024
 21
30.6035511455
 12
363.5027853548
 22
30.5390225267
 13
363.5027853548
 23
30.5390225267
  0
SOLID
  8
0
 62
7
  6
CONTINUOUS
 10
364.543410024
 20
30.6035511455
 11
364.369972524
 21
30.5390225267
 12
363.5027853548
 22
30.5390225267
 13
363.5027853548
 23
30.5390225267
  0
SOLID
  8
0
 62
7
  6
CONTINUOUS
 10
363.7340351343
 20
30.5067596914
 11
363.5027853548
 21
30.5390225267
 12
364.369972524
 22
30.5390225267
 13
364.369972524
 23
30.5390225267
  0
SOLID
  8
0
 62
7
  6
CONTINUOUS
 10
364.369972524
 20
30.5390225267
 11
364.0809101343
 21
30.5067596914
 12
363.7340351343
 22
30.5067596914
 13
363.7340351343
 23
30.5067596914
  0
SOLID
  8
0
 62
7
  6
CONTINUOUS
 10
368.7637229651
 20
30.6680782357
 11
368.4168479651
 21
30.6358138717
 12
368.6480977445
 22
30.7003410226
 13
368.6480977445
 23
30.7003410226
  0
SOLID
  8
0
 62
7
  6
CONTINUOUS
 10
368.6480977445
 20
30.7003410226
 11
368.4168479651
 21
30.6358138717
 12
368.5902854651
 22
30.7648680521
 13
368.5902854651
 23
30.7648680521
  0
SOLID
  8
0
 62
7
  6
CONTINUOUS
 10
368.4168479651
 20
30.6358138717
 11
368.3012227445
 21
30.7648680521
 12
368.5902854651
 22
30.7648680521
 13
368.5902854651
 23
30.7648680521
  0
SOLID
  8
0
 62
7
  6
CONTINUOUS
 10
368.7637229651
 20
30.6680782357
 11
369.1105979651
 21
30.6358138717
 12
368.4168479651
 22
30.6358138717
 13
368.4168479651
 23
30.6358138717
  0
SOLID
  8
0
 62
7
  6
CONTINUOUS
 10
365.4684104651
 20
30.5067597521
 11
365.4684104651
 21
31.5391977439
 12
365.757472524
 22
30.5067597521
 13
365.757472524
 23
31.5391977439
  0
ENDBLK
  8
0
  6
BYBLOCK
 62
0
  0
BLOCK
  8
0
 62
2
  6
CONTINUOUS
  2
SYMBOL_0_BL0
 70
64
 10
240.8592468615
 20
19.762288695
  0
TEXT
  8
0
 62
7
  6
CONTINUOUS
 10
227.1239507038
 20
19.1357028027
  7
TEXTSTYLE_3
 40
2.7338706658
  1
Ammeraal Beltech
 41
1.0
 51
15.0
 72
0
  0
TEXT
  8
0
 62
7
  6
CONTINUOUS
 10
237.9247515296
 20
16.8621661299
  7
TEXTSTYLE_4
 40
1.0935482663
  1
Innovation & Service in Belting
 41
1.0
 72
0
  0
LINE
  8
0
 62
7
  6
CONTINUOUS
 10
221.0994100525
 20
19.9022961113
 11
221.8775620458
 21
23.5632134089
  0
LINE
  8
0
 62
7
  6
CONTINUOUS
 10
231.9727303357
 20
27.2266073205
 11
222.3653797889
 21
24.1049898993
  0
LINE
  8
0
 62
7
  6
CONTINUOUS
 10
221.3246933848
 20
19.2089453082
 11
228.8317686459
 21
12.4495443822
  0
LINE
  8
0
 62
7
  6
CONTINUOUS
 10
221.5872277955
 20
20.4440726016
 11
232.3954971607
 21
23.9558922005
  0
LINE
  8
0
 62
7
  6
CONTINUOUS
 10
232.3912920235
 20
13.6061036368
 11
223.9458323548
 21
21.2104296785
  0
LINE
  8
0
 62
7
  6
CONTINUOUS
 10
232.9111147433
 20
26.3816822048
 11
231.9345552061
 21
21.7873308023
  0
LINE
  8
0
 62
7
  6
CONTINUOUS
 10
231.2347532584
 20
18.4950214885
 11
230.5483050469
 21
15.2655365641
  0
LINE
  8
0
 62
7
  6
CONTINUOUS
 10
233.5922108419
 20
13.9963058145
 11
234.5484423775
 21
18.4950214885
  0
LINE
  8
0
 62
7
  6
CONTINUOUS
 10
235.2482443252
 20
21.7873308023
 11
235.6924861276
 21
23.8773241617
  0
LINE
  8
0
 62
7
  6
CONTINUOUS
 10
229.5448697213
 20
12.2979700695
 11
233.1043930989
 21
13.4545293241
  0
LINE
  8
0
 62
7
  6
CONTINUOUS
 10
232.685831411
 20
27.0750330078
 11
235.4672027953
 21
24.5706749648
  0
ARC
  8
0
 62
7
  6
CONTINUOUS
 10
222.5906631212
 20
23.4116390962
 40
0.7290321776
 50
108.0
 51
168.0
  0
ARC
  8
0
 62
7
  6
CONTINUOUS
 10
232.198013668
 20
26.5332565175
 40
0.7290321776
 50
348.0
 51
108.0
  0
ARC
  8
0
 62
7
  6
CONTINUOUS
 10
234.9793850522
 20
24.0288984744
 40
0.7290321776
 50
348.0
 51
48.0
  0
ARC
  8
0
 62
7
  6
CONTINUOUS
 10
229.319586389
 20
12.9913208726
 40
0.7290321776
 50
228.0
 51
288.0
  0
ARC
  8
0
 62
7
  6
CONTINUOUS
 10
221.8125111278
 20
19.7507217986
 40
0.7290321776
 50
108.0
 51
228.0
  0
ARC
  8
0
 62
7
  6
CONTINUOUS
 10
232.8791097665
 20
14.1478801272
 40
0.7290321776
 50
228.0
 51
348.0
  0
ENDBLK
  8
0
  6
BYBLOCK
 62
0
  0
ENDSEC
  0
SECTION
  2
ENTITIES
  0
TEXT
  8
0
 62
5
  6
CONTINUOUS
 10
304.937007874
 20
25.636
  7
TEXTSTYLE_2
 40
2.8
  1
Scale :
 41
0.6
 51
0.000019
 72
0
  0
TEXT
  8
0
 62
5
  6
CONTINUOUS
 10
324.937007874
 20
25.636
  7
TEXTSTYLE_2
 40
2.8
  1
Belt type:
 41
0.6
 51
0.000019
 72
0
  0
INSERT
  8
0
 62
2
  6
CONTINUOUS
  2
SYMBOL_0_BL0
 10
240.8592468615
 20
19.762288695
  0
INSERT
  8
0
 62
2
  6
CONTINUOUS
  2
SYMBOL_5_BL1
 10
382.7840918555
 20
35.5067593403
  0
LINE
  8
0
 62
2
  6
CONTINUOUS
 10
218.937007874
 20
30.0
 11
408.937007874
 21
30.0
  0
LINE
  8
0
 62
2
  6
CONTINUOUS
 10
218.937007874
 20
30.0
 11
218.937007874
 21
10.0
  0
LINE
  8
0
 62
2
  6
CONTINUOUS
 10
218.937007874
 20
10.0
 11
408.937007874
 21
10.0
  0
LINE
  8
0
 62
2
  6
CONTINUOUS
 10
303.937007874
 20
30.0
 11
303.937007874
 21
10.0
  0
LINE
  8
0
 62
2
  6
CONTINUOUS
 10
323.937007874
 20
30.0
 11
323.937007874
 21
10.0
  0
LINE
  8
0
 62
2
  6
CONTINUOUS
 10
408.937007874
 20
30.0
 11
408.937007874
 21
10.0
  0
TEXT
  8
0
 62
5
  6
CONTINUOUS
 10
221.937007874
 20
23.303
  7
TEXTSTYLE_5
 40
1.52
  1
                                                                     Ammeraal Beltech Modular A/S
 41
1.0
 72
0
  0
TEXT
  8
0
 62
5
  6
CONTINUOUS
 10
221.937007874
 20
20.595
  7
TEXTSTYLE_5
 40
1.5
  1
                                                                      Hjulmagervej 21, 7100 Vejle,  DK
 41
1.0
 72
0
  0
TEXT
  8
0
 62
5
  6
CONTINUOUS
 10
221.937007874
 20
17.881
  7
TEXTSTYLE_5
 40
1.495
  1
                                                                      tel: 
 41
1.0
 72
0
  0
TEXT
  8
0
 62
5
  6
CONTINUOUS
 10
266.9239544389
 20
17.881
  7
TEXTSTYLE_5
 40
1.51
  1
+45 75723100     fax: +45 75723348
 41
1.0
 72
0
  0
TEXT
  8
0
 62
5
  6
CONTINUOUS
 10
221.937007874
 20
15.177
  7
TEXTSTYLE_5
 40
1.5
  1
                                                                      admin@unichains.dk  www.unichains.com
 41
1.0
 72
0
  0
TEXT
  8
0
 62
5
  6
CONTINUOUS
 10
308.687007874
 20
13.75
  7
TEXTSTYLE_6
 40
5.0
  1
1:1
 41
0.7
 72
1
 11
313.937007874
 21
13.75
  0
TEXT
  8
0
 62
5
  6
CONTINUOUS
 10
326.937007874
 20
13.75
  7
TEXTSTYLE_7
 40
7.5
  1
Sprocket Z08
 41
0.6694444444
 72
0
  0
LINE
  8
0
 62
7
  6
CONTINUOUS
 10
0.0
 20
0.0
 11
0.0
 21
297.0
  0
LINE
  8
0
 62
7
  6
CONTINUOUS
 10
8.937007874
 20
10.0
 11
8.937007874
 21
287.0
  0
LINE
  8
0
 62
7
  6
CONTINUOUS
 10
0.0
 20
0.0
 11
420.0
 21
0.0
  0
LINE
  8
0
 62
7
  6
CONTINUOUS
 10
408.937007874
 20
10.0
 11
8.937007874
 21
10.0
  0
LINE
  8
0
 62
7
  6
CONTINUOUS
 10
218.937007874
 20
30.0
 11
408.937007874
 21
30.0
  0
LINE
  8
0
 62
7
  6
CONTINUOUS
 10
210.0
 20
297.0
 11
210.0
 21
292.0
  0
LINE
  8
0
 62
7
  6
CONTINUOUS
 10
210.0
 20
0.0
 11
210.0
 21
5.0
  0
LINE
  8
0
 62
7
  6
CONTINUOUS
 10
8.937007874
 20
287.0
 11
408.937007874
 21
287.0
  0
LINE
  8
0
 62
7
  6
CONTINUOUS
 10
0.0
 20
297.0
 11
420.0
 21
297.0
  0
LINE
  8
0
 62
7
  6
CONTINUOUS
 10
408.937007874
 20
287.0
 11
408.937007874
 21
10.0
  0
LINE
  8
0
 62
7
  6
CONTINUOUS
 10
420.0
 20
0.0
 11
420.0
 21
297.0
  0
LINE
  8
SURFACE
 62
7
  6
CONTINUOUS
 10
87.7258821137
 20
91.6088415819
 11
124.2424281107
 21
91.6088415819
  0
LINE
  8
0
 62
7
  6
CONTINUOUS
 10
146.8402392682
 20
91.6088415819
 11
150.8217108841
 21
91.6088415819
  0
LINE
  8
SURFACE
 62
7
  6
CONTINUOUS
 10
52.7225164989
 20
189.7080359671
 11
52.7225164989
 21
153.19148997
  0
LINE
  8
0
 62
7
  6
CONTINUOUS
 10
52.7225164989
 20
130.5936788126
 11
52.7225164989
 21
126.6122071966
  0
LINE
  8
SURFACE
 62
7
  6
CONTINUOUS
 10
94.5226793083
 20
227.5267271606
 11
68.7015820083
 21
201.7056298606
  0
LINE
  8
0
 62
7
  6
CONTINUOUS
 10
52.7225164989
 20
185.7265643511
 11
49.9071909202
 21
182.9112387724
  0
LINE
  8
SURFACE
 62
7
  6
CONTINUOUS
 10
49.9071909202
 20
133.4090043913
 11
75.7282882202
 21
107.5879070913
  0
LINE
  8
0
 62
7
  6
CONTINUOUS
 10
91.7073537296
 20
91.6088415819
 11
94.5226793083
 21
88.7935160031
  0
LINE
  8
0
 62
7
  6
CONTINUOUS
 10
83.6801550192
 20
187.7370375784
 11
83.3600753328
 21
187.326164777
  0
LINE
  8
0
 62
7
  6
CONTINUOUS
 10
82.0797568848
 20
185.6826739534
 11
81.7596772671
 21
185.2718012401
  0
LINE
  8
0
 62
7
  6
CONTINUOUS
 10
85.8469227993
 20
190.1349908351
 11
85.5616307518
 21
189.8313138285
  0
LINE
  8
0
 62
7
  6
CONTINUOUS
 10
84.9197239509
 20
189.1480408896
 11
84.5631089935
 21
188.7684447401
  0
LINE
  8
0
 62
7
  6
CONTINUOUS
 10
86.5998866566
 20
193.1205053046
 11
86.2213100311
 21
192.7628086556
  0
LINE
  8
0
 62
7
  6
CONTINUOUS
 10
86.5866173429
 20
192.3761771068
 11
86.9651939685
 21
192.7338737559
  0
LINE
  8
0
 62
7
  6
CONTINUOUS
 10
87.6958087969
 20
191.9606104418
 11
87.3172321714
 21
191.6029137927
  0
LINE
  8
0
 62
7
  6
CONTINUOUS
 10
95.3622901669
 20
199.6610268674
 11
94.834831623
 21
199.3257471567
  0
LINE
  8
0
 62
7
  6
CONTINUOUS
 10
92.3733587535
 20
197.7611087195
 11
91.8459002096
 21
197.4258290087
  0
LINE
  8
0
 62
7
  6
CONTINUOUS
 10
103.5593024763
 20
203.4265514748
 11
102.6909002237
 21
203.073304001
  0
LINE
  8
0
 62
7
  6
CONTINUOUS
 10
99.7962260485
 20
201.8958124217
 11
98.9278237959
 21
201.5425649479
  0
LINE
  8
0
 62
7
  6
CONTINUOUS
 10
85.3538732129
 20
189.4547963426
 11
85.2949735006
 21
189.0813579548
  0
LINE
  8
0
 62
7
  6
CONTINUOUS
 10
85.6051115352
 20
188.7899960374
 11
85.6640112475
 21
189.1634344252
  0
LINE
  8
0
 62
7
  6
CONTINUOUS
 10
85.64160677
 20
184.8885752104
 11
85.6857157447
 21
185.118302342
  0
LINE
  8
0
 62
7
  6
CONTINUOUS
 10
85.3059150019
 20
185.1500870834
 11
85.1337743213
 21
184.7560110022
  0
LINE
  8
0
 62
7
  6
CONTINUOUS
 10
85.4694660673
 20
184.4944991464
 11
85.64160677
 21
184.8885752104
  0
LINE
  8
0
 62
7
  6
CONTINUOUS
 10
85.5616307518
 20
189.8313138285
 11
85.3538732129
 21
189.4547963426
  0
LINE
  8
0
 62
7
  6
CONTINUOUS
 10
85.6640112475
 20
189.1634344252
 11
85.8717687863
 21
189.5399519111
  0
LINE
  8
0
 62
7
  6
CONTINUOUS
 10
85.1337743213
 20
184.7560110022
 11
84.8777105905
 21
184.4273127846
  0
LINE
  8
0
 62
7
  6
CONTINUOUS
 10
85.2134023365
 20
184.1658009288
 11
85.4694660673
 21
184.4944991464
  0
LINE
  8
0
 62
7
  6
CONTINUOUS
 10
86.1736412126
 20
185.3984190979
 11
86.493720899
 21
185.8092918993
  0
LINE
  8
0
 62
7
  6
CONTINUOUS
 10
87.0442134874
 20
186.4375491966
 11
87.4008284447
 21
186.8171453462
  0
LINE
  8
0
 62
7
  6
CONTINUOUS
 10
88.6846420465
 20
188.1836912239
 11
89.0412567998
 21
188.5632871563
  0
LINE
  8
0
 62
7
  6
CONTINUOUS
 10
89.6551991721
 20
189.1284716641
 11
90.0337757976
 21
189.4861683132
  0
LINE
  8
0
 62
7
  6
CONTINUOUS
 10
84.873415715
 20
183.9024807339
 11
85.2134023365
 21
184.1658009288
  0
LINE
  8
0
 62
7
  6
CONTINUOUS
 10
113.5873816147
 20
203.2259194607
 11
113.7769047558
 21
203.3630353281
  0
LINE
  8
0
 62
7
  6
CONTINUOUS
 10
108.2888761366
 20
202.6651775575
 11
108.014885031
 21
202.4810513521
  0
LINE
  8
0
 62
7
  6
CONTINUOUS
 10
85.8717687863
 20
189.5399519111
 11
86.2345953425
 21
189.7707884383
  0
LINE
  8
0
 62
7
  6
CONTINUOUS
 10
94.5281378959
 20
193.2061606575
 11
95.0555964398
 21
193.5414403683
  0
LINE
  8
0
 62
7
  6
CONTINUOUS
 10
97.5170693093
 20
195.1060788054
 11
98.0445278532
 21
195.4413585162
  0
LINE
  8
0
 62
7
  6
CONTINUOUS
 10
86.1384262416
 20
190.289908002
 11
85.8469227993
 21
190.1349908351
  0
LINE
  8
0
 62
7
  6
CONTINUOUS
 10
113.2132372497
 20
203.59841055
 11
112.9207824078
 21
203.445297027
  0
LINE
  8
0
 62
7
  6
CONTINUOUS
 10
113.5563332811
 20
201.3908709577
 11
113.2638784392
 21
201.2377574347
  0
LINE
  8
0
 62
7
  6
CONTINUOUS
 10
99.0104279867
 20
198.5594469266
 11
97.716379692
 21
197.8870063857
  0
LINE
  8
0
 62
7
  6
CONTINUOUS
 10
97.9616467312
 20
197.4150131394
 11
99.2556950259
 21
198.0874536803
  0
LINE
  8
0
 62
7
  6
CONTINUOUS
 10
108.0806140915
 20
201.8376582939
 11
108.5557451388
 21
202.076063076
  0
LINE
  8
0
 62
7
  6
CONTINUOUS
 10
84.8777105905
 20
184.4273127846
 11
84.4538010177
 21
184.2293705651
  0
LINE
  8
0
 62
7
  6
CONTINUOUS
 10
127.2092656402
 20
204.4930807598
 11
127.5559266983
 21
204.6439174354
  0
LINE
  8
0
 62
7
  6
CONTINUOUS
 10
100.8118103228
 20
196.9110862676
 11
101.3907451579
 21
197.1465845834
  0
LINE
  8
0
 62
7
  6
CONTINUOUS
 10
102.7415923701
 20
197.6960803543
 11
103.5135069558
 21
198.0100787077
  0
LINE
  8
0
 62
7
  6
CONTINUOUS
 10
104.8643541681
 20
198.5595744786
 11
105.4432890032
 21
198.7950727944
  0
LINE
  8
0
 62
7
  6
CONTINUOUS
 10
127.5526584569
 20
205.1859258011
 11
126.9814933995
 21
204.9693720822
  0
LINE
  8
0
 62
7
  6
CONTINUOUS
 10
113.2589741775
 20
200.5910341708
 11
113.7572924196
 21
200.7761430141
  0
LINE
  8
0
 62
7
  6
CONTINUOUS
 10
86.2345953425
 20
189.7707884383
 11
86.4547756709
 21
189.849786245
  0
LINE
  8
0
 62
7
  6
CONTINUOUS
 10
85.2949735006
 20
189.0813579548
 11
85.3073964941
 21
188.7838384929
  0
LINE
  8
0
 62
7
  6
CONTINUOUS
 10
85.6175345287
 20
188.4924765754
 11
85.6051115352
 21
188.7899960374
  0
LINE
  8
0
 62
7
  6
CONTINUOUS
 10
85.3301169188
 20
185.5273666337
 11
85.3059150019
 21
185.1500870834
  0
LINE
  8
0
 62
7
  6
CONTINUOUS
 10
108.434580766
 20
202.9248734363
 11
108.2888761366
 21
202.6651775575
  0
LINE
  8
0
 62
7
  6
CONTINUOUS
 10
113.3864224862
 20
203.8406473398
 11
113.2132372497
 21
203.59841055
  0
LINE
  8
0
 62
7
  6
CONTINUOUS
 10
108.5557451388
 20
202.076063076
 11
108.874870903
 21
202.4927458719
  0
LINE
  8
0
 62
7
  6
CONTINUOUS
 10
113.7572924196
 20
200.7761430141
 11
114.1200007928
 21
201.1554956991
  0
LINE
  8
0
 62
7
  6
CONTINUOUS
 10
121.1013730233
 20
201.6357478708
 11
124.9058827594
 21
204.9752000349
  0
LINE
  8
0
 62
7
  6
CONTINUOUS
 10
124.4025883024
 20
205.2266618574
 11
120.4942104864
 21
201.8950700559
  0
LINE
  8
0
 62
7
  6
CONTINUOUS
 10
126.9814933995
 20
204.9693720822
 11
126.6150175386
 21
204.7140140736
  0
LINE
  8
0
 62
7
  6
CONTINUOUS
 10
131.8348902845
 20
203.9092528212
 11
131.4432479195
 21
203.6944772939
  0
LINE
  8
0
 62
7
  6
CONTINUOUS
 10
133.6719191288
 20
201.3514915233
 11
134.0635614938
 21
201.5662670505
  0
LINE
  8
0
 62
7
  6
CONTINUOUS
 10
128.2325061706
 20
200.9424872718
 11
127.8858451126
 21
200.7916505962
  0
LINE
  8
0
 62
7
  6
CONTINUOUS
 10
127.8891180267
 20
200.2496412783
 11
128.4602784044
 21
200.4661959128
  0
LINE
  8
0
 62
7
  6
CONTINUOUS
 10
131.8799683841
 20
203.3397751732
 11
132.3712969213
 21
203.5243343079
  0
LINE
  8
0
 62
7
  6
CONTINUOUS
 10
131.2176949651
 20
201.8730786166
 11
130.7263664278
 21
201.6885194818
  0
LINE
  8
0
 62
7
  6
CONTINUOUS
 10
133.6268455926
 20
201.9209677881
 11
133.135512492
 21
201.7364100365
  0
LINE
  8
0
 62
7
  6
CONTINUOUS
 10
84.5135220365
 20
183.7867130043
 11
84.873415715
 21
183.9024807339
  0
LINE
  8
0
 62
7
  6
CONTINUOUS
 10
85.6857157447
 20
185.118302342
 11
85.6259945968
 21
185.5609597673
  0
LINE
  8
SURFACE
 62
7
  6
CONTINUOUS
 10
97.3051648871
 20
237.1525980082
 11
97.3051648871
 21
234.2442415819
  0
LINE
  8
0
 62
7
  6
CONTINUOUS
 10
97.3051648871
 20
82.0760015819
 11
97.3051648871
 21
79.1676451555
  0
LINE
  8
0
 62
7
  6
CONTINUOUS
 10
94.6529498164
 20
196.3108436708
 11
94.5281378959
 21
193.2061606575
  0
LINE
  8
0
 62
7
  6
CONTINUOUS
 10
94.834831623
 20
199.3257471567
 11
94.6884035677
 21
196.8376041941
  0
LINE
  8
0
 62
7
  6
CONTINUOUS
 10
95.0555964398
 20
193.5414403683
 11
95.202023489
 21
196.0295826913
  0
LINE
  8
0
 62
7
  6
CONTINUOUS
 10
95.1804083603
 20
196.6461233816
 11
95.3622901669
 21
199.6610268674
  0
LINE
  8
0
 62
7
  6
CONTINUOUS
 10
108.874870903
 20
202.4927458719
 11
109.0657124929
 21
202.9849989623
  0
LINE
  8
0
 62
7
  6
CONTINUOUS
 10
113.7769047558
 20
203.3630353281
 11
114.0203458838
 21
203.8315116185
  0
LINE
  8
0
 62
7
  6
CONTINUOUS
 10
114.1200007928
 20
201.1554956991
 11
114.3634419151
 21
201.6239720262
  0
LINE
  8
0
 62
7
  6
CONTINUOUS
 10
113.7295185061
 20
201.6331078212
 11
113.5563332811
 21
201.3908709577
  0
LINE
  8
0
 62
7
  6
CONTINUOUS
 10
126.6810030593
 20
203.9435601602
 11
127.2092656402
 21
204.4930807598
  0
LINE
  8
0
 62
7
  6
CONTINUOUS
 10
128.7607733948
 20
201.4920067636
 11
128.2325061706
 21
200.9424872718
  0
LINE
  8
0
 62
7
  6
CONTINUOUS
 10
131.5880121049
 20
203.0947829682
 11
131.8799683841
 21
203.3397751732
  0
LINE
  8
0
 62
7
  6
CONTINUOUS
 10
133.918797222
 20
202.165961091
 11
133.6268455926
 21
201.9209677881
  0
LINE
  8
0
 62
7
  6
CONTINUOUS
 10
130.8711306564
 20
201.0888252987
 11
131.2936328263
 21
201.4054096646
  0
LINE
  8
0
 62
7
  6
CONTINUOUS
 10
133.3704329197
 20
199.9977605574
 11
132.9479307714
 21
199.6811762629
  0
LINE
  8
0
 62
7
  6
CONTINUOUS
 10
128.4602784044
 20
200.4661959128
 11
128.8267542723
 21
200.7215539579
  0
LINE
  8
0
 62
7
  6
CONTINUOUS
 10
133.1235547941
 20
199.1832908827
 11
133.5151971699
 21
199.3980664456
  0
LINE
  8
SURFACE
 62
7
  6
CONTINUOUS
 10
40.2813200725
 20
136.19148997
 11
43.1896764989
 21
136.19148997
  0
LINE
  8
0
 62
7
  6
CONTINUOUS
 10
195.3579164989
 20
136.19148997
 11
198.2662729253
 21
136.19148997
  0
LINE
  8
SURFACE
 62
7
  6
CONTINUOUS
 10
47.883512369
 20
198.4820689395
 11
49.9400309202
 21
196.4255503884
  0
LINE
  8
0
 62
7
  6
CONTINUOUS
 10
157.5392253054
 20
88.8263560031
 11
159.5957438566
 21
86.7698374519
  0
LINE
  8
DEFAULT_3
 62
2
  6
PHANTOM
 10
101.8274664446
 20
145.660479453
 11
106.77415437
 21
140.7137915275
  0
LINE
  8
0
 62
7
  6
CONTINUOUS
 10
85.2063798921
 20
185.8878496043
 11
85.3301169188
 21
185.5273666337
  0
LINE
  8
0
 62
7
  6
CONTINUOUS
 10
102.6909002237
 20
203.073304001
 11
102.9271255602
 21
198.3457900392
  0
LINE
  8
0
 62
7
  6
CONTINUOUS
 10
103.5135069558
 20
198.0100787077
 11
103.3812157907
 21
202.2056322806
  0
LINE
  8
0
 62
7
  6
CONTINUOUS
 10
126.3310691305
 20
204.3347330313
 11
126.1692824106
 21
204.0405704403
  0
LINE
  8
0
 62
7
  6
CONTINUOUS
 10
126.6150175386
 20
204.7140140736
 11
126.3310691305
 21
204.3347330313
  0
LINE
  8
0
 62
7
  6
CONTINUOUS
 10
128.8267542723
 20
200.7215539579
 11
129.1107026942
 21
201.1008350734
  0
LINE
  8
0
 62
7
  6
CONTINUOUS
 10
131.4432479195
 20
203.6944772939
 11
131.0895766803
 21
203.2458663138
  0
LINE
  8
0
 62
7
  6
CONTINUOUS
 10
130.7263664278
 20
201.6885194818
 11
130.3726906685
 21
201.2399100276
  0
LINE
  8
0
 62
7
  6
CONTINUOUS
 10
134.0635614938
 20
201.5662670505
 11
134.3863774482
 21
201.9130676662
  0
LINE
  8
SURFACE
 62
7
  6
CONTINUOUS
 10
159.5957438566
 20
229.5504057118
 11
157.5392253054
 21
227.4938871606
  0
LINE
  8
0
 62
7
  6
CONTINUOUS
 10
49.9400309202
 20
119.8946927754
 11
47.883512369
 21
117.8381742242
  0
LINE
  8
DEFAULT_3
 62
2
  6
PHANTOM
 10
106.77415437
 20
175.6064516362
 11
101.8274664446
 21
170.6597637108
  0
LINE
  8
DEFAULT_3
 62
2
  6
PHANTOM
 10
115.1414918164
 20
181.7110473828
 11
110.8988511293
 21
177.4684066957
  0
LINE
  8
DEFAULT_3
 62
2
  6
PHANTOM
 10
95.7228706979
 20
162.2924262643
 11
99.965511385
 21
166.5350669514
  0
LINE
  8
0
 62
7
  6
CONTINUOUS
 10
155.4408107441
 20
189.4948577384
 11
150.5531417796
 21
187.5229387307
  0
LINE
  8
0
 62
7
  6
CONTINUOUS
 10
157.0107801737
 20
185.121390473
 11
157.3336185794
 21
185.2134932956
  0
LINE
  8
DEFAULT_3
 62
2
  6
PHANTOM
 10
110.8988511293
 20
138.851836468
 11
115.1414918164
 21
134.6091957809
  0
LINE
  8
DEFAULT_3
 62
2
  6
PHANTOM
 10
99.965511385
 20
149.7851762123
 11
95.7228706979
 21
154.0278168994
  0
LINE
  8
0
 62
7
  6
CONTINUOUS
 10
108.4520012212
 20
203.2601396095
 11
108.434580766
 21
202.9248734363
  0
LINE
  8
0
 62
7
  6
CONTINUOUS
 10
109.0657124929
 20
202.9849989623
 11
109.0831329481
 21
203.3202651355
  0
LINE
  8
0
 62
7
  6
CONTINUOUS
 10
113.4403404731
 20
204.1720077628
 11
113.3864224862
 21
203.8406473398
  0
LINE
  8
0
 62
7
  6
CONTINUOUS
 10
114.0203458838
 20
203.8315116185
 11
114.0742638707
 21
204.1628720414
  0
LINE
  8
0
 62
7
  6
CONTINUOUS
 10
113.783436493
 20
201.9644682441
 11
113.7295185061
 21
201.6331078212
  0
LINE
  8
0
 62
7
  6
CONTINUOUS
 10
114.3634419151
 20
201.6239720262
 11
114.4173598906
 21
201.9553325227
  0
LINE
  8
0
 62
7
  6
CONTINUOUS
 10
126.4597673013
 20
203.3358347512
 11
126.6810030593
 21
203.9435601602
  0
LINE
  8
0
 62
7
  6
CONTINUOUS
 10
126.1692824106
 20
204.0405704403
 11
125.9678661404
 21
203.5373654761
  0
LINE
  8
0
 62
7
  6
CONTINUOUS
 10
129.1107026942
 20
201.1008350734
 11
129.2724893586
 21
201.3949973716
  0
LINE
  8
0
 62
7
  6
CONTINUOUS
 10
133.5151971699
 20
199.3980664456
 11
133.8688683442
 21
199.8466772118
  0
LINE
  8
0
 62
7
  6
CONTINUOUS
 10
151.9122262701
 20
191.1124474193
 11
151.6180545963
 21
190.9506778028
  0
LINE
  8
0
 62
7
  6
CONTINUOUS
 10
152.001566993
 20
190.4458406241
 11
152.2957386668
 21
190.6076102406
  0
LINE
  8
0
 62
7
  6
CONTINUOUS
 10
156.8077348168
 20
185.6126683661
 11
156.1321129655
 21
185.2826139638
  0
LINE
  8
0
 62
7
  6
CONTINUOUS
 10
156.4233542455
 20
184.8508240073
 11
157.0107801737
 21
185.121390473
  0
LINE
  8
0
 62
7
  6
CONTINUOUS
 10
152.5919896692
 20
187.7537532435
 11
155.3868705423
 21
188.9017459595
  0
LINE
  8
0
 62
7
  6
CONTINUOUS
 10
150.9582701566
 20
187.0470227737
 11
152.2004383654
 21
187.5572429367
  0
LINE
  8
0
 62
7
  6
CONTINUOUS
 10
155.5996452794
 20
184.1695834041
 11
155.9224835616
 21
184.2616861434
  0
LINE
  8
0
 62
7
  6
CONTINUOUS
 10
156.7912745757
 20
181.832153999
 11
156.468436417
 21
181.740051343
  0
LINE
  8
0
 62
2
  6
CONTINUOUS
 10
119.2737964989
 20
159.2101215819
 11
119.2737964989
 21
157.1101215819
  0
LINE
  8
DEFAULT_1
 62
2
  6
CENTER
 10
119.2737964989
 20
152.9101215819
 11
119.2737964989
 21
74.322644492
  0
LINE
  8
DEFAULT_1
 62
2
  6
CENTER
 10
119.2737964989
 20
163.4101215819
 11
119.2737964989
 21
241.9975986717
  0
LINE
  8
0
 62
7
  6
CONTINUOUS
 10
120.8072918347
 20
206.0321767306
 11
120.7671532053
 21
205.5017785056
  0
LINE
  8
0
 62
7
  6
CONTINUOUS
 10
120.4942104864
 20
201.8950700559
 11
120.4299886738
 21
201.0464328217
  0
LINE
  8
0
 62
7
  6
CONTINUOUS
 10
125.9678661404
 20
203.5373654761
 11
125.7895329144
 21
202.5966734792
  0
LINE
  8
0
 62
7
  6
CONTINUOUS
 10
126.3210636811
 20
202.6041854202
 11
126.4597673013
 21
203.3358347512
  0
LINE
  8
0
 62
7
  6
CONTINUOUS
 10
130.3726906685
 20
201.2399100276
 11
130.2801113836
 21
200.9344839397
  0
LINE
  8
0
 62
7
  6
CONTINUOUS
 10
131.0895766803
 20
203.2458663138
 11
130.9969973954
 21
202.9404402259
  0
LINE
  8
0
 62
7
  6
CONTINUOUS
 10
130.7785513714
 20
200.7833992108
 11
130.8711306564
 21
201.0888252987
  0
LINE
  8
0
 62
7
  6
CONTINUOUS
 10
131.5262925816
 20
202.8911655763
 11
131.5880121049
 21
203.0947829682
  0
LINE
  8
0
 62
7
  6
CONTINUOUS
 10
128.9820044957
 20
202.0997332072
 11
128.7607733948
 21
201.4920067636
  0
LINE
  8
0
 62
7
  6
CONTINUOUS
 10
129.2724893586
 20
201.3949973716
 11
129.4739103415
 21
201.8982015941
  0
LINE
  8
0
 62
7
  6
CONTINUOUS
 10
150.5730346736
 20
194.4067260357
 11
147.1555786584
 21
190.7569322902
  0
LINE
  8
0
 62
7
  6
CONTINUOUS
 10
147.6118028766
 20
190.3297502883
 11
149.1387513306
 21
191.960509219
  0
LINE
  8
0
 62
7
  6
CONTINUOUS
 10
149.5750222593
 20
192.4264402799
 11
150.6656997846
 21
193.5912681497
  0
LINE
  8
0
 62
7
  6
CONTINUOUS
 10
156.1321129655
 20
185.2826139638
 11
155.5147415033
 21
184.8661984076
  0
LINE
  8
0
 62
7
  6
CONTINUOUS
 10
156.2469623992
 20
184.7318481341
 11
156.4233542455
 21
184.8508240073
  0
LINE
  8
0
 62
7
  6
CONTINUOUS
 10
155.3350575099
 20
183.9911195944
 11
155.5996452794
 21
184.1695834041
  0
LINE
  8
0
 62
2
  6
CONTINUOUS
 10
120.3237964989
 20
158.1601215819
 11
118.2237964989
 21
158.1601215819
  0
LINE
  8
DEFAULT_1
 62
2
  6
CENTER
 10
114.0237964989
 20
158.1601215819
 11
35.4363194091
 21
158.1601215819
  0
LINE
  8
DEFAULT_1
 62
2
  6
CENTER
 10
124.5237964989
 20
158.1601215819
 11
203.1112735887
 21
158.1601215819
  0
LINE
  8
0
 62
7
  6
CONTINUOUS
 10
81.7596772671
 20
185.2718012401
 11
83.4381359681
 21
183.9642419839
  0
LINE
  8
0
 62
7
  6
CONTINUOUS
 10
83.7582155858
 20
184.3751146971
 11
82.0797568848
 21
185.6826739534
  0
LINE
  8
0
 62
7
  6
CONTINUOUS
 10
83.3600753328
 20
187.326164777
 11
85.2063798921
 21
185.8878496043
  0
LINE
  8
0
 62
7
  6
CONTINUOUS
 10
85.862151354
 20
186.0372105269
 11
83.6801550192
 21
187.7370375784
  0
LINE
  8
0
 62
7
  6
CONTINUOUS
 10
84.5631089935
 20
188.7684447401
 11
87.0442134874
 21
186.4375491966
  0
LINE
  8
0
 62
7
  6
CONTINUOUS
 10
87.4008284447
 20
186.8171453462
 11
85.6175345287
 21
188.4924765754
  0
LINE
  8
0
 62
7
  6
CONTINUOUS
 10
85.3073964941
 20
188.7838384929
 11
84.9197239509
 21
189.1480408896
  0
LINE
  8
0
 62
7
  6
CONTINUOUS
 10
87.211486165
 20
189.5676605358
 11
88.6846420465
 21
188.1836912239
  0
LINE
  8
0
 62
7
  6
CONTINUOUS
 10
89.0412567998
 20
188.5632871563
 11
87.5681009183
 21
189.9472564681
  0
LINE
  8
0
 62
7
  6
CONTINUOUS
 10
86.2213100311
 20
192.7628086556
 11
86.5866173429
 21
192.3761771068
  0
LINE
  8
0
 62
7
  6
CONTINUOUS
 10
87.3172321714
 20
191.6029137927
 11
89.6551991721
 21
189.1284716641
  0
LINE
  8
0
 62
7
  6
CONTINUOUS
 10
90.0337757976
 20
189.4861683132
 11
87.6958087969
 21
191.9606104418
  0
LINE
  8
0
 62
7
  6
CONTINUOUS
 10
86.9651939685
 20
192.7338737559
 11
86.5998866566
 21
193.1205053046
  0
LINE
  8
0
 62
7
  6
CONTINUOUS
 10
97.716379692
 20
197.8870063857
 11
97.9616467312
 21
197.4150131394
  0
LINE
  8
0
 62
7
  6
CONTINUOUS
 10
99.2556950259
 20
198.0874536803
 11
99.0104279867
 21
198.5594469266
  0
LINE
  8
0
 62
7
  6
CONTINUOUS
 10
98.9278237959
 20
201.5425649479
 11
100.8118103228
 21
196.9110862676
  0
LINE
  8
0
 62
7
  6
CONTINUOUS
 10
101.3907451579
 20
197.1465845834
 11
99.9076067804
 21
200.7926423854
  0
LINE
  8
0
 62
7
  6
CONTINUOUS
 10
104.9463239916
 20
203.8567536339
 11
106.2489998926
 21
199.0294318612
  0
LINE
  8
0
 62
7
  6
CONTINUOUS
 10
106.8524151141
 20
199.1922663488
 11
106.2703684267
 21
201.349154831
  0
LINE
  8
0
 62
7
  6
CONTINUOUS
 10
106.1040693954
 20
201.9654086009
 11
105.6883217393
 21
203.5060433133
  0
LINE
  8
0
 62
7
  6
CONTINUOUS
 10
108.3688516279
 20
203.5682667822
 11
108.4520012212
 21
203.2601396095
  0
LINE
  8
0
 62
7
  6
CONTINUOUS
 10
110.0207505968
 20
205.1477773105
 11
110.7886322055
 21
200.2070933665
  0
LINE
  8
0
 62
7
  6
CONTINUOUS
 10
111.3081902593
 20
200.9338041759
 11
111.0631216557
 21
202.5106182335
  0
LINE
  8
0
 62
7
  6
CONTINUOUS
 10
110.965094228
 20
203.1413437682
 11
110.7363635176
 21
204.6130369769
  0
LINE
  8
0
 62
7
  6
CONTINUOUS
 10
125.7895329144
 20
202.5966734792
 11
125.792801128
 21
202.0546649671
  0
LINE
  8
0
 62
7
  6
CONTINUOUS
 10
126.3045217767
 20
201.957654687
 11
126.3210636811
 21
202.6041854202
  0
LINE
  8
0
 62
7
  6
CONTINUOUS
 10
124.5847736796
 20
200.7320136409
 11
124.6329400405
 21
201.3684915852
  0
LINE
  8
0
 62
7
  6
CONTINUOUS
 10
124.9058827594
 20
204.9752000349
 11
124.9620768405
 21
205.7177575498
  0
LINE
  8
0
 62
7
  6
CONTINUOUS
 10
129.1207081159
 20
202.8313825381
 11
128.9820044957
 21
202.0997332072
  0
LINE
  8
0
 62
7
  6
CONTINUOUS
 10
129.4739103415
 20
201.8982015941
 11
129.6522435675
 21
202.838893591
  0
LINE
  8
0
 62
7
  6
CONTINUOUS
 10
133.9805167453
 20
202.369578483
 11
133.918797222
 21
202.165961091
  0
LINE
  8
0
 62
7
  6
CONTINUOUS
 10
133.4630122046
 20
200.3031866453
 11
133.3704329197
 21
199.9977605574
  0
LINE
  8
0
 62
7
  6
CONTINUOUS
 10
134.3863774482
 20
201.9130676662
 11
134.4789567332
 21
202.2184937541
  0
LINE
  8
0
 62
7
  6
CONTINUOUS
 10
133.8688683442
 20
199.8466772118
 11
133.9614476292
 21
200.1521032997
  0
LINE
  8
0
 62
7
  6
CONTINUOUS
 10
152.1303619381
 20
191.3454131673
 11
151.9122262701
 21
191.1124474193
  0
LINE
  8
0
 62
7
  6
CONTINUOUS
 10
152.2957386668
 20
190.6076102406
 11
152.5865861563
 21
190.9182311654
  0
LINE
  8
0
 62
7
  6
CONTINUOUS
 10
155.5147415033
 20
184.8661984076
 11
154.9556203067
 21
184.3634216143
  0
LINE
  8
0
 62
7
  6
CONTINUOUS
 10
157.0558623452
 20
182.0106178088
 11
156.7912745757
 21
181.832153999
  0
LINE
  8
0
 62
7
  6
CONTINUOUS
 10
156.9943199325
 20
181.3408761058
 11
157.4352996719
 21
181.6383158721
  0
LINE
  8
0
 62
7
  6
CONTINUOUS
 10
83.4381359681
 20
183.9642419839
 11
83.8378436705
 21
183.7849046522
  0
LINE
  8
0
 62
7
  6
CONTINUOUS
 10
86.7524905079
 20
189.8559435723
 11
87.211486165
 21
189.5676605358
  0
LINE
  8
0
 62
7
  6
CONTINUOUS
 10
103.3812157907
 20
202.2056322806
 11
104.8643541681
 21
198.5595744786
  0
LINE
  8
0
 62
7
  6
CONTINUOUS
 10
105.4432890032
 20
198.7950727944
 11
103.5593024763
 21
203.4265514748
  0
LINE
  8
0
 62
7
  6
CONTINUOUS
 10
109.0831329481
 20
203.3202651355
 11
108.9722668495
 21
203.7311012698
  0
LINE
  8
0
 62
7
  6
CONTINUOUS
 10
113.4076646639
 20
204.3822496077
 11
113.4403404731
 21
204.1720077628
  0
LINE
  8
0
 62
7
  6
CONTINUOUS
 10
113.7344227792
 20
202.2798310114
 11
113.783436493
 21
201.9644682441
  0
LINE
  8
0
 62
7
  6
CONTINUOUS
 10
114.4173598906
 20
201.9553325227
 11
114.3356703675
 21
202.480937135
  0
LINE
  8
0
 62
7
  6
CONTINUOUS
 10
114.0742638707
 20
204.1628720414
 11
114.0089122065
 21
204.5833560257
  0
LINE
  8
0
 62
7
  6
CONTINUOUS
 10
130.2801113836
 20
200.9344839397
 11
130.3251894615
 21
200.3650062204
  0
LINE
  8
0
 62
7
  6
CONTINUOUS
 10
129.6522435675
 20
202.838893591
 11
129.6489706413
 21
203.3809028449
  0
LINE
  8
0
 62
7
  6
CONTINUOUS
 10
129.1372546774
 20
203.4779122368
 11
129.1207081159
 21
202.8313825381
  0
LINE
  8
0
 62
7
  6
CONTINUOUS
 10
152.272461193
 20
191.6495746117
 11
152.1303619381
 21
191.3454131673
  0
LINE
  8
0
 62
7
  6
CONTINUOUS
 10
153.253996596
 20
184.3501668943
 11
155.9809829437
 21
188.8603019188
  0
LINE
  8
0
 62
7
  6
CONTINUOUS
 10
153.5508673191
 20
185.970855203
 11
152.848868219
 21
184.8260828513
  0
LINE
  8
0
 62
7
  6
CONTINUOUS
 10
155.3868705423
 20
188.9017459595
 11
153.8073748002
 21
186.3260053725
  0
LINE
  8
0
 62
7
  6
CONTINUOUS
 10
154.9556203067
 20
184.3634216143
 11
154.6311360746
 21
183.8932674883
  0
LINE
  8
0
 62
7
  6
CONTINUOUS
 10
155.1287201295
 20
183.7262946307
 11
155.3350575099
 21
183.9911195944
  0
LINE
  8
0
 62
7
  6
CONTINUOUS
 10
157.2621998491
 20
182.2754428557
 11
157.0558623452
 21
182.0106178088
  0
LINE
  8
0
 62
7
  6
CONTINUOUS
 10
156.4368448095
 20
181.2161507826
 11
156.9943199325
 21
181.3408761058
  0
LINE
  8
0
 62
7
  6
CONTINUOUS
 10
85.6259945968
 20
185.5609597673
 11
86.1736412126
 21
185.3984190979
  0
LINE
  8
0
 62
7
  6
CONTINUOUS
 10
84.074000306
 20
184.2611553768
 11
83.7582155858
 21
184.3751146971
  0
LINE
  8
0
 62
7
  6
CONTINUOUS
 10
86.2618589788
 20
185.8578731259
 11
85.862151354
 21
186.0372105269
  0
LINE
  8
0
 62
7
  6
CONTINUOUS
 10
87.1091056693
 20
190.2355399391
 11
86.8051790295
 21
190.3781420169
  0
LINE
  8
0
 62
7
  6
CONTINUOUS
 10
87.5681009183
 20
189.9472564681
 11
87.1091056693
 21
190.2355399391
  0
LINE
  8
0
 62
7
  6
CONTINUOUS
 10
99.9076067804
 20
200.7926423854
 11
102.7415923701
 21
197.6960803543
  0
LINE
  8
0
 62
7
  6
CONTINUOUS
 10
102.9271255602
 20
198.3457900392
 11
99.7962260485
 21
201.8958124217
  0
LINE
  8
0
 62
7
  6
CONTINUOUS
 10
108.1851321414
 20
203.8492543788
 11
108.3688516279
 21
203.5682667822
  0
LINE
  8
0
 62
7
  6
CONTINUOUS
 10
108.9722668495
 20
203.7311012698
 11
108.7885473629
 21
204.0120888664
  0
LINE
  8
0
 62
7
  6
CONTINUOUS
 10
113.5824773416
 20
202.5791962705
 11
113.7344227792
 21
202.2798310114
  0
LINE
  8
0
 62
7
  6
CONTINUOUS
 10
114.3356703675
 20
202.480937135
 11
114.18372493
 21
202.780302394
  0
LINE
  8
0
 62
7
  6
CONTINUOUS
 10
113.2557192034
 20
204.6816150139
 11
113.4076646639
 21
204.3822496077
  0
LINE
  8
0
 62
7
  6
CONTINUOUS
 10
114.0089122065
 20
204.5833560257
 11
113.8569667918
 21
204.8827211375
  0
LINE
  8
0
 62
7
  6
CONTINUOUS
 10
125.792801128
 20
202.0546649671
 11
125.8356989751
 21
201.7216992673
  0
LINE
  8
0
 62
7
  6
CONTINUOUS
 10
129.6489706413
 20
203.3809028449
 11
129.6060728497
 21
203.7138688374
  0
LINE
  8
0
 62
7
  6
CONTINUOUS
 10
133.9614476292
 20
200.1521032997
 11
133.9163741362
 21
200.7215797071
  0
LINE
  8
0
 62
7
  6
CONTINUOUS
 10
134.4789567332
 20
202.2184937541
 11
134.4338787201
 21
202.7879716874
  0
LINE
  8
SURFACE
 62
7
  6
CONTINUOUS
 10
141.2424281107
 20
79.1676451555
 11
141.2424281107
 21
82.0760015819
  0
LINE
  8
0
 62
7
  6
CONTINUOUS
 10
141.2424281107
 20
234.2442415819
 11
141.2424281107
 21
237.1525980082
  0
LINE
  8
0
 62
7
  6
CONTINUOUS
 10
154.9806277437
 20
183.3751163779
 11
155.1287201295
 21
183.7262946307
  0
LINE
  8
0
 62
7
  6
CONTINUOUS
 10
152.5865861563
 20
190.9182311654
 11
152.7286854112
 21
191.2223926098
  0
LINE
  8
0
 62
7
  6
CONTINUOUS
 10
157.4352996719
 20
181.6383158721
 11
157.7597838423
 21
182.1084699565
  0
LINE
  8
0
 62
7
  6
CONTINUOUS
 10
158.9063310906
 20
182.8818132988
 11
159.1126684709
 21
183.1466382625
  0
LINE
  8
DEFAULT_3
 62
2
  6
PHANTOM
 10
142.8247222999
 20
154.0278168994
 11
138.5820816128
 21
149.7851762123
  0
LINE
  8
DEFAULT_3
 62
2
  6
PHANTOM
 10
123.4061011814
 20
134.6091957809
 11
127.6487418685
 21
138.851836468
  0
LINE
  8
DEFAULT_3
 62
2
  6
PHANTOM
 10
136.7201265533
 20
145.660479453
 11
131.7734386278
 21
140.7137915275
  0
LINE
  8
SURFACE
 62
7
  6
CONTINUOUS
 10
78.9518491412
 20
86.7698374519
 11
81.0083676924
 21
88.8263560031
  0
LINE
  8
0
 62
7
  6
CONTINUOUS
 10
188.6075620776
 20
196.4255503884
 11
190.6640806288
 21
198.4820689395
  0
LINE
  8
0
 62
7
  6
CONTINUOUS
 10
157.3652101252
 20
185.7373938144
 11
156.8077348168
 21
185.6126683661
  0
LINE
  8
0
 62
7
  6
CONTINUOUS
 10
156.468436417
 20
181.740051343
 11
156.0873531403
 21
181.7343018929
  0
LINE
  8
SURFACE
 62
7
  6
CONTINUOUS
 10
198.2662729253
 20
180.1287531937
 11
195.3579164989
 21
180.1287531937
  0
LINE
  8
0
 62
7
  6
CONTINUOUS
 10
43.1896764989
 20
180.1287531937
 11
40.2813200725
 21
180.1287531937
  0
LINE
  8
0
 62
7
  6
CONTINUOUS
 10
155.9093152513
 20
181.2372745705
 11
156.4368448095
 21
181.2161507826
  0
LINE
  8
0
 62
7
  6
CONTINUOUS
 10
84.4538010177
 20
184.2293705651
 11
84.074000306
 21
184.2611553768
  0
LINE
  8
0
 62
7
  6
CONTINUOUS
 10
83.8378436705
 20
183.7849046522
 11
84.0697054558
 21
183.7363232828
  0
LINE
  8
0
 62
7
  6
CONTINUOUS
 10
86.493720899
 20
185.8092918993
 11
86.2618589788
 21
185.8578731259
  0
LINE
  8
DEFAULT_3
 62
2
  6
PHANTOM
 10
138.5820816128
 20
166.5350669514
 11
142.8247222999
 21
162.2924262643
  0
LINE
  8
DEFAULT_3
 62
2
  6
PHANTOM
 10
127.6487418685
 20
177.4684066957
 11
123.4061011814
 21
181.7110473828
  0
LINE
  8
DEFAULT_3
 62
2
  6
PHANTOM
 10
131.7734386278
 20
175.6064516362
 11
136.7201265533
 21
170.6597637108
  0
LINE
  8
SURFACE
 62
7
  6
CONTINUOUS
 10
190.6640806288
 20
117.8381742242
 11
188.6075620776
 21
119.8946927754
  0
LINE
  8
0
 62
7
  6
CONTINUOUS
 10
81.0083676924
 20
227.4938871606
 11
78.9518491412
 21
229.5504057118
  0
LINE
  8
0
 62
7
  6
CONTINUOUS
 10
126.5950066535
 20
201.2529189246
 11
126.3045217767
 21
201.957654687
  0
LINE
  8
0
 62
7
  6
CONTINUOUS
 10
125.8356989751
 20
201.7216992673
 11
125.9611289461
 21
201.2648095725
  0
LINE
  8
0
 62
7
  6
CONTINUOUS
 10
129.6060728497
 20
203.7138688374
 11
129.4806428647
 21
204.1707584591
  0
LINE
  8
0
 62
7
  6
CONTINUOUS
 10
130.9969973954
 20
202.9404402259
 11
131.0729306933
 21
202.4727726571
  0
LINE
  8
0
 62
7
  6
CONTINUOUS
 10
152.7286854112
 20
191.2223926098
 11
152.7914205878
 21
191.746604318
  0
LINE
  8
0
 62
7
  6
CONTINUOUS
 10
154.6311360746
 20
183.8932674883
 11
154.4530981856
 21
183.3962401659
  0
LINE
  8
0
 62
7
  6
CONTINUOUS
 10
159.1126684709
 20
183.1466382625
 11
159.290706329
 21
183.643665564
  0
LINE
  8
0
 62
7
  6
CONTINUOUS
 10
158.7631768018
 20
183.6647893728
 11
158.6150844777
 21
183.3136111617
  0
LINE
  8
0
 62
7
  6
CONTINUOUS
 10
151.4826075982
 20
190.3488109177
 11
152.001566993
 21
190.4458406241
  0
LINE
  8
0
 62
7
  6
CONTINUOUS
 10
84.0697054558
 20
183.7363232828
 11
84.5135220365
 21
183.7867130043
  0
LINE
  8
0
 62
7
  6
CONTINUOUS
 10
151.6180545963
 20
190.9506778028
 11
151.3205550538
 21
190.9377625362
  0
LINE
  8
0
 62
7
  6
CONTINUOUS
 10
86.4547756709
 20
189.849786245
 11
86.7524905079
 21
189.8559435723
  0
LINE
  8
0
 62
7
  6
CONTINUOUS
 10
157.3336185794
 20
185.2134932956
 11
157.7147017943
 21
185.219242704
  0
LINE
  8
0
 62
7
  6
CONTINUOUS
 10
157.8927396524
 20
185.7162700056
 11
157.3652101252
 21
185.7373938144
  0
LINE
  8
0
 62
7
  6
CONTINUOUS
 10
155.9224835616
 20
184.2616861434
 11
156.2153708534
 21
184.2079476152
  0
LINE
  8
0
 62
7
  6
CONTINUOUS
 10
91.8459002096
 20
197.4258290087
 11
94.6529498164
 21
196.3108436708
  0
LINE
  8
0
 62
7
  6
CONTINUOUS
 10
95.202023489
 20
196.0295826913
 11
97.5170693093
 21
195.1060788054
  0
LINE
  8
0
 62
7
  6
CONTINUOUS
 10
94.6884035677
 20
196.8376041941
 11
92.3733587535
 21
197.7611087195
  0
LINE
  8
0
 62
7
  6
CONTINUOUS
 10
98.0445278532
 20
195.4413585162
 11
95.1804083603
 21
196.6461233816
  0
LINE
  8
0
 62
7
  6
CONTINUOUS
 10
113.3439404867
 20
202.7574431704
 11
113.5824773416
 21
202.5791962705
  0
LINE
  8
0
 62
7
  6
CONTINUOUS
 10
108.7885473629
 20
204.0120888664
 11
108.3759737312
 21
204.3415074692
  0
LINE
  8
0
 62
7
  6
CONTINUOUS
 10
114.18372493
 20
202.780302394
 11
113.809580565
 21
203.1527934833
  0
LINE
  8
0
 62
7
  6
CONTINUOUS
 10
113.8569667918
 20
204.8827211375
 11
113.4828224268
 21
205.2552122267
  0
LINE
  8
0
 62
7
  6
CONTINUOUS
 10
125.9611289461
 20
201.2648095725
 11
126.2087159828
 21
200.8930395465
  0
LINE
  8
0
 62
7
  6
CONTINUOUS
 10
130.3251894615
 20
200.3650062204
 11
130.5316732458
 21
199.9689295361
  0
LINE
  8
0
 62
7
  6
CONTINUOUS
 10
131.0729306933
 20
202.4727726571
 11
131.2794144884
 21
202.0766960085
  0
LINE
  8
0
 62
7
  6
CONTINUOUS
 10
128.8467651573
 20
204.1826491069
 11
129.1372546774
 21
203.4779122368
  0
LINE
  8
0
 62
7
  6
CONTINUOUS
 10
130.9541753833
 20
200.285513795
 11
130.7785513714
 21
200.7833992108
  0
LINE
  8
0
 62
7
  6
CONTINUOUS
 10
133.2873882144
 20
200.8010721324
 11
133.4630122046
 21
200.3031866453
  0
LINE
  8
0
 62
7
  6
CONTINUOUS
 10
131.6330902044
 20
202.5253053202
 11
131.5262925816
 21
202.8911655763
  0
LINE
  8
0
 62
7
  6
CONTINUOUS
 10
133.8737237722
 20
202.735437641
 11
133.9805167453
 21
202.369578483
  0
LINE
  8
0
 62
7
  6
CONTINUOUS
 10
154.4530981856
 20
183.3962401659
 11
154.4797516729
 21
182.785986384
  0
LINE
  8
0
 62
7
  6
CONTINUOUS
 10
152.2658089362
 20
191.9472800523
 11
152.272461193
 21
191.6495746117
  0
LINE
  8
0
 62
7
  6
CONTINUOUS
 10
154.9789817319
 20
182.9970649496
 11
154.9806277437
 21
183.3751163779
  0
LINE
  8
0
 62
7
  6
CONTINUOUS
 10
157.3237422617
 20
182.9451845586
 11
157.32209625
 21
182.5671331302
  0
LINE
  8
0
 62
7
  6
CONTINUOUS
 10
157.32209625
 20
182.5671331302
 11
157.2621998491
 21
182.2754428557
  0
LINE
  8
0
 62
7
  6
CONTINUOUS
 10
157.7597838423
 20
182.1084699565
 11
157.8496257772
 21
182.5460093214
  0
LINE
  8
0
 62
7
  6
CONTINUOUS
 10
132.5325355131
 20
199.0289494969
 11
133.1235547941
 21
199.1832908827
  0
LINE
  8
0
 62
7
  6
CONTINUOUS
 10
86.5074641925
 20
190.3719846896
 11
86.1384262416
 21
190.289908002
  0
LINE
  8
0
 62
7
  6
CONTINUOUS
 10
132.9479307714
 20
199.6811762629
 11
132.4874574325
 21
199.5984272073
  0
LINE
  8
0
 62
7
  6
CONTINUOUS
 10
133.4416870227
 20
201.3101156123
 11
133.6719191288
 21
201.3514915233
  0
LINE
  8
0
 62
7
  6
CONTINUOUS
 10
86.8051790295
 20
190.3781420169
 11
86.5074641925
 21
190.3719846896
  0
LINE
  8
0
 62
7
  6
CONTINUOUS
 10
150.9603238153
 20
190.4006323022
 11
151.4826075982
 21
190.3488109177
  0
LINE
  8
0
 62
7
  6
CONTINUOUS
 10
156.0873531403
 20
181.7343018929
 11
155.7362154594
 21
181.8744015749
  0
LINE
  8
0
 62
7
  6
CONTINUOUS
 10
156.2153708534
 20
184.2079476152
 11
156.5665085343
 21
184.0678479332
  0
LINE
  8
0
 62
7
  6
CONTINUOUS
 10
156.949237761
 20
184.4516487701
 11
156.2469623992
 21
184.7318481341
  0
LINE
  8
0
 62
7
  6
CONTINUOUS
 10
157.7147017943
 20
185.219242704
 11
158.0658394752
 21
185.079143022
  0
LINE
  8
0
 62
7
  6
CONTINUOUS
 10
108.3759737312
 20
204.3415074692
 11
107.8905489357
 21
204.5410784431
  0
LINE
  8
0
 62
7
  6
CONTINUOUS
 10
155.3534808458
 20
181.490608608
 11
155.9093152513
 21
181.2372745705
  0
LINE
  8
0
 62
7
  6
CONTINUOUS
 10
113.4828224268
 20
205.2552122267
 11
113.0220866216
 21
205.5065851041
  0
LINE
  8
0
 62
7
  6
CONTINUOUS
 10
107.928561491
 20
204.0003943466
 11
108.1851321414
 21
203.8492543788
  0
LINE
  8
0
 62
7
  6
CONTINUOUS
 10
113.0171823485
 20
204.8598619138
 11
113.2557192034
 21
204.6816150139
  0
LINE
  8
0
 62
7
  6
CONTINUOUS
 10
126.2087159828
 20
200.8930395465
 11
126.6609922177
 21
200.48246524
  0
LINE
  8
0
 62
7
  6
CONTINUOUS
 10
131.2912051123
 20
199.9610294499
 11
130.9541753833
 21
200.285513795
  0
LINE
  8
0
 62
7
  6
CONTINUOUS
 10
126.8624085
 20
200.9856702682
 11
126.5950066535
 21
201.2529189246
  0
LINE
  8
0
 62
7
  6
CONTINUOUS
 10
128.5793633108
 20
204.4498977633
 11
128.8467651573
 21
204.1826491069
  0
LINE
  8
0
 62
7
  6
CONTINUOUS
 10
130.5316732458
 20
199.9689295361
 11
130.9375339406
 21
199.5124186927
  0
LINE
  8
0
 62
7
  6
CONTINUOUS
 10
131.9392601718
 20
202.0990122792
 11
131.6330902044
 21
202.5253053202
  0
LINE
  8
0
 62
7
  6
CONTINUOUS
 10
133.9163741362
 20
200.7215797071
 11
133.6101996055
 21
201.1478741314
  0
LINE
  8
0
 62
7
  6
CONTINUOUS
 10
133.5675492416
 20
203.1617320653
 11
133.8737237722
 21
202.735437641
  0
LINE
  8
0
 62
7
  6
CONTINUOUS
 10
129.4806428647
 20
204.1707584591
 11
129.2330558211
 21
204.5425284485
  0
LINE
  8
0
 62
7
  6
CONTINUOUS
 10
134.4338787201
 20
202.7879716874
 11
134.227394925
 21
203.1840483359
  0
LINE
  8
0
 62
7
  6
CONTINUOUS
 10
152.7914205878
 20
191.746604318
 11
152.7054077336
 21
192.2643567633
  0
LINE
  8
0
 62
7
  6
CONTINUOUS
 10
157.8496257772
 20
182.5460093214
 11
157.8229669339
 21
183.1562709941
  0
LINE
  8
0
 62
7
  6
CONTINUOUS
 10
159.290706329
 20
183.643665564
 11
159.2640528185
 21
184.2539193303
  0
LINE
  8
0
 62
7
  6
CONTINUOUS
 10
158.7648228135
 20
184.0428408012
 11
158.7631768018
 21
183.6647893728
  0
LINE
  8
0
 62
7
  6
CONTINUOUS
 10
106.2489998926
 20
199.0294318612
 11
106.8524151141
 21
199.1922663488
  0
LINE
  8
0
 62
7
  6
CONTINUOUS
 10
106.2703684267
 20
201.349154831
 11
108.0806140915
 21
201.8376582939
  0
LINE
  8
0
 62
7
  6
CONTINUOUS
 10
108.014885031
 20
202.4810513521
 11
106.1040693954
 21
201.9654086009
  0
LINE
  8
0
 62
7
  6
CONTINUOUS
 10
105.6883217393
 20
203.5060433133
 11
107.599137375
 21
204.0216860644
  0
LINE
  8
0
 62
7
  6
CONTINUOUS
 10
132.4259095574
 20
204.0635941802
 11
131.8348902845
 21
203.9092528212
  0
LINE
  8
0
 62
7
  6
CONTINUOUS
 10
131.2936328263
 20
201.4054096646
 11
131.7541016019
 21
201.4881601034
  0
LINE
  8
0
 62
7
  6
CONTINUOUS
 10
131.4479316345
 20
201.9144531444
 11
131.2176949651
 21
201.8730786166
  0
LINE
  8
0
 62
7
  6
CONTINUOUS
 10
110.7886322055
 20
200.2070933665
 11
113.2589741775
 21
200.5910341708
  0
LINE
  8
0
 62
7
  6
CONTINUOUS
 10
113.2638784392
 20
201.2377574347
 11
111.3081902593
 21
200.9338041759
  0
LINE
  8
0
 62
7
  6
CONTINUOUS
 10
111.0631216557
 20
202.5106182335
 11
113.0188098355
 21
202.8145714923
  0
LINE
  8
0
 62
7
  6
CONTINUOUS
 10
112.9207824078
 20
203.445297027
 11
110.965094228
 21
203.1413437682
  0
LINE
  8
0
 62
7
  6
CONTINUOUS
 10
110.7363635176
 20
204.6130369769
 11
112.6920516974
 21
204.9169902358
  0
LINE
  8
0
 62
7
  6
CONTINUOUS
 10
107.8905489357
 20
204.5410784431
 11
107.359984878
 21
204.5080915843
  0
LINE
  8
0
 62
7
  6
CONTINUOUS
 10
127.8858451126
 20
200.7916505962
 11
127.3543143459
 21
200.7841386552
  0
LINE
  8
0
 62
7
  6
CONTINUOUS
 10
127.5559266983
 20
204.6439174354
 11
128.0874621499
 21
204.6514284883
  0
LINE
  8
0
 62
7
  6
CONTINUOUS
 10
127.2552403176
 20
200.261531917
 11
127.8891180267
 21
200.2496412783
  0
LINE
  8
0
 62
7
  6
CONTINUOUS
 10
128.1865361643
 20
205.1740351532
 11
127.5526584569
 21
205.1859258011
  0
LINE
  8
0
 62
7
  6
CONTINUOUS
 10
132.4874574325
 20
199.5984272073
 11
132.0578484185
 21
199.6174854645
  0
LINE
  8
0
 62
7
  6
CONTINUOUS
 10
131.7541016019
 20
201.4881601034
 11
132.1837151792
 21
201.469100463
  0
LINE
  8
0
 62
7
  6
CONTINUOUS
 10
133.135512492
 20
201.7364100365
 11
132.7059034781
 21
201.7554682937
  0
LINE
  8
0
 62
7
  6
CONTINUOUS
 10
132.3712969213
 20
203.5243343079
 11
132.8009104986
 21
203.5052746675
  0
LINE
  8
0
 62
7
  6
CONTINUOUS
 10
113.0220866216
 20
205.5065851041
 11
112.4910925689
 21
205.5317181149
  0
LINE
  8
0
 62
7
  6
CONTINUOUS
 10
107.599137375
 20
204.0216860644
 11
107.928561491
 21
204.0003943466
  0
LINE
  8
0
 62
7
  6
CONTINUOUS
 10
120.4299886738
 20
201.0464328217
 11
124.5847736796
 21
200.7320136409
  0
LINE
  8
0
 62
7
  6
CONTINUOUS
 10
124.6329400405
 20
201.3684915852
 11
121.1013730233
 21
201.6357478708
  0
LINE
  8
0
 62
7
  6
CONTINUOUS
 10
120.7671532053
 20
205.5017785056
 11
124.4025883024
 21
205.2266618574
  0
LINE
  8
0
 62
7
  6
CONTINUOUS
 10
124.9620768405
 20
205.7177575498
 11
120.8072918347
 21
206.0321767306
  0
LINE
  8
0
 62
7
  6
CONTINUOUS
 10
132.0032357609
 20
199.0782255209
 11
132.5325355131
 21
199.0289494969
  0
LINE
  8
0
 62
7
  6
CONTINUOUS
 10
132.9552093069
 20
204.0143181474
 11
132.4259095574
 21
204.0635941802
  0
LINE
  8
0
 62
7
  6
CONTINUOUS
 10
113.0188098355
 20
202.8145714923
 11
113.3439404867
 21
202.7574431704
  0
LINE
  8
0
 62
7
  6
CONTINUOUS
 10
112.6920516974
 20
204.9169902358
 11
113.0171823485
 21
204.8598619138
  0
LINE
  8
0
 62
7
  6
CONTINUOUS
 10
131.4051096008
 20
199.2595266422
 11
132.0032357609
 21
199.0782255209
  0
LINE
  8
0
 62
7
  6
CONTINUOUS
 10
132.0578484185
 20
199.6174854645
 11
131.6590991662
 21
199.7383524176
  0
LINE
  8
0
 62
7
  6
CONTINUOUS
 10
132.1837151792
 20
201.469100463
 11
132.5824644314
 21
201.3482335098
  0
LINE
  8
0
 62
7
  6
CONTINUOUS
 10
132.7059034781
 20
201.7554682937
 11
132.3071542258
 21
201.8763352468
  0
LINE
  8
0
 62
7
  6
CONTINUOUS
 10
132.8009104986
 20
203.5052746675
 11
133.1996597509
 21
203.3844077144
  0
LINE
  8
0
 62
7
  6
CONTINUOUS
 10
113.809580565
 20
203.1527934833
 11
113.5873816147
 21
203.2259194607
  0
LINE
  8
0
 62
7
  6
CONTINUOUS
 10
126.6609922177
 20
200.48246524
 11
127.2552403176
 21
200.261531917
  0
LINE
  8
0
 62
7
  6
CONTINUOUS
 10
128.780784266
 20
204.9531018394
 11
128.1865361643
 21
205.1740351532
  0
LINE
  8
0
 62
7
  6
CONTINUOUS
 10
127.3543143459
 20
200.7841386552
 11
126.8624085
 21
200.9856702682
  0
LINE
  8
0
 62
7
  6
CONTINUOUS
 10
128.0874621499
 20
204.6514284883
 11
128.5793633108
 21
204.4498977633
  0
LINE
  8
0
 62
7
  6
CONTINUOUS
 10
151.3205550538
 20
190.9377625362
 11
151.0197311233
 21
191.0736983603
  0
LINE
  8
0
 62
7
  6
CONTINUOUS
 10
158.4485687019
 20
185.4629438588
 11
157.8927396524
 21
185.7162700056
  0
LINE
  8
0
 62
7
  6
CONTINUOUS
 10
130.9375339406
 20
199.5124186927
 11
131.4051096008
 21
199.2595266422
  0
LINE
  8
0
 62
7
  6
CONTINUOUS
 10
133.8215387854
 20
203.6405577694
 11
133.3539585592
 21
203.8934511942
  0
LINE
  8
0
 62
7
  6
CONTINUOUS
 10
131.6590991662
 20
199.7383524176
 11
131.2912051123
 21
199.9610294499
  0
LINE
  8
0
 62
7
  6
CONTINUOUS
 10
132.5824644314
 20
201.3482335098
 11
132.9503539221
 21
201.1255578607
  0
LINE
  8
0
 62
7
  6
CONTINUOUS
 10
132.3071542258
 20
201.8763352468
 11
131.9392601718
 21
202.0990122792
  0
LINE
  8
0
 62
7
  6
CONTINUOUS
 10
133.1996597509
 20
203.3844077144
 11
133.5675492416
 21
203.1617320653
  0
LINE
  8
0
 62
7
  6
CONTINUOUS
 10
150.5074239851
 20
190.6789632133
 11
150.9603238153
 21
190.4006323022
  0
LINE
  8
0
 62
7
  6
CONTINUOUS
 10
155.7362154594
 20
181.8744015749
 11
155.4732737016
 21
182.0739891935
  0
LINE
  8
0
 62
7
  6
CONTINUOUS
 10
156.5665085343
 20
184.0678479332
 11
156.829450292
 21
183.8682603146
  0
LINE
  8
0
 62
7
  6
CONTINUOUS
 10
158.0658394752
 20
185.079143022
 11
158.328781233
 21
184.8795554034
  0
LINE
  8
0
 62
7
  6
CONTINUOUS
 10
129.2330558211
 20
204.5425284485
 11
128.780784266
 21
204.9531018394
  0
LINE
  8
0
 62
7
  6
CONTINUOUS
 10
147.1555786584
 20
190.7569322902
 11
147.6118028766
 21
190.3297502883
  0
LINE
  8
0
 62
7
  6
CONTINUOUS
 10
149.1387513306
 20
191.960509219
 11
150.5074239851
 21
190.6789632133
  0
LINE
  8
0
 62
7
  6
CONTINUOUS
 10
151.0197311233
 20
191.0736983603
 11
149.5750222593
 21
192.4264402799
  0
LINE
  8
0
 62
7
  6
CONTINUOUS
 10
150.6656997846
 20
193.5912681497
 11
152.1104086486
 21
192.2385262301
  0
LINE
  8
0
 62
7
  6
CONTINUOUS
 10
131.2794144884
 20
202.0766960085
 11
131.4479316345
 21
201.9144531444
  0
LINE
  8
0
 62
7
  6
CONTINUOUS
 10
132.9503539221
 20
201.1255578607
 11
133.2873882144
 21
200.8010721324
  0
LINE
  8
0
 62
7
  6
CONTINUOUS
 10
133.6101996055
 20
201.1478741314
 11
133.4416870227
 21
201.3101156123
  0
LINE
  8
0
 62
7
  6
CONTINUOUS
 10
154.9740436349
 20
181.8629106228
 11
155.3534808458
 21
181.490608608
  0
LINE
  8
0
 62
7
  6
CONTINUOUS
 10
157.328680297
 20
184.0793388438
 11
156.949237761
 21
184.4516487701
  0
LINE
  8
0
 62
7
  6
CONTINUOUS
 10
158.828011238
 20
185.0906339325
 11
158.4485687019
 21
185.4629438588
  0
LINE
  8
0
 62
7
  6
CONTINUOUS
 10
134.227394925
 20
203.1840483359
 11
133.8215387854
 21
203.6405577694
  0
LINE
  8
0
 62
7
  6
CONTINUOUS
 10
150.5531417796
 20
187.5229387307
 11
150.9582701566
 21
187.0470227737
  0
LINE
  8
0
 62
7
  6
CONTINUOUS
 10
152.848868219
 20
184.8260828513
 11
153.253996596
 21
184.3501668943
  0
LINE
  8
0
 62
7
  6
CONTINUOUS
 10
152.2004383654
 20
187.5572429367
 11
153.5508673191
 21
185.970855203
  0
LINE
  8
0
 62
7
  6
CONTINUOUS
 10
153.8073748002
 20
186.3260053725
 11
152.5919896692
 21
187.7537532435
  0
LINE
  8
0
 62
7
  6
CONTINUOUS
 10
152.7054077336
 20
192.2643567633
 11
152.3979315463
 21
192.6979980281
  0
LINE
  8
0
 62
7
  6
CONTINUOUS
 10
154.6828023549
 20
182.2947005793
 11
154.9740436349
 21
181.8629106228
  0
LINE
  8
0
 62
7
  6
CONTINUOUS
 10
155.4732737016
 20
182.0739891935
 11
155.0655316434
 21
182.6785014578
  0
LINE
  8
0
 62
7
  6
CONTINUOUS
 10
156.829450292
 20
183.8682603146
 11
157.2371923503
 21
183.2637480504
  0
LINE
  8
0
 62
7
  6
CONTINUOUS
 10
157.619921577
 20
183.6475488872
 11
157.328680297
 21
184.0793388438
  0
LINE
  8
0
 62
7
  6
CONTINUOUS
 10
158.6150844777
 20
183.3136111617
 11
158.9063310906
 21
182.8818132988
  0
LINE
  8
0
 62
7
  6
CONTINUOUS
 10
158.328781233
 20
184.8795554034
 11
158.6782729021
 21
184.361404293
  0
LINE
  8
0
 62
7
  6
CONTINUOUS
 10
152.1104086486
 20
192.2385262301
 11
152.2658089362
 21
191.9472800523
  0
LINE
  8
0
 62
7
  6
CONTINUOUS
 10
154.4797516729
 20
182.785986384
 11
154.6828023549
 21
182.2947005793
  0
LINE
  8
0
 62
7
  6
CONTINUOUS
 10
157.8229669339
 20
183.1562709941
 11
157.619921577
 21
183.6475488872
  0
LINE
  8
0
 62
7
  6
CONTINUOUS
 10
159.2640528185
 20
184.2539193303
 11
159.0610021288
 21
184.7452051298
  0
LINE
  8
0
 62
7
  6
CONTINUOUS
 10
155.0655316434
 20
182.6785014578
 11
154.9789817319
 21
182.9970649496
  0
LINE
  8
0
 62
7
  6
CONTINUOUS
 10
157.2371923503
 20
183.2637480504
 11
157.3237422617
 21
182.9451845586
  0
LINE
  8
0
 62
7
  6
CONTINUOUS
 10
158.6782729021
 20
184.361404293
 11
158.7648228135
 21
184.0428408012
  0
LINE
  8
0
 62
7
  6
CONTINUOUS
 10
107.359984878
 20
204.5080915843
 11
104.9463239916
 21
203.8567536339
  0
LINE
  8
0
 62
7
  6
CONTINUOUS
 10
112.4910925689
 20
205.5317181149
 11
110.0207505968
 21
205.1477773105
  0
LINE
  8
0
 62
7
  6
CONTINUOUS
 10
133.3539585592
 20
203.8934511942
 11
132.9552093069
 21
204.0143181474
  0
LINE
  8
0
 62
7
  6
CONTINUOUS
 10
152.3979315463
 20
192.6979980281
 11
150.5730346736
 21
194.4067260357
  0
LINE
  8
0
 62
7
  6
CONTINUOUS
 10
155.9809829437
 20
188.8603019188
 11
155.4408107441
 21
189.4948577384
  0
LINE
  8
0
 62
7
  6
CONTINUOUS
 10
159.0610021288
 20
184.7452051298
 11
158.828011238
 21
185.0906339325
  0
LINE
  8
SURFACE
 62
7
  6
CONTINUOUS
 10
185.8250764989
 20
126.6122071966
 11
185.8250764989
 21
163.1287531937
  0
LINE
  8
0
 62
7
  6
CONTINUOUS
 10
185.8250764989
 20
185.7265643511
 11
185.8250764989
 21
189.7080359671
  0
LINE
  8
SURFACE
 62
7
  6
CONTINUOUS
 10
144.0249136895
 20
88.7935160031
 11
169.8460109895
 21
114.6146133031
  0
LINE
  8
0
 62
7
  6
CONTINUOUS
 10
185.8250764989
 20
130.5936788126
 11
188.6404020776
 21
133.4090043913
  0
LINE
  8
SURFACE
 62
7
  6
CONTINUOUS
 10
150.8217108841
 20
224.7114015819
 11
114.3051648871
 21
224.7114015819
  0
LINE
  8
0
 62
7
  6
CONTINUOUS
 10
91.7073537296
 20
224.7114015819
 11
87.7258821137
 21
224.7114015819
  0
LINE
  8
SURFACE
 62
7
  6
CONTINUOUS
 10
188.6404020776
 20
182.9112387724
 11
162.8193047776
 21
208.7323360724
  0
LINE
  8
0
 62
7
  6
CONTINUOUS
 10
146.8402392682
 20
224.7114015819
 11
144.0249136895
 21
227.5267271606
  0
POLYLINE
  8
SURFACE
 62
7
  6
CONTINUOUS
 66
1
 70
0
  0
VERTEX
  8
SURFACE
 62
7
  6
CONTINUOUS
 10
288.2314060972
 20
78.0676709869
  0
VERTEX
  8
SURFACE
 62
7
  6
CONTINUOUS
 10
288.2687424859
 20
78.0686296797
  0
VERTEX
  8
SURFACE
 62
7
  6
CONTINUOUS
 10
288.3055475238
 20
78.0709435811
  0
VERTEX
  8
SURFACE
 62
7
  6
CONTINUOUS
 10
288.3417836641
 20
78.074558647
  0
VERTEX
  8
SURFACE
 62
7
  6
CONTINUOUS
 10
288.3774170521
 20
78.079421333
  0
VERTEX
  8
SURFACE
 62
7
  6
CONTINUOUS
 10
288.4124173355
 20
78.0854787539
  0
VERTEX
  8
SURFACE
 62
7
  6
CONTINUOUS
 10
288.4467574746
 20
78.092678827
  0
VERTEX
  8
SURFACE
 62
7
  6
CONTINUOUS
 10
288.4804135552
 20
78.1009703974
  0
VERTEX
  8
SURFACE
 62
7
  6
CONTINUOUS
 10
288.5133646037
 20
78.110303348
  0
VERTEX
  8
SURFACE
 62
7
  6
CONTINUOUS
 10
288.5455924056
 20
78.1206286952
  0
VERTEX
  8
SURFACE
 62
7
  6
CONTINUOUS
 10
288.5770813282
 20
78.1318986699
  0
VERTEX
  8
SURFACE
 62
7
  6
CONTINUOUS
 10
288.6078181471
 20
78.1440667867
  0
VERTEX
  8
SURFACE
 62
7
  6
CONTINUOUS
 10
288.6377918773
 20
78.1570878998
  0
VERTEX
  8
SURFACE
 62
7
  6
CONTINUOUS
 10
288.6669936116
 20
78.1709182502
  0
VERTEX
  8
SURFACE
 62
7
  6
CONTINUOUS
 10
288.695416363
 20
78.185515501
  0
VERTEX
  8
SURFACE
 62
7
  6
CONTINUOUS
 10
288.7230549122
 20
78.2008387643
  0
VERTEX
  8
SURFACE
 62
7
  6
CONTINUOUS
 10
288.7499056614
 20
78.2168486187
  0
VERTEX
  8
SURFACE
 62
7
  6
CONTINUOUS
 10
288.7759664935
 20
78.2335071199
  0
VERTEX
  8
SURFACE
 62
7
  6
CONTINUOUS
 10
288.8012366376
 20
78.2507778029
  0
VERTEX
  8
SURFACE
 62
7
  6
CONTINUOUS
 10
288.8257165394
 20
78.2686256791
  0
VERTEX
  8
SURFACE
 62
7
  6
CONTINUOUS
 10
288.8494077389
 20
78.2870172256
  0
VERTEX
  8
SURFACE
 62
7
  6
CONTINUOUS
 10
288.8723127521
 20
78.3059203707
  0
VERTEX
  8
SURFACE
 62
7
  6
CONTINUOUS
 10
288.89443496
 20
78.3253044732
  0
VERTEX
  8
SURFACE
 62
7
  6
CONTINUOUS
 10
288.9157776121
 20
78.3451394462
  0
VERTEX
  8
SURFACE
 62
7
  6
CONTINUOUS
 10
288.9363401871
 20
78.3653918876
  0
VERTEX
  8
SURFACE
 62
7
  6
CONTINUOUS
 10
288.9561219418
 20
78.3860276103
  0
VERTEX
  8
SURFACE
 62
7
  6
CONTINUOUS
 10
288.9751234606
 20
78.4070130508
  0
VERTEX
  8
SURFACE
 62
7
  6
CONTINUOUS
 10
288.9933466008
 20
78.4283153093
  0
VERTEX
  8
SURFACE
 62
7
  6
CONTINUOUS
 10
289.0107944376
 20
78.4499021868
  0
VERTEX
  8
SURFACE
 62
7
  6
CONTINUOUS
 10
289.0274712077
 20
78.4717422184
  0
VERTEX
  8
SURFACE
 62
7
  6
CONTINUOUS
 10
289.0433822538
 20
78.4938047032
  0
VERTEX
  8
SURFACE
 62
7
  6
CONTINUOUS
 10
289.058533967
 20
78.5160597288
  0
VERTEX
  8
SURFACE
 62
7
  6
CONTINUOUS
 10
289.0729337279
 20
78.5384781896
  0
VERTEX
  8
SURFACE
 62
7
  6
CONTINUOUS
 10
289.086589845
 20
78.5610317938
  0
VERTEX
  8
SURFACE
 62
7
  6
CONTINUOUS
 10
289.0995114895
 20
78.5836930559
  0
VERTEX
  8
SURFACE
 62
7
  6
CONTINUOUS
 10
289.111708624
 20
78.6064352652
  0
VERTEX
  8
SURFACE
 62
7
  6
CONTINUOUS
 10
289.1231919245
 20
78.6292324178
  0
VERTEX
  8
SURFACE
 62
7
  6
CONTINUOUS
 10
289.1339726858
 20
78.6520590798
  0
VERTEX
  8
SURFACE
 62
7
  6
CONTINUOUS
 10
289.1440603199
 20
78.6748845537
  0
VERTEX
  8
SURFACE
 62
7
  6
CONTINUOUS
 10
289.1534606445
 20
78.6976664945
  0
VERTEX
  8
SURFACE
 62
7
  6
CONTINUOUS
 10
289.1621817012
 20
78.7203621858
  0
VERTEX
  8
SURFACE
 62
7
  6
CONTINUOUS
 10
289.1702342155
 20
78.7429299831
  0
VERTEX
  8
SURFACE
 62
7
  6
CONTINUOUS
 10
289.1776314268
 20
78.7653294722
  0
VERTEX
  8
SURFACE
 62
7
  6
CONTINUOUS
 10
289.1843887881
 20
78.7875211855
  0
VERTEX
  8
SURFACE
 62
7
  6
CONTINUOUS
 10
289.1905233449
 20
78.8094648926
  0
VERTEX
  8
SURFACE
 62
7
  6
CONTINUOUS
 10
289.1960525363
 20
78.831114456
  0
VERTEX
  8
SURFACE
 62
7
  6
CONTINUOUS
 10
289.2009892914
 20
78.8523926896
  0
VERTEX
  8
SURFACE
 62
7
  6
CONTINUOUS
 10
289.2053452133
 20
78.8731904286
  0
VERTEX
  8
SURFACE
 62
7
  6
CONTINUOUS
 10
289.2091641956
 20
78.8935389335
  0
VERTEX
  8
SURFACE
 62
7
  6
CONTINUOUS
 10
289.2124926917
 20
78.9135158487
  0
VERTEX
  8
SURFACE
 62
7
  6
CONTINUOUS
 10
289.2153547223
 20
78.9330918769
  0
VERTEX
  8
SURFACE
 62
7
  6
CONTINUOUS
 10
289.217713141
 20
78.9517033377
  0
VERTEX
  8
SURFACE
 62
7
  6
CONTINUOUS
 10
289.219634465
 20
78.969422559
  0
VERTEX
  8
SURFACE
 62
7
  6
CONTINUOUS
 10
289.2211902659
 20
78.986466328
  0
VERTEX
  8
SURFACE
 62
7
  6
CONTINUOUS
 10
289.2223337494
 20
79.0014964743
  0
VERTEX
  8
SURFACE
 62
7
  6
CONTINUOUS
 10
289.222650173
 20
79.0061977789
  0
SEQEND
  0
LINE
  8
SURFACE
 62
7
  6
CONTINUOUS
 10
288.2314060972
 20
78.0676709869
 11
277.4630743982
 21
78.0676451555
  0
LINE
  8
0
 62
7
  6
CONTINUOUS
 10
266.7017366915
 20
78.0676451555
 11
277.4630743982
 21
78.0676451555
  0
POLYLINE
  8
SURFACE
 62
7
  6
CONTINUOUS
 66
1
 70
0
  0
VERTEX
  8
SURFACE
 62
7
  6
CONTINUOUS
 10
288.224767197
 20
86.4476549508
  0
VERTEX
  8
SURFACE
 62
7
  6
CONTINUOUS
 10
288.2724762133
 20
86.4487936387
  0
VERTEX
  8
SURFACE
 62
7
  6
CONTINUOUS
 10
288.326613482
 20
86.452854641
  0
VERTEX
  8
SURFACE
 62
7
  6
CONTINUOUS
 10
288.3789865528
 20
86.4596179409
  0
VERTEX
  8
SURFACE
 62
7
  6
CONTINUOUS
 10
288.4295478825
 20
86.4688463927
  0
VERTEX
  8
SURFACE
 62
7
  6
CONTINUOUS
 10
288.4782706447
 20
86.4803194066
  0
VERTEX
  8
SURFACE
 62
7
  6
CONTINUOUS
 10
288.5251456589
 20
86.493833318
  0
VERTEX
  8
SURFACE
 62
7
  6
CONTINUOUS
 10
288.5701785742
 20
86.5092014774
  0
VERTEX
  8
SURFACE
 62
7
  6
CONTINUOUS
 10
288.6133872983
 20
86.5262541112
  0
VERTEX
  8
SURFACE
 62
7
  6
CONTINUOUS
 10
288.6547996609
 20
86.5448379962
  0
VERTEX
  8
SURFACE
 62
7
  6
CONTINUOUS
 10
288.6944510188
 20
86.5648158385
  0
VERTEX
  8
SURFACE
 62
7
  6
CONTINUOUS
 10
288.7323617356
 20
86.5860534611
  0
VERTEX
  8
SURFACE
 62
7
  6
CONTINUOUS
 10
288.7685242954
 20
86.6084057338
  0
VERTEX
  8
SURFACE
 62
7
  6
CONTINUOUS
 10
288.8029369638
 20
86.6317305817
  0
VERTEX
  8
SURFACE
 62
7
  6
CONTINUOUS
 10
288.8356065747
 20
86.6558910495
  0
VERTEX
  8
SURFACE
 62
7
  6
CONTINUOUS
 10
288.8665477861
 20
86.6807556054
  0
VERTEX
  8
SURFACE
 62
7
  6
CONTINUOUS
 10
288.8957823493
 20
86.7061983741
  0
VERTEX
  8
SURFACE
 62
7
  6
CONTINUOUS
 10
288.9233417204
 20
86.732102548
  0
VERTEX
  8
SURFACE
 62
7
  6
CONTINUOUS
 10
288.9492873607
 20
86.7583837975
  0
VERTEX
  8
SURFACE
 62
7
  6
CONTINUOUS
 10
288.9736926088
 20
86.7849803048
  0
VERTEX
  8
SURFACE
 62
7
  6
CONTINUOUS
 10
288.9966291137
 20
86.8118412097
  0
VERTEX
  8
SURFACE
 62
7
  6
CONTINUOUS
 10
289.0181660969
 20
86.8389256846
  0
VERTEX
  8
SURFACE
 62
7
  6
CONTINUOUS
 10
289.0383696902
 20
86.866201961
  0
VERTEX
  8
SURFACE
 62
7
  6
CONTINUOUS
 10
289.0572967603
 20
86.8936379087
  0
VERTEX
  8
SURFACE
 62
7
  6
CONTINUOUS
 10
289.0749933799
 20
86.9211951723
  0
VERTEX
  8
SURFACE
 62
7
  6
CONTINUOUS
 10
289.0915042059
 20
86.948840435
  0
VERTEX
  8
SURFACE
 62
7
  6
CONTINUOUS
 10
289.1068727886
 20
86.9765459792
  0
VERTEX
  8
SURFACE
 62
7
  6
CONTINUOUS
 10
289.1211412983
 20
87.0042894762
  0
VERTEX
  8
SURFACE
 62
7
  6
CONTINUOUS
 10
289.134350279
 20
87.0320538136
  0
VERTEX
  8
SURFACE
 62
7
  6
CONTINUOUS
 10
289.1465382988
 20
87.0598266732
  0
VERTEX
  8
SURFACE
 62
7
  6
CONTINUOUS
 10
289.1577413198
 20
87.0875992431
  0
VERTEX
  8
SURFACE
 62
7
  6
CONTINUOUS
 10
289.1679915275
 20
87.1153627587
  0
VERTEX
  8
SURFACE
 62
7
  6
CONTINUOUS
 10
289.177315211
 20
87.143100121
  0
VERTEX
  8
SURFACE
 62
7
  6
CONTINUOUS
 10
289.1856977937
 20
87.1706584223
  0
VERTEX
  8
SURFACE
 62
7
  6
CONTINUOUS
 10
289.1930879582
 20
87.1976836083
  0
VERTEX
  8
SURFACE
 62
7
  6
CONTINUOUS
 10
289.1995473646
 20
87.2241505301
  0
VERTEX
  8
SURFACE
 62
7
  6
CONTINUOUS
 10
289.2051702247
 20
87.2502066958
  0
VERTEX
  8
SURFACE
 62
7
  6
CONTINUOUS
 10
289.210079916
 20
87.2762813161
  0
VERTEX
  8
SURFACE
 62
7
  6
CONTINUOUS
 10
289.214321772
 20
87.3025994639
  0
VERTEX
  8
SURFACE
 62
7
  6
CONTINUOUS
 10
289.2177079067
 20
87.3276556271
  0
VERTEX
  8
SURFACE
 62
7
  6
CONTINUOUS
 10
289.2202876986
 20
87.3508119741
  0
VERTEX
  8
SURFACE
 62
7
  6
CONTINUOUS
 10
289.2222398785
 20
87.3723831909
  0
VERTEX
  8
SURFACE
 62
7
  6
CONTINUOUS
 10
289.2237195642
 20
87.3926558187
  0
SEQEND
  0
LINE
  8
SURFACE
 62
7
  6
CONTINUOUS
 10
288.2247683951
 20
86.4476549112
 11
277.4630743982
 21
86.4476549112
  0
LINE
  8
0
 62
7
  6
CONTINUOUS
 10
266.5313054374
 20
111.4850382994
 11
277.4630743982
 21
111.4850382994
  0
LINE
  8
0
 62
7
  6
CONTINUOUS
 10
265.4630743982
 20
123.1601215819
 11
258.3130743982
 21
123.1601215819
  0
LINE
  8
SURFACE
 62
7
  6
CONTINUOUS
 10
289.4630743982
 20
123.1601215819
 11
296.6130743982
 21
123.1601215819
  0
LINE
  8
SURFACE
 62
7
  6
CONTINUOUS
 10
277.4630743982
 20
136.19148997
 11
288.3249313145
 21
136.19148997
  0
POLYLINE
  8
0
 62
7
  6
CONTINUOUS
 66
1
 70
0
  0
VERTEX
  8
0
 62
7
  6
CONTINUOUS
 10
265.5254144432
 20
112.4458293396
  0
VERTEX
  8
0
 62
7
  6
CONTINUOUS
 10
265.5277691783
 20
112.4231575161
  0
VERTEX
  8
0
 62
7
  6
CONTINUOUS
 10
265.5322261136
 20
112.3859258442
  0
VERTEX
  8
0
 62
7
  6
CONTINUOUS
 10
265.5378765435
 20
112.3469581377
  0
VERTEX
  8
0
 62
7
  6
CONTINUOUS
 10
265.5456168799
 20
112.3035475395
  0
VERTEX
  8
0
 62
7
  6
CONTINUOUS
 10
265.5564530687
 20
112.2545330979
  0
VERTEX
  8
0
 62
7
  6
CONTINUOUS
 10
265.571390379
 20
112.199973857
  0
VERTEX
  8
0
 62
7
  6
CONTINUOUS
 10
265.591268006
 20
112.1408654267
  0
VERTEX
  8
0
 62
7
  6
CONTINUOUS
 10
265.616881992
 20
112.0781993843
  0
VERTEX
  8
0
 62
7
  6
CONTINUOUS
 10
265.6488441514
 20
112.0132240921
  0
VERTEX
  8
0
 62
7
  6
CONTINUOUS
 10
265.6875311042
 20
111.9473405235
  0
VERTEX
  8
0
 62
7
  6
CONTINUOUS
 10
265.7332741747
 20
111.8817157716
  0
VERTEX
  8
0
 62
7
  6
CONTINUOUS
 10
265.786331183
 20
111.8174445614
  0
VERTEX
  8
0
 62
7
  6
CONTINUOUS
 10
265.8468083962
 20
111.7556700874
  0
VERTEX
  8
0
 62
7
  6
CONTINUOUS
 10
265.9147310945
 20
111.6974971433
  0
VERTEX
  8
0
 62
7
  6
CONTINUOUS
 10
265.9901601851
 20
111.6439446451
  0
VERTEX
  8
0
 62
7
  6
CONTINUOUS
 10
266.0730545206
 20
111.5961101777
  0
VERTEX
  8
0
 62
7
  6
CONTINUOUS
 10
266.1632272869
 20
111.5551816199
  0
VERTEX
  8
0
 62
7
  6
CONTINUOUS
 10
266.2603186208
 20
111.5224241231
  0
VERTEX
  8
0
 62
7
  6
CONTINUOUS
 10
266.3637734588
 20
111.4991604147
  0
VERTEX
  8
0
 62
7
  6
CONTINUOUS
 10
266.4728040065
 20
111.4867496923
  0
VERTEX
  8
0
 62
7
  6
CONTINUOUS
 10
266.5313062751
 20
111.4850383205
  0
SEQEND
  0
LINE
  8
0
 62
7
  6
CONTINUOUS
 10
265.4675487332
 20
113.0435546862
 11
265.5254219098
 21
112.445752954
  0
POLYLINE
  8
0
 62
7
  6
CONTINUOUS
 66
1
 70
0
  0
VERTEX
  8
0
 62
7
  6
CONTINUOUS
 10
265.7034995824
 20
79.0061831018
  0
VERTEX
  8
0
 62
7
  6
CONTINUOUS
 10
265.7038394431
 20
79.0011452566
  0
VERTEX
  8
0
 62
7
  6
CONTINUOUS
 10
265.705007637
 20
78.985877071
  0
VERTEX
  8
0
 62
7
  6
CONTINUOUS
 10
265.7065798769
 20
78.9687667066
  0
VERTEX
  8
0
 62
7
  6
CONTINUOUS
 10
265.7085668547
 20
78.9505902022
  0
VERTEX
  8
0
 62
7
  6
CONTINUOUS
 10
265.7109085392
 20
78.9322539313
  0
VERTEX
  8
0
 62
7
  6
CONTINUOUS
 10
265.7137619775
 20
78.9128398431
  0
VERTEX
  8
0
 62
7
  6
CONTINUOUS
 10
265.7172014505
 20
78.8923182502
  0
VERTEX
  8
0
 62
7
  6
CONTINUOUS
 10
265.7212123618
 20
78.8711411862
  0
VERTEX
  8
0
 62
7
  6
CONTINUOUS
 10
265.7258260409
 20
78.8493923264
  0
VERTEX
  8
0
 62
7
  6
CONTINUOUS
 10
265.7310708499
 20
78.8271478664
  0
VERTEX
  8
0
 62
7
  6
CONTINUOUS
 10
265.736967733
 20
78.8044949481
  0
VERTEX
  8
0
 62
7
  6
CONTINUOUS
 10
265.7435410427
 20
78.7814896802
  0
VERTEX
  8
0
 62
7
  6
CONTINUOUS
 10
265.7508161352
 20
78.758176055
  0
VERTEX
  8
0
 62
7
  6
CONTINUOUS
 10
265.7588171277
 20
78.7345966865
  0
VERTEX
  8
0
 62
7
  6
CONTINUOUS
 10
265.7675657963
 20
78.7107961756
  0
VERTEX
  8
0
 62
7
  6
CONTINUOUS
 10
265.777081097
 20
78.6868215599
  0
VERTEX
  8
0
 62
7
  6
CONTINUOUS
 10
265.78737892
 20
78.6627219783
  0
VERTEX
  8
0
 62
7
  6
CONTINUOUS
 10
265.798474303
 20
78.6385432073
  0
VERTEX
  8
0
 62
7
  6
CONTINUOUS
 10
265.8103990121
 20
78.6142940515
  0
VERTEX
  8
0
 62
7
  6
CONTINUOUS
 10
265.8231951593
 20
78.5899699105
  0
VERTEX
  8
0
 62
7
  6
CONTINUOUS
 10
265.836908281
 20
78.5655698918
  0
VERTEX
  8
0
 62
7
  6
CONTINUOUS
 10
265.8515871819
 20
78.5410974005
  0
VERTEX
  8
0
 62
7
  6
CONTINUOUS
 10
265.8672837867
 20
78.5165606503
  0
VERTEX
  8
0
 62
7
  6
CONTINUOUS
 10
265.8840529741
 20
78.4919731615
  0
VERTEX
  8
0
 62
7
  6
CONTINUOUS
 10
265.901951374
 20
78.4673556105
  0
VERTEX
  8
0
 62
7
  6
CONTINUOUS
 10
265.9210172796
 20
78.4427607395
  0
VERTEX
  8
0
 62
7
  6
CONTINUOUS
 10
265.9412681573
 20
78.4182683501
  0
VERTEX
  8
0
 62
7
  6
CONTINUOUS
 10
265.9627163628
 20
78.3939605684
  0
VERTEX
  8
0
 62
7
  6
CONTINUOUS
 10
265.9853695458
 20
78.3699206611
  0
VERTEX
  8
0
 62
7
  6
CONTINUOUS
 10
266.0092304368
 20
78.3462327374
  0
VERTEX
  8
0
 62
7
  6
CONTINUOUS
 10
266.0342966793
 20
78.3229814101
  0
VERTEX
  8
0
 62
7
  6
CONTINUOUS
 10
266.0605656391
 20
78.3002473061
  0
VERTEX
  8
0
 62
7
  6
CONTINUOUS
 10
266.0880419201
 20
78.2781022131
  0
VERTEX
  8
0
 62
7
  6
CONTINUOUS
 10
266.1167282817
 20
78.2566185956
  0
VERTEX
  8
0
 62
7
  6
CONTINUOUS
 10
266.1466238228
 20
78.2358709974
  0
VERTEX
  8
0
 62
7
  6
CONTINUOUS
 10
266.1777237405
 20
78.2159359111
  0
VERTEX
  8
0
 62
7
  6
CONTINUOUS
 10
266.2100190905
 20
78.196891626
  0
VERTEX
  8
0
 62
7
  6
CONTINUOUS
 10
266.2434965462
 20
78.1788180568
  0
VERTEX
  8
0
 62
7
  6
CONTINUOUS
 10
266.2781381614
 20
78.1617965494
  0
VERTEX
  8
0
 62
7
  6
CONTINUOUS
 10
266.3139211352
 20
78.1459096664
  0
VERTEX
  8
0
 62
7
  6
CONTINUOUS
 10
266.350817583
 20
78.1312409484
  0
VERTEX
  8
0
 62
7
  6
CONTINUOUS
 10
266.3887943133
 20
78.1178746534
  0
VERTEX
  8
0
 62
7
  6
CONTINUOUS
 10
266.4278126159
 20
78.1058954707
  0
VERTEX
  8
0
 62
7
  6
CONTINUOUS
 10
266.467828056
 20
78.0953882137
  0
VERTEX
  8
0
 62
7
  6
CONTINUOUS
 10
266.5087902822
 20
78.0864374873
  0
VERTEX
  8
0
 62
7
  6
CONTINUOUS
 10
266.5506428475
 20
78.0791273307
  0
VERTEX
  8
0
 62
7
  6
CONTINUOUS
 10
266.5933230483
 20
78.0735408364
  0
VERTEX
  8
0
 62
7
  6
CONTINUOUS
 10
266.6367617808
 20
78.0697597441
  0
VERTEX
  8
0
 62
7
  6
CONTINUOUS
 10
266.6808834195
 20
78.0678640116
  0
VERTEX
  8
0
 62
7
  6
CONTINUOUS
 10
266.7017389643
 20
78.0676465129
  0
SEQEND
  0
LINE
  8
0
 62
7
  6
CONTINUOUS
 10
265.6484879591
 20
79.8857188611
 11
265.7035005963
 21
79.0061674537
  0
LINE
  8
0
 62
7
  6
CONTINUOUS
 10
256.3130743982
 20
125.1601215819
 11
256.3130743982
 21
191.1601215819
  0
POLYLINE
  8
0
 62
7
  6
CONTINUOUS
 66
1
 70
0
  0
VERTEX
  8
0
 62
7
  6
CONTINUOUS
 10
265.7035005963
 20
237.31407571
  0
VERTEX
  8
0
 62
7
  6
CONTINUOUS
 10
265.6484879592
 20
236.4345243045
  0
VERTEX
  8
0
 62
7
  6
CONTINUOUS
 10
265.5943946053
 20
235.4904119909
  0
VERTEX
  8
0
 62
7
  6
CONTINUOUS
 10
265.5428868218
 20
234.5096653386
  0
SEQEND
  0
LINE
  8
0
 62
7
  6
CONTINUOUS
 10
265.4659010341
 20
224.433863414
 11
265.4659622087
 21
224.4346703996
  0
LINE
  8
0
 62
7
  6
CONTINUOUS
 10
265.4675486551
 20
113.0435551594
 11
265.4650643621
 21
113.074990596
  0
POLYLINE
  8
0
 62
7
  6
CONTINUOUS
 66
1
 70
0
  0
VERTEX
  8
0
 62
7
  6
CONTINUOUS
 10
265.5428868218
 20
81.8105778251
  0
VERTEX
  8
0
 62
7
  6
CONTINUOUS
 10
265.5943946052
 20
80.8298311743
  0
VERTEX
  8
0
 62
7
  6
CONTINUOUS
 10
265.6484879591
 20
79.8857188611
  0
SEQEND
  0
LINE
  8
0
 62
7
  6
CONTINUOUS
 10
265.4650643621
 20
113.074990596
 11
265.4635719805
 21
113.1065035679
  0
LINE
  8
0
 62
7
  6
CONTINUOUS
 10
265.5369582338
 20
81.9418267117
 11
265.5428959945
 21
81.8103960416
  0
LINE
  8
0
 62
7
  6
CONTINUOUS
 10
265.4637505823
 20
83.9043693788
 11
265.5369582338
 21
81.9418267117
  0
POLYLINE
  8
0
 62
7
  6
CONTINUOUS
 66
1
 70
0
  0
VERTEX
  8
0
 62
7
  6
CONTINUOUS
 10
265.4637505855
 20
83.9043691908
  0
VERTEX
  8
0
 62
7
  6
CONTINUOUS
 10
265.4633733367
 20
83.9166879223
  0
VERTEX
  8
0
 62
7
  6
CONTINUOUS
 10
265.4631487223
 20
83.928945712
  0
VERTEX
  8
0
 62
7
  6
CONTINUOUS
 10
265.4630743982
 20
83.9411376173
  0
SEQEND
  0
LINE
  8
0
 62
7
  6
CONTINUOUS
 10
265.4635719805
 20
113.1065035679
 11
265.4630743982
 21
113.1380458718
  0
LINE
  8
0
 62
7
  6
CONTINUOUS
 10
265.4630743982
 20
83.9411384135
 11
265.4630743982
 21
232.3791047502
  0
POLYLINE
  8
0
 62
7
  6
CONTINUOUS
 66
1
 70
0
  0
VERTEX
  8
0
 62
7
  6
CONTINUOUS
 10
265.4637505855
 20
232.4158739729
  0
VERTEX
  8
0
 62
7
  6
CONTINUOUS
 10
265.4633733367
 20
232.4035552414
  0
VERTEX
  8
0
 62
7
  6
CONTINUOUS
 10
265.4631487223
 20
232.3912974517
  0
VERTEX
  8
0
 62
7
  6
CONTINUOUS
 10
265.4630743982
 20
232.3791055464
  0
SEQEND
  0
LINE
  8
0
 62
7
  6
CONTINUOUS
 10
265.4630743982
 20
224.3587283243
 11
265.4659622087
 21
224.4346703996
  0
LINE
  8
0
 62
7
  6
CONTINUOUS
 10
265.5369582338
 20
234.3784164518
 11
265.4637505823
 21
232.4158737849
  0
LINE
  8
0
 62
7
  6
CONTINUOUS
 10
265.5428959945
 20
234.5098471221
 11
265.5369582338
 21
234.3784164518
  0
POLYLINE
  8
0
 62
7
  6
CONTINUOUS
 66
1
 70
0
  0
VERTEX
  8
0
 62
7
  6
CONTINUOUS
 10
265.5780729389
 20
226.3372460407
  0
VERTEX
  8
0
 62
7
  6
CONTINUOUS
 10
265.5529552863
 20
225.8510451693
  0
VERTEX
  8
0
 62
7
  6
CONTINUOUS
 10
265.5288891558
 20
225.4142592793
  0
VERTEX
  8
0
 62
7
  6
CONTINUOUS
 10
265.5060373883
 20
225.0287103907
  0
VERTEX
  8
0
 62
7
  6
CONTINUOUS
 10
265.4845748701
 20
224.696085445
  0
VERTEX
  8
0
 62
7
  6
CONTINUOUS
 10
265.4659005231
 20
224.4338565971
  0
SEQEND
  0
POLYLINE
  8
0
 62
7
  6
CONTINUOUS
 66
1
 70
0
  0
VERTEX
  8
0
 62
7
  6
CONTINUOUS
 10
265.7024293031
 20
228.9275884249
  0
VERTEX
  8
0
 62
7
  6
CONTINUOUS
 10
265.7012284017
 20
228.9074096196
  0
VERTEX
  8
0
 62
7
  6
CONTINUOUS
 10
265.5780729389
 20
226.3372460407
  0
SEQEND
  0
LINE
  8
0
 62
7
  6
CONTINUOUS
 10
290.4630743982
 20
203.1601215819
 11
289.5630743982
 21
201.601275855
  0
LINE
  8
DEFAULT_1
 62
2
  6
CENTER
 10
277.4630743982
 20
208.7323360724
 11
277.4630743982
 21
189.7080359671
  0
LINE
  8
DEFAULT_1
 62
2
  6
CENTER
 10
277.4630743982
 20
163.1287531937
 11
277.4630743982
 21
153.1914897209
  0
LINE
  8
DEFAULT_1
 62
2
  6
CENTER
 10
277.4630743982
 20
111.4850526277
 11
277.4630743982
 21
107.5879070913
  0
LINE
  8
DEFAULT_1
 62
2
  6
CENTER
 10
277.4630743982
 20
151.3180594357
 11
277.4630743982
 21
133.4090043913
  0
LINE
  8
DEFAULT_1
 62
2
  6
CENTER
 10
277.4630743982
 20
78.0676625998
 11
277.4630743982
 21
74.322644492
  0
LINE
  8
DEFAULT_1
 62
2
  6
CENTER
 10
277.4630743982
 20
105.3440831502
 11
277.4630743982
 21
86.4476702535
  0
LINE
  8
0
 62
7
  6
CONTINUOUS
 10
277.4630743982
 20
229.8725861403
 11
277.4630743982
 21
208.7323360724
  0
LINE
  8
0
 62
7
  6
CONTINUOUS
 10
277.4630743982
 20
86.4476702535
 11
277.4630743982
 21
78.0676625998
  0
LINE
  8
SURFACE
 62
7
  6
CONTINUOUS
 10
277.4630743982
 20
86.4476702535
 11
277.4630743982
 21
105.3440831502
  0
LINE
  8
0
 62
7
  6
CONTINUOUS
 10
277.4630743982
 20
105.3440831502
 11
277.4630743982
 21
107.5879070913
  0
LINE
  8
0
 62
7
  6
CONTINUOUS
 10
277.4630743982
 20
111.4850526277
 11
277.4630743982
 21
133.4090043913
  0
LINE
  8
SURFACE
 62
7
  6
CONTINUOUS
 10
277.4630743982
 20
133.4090043913
 11
277.4630743982
 21
151.3180594357
  0
LINE
  8
0
 62
7
  6
CONTINUOUS
 10
277.4630743982
 20
151.3180594357
 11
277.4630743982
 21
153.1914897209
  0
LINE
  8
0
 62
7
  6
CONTINUOUS
 10
277.4630743982
 20
163.1287531937
 11
277.4630743982
 21
189.7080359671
  0
LINE
  8
SURFACE
 62
7
  6
CONTINUOUS
 10
277.4630743982
 20
189.7080359671
 11
277.4630743982
 21
204.8351968816
  0
LINE
  8
SURFACE
 62
7
  6
CONTINUOUS
 10
277.4630743982
 20
229.8725861403
 11
277.4630743982
 21
238.2525682328
  0
LINE
  8
DEFAULT_1
 62
2
  6
CENTER
 10
277.4630743982
 20
229.8725861403
 11
277.4630743982
 21
242.6445430287
  0
LINE
  8
DEFAULT_1
 62
2
  6
CENTER
 10
254.3130743982
 20
158.1601215819
 11
300.6130743982
 21
158.1601215819
  0
POLYLINE
  8
SURFACE
 62
7
  6
CONTINUOUS
 66
1
 70
0
  0
VERTEX
  8
SURFACE
 62
7
  6
CONTINUOUS
 10
289.4007343533
 20
203.8744138241
  0
VERTEX
  8
SURFACE
 62
7
  6
CONTINUOUS
 10
289.3983796182
 20
203.8970856476
  0
VERTEX
  8
SURFACE
 62
7
  6
CONTINUOUS
 10
289.3939226829
 20
203.9343173195
  0
VERTEX
  8
SURFACE
 62
7
  6
CONTINUOUS
 10
289.388272253
 20
203.9732850261
  0
VERTEX
  8
SURFACE
 62
7
  6
CONTINUOUS
 10
289.3805319166
 20
204.0166956242
  0
VERTEX
  8
SURFACE
 62
7
  6
CONTINUOUS
 10
289.3696957278
 20
204.0657100658
  0
VERTEX
  8
SURFACE
 62
7
  6
CONTINUOUS
 10
289.3547584175
 20
204.1202693067
  0
VERTEX
  8
SURFACE
 62
7
  6
CONTINUOUS
 10
289.3348807905
 20
204.179377737
  0
VERTEX
  8
SURFACE
 62
7
  6
CONTINUOUS
 10
289.3092668045
 20
204.2420437794
  0
VERTEX
  8
SURFACE
 62
7
  6
CONTINUOUS
 10
289.2773046451
 20
204.3070190716
  0
VERTEX
  8
SURFACE
 62
7
  6
CONTINUOUS
 10
289.2386176923
 20
204.3729026402
  0
VERTEX
  8
SURFACE
 62
7
  6
CONTINUOUS
 10
289.1928746218
 20
204.4385273921
  0
VERTEX
  8
SURFACE
 62
7
  6
CONTINUOUS
 10
289.1398176135
 20
204.5027986023
  0
VERTEX
  8
SURFACE
 62
7
  6
CONTINUOUS
 10
289.0793404002
 20
204.5645730763
  0
VERTEX
  8
SURFACE
 62
7
  6
CONTINUOUS
 10
289.011417702
 20
204.6227460204
  0
VERTEX
  8
SURFACE
 62
7
  6
CONTINUOUS
 10
288.9359886114
 20
204.6762985186
  0
VERTEX
  8
SURFACE
 62
7
  6
CONTINUOUS
 10
288.8530942759
 20
204.724132986
  0
VERTEX
  8
SURFACE
 62
7
  6
CONTINUOUS
 10
288.7629215096
 20
204.7650615438
  0
VERTEX
  8
SURFACE
 62
7
  6
CONTINUOUS
 10
288.6658301757
 20
204.7978190406
  0
VERTEX
  8
SURFACE
 62
7
  6
CONTINUOUS
 10
288.5623753377
 20
204.8210827491
  0
VERTEX
  8
SURFACE
 62
7
  6
CONTINUOUS
 10
288.45334479
 20
204.8334934714
  0
VERTEX
  8
SURFACE
 62
7
  6
CONTINUOUS
 10
288.3948425214
 20
204.8352048432
  0
SEQEND
  0
LINE
  8
SURFACE
 62
7
  6
CONTINUOUS
 10
289.4586000633
 20
203.2766884775
 11
289.4007268867
 21
203.8744902098
  0
LINE
  8
SURFACE
 62
7
  6
CONTINUOUS
 10
289.4586001414
 20
203.2766880043
 11
289.4610844344
 21
203.2452525677
  0
POLYLINE
  8
SURFACE
 62
7
  6
CONTINUOUS
 66
1
 70
0
  0
VERTEX
  8
SURFACE
 62
7
  6
CONTINUOUS
 10
289.2226492141
 20
237.314060062
  0
VERTEX
  8
SURFACE
 62
7
  6
CONTINUOUS
 10
289.2223093534
 20
237.3190979071
  0
VERTEX
  8
SURFACE
 62
7
  6
CONTINUOUS
 10
289.2211411595
 20
237.3343660927
  0
VERTEX
  8
SURFACE
 62
7
  6
CONTINUOUS
 10
289.2195689196
 20
237.3514764572
  0
VERTEX
  8
SURFACE
 62
7
  6
CONTINUOUS
 10
289.2175819418
 20
237.3696529615
  0
VERTEX
  8
SURFACE
 62
7
  6
CONTINUOUS
 10
289.2152402573
 20
237.3879892325
  0
VERTEX
  8
SURFACE
 62
7
  6
CONTINUOUS
 10
289.212386819
 20
237.4074033206
  0
VERTEX
  8
SURFACE
 62
7
  6
CONTINUOUS
 10
289.208947346
 20
237.4279249135
  0
VERTEX
  8
SURFACE
 62
7
  6
CONTINUOUS
 10
289.2049364347
 20
237.4491019775
  0
VERTEX
  8
SURFACE
 62
7
  6
CONTINUOUS
 10
289.2003227556
 20
237.4708508373
  0
VERTEX
  8
SURFACE
 62
7
  6
CONTINUOUS
 10
289.1950779466
 20
237.4930952973
  0
VERTEX
  8
SURFACE
 62
7
  6
CONTINUOUS
 10
289.1891810635
 20
237.5157482156
  0
VERTEX
  8
SURFACE
 62
7
  6
CONTINUOUS
 10
289.1826077538
 20
237.5387534835
  0
VERTEX
  8
SURFACE
 62
7
  6
CONTINUOUS
 10
289.1753326613
 20
237.5620671087
  0
VERTEX
  8
SURFACE
 62
7
  6
CONTINUOUS
 10
289.1673316688
 20
237.5856464772
  0
VERTEX
  8
SURFACE
 62
7
  6
CONTINUOUS
 10
289.1585830002
 20
237.6094469881
  0
VERTEX
  8
SURFACE
 62
7
  6
CONTINUOUS
 10
289.1490676995
 20
237.6334216038
  0
VERTEX
  8
SURFACE
 62
7
  6
CONTINUOUS
 10
289.1387698765
 20
237.6575211854
  0
VERTEX
  8
SURFACE
 62
7
  6
CONTINUOUS
 10
289.1276744935
 20
237.6816999564
  0
VERTEX
  8
SURFACE
 62
7
  6
CONTINUOUS
 10
289.1157497844
 20
237.7059491122
  0
VERTEX
  8
SURFACE
 62
7
  6
CONTINUOUS
 10
289.1029536372
 20
237.7302732532
  0
VERTEX
  8
SURFACE
 62
7
  6
CONTINUOUS
 10
289.0892405155
 20
237.7546732719
  0
VERTEX
  8
SURFACE
 62
7
  6
CONTINUOUS
 10
289.0745616146
 20
237.7791457632
  0
VERTEX
  8
SURFACE
 62
7
  6
CONTINUOUS
 10
289.0588650098
 20
237.8036825134
  0
VERTEX
  8
SURFACE
 62
7
  6
CONTINUOUS
 10
289.0420958224
 20
237.8282700022
  0
VERTEX
  8
SURFACE
 62
7
  6
CONTINUOUS
 10
289.0241974225
 20
237.8528875532
  0
VERTEX
  8
SURFACE
 62
7
  6
CONTINUOUS
 10
289.0051315169
 20
237.8774824242
  0
VERTEX
  8
SURFACE
 62
7
  6
CONTINUOUS
 10
288.9848806392
 20
237.9019748136
  0
VERTEX
  8
SURFACE
 62
7
  6
CONTINUOUS
 10
288.9634324337
 20
237.9262825953
  0
VERTEX
  8
SURFACE
 62
7
  6
CONTINUOUS
 10
288.9407792507
 20
237.9503225026
  0
VERTEX
  8
SURFACE
 62
7
  6
CONTINUOUS
 10
288.9169183597
 20
237.9740104263
  0
VERTEX
  8
SURFACE
 62
7
  6
CONTINUOUS
 10
288.8918521172
 20
237.9972617536
  0
VERTEX
  8
SURFACE
 62
7
  6
CONTINUOUS
 10
288.8655831574
 20
238.0199958576
  0
VERTEX
  8
SURFACE
 62
7
  6
CONTINUOUS
 10
288.8381068764
 20
238.0421409506
  0
VERTEX
  8
SURFACE
 62
7
  6
CONTINUOUS
 10
288.8094205148
 20
238.0636245682
  0
VERTEX
  8
SURFACE
 62
7
  6
CONTINUOUS
 10
288.7795249737
 20
238.0843721663
  0
VERTEX
  8
SURFACE
 62
7
  6
CONTINUOUS
 10
288.748425056
 20
238.1043072526
  0
VERTEX
  8
SURFACE
 62
7
  6
CONTINUOUS
 10
288.716129706
 20
238.1233515377
  0
VERTEX
  8
SURFACE
 62
7
  6
CONTINUOUS
 10
288.6826522503
 20
238.141425107
  0
VERTEX
  8
SURFACE
 62
7
  6
CONTINUOUS
 10
288.6480106351
 20
238.1584466143
  0
VERTEX
  8
SURFACE
 62
7
  6
CONTINUOUS
 10
288.6122276613
 20
238.1743334973
  0
VERTEX
  8
SURFACE
 62
7
  6
CONTINUOUS
 10
288.5753312135
 20
238.1890022153
  0
VERTEX
  8
SURFACE
 62
7
  6
CONTINUOUS
 10
288.5373544832
 20
238.2023685104
  0
VERTEX
  8
SURFACE
 62
7
  6
CONTINUOUS
 10
288.4983361806
 20
238.2143476931
  0
VERTEX
  8
SURFACE
 62
7
  6
CONTINUOUS
 10
288.4583207405
 20
238.22485495
  0
VERTEX
  8
SURFACE
 62
7
  6
CONTINUOUS
 10
288.4173585143
 20
238.2338056764
  0
VERTEX
  8
SURFACE
 62
7
  6
CONTINUOUS
 10
288.375505949
 20
238.241115833
  0
VERTEX
  8
SURFACE
 62
7
  6
CONTINUOUS
 10
288.3328257482
 20
238.2467023274
  0
VERTEX
  8
SURFACE
 62
7
  6
CONTINUOUS
 10
288.2893870157
 20
238.2504834196
  0
VERTEX
  8
SURFACE
 62
7
  6
CONTINUOUS
 10
288.245265377
 20
238.2523791521
  0
VERTEX
  8
SURFACE
 62
7
  6
CONTINUOUS
 10
288.2244098322
 20
238.2525966508
  0
SEQEND
  0
LINE
  8
SURFACE
 62
7
  6
CONTINUOUS
 10
289.2776608373
 20
236.4345243045
 11
289.2226482002
 21
237.31407571
  0
POLYLINE
  8
SURFACE
 62
7
  6
CONTINUOUS
 66
1
 70
0
  0
VERTEX
  8
SURFACE
 62
7
  6
CONTINUOUS
 10
289.3832619747
 20
234.5096653386
  0
VERTEX
  8
SURFACE
 62
7
  6
CONTINUOUS
 10
289.3317541912
 20
235.4904119909
  0
VERTEX
  8
SURFACE
 62
7
  6
CONTINUOUS
 10
289.2776608373
 20
236.4345243045
  0
SEQEND
  0
LINE
  8
SURFACE
 62
7
  6
CONTINUOUS
 10
289.4610844344
 20
203.2452525677
 11
289.462576816
 21
203.2137395959
  0
LINE
  8
SURFACE
 62
7
  6
CONTINUOUS
 10
289.3891905627
 20
234.3784164518
 11
289.383252802
 21
234.5098471221
  0
LINE
  8
SURFACE
 62
7
  6
CONTINUOUS
 10
289.4623982142
 20
232.4158737849
 11
289.3891905627
 21
234.3784164518
  0
POLYLINE
  8
SURFACE
 62
7
  6
CONTINUOUS
 66
1
 70
0
  0
VERTEX
  8
SURFACE
 62
7
  6
CONTINUOUS
 10
289.462398211
 20
232.4158739729
  0
VERTEX
  8
SURFACE
 62
7
  6
CONTINUOUS
 10
289.4627754598
 20
232.4035552414
  0
VERTEX
  8
SURFACE
 62
7
  6
CONTINUOUS
 10
289.4630000742
 20
232.3912974517
  0
VERTEX
  8
SURFACE
 62
7
  6
CONTINUOUS
 10
289.4630743982
 20
232.3791055464
  0
SEQEND
  0
LINE
  8
SURFACE
 62
7
  6
CONTINUOUS
 10
289.462576816
 20
203.2137395959
 11
289.4630743982
 21
203.1821972919
  0
LINE
  8
SURFACE
 62
7
  6
CONTINUOUS
 10
289.4630743982
 20
232.3791047502
 11
289.4630743982
 21
83.9411384135
  0
LINE
  8
0
 62
7
  6
CONTINUOUS
 10
289.5630743982
 20
206.0321767306
 11
289.5630743982
 21
193.1601215819
  0
LINE
  8
0
 62
7
  6
CONTINUOUS
 10
289.5630743982
 20
193.1205053046
 11
289.5630743982
 21
192.3761771068
  0
LINE
  8
0
 62
7
  6
CONTINUOUS
 10
289.5630743982
 20
191.9606104418
 11
289.5630743982
 21
183.7363232828
  0
POLYLINE
  8
SURFACE
 62
7
  6
CONTINUOUS
 66
1
 70
0
  0
VERTEX
  8
SURFACE
 62
7
  6
CONTINUOUS
 10
289.462398211
 20
83.9043691908
  0
VERTEX
  8
SURFACE
 62
7
  6
CONTINUOUS
 10
289.4627754598
 20
83.9166879223
  0
VERTEX
  8
SURFACE
 62
7
  6
CONTINUOUS
 10
289.4630000742
 20
83.928945712
  0
VERTEX
  8
SURFACE
 62
7
  6
CONTINUOUS
 10
289.4630743982
 20
83.9411376173
  0
SEQEND
  0
LINE
  8
SURFACE
 62
7
  6
CONTINUOUS
 10
289.4630743982
 20
91.9615148394
 11
289.4601865878
 21
91.8855727645
  0
LINE
  8
SURFACE
 62
7
  6
CONTINUOUS
 10
289.3891905627
 20
81.9418267117
 11
289.4623982142
 21
83.9043693788
  0
LINE
  8
SURFACE
 62
7
  6
CONTINUOUS
 10
289.383252802
 20
81.8103960416
 11
289.3891905627
 21
81.9418267117
  0
POLYLINE
  8
SURFACE
 62
7
  6
CONTINUOUS
 66
1
 70
0
  0
VERTEX
  8
SURFACE
 62
7
  6
CONTINUOUS
 10
289.348075876
 20
89.9829974928
  0
VERTEX
  8
SURFACE
 62
7
  6
CONTINUOUS
 10
289.3731935388
 20
90.4691985261
  0
VERTEX
  8
SURFACE
 62
7
  6
CONTINUOUS
 10
289.3972596692
 20
90.9059843864
  0
VERTEX
  8
SURFACE
 62
7
  6
CONTINUOUS
 10
289.4201114309
 20
91.2915331393
  0
VERTEX
  8
SURFACE
 62
7
  6
CONTINUOUS
 10
289.4415739382
 20
91.6241578925
  0
VERTEX
  8
SURFACE
 62
7
  6
CONTINUOUS
 10
289.4602482704
 20
91.8863865329
  0
SEQEND
  0
POLYLINE
  8
SURFACE
 62
7
  6
CONTINUOUS
 66
1
 70
0
  0
VERTEX
  8
SURFACE
 62
7
  6
CONTINUOUS
 10
289.2237195642
 20
87.3926558187
  0
VERTEX
  8
SURFACE
 62
7
  6
CONTINUOUS
 10
289.2249204321
 20
87.4128342324
  0
VERTEX
  8
SURFACE
 62
7
  6
CONTINUOUS
 10
289.348075876
 20
89.9829974928
  0
SEQEND
  0
POLYLINE
  8
SURFACE
 62
7
  6
CONTINUOUS
 66
1
 70
0
  0
VERTEX
  8
SURFACE
 62
7
  6
CONTINUOUS
 10
289.2226482002
 20
79.0061674537
  0
VERTEX
  8
SURFACE
 62
7
  6
CONTINUOUS
 10
289.2776608374
 20
79.8857188611
  0
VERTEX
  8
SURFACE
 62
7
  6
CONTINUOUS
 10
289.3317541913
 20
80.8298311743
  0
VERTEX
  8
SURFACE
 62
7
  6
CONTINUOUS
 10
289.3832619747
 20
81.8105778251
  0
SEQEND
  0
LINE
  8
SURFACE
 62
7
  6
CONTINUOUS
 10
289.46024776
 20
91.886379718
 11
289.4601865878
 21
91.8855727645
  0
LINE
  8
SURFACE
 62
7
  6
CONTINUOUS
 10
298.6130743982
 20
191.1601215819
 11
298.6130743982
 21
125.1601215819
  0
LINE
  8
0
 62
7
  6
CONTINUOUS
 10
266.601217482
 20
180.1287531937
 11
277.4630743982
 21
180.1287531937
  0
LINE
  8
0
 62
7
  6
CONTINUOUS
 10
289.4630743982
 20
183.7363232828
 11
289.5630743982
 21
183.7363232828
  0
LINE
  8
0
 62
7
  6
CONTINUOUS
 10
289.4630743982
 20
183.7849046522
 11
289.5630743982
 21
183.7849046522
  0
LINE
  8
0
 62
7
  6
CONTINUOUS
 10
289.4630743982
 20
183.9642419839
 11
289.5630743982
 21
183.9642419839
  0
LINE
  8
0
 62
7
  6
CONTINUOUS
 10
289.4630743982
 20
185.2718012401
 11
289.5630743982
 21
185.2718012401
  0
LINE
  8
0
 62
7
  6
CONTINUOUS
 10
289.4630743982
 20
185.6826739534
 11
289.5630743982
 21
185.6826739534
  0
LINE
  8
0
 62
7
  6
CONTINUOUS
 10
289.4630743982
 20
185.8878496043
 11
289.5630743982
 21
185.8878496043
  0
LINE
  8
0
 62
7
  6
CONTINUOUS
 10
289.4630743982
 20
187.326164777
 11
289.5630743982
 21
187.326164777
  0
LINE
  8
0
 62
7
  6
CONTINUOUS
 10
289.4630743982
 20
187.7370375784
 11
289.5630743982
 21
187.7370375784
  0
LINE
  8
0
 62
7
  6
CONTINUOUS
 10
289.4630743982
 20
188.7684447401
 11
289.5630743982
 21
188.7684447401
  0
LINE
  8
0
 62
7
  6
CONTINUOUS
 10
289.4630743982
 20
189.1480408896
 11
289.5630743982
 21
189.1480408896
  0
LINE
  8
0
 62
7
  6
CONTINUOUS
 10
289.4630743982
 20
189.4547963426
 11
289.5630743982
 21
189.4547963426
  0
LINE
  8
0
 62
7
  6
CONTINUOUS
 10
289.4630743982
 20
189.8313138285
 11
289.5630743982
 21
189.8313138285
  0
LINE
  8
0
 62
7
  6
CONTINUOUS
 10
289.4630743982
 20
190.1349908351
 11
289.5630743982
 21
190.1349908351
  0
LINE
  8
0
 62
7
  6
CONTINUOUS
 10
289.4630743982
 20
190.289908002
 11
289.5630743982
 21
190.289908002
  0
LINE
  8
0
 62
7
  6
CONTINUOUS
 10
289.4630743982
 20
190.3719846896
 11
289.5630743982
 21
190.3719846896
  0
LINE
  8
0
 62
7
  6
CONTINUOUS
 10
289.4630743982
 20
190.3781420169
 11
289.5630743982
 21
190.3781420169
  0
LINE
  8
0
 62
7
  6
CONTINUOUS
 10
289.4630743982
 20
191.6029137927
 11
289.5630743982
 21
191.6029137927
  0
LINE
  8
0
 62
7
  6
CONTINUOUS
 10
289.4630743982
 20
191.9606104418
 11
289.5630743982
 21
191.9606104418
  0
LINE
  8
0
 62
7
  6
CONTINUOUS
 10
289.4630743982
 20
192.3761771068
 11
289.5630743982
 21
192.3761771068
  0
LINE
  8
0
 62
7
  6
CONTINUOUS
 10
289.4630743982
 20
192.7628086556
 11
289.5630743982
 21
192.7628086556
  0
LINE
  8
0
 62
7
  6
CONTINUOUS
 10
289.4630743982
 20
193.1205053046
 11
289.5630743982
 21
193.1205053046
  0
LINE
  8
0
 62
7
  6
CONTINUOUS
 10
265.4630743982
 20
193.1601215819
 11
258.3130743982
 21
193.1601215819
  0
LINE
  8
SURFACE
 62
7
  6
CONTINUOUS
 10
289.4630743982
 20
193.1601215819
 11
296.6130743982
 21
193.1601215819
  0
LINE
  8
0
 62
7
  6
CONTINUOUS
 10
289.4630743982
 20
193.2061606575
 11
289.5630743982
 21
193.2061606575
  0
LINE
  8
0
 62
7
  6
CONTINUOUS
 10
290.4630743982
 20
203.1601215819
 11
289.5630743982
 21
204.7189673087
  0
LINE
  8
0
 62
7
  6
CONTINUOUS
 10
289.4630743982
 20
196.3108436708
 11
289.5630743982
 21
196.3108436708
  0
LINE
  8
0
 62
7
  6
CONTINUOUS
 10
289.4630743982
 20
197.4258290087
 11
289.5630743982
 21
197.4258290087
  0
LINE
  8
0
 62
7
  6
CONTINUOUS
 10
289.4630743982
 20
197.7611087195
 11
289.5630743982
 21
197.7611087195
  0
LINE
  8
0
 62
7
  6
CONTINUOUS
 10
289.4630743982
 20
199.3257471567
 11
289.5630743982
 21
199.3257471567
  0
LINE
  8
0
 62
7
  6
CONTINUOUS
 10
289.4630743982
 20
199.6610268674
 11
289.5630743982
 21
199.6610268674
  0
LINE
  8
0
 62
7
  6
CONTINUOUS
 10
289.4630743982
 20
201.5425649479
 11
289.5630743982
 21
201.5425649479
  0
LINE
  8
0
 62
7
  6
CONTINUOUS
 10
289.4630743982
 20
201.8958124217
 11
289.5630743982
 21
201.8958124217
  0
LINE
  8
0
 62
7
  6
CONTINUOUS
 10
289.4630743982
 20
203.073304001
 11
289.5630743982
 21
203.073304001
  0
LINE
  8
0
 62
7
  6
CONTINUOUS
 10
289.4630743982
 20
203.4265514748
 11
289.5630743982
 21
203.4265514748
  0
LINE
  8
0
 62
7
  6
CONTINUOUS
 10
289.4630743982
 20
203.8567536339
 11
289.5630743982
 21
203.8567536339
  0
LINE
  8
0
 62
7
  6
CONTINUOUS
 10
289.4630743982
 20
204.5080915843
 11
289.5630743982
 21
204.5080915843
  0
LINE
  8
0
 62
7
  6
CONTINUOUS
 10
289.4630743982
 20
204.5410784431
 11
289.5630743982
 21
204.5410784431
  0
LINE
  8
SURFACE
 62
7
  6
CONTINUOUS
 10
288.3948433591
 20
204.8352048643
 11
277.4630743982
 21
204.8352048643
  0
LINE
  8
0
 62
7
  6
CONTINUOUS
 10
289.4630743982
 20
205.1477773105
 11
289.5630743982
 21
205.1477773105
  0
LINE
  8
0
 62
7
  6
CONTINUOUS
 10
289.4630743982
 20
205.5317181149
 11
289.5630743982
 21
205.5317181149
  0
LINE
  8
0
 62
7
  6
CONTINUOUS
 10
289.4630743982
 20
206.0321767306
 11
289.5630743982
 21
206.0321767306
  0
POLYLINE
  8
0
 62
7
  6
CONTINUOUS
 66
1
 70
0
  0
VERTEX
  8
0
 62
7
  6
CONTINUOUS
 10
266.7013815959
 20
229.8725882144
  0
VERTEX
  8
0
 62
7
  6
CONTINUOUS
 10
266.6536727224
 20
229.8714495333
  0
VERTEX
  8
0
 62
7
  6
CONTINUOUS
 10
266.599535518
 20
229.8673885454
  0
VERTEX
  8
0
 62
7
  6
CONTINUOUS
 10
266.5471625065
 20
229.8606252658
  0
VERTEX
  8
0
 62
7
  6
CONTINUOUS
 10
266.4966012312
 20
229.8513968394
  0
VERTEX
  8
0
 62
7
  6
CONTINUOUS
 10
266.4478785185
 20
229.8399238554
  0
VERTEX
  8
0
 62
7
  6
CONTINUOUS
 10
266.4010035492
 20
229.8264099777
  0
VERTEX
  8
0
 62
7
  6
CONTINUOUS
 10
266.3559706742
 20
229.8110418551
  0
VERTEX
  8
0
 62
7
  6
CONTINUOUS
 10
266.3127619861
 20
229.7939892609
  0
VERTEX
  8
0
 62
7
  6
CONTINUOUS
 10
266.2713496555
 20
229.7754054178
  0
VERTEX
  8
0
 62
7
  6
CONTINUOUS
 10
266.2316983258
 20
229.7554276195
  0
VERTEX
  8
0
 62
7
  6
CONTINUOUS
 10
266.1937876329
 20
229.7341900423
  0
VERTEX
  8
0
 62
7
  6
CONTINUOUS
 10
266.1576250923
 20
229.7118378157
  0
VERTEX
  8
0
 62
7
  6
CONTINUOUS
 10
266.1232124384
 20
229.688513014
  0
VERTEX
  8
0
 62
7
  6
CONTINUOUS
 10
266.0905428373
 20
229.6643525919
  0
VERTEX
  8
0
 62
7
  6
CONTINUOUS
 10
266.0596016311
 20
229.6394880805
  0
VERTEX
  8
0
 62
7
  6
CONTINUOUS
 10
266.0303670684
 20
229.6140453546
  0
VERTEX
  8
0
 62
7
  6
CONTINUOUS
 10
266.0028076937
 20
229.5881412215
  0
VERTEX
  8
0
 62
7
  6
CONTINUOUS
 10
265.9768620472
 20
229.5618600116
  0
VERTEX
  8
0
 62
7
  6
CONTINUOUS
 10
265.9524567911
 20
229.5352635437
  0
VERTEX
  8
0
 62
7
  6
CONTINUOUS
 10
265.9295202775
 20
229.5084026787
  0
VERTEX
  8
0
 62
7
  6
CONTINUOUS
 10
265.9079832854
 20
229.4813182452
  0
VERTEX
  8
0
 62
7
  6
CONTINUOUS
 10
265.8877796835
 20
229.4540420129
  0
VERTEX
  8
0
 62
7
  6
CONTINUOUS
 10
265.8688526047
 20
229.4266061119
  0
VERTEX
  8
0
 62
7
  6
CONTINUOUS
 10
265.8511559756
 20
229.3990488966
  0
VERTEX
  8
0
 62
7
  6
CONTINUOUS
 10
265.8346451382
 20
229.3714036826
  0
VERTEX
  8
0
 62
7
  6
CONTINUOUS
 10
265.8192765418
 20
229.3436981865
  0
VERTEX
  8
0
 62
7
  6
CONTINUOUS
 10
265.8050080155
 20
229.3159547354
  0
VERTEX
  8
0
 62
7
  6
CONTINUOUS
 10
265.791799015
 20
229.2881904407
  0
VERTEX
  8
0
 62
7
  6
CONTINUOUS
 10
265.7796109719
 20
229.2604176192
  0
VERTEX
  8
0
 62
7
  6
CONTINUOUS
 10
265.7684079241
 20
229.2326450811
  0
VERTEX
  8
0
 62
7
  6
CONTINUOUS
 10
265.758157686
 20
229.2048815896
  0
VERTEX
  8
0
 62
7
  6
CONTINUOUS
 10
265.7488339685
 20
229.1771442412
  0
VERTEX
  8
0
 62
7
  6
CONTINUOUS
 10
265.7404513456
 20
229.1495859306
  0
VERTEX
  8
0
 62
7
  6
CONTINUOUS
 10
265.7330611389
 20
229.1225607193
  0
VERTEX
  8
0
 62
7
  6
CONTINUOUS
 10
265.7266016932
 20
229.0960937718
  0
VERTEX
  8
0
 62
7
  6
CONTINUOUS
 10
265.7209788
 20
229.0700375978
  0
VERTEX
  8
0
 62
7
  6
CONTINUOUS
 10
265.716069084
 20
229.0439630125
  0
VERTEX
  8
0
 62
7
  6
CONTINUOUS
 10
265.7118272091
 20
229.0176449491
  0
VERTEX
  8
0
 62
7
  6
CONTINUOUS
 10
265.7084410439
 20
228.9925887938
  0
VERTEX
  8
0
 62
7
  6
CONTINUOUS
 10
265.7058612305
 20
228.969432512
  0
VERTEX
  8
0
 62
7
  6
CONTINUOUS
 10
265.7039090248
 20
228.94786129
  0
VERTEX
  8
0
 62
7
  6
CONTINUOUS
 10
265.7024293031
 20
228.9275884249
  0
SEQEND
  0
LINE
  8
0
 62
7
  6
CONTINUOUS
 10
266.7013804105
 20
229.8725882525
 11
277.4630743982
 21
229.8725882525
  0
POLYLINE
  8
0
 62
7
  6
CONTINUOUS
 66
1
 70
0
  0
VERTEX
  8
0
 62
7
  6
CONTINUOUS
 10
266.6947426993
 20
238.2525721768
  0
VERTEX
  8
0
 62
7
  6
CONTINUOUS
 10
266.6574063106
 20
238.251613484
  0
VERTEX
  8
0
 62
7
  6
CONTINUOUS
 10
266.6206012727
 20
238.2492995827
  0
VERTEX
  8
0
 62
7
  6
CONTINUOUS
 10
266.5843651324
 20
238.2456845167
  0
VERTEX
  8
0
 62
7
  6
CONTINUOUS
 10
266.5487317444
 20
238.2408218307
  0
VERTEX
  8
0
 62
7
  6
CONTINUOUS
 10
266.513731461
 20
238.2347644098
  0
VERTEX
  8
0
 62
7
  6
CONTINUOUS
 10
266.4793913219
 20
238.2275643367
  0
VERTEX
  8
0
 62
7
  6
CONTINUOUS
 10
266.4457352413
 20
238.2192727663
  0
VERTEX
  8
0
 62
7
  6
CONTINUOUS
 10
266.4127841928
 20
238.2099398157
  0
VERTEX
  8
0
 62
7
  6
CONTINUOUS
 10
266.3805563909
 20
238.1996144685
  0
VERTEX
  8
0
 62
7
  6
CONTINUOUS
 10
266.3490674683
 20
238.1883444938
  0
VERTEX
  8
0
 62
7
  6
CONTINUOUS
 10
266.3183306494
 20
238.1761763771
  0
VERTEX
  8
0
 62
7
  6
CONTINUOUS
 10
266.2883569192
 20
238.1631552639
  0
VERTEX
  8
0
 62
7
  6
CONTINUOUS
 10
266.2591551849
 20
238.1493249135
  0
VERTEX
  8
0
 62
7
  6
CONTINUOUS
 10
266.2307324335
 20
238.1347276627
  0
VERTEX
  8
0
 62
7
  6
CONTINUOUS
 10
266.2030938843
 20
238.1194043994
  0
VERTEX
  8
0
 62
7
  6
CONTINUOUS
 10
266.1762431351
 20
238.103394545
  0
VERTEX
  8
0
 62
7
  6
CONTINUOUS
 10
266.150182303
 20
238.0867360439
  0
VERTEX
  8
0
 62
7
  6
CONTINUOUS
 10
266.1249121589
 20
238.0694653608
  0
VERTEX
  8
0
 62
7
  6
CONTINUOUS
 10
266.1004322571
 20
238.0516174847
  0
VERTEX
  8
0
 62
7
  6
CONTINUOUS
 10
266.0767410576
 20
238.0332259382
  0
VERTEX
  8
0
 62
7
  6
CONTINUOUS
 10
266.0538360444
 20
238.014322793
  0
VERTEX
  8
0
 62
7
  6
CONTINUOUS
 10
266.0317138365
 20
237.9949386905
  0
VERTEX
  8
0
 62
7
  6
CONTINUOUS
 10
266.0103711844
 20
237.9751037175
  0
VERTEX
  8
0
 62
7
  6
CONTINUOUS
 10
265.9898086094
 20
237.9548512761
  0
VERTEX
  8
0
 62
7
  6
CONTINUOUS
 10
265.9700268547
 20
237.9342155534
  0
VERTEX
  8
0
 62
7
  6
CONTINUOUS
 10
265.9510253359
 20
237.913230113
  0
VERTEX
  8
0
 62
7
  6
CONTINUOUS
 10
265.9328021957
 20
237.8919278544
  0
VERTEX
  8
0
 62
7
  6
CONTINUOUS
 10
265.9153543589
 20
237.8703409769
  0
VERTEX
  8
0
 62
7
  6
CONTINUOUS
 10
265.8986775888
 20
237.8485009453
  0
VERTEX
  8
0
 62
7
  6
CONTINUOUS
 10
265.8827665427
 20
237.8264384605
  0
VERTEX
  8
0
 62
7
  6
CONTINUOUS
 10
265.8676148295
 20
237.8041834349
  0
VERTEX
  8
0
 62
7
  6
CONTINUOUS
 10
265.8532150686
 20
237.7817649741
  0
VERTEX
  8
0
 62
7
  6
CONTINUOUS
 10
265.8395589515
 20
237.7592113699
  0
VERTEX
  8
0
 62
7
  6
CONTINUOUS
 10
265.826637307
 20
237.7365501078
  0
VERTEX
  8
0
 62
7
  6
CONTINUOUS
 10
265.8144401725
 20
237.7138078985
  0
VERTEX
  8
0
 62
7
  6
CONTINUOUS
 10
265.802956872
 20
237.6910107459
  0
VERTEX
  8
0
 62
7
  6
CONTINUOUS
 10
265.7921761107
 20
237.6681840839
  0
VERTEX
  8
0
 62
7
  6
CONTINUOUS
 10
265.7820884766
 20
237.6453586101
  0
VERTEX
  8
0
 62
7
  6
CONTINUOUS
 10
265.772688152
 20
237.6225766692
  0
VERTEX
  8
0
 62
7
  6
CONTINUOUS
 10
265.7639670953
 20
237.5998809779
  0
VERTEX
  8
0
 62
7
  6
CONTINUOUS
 10
265.755914581
 20
237.5773131806
  0
VERTEX
  8
0
 62
7
  6
CONTINUOUS
 10
265.7485173697
 20
237.5549136915
  0
VERTEX
  8
0
 62
7
  6
CONTINUOUS
 10
265.7417600084
 20
237.5327219782
  0
VERTEX
  8
0
 62
7
  6
CONTINUOUS
 10
265.7356254516
 20
237.5107782711
  0
VERTEX
  8
0
 62
7
  6
CONTINUOUS
 10
265.7300962602
 20
237.4891287077
  0
VERTEX
  8
0
 62
7
  6
CONTINUOUS
 10
265.7251595051
 20
237.4678504741
  0
VERTEX
  8
0
 62
7
  6
CONTINUOUS
 10
265.7208035832
 20
237.4470527351
  0
VERTEX
  8
0
 62
7
  6
CONTINUOUS
 10
265.7169846009
 20
237.4267042303
  0
VERTEX
  8
0
 62
7
  6
CONTINUOUS
 10
265.7136561048
 20
237.4067273151
  0
VERTEX
  8
0
 62
7
  6
CONTINUOUS
 10
265.7107940742
 20
237.3871512868
  0
VERTEX
  8
0
 62
7
  6
CONTINUOUS
 10
265.7084356555
 20
237.368539826
  0
VERTEX
  8
0
 62
7
  6
CONTINUOUS
 10
265.7065143315
 20
237.3508206047
  0
VERTEX
  8
0
 62
7
  6
CONTINUOUS
 10
265.7049585306
 20
237.3337768357
  0
VERTEX
  8
0
 62
7
  6
CONTINUOUS
 10
265.7038150471
 20
237.3187466894
  0
VERTEX
  8
0
 62
7
  6
CONTINUOUS
 10
265.7034986235
 20
237.3140453848
  0
SEQEND
  0
LINE
  8
SURFACE
 62
7
  6
CONTINUOUS
 10
288.224412105
 20
238.2525980082
 11
277.4630743982
 21
238.2525980082
  0
LINE
  8
0
 62
7
  6
CONTINUOUS
 10
266.6947426993
 20
238.2525721768
 11
277.4630743982
 21
238.2525980082
  0
ARC
  8
0
 62
7
  6
CONTINUOUS
 10
26.0663099042
 20
88.7901215819
 40
180.0
 50
15.7302589137
 51
18.7437262103
  0
ARC
  8
SURFACE
 62
7
  6
CONTINUOUS
 10
49.9037964989
 20
64.9526349871
 40
180.0
 50
71.2562737897
 51
74.2697410863
  0
ARC
  8
SURFACE
 62
7
  6
CONTINUOUS
 10
4.3141532595
 20
141.3044731643
 40
180.0
 50
26.2562737897
 51
29.2697410863
  0
ARC
  8
0
 62
7
  6
CONTINUOUS
 10
9.3930548871
 20
128.8191615819
 40
110.0000000855
 50
334.7840411354
 51
339.5070489309
  0
ARC
  8
SURFACE
 62
7
  6
CONTINUOUS
 10
20.8291872008
 20
101.2098958488
 40
110.0000000855
 50
65.4929510691
 51
70.2159588646
  0
ARC
  8
0
 62
7
  6
CONTINUOUS
 10
43.2225164989
 20
126.6122071966
 40
9.5
 50
315.0
 51
360.0
  0
ARC
  8
SURFACE
 62
7
  6
CONTINUOUS
 10
43.1896764989
 20
126.69148997
 40
9.5
 50
45.0
 51
90.0
  0
ARC
  8
0
 62
7
  6
CONTINUOUS
 10
57.3845778565
 20
113.4850382994
 40
2.0
 50
243.7437262103
 51
289.7840411354
  0
ARC
  8
SURFACE
 62
7
  6
CONTINUOUS
 10
50.7225164989
 20
153.19148997
 40
2.0
 50
290.4929510691
 51
360.0
  0
ARC
  8
SURFACE
 62
7
  6
CONTINUOUS
 10
43.9214559754
 20
145.9878897366
 40
2.0
 50
115.2159588646
 51
161.2562737897
  0
ARC
  8
0
 62
7
  6
CONTINUOUS
 10
48.6613298283
 20
117.0603567649
 40
1.1
 50
135.0
 51
240.7302589137
  0
ARC
  8
SURFACE
 62
7
  6
CONTINUOUS
 10
40.2813200725
 20
137.29148997
 40
1.1
 50
164.2697410863
 51
270.0
  0
ARC
  8
0
 62
7
  6
CONTINUOUS
 10
102.4181480813
 20
43.2004783424
 40
180.0
 50
60.7302589137
 51
63.7437262103
  0
ARC
  8
0
 62
7
  6
CONTINUOUS
 10
62.3235707659
 20
59.7155122838
 40
110.0000000855
 50
19.7840411354
 51
24.5070489309
  0
ARC
  8
SURFACE
 62
7
  6
CONTINUOUS
 10
89.9328364989
 20
48.27937997
 40
110.0000000855
 50
110.4929510691
 51
115.2159588646
  0
ARC
  8
0
 62
7
  6
CONTINUOUS
 10
87.8051648871
 20
82.0760015819
 40
9.5
 50
0.0
 51
45.0
  0
ARC
  8
SURFACE
 62
7
  6
CONTINUOUS
 10
87.7258821137
 20
82.1088415819
 40
9.5
 50
90.0
 51
135.0
  0
ARC
  8
0
 62
7
  6
CONTINUOUS
 10
114.3051648871
 20
89.6088415819
 40
2.0
 50
90.0000070926
 51
159.5070489309
  0
ARC
  8
0
 62
7
  6
CONTINUOUS
 10
107.1015646536
 20
82.8077810584
 40
2.0
 50
288.7437262103
 51
334.7840411354
  0
ARC
  8
SURFACE
 62
7
  6
CONTINUOUS
 10
74.5987132165
 20
96.2709029395
 40
2.0
 50
160.2159588646
 51
206.2562737897
  0
ARC
  8
0
 62
7
  6
CONTINUOUS
 10
98.4051648871
 20
79.1676451555
 40
1.1
 50
180.0
 51
285.7302589137
  0
ARC
  8
SURFACE
 62
7
  6
CONTINUOUS
 10
78.1740316819
 20
87.5476549112
 40
1.1
 50
209.2697410863
 51
315.0
  0
ARC
  8
DEFAULT_3
 62
2
  6
PHANTOM
 10
93.4601289981
 20
151.7650751996
 40
3.2
 50
45.0
 51
87.7455692247
  0
ARC
  8
DEFAULT_3
 62
2
  6
PHANTOM
 10
97.7027696852
 20
147.5224345125
 40
3.2
 50
3.5903778907
 51
45.0
  0
ARC
  8
DEFAULT_3
 62
2
  6
PHANTOM
 10
104.0902081444
 20
147.9232211528
 40
3.2
 50
183.5903778907
 51
225.0
  0
ARC
  8
DEFAULT_3
 62
2
  6
PHANTOM
 10
109.0368960698
 20
142.9765332273
 40
3.2
 50
225.0
 51
266.4096221093
  0
ARC
  8
DEFAULT_3
 62
2
  6
PHANTOM
 10
112.8787501166
 20
132.3464540811
 40
3.2
 50
2.2544307753
 51
45.0
  0
ARC
  8
DEFAULT_3
 62
2
  6
PHANTOM
 10
108.6361094295
 20
136.5890947682
 40
3.2
 50
45.0
 51
86.4096221093
  0
ARC
  8
0
 62
7
  6
CONTINUOUS
 10
67.2873684459
 20
113.2003997408
 40
2.0
 50
45.0
 51
114.5070489309
  0
ARC
  8
SURFACE
 62
7
  6
CONTINUOUS
 10
74.3140746578
 20
106.1736935289
 40
2.0
 50
335.4929510691
 51
45.0
  0
ARC
  8
0
 62
7
  6
CONTINUOUS
 10
4.3141532595
 20
175.0157699995
 40
180.0
 50
330.7302589137
 51
333.7437262103
  0
ARC
  8
0
 62
7
  6
CONTINUOUS
 10
20.8291872008
 20
215.1103473149
 40
110.0000000855
 50
289.7840411354
 51
294.5070489309
  0
ARC
  8
SURFACE
 62
7
  6
CONTINUOUS
 10
9.3930548871
 20
187.5010815819
 40
110.0000000855
 50
20.4929510691
 51
25.2159588646
  0
ARC
  8
0
 62
7
  6
CONTINUOUS
 10
43.1896764989
 20
189.6287531937
 40
9.5
 50
270.0
 51
315.0
  0
ARC
  8
SURFACE
 62
7
  6
CONTINUOUS
 10
43.2225164989
 20
189.7080359671
 40
9.5
 50
0.0
 51
45.0
  0
ARC
  8
0
 62
7
  6
CONTINUOUS
 10
50.7225164989
 20
163.1287531937
 40
2.0
 50
0.0
 51
69.5070489309
  0
ARC
  8
0
 62
7
  6
CONTINUOUS
 10
43.9214559754
 20
170.3323534272
 40
2.0
 50
198.7437262103
 51
244.7840411354
  0
ARC
  8
SURFACE
 62
7
  6
CONTINUOUS
 10
57.3845778565
 20
202.8352048643
 40
2.0
 50
70.2159588646
 51
116.2562737897
  0
ARC
  8
0
 62
7
  6
CONTINUOUS
 10
40.2813200725
 20
179.0287531937
 40
1.1
 50
90.0
 51
195.7302589137
  0
ARC
  8
SURFACE
 62
7
  6
CONTINUOUS
 10
48.6613298283
 20
199.2598863988
 40
1.1
 50
119.2697410863
 51
225.0
  0
ARC
  8
0
 62
7
  6
CONTINUOUS
 10
49.9037964989
 20
251.3676081766
 40
180.0
 50
285.7302589137
 51
288.7437262103
  0
ARC
  8
SURFACE
 62
7
  6
CONTINUOUS
 10
26.0663099042
 20
227.5301215819
 40
180.0
 50
341.2562737897
 51
344.2697410863
  0
ARC
  8
DEFAULT_3
 62
2
  6
PHANTOM
 10
112.8787501166
 20
183.9737890826
 40
3.2
 50
315.0
 51
357.7455692247
  0
ARC
  8
DEFAULT_3
 62
2
  6
PHANTOM
 10
108.6361094295
 20
179.7311483955
 40
3.2
 50
273.5903778907
 51
315.0
  0
ARC
  8
DEFAULT_3
 62
2
  6
PHANTOM
 10
109.0368960698
 20
173.3437099364
 40
3.2
 50
93.5903778907
 51
135.0
  0
ARC
  8
DEFAULT_3
 62
2
  6
PHANTOM
 10
104.0902081444
 20
168.397022011
 40
3.2
 50
135.0
 51
176.4096221093
  0
ARC
  8
DEFAULT_3
 62
2
  6
PHANTOM
 10
97.7027696852
 20
168.7978086512
 40
3.2
 50
315.0
 51
356.4096221093
  0
ARC
  8
DEFAULT_3
 62
2
  6
PHANTOM
 10
93.4601289981
 20
164.5551679641
 40
3.2
 50
272.2544307753
 51
315.0
  0
ARC
  8
DEFAULT_3
 62
2
  6
PHANTOM
 10
93.711886359
 20
158.1601215819
 40
3.2
 50
92.2544307753
 51
267.7455692247
  0
ARC
  8
0
 62
7
  6
CONTINUOUS
 10
74.3140746578
 20
210.1465496348
 40
2.0
 50
315.0
 51
24.5070489309
  0
ARC
  8
SURFACE
 62
7
  6
CONTINUOUS
 10
67.2873684459
 20
203.1198434229
 40
2.0
 50
245.4929510691
 51
315.0
  0
ARC
  8
SURFACE
 62
7
  6
CONTINUOUS
 10
102.4181480813
 20
273.1197648213
 40
180.0
 50
296.2562737897
 51
299.2697410863
  0
ARC
  8
0
 62
7
  6
CONTINUOUS
 10
89.9328364989
 20
268.0408631937
 40
110.0000000855
 50
244.7840411354
 51
249.5070489309
  0
ARC
  8
SURFACE
 62
7
  6
CONTINUOUS
 10
62.3235707659
 20
256.6047308799
 40
110.0000000855
 50
335.4929510691
 51
340.2159588646
  0
ARC
  8
0
 62
7
  6
CONTINUOUS
 10
87.7258821137
 20
234.2114015819
 40
9.5
 50
225.0
 51
270.0
  0
ARC
  8
SURFACE
 62
7
  6
CONTINUOUS
 10
87.8051648871
 20
234.2442415819
 40
9.5
 50
315.0
 51
360.0
  0
ARC
  8
0
 62
7
  6
CONTINUOUS
 10
74.5987132165
 20
220.0493402243
 40
2.0
 50
153.7437262103
 51
199.7840411354
  0
ARC
  8
SURFACE
 62
7
  6
CONTINUOUS
 10
114.3051648871
 20
226.7114015819
 40
2.0
 50
200.4929510691
 51
270.0
  0
ARC
  8
SURFACE
 62
7
  6
CONTINUOUS
 10
107.1015646536
 20
233.5124621053
 40
2.0
 50
25.2159588646
 51
71.2562737897
  0
ARC
  8
0
 62
7
  6
CONTINUOUS
 10
78.1740316819
 20
228.7725882525
 40
1.1
 50
45.0
 51
150.7302589137
  0
ARC
  8
SURFACE
 62
7
  6
CONTINUOUS
 10
98.4051648871
 20
237.1525980082
 40
1.1
 50
74.2697410863
 51
180.0
  0
ARC
  8
SURFACE
 62
7
  6
CONTINUOUS
 10
136.1294449165
 20
43.2004783424
 40
180.0
 50
116.2562737897
 51
119.2697410863
  0
ARC
  8
0
 62
7
  6
CONTINUOUS
 10
148.6147564989
 20
48.27937997
 40
110.0000000855
 50
64.7840411354
 51
69.5070489309
  0
ARC
  8
SURFACE
 62
7
  6
CONTINUOUS
 10
176.2240222319
 20
59.7155122838
 40
110.0000000855
 50
155.4929510691
 51
160.2159588646
  0
ARC
  8
0
 62
7
  6
CONTINUOUS
 10
150.8217108841
 20
82.1088415819
 40
9.5
 50
45.0
 51
90.0
  0
ARC
  8
SURFACE
 62
7
  6
CONTINUOUS
 10
150.7424281107
 20
82.0760015819
 40
9.5
 50
135.0
 51
180.0
  0
ARC
  8
0
 62
7
  6
CONTINUOUS
 10
163.9488797813
 20
96.2709029395
 40
2.0
 50
333.7437262103
 51
19.7840411354
  0
ARC
  8
SURFACE
 62
7
  6
CONTINUOUS
 10
124.2424281107
 20
89.6088415819
 40
2.0
 50
20.4929510691
 51
90.0
  0
ARC
  8
SURFACE
 62
7
  6
CONTINUOUS
 10
131.4460283442
 20
82.8077810584
 40
2.0
 50
205.2159588646
 51
251.2562737897
  0
ARC
  8
0
 62
7
  6
CONTINUOUS
 10
160.3735613159
 20
87.5476549112
 40
1.1
 50
225.0
 51
330.7302589137
  0
ARC
  8
SURFACE
 62
7
  6
CONTINUOUS
 10
140.1424281107
 20
79.1676451555
 40
1.1
 50
254.2697410863
 51
360.0
  0
ARC
  8
DEFAULT_3
 62
2
  6
PHANTOM
 10
119.2737964989
 20
132.598211442
 40
3.2
 50
182.2544307753
 51
357.7455692247
  0
ARC
  8
DEFAULT_3
 62
2
  6
PHANTOM
 10
125.6688428812
 20
132.3464540811
 40
3.2
 50
135.0
 51
177.7455692247
  0
ARC
  8
DEFAULT_3
 62
2
  6
PHANTOM
 10
129.9114835683
 20
136.5890947682
 40
3.2
 50
93.5903778907
 51
135.0
  0
ARC
  8
DEFAULT_3
 62
2
  6
PHANTOM
 10
129.510696928
 20
142.9765332273
 40
3.2
 50
273.5903778907
 51
315.0
  0
ARC
  8
DEFAULT_3
 62
2
  6
PHANTOM
 10
134.4573848535
 20
147.9232211528
 40
3.2
 50
315.0
 51
356.4096221093
  0
ARC
  8
DEFAULT_3
 62
2
  6
PHANTOM
 10
140.8448233126
 20
147.5224345125
 40
3.2
 50
135.0
 51
176.4096221093
  0
ARC
  8
DEFAULT_3
 62
2
  6
PHANTOM
 10
145.0874639997
 20
151.7650751996
 40
3.2
 50
92.2544307753
 51
135.0
  0
ARC
  8
0
 62
7
  6
CONTINUOUS
 10
164.23351834
 20
106.1736935289
 40
2.0
 50
135.0
 51
204.5070489309
  0
ARC
  8
SURFACE
 62
7
  6
CONTINUOUS
 10
171.2602245519
 20
113.2003997408
 40
2.0
 50
65.4929510691
 51
135.0
  0
ARC
  8
0
 62
7
  6
CONTINUOUS
 10
188.6437964989
 20
64.9526349871
 40
180.0
 50
105.7302589137
 51
108.7437262103
  0
ARC
  8
SURFACE
 62
7
  6
CONTINUOUS
 10
212.4812830937
 20
88.7901215819
 40
180.0
 50
161.2562737897
 51
164.2697410863
  0
ARC
  8
0
 62
7
  6
CONTINUOUS
 10
234.2334397383
 20
141.3044731643
 40
180.0
 50
150.7302589137
 51
153.7437262103
  0
ARC
  8
0
 62
7
  6
CONTINUOUS
 10
217.718405797
 20
101.2098958488
 40
110.0000000855
 50
109.7840411354
 51
114.5070489309
  0
ARC
  8
SURFACE
 62
7
  6
CONTINUOUS
 10
229.1545381107
 20
128.8191615819
 40
110.0000000855
 50
200.4929510691
 51
205.2159588646
  0
ARC
  8
0
 62
7
  6
CONTINUOUS
 10
195.3579164989
 20
126.69148997
 40
9.5
 50
90.0
 51
135.0
  0
ARC
  8
SURFACE
 62
7
  6
CONTINUOUS
 10
195.3250764989
 20
126.6122071966
 40
9.5
 50
180.0
 51
225.0
  0
ARC
  8
0
 62
7
  6
CONTINUOUS
 10
187.8250764989
 20
153.19148997
 40
2.0
 50
180.0000079841
 51
249.5070489309
  0
ARC
  8
0
 62
7
  6
CONTINUOUS
 10
194.6261370224
 20
145.9878897366
 40
2.0
 50
18.7437262103
 51
64.7840411354
  0
ARC
  8
SURFACE
 62
7
  6
CONTINUOUS
 10
181.1630151413
 20
113.4850382994
 40
2.0
 50
250.2159588646
 51
296.2562737897
  0
ARC
  8
0
 62
7
  6
CONTINUOUS
 10
198.2662729253
 20
137.29148997
 40
1.1
 50
270.0
 51
15.7302589137
  0
ARC
  8
SURFACE
 62
7
  6
CONTINUOUS
 10
189.8862631695
 20
117.0603567649
 40
1.1
 50
299.2697410863
 51
45.0
  0
CIRCLE
  8
SURFACE
 62
7
  6
CONTINUOUS
 10
119.2737964989
 20
158.1601215819
 40
35.0
  0
CIRCLE
  8
DEFAULT_3
 62
2
  6
PHANTOM
 10
119.2737964989
 20
158.1601215819
 40
9.0
  0
ARC
  8
DEFAULT_3
 62
2
  6
PHANTOM
 10
144.8357066388
 20
158.1601215819
 40
3.2
 50
272.2544307753
 51
87.7455692247
  0
ARC
  8
DEFAULT_3
 62
2
  6
PHANTOM
 10
145.0874639997
 20
164.5551679641
 40
3.2
 50
225.0
 51
267.7455692247
  0
ARC
  8
DEFAULT_3
 62
2
  6
PHANTOM
 10
140.8448233126
 20
168.7978086512
 40
3.2
 50
183.5903778907
 51
225.0
  0
ARC
  8
DEFAULT_3
 62
2
  6
PHANTOM
 10
134.4573848535
 20
168.397022011
 40
3.2
 50
3.5903778907
 51
45.0
  0
ARC
  8
DEFAULT_3
 62
2
  6
PHANTOM
 10
129.510696928
 20
173.3437099364
 40
3.2
 50
45.0
 51
86.4096221093
  0
ARC
  8
DEFAULT_3
 62
2
  6
PHANTOM
 10
129.9114835683
 20
179.7311483955
 40
3.2
 50
225.0
 51
266.4096221093
  0
ARC
  8
DEFAULT_3
 62
2
  6
PHANTOM
 10
125.6688428812
 20
183.9737890826
 40
3.2
 50
182.2544307753
 51
225.0
  0
ARC
  8
DEFAULT_3
 62
2
  6
PHANTOM
 10
119.2737964989
 20
183.7220317218
 40
3.2
 50
2.2544307753
 51
177.7455692247
  0
ARC
  8
0
 62
7
  6
CONTINUOUS
 10
171.2602245519
 20
203.1198434229
 40
2.0
 50
225.0
 51
294.5070489309
  0
ARC
  8
SURFACE
 62
7
  6
CONTINUOUS
 10
164.23351834
 20
210.1465496348
 40
2.0
 50
155.4929510691
 51
225.0
  0
CIRCLE
  8
0
 62
7
  6
CONTINUOUS
 10
119.2737964989
 20
203.1601215819
 40
1.7320508076
  0
ARC
  8
0
 62
7
  6
CONTINUOUS
 10
136.1294449165
 20
273.1197648213
 40
180.0
 50
240.7302589137
 51
243.7437262103
  0
ARC
  8
0
 62
7
  6
CONTINUOUS
 10
176.2240222319
 20
256.6047308799
 40
110.0000000855
 50
199.7840411354
 51
204.5070489309
  0
ARC
  8
SURFACE
 62
7
  6
CONTINUOUS
 10
148.6147564989
 20
268.0408631937
 40
110.0000000855
 50
290.4929510691
 51
295.2159588646
  0
ARC
  8
0
 62
7
  6
CONTINUOUS
 10
150.7424281107
 20
234.2442415819
 40
9.5
 50
180.0
 51
225.0
  0
ARC
  8
SURFACE
 62
7
  6
CONTINUOUS
 10
150.8217108841
 20
234.2114015819
 40
9.5
 50
270.0
 51
315.0
  0
ARC
  8
0
 62
7
  6
CONTINUOUS
 10
124.2424281107
 20
226.7114015819
 40
2.0
 50
270.0
 51
339.5070489309
  0
ARC
  8
0
 62
7
  6
CONTINUOUS
 10
131.4460283442
 20
233.5124621053
 40
2.0
 50
108.7437262103
 51
154.7840411354
  0
ARC
  8
SURFACE
 62
7
  6
CONTINUOUS
 10
163.9488797813
 20
220.0493402243
 40
2.0
 50
340.2159588646
 51
26.2562737897
  0
ARC
  8
0
 62
7
  6
CONTINUOUS
 10
140.1424281107
 20
237.1525980082
 40
1.1
 50
0.0
 51
105.7302589137
  0
ARC
  8
SURFACE
 62
7
  6
CONTINUOUS
 10
160.3735613159
 20
228.7725882525
 40
1.1
 50
29.2697410863
 51
135.0
  0
ARC
  8
SURFACE
 62
7
  6
CONTINUOUS
 10
234.2334397383
 20
175.0157699995
 40
180.0
 50
206.2562737897
 51
209.2697410863
  0
ARC
  8
0
 62
7
  6
CONTINUOUS
 10
229.1545381107
 20
187.5010815819
 40
110.0000000855
 50
154.7840411354
 51
159.5070489309
  0
ARC
  8
SURFACE
 62
7
  6
CONTINUOUS
 10
217.718405797
 20
215.1103473149
 40
110.0000000855
 50
245.4929510691
 51
250.2159588646
  0
ARC
  8
0
 62
7
  6
CONTINUOUS
 10
195.3250764989
 20
189.7080359671
 40
9.5
 50
135.0
 51
180.0
  0
ARC
  8
SURFACE
 62
7
  6
CONTINUOUS
 10
195.3579164989
 20
189.6287531937
 40
9.5
 50
225.0
 51
270.0
  0
ARC
  8
0
 62
7
  6
CONTINUOUS
 10
181.1630151413
 20
202.8352048643
 40
2.0
 50
63.7437262103
 51
109.7840411354
  0
ARC
  8
SURFACE
 62
7
  6
CONTINUOUS
 10
187.8250764989
 20
163.1287531937
 40
2.0
 50
110.4929510691
 51
180.0
  0
ARC
  8
SURFACE
 62
7
  6
CONTINUOUS
 10
194.6261370224
 20
170.3323534272
 40
2.0
 50
295.2159588646
 51
341.2562737897
  0
ARC
  8
0
 62
7
  6
CONTINUOUS
 10
189.8862631695
 20
199.2598863988
 40
1.1
 50
315.0
 51
60.7302589137
  0
ARC
  8
SURFACE
 62
7
  6
CONTINUOUS
 10
198.2662729253
 20
179.0287531937
 40
1.1
 50
344.2697410863
 51
90.0
  0
ARC
  8
0
 62
7
  6
CONTINUOUS
 10
212.4812830937
 20
227.5301215819
 40
180.0
 50
195.7302589137
 51
198.7437262103
  0
ARC
  8
SURFACE
 62
7
  6
CONTINUOUS
 10
188.6437964989
 20
251.3676081766
 40
180.0
 50
251.2562737897
 51
254.2697410863
  0
ARC
  8
SURFACE
 62
7
  6
CONTINUOUS
 10
296.6130743982
 20
191.1601215819
 40
2.0
 50
0.0
 51
90.0
  0
ARC
  8
SURFACE
 62
7
  6
CONTINUOUS
 10
296.6130743982
 20
125.1601215819
 40
2.0
 50
270.0
 51
360.0
  0
ARC
  8
0
 62
7
  6
CONTINUOUS
 10
258.3130743982
 20
125.1601215819
 40
2.0
 50
180.0
 51
270.0
  0
ARC
  8
0
 62
7
  6
CONTINUOUS
 10
258.3130743982
 20
191.1601215819
 40
2.0
 50
90.0
 51
180.0
  0
ENDSEC
  0
EOF
