  0
SECTION
  2
HEADER
  9
$EXTMAX
 10
420.0
 20
297.0
 30
0.0
  9
$EXTMIN
 10
0.0
 20
0.0
 30
0.0
  9
$LIMMIN
 10
0.0
 20
0.0
  9
$LIMMAX
 10
420.0
 20
297.0
  9
$VIEWCTR
 10
210.0
 20
148.5
  9
$VIEWSIZE
 40
297.0
  9
$CLAYER
  8
0
  9
$LTSCALE
 40
23.1
  9
$CELTYPE
  6
BYLAYER
  9
$DIMSCALE
 40
1.0
  9
$DIMASZ
 40
3.5
  9
$DIMEXO
 40
2.625
  9
$DIMDLI
 40
15.96
  9
$DIMEXE
 40
7.56
  9
$DIMCEN
 40
3.78
  9
$DIMLFAC
 40
1.0
  9
$DIMBLK
  1
_FILLED
  9
$DIMTXT
 40
3.5
  9
$PDMODE
 70
3
  9
$PDSIZE
 40
0.3125
  9
$TILEMODE
 70
1
  0
ENDSEC
  0
SECTION
  2
TABLES
  0
TABLE
  2
LTYPE
 70
6
  0
LTYPE
  2
BYBLOCK
 70
0
  3

 72
65
 73
0
 40
0.0
  0
LTYPE
  2
BYLAYER
 70
0
  3

 72
65
 73
0
 40
0.0
  0
LTYPE
  2
CONTINUOUS
 70
64
  3
Solid line
 72
65
 73
0
 40
0.0
  0
LTYPE
  2
CENTER
 70
64
  3
____ _ ____ _ ____ _ ____ _ ____ _ ____ _ ____
 72
65
 73
4
 40
0.6
 49
0.375
 49
-0.075
 49
0.075
 49
-0.075
  0
LTYPE
  2
HIDDEN
 70
64
  3
- - - - - - - - - - - - - - - - - - - -
 72
65
 73
2
 40
0.2
 49
0.1
 49
-0.1
  0
LTYPE
  2
PHANTOM
 70
64
  3
_____ _ _ _____ _ _ _____ _ _ _____
 72
65
 73
6
 40
0.8
 49
0.45
 49
-0.05
 49
0.1
 49
-0.05
 49
0.1
 49
-0.05
  0
LTYPE
  2
DOT
 70
64
  3
. . . . . . . . . . . . . . . . . . . .
 72
65
 73
2
 40
0.2
 49
0.1
 49
-0.1
  0
LTYPE
  2
DASHED
 70
64
  3
- - - - - - - - - - - - - - - - - - - -
 72
65
 73
2
 40
0.2
 49
0.1
 49
-0.1
  0
ENDTAB
  0
TABLE
  2
LAYER
 70
36
  0
LAYER
  2
0
 70
0
 62
7
  6
CONTINUOUS
  0
LAYER
  2
DEFAULT_1
 70
0
 62
7
  6
CENTER
  0
LAYER
  2
DEFAULT_2
 70
0
 62
8
  6
HIDDEN
  0
LAYER
  2
DEFAULT_3
 70
0
 62
7
  6
PHANTOM
  0
LAYER
  2
CURVE
 70
0
 62
7
  6
CONTINUOUS
  0
LAYER
  2
SOLID
 70
0
 62
7
  6
CONTINUOUS
  0
LAYER
  2
SURFACE
 70
0
 62
7
  6
CONTINUOUS
  0
ENDTAB
  0
TABLE
  2
STYLE
 70
1
  0
STYLE
  2
STANDARD
 70
0
 40
0.0
 41
0.8
 50
0.0
 71
0
 42
0.2
  3
txt
  4

  0
STYLE
  2
TEXTSTYLE_1
 70
0
 40
0.0
 41
0.8
 50
0.0
 71
0
 42
0.2
  3
gdt
  4

  0
STYLE
  2
TEXTSTYLE_2
 70
0
 40
0.0
 41
0.6
 50
0.0
 71
0
 42
0.2
  3
txt
  4

  0
STYLE
  2
TEXTSTYLE_3
 70
0
 40
0.0
 41
1.0
 50
0.0
 71
0
 42
0.2
  3
ftb_____.ttf
  4

  0
STYLE
  2
TEXTSTYLE_4
 70
0
 40
0.0
 41
1.0
 50
0.0
 71
0
 42
0.2
  3
fti_____.ttf
  4

  0
STYLE
  2
TEXTSTYLE_5
 70
0
 40
0.0
 41
1.0
 50
0.0
 71
0
 42
0.2
  3
frutiger light.ttf
  4

  0
STYLE
  2
TEXTSTYLE_6
 70
0
 40
0.0
 41
0.7
 50
0.0
 71
0
 42
0.2
  3
txt
  4

  0
STYLE
  2
TEXTSTYLE_7
 70
0
 40
0.0
 41
0.8
 50
0.0
 71
0
 42
0.2
  3
txt
  4

  0
ENDTAB
  0
ENDSEC
  0
SECTION
  2
BLOCKS
  0
BLOCK
  8
0
 62
2
  6
CONTINUOUS
  2
SYMBOL_5_BL1
 70
64
 10
382.7840918555
 20
35.5067593403
  0
TEXT
  8
0
 62
7
  6
CONTINUOUS
 10
373.842376864
 20
30.5995157174
  7
TEXTSTYLE_4
 40
1.0655737705
  1
The brand for plastic modular belts and chains
 41
1.0
 72
0
  0
LINE
  8
0
 62
7
  6
CONTINUOUS
 10
358.7621602445
 20
36.0805298321
 11
358.7621602445
 21
33.9493822911
  0
LINE
  8
0
 62
7
  6
CONTINUOUS
 10
359.0512227376
 20
30.9584509954
 11
359.0512227376
 21
31.0552420547
  0
LINE
  8
0
 62
7
  6
CONTINUOUS
 10
358.7621602445
 20
31.0229783683
 11
358.8199727462
 21
30.8293962497
  0
LINE
  8
0
 62
7
  6
CONTINUOUS
 10
360.1556028675
 20
33.867415078
 11
360.1556028675
 21
36.0805298321
  0
LINE
  8
0
 62
7
  6
CONTINUOUS
 10
361.0746601894
 20
32.0231527829
 11
361.0746601894
 21
30.5067593403
  0
LINE
  8
0
 62
7
  6
CONTINUOUS
 10
361.3637227445
 20
30.5067593403
 11
361.3637227445
 21
31.2488242184
  0
LINE
  8
0
 62
7
  6
CONTINUOUS
 10
361.3637227445
 20
31.3778789641
 11
361.3637227445
 21
32.0231527829
  0
LINE
  8
0
 62
7
  6
CONTINUOUS
 10
358.8199727462
 20
31.216560532
 11
358.7621602445
 21
31.0229783683
  0
LINE
  8
0
 62
7
  6
CONTINUOUS
 10
359.1668477307
 20
30.7971325633
 11
359.0512227376
 21
30.9584509954
  0
LINE
  8
0
 62
7
  6
CONTINUOUS
 10
360.2652852997
 20
31.3133515913
 11
360.3230977445
 21
31.216560532
  0
LINE
  8
0
 62
7
  6
CONTINUOUS
 10
360.6121602997
 20
31.216560532
 11
360.5543476894
 21
31.3456152777
  0
LINE
  8
0
 62
7
  6
CONTINUOUS
 10
362.0408487691
 20
36.0805298321
 11
362.0408487691
 21
34.2772511436
  0
LINE
  8
0
 62
7
  6
CONTINUOUS
 10
362.0408487691
 20
32.9657757338
 11
362.0408487691
 21
32.3100380288
  0
LINE
  8
0
 62
7
  6
CONTINUOUS
 10
362.4043477445
 20
31.1520331591
 11
362.4043477445
 21
30.5067593403
  0
LINE
  8
0
 62
7
  6
CONTINUOUS
 10
362.6934101343
 20
30.5067593403
 11
362.6934101343
 21
31.1520331591
  0
LINE
  8
0
 62
7
  6
CONTINUOUS
 10
359.0512227376
 20
31.0552420547
 11
359.1090352445
 21
31.1842968456
  0
LINE
  8
0
 62
7
  6
CONTINUOUS
 10
358.8199727462
 20
30.8293962497
 11
358.9355977445
 21
30.7003414814
  0
LINE
  8
0
 62
7
  6
CONTINUOUS
 10
362.3465351343
 20
31.2810879048
 11
362.4043477445
 21
31.1520331591
  0
LINE
  8
0
 62
7
  6
CONTINUOUS
 10
363.1559103548
 20
30.7971325633
 11
363.2137226343
 21
30.668077795
  0
LINE
  8
0
 62
7
  6
CONTINUOUS
 10
362.6934101343
 20
31.1520331591
 11
362.6355978548
 21
31.3133515913
  0
LINE
  8
0
 62
7
  6
CONTINUOUS
 10
363.1559103548
 20
31.3456152777
 11
363.1559103548
 21
31.2810879048
  0
LINE
  8
0
 62
7
  6
CONTINUOUS
 10
363.1559103548
 20
30.8939236226
 11
363.1559103548
 21
30.7971325633
  0
LINE
  8
0
 62
7
  6
CONTINUOUS
 10
363.4342913921
 20
32.3100380288
 11
363.4342913921
 21
36.0805298321
  0
LINE
  8
0
 62
7
  6
CONTINUOUS
 10
363.4449727445
 20
30.7648688543
 11
363.4449727445
 21
30.8293962497
  0
LINE
  8
0
 62
7
  6
CONTINUOUS
 10
363.7621602445
 20
36.0805298321
 11
363.7621602445
 21
32.3100380288
  0
LINE
  8
0
 62
7
  6
CONTINUOUS
 10
360.5543476894
 20
30.7003414814
 11
360.6121602997
 21
30.8293962497
  0
LINE
  8
0
 62
7
  6
CONTINUOUS
 10
364.9480979651
 20
30.6035504109
 11
364.890285024
 21
30.7648688543
  0
LINE
  8
0
 62
7
  6
CONTINUOUS
 10
364.6012229651
 20
31.2810879048
 11
364.6012229651
 21
31.1842968456
  0
LINE
  8
0
 62
7
  6
CONTINUOUS
 10
364.6012229651
 20
31.0552420547
 11
364.6012229651
 21
30.8616599362
  0
LINE
  8
0
 62
7
  6
CONTINUOUS
 10
364.890285024
 20
30.7648688543
 11
364.890285024
 21
31.2810879048
  0
LINE
  8
0
 62
7
  6
CONTINUOUS
 10
365.1556028675
 20
32.3100380288
 11
365.1556028675
 21
34.1133167174
  0
LINE
  8
0
 62
7
  6
CONTINUOUS
 10
365.1556028675
 20
35.4247921272
 11
365.1556028675
 21
36.0805298321
  0
LINE
  8
0
 62
7
  6
CONTINUOUS
 10
365.4684104651
 20
32.0231527829
 11
365.4684104651
 21
31.8618343508
  0
LINE
  8
0
 62
7
  6
CONTINUOUS
 10
365.4684104651
 20
31.5391973962
 11
365.4684104651
 21
30.5067593403
  0
LINE
  8
0
 62
7
  6
CONTINUOUS
 10
365.757472524
 20
30.5067593403
 11
365.757472524
 21
31.5391973962
  0
LINE
  8
0
 62
7
  6
CONTINUOUS
 10
365.757472524
 20
31.8618343508
 11
365.757472524
 21
32.0231527829
  0
LINE
  8
0
 62
7
  6
CONTINUOUS
 10
360.3230977445
 20
30.8293962497
 11
360.2652852997
 21
30.7326051679
  0
LINE
  8
0
 62
7
  6
CONTINUOUS
 10
362.6355978548
 20
31.3133515913
 11
362.5777852445
 21
31.3778789641
  0
LINE
  8
0
 62
7
  6
CONTINUOUS
 10
363.5027853548
 20
30.7003414814
 11
363.4449727445
 21
30.7648688543
  0
LINE
  8
0
 62
7
  6
CONTINUOUS
 10
364.6590352445
 20
30.5712867188
 11
364.716847524
 21
30.5067593403
  0
LINE
  8
0
 62
7
  6
CONTINUOUS
 10
364.6012229651
 20
30.668077795
 11
364.6590352445
 21
30.5712867188
  0
LINE
  8
0
 62
7
  6
CONTINUOUS
 10
365.0059102445
 20
30.5067593403
 11
364.9480979651
 21
30.6035504109
  0
LINE
  8
0
 62
7
  6
CONTINUOUS
 10
364.890285024
 20
31.2810879048
 11
364.8324727445
 21
31.3778789641
  0
LINE
  8
0
 62
7
  6
CONTINUOUS
 10
366.2199727445
 20
31.5391973962
 11
366.2199727445
 21
30.5067593403
  0
LINE
  8
0
 62
7
  6
CONTINUOUS
 10
366.5090354651
 20
30.5067593403
 11
366.5090354651
 21
31.2488242184
  0
LINE
  8
0
 62
7
  6
CONTINUOUS
 10
366.5090354651
 20
31.3778789641
 11
366.5090354651
 21
31.5391973962
  0
LINE
  8
0
 62
7
  6
CONTINUOUS
 10
367.0408487691
 20
34.5231527829
 11
367.0408487691
 21
32.3100380288
  0
LINE
  8
0
 62
7
  6
CONTINUOUS
 10
358.9355977445
 20
31.3456152777
 11
358.8199727462
 21
31.216560532
  0
LINE
  8
0
 62
7
  6
CONTINUOUS
 10
359.1090352445
 20
31.1842968456
 11
359.1668477307
 21
31.2488242184
  0
LINE
  8
0
 62
7
  6
CONTINUOUS
 10
358.9355977445
 20
30.7003414814
 11
359.0512227376
 21
30.6358140973
  0
LINE
  8
0
 62
7
  6
CONTINUOUS
 10
359.3402852307
 20
30.7003414814
 11
359.1668477307
 21
30.7971325633
  0
LINE
  8
0
 62
7
  6
CONTINUOUS
 10
364.543410024
 20
31.3456152777
 11
364.6012229651
 21
31.2810879048
  0
LINE
  8
0
 62
7
  6
CONTINUOUS
 10
367.491847524
 20
31.2810879048
 11
367.5496604651
 21
31.1197694727
  0
LINE
  8
0
 62
7
  6
CONTINUOUS
 10
367.838722524
 20
31.1197694727
 11
367.7809102445
 21
31.2810879048
  0
LINE
  8
0
 62
7
  6
CONTINUOUS
 10
367.5496604651
 20
31.1197694727
 11
367.5496604651
 21
30.5067593403
  0
LINE
  8
0
 62
7
  6
CONTINUOUS
 10
367.838722524
 20
30.5067593403
 11
367.838722524
 21
31.1197694727
  0
LINE
  8
0
 62
7
  6
CONTINUOUS
 10
368.3012227445
 20
31.3456152777
 11
368.3012227445
 21
31.2810879048
  0
LINE
  8
0
 62
7
  6
CONTINUOUS
 10
368.4342913921
 20
32.3100380288
 11
368.4342913921
 21
34.4411855698
  0
LINE
  8
0
 62
7
  6
CONTINUOUS
 10
368.7621602445
 20
36.0805298321
 11
368.7621602445
 21
32.3100380288
  0
LINE
  8
0
 62
7
  6
CONTINUOUS
 10
363.4449727445
 20
30.8293962497
 11
363.5027853548
 21
30.926187309
  0
LINE
  8
0
 62
7
  6
CONTINUOUS
 10
359.0512227376
 20
30.6358140973
 11
359.2246602583
 21
30.5712867188
  0
LINE
  8
0
 62
7
  6
CONTINUOUS
 10
360.5543476894
 20
31.3456152777
 11
360.3809101894
 21
31.4424063369
  0
LINE
  8
0
 62
7
  6
CONTINUOUS
 10
363.2137226343
 20
30.668077795
 11
363.3871601343
 21
30.5712867188
  0
LINE
  8
0
 62
7
  6
CONTINUOUS
 10
362.2309102445
 20
31.3456152777
 11
362.3465351343
 21
31.2810879048
  0
LINE
  8
0
 62
7
  6
CONTINUOUS
 10
362.5777852445
 20
31.3778789641
 11
362.4621603548
 21
31.4424063369
  0
LINE
  8
0
 62
7
  6
CONTINUOUS
 10
368.3012227445
 20
30.7648688543
 11
368.4168479651
 21
30.6358140973
  0
LINE
  8
0
 62
7
  6
CONTINUOUS
 10
368.6480977445
 20
30.7003414814
 11
368.5902854651
 21
30.7648688543
  0
LINE
  8
0
 62
7
  6
CONTINUOUS
 10
368.3012227445
 20
31.2810879048
 11
368.4168479651
 21
31.1520331591
  0
LINE
  8
0
 62
7
  6
CONTINUOUS
 10
367.7809102445
 20
31.2810879048
 11
367.7230979651
 21
31.3778789641
  0
LINE
  8
0
 62
7
  6
CONTINUOUS
 10
370.1512223035
 20
30.7003414814
 11
370.1512223035
 21
30.7648688543
  0
LINE
  8
0
 62
7
  6
CONTINUOUS
 10
370.1556028675
 20
32.3100380288
 11
370.1556028675
 21
36.0805298321
  0
LINE
  8
0
 62
7
  6
CONTINUOUS
 10
363.2137226343
 20
31.4101426505
 11
363.1559103548
 21
31.3456152777
  0
LINE
  8
0
 62
7
  6
CONTINUOUS
 10
360.091847717
 20
31.3778789641
 11
360.2652852997
 21
31.3133515913
  0
LINE
  8
0
 62
7
  6
CONTINUOUS
 10
364.8324727445
 20
31.3778789641
 11
364.716847524
 21
31.4424063369
  0
LINE
  8
0
 62
7
  6
CONTINUOUS
 10
368.6480977445
 20
31.216560532
 11
368.5902854651
 21
31.2810879048
  0
LINE
  8
0
 62
7
  6
CONTINUOUS
 10
369.8043479651
 20
30.8293962497
 11
369.8621602445
 21
30.7648688543
  0
LINE
  8
0
 62
7
  6
CONTINUOUS
 10
370.1512223035
 20
30.7648688543
 11
370.0355977445
 21
30.8939236226
  0
LINE
  8
0
 62
7
  6
CONTINUOUS
 10
369.8043479651
 20
31.3456152777
 11
369.8621602445
 21
31.2810879048
  0
LINE
  8
0
 62
7
  6
CONTINUOUS
 10
370.1512223035
 20
31.2810879048
 11
370.0355977445
 21
31.4101426505
  0
LINE
  8
0
 62
7
  6
CONTINUOUS
 10
363.4449727445
 20
31.2810879048
 11
363.5027853548
 21
31.3456152777
  0
LINE
  8
0
 62
7
  6
CONTINUOUS
 10
363.2715352445
 20
31.0229783683
 11
363.1559103548
 21
30.8939236226
  0
LINE
  8
0
 62
7
  6
CONTINUOUS
 10
364.6012229651
 20
30.8616599362
 11
364.543410024
 21
30.7971325633
  0
LINE
  8
0
 62
7
  6
CONTINUOUS
 10
364.543410024
 20
30.6035504109
 11
364.6012229651
 21
30.668077795
  0
LINE
  8
0
 62
7
  6
CONTINUOUS
 10
363.3871601343
 20
30.5712867188
 11
363.5027853548
 21
30.5390230296
  0
LINE
  8
0
 62
7
  6
CONTINUOUS
 10
360.3809101894
 20
31.4424063369
 11
360.1496602445
 21
31.5069337098
  0
LINE
  8
0
 62
7
  6
CONTINUOUS
 10
363.7340351343
 20
30.6358140973
 11
363.5027853548
 21
30.7003414814
  0
LINE
  8
0
 62
7
  6
CONTINUOUS
 10
362.4621603548
 20
31.4424063369
 11
362.2887228548
 21
31.5069337098
  0
LINE
  8
0
 62
7
  6
CONTINUOUS
 10
364.716847524
 20
31.4424063369
 11
364.543410024
 21
31.5069337098
  0
LINE
  8
0
 62
7
  6
CONTINUOUS
 10
367.3762229651
 20
31.3456152777
 11
367.491847524
 21
31.2810879048
  0
LINE
  8
0
 62
7
  6
CONTINUOUS
 10
367.7230979651
 20
31.3778789641
 11
367.6074727445
 21
31.4424063369
  0
LINE
  8
0
 62
7
  6
CONTINUOUS
 10
359.2246602583
 20
30.5712867188
 11
359.3980977583
 21
30.5390230296
  0
LINE
  8
0
 62
7
  6
CONTINUOUS
 10
359.6871602721
 20
30.6358140973
 11
359.3402852307
 21
30.7003414814
  0
LINE
  8
0
 62
7
  6
CONTINUOUS
 10
362.1152853548
 20
31.3778789641
 11
362.2309102445
 21
31.3456152777
  0
LINE
  8
0
 62
7
  6
CONTINUOUS
 10
364.4277854651
 20
31.3778789641
 11
364.543410024
 21
31.3456152777
  0
LINE
  8
0
 62
7
  6
CONTINUOUS
 10
368.7637229651
 20
30.668077795
 11
368.6480977445
 21
30.7003414814
  0
LINE
  8
0
 62
7
  6
CONTINUOUS
 10
367.2605977445
 20
31.3778789641
 11
367.3762229651
 21
31.3456152777
  0
LINE
  8
0
 62
7
  6
CONTINUOUS
 10
368.4168479651
 20
30.6358140973
 11
368.5902854651
 21
30.5712867188
  0
LINE
  8
0
 62
7
  6
CONTINUOUS
 10
367.6074727445
 20
31.4424063369
 11
367.4340352445
 21
31.5069337098
  0
LINE
  8
0
 62
7
  6
CONTINUOUS
 10
368.8215352445
 20
31.1520331591
 11
368.6480977445
 21
31.216560532
  0
LINE
  8
0
 62
7
  6
CONTINUOUS
 10
369.6309104651
 20
30.8939236226
 11
369.8043479651
 21
30.8293962497
  0
LINE
  8
0
 62
7
  6
CONTINUOUS
 10
370.0355977445
 20
31.4101426505
 11
369.8621602445
 21
31.4746700234
  0
LINE
  8
0
 62
7
  6
CONTINUOUS
 10
368.4168479651
 20
31.1520331591
 11
368.6480977445
 21
31.0552420547
  0
LINE
  8
0
 62
7
  6
CONTINUOUS
 10
370.0355977445
 20
30.8939236226
 11
369.8043479651
 21
30.9907146818
  0
LINE
  8
0
 62
7
  6
CONTINUOUS
 10
368.5902854651
 20
31.2810879048
 11
368.6480977445
 21
31.3456152777
  0
LINE
  8
0
 62
7
  6
CONTINUOUS
 10
359.0512227376
 20
31.4101426505
 11
358.9355977445
 21
31.3456152777
  0
LINE
  8
0
 62
7
  6
CONTINUOUS
 10
359.1668477307
 20
31.2488242184
 11
359.3402852307
 21
31.3456152777
  0
LINE
  8
0
 62
7
  6
CONTINUOUS
 10
361.4793477997
 20
31.4424063369
 11
361.3637227445
 21
31.3778789641
  0
LINE
  8
0
 62
7
  6
CONTINUOUS
 10
361.3637227445
 20
31.2488242184
 11
361.4793477997
 21
31.3133515913
  0
LINE
  8
0
 62
7
  6
CONTINUOUS
 10
360.3809101894
 20
30.6035504109
 11
360.5543476894
 21
30.7003414814
  0
LINE
  8
0
 62
7
  6
CONTINUOUS
 10
359.3980977583
 20
30.5390230296
 11
359.744972717
 21
30.5067593403
  0
LINE
  8
0
 62
7
  6
CONTINUOUS
 10
363.5027853548
 20
30.5390230296
 11
363.7340351343
 21
30.5067593403
  0
LINE
  8
0
 62
7
  6
CONTINUOUS
 10
361.8840352445
 20
31.4101426505
 11
362.1152853548
 21
31.3778789641
  0
LINE
  8
0
 62
7
  6
CONTINUOUS
 10
364.1965353548
 20
31.4101426505
 11
364.4277854651
 21
31.3778789641
  0
LINE
  8
0
 62
7
  6
CONTINUOUS
 10
368.6480977445
 20
31.0552420547
 11
369.6309104651
 21
30.8939236226
  0
LINE
  8
0
 62
7
  6
CONTINUOUS
 10
369.8043479651
 20
30.9907146818
 11
368.8215352445
 21
31.1520331591
  0
LINE
  8
0
 62
7
  6
CONTINUOUS
 10
362.2887228548
 20
31.5069337098
 11
362.1152853548
 21
31.5391973962
  0
LINE
  8
0
 62
7
  6
CONTINUOUS
 10
368.5902854651
 20
30.5712867188
 11
368.7637229651
 21
30.5390230296
  0
LINE
  8
0
 62
7
  6
CONTINUOUS
 10
367.4340352445
 20
31.5069337098
 11
367.2605977445
 21
31.5391973962
  0
LINE
  8
0
 62
7
  6
CONTINUOUS
 10
369.6887227445
 20
31.3778789641
 11
369.8043479651
 21
31.3456152777
  0
LINE
  8
0
 62
7
  6
CONTINUOUS
 10
369.8621602445
 20
30.7648688543
 11
369.8043479651
 21
30.7003414814
  0
LINE
  8
0
 62
7
  6
CONTINUOUS
 10
368.4168479651
 20
31.4424063369
 11
368.3012227445
 21
31.3456152777
  0
LINE
  8
0
 62
7
  6
CONTINUOUS
 10
363.3293478548
 20
31.4746700234
 11
363.2137226343
 21
31.4101426505
  0
LINE
  8
0
 62
7
  6
CONTINUOUS
 10
363.3871601343
 20
31.0875057863
 11
363.2715352445
 21
31.0229783683
  0
LINE
  8
0
 62
7
  6
CONTINUOUS
 10
363.5027853548
 20
30.926187309
 11
363.6184102445
 21
30.9907146818
  0
LINE
  8
0
 62
7
  6
CONTINUOUS
 10
361.0746601894
 20
30.5067593403
 11
361.3637227445
 21
30.5067593403
  0
LINE
  8
0
 62
7
  6
CONTINUOUS
 10
362.4043477445
 20
30.5067593403
 11
362.6934101343
 21
30.5067593403
  0
LINE
  8
0
 62
7
  6
CONTINUOUS
 10
363.7340351343
 20
30.5067593403
 11
364.0809101343
 21
30.5067593403
  0
LINE
  8
0
 62
7
  6
CONTINUOUS
 10
364.716847524
 20
30.5067593403
 11
365.0059102445
 21
30.5067593403
  0
LINE
  8
0
 62
7
  6
CONTINUOUS
 10
365.4684104651
 20
30.5067593403
 11
365.757472524
 21
30.5067593403
  0
LINE
  8
0
 62
7
  6
CONTINUOUS
 10
366.2199727445
 20
30.5067593403
 11
366.5090354651
 21
30.5067593403
  0
LINE
  8
0
 62
7
  6
CONTINUOUS
 10
367.5496604651
 20
30.5067593403
 11
367.838722524
 21
30.5067593403
  0
LINE
  8
0
 62
7
  6
CONTINUOUS
 10
369.1105979651
 20
30.5067593403
 11
369.4574729651
 21
30.5067593403
  0
LINE
  8
0
 62
7
  6
CONTINUOUS
 10
369.4574729651
 20
30.6358140973
 11
369.1105979651
 21
30.6358140973
  0
LINE
  8
0
 62
7
  6
CONTINUOUS
 10
364.0809101343
 20
30.6358140973
 11
363.7340351343
 21
30.6358140973
  0
LINE
  8
0
 62
7
  6
CONTINUOUS
 10
368.5902854651
 20
30.7648688543
 11
368.3012227445
 21
30.7648688543
  0
LINE
  8
0
 62
7
  6
CONTINUOUS
 10
360.6121602997
 20
30.8293962497
 11
360.3230977445
 21
30.8293962497
  0
LINE
  8
0
 62
7
  6
CONTINUOUS
 10
359.6871602721
 20
31.4101426505
 11
360.091847717
 21
31.3778789641
  0
LINE
  8
0
 62
7
  6
CONTINUOUS
 10
360.1496602445
 20
31.5069337098
 11
359.744972717
 21
31.5391973962
  0
LINE
  8
0
 62
7
  6
CONTINUOUS
 10
368.7637229651
 20
30.5390230296
 11
369.1105979651
 21
30.5067593403
  0
LINE
  8
0
 62
7
  6
CONTINUOUS
 10
369.1105979651
 20
30.6358140973
 11
368.7637229651
 21
30.668077795
  0
LINE
  8
0
 62
7
  6
CONTINUOUS
 10
364.543410024
 20
31.5069337098
 11
364.1965353548
 21
31.5391973962
  0
LINE
  8
0
 62
7
  6
CONTINUOUS
 10
369.3418477445
 20
31.4101426505
 11
369.6887227445
 21
31.3778789641
  0
LINE
  8
0
 62
7
  6
CONTINUOUS
 10
369.6887227445
 20
31.5069337098
 11
369.3418477445
 21
31.5391973962
  0
LINE
  8
0
 62
7
  6
CONTINUOUS
 10
367.0293479651
 20
31.4101426505
 11
367.2605977445
 21
31.3778789641
  0
LINE
  8
0
 62
7
  6
CONTINUOUS
 10
369.8621602445
 20
31.4746700234
 11
369.6887227445
 21
31.5069337098
  0
LINE
  8
0
 62
7
  6
CONTINUOUS
 10
370.0355977445
 20
30.6035504109
 11
370.1512223035
 21
30.7003414814
  0
LINE
  8
0
 62
7
  6
CONTINUOUS
 10
364.543410024
 20
30.7971325633
 11
364.369972524
 21
30.7003414814
  0
LINE
  8
0
 62
7
  6
CONTINUOUS
 10
366.624660024
 20
31.4424063369
 11
366.5090354651
 21
31.3778789641
  0
LINE
  8
0
 62
7
  6
CONTINUOUS
 10
366.5090354651
 20
31.2488242184
 11
366.624660024
 21
31.3133515913
  0
LINE
  8
0
 62
7
  6
CONTINUOUS
 10
359.2246602583
 20
31.4746700234
 11
359.0512227376
 21
31.4101426505
  0
LINE
  8
0
 62
7
  6
CONTINUOUS
 10
361.6527851343
 20
31.5069337098
 11
361.4793477997
 21
31.4424063369
  0
LINE
  8
0
 62
7
  6
CONTINUOUS
 10
361.4793477997
 20
31.3133515913
 11
361.6527851343
 21
31.3778789641
  0
LINE
  8
0
 62
7
  6
CONTINUOUS
 10
360.2652852997
 20
30.7326051679
 11
360.091847717
 21
30.668077795
  0
LINE
  8
0
 62
7
  6
CONTINUOUS
 10
369.6887227445
 20
30.668077795
 11
369.4574729651
 21
30.6358140973
  0
LINE
  8
0
 62
7
  6
CONTINUOUS
 10
364.0809101343
 20
30.5067593403
 11
364.369972524
 21
30.5390230296
  0
LINE
  8
0
 62
7
  6
CONTINUOUS
 10
369.4574729651
 20
30.5067593403
 11
369.8043479651
 21
30.5390230296
  0
LINE
  8
0
 62
7
  6
CONTINUOUS
 10
359.744972717
 20
30.5067593403
 11
360.1496602445
 21
30.5390230296
  0
LINE
  8
0
 62
7
  6
CONTINUOUS
 10
360.091847717
 20
30.668077795
 11
359.6871602721
 21
30.6358140973
  0
LINE
  8
0
 62
7
  6
CONTINUOUS
 10
363.9652852445
 20
31.0552420547
 11
364.6012229651
 21
31.0552420547
  0
LINE
  8
0
 62
7
  6
CONTINUOUS
 10
364.6012229651
 20
31.1842968456
 11
363.9652852445
 21
31.1842968456
  0
LINE
  8
0
 62
7
  6
CONTINUOUS
 10
360.3230977445
 20
31.216560532
 11
360.6121602997
 21
31.216560532
  0
LINE
  8
0
 62
7
  6
CONTINUOUS
 10
363.1559103548
 20
31.2810879048
 11
363.4449727445
 21
31.2810879048
  0
LINE
  8
0
 62
7
  6
CONTINUOUS
 10
369.8621602445
 20
31.2810879048
 11
370.1512223035
 21
31.2810879048
  0
LINE
  8
0
 62
7
  6
CONTINUOUS
 10
363.8496603548
 20
31.4101426505
 11
364.1965353548
 21
31.4101426505
  0
LINE
  8
0
 62
7
  6
CONTINUOUS
 10
368.9949727445
 20
31.4101426505
 11
369.3418477445
 21
31.4101426505
  0
LINE
  8
0
 62
7
  6
CONTINUOUS
 10
369.3418477445
 20
31.5391973962
 11
368.9949727445
 21
31.5391973962
  0
LINE
  8
0
 62
7
  6
CONTINUOUS
 10
367.2605977445
 20
31.5391973962
 11
367.0293479651
 21
31.5391973962
  0
LINE
  8
0
 62
7
  6
CONTINUOUS
 10
366.5090354651
 20
31.5391973962
 11
366.2199727445
 21
31.5391973962
  0
LINE
  8
0
 62
7
  6
CONTINUOUS
 10
365.757472524
 20
31.5391973962
 11
365.4684104651
 21
31.5391973962
  0
LINE
  8
0
 62
7
  6
CONTINUOUS
 10
364.1965353548
 20
31.5391973962
 11
363.8496603548
 21
31.5391973962
  0
LINE
  8
0
 62
7
  6
CONTINUOUS
 10
362.1152853548
 20
31.5391973962
 11
361.8840352445
 21
31.5391973962
  0
LINE
  8
0
 62
7
  6
CONTINUOUS
 10
365.4684104651
 20
31.8618343508
 11
365.757472524
 21
31.8618343508
  0
LINE
  8
0
 62
7
  6
CONTINUOUS
 10
365.757472524
 20
32.0231527829
 11
365.4684104651
 21
32.0231527829
  0
LINE
  8
0
 62
7
  6
CONTINUOUS
 10
361.3637227445
 20
32.0231527829
 11
361.0746601894
 21
32.0231527829
  0
LINE
  8
0
 62
7
  6
CONTINUOUS
 10
360.4015045068
 20
32.3100380288
 11
360.8140758554
 21
32.3100380288
  0
LINE
  8
0
 62
7
  6
CONTINUOUS
 10
362.0408487691
 20
32.3100380288
 11
363.4342913921
 21
32.3100380288
  0
LINE
  8
0
 62
7
  6
CONTINUOUS
 10
363.7621602445
 20
32.3100380288
 11
365.1556028675
 21
32.3100380288
  0
LINE
  8
0
 62
7
  6
CONTINUOUS
 10
367.0408487691
 20
32.3100380288
 11
368.4342913921
 21
32.3100380288
  0
LINE
  8
0
 62
7
  6
CONTINUOUS
 10
368.7621602445
 20
32.3100380288
 11
370.1556028675
 21
32.3100380288
  0
LINE
  8
0
 62
7
  6
CONTINUOUS
 10
366.798097524
 20
31.5069337098
 11
366.624660024
 21
31.4424063369
  0
LINE
  8
0
 62
7
  6
CONTINUOUS
 10
364.369972524
 20
30.5390230296
 11
364.543410024
 21
30.6035504109
  0
LINE
  8
0
 62
7
  6
CONTINUOUS
 10
369.8043479651
 20
30.5390230296
 11
370.0355977445
 21
30.6035504109
  0
LINE
  8
0
 62
7
  6
CONTINUOUS
 10
369.8043479651
 20
30.7003414814
 11
369.6887227445
 21
30.668077795
  0
LINE
  8
0
 62
7
  6
CONTINUOUS
 10
368.7637229651
 20
31.3778789641
 11
368.9949727445
 21
31.4101426505
  0
LINE
  8
0
 62
7
  6
CONTINUOUS
 10
366.798097524
 20
31.3778789641
 11
367.0293479651
 21
31.4101426505
  0
LINE
  8
0
 62
7
  6
CONTINUOUS
 10
363.7340351343
 20
31.0229783683
 11
363.9652852445
 21
31.0552420547
  0
LINE
  8
0
 62
7
  6
CONTINUOUS
 10
367.0293479651
 20
31.5391973962
 11
366.798097524
 21
31.5069337098
  0
LINE
  8
0
 62
7
  6
CONTINUOUS
 10
363.6184102445
 20
31.3778789641
 11
363.8496603548
 21
31.4101426505
  0
LINE
  8
0
 62
7
  6
CONTINUOUS
 10
368.9949727445
 20
31.5391973962
 11
368.6480977445
 21
31.5069337098
  0
LINE
  8
0
 62
7
  6
CONTINUOUS
 10
363.9652852445
 20
31.1842968456
 11
363.6184102445
 21
31.1520331591
  0
LINE
  8
0
 62
7
  6
CONTINUOUS
 10
359.744972717
 20
31.5391973962
 11
359.3980977583
 21
31.5069337098
  0
LINE
  8
0
 62
7
  6
CONTINUOUS
 10
363.8496603548
 20
31.5391973962
 11
363.4449727445
 21
31.5069337098
  0
LINE
  8
0
 62
7
  6
CONTINUOUS
 10
361.221176638
 20
33.4575790124
 11
360.565438933
 21
33.4575790124
  0
LINE
  8
0
 62
7
  6
CONTINUOUS
 10
366.624660024
 20
31.3133515913
 11
366.798097524
 21
31.3778789641
  0
LINE
  8
0
 62
7
  6
CONTINUOUS
 10
368.6480977445
 20
31.3456152777
 11
368.7637229651
 21
31.3778789641
  0
LINE
  8
0
 62
7
  6
CONTINUOUS
 10
368.6480977445
 20
31.5069337098
 11
368.4168479651
 21
31.4424063369
  0
LINE
  8
0
 62
7
  6
CONTINUOUS
 10
364.369972524
 20
30.7003414814
 11
364.0809101343
 21
30.6358140973
  0
LINE
  8
0
 62
7
  6
CONTINUOUS
 10
361.6527851343
 20
31.3778789641
 11
361.8840352445
 21
31.4101426505
  0
LINE
  8
0
 62
7
  6
CONTINUOUS
 10
361.8840352445
 20
31.5391973962
 11
361.6527851343
 21
31.5069337098
  0
LINE
  8
0
 62
7
  6
CONTINUOUS
 10
359.4559102445
 20
31.3778789641
 11
359.6871602721
 21
31.4101426505
  0
LINE
  8
0
 62
7
  6
CONTINUOUS
 10
365.9752749986
 20
34.9329888485
 11
366.6310127035
 21
34.9329888485
  0
LINE
  8
0
 62
7
  6
CONTINUOUS
 10
363.6184102445
 20
30.9907146818
 11
363.7340351343
 21
31.0229783683
  0
LINE
  8
0
 62
7
  6
CONTINUOUS
 10
363.6184102445
 20
31.1520331591
 11
363.3871601343
 21
31.0875057863
  0
LINE
  8
0
 62
7
  6
CONTINUOUS
 10
363.5027853548
 20
31.3456152777
 11
363.6184102445
 21
31.3778789641
  0
LINE
  8
0
 62
7
  6
CONTINUOUS
 10
360.1496602445
 20
30.5390230296
 11
360.3809101894
 21
30.6035504109
  0
LINE
  8
0
 62
7
  6
CONTINUOUS
 10
363.4449727445
 20
31.5069337098
 11
363.3293478548
 21
31.4746700234
  0
LINE
  8
0
 62
7
  6
CONTINUOUS
 10
359.3980977583
 20
31.5069337098
 11
359.2246602583
 21
31.4746700234
  0
LINE
  8
0
 62
7
  6
CONTINUOUS
 10
370.1556028675
 20
36.0805298321
 11
368.7621602445
 21
36.0805298321
  0
LINE
  8
0
 62
7
  6
CONTINUOUS
 10
366.7949471298
 20
36.0805298321
 11
366.3823757812
 21
36.0805298321
  0
LINE
  8
0
 62
7
  6
CONTINUOUS
 10
365.1556028675
 20
36.0805298321
 11
363.7621602445
 21
36.0805298321
  0
LINE
  8
0
 62
7
  6
CONTINUOUS
 10
363.4342913921
 20
36.0805298321
 11
362.0408487691
 21
36.0805298321
  0
LINE
  8
0
 62
7
  6
CONTINUOUS
 10
360.1556028675
 20
36.0805298321
 11
358.7621602445
 21
36.0805298321
  0
LINE
  8
0
 62
7
  6
CONTINUOUS
 10
359.3402852307
 20
31.3456152777
 11
359.4559102445
 21
31.3778789641
  0
CIRCLE
  8
0
 62
7
  6
CONTINUOUS
 10
369.458881556
 20
38.4165954059
 40
2.0901639344
  0
ARC
  8
0
 62
7
  6
CONTINUOUS
 10
360.4015045068
 20
33.9493822911
 40
1.6393442623
 50
180.0
 51
270.0
  0
ARC
  8
0
 62
7
  6
CONTINUOUS
 10
366.7949471298
 20
34.4411855698
 40
1.6393442623
 50
0.0
 51
90.0
  0
ARC
  8
0
 62
7
  6
CONTINUOUS
 10
360.8140758554
 20
33.7854478649
 40
1.4754098361
 50
270.0
 51
326.2510114041
  0
ARC
  8
0
 62
7
  6
CONTINUOUS
 10
366.3823757812
 20
34.6051199961
 40
1.4754098361
 50
90.0
 51
146.2510114041
  0
ARC
  8
0
 62
7
  6
CONTINUOUS
 10
361.221176638
 20
34.2772511436
 40
0.8196721311
 50
270.0
 51
360.0
  0
ARC
  8
0
 62
7
  6
CONTINUOUS
 10
365.9752749986
 20
34.1133167174
 40
0.8196721311
 50
90.0
 51
180.0
  0
ARC
  8
0
 62
7
  6
CONTINUOUS
 10
360.565438933
 20
33.867415078
 40
0.4098360656
 50
180.0
 51
270.0
  0
ARC
  8
0
 62
7
  6
CONTINUOUS
 10
366.6310127035
 20
34.5231527829
 40
0.4098360656
 50
0.0
 51
90.0
  0
SOLID
  8
0
 62
7
  6
CONTINUOUS
 10
365.4684104651
 20
31.8618347111
 11
365.4684104651
 21
32.0231531947
 12
365.757472524
 22
31.8618347111
 13
365.757472524
 23
32.0231531947
  0
SOLID
  8
0
 62
7
  6
CONTINUOUS
 10
359.744972717
 20
31.5391977439
 11
360.1496602445
 21
31.5069333244
 12
359.3980977583
 22
31.5069333244
 13
359.3980977583
 23
31.5069333244
  0
SOLID
  8
0
 62
7
  6
CONTINUOUS
 10
359.2246602583
 20
31.4746706537
 11
359.3980977583
 21
31.5069333244
 12
360.1496602445
 22
31.5069333244
 13
360.1496602445
 23
31.5069333244
  0
SOLID
  8
0
 62
7
  6
CONTINUOUS
 10
360.1496602445
 20
31.5069333244
 11
360.3809101894
 21
31.4424063504
 12
359.2246602583
 22
31.4746706537
 13
359.2246602583
 23
31.4746706537
  0
SOLID
  8
0
 62
7
  6
CONTINUOUS
 10
359.0512227376
 20
31.4101419116
 11
359.2246602583
 21
31.4746706537
 12
360.3809101894
 22
31.4424063504
 13
360.3809101894
 23
31.4424063504
  0
SOLID
  8
0
 62
7
  6
CONTINUOUS
 10
359.0512227376
 20
31.4101419116
 11
360.3809101894
 21
31.4424063504
 12
359.6871602721
 22
31.4101419116
 13
359.6871602721
 23
31.4101419116
  0
SOLID
  8
0
 62
7
  6
CONTINUOUS
 10
359.6871602721
 20
31.4101419116
 11
360.3809101894
 21
31.4424063504
 12
360.091847717
 22
31.3778792603
 13
360.091847717
 23
31.3778792603
  0
SOLID
  8
0
 62
7
  6
CONTINUOUS
 10
360.3809101894
 20
31.4424063504
 11
360.5543476894
 21
31.345614957
 12
360.091847717
 22
31.3778792603
 13
360.091847717
 23
31.3778792603
  0
SOLID
  8
0
 62
7
  6
CONTINUOUS
 10
360.2652852997
 20
31.3133521701
 11
360.091847717
 21
31.3778792603
 12
360.5543476894
 22
31.345614957
 13
360.5543476894
 23
31.345614957
  0
SOLID
  8
0
 62
7
  6
CONTINUOUS
 10
360.2652852997
 20
31.3133521701
 11
360.5543476894
 21
31.345614957
 12
360.3230977445
 22
31.2165606992
 13
360.3230977445
 23
31.2165606992
  0
SOLID
  8
0
 62
7
  6
CONTINUOUS
 10
360.5543476894
 20
31.345614957
 11
360.6121602997
 21
31.2165606992
 12
360.3230977445
 22
31.2165606992
 13
360.3230977445
 23
31.2165606992
  0
SOLID
  8
0
 62
7
  6
CONTINUOUS
 10
361.6527851343
 20
31.5069329918
 11
361.8840352445
 21
31.5391972951
 12
362.1152853548
 22
31.5391972951
 13
362.1152853548
 23
31.5391972951
  0
SOLID
  8
0
 62
7
  6
CONTINUOUS
 10
362.1152853548
 20
31.5391972951
 11
362.2887228548
 21
31.5069329918
 12
361.6527851343
 22
31.5069329918
 13
361.6527851343
 23
31.5069329918
  0
SOLID
  8
0
 62
7
  6
CONTINUOUS
 10
361.4793477997
 20
31.4424059016
 11
361.6527851343
 21
31.5069329918
 12
362.2887228548
 22
31.5069329918
 13
362.2887228548
 23
31.5069329918
  0
SOLID
  8
0
 62
7
  6
CONTINUOUS
 10
362.2887228548
 20
31.5069329918
 11
362.4621603548
 21
31.4424059016
 12
361.4793477997
 22
31.4424059016
 13
361.4793477997
 23
31.4424059016
  0
SOLID
  8
0
 62
7
  6
CONTINUOUS
 10
362.4621603548
 20
31.4424059016
 11
361.8840352445
 21
31.4101420472
 12
361.4793477997
 22
31.4424059016
 13
361.4793477997
 23
31.4424059016
  0
SOLID
  8
0
 62
7
  6
CONTINUOUS
 10
361.3637227445
 20
31.3778788115
 11
361.4793477997
 21
31.4424059016
 12
361.8840352445
 22
31.4101420472
 13
361.8840352445
 23
31.4101420472
  0
SOLID
  8
0
 62
7
  6
CONTINUOUS
 10
361.8840352445
 20
31.4101420472
 11
361.6527851343
 21
31.3778788115
 12
361.3637227445
 22
31.3778788115
 13
361.3637227445
 23
31.3778788115
  0
SOLID
  8
0
 62
7
  6
CONTINUOUS
 10
361.8840352445
 20
31.4101420472
 11
362.4621603548
 21
31.4424059016
 12
362.1152853548
 22
31.3778788115
 13
362.1152853548
 23
31.3778788115
  0
SOLID
  8
0
 62
7
  6
CONTINUOUS
 10
362.4621603548
 20
31.4424059016
 11
362.5777852445
 21
31.3778788115
 12
362.1152853548
 22
31.3778788115
 13
362.1152853548
 23
31.3778788115
  0
SOLID
  8
0
 62
7
  6
CONTINUOUS
 10
362.2309102445
 20
31.345614957
 11
362.1152853548
 21
31.3778788115
 12
362.5777852445
 22
31.3778788115
 13
362.5777852445
 23
31.3778788115
  0
SOLID
  8
0
 62
7
  6
CONTINUOUS
 10
362.5777852445
 20
31.3778788115
 11
362.6355978548
 21
31.3133517213
 12
362.2309102445
 22
31.345614957
 13
362.2309102445
 23
31.345614957
  0
SOLID
  8
0
 62
7
  6
CONTINUOUS
 10
362.3465351343
 20
31.2810878668
 11
362.2309102445
 21
31.345614957
 12
362.6355978548
 22
31.3133517213
 13
362.6355978548
 23
31.3133517213
  0
SOLID
  8
0
 62
7
  6
CONTINUOUS
 10
362.3465351343
 20
31.2810878668
 11
362.6355978548
 21
31.3133517213
 12
362.4043477445
 22
31.1520332377
 13
362.4043477445
 23
31.1520332377
  0
SOLID
  8
0
 62
7
  6
CONTINUOUS
 10
362.6355978548
 20
31.3133517213
 11
362.6934101343
 21
31.1520332377
 12
362.4043477445
 22
31.1520332377
 13
362.4043477445
 23
31.1520332377
  0
SOLID
  8
0
 62
7
  6
CONTINUOUS
 10
361.6527851343
 20
31.3778788115
 11
361.4793477997
 21
31.3133517213
 12
361.3637227445
 22
31.3778788115
 13
361.3637227445
 23
31.3778788115
  0
SOLID
  8
0
 62
7
  6
CONTINUOUS
 10
361.4793477997
 20
31.3133517213
 11
361.3637227445
 21
31.2488235635
 12
361.3637227445
 22
31.3778788115
 13
361.3637227445
 23
31.3778788115
  0
SOLID
  8
0
 62
7
  6
CONTINUOUS
 10
361.3637227445
 20
31.2488235635
 11
361.0746601894
 21
30.5067593033
 12
361.3637227445
 22
31.3778788115
 13
361.3637227445
 23
31.3778788115
  0
SOLID
  8
0
 62
7
  6
CONTINUOUS
 10
361.3637227445
 20
31.3778788115
 11
361.0746601894
 21
30.5067593033
 12
361.3637227445
 22
32.0231527459
 13
361.3637227445
 23
32.0231527459
  0
SOLID
  8
0
 62
7
  6
CONTINUOUS
 10
361.0746601894
 20
30.5067593033
 11
361.0746601894
 21
32.0231527459
 12
361.3637227445
 22
32.0231527459
 13
361.3637227445
 23
32.0231527459
  0
SOLID
  8
0
 62
7
  6
CONTINUOUS
 10
361.3637227445
 20
31.2488235635
 11
361.3637227445
 21
30.5067593033
 12
361.0746601894
 22
30.5067593033
 13
361.0746601894
 23
30.5067593033
  0
SOLID
  8
0
 62
7
  6
CONTINUOUS
 10
362.4043477445
 20
30.5067593033
 11
362.4043477445
 21
31.1520332377
 12
362.6934101343
 22
31.1520332377
 13
362.6934101343
 23
31.1520332377
  0
SOLID
  8
0
 62
7
  6
CONTINUOUS
 10
362.6934101343
 20
31.1520332377
 11
362.6934101343
 21
30.5067593033
 12
362.4043477445
 22
30.5067593033
 13
362.4043477445
 23
30.5067593033
  0
SOLID
  8
0
 62
7
  6
CONTINUOUS
 10
363.4449727445
 20
31.506933758
 11
363.8496603548
 21
31.5391977507
 12
364.1965353548
 22
31.5391977507
 13
364.1965353548
 23
31.5391977507
  0
SOLID
  8
0
 62
7
  6
CONTINUOUS
 10
364.1965353548
 20
31.5391977507
 11
364.543410024
 21
31.506933758
 12
363.4449727445
 22
31.506933758
 13
363.4449727445
 23
31.506933758
  0
SOLID
  8
0
 62
7
  6
CONTINUOUS
 10
363.3293478548
 20
31.4746706537
 11
363.4449727445
 21
31.506933758
 12
364.543410024
 22
31.506933758
 13
364.543410024
 23
31.506933758
  0
SOLID
  8
0
 62
7
  6
CONTINUOUS
 10
364.543410024
 20
31.506933758
 11
364.716847524
 21
31.4424063504
 12
363.3293478548
 22
31.4746706537
 13
363.3293478548
 23
31.4746706537
  0
SOLID
  8
0
 62
7
  6
CONTINUOUS
 10
363.2137226343
 20
31.4101417797
 11
363.3293478548
 21
31.4746706537
 12
364.716847524
 22
31.4424063504
 13
364.716847524
 23
31.4424063504
  0
SOLID
  8
0
 62
7
  6
CONTINUOUS
 10
363.2137226343
 20
31.4101417797
 11
364.716847524
 21
31.4424063504
 12
363.8496603548
 22
31.4101417797
 13
363.8496603548
 23
31.4101417797
  0
SOLID
  8
0
 62
7
  6
CONTINUOUS
 10
363.8496603548
 20
31.4101417797
 11
364.716847524
 21
31.4424063504
 12
364.1965353548
 22
31.4101417797
 13
364.1965353548
 23
31.4101417797
  0
SOLID
  8
0
 62
7
  6
CONTINUOUS
 10
364.1965353548
 20
31.4101417797
 11
364.716847524
 21
31.4424063504
 12
364.4277854651
 22
31.3778793357
 13
364.4277854651
 23
31.3778793357
  0
SOLID
  8
0
 62
7
  6
CONTINUOUS
 10
364.716847524
 20
31.4424063504
 11
364.8324727445
 21
31.3778793357
 12
364.4277854651
 22
31.3778793357
 13
364.4277854651
 23
31.3778793357
  0
SOLID
  8
0
 62
7
  6
CONTINUOUS
 10
363.1559103548
 20
31.3456153429
 11
363.2137226343
 21
31.4101417797
 12
363.8496603548
 22
31.4101417797
 13
363.8496603548
 23
31.4101417797
  0
SOLID
  8
0
 62
7
  6
CONTINUOUS
 10
364.543410024
 20
31.3456153429
 11
364.4277854651
 21
31.3778793357
 12
364.8324727445
 22
31.3778793357
 13
364.8324727445
 23
31.3778793357
  0
SOLID
  8
0
 62
7
  6
CONTINUOUS
 10
364.543410024
 20
31.3456153429
 11
364.8324727445
 21
31.3778793357
 12
364.6012229651
 22
31.2810881318
 13
364.6012229651
 23
31.2810881318
  0
SOLID
  8
0
 62
7
  6
CONTINUOUS
 10
364.8324727445
 20
31.3778793357
 11
364.890285024
 21
31.2810881318
 12
364.6012229651
 22
31.2810881318
 13
364.6012229651
 23
31.2810881318
  0
SOLID
  8
0
 62
7
  6
CONTINUOUS
 10
364.6012229651
 20
31.1842964734
 11
364.6012229651
 21
31.2810881318
 12
364.890285024
 22
31.2810881318
 13
364.890285024
 23
31.2810881318
  0
SOLID
  8
0
 62
7
  6
CONTINUOUS
 10
364.6012229651
 20
31.1842964734
 11
364.890285024
 21
31.2810881318
 12
364.6012229651
 22
31.0552422931
 13
364.6012229651
 23
31.0552422931
  0
SOLID
  8
0
 62
7
  6
CONTINUOUS
 10
364.6012229651
 20
31.0552422931
 11
364.890285024
 21
31.2810881318
 12
364.6012229651
 22
30.8616599362
 13
364.6012229651
 23
30.8616599362
  0
SOLID
  8
0
 62
7
  6
CONTINUOUS
 10
364.890285024
 20
31.2810881318
 11
364.890285024
 21
30.7648681127
 12
364.6012229651
 22
30.8616599362
 13
364.6012229651
 23
30.8616599362
  0
SOLID
  8
0
 62
7
  6
CONTINUOUS
 10
366.798097524
 20
31.5069339419
 11
367.0293479651
 21
31.5391976292
 12
367.2605977445
 22
31.5391976292
 13
367.2605977445
 23
31.5391976292
  0
SOLID
  8
0
 62
7
  6
CONTINUOUS
 10
367.2605977445
 20
31.5391976292
 11
367.4340352445
 21
31.5069339419
 12
366.798097524
 22
31.5069339419
 13
366.798097524
 23
31.5069339419
  0
SOLID
  8
0
 62
7
  6
CONTINUOUS
 10
366.624660024
 20
31.4424065674
 11
366.798097524
 21
31.5069339419
 12
367.4340352445
 22
31.5069339419
 13
367.4340352445
 23
31.5069339419
  0
SOLID
  8
0
 62
7
  6
CONTINUOUS
 10
367.4340352445
 20
31.5069339419
 11
367.6074727445
 21
31.4424065674
 12
366.624660024
 22
31.4424065674
 13
366.624660024
 23
31.4424065674
  0
SOLID
  8
0
 62
7
  6
CONTINUOUS
 10
367.6074727445
 20
31.4424065674
 11
367.0293479651
 21
31.4101420472
 12
366.624660024
 22
31.4424065674
 13
366.624660024
 23
31.4424065674
  0
SOLID
  8
0
 62
7
  6
CONTINUOUS
 10
366.5090354651
 20
31.377879193
 11
366.624660024
 21
31.4424065674
 12
367.0293479651
 22
31.4101420472
 13
367.0293479651
 23
31.4101420472
  0
SOLID
  8
0
 62
7
  6
CONTINUOUS
 10
367.0293479651
 20
31.4101420472
 11
366.798097524
 21
31.377879193
 12
366.5090354651
 22
31.377879193
 13
366.5090354651
 23
31.377879193
  0
SOLID
  8
0
 62
7
  6
CONTINUOUS
 10
367.0293479651
 20
31.4101420472
 11
367.6074727445
 21
31.4424065674
 12
367.2605977445
 22
31.377879193
 13
367.2605977445
 23
31.377879193
  0
SOLID
  8
0
 62
7
  6
CONTINUOUS
 10
367.6074727445
 20
31.4424065674
 11
367.7230979651
 21
31.377879193
 12
367.2605977445
 22
31.377879193
 13
367.2605977445
 23
31.377879193
  0
SOLID
  8
0
 62
7
  6
CONTINUOUS
 10
367.3762229651
 20
31.345614957
 11
367.2605977445
 21
31.377879193
 12
367.7230979651
 22
31.377879193
 13
367.7230979651
 23
31.377879193
  0
SOLID
  8
0
 62
7
  6
CONTINUOUS
 10
367.3762229651
 20
31.345614957
 11
367.7230979651
 21
31.377879193
 12
367.491847524
 22
31.2810881312
 13
367.491847524
 23
31.2810881312
  0
SOLID
  8
0
 62
7
  6
CONTINUOUS
 10
367.7230979651
 20
31.377879193
 11
367.7809102445
 21
31.2810881312
 12
367.491847524
 22
31.2810881312
 13
367.491847524
 23
31.2810881312
  0
SOLID
  8
0
 62
7
  6
CONTINUOUS
 10
367.5496604651
 20
31.119769695
 11
367.491847524
 21
31.2810881312
 12
367.7809102445
 22
31.2810881312
 13
367.7809102445
 23
31.2810881312
  0
SOLID
  8
0
 62
7
  6
CONTINUOUS
 10
367.7809102445
 20
31.2810881312
 11
367.838722524
 21
31.119769695
 12
367.5496604651
 22
31.119769695
 13
367.5496604651
 23
31.119769695
  0
SOLID
  8
0
 62
7
  6
CONTINUOUS
 10
366.798097524
 20
31.377879193
 11
366.624660024
 21
31.3133521701
 12
366.5090354651
 22
31.377879193
 13
366.5090354651
 23
31.377879193
  0
SOLID
  8
0
 62
7
  6
CONTINUOUS
 10
366.624660024
 20
31.3133521701
 11
366.5090354651
 21
31.2488235635
 12
366.5090354651
 22
31.377879193
 13
366.5090354651
 23
31.377879193
  0
SOLID
  8
0
 62
7
  6
CONTINUOUS
 10
366.5090354651
 20
31.2488235635
 11
366.2199727445
 21
30.5067596374
 12
366.5090354651
 22
31.377879193
 13
366.5090354651
 23
31.377879193
  0
SOLID
  8
0
 62
7
  6
CONTINUOUS
 10
366.5090354651
 20
31.377879193
 11
366.2199727445
 21
30.5067596374
 12
366.5090354651
 22
31.5391976292
 13
366.5090354651
 23
31.5391976292
  0
SOLID
  8
0
 62
7
  6
CONTINUOUS
 10
366.2199727445
 20
30.5067596374
 11
366.2199727445
 21
31.5391976292
 12
366.5090354651
 22
31.5391976292
 13
366.5090354651
 23
31.5391976292
  0
SOLID
  8
0
 62
7
  6
CONTINUOUS
 10
366.5090354651
 20
31.2488235635
 11
366.5090354651
 21
30.5067596374
 12
366.2199727445
 22
30.5067596374
 13
366.2199727445
 23
30.5067596374
  0
SOLID
  8
0
 62
7
  6
CONTINUOUS
 10
367.5496604651
 20
30.5067596374
 11
367.5496604651
 21
31.119769695
 12
367.838722524
 22
31.119769695
 13
367.838722524
 23
31.119769695
  0
SOLID
  8
0
 62
7
  6
CONTINUOUS
 10
367.838722524
 20
31.119769695
 11
367.838722524
 21
30.5067596374
 12
367.5496604651
 22
30.5067596374
 13
367.5496604651
 23
30.5067596374
  0
SOLID
  8
0
 62
7
  6
CONTINUOUS
 10
368.6480977445
 20
31.5069334157
 11
368.9949727445
 21
31.539197762
 12
369.3418477445
 22
31.539197762
 13
369.3418477445
 23
31.539197762
  0
SOLID
  8
0
 62
7
  6
CONTINUOUS
 10
369.3418477445
 20
31.539197762
 11
369.6887227445
 21
31.5069334157
 12
368.6480977445
 22
31.5069334157
 13
368.6480977445
 23
31.5069334157
  0
SOLID
  8
0
 62
7
  6
CONTINUOUS
 10
368.4168479651
 20
31.4424063504
 11
368.6480977445
 21
31.5069334157
 12
369.6887227445
 22
31.5069334157
 13
369.6887227445
 23
31.5069334157
  0
SOLID
  8
0
 62
7
  6
CONTINUOUS
 10
368.4168479651
 20
31.4424063504
 11
369.6887227445
 21
31.5069334406
 12
369.8621602445
 22
31.4746706537
 13
369.8621602445
 23
31.4746706537
  0
SOLID
  8
0
 62
7
  6
CONTINUOUS
 10
368.4168479651
 20
31.4424063504
 11
369.8621602445
 21
31.4746706537
 12
368.9949727445
 22
31.4101421267
 13
368.9949727445
 23
31.4101421267
  0
SOLID
  8
0
 62
7
  6
CONTINUOUS
 10
368.9949727445
 20
31.4101421267
 11
369.8621602445
 21
31.4746706537
 12
369.3418477445
 22
31.4101421267
 13
369.3418477445
 23
31.4101421267
  0
SOLID
  8
0
 62
7
  6
CONTINUOUS
 10
369.8621602445
 20
31.4746706537
 11
370.0355977445
 21
31.4101421267
 12
369.3418477445
 22
31.4101421267
 13
369.3418477445
 23
31.4101421267
  0
SOLID
  8
0
 62
7
  6
CONTINUOUS
 10
369.6887227445
 20
31.3778792603
 11
369.3418477445
 21
31.4101421267
 12
370.0355977445
 22
31.4101421267
 13
370.0355977445
 23
31.4101421267
  0
SOLID
  8
0
 62
7
  6
CONTINUOUS
 10
368.3012227445
 20
31.3456148845
 11
368.4168479651
 21
31.4424063504
 12
368.9949727445
 22
31.4101421267
 13
368.9949727445
 23
31.4101421267
  0
SOLID
  8
0
 62
7
  6
CONTINUOUS
 10
369.6887227445
 20
31.3778792603
 11
370.0355977445
 21
31.4101421267
 12
369.8043479651
 22
31.3456148845
 13
369.8043479651
 23
31.3456148845
  0
SOLID
  8
0
 62
7
  6
CONTINUOUS
 10
369.8043479651
 20
31.3456148845
 11
370.0355977445
 21
31.4101421267
 12
369.8621602445
 22
31.281087868
 13
369.8621602445
 23
31.281087868
  0
SOLID
  8
0
 62
7
  6
CONTINUOUS
 10
370.0355977445
 20
31.4101421267
 11
370.1512223035
 21
31.281087868
 12
369.8621602445
 22
31.281087868
 13
369.8621602445
 23
31.281087868
  0
SOLID
  8
0
 62
7
  6
CONTINUOUS
 10
359.4559102445
 20
31.3778792603
 11
358.9355977445
 21
31.3456148963
 12
359.6871602721
 22
31.4101421155
 13
359.6871602721
 23
31.4101421155
  0
SOLID
  8
0
 62
7
  6
CONTINUOUS
 10
358.9355977445
 20
31.3456148963
 11
359.0512227376
 21
31.4101421155
 12
359.6871602721
 22
31.4101421155
 13
359.6871602721
 23
31.4101421155
  0
SOLID
  8
0
 62
7
  6
CONTINUOUS
 10
359.4559102445
 20
31.3778792603
 11
359.3402852307
 21
31.3456148963
 12
358.9355977445
 22
31.3456148963
 13
358.9355977445
 23
31.3456148963
  0
SOLID
  8
0
 62
7
  6
CONTINUOUS
 10
358.8199727462
 20
31.2165607767
 11
358.9355977445
 21
31.3456148963
 12
359.3402852307
 22
31.3456148963
 13
359.3402852307
 23
31.3456148963
  0
SOLID
  8
0
 62
7
  6
CONTINUOUS
 10
363.1559103548
 20
31.3456149608
 11
363.8496603548
 21
31.4101420472
 12
363.6184102445
 22
31.3778792603
 13
363.6184102445
 23
31.3778792603
  0
SOLID
  8
0
 62
7
  6
CONTINUOUS
 10
363.6184102445
 20
31.3778792603
 11
363.5027853548
 21
31.3456149608
 12
363.1559103548
 22
31.3456149608
 13
363.1559103548
 23
31.3456149608
  0
SOLID
  8
0
 62
7
  6
CONTINUOUS
 10
363.1559103548
 20
31.2810878707
 11
363.1559103548
 21
31.3456149608
 12
363.5027853548
 22
31.3456149608
 13
363.5027853548
 23
31.3456149608
  0
SOLID
  8
0
 62
7
  6
CONTINUOUS
 10
363.5027853548
 20
31.3456149608
 11
363.4449727445
 21
31.2810878707
 12
363.1559103548
 22
31.2810878707
 13
363.1559103548
 23
31.2810878707
  0
SOLID
  8
0
 62
7
  6
CONTINUOUS
 10
368.3012227445
 20
31.3456149608
 11
368.9949727445
 21
31.4101420472
 12
368.7637229651
 22
31.3778792603
 13
368.7637229651
 23
31.3778792603
  0
SOLID
  8
0
 62
7
  6
CONTINUOUS
 10
368.7637229651
 20
31.3778792603
 11
368.6480977445
 21
31.3456149608
 12
368.3012227445
 22
31.3456149608
 13
368.3012227445
 23
31.3456149608
  0
SOLID
  8
0
 62
7
  6
CONTINUOUS
 10
368.3012227445
 20
31.2810878707
 11
368.3012227445
 21
31.3456149608
 12
368.6480977445
 22
31.3456149608
 13
368.6480977445
 23
31.3456149608
  0
SOLID
  8
0
 62
7
  6
CONTINUOUS
 10
368.6480977445
 20
31.3456149608
 11
368.5902854651
 21
31.2810878707
 12
368.3012227445
 22
31.2810878707
 13
368.3012227445
 23
31.2810878707
  0
SOLID
  8
0
 62
7
  6
CONTINUOUS
 10
368.4168479651
 20
31.1520336865
 11
368.3012227445
 21
31.2810878707
 12
368.5902854651
 22
31.2810878707
 13
368.5902854651
 23
31.2810878707
  0
SOLID
  8
0
 62
7
  6
CONTINUOUS
 10
358.8199727462
 20
31.2165607767
 11
359.3402852307
 21
31.345614957
 12
359.1668477307
 22
31.2488235635
 13
359.1668477307
 23
31.2488235635
  0
SOLID
  8
0
 62
7
  6
CONTINUOUS
 10
359.1668477307
 20
31.2488235635
 11
359.1090352445
 21
31.1842964734
 12
358.8199727462
 22
31.2165607767
 13
358.8199727462
 23
31.2165607767
  0
SOLID
  8
0
 62
7
  6
CONTINUOUS
 10
358.7621602445
 20
31.0229779898
 11
358.8199727462
 21
31.2165607767
 12
359.1090352445
 22
31.1842964734
 13
359.1090352445
 23
31.1842964734
  0
SOLID
  8
0
 62
7
  6
CONTINUOUS
 10
363.6184102445
 20
31.1520336865
 11
363.9652852445
 21
31.1842964611
 12
364.6012229651
 22
31.1842964611
 13
364.6012229651
 23
31.1842964611
  0
SOLID
  8
0
 62
7
  6
CONTINUOUS
 10
363.6184102445
 20
31.1520336865
 11
364.6012229651
 21
31.1842964611
 12
363.3871601343
 22
31.0875057863
 13
363.3871601343
 23
31.0875057863
  0
SOLID
  8
0
 62
7
  6
CONTINUOUS
 10
363.3871601343
 20
31.0875057863
 11
364.6012229651
 21
31.1842964611
 12
363.9652852445
 22
31.0552422808
 13
363.9652852445
 23
31.0552422808
  0
SOLID
  8
0
 62
7
  6
CONTINUOUS
 10
364.6012229651
 20
31.1842964611
 11
364.6012229651
 21
31.0552422808
 12
363.9652852445
 22
31.0552422808
 13
363.9652852445
 23
31.0552422808
  0
SOLID
  8
0
 62
7
  6
CONTINUOUS
 10
368.4168479651
 20
31.1520338754
 11
368.5902854651
 21
31.2810878668
 12
368.6480977445
 22
31.2165607767
 13
368.6480977445
 23
31.2165607767
  0
SOLID
  8
0
 62
7
  6
CONTINUOUS
 10
368.6480977445
 20
31.2165607767
 11
368.8215352445
 21
31.1520338754
 12
368.4168479651
 22
31.1520338754
 13
368.4168479651
 23
31.1520338754
  0
SOLID
  8
0
 62
7
  6
CONTINUOUS
 10
368.6480977445
 20
31.0552422931
 11
368.4168479651
 21
31.1520338754
 12
368.8215352445
 22
31.1520338754
 13
368.8215352445
 23
31.1520338754
  0
SOLID
  8
0
 62
7
  6
CONTINUOUS
 10
368.8215352445
 20
31.1520338754
 11
369.8043479651
 21
30.9907152029
 12
368.6480977445
 22
31.0552422931
 13
368.6480977445
 23
31.0552422931
  0
SOLID
  8
0
 62
7
  6
CONTINUOUS
 10
369.6309104651
 20
30.8939239876
 11
368.6480977445
 21
31.0552422931
 12
369.8043479651
 22
30.9907152029
 13
369.8043479651
 23
30.9907152029
  0
SOLID
  8
0
 62
7
  6
CONTINUOUS
 10
369.8043479651
 20
30.9907152029
 11
370.0355977445
 21
30.8939239876
 12
369.6309104651
 22
30.8939239876
 13
369.6309104651
 23
30.8939239876
  0
SOLID
  8
0
 62
7
  6
CONTINUOUS
 10
369.8043479651
 20
30.8293967193
 11
369.6309104651
 21
30.8939239876
 12
370.0355977445
 22
30.8939239876
 13
370.0355977445
 23
30.8939239876
  0
SOLID
  8
0
 62
7
  6
CONTINUOUS
 10
369.8043479651
 20
30.8293967193
 11
370.0355977445
 21
30.8939239876
 12
369.8621602445
 22
30.7648682694
 13
369.8621602445
 23
30.7648682694
  0
SOLID
  8
0
 62
7
  6
CONTINUOUS
 10
370.0355977445
 20
30.8939239876
 11
370.1512223035
 21
30.7648682694
 12
369.8621602445
 22
30.7648682694
 13
369.8621602445
 23
30.7648682694
  0
SOLID
  8
0
 62
7
  6
CONTINUOUS
 10
369.8043479651
 20
30.7003411846
 11
369.8621602445
 21
30.7648682694
 12
370.1512223035
 22
30.7648682694
 13
370.1512223035
 23
30.7648682694
  0
SOLID
  8
0
 62
7
  6
CONTINUOUS
 10
370.1512223035
 20
30.7648682694
 11
370.1512223035
 21
30.7003411846
 12
369.8043479651
 22
30.7003411846
 13
369.8043479651
 23
30.7003411846
  0
SOLID
  8
0
 62
7
  6
CONTINUOUS
 10
369.6887227445
 20
30.6680782357
 11
369.8043479651
 21
30.7003411846
 12
370.1512223035
 22
30.7003411846
 13
370.1512223035
 23
30.7003411846
  0
SOLID
  8
0
 62
7
  6
CONTINUOUS
 10
369.6887227445
 20
30.6680782357
 11
370.1512223035
 21
30.7003411846
 12
369.4574729651
 22
30.6358140998
 13
369.4574729651
 23
30.6358140998
  0
SOLID
  8
0
 62
7
  6
CONTINUOUS
 10
370.1512223035
 20
30.7003411846
 11
370.0355977445
 21
30.6035511455
 12
369.4574729651
 22
30.6358140998
 13
369.4574729651
 23
30.6358140998
  0
SOLID
  8
0
 62
7
  6
CONTINUOUS
 10
370.0355977445
 20
30.6035511455
 11
368.5902854651
 21
30.5712868422
 12
369.4574729651
 22
30.6358140998
 13
369.4574729651
 23
30.6358140998
  0
SOLID
  8
0
 62
7
  6
CONTINUOUS
 10
369.4574729651
 20
30.6358140998
 11
368.5902854651
 21
30.5712868422
 12
369.1105979651
 22
30.6358140998
 13
369.1105979651
 23
30.6358140998
  0
SOLID
  8
0
 62
7
  6
CONTINUOUS
 10
368.5902854651
 20
30.5712868422
 11
368.4168479651
 21
30.6358140998
 12
369.1105979651
 22
30.6358140998
 13
369.1105979651
 23
30.6358140998
  0
SOLID
  8
0
 62
7
  6
CONTINUOUS
 10
368.5902854651
 20
30.5712868422
 11
370.0355977445
 21
30.6035511455
 12
368.7637229651
 22
30.5390223111
 13
368.7637229651
 23
30.5390223111
  0
SOLID
  8
0
 62
7
  6
CONTINUOUS
 10
370.0355977445
 20
30.6035511455
 11
369.8043479651
 21
30.5390223111
 12
368.7637229651
 22
30.5390223111
 13
368.7637229651
 23
30.5390223111
  0
SOLID
  8
0
 62
7
  6
CONTINUOUS
 10
369.1105979651
 20
30.5067599302
 11
368.7637229651
 21
30.5390223111
 12
369.8043479651
 22
30.5390223111
 13
369.8043479651
 23
30.5390223111
  0
SOLID
  8
0
 62
7
  6
CONTINUOUS
 10
369.8043479651
 20
30.5390223111
 11
369.4574729651
 21
30.5067599302
 12
369.1105979651
 22
30.5067599302
 13
369.1105979651
 23
30.5067599302
  0
SOLID
  8
0
 62
7
  6
CONTINUOUS
 10
358.7621602445
 20
31.0229779898
 11
359.1090352445
 21
31.1842964734
 12
359.0512227376
 22
31.0552422931
 13
359.0512227376
 23
31.0552422931
  0
SOLID
  8
0
 62
7
  6
CONTINUOUS
 10
359.0512227376
 20
31.0552422931
 11
359.0512227376
 21
30.9584509954
 12
358.7621602445
 22
31.0229779898
 13
358.7621602445
 23
31.0229779898
  0
SOLID
  8
0
 62
7
  6
CONTINUOUS
 10
358.8199727462
 20
30.8293967193
 11
358.7621602445
 21
31.0229779898
 12
359.0512227376
 22
30.9584509954
 13
359.0512227376
 23
30.9584509954
  0
SOLID
  8
0
 62
7
  6
CONTINUOUS
 10
359.0512227376
 20
30.9584509954
 11
359.1668477307
 21
30.797132416
 12
358.8199727462
 22
30.8293967193
 13
358.8199727462
 23
30.8293967193
  0
SOLID
  8
0
 62
7
  6
CONTINUOUS
 10
358.9355977445
 20
30.7003413087
 11
358.8199727462
 21
30.8293967193
 12
359.1668477307
 22
30.797132416
 13
359.1668477307
 23
30.797132416
  0
SOLID
  8
0
 62
7
  6
CONTINUOUS
 10
359.1668477307
 20
30.797132416
 11
359.3402852307
 21
30.7003413087
 12
358.9355977445
 22
30.7003413087
 13
358.9355977445
 23
30.7003413087
  0
SOLID
  8
0
 62
7
  6
CONTINUOUS
 10
359.0512227376
 20
30.6358140759
 11
358.9355977445
 21
30.7003413087
 12
359.3402852307
 22
30.7003413087
 13
359.3402852307
 23
30.7003413087
  0
SOLID
  8
0
 62
7
  6
CONTINUOUS
 10
359.3402852307
 20
30.7003413087
 11
359.6871602721
 21
30.6358140759
 12
359.0512227376
 22
30.6358140759
 13
359.0512227376
 23
30.6358140759
  0
SOLID
  8
0
 62
7
  6
CONTINUOUS
 10
359.2246602583
 20
30.5712868422
 11
359.0512227376
 21
30.6358140759
 12
359.6871602721
 22
30.6358140759
 13
359.6871602721
 23
30.6358140759
  0
SOLID
  8
0
 62
7
  6
CONTINUOUS
 10
363.2715352445
 20
31.0229779808
 11
363.3871601343
 21
31.0875057863
 12
363.9652852445
 22
31.0552422931
 13
363.9652852445
 23
31.0552422931
  0
SOLID
  8
0
 62
7
  6
CONTINUOUS
 10
363.9652852445
 20
31.0552422931
 11
363.7340351343
 21
31.0229779808
 12
363.2715352445
 22
31.0229779808
 13
363.2715352445
 23
31.0229779808
  0
SOLID
  8
0
 62
7
  6
CONTINUOUS
 10
363.1559103548
 20
30.8939238094
 11
363.2715352445
 21
31.0229779808
 12
363.7340351343
 22
31.0229779808
 13
363.7340351343
 23
31.0229779808
  0
SOLID
  8
0
 62
7
  6
CONTINUOUS
 10
363.5027853548
 20
30.926187309
 11
363.1559103548
 21
30.8939238094
 12
363.6184102445
 22
30.9907152029
 13
363.6184102445
 23
30.9907152029
  0
SOLID
  8
0
 62
7
  6
CONTINUOUS
 10
363.1559103548
 20
30.8939238094
 11
363.7340351343
 21
31.0229779898
 12
363.6184102445
 22
30.9907152029
 13
363.6184102445
 23
30.9907152029
  0
SOLID
  8
0
 62
7
  6
CONTINUOUS
 10
363.5027853548
 20
30.926187309
 11
363.4449727445
 21
30.8293967193
 12
363.1559103548
 22
30.8939238094
 13
363.1559103548
 23
30.8939238094
  0
SOLID
  8
0
 62
7
  6
CONTINUOUS
 10
363.1559103548
 20
30.797132416
 11
363.1559103548
 21
30.8939238094
 12
363.4449727445
 22
30.8293967193
 13
363.4449727445
 23
30.8293967193
  0
SOLID
  8
0
 62
7
  6
CONTINUOUS
 10
363.4449727445
 20
30.8293967193
 11
363.4449727445
 21
30.7648681127
 12
363.1559103548
 22
30.797132416
 13
363.1559103548
 23
30.797132416
  0
SOLID
  8
0
 62
7
  6
CONTINUOUS
 10
363.2137226343
 20
30.6680782357
 11
363.1559103548
 21
30.797132416
 12
363.4449727445
 22
30.7648681127
 13
363.4449727445
 23
30.7648681127
  0
SOLID
  8
0
 62
7
  6
CONTINUOUS
 10
364.6012229651
 20
30.8616599362
 11
364.890285024
 21
30.7648681127
 12
364.543410024
 22
30.797132416
 13
364.543410024
 23
30.797132416
  0
SOLID
  8
0
 62
7
  6
CONTINUOUS
 10
364.369972524
 20
30.7003410226
 11
364.543410024
 21
30.797132416
 12
364.890285024
 22
30.7648681127
 13
364.890285024
 23
30.7648681127
  0
SOLID
  8
0
 62
7
  6
CONTINUOUS
 10
364.369972524
 20
30.7003410226
 11
364.890285024
 21
30.7648681127
 12
364.6012229651
 22
30.6680782357
 13
364.6012229651
 23
30.6680782357
  0
SOLID
  8
0
 62
7
  6
CONTINUOUS
 10
364.890285024
 20
30.7648681127
 11
364.9480979651
 21
30.6035511455
 12
364.6012229651
 22
30.6680782357
 13
364.6012229651
 23
30.6680782357
  0
SOLID
  8
0
 62
7
  6
CONTINUOUS
 10
364.6590352445
 20
30.5712868422
 11
364.6012229651
 21
30.6680782357
 12
364.9480979651
 22
30.6035511455
 13
364.9480979651
 23
30.6035511455
  0
SOLID
  8
0
 62
7
  6
CONTINUOUS
 10
364.6590352445
 20
30.5712868422
 11
364.9480979651
 21
30.6035511455
 12
364.716847524
 22
30.5067598731
 13
364.716847524
 23
30.5067598731
  0
SOLID
  8
0
 62
7
  6
CONTINUOUS
 10
364.9480979651
 20
30.6035511455
 11
365.0059102445
 21
30.5067598731
 12
364.716847524
 22
30.5067598731
 13
364.716847524
 23
30.5067598731
  0
SOLID
  8
0
 62
7
  6
CONTINUOUS
 10
360.2652852997
 20
30.7326051679
 11
360.3230977445
 21
30.8293966612
 12
360.6121602997
 22
30.8293966612
 13
360.6121602997
 23
30.8293966612
  0
SOLID
  8
0
 62
7
  6
CONTINUOUS
 10
360.6121602997
 20
30.8293966612
 11
360.5543476894
 21
30.7003410226
 12
360.2652852997
 22
30.7326051679
 13
360.2652852997
 23
30.7326051679
  0
SOLID
  8
0
 62
7
  6
CONTINUOUS
 10
360.091847717
 20
30.6680782357
 11
360.2652852997
 21
30.7326051679
 12
360.5543476894
 22
30.7003410226
 13
360.5543476894
 23
30.7003410226
  0
SOLID
  8
0
 62
7
  6
CONTINUOUS
 10
360.091847717
 20
30.6680782357
 11
360.5543476894
 21
30.7003410226
 12
359.6871602721
 22
30.6358139324
 13
359.6871602721
 23
30.6358139324
  0
SOLID
  8
0
 62
7
  6
CONTINUOUS
 10
360.5543476894
 20
30.7003410226
 11
360.3809101894
 21
30.6035511455
 12
359.6871602721
 22
30.6358139324
 13
359.6871602721
 23
30.6358139324
  0
SOLID
  8
0
 62
7
  6
CONTINUOUS
 10
359.2246602583
 20
30.5712868422
 11
359.6871602721
 21
30.6358139324
 12
360.3809101894
 22
30.6035511455
 13
360.3809101894
 23
30.6035511455
  0
SOLID
  8
0
 62
7
  6
CONTINUOUS
 10
359.2246602583
 20
30.5712868422
 11
360.3809101894
 21
30.6035511455
 12
359.3980977583
 22
30.5390224228
 13
359.3980977583
 23
30.5390224228
  0
SOLID
  8
0
 62
7
  6
CONTINUOUS
 10
360.3809101894
 20
30.6035511455
 11
360.1496602445
 21
30.5390224228
 12
359.3980977583
 22
30.5390224228
 13
359.3980977583
 23
30.5390224228
  0
SOLID
  8
0
 62
7
  6
CONTINUOUS
 10
359.744972717
 20
30.5067597521
 11
359.3980977583
 21
30.5390224228
 12
360.1496602445
 22
30.5390224228
 13
360.1496602445
 23
30.5390224228
  0
SOLID
  8
0
 62
7
  6
CONTINUOUS
 10
363.2137226343
 20
30.6680782357
 11
363.4449727445
 21
30.7648681127
 12
363.5027853548
 22
30.7003410226
 13
363.5027853548
 23
30.7003410226
  0
SOLID
  8
0
 62
7
  6
CONTINUOUS
 10
363.5027853548
 20
30.7003410226
 11
363.7340351343
 21
30.6358139324
 12
363.2137226343
 22
30.6680782357
 13
363.2137226343
 23
30.6680782357
  0
SOLID
  8
0
 62
7
  6
CONTINUOUS
 10
363.3871601343
 20
30.5712868422
 11
363.2137226343
 21
30.6680782357
 12
363.7340351343
 22
30.6358139324
 13
363.7340351343
 23
30.6358139324
  0
SOLID
  8
0
 62
7
  6
CONTINUOUS
 10
364.0809101343
 20
30.6358139363
 11
364.369972524
 21
30.7003410226
 12
364.6012229651
 22
30.6680782357
 13
364.6012229651
 23
30.6680782357
  0
SOLID
  8
0
 62
7
  6
CONTINUOUS
 10
364.6012229651
 20
30.6680782357
 11
364.543410024
 21
30.6035511455
 12
364.0809101343
 22
30.6358139363
 13
364.0809101343
 23
30.6358139363
  0
SOLID
  8
0
 62
7
  6
CONTINUOUS
 10
364.543410024
 20
30.6035511455
 11
363.3871601343
 21
30.5712868422
 12
364.0809101343
 22
30.6358139363
 13
364.0809101343
 23
30.6358139363
  0
SOLID
  8
0
 62
7
  6
CONTINUOUS
 10
363.3871601343
 20
30.5712868422
 11
363.7340351343
 21
30.6358139363
 12
364.0809101343
 22
30.6358139363
 13
364.0809101343
 23
30.6358139363
  0
SOLID
  8
0
 62
7
  6
CONTINUOUS
 10
363.3871601343
 20
30.5712868422
 11
364.543410024
 21
30.6035511455
 12
363.5027853548
 22
30.5390225267
 13
363.5027853548
 23
30.5390225267
  0
SOLID
  8
0
 62
7
  6
CONTINUOUS
 10
364.543410024
 20
30.6035511455
 11
364.369972524
 21
30.5390225267
 12
363.5027853548
 22
30.5390225267
 13
363.5027853548
 23
30.5390225267
  0
SOLID
  8
0
 62
7
  6
CONTINUOUS
 10
363.7340351343
 20
30.5067596914
 11
363.5027853548
 21
30.5390225267
 12
364.369972524
 22
30.5390225267
 13
364.369972524
 23
30.5390225267
  0
SOLID
  8
0
 62
7
  6
CONTINUOUS
 10
364.369972524
 20
30.5390225267
 11
364.0809101343
 21
30.5067596914
 12
363.7340351343
 22
30.5067596914
 13
363.7340351343
 23
30.5067596914
  0
SOLID
  8
0
 62
7
  6
CONTINUOUS
 10
368.7637229651
 20
30.6680782357
 11
368.4168479651
 21
30.6358138717
 12
368.6480977445
 22
30.7003410226
 13
368.6480977445
 23
30.7003410226
  0
SOLID
  8
0
 62
7
  6
CONTINUOUS
 10
368.6480977445
 20
30.7003410226
 11
368.4168479651
 21
30.6358138717
 12
368.5902854651
 22
30.7648680521
 13
368.5902854651
 23
30.7648680521
  0
SOLID
  8
0
 62
7
  6
CONTINUOUS
 10
368.4168479651
 20
30.6358138717
 11
368.3012227445
 21
30.7648680521
 12
368.5902854651
 22
30.7648680521
 13
368.5902854651
 23
30.7648680521
  0
SOLID
  8
0
 62
7
  6
CONTINUOUS
 10
368.7637229651
 20
30.6680782357
 11
369.1105979651
 21
30.6358138717
 12
368.4168479651
 22
30.6358138717
 13
368.4168479651
 23
30.6358138717
  0
SOLID
  8
0
 62
7
  6
CONTINUOUS
 10
365.4684104651
 20
30.5067597521
 11
365.4684104651
 21
31.5391977439
 12
365.757472524
 22
30.5067597521
 13
365.757472524
 23
31.5391977439
  0
ENDBLK
  8
0
  6
BYBLOCK
 62
0
  0
BLOCK
  8
0
 62
2
  6
CONTINUOUS
  2
SYMBOL_0_BL0
 70
64
 10
240.8592468615
 20
19.762288695
  0
TEXT
  8
0
 62
7
  6
CONTINUOUS
 10
227.1239507038
 20
19.1357028027
  7
TEXTSTYLE_3
 40
2.7338706658
  1
Ammeraal Beltech
 41
1.0
 51
15.0
 72
0
  0
TEXT
  8
0
 62
7
  6
CONTINUOUS
 10
237.9247515296
 20
16.8621661299
  7
TEXTSTYLE_4
 40
1.0935482663
  1
Innovation & Service in Belting
 41
1.0
 72
0
  0
LINE
  8
0
 62
7
  6
CONTINUOUS
 10
221.0994100525
 20
19.9022961113
 11
221.8775620458
 21
23.5632134089
  0
LINE
  8
0
 62
7
  6
CONTINUOUS
 10
231.9727303357
 20
27.2266073205
 11
222.3653797889
 21
24.1049898993
  0
LINE
  8
0
 62
7
  6
CONTINUOUS
 10
221.3246933848
 20
19.2089453082
 11
228.8317686459
 21
12.4495443822
  0
LINE
  8
0
 62
7
  6
CONTINUOUS
 10
221.5872277955
 20
20.4440726016
 11
232.3954971607
 21
23.9558922005
  0
LINE
  8
0
 62
7
  6
CONTINUOUS
 10
232.3912920235
 20
13.6061036368
 11
223.9458323548
 21
21.2104296785
  0
LINE
  8
0
 62
7
  6
CONTINUOUS
 10
232.9111147433
 20
26.3816822048
 11
231.9345552061
 21
21.7873308023
  0
LINE
  8
0
 62
7
  6
CONTINUOUS
 10
231.2347532584
 20
18.4950214885
 11
230.5483050469
 21
15.2655365641
  0
LINE
  8
0
 62
7
  6
CONTINUOUS
 10
233.5922108419
 20
13.9963058145
 11
234.5484423775
 21
18.4950214885
  0
LINE
  8
0
 62
7
  6
CONTINUOUS
 10
235.2482443252
 20
21.7873308023
 11
235.6924861276
 21
23.8773241617
  0
LINE
  8
0
 62
7
  6
CONTINUOUS
 10
229.5448697213
 20
12.2979700695
 11
233.1043930989
 21
13.4545293241
  0
LINE
  8
0
 62
7
  6
CONTINUOUS
 10
232.685831411
 20
27.0750330078
 11
235.4672027953
 21
24.5706749648
  0
ARC
  8
0
 62
7
  6
CONTINUOUS
 10
222.5906631212
 20
23.4116390962
 40
0.7290321776
 50
108.0
 51
168.0
  0
ARC
  8
0
 62
7
  6
CONTINUOUS
 10
232.198013668
 20
26.5332565175
 40
0.7290321776
 50
348.0
 51
108.0
  0
ARC
  8
0
 62
7
  6
CONTINUOUS
 10
234.9793850522
 20
24.0288984744
 40
0.7290321776
 50
348.0
 51
48.0
  0
ARC
  8
0
 62
7
  6
CONTINUOUS
 10
229.319586389
 20
12.9913208726
 40
0.7290321776
 50
228.0
 51
288.0
  0
ARC
  8
0
 62
7
  6
CONTINUOUS
 10
221.8125111278
 20
19.7507217986
 40
0.7290321776
 50
108.0
 51
228.0
  0
ARC
  8
0
 62
7
  6
CONTINUOUS
 10
232.8791097665
 20
14.1478801272
 40
0.7290321776
 50
228.0
 51
348.0
  0
ENDBLK
  8
0
  6
BYBLOCK
 62
0
  0
ENDSEC
  0
SECTION
  2
ENTITIES
  0
TEXT
  8
0
 62
5
  6
CONTINUOUS
 10
304.937007874
 20
25.636
  7
TEXTSTYLE_2
 40
2.8
  1
Scale :
 41
0.6
 51
0.000019
 72
0
  0
TEXT
  8
0
 62
5
  6
CONTINUOUS
 10
324.937007874
 20
25.636
  7
TEXTSTYLE_2
 40
2.8
  1
Belt type:
 41
0.6
 51
0.000019
 72
0
  0
INSERT
  8
0
 62
2
  6
CONTINUOUS
  2
SYMBOL_0_BL0
 10
240.8592468615
 20
19.762288695
  0
INSERT
  8
0
 62
2
  6
CONTINUOUS
  2
SYMBOL_5_BL1
 10
382.7840918555
 20
35.5067593403
  0
LINE
  8
0
 62
2
  6
CONTINUOUS
 10
218.937007874
 20
30.0
 11
408.937007874
 21
30.0
  0
LINE
  8
0
 62
2
  6
CONTINUOUS
 10
218.937007874
 20
30.0
 11
218.937007874
 21
10.0
  0
LINE
  8
0
 62
2
  6
CONTINUOUS
 10
218.937007874
 20
10.0
 11
408.937007874
 21
10.0
  0
LINE
  8
0
 62
2
  6
CONTINUOUS
 10
303.937007874
 20
30.0
 11
303.937007874
 21
10.0
  0
LINE
  8
0
 62
2
  6
CONTINUOUS
 10
323.937007874
 20
30.0
 11
323.937007874
 21
10.0
  0
LINE
  8
0
 62
2
  6
CONTINUOUS
 10
408.937007874
 20
30.0
 11
408.937007874
 21
10.0
  0
TEXT
  8
0
 62
5
  6
CONTINUOUS
 10
221.937007874
 20
23.303
  7
TEXTSTYLE_5
 40
1.52
  1
                                                                     Ammeraal Beltech Modular A/S
 41
1.0
 72
0
  0
TEXT
  8
0
 62
5
  6
CONTINUOUS
 10
221.937007874
 20
20.595
  7
TEXTSTYLE_5
 40
1.5
  1
                                                                      Hjulmagervej 21, 7100 Vejle,  DK
 41
1.0
 72
0
  0
TEXT
  8
0
 62
5
  6
CONTINUOUS
 10
221.937007874
 20
17.881
  7
TEXTSTYLE_5
 40
1.495
  1
                                                                      tel: 
 41
1.0
 72
0
  0
TEXT
  8
0
 62
5
  6
CONTINUOUS
 10
266.9239544389
 20
17.881
  7
TEXTSTYLE_5
 40
1.51
  1
+45 75723100     fax: +45 75723348
 41
1.0
 72
0
  0
TEXT
  8
0
 62
5
  6
CONTINUOUS
 10
221.937007874
 20
15.177
  7
TEXTSTYLE_5
 40
1.5
  1
                                                                      admin@unichains.dk  www.unichains.com
 41
1.0
 72
0
  0
TEXT
  8
0
 62
5
  6
CONTINUOUS
 10
308.687007874
 20
13.75
  7
TEXTSTYLE_6
 40
5.0
  1
1:1
 41
0.7
 72
1
 11
313.937007874
 21
13.75
  0
TEXT
  8
0
 62
5
  6
CONTINUOUS
 10
326.937007874
 20
13.75
  7
TEXTSTYLE_7
 40
7.5
  1
Sprocket Z06
 41
0.6694444444
 72
0
  0
LINE
  8
0
 62
7
  6
CONTINUOUS
 10
0.0
 20
0.0
 11
0.0
 21
297.0
  0
LINE
  8
0
 62
7
  6
CONTINUOUS
 10
8.937007874
 20
10.0
 11
8.937007874
 21
287.0
  0
LINE
  8
0
 62
7
  6
CONTINUOUS
 10
0.0
 20
0.0
 11
420.0
 21
0.0
  0
LINE
  8
0
 62
7
  6
CONTINUOUS
 10
408.937007874
 20
10.0
 11
8.937007874
 21
10.0
  0
LINE
  8
0
 62
7
  6
CONTINUOUS
 10
218.937007874
 20
30.0
 11
408.937007874
 21
30.0
  0
LINE
  8
0
 62
7
  6
CONTINUOUS
 10
210.0
 20
297.0
 11
210.0
 21
292.0
  0
LINE
  8
0
 62
7
  6
CONTINUOUS
 10
210.0
 20
0.0
 11
210.0
 21
5.0
  0
LINE
  8
0
 62
7
  6
CONTINUOUS
 10
8.937007874
 20
287.0
 11
408.937007874
 21
287.0
  0
LINE
  8
0
 62
7
  6
CONTINUOUS
 10
0.0
 20
297.0
 11
420.0
 21
297.0
  0
LINE
  8
0
 62
7
  6
CONTINUOUS
 10
408.937007874
 20
287.0
 11
408.937007874
 21
10.0
  0
LINE
  8
0
 62
7
  6
CONTINUOUS
 10
420.0
 20
0.0
 11
420.0
 21
297.0
  0
LINE
  8
SURFACE
 62
7
  6
CONTINUOUS
 10
87.0602970399
 20
132.3638884809
 11
87.4445692894
 21
132.3716635131
  0
LINE
  8
SURFACE
 62
7
  6
CONTINUOUS
 10
87.4445692894
 20
132.3716635131
 11
123.7707055231
 21
132.3716635131
  0
LINE
  8
0
 62
7
  6
CONTINUOUS
 10
144.8048381487
 20
132.3716635131
 11
150.3275860716
 21
132.3716635131
  0
LINE
  8
SURFACE
 62
7
  6
CONTINUOUS
 10
64.0883132826
 20
182.376015527
 11
64.2871827828
 21
182.0471135131
  0
LINE
  8
SURFACE
 62
7
  6
CONTINUOUS
 10
64.2871827828
 20
182.0471135131
 11
82.4502508996
 21
150.5877567134
  0
LINE
  8
0
 62
7
  6
CONTINUOUS
 10
92.9673172124
 20
132.3716635131
 11
95.7286911739
 21
127.5888235131
  0
LINE
  8
0
 62
7
  6
CONTINUOUS
 10
78.312772216
 20
185.5177111783
 11
78.3339626622
 21
185.0882003203
  0
LINE
  8
0
 62
7
  6
CONTINUOUS
 10
78.7509544481
 20
185.0033756897
 11
78.7297640019
 21
185.4328865477
  0
LINE
  8
0
 62
7
  6
CONTINUOUS
 10
77.8150518031
 20
182.7057732101
 11
77.7648612811
 21
182.1873637425
  0
LINE
  8
0
 62
7
  6
CONTINUOUS
 10
77.5640992395
 20
180.1137263542
 11
77.5139087282
 21
179.5953169979
  0
LINE
  8
0
 62
7
  6
CONTINUOUS
 10
80.6393786686
 20
180.9671800201
 11
80.5992262538
 21
180.5524524757
  0
LINE
  8
0
 62
7
  6
CONTINUOUS
 10
81.0227777246
 20
180.5114457604
 11
81.0629301394
 21
180.9261733048
  0
LINE
  8
0
 62
7
  6
CONTINUOUS
 10
81.1733492621
 20
182.0666738666
 11
81.2235397842
 21
182.5850833341
  0
LINE
  8
0
 62
7
  6
CONTINUOUS
 10
78.3958297163
 20
185.9260158787
 11
78.312772216
 21
185.5177111783
  0
LINE
  8
0
 62
7
  6
CONTINUOUS
 10
78.1258929295
 20
184.5990260406
 11
78.0220710838
 21
184.0886453112
  0
LINE
  8
0
 62
7
  6
CONTINUOUS
 10
77.4881977378
 20
188.8954107335
 11
77.3503585702
 21
188.3931483339
  0
LINE
  8
0
 62
7
  6
CONTINUOUS
 10
77.8633075383
 20
188.2523763811
 11
78.001146706
 21
188.7546387807
  0
LINE
  8
0
 62
7
  6
CONTINUOUS
 10
79.0270449296
 20
188.4730947962
 11
78.889205762
 21
187.9708323967
  0
LINE
  8
0
 62
7
  6
CONTINUOUS
 10
81.7732428738
 20
199.0811882711
 11
81.4829531781
 21
198.5276931108
  0
LINE
  8
0
 62
7
  6
CONTINUOUS
 10
80.1282681159
 20
195.9447160476
 11
79.8379784202
 21
195.3912208872
  0
LINE
  8
SURFACE
 62
7
  6
CONTINUOUS
 10
95.9140939232
 20
227.2764005593
 11
95.7286911739
 21
226.9397235131
  0
LINE
  8
SURFACE
 62
7
  6
CONTINUOUS
 10
95.7286911739
 20
226.9397235131
 11
77.565623057
 21
195.4803667134
  0
LINE
  8
0
 62
7
  6
CONTINUOUS
 10
67.0485567443
 20
177.2642735131
 11
64.2871827828
 21
172.4814335131
  0
LINE
  8
0
 62
7
  6
CONTINUOUS
 10
87.1933856439
 20
206.4331485595
 11
86.5996163253
 21
205.7076526972
  0
LINE
  8
0
 62
7
  6
CONTINUOUS
 10
84.6203852633
 20
203.289333156
 11
84.0266159447
 21
202.5638372937
  0
LINE
  8
0
 62
7
  6
CONTINUOUS
 10
80.3919817642
 20
181.7237080748
 11
80.5736431735
 21
181.3921590977
  0
LINE
  8
0
 62
7
  6
CONTINUOUS
 10
78.3339626622
 20
185.0882003203
 11
78.480165519
 21
184.7395599178
  0
LINE
  8
0
 62
7
  6
CONTINUOUS
 10
78.8971573049
 20
184.6547352872
 11
78.7509544481
 21
185.0033756897
  0
LINE
  8
0
 62
7
  6
CONTINUOUS
 10
80.9971946722
 20
181.3511523797
 11
80.911383019
 21
181.5687679049
  0
LINE
  8
0
 62
7
  6
CONTINUOUS
 10
80.5736431735
 20
181.3921590977
 11
80.6393786686
 21
180.9671800201
  0
LINE
  8
0
 62
7
  6
CONTINUOUS
 10
81.0629301394
 20
180.9261733048
 11
80.9971946722
 21
181.3511523797
  0
LINE
  8
0
 62
7
  6
CONTINUOUS
 10
81.3580056627
 20
183.410048207
 11
81.4618275083
 21
183.9204289364
  0
LINE
  8
0
 62
7
  6
CONTINUOUS
 10
81.8355860814
 20
185.7577992119
 11
81.9394078677
 21
186.2681796492
  0
LINE
  8
0
 62
7
  6
CONTINUOUS
 10
82.1720794454
 20
187.0698918199
 11
82.309918613
 21
187.5721542195
  0
LINE
  8
0
 62
7
  6
CONTINUOUS
 10
80.8767374493
 20
180.106969969
 11
81.0227777246
 21
180.5114457604
  0
LINE
  8
0
 62
7
  6
CONTINUOUS
 10
78.7297640019
 20
185.4328865477
 11
78.9170694487
 21
185.8199850904
  0
LINE
  8
0
 62
7
  6
CONTINUOUS
 10
96.2774390865
 20
210.9556110114
 11
96.3845339064
 21
211.1635785128
  0
LINE
  8
0
 62
7
  6
CONTINUOUS
 10
84.2659397031
 20
193.0689033214
 11
84.5562293989
 21
193.6223984818
  0
LINE
  8
0
 62
7
  6
CONTINUOUS
 10
85.910914461
 20
196.2053755449
 11
86.2012041568
 21
196.7588707053
  0
LINE
  8
0
 62
7
  6
CONTINUOUS
 10
91.7853987856
 20
208.0179439698
 11
91.6282393121
 21
207.7276432888
  0
LINE
  8
0
 62
7
  6
CONTINUOUS
 10
78.5623707583
 20
186.2110381003
 11
78.3958297163
 21
185.9260158787
  0
LINE
  8
0
 62
7
  6
CONTINUOUS
 10
85.5230678229
 20
199.9508080224
 11
84.7225013872
 21
198.7318614886
  0
LINE
  8
0
 62
7
  6
CONTINUOUS
 10
85.1671018971
 20
198.4398616055
 11
85.9676683327
 21
199.6588081393
  0
LINE
  8
0
 62
7
  6
CONTINUOUS
 10
95.7753399473
 20
211.118798241
 11
95.5836553002
 21
210.8500407639
  0
LINE
  8
0
 62
7
  6
CONTINUOUS
 10
97.0790809443
 20
209.304630291
 11
96.8873962972
 21
209.0358728138
  0
LINE
  8
0
 62
7
  6
CONTINUOUS
 10
91.9852160878
 20
207.1883451168
 11
92.2953101633
 21
207.6201182246
  0
LINE
  8
0
 62
7
  6
CONTINUOUS
 10
87.8959272105
 20
199.3970675944
 11
88.2917734229
 21
199.8807315027
  0
LINE
  8
0
 62
7
  6
CONTINUOUS
 10
89.2154140819
 20
201.0092800069
 11
89.7432100384
 21
201.6541664479
  0
LINE
  8
0
 62
7
  6
CONTINUOUS
 10
90.6668506974
 20
202.7827149521
 11
91.0626969098
 21
203.2663788603
  0
LINE
  8
0
 62
7
  6
CONTINUOUS
 10
90.1069582196
 20
209.2187804896
 11
88.2717569963
 21
207.52112432
  0
LINE
  8
0
 62
7
  6
CONTINUOUS
 10
89.0917606994
 20
207.5550700636
 11
90.5446289179
 21
208.8990484041
  0
LINE
  8
0
 62
7
  6
CONTINUOUS
 10
91.6282393121
 20
207.7276432888
 11
90.1753710936
 21
206.3836649483
  0
LINE
  8
0
 62
7
  6
CONTINUOUS
 10
90.6088151703
 20
205.9151029897
 11
91.9852160878
 21
207.1883451168
  0
LINE
  8
0
 62
7
  6
CONTINUOUS
 10
91.6670693354
 20
203.8507218734
 11
92.1258696412
 21
204.2751359158
  0
LINE
  8
0
 62
7
  6
CONTINUOUS
 10
94.257407331
 20
212.5170298574
 11
92.227266967
 21
211.0580815709
  0
LINE
  8
0
 62
7
  6
CONTINUOUS
 10
93.1072994485
 20
210.9044849944
 11
94.7144945486
 21
212.0594861849
  0
LINE
  8
0
 62
7
  6
CONTINUOUS
 10
95.5836553002
 20
210.8500407639
 11
93.9764602001
 21
209.6950395733
  0
LINE
  8
0
 62
7
  6
CONTINUOUS
 10
94.3489575905
 20
209.1767059252
 11
95.9561526907
 21
210.3317071157
  0
LINE
  8
0
 62
7
  6
CONTINUOUS
 10
90.5615336541
 20
209.4943662778
 11
90.1069582196
 21
209.2187804896
  0
LINE
  8
0
 62
7
  6
CONTINUOUS
 10
113.3046697813
 20
219.2613248913
 11
113.6025618597
 21
219.4035707879
  0
LINE
  8
0
 62
7
  6
CONTINUOUS
 10
108.39329062
 20
218.3092062371
 11
108.8743661326
 21
218.5353758714
  0
LINE
  8
0
 62
7
  6
CONTINUOUS
 10
94.7424374293
 20
212.7345894033
 11
94.257407331
 21
212.5170298574
  0
LINE
  8
0
 62
7
  6
CONTINUOUS
 10
90.5446289179
 20
208.8990484041
 11
90.8462697503
 21
209.0331617656
  0
LINE
  8
0
 62
7
  6
CONTINUOUS
 10
108.748968959
 20
219.0522984338
 11
108.1666643105
 21
218.8015722248
  0
LINE
  8
0
 62
7
  6
CONTINUOUS
 10
105.5208538763
 20
218.1875073434
 11
101.6273113802
 21
216.7037874586
  0
LINE
  8
0
 62
7
  6
CONTINUOUS
 10
101.816722479
 20
216.20673935
 11
105.2235704922
 21
217.5049936125
  0
LINE
  8
0
 62
7
  6
CONTINUOUS
 10
113.6437258412
 20
219.9440245509
 11
113.138932246
 21
219.7773818836
  0
LINE
  8
0
 62
7
  6
CONTINUOUS
 10
113.8555089681
 20
218.1479569202
 11
113.3507153729
 21
217.9813142529
  0
LINE
  8
0
 62
7
  6
CONTINUOUS
 10
94.7144945486
 20
212.0594861849
 11
95.0303449926
 21
212.1554657794
  0
LINE
  8
SURFACE
 62
7
  6
CONTINUOUS
 10
58.2911047915
 20
186.97860587
 11
60.8099414468
 21
185.5243548491
  0
LINE
  8
0
 62
7
  6
CONTINUOUS
 10
155.0775860716
 20
131.0989048491
 11
157.5964227269
 21
129.6446538281
  0
LINE
  8
0
 62
7
  6
CONTINUOUS
 10
80.911383019
 20
181.5687679049
 11
80.6238336812
 21
181.910568417
  0
LINE
  8
0
 62
7
  6
CONTINUOUS
 10
78.480165519
 20
184.7395599178
 11
78.6471326618
 21
184.4929952524
  0
LINE
  8
0
 62
7
  6
CONTINUOUS
 10
79.0641244477
 20
184.4081706218
 11
78.8971573049
 21
184.6547352872
  0
LINE
  8
0
 62
7
  6
CONTINUOUS
 10
91.7938502785
 20
208.3156020971
 11
91.7853987856
 21
208.0179439698
  0
LINE
  8
0
 62
7
  6
CONTINUOUS
 10
95.8203518688
 20
211.4131546838
 11
95.7753399473
 21
211.118798241
  0
LINE
  8
0
 62
7
  6
CONTINUOUS
 10
97.1240928223
 20
209.5989867943
 11
97.0790809443
 21
209.304630291
  0
LINE
  8
0
 62
7
  6
CONTINUOUS
 10
92.2953101633
 20
207.6201182246
 11
92.3844538287
 21
208.1373408195
  0
LINE
  8
0
 62
7
  6
CONTINUOUS
 10
97.5361682
 20
208.8470865656
 11
97.688274925
 21
209.3494105325
  0
LINE
  8
0
 62
7
  6
CONTINUOUS
 10
105.2235704922
 20
217.5049936125
 11
103.1047181365
 21
212.8268117243
  0
LINE
  8
0
 62
7
  6
CONTINUOUS
 10
107.7357476674
 20
218.3686335655
 11
107.50729393
 21
217.9848091799
  0
LINE
  8
0
 62
7
  6
CONTINUOUS
 10
80.5992262538
 20
180.5524524757
 11
80.3472980923
 21
180.1582283649
  0
LINE
  8
0
 62
7
  6
CONTINUOUS
 10
78.9170694487
 20
185.8199850904
 11
79.0628460859
 21
186.0029309909
  0
LINE
  8
0
 62
7
  6
CONTINUOUS
 10
80.6348473936
 20
179.8164276692
 11
80.8767374493
 21
180.106969969
  0
LINE
  8
0
 62
7
  6
CONTINUOUS
 10
108.1397574479
 20
218.0287663639
 11
108.39329062
 21
218.3092062371
  0
LINE
  8
0
 62
7
  6
CONTINUOUS
 10
110.5369093908
 20
215.2167567867
 11
110.2833762187
 21
214.9363169135
  0
LINE
  8
0
 62
7
  6
CONTINUOUS
 10
97.1753039039
 20
208.4567491294
 11
97.5361682
 21
208.8470865656
  0
LINE
  8
0
 62
7
  6
CONTINUOUS
 10
108.1666643105
 20
218.8015722248
 11
107.7357476674
 21
218.3686335655
  0
LINE
  8
0
 62
7
  6
CONTINUOUS
 10
110.5100071775
 20
214.4439519866
 11
110.94091918
 21
214.8768895489
  0
LINE
  8
0
 62
7
  6
CONTINUOUS
 10
78.8331597468
 20
186.4748541642
 11
78.5623707583
 21
186.2110381003
  0
LINE
  8
0
 62
7
  6
CONTINUOUS
 10
113.0192355319
 20
219.013427975
 11
113.3046697813
 21
219.2613248913
  0
LINE
  8
0
 62
7
  6
CONTINUOUS
 10
113.3507153729
 20
217.9813142529
 11
112.779846874
 21
217.4855204204
  0
LINE
  8
0
 62
7
  6
CONTINUOUS
 10
113.2310186588
 20
217.2173603443
 11
113.5164529082
 21
217.4652572606
  0
LINE
  8
0
 62
7
  6
CONTINUOUS
 10
113.138932246
 20
219.7773818836
 11
112.6590543088
 21
219.3994371769
  0
LINE
  8
0
 62
7
  6
CONTINUOUS
 10
96.8873962972
 20
209.0358728138
 11
95.280201197
 21
207.8808716232
  0
LINE
  8
0
 62
7
  6
CONTINUOUS
 10
95.1451635399
 20
206.997800843
 11
97.1753039039
 21
208.4567491294
  0
LINE
  8
0
 62
7
  6
CONTINUOUS
 10
113.5164529082
 20
217.4652572606
 11
113.8143449866
 21
217.6075031571
  0
LINE
  8
0
 62
7
  6
CONTINUOUS
 10
115.0855466108
 20
215.7221168562
 11
114.7876545324
 21
215.5798709596
  0
LINE
  8
0
 62
7
  6
CONTINUOUS
 10
110.2833762187
 20
214.9363169135
 11
109.8023053401
 21
214.7101484033
  0
LINE
  8
0
 62
7
  6
CONTINUOUS
 10
109.9277025312
 20
214.1932257686
 11
110.5100071775
 21
214.4439519866
  0
LINE
  8
0
 62
7
  6
CONTINUOUS
 10
107.0740250722
 20
214.1117123657
 11
103.7645141733
 21
212.8505505485
  0
LINE
  8
0
 62
7
  6
CONTINUOUS
 10
103.4077759212
 20
212.031534681
 11
107.3013184173
 21
213.5152545658
  0
LINE
  8
0
 62
7
  6
CONTINUOUS
 10
114.7464905597
 20
215.0394171226
 11
115.2512841538
 21
215.2060597992
  0
LINE
  8
0
 62
7
  6
CONTINUOUS
 10
95.9561526907
 20
210.3317071157
 11
96.2720031346
 21
210.4276867102
  0
LINE
  8
0
 62
7
  6
CONTINUOUS
 10
80.0943943149
 20
181.9618268138
 11
80.3919817642
 21
181.7237080748
  0
LINE
  8
DEFAULT_3
 62
2
  6
PHANTOM
 10
101.4397476262
 20
164.7646313842
 11
106.3864355516
 21
159.8179434588
  0
LINE
  8
DEFAULT_3
 62
2
  6
PHANTOM
 10
110.5111323109
 20
157.9559883993
 11
114.7537729981
 21
153.7133477121
  0
LINE
  8
DEFAULT_3
 62
2
  6
PHANTOM
 10
99.5777925667
 20
168.8893281435
 11
95.3351518795
 21
173.1319688307
  0
LINE
  8
0
 62
7
  6
CONTINUOUS
 10
82.8273401983
 20
195.8230031913
 11
84.2659397031
 21
193.0689033214
  0
LINE
  8
0
 62
7
  6
CONTINUOUS
 10
81.4829531781
 20
198.5276931108
 11
82.5956373223
 21
196.2973947961
  0
LINE
  8
0
 62
7
  6
CONTINUOUS
 10
84.5562293989
 20
193.6223984818
 11
83.4435447009
 21
195.8526957408
  0
LINE
  8
0
 62
7
  6
CONTINUOUS
 10
83.117629894
 20
196.3764983517
 11
81.7732428738
 21
199.0811882711
  0
LINE
  8
0
 62
7
  6
CONTINUOUS
 10
92.3844538287
 20
208.1373408195
 11
92.3248912638
 21
208.6619224798
  0
LINE
  8
SURFACE
 62
7
  6
CONTINUOUS
 10
97.0014498379
 20
234.5982255551
 11
97.0014498379
 21
231.6897235131
  0
LINE
  8
0
 62
7
  6
CONTINUOUS
 10
97.0014498379
 20
122.8388235131
 11
97.0014498379
 21
119.9303214712
  0
LINE
  8
0
 62
7
  6
CONTINUOUS
 10
96.3845339064
 20
211.1635785128
 11
96.3899698582
 21
211.6915028141
  0
LINE
  8
0
 62
7
  6
CONTINUOUS
 10
97.688274925
 20
209.3494105325
 11
97.6937108552
 21
209.877334864
  0
LINE
  8
0
 62
7
  6
CONTINUOUS
 10
107.885312949
 20
217.3102315765
 11
108.1397574479
 21
218.0287663639
  0
LINE
  8
0
 62
7
  6
CONTINUOUS
 10
103.7645141733
 20
212.8505505485
 11
105.7860294146
 21
217.4916399914
  0
LINE
  8
0
 62
7
  6
CONTINUOUS
 10
112.8497122375
 20
218.6720787037
 11
113.0192355319
 21
219.013427975
  0
LINE
  8
0
 62
7
  6
CONTINUOUS
 10
112.6590543088
 20
219.3994371769
 11
112.3985357172
 21
218.9402382213
  0
LINE
  8
0
 62
7
  6
CONTINUOUS
 10
110.94091918
 20
214.8768895489
 11
111.1693729087
 21
215.2607139707
  0
LINE
  8
0
 62
7
  6
CONTINUOUS
 10
113.0490375355
 20
216.9816620926
 11
113.2310186588
 21
217.2173603443
  0
LINE
  8
0
 62
7
  6
CONTINUOUS
 10
115.3709808603
 20
215.9700137725
 11
115.0855466108
 21
215.7221168562
  0
LINE
  8
0
 62
7
  6
CONTINUOUS
 10
115.2512841538
 20
215.2060597992
 11
115.7311620878
 21
215.5840045336
  0
LINE
  8
0
 62
7
  6
CONTINUOUS
 10
79.0831843304
 20
186.636593907
 11
78.8331597468
 21
186.4748541642
  0
LINE
  8
0
 62
7
  6
CONTINUOUS
 10
79.0628460859
 20
186.0029309909
 11
79.3128706695
 21
186.1646707337
  0
LINE
  8
0
 62
7
  6
CONTINUOUS
 10
136.0057402399
 20
214.748816316
 11
135.7310709785
 21
214.6337964102
  0
LINE
  8
0
 62
7
  6
CONTINUOUS
 10
86.5996163253
 20
205.7076526972
 11
89.0676831935
 21
201.6686136279
  0
LINE
  8
0
 62
7
  6
CONTINUOUS
 10
89.7432100384
 20
201.6541664479
 11
87.6207970495
 21
205.2757039445
  0
LINE
  8
0
 62
7
  6
CONTINUOUS
 10
107.4051487632
 20
217.5221568564
 11
107.3791580017
 21
217.1874464547
  0
LINE
  8
0
 62
7
  6
CONTINUOUS
 10
112.7836326331
 20
218.3429266841
 11
112.8497122375
 21
218.6720787037
  0
LINE
  8
0
 62
7
  6
CONTINUOUS
 10
107.50729393
 20
217.9848091799
 11
107.4051487632
 21
217.5221568564
  0
LINE
  8
0
 62
7
  6
CONTINUOUS
 10
111.1693729087
 20
215.2607139707
 11
111.271518058
 21
215.7233663666
  0
LINE
  8
0
 62
7
  6
CONTINUOUS
 10
112.3985357172
 20
218.9402382213
 11
112.2539281156
 21
218.3875866145
  0
LINE
  8
0
 62
7
  6
CONTINUOUS
 10
110.7913585764
 20
215.935292481
 11
110.5369093908
 21
215.2167567867
  0
LINE
  8
0
 62
7
  6
CONTINUOUS
 10
115.5405041459
 20
216.3113631179
 11
115.3709808603
 21
215.9700137725
  0
LINE
  8
0
 62
7
  6
CONTINUOUS
 10
115.7311620878
 20
215.5840045336
 11
115.991680675
 21
216.0432035262
  0
LINE
  8
DEFAULT_3
 62
2
  6
PHANTOM
 10
106.3864355516
 20
194.7106035675
 11
101.4397476262
 21
189.763915642
  0
LINE
  8
DEFAULT_3
 62
2
  6
PHANTOM
 10
114.7537729981
 20
200.8151993141
 11
110.5111323109
 21
196.572558627
  0
LINE
  8
DEFAULT_3
 62
2
  6
PHANTOM
 10
95.3351518795
 20
181.3965781956
 11
99.5777925667
 21
185.6392188827
  0
LINE
  8
0
 62
7
  6
CONTINUOUS
 10
80.2870694755
 20
179.5361371039
 11
80.6348473936
 21
179.8164276692
  0
LINE
  8
0
 62
7
  6
CONTINUOUS
 10
136.0868328034
 20
214.1372497761
 11
136.5401981405
 21
214.4077927274
  0
LINE
  8
SURFACE
 62
7
  6
CONTINUOUS
 10
157.5964227269
 20
224.8838931981
 11
155.0775860716
 21
223.4296421772
  0
LINE
  8
0
 62
7
  6
CONTINUOUS
 10
60.8099414468
 20
169.0041921772
 11
58.2911047915
 21
167.5499411562
  0
LINE
  8
0
 62
7
  6
CONTINUOUS
 10
143.3876121015
 20
211.1865206303
 11
143.74697615
 21
211.3134653152
  0
LINE
  8
0
 62
7
  6
CONTINUOUS
 10
143.7572633215
 20
211.8413173698
 11
143.2505274041
 21
211.6931541913
  0
LINE
  8
0
 62
7
  6
CONTINUOUS
 10
77.5139087282
 20
179.5953169979
 11
79.6316660451
 21
179.390283425
  0
LINE
  8
0
 62
7
  6
CONTINUOUS
 10
79.6818565564
 20
179.9086927813
 11
77.5640992395
 21
180.1137263542
  0
LINE
  8
0
 62
7
  6
CONTINUOUS
 10
78.0220710838
 20
184.0886453112
 11
81.3580056627
 21
183.410048207
  0
LINE
  8
0
 62
7
  6
CONTINUOUS
 10
81.4618275083
 20
183.9204289364
 11
79.0641244477
 21
184.4081706218
  0
LINE
  8
0
 62
7
  6
CONTINUOUS
 10
78.6471326618
 20
184.4929952524
 11
78.1258929295
 21
184.5990260406
  0
LINE
  8
0
 62
7
  6
CONTINUOUS
 10
91.6535955412
 20
208.6206192898
 11
91.7938502785
 21
208.3156020971
  0
LINE
  8
0
 62
7
  6
CONTINUOUS
 10
92.3248912638
 20
208.6619224798
 11
92.1846365265
 21
208.9669396725
  0
LINE
  8
0
 62
7
  6
CONTINUOUS
 10
95.7186930008
 20
211.7331114836
 11
95.8203518688
 21
211.4131546838
  0
LINE
  8
0
 62
7
  6
CONTINUOUS
 10
96.3899698582
 20
211.6915028141
 11
96.2883109902
 21
212.0114596139
  0
LINE
  8
0
 62
7
  6
CONTINUOUS
 10
97.0224339543
 20
209.9189435941
 11
97.1240928223
 21
209.5989867943
  0
LINE
  8
0
 62
7
  6
CONTINUOUS
 10
97.6937108552
 20
209.877334864
 11
97.5920519437
 21
210.1972917243
  0
LINE
  8
0
 62
7
  6
CONTINUOUS
 10
107.9345557875
 20
216.6653668029
 11
107.885312949
 21
217.3102315765
  0
LINE
  8
0
 62
7
  6
CONTINUOUS
 10
110.7421110688
 20
216.5801562753
 11
110.7913585764
 21
215.935292481
  0
LINE
  8
0
 62
7
  6
CONTINUOUS
 10
107.3791580017
 20
217.1874464547
 11
107.4033260394
 21
216.6459673177
  0
LINE
  8
0
 62
7
  6
CONTINUOUS
 10
111.2975088897
 20
216.0580764787
 11
111.2733454508
 21
216.5995568847
  0
LINE
  8
0
 62
7
  6
CONTINUOUS
 10
112.2539281156
 20
218.3875866145
 11
112.237679792
 21
217.6358308121
  0
LINE
  8
0
 62
7
  6
CONTINUOUS
 10
112.7549312161
 20
217.6968224597
 11
112.7836326331
 21
218.3429266841
  0
LINE
  8
0
 62
7
  6
CONTINUOUS
 10
111.271518058
 20
215.7233663666
 11
111.2975088897
 21
216.0580764787
  0
LINE
  8
0
 62
7
  6
CONTINUOUS
 10
112.9829579136
 20
216.652510221
 11
113.0490375355
 21
216.9816620926
  0
LINE
  8
0
 62
7
  6
CONTINUOUS
 10
115.6065837853
 20
216.6405148415
 11
115.5405041459
 21
216.3113631179
  0
LINE
  8
0
 62
7
  6
CONTINUOUS
 10
115.991680675
 20
216.0432035262
 11
116.1362883027
 21
216.595854911
  0
LINE
  8
0
 62
7
  6
CONTINUOUS
 10
140.1455890585
 20
214.6435028757
 11
136.190986259
 21
211.1594120075
  0
LINE
  8
0
 62
7
  6
CONTINUOUS
 10
143.2505274041
 20
211.6931541913
 11
142.7619074023
 21
211.3972054614
  0
LINE
  8
0
 62
7
  6
CONTINUOUS
 10
80.3472980923
 20
180.1582283649
 11
80.0095582354
 21
179.9816196337
  0
LINE
  8
0
 62
7
  6
CONTINUOUS
 10
81.2235397842
 20
182.5850833341
 11
81.0017259272
 21
182.5019046203
  0
LINE
  8
0
 62
7
  6
CONTINUOUS
 10
80.0652556558
 20
179.4529585829
 11
80.2870694755
 21
179.5361371039
  0
LINE
  8
0
 62
7
  6
CONTINUOUS
 10
143.6749656783
 20
207.618500578
 11
143.3156015845
 21
207.491555834
  0
LINE
  8
0
 62
7
  6
CONTINUOUS
 10
143.3053143904
 20
206.9637037498
 11
143.8120503305
 21
207.1118669578
  0
LINE
  8
0
 62
2
  6
CONTINUOUS
 10
119.9360776805
 20
177.2642735131
 11
117.8360776805
 21
177.2642735131
  0
LINE
  8
DEFAULT_1
 62
2
  6
CENTER
 10
113.6360776805
 20
177.2642735131
 11
55.7660308361
 21
177.2642735131
  0
LINE
  8
DEFAULT_1
 62
2
  6
CENTER
 10
124.1360776805
 20
177.2642735131
 11
182.0061245249
 21
177.2642735131
  0
LINE
  8
0
 62
7
  6
CONTINUOUS
 10
77.7648612811
 20
182.1873637425
 11
80.0943943149
 21
181.9618268138
  0
LINE
  8
0
 62
7
  6
CONTINUOUS
 10
80.5681363449
 20
182.4392295625
 11
77.8150518031
 21
182.7057732101
  0
LINE
  8
0
 62
7
  6
CONTINUOUS
 10
79.8548748066
 20
186.1607162666
 11
81.8355860814
 21
185.7577992119
  0
LINE
  8
0
 62
7
  6
CONTINUOUS
 10
81.9394078677
 20
186.2681796492
 11
79.9586965929
 21
186.671096704
  0
LINE
  8
0
 62
7
  6
CONTINUOUS
 10
77.3503585702
 20
188.3931483339
 11
77.8633075383
 21
188.2523763811
  0
LINE
  8
0
 62
7
  6
CONTINUOUS
 10
78.889205762
 20
187.9708323967
 11
82.1720794454
 21
187.0698918199
  0
LINE
  8
0
 62
7
  6
CONTINUOUS
 10
82.309918613
 20
187.5721542195
 11
79.0270449296
 21
188.4730947962
  0
LINE
  8
0
 62
7
  6
CONTINUOUS
 10
78.001146706
 20
188.7546387807
 11
77.4881977378
 21
188.8954107335
  0
LINE
  8
0
 62
7
  6
CONTINUOUS
 10
84.7225013872
 20
198.7318614886
 11
85.1671018971
 21
198.4398616055
  0
LINE
  8
0
 62
7
  6
CONTINUOUS
 10
85.9676683327
 20
199.6588081393
 11
85.5230678229
 21
199.9508080224
  0
LINE
  8
0
 62
7
  6
CONTINUOUS
 10
84.0266159447
 20
202.5638372937
 11
87.8959272105
 21
199.3970675944
  0
LINE
  8
0
 62
7
  6
CONTINUOUS
 10
88.2917734229
 20
199.8807315027
 11
85.2457197751
 21
202.3737204952
  0
LINE
  8
0
 62
7
  6
CONTINUOUS
 10
87.6207970495
 20
205.2757039445
 11
90.6668506974
 21
202.7827149521
  0
LINE
  8
0
 62
7
  6
CONTINUOUS
 10
91.0626969098
 20
203.2663788603
 11
87.1933856439
 21
206.4331485595
  0
LINE
  8
0
 62
7
  6
CONTINUOUS
 10
88.2717569963
 20
207.52112432
 11
91.6670693354
 21
203.8507218734
  0
LINE
  8
0
 62
7
  6
CONTINUOUS
 10
92.1258696412
 20
204.2751359158
 11
90.6088151703
 21
205.9151029897
  0
LINE
  8
0
 62
7
  6
CONTINUOUS
 10
90.1753710936
 20
206.3836649483
 11
89.0917606994
 21
207.5550700636
  0
LINE
  8
0
 62
7
  6
CONTINUOUS
 10
91.4368733005
 20
208.8549004879
 11
91.6535955412
 21
208.6206192898
  0
LINE
  8
0
 62
7
  6
CONTINUOUS
 10
92.1846365265
 20
208.9669396725
 11
91.8956736063
 21
209.2793145303
  0
LINE
  8
0
 62
7
  6
CONTINUOUS
 10
92.227266967
 20
211.0580815709
 11
95.1451635399
 21
206.997800843
  0
LINE
  8
0
 62
7
  6
CONTINUOUS
 10
95.280201197
 20
207.8808716232
 11
94.3489575905
 21
209.1767059252
  0
LINE
  8
0
 62
7
  6
CONTINUOUS
 10
93.9764602001
 20
209.6950395733
 11
93.1072994485
 21
210.9044849944
  0
LINE
  8
0
 62
7
  6
CONTINUOUS
 10
101.6273113802
 20
216.7037874586
 11
101.816722479
 21
216.20673935
  0
LINE
  8
0
 62
7
  6
CONTINUOUS
 10
103.1047181365
 20
212.8268117243
 11
103.4077759212
 21
212.031534681
  0
LINE
  8
0
 62
2
  6
CONTINUOUS
 10
118.8860776805
 20
178.3142735131
 11
118.8860776805
 21
176.2142735131
  0
LINE
  8
DEFAULT_1
 62
2
  6
CENTER
 10
118.8860776805
 20
172.0142735131
 11
118.8860776805
 21
114.1442266687
  0
LINE
  8
DEFAULT_1
 62
2
  6
CENTER
 10
118.8860776805
 20
182.5142735131
 11
118.8860776805
 21
240.3843203575
  0
LINE
  8
0
 62
7
  6
CONTINUOUS
 10
136.2257999571
 20
215.0023515273
 11
136.0057402399
 21
214.748816316
  0
LINE
  8
0
 62
7
  6
CONTINUOUS
 10
136.5401981405
 20
214.4077927274
 11
136.7602578577
 21
214.6613279387
  0
LINE
  8
0
 62
7
  6
CONTINUOUS
 10
142.7619074023
 20
211.3972054614
 11
142.2267682168
 21
210.8689755431
  0
LINE
  8
0
 62
7
  6
CONTINUOUS
 10
142.64047298
 20
210.5525700775
 11
143.1109842794
 21
210.9962980917
  0
LINE
  8
0
 62
7
  6
CONTINUOUS
 10
138.0372616614
 20
212.0546456055
 11
140.291813331
 21
214.0661731694
  0
LINE
  8
0
 62
7
  6
CONTINUOUS
 10
136.7312440483
 20
210.8451724156
 11
137.7332656137
 21
211.7391854224
  0
LINE
  8
0
 62
7
  6
CONTINUOUS
 10
143.1109842794
 20
210.9962980917
 11
143.3876121015
 21
211.1865206303
  0
LINE
  8
0
 62
7
  6
CONTINUOUS
 10
142.0769380112
 20
209.6442675073
 11
142.3535657427
 21
209.8344899275
  0
LINE
  8
0
 62
7
  6
CONTINUOUS
 10
143.9515933194
 20
207.8087228799
 11
143.6749656783
 21
207.618500578
  0
LINE
  8
0
 62
7
  6
CONTINUOUS
 10
143.8120503305
 20
207.1118669578
 11
144.3006701965
 21
207.4078155102
  0
LINE
  8
0
 62
7
  6
CONTINUOUS
 10
80.0095582354
 20
179.9816196337
 11
79.6818565564
 21
179.9086927813
  0
LINE
  8
0
 62
7
  6
CONTINUOUS
 10
79.6316660451
 20
179.390283425
 11
80.0652556558
 21
179.4529585829
  0
LINE
  8
0
 62
7
  6
CONTINUOUS
 10
81.0017259272
 20
182.5019046203
 11
80.5681363449
 21
182.4392295625
  0
LINE
  8
0
 62
7
  6
CONTINUOUS
 10
79.3128706695
 20
186.1646707337
 11
79.8548748066
 21
186.1607162666
  0
LINE
  8
0
 62
7
  6
CONTINUOUS
 10
79.9586965929
 20
186.671096704
 11
79.4166925746
 21
186.6750517552
  0
LINE
  8
0
 62
7
  6
CONTINUOUS
 10
95.594527204
 20
211.9058893664
 11
95.7186930008
 21
211.7331114836
  0
LINE
  8
0
 62
7
  6
CONTINUOUS
 10
96.8361852591
 20
210.1781104182
 11
97.0224339543
 21
209.9189435941
  0
LINE
  8
0
 62
7
  6
CONTINUOUS
 10
97.5920519437
 20
210.1972917243
 11
97.2816374517
 21
210.6292364311
  0
LINE
  8
0
 62
7
  6
CONTINUOUS
 10
96.2883109902
 20
212.0114596139
 11
96.0399792227
 21
212.3570156214
  0
LINE
  8
0
 62
7
  6
CONTINUOUS
 10
107.3013184173
 20
213.5152545658
 11
107.0740250722
 21
214.1117123657
  0
LINE
  8
0
 62
7
  6
CONTINUOUS
 10
105.7860294146
 20
217.4916399914
 11
105.5208538763
 21
218.1875073434
  0
LINE
  8
0
 62
7
  6
CONTINUOUS
 10
107.4033260394
 20
216.6459673177
 11
107.6290409519
 21
215.7155067055
  0
LINE
  8
0
 62
7
  6
CONTINUOUS
 10
108.1101118305
 20
215.9416752156
 11
107.9345557875
 21
216.6653668029
  0
LINE
  8
0
 62
7
  6
CONTINUOUS
 10
110.5665550258
 20
217.3038478626
 11
110.7421110688
 21
216.5801562753
  0
LINE
  8
0
 62
7
  6
CONTINUOUS
 10
111.2733454508
 20
216.5995568847
 11
111.0476305383
 21
217.5300174969
  0
LINE
  8
0
 62
7
  6
CONTINUOUS
 10
112.237679792
 20
217.6358308121
 11
112.3248845946
 21
216.8962736743
  0
LINE
  8
0
 62
7
  6
CONTINUOUS
 10
112.779846874
 20
217.4855204204
 11
112.7549312161
 21
217.6968224597
  0
LINE
  8
0
 62
7
  6
CONTINUOUS
 10
113.0203314004
 20
216.3355571619
 11
112.9829579136
 21
216.652510221
  0
LINE
  8
0
 62
7
  6
CONTINUOUS
 10
115.5692102985
 20
216.9574679006
 11
115.6065837853
 21
216.6405148415
  0
LINE
  8
0
 62
7
  6
CONTINUOUS
 10
116.1362883027
 20
216.595854911
 11
116.0739991406
 21
217.1241101574
  0
LINE
  8
0
 62
7
  6
CONTINUOUS
 10
133.829814551
 20
217.6300805217
 11
131.8857231681
 21
213.0235081849
  0
LINE
  8
0
 62
7
  6
CONTINUOUS
 10
132.4615447102
 20
212.780496762
 11
133.3301812978
 21
214.8387525162
  0
LINE
  8
0
 62
7
  6
CONTINUOUS
 10
133.5783631469
 20
215.4268255104
 11
134.1988178855
 21
216.8970082704
  0
LINE
  8
0
 62
7
  6
CONTINUOUS
 10
136.3498909975
 20
215.296388299
 11
136.2257999571
 21
215.0023515273
  0
LINE
  8
0
 62
7
  6
CONTINUOUS
 10
136.7602578577
 20
214.6613279387
 11
136.9257125396
 21
215.0533768761
  0
LINE
  8
0
 62
7
  6
CONTINUOUS
 10
142.2267682168
 20
210.8689755431
 11
141.7743730141
 21
210.2774622142
  0
LINE
  8
0
 62
7
  6
CONTINUOUS
 10
142.5112172078
 20
210.3835662692
 11
142.64047298
 21
210.5525700775
  0
LINE
  8
0
 62
7
  6
CONTINUOUS
 10
141.8830543529
 20
209.3907617949
 11
142.0769380112
 21
209.6442675073
  0
LINE
  8
0
 62
7
  6
CONTINUOUS
 10
80.6238336812
 20
181.910568417
 11
81.1733492621
 21
182.0666738666
  0
LINE
  8
0
 62
7
  6
CONTINUOUS
 10
79.4166925746
 20
186.6750517552
 11
79.0831843304
 21
186.636593907
  0
LINE
  8
0
 62
7
  6
CONTINUOUS
 10
85.2457197751
 20
202.3737204952
 11
89.2154140819
 21
201.0092800069
  0
LINE
  8
0
 62
7
  6
CONTINUOUS
 10
89.0676831935
 20
201.6686136279
 11
84.6203852633
 21
203.289333156
  0
LINE
  8
0
 62
7
  6
CONTINUOUS
 10
91.1436839611
 20
209.0184452538
 11
91.4368733005
 21
208.8549004879
  0
LINE
  8
0
 62
7
  6
CONTINUOUS
 10
91.8956736063
 20
209.2793145303
 11
91.6024842669
 21
209.4428592962
  0
LINE
  8
0
 62
7
  6
CONTINUOUS
 10
96.5653466497
 20
210.3764873875
 11
96.8361852591
 21
210.1781104182
  0
LINE
  8
0
 62
7
  6
CONTINUOUS
 10
97.2816374517
 20
210.6292364311
 11
97.0107988423
 21
210.8276134005
  0
LINE
  8
0
 62
7
  6
CONTINUOUS
 10
95.3236885077
 20
212.1042664567
 11
95.594527204
 21
211.9058893664
  0
LINE
  8
0
 62
7
  6
CONTINUOUS
 10
96.0399792227
 20
212.3570156214
 11
95.7691407003
 21
212.5553924697
  0
LINE
  8
0
 62
7
  6
CONTINUOUS
 10
107.8556672965
 20
215.223140573
 11
108.0321347365
 21
214.9375436103
  0
LINE
  8
0
 62
7
  6
CONTINUOUS
 10
113.1611580134
 20
216.0308027674
 11
113.0203314004
 21
216.3355571619
  0
LINE
  8
0
 62
7
  6
CONTINUOUS
 10
107.6290409519
 20
215.7155067055
 11
107.8556672965
 21
215.223140573
  0
LINE
  8
0
 62
7
  6
CONTINUOUS
 10
111.0476305383
 20
217.5300174969
 11
110.8209995949
 21
218.0223823604
  0
LINE
  8
0
 62
7
  6
CONTINUOUS
 10
108.3618222438
 20
215.3459256948
 11
108.1101118305
 21
215.9416752156
  0
LINE
  8
0
 62
7
  6
CONTINUOUS
 10
110.3148492816
 20
217.8995983627
 11
110.5665550258
 21
217.3038478626
  0
LINE
  8
0
 62
7
  6
CONTINUOUS
 10
112.3248845946
 20
216.8962736743
 11
112.5155425408
 21
216.168915053
  0
LINE
  8
0
 62
7
  6
CONTINUOUS
 10
141.7743730141
 20
210.2774622142
 11
141.4047217035
 21
209.6226653563
  0
LINE
  8
0
 62
7
  6
CONTINUOUS
 10
144.1454769777
 20
208.0622285923
 11
143.9515933194
 21
207.8087228799
  0
LINE
  8
0
 62
7
  6
CONTINUOUS
 10
144.3006701965
 20
207.4078155102
 11
144.6238097175
 21
207.8303251492
  0
LINE
  8
0
 62
7
  6
CONTINUOUS
 10
79.8379784202
 20
195.3912208872
 11
82.8273401983
 21
195.8230031913
  0
LINE
  8
0
 62
7
  6
CONTINUOUS
 10
83.4435447009
 20
195.8526957408
 11
85.910914461
 21
196.2053755449
  0
LINE
  8
0
 62
7
  6
CONTINUOUS
 10
86.2012041568
 20
196.7588707053
 11
83.117629894
 21
196.3764983517
  0
LINE
  8
SURFACE
 62
7
  6
CONTINUOUS
 10
179.4810505695
 20
167.5499411562
 11
176.9622139142
 21
169.0041921772
  0
LINE
  8
0
 62
7
  6
CONTINUOUS
 10
82.6945692894
 20
223.4296421772
 11
80.1757326341
 21
224.8838931981
  0
LINE
  8
0
 62
7
  6
CONTINUOUS
 10
108.9172200471
 20
214.8238459706
 11
108.3618222438
 21
215.3459256948
  0
LINE
  8
DEFAULT_3
 62
2
  6
PHANTOM
 10
138.1943627944
 20
185.6392188827
 11
142.4370034815
 21
181.3965781956
  0
LINE
  8
DEFAULT_3
 62
2
  6
PHANTOM
 10
127.2610230501
 20
196.572558627
 11
123.018382363
 21
200.8151993141
  0
LINE
  8
0
 62
7
  6
CONTINUOUS
 10
108.0321347365
 20
214.9375436103
 11
108.3349153986
 21
214.5731197616
  0
LINE
  8
0
 62
7
  6
CONTINUOUS
 10
110.6445320846
 20
218.3079796127
 11
110.34175144
 21
218.672403389
  0
LINE
  8
0
 62
7
  6
CONTINUOUS
 10
110.8209995949
 20
218.0223823604
 11
110.6445320846
 21
218.3079796127
  0
LINE
  8
0
 62
7
  6
CONTINUOUS
 10
112.5155425408
 20
216.168915053
 11
112.7847284754
 21
215.6650560929
  0
LINE
  8
0
 62
7
  6
CONTINUOUS
 10
116.0739991406
 20
217.1241101574
 11
115.8048132147
 21
217.6279690436
  0
LINE
  8
0
 62
7
  6
CONTINUOUS
 10
115.428383668
 20
217.2622224431
 11
115.5692102985
 21
216.9574679006
  0
LINE
  8
0
 62
7
  6
CONTINUOUS
 10
115.6428614036
 20
219.0014325955
 11
115.5020347906
 21
219.3061869901
  0
LINE
  8
0
 62
7
  6
CONTINUOUS
 10
136.3780131294
 20
215.6309260818
 11
136.3498909975
 21
215.296388299
  0
LINE
  8
0
 62
7
  6
CONTINUOUS
 10
136.9257125396
 20
215.0533768761
 11
136.9538346715
 21
215.387914659
  0
LINE
  8
0
 62
7
  6
CONTINUOUS
 10
139.7927034802
 20
209.0644821939
 11
140.8659341515
 21
214.224515954
  0
LINE
  8
0
 62
7
  6
CONTINUOUS
 10
139.5341262852
 20
210.6917193169
 11
139.2524456909
 21
209.3787217858
  0
LINE
  8
0
 62
7
  6
CONTINUOUS
 10
140.291813331
 20
214.0661731694
 11
139.6580350292
 21
211.1119268298
  0
LINE
  8
0
 62
7
  6
CONTINUOUS
 10
141.4047217035
 20
209.6226653563
 11
141.247062618
 21
209.073594749
  0
LINE
  8
0
 62
7
  6
CONTINUOUS
 10
144.6238097175
 20
207.8303251492
 11
144.7814687578
 21
208.3793956973
  0
LINE
  8
0
 62
7
  6
CONTINUOUS
 10
141.7719146773
 20
209.073972672
 11
141.8830543529
 21
209.3907617949
  0
LINE
  8
0
 62
7
  6
CONTINUOUS
 10
144.2566167438
 20
208.3790178336
 11
144.1454769777
 21
208.0622285923
  0
LINE
  8
0
 62
7
  6
CONTINUOUS
 10
145.6216314582
 20
209.4779206877
 11
145.7327711338
 21
209.7947098107
  0
LINE
  8
0
 62
7
  6
CONTINUOUS
 10
142.3535657427
 20
209.8344899275
 11
142.6483019052
 21
209.8769327082
  0
LINE
  8
0
 62
7
  6
CONTINUOUS
 10
82.5956373223
 20
196.2973947961
 11
80.1282681159
 21
195.9447160476
  0
LINE
  8
0
 62
7
  6
CONTINUOUS
 10
96.2720031346
 20
210.4276867102
 11
96.5653466497
 21
210.3764873875
  0
LINE
  8
0
 62
7
  6
CONTINUOUS
 10
91.6024842669
 20
209.4428592962
 11
91.0841213962
 21
209.5430269141
  0
LINE
  8
0
 62
7
  6
CONTINUOUS
 10
97.0107988423
 20
210.8276134005
 11
96.5086997032
 21
210.9908006301
  0
LINE
  8
0
 62
7
  6
CONTINUOUS
 10
95.7691407003
 20
212.5553924697
 11
95.2670415611
 21
212.7185796993
  0
LINE
  8
0
 62
7
  6
CONTINUOUS
 10
108.3349153986
 20
214.5731197616
 11
108.7138457532
 21
214.3366370363
  0
LINE
  8
0
 62
7
  6
CONTINUOUS
 10
109.7594467916
 20
218.42167718
 11
110.3148492816
 21
217.8995983627
  0
LINE
  8
DEFAULT_3
 62
2
  6
PHANTOM
 10
131.3857198094
 20
194.7106035675
 11
136.3324077349
 21
189.763915642
  0
LINE
  8
0
 62
7
  6
CONTINUOUS
 10
112.7847284754
 20
215.6650560929
 11
113.1449097029
 21
215.279046854
  0
LINE
  8
0
 62
7
  6
CONTINUOUS
 10
115.5020347906
 20
219.3061869901
 11
115.1418535675
 21
219.6921961919
  0
LINE
  8
0
 62
7
  6
CONTINUOUS
 10
113.4054282901
 20
215.7382458467
 11
113.1611580134
 21
216.0308027674
  0
LINE
  8
0
 62
7
  6
CONTINUOUS
 10
114.8813349759
 20
219.2329972363
 11
115.1256099795
 21
218.9404409479
  0
LINE
  8
SURFACE
 62
7
  6
CONTINUOUS
 10
140.7707055231
 20
119.9303214712
 11
140.7707055231
 21
122.8388235131
  0
LINE
  8
0
 62
7
  6
CONTINUOUS
 10
140.7707055231
 20
231.6897235131
 11
140.7707055231
 21
234.5982255551
  0
LINE
  8
0
 62
7
  6
CONTINUOUS
 10
141.247062618
 20
209.073594749
 11
141.2367754239
 21
208.5457426648
  0
LINE
  8
0
 62
7
  6
CONTINUOUS
 10
141.743511364
 20
208.6939058729
 11
141.7719146773
 21
209.073972672
  0
LINE
  8
0
 62
7
  6
CONTINUOUS
 10
145.2363223878
 20
210.1743986868
 11
145.2079191198
 21
209.7943319469
  0
LINE
  8
0
 62
7
  6
CONTINUOUS
 10
135.5788623152
 20
214.0052202762
 11
136.0868328034
 21
214.1372497761
  0
LINE
  8
0
 62
7
  6
CONTINUOUS
 10
91.0841213962
 20
209.5430269141
 11
90.5615336541
 21
209.4943662778
  0
LINE
  8
0
 62
7
  6
CONTINUOUS
 10
95.2670415611
 20
212.7185796993
 11
94.7424374293
 21
212.7345894033
  0
LINE
  8
0
 62
7
  6
CONTINUOUS
 10
90.8462697503
 20
209.0331617656
 11
91.1436839611
 21
209.0184452538
  0
LINE
  8
0
 62
7
  6
CONTINUOUS
 10
143.3156015845
 20
207.491555834
 11
142.9381214393
 21
207.5123964638
  0
LINE
  8
0
 62
7
  6
CONTINUOUS
 10
142.6483019052
 20
209.8769327082
 11
143.0257820504
 21
209.8560920784
  0
LINE
  8
0
 62
7
  6
CONTINUOUS
 10
143.2661774982
 20
210.3418850096
 11
142.5112172078
 21
210.3835662692
  0
LINE
  8
0
 62
7
  6
CONTINUOUS
 10
143.74697615
 20
211.3134653152
 11
144.1244562952
 21
211.2926246854
  0
LINE
  8
0
 62
7
  6
CONTINUOUS
 10
142.6977183767
 20
207.0266092744
 11
143.3053143904
 21
206.9637037498
  0
LINE
  8
0
 62
7
  6
CONTINUOUS
 10
95.0303449926
 20
212.1554657794
 11
95.3236885077
 21
212.1042664567
  0
LINE
  8
0
 62
7
  6
CONTINUOUS
 10
108.7138457532
 20
214.3366370363
 11
109.2952390112
 21
214.1492685935
  0
LINE
  8
0
 62
7
  6
CONTINUOUS
 10
109.2710709581
 20
214.690747794
 11
108.9172200471
 21
214.8238459706
  0
LINE
  8
0
 62
7
  6
CONTINUOUS
 10
109.4055958806
 20
218.5547753566
 11
109.7594467916
 21
218.42167718
  0
LINE
  8
0
 62
7
  6
CONTINUOUS
 10
113.1449097029
 20
215.279046854
 11
113.6995346171
 21
215.0230854148
  0
LINE
  8
0
 62
7
  6
CONTINUOUS
 10
113.7406938553
 20
215.5635386841
 11
113.4054282901
 21
215.7382458467
  0
LINE
  8
0
 62
7
  6
CONTINUOUS
 10
114.8613056637
 20
217.6238354326
 11
115.196571229
 21
217.4491282701
  0
LINE
  8
0
 62
7
  6
CONTINUOUS
 10
110.34175144
 20
218.672403389
 11
109.9628210943
 21
218.9088860781
  0
LINE
  8
0
 62
7
  6
CONTINUOUS
 10
115.196571229
 20
217.4491282701
 11
115.428383668
 21
217.2622224431
  0
LINE
  8
0
 62
7
  6
CONTINUOUS
 10
115.8048132147
 20
217.6279690436
 11
115.4570898205
 21
217.9083272258
  0
LINE
  8
0
 62
7
  6
CONTINUOUS
 10
136.9538346715
 20
215.387914659
 11
136.8313784665
 21
215.9014690332
  0
LINE
  8
0
 62
7
  6
CONTINUOUS
 10
145.7327711338
 20
209.7947098107
 11
145.7430583052
 21
210.3225618653
  0
LINE
  8
DEFAULT_3
 62
2
  6
PHANTOM
 10
142.4370034815
 20
173.1319688307
 11
138.1943627944
 21
168.8893281435
  0
LINE
  8
DEFAULT_3
 62
2
  6
PHANTOM
 10
123.018382363
 20
153.7133477121
 11
127.2610230501
 21
157.9559883993
  0
LINE
  8
DEFAULT_3
 62
2
  6
PHANTOM
 10
136.3324077349
 20
164.7646313842
 11
131.3857198094
 21
159.8179434588
  0
LINE
  8
SURFACE
 62
7
  6
CONTINUOUS
 10
80.1757326341
 20
129.6446538281
 11
82.6945692894
 21
131.0989048491
  0
LINE
  8
0
 62
7
  6
CONTINUOUS
 10
176.9622139142
 20
185.5243548491
 11
179.4810505695
 21
186.97860587
  0
LINE
  8
0
 62
7
  6
CONTINUOUS
 10
96.5086997032
 20
210.9908006301
 11
96.2774390865
 21
210.9556110114
  0
LINE
  8
0
 62
7
  6
CONTINUOUS
 10
114.2292438712
 20
214.9784260334
 11
114.7464905597
 21
215.0394171226
  0
LINE
  8
0
 62
7
  6
CONTINUOUS
 10
114.7876545324
 20
215.5798709596
 11
114.0635015916
 21
215.4944825413
  0
LINE
  8
0
 62
7
  6
CONTINUOUS
 10
113.8143449866
 20
217.6075031571
 11
114.5384979275
 21
217.6928915755
  0
LINE
  8
0
 62
7
  6
CONTINUOUS
 10
114.3727556566
 20
218.2089480094
 11
113.8555089681
 21
218.1479569202
  0
LINE
  8
0
 62
7
  6
CONTINUOUS
 10
115.1256099795
 20
218.9404409479
 11
115.6428614036
 21
219.0014325955
  0
LINE
  8
0
 62
7
  6
CONTINUOUS
 10
109.2952390112
 20
214.1492685935
 11
109.9277025312
 21
214.1932257686
  0
LINE
  8
0
 62
7
  6
CONTINUOUS
 10
109.8023053401
 20
214.7101484033
 11
109.2710709581
 21
214.690747794
  0
LINE
  8
0
 62
7
  6
CONTINUOUS
 10
108.8743661326
 20
218.5353758714
 11
109.4055958806
 21
218.5547753566
  0
LINE
  8
0
 62
7
  6
CONTINUOUS
 10
135.7310709785
 20
214.6337964102
 11
135.4017965659
 21
214.657289956
  0
LINE
  8
0
 62
7
  6
CONTINUOUS
 10
113.6995346171
 20
215.0230854148
 11
114.2292438712
 21
214.9784260334
  0
LINE
  8
0
 62
7
  6
CONTINUOUS
 10
114.9024649096
 20
218.1642886373
 11
114.3727556566
 21
218.2089480094
  0
LINE
  8
0
 62
7
  6
CONTINUOUS
 10
114.5872333921
 20
219.9481581618
 11
114.0575241391
 21
219.9928175339
  0
LINE
  8
0
 62
7
  6
CONTINUOUS
 10
144.364851743
 20
211.7784176166
 11
143.7572633215
 21
211.8413173698
  0
LINE
  8
0
 62
7
  6
CONTINUOUS
 10
135.0576459242
 20
214.1097182476
 11
135.5788623152
 21
214.0052202762
  0
LINE
  8
0
 62
7
  6
CONTINUOUS
 10
114.0635015916
 20
215.4944825413
 11
113.7406938553
 21
215.5635386841
  0
LINE
  8
0
 62
7
  6
CONTINUOUS
 10
114.5384979275
 20
217.6928915755
 11
114.8613056637
 21
217.6238354326
  0
LINE
  8
0
 62
7
  6
CONTINUOUS
 10
114.2232616744
 20
219.4767605416
 11
114.5460694107
 21
219.4077043988
  0
LINE
  8
0
 62
7
  6
CONTINUOUS
 10
109.9628210943
 20
218.9088860781
 11
109.3814324768
 21
219.0962556178
  0
LINE
  8
0
 62
7
  6
CONTINUOUS
 10
142.9381214393
 20
207.5123964638
 11
142.6252691803
 21
207.6177389977
  0
LINE
  8
0
 62
7
  6
CONTINUOUS
 10
143.0257820504
 20
209.8560920784
 11
143.3386343094
 21
209.7507495445
  0
LINE
  8
0
 62
7
  6
CONTINUOUS
 10
144.1244562952
 20
211.2926246854
 11
144.4373085543
 21
211.1872821514
  0
LINE
  8
0
 62
7
  6
CONTINUOUS
 10
131.8857231681
 20
213.0235081849
 11
132.4615447102
 21
212.780496762
  0
LINE
  8
0
 62
7
  6
CONTINUOUS
 10
133.3301812978
 20
214.8387525162
 11
135.0576459242
 21
214.1097182476
  0
LINE
  8
0
 62
7
  6
CONTINUOUS
 10
135.4017965659
 20
214.657289956
 11
133.5783631469
 21
215.4268255104
  0
LINE
  8
0
 62
7
  6
CONTINUOUS
 10
115.4570898205
 20
217.9083272258
 11
114.9024649096
 21
218.1642886373
  0
LINE
  8
0
 62
7
  6
CONTINUOUS
 10
115.1418535675
 20
219.6921961919
 11
114.5872333921
 21
219.9481581618
  0
LINE
  8
0
 62
7
  6
CONTINUOUS
 10
142.2193857217
 20
207.2585128284
 11
142.6977183767
 21
207.0266092744
  0
LINE
  8
0
 62
7
  6
CONTINUOUS
 10
143.7445177227
 20
210.1099756546
 11
143.2661774982
 21
210.3418850096
  0
LINE
  8
0
 62
7
  6
CONTINUOUS
 10
114.5460694107
 20
219.4077043988
 11
114.8813349759
 21
219.2329972363
  0
LINE
  8
0
 62
7
  6
CONTINUOUS
 10
136.190986259
 20
211.1594120075
 11
136.7312440483
 21
210.8451724156
  0
LINE
  8
0
 62
7
  6
CONTINUOUS
 10
139.2524456909
 20
209.3787217858
 11
139.7927034802
 21
209.0644821939
  0
LINE
  8
0
 62
7
  6
CONTINUOUS
 10
137.7332656137
 20
211.7391854224
 11
139.5341262852
 21
210.6917193169
  0
LINE
  8
0
 62
7
  6
CONTINUOUS
 10
139.6580350292
 20
211.1119268298
 11
138.0372616614
 21
212.0546456055
  0
LINE
  8
0
 62
7
  6
CONTINUOUS
 10
141.8056809585
 20
207.574918294
 11
142.2193857217
 21
207.2585128284
  0
LINE
  8
0
 62
7
  6
CONTINUOUS
 10
142.6252691803
 20
207.6177389977
 11
142.0460764516
 21
208.0607112844
  0
LINE
  8
0
 62
7
  6
CONTINUOUS
 10
141.4565965119
 20
207.9758314647
 11
141.8056809585
 21
207.574918294
  0
LINE
  8
0
 62
7
  6
CONTINUOUS
 10
142.0460764516
 20
208.0607112844
 11
141.8624799647
 21
208.3350576266
  0
LINE
  8
0
 62
7
  6
CONTINUOUS
 10
136.8313784665
 20
215.9014690332
 11
136.5715898274
 21
216.3575125275
  0
LINE
  8
0
 62
7
  6
CONTINUOUS
 10
136.268798434
 20
215.9079548389
 11
136.3780131294
 21
215.6309260818
  0
LINE
  8
0
 62
7
  6
CONTINUOUS
 10
141.2367754239
 20
208.5457426648
 11
141.4565965119
 21
207.9758314647
  0
LINE
  8
0
 62
7
  6
CONTINUOUS
 10
144.7271280431
 20
208.8227458478
 11
144.507299363
 21
209.3926628193
  0
LINE
  8
0
 62
7
  6
CONTINUOUS
 10
141.8624799647
 20
208.3350576266
 11
141.743511364
 21
208.6939058729
  0
LINE
  8
0
 62
7
  6
CONTINUOUS
 10
144.101423525
 20
209.0334309156
 11
144.2203921258
 21
208.6745826693
  0
LINE
  8
0
 62
7
  6
CONTINUOUS
 10
144.2203921258
 20
208.6745826693
 11
144.2566167438
 21
208.3790178336
  0
LINE
  8
0
 62
7
  6
CONTINUOUS
 10
144.7814687578
 20
208.3793956973
 11
144.7271280431
 21
208.8227458478
  0
LINE
  8
0
 62
7
  6
CONTINUOUS
 10
113.6025618597
 20
219.4035707879
 11
114.2232616744
 21
219.4767605416
  0
LINE
  8
0
 62
7
  6
CONTINUOUS
 10
114.0575241391
 20
219.9928175339
 11
113.6437258412
 21
219.9440245509
  0
LINE
  8
0
 62
7
  6
CONTINUOUS
 10
109.3814324768
 20
219.0962556178
 11
108.748968959
 21
219.0522984338
  0
LINE
  8
SURFACE
 62
7
  6
CONTINUOUS
 10
150.7118583211
 20
222.1646585454
 11
150.3275860716
 21
222.1568835131
  0
LINE
  8
SURFACE
 62
7
  6
CONTINUOUS
 10
150.3275860716
 20
222.1568835131
 11
114.0014498379
 21
222.1568835131
  0
LINE
  8
0
 62
7
  6
CONTINUOUS
 10
92.9673172124
 20
222.1568835131
 11
87.4445692894
 21
222.1568835131
  0
LINE
  8
0
 62
7
  6
CONTINUOUS
 10
134.1988178855
 20
216.8970082704
 11
136.0222513045
 21
216.127472716
  0
LINE
  8
0
 62
7
  6
CONTINUOUS
 10
136.1331007194
 20
216.6580348303
 11
133.829814551
 21
217.6300805217
  0
LINE
  8
0
 62
7
  6
CONTINUOUS
 10
144.8431919675
 20
211.5465082615
 11
144.364851743
 21
211.7784176166
  0
LINE
  8
0
 62
7
  6
CONTINUOUS
 10
140.8659341515
 20
214.224515954
 11
140.1455890585
 21
214.6435028757
  0
LINE
  8
0
 62
7
  6
CONTINUOUS
 10
136.5715898274
 20
216.3575125275
 11
136.1331007194
 21
216.6580348303
  0
LINE
  8
0
 62
7
  6
CONTINUOUS
 10
143.3386343094
 20
209.7507495445
 11
143.9178270381
 21
209.3077772578
  0
LINE
  8
0
 62
7
  6
CONTINUOUS
 10
144.1582224859
 20
209.793570189
 11
143.7445177227
 21
210.1099756546
  0
LINE
  8
0
 62
7
  6
CONTINUOUS
 10
145.2079191198
 20
209.7943319469
 11
145.6216314582
 21
209.4779206877
  0
LINE
  8
0
 62
7
  6
CONTINUOUS
 10
144.4373085543
 20
211.1872821514
 11
144.9337573002
 21
210.8075932753
  0
LINE
  8
0
 62
7
  6
CONTINUOUS
 10
145.174152748
 20
211.2933862065
 11
144.8431919675
 21
211.5465082615
  0
LINE
  8
0
 62
7
  6
CONTINUOUS
 10
136.0222513045
 20
216.127472716
 11
136.268798434
 21
215.9079548389
  0
LINE
  8
0
 62
7
  6
CONTINUOUS
 10
144.507299363
 20
209.3926628193
 11
144.1582224859
 21
209.793570189
  0
LINE
  8
0
 62
7
  6
CONTINUOUS
 10
145.5232372003
 20
210.8924730432
 11
145.174152748
 21
211.2933862065
  0
LINE
  8
0
 62
7
  6
CONTINUOUS
 10
143.9178270381
 20
209.3077772578
 11
144.101423525
 21
209.0334309156
  0
LINE
  8
0
 62
7
  6
CONTINUOUS
 10
144.9337573002
 20
210.8075932753
 11
145.1173537871
 21
210.5332469331
  0
LINE
  8
0
 62
7
  6
CONTINUOUS
 10
145.7430583052
 20
210.3225618653
 11
145.5232372003
 21
210.8924730432
  0
LINE
  8
0
 62
7
  6
CONTINUOUS
 10
145.1173537871
 20
210.5332469331
 11
145.2363223878
 21
210.1743986868
  0
LINE
  8
SURFACE
 62
7
  6
CONTINUOUS
 10
173.6838420784
 20
172.1525314992
 11
173.4849725783
 21
172.4814335131
  0
LINE
  8
SURFACE
 62
7
  6
CONTINUOUS
 10
173.4849725783
 20
172.4814335131
 11
155.3219044614
 21
203.9407903128
  0
LINE
  8
0
 62
7
  6
CONTINUOUS
 10
144.8048381487
 20
222.1568835131
 11
142.0434641872
 21
226.9397235131
  0
LINE
  8
SURFACE
 62
7
  6
CONTINUOUS
 10
141.8580614379
 20
127.252146467
 11
142.0434641872
 21
127.5888235131
  0
LINE
  8
SURFACE
 62
7
  6
CONTINUOUS
 10
142.0434641872
 20
127.5888235131
 11
160.206532304
 21
159.0481803128
  0
LINE
  8
0
 62
7
  6
CONTINUOUS
 10
170.7235986168
 20
177.2642735131
 11
173.4849725783
 21
182.0471135131
  0
POLYLINE
  8
SURFACE
 62
7
  6
CONTINUOUS
 66
1
 70
0
  0
VERTEX
  8
SURFACE
 62
7
  6
CONTINUOUS
 10
331.64901087
 20
118.8303226066
  0
VERTEX
  8
SURFACE
 62
7
  6
CONTINUOUS
 10
331.6728070272
 20
118.8306057719
  0
VERTEX
  8
SURFACE
 62
7
  6
CONTINUOUS
 10
331.7162862514
 20
118.8325881296
  0
VERTEX
  8
SURFACE
 62
7
  6
CONTINUOUS
 10
331.7590013487
 20
118.8363898772
  0
VERTEX
  8
SURFACE
 62
7
  6
CONTINUOUS
 10
331.8008957981
 20
118.8419242504
  0
VERTEX
  8
SURFACE
 62
7
  6
CONTINUOUS
 10
331.8419197933
 20
118.8491056547
  0
VERTEX
  8
SURFACE
 62
7
  6
CONTINUOUS
 10
331.882029824
 20
118.857849988
  0
VERTEX
  8
SURFACE
 62
7
  6
CONTINUOUS
 10
331.921188261
 20
118.8680749198
  0
VERTEX
  8
SURFACE
 62
7
  6
CONTINUOUS
 10
331.9593629481
 20
118.8797001295
  0
VERTEX
  8
SURFACE
 62
7
  6
CONTINUOUS
 10
331.9965268034
 20
118.892647507
  0
VERTEX
  8
SURFACE
 62
7
  6
CONTINUOUS
 10
332.0326574316
 20
118.9068413191
  0
VERTEX
  8
SURFACE
 62
7
  6
CONTINUOUS
 10
332.0677367446
 20
118.9222083425
  0
VERTEX
  8
SURFACE
 62
7
  6
CONTINUOUS
 10
332.1017506036
 20
118.938677971
  0
VERTEX
  8
SURFACE
 62
7
  6
CONTINUOUS
 10
332.1346884704
 20
118.9561822945
  0
VERTEX
  8
SURFACE
 62
7
  6
CONTINUOUS
 10
332.1665430727
 20
118.9746561545
  0
VERTEX
  8
SURFACE
 62
7
  6
CONTINUOUS
 10
332.1973100844
 20
118.9940371774
  0
VERTEX
  8
SURFACE
 62
7
  6
CONTINUOUS
 10
332.2269878211
 20
119.0142657879
  0
VERTEX
  8
SURFACE
 62
7
  6
CONTINUOUS
 10
332.2555769495
 20
119.0352852047
  0
VERTEX
  8
SURFACE
 62
7
  6
CONTINUOUS
 10
332.2830802137
 20
119.0570414198
  0
VERTEX
  8
SURFACE
 62
7
  6
CONTINUOUS
 10
332.3095021739
 20
119.0794831631
  0
VERTEX
  8
SURFACE
 62
7
  6
CONTINUOUS
 10
332.3348487512
 20
119.1025616551
  0
VERTEX
  8
SURFACE
 62
7
  6
CONTINUOUS
 10
332.3591221933
 20
119.1262256331
  0
VERTEX
  8
SURFACE
 62
7
  6
CONTINUOUS
 10
332.3823215533
 20
119.1504202653
  0
VERTEX
  8
SURFACE
 62
7
  6
CONTINUOUS
 10
332.4044481186
 20
119.1750917237
  0
VERTEX
  8
SURFACE
 62
7
  6
CONTINUOUS
 10
332.4255055439
 20
119.2001874996
  0
VERTEX
  8
SURFACE
 62
7
  6
CONTINUOUS
 10
332.4454997247
 20
119.2256564817
  0
VERTEX
  8
SURFACE
 62
7
  6
CONTINUOUS
 10
332.4644386694
 20
119.2514490253
  0
VERTEX
  8
SURFACE
 62
7
  6
CONTINUOUS
 10
332.4823323693
 20
119.2775170087
  0
VERTEX
  8
SURFACE
 62
7
  6
CONTINUOUS
 10
332.4991926617
 20
119.3038138682
  0
VERTEX
  8
SURFACE
 62
7
  6
CONTINUOUS
 10
332.5150330823
 20
119.3302945954
  0
VERTEX
  8
SURFACE
 62
7
  6
CONTINUOUS
 10
332.5298686988
 20
119.3569156721
  0
VERTEX
  8
SURFACE
 62
7
  6
CONTINUOUS
 10
332.5437159197
 20
119.3836348967
  0
VERTEX
  8
SURFACE
 62
7
  6
CONTINUOUS
 10
332.5565922621
 20
119.410411026
  0
VERTEX
  8
SURFACE
 62
7
  6
CONTINUOUS
 10
332.5685135771
 20
119.437197284
  0
VERTEX
  8
SURFACE
 62
7
  6
CONTINUOUS
 10
332.5794885004
 20
119.4639244937
  0
VERTEX
  8
SURFACE
 62
7
  6
CONTINUOUS
 10
332.5895297211
 20
119.4905219933
  0
VERTEX
  8
SURFACE
 62
7
  6
CONTINUOUS
 10
332.5986555442
 20
119.5169222614
  0
VERTEX
  8
SURFACE
 62
7
  6
CONTINUOUS
 10
332.606889269
 20
119.5430610491
  0
VERTEX
  8
SURFACE
 62
7
  6
CONTINUOUS
 10
332.6142577187
 20
119.5688741862
  0
VERTEX
  8
SURFACE
 62
7
  6
CONTINUOUS
 10
332.6207878691
 20
119.5942840921
  0
VERTEX
  8
SURFACE
 62
7
  6
CONTINUOUS
 10
332.6264946468
 20
119.6191353197
  0
VERTEX
  8
SURFACE
 62
7
  6
CONTINUOUS
 10
332.6314028939
 20
119.6432583085
  0
VERTEX
  8
SURFACE
 62
7
  6
CONTINUOUS
 10
332.6356130815
 20
119.6668606339
  0
VERTEX
  8
SURFACE
 62
7
  6
CONTINUOUS
 10
332.6392002495
 20
119.690136987
  0
VERTEX
  8
SURFACE
 62
7
  6
CONTINUOUS
 10
332.642127633
 20
119.7125093175
  0
VERTEX
  8
SURFACE
 62
7
  6
CONTINUOUS
 10
332.6444256519
 20
119.7335638493
  0
VERTEX
  8
SURFACE
 62
7
  6
CONTINUOUS
 10
332.6461567806
 20
119.7528783245
  0
VERTEX
  8
SURFACE
 62
7
  6
CONTINUOUS
 10
332.646660983
 20
119.7593618585
  0
SEQEND
  0
LINE
  8
SURFACE
 62
7
  6
CONTINUOUS
 10
331.6490126228
 20
118.8303214712
 11
320.8875820569
 21
118.8303214712
  0
LINE
  8
0
 62
7
  6
CONTINUOUS
 10
310.126151491
 20
118.8303214712
 11
320.8875820569
 21
118.8303214712
  0
POLYLINE
  8
SURFACE
 62
7
  6
CONTINUOUS
 66
1
 70
0
  0
VERTEX
  8
SURFACE
 62
7
  6
CONTINUOUS
 10
331.6496196454
 20
129.4972823879
  0
VERTEX
  8
SURFACE
 62
7
  6
CONTINUOUS
 10
331.6979536782
 20
129.4984510978
  0
VERTEX
  8
SURFACE
 62
7
  6
CONTINUOUS
 10
331.7501213678
 20
129.5023452366
  0
VERTEX
  8
SURFACE
 62
7
  6
CONTINUOUS
 10
331.8011013372
 20
129.5088217131
  0
VERTEX
  8
SURFACE
 62
7
  6
CONTINUOUS
 10
331.8508027822
 20
129.5177276457
  0
VERTEX
  8
SURFACE
 62
7
  6
CONTINUOUS
 10
331.8991485428
 20
129.5289133105
  0
VERTEX
  8
SURFACE
 62
7
  6
CONTINUOUS
 10
331.946074021
 20
129.5422328678
  0
VERTEX
  8
SURFACE
 62
7
  6
CONTINUOUS
 10
331.9915261204
 20
129.5575449607
  0
VERTEX
  8
SURFACE
 62
7
  6
CONTINUOUS
 10
332.0354622204
 20
129.5747131994
  0
VERTEX
  8
SURFACE
 62
7
  6
CONTINUOUS
 10
332.0778491668
 20
129.5936065326
  0
VERTEX
  8
SURFACE
 62
7
  6
CONTINUOUS
 10
332.1186623407
 20
129.6140995386
  0
VERTEX
  8
SURFACE
 62
7
  6
CONTINUOUS
 10
332.1578847609
 20
129.6360726339
  0
VERTEX
  8
SURFACE
 62
7
  6
CONTINUOUS
 10
332.1955062187
 20
129.6594122013
  0
VERTEX
  8
SURFACE
 62
7
  6
CONTINUOUS
 10
332.231522458
 20
129.684010649
  0
VERTEX
  8
SURFACE
 62
7
  6
CONTINUOUS
 10
332.265934401
 20
129.7097664087
  0
VERTEX
  8
SURFACE
 62
7
  6
CONTINUOUS
 10
332.2987474171
 20
129.7365838737
  0
VERTEX
  8
SURFACE
 62
7
  6
CONTINUOUS
 10
332.3299706346
 20
129.7643732834
  0
VERTEX
  8
SURFACE
 62
7
  6
CONTINUOUS
 10
332.359612918
 20
129.7930471487
  0
VERTEX
  8
SURFACE
 62
7
  6
CONTINUOUS
 10
332.3876737836
 20
129.8225093105
  0
VERTEX
  8
SURFACE
 62
7
  6
CONTINUOUS
 10
332.414155004
 20
129.8526633925
  0
VERTEX
  8
SURFACE
 62
7
  6
CONTINUOUS
 10
332.4390636856
 20
129.8834160137
  0
VERTEX
  8
SURFACE
 62
7
  6
CONTINUOUS
 10
332.4624119087
 20
129.9146770417
  0
VERTEX
  8
SURFACE
 62
7
  6
CONTINUOUS
 10
332.4842163584
 20
129.9463598099
  0
VERTEX
  8
SURFACE
 62
7
  6
CONTINUOUS
 10
332.5044979005
 20
129.9783812147
  0
VERTEX
  8
SURFACE
 62
7
  6
CONTINUOUS
 10
332.5232810409
 20
130.0106615247
  0
VERTEX
  8
SURFACE
 62
7
  6
CONTINUOUS
 10
332.5405931839
 20
130.0431235705
  0
VERTEX
  8
SURFACE
 62
7
  6
CONTINUOUS
 10
332.5564635694
 20
130.0756906974
  0
VERTEX
  8
SURFACE
 62
7
  6
CONTINUOUS
 10
332.57091927
 20
130.1082765021
  0
VERTEX
  8
SURFACE
 62
7
  6
CONTINUOUS
 10
332.5839743776
 20
130.1407503077
  0
VERTEX
  8
SURFACE
 62
7
  6
CONTINUOUS
 10
332.59566248
 20
130.1730063024
  0
VERTEX
  8
SURFACE
 62
7
  6
CONTINUOUS
 10
332.6060324189
 20
130.2049666197
  0
VERTEX
  8
SURFACE
 62
7
  6
CONTINUOUS
 10
332.6151402066
 20
130.2365700064
  0
VERTEX
  8
SURFACE
 62
7
  6
CONTINUOUS
 10
332.623031705
 20
130.2677087367
  0
VERTEX
  8
SURFACE
 62
7
  6
CONTINUOUS
 10
332.6296978508
 20
130.2979684744
  0
VERTEX
  8
SURFACE
 62
7
  6
CONTINUOUS
 10
332.6351697133
 20
130.3269035705
  0
VERTEX
  8
SURFACE
 62
7
  6
CONTINUOUS
 10
332.6397221258
 20
130.3554394636
  0
VERTEX
  8
SURFACE
 62
7
  6
CONTINUOUS
 10
332.6433722167
 20
130.3832306055
  0
VERTEX
  8
SURFACE
 62
7
  6
CONTINUOUS
 10
332.6461069253
 20
130.4091289903
  0
VERTEX
  8
SURFACE
 62
7
  6
CONTINUOUS
 10
332.6480443322
 20
130.4322013542
  0
VERTEX
  8
SURFACE
 62
7
  6
CONTINUOUS
 10
332.6489619542
 20
130.4453075033
  0
SEQEND
  0
LINE
  8
SURFACE
 62
7
  6
CONTINUOUS
 10
331.6496263498
 20
129.4972817723
 11
320.8875820569
 21
129.4972817723
  0
LINE
  8
0
 62
7
  6
CONTINUOUS
 10
306.8875820569
 20
142.2642735131
 11
301.7375820569
 21
142.2642735131
  0
LINE
  8
SURFACE
 62
7
  6
CONTINUOUS
 10
334.8875820569
 20
142.2642735131
 11
340.0375820569
 21
142.2642735131
  0
LINE
  8
0
 62
7
  6
CONTINUOUS
 10
309.9256342397
 20
158.886666903
 11
320.8875820569
 21
158.886666903
  0
LINE
  8
0
 62
7
  6
CONTINUOUS
 10
299.7375820569
 20
144.2642735131
 11
299.7375820569
 21
210.2642735131
  0
LINE
  8
0
 62
7
  6
CONTINUOUS
 10
308.8973997
 20
221.3052585852
 11
308.9266689956
 21
221.4423272697
  0
LINE
  8
0
 62
7
  6
CONTINUOUS
 10
308.9266689956
 20
221.4423272697
 11
308.9298965242
 21
221.4511463433
  0
POLYLINE
  8
0
 62
7
  6
CONTINUOUS
 66
1
 70
0
  0
VERTEX
  8
0
 62
7
  6
CONTINUOUS
 10
308.996557495
 20
159.5133334189
  0
VERTEX
  8
0
 62
7
  6
CONTINUOUS
 10
309.0355758056
 20
159.4287348985
  0
VERTEX
  8
0
 62
7
  6
CONTINUOUS
 10
309.0877892439
 20
159.339474506
  0
VERTEX
  8
0
 62
7
  6
CONTINUOUS
 10
309.1529237309
 20
159.2511051135
  0
VERTEX
  8
0
 62
7
  6
CONTINUOUS
 10
309.2320546838
 20
159.1657883501
  0
VERTEX
  8
0
 62
7
  6
CONTINUOUS
 10
309.325809596
 20
159.0862363236
  0
VERTEX
  8
0
 62
7
  6
CONTINUOUS
 10
309.4338217796
 20
159.0157984674
  0
VERTEX
  8
0
 62
7
  6
CONTINUOUS
 10
309.554867611
 20
158.9578593243
  0
VERTEX
  8
0
 62
7
  6
CONTINUOUS
 10
309.6869529416
 20
158.9155396946
  0
VERTEX
  8
0
 62
7
  6
CONTINUOUS
 10
309.8273836682
 20
158.8915015901
  0
VERTEX
  8
0
 62
7
  6
CONTINUOUS
 10
309.9256504982
 20
158.8866671602
  0
SEQEND
  0
POLYLINE
  8
0
 62
7
  6
CONTINUOUS
 66
1
 70
0
  0
VERTEX
  8
0
 62
7
  6
CONTINUOUS
 10
308.9484215906
 20
159.6382256889
  0
VERTEX
  8
0
 62
7
  6
CONTINUOUS
 10
308.9641267932
 20
159.5960101167
  0
VERTEX
  8
0
 62
7
  6
CONTINUOUS
 10
308.9815972344
 20
159.5507310618
  0
VERTEX
  8
0
 62
7
  6
CONTINUOUS
 10
308.9965528546
 20
159.5133437694
  0
SEQEND
  0
POLYLINE
  8
0
 62
7
  6
CONTINUOUS
 66
1
 70
0
  0
VERTEX
  8
0
 62
7
  6
CONTINUOUS
 10
308.9484215709
 20
159.6382254205
  0
VERTEX
  8
0
 62
7
  6
CONTINUOUS
 10
308.9147935191
 20
159.7500093108
  0
VERTEX
  8
0
 62
7
  6
CONTINUOUS
 10
308.8944097554
 20
159.8650473948
  0
SEQEND
  0
POLYLINE
  8
0
 62
7
  6
CONTINUOUS
 66
1
 70
0
  0
VERTEX
  8
0
 62
7
  6
CONTINUOUS
 10
309.1285089588
 20
119.7592841222
  0
VERTEX
  8
0
 62
7
  6
CONTINUOUS
 10
309.129133172
 20
119.7513314595
  0
VERTEX
  8
0
 62
7
  6
CONTINUOUS
 10
309.1310180925
 20
119.7307723531
  0
VERTEX
  8
0
 62
7
  6
CONTINUOUS
 10
309.1335667866
 20
119.7081541156
  0
VERTEX
  8
0
 62
7
  6
CONTINUOUS
 10
309.1367570577
 20
119.6846658337
  0
VERTEX
  8
0
 62
7
  6
CONTINUOUS
 10
309.1405910072
 20
119.6607172959
  0
VERTEX
  8
0
 62
7
  6
CONTINUOUS
 10
309.1453117988
 20
119.6353029513
  0
VERTEX
  8
0
 62
7
  6
CONTINUOUS
 10
309.1509728258
 20
119.6087524833
  0
VERTEX
  8
0
 62
7
  6
CONTINUOUS
 10
309.1575832897
 20
119.5814597568
  0
VERTEX
  8
0
 62
7
  6
CONTINUOUS
 10
309.1651823244
 20
119.553577919
  0
VERTEX
  8
0
 62
7
  6
CONTINUOUS
 10
309.1738043215
 20
119.5252358328
  0
VERTEX
  8
0
 62
7
  6
CONTINUOUS
 10
309.1834857267
 20
119.4965276054
  0
VERTEX
  8
0
 62
7
  6
CONTINUOUS
 10
309.1942661094
 20
119.4675236685
  0
VERTEX
  8
0
 62
7
  6
CONTINUOUS
 10
309.2061846442
 20
119.4382886089
  0
VERTEX
  8
0
 62
7
  6
CONTINUOUS
 10
309.2192779888
 20
119.4088883538
  0
VERTEX
  8
0
 62
7
  6
CONTINUOUS
 10
309.2335791422
 20
119.3793923332
  0
VERTEX
  8
0
 62
7
  6
CONTINUOUS
 10
309.249116881
 20
119.3498735797
  0
VERTEX
  8
0
 62
7
  6
CONTINUOUS
 10
309.2659154288
 20
119.3204082649
  0
VERTEX
  8
0
 62
7
  6
CONTINUOUS
 10
309.2839943828
 20
119.2910748873
  0
VERTEX
  8
0
 62
7
  6
CONTINUOUS
 10
309.3033775828
 20
119.2619407169
  0
VERTEX
  8
0
 62
7
  6
CONTINUOUS
 10
309.3240962917
 20
119.2330616216
  0
VERTEX
  8
0
 62
7
  6
CONTINUOUS
 10
309.346181103
 20
119.2044968163
  0
VERTEX
  8
0
 62
7
  6
CONTINUOUS
 10
309.3696612026
 20
119.1763097636
  0
VERTEX
  8
0
 62
7
  6
CONTINUOUS
 10
309.394564003
 20
119.1485683637
  0
VERTEX
  8
0
 62
7
  6
CONTINUOUS
 10
309.4209147612
 20
119.1213451004
  0
VERTEX
  8
0
 62
7
  6
CONTINUOUS
 10
309.4487361761
 20
119.0947171525
  0
VERTEX
  8
0
 62
7
  6
CONTINUOUS
 10
309.4780473077
 20
119.0687670334
  0
VERTEX
  8
0
 62
7
  6
CONTINUOUS
 10
309.5088598488
 20
119.0435849988
  0
VERTEX
  8
0
 62
7
  6
CONTINUOUS
 10
309.541179649
 20
119.0192664021
  0
VERTEX
  8
0
 62
7
  6
CONTINUOUS
 10
309.5750075085
 20
118.9959103622
  0
VERTEX
  8
0
 62
7
  6
CONTINUOUS
 10
309.6103387252
 20
118.9736196219
  0
VERTEX
  8
0
 62
7
  6
CONTINUOUS
 10
309.6471626294
 20
118.9525003683
  0
VERTEX
  8
0
 62
7
  6
CONTINUOUS
 10
309.6854621075
 20
118.9326620117
  0
VERTEX
  8
0
 62
7
  6
CONTINUOUS
 10
309.725213119
 20
118.9142169201
  0
VERTEX
  8
0
 62
7
  6
CONTINUOUS
 10
309.7663842082
 20
118.8972801072
  0
VERTEX
  8
0
 62
7
  6
CONTINUOUS
 10
309.8089360133
 20
118.8819688717
  0
VERTEX
  8
0
 62
7
  6
CONTINUOUS
 10
309.8528207828
 20
118.8684023819
  0
VERTEX
  8
0
 62
7
  6
CONTINUOUS
 10
309.8979818903
 20
118.8567012095
  0
VERTEX
  8
0
 62
7
  6
CONTINUOUS
 10
309.944353357
 20
118.8469868063
  0
VERTEX
  8
0
 62
7
  6
CONTINUOUS
 10
309.9918593894
 20
118.8393809201
  0
VERTEX
  8
0
 62
7
  6
CONTINUOUS
 10
310.0404139363
 20
118.8340049483
  0
VERTEX
  8
0
 62
7
  6
CONTINUOUS
 10
310.0899202705
 20
118.8309792278
  0
VERTEX
  8
0
 62
7
  6
CONTINUOUS
 10
310.1261532437
 20
118.8303226066
  0
SEQEND
  0
LINE
  8
0
 62
7
  6
CONTINUOUS
 10
309.0654602434
 20
120.6423894673
 11
309.1285016169
 21
119.7593818489
  0
POLYLINE
  8
0
 62
7
  6
CONTINUOUS
 66
1
 70
0
  0
VERTEX
  8
0
 62
7
  6
CONTINUOUS
 10
308.9463916081
 20
122.5737223848
  0
VERTEX
  8
0
 62
7
  6
CONTINUOUS
 10
309.0040907984
 20
121.5898445691
  0
VERTEX
  8
0
 62
7
  6
CONTINUOUS
 10
309.0654602434
 20
120.6423894673
  0
SEQEND
  0
LINE
  8
0
 62
7
  6
CONTINUOUS
 10
308.9434550207
 20
122.6303328707
 11
308.9464061383
 21
122.573462749
  0
LINE
  8
0
 62
7
  6
CONTINUOUS
 10
308.9355962724
 20
122.8065189112
 11
308.9434550207
 21
122.6303328707
  0
LINE
  8
0
 62
7
  6
CONTINUOUS
 10
308.8882808952
 20
124.0540051691
 11
308.9355962724
 21
122.8065189112
  0
POLYLINE
  8
0
 62
7
  6
CONTINUOUS
 66
1
 70
0
  0
VERTEX
  8
0
 62
7
  6
CONTINUOUS
 10
308.8882808961
 20
124.0540050384
  0
VERTEX
  8
0
 62
7
  6
CONTINUOUS
 10
308.8878909435
 20
124.0665309174
  0
VERTEX
  8
0
 62
7
  6
CONTINUOUS
 10
308.8876588375
 20
124.0789923034
  0
SEQEND
  0
POLYLINE
  8
0
 62
7
  6
CONTINUOUS
 66
1
 70
0
  0
VERTEX
  8
0
 62
7
  6
CONTINUOUS
 10
308.9464061384
 20
231.9550842779
  0
VERTEX
  8
0
 62
7
  6
CONTINUOUS
 10
308.9434550187
 20
231.8982141148
  0
VERTEX
  8
0
 62
7
  6
CONTINUOUS
 10
308.9396731877
 20
231.8167926352
  0
VERTEX
  8
0
 62
7
  6
CONTINUOUS
 10
308.9355962698
 20
231.7220280517
  0
VERTEX
  8
0
 62
7
  6
CONTINUOUS
 10
308.8882808952
 20
230.4745418572
  0
SEQEND
  0
LINE
  8
0
 62
7
  6
CONTINUOUS
 10
309.1262094124
 20
224.083350353
 11
309.0942202629
 21
223.5953910279
  0
LINE
  8
0
 62
7
  6
CONTINUOUS
 10
309.0942202629
 20
223.5953910279
 11
309.0119374127
 21
222.346893965
  0
LINE
  8
0
 62
7
  6
CONTINUOUS
 10
308.8875820569
 20
221.1654769698
 11
308.8973997
 21
221.3052585852
  0
POLYLINE
  8
0
 62
7
  6
CONTINUOUS
 66
1
 70
0
  0
VERTEX
  8
0
 62
7
  6
CONTINUOUS
 10
309.1285016169
 20
234.7691651773
  0
VERTEX
  8
0
 62
7
  6
CONTINUOUS
 10
309.0654602437
 20
233.8861575636
  0
VERTEX
  8
0
 62
7
  6
CONTINUOUS
 10
309.0040907989
 20
232.9387024654
  0
VERTEX
  8
0
 62
7
  6
CONTINUOUS
 10
308.9463916081
 20
231.9548246415
  0
SEQEND
  0
LINE
  8
0
 62
7
  6
CONTINUOUS
 10
309.0119374127
 20
222.346893965
 11
308.9987574645
 21
222.1662606074
  0
LINE
  8
0
 62
7
  6
CONTINUOUS
 10
308.9987574645
 20
222.1662606074
 11
308.9861989853
 21
222.0053344601
  0
LINE
  8
0
 62
7
  6
CONTINUOUS
 10
308.9861989853
 20
222.0053344601
 11
308.9743389333
 21
221.8641483318
  0
POLYLINE
  8
0
 62
7
  6
CONTINUOUS
 66
1
 70
0
  0
VERTEX
  8
0
 62
7
  6
CONTINUOUS
 10
308.9743389333
 20
221.8641483318
  0
VERTEX
  8
0
 62
7
  6
CONTINUOUS
 10
308.9632655886
 20
221.7426298637
  0
VERTEX
  8
0
 62
7
  6
CONTINUOUS
 10
308.958056882
 20
221.689200157
  0
VERTEX
  8
0
 62
7
  6
CONTINUOUS
 10
308.9530894131
 20
221.6406381771
  0
VERTEX
  8
0
 62
7
  6
CONTINUOUS
 10
308.9483837288
 20
221.5969303249
  0
VERTEX
  8
0
 62
7
  6
CONTINUOUS
 10
308.9439655212
 20
221.558072668
  0
VERTEX
  8
0
 62
7
  6
CONTINUOUS
 10
308.9398681391
 20
221.5240809129
  0
VERTEX
  8
0
 62
7
  6
CONTINUOUS
 10
308.9361365114
 20
221.4950053654
  0
VERTEX
  8
0
 62
7
  6
CONTINUOUS
 10
308.9328311819
 20
221.4709358129
  0
VERTEX
  8
0
 62
7
  6
CONTINUOUS
 10
308.9300370156
 20
221.4520246857
  0
VERTEX
  8
0
 62
7
  6
CONTINUOUS
 10
308.927877213
 20
221.4385217576
  0
VERTEX
  8
0
 62
7
  6
CONTINUOUS
 10
308.9265371719
 20
221.4308269736
  0
VERTEX
  8
0
 62
7
  6
CONTINUOUS
 10
308.9263527309
 20
221.4298341498
  0
SEQEND
  0
LINE
  8
0
 62
7
  6
CONTINUOUS
 10
308.8944097554
 20
159.8650473948
 11
308.8875820569
 21
159.9817040685
  0
LINE
  8
0
 62
7
  6
CONTINUOUS
 10
308.8876588375
 20
124.0789923034
 11
308.8875820569
 21
124.0913840438
  0
LINE
  8
0
 62
7
  6
CONTINUOUS
 10
308.8875820569
 20
124.0913853849
 11
308.8875820569
 21
230.4371629824
  0
POLYLINE
  8
0
 62
7
  6
CONTINUOUS
 66
1
 70
0
  0
VERTEX
  8
0
 62
7
  6
CONTINUOUS
 10
308.8882808961
 20
230.4745419879
  0
VERTEX
  8
0
 62
7
  6
CONTINUOUS
 10
308.8878909435
 20
230.4620161088
  0
VERTEX
  8
0
 62
7
  6
CONTINUOUS
 10
308.8876588375
 20
230.4495547229
  0
VERTEX
  8
0
 62
7
  6
CONTINUOUS
 10
308.8875820569
 20
230.4371629824
  0
SEQEND
  0
LINE
  8
DEFAULT_1
 62
2
  6
CENTER
 10
297.7375820569
 20
177.2642735131
 11
344.0375820569
 21
177.2642735131
  0
LINE
  8
0
 62
7
  6
CONTINUOUS
 10
332.8875820569
 20
179.390283425
 11
333.0875820569
 21
179.390283425
  0
LINE
  8
0
 62
7
  6
CONTINUOUS
 10
332.8875820569
 20
179.5953169979
 11
333.0875820569
 21
179.5953169979
  0
LINE
  8
0
 62
7
  6
CONTINUOUS
 10
332.8875820569
 20
180.1137263542
 11
333.0875820569
 21
180.1137263542
  0
LINE
  8
0
 62
7
  6
CONTINUOUS
 10
332.8875820569
 20
180.1582283649
 11
333.0875820569
 21
180.1582283649
  0
LINE
  8
0
 62
7
  6
CONTINUOUS
 10
332.8875820569
 20
180.5524524757
 11
333.0875820569
 21
180.5524524757
  0
LINE
  8
0
 62
7
  6
CONTINUOUS
 10
332.8875820569
 20
180.9671800201
 11
333.0875820569
 21
180.9671800201
  0
LINE
  8
0
 62
7
  6
CONTINUOUS
 10
332.8875820569
 20
181.3921590977
 11
333.0875820569
 21
181.3921590977
  0
LINE
  8
0
 62
7
  6
CONTINUOUS
 10
332.8875820569
 20
181.7237080748
 11
333.0875820569
 21
181.7237080748
  0
LINE
  8
0
 62
7
  6
CONTINUOUS
 10
332.8875820569
 20
181.9618268138
 11
333.0875820569
 21
181.9618268138
  0
LINE
  8
0
 62
7
  6
CONTINUOUS
 10
332.8875820569
 20
182.1873637425
 11
333.0875820569
 21
182.1873637425
  0
LINE
  8
0
 62
7
  6
CONTINUOUS
 10
332.8875820569
 20
182.7057732101
 11
333.0875820569
 21
182.7057732101
  0
LINE
  8
0
 62
7
  6
CONTINUOUS
 10
332.8875820569
 20
183.410048207
 11
333.0875820569
 21
183.410048207
  0
LINE
  8
0
 62
7
  6
CONTINUOUS
 10
320.8875820569
 20
129.4972906834
 11
320.8875820569
 21
118.830338831
  0
LINE
  8
SURFACE
 62
7
  6
CONTINUOUS
 10
320.8875820569
 20
129.4972906834
 11
320.8875820569
 21
148.3154104211
  0
LINE
  8
0
 62
7
  6
CONTINUOUS
 10
320.8875820569
 20
148.3154104211
 11
320.8875820569
 21
150.5877567134
  0
LINE
  8
0
 62
7
  6
CONTINUOUS
 10
320.8875820569
 20
158.8866963281
 11
320.8875820569
 21
182.0471135131
  0
LINE
  8
SURFACE
 62
7
  6
CONTINUOUS
 10
320.8875820569
 20
182.0471135131
 11
320.8875820569
 21
195.6417891952
  0
LINE
  8
0
 62
7
  6
CONTINUOUS
 10
320.8875820569
 20
203.9407903128
 11
320.8875820569
 21
226.9397235131
  0
LINE
  8
SURFACE
 62
7
  6
CONTINUOUS
 10
320.8875820569
 20
226.9397235131
 11
320.8875820569
 21
235.6981888339
  0
LINE
  8
0
 62
7
  6
CONTINUOUS
 10
333.0875820569
 20
215.8786328671
 11
333.8875820569
 21
217.2642735131
  0
LINE
  8
0
 62
7
  6
CONTINUOUS
 10
332.8875820569
 20
184.0886453112
 11
333.0875820569
 21
184.0886453112
  0
LINE
  8
0
 62
7
  6
CONTINUOUS
 10
332.8875820569
 20
184.5990260406
 11
333.0875820569
 21
184.5990260406
  0
LINE
  8
0
 62
7
  6
CONTINUOUS
 10
332.8875820569
 20
184.7395599178
 11
333.0875820569
 21
184.7395599178
  0
LINE
  8
0
 62
7
  6
CONTINUOUS
 10
332.8875820569
 20
185.0882003203
 11
333.0875820569
 21
185.0882003203
  0
LINE
  8
0
 62
7
  6
CONTINUOUS
 10
332.8875820569
 20
185.5177111783
 11
333.0875820569
 21
185.5177111783
  0
LINE
  8
0
 62
7
  6
CONTINUOUS
 10
332.8875820569
 20
185.9260158787
 11
333.0875820569
 21
185.9260158787
  0
LINE
  8
0
 62
7
  6
CONTINUOUS
 10
332.8875820569
 20
186.2110381003
 11
333.0875820569
 21
186.2110381003
  0
LINE
  8
0
 62
7
  6
CONTINUOUS
 10
332.8875820569
 20
186.4748541642
 11
333.0875820569
 21
186.4748541642
  0
LINE
  8
0
 62
7
  6
CONTINUOUS
 10
332.8875820569
 20
186.636593907
 11
333.0875820569
 21
186.636593907
  0
LINE
  8
0
 62
7
  6
CONTINUOUS
 10
332.8875820569
 20
186.6750517552
 11
333.0875820569
 21
186.6750517552
  0
LINE
  8
0
 62
7
  6
CONTINUOUS
 10
332.8875820569
 20
187.0698918199
 11
333.0875820569
 21
187.0698918199
  0
LINE
  8
0
 62
7
  6
CONTINUOUS
 10
332.8875820569
 20
187.9708323967
 11
333.0875820569
 21
187.9708323967
  0
LINE
  8
0
 62
7
  6
CONTINUOUS
 10
332.8875820569
 20
188.2523763811
 11
333.0875820569
 21
188.2523763811
  0
LINE
  8
0
 62
7
  6
CONTINUOUS
 10
332.8875820569
 20
188.3931483339
 11
333.0875820569
 21
188.3931483339
  0
LINE
  8
0
 62
7
  6
CONTINUOUS
 10
332.8875820569
 20
188.8954107335
 11
333.0875820569
 21
188.8954107335
  0
LINE
  8
0
 62
7
  6
CONTINUOUS
 10
332.8875820569
 20
193.0689033214
 11
333.0875820569
 21
193.0689033214
  0
LINE
  8
0
 62
7
  6
CONTINUOUS
 10
332.8875820569
 20
195.3912208872
 11
333.0875820569
 21
195.3912208872
  0
LINE
  8
SURFACE
 62
7
  6
CONTINUOUS
 10
331.8495298741
 20
195.6418801232
 11
320.8875820569
 21
195.6418801232
  0
LINE
  8
0
 62
7
  6
CONTINUOUS
 10
332.8875820569
 20
195.9447160476
 11
333.0875820569
 21
195.9447160476
  0
LINE
  8
0
 62
7
  6
CONTINUOUS
 10
332.8875820569
 20
196.2973947961
 11
333.0875820569
 21
196.2973947961
  0
LINE
  8
SURFACE
 62
7
  6
CONTINUOUS
 10
332.7097038701
 20
233.8861575636
 11
332.6466624968
 21
234.7691651773
  0
LINE
  8
SURFACE
 62
7
  6
CONTINUOUS
 10
332.8807543584
 20
194.6634996315
 11
332.8875820569
 21
194.5468429578
  0
POLYLINE
  8
SURFACE
 62
7
  6
CONTINUOUS
 66
1
 70
0
  0
VERTEX
  8
SURFACE
 62
7
  6
CONTINUOUS
 10
332.8287725057
 20
231.9548246415
  0
VERTEX
  8
SURFACE
 62
7
  6
CONTINUOUS
 10
332.7710733149
 20
232.9387024654
  0
VERTEX
  8
SURFACE
 62
7
  6
CONTINUOUS
 10
332.7097038701
 20
233.8861575636
  0
SEQEND
  0
LINE
  8
SURFACE
 62
7
  6
CONTINUOUS
 10
332.8317090951
 20
231.8982141148
 11
332.8287579754
 21
231.9550842779
  0
LINE
  8
SURFACE
 62
7
  6
CONTINUOUS
 10
332.839567844
 20
231.7220280517
 11
332.8317090951
 21
231.8982141148
  0
LINE
  8
SURFACE
 62
7
  6
CONTINUOUS
 10
332.8868832186
 20
230.4745418572
 11
332.839567844
 21
231.7220280517
  0
POLYLINE
  8
SURFACE
 62
7
  6
CONTINUOUS
 66
1
 70
0
  0
VERTEX
  8
SURFACE
 62
7
  6
CONTINUOUS
 10
332.8868832177
 20
230.4745419879
  0
VERTEX
  8
SURFACE
 62
7
  6
CONTINUOUS
 10
332.8872731702
 20
230.4620161088
  0
VERTEX
  8
SURFACE
 62
7
  6
CONTINUOUS
 10
332.8875052763
 20
230.4495547229
  0
SEQEND
  0
LINE
  8
SURFACE
 62
7
  6
CONTINUOUS
 10
332.8875052763
 20
230.4495547229
 11
332.8875820569
 21
230.4371629824
  0
LINE
  8
SURFACE
 62
7
  6
CONTINUOUS
 10
332.8875820569
 20
230.4371616413
 11
332.8875820569
 21
124.0913853849
  0
LINE
  8
0
 62
7
  6
CONTINUOUS
 10
333.0875820569
 20
219.9928175339
 11
333.0875820569
 21
193.0689033214
  0
LINE
  8
0
 62
7
  6
CONTINUOUS
 10
333.0875820569
 20
188.8954107335
 11
333.0875820569
 21
187.0698918199
  0
LINE
  8
0
 62
7
  6
CONTINUOUS
 10
333.0875820569
 20
186.6750517552
 11
333.0875820569
 21
183.410048207
  0
LINE
  8
0
 62
7
  6
CONTINUOUS
 10
333.0875820569
 20
182.7057732101
 11
333.0875820569
 21
179.390283425
  0
POLYLINE
  8
SURFACE
 62
7
  6
CONTINUOUS
 66
1
 70
0
  0
VERTEX
  8
SURFACE
 62
7
  6
CONTINUOUS
 10
332.8868832177
 20
124.0540050384
  0
VERTEX
  8
SURFACE
 62
7
  6
CONTINUOUS
 10
332.8872731702
 20
124.0665309174
  0
VERTEX
  8
SURFACE
 62
7
  6
CONTINUOUS
 10
332.8875052763
 20
124.0789923034
  0
VERTEX
  8
SURFACE
 62
7
  6
CONTINUOUS
 10
332.8875820569
 20
124.0913840438
  0
SEQEND
  0
LINE
  8
SURFACE
 62
7
  6
CONTINUOUS
 10
332.8395678413
 20
122.8065189112
 11
332.8868832186
 21
124.0540051691
  0
LINE
  8
0
 62
7
  6
CONTINUOUS
 10
332.8875820569
 20
198.5276931108
 11
333.0875820569
 21
198.5276931108
  0
LINE
  8
0
 62
7
  6
CONTINUOUS
 10
332.8875820569
 20
199.0811882711
 11
333.0875820569
 21
199.0811882711
  0
LINE
  8
0
 62
7
  6
CONTINUOUS
 10
332.8875820569
 20
199.9508080224
 11
333.0875820569
 21
199.9508080224
  0
LINE
  8
0
 62
7
  6
CONTINUOUS
 10
332.8875820569
 20
202.5638372937
 11
333.0875820569
 21
202.5638372937
  0
POLYLINE
  8
SURFACE
 62
7
  6
CONTINUOUS
 66
1
 70
0
  0
VERTEX
  8
SURFACE
 62
7
  6
CONTINUOUS
 10
332.7786066188
 20
195.0152136073
  0
VERTEX
  8
SURFACE
 62
7
  6
CONTINUOUS
 10
332.7395883081
 20
195.0998121277
  0
VERTEX
  8
SURFACE
 62
7
  6
CONTINUOUS
 10
332.6873748699
 20
195.1890725203
  0
VERTEX
  8
SURFACE
 62
7
  6
CONTINUOUS
 10
332.6222403829
 20
195.2774419128
  0
VERTEX
  8
SURFACE
 62
7
  6
CONTINUOUS
 10
332.54310943
 20
195.3627586761
  0
VERTEX
  8
SURFACE
 62
7
  6
CONTINUOUS
 10
332.4493545178
 20
195.4423107026
  0
VERTEX
  8
SURFACE
 62
7
  6
CONTINUOUS
 10
332.3413423342
 20
195.5127485588
  0
VERTEX
  8
SURFACE
 62
7
  6
CONTINUOUS
 10
332.2202965028
 20
195.5706877019
  0
VERTEX
  8
SURFACE
 62
7
  6
CONTINUOUS
 10
332.0882111722
 20
195.6130073317
  0
VERTEX
  8
SURFACE
 62
7
  6
CONTINUOUS
 10
331.9477804456
 20
195.6370454362
  0
VERTEX
  8
SURFACE
 62
7
  6
CONTINUOUS
 10
331.8495136156
 20
195.6418798661
  0
SEQEND
  0
POLYLINE
  8
SURFACE
 62
7
  6
CONTINUOUS
 66
1
 70
0
  0
VERTEX
  8
SURFACE
 62
7
  6
CONTINUOUS
 10
332.8267425232
 20
194.8903213374
  0
VERTEX
  8
SURFACE
 62
7
  6
CONTINUOUS
 10
332.8110373206
 20
194.9325369096
  0
VERTEX
  8
SURFACE
 62
7
  6
CONTINUOUS
 10
332.7935668794
 20
194.9778159645
  0
VERTEX
  8
SURFACE
 62
7
  6
CONTINUOUS
 10
332.7786112592
 20
195.0152032569
  0
SEQEND
  0
POLYLINE
  8
SURFACE
 62
7
  6
CONTINUOUS
 66
1
 70
0
  0
VERTEX
  8
SURFACE
 62
7
  6
CONTINUOUS
 10
332.8267425429
 20
194.8903216057
  0
VERTEX
  8
SURFACE
 62
7
  6
CONTINUOUS
 10
332.8603705947
 20
194.7785377154
  0
VERTEX
  8
SURFACE
 62
7
  6
CONTINUOUS
 10
332.8807543584
 20
194.6634996315
  0
SEQEND
  0
POLYLINE
  8
SURFACE
 62
7
  6
CONTINUOUS
 66
1
 70
0
  0
VERTEX
  8
SURFACE
 62
7
  6
CONTINUOUS
 10
332.646655155
 20
234.769262904
  0
VERTEX
  8
SURFACE
 62
7
  6
CONTINUOUS
 10
332.6460309417
 20
234.7772155667
  0
VERTEX
  8
SURFACE
 62
7
  6
CONTINUOUS
 10
332.6441460213
 20
234.7977746732
  0
VERTEX
  8
SURFACE
 62
7
  6
CONTINUOUS
 10
332.6415973271
 20
234.8203929106
  0
VERTEX
  8
SURFACE
 62
7
  6
CONTINUOUS
 10
332.638407056
 20
234.8438811925
  0
VERTEX
  8
SURFACE
 62
7
  6
CONTINUOUS
 10
332.6345731066
 20
234.8678297303
  0
VERTEX
  8
SURFACE
 62
7
  6
CONTINUOUS
 10
332.629852315
 20
234.8932440749
  0
VERTEX
  8
SURFACE
 62
7
  6
CONTINUOUS
 10
332.624191288
 20
234.9197945429
  0
VERTEX
  8
SURFACE
 62
7
  6
CONTINUOUS
 10
332.6175808241
 20
234.9470872695
  0
VERTEX
  8
SURFACE
 62
7
  6
CONTINUOUS
 10
332.6099817894
 20
234.9749691072
  0
VERTEX
  8
SURFACE
 62
7
  6
CONTINUOUS
 10
332.6013597923
 20
235.0033111935
  0
VERTEX
  8
SURFACE
 62
7
  6
CONTINUOUS
 10
332.5916783871
 20
235.0320194209
  0
VERTEX
  8
SURFACE
 62
7
  6
CONTINUOUS
 10
332.5808980044
 20
235.0610233577
  0
VERTEX
  8
SURFACE
 62
7
  6
CONTINUOUS
 10
332.5689794696
 20
235.0902584173
  0
VERTEX
  8
SURFACE
 62
7
  6
CONTINUOUS
 10
332.555886125
 20
235.1196586725
  0
VERTEX
  8
SURFACE
 62
7
  6
CONTINUOUS
 10
332.5415849716
 20
235.149154693
  0
VERTEX
  8
SURFACE
 62
7
  6
CONTINUOUS
 10
332.5260472328
 20
235.1786734466
  0
VERTEX
  8
SURFACE
 62
7
  6
CONTINUOUS
 10
332.509248685
 20
235.2081387614
  0
VERTEX
  8
SURFACE
 62
7
  6
CONTINUOUS
 10
332.4911697309
 20
235.2374721389
  0
VERTEX
  8
SURFACE
 62
7
  6
CONTINUOUS
 10
332.471786531
 20
235.2666063094
  0
VERTEX
  8
SURFACE
 62
7
  6
CONTINUOUS
 10
332.4510678221
 20
235.2954854047
  0
VERTEX
  8
SURFACE
 62
7
  6
CONTINUOUS
 10
332.4289830108
 20
235.3240502099
  0
VERTEX
  8
SURFACE
 62
7
  6
CONTINUOUS
 10
332.4055029112
 20
235.3522372626
  0
VERTEX
  8
SURFACE
 62
7
  6
CONTINUOUS
 10
332.3806001108
 20
235.3799786625
  0
VERTEX
  8
SURFACE
 62
7
  6
CONTINUOUS
 10
332.3542493526
 20
235.4072019259
  0
VERTEX
  8
SURFACE
 62
7
  6
CONTINUOUS
 10
332.3264279377
 20
235.4338298738
  0
VERTEX
  8
SURFACE
 62
7
  6
CONTINUOUS
 10
332.2971168061
 20
235.4597799928
  0
VERTEX
  8
SURFACE
 62
7
  6
CONTINUOUS
 10
332.266304265
 20
235.4849620274
  0
VERTEX
  8
SURFACE
 62
7
  6
CONTINUOUS
 10
332.2339844647
 20
235.5092806242
  0
VERTEX
  8
SURFACE
 62
7
  6
CONTINUOUS
 10
332.2001566053
 20
235.5326366641
  0
VERTEX
  8
SURFACE
 62
7
  6
CONTINUOUS
 10
332.1648253885
 20
235.5549274044
  0
VERTEX
  8
SURFACE
 62
7
  6
CONTINUOUS
 10
332.1280014844
 20
235.5760466579
  0
VERTEX
  8
SURFACE
 62
7
  6
CONTINUOUS
 10
332.0897020063
 20
235.5958850145
  0
VERTEX
  8
SURFACE
 62
7
  6
CONTINUOUS
 10
332.0499509947
 20
235.6143301062
  0
VERTEX
  8
SURFACE
 62
7
  6
CONTINUOUS
 10
332.0087799056
 20
235.631266919
  0
VERTEX
  8
SURFACE
 62
7
  6
CONTINUOUS
 10
331.9662281005
 20
235.6465781545
  0
VERTEX
  8
SURFACE
 62
7
  6
CONTINUOUS
 10
331.922343331
 20
235.6601446444
  0
VERTEX
  8
SURFACE
 62
7
  6
CONTINUOUS
 10
331.8771822235
 20
235.6718458168
  0
VERTEX
  8
SURFACE
 62
7
  6
CONTINUOUS
 10
331.8308107568
 20
235.6815602199
  0
VERTEX
  8
SURFACE
 62
7
  6
CONTINUOUS
 10
331.7833047244
 20
235.6891661061
  0
VERTEX
  8
SURFACE
 62
7
  6
CONTINUOUS
 10
331.7347501775
 20
235.694542078
  0
VERTEX
  8
SURFACE
 62
7
  6
CONTINUOUS
 10
331.6852438433
 20
235.6975677984
  0
VERTEX
  8
SURFACE
 62
7
  6
CONTINUOUS
 10
331.6490108701
 20
235.6982244196
  0
SEQEND
  0
POLYLINE
  8
SURFACE
 62
7
  6
CONTINUOUS
 66
1
 70
0
  0
VERTEX
  8
SURFACE
 62
7
  6
CONTINUOUS
 10
332.8287579755
 20
122.573462749
  0
VERTEX
  8
SURFACE
 62
7
  6
CONTINUOUS
 10
332.8317090931
 20
122.6303328707
  0
VERTEX
  8
SURFACE
 62
7
  6
CONTINUOUS
 10
332.8395678413
 20
122.8065189112
  0
SEQEND
  0
LINE
  8
SURFACE
 62
7
  6
CONTINUOUS
 10
332.6489547014
 20
130.4451966733
 11
332.7632266999
 21
132.1816530235
  0
LINE
  8
SURFACE
 62
7
  6
CONTINUOUS
 10
332.8875820569
 20
133.3630700564
 11
332.8777644138
 21
133.223288441
  0
POLYLINE
  8
SURFACE
 62
7
  6
CONTINUOUS
 66
1
 70
0
  0
VERTEX
  8
SURFACE
 62
7
  6
CONTINUOUS
 10
332.6466624968
 20
119.7593818489
  0
VERTEX
  8
SURFACE
 62
7
  6
CONTINUOUS
 10
332.7097038704
 20
120.6423894673
  0
VERTEX
  8
SURFACE
 62
7
  6
CONTINUOUS
 10
332.7710733154
 20
121.5898445691
  0
VERTEX
  8
SURFACE
 62
7
  6
CONTINUOUS
 10
332.8287725057
 20
122.5737223848
  0
SEQEND
  0
LINE
  8
SURFACE
 62
7
  6
CONTINUOUS
 10
332.7632266999
 20
132.1816530235
 11
332.7764066421
 21
132.3622863312
  0
LINE
  8
SURFACE
 62
7
  6
CONTINUOUS
 10
332.7764066421
 20
132.3622863312
 11
332.7889651242
 21
132.5232125137
  0
LINE
  8
SURFACE
 62
7
  6
CONTINUOUS
 10
332.7889651242
 20
132.5232125137
 11
332.8008251783
 21
132.6643986723
  0
POLYLINE
  8
SURFACE
 62
7
  6
CONTINUOUS
 66
1
 70
0
  0
VERTEX
  8
SURFACE
 62
7
  6
CONTINUOUS
 10
332.8008251783
 20
132.6643986723
  0
VERTEX
  8
SURFACE
 62
7
  6
CONTINUOUS
 10
332.8118985268
 20
132.7859171729
  0
VERTEX
  8
SURFACE
 62
7
  6
CONTINUOUS
 10
332.8171072326
 20
132.8393468793
  0
VERTEX
  8
SURFACE
 62
7
  6
CONTINUOUS
 10
332.8220746997
 20
132.8879088429
  0
VERTEX
  8
SURFACE
 62
7
  6
CONTINUOUS
 10
332.8267803841
 20
132.9316166937
  0
VERTEX
  8
SURFACE
 62
7
  6
CONTINUOUS
 10
332.8311985929
 20
132.9704743594
  0
VERTEX
  8
SURFACE
 62
7
  6
CONTINUOUS
 10
332.8352959756
 20
133.0044661222
  0
VERTEX
  8
SURFACE
 62
7
  6
CONTINUOUS
 10
332.8390276011
 20
133.033541654
  0
VERTEX
  8
SURFACE
 62
7
  6
CONTINUOUS
 10
332.8423329301
 20
133.0576112021
  0
VERTEX
  8
SURFACE
 62
7
  6
CONTINUOUS
 10
332.8451270971
 20
133.0765223335
  0
VERTEX
  8
SURFACE
 62
7
  6
CONTINUOUS
 10
332.847286901
 20
133.0900252697
  0
VERTEX
  8
SURFACE
 62
7
  6
CONTINUOUS
 10
332.8486269419
 20
133.0977200525
  0
VERTEX
  8
SURFACE
 62
7
  6
CONTINUOUS
 10
332.8488113828
 20
133.0987128762
  0
SEQEND
  0
LINE
  8
0
 62
7
  6
CONTINUOUS
 10
332.8875820569
 20
203.289333156
 11
333.0875820569
 21
203.289333156
  0
LINE
  8
0
 62
7
  6
CONTINUOUS
 10
332.8875820569
 20
205.7076526972
 11
333.0875820569
 21
205.7076526972
  0
LINE
  8
0
 62
7
  6
CONTINUOUS
 10
332.8875820569
 20
206.4331485595
 11
333.0875820569
 21
206.4331485595
  0
LINE
  8
0
 62
7
  6
CONTINUOUS
 10
332.8875820569
 20
207.52112432
 11
333.0875820569
 21
207.52112432
  0
LINE
  8
SURFACE
 62
7
  6
CONTINUOUS
 10
342.0375820569
 20
210.2642735131
 11
342.0375820569
 21
144.2642735131
  0
LINE
  8
SURFACE
 62
7
  6
CONTINUOUS
 10
332.8777644138
 20
133.223288441
 11
332.8484951182
 21
133.0862197565
  0
LINE
  8
0
 62
7
  6
CONTINUOUS
 10
332.8875820569
 20
209.2187804896
 11
333.0875820569
 21
209.2187804896
  0
LINE
  8
0
 62
7
  6
CONTINUOUS
 10
332.8875820569
 20
209.4943662778
 11
333.0875820569
 21
209.4943662778
  0
LINE
  8
0
 62
7
  6
CONTINUOUS
 10
332.8875820569
 20
209.5430269141
 11
333.0875820569
 21
209.5430269141
  0
LINE
  8
0
 62
7
  6
CONTINUOUS
 10
332.8875820569
 20
211.0580815709
 11
333.0875820569
 21
211.0580815709
  0
LINE
  8
0
 62
7
  6
CONTINUOUS
 10
306.8875820569
 20
212.2642735131
 11
301.7375820569
 21
212.2642735131
  0
LINE
  8
SURFACE
 62
7
  6
CONTINUOUS
 10
334.8875820569
 20
212.2642735131
 11
340.0375820569
 21
212.2642735131
  0
LINE
  8
0
 62
7
  6
CONTINUOUS
 10
332.8875820569
 20
212.5170298574
 11
333.0875820569
 21
212.5170298574
  0
LINE
  8
0
 62
7
  6
CONTINUOUS
 10
332.8875820569
 20
212.7345894033
 11
333.0875820569
 21
212.7345894033
  0
LINE
  8
0
 62
7
  6
CONTINUOUS
 10
332.8875820569
 20
212.8268117243
 11
333.0875820569
 21
212.8268117243
  0
LINE
  8
0
 62
7
  6
CONTINUOUS
 10
332.8875820569
 20
216.20673935
 11
333.0875820569
 21
216.20673935
  0
LINE
  8
0
 62
7
  6
CONTINUOUS
 10
332.8875820569
 20
216.7037874586
 11
333.0875820569
 21
216.7037874586
  0
LINE
  8
0
 62
7
  6
CONTINUOUS
 10
333.0875820569
 20
218.6499141592
 11
333.8875820569
 21
217.2642735131
  0
LINE
  8
SURFACE
 62
7
  6
CONTINUOUS
 10
332.8484951182
 20
133.0862197565
 11
332.8452675897
 21
133.0774006832
  0
LINE
  8
0
 62
7
  6
CONTINUOUS
 10
332.8875820569
 20
218.1875073434
 11
333.0875820569
 21
218.1875073434
  0
LINE
  8
0
 62
7
  6
CONTINUOUS
 10
332.8875820569
 20
218.3686335655
 11
333.0875820569
 21
218.3686335655
  0
LINE
  8
0
 62
7
  6
CONTINUOUS
 10
332.8875820569
 20
218.8015722248
 11
333.0875820569
 21
218.8015722248
  0
LINE
  8
0
 62
7
  6
CONTINUOUS
 10
332.8875820569
 20
219.0522984338
 11
333.0875820569
 21
219.0522984338
  0
LINE
  8
0
 62
7
  6
CONTINUOUS
 10
332.8875820569
 20
219.0962556178
 11
333.0875820569
 21
219.0962556178
  0
LINE
  8
0
 62
7
  6
CONTINUOUS
 10
332.8875820569
 20
219.3994371769
 11
333.0875820569
 21
219.3994371769
  0
LINE
  8
0
 62
7
  6
CONTINUOUS
 10
332.8875820569
 20
219.7773818836
 11
333.0875820569
 21
219.7773818836
  0
LINE
  8
0
 62
7
  6
CONTINUOUS
 10
332.8875820569
 20
219.9440245509
 11
333.0875820569
 21
219.9440245509
  0
LINE
  8
0
 62
7
  6
CONTINUOUS
 10
332.8875820569
 20
219.9928175339
 11
333.0875820569
 21
219.9928175339
  0
POLYLINE
  8
0
 62
7
  6
CONTINUOUS
 66
1
 70
0
  0
VERTEX
  8
0
 62
7
  6
CONTINUOUS
 10
310.1255444684
 20
225.0312646383
  0
VERTEX
  8
0
 62
7
  6
CONTINUOUS
 10
310.0772104356
 20
225.0300959285
  0
VERTEX
  8
0
 62
7
  6
CONTINUOUS
 10
310.025042746
 20
225.0262017896
  0
VERTEX
  8
0
 62
7
  6
CONTINUOUS
 10
309.9740627766
 20
225.0197253131
  0
VERTEX
  8
0
 62
7
  6
CONTINUOUS
 10
309.9243613316
 20
225.0108193805
  0
VERTEX
  8
0
 62
7
  6
CONTINUOUS
 10
309.876015571
 20
224.9996337157
  0
VERTEX
  8
0
 62
7
  6
CONTINUOUS
 10
309.8290900928
 20
224.9863141584
  0
VERTEX
  8
0
 62
7
  6
CONTINUOUS
 10
309.7836379934
 20
224.9710020655
  0
VERTEX
  8
0
 62
7
  6
CONTINUOUS
 10
309.7397018934
 20
224.9538338268
  0
VERTEX
  8
0
 62
7
  6
CONTINUOUS
 10
309.697314947
 20
224.9349404937
  0
VERTEX
  8
0
 62
7
  6
CONTINUOUS
 10
309.656501773
 20
224.9144474877
  0
VERTEX
  8
0
 62
7
  6
CONTINUOUS
 10
309.6172793528
 20
224.8924743923
  0
VERTEX
  8
0
 62
7
  6
CONTINUOUS
 10
309.5796578951
 20
224.869134825
  0
VERTEX
  8
0
 62
7
  6
CONTINUOUS
 10
309.5436416557
 20
224.8445363772
  0
VERTEX
  8
0
 62
7
  6
CONTINUOUS
 10
309.5092297128
 20
224.8187806176
  0
VERTEX
  8
0
 62
7
  6
CONTINUOUS
 10
309.4764166967
 20
224.7919631525
  0
VERTEX
  8
0
 62
7
  6
CONTINUOUS
 10
309.4451934792
 20
224.7641737428
  0
VERTEX
  8
0
 62
7
  6
CONTINUOUS
 10
309.4155511958
 20
224.7354998775
  0
VERTEX
  8
0
 62
7
  6
CONTINUOUS
 10
309.3874903302
 20
224.7060377158
  0
VERTEX
  8
0
 62
7
  6
CONTINUOUS
 10
309.3610091098
 20
224.6758836337
  0
VERTEX
  8
0
 62
7
  6
CONTINUOUS
 10
309.3361004282
 20
224.6451310125
  0
VERTEX
  8
0
 62
7
  6
CONTINUOUS
 10
309.312752205
 20
224.6138699845
  0
VERTEX
  8
0
 62
7
  6
CONTINUOUS
 10
309.2909477554
 20
224.5821872164
  0
VERTEX
  8
0
 62
7
  6
CONTINUOUS
 10
309.2706662133
 20
224.5501658115
  0
VERTEX
  8
0
 62
7
  6
CONTINUOUS
 10
309.2518830728
 20
224.5178855015
  0
VERTEX
  8
0
 62
7
  6
CONTINUOUS
 10
309.2345709299
 20
224.4854234557
  0
VERTEX
  8
0
 62
7
  6
CONTINUOUS
 10
309.2187005444
 20
224.4528563288
  0
VERTEX
  8
0
 62
7
  6
CONTINUOUS
 10
309.2042448438
 20
224.4202705241
  0
VERTEX
  8
0
 62
7
  6
CONTINUOUS
 10
309.1911897362
 20
224.3877967186
  0
VERTEX
  8
0
 62
7
  6
CONTINUOUS
 10
309.1795016338
 20
224.3555407238
  0
VERTEX
  8
0
 62
7
  6
CONTINUOUS
 10
309.1691316949
 20
224.3235804065
  0
VERTEX
  8
0
 62
7
  6
CONTINUOUS
 10
309.1600239072
 20
224.2919770198
  0
VERTEX
  8
0
 62
7
  6
CONTINUOUS
 10
309.1521324088
 20
224.2608382895
  0
VERTEX
  8
0
 62
7
  6
CONTINUOUS
 10
309.145466263
 20
224.2305785518
  0
VERTEX
  8
0
 62
7
  6
CONTINUOUS
 10
309.1399944005
 20
224.2016434557
  0
VERTEX
  8
0
 62
7
  6
CONTINUOUS
 10
309.135441988
 20
224.1731075626
  0
VERTEX
  8
0
 62
7
  6
CONTINUOUS
 10
309.1317918971
 20
224.1453164208
  0
VERTEX
  8
0
 62
7
  6
CONTINUOUS
 10
309.1290571885
 20
224.119418036
  0
VERTEX
  8
0
 62
7
  6
CONTINUOUS
 10
309.1271197816
 20
224.0963456721
  0
VERTEX
  8
0
 62
7
  6
CONTINUOUS
 10
309.1262021595
 20
224.0832395229
  0
SEQEND
  0
LINE
  8
0
 62
7
  6
CONTINUOUS
 10
310.125537764
 20
225.031265254
 11
320.8875820569
 21
225.031265254
  0
POLYLINE
  8
0
 62
7
  6
CONTINUOUS
 66
1
 70
0
  0
VERTEX
  8
0
 62
7
  6
CONTINUOUS
 10
310.1261532438
 20
235.6982244196
  0
VERTEX
  8
0
 62
7
  6
CONTINUOUS
 10
310.1023570865
 20
235.6979412543
  0
VERTEX
  8
0
 62
7
  6
CONTINUOUS
 10
310.0588778624
 20
235.6959588966
  0
VERTEX
  8
0
 62
7
  6
CONTINUOUS
 10
310.016162765
 20
235.692157149
  0
VERTEX
  8
0
 62
7
  6
CONTINUOUS
 10
309.9742683157
 20
235.6866227758
  0
VERTEX
  8
0
 62
7
  6
CONTINUOUS
 10
309.9332443205
 20
235.6794413715
  0
VERTEX
  8
0
 62
7
  6
CONTINUOUS
 10
309.8931342898
 20
235.6706970382
  0
VERTEX
  8
0
 62
7
  6
CONTINUOUS
 10
309.8539758528
 20
235.6604721064
  0
VERTEX
  8
0
 62
7
  6
CONTINUOUS
 10
309.8158011657
 20
235.6488468967
  0
VERTEX
  8
0
 62
7
  6
CONTINUOUS
 10
309.7786373103
 20
235.6358995193
  0
VERTEX
  8
0
 62
7
  6
CONTINUOUS
 10
309.7425066822
 20
235.6217057072
  0
VERTEX
  8
0
 62
7
  6
CONTINUOUS
 10
309.7074273692
 20
235.6063386837
  0
VERTEX
  8
0
 62
7
  6
CONTINUOUS
 10
309.6734135102
 20
235.5898690552
  0
VERTEX
  8
0
 62
7
  6
CONTINUOUS
 10
309.6404756434
 20
235.5723647317
  0
VERTEX
  8
0
 62
7
  6
CONTINUOUS
 10
309.6086210411
 20
235.5538908717
  0
VERTEX
  8
0
 62
7
  6
CONTINUOUS
 10
309.5778540293
 20
235.5345098488
  0
VERTEX
  8
0
 62
7
  6
CONTINUOUS
 10
309.5481762927
 20
235.5142812383
  0
VERTEX
  8
0
 62
7
  6
CONTINUOUS
 10
309.5195871643
 20
235.4932618215
  0
VERTEX
  8
0
 62
7
  6
CONTINUOUS
 10
309.4920839001
 20
235.4715056064
  0
VERTEX
  8
0
 62
7
  6
CONTINUOUS
 10
309.4656619399
 20
235.4490638631
  0
VERTEX
  8
0
 62
7
  6
CONTINUOUS
 10
309.4403153626
 20
235.4259853711
  0
VERTEX
  8
0
 62
7
  6
CONTINUOUS
 10
309.4160419205
 20
235.4023213932
  0
VERTEX
  8
0
 62
7
  6
CONTINUOUS
 10
309.3928425604
 20
235.378126761
  0
VERTEX
  8
0
 62
7
  6
CONTINUOUS
 10
309.3707159952
 20
235.3534553025
  0
VERTEX
  8
0
 62
7
  6
CONTINUOUS
 10
309.3496585699
 20
235.3283595266
  0
VERTEX
  8
0
 62
7
  6
CONTINUOUS
 10
309.3296643891
 20
235.3028905445
  0
VERTEX
  8
0
 62
7
  6
CONTINUOUS
 10
309.3107254444
 20
235.277098001
  0
VERTEX
  8
0
 62
7
  6
CONTINUOUS
 10
309.2928317445
 20
235.2510300175
  0
VERTEX
  8
0
 62
7
  6
CONTINUOUS
 10
309.275971452
 20
235.224733158
  0
VERTEX
  8
0
 62
7
  6
CONTINUOUS
 10
309.2601310315
 20
235.1982524308
  0
VERTEX
  8
0
 62
7
  6
CONTINUOUS
 10
309.245295415
 20
235.1716313542
  0
VERTEX
  8
0
 62
7
  6
CONTINUOUS
 10
309.2314481941
 20
235.1449121295
  0
VERTEX
  8
0
 62
7
  6
CONTINUOUS
 10
309.2185718517
 20
235.1181360002
  0
VERTEX
  8
0
 62
7
  6
CONTINUOUS
 10
309.2066505366
 20
235.0913497423
  0
VERTEX
  8
0
 62
7
  6
CONTINUOUS
 10
309.1956756134
 20
235.0646225325
  0
VERTEX
  8
0
 62
7
  6
CONTINUOUS
 10
309.1856343926
 20
235.0380250329
  0
VERTEX
  8
0
 62
7
  6
CONTINUOUS
 10
309.1765085696
 20
235.0116247648
  0
VERTEX
  8
0
 62
7
  6
CONTINUOUS
 10
309.1682748448
 20
234.9854859771
  0
VERTEX
  8
0
 62
7
  6
CONTINUOUS
 10
309.1609063951
 20
234.95967284
  0
VERTEX
  8
0
 62
7
  6
CONTINUOUS
 10
309.1543762447
 20
234.9342629342
  0
VERTEX
  8
0
 62
7
  6
CONTINUOUS
 10
309.148669467
 20
234.9094117066
  0
VERTEX
  8
0
 62
7
  6
CONTINUOUS
 10
309.1437612198
 20
234.8852887178
  0
VERTEX
  8
0
 62
7
  6
CONTINUOUS
 10
309.1395510323
 20
234.8616863923
  0
VERTEX
  8
0
 62
7
  6
CONTINUOUS
 10
309.1359638643
 20
234.8384100393
  0
VERTEX
  8
0
 62
7
  6
CONTINUOUS
 10
309.1330364808
 20
234.8160377087
  0
VERTEX
  8
0
 62
7
  6
CONTINUOUS
 10
309.1307384619
 20
234.7949831769
  0
VERTEX
  8
0
 62
7
  6
CONTINUOUS
 10
309.1290073332
 20
234.7756687018
  0
VERTEX
  8
0
 62
7
  6
CONTINUOUS
 10
309.1285031308
 20
234.7691851678
  0
SEQEND
  0
LINE
  8
SURFACE
 62
7
  6
CONTINUOUS
 10
331.6490126228
 20
235.6982255551
 11
320.8875820569
 21
235.6982255551
  0
LINE
  8
0
 62
7
  6
CONTINUOUS
 10
310.126151491
 20
235.6982255551
 11
320.8875820569
 21
235.6982255551
  0
ARC
  8
0
 62
7
  6
CONTINUOUS
 10
-15.2552963084
 20
174.6092555477
 40
180.0
 50
345.7582112561
 51
348.7731785
  0
ARC
  8
0
 62
7
  6
CONTINUOUS
 10
54.1147036916
 20
59.7669269575
 40
180.0
 50
45.7582112561
 51
48.7731785
  0
ARC
  8
SURFACE
 62
7
  6
CONTINUOUS
 10
49.5160776805
 20
62.4219449229
 40
180.0
 50
71.2268215
 51
74.2417887439
  0
ARC
  8
0
 62
7
  6
CONTINUOUS
 10
9.0893398379
 20
169.5819835131
 40
110.0000000855
 50
334.7873226583
 51
339.5070489309
  0
ARC
  8
0
 62
7
  6
CONTINUOUS
 10
70.6407670585
 20
78.3363642888
 40
110.0000000855
 50
34.7873226583
 51
39.5070489309
  0
ARC
  8
SURFACE
 62
7
  6
CONTINUOUS
 10
57.33465046
 20
86.0186542888
 40
110.0000000855
 50
80.4929510691
 51
85.2126773417
  0
ARC
  8
0
 62
7
  6
CONTINUOUS
 10
56.0599414468
 20
177.2314335131
 40
9.5
 50
300.0
 51
330.0
  0
ARC
  8
0
 62
7
  6
CONTINUOUS
 10
87.5014498379
 20
122.8388235131
 40
9.5
 50
0.0
 51
30.0
  0
ARC
  8
SURFACE
 62
7
  6
CONTINUOUS
 10
87.4445692894
 20
122.8716635131
 40
9.5
 50
90.0
 51
120.0
  0
ARC
  8
DEFAULT_3
 62
2
  6
PHANTOM
 10
103.702489326
 20
167.027373084
 40
3.2
 50
183.5903778907
 51
225.0
  0
ARC
  8
DEFAULT_3
 62
2
  6
PHANTOM
 10
108.6491772514
 20
162.0806851586
 40
3.2
 50
225.0
 51
266.4096221093
  0
ARC
  8
DEFAULT_3
 62
2
  6
PHANTOM
 10
108.2483906111
 20
155.6932466995
 40
3.2
 50
45.0
 51
86.4096221093
  0
ARC
  8
DEFAULT_3
 62
2
  6
PHANTOM
 10
112.4910312983
 20
151.4506060123
 40
3.2
 50
2.2544307753
 51
45.0
  0
ARC
  8
DEFAULT_3
 62
2
  6
PHANTOM
 10
93.0724101797
 20
170.8692271309
 40
3.2
 50
45.0
 51
87.7455692247
  0
ARC
  8
DEFAULT_3
 62
2
  6
PHANTOM
 10
97.3150508669
 20
166.6265864437
 40
3.2
 50
3.5903778907
 51
45.0
  0
ARC
  8
0
 62
7
  6
CONTINUOUS
 10
75.8335722495
 20
158.0481803128
 40
2.0
 50
30.0
 51
99.5070489309
  0
ARC
  8
0
 62
7
  6
CONTINUOUS
 10
66.3480449073
 20
160.886666903
 40
2.0
 50
228.7731785
 51
274.7873226583
  0
ARC
  8
0
 62
7
  6
CONTINUOUS
 10
114.0014498379
 20
130.3716635131
 40
2.0
 50
90.0
 51
159.5070489309
  0
ARC
  8
0
 62
7
  6
CONTINUOUS
 10
106.8004846714
 20
123.5761991616
 40
2.0
 50
288.7731785
 51
334.7873226583
  0
ARC
  8
SURFACE
 62
7
  6
CONTINUOUS
 10
80.7182000921
 20
149.5877567134
 40
2.0
 50
320.4929510691
 51
30.0
  0
ARC
  8
SURFACE
 62
7
  6
CONTINUOUS
 10
78.4336379164
 20
139.9538057717
 40
2.0
 50
145.2126773417
 51
191.2268215
  0
ARC
  8
0
 62
7
  6
CONTINUOUS
 10
58.8411047915
 20
166.597313212
 40
1.1
 50
120.0
 51
225.7582112561
  0
ARC
  8
0
 62
7
  6
CONTINUOUS
 10
98.1014498379
 20
119.9303214712
 40
1.1
 50
180.0
 51
285.7582112562
  0
ARC
  8
SURFACE
 62
7
  6
CONTINUOUS
 10
79.6257326341
 20
130.5972817723
 40
1.1
 50
194.2417887439
 51
300.0
  0
ARC
  8
0
 62
7
  6
CONTINUOUS
 10
49.5160776805
 20
292.1066021033
 40
180.0
 50
285.7582112561
 51
288.7731785
  0
ARC
  8
SURFACE
 62
7
  6
CONTINUOUS
 10
-15.2552963084
 20
179.9192914785
 40
180.0
 50
11.2268215
 51
14.2417887439
  0
ARC
  8
SURFACE
 62
7
  6
CONTINUOUS
 10
54.1147036916
 20
294.7616200688
 40
180.0
 50
311.2268215
 51
314.2417887439
  0
ARC
  8
0
 62
7
  6
CONTINUOUS
 10
57.33465046
 20
268.5098927375
 40
110.0000000855
 50
274.7873226583
 51
279.5070489309
  0
ARC
  8
SURFACE
 62
7
  6
CONTINUOUS
 10
70.6407670585
 20
276.1921827375
 40
110.0000000855
 50
320.4929510691
 51
325.2126773417
  0
ARC
  8
SURFACE
 62
7
  6
CONTINUOUS
 10
9.0893398379
 20
184.9465635131
 40
110.0000000855
 50
20.4929510691
 51
25.2126773417
  0
ARC
  8
0
 62
7
  6
CONTINUOUS
 10
87.4445692894
 20
231.6568835131
 40
9.5
 50
240.0
 51
270.0
  0
ARC
  8
SURFACE
 62
7
  6
CONTINUOUS
 10
56.0599414468
 20
177.2971135131
 40
9.5
 50
30.0
 51
60.0
  0
ARC
  8
SURFACE
 62
7
  6
CONTINUOUS
 10
87.5014498379
 20
231.6897235131
 40
9.5
 50
330.0
 51
360.0
  0
ARC
  8
DEFAULT_3
 62
2
  6
PHANTOM
 10
93.0724101797
 20
183.6593198954
 40
3.2
 50
272.2544307753
 51
315.0
  0
ARC
  8
DEFAULT_3
 62
2
  6
PHANTOM
 10
112.4910312983
 20
203.0779410139
 40
3.2
 50
315.0
 51
357.7455692247
  0
ARC
  8
DEFAULT_3
 62
2
  6
PHANTOM
 10
108.2483906111
 20
198.8353003268
 40
3.2
 50
273.5903778907
 51
315.0
  0
ARC
  8
DEFAULT_3
 62
2
  6
PHANTOM
 10
93.3241675406
 20
177.2642735131
 40
3.2
 50
92.2544307753
 51
267.7455692247
  0
ARC
  8
DEFAULT_3
 62
2
  6
PHANTOM
 10
108.6491772514
 20
192.4478618677
 40
3.2
 50
93.5903778907
 51
135.0
  0
ARC
  8
DEFAULT_3
 62
2
  6
PHANTOM
 10
103.702489326
 20
187.5011739422
 40
3.2
 50
135.0
 51
176.4096221093
  0
ARC
  8
DEFAULT_3
 62
2
  6
PHANTOM
 10
97.3150508669
 20
187.9019605825
 40
3.2
 50
315.0
 51
356.4096221093
  0
ARC
  8
0
 62
7
  6
CONTINUOUS
 10
80.7182000921
 20
204.9407903128
 40
2.0
 50
330.0
 51
39.5070489309
  0
ARC
  8
0
 62
7
  6
CONTINUOUS
 10
78.4336379164
 20
214.5747412545
 40
2.0
 50
168.7731785
 51
214.7873226583
  0
ARC
  8
SURFACE
 62
7
  6
CONTINUOUS
 10
75.8335722495
 20
196.4803667134
 40
2.0
 50
260.4929510691
 51
330.0
  0
ARC
  8
SURFACE
 62
7
  6
CONTINUOUS
 10
66.3480449073
 20
193.6418801232
 40
2.0
 50
85.2126773417
 51
131.2268215
  0
ARC
  8
SURFACE
 62
7
  6
CONTINUOUS
 10
114.0014498379
 20
224.1568835131
 40
2.0
 50
200.4929510691
 51
270.0
  0
ARC
  8
SURFACE
 62
7
  6
CONTINUOUS
 10
106.8004846714
 20
230.9523478646
 40
2.0
 50
25.2126773417
 51
71.2268215
  0
ARC
  8
0
 62
7
  6
CONTINUOUS
 10
79.6257326341
 20
223.931265254
 40
1.1
 50
60.0
 51
165.7582112561
  0
ARC
  8
SURFACE
 62
7
  6
CONTINUOUS
 10
58.8411047915
 20
187.9312338142
 40
1.1
 50
134.2417887439
 51
240.0
  0
ARC
  8
SURFACE
 62
7
  6
CONTINUOUS
 10
98.1014498379
 20
234.5982255551
 40
1.1
 50
74.2417887439
 51
180.0
  0
ARC
  8
0
 62
7
  6
CONTINUOUS
 10
188.2560776805
 20
62.4219449229
 40
180.0
 50
105.7582112561
 51
108.7731785
  0
ARC
  8
SURFACE
 62
7
  6
CONTINUOUS
 10
253.0274516694
 20
174.6092555477
 40
180.0
 50
191.2268215
 51
194.2417887439
  0
ARC
  8
SURFACE
 62
7
  6
CONTINUOUS
 10
183.6574516694
 20
59.7669269575
 40
180.0
 50
131.2268215
 51
134.2417887439
  0
ARC
  8
0
 62
7
  6
CONTINUOUS
 10
180.4375049011
 20
86.0186542888
 40
110.0000000855
 50
94.7873226583
 51
99.5070489309
  0
ARC
  8
SURFACE
 62
7
  6
CONTINUOUS
 10
228.6828155231
 20
169.5819835131
 40
110.0000000855
 50
200.4929510691
 51
205.2126773417
  0
ARC
  8
SURFACE
 62
7
  6
CONTINUOUS
 10
167.1313883026
 20
78.3363642888
 40
110.0000000855
 50
140.4929510691
 51
145.2126773417
  0
ARC
  8
0
 62
7
  6
CONTINUOUS
 10
150.3275860716
 20
122.8716635131
 40
9.5
 50
60.0
 51
90.0
  0
ARC
  8
SURFACE
 62
7
  6
CONTINUOUS
 10
181.7122139142
 20
177.2314335131
 40
9.5
 50
210.0
 51
240.0
  0
ARC
  8
SURFACE
 62
7
  6
CONTINUOUS
 10
150.2707055231
 20
122.8388235131
 40
9.5
 50
150.0
 51
180.0
  0
ARC
  8
DEFAULT_3
 62
2
  6
PHANTOM
 10
134.0696660351
 20
167.027373084
 40
3.2
 50
315.0
 51
356.4096221093
  0
ARC
  8
DEFAULT_3
 62
2
  6
PHANTOM
 10
140.4571044942
 20
166.6265864437
 40
3.2
 50
135.0
 51
176.4096221093
  0
ARC
  8
DEFAULT_3
 62
2
  6
PHANTOM
 10
144.6997451813
 20
170.8692271309
 40
3.2
 50
92.2544307753
 51
135.0
  0
ARC
  8
DEFAULT_3
 62
2
  6
PHANTOM
 10
118.8860776805
 20
151.7023633732
 40
3.2
 50
182.2544307753
 51
357.7455692247
  0
ARC
  8
DEFAULT_3
 62
2
  6
PHANTOM
 10
125.2811240628
 20
151.4506060123
 40
3.2
 50
135.0
 51
177.7455692247
  0
ARC
  8
DEFAULT_3
 62
2
  6
PHANTOM
 10
129.5237647499
 20
155.6932466995
 40
3.2
 50
93.5903778907
 51
135.0
  0
ARC
  8
DEFAULT_3
 62
2
  6
PHANTOM
 10
129.1229781096
 20
162.0806851586
 40
3.2
 50
273.5903778907
 51
315.0
  0
ARC
  8
0
 62
7
  6
CONTINUOUS
 10
157.053955269
 20
149.5877567134
 40
2.0
 50
150.0
 51
219.5070489309
  0
ARC
  8
0
 62
7
  6
CONTINUOUS
 10
159.3385174447
 20
139.9538057717
 40
2.0
 50
348.7731785
 51
34.7873226583
  0
ARC
  8
SURFACE
 62
7
  6
CONTINUOUS
 10
161.9385831116
 20
158.0481803128
 40
2.0
 50
80.4929510691
 51
150.0
  0
ARC
  8
SURFACE
 62
7
  6
CONTINUOUS
 10
171.4241104537
 20
160.886666903
 40
2.0
 50
265.2126773417
 51
311.2268215
  0
ARC
  8
SURFACE
 62
7
  6
CONTINUOUS
 10
123.7707055231
 20
130.3716635131
 40
2.0
 50
20.4929510691
 51
90.0
  0
ARC
  8
SURFACE
 62
7
  6
CONTINUOUS
 10
130.9716706896
 20
123.5761991616
 40
2.0
 50
205.2126773417
 51
251.2268215
  0
ARC
  8
0
 62
7
  6
CONTINUOUS
 10
158.1464227269
 20
130.5972817723
 40
1.1
 50
240.0
 51
345.7582112561
  0
ARC
  8
SURFACE
 62
7
  6
CONTINUOUS
 10
178.9310505695
 20
166.597313212
 40
1.1
 50
314.2417887439
 51
60.0
  0
ARC
  8
SURFACE
 62
7
  6
CONTINUOUS
 10
139.6707055231
 20
119.9303214712
 40
1.1
 50
254.2417887439
 51
360.0
  0
ARC
  8
0
 62
7
  6
CONTINUOUS
 10
253.0274516694
 20
179.9192914785
 40
180.0
 50
165.7582112561
 51
168.7731785
  0
ARC
  8
0
 62
7
  6
CONTINUOUS
 10
183.6574516694
 20
294.7616200688
 40
180.0
 50
225.7582112561
 51
228.7731785
  0
ARC
  8
SURFACE
 62
7
  6
CONTINUOUS
 10
188.2560776805
 20
292.1066021033
 40
180.0
 50
251.2268215
 51
254.2417887439
  0
ARC
  8
0
 62
7
  6
CONTINUOUS
 10
167.1313883026
 20
276.1921827375
 40
110.0000000855
 50
214.7873226583
 51
219.5070489309
  0
ARC
  8
0
 62
7
  6
CONTINUOUS
 10
228.6828155231
 20
184.9465635131
 40
110.0000000855
 50
154.7873226583
 51
159.5070489309
  0
ARC
  8
SURFACE
 62
7
  6
CONTINUOUS
 10
180.4375049011
 20
268.5098927375
 40
110.0000000855
 50
260.4929510691
 51
265.2126773417
  0
CIRCLE
  8
SURFACE
 62
7
  6
CONTINUOUS
 10
118.8860776805
 20
177.2642735131
 40
35.0
  0
ARC
  8
0
 62
7
  6
CONTINUOUS
 10
150.2707055231
 20
231.6897235131
 40
9.5
 50
180.0
 51
210.0
  0
ARC
  8
0
 62
7
  6
CONTINUOUS
 10
181.7122139142
 20
177.2971135131
 40
9.5
 50
120.0
 51
150.0
  0
ARC
  8
SURFACE
 62
7
  6
CONTINUOUS
 10
150.3275860716
 20
231.6568835131
 40
9.5
 50
270.0
 51
300.0
  0
CIRCLE
  8
DEFAULT_3
 62
2
  6
PHANTOM
 10
118.8860776805
 20
177.2642735131
 40
9.0
  0
ARC
  8
DEFAULT_3
 62
2
  6
PHANTOM
 10
144.4479878204
 20
177.2642735131
 40
3.2
 50
272.2544307753
 51
87.7455692247
  0
ARC
  8
DEFAULT_3
 62
2
  6
PHANTOM
 10
144.6997451813
 20
183.6593198954
 40
3.2
 50
225.0
 51
267.7455692247
  0
ARC
  8
DEFAULT_3
 62
2
  6
PHANTOM
 10
140.4571044942
 20
187.9019605825
 40
3.2
 50
183.5903778907
 51
225.0
  0
ARC
  8
DEFAULT_3
 62
2
  6
PHANTOM
 10
134.0696660351
 20
187.5011739422
 40
3.2
 50
3.5903778907
 51
45.0
  0
ARC
  8
DEFAULT_3
 62
2
  6
PHANTOM
 10
129.1229781096
 20
192.4478618677
 40
3.2
 50
45.0
 51
86.4096221093
  0
ARC
  8
DEFAULT_3
 62
2
  6
PHANTOM
 10
129.5237647499
 20
198.8353003268
 40
3.2
 50
225.0
 51
266.4096221093
  0
ARC
  8
DEFAULT_3
 62
2
  6
PHANTOM
 10
125.2811240628
 20
203.0779410139
 40
3.2
 50
182.2544307753
 51
225.0
  0
ARC
  8
DEFAULT_3
 62
2
  6
PHANTOM
 10
118.8860776805
 20
202.826183653
 40
3.2
 50
2.2544307753
 51
177.7455692247
  0
ARC
  8
0
 62
7
  6
CONTINUOUS
 10
123.7707055231
 20
224.1568835131
 40
2.0
 50
270.0
 51
339.5070489309
  0
ARC
  8
0
 62
7
  6
CONTINUOUS
 10
130.9716706896
 20
230.9523478646
 40
2.0
 50
108.7731785
 51
154.7873226583
  0
ARC
  8
0
 62
7
  6
CONTINUOUS
 10
161.9385831116
 20
196.4803667134
 40
2.0
 50
210.000005435
 51
279.5070489309
  0
ARC
  8
0
 62
7
  6
CONTINUOUS
 10
171.4241104537
 20
193.6418801232
 40
2.0
 50
48.7731785
 51
94.7873226583
  0
ARC
  8
SURFACE
 62
7
  6
CONTINUOUS
 10
157.053955269
 20
204.9407903128
 40
2.0
 50
140.4929510691
 51
210.0
  0
ARC
  8
SURFACE
 62
7
  6
CONTINUOUS
 10
159.3385174447
 20
214.5747412545
 40
2.0
 50
325.2126773417
 51
11.2268215
  0
CIRCLE
  8
0
 62
7
  6
CONTINUOUS
 10
118.8860776805
 20
217.2642735131
 40
1.7320508076
  0
ARC
  8
0
 62
7
  6
CONTINUOUS
 10
139.6707055231
 20
234.5982255551
 40
1.1
 50
0.0
 51
105.7582112561
  0
ARC
  8
0
 62
7
  6
CONTINUOUS
 10
178.9310505695
 20
187.9312338142
 40
1.1
 50
300.0
 51
45.7582112561
  0
ARC
  8
SURFACE
 62
7
  6
CONTINUOUS
 10
158.1464227269
 20
223.931265254
 40
1.1
 50
14.2417887439
 51
120.0
  0
ARC
  8
0
 62
7
  6
CONTINUOUS
 10
306.8875820569
 20
140.2642735131
 40
2.0
 50
0.0
 51
90.0
  0
ARC
  8
0
 62
7
  6
CONTINUOUS
 10
306.8875820569
 20
214.2642735131
 40
2.0
 50
270.0
 51
360.0
  0
ARC
  8
0
 62
7
  6
CONTINUOUS
 10
334.8875820569
 20
214.2642735131
 40
2.0
 50
205.5956561337
 51
270.0
  0
ARC
  8
0
 62
7
  6
CONTINUOUS
 10
334.8875820569
 20
140.2642735131
 40
2.0
 50
90.0
 51
180.0
  0
ARC
  8
SURFACE
 62
7
  6
CONTINUOUS
 10
340.0375820569
 20
210.2642735131
 40
2.0
 50
0.0
 51
90.0
  0
ARC
  8
SURFACE
 62
7
  6
CONTINUOUS
 10
340.0375820569
 20
144.2642735131
 40
2.0
 50
270.0
 51
360.0
  0
ARC
  8
0
 62
7
  6
CONTINUOUS
 10
301.7375820569
 20
144.2642735131
 40
2.0
 50
180.0
 51
270.0
  0
ARC
  8
0
 62
7
  6
CONTINUOUS
 10
301.7375820569
 20
210.2642735131
 40
2.0
 50
90.0
 51
180.0
  0
ENDSEC
  0
EOF
