  0
SECTION
  2
HEADER
  9
$EXTMAX
 10
210.0
 20
297.0
 30
0.0
  9
$EXTMIN
 10
0.0
 20
0.0
 30
0.0
  9
$LIMMIN
 10
0.0
 20
0.0
  9
$LIMMAX
 10
210.0
 20
297.0
  9
$VIEWCTR
 10
105.0
 20
148.5
  9
$VIEWSIZE
 40
297.0
  9
$CLAYER
  8
0
  9
$LTSCALE
 40
19.36
  9
$CELTYPE
  6
BYLAYER
  9
$DIMSCALE
 40
1.0
  9
$DIMASZ
 40
3.5
  9
$DIMEXO
 40
1.0
  9
$DIMDLI
 40
13.376
  9
$DIMEXE
 40
2.0
  9
$DIMCEN
 40
3.168
  9
$DIMLFAC
 40
1.0
  9
$DIMBLK
  1
_FILLED
  9
$DIMTXT
 40
3.5
  9
$PDMODE
 70
3
  9
$PDSIZE
 40
0.3125
  9
$TILEMODE
 70
1
  0
ENDSEC
  0
SECTION
  2
TABLES
  0
TABLE
  2
LTYPE
 70
6
  0
LTYPE
  2
BYBLOCK
 70
0
  3

 72
65
 73
0
 40
0.0
  0
LTYPE
  2
BYLAYER
 70
0
  3

 72
65
 73
0
 40
0.0
  0
LTYPE
  2
CONTINUOUS
 70
64
  3
Solid line
 72
65
 73
0
 40
0.0
  0
LTYPE
  2
CENTER
 70
64
  3
____ _ ____ _ ____ _ ____ _ ____ _ ____ _ ____
 72
65
 73
4
 40
0.6
 49
0.375
 49
-0.075
 49
0.075
 49
-0.075
  0
LTYPE
  2
HIDDEN
 70
64
  3
- - - - - - - - - - - - - - - - - - - -
 72
65
 73
2
 40
0.2
 49
0.1
 49
-0.1
  0
LTYPE
  2
PHANTOM
 70
64
  3
_____ _ _ _____ _ _ _____ _ _ _____
 72
65
 73
6
 40
0.8
 49
0.45
 49
-0.05
 49
0.1
 49
-0.05
 49
0.1
 49
-0.05
  0
LTYPE
  2
DOT
 70
64
  3
. . . . . . . . . . . . . . . . . . . .
 72
65
 73
2
 40
0.2
 49
0.1
 49
-0.1
  0
LTYPE
  2
DASHED
 70
64
  3
- - - - - - - - - - - - - - - - - - - -
 72
65
 73
2
 40
0.2
 49
0.1
 49
-0.1
  0
ENDTAB
  0
TABLE
  2
LAYER
 70
36
  0
LAYER
  2
0
 70
0
 62
7
  6
CONTINUOUS
  0
LAYER
  2
DEFAULT_1
 70
0
 62
7
  6
CENTER
  0
LAYER
  2
DEFAULT_2
 70
0
 62
8
  6
HIDDEN
  0
LAYER
  2
DEFAULT_3
 70
0
 62
7
  6
PHANTOM
  0
LAYER
  2
1_DATUMPLANE
 70
0
 62
7
  6
CONTINUOUS
  0
LAYER
  2
4_QUILT
 70
0
 62
7
  6
CONTINUOUS
  0
LAYER
  2
4_SURFACE
 70
0
 62
7
  6
CONTINUOUS
  0
LAYER
  2
AXES
 70
0
 62
7
  6
CONTINUOUS
  0
LAYER
  2
CSYS
 70
0
 62
7
  6
CONTINUOUS
  0
LAYER
  2
CURVE
 70
0
 62
7
  6
CONTINUOUS
  0
LAYER
  2
CURVES
 70
0
 62
7
  6
CONTINUOUS
  0
LAYER
  2
DS
 70
0
 62
7
  6
CONTINUOUS
  0
LAYER
  2
NOTES
 70
0
 62
7
  6
CONTINUOUS
  0
LAYER
  2
PLANES
 70
0
 62
7
  6
CONTINUOUS
  0
LAYER
  2
QUILT
 70
0
 62
7
  6
CONTINUOUS
  0
LAYER
  2
QUILTS
 70
0
 62
7
  6
CONTINUOUS
  0
LAYER
  2
SOLID
 70
0
 62
7
  6
CONTINUOUS
  0
LAYER
  2
SPLIT_LINIE
 70
0
 62
7
  6
CONTINUOUS
  0
LAYER
  2
SURFACE
 70
0
 62
7
  6
CONTINUOUS
  0
ENDTAB
  0
TABLE
  2
STYLE
 70
1
  0
STYLE
  2
STANDARD
 70
0
 40
0.0
 41
0.8
 50
0.0
 71
0
 42
0.2
  3
txt
  4

  0
STYLE
  2
TEXTSTYLE_1
 70
0
 40
0.0
 41
0.8
 50
0.0
 71
0
 42
0.2
  3
gdt
  4

  0
STYLE
  2
TEXTSTYLE_2
 70
0
 40
0.0
 41
0.6
 50
0.0
 71
0
 42
0.2
  3
txt
  4

  0
STYLE
  2
TEXTSTYLE_3
 70
0
 40
0.0
 41
1.0
 50
0.0
 71
0
 42
0.2
  3
ftb_____.ttf
  4

  0
STYLE
  2
TEXTSTYLE_4
 70
0
 40
0.0
 41
1.0
 50
0.0
 71
0
 42
0.2
  3
fti_____.ttf
  4

  0
STYLE
  2
TEXTSTYLE_5
 70
0
 40
0.0
 41
1.0
 50
0.0
 71
0
 42
0.2
  3
frutiger light.ttf
  4

  0
STYLE
  2
TEXTSTYLE_6
 70
0
 40
0.0
 41
0.7
 50
0.0
 71
0
 42
0.2
  3
txt
  4

  0
STYLE
  2
TEXTSTYLE_7
 70
0
 40
0.0
 41
0.75
 50
0.0
 71
0
 42
0.2
  3
txt
  4

  0
ENDTAB
  0
ENDSEC
  0
SECTION
  2
BLOCKS
  0
BLOCK
  8
0
 62
2
  6
CONTINUOUS
  2
SYMBOL_8_BL1
 70
64
 10
173.5956734183
 20
35.5937998301
  0
TEXT
  8
0
 62
7
  6
CONTINUOUS
 10
164.6539584268
 20
30.6865562072
  7
TEXTSTYLE_4
 40
1.0655737705
  1
The brand for plastic modular belts and chains
 41
1.0
 72
0
  0
LINE
  8
0
 62
7
  6
CONTINUOUS
 10
149.5737418074
 20
36.1675703219
 11
149.5737418074
 21
34.0364227809
  0
LINE
  8
0
 62
7
  6
CONTINUOUS
 10
149.8628043005
 20
31.0454914852
 11
149.8628043005
 21
31.1422825445
  0
LINE
  8
0
 62
7
  6
CONTINUOUS
 10
149.5737418074
 20
31.1100188581
 11
149.6315543091
 21
30.9164367395
  0
LINE
  8
0
 62
7
  6
CONTINUOUS
 10
150.9671844304
 20
33.9544555678
 11
150.9671844304
 21
36.1675703219
  0
LINE
  8
0
 62
7
  6
CONTINUOUS
 10
151.8862417523
 20
32.1101932727
 11
151.8862417523
 21
30.5937998301
  0
LINE
  8
0
 62
7
  6
CONTINUOUS
 10
152.1753043074
 20
30.5937998301
 11
152.1753043074
 21
31.3358647082
  0
LINE
  8
0
 62
7
  6
CONTINUOUS
 10
152.1753043074
 20
31.4649194539
 11
152.1753043074
 21
32.1101932727
  0
LINE
  8
0
 62
7
  6
CONTINUOUS
 10
149.6315543091
 20
31.3036010218
 11
149.5737418074
 21
31.1100188581
  0
LINE
  8
0
 62
7
  6
CONTINUOUS
 10
149.9784292936
 20
30.8841730531
 11
149.8628043005
 21
31.0454914852
  0
LINE
  8
0
 62
7
  6
CONTINUOUS
 10
151.0768668626
 20
31.400392081
 11
151.1346793074
 21
31.3036010218
  0
LINE
  8
0
 62
7
  6
CONTINUOUS
 10
151.4237418626
 20
31.3036010218
 11
151.3659292523
 21
31.4326557675
  0
LINE
  8
0
 62
7
  6
CONTINUOUS
 10
152.852430332
 20
36.1675703219
 11
152.852430332
 21
34.3642916334
  0
LINE
  8
0
 62
7
  6
CONTINUOUS
 10
152.852430332
 20
33.0528162235
 11
152.852430332
 21
32.3970785186
  0
LINE
  8
0
 62
7
  6
CONTINUOUS
 10
153.2159293074
 20
31.2390736489
 11
153.2159293074
 21
30.5937998301
  0
LINE
  8
0
 62
7
  6
CONTINUOUS
 10
153.5049916972
 20
30.5937998301
 11
153.5049916972
 21
31.2390736489
  0
LINE
  8
0
 62
7
  6
CONTINUOUS
 10
149.8628043005
 20
31.1422825445
 11
149.9206168074
 21
31.2713373354
  0
LINE
  8
0
 62
7
  6
CONTINUOUS
 10
149.6315543091
 20
30.9164367395
 11
149.7471793074
 21
30.7873819712
  0
LINE
  8
0
 62
7
  6
CONTINUOUS
 10
153.1581166972
 20
31.3681283946
 11
153.2159293074
 21
31.2390736489
  0
LINE
  8
0
 62
7
  6
CONTINUOUS
 10
153.9674919177
 20
30.8841730531
 11
154.0253041972
 21
30.7551182848
  0
LINE
  8
0
 62
7
  6
CONTINUOUS
 10
153.5049916972
 20
31.2390736489
 11
153.4471794177
 21
31.400392081
  0
LINE
  8
0
 62
7
  6
CONTINUOUS
 10
153.9674919177
 20
31.4326557675
 11
153.9674919177
 21
31.3681283946
  0
LINE
  8
0
 62
7
  6
CONTINUOUS
 10
153.9674919177
 20
30.9809641124
 11
153.9674919177
 21
30.8841730531
  0
LINE
  8
0
 62
7
  6
CONTINUOUS
 10
154.245872955
 20
32.3970785186
 11
154.245872955
 21
36.1675703219
  0
LINE
  8
0
 62
7
  6
CONTINUOUS
 10
154.2565543074
 20
30.8519093441
 11
154.2565543074
 21
30.9164367395
  0
LINE
  8
0
 62
7
  6
CONTINUOUS
 10
154.5737418074
 20
36.1675703219
 11
154.5737418074
 21
32.3970785186
  0
LINE
  8
0
 62
7
  6
CONTINUOUS
 10
151.3659292523
 20
30.7873819712
 11
151.4237418626
 21
30.9164367395
  0
LINE
  8
0
 62
7
  6
CONTINUOUS
 10
155.759679528
 20
30.6905909007
 11
155.7018665869
 21
30.8519093441
  0
LINE
  8
0
 62
7
  6
CONTINUOUS
 10
155.412804528
 20
31.3681283946
 11
155.412804528
 21
31.2713373354
  0
LINE
  8
0
 62
7
  6
CONTINUOUS
 10
155.412804528
 20
31.1422825445
 11
155.412804528
 21
30.9487004259
  0
LINE
  8
0
 62
7
  6
CONTINUOUS
 10
155.7018665869
 20
30.8519093441
 11
155.7018665869
 21
31.3681283946
  0
LINE
  8
0
 62
7
  6
CONTINUOUS
 10
155.9671844304
 20
32.3970785186
 11
155.9671844304
 21
34.2003572071
  0
LINE
  8
0
 62
7
  6
CONTINUOUS
 10
155.9671844304
 20
35.511832617
 11
155.9671844304
 21
36.1675703219
  0
LINE
  8
0
 62
7
  6
CONTINUOUS
 10
156.279992028
 20
32.1101932727
 11
156.279992028
 21
31.9488748406
  0
LINE
  8
0
 62
7
  6
CONTINUOUS
 10
156.279992028
 20
31.626237886
 11
156.279992028
 21
30.5937998301
  0
LINE
  8
0
 62
7
  6
CONTINUOUS
 10
156.5690540869
 20
30.5937998301
 11
156.5690540869
 21
31.626237886
  0
LINE
  8
0
 62
7
  6
CONTINUOUS
 10
156.5690540869
 20
31.9488748406
 11
156.5690540869
 21
32.1101932727
  0
LINE
  8
0
 62
7
  6
CONTINUOUS
 10
151.1346793074
 20
30.9164367395
 11
151.0768668626
 21
30.8196456577
  0
LINE
  8
0
 62
7
  6
CONTINUOUS
 10
153.4471794177
 20
31.400392081
 11
153.3893668074
 21
31.4649194539
  0
LINE
  8
0
 62
7
  6
CONTINUOUS
 10
154.3143669177
 20
30.7873819712
 11
154.2565543074
 21
30.8519093441
  0
LINE
  8
0
 62
7
  6
CONTINUOUS
 10
155.4706168074
 20
30.6583272086
 11
155.5284290869
 21
30.5937998301
  0
LINE
  8
0
 62
7
  6
CONTINUOUS
 10
155.412804528
 20
30.7551182848
 11
155.4706168074
 21
30.6583272086
  0
LINE
  8
0
 62
7
  6
CONTINUOUS
 10
155.8174918074
 20
30.5937998301
 11
155.759679528
 21
30.6905909007
  0
LINE
  8
0
 62
7
  6
CONTINUOUS
 10
155.7018665869
 20
31.3681283946
 11
155.6440543074
 21
31.4649194539
  0
LINE
  8
0
 62
7
  6
CONTINUOUS
 10
157.0315543074
 20
31.626237886
 11
157.0315543074
 21
30.5937998301
  0
LINE
  8
0
 62
7
  6
CONTINUOUS
 10
157.320617028
 20
30.5937998301
 11
157.320617028
 21
31.3358647082
  0
LINE
  8
0
 62
7
  6
CONTINUOUS
 10
157.320617028
 20
31.4649194539
 11
157.320617028
 21
31.626237886
  0
LINE
  8
0
 62
7
  6
CONTINUOUS
 10
157.852430332
 20
34.6101932727
 11
157.852430332
 21
32.3970785186
  0
LINE
  8
0
 62
7
  6
CONTINUOUS
 10
149.7471793074
 20
31.4326557675
 11
149.6315543091
 21
31.3036010218
  0
LINE
  8
0
 62
7
  6
CONTINUOUS
 10
149.9206168074
 20
31.2713373354
 11
149.9784292936
 21
31.3358647082
  0
LINE
  8
0
 62
7
  6
CONTINUOUS
 10
149.7471793074
 20
30.7873819712
 11
149.8628043005
 21
30.7228545871
  0
LINE
  8
0
 62
7
  6
CONTINUOUS
 10
150.1518667936
 20
30.7873819712
 11
149.9784292936
 21
30.8841730531
  0
LINE
  8
0
 62
7
  6
CONTINUOUS
 10
155.3549915869
 20
31.4326557675
 11
155.412804528
 21
31.3681283946
  0
LINE
  8
0
 62
7
  6
CONTINUOUS
 10
158.3034290869
 20
31.3681283946
 11
158.361242028
 21
31.2068099625
  0
LINE
  8
0
 62
7
  6
CONTINUOUS
 10
158.6503040869
 20
31.2068099625
 11
158.5924918074
 21
31.3681283946
  0
LINE
  8
0
 62
7
  6
CONTINUOUS
 10
158.361242028
 20
31.2068099625
 11
158.361242028
 21
30.5937998301
  0
LINE
  8
0
 62
7
  6
CONTINUOUS
 10
158.6503040869
 20
30.5937998301
 11
158.6503040869
 21
31.2068099625
  0
LINE
  8
0
 62
7
  6
CONTINUOUS
 10
159.1128043074
 20
31.4326557675
 11
159.1128043074
 21
31.3681283946
  0
LINE
  8
0
 62
7
  6
CONTINUOUS
 10
159.245872955
 20
32.3970785186
 11
159.245872955
 21
34.5282260596
  0
LINE
  8
0
 62
7
  6
CONTINUOUS
 10
159.5737418074
 20
36.1675703219
 11
159.5737418074
 21
32.3970785186
  0
LINE
  8
0
 62
7
  6
CONTINUOUS
 10
154.2565543074
 20
30.9164367395
 11
154.3143669177
 21
31.0132277988
  0
LINE
  8
0
 62
7
  6
CONTINUOUS
 10
149.8628043005
 20
30.7228545871
 11
150.0362418212
 21
30.6583272086
  0
LINE
  8
0
 62
7
  6
CONTINUOUS
 10
151.3659292523
 20
31.4326557675
 11
151.1924917523
 21
31.5294468267
  0
LINE
  8
0
 62
7
  6
CONTINUOUS
 10
154.0253041972
 20
30.7551182848
 11
154.1987416972
 21
30.6583272086
  0
LINE
  8
0
 62
7
  6
CONTINUOUS
 10
153.0424918074
 20
31.4326557675
 11
153.1581166972
 21
31.3681283946
  0
LINE
  8
0
 62
7
  6
CONTINUOUS
 10
153.3893668074
 20
31.4649194539
 11
153.2737419177
 21
31.5294468267
  0
LINE
  8
0
 62
7
  6
CONTINUOUS
 10
159.1128043074
 20
30.8519093441
 11
159.228429528
 21
30.7228545871
  0
LINE
  8
0
 62
7
  6
CONTINUOUS
 10
159.4596793074
 20
30.7873819712
 11
159.401867028
 21
30.8519093441
  0
LINE
  8
0
 62
7
  6
CONTINUOUS
 10
159.1128043074
 20
31.3681283946
 11
159.228429528
 21
31.2390736489
  0
LINE
  8
0
 62
7
  6
CONTINUOUS
 10
158.5924918074
 20
31.3681283946
 11
158.534679528
 21
31.4649194539
  0
LINE
  8
0
 62
7
  6
CONTINUOUS
 10
160.9628038663
 20
30.7873819712
 11
160.9628038663
 21
30.8519093441
  0
LINE
  8
0
 62
7
  6
CONTINUOUS
 10
160.9671844304
 20
32.3970785186
 11
160.9671844304
 21
36.1675703219
  0
LINE
  8
0
 62
7
  6
CONTINUOUS
 10
154.0253041972
 20
31.4971831403
 11
153.9674919177
 21
31.4326557675
  0
LINE
  8
0
 62
7
  6
CONTINUOUS
 10
150.9034292799
 20
31.4649194539
 11
151.0768668626
 21
31.400392081
  0
LINE
  8
0
 62
7
  6
CONTINUOUS
 10
155.6440543074
 20
31.4649194539
 11
155.5284290869
 21
31.5294468267
  0
LINE
  8
0
 62
7
  6
CONTINUOUS
 10
159.4596793074
 20
31.3036010218
 11
159.401867028
 21
31.3681283946
  0
LINE
  8
0
 62
7
  6
CONTINUOUS
 10
160.615929528
 20
30.9164367395
 11
160.6737418074
 21
30.8519093441
  0
LINE
  8
0
 62
7
  6
CONTINUOUS
 10
160.9628038663
 20
30.8519093441
 11
160.8471793074
 21
30.9809641124
  0
LINE
  8
0
 62
7
  6
CONTINUOUS
 10
160.615929528
 20
31.4326557675
 11
160.6737418074
 21
31.3681283946
  0
LINE
  8
0
 62
7
  6
CONTINUOUS
 10
160.9628038663
 20
31.3681283946
 11
160.8471793074
 21
31.4971831403
  0
LINE
  8
0
 62
7
  6
CONTINUOUS
 10
154.2565543074
 20
31.3681283946
 11
154.3143669177
 21
31.4326557675
  0
LINE
  8
0
 62
7
  6
CONTINUOUS
 10
154.0831168074
 20
31.1100188581
 11
153.9674919177
 21
30.9809641124
  0
LINE
  8
0
 62
7
  6
CONTINUOUS
 10
155.412804528
 20
30.9487004259
 11
155.3549915869
 21
30.8841730531
  0
LINE
  8
0
 62
7
  6
CONTINUOUS
 10
155.3549915869
 20
30.6905909007
 11
155.412804528
 21
30.7551182848
  0
LINE
  8
0
 62
7
  6
CONTINUOUS
 10
154.1987416972
 20
30.6583272086
 11
154.3143669177
 21
30.6260635193
  0
LINE
  8
0
 62
7
  6
CONTINUOUS
 10
151.1924917523
 20
31.5294468267
 11
150.9612418074
 21
31.5939741996
  0
LINE
  8
0
 62
7
  6
CONTINUOUS
 10
154.5456166972
 20
30.7228545871
 11
154.3143669177
 21
30.7873819712
  0
LINE
  8
0
 62
7
  6
CONTINUOUS
 10
153.2737419177
 20
31.5294468267
 11
153.1003044177
 21
31.5939741996
  0
LINE
  8
0
 62
7
  6
CONTINUOUS
 10
155.5284290869
 20
31.5294468267
 11
155.3549915869
 21
31.5939741996
  0
LINE
  8
0
 62
7
  6
CONTINUOUS
 10
158.187804528
 20
31.4326557675
 11
158.3034290869
 21
31.3681283946
  0
LINE
  8
0
 62
7
  6
CONTINUOUS
 10
158.534679528
 20
31.4649194539
 11
158.4190543074
 21
31.5294468267
  0
LINE
  8
0
 62
7
  6
CONTINUOUS
 10
150.0362418212
 20
30.6583272086
 11
150.2096793212
 21
30.6260635193
  0
LINE
  8
0
 62
7
  6
CONTINUOUS
 10
150.498741835
 20
30.7228545871
 11
150.1518667936
 21
30.7873819712
  0
LINE
  8
0
 62
7
  6
CONTINUOUS
 10
152.9268669177
 20
31.4649194539
 11
153.0424918074
 21
31.4326557675
  0
LINE
  8
0
 62
7
  6
CONTINUOUS
 10
155.239367028
 20
31.4649194539
 11
155.3549915869
 21
31.4326557675
  0
LINE
  8
0
 62
7
  6
CONTINUOUS
 10
159.575304528
 20
30.7551182848
 11
159.4596793074
 21
30.7873819712
  0
LINE
  8
0
 62
7
  6
CONTINUOUS
 10
158.0721793074
 20
31.4649194539
 11
158.187804528
 21
31.4326557675
  0
LINE
  8
0
 62
7
  6
CONTINUOUS
 10
159.228429528
 20
30.7228545871
 11
159.401867028
 21
30.6583272086
  0
LINE
  8
0
 62
7
  6
CONTINUOUS
 10
158.4190543074
 20
31.5294468267
 11
158.2456168074
 21
31.5939741996
  0
LINE
  8
0
 62
7
  6
CONTINUOUS
 10
159.6331168074
 20
31.2390736489
 11
159.4596793074
 21
31.3036010218
  0
LINE
  8
0
 62
7
  6
CONTINUOUS
 10
160.442492028
 20
30.9809641124
 11
160.615929528
 21
30.9164367395
  0
LINE
  8
0
 62
7
  6
CONTINUOUS
 10
160.8471793074
 20
31.4971831403
 11
160.6737418074
 21
31.5617105132
  0
LINE
  8
0
 62
7
  6
CONTINUOUS
 10
159.228429528
 20
31.2390736489
 11
159.4596793074
 21
31.1422825445
  0
LINE
  8
0
 62
7
  6
CONTINUOUS
 10
160.8471793074
 20
30.9809641124
 11
160.615929528
 21
31.0777551716
  0
LINE
  8
0
 62
7
  6
CONTINUOUS
 10
159.401867028
 20
31.3681283946
 11
159.4596793074
 21
31.4326557675
  0
LINE
  8
0
 62
7
  6
CONTINUOUS
 10
149.8628043005
 20
31.4971831403
 11
149.7471793074
 21
31.4326557675
  0
LINE
  8
0
 62
7
  6
CONTINUOUS
 10
149.9784292936
 20
31.3358647082
 11
150.1518667936
 21
31.4326557675
  0
LINE
  8
0
 62
7
  6
CONTINUOUS
 10
152.2909293626
 20
31.5294468267
 11
152.1753043074
 21
31.4649194539
  0
LINE
  8
0
 62
7
  6
CONTINUOUS
 10
152.1753043074
 20
31.3358647082
 11
152.2909293626
 21
31.400392081
  0
LINE
  8
0
 62
7
  6
CONTINUOUS
 10
151.1924917523
 20
30.6905909007
 11
151.3659292523
 21
30.7873819712
  0
LINE
  8
0
 62
7
  6
CONTINUOUS
 10
150.2096793212
 20
30.6260635193
 11
150.5565542799
 21
30.5937998301
  0
LINE
  8
0
 62
7
  6
CONTINUOUS
 10
154.3143669177
 20
30.6260635193
 11
154.5456166972
 21
30.5937998301
  0
LINE
  8
0
 62
7
  6
CONTINUOUS
 10
152.6956168074
 20
31.4971831403
 11
152.9268669177
 21
31.4649194539
  0
LINE
  8
0
 62
7
  6
CONTINUOUS
 10
155.0081169177
 20
31.4971831403
 11
155.239367028
 21
31.4649194539
  0
LINE
  8
0
 62
7
  6
CONTINUOUS
 10
159.4596793074
 20
31.1422825445
 11
160.442492028
 21
30.9809641124
  0
LINE
  8
0
 62
7
  6
CONTINUOUS
 10
160.615929528
 20
31.0777551716
 11
159.6331168074
 21
31.2390736489
  0
LINE
  8
0
 62
7
  6
CONTINUOUS
 10
153.1003044177
 20
31.5939741996
 11
152.9268669177
 21
31.626237886
  0
LINE
  8
0
 62
7
  6
CONTINUOUS
 10
159.401867028
 20
30.6583272086
 11
159.575304528
 21
30.6260635193
  0
LINE
  8
0
 62
7
  6
CONTINUOUS
 10
158.2456168074
 20
31.5939741996
 11
158.0721793074
 21
31.626237886
  0
LINE
  8
0
 62
7
  6
CONTINUOUS
 10
160.5003043074
 20
31.4649194539
 11
160.615929528
 21
31.4326557675
  0
LINE
  8
0
 62
7
  6
CONTINUOUS
 10
160.6737418074
 20
30.8519093441
 11
160.615929528
 21
30.7873819712
  0
LINE
  8
0
 62
7
  6
CONTINUOUS
 10
159.228429528
 20
31.5294468267
 11
159.1128043074
 21
31.4326557675
  0
LINE
  8
0
 62
7
  6
CONTINUOUS
 10
154.1409294177
 20
31.5617105132
 11
154.0253041972
 21
31.4971831403
  0
LINE
  8
0
 62
7
  6
CONTINUOUS
 10
154.1987416972
 20
31.1745462761
 11
154.0831168074
 21
31.1100188581
  0
LINE
  8
0
 62
7
  6
CONTINUOUS
 10
154.3143669177
 20
31.0132277988
 11
154.4299918074
 21
31.0777551716
  0
LINE
  8
0
 62
7
  6
CONTINUOUS
 10
151.8862417523
 20
30.5937998301
 11
152.1753043074
 21
30.5937998301
  0
LINE
  8
0
 62
7
  6
CONTINUOUS
 10
153.2159293074
 20
30.5937998301
 11
153.5049916972
 21
30.5937998301
  0
LINE
  8
0
 62
7
  6
CONTINUOUS
 10
154.5456166972
 20
30.5937998301
 11
154.8924916972
 21
30.5937998301
  0
LINE
  8
0
 62
7
  6
CONTINUOUS
 10
155.5284290869
 20
30.5937998301
 11
155.8174918074
 21
30.5937998301
  0
LINE
  8
0
 62
7
  6
CONTINUOUS
 10
156.279992028
 20
30.5937998301
 11
156.5690540869
 21
30.5937998301
  0
LINE
  8
0
 62
7
  6
CONTINUOUS
 10
157.0315543074
 20
30.5937998301
 11
157.320617028
 21
30.5937998301
  0
LINE
  8
0
 62
7
  6
CONTINUOUS
 10
158.361242028
 20
30.5937998301
 11
158.6503040869
 21
30.5937998301
  0
LINE
  8
0
 62
7
  6
CONTINUOUS
 10
159.922179528
 20
30.5937998301
 11
160.269054528
 21
30.5937998301
  0
LINE
  8
0
 62
7
  6
CONTINUOUS
 10
160.269054528
 20
30.7228545871
 11
159.922179528
 21
30.7228545871
  0
LINE
  8
0
 62
7
  6
CONTINUOUS
 10
154.8924916972
 20
30.7228545871
 11
154.5456166972
 21
30.7228545871
  0
LINE
  8
0
 62
7
  6
CONTINUOUS
 10
159.401867028
 20
30.8519093441
 11
159.1128043074
 21
30.8519093441
  0
LINE
  8
0
 62
7
  6
CONTINUOUS
 10
151.4237418626
 20
30.9164367395
 11
151.1346793074
 21
30.9164367395
  0
LINE
  8
0
 62
7
  6
CONTINUOUS
 10
150.498741835
 20
31.4971831403
 11
150.9034292799
 21
31.4649194539
  0
LINE
  8
0
 62
7
  6
CONTINUOUS
 10
150.9612418074
 20
31.5939741996
 11
150.5565542799
 21
31.626237886
  0
LINE
  8
0
 62
7
  6
CONTINUOUS
 10
159.575304528
 20
30.6260635193
 11
159.922179528
 21
30.5937998301
  0
LINE
  8
0
 62
7
  6
CONTINUOUS
 10
159.922179528
 20
30.7228545871
 11
159.575304528
 21
30.7551182848
  0
LINE
  8
0
 62
7
  6
CONTINUOUS
 10
155.3549915869
 20
31.5939741996
 11
155.0081169177
 21
31.626237886
  0
LINE
  8
0
 62
7
  6
CONTINUOUS
 10
160.1534293074
 20
31.4971831403
 11
160.5003043074
 21
31.4649194539
  0
LINE
  8
0
 62
7
  6
CONTINUOUS
 10
160.5003043074
 20
31.5939741996
 11
160.1534293074
 21
31.626237886
  0
LINE
  8
0
 62
7
  6
CONTINUOUS
 10
157.840929528
 20
31.4971831403
 11
158.0721793074
 21
31.4649194539
  0
LINE
  8
0
 62
7
  6
CONTINUOUS
 10
160.6737418074
 20
31.5617105132
 11
160.5003043074
 21
31.5939741996
  0
LINE
  8
0
 62
7
  6
CONTINUOUS
 10
160.8471793074
 20
30.6905909007
 11
160.9628038663
 21
30.7873819712
  0
LINE
  8
0
 62
7
  6
CONTINUOUS
 10
155.3549915869
 20
30.8841730531
 11
155.1815540869
 21
30.7873819712
  0
LINE
  8
0
 62
7
  6
CONTINUOUS
 10
157.4362415869
 20
31.5294468267
 11
157.320617028
 21
31.4649194539
  0
LINE
  8
0
 62
7
  6
CONTINUOUS
 10
157.320617028
 20
31.3358647082
 11
157.4362415869
 21
31.400392081
  0
LINE
  8
0
 62
7
  6
CONTINUOUS
 10
150.0362418212
 20
31.5617105132
 11
149.8628043005
 21
31.4971831403
  0
LINE
  8
0
 62
7
  6
CONTINUOUS
 10
152.4643666972
 20
31.5939741996
 11
152.2909293626
 21
31.5294468267
  0
LINE
  8
0
 62
7
  6
CONTINUOUS
 10
152.2909293626
 20
31.400392081
 11
152.4643666972
 21
31.4649194539
  0
LINE
  8
0
 62
7
  6
CONTINUOUS
 10
151.0768668626
 20
30.8196456577
 11
150.9034292799
 21
30.7551182848
  0
LINE
  8
0
 62
7
  6
CONTINUOUS
 10
160.5003043074
 20
30.7551182848
 11
160.269054528
 21
30.7228545871
  0
LINE
  8
0
 62
7
  6
CONTINUOUS
 10
154.8924916972
 20
30.5937998301
 11
155.1815540869
 21
30.6260635193
  0
LINE
  8
0
 62
7
  6
CONTINUOUS
 10
160.269054528
 20
30.5937998301
 11
160.615929528
 21
30.6260635193
  0
LINE
  8
0
 62
7
  6
CONTINUOUS
 10
150.5565542799
 20
30.5937998301
 11
150.9612418074
 21
30.6260635193
  0
LINE
  8
0
 62
7
  6
CONTINUOUS
 10
150.9034292799
 20
30.7551182848
 11
150.498741835
 21
30.7228545871
  0
LINE
  8
0
 62
7
  6
CONTINUOUS
 10
154.7768668074
 20
31.1422825445
 11
155.412804528
 21
31.1422825445
  0
LINE
  8
0
 62
7
  6
CONTINUOUS
 10
155.412804528
 20
31.2713373354
 11
154.7768668074
 21
31.2713373354
  0
LINE
  8
0
 62
7
  6
CONTINUOUS
 10
151.1346793074
 20
31.3036010218
 11
151.4237418626
 21
31.3036010218
  0
LINE
  8
0
 62
7
  6
CONTINUOUS
 10
153.9674919177
 20
31.3681283946
 11
154.2565543074
 21
31.3681283946
  0
LINE
  8
0
 62
7
  6
CONTINUOUS
 10
160.6737418074
 20
31.3681283946
 11
160.9628038663
 21
31.3681283946
  0
LINE
  8
0
 62
7
  6
CONTINUOUS
 10
154.6612419177
 20
31.4971831403
 11
155.0081169177
 21
31.4971831403
  0
LINE
  8
0
 62
7
  6
CONTINUOUS
 10
159.8065543074
 20
31.4971831403
 11
160.1534293074
 21
31.4971831403
  0
LINE
  8
0
 62
7
  6
CONTINUOUS
 10
160.1534293074
 20
31.626237886
 11
159.8065543074
 21
31.626237886
  0
LINE
  8
0
 62
7
  6
CONTINUOUS
 10
158.0721793074
 20
31.626237886
 11
157.840929528
 21
31.626237886
  0
LINE
  8
0
 62
7
  6
CONTINUOUS
 10
157.320617028
 20
31.626237886
 11
157.0315543074
 21
31.626237886
  0
LINE
  8
0
 62
7
  6
CONTINUOUS
 10
156.5690540869
 20
31.626237886
 11
156.279992028
 21
31.626237886
  0
LINE
  8
0
 62
7
  6
CONTINUOUS
 10
155.0081169177
 20
31.626237886
 11
154.6612419177
 21
31.626237886
  0
LINE
  8
0
 62
7
  6
CONTINUOUS
 10
152.9268669177
 20
31.626237886
 11
152.6956168074
 21
31.626237886
  0
LINE
  8
0
 62
7
  6
CONTINUOUS
 10
156.279992028
 20
31.9488748406
 11
156.5690540869
 21
31.9488748406
  0
LINE
  8
0
 62
7
  6
CONTINUOUS
 10
156.5690540869
 20
32.1101932727
 11
156.279992028
 21
32.1101932727
  0
LINE
  8
0
 62
7
  6
CONTINUOUS
 10
152.1753043074
 20
32.1101932727
 11
151.8862417523
 21
32.1101932727
  0
LINE
  8
0
 62
7
  6
CONTINUOUS
 10
151.2130860697
 20
32.3970785186
 11
151.6256574183
 21
32.3970785186
  0
LINE
  8
0
 62
7
  6
CONTINUOUS
 10
152.852430332
 20
32.3970785186
 11
154.245872955
 21
32.3970785186
  0
LINE
  8
0
 62
7
  6
CONTINUOUS
 10
154.5737418074
 20
32.3970785186
 11
155.9671844304
 21
32.3970785186
  0
LINE
  8
0
 62
7
  6
CONTINUOUS
 10
157.852430332
 20
32.3970785186
 11
159.245872955
 21
32.3970785186
  0
LINE
  8
0
 62
7
  6
CONTINUOUS
 10
159.5737418074
 20
32.3970785186
 11
160.9671844304
 21
32.3970785186
  0
LINE
  8
0
 62
7
  6
CONTINUOUS
 10
157.6096790869
 20
31.5939741996
 11
157.4362415869
 21
31.5294468267
  0
LINE
  8
0
 62
7
  6
CONTINUOUS
 10
155.1815540869
 20
30.6260635193
 11
155.3549915869
 21
30.6905909007
  0
LINE
  8
0
 62
7
  6
CONTINUOUS
 10
160.615929528
 20
30.6260635193
 11
160.8471793074
 21
30.6905909007
  0
LINE
  8
0
 62
7
  6
CONTINUOUS
 10
160.615929528
 20
30.7873819712
 11
160.5003043074
 21
30.7551182848
  0
LINE
  8
0
 62
7
  6
CONTINUOUS
 10
159.575304528
 20
31.4649194539
 11
159.8065543074
 21
31.4971831403
  0
LINE
  8
0
 62
7
  6
CONTINUOUS
 10
157.6096790869
 20
31.4649194539
 11
157.840929528
 21
31.4971831403
  0
LINE
  8
0
 62
7
  6
CONTINUOUS
 10
154.5456166972
 20
31.1100188581
 11
154.7768668074
 21
31.1422825445
  0
LINE
  8
0
 62
7
  6
CONTINUOUS
 10
157.840929528
 20
31.626237886
 11
157.6096790869
 21
31.5939741996
  0
LINE
  8
0
 62
7
  6
CONTINUOUS
 10
154.4299918074
 20
31.4649194539
 11
154.6612419177
 21
31.4971831403
  0
LINE
  8
0
 62
7
  6
CONTINUOUS
 10
159.8065543074
 20
31.626237886
 11
159.4596793074
 21
31.5939741996
  0
LINE
  8
0
 62
7
  6
CONTINUOUS
 10
154.7768668074
 20
31.2713373354
 11
154.4299918074
 21
31.2390736489
  0
LINE
  8
0
 62
7
  6
CONTINUOUS
 10
150.5565542799
 20
31.626237886
 11
150.2096793212
 21
31.5939741996
  0
LINE
  8
0
 62
7
  6
CONTINUOUS
 10
154.6612419177
 20
31.626237886
 11
154.2565543074
 21
31.5939741996
  0
LINE
  8
0
 62
7
  6
CONTINUOUS
 10
152.0327582009
 20
33.5446195022
 11
151.3770204959
 21
33.5446195022
  0
LINE
  8
0
 62
7
  6
CONTINUOUS
 10
157.4362415869
 20
31.400392081
 11
157.6096790869
 21
31.4649194539
  0
LINE
  8
0
 62
7
  6
CONTINUOUS
 10
159.4596793074
 20
31.4326557675
 11
159.575304528
 21
31.4649194539
  0
LINE
  8
0
 62
7
  6
CONTINUOUS
 10
159.4596793074
 20
31.5939741996
 11
159.228429528
 21
31.5294468267
  0
LINE
  8
0
 62
7
  6
CONTINUOUS
 10
155.1815540869
 20
30.7873819712
 11
154.8924916972
 21
30.7228545871
  0
LINE
  8
0
 62
7
  6
CONTINUOUS
 10
152.4643666972
 20
31.4649194539
 11
152.6956168074
 21
31.4971831403
  0
LINE
  8
0
 62
7
  6
CONTINUOUS
 10
152.6956168074
 20
31.626237886
 11
152.4643666972
 21
31.5939741996
  0
LINE
  8
0
 62
7
  6
CONTINUOUS
 10
150.2674918074
 20
31.4649194539
 11
150.498741835
 21
31.4971831403
  0
LINE
  8
0
 62
7
  6
CONTINUOUS
 10
156.7868565615
 20
35.0200293383
 11
157.4425942664
 21
35.0200293383
  0
LINE
  8
0
 62
7
  6
CONTINUOUS
 10
154.4299918074
 20
31.0777551716
 11
154.5456166972
 21
31.1100188581
  0
LINE
  8
0
 62
7
  6
CONTINUOUS
 10
154.4299918074
 20
31.2390736489
 11
154.1987416972
 21
31.1745462761
  0
LINE
  8
0
 62
7
  6
CONTINUOUS
 10
154.3143669177
 20
31.4326557675
 11
154.4299918074
 21
31.4649194539
  0
LINE
  8
0
 62
7
  6
CONTINUOUS
 10
150.9612418074
 20
30.6260635193
 11
151.1924917523
 21
30.6905909007
  0
LINE
  8
0
 62
7
  6
CONTINUOUS
 10
154.2565543074
 20
31.5939741996
 11
154.1409294177
 21
31.5617105132
  0
LINE
  8
0
 62
7
  6
CONTINUOUS
 10
150.2096793212
 20
31.5939741996
 11
150.0362418212
 21
31.5617105132
  0
LINE
  8
0
 62
7
  6
CONTINUOUS
 10
160.9671844304
 20
36.1675703219
 11
159.5737418074
 21
36.1675703219
  0
LINE
  8
0
 62
7
  6
CONTINUOUS
 10
157.6065286927
 20
36.1675703219
 11
157.1939573441
 21
36.1675703219
  0
LINE
  8
0
 62
7
  6
CONTINUOUS
 10
155.9671844304
 20
36.1675703219
 11
154.5737418074
 21
36.1675703219
  0
LINE
  8
0
 62
7
  6
CONTINUOUS
 10
154.245872955
 20
36.1675703219
 11
152.852430332
 21
36.1675703219
  0
LINE
  8
0
 62
7
  6
CONTINUOUS
 10
150.9671844304
 20
36.1675703219
 11
149.5737418074
 21
36.1675703219
  0
LINE
  8
0
 62
7
  6
CONTINUOUS
 10
150.1518667936
 20
31.4326557675
 11
150.2674918074
 21
31.4649194539
  0
CIRCLE
  8
0
 62
7
  6
CONTINUOUS
 10
160.2704631189
 20
38.5036358957
 40
2.0901639344
  0
ARC
  8
0
 62
7
  6
CONTINUOUS
 10
151.2130860697
 20
34.0364227809
 40
1.6393442623
 50
180.0
 51
270.0
  0
ARC
  8
0
 62
7
  6
CONTINUOUS
 10
157.6065286927
 20
34.5282260596
 40
1.6393442623
 50
0.0
 51
90.0
  0
ARC
  8
0
 62
7
  6
CONTINUOUS
 10
151.6256574183
 20
33.8724883547
 40
1.4754098361
 50
270.0
 51
326.2510114041
  0
ARC
  8
0
 62
7
  6
CONTINUOUS
 10
157.1939573441
 20
34.6921604858
 40
1.4754098361
 50
90.0
 51
146.2510114041
  0
ARC
  8
0
 62
7
  6
CONTINUOUS
 10
152.0327582009
 20
34.3642916334
 40
0.8196721311
 50
270.0
 51
360.0
  0
ARC
  8
0
 62
7
  6
CONTINUOUS
 10
156.7868565615
 20
34.2003572071
 40
0.8196721311
 50
90.0
 51
180.0
  0
ARC
  8
0
 62
7
  6
CONTINUOUS
 10
151.3770204959
 20
33.9544555678
 40
0.4098360656
 50
180.0
 51
270.0
  0
ARC
  8
0
 62
7
  6
CONTINUOUS
 10
157.4425942664
 20
34.6101932727
 40
0.4098360656
 50
0.0
 51
90.0
  0
SOLID
  8
0
 62
7
  6
CONTINUOUS
 10
156.279992028
 20
31.9488752009
 11
156.279992028
 21
32.1101936845
 12
156.5690540869
 22
31.9488752009
 13
156.5690540869
 23
32.1101936845
  0
SOLID
  8
0
 62
7
  6
CONTINUOUS
 10
150.5565542799
 20
31.6262382337
 11
150.9612418074
 21
31.5939740028
 12
150.2096793212
 22
31.5939740028
 13
150.2096793212
 23
31.5939740028
  0
SOLID
  8
0
 62
7
  6
CONTINUOUS
 10
150.0362418212
 20
31.5617111435
 11
150.2096793212
 21
31.5939740028
 12
150.9612418074
 22
31.5939740028
 13
150.9612418074
 23
31.5939740028
  0
SOLID
  8
0
 62
7
  6
CONTINUOUS
 10
150.9612418074
 20
31.5939740028
 11
151.1924917523
 21
31.5294468402
 12
150.0362418212
 22
31.5617111435
 13
150.0362418212
 23
31.5617111435
  0
SOLID
  8
0
 62
7
  6
CONTINUOUS
 10
149.8628043005
 20
31.49718259
 11
150.0362418212
 21
31.5617111435
 12
151.1924917523
 22
31.5294468402
 13
151.1924917523
 23
31.5294468402
  0
SOLID
  8
0
 62
7
  6
CONTINUOUS
 10
149.8628043005
 20
31.49718259
 11
151.1924917523
 21
31.5294468402
 12
150.498741835
 22
31.49718259
 13
150.498741835
 23
31.49718259
  0
SOLID
  8
0
 62
7
  6
CONTINUOUS
 10
150.498741835
 20
31.49718259
 11
151.1924917523
 21
31.5294468402
 12
150.9034292799
 22
31.4649197501
 13
150.9034292799
 23
31.4649197501
  0
SOLID
  8
0
 62
7
  6
CONTINUOUS
 10
151.1924917523
 20
31.5294468402
 11
151.3659292523
 21
31.4326554468
 12
150.9034292799
 22
31.4649197501
 13
150.9034292799
 23
31.4649197501
  0
SOLID
  8
0
 62
7
  6
CONTINUOUS
 10
151.0768668626
 20
31.4003926599
 11
150.9034292799
 21
31.4649197501
 12
151.3659292523
 22
31.4326554468
 13
151.3659292523
 23
31.4326554468
  0
SOLID
  8
0
 62
7
  6
CONTINUOUS
 10
151.0768668626
 20
31.4003926599
 11
151.3659292523
 21
31.4326554468
 12
151.1346793074
 22
31.3036013776
 13
151.1346793074
 23
31.3036013776
  0
SOLID
  8
0
 62
7
  6
CONTINUOUS
 10
151.3659292523
 20
31.4326554468
 11
151.4237418626
 21
31.3036013776
 12
151.1346793074
 22
31.3036013776
 13
151.1346793074
 23
31.3036013776
  0
SOLID
  8
0
 62
7
  6
CONTINUOUS
 10
152.4643666972
 20
31.5939739754
 11
152.6956168074
 21
31.6262382787
 12
152.9268669177
 22
31.6262382787
 13
152.9268669177
 23
31.6262382787
  0
SOLID
  8
0
 62
7
  6
CONTINUOUS
 10
152.9268669177
 20
31.6262382787
 11
153.1003044177
 21
31.5939739754
 12
152.4643666972
 22
31.5939739754
 13
152.4643666972
 23
31.5939739754
  0
SOLID
  8
0
 62
7
  6
CONTINUOUS
 10
152.2909293626
 20
31.5294468852
 11
152.4643666972
 21
31.5939739754
 12
153.1003044177
 22
31.5939739754
 13
153.1003044177
 23
31.5939739754
  0
SOLID
  8
0
 62
7
  6
CONTINUOUS
 10
153.1003044177
 20
31.5939739754
 11
153.2737419177
 21
31.5294468852
 12
152.2909293626
 22
31.5294468852
 13
152.2909293626
 23
31.5294468852
  0
SOLID
  8
0
 62
7
  6
CONTINUOUS
 10
153.2737419177
 20
31.5294468852
 11
152.6956168074
 21
31.4971825369
 12
152.2909293626
 22
31.5294468852
 13
152.2909293626
 23
31.5294468852
  0
SOLID
  8
0
 62
7
  6
CONTINUOUS
 10
152.1753043074
 20
31.4649197951
 11
152.2909293626
 21
31.5294468852
 12
152.6956168074
 22
31.4971825369
 13
152.6956168074
 23
31.4971825369
  0
SOLID
  8
0
 62
7
  6
CONTINUOUS
 10
152.6956168074
 20
31.4971825369
 11
152.4643666972
 21
31.4649197951
 12
152.1753043074
 22
31.4649197951
 13
152.1753043074
 23
31.4649197951
  0
SOLID
  8
0
 62
7
  6
CONTINUOUS
 10
152.6956168074
 20
31.4971825369
 11
153.2737419177
 21
31.5294468852
 12
152.9268669177
 22
31.4649197951
 13
152.9268669177
 23
31.4649197951
  0
SOLID
  8
0
 62
7
  6
CONTINUOUS
 10
153.2737419177
 20
31.5294468852
 11
153.3893668074
 21
31.4649197951
 12
152.9268669177
 22
31.4649197951
 13
152.9268669177
 23
31.4649197951
  0
SOLID
  8
0
 62
7
  6
CONTINUOUS
 10
153.0424918074
 20
31.4326554468
 11
152.9268669177
 21
31.4649197951
 12
153.3893668074
 22
31.4649197951
 13
153.3893668074
 23
31.4649197951
  0
SOLID
  8
0
 62
7
  6
CONTINUOUS
 10
153.3893668074
 20
31.4649197951
 11
153.4471794177
 21
31.4003927049
 12
153.0424918074
 22
31.4326554468
 13
153.0424918074
 23
31.4326554468
  0
SOLID
  8
0
 62
7
  6
CONTINUOUS
 10
153.1581166972
 20
31.3681283566
 11
153.0424918074
 21
31.4326554468
 12
153.4471794177
 22
31.4003927049
 13
153.4471794177
 23
31.4003927049
  0
SOLID
  8
0
 62
7
  6
CONTINUOUS
 10
153.1581166972
 20
31.3681283566
 11
153.4471794177
 21
31.4003927049
 12
153.2159293074
 22
31.2390742213
 13
153.2159293074
 23
31.2390742213
  0
SOLID
  8
0
 62
7
  6
CONTINUOUS
 10
153.4471794177
 20
31.4003927049
 11
153.5049916972
 21
31.2390742213
 12
153.2159293074
 22
31.2390742213
 13
153.2159293074
 23
31.2390742213
  0
SOLID
  8
0
 62
7
  6
CONTINUOUS
 10
152.4643666972
 20
31.4649197951
 11
152.2909293626
 21
31.4003927049
 12
152.1753043074
 22
31.4649197951
 13
152.1753043074
 23
31.4649197951
  0
SOLID
  8
0
 62
7
  6
CONTINUOUS
 10
152.2909293626
 20
31.4003927049
 11
152.1753043074
 21
31.3358640533
 12
152.1753043074
 22
31.4649197951
 13
152.1753043074
 23
31.4649197951
  0
SOLID
  8
0
 62
7
  6
CONTINUOUS
 10
152.1753043074
 20
31.3358640533
 11
151.8862417523
 21
30.5938002869
 12
152.1753043074
 22
31.4649197951
 13
152.1753043074
 23
31.4649197951
  0
SOLID
  8
0
 62
7
  6
CONTINUOUS
 10
152.1753043074
 20
31.4649197951
 11
151.8862417523
 21
30.5938002869
 12
152.1753043074
 22
32.1101937295
 13
152.1753043074
 23
32.1101937295
  0
SOLID
  8
0
 62
7
  6
CONTINUOUS
 10
151.8862417523
 20
30.5938002869
 11
151.8862417523
 21
32.1101937295
 12
152.1753043074
 22
32.1101937295
 13
152.1753043074
 23
32.1101937295
  0
SOLID
  8
0
 62
7
  6
CONTINUOUS
 10
152.1753043074
 20
31.3358640533
 11
152.1753043074
 21
30.5938002869
 12
151.8862417523
 22
30.5938002869
 13
151.8862417523
 23
30.5938002869
  0
SOLID
  8
0
 62
7
  6
CONTINUOUS
 10
153.2159293074
 20
30.5938002869
 11
153.2159293074
 21
31.2390742213
 12
153.5049916972
 22
31.2390742213
 13
153.5049916972
 23
31.2390742213
  0
SOLID
  8
0
 62
7
  6
CONTINUOUS
 10
153.5049916972
 20
31.2390742213
 11
153.5049916972
 21
30.5938002869
 12
153.2159293074
 22
30.5938002869
 13
153.2159293074
 23
30.5938002869
  0
SOLID
  8
0
 62
7
  6
CONTINUOUS
 10
154.2565543074
 20
31.5939738288
 11
154.6612419177
 21
31.6262385959
 12
155.0081169177
 22
31.6262385959
 13
155.0081169177
 23
31.6262385959
  0
SOLID
  8
0
 62
7
  6
CONTINUOUS
 10
155.0081169177
 20
31.6262385959
 11
155.3549915869
 21
31.5939738288
 12
154.2565543074
 22
31.5939738288
 13
154.2565543074
 23
31.5939738288
  0
SOLID
  8
0
 62
7
  6
CONTINUOUS
 10
154.1409294177
 20
31.5617111435
 11
154.2565543074
 21
31.5939738288
 12
155.3549915869
 22
31.5939738288
 13
155.3549915869
 23
31.5939738288
  0
SOLID
  8
0
 62
7
  6
CONTINUOUS
 10
155.3549915869
 20
31.5939738288
 11
155.5284290869
 21
31.5294468402
 12
154.1409294177
 22
31.5617111435
 13
154.1409294177
 23
31.5617111435
  0
SOLID
  8
0
 62
7
  6
CONTINUOUS
 10
154.0253041972
 20
31.4971826249
 11
154.1409294177
 21
31.5617111435
 12
155.5284290869
 22
31.5294468402
 13
155.5284290869
 23
31.5294468402
  0
SOLID
  8
0
 62
7
  6
CONTINUOUS
 10
154.0253041972
 20
31.4971826249
 11
155.5284290869
 21
31.5294468402
 12
154.6612419177
 22
31.4971826249
 13
154.6612419177
 23
31.4971826249
  0
SOLID
  8
0
 62
7
  6
CONTINUOUS
 10
154.6612419177
 20
31.4971826249
 11
155.5284290869
 21
31.5294468402
 12
155.0081169177
 22
31.4971826249
 13
155.0081169177
 23
31.4971826249
  0
SOLID
  8
0
 62
7
  6
CONTINUOUS
 10
155.0081169177
 20
31.4971826249
 11
155.5284290869
 21
31.5294468402
 12
155.239367028
 22
31.4649194065
 13
155.239367028
 23
31.4649194065
  0
SOLID
  8
0
 62
7
  6
CONTINUOUS
 10
155.5284290869
 20
31.5294468402
 11
155.6440543074
 21
31.4649194065
 12
155.239367028
 22
31.4649194065
 13
155.239367028
 23
31.4649194065
  0
SOLID
  8
0
 62
7
  6
CONTINUOUS
 10
153.9674919177
 20
31.4326554138
 11
154.0253041972
 21
31.4971826249
 12
154.6612419177
 22
31.4971826249
 13
154.6612419177
 23
31.4971826249
  0
SOLID
  8
0
 62
7
  6
CONTINUOUS
 10
155.3549915869
 20
31.4326554138
 11
155.239367028
 21
31.4649194065
 12
155.6440543074
 22
31.4649194065
 13
155.6440543074
 23
31.4649194065
  0
SOLID
  8
0
 62
7
  6
CONTINUOUS
 10
155.3549915869
 20
31.4326554138
 11
155.6440543074
 21
31.4649194065
 12
155.412804528
 22
31.3681282026
 13
155.412804528
 23
31.3681282026
  0
SOLID
  8
0
 62
7
  6
CONTINUOUS
 10
155.6440543074
 20
31.4649194065
 11
155.7018665869
 21
31.3681282026
 12
155.412804528
 22
31.3681282026
 13
155.412804528
 23
31.3681282026
  0
SOLID
  8
0
 62
7
  6
CONTINUOUS
 10
155.412804528
 20
31.2713369632
 11
155.412804528
 21
31.3681282026
 12
155.7018665869
 22
31.3681282026
 13
155.7018665869
 23
31.3681282026
  0
SOLID
  8
0
 62
7
  6
CONTINUOUS
 10
155.412804528
 20
31.2713369632
 11
155.7018665869
 21
31.3681282026
 12
155.412804528
 22
31.1422827828
 13
155.412804528
 23
31.1422827828
  0
SOLID
  8
0
 62
7
  6
CONTINUOUS
 10
155.412804528
 20
31.1422827828
 11
155.7018665869
 21
31.3681282026
 12
155.412804528
 22
30.9487004259
 13
155.412804528
 23
30.9487004259
  0
SOLID
  8
0
 62
7
  6
CONTINUOUS
 10
155.7018665869
 20
31.3681282026
 11
155.7018665869
 21
30.8519086025
 12
155.412804528
 22
30.9487004259
 13
155.412804528
 23
30.9487004259
  0
SOLID
  8
0
 62
7
  6
CONTINUOUS
 10
157.6096790869
 20
31.5939736268
 11
157.840929528
 21
31.6262383465
 12
158.0721793074
 22
31.6262383465
 13
158.0721793074
 23
31.6262383465
  0
SOLID
  8
0
 62
7
  6
CONTINUOUS
 10
158.0721793074
 20
31.6262383465
 11
158.2456168074
 21
31.5939736268
 12
157.6096790869
 22
31.5939736268
 13
157.6096790869
 23
31.5939736268
  0
SOLID
  8
0
 62
7
  6
CONTINUOUS
 10
157.4362415869
 20
31.5294472848
 11
157.6096790869
 21
31.5939736268
 12
158.2456168074
 22
31.5939736268
 13
158.2456168074
 23
31.5939736268
  0
SOLID
  8
0
 62
7
  6
CONTINUOUS
 10
158.2456168074
 20
31.5939736268
 11
158.4190543074
 21
31.5294472848
 12
157.4362415869
 22
31.5294472848
 13
157.4362415869
 23
31.5294472848
  0
SOLID
  8
0
 62
7
  6
CONTINUOUS
 10
158.4190543074
 20
31.5294472848
 11
157.840929528
 21
31.4971825369
 12
157.4362415869
 22
31.5294472848
 13
157.4362415869
 23
31.5294472848
  0
SOLID
  8
0
 62
7
  6
CONTINUOUS
 10
157.320617028
 20
31.4649199103
 11
157.4362415869
 21
31.5294472848
 12
157.840929528
 22
31.4971825369
 13
157.840929528
 23
31.4971825369
  0
SOLID
  8
0
 62
7
  6
CONTINUOUS
 10
157.840929528
 20
31.4971825369
 11
157.6096790869
 21
31.4649199103
 12
157.320617028
 22
31.4649199103
 13
157.320617028
 23
31.4649199103
  0
SOLID
  8
0
 62
7
  6
CONTINUOUS
 10
157.840929528
 20
31.4971825369
 11
158.4190543074
 21
31.5294472848
 12
158.0721793074
 22
31.4649199103
 13
158.0721793074
 23
31.4649199103
  0
SOLID
  8
0
 62
7
  6
CONTINUOUS
 10
158.4190543074
 20
31.5294472848
 11
158.534679528
 21
31.4649199103
 12
158.0721793074
 22
31.4649199103
 13
158.0721793074
 23
31.4649199103
  0
SOLID
  8
0
 62
7
  6
CONTINUOUS
 10
158.187804528
 20
31.4326554468
 11
158.0721793074
 21
31.4649199103
 12
158.534679528
 22
31.4649199103
 13
158.534679528
 23
31.4649199103
  0
SOLID
  8
0
 62
7
  6
CONTINUOUS
 10
158.187804528
 20
31.4326554468
 11
158.534679528
 21
31.4649199103
 12
158.3034290869
 22
31.3681288486
 13
158.3034290869
 23
31.3681288486
  0
SOLID
  8
0
 62
7
  6
CONTINUOUS
 10
158.534679528
 20
31.4649199103
 11
158.5924918074
 21
31.3681288486
 12
158.3034290869
 22
31.3681288486
 13
158.3034290869
 23
31.3681288486
  0
SOLID
  8
0
 62
7
  6
CONTINUOUS
 10
158.361242028
 20
31.2068093799
 11
158.3034290869
 21
31.3681288486
 12
158.5924918074
 22
31.3681288486
 13
158.5924918074
 23
31.3681288486
  0
SOLID
  8
0
 62
7
  6
CONTINUOUS
 10
158.5924918074
 20
31.3681288486
 11
158.6503040869
 21
31.2068093799
 12
158.361242028
 22
31.2068093799
 13
158.361242028
 23
31.2068093799
  0
SOLID
  8
0
 62
7
  6
CONTINUOUS
 10
157.6096790869
 20
31.4649199103
 11
157.4362415869
 21
31.4003926599
 12
157.320617028
 22
31.4649199103
 13
157.320617028
 23
31.4649199103
  0
SOLID
  8
0
 62
7
  6
CONTINUOUS
 10
157.4362415869
 20
31.4003926599
 11
157.320617028
 21
31.3358640533
 12
157.320617028
 22
31.4649199103
 13
157.320617028
 23
31.4649199103
  0
SOLID
  8
0
 62
7
  6
CONTINUOUS
 10
157.320617028
 20
31.3358640533
 11
157.0315543074
 21
30.5938003547
 12
157.320617028
 22
31.4649199103
 13
157.320617028
 23
31.4649199103
  0
SOLID
  8
0
 62
7
  6
CONTINUOUS
 10
157.320617028
 20
31.4649199103
 11
157.0315543074
 21
30.5938003547
 12
157.320617028
 22
31.6262383465
 13
157.320617028
 23
31.6262383465
  0
SOLID
  8
0
 62
7
  6
CONTINUOUS
 10
157.0315543074
 20
30.5938003547
 11
157.0315543074
 21
31.6262383465
 12
157.320617028
 22
31.6262383465
 13
157.320617028
 23
31.6262383465
  0
SOLID
  8
0
 62
7
  6
CONTINUOUS
 10
157.320617028
 20
31.3358640533
 11
157.320617028
 21
30.5938003547
 12
157.0315543074
 22
30.5938003547
 13
157.0315543074
 23
30.5938003547
  0
SOLID
  8
0
 62
7
  6
CONTINUOUS
 10
158.361242028
 20
30.5938003547
 11
158.361242028
 21
31.2068093799
 12
158.6503040869
 22
31.2068093799
 13
158.6503040869
 23
31.2068093799
  0
SOLID
  8
0
 62
7
  6
CONTINUOUS
 10
158.6503040869
 20
31.2068093799
 11
158.6503040869
 21
30.5938003547
 12
158.361242028
 22
30.5938003547
 13
158.361242028
 23
30.5938003547
  0
SOLID
  8
0
 62
7
  6
CONTINUOUS
 10
159.4596793074
 20
31.5939739474
 11
159.8065543074
 21
31.6262381969
 12
160.1534293074
 22
31.6262381969
 13
160.1534293074
 23
31.6262381969
  0
SOLID
  8
0
 62
7
  6
CONTINUOUS
 10
160.1534293074
 20
31.6262381969
 11
160.5003043074
 21
31.5939739474
 12
159.4596793074
 22
31.5939739474
 13
159.4596793074
 23
31.5939739474
  0
SOLID
  8
0
 62
7
  6
CONTINUOUS
 10
159.228429528
 20
31.5294468402
 11
159.4596793074
 21
31.5939739474
 12
160.5003043074
 22
31.5939739474
 13
160.5003043074
 23
31.5939739474
  0
SOLID
  8
0
 62
7
  6
CONTINUOUS
 10
159.228429528
 20
31.5294468402
 11
160.5003043074
 21
31.5939739304
 12
160.6737418074
 22
31.5617111435
 13
160.6737418074
 23
31.5617111435
  0
SOLID
  8
0
 62
7
  6
CONTINUOUS
 10
159.228429528
 20
31.5294468402
 11
160.6737418074
 21
31.5617111435
 12
159.8065543074
 22
31.4971825592
 13
159.8065543074
 23
31.4971825592
  0
SOLID
  8
0
 62
7
  6
CONTINUOUS
 10
159.8065543074
 20
31.4971825592
 11
160.6737418074
 21
31.5617111435
 12
160.1534293074
 22
31.4971825592
 13
160.1534293074
 23
31.4971825592
  0
SOLID
  8
0
 62
7
  6
CONTINUOUS
 10
160.6737418074
 20
31.5617111435
 11
160.8471793074
 21
31.4971825592
 12
160.1534293074
 22
31.4971825592
 13
160.1534293074
 23
31.4971825592
  0
SOLID
  8
0
 62
7
  6
CONTINUOUS
 10
160.5003043074
 20
31.4649197501
 11
160.1534293074
 21
31.4971825592
 12
160.8471793074
 22
31.4971825592
 13
160.8471793074
 23
31.4971825592
  0
SOLID
  8
0
 62
7
  6
CONTINUOUS
 10
159.1128043074
 20
31.4326555427
 11
159.228429528
 21
31.5294468402
 12
159.8065543074
 22
31.4971825592
 13
159.8065543074
 23
31.4971825592
  0
SOLID
  8
0
 62
7
  6
CONTINUOUS
 10
160.5003043074
 20
31.4649197501
 11
160.8471793074
 21
31.4971825592
 12
160.615929528
 22
31.4326555427
 13
160.615929528
 23
31.4326555427
  0
SOLID
  8
0
 62
7
  6
CONTINUOUS
 10
160.615929528
 20
31.4326555427
 11
160.8471793074
 21
31.4971825592
 12
160.6737418074
 22
31.3681283005
 13
160.6737418074
 23
31.3681283005
  0
SOLID
  8
0
 62
7
  6
CONTINUOUS
 10
160.8471793074
 20
31.4971825592
 11
160.9628038663
 21
31.3681283005
 12
160.6737418074
 22
31.3681283005
 13
160.6737418074
 23
31.3681283005
  0
SOLID
  8
0
 62
7
  6
CONTINUOUS
 10
150.2674918074
 20
31.4649197501
 11
149.7471793074
 21
31.4326554237
 12
150.498741835
 22
31.4971824493
 13
150.498741835
 23
31.4971824493
  0
SOLID
  8
0
 62
7
  6
CONTINUOUS
 10
149.7471793074
 20
31.4326554237
 11
149.8628043005
 21
31.4971824493
 12
150.498741835
 22
31.4971824493
 13
150.498741835
 23
31.4971824493
  0
SOLID
  8
0
 62
7
  6
CONTINUOUS
 10
150.2674918074
 20
31.4649197501
 11
150.1518667936
 21
31.4326554237
 12
149.7471793074
 22
31.4326554237
 13
149.7471793074
 23
31.4326554237
  0
SOLID
  8
0
 62
7
  6
CONTINUOUS
 10
149.6315543091
 20
31.3036012664
 11
149.7471793074
 21
31.4326554237
 12
150.1518667936
 22
31.4326554237
 13
150.1518667936
 23
31.4326554237
  0
SOLID
  8
0
 62
7
  6
CONTINUOUS
 10
153.9674919177
 20
31.4326554237
 11
154.6612419177
 21
31.4971825369
 12
154.4299918074
 22
31.4649197501
 13
154.4299918074
 23
31.4649197501
  0
SOLID
  8
0
 62
7
  6
CONTINUOUS
 10
154.4299918074
 20
31.4649197501
 11
154.3143669177
 21
31.4326554237
 12
153.9674919177
 22
31.4326554237
 13
153.9674919177
 23
31.4326554237
  0
SOLID
  8
0
 62
7
  6
CONTINUOUS
 10
153.9674919177
 20
31.3681283335
 11
153.9674919177
 21
31.4326554237
 12
154.3143669177
 22
31.4326554237
 13
154.3143669177
 23
31.4326554237
  0
SOLID
  8
0
 62
7
  6
CONTINUOUS
 10
154.3143669177
 20
31.4326554237
 11
154.2565543074
 21
31.3681283335
 12
153.9674919177
 22
31.3681283335
 13
153.9674919177
 23
31.3681283335
  0
SOLID
  8
0
 62
7
  6
CONTINUOUS
 10
159.1128043074
 20
31.4326555528
 11
159.8065543074
 21
31.4971825369
 12
159.575304528
 22
31.4649197501
 13
159.575304528
 23
31.4649197501
  0
SOLID
  8
0
 62
7
  6
CONTINUOUS
 10
159.575304528
 20
31.4649197501
 11
159.4596793074
 21
31.4326555528
 12
159.1128043074
 22
31.4326555528
 13
159.1128043074
 23
31.4326555528
  0
SOLID
  8
0
 62
7
  6
CONTINUOUS
 10
159.1128043074
 20
31.3681284626
 11
159.1128043074
 21
31.4326555528
 12
159.4596793074
 22
31.4326555528
 13
159.4596793074
 23
31.4326555528
  0
SOLID
  8
0
 62
7
  6
CONTINUOUS
 10
159.4596793074
 20
31.4326555528
 11
159.401867028
 21
31.3681284626
 12
159.1128043074
 22
31.3681284626
 13
159.1128043074
 23
31.3681284626
  0
SOLID
  8
0
 62
7
  6
CONTINUOUS
 10
159.228429528
 20
31.2390741763
 11
159.1128043074
 21
31.3681284626
 12
159.401867028
 22
31.3681284626
 13
159.401867028
 23
31.3681284626
  0
SOLID
  8
0
 62
7
  6
CONTINUOUS
 10
149.6315543091
 20
31.3036012664
 11
150.1518667936
 21
31.4326554468
 12
149.9784292936
 22
31.3358640533
 13
149.9784292936
 23
31.3358640533
  0
SOLID
  8
0
 62
7
  6
CONTINUOUS
 10
149.9784292936
 20
31.3358640533
 11
149.9206168074
 21
31.2713369632
 12
149.6315543091
 22
31.3036012664
 13
149.6315543091
 23
31.3036012664
  0
SOLID
  8
0
 62
7
  6
CONTINUOUS
 10
149.5737418074
 20
31.1100184796
 11
149.6315543091
 21
31.3036012664
 12
149.9206168074
 22
31.2713369632
 13
149.9206168074
 23
31.2713369632
  0
SOLID
  8
0
 62
7
  6
CONTINUOUS
 10
154.4299918074
 20
31.2390741763
 11
154.7768668074
 21
31.271336924
 12
155.412804528
 22
31.271336924
 13
155.412804528
 23
31.271336924
  0
SOLID
  8
0
 62
7
  6
CONTINUOUS
 10
154.4299918074
 20
31.2390741763
 11
155.412804528
 21
31.271336924
 12
154.1987416972
 22
31.1745462761
 13
154.1987416972
 23
31.1745462761
  0
SOLID
  8
0
 62
7
  6
CONTINUOUS
 10
154.1987416972
 20
31.1745462761
 11
155.412804528
 21
31.271336924
 12
154.7768668074
 22
31.1422827436
 13
154.7768668074
 23
31.1422827436
  0
SOLID
  8
0
 62
7
  6
CONTINUOUS
 10
155.412804528
 20
31.271336924
 11
155.412804528
 21
31.1422827436
 12
154.7768668074
 22
31.1422827436
 13
154.7768668074
 23
31.1422827436
  0
SOLID
  8
0
 62
7
  6
CONTINUOUS
 10
159.228429528
 20
31.2390745501
 11
159.401867028
 21
31.3681283566
 12
159.4596793074
 22
31.3036012664
 13
159.4596793074
 23
31.3036012664
  0
SOLID
  8
0
 62
7
  6
CONTINUOUS
 10
159.4596793074
 20
31.3036012664
 11
159.6331168074
 21
31.2390745501
 12
159.228429528
 22
31.2390745501
 13
159.228429528
 23
31.2390745501
  0
SOLID
  8
0
 62
7
  6
CONTINUOUS
 10
159.4596793074
 20
31.1422827828
 11
159.228429528
 21
31.2390745501
 12
159.6331168074
 22
31.2390745501
 13
159.6331168074
 23
31.2390745501
  0
SOLID
  8
0
 62
7
  6
CONTINUOUS
 10
159.6331168074
 20
31.2390745501
 11
160.615929528
 21
31.0777556927
 12
159.4596793074
 22
31.1422827828
 13
159.4596793074
 23
31.1422827828
  0
SOLID
  8
0
 62
7
  6
CONTINUOUS
 10
160.442492028
 20
30.9809646623
 11
159.4596793074
 21
31.1422827828
 12
160.615929528
 22
31.0777556927
 13
160.615929528
 23
31.0777556927
  0
SOLID
  8
0
 62
7
  6
CONTINUOUS
 10
160.615929528
 20
31.0777556927
 11
160.8471793074
 21
30.9809646623
 12
160.442492028
 22
30.9809646623
 13
160.442492028
 23
30.9809646623
  0
SOLID
  8
0
 62
7
  6
CONTINUOUS
 10
160.615929528
 20
30.9164372091
 11
160.442492028
 21
30.9809646623
 12
160.8471793074
 22
30.9809646623
 13
160.8471793074
 23
30.9809646623
  0
SOLID
  8
0
 62
7
  6
CONTINUOUS
 10
160.615929528
 20
30.9164372091
 11
160.8471793074
 21
30.9809646623
 12
160.6737418074
 22
30.8519089441
 13
160.6737418074
 23
30.8519089441
  0
SOLID
  8
0
 62
7
  6
CONTINUOUS
 10
160.8471793074
 20
30.9809646623
 11
160.9628038663
 21
30.8519089441
 12
160.6737418074
 22
30.8519089441
 13
160.6737418074
 23
30.8519089441
  0
SOLID
  8
0
 62
7
  6
CONTINUOUS
 10
160.615929528
 20
30.7873818593
 11
160.6737418074
 21
30.8519089441
 12
160.9628038663
 22
30.8519089441
 13
160.9628038663
 23
30.8519089441
  0
SOLID
  8
0
 62
7
  6
CONTINUOUS
 10
160.9628038663
 20
30.8519089441
 11
160.9628038663
 21
30.7873818593
 12
160.615929528
 22
30.7873818593
 13
160.615929528
 23
30.7873818593
  0
SOLID
  8
0
 62
7
  6
CONTINUOUS
 10
160.5003043074
 20
30.7551187255
 11
160.615929528
 21
30.7873818593
 12
160.9628038663
 22
30.7873818593
 13
160.9628038663
 23
30.7873818593
  0
SOLID
  8
0
 62
7
  6
CONTINUOUS
 10
160.5003043074
 20
30.7551187255
 11
160.9628038663
 21
30.7873818593
 12
160.269054528
 22
30.7228547745
 13
160.269054528
 23
30.7228547745
  0
SOLID
  8
0
 62
7
  6
CONTINUOUS
 10
160.9628038663
 20
30.7873818593
 11
160.8471793074
 21
30.6905916353
 12
160.269054528
 22
30.7228547745
 13
160.269054528
 23
30.7228547745
  0
SOLID
  8
0
 62
7
  6
CONTINUOUS
 10
160.8471793074
 20
30.6905916353
 11
159.401867028
 21
30.658327332
 12
160.269054528
 22
30.7228547745
 13
160.269054528
 23
30.7228547745
  0
SOLID
  8
0
 62
7
  6
CONTINUOUS
 10
160.269054528
 20
30.7228547745
 11
159.401867028
 21
30.658327332
 12
159.922179528
 22
30.7228547745
 13
159.922179528
 23
30.7228547745
  0
SOLID
  8
0
 62
7
  6
CONTINUOUS
 10
159.401867028
 20
30.658327332
 11
159.228429528
 21
30.7228547745
 12
159.922179528
 22
30.7228547745
 13
159.922179528
 23
30.7228547745
  0
SOLID
  8
0
 62
7
  6
CONTINUOUS
 10
159.401867028
 20
30.658327332
 11
160.8471793074
 21
30.6905916353
 12
159.575304528
 22
30.6260629858
 13
159.575304528
 23
30.6260629858
  0
SOLID
  8
0
 62
7
  6
CONTINUOUS
 10
160.8471793074
 20
30.6905916353
 11
160.615929528
 21
30.6260629858
 12
159.575304528
 22
30.6260629858
 13
159.575304528
 23
30.6260629858
  0
SOLID
  8
0
 62
7
  6
CONTINUOUS
 10
159.922179528
 20
30.5938006049
 11
159.575304528
 21
30.6260629858
 12
160.615929528
 22
30.6260629858
 13
160.615929528
 23
30.6260629858
  0
SOLID
  8
0
 62
7
  6
CONTINUOUS
 10
160.615929528
 20
30.6260629858
 11
160.269054528
 21
30.5938006049
 12
159.922179528
 22
30.5938006049
 13
159.922179528
 23
30.5938006049
  0
SOLID
  8
0
 62
7
  6
CONTINUOUS
 10
149.5737418074
 20
31.1100184796
 11
149.9206168074
 21
31.2713369632
 12
149.8628043005
 22
31.1422827828
 13
149.8628043005
 23
31.1422827828
  0
SOLID
  8
0
 62
7
  6
CONTINUOUS
 10
149.8628043005
 20
31.1422827828
 11
149.8628043005
 21
31.0454914852
 12
149.5737418074
 22
31.1100184796
 13
149.5737418074
 23
31.1100184796
  0
SOLID
  8
0
 62
7
  6
CONTINUOUS
 10
149.6315543091
 20
30.9164372091
 11
149.5737418074
 21
31.1100184796
 12
149.8628043005
 22
31.0454914852
 13
149.8628043005
 23
31.0454914852
  0
SOLID
  8
0
 62
7
  6
CONTINUOUS
 10
149.8628043005
 20
31.0454914852
 11
149.9784292936
 21
30.8841729058
 12
149.6315543091
 22
30.9164372091
 13
149.6315543091
 23
30.9164372091
  0
SOLID
  8
0
 62
7
  6
CONTINUOUS
 10
149.7471793074
 20
30.7873813202
 11
149.6315543091
 21
30.9164372091
 12
149.9784292936
 22
30.8841729058
 13
149.9784292936
 23
30.8841729058
  0
SOLID
  8
0
 62
7
  6
CONTINUOUS
 10
149.9784292936
 20
30.8841729058
 11
150.1518667936
 21
30.7873813202
 12
149.7471793074
 22
30.7873813202
 13
149.7471793074
 23
30.7873813202
  0
SOLID
  8
0
 62
7
  6
CONTINUOUS
 10
149.8628043005
 20
30.7228547004
 11
149.7471793074
 21
30.7873813202
 12
150.1518667936
 22
30.7873813202
 13
150.1518667936
 23
30.7873813202
  0
SOLID
  8
0
 62
7
  6
CONTINUOUS
 10
150.1518667936
 20
30.7873813202
 11
150.498741835
 21
30.7228547004
 12
149.8628043005
 22
30.7228547004
 13
149.8628043005
 23
30.7228547004
  0
SOLID
  8
0
 62
7
  6
CONTINUOUS
 10
150.0362418212
 20
30.658327332
 11
149.8628043005
 21
30.7228547004
 12
150.498741835
 22
30.7228547004
 13
150.498741835
 23
30.7228547004
  0
SOLID
  8
0
 62
7
  6
CONTINUOUS
 10
154.0831168074
 20
31.1100184386
 11
154.1987416972
 21
31.1745462761
 12
154.7768668074
 22
31.1422827828
 13
154.7768668074
 23
31.1422827828
  0
SOLID
  8
0
 62
7
  6
CONTINUOUS
 10
154.7768668074
 20
31.1422827828
 11
154.5456166972
 21
31.1100184386
 12
154.0831168074
 22
31.1100184386
 13
154.0831168074
 23
31.1100184386
  0
SOLID
  8
0
 62
7
  6
CONTINUOUS
 10
153.9674919177
 20
30.9809642992
 11
154.0831168074
 21
31.1100184386
 12
154.5456166972
 22
31.1100184386
 13
154.5456166972
 23
31.1100184386
  0
SOLID
  8
0
 62
7
  6
CONTINUOUS
 10
154.3143669177
 20
31.0132277988
 11
153.9674919177
 21
30.9809642992
 12
154.4299918074
 22
31.0777556927
 13
154.4299918074
 23
31.0777556927
  0
SOLID
  8
0
 62
7
  6
CONTINUOUS
 10
153.9674919177
 20
30.9809642992
 11
154.5456166972
 21
31.1100184796
 12
154.4299918074
 22
31.0777556927
 13
154.4299918074
 23
31.0777556927
  0
SOLID
  8
0
 62
7
  6
CONTINUOUS
 10
154.3143669177
 20
31.0132277988
 11
154.2565543074
 21
30.9164372091
 12
153.9674919177
 22
30.9809642992
 13
153.9674919177
 23
30.9809642992
  0
SOLID
  8
0
 62
7
  6
CONTINUOUS
 10
153.9674919177
 20
30.8841729058
 11
153.9674919177
 21
30.9809642992
 12
154.2565543074
 22
30.9164372091
 13
154.2565543074
 23
30.9164372091
  0
SOLID
  8
0
 62
7
  6
CONTINUOUS
 10
154.2565543074
 20
30.9164372091
 11
154.2565543074
 21
30.8519086025
 12
153.9674919177
 22
30.8841729058
 13
153.9674919177
 23
30.8841729058
  0
SOLID
  8
0
 62
7
  6
CONTINUOUS
 10
154.0253041972
 20
30.7551187255
 11
153.9674919177
 21
30.8841729058
 12
154.2565543074
 22
30.8519086025
 13
154.2565543074
 23
30.8519086025
  0
SOLID
  8
0
 62
7
  6
CONTINUOUS
 10
155.412804528
 20
30.9487004259
 11
155.7018665869
 21
30.8519086025
 12
155.3549915869
 22
30.8841729058
 13
155.3549915869
 23
30.8841729058
  0
SOLID
  8
0
 62
7
  6
CONTINUOUS
 10
155.1815540869
 20
30.7873815123
 11
155.3549915869
 21
30.8841729058
 12
155.7018665869
 22
30.8519086025
 13
155.7018665869
 23
30.8519086025
  0
SOLID
  8
0
 62
7
  6
CONTINUOUS
 10
155.1815540869
 20
30.7873815123
 11
155.7018665869
 21
30.8519086025
 12
155.412804528
 22
30.7551187255
 13
155.412804528
 23
30.7551187255
  0
SOLID
  8
0
 62
7
  6
CONTINUOUS
 10
155.7018665869
 20
30.8519086025
 11
155.759679528
 21
30.6905916353
 12
155.412804528
 22
30.7551187255
 13
155.412804528
 23
30.7551187255
  0
SOLID
  8
0
 62
7
  6
CONTINUOUS
 10
155.4706168074
 20
30.658327332
 11
155.412804528
 21
30.7551187255
 12
155.759679528
 22
30.6905916353
 13
155.759679528
 23
30.6905916353
  0
SOLID
  8
0
 62
7
  6
CONTINUOUS
 10
155.4706168074
 20
30.658327332
 11
155.759679528
 21
30.6905916353
 12
155.5284290869
 22
30.5938002079
 13
155.5284290869
 23
30.5938002079
  0
SOLID
  8
0
 62
7
  6
CONTINUOUS
 10
155.759679528
 20
30.6905916353
 11
155.8174918074
 21
30.5938002079
 12
155.5284290869
 22
30.5938002079
 13
155.5284290869
 23
30.5938002079
  0
SOLID
  8
0
 62
7
  6
CONTINUOUS
 10
151.0768668626
 20
30.8196456577
 11
151.1346793074
 21
30.9164373395
 12
151.4237418626
 22
30.9164373395
 13
151.4237418626
 23
30.9164373395
  0
SOLID
  8
0
 62
7
  6
CONTINUOUS
 10
151.4237418626
 20
30.9164373395
 11
151.3659292523
 21
30.7873815123
 12
151.0768668626
 22
30.8196456577
 13
151.0768668626
 23
30.8196456577
  0
SOLID
  8
0
 62
7
  6
CONTINUOUS
 10
150.9034292799
 20
30.7551187255
 11
151.0768668626
 21
30.8196456577
 12
151.3659292523
 22
30.7873815123
 13
151.3659292523
 23
30.7873815123
  0
SOLID
  8
0
 62
7
  6
CONTINUOUS
 10
150.9034292799
 20
30.7551187255
 11
151.3659292523
 21
30.7873815123
 12
150.498741835
 22
30.7228544222
 13
150.498741835
 23
30.7228544222
  0
SOLID
  8
0
 62
7
  6
CONTINUOUS
 10
151.3659292523
 20
30.7873815123
 11
151.1924917523
 21
30.6905916353
 12
150.498741835
 22
30.7228544222
 13
150.498741835
 23
30.7228544222
  0
SOLID
  8
0
 62
7
  6
CONTINUOUS
 10
150.0362418212
 20
30.658327332
 11
150.498741835
 21
30.7228544222
 12
151.1924917523
 22
30.6905916353
 13
151.1924917523
 23
30.6905916353
  0
SOLID
  8
0
 62
7
  6
CONTINUOUS
 10
150.0362418212
 20
30.658327332
 11
151.1924917523
 21
30.6905916353
 12
150.2096793212
 22
30.6260631011
 13
150.2096793212
 23
30.6260631011
  0
SOLID
  8
0
 62
7
  6
CONTINUOUS
 10
151.1924917523
 20
30.6905916353
 11
150.9612418074
 21
30.6260631011
 12
150.2096793212
 22
30.6260631011
 13
150.2096793212
 23
30.6260631011
  0
SOLID
  8
0
 62
7
  6
CONTINUOUS
 10
150.5565542799
 20
30.5938002419
 11
150.2096793212
 21
30.6260631011
 12
150.9612418074
 22
30.6260631011
 13
150.9612418074
 23
30.6260631011
  0
SOLID
  8
0
 62
7
  6
CONTINUOUS
 10
154.0253041972
 20
30.7551187255
 11
154.2565543074
 21
30.8519086025
 12
154.3143669177
 22
30.7873815123
 13
154.3143669177
 23
30.7873815123
  0
SOLID
  8
0
 62
7
  6
CONTINUOUS
 10
154.3143669177
 20
30.7873815123
 11
154.5456166972
 21
30.7228544222
 12
154.0253041972
 22
30.7551187255
 13
154.0253041972
 23
30.7551187255
  0
SOLID
  8
0
 62
7
  6
CONTINUOUS
 10
154.1987416972
 20
30.658327332
 11
154.0253041972
 21
30.7551187255
 12
154.5456166972
 22
30.7228544222
 13
154.5456166972
 23
30.7228544222
  0
SOLID
  8
0
 62
7
  6
CONTINUOUS
 10
154.8924916972
 20
30.7228544637
 11
155.1815540869
 21
30.7873815123
 12
155.412804528
 22
30.7551187255
 13
155.412804528
 23
30.7551187255
  0
SOLID
  8
0
 62
7
  6
CONTINUOUS
 10
155.412804528
 20
30.7551187255
 11
155.3549915869
 21
30.6905916353
 12
154.8924916972
 22
30.7228544637
 13
154.8924916972
 23
30.7228544637
  0
SOLID
  8
0
 62
7
  6
CONTINUOUS
 10
155.3549915869
 20
30.6905916353
 11
154.1987416972
 21
30.658327332
 12
154.8924916972
 22
30.7228544637
 13
154.8924916972
 23
30.7228544637
  0
SOLID
  8
0
 62
7
  6
CONTINUOUS
 10
154.1987416972
 20
30.658327332
 11
154.5456166972
 21
30.7228544637
 12
154.8924916972
 22
30.7228544637
 13
154.8924916972
 23
30.7228544637
  0
SOLID
  8
0
 62
7
  6
CONTINUOUS
 10
154.1987416972
 20
30.658327332
 11
155.3549915869
 21
30.6905916353
 12
154.3143669177
 22
30.6260630541
 13
154.3143669177
 23
30.6260630541
  0
SOLID
  8
0
 62
7
  6
CONTINUOUS
 10
155.3549915869
 20
30.6905916353
 11
155.1815540869
 21
30.6260630541
 12
154.3143669177
 22
30.6260630541
 13
154.3143669177
 23
30.6260630541
  0
SOLID
  8
0
 62
7
  6
CONTINUOUS
 10
154.5456166972
 20
30.5938002188
 11
154.3143669177
 21
30.6260630541
 12
155.1815540869
 22
30.6260630541
 13
155.1815540869
 23
30.6260630541
  0
SOLID
  8
0
 62
7
  6
CONTINUOUS
 10
155.1815540869
 20
30.6260630541
 11
154.8924916972
 21
30.5938002188
 12
154.5456166972
 22
30.5938002188
 13
154.5456166972
 23
30.5938002188
  0
SOLID
  8
0
 62
7
  6
CONTINUOUS
 10
159.575304528
 20
30.7551187255
 11
159.228429528
 21
30.7228544637
 12
159.4596793074
 22
30.7873815123
 13
159.4596793074
 23
30.7873815123
  0
SOLID
  8
0
 62
7
  6
CONTINUOUS
 10
159.4596793074
 20
30.7873815123
 11
159.228429528
 21
30.7228544637
 12
159.401867028
 22
30.851908644
 13
159.401867028
 23
30.851908644
  0
SOLID
  8
0
 62
7
  6
CONTINUOUS
 10
159.228429528
 20
30.7228544637
 11
159.1128043074
 21
30.851908644
 12
159.401867028
 22
30.851908644
 13
159.401867028
 23
30.851908644
  0
SOLID
  8
0
 62
7
  6
CONTINUOUS
 10
159.575304528
 20
30.7551187255
 11
159.922179528
 21
30.7228544637
 12
159.228429528
 22
30.7228544637
 13
159.228429528
 23
30.7228544637
  0
SOLID
  8
0
 62
7
  6
CONTINUOUS
 10
156.279992028
 20
30.5938002419
 11
156.279992028
 21
31.6262382337
 12
156.5690540869
 22
30.5938002419
 13
156.5690540869
 23
31.6262382337
  0
ENDBLK
  8
0
  6
BYBLOCK
 62
0
  0
BLOCK
  8
0
 62
2
  6
CONTINUOUS
  2
SYMBOL_3_BL0
 70
64
 10
32.1213064866
 20
19.8534310916
  0
TEXT
  8
0
 62
7
  6
CONTINUOUS
 10
18.3860103289
 20
19.2268451992
  7
TEXTSTYLE_3
 40
2.7338706658
  1
Ammeraal Beltech
 41
1.0
 51
15.0
 72
0
  0
TEXT
  8
0
 62
7
  6
CONTINUOUS
 10
29.1868111546
 20
16.9533085264
  7
TEXTSTYLE_4
 40
1.0935482663
  1
Innovation & Service in Belting
 41
1.0
 72
0
  0
LINE
  8
0
 62
7
  6
CONTINUOUS
 10
12.3614696776
 20
19.9934385078
 11
13.1396216709
 21
23.6543558055
  0
LINE
  8
0
 62
7
  6
CONTINUOUS
 10
23.2347899607
 20
27.3177497171
 11
13.6274394139
 21
24.1961322958
  0
LINE
  8
0
 62
7
  6
CONTINUOUS
 10
12.5867530099
 20
19.3000877048
 11
20.093828271
 21
12.5406867788
  0
LINE
  8
0
 62
7
  6
CONTINUOUS
 10
12.8492874206
 20
20.5352149982
 11
23.6575567857
 21
24.0470345971
  0
LINE
  8
0
 62
7
  6
CONTINUOUS
 10
23.6533516486
 20
13.6972460334
 11
15.2078919798
 21
21.3015720751
  0
LINE
  8
0
 62
7
  6
CONTINUOUS
 10
24.1731743684
 20
26.4728246013
 11
23.1966148312
 21
21.8784731989
  0
LINE
  8
0
 62
7
  6
CONTINUOUS
 10
22.4968128835
 20
18.5861638851
 11
21.810364672
 21
15.3566789607
  0
LINE
  8
0
 62
7
  6
CONTINUOUS
 10
24.8542704669
 20
14.087448211
 11
25.8105020025
 21
18.5861638851
  0
LINE
  8
0
 62
7
  6
CONTINUOUS
 10
26.5103039502
 20
21.8784731989
 11
26.9545457526
 21
23.9684665583
  0
LINE
  8
0
 62
7
  6
CONTINUOUS
 10
20.8069293463
 20
12.3891124661
 11
24.3664527239
 21
13.5456717207
  0
LINE
  8
0
 62
7
  6
CONTINUOUS
 10
23.9478910361
 20
27.1661754044
 11
26.7292624203
 21
24.6618173613
  0
ARC
  8
0
 62
7
  6
CONTINUOUS
 10
13.8527227462
 20
23.5027814928
 40
0.7290321776
 50
108.0
 51
168.0
  0
ARC
  8
0
 62
7
  6
CONTINUOUS
 10
23.4600732931
 20
26.624398914
 40
0.7290321776
 50
348.0
 51
108.0
  0
ARC
  8
0
 62
7
  6
CONTINUOUS
 10
26.2414446773
 20
24.120040871
 40
0.7290321776
 50
348.0
 51
48.0
  0
ARC
  8
0
 62
7
  6
CONTINUOUS
 10
20.581646014
 20
13.0824632691
 40
0.7290321776
 50
228.0
 51
288.0
  0
ARC
  8
0
 62
7
  6
CONTINUOUS
 10
13.0745707529
 20
19.8418641951
 40
0.7290321776
 50
108.0
 51
228.0
  0
ARC
  8
0
 62
7
  6
CONTINUOUS
 10
24.1411693916
 20
14.2390225237
 40
0.7290321776
 50
228.0
 51
348.0
  0
ENDBLK
  8
0
  6
BYBLOCK
 62
0
  0
ENDSEC
  0
SECTION
  2
ENTITIES
  0
TEXT
  8
0
 62
5
  6
CONTINUOUS
 10
96.0
 20
25.636
  7
TEXTSTYLE_2
 40
2.8
  1
Scale :
 41
0.6
 51
0.000019
 72
0
  0
TEXT
  8
0
 62
5
  6
CONTINUOUS
 10
116.0
 20
25.636
  7
TEXTSTYLE_2
 40
2.8
  1
Belt type:
 41
0.6
 51
0.000019
 72
0
  0
INSERT
  8
0
 62
2
  6
CONTINUOUS
  2
SYMBOL_3_BL0
 10
32.1213064866
 20
19.8534310916
  0
INSERT
  8
0
 62
2
  6
CONTINUOUS
  2
SYMBOL_8_BL1
 10
173.5956734183
 20
35.5937998301
  0
LINE
  8
0
 62
2
  6
CONTINUOUS
 10
10.0
 20
30.0
 11
200.0
 21
30.0
  0
LINE
  8
0
 62
2
  6
CONTINUOUS
 10
10.0
 20
30.0
 11
10.0
 21
10.0
  0
LINE
  8
0
 62
2
  6
CONTINUOUS
 10
10.0
 20
10.0
 11
200.0
 21
10.0
  0
LINE
  8
0
 62
2
  6
CONTINUOUS
 10
95.0
 20
30.0
 11
95.0
 21
10.0
  0
LINE
  8
0
 62
2
  6
CONTINUOUS
 10
115.0
 20
30.0
 11
115.0
 21
10.0
  0
LINE
  8
0
 62
2
  6
CONTINUOUS
 10
200.0
 20
30.0
 11
200.0
 21
10.0
  0
TEXT
  8
0
 62
5
  6
CONTINUOUS
 10
13.0
 20
23.303
  7
TEXTSTYLE_5
 40
1.52
  1
                                                                     Ammeraal Beltech Modular A/S
 41
1.0
 72
0
  0
TEXT
  8
0
 62
5
  6
CONTINUOUS
 10
13.0
 20
20.595
  7
TEXTSTYLE_5
 40
1.5
  1
                                                                      Hjulmagervej 21,  7100 Vejle,  DK
 41
1.0
 72
0
  0
TEXT
  8
0
 62
5
  6
CONTINUOUS
 10
13.0
 20
17.881
  7
TEXTSTYLE_5
 40
1.495
  1
                                                                      tel: 
 41
1.0
 72
0
  0
TEXT
  8
0
 62
5
  6
CONTINUOUS
 10
57.9869465649
 20
17.881
  7
TEXTSTYLE_5
 40
1.51
  1
+45 75723100     fax: +45 75723348
 41
1.0
 72
0
  0
TEXT
  8
0
 62
5
  6
CONTINUOUS
 10
13.0
 20
15.177
  7
TEXTSTYLE_5
 40
1.5
  1
                                                                      admin@unichains.dk  www.unichains.com
 41
1.0
 72
0
  0
TEXT
  8
0
 62
5
  6
CONTINUOUS
 10
99.75
 20
13.75
  7
TEXTSTYLE_6
 40
5.0
  1
1:1
 41
0.7
 72
1
 11
105.0
 21
13.75
  0
TEXT
  8
0
 62
5
  6
CONTINUOUS
 10
118.0
 20
13.75
  7
TEXTSTYLE_7
 40
7.5
  1
uni X-MPB C K600
 41
0.6552734375
 72
0
  0
LINE
  8
0
 62
7
  6
CONTINUOUS
 10
210.0
 20
0.0
 11
0.0
 21
0.0
  0
LINE
  8
0
 62
7
  6
CONTINUOUS
 10
10.0
 20
10.0
 11
200.0
 21
10.0
  0
LINE
  8
0
 62
7
  6
CONTINUOUS
 10
10.0
 20
30.0
 11
200.0
 21
30.0
  0
LINE
  8
0
 62
7
  6
CONTINUOUS
 10
0.0
 20
0.0
 11
0.0
 21
297.0
  0
LINE
  8
0
 62
7
  6
CONTINUOUS
 10
10.0
 20
10.0
 11
10.0
 21
287.0
  0
LINE
  8
0
 62
7
  6
CONTINUOUS
 10
200.0
 20
287.0
 11
200.0
 21
10.0
  0
LINE
  8
0
 62
7
  6
CONTINUOUS
 10
210.0
 20
0.0
 11
210.0
 21
297.0
  0
LINE
  8
0
 62
7
  6
CONTINUOUS
 10
10.0
 20
287.0
 11
200.0
 21
287.0
  0
LINE
  8
0
 62
7
  6
CONTINUOUS
 10
0.0
 20
297.0
 11
210.0
 21
297.0
  0
LINE
  8
0
 62
7
  6
CONTINUOUS
 10
49.6352056256
 20
108.7298120959
 11
114.5068022629
 21
108.7298120959
  0
POLYLINE
  8
0
 62
7
  6
CONTINUOUS
 66
1
 70
0
  0
VERTEX
  8
0
 62
7
  6
CONTINUOUS
 10
49.63534745
 20
108.7298120959
  0
VERTEX
  8
0
 62
7
  6
CONTINUOUS
 10
49.560964547
 20
108.732582453
  0
VERTEX
  8
0
 62
7
  6
CONTINUOUS
 10
49.4877704259
 20
108.74076153
  0
VERTEX
  8
0
 62
7
  6
CONTINUOUS
 10
49.4168225752
 20
108.7539807225
  0
VERTEX
  8
0
 62
7
  6
CONTINUOUS
 10
49.3473312783
 20
108.7721865507
  0
VERTEX
  8
0
 62
7
  6
CONTINUOUS
 10
49.278558164
 20
108.7956272079
  0
VERTEX
  8
0
 62
7
  6
CONTINUOUS
 10
49.2113085373
 20
108.8241681258
  0
VERTEX
  8
0
 62
7
  6
CONTINUOUS
 10
49.1458767507
 20
108.8577923515
  0
VERTEX
  8
0
 62
7
  6
CONTINUOUS
 10
49.083047003
 20
108.8961669578
  0
VERTEX
  8
0
 62
7
  6
CONTINUOUS
 10
49.0238298312
 20
108.938581282
  0
VERTEX
  8
0
 62
7
  6
CONTINUOUS
 10
48.9675096376
 20
108.9855052665
  0
VERTEX
  8
0
 62
7
  6
CONTINUOUS
 10
48.913598658
 20
109.0376569967
  0
VERTEX
  8
0
 62
7
  6
CONTINUOUS
 10
48.863093009
 20
109.0944987256
  0
VERTEX
  8
0
 62
7
  6
CONTINUOUS
 10
48.8166080451
 20
109.1556468002
  0
VERTEX
  8
0
 62
7
  6
CONTINUOUS
 10
48.7745808934
 20
109.2208121596
  0
VERTEX
  8
0
 62
7
  6
CONTINUOUS
 10
48.7375467218
 20
109.2894101747
  0
VERTEX
  8
0
 62
7
  6
CONTINUOUS
 10
48.7056162172
 20
109.3615732675
  0
VERTEX
  8
0
 62
7
  6
CONTINUOUS
 10
48.6790175165
 20
109.4375227566
  0
VERTEX
  8
0
 62
7
  6
CONTINUOUS
 10
48.6584036938
 20
109.5163152639
  0
VERTEX
  8
0
 62
7
  6
CONTINUOUS
 10
48.6441957318
 20
109.5970782629
  0
VERTEX
  8
0
 62
7
  6
CONTINUOUS
 10
48.6366239818
 20
109.679300374
  0
VERTEX
  8
0
 62
7
  6
CONTINUOUS
 10
48.6353474514
 20
109.7298120959
  0
SEQEND
  0
POLYLINE
  8
SURFACE
 62
7
  6
CONTINUOUS
 66
1
 70
0
  0
VERTEX
  8
SURFACE
 62
7
  6
CONTINUOUS
 10
42.9186625296
 20
133.2386531577
  0
VERTEX
  8
SURFACE
 62
7
  6
CONTINUOUS
 10
42.5483889192
 20
133.235717576
  0
VERTEX
  8
SURFACE
 62
7
  6
CONTINUOUS
 10
42.1880818451
 20
133.2308480853
  0
VERTEX
  8
SURFACE
 62
7
  6
CONTINUOUS
 10
41.8379170363
 20
133.2241855363
  0
VERTEX
  8
SURFACE
 62
7
  6
CONTINUOUS
 10
41.49811714
 20
133.2158647103
  0
VERTEX
  8
SURFACE
 62
7
  6
CONTINUOUS
 10
41.1688212894
 20
133.2060131053
  0
VERTEX
  8
SURFACE
 62
7
  6
CONTINUOUS
 10
40.8501003791
 20
133.1947509041
  0
VERTEX
  8
SURFACE
 62
7
  6
CONTINUOUS
 10
40.5419624654
 20
133.1821907346
  0
VERTEX
  8
SURFACE
 62
7
  6
CONTINUOUS
 10
40.2443637235
 20
133.1684377927
  0
VERTEX
  8
SURFACE
 62
7
  6
CONTINUOUS
 10
39.9572075428
 20
133.1535894218
  0
VERTEX
  8
SURFACE
 62
7
  6
CONTINUOUS
 10
39.6803599189
 20
133.1377355965
  0
VERTEX
  8
SURFACE
 62
7
  6
CONTINUOUS
 10
39.4136504897
 20
133.1209587098
  0
VERTEX
  8
SURFACE
 62
7
  6
CONTINUOUS
 10
39.1568629206
 20
133.1033325806
  0
VERTEX
  8
SURFACE
 62
7
  6
CONTINUOUS
 10
38.9098338542
 20
133.0849293652
  0
VERTEX
  8
SURFACE
 62
7
  6
CONTINUOUS
 10
38.6723429182
 20
133.0658124067
  0
VERTEX
  8
SURFACE
 62
7
  6
CONTINUOUS
 10
38.4442167553
 20
133.0460442856
  0
VERTEX
  8
SURFACE
 62
7
  6
CONTINUOUS
 10
38.2252502
 20
133.0256810863
  0
VERTEX
  8
SURFACE
 62
7
  6
CONTINUOUS
 10
38.0152168103
 20
133.0047727783
  0
VERTEX
  8
SURFACE
 62
7
  6
CONTINUOUS
 10
37.8138826586
 20
132.9833642614
  0
VERTEX
  8
SURFACE
 62
7
  6
CONTINUOUS
 10
37.6210001341
 20
132.9614945482
  0
VERTEX
  8
SURFACE
 62
7
  6
CONTINUOUS
 10
37.4362909424
 20
132.9391942418
  0
VERTEX
  8
SURFACE
 62
7
  6
CONTINUOUS
 10
37.2595771185
 20
132.9165016923
  0
VERTEX
  8
SURFACE
 62
7
  6
CONTINUOUS
 10
37.0906221305
 20
132.8934446226
  0
VERTEX
  8
SURFACE
 62
7
  6
CONTINUOUS
 10
36.9292696443
 20
132.8700584988
  0
VERTEX
  8
SURFACE
 62
7
  6
CONTINUOUS
 10
36.7753319975
 20
132.8463724442
  0
VERTEX
  8
SURFACE
 62
7
  6
CONTINUOUS
 10
36.6285919457
 20
132.8224083109
  0
VERTEX
  8
SURFACE
 62
7
  6
CONTINUOUS
 10
36.4888339327
 20
132.7981848984
  0
VERTEX
  8
SURFACE
 62
7
  6
CONTINUOUS
 10
36.35580682
 20
132.7737109671
  0
VERTEX
  8
SURFACE
 62
7
  6
CONTINUOUS
 10
36.2292708394
 20
132.748992596
  0
VERTEX
  8
SURFACE
 62
7
  6
CONTINUOUS
 10
36.1089344164
 20
132.7240200819
  0
VERTEX
  8
SURFACE
 62
7
  6
CONTINUOUS
 10
35.9945264307
 20
132.69878062
  0
VERTEX
  8
SURFACE
 62
7
  6
CONTINUOUS
 10
35.8857247685
 20
132.6732416662
  0
VERTEX
  8
SURFACE
 62
7
  6
CONTINUOUS
 10
35.7822353711
 20
132.6473665386
  0
VERTEX
  8
SURFACE
 62
7
  6
CONTINUOUS
 10
35.6836987583
 20
132.6210895092
  0
VERTEX
  8
SURFACE
 62
7
  6
CONTINUOUS
 10
35.5898005071
 20
132.5943406612
  0
VERTEX
  8
SURFACE
 62
7
  6
CONTINUOUS
 10
35.5001268738
 20
132.5670020698
  0
VERTEX
  8
SURFACE
 62
7
  6
CONTINUOUS
 10
35.4143378157
 20
132.5389522167
  0
VERTEX
  8
SURFACE
 62
7
  6
CONTINUOUS
 10
35.3319476817
 20
132.5099896773
  0
VERTEX
  8
SURFACE
 62
7
  6
CONTINUOUS
 10
35.2525165204
 20
132.4798821138
  0
VERTEX
  8
SURFACE
 62
7
  6
CONTINUOUS
 10
35.1756804904
 20
132.4483747859
  0
VERTEX
  8
SURFACE
 62
7
  6
CONTINUOUS
 10
35.1010819778
 20
132.4151584342
  0
VERTEX
  8
SURFACE
 62
7
  6
CONTINUOUS
 10
35.0283436336
 20
132.3798428269
  0
VERTEX
  8
SURFACE
 62
7
  6
CONTINUOUS
 10
34.9571593803
 20
132.3419829069
  0
VERTEX
  8
SURFACE
 62
7
  6
CONTINUOUS
 10
34.8871622768
 20
132.3009882044
  0
VERTEX
  8
SURFACE
 62
7
  6
CONTINUOUS
 10
34.818079045
 20
132.2561705995
  0
VERTEX
  8
SURFACE
 62
7
  6
CONTINUOUS
 10
34.749851892
 20
132.2068090648
  0
VERTEX
  8
SURFACE
 62
7
  6
CONTINUOUS
 10
34.6823860664
 20
132.1519437492
  0
VERTEX
  8
SURFACE
 62
7
  6
CONTINUOUS
 10
34.6164157396
 20
132.0910939777
  0
VERTEX
  8
SURFACE
 62
7
  6
CONTINUOUS
 10
34.5524706197
 20
132.0234896426
  0
VERTEX
  8
SURFACE
 62
7
  6
CONTINUOUS
 10
34.4919248649
 20
131.9492002714
  0
VERTEX
  8
SURFACE
 62
7
  6
CONTINUOUS
 10
34.4358821926
 20
131.8681636028
  0
VERTEX
  8
SURFACE
 62
7
  6
CONTINUOUS
 10
34.3858698522
 20
131.7812363392
  0
VERTEX
  8
SURFACE
 62
7
  6
CONTINUOUS
 10
34.3430953374
 20
131.6894444331
  0
VERTEX
  8
SURFACE
 62
7
  6
CONTINUOUS
 10
34.3084793442
 20
131.5940550425
  0
VERTEX
  8
SURFACE
 62
7
  6
CONTINUOUS
 10
34.2826276487
 20
131.4965907882
  0
VERTEX
  8
SURFACE
 62
7
  6
CONTINUOUS
 10
34.2657531961
 20
131.3986315048
  0
VERTEX
  8
SURFACE
 62
7
  6
CONTINUOUS
 10
34.2577091853
 20
131.3023030941
  0
VERTEX
  8
SURFACE
 62
7
  6
CONTINUOUS
 10
34.2568025738
 20
131.2579802451
  0
SEQEND
  0
POLYLINE
  8
SURFACE
 62
7
  6
CONTINUOUS
 66
1
 70
0
  0
VERTEX
  8
SURFACE
 62
7
  6
CONTINUOUS
 10
106.5068022627
 20
133.6201064815
  0
VERTEX
  8
SURFACE
 62
7
  6
CONTINUOUS
 10
106.8449419962
 20
133.6209710341
  0
VERTEX
  8
SURFACE
 62
7
  6
CONTINUOUS
 10
107.2152156066
 20
133.6239066158
  0
VERTEX
  8
SURFACE
 62
7
  6
CONTINUOUS
 10
107.5755226807
 20
133.6287761066
  0
VERTEX
  8
SURFACE
 62
7
  6
CONTINUOUS
 10
107.9256874896
 20
133.6354386555
  0
VERTEX
  8
SURFACE
 62
7
  6
CONTINUOUS
 10
108.2654873859
 20
133.6437594815
  0
VERTEX
  8
SURFACE
 62
7
  6
CONTINUOUS
 10
108.5947832365
 20
133.6536110866
  0
VERTEX
  8
SURFACE
 62
7
  6
CONTINUOUS
 10
108.9135041467
 20
133.6648732877
  0
VERTEX
  8
SURFACE
 62
7
  6
CONTINUOUS
 10
109.2216420605
 20
133.6774334572
  0
VERTEX
  8
SURFACE
 62
7
  6
CONTINUOUS
 10
109.5192408024
 20
133.6911863991
  0
VERTEX
  8
SURFACE
 62
7
  6
CONTINUOUS
 10
109.8063969831
 20
133.70603477
  0
VERTEX
  8
SURFACE
 62
7
  6
CONTINUOUS
 10
110.0832446069
 20
133.7218885953
  0
VERTEX
  8
SURFACE
 62
7
  6
CONTINUOUS
 10
110.3499540361
 20
133.738665482
  0
VERTEX
  8
SURFACE
 62
7
  6
CONTINUOUS
 10
110.6067416052
 20
133.7562916112
  0
VERTEX
  8
SURFACE
 62
7
  6
CONTINUOUS
 10
110.8537706717
 20
133.7746948266
  0
VERTEX
  8
SURFACE
 62
7
  6
CONTINUOUS
 10
111.0912616076
 20
133.7938117851
  0
VERTEX
  8
SURFACE
 62
7
  6
CONTINUOUS
 10
111.3193877706
 20
133.8135799062
  0
VERTEX
  8
SURFACE
 62
7
  6
CONTINUOUS
 10
111.5383543259
 20
133.8339431055
  0
VERTEX
  8
SURFACE
 62
7
  6
CONTINUOUS
 10
111.7483877155
 20
133.8548514135
  0
VERTEX
  8
SURFACE
 62
7
  6
CONTINUOUS
 10
111.9497218672
 20
133.8762599304
  0
VERTEX
  8
SURFACE
 62
7
  6
CONTINUOUS
 10
112.1426043918
 20
133.8981296436
  0
VERTEX
  8
SURFACE
 62
7
  6
CONTINUOUS
 10
112.3273135835
 20
133.92042995
  0
VERTEX
  8
SURFACE
 62
7
  6
CONTINUOUS
 10
112.5040274074
 20
133.9431224996
  0
VERTEX
  8
SURFACE
 62
7
  6
CONTINUOUS
 10
112.6729823953
 20
133.9661795692
  0
VERTEX
  8
SURFACE
 62
7
  6
CONTINUOUS
 10
112.8343348816
 20
133.989565693
  0
VERTEX
  8
SURFACE
 62
7
  6
CONTINUOUS
 10
112.9882725283
 20
134.0132517477
  0
VERTEX
  8
SURFACE
 62
7
  6
CONTINUOUS
 10
113.1350125802
 20
134.0372158809
  0
VERTEX
  8
SURFACE
 62
7
  6
CONTINUOUS
 10
113.2747705932
 20
134.0614392934
  0
VERTEX
  8
SURFACE
 62
7
  6
CONTINUOUS
 10
113.4077977059
 20
134.0859132247
  0
VERTEX
  8
SURFACE
 62
7
  6
CONTINUOUS
 10
113.5343336865
 20
134.1106315958
  0
VERTEX
  8
SURFACE
 62
7
  6
CONTINUOUS
 10
113.6546701094
 20
134.13560411
  0
VERTEX
  8
SURFACE
 62
7
  6
CONTINUOUS
 10
113.7690780951
 20
134.1608435718
  0
VERTEX
  8
SURFACE
 62
7
  6
CONTINUOUS
 10
113.8778797574
 20
134.1863825256
  0
VERTEX
  8
SURFACE
 62
7
  6
CONTINUOUS
 10
113.9813691547
 20
134.2122576532
  0
VERTEX
  8
SURFACE
 62
7
  6
CONTINUOUS
 10
114.0799057675
 20
134.2385346826
  0
VERTEX
  8
SURFACE
 62
7
  6
CONTINUOUS
 10
114.1738040187
 20
134.2652835307
  0
VERTEX
  8
SURFACE
 62
7
  6
CONTINUOUS
 10
114.2634776521
 20
134.292622122
  0
VERTEX
  8
SURFACE
 62
7
  6
CONTINUOUS
 10
114.3492667102
 20
134.3206719751
  0
VERTEX
  8
SURFACE
 62
7
  6
CONTINUOUS
 10
114.4316568441
 20
134.3496345145
  0
VERTEX
  8
SURFACE
 62
7
  6
CONTINUOUS
 10
114.5110880055
 20
134.379742078
  0
VERTEX
  8
SURFACE
 62
7
  6
CONTINUOUS
 10
114.5879240355
 20
134.4112494059
  0
VERTEX
  8
SURFACE
 62
7
  6
CONTINUOUS
 10
114.6625225481
 20
134.4444657577
  0
VERTEX
  8
SURFACE
 62
7
  6
CONTINUOUS
 10
114.7352608922
 20
134.4797813649
  0
VERTEX
  8
SURFACE
 62
7
  6
CONTINUOUS
 10
114.8064451456
 20
134.5176412849
  0
VERTEX
  8
SURFACE
 62
7
  6
CONTINUOUS
 10
114.876442249
 20
134.5586359875
  0
VERTEX
  8
SURFACE
 62
7
  6
CONTINUOUS
 10
114.9455254808
 20
134.6034535923
  0
VERTEX
  8
SURFACE
 62
7
  6
CONTINUOUS
 10
115.0137526339
 20
134.652815127
  0
VERTEX
  8
SURFACE
 62
7
  6
CONTINUOUS
 10
115.0812184594
 20
134.7076804426
  0
VERTEX
  8
SURFACE
 62
7
  6
CONTINUOUS
 10
115.1471887863
 20
134.7685302141
  0
VERTEX
  8
SURFACE
 62
7
  6
CONTINUOUS
 10
115.2111339062
 20
134.8361345492
  0
VERTEX
  8
SURFACE
 62
7
  6
CONTINUOUS
 10
115.2716796609
 20
134.9104239204
  0
VERTEX
  8
SURFACE
 62
7
  6
CONTINUOUS
 10
115.3277223333
 20
134.991460589
  0
VERTEX
  8
SURFACE
 62
7
  6
CONTINUOUS
 10
115.3777346736
 20
135.0783878526
  0
VERTEX
  8
SURFACE
 62
7
  6
CONTINUOUS
 10
115.4205091885
 20
135.1701797587
  0
VERTEX
  8
SURFACE
 62
7
  6
CONTINUOUS
 10
115.4551251817
 20
135.2655691493
  0
VERTEX
  8
SURFACE
 62
7
  6
CONTINUOUS
 10
115.4809768771
 20
135.3630334036
  0
VERTEX
  8
SURFACE
 62
7
  6
CONTINUOUS
 10
115.4978513298
 20
135.460992687
  0
VERTEX
  8
SURFACE
 62
7
  6
CONTINUOUS
 10
115.5058953406
 20
135.5573210977
  0
VERTEX
  8
SURFACE
 62
7
  6
CONTINUOUS
 10
115.5068019521
 20
135.6016439467
  0
SEQEND
  0
LINE
  8
SURFACE
 62
7
  6
CONTINUOUS
 10
42.9186625296
 20
133.2386531577
 11
47.6370148658
 21
133.2395177095
  0
LINE
  8
SURFACE
 62
7
  6
CONTINUOUS
 10
106.5068022627
 20
133.6201064823
 11
102.12658966
 21
133.6201064823
  0
POLYLINE
  8
SURFACE
 62
7
  6
CONTINUOUS
 66
1
 70
0
  0
VERTEX
  8
SURFACE
 62
7
  6
CONTINUOUS
 10
34.2568025524
 20
122.9016717078
  0
VERTEX
  8
SURFACE
 62
7
  6
CONTINUOUS
 10
34.2578584351
 20
122.8537533547
  0
VERTEX
  8
SURFACE
 62
7
  6
CONTINUOUS
 10
34.2662051252
 20
122.7574802695
  0
VERTEX
  8
SURFACE
 62
7
  6
CONTINUOUS
 10
34.2833782161
 20
122.6596170258
  0
VERTEX
  8
SURFACE
 62
7
  6
CONTINUOUS
 10
34.3095135456
 20
122.5622865899
  0
VERTEX
  8
SURFACE
 62
7
  6
CONTINUOUS
 10
34.3443906817
 20
122.4670623176
  0
VERTEX
  8
SURFACE
 62
7
  6
CONTINUOUS
 10
34.3873942552
 20
122.3754666866
  0
VERTEX
  8
SURFACE
 62
7
  6
CONTINUOUS
 10
34.4375931575
 20
122.2887653415
  0
VERTEX
  8
SURFACE
 62
7
  6
CONTINUOUS
 10
34.4937785812
 20
122.2079684821
  0
VERTEX
  8
SURFACE
 62
7
  6
CONTINUOUS
 10
34.5544226904
 20
122.1339218947
  0
VERTEX
  8
SURFACE
 62
7
  6
CONTINUOUS
 10
34.6184286071
 20
122.0665513713
  0
VERTEX
  8
SURFACE
 62
7
  6
CONTINUOUS
 10
34.6844288579
 20
122.0059181266
  0
VERTEX
  8
SURFACE
 62
7
  6
CONTINUOUS
 10
34.7519051962
 20
121.9512459089
  0
VERTEX
  8
SURFACE
 62
7
  6
CONTINUOUS
 10
34.8201363081
 20
121.902048677
  0
VERTEX
  8
SURFACE
 62
7
  6
CONTINUOUS
 10
34.8892225042
 20
121.8573697322
  0
VERTEX
  8
SURFACE
 62
7
  6
CONTINUOUS
 10
34.9592292587
 20
121.8164890443
  0
VERTEX
  8
SURFACE
 62
7
  6
CONTINUOUS
 10
35.030430756
 20
121.7787232264
  0
VERTEX
  8
SURFACE
 62
7
  6
CONTINUOUS
 10
35.1031955485
 20
121.7434851031
  0
VERTEX
  8
SURFACE
 62
7
  6
CONTINUOUS
 10
35.1778289762
 20
121.7103330975
  0
VERTEX
  8
SURFACE
 62
7
  6
CONTINUOUS
 10
35.2547064447
 20
121.6788802005
  0
VERTEX
  8
SURFACE
 62
7
  6
CONTINUOUS
 10
35.3341865262
 20
121.6488185597
  0
VERTEX
  8
SURFACE
 62
7
  6
CONTINUOUS
 10
35.4166336884
 20
121.6198947176
  0
VERTEX
  8
SURFACE
 62
7
  6
CONTINUOUS
 10
35.5024864621
 20
121.5918780888
  0
VERTEX
  8
SURFACE
 62
7
  6
CONTINUOUS
 10
35.5922292929
 20
121.564568598
  0
VERTEX
  8
SURFACE
 62
7
  6
CONTINUOUS
 10
35.6862013983
 20
121.5378456268
  0
VERTEX
  8
SURFACE
 62
7
  6
CONTINUOUS
 10
35.7848153943
 20
121.5115920981
  0
VERTEX
  8
SURFACE
 62
7
  6
CONTINUOUS
 10
35.8883850305
 20
121.4857386319
  0
VERTEX
  8
SURFACE
 62
7
  6
CONTINUOUS
 10
35.9972688682
 20
121.4602200193
  0
VERTEX
  8
SURFACE
 62
7
  6
CONTINUOUS
 10
36.1117604695
 20
121.4349998929
  0
VERTEX
  8
SURFACE
 62
7
  6
CONTINUOUS
 10
36.232181382
 20
121.4100459963
  0
VERTEX
  8
SURFACE
 62
7
  6
CONTINUOUS
 10
36.3588020981
 20
121.3853457639
  0
VERTEX
  8
SURFACE
 62
7
  6
CONTINUOUS
 10
36.4919135272
 20
121.3608897045
  0
VERTEX
  8
SURFACE
 62
7
  6
CONTINUOUS
 10
36.631754982
 20
121.3366840267
  0
VERTEX
  8
SURFACE
 62
7
  6
CONTINUOUS
 10
36.7785770728
 20
121.312737615
  0
VERTEX
  8
SURFACE
 62
7
  6
CONTINUOUS
 10
36.9325949694
 20
121.2890693447
  0
VERTEX
  8
SURFACE
 62
7
  6
CONTINUOUS
 10
37.0940254761
 20
121.2657011403
  0
VERTEX
  8
SURFACE
 62
7
  6
CONTINUOUS
 10
37.2630559817
 20
121.242662159
  0
VERTEX
  8
SURFACE
 62
7
  6
CONTINUOUS
 10
37.4398424879
 20
121.2199878985
  0
VERTEX
  8
SURFACE
 62
7
  6
CONTINUOUS
 10
37.6246214018
 20
121.1977060961
  0
VERTEX
  8
SURFACE
 62
7
  6
CONTINUOUS
 10
37.8175706864
 20
121.1758550923
  0
VERTEX
  8
SURFACE
 62
7
  6
CONTINUOUS
 10
38.0189680746
 20
121.1544655551
  0
VERTEX
  8
SURFACE
 62
7
  6
CONTINUOUS
 10
38.2290607466
 20
121.1335765311
  0
VERTEX
  8
SURFACE
 62
7
  6
CONTINUOUS
 10
38.4480821145
 20
121.1132329518
  0
VERTEX
  8
SURFACE
 62
7
  6
CONTINUOUS
 10
38.6762580817
 20
121.0934848098
  0
VERTEX
  8
SURFACE
 62
7
  6
CONTINUOUS
 10
38.9137933161
 20
121.0743881967
  0
VERTEX
  8
SURFACE
 62
7
  6
CONTINUOUS
 10
39.1608605938
 20
121.0560056958
  0
VERTEX
  8
SURFACE
 62
7
  6
CONTINUOUS
 10
39.4176798962
 20
121.0384006381
  0
VERTEX
  8
SURFACE
 62
7
  6
CONTINUOUS
 10
39.6844141554
 20
121.0216451595
  0
VERTEX
  8
SURFACE
 62
7
  6
CONTINUOUS
 10
39.9612791737
 20
121.0058130618
  0
VERTEX
  8
SURFACE
 62
7
  6
CONTINUOUS
 10
40.2484448012
 20
120.9909867123
  0
VERTEX
  8
SURFACE
 62
7
  6
CONTINUOUS
 10
40.5460445009
 20
120.9772560497
  0
VERTEX
  8
SURFACE
 62
7
  6
CONTINUOUS
 10
40.8541743542
 20
120.9647183712
  0
VERTEX
  8
SURFACE
 62
7
  6
CONTINUOUS
 10
41.1728776267
 20
120.9534788196
  0
VERTEX
  8
SURFACE
 62
7
  6
CONTINUOUS
 10
41.5021456956
 20
120.9436499556
  0
VERTEX
  8
SURFACE
 62
7
  6
CONTINUOUS
 10
41.8419072263
 20
120.9353518846
  0
VERTEX
  8
SURFACE
 62
7
  6
CONTINUOUS
 10
42.1920226141
 20
120.9287120147
  0
VERTEX
  8
SURFACE
 62
7
  6
CONTINUOUS
 10
42.5522689308
 20
120.9238650253
  0
VERTEX
  8
SURFACE
 62
7
  6
CONTINUOUS
 10
42.922470145
 20
120.9209516658
  0
VERTEX
  8
SURFACE
 62
7
  6
CONTINUOUS
 10
47.6370148657
 20
120.9201064823
  0
SEQEND
  0
POLYLINE
  8
SURFACE
 62
7
  6
CONTINUOUS
 66
1
 70
0
  0
VERTEX
  8
SURFACE
 62
7
  6
CONTINUOUS
 10
34.2568025524
 20
148.3016717078
  0
VERTEX
  8
SURFACE
 62
7
  6
CONTINUOUS
 10
34.2578584351
 20
148.2537533547
  0
VERTEX
  8
SURFACE
 62
7
  6
CONTINUOUS
 10
34.2662051252
 20
148.1574802695
  0
VERTEX
  8
SURFACE
 62
7
  6
CONTINUOUS
 10
34.2833782161
 20
148.0596170258
  0
VERTEX
  8
SURFACE
 62
7
  6
CONTINUOUS
 10
34.3095135456
 20
147.9622865899
  0
VERTEX
  8
SURFACE
 62
7
  6
CONTINUOUS
 10
34.3443906817
 20
147.8670623176
  0
VERTEX
  8
SURFACE
 62
7
  6
CONTINUOUS
 10
34.3873942552
 20
147.7754666866
  0
VERTEX
  8
SURFACE
 62
7
  6
CONTINUOUS
 10
34.4375931575
 20
147.6887653415
  0
VERTEX
  8
SURFACE
 62
7
  6
CONTINUOUS
 10
34.4937785812
 20
147.6079684821
  0
VERTEX
  8
SURFACE
 62
7
  6
CONTINUOUS
 10
34.5544226904
 20
147.5339218947
  0
VERTEX
  8
SURFACE
 62
7
  6
CONTINUOUS
 10
34.6184286071
 20
147.4665513713
  0
VERTEX
  8
SURFACE
 62
7
  6
CONTINUOUS
 10
34.6844288579
 20
147.4059181266
  0
VERTEX
  8
SURFACE
 62
7
  6
CONTINUOUS
 10
34.7519051962
 20
147.3512459089
  0
VERTEX
  8
SURFACE
 62
7
  6
CONTINUOUS
 10
34.8201363081
 20
147.302048677
  0
VERTEX
  8
SURFACE
 62
7
  6
CONTINUOUS
 10
34.8892225042
 20
147.2573697322
  0
VERTEX
  8
SURFACE
 62
7
  6
CONTINUOUS
 10
34.9592292587
 20
147.2164890443
  0
VERTEX
  8
SURFACE
 62
7
  6
CONTINUOUS
 10
35.030430756
 20
147.1787232264
  0
VERTEX
  8
SURFACE
 62
7
  6
CONTINUOUS
 10
35.1031955485
 20
147.1434851031
  0
VERTEX
  8
SURFACE
 62
7
  6
CONTINUOUS
 10
35.1778289762
 20
147.1103330975
  0
VERTEX
  8
SURFACE
 62
7
  6
CONTINUOUS
 10
35.2547064447
 20
147.0788802005
  0
VERTEX
  8
SURFACE
 62
7
  6
CONTINUOUS
 10
35.3341865262
 20
147.0488185597
  0
VERTEX
  8
SURFACE
 62
7
  6
CONTINUOUS
 10
35.4166336884
 20
147.0198947176
  0
VERTEX
  8
SURFACE
 62
7
  6
CONTINUOUS
 10
35.5024864621
 20
146.9918780888
  0
VERTEX
  8
SURFACE
 62
7
  6
CONTINUOUS
 10
35.5922292929
 20
146.964568598
  0
VERTEX
  8
SURFACE
 62
7
  6
CONTINUOUS
 10
35.6862013983
 20
146.9378456268
  0
VERTEX
  8
SURFACE
 62
7
  6
CONTINUOUS
 10
35.7848153943
 20
146.9115920981
  0
VERTEX
  8
SURFACE
 62
7
  6
CONTINUOUS
 10
35.8883850305
 20
146.8857386319
  0
VERTEX
  8
SURFACE
 62
7
  6
CONTINUOUS
 10
35.9972688682
 20
146.8602200193
  0
VERTEX
  8
SURFACE
 62
7
  6
CONTINUOUS
 10
36.1117604695
 20
146.8349998929
  0
VERTEX
  8
SURFACE
 62
7
  6
CONTINUOUS
 10
36.232181382
 20
146.8100459963
  0
VERTEX
  8
SURFACE
 62
7
  6
CONTINUOUS
 10
36.3588020981
 20
146.7853457639
  0
VERTEX
  8
SURFACE
 62
7
  6
CONTINUOUS
 10
36.4919135272
 20
146.7608897045
  0
VERTEX
  8
SURFACE
 62
7
  6
CONTINUOUS
 10
36.631754982
 20
146.7366840267
  0
VERTEX
  8
SURFACE
 62
7
  6
CONTINUOUS
 10
36.7785770728
 20
146.712737615
  0
VERTEX
  8
SURFACE
 62
7
  6
CONTINUOUS
 10
36.9325949694
 20
146.6890693447
  0
VERTEX
  8
SURFACE
 62
7
  6
CONTINUOUS
 10
37.0940254761
 20
146.6657011403
  0
VERTEX
  8
SURFACE
 62
7
  6
CONTINUOUS
 10
37.2630559817
 20
146.642662159
  0
VERTEX
  8
SURFACE
 62
7
  6
CONTINUOUS
 10
37.4398424879
 20
146.6199878985
  0
VERTEX
  8
SURFACE
 62
7
  6
CONTINUOUS
 10
37.6246214018
 20
146.5977060961
  0
VERTEX
  8
SURFACE
 62
7
  6
CONTINUOUS
 10
37.8175706864
 20
146.5758550923
  0
VERTEX
  8
SURFACE
 62
7
  6
CONTINUOUS
 10
38.0189680746
 20
146.5544655551
  0
VERTEX
  8
SURFACE
 62
7
  6
CONTINUOUS
 10
38.2290607466
 20
146.5335765311
  0
VERTEX
  8
SURFACE
 62
7
  6
CONTINUOUS
 10
38.4480821145
 20
146.5132329518
  0
VERTEX
  8
SURFACE
 62
7
  6
CONTINUOUS
 10
38.6762580817
 20
146.4934848098
  0
VERTEX
  8
SURFACE
 62
7
  6
CONTINUOUS
 10
38.9137933161
 20
146.4743881967
  0
VERTEX
  8
SURFACE
 62
7
  6
CONTINUOUS
 10
39.1608605938
 20
146.4560056958
  0
VERTEX
  8
SURFACE
 62
7
  6
CONTINUOUS
 10
39.4176798962
 20
146.4384006381
  0
VERTEX
  8
SURFACE
 62
7
  6
CONTINUOUS
 10
39.6844141554
 20
146.4216451595
  0
VERTEX
  8
SURFACE
 62
7
  6
CONTINUOUS
 10
39.9612791737
 20
146.4058130618
  0
VERTEX
  8
SURFACE
 62
7
  6
CONTINUOUS
 10
40.2484448012
 20
146.3909867123
  0
VERTEX
  8
SURFACE
 62
7
  6
CONTINUOUS
 10
40.5460445009
 20
146.3772560497
  0
VERTEX
  8
SURFACE
 62
7
  6
CONTINUOUS
 10
40.8541743542
 20
146.3647183712
  0
VERTEX
  8
SURFACE
 62
7
  6
CONTINUOUS
 10
41.1728776267
 20
146.3534788196
  0
VERTEX
  8
SURFACE
 62
7
  6
CONTINUOUS
 10
41.5021456956
 20
146.3436499556
  0
VERTEX
  8
SURFACE
 62
7
  6
CONTINUOUS
 10
41.8419072263
 20
146.3353518846
  0
VERTEX
  8
SURFACE
 62
7
  6
CONTINUOUS
 10
42.1920226141
 20
146.3287120147
  0
VERTEX
  8
SURFACE
 62
7
  6
CONTINUOUS
 10
42.5522689308
 20
146.3238650253
  0
VERTEX
  8
SURFACE
 62
7
  6
CONTINUOUS
 10
42.922470145
 20
146.3209516658
  0
VERTEX
  8
SURFACE
 62
7
  6
CONTINUOUS
 10
47.6370148657
 20
146.3201064823
  0
SEQEND
  0
POLYLINE
  8
SURFACE
 62
7
  6
CONTINUOUS
 66
1
 70
0
  0
VERTEX
  8
SURFACE
 62
7
  6
CONTINUOUS
 10
34.2568025524
 20
173.7016717078
  0
VERTEX
  8
SURFACE
 62
7
  6
CONTINUOUS
 10
34.2578584351
 20
173.6537533547
  0
VERTEX
  8
SURFACE
 62
7
  6
CONTINUOUS
 10
34.2662051252
 20
173.5574802695
  0
VERTEX
  8
SURFACE
 62
7
  6
CONTINUOUS
 10
34.2833782161
 20
173.4596170258
  0
VERTEX
  8
SURFACE
 62
7
  6
CONTINUOUS
 10
34.3095135456
 20
173.3622865899
  0
VERTEX
  8
SURFACE
 62
7
  6
CONTINUOUS
 10
34.3443906817
 20
173.2670623176
  0
VERTEX
  8
SURFACE
 62
7
  6
CONTINUOUS
 10
34.3873942552
 20
173.1754666866
  0
VERTEX
  8
SURFACE
 62
7
  6
CONTINUOUS
 10
34.4375931575
 20
173.0887653415
  0
VERTEX
  8
SURFACE
 62
7
  6
CONTINUOUS
 10
34.4937785812
 20
173.0079684821
  0
VERTEX
  8
SURFACE
 62
7
  6
CONTINUOUS
 10
34.5544226904
 20
172.9339218947
  0
VERTEX
  8
SURFACE
 62
7
  6
CONTINUOUS
 10
34.6184286071
 20
172.8665513713
  0
VERTEX
  8
SURFACE
 62
7
  6
CONTINUOUS
 10
34.6844288579
 20
172.8059181266
  0
VERTEX
  8
SURFACE
 62
7
  6
CONTINUOUS
 10
34.7519051962
 20
172.7512459089
  0
VERTEX
  8
SURFACE
 62
7
  6
CONTINUOUS
 10
34.8201363081
 20
172.702048677
  0
VERTEX
  8
SURFACE
 62
7
  6
CONTINUOUS
 10
34.8892225042
 20
172.6573697322
  0
VERTEX
  8
SURFACE
 62
7
  6
CONTINUOUS
 10
34.9592292587
 20
172.6164890443
  0
VERTEX
  8
SURFACE
 62
7
  6
CONTINUOUS
 10
35.030430756
 20
172.5787232264
  0
VERTEX
  8
SURFACE
 62
7
  6
CONTINUOUS
 10
35.1031955485
 20
172.5434851031
  0
VERTEX
  8
SURFACE
 62
7
  6
CONTINUOUS
 10
35.1778289762
 20
172.5103330975
  0
VERTEX
  8
SURFACE
 62
7
  6
CONTINUOUS
 10
35.2547064447
 20
172.4788802005
  0
VERTEX
  8
SURFACE
 62
7
  6
CONTINUOUS
 10
35.3341865262
 20
172.4488185597
  0
VERTEX
  8
SURFACE
 62
7
  6
CONTINUOUS
 10
35.4166336884
 20
172.4198947176
  0
VERTEX
  8
SURFACE
 62
7
  6
CONTINUOUS
 10
35.5024864621
 20
172.3918780888
  0
VERTEX
  8
SURFACE
 62
7
  6
CONTINUOUS
 10
35.5922292929
 20
172.364568598
  0
VERTEX
  8
SURFACE
 62
7
  6
CONTINUOUS
 10
35.6862013983
 20
172.3378456268
  0
VERTEX
  8
SURFACE
 62
7
  6
CONTINUOUS
 10
35.7848153943
 20
172.3115920981
  0
VERTEX
  8
SURFACE
 62
7
  6
CONTINUOUS
 10
35.8883850305
 20
172.2857386319
  0
VERTEX
  8
SURFACE
 62
7
  6
CONTINUOUS
 10
35.9972688682
 20
172.2602200193
  0
VERTEX
  8
SURFACE
 62
7
  6
CONTINUOUS
 10
36.1117604695
 20
172.2349998929
  0
VERTEX
  8
SURFACE
 62
7
  6
CONTINUOUS
 10
36.232181382
 20
172.2100459963
  0
VERTEX
  8
SURFACE
 62
7
  6
CONTINUOUS
 10
36.3588020981
 20
172.1853457639
  0
VERTEX
  8
SURFACE
 62
7
  6
CONTINUOUS
 10
36.4919135272
 20
172.1608897045
  0
VERTEX
  8
SURFACE
 62
7
  6
CONTINUOUS
 10
36.631754982
 20
172.1366840267
  0
VERTEX
  8
SURFACE
 62
7
  6
CONTINUOUS
 10
36.7785770728
 20
172.112737615
  0
VERTEX
  8
SURFACE
 62
7
  6
CONTINUOUS
 10
36.9325949694
 20
172.0890693447
  0
VERTEX
  8
SURFACE
 62
7
  6
CONTINUOUS
 10
37.0940254761
 20
172.0657011403
  0
VERTEX
  8
SURFACE
 62
7
  6
CONTINUOUS
 10
37.2630559817
 20
172.042662159
  0
VERTEX
  8
SURFACE
 62
7
  6
CONTINUOUS
 10
37.4398424879
 20
172.0199878985
  0
VERTEX
  8
SURFACE
 62
7
  6
CONTINUOUS
 10
37.6246214018
 20
171.9977060961
  0
VERTEX
  8
SURFACE
 62
7
  6
CONTINUOUS
 10
37.8175706864
 20
171.9758550923
  0
VERTEX
  8
SURFACE
 62
7
  6
CONTINUOUS
 10
38.0189680746
 20
171.9544655551
  0
VERTEX
  8
SURFACE
 62
7
  6
CONTINUOUS
 10
38.2290607466
 20
171.9335765311
  0
VERTEX
  8
SURFACE
 62
7
  6
CONTINUOUS
 10
38.4480821145
 20
171.9132329518
  0
VERTEX
  8
SURFACE
 62
7
  6
CONTINUOUS
 10
38.6762580817
 20
171.8934848098
  0
VERTEX
  8
SURFACE
 62
7
  6
CONTINUOUS
 10
38.9137933161
 20
171.8743881967
  0
VERTEX
  8
SURFACE
 62
7
  6
CONTINUOUS
 10
39.1608605938
 20
171.8560056958
  0
VERTEX
  8
SURFACE
 62
7
  6
CONTINUOUS
 10
39.4176798962
 20
171.8384006381
  0
VERTEX
  8
SURFACE
 62
7
  6
CONTINUOUS
 10
39.6844141554
 20
171.8216451595
  0
VERTEX
  8
SURFACE
 62
7
  6
CONTINUOUS
 10
39.9612791737
 20
171.8058130618
  0
VERTEX
  8
SURFACE
 62
7
  6
CONTINUOUS
 10
40.2484448012
 20
171.7909867123
  0
VERTEX
  8
SURFACE
 62
7
  6
CONTINUOUS
 10
40.5460445009
 20
171.7772560497
  0
VERTEX
  8
SURFACE
 62
7
  6
CONTINUOUS
 10
40.8541743542
 20
171.7647183712
  0
VERTEX
  8
SURFACE
 62
7
  6
CONTINUOUS
 10
41.1728776267
 20
171.7534788196
  0
VERTEX
  8
SURFACE
 62
7
  6
CONTINUOUS
 10
41.5021456956
 20
171.7436499556
  0
VERTEX
  8
SURFACE
 62
7
  6
CONTINUOUS
 10
41.8419072263
 20
171.7353518846
  0
VERTEX
  8
SURFACE
 62
7
  6
CONTINUOUS
 10
42.1920226141
 20
171.7287120147
  0
VERTEX
  8
SURFACE
 62
7
  6
CONTINUOUS
 10
42.5522689308
 20
171.7238650253
  0
VERTEX
  8
SURFACE
 62
7
  6
CONTINUOUS
 10
42.922470145
 20
171.7209516658
  0
VERTEX
  8
SURFACE
 62
7
  6
CONTINUOUS
 10
47.6370148657
 20
171.7201064823
  0
SEQEND
  0
POLYLINE
  8
SURFACE
 62
7
  6
CONTINUOUS
 66
1
 70
0
  0
VERTEX
  8
SURFACE
 62
7
  6
CONTINUOUS
 10
34.2568025524
 20
199.1016717078
  0
VERTEX
  8
SURFACE
 62
7
  6
CONTINUOUS
 10
34.2578584351
 20
199.0537533547
  0
VERTEX
  8
SURFACE
 62
7
  6
CONTINUOUS
 10
34.2662051252
 20
198.9574802695
  0
VERTEX
  8
SURFACE
 62
7
  6
CONTINUOUS
 10
34.2833782161
 20
198.8596170258
  0
VERTEX
  8
SURFACE
 62
7
  6
CONTINUOUS
 10
34.3095135456
 20
198.7622865899
  0
VERTEX
  8
SURFACE
 62
7
  6
CONTINUOUS
 10
34.3443906817
 20
198.6670623176
  0
VERTEX
  8
SURFACE
 62
7
  6
CONTINUOUS
 10
34.3873942552
 20
198.5754666866
  0
VERTEX
  8
SURFACE
 62
7
  6
CONTINUOUS
 10
34.4375931575
 20
198.4887653415
  0
VERTEX
  8
SURFACE
 62
7
  6
CONTINUOUS
 10
34.4937785812
 20
198.4079684821
  0
VERTEX
  8
SURFACE
 62
7
  6
CONTINUOUS
 10
34.5544226904
 20
198.3339218947
  0
VERTEX
  8
SURFACE
 62
7
  6
CONTINUOUS
 10
34.6184286071
 20
198.2665513713
  0
VERTEX
  8
SURFACE
 62
7
  6
CONTINUOUS
 10
34.6844288579
 20
198.2059181266
  0
VERTEX
  8
SURFACE
 62
7
  6
CONTINUOUS
 10
34.7519051962
 20
198.1512459089
  0
VERTEX
  8
SURFACE
 62
7
  6
CONTINUOUS
 10
34.8201363081
 20
198.102048677
  0
VERTEX
  8
SURFACE
 62
7
  6
CONTINUOUS
 10
34.8892225042
 20
198.0573697322
  0
VERTEX
  8
SURFACE
 62
7
  6
CONTINUOUS
 10
34.9592292587
 20
198.0164890443
  0
VERTEX
  8
SURFACE
 62
7
  6
CONTINUOUS
 10
35.030430756
 20
197.9787232264
  0
VERTEX
  8
SURFACE
 62
7
  6
CONTINUOUS
 10
35.1031955485
 20
197.9434851031
  0
VERTEX
  8
SURFACE
 62
7
  6
CONTINUOUS
 10
35.1778289762
 20
197.9103330975
  0
VERTEX
  8
SURFACE
 62
7
  6
CONTINUOUS
 10
35.2547064447
 20
197.8788802005
  0
VERTEX
  8
SURFACE
 62
7
  6
CONTINUOUS
 10
35.3341865262
 20
197.8488185597
  0
VERTEX
  8
SURFACE
 62
7
  6
CONTINUOUS
 10
35.4166336884
 20
197.8198947176
  0
VERTEX
  8
SURFACE
 62
7
  6
CONTINUOUS
 10
35.5024864621
 20
197.7918780888
  0
VERTEX
  8
SURFACE
 62
7
  6
CONTINUOUS
 10
35.5922292929
 20
197.764568598
  0
VERTEX
  8
SURFACE
 62
7
  6
CONTINUOUS
 10
35.6862013983
 20
197.7378456268
  0
VERTEX
  8
SURFACE
 62
7
  6
CONTINUOUS
 10
35.7848153943
 20
197.7115920981
  0
VERTEX
  8
SURFACE
 62
7
  6
CONTINUOUS
 10
35.8883850305
 20
197.6857386319
  0
VERTEX
  8
SURFACE
 62
7
  6
CONTINUOUS
 10
35.9972688682
 20
197.6602200193
  0
VERTEX
  8
SURFACE
 62
7
  6
CONTINUOUS
 10
36.1117604695
 20
197.6349998929
  0
VERTEX
  8
SURFACE
 62
7
  6
CONTINUOUS
 10
36.232181382
 20
197.6100459963
  0
VERTEX
  8
SURFACE
 62
7
  6
CONTINUOUS
 10
36.3588020981
 20
197.5853457639
  0
VERTEX
  8
SURFACE
 62
7
  6
CONTINUOUS
 10
36.4919135272
 20
197.5608897045
  0
VERTEX
  8
SURFACE
 62
7
  6
CONTINUOUS
 10
36.631754982
 20
197.5366840267
  0
VERTEX
  8
SURFACE
 62
7
  6
CONTINUOUS
 10
36.7785770728
 20
197.512737615
  0
VERTEX
  8
SURFACE
 62
7
  6
CONTINUOUS
 10
36.9325949694
 20
197.4890693447
  0
VERTEX
  8
SURFACE
 62
7
  6
CONTINUOUS
 10
37.0940254761
 20
197.4657011403
  0
VERTEX
  8
SURFACE
 62
7
  6
CONTINUOUS
 10
37.2630559817
 20
197.442662159
  0
VERTEX
  8
SURFACE
 62
7
  6
CONTINUOUS
 10
37.4398424879
 20
197.4199878985
  0
VERTEX
  8
SURFACE
 62
7
  6
CONTINUOUS
 10
37.6246214018
 20
197.3977060961
  0
VERTEX
  8
SURFACE
 62
7
  6
CONTINUOUS
 10
37.8175706864
 20
197.3758550923
  0
VERTEX
  8
SURFACE
 62
7
  6
CONTINUOUS
 10
38.0189680746
 20
197.3544655551
  0
VERTEX
  8
SURFACE
 62
7
  6
CONTINUOUS
 10
38.2290607466
 20
197.3335765311
  0
VERTEX
  8
SURFACE
 62
7
  6
CONTINUOUS
 10
38.4480821145
 20
197.3132329518
  0
VERTEX
  8
SURFACE
 62
7
  6
CONTINUOUS
 10
38.6762580817
 20
197.2934848098
  0
VERTEX
  8
SURFACE
 62
7
  6
CONTINUOUS
 10
38.9137933161
 20
197.2743881967
  0
VERTEX
  8
SURFACE
 62
7
  6
CONTINUOUS
 10
39.1608605938
 20
197.2560056958
  0
VERTEX
  8
SURFACE
 62
7
  6
CONTINUOUS
 10
39.4176798962
 20
197.2384006381
  0
VERTEX
  8
SURFACE
 62
7
  6
CONTINUOUS
 10
39.6844141554
 20
197.2216451595
  0
VERTEX
  8
SURFACE
 62
7
  6
CONTINUOUS
 10
39.9612791737
 20
197.2058130618
  0
VERTEX
  8
SURFACE
 62
7
  6
CONTINUOUS
 10
40.2484448012
 20
197.1909867123
  0
VERTEX
  8
SURFACE
 62
7
  6
CONTINUOUS
 10
40.5460445009
 20
197.1772560497
  0
VERTEX
  8
SURFACE
 62
7
  6
CONTINUOUS
 10
40.8541743542
 20
197.1647183712
  0
VERTEX
  8
SURFACE
 62
7
  6
CONTINUOUS
 10
41.1728776267
 20
197.1534788196
  0
VERTEX
  8
SURFACE
 62
7
  6
CONTINUOUS
 10
41.5021456956
 20
197.1436499556
  0
VERTEX
  8
SURFACE
 62
7
  6
CONTINUOUS
 10
41.8419072263
 20
197.1353518846
  0
VERTEX
  8
SURFACE
 62
7
  6
CONTINUOUS
 10
42.1920226141
 20
197.1287120147
  0
VERTEX
  8
SURFACE
 62
7
  6
CONTINUOUS
 10
42.5522689308
 20
197.1238650253
  0
VERTEX
  8
SURFACE
 62
7
  6
CONTINUOUS
 10
42.922470145
 20
197.1209516658
  0
VERTEX
  8
SURFACE
 62
7
  6
CONTINUOUS
 10
47.6370148657
 20
197.1201064823
  0
SEQEND
  0
POLYLINE
  8
SURFACE
 62
7
  6
CONTINUOUS
 66
1
 70
0
  0
VERTEX
  8
SURFACE
 62
7
  6
CONTINUOUS
 10
34.2568025524
 20
224.5016717078
  0
VERTEX
  8
SURFACE
 62
7
  6
CONTINUOUS
 10
34.2578584351
 20
224.4537533547
  0
VERTEX
  8
SURFACE
 62
7
  6
CONTINUOUS
 10
34.2662051252
 20
224.3574802695
  0
VERTEX
  8
SURFACE
 62
7
  6
CONTINUOUS
 10
34.2833782161
 20
224.2596170258
  0
VERTEX
  8
SURFACE
 62
7
  6
CONTINUOUS
 10
34.3095135456
 20
224.1622865899
  0
VERTEX
  8
SURFACE
 62
7
  6
CONTINUOUS
 10
34.3443906817
 20
224.0670623176
  0
VERTEX
  8
SURFACE
 62
7
  6
CONTINUOUS
 10
34.3873942552
 20
223.9754666866
  0
VERTEX
  8
SURFACE
 62
7
  6
CONTINUOUS
 10
34.4375931575
 20
223.8887653415
  0
VERTEX
  8
SURFACE
 62
7
  6
CONTINUOUS
 10
34.4937785812
 20
223.8079684821
  0
VERTEX
  8
SURFACE
 62
7
  6
CONTINUOUS
 10
34.5544226904
 20
223.7339218947
  0
VERTEX
  8
SURFACE
 62
7
  6
CONTINUOUS
 10
34.6184286071
 20
223.6665513713
  0
VERTEX
  8
SURFACE
 62
7
  6
CONTINUOUS
 10
34.6844288579
 20
223.6059181266
  0
VERTEX
  8
SURFACE
 62
7
  6
CONTINUOUS
 10
34.7519051962
 20
223.5512459089
  0
VERTEX
  8
SURFACE
 62
7
  6
CONTINUOUS
 10
34.8201363081
 20
223.502048677
  0
VERTEX
  8
SURFACE
 62
7
  6
CONTINUOUS
 10
34.8892225042
 20
223.4573697322
  0
VERTEX
  8
SURFACE
 62
7
  6
CONTINUOUS
 10
34.9592292587
 20
223.4164890443
  0
VERTEX
  8
SURFACE
 62
7
  6
CONTINUOUS
 10
35.030430756
 20
223.3787232264
  0
VERTEX
  8
SURFACE
 62
7
  6
CONTINUOUS
 10
35.1031955485
 20
223.3434851031
  0
VERTEX
  8
SURFACE
 62
7
  6
CONTINUOUS
 10
35.1778289762
 20
223.3103330975
  0
VERTEX
  8
SURFACE
 62
7
  6
CONTINUOUS
 10
35.2547064447
 20
223.2788802005
  0
VERTEX
  8
SURFACE
 62
7
  6
CONTINUOUS
 10
35.3341865262
 20
223.2488185597
  0
VERTEX
  8
SURFACE
 62
7
  6
CONTINUOUS
 10
35.4166336884
 20
223.2198947176
  0
VERTEX
  8
SURFACE
 62
7
  6
CONTINUOUS
 10
35.5024864621
 20
223.1918780888
  0
VERTEX
  8
SURFACE
 62
7
  6
CONTINUOUS
 10
35.5922292929
 20
223.164568598
  0
VERTEX
  8
SURFACE
 62
7
  6
CONTINUOUS
 10
35.6862013983
 20
223.1378456268
  0
VERTEX
  8
SURFACE
 62
7
  6
CONTINUOUS
 10
35.7848153943
 20
223.1115920981
  0
VERTEX
  8
SURFACE
 62
7
  6
CONTINUOUS
 10
35.8883850305
 20
223.0857386319
  0
VERTEX
  8
SURFACE
 62
7
  6
CONTINUOUS
 10
35.9972688682
 20
223.0602200193
  0
VERTEX
  8
SURFACE
 62
7
  6
CONTINUOUS
 10
36.1117604695
 20
223.0349998929
  0
VERTEX
  8
SURFACE
 62
7
  6
CONTINUOUS
 10
36.232181382
 20
223.0100459963
  0
VERTEX
  8
SURFACE
 62
7
  6
CONTINUOUS
 10
36.3588020981
 20
222.9853457639
  0
VERTEX
  8
SURFACE
 62
7
  6
CONTINUOUS
 10
36.4919135272
 20
222.9608897045
  0
VERTEX
  8
SURFACE
 62
7
  6
CONTINUOUS
 10
36.631754982
 20
222.9366840267
  0
VERTEX
  8
SURFACE
 62
7
  6
CONTINUOUS
 10
36.7785770728
 20
222.912737615
  0
VERTEX
  8
SURFACE
 62
7
  6
CONTINUOUS
 10
36.9325949694
 20
222.8890693447
  0
VERTEX
  8
SURFACE
 62
7
  6
CONTINUOUS
 10
37.0940254761
 20
222.8657011403
  0
VERTEX
  8
SURFACE
 62
7
  6
CONTINUOUS
 10
37.2630559817
 20
222.842662159
  0
VERTEX
  8
SURFACE
 62
7
  6
CONTINUOUS
 10
37.4398424879
 20
222.8199878985
  0
VERTEX
  8
SURFACE
 62
7
  6
CONTINUOUS
 10
37.6246214018
 20
222.7977060961
  0
VERTEX
  8
SURFACE
 62
7
  6
CONTINUOUS
 10
37.8175706864
 20
222.7758550923
  0
VERTEX
  8
SURFACE
 62
7
  6
CONTINUOUS
 10
38.0189680746
 20
222.7544655551
  0
VERTEX
  8
SURFACE
 62
7
  6
CONTINUOUS
 10
38.2290607466
 20
222.7335765311
  0
VERTEX
  8
SURFACE
 62
7
  6
CONTINUOUS
 10
38.4480821145
 20
222.7132329518
  0
VERTEX
  8
SURFACE
 62
7
  6
CONTINUOUS
 10
38.6762580817
 20
222.6934848098
  0
VERTEX
  8
SURFACE
 62
7
  6
CONTINUOUS
 10
38.9137933161
 20
222.6743881967
  0
VERTEX
  8
SURFACE
 62
7
  6
CONTINUOUS
 10
39.1608605938
 20
222.6560056958
  0
VERTEX
  8
SURFACE
 62
7
  6
CONTINUOUS
 10
39.4176798962
 20
222.6384006381
  0
VERTEX
  8
SURFACE
 62
7
  6
CONTINUOUS
 10
39.6844141554
 20
222.6216451595
  0
VERTEX
  8
SURFACE
 62
7
  6
CONTINUOUS
 10
39.9612791737
 20
222.6058130618
  0
VERTEX
  8
SURFACE
 62
7
  6
CONTINUOUS
 10
40.2484448012
 20
222.5909867123
  0
VERTEX
  8
SURFACE
 62
7
  6
CONTINUOUS
 10
40.5460445009
 20
222.5772560497
  0
VERTEX
  8
SURFACE
 62
7
  6
CONTINUOUS
 10
40.8541743542
 20
222.5647183712
  0
VERTEX
  8
SURFACE
 62
7
  6
CONTINUOUS
 10
41.1728776267
 20
222.5534788196
  0
VERTEX
  8
SURFACE
 62
7
  6
CONTINUOUS
 10
41.5021456956
 20
222.5436499556
  0
VERTEX
  8
SURFACE
 62
7
  6
CONTINUOUS
 10
41.8419072263
 20
222.5353518846
  0
VERTEX
  8
SURFACE
 62
7
  6
CONTINUOUS
 10
42.1920226141
 20
222.5287120147
  0
VERTEX
  8
SURFACE
 62
7
  6
CONTINUOUS
 10
42.5522689308
 20
222.5238650253
  0
VERTEX
  8
SURFACE
 62
7
  6
CONTINUOUS
 10
42.922470145
 20
222.5209516658
  0
VERTEX
  8
SURFACE
 62
7
  6
CONTINUOUS
 10
47.6370148657
 20
222.5201064823
  0
SEQEND
  0
LINE
  8
SURFACE
 62
7
  6
CONTINUOUS
 10
34.2568025411
 20
122.9016717078
 11
34.2568022629
 21
131.257212187
  0
LINE
  8
SURFACE
 62
7
  6
CONTINUOUS
 10
34.2568025411
 20
148.3016717078
 11
34.2568022629
 21
156.657212187
  0
LINE
  8
SURFACE
 62
7
  6
CONTINUOUS
 10
34.2568025411
 20
173.7016717078
 11
34.2568022629
 21
182.057212187
  0
LINE
  8
SURFACE
 62
7
  6
CONTINUOUS
 10
34.2568025411
 20
199.1016717078
 11
34.2568022629
 21
207.457212187
  0
LINE
  8
SURFACE
 62
7
  6
CONTINUOUS
 10
34.2568025411
 20
224.5016717078
 11
34.2568022629
 21
232.857212187
  0
LINE
  8
SURFACE
 62
7
  6
CONTINUOUS
 10
34.2568025411
 20
249.9016717078
 11
34.2568022629
 21
258.7298120959
  0
LINE
  8
SURFACE
 62
7
  6
CONTINUOUS
 10
34.2568025738
 20
232.8579802451
 11
34.2568022711
 21
232.857212187
  0
LINE
  8
SURFACE
 62
7
  6
CONTINUOUS
 10
34.2568025738
 20
207.4579802451
 11
34.2568022711
 21
207.457212187
  0
LINE
  8
SURFACE
 62
7
  6
CONTINUOUS
 10
34.2568025738
 20
182.0579802451
 11
34.2568022711
 21
182.057212187
  0
LINE
  8
SURFACE
 62
7
  6
CONTINUOUS
 10
34.2568025738
 20
156.6579802451
 11
34.2568022711
 21
156.657212187
  0
LINE
  8
SURFACE
 62
7
  6
CONTINUOUS
 10
34.2568025738
 20
131.2579802451
 11
34.2568022711
 21
131.257212187
  0
POLYLINE
  8
SURFACE
 62
7
  6
CONTINUOUS
 66
1
 70
0
  0
VERTEX
  8
SURFACE
 62
7
  6
CONTINUOUS
 10
34.2568025524
 20
249.9016717078
  0
VERTEX
  8
SURFACE
 62
7
  6
CONTINUOUS
 10
34.2578584351
 20
249.8537533547
  0
VERTEX
  8
SURFACE
 62
7
  6
CONTINUOUS
 10
34.2662051252
 20
249.7574802695
  0
VERTEX
  8
SURFACE
 62
7
  6
CONTINUOUS
 10
34.2833782161
 20
249.6596170258
  0
VERTEX
  8
SURFACE
 62
7
  6
CONTINUOUS
 10
34.3095135456
 20
249.5622865899
  0
VERTEX
  8
SURFACE
 62
7
  6
CONTINUOUS
 10
34.3443906817
 20
249.4670623176
  0
VERTEX
  8
SURFACE
 62
7
  6
CONTINUOUS
 10
34.3873942552
 20
249.3754666866
  0
VERTEX
  8
SURFACE
 62
7
  6
CONTINUOUS
 10
34.4375931575
 20
249.2887653415
  0
VERTEX
  8
SURFACE
 62
7
  6
CONTINUOUS
 10
34.4937785812
 20
249.2079684821
  0
VERTEX
  8
SURFACE
 62
7
  6
CONTINUOUS
 10
34.5544226904
 20
249.1339218947
  0
VERTEX
  8
SURFACE
 62
7
  6
CONTINUOUS
 10
34.6184286071
 20
249.0665513713
  0
VERTEX
  8
SURFACE
 62
7
  6
CONTINUOUS
 10
34.6844288579
 20
249.0059181266
  0
VERTEX
  8
SURFACE
 62
7
  6
CONTINUOUS
 10
34.7519051962
 20
248.9512459089
  0
VERTEX
  8
SURFACE
 62
7
  6
CONTINUOUS
 10
34.8201363081
 20
248.902048677
  0
VERTEX
  8
SURFACE
 62
7
  6
CONTINUOUS
 10
34.8892225042
 20
248.8573697322
  0
VERTEX
  8
SURFACE
 62
7
  6
CONTINUOUS
 10
34.9592292587
 20
248.8164890443
  0
VERTEX
  8
SURFACE
 62
7
  6
CONTINUOUS
 10
35.030430756
 20
248.7787232264
  0
VERTEX
  8
SURFACE
 62
7
  6
CONTINUOUS
 10
35.1031955485
 20
248.7434851031
  0
VERTEX
  8
SURFACE
 62
7
  6
CONTINUOUS
 10
35.1778289762
 20
248.7103330975
  0
VERTEX
  8
SURFACE
 62
7
  6
CONTINUOUS
 10
35.2547064447
 20
248.6788802005
  0
VERTEX
  8
SURFACE
 62
7
  6
CONTINUOUS
 10
35.3341865262
 20
248.6488185597
  0
VERTEX
  8
SURFACE
 62
7
  6
CONTINUOUS
 10
35.4166336884
 20
248.6198947176
  0
VERTEX
  8
SURFACE
 62
7
  6
CONTINUOUS
 10
35.5024864621
 20
248.5918780888
  0
VERTEX
  8
SURFACE
 62
7
  6
CONTINUOUS
 10
35.5922292929
 20
248.564568598
  0
VERTEX
  8
SURFACE
 62
7
  6
CONTINUOUS
 10
35.6862013983
 20
248.5378456268
  0
VERTEX
  8
SURFACE
 62
7
  6
CONTINUOUS
 10
35.7848153943
 20
248.5115920981
  0
VERTEX
  8
SURFACE
 62
7
  6
CONTINUOUS
 10
35.8883850305
 20
248.4857386319
  0
VERTEX
  8
SURFACE
 62
7
  6
CONTINUOUS
 10
35.9972688682
 20
248.4602200193
  0
VERTEX
  8
SURFACE
 62
7
  6
CONTINUOUS
 10
36.1117604695
 20
248.4349998929
  0
VERTEX
  8
SURFACE
 62
7
  6
CONTINUOUS
 10
36.232181382
 20
248.4100459963
  0
VERTEX
  8
SURFACE
 62
7
  6
CONTINUOUS
 10
36.3588020981
 20
248.3853457639
  0
VERTEX
  8
SURFACE
 62
7
  6
CONTINUOUS
 10
36.4919135272
 20
248.3608897045
  0
VERTEX
  8
SURFACE
 62
7
  6
CONTINUOUS
 10
36.631754982
 20
248.3366840267
  0
VERTEX
  8
SURFACE
 62
7
  6
CONTINUOUS
 10
36.7785770728
 20
248.312737615
  0
VERTEX
  8
SURFACE
 62
7
  6
CONTINUOUS
 10
36.9325949694
 20
248.2890693447
  0
VERTEX
  8
SURFACE
 62
7
  6
CONTINUOUS
 10
37.0940254761
 20
248.2657011403
  0
VERTEX
  8
SURFACE
 62
7
  6
CONTINUOUS
 10
37.2630559817
 20
248.242662159
  0
VERTEX
  8
SURFACE
 62
7
  6
CONTINUOUS
 10
37.4398424879
 20
248.2199878985
  0
VERTEX
  8
SURFACE
 62
7
  6
CONTINUOUS
 10
37.6246214018
 20
248.1977060961
  0
VERTEX
  8
SURFACE
 62
7
  6
CONTINUOUS
 10
37.8175706864
 20
248.1758550923
  0
VERTEX
  8
SURFACE
 62
7
  6
CONTINUOUS
 10
38.0189680746
 20
248.1544655551
  0
VERTEX
  8
SURFACE
 62
7
  6
CONTINUOUS
 10
38.2290607466
 20
248.1335765311
  0
VERTEX
  8
SURFACE
 62
7
  6
CONTINUOUS
 10
38.4480821145
 20
248.1132329518
  0
VERTEX
  8
SURFACE
 62
7
  6
CONTINUOUS
 10
38.6762580817
 20
248.0934848098
  0
VERTEX
  8
SURFACE
 62
7
  6
CONTINUOUS
 10
38.9137933161
 20
248.0743881967
  0
VERTEX
  8
SURFACE
 62
7
  6
CONTINUOUS
 10
39.1608605938
 20
248.0560056958
  0
VERTEX
  8
SURFACE
 62
7
  6
CONTINUOUS
 10
39.4176798962
 20
248.0384006381
  0
VERTEX
  8
SURFACE
 62
7
  6
CONTINUOUS
 10
39.6844141554
 20
248.0216451595
  0
VERTEX
  8
SURFACE
 62
7
  6
CONTINUOUS
 10
39.9612791737
 20
248.0058130618
  0
VERTEX
  8
SURFACE
 62
7
  6
CONTINUOUS
 10
40.2484448012
 20
247.9909867123
  0
VERTEX
  8
SURFACE
 62
7
  6
CONTINUOUS
 10
40.5460445009
 20
247.9772560497
  0
VERTEX
  8
SURFACE
 62
7
  6
CONTINUOUS
 10
40.8541743542
 20
247.9647183712
  0
VERTEX
  8
SURFACE
 62
7
  6
CONTINUOUS
 10
41.1728776267
 20
247.9534788196
  0
VERTEX
  8
SURFACE
 62
7
  6
CONTINUOUS
 10
41.5021456956
 20
247.9436499556
  0
VERTEX
  8
SURFACE
 62
7
  6
CONTINUOUS
 10
41.8419072263
 20
247.9353518846
  0
VERTEX
  8
SURFACE
 62
7
  6
CONTINUOUS
 10
42.1920226141
 20
247.9287120147
  0
VERTEX
  8
SURFACE
 62
7
  6
CONTINUOUS
 10
42.5522689308
 20
247.9238650253
  0
VERTEX
  8
SURFACE
 62
7
  6
CONTINUOUS
 10
42.922470145
 20
247.9209516658
  0
VERTEX
  8
SURFACE
 62
7
  6
CONTINUOUS
 10
43.2568022496
 20
247.9201064815
  0
SEQEND
  0
LINE
  8
DEFAULT_1
 62
2
  6
CENTER
 10
43.2568022629
 20
119.894873144
 11
43.2568022629
 21
261.7298120959
  0
LINE
  8
0
 62
7
  6
CONTINUOUS
 10
48.63534745
 20
246.9218856306
 11
48.63534745
 21
235.8377385645
  0
LINE
  8
0
 62
7
  6
CONTINUOUS
 10
48.63534745
 20
221.5218856306
 11
48.63534745
 21
210.4377385645
  0
LINE
  8
0
 62
7
  6
CONTINUOUS
 10
48.63534745
 20
196.1218856306
 11
48.63534745
 21
185.0377235364
  0
LINE
  8
0
 62
7
  6
CONTINUOUS
 10
48.63534745
 20
170.7218856306
 11
48.63534745
 21
159.6377385645
  0
LINE
  8
0
 62
7
  6
CONTINUOUS
 10
48.63534745
 20
145.3218856306
 11
48.63534745
 21
134.2377385645
  0
LINE
  8
0
 62
7
  6
CONTINUOUS
 10
48.63534745
 20
119.9218856306
 11
48.63534745
 21
109.7298120959
  0
POLYLINE
  8
SURFACE
 62
7
  6
CONTINUOUS
 66
1
 70
0
  0
VERTEX
  8
SURFACE
 62
7
  6
CONTINUOUS
 10
106.8449419962
 20
159.0209710341
  0
VERTEX
  8
SURFACE
 62
7
  6
CONTINUOUS
 10
107.2152156066
 20
159.0239066158
  0
VERTEX
  8
SURFACE
 62
7
  6
CONTINUOUS
 10
107.5755226807
 20
159.0287761066
  0
VERTEX
  8
SURFACE
 62
7
  6
CONTINUOUS
 10
107.9256874896
 20
159.0354386555
  0
VERTEX
  8
SURFACE
 62
7
  6
CONTINUOUS
 10
108.2654873859
 20
159.0437594815
  0
VERTEX
  8
SURFACE
 62
7
  6
CONTINUOUS
 10
108.5947832365
 20
159.0536110866
  0
VERTEX
  8
SURFACE
 62
7
  6
CONTINUOUS
 10
108.9135041467
 20
159.0648732877
  0
VERTEX
  8
SURFACE
 62
7
  6
CONTINUOUS
 10
109.2216420605
 20
159.0774334572
  0
VERTEX
  8
SURFACE
 62
7
  6
CONTINUOUS
 10
109.5192408024
 20
159.0911863991
  0
VERTEX
  8
SURFACE
 62
7
  6
CONTINUOUS
 10
109.8063969831
 20
159.10603477
  0
VERTEX
  8
SURFACE
 62
7
  6
CONTINUOUS
 10
110.0832446069
 20
159.1218885953
  0
VERTEX
  8
SURFACE
 62
7
  6
CONTINUOUS
 10
110.3499540361
 20
159.138665482
  0
VERTEX
  8
SURFACE
 62
7
  6
CONTINUOUS
 10
110.6067416052
 20
159.1562916112
  0
VERTEX
  8
SURFACE
 62
7
  6
CONTINUOUS
 10
110.8537706717
 20
159.1746948266
  0
VERTEX
  8
SURFACE
 62
7
  6
CONTINUOUS
 10
111.0912616076
 20
159.1938117851
  0
VERTEX
  8
SURFACE
 62
7
  6
CONTINUOUS
 10
111.3193877706
 20
159.2135799062
  0
VERTEX
  8
SURFACE
 62
7
  6
CONTINUOUS
 10
111.5383543259
 20
159.2339431055
  0
VERTEX
  8
SURFACE
 62
7
  6
CONTINUOUS
 10
111.7483877155
 20
159.2548514135
  0
VERTEX
  8
SURFACE
 62
7
  6
CONTINUOUS
 10
111.9497218672
 20
159.2762599304
  0
VERTEX
  8
SURFACE
 62
7
  6
CONTINUOUS
 10
112.1426043918
 20
159.2981296436
  0
VERTEX
  8
SURFACE
 62
7
  6
CONTINUOUS
 10
112.3273135835
 20
159.32042995
  0
VERTEX
  8
SURFACE
 62
7
  6
CONTINUOUS
 10
112.5040274074
 20
159.3431224996
  0
VERTEX
  8
SURFACE
 62
7
  6
CONTINUOUS
 10
112.6729823953
 20
159.3661795692
  0
VERTEX
  8
SURFACE
 62
7
  6
CONTINUOUS
 10
112.8343348816
 20
159.389565693
  0
VERTEX
  8
SURFACE
 62
7
  6
CONTINUOUS
 10
112.9882725283
 20
159.4132517477
  0
VERTEX
  8
SURFACE
 62
7
  6
CONTINUOUS
 10
113.1350125802
 20
159.4372158809
  0
VERTEX
  8
SURFACE
 62
7
  6
CONTINUOUS
 10
113.2747705932
 20
159.4614392934
  0
VERTEX
  8
SURFACE
 62
7
  6
CONTINUOUS
 10
113.4077977059
 20
159.4859132247
  0
VERTEX
  8
SURFACE
 62
7
  6
CONTINUOUS
 10
113.5343336865
 20
159.5106315958
  0
VERTEX
  8
SURFACE
 62
7
  6
CONTINUOUS
 10
113.6546701094
 20
159.53560411
  0
VERTEX
  8
SURFACE
 62
7
  6
CONTINUOUS
 10
113.7690780951
 20
159.5608435718
  0
VERTEX
  8
SURFACE
 62
7
  6
CONTINUOUS
 10
113.8778797574
 20
159.5863825256
  0
VERTEX
  8
SURFACE
 62
7
  6
CONTINUOUS
 10
113.9813691547
 20
159.6122576532
  0
VERTEX
  8
SURFACE
 62
7
  6
CONTINUOUS
 10
114.0799057675
 20
159.6385346826
  0
VERTEX
  8
SURFACE
 62
7
  6
CONTINUOUS
 10
114.1738040187
 20
159.6652835307
  0
VERTEX
  8
SURFACE
 62
7
  6
CONTINUOUS
 10
114.2634776521
 20
159.692622122
  0
VERTEX
  8
SURFACE
 62
7
  6
CONTINUOUS
 10
114.3492667102
 20
159.7206719751
  0
VERTEX
  8
SURFACE
 62
7
  6
CONTINUOUS
 10
114.4316568441
 20
159.7496345145
  0
VERTEX
  8
SURFACE
 62
7
  6
CONTINUOUS
 10
114.5110880055
 20
159.779742078
  0
VERTEX
  8
SURFACE
 62
7
  6
CONTINUOUS
 10
114.5879240355
 20
159.8112494059
  0
VERTEX
  8
SURFACE
 62
7
  6
CONTINUOUS
 10
114.6625225481
 20
159.8444657577
  0
VERTEX
  8
SURFACE
 62
7
  6
CONTINUOUS
 10
114.7352608922
 20
159.8797813649
  0
VERTEX
  8
SURFACE
 62
7
  6
CONTINUOUS
 10
114.8064451456
 20
159.9176412849
  0
VERTEX
  8
SURFACE
 62
7
  6
CONTINUOUS
 10
114.876442249
 20
159.9586359875
  0
VERTEX
  8
SURFACE
 62
7
  6
CONTINUOUS
 10
114.9455254808
 20
160.0034535923
  0
VERTEX
  8
SURFACE
 62
7
  6
CONTINUOUS
 10
115.0137526339
 20
160.052815127
  0
VERTEX
  8
SURFACE
 62
7
  6
CONTINUOUS
 10
115.0812184594
 20
160.1076804426
  0
VERTEX
  8
SURFACE
 62
7
  6
CONTINUOUS
 10
115.1471887863
 20
160.1685302141
  0
VERTEX
  8
SURFACE
 62
7
  6
CONTINUOUS
 10
115.2111339062
 20
160.2361345492
  0
VERTEX
  8
SURFACE
 62
7
  6
CONTINUOUS
 10
115.2716796609
 20
160.3104239204
  0
VERTEX
  8
SURFACE
 62
7
  6
CONTINUOUS
 10
115.3277223333
 20
160.391460589
  0
VERTEX
  8
SURFACE
 62
7
  6
CONTINUOUS
 10
115.3777346736
 20
160.4783878526
  0
VERTEX
  8
SURFACE
 62
7
  6
CONTINUOUS
 10
115.4205091885
 20
160.5701797587
  0
VERTEX
  8
SURFACE
 62
7
  6
CONTINUOUS
 10
115.4551251817
 20
160.6655691493
  0
VERTEX
  8
SURFACE
 62
7
  6
CONTINUOUS
 10
115.4809768771
 20
160.7630334036
  0
VERTEX
  8
SURFACE
 62
7
  6
CONTINUOUS
 10
115.4978513298
 20
160.860992687
  0
VERTEX
  8
SURFACE
 62
7
  6
CONTINUOUS
 10
115.5058953406
 20
160.9573210977
  0
VERTEX
  8
SURFACE
 62
7
  6
CONTINUOUS
 10
115.5068019521
 20
161.0016439467
  0
SEQEND
  0
POLYLINE
  8
SURFACE
 62
7
  6
CONTINUOUS
 66
1
 70
0
  0
VERTEX
  8
SURFACE
 62
7
  6
CONTINUOUS
 10
42.9186625296
 20
158.6386531577
  0
VERTEX
  8
SURFACE
 62
7
  6
CONTINUOUS
 10
42.5483889192
 20
158.635717576
  0
VERTEX
  8
SURFACE
 62
7
  6
CONTINUOUS
 10
42.1880818451
 20
158.6308480853
  0
VERTEX
  8
SURFACE
 62
7
  6
CONTINUOUS
 10
41.8379170363
 20
158.6241855363
  0
VERTEX
  8
SURFACE
 62
7
  6
CONTINUOUS
 10
41.49811714
 20
158.6158647103
  0
VERTEX
  8
SURFACE
 62
7
  6
CONTINUOUS
 10
41.1688212894
 20
158.6060131053
  0
VERTEX
  8
SURFACE
 62
7
  6
CONTINUOUS
 10
40.8501003791
 20
158.5947509041
  0
VERTEX
  8
SURFACE
 62
7
  6
CONTINUOUS
 10
40.5419624654
 20
158.5821907346
  0
VERTEX
  8
SURFACE
 62
7
  6
CONTINUOUS
 10
40.2443637235
 20
158.5684377927
  0
VERTEX
  8
SURFACE
 62
7
  6
CONTINUOUS
 10
39.9572075428
 20
158.5535894218
  0
VERTEX
  8
SURFACE
 62
7
  6
CONTINUOUS
 10
39.6803599189
 20
158.5377355965
  0
VERTEX
  8
SURFACE
 62
7
  6
CONTINUOUS
 10
39.4136504897
 20
158.5209587098
  0
VERTEX
  8
SURFACE
 62
7
  6
CONTINUOUS
 10
39.1568629206
 20
158.5033325806
  0
VERTEX
  8
SURFACE
 62
7
  6
CONTINUOUS
 10
38.9098338542
 20
158.4849293652
  0
VERTEX
  8
SURFACE
 62
7
  6
CONTINUOUS
 10
38.6723429182
 20
158.4658124067
  0
VERTEX
  8
SURFACE
 62
7
  6
CONTINUOUS
 10
38.4442167553
 20
158.4460442856
  0
VERTEX
  8
SURFACE
 62
7
  6
CONTINUOUS
 10
38.2252502
 20
158.4256810863
  0
VERTEX
  8
SURFACE
 62
7
  6
CONTINUOUS
 10
38.0152168103
 20
158.4047727783
  0
VERTEX
  8
SURFACE
 62
7
  6
CONTINUOUS
 10
37.8138826586
 20
158.3833642614
  0
VERTEX
  8
SURFACE
 62
7
  6
CONTINUOUS
 10
37.6210001341
 20
158.3614945482
  0
VERTEX
  8
SURFACE
 62
7
  6
CONTINUOUS
 10
37.4362909424
 20
158.3391942418
  0
VERTEX
  8
SURFACE
 62
7
  6
CONTINUOUS
 10
37.2595771185
 20
158.3165016923
  0
VERTEX
  8
SURFACE
 62
7
  6
CONTINUOUS
 10
37.0906221305
 20
158.2934446226
  0
VERTEX
  8
SURFACE
 62
7
  6
CONTINUOUS
 10
36.9292696443
 20
158.2700584988
  0
VERTEX
  8
SURFACE
 62
7
  6
CONTINUOUS
 10
36.7753319975
 20
158.2463724442
  0
VERTEX
  8
SURFACE
 62
7
  6
CONTINUOUS
 10
36.6285919457
 20
158.2224083109
  0
VERTEX
  8
SURFACE
 62
7
  6
CONTINUOUS
 10
36.4888339327
 20
158.1981848984
  0
VERTEX
  8
SURFACE
 62
7
  6
CONTINUOUS
 10
36.35580682
 20
158.1737109671
  0
VERTEX
  8
SURFACE
 62
7
  6
CONTINUOUS
 10
36.2292708394
 20
158.148992596
  0
VERTEX
  8
SURFACE
 62
7
  6
CONTINUOUS
 10
36.1089344164
 20
158.1240200819
  0
VERTEX
  8
SURFACE
 62
7
  6
CONTINUOUS
 10
35.9945264307
 20
158.09878062
  0
VERTEX
  8
SURFACE
 62
7
  6
CONTINUOUS
 10
35.8857247685
 20
158.0732416662
  0
VERTEX
  8
SURFACE
 62
7
  6
CONTINUOUS
 10
35.7822353711
 20
158.0473665386
  0
VERTEX
  8
SURFACE
 62
7
  6
CONTINUOUS
 10
35.6836987583
 20
158.0210895092
  0
VERTEX
  8
SURFACE
 62
7
  6
CONTINUOUS
 10
35.5898005071
 20
157.9943406612
  0
VERTEX
  8
SURFACE
 62
7
  6
CONTINUOUS
 10
35.5001268738
 20
157.9670020698
  0
VERTEX
  8
SURFACE
 62
7
  6
CONTINUOUS
 10
35.4143378157
 20
157.9389522167
  0
VERTEX
  8
SURFACE
 62
7
  6
CONTINUOUS
 10
35.3319476817
 20
157.9099896773
  0
VERTEX
  8
SURFACE
 62
7
  6
CONTINUOUS
 10
35.2525165204
 20
157.8798821138
  0
VERTEX
  8
SURFACE
 62
7
  6
CONTINUOUS
 10
35.1756804904
 20
157.8483747859
  0
VERTEX
  8
SURFACE
 62
7
  6
CONTINUOUS
 10
35.1010819778
 20
157.8151584342
  0
VERTEX
  8
SURFACE
 62
7
  6
CONTINUOUS
 10
35.0283436336
 20
157.7798428269
  0
VERTEX
  8
SURFACE
 62
7
  6
CONTINUOUS
 10
34.9571593803
 20
157.7419829069
  0
VERTEX
  8
SURFACE
 62
7
  6
CONTINUOUS
 10
34.8871622768
 20
157.7009882044
  0
VERTEX
  8
SURFACE
 62
7
  6
CONTINUOUS
 10
34.818079045
 20
157.6561705995
  0
VERTEX
  8
SURFACE
 62
7
  6
CONTINUOUS
 10
34.749851892
 20
157.6068090648
  0
VERTEX
  8
SURFACE
 62
7
  6
CONTINUOUS
 10
34.6823860664
 20
157.5519437492
  0
VERTEX
  8
SURFACE
 62
7
  6
CONTINUOUS
 10
34.6164157396
 20
157.4910939777
  0
VERTEX
  8
SURFACE
 62
7
  6
CONTINUOUS
 10
34.5524706197
 20
157.4234896426
  0
VERTEX
  8
SURFACE
 62
7
  6
CONTINUOUS
 10
34.4919248649
 20
157.3492002714
  0
VERTEX
  8
SURFACE
 62
7
  6
CONTINUOUS
 10
34.4358821926
 20
157.2681636028
  0
VERTEX
  8
SURFACE
 62
7
  6
CONTINUOUS
 10
34.3858698522
 20
157.1812363392
  0
VERTEX
  8
SURFACE
 62
7
  6
CONTINUOUS
 10
34.3430953374
 20
157.0894444331
  0
VERTEX
  8
SURFACE
 62
7
  6
CONTINUOUS
 10
34.3084793442
 20
156.9940550425
  0
VERTEX
  8
SURFACE
 62
7
  6
CONTINUOUS
 10
34.2826276487
 20
156.8965907882
  0
VERTEX
  8
SURFACE
 62
7
  6
CONTINUOUS
 10
34.2657531961
 20
156.7986315048
  0
VERTEX
  8
SURFACE
 62
7
  6
CONTINUOUS
 10
34.2577091853
 20
156.7023030941
  0
VERTEX
  8
SURFACE
 62
7
  6
CONTINUOUS
 10
34.2568025738
 20
156.6579802451
  0
SEQEND
  0
LINE
  8
SURFACE
 62
7
  6
CONTINUOUS
 10
42.9186625296
 20
158.6386531577
 11
47.6370148658
 21
158.6395177095
  0
LINE
  8
SURFACE
 62
7
  6
CONTINUOUS
 10
106.8449419962
 20
159.0209710341
 11
102.12658966
 21
159.0201064823
  0
LINE
  8
DEFAULT_1
 62
2
  6
CENTER
 10
74.8818022629
 20
188.6298120959
 11
74.8818022629
 21
186.2299120959
  0
LINE
  8
0
 62
2
  6
CONTINUOUS
 10
74.8818022629
 20
185.1098120959
 11
74.8818022629
 21
183.3498120959
  0
LINE
  8
DEFAULT_1
 62
2
  6
CENTER
 10
74.8818022629
 20
179.8298120959
 11
74.8818022629
 21
182.2297120959
  0
POLYLINE
  8
SURFACE
 62
7
  6
CONTINUOUS
 66
1
 70
0
  0
VERTEX
  8
SURFACE
 62
7
  6
CONTINUOUS
 10
106.8449419962
 20
184.4209710341
  0
VERTEX
  8
SURFACE
 62
7
  6
CONTINUOUS
 10
107.2152156066
 20
184.4239066158
  0
VERTEX
  8
SURFACE
 62
7
  6
CONTINUOUS
 10
107.5755226807
 20
184.4287761066
  0
VERTEX
  8
SURFACE
 62
7
  6
CONTINUOUS
 10
107.9256874896
 20
184.4354386555
  0
VERTEX
  8
SURFACE
 62
7
  6
CONTINUOUS
 10
108.2654873859
 20
184.4437594815
  0
VERTEX
  8
SURFACE
 62
7
  6
CONTINUOUS
 10
108.5947832365
 20
184.4536110866
  0
VERTEX
  8
SURFACE
 62
7
  6
CONTINUOUS
 10
108.9135041467
 20
184.4648732877
  0
VERTEX
  8
SURFACE
 62
7
  6
CONTINUOUS
 10
109.2216420605
 20
184.4774334572
  0
VERTEX
  8
SURFACE
 62
7
  6
CONTINUOUS
 10
109.5192408024
 20
184.4911863991
  0
VERTEX
  8
SURFACE
 62
7
  6
CONTINUOUS
 10
109.8063969831
 20
184.50603477
  0
VERTEX
  8
SURFACE
 62
7
  6
CONTINUOUS
 10
110.0832446069
 20
184.5218885953
  0
VERTEX
  8
SURFACE
 62
7
  6
CONTINUOUS
 10
110.3499540361
 20
184.538665482
  0
VERTEX
  8
SURFACE
 62
7
  6
CONTINUOUS
 10
110.6067416052
 20
184.5562916112
  0
VERTEX
  8
SURFACE
 62
7
  6
CONTINUOUS
 10
110.8537706717
 20
184.5746948266
  0
VERTEX
  8
SURFACE
 62
7
  6
CONTINUOUS
 10
111.0912616076
 20
184.5938117851
  0
VERTEX
  8
SURFACE
 62
7
  6
CONTINUOUS
 10
111.3193877706
 20
184.6135799062
  0
VERTEX
  8
SURFACE
 62
7
  6
CONTINUOUS
 10
111.5383543259
 20
184.6339431055
  0
VERTEX
  8
SURFACE
 62
7
  6
CONTINUOUS
 10
111.7483877155
 20
184.6548514135
  0
VERTEX
  8
SURFACE
 62
7
  6
CONTINUOUS
 10
111.9497218672
 20
184.6762599304
  0
VERTEX
  8
SURFACE
 62
7
  6
CONTINUOUS
 10
112.1426043918
 20
184.6981296436
  0
VERTEX
  8
SURFACE
 62
7
  6
CONTINUOUS
 10
112.3273135835
 20
184.72042995
  0
VERTEX
  8
SURFACE
 62
7
  6
CONTINUOUS
 10
112.5040274074
 20
184.7431224996
  0
VERTEX
  8
SURFACE
 62
7
  6
CONTINUOUS
 10
112.6729823953
 20
184.7661795692
  0
VERTEX
  8
SURFACE
 62
7
  6
CONTINUOUS
 10
112.8343348816
 20
184.789565693
  0
VERTEX
  8
SURFACE
 62
7
  6
CONTINUOUS
 10
112.9882725283
 20
184.8132517477
  0
VERTEX
  8
SURFACE
 62
7
  6
CONTINUOUS
 10
113.1350125802
 20
184.8372158809
  0
VERTEX
  8
SURFACE
 62
7
  6
CONTINUOUS
 10
113.2747705932
 20
184.8614392934
  0
VERTEX
  8
SURFACE
 62
7
  6
CONTINUOUS
 10
113.4077977059
 20
184.8859132247
  0
VERTEX
  8
SURFACE
 62
7
  6
CONTINUOUS
 10
113.5343336865
 20
184.9106315958
  0
VERTEX
  8
SURFACE
 62
7
  6
CONTINUOUS
 10
113.6546701094
 20
184.93560411
  0
VERTEX
  8
SURFACE
 62
7
  6
CONTINUOUS
 10
113.7690780951
 20
184.9608435718
  0
VERTEX
  8
SURFACE
 62
7
  6
CONTINUOUS
 10
113.8778797574
 20
184.9863825256
  0
VERTEX
  8
SURFACE
 62
7
  6
CONTINUOUS
 10
113.9813691547
 20
185.0122576532
  0
VERTEX
  8
SURFACE
 62
7
  6
CONTINUOUS
 10
114.0799057675
 20
185.0385346826
  0
VERTEX
  8
SURFACE
 62
7
  6
CONTINUOUS
 10
114.1738040187
 20
185.0652835307
  0
VERTEX
  8
SURFACE
 62
7
  6
CONTINUOUS
 10
114.2634776521
 20
185.092622122
  0
VERTEX
  8
SURFACE
 62
7
  6
CONTINUOUS
 10
114.3492667102
 20
185.1206719751
  0
VERTEX
  8
SURFACE
 62
7
  6
CONTINUOUS
 10
114.4316568441
 20
185.1496345145
  0
VERTEX
  8
SURFACE
 62
7
  6
CONTINUOUS
 10
114.5110880055
 20
185.179742078
  0
VERTEX
  8
SURFACE
 62
7
  6
CONTINUOUS
 10
114.5879240355
 20
185.2112494059
  0
VERTEX
  8
SURFACE
 62
7
  6
CONTINUOUS
 10
114.6625225481
 20
185.2444657577
  0
VERTEX
  8
SURFACE
 62
7
  6
CONTINUOUS
 10
114.7352608922
 20
185.2797813649
  0
VERTEX
  8
SURFACE
 62
7
  6
CONTINUOUS
 10
114.8064451456
 20
185.3176412849
  0
VERTEX
  8
SURFACE
 62
7
  6
CONTINUOUS
 10
114.876442249
 20
185.3586359875
  0
VERTEX
  8
SURFACE
 62
7
  6
CONTINUOUS
 10
114.9455254808
 20
185.4034535923
  0
VERTEX
  8
SURFACE
 62
7
  6
CONTINUOUS
 10
115.0137526339
 20
185.452815127
  0
VERTEX
  8
SURFACE
 62
7
  6
CONTINUOUS
 10
115.0812184594
 20
185.5076804426
  0
VERTEX
  8
SURFACE
 62
7
  6
CONTINUOUS
 10
115.1471887863
 20
185.5685302141
  0
VERTEX
  8
SURFACE
 62
7
  6
CONTINUOUS
 10
115.2111339062
 20
185.6361345492
  0
VERTEX
  8
SURFACE
 62
7
  6
CONTINUOUS
 10
115.2716796609
 20
185.7104239204
  0
VERTEX
  8
SURFACE
 62
7
  6
CONTINUOUS
 10
115.3277223333
 20
185.791460589
  0
VERTEX
  8
SURFACE
 62
7
  6
CONTINUOUS
 10
115.3777346736
 20
185.8783878526
  0
VERTEX
  8
SURFACE
 62
7
  6
CONTINUOUS
 10
115.4205091885
 20
185.9701797587
  0
VERTEX
  8
SURFACE
 62
7
  6
CONTINUOUS
 10
115.4551251817
 20
186.0655691493
  0
VERTEX
  8
SURFACE
 62
7
  6
CONTINUOUS
 10
115.4809768771
 20
186.1630334036
  0
VERTEX
  8
SURFACE
 62
7
  6
CONTINUOUS
 10
115.4978513298
 20
186.260992687
  0
VERTEX
  8
SURFACE
 62
7
  6
CONTINUOUS
 10
115.5058953406
 20
186.3573210977
  0
VERTEX
  8
SURFACE
 62
7
  6
CONTINUOUS
 10
115.5068019521
 20
186.4016439467
  0
SEQEND
  0
POLYLINE
  8
SURFACE
 62
7
  6
CONTINUOUS
 66
1
 70
0
  0
VERTEX
  8
SURFACE
 62
7
  6
CONTINUOUS
 10
42.9186625296
 20
184.0386531577
  0
VERTEX
  8
SURFACE
 62
7
  6
CONTINUOUS
 10
42.5483889192
 20
184.035717576
  0
VERTEX
  8
SURFACE
 62
7
  6
CONTINUOUS
 10
42.1880818451
 20
184.0308480853
  0
VERTEX
  8
SURFACE
 62
7
  6
CONTINUOUS
 10
41.8379170363
 20
184.0241855363
  0
VERTEX
  8
SURFACE
 62
7
  6
CONTINUOUS
 10
41.49811714
 20
184.0158647103
  0
VERTEX
  8
SURFACE
 62
7
  6
CONTINUOUS
 10
41.1688212894
 20
184.0060131053
  0
VERTEX
  8
SURFACE
 62
7
  6
CONTINUOUS
 10
40.8501003791
 20
183.9947509041
  0
VERTEX
  8
SURFACE
 62
7
  6
CONTINUOUS
 10
40.5419624654
 20
183.9821907346
  0
VERTEX
  8
SURFACE
 62
7
  6
CONTINUOUS
 10
40.2443637235
 20
183.9684377927
  0
VERTEX
  8
SURFACE
 62
7
  6
CONTINUOUS
 10
39.9572075428
 20
183.9535894218
  0
VERTEX
  8
SURFACE
 62
7
  6
CONTINUOUS
 10
39.6803599189
 20
183.9377355965
  0
VERTEX
  8
SURFACE
 62
7
  6
CONTINUOUS
 10
39.4136504897
 20
183.9209587098
  0
VERTEX
  8
SURFACE
 62
7
  6
CONTINUOUS
 10
39.1568629206
 20
183.9033325806
  0
VERTEX
  8
SURFACE
 62
7
  6
CONTINUOUS
 10
38.9098338542
 20
183.8849293652
  0
VERTEX
  8
SURFACE
 62
7
  6
CONTINUOUS
 10
38.6723429182
 20
183.8658124067
  0
VERTEX
  8
SURFACE
 62
7
  6
CONTINUOUS
 10
38.4442167553
 20
183.8460442856
  0
VERTEX
  8
SURFACE
 62
7
  6
CONTINUOUS
 10
38.2252502
 20
183.8256810863
  0
VERTEX
  8
SURFACE
 62
7
  6
CONTINUOUS
 10
38.0152168103
 20
183.8047727783
  0
VERTEX
  8
SURFACE
 62
7
  6
CONTINUOUS
 10
37.8138826586
 20
183.7833642614
  0
VERTEX
  8
SURFACE
 62
7
  6
CONTINUOUS
 10
37.6210001341
 20
183.7614945482
  0
VERTEX
  8
SURFACE
 62
7
  6
CONTINUOUS
 10
37.4362909424
 20
183.7391942418
  0
VERTEX
  8
SURFACE
 62
7
  6
CONTINUOUS
 10
37.2595771185
 20
183.7165016923
  0
VERTEX
  8
SURFACE
 62
7
  6
CONTINUOUS
 10
37.0906221305
 20
183.6934446226
  0
VERTEX
  8
SURFACE
 62
7
  6
CONTINUOUS
 10
36.9292696443
 20
183.6700584988
  0
VERTEX
  8
SURFACE
 62
7
  6
CONTINUOUS
 10
36.7753319975
 20
183.6463724442
  0
VERTEX
  8
SURFACE
 62
7
  6
CONTINUOUS
 10
36.6285919457
 20
183.6224083109
  0
VERTEX
  8
SURFACE
 62
7
  6
CONTINUOUS
 10
36.4888339327
 20
183.5981848984
  0
VERTEX
  8
SURFACE
 62
7
  6
CONTINUOUS
 10
36.35580682
 20
183.5737109671
  0
VERTEX
  8
SURFACE
 62
7
  6
CONTINUOUS
 10
36.2292708394
 20
183.548992596
  0
VERTEX
  8
SURFACE
 62
7
  6
CONTINUOUS
 10
36.1089344164
 20
183.5240200819
  0
VERTEX
  8
SURFACE
 62
7
  6
CONTINUOUS
 10
35.9945264307
 20
183.49878062
  0
VERTEX
  8
SURFACE
 62
7
  6
CONTINUOUS
 10
35.8857247685
 20
183.4732416662
  0
VERTEX
  8
SURFACE
 62
7
  6
CONTINUOUS
 10
35.7822353711
 20
183.4473665386
  0
VERTEX
  8
SURFACE
 62
7
  6
CONTINUOUS
 10
35.6836987583
 20
183.4210895092
  0
VERTEX
  8
SURFACE
 62
7
  6
CONTINUOUS
 10
35.5898005071
 20
183.3943406612
  0
VERTEX
  8
SURFACE
 62
7
  6
CONTINUOUS
 10
35.5001268738
 20
183.3670020698
  0
VERTEX
  8
SURFACE
 62
7
  6
CONTINUOUS
 10
35.4143378157
 20
183.3389522167
  0
VERTEX
  8
SURFACE
 62
7
  6
CONTINUOUS
 10
35.3319476817
 20
183.3099896773
  0
VERTEX
  8
SURFACE
 62
7
  6
CONTINUOUS
 10
35.2525165204
 20
183.2798821138
  0
VERTEX
  8
SURFACE
 62
7
  6
CONTINUOUS
 10
35.1756804904
 20
183.2483747859
  0
VERTEX
  8
SURFACE
 62
7
  6
CONTINUOUS
 10
35.1010819778
 20
183.2151584342
  0
VERTEX
  8
SURFACE
 62
7
  6
CONTINUOUS
 10
35.0283436336
 20
183.1798428269
  0
VERTEX
  8
SURFACE
 62
7
  6
CONTINUOUS
 10
34.9571593803
 20
183.1419829069
  0
VERTEX
  8
SURFACE
 62
7
  6
CONTINUOUS
 10
34.8871622768
 20
183.1009882044
  0
VERTEX
  8
SURFACE
 62
7
  6
CONTINUOUS
 10
34.818079045
 20
183.0561705995
  0
VERTEX
  8
SURFACE
 62
7
  6
CONTINUOUS
 10
34.749851892
 20
183.0068090648
  0
VERTEX
  8
SURFACE
 62
7
  6
CONTINUOUS
 10
34.6823860664
 20
182.9519437492
  0
VERTEX
  8
SURFACE
 62
7
  6
CONTINUOUS
 10
34.6164157396
 20
182.8910939777
  0
VERTEX
  8
SURFACE
 62
7
  6
CONTINUOUS
 10
34.5524706197
 20
182.8234896426
  0
VERTEX
  8
SURFACE
 62
7
  6
CONTINUOUS
 10
34.4919248649
 20
182.7492002714
  0
VERTEX
  8
SURFACE
 62
7
  6
CONTINUOUS
 10
34.4358821926
 20
182.6681636028
  0
VERTEX
  8
SURFACE
 62
7
  6
CONTINUOUS
 10
34.3858698522
 20
182.5812363392
  0
VERTEX
  8
SURFACE
 62
7
  6
CONTINUOUS
 10
34.3430953374
 20
182.4894444331
  0
VERTEX
  8
SURFACE
 62
7
  6
CONTINUOUS
 10
34.3084793442
 20
182.3940550425
  0
VERTEX
  8
SURFACE
 62
7
  6
CONTINUOUS
 10
34.2826276487
 20
182.2965907882
  0
VERTEX
  8
SURFACE
 62
7
  6
CONTINUOUS
 10
34.2657531961
 20
182.1986315048
  0
VERTEX
  8
SURFACE
 62
7
  6
CONTINUOUS
 10
34.2577091853
 20
182.1023030941
  0
VERTEX
  8
SURFACE
 62
7
  6
CONTINUOUS
 10
34.2568025738
 20
182.0579802451
  0
SEQEND
  0
LINE
  8
SURFACE
 62
7
  6
CONTINUOUS
 10
42.9186625296
 20
184.0386531577
 11
47.6370148658
 21
184.0395177095
  0
LINE
  8
DEFAULT_1
 62
2
  6
CENTER
 10
79.2818022629
 20
184.2298120959
 11
76.8819022629
 21
184.2298120959
  0
LINE
  8
0
 62
2
  6
CONTINUOUS
 10
75.7618022629
 20
184.2298120959
 11
74.0018022629
 21
184.2298120959
  0
LINE
  8
DEFAULT_1
 62
2
  6
CENTER
 10
70.4818022629
 20
184.2298120959
 11
72.8817022629
 21
184.2298120959
  0
LINE
  8
SURFACE
 62
7
  6
CONTINUOUS
 10
106.8449419962
 20
184.4209710341
 11
102.12658966
 21
184.4201064823
  0
LINE
  8
0
 62
7
  6
CONTINUOUS
 10
101.1282570759
 20
258.7298120959
 11
101.1282570759
 21
248.5377385613
  0
LINE
  8
0
 62
7
  6
CONTINUOUS
 10
101.1282570759
 20
234.2218856273
 11
101.1282570759
 21
223.1377385613
  0
LINE
  8
0
 62
7
  6
CONTINUOUS
 10
101.1282570759
 20
208.8218856273
 11
101.1282570759
 21
197.7377385613
  0
LINE
  8
0
 62
7
  6
CONTINUOUS
 10
101.1282570759
 20
183.4219006555
 11
101.1282570759
 21
172.3377385613
  0
LINE
  8
0
 62
7
  6
CONTINUOUS
 10
101.1282570759
 20
158.0218856273
 11
101.1282570759
 21
146.9377385613
  0
LINE
  8
0
 62
7
  6
CONTINUOUS
 10
101.1282570759
 20
132.6218856273
 11
101.1282570759
 21
121.5377385613
  0
POLYLINE
  8
SURFACE
 62
7
  6
CONTINUOUS
 66
1
 70
0
  0
VERTEX
  8
SURFACE
 62
7
  6
CONTINUOUS
 10
106.8449419962
 20
209.8209710341
  0
VERTEX
  8
SURFACE
 62
7
  6
CONTINUOUS
 10
107.2152156066
 20
209.8239066158
  0
VERTEX
  8
SURFACE
 62
7
  6
CONTINUOUS
 10
107.5755226807
 20
209.8287761066
  0
VERTEX
  8
SURFACE
 62
7
  6
CONTINUOUS
 10
107.9256874896
 20
209.8354386555
  0
VERTEX
  8
SURFACE
 62
7
  6
CONTINUOUS
 10
108.2654873859
 20
209.8437594815
  0
VERTEX
  8
SURFACE
 62
7
  6
CONTINUOUS
 10
108.5947832365
 20
209.8536110866
  0
VERTEX
  8
SURFACE
 62
7
  6
CONTINUOUS
 10
108.9135041467
 20
209.8648732877
  0
VERTEX
  8
SURFACE
 62
7
  6
CONTINUOUS
 10
109.2216420605
 20
209.8774334572
  0
VERTEX
  8
SURFACE
 62
7
  6
CONTINUOUS
 10
109.5192408024
 20
209.8911863991
  0
VERTEX
  8
SURFACE
 62
7
  6
CONTINUOUS
 10
109.8063969831
 20
209.90603477
  0
VERTEX
  8
SURFACE
 62
7
  6
CONTINUOUS
 10
110.0832446069
 20
209.9218885953
  0
VERTEX
  8
SURFACE
 62
7
  6
CONTINUOUS
 10
110.3499540361
 20
209.938665482
  0
VERTEX
  8
SURFACE
 62
7
  6
CONTINUOUS
 10
110.6067416052
 20
209.9562916112
  0
VERTEX
  8
SURFACE
 62
7
  6
CONTINUOUS
 10
110.8537706717
 20
209.9746948266
  0
VERTEX
  8
SURFACE
 62
7
  6
CONTINUOUS
 10
111.0912616076
 20
209.9938117851
  0
VERTEX
  8
SURFACE
 62
7
  6
CONTINUOUS
 10
111.3193877706
 20
210.0135799062
  0
VERTEX
  8
SURFACE
 62
7
  6
CONTINUOUS
 10
111.5383543259
 20
210.0339431055
  0
VERTEX
  8
SURFACE
 62
7
  6
CONTINUOUS
 10
111.7483877155
 20
210.0548514135
  0
VERTEX
  8
SURFACE
 62
7
  6
CONTINUOUS
 10
111.9497218672
 20
210.0762599304
  0
VERTEX
  8
SURFACE
 62
7
  6
CONTINUOUS
 10
112.1426043918
 20
210.0981296436
  0
VERTEX
  8
SURFACE
 62
7
  6
CONTINUOUS
 10
112.3273135835
 20
210.12042995
  0
VERTEX
  8
SURFACE
 62
7
  6
CONTINUOUS
 10
112.5040274074
 20
210.1431224996
  0
VERTEX
  8
SURFACE
 62
7
  6
CONTINUOUS
 10
112.6729823953
 20
210.1661795692
  0
VERTEX
  8
SURFACE
 62
7
  6
CONTINUOUS
 10
112.8343348816
 20
210.189565693
  0
VERTEX
  8
SURFACE
 62
7
  6
CONTINUOUS
 10
112.9882725283
 20
210.2132517477
  0
VERTEX
  8
SURFACE
 62
7
  6
CONTINUOUS
 10
113.1350125802
 20
210.2372158809
  0
VERTEX
  8
SURFACE
 62
7
  6
CONTINUOUS
 10
113.2747705932
 20
210.2614392934
  0
VERTEX
  8
SURFACE
 62
7
  6
CONTINUOUS
 10
113.4077977059
 20
210.2859132247
  0
VERTEX
  8
SURFACE
 62
7
  6
CONTINUOUS
 10
113.5343336865
 20
210.3106315958
  0
VERTEX
  8
SURFACE
 62
7
  6
CONTINUOUS
 10
113.6546701094
 20
210.33560411
  0
VERTEX
  8
SURFACE
 62
7
  6
CONTINUOUS
 10
113.7690780951
 20
210.3608435718
  0
VERTEX
  8
SURFACE
 62
7
  6
CONTINUOUS
 10
113.8778797574
 20
210.3863825256
  0
VERTEX
  8
SURFACE
 62
7
  6
CONTINUOUS
 10
113.9813691547
 20
210.4122576532
  0
VERTEX
  8
SURFACE
 62
7
  6
CONTINUOUS
 10
114.0799057675
 20
210.4385346826
  0
VERTEX
  8
SURFACE
 62
7
  6
CONTINUOUS
 10
114.1738040187
 20
210.4652835307
  0
VERTEX
  8
SURFACE
 62
7
  6
CONTINUOUS
 10
114.2634776521
 20
210.492622122
  0
VERTEX
  8
SURFACE
 62
7
  6
CONTINUOUS
 10
114.3492667102
 20
210.5206719751
  0
VERTEX
  8
SURFACE
 62
7
  6
CONTINUOUS
 10
114.4316568441
 20
210.5496345145
  0
VERTEX
  8
SURFACE
 62
7
  6
CONTINUOUS
 10
114.5110880055
 20
210.579742078
  0
VERTEX
  8
SURFACE
 62
7
  6
CONTINUOUS
 10
114.5879240355
 20
210.6112494059
  0
VERTEX
  8
SURFACE
 62
7
  6
CONTINUOUS
 10
114.6625225481
 20
210.6444657577
  0
VERTEX
  8
SURFACE
 62
7
  6
CONTINUOUS
 10
114.7352608922
 20
210.6797813649
  0
VERTEX
  8
SURFACE
 62
7
  6
CONTINUOUS
 10
114.8064451456
 20
210.7176412849
  0
VERTEX
  8
SURFACE
 62
7
  6
CONTINUOUS
 10
114.876442249
 20
210.7586359875
  0
VERTEX
  8
SURFACE
 62
7
  6
CONTINUOUS
 10
114.9455254808
 20
210.8034535923
  0
VERTEX
  8
SURFACE
 62
7
  6
CONTINUOUS
 10
115.0137526339
 20
210.852815127
  0
VERTEX
  8
SURFACE
 62
7
  6
CONTINUOUS
 10
115.0812184594
 20
210.9076804426
  0
VERTEX
  8
SURFACE
 62
7
  6
CONTINUOUS
 10
115.1471887863
 20
210.9685302141
  0
VERTEX
  8
SURFACE
 62
7
  6
CONTINUOUS
 10
115.2111339062
 20
211.0361345492
  0
VERTEX
  8
SURFACE
 62
7
  6
CONTINUOUS
 10
115.2716796609
 20
211.1104239204
  0
VERTEX
  8
SURFACE
 62
7
  6
CONTINUOUS
 10
115.3277223333
 20
211.191460589
  0
VERTEX
  8
SURFACE
 62
7
  6
CONTINUOUS
 10
115.3777346736
 20
211.2783878526
  0
VERTEX
  8
SURFACE
 62
7
  6
CONTINUOUS
 10
115.4205091885
 20
211.3701797587
  0
VERTEX
  8
SURFACE
 62
7
  6
CONTINUOUS
 10
115.4551251817
 20
211.4655691493
  0
VERTEX
  8
SURFACE
 62
7
  6
CONTINUOUS
 10
115.4809768771
 20
211.5630334036
  0
VERTEX
  8
SURFACE
 62
7
  6
CONTINUOUS
 10
115.4978513298
 20
211.660992687
  0
VERTEX
  8
SURFACE
 62
7
  6
CONTINUOUS
 10
115.5058953406
 20
211.7573210977
  0
VERTEX
  8
SURFACE
 62
7
  6
CONTINUOUS
 10
115.5068019521
 20
211.8016439467
  0
SEQEND
  0
POLYLINE
  8
SURFACE
 62
7
  6
CONTINUOUS
 66
1
 70
0
  0
VERTEX
  8
SURFACE
 62
7
  6
CONTINUOUS
 10
42.9186625296
 20
209.4386531577
  0
VERTEX
  8
SURFACE
 62
7
  6
CONTINUOUS
 10
42.5483889192
 20
209.435717576
  0
VERTEX
  8
SURFACE
 62
7
  6
CONTINUOUS
 10
42.1880818451
 20
209.4308480853
  0
VERTEX
  8
SURFACE
 62
7
  6
CONTINUOUS
 10
41.8379170363
 20
209.4241855363
  0
VERTEX
  8
SURFACE
 62
7
  6
CONTINUOUS
 10
41.49811714
 20
209.4158647103
  0
VERTEX
  8
SURFACE
 62
7
  6
CONTINUOUS
 10
41.1688212894
 20
209.4060131053
  0
VERTEX
  8
SURFACE
 62
7
  6
CONTINUOUS
 10
40.8501003791
 20
209.3947509041
  0
VERTEX
  8
SURFACE
 62
7
  6
CONTINUOUS
 10
40.5419624654
 20
209.3821907346
  0
VERTEX
  8
SURFACE
 62
7
  6
CONTINUOUS
 10
40.2443637235
 20
209.3684377927
  0
VERTEX
  8
SURFACE
 62
7
  6
CONTINUOUS
 10
39.9572075428
 20
209.3535894218
  0
VERTEX
  8
SURFACE
 62
7
  6
CONTINUOUS
 10
39.6803599189
 20
209.3377355965
  0
VERTEX
  8
SURFACE
 62
7
  6
CONTINUOUS
 10
39.4136504897
 20
209.3209587098
  0
VERTEX
  8
SURFACE
 62
7
  6
CONTINUOUS
 10
39.1568629206
 20
209.3033325806
  0
VERTEX
  8
SURFACE
 62
7
  6
CONTINUOUS
 10
38.9098338542
 20
209.2849293652
  0
VERTEX
  8
SURFACE
 62
7
  6
CONTINUOUS
 10
38.6723429182
 20
209.2658124067
  0
VERTEX
  8
SURFACE
 62
7
  6
CONTINUOUS
 10
38.4442167553
 20
209.2460442856
  0
VERTEX
  8
SURFACE
 62
7
  6
CONTINUOUS
 10
38.2252502
 20
209.2256810863
  0
VERTEX
  8
SURFACE
 62
7
  6
CONTINUOUS
 10
38.0152168103
 20
209.2047727783
  0
VERTEX
  8
SURFACE
 62
7
  6
CONTINUOUS
 10
37.8138826586
 20
209.1833642614
  0
VERTEX
  8
SURFACE
 62
7
  6
CONTINUOUS
 10
37.6210001341
 20
209.1614945482
  0
VERTEX
  8
SURFACE
 62
7
  6
CONTINUOUS
 10
37.4362909424
 20
209.1391942418
  0
VERTEX
  8
SURFACE
 62
7
  6
CONTINUOUS
 10
37.2595771185
 20
209.1165016923
  0
VERTEX
  8
SURFACE
 62
7
  6
CONTINUOUS
 10
37.0906221305
 20
209.0934446226
  0
VERTEX
  8
SURFACE
 62
7
  6
CONTINUOUS
 10
36.9292696443
 20
209.0700584988
  0
VERTEX
  8
SURFACE
 62
7
  6
CONTINUOUS
 10
36.7753319975
 20
209.0463724442
  0
VERTEX
  8
SURFACE
 62
7
  6
CONTINUOUS
 10
36.6285919457
 20
209.0224083109
  0
VERTEX
  8
SURFACE
 62
7
  6
CONTINUOUS
 10
36.4888339327
 20
208.9981848984
  0
VERTEX
  8
SURFACE
 62
7
  6
CONTINUOUS
 10
36.35580682
 20
208.9737109671
  0
VERTEX
  8
SURFACE
 62
7
  6
CONTINUOUS
 10
36.2292708394
 20
208.948992596
  0
VERTEX
  8
SURFACE
 62
7
  6
CONTINUOUS
 10
36.1089344164
 20
208.9240200819
  0
VERTEX
  8
SURFACE
 62
7
  6
CONTINUOUS
 10
35.9945264307
 20
208.89878062
  0
VERTEX
  8
SURFACE
 62
7
  6
CONTINUOUS
 10
35.8857247685
 20
208.8732416662
  0
VERTEX
  8
SURFACE
 62
7
  6
CONTINUOUS
 10
35.7822353711
 20
208.8473665386
  0
VERTEX
  8
SURFACE
 62
7
  6
CONTINUOUS
 10
35.6836987583
 20
208.8210895092
  0
VERTEX
  8
SURFACE
 62
7
  6
CONTINUOUS
 10
35.5898005071
 20
208.7943406612
  0
VERTEX
  8
SURFACE
 62
7
  6
CONTINUOUS
 10
35.5001268738
 20
208.7670020698
  0
VERTEX
  8
SURFACE
 62
7
  6
CONTINUOUS
 10
35.4143378157
 20
208.7389522167
  0
VERTEX
  8
SURFACE
 62
7
  6
CONTINUOUS
 10
35.3319476817
 20
208.7099896773
  0
VERTEX
  8
SURFACE
 62
7
  6
CONTINUOUS
 10
35.2525165204
 20
208.6798821138
  0
VERTEX
  8
SURFACE
 62
7
  6
CONTINUOUS
 10
35.1756804904
 20
208.6483747859
  0
VERTEX
  8
SURFACE
 62
7
  6
CONTINUOUS
 10
35.1010819778
 20
208.6151584342
  0
VERTEX
  8
SURFACE
 62
7
  6
CONTINUOUS
 10
35.0283436336
 20
208.5798428269
  0
VERTEX
  8
SURFACE
 62
7
  6
CONTINUOUS
 10
34.9571593803
 20
208.5419829069
  0
VERTEX
  8
SURFACE
 62
7
  6
CONTINUOUS
 10
34.8871622768
 20
208.5009882044
  0
VERTEX
  8
SURFACE
 62
7
  6
CONTINUOUS
 10
34.818079045
 20
208.4561705995
  0
VERTEX
  8
SURFACE
 62
7
  6
CONTINUOUS
 10
34.749851892
 20
208.4068090648
  0
VERTEX
  8
SURFACE
 62
7
  6
CONTINUOUS
 10
34.6823860664
 20
208.3519437492
  0
VERTEX
  8
SURFACE
 62
7
  6
CONTINUOUS
 10
34.6164157396
 20
208.2910939777
  0
VERTEX
  8
SURFACE
 62
7
  6
CONTINUOUS
 10
34.5524706197
 20
208.2234896426
  0
VERTEX
  8
SURFACE
 62
7
  6
CONTINUOUS
 10
34.4919248649
 20
208.1492002714
  0
VERTEX
  8
SURFACE
 62
7
  6
CONTINUOUS
 10
34.4358821926
 20
208.0681636028
  0
VERTEX
  8
SURFACE
 62
7
  6
CONTINUOUS
 10
34.3858698522
 20
207.9812363392
  0
VERTEX
  8
SURFACE
 62
7
  6
CONTINUOUS
 10
34.3430953374
 20
207.8894444331
  0
VERTEX
  8
SURFACE
 62
7
  6
CONTINUOUS
 10
34.3084793442
 20
207.7940550425
  0
VERTEX
  8
SURFACE
 62
7
  6
CONTINUOUS
 10
34.2826276487
 20
207.6965907882
  0
VERTEX
  8
SURFACE
 62
7
  6
CONTINUOUS
 10
34.2657531961
 20
207.5986315048
  0
VERTEX
  8
SURFACE
 62
7
  6
CONTINUOUS
 10
34.2577091853
 20
207.5023030941
  0
VERTEX
  8
SURFACE
 62
7
  6
CONTINUOUS
 10
34.2568025738
 20
207.4579802451
  0
SEQEND
  0
LINE
  8
SURFACE
 62
7
  6
CONTINUOUS
 10
42.9186625296
 20
209.4386531577
 11
47.6370148658
 21
209.4395177095
  0
LINE
  8
SURFACE
 62
7
  6
CONTINUOUS
 10
106.8449419962
 20
209.8209710341
 11
102.12658966
 21
209.8201064823
  0
LINE
  8
AXES
 62
2
  6
CENTER
 10
106.5068022629
 20
106.9070021882
 11
106.5068022629
 21
253.4573304158
  0
POLYLINE
  8
SURFACE
 62
7
  6
CONTINUOUS
 66
1
 70
0
  0
VERTEX
  8
SURFACE
 62
7
  6
CONTINUOUS
 10
115.5068019735
 20
118.557952484
  0
VERTEX
  8
SURFACE
 62
7
  6
CONTINUOUS
 10
115.5057460908
 20
118.6058708371
  0
VERTEX
  8
SURFACE
 62
7
  6
CONTINUOUS
 10
115.4973994006
 20
118.7021439223
  0
VERTEX
  8
SURFACE
 62
7
  6
CONTINUOUS
 10
115.4802263098
 20
118.800007166
  0
VERTEX
  8
SURFACE
 62
7
  6
CONTINUOUS
 10
115.4540909803
 20
118.8973376019
  0
VERTEX
  8
SURFACE
 62
7
  6
CONTINUOUS
 10
115.4192138442
 20
118.9925618742
  0
VERTEX
  8
SURFACE
 62
7
  6
CONTINUOUS
 10
115.3762102707
 20
119.0841575052
  0
VERTEX
  8
SURFACE
 62
7
  6
CONTINUOUS
 10
115.3260113684
 20
119.1708588503
  0
VERTEX
  8
SURFACE
 62
7
  6
CONTINUOUS
 10
115.2698259447
 20
119.2516557097
  0
VERTEX
  8
SURFACE
 62
7
  6
CONTINUOUS
 10
115.2091818354
 20
119.3257022971
  0
VERTEX
  8
SURFACE
 62
7
  6
CONTINUOUS
 10
115.1451759188
 20
119.3930728205
  0
VERTEX
  8
SURFACE
 62
7
  6
CONTINUOUS
 10
115.0791756679
 20
119.4537060652
  0
VERTEX
  8
SURFACE
 62
7
  6
CONTINUOUS
 10
115.0116993297
 20
119.5083782829
  0
VERTEX
  8
SURFACE
 62
7
  6
CONTINUOUS
 10
114.9434682178
 20
119.5575755148
  0
VERTEX
  8
SURFACE
 62
7
  6
CONTINUOUS
 10
114.8743820216
 20
119.6022544596
  0
VERTEX
  8
SURFACE
 62
7
  6
CONTINUOUS
 10
114.8043752671
 20
119.6431351475
  0
VERTEX
  8
SURFACE
 62
7
  6
CONTINUOUS
 10
114.7331737699
 20
119.6809009654
  0
VERTEX
  8
SURFACE
 62
7
  6
CONTINUOUS
 10
114.6604089773
 20
119.7161390887
  0
VERTEX
  8
SURFACE
 62
7
  6
CONTINUOUS
 10
114.5857755496
 20
119.7492910943
  0
VERTEX
  8
SURFACE
 62
7
  6
CONTINUOUS
 10
114.5088980812
 20
119.7807439913
  0
VERTEX
  8
SURFACE
 62
7
  6
CONTINUOUS
 10
114.4294179996
 20
119.8108056321
  0
VERTEX
  8
SURFACE
 62
7
  6
CONTINUOUS
 10
114.3469708375
 20
119.8397294743
  0
VERTEX
  8
SURFACE
 62
7
  6
CONTINUOUS
 10
114.2611180638
 20
119.867746103
  0
VERTEX
  8
SURFACE
 62
7
  6
CONTINUOUS
 10
114.1713752329
 20
119.8950555938
  0
VERTEX
  8
SURFACE
 62
7
  6
CONTINUOUS
 10
114.0774031276
 20
119.921778565
  0
VERTEX
  8
SURFACE
 62
7
  6
CONTINUOUS
 10
113.9787891315
 20
119.9480320937
  0
VERTEX
  8
SURFACE
 62
7
  6
CONTINUOUS
 10
113.8752194953
 20
119.9738855599
  0
VERTEX
  8
SURFACE
 62
7
  6
CONTINUOUS
 10
113.7663356577
 20
119.9994041725
  0
VERTEX
  8
SURFACE
 62
7
  6
CONTINUOUS
 10
113.6518440563
 20
120.0246242989
  0
VERTEX
  8
SURFACE
 62
7
  6
CONTINUOUS
 10
113.5314231439
 20
120.0495781955
  0
VERTEX
  8
SURFACE
 62
7
  6
CONTINUOUS
 10
113.4048024278
 20
120.0742784279
  0
VERTEX
  8
SURFACE
 62
7
  6
CONTINUOUS
 10
113.2716909987
 20
120.0987344873
  0
VERTEX
  8
SURFACE
 62
7
  6
CONTINUOUS
 10
113.1318495439
 20
120.1229401652
  0
VERTEX
  8
SURFACE
 62
7
  6
CONTINUOUS
 10
112.9850274531
 20
120.1468865768
  0
VERTEX
  8
SURFACE
 62
7
  6
CONTINUOUS
 10
112.8310095565
 20
120.1705548471
  0
VERTEX
  8
SURFACE
 62
7
  6
CONTINUOUS
 10
112.6695790498
 20
120.1939230515
  0
VERTEX
  8
SURFACE
 62
7
  6
CONTINUOUS
 10
112.5005485441
 20
120.2169620328
  0
VERTEX
  8
SURFACE
 62
7
  6
CONTINUOUS
 10
112.3237620379
 20
120.2396362933
  0
VERTEX
  8
SURFACE
 62
7
  6
CONTINUOUS
 10
112.1389831241
 20
120.2619180957
  0
VERTEX
  8
SURFACE
 62
7
  6
CONTINUOUS
 10
111.9460338395
 20
120.2837690995
  0
VERTEX
  8
SURFACE
 62
7
  6
CONTINUOUS
 10
111.7446364512
 20
120.3051586367
  0
VERTEX
  8
SURFACE
 62
7
  6
CONTINUOUS
 10
111.5345437793
 20
120.3260476607
  0
VERTEX
  8
SURFACE
 62
7
  6
CONTINUOUS
 10
111.3155224113
 20
120.34639124
  0
VERTEX
  8
SURFACE
 62
7
  6
CONTINUOUS
 10
111.0873464441
 20
120.366139382
  0
VERTEX
  8
SURFACE
 62
7
  6
CONTINUOUS
 10
110.8498112097
 20
120.3852359951
  0
VERTEX
  8
SURFACE
 62
7
  6
CONTINUOUS
 10
110.602743932
 20
120.403618496
  0
VERTEX
  8
SURFACE
 62
7
  6
CONTINUOUS
 10
110.3459246297
 20
120.4212235537
  0
VERTEX
  8
SURFACE
 62
7
  6
CONTINUOUS
 10
110.0791903704
 20
120.4379790324
  0
VERTEX
  8
SURFACE
 62
7
  6
CONTINUOUS
 10
109.8023253522
 20
120.45381113
  0
VERTEX
  8
SURFACE
 62
7
  6
CONTINUOUS
 10
109.5151597246
 20
120.4686374795
  0
VERTEX
  8
SURFACE
 62
7
  6
CONTINUOUS
 10
109.217560025
 20
120.4823681421
  0
VERTEX
  8
SURFACE
 62
7
  6
CONTINUOUS
 10
108.9094301717
 20
120.4949058206
  0
VERTEX
  8
SURFACE
 62
7
  6
CONTINUOUS
 10
108.5907268991
 20
120.5061453722
  0
VERTEX
  8
SURFACE
 62
7
  6
CONTINUOUS
 10
108.2614588302
 20
120.5159742362
  0
VERTEX
  8
SURFACE
 62
7
  6
CONTINUOUS
 10
107.9216972996
 20
120.5242723072
  0
VERTEX
  8
SURFACE
 62
7
  6
CONTINUOUS
 10
107.5715819117
 20
120.5309121772
  0
VERTEX
  8
SURFACE
 62
7
  6
CONTINUOUS
 10
107.2113355951
 20
120.5357591665
  0
VERTEX
  8
SURFACE
 62
7
  6
CONTINUOUS
 10
106.8411343808
 20
120.538672526
  0
VERTEX
  8
SURFACE
 62
7
  6
CONTINUOUS
 10
102.1265896602
 20
120.5395177095
  0
SEQEND
  0
POLYLINE
  8
SURFACE
 62
7
  6
CONTINUOUS
 66
1
 70
0
  0
VERTEX
  8
SURFACE
 62
7
  6
CONTINUOUS
 10
115.5068019735
 20
143.957952484
  0
VERTEX
  8
SURFACE
 62
7
  6
CONTINUOUS
 10
115.5057460908
 20
144.0058708371
  0
VERTEX
  8
SURFACE
 62
7
  6
CONTINUOUS
 10
115.4973994006
 20
144.1021439223
  0
VERTEX
  8
SURFACE
 62
7
  6
CONTINUOUS
 10
115.4802263098
 20
144.200007166
  0
VERTEX
  8
SURFACE
 62
7
  6
CONTINUOUS
 10
115.4540909803
 20
144.2973376019
  0
VERTEX
  8
SURFACE
 62
7
  6
CONTINUOUS
 10
115.4192138442
 20
144.3925618742
  0
VERTEX
  8
SURFACE
 62
7
  6
CONTINUOUS
 10
115.3762102707
 20
144.4841575052
  0
VERTEX
  8
SURFACE
 62
7
  6
CONTINUOUS
 10
115.3260113684
 20
144.5708588503
  0
VERTEX
  8
SURFACE
 62
7
  6
CONTINUOUS
 10
115.2698259447
 20
144.6516557097
  0
VERTEX
  8
SURFACE
 62
7
  6
CONTINUOUS
 10
115.2091818354
 20
144.7257022971
  0
VERTEX
  8
SURFACE
 62
7
  6
CONTINUOUS
 10
115.1451759188
 20
144.7930728205
  0
VERTEX
  8
SURFACE
 62
7
  6
CONTINUOUS
 10
115.0791756679
 20
144.8537060652
  0
VERTEX
  8
SURFACE
 62
7
  6
CONTINUOUS
 10
115.0116993297
 20
144.9083782829
  0
VERTEX
  8
SURFACE
 62
7
  6
CONTINUOUS
 10
114.9434682178
 20
144.9575755148
  0
VERTEX
  8
SURFACE
 62
7
  6
CONTINUOUS
 10
114.8743820216
 20
145.0022544596
  0
VERTEX
  8
SURFACE
 62
7
  6
CONTINUOUS
 10
114.8043752671
 20
145.0431351475
  0
VERTEX
  8
SURFACE
 62
7
  6
CONTINUOUS
 10
114.7331737699
 20
145.0809009654
  0
VERTEX
  8
SURFACE
 62
7
  6
CONTINUOUS
 10
114.6604089773
 20
145.1161390887
  0
VERTEX
  8
SURFACE
 62
7
  6
CONTINUOUS
 10
114.5857755496
 20
145.1492910943
  0
VERTEX
  8
SURFACE
 62
7
  6
CONTINUOUS
 10
114.5088980812
 20
145.1807439913
  0
VERTEX
  8
SURFACE
 62
7
  6
CONTINUOUS
 10
114.4294179996
 20
145.2108056321
  0
VERTEX
  8
SURFACE
 62
7
  6
CONTINUOUS
 10
114.3469708375
 20
145.2397294743
  0
VERTEX
  8
SURFACE
 62
7
  6
CONTINUOUS
 10
114.2611180638
 20
145.267746103
  0
VERTEX
  8
SURFACE
 62
7
  6
CONTINUOUS
 10
114.1713752329
 20
145.2950555938
  0
VERTEX
  8
SURFACE
 62
7
  6
CONTINUOUS
 10
114.0774031276
 20
145.321778565
  0
VERTEX
  8
SURFACE
 62
7
  6
CONTINUOUS
 10
113.9787891315
 20
145.3480320937
  0
VERTEX
  8
SURFACE
 62
7
  6
CONTINUOUS
 10
113.8752194953
 20
145.3738855599
  0
VERTEX
  8
SURFACE
 62
7
  6
CONTINUOUS
 10
113.7663356577
 20
145.3994041725
  0
VERTEX
  8
SURFACE
 62
7
  6
CONTINUOUS
 10
113.6518440563
 20
145.4246242989
  0
VERTEX
  8
SURFACE
 62
7
  6
CONTINUOUS
 10
113.5314231439
 20
145.4495781955
  0
VERTEX
  8
SURFACE
 62
7
  6
CONTINUOUS
 10
113.4048024278
 20
145.4742784279
  0
VERTEX
  8
SURFACE
 62
7
  6
CONTINUOUS
 10
113.2716909987
 20
145.4987344873
  0
VERTEX
  8
SURFACE
 62
7
  6
CONTINUOUS
 10
113.1318495439
 20
145.5229401652
  0
VERTEX
  8
SURFACE
 62
7
  6
CONTINUOUS
 10
112.9850274531
 20
145.5468865768
  0
VERTEX
  8
SURFACE
 62
7
  6
CONTINUOUS
 10
112.8310095565
 20
145.5705548471
  0
VERTEX
  8
SURFACE
 62
7
  6
CONTINUOUS
 10
112.6695790498
 20
145.5939230515
  0
VERTEX
  8
SURFACE
 62
7
  6
CONTINUOUS
 10
112.5005485441
 20
145.6169620328
  0
VERTEX
  8
SURFACE
 62
7
  6
CONTINUOUS
 10
112.3237620379
 20
145.6396362933
  0
VERTEX
  8
SURFACE
 62
7
  6
CONTINUOUS
 10
112.1389831241
 20
145.6619180957
  0
VERTEX
  8
SURFACE
 62
7
  6
CONTINUOUS
 10
111.9460338395
 20
145.6837690995
  0
VERTEX
  8
SURFACE
 62
7
  6
CONTINUOUS
 10
111.7446364512
 20
145.7051586367
  0
VERTEX
  8
SURFACE
 62
7
  6
CONTINUOUS
 10
111.5345437793
 20
145.7260476607
  0
VERTEX
  8
SURFACE
 62
7
  6
CONTINUOUS
 10
111.3155224113
 20
145.74639124
  0
VERTEX
  8
SURFACE
 62
7
  6
CONTINUOUS
 10
111.0873464441
 20
145.766139382
  0
VERTEX
  8
SURFACE
 62
7
  6
CONTINUOUS
 10
110.8498112097
 20
145.7852359951
  0
VERTEX
  8
SURFACE
 62
7
  6
CONTINUOUS
 10
110.602743932
 20
145.803618496
  0
VERTEX
  8
SURFACE
 62
7
  6
CONTINUOUS
 10
110.3459246297
 20
145.8212235537
  0
VERTEX
  8
SURFACE
 62
7
  6
CONTINUOUS
 10
110.0791903704
 20
145.8379790324
  0
VERTEX
  8
SURFACE
 62
7
  6
CONTINUOUS
 10
109.8023253522
 20
145.85381113
  0
VERTEX
  8
SURFACE
 62
7
  6
CONTINUOUS
 10
109.5151597246
 20
145.8686374795
  0
VERTEX
  8
SURFACE
 62
7
  6
CONTINUOUS
 10
109.217560025
 20
145.8823681421
  0
VERTEX
  8
SURFACE
 62
7
  6
CONTINUOUS
 10
108.9094301717
 20
145.8949058206
  0
VERTEX
  8
SURFACE
 62
7
  6
CONTINUOUS
 10
108.5907268991
 20
145.9061453722
  0
VERTEX
  8
SURFACE
 62
7
  6
CONTINUOUS
 10
108.2614588302
 20
145.9159742362
  0
VERTEX
  8
SURFACE
 62
7
  6
CONTINUOUS
 10
107.9216972996
 20
145.9242723072
  0
VERTEX
  8
SURFACE
 62
7
  6
CONTINUOUS
 10
107.5715819117
 20
145.9309121772
  0
VERTEX
  8
SURFACE
 62
7
  6
CONTINUOUS
 10
107.2113355951
 20
145.9357591665
  0
VERTEX
  8
SURFACE
 62
7
  6
CONTINUOUS
 10
106.8411343808
 20
145.938672526
  0
VERTEX
  8
SURFACE
 62
7
  6
CONTINUOUS
 10
102.1265896602
 20
145.9395177095
  0
SEQEND
  0
POLYLINE
  8
SURFACE
 62
7
  6
CONTINUOUS
 66
1
 70
0
  0
VERTEX
  8
SURFACE
 62
7
  6
CONTINUOUS
 10
115.5068019735
 20
169.357952484
  0
VERTEX
  8
SURFACE
 62
7
  6
CONTINUOUS
 10
115.5057460908
 20
169.4058708371
  0
VERTEX
  8
SURFACE
 62
7
  6
CONTINUOUS
 10
115.4973994006
 20
169.5021439223
  0
VERTEX
  8
SURFACE
 62
7
  6
CONTINUOUS
 10
115.4802263098
 20
169.600007166
  0
VERTEX
  8
SURFACE
 62
7
  6
CONTINUOUS
 10
115.4540909803
 20
169.6973376019
  0
VERTEX
  8
SURFACE
 62
7
  6
CONTINUOUS
 10
115.4192138442
 20
169.7925618742
  0
VERTEX
  8
SURFACE
 62
7
  6
CONTINUOUS
 10
115.3762102707
 20
169.8841575052
  0
VERTEX
  8
SURFACE
 62
7
  6
CONTINUOUS
 10
115.3260113684
 20
169.9708588503
  0
VERTEX
  8
SURFACE
 62
7
  6
CONTINUOUS
 10
115.2698259447
 20
170.0516557097
  0
VERTEX
  8
SURFACE
 62
7
  6
CONTINUOUS
 10
115.2091818354
 20
170.1257022971
  0
VERTEX
  8
SURFACE
 62
7
  6
CONTINUOUS
 10
115.1451759188
 20
170.1930728205
  0
VERTEX
  8
SURFACE
 62
7
  6
CONTINUOUS
 10
115.0791756679
 20
170.2537060652
  0
VERTEX
  8
SURFACE
 62
7
  6
CONTINUOUS
 10
115.0116993297
 20
170.3083782829
  0
VERTEX
  8
SURFACE
 62
7
  6
CONTINUOUS
 10
114.9434682178
 20
170.3575755148
  0
VERTEX
  8
SURFACE
 62
7
  6
CONTINUOUS
 10
114.8743820216
 20
170.4022544596
  0
VERTEX
  8
SURFACE
 62
7
  6
CONTINUOUS
 10
114.8043752671
 20
170.4431351475
  0
VERTEX
  8
SURFACE
 62
7
  6
CONTINUOUS
 10
114.7331737699
 20
170.4809009654
  0
VERTEX
  8
SURFACE
 62
7
  6
CONTINUOUS
 10
114.6604089773
 20
170.5161390887
  0
VERTEX
  8
SURFACE
 62
7
  6
CONTINUOUS
 10
114.5857755496
 20
170.5492910943
  0
VERTEX
  8
SURFACE
 62
7
  6
CONTINUOUS
 10
114.5088980812
 20
170.5807439913
  0
VERTEX
  8
SURFACE
 62
7
  6
CONTINUOUS
 10
114.4294179996
 20
170.6108056321
  0
VERTEX
  8
SURFACE
 62
7
  6
CONTINUOUS
 10
114.3469708375
 20
170.6397294743
  0
VERTEX
  8
SURFACE
 62
7
  6
CONTINUOUS
 10
114.2611180638
 20
170.667746103
  0
VERTEX
  8
SURFACE
 62
7
  6
CONTINUOUS
 10
114.1713752329
 20
170.6950555938
  0
VERTEX
  8
SURFACE
 62
7
  6
CONTINUOUS
 10
114.0774031276
 20
170.721778565
  0
VERTEX
  8
SURFACE
 62
7
  6
CONTINUOUS
 10
113.9787891315
 20
170.7480320937
  0
VERTEX
  8
SURFACE
 62
7
  6
CONTINUOUS
 10
113.8752194953
 20
170.7738855599
  0
VERTEX
  8
SURFACE
 62
7
  6
CONTINUOUS
 10
113.7663356577
 20
170.7994041725
  0
VERTEX
  8
SURFACE
 62
7
  6
CONTINUOUS
 10
113.6518440563
 20
170.8246242989
  0
VERTEX
  8
SURFACE
 62
7
  6
CONTINUOUS
 10
113.5314231439
 20
170.8495781955
  0
VERTEX
  8
SURFACE
 62
7
  6
CONTINUOUS
 10
113.4048024278
 20
170.8742784279
  0
VERTEX
  8
SURFACE
 62
7
  6
CONTINUOUS
 10
113.2716909987
 20
170.8987344873
  0
VERTEX
  8
SURFACE
 62
7
  6
CONTINUOUS
 10
113.1318495439
 20
170.9229401652
  0
VERTEX
  8
SURFACE
 62
7
  6
CONTINUOUS
 10
112.9850274531
 20
170.9468865768
  0
VERTEX
  8
SURFACE
 62
7
  6
CONTINUOUS
 10
112.8310095565
 20
170.9705548471
  0
VERTEX
  8
SURFACE
 62
7
  6
CONTINUOUS
 10
112.6695790498
 20
170.9939230515
  0
VERTEX
  8
SURFACE
 62
7
  6
CONTINUOUS
 10
112.5005485441
 20
171.0169620328
  0
VERTEX
  8
SURFACE
 62
7
  6
CONTINUOUS
 10
112.3237620379
 20
171.0396362933
  0
VERTEX
  8
SURFACE
 62
7
  6
CONTINUOUS
 10
112.1389831241
 20
171.0619180957
  0
VERTEX
  8
SURFACE
 62
7
  6
CONTINUOUS
 10
111.9460338395
 20
171.0837690995
  0
VERTEX
  8
SURFACE
 62
7
  6
CONTINUOUS
 10
111.7446364512
 20
171.1051586367
  0
VERTEX
  8
SURFACE
 62
7
  6
CONTINUOUS
 10
111.5345437793
 20
171.1260476607
  0
VERTEX
  8
SURFACE
 62
7
  6
CONTINUOUS
 10
111.3155224113
 20
171.14639124
  0
VERTEX
  8
SURFACE
 62
7
  6
CONTINUOUS
 10
111.0873464441
 20
171.166139382
  0
VERTEX
  8
SURFACE
 62
7
  6
CONTINUOUS
 10
110.8498112097
 20
171.1852359951
  0
VERTEX
  8
SURFACE
 62
7
  6
CONTINUOUS
 10
110.602743932
 20
171.203618496
  0
VERTEX
  8
SURFACE
 62
7
  6
CONTINUOUS
 10
110.3459246297
 20
171.2212235537
  0
VERTEX
  8
SURFACE
 62
7
  6
CONTINUOUS
 10
110.0791903704
 20
171.2379790324
  0
VERTEX
  8
SURFACE
 62
7
  6
CONTINUOUS
 10
109.8023253522
 20
171.25381113
  0
VERTEX
  8
SURFACE
 62
7
  6
CONTINUOUS
 10
109.5151597246
 20
171.2686374795
  0
VERTEX
  8
SURFACE
 62
7
  6
CONTINUOUS
 10
109.217560025
 20
171.2823681421
  0
VERTEX
  8
SURFACE
 62
7
  6
CONTINUOUS
 10
108.9094301717
 20
171.2949058206
  0
VERTEX
  8
SURFACE
 62
7
  6
CONTINUOUS
 10
108.5907268991
 20
171.3061453722
  0
VERTEX
  8
SURFACE
 62
7
  6
CONTINUOUS
 10
108.2614588302
 20
171.3159742362
  0
VERTEX
  8
SURFACE
 62
7
  6
CONTINUOUS
 10
107.9216972996
 20
171.3242723072
  0
VERTEX
  8
SURFACE
 62
7
  6
CONTINUOUS
 10
107.5715819117
 20
171.3309121772
  0
VERTEX
  8
SURFACE
 62
7
  6
CONTINUOUS
 10
107.2113355951
 20
171.3357591665
  0
VERTEX
  8
SURFACE
 62
7
  6
CONTINUOUS
 10
106.8411343808
 20
171.338672526
  0
VERTEX
  8
SURFACE
 62
7
  6
CONTINUOUS
 10
102.1265896602
 20
171.3395177095
  0
SEQEND
  0
LINE
  8
0
 62
7
  6
CONTINUOUS
 10
115.5059248259
 20
137.5800838824
 11
115.4967562021
 21
137.9886704033
  0
LINE
  8
0
 62
7
  6
CONTINUOUS
 10
115.5065678525
 20
137.5342843697
 11
115.5053843484
 21
137.617973293
  0
LINE
  8
0
 62
7
  6
CONTINUOUS
 10
115.4979558041
 20
137.9577792976
 11
115.4947077436
 21
138.1242183283
  0
LINE
  8
0
 62
7
  6
CONTINUOUS
 10
115.4956399169
 20
138.10467936
 11
115.4944045272
 21
138.2512274735
  0
LINE
  8
0
 62
7
  6
CONTINUOUS
 10
115.5067994149
 20
137.4964742444
 11
115.5063336717
 21
137.5586416694
  0
LINE
  8
0
 62
7
  6
CONTINUOUS
 10
115.4940349596
 20
138.1929237766
 11
115.4942326496
 21
138.3298120959
  0
LINE
  8
SURFACE
 62
7
  6
CONTINUOUS
 10
115.5068019847
 20
118.557952484
 11
115.5068022629
 21
118.557212187
  0
LINE
  8
SURFACE
 62
7
  6
CONTINUOUS
 10
115.5068019847
 20
143.957952484
 11
115.5068022629
 21
143.957212187
  0
LINE
  8
SURFACE
 62
7
  6
CONTINUOUS
 10
115.5068019847
 20
220.157952484
 11
115.5068022629
 21
220.157212187
  0
LINE
  8
0
 62
7
  6
CONTINUOUS
 10
115.4944045272
 20
214.4512274735
 11
115.4942326496
 21
217.4298120949
  0
LINE
  8
SURFACE
 62
7
  6
CONTINUOUS
 10
115.5068019847
 20
245.557952484
 11
115.5068022629
 21
237.2024120049
  0
LINE
  8
SURFACE
 62
7
  6
CONTINUOUS
 10
115.5068019847
 20
194.757952484
 11
115.5068022629
 21
186.4024120049
  0
LINE
  8
SURFACE
 62
7
  6
CONTINUOUS
 10
115.5068019847
 20
169.357952484
 11
115.5068022629
 21
161.0024120049
  0
LINE
  8
0
 62
7
  6
CONTINUOUS
 10
115.5068022629
 20
118.557212187
 11
115.5068022629
 21
109.7298120959
  0
LINE
  8
0
 62
7
  6
CONTINUOUS
 10
115.5068022629
 20
135.6024120049
 11
115.5067880634
 21
137.5022586779
  0
LINE
  8
0
 62
7
  6
CONTINUOUS
 10
115.5068022629
 20
211.8024120049
 11
115.5067880634
 21
213.7022586779
  0
LINE
  8
SURFACE
 62
7
  6
CONTINUOUS
 10
115.5068019521
 20
237.2016439467
 11
115.5068022547
 21
237.2024120049
  0
LINE
  8
SURFACE
 62
7
  6
CONTINUOUS
 10
115.5068019521
 20
211.8016439467
 11
115.5068022547
 21
211.8024120049
  0
LINE
  8
SURFACE
 62
7
  6
CONTINUOUS
 10
115.5068019521
 20
186.4016439467
 11
115.5068022547
 21
186.4024120049
  0
LINE
  8
SURFACE
 62
7
  6
CONTINUOUS
 10
115.5068019521
 20
161.0016439467
 11
115.5068022547
 21
161.0024120049
  0
LINE
  8
SURFACE
 62
7
  6
CONTINUOUS
 10
115.5068019521
 20
135.6016439467
 11
115.5068022547
 21
135.6024120049
  0
LINE
  8
0
 62
7
  6
CONTINUOUS
 10
115.4942326496
 20
138.3298120959
 11
115.4943815882
 21
141.3026128326
  0
LINE
  8
0
 62
7
  6
CONTINUOUS
 10
115.506777414
 20
218.2536444244
 11
115.5068022629
 21
220.157212187
  0
LINE
  8
0
 62
7
  6
CONTINUOUS
 10
115.506777414
 20
142.0536444244
 11
115.5068022629
 21
143.957212187
  0
LINE
  8
0
 62
7
  6
CONTINUOUS
 10
115.4934932606
 20
217.4298120959
 11
115.4938163647
 21
217.5354140856
  0
LINE
  8
0
 62
7
  6
CONTINUOUS
 10
115.5062857528
 20
218.1970653148
 11
115.5067997069
 21
218.2632929683
  0
LINE
  8
0
 62
7
  6
CONTINUOUS
 10
115.4943815882
 20
217.5026128326
 11
115.4955706941
 21
217.6492577111
  0
LINE
  8
0
 62
7
  6
CONTINUOUS
 10
115.5062238453
 20
218.198232675
 11
115.5066428795
 21
218.232916905
  0
LINE
  8
0
 62
7
  6
CONTINUOUS
 10
115.4946963823
 20
217.6345281942
 11
115.496012969
 21
217.7282913896
  0
LINE
  8
0
 62
7
  6
CONTINUOUS
 10
115.4965912827
 20
217.7230507891
 11
115.4993068974
 21
217.8688438279
  0
LINE
  8
0
 62
7
  6
CONTINUOUS
 10
115.5049270237
 20
218.1285307171
 11
115.5062238453
 21
218.198232675
  0
LINE
  8
0
 62
7
  6
CONTINUOUS
 10
115.4985783642
 20
217.8611195213
 11
115.5053049123
 21
218.1374586428
  0
POLYLINE
  8
SURFACE
 62
7
  6
CONTINUOUS
 66
1
 70
0
  0
VERTEX
  8
SURFACE
 62
7
  6
CONTINUOUS
 10
115.5068019735
 20
194.757952484
  0
VERTEX
  8
SURFACE
 62
7
  6
CONTINUOUS
 10
115.5057460908
 20
194.8058708371
  0
VERTEX
  8
SURFACE
 62
7
  6
CONTINUOUS
 10
115.4973994006
 20
194.9021439223
  0
VERTEX
  8
SURFACE
 62
7
  6
CONTINUOUS
 10
115.4802263098
 20
195.000007166
  0
VERTEX
  8
SURFACE
 62
7
  6
CONTINUOUS
 10
115.4540909803
 20
195.0973376019
  0
VERTEX
  8
SURFACE
 62
7
  6
CONTINUOUS
 10
115.4192138442
 20
195.1925618742
  0
VERTEX
  8
SURFACE
 62
7
  6
CONTINUOUS
 10
115.3762102707
 20
195.2841575052
  0
VERTEX
  8
SURFACE
 62
7
  6
CONTINUOUS
 10
115.3260113684
 20
195.3708588503
  0
VERTEX
  8
SURFACE
 62
7
  6
CONTINUOUS
 10
115.2698259447
 20
195.4516557097
  0
VERTEX
  8
SURFACE
 62
7
  6
CONTINUOUS
 10
115.2091818354
 20
195.5257022971
  0
VERTEX
  8
SURFACE
 62
7
  6
CONTINUOUS
 10
115.1451759188
 20
195.5930728205
  0
VERTEX
  8
SURFACE
 62
7
  6
CONTINUOUS
 10
115.0791756679
 20
195.6537060652
  0
VERTEX
  8
SURFACE
 62
7
  6
CONTINUOUS
 10
115.0116993297
 20
195.7083782829
  0
VERTEX
  8
SURFACE
 62
7
  6
CONTINUOUS
 10
114.9434682178
 20
195.7575755148
  0
VERTEX
  8
SURFACE
 62
7
  6
CONTINUOUS
 10
114.8743820216
 20
195.8022544596
  0
VERTEX
  8
SURFACE
 62
7
  6
CONTINUOUS
 10
114.8043752671
 20
195.8431351475
  0
VERTEX
  8
SURFACE
 62
7
  6
CONTINUOUS
 10
114.7331737699
 20
195.8809009654
  0
VERTEX
  8
SURFACE
 62
7
  6
CONTINUOUS
 10
114.6604089773
 20
195.9161390887
  0
VERTEX
  8
SURFACE
 62
7
  6
CONTINUOUS
 10
114.5857755496
 20
195.9492910943
  0
VERTEX
  8
SURFACE
 62
7
  6
CONTINUOUS
 10
114.5088980812
 20
195.9807439913
  0
VERTEX
  8
SURFACE
 62
7
  6
CONTINUOUS
 10
114.4294179996
 20
196.0108056321
  0
VERTEX
  8
SURFACE
 62
7
  6
CONTINUOUS
 10
114.3469708375
 20
196.0397294743
  0
VERTEX
  8
SURFACE
 62
7
  6
CONTINUOUS
 10
114.2611180638
 20
196.067746103
  0
VERTEX
  8
SURFACE
 62
7
  6
CONTINUOUS
 10
114.1713752329
 20
196.0950555938
  0
VERTEX
  8
SURFACE
 62
7
  6
CONTINUOUS
 10
114.0774031276
 20
196.121778565
  0
VERTEX
  8
SURFACE
 62
7
  6
CONTINUOUS
 10
113.9787891315
 20
196.1480320937
  0
VERTEX
  8
SURFACE
 62
7
  6
CONTINUOUS
 10
113.8752194953
 20
196.1738855599
  0
VERTEX
  8
SURFACE
 62
7
  6
CONTINUOUS
 10
113.7663356577
 20
196.1994041725
  0
VERTEX
  8
SURFACE
 62
7
  6
CONTINUOUS
 10
113.6518440563
 20
196.2246242989
  0
VERTEX
  8
SURFACE
 62
7
  6
CONTINUOUS
 10
113.5314231439
 20
196.2495781955
  0
VERTEX
  8
SURFACE
 62
7
  6
CONTINUOUS
 10
113.4048024278
 20
196.2742784279
  0
VERTEX
  8
SURFACE
 62
7
  6
CONTINUOUS
 10
113.2716909987
 20
196.2987344873
  0
VERTEX
  8
SURFACE
 62
7
  6
CONTINUOUS
 10
113.1318495439
 20
196.3229401652
  0
VERTEX
  8
SURFACE
 62
7
  6
CONTINUOUS
 10
112.9850274531
 20
196.3468865768
  0
VERTEX
  8
SURFACE
 62
7
  6
CONTINUOUS
 10
112.8310095565
 20
196.3705548471
  0
VERTEX
  8
SURFACE
 62
7
  6
CONTINUOUS
 10
112.6695790498
 20
196.3939230515
  0
VERTEX
  8
SURFACE
 62
7
  6
CONTINUOUS
 10
112.5005485441
 20
196.4169620328
  0
VERTEX
  8
SURFACE
 62
7
  6
CONTINUOUS
 10
112.3237620379
 20
196.4396362933
  0
VERTEX
  8
SURFACE
 62
7
  6
CONTINUOUS
 10
112.1389831241
 20
196.4619180957
  0
VERTEX
  8
SURFACE
 62
7
  6
CONTINUOUS
 10
111.9460338395
 20
196.4837690995
  0
VERTEX
  8
SURFACE
 62
7
  6
CONTINUOUS
 10
111.7446364512
 20
196.5051586367
  0
VERTEX
  8
SURFACE
 62
7
  6
CONTINUOUS
 10
111.5345437793
 20
196.5260476607
  0
VERTEX
  8
SURFACE
 62
7
  6
CONTINUOUS
 10
111.3155224113
 20
196.54639124
  0
VERTEX
  8
SURFACE
 62
7
  6
CONTINUOUS
 10
111.0873464441
 20
196.566139382
  0
VERTEX
  8
SURFACE
 62
7
  6
CONTINUOUS
 10
110.8498112097
 20
196.5852359951
  0
VERTEX
  8
SURFACE
 62
7
  6
CONTINUOUS
 10
110.602743932
 20
196.603618496
  0
VERTEX
  8
SURFACE
 62
7
  6
CONTINUOUS
 10
110.3459246297
 20
196.6212235537
  0
VERTEX
  8
SURFACE
 62
7
  6
CONTINUOUS
 10
110.0791903704
 20
196.6379790324
  0
VERTEX
  8
SURFACE
 62
7
  6
CONTINUOUS
 10
109.8023253522
 20
196.65381113
  0
VERTEX
  8
SURFACE
 62
7
  6
CONTINUOUS
 10
109.5151597246
 20
196.6686374795
  0
VERTEX
  8
SURFACE
 62
7
  6
CONTINUOUS
 10
109.217560025
 20
196.6823681421
  0
VERTEX
  8
SURFACE
 62
7
  6
CONTINUOUS
 10
108.9094301717
 20
196.6949058206
  0
VERTEX
  8
SURFACE
 62
7
  6
CONTINUOUS
 10
108.5907268991
 20
196.7061453722
  0
VERTEX
  8
SURFACE
 62
7
  6
CONTINUOUS
 10
108.2614588302
 20
196.7159742362
  0
VERTEX
  8
SURFACE
 62
7
  6
CONTINUOUS
 10
107.9216972996
 20
196.7242723072
  0
VERTEX
  8
SURFACE
 62
7
  6
CONTINUOUS
 10
107.5715819117
 20
196.7309121772
  0
VERTEX
  8
SURFACE
 62
7
  6
CONTINUOUS
 10
107.2113355951
 20
196.7357591665
  0
VERTEX
  8
SURFACE
 62
7
  6
CONTINUOUS
 10
106.8411343808
 20
196.738672526
  0
VERTEX
  8
SURFACE
 62
7
  6
CONTINUOUS
 10
102.1265896602
 20
196.7395177095
  0
SEQEND
  0
POLYLINE
  8
SURFACE
 62
7
  6
CONTINUOUS
 66
1
 70
0
  0
VERTEX
  8
SURFACE
 62
7
  6
CONTINUOUS
 10
115.5068019735
 20
220.157952484
  0
VERTEX
  8
SURFACE
 62
7
  6
CONTINUOUS
 10
115.5057460908
 20
220.2058708371
  0
VERTEX
  8
SURFACE
 62
7
  6
CONTINUOUS
 10
115.4973994006
 20
220.3021439223
  0
VERTEX
  8
SURFACE
 62
7
  6
CONTINUOUS
 10
115.4802263098
 20
220.400007166
  0
VERTEX
  8
SURFACE
 62
7
  6
CONTINUOUS
 10
115.4540909803
 20
220.4973376019
  0
VERTEX
  8
SURFACE
 62
7
  6
CONTINUOUS
 10
115.4192138442
 20
220.5925618742
  0
VERTEX
  8
SURFACE
 62
7
  6
CONTINUOUS
 10
115.3762102707
 20
220.6841575052
  0
VERTEX
  8
SURFACE
 62
7
  6
CONTINUOUS
 10
115.3260113684
 20
220.7708588503
  0
VERTEX
  8
SURFACE
 62
7
  6
CONTINUOUS
 10
115.2698259447
 20
220.8516557097
  0
VERTEX
  8
SURFACE
 62
7
  6
CONTINUOUS
 10
115.2091818354
 20
220.9257022971
  0
VERTEX
  8
SURFACE
 62
7
  6
CONTINUOUS
 10
115.1451759188
 20
220.9930728205
  0
VERTEX
  8
SURFACE
 62
7
  6
CONTINUOUS
 10
115.0791756679
 20
221.0537060652
  0
VERTEX
  8
SURFACE
 62
7
  6
CONTINUOUS
 10
115.0116993297
 20
221.1083782829
  0
VERTEX
  8
SURFACE
 62
7
  6
CONTINUOUS
 10
114.9434682178
 20
221.1575755148
  0
VERTEX
  8
SURFACE
 62
7
  6
CONTINUOUS
 10
114.8743820216
 20
221.2022544596
  0
VERTEX
  8
SURFACE
 62
7
  6
CONTINUOUS
 10
114.8043752671
 20
221.2431351475
  0
VERTEX
  8
SURFACE
 62
7
  6
CONTINUOUS
 10
114.7331737699
 20
221.2809009654
  0
VERTEX
  8
SURFACE
 62
7
  6
CONTINUOUS
 10
114.6604089773
 20
221.3161390887
  0
VERTEX
  8
SURFACE
 62
7
  6
CONTINUOUS
 10
114.5857755496
 20
221.3492910943
  0
VERTEX
  8
SURFACE
 62
7
  6
CONTINUOUS
 10
114.5088980812
 20
221.3807439913
  0
VERTEX
  8
SURFACE
 62
7
  6
CONTINUOUS
 10
114.4294179996
 20
221.4108056321
  0
VERTEX
  8
SURFACE
 62
7
  6
CONTINUOUS
 10
114.3469708375
 20
221.4397294743
  0
VERTEX
  8
SURFACE
 62
7
  6
CONTINUOUS
 10
114.2611180638
 20
221.467746103
  0
VERTEX
  8
SURFACE
 62
7
  6
CONTINUOUS
 10
114.1713752329
 20
221.4950555938
  0
VERTEX
  8
SURFACE
 62
7
  6
CONTINUOUS
 10
114.0774031276
 20
221.521778565
  0
VERTEX
  8
SURFACE
 62
7
  6
CONTINUOUS
 10
113.9787891315
 20
221.5480320937
  0
VERTEX
  8
SURFACE
 62
7
  6
CONTINUOUS
 10
113.8752194953
 20
221.5738855599
  0
VERTEX
  8
SURFACE
 62
7
  6
CONTINUOUS
 10
113.7663356577
 20
221.5994041725
  0
VERTEX
  8
SURFACE
 62
7
  6
CONTINUOUS
 10
113.6518440563
 20
221.6246242989
  0
VERTEX
  8
SURFACE
 62
7
  6
CONTINUOUS
 10
113.5314231439
 20
221.6495781955
  0
VERTEX
  8
SURFACE
 62
7
  6
CONTINUOUS
 10
113.4048024278
 20
221.6742784279
  0
VERTEX
  8
SURFACE
 62
7
  6
CONTINUOUS
 10
113.2716909987
 20
221.6987344873
  0
VERTEX
  8
SURFACE
 62
7
  6
CONTINUOUS
 10
113.1318495439
 20
221.7229401652
  0
VERTEX
  8
SURFACE
 62
7
  6
CONTINUOUS
 10
112.9850274531
 20
221.7468865768
  0
VERTEX
  8
SURFACE
 62
7
  6
CONTINUOUS
 10
112.8310095565
 20
221.7705548471
  0
VERTEX
  8
SURFACE
 62
7
  6
CONTINUOUS
 10
112.6695790498
 20
221.7939230515
  0
VERTEX
  8
SURFACE
 62
7
  6
CONTINUOUS
 10
112.5005485441
 20
221.8169620328
  0
VERTEX
  8
SURFACE
 62
7
  6
CONTINUOUS
 10
112.3237620379
 20
221.8396362933
  0
VERTEX
  8
SURFACE
 62
7
  6
CONTINUOUS
 10
112.1389831241
 20
221.8619180957
  0
VERTEX
  8
SURFACE
 62
7
  6
CONTINUOUS
 10
111.9460338395
 20
221.8837690995
  0
VERTEX
  8
SURFACE
 62
7
  6
CONTINUOUS
 10
111.7446364512
 20
221.9051586367
  0
VERTEX
  8
SURFACE
 62
7
  6
CONTINUOUS
 10
111.5345437793
 20
221.9260476607
  0
VERTEX
  8
SURFACE
 62
7
  6
CONTINUOUS
 10
111.3155224113
 20
221.94639124
  0
VERTEX
  8
SURFACE
 62
7
  6
CONTINUOUS
 10
111.0873464441
 20
221.966139382
  0
VERTEX
  8
SURFACE
 62
7
  6
CONTINUOUS
 10
110.8498112097
 20
221.9852359951
  0
VERTEX
  8
SURFACE
 62
7
  6
CONTINUOUS
 10
110.602743932
 20
222.003618496
  0
VERTEX
  8
SURFACE
 62
7
  6
CONTINUOUS
 10
110.3459246297
 20
222.0212235537
  0
VERTEX
  8
SURFACE
 62
7
  6
CONTINUOUS
 10
110.0791903704
 20
222.0379790324
  0
VERTEX
  8
SURFACE
 62
7
  6
CONTINUOUS
 10
109.8023253522
 20
222.05381113
  0
VERTEX
  8
SURFACE
 62
7
  6
CONTINUOUS
 10
109.5151597246
 20
222.0686374795
  0
VERTEX
  8
SURFACE
 62
7
  6
CONTINUOUS
 10
109.217560025
 20
222.0823681421
  0
VERTEX
  8
SURFACE
 62
7
  6
CONTINUOUS
 10
108.9094301717
 20
222.0949058206
  0
VERTEX
  8
SURFACE
 62
7
  6
CONTINUOUS
 10
108.5907268991
 20
222.1061453722
  0
VERTEX
  8
SURFACE
 62
7
  6
CONTINUOUS
 10
108.2614588302
 20
222.1159742362
  0
VERTEX
  8
SURFACE
 62
7
  6
CONTINUOUS
 10
107.9216972996
 20
222.1242723072
  0
VERTEX
  8
SURFACE
 62
7
  6
CONTINUOUS
 10
107.5715819117
 20
222.1309121772
  0
VERTEX
  8
SURFACE
 62
7
  6
CONTINUOUS
 10
107.2113355951
 20
222.1357591665
  0
VERTEX
  8
SURFACE
 62
7
  6
CONTINUOUS
 10
106.8411343808
 20
222.138672526
  0
VERTEX
  8
SURFACE
 62
7
  6
CONTINUOUS
 10
102.1265896602
 20
222.1395177095
  0
SEQEND
  0
POLYLINE
  8
SURFACE
 62
7
  6
CONTINUOUS
 66
1
 70
0
  0
VERTEX
  8
SURFACE
 62
7
  6
CONTINUOUS
 10
115.5068019735
 20
245.557952484
  0
VERTEX
  8
SURFACE
 62
7
  6
CONTINUOUS
 10
115.5057460908
 20
245.6058708371
  0
VERTEX
  8
SURFACE
 62
7
  6
CONTINUOUS
 10
115.4973994006
 20
245.7021439223
  0
VERTEX
  8
SURFACE
 62
7
  6
CONTINUOUS
 10
115.4802263098
 20
245.800007166
  0
VERTEX
  8
SURFACE
 62
7
  6
CONTINUOUS
 10
115.4540909803
 20
245.8973376019
  0
VERTEX
  8
SURFACE
 62
7
  6
CONTINUOUS
 10
115.4192138442
 20
245.9925618742
  0
VERTEX
  8
SURFACE
 62
7
  6
CONTINUOUS
 10
115.3762102707
 20
246.0841575052
  0
VERTEX
  8
SURFACE
 62
7
  6
CONTINUOUS
 10
115.3260113684
 20
246.1708588503
  0
VERTEX
  8
SURFACE
 62
7
  6
CONTINUOUS
 10
115.2698259447
 20
246.2516557097
  0
VERTEX
  8
SURFACE
 62
7
  6
CONTINUOUS
 10
115.2091818354
 20
246.3257022971
  0
VERTEX
  8
SURFACE
 62
7
  6
CONTINUOUS
 10
115.1451759188
 20
246.3930728205
  0
VERTEX
  8
SURFACE
 62
7
  6
CONTINUOUS
 10
115.0791756679
 20
246.4537060652
  0
VERTEX
  8
SURFACE
 62
7
  6
CONTINUOUS
 10
115.0116993297
 20
246.5083782829
  0
VERTEX
  8
SURFACE
 62
7
  6
CONTINUOUS
 10
114.9434682178
 20
246.5575755148
  0
VERTEX
  8
SURFACE
 62
7
  6
CONTINUOUS
 10
114.8743820216
 20
246.6022544596
  0
VERTEX
  8
SURFACE
 62
7
  6
CONTINUOUS
 10
114.8043752671
 20
246.6431351475
  0
VERTEX
  8
SURFACE
 62
7
  6
CONTINUOUS
 10
114.7331737699
 20
246.6809009654
  0
VERTEX
  8
SURFACE
 62
7
  6
CONTINUOUS
 10
114.6604089773
 20
246.7161390887
  0
VERTEX
  8
SURFACE
 62
7
  6
CONTINUOUS
 10
114.5857755496
 20
246.7492910943
  0
VERTEX
  8
SURFACE
 62
7
  6
CONTINUOUS
 10
114.5088980812
 20
246.7807439913
  0
VERTEX
  8
SURFACE
 62
7
  6
CONTINUOUS
 10
114.4294179996
 20
246.8108056321
  0
VERTEX
  8
SURFACE
 62
7
  6
CONTINUOUS
 10
114.3469708375
 20
246.8397294743
  0
VERTEX
  8
SURFACE
 62
7
  6
CONTINUOUS
 10
114.2611180638
 20
246.867746103
  0
VERTEX
  8
SURFACE
 62
7
  6
CONTINUOUS
 10
114.1713752329
 20
246.8950555938
  0
VERTEX
  8
SURFACE
 62
7
  6
CONTINUOUS
 10
114.0774031276
 20
246.921778565
  0
VERTEX
  8
SURFACE
 62
7
  6
CONTINUOUS
 10
113.9787891315
 20
246.9480320937
  0
VERTEX
  8
SURFACE
 62
7
  6
CONTINUOUS
 10
113.8752194953
 20
246.9738855599
  0
VERTEX
  8
SURFACE
 62
7
  6
CONTINUOUS
 10
113.7663356577
 20
246.9994041725
  0
VERTEX
  8
SURFACE
 62
7
  6
CONTINUOUS
 10
113.6518440563
 20
247.0246242989
  0
VERTEX
  8
SURFACE
 62
7
  6
CONTINUOUS
 10
113.5314231439
 20
247.0495781955
  0
VERTEX
  8
SURFACE
 62
7
  6
CONTINUOUS
 10
113.4048024278
 20
247.0742784279
  0
VERTEX
  8
SURFACE
 62
7
  6
CONTINUOUS
 10
113.2716909987
 20
247.0987344873
  0
VERTEX
  8
SURFACE
 62
7
  6
CONTINUOUS
 10
113.1318495439
 20
247.1229401652
  0
VERTEX
  8
SURFACE
 62
7
  6
CONTINUOUS
 10
112.9850274531
 20
247.1468865768
  0
VERTEX
  8
SURFACE
 62
7
  6
CONTINUOUS
 10
112.8310095565
 20
247.1705548471
  0
VERTEX
  8
SURFACE
 62
7
  6
CONTINUOUS
 10
112.6695790498
 20
247.1939230515
  0
VERTEX
  8
SURFACE
 62
7
  6
CONTINUOUS
 10
112.5005485441
 20
247.2169620328
  0
VERTEX
  8
SURFACE
 62
7
  6
CONTINUOUS
 10
112.3237620379
 20
247.2396362933
  0
VERTEX
  8
SURFACE
 62
7
  6
CONTINUOUS
 10
112.1389831241
 20
247.2619180957
  0
VERTEX
  8
SURFACE
 62
7
  6
CONTINUOUS
 10
111.9460338395
 20
247.2837690995
  0
VERTEX
  8
SURFACE
 62
7
  6
CONTINUOUS
 10
111.7446364512
 20
247.3051586367
  0
VERTEX
  8
SURFACE
 62
7
  6
CONTINUOUS
 10
111.5345437793
 20
247.3260476607
  0
VERTEX
  8
SURFACE
 62
7
  6
CONTINUOUS
 10
111.3155224113
 20
247.34639124
  0
VERTEX
  8
SURFACE
 62
7
  6
CONTINUOUS
 10
111.0873464441
 20
247.366139382
  0
VERTEX
  8
SURFACE
 62
7
  6
CONTINUOUS
 10
110.8498112097
 20
247.3852359951
  0
VERTEX
  8
SURFACE
 62
7
  6
CONTINUOUS
 10
110.602743932
 20
247.403618496
  0
VERTEX
  8
SURFACE
 62
7
  6
CONTINUOUS
 10
110.3459246297
 20
247.4212235537
  0
VERTEX
  8
SURFACE
 62
7
  6
CONTINUOUS
 10
110.0791903704
 20
247.4379790324
  0
VERTEX
  8
SURFACE
 62
7
  6
CONTINUOUS
 10
109.8023253522
 20
247.45381113
  0
VERTEX
  8
SURFACE
 62
7
  6
CONTINUOUS
 10
109.5151597246
 20
247.4686374795
  0
VERTEX
  8
SURFACE
 62
7
  6
CONTINUOUS
 10
109.217560025
 20
247.4823681421
  0
VERTEX
  8
SURFACE
 62
7
  6
CONTINUOUS
 10
108.9094301717
 20
247.4949058206
  0
VERTEX
  8
SURFACE
 62
7
  6
CONTINUOUS
 10
108.5907268991
 20
247.5061453722
  0
VERTEX
  8
SURFACE
 62
7
  6
CONTINUOUS
 10
108.2614588302
 20
247.5159742362
  0
VERTEX
  8
SURFACE
 62
7
  6
CONTINUOUS
 10
107.9216972996
 20
247.5242723072
  0
VERTEX
  8
SURFACE
 62
7
  6
CONTINUOUS
 10
107.5715819117
 20
247.5309121772
  0
VERTEX
  8
SURFACE
 62
7
  6
CONTINUOUS
 10
107.2113355951
 20
247.5357591665
  0
VERTEX
  8
SURFACE
 62
7
  6
CONTINUOUS
 10
106.8411343808
 20
247.538672526
  0
VERTEX
  8
SURFACE
 62
7
  6
CONTINUOUS
 10
102.1265896602
 20
247.5395177095
  0
SEQEND
  0
LINE
  8
0
 62
7
  6
CONTINUOUS
 10
115.5053843484
 20
213.817973293
 11
115.4980559476
 21
214.1227974251
  0
LINE
  8
0
 62
7
  6
CONTINUOUS
 10
115.4994174634
 20
214.0855682663
 11
115.4956237719
 21
214.2559765315
  0
LINE
  8
0
 62
7
  6
CONTINUOUS
 10
115.5063336717
 20
213.7586416694
 11
115.5049574321
 21
213.8296865236
  0
LINE
  8
0
 62
7
  6
CONTINUOUS
 10
115.5065678525
 20
213.7342843697
 11
115.5059248259
 21
213.7800838824
  0
LINE
  8
0
 62
7
  6
CONTINUOUS
 10
115.4966781566
 20
214.2310117078
 11
115.4940349596
 21
214.3929237766
  0
LINE
  8
0
 62
7
  6
CONTINUOUS
 10
115.5067994149
 20
213.6964742444
 11
115.5063336717
 21
213.7586416694
  0
LINE
  8
0
 62
7
  6
CONTINUOUS
 10
115.4948764937
 20
214.3782552222
 11
115.4936255094
 21
214.461375302
  0
LINE
  8
0
 62
7
  6
CONTINUOUS
 10
115.4935829756
 20
141.2834240759
 11
115.4941937029
 21
141.3857110645
  0
LINE
  8
0
 62
7
  6
CONTINUOUS
 10
115.5062857528
 20
141.9970653148
 11
115.5067997069
 21
142.0632929683
  0
LINE
  8
0
 62
7
  6
CONTINUOUS
 10
115.5062238453
 20
141.998232675
 11
115.5066428795
 21
142.032916905
  0
LINE
  8
0
 62
7
  6
CONTINUOUS
 10
115.4948286523
 20
141.3756076956
 11
115.4965912827
 21
141.5230507891
  0
LINE
  8
0
 62
7
  6
CONTINUOUS
 10
115.4953062881
 20
141.4820196306
 11
115.4976590713
 21
141.6176480788
  0
LINE
  8
0
 62
7
  6
CONTINUOUS
 10
115.5049270237
 20
141.9285307171
 11
115.5062238453
 21
141.998232675
  0
LINE
  8
0
 62
7
  6
CONTINUOUS
 10
115.497854665
 20
141.5964423961
 11
115.5053049123
 21
141.9374586428
  0
POLYLINE
  8
SURFACE
 62
7
  6
CONTINUOUS
 66
1
 70
0
  0
VERTEX
  8
SURFACE
 62
7
  6
CONTINUOUS
 10
106.8449419962
 20
235.2209710341
  0
VERTEX
  8
SURFACE
 62
7
  6
CONTINUOUS
 10
107.2152156066
 20
235.2239066158
  0
VERTEX
  8
SURFACE
 62
7
  6
CONTINUOUS
 10
107.5755226807
 20
235.2287761066
  0
VERTEX
  8
SURFACE
 62
7
  6
CONTINUOUS
 10
107.9256874896
 20
235.2354386555
  0
VERTEX
  8
SURFACE
 62
7
  6
CONTINUOUS
 10
108.2654873859
 20
235.2437594815
  0
VERTEX
  8
SURFACE
 62
7
  6
CONTINUOUS
 10
108.5947832365
 20
235.2536110866
  0
VERTEX
  8
SURFACE
 62
7
  6
CONTINUOUS
 10
108.9135041467
 20
235.2648732877
  0
VERTEX
  8
SURFACE
 62
7
  6
CONTINUOUS
 10
109.2216420605
 20
235.2774334572
  0
VERTEX
  8
SURFACE
 62
7
  6
CONTINUOUS
 10
109.5192408024
 20
235.2911863991
  0
VERTEX
  8
SURFACE
 62
7
  6
CONTINUOUS
 10
109.8063969831
 20
235.30603477
  0
VERTEX
  8
SURFACE
 62
7
  6
CONTINUOUS
 10
110.0832446069
 20
235.3218885953
  0
VERTEX
  8
SURFACE
 62
7
  6
CONTINUOUS
 10
110.3499540361
 20
235.338665482
  0
VERTEX
  8
SURFACE
 62
7
  6
CONTINUOUS
 10
110.6067416052
 20
235.3562916112
  0
VERTEX
  8
SURFACE
 62
7
  6
CONTINUOUS
 10
110.8537706717
 20
235.3746948266
  0
VERTEX
  8
SURFACE
 62
7
  6
CONTINUOUS
 10
111.0912616076
 20
235.3938117851
  0
VERTEX
  8
SURFACE
 62
7
  6
CONTINUOUS
 10
111.3193877706
 20
235.4135799062
  0
VERTEX
  8
SURFACE
 62
7
  6
CONTINUOUS
 10
111.5383543259
 20
235.4339431055
  0
VERTEX
  8
SURFACE
 62
7
  6
CONTINUOUS
 10
111.7483877155
 20
235.4548514135
  0
VERTEX
  8
SURFACE
 62
7
  6
CONTINUOUS
 10
111.9497218672
 20
235.4762599304
  0
VERTEX
  8
SURFACE
 62
7
  6
CONTINUOUS
 10
112.1426043918
 20
235.4981296436
  0
VERTEX
  8
SURFACE
 62
7
  6
CONTINUOUS
 10
112.3273135835
 20
235.52042995
  0
VERTEX
  8
SURFACE
 62
7
  6
CONTINUOUS
 10
112.5040274074
 20
235.5431224996
  0
VERTEX
  8
SURFACE
 62
7
  6
CONTINUOUS
 10
112.6729823953
 20
235.5661795692
  0
VERTEX
  8
SURFACE
 62
7
  6
CONTINUOUS
 10
112.8343348816
 20
235.589565693
  0
VERTEX
  8
SURFACE
 62
7
  6
CONTINUOUS
 10
112.9882725283
 20
235.6132517477
  0
VERTEX
  8
SURFACE
 62
7
  6
CONTINUOUS
 10
113.1350125802
 20
235.6372158809
  0
VERTEX
  8
SURFACE
 62
7
  6
CONTINUOUS
 10
113.2747705932
 20
235.6614392934
  0
VERTEX
  8
SURFACE
 62
7
  6
CONTINUOUS
 10
113.4077977059
 20
235.6859132247
  0
VERTEX
  8
SURFACE
 62
7
  6
CONTINUOUS
 10
113.5343336865
 20
235.7106315958
  0
VERTEX
  8
SURFACE
 62
7
  6
CONTINUOUS
 10
113.6546701094
 20
235.73560411
  0
VERTEX
  8
SURFACE
 62
7
  6
CONTINUOUS
 10
113.7690780951
 20
235.7608435718
  0
VERTEX
  8
SURFACE
 62
7
  6
CONTINUOUS
 10
113.8778797574
 20
235.7863825256
  0
VERTEX
  8
SURFACE
 62
7
  6
CONTINUOUS
 10
113.9813691547
 20
235.8122576532
  0
VERTEX
  8
SURFACE
 62
7
  6
CONTINUOUS
 10
114.0799057675
 20
235.8385346826
  0
VERTEX
  8
SURFACE
 62
7
  6
CONTINUOUS
 10
114.1738040187
 20
235.8652835307
  0
VERTEX
  8
SURFACE
 62
7
  6
CONTINUOUS
 10
114.2634776521
 20
235.892622122
  0
VERTEX
  8
SURFACE
 62
7
  6
CONTINUOUS
 10
114.3492667102
 20
235.9206719751
  0
VERTEX
  8
SURFACE
 62
7
  6
CONTINUOUS
 10
114.4316568441
 20
235.9496345145
  0
VERTEX
  8
SURFACE
 62
7
  6
CONTINUOUS
 10
114.5110880055
 20
235.979742078
  0
VERTEX
  8
SURFACE
 62
7
  6
CONTINUOUS
 10
114.5879240355
 20
236.0112494059
  0
VERTEX
  8
SURFACE
 62
7
  6
CONTINUOUS
 10
114.6625225481
 20
236.0444657577
  0
VERTEX
  8
SURFACE
 62
7
  6
CONTINUOUS
 10
114.7352608922
 20
236.0797813649
  0
VERTEX
  8
SURFACE
 62
7
  6
CONTINUOUS
 10
114.8064451456
 20
236.1176412849
  0
VERTEX
  8
SURFACE
 62
7
  6
CONTINUOUS
 10
114.876442249
 20
236.1586359875
  0
VERTEX
  8
SURFACE
 62
7
  6
CONTINUOUS
 10
114.9455254808
 20
236.2034535923
  0
VERTEX
  8
SURFACE
 62
7
  6
CONTINUOUS
 10
115.0137526339
 20
236.252815127
  0
VERTEX
  8
SURFACE
 62
7
  6
CONTINUOUS
 10
115.0812184594
 20
236.3076804426
  0
VERTEX
  8
SURFACE
 62
7
  6
CONTINUOUS
 10
115.1471887863
 20
236.3685302141
  0
VERTEX
  8
SURFACE
 62
7
  6
CONTINUOUS
 10
115.2111339062
 20
236.4361345492
  0
VERTEX
  8
SURFACE
 62
7
  6
CONTINUOUS
 10
115.2716796609
 20
236.5104239204
  0
VERTEX
  8
SURFACE
 62
7
  6
CONTINUOUS
 10
115.3277223333
 20
236.591460589
  0
VERTEX
  8
SURFACE
 62
7
  6
CONTINUOUS
 10
115.3777346736
 20
236.6783878526
  0
VERTEX
  8
SURFACE
 62
7
  6
CONTINUOUS
 10
115.4205091885
 20
236.7701797587
  0
VERTEX
  8
SURFACE
 62
7
  6
CONTINUOUS
 10
115.4551251817
 20
236.8655691493
  0
VERTEX
  8
SURFACE
 62
7
  6
CONTINUOUS
 10
115.4809768771
 20
236.9630334036
  0
VERTEX
  8
SURFACE
 62
7
  6
CONTINUOUS
 10
115.4978513298
 20
237.060992687
  0
VERTEX
  8
SURFACE
 62
7
  6
CONTINUOUS
 10
115.5058953406
 20
237.1573210977
  0
VERTEX
  8
SURFACE
 62
7
  6
CONTINUOUS
 10
115.5068019521
 20
237.2016439467
  0
SEQEND
  0
POLYLINE
  8
SURFACE
 62
7
  6
CONTINUOUS
 66
1
 70
0
  0
VERTEX
  8
SURFACE
 62
7
  6
CONTINUOUS
 10
42.9186625296
 20
234.8386531577
  0
VERTEX
  8
SURFACE
 62
7
  6
CONTINUOUS
 10
42.5483889192
 20
234.835717576
  0
VERTEX
  8
SURFACE
 62
7
  6
CONTINUOUS
 10
42.1880818451
 20
234.8308480853
  0
VERTEX
  8
SURFACE
 62
7
  6
CONTINUOUS
 10
41.8379170363
 20
234.8241855363
  0
VERTEX
  8
SURFACE
 62
7
  6
CONTINUOUS
 10
41.49811714
 20
234.8158647103
  0
VERTEX
  8
SURFACE
 62
7
  6
CONTINUOUS
 10
41.1688212894
 20
234.8060131053
  0
VERTEX
  8
SURFACE
 62
7
  6
CONTINUOUS
 10
40.8501003791
 20
234.7947509041
  0
VERTEX
  8
SURFACE
 62
7
  6
CONTINUOUS
 10
40.5419624654
 20
234.7821907346
  0
VERTEX
  8
SURFACE
 62
7
  6
CONTINUOUS
 10
40.2443637235
 20
234.7684377927
  0
VERTEX
  8
SURFACE
 62
7
  6
CONTINUOUS
 10
39.9572075428
 20
234.7535894218
  0
VERTEX
  8
SURFACE
 62
7
  6
CONTINUOUS
 10
39.6803599189
 20
234.7377355965
  0
VERTEX
  8
SURFACE
 62
7
  6
CONTINUOUS
 10
39.4136504897
 20
234.7209587098
  0
VERTEX
  8
SURFACE
 62
7
  6
CONTINUOUS
 10
39.1568629206
 20
234.7033325806
  0
VERTEX
  8
SURFACE
 62
7
  6
CONTINUOUS
 10
38.9098338542
 20
234.6849293652
  0
VERTEX
  8
SURFACE
 62
7
  6
CONTINUOUS
 10
38.6723429182
 20
234.6658124067
  0
VERTEX
  8
SURFACE
 62
7
  6
CONTINUOUS
 10
38.4442167553
 20
234.6460442856
  0
VERTEX
  8
SURFACE
 62
7
  6
CONTINUOUS
 10
38.2252502
 20
234.6256810863
  0
VERTEX
  8
SURFACE
 62
7
  6
CONTINUOUS
 10
38.0152168103
 20
234.6047727783
  0
VERTEX
  8
SURFACE
 62
7
  6
CONTINUOUS
 10
37.8138826586
 20
234.5833642614
  0
VERTEX
  8
SURFACE
 62
7
  6
CONTINUOUS
 10
37.6210001341
 20
234.5614945482
  0
VERTEX
  8
SURFACE
 62
7
  6
CONTINUOUS
 10
37.4362909424
 20
234.5391942418
  0
VERTEX
  8
SURFACE
 62
7
  6
CONTINUOUS
 10
37.2595771185
 20
234.5165016923
  0
VERTEX
  8
SURFACE
 62
7
  6
CONTINUOUS
 10
37.0906221305
 20
234.4934446226
  0
VERTEX
  8
SURFACE
 62
7
  6
CONTINUOUS
 10
36.9292696443
 20
234.4700584988
  0
VERTEX
  8
SURFACE
 62
7
  6
CONTINUOUS
 10
36.7753319975
 20
234.4463724442
  0
VERTEX
  8
SURFACE
 62
7
  6
CONTINUOUS
 10
36.6285919457
 20
234.4224083109
  0
VERTEX
  8
SURFACE
 62
7
  6
CONTINUOUS
 10
36.4888339327
 20
234.3981848984
  0
VERTEX
  8
SURFACE
 62
7
  6
CONTINUOUS
 10
36.35580682
 20
234.3737109671
  0
VERTEX
  8
SURFACE
 62
7
  6
CONTINUOUS
 10
36.2292708394
 20
234.348992596
  0
VERTEX
  8
SURFACE
 62
7
  6
CONTINUOUS
 10
36.1089344164
 20
234.3240200819
  0
VERTEX
  8
SURFACE
 62
7
  6
CONTINUOUS
 10
35.9945264307
 20
234.29878062
  0
VERTEX
  8
SURFACE
 62
7
  6
CONTINUOUS
 10
35.8857247685
 20
234.2732416662
  0
VERTEX
  8
SURFACE
 62
7
  6
CONTINUOUS
 10
35.7822353711
 20
234.2473665386
  0
VERTEX
  8
SURFACE
 62
7
  6
CONTINUOUS
 10
35.6836987583
 20
234.2210895092
  0
VERTEX
  8
SURFACE
 62
7
  6
CONTINUOUS
 10
35.5898005071
 20
234.1943406612
  0
VERTEX
  8
SURFACE
 62
7
  6
CONTINUOUS
 10
35.5001268738
 20
234.1670020698
  0
VERTEX
  8
SURFACE
 62
7
  6
CONTINUOUS
 10
35.4143378157
 20
234.1389522167
  0
VERTEX
  8
SURFACE
 62
7
  6
CONTINUOUS
 10
35.3319476817
 20
234.1099896773
  0
VERTEX
  8
SURFACE
 62
7
  6
CONTINUOUS
 10
35.2525165204
 20
234.0798821138
  0
VERTEX
  8
SURFACE
 62
7
  6
CONTINUOUS
 10
35.1756804904
 20
234.0483747859
  0
VERTEX
  8
SURFACE
 62
7
  6
CONTINUOUS
 10
35.1010819778
 20
234.0151584342
  0
VERTEX
  8
SURFACE
 62
7
  6
CONTINUOUS
 10
35.0283436336
 20
233.9798428269
  0
VERTEX
  8
SURFACE
 62
7
  6
CONTINUOUS
 10
34.9571593803
 20
233.9419829069
  0
VERTEX
  8
SURFACE
 62
7
  6
CONTINUOUS
 10
34.8871622768
 20
233.9009882044
  0
VERTEX
  8
SURFACE
 62
7
  6
CONTINUOUS
 10
34.818079045
 20
233.8561705995
  0
VERTEX
  8
SURFACE
 62
7
  6
CONTINUOUS
 10
34.749851892
 20
233.8068090648
  0
VERTEX
  8
SURFACE
 62
7
  6
CONTINUOUS
 10
34.6823860664
 20
233.7519437492
  0
VERTEX
  8
SURFACE
 62
7
  6
CONTINUOUS
 10
34.6164157396
 20
233.6910939777
  0
VERTEX
  8
SURFACE
 62
7
  6
CONTINUOUS
 10
34.5524706197
 20
233.6234896426
  0
VERTEX
  8
SURFACE
 62
7
  6
CONTINUOUS
 10
34.4919248649
 20
233.5492002714
  0
VERTEX
  8
SURFACE
 62
7
  6
CONTINUOUS
 10
34.4358821926
 20
233.4681636028
  0
VERTEX
  8
SURFACE
 62
7
  6
CONTINUOUS
 10
34.3858698522
 20
233.3812363392
  0
VERTEX
  8
SURFACE
 62
7
  6
CONTINUOUS
 10
34.3430953374
 20
233.2894444331
  0
VERTEX
  8
SURFACE
 62
7
  6
CONTINUOUS
 10
34.3084793442
 20
233.1940550425
  0
VERTEX
  8
SURFACE
 62
7
  6
CONTINUOUS
 10
34.2826276487
 20
233.0965907882
  0
VERTEX
  8
SURFACE
 62
7
  6
CONTINUOUS
 10
34.2657531961
 20
232.9986315048
  0
VERTEX
  8
SURFACE
 62
7
  6
CONTINUOUS
 10
34.2577091853
 20
232.9023030941
  0
VERTEX
  8
SURFACE
 62
7
  6
CONTINUOUS
 10
34.2568025738
 20
232.8579802451
  0
SEQEND
  0
LINE
  8
SURFACE
 62
7
  6
CONTINUOUS
 10
42.9186625296
 20
234.8386531577
 11
47.6370148658
 21
234.8395177095
  0
LINE
  8
SURFACE
 62
7
  6
CONTINUOUS
 10
106.8449419962
 20
235.2209710341
 11
102.12658966
 21
235.2201064823
  0
LINE
  8
SURFACE
 62
7
  6
CONTINUOUS
 10
47.6370148657
 20
247.9201064823
 11
43.2568022498
 21
247.9201064823
  0
LINE
  8
SURFACE
 62
7
  6
CONTINUOUS
 10
100.1283989002
 20
259.7298120959
 11
35.2568022629
 21
259.7298120959
  0
POLYLINE
  8
SURFACE
 62
7
  6
CONTINUOUS
 66
1
 70
0
  0
VERTEX
  8
SURFACE
 62
7
  6
CONTINUOUS
 10
100.1282570759
 20
259.7298120959
  0
VERTEX
  8
SURFACE
 62
7
  6
CONTINUOUS
 10
100.2026399788
 20
259.7270417388
  0
VERTEX
  8
SURFACE
 62
7
  6
CONTINUOUS
 10
100.2758341
 20
259.7188626618
  0
VERTEX
  8
SURFACE
 62
7
  6
CONTINUOUS
 10
100.3467819506
 20
259.7056434693
  0
VERTEX
  8
SURFACE
 62
7
  6
CONTINUOUS
 10
100.4162732476
 20
259.6874376411
  0
VERTEX
  8
SURFACE
 62
7
  6
CONTINUOUS
 10
100.4850463619
 20
259.6639969839
  0
VERTEX
  8
SURFACE
 62
7
  6
CONTINUOUS
 10
100.5522959885
 20
259.635456066
  0
VERTEX
  8
SURFACE
 62
7
  6
CONTINUOUS
 10
100.6177277751
 20
259.6018318403
  0
VERTEX
  8
SURFACE
 62
7
  6
CONTINUOUS
 10
100.6805575229
 20
259.563457234
  0
VERTEX
  8
SURFACE
 62
7
  6
CONTINUOUS
 10
100.7397746947
 20
259.5210429098
  0
VERTEX
  8
SURFACE
 62
7
  6
CONTINUOUS
 10
100.7960948883
 20
259.4741189253
  0
VERTEX
  8
SURFACE
 62
7
  6
CONTINUOUS
 10
100.8500058678
 20
259.4219671951
  0
VERTEX
  8
SURFACE
 62
7
  6
CONTINUOUS
 10
100.9005115168
 20
259.3651254662
  0
VERTEX
  8
SURFACE
 62
7
  6
CONTINUOUS
 10
100.9469964808
 20
259.3039773916
  0
VERTEX
  8
SURFACE
 62
7
  6
CONTINUOUS
 10
100.9890236324
 20
259.2388120322
  0
VERTEX
  8
SURFACE
 62
7
  6
CONTINUOUS
 10
101.026057804
 20
259.1702140171
  0
VERTEX
  8
SURFACE
 62
7
  6
CONTINUOUS
 10
101.0579883087
 20
259.0980509243
  0
VERTEX
  8
SURFACE
 62
7
  6
CONTINUOUS
 10
101.0845870094
 20
259.0221014352
  0
VERTEX
  8
SURFACE
 62
7
  6
CONTINUOUS
 10
101.1052008321
 20
258.9433089279
  0
VERTEX
  8
SURFACE
 62
7
  6
CONTINUOUS
 10
101.1194087941
 20
258.8625459289
  0
VERTEX
  8
SURFACE
 62
7
  6
CONTINUOUS
 10
101.1269805441
 20
258.7803238178
  0
VERTEX
  8
SURFACE
 62
7
  6
CONTINUOUS
 10
101.1282570745
 20
258.7298119513
  0
SEQEND
  0
LINE
  8
0
 62
7
  6
CONTINUOUS
 10
159.3534213416
 20
108.7298120959
 11
176.4534213416
 21
108.7298120959
  0
LINE
  8
SURFACE
 62
7
  6
CONTINUOUS
 10
176.3315519982
 20
120.9275603306
 11
159.6577395677
 21
122.9748470685
  0
POLYLINE
  8
SURFACE
 62
7
  6
CONTINUOUS
 66
1
 70
0
  0
VERTEX
  8
SURFACE
 62
7
  6
CONTINUOUS
 10
171.4418575059
 20
121.5279399176
  0
VERTEX
  8
SURFACE
 62
7
  6
CONTINUOUS
 10
171.4876027643
 20
121.5202649556
  0
VERTEX
  8
SURFACE
 62
7
  6
CONTINUOUS
 10
171.5415219841
 20
121.5056348324
  0
VERTEX
  8
SURFACE
 62
7
  6
CONTINUOUS
 10
171.584214748
 20
121.4890385614
  0
VERTEX
  8
SURFACE
 62
7
  6
CONTINUOUS
 10
171.6159681184
 20
121.4730347341
  0
VERTEX
  8
SURFACE
 62
7
  6
CONTINUOUS
 10
171.6371557446
 20
121.4599409849
  0
VERTEX
  8
SURFACE
 62
7
  6
CONTINUOUS
 10
171.6461991437
 20
121.4534663032
  0
SEQEND
  0
POLYLINE
  8
SURFACE
 62
7
  6
CONTINUOUS
 66
1
 70
0
  0
VERTEX
  8
SURFACE
 62
7
  6
CONTINUOUS
 10
159.6577393478
 20
131.1847770963
  0
VERTEX
  8
SURFACE
 62
7
  6
CONTINUOUS
 10
159.5552729085
 20
131.1685122866
  0
VERTEX
  8
SURFACE
 62
7
  6
CONTINUOUS
 10
159.4541809547
 20
131.1450693336
  0
VERTEX
  8
SURFACE
 62
7
  6
CONTINUOUS
 10
159.3549743523
 20
131.1145707384
  0
VERTEX
  8
SURFACE
 62
7
  6
CONTINUOUS
 10
159.25810901
 20
131.0771580749
  0
VERTEX
  8
SURFACE
 62
7
  6
CONTINUOUS
 10
159.1640374742
 20
131.0330002238
  0
VERTEX
  8
SURFACE
 62
7
  6
CONTINUOUS
 10
159.0732195608
 20
130.9823025131
  0
VERTEX
  8
SURFACE
 62
7
  6
CONTINUOUS
 10
158.9860935962
 20
130.9252956665
  0
VERTEX
  8
SURFACE
 62
7
  6
CONTINUOUS
 10
158.9030898325
 20
130.8622435611
  0
VERTEX
  8
SURFACE
 62
7
  6
CONTINUOUS
 10
158.8246153404
 20
130.7934340393
  0
VERTEX
  8
SURFACE
 62
7
  6
CONTINUOUS
 10
158.7510672337
 20
130.7191906238
  0
VERTEX
  8
SURFACE
 62
7
  6
CONTINUOUS
 10
158.6828153518
 20
130.6398591857
  0
VERTEX
  8
SURFACE
 62
7
  6
CONTINUOUS
 10
158.6202099961
 20
130.5558163347
  0
VERTEX
  8
SURFACE
 62
7
  6
CONTINUOUS
 10
158.5635711536
 20
130.4674576263
  0
VERTEX
  8
SURFACE
 62
7
  6
CONTINUOUS
 10
158.5131960423
 20
130.3752094109
  0
VERTEX
  8
SURFACE
 62
7
  6
CONTINUOUS
 10
158.4693459499
 20
130.2795086166
  0
VERTEX
  8
SURFACE
 62
7
  6
CONTINUOUS
 10
158.432259745
 20
130.180833155
  0
VERTEX
  8
SURFACE
 62
7
  6
CONTINUOUS
 10
158.4021324654
 20
130.0796573105
  0
VERTEX
  8
SURFACE
 62
7
  6
CONTINUOUS
 10
158.3791341436
 20
129.9765162763
  0
VERTEX
  8
SURFACE
 62
7
  6
CONTINUOUS
 10
158.3633833611
 20
129.8719332732
  0
VERTEX
  8
SURFACE
 62
7
  6
CONTINUOUS
 10
158.3549570224
 20
129.7664695361
  0
VERTEX
  8
SURFACE
 62
7
  6
CONTINUOUS
 10
158.3534213482
 20
129.6980712606
  0
SEQEND
  0
LINE
  8
SURFACE
 62
7
  6
CONTINUOUS
 10
159.6577395724
 20
131.1847771239
 11
176.3315519982
 21
133.2320638612
  0
POLYLINE
  8
SURFACE
 62
7
  6
CONTINUOUS
 66
1
 70
0
  0
VERTEX
  8
SURFACE
 62
7
  6
CONTINUOUS
 10
171.6461991437
 20
121.4534663032
  0
VERTEX
  8
SURFACE
 62
7
  6
CONTINUOUS
 10
171.6490748327
 20
121.4512353953
  0
VERTEX
  8
SURFACE
 62
7
  6
CONTINUOUS
 10
171.6528388806
 20
121.448095239
  0
VERTEX
  8
SURFACE
 62
7
  6
CONTINUOUS
 10
171.6516293225
 20
121.449254283
  0
SEQEND
  0
LINE
  8
SURFACE
 62
7
  6
CONTINUOUS
 10
176.3315519982
 20
146.3275603306
 11
159.6577395677
 21
148.3748470685
  0
POLYLINE
  8
SURFACE
 62
7
  6
CONTINUOUS
 66
1
 70
0
  0
VERTEX
  8
SURFACE
 62
7
  6
CONTINUOUS
 10
171.4418575059
 20
146.9279399176
  0
VERTEX
  8
SURFACE
 62
7
  6
CONTINUOUS
 10
171.4876027643
 20
146.9202649556
  0
VERTEX
  8
SURFACE
 62
7
  6
CONTINUOUS
 10
171.5415219841
 20
146.9056348324
  0
VERTEX
  8
SURFACE
 62
7
  6
CONTINUOUS
 10
171.584214748
 20
146.8890385614
  0
VERTEX
  8
SURFACE
 62
7
  6
CONTINUOUS
 10
171.6159681184
 20
146.8730347341
  0
VERTEX
  8
SURFACE
 62
7
  6
CONTINUOUS
 10
171.6371557446
 20
146.8599409849
  0
VERTEX
  8
SURFACE
 62
7
  6
CONTINUOUS
 10
171.6461991437
 20
146.8534663032
  0
SEQEND
  0
POLYLINE
  8
SURFACE
 62
7
  6
CONTINUOUS
 66
1
 70
0
  0
VERTEX
  8
SURFACE
 62
7
  6
CONTINUOUS
 10
171.6515390586
 20
234.3102810808
  0
VERTEX
  8
SURFACE
 62
7
  6
CONTINUOUS
 10
171.6528373349
 20
234.3115275977
  0
VERTEX
  8
SURFACE
 62
7
  6
CONTINUOUS
 10
171.649241933
 20
234.3085218983
  0
VERTEX
  8
SURFACE
 62
7
  6
CONTINUOUS
 10
171.6375127257
 20
234.2999263236
  0
VERTEX
  8
SURFACE
 62
7
  6
CONTINUOUS
 10
171.616537273
 20
234.2869117983
  0
VERTEX
  8
SURFACE
 62
7
  6
CONTINUOUS
 10
171.5850213122
 20
234.2709491116
  0
VERTEX
  8
SURFACE
 62
7
  6
CONTINUOUS
 10
171.5425800287
 20
234.2543428857
  0
VERTEX
  8
SURFACE
 62
7
  6
CONTINUOUS
 10
171.4889110287
 20
234.239639986
  0
VERTEX
  8
SURFACE
 62
7
  6
CONTINUOUS
 10
171.441831953
 20
234.2316811245
  0
SEQEND
  0
POLYLINE
  8
SURFACE
 62
7
  6
CONTINUOUS
 66
1
 70
0
  0
VERTEX
  8
SURFACE
 62
7
  6
CONTINUOUS
 10
159.6577393478
 20
156.5847770963
  0
VERTEX
  8
SURFACE
 62
7
  6
CONTINUOUS
 10
159.5552729646
 20
156.5685122976
  0
VERTEX
  8
SURFACE
 62
7
  6
CONTINUOUS
 10
159.4541810446
 20
156.5450693578
  0
VERTEX
  8
SURFACE
 62
7
  6
CONTINUOUS
 10
159.3549744509
 20
156.5145707725
  0
VERTEX
  8
SURFACE
 62
7
  6
CONTINUOUS
 10
159.2581091024
 20
156.4771581143
  0
VERTEX
  8
SURFACE
 62
7
  6
CONTINUOUS
 10
159.164037552
 20
156.4330002637
  0
VERTEX
  8
SURFACE
 62
7
  6
CONTINUOUS
 10
159.0732196225
 20
156.3823025504
  0
VERTEX
  8
SURFACE
 62
7
  6
CONTINUOUS
 10
158.9860936498
 20
156.3252957044
  0
VERTEX
  8
SURFACE
 62
7
  6
CONTINUOUS
 10
158.9030898806
 20
156.2622436004
  0
VERTEX
  8
SURFACE
 62
7
  6
CONTINUOUS
 10
158.8246153837
 20
156.1934340801
  0
VERTEX
  8
SURFACE
 62
7
  6
CONTINUOUS
 10
158.7510672724
 20
156.1191906657
  0
VERTEX
  8
SURFACE
 62
7
  6
CONTINUOUS
 10
158.6828153849
 20
156.039859227
  0
VERTEX
  8
SURFACE
 62
7
  6
CONTINUOUS
 10
158.6202100233
 20
155.9558163741
  0
VERTEX
  8
SURFACE
 62
7
  6
CONTINUOUS
 10
158.5635711751
 20
155.8674576627
  0
VERTEX
  8
SURFACE
 62
7
  6
CONTINUOUS
 10
158.5131960585
 20
155.7752094432
  0
VERTEX
  8
SURFACE
 62
7
  6
CONTINUOUS
 10
158.4693459614
 20
155.6795086443
  0
VERTEX
  8
SURFACE
 62
7
  6
CONTINUOUS
 10
158.4322597526
 20
155.5808331776
  0
VERTEX
  8
SURFACE
 62
7
  6
CONTINUOUS
 10
158.4021324699
 20
155.4796573279
  0
VERTEX
  8
SURFACE
 62
7
  6
CONTINUOUS
 10
158.3791341459
 20
155.3765162886
  0
VERTEX
  8
SURFACE
 62
7
  6
CONTINUOUS
 10
158.363383362
 20
155.2719332809
  0
VERTEX
  8
SURFACE
 62
7
  6
CONTINUOUS
 10
158.3549570226
 20
155.1664695401
  0
VERTEX
  8
SURFACE
 62
7
  6
CONTINUOUS
 10
158.3534213482
 20
155.0980712606
  0
SEQEND
  0
LINE
  8
SURFACE
 62
7
  6
CONTINUOUS
 10
159.6577395724
 20
156.5847771239
 11
176.3315519982
 21
158.6320638612
  0
POLYLINE
  8
SURFACE
 62
7
  6
CONTINUOUS
 66
1
 70
0
  0
VERTEX
  8
SURFACE
 62
7
  6
CONTINUOUS
 10
171.6461991437
 20
146.8534663032
  0
VERTEX
  8
SURFACE
 62
7
  6
CONTINUOUS
 10
171.6490748327
 20
146.8512353953
  0
VERTEX
  8
SURFACE
 62
7
  6
CONTINUOUS
 10
171.6528388806
 20
146.848095239
  0
VERTEX
  8
SURFACE
 62
7
  6
CONTINUOUS
 10
171.6516293225
 20
146.849254283
  0
SEQEND
  0
POLYLINE
  8
SURFACE
 62
7
  6
CONTINUOUS
 66
1
 70
0
  0
VERTEX
  8
SURFACE
 62
7
  6
CONTINUOUS
 10
171.6515390586
 20
208.9102810808
  0
VERTEX
  8
SURFACE
 62
7
  6
CONTINUOUS
 10
171.6528373349
 20
208.9115275977
  0
VERTEX
  8
SURFACE
 62
7
  6
CONTINUOUS
 10
171.649241933
 20
208.9085218983
  0
VERTEX
  8
SURFACE
 62
7
  6
CONTINUOUS
 10
171.6375127257
 20
208.8999263236
  0
VERTEX
  8
SURFACE
 62
7
  6
CONTINUOUS
 10
171.616537273
 20
208.8869117983
  0
VERTEX
  8
SURFACE
 62
7
  6
CONTINUOUS
 10
171.5850213122
 20
208.8709491116
  0
VERTEX
  8
SURFACE
 62
7
  6
CONTINUOUS
 10
171.5425800287
 20
208.8543428857
  0
VERTEX
  8
SURFACE
 62
7
  6
CONTINUOUS
 10
171.4889110287
 20
208.839639986
  0
VERTEX
  8
SURFACE
 62
7
  6
CONTINUOUS
 10
171.441831953
 20
208.8316811245
  0
SEQEND
  0
POLYLINE
  8
SURFACE
 62
7
  6
CONTINUOUS
 66
1
 70
0
  0
VERTEX
  8
SURFACE
 62
7
  6
CONTINUOUS
 10
158.3534213483
 20
124.461553347
  0
VERTEX
  8
SURFACE
 62
7
  6
CONTINUOUS
 10
158.3554560909
 20
124.3828327294
  0
VERTEX
  8
SURFACE
 62
7
  6
CONTINUOUS
 10
158.3645355673
 20
124.2779559071
  0
VERTEX
  8
SURFACE
 62
7
  6
CONTINUOUS
 10
158.3808620505
 20
124.173999892
  0
VERTEX
  8
SURFACE
 62
7
  6
CONTINUOUS
 10
158.4043559396
 20
124.0715163977
  0
VERTEX
  8
SURFACE
 62
7
  6
CONTINUOUS
 10
158.4348971892
 20
123.9710197262
  0
VERTEX
  8
SURFACE
 62
7
  6
CONTINUOUS
 10
158.4723154915
 20
123.8730354811
  0
VERTEX
  8
SURFACE
 62
7
  6
CONTINUOUS
 10
158.5164163879
 20
123.7780297958
  0
VERTEX
  8
SURFACE
 62
7
  6
CONTINUOUS
 10
158.566962712
 20
123.6864718445
  0
VERTEX
  8
SURFACE
 62
7
  6
CONTINUOUS
 10
158.6236950202
 20
123.5987915621
  0
VERTEX
  8
SURFACE
 62
7
  6
CONTINUOUS
 10
158.6863187447
 20
123.5154080857
  0
VERTEX
  8
SURFACE
 62
7
  6
CONTINUOUS
 10
158.7545170868
 20
123.4367102307
  0
VERTEX
  8
SURFACE
 62
7
  6
CONTINUOUS
 10
158.8279435579
 20
123.3630681038
  0
VERTEX
  8
SURFACE
 62
7
  6
CONTINUOUS
 10
158.9062325308
 20
123.2948216237
  0
VERTEX
  8
SURFACE
 62
7
  6
CONTINUOUS
 10
158.9889916361
 20
123.232288693
  0
VERTEX
  8
SURFACE
 62
7
  6
CONTINUOUS
 10
159.0758189232
 20
123.1757520708
  0
VERTEX
  8
SURFACE
 62
7
  6
CONTINUOUS
 10
159.1662897536
 20
123.1254709374
  0
VERTEX
  8
SURFACE
 62
7
  6
CONTINUOUS
 10
159.2599714561
 20
123.0816719949
  0
VERTEX
  8
SURFACE
 62
7
  6
CONTINUOUS
 10
159.3564102649
 20
123.044556945
  0
VERTEX
  8
SURFACE
 62
7
  6
CONTINUOUS
 10
159.4551598992
 20
123.0142915744
  0
VERTEX
  8
SURFACE
 62
7
  6
CONTINUOUS
 10
159.5557707572
 20
122.9910148771
  0
VERTEX
  8
SURFACE
 62
7
  6
CONTINUOUS
 10
159.6577393428
 20
122.9748470961
  0
SEQEND
  0
POLYLINE
  8
SURFACE
 62
7
  6
CONTINUOUS
 66
1
 70
0
  0
VERTEX
  8
SURFACE
 62
7
  6
CONTINUOUS
 10
158.3534213483
 20
149.861553347
  0
VERTEX
  8
SURFACE
 62
7
  6
CONTINUOUS
 10
158.3554560909
 20
149.7828327295
  0
VERTEX
  8
SURFACE
 62
7
  6
CONTINUOUS
 10
158.3645355673
 20
149.6779559073
  0
VERTEX
  8
SURFACE
 62
7
  6
CONTINUOUS
 10
158.3808620504
 20
149.5739998922
  0
VERTEX
  8
SURFACE
 62
7
  6
CONTINUOUS
 10
158.4043559395
 20
149.471516398
  0
VERTEX
  8
SURFACE
 62
7
  6
CONTINUOUS
 10
158.434897189
 20
149.3710197266
  0
VERTEX
  8
SURFACE
 62
7
  6
CONTINUOUS
 10
158.4723154913
 20
149.2730354815
  0
VERTEX
  8
SURFACE
 62
7
  6
CONTINUOUS
 10
158.5164163876
 20
149.1780297964
  0
VERTEX
  8
SURFACE
 62
7
  6
CONTINUOUS
 10
158.5669627116
 20
149.0864718451
  0
VERTEX
  8
SURFACE
 62
7
  6
CONTINUOUS
 10
158.6236950197
 20
148.9987915628
  0
VERTEX
  8
SURFACE
 62
7
  6
CONTINUOUS
 10
158.6863187441
 20
148.9154080864
  0
VERTEX
  8
SURFACE
 62
7
  6
CONTINUOUS
 10
158.7545170862
 20
148.8367102314
  0
VERTEX
  8
SURFACE
 62
7
  6
CONTINUOUS
 10
158.8279435571
 20
148.7630681045
  0
VERTEX
  8
SURFACE
 62
7
  6
CONTINUOUS
 10
158.90623253
 20
148.6948216244
  0
VERTEX
  8
SURFACE
 62
7
  6
CONTINUOUS
 10
158.9889916352
 20
148.6322886936
  0
VERTEX
  8
SURFACE
 62
7
  6
CONTINUOUS
 10
159.0758189221
 20
148.5757520714
  0
VERTEX
  8
SURFACE
 62
7
  6
CONTINUOUS
 10
159.1662897523
 20
148.5254709381
  0
VERTEX
  8
SURFACE
 62
7
  6
CONTINUOUS
 10
159.2599714545
 20
148.4816719955
  0
VERTEX
  8
SURFACE
 62
7
  6
CONTINUOUS
 10
159.3564102632
 20
148.4445569455
  0
VERTEX
  8
SURFACE
 62
7
  6
CONTINUOUS
 10
159.4551598977
 20
148.4142915748
  0
VERTEX
  8
SURFACE
 62
7
  6
CONTINUOUS
 10
159.5557707562
 20
148.3910148773
  0
VERTEX
  8
SURFACE
 62
7
  6
CONTINUOUS
 10
159.6577393428
 20
148.3748470961
  0
SEQEND
  0
POLYLINE
  8
SURFACE
 62
7
  6
CONTINUOUS
 66
1
 70
0
  0
VERTEX
  8
SURFACE
 62
7
  6
CONTINUOUS
 10
158.3534213483
 20
175.261553347
  0
VERTEX
  8
SURFACE
 62
7
  6
CONTINUOUS
 10
158.3554560909
 20
175.1828327284
  0
VERTEX
  8
SURFACE
 62
7
  6
CONTINUOUS
 10
158.3645355676
 20
175.0779559053
  0
VERTEX
  8
SURFACE
 62
7
  6
CONTINUOUS
 10
158.380862051
 20
174.973999889
  0
VERTEX
  8
SURFACE
 62
7
  6
CONTINUOUS
 10
158.4043559407
 20
174.8715163936
  0
VERTEX
  8
SURFACE
 62
7
  6
CONTINUOUS
 10
158.434897191
 20
174.7710197209
  0
VERTEX
  8
SURFACE
 62
7
  6
CONTINUOUS
 10
158.4723154942
 20
174.6730354745
  0
VERTEX
  8
SURFACE
 62
7
  6
CONTINUOUS
 10
158.5164163917
 20
174.5780297882
  0
VERTEX
  8
SURFACE
 62
7
  6
CONTINUOUS
 10
158.5669627171
 20
174.4864718359
  0
VERTEX
  8
SURFACE
 62
7
  6
CONTINUOUS
 10
158.6236950266
 20
174.3987915529
  0
VERTEX
  8
SURFACE
 62
7
  6
CONTINUOUS
 10
158.6863187525
 20
174.315408076
  0
VERTEX
  8
SURFACE
 62
7
  6
CONTINUOUS
 10
158.754517096
 20
174.2367102209
  0
VERTEX
  8
SURFACE
 62
7
  6
CONTINUOUS
 10
158.8279435681
 20
174.1630680942
  0
VERTEX
  8
SURFACE
 62
7
  6
CONTINUOUS
 10
158.9062325421
 20
174.0948216146
  0
VERTEX
  8
SURFACE
 62
7
  6
CONTINUOUS
 10
158.9889916488
 20
174.0322886841
  0
VERTEX
  8
SURFACE
 62
7
  6
CONTINUOUS
 10
159.0758189377
 20
173.975752062
  0
VERTEX
  8
SURFACE
 62
7
  6
CONTINUOUS
 10
159.166289772
 20
173.925470928
  0
VERTEX
  8
SURFACE
 62
7
  6
CONTINUOUS
 10
159.2599714778
 20
173.8816719856
  0
VERTEX
  8
SURFACE
 62
7
  6
CONTINUOUS
 10
159.356410288
 20
173.844556937
  0
VERTEX
  8
SURFACE
 62
7
  6
CONTINUOUS
 10
159.4551599203
 20
173.8142915687
  0
VERTEX
  8
SURFACE
 62
7
  6
CONTINUOUS
 10
159.5557707703
 20
173.7910148745
  0
VERTEX
  8
SURFACE
 62
7
  6
CONTINUOUS
 10
159.6577393428
 20
173.7748470961
  0
SEQEND
  0
LINE
  8
0
 62
7
  6
CONTINUOUS
 10
158.3534213416
 20
109.7298120959
 11
158.3534213416
 21
124.4615475046
  0
LINE
  8
SURFACE
 62
7
  6
CONTINUOUS
 10
158.3534213416
 20
124.4615475046
 11
158.3534213416
 21
129.6980766823
  0
LINE
  8
0
 62
7
  6
CONTINUOUS
 10
158.3534213416
 20
129.6980766823
 11
158.3534213416
 21
149.8615475046
  0
LINE
  8
SURFACE
 62
7
  6
CONTINUOUS
 10
158.3534213416
 20
149.8615475046
 11
158.3534213416
 21
155.0980766823
  0
LINE
  8
0
 62
7
  6
CONTINUOUS
 10
158.3534213416
 20
155.0980766823
 11
158.3534213416
 21
175.2615475046
  0
LINE
  8
SURFACE
 62
7
  6
CONTINUOUS
 10
158.3534213416
 20
175.2615475046
 11
158.3534213416
 21
180.4980766823
  0
LINE
  8
0
 62
7
  6
CONTINUOUS
 10
158.3534213416
 20
180.4980766823
 11
158.3534213416
 21
200.661553347
  0
LINE
  8
SURFACE
 62
7
  6
CONTINUOUS
 10
158.3534213416
 20
200.6615475046
 11
158.3534213416
 21
205.8980766823
  0
LINE
  8
0
 62
7
  6
CONTINUOUS
 10
158.3534213416
 20
205.8980712606
 11
158.3534213416
 21
226.061553347
  0
LINE
  8
SURFACE
 62
7
  6
CONTINUOUS
 10
158.3534213416
 20
226.0615475046
 11
158.3534213416
 21
231.2980766823
  0
LINE
  8
0
 62
7
  6
CONTINUOUS
 10
158.3534213416
 20
231.2980712606
 11
158.3534213416
 21
251.461553347
  0
LINE
  8
SURFACE
 62
7
  6
CONTINUOUS
 10
158.3534213416
 20
251.4615475046
 11
158.3534213416
 21
258.7298120959
  0
LINE
  8
SURFACE
 62
7
  6
CONTINUOUS
 10
176.3315519982
 20
171.7275603306
 11
159.6577395677
 21
173.7748470685
  0
POLYLINE
  8
SURFACE
 62
7
  6
CONTINUOUS
 66
1
 70
0
  0
VERTEX
  8
SURFACE
 62
7
  6
CONTINUOUS
 10
171.4418575059
 20
172.3279399176
  0
VERTEX
  8
SURFACE
 62
7
  6
CONTINUOUS
 10
171.4876027643
 20
172.3202649556
  0
VERTEX
  8
SURFACE
 62
7
  6
CONTINUOUS
 10
171.5415219841
 20
172.3056348324
  0
VERTEX
  8
SURFACE
 62
7
  6
CONTINUOUS
 10
171.584214748
 20
172.2890385614
  0
VERTEX
  8
SURFACE
 62
7
  6
CONTINUOUS
 10
171.6159681184
 20
172.2730347341
  0
VERTEX
  8
SURFACE
 62
7
  6
CONTINUOUS
 10
171.6371557446
 20
172.2599409849
  0
VERTEX
  8
SURFACE
 62
7
  6
CONTINUOUS
 10
171.6461991437
 20
172.2534663032
  0
SEQEND
  0
POLYLINE
  8
SURFACE
 62
7
  6
CONTINUOUS
 66
1
 70
0
  0
VERTEX
  8
SURFACE
 62
7
  6
CONTINUOUS
 10
158.3534213483
 20
200.661553347
  0
VERTEX
  8
SURFACE
 62
7
  6
CONTINUOUS
 10
158.355456091
 20
200.5828327274
  0
VERTEX
  8
SURFACE
 62
7
  6
CONTINUOUS
 10
158.3645355678
 20
200.4779559033
  0
VERTEX
  8
SURFACE
 62
7
  6
CONTINUOUS
 10
158.3808620516
 20
200.3739998859
  0
VERTEX
  8
SURFACE
 62
7
  6
CONTINUOUS
 10
158.4043559419
 20
200.2715163891
  0
VERTEX
  8
SURFACE
 62
7
  6
CONTINUOUS
 10
158.434897193
 20
200.1710197151
  0
VERTEX
  8
SURFACE
 62
7
  6
CONTINUOUS
 10
158.4723154972
 20
200.0730354675
  0
VERTEX
  8
SURFACE
 62
7
  6
CONTINUOUS
 10
158.5164163959
 20
199.97802978
  0
VERTEX
  8
SURFACE
 62
7
  6
CONTINUOUS
 10
158.5669627226
 20
199.8864718267
  0
VERTEX
  8
SURFACE
 62
7
  6
CONTINUOUS
 10
158.6236950336
 20
199.7987915429
  0
VERTEX
  8
SURFACE
 62
7
  6
CONTINUOUS
 10
158.6863187609
 20
199.7154080656
  0
VERTEX
  8
SURFACE
 62
7
  6
CONTINUOUS
 10
158.7545171058
 20
199.6367102103
  0
VERTEX
  8
SURFACE
 62
7
  6
CONTINUOUS
 10
158.8279435791
 20
199.563068084
  0
VERTEX
  8
SURFACE
 62
7
  6
CONTINUOUS
 10
158.9062325543
 20
199.4948216047
  0
VERTEX
  8
SURFACE
 62
7
  6
CONTINUOUS
 10
158.9889916624
 20
199.4322886746
  0
VERTEX
  8
SURFACE
 62
7
  6
CONTINUOUS
 10
159.0758189534
 20
199.3757520525
  0
VERTEX
  8
SURFACE
 62
7
  6
CONTINUOUS
 10
159.1662897917
 20
199.3254709179
  0
VERTEX
  8
SURFACE
 62
7
  6
CONTINUOUS
 10
159.2599715013
 20
199.2816719756
  0
VERTEX
  8
SURFACE
 62
7
  6
CONTINUOUS
 10
159.356410313
 20
199.2445569283
  0
VERTEX
  8
SURFACE
 62
7
  6
CONTINUOUS
 10
159.455159943
 20
199.2142915626
  0
VERTEX
  8
SURFACE
 62
7
  6
CONTINUOUS
 10
159.5557707845
 20
199.1910148718
  0
VERTEX
  8
SURFACE
 62
7
  6
CONTINUOUS
 10
159.6577393428
 20
199.1748470961
  0
SEQEND
  0
POLYLINE
  8
SURFACE
 62
7
  6
CONTINUOUS
 66
1
 70
0
  0
VERTEX
  8
SURFACE
 62
7
  6
CONTINUOUS
 10
158.3534213483
 20
226.061553347
  0
VERTEX
  8
SURFACE
 62
7
  6
CONTINUOUS
 10
158.3554560909
 20
225.9828327294
  0
VERTEX
  8
SURFACE
 62
7
  6
CONTINUOUS
 10
158.3645355673
 20
225.8779559071
  0
VERTEX
  8
SURFACE
 62
7
  6
CONTINUOUS
 10
158.3808620505
 20
225.773999892
  0
VERTEX
  8
SURFACE
 62
7
  6
CONTINUOUS
 10
158.4043559396
 20
225.6715163977
  0
VERTEX
  8
SURFACE
 62
7
  6
CONTINUOUS
 10
158.4348971892
 20
225.5710197262
  0
VERTEX
  8
SURFACE
 62
7
  6
CONTINUOUS
 10
158.4723154915
 20
225.473035481
  0
VERTEX
  8
SURFACE
 62
7
  6
CONTINUOUS
 10
158.5164163879
 20
225.3780297958
  0
VERTEX
  8
SURFACE
 62
7
  6
CONTINUOUS
 10
158.566962712
 20
225.2864718445
  0
VERTEX
  8
SURFACE
 62
7
  6
CONTINUOUS
 10
158.6236950202
 20
225.1987915621
  0
VERTEX
  8
SURFACE
 62
7
  6
CONTINUOUS
 10
158.6863187447
 20
225.1154080857
  0
VERTEX
  8
SURFACE
 62
7
  6
CONTINUOUS
 10
158.7545170868
 20
225.0367102307
  0
VERTEX
  8
SURFACE
 62
7
  6
CONTINUOUS
 10
158.8279435579
 20
224.9630681038
  0
VERTEX
  8
SURFACE
 62
7
  6
CONTINUOUS
 10
158.9062325309
 20
224.8948216237
  0
VERTEX
  8
SURFACE
 62
7
  6
CONTINUOUS
 10
158.9889916361
 20
224.832288693
  0
VERTEX
  8
SURFACE
 62
7
  6
CONTINUOUS
 10
159.0758189232
 20
224.7757520708
  0
VERTEX
  8
SURFACE
 62
7
  6
CONTINUOUS
 10
159.1662897536
 20
224.7254709374
  0
VERTEX
  8
SURFACE
 62
7
  6
CONTINUOUS
 10
159.2599714561
 20
224.6816719949
  0
VERTEX
  8
SURFACE
 62
7
  6
CONTINUOUS
 10
159.3564102649
 20
224.6445569449
  0
VERTEX
  8
SURFACE
 62
7
  6
CONTINUOUS
 10
159.4551598992
 20
224.6142915744
  0
VERTEX
  8
SURFACE
 62
7
  6
CONTINUOUS
 10
159.5557707572
 20
224.5910148771
  0
VERTEX
  8
SURFACE
 62
7
  6
CONTINUOUS
 10
159.6577393428
 20
224.5748470961
  0
SEQEND
  0
POLYLINE
  8
SURFACE
 62
7
  6
CONTINUOUS
 66
1
 70
0
  0
VERTEX
  8
SURFACE
 62
7
  6
CONTINUOUS
 10
158.3534213483
 20
251.461553347
  0
VERTEX
  8
SURFACE
 62
7
  6
CONTINUOUS
 10
158.3554560909
 20
251.3828327295
  0
VERTEX
  8
SURFACE
 62
7
  6
CONTINUOUS
 10
158.3645355673
 20
251.2779559073
  0
VERTEX
  8
SURFACE
 62
7
  6
CONTINUOUS
 10
158.3808620504
 20
251.1739998922
  0
VERTEX
  8
SURFACE
 62
7
  6
CONTINUOUS
 10
158.4043559395
 20
251.071516398
  0
VERTEX
  8
SURFACE
 62
7
  6
CONTINUOUS
 10
158.434897189
 20
250.9710197266
  0
VERTEX
  8
SURFACE
 62
7
  6
CONTINUOUS
 10
158.4723154913
 20
250.8730354815
  0
VERTEX
  8
SURFACE
 62
7
  6
CONTINUOUS
 10
158.5164163876
 20
250.7780297964
  0
VERTEX
  8
SURFACE
 62
7
  6
CONTINUOUS
 10
158.5669627116
 20
250.6864718451
  0
VERTEX
  8
SURFACE
 62
7
  6
CONTINUOUS
 10
158.6236950197
 20
250.5987915628
  0
VERTEX
  8
SURFACE
 62
7
  6
CONTINUOUS
 10
158.6863187441
 20
250.5154080864
  0
VERTEX
  8
SURFACE
 62
7
  6
CONTINUOUS
 10
158.7545170862
 20
250.4367102315
  0
VERTEX
  8
SURFACE
 62
7
  6
CONTINUOUS
 10
158.8279435571
 20
250.3630681045
  0
VERTEX
  8
SURFACE
 62
7
  6
CONTINUOUS
 10
158.90623253
 20
250.2948216244
  0
VERTEX
  8
SURFACE
 62
7
  6
CONTINUOUS
 10
158.9889916352
 20
250.2322886937
  0
VERTEX
  8
SURFACE
 62
7
  6
CONTINUOUS
 10
159.0758189221
 20
250.1757520714
  0
VERTEX
  8
SURFACE
 62
7
  6
CONTINUOUS
 10
159.1662897522
 20
250.1254709381
  0
VERTEX
  8
SURFACE
 62
7
  6
CONTINUOUS
 10
159.2599714545
 20
250.0816719956
  0
VERTEX
  8
SURFACE
 62
7
  6
CONTINUOUS
 10
159.3564102632
 20
250.0445569456
  0
VERTEX
  8
SURFACE
 62
7
  6
CONTINUOUS
 10
159.4551598976
 20
250.0142915748
  0
VERTEX
  8
SURFACE
 62
7
  6
CONTINUOUS
 10
159.5557707562
 20
249.9910148773
  0
VERTEX
  8
SURFACE
 62
7
  6
CONTINUOUS
 10
159.6577393428
 20
249.9748470961
  0
SEQEND
  0
POLYLINE
  8
SURFACE
 62
7
  6
CONTINUOUS
 66
1
 70
0
  0
VERTEX
  8
SURFACE
 62
7
  6
CONTINUOUS
 10
171.6461991437
 20
172.2534663032
  0
VERTEX
  8
SURFACE
 62
7
  6
CONTINUOUS
 10
171.6490748327
 20
172.2512353953
  0
VERTEX
  8
SURFACE
 62
7
  6
CONTINUOUS
 10
171.6528388806
 20
172.248095239
  0
VERTEX
  8
SURFACE
 62
7
  6
CONTINUOUS
 10
171.6516293225
 20
172.249254283
  0
SEQEND
  0
LINE
  8
DEFAULT_1
 62
2
  6
CENTER
 10
168.4534213416
 20
105.4426023494
 11
168.4534213416
 21
261.7298120959
  0
POLYLINE
  8
SURFACE
 62
7
  6
CONTINUOUS
 66
1
 70
0
  0
VERTEX
  8
SURFACE
 62
7
  6
CONTINUOUS
 10
159.6577393478
 20
181.9847770963
  0
VERTEX
  8
SURFACE
 62
7
  6
CONTINUOUS
 10
159.5552729093
 20
181.9685122868
  0
VERTEX
  8
SURFACE
 62
7
  6
CONTINUOUS
 10
159.454180956
 20
181.945069334
  0
VERTEX
  8
SURFACE
 62
7
  6
CONTINUOUS
 10
159.3549743537
 20
181.9145707388
  0
VERTEX
  8
SURFACE
 62
7
  6
CONTINUOUS
 10
159.2581090113
 20
181.8771580754
  0
VERTEX
  8
SURFACE
 62
7
  6
CONTINUOUS
 10
159.1640374753
 20
181.8330002243
  0
VERTEX
  8
SURFACE
 62
7
  6
CONTINUOUS
 10
159.0732195616
 20
181.7823025136
  0
VERTEX
  8
SURFACE
 62
7
  6
CONTINUOUS
 10
158.9860935969
 20
181.725295667
  0
VERTEX
  8
SURFACE
 62
7
  6
CONTINUOUS
 10
158.9030898332
 20
181.6622435617
  0
VERTEX
  8
SURFACE
 62
7
  6
CONTINUOUS
 10
158.824615341
 20
181.5934340398
  0
VERTEX
  8
SURFACE
 62
7
  6
CONTINUOUS
 10
158.7510672342
 20
181.5191906243
  0
VERTEX
  8
SURFACE
 62
7
  6
CONTINUOUS
 10
158.6828153523
 20
181.4398591863
  0
VERTEX
  8
SURFACE
 62
7
  6
CONTINUOUS
 10
158.6202099965
 20
181.3558163353
  0
VERTEX
  8
SURFACE
 62
7
  6
CONTINUOUS
 10
158.5635711539
 20
181.2674576269
  0
VERTEX
  8
SURFACE
 62
7
  6
CONTINUOUS
 10
158.5131960425
 20
181.1752094113
  0
VERTEX
  8
SURFACE
 62
7
  6
CONTINUOUS
 10
158.4693459501
 20
181.079508617
  0
VERTEX
  8
SURFACE
 62
7
  6
CONTINUOUS
 10
158.4322597451
 20
180.9808331553
  0
VERTEX
  8
SURFACE
 62
7
  6
CONTINUOUS
 10
158.4021324654
 20
180.8796573107
  0
VERTEX
  8
SURFACE
 62
7
  6
CONTINUOUS
 10
158.3791341436
 20
180.7765162765
  0
VERTEX
  8
SURFACE
 62
7
  6
CONTINUOUS
 10
158.3633833611
 20
180.6719332733
  0
VERTEX
  8
SURFACE
 62
7
  6
CONTINUOUS
 10
158.3549570224
 20
180.5664695362
  0
VERTEX
  8
SURFACE
 62
7
  6
CONTINUOUS
 10
158.3534213482
 20
180.4980712606
  0
SEQEND
  0
LINE
  8
SURFACE
 62
7
  6
CONTINUOUS
 10
159.6577395724
 20
181.9847771239
 11
176.3315519982
 21
184.0320638612
  0
POLYLINE
  8
SURFACE
 62
7
  6
CONTINUOUS
 66
1
 70
0
  0
VERTEX
  8
SURFACE
 62
7
  6
CONTINUOUS
 10
171.6515390586
 20
183.5102810808
  0
VERTEX
  8
SURFACE
 62
7
  6
CONTINUOUS
 10
171.6528373349
 20
183.5115275977
  0
VERTEX
  8
SURFACE
 62
7
  6
CONTINUOUS
 10
171.649241933
 20
183.5085218983
  0
VERTEX
  8
SURFACE
 62
7
  6
CONTINUOUS
 10
171.6375127257
 20
183.4999263236
  0
VERTEX
  8
SURFACE
 62
7
  6
CONTINUOUS
 10
171.616537273
 20
183.4869117983
  0
VERTEX
  8
SURFACE
 62
7
  6
CONTINUOUS
 10
171.5850213122
 20
183.4709491116
  0
VERTEX
  8
SURFACE
 62
7
  6
CONTINUOUS
 10
171.5425800287
 20
183.4543428857
  0
VERTEX
  8
SURFACE
 62
7
  6
CONTINUOUS
 10
171.4889110287
 20
183.439639986
  0
VERTEX
  8
SURFACE
 62
7
  6
CONTINUOUS
 10
171.441831953
 20
183.4316811245
  0
SEQEND
  0
LINE
  8
0
 62
7
  6
CONTINUOUS
 10
177.4534213416
 20
248.9201482454
 11
177.4534213416
 21
233.8394757395
  0
LINE
  8
0
 62
7
  6
CONTINUOUS
 10
177.4534213416
 20
223.5201482454
 11
177.4534213416
 21
208.4394757395
  0
LINE
  8
SURFACE
 62
7
  6
CONTINUOUS
 10
177.4534213416
 20
258.7298120959
 11
177.4534213416
 21
198.1201064823
  0
LINE
  8
0
 62
7
  6
CONTINUOUS
 10
177.4534213416
 20
198.1201064823
 11
177.4534213416
 21
183.0395177095
  0
LINE
  8
SURFACE
 62
7
  6
CONTINUOUS
 10
177.4534213416
 20
183.0395177095
 11
177.4534213416
 21
172.7201064823
  0
LINE
  8
0
 62
7
  6
CONTINUOUS
 10
177.4534213416
 20
172.7201064823
 11
177.4534213416
 21
157.6395177095
  0
LINE
  8
SURFACE
 62
7
  6
CONTINUOUS
 10
177.4534213416
 20
157.6395177095
 11
177.4534213416
 21
147.3201064823
  0
LINE
  8
0
 62
7
  6
CONTINUOUS
 10
177.4534213416
 20
147.3201064823
 11
177.4534213416
 21
132.2395177095
  0
LINE
  8
SURFACE
 62
7
  6
CONTINUOUS
 10
177.4534213416
 20
132.2395177095
 11
177.4534213416
 21
121.9201064823
  0
LINE
  8
0
 62
7
  6
CONTINUOUS
 10
177.4534213416
 20
121.9201064823
 11
177.4534213416
 21
109.7298120959
  0
LINE
  8
SURFACE
 62
7
  6
CONTINUOUS
 10
176.3315519982
 20
197.1275603306
 11
159.6577395677
 21
199.1748470685
  0
POLYLINE
  8
SURFACE
 62
7
  6
CONTINUOUS
 66
1
 70
0
  0
VERTEX
  8
SURFACE
 62
7
  6
CONTINUOUS
 10
171.4418575059
 20
197.7279399176
  0
VERTEX
  8
SURFACE
 62
7
  6
CONTINUOUS
 10
171.4876027643
 20
197.7202649556
  0
VERTEX
  8
SURFACE
 62
7
  6
CONTINUOUS
 10
171.5415219841
 20
197.7056348324
  0
VERTEX
  8
SURFACE
 62
7
  6
CONTINUOUS
 10
171.584214748
 20
197.6890385614
  0
VERTEX
  8
SURFACE
 62
7
  6
CONTINUOUS
 10
171.6159681184
 20
197.6730347341
  0
VERTEX
  8
SURFACE
 62
7
  6
CONTINUOUS
 10
171.6371557446
 20
197.6599409849
  0
VERTEX
  8
SURFACE
 62
7
  6
CONTINUOUS
 10
171.6461991437
 20
197.6534663032
  0
SEQEND
  0
POLYLINE
  8
SURFACE
 62
7
  6
CONTINUOUS
 66
1
 70
0
  0
VERTEX
  8
SURFACE
 62
7
  6
CONTINUOUS
 10
171.6461991437
 20
197.6534663032
  0
VERTEX
  8
SURFACE
 62
7
  6
CONTINUOUS
 10
171.6490748327
 20
197.6512353953
  0
VERTEX
  8
SURFACE
 62
7
  6
CONTINUOUS
 10
171.6528388806
 20
197.648095239
  0
VERTEX
  8
SURFACE
 62
7
  6
CONTINUOUS
 10
171.6516293225
 20
197.649254283
  0
SEQEND
  0
POLYLINE
  8
SURFACE
 62
7
  6
CONTINUOUS
 66
1
 70
0
  0
VERTEX
  8
SURFACE
 62
7
  6
CONTINUOUS
 10
171.6515390586
 20
158.1102810808
  0
VERTEX
  8
SURFACE
 62
7
  6
CONTINUOUS
 10
171.6528373349
 20
158.1115275977
  0
VERTEX
  8
SURFACE
 62
7
  6
CONTINUOUS
 10
171.649241933
 20
158.1085218983
  0
VERTEX
  8
SURFACE
 62
7
  6
CONTINUOUS
 10
171.6375127257
 20
158.0999263236
  0
VERTEX
  8
SURFACE
 62
7
  6
CONTINUOUS
 10
171.616537273
 20
158.0869117983
  0
VERTEX
  8
SURFACE
 62
7
  6
CONTINUOUS
 10
171.5850213122
 20
158.0709491116
  0
VERTEX
  8
SURFACE
 62
7
  6
CONTINUOUS
 10
171.5425800287
 20
158.0543428857
  0
VERTEX
  8
SURFACE
 62
7
  6
CONTINUOUS
 10
171.4889110287
 20
158.039639986
  0
VERTEX
  8
SURFACE
 62
7
  6
CONTINUOUS
 10
171.441831953
 20
158.0316811245
  0
SEQEND
  0
POLYLINE
  8
SURFACE
 62
7
  6
CONTINUOUS
 66
1
 70
0
  0
VERTEX
  8
SURFACE
 62
7
  6
CONTINUOUS
 10
159.6577393479
 20
207.3847770963
  0
VERTEX
  8
SURFACE
 62
7
  6
CONTINUOUS
 10
159.555272937
 20
207.3685122922
  0
VERTEX
  8
SURFACE
 62
7
  6
CONTINUOUS
 10
159.4541810003
 20
207.3450693459
  0
VERTEX
  8
SURFACE
 62
7
  6
CONTINUOUS
 10
159.3549744023
 20
207.3145707557
  0
VERTEX
  8
SURFACE
 62
7
  6
CONTINUOUS
 10
159.2581090569
 20
207.2771580949
  0
VERTEX
  8
SURFACE
 62
7
  6
CONTINUOUS
 10
159.1640375137
 20
207.233000244
  0
VERTEX
  8
SURFACE
 62
7
  6
CONTINUOUS
 10
159.0732195921
 20
207.182302532
  0
VERTEX
  8
SURFACE
 62
7
  6
CONTINUOUS
 10
158.9860936234
 20
207.1252956857
  0
VERTEX
  8
SURFACE
 62
7
  6
CONTINUOUS
 10
158.9030898569
 20
207.062243581
  0
VERTEX
  8
SURFACE
 62
7
  6
CONTINUOUS
 10
158.8246153624
 20
206.99343406
  0
VERTEX
  8
SURFACE
 62
7
  6
CONTINUOUS
 10
158.7510672533
 20
206.919190645
  0
VERTEX
  8
SURFACE
 62
7
  6
CONTINUOUS
 10
158.6828153686
 20
206.8398592066
  0
VERTEX
  8
SURFACE
 62
7
  6
CONTINUOUS
 10
158.6202100099
 20
206.7558163547
  0
VERTEX
  8
SURFACE
 62
7
  6
CONTINUOUS
 10
158.5635711645
 20
206.6674576448
  0
VERTEX
  8
SURFACE
 62
7
  6
CONTINUOUS
 10
158.5131960505
 20
206.5752094273
  0
VERTEX
  8
SURFACE
 62
7
  6
CONTINUOUS
 10
158.4693459557
 20
206.4795086307
  0
VERTEX
  8
SURFACE
 62
7
  6
CONTINUOUS
 10
158.4322597488
 20
206.3808331665
  0
VERTEX
  8
SURFACE
 62
7
  6
CONTINUOUS
 10
158.4021324676
 20
206.2796573193
  0
VERTEX
  8
SURFACE
 62
7
  6
CONTINUOUS
 10
158.3791341448
 20
206.1765162826
  0
VERTEX
  8
SURFACE
 62
7
  6
CONTINUOUS
 10
158.3633833615
 20
206.0719332771
  0
VERTEX
  8
SURFACE
 62
7
  6
CONTINUOUS
 10
158.3549570225
 20
205.9664695381
  0
VERTEX
  8
SURFACE
 62
7
  6
CONTINUOUS
 10
158.3534213482
 20
205.8980712606
  0
SEQEND
  0
LINE
  8
SURFACE
 62
7
  6
CONTINUOUS
 10
159.6577395724
 20
207.3847771239
 11
176.3315519982
 21
209.4320638612
  0
POLYLINE
  8
SURFACE
 62
7
  6
CONTINUOUS
 66
1
 70
0
  0
VERTEX
  8
SURFACE
 62
7
  6
CONTINUOUS
 10
171.6461991437
 20
223.0534663032
  0
VERTEX
  8
SURFACE
 62
7
  6
CONTINUOUS
 10
171.6490748327
 20
223.0512353953
  0
VERTEX
  8
SURFACE
 62
7
  6
CONTINUOUS
 10
171.6528388806
 20
223.048095239
  0
VERTEX
  8
SURFACE
 62
7
  6
CONTINUOUS
 10
171.6516293225
 20
223.049254283
  0
SEQEND
  0
POLYLINE
  8
SURFACE
 62
7
  6
CONTINUOUS
 66
1
 70
0
  0
VERTEX
  8
SURFACE
 62
7
  6
CONTINUOUS
 10
171.6515390586
 20
132.7102810808
  0
VERTEX
  8
SURFACE
 62
7
  6
CONTINUOUS
 10
171.6528373349
 20
132.7115275977
  0
VERTEX
  8
SURFACE
 62
7
  6
CONTINUOUS
 10
171.649241933
 20
132.7085218983
  0
VERTEX
  8
SURFACE
 62
7
  6
CONTINUOUS
 10
171.6375127257
 20
132.6999263236
  0
VERTEX
  8
SURFACE
 62
7
  6
CONTINUOUS
 10
171.616537273
 20
132.6869117983
  0
VERTEX
  8
SURFACE
 62
7
  6
CONTINUOUS
 10
171.5850213122
 20
132.6709491116
  0
VERTEX
  8
SURFACE
 62
7
  6
CONTINUOUS
 10
171.5425800287
 20
132.6543428857
  0
VERTEX
  8
SURFACE
 62
7
  6
CONTINUOUS
 10
171.4889110287
 20
132.639639986
  0
VERTEX
  8
SURFACE
 62
7
  6
CONTINUOUS
 10
171.441831953
 20
132.6316811245
  0
SEQEND
  0
LINE
  8
SURFACE
 62
7
  6
CONTINUOUS
 10
176.3315519982
 20
222.5275603306
 11
159.6577395677
 21
224.5748470685
  0
POLYLINE
  8
SURFACE
 62
7
  6
CONTINUOUS
 66
1
 70
0
  0
VERTEX
  8
SURFACE
 62
7
  6
CONTINUOUS
 10
171.4418575059
 20
223.1279399176
  0
VERTEX
  8
SURFACE
 62
7
  6
CONTINUOUS
 10
171.4876027643
 20
223.1202649556
  0
VERTEX
  8
SURFACE
 62
7
  6
CONTINUOUS
 10
171.5415219841
 20
223.1056348324
  0
VERTEX
  8
SURFACE
 62
7
  6
CONTINUOUS
 10
171.584214748
 20
223.0890385614
  0
VERTEX
  8
SURFACE
 62
7
  6
CONTINUOUS
 10
171.6159681184
 20
223.0730347341
  0
VERTEX
  8
SURFACE
 62
7
  6
CONTINUOUS
 10
171.6371557446
 20
223.0599409849
  0
VERTEX
  8
SURFACE
 62
7
  6
CONTINUOUS
 10
171.6461991437
 20
223.0534663032
  0
SEQEND
  0
POLYLINE
  8
SURFACE
 62
7
  6
CONTINUOUS
 66
1
 70
0
  0
VERTEX
  8
SURFACE
 62
7
  6
CONTINUOUS
 10
159.6577393478
 20
232.7847770963
  0
VERTEX
  8
SURFACE
 62
7
  6
CONTINUOUS
 10
159.5552729672
 20
232.7685122981
  0
VERTEX
  8
SURFACE
 62
7
  6
CONTINUOUS
 10
159.4541810487
 20
232.7450693589
  0
VERTEX
  8
SURFACE
 62
7
  6
CONTINUOUS
 10
159.3549744554
 20
232.7145707741
  0
VERTEX
  8
SURFACE
 62
7
  6
CONTINUOUS
 10
159.2581091066
 20
232.6771581162
  0
VERTEX
  8
SURFACE
 62
7
  6
CONTINUOUS
 10
159.1640375556
 20
232.6330002655
  0
VERTEX
  8
SURFACE
 62
7
  6
CONTINUOUS
 10
159.0732196253
 20
232.5823025522
  0
VERTEX
  8
SURFACE
 62
7
  6
CONTINUOUS
 10
158.9860936523
 20
232.5252957061
  0
VERTEX
  8
SURFACE
 62
7
  6
CONTINUOUS
 10
158.9030898828
 20
232.4622436022
  0
VERTEX
  8
SURFACE
 62
7
  6
CONTINUOUS
 10
158.8246153857
 20
232.3934340819
  0
VERTEX
  8
SURFACE
 62
7
  6
CONTINUOUS
 10
158.7510672742
 20
232.3191906676
  0
VERTEX
  8
SURFACE
 62
7
  6
CONTINUOUS
 10
158.6828153864
 20
232.2398592289
  0
VERTEX
  8
SURFACE
 62
7
  6
CONTINUOUS
 10
158.6202100246
 20
232.1558163759
  0
VERTEX
  8
SURFACE
 62
7
  6
CONTINUOUS
 10
158.5635711761
 20
232.0674576643
  0
VERTEX
  8
SURFACE
 62
7
  6
CONTINUOUS
 10
158.5131960592
 20
231.9752094447
  0
VERTEX
  8
SURFACE
 62
7
  6
CONTINUOUS
 10
158.4693459619
 20
231.8795086456
  0
VERTEX
  8
SURFACE
 62
7
  6
CONTINUOUS
 10
158.4322597529
 20
231.7808331786
  0
VERTEX
  8
SURFACE
 62
7
  6
CONTINUOUS
 10
158.4021324701
 20
231.6796573287
  0
VERTEX
  8
SURFACE
 62
7
  6
CONTINUOUS
 10
158.379134146
 20
231.5765162892
  0
VERTEX
  8
SURFACE
 62
7
  6
CONTINUOUS
 10
158.363383362
 20
231.4719332813
  0
VERTEX
  8
SURFACE
 62
7
  6
CONTINUOUS
 10
158.3549570226
 20
231.3664695403
  0
VERTEX
  8
SURFACE
 62
7
  6
CONTINUOUS
 10
158.3534213482
 20
231.2980712606
  0
SEQEND
  0
LINE
  8
SURFACE
 62
7
  6
CONTINUOUS
 10
159.6577395724
 20
232.7847771239
 11
176.3315519982
 21
234.8320638612
  0
POLYLINE
  8
SURFACE
 62
7
  6
CONTINUOUS
 66
1
 70
0
  0
VERTEX
  8
SURFACE
 62
7
  6
CONTINUOUS
 10
171.6461991437
 20
248.4534663032
  0
VERTEX
  8
SURFACE
 62
7
  6
CONTINUOUS
 10
171.6490748327
 20
248.4512353953
  0
VERTEX
  8
SURFACE
 62
7
  6
CONTINUOUS
 10
171.6528388806
 20
248.448095239
  0
VERTEX
  8
SURFACE
 62
7
  6
CONTINUOUS
 10
171.6516293225
 20
248.449254283
  0
SEQEND
  0
LINE
  8
SURFACE
 62
7
  6
CONTINUOUS
 10
176.3315519982
 20
247.9275603306
 11
159.6577395677
 21
249.9748470685
  0
POLYLINE
  8
SURFACE
 62
7
  6
CONTINUOUS
 66
1
 70
0
  0
VERTEX
  8
SURFACE
 62
7
  6
CONTINUOUS
 10
171.4418575059
 20
248.5279399176
  0
VERTEX
  8
SURFACE
 62
7
  6
CONTINUOUS
 10
171.4876027643
 20
248.5202649556
  0
VERTEX
  8
SURFACE
 62
7
  6
CONTINUOUS
 10
171.5415219841
 20
248.5056348324
  0
VERTEX
  8
SURFACE
 62
7
  6
CONTINUOUS
 10
171.584214748
 20
248.4890385614
  0
VERTEX
  8
SURFACE
 62
7
  6
CONTINUOUS
 10
171.6159681184
 20
248.4730347341
  0
VERTEX
  8
SURFACE
 62
7
  6
CONTINUOUS
 10
171.6371557446
 20
248.4599409849
  0
VERTEX
  8
SURFACE
 62
7
  6
CONTINUOUS
 10
171.6461991437
 20
248.4534663032
  0
SEQEND
  0
LINE
  8
SURFACE
 62
7
  6
CONTINUOUS
 10
176.4534213416
 20
259.7298120959
 11
159.3534213416
 21
259.7298120959
  0
LINE
  8
SURFACE
 62
7
  6
CONTINUOUS
 10
34.2568022629
 20
68.0142342349
 11
34.2568022629
 21
69.1142342349
  0
LINE
  8
0
 62
2
  6
CONTINUOUS
 10
43.2568022629
 20
68.8942342349
 11
43.2568022629
 21
67.1342342349
  0
LINE
  8
DEFAULT_1
 62
7
  6
CENTER
 10
43.2568022629
 20
63.6142342349
 11
43.2568022629
 21
61.7142342349
  0
LINE
  8
DEFAULT_1
 62
7
  6
CENTER
 10
43.2568022629
 20
72.4142342349
 11
43.2568022629
 21
74.3142342349
  0
LINE
  8
SURFACE
 62
7
  6
CONTINUOUS
 10
51.2333440022
 20
76.0639817032
 11
61.4569296447
 21
65.8403960608
  0
LINE
  8
SURFACE
 62
7
  6
CONTINUOUS
 10
43.2568022629
 20
59.0142342349
 11
106.5068022629
 21
59.0142342349
  0
LINE
  8
SURFACE
 62
7
  6
CONTINUOUS
 10
70.5581641353
 20
70.0300596598
 11
71.067292845
 21
75.8494274407
  0
LINE
  8
SURFACE
 62
7
  6
CONTINUOUS
 10
62.4564081306
 20
65.591198086
 11
68.4466951551
 21
67.4226126201
  0
LINE
  8
AXES
 62
7
  6
CENTER
 10
110.9068022629
 20
68.0142342349
 11
108.5069022629
 21
68.0142342349
  0
LINE
  8
AXES
 62
2
  6
CONTINUOUS
 10
107.3868022629
 20
68.0142342349
 11
105.6268022629
 21
68.0142342349
  0
LINE
  8
0
 62
2
  6
CONTINUOUS
 10
44.1368022629
 20
68.0142342349
 11
42.3768022629
 21
68.0142342349
  0
LINE
  8
DEFAULT_1
 62
7
  6
CENTER
 10
38.8568022629
 20
68.0142342349
 11
36.9568022629
 21
68.0142342349
  0
LINE
  8
DEFAULT_1
 62
7
  6
CENTER
 10
47.6568022629
 20
68.0142342349
 11
49.5568022629
 21
68.0142342349
  0
LINE
  8
AXES
 62
7
  6
CENTER
 10
102.1068022629
 20
68.0142342349
 11
104.5067022629
 21
68.0142342349
  0
LINE
  8
SURFACE
 62
7
  6
CONTINUOUS
 10
81.3169093707
 20
67.4226126201
 11
98.3062170509
 21
62.2284600056
  0
LINE
  8
SURFACE
 62
7
  6
CONTINUOUS
 10
78.6963116809
 20
75.8494274407
 11
79.2054403906
 21
70.0300596598
  0
LINE
  8
SURFACE
 62
7
  6
CONTINUOUS
 10
98.5302605236
 20
76.0639817032
 11
88.3066748802
 21
65.8403960598
  0
LINE
  8
SURFACE
 62
7
  6
CONTINUOUS
 10
106.5068022629
 20
78.1142342349
 11
103.4800079919
 21
78.1142342349
  0
LINE
  8
SURFACE
 62
7
  6
CONTINUOUS
 10
43.2568022629
 20
78.1142342349
 11
46.2835965339
 21
78.1142342349
  0
LINE
  8
SURFACE
 62
7
  6
CONTINUOUS
 10
100.759056803
 20
60.7901799187
 11
100.5022737358
 21
61.006739673
  0
LINE
  8
AXES
 62
7
  6
CENTER
 10
106.5068022629
 20
72.4142342349
 11
106.5068022629
 21
70.0143342349
  0
LINE
  8
AXES
 62
2
  6
CONTINUOUS
 10
106.5068022629
 20
68.8942342349
 11
106.5068022629
 21
67.1342342349
  0
LINE
  8
AXES
 62
7
  6
CENTER
 10
106.5068022629
 20
63.6142342349
 11
106.5068022629
 21
66.0141342349
  0
LINE
  8
0
 62
7
  6
CONTINUOUS
 10
113.7902376312
 20
74.4011585278
 11
113.7899587696
 21
74.4015427035
  0
LINE
  8
SURFACE
 62
7
  6
CONTINUOUS
 10
115.5068022629
 20
69.1142342349
 11
115.5068022629
 21
68.0142342349
  0
LINE
  8
0
 62
7
  6
CONTINUOUS
 10
115.5068022629
 20
68.0142342349
 11
115.5068022629
 21
69.1142342349
  0
ARC
  8
SURFACE
 62
7
  6
CONTINUOUS
 10
35.2568022629
 20
258.7298120959
 40
1.0
 50
90.0
 51
180.0
  0
ARC
  8
0
 62
7
  6
CONTINUOUS
 10
114.5068022629
 20
109.7298120959
 40
1.0
 50
270.0
 51
360.0
  0
ARC
  8
SURFACE
 62
7
  6
CONTINUOUS
 10
47.6353474544
 20
246.9201064866
 40
0.9999999978
 50
0.0000000398
 51
90.0000000124
  0
ARC
  8
SURFACE
 62
7
  6
CONTINUOUS
 10
47.6353474543
 20
235.8395177052
 40
0.9999999978
 50
269.99999999
 51
359.9999999628
  0
ARC
  8
SURFACE
 62
7
  6
CONTINUOUS
 10
47.6353474544
 20
221.5201064866
 40
0.9999999978
 50
0.0000000398
 51
90.0000000124
  0
ARC
  8
SURFACE
 62
7
  6
CONTINUOUS
 10
47.6353474543
 20
210.4395177052
 40
0.9999999978
 50
269.99999999
 51
359.9999999628
  0
ARC
  8
SURFACE
 62
7
  6
CONTINUOUS
 10
47.6353474544
 20
196.1201064866
 40
0.9999999978
 50
0.0000000398
 51
90.0000000124
  0
ARC
  8
SURFACE
 62
7
  6
CONTINUOUS
 10
102.1282570715
 20
234.2201064866
 40
0.9999999978
 50
89.99999999
 51
179.9999999628
  0
ARC
  8
SURFACE
 62
7
  6
CONTINUOUS
 10
102.1282570715
 20
248.5395177052
 40
0.9999999978
 50
180.0000000398
 51
270.0000000124
  0
ARC
  8
SURFACE
 62
7
  6
CONTINUOUS
 10
102.1282570715
 20
208.8201064866
 40
0.9999999978
 50
89.99999999
 51
179.9999999628
  0
ARC
  8
SURFACE
 62
7
  6
CONTINUOUS
 10
102.1282570715
 20
223.1395177052
 40
0.9999999978
 50
180.0000000398
 51
270.0000000124
  0
ARC
  8
SURFACE
 62
7
  6
CONTINUOUS
 10
102.1282570715
 20
197.7395177052
 40
0.9999999978
 50
180.0000000398
 51
270.0000000124
  0
ARC
  8
SURFACE
 62
7
  6
CONTINUOUS
 10
102.1282570715
 20
121.5395177052
 40
0.9999999978
 50
180.0000000398
 51
270.0000000124
  0
ARC
  8
SURFACE
 62
7
  6
CONTINUOUS
 10
102.1282570715
 20
132.6201064866
 40
0.9999999978
 50
89.99999999
 51
179.9999999628
  0
ARC
  8
SURFACE
 62
7
  6
CONTINUOUS
 10
102.1282570715
 20
146.9395177052
 40
0.9999999978
 50
180.0000000398
 51
270.0000000124
  0
ARC
  8
SURFACE
 62
7
  6
CONTINUOUS
 10
102.1282570715
 20
158.0201064866
 40
0.9999999978
 50
89.99999999
 51
179.9999999628
  0
ARC
  8
SURFACE
 62
7
  6
CONTINUOUS
 10
102.1282570715
 20
172.3395177052
 40
0.9999999978
 50
180.0000000398
 51
270.0000000124
  0
ARC
  8
SURFACE
 62
7
  6
CONTINUOUS
 10
102.1282570715
 20
183.4201064866
 40
0.9999999978
 50
89.99999999
 51
179.9999999628
  0
ARC
  8
SURFACE
 62
7
  6
CONTINUOUS
 10
47.6353474543
 20
134.2395177052
 40
0.9999999978
 50
269.99999999
 51
359.9999999628
  0
ARC
  8
SURFACE
 62
7
  6
CONTINUOUS
 10
47.6353474544
 20
119.9201064866
 40
0.9999999978
 50
0.0000000398
 51
90.0000000124
  0
ARC
  8
SURFACE
 62
7
  6
CONTINUOUS
 10
47.6353474543
 20
159.6395177052
 40
0.9999999978
 50
269.99999999
 51
359.9999999628
  0
ARC
  8
SURFACE
 62
7
  6
CONTINUOUS
 10
47.6353474544
 20
145.3201064866
 40
0.9999999978
 50
0.0000000398
 51
90.0000000124
  0
ARC
  8
SURFACE
 62
7
  6
CONTINUOUS
 10
47.6353474543
 20
185.0395177052
 40
0.9999999978
 50
269.99999999
 51
359.9999999628
  0
ARC
  8
SURFACE
 62
7
  6
CONTINUOUS
 10
47.6353474544
 20
170.7201064866
 40
0.9999999978
 50
0.0000000398
 51
90.0000000124
  0
ARC
  8
0
 62
7
  6
CONTINUOUS
 10
159.3534213416
 20
109.7298120959
 40
1.0
 50
180.0
 51
270.0000000123
  0
ARC
  8
SURFACE
 62
7
  6
CONTINUOUS
 10
159.3534213416
 20
258.7298120959
 40
1.0
 50
90.0
 51
180.0
  0
ARC
  8
0
 62
7
  6
CONTINUOUS
 10
176.4534213416
 20
172.7201064823
 40
1.0
 50
263.0
 51
360.0
  0
ARC
  8
SURFACE
 62
7
  6
CONTINUOUS
 10
176.4534213282
 20
172.7201064839
 40
1.0000000001
 50
263.0000007768
 51
359.9999999053
  0
ARC
  8
SURFACE
 62
7
  6
CONTINUOUS
 10
176.4534213416
 20
183.0395177095
 40
1.0
 50
0.0
 51
97.0
  0
ARC
  8
0
 62
7
  6
CONTINUOUS
 10
176.4534213416
 20
183.0395177095
 40
1.0
 50
0.0
 51
97.0
  0
ARC
  8
0
 62
7
  6
CONTINUOUS
 10
176.4534213416
 20
147.3201064823
 40
1.0
 50
263.0
 51
360.0
  0
ARC
  8
SURFACE
 62
7
  6
CONTINUOUS
 10
176.4534213282
 20
147.3201064839
 40
1.0000000001
 50
263.0000007768
 51
359.9999999053
  0
ARC
  8
SURFACE
 62
7
  6
CONTINUOUS
 10
176.4534213416
 20
157.6395177095
 40
1.0
 50
0.0
 51
97.0
  0
ARC
  8
0
 62
7
  6
CONTINUOUS
 10
176.4534213416
 20
157.6395177095
 40
1.0
 50
0.0
 51
97.0
  0
ARC
  8
0
 62
7
  6
CONTINUOUS
 10
176.4534213416
 20
121.9201064823
 40
1.0
 50
263.0
 51
360.0
  0
ARC
  8
SURFACE
 62
7
  6
CONTINUOUS
 10
176.4534213282
 20
121.9201064839
 40
1.0000000001
 50
263.0000007768
 51
359.9999999053
  0
ARC
  8
SURFACE
 62
7
  6
CONTINUOUS
 10
176.4534213416
 20
132.2395177095
 40
1.0
 50
0.0
 51
97.0
  0
ARC
  8
0
 62
7
  6
CONTINUOUS
 10
176.4534213416
 20
132.2395177095
 40
1.0
 50
0.0
 51
97.0
  0
ARC
  8
0
 62
7
  6
CONTINUOUS
 10
176.4534213416
 20
109.7298120959
 40
1.0
 50
270.0
 51
360.0
  0
ARC
  8
SURFACE
 62
7
  6
CONTINUOUS
 10
176.4534213416
 20
258.7298120959
 40
1.0
 50
0.0
 51
90.0
  0
ARC
  8
SURFACE
 62
7
  6
CONTINUOUS
 10
176.4534213416
 20
248.9201064823
 40
1.0
 50
263.0
 51
360.0
  0
ARC
  8
SURFACE
 62
7
  6
CONTINUOUS
 10
176.4534213416
 20
233.8395177095
 40
1.0
 50
0.0
 51
97.0
  0
ARC
  8
SURFACE
 62
7
  6
CONTINUOUS
 10
176.4534213416
 20
223.5201064823
 40
1.0
 50
263.0
 51
360.0
  0
ARC
  8
SURFACE
 62
7
  6
CONTINUOUS
 10
176.4534213416
 20
208.4395177095
 40
1.0
 50
0.0
 51
97.0
  0
ARC
  8
SURFACE
 62
7
  6
CONTINUOUS
 10
176.4534213416
 20
198.1201064823
 40
1.0
 50
263.0
 51
360.0
  0
ARC
  8
SURFACE
 62
7
  6
CONTINUOUS
 10
43.2568022629
 20
69.1142342349
 40
9.0
 50
90.0
 51
180.0
  0
ARC
  8
SURFACE
 62
7
  6
CONTINUOUS
 10
43.2568022629
 20
68.0142342349
 40
9.0
 50
180.0
 51
270.0
  0
ARC
  8
SURFACE
 62
7
  6
CONTINUOUS
 10
46.2835965339
 20
71.1142342349
 40
7.0
 50
45.0
 51
90.0
  0
ARC
  8
SURFACE
 62
7
  6
CONTINUOUS
 10
74.8818022629
 20
72.1142342349
 40
6.0
 50
62.9009591033
 51
117.0990408967
  0
CIRCLE
  8
0
 62
7
  6
CONTINUOUS
 10
43.2568022629
 20
68.0142342349
 40
4.3
  0
ARC
  8
SURFACE
 62
7
  6
CONTINUOUS
 10
67.569580041
 20
70.291526888
 40
3.0
 50
287.0
 51
355.0
  0
ARC
  8
SURFACE
 62
7
  6
CONTINUOUS
 10
73.0596822412
 20
75.6751159552
 40
2.0
 50
117.0990408967
 51
175.0
  0
ARC
  8
SURFACE
 62
7
  6
CONTINUOUS
 10
76.7039222847
 20
75.6751159552
 40
2.0
 50
5.0
 51
62.9009591033
  0
ARC
  8
0
 62
7
  6
CONTINUOUS
 10
76.7039222847
 20
75.6751159552
 40
2.0
 50
4.999999999
 51
8.6188099437
  0
ARC
  8
SURFACE
 62
7
  6
CONTINUOUS
 10
62.1640364259
 20
66.5475028419
 40
1.0
 50
225.0
 51
287.0
  0
ARC
  8
SURFACE
 62
7
  6
CONTINUOUS
 10
96.5519868226
 20
56.4906314698
 40
6.0
 50
48.823473186
 51
73.0
  0
ARC
  8
0
 62
7
  6
CONTINUOUS
 10
100.1282570759
 20
60.0142342349
 40
1.0
 50
4.1285202285
 51
7.0000000065
  0
ARC
  8
SURFACE
 62
7
  6
CONTINUOUS
 10
100.1282570759
 20
60.0142342349
 40
1.0
 50
270.0
 51
50.8908503688
  0
ARC
  8
SURFACE
 62
7
  6
CONTINUOUS
 10
82.1940244849
 20
70.291526888
 40
3.0
 50
184.9999999997
 51
253.0000000003
  0
ARC
  8
SURFACE
 62
7
  6
CONTINUOUS
 10
87.5995693187
 20
66.5475024693
 40
0.9999997729
 50
252.9999269838
 51
314.9999656218
  0
ARC
  8
0
 62
7
  6
CONTINUOUS
 10
87.5995693187
 20
66.5475024693
 40
0.9999997729
 50
253.0
 51
314.9999656218
  0
ARC
  8
SURFACE
 62
7
  6
CONTINUOUS
 10
106.6318022629
 20
68.0142342349
 40
9.31
 50
228.823473186
 51
230.8908503688
  0
ARC
  8
SURFACE
 62
7
  6
CONTINUOUS
 10
106.5068022629
 20
68.0142342349
 40
9.0
 50
270.0
 51
360.0
  0
ARC
  8
0
 62
7
  6
CONTINUOUS
 10
106.5068022629
 20
69.1142342349
 40
9.0
 50
35.522416796
 51
87.5294980589
  0
ARC
  8
SURFACE
 62
7
  6
CONTINUOUS
 10
106.5068022629
 20
69.1142342349
 40
9.0
 50
0.0
 51
90.0
  0
CIRCLE
  8
0
 62
7
  6
CONTINUOUS
 10
106.5068022629
 20
68.0142342349
 40
4.3
  0
ARC
  8
SURFACE
 62
7
  6
CONTINUOUS
 10
103.4800079919
 20
71.1142342349
 40
7.0
 50
90.0
 51
135.0
  0
ARC
  8
0
 62
7
  6
CONTINUOUS
 10
113.3818022629
 20
74.1126714907
 40
0.5
 50
0.0
 51
6.0031366318
  0
ENDSEC
  0
EOF
