  0
SECTION
  2
HEADER
  9
$EXTMAX
 10
210.0
 20
297.0
 30
0.0
  9
$EXTMIN
 10
0.0
 20
0.0
 30
0.0
  9
$LIMMIN
 10
0.0
 20
0.0
  9
$LIMMAX
 10
210.0
 20
297.0
  9
$VIEWCTR
 10
105.0
 20
148.5
  9
$VIEWSIZE
 40
297.0
  9
$CLAYER
  8
0
  9
$LTSCALE
 40
19.36
  9
$CELTYPE
  6
BYLAYER
  9
$DIMSCALE
 40
1.0
  9
$DIMASZ
 40
3.5
  9
$DIMEXO
 40
1.0
  9
$DIMDLI
 40
13.376
  9
$DIMEXE
 40
2.0
  9
$DIMCEN
 40
3.168
  9
$DIMLFAC
 40
1.0
  9
$DIMBLK
  1
_FILLED
  9
$DIMTXT
 40
3.5
  9
$PDMODE
 70
3
  9
$PDSIZE
 40
0.3125
  9
$TILEMODE
 70
1
  0
ENDSEC
  0
SECTION
  2
TABLES
  0
TABLE
  2
LTYPE
 70
6
  0
LTYPE
  2
BYBLOCK
 70
0
  3

 72
65
 73
0
 40
0.0
  0
LTYPE
  2
BYLAYER
 70
0
  3

 72
65
 73
0
 40
0.0
  0
LTYPE
  2
CONTINUOUS
 70
64
  3
Solid line
 72
65
 73
0
 40
0.0
  0
LTYPE
  2
CENTER
 70
64
  3
____ _ ____ _ ____ _ ____ _ ____ _ ____ _ ____
 72
65
 73
4
 40
0.6
 49
0.375
 49
-0.075
 49
0.075
 49
-0.075
  0
LTYPE
  2
HIDDEN
 70
64
  3
- - - - - - - - - - - - - - - - - - - -
 72
65
 73
2
 40
0.2
 49
0.1
 49
-0.1
  0
LTYPE
  2
PHANTOM
 70
64
  3
_____ _ _ _____ _ _ _____ _ _ _____
 72
65
 73
6
 40
0.8
 49
0.45
 49
-0.05
 49
0.1
 49
-0.05
 49
0.1
 49
-0.05
  0
LTYPE
  2
DOT
 70
64
  3
. . . . . . . . . . . . . . . . . . . .
 72
65
 73
2
 40
0.2
 49
0.1
 49
-0.1
  0
LTYPE
  2
DASHED
 70
64
  3
- - - - - - - - - - - - - - - - - - - -
 72
65
 73
2
 40
0.2
 49
0.1
 49
-0.1
  0
ENDTAB
  0
TABLE
  2
LAYER
 70
36
  0
LAYER
  2
0
 70
0
 62
7
  6
CONTINUOUS
  0
LAYER
  2
DEFAULT_1
 70
0
 62
7
  6
CENTER
  0
LAYER
  2
DEFAULT_2
 70
0
 62
8
  6
HIDDEN
  0
LAYER
  2
DEFAULT_3
 70
0
 62
7
  6
PHANTOM
  0
LAYER
  2
1_DATUMPLANE
 70
0
 62
7
  6
CONTINUOUS
  0
LAYER
  2
4_QUILT
 70
0
 62
7
  6
CONTINUOUS
  0
LAYER
  2
4_SURFACE
 70
0
 62
7
  6
CONTINUOUS
  0
LAYER
  2
AXES
 70
0
 62
7
  6
CONTINUOUS
  0
LAYER
  2
CSYS
 70
0
 62
7
  6
CONTINUOUS
  0
LAYER
  2
CURVE
 70
0
 62
7
  6
CONTINUOUS
  0
LAYER
  2
CURVES
 70
0
 62
7
  6
CONTINUOUS
  0
LAYER
  2
DS
 70
0
 62
7
  6
CONTINUOUS
  0
LAYER
  2
NOTES
 70
0
 62
7
  6
CONTINUOUS
  0
LAYER
  2
PLANES
 70
0
 62
7
  6
CONTINUOUS
  0
LAYER
  2
QUILT
 70
0
 62
7
  6
CONTINUOUS
  0
LAYER
  2
QUILTS
 70
0
 62
7
  6
CONTINUOUS
  0
LAYER
  2
SOLID
 70
0
 62
7
  6
CONTINUOUS
  0
LAYER
  2
SPLIT_LINIE
 70
0
 62
7
  6
CONTINUOUS
  0
LAYER
  2
SURFACE
 70
0
 62
7
  6
CONTINUOUS
  0
ENDTAB
  0
TABLE
  2
STYLE
 70
1
  0
STYLE
  2
STANDARD
 70
0
 40
0.0
 41
0.8
 50
0.0
 71
0
 42
0.2
  3
txt
  4

  0
STYLE
  2
TEXTSTYLE_1
 70
0
 40
0.0
 41
0.8
 50
0.0
 71
0
 42
0.2
  3
gdt
  4

  0
STYLE
  2
TEXTSTYLE_2
 70
0
 40
0.0
 41
0.6
 50
0.0
 71
0
 42
0.2
  3
txt
  4

  0
STYLE
  2
TEXTSTYLE_3
 70
0
 40
0.0
 41
1.0
 50
0.0
 71
0
 42
0.2
  3
ftb_____.ttf
  4

  0
STYLE
  2
TEXTSTYLE_4
 70
0
 40
0.0
 41
1.0
 50
0.0
 71
0
 42
0.2
  3
fti_____.ttf
  4

  0
STYLE
  2
TEXTSTYLE_5
 70
0
 40
0.0
 41
1.0
 50
0.0
 71
0
 42
0.2
  3
frutiger light.ttf
  4

  0
STYLE
  2
TEXTSTYLE_6
 70
0
 40
0.0
 41
0.7
 50
0.0
 71
0
 42
0.2
  3
txt
  4

  0
STYLE
  2
TEXTSTYLE_7
 70
0
 40
0.0
 41
0.75
 50
0.0
 71
0
 42
0.2
  3
txt
  4

  0
ENDTAB
  0
ENDSEC
  0
SECTION
  2
BLOCKS
  0
BLOCK
  8
0
 62
2
  6
CONTINUOUS
  2
SYMBOL_8_BL1
 70
64
 10
173.5956734183
 20
35.5937998301
  0
TEXT
  8
0
 62
7
  6
CONTINUOUS
 10
164.6539584268
 20
30.6865562072
  7
TEXTSTYLE_4
 40
1.0655737705
  1
The brand for plastic modular belts and chains
 41
1.0
 72
0
  0
LINE
  8
0
 62
7
  6
CONTINUOUS
 10
149.5737418074
 20
36.1675703219
 11
149.5737418074
 21
34.0364227809
  0
LINE
  8
0
 62
7
  6
CONTINUOUS
 10
149.8628043005
 20
31.0454914852
 11
149.8628043005
 21
31.1422825445
  0
LINE
  8
0
 62
7
  6
CONTINUOUS
 10
149.5737418074
 20
31.1100188581
 11
149.6315543091
 21
30.9164367395
  0
LINE
  8
0
 62
7
  6
CONTINUOUS
 10
150.9671844304
 20
33.9544555678
 11
150.9671844304
 21
36.1675703219
  0
LINE
  8
0
 62
7
  6
CONTINUOUS
 10
151.8862417523
 20
32.1101932727
 11
151.8862417523
 21
30.5937998301
  0
LINE
  8
0
 62
7
  6
CONTINUOUS
 10
152.1753043074
 20
30.5937998301
 11
152.1753043074
 21
31.3358647082
  0
LINE
  8
0
 62
7
  6
CONTINUOUS
 10
152.1753043074
 20
31.4649194539
 11
152.1753043074
 21
32.1101932727
  0
LINE
  8
0
 62
7
  6
CONTINUOUS
 10
149.6315543091
 20
31.3036010218
 11
149.5737418074
 21
31.1100188581
  0
LINE
  8
0
 62
7
  6
CONTINUOUS
 10
149.9784292936
 20
30.8841730531
 11
149.8628043005
 21
31.0454914852
  0
LINE
  8
0
 62
7
  6
CONTINUOUS
 10
151.0768668626
 20
31.400392081
 11
151.1346793074
 21
31.3036010218
  0
LINE
  8
0
 62
7
  6
CONTINUOUS
 10
151.4237418626
 20
31.3036010218
 11
151.3659292523
 21
31.4326557675
  0
LINE
  8
0
 62
7
  6
CONTINUOUS
 10
152.852430332
 20
36.1675703219
 11
152.852430332
 21
34.3642916334
  0
LINE
  8
0
 62
7
  6
CONTINUOUS
 10
152.852430332
 20
33.0528162235
 11
152.852430332
 21
32.3970785186
  0
LINE
  8
0
 62
7
  6
CONTINUOUS
 10
153.2159293074
 20
31.2390736489
 11
153.2159293074
 21
30.5937998301
  0
LINE
  8
0
 62
7
  6
CONTINUOUS
 10
153.5049916972
 20
30.5937998301
 11
153.5049916972
 21
31.2390736489
  0
LINE
  8
0
 62
7
  6
CONTINUOUS
 10
149.8628043005
 20
31.1422825445
 11
149.9206168074
 21
31.2713373354
  0
LINE
  8
0
 62
7
  6
CONTINUOUS
 10
149.6315543091
 20
30.9164367395
 11
149.7471793074
 21
30.7873819712
  0
LINE
  8
0
 62
7
  6
CONTINUOUS
 10
153.1581166972
 20
31.3681283946
 11
153.2159293074
 21
31.2390736489
  0
LINE
  8
0
 62
7
  6
CONTINUOUS
 10
153.9674919177
 20
30.8841730531
 11
154.0253041972
 21
30.7551182848
  0
LINE
  8
0
 62
7
  6
CONTINUOUS
 10
153.5049916972
 20
31.2390736489
 11
153.4471794177
 21
31.400392081
  0
LINE
  8
0
 62
7
  6
CONTINUOUS
 10
153.9674919177
 20
31.4326557675
 11
153.9674919177
 21
31.3681283946
  0
LINE
  8
0
 62
7
  6
CONTINUOUS
 10
153.9674919177
 20
30.9809641124
 11
153.9674919177
 21
30.8841730531
  0
LINE
  8
0
 62
7
  6
CONTINUOUS
 10
154.245872955
 20
32.3970785186
 11
154.245872955
 21
36.1675703219
  0
LINE
  8
0
 62
7
  6
CONTINUOUS
 10
154.2565543074
 20
30.8519093441
 11
154.2565543074
 21
30.9164367395
  0
LINE
  8
0
 62
7
  6
CONTINUOUS
 10
154.5737418074
 20
36.1675703219
 11
154.5737418074
 21
32.3970785186
  0
LINE
  8
0
 62
7
  6
CONTINUOUS
 10
151.3659292523
 20
30.7873819712
 11
151.4237418626
 21
30.9164367395
  0
LINE
  8
0
 62
7
  6
CONTINUOUS
 10
155.759679528
 20
30.6905909007
 11
155.7018665869
 21
30.8519093441
  0
LINE
  8
0
 62
7
  6
CONTINUOUS
 10
155.412804528
 20
31.3681283946
 11
155.412804528
 21
31.2713373354
  0
LINE
  8
0
 62
7
  6
CONTINUOUS
 10
155.412804528
 20
31.1422825445
 11
155.412804528
 21
30.9487004259
  0
LINE
  8
0
 62
7
  6
CONTINUOUS
 10
155.7018665869
 20
30.8519093441
 11
155.7018665869
 21
31.3681283946
  0
LINE
  8
0
 62
7
  6
CONTINUOUS
 10
155.9671844304
 20
32.3970785186
 11
155.9671844304
 21
34.2003572071
  0
LINE
  8
0
 62
7
  6
CONTINUOUS
 10
155.9671844304
 20
35.511832617
 11
155.9671844304
 21
36.1675703219
  0
LINE
  8
0
 62
7
  6
CONTINUOUS
 10
156.279992028
 20
32.1101932727
 11
156.279992028
 21
31.9488748406
  0
LINE
  8
0
 62
7
  6
CONTINUOUS
 10
156.279992028
 20
31.626237886
 11
156.279992028
 21
30.5937998301
  0
LINE
  8
0
 62
7
  6
CONTINUOUS
 10
156.5690540869
 20
30.5937998301
 11
156.5690540869
 21
31.626237886
  0
LINE
  8
0
 62
7
  6
CONTINUOUS
 10
156.5690540869
 20
31.9488748406
 11
156.5690540869
 21
32.1101932727
  0
LINE
  8
0
 62
7
  6
CONTINUOUS
 10
151.1346793074
 20
30.9164367395
 11
151.0768668626
 21
30.8196456577
  0
LINE
  8
0
 62
7
  6
CONTINUOUS
 10
153.4471794177
 20
31.400392081
 11
153.3893668074
 21
31.4649194539
  0
LINE
  8
0
 62
7
  6
CONTINUOUS
 10
154.3143669177
 20
30.7873819712
 11
154.2565543074
 21
30.8519093441
  0
LINE
  8
0
 62
7
  6
CONTINUOUS
 10
155.4706168074
 20
30.6583272086
 11
155.5284290869
 21
30.5937998301
  0
LINE
  8
0
 62
7
  6
CONTINUOUS
 10
155.412804528
 20
30.7551182848
 11
155.4706168074
 21
30.6583272086
  0
LINE
  8
0
 62
7
  6
CONTINUOUS
 10
155.8174918074
 20
30.5937998301
 11
155.759679528
 21
30.6905909007
  0
LINE
  8
0
 62
7
  6
CONTINUOUS
 10
155.7018665869
 20
31.3681283946
 11
155.6440543074
 21
31.4649194539
  0
LINE
  8
0
 62
7
  6
CONTINUOUS
 10
157.0315543074
 20
31.626237886
 11
157.0315543074
 21
30.5937998301
  0
LINE
  8
0
 62
7
  6
CONTINUOUS
 10
157.320617028
 20
30.5937998301
 11
157.320617028
 21
31.3358647082
  0
LINE
  8
0
 62
7
  6
CONTINUOUS
 10
157.320617028
 20
31.4649194539
 11
157.320617028
 21
31.626237886
  0
LINE
  8
0
 62
7
  6
CONTINUOUS
 10
157.852430332
 20
34.6101932727
 11
157.852430332
 21
32.3970785186
  0
LINE
  8
0
 62
7
  6
CONTINUOUS
 10
149.7471793074
 20
31.4326557675
 11
149.6315543091
 21
31.3036010218
  0
LINE
  8
0
 62
7
  6
CONTINUOUS
 10
149.9206168074
 20
31.2713373354
 11
149.9784292936
 21
31.3358647082
  0
LINE
  8
0
 62
7
  6
CONTINUOUS
 10
149.7471793074
 20
30.7873819712
 11
149.8628043005
 21
30.7228545871
  0
LINE
  8
0
 62
7
  6
CONTINUOUS
 10
150.1518667936
 20
30.7873819712
 11
149.9784292936
 21
30.8841730531
  0
LINE
  8
0
 62
7
  6
CONTINUOUS
 10
155.3549915869
 20
31.4326557675
 11
155.412804528
 21
31.3681283946
  0
LINE
  8
0
 62
7
  6
CONTINUOUS
 10
158.3034290869
 20
31.3681283946
 11
158.361242028
 21
31.2068099625
  0
LINE
  8
0
 62
7
  6
CONTINUOUS
 10
158.6503040869
 20
31.2068099625
 11
158.5924918074
 21
31.3681283946
  0
LINE
  8
0
 62
7
  6
CONTINUOUS
 10
158.361242028
 20
31.2068099625
 11
158.361242028
 21
30.5937998301
  0
LINE
  8
0
 62
7
  6
CONTINUOUS
 10
158.6503040869
 20
30.5937998301
 11
158.6503040869
 21
31.2068099625
  0
LINE
  8
0
 62
7
  6
CONTINUOUS
 10
159.1128043074
 20
31.4326557675
 11
159.1128043074
 21
31.3681283946
  0
LINE
  8
0
 62
7
  6
CONTINUOUS
 10
159.245872955
 20
32.3970785186
 11
159.245872955
 21
34.5282260596
  0
LINE
  8
0
 62
7
  6
CONTINUOUS
 10
159.5737418074
 20
36.1675703219
 11
159.5737418074
 21
32.3970785186
  0
LINE
  8
0
 62
7
  6
CONTINUOUS
 10
154.2565543074
 20
30.9164367395
 11
154.3143669177
 21
31.0132277988
  0
LINE
  8
0
 62
7
  6
CONTINUOUS
 10
149.8628043005
 20
30.7228545871
 11
150.0362418212
 21
30.6583272086
  0
LINE
  8
0
 62
7
  6
CONTINUOUS
 10
151.3659292523
 20
31.4326557675
 11
151.1924917523
 21
31.5294468267
  0
LINE
  8
0
 62
7
  6
CONTINUOUS
 10
154.0253041972
 20
30.7551182848
 11
154.1987416972
 21
30.6583272086
  0
LINE
  8
0
 62
7
  6
CONTINUOUS
 10
153.0424918074
 20
31.4326557675
 11
153.1581166972
 21
31.3681283946
  0
LINE
  8
0
 62
7
  6
CONTINUOUS
 10
153.3893668074
 20
31.4649194539
 11
153.2737419177
 21
31.5294468267
  0
LINE
  8
0
 62
7
  6
CONTINUOUS
 10
159.1128043074
 20
30.8519093441
 11
159.228429528
 21
30.7228545871
  0
LINE
  8
0
 62
7
  6
CONTINUOUS
 10
159.4596793074
 20
30.7873819712
 11
159.401867028
 21
30.8519093441
  0
LINE
  8
0
 62
7
  6
CONTINUOUS
 10
159.1128043074
 20
31.3681283946
 11
159.228429528
 21
31.2390736489
  0
LINE
  8
0
 62
7
  6
CONTINUOUS
 10
158.5924918074
 20
31.3681283946
 11
158.534679528
 21
31.4649194539
  0
LINE
  8
0
 62
7
  6
CONTINUOUS
 10
160.9628038663
 20
30.7873819712
 11
160.9628038663
 21
30.8519093441
  0
LINE
  8
0
 62
7
  6
CONTINUOUS
 10
160.9671844304
 20
32.3970785186
 11
160.9671844304
 21
36.1675703219
  0
LINE
  8
0
 62
7
  6
CONTINUOUS
 10
154.0253041972
 20
31.4971831403
 11
153.9674919177
 21
31.4326557675
  0
LINE
  8
0
 62
7
  6
CONTINUOUS
 10
150.9034292799
 20
31.4649194539
 11
151.0768668626
 21
31.400392081
  0
LINE
  8
0
 62
7
  6
CONTINUOUS
 10
155.6440543074
 20
31.4649194539
 11
155.5284290869
 21
31.5294468267
  0
LINE
  8
0
 62
7
  6
CONTINUOUS
 10
159.4596793074
 20
31.3036010218
 11
159.401867028
 21
31.3681283946
  0
LINE
  8
0
 62
7
  6
CONTINUOUS
 10
160.615929528
 20
30.9164367395
 11
160.6737418074
 21
30.8519093441
  0
LINE
  8
0
 62
7
  6
CONTINUOUS
 10
160.9628038663
 20
30.8519093441
 11
160.8471793074
 21
30.9809641124
  0
LINE
  8
0
 62
7
  6
CONTINUOUS
 10
160.615929528
 20
31.4326557675
 11
160.6737418074
 21
31.3681283946
  0
LINE
  8
0
 62
7
  6
CONTINUOUS
 10
160.9628038663
 20
31.3681283946
 11
160.8471793074
 21
31.4971831403
  0
LINE
  8
0
 62
7
  6
CONTINUOUS
 10
154.2565543074
 20
31.3681283946
 11
154.3143669177
 21
31.4326557675
  0
LINE
  8
0
 62
7
  6
CONTINUOUS
 10
154.0831168074
 20
31.1100188581
 11
153.9674919177
 21
30.9809641124
  0
LINE
  8
0
 62
7
  6
CONTINUOUS
 10
155.412804528
 20
30.9487004259
 11
155.3549915869
 21
30.8841730531
  0
LINE
  8
0
 62
7
  6
CONTINUOUS
 10
155.3549915869
 20
30.6905909007
 11
155.412804528
 21
30.7551182848
  0
LINE
  8
0
 62
7
  6
CONTINUOUS
 10
154.1987416972
 20
30.6583272086
 11
154.3143669177
 21
30.6260635193
  0
LINE
  8
0
 62
7
  6
CONTINUOUS
 10
151.1924917523
 20
31.5294468267
 11
150.9612418074
 21
31.5939741996
  0
LINE
  8
0
 62
7
  6
CONTINUOUS
 10
154.5456166972
 20
30.7228545871
 11
154.3143669177
 21
30.7873819712
  0
LINE
  8
0
 62
7
  6
CONTINUOUS
 10
153.2737419177
 20
31.5294468267
 11
153.1003044177
 21
31.5939741996
  0
LINE
  8
0
 62
7
  6
CONTINUOUS
 10
155.5284290869
 20
31.5294468267
 11
155.3549915869
 21
31.5939741996
  0
LINE
  8
0
 62
7
  6
CONTINUOUS
 10
158.187804528
 20
31.4326557675
 11
158.3034290869
 21
31.3681283946
  0
LINE
  8
0
 62
7
  6
CONTINUOUS
 10
158.534679528
 20
31.4649194539
 11
158.4190543074
 21
31.5294468267
  0
LINE
  8
0
 62
7
  6
CONTINUOUS
 10
150.0362418212
 20
30.6583272086
 11
150.2096793212
 21
30.6260635193
  0
LINE
  8
0
 62
7
  6
CONTINUOUS
 10
150.498741835
 20
30.7228545871
 11
150.1518667936
 21
30.7873819712
  0
LINE
  8
0
 62
7
  6
CONTINUOUS
 10
152.9268669177
 20
31.4649194539
 11
153.0424918074
 21
31.4326557675
  0
LINE
  8
0
 62
7
  6
CONTINUOUS
 10
155.239367028
 20
31.4649194539
 11
155.3549915869
 21
31.4326557675
  0
LINE
  8
0
 62
7
  6
CONTINUOUS
 10
159.575304528
 20
30.7551182848
 11
159.4596793074
 21
30.7873819712
  0
LINE
  8
0
 62
7
  6
CONTINUOUS
 10
158.0721793074
 20
31.4649194539
 11
158.187804528
 21
31.4326557675
  0
LINE
  8
0
 62
7
  6
CONTINUOUS
 10
159.228429528
 20
30.7228545871
 11
159.401867028
 21
30.6583272086
  0
LINE
  8
0
 62
7
  6
CONTINUOUS
 10
158.4190543074
 20
31.5294468267
 11
158.2456168074
 21
31.5939741996
  0
LINE
  8
0
 62
7
  6
CONTINUOUS
 10
159.6331168074
 20
31.2390736489
 11
159.4596793074
 21
31.3036010218
  0
LINE
  8
0
 62
7
  6
CONTINUOUS
 10
160.442492028
 20
30.9809641124
 11
160.615929528
 21
30.9164367395
  0
LINE
  8
0
 62
7
  6
CONTINUOUS
 10
160.8471793074
 20
31.4971831403
 11
160.6737418074
 21
31.5617105132
  0
LINE
  8
0
 62
7
  6
CONTINUOUS
 10
159.228429528
 20
31.2390736489
 11
159.4596793074
 21
31.1422825445
  0
LINE
  8
0
 62
7
  6
CONTINUOUS
 10
160.8471793074
 20
30.9809641124
 11
160.615929528
 21
31.0777551716
  0
LINE
  8
0
 62
7
  6
CONTINUOUS
 10
159.401867028
 20
31.3681283946
 11
159.4596793074
 21
31.4326557675
  0
LINE
  8
0
 62
7
  6
CONTINUOUS
 10
149.8628043005
 20
31.4971831403
 11
149.7471793074
 21
31.4326557675
  0
LINE
  8
0
 62
7
  6
CONTINUOUS
 10
149.9784292936
 20
31.3358647082
 11
150.1518667936
 21
31.4326557675
  0
LINE
  8
0
 62
7
  6
CONTINUOUS
 10
152.2909293626
 20
31.5294468267
 11
152.1753043074
 21
31.4649194539
  0
LINE
  8
0
 62
7
  6
CONTINUOUS
 10
152.1753043074
 20
31.3358647082
 11
152.2909293626
 21
31.400392081
  0
LINE
  8
0
 62
7
  6
CONTINUOUS
 10
151.1924917523
 20
30.6905909007
 11
151.3659292523
 21
30.7873819712
  0
LINE
  8
0
 62
7
  6
CONTINUOUS
 10
150.2096793212
 20
30.6260635193
 11
150.5565542799
 21
30.5937998301
  0
LINE
  8
0
 62
7
  6
CONTINUOUS
 10
154.3143669177
 20
30.6260635193
 11
154.5456166972
 21
30.5937998301
  0
LINE
  8
0
 62
7
  6
CONTINUOUS
 10
152.6956168074
 20
31.4971831403
 11
152.9268669177
 21
31.4649194539
  0
LINE
  8
0
 62
7
  6
CONTINUOUS
 10
155.0081169177
 20
31.4971831403
 11
155.239367028
 21
31.4649194539
  0
LINE
  8
0
 62
7
  6
CONTINUOUS
 10
159.4596793074
 20
31.1422825445
 11
160.442492028
 21
30.9809641124
  0
LINE
  8
0
 62
7
  6
CONTINUOUS
 10
160.615929528
 20
31.0777551716
 11
159.6331168074
 21
31.2390736489
  0
LINE
  8
0
 62
7
  6
CONTINUOUS
 10
153.1003044177
 20
31.5939741996
 11
152.9268669177
 21
31.626237886
  0
LINE
  8
0
 62
7
  6
CONTINUOUS
 10
159.401867028
 20
30.6583272086
 11
159.575304528
 21
30.6260635193
  0
LINE
  8
0
 62
7
  6
CONTINUOUS
 10
158.2456168074
 20
31.5939741996
 11
158.0721793074
 21
31.626237886
  0
LINE
  8
0
 62
7
  6
CONTINUOUS
 10
160.5003043074
 20
31.4649194539
 11
160.615929528
 21
31.4326557675
  0
LINE
  8
0
 62
7
  6
CONTINUOUS
 10
160.6737418074
 20
30.8519093441
 11
160.615929528
 21
30.7873819712
  0
LINE
  8
0
 62
7
  6
CONTINUOUS
 10
159.228429528
 20
31.5294468267
 11
159.1128043074
 21
31.4326557675
  0
LINE
  8
0
 62
7
  6
CONTINUOUS
 10
154.1409294177
 20
31.5617105132
 11
154.0253041972
 21
31.4971831403
  0
LINE
  8
0
 62
7
  6
CONTINUOUS
 10
154.1987416972
 20
31.1745462761
 11
154.0831168074
 21
31.1100188581
  0
LINE
  8
0
 62
7
  6
CONTINUOUS
 10
154.3143669177
 20
31.0132277988
 11
154.4299918074
 21
31.0777551716
  0
LINE
  8
0
 62
7
  6
CONTINUOUS
 10
151.8862417523
 20
30.5937998301
 11
152.1753043074
 21
30.5937998301
  0
LINE
  8
0
 62
7
  6
CONTINUOUS
 10
153.2159293074
 20
30.5937998301
 11
153.5049916972
 21
30.5937998301
  0
LINE
  8
0
 62
7
  6
CONTINUOUS
 10
154.5456166972
 20
30.5937998301
 11
154.8924916972
 21
30.5937998301
  0
LINE
  8
0
 62
7
  6
CONTINUOUS
 10
155.5284290869
 20
30.5937998301
 11
155.8174918074
 21
30.5937998301
  0
LINE
  8
0
 62
7
  6
CONTINUOUS
 10
156.279992028
 20
30.5937998301
 11
156.5690540869
 21
30.5937998301
  0
LINE
  8
0
 62
7
  6
CONTINUOUS
 10
157.0315543074
 20
30.5937998301
 11
157.320617028
 21
30.5937998301
  0
LINE
  8
0
 62
7
  6
CONTINUOUS
 10
158.361242028
 20
30.5937998301
 11
158.6503040869
 21
30.5937998301
  0
LINE
  8
0
 62
7
  6
CONTINUOUS
 10
159.922179528
 20
30.5937998301
 11
160.269054528
 21
30.5937998301
  0
LINE
  8
0
 62
7
  6
CONTINUOUS
 10
160.269054528
 20
30.7228545871
 11
159.922179528
 21
30.7228545871
  0
LINE
  8
0
 62
7
  6
CONTINUOUS
 10
154.8924916972
 20
30.7228545871
 11
154.5456166972
 21
30.7228545871
  0
LINE
  8
0
 62
7
  6
CONTINUOUS
 10
159.401867028
 20
30.8519093441
 11
159.1128043074
 21
30.8519093441
  0
LINE
  8
0
 62
7
  6
CONTINUOUS
 10
151.4237418626
 20
30.9164367395
 11
151.1346793074
 21
30.9164367395
  0
LINE
  8
0
 62
7
  6
CONTINUOUS
 10
150.498741835
 20
31.4971831403
 11
150.9034292799
 21
31.4649194539
  0
LINE
  8
0
 62
7
  6
CONTINUOUS
 10
150.9612418074
 20
31.5939741996
 11
150.5565542799
 21
31.626237886
  0
LINE
  8
0
 62
7
  6
CONTINUOUS
 10
159.575304528
 20
30.6260635193
 11
159.922179528
 21
30.5937998301
  0
LINE
  8
0
 62
7
  6
CONTINUOUS
 10
159.922179528
 20
30.7228545871
 11
159.575304528
 21
30.7551182848
  0
LINE
  8
0
 62
7
  6
CONTINUOUS
 10
155.3549915869
 20
31.5939741996
 11
155.0081169177
 21
31.626237886
  0
LINE
  8
0
 62
7
  6
CONTINUOUS
 10
160.1534293074
 20
31.4971831403
 11
160.5003043074
 21
31.4649194539
  0
LINE
  8
0
 62
7
  6
CONTINUOUS
 10
160.5003043074
 20
31.5939741996
 11
160.1534293074
 21
31.626237886
  0
LINE
  8
0
 62
7
  6
CONTINUOUS
 10
157.840929528
 20
31.4971831403
 11
158.0721793074
 21
31.4649194539
  0
LINE
  8
0
 62
7
  6
CONTINUOUS
 10
160.6737418074
 20
31.5617105132
 11
160.5003043074
 21
31.5939741996
  0
LINE
  8
0
 62
7
  6
CONTINUOUS
 10
160.8471793074
 20
30.6905909007
 11
160.9628038663
 21
30.7873819712
  0
LINE
  8
0
 62
7
  6
CONTINUOUS
 10
155.3549915869
 20
30.8841730531
 11
155.1815540869
 21
30.7873819712
  0
LINE
  8
0
 62
7
  6
CONTINUOUS
 10
157.4362415869
 20
31.5294468267
 11
157.320617028
 21
31.4649194539
  0
LINE
  8
0
 62
7
  6
CONTINUOUS
 10
157.320617028
 20
31.3358647082
 11
157.4362415869
 21
31.400392081
  0
LINE
  8
0
 62
7
  6
CONTINUOUS
 10
150.0362418212
 20
31.5617105132
 11
149.8628043005
 21
31.4971831403
  0
LINE
  8
0
 62
7
  6
CONTINUOUS
 10
152.4643666972
 20
31.5939741996
 11
152.2909293626
 21
31.5294468267
  0
LINE
  8
0
 62
7
  6
CONTINUOUS
 10
152.2909293626
 20
31.400392081
 11
152.4643666972
 21
31.4649194539
  0
LINE
  8
0
 62
7
  6
CONTINUOUS
 10
151.0768668626
 20
30.8196456577
 11
150.9034292799
 21
30.7551182848
  0
LINE
  8
0
 62
7
  6
CONTINUOUS
 10
160.5003043074
 20
30.7551182848
 11
160.269054528
 21
30.7228545871
  0
LINE
  8
0
 62
7
  6
CONTINUOUS
 10
154.8924916972
 20
30.5937998301
 11
155.1815540869
 21
30.6260635193
  0
LINE
  8
0
 62
7
  6
CONTINUOUS
 10
160.269054528
 20
30.5937998301
 11
160.615929528
 21
30.6260635193
  0
LINE
  8
0
 62
7
  6
CONTINUOUS
 10
150.5565542799
 20
30.5937998301
 11
150.9612418074
 21
30.6260635193
  0
LINE
  8
0
 62
7
  6
CONTINUOUS
 10
150.9034292799
 20
30.7551182848
 11
150.498741835
 21
30.7228545871
  0
LINE
  8
0
 62
7
  6
CONTINUOUS
 10
154.7768668074
 20
31.1422825445
 11
155.412804528
 21
31.1422825445
  0
LINE
  8
0
 62
7
  6
CONTINUOUS
 10
155.412804528
 20
31.2713373354
 11
154.7768668074
 21
31.2713373354
  0
LINE
  8
0
 62
7
  6
CONTINUOUS
 10
151.1346793074
 20
31.3036010218
 11
151.4237418626
 21
31.3036010218
  0
LINE
  8
0
 62
7
  6
CONTINUOUS
 10
153.9674919177
 20
31.3681283946
 11
154.2565543074
 21
31.3681283946
  0
LINE
  8
0
 62
7
  6
CONTINUOUS
 10
160.6737418074
 20
31.3681283946
 11
160.9628038663
 21
31.3681283946
  0
LINE
  8
0
 62
7
  6
CONTINUOUS
 10
154.6612419177
 20
31.4971831403
 11
155.0081169177
 21
31.4971831403
  0
LINE
  8
0
 62
7
  6
CONTINUOUS
 10
159.8065543074
 20
31.4971831403
 11
160.1534293074
 21
31.4971831403
  0
LINE
  8
0
 62
7
  6
CONTINUOUS
 10
160.1534293074
 20
31.626237886
 11
159.8065543074
 21
31.626237886
  0
LINE
  8
0
 62
7
  6
CONTINUOUS
 10
158.0721793074
 20
31.626237886
 11
157.840929528
 21
31.626237886
  0
LINE
  8
0
 62
7
  6
CONTINUOUS
 10
157.320617028
 20
31.626237886
 11
157.0315543074
 21
31.626237886
  0
LINE
  8
0
 62
7
  6
CONTINUOUS
 10
156.5690540869
 20
31.626237886
 11
156.279992028
 21
31.626237886
  0
LINE
  8
0
 62
7
  6
CONTINUOUS
 10
155.0081169177
 20
31.626237886
 11
154.6612419177
 21
31.626237886
  0
LINE
  8
0
 62
7
  6
CONTINUOUS
 10
152.9268669177
 20
31.626237886
 11
152.6956168074
 21
31.626237886
  0
LINE
  8
0
 62
7
  6
CONTINUOUS
 10
156.279992028
 20
31.9488748406
 11
156.5690540869
 21
31.9488748406
  0
LINE
  8
0
 62
7
  6
CONTINUOUS
 10
156.5690540869
 20
32.1101932727
 11
156.279992028
 21
32.1101932727
  0
LINE
  8
0
 62
7
  6
CONTINUOUS
 10
152.1753043074
 20
32.1101932727
 11
151.8862417523
 21
32.1101932727
  0
LINE
  8
0
 62
7
  6
CONTINUOUS
 10
151.2130860697
 20
32.3970785186
 11
151.6256574183
 21
32.3970785186
  0
LINE
  8
0
 62
7
  6
CONTINUOUS
 10
152.852430332
 20
32.3970785186
 11
154.245872955
 21
32.3970785186
  0
LINE
  8
0
 62
7
  6
CONTINUOUS
 10
154.5737418074
 20
32.3970785186
 11
155.9671844304
 21
32.3970785186
  0
LINE
  8
0
 62
7
  6
CONTINUOUS
 10
157.852430332
 20
32.3970785186
 11
159.245872955
 21
32.3970785186
  0
LINE
  8
0
 62
7
  6
CONTINUOUS
 10
159.5737418074
 20
32.3970785186
 11
160.9671844304
 21
32.3970785186
  0
LINE
  8
0
 62
7
  6
CONTINUOUS
 10
157.6096790869
 20
31.5939741996
 11
157.4362415869
 21
31.5294468267
  0
LINE
  8
0
 62
7
  6
CONTINUOUS
 10
155.1815540869
 20
30.6260635193
 11
155.3549915869
 21
30.6905909007
  0
LINE
  8
0
 62
7
  6
CONTINUOUS
 10
160.615929528
 20
30.6260635193
 11
160.8471793074
 21
30.6905909007
  0
LINE
  8
0
 62
7
  6
CONTINUOUS
 10
160.615929528
 20
30.7873819712
 11
160.5003043074
 21
30.7551182848
  0
LINE
  8
0
 62
7
  6
CONTINUOUS
 10
159.575304528
 20
31.4649194539
 11
159.8065543074
 21
31.4971831403
  0
LINE
  8
0
 62
7
  6
CONTINUOUS
 10
157.6096790869
 20
31.4649194539
 11
157.840929528
 21
31.4971831403
  0
LINE
  8
0
 62
7
  6
CONTINUOUS
 10
154.5456166972
 20
31.1100188581
 11
154.7768668074
 21
31.1422825445
  0
LINE
  8
0
 62
7
  6
CONTINUOUS
 10
157.840929528
 20
31.626237886
 11
157.6096790869
 21
31.5939741996
  0
LINE
  8
0
 62
7
  6
CONTINUOUS
 10
154.4299918074
 20
31.4649194539
 11
154.6612419177
 21
31.4971831403
  0
LINE
  8
0
 62
7
  6
CONTINUOUS
 10
159.8065543074
 20
31.626237886
 11
159.4596793074
 21
31.5939741996
  0
LINE
  8
0
 62
7
  6
CONTINUOUS
 10
154.7768668074
 20
31.2713373354
 11
154.4299918074
 21
31.2390736489
  0
LINE
  8
0
 62
7
  6
CONTINUOUS
 10
150.5565542799
 20
31.626237886
 11
150.2096793212
 21
31.5939741996
  0
LINE
  8
0
 62
7
  6
CONTINUOUS
 10
154.6612419177
 20
31.626237886
 11
154.2565543074
 21
31.5939741996
  0
LINE
  8
0
 62
7
  6
CONTINUOUS
 10
152.0327582009
 20
33.5446195022
 11
151.3770204959
 21
33.5446195022
  0
LINE
  8
0
 62
7
  6
CONTINUOUS
 10
157.4362415869
 20
31.400392081
 11
157.6096790869
 21
31.4649194539
  0
LINE
  8
0
 62
7
  6
CONTINUOUS
 10
159.4596793074
 20
31.4326557675
 11
159.575304528
 21
31.4649194539
  0
LINE
  8
0
 62
7
  6
CONTINUOUS
 10
159.4596793074
 20
31.5939741996
 11
159.228429528
 21
31.5294468267
  0
LINE
  8
0
 62
7
  6
CONTINUOUS
 10
155.1815540869
 20
30.7873819712
 11
154.8924916972
 21
30.7228545871
  0
LINE
  8
0
 62
7
  6
CONTINUOUS
 10
152.4643666972
 20
31.4649194539
 11
152.6956168074
 21
31.4971831403
  0
LINE
  8
0
 62
7
  6
CONTINUOUS
 10
152.6956168074
 20
31.626237886
 11
152.4643666972
 21
31.5939741996
  0
LINE
  8
0
 62
7
  6
CONTINUOUS
 10
150.2674918074
 20
31.4649194539
 11
150.498741835
 21
31.4971831403
  0
LINE
  8
0
 62
7
  6
CONTINUOUS
 10
156.7868565615
 20
35.0200293383
 11
157.4425942664
 21
35.0200293383
  0
LINE
  8
0
 62
7
  6
CONTINUOUS
 10
154.4299918074
 20
31.0777551716
 11
154.5456166972
 21
31.1100188581
  0
LINE
  8
0
 62
7
  6
CONTINUOUS
 10
154.4299918074
 20
31.2390736489
 11
154.1987416972
 21
31.1745462761
  0
LINE
  8
0
 62
7
  6
CONTINUOUS
 10
154.3143669177
 20
31.4326557675
 11
154.4299918074
 21
31.4649194539
  0
LINE
  8
0
 62
7
  6
CONTINUOUS
 10
150.9612418074
 20
30.6260635193
 11
151.1924917523
 21
30.6905909007
  0
LINE
  8
0
 62
7
  6
CONTINUOUS
 10
154.2565543074
 20
31.5939741996
 11
154.1409294177
 21
31.5617105132
  0
LINE
  8
0
 62
7
  6
CONTINUOUS
 10
150.2096793212
 20
31.5939741996
 11
150.0362418212
 21
31.5617105132
  0
LINE
  8
0
 62
7
  6
CONTINUOUS
 10
160.9671844304
 20
36.1675703219
 11
159.5737418074
 21
36.1675703219
  0
LINE
  8
0
 62
7
  6
CONTINUOUS
 10
157.6065286927
 20
36.1675703219
 11
157.1939573441
 21
36.1675703219
  0
LINE
  8
0
 62
7
  6
CONTINUOUS
 10
155.9671844304
 20
36.1675703219
 11
154.5737418074
 21
36.1675703219
  0
LINE
  8
0
 62
7
  6
CONTINUOUS
 10
154.245872955
 20
36.1675703219
 11
152.852430332
 21
36.1675703219
  0
LINE
  8
0
 62
7
  6
CONTINUOUS
 10
150.9671844304
 20
36.1675703219
 11
149.5737418074
 21
36.1675703219
  0
LINE
  8
0
 62
7
  6
CONTINUOUS
 10
150.1518667936
 20
31.4326557675
 11
150.2674918074
 21
31.4649194539
  0
CIRCLE
  8
0
 62
7
  6
CONTINUOUS
 10
160.2704631189
 20
38.5036358957
 40
2.0901639344
  0
ARC
  8
0
 62
7
  6
CONTINUOUS
 10
151.2130860697
 20
34.0364227809
 40
1.6393442623
 50
180.0
 51
270.0
  0
ARC
  8
0
 62
7
  6
CONTINUOUS
 10
157.6065286927
 20
34.5282260596
 40
1.6393442623
 50
0.0
 51
90.0
  0
ARC
  8
0
 62
7
  6
CONTINUOUS
 10
151.6256574183
 20
33.8724883547
 40
1.4754098361
 50
270.0
 51
326.2510114041
  0
ARC
  8
0
 62
7
  6
CONTINUOUS
 10
157.1939573441
 20
34.6921604858
 40
1.4754098361
 50
90.0
 51
146.2510114041
  0
ARC
  8
0
 62
7
  6
CONTINUOUS
 10
152.0327582009
 20
34.3642916334
 40
0.8196721311
 50
270.0
 51
360.0
  0
ARC
  8
0
 62
7
  6
CONTINUOUS
 10
156.7868565615
 20
34.2003572071
 40
0.8196721311
 50
90.0
 51
180.0
  0
ARC
  8
0
 62
7
  6
CONTINUOUS
 10
151.3770204959
 20
33.9544555678
 40
0.4098360656
 50
180.0
 51
270.0
  0
ARC
  8
0
 62
7
  6
CONTINUOUS
 10
157.4425942664
 20
34.6101932727
 40
0.4098360656
 50
0.0
 51
90.0
  0
SOLID
  8
0
 62
7
  6
CONTINUOUS
 10
156.279992028
 20
31.9488752009
 11
156.279992028
 21
32.1101936845
 12
156.5690540869
 22
31.9488752009
 13
156.5690540869
 23
32.1101936845
  0
SOLID
  8
0
 62
7
  6
CONTINUOUS
 10
150.5565542799
 20
31.6262382337
 11
150.9612418074
 21
31.5939740028
 12
150.2096793212
 22
31.5939740028
 13
150.2096793212
 23
31.5939740028
  0
SOLID
  8
0
 62
7
  6
CONTINUOUS
 10
150.0362418212
 20
31.5617111435
 11
150.2096793212
 21
31.5939740028
 12
150.9612418074
 22
31.5939740028
 13
150.9612418074
 23
31.5939740028
  0
SOLID
  8
0
 62
7
  6
CONTINUOUS
 10
150.9612418074
 20
31.5939740028
 11
151.1924917523
 21
31.5294468402
 12
150.0362418212
 22
31.5617111435
 13
150.0362418212
 23
31.5617111435
  0
SOLID
  8
0
 62
7
  6
CONTINUOUS
 10
149.8628043005
 20
31.49718259
 11
150.0362418212
 21
31.5617111435
 12
151.1924917523
 22
31.5294468402
 13
151.1924917523
 23
31.5294468402
  0
SOLID
  8
0
 62
7
  6
CONTINUOUS
 10
149.8628043005
 20
31.49718259
 11
151.1924917523
 21
31.5294468402
 12
150.498741835
 22
31.49718259
 13
150.498741835
 23
31.49718259
  0
SOLID
  8
0
 62
7
  6
CONTINUOUS
 10
150.498741835
 20
31.49718259
 11
151.1924917523
 21
31.5294468402
 12
150.9034292799
 22
31.4649197501
 13
150.9034292799
 23
31.4649197501
  0
SOLID
  8
0
 62
7
  6
CONTINUOUS
 10
151.1924917523
 20
31.5294468402
 11
151.3659292523
 21
31.4326554468
 12
150.9034292799
 22
31.4649197501
 13
150.9034292799
 23
31.4649197501
  0
SOLID
  8
0
 62
7
  6
CONTINUOUS
 10
151.0768668626
 20
31.4003926599
 11
150.9034292799
 21
31.4649197501
 12
151.3659292523
 22
31.4326554468
 13
151.3659292523
 23
31.4326554468
  0
SOLID
  8
0
 62
7
  6
CONTINUOUS
 10
151.0768668626
 20
31.4003926599
 11
151.3659292523
 21
31.4326554468
 12
151.1346793074
 22
31.3036013776
 13
151.1346793074
 23
31.3036013776
  0
SOLID
  8
0
 62
7
  6
CONTINUOUS
 10
151.3659292523
 20
31.4326554468
 11
151.4237418626
 21
31.3036013776
 12
151.1346793074
 22
31.3036013776
 13
151.1346793074
 23
31.3036013776
  0
SOLID
  8
0
 62
7
  6
CONTINUOUS
 10
152.4643666972
 20
31.5939739754
 11
152.6956168074
 21
31.6262382787
 12
152.9268669177
 22
31.6262382787
 13
152.9268669177
 23
31.6262382787
  0
SOLID
  8
0
 62
7
  6
CONTINUOUS
 10
152.9268669177
 20
31.6262382787
 11
153.1003044177
 21
31.5939739754
 12
152.4643666972
 22
31.5939739754
 13
152.4643666972
 23
31.5939739754
  0
SOLID
  8
0
 62
7
  6
CONTINUOUS
 10
152.2909293626
 20
31.5294468852
 11
152.4643666972
 21
31.5939739754
 12
153.1003044177
 22
31.5939739754
 13
153.1003044177
 23
31.5939739754
  0
SOLID
  8
0
 62
7
  6
CONTINUOUS
 10
153.1003044177
 20
31.5939739754
 11
153.2737419177
 21
31.5294468852
 12
152.2909293626
 22
31.5294468852
 13
152.2909293626
 23
31.5294468852
  0
SOLID
  8
0
 62
7
  6
CONTINUOUS
 10
153.2737419177
 20
31.5294468852
 11
152.6956168074
 21
31.4971825369
 12
152.2909293626
 22
31.5294468852
 13
152.2909293626
 23
31.5294468852
  0
SOLID
  8
0
 62
7
  6
CONTINUOUS
 10
152.1753043074
 20
31.4649197951
 11
152.2909293626
 21
31.5294468852
 12
152.6956168074
 22
31.4971825369
 13
152.6956168074
 23
31.4971825369
  0
SOLID
  8
0
 62
7
  6
CONTINUOUS
 10
152.6956168074
 20
31.4971825369
 11
152.4643666972
 21
31.4649197951
 12
152.1753043074
 22
31.4649197951
 13
152.1753043074
 23
31.4649197951
  0
SOLID
  8
0
 62
7
  6
CONTINUOUS
 10
152.6956168074
 20
31.4971825369
 11
153.2737419177
 21
31.5294468852
 12
152.9268669177
 22
31.4649197951
 13
152.9268669177
 23
31.4649197951
  0
SOLID
  8
0
 62
7
  6
CONTINUOUS
 10
153.2737419177
 20
31.5294468852
 11
153.3893668074
 21
31.4649197951
 12
152.9268669177
 22
31.4649197951
 13
152.9268669177
 23
31.4649197951
  0
SOLID
  8
0
 62
7
  6
CONTINUOUS
 10
153.0424918074
 20
31.4326554468
 11
152.9268669177
 21
31.4649197951
 12
153.3893668074
 22
31.4649197951
 13
153.3893668074
 23
31.4649197951
  0
SOLID
  8
0
 62
7
  6
CONTINUOUS
 10
153.3893668074
 20
31.4649197951
 11
153.4471794177
 21
31.4003927049
 12
153.0424918074
 22
31.4326554468
 13
153.0424918074
 23
31.4326554468
  0
SOLID
  8
0
 62
7
  6
CONTINUOUS
 10
153.1581166972
 20
31.3681283566
 11
153.0424918074
 21
31.4326554468
 12
153.4471794177
 22
31.4003927049
 13
153.4471794177
 23
31.4003927049
  0
SOLID
  8
0
 62
7
  6
CONTINUOUS
 10
153.1581166972
 20
31.3681283566
 11
153.4471794177
 21
31.4003927049
 12
153.2159293074
 22
31.2390742213
 13
153.2159293074
 23
31.2390742213
  0
SOLID
  8
0
 62
7
  6
CONTINUOUS
 10
153.4471794177
 20
31.4003927049
 11
153.5049916972
 21
31.2390742213
 12
153.2159293074
 22
31.2390742213
 13
153.2159293074
 23
31.2390742213
  0
SOLID
  8
0
 62
7
  6
CONTINUOUS
 10
152.4643666972
 20
31.4649197951
 11
152.2909293626
 21
31.4003927049
 12
152.1753043074
 22
31.4649197951
 13
152.1753043074
 23
31.4649197951
  0
SOLID
  8
0
 62
7
  6
CONTINUOUS
 10
152.2909293626
 20
31.4003927049
 11
152.1753043074
 21
31.3358640533
 12
152.1753043074
 22
31.4649197951
 13
152.1753043074
 23
31.4649197951
  0
SOLID
  8
0
 62
7
  6
CONTINUOUS
 10
152.1753043074
 20
31.3358640533
 11
151.8862417523
 21
30.5938002869
 12
152.1753043074
 22
31.4649197951
 13
152.1753043074
 23
31.4649197951
  0
SOLID
  8
0
 62
7
  6
CONTINUOUS
 10
152.1753043074
 20
31.4649197951
 11
151.8862417523
 21
30.5938002869
 12
152.1753043074
 22
32.1101937295
 13
152.1753043074
 23
32.1101937295
  0
SOLID
  8
0
 62
7
  6
CONTINUOUS
 10
151.8862417523
 20
30.5938002869
 11
151.8862417523
 21
32.1101937295
 12
152.1753043074
 22
32.1101937295
 13
152.1753043074
 23
32.1101937295
  0
SOLID
  8
0
 62
7
  6
CONTINUOUS
 10
152.1753043074
 20
31.3358640533
 11
152.1753043074
 21
30.5938002869
 12
151.8862417523
 22
30.5938002869
 13
151.8862417523
 23
30.5938002869
  0
SOLID
  8
0
 62
7
  6
CONTINUOUS
 10
153.2159293074
 20
30.5938002869
 11
153.2159293074
 21
31.2390742213
 12
153.5049916972
 22
31.2390742213
 13
153.5049916972
 23
31.2390742213
  0
SOLID
  8
0
 62
7
  6
CONTINUOUS
 10
153.5049916972
 20
31.2390742213
 11
153.5049916972
 21
30.5938002869
 12
153.2159293074
 22
30.5938002869
 13
153.2159293074
 23
30.5938002869
  0
SOLID
  8
0
 62
7
  6
CONTINUOUS
 10
154.2565543074
 20
31.5939738288
 11
154.6612419177
 21
31.6262385959
 12
155.0081169177
 22
31.6262385959
 13
155.0081169177
 23
31.6262385959
  0
SOLID
  8
0
 62
7
  6
CONTINUOUS
 10
155.0081169177
 20
31.6262385959
 11
155.3549915869
 21
31.5939738288
 12
154.2565543074
 22
31.5939738288
 13
154.2565543074
 23
31.5939738288
  0
SOLID
  8
0
 62
7
  6
CONTINUOUS
 10
154.1409294177
 20
31.5617111435
 11
154.2565543074
 21
31.5939738288
 12
155.3549915869
 22
31.5939738288
 13
155.3549915869
 23
31.5939738288
  0
SOLID
  8
0
 62
7
  6
CONTINUOUS
 10
155.3549915869
 20
31.5939738288
 11
155.5284290869
 21
31.5294468402
 12
154.1409294177
 22
31.5617111435
 13
154.1409294177
 23
31.5617111435
  0
SOLID
  8
0
 62
7
  6
CONTINUOUS
 10
154.0253041972
 20
31.4971826249
 11
154.1409294177
 21
31.5617111435
 12
155.5284290869
 22
31.5294468402
 13
155.5284290869
 23
31.5294468402
  0
SOLID
  8
0
 62
7
  6
CONTINUOUS
 10
154.0253041972
 20
31.4971826249
 11
155.5284290869
 21
31.5294468402
 12
154.6612419177
 22
31.4971826249
 13
154.6612419177
 23
31.4971826249
  0
SOLID
  8
0
 62
7
  6
CONTINUOUS
 10
154.6612419177
 20
31.4971826249
 11
155.5284290869
 21
31.5294468402
 12
155.0081169177
 22
31.4971826249
 13
155.0081169177
 23
31.4971826249
  0
SOLID
  8
0
 62
7
  6
CONTINUOUS
 10
155.0081169177
 20
31.4971826249
 11
155.5284290869
 21
31.5294468402
 12
155.239367028
 22
31.4649194065
 13
155.239367028
 23
31.4649194065
  0
SOLID
  8
0
 62
7
  6
CONTINUOUS
 10
155.5284290869
 20
31.5294468402
 11
155.6440543074
 21
31.4649194065
 12
155.239367028
 22
31.4649194065
 13
155.239367028
 23
31.4649194065
  0
SOLID
  8
0
 62
7
  6
CONTINUOUS
 10
153.9674919177
 20
31.4326554138
 11
154.0253041972
 21
31.4971826249
 12
154.6612419177
 22
31.4971826249
 13
154.6612419177
 23
31.4971826249
  0
SOLID
  8
0
 62
7
  6
CONTINUOUS
 10
155.3549915869
 20
31.4326554138
 11
155.239367028
 21
31.4649194065
 12
155.6440543074
 22
31.4649194065
 13
155.6440543074
 23
31.4649194065
  0
SOLID
  8
0
 62
7
  6
CONTINUOUS
 10
155.3549915869
 20
31.4326554138
 11
155.6440543074
 21
31.4649194065
 12
155.412804528
 22
31.3681282026
 13
155.412804528
 23
31.3681282026
  0
SOLID
  8
0
 62
7
  6
CONTINUOUS
 10
155.6440543074
 20
31.4649194065
 11
155.7018665869
 21
31.3681282026
 12
155.412804528
 22
31.3681282026
 13
155.412804528
 23
31.3681282026
  0
SOLID
  8
0
 62
7
  6
CONTINUOUS
 10
155.412804528
 20
31.2713369632
 11
155.412804528
 21
31.3681282026
 12
155.7018665869
 22
31.3681282026
 13
155.7018665869
 23
31.3681282026
  0
SOLID
  8
0
 62
7
  6
CONTINUOUS
 10
155.412804528
 20
31.2713369632
 11
155.7018665869
 21
31.3681282026
 12
155.412804528
 22
31.1422827828
 13
155.412804528
 23
31.1422827828
  0
SOLID
  8
0
 62
7
  6
CONTINUOUS
 10
155.412804528
 20
31.1422827828
 11
155.7018665869
 21
31.3681282026
 12
155.412804528
 22
30.9487004259
 13
155.412804528
 23
30.9487004259
  0
SOLID
  8
0
 62
7
  6
CONTINUOUS
 10
155.7018665869
 20
31.3681282026
 11
155.7018665869
 21
30.8519086025
 12
155.412804528
 22
30.9487004259
 13
155.412804528
 23
30.9487004259
  0
SOLID
  8
0
 62
7
  6
CONTINUOUS
 10
157.6096790869
 20
31.5939736268
 11
157.840929528
 21
31.6262383465
 12
158.0721793074
 22
31.6262383465
 13
158.0721793074
 23
31.6262383465
  0
SOLID
  8
0
 62
7
  6
CONTINUOUS
 10
158.0721793074
 20
31.6262383465
 11
158.2456168074
 21
31.5939736268
 12
157.6096790869
 22
31.5939736268
 13
157.6096790869
 23
31.5939736268
  0
SOLID
  8
0
 62
7
  6
CONTINUOUS
 10
157.4362415869
 20
31.5294472848
 11
157.6096790869
 21
31.5939736268
 12
158.2456168074
 22
31.5939736268
 13
158.2456168074
 23
31.5939736268
  0
SOLID
  8
0
 62
7
  6
CONTINUOUS
 10
158.2456168074
 20
31.5939736268
 11
158.4190543074
 21
31.5294472848
 12
157.4362415869
 22
31.5294472848
 13
157.4362415869
 23
31.5294472848
  0
SOLID
  8
0
 62
7
  6
CONTINUOUS
 10
158.4190543074
 20
31.5294472848
 11
157.840929528
 21
31.4971825369
 12
157.4362415869
 22
31.5294472848
 13
157.4362415869
 23
31.5294472848
  0
SOLID
  8
0
 62
7
  6
CONTINUOUS
 10
157.320617028
 20
31.4649199103
 11
157.4362415869
 21
31.5294472848
 12
157.840929528
 22
31.4971825369
 13
157.840929528
 23
31.4971825369
  0
SOLID
  8
0
 62
7
  6
CONTINUOUS
 10
157.840929528
 20
31.4971825369
 11
157.6096790869
 21
31.4649199103
 12
157.320617028
 22
31.4649199103
 13
157.320617028
 23
31.4649199103
  0
SOLID
  8
0
 62
7
  6
CONTINUOUS
 10
157.840929528
 20
31.4971825369
 11
158.4190543074
 21
31.5294472848
 12
158.0721793074
 22
31.4649199103
 13
158.0721793074
 23
31.4649199103
  0
SOLID
  8
0
 62
7
  6
CONTINUOUS
 10
158.4190543074
 20
31.5294472848
 11
158.534679528
 21
31.4649199103
 12
158.0721793074
 22
31.4649199103
 13
158.0721793074
 23
31.4649199103
  0
SOLID
  8
0
 62
7
  6
CONTINUOUS
 10
158.187804528
 20
31.4326554468
 11
158.0721793074
 21
31.4649199103
 12
158.534679528
 22
31.4649199103
 13
158.534679528
 23
31.4649199103
  0
SOLID
  8
0
 62
7
  6
CONTINUOUS
 10
158.187804528
 20
31.4326554468
 11
158.534679528
 21
31.4649199103
 12
158.3034290869
 22
31.3681288486
 13
158.3034290869
 23
31.3681288486
  0
SOLID
  8
0
 62
7
  6
CONTINUOUS
 10
158.534679528
 20
31.4649199103
 11
158.5924918074
 21
31.3681288486
 12
158.3034290869
 22
31.3681288486
 13
158.3034290869
 23
31.3681288486
  0
SOLID
  8
0
 62
7
  6
CONTINUOUS
 10
158.361242028
 20
31.2068093799
 11
158.3034290869
 21
31.3681288486
 12
158.5924918074
 22
31.3681288486
 13
158.5924918074
 23
31.3681288486
  0
SOLID
  8
0
 62
7
  6
CONTINUOUS
 10
158.5924918074
 20
31.3681288486
 11
158.6503040869
 21
31.2068093799
 12
158.361242028
 22
31.2068093799
 13
158.361242028
 23
31.2068093799
  0
SOLID
  8
0
 62
7
  6
CONTINUOUS
 10
157.6096790869
 20
31.4649199103
 11
157.4362415869
 21
31.4003926599
 12
157.320617028
 22
31.4649199103
 13
157.320617028
 23
31.4649199103
  0
SOLID
  8
0
 62
7
  6
CONTINUOUS
 10
157.4362415869
 20
31.4003926599
 11
157.320617028
 21
31.3358640533
 12
157.320617028
 22
31.4649199103
 13
157.320617028
 23
31.4649199103
  0
SOLID
  8
0
 62
7
  6
CONTINUOUS
 10
157.320617028
 20
31.3358640533
 11
157.0315543074
 21
30.5938003547
 12
157.320617028
 22
31.4649199103
 13
157.320617028
 23
31.4649199103
  0
SOLID
  8
0
 62
7
  6
CONTINUOUS
 10
157.320617028
 20
31.4649199103
 11
157.0315543074
 21
30.5938003547
 12
157.320617028
 22
31.6262383465
 13
157.320617028
 23
31.6262383465
  0
SOLID
  8
0
 62
7
  6
CONTINUOUS
 10
157.0315543074
 20
30.5938003547
 11
157.0315543074
 21
31.6262383465
 12
157.320617028
 22
31.6262383465
 13
157.320617028
 23
31.6262383465
  0
SOLID
  8
0
 62
7
  6
CONTINUOUS
 10
157.320617028
 20
31.3358640533
 11
157.320617028
 21
30.5938003547
 12
157.0315543074
 22
30.5938003547
 13
157.0315543074
 23
30.5938003547
  0
SOLID
  8
0
 62
7
  6
CONTINUOUS
 10
158.361242028
 20
30.5938003547
 11
158.361242028
 21
31.2068093799
 12
158.6503040869
 22
31.2068093799
 13
158.6503040869
 23
31.2068093799
  0
SOLID
  8
0
 62
7
  6
CONTINUOUS
 10
158.6503040869
 20
31.2068093799
 11
158.6503040869
 21
30.5938003547
 12
158.361242028
 22
30.5938003547
 13
158.361242028
 23
30.5938003547
  0
SOLID
  8
0
 62
7
  6
CONTINUOUS
 10
159.4596793074
 20
31.5939739474
 11
159.8065543074
 21
31.6262381969
 12
160.1534293074
 22
31.6262381969
 13
160.1534293074
 23
31.6262381969
  0
SOLID
  8
0
 62
7
  6
CONTINUOUS
 10
160.1534293074
 20
31.6262381969
 11
160.5003043074
 21
31.5939739474
 12
159.4596793074
 22
31.5939739474
 13
159.4596793074
 23
31.5939739474
  0
SOLID
  8
0
 62
7
  6
CONTINUOUS
 10
159.228429528
 20
31.5294468402
 11
159.4596793074
 21
31.5939739474
 12
160.5003043074
 22
31.5939739474
 13
160.5003043074
 23
31.5939739474
  0
SOLID
  8
0
 62
7
  6
CONTINUOUS
 10
159.228429528
 20
31.5294468402
 11
160.5003043074
 21
31.5939739304
 12
160.6737418074
 22
31.5617111435
 13
160.6737418074
 23
31.5617111435
  0
SOLID
  8
0
 62
7
  6
CONTINUOUS
 10
159.228429528
 20
31.5294468402
 11
160.6737418074
 21
31.5617111435
 12
159.8065543074
 22
31.4971825592
 13
159.8065543074
 23
31.4971825592
  0
SOLID
  8
0
 62
7
  6
CONTINUOUS
 10
159.8065543074
 20
31.4971825592
 11
160.6737418074
 21
31.5617111435
 12
160.1534293074
 22
31.4971825592
 13
160.1534293074
 23
31.4971825592
  0
SOLID
  8
0
 62
7
  6
CONTINUOUS
 10
160.6737418074
 20
31.5617111435
 11
160.8471793074
 21
31.4971825592
 12
160.1534293074
 22
31.4971825592
 13
160.1534293074
 23
31.4971825592
  0
SOLID
  8
0
 62
7
  6
CONTINUOUS
 10
160.5003043074
 20
31.4649197501
 11
160.1534293074
 21
31.4971825592
 12
160.8471793074
 22
31.4971825592
 13
160.8471793074
 23
31.4971825592
  0
SOLID
  8
0
 62
7
  6
CONTINUOUS
 10
159.1128043074
 20
31.4326555427
 11
159.228429528
 21
31.5294468402
 12
159.8065543074
 22
31.4971825592
 13
159.8065543074
 23
31.4971825592
  0
SOLID
  8
0
 62
7
  6
CONTINUOUS
 10
160.5003043074
 20
31.4649197501
 11
160.8471793074
 21
31.4971825592
 12
160.615929528
 22
31.4326555427
 13
160.615929528
 23
31.4326555427
  0
SOLID
  8
0
 62
7
  6
CONTINUOUS
 10
160.615929528
 20
31.4326555427
 11
160.8471793074
 21
31.4971825592
 12
160.6737418074
 22
31.3681283005
 13
160.6737418074
 23
31.3681283005
  0
SOLID
  8
0
 62
7
  6
CONTINUOUS
 10
160.8471793074
 20
31.4971825592
 11
160.9628038663
 21
31.3681283005
 12
160.6737418074
 22
31.3681283005
 13
160.6737418074
 23
31.3681283005
  0
SOLID
  8
0
 62
7
  6
CONTINUOUS
 10
150.2674918074
 20
31.4649197501
 11
149.7471793074
 21
31.4326554237
 12
150.498741835
 22
31.4971824493
 13
150.498741835
 23
31.4971824493
  0
SOLID
  8
0
 62
7
  6
CONTINUOUS
 10
149.7471793074
 20
31.4326554237
 11
149.8628043005
 21
31.4971824493
 12
150.498741835
 22
31.4971824493
 13
150.498741835
 23
31.4971824493
  0
SOLID
  8
0
 62
7
  6
CONTINUOUS
 10
150.2674918074
 20
31.4649197501
 11
150.1518667936
 21
31.4326554237
 12
149.7471793074
 22
31.4326554237
 13
149.7471793074
 23
31.4326554237
  0
SOLID
  8
0
 62
7
  6
CONTINUOUS
 10
149.6315543091
 20
31.3036012664
 11
149.7471793074
 21
31.4326554237
 12
150.1518667936
 22
31.4326554237
 13
150.1518667936
 23
31.4326554237
  0
SOLID
  8
0
 62
7
  6
CONTINUOUS
 10
153.9674919177
 20
31.4326554237
 11
154.6612419177
 21
31.4971825369
 12
154.4299918074
 22
31.4649197501
 13
154.4299918074
 23
31.4649197501
  0
SOLID
  8
0
 62
7
  6
CONTINUOUS
 10
154.4299918074
 20
31.4649197501
 11
154.3143669177
 21
31.4326554237
 12
153.9674919177
 22
31.4326554237
 13
153.9674919177
 23
31.4326554237
  0
SOLID
  8
0
 62
7
  6
CONTINUOUS
 10
153.9674919177
 20
31.3681283335
 11
153.9674919177
 21
31.4326554237
 12
154.3143669177
 22
31.4326554237
 13
154.3143669177
 23
31.4326554237
  0
SOLID
  8
0
 62
7
  6
CONTINUOUS
 10
154.3143669177
 20
31.4326554237
 11
154.2565543074
 21
31.3681283335
 12
153.9674919177
 22
31.3681283335
 13
153.9674919177
 23
31.3681283335
  0
SOLID
  8
0
 62
7
  6
CONTINUOUS
 10
159.1128043074
 20
31.4326555528
 11
159.8065543074
 21
31.4971825369
 12
159.575304528
 22
31.4649197501
 13
159.575304528
 23
31.4649197501
  0
SOLID
  8
0
 62
7
  6
CONTINUOUS
 10
159.575304528
 20
31.4649197501
 11
159.4596793074
 21
31.4326555528
 12
159.1128043074
 22
31.4326555528
 13
159.1128043074
 23
31.4326555528
  0
SOLID
  8
0
 62
7
  6
CONTINUOUS
 10
159.1128043074
 20
31.3681284626
 11
159.1128043074
 21
31.4326555528
 12
159.4596793074
 22
31.4326555528
 13
159.4596793074
 23
31.4326555528
  0
SOLID
  8
0
 62
7
  6
CONTINUOUS
 10
159.4596793074
 20
31.4326555528
 11
159.401867028
 21
31.3681284626
 12
159.1128043074
 22
31.3681284626
 13
159.1128043074
 23
31.3681284626
  0
SOLID
  8
0
 62
7
  6
CONTINUOUS
 10
159.228429528
 20
31.2390741763
 11
159.1128043074
 21
31.3681284626
 12
159.401867028
 22
31.3681284626
 13
159.401867028
 23
31.3681284626
  0
SOLID
  8
0
 62
7
  6
CONTINUOUS
 10
149.6315543091
 20
31.3036012664
 11
150.1518667936
 21
31.4326554468
 12
149.9784292936
 22
31.3358640533
 13
149.9784292936
 23
31.3358640533
  0
SOLID
  8
0
 62
7
  6
CONTINUOUS
 10
149.9784292936
 20
31.3358640533
 11
149.9206168074
 21
31.2713369632
 12
149.6315543091
 22
31.3036012664
 13
149.6315543091
 23
31.3036012664
  0
SOLID
  8
0
 62
7
  6
CONTINUOUS
 10
149.5737418074
 20
31.1100184796
 11
149.6315543091
 21
31.3036012664
 12
149.9206168074
 22
31.2713369632
 13
149.9206168074
 23
31.2713369632
  0
SOLID
  8
0
 62
7
  6
CONTINUOUS
 10
154.4299918074
 20
31.2390741763
 11
154.7768668074
 21
31.271336924
 12
155.412804528
 22
31.271336924
 13
155.412804528
 23
31.271336924
  0
SOLID
  8
0
 62
7
  6
CONTINUOUS
 10
154.4299918074
 20
31.2390741763
 11
155.412804528
 21
31.271336924
 12
154.1987416972
 22
31.1745462761
 13
154.1987416972
 23
31.1745462761
  0
SOLID
  8
0
 62
7
  6
CONTINUOUS
 10
154.1987416972
 20
31.1745462761
 11
155.412804528
 21
31.271336924
 12
154.7768668074
 22
31.1422827436
 13
154.7768668074
 23
31.1422827436
  0
SOLID
  8
0
 62
7
  6
CONTINUOUS
 10
155.412804528
 20
31.271336924
 11
155.412804528
 21
31.1422827436
 12
154.7768668074
 22
31.1422827436
 13
154.7768668074
 23
31.1422827436
  0
SOLID
  8
0
 62
7
  6
CONTINUOUS
 10
159.228429528
 20
31.2390745501
 11
159.401867028
 21
31.3681283566
 12
159.4596793074
 22
31.3036012664
 13
159.4596793074
 23
31.3036012664
  0
SOLID
  8
0
 62
7
  6
CONTINUOUS
 10
159.4596793074
 20
31.3036012664
 11
159.6331168074
 21
31.2390745501
 12
159.228429528
 22
31.2390745501
 13
159.228429528
 23
31.2390745501
  0
SOLID
  8
0
 62
7
  6
CONTINUOUS
 10
159.4596793074
 20
31.1422827828
 11
159.228429528
 21
31.2390745501
 12
159.6331168074
 22
31.2390745501
 13
159.6331168074
 23
31.2390745501
  0
SOLID
  8
0
 62
7
  6
CONTINUOUS
 10
159.6331168074
 20
31.2390745501
 11
160.615929528
 21
31.0777556927
 12
159.4596793074
 22
31.1422827828
 13
159.4596793074
 23
31.1422827828
  0
SOLID
  8
0
 62
7
  6
CONTINUOUS
 10
160.442492028
 20
30.9809646623
 11
159.4596793074
 21
31.1422827828
 12
160.615929528
 22
31.0777556927
 13
160.615929528
 23
31.0777556927
  0
SOLID
  8
0
 62
7
  6
CONTINUOUS
 10
160.615929528
 20
31.0777556927
 11
160.8471793074
 21
30.9809646623
 12
160.442492028
 22
30.9809646623
 13
160.442492028
 23
30.9809646623
  0
SOLID
  8
0
 62
7
  6
CONTINUOUS
 10
160.615929528
 20
30.9164372091
 11
160.442492028
 21
30.9809646623
 12
160.8471793074
 22
30.9809646623
 13
160.8471793074
 23
30.9809646623
  0
SOLID
  8
0
 62
7
  6
CONTINUOUS
 10
160.615929528
 20
30.9164372091
 11
160.8471793074
 21
30.9809646623
 12
160.6737418074
 22
30.8519089441
 13
160.6737418074
 23
30.8519089441
  0
SOLID
  8
0
 62
7
  6
CONTINUOUS
 10
160.8471793074
 20
30.9809646623
 11
160.9628038663
 21
30.8519089441
 12
160.6737418074
 22
30.8519089441
 13
160.6737418074
 23
30.8519089441
  0
SOLID
  8
0
 62
7
  6
CONTINUOUS
 10
160.615929528
 20
30.7873818593
 11
160.6737418074
 21
30.8519089441
 12
160.9628038663
 22
30.8519089441
 13
160.9628038663
 23
30.8519089441
  0
SOLID
  8
0
 62
7
  6
CONTINUOUS
 10
160.9628038663
 20
30.8519089441
 11
160.9628038663
 21
30.7873818593
 12
160.615929528
 22
30.7873818593
 13
160.615929528
 23
30.7873818593
  0
SOLID
  8
0
 62
7
  6
CONTINUOUS
 10
160.5003043074
 20
30.7551187255
 11
160.615929528
 21
30.7873818593
 12
160.9628038663
 22
30.7873818593
 13
160.9628038663
 23
30.7873818593
  0
SOLID
  8
0
 62
7
  6
CONTINUOUS
 10
160.5003043074
 20
30.7551187255
 11
160.9628038663
 21
30.7873818593
 12
160.269054528
 22
30.7228547745
 13
160.269054528
 23
30.7228547745
  0
SOLID
  8
0
 62
7
  6
CONTINUOUS
 10
160.9628038663
 20
30.7873818593
 11
160.8471793074
 21
30.6905916353
 12
160.269054528
 22
30.7228547745
 13
160.269054528
 23
30.7228547745
  0
SOLID
  8
0
 62
7
  6
CONTINUOUS
 10
160.8471793074
 20
30.6905916353
 11
159.401867028
 21
30.658327332
 12
160.269054528
 22
30.7228547745
 13
160.269054528
 23
30.7228547745
  0
SOLID
  8
0
 62
7
  6
CONTINUOUS
 10
160.269054528
 20
30.7228547745
 11
159.401867028
 21
30.658327332
 12
159.922179528
 22
30.7228547745
 13
159.922179528
 23
30.7228547745
  0
SOLID
  8
0
 62
7
  6
CONTINUOUS
 10
159.401867028
 20
30.658327332
 11
159.228429528
 21
30.7228547745
 12
159.922179528
 22
30.7228547745
 13
159.922179528
 23
30.7228547745
  0
SOLID
  8
0
 62
7
  6
CONTINUOUS
 10
159.401867028
 20
30.658327332
 11
160.8471793074
 21
30.6905916353
 12
159.575304528
 22
30.6260629858
 13
159.575304528
 23
30.6260629858
  0
SOLID
  8
0
 62
7
  6
CONTINUOUS
 10
160.8471793074
 20
30.6905916353
 11
160.615929528
 21
30.6260629858
 12
159.575304528
 22
30.6260629858
 13
159.575304528
 23
30.6260629858
  0
SOLID
  8
0
 62
7
  6
CONTINUOUS
 10
159.922179528
 20
30.5938006049
 11
159.575304528
 21
30.6260629858
 12
160.615929528
 22
30.6260629858
 13
160.615929528
 23
30.6260629858
  0
SOLID
  8
0
 62
7
  6
CONTINUOUS
 10
160.615929528
 20
30.6260629858
 11
160.269054528
 21
30.5938006049
 12
159.922179528
 22
30.5938006049
 13
159.922179528
 23
30.5938006049
  0
SOLID
  8
0
 62
7
  6
CONTINUOUS
 10
149.5737418074
 20
31.1100184796
 11
149.9206168074
 21
31.2713369632
 12
149.8628043005
 22
31.1422827828
 13
149.8628043005
 23
31.1422827828
  0
SOLID
  8
0
 62
7
  6
CONTINUOUS
 10
149.8628043005
 20
31.1422827828
 11
149.8628043005
 21
31.0454914852
 12
149.5737418074
 22
31.1100184796
 13
149.5737418074
 23
31.1100184796
  0
SOLID
  8
0
 62
7
  6
CONTINUOUS
 10
149.6315543091
 20
30.9164372091
 11
149.5737418074
 21
31.1100184796
 12
149.8628043005
 22
31.0454914852
 13
149.8628043005
 23
31.0454914852
  0
SOLID
  8
0
 62
7
  6
CONTINUOUS
 10
149.8628043005
 20
31.0454914852
 11
149.9784292936
 21
30.8841729058
 12
149.6315543091
 22
30.9164372091
 13
149.6315543091
 23
30.9164372091
  0
SOLID
  8
0
 62
7
  6
CONTINUOUS
 10
149.7471793074
 20
30.7873813202
 11
149.6315543091
 21
30.9164372091
 12
149.9784292936
 22
30.8841729058
 13
149.9784292936
 23
30.8841729058
  0
SOLID
  8
0
 62
7
  6
CONTINUOUS
 10
149.9784292936
 20
30.8841729058
 11
150.1518667936
 21
30.7873813202
 12
149.7471793074
 22
30.7873813202
 13
149.7471793074
 23
30.7873813202
  0
SOLID
  8
0
 62
7
  6
CONTINUOUS
 10
149.8628043005
 20
30.7228547004
 11
149.7471793074
 21
30.7873813202
 12
150.1518667936
 22
30.7873813202
 13
150.1518667936
 23
30.7873813202
  0
SOLID
  8
0
 62
7
  6
CONTINUOUS
 10
150.1518667936
 20
30.7873813202
 11
150.498741835
 21
30.7228547004
 12
149.8628043005
 22
30.7228547004
 13
149.8628043005
 23
30.7228547004
  0
SOLID
  8
0
 62
7
  6
CONTINUOUS
 10
150.0362418212
 20
30.658327332
 11
149.8628043005
 21
30.7228547004
 12
150.498741835
 22
30.7228547004
 13
150.498741835
 23
30.7228547004
  0
SOLID
  8
0
 62
7
  6
CONTINUOUS
 10
154.0831168074
 20
31.1100184386
 11
154.1987416972
 21
31.1745462761
 12
154.7768668074
 22
31.1422827828
 13
154.7768668074
 23
31.1422827828
  0
SOLID
  8
0
 62
7
  6
CONTINUOUS
 10
154.7768668074
 20
31.1422827828
 11
154.5456166972
 21
31.1100184386
 12
154.0831168074
 22
31.1100184386
 13
154.0831168074
 23
31.1100184386
  0
SOLID
  8
0
 62
7
  6
CONTINUOUS
 10
153.9674919177
 20
30.9809642992
 11
154.0831168074
 21
31.1100184386
 12
154.5456166972
 22
31.1100184386
 13
154.5456166972
 23
31.1100184386
  0
SOLID
  8
0
 62
7
  6
CONTINUOUS
 10
154.3143669177
 20
31.0132277988
 11
153.9674919177
 21
30.9809642992
 12
154.4299918074
 22
31.0777556927
 13
154.4299918074
 23
31.0777556927
  0
SOLID
  8
0
 62
7
  6
CONTINUOUS
 10
153.9674919177
 20
30.9809642992
 11
154.5456166972
 21
31.1100184796
 12
154.4299918074
 22
31.0777556927
 13
154.4299918074
 23
31.0777556927
  0
SOLID
  8
0
 62
7
  6
CONTINUOUS
 10
154.3143669177
 20
31.0132277988
 11
154.2565543074
 21
30.9164372091
 12
153.9674919177
 22
30.9809642992
 13
153.9674919177
 23
30.9809642992
  0
SOLID
  8
0
 62
7
  6
CONTINUOUS
 10
153.9674919177
 20
30.8841729058
 11
153.9674919177
 21
30.9809642992
 12
154.2565543074
 22
30.9164372091
 13
154.2565543074
 23
30.9164372091
  0
SOLID
  8
0
 62
7
  6
CONTINUOUS
 10
154.2565543074
 20
30.9164372091
 11
154.2565543074
 21
30.8519086025
 12
153.9674919177
 22
30.8841729058
 13
153.9674919177
 23
30.8841729058
  0
SOLID
  8
0
 62
7
  6
CONTINUOUS
 10
154.0253041972
 20
30.7551187255
 11
153.9674919177
 21
30.8841729058
 12
154.2565543074
 22
30.8519086025
 13
154.2565543074
 23
30.8519086025
  0
SOLID
  8
0
 62
7
  6
CONTINUOUS
 10
155.412804528
 20
30.9487004259
 11
155.7018665869
 21
30.8519086025
 12
155.3549915869
 22
30.8841729058
 13
155.3549915869
 23
30.8841729058
  0
SOLID
  8
0
 62
7
  6
CONTINUOUS
 10
155.1815540869
 20
30.7873815123
 11
155.3549915869
 21
30.8841729058
 12
155.7018665869
 22
30.8519086025
 13
155.7018665869
 23
30.8519086025
  0
SOLID
  8
0
 62
7
  6
CONTINUOUS
 10
155.1815540869
 20
30.7873815123
 11
155.7018665869
 21
30.8519086025
 12
155.412804528
 22
30.7551187255
 13
155.412804528
 23
30.7551187255
  0
SOLID
  8
0
 62
7
  6
CONTINUOUS
 10
155.7018665869
 20
30.8519086025
 11
155.759679528
 21
30.6905916353
 12
155.412804528
 22
30.7551187255
 13
155.412804528
 23
30.7551187255
  0
SOLID
  8
0
 62
7
  6
CONTINUOUS
 10
155.4706168074
 20
30.658327332
 11
155.412804528
 21
30.7551187255
 12
155.759679528
 22
30.6905916353
 13
155.759679528
 23
30.6905916353
  0
SOLID
  8
0
 62
7
  6
CONTINUOUS
 10
155.4706168074
 20
30.658327332
 11
155.759679528
 21
30.6905916353
 12
155.5284290869
 22
30.5938002079
 13
155.5284290869
 23
30.5938002079
  0
SOLID
  8
0
 62
7
  6
CONTINUOUS
 10
155.759679528
 20
30.6905916353
 11
155.8174918074
 21
30.5938002079
 12
155.5284290869
 22
30.5938002079
 13
155.5284290869
 23
30.5938002079
  0
SOLID
  8
0
 62
7
  6
CONTINUOUS
 10
151.0768668626
 20
30.8196456577
 11
151.1346793074
 21
30.9164373395
 12
151.4237418626
 22
30.9164373395
 13
151.4237418626
 23
30.9164373395
  0
SOLID
  8
0
 62
7
  6
CONTINUOUS
 10
151.4237418626
 20
30.9164373395
 11
151.3659292523
 21
30.7873815123
 12
151.0768668626
 22
30.8196456577
 13
151.0768668626
 23
30.8196456577
  0
SOLID
  8
0
 62
7
  6
CONTINUOUS
 10
150.9034292799
 20
30.7551187255
 11
151.0768668626
 21
30.8196456577
 12
151.3659292523
 22
30.7873815123
 13
151.3659292523
 23
30.7873815123
  0
SOLID
  8
0
 62
7
  6
CONTINUOUS
 10
150.9034292799
 20
30.7551187255
 11
151.3659292523
 21
30.7873815123
 12
150.498741835
 22
30.7228544222
 13
150.498741835
 23
30.7228544222
  0
SOLID
  8
0
 62
7
  6
CONTINUOUS
 10
151.3659292523
 20
30.7873815123
 11
151.1924917523
 21
30.6905916353
 12
150.498741835
 22
30.7228544222
 13
150.498741835
 23
30.7228544222
  0
SOLID
  8
0
 62
7
  6
CONTINUOUS
 10
150.0362418212
 20
30.658327332
 11
150.498741835
 21
30.7228544222
 12
151.1924917523
 22
30.6905916353
 13
151.1924917523
 23
30.6905916353
  0
SOLID
  8
0
 62
7
  6
CONTINUOUS
 10
150.0362418212
 20
30.658327332
 11
151.1924917523
 21
30.6905916353
 12
150.2096793212
 22
30.6260631011
 13
150.2096793212
 23
30.6260631011
  0
SOLID
  8
0
 62
7
  6
CONTINUOUS
 10
151.1924917523
 20
30.6905916353
 11
150.9612418074
 21
30.6260631011
 12
150.2096793212
 22
30.6260631011
 13
150.2096793212
 23
30.6260631011
  0
SOLID
  8
0
 62
7
  6
CONTINUOUS
 10
150.5565542799
 20
30.5938002419
 11
150.2096793212
 21
30.6260631011
 12
150.9612418074
 22
30.6260631011
 13
150.9612418074
 23
30.6260631011
  0
SOLID
  8
0
 62
7
  6
CONTINUOUS
 10
154.0253041972
 20
30.7551187255
 11
154.2565543074
 21
30.8519086025
 12
154.3143669177
 22
30.7873815123
 13
154.3143669177
 23
30.7873815123
  0
SOLID
  8
0
 62
7
  6
CONTINUOUS
 10
154.3143669177
 20
30.7873815123
 11
154.5456166972
 21
30.7228544222
 12
154.0253041972
 22
30.7551187255
 13
154.0253041972
 23
30.7551187255
  0
SOLID
  8
0
 62
7
  6
CONTINUOUS
 10
154.1987416972
 20
30.658327332
 11
154.0253041972
 21
30.7551187255
 12
154.5456166972
 22
30.7228544222
 13
154.5456166972
 23
30.7228544222
  0
SOLID
  8
0
 62
7
  6
CONTINUOUS
 10
154.8924916972
 20
30.7228544637
 11
155.1815540869
 21
30.7873815123
 12
155.412804528
 22
30.7551187255
 13
155.412804528
 23
30.7551187255
  0
SOLID
  8
0
 62
7
  6
CONTINUOUS
 10
155.412804528
 20
30.7551187255
 11
155.3549915869
 21
30.6905916353
 12
154.8924916972
 22
30.7228544637
 13
154.8924916972
 23
30.7228544637
  0
SOLID
  8
0
 62
7
  6
CONTINUOUS
 10
155.3549915869
 20
30.6905916353
 11
154.1987416972
 21
30.658327332
 12
154.8924916972
 22
30.7228544637
 13
154.8924916972
 23
30.7228544637
  0
SOLID
  8
0
 62
7
  6
CONTINUOUS
 10
154.1987416972
 20
30.658327332
 11
154.5456166972
 21
30.7228544637
 12
154.8924916972
 22
30.7228544637
 13
154.8924916972
 23
30.7228544637
  0
SOLID
  8
0
 62
7
  6
CONTINUOUS
 10
154.1987416972
 20
30.658327332
 11
155.3549915869
 21
30.6905916353
 12
154.3143669177
 22
30.6260630541
 13
154.3143669177
 23
30.6260630541
  0
SOLID
  8
0
 62
7
  6
CONTINUOUS
 10
155.3549915869
 20
30.6905916353
 11
155.1815540869
 21
30.6260630541
 12
154.3143669177
 22
30.6260630541
 13
154.3143669177
 23
30.6260630541
  0
SOLID
  8
0
 62
7
  6
CONTINUOUS
 10
154.5456166972
 20
30.5938002188
 11
154.3143669177
 21
30.6260630541
 12
155.1815540869
 22
30.6260630541
 13
155.1815540869
 23
30.6260630541
  0
SOLID
  8
0
 62
7
  6
CONTINUOUS
 10
155.1815540869
 20
30.6260630541
 11
154.8924916972
 21
30.5938002188
 12
154.5456166972
 22
30.5938002188
 13
154.5456166972
 23
30.5938002188
  0
SOLID
  8
0
 62
7
  6
CONTINUOUS
 10
159.575304528
 20
30.7551187255
 11
159.228429528
 21
30.7228544637
 12
159.4596793074
 22
30.7873815123
 13
159.4596793074
 23
30.7873815123
  0
SOLID
  8
0
 62
7
  6
CONTINUOUS
 10
159.4596793074
 20
30.7873815123
 11
159.228429528
 21
30.7228544637
 12
159.401867028
 22
30.851908644
 13
159.401867028
 23
30.851908644
  0
SOLID
  8
0
 62
7
  6
CONTINUOUS
 10
159.228429528
 20
30.7228544637
 11
159.1128043074
 21
30.851908644
 12
159.401867028
 22
30.851908644
 13
159.401867028
 23
30.851908644
  0
SOLID
  8
0
 62
7
  6
CONTINUOUS
 10
159.575304528
 20
30.7551187255
 11
159.922179528
 21
30.7228544637
 12
159.228429528
 22
30.7228544637
 13
159.228429528
 23
30.7228544637
  0
SOLID
  8
0
 62
7
  6
CONTINUOUS
 10
156.279992028
 20
30.5938002419
 11
156.279992028
 21
31.6262382337
 12
156.5690540869
 22
30.5938002419
 13
156.5690540869
 23
31.6262382337
  0
ENDBLK
  8
0
  6
BYBLOCK
 62
0
  0
BLOCK
  8
0
 62
2
  6
CONTINUOUS
  2
SYMBOL_3_BL0
 70
64
 10
32.1213064866
 20
19.8534310916
  0
TEXT
  8
0
 62
7
  6
CONTINUOUS
 10
18.3860103289
 20
19.2268451992
  7
TEXTSTYLE_3
 40
2.7338706658
  1
Ammeraal Beltech
 41
1.0
 51
15.0
 72
0
  0
TEXT
  8
0
 62
7
  6
CONTINUOUS
 10
29.1868111546
 20
16.9533085264
  7
TEXTSTYLE_4
 40
1.0935482663
  1
Innovation & Service in Belting
 41
1.0
 72
0
  0
LINE
  8
0
 62
7
  6
CONTINUOUS
 10
12.3614696776
 20
19.9934385078
 11
13.1396216709
 21
23.6543558055
  0
LINE
  8
0
 62
7
  6
CONTINUOUS
 10
23.2347899607
 20
27.3177497171
 11
13.6274394139
 21
24.1961322958
  0
LINE
  8
0
 62
7
  6
CONTINUOUS
 10
12.5867530099
 20
19.3000877048
 11
20.093828271
 21
12.5406867788
  0
LINE
  8
0
 62
7
  6
CONTINUOUS
 10
12.8492874206
 20
20.5352149982
 11
23.6575567857
 21
24.0470345971
  0
LINE
  8
0
 62
7
  6
CONTINUOUS
 10
23.6533516486
 20
13.6972460334
 11
15.2078919798
 21
21.3015720751
  0
LINE
  8
0
 62
7
  6
CONTINUOUS
 10
24.1731743684
 20
26.4728246013
 11
23.1966148312
 21
21.8784731989
  0
LINE
  8
0
 62
7
  6
CONTINUOUS
 10
22.4968128835
 20
18.5861638851
 11
21.810364672
 21
15.3566789607
  0
LINE
  8
0
 62
7
  6
CONTINUOUS
 10
24.8542704669
 20
14.087448211
 11
25.8105020025
 21
18.5861638851
  0
LINE
  8
0
 62
7
  6
CONTINUOUS
 10
26.5103039502
 20
21.8784731989
 11
26.9545457526
 21
23.9684665583
  0
LINE
  8
0
 62
7
  6
CONTINUOUS
 10
20.8069293463
 20
12.3891124661
 11
24.3664527239
 21
13.5456717207
  0
LINE
  8
0
 62
7
  6
CONTINUOUS
 10
23.9478910361
 20
27.1661754044
 11
26.7292624203
 21
24.6618173613
  0
ARC
  8
0
 62
7
  6
CONTINUOUS
 10
13.8527227462
 20
23.5027814928
 40
0.7290321776
 50
108.0
 51
168.0
  0
ARC
  8
0
 62
7
  6
CONTINUOUS
 10
23.4600732931
 20
26.624398914
 40
0.7290321776
 50
348.0
 51
108.0
  0
ARC
  8
0
 62
7
  6
CONTINUOUS
 10
26.2414446773
 20
24.120040871
 40
0.7290321776
 50
348.0
 51
48.0
  0
ARC
  8
0
 62
7
  6
CONTINUOUS
 10
20.581646014
 20
13.0824632691
 40
0.7290321776
 50
228.0
 51
288.0
  0
ARC
  8
0
 62
7
  6
CONTINUOUS
 10
13.0745707529
 20
19.8418641951
 40
0.7290321776
 50
108.0
 51
228.0
  0
ARC
  8
0
 62
7
  6
CONTINUOUS
 10
24.1411693916
 20
14.2390225237
 40
0.7290321776
 50
228.0
 51
348.0
  0
ENDBLK
  8
0
  6
BYBLOCK
 62
0
  0
ENDSEC
  0
SECTION
  2
ENTITIES
  0
TEXT
  8
0
 62
5
  6
CONTINUOUS
 10
96.0
 20
25.636
  7
TEXTSTYLE_2
 40
2.8
  1
Scale :
 41
0.6
 51
0.000019
 72
0
  0
TEXT
  8
0
 62
5
  6
CONTINUOUS
 10
116.0
 20
25.636
  7
TEXTSTYLE_2
 40
2.8
  1
Belt type:
 41
0.6
 51
0.000019
 72
0
  0
INSERT
  8
0
 62
2
  6
CONTINUOUS
  2
SYMBOL_3_BL0
 10
32.1213064866
 20
19.8534310916
  0
INSERT
  8
0
 62
2
  6
CONTINUOUS
  2
SYMBOL_8_BL1
 10
173.5956734183
 20
35.5937998301
  0
LINE
  8
0
 62
2
  6
CONTINUOUS
 10
10.0
 20
30.0
 11
200.0
 21
30.0
  0
LINE
  8
0
 62
2
  6
CONTINUOUS
 10
10.0
 20
30.0
 11
10.0
 21
10.0
  0
LINE
  8
0
 62
2
  6
CONTINUOUS
 10
10.0
 20
10.0
 11
200.0
 21
10.0
  0
LINE
  8
0
 62
2
  6
CONTINUOUS
 10
95.0
 20
30.0
 11
95.0
 21
10.0
  0
LINE
  8
0
 62
2
  6
CONTINUOUS
 10
115.0
 20
30.0
 11
115.0
 21
10.0
  0
LINE
  8
0
 62
2
  6
CONTINUOUS
 10
200.0
 20
30.0
 11
200.0
 21
10.0
  0
TEXT
  8
0
 62
5
  6
CONTINUOUS
 10
13.0
 20
23.303
  7
TEXTSTYLE_5
 40
1.52
  1
                                                                     Ammeraal Beltech Modular A/S
 41
1.0
 72
0
  0
TEXT
  8
0
 62
5
  6
CONTINUOUS
 10
13.0
 20
20.595
  7
TEXTSTYLE_5
 40
1.5
  1
                                                                      Hjulmagervej 21,  7100 Vejle,  DK
 41
1.0
 72
0
  0
TEXT
  8
0
 62
5
  6
CONTINUOUS
 10
13.0
 20
17.881
  7
TEXTSTYLE_5
 40
1.495
  1
                                                                      tel: 
 41
1.0
 72
0
  0
TEXT
  8
0
 62
5
  6
CONTINUOUS
 10
57.9869465649
 20
17.881
  7
TEXTSTYLE_5
 40
1.51
  1
+45 75723100     fax: +45 75723348
 41
1.0
 72
0
  0
TEXT
  8
0
 62
5
  6
CONTINUOUS
 10
13.0
 20
15.177
  7
TEXTSTYLE_5
 40
1.5
  1
                                                                      admin@unichains.dk  www.unichains.com
 41
1.0
 72
0
  0
TEXT
  8
0
 62
5
  6
CONTINUOUS
 10
99.75
 20
13.75
  7
TEXTSTYLE_6
 40
5.0
  1
1:1
 41
0.7
 72
1
 11
105.0
 21
13.75
  0
TEXT
  8
0
 62
5
  6
CONTINUOUS
 10
118.0
 20
13.75
  7
TEXTSTYLE_7
 40
7.5
  1
uni X-MPB C K300
 41
0.6552734375
 72
0
  0
LINE
  8
0
 62
7
  6
CONTINUOUS
 10
210.0
 20
0.0
 11
0.0
 21
0.0
  0
LINE
  8
0
 62
7
  6
CONTINUOUS
 10
10.0
 20
10.0
 11
200.0
 21
10.0
  0
LINE
  8
0
 62
7
  6
CONTINUOUS
 10
10.0
 20
30.0
 11
200.0
 21
30.0
  0
LINE
  8
0
 62
7
  6
CONTINUOUS
 10
0.0
 20
0.0
 11
0.0
 21
297.0
  0
LINE
  8
0
 62
7
  6
CONTINUOUS
 10
10.0
 20
10.0
 11
10.0
 21
287.0
  0
LINE
  8
0
 62
7
  6
CONTINUOUS
 10
200.0
 20
287.0
 11
200.0
 21
10.0
  0
LINE
  8
0
 62
7
  6
CONTINUOUS
 10
210.0
 20
0.0
 11
210.0
 21
297.0
  0
LINE
  8
0
 62
7
  6
CONTINUOUS
 10
10.0
 20
287.0
 11
200.0
 21
287.0
  0
LINE
  8
0
 62
7
  6
CONTINUOUS
 10
0.0
 20
297.0
 11
210.0
 21
297.0
  0
POLYLINE
  8
SURFACE
 62
7
  6
CONTINUOUS
 66
1
 70
0
  0
VERTEX
  8
SURFACE
 62
7
  6
CONTINUOUS
 10
33.2924316375
 20
186.7996673084
  0
VERTEX
  8
SURFACE
 62
7
  6
CONTINUOUS
 10
33.2941623889
 20
186.7382947454
  0
VERTEX
  8
SURFACE
 62
7
  6
CONTINUOUS
 10
33.3054383553
 20
186.6302473791
  0
VERTEX
  8
SURFACE
 62
7
  6
CONTINUOUS
 10
33.3273430033
 20
186.522771861
  0
VERTEX
  8
SURFACE
 62
7
  6
CONTINUOUS
 10
33.3595431788
 20
186.4179152967
  0
VERTEX
  8
SURFACE
 62
7
  6
CONTINUOUS
 10
33.4013675733
 20
186.3171738582
  0
VERTEX
  8
SURFACE
 62
7
  6
CONTINUOUS
 10
33.4518317766
 20
186.2218372597
  0
VERTEX
  8
SURFACE
 62
7
  6
CONTINUOUS
 10
33.5097291068
 20
186.1328789129
  0
VERTEX
  8
SURFACE
 62
7
  6
CONTINUOUS
 10
33.5736831743
 20
186.0509710432
  0
VERTEX
  8
SURFACE
 62
7
  6
CONTINUOUS
 10
33.64210619
 20
185.9765938055
  0
VERTEX
  8
SURFACE
 62
7
  6
CONTINUOUS
 10
33.7140374886
 20
185.9093009617
  0
VERTEX
  8
SURFACE
 62
7
  6
CONTINUOUS
 10
33.7884068552
 20
185.8487502801
  0
VERTEX
  8
SURFACE
 62
7
  6
CONTINUOUS
 10
33.8648585743
 20
185.7940626143
  0
VERTEX
  8
SURFACE
 62
7
  6
CONTINUOUS
 10
33.9430063991
 20
185.7445438719
  0
VERTEX
  8
SURFACE
 62
7
  6
CONTINUOUS
 10
34.0229783843
 20
185.6993195494
  0
VERTEX
  8
SURFACE
 62
7
  6
CONTINUOUS
 10
34.1048305686
 20
185.6577293889
  0
VERTEX
  8
SURFACE
 62
7
  6
CONTINUOUS
 10
34.1890470021
 20
185.6190416899
  0
VERTEX
  8
SURFACE
 62
7
  6
CONTINUOUS
 10
34.2760234539
 20
185.5827170604
  0
VERTEX
  8
SURFACE
 62
7
  6
CONTINUOUS
 10
34.3663928751
 20
185.5482361731
  0
VERTEX
  8
SURFACE
 62
7
  6
CONTINUOUS
 10
34.4608305152
 20
185.5151771255
  0
VERTEX
  8
SURFACE
 62
7
  6
CONTINUOUS
 10
34.5598161105
 20
185.4832696636
  0
VERTEX
  8
SURFACE
 62
7
  6
CONTINUOUS
 10
34.6639423358
 20
185.4522646883
  0
VERTEX
  8
SURFACE
 62
7
  6
CONTINUOUS
 10
34.7735824024
 20
185.4220245984
  0
VERTEX
  8
SURFACE
 62
7
  6
CONTINUOUS
 10
34.8891860227
 20
185.3924197157
  0
VERTEX
  8
SURFACE
 62
7
  6
CONTINUOUS
 10
35.0110364788
 20
185.3633868254
  0
VERTEX
  8
SURFACE
 62
7
  6
CONTINUOUS
 10
35.1393855183
 20
185.3348830128
  0
VERTEX
  8
SURFACE
 62
7
  6
CONTINUOUS
 10
35.2746336869
 20
185.3068459585
  0
VERTEX
  8
SURFACE
 62
7
  6
CONTINUOUS
 10
35.4171138639
 20
185.2792433148
  0
VERTEX
  8
SURFACE
 62
7
  6
CONTINUOUS
 10
35.5672563163
 20
185.2520374146
  0
VERTEX
  8
SURFACE
 62
7
  6
CONTINUOUS
 10
35.7254923761
 20
185.2252052929
  0
VERTEX
  8
SURFACE
 62
7
  6
CONTINUOUS
 10
35.8921978975
 20
185.1987456989
  0
VERTEX
  8
SURFACE
 62
7
  6
CONTINUOUS
 10
36.0677778328
 20
185.1726628543
  0
VERTEX
  8
SURFACE
 62
7
  6
CONTINUOUS
 10
36.2525970721
 20
185.1469763728
  0
VERTEX
  8
SURFACE
 62
7
  6
CONTINUOUS
 10
36.4470349919
 20
185.1217119562
  0
VERTEX
  8
SURFACE
 62
7
  6
CONTINUOUS
 10
36.6514449046
 20
185.0969064331
  0
VERTEX
  8
SURFACE
 62
7
  6
CONTINUOUS
 10
36.8661865721
 20
185.0726029177
  0
VERTEX
  8
SURFACE
 62
7
  6
CONTINUOUS
 10
37.09157948
 20
185.0488557677
  0
VERTEX
  8
SURFACE
 62
7
  6
CONTINUOUS
 10
37.3279409796
 20
185.0257255597
  0
VERTEX
  8
SURFACE
 62
7
  6
CONTINUOUS
 10
37.5755502644
 20
185.0032824189
  0
VERTEX
  8
SURFACE
 62
7
  6
CONTINUOUS
 10
37.8346644585
 20
184.9816037723
  0
VERTEX
  8
SURFACE
 62
7
  6
CONTINUOUS
 10
38.1055269023
 20
184.9607735216
  0
VERTEX
  8
SURFACE
 62
7
  6
CONTINUOUS
 10
38.3882918181
 20
184.9408872585
  0
VERTEX
  8
SURFACE
 62
7
  6
CONTINUOUS
 10
38.6832891098
 20
184.9220340916
  0
VERTEX
  8
SURFACE
 62
7
  6
CONTINUOUS
 10
38.990738502
 20
184.9043186894
  0
VERTEX
  8
SURFACE
 62
7
  6
CONTINUOUS
 10
39.3109096632
 20
184.8878509774
  0
VERTEX
  8
SURFACE
 62
7
  6
CONTINUOUS
 10
39.6440025027
 20
184.8727538732
  0
VERTEX
  8
SURFACE
 62
7
  6
CONTINUOUS
 10
39.990145526
 20
184.8591626308
  0
VERTEX
  8
SURFACE
 62
7
  6
CONTINUOUS
 10
40.3493982273
 20
184.8472241387
  0
VERTEX
  8
SURFACE
 62
7
  6
CONTINUOUS
 10
40.7217301952
 20
184.8370973806
  0
VERTEX
  8
SURFACE
 62
7
  6
CONTINUOUS
 10
41.107013755
 20
184.8289529866
  0
VERTEX
  8
SURFACE
 62
7
  6
CONTINUOUS
 10
41.5050025639
 20
184.8229732558
  0
VERTEX
  8
SURFACE
 62
7
  6
CONTINUOUS
 10
41.9155133406
 20
184.8193503699
  0
VERTEX
  8
SURFACE
 62
7
  6
CONTINUOUS
 10
42.2924311747
 20
184.8182760366
  0
SEQEND
  0
POLYLINE
  8
SURFACE
 62
7
  6
CONTINUOUS
 66
1
 70
0
  0
VERTEX
  8
SURFACE
 62
7
  6
CONTINUOUS
 10
33.2924316375
 20
212.1996673084
  0
VERTEX
  8
SURFACE
 62
7
  6
CONTINUOUS
 10
33.2941623889
 20
212.1382947454
  0
VERTEX
  8
SURFACE
 62
7
  6
CONTINUOUS
 10
33.3054383553
 20
212.0302473791
  0
VERTEX
  8
SURFACE
 62
7
  6
CONTINUOUS
 10
33.3273430033
 20
211.922771861
  0
VERTEX
  8
SURFACE
 62
7
  6
CONTINUOUS
 10
33.3595431788
 20
211.8179152967
  0
VERTEX
  8
SURFACE
 62
7
  6
CONTINUOUS
 10
33.4013675733
 20
211.7171738582
  0
VERTEX
  8
SURFACE
 62
7
  6
CONTINUOUS
 10
33.4518317766
 20
211.6218372597
  0
VERTEX
  8
SURFACE
 62
7
  6
CONTINUOUS
 10
33.5097291068
 20
211.5328789129
  0
VERTEX
  8
SURFACE
 62
7
  6
CONTINUOUS
 10
33.5736831743
 20
211.4509710432
  0
VERTEX
  8
SURFACE
 62
7
  6
CONTINUOUS
 10
33.64210619
 20
211.3765938055
  0
VERTEX
  8
SURFACE
 62
7
  6
CONTINUOUS
 10
33.7140374886
 20
211.3093009617
  0
VERTEX
  8
SURFACE
 62
7
  6
CONTINUOUS
 10
33.7884068552
 20
211.2487502801
  0
VERTEX
  8
SURFACE
 62
7
  6
CONTINUOUS
 10
33.8648585743
 20
211.1940626143
  0
VERTEX
  8
SURFACE
 62
7
  6
CONTINUOUS
 10
33.9430063991
 20
211.1445438719
  0
VERTEX
  8
SURFACE
 62
7
  6
CONTINUOUS
 10
34.0229783843
 20
211.0993195494
  0
VERTEX
  8
SURFACE
 62
7
  6
CONTINUOUS
 10
34.1048305686
 20
211.0577293889
  0
VERTEX
  8
SURFACE
 62
7
  6
CONTINUOUS
 10
34.1890470021
 20
211.0190416899
  0
VERTEX
  8
SURFACE
 62
7
  6
CONTINUOUS
 10
34.2760234539
 20
210.9827170604
  0
VERTEX
  8
SURFACE
 62
7
  6
CONTINUOUS
 10
34.3663928751
 20
210.9482361731
  0
VERTEX
  8
SURFACE
 62
7
  6
CONTINUOUS
 10
34.4608305152
 20
210.9151771255
  0
VERTEX
  8
SURFACE
 62
7
  6
CONTINUOUS
 10
34.5598161105
 20
210.8832696636
  0
VERTEX
  8
SURFACE
 62
7
  6
CONTINUOUS
 10
34.6639423358
 20
210.8522646883
  0
VERTEX
  8
SURFACE
 62
7
  6
CONTINUOUS
 10
34.7735824024
 20
210.8220245984
  0
VERTEX
  8
SURFACE
 62
7
  6
CONTINUOUS
 10
34.8891860227
 20
210.7924197157
  0
VERTEX
  8
SURFACE
 62
7
  6
CONTINUOUS
 10
35.0110364788
 20
210.7633868254
  0
VERTEX
  8
SURFACE
 62
7
  6
CONTINUOUS
 10
35.1393855183
 20
210.7348830128
  0
VERTEX
  8
SURFACE
 62
7
  6
CONTINUOUS
 10
35.2746336869
 20
210.7068459585
  0
VERTEX
  8
SURFACE
 62
7
  6
CONTINUOUS
 10
35.4171138639
 20
210.6792433148
  0
VERTEX
  8
SURFACE
 62
7
  6
CONTINUOUS
 10
35.5672563163
 20
210.6520374146
  0
VERTEX
  8
SURFACE
 62
7
  6
CONTINUOUS
 10
35.7254923761
 20
210.6252052929
  0
VERTEX
  8
SURFACE
 62
7
  6
CONTINUOUS
 10
35.8921978975
 20
210.5987456989
  0
VERTEX
  8
SURFACE
 62
7
  6
CONTINUOUS
 10
36.0677778328
 20
210.5726628543
  0
VERTEX
  8
SURFACE
 62
7
  6
CONTINUOUS
 10
36.2525970721
 20
210.5469763728
  0
VERTEX
  8
SURFACE
 62
7
  6
CONTINUOUS
 10
36.4470349919
 20
210.5217119562
  0
VERTEX
  8
SURFACE
 62
7
  6
CONTINUOUS
 10
36.6514449046
 20
210.4969064331
  0
VERTEX
  8
SURFACE
 62
7
  6
CONTINUOUS
 10
36.8661865721
 20
210.4726029177
  0
VERTEX
  8
SURFACE
 62
7
  6
CONTINUOUS
 10
37.09157948
 20
210.4488557677
  0
VERTEX
  8
SURFACE
 62
7
  6
CONTINUOUS
 10
37.3279409796
 20
210.4257255597
  0
VERTEX
  8
SURFACE
 62
7
  6
CONTINUOUS
 10
37.5755502644
 20
210.4032824189
  0
VERTEX
  8
SURFACE
 62
7
  6
CONTINUOUS
 10
37.8346644585
 20
210.3816037723
  0
VERTEX
  8
SURFACE
 62
7
  6
CONTINUOUS
 10
38.1055269023
 20
210.3607735216
  0
VERTEX
  8
SURFACE
 62
7
  6
CONTINUOUS
 10
38.3882918181
 20
210.3408872585
  0
VERTEX
  8
SURFACE
 62
7
  6
CONTINUOUS
 10
38.6832891098
 20
210.3220340916
  0
VERTEX
  8
SURFACE
 62
7
  6
CONTINUOUS
 10
38.990738502
 20
210.3043186894
  0
VERTEX
  8
SURFACE
 62
7
  6
CONTINUOUS
 10
39.3109096632
 20
210.2878509774
  0
VERTEX
  8
SURFACE
 62
7
  6
CONTINUOUS
 10
39.6440025027
 20
210.2727538732
  0
VERTEX
  8
SURFACE
 62
7
  6
CONTINUOUS
 10
39.990145526
 20
210.2591626308
  0
VERTEX
  8
SURFACE
 62
7
  6
CONTINUOUS
 10
40.3493982273
 20
210.2472241387
  0
VERTEX
  8
SURFACE
 62
7
  6
CONTINUOUS
 10
40.7217301952
 20
210.2370973806
  0
VERTEX
  8
SURFACE
 62
7
  6
CONTINUOUS
 10
41.107013755
 20
210.2289529866
  0
VERTEX
  8
SURFACE
 62
7
  6
CONTINUOUS
 10
41.5050025639
 20
210.2229732558
  0
VERTEX
  8
SURFACE
 62
7
  6
CONTINUOUS
 10
41.9155133406
 20
210.2193503699
  0
VERTEX
  8
SURFACE
 62
7
  6
CONTINUOUS
 10
42.2924311747
 20
210.2182760366
  0
SEQEND
  0
POLYLINE
  8
SURFACE
 62
7
  6
CONTINUOUS
 66
1
 70
0
  0
VERTEX
  8
SURFACE
 62
7
  6
CONTINUOUS
 10
33.2924316375
 20
237.5996673084
  0
VERTEX
  8
SURFACE
 62
7
  6
CONTINUOUS
 10
33.2941623889
 20
237.5382947454
  0
VERTEX
  8
SURFACE
 62
7
  6
CONTINUOUS
 10
33.3054383553
 20
237.4302473791
  0
VERTEX
  8
SURFACE
 62
7
  6
CONTINUOUS
 10
33.3273430033
 20
237.322771861
  0
VERTEX
  8
SURFACE
 62
7
  6
CONTINUOUS
 10
33.3595431788
 20
237.2179152967
  0
VERTEX
  8
SURFACE
 62
7
  6
CONTINUOUS
 10
33.4013675733
 20
237.1171738582
  0
VERTEX
  8
SURFACE
 62
7
  6
CONTINUOUS
 10
33.4518317766
 20
237.0218372597
  0
VERTEX
  8
SURFACE
 62
7
  6
CONTINUOUS
 10
33.5097291068
 20
236.9328789129
  0
VERTEX
  8
SURFACE
 62
7
  6
CONTINUOUS
 10
33.5736831743
 20
236.8509710432
  0
VERTEX
  8
SURFACE
 62
7
  6
CONTINUOUS
 10
33.64210619
 20
236.7765938055
  0
VERTEX
  8
SURFACE
 62
7
  6
CONTINUOUS
 10
33.7140374886
 20
236.7093009617
  0
VERTEX
  8
SURFACE
 62
7
  6
CONTINUOUS
 10
33.7884068552
 20
236.6487502801
  0
VERTEX
  8
SURFACE
 62
7
  6
CONTINUOUS
 10
33.8648585743
 20
236.5940626143
  0
VERTEX
  8
SURFACE
 62
7
  6
CONTINUOUS
 10
33.9430063991
 20
236.5445438719
  0
VERTEX
  8
SURFACE
 62
7
  6
CONTINUOUS
 10
34.0229783843
 20
236.4993195494
  0
VERTEX
  8
SURFACE
 62
7
  6
CONTINUOUS
 10
34.1048305686
 20
236.4577293889
  0
VERTEX
  8
SURFACE
 62
7
  6
CONTINUOUS
 10
34.1890470021
 20
236.4190416899
  0
VERTEX
  8
SURFACE
 62
7
  6
CONTINUOUS
 10
34.2760234539
 20
236.3827170604
  0
VERTEX
  8
SURFACE
 62
7
  6
CONTINUOUS
 10
34.3663928751
 20
236.3482361731
  0
VERTEX
  8
SURFACE
 62
7
  6
CONTINUOUS
 10
34.4608305152
 20
236.3151771255
  0
VERTEX
  8
SURFACE
 62
7
  6
CONTINUOUS
 10
34.5598161105
 20
236.2832696636
  0
VERTEX
  8
SURFACE
 62
7
  6
CONTINUOUS
 10
34.6639423358
 20
236.2522646883
  0
VERTEX
  8
SURFACE
 62
7
  6
CONTINUOUS
 10
34.7735824024
 20
236.2220245984
  0
VERTEX
  8
SURFACE
 62
7
  6
CONTINUOUS
 10
34.8891860227
 20
236.1924197157
  0
VERTEX
  8
SURFACE
 62
7
  6
CONTINUOUS
 10
35.0110364788
 20
236.1633868254
  0
VERTEX
  8
SURFACE
 62
7
  6
CONTINUOUS
 10
35.1393855183
 20
236.1348830128
  0
VERTEX
  8
SURFACE
 62
7
  6
CONTINUOUS
 10
35.2746336869
 20
236.1068459585
  0
VERTEX
  8
SURFACE
 62
7
  6
CONTINUOUS
 10
35.4171138639
 20
236.0792433148
  0
VERTEX
  8
SURFACE
 62
7
  6
CONTINUOUS
 10
35.5672563163
 20
236.0520374146
  0
VERTEX
  8
SURFACE
 62
7
  6
CONTINUOUS
 10
35.7254923761
 20
236.0252052929
  0
VERTEX
  8
SURFACE
 62
7
  6
CONTINUOUS
 10
35.8921978975
 20
235.9987456989
  0
VERTEX
  8
SURFACE
 62
7
  6
CONTINUOUS
 10
36.0677778328
 20
235.9726628543
  0
VERTEX
  8
SURFACE
 62
7
  6
CONTINUOUS
 10
36.2525970721
 20
235.9469763728
  0
VERTEX
  8
SURFACE
 62
7
  6
CONTINUOUS
 10
36.4470349919
 20
235.9217119562
  0
VERTEX
  8
SURFACE
 62
7
  6
CONTINUOUS
 10
36.6514449046
 20
235.8969064331
  0
VERTEX
  8
SURFACE
 62
7
  6
CONTINUOUS
 10
36.8661865721
 20
235.8726029177
  0
VERTEX
  8
SURFACE
 62
7
  6
CONTINUOUS
 10
37.09157948
 20
235.8488557677
  0
VERTEX
  8
SURFACE
 62
7
  6
CONTINUOUS
 10
37.3279409796
 20
235.8257255597
  0
VERTEX
  8
SURFACE
 62
7
  6
CONTINUOUS
 10
37.5755502644
 20
235.8032824189
  0
VERTEX
  8
SURFACE
 62
7
  6
CONTINUOUS
 10
37.8346644585
 20
235.7816037723
  0
VERTEX
  8
SURFACE
 62
7
  6
CONTINUOUS
 10
38.1055269023
 20
235.7607735216
  0
VERTEX
  8
SURFACE
 62
7
  6
CONTINUOUS
 10
38.3882918181
 20
235.7408872585
  0
VERTEX
  8
SURFACE
 62
7
  6
CONTINUOUS
 10
38.6832891098
 20
235.7220340916
  0
VERTEX
  8
SURFACE
 62
7
  6
CONTINUOUS
 10
38.990738502
 20
235.7043186894
  0
VERTEX
  8
SURFACE
 62
7
  6
CONTINUOUS
 10
39.3109096632
 20
235.6878509774
  0
VERTEX
  8
SURFACE
 62
7
  6
CONTINUOUS
 10
39.6440025027
 20
235.6727538732
  0
VERTEX
  8
SURFACE
 62
7
  6
CONTINUOUS
 10
39.990145526
 20
235.6591626308
  0
VERTEX
  8
SURFACE
 62
7
  6
CONTINUOUS
 10
40.3493982273
 20
235.6472241387
  0
VERTEX
  8
SURFACE
 62
7
  6
CONTINUOUS
 10
40.7217301952
 20
235.6370973806
  0
VERTEX
  8
SURFACE
 62
7
  6
CONTINUOUS
 10
41.107013755
 20
235.6289529866
  0
VERTEX
  8
SURFACE
 62
7
  6
CONTINUOUS
 10
41.5050025639
 20
235.6229732558
  0
VERTEX
  8
SURFACE
 62
7
  6
CONTINUOUS
 10
41.9155133406
 20
235.6193503699
  0
VERTEX
  8
SURFACE
 62
7
  6
CONTINUOUS
 10
42.2924311747
 20
235.6182760366
  0
SEQEND
  0
LINE
  8
SURFACE
 62
7
  6
CONTINUOUS
 10
33.292431617
 20
186.7996673084
 11
33.2924311927
 21
195.1553817424
  0
LINE
  8
SURFACE
 62
7
  6
CONTINUOUS
 10
33.292431617
 20
212.1996673084
 11
33.2924311927
 21
220.5553817424
  0
LINE
  8
SURFACE
 62
7
  6
CONTINUOUS
 10
33.292431617
 20
237.5996673084
 11
33.2924311927
 21
246.6779816514
  0
LINE
  8
SURFACE
 62
7
  6
CONTINUOUS
 10
33.292431677
 20
220.5563374091
 11
33.2924312077
 21
220.5553817424
  0
LINE
  8
SURFACE
 62
7
  6
CONTINUOUS
 10
33.292431677
 20
195.1563374091
 11
33.2924312077
 21
195.1553817424
  0
LINE
  8
0
 62
7
  6
CONTINUOUS
 10
48.67090993
 20
172.3779816514
 11
113.5424311927
 21
172.3779816514
  0
POLYLINE
  8
0
 62
7
  6
CONTINUOUS
 66
1
 70
0
  0
VERTEX
  8
0
 62
7
  6
CONTINUOUS
 10
48.6709763797
 20
172.3779816514
  0
VERTEX
  8
0
 62
7
  6
CONTINUOUS
 10
48.5907890714
 20
172.3812019996
  0
VERTEX
  8
0
 62
7
  6
CONTINUOUS
 10
48.5118176489
 20
172.3907286451
  0
VERTEX
  8
0
 62
7
  6
CONTINUOUS
 10
48.4352726714
 20
172.4061566931
  0
VERTEX
  8
0
 62
7
  6
CONTINUOUS
 10
48.3604816501
 20
172.4274065502
  0
VERTEX
  8
0
 62
7
  6
CONTINUOUS
 10
48.2868944843
 20
172.4546826226
  0
VERTEX
  8
0
 62
7
  6
CONTINUOUS
 10
48.2152576866
 20
172.4878577989
  0
VERTEX
  8
0
 62
7
  6
CONTINUOUS
 10
48.1459907723
 20
172.5268705473
  0
VERTEX
  8
0
 62
7
  6
CONTINUOUS
 10
48.0795426195
 20
172.5716280644
  0
VERTEX
  8
0
 62
7
  6
CONTINUOUS
 10
48.0162511153
 20
172.6221147133
  0
VERTEX
  8
0
 62
7
  6
CONTINUOUS
 10
47.9569012356
 20
172.6779125915
  0
VERTEX
  8
0
 62
7
  6
CONTINUOUS
 10
47.902345398
 20
172.7382892144
  0
VERTEX
  8
0
 62
7
  6
CONTINUOUS
 10
47.8523838736
 20
172.8036069401
  0
VERTEX
  8
0
 62
7
  6
CONTINUOUS
 10
47.8070437958
 20
172.8743741751
  0
VERTEX
  8
0
 62
7
  6
CONTINUOUS
 10
47.7672784711
 20
172.9498110195
  0
VERTEX
  8
0
 62
7
  6
CONTINUOUS
 10
47.7337527019
 20
173.0292528499
  0
VERTEX
  8
0
 62
7
  6
CONTINUOUS
 10
47.7069489356
 20
173.1121789295
  0
VERTEX
  8
0
 62
7
  6
CONTINUOUS
 10
47.6873337555
 20
173.1978506285
  0
VERTEX
  8
0
 62
7
  6
CONTINUOUS
 10
47.6752389573
 20
173.2857483298
  0
VERTEX
  8
0
 62
7
  6
CONTINUOUS
 10
47.6709763824
 20
173.3779816514
  0
SEQEND
  0
LINE
  8
DEFAULT_1
 62
2
  6
CENTER
 10
42.2924311927
 20
183.7930426995
 11
42.2924311927
 21
249.6779816514
  0
LINE
  8
0
 62
7
  6
CONTINUOUS
 10
47.6709763797
 20
234.6202014644
 11
47.6709763797
 21
223.5357618822
  0
LINE
  8
0
 62
7
  6
CONTINUOUS
 10
47.6709763797
 20
209.2201770819
 11
47.6709763797
 21
198.1357618822
  0
LINE
  8
0
 62
7
  6
CONTINUOUS
 10
47.6709763797
 20
183.8202014644
 11
47.6709763797
 21
173.3779816514
  0
POLYLINE
  8
SURFACE
 62
7
  6
CONTINUOUS
 66
1
 70
0
  0
VERTEX
  8
SURFACE
 62
7
  6
CONTINUOUS
 10
47.6709704395
 20
223.5376841508
  0
VERTEX
  8
SURFACE
 62
7
  6
CONTINUOUS
 10
47.6702252288
 20
223.4990853157
  0
VERTEX
  8
SURFACE
 62
7
  6
CONTINUOUS
 10
47.663562566
 20
223.4161895331
  0
VERTEX
  8
SURFACE
 62
7
  6
CONTINUOUS
 10
47.6500350899
 20
223.3341340919
  0
VERTEX
  8
SURFACE
 62
7
  6
CONTINUOUS
 10
47.6297363723
 20
223.2534864834
  0
VERTEX
  8
SURFACE
 62
7
  6
CONTINUOUS
 10
47.6028068129
 20
223.1748044642
  0
VERTEX
  8
SURFACE
 62
7
  6
CONTINUOUS
 10
47.5694326681
 20
223.0986321957
  0
VERTEX
  8
SURFACE
 62
7
  6
CONTINUOUS
 10
47.5298447617
 20
223.0254964795
  0
VERTEX
  8
SURFACE
 62
7
  6
CONTINUOUS
 10
47.4843168939
 20
222.9559031228
  0
VERTEX
  8
SURFACE
 62
7
  6
CONTINUOUS
 10
47.4331639425
 20
222.8903334298
  0
VERTEX
  8
SURFACE
 62
7
  6
CONTINUOUS
 10
47.376739692
 20
222.829240882
  0
VERTEX
  8
SURFACE
 62
7
  6
CONTINUOUS
 10
47.3154343817
 20
222.773047994
  0
VERTEX
  8
SURFACE
 62
7
  6
CONTINUOUS
 10
47.2496720083
 20
222.7221433935
  0
VERTEX
  8
SURFACE
 62
7
  6
CONTINUOUS
 10
47.1799073916
 20
222.6768791325
  0
VERTEX
  8
SURFACE
 62
7
  6
CONTINUOUS
 10
47.1066230358
 20
222.6375682567
  0
VERTEX
  8
SURFACE
 62
7
  6
CONTINUOUS
 10
47.0303257849
 20
222.6044826347
  0
VERTEX
  8
SURFACE
 62
7
  6
CONTINUOUS
 10
46.9515433259
 20
222.5778510818
  0
VERTEX
  8
SURFACE
 62
7
  6
CONTINUOUS
 10
46.8708205315
 20
222.5578577731
  0
VERTEX
  8
SURFACE
 62
7
  6
CONTINUOUS
 10
46.7887156933
 20
222.5446409705
  0
VERTEX
  8
SURFACE
 62
7
  6
CONTINUOUS
 10
46.7057966627
 20
222.538292067
  0
VERTEX
  8
SURFACE
 62
7
  6
CONTINUOUS
 10
46.6709793986
 20
222.5376857524
  0
SEQEND
  0
LINE
  8
SURFACE
 62
7
  6
CONTINUOUS
 10
101.1620960005
 20
184.437687265
 11
105.5424312103
 21
184.437687265
  0
LINE
  8
SURFACE
 62
7
  6
CONTINUOUS
 10
46.6727663849
 20
184.8182760377
 11
42.292431175
 21
184.8182760377
  0
POLYLINE
  8
SURFACE
 62
7
  6
CONTINUOUS
 66
1
 70
0
  0
VERTEX
  8
SURFACE
 62
7
  6
CONTINUOUS
 10
46.6709793954
 20
184.8182775487
  0
VERTEX
  8
SURFACE
 62
7
  6
CONTINUOUS
 10
46.7057966593
 20
184.8176712342
  0
VERTEX
  8
SURFACE
 62
7
  6
CONTINUOUS
 10
46.7887156903
 20
184.8113223307
  0
VERTEX
  8
SURFACE
 62
7
  6
CONTINUOUS
 10
46.870820529
 20
184.7981055282
  0
VERTEX
  8
SURFACE
 62
7
  6
CONTINUOUS
 10
46.9515433237
 20
184.7781122195
  0
VERTEX
  8
SURFACE
 62
7
  6
CONTINUOUS
 10
47.030325783
 20
184.7514806667
  0
VERTEX
  8
SURFACE
 62
7
  6
CONTINUOUS
 10
47.1066230342
 20
184.7183950449
  0
VERTEX
  8
SURFACE
 62
7
  6
CONTINUOUS
 10
47.1799073903
 20
184.6790841693
  0
VERTEX
  8
SURFACE
 62
7
  6
CONTINUOUS
 10
47.2496720073
 20
184.6338199085
  0
VERTEX
  8
SURFACE
 62
7
  6
CONTINUOUS
 10
47.315434381
 20
184.5829153083
  0
VERTEX
  8
SURFACE
 62
7
  6
CONTINUOUS
 10
47.3767396916
 20
184.5267224206
  0
VERTEX
  8
SURFACE
 62
7
  6
CONTINUOUS
 10
47.4331639424
 20
184.4656298732
  0
VERTEX
  8
SURFACE
 62
7
  6
CONTINUOUS
 10
47.4843168941
 20
184.4000601806
  0
VERTEX
  8
SURFACE
 62
7
  6
CONTINUOUS
 10
47.5298447622
 20
184.3304668243
  0
VERTEX
  8
SURFACE
 62
7
  6
CONTINUOUS
 10
47.5694326689
 20
184.2573311086
  0
VERTEX
  8
SURFACE
 62
7
  6
CONTINUOUS
 10
47.6028068141
 20
184.1811588406
  0
VERTEX
  8
SURFACE
 62
7
  6
CONTINUOUS
 10
47.629736374
 20
184.1024768219
  0
VERTEX
  8
SURFACE
 62
7
  6
CONTINUOUS
 10
47.6500350921
 20
184.0218292139
  0
VERTEX
  8
SURFACE
 62
7
  6
CONTINUOUS
 10
47.6635625687
 20
183.9397737733
  0
VERTEX
  8
SURFACE
 62
7
  6
CONTINUOUS
 10
47.670225232
 20
183.8568779913
  0
VERTEX
  8
SURFACE
 62
7
  6
CONTINUOUS
 10
47.6709704431
 20
183.8182791485
  0
SEQEND
  0
POLYLINE
  8
SURFACE
 62
7
  6
CONTINUOUS
 66
1
 70
0
  0
VERTEX
  8
SURFACE
 62
7
  6
CONTINUOUS
 10
101.1638829899
 20
184.437685754
  0
VERTEX
  8
SURFACE
 62
7
  6
CONTINUOUS
 10
101.129065726
 20
184.4382920686
  0
VERTEX
  8
SURFACE
 62
7
  6
CONTINUOUS
 10
101.046146695
 20
184.4446409721
  0
VERTEX
  8
SURFACE
 62
7
  6
CONTINUOUS
 10
100.9640418563
 20
184.4578577746
  0
VERTEX
  8
SURFACE
 62
7
  6
CONTINUOUS
 10
100.8833190616
 20
184.4778510832
  0
VERTEX
  8
SURFACE
 62
7
  6
CONTINUOUS
 10
100.8045366023
 20
184.504482636
  0
VERTEX
  8
SURFACE
 62
7
  6
CONTINUOUS
 10
100.7282393511
 20
184.5375682579
  0
VERTEX
  8
SURFACE
 62
7
  6
CONTINUOUS
 10
100.654954995
 20
184.5768791335
  0
VERTEX
  8
SURFACE
 62
7
  6
CONTINUOUS
 10
100.585190378
 20
184.6221433942
  0
VERTEX
  8
SURFACE
 62
7
  6
CONTINUOUS
 10
100.5194280043
 20
184.6730479944
  0
VERTEX
  8
SURFACE
 62
7
  6
CONTINUOUS
 10
100.4581226937
 20
184.7292408821
  0
VERTEX
  8
SURFACE
 62
7
  6
CONTINUOUS
 10
100.4016984429
 20
184.7903334296
  0
VERTEX
  8
SURFACE
 62
7
  6
CONTINUOUS
 10
100.3505454913
 20
184.8559031221
  0
VERTEX
  8
SURFACE
 62
7
  6
CONTINUOUS
 10
100.3050176231
 20
184.9254964784
  0
VERTEX
  8
SURFACE
 62
7
  6
CONTINUOUS
 10
100.2654297164
 20
184.9986321942
  0
VERTEX
  8
SURFACE
 62
7
  6
CONTINUOUS
 10
100.2320555712
 20
185.0748044621
  0
VERTEX
  8
SURFACE
 62
7
  6
CONTINUOUS
 10
100.2051260113
 20
185.1534864808
  0
VERTEX
  8
SURFACE
 62
7
  6
CONTINUOUS
 10
100.1848272932
 20
185.2341340888
  0
VERTEX
  8
SURFACE
 62
7
  6
CONTINUOUS
 10
100.1712998166
 20
185.3161895294
  0
VERTEX
  8
SURFACE
 62
7
  6
CONTINUOUS
 10
100.1646371533
 20
185.3990853115
  0
VERTEX
  8
SURFACE
 62
7
  6
CONTINUOUS
 10
100.1638919423
 20
185.4376841542
  0
SEQEND
  0
POLYLINE
  8
SURFACE
 62
7
  6
CONTINUOUS
 66
1
 70
0
  0
VERTEX
  8
SURFACE
 62
7
  6
CONTINUOUS
 10
47.6709704395
 20
198.1376841508
  0
VERTEX
  8
SURFACE
 62
7
  6
CONTINUOUS
 10
47.6702252288
 20
198.0990853157
  0
VERTEX
  8
SURFACE
 62
7
  6
CONTINUOUS
 10
47.663562566
 20
198.0161895331
  0
VERTEX
  8
SURFACE
 62
7
  6
CONTINUOUS
 10
47.6500350899
 20
197.9341340919
  0
VERTEX
  8
SURFACE
 62
7
  6
CONTINUOUS
 10
47.6297363723
 20
197.8534864834
  0
VERTEX
  8
SURFACE
 62
7
  6
CONTINUOUS
 10
47.6028068129
 20
197.7748044642
  0
VERTEX
  8
SURFACE
 62
7
  6
CONTINUOUS
 10
47.5694326681
 20
197.6986321957
  0
VERTEX
  8
SURFACE
 62
7
  6
CONTINUOUS
 10
47.5298447617
 20
197.6254964795
  0
VERTEX
  8
SURFACE
 62
7
  6
CONTINUOUS
 10
47.4843168939
 20
197.5559031228
  0
VERTEX
  8
SURFACE
 62
7
  6
CONTINUOUS
 10
47.4331639425
 20
197.4903334298
  0
VERTEX
  8
SURFACE
 62
7
  6
CONTINUOUS
 10
47.376739692
 20
197.429240882
  0
VERTEX
  8
SURFACE
 62
7
  6
CONTINUOUS
 10
47.3154343817
 20
197.373047994
  0
VERTEX
  8
SURFACE
 62
7
  6
CONTINUOUS
 10
47.2496720083
 20
197.3221433935
  0
VERTEX
  8
SURFACE
 62
7
  6
CONTINUOUS
 10
47.1799073916
 20
197.2768791325
  0
VERTEX
  8
SURFACE
 62
7
  6
CONTINUOUS
 10
47.1066230358
 20
197.2375682567
  0
VERTEX
  8
SURFACE
 62
7
  6
CONTINUOUS
 10
47.0303257849
 20
197.2044826347
  0
VERTEX
  8
SURFACE
 62
7
  6
CONTINUOUS
 10
46.9515433259
 20
197.1778510818
  0
VERTEX
  8
SURFACE
 62
7
  6
CONTINUOUS
 10
46.8708205315
 20
197.1578577731
  0
VERTEX
  8
SURFACE
 62
7
  6
CONTINUOUS
 10
46.7887156933
 20
197.1446409705
  0
VERTEX
  8
SURFACE
 62
7
  6
CONTINUOUS
 10
46.7057966627
 20
197.138292067
  0
VERTEX
  8
SURFACE
 62
7
  6
CONTINUOUS
 10
46.6709793986
 20
197.1376857524
  0
SEQEND
  0
POLYLINE
  8
SURFACE
 62
7
  6
CONTINUOUS
 66
1
 70
0
  0
VERTEX
  8
SURFACE
 62
7
  6
CONTINUOUS
 10
42.292431193
 20
197.1376872662
  0
VERTEX
  8
SURFACE
 62
7
  6
CONTINUOUS
 10
41.9116708913
 20
197.1365909059
  0
VERTEX
  8
SURFACE
 62
7
  6
CONTINUOUS
 10
41.5010570293
 20
197.1329427454
  0
VERTEX
  8
SURFACE
 62
7
  6
CONTINUOUS
 10
41.1029810558
 20
197.126937158
  0
VERTEX
  8
SURFACE
 62
7
  6
CONTINUOUS
 10
40.7176258469
 20
197.1187664936
  0
VERTEX
  8
SURFACE
 62
7
  6
CONTINUOUS
 10
40.3452373834
 20
197.1086132182
  0
VERTEX
  8
SURFACE
 62
7
  6
CONTINUOUS
 10
39.9859426199
 20
197.0966481041
  0
VERTEX
  8
SURFACE
 62
7
  6
CONTINUOUS
 10
39.6397712707
 20
197.0830302572
  0
VERTEX
  8
SURFACE
 62
7
  6
CONTINUOUS
 10
39.3066630564
 20
197.0679066691
  0
VERTEX
  8
SURFACE
 62
7
  6
CONTINUOUS
 10
38.9864886705
 20
197.0514126782
  0
VERTEX
  8
SURFACE
 62
7
  6
CONTINUOUS
 10
38.6790474222
 20
197.0336712666
  0
VERTEX
  8
SURFACE
 62
7
  6
CONTINUOUS
 10
38.3840687787
 20
197.0147924056
  0
VERTEX
  8
SURFACE
 62
7
  6
CONTINUOUS
 10
38.1013324739
 20
196.9948808185
  0
VERTEX
  8
SURFACE
 62
7
  6
CONTINUOUS
 10
37.8305080725
 20
196.9740256527
  0
VERTEX
  8
SURFACE
 62
7
  6
CONTINUOUS
 10
37.5714404681
 20
196.9523225229
  0
VERTEX
  8
SURFACE
 62
7
  6
CONTINUOUS
 10
37.3238856022
 20
196.9298553443
  0
VERTEX
  8
SURFACE
 62
7
  6
CONTINUOUS
 10
37.087585413
 20
196.9067015217
  0
VERTEX
  8
SURFACE
 62
7
  6
CONTINUOUS
 10
36.8622598748
 20
196.8829311491
  0
VERTEX
  8
SURFACE
 62
7
  6
CONTINUOUS
 10
36.647590801
 20
196.8586047489
  0
VERTEX
  8
SURFACE
 62
7
  6
CONTINUOUS
 10
36.4432577786
 20
196.8337765935
  0
VERTEX
  8
SURFACE
 62
7
  6
CONTINUOUS
 10
36.248900734
 20
196.8084897603
  0
VERTEX
  8
SURFACE
 62
7
  6
CONTINUOUS
 10
36.0641658054
 20
196.7827809997
  0
VERTEX
  8
SURFACE
 62
7
  6
CONTINUOUS
 10
35.8886734059
 20
196.7566759625
  0
VERTEX
  8
SURFACE
 62
7
  6
CONTINUOUS
 10
35.722058362
 20
196.7301941932
  0
VERTEX
  8
SURFACE
 62
7
  6
CONTINUOUS
 10
35.5639152033
 20
196.7033397792
  0
VERTEX
  8
SURFACE
 62
7
  6
CONTINUOUS
 10
35.4138676399
 20
196.6761113272
  0
VERTEX
  8
SURFACE
 62
7
  6
CONTINUOUS
 10
35.2714836471
 20
196.6484856314
  0
VERTEX
  8
SURFACE
 62
7
  6
CONTINUOUS
 10
35.1363320406
 20
196.6204246777
  0
VERTEX
  8
SURFACE
 62
7
  6
CONTINUOUS
 10
35.0080800238
 20
196.5918959547
  0
VERTEX
  8
SURFACE
 62
7
  6
CONTINUOUS
 10
34.8863271321
 20
196.5628369324
  0
VERTEX
  8
SURFACE
 62
7
  6
CONTINUOUS
 10
34.770819737
 20
196.5332040026
  0
VERTEX
  8
SURFACE
 62
7
  6
CONTINUOUS
 10
34.6612734204
 20
196.5029332931
  0
VERTEX
  8
SURFACE
 62
7
  6
CONTINUOUS
 10
34.5572361985
 20
196.4718938786
  0
VERTEX
  8
SURFACE
 62
7
  6
CONTINUOUS
 10
34.4583332264
 20
196.4399468456
  0
VERTEX
  8
SURFACE
 62
7
  6
CONTINUOUS
 10
34.3639695057
 20
196.4068410275
  0
VERTEX
  8
SURFACE
 62
7
  6
CONTINUOUS
 10
34.27366306
 20
196.37230363
  0
VERTEX
  8
SURFACE
 62
7
  6
CONTINUOUS
 10
34.1867384721
 20
196.3359101564
  0
VERTEX
  8
SURFACE
 62
7
  6
CONTINUOUS
 10
34.1025610337
 20
196.2971371741
  0
VERTEX
  8
SURFACE
 62
7
  6
CONTINUOUS
 10
34.0207397834
 20
196.2554436353
  0
VERTEX
  8
SURFACE
 62
7
  6
CONTINUOUS
 10
33.9407944362
 20
196.2100951918
  0
VERTEX
  8
SURFACE
 62
7
  6
CONTINUOUS
 10
33.8626730387
 20
196.1604292661
  0
VERTEX
  8
SURFACE
 62
7
  6
CONTINUOUS
 10
33.7862532795
 20
196.1055694866
  0
VERTEX
  8
SURFACE
 62
7
  6
CONTINUOUS
 10
33.7119283391
 20
196.0448218683
  0
VERTEX
  8
SURFACE
 62
7
  6
CONTINUOUS
 10
33.6400610399
 20
195.9773074244
  0
VERTEX
  8
SURFACE
 62
7
  6
CONTINUOUS
 10
33.5717332023
 20
195.9026924825
  0
VERTEX
  8
SURFACE
 62
7
  6
CONTINUOUS
 10
33.5079155246
 20
195.8205418448
  0
VERTEX
  8
SURFACE
 62
7
  6
CONTINUOUS
 10
33.4501986496
 20
195.7313468696
  0
VERTEX
  8
SURFACE
 62
7
  6
CONTINUOUS
 10
33.3999612935
 20
195.6357968026
  0
VERTEX
  8
SURFACE
 62
7
  6
CONTINUOUS
 10
33.3584016146
 20
195.5348674021
  0
VERTEX
  8
SURFACE
 62
7
  6
CONTINUOUS
 10
33.3264962804
 20
195.4298492227
  0
VERTEX
  8
SURFACE
 62
7
  6
CONTINUOUS
 10
33.3049115396
 20
195.3222490371
  0
VERTEX
  8
SURFACE
 62
7
  6
CONTINUOUS
 10
33.2939707037
 20
195.2141211734
  0
VERTEX
  8
SURFACE
 62
7
  6
CONTINUOUS
 10
33.292431677
 20
195.1563374091
  0
SEQEND
  0
POLYLINE
  8
SURFACE
 62
7
  6
CONTINUOUS
 66
1
 70
0
  0
VERTEX
  8
SURFACE
 62
7
  6
CONTINUOUS
 10
105.5424311923
 20
197.5182760366
  0
VERTEX
  8
SURFACE
 62
7
  6
CONTINUOUS
 10
105.923191494
 20
197.5193723969
  0
VERTEX
  8
SURFACE
 62
7
  6
CONTINUOUS
 10
106.333805356
 20
197.5230205574
  0
VERTEX
  8
SURFACE
 62
7
  6
CONTINUOUS
 10
106.7318813295
 20
197.5290261448
  0
VERTEX
  8
SURFACE
 62
7
  6
CONTINUOUS
 10
107.1172365384
 20
197.5371968092
  0
VERTEX
  8
SURFACE
 62
7
  6
CONTINUOUS
 10
107.4896250019
 20
197.5473500846
  0
VERTEX
  8
SURFACE
 62
7
  6
CONTINUOUS
 10
107.8489197655
 20
197.5593151987
  0
VERTEX
  8
SURFACE
 62
7
  6
CONTINUOUS
 10
108.1950911146
 20
197.5729330455
  0
VERTEX
  8
SURFACE
 62
7
  6
CONTINUOUS
 10
108.5281993289
 20
197.5880566336
  0
VERTEX
  8
SURFACE
 62
7
  6
CONTINUOUS
 10
108.8483737148
 20
197.6045506246
  0
VERTEX
  8
SURFACE
 62
7
  6
CONTINUOUS
 10
109.1558149632
 20
197.6222920362
  0
VERTEX
  8
SURFACE
 62
7
  6
CONTINUOUS
 10
109.4507936066
 20
197.6411708972
  0
VERTEX
  8
SURFACE
 62
7
  6
CONTINUOUS
 10
109.7335299114
 20
197.6610824843
  0
VERTEX
  8
SURFACE
 62
7
  6
CONTINUOUS
 10
110.0043543128
 20
197.6819376501
  0
VERTEX
  8
SURFACE
 62
7
  6
CONTINUOUS
 10
110.2634219172
 20
197.7036407799
  0
VERTEX
  8
SURFACE
 62
7
  6
CONTINUOUS
 10
110.5109767831
 20
197.7261079585
  0
VERTEX
  8
SURFACE
 62
7
  6
CONTINUOUS
 10
110.7472769724
 20
197.7492617811
  0
VERTEX
  8
SURFACE
 62
7
  6
CONTINUOUS
 10
110.9726025105
 20
197.7730321536
  0
VERTEX
  8
SURFACE
 62
7
  6
CONTINUOUS
 10
111.1872715844
 20
197.7973585538
  0
VERTEX
  8
SURFACE
 62
7
  6
CONTINUOUS
 10
111.3916046067
 20
197.8221867093
  0
VERTEX
  8
SURFACE
 62
7
  6
CONTINUOUS
 10
111.5859616513
 20
197.8474735424
  0
VERTEX
  8
SURFACE
 62
7
  6
CONTINUOUS
 10
111.7706965799
 20
197.873182303
  0
VERTEX
  8
SURFACE
 62
7
  6
CONTINUOUS
 10
111.9461889794
 20
197.8992873403
  0
VERTEX
  8
SURFACE
 62
7
  6
CONTINUOUS
 10
112.1128040233
 20
197.9257691095
  0
VERTEX
  8
SURFACE
 62
7
  6
CONTINUOUS
 10
112.270947182
 20
197.9526235236
  0
VERTEX
  8
SURFACE
 62
7
  6
CONTINUOUS
 10
112.4209947454
 20
197.9798519755
  0
VERTEX
  8
SURFACE
 62
7
  6
CONTINUOUS
 10
112.5633787382
 20
198.0074776714
  0
VERTEX
  8
SURFACE
 62
7
  6
CONTINUOUS
 10
112.6985303447
 20
198.0355386251
  0
VERTEX
  8
SURFACE
 62
7
  6
CONTINUOUS
 10
112.8267823616
 20
198.064067348
  0
VERTEX
  8
SURFACE
 62
7
  6
CONTINUOUS
 10
112.9485352532
 20
198.0931263704
  0
VERTEX
  8
SURFACE
 62
7
  6
CONTINUOUS
 10
113.0640426483
 20
198.1227593001
  0
VERTEX
  8
SURFACE
 62
7
  6
CONTINUOUS
 10
113.1735889649
 20
198.1530300097
  0
VERTEX
  8
SURFACE
 62
7
  6
CONTINUOUS
 10
113.2776261868
 20
198.1840694242
  0
VERTEX
  8
SURFACE
 62
7
  6
CONTINUOUS
 10
113.3765291589
 20
198.2160164572
  0
VERTEX
  8
SURFACE
 62
7
  6
CONTINUOUS
 10
113.4708928796
 20
198.2491222752
  0
VERTEX
  8
SURFACE
 62
7
  6
CONTINUOUS
 10
113.5611993253
 20
198.2836596728
  0
VERTEX
  8
SURFACE
 62
7
  6
CONTINUOUS
 10
113.6481239133
 20
198.3200531463
  0
VERTEX
  8
SURFACE
 62
7
  6
CONTINUOUS
 10
113.7323013516
 20
198.3588261287
  0
VERTEX
  8
SURFACE
 62
7
  6
CONTINUOUS
 10
113.8141226019
 20
198.4005196674
  0
VERTEX
  8
SURFACE
 62
7
  6
CONTINUOUS
 10
113.8940679491
 20
198.445868111
  0
VERTEX
  8
SURFACE
 62
7
  6
CONTINUOUS
 10
113.9721893466
 20
198.4955340367
  0
VERTEX
  8
SURFACE
 62
7
  6
CONTINUOUS
 10
114.0486091059
 20
198.5503938162
  0
VERTEX
  8
SURFACE
 62
7
  6
CONTINUOUS
 10
114.1229340462
 20
198.6111414345
  0
VERTEX
  8
SURFACE
 62
7
  6
CONTINUOUS
 10
114.1948013454
 20
198.6786558784
  0
VERTEX
  8
SURFACE
 62
7
  6
CONTINUOUS
 10
114.263129183
 20
198.7532708203
  0
VERTEX
  8
SURFACE
 62
7
  6
CONTINUOUS
 10
114.3269468607
 20
198.835421458
  0
VERTEX
  8
SURFACE
 62
7
  6
CONTINUOUS
 10
114.3846637358
 20
198.9246164332
  0
VERTEX
  8
SURFACE
 62
7
  6
CONTINUOUS
 10
114.4349010918
 20
199.0201665002
  0
VERTEX
  8
SURFACE
 62
7
  6
CONTINUOUS
 10
114.4764607708
 20
199.1210959006
  0
VERTEX
  8
SURFACE
 62
7
  6
CONTINUOUS
 10
114.5083661049
 20
199.2261140801
  0
VERTEX
  8
SURFACE
 62
7
  6
CONTINUOUS
 10
114.5299508458
 20
199.3337142656
  0
VERTEX
  8
SURFACE
 62
7
  6
CONTINUOUS
 10
114.5408916816
 20
199.4418421294
  0
VERTEX
  8
SURFACE
 62
7
  6
CONTINUOUS
 10
114.5424307083
 20
199.4996258937
  0
SEQEND
  0
LINE
  8
SURFACE
 62
7
  6
CONTINUOUS
 10
42.2924311929
 20
197.137687265
 11
46.6727664393
 21
197.137687265
  0
LINE
  8
SURFACE
 62
7
  6
CONTINUOUS
 10
105.5424311924
 20
197.5182760377
 11
101.162095946
 21
197.5182760377
  0
LINE
  8
DEFAULT_1
 62
2
  6
CENTER
 10
73.9174311927
 20
214.4279816514
 11
73.9174311927
 21
212.0280816514
  0
LINE
  8
0
 62
2
  6
CONTINUOUS
 10
73.9174311927
 20
210.9079816514
 11
73.9174311927
 21
209.1479816514
  0
LINE
  8
DEFAULT_1
 62
2
  6
CENTER
 10
73.9174311927
 20
205.6279816514
 11
73.9174311927
 21
208.0278816514
  0
LINE
  8
SURFACE
 62
7
  6
CONTINUOUS
 10
101.1620960005
 20
209.837687265
 11
105.5424312103
 21
209.837687265
  0
LINE
  8
DEFAULT_1
 62
2
  6
CENTER
 10
78.3174311927
 20
210.0279816514
 11
75.9175311927
 21
210.0279816514
  0
LINE
  8
0
 62
2
  6
CONTINUOUS
 10
74.7974311927
 20
210.0279816514
 11
73.0374311927
 21
210.0279816514
  0
LINE
  8
DEFAULT_1
 62
2
  6
CENTER
 10
69.5174311927
 20
210.0279816514
 11
71.9173311927
 21
210.0279816514
  0
LINE
  8
SURFACE
 62
7
  6
CONTINUOUS
 10
46.6727663849
 20
210.2182760377
 11
42.292431175
 21
210.2182760377
  0
POLYLINE
  8
SURFACE
 62
7
  6
CONTINUOUS
 66
1
 70
0
  0
VERTEX
  8
SURFACE
 62
7
  6
CONTINUOUS
 10
46.6709793954
 20
210.2182775487
  0
VERTEX
  8
SURFACE
 62
7
  6
CONTINUOUS
 10
46.705796137
 20
210.2176712524
  0
VERTEX
  8
SURFACE
 62
7
  6
CONTINUOUS
 10
46.7887146522
 20
210.2113224538
  0
VERTEX
  8
SURFACE
 62
7
  6
CONTINUOUS
 10
46.8708189926
 20
210.1981058415
  0
VERTEX
  8
SURFACE
 62
7
  6
CONTINUOUS
 10
46.9515413169
 20
210.1781128061
  0
VERTEX
  8
SURFACE
 62
7
  6
CONTINUOUS
 10
47.0303233442
 20
210.1514816059
  0
VERTEX
  8
SURFACE
 62
7
  6
CONTINUOUS
 10
47.1066202114
 20
210.1183964111
  0
VERTEX
  8
SURFACE
 62
7
  6
CONTINUOUS
 10
47.1799042408
 20
210.0790860314
  0
VERTEX
  8
SURFACE
 62
7
  6
CONTINUOUS
 10
47.2496685972
 20
210.0338223283
  0
VERTEX
  8
SURFACE
 62
7
  6
CONTINUOUS
 10
47.315430784
 20
209.98291834
  0
VERTEX
  8
SURFACE
 62
7
  6
CONTINUOUS
 10
47.3767359886
 20
209.9267261096
  0
VERTEX
  8
SURFACE
 62
7
  6
CONTINUOUS
 10
47.4331602204
 20
209.8656342555
  0
VERTEX
  8
SURFACE
 62
7
  6
CONTINUOUS
 10
47.484313245
 20
209.8000652821
  0
VERTEX
  8
SURFACE
 62
7
  6
CONTINUOUS
 10
47.5298412819
 20
209.7304726603
  0
VERTEX
  8
SURFACE
 62
7
  6
CONTINUOUS
 10
47.5694294561
 20
209.6573376832
  0
VERTEX
  8
SURFACE
 62
7
  6
CONTINUOUS
 10
47.602803969
 20
209.5811661465
  0
VERTEX
  8
SURFACE
 62
7
  6
CONTINUOUS
 10
47.6297339972
 20
209.5024848401
  0
VERTEX
  8
SURFACE
 62
7
  6
CONTINUOUS
 10
47.6500332834
 20
209.4218379136
  0
VERTEX
  8
SURFACE
 62
7
  6
CONTINUOUS
 10
47.6635614256
 20
209.339783112
  0
VERTEX
  8
SURFACE
 62
7
  6
CONTINUOUS
 10
47.6702248487
 20
209.2568879149
  0
VERTEX
  8
SURFACE
 62
7
  6
CONTINUOUS
 10
47.6709704431
 20
209.2182791485
  0
SEQEND
  0
POLYLINE
  8
SURFACE
 62
7
  6
CONTINUOUS
 66
1
 70
0
  0
VERTEX
  8
SURFACE
 62
7
  6
CONTINUOUS
 10
101.1638829899
 20
209.837685754
  0
VERTEX
  8
SURFACE
 62
7
  6
CONTINUOUS
 10
101.1290662483
 20
209.8382920504
  0
VERTEX
  8
SURFACE
 62
7
  6
CONTINUOUS
 10
101.0461477331
 20
209.844640849
  0
VERTEX
  8
SURFACE
 62
7
  6
CONTINUOUS
 10
100.9640433927
 20
209.8578574612
  0
VERTEX
  8
SURFACE
 62
7
  6
CONTINUOUS
 10
100.8833210684
 20
209.8778504966
  0
VERTEX
  8
SURFACE
 62
7
  6
CONTINUOUS
 10
100.8045390412
 20
209.9044816969
  0
VERTEX
  8
SURFACE
 62
7
  6
CONTINUOUS
 10
100.7282421739
 20
209.9375668916
  0
VERTEX
  8
SURFACE
 62
7
  6
CONTINUOUS
 10
100.6549581445
 20
209.9768772714
  0
VERTEX
  8
SURFACE
 62
7
  6
CONTINUOUS
 10
100.5851937881
 20
210.0221409744
  0
VERTEX
  8
SURFACE
 62
7
  6
CONTINUOUS
 10
100.5194316013
 20
210.0730449628
  0
VERTEX
  8
SURFACE
 62
7
  6
CONTINUOUS
 10
100.4581263967
 20
210.1292371932
  0
VERTEX
  8
SURFACE
 62
7
  6
CONTINUOUS
 10
100.4017021649
 20
210.1903290473
  0
VERTEX
  8
SURFACE
 62
7
  6
CONTINUOUS
 10
100.3505491403
 20
210.2558980206
  0
VERTEX
  8
SURFACE
 62
7
  6
CONTINUOUS
 10
100.3050211034
 20
210.3254906424
  0
VERTEX
  8
SURFACE
 62
7
  6
CONTINUOUS
 10
100.2654329292
 20
210.3986256196
  0
VERTEX
  8
SURFACE
 62
7
  6
CONTINUOUS
 10
100.2320584163
 20
210.4747971563
  0
VERTEX
  8
SURFACE
 62
7
  6
CONTINUOUS
 10
100.2051283881
 20
210.5534784627
  0
VERTEX
  8
SURFACE
 62
7
  6
CONTINUOUS
 10
100.184829102
 20
210.6341253891
  0
VERTEX
  8
SURFACE
 62
7
  6
CONTINUOUS
 10
100.1713009597
 20
210.7161801908
  0
VERTEX
  8
SURFACE
 62
7
  6
CONTINUOUS
 10
100.1646375367
 20
210.7990753878
  0
VERTEX
  8
SURFACE
 62
7
  6
CONTINUOUS
 10
100.1638919423
 20
210.8376841542
  0
SEQEND
  0
POLYLINE
  8
SURFACE
 62
7
  6
CONTINUOUS
 66
1
 70
0
  0
VERTEX
  8
SURFACE
 62
7
  6
CONTINUOUS
 10
42.292431193
 20
222.5376872662
  0
VERTEX
  8
SURFACE
 62
7
  6
CONTINUOUS
 10
41.9116708913
 20
222.5365909059
  0
VERTEX
  8
SURFACE
 62
7
  6
CONTINUOUS
 10
41.5010570293
 20
222.5329427454
  0
VERTEX
  8
SURFACE
 62
7
  6
CONTINUOUS
 10
41.1029810558
 20
222.526937158
  0
VERTEX
  8
SURFACE
 62
7
  6
CONTINUOUS
 10
40.7176258469
 20
222.5187664936
  0
VERTEX
  8
SURFACE
 62
7
  6
CONTINUOUS
 10
40.3452373834
 20
222.5086132182
  0
VERTEX
  8
SURFACE
 62
7
  6
CONTINUOUS
 10
39.9859426199
 20
222.4966481041
  0
VERTEX
  8
SURFACE
 62
7
  6
CONTINUOUS
 10
39.6397712707
 20
222.4830302572
  0
VERTEX
  8
SURFACE
 62
7
  6
CONTINUOUS
 10
39.3066630564
 20
222.4679066691
  0
VERTEX
  8
SURFACE
 62
7
  6
CONTINUOUS
 10
38.9864886705
 20
222.4514126782
  0
VERTEX
  8
SURFACE
 62
7
  6
CONTINUOUS
 10
38.6790474222
 20
222.4336712666
  0
VERTEX
  8
SURFACE
 62
7
  6
CONTINUOUS
 10
38.3840687787
 20
222.4147924056
  0
VERTEX
  8
SURFACE
 62
7
  6
CONTINUOUS
 10
38.1013324739
 20
222.3948808185
  0
VERTEX
  8
SURFACE
 62
7
  6
CONTINUOUS
 10
37.8305080725
 20
222.3740256527
  0
VERTEX
  8
SURFACE
 62
7
  6
CONTINUOUS
 10
37.5714404681
 20
222.3523225229
  0
VERTEX
  8
SURFACE
 62
7
  6
CONTINUOUS
 10
37.3238856022
 20
222.3298553443
  0
VERTEX
  8
SURFACE
 62
7
  6
CONTINUOUS
 10
37.087585413
 20
222.3067015217
  0
VERTEX
  8
SURFACE
 62
7
  6
CONTINUOUS
 10
36.8622598748
 20
222.2829311491
  0
VERTEX
  8
SURFACE
 62
7
  6
CONTINUOUS
 10
36.647590801
 20
222.2586047489
  0
VERTEX
  8
SURFACE
 62
7
  6
CONTINUOUS
 10
36.4432577786
 20
222.2337765935
  0
VERTEX
  8
SURFACE
 62
7
  6
CONTINUOUS
 10
36.248900734
 20
222.2084897603
  0
VERTEX
  8
SURFACE
 62
7
  6
CONTINUOUS
 10
36.0641658054
 20
222.1827809997
  0
VERTEX
  8
SURFACE
 62
7
  6
CONTINUOUS
 10
35.8886734059
 20
222.1566759625
  0
VERTEX
  8
SURFACE
 62
7
  6
CONTINUOUS
 10
35.722058362
 20
222.1301941932
  0
VERTEX
  8
SURFACE
 62
7
  6
CONTINUOUS
 10
35.5639152033
 20
222.1033397792
  0
VERTEX
  8
SURFACE
 62
7
  6
CONTINUOUS
 10
35.4138676399
 20
222.0761113272
  0
VERTEX
  8
SURFACE
 62
7
  6
CONTINUOUS
 10
35.2714836471
 20
222.0484856314
  0
VERTEX
  8
SURFACE
 62
7
  6
CONTINUOUS
 10
35.1363320406
 20
222.0204246777
  0
VERTEX
  8
SURFACE
 62
7
  6
CONTINUOUS
 10
35.0080800238
 20
221.9918959547
  0
VERTEX
  8
SURFACE
 62
7
  6
CONTINUOUS
 10
34.8863271321
 20
221.9628369324
  0
VERTEX
  8
SURFACE
 62
7
  6
CONTINUOUS
 10
34.770819737
 20
221.9332040026
  0
VERTEX
  8
SURFACE
 62
7
  6
CONTINUOUS
 10
34.6612734204
 20
221.9029332931
  0
VERTEX
  8
SURFACE
 62
7
  6
CONTINUOUS
 10
34.5572361985
 20
221.8718938786
  0
VERTEX
  8
SURFACE
 62
7
  6
CONTINUOUS
 10
34.4583332264
 20
221.8399468456
  0
VERTEX
  8
SURFACE
 62
7
  6
CONTINUOUS
 10
34.3639695057
 20
221.8068410275
  0
VERTEX
  8
SURFACE
 62
7
  6
CONTINUOUS
 10
34.27366306
 20
221.77230363
  0
VERTEX
  8
SURFACE
 62
7
  6
CONTINUOUS
 10
34.1867384721
 20
221.7359101564
  0
VERTEX
  8
SURFACE
 62
7
  6
CONTINUOUS
 10
34.1025610337
 20
221.6971371741
  0
VERTEX
  8
SURFACE
 62
7
  6
CONTINUOUS
 10
34.0207397834
 20
221.6554436353
  0
VERTEX
  8
SURFACE
 62
7
  6
CONTINUOUS
 10
33.9407944362
 20
221.6100951918
  0
VERTEX
  8
SURFACE
 62
7
  6
CONTINUOUS
 10
33.8626730387
 20
221.5604292661
  0
VERTEX
  8
SURFACE
 62
7
  6
CONTINUOUS
 10
33.7862532795
 20
221.5055694866
  0
VERTEX
  8
SURFACE
 62
7
  6
CONTINUOUS
 10
33.7119283391
 20
221.4448218683
  0
VERTEX
  8
SURFACE
 62
7
  6
CONTINUOUS
 10
33.6400610399
 20
221.3773074244
  0
VERTEX
  8
SURFACE
 62
7
  6
CONTINUOUS
 10
33.5717332023
 20
221.3026924825
  0
VERTEX
  8
SURFACE
 62
7
  6
CONTINUOUS
 10
33.5079155246
 20
221.2205418448
  0
VERTEX
  8
SURFACE
 62
7
  6
CONTINUOUS
 10
33.4501986496
 20
221.1313468696
  0
VERTEX
  8
SURFACE
 62
7
  6
CONTINUOUS
 10
33.3999612935
 20
221.0357968026
  0
VERTEX
  8
SURFACE
 62
7
  6
CONTINUOUS
 10
33.3584016146
 20
220.9348674021
  0
VERTEX
  8
SURFACE
 62
7
  6
CONTINUOUS
 10
33.3264962804
 20
220.8298492227
  0
VERTEX
  8
SURFACE
 62
7
  6
CONTINUOUS
 10
33.3049115396
 20
220.7222490371
  0
VERTEX
  8
SURFACE
 62
7
  6
CONTINUOUS
 10
33.2939707037
 20
220.6141211734
  0
VERTEX
  8
SURFACE
 62
7
  6
CONTINUOUS
 10
33.292431677
 20
220.5563374091
  0
SEQEND
  0
POLYLINE
  8
SURFACE
 62
7
  6
CONTINUOUS
 66
1
 70
0
  0
VERTEX
  8
SURFACE
 62
7
  6
CONTINUOUS
 10
105.5424311923
 20
222.9182760366
  0
VERTEX
  8
SURFACE
 62
7
  6
CONTINUOUS
 10
105.923191494
 20
222.9193723969
  0
VERTEX
  8
SURFACE
 62
7
  6
CONTINUOUS
 10
106.333805356
 20
222.9230205574
  0
VERTEX
  8
SURFACE
 62
7
  6
CONTINUOUS
 10
106.7318813295
 20
222.9290261448
  0
VERTEX
  8
SURFACE
 62
7
  6
CONTINUOUS
 10
107.1172365384
 20
222.9371968092
  0
VERTEX
  8
SURFACE
 62
7
  6
CONTINUOUS
 10
107.4896250019
 20
222.9473500846
  0
VERTEX
  8
SURFACE
 62
7
  6
CONTINUOUS
 10
107.8489197655
 20
222.9593151987
  0
VERTEX
  8
SURFACE
 62
7
  6
CONTINUOUS
 10
108.1950911146
 20
222.9729330455
  0
VERTEX
  8
SURFACE
 62
7
  6
CONTINUOUS
 10
108.5281993289
 20
222.9880566336
  0
VERTEX
  8
SURFACE
 62
7
  6
CONTINUOUS
 10
108.8483737148
 20
223.0045506246
  0
VERTEX
  8
SURFACE
 62
7
  6
CONTINUOUS
 10
109.1558149632
 20
223.0222920362
  0
VERTEX
  8
SURFACE
 62
7
  6
CONTINUOUS
 10
109.4507936066
 20
223.0411708972
  0
VERTEX
  8
SURFACE
 62
7
  6
CONTINUOUS
 10
109.7335299114
 20
223.0610824843
  0
VERTEX
  8
SURFACE
 62
7
  6
CONTINUOUS
 10
110.0043543128
 20
223.0819376501
  0
VERTEX
  8
SURFACE
 62
7
  6
CONTINUOUS
 10
110.2634219172
 20
223.1036407799
  0
VERTEX
  8
SURFACE
 62
7
  6
CONTINUOUS
 10
110.5109767831
 20
223.1261079585
  0
VERTEX
  8
SURFACE
 62
7
  6
CONTINUOUS
 10
110.7472769724
 20
223.1492617811
  0
VERTEX
  8
SURFACE
 62
7
  6
CONTINUOUS
 10
110.9726025105
 20
223.1730321536
  0
VERTEX
  8
SURFACE
 62
7
  6
CONTINUOUS
 10
111.1872715844
 20
223.1973585538
  0
VERTEX
  8
SURFACE
 62
7
  6
CONTINUOUS
 10
111.3916046067
 20
223.2221867093
  0
VERTEX
  8
SURFACE
 62
7
  6
CONTINUOUS
 10
111.5859616513
 20
223.2474735424
  0
VERTEX
  8
SURFACE
 62
7
  6
CONTINUOUS
 10
111.7706965799
 20
223.273182303
  0
VERTEX
  8
SURFACE
 62
7
  6
CONTINUOUS
 10
111.9461889794
 20
223.2992873403
  0
VERTEX
  8
SURFACE
 62
7
  6
CONTINUOUS
 10
112.1128040233
 20
223.3257691095
  0
VERTEX
  8
SURFACE
 62
7
  6
CONTINUOUS
 10
112.270947182
 20
223.3526235236
  0
VERTEX
  8
SURFACE
 62
7
  6
CONTINUOUS
 10
112.4209947454
 20
223.3798519755
  0
VERTEX
  8
SURFACE
 62
7
  6
CONTINUOUS
 10
112.5633787382
 20
223.4074776714
  0
VERTEX
  8
SURFACE
 62
7
  6
CONTINUOUS
 10
112.6985303447
 20
223.4355386251
  0
VERTEX
  8
SURFACE
 62
7
  6
CONTINUOUS
 10
112.8267823616
 20
223.464067348
  0
VERTEX
  8
SURFACE
 62
7
  6
CONTINUOUS
 10
112.9485352532
 20
223.4931263704
  0
VERTEX
  8
SURFACE
 62
7
  6
CONTINUOUS
 10
113.0640426483
 20
223.5227593001
  0
VERTEX
  8
SURFACE
 62
7
  6
CONTINUOUS
 10
113.1735889649
 20
223.5530300097
  0
VERTEX
  8
SURFACE
 62
7
  6
CONTINUOUS
 10
113.2776261868
 20
223.5840694242
  0
VERTEX
  8
SURFACE
 62
7
  6
CONTINUOUS
 10
113.3765291589
 20
223.6160164572
  0
VERTEX
  8
SURFACE
 62
7
  6
CONTINUOUS
 10
113.4708928796
 20
223.6491222752
  0
VERTEX
  8
SURFACE
 62
7
  6
CONTINUOUS
 10
113.5611993253
 20
223.6836596728
  0
VERTEX
  8
SURFACE
 62
7
  6
CONTINUOUS
 10
113.6481239133
 20
223.7200531463
  0
VERTEX
  8
SURFACE
 62
7
  6
CONTINUOUS
 10
113.7323013516
 20
223.7588261287
  0
VERTEX
  8
SURFACE
 62
7
  6
CONTINUOUS
 10
113.8141226019
 20
223.8005196674
  0
VERTEX
  8
SURFACE
 62
7
  6
CONTINUOUS
 10
113.8940679491
 20
223.845868111
  0
VERTEX
  8
SURFACE
 62
7
  6
CONTINUOUS
 10
113.9721893466
 20
223.8955340367
  0
VERTEX
  8
SURFACE
 62
7
  6
CONTINUOUS
 10
114.0486091059
 20
223.9503938162
  0
VERTEX
  8
SURFACE
 62
7
  6
CONTINUOUS
 10
114.1229340462
 20
224.0111414345
  0
VERTEX
  8
SURFACE
 62
7
  6
CONTINUOUS
 10
114.1948013454
 20
224.0786558784
  0
VERTEX
  8
SURFACE
 62
7
  6
CONTINUOUS
 10
114.263129183
 20
224.1532708203
  0
VERTEX
  8
SURFACE
 62
7
  6
CONTINUOUS
 10
114.3269468607
 20
224.235421458
  0
VERTEX
  8
SURFACE
 62
7
  6
CONTINUOUS
 10
114.3846637358
 20
224.3246164332
  0
VERTEX
  8
SURFACE
 62
7
  6
CONTINUOUS
 10
114.4349010918
 20
224.4201665002
  0
VERTEX
  8
SURFACE
 62
7
  6
CONTINUOUS
 10
114.4764607708
 20
224.5210959006
  0
VERTEX
  8
SURFACE
 62
7
  6
CONTINUOUS
 10
114.5083661049
 20
224.6261140801
  0
VERTEX
  8
SURFACE
 62
7
  6
CONTINUOUS
 10
114.5299508458
 20
224.7337142656
  0
VERTEX
  8
SURFACE
 62
7
  6
CONTINUOUS
 10
114.5408916816
 20
224.8418421294
  0
VERTEX
  8
SURFACE
 62
7
  6
CONTINUOUS
 10
114.5424307083
 20
224.8996258937
  0
SEQEND
  0
LINE
  8
SURFACE
 62
7
  6
CONTINUOUS
 10
42.2924311929
 20
222.537687265
 11
46.6727664393
 21
222.537687265
  0
LINE
  8
SURFACE
 62
7
  6
CONTINUOUS
 10
105.5424311924
 20
222.9182760377
 11
101.162095946
 21
222.9182760377
  0
LINE
  8
SURFACE
 62
7
  6
CONTINUOUS
 10
101.1620960005
 20
235.237687265
 11
105.5424312103
 21
235.237687265
  0
POLYLINE
  8
SURFACE
 62
7
  6
CONTINUOUS
 66
1
 70
0
  0
VERTEX
  8
SURFACE
 62
7
  6
CONTINUOUS
 10
46.6709793954
 20
235.6182775487
  0
VERTEX
  8
SURFACE
 62
7
  6
CONTINUOUS
 10
46.7057966593
 20
235.6176712342
  0
VERTEX
  8
SURFACE
 62
7
  6
CONTINUOUS
 10
46.7887156903
 20
235.6113223307
  0
VERTEX
  8
SURFACE
 62
7
  6
CONTINUOUS
 10
46.870820529
 20
235.5981055282
  0
VERTEX
  8
SURFACE
 62
7
  6
CONTINUOUS
 10
46.9515433237
 20
235.5781122195
  0
VERTEX
  8
SURFACE
 62
7
  6
CONTINUOUS
 10
47.030325783
 20
235.5514806667
  0
VERTEX
  8
SURFACE
 62
7
  6
CONTINUOUS
 10
47.1066230342
 20
235.5183950449
  0
VERTEX
  8
SURFACE
 62
7
  6
CONTINUOUS
 10
47.1799073903
 20
235.4790841693
  0
VERTEX
  8
SURFACE
 62
7
  6
CONTINUOUS
 10
47.2496720073
 20
235.4338199085
  0
VERTEX
  8
SURFACE
 62
7
  6
CONTINUOUS
 10
47.315434381
 20
235.3829153083
  0
VERTEX
  8
SURFACE
 62
7
  6
CONTINUOUS
 10
47.3767396916
 20
235.3267224206
  0
VERTEX
  8
SURFACE
 62
7
  6
CONTINUOUS
 10
47.4331639424
 20
235.2656298732
  0
VERTEX
  8
SURFACE
 62
7
  6
CONTINUOUS
 10
47.4843168941
 20
235.2000601806
  0
VERTEX
  8
SURFACE
 62
7
  6
CONTINUOUS
 10
47.5298447622
 20
235.1304668243
  0
VERTEX
  8
SURFACE
 62
7
  6
CONTINUOUS
 10
47.5694326689
 20
235.0573311086
  0
VERTEX
  8
SURFACE
 62
7
  6
CONTINUOUS
 10
47.6028068141
 20
234.9811588406
  0
VERTEX
  8
SURFACE
 62
7
  6
CONTINUOUS
 10
47.629736374
 20
234.9024768219
  0
VERTEX
  8
SURFACE
 62
7
  6
CONTINUOUS
 10
47.6500350921
 20
234.8218292139
  0
VERTEX
  8
SURFACE
 62
7
  6
CONTINUOUS
 10
47.6635625687
 20
234.7397737733
  0
VERTEX
  8
SURFACE
 62
7
  6
CONTINUOUS
 10
47.670225232
 20
234.6568779913
  0
VERTEX
  8
SURFACE
 62
7
  6
CONTINUOUS
 10
47.6709704431
 20
234.6182791485
  0
SEQEND
  0
LINE
  8
0
 62
7
  6
CONTINUOUS
 10
100.1638860056
 20
246.6779816514
 11
100.1638860056
 21
236.2357618384
  0
LINE
  8
0
 62
7
  6
CONTINUOUS
 10
100.1638860056
 20
221.9202014206
 11
100.1638860056
 21
210.8357862208
  0
LINE
  8
0
 62
7
  6
CONTINUOUS
 10
100.1638860056
 20
196.5202014206
 11
100.1638860056
 21
185.4357618384
  0
POLYLINE
  8
SURFACE
 62
7
  6
CONTINUOUS
 66
1
 70
0
  0
VERTEX
  8
SURFACE
 62
7
  6
CONTINUOUS
 10
100.1638919458
 20
221.9182791519
  0
VERTEX
  8
SURFACE
 62
7
  6
CONTINUOUS
 10
100.1646371566
 20
221.9568779871
  0
VERTEX
  8
SURFACE
 62
7
  6
CONTINUOUS
 10
100.1712998193
 20
222.0397737697
  0
VERTEX
  8
SURFACE
 62
7
  6
CONTINUOUS
 10
100.1848272954
 20
222.1218292109
  0
VERTEX
  8
SURFACE
 62
7
  6
CONTINUOUS
 10
100.205126013
 20
222.2024768194
  0
VERTEX
  8
SURFACE
 62
7
  6
CONTINUOUS
 10
100.2320555724
 20
222.2811588386
  0
VERTEX
  8
SURFACE
 62
7
  6
CONTINUOUS
 10
100.2654297173
 20
222.357331107
  0
VERTEX
  8
SURFACE
 62
7
  6
CONTINUOUS
 10
100.3050176236
 20
222.4304668232
  0
VERTEX
  8
SURFACE
 62
7
  6
CONTINUOUS
 10
100.3505454914
 20
222.50006018
  0
VERTEX
  8
SURFACE
 62
7
  6
CONTINUOUS
 10
100.4016984428
 20
222.5656298729
  0
VERTEX
  8
SURFACE
 62
7
  6
CONTINUOUS
 10
100.4581226933
 20
222.6267224208
  0
VERTEX
  8
SURFACE
 62
7
  6
CONTINUOUS
 10
100.5194280036
 20
222.6829153088
  0
VERTEX
  8
SURFACE
 62
7
  6
CONTINUOUS
 10
100.585190377
 20
222.7338199092
  0
VERTEX
  8
SURFACE
 62
7
  6
CONTINUOUS
 10
100.6549549938
 20
222.7790841703
  0
VERTEX
  8
SURFACE
 62
7
  6
CONTINUOUS
 10
100.7282393495
 20
222.818395046
  0
VERTEX
  8
SURFACE
 62
7
  6
CONTINUOUS
 10
100.8045366005
 20
222.8514806681
  0
VERTEX
  8
SURFACE
 62
7
  6
CONTINUOUS
 10
100.8833190595
 20
222.878112221
  0
VERTEX
  8
SURFACE
 62
7
  6
CONTINUOUS
 10
100.9640418538
 20
222.8981055297
  0
VERTEX
  8
SURFACE
 62
7
  6
CONTINUOUS
 10
101.0461466921
 20
222.9113223322
  0
VERTEX
  8
SURFACE
 62
7
  6
CONTINUOUS
 10
101.1290657226
 20
222.9176712358
  0
VERTEX
  8
SURFACE
 62
7
  6
CONTINUOUS
 10
101.1638829867
 20
222.9182775504
  0
SEQEND
  0
POLYLINE
  8
SURFACE
 62
7
  6
CONTINUOUS
 66
1
 70
0
  0
VERTEX
  8
SURFACE
 62
7
  6
CONTINUOUS
 10
100.1638919458
 20
196.5182791519
  0
VERTEX
  8
SURFACE
 62
7
  6
CONTINUOUS
 10
100.1646371566
 20
196.5568779871
  0
VERTEX
  8
SURFACE
 62
7
  6
CONTINUOUS
 10
100.1712998193
 20
196.6397737697
  0
VERTEX
  8
SURFACE
 62
7
  6
CONTINUOUS
 10
100.1848272954
 20
196.7218292109
  0
VERTEX
  8
SURFACE
 62
7
  6
CONTINUOUS
 10
100.205126013
 20
196.8024768194
  0
VERTEX
  8
SURFACE
 62
7
  6
CONTINUOUS
 10
100.2320555724
 20
196.8811588386
  0
VERTEX
  8
SURFACE
 62
7
  6
CONTINUOUS
 10
100.2654297173
 20
196.957331107
  0
VERTEX
  8
SURFACE
 62
7
  6
CONTINUOUS
 10
100.3050176236
 20
197.0304668232
  0
VERTEX
  8
SURFACE
 62
7
  6
CONTINUOUS
 10
100.3505454914
 20
197.10006018
  0
VERTEX
  8
SURFACE
 62
7
  6
CONTINUOUS
 10
100.4016984428
 20
197.1656298729
  0
VERTEX
  8
SURFACE
 62
7
  6
CONTINUOUS
 10
100.4581226933
 20
197.2267224208
  0
VERTEX
  8
SURFACE
 62
7
  6
CONTINUOUS
 10
100.5194280036
 20
197.2829153088
  0
VERTEX
  8
SURFACE
 62
7
  6
CONTINUOUS
 10
100.585190377
 20
197.3338199092
  0
VERTEX
  8
SURFACE
 62
7
  6
CONTINUOUS
 10
100.6549549938
 20
197.3790841703
  0
VERTEX
  8
SURFACE
 62
7
  6
CONTINUOUS
 10
100.7282393495
 20
197.418395046
  0
VERTEX
  8
SURFACE
 62
7
  6
CONTINUOUS
 10
100.8045366005
 20
197.4514806681
  0
VERTEX
  8
SURFACE
 62
7
  6
CONTINUOUS
 10
100.8833190595
 20
197.478112221
  0
VERTEX
  8
SURFACE
 62
7
  6
CONTINUOUS
 10
100.9640418538
 20
197.4981055297
  0
VERTEX
  8
SURFACE
 62
7
  6
CONTINUOUS
 10
101.0461466921
 20
197.5113223322
  0
VERTEX
  8
SURFACE
 62
7
  6
CONTINUOUS
 10
101.1290657226
 20
197.5176712358
  0
VERTEX
  8
SURFACE
 62
7
  6
CONTINUOUS
 10
101.1638829867
 20
197.5182775504
  0
SEQEND
  0
LINE
  8
SURFACE
 62
7
  6
CONTINUOUS
 10
46.6727663849
 20
235.6182760377
 11
42.292431175
 21
235.6182760377
  0
POLYLINE
  8
SURFACE
 62
7
  6
CONTINUOUS
 66
1
 70
0
  0
VERTEX
  8
SURFACE
 62
7
  6
CONTINUOUS
 10
101.1638829899
 20
235.237685754
  0
VERTEX
  8
SURFACE
 62
7
  6
CONTINUOUS
 10
101.129065726
 20
235.2382920686
  0
VERTEX
  8
SURFACE
 62
7
  6
CONTINUOUS
 10
101.046146695
 20
235.2446409721
  0
VERTEX
  8
SURFACE
 62
7
  6
CONTINUOUS
 10
100.9640418563
 20
235.2578577746
  0
VERTEX
  8
SURFACE
 62
7
  6
CONTINUOUS
 10
100.8833190616
 20
235.2778510832
  0
VERTEX
  8
SURFACE
 62
7
  6
CONTINUOUS
 10
100.8045366023
 20
235.304482636
  0
VERTEX
  8
SURFACE
 62
7
  6
CONTINUOUS
 10
100.7282393511
 20
235.3375682579
  0
VERTEX
  8
SURFACE
 62
7
  6
CONTINUOUS
 10
100.654954995
 20
235.3768791335
  0
VERTEX
  8
SURFACE
 62
7
  6
CONTINUOUS
 10
100.585190378
 20
235.4221433942
  0
VERTEX
  8
SURFACE
 62
7
  6
CONTINUOUS
 10
100.5194280043
 20
235.4730479944
  0
VERTEX
  8
SURFACE
 62
7
  6
CONTINUOUS
 10
100.4581226937
 20
235.5292408821
  0
VERTEX
  8
SURFACE
 62
7
  6
CONTINUOUS
 10
100.4016984429
 20
235.5903334296
  0
VERTEX
  8
SURFACE
 62
7
  6
CONTINUOUS
 10
100.3505454913
 20
235.6559031221
  0
VERTEX
  8
SURFACE
 62
7
  6
CONTINUOUS
 10
100.3050176231
 20
235.7254964784
  0
VERTEX
  8
SURFACE
 62
7
  6
CONTINUOUS
 10
100.2654297164
 20
235.7986321942
  0
VERTEX
  8
SURFACE
 62
7
  6
CONTINUOUS
 10
100.2320555712
 20
235.8748044621
  0
VERTEX
  8
SURFACE
 62
7
  6
CONTINUOUS
 10
100.2051260113
 20
235.9534864808
  0
VERTEX
  8
SURFACE
 62
7
  6
CONTINUOUS
 10
100.1848272932
 20
236.0341340888
  0
VERTEX
  8
SURFACE
 62
7
  6
CONTINUOUS
 10
100.1712998166
 20
236.1161895294
  0
VERTEX
  8
SURFACE
 62
7
  6
CONTINUOUS
 10
100.1646371533
 20
236.1990853115
  0
VERTEX
  8
SURFACE
 62
7
  6
CONTINUOUS
 10
100.1638919423
 20
236.2376841542
  0
SEQEND
  0
LINE
  8
AXES
 62
2
  6
CENTER
 10
105.5424311927
 20
223.9182760377
 11
105.5424311927
 21
166.5390455531
  0
LINE
  8
SURFACE
 62
7
  6
CONTINUOUS
 10
99.1639524553
 20
247.6779816514
 11
34.2924311927
 21
247.6779816514
  0
POLYLINE
  8
SURFACE
 62
7
  6
CONTINUOUS
 66
1
 70
0
  0
VERTEX
  8
SURFACE
 62
7
  6
CONTINUOUS
 10
99.1638860056
 20
247.6779816514
  0
VERTEX
  8
SURFACE
 62
7
  6
CONTINUOUS
 10
99.2440733139
 20
247.6747613032
  0
VERTEX
  8
SURFACE
 62
7
  6
CONTINUOUS
 10
99.3230447364
 20
247.6652346577
  0
VERTEX
  8
SURFACE
 62
7
  6
CONTINUOUS
 10
99.3995897139
 20
247.6498066096
  0
VERTEX
  8
SURFACE
 62
7
  6
CONTINUOUS
 10
99.4743807352
 20
247.6285567525
  0
VERTEX
  8
SURFACE
 62
7
  6
CONTINUOUS
 10
99.547967901
 20
247.6012806802
  0
VERTEX
  8
SURFACE
 62
7
  6
CONTINUOUS
 10
99.6196046987
 20
247.5681055039
  0
VERTEX
  8
SURFACE
 62
7
  6
CONTINUOUS
 10
99.688871613
 20
247.5290927555
  0
VERTEX
  8
SURFACE
 62
7
  6
CONTINUOUS
 10
99.7553197659
 20
247.4843352384
  0
VERTEX
  8
SURFACE
 62
7
  6
CONTINUOUS
 10
99.81861127
 20
247.4338485895
  0
VERTEX
  8
SURFACE
 62
7
  6
CONTINUOUS
 10
99.8779611497
 20
247.3780507113
  0
VERTEX
  8
SURFACE
 62
7
  6
CONTINUOUS
 10
99.9325169873
 20
247.3176740883
  0
VERTEX
  8
SURFACE
 62
7
  6
CONTINUOUS
 10
99.9824785117
 20
247.2523563626
  0
VERTEX
  8
SURFACE
 62
7
  6
CONTINUOUS
 10
100.0278185895
 20
247.1815891276
  0
VERTEX
  8
SURFACE
 62
7
  6
CONTINUOUS
 10
100.0675839142
 20
247.1061522832
  0
VERTEX
  8
SURFACE
 62
7
  6
CONTINUOUS
 10
100.1011096834
 20
247.0267104529
  0
VERTEX
  8
SURFACE
 62
7
  6
CONTINUOUS
 10
100.1279134497
 20
246.9437843732
  0
VERTEX
  8
SURFACE
 62
7
  6
CONTINUOUS
 10
100.1475286298
 20
246.8581126742
  0
VERTEX
  8
SURFACE
 62
7
  6
CONTINUOUS
 10
100.159623428
 20
246.7702149729
  0
VERTEX
  8
SURFACE
 62
7
  6
CONTINUOUS
 10
100.1638860029
 20
246.67798156
  0
SEQEND
  0
POLYLINE
  8
SURFACE
 62
7
  6
CONTINUOUS
 66
1
 70
0
  0
VERTEX
  8
SURFACE
 62
7
  6
CONTINUOUS
 10
114.5424307479
 20
182.4562959943
  0
VERTEX
  8
SURFACE
 62
7
  6
CONTINUOUS
 10
114.5406999964
 20
182.5176685574
  0
VERTEX
  8
SURFACE
 62
7
  6
CONTINUOUS
 10
114.52942403
 20
182.6257159236
  0
VERTEX
  8
SURFACE
 62
7
  6
CONTINUOUS
 10
114.5075193821
 20
182.7331914417
  0
VERTEX
  8
SURFACE
 62
7
  6
CONTINUOUS
 10
114.4753192066
 20
182.838048006
  0
VERTEX
  8
SURFACE
 62
7
  6
CONTINUOUS
 10
114.433494812
 20
182.9387894445
  0
VERTEX
  8
SURFACE
 62
7
  6
CONTINUOUS
 10
114.3830306087
 20
183.034126043
  0
VERTEX
  8
SURFACE
 62
7
  6
CONTINUOUS
 10
114.3251332786
 20
183.1230843898
  0
VERTEX
  8
SURFACE
 62
7
  6
CONTINUOUS
 10
114.2611792111
 20
183.2049922595
  0
VERTEX
  8
SURFACE
 62
7
  6
CONTINUOUS
 10
114.1927561954
 20
183.2793694973
  0
VERTEX
  8
SURFACE
 62
7
  6
CONTINUOUS
 10
114.1208248967
 20
183.3466623411
  0
VERTEX
  8
SURFACE
 62
7
  6
CONTINUOUS
 10
114.0464555301
 20
183.4072130226
  0
VERTEX
  8
SURFACE
 62
7
  6
CONTINUOUS
 10
113.9700038111
 20
183.4619006884
  0
VERTEX
  8
SURFACE
 62
7
  6
CONTINUOUS
 10
113.8918559862
 20
183.5114194309
  0
VERTEX
  8
SURFACE
 62
7
  6
CONTINUOUS
 10
113.811884001
 20
183.5566437533
  0
VERTEX
  8
SURFACE
 62
7
  6
CONTINUOUS
 10
113.7300318168
 20
183.5982339139
  0
VERTEX
  8
SURFACE
 62
7
  6
CONTINUOUS
 10
113.6458153832
 20
183.6369216129
  0
VERTEX
  8
SURFACE
 62
7
  6
CONTINUOUS
 10
113.5588389314
 20
183.6732462424
  0
VERTEX
  8
SURFACE
 62
7
  6
CONTINUOUS
 10
113.4684695102
 20
183.7077271297
  0
VERTEX
  8
SURFACE
 62
7
  6
CONTINUOUS
 10
113.3740318701
 20
183.7407861772
  0
VERTEX
  8
SURFACE
 62
7
  6
CONTINUOUS
 10
113.2750462748
 20
183.7726936391
  0
VERTEX
  8
SURFACE
 62
7
  6
CONTINUOUS
 10
113.1709200495
 20
183.8036986145
  0
VERTEX
  8
SURFACE
 62
7
  6
CONTINUOUS
 10
113.0612799829
 20
183.8339387044
  0
VERTEX
  8
SURFACE
 62
7
  6
CONTINUOUS
 10
112.9456763626
 20
183.863543587
  0
VERTEX
  8
SURFACE
 62
7
  6
CONTINUOUS
 10
112.8238259065
 20
183.8925764773
  0
VERTEX
  8
SURFACE
 62
7
  6
CONTINUOUS
 10
112.6954768671
 20
183.92108029
  0
VERTEX
  8
SURFACE
 62
7
  6
CONTINUOUS
 10
112.5602286984
 20
183.9491173443
  0
VERTEX
  8
SURFACE
 62
7
  6
CONTINUOUS
 10
112.4177485214
 20
183.9767199879
  0
VERTEX
  8
SURFACE
 62
7
  6
CONTINUOUS
 10
112.267606069
 20
184.0039258881
  0
VERTEX
  8
SURFACE
 62
7
  6
CONTINUOUS
 10
112.1093700092
 20
184.0307580098
  0
VERTEX
  8
SURFACE
 62
7
  6
CONTINUOUS
 10
111.9426644878
 20
184.0572176038
  0
VERTEX
  8
SURFACE
 62
7
  6
CONTINUOUS
 10
111.7670845525
 20
184.0833004485
  0
VERTEX
  8
SURFACE
 62
7
  6
CONTINUOUS
 10
111.5822653132
 20
184.1089869299
  0
VERTEX
  8
SURFACE
 62
7
  6
CONTINUOUS
 10
111.3878273934
 20
184.1342513466
  0
VERTEX
  8
SURFACE
 62
7
  6
CONTINUOUS
 10
111.1834174807
 20
184.1590568696
  0
VERTEX
  8
SURFACE
 62
7
  6
CONTINUOUS
 10
110.9686758132
 20
184.1833603851
  0
VERTEX
  8
SURFACE
 62
7
  6
CONTINUOUS
 10
110.7432829053
 20
184.207107535
  0
VERTEX
  8
SURFACE
 62
7
  6
CONTINUOUS
 10
110.5069214057
 20
184.230237743
  0
VERTEX
  8
SURFACE
 62
7
  6
CONTINUOUS
 10
110.259312121
 20
184.2526808838
  0
VERTEX
  8
SURFACE
 62
7
  6
CONTINUOUS
 10
110.0001979268
 20
184.2743595305
  0
VERTEX
  8
SURFACE
 62
7
  6
CONTINUOUS
 10
109.7293354831
 20
184.2951897812
  0
VERTEX
  8
SURFACE
 62
7
  6
CONTINUOUS
 10
109.4465705672
 20
184.3150760443
  0
VERTEX
  8
SURFACE
 62
7
  6
CONTINUOUS
 10
109.1515732756
 20
184.3339292111
  0
VERTEX
  8
SURFACE
 62
7
  6
CONTINUOUS
 10
108.8441238833
 20
184.3516446134
  0
VERTEX
  8
SURFACE
 62
7
  6
CONTINUOUS
 10
108.5239527221
 20
184.3681123253
  0
VERTEX
  8
SURFACE
 62
7
  6
CONTINUOUS
 10
108.1908598826
 20
184.3832094295
  0
VERTEX
  8
SURFACE
 62
7
  6
CONTINUOUS
 10
107.8447168593
 20
184.396800672
  0
VERTEX
  8
SURFACE
 62
7
  6
CONTINUOUS
 10
107.485464158
 20
184.4087391641
  0
VERTEX
  8
SURFACE
 62
7
  6
CONTINUOUS
 10
107.1131321902
 20
184.4188659222
  0
VERTEX
  8
SURFACE
 62
7
  6
CONTINUOUS
 10
106.7278486304
 20
184.4270103161
  0
VERTEX
  8
SURFACE
 62
7
  6
CONTINUOUS
 10
106.3298598215
 20
184.4329900469
  0
VERTEX
  8
SURFACE
 62
7
  6
CONTINUOUS
 10
105.9193490447
 20
184.4366129329
  0
VERTEX
  8
SURFACE
 62
7
  6
CONTINUOUS
 10
105.5424312106
 20
184.4376872662
  0
SEQEND
  0
POLYLINE
  8
SURFACE
 62
7
  6
CONTINUOUS
 66
1
 70
0
  0
VERTEX
  8
SURFACE
 62
7
  6
CONTINUOUS
 10
114.5424307479
 20
207.8562959943
  0
VERTEX
  8
SURFACE
 62
7
  6
CONTINUOUS
 10
114.5406999964
 20
207.9176685574
  0
VERTEX
  8
SURFACE
 62
7
  6
CONTINUOUS
 10
114.52942403
 20
208.0257159236
  0
VERTEX
  8
SURFACE
 62
7
  6
CONTINUOUS
 10
114.5075193821
 20
208.1331914417
  0
VERTEX
  8
SURFACE
 62
7
  6
CONTINUOUS
 10
114.4753192066
 20
208.238048006
  0
VERTEX
  8
SURFACE
 62
7
  6
CONTINUOUS
 10
114.433494812
 20
208.3387894445
  0
VERTEX
  8
SURFACE
 62
7
  6
CONTINUOUS
 10
114.3830306087
 20
208.434126043
  0
VERTEX
  8
SURFACE
 62
7
  6
CONTINUOUS
 10
114.3251332786
 20
208.5230843898
  0
VERTEX
  8
SURFACE
 62
7
  6
CONTINUOUS
 10
114.2611792111
 20
208.6049922595
  0
VERTEX
  8
SURFACE
 62
7
  6
CONTINUOUS
 10
114.1927561954
 20
208.6793694973
  0
VERTEX
  8
SURFACE
 62
7
  6
CONTINUOUS
 10
114.1208248967
 20
208.7466623411
  0
VERTEX
  8
SURFACE
 62
7
  6
CONTINUOUS
 10
114.0464555301
 20
208.8072130226
  0
VERTEX
  8
SURFACE
 62
7
  6
CONTINUOUS
 10
113.9700038111
 20
208.8619006884
  0
VERTEX
  8
SURFACE
 62
7
  6
CONTINUOUS
 10
113.8918559862
 20
208.9114194309
  0
VERTEX
  8
SURFACE
 62
7
  6
CONTINUOUS
 10
113.811884001
 20
208.9566437533
  0
VERTEX
  8
SURFACE
 62
7
  6
CONTINUOUS
 10
113.7300318168
 20
208.9982339139
  0
VERTEX
  8
SURFACE
 62
7
  6
CONTINUOUS
 10
113.6458153832
 20
209.0369216129
  0
VERTEX
  8
SURFACE
 62
7
  6
CONTINUOUS
 10
113.5588389314
 20
209.0732462424
  0
VERTEX
  8
SURFACE
 62
7
  6
CONTINUOUS
 10
113.4684695102
 20
209.1077271297
  0
VERTEX
  8
SURFACE
 62
7
  6
CONTINUOUS
 10
113.3740318701
 20
209.1407861772
  0
VERTEX
  8
SURFACE
 62
7
  6
CONTINUOUS
 10
113.2750462748
 20
209.1726936391
  0
VERTEX
  8
SURFACE
 62
7
  6
CONTINUOUS
 10
113.1709200495
 20
209.2036986145
  0
VERTEX
  8
SURFACE
 62
7
  6
CONTINUOUS
 10
113.0612799829
 20
209.2339387044
  0
VERTEX
  8
SURFACE
 62
7
  6
CONTINUOUS
 10
112.9456763626
 20
209.263543587
  0
VERTEX
  8
SURFACE
 62
7
  6
CONTINUOUS
 10
112.8238259065
 20
209.2925764773
  0
VERTEX
  8
SURFACE
 62
7
  6
CONTINUOUS
 10
112.6954768671
 20
209.32108029
  0
VERTEX
  8
SURFACE
 62
7
  6
CONTINUOUS
 10
112.5602286984
 20
209.3491173443
  0
VERTEX
  8
SURFACE
 62
7
  6
CONTINUOUS
 10
112.4177485214
 20
209.3767199879
  0
VERTEX
  8
SURFACE
 62
7
  6
CONTINUOUS
 10
112.267606069
 20
209.4039258881
  0
VERTEX
  8
SURFACE
 62
7
  6
CONTINUOUS
 10
112.1093700092
 20
209.4307580098
  0
VERTEX
  8
SURFACE
 62
7
  6
CONTINUOUS
 10
111.9426644878
 20
209.4572176038
  0
VERTEX
  8
SURFACE
 62
7
  6
CONTINUOUS
 10
111.7670845525
 20
209.4833004485
  0
VERTEX
  8
SURFACE
 62
7
  6
CONTINUOUS
 10
111.5822653132
 20
209.5089869299
  0
VERTEX
  8
SURFACE
 62
7
  6
CONTINUOUS
 10
111.3878273934
 20
209.5342513466
  0
VERTEX
  8
SURFACE
 62
7
  6
CONTINUOUS
 10
111.1834174807
 20
209.5590568696
  0
VERTEX
  8
SURFACE
 62
7
  6
CONTINUOUS
 10
110.9686758132
 20
209.5833603851
  0
VERTEX
  8
SURFACE
 62
7
  6
CONTINUOUS
 10
110.7432829053
 20
209.607107535
  0
VERTEX
  8
SURFACE
 62
7
  6
CONTINUOUS
 10
110.5069214057
 20
209.630237743
  0
VERTEX
  8
SURFACE
 62
7
  6
CONTINUOUS
 10
110.259312121
 20
209.6526808838
  0
VERTEX
  8
SURFACE
 62
7
  6
CONTINUOUS
 10
110.0001979268
 20
209.6743595305
  0
VERTEX
  8
SURFACE
 62
7
  6
CONTINUOUS
 10
109.7293354831
 20
209.6951897812
  0
VERTEX
  8
SURFACE
 62
7
  6
CONTINUOUS
 10
109.4465705672
 20
209.7150760443
  0
VERTEX
  8
SURFACE
 62
7
  6
CONTINUOUS
 10
109.1515732756
 20
209.7339292111
  0
VERTEX
  8
SURFACE
 62
7
  6
CONTINUOUS
 10
108.8441238833
 20
209.7516446134
  0
VERTEX
  8
SURFACE
 62
7
  6
CONTINUOUS
 10
108.5239527221
 20
209.7681123253
  0
VERTEX
  8
SURFACE
 62
7
  6
CONTINUOUS
 10
108.1908598826
 20
209.7832094295
  0
VERTEX
  8
SURFACE
 62
7
  6
CONTINUOUS
 10
107.8447168593
 20
209.796800672
  0
VERTEX
  8
SURFACE
 62
7
  6
CONTINUOUS
 10
107.485464158
 20
209.8087391641
  0
VERTEX
  8
SURFACE
 62
7
  6
CONTINUOUS
 10
107.1131321902
 20
209.8188659222
  0
VERTEX
  8
SURFACE
 62
7
  6
CONTINUOUS
 10
106.7278486304
 20
209.8270103161
  0
VERTEX
  8
SURFACE
 62
7
  6
CONTINUOUS
 10
106.3298598215
 20
209.8329900469
  0
VERTEX
  8
SURFACE
 62
7
  6
CONTINUOUS
 10
105.9193490447
 20
209.8366129329
  0
VERTEX
  8
SURFACE
 62
7
  6
CONTINUOUS
 10
105.5424312106
 20
209.8376872662
  0
SEQEND
  0
POLYLINE
  8
SURFACE
 62
7
  6
CONTINUOUS
 66
1
 70
0
  0
VERTEX
  8
SURFACE
 62
7
  6
CONTINUOUS
 10
114.5424307479
 20
233.2562959943
  0
VERTEX
  8
SURFACE
 62
7
  6
CONTINUOUS
 10
114.5406999964
 20
233.3176685574
  0
VERTEX
  8
SURFACE
 62
7
  6
CONTINUOUS
 10
114.52942403
 20
233.4257159236
  0
VERTEX
  8
SURFACE
 62
7
  6
CONTINUOUS
 10
114.5075193821
 20
233.5331914417
  0
VERTEX
  8
SURFACE
 62
7
  6
CONTINUOUS
 10
114.4753192066
 20
233.638048006
  0
VERTEX
  8
SURFACE
 62
7
  6
CONTINUOUS
 10
114.433494812
 20
233.7387894445
  0
VERTEX
  8
SURFACE
 62
7
  6
CONTINUOUS
 10
114.3830306087
 20
233.834126043
  0
VERTEX
  8
SURFACE
 62
7
  6
CONTINUOUS
 10
114.3251332786
 20
233.9230843898
  0
VERTEX
  8
SURFACE
 62
7
  6
CONTINUOUS
 10
114.2611792111
 20
234.0049922595
  0
VERTEX
  8
SURFACE
 62
7
  6
CONTINUOUS
 10
114.1927561954
 20
234.0793694973
  0
VERTEX
  8
SURFACE
 62
7
  6
CONTINUOUS
 10
114.1208248967
 20
234.1466623411
  0
VERTEX
  8
SURFACE
 62
7
  6
CONTINUOUS
 10
114.0464555301
 20
234.2072130226
  0
VERTEX
  8
SURFACE
 62
7
  6
CONTINUOUS
 10
113.9700038111
 20
234.2619006884
  0
VERTEX
  8
SURFACE
 62
7
  6
CONTINUOUS
 10
113.8918559862
 20
234.3114194309
  0
VERTEX
  8
SURFACE
 62
7
  6
CONTINUOUS
 10
113.811884001
 20
234.3566437533
  0
VERTEX
  8
SURFACE
 62
7
  6
CONTINUOUS
 10
113.7300318168
 20
234.3982339139
  0
VERTEX
  8
SURFACE
 62
7
  6
CONTINUOUS
 10
113.6458153832
 20
234.4369216129
  0
VERTEX
  8
SURFACE
 62
7
  6
CONTINUOUS
 10
113.5588389314
 20
234.4732462424
  0
VERTEX
  8
SURFACE
 62
7
  6
CONTINUOUS
 10
113.4684695102
 20
234.5077271297
  0
VERTEX
  8
SURFACE
 62
7
  6
CONTINUOUS
 10
113.3740318701
 20
234.5407861772
  0
VERTEX
  8
SURFACE
 62
7
  6
CONTINUOUS
 10
113.2750462748
 20
234.5726936391
  0
VERTEX
  8
SURFACE
 62
7
  6
CONTINUOUS
 10
113.1709200495
 20
234.6036986145
  0
VERTEX
  8
SURFACE
 62
7
  6
CONTINUOUS
 10
113.0612799829
 20
234.6339387044
  0
VERTEX
  8
SURFACE
 62
7
  6
CONTINUOUS
 10
112.9456763626
 20
234.663543587
  0
VERTEX
  8
SURFACE
 62
7
  6
CONTINUOUS
 10
112.8238259065
 20
234.6925764773
  0
VERTEX
  8
SURFACE
 62
7
  6
CONTINUOUS
 10
112.6954768671
 20
234.72108029
  0
VERTEX
  8
SURFACE
 62
7
  6
CONTINUOUS
 10
112.5602286984
 20
234.7491173443
  0
VERTEX
  8
SURFACE
 62
7
  6
CONTINUOUS
 10
112.4177485214
 20
234.7767199879
  0
VERTEX
  8
SURFACE
 62
7
  6
CONTINUOUS
 10
112.267606069
 20
234.8039258881
  0
VERTEX
  8
SURFACE
 62
7
  6
CONTINUOUS
 10
112.1093700092
 20
234.8307580098
  0
VERTEX
  8
SURFACE
 62
7
  6
CONTINUOUS
 10
111.9426644878
 20
234.8572176038
  0
VERTEX
  8
SURFACE
 62
7
  6
CONTINUOUS
 10
111.7670845525
 20
234.8833004485
  0
VERTEX
  8
SURFACE
 62
7
  6
CONTINUOUS
 10
111.5822653132
 20
234.9089869299
  0
VERTEX
  8
SURFACE
 62
7
  6
CONTINUOUS
 10
111.3878273934
 20
234.9342513466
  0
VERTEX
  8
SURFACE
 62
7
  6
CONTINUOUS
 10
111.1834174807
 20
234.9590568696
  0
VERTEX
  8
SURFACE
 62
7
  6
CONTINUOUS
 10
110.9686758132
 20
234.9833603851
  0
VERTEX
  8
SURFACE
 62
7
  6
CONTINUOUS
 10
110.7432829053
 20
235.007107535
  0
VERTEX
  8
SURFACE
 62
7
  6
CONTINUOUS
 10
110.5069214057
 20
235.030237743
  0
VERTEX
  8
SURFACE
 62
7
  6
CONTINUOUS
 10
110.259312121
 20
235.0526808838
  0
VERTEX
  8
SURFACE
 62
7
  6
CONTINUOUS
 10
110.0001979268
 20
235.0743595305
  0
VERTEX
  8
SURFACE
 62
7
  6
CONTINUOUS
 10
109.7293354831
 20
235.0951897812
  0
VERTEX
  8
SURFACE
 62
7
  6
CONTINUOUS
 10
109.4465705672
 20
235.1150760443
  0
VERTEX
  8
SURFACE
 62
7
  6
CONTINUOUS
 10
109.1515732756
 20
235.1339292111
  0
VERTEX
  8
SURFACE
 62
7
  6
CONTINUOUS
 10
108.8441238833
 20
235.1516446134
  0
VERTEX
  8
SURFACE
 62
7
  6
CONTINUOUS
 10
108.5239527221
 20
235.1681123253
  0
VERTEX
  8
SURFACE
 62
7
  6
CONTINUOUS
 10
108.1908598826
 20
235.1832094295
  0
VERTEX
  8
SURFACE
 62
7
  6
CONTINUOUS
 10
107.8447168593
 20
235.196800672
  0
VERTEX
  8
SURFACE
 62
7
  6
CONTINUOUS
 10
107.485464158
 20
235.2087391641
  0
VERTEX
  8
SURFACE
 62
7
  6
CONTINUOUS
 10
107.1131321902
 20
235.2188659222
  0
VERTEX
  8
SURFACE
 62
7
  6
CONTINUOUS
 10
106.7278486304
 20
235.2270103161
  0
VERTEX
  8
SURFACE
 62
7
  6
CONTINUOUS
 10
106.3298598215
 20
235.2329900469
  0
VERTEX
  8
SURFACE
 62
7
  6
CONTINUOUS
 10
105.9193490447
 20
235.2366129329
  0
VERTEX
  8
SURFACE
 62
7
  6
CONTINUOUS
 10
105.5424312106
 20
235.2376872662
  0
SEQEND
  0
LINE
  8
SURFACE
 62
7
  6
CONTINUOUS
 10
114.5424307684
 20
182.4562959943
 11
114.5424311927
 21
182.4553817424
  0
LINE
  8
SURFACE
 62
7
  6
CONTINUOUS
 10
114.5424307684
 20
233.2562959943
 11
114.5424311927
 21
224.9005815603
  0
LINE
  8
SURFACE
 62
7
  6
CONTINUOUS
 10
114.5424307684
 20
207.8562959943
 11
114.5424311927
 21
199.5005815603
  0
LINE
  8
0
 62
7
  6
CONTINUOUS
 10
114.5424311927
 20
182.4553817424
 11
114.5424311927
 21
173.3779816514
  0
LINE
  8
SURFACE
 62
7
  6
CONTINUOUS
 10
114.5424307083
 20
224.8996258937
 11
114.5424311776
 21
224.9005815603
  0
LINE
  8
SURFACE
 62
7
  6
CONTINUOUS
 10
114.5424307083
 20
199.4996258937
 11
114.5424311776
 21
199.5005815603
  0
LINE
  8
SURFACE
 62
7
  6
CONTINUOUS
 10
33.2924311927
 20
104.1518348545
 11
33.2924311927
 21
105.2518348545
  0
LINE
  8
0
 62
2
  6
CONTINUOUS
 10
42.2924311927
 20
105.0318348545
 11
42.2924311927
 21
103.2718348545
  0
LINE
  8
DEFAULT_1
 62
7
  6
CENTER
 10
42.2924311927
 20
99.7518348545
 11
42.2924311927
 21
97.8518348545
  0
LINE
  8
DEFAULT_1
 62
7
  6
CENTER
 10
42.2924311927
 20
108.5518348545
 11
42.2924311927
 21
110.4518348545
  0
LINE
  8
SURFACE
 62
7
  6
CONTINUOUS
 10
50.268972932
 20
112.2015823229
 11
60.4925585744
 21
101.9779966804
  0
LINE
  8
SURFACE
 62
7
  6
CONTINUOUS
 10
42.2924311927
 20
95.1518348545
 11
105.5424311927
 21
95.1518348545
  0
LINE
  8
SURFACE
 62
7
  6
CONTINUOUS
 10
69.593793065
 20
106.1676602794
 11
70.1029217747
 21
111.9870280604
  0
LINE
  8
SURFACE
 62
7
  6
CONTINUOUS
 10
61.4920370603
 20
101.7287987056
 11
67.4823240849
 21
103.5602132398
  0
LINE
  8
AXES
 62
7
  6
CENTER
 10
109.9424311927
 20
104.1518348545
 11
107.5425311927
 21
104.1518348545
  0
LINE
  8
AXES
 62
2
  6
CONTINUOUS
 10
106.4224311927
 20
104.1518348545
 11
104.6624311927
 21
104.1518348545
  0
LINE
  8
0
 62
2
  6
CONTINUOUS
 10
43.1724311927
 20
104.1518348545
 11
41.4124311927
 21
104.1518348545
  0
LINE
  8
DEFAULT_1
 62
7
  6
CENTER
 10
37.8924311927
 20
104.1518348545
 11
35.9924311927
 21
104.1518348545
  0
LINE
  8
DEFAULT_1
 62
7
  6
CENTER
 10
46.6924311927
 20
104.1518348545
 11
48.5924311927
 21
104.1518348545
  0
LINE
  8
AXES
 62
7
  6
CENTER
 10
101.1424311927
 20
104.1518348545
 11
103.5423311927
 21
104.1518348545
  0
LINE
  8
SURFACE
 62
7
  6
CONTINUOUS
 10
80.3525383004
 20
103.5602132398
 11
97.3418459806
 21
98.3660606252
  0
LINE
  8
SURFACE
 62
7
  6
CONTINUOUS
 10
77.7319406106
 20
111.9870280604
 11
78.2410693203
 21
106.1676602794
  0
LINE
  8
0
 62
7
  6
CONTINUOUS
 10
97.5658894534
 20
112.2015823229
 11
87.3423038109
 21
101.9779966804
  0
LINE
  8
SURFACE
 62
7
  6
CONTINUOUS
 10
97.5658894534
 20
112.2015823229
 11
87.3423034422
 21
101.9779963117
  0
LINE
  8
SURFACE
 62
7
  6
CONTINUOUS
 10
105.5424311927
 20
114.2518348545
 11
102.5156369217
 21
114.2518348545
  0
LINE
  8
SURFACE
 62
7
  6
CONTINUOUS
 10
42.2924311927
 20
114.2518348545
 11
45.3192254637
 21
114.2518348545
  0
LINE
  8
SURFACE
 62
7
  6
CONTINUOUS
 10
99.7946857328
 20
96.9277805383
 11
99.5379026656
 21
97.1443402926
  0
LINE
  8
AXES
 62
7
  6
CENTER
 10
105.5424311927
 20
108.5518348545
 11
105.5424311927
 21
106.1519348545
  0
LINE
  8
AXES
 62
2
  6
CONTINUOUS
 10
105.5424311927
 20
105.0318348545
 11
105.5424311927
 21
103.2718348545
  0
LINE
  8
AXES
 62
7
  6
CENTER
 10
105.5424311927
 20
99.7518348545
 11
105.5424311927
 21
102.1517348545
  0
LINE
  8
SURFACE
 62
7
  6
CONTINUOUS
 10
114.5424311927
 20
104.1518348545
 11
114.5424311927
 21
105.2518348545
  0
LINE
  8
0
 62
7
  6
CONTINUOUS
 10
159.8261467968
 20
172.3779816514
 11
176.9261467968
 21
172.3779816514
  0
LINE
  8
SURFACE
 62
7
  6
CONTINUOUS
 10
176.8042774534
 20
184.8257298861
 11
160.1304643258
 21
186.8730167096
  0
POLYLINE
  8
SURFACE
 62
7
  6
CONTINUOUS
 66
1
 70
0
  0
VERTEX
  8
SURFACE
 62
7
  6
CONTINUOUS
 10
171.9171660168
 20
185.4257925267
  0
VERTEX
  8
SURFACE
 62
7
  6
CONTINUOUS
 10
171.9671970392
 20
185.4171582007
  0
VERTEX
  8
SURFACE
 62
7
  6
CONTINUOUS
 10
172.0243850235
 20
185.4008181521
  0
VERTEX
  8
SURFACE
 62
7
  6
CONTINUOUS
 10
172.0692225872
 20
185.3822129195
  0
VERTEX
  8
SURFACE
 62
7
  6
CONTINUOUS
 10
172.1010558877
 20
185.3648627005
  0
VERTEX
  8
SURFACE
 62
7
  6
CONTINUOUS
 10
172.1196582065
 20
185.3522958877
  0
VERTEX
  8
SURFACE
 62
7
  6
CONTINUOUS
 10
172.1254175218
 20
185.3477597962
  0
SEQEND
  0
POLYLINE
  8
SURFACE
 62
7
  6
CONTINUOUS
 66
1
 70
0
  0
VERTEX
  8
SURFACE
 62
7
  6
CONTINUOUS
 10
160.1304630296
 20
195.082946434
  0
VERTEX
  8
SURFACE
 62
7
  6
CONTINUOUS
 10
160.0178236502
 20
195.064659943
  0
VERTEX
  8
SURFACE
 62
7
  6
CONTINUOUS
 10
159.9069008918
 20
195.0377000406
  0
VERTEX
  8
SURFACE
 62
7
  6
CONTINUOUS
 10
159.7983715287
 20
195.0022348025
  0
VERTEX
  8
SURFACE
 62
7
  6
CONTINUOUS
 10
159.6928438935
 20
194.9584631199
  0
VERTEX
  8
SURFACE
 62
7
  6
CONTINUOUS
 10
159.5909189208
 20
194.9066246276
  0
VERTEX
  8
SURFACE
 62
7
  6
CONTINUOUS
 10
159.4931998842
 20
194.8470100908
  0
VERTEX
  8
SURFACE
 62
7
  6
CONTINUOUS
 10
159.4002583804
 20
194.7799467117
  0
VERTEX
  8
SURFACE
 62
7
  6
CONTINUOUS
 10
159.3126553282
 20
194.7058125037
  0
VERTEX
  8
SURFACE
 62
7
  6
CONTINUOUS
 10
159.2309153994
 20
194.6250199665
  0
VERTEX
  8
SURFACE
 62
7
  6
CONTINUOUS
 10
159.1555423417
 20
194.538030853
  0
VERTEX
  8
SURFACE
 62
7
  6
CONTINUOUS
 10
159.0869980007
 20
194.4453376042
  0
VERTEX
  8
SURFACE
 62
7
  6
CONTINUOUS
 10
159.0257131362
 20
194.3474775393
  0
VERTEX
  8
SURFACE
 62
7
  6
CONTINUOUS
 10
158.9720699469
 20
194.2450102682
  0
VERTEX
  8
SURFACE
 62
7
  6
CONTINUOUS
 10
158.9264159048
 20
194.1385446515
  0
VERTEX
  8
SURFACE
 62
7
  6
CONTINUOUS
 10
158.8890390257
 20
194.0286910027
  0
VERTEX
  8
SURFACE
 62
7
  6
CONTINUOUS
 10
158.8601952119
 20
193.9161460053
  0
VERTEX
  8
SURFACE
 62
7
  6
CONTINUOUS
 10
158.8400669982
 20
193.8015921693
  0
VERTEX
  8
SURFACE
 62
7
  6
CONTINUOUS
 10
158.8287797593
 20
193.6857733693
  0
VERTEX
  8
SURFACE
 62
7
  6
CONTINUOUS
 10
158.8261468065
 20
193.5962383081
  0
SEQEND
  0
LINE
  8
SURFACE
 62
7
  6
CONTINUOUS
 10
160.1304625255
 20
195.0829463722
 11
176.8042774534
 21
197.1302334167
  0
POLYLINE
  8
SURFACE
 62
7
  6
CONTINUOUS
 66
1
 70
0
  0
VERTEX
  8
SURFACE
 62
7
  6
CONTINUOUS
 10
158.8261468066
 20
188.3597253314
  0
VERTEX
  8
SURFACE
 62
7
  6
CONTINUOUS
 10
158.8294158541
 20
188.2599757613
  0
VERTEX
  8
SURFACE
 62
7
  6
CONTINUOUS
 10
158.8414007488
 20
188.1448163059
  0
VERTEX
  8
SURFACE
 62
7
  6
CONTINUOUS
 10
158.8621316297
 20
188.0309665483
  0
VERTEX
  8
SURFACE
 62
7
  6
CONTINUOUS
 10
158.8914801365
 20
187.9191578584
  0
VERTEX
  8
SURFACE
 62
7
  6
CONTINUOUS
 10
158.9292625635
 20
187.8100608606
  0
VERTEX
  8
SURFACE
 62
7
  6
CONTINUOUS
 10
158.9752236333
 20
187.7043594348
  0
VERTEX
  8
SURFACE
 62
7
  6
CONTINUOUS
 10
159.0290766705
 20
187.6026539817
  0
VERTEX
  8
SURFACE
 62
7
  6
CONTINUOUS
 10
159.0904769269
 20
187.505542747
  0
VERTEX
  8
SURFACE
 62
7
  6
CONTINUOUS
 10
159.1590454743
 20
187.4135761057
  0
VERTEX
  8
SURFACE
 62
7
  6
CONTINUOUS
 10
159.2343558671
 20
187.3272822058
  0
VERTEX
  8
SURFACE
 62
7
  6
CONTINUOUS
 10
159.3159512308
 20
187.2471450984
  0
VERTEX
  8
SURFACE
 62
7
  6
CONTINUOUS
 10
159.4033336076
 20
187.1736185761
  0
VERTEX
  8
SURFACE
 62
7
  6
CONTINUOUS
 10
159.4959847335
 20
187.1071079162
  0
VERTEX
  8
SURFACE
 62
7
  6
CONTINUOUS
 10
159.5933508451
 20
187.0479844569
  0
VERTEX
  8
SURFACE
 62
7
  6
CONTINUOUS
 10
159.6948676614
 20
186.9965696992
  0
VERTEX
  8
SURFACE
 62
7
  6
CONTINUOUS
 10
159.7999398354
 20
186.9531492723
  0
VERTEX
  8
SURFACE
 62
7
  6
CONTINUOUS
 10
159.9079746075
 20
186.9179584828
  0
VERTEX
  8
SURFACE
 62
7
  6
CONTINUOUS
 10
160.0183719362
 20
186.8911926237
  0
VERTEX
  8
SURFACE
 62
7
  6
CONTINUOUS
 10
160.1304648174
 20
186.8730166492
  0
SEQEND
  0
POLYLINE
  8
SURFACE
 62
7
  6
CONTINUOUS
 66
1
 70
0
  0
VERTEX
  8
SURFACE
 62
7
  6
CONTINUOUS
 10
158.8261468066
 20
213.7597253314
  0
VERTEX
  8
SURFACE
 62
7
  6
CONTINUOUS
 10
158.8294158541
 20
213.6599757607
  0
VERTEX
  8
SURFACE
 62
7
  6
CONTINUOUS
 10
158.8414007489
 20
213.5448163049
  0
VERTEX
  8
SURFACE
 62
7
  6
CONTINUOUS
 10
158.8621316301
 20
213.4309665467
  0
VERTEX
  8
SURFACE
 62
7
  6
CONTINUOUS
 10
158.8914801372
 20
213.319157856
  0
VERTEX
  8
SURFACE
 62
7
  6
CONTINUOUS
 10
158.9292625647
 20
213.2100608577
  0
VERTEX
  8
SURFACE
 62
7
  6
CONTINUOUS
 10
158.975223635
 20
213.1043594313
  0
VERTEX
  8
SURFACE
 62
7
  6
CONTINUOUS
 10
159.0290766729
 20
213.0026539776
  0
VERTEX
  8
SURFACE
 62
7
  6
CONTINUOUS
 10
159.09047693
 20
212.9055427425
  0
VERTEX
  8
SURFACE
 62
7
  6
CONTINUOUS
 10
159.1590454781
 20
212.813576101
  0
VERTEX
  8
SURFACE
 62
7
  6
CONTINUOUS
 10
159.2343558716
 20
212.727282201
  0
VERTEX
  8
SURFACE
 62
7
  6
CONTINUOUS
 10
159.3159512359
 20
212.6471450937
  0
VERTEX
  8
SURFACE
 62
7
  6
CONTINUOUS
 10
159.4033336131
 20
212.5736185717
  0
VERTEX
  8
SURFACE
 62
7
  6
CONTINUOUS
 10
159.4959847398
 20
212.5071079121
  0
VERTEX
  8
SURFACE
 62
7
  6
CONTINUOUS
 10
159.5933508532
 20
212.4479844524
  0
VERTEX
  8
SURFACE
 62
7
  6
CONTINUOUS
 10
159.6948676714
 20
212.3965696946
  0
VERTEX
  8
SURFACE
 62
7
  6
CONTINUOUS
 10
159.7999398466
 20
212.3531492682
  0
VERTEX
  8
SURFACE
 62
7
  6
CONTINUOUS
 10
159.9079746181
 20
212.3179584798
  0
VERTEX
  8
SURFACE
 62
7
  6
CONTINUOUS
 10
160.0183719429
 20
212.2911926224
  0
VERTEX
  8
SURFACE
 62
7
  6
CONTINUOUS
 10
160.1304648174
 20
212.2730166492
  0
SEQEND
  0
POLYLINE
  8
SURFACE
 62
7
  6
CONTINUOUS
 66
1
 70
0
  0
VERTEX
  8
SURFACE
 62
7
  6
CONTINUOUS
 10
158.8261468066
 20
239.1597253314
  0
VERTEX
  8
SURFACE
 62
7
  6
CONTINUOUS
 10
158.8294158541
 20
239.0599757612
  0
VERTEX
  8
SURFACE
 62
7
  6
CONTINUOUS
 10
158.8414007488
 20
238.9448163058
  0
VERTEX
  8
SURFACE
 62
7
  6
CONTINUOUS
 10
158.8621316297
 20
238.8309665481
  0
VERTEX
  8
SURFACE
 62
7
  6
CONTINUOUS
 10
158.8914801366
 20
238.719157858
  0
VERTEX
  8
SURFACE
 62
7
  6
CONTINUOUS
 10
158.9292625637
 20
238.6100608602
  0
VERTEX
  8
SURFACE
 62
7
  6
CONTINUOUS
 10
158.9752236336
 20
238.5043594343
  0
VERTEX
  8
SURFACE
 62
7
  6
CONTINUOUS
 10
159.0290766709
 20
238.4026539811
  0
VERTEX
  8
SURFACE
 62
7
  6
CONTINUOUS
 10
159.0904769274
 20
238.3055427463
  0
VERTEX
  8
SURFACE
 62
7
  6
CONTINUOUS
 10
159.1590454749
 20
238.213576105
  0
VERTEX
  8
SURFACE
 62
7
  6
CONTINUOUS
 10
159.2343558678
 20
238.1272822051
  0
VERTEX
  8
SURFACE
 62
7
  6
CONTINUOUS
 10
159.3159512315
 20
238.0471450977
  0
VERTEX
  8
SURFACE
 62
7
  6
CONTINUOUS
 10
159.4033336084
 20
237.9736185754
  0
VERTEX
  8
SURFACE
 62
7
  6
CONTINUOUS
 10
159.4959847345
 20
237.9071079156
  0
VERTEX
  8
SURFACE
 62
7
  6
CONTINUOUS
 10
159.5933508464
 20
237.8479844563
  0
VERTEX
  8
SURFACE
 62
7
  6
CONTINUOUS
 10
159.6948676629
 20
237.7965696985
  0
VERTEX
  8
SURFACE
 62
7
  6
CONTINUOUS
 10
159.7999398371
 20
237.7531492717
  0
VERTEX
  8
SURFACE
 62
7
  6
CONTINUOUS
 10
159.9079746091
 20
237.7179584823
  0
VERTEX
  8
SURFACE
 62
7
  6
CONTINUOUS
 10
160.0183719372
 20
237.6911926235
  0
VERTEX
  8
SURFACE
 62
7
  6
CONTINUOUS
 10
160.1304648174
 20
237.6730166492
  0
SEQEND
  0
LINE
  8
0
 62
7
  6
CONTINUOUS
 10
158.8261467968
 20
173.3779816514
 11
158.8261467968
 21
188.3597170601
  0
LINE
  8
SURFACE
 62
7
  6
CONTINUOUS
 10
158.8261467968
 20
188.3597170601
 11
158.8261467968
 21
193.5962462378
  0
LINE
  8
0
 62
7
  6
CONTINUOUS
 10
158.8261467968
 20
193.5962462378
 11
158.8261467968
 21
213.7597253314
  0
LINE
  8
SURFACE
 62
7
  6
CONTINUOUS
 10
158.8261467968
 20
213.7597170601
 11
158.8261467968
 21
218.9962462378
  0
LINE
  8
0
 62
7
  6
CONTINUOUS
 10
158.8261467968
 20
218.9962383081
 11
158.8261467968
 21
239.1597253314
  0
LINE
  8
SURFACE
 62
7
  6
CONTINUOUS
 10
158.8261467968
 20
239.1597170601
 11
158.8261467968
 21
246.6779816514
  0
POLYLINE
  8
SURFACE
 62
7
  6
CONTINUOUS
 66
1
 70
0
  0
VERTEX
  8
SURFACE
 62
7
  6
CONTINUOUS
 10
172.1179547161
 20
222.0001745901
  0
VERTEX
  8
SURFACE
 62
7
  6
CONTINUOUS
 10
172.1233722148
 20
222.0059910808
  0
VERTEX
  8
SURFACE
 62
7
  6
CONTINUOUS
 10
172.1267465146
 20
222.0093447859
  0
VERTEX
  8
SURFACE
 62
7
  6
CONTINUOUS
 10
172.1199005467
 20
222.0038494592
  0
VERTEX
  8
SURFACE
 62
7
  6
CONTINUOUS
 10
172.1015372747
 20
221.9913979271
  0
VERTEX
  8
SURFACE
 62
7
  6
CONTINUOUS
 10
172.069969706
 20
221.9741125002
  0
VERTEX
  8
SURFACE
 62
7
  6
CONTINUOUS
 10
172.0254091714
 20
221.9555079505
  0
VERTEX
  8
SURFACE
 62
7
  6
CONTINUOUS
 10
171.9684883198
 20
221.939094534
  0
VERTEX
  8
SURFACE
 62
7
  6
CONTINUOUS
 10
171.9171278905
 20
221.9301660678
  0
SEQEND
  0
LINE
  8
SURFACE
 62
7
  6
CONTINUOUS
 10
176.8042774534
 20
210.2257298861
 11
160.1304643258
 21
212.2730167096
  0
POLYLINE
  8
SURFACE
 62
7
  6
CONTINUOUS
 66
1
 70
0
  0
VERTEX
  8
SURFACE
 62
7
  6
CONTINUOUS
 10
171.9171660168
 20
210.8257925267
  0
VERTEX
  8
SURFACE
 62
7
  6
CONTINUOUS
 10
171.9671970392
 20
210.8171582007
  0
VERTEX
  8
SURFACE
 62
7
  6
CONTINUOUS
 10
172.0243850235
 20
210.8008181521
  0
VERTEX
  8
SURFACE
 62
7
  6
CONTINUOUS
 10
172.0692225872
 20
210.7822129195
  0
VERTEX
  8
SURFACE
 62
7
  6
CONTINUOUS
 10
172.1010558877
 20
210.7648627005
  0
VERTEX
  8
SURFACE
 62
7
  6
CONTINUOUS
 10
172.1196582065
 20
210.7522958877
  0
VERTEX
  8
SURFACE
 62
7
  6
CONTINUOUS
 10
172.1254175218
 20
210.7477597962
  0
SEQEND
  0
LINE
  8
DEFAULT_1
 62
2
  6
CENTER
 10
168.9261467968
 20
167.9935144091
 11
168.9261467968
 21
249.6779816514
  0
LINE
  8
0
 62
7
  6
CONTINUOUS
 10
177.9261467968
 20
236.6183161914
 11
177.9261467968
 21
221.5376469661
  0
LINE
  8
SURFACE
 62
7
  6
CONTINUOUS
 10
177.9261467968
 20
246.6779816514
 11
177.9261467968
 21
211.2182760377
  0
LINE
  8
0
 62
7
  6
CONTINUOUS
 10
177.9261467968
 20
211.2183161914
 11
177.9261467968
 21
196.1376469661
  0
LINE
  8
SURFACE
 62
7
  6
CONTINUOUS
 10
177.9261467968
 20
196.137687265
 11
177.9261467968
 21
185.8182760377
  0
LINE
  8
0
 62
7
  6
CONTINUOUS
 10
177.9261467968
 20
185.8182760377
 11
177.9261467968
 21
173.3779816514
  0
POLYLINE
  8
SURFACE
 62
7
  6
CONTINUOUS
 66
1
 70
0
  0
VERTEX
  8
SURFACE
 62
7
  6
CONTINUOUS
 10
160.1304630296
 20
220.482946434
  0
VERTEX
  8
SURFACE
 62
7
  6
CONTINUOUS
 10
160.0178236408
 20
220.4646599411
  0
VERTEX
  8
SURFACE
 62
7
  6
CONTINUOUS
 10
159.9069008771
 20
220.4377000364
  0
VERTEX
  8
SURFACE
 62
7
  6
CONTINUOUS
 10
159.7983715133
 20
220.4022347968
  0
VERTEX
  8
SURFACE
 62
7
  6
CONTINUOUS
 10
159.6928438797
 20
220.3584631136
  0
VERTEX
  8
SURFACE
 62
7
  6
CONTINUOUS
 10
159.5909189097
 20
220.3066246213
  0
VERTEX
  8
SURFACE
 62
7
  6
CONTINUOUS
 10
159.4931998756
 20
220.2470100851
  0
VERTEX
  8
SURFACE
 62
7
  6
CONTINUOUS
 10
159.4002583727
 20
220.1799467057
  0
VERTEX
  8
SURFACE
 62
7
  6
CONTINUOUS
 10
159.3126553211
 20
220.1058124973
  0
VERTEX
  8
SURFACE
 62
7
  6
CONTINUOUS
 10
159.2309153932
 20
220.0250199599
  0
VERTEX
  8
SURFACE
 62
7
  6
CONTINUOUS
 10
159.1555423365
 20
219.9380308464
  0
VERTEX
  8
SURFACE
 62
7
  6
CONTINUOUS
 10
159.0869979965
 20
219.845337598
  0
VERTEX
  8
SURFACE
 62
7
  6
CONTINUOUS
 10
159.025713133
 20
219.7474775337
  0
VERTEX
  8
SURFACE
 62
7
  6
CONTINUOUS
 10
158.9720699446
 20
219.6450102633
  0
VERTEX
  8
SURFACE
 62
7
  6
CONTINUOUS
 10
158.9264159033
 20
219.5385446475
  0
VERTEX
  8
SURFACE
 62
7
  6
CONTINUOUS
 10
158.8890390247
 20
219.4286909995
  0
VERTEX
  8
SURFACE
 62
7
  6
CONTINUOUS
 10
158.8601952114
 20
219.316146003
  0
VERTEX
  8
SURFACE
 62
7
  6
CONTINUOUS
 10
158.840066998
 20
219.2015921678
  0
VERTEX
  8
SURFACE
 62
7
  6
CONTINUOUS
 10
158.8287797593
 20
219.0857733685
  0
VERTEX
  8
SURFACE
 62
7
  6
CONTINUOUS
 10
158.8261468065
 20
218.9962383081
  0
SEQEND
  0
LINE
  8
SURFACE
 62
7
  6
CONTINUOUS
 10
160.1304625255
 20
220.4829463722
 11
176.8042774534
 21
222.5302334167
  0
POLYLINE
  8
SURFACE
 62
7
  6
CONTINUOUS
 66
1
 70
0
  0
VERTEX
  8
SURFACE
 62
7
  6
CONTINUOUS
 10
172.1179547161
 20
196.6001745901
  0
VERTEX
  8
SURFACE
 62
7
  6
CONTINUOUS
 10
172.1233722148
 20
196.6059910808
  0
VERTEX
  8
SURFACE
 62
7
  6
CONTINUOUS
 10
172.1267465146
 20
196.6093447859
  0
VERTEX
  8
SURFACE
 62
7
  6
CONTINUOUS
 10
172.1199005467
 20
196.6038494592
  0
VERTEX
  8
SURFACE
 62
7
  6
CONTINUOUS
 10
172.1015372747
 20
196.5913979271
  0
VERTEX
  8
SURFACE
 62
7
  6
CONTINUOUS
 10
172.069969706
 20
196.5741125002
  0
VERTEX
  8
SURFACE
 62
7
  6
CONTINUOUS
 10
172.0254091714
 20
196.5555079505
  0
VERTEX
  8
SURFACE
 62
7
  6
CONTINUOUS
 10
171.9684883198
 20
196.539094534
  0
VERTEX
  8
SURFACE
 62
7
  6
CONTINUOUS
 10
171.9171278905
 20
196.5301660678
  0
SEQEND
  0
LINE
  8
SURFACE
 62
7
  6
CONTINUOUS
 10
176.8042774534
 20
235.6257298861
 11
160.1304643258
 21
237.6730167096
  0
POLYLINE
  8
SURFACE
 62
7
  6
CONTINUOUS
 66
1
 70
0
  0
VERTEX
  8
SURFACE
 62
7
  6
CONTINUOUS
 10
171.9171660168
 20
236.2257925267
  0
VERTEX
  8
SURFACE
 62
7
  6
CONTINUOUS
 10
171.9671970392
 20
236.2171582007
  0
VERTEX
  8
SURFACE
 62
7
  6
CONTINUOUS
 10
172.0243850235
 20
236.2008181521
  0
VERTEX
  8
SURFACE
 62
7
  6
CONTINUOUS
 10
172.0692225872
 20
236.1822129195
  0
VERTEX
  8
SURFACE
 62
7
  6
CONTINUOUS
 10
172.1010558877
 20
236.1648627005
  0
VERTEX
  8
SURFACE
 62
7
  6
CONTINUOUS
 10
172.1196582065
 20
236.1522958877
  0
VERTEX
  8
SURFACE
 62
7
  6
CONTINUOUS
 10
172.1254175218
 20
236.1477597962
  0
SEQEND
  0
LINE
  8
SURFACE
 62
7
  6
CONTINUOUS
 10
176.9261467968
 20
247.6779816514
 11
159.8261467968
 21
247.6779816514
  0
ARC
  8
SURFACE
 62
7
  6
CONTINUOUS
 10
34.2924311927
 20
246.6779816514
 40
1.0
 50
90.0
 51
180.0
  0
ARC
  8
0
 62
7
  6
CONTINUOUS
 10
113.5424311927
 20
173.3779816514
 40
1.0
 50
270.0
 51
360.0
  0
ARC
  8
SURFACE
 62
7
  6
CONTINUOUS
 10
42.2924311927
 20
105.2518348545
 40
9.0
 50
90.0
 51
180.0
  0
ARC
  8
SURFACE
 62
7
  6
CONTINUOUS
 10
42.2924311927
 20
104.1518348545
 40
9.0
 50
180.0
 51
270.0
  0
ARC
  8
SURFACE
 62
7
  6
CONTINUOUS
 10
45.3192254637
 20
107.2518348545
 40
7.0
 50
45.0
 51
90.0
  0
ARC
  8
SURFACE
 62
7
  6
CONTINUOUS
 10
73.9174311927
 20
108.2518348545
 40
6.0
 50
62.9009591033
 51
117.0990408967
  0
CIRCLE
  8
0
 62
7
  6
CONTINUOUS
 10
42.2924311927
 20
104.1518348545
 40
4.3
  0
ARC
  8
SURFACE
 62
7
  6
CONTINUOUS
 10
66.6052089707
 20
106.4291275077
 40
3.0
 50
287.0
 51
355.0
  0
ARC
  8
SURFACE
 62
7
  6
CONTINUOUS
 10
72.0953111709
 20
111.8127165749
 40
2.0
 50
117.0990408967
 51
175.0
  0
ARC
  8
0
 62
7
  6
CONTINUOUS
 10
72.0953111709
 20
111.8127165749
 40
2.0
 50
120.9961107228
 51
175.0000000012
  0
ARC
  8
SURFACE
 62
7
  6
CONTINUOUS
 10
61.1996653556
 20
102.6851034616
 40
1.0
 50
225.0
 51
287.0
  0
ARC
  8
SURFACE
 62
7
  6
CONTINUOUS
 10
95.5876157523
 20
92.6282320894
 40
6.0
 50
48.823473186
 51
73.0
  0
ARC
  8
SURFACE
 62
7
  6
CONTINUOUS
 10
99.1638860056
 20
96.1518348545
 40
1.0
 50
270.0
 51
50.8908503688
  0
ARC
  8
SURFACE
 62
7
  6
CONTINUOUS
 10
105.6674311927
 20
104.1518348545
 40
9.31
 50
228.823473186
 51
230.8908503688
  0
ARC
  8
0
 62
7
  6
CONTINUOUS
 10
105.5424311927
 20
105.2518348545
 40
9.0
 50
2.7743858961
 51
87.2236727365
  0
ARC
  8
SURFACE
 62
7
  6
CONTINUOUS
 10
105.5424311927
 20
105.2518348545
 40
9.0
 50
0.0
 51
90.0
  0
ARC
  8
SURFACE
 62
7
  6
CONTINUOUS
 10
105.5424311927
 20
104.1518348545
 40
9.0
 50
270.0
 51
360.0
  0
ARC
  8
SURFACE
 62
7
  6
CONTINUOUS
 10
102.5156369217
 20
107.2518348545
 40
7.0
 50
90.0
 51
135.0
  0
CIRCLE
  8
0
 62
7
  6
CONTINUOUS
 10
105.5424311927
 20
104.1518348545
 40
4.3
  0
ARC
  8
SURFACE
 62
7
  6
CONTINUOUS
 10
81.2296534146
 20
106.4291275077
 40
3.0
 50
185.0
 51
253.0
  0
ARC
  8
SURFACE
 62
7
  6
CONTINUOUS
 10
75.7395512144
 20
111.8127165749
 40
2.0
 50
5.0
 51
62.9009591033
  0
ARC
  8
SURFACE
 62
7
  6
CONTINUOUS
 10
86.6352017062
 20
102.6851020319
 40
0.9999996697
 50
252.9997198175
 51
314.9998379631
  0
ARC
  8
0
 62
7
  6
CONTINUOUS
 10
86.6352017062
 20
102.6851020319
 40
0.9999996697
 50
253.0
 51
314.9998379631
  0
ARC
  8
0
 62
7
  6
CONTINUOUS
 10
176.9261467968
 20
185.8182760377
 40
1.0
 50
355.1245618939
 51
360.0
  0
ARC
  8
0
 62
7
  6
CONTINUOUS
 10
176.9261467968
 20
185.8182760377
 40
1.0
 50
263.0
 51
267.4249865807
  0
ARC
  8
SURFACE
 62
7
  6
CONTINUOUS
 10
176.9261467786
 20
185.81827604
 40
1.0000000002
 50
263.0000010512
 51
359.9999998719
  0
ARC
  8
SURFACE
 62
7
  6
CONTINUOUS
 10
176.9261467968
 20
196.137687265
 40
1.0
 50
0.0
 51
97.0
  0
ARC
  8
0
 62
7
  6
CONTINUOUS
 10
176.9261467968
 20
196.137687265
 40
1.0
 50
0.0
 51
97.0
  0
ARC
  8
0
 62
7
  6
CONTINUOUS
 10
159.8261467968
 20
173.3779816514
 40
1.0
 50
180.0
 51
270.0000003637
  0
ARC
  8
SURFACE
 62
7
  6
CONTINUOUS
 10
176.9261467968
 20
246.6779816514
 40
1.0
 50
0.0
 51
90.0
  0
ARC
  8
SURFACE
 62
7
  6
CONTINUOUS
 10
159.8261467968
 20
246.6779816514
 40
1.0
 50
90.0
 51
180.0
  0
ARC
  8
SURFACE
 62
7
  6
CONTINUOUS
 10
176.9261467968
 20
236.6182760377
 40
1.0
 50
263.0
 51
360.0
  0
ARC
  8
SURFACE
 62
7
  6
CONTINUOUS
 10
176.9261467968
 20
221.537687265
 40
1.0
 50
0.0
 51
97.0
  0
ARC
  8
SURFACE
 62
7
  6
CONTINUOUS
 10
176.9261467968
 20
211.2182760377
 40
1.0
 50
263.0
 51
360.0
  0
ARC
  8
0
 62
7
  6
CONTINUOUS
 10
176.9261467968
 20
173.3779816514
 40
1.0
 50
270.0
 51
360.0
  0
ENDSEC
  0
EOF
