  0
SECTION
  2
HEADER
  9
$EXTMAX
 10
420.0
 20
297.0
 30
0.0
  9
$EXTMIN
 10
0.0
 20
0.0
 30
0.0
  9
$LIMMIN
 10
0.0
 20
0.0
  9
$LIMMAX
 10
420.0
 20
297.0
  9
$VIEWCTR
 10
210.0
 20
148.5
  9
$VIEWSIZE
 40
297.0
  9
$CLAYER
  8
0
  9
$LTSCALE
 40
23.1
  9
$CELTYPE
  6
BYLAYER
  9
$DIMSCALE
 40
1.0
  9
$DIMASZ
 40
3.5
  9
$DIMEXO
 40
2.625
  9
$DIMDLI
 40
15.96
  9
$DIMEXE
 40
7.56
  9
$DIMCEN
 40
3.78
  9
$DIMLFAC
 40
1.0
  9
$DIMBLK
  1
_FILLED
  9
$DIMTXT
 40
3.5
  9
$PDMODE
 70
3
  9
$PDSIZE
 40
0.3125
  9
$TILEMODE
 70
1
  0
ENDSEC
  0
SECTION
  2
TABLES
  0
TABLE
  2
LTYPE
 70
6
  0
LTYPE
  2
BYBLOCK
 70
0
  3

 72
65
 73
0
 40
0.0
  0
LTYPE
  2
BYLAYER
 70
0
  3

 72
65
 73
0
 40
0.0
  0
LTYPE
  2
CONTINUOUS
 70
64
  3
Solid line
 72
65
 73
0
 40
0.0
  0
LTYPE
  2
CENTER
 70
64
  3
____ _ ____ _ ____ _ ____ _ ____ _ ____ _ ____
 72
65
 73
4
 40
0.6
 49
0.375
 49
-0.075
 49
0.075
 49
-0.075
  0
LTYPE
  2
HIDDEN
 70
64
  3
- - - - - - - - - - - - - - - - - - - -
 72
65
 73
2
 40
0.2
 49
0.1
 49
-0.1
  0
LTYPE
  2
PHANTOM
 70
64
  3
_____ _ _ _____ _ _ _____ _ _ _____
 72
65
 73
6
 40
0.8
 49
0.45
 49
-0.05
 49
0.1
 49
-0.05
 49
0.1
 49
-0.05
  0
LTYPE
  2
DOT
 70
64
  3
. . . . . . . . . . . . . . . . . . . .
 72
65
 73
2
 40
0.2
 49
0.1
 49
-0.1
  0
LTYPE
  2
DASHED
 70
64
  3
- - - - - - - - - - - - - - - - - - - -
 72
65
 73
2
 40
0.2
 49
0.1
 49
-0.1
  0
ENDTAB
  0
TABLE
  2
LAYER
 70
36
  0
LAYER
  2
0
 70
0
 62
7
  6
CONTINUOUS
  0
LAYER
  2
DEFAULT_1
 70
0
 62
7
  6
CENTER
  0
LAYER
  2
DEFAULT_2
 70
0
 62
8
  6
HIDDEN
  0
LAYER
  2
DEFAULT_3
 70
0
 62
7
  6
PHANTOM
  0
LAYER
  2
3_ALL_SYMBOLS
 70
0
 62
7
  6
CONTINUOUS
  0
LAYER
  2
BLANK_PLAN
 70
0
 62
7
  6
CONTINUOUS
  0
LAYER
  2
NOTES
 70
0
 62
7
  6
CONTINUOUS
  0
ENDTAB
  0
TABLE
  2
STYLE
 70
1
  0
STYLE
  2
STANDARD
 70
0
 40
0.0
 41
0.8
 50
0.0
 71
0
 42
0.2
  3
txt
  4

  0
STYLE
  2
TEXTSTYLE_1
 70
0
 40
0.0
 41
0.8
 50
0.0
 71
0
 42
0.2
  3
gdt
  4

  0
STYLE
  2
TEXTSTYLE_2
 70
0
 40
0.0
 41
0.6
 50
0.0
 71
0
 42
0.2
  3
txt
  4

  0
STYLE
  2
TEXTSTYLE_3
 70
0
 40
0.0
 41
1.0
 50
0.0
 71
0
 42
0.2
  3
ftb_____.ttf
  4

  0
STYLE
  2
TEXTSTYLE_4
 70
0
 40
0.0
 41
1.0
 50
0.0
 71
0
 42
0.2
  3
fti_____.ttf
  4

  0
STYLE
  2
TEXTSTYLE_5
 70
0
 40
0.0
 41
1.0
 50
0.0
 71
0
 42
0.2
  3
frutiger light.ttf
  4

  0
STYLE
  2
TEXTSTYLE_6
 70
0
 40
0.0
 41
0.7
 50
0.0
 71
0
 42
0.2
  3
txt
  4

  0
STYLE
  2
TEXTSTYLE_7
 70
0
 40
0.0
 41
0.3
 50
0.0
 71
0
 42
0.2
  3
txt
  4

  0
ENDTAB
  0
ENDSEC
  0
SECTION
  2
BLOCKS
  0
BLOCK
  8
0
 62
2
  6
CONTINUOUS
  2
SYMBOL_5_BL1
 70
64
 10
382.7840918555
 20
35.5067593403
  0
TEXT
  8
0
 62
7
  6
CONTINUOUS
 10
373.842376864
 20
30.5995157174
  7
TEXTSTYLE_4
 40
1.0655737705
  1
The brand for plastic modular belts and chains
 41
1.0
 72
0
  0
LINE
  8
0
 62
7
  6
CONTINUOUS
 10
358.7621602445
 20
36.0805298321
 11
358.7621602445
 21
33.9493822911
  0
LINE
  8
0
 62
7
  6
CONTINUOUS
 10
359.0512227376
 20
30.9584509954
 11
359.0512227376
 21
31.0552420547
  0
LINE
  8
0
 62
7
  6
CONTINUOUS
 10
358.7621602445
 20
31.0229783683
 11
358.8199727462
 21
30.8293962497
  0
LINE
  8
0
 62
7
  6
CONTINUOUS
 10
360.1556028675
 20
33.867415078
 11
360.1556028675
 21
36.0805298321
  0
LINE
  8
0
 62
7
  6
CONTINUOUS
 10
361.0746601894
 20
32.0231527829
 11
361.0746601894
 21
30.5067593403
  0
LINE
  8
0
 62
7
  6
CONTINUOUS
 10
361.3637227445
 20
30.5067593403
 11
361.3637227445
 21
31.2488242184
  0
LINE
  8
0
 62
7
  6
CONTINUOUS
 10
361.3637227445
 20
31.3778789641
 11
361.3637227445
 21
32.0231527829
  0
LINE
  8
0
 62
7
  6
CONTINUOUS
 10
358.8199727462
 20
31.216560532
 11
358.7621602445
 21
31.0229783683
  0
LINE
  8
0
 62
7
  6
CONTINUOUS
 10
359.1668477307
 20
30.7971325633
 11
359.0512227376
 21
30.9584509954
  0
LINE
  8
0
 62
7
  6
CONTINUOUS
 10
360.2652852997
 20
31.3133515913
 11
360.3230977445
 21
31.216560532
  0
LINE
  8
0
 62
7
  6
CONTINUOUS
 10
360.6121602997
 20
31.216560532
 11
360.5543476894
 21
31.3456152777
  0
LINE
  8
0
 62
7
  6
CONTINUOUS
 10
362.0408487691
 20
36.0805298321
 11
362.0408487691
 21
34.2772511436
  0
LINE
  8
0
 62
7
  6
CONTINUOUS
 10
362.0408487691
 20
32.9657757338
 11
362.0408487691
 21
32.3100380288
  0
LINE
  8
0
 62
7
  6
CONTINUOUS
 10
362.4043477445
 20
31.1520331591
 11
362.4043477445
 21
30.5067593403
  0
LINE
  8
0
 62
7
  6
CONTINUOUS
 10
362.6934101343
 20
30.5067593403
 11
362.6934101343
 21
31.1520331591
  0
LINE
  8
0
 62
7
  6
CONTINUOUS
 10
359.0512227376
 20
31.0552420547
 11
359.1090352445
 21
31.1842968456
  0
LINE
  8
0
 62
7
  6
CONTINUOUS
 10
358.8199727462
 20
30.8293962497
 11
358.9355977445
 21
30.7003414814
  0
LINE
  8
0
 62
7
  6
CONTINUOUS
 10
362.3465351343
 20
31.2810879048
 11
362.4043477445
 21
31.1520331591
  0
LINE
  8
0
 62
7
  6
CONTINUOUS
 10
363.1559103548
 20
30.7971325633
 11
363.2137226343
 21
30.668077795
  0
LINE
  8
0
 62
7
  6
CONTINUOUS
 10
362.6934101343
 20
31.1520331591
 11
362.6355978548
 21
31.3133515913
  0
LINE
  8
0
 62
7
  6
CONTINUOUS
 10
363.1559103548
 20
31.3456152777
 11
363.1559103548
 21
31.2810879048
  0
LINE
  8
0
 62
7
  6
CONTINUOUS
 10
363.1559103548
 20
30.8939236226
 11
363.1559103548
 21
30.7971325633
  0
LINE
  8
0
 62
7
  6
CONTINUOUS
 10
363.4342913921
 20
32.3100380288
 11
363.4342913921
 21
36.0805298321
  0
LINE
  8
0
 62
7
  6
CONTINUOUS
 10
363.4449727445
 20
30.7648688543
 11
363.4449727445
 21
30.8293962497
  0
LINE
  8
0
 62
7
  6
CONTINUOUS
 10
363.7621602445
 20
36.0805298321
 11
363.7621602445
 21
32.3100380288
  0
LINE
  8
0
 62
7
  6
CONTINUOUS
 10
360.5543476894
 20
30.7003414814
 11
360.6121602997
 21
30.8293962497
  0
LINE
  8
0
 62
7
  6
CONTINUOUS
 10
364.9480979651
 20
30.6035504109
 11
364.890285024
 21
30.7648688543
  0
LINE
  8
0
 62
7
  6
CONTINUOUS
 10
364.6012229651
 20
31.2810879048
 11
364.6012229651
 21
31.1842968456
  0
LINE
  8
0
 62
7
  6
CONTINUOUS
 10
364.6012229651
 20
31.0552420547
 11
364.6012229651
 21
30.8616599362
  0
LINE
  8
0
 62
7
  6
CONTINUOUS
 10
364.890285024
 20
30.7648688543
 11
364.890285024
 21
31.2810879048
  0
LINE
  8
0
 62
7
  6
CONTINUOUS
 10
365.1556028675
 20
32.3100380288
 11
365.1556028675
 21
34.1133167174
  0
LINE
  8
0
 62
7
  6
CONTINUOUS
 10
365.1556028675
 20
35.4247921272
 11
365.1556028675
 21
36.0805298321
  0
LINE
  8
0
 62
7
  6
CONTINUOUS
 10
365.4684104651
 20
32.0231527829
 11
365.4684104651
 21
31.8618343508
  0
LINE
  8
0
 62
7
  6
CONTINUOUS
 10
365.4684104651
 20
31.5391973962
 11
365.4684104651
 21
30.5067593403
  0
LINE
  8
0
 62
7
  6
CONTINUOUS
 10
365.757472524
 20
30.5067593403
 11
365.757472524
 21
31.5391973962
  0
LINE
  8
0
 62
7
  6
CONTINUOUS
 10
365.757472524
 20
31.8618343508
 11
365.757472524
 21
32.0231527829
  0
LINE
  8
0
 62
7
  6
CONTINUOUS
 10
360.3230977445
 20
30.8293962497
 11
360.2652852997
 21
30.7326051679
  0
LINE
  8
0
 62
7
  6
CONTINUOUS
 10
362.6355978548
 20
31.3133515913
 11
362.5777852445
 21
31.3778789641
  0
LINE
  8
0
 62
7
  6
CONTINUOUS
 10
363.5027853548
 20
30.7003414814
 11
363.4449727445
 21
30.7648688543
  0
LINE
  8
0
 62
7
  6
CONTINUOUS
 10
364.6590352445
 20
30.5712867188
 11
364.716847524
 21
30.5067593403
  0
LINE
  8
0
 62
7
  6
CONTINUOUS
 10
364.6012229651
 20
30.668077795
 11
364.6590352445
 21
30.5712867188
  0
LINE
  8
0
 62
7
  6
CONTINUOUS
 10
365.0059102445
 20
30.5067593403
 11
364.9480979651
 21
30.6035504109
  0
LINE
  8
0
 62
7
  6
CONTINUOUS
 10
364.890285024
 20
31.2810879048
 11
364.8324727445
 21
31.3778789641
  0
LINE
  8
0
 62
7
  6
CONTINUOUS
 10
366.2199727445
 20
31.5391973962
 11
366.2199727445
 21
30.5067593403
  0
LINE
  8
0
 62
7
  6
CONTINUOUS
 10
366.5090354651
 20
30.5067593403
 11
366.5090354651
 21
31.2488242184
  0
LINE
  8
0
 62
7
  6
CONTINUOUS
 10
366.5090354651
 20
31.3778789641
 11
366.5090354651
 21
31.5391973962
  0
LINE
  8
0
 62
7
  6
CONTINUOUS
 10
367.0408487691
 20
34.5231527829
 11
367.0408487691
 21
32.3100380288
  0
LINE
  8
0
 62
7
  6
CONTINUOUS
 10
358.9355977445
 20
31.3456152777
 11
358.8199727462
 21
31.216560532
  0
LINE
  8
0
 62
7
  6
CONTINUOUS
 10
359.1090352445
 20
31.1842968456
 11
359.1668477307
 21
31.2488242184
  0
LINE
  8
0
 62
7
  6
CONTINUOUS
 10
358.9355977445
 20
30.7003414814
 11
359.0512227376
 21
30.6358140973
  0
LINE
  8
0
 62
7
  6
CONTINUOUS
 10
359.3402852307
 20
30.7003414814
 11
359.1668477307
 21
30.7971325633
  0
LINE
  8
0
 62
7
  6
CONTINUOUS
 10
364.543410024
 20
31.3456152777
 11
364.6012229651
 21
31.2810879048
  0
LINE
  8
0
 62
7
  6
CONTINUOUS
 10
367.491847524
 20
31.2810879048
 11
367.5496604651
 21
31.1197694727
  0
LINE
  8
0
 62
7
  6
CONTINUOUS
 10
367.838722524
 20
31.1197694727
 11
367.7809102445
 21
31.2810879048
  0
LINE
  8
0
 62
7
  6
CONTINUOUS
 10
367.5496604651
 20
31.1197694727
 11
367.5496604651
 21
30.5067593403
  0
LINE
  8
0
 62
7
  6
CONTINUOUS
 10
367.838722524
 20
30.5067593403
 11
367.838722524
 21
31.1197694727
  0
LINE
  8
0
 62
7
  6
CONTINUOUS
 10
368.3012227445
 20
31.3456152777
 11
368.3012227445
 21
31.2810879048
  0
LINE
  8
0
 62
7
  6
CONTINUOUS
 10
368.4342913921
 20
32.3100380288
 11
368.4342913921
 21
34.4411855698
  0
LINE
  8
0
 62
7
  6
CONTINUOUS
 10
368.7621602445
 20
36.0805298321
 11
368.7621602445
 21
32.3100380288
  0
LINE
  8
0
 62
7
  6
CONTINUOUS
 10
363.4449727445
 20
30.8293962497
 11
363.5027853548
 21
30.926187309
  0
LINE
  8
0
 62
7
  6
CONTINUOUS
 10
359.0512227376
 20
30.6358140973
 11
359.2246602583
 21
30.5712867188
  0
LINE
  8
0
 62
7
  6
CONTINUOUS
 10
360.5543476894
 20
31.3456152777
 11
360.3809101894
 21
31.4424063369
  0
LINE
  8
0
 62
7
  6
CONTINUOUS
 10
363.2137226343
 20
30.668077795
 11
363.3871601343
 21
30.5712867188
  0
LINE
  8
0
 62
7
  6
CONTINUOUS
 10
362.2309102445
 20
31.3456152777
 11
362.3465351343
 21
31.2810879048
  0
LINE
  8
0
 62
7
  6
CONTINUOUS
 10
362.5777852445
 20
31.3778789641
 11
362.4621603548
 21
31.4424063369
  0
LINE
  8
0
 62
7
  6
CONTINUOUS
 10
368.3012227445
 20
30.7648688543
 11
368.4168479651
 21
30.6358140973
  0
LINE
  8
0
 62
7
  6
CONTINUOUS
 10
368.6480977445
 20
30.7003414814
 11
368.5902854651
 21
30.7648688543
  0
LINE
  8
0
 62
7
  6
CONTINUOUS
 10
368.3012227445
 20
31.2810879048
 11
368.4168479651
 21
31.1520331591
  0
LINE
  8
0
 62
7
  6
CONTINUOUS
 10
367.7809102445
 20
31.2810879048
 11
367.7230979651
 21
31.3778789641
  0
LINE
  8
0
 62
7
  6
CONTINUOUS
 10
370.1512223035
 20
30.7003414814
 11
370.1512223035
 21
30.7648688543
  0
LINE
  8
0
 62
7
  6
CONTINUOUS
 10
370.1556028675
 20
32.3100380288
 11
370.1556028675
 21
36.0805298321
  0
LINE
  8
0
 62
7
  6
CONTINUOUS
 10
363.2137226343
 20
31.4101426505
 11
363.1559103548
 21
31.3456152777
  0
LINE
  8
0
 62
7
  6
CONTINUOUS
 10
360.091847717
 20
31.3778789641
 11
360.2652852997
 21
31.3133515913
  0
LINE
  8
0
 62
7
  6
CONTINUOUS
 10
364.8324727445
 20
31.3778789641
 11
364.716847524
 21
31.4424063369
  0
LINE
  8
0
 62
7
  6
CONTINUOUS
 10
368.6480977445
 20
31.216560532
 11
368.5902854651
 21
31.2810879048
  0
LINE
  8
0
 62
7
  6
CONTINUOUS
 10
369.8043479651
 20
30.8293962497
 11
369.8621602445
 21
30.7648688543
  0
LINE
  8
0
 62
7
  6
CONTINUOUS
 10
370.1512223035
 20
30.7648688543
 11
370.0355977445
 21
30.8939236226
  0
LINE
  8
0
 62
7
  6
CONTINUOUS
 10
369.8043479651
 20
31.3456152777
 11
369.8621602445
 21
31.2810879048
  0
LINE
  8
0
 62
7
  6
CONTINUOUS
 10
370.1512223035
 20
31.2810879048
 11
370.0355977445
 21
31.4101426505
  0
LINE
  8
0
 62
7
  6
CONTINUOUS
 10
363.4449727445
 20
31.2810879048
 11
363.5027853548
 21
31.3456152777
  0
LINE
  8
0
 62
7
  6
CONTINUOUS
 10
363.2715352445
 20
31.0229783683
 11
363.1559103548
 21
30.8939236226
  0
LINE
  8
0
 62
7
  6
CONTINUOUS
 10
364.6012229651
 20
30.8616599362
 11
364.543410024
 21
30.7971325633
  0
LINE
  8
0
 62
7
  6
CONTINUOUS
 10
364.543410024
 20
30.6035504109
 11
364.6012229651
 21
30.668077795
  0
LINE
  8
0
 62
7
  6
CONTINUOUS
 10
363.3871601343
 20
30.5712867188
 11
363.5027853548
 21
30.5390230296
  0
LINE
  8
0
 62
7
  6
CONTINUOUS
 10
360.3809101894
 20
31.4424063369
 11
360.1496602445
 21
31.5069337098
  0
LINE
  8
0
 62
7
  6
CONTINUOUS
 10
363.7340351343
 20
30.6358140973
 11
363.5027853548
 21
30.7003414814
  0
LINE
  8
0
 62
7
  6
CONTINUOUS
 10
362.4621603548
 20
31.4424063369
 11
362.2887228548
 21
31.5069337098
  0
LINE
  8
0
 62
7
  6
CONTINUOUS
 10
364.716847524
 20
31.4424063369
 11
364.543410024
 21
31.5069337098
  0
LINE
  8
0
 62
7
  6
CONTINUOUS
 10
367.3762229651
 20
31.3456152777
 11
367.491847524
 21
31.2810879048
  0
LINE
  8
0
 62
7
  6
CONTINUOUS
 10
367.7230979651
 20
31.3778789641
 11
367.6074727445
 21
31.4424063369
  0
LINE
  8
0
 62
7
  6
CONTINUOUS
 10
359.2246602583
 20
30.5712867188
 11
359.3980977583
 21
30.5390230296
  0
LINE
  8
0
 62
7
  6
CONTINUOUS
 10
359.6871602721
 20
30.6358140973
 11
359.3402852307
 21
30.7003414814
  0
LINE
  8
0
 62
7
  6
CONTINUOUS
 10
362.1152853548
 20
31.3778789641
 11
362.2309102445
 21
31.3456152777
  0
LINE
  8
0
 62
7
  6
CONTINUOUS
 10
364.4277854651
 20
31.3778789641
 11
364.543410024
 21
31.3456152777
  0
LINE
  8
0
 62
7
  6
CONTINUOUS
 10
368.7637229651
 20
30.668077795
 11
368.6480977445
 21
30.7003414814
  0
LINE
  8
0
 62
7
  6
CONTINUOUS
 10
367.2605977445
 20
31.3778789641
 11
367.3762229651
 21
31.3456152777
  0
LINE
  8
0
 62
7
  6
CONTINUOUS
 10
368.4168479651
 20
30.6358140973
 11
368.5902854651
 21
30.5712867188
  0
LINE
  8
0
 62
7
  6
CONTINUOUS
 10
367.6074727445
 20
31.4424063369
 11
367.4340352445
 21
31.5069337098
  0
LINE
  8
0
 62
7
  6
CONTINUOUS
 10
368.8215352445
 20
31.1520331591
 11
368.6480977445
 21
31.216560532
  0
LINE
  8
0
 62
7
  6
CONTINUOUS
 10
369.6309104651
 20
30.8939236226
 11
369.8043479651
 21
30.8293962497
  0
LINE
  8
0
 62
7
  6
CONTINUOUS
 10
370.0355977445
 20
31.4101426505
 11
369.8621602445
 21
31.4746700234
  0
LINE
  8
0
 62
7
  6
CONTINUOUS
 10
368.4168479651
 20
31.1520331591
 11
368.6480977445
 21
31.0552420547
  0
LINE
  8
0
 62
7
  6
CONTINUOUS
 10
370.0355977445
 20
30.8939236226
 11
369.8043479651
 21
30.9907146818
  0
LINE
  8
0
 62
7
  6
CONTINUOUS
 10
368.5902854651
 20
31.2810879048
 11
368.6480977445
 21
31.3456152777
  0
LINE
  8
0
 62
7
  6
CONTINUOUS
 10
359.0512227376
 20
31.4101426505
 11
358.9355977445
 21
31.3456152777
  0
LINE
  8
0
 62
7
  6
CONTINUOUS
 10
359.1668477307
 20
31.2488242184
 11
359.3402852307
 21
31.3456152777
  0
LINE
  8
0
 62
7
  6
CONTINUOUS
 10
361.4793477997
 20
31.4424063369
 11
361.3637227445
 21
31.3778789641
  0
LINE
  8
0
 62
7
  6
CONTINUOUS
 10
361.3637227445
 20
31.2488242184
 11
361.4793477997
 21
31.3133515913
  0
LINE
  8
0
 62
7
  6
CONTINUOUS
 10
360.3809101894
 20
30.6035504109
 11
360.5543476894
 21
30.7003414814
  0
LINE
  8
0
 62
7
  6
CONTINUOUS
 10
359.3980977583
 20
30.5390230296
 11
359.744972717
 21
30.5067593403
  0
LINE
  8
0
 62
7
  6
CONTINUOUS
 10
363.5027853548
 20
30.5390230296
 11
363.7340351343
 21
30.5067593403
  0
LINE
  8
0
 62
7
  6
CONTINUOUS
 10
361.8840352445
 20
31.4101426505
 11
362.1152853548
 21
31.3778789641
  0
LINE
  8
0
 62
7
  6
CONTINUOUS
 10
364.1965353548
 20
31.4101426505
 11
364.4277854651
 21
31.3778789641
  0
LINE
  8
0
 62
7
  6
CONTINUOUS
 10
368.6480977445
 20
31.0552420547
 11
369.6309104651
 21
30.8939236226
  0
LINE
  8
0
 62
7
  6
CONTINUOUS
 10
369.8043479651
 20
30.9907146818
 11
368.8215352445
 21
31.1520331591
  0
LINE
  8
0
 62
7
  6
CONTINUOUS
 10
362.2887228548
 20
31.5069337098
 11
362.1152853548
 21
31.5391973962
  0
LINE
  8
0
 62
7
  6
CONTINUOUS
 10
368.5902854651
 20
30.5712867188
 11
368.7637229651
 21
30.5390230296
  0
LINE
  8
0
 62
7
  6
CONTINUOUS
 10
367.4340352445
 20
31.5069337098
 11
367.2605977445
 21
31.5391973962
  0
LINE
  8
0
 62
7
  6
CONTINUOUS
 10
369.6887227445
 20
31.3778789641
 11
369.8043479651
 21
31.3456152777
  0
LINE
  8
0
 62
7
  6
CONTINUOUS
 10
369.8621602445
 20
30.7648688543
 11
369.8043479651
 21
30.7003414814
  0
LINE
  8
0
 62
7
  6
CONTINUOUS
 10
368.4168479651
 20
31.4424063369
 11
368.3012227445
 21
31.3456152777
  0
LINE
  8
0
 62
7
  6
CONTINUOUS
 10
363.3293478548
 20
31.4746700234
 11
363.2137226343
 21
31.4101426505
  0
LINE
  8
0
 62
7
  6
CONTINUOUS
 10
363.3871601343
 20
31.0875057863
 11
363.2715352445
 21
31.0229783683
  0
LINE
  8
0
 62
7
  6
CONTINUOUS
 10
363.5027853548
 20
30.926187309
 11
363.6184102445
 21
30.9907146818
  0
LINE
  8
0
 62
7
  6
CONTINUOUS
 10
361.0746601894
 20
30.5067593403
 11
361.3637227445
 21
30.5067593403
  0
LINE
  8
0
 62
7
  6
CONTINUOUS
 10
362.4043477445
 20
30.5067593403
 11
362.6934101343
 21
30.5067593403
  0
LINE
  8
0
 62
7
  6
CONTINUOUS
 10
363.7340351343
 20
30.5067593403
 11
364.0809101343
 21
30.5067593403
  0
LINE
  8
0
 62
7
  6
CONTINUOUS
 10
364.716847524
 20
30.5067593403
 11
365.0059102445
 21
30.5067593403
  0
LINE
  8
0
 62
7
  6
CONTINUOUS
 10
365.4684104651
 20
30.5067593403
 11
365.757472524
 21
30.5067593403
  0
LINE
  8
0
 62
7
  6
CONTINUOUS
 10
366.2199727445
 20
30.5067593403
 11
366.5090354651
 21
30.5067593403
  0
LINE
  8
0
 62
7
  6
CONTINUOUS
 10
367.5496604651
 20
30.5067593403
 11
367.838722524
 21
30.5067593403
  0
LINE
  8
0
 62
7
  6
CONTINUOUS
 10
369.1105979651
 20
30.5067593403
 11
369.4574729651
 21
30.5067593403
  0
LINE
  8
0
 62
7
  6
CONTINUOUS
 10
369.4574729651
 20
30.6358140973
 11
369.1105979651
 21
30.6358140973
  0
LINE
  8
0
 62
7
  6
CONTINUOUS
 10
364.0809101343
 20
30.6358140973
 11
363.7340351343
 21
30.6358140973
  0
LINE
  8
0
 62
7
  6
CONTINUOUS
 10
368.5902854651
 20
30.7648688543
 11
368.3012227445
 21
30.7648688543
  0
LINE
  8
0
 62
7
  6
CONTINUOUS
 10
360.6121602997
 20
30.8293962497
 11
360.3230977445
 21
30.8293962497
  0
LINE
  8
0
 62
7
  6
CONTINUOUS
 10
359.6871602721
 20
31.4101426505
 11
360.091847717
 21
31.3778789641
  0
LINE
  8
0
 62
7
  6
CONTINUOUS
 10
360.1496602445
 20
31.5069337098
 11
359.744972717
 21
31.5391973962
  0
LINE
  8
0
 62
7
  6
CONTINUOUS
 10
368.7637229651
 20
30.5390230296
 11
369.1105979651
 21
30.5067593403
  0
LINE
  8
0
 62
7
  6
CONTINUOUS
 10
369.1105979651
 20
30.6358140973
 11
368.7637229651
 21
30.668077795
  0
LINE
  8
0
 62
7
  6
CONTINUOUS
 10
364.543410024
 20
31.5069337098
 11
364.1965353548
 21
31.5391973962
  0
LINE
  8
0
 62
7
  6
CONTINUOUS
 10
369.3418477445
 20
31.4101426505
 11
369.6887227445
 21
31.3778789641
  0
LINE
  8
0
 62
7
  6
CONTINUOUS
 10
369.6887227445
 20
31.5069337098
 11
369.3418477445
 21
31.5391973962
  0
LINE
  8
0
 62
7
  6
CONTINUOUS
 10
367.0293479651
 20
31.4101426505
 11
367.2605977445
 21
31.3778789641
  0
LINE
  8
0
 62
7
  6
CONTINUOUS
 10
369.8621602445
 20
31.4746700234
 11
369.6887227445
 21
31.5069337098
  0
LINE
  8
0
 62
7
  6
CONTINUOUS
 10
370.0355977445
 20
30.6035504109
 11
370.1512223035
 21
30.7003414814
  0
LINE
  8
0
 62
7
  6
CONTINUOUS
 10
364.543410024
 20
30.7971325633
 11
364.369972524
 21
30.7003414814
  0
LINE
  8
0
 62
7
  6
CONTINUOUS
 10
366.624660024
 20
31.4424063369
 11
366.5090354651
 21
31.3778789641
  0
LINE
  8
0
 62
7
  6
CONTINUOUS
 10
366.5090354651
 20
31.2488242184
 11
366.624660024
 21
31.3133515913
  0
LINE
  8
0
 62
7
  6
CONTINUOUS
 10
359.2246602583
 20
31.4746700234
 11
359.0512227376
 21
31.4101426505
  0
LINE
  8
0
 62
7
  6
CONTINUOUS
 10
361.6527851343
 20
31.5069337098
 11
361.4793477997
 21
31.4424063369
  0
LINE
  8
0
 62
7
  6
CONTINUOUS
 10
361.4793477997
 20
31.3133515913
 11
361.6527851343
 21
31.3778789641
  0
LINE
  8
0
 62
7
  6
CONTINUOUS
 10
360.2652852997
 20
30.7326051679
 11
360.091847717
 21
30.668077795
  0
LINE
  8
0
 62
7
  6
CONTINUOUS
 10
369.6887227445
 20
30.668077795
 11
369.4574729651
 21
30.6358140973
  0
LINE
  8
0
 62
7
  6
CONTINUOUS
 10
364.0809101343
 20
30.5067593403
 11
364.369972524
 21
30.5390230296
  0
LINE
  8
0
 62
7
  6
CONTINUOUS
 10
369.4574729651
 20
30.5067593403
 11
369.8043479651
 21
30.5390230296
  0
LINE
  8
0
 62
7
  6
CONTINUOUS
 10
359.744972717
 20
30.5067593403
 11
360.1496602445
 21
30.5390230296
  0
LINE
  8
0
 62
7
  6
CONTINUOUS
 10
360.091847717
 20
30.668077795
 11
359.6871602721
 21
30.6358140973
  0
LINE
  8
0
 62
7
  6
CONTINUOUS
 10
363.9652852445
 20
31.0552420547
 11
364.6012229651
 21
31.0552420547
  0
LINE
  8
0
 62
7
  6
CONTINUOUS
 10
364.6012229651
 20
31.1842968456
 11
363.9652852445
 21
31.1842968456
  0
LINE
  8
0
 62
7
  6
CONTINUOUS
 10
360.3230977445
 20
31.216560532
 11
360.6121602997
 21
31.216560532
  0
LINE
  8
0
 62
7
  6
CONTINUOUS
 10
363.1559103548
 20
31.2810879048
 11
363.4449727445
 21
31.2810879048
  0
LINE
  8
0
 62
7
  6
CONTINUOUS
 10
369.8621602445
 20
31.2810879048
 11
370.1512223035
 21
31.2810879048
  0
LINE
  8
0
 62
7
  6
CONTINUOUS
 10
363.8496603548
 20
31.4101426505
 11
364.1965353548
 21
31.4101426505
  0
LINE
  8
0
 62
7
  6
CONTINUOUS
 10
368.9949727445
 20
31.4101426505
 11
369.3418477445
 21
31.4101426505
  0
LINE
  8
0
 62
7
  6
CONTINUOUS
 10
369.3418477445
 20
31.5391973962
 11
368.9949727445
 21
31.5391973962
  0
LINE
  8
0
 62
7
  6
CONTINUOUS
 10
367.2605977445
 20
31.5391973962
 11
367.0293479651
 21
31.5391973962
  0
LINE
  8
0
 62
7
  6
CONTINUOUS
 10
366.5090354651
 20
31.5391973962
 11
366.2199727445
 21
31.5391973962
  0
LINE
  8
0
 62
7
  6
CONTINUOUS
 10
365.757472524
 20
31.5391973962
 11
365.4684104651
 21
31.5391973962
  0
LINE
  8
0
 62
7
  6
CONTINUOUS
 10
364.1965353548
 20
31.5391973962
 11
363.8496603548
 21
31.5391973962
  0
LINE
  8
0
 62
7
  6
CONTINUOUS
 10
362.1152853548
 20
31.5391973962
 11
361.8840352445
 21
31.5391973962
  0
LINE
  8
0
 62
7
  6
CONTINUOUS
 10
365.4684104651
 20
31.8618343508
 11
365.757472524
 21
31.8618343508
  0
LINE
  8
0
 62
7
  6
CONTINUOUS
 10
365.757472524
 20
32.0231527829
 11
365.4684104651
 21
32.0231527829
  0
LINE
  8
0
 62
7
  6
CONTINUOUS
 10
361.3637227445
 20
32.0231527829
 11
361.0746601894
 21
32.0231527829
  0
LINE
  8
0
 62
7
  6
CONTINUOUS
 10
360.4015045068
 20
32.3100380288
 11
360.8140758554
 21
32.3100380288
  0
LINE
  8
0
 62
7
  6
CONTINUOUS
 10
362.0408487691
 20
32.3100380288
 11
363.4342913921
 21
32.3100380288
  0
LINE
  8
0
 62
7
  6
CONTINUOUS
 10
363.7621602445
 20
32.3100380288
 11
365.1556028675
 21
32.3100380288
  0
LINE
  8
0
 62
7
  6
CONTINUOUS
 10
367.0408487691
 20
32.3100380288
 11
368.4342913921
 21
32.3100380288
  0
LINE
  8
0
 62
7
  6
CONTINUOUS
 10
368.7621602445
 20
32.3100380288
 11
370.1556028675
 21
32.3100380288
  0
LINE
  8
0
 62
7
  6
CONTINUOUS
 10
366.798097524
 20
31.5069337098
 11
366.624660024
 21
31.4424063369
  0
LINE
  8
0
 62
7
  6
CONTINUOUS
 10
364.369972524
 20
30.5390230296
 11
364.543410024
 21
30.6035504109
  0
LINE
  8
0
 62
7
  6
CONTINUOUS
 10
369.8043479651
 20
30.5390230296
 11
370.0355977445
 21
30.6035504109
  0
LINE
  8
0
 62
7
  6
CONTINUOUS
 10
369.8043479651
 20
30.7003414814
 11
369.6887227445
 21
30.668077795
  0
LINE
  8
0
 62
7
  6
CONTINUOUS
 10
368.7637229651
 20
31.3778789641
 11
368.9949727445
 21
31.4101426505
  0
LINE
  8
0
 62
7
  6
CONTINUOUS
 10
366.798097524
 20
31.3778789641
 11
367.0293479651
 21
31.4101426505
  0
LINE
  8
0
 62
7
  6
CONTINUOUS
 10
363.7340351343
 20
31.0229783683
 11
363.9652852445
 21
31.0552420547
  0
LINE
  8
0
 62
7
  6
CONTINUOUS
 10
367.0293479651
 20
31.5391973962
 11
366.798097524
 21
31.5069337098
  0
LINE
  8
0
 62
7
  6
CONTINUOUS
 10
363.6184102445
 20
31.3778789641
 11
363.8496603548
 21
31.4101426505
  0
LINE
  8
0
 62
7
  6
CONTINUOUS
 10
368.9949727445
 20
31.5391973962
 11
368.6480977445
 21
31.5069337098
  0
LINE
  8
0
 62
7
  6
CONTINUOUS
 10
363.9652852445
 20
31.1842968456
 11
363.6184102445
 21
31.1520331591
  0
LINE
  8
0
 62
7
  6
CONTINUOUS
 10
359.744972717
 20
31.5391973962
 11
359.3980977583
 21
31.5069337098
  0
LINE
  8
0
 62
7
  6
CONTINUOUS
 10
363.8496603548
 20
31.5391973962
 11
363.4449727445
 21
31.5069337098
  0
LINE
  8
0
 62
7
  6
CONTINUOUS
 10
361.221176638
 20
33.4575790124
 11
360.565438933
 21
33.4575790124
  0
LINE
  8
0
 62
7
  6
CONTINUOUS
 10
366.624660024
 20
31.3133515913
 11
366.798097524
 21
31.3778789641
  0
LINE
  8
0
 62
7
  6
CONTINUOUS
 10
368.6480977445
 20
31.3456152777
 11
368.7637229651
 21
31.3778789641
  0
LINE
  8
0
 62
7
  6
CONTINUOUS
 10
368.6480977445
 20
31.5069337098
 11
368.4168479651
 21
31.4424063369
  0
LINE
  8
0
 62
7
  6
CONTINUOUS
 10
364.369972524
 20
30.7003414814
 11
364.0809101343
 21
30.6358140973
  0
LINE
  8
0
 62
7
  6
CONTINUOUS
 10
361.6527851343
 20
31.3778789641
 11
361.8840352445
 21
31.4101426505
  0
LINE
  8
0
 62
7
  6
CONTINUOUS
 10
361.8840352445
 20
31.5391973962
 11
361.6527851343
 21
31.5069337098
  0
LINE
  8
0
 62
7
  6
CONTINUOUS
 10
359.4559102445
 20
31.3778789641
 11
359.6871602721
 21
31.4101426505
  0
LINE
  8
0
 62
7
  6
CONTINUOUS
 10
365.9752749986
 20
34.9329888485
 11
366.6310127035
 21
34.9329888485
  0
LINE
  8
0
 62
7
  6
CONTINUOUS
 10
363.6184102445
 20
30.9907146818
 11
363.7340351343
 21
31.0229783683
  0
LINE
  8
0
 62
7
  6
CONTINUOUS
 10
363.6184102445
 20
31.1520331591
 11
363.3871601343
 21
31.0875057863
  0
LINE
  8
0
 62
7
  6
CONTINUOUS
 10
363.5027853548
 20
31.3456152777
 11
363.6184102445
 21
31.3778789641
  0
LINE
  8
0
 62
7
  6
CONTINUOUS
 10
360.1496602445
 20
30.5390230296
 11
360.3809101894
 21
30.6035504109
  0
LINE
  8
0
 62
7
  6
CONTINUOUS
 10
363.4449727445
 20
31.5069337098
 11
363.3293478548
 21
31.4746700234
  0
LINE
  8
0
 62
7
  6
CONTINUOUS
 10
359.3980977583
 20
31.5069337098
 11
359.2246602583
 21
31.4746700234
  0
LINE
  8
0
 62
7
  6
CONTINUOUS
 10
370.1556028675
 20
36.0805298321
 11
368.7621602445
 21
36.0805298321
  0
LINE
  8
0
 62
7
  6
CONTINUOUS
 10
366.7949471298
 20
36.0805298321
 11
366.3823757812
 21
36.0805298321
  0
LINE
  8
0
 62
7
  6
CONTINUOUS
 10
365.1556028675
 20
36.0805298321
 11
363.7621602445
 21
36.0805298321
  0
LINE
  8
0
 62
7
  6
CONTINUOUS
 10
363.4342913921
 20
36.0805298321
 11
362.0408487691
 21
36.0805298321
  0
LINE
  8
0
 62
7
  6
CONTINUOUS
 10
360.1556028675
 20
36.0805298321
 11
358.7621602445
 21
36.0805298321
  0
LINE
  8
0
 62
7
  6
CONTINUOUS
 10
359.3402852307
 20
31.3456152777
 11
359.4559102445
 21
31.3778789641
  0
CIRCLE
  8
0
 62
7
  6
CONTINUOUS
 10
369.458881556
 20
38.4165954059
 40
2.0901639344
  0
ARC
  8
0
 62
7
  6
CONTINUOUS
 10
360.4015045068
 20
33.9493822911
 40
1.6393442623
 50
180.0
 51
270.0
  0
ARC
  8
0
 62
7
  6
CONTINUOUS
 10
366.7949471298
 20
34.4411855698
 40
1.6393442623
 50
0.0
 51
90.0
  0
ARC
  8
0
 62
7
  6
CONTINUOUS
 10
360.8140758554
 20
33.7854478649
 40
1.4754098361
 50
270.0
 51
326.2510114041
  0
ARC
  8
0
 62
7
  6
CONTINUOUS
 10
366.3823757812
 20
34.6051199961
 40
1.4754098361
 50
90.0
 51
146.2510114041
  0
ARC
  8
0
 62
7
  6
CONTINUOUS
 10
361.221176638
 20
34.2772511436
 40
0.8196721311
 50
270.0
 51
360.0
  0
ARC
  8
0
 62
7
  6
CONTINUOUS
 10
365.9752749986
 20
34.1133167174
 40
0.8196721311
 50
90.0
 51
180.0
  0
ARC
  8
0
 62
7
  6
CONTINUOUS
 10
360.565438933
 20
33.867415078
 40
0.4098360656
 50
180.0
 51
270.0
  0
ARC
  8
0
 62
7
  6
CONTINUOUS
 10
366.6310127035
 20
34.5231527829
 40
0.4098360656
 50
0.0
 51
90.0
  0
SOLID
  8
0
 62
7
  6
CONTINUOUS
 10
365.4684104651
 20
31.8618347111
 11
365.4684104651
 21
32.0231531947
 12
365.757472524
 22
31.8618347111
 13
365.757472524
 23
32.0231531947
  0
SOLID
  8
0
 62
7
  6
CONTINUOUS
 10
359.744972717
 20
31.5391977439
 11
360.1496602445
 21
31.5069333244
 12
359.3980977583
 22
31.5069333244
 13
359.3980977583
 23
31.5069333244
  0
SOLID
  8
0
 62
7
  6
CONTINUOUS
 10
359.2246602583
 20
31.4746706537
 11
359.3980977583
 21
31.5069333244
 12
360.1496602445
 22
31.5069333244
 13
360.1496602445
 23
31.5069333244
  0
SOLID
  8
0
 62
7
  6
CONTINUOUS
 10
360.1496602445
 20
31.5069333244
 11
360.3809101894
 21
31.4424063504
 12
359.2246602583
 22
31.4746706537
 13
359.2246602583
 23
31.4746706537
  0
SOLID
  8
0
 62
7
  6
CONTINUOUS
 10
359.0512227376
 20
31.4101419116
 11
359.2246602583
 21
31.4746706537
 12
360.3809101894
 22
31.4424063504
 13
360.3809101894
 23
31.4424063504
  0
SOLID
  8
0
 62
7
  6
CONTINUOUS
 10
359.0512227376
 20
31.4101419116
 11
360.3809101894
 21
31.4424063504
 12
359.6871602721
 22
31.4101419116
 13
359.6871602721
 23
31.4101419116
  0
SOLID
  8
0
 62
7
  6
CONTINUOUS
 10
359.6871602721
 20
31.4101419116
 11
360.3809101894
 21
31.4424063504
 12
360.091847717
 22
31.3778792603
 13
360.091847717
 23
31.3778792603
  0
SOLID
  8
0
 62
7
  6
CONTINUOUS
 10
360.3809101894
 20
31.4424063504
 11
360.5543476894
 21
31.345614957
 12
360.091847717
 22
31.3778792603
 13
360.091847717
 23
31.3778792603
  0
SOLID
  8
0
 62
7
  6
CONTINUOUS
 10
360.2652852997
 20
31.3133521701
 11
360.091847717
 21
31.3778792603
 12
360.5543476894
 22
31.345614957
 13
360.5543476894
 23
31.345614957
  0
SOLID
  8
0
 62
7
  6
CONTINUOUS
 10
360.2652852997
 20
31.3133521701
 11
360.5543476894
 21
31.345614957
 12
360.3230977445
 22
31.2165606992
 13
360.3230977445
 23
31.2165606992
  0
SOLID
  8
0
 62
7
  6
CONTINUOUS
 10
360.5543476894
 20
31.345614957
 11
360.6121602997
 21
31.2165606992
 12
360.3230977445
 22
31.2165606992
 13
360.3230977445
 23
31.2165606992
  0
SOLID
  8
0
 62
7
  6
CONTINUOUS
 10
361.6527851343
 20
31.5069329918
 11
361.8840352445
 21
31.5391972951
 12
362.1152853548
 22
31.5391972951
 13
362.1152853548
 23
31.5391972951
  0
SOLID
  8
0
 62
7
  6
CONTINUOUS
 10
362.1152853548
 20
31.5391972951
 11
362.2887228548
 21
31.5069329918
 12
361.6527851343
 22
31.5069329918
 13
361.6527851343
 23
31.5069329918
  0
SOLID
  8
0
 62
7
  6
CONTINUOUS
 10
361.4793477997
 20
31.4424059016
 11
361.6527851343
 21
31.5069329918
 12
362.2887228548
 22
31.5069329918
 13
362.2887228548
 23
31.5069329918
  0
SOLID
  8
0
 62
7
  6
CONTINUOUS
 10
362.2887228548
 20
31.5069329918
 11
362.4621603548
 21
31.4424059016
 12
361.4793477997
 22
31.4424059016
 13
361.4793477997
 23
31.4424059016
  0
SOLID
  8
0
 62
7
  6
CONTINUOUS
 10
362.4621603548
 20
31.4424059016
 11
361.8840352445
 21
31.4101420472
 12
361.4793477997
 22
31.4424059016
 13
361.4793477997
 23
31.4424059016
  0
SOLID
  8
0
 62
7
  6
CONTINUOUS
 10
361.3637227445
 20
31.3778788115
 11
361.4793477997
 21
31.4424059016
 12
361.8840352445
 22
31.4101420472
 13
361.8840352445
 23
31.4101420472
  0
SOLID
  8
0
 62
7
  6
CONTINUOUS
 10
361.8840352445
 20
31.4101420472
 11
361.6527851343
 21
31.3778788115
 12
361.3637227445
 22
31.3778788115
 13
361.3637227445
 23
31.3778788115
  0
SOLID
  8
0
 62
7
  6
CONTINUOUS
 10
361.8840352445
 20
31.4101420472
 11
362.4621603548
 21
31.4424059016
 12
362.1152853548
 22
31.3778788115
 13
362.1152853548
 23
31.3778788115
  0
SOLID
  8
0
 62
7
  6
CONTINUOUS
 10
362.4621603548
 20
31.4424059016
 11
362.5777852445
 21
31.3778788115
 12
362.1152853548
 22
31.3778788115
 13
362.1152853548
 23
31.3778788115
  0
SOLID
  8
0
 62
7
  6
CONTINUOUS
 10
362.2309102445
 20
31.345614957
 11
362.1152853548
 21
31.3778788115
 12
362.5777852445
 22
31.3778788115
 13
362.5777852445
 23
31.3778788115
  0
SOLID
  8
0
 62
7
  6
CONTINUOUS
 10
362.5777852445
 20
31.3778788115
 11
362.6355978548
 21
31.3133517213
 12
362.2309102445
 22
31.345614957
 13
362.2309102445
 23
31.345614957
  0
SOLID
  8
0
 62
7
  6
CONTINUOUS
 10
362.3465351343
 20
31.2810878668
 11
362.2309102445
 21
31.345614957
 12
362.6355978548
 22
31.3133517213
 13
362.6355978548
 23
31.3133517213
  0
SOLID
  8
0
 62
7
  6
CONTINUOUS
 10
362.3465351343
 20
31.2810878668
 11
362.6355978548
 21
31.3133517213
 12
362.4043477445
 22
31.1520332377
 13
362.4043477445
 23
31.1520332377
  0
SOLID
  8
0
 62
7
  6
CONTINUOUS
 10
362.6355978548
 20
31.3133517213
 11
362.6934101343
 21
31.1520332377
 12
362.4043477445
 22
31.1520332377
 13
362.4043477445
 23
31.1520332377
  0
SOLID
  8
0
 62
7
  6
CONTINUOUS
 10
361.6527851343
 20
31.3778788115
 11
361.4793477997
 21
31.3133517213
 12
361.3637227445
 22
31.3778788115
 13
361.3637227445
 23
31.3778788115
  0
SOLID
  8
0
 62
7
  6
CONTINUOUS
 10
361.4793477997
 20
31.3133517213
 11
361.3637227445
 21
31.2488235635
 12
361.3637227445
 22
31.3778788115
 13
361.3637227445
 23
31.3778788115
  0
SOLID
  8
0
 62
7
  6
CONTINUOUS
 10
361.3637227445
 20
31.2488235635
 11
361.0746601894
 21
30.5067593033
 12
361.3637227445
 22
31.3778788115
 13
361.3637227445
 23
31.3778788115
  0
SOLID
  8
0
 62
7
  6
CONTINUOUS
 10
361.3637227445
 20
31.3778788115
 11
361.0746601894
 21
30.5067593033
 12
361.3637227445
 22
32.0231527459
 13
361.3637227445
 23
32.0231527459
  0
SOLID
  8
0
 62
7
  6
CONTINUOUS
 10
361.0746601894
 20
30.5067593033
 11
361.0746601894
 21
32.0231527459
 12
361.3637227445
 22
32.0231527459
 13
361.3637227445
 23
32.0231527459
  0
SOLID
  8
0
 62
7
  6
CONTINUOUS
 10
361.3637227445
 20
31.2488235635
 11
361.3637227445
 21
30.5067593033
 12
361.0746601894
 22
30.5067593033
 13
361.0746601894
 23
30.5067593033
  0
SOLID
  8
0
 62
7
  6
CONTINUOUS
 10
362.4043477445
 20
30.5067593033
 11
362.4043477445
 21
31.1520332377
 12
362.6934101343
 22
31.1520332377
 13
362.6934101343
 23
31.1520332377
  0
SOLID
  8
0
 62
7
  6
CONTINUOUS
 10
362.6934101343
 20
31.1520332377
 11
362.6934101343
 21
30.5067593033
 12
362.4043477445
 22
30.5067593033
 13
362.4043477445
 23
30.5067593033
  0
SOLID
  8
0
 62
7
  6
CONTINUOUS
 10
363.4449727445
 20
31.506933758
 11
363.8496603548
 21
31.5391977507
 12
364.1965353548
 22
31.5391977507
 13
364.1965353548
 23
31.5391977507
  0
SOLID
  8
0
 62
7
  6
CONTINUOUS
 10
364.1965353548
 20
31.5391977507
 11
364.543410024
 21
31.506933758
 12
363.4449727445
 22
31.506933758
 13
363.4449727445
 23
31.506933758
  0
SOLID
  8
0
 62
7
  6
CONTINUOUS
 10
363.3293478548
 20
31.4746706537
 11
363.4449727445
 21
31.506933758
 12
364.543410024
 22
31.506933758
 13
364.543410024
 23
31.506933758
  0
SOLID
  8
0
 62
7
  6
CONTINUOUS
 10
364.543410024
 20
31.506933758
 11
364.716847524
 21
31.4424063504
 12
363.3293478548
 22
31.4746706537
 13
363.3293478548
 23
31.4746706537
  0
SOLID
  8
0
 62
7
  6
CONTINUOUS
 10
363.2137226343
 20
31.4101417797
 11
363.3293478548
 21
31.4746706537
 12
364.716847524
 22
31.4424063504
 13
364.716847524
 23
31.4424063504
  0
SOLID
  8
0
 62
7
  6
CONTINUOUS
 10
363.2137226343
 20
31.4101417797
 11
364.716847524
 21
31.4424063504
 12
363.8496603548
 22
31.4101417797
 13
363.8496603548
 23
31.4101417797
  0
SOLID
  8
0
 62
7
  6
CONTINUOUS
 10
363.8496603548
 20
31.4101417797
 11
364.716847524
 21
31.4424063504
 12
364.1965353548
 22
31.4101417797
 13
364.1965353548
 23
31.4101417797
  0
SOLID
  8
0
 62
7
  6
CONTINUOUS
 10
364.1965353548
 20
31.4101417797
 11
364.716847524
 21
31.4424063504
 12
364.4277854651
 22
31.3778793357
 13
364.4277854651
 23
31.3778793357
  0
SOLID
  8
0
 62
7
  6
CONTINUOUS
 10
364.716847524
 20
31.4424063504
 11
364.8324727445
 21
31.3778793357
 12
364.4277854651
 22
31.3778793357
 13
364.4277854651
 23
31.3778793357
  0
SOLID
  8
0
 62
7
  6
CONTINUOUS
 10
363.1559103548
 20
31.3456153429
 11
363.2137226343
 21
31.4101417797
 12
363.8496603548
 22
31.4101417797
 13
363.8496603548
 23
31.4101417797
  0
SOLID
  8
0
 62
7
  6
CONTINUOUS
 10
364.543410024
 20
31.3456153429
 11
364.4277854651
 21
31.3778793357
 12
364.8324727445
 22
31.3778793357
 13
364.8324727445
 23
31.3778793357
  0
SOLID
  8
0
 62
7
  6
CONTINUOUS
 10
364.543410024
 20
31.3456153429
 11
364.8324727445
 21
31.3778793357
 12
364.6012229651
 22
31.2810881318
 13
364.6012229651
 23
31.2810881318
  0
SOLID
  8
0
 62
7
  6
CONTINUOUS
 10
364.8324727445
 20
31.3778793357
 11
364.890285024
 21
31.2810881318
 12
364.6012229651
 22
31.2810881318
 13
364.6012229651
 23
31.2810881318
  0
SOLID
  8
0
 62
7
  6
CONTINUOUS
 10
364.6012229651
 20
31.1842964734
 11
364.6012229651
 21
31.2810881318
 12
364.890285024
 22
31.2810881318
 13
364.890285024
 23
31.2810881318
  0
SOLID
  8
0
 62
7
  6
CONTINUOUS
 10
364.6012229651
 20
31.1842964734
 11
364.890285024
 21
31.2810881318
 12
364.6012229651
 22
31.0552422931
 13
364.6012229651
 23
31.0552422931
  0
SOLID
  8
0
 62
7
  6
CONTINUOUS
 10
364.6012229651
 20
31.0552422931
 11
364.890285024
 21
31.2810881318
 12
364.6012229651
 22
30.8616599362
 13
364.6012229651
 23
30.8616599362
  0
SOLID
  8
0
 62
7
  6
CONTINUOUS
 10
364.890285024
 20
31.2810881318
 11
364.890285024
 21
30.7648681127
 12
364.6012229651
 22
30.8616599362
 13
364.6012229651
 23
30.8616599362
  0
SOLID
  8
0
 62
7
  6
CONTINUOUS
 10
366.798097524
 20
31.5069339419
 11
367.0293479651
 21
31.5391976292
 12
367.2605977445
 22
31.5391976292
 13
367.2605977445
 23
31.5391976292
  0
SOLID
  8
0
 62
7
  6
CONTINUOUS
 10
367.2605977445
 20
31.5391976292
 11
367.4340352445
 21
31.5069339419
 12
366.798097524
 22
31.5069339419
 13
366.798097524
 23
31.5069339419
  0
SOLID
  8
0
 62
7
  6
CONTINUOUS
 10
366.624660024
 20
31.4424065674
 11
366.798097524
 21
31.5069339419
 12
367.4340352445
 22
31.5069339419
 13
367.4340352445
 23
31.5069339419
  0
SOLID
  8
0
 62
7
  6
CONTINUOUS
 10
367.4340352445
 20
31.5069339419
 11
367.6074727445
 21
31.4424065674
 12
366.624660024
 22
31.4424065674
 13
366.624660024
 23
31.4424065674
  0
SOLID
  8
0
 62
7
  6
CONTINUOUS
 10
367.6074727445
 20
31.4424065674
 11
367.0293479651
 21
31.4101420472
 12
366.624660024
 22
31.4424065674
 13
366.624660024
 23
31.4424065674
  0
SOLID
  8
0
 62
7
  6
CONTINUOUS
 10
366.5090354651
 20
31.377879193
 11
366.624660024
 21
31.4424065674
 12
367.0293479651
 22
31.4101420472
 13
367.0293479651
 23
31.4101420472
  0
SOLID
  8
0
 62
7
  6
CONTINUOUS
 10
367.0293479651
 20
31.4101420472
 11
366.798097524
 21
31.377879193
 12
366.5090354651
 22
31.377879193
 13
366.5090354651
 23
31.377879193
  0
SOLID
  8
0
 62
7
  6
CONTINUOUS
 10
367.0293479651
 20
31.4101420472
 11
367.6074727445
 21
31.4424065674
 12
367.2605977445
 22
31.377879193
 13
367.2605977445
 23
31.377879193
  0
SOLID
  8
0
 62
7
  6
CONTINUOUS
 10
367.6074727445
 20
31.4424065674
 11
367.7230979651
 21
31.377879193
 12
367.2605977445
 22
31.377879193
 13
367.2605977445
 23
31.377879193
  0
SOLID
  8
0
 62
7
  6
CONTINUOUS
 10
367.3762229651
 20
31.345614957
 11
367.2605977445
 21
31.377879193
 12
367.7230979651
 22
31.377879193
 13
367.7230979651
 23
31.377879193
  0
SOLID
  8
0
 62
7
  6
CONTINUOUS
 10
367.3762229651
 20
31.345614957
 11
367.7230979651
 21
31.377879193
 12
367.491847524
 22
31.2810881312
 13
367.491847524
 23
31.2810881312
  0
SOLID
  8
0
 62
7
  6
CONTINUOUS
 10
367.7230979651
 20
31.377879193
 11
367.7809102445
 21
31.2810881312
 12
367.491847524
 22
31.2810881312
 13
367.491847524
 23
31.2810881312
  0
SOLID
  8
0
 62
7
  6
CONTINUOUS
 10
367.5496604651
 20
31.119769695
 11
367.491847524
 21
31.2810881312
 12
367.7809102445
 22
31.2810881312
 13
367.7809102445
 23
31.2810881312
  0
SOLID
  8
0
 62
7
  6
CONTINUOUS
 10
367.7809102445
 20
31.2810881312
 11
367.838722524
 21
31.119769695
 12
367.5496604651
 22
31.119769695
 13
367.5496604651
 23
31.119769695
  0
SOLID
  8
0
 62
7
  6
CONTINUOUS
 10
366.798097524
 20
31.377879193
 11
366.624660024
 21
31.3133521701
 12
366.5090354651
 22
31.377879193
 13
366.5090354651
 23
31.377879193
  0
SOLID
  8
0
 62
7
  6
CONTINUOUS
 10
366.624660024
 20
31.3133521701
 11
366.5090354651
 21
31.2488235635
 12
366.5090354651
 22
31.377879193
 13
366.5090354651
 23
31.377879193
  0
SOLID
  8
0
 62
7
  6
CONTINUOUS
 10
366.5090354651
 20
31.2488235635
 11
366.2199727445
 21
30.5067596374
 12
366.5090354651
 22
31.377879193
 13
366.5090354651
 23
31.377879193
  0
SOLID
  8
0
 62
7
  6
CONTINUOUS
 10
366.5090354651
 20
31.377879193
 11
366.2199727445
 21
30.5067596374
 12
366.5090354651
 22
31.5391976292
 13
366.5090354651
 23
31.5391976292
  0
SOLID
  8
0
 62
7
  6
CONTINUOUS
 10
366.2199727445
 20
30.5067596374
 11
366.2199727445
 21
31.5391976292
 12
366.5090354651
 22
31.5391976292
 13
366.5090354651
 23
31.5391976292
  0
SOLID
  8
0
 62
7
  6
CONTINUOUS
 10
366.5090354651
 20
31.2488235635
 11
366.5090354651
 21
30.5067596374
 12
366.2199727445
 22
30.5067596374
 13
366.2199727445
 23
30.5067596374
  0
SOLID
  8
0
 62
7
  6
CONTINUOUS
 10
367.5496604651
 20
30.5067596374
 11
367.5496604651
 21
31.119769695
 12
367.838722524
 22
31.119769695
 13
367.838722524
 23
31.119769695
  0
SOLID
  8
0
 62
7
  6
CONTINUOUS
 10
367.838722524
 20
31.119769695
 11
367.838722524
 21
30.5067596374
 12
367.5496604651
 22
30.5067596374
 13
367.5496604651
 23
30.5067596374
  0
SOLID
  8
0
 62
7
  6
CONTINUOUS
 10
368.6480977445
 20
31.5069334157
 11
368.9949727445
 21
31.539197762
 12
369.3418477445
 22
31.539197762
 13
369.3418477445
 23
31.539197762
  0
SOLID
  8
0
 62
7
  6
CONTINUOUS
 10
369.3418477445
 20
31.539197762
 11
369.6887227445
 21
31.5069334157
 12
368.6480977445
 22
31.5069334157
 13
368.6480977445
 23
31.5069334157
  0
SOLID
  8
0
 62
7
  6
CONTINUOUS
 10
368.4168479651
 20
31.4424063504
 11
368.6480977445
 21
31.5069334157
 12
369.6887227445
 22
31.5069334157
 13
369.6887227445
 23
31.5069334157
  0
SOLID
  8
0
 62
7
  6
CONTINUOUS
 10
368.4168479651
 20
31.4424063504
 11
369.6887227445
 21
31.5069334406
 12
369.8621602445
 22
31.4746706537
 13
369.8621602445
 23
31.4746706537
  0
SOLID
  8
0
 62
7
  6
CONTINUOUS
 10
368.4168479651
 20
31.4424063504
 11
369.8621602445
 21
31.4746706537
 12
368.9949727445
 22
31.4101421267
 13
368.9949727445
 23
31.4101421267
  0
SOLID
  8
0
 62
7
  6
CONTINUOUS
 10
368.9949727445
 20
31.4101421267
 11
369.8621602445
 21
31.4746706537
 12
369.3418477445
 22
31.4101421267
 13
369.3418477445
 23
31.4101421267
  0
SOLID
  8
0
 62
7
  6
CONTINUOUS
 10
369.8621602445
 20
31.4746706537
 11
370.0355977445
 21
31.4101421267
 12
369.3418477445
 22
31.4101421267
 13
369.3418477445
 23
31.4101421267
  0
SOLID
  8
0
 62
7
  6
CONTINUOUS
 10
369.6887227445
 20
31.3778792603
 11
369.3418477445
 21
31.4101421267
 12
370.0355977445
 22
31.4101421267
 13
370.0355977445
 23
31.4101421267
  0
SOLID
  8
0
 62
7
  6
CONTINUOUS
 10
368.3012227445
 20
31.3456148845
 11
368.4168479651
 21
31.4424063504
 12
368.9949727445
 22
31.4101421267
 13
368.9949727445
 23
31.4101421267
  0
SOLID
  8
0
 62
7
  6
CONTINUOUS
 10
369.6887227445
 20
31.3778792603
 11
370.0355977445
 21
31.4101421267
 12
369.8043479651
 22
31.3456148845
 13
369.8043479651
 23
31.3456148845
  0
SOLID
  8
0
 62
7
  6
CONTINUOUS
 10
369.8043479651
 20
31.3456148845
 11
370.0355977445
 21
31.4101421267
 12
369.8621602445
 22
31.281087868
 13
369.8621602445
 23
31.281087868
  0
SOLID
  8
0
 62
7
  6
CONTINUOUS
 10
370.0355977445
 20
31.4101421267
 11
370.1512223035
 21
31.281087868
 12
369.8621602445
 22
31.281087868
 13
369.8621602445
 23
31.281087868
  0
SOLID
  8
0
 62
7
  6
CONTINUOUS
 10
359.4559102445
 20
31.3778792603
 11
358.9355977445
 21
31.3456148963
 12
359.6871602721
 22
31.4101421155
 13
359.6871602721
 23
31.4101421155
  0
SOLID
  8
0
 62
7
  6
CONTINUOUS
 10
358.9355977445
 20
31.3456148963
 11
359.0512227376
 21
31.4101421155
 12
359.6871602721
 22
31.4101421155
 13
359.6871602721
 23
31.4101421155
  0
SOLID
  8
0
 62
7
  6
CONTINUOUS
 10
359.4559102445
 20
31.3778792603
 11
359.3402852307
 21
31.3456148963
 12
358.9355977445
 22
31.3456148963
 13
358.9355977445
 23
31.3456148963
  0
SOLID
  8
0
 62
7
  6
CONTINUOUS
 10
358.8199727462
 20
31.2165607767
 11
358.9355977445
 21
31.3456148963
 12
359.3402852307
 22
31.3456148963
 13
359.3402852307
 23
31.3456148963
  0
SOLID
  8
0
 62
7
  6
CONTINUOUS
 10
363.1559103548
 20
31.3456149608
 11
363.8496603548
 21
31.4101420472
 12
363.6184102445
 22
31.3778792603
 13
363.6184102445
 23
31.3778792603
  0
SOLID
  8
0
 62
7
  6
CONTINUOUS
 10
363.6184102445
 20
31.3778792603
 11
363.5027853548
 21
31.3456149608
 12
363.1559103548
 22
31.3456149608
 13
363.1559103548
 23
31.3456149608
  0
SOLID
  8
0
 62
7
  6
CONTINUOUS
 10
363.1559103548
 20
31.2810878707
 11
363.1559103548
 21
31.3456149608
 12
363.5027853548
 22
31.3456149608
 13
363.5027853548
 23
31.3456149608
  0
SOLID
  8
0
 62
7
  6
CONTINUOUS
 10
363.5027853548
 20
31.3456149608
 11
363.4449727445
 21
31.2810878707
 12
363.1559103548
 22
31.2810878707
 13
363.1559103548
 23
31.2810878707
  0
SOLID
  8
0
 62
7
  6
CONTINUOUS
 10
368.3012227445
 20
31.3456149608
 11
368.9949727445
 21
31.4101420472
 12
368.7637229651
 22
31.3778792603
 13
368.7637229651
 23
31.3778792603
  0
SOLID
  8
0
 62
7
  6
CONTINUOUS
 10
368.7637229651
 20
31.3778792603
 11
368.6480977445
 21
31.3456149608
 12
368.3012227445
 22
31.3456149608
 13
368.3012227445
 23
31.3456149608
  0
SOLID
  8
0
 62
7
  6
CONTINUOUS
 10
368.3012227445
 20
31.2810878707
 11
368.3012227445
 21
31.3456149608
 12
368.6480977445
 22
31.3456149608
 13
368.6480977445
 23
31.3456149608
  0
SOLID
  8
0
 62
7
  6
CONTINUOUS
 10
368.6480977445
 20
31.3456149608
 11
368.5902854651
 21
31.2810878707
 12
368.3012227445
 22
31.2810878707
 13
368.3012227445
 23
31.2810878707
  0
SOLID
  8
0
 62
7
  6
CONTINUOUS
 10
368.4168479651
 20
31.1520336865
 11
368.3012227445
 21
31.2810878707
 12
368.5902854651
 22
31.2810878707
 13
368.5902854651
 23
31.2810878707
  0
SOLID
  8
0
 62
7
  6
CONTINUOUS
 10
358.8199727462
 20
31.2165607767
 11
359.3402852307
 21
31.345614957
 12
359.1668477307
 22
31.2488235635
 13
359.1668477307
 23
31.2488235635
  0
SOLID
  8
0
 62
7
  6
CONTINUOUS
 10
359.1668477307
 20
31.2488235635
 11
359.1090352445
 21
31.1842964734
 12
358.8199727462
 22
31.2165607767
 13
358.8199727462
 23
31.2165607767
  0
SOLID
  8
0
 62
7
  6
CONTINUOUS
 10
358.7621602445
 20
31.0229779898
 11
358.8199727462
 21
31.2165607767
 12
359.1090352445
 22
31.1842964734
 13
359.1090352445
 23
31.1842964734
  0
SOLID
  8
0
 62
7
  6
CONTINUOUS
 10
363.6184102445
 20
31.1520336865
 11
363.9652852445
 21
31.1842964611
 12
364.6012229651
 22
31.1842964611
 13
364.6012229651
 23
31.1842964611
  0
SOLID
  8
0
 62
7
  6
CONTINUOUS
 10
363.6184102445
 20
31.1520336865
 11
364.6012229651
 21
31.1842964611
 12
363.3871601343
 22
31.0875057863
 13
363.3871601343
 23
31.0875057863
  0
SOLID
  8
0
 62
7
  6
CONTINUOUS
 10
363.3871601343
 20
31.0875057863
 11
364.6012229651
 21
31.1842964611
 12
363.9652852445
 22
31.0552422808
 13
363.9652852445
 23
31.0552422808
  0
SOLID
  8
0
 62
7
  6
CONTINUOUS
 10
364.6012229651
 20
31.1842964611
 11
364.6012229651
 21
31.0552422808
 12
363.9652852445
 22
31.0552422808
 13
363.9652852445
 23
31.0552422808
  0
SOLID
  8
0
 62
7
  6
CONTINUOUS
 10
368.4168479651
 20
31.1520338754
 11
368.5902854651
 21
31.2810878668
 12
368.6480977445
 22
31.2165607767
 13
368.6480977445
 23
31.2165607767
  0
SOLID
  8
0
 62
7
  6
CONTINUOUS
 10
368.6480977445
 20
31.2165607767
 11
368.8215352445
 21
31.1520338754
 12
368.4168479651
 22
31.1520338754
 13
368.4168479651
 23
31.1520338754
  0
SOLID
  8
0
 62
7
  6
CONTINUOUS
 10
368.6480977445
 20
31.0552422931
 11
368.4168479651
 21
31.1520338754
 12
368.8215352445
 22
31.1520338754
 13
368.8215352445
 23
31.1520338754
  0
SOLID
  8
0
 62
7
  6
CONTINUOUS
 10
368.8215352445
 20
31.1520338754
 11
369.8043479651
 21
30.9907152029
 12
368.6480977445
 22
31.0552422931
 13
368.6480977445
 23
31.0552422931
  0
SOLID
  8
0
 62
7
  6
CONTINUOUS
 10
369.6309104651
 20
30.8939239876
 11
368.6480977445
 21
31.0552422931
 12
369.8043479651
 22
30.9907152029
 13
369.8043479651
 23
30.9907152029
  0
SOLID
  8
0
 62
7
  6
CONTINUOUS
 10
369.8043479651
 20
30.9907152029
 11
370.0355977445
 21
30.8939239876
 12
369.6309104651
 22
30.8939239876
 13
369.6309104651
 23
30.8939239876
  0
SOLID
  8
0
 62
7
  6
CONTINUOUS
 10
369.8043479651
 20
30.8293967193
 11
369.6309104651
 21
30.8939239876
 12
370.0355977445
 22
30.8939239876
 13
370.0355977445
 23
30.8939239876
  0
SOLID
  8
0
 62
7
  6
CONTINUOUS
 10
369.8043479651
 20
30.8293967193
 11
370.0355977445
 21
30.8939239876
 12
369.8621602445
 22
30.7648682694
 13
369.8621602445
 23
30.7648682694
  0
SOLID
  8
0
 62
7
  6
CONTINUOUS
 10
370.0355977445
 20
30.8939239876
 11
370.1512223035
 21
30.7648682694
 12
369.8621602445
 22
30.7648682694
 13
369.8621602445
 23
30.7648682694
  0
SOLID
  8
0
 62
7
  6
CONTINUOUS
 10
369.8043479651
 20
30.7003411846
 11
369.8621602445
 21
30.7648682694
 12
370.1512223035
 22
30.7648682694
 13
370.1512223035
 23
30.7648682694
  0
SOLID
  8
0
 62
7
  6
CONTINUOUS
 10
370.1512223035
 20
30.7648682694
 11
370.1512223035
 21
30.7003411846
 12
369.8043479651
 22
30.7003411846
 13
369.8043479651
 23
30.7003411846
  0
SOLID
  8
0
 62
7
  6
CONTINUOUS
 10
369.6887227445
 20
30.6680782357
 11
369.8043479651
 21
30.7003411846
 12
370.1512223035
 22
30.7003411846
 13
370.1512223035
 23
30.7003411846
  0
SOLID
  8
0
 62
7
  6
CONTINUOUS
 10
369.6887227445
 20
30.6680782357
 11
370.1512223035
 21
30.7003411846
 12
369.4574729651
 22
30.6358140998
 13
369.4574729651
 23
30.6358140998
  0
SOLID
  8
0
 62
7
  6
CONTINUOUS
 10
370.1512223035
 20
30.7003411846
 11
370.0355977445
 21
30.6035511455
 12
369.4574729651
 22
30.6358140998
 13
369.4574729651
 23
30.6358140998
  0
SOLID
  8
0
 62
7
  6
CONTINUOUS
 10
370.0355977445
 20
30.6035511455
 11
368.5902854651
 21
30.5712868422
 12
369.4574729651
 22
30.6358140998
 13
369.4574729651
 23
30.6358140998
  0
SOLID
  8
0
 62
7
  6
CONTINUOUS
 10
369.4574729651
 20
30.6358140998
 11
368.5902854651
 21
30.5712868422
 12
369.1105979651
 22
30.6358140998
 13
369.1105979651
 23
30.6358140998
  0
SOLID
  8
0
 62
7
  6
CONTINUOUS
 10
368.5902854651
 20
30.5712868422
 11
368.4168479651
 21
30.6358140998
 12
369.1105979651
 22
30.6358140998
 13
369.1105979651
 23
30.6358140998
  0
SOLID
  8
0
 62
7
  6
CONTINUOUS
 10
368.5902854651
 20
30.5712868422
 11
370.0355977445
 21
30.6035511455
 12
368.7637229651
 22
30.5390223111
 13
368.7637229651
 23
30.5390223111
  0
SOLID
  8
0
 62
7
  6
CONTINUOUS
 10
370.0355977445
 20
30.6035511455
 11
369.8043479651
 21
30.5390223111
 12
368.7637229651
 22
30.5390223111
 13
368.7637229651
 23
30.5390223111
  0
SOLID
  8
0
 62
7
  6
CONTINUOUS
 10
369.1105979651
 20
30.5067599302
 11
368.7637229651
 21
30.5390223111
 12
369.8043479651
 22
30.5390223111
 13
369.8043479651
 23
30.5390223111
  0
SOLID
  8
0
 62
7
  6
CONTINUOUS
 10
369.8043479651
 20
30.5390223111
 11
369.4574729651
 21
30.5067599302
 12
369.1105979651
 22
30.5067599302
 13
369.1105979651
 23
30.5067599302
  0
SOLID
  8
0
 62
7
  6
CONTINUOUS
 10
358.7621602445
 20
31.0229779898
 11
359.1090352445
 21
31.1842964734
 12
359.0512227376
 22
31.0552422931
 13
359.0512227376
 23
31.0552422931
  0
SOLID
  8
0
 62
7
  6
CONTINUOUS
 10
359.0512227376
 20
31.0552422931
 11
359.0512227376
 21
30.9584509954
 12
358.7621602445
 22
31.0229779898
 13
358.7621602445
 23
31.0229779898
  0
SOLID
  8
0
 62
7
  6
CONTINUOUS
 10
358.8199727462
 20
30.8293967193
 11
358.7621602445
 21
31.0229779898
 12
359.0512227376
 22
30.9584509954
 13
359.0512227376
 23
30.9584509954
  0
SOLID
  8
0
 62
7
  6
CONTINUOUS
 10
359.0512227376
 20
30.9584509954
 11
359.1668477307
 21
30.797132416
 12
358.8199727462
 22
30.8293967193
 13
358.8199727462
 23
30.8293967193
  0
SOLID
  8
0
 62
7
  6
CONTINUOUS
 10
358.9355977445
 20
30.7003413087
 11
358.8199727462
 21
30.8293967193
 12
359.1668477307
 22
30.797132416
 13
359.1668477307
 23
30.797132416
  0
SOLID
  8
0
 62
7
  6
CONTINUOUS
 10
359.1668477307
 20
30.797132416
 11
359.3402852307
 21
30.7003413087
 12
358.9355977445
 22
30.7003413087
 13
358.9355977445
 23
30.7003413087
  0
SOLID
  8
0
 62
7
  6
CONTINUOUS
 10
359.0512227376
 20
30.6358140759
 11
358.9355977445
 21
30.7003413087
 12
359.3402852307
 22
30.7003413087
 13
359.3402852307
 23
30.7003413087
  0
SOLID
  8
0
 62
7
  6
CONTINUOUS
 10
359.3402852307
 20
30.7003413087
 11
359.6871602721
 21
30.6358140759
 12
359.0512227376
 22
30.6358140759
 13
359.0512227376
 23
30.6358140759
  0
SOLID
  8
0
 62
7
  6
CONTINUOUS
 10
359.2246602583
 20
30.5712868422
 11
359.0512227376
 21
30.6358140759
 12
359.6871602721
 22
30.6358140759
 13
359.6871602721
 23
30.6358140759
  0
SOLID
  8
0
 62
7
  6
CONTINUOUS
 10
363.2715352445
 20
31.0229779808
 11
363.3871601343
 21
31.0875057863
 12
363.9652852445
 22
31.0552422931
 13
363.9652852445
 23
31.0552422931
  0
SOLID
  8
0
 62
7
  6
CONTINUOUS
 10
363.9652852445
 20
31.0552422931
 11
363.7340351343
 21
31.0229779808
 12
363.2715352445
 22
31.0229779808
 13
363.2715352445
 23
31.0229779808
  0
SOLID
  8
0
 62
7
  6
CONTINUOUS
 10
363.1559103548
 20
30.8939238094
 11
363.2715352445
 21
31.0229779808
 12
363.7340351343
 22
31.0229779808
 13
363.7340351343
 23
31.0229779808
  0
SOLID
  8
0
 62
7
  6
CONTINUOUS
 10
363.5027853548
 20
30.926187309
 11
363.1559103548
 21
30.8939238094
 12
363.6184102445
 22
30.9907152029
 13
363.6184102445
 23
30.9907152029
  0
SOLID
  8
0
 62
7
  6
CONTINUOUS
 10
363.1559103548
 20
30.8939238094
 11
363.7340351343
 21
31.0229779898
 12
363.6184102445
 22
30.9907152029
 13
363.6184102445
 23
30.9907152029
  0
SOLID
  8
0
 62
7
  6
CONTINUOUS
 10
363.5027853548
 20
30.926187309
 11
363.4449727445
 21
30.8293967193
 12
363.1559103548
 22
30.8939238094
 13
363.1559103548
 23
30.8939238094
  0
SOLID
  8
0
 62
7
  6
CONTINUOUS
 10
363.1559103548
 20
30.797132416
 11
363.1559103548
 21
30.8939238094
 12
363.4449727445
 22
30.8293967193
 13
363.4449727445
 23
30.8293967193
  0
SOLID
  8
0
 62
7
  6
CONTINUOUS
 10
363.4449727445
 20
30.8293967193
 11
363.4449727445
 21
30.7648681127
 12
363.1559103548
 22
30.797132416
 13
363.1559103548
 23
30.797132416
  0
SOLID
  8
0
 62
7
  6
CONTINUOUS
 10
363.2137226343
 20
30.6680782357
 11
363.1559103548
 21
30.797132416
 12
363.4449727445
 22
30.7648681127
 13
363.4449727445
 23
30.7648681127
  0
SOLID
  8
0
 62
7
  6
CONTINUOUS
 10
364.6012229651
 20
30.8616599362
 11
364.890285024
 21
30.7648681127
 12
364.543410024
 22
30.797132416
 13
364.543410024
 23
30.797132416
  0
SOLID
  8
0
 62
7
  6
CONTINUOUS
 10
364.369972524
 20
30.7003410226
 11
364.543410024
 21
30.797132416
 12
364.890285024
 22
30.7648681127
 13
364.890285024
 23
30.7648681127
  0
SOLID
  8
0
 62
7
  6
CONTINUOUS
 10
364.369972524
 20
30.7003410226
 11
364.890285024
 21
30.7648681127
 12
364.6012229651
 22
30.6680782357
 13
364.6012229651
 23
30.6680782357
  0
SOLID
  8
0
 62
7
  6
CONTINUOUS
 10
364.890285024
 20
30.7648681127
 11
364.9480979651
 21
30.6035511455
 12
364.6012229651
 22
30.6680782357
 13
364.6012229651
 23
30.6680782357
  0
SOLID
  8
0
 62
7
  6
CONTINUOUS
 10
364.6590352445
 20
30.5712868422
 11
364.6012229651
 21
30.6680782357
 12
364.9480979651
 22
30.6035511455
 13
364.9480979651
 23
30.6035511455
  0
SOLID
  8
0
 62
7
  6
CONTINUOUS
 10
364.6590352445
 20
30.5712868422
 11
364.9480979651
 21
30.6035511455
 12
364.716847524
 22
30.5067598731
 13
364.716847524
 23
30.5067598731
  0
SOLID
  8
0
 62
7
  6
CONTINUOUS
 10
364.9480979651
 20
30.6035511455
 11
365.0059102445
 21
30.5067598731
 12
364.716847524
 22
30.5067598731
 13
364.716847524
 23
30.5067598731
  0
SOLID
  8
0
 62
7
  6
CONTINUOUS
 10
360.2652852997
 20
30.7326051679
 11
360.3230977445
 21
30.8293966612
 12
360.6121602997
 22
30.8293966612
 13
360.6121602997
 23
30.8293966612
  0
SOLID
  8
0
 62
7
  6
CONTINUOUS
 10
360.6121602997
 20
30.8293966612
 11
360.5543476894
 21
30.7003410226
 12
360.2652852997
 22
30.7326051679
 13
360.2652852997
 23
30.7326051679
  0
SOLID
  8
0
 62
7
  6
CONTINUOUS
 10
360.091847717
 20
30.6680782357
 11
360.2652852997
 21
30.7326051679
 12
360.5543476894
 22
30.7003410226
 13
360.5543476894
 23
30.7003410226
  0
SOLID
  8
0
 62
7
  6
CONTINUOUS
 10
360.091847717
 20
30.6680782357
 11
360.5543476894
 21
30.7003410226
 12
359.6871602721
 22
30.6358139324
 13
359.6871602721
 23
30.6358139324
  0
SOLID
  8
0
 62
7
  6
CONTINUOUS
 10
360.5543476894
 20
30.7003410226
 11
360.3809101894
 21
30.6035511455
 12
359.6871602721
 22
30.6358139324
 13
359.6871602721
 23
30.6358139324
  0
SOLID
  8
0
 62
7
  6
CONTINUOUS
 10
359.2246602583
 20
30.5712868422
 11
359.6871602721
 21
30.6358139324
 12
360.3809101894
 22
30.6035511455
 13
360.3809101894
 23
30.6035511455
  0
SOLID
  8
0
 62
7
  6
CONTINUOUS
 10
359.2246602583
 20
30.5712868422
 11
360.3809101894
 21
30.6035511455
 12
359.3980977583
 22
30.5390224228
 13
359.3980977583
 23
30.5390224228
  0
SOLID
  8
0
 62
7
  6
CONTINUOUS
 10
360.3809101894
 20
30.6035511455
 11
360.1496602445
 21
30.5390224228
 12
359.3980977583
 22
30.5390224228
 13
359.3980977583
 23
30.5390224228
  0
SOLID
  8
0
 62
7
  6
CONTINUOUS
 10
359.744972717
 20
30.5067597521
 11
359.3980977583
 21
30.5390224228
 12
360.1496602445
 22
30.5390224228
 13
360.1496602445
 23
30.5390224228
  0
SOLID
  8
0
 62
7
  6
CONTINUOUS
 10
363.2137226343
 20
30.6680782357
 11
363.4449727445
 21
30.7648681127
 12
363.5027853548
 22
30.7003410226
 13
363.5027853548
 23
30.7003410226
  0
SOLID
  8
0
 62
7
  6
CONTINUOUS
 10
363.5027853548
 20
30.7003410226
 11
363.7340351343
 21
30.6358139324
 12
363.2137226343
 22
30.6680782357
 13
363.2137226343
 23
30.6680782357
  0
SOLID
  8
0
 62
7
  6
CONTINUOUS
 10
363.3871601343
 20
30.5712868422
 11
363.2137226343
 21
30.6680782357
 12
363.7340351343
 22
30.6358139324
 13
363.7340351343
 23
30.6358139324
  0
SOLID
  8
0
 62
7
  6
CONTINUOUS
 10
364.0809101343
 20
30.6358139363
 11
364.369972524
 21
30.7003410226
 12
364.6012229651
 22
30.6680782357
 13
364.6012229651
 23
30.6680782357
  0
SOLID
  8
0
 62
7
  6
CONTINUOUS
 10
364.6012229651
 20
30.6680782357
 11
364.543410024
 21
30.6035511455
 12
364.0809101343
 22
30.6358139363
 13
364.0809101343
 23
30.6358139363
  0
SOLID
  8
0
 62
7
  6
CONTINUOUS
 10
364.543410024
 20
30.6035511455
 11
363.3871601343
 21
30.5712868422
 12
364.0809101343
 22
30.6358139363
 13
364.0809101343
 23
30.6358139363
  0
SOLID
  8
0
 62
7
  6
CONTINUOUS
 10
363.3871601343
 20
30.5712868422
 11
363.7340351343
 21
30.6358139363
 12
364.0809101343
 22
30.6358139363
 13
364.0809101343
 23
30.6358139363
  0
SOLID
  8
0
 62
7
  6
CONTINUOUS
 10
363.3871601343
 20
30.5712868422
 11
364.543410024
 21
30.6035511455
 12
363.5027853548
 22
30.5390225267
 13
363.5027853548
 23
30.5390225267
  0
SOLID
  8
0
 62
7
  6
CONTINUOUS
 10
364.543410024
 20
30.6035511455
 11
364.369972524
 21
30.5390225267
 12
363.5027853548
 22
30.5390225267
 13
363.5027853548
 23
30.5390225267
  0
SOLID
  8
0
 62
7
  6
CONTINUOUS
 10
363.7340351343
 20
30.5067596914
 11
363.5027853548
 21
30.5390225267
 12
364.369972524
 22
30.5390225267
 13
364.369972524
 23
30.5390225267
  0
SOLID
  8
0
 62
7
  6
CONTINUOUS
 10
364.369972524
 20
30.5390225267
 11
364.0809101343
 21
30.5067596914
 12
363.7340351343
 22
30.5067596914
 13
363.7340351343
 23
30.5067596914
  0
SOLID
  8
0
 62
7
  6
CONTINUOUS
 10
368.7637229651
 20
30.6680782357
 11
368.4168479651
 21
30.6358138717
 12
368.6480977445
 22
30.7003410226
 13
368.6480977445
 23
30.7003410226
  0
SOLID
  8
0
 62
7
  6
CONTINUOUS
 10
368.6480977445
 20
30.7003410226
 11
368.4168479651
 21
30.6358138717
 12
368.5902854651
 22
30.7648680521
 13
368.5902854651
 23
30.7648680521
  0
SOLID
  8
0
 62
7
  6
CONTINUOUS
 10
368.4168479651
 20
30.6358138717
 11
368.3012227445
 21
30.7648680521
 12
368.5902854651
 22
30.7648680521
 13
368.5902854651
 23
30.7648680521
  0
SOLID
  8
0
 62
7
  6
CONTINUOUS
 10
368.7637229651
 20
30.6680782357
 11
369.1105979651
 21
30.6358138717
 12
368.4168479651
 22
30.6358138717
 13
368.4168479651
 23
30.6358138717
  0
SOLID
  8
0
 62
7
  6
CONTINUOUS
 10
365.4684104651
 20
30.5067597521
 11
365.4684104651
 21
31.5391977439
 12
365.757472524
 22
30.5067597521
 13
365.757472524
 23
31.5391977439
  0
ENDBLK
  8
0
  6
BYBLOCK
 62
0
  0
BLOCK
  8
0
 62
2
  6
CONTINUOUS
  2
SYMBOL_0_BL0
 70
64
 10
240.8592468615
 20
19.762288695
  0
TEXT
  8
0
 62
7
  6
CONTINUOUS
 10
227.1239507038
 20
19.1357028027
  7
TEXTSTYLE_3
 40
2.7338706658
  1
Ammeraal Beltech
 41
1.0
 51
15.0
 72
0
  0
TEXT
  8
0
 62
7
  6
CONTINUOUS
 10
237.9247515296
 20
16.8621661299
  7
TEXTSTYLE_4
 40
1.0935482663
  1
Innovation & Service in Belting
 41
1.0
 72
0
  0
LINE
  8
0
 62
7
  6
CONTINUOUS
 10
221.0994100525
 20
19.9022961113
 11
221.8775620458
 21
23.5632134089
  0
LINE
  8
0
 62
7
  6
CONTINUOUS
 10
231.9727303357
 20
27.2266073205
 11
222.3653797889
 21
24.1049898993
  0
LINE
  8
0
 62
7
  6
CONTINUOUS
 10
221.3246933848
 20
19.2089453082
 11
228.8317686459
 21
12.4495443822
  0
LINE
  8
0
 62
7
  6
CONTINUOUS
 10
221.5872277955
 20
20.4440726016
 11
232.3954971607
 21
23.9558922005
  0
LINE
  8
0
 62
7
  6
CONTINUOUS
 10
232.3912920235
 20
13.6061036368
 11
223.9458323548
 21
21.2104296785
  0
LINE
  8
0
 62
7
  6
CONTINUOUS
 10
232.9111147433
 20
26.3816822048
 11
231.9345552061
 21
21.7873308023
  0
LINE
  8
0
 62
7
  6
CONTINUOUS
 10
231.2347532584
 20
18.4950214885
 11
230.5483050469
 21
15.2655365641
  0
LINE
  8
0
 62
7
  6
CONTINUOUS
 10
233.5922108419
 20
13.9963058145
 11
234.5484423775
 21
18.4950214885
  0
LINE
  8
0
 62
7
  6
CONTINUOUS
 10
235.2482443252
 20
21.7873308023
 11
235.6924861276
 21
23.8773241617
  0
LINE
  8
0
 62
7
  6
CONTINUOUS
 10
229.5448697213
 20
12.2979700695
 11
233.1043930989
 21
13.4545293241
  0
LINE
  8
0
 62
7
  6
CONTINUOUS
 10
232.685831411
 20
27.0750330078
 11
235.4672027953
 21
24.5706749648
  0
ARC
  8
0
 62
7
  6
CONTINUOUS
 10
222.5906631212
 20
23.4116390962
 40
0.7290321776
 50
108.0
 51
168.0
  0
ARC
  8
0
 62
7
  6
CONTINUOUS
 10
232.198013668
 20
26.5332565175
 40
0.7290321776
 50
348.0
 51
108.0
  0
ARC
  8
0
 62
7
  6
CONTINUOUS
 10
234.9793850522
 20
24.0288984744
 40
0.7290321776
 50
348.0
 51
48.0
  0
ARC
  8
0
 62
7
  6
CONTINUOUS
 10
229.319586389
 20
12.9913208726
 40
0.7290321776
 50
228.0
 51
288.0
  0
ARC
  8
0
 62
7
  6
CONTINUOUS
 10
221.8125111278
 20
19.7507217986
 40
0.7290321776
 50
108.0
 51
228.0
  0
ARC
  8
0
 62
7
  6
CONTINUOUS
 10
232.8791097665
 20
14.1478801272
 40
0.7290321776
 50
228.0
 51
348.0
  0
ENDBLK
  8
0
  6
BYBLOCK
 62
0
  0
ENDSEC
  0
SECTION
  2
ENTITIES
  0
TEXT
  8
0
 62
5
  6
CONTINUOUS
 10
304.937007874
 20
25.636
  7
TEXTSTYLE_2
 40
2.8
  1
Scale :
 41
0.6
 51
0.000019
 72
0
  0
TEXT
  8
0
 62
5
  6
CONTINUOUS
 10
324.937007874
 20
25.636
  7
TEXTSTYLE_2
 40
2.8
  1
Belt type:
 41
0.6
 51
0.000019
 72
0
  0
INSERT
  8
0
 62
2
  6
CONTINUOUS
  2
SYMBOL_0_BL0
 10
240.8592468615
 20
19.762288695
  0
INSERT
  8
0
 62
2
  6
CONTINUOUS
  2
SYMBOL_5_BL1
 10
382.7840918555
 20
35.5067593403
  0
LINE
  8
0
 62
2
  6
CONTINUOUS
 10
218.937007874
 20
30.0
 11
408.937007874
 21
30.0
  0
LINE
  8
0
 62
2
  6
CONTINUOUS
 10
218.937007874
 20
30.0
 11
218.937007874
 21
10.0
  0
LINE
  8
0
 62
2
  6
CONTINUOUS
 10
218.937007874
 20
10.0
 11
408.937007874
 21
10.0
  0
LINE
  8
0
 62
2
  6
CONTINUOUS
 10
303.937007874
 20
30.0
 11
303.937007874
 21
10.0
  0
LINE
  8
0
 62
2
  6
CONTINUOUS
 10
323.937007874
 20
30.0
 11
323.937007874
 21
10.0
  0
LINE
  8
0
 62
2
  6
CONTINUOUS
 10
408.937007874
 20
30.0
 11
408.937007874
 21
10.0
  0
TEXT
  8
0
 62
5
  6
CONTINUOUS
 10
221.937007874
 20
23.303
  7
TEXTSTYLE_5
 40
1.52
  1
                                                                     Ammeraal Beltech Modular A/S
 41
1.0
 72
0
  0
TEXT
  8
0
 62
5
  6
CONTINUOUS
 10
221.937007874
 20
20.595
  7
TEXTSTYLE_5
 40
1.5
  1
                                                                      Hjulmagervej 21, 7100 Vejle,  DK
 41
1.0
 72
0
  0
TEXT
  8
0
 62
5
  6
CONTINUOUS
 10
221.937007874
 20
17.881
  7
TEXTSTYLE_5
 40
1.495
  1
                                                                      tel: 
 41
1.0
 72
0
  0
TEXT
  8
0
 62
5
  6
CONTINUOUS
 10
266.9239544389
 20
17.881
  7
TEXTSTYLE_5
 40
1.51
  1
+45 75723100     fax: +45 75723348
 41
1.0
 72
0
  0
TEXT
  8
0
 62
5
  6
CONTINUOUS
 10
221.937007874
 20
15.177
  7
TEXTSTYLE_5
 40
1.5
  1
                                                                      admin@unichains.dk  www.unichains.com
 41
1.0
 72
0
  0
TEXT
  8
0
 62
5
  6
CONTINUOUS
 10
308.687007874
 20
13.75
  7
TEXTSTYLE_6
 40
5.0
  1
1:1
 41
0.7
 72
1
 11
313.937007874
 21
13.75
  0
TEXT
  8
0
 62
5
  6
CONTINUOUS
 10
326.937007874
 20
13.75
  7
TEXTSTYLE_7
 40
7.5
  1
uni MPB K600 Product Support Flat 6" K600
 41
0.2510670732
 72
0
  0
LINE
  8
0
 62
7
  6
CONTINUOUS
 10
0.0
 20
0.0
 11
0.0
 21
297.0
  0
LINE
  8
0
 62
7
  6
CONTINUOUS
 10
8.937007874
 20
10.0
 11
8.937007874
 21
287.0
  0
LINE
  8
0
 62
7
  6
CONTINUOUS
 10
0.0
 20
0.0
 11
420.0
 21
0.0
  0
LINE
  8
0
 62
7
  6
CONTINUOUS
 10
408.937007874
 20
10.0
 11
8.937007874
 21
10.0
  0
LINE
  8
0
 62
7
  6
CONTINUOUS
 10
218.937007874
 20
30.0
 11
408.937007874
 21
30.0
  0
LINE
  8
0
 62
7
  6
CONTINUOUS
 10
210.0
 20
297.0
 11
210.0
 21
292.0
  0
LINE
  8
0
 62
7
  6
CONTINUOUS
 10
210.0
 20
0.0
 11
210.0
 21
5.0
  0
LINE
  8
0
 62
7
  6
CONTINUOUS
 10
8.937007874
 20
287.0
 11
408.937007874
 21
287.0
  0
LINE
  8
0
 62
7
  6
CONTINUOUS
 10
0.0
 20
297.0
 11
420.0
 21
297.0
  0
LINE
  8
0
 62
7
  6
CONTINUOUS
 10
408.937007874
 20
287.0
 11
408.937007874
 21
10.0
  0
LINE
  8
0
 62
7
  6
CONTINUOUS
 10
420.0
 20
0.0
 11
420.0
 21
297.0
  0
POLYLINE
  8
0
 62
7
  6
CONTINUOUS
 66
1
 70
0
  0
VERTEX
  8
0
 62
7
  6
CONTINUOUS
 10
35.5032358771
 20
28.3893012829
  0
VERTEX
  8
0
 62
7
  6
CONTINUOUS
 10
35.5071596155
 20
28.349880151
  0
VERTEX
  8
0
 62
7
  6
CONTINUOUS
 10
35.5188435016
 20
28.3118470452
  0
VERTEX
  8
0
 62
7
  6
CONTINUOUS
 10
35.5378251962
 20
28.2768794821
  0
VERTEX
  8
0
 62
7
  6
CONTINUOUS
 10
35.5633534242
 20
28.2463614857
  0
VERTEX
  8
0
 62
7
  6
CONTINUOUS
 10
35.594417732
 20
28.2215009978
  0
VERTEX
  8
0
 62
7
  6
CONTINUOUS
 10
35.6297884611
 20
28.2032820018
  0
VERTEX
  8
0
 62
7
  6
CONTINUOUS
 10
35.6680654134
 20
28.1924255129
  0
VERTEX
  8
0
 62
7
  6
CONTINUOUS
 10
35.7032275276
 20
28.1893101969
  0
SEQEND
  0
LINE
  8
0
 62
7
  6
CONTINUOUS
 10
35.503236246
 20
28.3892429763
 11
35.503236246
 21
82.9675503627
  0
LINE
  8
0
 62
7
  6
CONTINUOUS
 10
35.753236246
 20
74.7826187922
 11
35.753236246
 21
49.3960015836
  0
POLYLINE
  8
0
 62
7
  6
CONTINUOUS
 66
1
 70
0
  0
VERTEX
  8
0
 62
7
  6
CONTINUOUS
 10
44.9487670721
 20
94.5280769197
  0
VERTEX
  8
0
 62
7
  6
CONTINUOUS
 10
44.7689837969
 20
94.1271276979
  0
VERTEX
  8
0
 62
7
  6
CONTINUOUS
 10
44.5939192588
 20
93.6615146571
  0
VERTEX
  8
0
 62
7
  6
CONTINUOUS
 10
44.4351508568
 20
93.1598901766
  0
VERTEX
  8
0
 62
7
  6
CONTINUOUS
 10
44.2924461111
 20
92.6265539745
  0
VERTEX
  8
0
 62
7
  6
CONTINUOUS
 10
44.1657578775
 20
92.0661629527
  0
VERTEX
  8
0
 62
7
  6
CONTINUOUS
 10
44.0550703465
 20
91.4835521472
  0
VERTEX
  8
0
 62
7
  6
CONTINUOUS
 10
43.9603414951
 20
90.8837272203
  0
VERTEX
  8
0
 62
7
  6
CONTINUOUS
 10
43.8884636814
 20
90.3319340989
  0
SEQEND
  0
POLYLINE
  8
0
 62
7
  6
CONTINUOUS
 66
1
 70
0
  0
VERTEX
  8
0
 62
7
  6
CONTINUOUS
 10
35.503236246
 20
33.8520580046
  0
VERTEX
  8
0
 62
7
  6
CONTINUOUS
 10
35.5081611168
 20
33.8442952643
  0
VERTEX
  8
0
 62
7
  6
CONTINUOUS
 10
35.5227456316
 20
33.836915137
  0
VERTEX
  8
0
 62
7
  6
CONTINUOUS
 10
35.546354093
 20
33.8302809439
  0
VERTEX
  8
0
 62
7
  6
CONTINUOUS
 10
35.5778925425
 20
33.8247248749
  0
VERTEX
  8
0
 62
7
  6
CONTINUOUS
 10
35.6158437269
 20
33.8205306916
  0
VERTEX
  8
0
 62
7
  6
CONTINUOUS
 10
35.6583348516
 20
33.8179177809
  0
VERTEX
  8
0
 62
7
  6
CONTINUOUS
 10
35.703236246
 20
33.8170288646
  0
SEQEND
  0
POLYLINE
  8
0
 62
7
  6
CONTINUOUS
 66
1
 70
0
  0
VERTEX
  8
0
 62
7
  6
CONTINUOUS
 10
43.7150696576
 20
39.6788516862
  0
VERTEX
  8
0
 62
7
  6
CONTINUOUS
 10
43.7111327669
 20
39.9692704341
  0
VERTEX
  8
0
 62
7
  6
CONTINUOUS
 10
43.7109969116
 20
40.0447926713
  0
VERTEX
  8
0
 62
7
  6
CONTINUOUS
 10
43.712098562
 20
40.1189932503
  0
VERTEX
  8
0
 62
7
  6
CONTINUOUS
 10
43.7145605877
 20
40.1917199793
  0
VERTEX
  8
0
 62
7
  6
CONTINUOUS
 10
43.7185162601
 20
40.262858668
  0
VERTEX
  8
0
 62
7
  6
CONTINUOUS
 10
43.7240806466
 20
40.3323309561
  0
VERTEX
  8
0
 62
7
  6
CONTINUOUS
 10
43.7313417143
 20
40.3999354466
  0
VERTEX
  8
0
 62
7
  6
CONTINUOUS
 10
43.740384385
 20
40.4653471826
  0
VERTEX
  8
0
 62
7
  6
CONTINUOUS
 10
43.7512972363
 20
40.528549379
  0
VERTEX
  8
0
 62
7
  6
CONTINUOUS
 10
43.7640999522
 20
40.5893568033
  0
VERTEX
  8
0
 62
7
  6
CONTINUOUS
 10
43.7789247337
 20
40.6475590488
  0
VERTEX
  8
0
 62
7
  6
CONTINUOUS
 10
43.7958852923
 20
40.7026334909
  0
VERTEX
  8
0
 62
7
  6
CONTINUOUS
 10
43.8155586774
 20
40.7543958865
  0
VERTEX
  8
0
 62
7
  6
CONTINUOUS
 10
43.8384015338
 20
40.803316881
  0
VERTEX
  8
0
 62
7
  6
CONTINUOUS
 10
43.8642228175
 20
40.8484966302
  0
VERTEX
  8
0
 62
7
  6
CONTINUOUS
 10
43.8929731897
 20
40.8894886059
  0
VERTEX
  8
0
 62
7
  6
CONTINUOUS
 10
43.9247094219
 20
40.9259398927
  0
VERTEX
  8
0
 62
7
  6
CONTINUOUS
 10
43.9594807408
 20
40.9572899188
  0
VERTEX
  8
0
 62
7
  6
CONTINUOUS
 10
43.996877827
 20
40.982498222
  0
VERTEX
  8
0
 62
7
  6
CONTINUOUS
 10
44.0364723404
 20
41.0004393883
  0
VERTEX
  8
0
 62
7
  6
CONTINUOUS
 10
44.0765983901
 20
41.009540243
  0
VERTEX
  8
0
 62
7
  6
CONTINUOUS
 10
44.0934990942
 20
41.0105010935
  0
SEQEND
  0
LINE
  8
0
 62
7
  6
CONTINUOUS
 10
43.7175117122
 20
39.3958375172
 11
43.7150696576
 21
39.6788516862
  0
LINE
  8
0
 62
7
  6
CONTINUOUS
 10
43.7175117122
 20
39.3958375172
 11
43.7180680891
 21
33.8477365766
  0
LINE
  8
0
 62
7
  6
CONTINUOUS
 10
43.888463711
 20
90.3319282332
 11
43.8884044058
 21
90.3309082934
  0
LINE
  8
0
 62
7
  6
CONTINUOUS
 10
44.9606084678
 20
94.6237421695
 11
44.9447036832
 21
94.5190148275
  0
POLYLINE
  8
0
 62
7
  6
CONTINUOUS
 66
1
 70
0
  0
VERTEX
  8
0
 62
7
  6
CONTINUOUS
 10
43.8913559696
 20
84.5037364195
  0
VERTEX
  8
0
 62
7
  6
CONTINUOUS
 10
43.8952993506
 20
84.2133949977
  0
VERTEX
  8
0
 62
7
  6
CONTINUOUS
 10
43.8954972263
 20
84.137699301
  0
VERTEX
  8
0
 62
7
  6
CONTINUOUS
 10
43.8944599278
 20
84.0633293578
  0
VERTEX
  8
0
 62
7
  6
CONTINUOUS
 10
43.8920657414
 20
83.9904386879
  0
VERTEX
  8
0
 62
7
  6
CONTINUOUS
 10
43.8881816187
 20
83.9191470358
  0
VERTEX
  8
0
 62
7
  6
CONTINUOUS
 10
43.8826914243
 20
83.8495323852
  0
VERTEX
  8
0
 62
7
  6
CONTINUOUS
 10
43.8755061762
 20
83.7817864148
  0
VERTEX
  8
0
 62
7
  6
CONTINUOUS
 10
43.8665434459
 20
83.7162230417
  0
VERTEX
  8
0
 62
7
  6
CONTINUOUS
 10
43.8557010999
 20
83.6528532527
  0
VERTEX
  8
0
 62
7
  6
CONTINUOUS
 10
43.8429652218
 20
83.591832421
  0
VERTEX
  8
0
 62
7
  6
CONTINUOUS
 10
43.8282609724
 20
83.5336166357
  0
VERTEX
  8
0
 62
7
  6
CONTINUOUS
 10
43.8113855446
 20
83.4783508406
  0
VERTEX
  8
0
 62
7
  6
CONTINUOUS
 10
43.7918526398
 20
83.4264639687
  0
VERTEX
  8
0
 62
7
  6
CONTINUOUS
 10
43.7691508667
 20
83.3774057743
  0
VERTEX
  8
0
 62
7
  6
CONTINUOUS
 10
43.7434631829
 20
83.3320530558
  0
VERTEX
  8
0
 62
7
  6
CONTINUOUS
 10
43.7148356539
 20
83.2908567247
  0
VERTEX
  8
0
 62
7
  6
CONTINUOUS
 10
43.6832150802
 20
83.2541744713
  0
VERTEX
  8
0
 62
7
  6
CONTINUOUS
 10
43.6485629689
 20
83.222575169
  0
VERTEX
  8
0
 62
7
  6
CONTINUOUS
 10
43.611267421
 20
83.1970756425
  0
VERTEX
  8
0
 62
7
  6
CONTINUOUS
 10
43.5717355585
 20
83.1787834235
  0
VERTEX
  8
0
 62
7
  6
CONTINUOUS
 10
43.531605932
 20
83.1692779467
  0
VERTEX
  8
0
 62
7
  6
CONTINUOUS
 10
43.5127996247
 20
83.1681187244
  0
SEQEND
  0
LINE
  8
0
 62
7
  6
CONTINUOUS
 10
43.8889399951
 20
84.7867581563
 11
43.8913559696
 21
84.5037364195
  0
LINE
  8
0
 62
7
  6
CONTINUOUS
 10
43.8884044028
 20
90.3308462819
 11
43.8889399951
 21
84.7867581563
  0
LINE
  8
0
 62
7
  6
CONTINUOUS
 10
43.718068089
 20
33.8477044636
 11
43.718008763
 21
33.8466964265
  0
LINE
  8
0
 62
7
  6
CONTINUOUS
 10
42.6458641598
 20
29.5548790762
 11
42.6617665341
 21
29.6596046212
  0
LINE
  8
0
 62
7
  6
CONTINUOUS
 10
53.1680393457
 20
30.0537922148
 11
53.3487660289
 21
29.6505455822
  0
POLYLINE
  8
0
 62
7
  6
CONTINUOUS
 66
1
 70
0
  0
VERTEX
  8
0
 62
7
  6
CONTINUOUS
 10
53.3606073398
 20
29.5548854414
  0
VERTEX
  8
0
 62
7
  6
CONTINUOUS
 10
53.3864132751
 20
29.398007303
  0
VERTEX
  8
0
 62
7
  6
CONTINUOUS
 10
53.4154061926
 20
29.2412823579
  0
VERTEX
  8
0
 62
7
  6
CONTINUOUS
 10
53.4443617231
 20
29.1037561486
  0
VERTEX
  8
0
 62
7
  6
CONTINUOUS
 10
53.4736226735
 20
28.9824592051
  0
VERTEX
  8
0
 62
7
  6
CONTINUOUS
 10
53.5037452636
 20
28.8744671755
  0
VERTEX
  8
0
 62
7
  6
CONTINUOUS
 10
53.5356588948
 20
28.7767262723
  0
VERTEX
  8
0
 62
7
  6
CONTINUOUS
 10
53.5709567869
 20
28.6858894057
  0
VERTEX
  8
0
 62
7
  6
CONTINUOUS
 10
53.6121822579
 20
28.5986828179
  0
VERTEX
  8
0
 62
7
  6
CONTINUOUS
 10
53.6630382805
 20
28.5126684921
  0
VERTEX
  8
0
 62
7
  6
CONTINUOUS
 10
53.7286097385
 20
28.4269450709
  0
VERTEX
  8
0
 62
7
  6
CONTINUOUS
 10
53.8137764297
 20
28.344454034
  0
VERTEX
  8
0
 62
7
  6
CONTINUOUS
 10
53.9202326818
 20
28.2724970369
  0
VERTEX
  8
0
 62
7
  6
CONTINUOUS
 10
54.0452441158
 20
28.21960694
  0
VERTEX
  8
0
 62
7
  6
CONTINUOUS
 10
54.1819833719
 20
28.1923642989
  0
VERTEX
  8
0
 62
7
  6
CONTINUOUS
 10
54.2470478539
 20
28.1893102751
  0
SEQEND
  0
LINE
  8
0
 62
7
  6
CONTINUOUS
 10
53.3447059578
 20
29.6596046209
 11
53.3606083321
 21
29.5548790762
  0
POLYLINE
  8
0
 62
7
  6
CONTINUOUS
 66
1
 70
0
  0
VERTEX
  8
0
 62
7
  6
CONTINUOUS
 10
52.2884636781
 20
33.8466863051
  0
VERTEX
  8
0
 62
7
  6
CONTINUOUS
 10
52.3598409331
 20
33.2983949227
  0
VERTEX
  8
0
 62
7
  6
CONTINUOUS
 10
52.4544903945
 20
32.6984135073
  0
VERTEX
  8
0
 62
7
  6
CONTINUOUS
 10
52.5651009993
 20
32.1156265428
  0
VERTEX
  8
0
 62
7
  6
CONTINUOUS
 10
52.6917148855
 20
31.5550408765
  0
VERTEX
  8
0
 62
7
  6
CONTINUOUS
 10
52.8343476399
 20
31.0214931982
  0
VERTEX
  8
0
 62
7
  6
CONTINUOUS
 10
52.9930455641
 20
30.5196428201
  0
VERTEX
  8
0
 62
7
  6
CONTINUOUS
 10
53.1680393457
 20
30.0537922148
  0
SEQEND
  0
LINE
  8
0
 62
7
  6
CONTINUOUS
 10
52.2884637077
 20
33.8466921708
 11
52.2884044058
 21
33.8477120824
  0
LINE
  8
0
 62
7
  6
CONTINUOUS
 10
52.1180087809
 20
90.3319282332
 11
52.1180680861
 21
90.3309082934
  0
POLYLINE
  8
0
 62
7
  6
CONTINUOUS
 66
1
 70
0
  0
VERTEX
  8
0
 62
7
  6
CONTINUOUS
 10
52.1111335159
 20
84.2093635026
  0
VERTEX
  8
0
 62
7
  6
CONTINUOUS
 10
52.1150700606
 20
84.4997725331
  0
VERTEX
  8
0
 62
7
  6
CONTINUOUS
 10
52.1175118044
 20
84.7827847345
  0
VERTEX
  8
0
 62
7
  6
CONTINUOUS
 10
52.1180680891
 20
90.3308462819
  0
SEQEND
  0
POLYLINE
  8
0
 62
7
  6
CONTINUOUS
 66
1
 70
0
  0
VERTEX
  8
0
 62
7
  6
CONTINUOUS
 10
52.2952984563
 20
39.9651373139
  0
VERTEX
  8
0
 62
7
  6
CONTINUOUS
 10
52.2913559698
 20
39.6748839056
  0
VERTEX
  8
0
 62
7
  6
CONTINUOUS
 10
52.2889399953
 20
39.3918622451
  0
VERTEX
  8
0
 62
7
  6
CONTINUOUS
 10
52.2884044028
 20
33.8477740939
  0
SEQEND
  0
POLYLINE
  8
0
 62
7
  6
CONTINUOUS
 66
1
 70
0
  0
VERTEX
  8
0
 62
7
  6
CONTINUOUS
 10
61.7487670721
 20
94.5280769197
  0
VERTEX
  8
0
 62
7
  6
CONTINUOUS
 10
61.5689837969
 20
94.1271276979
  0
VERTEX
  8
0
 62
7
  6
CONTINUOUS
 10
61.3939192588
 20
93.6615146571
  0
VERTEX
  8
0
 62
7
  6
CONTINUOUS
 10
61.2351508568
 20
93.1598901766
  0
VERTEX
  8
0
 62
7
  6
CONTINUOUS
 10
61.0924461111
 20
92.6265539745
  0
VERTEX
  8
0
 62
7
  6
CONTINUOUS
 10
60.9657578775
 20
92.0661629527
  0
VERTEX
  8
0
 62
7
  6
CONTINUOUS
 10
60.8550703465
 20
91.4835521472
  0
VERTEX
  8
0
 62
7
  6
CONTINUOUS
 10
60.7603414951
 20
90.8837272203
  0
VERTEX
  8
0
 62
7
  6
CONTINUOUS
 10
60.6884636814
 20
90.3319340989
  0
SEQEND
  0
POLYLINE
  8
0
 62
7
  6
CONTINUOUS
 66
1
 70
0
  0
VERTEX
  8
0
 62
7
  6
CONTINUOUS
 10
60.6913559696
 20
84.5037364195
  0
VERTEX
  8
0
 62
7
  6
CONTINUOUS
 10
60.6952993506
 20
84.2133949977
  0
VERTEX
  8
0
 62
7
  6
CONTINUOUS
 10
60.6954972263
 20
84.137699301
  0
VERTEX
  8
0
 62
7
  6
CONTINUOUS
 10
60.6944599278
 20
84.0633293578
  0
VERTEX
  8
0
 62
7
  6
CONTINUOUS
 10
60.6920657414
 20
83.9904386879
  0
VERTEX
  8
0
 62
7
  6
CONTINUOUS
 10
60.6881816187
 20
83.9191470358
  0
VERTEX
  8
0
 62
7
  6
CONTINUOUS
 10
60.6826914243
 20
83.8495323852
  0
VERTEX
  8
0
 62
7
  6
CONTINUOUS
 10
60.6755061762
 20
83.7817864148
  0
VERTEX
  8
0
 62
7
  6
CONTINUOUS
 10
60.6665434459
 20
83.7162230417
  0
VERTEX
  8
0
 62
7
  6
CONTINUOUS
 10
60.6557010999
 20
83.6528532527
  0
VERTEX
  8
0
 62
7
  6
CONTINUOUS
 10
60.6429652218
 20
83.591832421
  0
VERTEX
  8
0
 62
7
  6
CONTINUOUS
 10
60.6282609724
 20
83.5336166357
  0
VERTEX
  8
0
 62
7
  6
CONTINUOUS
 10
60.6113855446
 20
83.4783508406
  0
VERTEX
  8
0
 62
7
  6
CONTINUOUS
 10
60.5918526398
 20
83.4264639687
  0
VERTEX
  8
0
 62
7
  6
CONTINUOUS
 10
60.5691508667
 20
83.3774057743
  0
VERTEX
  8
0
 62
7
  6
CONTINUOUS
 10
60.5434631829
 20
83.3320530558
  0
VERTEX
  8
0
 62
7
  6
CONTINUOUS
 10
60.5148356539
 20
83.2908567247
  0
VERTEX
  8
0
 62
7
  6
CONTINUOUS
 10
60.4832150802
 20
83.2541744713
  0
VERTEX
  8
0
 62
7
  6
CONTINUOUS
 10
60.4485629689
 20
83.222575169
  0
VERTEX
  8
0
 62
7
  6
CONTINUOUS
 10
60.411267421
 20
83.1970756425
  0
VERTEX
  8
0
 62
7
  6
CONTINUOUS
 10
60.3717355585
 20
83.1787834235
  0
VERTEX
  8
0
 62
7
  6
CONTINUOUS
 10
60.331605932
 20
83.1692779467
  0
VERTEX
  8
0
 62
7
  6
CONTINUOUS
 10
60.3127996247
 20
83.1681187244
  0
SEQEND
  0
POLYLINE
  8
0
 62
7
  6
CONTINUOUS
 66
1
 70
0
  0
VERTEX
  8
0
 62
7
  6
CONTINUOUS
 10
60.5150696576
 20
39.6788516862
  0
VERTEX
  8
0
 62
7
  6
CONTINUOUS
 10
60.5111327669
 20
39.9692704341
  0
VERTEX
  8
0
 62
7
  6
CONTINUOUS
 10
60.5109969116
 20
40.0447926713
  0
VERTEX
  8
0
 62
7
  6
CONTINUOUS
 10
60.512098562
 20
40.1189932503
  0
VERTEX
  8
0
 62
7
  6
CONTINUOUS
 10
60.5145605877
 20
40.1917199793
  0
VERTEX
  8
0
 62
7
  6
CONTINUOUS
 10
60.5185162601
 20
40.262858668
  0
VERTEX
  8
0
 62
7
  6
CONTINUOUS
 10
60.5240806466
 20
40.3323309561
  0
VERTEX
  8
0
 62
7
  6
CONTINUOUS
 10
60.5313417143
 20
40.3999354466
  0
VERTEX
  8
0
 62
7
  6
CONTINUOUS
 10
60.540384385
 20
40.4653471826
  0
VERTEX
  8
0
 62
7
  6
CONTINUOUS
 10
60.5512972363
 20
40.528549379
  0
VERTEX
  8
0
 62
7
  6
CONTINUOUS
 10
60.5640999522
 20
40.5893568033
  0
VERTEX
  8
0
 62
7
  6
CONTINUOUS
 10
60.5789247337
 20
40.6475590488
  0
VERTEX
  8
0
 62
7
  6
CONTINUOUS
 10
60.5958852923
 20
40.7026334909
  0
VERTEX
  8
0
 62
7
  6
CONTINUOUS
 10
60.6155586774
 20
40.7543958865
  0
VERTEX
  8
0
 62
7
  6
CONTINUOUS
 10
60.6384015338
 20
40.803316881
  0
VERTEX
  8
0
 62
7
  6
CONTINUOUS
 10
60.6642228175
 20
40.8484966302
  0
VERTEX
  8
0
 62
7
  6
CONTINUOUS
 10
60.6929731897
 20
40.8894886059
  0
VERTEX
  8
0
 62
7
  6
CONTINUOUS
 10
60.7247094219
 20
40.9259398927
  0
VERTEX
  8
0
 62
7
  6
CONTINUOUS
 10
60.7594807408
 20
40.9572899188
  0
VERTEX
  8
0
 62
7
  6
CONTINUOUS
 10
60.796877827
 20
40.982498222
  0
VERTEX
  8
0
 62
7
  6
CONTINUOUS
 10
60.8364723404
 20
41.0004393883
  0
VERTEX
  8
0
 62
7
  6
CONTINUOUS
 10
60.8765983901
 20
41.009540243
  0
VERTEX
  8
0
 62
7
  6
CONTINUOUS
 10
60.8934990942
 20
41.0105010935
  0
SEQEND
  0
LINE
  8
0
 62
7
  6
CONTINUOUS
 10
60.5175117122
 20
39.3958375172
 11
60.5150696576
 21
39.6788516862
  0
LINE
  8
0
 62
7
  6
CONTINUOUS
 10
60.6889399951
 20
84.7867581563
 11
60.6913559696
 21
84.5037364195
  0
LINE
  8
0
 62
7
  6
CONTINUOUS
 10
60.5175117122
 20
39.3958375172
 11
60.5180680891
 21
33.8477365766
  0
LINE
  8
0
 62
7
  6
CONTINUOUS
 10
60.6884044028
 20
90.3308462819
 11
60.6889399951
 21
84.7867581563
  0
LINE
  8
0
 62
7
  6
CONTINUOUS
 10
60.688463711
 20
90.3319282332
 11
60.6884044058
 21
90.3309082934
  0
LINE
  8
0
 62
7
  6
CONTINUOUS
 10
60.518068089
 20
33.8477044636
 11
60.518008763
 21
33.8466964265
  0
LINE
  8
0
 62
7
  6
CONTINUOUS
 10
61.7606084678
 20
94.6237421695
 11
61.7447036832
 21
94.5190148275
  0
POLYLINE
  8
0
 62
7
  6
CONTINUOUS
 66
1
 70
0
  0
VERTEX
  8
0
 62
7
  6
CONTINUOUS
 10
42.657706463
 20
29.6505455822
  0
VERTEX
  8
0
 62
7
  6
CONTINUOUS
 10
42.8384331901
 20
30.0537923217
  0
VERTEX
  8
0
 62
7
  6
CONTINUOUS
 10
43.0134270079
 20
30.5196430529
  0
VERTEX
  8
0
 62
7
  6
CONTINUOUS
 10
43.1721249609
 20
31.021493573
  0
VERTEX
  8
0
 62
7
  6
CONTINUOUS
 10
43.3147577366
 20
31.5550414064
  0
VERTEX
  8
0
 62
7
  6
CONTINUOUS
 10
43.4413716365
 20
32.1156272372
  0
VERTEX
  8
0
 62
7
  6
CONTINUOUS
 10
43.5519822473
 20
32.6984143722
  0
VERTEX
  8
0
 62
7
  6
CONTINUOUS
 10
43.6466317071
 20
33.2983959606
  0
VERTEX
  8
0
 62
7
  6
CONTINUOUS
 10
43.7180088138
 20
33.8466863051
  0
SEQEND
  0
LINE
  8
0
 62
7
  6
CONTINUOUS
 10
69.9680393457
 20
30.0537922148
 11
70.1487660289
 21
29.6505455822
  0
POLYLINE
  8
0
 62
7
  6
CONTINUOUS
 66
1
 70
0
  0
VERTEX
  8
0
 62
7
  6
CONTINUOUS
 10
51.0458650573
 20
94.6237355423
  0
VERTEX
  8
0
 62
7
  6
CONTINUOUS
 10
51.0198188227
 20
94.7819953145
  0
VERTEX
  8
0
 62
7
  6
CONTINUOUS
 10
50.9908701132
 20
94.9383318726
  0
VERTEX
  8
0
 62
7
  6
CONTINUOUS
 10
50.9619614546
 20
95.0755269575
  0
VERTEX
  8
0
 62
7
  6
CONTINUOUS
 10
50.932751028
 20
95.1965423861
  0
VERTEX
  8
0
 62
7
  6
CONTINUOUS
 10
50.902684934
 20
95.304293621
  0
VERTEX
  8
0
 62
7
  6
CONTINUOUS
 10
50.8708386916
 20
95.4018234113
  0
VERTEX
  8
0
 62
7
  6
CONTINUOUS
 10
50.8356302847
 20
95.4924621967
  0
VERTEX
  8
0
 62
7
  6
CONTINUOUS
 10
50.7945448382
 20
95.5794523341
  0
VERTEX
  8
0
 62
7
  6
CONTINUOUS
 10
50.743920177
 20
95.6652219504
  0
VERTEX
  8
0
 62
7
  6
CONTINUOUS
 10
50.6787214273
 20
95.7506967291
  0
VERTEX
  8
0
 62
7
  6
CONTINUOUS
 10
50.5940907534
 20
95.8330191735
  0
VERTEX
  8
0
 62
7
  6
CONTINUOUS
 10
50.4882697315
 20
95.905008239
  0
VERTEX
  8
0
 62
7
  6
CONTINUOUS
 10
50.3639312437
 20
95.9581721696
  0
VERTEX
  8
0
 62
7
  6
CONTINUOUS
 10
50.2278700927
 20
95.9859282459
  0
VERTEX
  8
0
 62
7
  6
CONTINUOUS
 10
50.1594235109
 20
95.9893100995
  0
SEQEND
  0
LINE
  8
0
 62
7
  6
CONTINUOUS
 10
51.0617688087
 20
94.5190148275
 11
51.0458640241
 21
94.6237421695
  0
POLYLINE
  8
0
 62
7
  6
CONTINUOUS
 66
1
 70
0
  0
VERTEX
  8
0
 62
7
  6
CONTINUOUS
 10
52.1180088105
 20
90.3319340989
  0
VERTEX
  8
0
 62
7
  6
CONTINUOUS
 10
52.0461309968
 20
90.8837272203
  0
VERTEX
  8
0
 62
7
  6
CONTINUOUS
 10
51.9514021454
 20
91.4835521472
  0
VERTEX
  8
0
 62
7
  6
CONTINUOUS
 10
51.8407146144
 20
92.0661629527
  0
VERTEX
  8
0
 62
7
  6
CONTINUOUS
 10
51.7140263809
 20
92.6265539745
  0
VERTEX
  8
0
 62
7
  6
CONTINUOUS
 10
51.5713216351
 20
93.1598901766
  0
VERTEX
  8
0
 62
7
  6
CONTINUOUS
 10
51.4125532332
 20
93.6615146571
  0
VERTEX
  8
0
 62
7
  6
CONTINUOUS
 10
51.237488695
 20
94.1271276979
  0
SEQEND
  0
LINE
  8
0
 62
7
  6
CONTINUOUS
 10
69.0884637077
 20
33.8466921708
 11
69.0884044058
 21
33.8477120824
  0
LINE
  8
0
 62
7
  6
CONTINUOUS
 10
59.4458641598
 20
29.5548790762
 11
59.4617665341
 21
29.6596046212
  0
POLYLINE
  8
0
 62
7
  6
CONTINUOUS
 66
1
 70
0
  0
VERTEX
  8
0
 62
7
  6
CONTINUOUS
 10
78.5487670721
 20
94.5280769197
  0
VERTEX
  8
0
 62
7
  6
CONTINUOUS
 10
78.3689837969
 20
94.1271276979
  0
VERTEX
  8
0
 62
7
  6
CONTINUOUS
 10
78.1939192588
 20
93.6615146571
  0
VERTEX
  8
0
 62
7
  6
CONTINUOUS
 10
78.0351508568
 20
93.1598901766
  0
VERTEX
  8
0
 62
7
  6
CONTINUOUS
 10
77.8924461111
 20
92.6265539745
  0
VERTEX
  8
0
 62
7
  6
CONTINUOUS
 10
77.7657578775
 20
92.0661629527
  0
VERTEX
  8
0
 62
7
  6
CONTINUOUS
 10
77.6550703465
 20
91.4835521472
  0
VERTEX
  8
0
 62
7
  6
CONTINUOUS
 10
77.5603414951
 20
90.8837272203
  0
VERTEX
  8
0
 62
7
  6
CONTINUOUS
 10
77.4884636814
 20
90.3319340989
  0
SEQEND
  0
POLYLINE
  8
0
 62
7
  6
CONTINUOUS
 66
1
 70
0
  0
VERTEX
  8
0
 62
7
  6
CONTINUOUS
 10
70.1606073398
 20
29.5548854414
  0
VERTEX
  8
0
 62
7
  6
CONTINUOUS
 10
70.1864132751
 20
29.398007303
  0
VERTEX
  8
0
 62
7
  6
CONTINUOUS
 10
70.2154061926
 20
29.2412823579
  0
VERTEX
  8
0
 62
7
  6
CONTINUOUS
 10
70.2443617231
 20
29.1037561486
  0
VERTEX
  8
0
 62
7
  6
CONTINUOUS
 10
70.2736226735
 20
28.9824592051
  0
VERTEX
  8
0
 62
7
  6
CONTINUOUS
 10
70.3037452636
 20
28.8744671755
  0
VERTEX
  8
0
 62
7
  6
CONTINUOUS
 10
70.3356588948
 20
28.7767262723
  0
VERTEX
  8
0
 62
7
  6
CONTINUOUS
 10
70.3709567869
 20
28.6858894057
  0
VERTEX
  8
0
 62
7
  6
CONTINUOUS
 10
70.4121822579
 20
28.5986828179
  0
VERTEX
  8
0
 62
7
  6
CONTINUOUS
 10
70.4630382805
 20
28.5126684921
  0
VERTEX
  8
0
 62
7
  6
CONTINUOUS
 10
70.5286097385
 20
28.4269450709
  0
VERTEX
  8
0
 62
7
  6
CONTINUOUS
 10
70.6137764297
 20
28.344454034
  0
VERTEX
  8
0
 62
7
  6
CONTINUOUS
 10
70.7202326818
 20
28.2724970369
  0
VERTEX
  8
0
 62
7
  6
CONTINUOUS
 10
70.8452441158
 20
28.21960694
  0
VERTEX
  8
0
 62
7
  6
CONTINUOUS
 10
70.9819833719
 20
28.1923642989
  0
VERTEX
  8
0
 62
7
  6
CONTINUOUS
 10
71.0470478539
 20
28.1893102751
  0
SEQEND
  0
LINE
  8
0
 62
7
  6
CONTINUOUS
 10
70.1447059578
 20
29.6596046209
 11
70.1606083321
 21
29.5548790762
  0
POLYLINE
  8
0
 62
7
  6
CONTINUOUS
 66
1
 70
0
  0
VERTEX
  8
0
 62
7
  6
CONTINUOUS
 10
69.0884636781
 20
33.8466863051
  0
VERTEX
  8
0
 62
7
  6
CONTINUOUS
 10
69.1598409331
 20
33.2983949227
  0
VERTEX
  8
0
 62
7
  6
CONTINUOUS
 10
69.2544903945
 20
32.6984135073
  0
VERTEX
  8
0
 62
7
  6
CONTINUOUS
 10
69.3651009993
 20
32.1156265428
  0
VERTEX
  8
0
 62
7
  6
CONTINUOUS
 10
69.4917148855
 20
31.5550408765
  0
VERTEX
  8
0
 62
7
  6
CONTINUOUS
 10
69.6343476399
 20
31.0214931982
  0
VERTEX
  8
0
 62
7
  6
CONTINUOUS
 10
69.7930455641
 20
30.5196428201
  0
VERTEX
  8
0
 62
7
  6
CONTINUOUS
 10
69.9680393457
 20
30.0537922148
  0
SEQEND
  0
LINE
  8
0
 62
7
  6
CONTINUOUS
 10
68.9180087809
 20
90.3319282332
 11
68.9180680861
 21
90.3309082934
  0
POLYLINE
  8
0
 62
7
  6
CONTINUOUS
 66
1
 70
0
  0
VERTEX
  8
0
 62
7
  6
CONTINUOUS
 10
68.9111335159
 20
84.2093635026
  0
VERTEX
  8
0
 62
7
  6
CONTINUOUS
 10
68.9150700606
 20
84.4997725331
  0
VERTEX
  8
0
 62
7
  6
CONTINUOUS
 10
68.9175118044
 20
84.7827847345
  0
VERTEX
  8
0
 62
7
  6
CONTINUOUS
 10
68.9180680891
 20
90.3308462819
  0
SEQEND
  0
POLYLINE
  8
0
 62
7
  6
CONTINUOUS
 66
1
 70
0
  0
VERTEX
  8
0
 62
7
  6
CONTINUOUS
 10
69.0952984563
 20
39.9651373139
  0
VERTEX
  8
0
 62
7
  6
CONTINUOUS
 10
69.0913559698
 20
39.6748839056
  0
VERTEX
  8
0
 62
7
  6
CONTINUOUS
 10
69.0889399953
 20
39.3918622451
  0
VERTEX
  8
0
 62
7
  6
CONTINUOUS
 10
69.0884044028
 20
33.8477740939
  0
SEQEND
  0
LINE
  8
0
 62
7
  6
CONTINUOUS
 10
78.5606084678
 20
94.6237421695
 11
78.5447036832
 21
94.5190148275
  0
POLYLINE
  8
0
 62
7
  6
CONTINUOUS
 66
1
 70
0
  0
VERTEX
  8
0
 62
7
  6
CONTINUOUS
 10
43.718008763
 20
33.8466964265
  0
VERTEX
  8
0
 62
7
  6
CONTINUOUS
 10
43.7121970626
 20
33.8380995285
  0
VERTEX
  8
0
 62
7
  6
CONTINUOUS
 10
43.6931103097
 20
33.82930621
  0
VERTEX
  8
0
 62
7
  6
CONTINUOUS
 10
43.6619090626
 20
33.8225777673
  0
VERTEX
  8
0
 62
7
  6
CONTINUOUS
 10
43.6205905167
 20
33.8182580639
  0
VERTEX
  8
0
 62
7
  6
CONTINUOUS
 10
43.5718941705
 20
33.8164691773
  0
VERTEX
  8
0
 62
7
  6
CONTINUOUS
 10
43.5180680891
 20
33.8170288646
  0
SEQEND
  0
POLYLINE
  8
0
 62
7
  6
CONTINUOUS
 66
1
 70
0
  0
VERTEX
  8
0
 62
7
  6
CONTINUOUS
 10
176.1594232045
 20
28.1893102766
  0
VERTEX
  8
0
 62
7
  6
CONTINUOUS
 10
176.2279795482
 20
28.1927030256
  0
VERTEX
  8
0
 62
7
  6
CONTINUOUS
 10
176.3641408549
 20
28.2205139669
  0
VERTEX
  8
0
 62
7
  6
CONTINUOUS
 10
176.4885484186
 20
28.2737659316
  0
VERTEX
  8
0
 62
7
  6
CONTINUOUS
 10
176.5943955088
 20
28.3458526693
  0
VERTEX
  8
0
 62
7
  6
CONTINUOUS
 10
176.6790161035
 20
28.4282602471
  0
VERTEX
  8
0
 62
7
  6
CONTINUOUS
 10
176.7441880659
 20
28.5138014809
  0
VERTEX
  8
0
 62
7
  6
CONTINUOUS
 10
176.7947887711
 20
28.5996334974
  0
VERTEX
  8
0
 62
7
  6
CONTINUOUS
 10
176.8358599489
 20
28.6866973884
  0
VERTEX
  8
0
 62
7
  6
CONTINUOUS
 10
176.8710633421
 20
28.7774302256
  0
VERTEX
  8
0
 62
7
  6
CONTINUOUS
 10
176.9029119568
 20
28.8750808444
  0
VERTEX
  8
0
 62
7
  6
CONTINUOUS
 10
176.932985275
 20
28.9829822086
  0
VERTEX
  8
0
 62
7
  6
CONTINUOUS
 10
176.9622059416
 20
29.1041788143
  0
VERTEX
  8
0
 62
7
  6
CONTINUOUS
 10
176.991126589
 20
29.2415879531
  0
VERTEX
  8
0
 62
7
  6
CONTINUOUS
 10
177.020088092
 20
29.3981734285
  0
VERTEX
  8
0
 62
7
  6
CONTINUOUS
 10
177.0458651467
 20
29.5548854069
  0
SEQEND
  0
LINE
  8
0
 62
7
  6
CONTINUOUS
 10
51.237488695
 20
94.1271276979
 11
51.0577054198
 21
94.5280769197
  0
POLYLINE
  8
0
 62
7
  6
CONTINUOUS
 66
1
 70
0
  0
VERTEX
  8
0
 62
7
  6
CONTINUOUS
 10
67.8458650573
 20
94.6237355423
  0
VERTEX
  8
0
 62
7
  6
CONTINUOUS
 10
67.8198188227
 20
94.7819953145
  0
VERTEX
  8
0
 62
7
  6
CONTINUOUS
 10
67.7908701132
 20
94.9383318726
  0
VERTEX
  8
0
 62
7
  6
CONTINUOUS
 10
67.7619614546
 20
95.0755269575
  0
VERTEX
  8
0
 62
7
  6
CONTINUOUS
 10
67.732751028
 20
95.1965423861
  0
VERTEX
  8
0
 62
7
  6
CONTINUOUS
 10
67.702684934
 20
95.304293621
  0
VERTEX
  8
0
 62
7
  6
CONTINUOUS
 10
67.6708386916
 20
95.4018234113
  0
VERTEX
  8
0
 62
7
  6
CONTINUOUS
 10
67.6356302847
 20
95.4924621967
  0
VERTEX
  8
0
 62
7
  6
CONTINUOUS
 10
67.5945448382
 20
95.5794523341
  0
VERTEX
  8
0
 62
7
  6
CONTINUOUS
 10
67.543920177
 20
95.6652219504
  0
VERTEX
  8
0
 62
7
  6
CONTINUOUS
 10
67.4787214273
 20
95.7506967291
  0
VERTEX
  8
0
 62
7
  6
CONTINUOUS
 10
67.3940907534
 20
95.8330191735
  0
VERTEX
  8
0
 62
7
  6
CONTINUOUS
 10
67.2882697315
 20
95.905008239
  0
VERTEX
  8
0
 62
7
  6
CONTINUOUS
 10
67.1639312437
 20
95.9581721696
  0
VERTEX
  8
0
 62
7
  6
CONTINUOUS
 10
67.0278700927
 20
95.9859282459
  0
VERTEX
  8
0
 62
7
  6
CONTINUOUS
 10
66.9594235109
 20
95.9893100995
  0
SEQEND
  0
LINE
  8
0
 62
7
  6
CONTINUOUS
 10
67.8617688087
 20
94.5190148275
 11
67.8458640241
 21
94.6237421695
  0
POLYLINE
  8
0
 62
7
  6
CONTINUOUS
 66
1
 70
0
  0
VERTEX
  8
0
 62
7
  6
CONTINUOUS
 10
68.9180088105
 20
90.3319340989
  0
VERTEX
  8
0
 62
7
  6
CONTINUOUS
 10
68.8461309968
 20
90.8837272203
  0
VERTEX
  8
0
 62
7
  6
CONTINUOUS
 10
68.7514021454
 20
91.4835521472
  0
VERTEX
  8
0
 62
7
  6
CONTINUOUS
 10
68.6407146144
 20
92.0661629527
  0
VERTEX
  8
0
 62
7
  6
CONTINUOUS
 10
68.5140263809
 20
92.6265539745
  0
VERTEX
  8
0
 62
7
  6
CONTINUOUS
 10
68.3713216351
 20
93.1598901766
  0
VERTEX
  8
0
 62
7
  6
CONTINUOUS
 10
68.2125532332
 20
93.6615146571
  0
VERTEX
  8
0
 62
7
  6
CONTINUOUS
 10
68.037488695
 20
94.1271276979
  0
SEQEND
  0
POLYLINE
  8
0
 62
7
  6
CONTINUOUS
 66
1
 70
0
  0
VERTEX
  8
0
 62
7
  6
CONTINUOUS
 10
77.4913559696
 20
84.5037364195
  0
VERTEX
  8
0
 62
7
  6
CONTINUOUS
 10
77.4952993506
 20
84.2133949977
  0
VERTEX
  8
0
 62
7
  6
CONTINUOUS
 10
77.4954972263
 20
84.137699301
  0
VERTEX
  8
0
 62
7
  6
CONTINUOUS
 10
77.4944599278
 20
84.0633293578
  0
VERTEX
  8
0
 62
7
  6
CONTINUOUS
 10
77.4920657414
 20
83.9904386879
  0
VERTEX
  8
0
 62
7
  6
CONTINUOUS
 10
77.4881816187
 20
83.9191470358
  0
VERTEX
  8
0
 62
7
  6
CONTINUOUS
 10
77.4826914243
 20
83.8495323852
  0
VERTEX
  8
0
 62
7
  6
CONTINUOUS
 10
77.4755061762
 20
83.7817864148
  0
VERTEX
  8
0
 62
7
  6
CONTINUOUS
 10
77.4665434459
 20
83.7162230417
  0
VERTEX
  8
0
 62
7
  6
CONTINUOUS
 10
77.4557010999
 20
83.6528532527
  0
VERTEX
  8
0
 62
7
  6
CONTINUOUS
 10
77.4429652218
 20
83.591832421
  0
VERTEX
  8
0
 62
7
  6
CONTINUOUS
 10
77.4282609724
 20
83.5336166357
  0
VERTEX
  8
0
 62
7
  6
CONTINUOUS
 10
77.4113855446
 20
83.4783508406
  0
VERTEX
  8
0
 62
7
  6
CONTINUOUS
 10
77.3918526398
 20
83.4264639687
  0
VERTEX
  8
0
 62
7
  6
CONTINUOUS
 10
77.3691508667
 20
83.3774057743
  0
VERTEX
  8
0
 62
7
  6
CONTINUOUS
 10
77.3434631829
 20
83.3320530558
  0
VERTEX
  8
0
 62
7
  6
CONTINUOUS
 10
77.3148356539
 20
83.2908567247
  0
VERTEX
  8
0
 62
7
  6
CONTINUOUS
 10
77.2832150802
 20
83.2541744713
  0
VERTEX
  8
0
 62
7
  6
CONTINUOUS
 10
77.2485629689
 20
83.222575169
  0
VERTEX
  8
0
 62
7
  6
CONTINUOUS
 10
77.211267421
 20
83.1970756425
  0
VERTEX
  8
0
 62
7
  6
CONTINUOUS
 10
77.1717355585
 20
83.1787834235
  0
VERTEX
  8
0
 62
7
  6
CONTINUOUS
 10
77.131605932
 20
83.1692779467
  0
VERTEX
  8
0
 62
7
  6
CONTINUOUS
 10
77.1127996247
 20
83.1681187244
  0
SEQEND
  0
POLYLINE
  8
0
 62
7
  6
CONTINUOUS
 66
1
 70
0
  0
VERTEX
  8
0
 62
7
  6
CONTINUOUS
 10
77.3150696576
 20
39.6788516862
  0
VERTEX
  8
0
 62
7
  6
CONTINUOUS
 10
77.3111327669
 20
39.9692704341
  0
VERTEX
  8
0
 62
7
  6
CONTINUOUS
 10
77.3109969116
 20
40.0447926713
  0
VERTEX
  8
0
 62
7
  6
CONTINUOUS
 10
77.312098562
 20
40.1189932503
  0
VERTEX
  8
0
 62
7
  6
CONTINUOUS
 10
77.3145605877
 20
40.1917199793
  0
VERTEX
  8
0
 62
7
  6
CONTINUOUS
 10
77.3185162601
 20
40.262858668
  0
VERTEX
  8
0
 62
7
  6
CONTINUOUS
 10
77.3240806466
 20
40.3323309561
  0
VERTEX
  8
0
 62
7
  6
CONTINUOUS
 10
77.3313417143
 20
40.3999354466
  0
VERTEX
  8
0
 62
7
  6
CONTINUOUS
 10
77.340384385
 20
40.4653471826
  0
VERTEX
  8
0
 62
7
  6
CONTINUOUS
 10
77.3512972363
 20
40.528549379
  0
VERTEX
  8
0
 62
7
  6
CONTINUOUS
 10
77.3640999522
 20
40.5893568033
  0
VERTEX
  8
0
 62
7
  6
CONTINUOUS
 10
77.3789247337
 20
40.6475590488
  0
VERTEX
  8
0
 62
7
  6
CONTINUOUS
 10
77.3958852923
 20
40.7026334909
  0
VERTEX
  8
0
 62
7
  6
CONTINUOUS
 10
77.4155586774
 20
40.7543958865
  0
VERTEX
  8
0
 62
7
  6
CONTINUOUS
 10
77.4384015338
 20
40.803316881
  0
VERTEX
  8
0
 62
7
  6
CONTINUOUS
 10
77.4642228175
 20
40.8484966302
  0
VERTEX
  8
0
 62
7
  6
CONTINUOUS
 10
77.4929731897
 20
40.8894886059
  0
VERTEX
  8
0
 62
7
  6
CONTINUOUS
 10
77.5247094219
 20
40.9259398927
  0
VERTEX
  8
0
 62
7
  6
CONTINUOUS
 10
77.5594807408
 20
40.9572899188
  0
VERTEX
  8
0
 62
7
  6
CONTINUOUS
 10
77.596877827
 20
40.982498222
  0
VERTEX
  8
0
 62
7
  6
CONTINUOUS
 10
77.6364723404
 20
41.0004393883
  0
VERTEX
  8
0
 62
7
  6
CONTINUOUS
 10
77.6765983901
 20
41.009540243
  0
VERTEX
  8
0
 62
7
  6
CONTINUOUS
 10
77.6934990942
 20
41.0105010935
  0
SEQEND
  0
LINE
  8
0
 62
7
  6
CONTINUOUS
 10
77.3175117122
 20
39.3958375172
 11
77.3150696576
 21
39.6788516862
  0
LINE
  8
0
 62
7
  6
CONTINUOUS
 10
77.4889399951
 20
84.7867581563
 11
77.4913559696
 21
84.5037364195
  0
LINE
  8
0
 62
7
  6
CONTINUOUS
 10
77.3175117122
 20
39.3958375172
 11
77.3180680891
 21
33.8477365766
  0
LINE
  8
0
 62
7
  6
CONTINUOUS
 10
77.4884044028
 20
90.3308462819
 11
77.4889399951
 21
84.7867581563
  0
LINE
  8
0
 62
7
  6
CONTINUOUS
 10
77.488463711
 20
90.3319282332
 11
77.4884044058
 21
90.3309082934
  0
LINE
  8
0
 62
7
  6
CONTINUOUS
 10
77.318068089
 20
33.8477044636
 11
77.318008763
 21
33.8466964265
  0
POLYLINE
  8
0
 62
7
  6
CONTINUOUS
 66
1
 70
0
  0
VERTEX
  8
0
 62
7
  6
CONTINUOUS
 10
59.457706463
 20
29.6505455822
  0
VERTEX
  8
0
 62
7
  6
CONTINUOUS
 10
59.6384331901
 20
30.0537923217
  0
VERTEX
  8
0
 62
7
  6
CONTINUOUS
 10
59.8134270079
 20
30.5196430529
  0
VERTEX
  8
0
 62
7
  6
CONTINUOUS
 10
59.9721249609
 20
31.021493573
  0
VERTEX
  8
0
 62
7
  6
CONTINUOUS
 10
60.1147577366
 20
31.5550414064
  0
VERTEX
  8
0
 62
7
  6
CONTINUOUS
 10
60.2413716364
 20
32.1156272372
  0
VERTEX
  8
0
 62
7
  6
CONTINUOUS
 10
60.3519822473
 20
32.6984143722
  0
VERTEX
  8
0
 62
7
  6
CONTINUOUS
 10
60.4466317071
 20
33.2983959606
  0
VERTEX
  8
0
 62
7
  6
CONTINUOUS
 10
60.5180088138
 20
33.8466863051
  0
SEQEND
  0
POLYLINE
  8
0
 62
7
  6
CONTINUOUS
 66
1
 70
0
  0
VERTEX
  8
0
 62
7
  6
CONTINUOUS
 10
159.3594232062
 20
28.1893102766
  0
VERTEX
  8
0
 62
7
  6
CONTINUOUS
 10
159.4279790287
 20
28.1927029739
  0
VERTEX
  8
0
 62
7
  6
CONTINUOUS
 10
159.5641401925
 20
28.220513759
  0
VERTEX
  8
0
 62
7
  6
CONTINUOUS
 10
159.688547821
 20
28.2737656017
  0
VERTEX
  8
0
 62
7
  6
CONTINUOUS
 10
159.7943950038
 20
28.3458522524
  0
VERTEX
  8
0
 62
7
  6
CONTINUOUS
 10
159.8790156369
 20
28.4282597138
  0
VERTEX
  8
0
 62
7
  6
CONTINUOUS
 10
159.9441876459
 20
28.5138008486
  0
VERTEX
  8
0
 62
7
  6
CONTINUOUS
 10
159.9947883993
 20
28.5996327874
  0
VERTEX
  8
0
 62
7
  6
CONTINUOUS
 10
160.0358596282
 20
28.686696635
  0
VERTEX
  8
0
 62
7
  6
CONTINUOUS
 10
160.0710630743
 20
28.77742947
  0
VERTEX
  8
0
 62
7
  6
CONTINUOUS
 10
160.1029117303
 20
28.8750800916
  0
VERTEX
  8
0
 62
7
  6
CONTINUOUS
 10
160.1329850863
 20
28.9829814798
  0
VERTEX
  8
0
 62
7
  6
CONTINUOUS
 10
160.1622057926
 20
29.1041781526
  0
VERTEX
  8
0
 62
7
  6
CONTINUOUS
 10
160.1911264843
 20
29.241587422
  0
VERTEX
  8
0
 62
7
  6
CONTINUOUS
 10
160.2200880375
 20
29.3981731148
  0
VERTEX
  8
0
 62
7
  6
CONTINUOUS
 10
160.2458651467
 20
29.5548854069
  0
SEQEND
  0
POLYLINE
  8
0
 62
7
  6
CONTINUOUS
 66
1
 70
0
  0
VERTEX
  8
0
 62
7
  6
CONTINUOUS
 10
142.5594232062
 20
28.1893102766
  0
VERTEX
  8
0
 62
7
  6
CONTINUOUS
 10
142.6279790287
 20
28.1927029739
  0
VERTEX
  8
0
 62
7
  6
CONTINUOUS
 10
142.7641401925
 20
28.220513759
  0
VERTEX
  8
0
 62
7
  6
CONTINUOUS
 10
142.888547821
 20
28.2737656016
  0
VERTEX
  8
0
 62
7
  6
CONTINUOUS
 10
142.9943950038
 20
28.3458522524
  0
VERTEX
  8
0
 62
7
  6
CONTINUOUS
 10
143.0790156369
 20
28.4282597138
  0
VERTEX
  8
0
 62
7
  6
CONTINUOUS
 10
143.1441876459
 20
28.5138008486
  0
VERTEX
  8
0
 62
7
  6
CONTINUOUS
 10
143.1947883993
 20
28.5996327874
  0
VERTEX
  8
0
 62
7
  6
CONTINUOUS
 10
143.2358596282
 20
28.686696635
  0
VERTEX
  8
0
 62
7
  6
CONTINUOUS
 10
143.2710630743
 20
28.77742947
  0
VERTEX
  8
0
 62
7
  6
CONTINUOUS
 10
143.3029117303
 20
28.8750800916
  0
VERTEX
  8
0
 62
7
  6
CONTINUOUS
 10
143.3329850863
 20
28.9829814798
  0
VERTEX
  8
0
 62
7
  6
CONTINUOUS
 10
143.3622057926
 20
29.1041781526
  0
VERTEX
  8
0
 62
7
  6
CONTINUOUS
 10
143.3911264843
 20
29.241587422
  0
VERTEX
  8
0
 62
7
  6
CONTINUOUS
 10
143.4200880375
 20
29.3981731148
  0
VERTEX
  8
0
 62
7
  6
CONTINUOUS
 10
143.4458651467
 20
29.5548854069
  0
SEQEND
  0
POLYLINE
  8
0
 62
7
  6
CONTINUOUS
 66
1
 70
0
  0
VERTEX
  8
0
 62
7
  6
CONTINUOUS
 10
125.7594232062
 20
28.1893102766
  0
VERTEX
  8
0
 62
7
  6
CONTINUOUS
 10
125.8279790287
 20
28.1927029739
  0
VERTEX
  8
0
 62
7
  6
CONTINUOUS
 10
125.9641401925
 20
28.220513759
  0
VERTEX
  8
0
 62
7
  6
CONTINUOUS
 10
126.088547821
 20
28.2737656016
  0
VERTEX
  8
0
 62
7
  6
CONTINUOUS
 10
126.1943950038
 20
28.3458522524
  0
VERTEX
  8
0
 62
7
  6
CONTINUOUS
 10
126.2790156369
 20
28.4282597138
  0
VERTEX
  8
0
 62
7
  6
CONTINUOUS
 10
126.3441876459
 20
28.5138008486
  0
VERTEX
  8
0
 62
7
  6
CONTINUOUS
 10
126.3947883993
 20
28.5996327874
  0
VERTEX
  8
0
 62
7
  6
CONTINUOUS
 10
126.4358596282
 20
28.686696635
  0
VERTEX
  8
0
 62
7
  6
CONTINUOUS
 10
126.4710630743
 20
28.77742947
  0
VERTEX
  8
0
 62
7
  6
CONTINUOUS
 10
126.5029117303
 20
28.8750800916
  0
VERTEX
  8
0
 62
7
  6
CONTINUOUS
 10
126.5329850863
 20
28.9829814798
  0
VERTEX
  8
0
 62
7
  6
CONTINUOUS
 10
126.5622057926
 20
29.1041781526
  0
VERTEX
  8
0
 62
7
  6
CONTINUOUS
 10
126.5911264843
 20
29.241587422
  0
VERTEX
  8
0
 62
7
  6
CONTINUOUS
 10
126.6200880375
 20
29.3981731148
  0
VERTEX
  8
0
 62
7
  6
CONTINUOUS
 10
126.6458651467
 20
29.5548854069
  0
SEQEND
  0
POLYLINE
  8
0
 62
7
  6
CONTINUOUS
 66
1
 70
0
  0
VERTEX
  8
0
 62
7
  6
CONTINUOUS
 10
108.9594232062
 20
28.1893102766
  0
VERTEX
  8
0
 62
7
  6
CONTINUOUS
 10
109.0279790287
 20
28.1927029739
  0
VERTEX
  8
0
 62
7
  6
CONTINUOUS
 10
109.1641401925
 20
28.220513759
  0
VERTEX
  8
0
 62
7
  6
CONTINUOUS
 10
109.288547821
 20
28.2737656016
  0
VERTEX
  8
0
 62
7
  6
CONTINUOUS
 10
109.3943950038
 20
28.3458522524
  0
VERTEX
  8
0
 62
7
  6
CONTINUOUS
 10
109.4790156369
 20
28.4282597138
  0
VERTEX
  8
0
 62
7
  6
CONTINUOUS
 10
109.5441876459
 20
28.5138008486
  0
VERTEX
  8
0
 62
7
  6
CONTINUOUS
 10
109.5947883993
 20
28.5996327874
  0
VERTEX
  8
0
 62
7
  6
CONTINUOUS
 10
109.6358596282
 20
28.686696635
  0
VERTEX
  8
0
 62
7
  6
CONTINUOUS
 10
109.6710630743
 20
28.77742947
  0
VERTEX
  8
0
 62
7
  6
CONTINUOUS
 10
109.7029117303
 20
28.8750800916
  0
VERTEX
  8
0
 62
7
  6
CONTINUOUS
 10
109.7329850863
 20
28.9829814798
  0
VERTEX
  8
0
 62
7
  6
CONTINUOUS
 10
109.7622057926
 20
29.1041781526
  0
VERTEX
  8
0
 62
7
  6
CONTINUOUS
 10
109.7911264843
 20
29.241587422
  0
VERTEX
  8
0
 62
7
  6
CONTINUOUS
 10
109.8200880375
 20
29.3981731148
  0
VERTEX
  8
0
 62
7
  6
CONTINUOUS
 10
109.8458651467
 20
29.5548854069
  0
SEQEND
  0
POLYLINE
  8
0
 62
7
  6
CONTINUOUS
 66
1
 70
0
  0
VERTEX
  8
0
 62
7
  6
CONTINUOUS
 10
92.1594232062
 20
28.1893102766
  0
VERTEX
  8
0
 62
7
  6
CONTINUOUS
 10
92.2279790287
 20
28.1927029739
  0
VERTEX
  8
0
 62
7
  6
CONTINUOUS
 10
92.3641401925
 20
28.220513759
  0
VERTEX
  8
0
 62
7
  6
CONTINUOUS
 10
92.488547821
 20
28.2737656016
  0
VERTEX
  8
0
 62
7
  6
CONTINUOUS
 10
92.5943950038
 20
28.3458522524
  0
VERTEX
  8
0
 62
7
  6
CONTINUOUS
 10
92.6790156369
 20
28.4282597138
  0
VERTEX
  8
0
 62
7
  6
CONTINUOUS
 10
92.7441876459
 20
28.5138008486
  0
VERTEX
  8
0
 62
7
  6
CONTINUOUS
 10
92.7947883993
 20
28.5996327874
  0
VERTEX
  8
0
 62
7
  6
CONTINUOUS
 10
92.8358596282
 20
28.686696635
  0
VERTEX
  8
0
 62
7
  6
CONTINUOUS
 10
92.8710630743
 20
28.77742947
  0
VERTEX
  8
0
 62
7
  6
CONTINUOUS
 10
92.9029117303
 20
28.8750800916
  0
VERTEX
  8
0
 62
7
  6
CONTINUOUS
 10
92.9329850863
 20
28.9829814798
  0
VERTEX
  8
0
 62
7
  6
CONTINUOUS
 10
92.9622057926
 20
29.1041781526
  0
VERTEX
  8
0
 62
7
  6
CONTINUOUS
 10
92.9911264843
 20
29.241587422
  0
VERTEX
  8
0
 62
7
  6
CONTINUOUS
 10
93.0200880375
 20
29.3981731148
  0
VERTEX
  8
0
 62
7
  6
CONTINUOUS
 10
93.0458651467
 20
29.5548854069
  0
SEQEND
  0
POLYLINE
  8
0
 62
7
  6
CONTINUOUS
 66
1
 70
0
  0
VERTEX
  8
0
 62
7
  6
CONTINUOUS
 10
75.3594232062
 20
28.1893102766
  0
VERTEX
  8
0
 62
7
  6
CONTINUOUS
 10
75.4279790287
 20
28.1927029739
  0
VERTEX
  8
0
 62
7
  6
CONTINUOUS
 10
75.5641401925
 20
28.220513759
  0
VERTEX
  8
0
 62
7
  6
CONTINUOUS
 10
75.688547821
 20
28.2737656016
  0
VERTEX
  8
0
 62
7
  6
CONTINUOUS
 10
75.7943950038
 20
28.3458522524
  0
VERTEX
  8
0
 62
7
  6
CONTINUOUS
 10
75.8790156369
 20
28.4282597138
  0
VERTEX
  8
0
 62
7
  6
CONTINUOUS
 10
75.9441876459
 20
28.5138008486
  0
VERTEX
  8
0
 62
7
  6
CONTINUOUS
 10
75.9947883993
 20
28.5996327874
  0
VERTEX
  8
0
 62
7
  6
CONTINUOUS
 10
76.0358596282
 20
28.686696635
  0
VERTEX
  8
0
 62
7
  6
CONTINUOUS
 10
76.0710630743
 20
28.77742947
  0
VERTEX
  8
0
 62
7
  6
CONTINUOUS
 10
76.1029117303
 20
28.8750800916
  0
VERTEX
  8
0
 62
7
  6
CONTINUOUS
 10
76.1329850863
 20
28.9829814798
  0
VERTEX
  8
0
 62
7
  6
CONTINUOUS
 10
76.1622057926
 20
29.1041781526
  0
VERTEX
  8
0
 62
7
  6
CONTINUOUS
 10
76.1911264843
 20
29.241587422
  0
VERTEX
  8
0
 62
7
  6
CONTINUOUS
 10
76.2200880375
 20
29.3981731148
  0
VERTEX
  8
0
 62
7
  6
CONTINUOUS
 10
76.2458651467
 20
29.5548854069
  0
SEQEND
  0
POLYLINE
  8
0
 62
7
  6
CONTINUOUS
 66
1
 70
0
  0
VERTEX
  8
0
 62
7
  6
CONTINUOUS
 10
58.5594232062
 20
28.1893102766
  0
VERTEX
  8
0
 62
7
  6
CONTINUOUS
 10
58.6279790287
 20
28.1927029739
  0
VERTEX
  8
0
 62
7
  6
CONTINUOUS
 10
58.7641401925
 20
28.220513759
  0
VERTEX
  8
0
 62
7
  6
CONTINUOUS
 10
58.888547821
 20
28.2737656016
  0
VERTEX
  8
0
 62
7
  6
CONTINUOUS
 10
58.9943950038
 20
28.3458522524
  0
VERTEX
  8
0
 62
7
  6
CONTINUOUS
 10
59.0790156369
 20
28.4282597138
  0
VERTEX
  8
0
 62
7
  6
CONTINUOUS
 10
59.1441876459
 20
28.5138008486
  0
VERTEX
  8
0
 62
7
  6
CONTINUOUS
 10
59.1947883993
 20
28.5996327874
  0
VERTEX
  8
0
 62
7
  6
CONTINUOUS
 10
59.2358596282
 20
28.686696635
  0
VERTEX
  8
0
 62
7
  6
CONTINUOUS
 10
59.2710630743
 20
28.77742947
  0
VERTEX
  8
0
 62
7
  6
CONTINUOUS
 10
59.3029117303
 20
28.8750800916
  0
VERTEX
  8
0
 62
7
  6
CONTINUOUS
 10
59.3329850863
 20
28.9829814798
  0
VERTEX
  8
0
 62
7
  6
CONTINUOUS
 10
59.3622057926
 20
29.1041781526
  0
VERTEX
  8
0
 62
7
  6
CONTINUOUS
 10
59.3911264843
 20
29.241587422
  0
VERTEX
  8
0
 62
7
  6
CONTINUOUS
 10
59.4200880375
 20
29.3981731148
  0
VERTEX
  8
0
 62
7
  6
CONTINUOUS
 10
59.4458651467
 20
29.5548854069
  0
SEQEND
  0
POLYLINE
  8
0
 62
7
  6
CONTINUOUS
 66
1
 70
0
  0
VERTEX
  8
0
 62
7
  6
CONTINUOUS
 10
41.7594274941
 20
28.1893102722
  0
VERTEX
  8
0
 62
7
  6
CONTINUOUS
 10
41.820217347
 20
28.1919742301
  0
VERTEX
  8
0
 62
7
  6
CONTINUOUS
 10
41.9492948799
 20
28.2160401659
  0
VERTEX
  8
0
 62
7
  6
CONTINUOUS
 10
42.0670716132
 20
28.262403428
  0
VERTEX
  8
0
 62
7
  6
CONTINUOUS
 10
42.1719676964
 20
28.3280909952
  0
VERTEX
  8
0
 62
7
  6
CONTINUOUS
 10
42.2620121633
 20
28.4094687525
  0
VERTEX
  8
0
 62
7
  6
CONTINUOUS
 10
42.3338422909
 20
28.4985792366
  0
VERTEX
  8
0
 62
7
  6
CONTINUOUS
 10
42.388696943
 20
28.5881741965
  0
VERTEX
  8
0
 62
7
  6
CONTINUOUS
 10
42.4325750271
 20
28.6790453889
  0
VERTEX
  8
0
 62
7
  6
CONTINUOUS
 10
42.4699411565
 20
28.7742742962
  0
VERTEX
  8
0
 62
7
  6
CONTINUOUS
 10
42.5034983032
 20
28.8770325143
  0
VERTEX
  8
0
 62
7
  6
CONTINUOUS
 10
42.5347433699
 20
28.9898018108
  0
VERTEX
  8
0
 62
7
  6
CONTINUOUS
 10
42.5645922486
 20
29.1148381204
  0
VERTEX
  8
0
 62
7
  6
CONTINUOUS
 10
42.5935163738
 20
29.2537676559
  0
VERTEX
  8
0
 62
7
  6
CONTINUOUS
 10
42.6217280441
 20
29.4076422001
  0
VERTEX
  8
0
 62
7
  6
CONTINUOUS
 10
42.6458657013
 20
29.5548889647
  0
SEQEND
  0
POLYLINE
  8
0
 62
6
  6
CONTINUOUS
 66
1
 70
0
  0
VERTEX
  8
0
 62
6
  6
CONTINUOUS
 10
175.1799779633
 20
33.8170757314
  0
VERTEX
  8
0
 62
6
  6
CONTINUOUS
 10
175.3670448167
 20
33.8230686744
  0
VERTEX
  8
0
 62
6
  6
CONTINUOUS
 10
175.5469994693
 20
33.8344771011
  0
VERTEX
  8
0
 62
6
  6
CONTINUOUS
 10
175.7136199594
 20
33.8507599267
  0
VERTEX
  8
0
 62
6
  6
CONTINUOUS
 10
175.8612283678
 20
33.871260509
  0
VERTEX
  8
0
 62
6
  6
CONTINUOUS
 10
175.9848876566
 20
33.895212884
  0
VERTEX
  8
0
 62
6
  6
CONTINUOUS
 10
176.0805543938
 20
33.92175387
  0
VERTEX
  8
0
 62
6
  6
CONTINUOUS
 10
176.1451858276
 20
33.9499394038
  0
VERTEX
  8
0
 62
6
  6
CONTINUOUS
 10
176.1767986972
 20
33.9787625892
  0
SEQEND
  0
LINE
  8
0
 62
7
  6
CONTINUOUS
 10
35.7032349543
 20
28.1893101879
 11
41.7595323367
 21
28.1893101879
  0
LINE
  8
0
 62
7
  6
CONTINUOUS
 10
54.2469371155
 20
28.1893101879
 11
58.5595253006
 21
28.1893101879
  0
LINE
  8
0
 62
7
  6
CONTINUOUS
 10
71.0469371155
 20
28.1893101879
 11
75.3595253006
 21
28.1893101879
  0
LINE
  8
0
 62
7
  6
CONTINUOUS
 10
87.8469371155
 20
28.1893101879
 11
92.1595253006
 21
28.1893101879
  0
LINE
  8
0
 62
7
  6
CONTINUOUS
 10
104.6469371155
 20
28.1893101879
 11
108.9595253006
 21
28.1893101879
  0
LINE
  8
0
 62
7
  6
CONTINUOUS
 10
121.4469371155
 20
28.1893101879
 11
125.7595253006
 21
28.1893101879
  0
LINE
  8
0
 62
7
  6
CONTINUOUS
 10
138.2469371155
 20
28.1893101879
 11
142.5595253006
 21
28.1893101879
  0
LINE
  8
0
 62
7
  6
CONTINUOUS
 10
155.0469371155
 20
28.1893101879
 11
159.3595253006
 21
28.1893101879
  0
LINE
  8
0
 62
7
  6
CONTINUOUS
 10
171.8469371155
 20
28.1893101879
 11
176.1595292415
 21
28.1893101879
  0
LINE
  8
0
 62
7
  6
CONTINUOUS
 10
58.5595353764
 20
28.1893101879
 11
58.5594231531
 21
28.1893102463
  0
LINE
  8
0
 62
7
  6
CONTINUOUS
 10
75.3595353764
 20
28.1893101879
 11
75.3594231531
 21
28.1893102463
  0
LINE
  8
0
 62
7
  6
CONTINUOUS
 10
92.1595353764
 20
28.1893101879
 11
92.1594231531
 21
28.1893102463
  0
LINE
  8
0
 62
7
  6
CONTINUOUS
 10
108.9595353764
 20
28.1893101879
 11
108.9594231531
 21
28.1893102463
  0
LINE
  8
0
 62
7
  6
CONTINUOUS
 10
125.7595353764
 20
28.1893101879
 11
125.7594231531
 21
28.1893102463
  0
LINE
  8
0
 62
7
  6
CONTINUOUS
 10
142.5595353764
 20
28.1893101879
 11
142.5594231531
 21
28.1893102463
  0
LINE
  8
0
 62
7
  6
CONTINUOUS
 10
159.3595353764
 20
28.1893101879
 11
159.3594231531
 21
28.1893102463
  0
LINE
  8
0
 62
7
  6
CONTINUOUS
 10
176.1595357518
 20
28.1893101879
 11
176.1594237671
 21
28.1893102463
  0
LINE
  8
0
 62
7
  6
CONTINUOUS
 10
86.7680393457
 20
30.0537922148
 11
86.9487660289
 21
29.6505455822
  0
LINE
  8
0
 62
7
  6
CONTINUOUS
 10
85.8884637077
 20
33.8466921708
 11
85.8884044058
 21
33.8477120824
  0
POLYLINE
  8
0
 62
7
  6
CONTINUOUS
 66
1
 70
0
  0
VERTEX
  8
0
 62
7
  6
CONTINUOUS
 10
85.7111335159
 20
84.2093635026
  0
VERTEX
  8
0
 62
7
  6
CONTINUOUS
 10
85.7150700606
 20
84.4997725331
  0
VERTEX
  8
0
 62
7
  6
CONTINUOUS
 10
85.7175118044
 20
84.7827847345
  0
VERTEX
  8
0
 62
7
  6
CONTINUOUS
 10
85.7180680891
 20
90.3308462819
  0
SEQEND
  0
POLYLINE
  8
0
 62
7
  6
CONTINUOUS
 66
1
 70
0
  0
VERTEX
  8
0
 62
7
  6
CONTINUOUS
 10
85.8952984563
 20
39.9651373139
  0
VERTEX
  8
0
 62
7
  6
CONTINUOUS
 10
85.8913559698
 20
39.6748839056
  0
VERTEX
  8
0
 62
7
  6
CONTINUOUS
 10
85.8889399953
 20
39.3918622451
  0
VERTEX
  8
0
 62
7
  6
CONTINUOUS
 10
85.8884044028
 20
33.8477740939
  0
SEQEND
  0
LINE
  8
0
 62
7
  6
CONTINUOUS
 10
76.2458641598
 20
29.5548790762
 11
76.2617665341
 21
29.6596046212
  0
POLYLINE
  8
0
 62
7
  6
CONTINUOUS
 66
1
 70
0
  0
VERTEX
  8
0
 62
7
  6
CONTINUOUS
 10
95.3487670721
 20
94.5280769197
  0
VERTEX
  8
0
 62
7
  6
CONTINUOUS
 10
95.1689837969
 20
94.1271276979
  0
VERTEX
  8
0
 62
7
  6
CONTINUOUS
 10
94.9939192588
 20
93.6615146571
  0
VERTEX
  8
0
 62
7
  6
CONTINUOUS
 10
94.8351508568
 20
93.1598901766
  0
VERTEX
  8
0
 62
7
  6
CONTINUOUS
 10
94.6924461111
 20
92.6265539745
  0
VERTEX
  8
0
 62
7
  6
CONTINUOUS
 10
94.5657578775
 20
92.0661629527
  0
VERTEX
  8
0
 62
7
  6
CONTINUOUS
 10
94.4550703465
 20
91.4835521472
  0
VERTEX
  8
0
 62
7
  6
CONTINUOUS
 10
94.3603414951
 20
90.8837272203
  0
VERTEX
  8
0
 62
7
  6
CONTINUOUS
 10
94.2884636814
 20
90.3319340989
  0
SEQEND
  0
POLYLINE
  8
0
 62
7
  6
CONTINUOUS
 66
1
 70
0
  0
VERTEX
  8
0
 62
7
  6
CONTINUOUS
 10
60.518008763
 20
33.8466964265
  0
VERTEX
  8
0
 62
7
  6
CONTINUOUS
 10
60.5121970626
 20
33.8380995285
  0
VERTEX
  8
0
 62
7
  6
CONTINUOUS
 10
60.4931103097
 20
33.82930621
  0
VERTEX
  8
0
 62
7
  6
CONTINUOUS
 10
60.4619090626
 20
33.8225777673
  0
VERTEX
  8
0
 62
7
  6
CONTINUOUS
 10
60.4205905167
 20
33.8182580639
  0
VERTEX
  8
0
 62
7
  6
CONTINUOUS
 10
60.3718941705
 20
33.8164691773
  0
VERTEX
  8
0
 62
7
  6
CONTINUOUS
 10
60.3180680891
 20
33.8170288646
  0
SEQEND
  0
POLYLINE
  8
0
 62
7
  6
CONTINUOUS
 66
1
 70
0
  0
VERTEX
  8
0
 62
7
  6
CONTINUOUS
 10
170.0884044028
 20
33.8170288646
  0
VERTEX
  8
0
 62
7
  6
CONTINUOUS
 10
170.0413757276
 20
33.816416912
  0
VERTEX
  8
0
 62
7
  6
CONTINUOUS
 10
169.9978533875
 20
33.8175559329
  0
VERTEX
  8
0
 62
7
  6
CONTINUOUS
 10
169.9592019394
 20
33.8206409057
  0
VERTEX
  8
0
 62
7
  6
CONTINUOUS
 10
169.9275535162
 20
33.8256580402
  0
VERTEX
  8
0
 62
7
  6
CONTINUOUS
 10
169.9046030025
 20
33.8324280561
  0
VERTEX
  8
0
 62
7
  6
CONTINUOUS
 10
169.8914773212
 20
33.8406427298
  0
VERTEX
  8
0
 62
7
  6
CONTINUOUS
 10
169.8884637077
 20
33.8466921708
  0
SEQEND
  0
POLYLINE
  8
0
 62
7
  6
CONTINUOUS
 66
1
 70
0
  0
VERTEX
  8
0
 62
7
  6
CONTINUOUS
 10
153.2884044028
 20
33.8170288646
  0
VERTEX
  8
0
 62
7
  6
CONTINUOUS
 10
153.2413757276
 20
33.816416912
  0
VERTEX
  8
0
 62
7
  6
CONTINUOUS
 10
153.1978533875
 20
33.8175559329
  0
VERTEX
  8
0
 62
7
  6
CONTINUOUS
 10
153.1592019394
 20
33.8206409057
  0
VERTEX
  8
0
 62
7
  6
CONTINUOUS
 10
153.1275535162
 20
33.8256580402
  0
VERTEX
  8
0
 62
7
  6
CONTINUOUS
 10
153.1046030025
 20
33.8324280561
  0
VERTEX
  8
0
 62
7
  6
CONTINUOUS
 10
153.0914773212
 20
33.8406427298
  0
VERTEX
  8
0
 62
7
  6
CONTINUOUS
 10
153.0884637077
 20
33.8466921708
  0
SEQEND
  0
POLYLINE
  8
0
 62
7
  6
CONTINUOUS
 66
1
 70
0
  0
VERTEX
  8
0
 62
7
  6
CONTINUOUS
 10
136.4884044028
 20
33.8170288646
  0
VERTEX
  8
0
 62
7
  6
CONTINUOUS
 10
136.4413757276
 20
33.816416912
  0
VERTEX
  8
0
 62
7
  6
CONTINUOUS
 10
136.3978533875
 20
33.8175559329
  0
VERTEX
  8
0
 62
7
  6
CONTINUOUS
 10
136.3592019394
 20
33.8206409057
  0
VERTEX
  8
0
 62
7
  6
CONTINUOUS
 10
136.3275535162
 20
33.8256580402
  0
VERTEX
  8
0
 62
7
  6
CONTINUOUS
 10
136.3046030025
 20
33.8324280561
  0
VERTEX
  8
0
 62
7
  6
CONTINUOUS
 10
136.2914773212
 20
33.8406427298
  0
VERTEX
  8
0
 62
7
  6
CONTINUOUS
 10
136.2884637077
 20
33.8466921708
  0
SEQEND
  0
POLYLINE
  8
0
 62
7
  6
CONTINUOUS
 66
1
 70
0
  0
VERTEX
  8
0
 62
7
  6
CONTINUOUS
 10
119.6884044028
 20
33.8170288646
  0
VERTEX
  8
0
 62
7
  6
CONTINUOUS
 10
119.6413757276
 20
33.816416912
  0
VERTEX
  8
0
 62
7
  6
CONTINUOUS
 10
119.5978533875
 20
33.8175559329
  0
VERTEX
  8
0
 62
7
  6
CONTINUOUS
 10
119.5592019394
 20
33.8206409057
  0
VERTEX
  8
0
 62
7
  6
CONTINUOUS
 10
119.5275535162
 20
33.8256580402
  0
VERTEX
  8
0
 62
7
  6
CONTINUOUS
 10
119.5046030025
 20
33.8324280561
  0
VERTEX
  8
0
 62
7
  6
CONTINUOUS
 10
119.4914773212
 20
33.8406427298
  0
VERTEX
  8
0
 62
7
  6
CONTINUOUS
 10
119.4884637077
 20
33.8466921708
  0
SEQEND
  0
POLYLINE
  8
0
 62
7
  6
CONTINUOUS
 66
1
 70
0
  0
VERTEX
  8
0
 62
7
  6
CONTINUOUS
 10
102.8884044028
 20
33.8170288646
  0
VERTEX
  8
0
 62
7
  6
CONTINUOUS
 10
102.8413757276
 20
33.816416912
  0
VERTEX
  8
0
 62
7
  6
CONTINUOUS
 10
102.7978533875
 20
33.8175559329
  0
VERTEX
  8
0
 62
7
  6
CONTINUOUS
 10
102.7592019394
 20
33.8206409057
  0
VERTEX
  8
0
 62
7
  6
CONTINUOUS
 10
102.7275535162
 20
33.8256580402
  0
VERTEX
  8
0
 62
7
  6
CONTINUOUS
 10
102.7046030025
 20
33.8324280561
  0
VERTEX
  8
0
 62
7
  6
CONTINUOUS
 10
102.6914773212
 20
33.8406427298
  0
VERTEX
  8
0
 62
7
  6
CONTINUOUS
 10
102.6884637077
 20
33.8466921708
  0
SEQEND
  0
POLYLINE
  8
0
 62
7
  6
CONTINUOUS
 66
1
 70
0
  0
VERTEX
  8
0
 62
7
  6
CONTINUOUS
 10
86.0884044028
 20
33.8170288646
  0
VERTEX
  8
0
 62
7
  6
CONTINUOUS
 10
86.0413757276
 20
33.816416912
  0
VERTEX
  8
0
 62
7
  6
CONTINUOUS
 10
85.9978533875
 20
33.8175559329
  0
VERTEX
  8
0
 62
7
  6
CONTINUOUS
 10
85.9592019394
 20
33.8206409057
  0
VERTEX
  8
0
 62
7
  6
CONTINUOUS
 10
85.9275535162
 20
33.8256580402
  0
VERTEX
  8
0
 62
7
  6
CONTINUOUS
 10
85.9046030025
 20
33.8324280561
  0
VERTEX
  8
0
 62
7
  6
CONTINUOUS
 10
85.8914773212
 20
33.8406427298
  0
VERTEX
  8
0
 62
7
  6
CONTINUOUS
 10
85.8884637077
 20
33.8466921708
  0
SEQEND
  0
POLYLINE
  8
0
 62
7
  6
CONTINUOUS
 66
1
 70
0
  0
VERTEX
  8
0
 62
7
  6
CONTINUOUS
 10
69.2884044028
 20
33.8170288646
  0
VERTEX
  8
0
 62
7
  6
CONTINUOUS
 10
69.2413757276
 20
33.816416912
  0
VERTEX
  8
0
 62
7
  6
CONTINUOUS
 10
69.1978533875
 20
33.8175559329
  0
VERTEX
  8
0
 62
7
  6
CONTINUOUS
 10
69.1592019394
 20
33.8206409057
  0
VERTEX
  8
0
 62
7
  6
CONTINUOUS
 10
69.1275535162
 20
33.8256580402
  0
VERTEX
  8
0
 62
7
  6
CONTINUOUS
 10
69.1046030025
 20
33.8324280561
  0
VERTEX
  8
0
 62
7
  6
CONTINUOUS
 10
69.0914773212
 20
33.8406427298
  0
VERTEX
  8
0
 62
7
  6
CONTINUOUS
 10
69.0884637077
 20
33.8466921708
  0
SEQEND
  0
POLYLINE
  8
0
 62
7
  6
CONTINUOUS
 66
1
 70
0
  0
VERTEX
  8
0
 62
7
  6
CONTINUOUS
 10
52.4884044028
 20
33.8170288646
  0
VERTEX
  8
0
 62
7
  6
CONTINUOUS
 10
52.4413757276
 20
33.816416912
  0
VERTEX
  8
0
 62
7
  6
CONTINUOUS
 10
52.3978533875
 20
33.8175559329
  0
VERTEX
  8
0
 62
7
  6
CONTINUOUS
 10
52.3592019394
 20
33.8206409057
  0
VERTEX
  8
0
 62
7
  6
CONTINUOUS
 10
52.3275535162
 20
33.8256580402
  0
VERTEX
  8
0
 62
7
  6
CONTINUOUS
 10
52.3046030025
 20
33.8324280561
  0
VERTEX
  8
0
 62
7
  6
CONTINUOUS
 10
52.2914773212
 20
33.8406427298
  0
VERTEX
  8
0
 62
7
  6
CONTINUOUS
 10
52.2884637077
 20
33.8466921708
  0
SEQEND
  0
LINE
  8
0
 62
6
  6
CONTINUOUS
 10
175.1799779633
 20
33.8170757314
 11
175.1743396591
 21
33.8170288664
  0
LINE
  8
0
 62
7
  6
CONTINUOUS
 10
43.5180680891
 20
33.8170288646
 11
35.703236246
 21
33.8170288646
  0
LINE
  8
0
 62
7
  6
CONTINUOUS
 10
52.4884044028
 20
33.8170288646
 11
60.3180680891
 21
33.8170288646
  0
LINE
  8
0
 62
7
  6
CONTINUOUS
 10
69.2884044028
 20
33.8170288646
 11
77.1180680891
 21
33.8170288646
  0
LINE
  8
0
 62
7
  6
CONTINUOUS
 10
86.0884044028
 20
33.8170288646
 11
93.9180680891
 21
33.8170288646
  0
LINE
  8
0
 62
7
  6
CONTINUOUS
 10
102.8884044028
 20
33.8170288646
 11
110.7180680891
 21
33.8170288646
  0
LINE
  8
0
 62
7
  6
CONTINUOUS
 10
119.6884044028
 20
33.8170288646
 11
127.5180680891
 21
33.8170288646
  0
LINE
  8
0
 62
7
  6
CONTINUOUS
 10
136.4884044028
 20
33.8170288646
 11
144.3180680891
 21
33.8170288646
  0
LINE
  8
0
 62
7
  6
CONTINUOUS
 10
153.2884044028
 20
33.8170288646
 11
161.1180680891
 21
33.8170288646
  0
LINE
  8
0
 62
7
  6
CONTINUOUS
 10
170.0884044028
 20
33.8170288646
 11
177.9180680891
 21
33.8170288646
  0
LINE
  8
0
 62
6
  6
CONTINUOUS
 10
170.0863684191
 20
33.8170288646
 11
170.0884044028
 21
33.8170288646
  0
LINE
  8
0
 62
6
  6
CONTINUOUS
 10
177.9180680891
 20
33.8170288646
 11
177.9201040728
 21
33.8170288646
  0
LINE
  8
DEFAULT_1
 62
2
  6
CENTER
 10
33.303236246
 20
36.6893101879
 11
188.703236246
 21
36.6893101879
  0
LINE
  8
0
 62
6
  6
CONTINUOUS
 10
172.8264945286
 20
33.8170757314
 11
172.8321328328
 21
33.8170288664
  0
POLYLINE
  8
0
 62
6
  6
CONTINUOUS
 66
1
 70
0
  0
VERTEX
  8
0
 62
6
  6
CONTINUOUS
 10
172.8264945286
 20
33.8170757314
  0
VERTEX
  8
0
 62
6
  6
CONTINUOUS
 10
172.6394276752
 20
33.8230686744
  0
VERTEX
  8
0
 62
6
  6
CONTINUOUS
 10
172.4594730226
 20
33.8344771011
  0
VERTEX
  8
0
 62
6
  6
CONTINUOUS
 10
172.2928525325
 20
33.8507599267
  0
VERTEX
  8
0
 62
6
  6
CONTINUOUS
 10
172.1452441241
 20
33.871260509
  0
VERTEX
  8
0
 62
6
  6
CONTINUOUS
 10
172.0215848353
 20
33.895212884
  0
VERTEX
  8
0
 62
6
  6
CONTINUOUS
 10
171.9259180981
 20
33.92175387
  0
VERTEX
  8
0
 62
6
  6
CONTINUOUS
 10
171.8612866643
 20
33.9499394038
  0
VERTEX
  8
0
 62
6
  6
CONTINUOUS
 10
171.8296737947
 20
33.9787625892
  0
SEQEND
  0
POLYLINE
  8
0
 62
7
  6
CONTINUOUS
 66
1
 70
0
  0
VERTEX
  8
0
 62
7
  6
CONTINUOUS
 10
51.9128003385
 20
41.0105016475
  0
VERTEX
  8
0
 62
7
  6
CONTINUOUS
 10
51.9315807665
 20
41.0093455341
  0
VERTEX
  8
0
 62
7
  6
CONTINUOUS
 10
51.9717147427
 20
40.9998446107
  0
VERTEX
  8
0
 62
7
  6
CONTINUOUS
 10
52.0112490581
 20
40.9815556297
  0
VERTEX
  8
0
 62
7
  6
CONTINUOUS
 10
52.0485512391
 20
40.956054579
  0
VERTEX
  8
0
 62
7
  6
CONTINUOUS
 10
52.0832097503
 20
40.9244512838
  0
VERTEX
  8
0
 62
7
  6
CONTINUOUS
 10
52.1148327582
 20
40.8877679291
  0
VERTEX
  8
0
 62
7
  6
CONTINUOUS
 10
52.1434615181
 20
40.8465703616
  0
VERTEX
  8
0
 62
7
  6
CONTINUOUS
 10
52.169146643
 20
40.801221724
  0
VERTEX
  8
0
 62
7
  6
CONTINUOUS
 10
52.1918470122
 20
40.752174529
  0
VERTEX
  8
0
 62
7
  6
CONTINUOUS
 10
52.2113878747
 20
40.7002682852
  0
VERTEX
  8
0
 62
7
  6
CONTINUOUS
 10
52.2282618907
 20
40.644976558
  0
VERTEX
  8
0
 62
7
  6
CONTINUOUS
 10
52.2429993579
 20
40.5866447659
  0
VERTEX
  8
0
 62
7
  6
CONTINUOUS
 10
52.2557195599
 20
40.5256742347
  0
VERTEX
  8
0
 62
7
  6
CONTINUOUS
 10
52.266551603
 20
40.4623374759
  0
VERTEX
  8
0
 62
7
  6
CONTINUOUS
 10
52.2755125182
 20
40.3967847034
  0
VERTEX
  8
0
 62
7
  6
CONTINUOUS
 10
52.2826963606
 20
40.3290325858
  0
VERTEX
  8
0
 62
7
  6
CONTINUOUS
 10
52.2881857839
 20
40.2594105991
  0
VERTEX
  8
0
 62
7
  6
CONTINUOUS
 10
52.2920687898
 20
40.1881129932
  0
VERTEX
  8
0
 62
7
  6
CONTINUOUS
 10
52.2944616669
 20
40.1152163044
  0
VERTEX
  8
0
 62
7
  6
CONTINUOUS
 10
52.2954975893
 20
40.0408401081
  0
VERTEX
  8
0
 62
7
  6
CONTINUOUS
 10
52.2952984563
 20
39.9651373139
  0
SEQEND
  0
LINE
  8
0
 62
7
  6
CONTINUOUS
 10
68.037488695
 20
94.1271276979
 11
67.8577054198
 21
94.5280769197
  0
POLYLINE
  8
0
 62
7
  6
CONTINUOUS
 66
1
 70
0
  0
VERTEX
  8
0
 62
7
  6
CONTINUOUS
 10
86.9606073398
 20
29.5548854414
  0
VERTEX
  8
0
 62
7
  6
CONTINUOUS
 10
86.9864132751
 20
29.398007303
  0
VERTEX
  8
0
 62
7
  6
CONTINUOUS
 10
87.0154061926
 20
29.2412823579
  0
VERTEX
  8
0
 62
7
  6
CONTINUOUS
 10
87.0443617231
 20
29.1037561486
  0
VERTEX
  8
0
 62
7
  6
CONTINUOUS
 10
87.0736226735
 20
28.9824592051
  0
VERTEX
  8
0
 62
7
  6
CONTINUOUS
 10
87.1037452636
 20
28.8744671755
  0
VERTEX
  8
0
 62
7
  6
CONTINUOUS
 10
87.1356588948
 20
28.7767262723
  0
VERTEX
  8
0
 62
7
  6
CONTINUOUS
 10
87.1709567869
 20
28.6858894057
  0
VERTEX
  8
0
 62
7
  6
CONTINUOUS
 10
87.2121822579
 20
28.5986828179
  0
VERTEX
  8
0
 62
7
  6
CONTINUOUS
 10
87.2630382805
 20
28.5126684921
  0
VERTEX
  8
0
 62
7
  6
CONTINUOUS
 10
87.3286097385
 20
28.4269450709
  0
VERTEX
  8
0
 62
7
  6
CONTINUOUS
 10
87.4137764297
 20
28.344454034
  0
VERTEX
  8
0
 62
7
  6
CONTINUOUS
 10
87.5202326818
 20
28.2724970369
  0
VERTEX
  8
0
 62
7
  6
CONTINUOUS
 10
87.6452441158
 20
28.21960694
  0
VERTEX
  8
0
 62
7
  6
CONTINUOUS
 10
87.7819833719
 20
28.1923642989
  0
VERTEX
  8
0
 62
7
  6
CONTINUOUS
 10
87.8470478539
 20
28.1893102751
  0
SEQEND
  0
LINE
  8
0
 62
7
  6
CONTINUOUS
 10
86.9447059578
 20
29.6596046209
 11
86.9606083321
 21
29.5548790762
  0
POLYLINE
  8
0
 62
7
  6
CONTINUOUS
 66
1
 70
0
  0
VERTEX
  8
0
 62
7
  6
CONTINUOUS
 10
85.8884636781
 20
33.8466863051
  0
VERTEX
  8
0
 62
7
  6
CONTINUOUS
 10
85.9598409331
 20
33.2983949227
  0
VERTEX
  8
0
 62
7
  6
CONTINUOUS
 10
86.0544903945
 20
32.6984135073
  0
VERTEX
  8
0
 62
7
  6
CONTINUOUS
 10
86.1651009993
 20
32.1156265428
  0
VERTEX
  8
0
 62
7
  6
CONTINUOUS
 10
86.2917148855
 20
31.5550408765
  0
VERTEX
  8
0
 62
7
  6
CONTINUOUS
 10
86.4343476399
 20
31.0214931982
  0
VERTEX
  8
0
 62
7
  6
CONTINUOUS
 10
86.5930455641
 20
30.5196428201
  0
VERTEX
  8
0
 62
7
  6
CONTINUOUS
 10
86.7680393457
 20
30.0537922148
  0
SEQEND
  0
LINE
  8
0
 62
7
  6
CONTINUOUS
 10
85.7180087809
 20
90.3319282332
 11
85.7180680861
 21
90.3309082934
  0
LINE
  8
0
 62
7
  6
CONTINUOUS
 10
94.288463711
 20
90.3319282332
 11
94.2884044058
 21
90.3309082934
  0
LINE
  8
0
 62
7
  6
CONTINUOUS
 10
95.3606084678
 20
94.6237421695
 11
95.3447036832
 21
94.5190148275
  0
POLYLINE
  8
0
 62
7
  6
CONTINUOUS
 66
1
 70
0
  0
VERTEX
  8
0
 62
7
  6
CONTINUOUS
 10
76.257706463
 20
29.6505455822
  0
VERTEX
  8
0
 62
7
  6
CONTINUOUS
 10
76.4384331901
 20
30.0537923217
  0
VERTEX
  8
0
 62
7
  6
CONTINUOUS
 10
76.6134270079
 20
30.5196430529
  0
VERTEX
  8
0
 62
7
  6
CONTINUOUS
 10
76.7721249609
 20
31.021493573
  0
VERTEX
  8
0
 62
7
  6
CONTINUOUS
 10
76.9147577366
 20
31.5550414064
  0
VERTEX
  8
0
 62
7
  6
CONTINUOUS
 10
77.0413716364
 20
32.1156272372
  0
VERTEX
  8
0
 62
7
  6
CONTINUOUS
 10
77.1519822473
 20
32.6984143722
  0
VERTEX
  8
0
 62
7
  6
CONTINUOUS
 10
77.2466317071
 20
33.2983959606
  0
VERTEX
  8
0
 62
7
  6
CONTINUOUS
 10
77.3180088138
 20
33.8466863051
  0
SEQEND
  0
LINE
  8
0
 62
7
  6
CONTINUOUS
 10
186.303236246
 20
41.0106997726
 11
178.493499256
 21
41.0105013707
  0
LINE
  8
0
 62
7
  6
CONTINUOUS
 10
169.4338685133
 20
41.0106997726
 11
161.693499256
 21
41.0105013707
  0
LINE
  8
0
 62
7
  6
CONTINUOUS
 10
152.6338685133
 20
41.0106997726
 11
144.893499256
 21
41.0105013707
  0
LINE
  8
0
 62
7
  6
CONTINUOUS
 10
135.8338685133
 20
41.0106997726
 11
128.093499256
 21
41.0105013707
  0
LINE
  8
0
 62
7
  6
CONTINUOUS
 10
119.0338685133
 20
41.0106997726
 11
111.293499256
 21
41.0105013707
  0
LINE
  8
0
 62
7
  6
CONTINUOUS
 10
102.2338685133
 20
41.0106997726
 11
94.493499256
 21
41.0105013707
  0
LINE
  8
0
 62
7
  6
CONTINUOUS
 10
85.4338685133
 20
41.0106997726
 11
77.693499256
 21
41.0105013707
  0
LINE
  8
0
 62
7
  6
CONTINUOUS
 10
68.6338685133
 20
41.0106997726
 11
60.893499256
 21
41.0105013707
  0
LINE
  8
0
 62
7
  6
CONTINUOUS
 10
51.8338685133
 20
41.0106997726
 11
44.093499256
 21
41.0105013707
  0
LINE
  8
0
 62
7
  6
CONTINUOUS
 10
51.9128005178
 20
41.0104715182
 11
51.8338679642
 21
41.0107450361
  0
LINE
  8
0
 62
7
  6
CONTINUOUS
 10
68.7128005178
 20
41.0104715182
 11
68.6338679642
 21
41.0107450361
  0
LINE
  8
0
 62
7
  6
CONTINUOUS
 10
85.5128005178
 20
41.0104715182
 11
85.4338679642
 21
41.0107450361
  0
LINE
  8
0
 62
7
  6
CONTINUOUS
 10
102.3128005178
 20
41.0104715182
 11
102.2338679642
 21
41.0107450361
  0
LINE
  8
0
 62
7
  6
CONTINUOUS
 10
119.1128005178
 20
41.0104715182
 11
119.0338679642
 21
41.0107450361
  0
LINE
  8
0
 62
7
  6
CONTINUOUS
 10
135.9128005178
 20
41.0104715182
 11
135.8338679642
 21
41.0107450361
  0
LINE
  8
0
 62
7
  6
CONTINUOUS
 10
152.7128005178
 20
41.0104715182
 11
152.6338679642
 21
41.0107450361
  0
LINE
  8
0
 62
7
  6
CONTINUOUS
 10
169.5128005178
 20
41.0104715182
 11
169.4338679642
 21
41.0107450361
  0
LINE
  8
0
 62
6
  6
CONTINUOUS
 10
169.5139790695
 20
41.2604235392
 11
169.4338684791
 21
41.2606997725
  0
LINE
  8
0
 62
6
  6
CONTINUOUS
 10
169.5139790713
 20
41.1333494526
 11
169.4338684791
 21
41.1336192875
  0
POLYLINE
  8
0
 62
7
  6
CONTINUOUS
 66
1
 70
0
  0
VERTEX
  8
0
 62
7
  6
CONTINUOUS
 10
68.7128003385
 20
41.0105016475
  0
VERTEX
  8
0
 62
7
  6
CONTINUOUS
 10
68.7315807665
 20
41.0093455341
  0
VERTEX
  8
0
 62
7
  6
CONTINUOUS
 10
68.7717147427
 20
40.9998446107
  0
VERTEX
  8
0
 62
7
  6
CONTINUOUS
 10
68.8112490581
 20
40.9815556297
  0
VERTEX
  8
0
 62
7
  6
CONTINUOUS
 10
68.8485512391
 20
40.956054579
  0
VERTEX
  8
0
 62
7
  6
CONTINUOUS
 10
68.8832097503
 20
40.9244512838
  0
VERTEX
  8
0
 62
7
  6
CONTINUOUS
 10
68.9148327582
 20
40.8877679291
  0
VERTEX
  8
0
 62
7
  6
CONTINUOUS
 10
68.9434615181
 20
40.8465703616
  0
VERTEX
  8
0
 62
7
  6
CONTINUOUS
 10
68.969146643
 20
40.801221724
  0
VERTEX
  8
0
 62
7
  6
CONTINUOUS
 10
68.9918470122
 20
40.752174529
  0
VERTEX
  8
0
 62
7
  6
CONTINUOUS
 10
69.0113878747
 20
40.7002682852
  0
VERTEX
  8
0
 62
7
  6
CONTINUOUS
 10
69.0282618907
 20
40.644976558
  0
VERTEX
  8
0
 62
7
  6
CONTINUOUS
 10
69.0429993579
 20
40.5866447659
  0
VERTEX
  8
0
 62
7
  6
CONTINUOUS
 10
69.0557195599
 20
40.5256742347
  0
VERTEX
  8
0
 62
7
  6
CONTINUOUS
 10
69.066551603
 20
40.4623374759
  0
VERTEX
  8
0
 62
7
  6
CONTINUOUS
 10
69.0755125182
 20
40.3967847034
  0
VERTEX
  8
0
 62
7
  6
CONTINUOUS
 10
69.0826963606
 20
40.3290325858
  0
VERTEX
  8
0
 62
7
  6
CONTINUOUS
 10
69.0881857839
 20
40.2594105991
  0
VERTEX
  8
0
 62
7
  6
CONTINUOUS
 10
69.0920687898
 20
40.1881129932
  0
VERTEX
  8
0
 62
7
  6
CONTINUOUS
 10
69.0944616669
 20
40.1152163044
  0
VERTEX
  8
0
 62
7
  6
CONTINUOUS
 10
69.0954975893
 20
40.0408401081
  0
VERTEX
  8
0
 62
7
  6
CONTINUOUS
 10
69.0952984563
 20
39.9651373139
  0
SEQEND
  0
POLYLINE
  8
0
 62
7
  6
CONTINUOUS
 66
1
 70
0
  0
VERTEX
  8
0
 62
7
  6
CONTINUOUS
 10
85.5128003385
 20
41.0105016475
  0
VERTEX
  8
0
 62
7
  6
CONTINUOUS
 10
85.5315807665
 20
41.0093455341
  0
VERTEX
  8
0
 62
7
  6
CONTINUOUS
 10
85.5717147427
 20
40.9998446107
  0
VERTEX
  8
0
 62
7
  6
CONTINUOUS
 10
85.6112490581
 20
40.9815556297
  0
VERTEX
  8
0
 62
7
  6
CONTINUOUS
 10
85.6485512391
 20
40.956054579
  0
VERTEX
  8
0
 62
7
  6
CONTINUOUS
 10
85.6832097503
 20
40.9244512838
  0
VERTEX
  8
0
 62
7
  6
CONTINUOUS
 10
85.7148327582
 20
40.8877679291
  0
VERTEX
  8
0
 62
7
  6
CONTINUOUS
 10
85.7434615181
 20
40.8465703616
  0
VERTEX
  8
0
 62
7
  6
CONTINUOUS
 10
85.769146643
 20
40.801221724
  0
VERTEX
  8
0
 62
7
  6
CONTINUOUS
 10
85.7918470122
 20
40.752174529
  0
VERTEX
  8
0
 62
7
  6
CONTINUOUS
 10
85.8113878747
 20
40.7002682852
  0
VERTEX
  8
0
 62
7
  6
CONTINUOUS
 10
85.8282618907
 20
40.644976558
  0
VERTEX
  8
0
 62
7
  6
CONTINUOUS
 10
85.8429993579
 20
40.5866447659
  0
VERTEX
  8
0
 62
7
  6
CONTINUOUS
 10
85.8557195599
 20
40.5256742347
  0
VERTEX
  8
0
 62
7
  6
CONTINUOUS
 10
85.866551603
 20
40.4623374759
  0
VERTEX
  8
0
 62
7
  6
CONTINUOUS
 10
85.8755125182
 20
40.3967847034
  0
VERTEX
  8
0
 62
7
  6
CONTINUOUS
 10
85.8826963606
 20
40.3290325858
  0
VERTEX
  8
0
 62
7
  6
CONTINUOUS
 10
85.8881857839
 20
40.2594105991
  0
VERTEX
  8
0
 62
7
  6
CONTINUOUS
 10
85.8920687898
 20
40.1881129932
  0
VERTEX
  8
0
 62
7
  6
CONTINUOUS
 10
85.8944616669
 20
40.1152163044
  0
VERTEX
  8
0
 62
7
  6
CONTINUOUS
 10
85.8954975893
 20
40.0408401081
  0
VERTEX
  8
0
 62
7
  6
CONTINUOUS
 10
85.8952984563
 20
39.9651373139
  0
SEQEND
  0
POLYLINE
  8
0
 62
7
  6
CONTINUOUS
 66
1
 70
0
  0
VERTEX
  8
0
 62
7
  6
CONTINUOUS
 10
102.3128003385
 20
41.0105016475
  0
VERTEX
  8
0
 62
7
  6
CONTINUOUS
 10
102.3315807665
 20
41.0093455341
  0
VERTEX
  8
0
 62
7
  6
CONTINUOUS
 10
102.3717147427
 20
40.9998446107
  0
VERTEX
  8
0
 62
7
  6
CONTINUOUS
 10
102.4112490581
 20
40.9815556297
  0
VERTEX
  8
0
 62
7
  6
CONTINUOUS
 10
102.4485512391
 20
40.956054579
  0
VERTEX
  8
0
 62
7
  6
CONTINUOUS
 10
102.4832097503
 20
40.9244512838
  0
VERTEX
  8
0
 62
7
  6
CONTINUOUS
 10
102.5148327582
 20
40.8877679291
  0
VERTEX
  8
0
 62
7
  6
CONTINUOUS
 10
102.5434615181
 20
40.8465703616
  0
VERTEX
  8
0
 62
7
  6
CONTINUOUS
 10
102.569146643
 20
40.801221724
  0
VERTEX
  8
0
 62
7
  6
CONTINUOUS
 10
102.5918470122
 20
40.752174529
  0
VERTEX
  8
0
 62
7
  6
CONTINUOUS
 10
102.6113878747
 20
40.7002682852
  0
VERTEX
  8
0
 62
7
  6
CONTINUOUS
 10
102.6282618907
 20
40.644976558
  0
VERTEX
  8
0
 62
7
  6
CONTINUOUS
 10
102.6429993579
 20
40.5866447659
  0
VERTEX
  8
0
 62
7
  6
CONTINUOUS
 10
102.6557195599
 20
40.5256742347
  0
VERTEX
  8
0
 62
7
  6
CONTINUOUS
 10
102.666551603
 20
40.4623374759
  0
VERTEX
  8
0
 62
7
  6
CONTINUOUS
 10
102.6755125182
 20
40.3967847034
  0
VERTEX
  8
0
 62
7
  6
CONTINUOUS
 10
102.6826963606
 20
40.3290325858
  0
VERTEX
  8
0
 62
7
  6
CONTINUOUS
 10
102.6881857839
 20
40.2594105991
  0
VERTEX
  8
0
 62
7
  6
CONTINUOUS
 10
102.6920687898
 20
40.1881129932
  0
VERTEX
  8
0
 62
7
  6
CONTINUOUS
 10
102.6944616669
 20
40.1152163044
  0
VERTEX
  8
0
 62
7
  6
CONTINUOUS
 10
102.6954975893
 20
40.0408401081
  0
VERTEX
  8
0
 62
7
  6
CONTINUOUS
 10
102.6952984563
 20
39.9651373139
  0
SEQEND
  0
POLYLINE
  8
0
 62
7
  6
CONTINUOUS
 66
1
 70
0
  0
VERTEX
  8
0
 62
7
  6
CONTINUOUS
 10
119.1128003385
 20
41.0105016475
  0
VERTEX
  8
0
 62
7
  6
CONTINUOUS
 10
119.1315807665
 20
41.0093455341
  0
VERTEX
  8
0
 62
7
  6
CONTINUOUS
 10
119.1717147427
 20
40.9998446107
  0
VERTEX
  8
0
 62
7
  6
CONTINUOUS
 10
119.2112490581
 20
40.9815556297
  0
VERTEX
  8
0
 62
7
  6
CONTINUOUS
 10
119.2485512391
 20
40.956054579
  0
VERTEX
  8
0
 62
7
  6
CONTINUOUS
 10
119.2832097503
 20
40.9244512838
  0
VERTEX
  8
0
 62
7
  6
CONTINUOUS
 10
119.3148327582
 20
40.8877679291
  0
VERTEX
  8
0
 62
7
  6
CONTINUOUS
 10
119.3434615181
 20
40.8465703616
  0
VERTEX
  8
0
 62
7
  6
CONTINUOUS
 10
119.369146643
 20
40.801221724
  0
VERTEX
  8
0
 62
7
  6
CONTINUOUS
 10
119.3918470122
 20
40.752174529
  0
VERTEX
  8
0
 62
7
  6
CONTINUOUS
 10
119.4113878747
 20
40.7002682852
  0
VERTEX
  8
0
 62
7
  6
CONTINUOUS
 10
119.4282618907
 20
40.644976558
  0
VERTEX
  8
0
 62
7
  6
CONTINUOUS
 10
119.4429993579
 20
40.5866447659
  0
VERTEX
  8
0
 62
7
  6
CONTINUOUS
 10
119.4557195599
 20
40.5256742347
  0
VERTEX
  8
0
 62
7
  6
CONTINUOUS
 10
119.466551603
 20
40.4623374759
  0
VERTEX
  8
0
 62
7
  6
CONTINUOUS
 10
119.4755125182
 20
40.3967847034
  0
VERTEX
  8
0
 62
7
  6
CONTINUOUS
 10
119.4826963606
 20
40.3290325858
  0
VERTEX
  8
0
 62
7
  6
CONTINUOUS
 10
119.4881857839
 20
40.2594105991
  0
VERTEX
  8
0
 62
7
  6
CONTINUOUS
 10
119.4920687898
 20
40.1881129932
  0
VERTEX
  8
0
 62
7
  6
CONTINUOUS
 10
119.4944616669
 20
40.1152163044
  0
VERTEX
  8
0
 62
7
  6
CONTINUOUS
 10
119.4954975893
 20
40.0408401081
  0
VERTEX
  8
0
 62
7
  6
CONTINUOUS
 10
119.4952984563
 20
39.9651373139
  0
SEQEND
  0
POLYLINE
  8
0
 62
7
  6
CONTINUOUS
 66
1
 70
0
  0
VERTEX
  8
0
 62
7
  6
CONTINUOUS
 10
135.9128003385
 20
41.0105016475
  0
VERTEX
  8
0
 62
7
  6
CONTINUOUS
 10
135.9315807665
 20
41.0093455341
  0
VERTEX
  8
0
 62
7
  6
CONTINUOUS
 10
135.9717147427
 20
40.9998446107
  0
VERTEX
  8
0
 62
7
  6
CONTINUOUS
 10
136.0112490581
 20
40.9815556297
  0
VERTEX
  8
0
 62
7
  6
CONTINUOUS
 10
136.0485512391
 20
40.956054579
  0
VERTEX
  8
0
 62
7
  6
CONTINUOUS
 10
136.0832097503
 20
40.9244512838
  0
VERTEX
  8
0
 62
7
  6
CONTINUOUS
 10
136.1148327582
 20
40.8877679291
  0
VERTEX
  8
0
 62
7
  6
CONTINUOUS
 10
136.1434615181
 20
40.8465703616
  0
VERTEX
  8
0
 62
7
  6
CONTINUOUS
 10
136.169146643
 20
40.801221724
  0
VERTEX
  8
0
 62
7
  6
CONTINUOUS
 10
136.1918470122
 20
40.752174529
  0
VERTEX
  8
0
 62
7
  6
CONTINUOUS
 10
136.2113878747
 20
40.7002682852
  0
VERTEX
  8
0
 62
7
  6
CONTINUOUS
 10
136.2282618907
 20
40.644976558
  0
VERTEX
  8
0
 62
7
  6
CONTINUOUS
 10
136.2429993579
 20
40.5866447659
  0
VERTEX
  8
0
 62
7
  6
CONTINUOUS
 10
136.2557195599
 20
40.5256742347
  0
VERTEX
  8
0
 62
7
  6
CONTINUOUS
 10
136.266551603
 20
40.4623374759
  0
VERTEX
  8
0
 62
7
  6
CONTINUOUS
 10
136.2755125182
 20
40.3967847034
  0
VERTEX
  8
0
 62
7
  6
CONTINUOUS
 10
136.2826963606
 20
40.3290325858
  0
VERTEX
  8
0
 62
7
  6
CONTINUOUS
 10
136.2881857839
 20
40.2594105991
  0
VERTEX
  8
0
 62
7
  6
CONTINUOUS
 10
136.2920687898
 20
40.1881129932
  0
VERTEX
  8
0
 62
7
  6
CONTINUOUS
 10
136.2944616669
 20
40.1152163044
  0
VERTEX
  8
0
 62
7
  6
CONTINUOUS
 10
136.2954975893
 20
40.0408401081
  0
VERTEX
  8
0
 62
7
  6
CONTINUOUS
 10
136.2952984563
 20
39.9651373139
  0
SEQEND
  0
POLYLINE
  8
0
 62
7
  6
CONTINUOUS
 66
1
 70
0
  0
VERTEX
  8
0
 62
7
  6
CONTINUOUS
 10
152.7128003385
 20
41.0105016475
  0
VERTEX
  8
0
 62
7
  6
CONTINUOUS
 10
152.7315807665
 20
41.0093455341
  0
VERTEX
  8
0
 62
7
  6
CONTINUOUS
 10
152.7717147427
 20
40.9998446107
  0
VERTEX
  8
0
 62
7
  6
CONTINUOUS
 10
152.8112490581
 20
40.9815556297
  0
VERTEX
  8
0
 62
7
  6
CONTINUOUS
 10
152.8485512391
 20
40.956054579
  0
VERTEX
  8
0
 62
7
  6
CONTINUOUS
 10
152.8832097503
 20
40.9244512838
  0
VERTEX
  8
0
 62
7
  6
CONTINUOUS
 10
152.9148327582
 20
40.8877679291
  0
VERTEX
  8
0
 62
7
  6
CONTINUOUS
 10
152.9434615181
 20
40.8465703616
  0
VERTEX
  8
0
 62
7
  6
CONTINUOUS
 10
152.969146643
 20
40.801221724
  0
VERTEX
  8
0
 62
7
  6
CONTINUOUS
 10
152.9918470122
 20
40.752174529
  0
VERTEX
  8
0
 62
7
  6
CONTINUOUS
 10
153.0113878747
 20
40.7002682852
  0
VERTEX
  8
0
 62
7
  6
CONTINUOUS
 10
153.0282618907
 20
40.644976558
  0
VERTEX
  8
0
 62
7
  6
CONTINUOUS
 10
153.0429993579
 20
40.5866447659
  0
VERTEX
  8
0
 62
7
  6
CONTINUOUS
 10
153.0557195599
 20
40.5256742347
  0
VERTEX
  8
0
 62
7
  6
CONTINUOUS
 10
153.066551603
 20
40.4623374759
  0
VERTEX
  8
0
 62
7
  6
CONTINUOUS
 10
153.0755125182
 20
40.3967847034
  0
VERTEX
  8
0
 62
7
  6
CONTINUOUS
 10
153.0826963606
 20
40.3290325858
  0
VERTEX
  8
0
 62
7
  6
CONTINUOUS
 10
153.0881857839
 20
40.2594105991
  0
VERTEX
  8
0
 62
7
  6
CONTINUOUS
 10
153.0920687898
 20
40.1881129932
  0
VERTEX
  8
0
 62
7
  6
CONTINUOUS
 10
153.0944616669
 20
40.1152163044
  0
VERTEX
  8
0
 62
7
  6
CONTINUOUS
 10
153.0954975893
 20
40.0408401081
  0
VERTEX
  8
0
 62
7
  6
CONTINUOUS
 10
153.0952984563
 20
39.9651373139
  0
SEQEND
  0
LINE
  8
0
 62
7
  6
CONTINUOUS
 10
103.5680393457
 20
30.0537922148
 11
103.7487660289
 21
29.6505455822
  0
POLYLINE
  8
0
 62
7
  6
CONTINUOUS
 66
1
 70
0
  0
VERTEX
  8
0
 62
7
  6
CONTINUOUS
 10
84.6458650573
 20
94.6237355423
  0
VERTEX
  8
0
 62
7
  6
CONTINUOUS
 10
84.6198188227
 20
94.7819953145
  0
VERTEX
  8
0
 62
7
  6
CONTINUOUS
 10
84.5908701132
 20
94.9383318726
  0
VERTEX
  8
0
 62
7
  6
CONTINUOUS
 10
84.5619614546
 20
95.0755269575
  0
VERTEX
  8
0
 62
7
  6
CONTINUOUS
 10
84.532751028
 20
95.1965423861
  0
VERTEX
  8
0
 62
7
  6
CONTINUOUS
 10
84.502684934
 20
95.304293621
  0
VERTEX
  8
0
 62
7
  6
CONTINUOUS
 10
84.4708386916
 20
95.4018234113
  0
VERTEX
  8
0
 62
7
  6
CONTINUOUS
 10
84.4356302847
 20
95.4924621967
  0
VERTEX
  8
0
 62
7
  6
CONTINUOUS
 10
84.3945448382
 20
95.5794523341
  0
VERTEX
  8
0
 62
7
  6
CONTINUOUS
 10
84.343920177
 20
95.6652219504
  0
VERTEX
  8
0
 62
7
  6
CONTINUOUS
 10
84.2787214273
 20
95.7506967291
  0
VERTEX
  8
0
 62
7
  6
CONTINUOUS
 10
84.1940907534
 20
95.8330191735
  0
VERTEX
  8
0
 62
7
  6
CONTINUOUS
 10
84.0882697315
 20
95.905008239
  0
VERTEX
  8
0
 62
7
  6
CONTINUOUS
 10
83.9639312437
 20
95.9581721696
  0
VERTEX
  8
0
 62
7
  6
CONTINUOUS
 10
83.8278700927
 20
95.9859282459
  0
VERTEX
  8
0
 62
7
  6
CONTINUOUS
 10
83.7594235109
 20
95.9893100995
  0
SEQEND
  0
LINE
  8
0
 62
7
  6
CONTINUOUS
 10
84.6617688087
 20
94.5190148275
 11
84.6458640241
 21
94.6237421695
  0
POLYLINE
  8
0
 62
7
  6
CONTINUOUS
 66
1
 70
0
  0
VERTEX
  8
0
 62
7
  6
CONTINUOUS
 10
85.7180088105
 20
90.3319340989
  0
VERTEX
  8
0
 62
7
  6
CONTINUOUS
 10
85.6461309968
 20
90.8837272203
  0
VERTEX
  8
0
 62
7
  6
CONTINUOUS
 10
85.5514021454
 20
91.4835521472
  0
VERTEX
  8
0
 62
7
  6
CONTINUOUS
 10
85.4407146144
 20
92.0661629527
  0
VERTEX
  8
0
 62
7
  6
CONTINUOUS
 10
85.3140263809
 20
92.6265539745
  0
VERTEX
  8
0
 62
7
  6
CONTINUOUS
 10
85.1713216351
 20
93.1598901766
  0
VERTEX
  8
0
 62
7
  6
CONTINUOUS
 10
85.0125532332
 20
93.6615146571
  0
VERTEX
  8
0
 62
7
  6
CONTINUOUS
 10
84.837488695
 20
94.1271276979
  0
SEQEND
  0
POLYLINE
  8
0
 62
7
  6
CONTINUOUS
 66
1
 70
0
  0
VERTEX
  8
0
 62
7
  6
CONTINUOUS
 10
94.2913559696
 20
84.5037364195
  0
VERTEX
  8
0
 62
7
  6
CONTINUOUS
 10
94.2952993506
 20
84.2133949977
  0
VERTEX
  8
0
 62
7
  6
CONTINUOUS
 10
94.2954972263
 20
84.137699301
  0
VERTEX
  8
0
 62
7
  6
CONTINUOUS
 10
94.2944599278
 20
84.0633293578
  0
VERTEX
  8
0
 62
7
  6
CONTINUOUS
 10
94.2920657414
 20
83.9904386879
  0
VERTEX
  8
0
 62
7
  6
CONTINUOUS
 10
94.2881816187
 20
83.9191470358
  0
VERTEX
  8
0
 62
7
  6
CONTINUOUS
 10
94.2826914243
 20
83.8495323852
  0
VERTEX
  8
0
 62
7
  6
CONTINUOUS
 10
94.2755061762
 20
83.7817864148
  0
VERTEX
  8
0
 62
7
  6
CONTINUOUS
 10
94.2665434459
 20
83.7162230417
  0
VERTEX
  8
0
 62
7
  6
CONTINUOUS
 10
94.2557010999
 20
83.6528532527
  0
VERTEX
  8
0
 62
7
  6
CONTINUOUS
 10
94.2429652218
 20
83.591832421
  0
VERTEX
  8
0
 62
7
  6
CONTINUOUS
 10
94.2282609724
 20
83.5336166357
  0
VERTEX
  8
0
 62
7
  6
CONTINUOUS
 10
94.2113855446
 20
83.4783508406
  0
VERTEX
  8
0
 62
7
  6
CONTINUOUS
 10
94.1918526398
 20
83.4264639687
  0
VERTEX
  8
0
 62
7
  6
CONTINUOUS
 10
94.1691508667
 20
83.3774057743
  0
VERTEX
  8
0
 62
7
  6
CONTINUOUS
 10
94.1434631829
 20
83.3320530558
  0
VERTEX
  8
0
 62
7
  6
CONTINUOUS
 10
94.1148356539
 20
83.2908567247
  0
VERTEX
  8
0
 62
7
  6
CONTINUOUS
 10
94.0832150802
 20
83.2541744713
  0
VERTEX
  8
0
 62
7
  6
CONTINUOUS
 10
94.0485629689
 20
83.222575169
  0
VERTEX
  8
0
 62
7
  6
CONTINUOUS
 10
94.011267421
 20
83.1970756425
  0
VERTEX
  8
0
 62
7
  6
CONTINUOUS
 10
93.9717355585
 20
83.1787834235
  0
VERTEX
  8
0
 62
7
  6
CONTINUOUS
 10
93.931605932
 20
83.1692779467
  0
VERTEX
  8
0
 62
7
  6
CONTINUOUS
 10
93.9127996247
 20
83.1681187244
  0
SEQEND
  0
POLYLINE
  8
0
 62
7
  6
CONTINUOUS
 66
1
 70
0
  0
VERTEX
  8
0
 62
7
  6
CONTINUOUS
 10
94.1150696576
 20
39.6788516862
  0
VERTEX
  8
0
 62
7
  6
CONTINUOUS
 10
94.1111327669
 20
39.9692704341
  0
VERTEX
  8
0
 62
7
  6
CONTINUOUS
 10
94.1109969116
 20
40.0447926713
  0
VERTEX
  8
0
 62
7
  6
CONTINUOUS
 10
94.112098562
 20
40.1189932503
  0
VERTEX
  8
0
 62
7
  6
CONTINUOUS
 10
94.1145605877
 20
40.1917199793
  0
VERTEX
  8
0
 62
7
  6
CONTINUOUS
 10
94.1185162601
 20
40.262858668
  0
VERTEX
  8
0
 62
7
  6
CONTINUOUS
 10
94.1240806466
 20
40.3323309561
  0
VERTEX
  8
0
 62
7
  6
CONTINUOUS
 10
94.1313417143
 20
40.3999354466
  0
VERTEX
  8
0
 62
7
  6
CONTINUOUS
 10
94.140384385
 20
40.4653471826
  0
VERTEX
  8
0
 62
7
  6
CONTINUOUS
 10
94.1512972363
 20
40.528549379
  0
VERTEX
  8
0
 62
7
  6
CONTINUOUS
 10
94.1640999522
 20
40.5893568033
  0
VERTEX
  8
0
 62
7
  6
CONTINUOUS
 10
94.1789247337
 20
40.6475590488
  0
VERTEX
  8
0
 62
7
  6
CONTINUOUS
 10
94.1958852923
 20
40.7026334909
  0
VERTEX
  8
0
 62
7
  6
CONTINUOUS
 10
94.2155586774
 20
40.7543958865
  0
VERTEX
  8
0
 62
7
  6
CONTINUOUS
 10
94.2384015338
 20
40.803316881
  0
VERTEX
  8
0
 62
7
  6
CONTINUOUS
 10
94.2642228175
 20
40.8484966302
  0
VERTEX
  8
0
 62
7
  6
CONTINUOUS
 10
94.2929731897
 20
40.8894886059
  0
VERTEX
  8
0
 62
7
  6
CONTINUOUS
 10
94.3247094219
 20
40.9259398927
  0
VERTEX
  8
0
 62
7
  6
CONTINUOUS
 10
94.3594807408
 20
40.9572899188
  0
VERTEX
  8
0
 62
7
  6
CONTINUOUS
 10
94.396877827
 20
40.982498222
  0
VERTEX
  8
0
 62
7
  6
CONTINUOUS
 10
94.4364723404
 20
41.0004393883
  0
VERTEX
  8
0
 62
7
  6
CONTINUOUS
 10
94.4765983901
 20
41.009540243
  0
VERTEX
  8
0
 62
7
  6
CONTINUOUS
 10
94.4934990942
 20
41.0105010935
  0
SEQEND
  0
LINE
  8
0
 62
7
  6
CONTINUOUS
 10
94.1175117122
 20
39.3958375172
 11
94.1150696576
 21
39.6788516862
  0
LINE
  8
0
 62
7
  6
CONTINUOUS
 10
94.2889399951
 20
84.7867581563
 11
94.2913559696
 21
84.5037364195
  0
LINE
  8
0
 62
7
  6
CONTINUOUS
 10
94.1175117122
 20
39.3958375172
 11
94.1180680891
 21
33.8477365766
  0
LINE
  8
0
 62
7
  6
CONTINUOUS
 10
94.2884044028
 20
90.3308462819
 11
94.2889399951
 21
84.7867581563
  0
LINE
  8
0
 62
2
  6
CONTINUOUS
 10
98.503236246
 20
22.0893101879
 11
98.503236246
 21
62.0893101879
  0
LINE
  8
0
 62
7
  6
CONTINUOUS
 10
94.118068089
 20
33.8477044636
 11
94.118008763
 21
33.8466964265
  0
LINE
  8
0
 62
7
  6
CONTINUOUS
 10
93.0458641598
 20
29.5548790762
 11
93.0617665341
 21
29.6596046212
  0
POLYLINE
  8
0
 62
7
  6
CONTINUOUS
 66
1
 70
0
  0
VERTEX
  8
0
 62
7
  6
CONTINUOUS
 10
112.1487670721
 20
94.5280769197
  0
VERTEX
  8
0
 62
7
  6
CONTINUOUS
 10
111.9689837969
 20
94.1271276979
  0
VERTEX
  8
0
 62
7
  6
CONTINUOUS
 10
111.7939192588
 20
93.6615146571
  0
VERTEX
  8
0
 62
7
  6
CONTINUOUS
 10
111.6351508568
 20
93.1598901766
  0
VERTEX
  8
0
 62
7
  6
CONTINUOUS
 10
111.4924461111
 20
92.6265539745
  0
VERTEX
  8
0
 62
7
  6
CONTINUOUS
 10
111.3657578775
 20
92.0661629527
  0
VERTEX
  8
0
 62
7
  6
CONTINUOUS
 10
111.2550703465
 20
91.4835521472
  0
VERTEX
  8
0
 62
7
  6
CONTINUOUS
 10
111.1603414951
 20
90.8837272203
  0
VERTEX
  8
0
 62
7
  6
CONTINUOUS
 10
111.0884636814
 20
90.3319340989
  0
SEQEND
  0
POLYLINE
  8
0
 62
7
  6
CONTINUOUS
 66
1
 70
0
  0
VERTEX
  8
0
 62
7
  6
CONTINUOUS
 10
77.318008763
 20
33.8466964265
  0
VERTEX
  8
0
 62
7
  6
CONTINUOUS
 10
77.3121970626
 20
33.8380995285
  0
VERTEX
  8
0
 62
7
  6
CONTINUOUS
 10
77.2931103097
 20
33.82930621
  0
VERTEX
  8
0
 62
7
  6
CONTINUOUS
 10
77.2619090626
 20
33.8225777673
  0
VERTEX
  8
0
 62
7
  6
CONTINUOUS
 10
77.2205905167
 20
33.8182580639
  0
VERTEX
  8
0
 62
7
  6
CONTINUOUS
 10
77.1718941705
 20
33.8164691773
  0
VERTEX
  8
0
 62
7
  6
CONTINUOUS
 10
77.1180680891
 20
33.8170288646
  0
SEQEND
  0
POLYLINE
  8
0
 62
7
  6
CONTINUOUS
 66
1
 70
0
  0
VERTEX
  8
0
 62
7
  6
CONTINUOUS
 10
169.5128003385
 20
41.0105016475
  0
VERTEX
  8
0
 62
7
  6
CONTINUOUS
 10
169.5315807665
 20
41.0093455341
  0
VERTEX
  8
0
 62
7
  6
CONTINUOUS
 10
169.5717147427
 20
40.9998446107
  0
VERTEX
  8
0
 62
7
  6
CONTINUOUS
 10
169.6112490581
 20
40.9815556297
  0
VERTEX
  8
0
 62
7
  6
CONTINUOUS
 10
169.6485512391
 20
40.956054579
  0
VERTEX
  8
0
 62
7
  6
CONTINUOUS
 10
169.6832097503
 20
40.9244512838
  0
VERTEX
  8
0
 62
7
  6
CONTINUOUS
 10
169.7148327582
 20
40.8877679291
  0
VERTEX
  8
0
 62
7
  6
CONTINUOUS
 10
169.7434615181
 20
40.8465703616
  0
VERTEX
  8
0
 62
7
  6
CONTINUOUS
 10
169.769146643
 20
40.801221724
  0
VERTEX
  8
0
 62
7
  6
CONTINUOUS
 10
169.7918470122
 20
40.752174529
  0
VERTEX
  8
0
 62
7
  6
CONTINUOUS
 10
169.8113878747
 20
40.7002682852
  0
VERTEX
  8
0
 62
7
  6
CONTINUOUS
 10
169.8282618907
 20
40.644976558
  0
VERTEX
  8
0
 62
7
  6
CONTINUOUS
 10
169.8429993579
 20
40.5866447659
  0
VERTEX
  8
0
 62
7
  6
CONTINUOUS
 10
169.8557195599
 20
40.5256742347
  0
VERTEX
  8
0
 62
7
  6
CONTINUOUS
 10
169.866551603
 20
40.4623374759
  0
VERTEX
  8
0
 62
7
  6
CONTINUOUS
 10
169.8755125182
 20
40.3967847034
  0
VERTEX
  8
0
 62
7
  6
CONTINUOUS
 10
169.8826963606
 20
40.3290325858
  0
VERTEX
  8
0
 62
7
  6
CONTINUOUS
 10
169.8881857839
 20
40.2594105991
  0
VERTEX
  8
0
 62
7
  6
CONTINUOUS
 10
169.8920687898
 20
40.1881129932
  0
VERTEX
  8
0
 62
7
  6
CONTINUOUS
 10
169.8944616669
 20
40.1152163044
  0
VERTEX
  8
0
 62
7
  6
CONTINUOUS
 10
169.8954975893
 20
40.0408401081
  0
VERTEX
  8
0
 62
7
  6
CONTINUOUS
 10
169.8952984563
 20
39.9651373139
  0
SEQEND
  0
POLYLINE
  8
0
 62
7
  6
CONTINUOUS
 66
1
 70
0
  0
VERTEX
  8
0
 62
7
  6
CONTINUOUS
 10
103.7606073398
 20
29.5548854414
  0
VERTEX
  8
0
 62
7
  6
CONTINUOUS
 10
103.7864132751
 20
29.398007303
  0
VERTEX
  8
0
 62
7
  6
CONTINUOUS
 10
103.8154061926
 20
29.2412823579
  0
VERTEX
  8
0
 62
7
  6
CONTINUOUS
 10
103.8443617231
 20
29.1037561486
  0
VERTEX
  8
0
 62
7
  6
CONTINUOUS
 10
103.8736226735
 20
28.9824592051
  0
VERTEX
  8
0
 62
7
  6
CONTINUOUS
 10
103.9037452636
 20
28.8744671755
  0
VERTEX
  8
0
 62
7
  6
CONTINUOUS
 10
103.9356588948
 20
28.7767262723
  0
VERTEX
  8
0
 62
7
  6
CONTINUOUS
 10
103.9709567869
 20
28.6858894057
  0
VERTEX
  8
0
 62
7
  6
CONTINUOUS
 10
104.0121822579
 20
28.5986828179
  0
VERTEX
  8
0
 62
7
  6
CONTINUOUS
 10
104.0630382805
 20
28.5126684921
  0
VERTEX
  8
0
 62
7
  6
CONTINUOUS
 10
104.1286097385
 20
28.4269450709
  0
VERTEX
  8
0
 62
7
  6
CONTINUOUS
 10
104.2137764297
 20
28.344454034
  0
VERTEX
  8
0
 62
7
  6
CONTINUOUS
 10
104.3202326818
 20
28.2724970369
  0
VERTEX
  8
0
 62
7
  6
CONTINUOUS
 10
104.4452441158
 20
28.21960694
  0
VERTEX
  8
0
 62
7
  6
CONTINUOUS
 10
104.5819833719
 20
28.1923642989
  0
VERTEX
  8
0
 62
7
  6
CONTINUOUS
 10
104.6470478539
 20
28.1893102751
  0
SEQEND
  0
LINE
  8
0
 62
7
  6
CONTINUOUS
 10
103.7447059578
 20
29.6596046209
 11
103.7606083321
 21
29.5548790762
  0
POLYLINE
  8
0
 62
7
  6
CONTINUOUS
 66
1
 70
0
  0
VERTEX
  8
0
 62
7
  6
CONTINUOUS
 10
102.6884636781
 20
33.8466863051
  0
VERTEX
  8
0
 62
7
  6
CONTINUOUS
 10
102.7598409331
 20
33.2983949227
  0
VERTEX
  8
0
 62
7
  6
CONTINUOUS
 10
102.8544903945
 20
32.6984135073
  0
VERTEX
  8
0
 62
7
  6
CONTINUOUS
 10
102.9651009993
 20
32.1156265428
  0
VERTEX
  8
0
 62
7
  6
CONTINUOUS
 10
103.0917148855
 20
31.5550408765
  0
VERTEX
  8
0
 62
7
  6
CONTINUOUS
 10
103.2343476399
 20
31.0214931982
  0
VERTEX
  8
0
 62
7
  6
CONTINUOUS
 10
103.3930455641
 20
30.5196428201
  0
VERTEX
  8
0
 62
7
  6
CONTINUOUS
 10
103.5680393457
 20
30.0537922148
  0
SEQEND
  0
LINE
  8
0
 62
7
  6
CONTINUOUS
 10
102.6884637077
 20
33.8466921708
 11
102.6884044058
 21
33.8477120824
  0
LINE
  8
0
 62
7
  6
CONTINUOUS
 10
102.5180087809
 20
90.3319282332
 11
102.5180680861
 21
90.3309082934
  0
POLYLINE
  8
0
 62
7
  6
CONTINUOUS
 66
1
 70
0
  0
VERTEX
  8
0
 62
7
  6
CONTINUOUS
 10
102.5111335159
 20
84.2093635026
  0
VERTEX
  8
0
 62
7
  6
CONTINUOUS
 10
102.5150700606
 20
84.4997725331
  0
VERTEX
  8
0
 62
7
  6
CONTINUOUS
 10
102.5175118044
 20
84.7827847345
  0
VERTEX
  8
0
 62
7
  6
CONTINUOUS
 10
102.5180680891
 20
90.3308462819
  0
SEQEND
  0
POLYLINE
  8
0
 62
7
  6
CONTINUOUS
 66
1
 70
0
  0
VERTEX
  8
0
 62
7
  6
CONTINUOUS
 10
102.6952984563
 20
39.9651373139
  0
VERTEX
  8
0
 62
7
  6
CONTINUOUS
 10
102.6913559698
 20
39.6748839056
  0
VERTEX
  8
0
 62
7
  6
CONTINUOUS
 10
102.6889399953
 20
39.3918622451
  0
VERTEX
  8
0
 62
7
  6
CONTINUOUS
 10
102.6884044028
 20
33.8477740939
  0
SEQEND
  0
LINE
  8
0
 62
7
  6
CONTINUOUS
 10
84.837488695
 20
94.1271276979
 11
84.6577054198
 21
94.5280769197
  0
POLYLINE
  8
0
 62
7
  6
CONTINUOUS
 66
1
 70
0
  0
VERTEX
  8
0
 62
7
  6
CONTINUOUS
 10
111.0913559696
 20
84.5037364195
  0
VERTEX
  8
0
 62
7
  6
CONTINUOUS
 10
111.0952993506
 20
84.2133949977
  0
VERTEX
  8
0
 62
7
  6
CONTINUOUS
 10
111.0954972263
 20
84.137699301
  0
VERTEX
  8
0
 62
7
  6
CONTINUOUS
 10
111.0944599278
 20
84.0633293578
  0
VERTEX
  8
0
 62
7
  6
CONTINUOUS
 10
111.0920657414
 20
83.9904386879
  0
VERTEX
  8
0
 62
7
  6
CONTINUOUS
 10
111.0881816187
 20
83.9191470358
  0
VERTEX
  8
0
 62
7
  6
CONTINUOUS
 10
111.0826914243
 20
83.8495323852
  0
VERTEX
  8
0
 62
7
  6
CONTINUOUS
 10
111.0755061762
 20
83.7817864148
  0
VERTEX
  8
0
 62
7
  6
CONTINUOUS
 10
111.0665434459
 20
83.7162230417
  0
VERTEX
  8
0
 62
7
  6
CONTINUOUS
 10
111.0557010999
 20
83.6528532527
  0
VERTEX
  8
0
 62
7
  6
CONTINUOUS
 10
111.0429652218
 20
83.591832421
  0
VERTEX
  8
0
 62
7
  6
CONTINUOUS
 10
111.0282609724
 20
83.5336166357
  0
VERTEX
  8
0
 62
7
  6
CONTINUOUS
 10
111.0113855446
 20
83.4783508406
  0
VERTEX
  8
0
 62
7
  6
CONTINUOUS
 10
110.9918526398
 20
83.4264639687
  0
VERTEX
  8
0
 62
7
  6
CONTINUOUS
 10
110.9691508667
 20
83.3774057743
  0
VERTEX
  8
0
 62
7
  6
CONTINUOUS
 10
110.9434631829
 20
83.3320530558
  0
VERTEX
  8
0
 62
7
  6
CONTINUOUS
 10
110.9148356539
 20
83.2908567247
  0
VERTEX
  8
0
 62
7
  6
CONTINUOUS
 10
110.8832150802
 20
83.2541744713
  0
VERTEX
  8
0
 62
7
  6
CONTINUOUS
 10
110.8485629689
 20
83.222575169
  0
VERTEX
  8
0
 62
7
  6
CONTINUOUS
 10
110.811267421
 20
83.1970756425
  0
VERTEX
  8
0
 62
7
  6
CONTINUOUS
 10
110.7717355585
 20
83.1787834235
  0
VERTEX
  8
0
 62
7
  6
CONTINUOUS
 10
110.731605932
 20
83.1692779467
  0
VERTEX
  8
0
 62
7
  6
CONTINUOUS
 10
110.7127996247
 20
83.1681187244
  0
SEQEND
  0
POLYLINE
  8
0
 62
7
  6
CONTINUOUS
 66
1
 70
0
  0
VERTEX
  8
0
 62
7
  6
CONTINUOUS
 10
110.9150696576
 20
39.6788516862
  0
VERTEX
  8
0
 62
7
  6
CONTINUOUS
 10
110.9111327669
 20
39.9692704341
  0
VERTEX
  8
0
 62
7
  6
CONTINUOUS
 10
110.9109969116
 20
40.0447926713
  0
VERTEX
  8
0
 62
7
  6
CONTINUOUS
 10
110.912098562
 20
40.1189932503
  0
VERTEX
  8
0
 62
7
  6
CONTINUOUS
 10
110.9145605877
 20
40.1917199793
  0
VERTEX
  8
0
 62
7
  6
CONTINUOUS
 10
110.9185162601
 20
40.262858668
  0
VERTEX
  8
0
 62
7
  6
CONTINUOUS
 10
110.9240806466
 20
40.3323309561
  0
VERTEX
  8
0
 62
7
  6
CONTINUOUS
 10
110.9313417143
 20
40.3999354466
  0
VERTEX
  8
0
 62
7
  6
CONTINUOUS
 10
110.940384385
 20
40.4653471826
  0
VERTEX
  8
0
 62
7
  6
CONTINUOUS
 10
110.9512972363
 20
40.528549379
  0
VERTEX
  8
0
 62
7
  6
CONTINUOUS
 10
110.9640999522
 20
40.5893568033
  0
VERTEX
  8
0
 62
7
  6
CONTINUOUS
 10
110.9789247337
 20
40.6475590488
  0
VERTEX
  8
0
 62
7
  6
CONTINUOUS
 10
110.9958852923
 20
40.7026334909
  0
VERTEX
  8
0
 62
7
  6
CONTINUOUS
 10
111.0155586774
 20
40.7543958865
  0
VERTEX
  8
0
 62
7
  6
CONTINUOUS
 10
111.0384015338
 20
40.803316881
  0
VERTEX
  8
0
 62
7
  6
CONTINUOUS
 10
111.0642228175
 20
40.8484966302
  0
VERTEX
  8
0
 62
7
  6
CONTINUOUS
 10
111.0929731897
 20
40.8894886059
  0
VERTEX
  8
0
 62
7
  6
CONTINUOUS
 10
111.1247094219
 20
40.9259398927
  0
VERTEX
  8
0
 62
7
  6
CONTINUOUS
 10
111.1594807408
 20
40.9572899188
  0
VERTEX
  8
0
 62
7
  6
CONTINUOUS
 10
111.196877827
 20
40.982498222
  0
VERTEX
  8
0
 62
7
  6
CONTINUOUS
 10
111.2364723404
 20
41.0004393883
  0
VERTEX
  8
0
 62
7
  6
CONTINUOUS
 10
111.2765983901
 20
41.009540243
  0
VERTEX
  8
0
 62
7
  6
CONTINUOUS
 10
111.2934990942
 20
41.0105010935
  0
SEQEND
  0
LINE
  8
0
 62
7
  6
CONTINUOUS
 10
110.9175117122
 20
39.3958375172
 11
110.9150696576
 21
39.6788516862
  0
LINE
  8
0
 62
7
  6
CONTINUOUS
 10
111.0889399951
 20
84.7867581563
 11
111.0913559696
 21
84.5037364195
  0
LINE
  8
0
 62
2
  6
CONTINUOUS
 10
106.903236246
 20
62.0893101879
 11
106.903236246
 21
102.0893101879
  0
LINE
  8
0
 62
7
  6
CONTINUOUS
 10
110.9175117122
 20
39.3958375172
 11
110.9180680891
 21
33.8477365766
  0
LINE
  8
DEFAULT_1
 62
2
  6
CENTER
 10
111.003236246
 20
67.3393101879
 11
111.003236246
 21
64.0894101879
  0
LINE
  8
DEFAULT_1
 62
40
  6
CENTER
 10
111.003236246
 20
64.0894101879
 11
111.003236246
 21
63.1393101879
  0
LINE
  8
0
 62
2
  6
CONTINUOUS
 10
111.003236246
 20
63.1393101879
 11
111.003236246
 21
61.0393101879
  0
LINE
  8
0
 62
40
  6
CONTINUOUS
 10
111.003236246
 20
33.8212824875
 11
111.003236246
 21
8.2660101879
  0
LINE
  8
DEFAULT_1
 62
40
  6
CENTER
 10
111.003236246
 20
45.0912272137
 11
111.003236246
 21
56.8393101879
  0
LINE
  8
DEFAULT_1
 62
40
  6
CENTER
 10
111.003236246
 20
60.0892101879
 11
111.003236246
 21
61.0393101879
  0
LINE
  8
DEFAULT_1
 62
2
  6
CENTER
 10
111.003236246
 20
56.8393101879
 11
111.003236246
 21
60.0892101879
  0
LINE
  8
DEFAULT_1
 62
40
  6
CENTER
 10
111.003236246
 20
67.3393101879
 11
111.003236246
 21
79.0873932685
  0
LINE
  8
0
 62
40
  6
CONTINUOUS
 10
111.003236246
 20
90.3573374673
 11
111.003236246
 21
115.9126101879
  0
LINE
  8
0
 62
7
  6
CONTINUOUS
 10
111.0884044028
 20
90.3308462819
 11
111.0889399951
 21
84.7867581563
  0
LINE
  8
0
 62
7
  6
CONTINUOUS
 10
111.088463711
 20
90.3319282332
 11
111.0884044058
 21
90.3309082934
  0
LINE
  8
0
 62
7
  6
CONTINUOUS
 10
112.1606084678
 20
94.6237421695
 11
112.1447036832
 21
94.5190148275
  0
POLYLINE
  8
0
 62
7
  6
CONTINUOUS
 66
1
 70
0
  0
VERTEX
  8
0
 62
7
  6
CONTINUOUS
 10
93.057706463
 20
29.6505455822
  0
VERTEX
  8
0
 62
7
  6
CONTINUOUS
 10
93.2384331901
 20
30.0537923217
  0
VERTEX
  8
0
 62
7
  6
CONTINUOUS
 10
93.4134270079
 20
30.5196430529
  0
VERTEX
  8
0
 62
7
  6
CONTINUOUS
 10
93.5721249609
 20
31.021493573
  0
VERTEX
  8
0
 62
7
  6
CONTINUOUS
 10
93.7147577366
 20
31.5550414064
  0
VERTEX
  8
0
 62
7
  6
CONTINUOUS
 10
93.8413716365
 20
32.1156272372
  0
VERTEX
  8
0
 62
7
  6
CONTINUOUS
 10
93.9519822473
 20
32.6984143722
  0
VERTEX
  8
0
 62
7
  6
CONTINUOUS
 10
94.0466317071
 20
33.2983959606
  0
VERTEX
  8
0
 62
7
  6
CONTINUOUS
 10
94.1180088138
 20
33.8466863051
  0
SEQEND
  0
LINE
  8
DEFAULT_1
 62
2
  6
CENTER
 10
116.253236246
 20
62.0893101879
 11
113.003336246
 21
62.0893101879
  0
LINE
  8
0
 62
2
  6
CONTINUOUS
 10
112.053236246
 20
62.0893101879
 11
109.953236246
 21
62.0893101879
  0
LINE
  8
0
 62
2
  6
CONTINUOUS
 10
98.503236246
 20
62.0893101879
 11
105.753236246
 21
62.0893101879
  0
LINE
  8
DEFAULT_1
 62
2
  6
CENTER
 10
105.753236246
 20
62.0893101879
 11
109.003136246
 21
62.0893101879
  0
LINE
  8
0
 62
7
  6
CONTINUOUS
 10
120.3680393457
 20
30.0537922148
 11
120.5487660289
 21
29.6505455822
  0
POLYLINE
  8
0
 62
7
  6
CONTINUOUS
 66
1
 70
0
  0
VERTEX
  8
0
 62
7
  6
CONTINUOUS
 10
101.4458650573
 20
94.6237355423
  0
VERTEX
  8
0
 62
7
  6
CONTINUOUS
 10
101.4198188227
 20
94.7819953145
  0
VERTEX
  8
0
 62
7
  6
CONTINUOUS
 10
101.3908701132
 20
94.9383318726
  0
VERTEX
  8
0
 62
7
  6
CONTINUOUS
 10
101.3619614546
 20
95.0755269575
  0
VERTEX
  8
0
 62
7
  6
CONTINUOUS
 10
101.332751028
 20
95.1965423861
  0
VERTEX
  8
0
 62
7
  6
CONTINUOUS
 10
101.302684934
 20
95.304293621
  0
VERTEX
  8
0
 62
7
  6
CONTINUOUS
 10
101.2708386916
 20
95.4018234113
  0
VERTEX
  8
0
 62
7
  6
CONTINUOUS
 10
101.2356302847
 20
95.4924621967
  0
VERTEX
  8
0
 62
7
  6
CONTINUOUS
 10
101.1945448382
 20
95.5794523341
  0
VERTEX
  8
0
 62
7
  6
CONTINUOUS
 10
101.143920177
 20
95.6652219504
  0
VERTEX
  8
0
 62
7
  6
CONTINUOUS
 10
101.0787214273
 20
95.7506967291
  0
VERTEX
  8
0
 62
7
  6
CONTINUOUS
 10
100.9940907534
 20
95.8330191735
  0
VERTEX
  8
0
 62
7
  6
CONTINUOUS
 10
100.8882697315
 20
95.905008239
  0
VERTEX
  8
0
 62
7
  6
CONTINUOUS
 10
100.7639312437
 20
95.9581721696
  0
VERTEX
  8
0
 62
7
  6
CONTINUOUS
 10
100.6278700927
 20
95.9859282459
  0
VERTEX
  8
0
 62
7
  6
CONTINUOUS
 10
100.5594235109
 20
95.9893100995
  0
SEQEND
  0
LINE
  8
0
 62
7
  6
CONTINUOUS
 10
101.4617688087
 20
94.5190148275
 11
101.4458640241
 21
94.6237421695
  0
POLYLINE
  8
0
 62
7
  6
CONTINUOUS
 66
1
 70
0
  0
VERTEX
  8
0
 62
7
  6
CONTINUOUS
 10
102.5180088105
 20
90.3319340989
  0
VERTEX
  8
0
 62
7
  6
CONTINUOUS
 10
102.4461309968
 20
90.8837272203
  0
VERTEX
  8
0
 62
7
  6
CONTINUOUS
 10
102.3514021454
 20
91.4835521472
  0
VERTEX
  8
0
 62
7
  6
CONTINUOUS
 10
102.2407146144
 20
92.0661629527
  0
VERTEX
  8
0
 62
7
  6
CONTINUOUS
 10
102.1140263809
 20
92.6265539745
  0
VERTEX
  8
0
 62
7
  6
CONTINUOUS
 10
101.9713216351
 20
93.1598901766
  0
VERTEX
  8
0
 62
7
  6
CONTINUOUS
 10
101.8125532332
 20
93.6615146571
  0
VERTEX
  8
0
 62
7
  6
CONTINUOUS
 10
101.637488695
 20
94.1271276979
  0
SEQEND
  0
LINE
  8
0
 62
7
  6
CONTINUOUS
 10
119.4884637077
 20
33.8466921708
 11
119.4884044058
 21
33.8477120824
  0
LINE
  8
0
 62
7
  6
CONTINUOUS
 10
110.918068089
 20
33.8477044636
 11
110.918008763
 21
33.8466964265
  0
LINE
  8
0
 62
7
  6
CONTINUOUS
 10
109.8458641598
 20
29.5548790762
 11
109.8617665341
 21
29.6596046212
  0
POLYLINE
  8
0
 62
7
  6
CONTINUOUS
 66
1
 70
0
  0
VERTEX
  8
0
 62
7
  6
CONTINUOUS
 10
128.9487670721
 20
94.5280769197
  0
VERTEX
  8
0
 62
7
  6
CONTINUOUS
 10
128.7689837969
 20
94.1271276979
  0
VERTEX
  8
0
 62
7
  6
CONTINUOUS
 10
128.5939192588
 20
93.6615146571
  0
VERTEX
  8
0
 62
7
  6
CONTINUOUS
 10
128.4351508568
 20
93.1598901766
  0
VERTEX
  8
0
 62
7
  6
CONTINUOUS
 10
128.2924461111
 20
92.6265539745
  0
VERTEX
  8
0
 62
7
  6
CONTINUOUS
 10
128.1657578775
 20
92.0661629527
  0
VERTEX
  8
0
 62
7
  6
CONTINUOUS
 10
128.0550703465
 20
91.4835521472
  0
VERTEX
  8
0
 62
7
  6
CONTINUOUS
 10
127.9603414951
 20
90.8837272203
  0
VERTEX
  8
0
 62
7
  6
CONTINUOUS
 10
127.8884636814
 20
90.3319340989
  0
SEQEND
  0
POLYLINE
  8
0
 62
7
  6
CONTINUOUS
 66
1
 70
0
  0
VERTEX
  8
0
 62
7
  6
CONTINUOUS
 10
94.118008763
 20
33.8466964265
  0
VERTEX
  8
0
 62
7
  6
CONTINUOUS
 10
94.1121970626
 20
33.8380995285
  0
VERTEX
  8
0
 62
7
  6
CONTINUOUS
 10
94.0931103097
 20
33.82930621
  0
VERTEX
  8
0
 62
7
  6
CONTINUOUS
 10
94.0619090626
 20
33.8225777673
  0
VERTEX
  8
0
 62
7
  6
CONTINUOUS
 10
94.0205905167
 20
33.8182580639
  0
VERTEX
  8
0
 62
7
  6
CONTINUOUS
 10
93.9718941705
 20
33.8164691773
  0
VERTEX
  8
0
 62
7
  6
CONTINUOUS
 10
93.9180680891
 20
33.8170288646
  0
SEQEND
  0
LINE
  8
0
 62
7
  6
CONTINUOUS
 10
101.637488695
 20
94.1271276979
 11
101.4577054198
 21
94.5280769197
  0
POLYLINE
  8
0
 62
7
  6
CONTINUOUS
 66
1
 70
0
  0
VERTEX
  8
0
 62
7
  6
CONTINUOUS
 10
120.5606073398
 20
29.5548854414
  0
VERTEX
  8
0
 62
7
  6
CONTINUOUS
 10
120.5864132751
 20
29.398007303
  0
VERTEX
  8
0
 62
7
  6
CONTINUOUS
 10
120.6154061926
 20
29.2412823579
  0
VERTEX
  8
0
 62
7
  6
CONTINUOUS
 10
120.6443617231
 20
29.1037561486
  0
VERTEX
  8
0
 62
7
  6
CONTINUOUS
 10
120.6736226735
 20
28.9824592051
  0
VERTEX
  8
0
 62
7
  6
CONTINUOUS
 10
120.7037452636
 20
28.8744671755
  0
VERTEX
  8
0
 62
7
  6
CONTINUOUS
 10
120.7356588948
 20
28.7767262723
  0
VERTEX
  8
0
 62
7
  6
CONTINUOUS
 10
120.7709567869
 20
28.6858894057
  0
VERTEX
  8
0
 62
7
  6
CONTINUOUS
 10
120.8121822579
 20
28.5986828179
  0
VERTEX
  8
0
 62
7
  6
CONTINUOUS
 10
120.8630382805
 20
28.5126684921
  0
VERTEX
  8
0
 62
7
  6
CONTINUOUS
 10
120.9286097385
 20
28.4269450709
  0
VERTEX
  8
0
 62
7
  6
CONTINUOUS
 10
121.0137764297
 20
28.344454034
  0
VERTEX
  8
0
 62
7
  6
CONTINUOUS
 10
121.1202326818
 20
28.2724970369
  0
VERTEX
  8
0
 62
7
  6
CONTINUOUS
 10
121.2452441158
 20
28.21960694
  0
VERTEX
  8
0
 62
7
  6
CONTINUOUS
 10
121.3819833719
 20
28.1923642989
  0
VERTEX
  8
0
 62
7
  6
CONTINUOUS
 10
121.4470478539
 20
28.1893102751
  0
SEQEND
  0
LINE
  8
0
 62
7
  6
CONTINUOUS
 10
120.5447059578
 20
29.6596046209
 11
120.5606083321
 21
29.5548790762
  0
POLYLINE
  8
0
 62
7
  6
CONTINUOUS
 66
1
 70
0
  0
VERTEX
  8
0
 62
7
  6
CONTINUOUS
 10
119.4884636781
 20
33.8466863051
  0
VERTEX
  8
0
 62
7
  6
CONTINUOUS
 10
119.5598409331
 20
33.2983949227
  0
VERTEX
  8
0
 62
7
  6
CONTINUOUS
 10
119.6544903945
 20
32.6984135073
  0
VERTEX
  8
0
 62
7
  6
CONTINUOUS
 10
119.7651009993
 20
32.1156265428
  0
VERTEX
  8
0
 62
7
  6
CONTINUOUS
 10
119.8917148855
 20
31.5550408765
  0
VERTEX
  8
0
 62
7
  6
CONTINUOUS
 10
120.0343476399
 20
31.0214931982
  0
VERTEX
  8
0
 62
7
  6
CONTINUOUS
 10
120.1930455641
 20
30.5196428201
  0
VERTEX
  8
0
 62
7
  6
CONTINUOUS
 10
120.3680393457
 20
30.0537922148
  0
SEQEND
  0
LINE
  8
0
 62
7
  6
CONTINUOUS
 10
119.3180087809
 20
90.3319282332
 11
119.3180680861
 21
90.3309082934
  0
POLYLINE
  8
0
 62
7
  6
CONTINUOUS
 66
1
 70
0
  0
VERTEX
  8
0
 62
7
  6
CONTINUOUS
 10
119.3111335159
 20
84.2093635026
  0
VERTEX
  8
0
 62
7
  6
CONTINUOUS
 10
119.3150700606
 20
84.4997725331
  0
VERTEX
  8
0
 62
7
  6
CONTINUOUS
 10
119.3175118044
 20
84.7827847345
  0
VERTEX
  8
0
 62
7
  6
CONTINUOUS
 10
119.3180680891
 20
90.3308462819
  0
SEQEND
  0
POLYLINE
  8
0
 62
7
  6
CONTINUOUS
 66
1
 70
0
  0
VERTEX
  8
0
 62
7
  6
CONTINUOUS
 10
119.4952984563
 20
39.9651373139
  0
VERTEX
  8
0
 62
7
  6
CONTINUOUS
 10
119.4913559698
 20
39.6748839056
  0
VERTEX
  8
0
 62
7
  6
CONTINUOUS
 10
119.4889399953
 20
39.3918622451
  0
VERTEX
  8
0
 62
7
  6
CONTINUOUS
 10
119.4884044028
 20
33.8477740939
  0
SEQEND
  0
LINE
  8
0
 62
7
  6
CONTINUOUS
 10
128.9606084678
 20
94.6237421695
 11
128.9447036832
 21
94.5190148275
  0
POLYLINE
  8
0
 62
7
  6
CONTINUOUS
 66
1
 70
0
  0
VERTEX
  8
0
 62
7
  6
CONTINUOUS
 10
109.857706463
 20
29.6505455822
  0
VERTEX
  8
0
 62
7
  6
CONTINUOUS
 10
110.0384331901
 20
30.0537923217
  0
VERTEX
  8
0
 62
7
  6
CONTINUOUS
 10
110.2134270079
 20
30.5196430529
  0
VERTEX
  8
0
 62
7
  6
CONTINUOUS
 10
110.3721249609
 20
31.021493573
  0
VERTEX
  8
0
 62
7
  6
CONTINUOUS
 10
110.5147577366
 20
31.5550414064
  0
VERTEX
  8
0
 62
7
  6
CONTINUOUS
 10
110.6413716365
 20
32.1156272372
  0
VERTEX
  8
0
 62
7
  6
CONTINUOUS
 10
110.7519822473
 20
32.6984143722
  0
VERTEX
  8
0
 62
7
  6
CONTINUOUS
 10
110.8466317071
 20
33.2983959606
  0
VERTEX
  8
0
 62
7
  6
CONTINUOUS
 10
110.9180088138
 20
33.8466863051
  0
SEQEND
  0
LINE
  8
0
 62
7
  6
CONTINUOUS
 10
137.1680393457
 20
30.0537922148
 11
137.3487660289
 21
29.6505455822
  0
POLYLINE
  8
0
 62
7
  6
CONTINUOUS
 66
1
 70
0
  0
VERTEX
  8
0
 62
7
  6
CONTINUOUS
 10
118.2458650573
 20
94.6237355423
  0
VERTEX
  8
0
 62
7
  6
CONTINUOUS
 10
118.2198188227
 20
94.7819953145
  0
VERTEX
  8
0
 62
7
  6
CONTINUOUS
 10
118.1908701132
 20
94.9383318726
  0
VERTEX
  8
0
 62
7
  6
CONTINUOUS
 10
118.1619614546
 20
95.0755269575
  0
VERTEX
  8
0
 62
7
  6
CONTINUOUS
 10
118.132751028
 20
95.1965423861
  0
VERTEX
  8
0
 62
7
  6
CONTINUOUS
 10
118.102684934
 20
95.304293621
  0
VERTEX
  8
0
 62
7
  6
CONTINUOUS
 10
118.0708386916
 20
95.4018234113
  0
VERTEX
  8
0
 62
7
  6
CONTINUOUS
 10
118.0356302847
 20
95.4924621967
  0
VERTEX
  8
0
 62
7
  6
CONTINUOUS
 10
117.9945448382
 20
95.5794523341
  0
VERTEX
  8
0
 62
7
  6
CONTINUOUS
 10
117.943920177
 20
95.6652219504
  0
VERTEX
  8
0
 62
7
  6
CONTINUOUS
 10
117.8787214273
 20
95.7506967291
  0
VERTEX
  8
0
 62
7
  6
CONTINUOUS
 10
117.7940907534
 20
95.8330191735
  0
VERTEX
  8
0
 62
7
  6
CONTINUOUS
 10
117.6882697315
 20
95.905008239
  0
VERTEX
  8
0
 62
7
  6
CONTINUOUS
 10
117.5639312437
 20
95.9581721696
  0
VERTEX
  8
0
 62
7
  6
CONTINUOUS
 10
117.4278700927
 20
95.9859282459
  0
VERTEX
  8
0
 62
7
  6
CONTINUOUS
 10
117.3594235109
 20
95.9893100995
  0
SEQEND
  0
LINE
  8
0
 62
7
  6
CONTINUOUS
 10
118.2617688087
 20
94.5190148275
 11
118.2458640241
 21
94.6237421695
  0
POLYLINE
  8
0
 62
7
  6
CONTINUOUS
 66
1
 70
0
  0
VERTEX
  8
0
 62
7
  6
CONTINUOUS
 10
119.3180088105
 20
90.3319340989
  0
VERTEX
  8
0
 62
7
  6
CONTINUOUS
 10
119.2461309968
 20
90.8837272203
  0
VERTEX
  8
0
 62
7
  6
CONTINUOUS
 10
119.1514021454
 20
91.4835521472
  0
VERTEX
  8
0
 62
7
  6
CONTINUOUS
 10
119.0407146144
 20
92.0661629527
  0
VERTEX
  8
0
 62
7
  6
CONTINUOUS
 10
118.9140263809
 20
92.6265539745
  0
VERTEX
  8
0
 62
7
  6
CONTINUOUS
 10
118.7713216351
 20
93.1598901766
  0
VERTEX
  8
0
 62
7
  6
CONTINUOUS
 10
118.6125532332
 20
93.6615146571
  0
VERTEX
  8
0
 62
7
  6
CONTINUOUS
 10
118.437488695
 20
94.1271276979
  0
SEQEND
  0
POLYLINE
  8
0
 62
7
  6
CONTINUOUS
 66
1
 70
0
  0
VERTEX
  8
0
 62
7
  6
CONTINUOUS
 10
127.8913559696
 20
84.5037364195
  0
VERTEX
  8
0
 62
7
  6
CONTINUOUS
 10
127.8952993506
 20
84.2133949977
  0
VERTEX
  8
0
 62
7
  6
CONTINUOUS
 10
127.8954972263
 20
84.137699301
  0
VERTEX
  8
0
 62
7
  6
CONTINUOUS
 10
127.8944599278
 20
84.0633293578
  0
VERTEX
  8
0
 62
7
  6
CONTINUOUS
 10
127.8920657414
 20
83.9904386879
  0
VERTEX
  8
0
 62
7
  6
CONTINUOUS
 10
127.8881816187
 20
83.9191470358
  0
VERTEX
  8
0
 62
7
  6
CONTINUOUS
 10
127.8826914243
 20
83.8495323852
  0
VERTEX
  8
0
 62
7
  6
CONTINUOUS
 10
127.8755061762
 20
83.7817864148
  0
VERTEX
  8
0
 62
7
  6
CONTINUOUS
 10
127.8665434459
 20
83.7162230417
  0
VERTEX
  8
0
 62
7
  6
CONTINUOUS
 10
127.8557010999
 20
83.6528532527
  0
VERTEX
  8
0
 62
7
  6
CONTINUOUS
 10
127.8429652218
 20
83.591832421
  0
VERTEX
  8
0
 62
7
  6
CONTINUOUS
 10
127.8282609724
 20
83.5336166357
  0
VERTEX
  8
0
 62
7
  6
CONTINUOUS
 10
127.8113855446
 20
83.4783508406
  0
VERTEX
  8
0
 62
7
  6
CONTINUOUS
 10
127.7918526398
 20
83.4264639687
  0
VERTEX
  8
0
 62
7
  6
CONTINUOUS
 10
127.7691508667
 20
83.3774057743
  0
VERTEX
  8
0
 62
7
  6
CONTINUOUS
 10
127.7434631829
 20
83.3320530558
  0
VERTEX
  8
0
 62
7
  6
CONTINUOUS
 10
127.7148356539
 20
83.2908567247
  0
VERTEX
  8
0
 62
7
  6
CONTINUOUS
 10
127.6832150802
 20
83.2541744713
  0
VERTEX
  8
0
 62
7
  6
CONTINUOUS
 10
127.6485629689
 20
83.222575169
  0
VERTEX
  8
0
 62
7
  6
CONTINUOUS
 10
127.611267421
 20
83.1970756425
  0
VERTEX
  8
0
 62
7
  6
CONTINUOUS
 10
127.5717355585
 20
83.1787834235
  0
VERTEX
  8
0
 62
7
  6
CONTINUOUS
 10
127.531605932
 20
83.1692779467
  0
VERTEX
  8
0
 62
7
  6
CONTINUOUS
 10
127.5127996247
 20
83.1681187244
  0
SEQEND
  0
POLYLINE
  8
0
 62
7
  6
CONTINUOUS
 66
1
 70
0
  0
VERTEX
  8
0
 62
7
  6
CONTINUOUS
 10
127.7150696576
 20
39.6788516862
  0
VERTEX
  8
0
 62
7
  6
CONTINUOUS
 10
127.7111327669
 20
39.9692704341
  0
VERTEX
  8
0
 62
7
  6
CONTINUOUS
 10
127.7109969116
 20
40.0447926713
  0
VERTEX
  8
0
 62
7
  6
CONTINUOUS
 10
127.712098562
 20
40.1189932503
  0
VERTEX
  8
0
 62
7
  6
CONTINUOUS
 10
127.7145605877
 20
40.1917199793
  0
VERTEX
  8
0
 62
7
  6
CONTINUOUS
 10
127.7185162601
 20
40.262858668
  0
VERTEX
  8
0
 62
7
  6
CONTINUOUS
 10
127.7240806466
 20
40.3323309561
  0
VERTEX
  8
0
 62
7
  6
CONTINUOUS
 10
127.7313417143
 20
40.3999354466
  0
VERTEX
  8
0
 62
7
  6
CONTINUOUS
 10
127.740384385
 20
40.4653471826
  0
VERTEX
  8
0
 62
7
  6
CONTINUOUS
 10
127.7512972363
 20
40.528549379
  0
VERTEX
  8
0
 62
7
  6
CONTINUOUS
 10
127.7640999522
 20
40.5893568033
  0
VERTEX
  8
0
 62
7
  6
CONTINUOUS
 10
127.7789247337
 20
40.6475590488
  0
VERTEX
  8
0
 62
7
  6
CONTINUOUS
 10
127.7958852923
 20
40.7026334909
  0
VERTEX
  8
0
 62
7
  6
CONTINUOUS
 10
127.8155586774
 20
40.7543958865
  0
VERTEX
  8
0
 62
7
  6
CONTINUOUS
 10
127.8384015338
 20
40.803316881
  0
VERTEX
  8
0
 62
7
  6
CONTINUOUS
 10
127.8642228175
 20
40.8484966302
  0
VERTEX
  8
0
 62
7
  6
CONTINUOUS
 10
127.8929731897
 20
40.8894886059
  0
VERTEX
  8
0
 62
7
  6
CONTINUOUS
 10
127.9247094219
 20
40.9259398927
  0
VERTEX
  8
0
 62
7
  6
CONTINUOUS
 10
127.9594807408
 20
40.9572899188
  0
VERTEX
  8
0
 62
7
  6
CONTINUOUS
 10
127.996877827
 20
40.982498222
  0
VERTEX
  8
0
 62
7
  6
CONTINUOUS
 10
128.0364723404
 20
41.0004393883
  0
VERTEX
  8
0
 62
7
  6
CONTINUOUS
 10
128.0765983901
 20
41.009540243
  0
VERTEX
  8
0
 62
7
  6
CONTINUOUS
 10
128.0934990942
 20
41.0105010935
  0
SEQEND
  0
LINE
  8
0
 62
7
  6
CONTINUOUS
 10
127.7175117122
 20
39.3958375172
 11
127.7150696576
 21
39.6788516862
  0
LINE
  8
0
 62
7
  6
CONTINUOUS
 10
127.8889399951
 20
84.7867581563
 11
127.8913559696
 21
84.5037364195
  0
LINE
  8
0
 62
7
  6
CONTINUOUS
 10
127.7175117122
 20
39.3958375172
 11
127.7180680891
 21
33.8477365766
  0
LINE
  8
0
 62
7
  6
CONTINUOUS
 10
127.8884044028
 20
90.3308462819
 11
127.8889399951
 21
84.7867581563
  0
LINE
  8
0
 62
7
  6
CONTINUOUS
 10
127.888463711
 20
90.3319282332
 11
127.8884044058
 21
90.3309082934
  0
LINE
  8
0
 62
7
  6
CONTINUOUS
 10
127.718068089
 20
33.8477044636
 11
127.718008763
 21
33.8466964265
  0
POLYLINE
  8
0
 62
7
  6
CONTINUOUS
 66
1
 70
0
  0
VERTEX
  8
0
 62
7
  6
CONTINUOUS
 10
145.7487670721
 20
94.5280769197
  0
VERTEX
  8
0
 62
7
  6
CONTINUOUS
 10
145.5689837969
 20
94.1271276979
  0
VERTEX
  8
0
 62
7
  6
CONTINUOUS
 10
145.3939192588
 20
93.6615146571
  0
VERTEX
  8
0
 62
7
  6
CONTINUOUS
 10
145.2351508568
 20
93.1598901766
  0
VERTEX
  8
0
 62
7
  6
CONTINUOUS
 10
145.0924461111
 20
92.6265539745
  0
VERTEX
  8
0
 62
7
  6
CONTINUOUS
 10
144.9657578775
 20
92.0661629527
  0
VERTEX
  8
0
 62
7
  6
CONTINUOUS
 10
144.8550703465
 20
91.4835521472
  0
VERTEX
  8
0
 62
7
  6
CONTINUOUS
 10
144.7603414951
 20
90.8837272203
  0
VERTEX
  8
0
 62
7
  6
CONTINUOUS
 10
144.6884636814
 20
90.3319340989
  0
SEQEND
  0
POLYLINE
  8
0
 62
7
  6
CONTINUOUS
 66
1
 70
0
  0
VERTEX
  8
0
 62
7
  6
CONTINUOUS
 10
110.918008763
 20
33.8466964265
  0
VERTEX
  8
0
 62
7
  6
CONTINUOUS
 10
110.9121970626
 20
33.8380995285
  0
VERTEX
  8
0
 62
7
  6
CONTINUOUS
 10
110.8931103097
 20
33.82930621
  0
VERTEX
  8
0
 62
7
  6
CONTINUOUS
 10
110.8619090626
 20
33.8225777673
  0
VERTEX
  8
0
 62
7
  6
CONTINUOUS
 10
110.8205905167
 20
33.8182580639
  0
VERTEX
  8
0
 62
7
  6
CONTINUOUS
 10
110.7718941705
 20
33.8164691773
  0
VERTEX
  8
0
 62
7
  6
CONTINUOUS
 10
110.7180680891
 20
33.8170288646
  0
SEQEND
  0
POLYLINE
  8
0
 62
7
  6
CONTINUOUS
 66
1
 70
0
  0
VERTEX
  8
0
 62
7
  6
CONTINUOUS
 10
52.493500062
 20
83.1681193281
  0
VERTEX
  8
0
 62
7
  6
CONTINUOUS
 10
52.4766022499
 20
83.1690798895
  0
VERTEX
  8
0
 62
7
  6
CONTINUOUS
 10
52.4364760143
 20
83.1781803246
  0
VERTEX
  8
0
 62
7
  6
CONTINUOUS
 10
52.3968802112
 20
83.196121561
  0
VERTEX
  8
0
 62
7
  6
CONTINUOUS
 10
52.3594817452
 20
83.2213302041
  0
VERTEX
  8
0
 62
7
  6
CONTINUOUS
 10
52.3247110424
 20
83.252679699
  0
VERTEX
  8
0
 62
7
  6
CONTINUOUS
 10
52.2929737509
 20
83.2891328102
  0
VERTEX
  8
0
 62
7
  6
CONTINUOUS
 10
52.2642231016
 20
83.3301255551
  0
VERTEX
  8
0
 62
7
  6
CONTINUOUS
 10
52.2384067147
 20
83.3752959855
  0
VERTEX
  8
0
 62
7
  6
CONTINUOUS
 10
52.2155761774
 20
83.4241792538
  0
VERTEX
  8
0
 62
7
  6
CONTINUOUS
 10
52.1959088023
 20
83.4759341151
  0
VERTEX
  8
0
 62
7
  6
CONTINUOUS
 10
52.1789268513
 20
83.5310652879
  0
VERTEX
  8
0
 62
7
  6
CONTINUOUS
 10
52.1640951995
 20
83.5892704982
  0
VERTEX
  8
0
 62
7
  6
CONTINUOUS
 10
52.1512935361
 20
83.6501081651
  0
VERTEX
  8
0
 62
7
  6
CONTINUOUS
 10
52.1403814901
 20
83.7132943391
  0
VERTEX
  8
0
 62
7
  6
CONTINUOUS
 10
52.1313421736
 20
83.7786925218
  0
VERTEX
  8
0
 62
7
  6
CONTINUOUS
 10
52.1240809003
 20
83.8462965767
  0
VERTEX
  8
0
 62
7
  6
CONTINUOUS
 10
52.118516788
 20
83.9157667201
  0
VERTEX
  8
0
 62
7
  6
CONTINUOUS
 10
52.1145614084
 20
83.9869063516
  0
VERTEX
  8
0
 62
7
  6
CONTINUOUS
 10
52.1120992463
 20
84.05963565
  0
VERTEX
  8
0
 62
7
  6
CONTINUOUS
 10
52.1109975098
 20
84.1338384708
  0
VERTEX
  8
0
 62
7
  6
CONTINUOUS
 10
52.1111335159
 20
84.2093635026
  0
SEQEND
  0
POLYLINE
  8
0
 62
7
  6
CONTINUOUS
 66
1
 70
0
  0
VERTEX
  8
0
 62
7
  6
CONTINUOUS
 10
69.293500062
 20
83.1681193281
  0
VERTEX
  8
0
 62
7
  6
CONTINUOUS
 10
69.2766022499
 20
83.1690798895
  0
VERTEX
  8
0
 62
7
  6
CONTINUOUS
 10
69.2364760143
 20
83.1781803246
  0
VERTEX
  8
0
 62
7
  6
CONTINUOUS
 10
69.1968802112
 20
83.196121561
  0
VERTEX
  8
0
 62
7
  6
CONTINUOUS
 10
69.1594817452
 20
83.2213302041
  0
VERTEX
  8
0
 62
7
  6
CONTINUOUS
 10
69.1247110424
 20
83.252679699
  0
VERTEX
  8
0
 62
7
  6
CONTINUOUS
 10
69.0929737509
 20
83.2891328102
  0
VERTEX
  8
0
 62
7
  6
CONTINUOUS
 10
69.0642231016
 20
83.3301255551
  0
VERTEX
  8
0
 62
7
  6
CONTINUOUS
 10
69.0384067147
 20
83.3752959855
  0
VERTEX
  8
0
 62
7
  6
CONTINUOUS
 10
69.0155761774
 20
83.4241792538
  0
VERTEX
  8
0
 62
7
  6
CONTINUOUS
 10
68.9959088023
 20
83.4759341151
  0
VERTEX
  8
0
 62
7
  6
CONTINUOUS
 10
68.9789268513
 20
83.5310652879
  0
VERTEX
  8
0
 62
7
  6
CONTINUOUS
 10
68.9640951995
 20
83.5892704982
  0
VERTEX
  8
0
 62
7
  6
CONTINUOUS
 10
68.9512935361
 20
83.6501081651
  0
VERTEX
  8
0
 62
7
  6
CONTINUOUS
 10
68.9403814901
 20
83.7132943391
  0
VERTEX
  8
0
 62
7
  6
CONTINUOUS
 10
68.9313421736
 20
83.7786925218
  0
VERTEX
  8
0
 62
7
  6
CONTINUOUS
 10
68.9240809003
 20
83.8462965767
  0
VERTEX
  8
0
 62
7
  6
CONTINUOUS
 10
68.918516788
 20
83.9157667201
  0
VERTEX
  8
0
 62
7
  6
CONTINUOUS
 10
68.9145614084
 20
83.9869063516
  0
VERTEX
  8
0
 62
7
  6
CONTINUOUS
 10
68.9120992463
 20
84.05963565
  0
VERTEX
  8
0
 62
7
  6
CONTINUOUS
 10
68.9109975098
 20
84.1338384708
  0
VERTEX
  8
0
 62
7
  6
CONTINUOUS
 10
68.9111335159
 20
84.2093635026
  0
SEQEND
  0
LINE
  8
0
 62
7
  6
CONTINUOUS
 10
136.2884637077
 20
33.8466921708
 11
136.2884044058
 21
33.8477120824
  0
POLYLINE
  8
0
 62
7
  6
CONTINUOUS
 66
1
 70
0
  0
VERTEX
  8
0
 62
7
  6
CONTINUOUS
 10
136.1111335159
 20
84.2093635026
  0
VERTEX
  8
0
 62
7
  6
CONTINUOUS
 10
136.1150700606
 20
84.4997725331
  0
VERTEX
  8
0
 62
7
  6
CONTINUOUS
 10
136.1175118044
 20
84.7827847345
  0
VERTEX
  8
0
 62
7
  6
CONTINUOUS
 10
136.1180680891
 20
90.3308462819
  0
SEQEND
  0
POLYLINE
  8
0
 62
7
  6
CONTINUOUS
 66
1
 70
0
  0
VERTEX
  8
0
 62
7
  6
CONTINUOUS
 10
136.2952984563
 20
39.9651373139
  0
VERTEX
  8
0
 62
7
  6
CONTINUOUS
 10
136.2913559698
 20
39.6748839056
  0
VERTEX
  8
0
 62
7
  6
CONTINUOUS
 10
136.2889399953
 20
39.3918622451
  0
VERTEX
  8
0
 62
7
  6
CONTINUOUS
 10
136.2884044028
 20
33.8477740939
  0
SEQEND
  0
LINE
  8
0
 62
7
  6
CONTINUOUS
 10
126.6458641598
 20
29.5548790762
 11
126.6617665341
 21
29.6596046212
  0
LINE
  8
0
 62
6
  6
CONTINUOUS
 10
177.9139783464
 20
82.9181968315
 11
177.8338684791
 21
82.9179206033
  0
LINE
  8
0
 62
6
  6
CONTINUOUS
 10
177.9139783482
 20
83.0452709184
 11
177.8338684791
 21
83.0450010887
  0
LINE
  8
0
 62
7
  6
CONTINUOUS
 10
177.9127998044
 20
83.1681488534
 11
170.1726046034
 21
83.1679206032
  0
LINE
  8
0
 62
7
  6
CONTINUOUS
 10
161.1127998044
 20
83.1681488534
 11
153.3726046034
 21
83.1679206032
  0
LINE
  8
0
 62
7
  6
CONTINUOUS
 10
144.3127998044
 20
83.1681488534
 11
136.5726046034
 21
83.1679206032
  0
LINE
  8
0
 62
7
  6
CONTINUOUS
 10
127.5127998044
 20
83.1681488534
 11
119.7726046034
 21
83.1679206032
  0
LINE
  8
0
 62
7
  6
CONTINUOUS
 10
110.7127998044
 20
83.1681488534
 11
102.9726046034
 21
83.1679206032
  0
LINE
  8
0
 62
7
  6
CONTINUOUS
 10
93.9127998044
 20
83.1681488534
 11
86.1726046034
 21
83.1679206032
  0
LINE
  8
0
 62
7
  6
CONTINUOUS
 10
77.1127998044
 20
83.1681488534
 11
69.3726046034
 21
83.1679206032
  0
LINE
  8
0
 62
7
  6
CONTINUOUS
 10
60.3127998044
 20
83.1681488534
 11
52.5726046034
 21
83.1679206032
  0
LINE
  8
0
 62
7
  6
CONTINUOUS
 10
43.5127998044
 20
83.1681488534
 11
35.703236246
 21
83.1679206032
  0
LINE
  8
DEFAULT_1
 62
2
  6
CENTER
 10
33.303236246
 20
87.4893101879
 11
188.703236246
 21
87.4893101879
  0
LINE
  8
0
 62
7
  6
CONTINUOUS
 10
52.5726046039
 20
83.1679206032
 11
52.493500224
 21
83.1681190846
  0
LINE
  8
0
 62
7
  6
CONTINUOUS
 10
69.3726046039
 20
83.1679206032
 11
69.293500224
 21
83.1681190846
  0
LINE
  8
0
 62
7
  6
CONTINUOUS
 10
86.1726046039
 20
83.1679206032
 11
86.093500224
 21
83.1681190846
  0
LINE
  8
0
 62
7
  6
CONTINUOUS
 10
102.9726046039
 20
83.1679206032
 11
102.893500224
 21
83.1681190846
  0
LINE
  8
0
 62
7
  6
CONTINUOUS
 10
119.7726046039
 20
83.1679206032
 11
119.693500224
 21
83.1681190846
  0
LINE
  8
0
 62
7
  6
CONTINUOUS
 10
136.5726046039
 20
83.1679206032
 11
136.493500224
 21
83.1681190846
  0
LINE
  8
0
 62
7
  6
CONTINUOUS
 10
153.3726046039
 20
83.1679206032
 11
153.293500224
 21
83.1681190846
  0
LINE
  8
0
 62
7
  6
CONTINUOUS
 10
170.1726046039
 20
83.1679206032
 11
170.093500224
 21
83.1681190846
  0
POLYLINE
  8
0
 62
7
  6
CONTINUOUS
 66
1
 70
0
  0
VERTEX
  8
0
 62
7
  6
CONTINUOUS
 10
86.093500062
 20
83.1681193281
  0
VERTEX
  8
0
 62
7
  6
CONTINUOUS
 10
86.0766022499
 20
83.1690798895
  0
VERTEX
  8
0
 62
7
  6
CONTINUOUS
 10
86.0364760143
 20
83.1781803246
  0
VERTEX
  8
0
 62
7
  6
CONTINUOUS
 10
85.9968802112
 20
83.196121561
  0
VERTEX
  8
0
 62
7
  6
CONTINUOUS
 10
85.9594817452
 20
83.2213302041
  0
VERTEX
  8
0
 62
7
  6
CONTINUOUS
 10
85.9247110424
 20
83.252679699
  0
VERTEX
  8
0
 62
7
  6
CONTINUOUS
 10
85.8929737509
 20
83.2891328102
  0
VERTEX
  8
0
 62
7
  6
CONTINUOUS
 10
85.8642231016
 20
83.3301255551
  0
VERTEX
  8
0
 62
7
  6
CONTINUOUS
 10
85.8384067147
 20
83.3752959855
  0
VERTEX
  8
0
 62
7
  6
CONTINUOUS
 10
85.8155761774
 20
83.4241792538
  0
VERTEX
  8
0
 62
7
  6
CONTINUOUS
 10
85.7959088023
 20
83.4759341151
  0
VERTEX
  8
0
 62
7
  6
CONTINUOUS
 10
85.7789268513
 20
83.5310652879
  0
VERTEX
  8
0
 62
7
  6
CONTINUOUS
 10
85.7640951995
 20
83.5892704982
  0
VERTEX
  8
0
 62
7
  6
CONTINUOUS
 10
85.7512935361
 20
83.6501081651
  0
VERTEX
  8
0
 62
7
  6
CONTINUOUS
 10
85.7403814901
 20
83.7132943391
  0
VERTEX
  8
0
 62
7
  6
CONTINUOUS
 10
85.7313421736
 20
83.7786925218
  0
VERTEX
  8
0
 62
7
  6
CONTINUOUS
 10
85.7240809003
 20
83.8462965767
  0
VERTEX
  8
0
 62
7
  6
CONTINUOUS
 10
85.718516788
 20
83.9157667201
  0
VERTEX
  8
0
 62
7
  6
CONTINUOUS
 10
85.7145614084
 20
83.9869063516
  0
VERTEX
  8
0
 62
7
  6
CONTINUOUS
 10
85.7120992463
 20
84.05963565
  0
VERTEX
  8
0
 62
7
  6
CONTINUOUS
 10
85.7109975098
 20
84.1338384708
  0
VERTEX
  8
0
 62
7
  6
CONTINUOUS
 10
85.7111335159
 20
84.2093635026
  0
SEQEND
  0
POLYLINE
  8
0
 62
7
  6
CONTINUOUS
 66
1
 70
0
  0
VERTEX
  8
0
 62
7
  6
CONTINUOUS
 10
102.893500062
 20
83.1681193281
  0
VERTEX
  8
0
 62
7
  6
CONTINUOUS
 10
102.8766022499
 20
83.1690798895
  0
VERTEX
  8
0
 62
7
  6
CONTINUOUS
 10
102.8364760143
 20
83.1781803246
  0
VERTEX
  8
0
 62
7
  6
CONTINUOUS
 10
102.7968802112
 20
83.196121561
  0
VERTEX
  8
0
 62
7
  6
CONTINUOUS
 10
102.7594817452
 20
83.2213302041
  0
VERTEX
  8
0
 62
7
  6
CONTINUOUS
 10
102.7247110424
 20
83.252679699
  0
VERTEX
  8
0
 62
7
  6
CONTINUOUS
 10
102.6929737509
 20
83.2891328102
  0
VERTEX
  8
0
 62
7
  6
CONTINUOUS
 10
102.6642231016
 20
83.3301255551
  0
VERTEX
  8
0
 62
7
  6
CONTINUOUS
 10
102.6384067147
 20
83.3752959855
  0
VERTEX
  8
0
 62
7
  6
CONTINUOUS
 10
102.6155761774
 20
83.4241792538
  0
VERTEX
  8
0
 62
7
  6
CONTINUOUS
 10
102.5959088023
 20
83.4759341151
  0
VERTEX
  8
0
 62
7
  6
CONTINUOUS
 10
102.5789268513
 20
83.5310652879
  0
VERTEX
  8
0
 62
7
  6
CONTINUOUS
 10
102.5640951995
 20
83.5892704982
  0
VERTEX
  8
0
 62
7
  6
CONTINUOUS
 10
102.5512935361
 20
83.6501081651
  0
VERTEX
  8
0
 62
7
  6
CONTINUOUS
 10
102.5403814901
 20
83.7132943391
  0
VERTEX
  8
0
 62
7
  6
CONTINUOUS
 10
102.5313421736
 20
83.7786925218
  0
VERTEX
  8
0
 62
7
  6
CONTINUOUS
 10
102.5240809003
 20
83.8462965767
  0
VERTEX
  8
0
 62
7
  6
CONTINUOUS
 10
102.518516788
 20
83.9157667201
  0
VERTEX
  8
0
 62
7
  6
CONTINUOUS
 10
102.5145614084
 20
83.9869063516
  0
VERTEX
  8
0
 62
7
  6
CONTINUOUS
 10
102.5120992463
 20
84.05963565
  0
VERTEX
  8
0
 62
7
  6
CONTINUOUS
 10
102.5109975098
 20
84.1338384708
  0
VERTEX
  8
0
 62
7
  6
CONTINUOUS
 10
102.5111335159
 20
84.2093635026
  0
SEQEND
  0
POLYLINE
  8
0
 62
7
  6
CONTINUOUS
 66
1
 70
0
  0
VERTEX
  8
0
 62
7
  6
CONTINUOUS
 10
119.693500062
 20
83.1681193281
  0
VERTEX
  8
0
 62
7
  6
CONTINUOUS
 10
119.6766022499
 20
83.1690798895
  0
VERTEX
  8
0
 62
7
  6
CONTINUOUS
 10
119.6364760143
 20
83.1781803246
  0
VERTEX
  8
0
 62
7
  6
CONTINUOUS
 10
119.5968802112
 20
83.196121561
  0
VERTEX
  8
0
 62
7
  6
CONTINUOUS
 10
119.5594817452
 20
83.2213302041
  0
VERTEX
  8
0
 62
7
  6
CONTINUOUS
 10
119.5247110424
 20
83.252679699
  0
VERTEX
  8
0
 62
7
  6
CONTINUOUS
 10
119.4929737509
 20
83.2891328102
  0
VERTEX
  8
0
 62
7
  6
CONTINUOUS
 10
119.4642231016
 20
83.3301255551
  0
VERTEX
  8
0
 62
7
  6
CONTINUOUS
 10
119.4384067147
 20
83.3752959855
  0
VERTEX
  8
0
 62
7
  6
CONTINUOUS
 10
119.4155761774
 20
83.4241792538
  0
VERTEX
  8
0
 62
7
  6
CONTINUOUS
 10
119.3959088023
 20
83.4759341151
  0
VERTEX
  8
0
 62
7
  6
CONTINUOUS
 10
119.3789268513
 20
83.5310652879
  0
VERTEX
  8
0
 62
7
  6
CONTINUOUS
 10
119.3640951995
 20
83.5892704982
  0
VERTEX
  8
0
 62
7
  6
CONTINUOUS
 10
119.3512935361
 20
83.6501081651
  0
VERTEX
  8
0
 62
7
  6
CONTINUOUS
 10
119.3403814901
 20
83.7132943391
  0
VERTEX
  8
0
 62
7
  6
CONTINUOUS
 10
119.3313421736
 20
83.7786925218
  0
VERTEX
  8
0
 62
7
  6
CONTINUOUS
 10
119.3240809003
 20
83.8462965767
  0
VERTEX
  8
0
 62
7
  6
CONTINUOUS
 10
119.318516788
 20
83.9157667201
  0
VERTEX
  8
0
 62
7
  6
CONTINUOUS
 10
119.3145614084
 20
83.9869063516
  0
VERTEX
  8
0
 62
7
  6
CONTINUOUS
 10
119.3120992463
 20
84.05963565
  0
VERTEX
  8
0
 62
7
  6
CONTINUOUS
 10
119.3109975098
 20
84.1338384708
  0
VERTEX
  8
0
 62
7
  6
CONTINUOUS
 10
119.3111335159
 20
84.2093635026
  0
SEQEND
  0
POLYLINE
  8
0
 62
7
  6
CONTINUOUS
 66
1
 70
0
  0
VERTEX
  8
0
 62
7
  6
CONTINUOUS
 10
136.493500062
 20
83.1681193281
  0
VERTEX
  8
0
 62
7
  6
CONTINUOUS
 10
136.4766022499
 20
83.1690798895
  0
VERTEX
  8
0
 62
7
  6
CONTINUOUS
 10
136.4364760143
 20
83.1781803246
  0
VERTEX
  8
0
 62
7
  6
CONTINUOUS
 10
136.3968802112
 20
83.196121561
  0
VERTEX
  8
0
 62
7
  6
CONTINUOUS
 10
136.3594817452
 20
83.2213302041
  0
VERTEX
  8
0
 62
7
  6
CONTINUOUS
 10
136.3247110424
 20
83.252679699
  0
VERTEX
  8
0
 62
7
  6
CONTINUOUS
 10
136.2929737509
 20
83.2891328102
  0
VERTEX
  8
0
 62
7
  6
CONTINUOUS
 10
136.2642231016
 20
83.3301255551
  0
VERTEX
  8
0
 62
7
  6
CONTINUOUS
 10
136.2384067147
 20
83.3752959855
  0
VERTEX
  8
0
 62
7
  6
CONTINUOUS
 10
136.2155761774
 20
83.4241792538
  0
VERTEX
  8
0
 62
7
  6
CONTINUOUS
 10
136.1959088023
 20
83.4759341151
  0
VERTEX
  8
0
 62
7
  6
CONTINUOUS
 10
136.1789268513
 20
83.5310652879
  0
VERTEX
  8
0
 62
7
  6
CONTINUOUS
 10
136.1640951995
 20
83.5892704982
  0
VERTEX
  8
0
 62
7
  6
CONTINUOUS
 10
136.1512935361
 20
83.6501081651
  0
VERTEX
  8
0
 62
7
  6
CONTINUOUS
 10
136.1403814901
 20
83.7132943391
  0
VERTEX
  8
0
 62
7
  6
CONTINUOUS
 10
136.1313421736
 20
83.7786925218
  0
VERTEX
  8
0
 62
7
  6
CONTINUOUS
 10
136.1240809003
 20
83.8462965767
  0
VERTEX
  8
0
 62
7
  6
CONTINUOUS
 10
136.118516788
 20
83.9157667201
  0
VERTEX
  8
0
 62
7
  6
CONTINUOUS
 10
136.1145614084
 20
83.9869063516
  0
VERTEX
  8
0
 62
7
  6
CONTINUOUS
 10
136.1120992463
 20
84.05963565
  0
VERTEX
  8
0
 62
7
  6
CONTINUOUS
 10
136.1109975098
 20
84.1338384708
  0
VERTEX
  8
0
 62
7
  6
CONTINUOUS
 10
136.1111335159
 20
84.2093635026
  0
SEQEND
  0
POLYLINE
  8
0
 62
7
  6
CONTINUOUS
 66
1
 70
0
  0
VERTEX
  8
0
 62
7
  6
CONTINUOUS
 10
153.293500062
 20
83.1681193281
  0
VERTEX
  8
0
 62
7
  6
CONTINUOUS
 10
153.2766022499
 20
83.1690798895
  0
VERTEX
  8
0
 62
7
  6
CONTINUOUS
 10
153.2364760143
 20
83.1781803246
  0
VERTEX
  8
0
 62
7
  6
CONTINUOUS
 10
153.1968802112
 20
83.196121561
  0
VERTEX
  8
0
 62
7
  6
CONTINUOUS
 10
153.1594817452
 20
83.2213302041
  0
VERTEX
  8
0
 62
7
  6
CONTINUOUS
 10
153.1247110424
 20
83.252679699
  0
VERTEX
  8
0
 62
7
  6
CONTINUOUS
 10
153.0929737509
 20
83.2891328102
  0
VERTEX
  8
0
 62
7
  6
CONTINUOUS
 10
153.0642231016
 20
83.3301255551
  0
VERTEX
  8
0
 62
7
  6
CONTINUOUS
 10
153.0384067147
 20
83.3752959855
  0
VERTEX
  8
0
 62
7
  6
CONTINUOUS
 10
153.0155761774
 20
83.4241792538
  0
VERTEX
  8
0
 62
7
  6
CONTINUOUS
 10
152.9959088023
 20
83.4759341151
  0
VERTEX
  8
0
 62
7
  6
CONTINUOUS
 10
152.9789268513
 20
83.5310652879
  0
VERTEX
  8
0
 62
7
  6
CONTINUOUS
 10
152.9640951995
 20
83.5892704982
  0
VERTEX
  8
0
 62
7
  6
CONTINUOUS
 10
152.9512935361
 20
83.6501081651
  0
VERTEX
  8
0
 62
7
  6
CONTINUOUS
 10
152.9403814901
 20
83.7132943391
  0
VERTEX
  8
0
 62
7
  6
CONTINUOUS
 10
152.9313421736
 20
83.7786925218
  0
VERTEX
  8
0
 62
7
  6
CONTINUOUS
 10
152.9240809003
 20
83.8462965767
  0
VERTEX
  8
0
 62
7
  6
CONTINUOUS
 10
152.918516788
 20
83.9157667201
  0
VERTEX
  8
0
 62
7
  6
CONTINUOUS
 10
152.9145614084
 20
83.9869063516
  0
VERTEX
  8
0
 62
7
  6
CONTINUOUS
 10
152.9120992463
 20
84.05963565
  0
VERTEX
  8
0
 62
7
  6
CONTINUOUS
 10
152.9109975098
 20
84.1338384708
  0
VERTEX
  8
0
 62
7
  6
CONTINUOUS
 10
152.9111335159
 20
84.2093635026
  0
SEQEND
  0
POLYLINE
  8
0
 62
7
  6
CONTINUOUS
 66
1
 70
0
  0
VERTEX
  8
0
 62
7
  6
CONTINUOUS
 10
170.093500062
 20
83.1681193281
  0
VERTEX
  8
0
 62
7
  6
CONTINUOUS
 10
170.0766022499
 20
83.1690798895
  0
VERTEX
  8
0
 62
7
  6
CONTINUOUS
 10
170.0364760143
 20
83.1781803246
  0
VERTEX
  8
0
 62
7
  6
CONTINUOUS
 10
169.9968802112
 20
83.196121561
  0
VERTEX
  8
0
 62
7
  6
CONTINUOUS
 10
169.9594817452
 20
83.2213302041
  0
VERTEX
  8
0
 62
7
  6
CONTINUOUS
 10
169.9247110424
 20
83.252679699
  0
VERTEX
  8
0
 62
7
  6
CONTINUOUS
 10
169.8929737509
 20
83.2891328102
  0
VERTEX
  8
0
 62
7
  6
CONTINUOUS
 10
169.8642231016
 20
83.3301255551
  0
VERTEX
  8
0
 62
7
  6
CONTINUOUS
 10
169.8384067147
 20
83.3752959855
  0
VERTEX
  8
0
 62
7
  6
CONTINUOUS
 10
169.8155761774
 20
83.4241792538
  0
VERTEX
  8
0
 62
7
  6
CONTINUOUS
 10
169.7959088023
 20
83.4759341151
  0
VERTEX
  8
0
 62
7
  6
CONTINUOUS
 10
169.7789268513
 20
83.5310652879
  0
VERTEX
  8
0
 62
7
  6
CONTINUOUS
 10
169.7640951995
 20
83.5892704982
  0
VERTEX
  8
0
 62
7
  6
CONTINUOUS
 10
169.7512935361
 20
83.6501081651
  0
VERTEX
  8
0
 62
7
  6
CONTINUOUS
 10
169.7403814901
 20
83.7132943391
  0
VERTEX
  8
0
 62
7
  6
CONTINUOUS
 10
169.7313421736
 20
83.7786925218
  0
VERTEX
  8
0
 62
7
  6
CONTINUOUS
 10
169.7240809003
 20
83.8462965767
  0
VERTEX
  8
0
 62
7
  6
CONTINUOUS
 10
169.718516788
 20
83.9157667201
  0
VERTEX
  8
0
 62
7
  6
CONTINUOUS
 10
169.7145614084
 20
83.9869063516
  0
VERTEX
  8
0
 62
7
  6
CONTINUOUS
 10
169.7120992463
 20
84.05963565
  0
VERTEX
  8
0
 62
7
  6
CONTINUOUS
 10
169.7109975098
 20
84.1338384708
  0
VERTEX
  8
0
 62
7
  6
CONTINUOUS
 10
169.7111335159
 20
84.2093635026
  0
SEQEND
  0
LINE
  8
0
 62
7
  6
CONTINUOUS
 10
118.437488695
 20
94.1271276979
 11
118.2577054198
 21
94.5280769197
  0
POLYLINE
  8
0
 62
7
  6
CONTINUOUS
 66
1
 70
0
  0
VERTEX
  8
0
 62
7
  6
CONTINUOUS
 10
137.3606073398
 20
29.5548854414
  0
VERTEX
  8
0
 62
7
  6
CONTINUOUS
 10
137.3864132751
 20
29.398007303
  0
VERTEX
  8
0
 62
7
  6
CONTINUOUS
 10
137.4154061926
 20
29.2412823579
  0
VERTEX
  8
0
 62
7
  6
CONTINUOUS
 10
137.4443617231
 20
29.1037561486
  0
VERTEX
  8
0
 62
7
  6
CONTINUOUS
 10
137.4736226735
 20
28.9824592051
  0
VERTEX
  8
0
 62
7
  6
CONTINUOUS
 10
137.5037452636
 20
28.8744671755
  0
VERTEX
  8
0
 62
7
  6
CONTINUOUS
 10
137.5356588948
 20
28.7767262723
  0
VERTEX
  8
0
 62
7
  6
CONTINUOUS
 10
137.5709567869
 20
28.6858894057
  0
VERTEX
  8
0
 62
7
  6
CONTINUOUS
 10
137.6121822579
 20
28.5986828179
  0
VERTEX
  8
0
 62
7
  6
CONTINUOUS
 10
137.6630382805
 20
28.5126684921
  0
VERTEX
  8
0
 62
7
  6
CONTINUOUS
 10
137.7286097385
 20
28.4269450709
  0
VERTEX
  8
0
 62
7
  6
CONTINUOUS
 10
137.8137764297
 20
28.344454034
  0
VERTEX
  8
0
 62
7
  6
CONTINUOUS
 10
137.9202326818
 20
28.2724970369
  0
VERTEX
  8
0
 62
7
  6
CONTINUOUS
 10
138.0452441158
 20
28.21960694
  0
VERTEX
  8
0
 62
7
  6
CONTINUOUS
 10
138.1819833719
 20
28.1923642989
  0
VERTEX
  8
0
 62
7
  6
CONTINUOUS
 10
138.2470478539
 20
28.1893102751
  0
SEQEND
  0
LINE
  8
0
 62
7
  6
CONTINUOUS
 10
137.3447059578
 20
29.6596046209
 11
137.3606083321
 21
29.5548790762
  0
POLYLINE
  8
0
 62
7
  6
CONTINUOUS
 66
1
 70
0
  0
VERTEX
  8
0
 62
7
  6
CONTINUOUS
 10
136.2884636781
 20
33.8466863051
  0
VERTEX
  8
0
 62
7
  6
CONTINUOUS
 10
136.3598409331
 20
33.2983949227
  0
VERTEX
  8
0
 62
7
  6
CONTINUOUS
 10
136.4544903945
 20
32.6984135073
  0
VERTEX
  8
0
 62
7
  6
CONTINUOUS
 10
136.5651009993
 20
32.1156265428
  0
VERTEX
  8
0
 62
7
  6
CONTINUOUS
 10
136.6917148855
 20
31.5550408765
  0
VERTEX
  8
0
 62
7
  6
CONTINUOUS
 10
136.8343476399
 20
31.0214931982
  0
VERTEX
  8
0
 62
7
  6
CONTINUOUS
 10
136.9930455641
 20
30.5196428201
  0
VERTEX
  8
0
 62
7
  6
CONTINUOUS
 10
137.1680393457
 20
30.0537922148
  0
SEQEND
  0
LINE
  8
0
 62
7
  6
CONTINUOUS
 10
136.1180087809
 20
90.3319282332
 11
136.1180680861
 21
90.3309082934
  0
LINE
  8
0
 62
7
  6
CONTINUOUS
 10
145.7606084678
 20
94.6237421695
 11
145.7447036832
 21
94.5190148275
  0
POLYLINE
  8
0
 62
7
  6
CONTINUOUS
 66
1
 70
0
  0
VERTEX
  8
0
 62
7
  6
CONTINUOUS
 10
126.657706463
 20
29.6505455822
  0
VERTEX
  8
0
 62
7
  6
CONTINUOUS
 10
126.8384331901
 20
30.0537923217
  0
VERTEX
  8
0
 62
7
  6
CONTINUOUS
 10
127.0134270079
 20
30.5196430529
  0
VERTEX
  8
0
 62
7
  6
CONTINUOUS
 10
127.1721249609
 20
31.021493573
  0
VERTEX
  8
0
 62
7
  6
CONTINUOUS
 10
127.3147577366
 20
31.5550414064
  0
VERTEX
  8
0
 62
7
  6
CONTINUOUS
 10
127.4413716364
 20
32.1156272372
  0
VERTEX
  8
0
 62
7
  6
CONTINUOUS
 10
127.5519822473
 20
32.6984143722
  0
VERTEX
  8
0
 62
7
  6
CONTINUOUS
 10
127.6466317071
 20
33.2983959606
  0
VERTEX
  8
0
 62
7
  6
CONTINUOUS
 10
127.7180088138
 20
33.8466863051
  0
SEQEND
  0
POLYLINE
  8
0
 62
7
  6
CONTINUOUS
 66
1
 70
0
  0
VERTEX
  8
0
 62
7
  6
CONTINUOUS
 10
127.718008763
 20
33.8466964265
  0
VERTEX
  8
0
 62
7
  6
CONTINUOUS
 10
127.7121970626
 20
33.8380995285
  0
VERTEX
  8
0
 62
7
  6
CONTINUOUS
 10
127.6931103097
 20
33.82930621
  0
VERTEX
  8
0
 62
7
  6
CONTINUOUS
 10
127.6619090626
 20
33.8225777673
  0
VERTEX
  8
0
 62
7
  6
CONTINUOUS
 10
127.6205905167
 20
33.8182580639
  0
VERTEX
  8
0
 62
7
  6
CONTINUOUS
 10
127.5718941705
 20
33.8164691773
  0
VERTEX
  8
0
 62
7
  6
CONTINUOUS
 10
127.5180680891
 20
33.8170288646
  0
SEQEND
  0
POLYLINE
  8
0
 62
7
  6
CONTINUOUS
 66
1
 70
0
  0
VERTEX
  8
0
 62
7
  6
CONTINUOUS
 10
163.4470475415
 20
95.989310101
  0
VERTEX
  8
0
 62
7
  6
CONTINUOUS
 10
163.382092672
 20
95.9862663931
  0
VERTEX
  8
0
 62
7
  6
CONTINUOUS
 10
163.2454538348
 20
95.9590781919
  0
VERTEX
  8
0
 62
7
  6
CONTINUOUS
 10
163.1205120029
 20
95.9062760754
  0
VERTEX
  8
0
 62
7
  6
CONTINUOUS
 10
163.014082273
 20
95.8344171063
  0
VERTEX
  8
0
 62
7
  6
CONTINUOUS
 10
162.9289055026
 20
95.7520115899
  0
VERTEX
  8
0
 62
7
  6
CONTINUOUS
 10
162.8633069174
 20
95.6663547034
  0
VERTEX
  8
0
 62
7
  6
CONTINUOUS
 10
162.8124265665
 20
95.580402591
  0
VERTEX
  8
0
 62
7
  6
CONTINUOUS
 10
162.7711865685
 20
95.4932694981
  0
VERTEX
  8
0
 62
7
  6
CONTINUOUS
 10
162.7358835295
 20
95.4025264983
  0
VERTEX
  8
0
 62
7
  6
CONTINUOUS
 10
162.7039722066
 20
95.304906317
  0
VERTEX
  8
0
 62
7
  6
CONTINUOUS
 10
162.6738568171
 20
95.1970643913
  0
VERTEX
  8
0
 62
7
  6
CONTINUOUS
 10
162.6446061095
 20
95.0759486943
  0
VERTEX
  8
0
 62
7
  6
CONTINUOUS
 10
162.6156625892
 20
94.9386367169
  0
VERTEX
  8
0
 62
7
  6
CONTINUOUS
 10
162.5866825006
 20
94.7821609962
  0
VERTEX
  8
0
 62
7
  6
CONTINUOUS
 10
162.5606074296
 20
94.6237355102
  0
SEQEND
  0
POLYLINE
  8
0
 62
7
  6
CONTINUOUS
 66
1
 70
0
  0
VERTEX
  8
0
 62
7
  6
CONTINUOUS
 10
180.2470416141
 20
95.9893101069
  0
VERTEX
  8
0
 62
7
  6
CONTINUOUS
 10
180.1904861531
 20
95.9870059908
  0
VERTEX
  8
0
 62
7
  6
CONTINUOUS
 10
180.0608431405
 20
95.9636279168
  0
VERTEX
  8
0
 62
7
  6
CONTINUOUS
 10
179.9424073621
 20
95.9177299725
  0
VERTEX
  8
0
 62
7
  6
CONTINUOUS
 10
179.8367872809
 20
95.852254934
  0
VERTEX
  8
0
 62
7
  6
CONTINUOUS
 10
179.7460368217
 20
95.7708307686
  0
VERTEX
  8
0
 62
7
  6
CONTINUOUS
 10
179.6737072006
 20
95.6815861776
  0
VERTEX
  8
0
 62
7
  6
CONTINUOUS
 10
179.6185479894
 20
95.5918750501
  0
VERTEX
  8
0
 62
7
  6
CONTINUOUS
 10
179.5744954831
 20
95.5009541567
  0
VERTEX
  8
0
 62
7
  6
CONTINUOUS
 10
179.5370294264
 20
95.4057409739
  0
VERTEX
  8
0
 62
7
  6
CONTINUOUS
 10
179.5034124928
 20
95.3030473175
  0
VERTEX
  8
0
 62
7
  6
CONTINUOUS
 10
179.4721287157
 20
95.1903737273
  0
VERTEX
  8
0
 62
7
  6
CONTINUOUS
 10
179.4422506571
 20
95.0654446317
  0
VERTEX
  8
0
 62
7
  6
CONTINUOUS
 10
179.4132999904
 20
94.9266132847
  0
VERTEX
  8
0
 62
7
  6
CONTINUOUS
 10
179.385060203
 20
94.7728064531
  0
VERTEX
  8
0
 62
7
  6
CONTINUOUS
 10
179.3606069135
 20
94.6237321994
  0
SEQEND
  0
POLYLINE
  8
0
 62
6
  6
CONTINUOUS
 66
1
 70
0
  0
VERTEX
  8
0
 62
6
  6
CONTINUOUS
 10
181.2264945286
 20
90.3615446444
  0
VERTEX
  8
0
 62
6
  6
CONTINUOUS
 10
181.0394276753
 20
90.3555517014
  0
VERTEX
  8
0
 62
6
  6
CONTINUOUS
 10
180.8594730226
 20
90.3441432747
  0
VERTEX
  8
0
 62
6
  6
CONTINUOUS
 10
180.6928525325
 20
90.3278604491
  0
VERTEX
  8
0
 62
6
  6
CONTINUOUS
 10
180.5452441241
 20
90.3073598668
  0
VERTEX
  8
0
 62
6
  6
CONTINUOUS
 10
180.4215848353
 20
90.2834074918
  0
VERTEX
  8
0
 62
6
  6
CONTINUOUS
 10
180.3259180981
 20
90.2568665058
  0
VERTEX
  8
0
 62
6
  6
CONTINUOUS
 10
180.2612866643
 20
90.2286809719
  0
VERTEX
  8
0
 62
6
  6
CONTINUOUS
 10
180.2296737947
 20
90.1998577866
  0
SEQEND
  0
POLYLINE
  8
0
 62
7
  6
CONTINUOUS
 66
1
 70
0
  0
VERTEX
  8
0
 62
7
  6
CONTINUOUS
 10
169.5180680891
 20
90.3615915112
  0
VERTEX
  8
0
 62
7
  6
CONTINUOUS
 10
169.5650967611
 20
90.3622034639
  0
VERTEX
  8
0
 62
7
  6
CONTINUOUS
 10
169.6086191021
 20
90.361064443
  0
VERTEX
  8
0
 62
7
  6
CONTINUOUS
 10
169.6472705508
 20
90.3579794703
  0
VERTEX
  8
0
 62
7
  6
CONTINUOUS
 10
169.6789189743
 20
90.3529623359
  0
VERTEX
  8
0
 62
7
  6
CONTINUOUS
 10
169.7018694885
 20
90.3461923201
  0
VERTEX
  8
0
 62
7
  6
CONTINUOUS
 10
169.7149951703
 20
90.3379776463
  0
VERTEX
  8
0
 62
7
  6
CONTINUOUS
 10
169.7180087809
 20
90.3319282332
  0
SEQEND
  0
POLYLINE
  8
0
 62
7
  6
CONTINUOUS
 66
1
 70
0
  0
VERTEX
  8
0
 62
7
  6
CONTINUOUS
 10
152.7180680891
 20
90.3615915112
  0
VERTEX
  8
0
 62
7
  6
CONTINUOUS
 10
152.7650967611
 20
90.3622034639
  0
VERTEX
  8
0
 62
7
  6
CONTINUOUS
 10
152.8086191021
 20
90.361064443
  0
VERTEX
  8
0
 62
7
  6
CONTINUOUS
 10
152.8472705508
 20
90.3579794703
  0
VERTEX
  8
0
 62
7
  6
CONTINUOUS
 10
152.8789189743
 20
90.3529623359
  0
VERTEX
  8
0
 62
7
  6
CONTINUOUS
 10
152.9018694885
 20
90.3461923201
  0
VERTEX
  8
0
 62
7
  6
CONTINUOUS
 10
152.9149951703
 20
90.3379776463
  0
VERTEX
  8
0
 62
7
  6
CONTINUOUS
 10
152.9180087809
 20
90.3319282332
  0
SEQEND
  0
POLYLINE
  8
0
 62
7
  6
CONTINUOUS
 66
1
 70
0
  0
VERTEX
  8
0
 62
7
  6
CONTINUOUS
 10
135.9180680891
 20
90.3615915112
  0
VERTEX
  8
0
 62
7
  6
CONTINUOUS
 10
135.9650967611
 20
90.3622034639
  0
VERTEX
  8
0
 62
7
  6
CONTINUOUS
 10
136.0086191021
 20
90.361064443
  0
VERTEX
  8
0
 62
7
  6
CONTINUOUS
 10
136.0472705508
 20
90.3579794703
  0
VERTEX
  8
0
 62
7
  6
CONTINUOUS
 10
136.0789189743
 20
90.3529623359
  0
VERTEX
  8
0
 62
7
  6
CONTINUOUS
 10
136.1018694885
 20
90.3461923201
  0
VERTEX
  8
0
 62
7
  6
CONTINUOUS
 10
136.1149951703
 20
90.3379776463
  0
VERTEX
  8
0
 62
7
  6
CONTINUOUS
 10
136.1180087809
 20
90.3319282332
  0
SEQEND
  0
POLYLINE
  8
0
 62
7
  6
CONTINUOUS
 66
1
 70
0
  0
VERTEX
  8
0
 62
7
  6
CONTINUOUS
 10
119.1180680891
 20
90.3615915112
  0
VERTEX
  8
0
 62
7
  6
CONTINUOUS
 10
119.1650967611
 20
90.3622034639
  0
VERTEX
  8
0
 62
7
  6
CONTINUOUS
 10
119.2086191021
 20
90.361064443
  0
VERTEX
  8
0
 62
7
  6
CONTINUOUS
 10
119.2472705508
 20
90.3579794703
  0
VERTEX
  8
0
 62
7
  6
CONTINUOUS
 10
119.2789189743
 20
90.3529623359
  0
VERTEX
  8
0
 62
7
  6
CONTINUOUS
 10
119.3018694885
 20
90.3461923201
  0
VERTEX
  8
0
 62
7
  6
CONTINUOUS
 10
119.3149951703
 20
90.3379776463
  0
VERTEX
  8
0
 62
7
  6
CONTINUOUS
 10
119.3180087809
 20
90.3319282332
  0
SEQEND
  0
POLYLINE
  8
0
 62
7
  6
CONTINUOUS
 66
1
 70
0
  0
VERTEX
  8
0
 62
7
  6
CONTINUOUS
 10
102.3180680891
 20
90.3615915112
  0
VERTEX
  8
0
 62
7
  6
CONTINUOUS
 10
102.3650967611
 20
90.3622034639
  0
VERTEX
  8
0
 62
7
  6
CONTINUOUS
 10
102.4086191021
 20
90.361064443
  0
VERTEX
  8
0
 62
7
  6
CONTINUOUS
 10
102.4472705508
 20
90.3579794703
  0
VERTEX
  8
0
 62
7
  6
CONTINUOUS
 10
102.4789189743
 20
90.3529623359
  0
VERTEX
  8
0
 62
7
  6
CONTINUOUS
 10
102.5018694885
 20
90.3461923201
  0
VERTEX
  8
0
 62
7
  6
CONTINUOUS
 10
102.5149951703
 20
90.3379776463
  0
VERTEX
  8
0
 62
7
  6
CONTINUOUS
 10
102.5180087809
 20
90.3319282332
  0
SEQEND
  0
POLYLINE
  8
0
 62
7
  6
CONTINUOUS
 66
1
 70
0
  0
VERTEX
  8
0
 62
7
  6
CONTINUOUS
 10
85.5180680891
 20
90.3615915112
  0
VERTEX
  8
0
 62
7
  6
CONTINUOUS
 10
85.5650967611
 20
90.3622034639
  0
VERTEX
  8
0
 62
7
  6
CONTINUOUS
 10
85.6086191021
 20
90.361064443
  0
VERTEX
  8
0
 62
7
  6
CONTINUOUS
 10
85.6472705508
 20
90.3579794703
  0
VERTEX
  8
0
 62
7
  6
CONTINUOUS
 10
85.6789189743
 20
90.3529623359
  0
VERTEX
  8
0
 62
7
  6
CONTINUOUS
 10
85.7018694885
 20
90.3461923201
  0
VERTEX
  8
0
 62
7
  6
CONTINUOUS
 10
85.7149951703
 20
90.3379776463
  0
VERTEX
  8
0
 62
7
  6
CONTINUOUS
 10
85.7180087809
 20
90.3319282332
  0
SEQEND
  0
POLYLINE
  8
0
 62
7
  6
CONTINUOUS
 66
1
 70
0
  0
VERTEX
  8
0
 62
7
  6
CONTINUOUS
 10
68.7180680891
 20
90.3615915112
  0
VERTEX
  8
0
 62
7
  6
CONTINUOUS
 10
68.7650967611
 20
90.3622034639
  0
VERTEX
  8
0
 62
7
  6
CONTINUOUS
 10
68.8086191021
 20
90.361064443
  0
VERTEX
  8
0
 62
7
  6
CONTINUOUS
 10
68.8472705508
 20
90.3579794703
  0
VERTEX
  8
0
 62
7
  6
CONTINUOUS
 10
68.8789189743
 20
90.3529623359
  0
VERTEX
  8
0
 62
7
  6
CONTINUOUS
 10
68.9018694885
 20
90.3461923201
  0
VERTEX
  8
0
 62
7
  6
CONTINUOUS
 10
68.9149951703
 20
90.3379776463
  0
VERTEX
  8
0
 62
7
  6
CONTINUOUS
 10
68.9180087809
 20
90.3319282332
  0
SEQEND
  0
POLYLINE
  8
0
 62
7
  6
CONTINUOUS
 66
1
 70
0
  0
VERTEX
  8
0
 62
7
  6
CONTINUOUS
 10
51.9180680891
 20
90.3615915112
  0
VERTEX
  8
0
 62
7
  6
CONTINUOUS
 10
51.9650967611
 20
90.3622034639
  0
VERTEX
  8
0
 62
7
  6
CONTINUOUS
 10
52.0086191021
 20
90.361064443
  0
VERTEX
  8
0
 62
7
  6
CONTINUOUS
 10
52.0472705508
 20
90.3579794703
  0
VERTEX
  8
0
 62
7
  6
CONTINUOUS
 10
52.0789189743
 20
90.3529623359
  0
VERTEX
  8
0
 62
7
  6
CONTINUOUS
 10
52.1018694885
 20
90.3461923201
  0
VERTEX
  8
0
 62
7
  6
CONTINUOUS
 10
52.1149951703
 20
90.3379776463
  0
VERTEX
  8
0
 62
7
  6
CONTINUOUS
 10
52.1180087809
 20
90.3319282332
  0
SEQEND
  0
LINE
  8
0
 62
6
  6
CONTINUOUS
 10
181.2264945286
 20
90.3615446444
 11
181.2321328328
 21
90.3615915094
  0
LINE
  8
0
 62
6
  6
CONTINUOUS
 10
169.5201040632
 20
90.3615915112
 11
169.5180680891
 21
90.3615915112
  0
LINE
  8
0
 62
7
  6
CONTINUOUS
 10
169.5180680891
 20
90.3615915112
 11
161.6884044028
 21
90.3615915112
  0
LINE
  8
0
 62
7
  6
CONTINUOUS
 10
152.7180680891
 20
90.3615915112
 11
144.8884044028
 21
90.3615915112
  0
LINE
  8
0
 62
7
  6
CONTINUOUS
 10
135.9180680891
 20
90.3615915112
 11
128.0884044028
 21
90.3615915112
  0
LINE
  8
0
 62
7
  6
CONTINUOUS
 10
119.1180680891
 20
90.3615915112
 11
111.2884044028
 21
90.3615915112
  0
LINE
  8
0
 62
7
  6
CONTINUOUS
 10
102.3180680891
 20
90.3615915112
 11
94.4884044028
 21
90.3615915112
  0
LINE
  8
0
 62
7
  6
CONTINUOUS
 10
85.5180680891
 20
90.3615915112
 11
77.6884044028
 21
90.3615915112
  0
LINE
  8
0
 62
7
  6
CONTINUOUS
 10
68.7180680891
 20
90.3615915112
 11
60.8884044028
 21
90.3615915112
  0
LINE
  8
0
 62
7
  6
CONTINUOUS
 10
51.9180680891
 20
90.3615915112
 11
44.0884044028
 21
90.3615915112
  0
LINE
  8
0
 62
7
  6
CONTINUOUS
 10
178.4884044028
 20
90.3615915112
 11
186.303236246
 21
90.3615915112
  0
LINE
  8
0
 62
6
  6
CONTINUOUS
 10
178.4863684287
 20
90.3615915112
 11
178.4884044028
 21
90.3615915112
  0
LINE
  8
0
 62
6
  6
CONTINUOUS
 10
166.7799779633
 20
90.3615446444
 11
166.7743396591
 21
90.3615915094
  0
POLYLINE
  8
0
 62
7
  6
CONTINUOUS
 66
1
 70
0
  0
VERTEX
  8
0
 62
7
  6
CONTINUOUS
 10
44.0884044028
 20
90.3615915112
  0
VERTEX
  8
0
 62
7
  6
CONTINUOUS
 10
44.0413757308
 20
90.3622034639
  0
VERTEX
  8
0
 62
7
  6
CONTINUOUS
 10
43.9978533898
 20
90.361064443
  0
VERTEX
  8
0
 62
7
  6
CONTINUOUS
 10
43.9592019412
 20
90.3579794703
  0
VERTEX
  8
0
 62
7
  6
CONTINUOUS
 10
43.9275535176
 20
90.3529623359
  0
VERTEX
  8
0
 62
7
  6
CONTINUOUS
 10
43.9046030034
 20
90.3461923201
  0
VERTEX
  8
0
 62
7
  6
CONTINUOUS
 10
43.8914773216
 20
90.3379776463
  0
VERTEX
  8
0
 62
7
  6
CONTINUOUS
 10
43.888463711
 20
90.3319282332
  0
SEQEND
  0
POLYLINE
  8
0
 62
7
  6
CONTINUOUS
 66
1
 70
0
  0
VERTEX
  8
0
 62
7
  6
CONTINUOUS
 10
60.8884044028
 20
90.3615915112
  0
VERTEX
  8
0
 62
7
  6
CONTINUOUS
 10
60.8413757308
 20
90.3622034639
  0
VERTEX
  8
0
 62
7
  6
CONTINUOUS
 10
60.7978533898
 20
90.361064443
  0
VERTEX
  8
0
 62
7
  6
CONTINUOUS
 10
60.7592019412
 20
90.3579794703
  0
VERTEX
  8
0
 62
7
  6
CONTINUOUS
 10
60.7275535176
 20
90.3529623359
  0
VERTEX
  8
0
 62
7
  6
CONTINUOUS
 10
60.7046030034
 20
90.3461923201
  0
VERTEX
  8
0
 62
7
  6
CONTINUOUS
 10
60.6914773216
 20
90.3379776463
  0
VERTEX
  8
0
 62
7
  6
CONTINUOUS
 10
60.688463711
 20
90.3319282332
  0
SEQEND
  0
POLYLINE
  8
0
 62
7
  6
CONTINUOUS
 66
1
 70
0
  0
VERTEX
  8
0
 62
7
  6
CONTINUOUS
 10
77.6884044028
 20
90.3615915112
  0
VERTEX
  8
0
 62
7
  6
CONTINUOUS
 10
77.6413757308
 20
90.3622034639
  0
VERTEX
  8
0
 62
7
  6
CONTINUOUS
 10
77.5978533898
 20
90.361064443
  0
VERTEX
  8
0
 62
7
  6
CONTINUOUS
 10
77.5592019412
 20
90.3579794703
  0
VERTEX
  8
0
 62
7
  6
CONTINUOUS
 10
77.5275535176
 20
90.3529623359
  0
VERTEX
  8
0
 62
7
  6
CONTINUOUS
 10
77.5046030034
 20
90.3461923201
  0
VERTEX
  8
0
 62
7
  6
CONTINUOUS
 10
77.4914773216
 20
90.3379776463
  0
VERTEX
  8
0
 62
7
  6
CONTINUOUS
 10
77.488463711
 20
90.3319282332
  0
SEQEND
  0
POLYLINE
  8
0
 62
7
  6
CONTINUOUS
 66
1
 70
0
  0
VERTEX
  8
0
 62
7
  6
CONTINUOUS
 10
94.4884044028
 20
90.3615915112
  0
VERTEX
  8
0
 62
7
  6
CONTINUOUS
 10
94.4413757308
 20
90.3622034639
  0
VERTEX
  8
0
 62
7
  6
CONTINUOUS
 10
94.3978533898
 20
90.361064443
  0
VERTEX
  8
0
 62
7
  6
CONTINUOUS
 10
94.3592019412
 20
90.3579794703
  0
VERTEX
  8
0
 62
7
  6
CONTINUOUS
 10
94.3275535176
 20
90.3529623359
  0
VERTEX
  8
0
 62
7
  6
CONTINUOUS
 10
94.3046030034
 20
90.3461923201
  0
VERTEX
  8
0
 62
7
  6
CONTINUOUS
 10
94.2914773216
 20
90.3379776463
  0
VERTEX
  8
0
 62
7
  6
CONTINUOUS
 10
94.288463711
 20
90.3319282332
  0
SEQEND
  0
POLYLINE
  8
0
 62
7
  6
CONTINUOUS
 66
1
 70
0
  0
VERTEX
  8
0
 62
7
  6
CONTINUOUS
 10
111.2884044028
 20
90.3615915112
  0
VERTEX
  8
0
 62
7
  6
CONTINUOUS
 10
111.2413757308
 20
90.3622034639
  0
VERTEX
  8
0
 62
7
  6
CONTINUOUS
 10
111.1978533898
 20
90.361064443
  0
VERTEX
  8
0
 62
7
  6
CONTINUOUS
 10
111.1592019412
 20
90.3579794703
  0
VERTEX
  8
0
 62
7
  6
CONTINUOUS
 10
111.1275535176
 20
90.3529623359
  0
VERTEX
  8
0
 62
7
  6
CONTINUOUS
 10
111.1046030034
 20
90.3461923201
  0
VERTEX
  8
0
 62
7
  6
CONTINUOUS
 10
111.0914773216
 20
90.3379776463
  0
VERTEX
  8
0
 62
7
  6
CONTINUOUS
 10
111.088463711
 20
90.3319282332
  0
SEQEND
  0
POLYLINE
  8
0
 62
7
  6
CONTINUOUS
 66
1
 70
0
  0
VERTEX
  8
0
 62
7
  6
CONTINUOUS
 10
128.0884044028
 20
90.3615915112
  0
VERTEX
  8
0
 62
7
  6
CONTINUOUS
 10
128.0413757308
 20
90.3622034639
  0
VERTEX
  8
0
 62
7
  6
CONTINUOUS
 10
127.9978533898
 20
90.361064443
  0
VERTEX
  8
0
 62
7
  6
CONTINUOUS
 10
127.9592019412
 20
90.3579794703
  0
VERTEX
  8
0
 62
7
  6
CONTINUOUS
 10
127.9275535176
 20
90.3529623359
  0
VERTEX
  8
0
 62
7
  6
CONTINUOUS
 10
127.9046030034
 20
90.3461923201
  0
VERTEX
  8
0
 62
7
  6
CONTINUOUS
 10
127.8914773216
 20
90.3379776463
  0
VERTEX
  8
0
 62
7
  6
CONTINUOUS
 10
127.888463711
 20
90.3319282332
  0
SEQEND
  0
POLYLINE
  8
0
 62
7
  6
CONTINUOUS
 66
1
 70
0
  0
VERTEX
  8
0
 62
7
  6
CONTINUOUS
 10
144.8884044028
 20
90.3615915112
  0
VERTEX
  8
0
 62
7
  6
CONTINUOUS
 10
144.8413757308
 20
90.3622034639
  0
VERTEX
  8
0
 62
7
  6
CONTINUOUS
 10
144.7978533898
 20
90.361064443
  0
VERTEX
  8
0
 62
7
  6
CONTINUOUS
 10
144.7592019412
 20
90.3579794703
  0
VERTEX
  8
0
 62
7
  6
CONTINUOUS
 10
144.7275535176
 20
90.3529623359
  0
VERTEX
  8
0
 62
7
  6
CONTINUOUS
 10
144.7046030034
 20
90.3461923201
  0
VERTEX
  8
0
 62
7
  6
CONTINUOUS
 10
144.6914773216
 20
90.3379776463
  0
VERTEX
  8
0
 62
7
  6
CONTINUOUS
 10
144.688463711
 20
90.3319282332
  0
SEQEND
  0
POLYLINE
  8
0
 62
7
  6
CONTINUOUS
 66
1
 70
0
  0
VERTEX
  8
0
 62
7
  6
CONTINUOUS
 10
161.6884044028
 20
90.3615915112
  0
VERTEX
  8
0
 62
7
  6
CONTINUOUS
 10
161.6413757308
 20
90.3622034639
  0
VERTEX
  8
0
 62
7
  6
CONTINUOUS
 10
161.5978533898
 20
90.361064443
  0
VERTEX
  8
0
 62
7
  6
CONTINUOUS
 10
161.5592019412
 20
90.3579794703
  0
VERTEX
  8
0
 62
7
  6
CONTINUOUS
 10
161.5275535176
 20
90.3529623359
  0
VERTEX
  8
0
 62
7
  6
CONTINUOUS
 10
161.5046030034
 20
90.3461923201
  0
VERTEX
  8
0
 62
7
  6
CONTINUOUS
 10
161.4914773216
 20
90.3379776463
  0
VERTEX
  8
0
 62
7
  6
CONTINUOUS
 10
161.488463711
 20
90.3319282332
  0
SEQEND
  0
POLYLINE
  8
0
 62
7
  6
CONTINUOUS
 66
1
 70
0
  0
VERTEX
  8
0
 62
7
  6
CONTINUOUS
 10
178.4884044028
 20
90.3615915112
  0
VERTEX
  8
0
 62
7
  6
CONTINUOUS
 10
178.4413757308
 20
90.3622034639
  0
VERTEX
  8
0
 62
7
  6
CONTINUOUS
 10
178.3978533898
 20
90.361064443
  0
VERTEX
  8
0
 62
7
  6
CONTINUOUS
 10
178.3592019412
 20
90.3579794703
  0
VERTEX
  8
0
 62
7
  6
CONTINUOUS
 10
178.3275535176
 20
90.3529623359
  0
VERTEX
  8
0
 62
7
  6
CONTINUOUS
 10
178.3046030034
 20
90.3461923201
  0
VERTEX
  8
0
 62
7
  6
CONTINUOUS
 10
178.2914773216
 20
90.3379776463
  0
VERTEX
  8
0
 62
7
  6
CONTINUOUS
 10
178.288463711
 20
90.3319282332
  0
SEQEND
  0
POLYLINE
  8
0
 62
6
  6
CONTINUOUS
 66
1
 70
0
  0
VERTEX
  8
0
 62
6
  6
CONTINUOUS
 10
166.7799779633
 20
90.3615446444
  0
VERTEX
  8
0
 62
6
  6
CONTINUOUS
 10
166.9670448167
 20
90.3555517014
  0
VERTEX
  8
0
 62
6
  6
CONTINUOUS
 10
167.1469994693
 20
90.3441432747
  0
VERTEX
  8
0
 62
6
  6
CONTINUOUS
 10
167.3136199594
 20
90.3278604491
  0
VERTEX
  8
0
 62
6
  6
CONTINUOUS
 10
167.4612283678
 20
90.3073598668
  0
VERTEX
  8
0
 62
6
  6
CONTINUOUS
 10
167.5848876566
 20
90.2834074918
  0
VERTEX
  8
0
 62
6
  6
CONTINUOUS
 10
167.6805543938
 20
90.2568665058
  0
VERTEX
  8
0
 62
6
  6
CONTINUOUS
 10
167.7451858276
 20
90.2286809719
  0
VERTEX
  8
0
 62
6
  6
CONTINUOUS
 10
167.7767986972
 20
90.1998577866
  0
SEQEND
  0
LINE
  8
0
 62
7
  6
CONTINUOUS
 10
153.9680393457
 20
30.0537922148
 11
154.1487660289
 21
29.6505455822
  0
POLYLINE
  8
0
 62
7
  6
CONTINUOUS
 66
1
 70
0
  0
VERTEX
  8
0
 62
7
  6
CONTINUOUS
 10
135.0458650573
 20
94.6237355423
  0
VERTEX
  8
0
 62
7
  6
CONTINUOUS
 10
135.0198188227
 20
94.7819953145
  0
VERTEX
  8
0
 62
7
  6
CONTINUOUS
 10
134.9908701132
 20
94.9383318726
  0
VERTEX
  8
0
 62
7
  6
CONTINUOUS
 10
134.9619614546
 20
95.0755269575
  0
VERTEX
  8
0
 62
7
  6
CONTINUOUS
 10
134.932751028
 20
95.1965423861
  0
VERTEX
  8
0
 62
7
  6
CONTINUOUS
 10
134.902684934
 20
95.304293621
  0
VERTEX
  8
0
 62
7
  6
CONTINUOUS
 10
134.8708386916
 20
95.4018234113
  0
VERTEX
  8
0
 62
7
  6
CONTINUOUS
 10
134.8356302847
 20
95.4924621967
  0
VERTEX
  8
0
 62
7
  6
CONTINUOUS
 10
134.7945448382
 20
95.5794523341
  0
VERTEX
  8
0
 62
7
  6
CONTINUOUS
 10
134.743920177
 20
95.6652219504
  0
VERTEX
  8
0
 62
7
  6
CONTINUOUS
 10
134.6787214273
 20
95.7506967291
  0
VERTEX
  8
0
 62
7
  6
CONTINUOUS
 10
134.5940907534
 20
95.8330191735
  0
VERTEX
  8
0
 62
7
  6
CONTINUOUS
 10
134.4882697315
 20
95.905008239
  0
VERTEX
  8
0
 62
7
  6
CONTINUOUS
 10
134.3639312437
 20
95.9581721696
  0
VERTEX
  8
0
 62
7
  6
CONTINUOUS
 10
134.2278700927
 20
95.9859282459
  0
VERTEX
  8
0
 62
7
  6
CONTINUOUS
 10
134.1594235109
 20
95.9893100995
  0
SEQEND
  0
LINE
  8
0
 62
7
  6
CONTINUOUS
 10
135.0617688087
 20
94.5190148275
 11
135.0458640241
 21
94.6237421695
  0
POLYLINE
  8
0
 62
7
  6
CONTINUOUS
 66
1
 70
0
  0
VERTEX
  8
0
 62
7
  6
CONTINUOUS
 10
136.1180088105
 20
90.3319340989
  0
VERTEX
  8
0
 62
7
  6
CONTINUOUS
 10
136.0461309968
 20
90.8837272203
  0
VERTEX
  8
0
 62
7
  6
CONTINUOUS
 10
135.9514021454
 20
91.4835521472
  0
VERTEX
  8
0
 62
7
  6
CONTINUOUS
 10
135.8407146144
 20
92.0661629527
  0
VERTEX
  8
0
 62
7
  6
CONTINUOUS
 10
135.7140263809
 20
92.6265539745
  0
VERTEX
  8
0
 62
7
  6
CONTINUOUS
 10
135.5713216351
 20
93.1598901766
  0
VERTEX
  8
0
 62
7
  6
CONTINUOUS
 10
135.4125532332
 20
93.6615146571
  0
VERTEX
  8
0
 62
7
  6
CONTINUOUS
 10
135.237488695
 20
94.1271276979
  0
SEQEND
  0
POLYLINE
  8
0
 62
7
  6
CONTINUOUS
 66
1
 70
0
  0
VERTEX
  8
0
 62
7
  6
CONTINUOUS
 10
144.6913559696
 20
84.5037364195
  0
VERTEX
  8
0
 62
7
  6
CONTINUOUS
 10
144.6952993506
 20
84.2133949977
  0
VERTEX
  8
0
 62
7
  6
CONTINUOUS
 10
144.6954972263
 20
84.137699301
  0
VERTEX
  8
0
 62
7
  6
CONTINUOUS
 10
144.6944599278
 20
84.0633293578
  0
VERTEX
  8
0
 62
7
  6
CONTINUOUS
 10
144.6920657414
 20
83.9904386879
  0
VERTEX
  8
0
 62
7
  6
CONTINUOUS
 10
144.6881816187
 20
83.9191470358
  0
VERTEX
  8
0
 62
7
  6
CONTINUOUS
 10
144.6826914243
 20
83.8495323852
  0
VERTEX
  8
0
 62
7
  6
CONTINUOUS
 10
144.6755061762
 20
83.7817864148
  0
VERTEX
  8
0
 62
7
  6
CONTINUOUS
 10
144.6665434459
 20
83.7162230417
  0
VERTEX
  8
0
 62
7
  6
CONTINUOUS
 10
144.6557010999
 20
83.6528532527
  0
VERTEX
  8
0
 62
7
  6
CONTINUOUS
 10
144.6429652218
 20
83.591832421
  0
VERTEX
  8
0
 62
7
  6
CONTINUOUS
 10
144.6282609724
 20
83.5336166357
  0
VERTEX
  8
0
 62
7
  6
CONTINUOUS
 10
144.6113855446
 20
83.4783508406
  0
VERTEX
  8
0
 62
7
  6
CONTINUOUS
 10
144.5918526398
 20
83.4264639687
  0
VERTEX
  8
0
 62
7
  6
CONTINUOUS
 10
144.5691508667
 20
83.3774057743
  0
VERTEX
  8
0
 62
7
  6
CONTINUOUS
 10
144.5434631829
 20
83.3320530558
  0
VERTEX
  8
0
 62
7
  6
CONTINUOUS
 10
144.5148356539
 20
83.2908567247
  0
VERTEX
  8
0
 62
7
  6
CONTINUOUS
 10
144.4832150802
 20
83.2541744713
  0
VERTEX
  8
0
 62
7
  6
CONTINUOUS
 10
144.4485629689
 20
83.222575169
  0
VERTEX
  8
0
 62
7
  6
CONTINUOUS
 10
144.411267421
 20
83.1970756425
  0
VERTEX
  8
0
 62
7
  6
CONTINUOUS
 10
144.3717355585
 20
83.1787834235
  0
VERTEX
  8
0
 62
7
  6
CONTINUOUS
 10
144.331605932
 20
83.1692779467
  0
VERTEX
  8
0
 62
7
  6
CONTINUOUS
 10
144.3127996247
 20
83.1681187244
  0
SEQEND
  0
POLYLINE
  8
0
 62
7
  6
CONTINUOUS
 66
1
 70
0
  0
VERTEX
  8
0
 62
7
  6
CONTINUOUS
 10
144.5150696576
 20
39.6788516862
  0
VERTEX
  8
0
 62
7
  6
CONTINUOUS
 10
144.5111327669
 20
39.9692704341
  0
VERTEX
  8
0
 62
7
  6
CONTINUOUS
 10
144.5109969116
 20
40.0447926713
  0
VERTEX
  8
0
 62
7
  6
CONTINUOUS
 10
144.512098562
 20
40.1189932503
  0
VERTEX
  8
0
 62
7
  6
CONTINUOUS
 10
144.5145605877
 20
40.1917199793
  0
VERTEX
  8
0
 62
7
  6
CONTINUOUS
 10
144.5185162601
 20
40.262858668
  0
VERTEX
  8
0
 62
7
  6
CONTINUOUS
 10
144.5240806466
 20
40.3323309561
  0
VERTEX
  8
0
 62
7
  6
CONTINUOUS
 10
144.5313417143
 20
40.3999354466
  0
VERTEX
  8
0
 62
7
  6
CONTINUOUS
 10
144.540384385
 20
40.4653471826
  0
VERTEX
  8
0
 62
7
  6
CONTINUOUS
 10
144.5512972363
 20
40.528549379
  0
VERTEX
  8
0
 62
7
  6
CONTINUOUS
 10
144.5640999522
 20
40.5893568033
  0
VERTEX
  8
0
 62
7
  6
CONTINUOUS
 10
144.5789247337
 20
40.6475590488
  0
VERTEX
  8
0
 62
7
  6
CONTINUOUS
 10
144.5958852923
 20
40.7026334909
  0
VERTEX
  8
0
 62
7
  6
CONTINUOUS
 10
144.6155586774
 20
40.7543958865
  0
VERTEX
  8
0
 62
7
  6
CONTINUOUS
 10
144.6384015338
 20
40.803316881
  0
VERTEX
  8
0
 62
7
  6
CONTINUOUS
 10
144.6642228175
 20
40.8484966302
  0
VERTEX
  8
0
 62
7
  6
CONTINUOUS
 10
144.6929731897
 20
40.8894886059
  0
VERTEX
  8
0
 62
7
  6
CONTINUOUS
 10
144.7247094219
 20
40.9259398927
  0
VERTEX
  8
0
 62
7
  6
CONTINUOUS
 10
144.7594807408
 20
40.9572899188
  0
VERTEX
  8
0
 62
7
  6
CONTINUOUS
 10
144.796877827
 20
40.982498222
  0
VERTEX
  8
0
 62
7
  6
CONTINUOUS
 10
144.8364723404
 20
41.0004393883
  0
VERTEX
  8
0
 62
7
  6
CONTINUOUS
 10
144.8765983901
 20
41.009540243
  0
VERTEX
  8
0
 62
7
  6
CONTINUOUS
 10
144.8934990942
 20
41.0105010935
  0
SEQEND
  0
LINE
  8
0
 62
7
  6
CONTINUOUS
 10
144.5175117122
 20
39.3958375172
 11
144.5150696576
 21
39.6788516862
  0
LINE
  8
0
 62
7
  6
CONTINUOUS
 10
144.6889399951
 20
84.7867581563
 11
144.6913559696
 21
84.5037364195
  0
LINE
  8
0
 62
7
  6
CONTINUOUS
 10
144.5175117122
 20
39.3958375172
 11
144.5180680891
 21
33.8477365766
  0
LINE
  8
0
 62
7
  6
CONTINUOUS
 10
144.6884044028
 20
90.3308462819
 11
144.6889399951
 21
84.7867581563
  0
LINE
  8
0
 62
7
  6
CONTINUOUS
 10
144.688463711
 20
90.3319282332
 11
144.6884044058
 21
90.3309082934
  0
LINE
  8
0
 62
7
  6
CONTINUOUS
 10
144.518068089
 20
33.8477044636
 11
144.518008763
 21
33.8466964265
  0
LINE
  8
0
 62
7
  6
CONTINUOUS
 10
143.4458641598
 20
29.5548790762
 11
143.4617665341
 21
29.6596046212
  0
POLYLINE
  8
0
 62
7
  6
CONTINUOUS
 66
1
 70
0
  0
VERTEX
  8
0
 62
7
  6
CONTINUOUS
 10
162.5487670721
 20
94.5280769197
  0
VERTEX
  8
0
 62
7
  6
CONTINUOUS
 10
162.3689837969
 20
94.1271276979
  0
VERTEX
  8
0
 62
7
  6
CONTINUOUS
 10
162.1939192588
 20
93.6615146571
  0
VERTEX
  8
0
 62
7
  6
CONTINUOUS
 10
162.0351508568
 20
93.1598901766
  0
VERTEX
  8
0
 62
7
  6
CONTINUOUS
 10
161.8924461111
 20
92.6265539745
  0
VERTEX
  8
0
 62
7
  6
CONTINUOUS
 10
161.7657578775
 20
92.0661629527
  0
VERTEX
  8
0
 62
7
  6
CONTINUOUS
 10
161.6550703465
 20
91.4835521472
  0
VERTEX
  8
0
 62
7
  6
CONTINUOUS
 10
161.5603414951
 20
90.8837272203
  0
VERTEX
  8
0
 62
7
  6
CONTINUOUS
 10
161.4884636814
 20
90.3319340989
  0
SEQEND
  0
POLYLINE
  8
0
 62
7
  6
CONTINUOUS
 66
1
 70
0
  0
VERTEX
  8
0
 62
7
  6
CONTINUOUS
 10
146.6470475415
 20
95.989310101
  0
VERTEX
  8
0
 62
7
  6
CONTINUOUS
 10
146.5820926721
 20
95.9862663931
  0
VERTEX
  8
0
 62
7
  6
CONTINUOUS
 10
146.4454538348
 20
95.9590781919
  0
VERTEX
  8
0
 62
7
  6
CONTINUOUS
 10
146.3205120029
 20
95.9062760754
  0
VERTEX
  8
0
 62
7
  6
CONTINUOUS
 10
146.214082273
 20
95.8344171063
  0
VERTEX
  8
0
 62
7
  6
CONTINUOUS
 10
146.1289055026
 20
95.7520115899
  0
VERTEX
  8
0
 62
7
  6
CONTINUOUS
 10
146.0633069174
 20
95.6663547034
  0
VERTEX
  8
0
 62
7
  6
CONTINUOUS
 10
146.0124265665
 20
95.580402591
  0
VERTEX
  8
0
 62
7
  6
CONTINUOUS
 10
145.9711865685
 20
95.4932694981
  0
VERTEX
  8
0
 62
7
  6
CONTINUOUS
 10
145.9358835295
 20
95.4025264983
  0
VERTEX
  8
0
 62
7
  6
CONTINUOUS
 10
145.9039722066
 20
95.304906317
  0
VERTEX
  8
0
 62
7
  6
CONTINUOUS
 10
145.8738568171
 20
95.1970643913
  0
VERTEX
  8
0
 62
7
  6
CONTINUOUS
 10
145.8446061095
 20
95.0759486943
  0
VERTEX
  8
0
 62
7
  6
CONTINUOUS
 10
145.8156625892
 20
94.9386367169
  0
VERTEX
  8
0
 62
7
  6
CONTINUOUS
 10
145.7866825006
 20
94.7821609962
  0
VERTEX
  8
0
 62
7
  6
CONTINUOUS
 10
145.7606074296
 20
94.6237355102
  0
SEQEND
  0
POLYLINE
  8
0
 62
7
  6
CONTINUOUS
 66
1
 70
0
  0
VERTEX
  8
0
 62
7
  6
CONTINUOUS
 10
129.8470475415
 20
95.989310101
  0
VERTEX
  8
0
 62
7
  6
CONTINUOUS
 10
129.7820926721
 20
95.9862663931
  0
VERTEX
  8
0
 62
7
  6
CONTINUOUS
 10
129.6454538348
 20
95.9590781919
  0
VERTEX
  8
0
 62
7
  6
CONTINUOUS
 10
129.5205120029
 20
95.9062760754
  0
VERTEX
  8
0
 62
7
  6
CONTINUOUS
 10
129.414082273
 20
95.8344171063
  0
VERTEX
  8
0
 62
7
  6
CONTINUOUS
 10
129.3289055026
 20
95.7520115899
  0
VERTEX
  8
0
 62
7
  6
CONTINUOUS
 10
129.2633069174
 20
95.6663547034
  0
VERTEX
  8
0
 62
7
  6
CONTINUOUS
 10
129.2124265665
 20
95.580402591
  0
VERTEX
  8
0
 62
7
  6
CONTINUOUS
 10
129.1711865685
 20
95.4932694981
  0
VERTEX
  8
0
 62
7
  6
CONTINUOUS
 10
129.1358835295
 20
95.4025264983
  0
VERTEX
  8
0
 62
7
  6
CONTINUOUS
 10
129.1039722066
 20
95.304906317
  0
VERTEX
  8
0
 62
7
  6
CONTINUOUS
 10
129.0738568171
 20
95.1970643913
  0
VERTEX
  8
0
 62
7
  6
CONTINUOUS
 10
129.0446061095
 20
95.0759486943
  0
VERTEX
  8
0
 62
7
  6
CONTINUOUS
 10
129.0156625892
 20
94.9386367169
  0
VERTEX
  8
0
 62
7
  6
CONTINUOUS
 10
128.9866825006
 20
94.7821609962
  0
VERTEX
  8
0
 62
7
  6
CONTINUOUS
 10
128.9606074296
 20
94.6237355102
  0
SEQEND
  0
POLYLINE
  8
0
 62
7
  6
CONTINUOUS
 66
1
 70
0
  0
VERTEX
  8
0
 62
7
  6
CONTINUOUS
 10
113.0470475415
 20
95.989310101
  0
VERTEX
  8
0
 62
7
  6
CONTINUOUS
 10
112.9820926721
 20
95.9862663931
  0
VERTEX
  8
0
 62
7
  6
CONTINUOUS
 10
112.8454538348
 20
95.9590781919
  0
VERTEX
  8
0
 62
7
  6
CONTINUOUS
 10
112.7205120029
 20
95.9062760754
  0
VERTEX
  8
0
 62
7
  6
CONTINUOUS
 10
112.614082273
 20
95.8344171063
  0
VERTEX
  8
0
 62
7
  6
CONTINUOUS
 10
112.5289055026
 20
95.7520115899
  0
VERTEX
  8
0
 62
7
  6
CONTINUOUS
 10
112.4633069174
 20
95.6663547034
  0
VERTEX
  8
0
 62
7
  6
CONTINUOUS
 10
112.4124265665
 20
95.580402591
  0
VERTEX
  8
0
 62
7
  6
CONTINUOUS
 10
112.3711865685
 20
95.4932694981
  0
VERTEX
  8
0
 62
7
  6
CONTINUOUS
 10
112.3358835295
 20
95.4025264983
  0
VERTEX
  8
0
 62
7
  6
CONTINUOUS
 10
112.3039722066
 20
95.304906317
  0
VERTEX
  8
0
 62
7
  6
CONTINUOUS
 10
112.2738568171
 20
95.1970643913
  0
VERTEX
  8
0
 62
7
  6
CONTINUOUS
 10
112.2446061095
 20
95.0759486943
  0
VERTEX
  8
0
 62
7
  6
CONTINUOUS
 10
112.2156625892
 20
94.9386367169
  0
VERTEX
  8
0
 62
7
  6
CONTINUOUS
 10
112.1866825006
 20
94.7821609962
  0
VERTEX
  8
0
 62
7
  6
CONTINUOUS
 10
112.1606074296
 20
94.6237355102
  0
SEQEND
  0
POLYLINE
  8
0
 62
7
  6
CONTINUOUS
 66
1
 70
0
  0
VERTEX
  8
0
 62
7
  6
CONTINUOUS
 10
96.2470475415
 20
95.989310101
  0
VERTEX
  8
0
 62
7
  6
CONTINUOUS
 10
96.182092672
 20
95.9862663931
  0
VERTEX
  8
0
 62
7
  6
CONTINUOUS
 10
96.0454538348
 20
95.9590781919
  0
VERTEX
  8
0
 62
7
  6
CONTINUOUS
 10
95.9205120029
 20
95.9062760754
  0
VERTEX
  8
0
 62
7
  6
CONTINUOUS
 10
95.814082273
 20
95.8344171063
  0
VERTEX
  8
0
 62
7
  6
CONTINUOUS
 10
95.7289055026
 20
95.7520115899
  0
VERTEX
  8
0
 62
7
  6
CONTINUOUS
 10
95.6633069174
 20
95.6663547034
  0
VERTEX
  8
0
 62
7
  6
CONTINUOUS
 10
95.6124265665
 20
95.580402591
  0
VERTEX
  8
0
 62
7
  6
CONTINUOUS
 10
95.5711865685
 20
95.4932694981
  0
VERTEX
  8
0
 62
7
  6
CONTINUOUS
 10
95.5358835295
 20
95.4025264983
  0
VERTEX
  8
0
 62
7
  6
CONTINUOUS
 10
95.5039722066
 20
95.304906317
  0
VERTEX
  8
0
 62
7
  6
CONTINUOUS
 10
95.4738568171
 20
95.1970643913
  0
VERTEX
  8
0
 62
7
  6
CONTINUOUS
 10
95.4446061095
 20
95.0759486943
  0
VERTEX
  8
0
 62
7
  6
CONTINUOUS
 10
95.4156625892
 20
94.9386367169
  0
VERTEX
  8
0
 62
7
  6
CONTINUOUS
 10
95.3866825006
 20
94.7821609962
  0
VERTEX
  8
0
 62
7
  6
CONTINUOUS
 10
95.3606074296
 20
94.6237355102
  0
SEQEND
  0
POLYLINE
  8
0
 62
7
  6
CONTINUOUS
 66
1
 70
0
  0
VERTEX
  8
0
 62
7
  6
CONTINUOUS
 10
79.4470475415
 20
95.989310101
  0
VERTEX
  8
0
 62
7
  6
CONTINUOUS
 10
79.382092672
 20
95.9862663931
  0
VERTEX
  8
0
 62
7
  6
CONTINUOUS
 10
79.2454538348
 20
95.9590781919
  0
VERTEX
  8
0
 62
7
  6
CONTINUOUS
 10
79.1205120029
 20
95.9062760754
  0
VERTEX
  8
0
 62
7
  6
CONTINUOUS
 10
79.014082273
 20
95.8344171063
  0
VERTEX
  8
0
 62
7
  6
CONTINUOUS
 10
78.9289055026
 20
95.7520115899
  0
VERTEX
  8
0
 62
7
  6
CONTINUOUS
 10
78.8633069174
 20
95.6663547034
  0
VERTEX
  8
0
 62
7
  6
CONTINUOUS
 10
78.8124265665
 20
95.580402591
  0
VERTEX
  8
0
 62
7
  6
CONTINUOUS
 10
78.7711865685
 20
95.4932694981
  0
VERTEX
  8
0
 62
7
  6
CONTINUOUS
 10
78.7358835295
 20
95.4025264983
  0
VERTEX
  8
0
 62
7
  6
CONTINUOUS
 10
78.7039722066
 20
95.304906317
  0
VERTEX
  8
0
 62
7
  6
CONTINUOUS
 10
78.6738568171
 20
95.1970643913
  0
VERTEX
  8
0
 62
7
  6
CONTINUOUS
 10
78.6446061095
 20
95.0759486943
  0
VERTEX
  8
0
 62
7
  6
CONTINUOUS
 10
78.6156625892
 20
94.9386367169
  0
VERTEX
  8
0
 62
7
  6
CONTINUOUS
 10
78.5866825006
 20
94.7821609962
  0
VERTEX
  8
0
 62
7
  6
CONTINUOUS
 10
78.5606074296
 20
94.6237355102
  0
SEQEND
  0
POLYLINE
  8
0
 62
7
  6
CONTINUOUS
 66
1
 70
0
  0
VERTEX
  8
0
 62
7
  6
CONTINUOUS
 10
62.6470475415
 20
95.989310101
  0
VERTEX
  8
0
 62
7
  6
CONTINUOUS
 10
62.5820926721
 20
95.9862663931
  0
VERTEX
  8
0
 62
7
  6
CONTINUOUS
 10
62.4454538348
 20
95.9590781919
  0
VERTEX
  8
0
 62
7
  6
CONTINUOUS
 10
62.3205120029
 20
95.9062760754
  0
VERTEX
  8
0
 62
7
  6
CONTINUOUS
 10
62.214082273
 20
95.8344171063
  0
VERTEX
  8
0
 62
7
  6
CONTINUOUS
 10
62.1289055026
 20
95.7520115899
  0
VERTEX
  8
0
 62
7
  6
CONTINUOUS
 10
62.0633069174
 20
95.6663547034
  0
VERTEX
  8
0
 62
7
  6
CONTINUOUS
 10
62.0124265665
 20
95.580402591
  0
VERTEX
  8
0
 62
7
  6
CONTINUOUS
 10
61.9711865685
 20
95.4932694981
  0
VERTEX
  8
0
 62
7
  6
CONTINUOUS
 10
61.9358835295
 20
95.4025264983
  0
VERTEX
  8
0
 62
7
  6
CONTINUOUS
 10
61.9039722066
 20
95.304906317
  0
VERTEX
  8
0
 62
7
  6
CONTINUOUS
 10
61.8738568171
 20
95.1970643913
  0
VERTEX
  8
0
 62
7
  6
CONTINUOUS
 10
61.8446061095
 20
95.0759486943
  0
VERTEX
  8
0
 62
7
  6
CONTINUOUS
 10
61.8156625892
 20
94.9386367169
  0
VERTEX
  8
0
 62
7
  6
CONTINUOUS
 10
61.7866825006
 20
94.7821609962
  0
VERTEX
  8
0
 62
7
  6
CONTINUOUS
 10
61.7606074296
 20
94.6237355102
  0
SEQEND
  0
POLYLINE
  8
0
 62
7
  6
CONTINUOUS
 66
1
 70
0
  0
VERTEX
  8
0
 62
7
  6
CONTINUOUS
 10
45.8470475429
 20
95.989310101
  0
VERTEX
  8
0
 62
7
  6
CONTINUOUS
 10
45.7820922295
 20
95.9862663514
  0
VERTEX
  8
0
 62
7
  6
CONTINUOUS
 10
45.6454532762
 20
95.9590780195
  0
VERTEX
  8
0
 62
7
  6
CONTINUOUS
 10
45.5205115026
 20
95.906275802
  0
VERTEX
  8
0
 62
7
  6
CONTINUOUS
 10
45.414081847
 20
95.8344167572
  0
VERTEX
  8
0
 62
7
  6
CONTINUOUS
 10
45.3289051009
 20
95.7520111335
  0
VERTEX
  8
0
 62
7
  6
CONTINUOUS
 10
45.2633065513
 20
95.6663541547
  0
VERTEX
  8
0
 62
7
  6
CONTINUOUS
 10
45.2124262404
 20
95.5804019705
  0
VERTEX
  8
0
 62
7
  6
CONTINUOUS
 10
45.1711862867
 20
95.4932688381
  0
VERTEX
  8
0
 62
7
  6
CONTINUOUS
 10
45.1358832941
 20
95.4025258361
  0
VERTEX
  8
0
 62
7
  6
CONTINUOUS
 10
45.1039720074
 20
95.3049056564
  0
VERTEX
  8
0
 62
7
  6
CONTINUOUS
 10
45.073856651
 20
95.1970637511
  0
VERTEX
  8
0
 62
7
  6
CONTINUOUS
 10
45.0446059783
 20
95.0759481122
  0
VERTEX
  8
0
 62
7
  6
CONTINUOUS
 10
45.0156624967
 20
94.938636249
  0
VERTEX
  8
0
 62
7
  6
CONTINUOUS
 10
44.9866824524
 20
94.7821607192
  0
VERTEX
  8
0
 62
7
  6
CONTINUOUS
 10
44.9606074296
 20
94.6237355102
  0
SEQEND
  0
LINE
  8
0
 62
7
  6
CONTINUOUS
 10
45.8469432504
 20
95.9893101879
 11
50.1595253006
 21
95.9893101879
  0
LINE
  8
0
 62
7
  6
CONTINUOUS
 10
62.6469471913
 20
95.9893101879
 11
66.9595253006
 21
95.9893101879
  0
LINE
  8
0
 62
7
  6
CONTINUOUS
 10
79.4469471913
 20
95.9893101879
 11
83.7595253006
 21
95.9893101879
  0
LINE
  8
0
 62
7
  6
CONTINUOUS
 10
96.2469471913
 20
95.9893101879
 11
100.5595253006
 21
95.9893101879
  0
LINE
  8
0
 62
7
  6
CONTINUOUS
 10
113.0469471913
 20
95.9893101879
 11
117.3595253006
 21
95.9893101879
  0
LINE
  8
0
 62
7
  6
CONTINUOUS
 10
129.8469471913
 20
95.9893101879
 11
134.1595253006
 21
95.9893101879
  0
LINE
  8
0
 62
7
  6
CONTINUOUS
 10
146.6469471913
 20
95.9893101879
 11
150.9595253006
 21
95.9893101879
  0
LINE
  8
0
 62
7
  6
CONTINUOUS
 10
163.4469471913
 20
95.9893101879
 11
167.7595253006
 21
95.9893101879
  0
LINE
  8
0
 62
7
  6
CONTINUOUS
 10
180.2469401546
 20
95.9893101879
 11
186.3032173339
 21
95.9893101879
  0
LINE
  8
0
 62
7
  6
CONTINUOUS
 10
135.237488695
 20
94.1271276979
 11
135.0577054198
 21
94.5280769197
  0
POLYLINE
  8
0
 62
7
  6
CONTINUOUS
 66
1
 70
0
  0
VERTEX
  8
0
 62
7
  6
CONTINUOUS
 10
154.1606073398
 20
29.5548854414
  0
VERTEX
  8
0
 62
7
  6
CONTINUOUS
 10
154.1864132751
 20
29.398007303
  0
VERTEX
  8
0
 62
7
  6
CONTINUOUS
 10
154.2154061926
 20
29.2412823579
  0
VERTEX
  8
0
 62
7
  6
CONTINUOUS
 10
154.2443617231
 20
29.1037561486
  0
VERTEX
  8
0
 62
7
  6
CONTINUOUS
 10
154.2736226735
 20
28.9824592051
  0
VERTEX
  8
0
 62
7
  6
CONTINUOUS
 10
154.3037452636
 20
28.8744671755
  0
VERTEX
  8
0
 62
7
  6
CONTINUOUS
 10
154.3356588948
 20
28.7767262723
  0
VERTEX
  8
0
 62
7
  6
CONTINUOUS
 10
154.3709567869
 20
28.6858894057
  0
VERTEX
  8
0
 62
7
  6
CONTINUOUS
 10
154.4121822579
 20
28.5986828179
  0
VERTEX
  8
0
 62
7
  6
CONTINUOUS
 10
154.4630382805
 20
28.5126684921
  0
VERTEX
  8
0
 62
7
  6
CONTINUOUS
 10
154.5286097385
 20
28.4269450709
  0
VERTEX
  8
0
 62
7
  6
CONTINUOUS
 10
154.6137764297
 20
28.344454034
  0
VERTEX
  8
0
 62
7
  6
CONTINUOUS
 10
154.7202326818
 20
28.2724970369
  0
VERTEX
  8
0
 62
7
  6
CONTINUOUS
 10
154.8452441158
 20
28.21960694
  0
VERTEX
  8
0
 62
7
  6
CONTINUOUS
 10
154.9819833719
 20
28.1923642989
  0
VERTEX
  8
0
 62
7
  6
CONTINUOUS
 10
155.0470478539
 20
28.1893102751
  0
SEQEND
  0
LINE
  8
0
 62
7
  6
CONTINUOUS
 10
154.1447059578
 20
29.6596046209
 11
154.1606083321
 21
29.5548790762
  0
LINE
  8
0
 62
7
  6
CONTINUOUS
 10
153.0884637077
 20
33.8466921708
 11
153.0884044058
 21
33.8477120824
  0
LINE
  8
0
 62
7
  6
CONTINUOUS
 10
152.9180087809
 20
90.3319282332
 11
152.9180680861
 21
90.3309082934
  0
POLYLINE
  8
0
 62
7
  6
CONTINUOUS
 66
1
 70
0
  0
VERTEX
  8
0
 62
7
  6
CONTINUOUS
 10
152.9111335159
 20
84.2093635026
  0
VERTEX
  8
0
 62
7
  6
CONTINUOUS
 10
152.9150700606
 20
84.4997725331
  0
VERTEX
  8
0
 62
7
  6
CONTINUOUS
 10
152.9175118044
 20
84.7827847345
  0
VERTEX
  8
0
 62
7
  6
CONTINUOUS
 10
152.9180680891
 20
90.3308462819
  0
SEQEND
  0
POLYLINE
  8
0
 62
7
  6
CONTINUOUS
 66
1
 70
0
  0
VERTEX
  8
0
 62
7
  6
CONTINUOUS
 10
153.0952984563
 20
39.9651373139
  0
VERTEX
  8
0
 62
7
  6
CONTINUOUS
 10
153.0913559698
 20
39.6748839056
  0
VERTEX
  8
0
 62
7
  6
CONTINUOUS
 10
153.0889399953
 20
39.3918622451
  0
VERTEX
  8
0
 62
7
  6
CONTINUOUS
 10
153.0884044028
 20
33.8477740939
  0
SEQEND
  0
POLYLINE
  8
0
 62
7
  6
CONTINUOUS
 66
1
 70
0
  0
VERTEX
  8
0
 62
7
  6
CONTINUOUS
 10
143.457706463
 20
29.6505455822
  0
VERTEX
  8
0
 62
7
  6
CONTINUOUS
 10
143.6384331901
 20
30.0537923217
  0
VERTEX
  8
0
 62
7
  6
CONTINUOUS
 10
143.8134270079
 20
30.5196430529
  0
VERTEX
  8
0
 62
7
  6
CONTINUOUS
 10
143.9721249609
 20
31.021493573
  0
VERTEX
  8
0
 62
7
  6
CONTINUOUS
 10
144.1147577366
 20
31.5550414064
  0
VERTEX
  8
0
 62
7
  6
CONTINUOUS
 10
144.2413716365
 20
32.1156272372
  0
VERTEX
  8
0
 62
7
  6
CONTINUOUS
 10
144.3519822473
 20
32.6984143722
  0
VERTEX
  8
0
 62
7
  6
CONTINUOUS
 10
144.4466317071
 20
33.2983959606
  0
VERTEX
  8
0
 62
7
  6
CONTINUOUS
 10
144.5180088138
 20
33.8466863051
  0
SEQEND
  0
POLYLINE
  8
0
 62
7
  6
CONTINUOUS
 66
1
 70
0
  0
VERTEX
  8
0
 62
7
  6
CONTINUOUS
 10
144.518008763
 20
33.8466964265
  0
VERTEX
  8
0
 62
7
  6
CONTINUOUS
 10
144.5121970626
 20
33.8380995285
  0
VERTEX
  8
0
 62
7
  6
CONTINUOUS
 10
144.4931103097
 20
33.82930621
  0
VERTEX
  8
0
 62
7
  6
CONTINUOUS
 10
144.4619090626
 20
33.8225777673
  0
VERTEX
  8
0
 62
7
  6
CONTINUOUS
 10
144.4205905167
 20
33.8182580639
  0
VERTEX
  8
0
 62
7
  6
CONTINUOUS
 10
144.3718941705
 20
33.8164691773
  0
VERTEX
  8
0
 62
7
  6
CONTINUOUS
 10
144.3180680891
 20
33.8170288646
  0
SEQEND
  0
POLYLINE
  8
0
 62
6
  6
CONTINUOUS
 66
1
 70
0
  0
VERTEX
  8
0
 62
6
  6
CONTINUOUS
 10
178.1103687755
 20
33.8597621525
  0
VERTEX
  8
0
 62
6
  6
CONTINUOUS
 10
178.1180353858
 20
33.8484540745
  0
VERTEX
  8
0
 62
6
  6
CONTINUOUS
 10
178.1121970626
 20
33.8380995285
  0
SEQEND
  0
LINE
  8
0
 62
7
  6
CONTINUOUS
 10
170.7680393457
 20
30.0537922148
 11
170.9487660289
 21
29.6505455822
  0
POLYLINE
  8
0
 62
7
  6
CONTINUOUS
 66
1
 70
0
  0
VERTEX
  8
0
 62
7
  6
CONTINUOUS
 10
153.0884636781
 20
33.8466863051
  0
VERTEX
  8
0
 62
7
  6
CONTINUOUS
 10
153.1598409331
 20
33.2983949227
  0
VERTEX
  8
0
 62
7
  6
CONTINUOUS
 10
153.2544903945
 20
32.6984135073
  0
VERTEX
  8
0
 62
7
  6
CONTINUOUS
 10
153.3651009993
 20
32.1156265428
  0
VERTEX
  8
0
 62
7
  6
CONTINUOUS
 10
153.4917148855
 20
31.5550408765
  0
VERTEX
  8
0
 62
7
  6
CONTINUOUS
 10
153.6343476399
 20
31.0214931982
  0
VERTEX
  8
0
 62
7
  6
CONTINUOUS
 10
153.7930455641
 20
30.5196428201
  0
VERTEX
  8
0
 62
7
  6
CONTINUOUS
 10
153.9680393457
 20
30.0537922148
  0
SEQEND
  0
POLYLINE
  8
0
 62
7
  6
CONTINUOUS
 66
1
 70
0
  0
VERTEX
  8
0
 62
7
  6
CONTINUOUS
 10
161.3150696576
 20
39.6788516862
  0
VERTEX
  8
0
 62
7
  6
CONTINUOUS
 10
161.3111327669
 20
39.9692704341
  0
VERTEX
  8
0
 62
7
  6
CONTINUOUS
 10
161.3109969116
 20
40.0447926713
  0
VERTEX
  8
0
 62
7
  6
CONTINUOUS
 10
161.312098562
 20
40.1189932503
  0
VERTEX
  8
0
 62
7
  6
CONTINUOUS
 10
161.3145605877
 20
40.1917199793
  0
VERTEX
  8
0
 62
7
  6
CONTINUOUS
 10
161.3185162601
 20
40.262858668
  0
VERTEX
  8
0
 62
7
  6
CONTINUOUS
 10
161.3240806466
 20
40.3323309561
  0
VERTEX
  8
0
 62
7
  6
CONTINUOUS
 10
161.3313417143
 20
40.3999354466
  0
VERTEX
  8
0
 62
7
  6
CONTINUOUS
 10
161.340384385
 20
40.4653471826
  0
VERTEX
  8
0
 62
7
  6
CONTINUOUS
 10
161.3512972363
 20
40.528549379
  0
VERTEX
  8
0
 62
7
  6
CONTINUOUS
 10
161.3640999522
 20
40.5893568033
  0
VERTEX
  8
0
 62
7
  6
CONTINUOUS
 10
161.3789247337
 20
40.6475590488
  0
VERTEX
  8
0
 62
7
  6
CONTINUOUS
 10
161.3958852923
 20
40.7026334909
  0
VERTEX
  8
0
 62
7
  6
CONTINUOUS
 10
161.4155586774
 20
40.7543958865
  0
VERTEX
  8
0
 62
7
  6
CONTINUOUS
 10
161.4384015338
 20
40.803316881
  0
VERTEX
  8
0
 62
7
  6
CONTINUOUS
 10
161.4642228175
 20
40.8484966302
  0
VERTEX
  8
0
 62
7
  6
CONTINUOUS
 10
161.4929731897
 20
40.8894886059
  0
VERTEX
  8
0
 62
7
  6
CONTINUOUS
 10
161.5247094219
 20
40.9259398927
  0
VERTEX
  8
0
 62
7
  6
CONTINUOUS
 10
161.5594807408
 20
40.9572899188
  0
VERTEX
  8
0
 62
7
  6
CONTINUOUS
 10
161.596877827
 20
40.982498222
  0
VERTEX
  8
0
 62
7
  6
CONTINUOUS
 10
161.6364723404
 20
41.0004393883
  0
VERTEX
  8
0
 62
7
  6
CONTINUOUS
 10
161.6765983901
 20
41.009540243
  0
VERTEX
  8
0
 62
7
  6
CONTINUOUS
 10
161.6934990942
 20
41.0105010935
  0
SEQEND
  0
LINE
  8
0
 62
7
  6
CONTINUOUS
 10
161.3175117122
 20
39.3958375172
 11
161.3150696576
 21
39.6788516862
  0
LINE
  8
0
 62
7
  6
CONTINUOUS
 10
161.3175117122
 20
39.3958375172
 11
161.3180680891
 21
33.8477365766
  0
LINE
  8
0
 62
7
  6
CONTINUOUS
 10
161.488463711
 20
90.3319282332
 11
161.4884044058
 21
90.3309082934
  0
LINE
  8
0
 62
7
  6
CONTINUOUS
 10
162.5606084678
 20
94.6237421695
 11
162.5447036832
 21
94.5190148275
  0
POLYLINE
  8
0
 62
7
  6
CONTINUOUS
 66
1
 70
0
  0
VERTEX
  8
0
 62
7
  6
CONTINUOUS
 10
179.3487670721
 20
94.5280769197
  0
VERTEX
  8
0
 62
7
  6
CONTINUOUS
 10
179.1689837969
 20
94.1271276979
  0
VERTEX
  8
0
 62
7
  6
CONTINUOUS
 10
178.9939192588
 20
93.6615146571
  0
VERTEX
  8
0
 62
7
  6
CONTINUOUS
 10
178.8351508568
 20
93.1598901766
  0
VERTEX
  8
0
 62
7
  6
CONTINUOUS
 10
178.6924461111
 20
92.6265539745
  0
VERTEX
  8
0
 62
7
  6
CONTINUOUS
 10
178.5657578775
 20
92.0661629527
  0
VERTEX
  8
0
 62
7
  6
CONTINUOUS
 10
178.4550703465
 20
91.4835521472
  0
VERTEX
  8
0
 62
7
  6
CONTINUOUS
 10
178.3603414951
 20
90.8837272203
  0
VERTEX
  8
0
 62
7
  6
CONTINUOUS
 10
178.2884636814
 20
90.3319340989
  0
SEQEND
  0
POLYLINE
  8
0
 62
6
  6
CONTINUOUS
 66
1
 70
0
  0
VERTEX
  8
0
 62
6
  6
CONTINUOUS
 10
169.8914773212
 20
33.8406427298
  0
VERTEX
  8
0
 62
6
  6
CONTINUOUS
 10
169.8886791949
 20
33.8499041515
  0
VERTEX
  8
0
 62
6
  6
CONTINUOUS
 10
169.896104029
 20
33.8597624128
  0
SEQEND
  0
POLYLINE
  8
0
 62
7
  6
CONTINUOUS
 66
1
 70
0
  0
VERTEX
  8
0
 62
7
  6
CONTINUOUS
 10
151.8458650573
 20
94.6237355423
  0
VERTEX
  8
0
 62
7
  6
CONTINUOUS
 10
151.8198188227
 20
94.7819953145
  0
VERTEX
  8
0
 62
7
  6
CONTINUOUS
 10
151.7908701132
 20
94.9383318726
  0
VERTEX
  8
0
 62
7
  6
CONTINUOUS
 10
151.7619614546
 20
95.0755269575
  0
VERTEX
  8
0
 62
7
  6
CONTINUOUS
 10
151.732751028
 20
95.1965423861
  0
VERTEX
  8
0
 62
7
  6
CONTINUOUS
 10
151.702684934
 20
95.304293621
  0
VERTEX
  8
0
 62
7
  6
CONTINUOUS
 10
151.6708386916
 20
95.4018234113
  0
VERTEX
  8
0
 62
7
  6
CONTINUOUS
 10
151.6356302847
 20
95.4924621967
  0
VERTEX
  8
0
 62
7
  6
CONTINUOUS
 10
151.5945448382
 20
95.5794523341
  0
VERTEX
  8
0
 62
7
  6
CONTINUOUS
 10
151.543920177
 20
95.6652219504
  0
VERTEX
  8
0
 62
7
  6
CONTINUOUS
 10
151.4787214273
 20
95.7506967291
  0
VERTEX
  8
0
 62
7
  6
CONTINUOUS
 10
151.3940907534
 20
95.8330191735
  0
VERTEX
  8
0
 62
7
  6
CONTINUOUS
 10
151.2882697315
 20
95.905008239
  0
VERTEX
  8
0
 62
7
  6
CONTINUOUS
 10
151.1639312437
 20
95.9581721696
  0
VERTEX
  8
0
 62
7
  6
CONTINUOUS
 10
151.0278700927
 20
95.9859282459
  0
VERTEX
  8
0
 62
7
  6
CONTINUOUS
 10
150.9594235109
 20
95.9893100995
  0
SEQEND
  0
LINE
  8
0
 62
7
  6
CONTINUOUS
 10
151.8617688087
 20
94.5190148275
 11
151.8458640241
 21
94.6237421695
  0
POLYLINE
  8
0
 62
7
  6
CONTINUOUS
 66
1
 70
0
  0
VERTEX
  8
0
 62
7
  6
CONTINUOUS
 10
152.9180088105
 20
90.3319340989
  0
VERTEX
  8
0
 62
7
  6
CONTINUOUS
 10
152.8461309968
 20
90.8837272203
  0
VERTEX
  8
0
 62
7
  6
CONTINUOUS
 10
152.7514021454
 20
91.4835521472
  0
VERTEX
  8
0
 62
7
  6
CONTINUOUS
 10
152.6407146144
 20
92.0661629527
  0
VERTEX
  8
0
 62
7
  6
CONTINUOUS
 10
152.5140263809
 20
92.6265539745
  0
VERTEX
  8
0
 62
7
  6
CONTINUOUS
 10
152.3713216351
 20
93.1598901766
  0
VERTEX
  8
0
 62
7
  6
CONTINUOUS
 10
152.2125532332
 20
93.6615146571
  0
VERTEX
  8
0
 62
7
  6
CONTINUOUS
 10
152.037488695
 20
94.1271276979
  0
SEQEND
  0
POLYLINE
  8
0
 62
7
  6
CONTINUOUS
 66
1
 70
0
  0
VERTEX
  8
0
 62
7
  6
CONTINUOUS
 10
161.4913559696
 20
84.5037364195
  0
VERTEX
  8
0
 62
7
  6
CONTINUOUS
 10
161.4952993506
 20
84.2133949977
  0
VERTEX
  8
0
 62
7
  6
CONTINUOUS
 10
161.4954972263
 20
84.137699301
  0
VERTEX
  8
0
 62
7
  6
CONTINUOUS
 10
161.4944599278
 20
84.0633293578
  0
VERTEX
  8
0
 62
7
  6
CONTINUOUS
 10
161.4920657414
 20
83.9904386879
  0
VERTEX
  8
0
 62
7
  6
CONTINUOUS
 10
161.4881816187
 20
83.9191470358
  0
VERTEX
  8
0
 62
7
  6
CONTINUOUS
 10
161.4826914243
 20
83.8495323852
  0
VERTEX
  8
0
 62
7
  6
CONTINUOUS
 10
161.4755061762
 20
83.7817864148
  0
VERTEX
  8
0
 62
7
  6
CONTINUOUS
 10
161.4665434459
 20
83.7162230417
  0
VERTEX
  8
0
 62
7
  6
CONTINUOUS
 10
161.4557010999
 20
83.6528532527
  0
VERTEX
  8
0
 62
7
  6
CONTINUOUS
 10
161.4429652218
 20
83.591832421
  0
VERTEX
  8
0
 62
7
  6
CONTINUOUS
 10
161.4282609724
 20
83.5336166357
  0
VERTEX
  8
0
 62
7
  6
CONTINUOUS
 10
161.4113855446
 20
83.4783508406
  0
VERTEX
  8
0
 62
7
  6
CONTINUOUS
 10
161.3918526398
 20
83.4264639687
  0
VERTEX
  8
0
 62
7
  6
CONTINUOUS
 10
161.3691508667
 20
83.3774057743
  0
VERTEX
  8
0
 62
7
  6
CONTINUOUS
 10
161.3434631829
 20
83.3320530558
  0
VERTEX
  8
0
 62
7
  6
CONTINUOUS
 10
161.3148356539
 20
83.2908567247
  0
VERTEX
  8
0
 62
7
  6
CONTINUOUS
 10
161.2832150802
 20
83.2541744713
  0
VERTEX
  8
0
 62
7
  6
CONTINUOUS
 10
161.2485629689
 20
83.222575169
  0
VERTEX
  8
0
 62
7
  6
CONTINUOUS
 10
161.211267421
 20
83.1970756425
  0
VERTEX
  8
0
 62
7
  6
CONTINUOUS
 10
161.1717355585
 20
83.1787834235
  0
VERTEX
  8
0
 62
7
  6
CONTINUOUS
 10
161.131605932
 20
83.1692779467
  0
VERTEX
  8
0
 62
7
  6
CONTINUOUS
 10
161.1127996247
 20
83.1681187244
  0
SEQEND
  0
LINE
  8
0
 62
7
  6
CONTINUOUS
 10
161.4889399951
 20
84.7867581563
 11
161.4913559696
 21
84.5037364195
  0
LINE
  8
0
 62
7
  6
CONTINUOUS
 10
161.4884044028
 20
90.3308462819
 11
161.4889399951
 21
84.7867581563
  0
LINE
  8
0
 62
6
  6
CONTINUOUS
 10
165.603236246
 20
41.0108584616
 11
165.603236246
 21
95.9893069413
  0
LINE
  8
0
 62
7
  6
CONTINUOUS
 10
161.318068089
 20
33.8477044636
 11
161.318008763
 21
33.8466964265
  0
LINE
  8
0
 62
7
  6
CONTINUOUS
 10
160.2458641598
 20
29.5548790762
 11
160.2617665341
 21
29.6596046212
  0
POLYLINE
  8
0
 62
6
  6
CONTINUOUS
 66
1
 70
0
  0
VERTEX
  8
0
 62
6
  6
CONTINUOUS
 10
178.2914773216
 20
90.3379776463
  0
VERTEX
  8
0
 62
6
  6
CONTINUOUS
 10
178.2886791949
 20
90.3287162246
  0
VERTEX
  8
0
 62
6
  6
CONTINUOUS
 10
178.296104029
 20
90.318857963
  0
SEQEND
  0
LINE
  8
0
 62
7
  6
CONTINUOUS
 10
152.037488695
 20
94.1271276979
 11
151.8577054198
 21
94.5280769197
  0
POLYLINE
  8
0
 62
7
  6
CONTINUOUS
 66
1
 70
0
  0
VERTEX
  8
0
 62
7
  6
CONTINUOUS
 10
170.9606073398
 20
29.5548854414
  0
VERTEX
  8
0
 62
7
  6
CONTINUOUS
 10
170.9864132751
 20
29.398007303
  0
VERTEX
  8
0
 62
7
  6
CONTINUOUS
 10
171.0154061926
 20
29.2412823579
  0
VERTEX
  8
0
 62
7
  6
CONTINUOUS
 10
171.0443617231
 20
29.1037561486
  0
VERTEX
  8
0
 62
7
  6
CONTINUOUS
 10
171.0736226735
 20
28.9824592051
  0
VERTEX
  8
0
 62
7
  6
CONTINUOUS
 10
171.1037452636
 20
28.8744671755
  0
VERTEX
  8
0
 62
7
  6
CONTINUOUS
 10
171.1356588948
 20
28.7767262723
  0
VERTEX
  8
0
 62
7
  6
CONTINUOUS
 10
171.1709567869
 20
28.6858894057
  0
VERTEX
  8
0
 62
7
  6
CONTINUOUS
 10
171.2121822579
 20
28.5986828179
  0
VERTEX
  8
0
 62
7
  6
CONTINUOUS
 10
171.2630382805
 20
28.5126684921
  0
VERTEX
  8
0
 62
7
  6
CONTINUOUS
 10
171.3286097385
 20
28.4269450709
  0
VERTEX
  8
0
 62
7
  6
CONTINUOUS
 10
171.4137764297
 20
28.344454034
  0
VERTEX
  8
0
 62
7
  6
CONTINUOUS
 10
171.5202326818
 20
28.2724970369
  0
VERTEX
  8
0
 62
7
  6
CONTINUOUS
 10
171.6452441158
 20
28.21960694
  0
VERTEX
  8
0
 62
7
  6
CONTINUOUS
 10
171.7819833719
 20
28.1923642989
  0
VERTEX
  8
0
 62
7
  6
CONTINUOUS
 10
171.8470478539
 20
28.1893102751
  0
SEQEND
  0
LINE
  8
0
 62
7
  6
CONTINUOUS
 10
170.9447059578
 20
29.6596046209
 11
170.9606083321
 21
29.5548790762
  0
POLYLINE
  8
0
 62
7
  6
CONTINUOUS
 66
1
 70
0
  0
VERTEX
  8
0
 62
7
  6
CONTINUOUS
 10
169.8884636781
 20
33.8466863051
  0
VERTEX
  8
0
 62
7
  6
CONTINUOUS
 10
169.9598409331
 20
33.2983949227
  0
VERTEX
  8
0
 62
7
  6
CONTINUOUS
 10
170.0544903945
 20
32.6984135073
  0
VERTEX
  8
0
 62
7
  6
CONTINUOUS
 10
170.1651009993
 20
32.1156265428
  0
VERTEX
  8
0
 62
7
  6
CONTINUOUS
 10
170.2917148855
 20
31.5550408765
  0
VERTEX
  8
0
 62
7
  6
CONTINUOUS
 10
170.4343476399
 20
31.0214931982
  0
VERTEX
  8
0
 62
7
  6
CONTINUOUS
 10
170.5930455641
 20
30.5196428201
  0
VERTEX
  8
0
 62
7
  6
CONTINUOUS
 10
170.7680393457
 20
30.0537922148
  0
SEQEND
  0
LINE
  8
0
 62
7
  6
CONTINUOUS
 10
169.8884637077
 20
33.8466921708
 11
169.8884044058
 21
33.8477120824
  0
LINE
  8
0
 62
7
  6
CONTINUOUS
 10
169.7180087809
 20
90.3319282332
 11
169.7180680861
 21
90.3309082934
  0
POLYLINE
  8
0
 62
7
  6
CONTINUOUS
 66
1
 70
0
  0
VERTEX
  8
0
 62
7
  6
CONTINUOUS
 10
169.7111335159
 20
84.2093635026
  0
VERTEX
  8
0
 62
7
  6
CONTINUOUS
 10
169.7150700606
 20
84.4997725331
  0
VERTEX
  8
0
 62
7
  6
CONTINUOUS
 10
169.7175118044
 20
84.7827847345
  0
VERTEX
  8
0
 62
7
  6
CONTINUOUS
 10
169.7180680891
 20
90.3308462819
  0
SEQEND
  0
POLYLINE
  8
0
 62
7
  6
CONTINUOUS
 66
1
 70
0
  0
VERTEX
  8
0
 62
7
  6
CONTINUOUS
 10
169.8952984563
 20
39.9651373139
  0
VERTEX
  8
0
 62
7
  6
CONTINUOUS
 10
169.8913559698
 20
39.6748839056
  0
VERTEX
  8
0
 62
7
  6
CONTINUOUS
 10
169.8889399953
 20
39.3918622451
  0
VERTEX
  8
0
 62
7
  6
CONTINUOUS
 10
169.8884044028
 20
33.8477740939
  0
SEQEND
  0
LINE
  8
0
 62
7
  6
CONTINUOUS
 10
179.3606084678
 20
94.6237421695
 11
179.3447036832
 21
94.5190148275
  0
POLYLINE
  8
0
 62
7
  6
CONTINUOUS
 66
1
 70
0
  0
VERTEX
  8
0
 62
7
  6
CONTINUOUS
 10
160.257706463
 20
29.6505455822
  0
VERTEX
  8
0
 62
7
  6
CONTINUOUS
 10
160.4384331901
 20
30.0537923217
  0
VERTEX
  8
0
 62
7
  6
CONTINUOUS
 10
160.6134270079
 20
30.5196430529
  0
VERTEX
  8
0
 62
7
  6
CONTINUOUS
 10
160.7721249609
 20
31.021493573
  0
VERTEX
  8
0
 62
7
  6
CONTINUOUS
 10
160.9147577366
 20
31.5550414064
  0
VERTEX
  8
0
 62
7
  6
CONTINUOUS
 10
161.0413716365
 20
32.1156272372
  0
VERTEX
  8
0
 62
7
  6
CONTINUOUS
 10
161.1519822473
 20
32.6984143722
  0
VERTEX
  8
0
 62
7
  6
CONTINUOUS
 10
161.2466317071
 20
33.2983959606
  0
VERTEX
  8
0
 62
7
  6
CONTINUOUS
 10
161.3180088138
 20
33.8466863051
  0
SEQEND
  0
POLYLINE
  8
0
 62
7
  6
CONTINUOUS
 66
1
 70
0
  0
VERTEX
  8
0
 62
7
  6
CONTINUOUS
 10
161.318008763
 20
33.8466964265
  0
VERTEX
  8
0
 62
7
  6
CONTINUOUS
 10
161.3121970626
 20
33.8380995285
  0
VERTEX
  8
0
 62
7
  6
CONTINUOUS
 10
161.2931103097
 20
33.82930621
  0
VERTEX
  8
0
 62
7
  6
CONTINUOUS
 10
161.2619090626
 20
33.8225777673
  0
VERTEX
  8
0
 62
7
  6
CONTINUOUS
 10
161.2205905167
 20
33.8182580639
  0
VERTEX
  8
0
 62
7
  6
CONTINUOUS
 10
161.1718941705
 20
33.8164691773
  0
VERTEX
  8
0
 62
7
  6
CONTINUOUS
 10
161.1180680891
 20
33.8170288646
  0
SEQEND
  0
POLYLINE
  8
0
 62
7
  6
CONTINUOUS
 66
1
 70
0
  0
VERTEX
  8
0
 62
7
  6
CONTINUOUS
 10
168.6458650573
 20
94.6237355423
  0
VERTEX
  8
0
 62
7
  6
CONTINUOUS
 10
168.6198188227
 20
94.7819953145
  0
VERTEX
  8
0
 62
7
  6
CONTINUOUS
 10
168.5908701132
 20
94.9383318726
  0
VERTEX
  8
0
 62
7
  6
CONTINUOUS
 10
168.5619614546
 20
95.0755269575
  0
VERTEX
  8
0
 62
7
  6
CONTINUOUS
 10
168.532751028
 20
95.1965423861
  0
VERTEX
  8
0
 62
7
  6
CONTINUOUS
 10
168.502684934
 20
95.304293621
  0
VERTEX
  8
0
 62
7
  6
CONTINUOUS
 10
168.4708386916
 20
95.4018234113
  0
VERTEX
  8
0
 62
7
  6
CONTINUOUS
 10
168.4356302847
 20
95.4924621967
  0
VERTEX
  8
0
 62
7
  6
CONTINUOUS
 10
168.3945448382
 20
95.5794523341
  0
VERTEX
  8
0
 62
7
  6
CONTINUOUS
 10
168.343920177
 20
95.6652219504
  0
VERTEX
  8
0
 62
7
  6
CONTINUOUS
 10
168.2787214273
 20
95.7506967291
  0
VERTEX
  8
0
 62
7
  6
CONTINUOUS
 10
168.1940907534
 20
95.8330191735
  0
VERTEX
  8
0
 62
7
  6
CONTINUOUS
 10
168.0882697315
 20
95.905008239
  0
VERTEX
  8
0
 62
7
  6
CONTINUOUS
 10
167.9639312437
 20
95.9581721696
  0
VERTEX
  8
0
 62
7
  6
CONTINUOUS
 10
167.8278700927
 20
95.9859282459
  0
VERTEX
  8
0
 62
7
  6
CONTINUOUS
 10
167.7594235109
 20
95.9893100995
  0
SEQEND
  0
LINE
  8
0
 62
7
  6
CONTINUOUS
 10
168.6617688087
 20
94.5190148275
 11
168.6458640241
 21
94.6237421695
  0
POLYLINE
  8
0
 62
7
  6
CONTINUOUS
 66
1
 70
0
  0
VERTEX
  8
0
 62
7
  6
CONTINUOUS
 10
169.7180088105
 20
90.3319340989
  0
VERTEX
  8
0
 62
7
  6
CONTINUOUS
 10
169.6461309968
 20
90.8837272203
  0
VERTEX
  8
0
 62
7
  6
CONTINUOUS
 10
169.5514021454
 20
91.4835521472
  0
VERTEX
  8
0
 62
7
  6
CONTINUOUS
 10
169.4407146144
 20
92.0661629527
  0
VERTEX
  8
0
 62
7
  6
CONTINUOUS
 10
169.3140263809
 20
92.6265539745
  0
VERTEX
  8
0
 62
7
  6
CONTINUOUS
 10
169.1713216351
 20
93.1598901766
  0
VERTEX
  8
0
 62
7
  6
CONTINUOUS
 10
169.0125532332
 20
93.6615146571
  0
VERTEX
  8
0
 62
7
  6
CONTINUOUS
 10
168.837488695
 20
94.1271276979
  0
SEQEND
  0
POLYLINE
  8
0
 62
7
  6
CONTINUOUS
 66
1
 70
0
  0
VERTEX
  8
0
 62
7
  6
CONTINUOUS
 10
178.2913559696
 20
84.5037364195
  0
VERTEX
  8
0
 62
7
  6
CONTINUOUS
 10
178.2952993506
 20
84.2133949977
  0
VERTEX
  8
0
 62
7
  6
CONTINUOUS
 10
178.2954972263
 20
84.137699301
  0
VERTEX
  8
0
 62
7
  6
CONTINUOUS
 10
178.2944599278
 20
84.0633293578
  0
VERTEX
  8
0
 62
7
  6
CONTINUOUS
 10
178.2920657414
 20
83.9904386879
  0
VERTEX
  8
0
 62
7
  6
CONTINUOUS
 10
178.2881816187
 20
83.9191470358
  0
VERTEX
  8
0
 62
7
  6
CONTINUOUS
 10
178.2826914243
 20
83.8495323852
  0
VERTEX
  8
0
 62
7
  6
CONTINUOUS
 10
178.2755061762
 20
83.7817864148
  0
VERTEX
  8
0
 62
7
  6
CONTINUOUS
 10
178.2665434459
 20
83.7162230417
  0
VERTEX
  8
0
 62
7
  6
CONTINUOUS
 10
178.2557010999
 20
83.6528532527
  0
VERTEX
  8
0
 62
7
  6
CONTINUOUS
 10
178.2429652218
 20
83.591832421
  0
VERTEX
  8
0
 62
7
  6
CONTINUOUS
 10
178.2282609724
 20
83.5336166357
  0
VERTEX
  8
0
 62
7
  6
CONTINUOUS
 10
178.2113855446
 20
83.4783508406
  0
VERTEX
  8
0
 62
7
  6
CONTINUOUS
 10
178.1918526398
 20
83.4264639687
  0
VERTEX
  8
0
 62
7
  6
CONTINUOUS
 10
178.1691508667
 20
83.3774057743
  0
VERTEX
  8
0
 62
7
  6
CONTINUOUS
 10
178.1434631829
 20
83.3320530558
  0
VERTEX
  8
0
 62
7
  6
CONTINUOUS
 10
178.1148356539
 20
83.2908567247
  0
VERTEX
  8
0
 62
7
  6
CONTINUOUS
 10
178.0832150802
 20
83.2541744713
  0
VERTEX
  8
0
 62
7
  6
CONTINUOUS
 10
178.0485629689
 20
83.222575169
  0
VERTEX
  8
0
 62
7
  6
CONTINUOUS
 10
178.011267421
 20
83.1970756425
  0
VERTEX
  8
0
 62
7
  6
CONTINUOUS
 10
177.9717355585
 20
83.1787834235
  0
VERTEX
  8
0
 62
7
  6
CONTINUOUS
 10
177.931605932
 20
83.1692779467
  0
VERTEX
  8
0
 62
7
  6
CONTINUOUS
 10
177.9127996247
 20
83.1681187244
  0
SEQEND
  0
POLYLINE
  8
0
 62
7
  6
CONTINUOUS
 66
1
 70
0
  0
VERTEX
  8
0
 62
7
  6
CONTINUOUS
 10
178.1150696576
 20
39.6788516862
  0
VERTEX
  8
0
 62
7
  6
CONTINUOUS
 10
178.1111327669
 20
39.9692704341
  0
VERTEX
  8
0
 62
7
  6
CONTINUOUS
 10
178.1109969116
 20
40.0447926713
  0
VERTEX
  8
0
 62
7
  6
CONTINUOUS
 10
178.112098562
 20
40.1189932503
  0
VERTEX
  8
0
 62
7
  6
CONTINUOUS
 10
178.1145605877
 20
40.1917199793
  0
VERTEX
  8
0
 62
7
  6
CONTINUOUS
 10
178.1185162601
 20
40.262858668
  0
VERTEX
  8
0
 62
7
  6
CONTINUOUS
 10
178.1240806466
 20
40.3323309561
  0
VERTEX
  8
0
 62
7
  6
CONTINUOUS
 10
178.1313417143
 20
40.3999354466
  0
VERTEX
  8
0
 62
7
  6
CONTINUOUS
 10
178.140384385
 20
40.4653471826
  0
VERTEX
  8
0
 62
7
  6
CONTINUOUS
 10
178.1512972363
 20
40.528549379
  0
VERTEX
  8
0
 62
7
  6
CONTINUOUS
 10
178.1640999522
 20
40.5893568033
  0
VERTEX
  8
0
 62
7
  6
CONTINUOUS
 10
178.1789247337
 20
40.6475590488
  0
VERTEX
  8
0
 62
7
  6
CONTINUOUS
 10
178.1958852923
 20
40.7026334909
  0
VERTEX
  8
0
 62
7
  6
CONTINUOUS
 10
178.2155586774
 20
40.7543958865
  0
VERTEX
  8
0
 62
7
  6
CONTINUOUS
 10
178.2384015338
 20
40.803316881
  0
VERTEX
  8
0
 62
7
  6
CONTINUOUS
 10
178.2642228175
 20
40.8484966302
  0
VERTEX
  8
0
 62
7
  6
CONTINUOUS
 10
178.2929731897
 20
40.8894886059
  0
VERTEX
  8
0
 62
7
  6
CONTINUOUS
 10
178.3247094219
 20
40.9259398927
  0
VERTEX
  8
0
 62
7
  6
CONTINUOUS
 10
178.3594807408
 20
40.9572899188
  0
VERTEX
  8
0
 62
7
  6
CONTINUOUS
 10
178.396877827
 20
40.982498222
  0
VERTEX
  8
0
 62
7
  6
CONTINUOUS
 10
178.4364723404
 20
41.0004393883
  0
VERTEX
  8
0
 62
7
  6
CONTINUOUS
 10
178.4765983901
 20
41.009540243
  0
VERTEX
  8
0
 62
7
  6
CONTINUOUS
 10
178.4934990942
 20
41.0105010935
  0
SEQEND
  0
LINE
  8
0
 62
7
  6
CONTINUOUS
 10
178.1175117122
 20
39.3958375172
 11
178.1150696576
 21
39.6788516862
  0
LINE
  8
0
 62
7
  6
CONTINUOUS
 10
178.2889399951
 20
84.7867581563
 11
178.2913559696
 21
84.5037364195
  0
LINE
  8
0
 62
7
  6
CONTINUOUS
 10
178.1175117122
 20
39.3958375172
 11
178.1180680891
 21
33.8477365766
  0
LINE
  8
0
 62
7
  6
CONTINUOUS
 10
178.2884044028
 20
90.3308462819
 11
178.2889399951
 21
84.7867581563
  0
LINE
  8
0
 62
7
  6
CONTINUOUS
 10
178.288463711
 20
90.3319282332
 11
178.2884044058
 21
90.3309082934
  0
LINE
  8
0
 62
7
  6
CONTINUOUS
 10
178.118068089
 20
33.8477044636
 11
178.118008763
 21
33.8466964265
  0
LINE
  8
0
 62
7
  6
CONTINUOUS
 10
168.837488695
 20
94.1271276979
 11
168.6577054198
 21
94.5280769197
  0
POLYLINE
  8
0
 62
6
  6
CONTINUOUS
 66
1
 70
0
  0
VERTEX
  8
0
 62
6
  6
CONTINUOUS
 10
169.7149951703
 20
90.3379776463
  0
VERTEX
  8
0
 62
6
  6
CONTINUOUS
 10
169.717793297
 20
90.3287162246
  0
VERTEX
  8
0
 62
6
  6
CONTINUOUS
 10
169.7103684629
 20
90.318857963
  0
SEQEND
  0
LINE
  8
0
 62
6
  6
CONTINUOUS
 10
182.403236246
 20
41.0108231325
 11
182.403236246
 21
95.9893069413
  0
LINE
  8
0
 62
7
  6
CONTINUOUS
 10
177.0458641598
 20
29.5548790762
 11
177.0617665341
 21
29.6596046212
  0
POLYLINE
  8
0
 62
7
  6
CONTINUOUS
 66
1
 70
0
  0
VERTEX
  8
0
 62
7
  6
CONTINUOUS
 10
177.057706463
 20
29.6505455822
  0
VERTEX
  8
0
 62
7
  6
CONTINUOUS
 10
177.2384331901
 20
30.0537923217
  0
VERTEX
  8
0
 62
7
  6
CONTINUOUS
 10
177.4134270079
 20
30.5196430529
  0
VERTEX
  8
0
 62
7
  6
CONTINUOUS
 10
177.5721249609
 20
31.021493573
  0
VERTEX
  8
0
 62
7
  6
CONTINUOUS
 10
177.7147577366
 20
31.5550414064
  0
VERTEX
  8
0
 62
7
  6
CONTINUOUS
 10
177.8413716364
 20
32.1156272372
  0
VERTEX
  8
0
 62
7
  6
CONTINUOUS
 10
177.9519822473
 20
32.6984143722
  0
VERTEX
  8
0
 62
7
  6
CONTINUOUS
 10
178.0466317071
 20
33.2983959606
  0
VERTEX
  8
0
 62
7
  6
CONTINUOUS
 10
178.1180088138
 20
33.8466863051
  0
SEQEND
  0
POLYLINE
  8
0
 62
7
  6
CONTINUOUS
 66
1
 70
0
  0
VERTEX
  8
0
 62
7
  6
CONTINUOUS
 10
178.118008763
 20
33.8466964265
  0
VERTEX
  8
0
 62
7
  6
CONTINUOUS
 10
178.1121970626
 20
33.8380995285
  0
VERTEX
  8
0
 62
7
  6
CONTINUOUS
 10
178.0931103097
 20
33.82930621
  0
VERTEX
  8
0
 62
7
  6
CONTINUOUS
 10
178.0619090626
 20
33.8225777673
  0
VERTEX
  8
0
 62
7
  6
CONTINUOUS
 10
178.0205905167
 20
33.8182580639
  0
VERTEX
  8
0
 62
7
  6
CONTINUOUS
 10
177.9718941705
 20
33.8164691773
  0
VERTEX
  8
0
 62
7
  6
CONTINUOUS
 10
177.9180680891
 20
33.8170288646
  0
SEQEND
  0
POLYLINE
  8
0
 62
7
  6
CONTINUOUS
 66
1
 70
0
  0
VERTEX
  8
0
 62
7
  6
CONTINUOUS
 10
186.5032359301
 20
95.7894989851
  0
VERTEX
  8
0
 62
7
  6
CONTINUOUS
 10
186.4992463365
 20
95.8290514001
  0
VERTEX
  8
0
 62
7
  6
CONTINUOUS
 10
186.4875157249
 20
95.8670273183
  0
VERTEX
  8
0
 62
7
  6
CONTINUOUS
 10
186.468505633
 20
95.9019362894
  0
VERTEX
  8
0
 62
7
  6
CONTINUOUS
 10
186.442966804
 20
95.9323972086
  0
VERTEX
  8
0
 62
7
  6
CONTINUOUS
 10
186.4119079822
 20
95.9572062435
  0
VERTEX
  8
0
 62
7
  6
CONTINUOUS
 10
186.3765563341
 20
95.9753830137
  0
VERTEX
  8
0
 62
7
  6
CONTINUOUS
 10
186.3383089196
 20
95.9862094688
  0
VERTEX
  8
0
 62
7
  6
CONTINUOUS
 10
186.3032270677
 20
95.9893101869
  0
SEQEND
  0
LINE
  8
0
 62
7
  6
CONTINUOUS
 10
186.253236246
 20
49.3960015836
 11
186.253236246
 21
74.7826187922
  0
LINE
  8
0
 62
7
  6
CONTINUOUS
 10
186.503236246
 20
41.2114040111
 11
186.503236246
 21
95.7893773678
  0
POLYLINE
  8
0
 62
7
  6
CONTINUOUS
 66
1
 70
0
  0
VERTEX
  8
0
 62
7
  6
CONTINUOUS
 10
186.503236246
 20
90.3265622914
  0
VERTEX
  8
0
 62
7
  6
CONTINUOUS
 10
186.4983113758
 20
90.3343250585
  0
VERTEX
  8
0
 62
7
  6
CONTINUOUS
 10
186.4837268609
 20
90.3417051836
  0
VERTEX
  8
0
 62
7
  6
CONTINUOUS
 10
186.4601183993
 20
90.348339381
  0
VERTEX
  8
0
 62
7
  6
CONTINUOUS
 10
186.4285799495
 20
90.3538954551
  0
VERTEX
  8
0
 62
7
  6
CONTINUOUS
 10
186.3906287648
 20
90.3580896429
  0
VERTEX
  8
0
 62
7
  6
CONTINUOUS
 10
186.3481376401
 20
90.3607025565
  0
VERTEX
  8
0
 62
7
  6
CONTINUOUS
 10
186.303236246
 20
90.3615915112
  0
SEQEND
  0
LINE
  8
0
 62
2
  6
CONTINUOUS
 10
98.503236246
 20
99.875296219
 11
106.903236246
 21
99.875296219
  0
LINE
  8
0
 62
7
  6
CONTINUOUS
 10
53.4061526883
 20
120.9605276498
 11
53.4060253286
 21
120.960647399
  0
LINE
  8
0
 62
7
  6
CONTINUOUS
 10
40.1382462411
 20
111.875296219
 11
36.503236246
 21
111.875296219
  0
LINE
  8
0
 62
7
  6
CONTINUOUS
 10
46.8264945286
 20
111.875296219
 11
49.1799779633
 21
111.875296219
  0
LINE
  8
0
 62
7
  6
CONTINUOUS
 10
55.2264945286
 20
111.875296219
 11
57.5799779633
 21
111.875296219
  0
LINE
  8
0
 62
7
  6
CONTINUOUS
 10
63.6264945286
 20
111.875296219
 11
65.9799779633
 21
111.875296219
  0
LINE
  8
0
 62
7
  6
CONTINUOUS
 10
72.0264945286
 20
111.875296219
 11
74.3799779633
 21
111.875296219
  0
LINE
  8
0
 62
7
  6
CONTINUOUS
 10
80.4264945286
 20
111.875296219
 11
82.7799779633
 21
111.875296219
  0
LINE
  8
0
 62
7
  6
CONTINUOUS
 10
88.8264945286
 20
111.875296219
 11
91.1799779633
 21
111.875296219
  0
LINE
  8
0
 62
7
  6
CONTINUOUS
 10
97.2264945286
 20
111.875296219
 11
99.5799779633
 21
111.875296219
  0
LINE
  8
0
 62
7
  6
CONTINUOUS
 10
105.6264945286
 20
111.875296219
 11
107.9799779633
 21
111.875296219
  0
LINE
  8
0
 62
7
  6
CONTINUOUS
 10
114.0264945286
 20
111.875296219
 11
116.3799779633
 21
111.875296219
  0
LINE
  8
0
 62
7
  6
CONTINUOUS
 10
122.4264945286
 20
111.875296219
 11
124.7799779633
 21
111.875296219
  0
LINE
  8
0
 62
7
  6
CONTINUOUS
 10
130.8264945286
 20
111.875296219
 11
133.1799779633
 21
111.875296219
  0
LINE
  8
0
 62
7
  6
CONTINUOUS
 10
139.2264945286
 20
111.875296219
 11
141.5799779633
 21
111.875296219
  0
LINE
  8
0
 62
7
  6
CONTINUOUS
 10
147.6264945286
 20
111.875296219
 11
149.9799779633
 21
111.875296219
  0
LINE
  8
0
 62
7
  6
CONTINUOUS
 10
156.0264945286
 20
111.875296219
 11
158.3799779633
 21
111.875296219
  0
LINE
  8
0
 62
7
  6
CONTINUOUS
 10
164.4264945286
 20
111.875296219
 11
166.7799779633
 21
111.875296219
  0
LINE
  8
0
 62
7
  6
CONTINUOUS
 10
172.8264945286
 20
111.875296219
 11
175.1799779633
 21
111.875296219
  0
LINE
  8
0
 62
6
  6
CONTINUOUS
 10
181.2264945286
 20
111.875296219
 11
181.8682262508
 21
111.875296219
  0
LINE
  8
0
 62
7
  6
CONTINUOUS
 10
181.8682262508
 20
111.875296219
 11
185.503236246
 21
111.875296219
  0
LINE
  8
0
 62
7
  6
CONTINUOUS
 10
185.503236246
 20
111.925296219
 11
175.3230756654
 21
111.925296219
  0
LINE
  8
0
 62
7
  6
CONTINUOUS
 10
172.5277741456
 20
111.925296219
 11
158.6786983463
 21
111.925296219
  0
LINE
  8
0
 62
7
  6
CONTINUOUS
 10
155.7277741456
 20
111.925296219
 11
141.8786983463
 21
111.925296219
  0
LINE
  8
0
 62
7
  6
CONTINUOUS
 10
138.9277741456
 20
111.925296219
 11
125.0786983463
 21
111.925296219
  0
LINE
  8
0
 62
7
  6
CONTINUOUS
 10
122.1277741456
 20
111.925296219
 11
108.2786983463
 21
111.925296219
  0
LINE
  8
0
 62
7
  6
CONTINUOUS
 10
105.3277741456
 20
111.925296219
 11
91.4786983463
 21
111.925296219
  0
LINE
  8
0
 62
7
  6
CONTINUOUS
 10
88.5277741456
 20
111.925296219
 11
74.6786983463
 21
111.925296219
  0
LINE
  8
0
 62
7
  6
CONTINUOUS
 10
71.7277741456
 20
111.925296219
 11
57.8786983463
 21
111.925296219
  0
LINE
  8
0
 62
7
  6
CONTINUOUS
 10
54.9277741456
 20
111.925296219
 11
40.1417425817
 21
111.925296219
  0
LINE
  8
0
 62
7
  6
CONTINUOUS
 10
40.6258465004
 20
112.1781816349
 11
40.8019870348
 21
112.1781816349
  0
LINE
  8
0
 62
7
  6
CONTINUOUS
 10
70.2061526883
 20
120.9605276498
 11
70.2060253286
 21
120.960647399
  0
LINE
  8
0
 62
7
  6
CONTINUOUS
 10
35.503236246
 20
112.875296219
 11
35.503236246
 21
127.675296219
  0
LINE
  8
0
 62
7
  6
CONTINUOUS
 10
36.0179179705
 20
279.5265995569
 11
35.753236246
 21
127.875296219
  0
POLYLINE
  8
0
 62
7
  6
CONTINUOUS
 66
1
 70
0
  0
VERTEX
  8
0
 62
7
  6
CONTINUOUS
 10
40.8019870349
 20
112.1781851036
  0
VERTEX
  8
0
 62
7
  6
CONTINUOUS
 10
40.8777502032
 20
112.1811353559
  0
VERTEX
  8
0
 62
7
  6
CONTINUOUS
 10
41.0072347084
 20
112.2000514686
  0
VERTEX
  8
0
 62
7
  6
CONTINUOUS
 10
41.1334959251
 20
112.2362447449
  0
VERTEX
  8
0
 62
7
  6
CONTINUOUS
 10
41.2544587983
 20
112.2892517448
  0
VERTEX
  8
0
 62
7
  6
CONTINUOUS
 10
41.3680628908
 20
112.3583583746
  0
VERTEX
  8
0
 62
7
  6
CONTINUOUS
 10
41.4723459856
 20
112.4426231703
  0
VERTEX
  8
0
 62
7
  6
CONTINUOUS
 10
41.5654614194
 20
112.5409054414
  0
VERTEX
  8
0
 62
7
  6
CONTINUOUS
 10
41.6455315072
 20
112.651645709
  0
VERTEX
  8
0
 62
7
  6
CONTINUOUS
 10
41.7108670914
 20
112.7729308812
  0
VERTEX
  8
0
 62
7
  6
CONTINUOUS
 10
41.760097785
 20
112.9026385382
  0
VERTEX
  8
0
 62
7
  6
CONTINUOUS
 10
41.7921611113
 20
113.038463347
  0
VERTEX
  8
0
 62
7
  6
CONTINUOUS
 10
41.8035936465
 20
113.1308577893
  0
SEQEND
  0
POLYLINE
  8
0
 62
7
  6
CONTINUOUS
 66
1
 70
0
  0
VERTEX
  8
0
 62
7
  6
CONTINUOUS
 10
41.1526295154
 20
114.4448029379
  0
VERTEX
  8
0
 62
7
  6
CONTINUOUS
 10
41.1858156874
 20
114.4456058585
  0
VERTEX
  8
0
 62
7
  6
CONTINUOUS
 10
41.2880804563
 20
114.4580799635
  0
VERTEX
  8
0
 62
7
  6
CONTINUOUS
 10
41.3894921296
 20
114.48602512
  0
VERTEX
  8
0
 62
7
  6
CONTINUOUS
 10
41.4887068318
 20
114.5297422628
  0
VERTEX
  8
0
 62
7
  6
CONTINUOUS
 10
41.583962518
 20
114.589483517
  0
VERTEX
  8
0
 62
7
  6
CONTINUOUS
 10
41.6734984141
 20
114.6652954008
  0
VERTEX
  8
0
 62
7
  6
CONTINUOUS
 10
41.7555523729
 20
114.7570649312
  0
VERTEX
  8
0
 62
7
  6
CONTINUOUS
 10
41.8277952592
 20
114.863618939
  0
VERTEX
  8
0
 62
7
  6
CONTINUOUS
 10
41.8884783459
 20
114.9837382624
  0
VERTEX
  8
0
 62
7
  6
CONTINUOUS
 10
41.9361014468
 20
115.1163084454
  0
VERTEX
  8
0
 62
7
  6
CONTINUOUS
 10
41.9689775738
 20
115.2597706338
  0
VERTEX
  8
0
 62
7
  6
CONTINUOUS
 10
41.9825198505
 20
115.3693231589
  0
SEQEND
  0
LINE
  8
0
 62
7
  6
CONTINUOUS
 10
41.1526295209
 20
114.4447790047
 11
40.7843089052
 21
114.4447790047
  0
LINE
  8
0
 62
7
  6
CONTINUOUS
 10
185.503236246
 20
119.875296219
 11
176.7426852337
 21
119.875296219
  0
LINE
  8
0
 62
7
  6
CONTINUOUS
 10
171.2637872582
 20
119.875296219
 11
159.9426852337
 21
119.875296219
  0
LINE
  8
0
 62
7
  6
CONTINUOUS
 10
154.4637872582
 20
119.875296219
 11
143.1426852337
 21
119.875296219
  0
LINE
  8
0
 62
7
  6
CONTINUOUS
 10
137.6637872582
 20
119.875296219
 11
126.3426852337
 21
119.875296219
  0
LINE
  8
0
 62
7
  6
CONTINUOUS
 10
120.8637872582
 20
119.875296219
 11
109.5426852337
 21
119.875296219
  0
LINE
  8
0
 62
7
  6
CONTINUOUS
 10
104.0637872582
 20
119.875296219
 11
92.7426852337
 21
119.875296219
  0
LINE
  8
0
 62
7
  6
CONTINUOUS
 10
87.2637872582
 20
119.875296219
 11
75.9426852337
 21
119.875296219
  0
LINE
  8
0
 62
7
  6
CONTINUOUS
 10
70.4637872582
 20
119.875296219
 11
59.1426852337
 21
119.875296219
  0
LINE
  8
0
 62
7
  6
CONTINUOUS
 10
53.6637872582
 20
119.875296219
 11
42.3426852337
 21
119.875296219
  0
LINE
  8
DEFAULT_1
 62
2
  6
CENTER
 10
33.303236246
 20
119.875296219
 11
42.3426852337
 21
119.875296219
  0
LINE
  8
DEFAULT_1
 62
2
  6
CENTER
 10
185.503236246
 20
119.875296219
 11
188.703236246
 21
119.875296219
  0
LINE
  8
DEFAULT_1
 62
2
  6
CENTER
 10
171.2637872582
 20
119.875296219
 11
176.7426852337
 21
119.875296219
  0
LINE
  8
DEFAULT_1
 62
2
  6
CENTER
 10
154.4637872582
 20
119.875296219
 11
159.9426852337
 21
119.875296219
  0
LINE
  8
DEFAULT_1
 62
2
  6
CENTER
 10
137.6637872582
 20
119.875296219
 11
143.1426852337
 21
119.875296219
  0
LINE
  8
DEFAULT_1
 62
2
  6
CENTER
 10
120.8637872582
 20
119.875296219
 11
126.3426852337
 21
119.875296219
  0
LINE
  8
DEFAULT_1
 62
2
  6
CENTER
 10
104.0637872582
 20
119.875296219
 11
109.5426852337
 21
119.875296219
  0
LINE
  8
DEFAULT_1
 62
2
  6
CENTER
 10
87.2637872582
 20
119.875296219
 11
92.7426852337
 21
119.875296219
  0
LINE
  8
DEFAULT_1
 62
2
  6
CENTER
 10
70.4637872582
 20
119.875296219
 11
75.9426852337
 21
119.875296219
  0
LINE
  8
DEFAULT_1
 62
2
  6
CENTER
 10
53.6637872582
 20
119.875296219
 11
59.1426852337
 21
119.875296219
  0
LINE
  8
0
 62
7
  6
CONTINUOUS
 10
52.296104029
 20
127.6203365406
 11
53.3216841218
 21
124.0318978708
  0
LINE
  8
0
 62
7
  6
CONTINUOUS
 10
53.3393435543
 20
123.9343371754
 11
54.2296737947
 21
112.7956192178
  0
LINE
  8
0
 62
7
  6
CONTINUOUS
 10
46.6833968265
 20
111.925296219
 11
46.6847904818
 21
111.8853871508
  0
LINE
  8
0
 62
7
  6
CONTINUOUS
 10
40.1382462411
 20
111.875296219
 11
40.2863442453
 21
113.9931963496
  0
LINE
  8
0
 62
7
  6
CONTINUOUS
 10
41.8035946862
 20
113.1308577061
 11
42.6671289376
 21
123.9343371754
  0
LINE
  8
0
 62
6
  6
CONTINUOUS
 10
177.9139783482
 20
127.4101298571
 11
177.8338684791
 21
127.4100586118
  0
LINE
  8
0
 62
6
  6
CONTINUOUS
 10
169.5139790713
 20
127.4101298591
 11
169.4338684791
 21
127.4100586125
  0
LINE
  8
0
 62
7
  6
CONTINUOUS
 10
43.0336383676
 20
121.1049055159
 11
43.0337122258
 21
121.1049055155
  0
LINE
  8
0
 62
7
  6
CONTINUOUS
 10
59.8336383676
 20
121.1049055159
 11
59.8337122258
 21
121.1049055155
  0
LINE
  8
0
 62
7
  6
CONTINUOUS
 10
76.6336383676
 20
121.1049055159
 11
76.6337122258
 21
121.1049055155
  0
LINE
  8
0
 62
7
  6
CONTINUOUS
 10
93.4336383676
 20
121.1049055159
 11
93.4337122258
 21
121.1049055155
  0
LINE
  8
0
 62
7
  6
CONTINUOUS
 10
110.2336383676
 20
121.1049055159
 11
110.2337122258
 21
121.1049055155
  0
LINE
  8
0
 62
7
  6
CONTINUOUS
 10
127.0336383676
 20
121.1049055159
 11
127.0337122258
 21
121.1049055155
  0
LINE
  8
0
 62
7
  6
CONTINUOUS
 10
143.8336383676
 20
121.1049055159
 11
143.8337122258
 21
121.1049055155
  0
LINE
  8
0
 62
7
  6
CONTINUOUS
 10
160.6336383676
 20
121.1049055159
 11
160.6337122258
 21
121.1049055155
  0
LINE
  8
0
 62
7
  6
CONTINUOUS
 10
177.4336383676
 20
121.1049055159
 11
177.4337122258
 21
121.1049055155
  0
LINE
  8
0
 62
7
  6
CONTINUOUS
 10
186.303236246
 20
127.875296219
 11
177.9455916521
 21
127.875296219
  0
LINE
  8
0
 62
7
  6
CONTINUOUS
 10
170.0639896864
 20
127.875296219
 11
161.1455916521
 21
127.875296219
  0
LINE
  8
0
 62
7
  6
CONTINUOUS
 10
153.2639896864
 20
127.875296219
 11
144.3455916521
 21
127.875296219
  0
LINE
  8
0
 62
7
  6
CONTINUOUS
 10
136.4639896864
 20
127.875296219
 11
127.5455916521
 21
127.875296219
  0
LINE
  8
0
 62
7
  6
CONTINUOUS
 10
119.6639896864
 20
127.875296219
 11
110.7455916521
 21
127.875296219
  0
LINE
  8
0
 62
7
  6
CONTINUOUS
 10
102.8639896864
 20
127.875296219
 11
93.9455916521
 21
127.875296219
  0
LINE
  8
0
 62
7
  6
CONTINUOUS
 10
86.0639896864
 20
127.875296219
 11
77.1455916521
 21
127.875296219
  0
LINE
  8
0
 62
7
  6
CONTINUOUS
 10
69.2639896864
 20
127.875296219
 11
60.3455916521
 21
127.875296219
  0
LINE
  8
0
 62
7
  6
CONTINUOUS
 10
52.4639896864
 20
127.875296219
 11
43.5455916521
 21
127.875296219
  0
LINE
  8
0
 62
7
  6
CONTINUOUS
 10
43.5180680891
 20
127.875296219
 11
35.703236246
 21
127.875296219
  0
LINE
  8
0
 62
7
  6
CONTINUOUS
 10
52.4884044028
 20
127.875296219
 11
60.3180680891
 21
127.875296219
  0
LINE
  8
0
 62
7
  6
CONTINUOUS
 10
69.2884044028
 20
127.875296219
 11
77.1180680891
 21
127.875296219
  0
LINE
  8
0
 62
7
  6
CONTINUOUS
 10
86.0884044028
 20
127.875296219
 11
93.9180680891
 21
127.875296219
  0
LINE
  8
0
 62
7
  6
CONTINUOUS
 10
102.8884044028
 20
127.875296219
 11
110.7180680891
 21
127.875296219
  0
LINE
  8
0
 62
7
  6
CONTINUOUS
 10
119.6884044028
 20
127.875296219
 11
127.5180680891
 21
127.875296219
  0
LINE
  8
0
 62
7
  6
CONTINUOUS
 10
136.4884044028
 20
127.875296219
 11
144.3180680891
 21
127.875296219
  0
LINE
  8
0
 62
7
  6
CONTINUOUS
 10
153.2884044028
 20
127.875296219
 11
161.1180680891
 21
127.875296219
  0
LINE
  8
0
 62
7
  6
CONTINUOUS
 10
170.0884044028
 20
127.875296219
 11
177.9180680891
 21
127.875296219
  0
LINE
  8
0
 62
6
  6
CONTINUOUS
 10
170.0863684191
 20
127.875296219
 11
170.0884044028
 21
127.875296219
  0
LINE
  8
0
 62
6
  6
CONTINUOUS
 10
177.9180680891
 20
127.875296219
 11
177.9201040728
 21
127.875296219
  0
LINE
  8
0
 62
7
  6
CONTINUOUS
 10
87.0061526883
 20
120.9605276498
 11
87.0060253286
 21
120.960647399
  0
POLYLINE
  8
0
 62
7
  6
CONTINUOUS
 66
1
 70
0
  0
VERTEX
  8
0
 62
7
  6
CONTINUOUS
 10
40.2863439763
 20
113.9931922598
  0
VERTEX
  8
0
 62
7
  6
CONTINUOUS
 10
40.2998180757
 20
114.0720383013
  0
VERTEX
  8
0
 62
7
  6
CONTINUOUS
 10
40.330970488
 20
114.1560410888
  0
VERTEX
  8
0
 62
7
  6
CONTINUOUS
 10
40.3373743683
 20
114.1691201635
  0
SEQEND
  0
POLYLINE
  8
0
 62
7
  6
CONTINUOUS
 66
1
 70
0
  0
VERTEX
  8
0
 62
7
  6
CONTINUOUS
 10
40.4649938029
 20
112.1516570248
  0
VERTEX
  8
0
 62
7
  6
CONTINUOUS
 10
40.5152504808
 20
112.1658338753
  0
VERTEX
  8
0
 62
7
  6
CONTINUOUS
 10
40.5942066283
 20
112.1771900559
  0
VERTEX
  8
0
 62
7
  6
CONTINUOUS
 10
40.6256836246
 20
112.1781818421
  0
SEQEND
  0
LINE
  8
0
 62
7
  6
CONTINUOUS
 10
103.8061526883
 20
120.9605276498
 11
103.8060253286
 21
120.960647399
  0
LINE
  8
0
 62
7
  6
CONTINUOUS
 10
69.096104029
 20
127.6203365406
 11
70.1216841218
 21
124.0318978708
  0
LINE
  8
0
 62
7
  6
CONTINUOUS
 10
59.4671289376
 20
123.9343371754
 11
58.5767986972
 21
112.7956192178
  0
LINE
  8
0
 62
7
  6
CONTINUOUS
 10
43.7103684629
 20
127.6203365406
 11
42.6847883701
 21
124.0318978708
  0
LINE
  8
0
 62
2
  6
CONTINUOUS
 10
98.503236246
 20
139.875296219
 11
106.903236246
 21
139.875296219
  0
LINE
  8
0
 62
7
  6
CONTINUOUS
 10
70.1393435543
 20
123.9343371754
 11
71.0296737947
 21
112.7956192178
  0
LINE
  8
0
 62
7
  6
CONTINUOUS
 10
120.6061526883
 20
120.9605276498
 11
120.6060253286
 21
120.960647399
  0
LINE
  8
0
 62
7
  6
CONTINUOUS
 10
85.896104029
 20
127.6203365406
 11
86.9216841218
 21
124.0318978708
  0
LINE
  8
0
 62
7
  6
CONTINUOUS
 10
60.5103684629
 20
127.6203365406
 11
59.4847883701
 21
124.0318978708
  0
LINE
  8
0
 62
7
  6
CONTINUOUS
 10
137.4061526883
 20
120.9605276498
 11
137.4060253286
 21
120.960647399
  0
LINE
  8
0
 62
7
  6
CONTINUOUS
 10
86.9393435543
 20
123.9343371754
 11
87.8296737947
 21
112.7956192178
  0
LINE
  8
0
 62
7
  6
CONTINUOUS
 10
76.2671289376
 20
123.9343371754
 11
75.3767986972
 21
112.7956192178
  0
POLYLINE
  8
0
 62
7
  6
CONTINUOUS
 66
1
 70
0
  0
VERTEX
  8
0
 62
7
  6
CONTINUOUS
 10
40.3373395424
 20
114.169129793
  0
VERTEX
  8
0
 62
7
  6
CONTINUOUS
 10
40.3575321151
 20
114.2054922443
  0
VERTEX
  8
0
 62
7
  6
CONTINUOUS
 10
40.4044706905
 20
114.2700802671
  0
VERTEX
  8
0
 62
7
  6
CONTINUOUS
 10
40.4610916439
 20
114.3263733183
  0
VERTEX
  8
0
 62
7
  6
CONTINUOUS
 10
40.5259511341
 20
114.3729359313
  0
VERTEX
  8
0
 62
7
  6
CONTINUOUS
 10
40.5973952802
 20
114.408580806
  0
VERTEX
  8
0
 62
7
  6
CONTINUOUS
 10
40.6736023054
 20
114.4323990342
  0
VERTEX
  8
0
 62
7
  6
CONTINUOUS
 10
40.7526289854
 20
114.4437832724
  0
VERTEX
  8
0
 62
7
  6
CONTINUOUS
 10
40.7841796227
 20
114.4447797124
  0
SEQEND
  0
LINE
  8
0
 62
7
  6
CONTINUOUS
 10
102.696104029
 20
127.6203365406
 11
103.7216841218
 21
124.0318978708
  0
LINE
  8
0
 62
7
  6
CONTINUOUS
 10
77.3103684629
 20
127.6203365406
 11
76.2847883701
 21
124.0318978708
  0
POLYLINE
  8
0
 62
7
  6
CONTINUOUS
 66
1
 70
0
  0
VERTEX
  8
0
 62
7
  6
CONTINUOUS
 10
40.3373743683
 20
114.1691201635
  0
VERTEX
  8
0
 62
7
  6
CONTINUOUS
 10
40.3820003529
 20
114.2446842725
  0
VERTEX
  8
0
 62
7
  6
CONTINUOUS
 10
40.4551146084
 20
114.3374014363
  0
VERTEX
  8
0
 62
7
  6
CONTINUOUS
 10
40.5518471086
 20
114.4336022448
  0
VERTEX
  8
0
 62
7
  6
CONTINUOUS
 10
40.6716802904
 20
114.5329551443
  0
VERTEX
  8
0
 62
7
  6
CONTINUOUS
 10
40.8110094169
 20
114.6366216788
  0
SEQEND
  0
LINE
  8
0
 62
7
  6
CONTINUOUS
 10
154.2061526883
 20
120.9605276498
 11
154.2060253286
 21
120.960647399
  0
LINE
  8
0
 62
7
  6
CONTINUOUS
 10
103.7393435543
 20
123.9343371754
 11
104.6296737947
 21
112.7956192178
  0
LINE
  8
0
 62
2
  6
CONTINUOUS
 10
98.503236246
 20
139.875296219
 11
98.503236246
 21
99.875296219
  0
LINE
  8
0
 62
7
  6
CONTINUOUS
 10
93.0671289376
 20
123.9343371754
 11
92.1767986972
 21
112.7956192178
  0
LINE
  8
0
 62
7
  6
CONTINUOUS
 10
171.0061526883
 20
120.9605276498
 11
171.0060253286
 21
120.960647399
  0
LINE
  8
0
 62
7
  6
CONTINUOUS
 10
119.496104029
 20
127.6203365406
 11
120.5216841218
 21
124.0318978708
  0
LINE
  8
0
 62
2
  6
CONTINUOUS
 10
106.729228146
 20
140.724116219
 11
106.729228146
 21
100.724116219
  0
LINE
  8
0
 62
6
  6
CONTINUOUS
 10
106.903236246
 20
139.875296219
 11
106.903236246
 21
99.875296219
  0
LINE
  8
DEFAULT_1
 62
2
  6
CENTER
 10
111.003236246
 20
97.875296219
 11
111.003236246
 21
282.275296219
  0
LINE
  8
0
 62
7
  6
CONTINUOUS
 10
94.1103684629
 20
127.6203365406
 11
93.0847883701
 21
124.0318978708
  0
LINE
  8
0
 62
7
  6
CONTINUOUS
 10
120.5393435543
 20
123.9343371754
 11
121.4296737947
 21
112.7956192178
  0
LINE
  8
0
 62
7
  6
CONTINUOUS
 10
109.8671289376
 20
123.9343371754
 11
108.9767986972
 21
112.7956192178
  0
LINE
  8
0
 62
7
  6
CONTINUOUS
 10
42.6003198036
 20
120.9605276498
 11
42.6004471633
 21
120.960647399
  0
LINE
  8
0
 62
7
  6
CONTINUOUS
 10
136.296104029
 20
127.6203365406
 11
137.3216841218
 21
124.0318978708
  0
LINE
  8
0
 62
7
  6
CONTINUOUS
 10
59.4003198036
 20
120.9605276498
 11
59.4004471633
 21
120.960647399
  0
LINE
  8
0
 62
7
  6
CONTINUOUS
 10
137.3393435543
 20
123.9343371754
 11
138.2296737947
 21
112.7956192178
  0
LINE
  8
0
 62
7
  6
CONTINUOUS
 10
126.6671289376
 20
123.9343371754
 11
125.7767986972
 21
112.7956192178
  0
LINE
  8
0
 62
7
  6
CONTINUOUS
 10
110.9103684629
 20
127.6203365406
 11
109.8847883701
 21
124.0318978708
  0
LINE
  8
0
 62
7
  6
CONTINUOUS
 10
153.096104029
 20
127.6203365406
 11
154.1216841218
 21
124.0318978708
  0
LINE
  8
0
 62
7
  6
CONTINUOUS
 10
76.2003198036
 20
120.9605276498
 11
76.2004471633
 21
120.960647399
  0
LINE
  8
0
 62
7
  6
CONTINUOUS
 10
154.1393435543
 20
123.9343371754
 11
155.0296737947
 21
112.7956192178
  0
LINE
  8
0
 62
7
  6
CONTINUOUS
 10
143.4671289376
 20
123.9343371754
 11
142.5767986972
 21
112.7956192178
  0
LINE
  8
0
 62
7
  6
CONTINUOUS
 10
127.7103684629
 20
127.6203365406
 11
126.6847883701
 21
124.0318978708
  0
LINE
  8
0
 62
7
  6
CONTINUOUS
 10
93.0003198036
 20
120.9605276498
 11
93.0004471633
 21
120.960647399
  0
LINE
  8
0
 62
7
  6
CONTINUOUS
 10
169.896104029
 20
127.6203365406
 11
170.9216841218
 21
124.0318978708
  0
LINE
  8
0
 62
7
  6
CONTINUOUS
 10
170.9393435543
 20
123.9343371754
 11
171.8296737947
 21
112.7956192178
  0
LINE
  8
0
 62
6
  6
CONTINUOUS
 10
165.603236246
 20
111.875296219
 11
165.603236246
 21
127.8752965211
  0
LINE
  8
0
 62
7
  6
CONTINUOUS
 10
160.2671289376
 20
123.9343371754
 11
159.3767986972
 21
112.7956192178
  0
LINE
  8
0
 62
7
  6
CONTINUOUS
 10
144.5103684629
 20
127.6203365406
 11
143.4847883701
 21
124.0318978708
  0
LINE
  8
0
 62
7
  6
CONTINUOUS
 10
109.8003198036
 20
120.9605276498
 11
109.8004471633
 21
120.960647399
  0
POLYLINE
  8
0
 62
7
  6
CONTINUOUS
 66
1
 70
0
  0
VERTEX
  8
0
 62
7
  6
CONTINUOUS
 10
40.4650851123
 20
112.1516328542
  0
VERTEX
  8
0
 62
7
  6
CONTINUOUS
 10
40.3815663042
 20
112.1222594716
  0
VERTEX
  8
0
 62
7
  6
CONTINUOUS
 10
40.2913912339
 20
112.0864476365
  0
VERTEX
  8
0
 62
7
  6
CONTINUOUS
 10
40.2250358646
 20
112.0545247425
  0
VERTEX
  8
0
 62
7
  6
CONTINUOUS
 10
40.1804712136
 20
112.0264990701
  0
VERTEX
  8
0
 62
7
  6
CONTINUOUS
 10
40.1548119714
 20
112.0020665214
  0
VERTEX
  8
0
 62
7
  6
CONTINUOUS
 10
40.1456099157
 20
111.9806020032
  0
SEQEND
  0
LINE
  8
0
 62
7
  6
CONTINUOUS
 10
126.6003198036
 20
120.9605276498
 11
126.6004471633
 21
120.960647399
  0
LINE
  8
0
 62
7
  6
CONTINUOUS
 10
181.8647299102
 20
111.925296219
 11
181.8682262508
 21
111.875296219
  0
LINE
  8
0
 62
6
  6
CONTINUOUS
 10
182.403236246
 20
127.875296219
 11
182.403236246
 21
111.875296219
  0
LINE
  8
0
 62
7
  6
CONTINUOUS
 10
175.3216820101
 20
111.8853871508
 11
175.3963011951
 21
114.0222010316
  0
LINE
  8
0
 62
7
  6
CONTINUOUS
 10
176.2035946862
 20
113.1308577061
 11
177.0671289376
 21
123.9343371754
  0
LINE
  8
0
 62
7
  6
CONTINUOUS
 10
175.6926533572
 20
114.6399622143
 11
175.789124445
 21
115.7979001065
  0
LINE
  8
0
 62
7
  6
CONTINUOUS
 10
175.789124445
 20
115.7979001065
 11
175.8964245849
 21
117.0658902582
  0
POLYLINE
  8
0
 62
7
  6
CONTINUOUS
 66
1
 70
0
  0
VERTEX
  8
0
 62
7
  6
CONTINUOUS
 10
175.8964245849
 20
117.0658902582
  0
VERTEX
  8
0
 62
7
  6
CONTINUOUS
 10
176.0121576384
 20
118.4096294657
  0
VERTEX
  8
0
 62
7
  6
CONTINUOUS
 10
176.0722821381
 20
119.0985963344
  0
SEQEND
  0
LINE
  8
0
 62
7
  6
CONTINUOUS
 10
161.3103684629
 20
127.6203365406
 11
160.2847883701
 21
124.0318978708
  0
LINE
  8
0
 62
7
  6
CONTINUOUS
 10
186.253236246
 20
127.875296219
 11
185.9885545214
 21
279.526599557
  0
LINE
  8
0
 62
7
  6
CONTINUOUS
 10
186.503236246
 20
112.875296219
 11
186.503236246
 21
127.675296219
  0
POLYLINE
  8
0
 62
7
  6
CONTINUOUS
 66
1
 70
0
  0
VERTEX
  8
0
 62
7
  6
CONTINUOUS
 10
176.8001156889
 20
120.5937955216
  0
VERTEX
  8
0
 62
7
  6
CONTINUOUS
 10
176.8049142309
 20
120.6319135639
  0
VERTEX
  8
0
 62
7
  6
CONTINUOUS
 10
176.8159081565
 20
120.6795645829
  0
VERTEX
  8
0
 62
7
  6
CONTINUOUS
 10
176.8264387654
 20
120.7115469228
  0
SEQEND
  0
POLYLINE
  8
0
 62
7
  6
CONTINUOUS
 66
1
 70
0
  0
VERTEX
  8
0
 62
7
  6
CONTINUOUS
 10
175.3963010176
 20
114.0221962833
  0
VERTEX
  8
0
 62
7
  6
CONTINUOUS
 10
175.408803625
 20
114.110269566
  0
VERTEX
  8
0
 62
7
  6
CONTINUOUS
 10
175.4270999877
 20
114.1691817026
  0
SEQEND
  0
LINE
  8
0
 62
7
  6
CONTINUOUS
 10
143.4003198036
 20
120.9605276498
 11
143.4004471633
 21
120.960647399
  0
LINE
  8
0
 62
7
  6
CONTINUOUS
 10
178.1103684629
 20
127.6203365406
 11
177.0847883701
 21
124.0318978708
  0
LINE
  8
0
 62
7
  6
CONTINUOUS
 10
160.2003198036
 20
120.9605276498
 11
160.2004471633
 21
120.960647399
  0
POLYLINE
  8
0
 62
7
  6
CONTINUOUS
 66
1
 70
0
  0
VERTEX
  8
0
 62
7
  6
CONTINUOUS
 10
175.4270999877
 20
114.1691817026
  0
VERTEX
  8
0
 62
7
  6
CONTINUOUS
 10
175.4369152335
 20
114.1941038211
  0
VERTEX
  8
0
 62
7
  6
CONTINUOUS
 10
175.4749352796
 20
114.270690209
  0
VERTEX
  8
0
 62
7
  6
CONTINUOUS
 10
175.5175375109
 20
114.3392855894
  0
VERTEX
  8
0
 62
7
  6
CONTINUOUS
 10
175.5602650138
 20
114.400083785
  0
VERTEX
  8
0
 62
7
  6
CONTINUOUS
 10
175.6005523002
 20
114.4549827861
  0
VERTEX
  8
0
 62
7
  6
CONTINUOUS
 10
175.6359178073
 20
114.5051676569
  0
VERTEX
  8
0
 62
7
  6
CONTINUOUS
 10
175.6640695232
 20
114.5515838854
  0
VERTEX
  8
0
 62
7
  6
CONTINUOUS
 10
175.6834631428
 20
114.5959368944
  0
VERTEX
  8
0
 62
7
  6
CONTINUOUS
 10
175.6926533572
 20
114.6399622143
  0
SEQEND
  0
POLYLINE
  8
0
 62
7
  6
CONTINUOUS
 66
1
 70
0
  0
VERTEX
  8
0
 62
7
  6
CONTINUOUS
 10
175.4270151399
 20
114.1691991211
  0
VERTEX
  8
0
 62
7
  6
CONTINUOUS
 10
175.4667017335
 20
114.251810765
  0
VERTEX
  8
0
 62
7
  6
CONTINUOUS
 10
175.5156202842
 20
114.3198277399
  0
VERTEX
  8
0
 62
7
  6
CONTINUOUS
 10
175.5752091896
 20
114.3787217698
  0
VERTEX
  8
0
 62
7
  6
CONTINUOUS
 10
175.643795333
 20
114.4268392175
  0
VERTEX
  8
0
 62
7
  6
CONTINUOUS
 10
175.7194529573
 20
114.4628290449
  0
VERTEX
  8
0
 62
7
  6
CONTINUOUS
 10
175.7531135444
 20
114.4741563302
  0
SEQEND
  0
POLYLINE
  8
0
 62
7
  6
CONTINUOUS
 66
1
 70
0
  0
VERTEX
  8
0
 62
7
  6
CONTINUOUS
 10
175.7531135606
 20
114.4741562762
  0
VERTEX
  8
0
 62
7
  6
CONTINUOUS
 10
175.7879190444
 20
114.4854685432
  0
VERTEX
  8
0
 62
7
  6
CONTINUOUS
 10
175.8870829797
 20
114.5288829744
  0
VERTEX
  8
0
 62
7
  6
CONTINUOUS
 10
175.9831799893
 20
114.588913843
  0
VERTEX
  8
0
 62
7
  6
CONTINUOUS
 10
176.0738388302
 20
114.6656270372
  0
VERTEX
  8
0
 62
7
  6
CONTINUOUS
 10
176.1564836775
 20
114.7582614226
  0
VERTEX
  8
0
 62
7
  6
CONTINUOUS
 10
176.2289461158
 20
114.8655830139
  0
VERTEX
  8
0
 62
7
  6
CONTINUOUS
 10
176.289620291
 20
114.9864049679
  0
VERTEX
  8
0
 62
7
  6
CONTINUOUS
 10
176.3369183404
 20
115.1191095345
  0
VERTEX
  8
0
 62
7
  6
CONTINUOUS
 10
176.3693718924
 20
115.2621366926
  0
VERTEX
  8
0
 62
7
  6
CONTINUOUS
 10
176.3825173959
 20
115.3692947978
  0
SEQEND
  0
LINE
  8
0
 62
7
  6
CONTINUOUS
 10
36.7679103017
 20
280.275296219
 11
185.2385621902
 21
280.275296219
  0
LINE
  8
0
 62
7
  6
CONTINUOUS
 10
177.0003198036
 20
120.9605276498
 11
177.0004471633
 21
120.960647399
  0
POLYLINE
  8
0
 62
7
  6
CONTINUOUS
 66
1
 70
0
  0
VERTEX
  8
0
 62
7
  6
CONTINUOUS
 10
175.5046062416
 20
112.2019104664
  0
VERTEX
  8
0
 62
7
  6
CONTINUOUS
 10
175.4571389891
 20
112.1633998227
  0
VERTEX
  8
0
 62
7
  6
CONTINUOUS
 10
175.39925933
 20
112.114617772
  0
VERTEX
  8
0
 62
7
  6
CONTINUOUS
 10
175.3583880227
 20
112.0749566413
  0
VERTEX
  8
0
 62
7
  6
CONTINUOUS
 10
175.3344695326
 20
112.0428765452
  0
VERTEX
  8
0
 62
7
  6
CONTINUOUS
 10
175.3262813072
 20
112.0170164971
  0
SEQEND
  0
POLYLINE
  8
0
 62
7
  6
CONTINUOUS
 66
1
 70
0
  0
VERTEX
  8
0
 62
7
  6
CONTINUOUS
 10
175.5046125564
 20
112.2019155856
  0
VERTEX
  8
0
 62
7
  6
CONTINUOUS
 10
175.5773678968
 20
112.2509816709
  0
VERTEX
  8
0
 62
7
  6
CONTINUOUS
 10
175.677701218
 20
112.3017380781
  0
SEQEND
  0
POLYLINE
  8
0
 62
7
  6
CONTINUOUS
 66
1
 70
0
  0
VERTEX
  8
0
 62
7
  6
CONTINUOUS
 10
175.677701218
 20
112.3017380781
  0
VERTEX
  8
0
 62
7
  6
CONTINUOUS
 10
175.7870654433
 20
112.3720590172
  0
VERTEX
  8
0
 62
7
  6
CONTINUOUS
 10
175.8872521966
 20
112.4566785134
  0
VERTEX
  8
0
 62
7
  6
CONTINUOUS
 10
175.9763888262
 20
112.5543130167
  0
VERTEX
  8
0
 62
7
  6
CONTINUOUS
 10
176.0528153751
 20
112.6634356865
  0
VERTEX
  8
0
 62
7
  6
CONTINUOUS
 10
176.1150968341
 20
112.7823134359
  0
VERTEX
  8
0
 62
7
  6
CONTINUOUS
 10
176.1620254663
 20
112.9090013182
  0
VERTEX
  8
0
 62
7
  6
CONTINUOUS
 10
176.1926630211
 20
113.0414761524
  0
VERTEX
  8
0
 62
7
  6
CONTINUOUS
 10
176.2035936067
 20
113.1308577924
  0
SEQEND
  0
LINE
  8
0
 62
2
  6
CONTINUOUS
 10
344.6002345136
 20
99.875296219
 11
264.6002345136
 21
99.875296219
  0
POLYLINE
  8
0
 62
7
  6
CONTINUOUS
 66
1
 70
0
  0
VERTEX
  8
0
 62
7
  6
CONTINUOUS
 10
276.3320079153
 20
111.8853871508
  0
VERTEX
  8
0
 62
7
  6
CONTINUOUS
 10
275.7048109103
 20
112.1345764396
  0
VERTEX
  8
0
 62
7
  6
CONTINUOUS
 10
275.0972467272
 20
112.4348106168
  0
VERTEX
  8
0
 62
7
  6
CONTINUOUS
 10
274.5161065691
 20
112.7834590194
  0
VERTEX
  8
0
 62
7
  6
CONTINUOUS
 10
273.9665406639
 20
113.1776512147
  0
SEQEND
  0
LINE
  8
0
 62
7
  6
CONTINUOUS
 10
283.7002345136
 20
111.875296219
 11
276.328000057
 21
111.875296219
  0
LINE
  8
0
 62
6
  6
CONTINUOUS
 10
276.328000057
 20
111.875296219
 11
276.3279531903
 21
111.875296219
  0
LINE
  8
0
 62
7
  6
CONTINUOUS
 10
325.5002345136
 20
111.875296219
 11
332.8725158368
 21
111.875296219
  0
LINE
  8
0
 62
6
  6
CONTINUOUS
 10
332.8724689701
 20
111.875296219
 11
332.8725158368
 21
111.875296219
  0
LINE
  8
0
 62
7
  6
CONTINUOUS
 10
283.7002345135
 20
111.8853871508
 11
276.3320079153
 21
111.8853871508
  0
LINE
  8
0
 62
7
  6
CONTINUOUS
 10
303.8474111528
 20
111.925296219
 11
305.3530578743
 21
111.925296219
  0
POLYLINE
  8
0
 62
7
  6
CONTINUOUS
 66
1
 70
0
  0
VERTEX
  8
0
 62
7
  6
CONTINUOUS
 10
284.9519532521
 20
112.0170221988
  0
VERTEX
  8
0
 62
7
  6
CONTINUOUS
 10
284.5381941982
 20
111.9440187465
  0
VERTEX
  8
0
 62
7
  6
CONTINUOUS
 10
284.120306815
 20
111.9000673546
  0
VERTEX
  8
0
 62
7
  6
CONTINUOUS
 10
283.7002345135
 20
111.8853871508
  0
SEQEND
  0
LINE
  8
DEFAULT_1
 62
7
  6
CENTER
 10
335.2502345136
 20
119.875296219
 11
332.0003345136
 21
119.875296219
  0
LINE
  8
0
 62
2
  6
CONTINUOUS
 10
331.0502345136
 20
119.875296219
 11
328.9502345136
 21
119.875296219
  0
LINE
  8
0
 62
40
  6
CONTINUOUS
 10
328.9502345136
 20
119.875296219
 11
328.6202345136
 21
119.875296219
  0
LINE
  8
0
 62
7
  6
CONTINUOUS
 10
300.1151343702
 20
119.875296219
 11
298.4224253343
 21
119.875296219
  0
LINE
  8
DEFAULT_1
 62
7
  6
CENTER
 10
284.4502345136
 20
119.875296219
 11
281.2003345136
 21
119.875296219
  0
LINE
  8
0
 62
2
  6
CONTINUOUS
 10
280.2502345136
 20
119.875296219
 11
278.1502345136
 21
119.875296219
  0
LINE
  8
0
 62
40
  6
CONTINUOUS
 10
278.1502345136
 20
119.875296219
 11
277.5802345136
 21
119.875296219
  0
LINE
  8
0
 62
40
  6
CONTINUOUS
 10
270.7010465459
 20
119.875296219
 11
250.7769345136
 21
119.875296219
  0
LINE
  8
DEFAULT_1
 62
7
  6
CENTER
 10
273.9502345136
 20
119.875296219
 11
277.2001345136
 21
119.875296219
  0
LINE
  8
0
 62
40
  6
CONTINUOUS
 10
280.2502345136
 20
119.875296219
 11
280.5802345136
 21
119.875296219
  0
LINE
  8
0
 62
7
  6
CONTINUOUS
 10
309.0853346569
 20
119.875296219
 11
310.7780436928
 21
119.875296219
  0
LINE
  8
DEFAULT_1
 62
7
  6
CENTER
 10
324.7502345136
 20
119.875296219
 11
328.0001345136
 21
119.875296219
  0
LINE
  8
0
 62
40
  6
CONTINUOUS
 10
331.0502345136
 20
119.875296219
 11
331.6202345136
 21
119.875296219
  0
LINE
  8
0
 62
40
  6
CONTINUOUS
 10
338.4993213977
 20
119.875296219
 11
358.4235345136
 21
119.875296219
  0
LINE
  8
0
 62
6
  6
CONTINUOUS
 10
325.4291211623
 20
127.8753253995
 11
325.428844929
 21
127.8752495684
  0
LINE
  8
0
 62
7
  6
CONTINUOUS
 10
276.3279531903
 20
127.875296219
 11
332.8725158368
 21
127.875296219
  0
LINE
  8
0
 62
6
  6
CONTINUOUS
 10
283.77134787
 20
127.8753253991
 11
283.7716240981
 21
127.8752495693
  0
LINE
  8
0
 62
7
  6
CONTINUOUS
 10
287.2513154564
 20
123.7788614752
 11
298.0879604686
 21
119.9328879987
  0
POLYLINE
  8
0
 62
7
  6
CONTINUOUS
 66
1
 70
0
  0
VERTEX
  8
0
 62
7
  6
CONTINUOUS
 10
283.77134787
 20
127.8753253991
  0
VERTEX
  8
0
 62
7
  6
CONTINUOUS
 10
283.7068907175
 20
127.8668713275
  0
VERTEX
  8
0
 62
7
  6
CONTINUOUS
 10
283.6467933833
 20
127.8420805488
  0
VERTEX
  8
0
 62
7
  6
CONTINUOUS
 10
283.5951214069
 20
127.8026299066
  0
VERTEX
  8
0
 62
7
  6
CONTINUOUS
 10
283.5553704581
 20
127.7511880631
  0
VERTEX
  8
0
 62
7
  6
CONTINUOUS
 10
283.5302297623
 20
127.6912349892
  0
VERTEX
  8
0
 62
7
  6
CONTINUOUS
 10
283.5214000915
 20
127.6268265116
  0
VERTEX
  8
0
 62
7
  6
CONTINUOUS
 10
283.529478662
 20
127.56231987
  0
VERTEX
  8
0
 62
7
  6
CONTINUOUS
 10
283.5539187369
 20
127.5020788746
  0
VERTEX
  8
0
 62
7
  6
CONTINUOUS
 10
283.5930666562
 20
127.4501786368
  0
VERTEX
  8
0
 62
7
  6
CONTINUOUS
 10
283.644273783
 20
127.4101298571
  0
SEQEND
  0
LINE
  8
0
 62
2
  6
CONTINUOUS
 10
344.6002345136
 20
139.875296219
 11
264.6002345136
 21
139.875296219
  0
LINE
  8
0
 62
2
  6
CONTINUOUS
 10
262.9025945136
 20
140.724116219
 11
262.9025945136
 21
100.724116219
  0
LINE
  8
0
 62
7
  6
CONTINUOUS
 10
273.4002345136
 20
119.875296219
 11
273.4002345136
 21
116.7629017754
  0
LINE
  8
DEFAULT_1
 62
7
  6
CENTER
 10
279.2002345136
 20
125.125296219
 11
279.2002345136
 21
121.875396219
  0
LINE
  8
0
 62
2
  6
CONTINUOUS
 10
279.2002345136
 20
120.925296219
 11
279.2002345136
 21
118.825296219
  0
LINE
  8
DEFAULT_1
 62
7
  6
CENTER
 10
279.2002345136
 20
114.625296219
 11
279.2002345136
 21
117.875196219
  0
POLYLINE
  8
0
 62
7
  6
CONTINUOUS
 66
1
 70
0
  0
VERTEX
  8
0
 62
7
  6
CONTINUOUS
 10
276.3279531903
 20
127.875296219
  0
VERTEX
  8
0
 62
7
  6
CONTINUOUS
 10
276.3273412376
 20
127.8696883588
  0
VERTEX
  8
0
 62
7
  6
CONTINUOUS
 10
276.3284802585
 20
127.8536232053
  0
VERTEX
  8
0
 62
7
  6
CONTINUOUS
 10
276.3315652312
 20
127.8279616175
  0
VERTEX
  8
0
 62
7
  6
CONTINUOUS
 10
276.3365823655
 20
127.7941532454
  0
VERTEX
  8
0
 62
7
  6
CONTINUOUS
 10
276.3433523814
 20
127.754144463
  0
VERTEX
  8
0
 62
7
  6
CONTINUOUS
 10
276.3515670551
 20
127.710220776
  0
VERTEX
  8
0
 62
7
  6
CONTINUOUS
 10
276.3608284769
 20
127.6648156982
  0
VERTEX
  8
0
 62
7
  6
CONTINUOUS
 10
276.3706867384
 20
127.6203365406
  0
SEQEND
  0
LINE
  8
0
 62
7
  6
CONTINUOUS
 10
300.9302677541
 20
119.2662475966
 11
302.8884307011
 21
112.64182401
  0
LINE
  8
0
 62
7
  6
CONTINUOUS
 10
285.0002345136
 20
116.7629017754
 11
285.0002345136
 21
119.875296219
  0
LINE
  8
0
 62
6
  6
CONTINUOUS
 10
304.6002345136
 20
139.875296219
 11
304.6002345136
 21
99.875296219
  0
LINE
  8
0
 62
7
  6
CONTINUOUS
 10
299.6002345136
 20
139.6608085859
 11
302.0928690621
 21
279.0946570921
  0
LINE
  8
DEFAULT_1
 62
40
  6
CENTER
 10
302.0928690621
 20
279.0946570921
 11
302.1002345136
 21
279.5066682458
  0
POLYLINE
  8
0
 62
6
  6
CONTINUOUS
 66
1
 70
0
  0
VERTEX
  8
0
 62
6
  6
CONTINUOUS
 10
276.328000057
 20
111.875296219
  0
VERTEX
  8
0
 62
6
  6
CONTINUOUS
 10
276.3339930001
 20
111.8929490337
  0
VERTEX
  8
0
 62
6
  6
CONTINUOUS
 10
276.3454014268
 20
111.9450837625
  0
VERTEX
  8
0
 62
6
  6
CONTINUOUS
 10
276.3616842523
 20
112.0295857366
  0
VERTEX
  8
0
 62
6
  6
CONTINUOUS
 10
276.3821848347
 20
112.1432457518
  0
VERTEX
  8
0
 62
6
  6
CONTINUOUS
 10
276.4061372097
 20
112.2818988937
  0
VERTEX
  8
0
 62
6
  6
CONTINUOUS
 10
276.4326781957
 20
112.4405985161
  0
VERTEX
  8
0
 62
6
  6
CONTINUOUS
 10
276.4896869149
 20
112.7956192178
  0
SEQEND
  0
LINE
  8
DEFAULT_1
 62
40
  6
CENTER
 10
307.1002345136
 20
279.5066682458
 11
307.107599965
 21
279.0946570921
  0
LINE
  8
0
 62
7
  6
CONTINUOUS
 10
307.107599965
 20
279.0946570921
 11
309.6002345136
 21
139.6608085859
  0
POLYLINE
  8
0
 62
6
  6
CONTINUOUS
 66
1
 70
0
  0
VERTEX
  8
0
 62
6
  6
CONTINUOUS
 10
332.8724689701
 20
111.875296219
  0
VERTEX
  8
0
 62
6
  6
CONTINUOUS
 10
332.866476027
 20
111.8929490337
  0
VERTEX
  8
0
 62
6
  6
CONTINUOUS
 10
332.8550676003
 20
111.9450837625
  0
VERTEX
  8
0
 62
6
  6
CONTINUOUS
 10
332.8387847748
 20
112.0295857366
  0
VERTEX
  8
0
 62
6
  6
CONTINUOUS
 10
332.8182841924
 20
112.1432457519
  0
VERTEX
  8
0
 62
6
  6
CONTINUOUS
 10
332.7943318174
 20
112.2818988937
  0
VERTEX
  8
0
 62
6
  6
CONTINUOUS
 10
332.7677908315
 20
112.4405985161
  0
SEQEND
  0
POLYLINE
  8
0
 62
6
  6
CONTINUOUS
 66
1
 70
0
  0
VERTEX
  8
0
 62
6
  6
CONTINUOUS
 10
332.8725158368
 20
127.875296219
  0
VERTEX
  8
0
 62
6
  6
CONTINUOUS
 10
332.8731277895
 20
127.869688358
  0
VERTEX
  8
0
 62
6
  6
CONTINUOUS
 10
332.8719887685
 20
127.8536232041
  0
VERTEX
  8
0
 62
6
  6
CONTINUOUS
 10
332.8689037957
 20
127.827961616
  0
VERTEX
  8
0
 62
6
  6
CONTINUOUS
 10
332.8638866613
 20
127.7941532435
  0
VERTEX
  8
0
 62
6
  6
CONTINUOUS
 10
332.8571166453
 20
127.7541444608
  0
VERTEX
  8
0
 62
6
  6
CONTINUOUS
 10
332.8489019716
 20
127.710220774
  0
SEQEND
  0
POLYLINE
  8
0
 62
7
  6
CONTINUOUS
 66
1
 70
0
  0
VERTEX
  8
0
 62
7
  6
CONTINUOUS
 10
276.328000057
 20
111.875296219
  0
VERTEX
  8
0
 62
7
  6
CONTINUOUS
 10
276.3295973183
 20
111.8778249432
  0
VERTEX
  8
0
 62
7
  6
CONTINUOUS
 10
276.3320079153
 20
111.8853871508
  0
SEQEND
  0
LINE
  8
0
 62
6
  6
CONTINUOUS
 10
332.7677908315
 20
112.4405985161
 11
332.7107821122
 21
112.7956192178
  0
POLYLINE
  8
0
 62
7
  6
CONTINUOUS
 66
1
 70
0
  0
VERTEX
  8
0
 62
7
  6
CONTINUOUS
 10
332.831528364
 20
112.875296219
  0
VERTEX
  8
0
 62
7
  6
CONTINUOUS
 10
332.8316688976
 20
112.7205169712
  0
VERTEX
  8
0
 62
7
  6
CONTINUOUS
 10
332.8344034001
 20
112.5691363877
  0
VERTEX
  8
0
 62
7
  6
CONTINUOUS
 10
332.8390087624
 20
112.4248606736
  0
VERTEX
  8
0
 62
7
  6
CONTINUOUS
 10
332.844817493
 20
112.2912518505
  0
VERTEX
  8
0
 62
7
  6
CONTINUOUS
 10
332.8512066482
 20
112.1716475552
  0
VERTEX
  8
0
 62
7
  6
CONTINUOUS
 10
332.8575910248
 20
112.0690827678
  0
VERTEX
  8
0
 62
7
  6
CONTINUOUS
 10
332.8634191219
 20
111.9862148369
  0
VERTEX
  8
0
 62
7
  6
CONTINUOUS
 10
332.8681708845
 20
111.9252539547
  0
VERTEX
  8
0
 62
7
  6
CONTINUOUS
 10
332.8713565216
 20
111.8879011706
  0
VERTEX
  8
0
 62
7
  6
CONTINUOUS
 10
332.8725158368
 20
111.875296219
  0
SEQEND
  0
LINE
  8
DEFAULT_1
 62
7
  6
CENTER
 10
330.0002345136
 20
125.125296219
 11
330.0002345136
 21
121.875396219
  0
LINE
  8
0
 62
2
  6
CONTINUOUS
 10
330.0002345136
 20
120.925296219
 11
330.0002345136
 21
118.825296219
  0
LINE
  8
DEFAULT_1
 62
7
  6
CENTER
 10
330.0002345136
 20
114.625296219
 11
330.0002345136
 21
117.875196219
  0
LINE
  8
0
 62
7
  6
CONTINUOUS
 10
306.312038326
 20
112.64182401
 11
308.270201273
 21
119.2662475966
  0
LINE
  8
0
 62
2
  6
CONTINUOUS
 10
344.6002345136
 20
139.875296219
 11
344.6002345136
 21
99.875296219
  0
LINE
  8
0
 62
7
  6
CONTINUOUS
 10
332.8716269206
 20
127.8701907155
 11
332.8725158368
 21
127.875296219
  0
LINE
  8
0
 62
7
  6
CONTINUOUS
 10
332.8374866969
 20
127.675296219
 11
332.8716269206
 21
127.8701907155
  0
POLYLINE
  8
0
 62
6
  6
CONTINUOUS
 66
1
 70
0
  0
VERTEX
  8
0
 62
6
  6
CONTINUOUS
 10
332.851445173
 20
127.7233996662
  0
VERTEX
  8
0
 62
6
  6
CONTINUOUS
 10
332.8602384914
 20
127.7720444542
  0
VERTEX
  8
0
 62
6
  6
CONTINUOUS
 10
332.8669669342
 20
127.8142558331
  0
VERTEX
  8
0
 62
6
  6
CONTINUOUS
 10
332.8712866375
 20
127.8470202762
  0
VERTEX
  8
0
 62
6
  6
CONTINUOUS
 10
332.8730755242
 20
127.867916968
  0
VERTEX
  8
0
 62
6
  6
CONTINUOUS
 10
332.8725158368
 20
127.875296219
  0
SEQEND
  0
LINE
  8
0
 62
6
  6
CONTINUOUS
 10
332.851445173
 20
127.7233996662
 11
332.8396405499
 21
127.6648156968
  0
LINE
  8
0
 62
6
  6
CONTINUOUS
 10
332.829782549
 20
127.6203376346
 11
332.8410906269
 21
127.6716795553
  0
POLYLINE
  8
0
 62
7
  6
CONTINUOUS
 66
1
 70
0
  0
VERTEX
  8
0
 62
7
  6
CONTINUOUS
 10
285.6457906476
 20
112.2937345779
  0
VERTEX
  8
0
 62
7
  6
CONTINUOUS
 10
285.5377992428
 20
112.2226630698
  0
VERTEX
  8
0
 62
7
  6
CONTINUOUS
 10
285.4213700917
 20
112.1633906316
  0
VERTEX
  8
0
 62
7
  6
CONTINUOUS
 10
285.300534319
 20
112.1146098041
  0
VERTEX
  8
0
 62
7
  6
CONTINUOUS
 10
285.1800227401
 20
112.0749534896
  0
VERTEX
  8
0
 62
7
  6
CONTINUOUS
 10
285.0633018995
 20
112.0428770192
  0
VERTEX
  8
0
 62
7
  6
CONTINUOUS
 10
284.9519279739
 20
112.0170166845
  0
SEQEND
  0
LINE
  8
0
 62
6
  6
CONTINUOUS
 10
321.9491535708
 20
123.7788614752
 11
314.3337182265
 21
121.076109626
  0
LINE
  8
0
 62
7
  6
CONTINUOUS
 10
311.1125085585
 20
119.9328879987
 11
314.3337182265
 21
121.076109626
  0
ARC
  8
0
 62
40
  6
CONTINUOUS
 10
36.803236246
 20
36.5693101879
 40
1.5
 50
150.095255074
 51
209.904744926
  0
ARC
  8
0
 62
40
  6
CONTINUOUS
 10
185.203236246
 20
87.6093101879
 40
1.5
 50
330.095255074
 51
29.904744926
  0
ARC
  8
0
 62
7
  6
CONTINUOUS
 10
35.703236246
 20
82.9679206032
 40
0.2
 50
90.0
 51
180.0
  0
ARC
  8
0
 62
7
  6
CONTINUOUS
 10
186.303236246
 20
41.2106997726
 40
0.2
 50
270.0
 51
360.0
  0
ARC
  8
0
 62
7
  6
CONTINUOUS
 10
105.6264945286
 20
112.875296219
 40
1.0
 50
184.57
 51
270.0
  0
ARC
  8
0
 62
7
  6
CONTINUOUS
 10
107.9799779633
 20
112.875296219
 40
1.0
 50
270.0
 51
355.43
  0
ARC
  8
0
 62
7
  6
CONTINUOUS
 10
99.5799779633
 20
112.875296219
 40
1.0
 50
270.0
 51
287.4745042926
  0
ARC
  8
0
 62
7
  6
CONTINUOUS
 10
88.8264945286
 20
112.875296219
 40
1.0
 50
184.57
 51
270.0
  0
ARC
  8
0
 62
7
  6
CONTINUOUS
 10
91.1799779633
 20
112.875296219
 40
1.0
 50
270.0
 51
355.43
  0
ARC
  8
0
 62
7
  6
CONTINUOUS
 10
97.2264945286
 20
112.875296219
 40
1.0
 50
252.5254957074
 51
270.0
  0
ARC
  8
0
 62
7
  6
CONTINUOUS
 10
82.7799779633
 20
112.875296219
 40
1.0
 50
270.0
 51
287.4745042926
  0
ARC
  8
0
 62
7
  6
CONTINUOUS
 10
72.0264945286
 20
112.875296219
 40
1.0
 50
184.57
 51
270.0
  0
ARC
  8
0
 62
7
  6
CONTINUOUS
 10
74.3799779633
 20
112.875296219
 40
1.0
 50
270.0
 51
355.43
  0
ARC
  8
0
 62
7
  6
CONTINUOUS
 10
80.4264945286
 20
112.875296219
 40
1.0
 50
252.5254957074
 51
270.0
  0
ARC
  8
0
 62
7
  6
CONTINUOUS
 10
65.9799779633
 20
112.875296219
 40
1.0
 50
270.0
 51
287.4745042926
  0
ARC
  8
0
 62
7
  6
CONTINUOUS
 10
55.2264945286
 20
112.875296219
 40
1.0
 50
184.57
 51
270.0
  0
ARC
  8
0
 62
7
  6
CONTINUOUS
 10
57.5799779633
 20
112.875296219
 40
1.0
 50
270.0
 51
355.43
  0
ARC
  8
0
 62
7
  6
CONTINUOUS
 10
63.6264945286
 20
112.875296219
 40
1.0
 50
252.5254957074
 51
270.0
  0
ARC
  8
0
 62
7
  6
CONTINUOUS
 10
49.1799779633
 20
112.875296219
 40
1.0
 50
270.0
 51
287.4745042926
  0
ARC
  8
0
 62
7
  6
CONTINUOUS
 10
46.8264945286
 20
112.875296219
 40
1.0
 50
261.8535358985
 51
270.0
  0
ARC
  8
0
 62
7
  6
CONTINUOUS
 10
36.503236246
 20
112.875296219
 40
1.0
 50
180.0
 51
270.0
  0
ARC
  8
0
 62
7
  6
CONTINUOUS
 10
110.3655393045
 20
123.8944986749
 40
0.5
 50
164.05
 51
175.43
  0
ARC
  8
0
 62
7
  6
CONTINUOUS
 10
103.2409331874
 20
123.8944986749
 40
0.5
 50
4.57
 51
15.95
  0
ARC
  8
0
 62
7
  6
CONTINUOUS
 10
93.5655393045
 20
123.8944986749
 40
0.5
 50
164.05
 51
175.43
  0
ARC
  8
0
 62
7
  6
CONTINUOUS
 10
86.4409331874
 20
123.8944986749
 40
0.5
 50
4.57
 51
15.95
  0
ARC
  8
0
 62
7
  6
CONTINUOUS
 10
76.7655393045
 20
123.8944986749
 40
0.5
 50
164.05
 51
175.43
  0
ARC
  8
0
 62
7
  6
CONTINUOUS
 10
69.6409331874
 20
123.8944986749
 40
0.5
 50
4.57
 51
15.95
  0
ARC
  8
0
 62
7
  6
CONTINUOUS
 10
59.9655393045
 20
123.8944986749
 40
0.5
 50
164.05
 51
175.43
  0
ARC
  8
0
 62
7
  6
CONTINUOUS
 10
52.8409331874
 20
123.8944986749
 40
0.5
 50
4.57
 51
15.95
  0
ARC
  8
0
 62
7
  6
CONTINUOUS
 10
43.1655393045
 20
123.8944986749
 40
0.5
 50
164.05
 51
175.43
  0
ARC
  8
0
 62
7
  6
CONTINUOUS
 10
110.7180680891
 20
127.675296219
 40
0.2
 50
344.05
 51
90.0
  0
ARC
  8
0
 62
7
  6
CONTINUOUS
 10
102.8884044028
 20
127.675296219
 40
0.2
 50
90.0
 51
195.95
  0
ARC
  8
0
 62
7
  6
CONTINUOUS
 10
93.9180680891
 20
127.675296219
 40
0.2
 50
344.05
 51
90.0
  0
ARC
  8
0
 62
7
  6
CONTINUOUS
 10
86.0884044028
 20
127.675296219
 40
0.2
 50
90.0
 51
195.95
  0
ARC
  8
0
 62
7
  6
CONTINUOUS
 10
77.1180680891
 20
127.675296219
 40
0.2
 50
344.05
 51
90.0
  0
ARC
  8
0
 62
7
  6
CONTINUOUS
 10
69.2884044028
 20
127.675296219
 40
0.2
 50
90.0
 51
195.95
  0
ARC
  8
0
 62
7
  6
CONTINUOUS
 10
60.3180680891
 20
127.675296219
 40
0.2
 50
344.05
 51
90.0
  0
ARC
  8
0
 62
7
  6
CONTINUOUS
 10
52.4884044028
 20
127.675296219
 40
0.2
 50
90.0
 51
195.95
  0
ARC
  8
0
 62
7
  6
CONTINUOUS
 10
43.5180680891
 20
127.675296219
 40
0.2
 50
344.05
 51
90.0
  0
ARC
  8
0
 62
7
  6
CONTINUOUS
 10
35.703236246
 20
127.675296219
 40
0.2
 50
90.0
 51
180.0
  0
ARC
  8
0
 62
7
  6
CONTINUOUS
 10
36.7679168364
 20
279.5252952663
 40
0.75
 50
90.0000000515
 51
179.9
  0
ARC
  8
0
 62
7
  6
CONTINUOUS
 10
149.9799779633
 20
112.875296219
 40
1.0
 50
270.0
 51
287.4745042926
  0
ARC
  8
0
 62
7
  6
CONTINUOUS
 10
139.2264945286
 20
112.875296219
 40
1.0
 50
184.57
 51
270.0
  0
ARC
  8
0
 62
7
  6
CONTINUOUS
 10
141.5799779633
 20
112.875296219
 40
1.0
 50
270.0
 51
355.43
  0
ARC
  8
0
 62
7
  6
CONTINUOUS
 10
147.6264945286
 20
112.875296219
 40
1.0
 50
252.5254957074
 51
270.0
  0
ARC
  8
0
 62
7
  6
CONTINUOUS
 10
133.1799779633
 20
112.875296219
 40
1.0
 50
270.0
 51
287.4745042926
  0
ARC
  8
0
 62
7
  6
CONTINUOUS
 10
122.4264945286
 20
112.875296219
 40
1.0
 50
184.57
 51
270.0
  0
ARC
  8
0
 62
7
  6
CONTINUOUS
 10
124.7799779633
 20
112.875296219
 40
1.0
 50
270.0
 51
355.43
  0
ARC
  8
0
 62
7
  6
CONTINUOUS
 10
130.8264945286
 20
112.875296219
 40
1.0
 50
252.5254957074
 51
270.0
  0
ARC
  8
0
 62
7
  6
CONTINUOUS
 10
116.3799779633
 20
112.875296219
 40
1.0
 50
270.0
 51
287.4745042926
  0
ARC
  8
0
 62
7
  6
CONTINUOUS
 10
114.0264945286
 20
112.875296219
 40
1.0
 50
252.5254957074
 51
270.0
  0
ARC
  8
0
 62
7
  6
CONTINUOUS
 10
143.9655393045
 20
123.8944986749
 40
0.5
 50
164.05
 51
175.43
  0
ARC
  8
0
 62
7
  6
CONTINUOUS
 10
136.8409331874
 20
123.8944986749
 40
0.5
 50
4.57
 51
15.95
  0
ARC
  8
0
 62
7
  6
CONTINUOUS
 10
127.1655393045
 20
123.8944986749
 40
0.5
 50
164.05
 51
175.43
  0
ARC
  8
0
 62
7
  6
CONTINUOUS
 10
120.0409331874
 20
123.8944986749
 40
0.5
 50
4.57
 51
15.95
  0
ARC
  8
0
 62
7
  6
CONTINUOUS
 10
144.3180680891
 20
127.675296219
 40
0.2
 50
344.05
 51
90.0
  0
ARC
  8
0
 62
7
  6
CONTINUOUS
 10
136.4884044028
 20
127.675296219
 40
0.2
 50
90.0
 51
195.95
  0
ARC
  8
0
 62
7
  6
CONTINUOUS
 10
127.5180680891
 20
127.675296219
 40
0.2
 50
344.05
 51
90.0
  0
ARC
  8
0
 62
7
  6
CONTINUOUS
 10
119.6884044028
 20
127.675296219
 40
0.2
 50
90.0
 51
195.95
  0
ARC
  8
0
 62
7
  6
CONTINUOUS
 10
175.1799779633
 20
112.875296219
 40
1.0
 50
270.0
 51
278.1464641015
  0
ARC
  8
0
 62
7
  6
CONTINUOUS
 10
172.8264945286
 20
112.875296219
 40
1.0
 50
184.57
 51
270.0
  0
ARC
  8
0
 62
7
  6
CONTINUOUS
 10
166.7799779633
 20
112.875296219
 40
1.0
 50
270.0
 51
287.4745042926
  0
ARC
  8
0
 62
7
  6
CONTINUOUS
 10
156.0264945286
 20
112.875296219
 40
1.0
 50
184.57
 51
270.0
  0
ARC
  8
0
 62
7
  6
CONTINUOUS
 10
158.3799779633
 20
112.875296219
 40
1.0
 50
270.0
 51
355.43
  0
ARC
  8
0
 62
7
  6
CONTINUOUS
 10
164.4264945286
 20
112.875296219
 40
1.0
 50
252.5254957074
 51
270.0
  0
ARC
  8
0
 62
7
  6
CONTINUOUS
 10
185.503236246
 20
112.875296219
 40
1.0
 50
270.0
 51
360.0
  0
ARC
  8
0
 62
7
  6
CONTINUOUS
 10
185.503236246
 20
112.925296219
 40
1.0
 50
270.0
 51
360.0
  0
ARC
  8
0
 62
6
  6
CONTINUOUS
 10
175.1799779633
 20
112.875296219
 40
1.0
 50
278.1464641015
 51
355.43
  0
ARC
  8
0
 62
6
  6
CONTINUOUS
 10
181.2264945286
 20
112.875296219
 40
1.0
 50
184.57
 51
270.0
  0
ARC
  8
0
 62
6
  6
CONTINUOUS
 10
166.7799779633
 20
112.875296219
 40
1.0
 50
287.4745042926
 51
355.43
  0
ARC
  8
0
 62
7
  6
CONTINUOUS
 10
185.503236246
 20
120.875296219
 40
1.0
 50
270.0
 51
360.0
  0
ARC
  8
0
 62
7
  6
CONTINUOUS
 10
177.5655393045
 20
123.8944986749
 40
0.5
 50
164.05
 51
175.43
  0
ARC
  8
0
 62
7
  6
CONTINUOUS
 10
170.4409331874
 20
123.8944986749
 40
0.5
 50
4.57
 51
15.95
  0
ARC
  8
0
 62
7
  6
CONTINUOUS
 10
160.7655393045
 20
123.8944986749
 40
0.5
 50
164.05
 51
175.43
  0
ARC
  8
0
 62
7
  6
CONTINUOUS
 10
153.6409331874
 20
123.8944986749
 40
0.5
 50
4.57
 51
15.95
  0
ARC
  8
0
 62
7
  6
CONTINUOUS
 10
177.9180680891
 20
127.675296219
 40
0.2
 50
344.05
 51
90.0
  0
ARC
  8
0
 62
7
  6
CONTINUOUS
 10
170.0884044028
 20
127.675296219
 40
0.2
 50
90.0
 51
195.95
  0
ARC
  8
0
 62
7
  6
CONTINUOUS
 10
161.1180680891
 20
127.675296219
 40
0.2
 50
344.05
 51
90.0
  0
ARC
  8
0
 62
7
  6
CONTINUOUS
 10
153.2884044028
 20
127.675296219
 40
0.2
 50
90.0
 51
195.95
  0
ARC
  8
0
 62
7
  6
CONTINUOUS
 10
186.303236246
 20
127.675296219
 40
0.2
 50
0.0
 51
90.0
  0
ARC
  8
0
 62
6
  6
CONTINUOUS
 10
178.4884044028
 20
127.675296219
 40
0.2
 50
90.0
 51
195.95
  0
ARC
  8
0
 62
6
  6
CONTINUOUS
 10
169.5180680891
 20
127.675296219
 40
0.2
 50
344.05
 51
90.0
  0
ARC
  8
0
 62
7
  6
CONTINUOUS
 10
185.2385556555
 20
279.5252952663
 40
0.75
 50
0.1
 51
89.9999999485
  0
ARC
  8
0
 62
7
  6
CONTINUOUS
 10
280.2889933932
 20
84.8307251617
 40
50.0
 50
36.1628008448
 51
46.2787379139
  0
ARC
  8
0
 62
7
  6
CONTINUOUS
 10
279.1958727939
 20
119.875296219
 40
8.75
 50
29.0322772227
 51
59.4415682141
  0
ARC
  8
0
 62
7
  6
CONTINUOUS
 10
279.2002345136
 20
119.875296219
 40
8.5
 50
109.7499227956
 51
231.9951143277
  0
ARC
  8
0
 62
7
  6
CONTINUOUS
 10
279.2002345136
 20
119.875296219
 40
8.5
 50
232.4345865675
 51
250.2500772044
  0
ARC
  8
0
 62
6
  6
CONTINUOUS
 10
279.2002345136
 20
119.875296219
 40
8.5
 50
231.9951143277
 51
232.4345865675
  0
ARC
  8
0
 62
7
  6
CONTINUOUS
 10
279.2002345136
 20
119.875296219
 40
5.8
 50
0.0
 51
180.0
  0
CIRCLE
  8
0
 62
7
  6
CONTINUOUS
 10
279.2002345136
 20
119.875296219
 40
4.15
  0
ARC
  8
0
 62
7
  6
CONTINUOUS
 10
283.7002345136
 20
117.875296219
 40
6.0
 50
270.0
 51
323.8371991552
  0
ARC
  8
0
 62
7
  6
CONTINUOUS
 10
287.5021641057
 20
124.4856676404
 40
0.75
 50
209.0322772227
 51
250.46
  0
ARC
  8
0
 62
7
  6
CONTINUOUS
 10
283.7716240983
 20
127.625296219
 40
0.25
 50
90.0
 51
239.4415682141
  0
ARC
  8
0
 62
7
  6
CONTINUOUS
 10
287.6021515394
 20
139.875296219
 40
12.0
 50
270.0
 51
358.9758424512
  0
ARC
  8
0
 62
7
  6
CONTINUOUS
 10
298.4224253343
 20
120.875296219
 40
1.0
 50
250.46
 51
270.0
  0
ARC
  8
0
 62
7
  6
CONTINUOUS
 10
294.6995183677
 20
120.6049055159
 40
0.5
 50
70.46
 51
133.7212620861
  0
ARC
  8
0
 62
7
  6
CONTINUOUS
 10
303.8474111528
 20
112.925296219
 40
1.0
 50
196.467546793
 51
270.0
  0
ARC
  8
0
 62
7
  6
CONTINUOUS
 10
300.1151343702
 20
119.025296219
 40
0.85
 50
16.467546793
 51
90.0
  0
ARC
  8
0
 62
7
  6
CONTINUOUS
 10
302.842749248
 20
279.0812516151
 40
0.75
 50
118.3590907419
 51
178.9758424512
  0
ARC
  8
0
 62
7
  6
CONTINUOUS
 10
305.3530578743
 20
112.925296219
 40
1.0
 50
270.0
 51
343.532453207
  0
ARC
  8
0
 62
7
  6
CONTINUOUS
 10
310.7780436928
 20
120.875296219
 40
1.0
 50
270.0
 51
289.54
  0
ARC
  8
0
 62
7
  6
CONTINUOUS
 10
309.0853346569
 20
119.025296219
 40
0.85
 50
90.0
 51
163.532453207
  0
ARC
  8
0
 62
7
  6
CONTINUOUS
 10
314.5009506594
 20
120.6049055159
 40
0.5
 50
46.2787379139
 51
109.54
  0
ARC
  8
0
 62
7
  6
CONTINUOUS
 10
328.9114756339
 20
84.8307251617
 40
50.0
 50
133.7212620861
 51
143.8371991552
  0
ARC
  8
0
 62
7
  6
CONTINUOUS
 10
321.5983174877
 20
139.875296219
 40
12.0
 50
181.0241575488
 51
270.0
  0
ARC
  8
0
 62
6
  6
CONTINUOUS
 10
330.0045962332
 20
119.875296219
 40
8.75
 50
120.5584317859
 51
150.9677227773
  0
ARC
  8
0
 62
7
  6
CONTINUOUS
 10
330.0002345136
 20
119.875296219
 40
8.5
 50
289.7499227956
 51
70.2500772044
  0
ARC
  8
0
 62
7
  6
CONTINUOUS
 10
325.5002345136
 20
117.875296219
 40
6.0
 50
216.1628008448
 51
270.0
  0
CIRCLE
  8
0
 62
7
  6
CONTINUOUS
 10
330.0002345136
 20
119.875296219
 40
4.15
  0
ARC
  8
0
 62
6
  6
CONTINUOUS
 10
321.6983049215
 20
124.4856676404
 40
0.75
 50
289.54
 51
330.9677227773
  0
ARC
  8
0
 62
6
  6
CONTINUOUS
 10
325.4288449288
 20
127.625296219
 40
0.25
 50
300.5584317859
 51
90.0
  0
ARC
  8
0
 62
7
  6
CONTINUOUS
 10
304.6002345136
 20
275.825296219
 40
4.45
 50
61.6409092581
 51
118.3590907419
  0
ARC
  8
DEFAULT_1
 62
40
  6
CENTER
 10
304.6002345136
 20
275.825296219
 40
4.45
 50
118.3590907419
 51
124.1802157246
  0
ARC
  8
DEFAULT_1
 62
40
  6
CENTER
 10
304.6002345136
 20
275.825296219
 40
4.45
 50
55.8197842754
 51
61.6409092581
  0
ARC
  8
0
 62
7
  6
CONTINUOUS
 10
306.3577197791
 20
279.0812516151
 40
0.75
 50
1.0241575488
 51
61.6409092581
  0
ENDSEC
  0
EOF
