  0
SECTION
  2
HEADER
  9
$EXTMAX
 10
420.0
 20
297.0
 30
0.0
  9
$EXTMIN
 10
0.0
 20
0.0
 30
0.0
  9
$LIMMIN
 10
0.0
 20
0.0
  9
$LIMMAX
 10
420.0
 20
297.0
  9
$VIEWCTR
 10
210.0
 20
148.5
  9
$VIEWSIZE
 40
297.0
  9
$CLAYER
  8
0
  9
$LTSCALE
 40
23.1
  9
$CELTYPE
  6
BYLAYER
  9
$DIMSCALE
 40
1.0
  9
$DIMASZ
 40
3.5
  9
$DIMEXO
 40
2.625
  9
$DIMDLI
 40
15.96
  9
$DIMEXE
 40
7.56
  9
$DIMCEN
 40
3.78
  9
$DIMLFAC
 40
1.0
  9
$DIMBLK
  1
_FILLED
  9
$DIMTXT
 40
3.5
  9
$PDMODE
 70
3
  9
$PDSIZE
 40
0.3125
  9
$TILEMODE
 70
1
  0
ENDSEC
  0
SECTION
  2
TABLES
  0
TABLE
  2
LTYPE
 70
6
  0
LTYPE
  2
BYBLOCK
 70
0
  3

 72
65
 73
0
 40
0.0
  0
LTYPE
  2
BYLAYER
 70
0
  3

 72
65
 73
0
 40
0.0
  0
LTYPE
  2
CONTINUOUS
 70
64
  3
Solid line
 72
65
 73
0
 40
0.0
  0
LTYPE
  2
CENTER
 70
64
  3
____ _ ____ _ ____ _ ____ _ ____ _ ____ _ ____
 72
65
 73
4
 40
0.6
 49
0.375
 49
-0.075
 49
0.075
 49
-0.075
  0
LTYPE
  2
HIDDEN
 70
64
  3
- - - - - - - - - - - - - - - - - - - -
 72
65
 73
2
 40
0.2
 49
0.1
 49
-0.1
  0
LTYPE
  2
PHANTOM
 70
64
  3
_____ _ _ _____ _ _ _____ _ _ _____
 72
65
 73
6
 40
0.8
 49
0.45
 49
-0.05
 49
0.1
 49
-0.05
 49
0.1
 49
-0.05
  0
LTYPE
  2
DOT
 70
64
  3
. . . . . . . . . . . . . . . . . . . .
 72
65
 73
2
 40
0.2
 49
0.1
 49
-0.1
  0
LTYPE
  2
DASHED
 70
64
  3
- - - - - - - - - - - - - - - - - - - -
 72
65
 73
2
 40
0.2
 49
0.1
 49
-0.1
  0
ENDTAB
  0
TABLE
  2
LAYER
 70
36
  0
LAYER
  2
0
 70
0
 62
7
  6
CONTINUOUS
  0
LAYER
  2
DEFAULT_1
 70
0
 62
7
  6
CENTER
  0
LAYER
  2
DEFAULT_2
 70
0
 62
8
  6
HIDDEN
  0
LAYER
  2
DEFAULT_3
 70
0
 62
7
  6
PHANTOM
  0
LAYER
  2
3_ALL_SYMBOLS
 70
0
 62
7
  6
CONTINUOUS
  0
LAYER
  2
BLANK_PLAN
 70
0
 62
7
  6
CONTINUOUS
  0
LAYER
  2
NOTES
 70
0
 62
7
  6
CONTINUOUS
  0
ENDTAB
  0
TABLE
  2
STYLE
 70
1
  0
STYLE
  2
STANDARD
 70
0
 40
0.0
 41
0.8
 50
0.0
 71
0
 42
0.2
  3
txt
  4

  0
STYLE
  2
TEXTSTYLE_1
 70
0
 40
0.0
 41
0.8
 50
0.0
 71
0
 42
0.2
  3
gdt
  4

  0
STYLE
  2
TEXTSTYLE_2
 70
0
 40
0.0
 41
0.6
 50
0.0
 71
0
 42
0.2
  3
txt
  4

  0
STYLE
  2
TEXTSTYLE_3
 70
0
 40
0.0
 41
1.0
 50
0.0
 71
0
 42
0.2
  3
ftb_____.ttf
  4

  0
STYLE
  2
TEXTSTYLE_4
 70
0
 40
0.0
 41
1.0
 50
0.0
 71
0
 42
0.2
  3
fti_____.ttf
  4

  0
STYLE
  2
TEXTSTYLE_5
 70
0
 40
0.0
 41
1.0
 50
0.0
 71
0
 42
0.2
  3
frutiger light.ttf
  4

  0
STYLE
  2
TEXTSTYLE_6
 70
0
 40
0.0
 41
0.7
 50
0.0
 71
0
 42
0.2
  3
txt
  4

  0
STYLE
  2
TEXTSTYLE_7
 70
0
 40
0.0
 41
0.32
 50
0.0
 71
0
 42
0.2
  3
txt
  4

  0
ENDTAB
  0
ENDSEC
  0
SECTION
  2
BLOCKS
  0
BLOCK
  8
0
 62
2
  6
CONTINUOUS
  2
SYMBOL_5_BL1
 70
64
 10
382.7840918555
 20
35.5067593403
  0
TEXT
  8
0
 62
7
  6
CONTINUOUS
 10
373.842376864
 20
30.5995157174
  7
TEXTSTYLE_4
 40
1.0655737705
  1
The brand for plastic modular belts and chains
 41
1.0
 72
0
  0
LINE
  8
0
 62
7
  6
CONTINUOUS
 10
358.7621602445
 20
36.0805298321
 11
358.7621602445
 21
33.9493822911
  0
LINE
  8
0
 62
7
  6
CONTINUOUS
 10
359.0512227376
 20
30.9584509954
 11
359.0512227376
 21
31.0552420547
  0
LINE
  8
0
 62
7
  6
CONTINUOUS
 10
358.7621602445
 20
31.0229783683
 11
358.8199727462
 21
30.8293962497
  0
LINE
  8
0
 62
7
  6
CONTINUOUS
 10
360.1556028675
 20
33.867415078
 11
360.1556028675
 21
36.0805298321
  0
LINE
  8
0
 62
7
  6
CONTINUOUS
 10
361.0746601894
 20
32.0231527829
 11
361.0746601894
 21
30.5067593403
  0
LINE
  8
0
 62
7
  6
CONTINUOUS
 10
361.3637227445
 20
30.5067593403
 11
361.3637227445
 21
31.2488242184
  0
LINE
  8
0
 62
7
  6
CONTINUOUS
 10
361.3637227445
 20
31.3778789641
 11
361.3637227445
 21
32.0231527829
  0
LINE
  8
0
 62
7
  6
CONTINUOUS
 10
358.8199727462
 20
31.216560532
 11
358.7621602445
 21
31.0229783683
  0
LINE
  8
0
 62
7
  6
CONTINUOUS
 10
359.1668477307
 20
30.7971325633
 11
359.0512227376
 21
30.9584509954
  0
LINE
  8
0
 62
7
  6
CONTINUOUS
 10
360.2652852997
 20
31.3133515913
 11
360.3230977445
 21
31.216560532
  0
LINE
  8
0
 62
7
  6
CONTINUOUS
 10
360.6121602997
 20
31.216560532
 11
360.5543476894
 21
31.3456152777
  0
LINE
  8
0
 62
7
  6
CONTINUOUS
 10
362.0408487691
 20
36.0805298321
 11
362.0408487691
 21
34.2772511436
  0
LINE
  8
0
 62
7
  6
CONTINUOUS
 10
362.0408487691
 20
32.9657757338
 11
362.0408487691
 21
32.3100380288
  0
LINE
  8
0
 62
7
  6
CONTINUOUS
 10
362.4043477445
 20
31.1520331591
 11
362.4043477445
 21
30.5067593403
  0
LINE
  8
0
 62
7
  6
CONTINUOUS
 10
362.6934101343
 20
30.5067593403
 11
362.6934101343
 21
31.1520331591
  0
LINE
  8
0
 62
7
  6
CONTINUOUS
 10
359.0512227376
 20
31.0552420547
 11
359.1090352445
 21
31.1842968456
  0
LINE
  8
0
 62
7
  6
CONTINUOUS
 10
358.8199727462
 20
30.8293962497
 11
358.9355977445
 21
30.7003414814
  0
LINE
  8
0
 62
7
  6
CONTINUOUS
 10
362.3465351343
 20
31.2810879048
 11
362.4043477445
 21
31.1520331591
  0
LINE
  8
0
 62
7
  6
CONTINUOUS
 10
363.1559103548
 20
30.7971325633
 11
363.2137226343
 21
30.668077795
  0
LINE
  8
0
 62
7
  6
CONTINUOUS
 10
362.6934101343
 20
31.1520331591
 11
362.6355978548
 21
31.3133515913
  0
LINE
  8
0
 62
7
  6
CONTINUOUS
 10
363.1559103548
 20
31.3456152777
 11
363.1559103548
 21
31.2810879048
  0
LINE
  8
0
 62
7
  6
CONTINUOUS
 10
363.1559103548
 20
30.8939236226
 11
363.1559103548
 21
30.7971325633
  0
LINE
  8
0
 62
7
  6
CONTINUOUS
 10
363.4342913921
 20
32.3100380288
 11
363.4342913921
 21
36.0805298321
  0
LINE
  8
0
 62
7
  6
CONTINUOUS
 10
363.4449727445
 20
30.7648688543
 11
363.4449727445
 21
30.8293962497
  0
LINE
  8
0
 62
7
  6
CONTINUOUS
 10
363.7621602445
 20
36.0805298321
 11
363.7621602445
 21
32.3100380288
  0
LINE
  8
0
 62
7
  6
CONTINUOUS
 10
360.5543476894
 20
30.7003414814
 11
360.6121602997
 21
30.8293962497
  0
LINE
  8
0
 62
7
  6
CONTINUOUS
 10
364.9480979651
 20
30.6035504109
 11
364.890285024
 21
30.7648688543
  0
LINE
  8
0
 62
7
  6
CONTINUOUS
 10
364.6012229651
 20
31.2810879048
 11
364.6012229651
 21
31.1842968456
  0
LINE
  8
0
 62
7
  6
CONTINUOUS
 10
364.6012229651
 20
31.0552420547
 11
364.6012229651
 21
30.8616599362
  0
LINE
  8
0
 62
7
  6
CONTINUOUS
 10
364.890285024
 20
30.7648688543
 11
364.890285024
 21
31.2810879048
  0
LINE
  8
0
 62
7
  6
CONTINUOUS
 10
365.1556028675
 20
32.3100380288
 11
365.1556028675
 21
34.1133167174
  0
LINE
  8
0
 62
7
  6
CONTINUOUS
 10
365.1556028675
 20
35.4247921272
 11
365.1556028675
 21
36.0805298321
  0
LINE
  8
0
 62
7
  6
CONTINUOUS
 10
365.4684104651
 20
32.0231527829
 11
365.4684104651
 21
31.8618343508
  0
LINE
  8
0
 62
7
  6
CONTINUOUS
 10
365.4684104651
 20
31.5391973962
 11
365.4684104651
 21
30.5067593403
  0
LINE
  8
0
 62
7
  6
CONTINUOUS
 10
365.757472524
 20
30.5067593403
 11
365.757472524
 21
31.5391973962
  0
LINE
  8
0
 62
7
  6
CONTINUOUS
 10
365.757472524
 20
31.8618343508
 11
365.757472524
 21
32.0231527829
  0
LINE
  8
0
 62
7
  6
CONTINUOUS
 10
360.3230977445
 20
30.8293962497
 11
360.2652852997
 21
30.7326051679
  0
LINE
  8
0
 62
7
  6
CONTINUOUS
 10
362.6355978548
 20
31.3133515913
 11
362.5777852445
 21
31.3778789641
  0
LINE
  8
0
 62
7
  6
CONTINUOUS
 10
363.5027853548
 20
30.7003414814
 11
363.4449727445
 21
30.7648688543
  0
LINE
  8
0
 62
7
  6
CONTINUOUS
 10
364.6590352445
 20
30.5712867188
 11
364.716847524
 21
30.5067593403
  0
LINE
  8
0
 62
7
  6
CONTINUOUS
 10
364.6012229651
 20
30.668077795
 11
364.6590352445
 21
30.5712867188
  0
LINE
  8
0
 62
7
  6
CONTINUOUS
 10
365.0059102445
 20
30.5067593403
 11
364.9480979651
 21
30.6035504109
  0
LINE
  8
0
 62
7
  6
CONTINUOUS
 10
364.890285024
 20
31.2810879048
 11
364.8324727445
 21
31.3778789641
  0
LINE
  8
0
 62
7
  6
CONTINUOUS
 10
366.2199727445
 20
31.5391973962
 11
366.2199727445
 21
30.5067593403
  0
LINE
  8
0
 62
7
  6
CONTINUOUS
 10
366.5090354651
 20
30.5067593403
 11
366.5090354651
 21
31.2488242184
  0
LINE
  8
0
 62
7
  6
CONTINUOUS
 10
366.5090354651
 20
31.3778789641
 11
366.5090354651
 21
31.5391973962
  0
LINE
  8
0
 62
7
  6
CONTINUOUS
 10
367.0408487691
 20
34.5231527829
 11
367.0408487691
 21
32.3100380288
  0
LINE
  8
0
 62
7
  6
CONTINUOUS
 10
358.9355977445
 20
31.3456152777
 11
358.8199727462
 21
31.216560532
  0
LINE
  8
0
 62
7
  6
CONTINUOUS
 10
359.1090352445
 20
31.1842968456
 11
359.1668477307
 21
31.2488242184
  0
LINE
  8
0
 62
7
  6
CONTINUOUS
 10
358.9355977445
 20
30.7003414814
 11
359.0512227376
 21
30.6358140973
  0
LINE
  8
0
 62
7
  6
CONTINUOUS
 10
359.3402852307
 20
30.7003414814
 11
359.1668477307
 21
30.7971325633
  0
LINE
  8
0
 62
7
  6
CONTINUOUS
 10
364.543410024
 20
31.3456152777
 11
364.6012229651
 21
31.2810879048
  0
LINE
  8
0
 62
7
  6
CONTINUOUS
 10
367.491847524
 20
31.2810879048
 11
367.5496604651
 21
31.1197694727
  0
LINE
  8
0
 62
7
  6
CONTINUOUS
 10
367.838722524
 20
31.1197694727
 11
367.7809102445
 21
31.2810879048
  0
LINE
  8
0
 62
7
  6
CONTINUOUS
 10
367.5496604651
 20
31.1197694727
 11
367.5496604651
 21
30.5067593403
  0
LINE
  8
0
 62
7
  6
CONTINUOUS
 10
367.838722524
 20
30.5067593403
 11
367.838722524
 21
31.1197694727
  0
LINE
  8
0
 62
7
  6
CONTINUOUS
 10
368.3012227445
 20
31.3456152777
 11
368.3012227445
 21
31.2810879048
  0
LINE
  8
0
 62
7
  6
CONTINUOUS
 10
368.4342913921
 20
32.3100380288
 11
368.4342913921
 21
34.4411855698
  0
LINE
  8
0
 62
7
  6
CONTINUOUS
 10
368.7621602445
 20
36.0805298321
 11
368.7621602445
 21
32.3100380288
  0
LINE
  8
0
 62
7
  6
CONTINUOUS
 10
363.4449727445
 20
30.8293962497
 11
363.5027853548
 21
30.926187309
  0
LINE
  8
0
 62
7
  6
CONTINUOUS
 10
359.0512227376
 20
30.6358140973
 11
359.2246602583
 21
30.5712867188
  0
LINE
  8
0
 62
7
  6
CONTINUOUS
 10
360.5543476894
 20
31.3456152777
 11
360.3809101894
 21
31.4424063369
  0
LINE
  8
0
 62
7
  6
CONTINUOUS
 10
363.2137226343
 20
30.668077795
 11
363.3871601343
 21
30.5712867188
  0
LINE
  8
0
 62
7
  6
CONTINUOUS
 10
362.2309102445
 20
31.3456152777
 11
362.3465351343
 21
31.2810879048
  0
LINE
  8
0
 62
7
  6
CONTINUOUS
 10
362.5777852445
 20
31.3778789641
 11
362.4621603548
 21
31.4424063369
  0
LINE
  8
0
 62
7
  6
CONTINUOUS
 10
368.3012227445
 20
30.7648688543
 11
368.4168479651
 21
30.6358140973
  0
LINE
  8
0
 62
7
  6
CONTINUOUS
 10
368.6480977445
 20
30.7003414814
 11
368.5902854651
 21
30.7648688543
  0
LINE
  8
0
 62
7
  6
CONTINUOUS
 10
368.3012227445
 20
31.2810879048
 11
368.4168479651
 21
31.1520331591
  0
LINE
  8
0
 62
7
  6
CONTINUOUS
 10
367.7809102445
 20
31.2810879048
 11
367.7230979651
 21
31.3778789641
  0
LINE
  8
0
 62
7
  6
CONTINUOUS
 10
370.1512223035
 20
30.7003414814
 11
370.1512223035
 21
30.7648688543
  0
LINE
  8
0
 62
7
  6
CONTINUOUS
 10
370.1556028675
 20
32.3100380288
 11
370.1556028675
 21
36.0805298321
  0
LINE
  8
0
 62
7
  6
CONTINUOUS
 10
363.2137226343
 20
31.4101426505
 11
363.1559103548
 21
31.3456152777
  0
LINE
  8
0
 62
7
  6
CONTINUOUS
 10
360.091847717
 20
31.3778789641
 11
360.2652852997
 21
31.3133515913
  0
LINE
  8
0
 62
7
  6
CONTINUOUS
 10
364.8324727445
 20
31.3778789641
 11
364.716847524
 21
31.4424063369
  0
LINE
  8
0
 62
7
  6
CONTINUOUS
 10
368.6480977445
 20
31.216560532
 11
368.5902854651
 21
31.2810879048
  0
LINE
  8
0
 62
7
  6
CONTINUOUS
 10
369.8043479651
 20
30.8293962497
 11
369.8621602445
 21
30.7648688543
  0
LINE
  8
0
 62
7
  6
CONTINUOUS
 10
370.1512223035
 20
30.7648688543
 11
370.0355977445
 21
30.8939236226
  0
LINE
  8
0
 62
7
  6
CONTINUOUS
 10
369.8043479651
 20
31.3456152777
 11
369.8621602445
 21
31.2810879048
  0
LINE
  8
0
 62
7
  6
CONTINUOUS
 10
370.1512223035
 20
31.2810879048
 11
370.0355977445
 21
31.4101426505
  0
LINE
  8
0
 62
7
  6
CONTINUOUS
 10
363.4449727445
 20
31.2810879048
 11
363.5027853548
 21
31.3456152777
  0
LINE
  8
0
 62
7
  6
CONTINUOUS
 10
363.2715352445
 20
31.0229783683
 11
363.1559103548
 21
30.8939236226
  0
LINE
  8
0
 62
7
  6
CONTINUOUS
 10
364.6012229651
 20
30.8616599362
 11
364.543410024
 21
30.7971325633
  0
LINE
  8
0
 62
7
  6
CONTINUOUS
 10
364.543410024
 20
30.6035504109
 11
364.6012229651
 21
30.668077795
  0
LINE
  8
0
 62
7
  6
CONTINUOUS
 10
363.3871601343
 20
30.5712867188
 11
363.5027853548
 21
30.5390230296
  0
LINE
  8
0
 62
7
  6
CONTINUOUS
 10
360.3809101894
 20
31.4424063369
 11
360.1496602445
 21
31.5069337098
  0
LINE
  8
0
 62
7
  6
CONTINUOUS
 10
363.7340351343
 20
30.6358140973
 11
363.5027853548
 21
30.7003414814
  0
LINE
  8
0
 62
7
  6
CONTINUOUS
 10
362.4621603548
 20
31.4424063369
 11
362.2887228548
 21
31.5069337098
  0
LINE
  8
0
 62
7
  6
CONTINUOUS
 10
364.716847524
 20
31.4424063369
 11
364.543410024
 21
31.5069337098
  0
LINE
  8
0
 62
7
  6
CONTINUOUS
 10
367.3762229651
 20
31.3456152777
 11
367.491847524
 21
31.2810879048
  0
LINE
  8
0
 62
7
  6
CONTINUOUS
 10
367.7230979651
 20
31.3778789641
 11
367.6074727445
 21
31.4424063369
  0
LINE
  8
0
 62
7
  6
CONTINUOUS
 10
359.2246602583
 20
30.5712867188
 11
359.3980977583
 21
30.5390230296
  0
LINE
  8
0
 62
7
  6
CONTINUOUS
 10
359.6871602721
 20
30.6358140973
 11
359.3402852307
 21
30.7003414814
  0
LINE
  8
0
 62
7
  6
CONTINUOUS
 10
362.1152853548
 20
31.3778789641
 11
362.2309102445
 21
31.3456152777
  0
LINE
  8
0
 62
7
  6
CONTINUOUS
 10
364.4277854651
 20
31.3778789641
 11
364.543410024
 21
31.3456152777
  0
LINE
  8
0
 62
7
  6
CONTINUOUS
 10
368.7637229651
 20
30.668077795
 11
368.6480977445
 21
30.7003414814
  0
LINE
  8
0
 62
7
  6
CONTINUOUS
 10
367.2605977445
 20
31.3778789641
 11
367.3762229651
 21
31.3456152777
  0
LINE
  8
0
 62
7
  6
CONTINUOUS
 10
368.4168479651
 20
30.6358140973
 11
368.5902854651
 21
30.5712867188
  0
LINE
  8
0
 62
7
  6
CONTINUOUS
 10
367.6074727445
 20
31.4424063369
 11
367.4340352445
 21
31.5069337098
  0
LINE
  8
0
 62
7
  6
CONTINUOUS
 10
368.8215352445
 20
31.1520331591
 11
368.6480977445
 21
31.216560532
  0
LINE
  8
0
 62
7
  6
CONTINUOUS
 10
369.6309104651
 20
30.8939236226
 11
369.8043479651
 21
30.8293962497
  0
LINE
  8
0
 62
7
  6
CONTINUOUS
 10
370.0355977445
 20
31.4101426505
 11
369.8621602445
 21
31.4746700234
  0
LINE
  8
0
 62
7
  6
CONTINUOUS
 10
368.4168479651
 20
31.1520331591
 11
368.6480977445
 21
31.0552420547
  0
LINE
  8
0
 62
7
  6
CONTINUOUS
 10
370.0355977445
 20
30.8939236226
 11
369.8043479651
 21
30.9907146818
  0
LINE
  8
0
 62
7
  6
CONTINUOUS
 10
368.5902854651
 20
31.2810879048
 11
368.6480977445
 21
31.3456152777
  0
LINE
  8
0
 62
7
  6
CONTINUOUS
 10
359.0512227376
 20
31.4101426505
 11
358.9355977445
 21
31.3456152777
  0
LINE
  8
0
 62
7
  6
CONTINUOUS
 10
359.1668477307
 20
31.2488242184
 11
359.3402852307
 21
31.3456152777
  0
LINE
  8
0
 62
7
  6
CONTINUOUS
 10
361.4793477997
 20
31.4424063369
 11
361.3637227445
 21
31.3778789641
  0
LINE
  8
0
 62
7
  6
CONTINUOUS
 10
361.3637227445
 20
31.2488242184
 11
361.4793477997
 21
31.3133515913
  0
LINE
  8
0
 62
7
  6
CONTINUOUS
 10
360.3809101894
 20
30.6035504109
 11
360.5543476894
 21
30.7003414814
  0
LINE
  8
0
 62
7
  6
CONTINUOUS
 10
359.3980977583
 20
30.5390230296
 11
359.744972717
 21
30.5067593403
  0
LINE
  8
0
 62
7
  6
CONTINUOUS
 10
363.5027853548
 20
30.5390230296
 11
363.7340351343
 21
30.5067593403
  0
LINE
  8
0
 62
7
  6
CONTINUOUS
 10
361.8840352445
 20
31.4101426505
 11
362.1152853548
 21
31.3778789641
  0
LINE
  8
0
 62
7
  6
CONTINUOUS
 10
364.1965353548
 20
31.4101426505
 11
364.4277854651
 21
31.3778789641
  0
LINE
  8
0
 62
7
  6
CONTINUOUS
 10
368.6480977445
 20
31.0552420547
 11
369.6309104651
 21
30.8939236226
  0
LINE
  8
0
 62
7
  6
CONTINUOUS
 10
369.8043479651
 20
30.9907146818
 11
368.8215352445
 21
31.1520331591
  0
LINE
  8
0
 62
7
  6
CONTINUOUS
 10
362.2887228548
 20
31.5069337098
 11
362.1152853548
 21
31.5391973962
  0
LINE
  8
0
 62
7
  6
CONTINUOUS
 10
368.5902854651
 20
30.5712867188
 11
368.7637229651
 21
30.5390230296
  0
LINE
  8
0
 62
7
  6
CONTINUOUS
 10
367.4340352445
 20
31.5069337098
 11
367.2605977445
 21
31.5391973962
  0
LINE
  8
0
 62
7
  6
CONTINUOUS
 10
369.6887227445
 20
31.3778789641
 11
369.8043479651
 21
31.3456152777
  0
LINE
  8
0
 62
7
  6
CONTINUOUS
 10
369.8621602445
 20
30.7648688543
 11
369.8043479651
 21
30.7003414814
  0
LINE
  8
0
 62
7
  6
CONTINUOUS
 10
368.4168479651
 20
31.4424063369
 11
368.3012227445
 21
31.3456152777
  0
LINE
  8
0
 62
7
  6
CONTINUOUS
 10
363.3293478548
 20
31.4746700234
 11
363.2137226343
 21
31.4101426505
  0
LINE
  8
0
 62
7
  6
CONTINUOUS
 10
363.3871601343
 20
31.0875057863
 11
363.2715352445
 21
31.0229783683
  0
LINE
  8
0
 62
7
  6
CONTINUOUS
 10
363.5027853548
 20
30.926187309
 11
363.6184102445
 21
30.9907146818
  0
LINE
  8
0
 62
7
  6
CONTINUOUS
 10
361.0746601894
 20
30.5067593403
 11
361.3637227445
 21
30.5067593403
  0
LINE
  8
0
 62
7
  6
CONTINUOUS
 10
362.4043477445
 20
30.5067593403
 11
362.6934101343
 21
30.5067593403
  0
LINE
  8
0
 62
7
  6
CONTINUOUS
 10
363.7340351343
 20
30.5067593403
 11
364.0809101343
 21
30.5067593403
  0
LINE
  8
0
 62
7
  6
CONTINUOUS
 10
364.716847524
 20
30.5067593403
 11
365.0059102445
 21
30.5067593403
  0
LINE
  8
0
 62
7
  6
CONTINUOUS
 10
365.4684104651
 20
30.5067593403
 11
365.757472524
 21
30.5067593403
  0
LINE
  8
0
 62
7
  6
CONTINUOUS
 10
366.2199727445
 20
30.5067593403
 11
366.5090354651
 21
30.5067593403
  0
LINE
  8
0
 62
7
  6
CONTINUOUS
 10
367.5496604651
 20
30.5067593403
 11
367.838722524
 21
30.5067593403
  0
LINE
  8
0
 62
7
  6
CONTINUOUS
 10
369.1105979651
 20
30.5067593403
 11
369.4574729651
 21
30.5067593403
  0
LINE
  8
0
 62
7
  6
CONTINUOUS
 10
369.4574729651
 20
30.6358140973
 11
369.1105979651
 21
30.6358140973
  0
LINE
  8
0
 62
7
  6
CONTINUOUS
 10
364.0809101343
 20
30.6358140973
 11
363.7340351343
 21
30.6358140973
  0
LINE
  8
0
 62
7
  6
CONTINUOUS
 10
368.5902854651
 20
30.7648688543
 11
368.3012227445
 21
30.7648688543
  0
LINE
  8
0
 62
7
  6
CONTINUOUS
 10
360.6121602997
 20
30.8293962497
 11
360.3230977445
 21
30.8293962497
  0
LINE
  8
0
 62
7
  6
CONTINUOUS
 10
359.6871602721
 20
31.4101426505
 11
360.091847717
 21
31.3778789641
  0
LINE
  8
0
 62
7
  6
CONTINUOUS
 10
360.1496602445
 20
31.5069337098
 11
359.744972717
 21
31.5391973962
  0
LINE
  8
0
 62
7
  6
CONTINUOUS
 10
368.7637229651
 20
30.5390230296
 11
369.1105979651
 21
30.5067593403
  0
LINE
  8
0
 62
7
  6
CONTINUOUS
 10
369.1105979651
 20
30.6358140973
 11
368.7637229651
 21
30.668077795
  0
LINE
  8
0
 62
7
  6
CONTINUOUS
 10
364.543410024
 20
31.5069337098
 11
364.1965353548
 21
31.5391973962
  0
LINE
  8
0
 62
7
  6
CONTINUOUS
 10
369.3418477445
 20
31.4101426505
 11
369.6887227445
 21
31.3778789641
  0
LINE
  8
0
 62
7
  6
CONTINUOUS
 10
369.6887227445
 20
31.5069337098
 11
369.3418477445
 21
31.5391973962
  0
LINE
  8
0
 62
7
  6
CONTINUOUS
 10
367.0293479651
 20
31.4101426505
 11
367.2605977445
 21
31.3778789641
  0
LINE
  8
0
 62
7
  6
CONTINUOUS
 10
369.8621602445
 20
31.4746700234
 11
369.6887227445
 21
31.5069337098
  0
LINE
  8
0
 62
7
  6
CONTINUOUS
 10
370.0355977445
 20
30.6035504109
 11
370.1512223035
 21
30.7003414814
  0
LINE
  8
0
 62
7
  6
CONTINUOUS
 10
364.543410024
 20
30.7971325633
 11
364.369972524
 21
30.7003414814
  0
LINE
  8
0
 62
7
  6
CONTINUOUS
 10
366.624660024
 20
31.4424063369
 11
366.5090354651
 21
31.3778789641
  0
LINE
  8
0
 62
7
  6
CONTINUOUS
 10
366.5090354651
 20
31.2488242184
 11
366.624660024
 21
31.3133515913
  0
LINE
  8
0
 62
7
  6
CONTINUOUS
 10
359.2246602583
 20
31.4746700234
 11
359.0512227376
 21
31.4101426505
  0
LINE
  8
0
 62
7
  6
CONTINUOUS
 10
361.6527851343
 20
31.5069337098
 11
361.4793477997
 21
31.4424063369
  0
LINE
  8
0
 62
7
  6
CONTINUOUS
 10
361.4793477997
 20
31.3133515913
 11
361.6527851343
 21
31.3778789641
  0
LINE
  8
0
 62
7
  6
CONTINUOUS
 10
360.2652852997
 20
30.7326051679
 11
360.091847717
 21
30.668077795
  0
LINE
  8
0
 62
7
  6
CONTINUOUS
 10
369.6887227445
 20
30.668077795
 11
369.4574729651
 21
30.6358140973
  0
LINE
  8
0
 62
7
  6
CONTINUOUS
 10
364.0809101343
 20
30.5067593403
 11
364.369972524
 21
30.5390230296
  0
LINE
  8
0
 62
7
  6
CONTINUOUS
 10
369.4574729651
 20
30.5067593403
 11
369.8043479651
 21
30.5390230296
  0
LINE
  8
0
 62
7
  6
CONTINUOUS
 10
359.744972717
 20
30.5067593403
 11
360.1496602445
 21
30.5390230296
  0
LINE
  8
0
 62
7
  6
CONTINUOUS
 10
360.091847717
 20
30.668077795
 11
359.6871602721
 21
30.6358140973
  0
LINE
  8
0
 62
7
  6
CONTINUOUS
 10
363.9652852445
 20
31.0552420547
 11
364.6012229651
 21
31.0552420547
  0
LINE
  8
0
 62
7
  6
CONTINUOUS
 10
364.6012229651
 20
31.1842968456
 11
363.9652852445
 21
31.1842968456
  0
LINE
  8
0
 62
7
  6
CONTINUOUS
 10
360.3230977445
 20
31.216560532
 11
360.6121602997
 21
31.216560532
  0
LINE
  8
0
 62
7
  6
CONTINUOUS
 10
363.1559103548
 20
31.2810879048
 11
363.4449727445
 21
31.2810879048
  0
LINE
  8
0
 62
7
  6
CONTINUOUS
 10
369.8621602445
 20
31.2810879048
 11
370.1512223035
 21
31.2810879048
  0
LINE
  8
0
 62
7
  6
CONTINUOUS
 10
363.8496603548
 20
31.4101426505
 11
364.1965353548
 21
31.4101426505
  0
LINE
  8
0
 62
7
  6
CONTINUOUS
 10
368.9949727445
 20
31.4101426505
 11
369.3418477445
 21
31.4101426505
  0
LINE
  8
0
 62
7
  6
CONTINUOUS
 10
369.3418477445
 20
31.5391973962
 11
368.9949727445
 21
31.5391973962
  0
LINE
  8
0
 62
7
  6
CONTINUOUS
 10
367.2605977445
 20
31.5391973962
 11
367.0293479651
 21
31.5391973962
  0
LINE
  8
0
 62
7
  6
CONTINUOUS
 10
366.5090354651
 20
31.5391973962
 11
366.2199727445
 21
31.5391973962
  0
LINE
  8
0
 62
7
  6
CONTINUOUS
 10
365.757472524
 20
31.5391973962
 11
365.4684104651
 21
31.5391973962
  0
LINE
  8
0
 62
7
  6
CONTINUOUS
 10
364.1965353548
 20
31.5391973962
 11
363.8496603548
 21
31.5391973962
  0
LINE
  8
0
 62
7
  6
CONTINUOUS
 10
362.1152853548
 20
31.5391973962
 11
361.8840352445
 21
31.5391973962
  0
LINE
  8
0
 62
7
  6
CONTINUOUS
 10
365.4684104651
 20
31.8618343508
 11
365.757472524
 21
31.8618343508
  0
LINE
  8
0
 62
7
  6
CONTINUOUS
 10
365.757472524
 20
32.0231527829
 11
365.4684104651
 21
32.0231527829
  0
LINE
  8
0
 62
7
  6
CONTINUOUS
 10
361.3637227445
 20
32.0231527829
 11
361.0746601894
 21
32.0231527829
  0
LINE
  8
0
 62
7
  6
CONTINUOUS
 10
360.4015045068
 20
32.3100380288
 11
360.8140758554
 21
32.3100380288
  0
LINE
  8
0
 62
7
  6
CONTINUOUS
 10
362.0408487691
 20
32.3100380288
 11
363.4342913921
 21
32.3100380288
  0
LINE
  8
0
 62
7
  6
CONTINUOUS
 10
363.7621602445
 20
32.3100380288
 11
365.1556028675
 21
32.3100380288
  0
LINE
  8
0
 62
7
  6
CONTINUOUS
 10
367.0408487691
 20
32.3100380288
 11
368.4342913921
 21
32.3100380288
  0
LINE
  8
0
 62
7
  6
CONTINUOUS
 10
368.7621602445
 20
32.3100380288
 11
370.1556028675
 21
32.3100380288
  0
LINE
  8
0
 62
7
  6
CONTINUOUS
 10
366.798097524
 20
31.5069337098
 11
366.624660024
 21
31.4424063369
  0
LINE
  8
0
 62
7
  6
CONTINUOUS
 10
364.369972524
 20
30.5390230296
 11
364.543410024
 21
30.6035504109
  0
LINE
  8
0
 62
7
  6
CONTINUOUS
 10
369.8043479651
 20
30.5390230296
 11
370.0355977445
 21
30.6035504109
  0
LINE
  8
0
 62
7
  6
CONTINUOUS
 10
369.8043479651
 20
30.7003414814
 11
369.6887227445
 21
30.668077795
  0
LINE
  8
0
 62
7
  6
CONTINUOUS
 10
368.7637229651
 20
31.3778789641
 11
368.9949727445
 21
31.4101426505
  0
LINE
  8
0
 62
7
  6
CONTINUOUS
 10
366.798097524
 20
31.3778789641
 11
367.0293479651
 21
31.4101426505
  0
LINE
  8
0
 62
7
  6
CONTINUOUS
 10
363.7340351343
 20
31.0229783683
 11
363.9652852445
 21
31.0552420547
  0
LINE
  8
0
 62
7
  6
CONTINUOUS
 10
367.0293479651
 20
31.5391973962
 11
366.798097524
 21
31.5069337098
  0
LINE
  8
0
 62
7
  6
CONTINUOUS
 10
363.6184102445
 20
31.3778789641
 11
363.8496603548
 21
31.4101426505
  0
LINE
  8
0
 62
7
  6
CONTINUOUS
 10
368.9949727445
 20
31.5391973962
 11
368.6480977445
 21
31.5069337098
  0
LINE
  8
0
 62
7
  6
CONTINUOUS
 10
363.9652852445
 20
31.1842968456
 11
363.6184102445
 21
31.1520331591
  0
LINE
  8
0
 62
7
  6
CONTINUOUS
 10
359.744972717
 20
31.5391973962
 11
359.3980977583
 21
31.5069337098
  0
LINE
  8
0
 62
7
  6
CONTINUOUS
 10
363.8496603548
 20
31.5391973962
 11
363.4449727445
 21
31.5069337098
  0
LINE
  8
0
 62
7
  6
CONTINUOUS
 10
361.221176638
 20
33.4575790124
 11
360.565438933
 21
33.4575790124
  0
LINE
  8
0
 62
7
  6
CONTINUOUS
 10
366.624660024
 20
31.3133515913
 11
366.798097524
 21
31.3778789641
  0
LINE
  8
0
 62
7
  6
CONTINUOUS
 10
368.6480977445
 20
31.3456152777
 11
368.7637229651
 21
31.3778789641
  0
LINE
  8
0
 62
7
  6
CONTINUOUS
 10
368.6480977445
 20
31.5069337098
 11
368.4168479651
 21
31.4424063369
  0
LINE
  8
0
 62
7
  6
CONTINUOUS
 10
364.369972524
 20
30.7003414814
 11
364.0809101343
 21
30.6358140973
  0
LINE
  8
0
 62
7
  6
CONTINUOUS
 10
361.6527851343
 20
31.3778789641
 11
361.8840352445
 21
31.4101426505
  0
LINE
  8
0
 62
7
  6
CONTINUOUS
 10
361.8840352445
 20
31.5391973962
 11
361.6527851343
 21
31.5069337098
  0
LINE
  8
0
 62
7
  6
CONTINUOUS
 10
359.4559102445
 20
31.3778789641
 11
359.6871602721
 21
31.4101426505
  0
LINE
  8
0
 62
7
  6
CONTINUOUS
 10
365.9752749986
 20
34.9329888485
 11
366.6310127035
 21
34.9329888485
  0
LINE
  8
0
 62
7
  6
CONTINUOUS
 10
363.6184102445
 20
30.9907146818
 11
363.7340351343
 21
31.0229783683
  0
LINE
  8
0
 62
7
  6
CONTINUOUS
 10
363.6184102445
 20
31.1520331591
 11
363.3871601343
 21
31.0875057863
  0
LINE
  8
0
 62
7
  6
CONTINUOUS
 10
363.5027853548
 20
31.3456152777
 11
363.6184102445
 21
31.3778789641
  0
LINE
  8
0
 62
7
  6
CONTINUOUS
 10
360.1496602445
 20
30.5390230296
 11
360.3809101894
 21
30.6035504109
  0
LINE
  8
0
 62
7
  6
CONTINUOUS
 10
363.4449727445
 20
31.5069337098
 11
363.3293478548
 21
31.4746700234
  0
LINE
  8
0
 62
7
  6
CONTINUOUS
 10
359.3980977583
 20
31.5069337098
 11
359.2246602583
 21
31.4746700234
  0
LINE
  8
0
 62
7
  6
CONTINUOUS
 10
370.1556028675
 20
36.0805298321
 11
368.7621602445
 21
36.0805298321
  0
LINE
  8
0
 62
7
  6
CONTINUOUS
 10
366.7949471298
 20
36.0805298321
 11
366.3823757812
 21
36.0805298321
  0
LINE
  8
0
 62
7
  6
CONTINUOUS
 10
365.1556028675
 20
36.0805298321
 11
363.7621602445
 21
36.0805298321
  0
LINE
  8
0
 62
7
  6
CONTINUOUS
 10
363.4342913921
 20
36.0805298321
 11
362.0408487691
 21
36.0805298321
  0
LINE
  8
0
 62
7
  6
CONTINUOUS
 10
360.1556028675
 20
36.0805298321
 11
358.7621602445
 21
36.0805298321
  0
LINE
  8
0
 62
7
  6
CONTINUOUS
 10
359.3402852307
 20
31.3456152777
 11
359.4559102445
 21
31.3778789641
  0
CIRCLE
  8
0
 62
7
  6
CONTINUOUS
 10
369.458881556
 20
38.4165954059
 40
2.0901639344
  0
ARC
  8
0
 62
7
  6
CONTINUOUS
 10
360.4015045068
 20
33.9493822911
 40
1.6393442623
 50
180.0
 51
270.0
  0
ARC
  8
0
 62
7
  6
CONTINUOUS
 10
366.7949471298
 20
34.4411855698
 40
1.6393442623
 50
0.0
 51
90.0
  0
ARC
  8
0
 62
7
  6
CONTINUOUS
 10
360.8140758554
 20
33.7854478649
 40
1.4754098361
 50
270.0
 51
326.2510114041
  0
ARC
  8
0
 62
7
  6
CONTINUOUS
 10
366.3823757812
 20
34.6051199961
 40
1.4754098361
 50
90.0
 51
146.2510114041
  0
ARC
  8
0
 62
7
  6
CONTINUOUS
 10
361.221176638
 20
34.2772511436
 40
0.8196721311
 50
270.0
 51
360.0
  0
ARC
  8
0
 62
7
  6
CONTINUOUS
 10
365.9752749986
 20
34.1133167174
 40
0.8196721311
 50
90.0
 51
180.0
  0
ARC
  8
0
 62
7
  6
CONTINUOUS
 10
360.565438933
 20
33.867415078
 40
0.4098360656
 50
180.0
 51
270.0
  0
ARC
  8
0
 62
7
  6
CONTINUOUS
 10
366.6310127035
 20
34.5231527829
 40
0.4098360656
 50
0.0
 51
90.0
  0
SOLID
  8
0
 62
7
  6
CONTINUOUS
 10
365.4684104651
 20
31.8618347111
 11
365.4684104651
 21
32.0231531947
 12
365.757472524
 22
31.8618347111
 13
365.757472524
 23
32.0231531947
  0
SOLID
  8
0
 62
7
  6
CONTINUOUS
 10
359.744972717
 20
31.5391977439
 11
360.1496602445
 21
31.5069333244
 12
359.3980977583
 22
31.5069333244
 13
359.3980977583
 23
31.5069333244
  0
SOLID
  8
0
 62
7
  6
CONTINUOUS
 10
359.2246602583
 20
31.4746706537
 11
359.3980977583
 21
31.5069333244
 12
360.1496602445
 22
31.5069333244
 13
360.1496602445
 23
31.5069333244
  0
SOLID
  8
0
 62
7
  6
CONTINUOUS
 10
360.1496602445
 20
31.5069333244
 11
360.3809101894
 21
31.4424063504
 12
359.2246602583
 22
31.4746706537
 13
359.2246602583
 23
31.4746706537
  0
SOLID
  8
0
 62
7
  6
CONTINUOUS
 10
359.0512227376
 20
31.4101419116
 11
359.2246602583
 21
31.4746706537
 12
360.3809101894
 22
31.4424063504
 13
360.3809101894
 23
31.4424063504
  0
SOLID
  8
0
 62
7
  6
CONTINUOUS
 10
359.0512227376
 20
31.4101419116
 11
360.3809101894
 21
31.4424063504
 12
359.6871602721
 22
31.4101419116
 13
359.6871602721
 23
31.4101419116
  0
SOLID
  8
0
 62
7
  6
CONTINUOUS
 10
359.6871602721
 20
31.4101419116
 11
360.3809101894
 21
31.4424063504
 12
360.091847717
 22
31.3778792603
 13
360.091847717
 23
31.3778792603
  0
SOLID
  8
0
 62
7
  6
CONTINUOUS
 10
360.3809101894
 20
31.4424063504
 11
360.5543476894
 21
31.345614957
 12
360.091847717
 22
31.3778792603
 13
360.091847717
 23
31.3778792603
  0
SOLID
  8
0
 62
7
  6
CONTINUOUS
 10
360.2652852997
 20
31.3133521701
 11
360.091847717
 21
31.3778792603
 12
360.5543476894
 22
31.345614957
 13
360.5543476894
 23
31.345614957
  0
SOLID
  8
0
 62
7
  6
CONTINUOUS
 10
360.2652852997
 20
31.3133521701
 11
360.5543476894
 21
31.345614957
 12
360.3230977445
 22
31.2165606992
 13
360.3230977445
 23
31.2165606992
  0
SOLID
  8
0
 62
7
  6
CONTINUOUS
 10
360.5543476894
 20
31.345614957
 11
360.6121602997
 21
31.2165606992
 12
360.3230977445
 22
31.2165606992
 13
360.3230977445
 23
31.2165606992
  0
SOLID
  8
0
 62
7
  6
CONTINUOUS
 10
361.6527851343
 20
31.5069329918
 11
361.8840352445
 21
31.5391972951
 12
362.1152853548
 22
31.5391972951
 13
362.1152853548
 23
31.5391972951
  0
SOLID
  8
0
 62
7
  6
CONTINUOUS
 10
362.1152853548
 20
31.5391972951
 11
362.2887228548
 21
31.5069329918
 12
361.6527851343
 22
31.5069329918
 13
361.6527851343
 23
31.5069329918
  0
SOLID
  8
0
 62
7
  6
CONTINUOUS
 10
361.4793477997
 20
31.4424059016
 11
361.6527851343
 21
31.5069329918
 12
362.2887228548
 22
31.5069329918
 13
362.2887228548
 23
31.5069329918
  0
SOLID
  8
0
 62
7
  6
CONTINUOUS
 10
362.2887228548
 20
31.5069329918
 11
362.4621603548
 21
31.4424059016
 12
361.4793477997
 22
31.4424059016
 13
361.4793477997
 23
31.4424059016
  0
SOLID
  8
0
 62
7
  6
CONTINUOUS
 10
362.4621603548
 20
31.4424059016
 11
361.8840352445
 21
31.4101420472
 12
361.4793477997
 22
31.4424059016
 13
361.4793477997
 23
31.4424059016
  0
SOLID
  8
0
 62
7
  6
CONTINUOUS
 10
361.3637227445
 20
31.3778788115
 11
361.4793477997
 21
31.4424059016
 12
361.8840352445
 22
31.4101420472
 13
361.8840352445
 23
31.4101420472
  0
SOLID
  8
0
 62
7
  6
CONTINUOUS
 10
361.8840352445
 20
31.4101420472
 11
361.6527851343
 21
31.3778788115
 12
361.3637227445
 22
31.3778788115
 13
361.3637227445
 23
31.3778788115
  0
SOLID
  8
0
 62
7
  6
CONTINUOUS
 10
361.8840352445
 20
31.4101420472
 11
362.4621603548
 21
31.4424059016
 12
362.1152853548
 22
31.3778788115
 13
362.1152853548
 23
31.3778788115
  0
SOLID
  8
0
 62
7
  6
CONTINUOUS
 10
362.4621603548
 20
31.4424059016
 11
362.5777852445
 21
31.3778788115
 12
362.1152853548
 22
31.3778788115
 13
362.1152853548
 23
31.3778788115
  0
SOLID
  8
0
 62
7
  6
CONTINUOUS
 10
362.2309102445
 20
31.345614957
 11
362.1152853548
 21
31.3778788115
 12
362.5777852445
 22
31.3778788115
 13
362.5777852445
 23
31.3778788115
  0
SOLID
  8
0
 62
7
  6
CONTINUOUS
 10
362.5777852445
 20
31.3778788115
 11
362.6355978548
 21
31.3133517213
 12
362.2309102445
 22
31.345614957
 13
362.2309102445
 23
31.345614957
  0
SOLID
  8
0
 62
7
  6
CONTINUOUS
 10
362.3465351343
 20
31.2810878668
 11
362.2309102445
 21
31.345614957
 12
362.6355978548
 22
31.3133517213
 13
362.6355978548
 23
31.3133517213
  0
SOLID
  8
0
 62
7
  6
CONTINUOUS
 10
362.3465351343
 20
31.2810878668
 11
362.6355978548
 21
31.3133517213
 12
362.4043477445
 22
31.1520332377
 13
362.4043477445
 23
31.1520332377
  0
SOLID
  8
0
 62
7
  6
CONTINUOUS
 10
362.6355978548
 20
31.3133517213
 11
362.6934101343
 21
31.1520332377
 12
362.4043477445
 22
31.1520332377
 13
362.4043477445
 23
31.1520332377
  0
SOLID
  8
0
 62
7
  6
CONTINUOUS
 10
361.6527851343
 20
31.3778788115
 11
361.4793477997
 21
31.3133517213
 12
361.3637227445
 22
31.3778788115
 13
361.3637227445
 23
31.3778788115
  0
SOLID
  8
0
 62
7
  6
CONTINUOUS
 10
361.4793477997
 20
31.3133517213
 11
361.3637227445
 21
31.2488235635
 12
361.3637227445
 22
31.3778788115
 13
361.3637227445
 23
31.3778788115
  0
SOLID
  8
0
 62
7
  6
CONTINUOUS
 10
361.3637227445
 20
31.2488235635
 11
361.0746601894
 21
30.5067593033
 12
361.3637227445
 22
31.3778788115
 13
361.3637227445
 23
31.3778788115
  0
SOLID
  8
0
 62
7
  6
CONTINUOUS
 10
361.3637227445
 20
31.3778788115
 11
361.0746601894
 21
30.5067593033
 12
361.3637227445
 22
32.0231527459
 13
361.3637227445
 23
32.0231527459
  0
SOLID
  8
0
 62
7
  6
CONTINUOUS
 10
361.0746601894
 20
30.5067593033
 11
361.0746601894
 21
32.0231527459
 12
361.3637227445
 22
32.0231527459
 13
361.3637227445
 23
32.0231527459
  0
SOLID
  8
0
 62
7
  6
CONTINUOUS
 10
361.3637227445
 20
31.2488235635
 11
361.3637227445
 21
30.5067593033
 12
361.0746601894
 22
30.5067593033
 13
361.0746601894
 23
30.5067593033
  0
SOLID
  8
0
 62
7
  6
CONTINUOUS
 10
362.4043477445
 20
30.5067593033
 11
362.4043477445
 21
31.1520332377
 12
362.6934101343
 22
31.1520332377
 13
362.6934101343
 23
31.1520332377
  0
SOLID
  8
0
 62
7
  6
CONTINUOUS
 10
362.6934101343
 20
31.1520332377
 11
362.6934101343
 21
30.5067593033
 12
362.4043477445
 22
30.5067593033
 13
362.4043477445
 23
30.5067593033
  0
SOLID
  8
0
 62
7
  6
CONTINUOUS
 10
363.4449727445
 20
31.506933758
 11
363.8496603548
 21
31.5391977507
 12
364.1965353548
 22
31.5391977507
 13
364.1965353548
 23
31.5391977507
  0
SOLID
  8
0
 62
7
  6
CONTINUOUS
 10
364.1965353548
 20
31.5391977507
 11
364.543410024
 21
31.506933758
 12
363.4449727445
 22
31.506933758
 13
363.4449727445
 23
31.506933758
  0
SOLID
  8
0
 62
7
  6
CONTINUOUS
 10
363.3293478548
 20
31.4746706537
 11
363.4449727445
 21
31.506933758
 12
364.543410024
 22
31.506933758
 13
364.543410024
 23
31.506933758
  0
SOLID
  8
0
 62
7
  6
CONTINUOUS
 10
364.543410024
 20
31.506933758
 11
364.716847524
 21
31.4424063504
 12
363.3293478548
 22
31.4746706537
 13
363.3293478548
 23
31.4746706537
  0
SOLID
  8
0
 62
7
  6
CONTINUOUS
 10
363.2137226343
 20
31.4101417797
 11
363.3293478548
 21
31.4746706537
 12
364.716847524
 22
31.4424063504
 13
364.716847524
 23
31.4424063504
  0
SOLID
  8
0
 62
7
  6
CONTINUOUS
 10
363.2137226343
 20
31.4101417797
 11
364.716847524
 21
31.4424063504
 12
363.8496603548
 22
31.4101417797
 13
363.8496603548
 23
31.4101417797
  0
SOLID
  8
0
 62
7
  6
CONTINUOUS
 10
363.8496603548
 20
31.4101417797
 11
364.716847524
 21
31.4424063504
 12
364.1965353548
 22
31.4101417797
 13
364.1965353548
 23
31.4101417797
  0
SOLID
  8
0
 62
7
  6
CONTINUOUS
 10
364.1965353548
 20
31.4101417797
 11
364.716847524
 21
31.4424063504
 12
364.4277854651
 22
31.3778793357
 13
364.4277854651
 23
31.3778793357
  0
SOLID
  8
0
 62
7
  6
CONTINUOUS
 10
364.716847524
 20
31.4424063504
 11
364.8324727445
 21
31.3778793357
 12
364.4277854651
 22
31.3778793357
 13
364.4277854651
 23
31.3778793357
  0
SOLID
  8
0
 62
7
  6
CONTINUOUS
 10
363.1559103548
 20
31.3456153429
 11
363.2137226343
 21
31.4101417797
 12
363.8496603548
 22
31.4101417797
 13
363.8496603548
 23
31.4101417797
  0
SOLID
  8
0
 62
7
  6
CONTINUOUS
 10
364.543410024
 20
31.3456153429
 11
364.4277854651
 21
31.3778793357
 12
364.8324727445
 22
31.3778793357
 13
364.8324727445
 23
31.3778793357
  0
SOLID
  8
0
 62
7
  6
CONTINUOUS
 10
364.543410024
 20
31.3456153429
 11
364.8324727445
 21
31.3778793357
 12
364.6012229651
 22
31.2810881318
 13
364.6012229651
 23
31.2810881318
  0
SOLID
  8
0
 62
7
  6
CONTINUOUS
 10
364.8324727445
 20
31.3778793357
 11
364.890285024
 21
31.2810881318
 12
364.6012229651
 22
31.2810881318
 13
364.6012229651
 23
31.2810881318
  0
SOLID
  8
0
 62
7
  6
CONTINUOUS
 10
364.6012229651
 20
31.1842964734
 11
364.6012229651
 21
31.2810881318
 12
364.890285024
 22
31.2810881318
 13
364.890285024
 23
31.2810881318
  0
SOLID
  8
0
 62
7
  6
CONTINUOUS
 10
364.6012229651
 20
31.1842964734
 11
364.890285024
 21
31.2810881318
 12
364.6012229651
 22
31.0552422931
 13
364.6012229651
 23
31.0552422931
  0
SOLID
  8
0
 62
7
  6
CONTINUOUS
 10
364.6012229651
 20
31.0552422931
 11
364.890285024
 21
31.2810881318
 12
364.6012229651
 22
30.8616599362
 13
364.6012229651
 23
30.8616599362
  0
SOLID
  8
0
 62
7
  6
CONTINUOUS
 10
364.890285024
 20
31.2810881318
 11
364.890285024
 21
30.7648681127
 12
364.6012229651
 22
30.8616599362
 13
364.6012229651
 23
30.8616599362
  0
SOLID
  8
0
 62
7
  6
CONTINUOUS
 10
366.798097524
 20
31.5069339419
 11
367.0293479651
 21
31.5391976292
 12
367.2605977445
 22
31.5391976292
 13
367.2605977445
 23
31.5391976292
  0
SOLID
  8
0
 62
7
  6
CONTINUOUS
 10
367.2605977445
 20
31.5391976292
 11
367.4340352445
 21
31.5069339419
 12
366.798097524
 22
31.5069339419
 13
366.798097524
 23
31.5069339419
  0
SOLID
  8
0
 62
7
  6
CONTINUOUS
 10
366.624660024
 20
31.4424065674
 11
366.798097524
 21
31.5069339419
 12
367.4340352445
 22
31.5069339419
 13
367.4340352445
 23
31.5069339419
  0
SOLID
  8
0
 62
7
  6
CONTINUOUS
 10
367.4340352445
 20
31.5069339419
 11
367.6074727445
 21
31.4424065674
 12
366.624660024
 22
31.4424065674
 13
366.624660024
 23
31.4424065674
  0
SOLID
  8
0
 62
7
  6
CONTINUOUS
 10
367.6074727445
 20
31.4424065674
 11
367.0293479651
 21
31.4101420472
 12
366.624660024
 22
31.4424065674
 13
366.624660024
 23
31.4424065674
  0
SOLID
  8
0
 62
7
  6
CONTINUOUS
 10
366.5090354651
 20
31.377879193
 11
366.624660024
 21
31.4424065674
 12
367.0293479651
 22
31.4101420472
 13
367.0293479651
 23
31.4101420472
  0
SOLID
  8
0
 62
7
  6
CONTINUOUS
 10
367.0293479651
 20
31.4101420472
 11
366.798097524
 21
31.377879193
 12
366.5090354651
 22
31.377879193
 13
366.5090354651
 23
31.377879193
  0
SOLID
  8
0
 62
7
  6
CONTINUOUS
 10
367.0293479651
 20
31.4101420472
 11
367.6074727445
 21
31.4424065674
 12
367.2605977445
 22
31.377879193
 13
367.2605977445
 23
31.377879193
  0
SOLID
  8
0
 62
7
  6
CONTINUOUS
 10
367.6074727445
 20
31.4424065674
 11
367.7230979651
 21
31.377879193
 12
367.2605977445
 22
31.377879193
 13
367.2605977445
 23
31.377879193
  0
SOLID
  8
0
 62
7
  6
CONTINUOUS
 10
367.3762229651
 20
31.345614957
 11
367.2605977445
 21
31.377879193
 12
367.7230979651
 22
31.377879193
 13
367.7230979651
 23
31.377879193
  0
SOLID
  8
0
 62
7
  6
CONTINUOUS
 10
367.3762229651
 20
31.345614957
 11
367.7230979651
 21
31.377879193
 12
367.491847524
 22
31.2810881312
 13
367.491847524
 23
31.2810881312
  0
SOLID
  8
0
 62
7
  6
CONTINUOUS
 10
367.7230979651
 20
31.377879193
 11
367.7809102445
 21
31.2810881312
 12
367.491847524
 22
31.2810881312
 13
367.491847524
 23
31.2810881312
  0
SOLID
  8
0
 62
7
  6
CONTINUOUS
 10
367.5496604651
 20
31.119769695
 11
367.491847524
 21
31.2810881312
 12
367.7809102445
 22
31.2810881312
 13
367.7809102445
 23
31.2810881312
  0
SOLID
  8
0
 62
7
  6
CONTINUOUS
 10
367.7809102445
 20
31.2810881312
 11
367.838722524
 21
31.119769695
 12
367.5496604651
 22
31.119769695
 13
367.5496604651
 23
31.119769695
  0
SOLID
  8
0
 62
7
  6
CONTINUOUS
 10
366.798097524
 20
31.377879193
 11
366.624660024
 21
31.3133521701
 12
366.5090354651
 22
31.377879193
 13
366.5090354651
 23
31.377879193
  0
SOLID
  8
0
 62
7
  6
CONTINUOUS
 10
366.624660024
 20
31.3133521701
 11
366.5090354651
 21
31.2488235635
 12
366.5090354651
 22
31.377879193
 13
366.5090354651
 23
31.377879193
  0
SOLID
  8
0
 62
7
  6
CONTINUOUS
 10
366.5090354651
 20
31.2488235635
 11
366.2199727445
 21
30.5067596374
 12
366.5090354651
 22
31.377879193
 13
366.5090354651
 23
31.377879193
  0
SOLID
  8
0
 62
7
  6
CONTINUOUS
 10
366.5090354651
 20
31.377879193
 11
366.2199727445
 21
30.5067596374
 12
366.5090354651
 22
31.5391976292
 13
366.5090354651
 23
31.5391976292
  0
SOLID
  8
0
 62
7
  6
CONTINUOUS
 10
366.2199727445
 20
30.5067596374
 11
366.2199727445
 21
31.5391976292
 12
366.5090354651
 22
31.5391976292
 13
366.5090354651
 23
31.5391976292
  0
SOLID
  8
0
 62
7
  6
CONTINUOUS
 10
366.5090354651
 20
31.2488235635
 11
366.5090354651
 21
30.5067596374
 12
366.2199727445
 22
30.5067596374
 13
366.2199727445
 23
30.5067596374
  0
SOLID
  8
0
 62
7
  6
CONTINUOUS
 10
367.5496604651
 20
30.5067596374
 11
367.5496604651
 21
31.119769695
 12
367.838722524
 22
31.119769695
 13
367.838722524
 23
31.119769695
  0
SOLID
  8
0
 62
7
  6
CONTINUOUS
 10
367.838722524
 20
31.119769695
 11
367.838722524
 21
30.5067596374
 12
367.5496604651
 22
30.5067596374
 13
367.5496604651
 23
30.5067596374
  0
SOLID
  8
0
 62
7
  6
CONTINUOUS
 10
368.6480977445
 20
31.5069334157
 11
368.9949727445
 21
31.539197762
 12
369.3418477445
 22
31.539197762
 13
369.3418477445
 23
31.539197762
  0
SOLID
  8
0
 62
7
  6
CONTINUOUS
 10
369.3418477445
 20
31.539197762
 11
369.6887227445
 21
31.5069334157
 12
368.6480977445
 22
31.5069334157
 13
368.6480977445
 23
31.5069334157
  0
SOLID
  8
0
 62
7
  6
CONTINUOUS
 10
368.4168479651
 20
31.4424063504
 11
368.6480977445
 21
31.5069334157
 12
369.6887227445
 22
31.5069334157
 13
369.6887227445
 23
31.5069334157
  0
SOLID
  8
0
 62
7
  6
CONTINUOUS
 10
368.4168479651
 20
31.4424063504
 11
369.6887227445
 21
31.5069334406
 12
369.8621602445
 22
31.4746706537
 13
369.8621602445
 23
31.4746706537
  0
SOLID
  8
0
 62
7
  6
CONTINUOUS
 10
368.4168479651
 20
31.4424063504
 11
369.8621602445
 21
31.4746706537
 12
368.9949727445
 22
31.4101421267
 13
368.9949727445
 23
31.4101421267
  0
SOLID
  8
0
 62
7
  6
CONTINUOUS
 10
368.9949727445
 20
31.4101421267
 11
369.8621602445
 21
31.4746706537
 12
369.3418477445
 22
31.4101421267
 13
369.3418477445
 23
31.4101421267
  0
SOLID
  8
0
 62
7
  6
CONTINUOUS
 10
369.8621602445
 20
31.4746706537
 11
370.0355977445
 21
31.4101421267
 12
369.3418477445
 22
31.4101421267
 13
369.3418477445
 23
31.4101421267
  0
SOLID
  8
0
 62
7
  6
CONTINUOUS
 10
369.6887227445
 20
31.3778792603
 11
369.3418477445
 21
31.4101421267
 12
370.0355977445
 22
31.4101421267
 13
370.0355977445
 23
31.4101421267
  0
SOLID
  8
0
 62
7
  6
CONTINUOUS
 10
368.3012227445
 20
31.3456148845
 11
368.4168479651
 21
31.4424063504
 12
368.9949727445
 22
31.4101421267
 13
368.9949727445
 23
31.4101421267
  0
SOLID
  8
0
 62
7
  6
CONTINUOUS
 10
369.6887227445
 20
31.3778792603
 11
370.0355977445
 21
31.4101421267
 12
369.8043479651
 22
31.3456148845
 13
369.8043479651
 23
31.3456148845
  0
SOLID
  8
0
 62
7
  6
CONTINUOUS
 10
369.8043479651
 20
31.3456148845
 11
370.0355977445
 21
31.4101421267
 12
369.8621602445
 22
31.281087868
 13
369.8621602445
 23
31.281087868
  0
SOLID
  8
0
 62
7
  6
CONTINUOUS
 10
370.0355977445
 20
31.4101421267
 11
370.1512223035
 21
31.281087868
 12
369.8621602445
 22
31.281087868
 13
369.8621602445
 23
31.281087868
  0
SOLID
  8
0
 62
7
  6
CONTINUOUS
 10
359.4559102445
 20
31.3778792603
 11
358.9355977445
 21
31.3456148963
 12
359.6871602721
 22
31.4101421155
 13
359.6871602721
 23
31.4101421155
  0
SOLID
  8
0
 62
7
  6
CONTINUOUS
 10
358.9355977445
 20
31.3456148963
 11
359.0512227376
 21
31.4101421155
 12
359.6871602721
 22
31.4101421155
 13
359.6871602721
 23
31.4101421155
  0
SOLID
  8
0
 62
7
  6
CONTINUOUS
 10
359.4559102445
 20
31.3778792603
 11
359.3402852307
 21
31.3456148963
 12
358.9355977445
 22
31.3456148963
 13
358.9355977445
 23
31.3456148963
  0
SOLID
  8
0
 62
7
  6
CONTINUOUS
 10
358.8199727462
 20
31.2165607767
 11
358.9355977445
 21
31.3456148963
 12
359.3402852307
 22
31.3456148963
 13
359.3402852307
 23
31.3456148963
  0
SOLID
  8
0
 62
7
  6
CONTINUOUS
 10
363.1559103548
 20
31.3456149608
 11
363.8496603548
 21
31.4101420472
 12
363.6184102445
 22
31.3778792603
 13
363.6184102445
 23
31.3778792603
  0
SOLID
  8
0
 62
7
  6
CONTINUOUS
 10
363.6184102445
 20
31.3778792603
 11
363.5027853548
 21
31.3456149608
 12
363.1559103548
 22
31.3456149608
 13
363.1559103548
 23
31.3456149608
  0
SOLID
  8
0
 62
7
  6
CONTINUOUS
 10
363.1559103548
 20
31.2810878707
 11
363.1559103548
 21
31.3456149608
 12
363.5027853548
 22
31.3456149608
 13
363.5027853548
 23
31.3456149608
  0
SOLID
  8
0
 62
7
  6
CONTINUOUS
 10
363.5027853548
 20
31.3456149608
 11
363.4449727445
 21
31.2810878707
 12
363.1559103548
 22
31.2810878707
 13
363.1559103548
 23
31.2810878707
  0
SOLID
  8
0
 62
7
  6
CONTINUOUS
 10
368.3012227445
 20
31.3456149608
 11
368.9949727445
 21
31.4101420472
 12
368.7637229651
 22
31.3778792603
 13
368.7637229651
 23
31.3778792603
  0
SOLID
  8
0
 62
7
  6
CONTINUOUS
 10
368.7637229651
 20
31.3778792603
 11
368.6480977445
 21
31.3456149608
 12
368.3012227445
 22
31.3456149608
 13
368.3012227445
 23
31.3456149608
  0
SOLID
  8
0
 62
7
  6
CONTINUOUS
 10
368.3012227445
 20
31.2810878707
 11
368.3012227445
 21
31.3456149608
 12
368.6480977445
 22
31.3456149608
 13
368.6480977445
 23
31.3456149608
  0
SOLID
  8
0
 62
7
  6
CONTINUOUS
 10
368.6480977445
 20
31.3456149608
 11
368.5902854651
 21
31.2810878707
 12
368.3012227445
 22
31.2810878707
 13
368.3012227445
 23
31.2810878707
  0
SOLID
  8
0
 62
7
  6
CONTINUOUS
 10
368.4168479651
 20
31.1520336865
 11
368.3012227445
 21
31.2810878707
 12
368.5902854651
 22
31.2810878707
 13
368.5902854651
 23
31.2810878707
  0
SOLID
  8
0
 62
7
  6
CONTINUOUS
 10
358.8199727462
 20
31.2165607767
 11
359.3402852307
 21
31.345614957
 12
359.1668477307
 22
31.2488235635
 13
359.1668477307
 23
31.2488235635
  0
SOLID
  8
0
 62
7
  6
CONTINUOUS
 10
359.1668477307
 20
31.2488235635
 11
359.1090352445
 21
31.1842964734
 12
358.8199727462
 22
31.2165607767
 13
358.8199727462
 23
31.2165607767
  0
SOLID
  8
0
 62
7
  6
CONTINUOUS
 10
358.7621602445
 20
31.0229779898
 11
358.8199727462
 21
31.2165607767
 12
359.1090352445
 22
31.1842964734
 13
359.1090352445
 23
31.1842964734
  0
SOLID
  8
0
 62
7
  6
CONTINUOUS
 10
363.6184102445
 20
31.1520336865
 11
363.9652852445
 21
31.1842964611
 12
364.6012229651
 22
31.1842964611
 13
364.6012229651
 23
31.1842964611
  0
SOLID
  8
0
 62
7
  6
CONTINUOUS
 10
363.6184102445
 20
31.1520336865
 11
364.6012229651
 21
31.1842964611
 12
363.3871601343
 22
31.0875057863
 13
363.3871601343
 23
31.0875057863
  0
SOLID
  8
0
 62
7
  6
CONTINUOUS
 10
363.3871601343
 20
31.0875057863
 11
364.6012229651
 21
31.1842964611
 12
363.9652852445
 22
31.0552422808
 13
363.9652852445
 23
31.0552422808
  0
SOLID
  8
0
 62
7
  6
CONTINUOUS
 10
364.6012229651
 20
31.1842964611
 11
364.6012229651
 21
31.0552422808
 12
363.9652852445
 22
31.0552422808
 13
363.9652852445
 23
31.0552422808
  0
SOLID
  8
0
 62
7
  6
CONTINUOUS
 10
368.4168479651
 20
31.1520338754
 11
368.5902854651
 21
31.2810878668
 12
368.6480977445
 22
31.2165607767
 13
368.6480977445
 23
31.2165607767
  0
SOLID
  8
0
 62
7
  6
CONTINUOUS
 10
368.6480977445
 20
31.2165607767
 11
368.8215352445
 21
31.1520338754
 12
368.4168479651
 22
31.1520338754
 13
368.4168479651
 23
31.1520338754
  0
SOLID
  8
0
 62
7
  6
CONTINUOUS
 10
368.6480977445
 20
31.0552422931
 11
368.4168479651
 21
31.1520338754
 12
368.8215352445
 22
31.1520338754
 13
368.8215352445
 23
31.1520338754
  0
SOLID
  8
0
 62
7
  6
CONTINUOUS
 10
368.8215352445
 20
31.1520338754
 11
369.8043479651
 21
30.9907152029
 12
368.6480977445
 22
31.0552422931
 13
368.6480977445
 23
31.0552422931
  0
SOLID
  8
0
 62
7
  6
CONTINUOUS
 10
369.6309104651
 20
30.8939239876
 11
368.6480977445
 21
31.0552422931
 12
369.8043479651
 22
30.9907152029
 13
369.8043479651
 23
30.9907152029
  0
SOLID
  8
0
 62
7
  6
CONTINUOUS
 10
369.8043479651
 20
30.9907152029
 11
370.0355977445
 21
30.8939239876
 12
369.6309104651
 22
30.8939239876
 13
369.6309104651
 23
30.8939239876
  0
SOLID
  8
0
 62
7
  6
CONTINUOUS
 10
369.8043479651
 20
30.8293967193
 11
369.6309104651
 21
30.8939239876
 12
370.0355977445
 22
30.8939239876
 13
370.0355977445
 23
30.8939239876
  0
SOLID
  8
0
 62
7
  6
CONTINUOUS
 10
369.8043479651
 20
30.8293967193
 11
370.0355977445
 21
30.8939239876
 12
369.8621602445
 22
30.7648682694
 13
369.8621602445
 23
30.7648682694
  0
SOLID
  8
0
 62
7
  6
CONTINUOUS
 10
370.0355977445
 20
30.8939239876
 11
370.1512223035
 21
30.7648682694
 12
369.8621602445
 22
30.7648682694
 13
369.8621602445
 23
30.7648682694
  0
SOLID
  8
0
 62
7
  6
CONTINUOUS
 10
369.8043479651
 20
30.7003411846
 11
369.8621602445
 21
30.7648682694
 12
370.1512223035
 22
30.7648682694
 13
370.1512223035
 23
30.7648682694
  0
SOLID
  8
0
 62
7
  6
CONTINUOUS
 10
370.1512223035
 20
30.7648682694
 11
370.1512223035
 21
30.7003411846
 12
369.8043479651
 22
30.7003411846
 13
369.8043479651
 23
30.7003411846
  0
SOLID
  8
0
 62
7
  6
CONTINUOUS
 10
369.6887227445
 20
30.6680782357
 11
369.8043479651
 21
30.7003411846
 12
370.1512223035
 22
30.7003411846
 13
370.1512223035
 23
30.7003411846
  0
SOLID
  8
0
 62
7
  6
CONTINUOUS
 10
369.6887227445
 20
30.6680782357
 11
370.1512223035
 21
30.7003411846
 12
369.4574729651
 22
30.6358140998
 13
369.4574729651
 23
30.6358140998
  0
SOLID
  8
0
 62
7
  6
CONTINUOUS
 10
370.1512223035
 20
30.7003411846
 11
370.0355977445
 21
30.6035511455
 12
369.4574729651
 22
30.6358140998
 13
369.4574729651
 23
30.6358140998
  0
SOLID
  8
0
 62
7
  6
CONTINUOUS
 10
370.0355977445
 20
30.6035511455
 11
368.5902854651
 21
30.5712868422
 12
369.4574729651
 22
30.6358140998
 13
369.4574729651
 23
30.6358140998
  0
SOLID
  8
0
 62
7
  6
CONTINUOUS
 10
369.4574729651
 20
30.6358140998
 11
368.5902854651
 21
30.5712868422
 12
369.1105979651
 22
30.6358140998
 13
369.1105979651
 23
30.6358140998
  0
SOLID
  8
0
 62
7
  6
CONTINUOUS
 10
368.5902854651
 20
30.5712868422
 11
368.4168479651
 21
30.6358140998
 12
369.1105979651
 22
30.6358140998
 13
369.1105979651
 23
30.6358140998
  0
SOLID
  8
0
 62
7
  6
CONTINUOUS
 10
368.5902854651
 20
30.5712868422
 11
370.0355977445
 21
30.6035511455
 12
368.7637229651
 22
30.5390223111
 13
368.7637229651
 23
30.5390223111
  0
SOLID
  8
0
 62
7
  6
CONTINUOUS
 10
370.0355977445
 20
30.6035511455
 11
369.8043479651
 21
30.5390223111
 12
368.7637229651
 22
30.5390223111
 13
368.7637229651
 23
30.5390223111
  0
SOLID
  8
0
 62
7
  6
CONTINUOUS
 10
369.1105979651
 20
30.5067599302
 11
368.7637229651
 21
30.5390223111
 12
369.8043479651
 22
30.5390223111
 13
369.8043479651
 23
30.5390223111
  0
SOLID
  8
0
 62
7
  6
CONTINUOUS
 10
369.8043479651
 20
30.5390223111
 11
369.4574729651
 21
30.5067599302
 12
369.1105979651
 22
30.5067599302
 13
369.1105979651
 23
30.5067599302
  0
SOLID
  8
0
 62
7
  6
CONTINUOUS
 10
358.7621602445
 20
31.0229779898
 11
359.1090352445
 21
31.1842964734
 12
359.0512227376
 22
31.0552422931
 13
359.0512227376
 23
31.0552422931
  0
SOLID
  8
0
 62
7
  6
CONTINUOUS
 10
359.0512227376
 20
31.0552422931
 11
359.0512227376
 21
30.9584509954
 12
358.7621602445
 22
31.0229779898
 13
358.7621602445
 23
31.0229779898
  0
SOLID
  8
0
 62
7
  6
CONTINUOUS
 10
358.8199727462
 20
30.8293967193
 11
358.7621602445
 21
31.0229779898
 12
359.0512227376
 22
30.9584509954
 13
359.0512227376
 23
30.9584509954
  0
SOLID
  8
0
 62
7
  6
CONTINUOUS
 10
359.0512227376
 20
30.9584509954
 11
359.1668477307
 21
30.797132416
 12
358.8199727462
 22
30.8293967193
 13
358.8199727462
 23
30.8293967193
  0
SOLID
  8
0
 62
7
  6
CONTINUOUS
 10
358.9355977445
 20
30.7003413087
 11
358.8199727462
 21
30.8293967193
 12
359.1668477307
 22
30.797132416
 13
359.1668477307
 23
30.797132416
  0
SOLID
  8
0
 62
7
  6
CONTINUOUS
 10
359.1668477307
 20
30.797132416
 11
359.3402852307
 21
30.7003413087
 12
358.9355977445
 22
30.7003413087
 13
358.9355977445
 23
30.7003413087
  0
SOLID
  8
0
 62
7
  6
CONTINUOUS
 10
359.0512227376
 20
30.6358140759
 11
358.9355977445
 21
30.7003413087
 12
359.3402852307
 22
30.7003413087
 13
359.3402852307
 23
30.7003413087
  0
SOLID
  8
0
 62
7
  6
CONTINUOUS
 10
359.3402852307
 20
30.7003413087
 11
359.6871602721
 21
30.6358140759
 12
359.0512227376
 22
30.6358140759
 13
359.0512227376
 23
30.6358140759
  0
SOLID
  8
0
 62
7
  6
CONTINUOUS
 10
359.2246602583
 20
30.5712868422
 11
359.0512227376
 21
30.6358140759
 12
359.6871602721
 22
30.6358140759
 13
359.6871602721
 23
30.6358140759
  0
SOLID
  8
0
 62
7
  6
CONTINUOUS
 10
363.2715352445
 20
31.0229779808
 11
363.3871601343
 21
31.0875057863
 12
363.9652852445
 22
31.0552422931
 13
363.9652852445
 23
31.0552422931
  0
SOLID
  8
0
 62
7
  6
CONTINUOUS
 10
363.9652852445
 20
31.0552422931
 11
363.7340351343
 21
31.0229779808
 12
363.2715352445
 22
31.0229779808
 13
363.2715352445
 23
31.0229779808
  0
SOLID
  8
0
 62
7
  6
CONTINUOUS
 10
363.1559103548
 20
30.8939238094
 11
363.2715352445
 21
31.0229779808
 12
363.7340351343
 22
31.0229779808
 13
363.7340351343
 23
31.0229779808
  0
SOLID
  8
0
 62
7
  6
CONTINUOUS
 10
363.5027853548
 20
30.926187309
 11
363.1559103548
 21
30.8939238094
 12
363.6184102445
 22
30.9907152029
 13
363.6184102445
 23
30.9907152029
  0
SOLID
  8
0
 62
7
  6
CONTINUOUS
 10
363.1559103548
 20
30.8939238094
 11
363.7340351343
 21
31.0229779898
 12
363.6184102445
 22
30.9907152029
 13
363.6184102445
 23
30.9907152029
  0
SOLID
  8
0
 62
7
  6
CONTINUOUS
 10
363.5027853548
 20
30.926187309
 11
363.4449727445
 21
30.8293967193
 12
363.1559103548
 22
30.8939238094
 13
363.1559103548
 23
30.8939238094
  0
SOLID
  8
0
 62
7
  6
CONTINUOUS
 10
363.1559103548
 20
30.797132416
 11
363.1559103548
 21
30.8939238094
 12
363.4449727445
 22
30.8293967193
 13
363.4449727445
 23
30.8293967193
  0
SOLID
  8
0
 62
7
  6
CONTINUOUS
 10
363.4449727445
 20
30.8293967193
 11
363.4449727445
 21
30.7648681127
 12
363.1559103548
 22
30.797132416
 13
363.1559103548
 23
30.797132416
  0
SOLID
  8
0
 62
7
  6
CONTINUOUS
 10
363.2137226343
 20
30.6680782357
 11
363.1559103548
 21
30.797132416
 12
363.4449727445
 22
30.7648681127
 13
363.4449727445
 23
30.7648681127
  0
SOLID
  8
0
 62
7
  6
CONTINUOUS
 10
364.6012229651
 20
30.8616599362
 11
364.890285024
 21
30.7648681127
 12
364.543410024
 22
30.797132416
 13
364.543410024
 23
30.797132416
  0
SOLID
  8
0
 62
7
  6
CONTINUOUS
 10
364.369972524
 20
30.7003410226
 11
364.543410024
 21
30.797132416
 12
364.890285024
 22
30.7648681127
 13
364.890285024
 23
30.7648681127
  0
SOLID
  8
0
 62
7
  6
CONTINUOUS
 10
364.369972524
 20
30.7003410226
 11
364.890285024
 21
30.7648681127
 12
364.6012229651
 22
30.6680782357
 13
364.6012229651
 23
30.6680782357
  0
SOLID
  8
0
 62
7
  6
CONTINUOUS
 10
364.890285024
 20
30.7648681127
 11
364.9480979651
 21
30.6035511455
 12
364.6012229651
 22
30.6680782357
 13
364.6012229651
 23
30.6680782357
  0
SOLID
  8
0
 62
7
  6
CONTINUOUS
 10
364.6590352445
 20
30.5712868422
 11
364.6012229651
 21
30.6680782357
 12
364.9480979651
 22
30.6035511455
 13
364.9480979651
 23
30.6035511455
  0
SOLID
  8
0
 62
7
  6
CONTINUOUS
 10
364.6590352445
 20
30.5712868422
 11
364.9480979651
 21
30.6035511455
 12
364.716847524
 22
30.5067598731
 13
364.716847524
 23
30.5067598731
  0
SOLID
  8
0
 62
7
  6
CONTINUOUS
 10
364.9480979651
 20
30.6035511455
 11
365.0059102445
 21
30.5067598731
 12
364.716847524
 22
30.5067598731
 13
364.716847524
 23
30.5067598731
  0
SOLID
  8
0
 62
7
  6
CONTINUOUS
 10
360.2652852997
 20
30.7326051679
 11
360.3230977445
 21
30.8293966612
 12
360.6121602997
 22
30.8293966612
 13
360.6121602997
 23
30.8293966612
  0
SOLID
  8
0
 62
7
  6
CONTINUOUS
 10
360.6121602997
 20
30.8293966612
 11
360.5543476894
 21
30.7003410226
 12
360.2652852997
 22
30.7326051679
 13
360.2652852997
 23
30.7326051679
  0
SOLID
  8
0
 62
7
  6
CONTINUOUS
 10
360.091847717
 20
30.6680782357
 11
360.2652852997
 21
30.7326051679
 12
360.5543476894
 22
30.7003410226
 13
360.5543476894
 23
30.7003410226
  0
SOLID
  8
0
 62
7
  6
CONTINUOUS
 10
360.091847717
 20
30.6680782357
 11
360.5543476894
 21
30.7003410226
 12
359.6871602721
 22
30.6358139324
 13
359.6871602721
 23
30.6358139324
  0
SOLID
  8
0
 62
7
  6
CONTINUOUS
 10
360.5543476894
 20
30.7003410226
 11
360.3809101894
 21
30.6035511455
 12
359.6871602721
 22
30.6358139324
 13
359.6871602721
 23
30.6358139324
  0
SOLID
  8
0
 62
7
  6
CONTINUOUS
 10
359.2246602583
 20
30.5712868422
 11
359.6871602721
 21
30.6358139324
 12
360.3809101894
 22
30.6035511455
 13
360.3809101894
 23
30.6035511455
  0
SOLID
  8
0
 62
7
  6
CONTINUOUS
 10
359.2246602583
 20
30.5712868422
 11
360.3809101894
 21
30.6035511455
 12
359.3980977583
 22
30.5390224228
 13
359.3980977583
 23
30.5390224228
  0
SOLID
  8
0
 62
7
  6
CONTINUOUS
 10
360.3809101894
 20
30.6035511455
 11
360.1496602445
 21
30.5390224228
 12
359.3980977583
 22
30.5390224228
 13
359.3980977583
 23
30.5390224228
  0
SOLID
  8
0
 62
7
  6
CONTINUOUS
 10
359.744972717
 20
30.5067597521
 11
359.3980977583
 21
30.5390224228
 12
360.1496602445
 22
30.5390224228
 13
360.1496602445
 23
30.5390224228
  0
SOLID
  8
0
 62
7
  6
CONTINUOUS
 10
363.2137226343
 20
30.6680782357
 11
363.4449727445
 21
30.7648681127
 12
363.5027853548
 22
30.7003410226
 13
363.5027853548
 23
30.7003410226
  0
SOLID
  8
0
 62
7
  6
CONTINUOUS
 10
363.5027853548
 20
30.7003410226
 11
363.7340351343
 21
30.6358139324
 12
363.2137226343
 22
30.6680782357
 13
363.2137226343
 23
30.6680782357
  0
SOLID
  8
0
 62
7
  6
CONTINUOUS
 10
363.3871601343
 20
30.5712868422
 11
363.2137226343
 21
30.6680782357
 12
363.7340351343
 22
30.6358139324
 13
363.7340351343
 23
30.6358139324
  0
SOLID
  8
0
 62
7
  6
CONTINUOUS
 10
364.0809101343
 20
30.6358139363
 11
364.369972524
 21
30.7003410226
 12
364.6012229651
 22
30.6680782357
 13
364.6012229651
 23
30.6680782357
  0
SOLID
  8
0
 62
7
  6
CONTINUOUS
 10
364.6012229651
 20
30.6680782357
 11
364.543410024
 21
30.6035511455
 12
364.0809101343
 22
30.6358139363
 13
364.0809101343
 23
30.6358139363
  0
SOLID
  8
0
 62
7
  6
CONTINUOUS
 10
364.543410024
 20
30.6035511455
 11
363.3871601343
 21
30.5712868422
 12
364.0809101343
 22
30.6358139363
 13
364.0809101343
 23
30.6358139363
  0
SOLID
  8
0
 62
7
  6
CONTINUOUS
 10
363.3871601343
 20
30.5712868422
 11
363.7340351343
 21
30.6358139363
 12
364.0809101343
 22
30.6358139363
 13
364.0809101343
 23
30.6358139363
  0
SOLID
  8
0
 62
7
  6
CONTINUOUS
 10
363.3871601343
 20
30.5712868422
 11
364.543410024
 21
30.6035511455
 12
363.5027853548
 22
30.5390225267
 13
363.5027853548
 23
30.5390225267
  0
SOLID
  8
0
 62
7
  6
CONTINUOUS
 10
364.543410024
 20
30.6035511455
 11
364.369972524
 21
30.5390225267
 12
363.5027853548
 22
30.5390225267
 13
363.5027853548
 23
30.5390225267
  0
SOLID
  8
0
 62
7
  6
CONTINUOUS
 10
363.7340351343
 20
30.5067596914
 11
363.5027853548
 21
30.5390225267
 12
364.369972524
 22
30.5390225267
 13
364.369972524
 23
30.5390225267
  0
SOLID
  8
0
 62
7
  6
CONTINUOUS
 10
364.369972524
 20
30.5390225267
 11
364.0809101343
 21
30.5067596914
 12
363.7340351343
 22
30.5067596914
 13
363.7340351343
 23
30.5067596914
  0
SOLID
  8
0
 62
7
  6
CONTINUOUS
 10
368.7637229651
 20
30.6680782357
 11
368.4168479651
 21
30.6358138717
 12
368.6480977445
 22
30.7003410226
 13
368.6480977445
 23
30.7003410226
  0
SOLID
  8
0
 62
7
  6
CONTINUOUS
 10
368.6480977445
 20
30.7003410226
 11
368.4168479651
 21
30.6358138717
 12
368.5902854651
 22
30.7648680521
 13
368.5902854651
 23
30.7648680521
  0
SOLID
  8
0
 62
7
  6
CONTINUOUS
 10
368.4168479651
 20
30.6358138717
 11
368.3012227445
 21
30.7648680521
 12
368.5902854651
 22
30.7648680521
 13
368.5902854651
 23
30.7648680521
  0
SOLID
  8
0
 62
7
  6
CONTINUOUS
 10
368.7637229651
 20
30.6680782357
 11
369.1105979651
 21
30.6358138717
 12
368.4168479651
 22
30.6358138717
 13
368.4168479651
 23
30.6358138717
  0
SOLID
  8
0
 62
7
  6
CONTINUOUS
 10
365.4684104651
 20
30.5067597521
 11
365.4684104651
 21
31.5391977439
 12
365.757472524
 22
30.5067597521
 13
365.757472524
 23
31.5391977439
  0
ENDBLK
  8
0
  6
BYBLOCK
 62
0
  0
BLOCK
  8
0
 62
2
  6
CONTINUOUS
  2
SYMBOL_0_BL0
 70
64
 10
240.8592468615
 20
19.762288695
  0
TEXT
  8
0
 62
7
  6
CONTINUOUS
 10
227.1239507038
 20
19.1357028027
  7
TEXTSTYLE_3
 40
2.7338706658
  1
Ammeraal Beltech
 41
1.0
 51
15.0
 72
0
  0
TEXT
  8
0
 62
7
  6
CONTINUOUS
 10
237.9247515296
 20
16.8621661299
  7
TEXTSTYLE_4
 40
1.0935482663
  1
Innovation & Service in Belting
 41
1.0
 72
0
  0
LINE
  8
0
 62
7
  6
CONTINUOUS
 10
221.0994100525
 20
19.9022961113
 11
221.8775620458
 21
23.5632134089
  0
LINE
  8
0
 62
7
  6
CONTINUOUS
 10
231.9727303357
 20
27.2266073205
 11
222.3653797889
 21
24.1049898993
  0
LINE
  8
0
 62
7
  6
CONTINUOUS
 10
221.3246933848
 20
19.2089453082
 11
228.8317686459
 21
12.4495443822
  0
LINE
  8
0
 62
7
  6
CONTINUOUS
 10
221.5872277955
 20
20.4440726016
 11
232.3954971607
 21
23.9558922005
  0
LINE
  8
0
 62
7
  6
CONTINUOUS
 10
232.3912920235
 20
13.6061036368
 11
223.9458323548
 21
21.2104296785
  0
LINE
  8
0
 62
7
  6
CONTINUOUS
 10
232.9111147433
 20
26.3816822048
 11
231.9345552061
 21
21.7873308023
  0
LINE
  8
0
 62
7
  6
CONTINUOUS
 10
231.2347532584
 20
18.4950214885
 11
230.5483050469
 21
15.2655365641
  0
LINE
  8
0
 62
7
  6
CONTINUOUS
 10
233.5922108419
 20
13.9963058145
 11
234.5484423775
 21
18.4950214885
  0
LINE
  8
0
 62
7
  6
CONTINUOUS
 10
235.2482443252
 20
21.7873308023
 11
235.6924861276
 21
23.8773241617
  0
LINE
  8
0
 62
7
  6
CONTINUOUS
 10
229.5448697213
 20
12.2979700695
 11
233.1043930989
 21
13.4545293241
  0
LINE
  8
0
 62
7
  6
CONTINUOUS
 10
232.685831411
 20
27.0750330078
 11
235.4672027953
 21
24.5706749648
  0
ARC
  8
0
 62
7
  6
CONTINUOUS
 10
222.5906631212
 20
23.4116390962
 40
0.7290321776
 50
108.0
 51
168.0
  0
ARC
  8
0
 62
7
  6
CONTINUOUS
 10
232.198013668
 20
26.5332565175
 40
0.7290321776
 50
348.0
 51
108.0
  0
ARC
  8
0
 62
7
  6
CONTINUOUS
 10
234.9793850522
 20
24.0288984744
 40
0.7290321776
 50
348.0
 51
48.0
  0
ARC
  8
0
 62
7
  6
CONTINUOUS
 10
229.319586389
 20
12.9913208726
 40
0.7290321776
 50
228.0
 51
288.0
  0
ARC
  8
0
 62
7
  6
CONTINUOUS
 10
221.8125111278
 20
19.7507217986
 40
0.7290321776
 50
108.0
 51
228.0
  0
ARC
  8
0
 62
7
  6
CONTINUOUS
 10
232.8791097665
 20
14.1478801272
 40
0.7290321776
 50
228.0
 51
348.0
  0
ENDBLK
  8
0
  6
BYBLOCK
 62
0
  0
ENDSEC
  0
SECTION
  2
ENTITIES
  0
TEXT
  8
0
 62
5
  6
CONTINUOUS
 10
304.937007874
 20
25.636
  7
TEXTSTYLE_2
 40
2.8
  1
Scale :
 41
0.6
 51
0.000019
 72
0
  0
TEXT
  8
0
 62
5
  6
CONTINUOUS
 10
324.937007874
 20
25.636
  7
TEXTSTYLE_2
 40
2.8
  1
Belt type:
 41
0.6
 51
0.000019
 72
0
  0
INSERT
  8
0
 62
2
  6
CONTINUOUS
  2
SYMBOL_0_BL0
 10
240.8592468615
 20
19.762288695
  0
INSERT
  8
0
 62
2
  6
CONTINUOUS
  2
SYMBOL_5_BL1
 10
382.7840918555
 20
35.5067593403
  0
LINE
  8
0
 62
2
  6
CONTINUOUS
 10
218.937007874
 20
30.0
 11
408.937007874
 21
30.0
  0
LINE
  8
0
 62
2
  6
CONTINUOUS
 10
218.937007874
 20
30.0
 11
218.937007874
 21
10.0
  0
LINE
  8
0
 62
2
  6
CONTINUOUS
 10
218.937007874
 20
10.0
 11
408.937007874
 21
10.0
  0
LINE
  8
0
 62
2
  6
CONTINUOUS
 10
303.937007874
 20
30.0
 11
303.937007874
 21
10.0
  0
LINE
  8
0
 62
2
  6
CONTINUOUS
 10
323.937007874
 20
30.0
 11
323.937007874
 21
10.0
  0
LINE
  8
0
 62
2
  6
CONTINUOUS
 10
408.937007874
 20
30.0
 11
408.937007874
 21
10.0
  0
TEXT
  8
0
 62
5
  6
CONTINUOUS
 10
221.937007874
 20
23.303
  7
TEXTSTYLE_5
 40
1.52
  1
                                                                     Ammeraal Beltech Modular A/S
 41
1.0
 72
0
  0
TEXT
  8
0
 62
5
  6
CONTINUOUS
 10
221.937007874
 20
20.595
  7
TEXTSTYLE_5
 40
1.5
  1
                                                                      Hjulmagervej 21, 7100 Vejle,  DK
 41
1.0
 72
0
  0
TEXT
  8
0
 62
5
  6
CONTINUOUS
 10
221.937007874
 20
17.881
  7
TEXTSTYLE_5
 40
1.495
  1
                                                                      tel: 
 41
1.0
 72
0
  0
TEXT
  8
0
 62
5
  6
CONTINUOUS
 10
266.9239544389
 20
17.881
  7
TEXTSTYLE_5
 40
1.51
  1
+45 75723100     fax: +45 75723348
 41
1.0
 72
0
  0
TEXT
  8
0
 62
5
  6
CONTINUOUS
 10
221.937007874
 20
15.177
  7
TEXTSTYLE_5
 40
1.5
  1
                                                                      admin@unichains.dk  www.unichains.com
 41
1.0
 72
0
  0
TEXT
  8
0
 62
5
  6
CONTINUOUS
 10
308.687007874
 20
13.75
  7
TEXTSTYLE_6
 40
5.0
  1
1:1
 41
0.7
 72
1
 11
313.937007874
 21
13.75
  0
TEXT
  8
0
 62
5
  6
CONTINUOUS
 10
326.937007874
 20
13.75
  7
TEXTSTYLE_7
 40
7.5
  1
uni MPB Product Support Micro 5mm K600
 41
0.2684210526
 72
0
  0
LINE
  8
0
 62
7
  6
CONTINUOUS
 10
0.0
 20
0.0
 11
0.0
 21
297.0
  0
LINE
  8
0
 62
7
  6
CONTINUOUS
 10
8.937007874
 20
10.0
 11
8.937007874
 21
287.0
  0
LINE
  8
0
 62
7
  6
CONTINUOUS
 10
0.0
 20
0.0
 11
420.0
 21
0.0
  0
LINE
  8
0
 62
7
  6
CONTINUOUS
 10
408.937007874
 20
10.0
 11
8.937007874
 21
10.0
  0
LINE
  8
0
 62
7
  6
CONTINUOUS
 10
218.937007874
 20
30.0
 11
408.937007874
 21
30.0
  0
LINE
  8
0
 62
7
  6
CONTINUOUS
 10
210.0
 20
297.0
 11
210.0
 21
292.0
  0
LINE
  8
0
 62
7
  6
CONTINUOUS
 10
210.0
 20
0.0
 11
210.0
 21
5.0
  0
LINE
  8
0
 62
7
  6
CONTINUOUS
 10
8.937007874
 20
287.0
 11
408.937007874
 21
287.0
  0
LINE
  8
0
 62
7
  6
CONTINUOUS
 10
0.0
 20
297.0
 11
420.0
 21
297.0
  0
LINE
  8
0
 62
7
  6
CONTINUOUS
 10
408.937007874
 20
287.0
 11
408.937007874
 21
10.0
  0
LINE
  8
0
 62
7
  6
CONTINUOUS
 10
420.0
 20
0.0
 11
420.0
 21
297.0
  0
LINE
  8
0
 62
7
  6
CONTINUOUS
 10
85.2518367805
 20
196.3820092166
 11
85.2518367805
 21
211.1820092166
  0
LINE
  8
0
 62
7
  6
CONTINUOUS
 10
85.5518367805
 20
213.3383782005
 11
85.5518367805
 21
215.8820092166
  0
LINE
  8
0
 62
7
  6
CONTINUOUS
 10
89.8868467757
 20
195.3820092166
 11
90.0349447798
 21
197.4999093472
  0
LINE
  8
0
 62
7
  6
CONTINUOUS
 10
91.5521952207
 20
196.6375707037
 11
92.4157294721
 21
207.4410501731
  0
POLYLINE
  8
0
 62
7
  6
CONTINUOUS
 66
1
 70
0
  0
VERTEX
  8
0
 62
7
  6
CONTINUOUS
 10
92.1487162235
 20
204.1005085192
  0
VERTEX
  8
0
 62
7
  6
CONTINUOUS
 10
92.1535147655
 20
204.1386265615
  0
VERTEX
  8
0
 62
7
  6
CONTINUOUS
 10
92.164508691
 20
204.1862775805
  0
VERTEX
  8
0
 62
7
  6
CONTINUOUS
 10
92.1750392999
 20
204.2182599204
  0
SEQEND
  0
POLYLINE
  8
0
 62
7
  6
CONTINUOUS
 66
1
 70
0
  0
VERTEX
  8
0
 62
7
  6
CONTINUOUS
 10
90.0349445108
 20
197.4999052574
  0
VERTEX
  8
0
 62
7
  6
CONTINUOUS
 10
90.0484186102
 20
197.578751299
  0
VERTEX
  8
0
 62
7
  6
CONTINUOUS
 10
90.0795710225
 20
197.6627540864
  0
VERTEX
  8
0
 62
7
  6
CONTINUOUS
 10
90.0859749154
 20
197.6758331862
  0
SEQEND
  0
LINE
  8
0
 62
7
  6
CONTINUOUS
 10
96.431997361
 20
195.4320092166
 11
96.4333910164
 21
195.3921001485
  0
LINE
  8
0
 62
7
  6
CONTINUOUS
 10
93.4589689974
 20
211.1270495382
 11
92.4333889046
 21
207.5386108684
  0
LINE
  8
0
 62
7
  6
CONTINUOUS
 10
92.1750296565
 20
204.2182337949
 11
92.1995858925
 21
204.274124445
  0
LINE
  8
0
 62
7
  6
CONTINUOUS
 10
103.0879440888
 20
207.4410501731
 11
103.9782743292
 21
196.3023322154
  0
POLYLINE
  8
0
 62
7
  6
CONTINUOUS
 66
1
 70
0
  0
VERTEX
  8
0
 62
7
  6
CONTINUOUS
 10
90.0859749154
 20
197.6758331862
  0
VERTEX
  8
0
 62
7
  6
CONTINUOUS
 10
90.1306008874
 20
197.7513972701
  0
VERTEX
  8
0
 62
7
  6
CONTINUOUS
 10
90.2037151429
 20
197.8441144339
  0
VERTEX
  8
0
 62
7
  6
CONTINUOUS
 10
90.3004476431
 20
197.9403152424
  0
VERTEX
  8
0
 62
7
  6
CONTINUOUS
 10
90.4202808249
 20
198.0396681419
  0
VERTEX
  8
0
 62
7
  6
CONTINUOUS
 10
90.5596099515
 20
198.1433346764
  0
SEQEND
  0
POLYLINE
  8
0
 62
7
  6
CONTINUOUS
 66
1
 70
0
  0
VERTEX
  8
0
 62
7
  6
CONTINUOUS
 10
90.0859400895
 20
197.6758428156
  0
VERTEX
  8
0
 62
7
  6
CONTINUOUS
 10
90.1206241115
 20
197.7345591012
  0
VERTEX
  8
0
 62
7
  6
CONTINUOUS
 10
90.1771216557
 20
197.802927546
  0
VERTEX
  8
0
 62
7
  6
CONTINUOUS
 10
90.2448099816
 20
197.8602381103
  0
VERTEX
  8
0
 62
7
  6
CONTINUOUS
 10
90.3215592728
 20
197.9046875236
  0
VERTEX
  8
0
 62
7
  6
CONTINUOUS
 10
90.4049546111
 20
197.9348771922
  0
VERTEX
  8
0
 62
7
  6
CONTINUOUS
 10
90.4923719604
 20
197.9498572056
  0
VERTEX
  8
0
 62
7
  6
CONTINUOUS
 10
90.5327801572
 20
197.95149271
  0
SEQEND
  0
POLYLINE
  8
0
 62
7
  6
CONTINUOUS
 66
1
 70
0
  0
VERTEX
  8
0
 62
7
  6
CONTINUOUS
 10
92.1995858925
 20
204.274124445
  0
VERTEX
  8
0
 62
7
  6
CONTINUOUS
 10
92.2419374676
 20
204.3445173585
  0
VERTEX
  8
0
 62
7
  6
CONTINUOUS
 10
92.2975750759
 20
204.4146781642
  0
VERTEX
  8
0
 62
7
  6
CONTINUOUS
 10
92.3490477175
 20
204.4673603758
  0
SEQEND
  0
LINE
  8
0
 62
7
  6
CONTINUOUS
 10
109.2157294721
 20
207.4410501731
 11
108.3253992317
 21
196.3023322154
  0
LINE
  8
0
 62
7
  6
CONTINUOUS
 10
103.3040876685
 20
204.274124445
 11
103.3286439044
 21
204.2182337949
  0
LINE
  8
0
 62
7
  6
CONTINUOUS
 10
102.0447045636
 20
211.1270495382
 11
103.0702846563
 21
207.5386108684
  0
LINE
  8
0
 62
7
  6
CONTINUOUS
 10
110.2589689974
 20
211.1270495382
 11
109.2333889046
 21
207.5386108684
  0
LINE
  8
0
 62
7
  6
CONTINUOUS
 10
108.9750296565
 20
204.2182337949
 11
108.9995858925
 21
204.274124445
  0
LINE
  8
0
 62
7
  6
CONTINUOUS
 10
92.3489203382
 20
204.4672406474
 11
92.3490476979
 21
204.4673603966
  0
LINE
  8
0
 62
7
  6
CONTINUOUS
 10
103.2617360934
 20
204.3445173585
 11
103.3040876685
 21
204.274124445
  0
POLYLINE
  8
0
 62
7
  6
CONTINUOUS
 66
1
 70
0
  0
VERTEX
  8
0
 62
7
  6
CONTINUOUS
 10
108.9995858925
 20
204.274124445
  0
VERTEX
  8
0
 62
7
  6
CONTINUOUS
 10
109.0419374676
 20
204.3445173585
  0
VERTEX
  8
0
 62
7
  6
CONTINUOUS
 10
109.0975750759
 20
204.4146781642
  0
VERTEX
  8
0
 62
7
  6
CONTINUOUS
 10
109.1490477175
 20
204.4673603758
  0
SEQEND
  0
LINE
  8
0
 62
7
  6
CONTINUOUS
 10
92.3489203382
 20
204.4672406474
 11
92.4021280782
 21
204.5103420037
  0
LINE
  8
0
 62
7
  6
CONTINUOUS
 10
119.8879440888
 20
207.4410501731
 11
120.7782743292
 21
196.3023322154
  0
LINE
  8
0
 62
7
  6
CONTINUOUS
 10
109.1489203382
 20
204.4672406474
 11
109.1490476979
 21
204.4673603966
  0
LINE
  8
0
 62
7
  6
CONTINUOUS
 10
103.1547532228
 20
204.4672406474
 11
103.1546258631
 21
204.4673603966
  0
POLYLINE
  8
0
 62
7
  6
CONTINUOUS
 66
1
 70
0
  0
VERTEX
  8
0
 62
7
  6
CONTINUOUS
 10
103.1546258435
 20
204.4673603758
  0
VERTEX
  8
0
 62
7
  6
CONTINUOUS
 10
103.2060984851
 20
204.4146781642
  0
VERTEX
  8
0
 62
7
  6
CONTINUOUS
 10
103.2617360934
 20
204.3445173585
  0
SEQEND
  0
LINE
  8
0
 62
7
  6
CONTINUOUS
 10
120.1040876685
 20
204.274124445
 11
120.1286439044
 21
204.2182337949
  0
LINE
  8
0
 62
7
  6
CONTINUOUS
 10
118.8447045636
 20
211.1270495382
 11
119.8702846563
 21
207.5386108684
  0
LINE
  8
0
 62
7
  6
CONTINUOUS
 10
126.0157294721
 20
207.4410501731
 11
125.1253992317
 21
196.3023322154
  0
LINE
  8
0
 62
7
  6
CONTINUOUS
 10
127.0589689974
 20
211.1270495382
 11
126.0333889046
 21
207.5386108684
  0
LINE
  8
0
 62
7
  6
CONTINUOUS
 10
125.7750296565
 20
204.2182337949
 11
125.7995858925
 21
204.274124445
  0
LINE
  8
0
 62
7
  6
CONTINUOUS
 10
109.1489203382
 20
204.4672406474
 11
109.2021280782
 21
204.5103420037
  0
LINE
  8
0
 62
7
  6
CONTINUOUS
 10
92.4021280782
 20
204.5103420037
 11
92.4831481356
 21
204.5555607745
  0
LINE
  8
0
 62
7
  6
CONTINUOUS
 10
120.0617360934
 20
204.3445173585
 11
120.1040876685
 21
204.274124445
  0
POLYLINE
  8
0
 62
7
  6
CONTINUOUS
 66
1
 70
0
  0
VERTEX
  8
0
 62
7
  6
CONTINUOUS
 10
125.7995858925
 20
204.274124445
  0
VERTEX
  8
0
 62
7
  6
CONTINUOUS
 10
125.8419374676
 20
204.3445173585
  0
VERTEX
  8
0
 62
7
  6
CONTINUOUS
 10
125.8975750759
 20
204.4146781642
  0
VERTEX
  8
0
 62
7
  6
CONTINUOUS
 10
125.9490477175
 20
204.4673603758
  0
SEQEND
  0
LINE
  8
0
 62
7
  6
CONTINUOUS
 10
109.2021280782
 20
204.5103420037
 11
109.2831481356
 21
204.5555607745
  0
POLYLINE
  8
0
 62
7
  6
CONTINUOUS
 66
1
 70
0
  0
VERTEX
  8
0
 62
7
  6
CONTINUOUS
 10
103.0205254254
 20
204.5555607745
  0
VERTEX
  8
0
 62
7
  6
CONTINUOUS
 10
103.1015454828
 20
204.5103420037
  0
VERTEX
  8
0
 62
7
  6
CONTINUOUS
 10
103.1547532228
 20
204.4672406474
  0
SEQEND
  0
LINE
  8
0
 62
7
  6
CONTINUOUS
 10
119.9547532228
 20
204.4672406474
 11
119.9546258631
 21
204.4673603966
  0
POLYLINE
  8
0
 62
7
  6
CONTINUOUS
 66
1
 70
0
  0
VERTEX
  8
0
 62
7
  6
CONTINUOUS
 10
119.9546258435
 20
204.4673603758
  0
VERTEX
  8
0
 62
7
  6
CONTINUOUS
 10
120.0060984851
 20
204.4146781642
  0
VERTEX
  8
0
 62
7
  6
CONTINUOUS
 10
120.0617360934
 20
204.3445173585
  0
SEQEND
  0
LINE
  8
0
 62
7
  6
CONTINUOUS
 10
137.5782743292
 20
196.3023322154
 11
136.6879440888
 21
207.4410501731
  0
POLYLINE
  8
0
 62
7
  6
CONTINUOUS
 66
1
 70
0
  0
VERTEX
  8
0
 62
7
  6
CONTINUOUS
 10
137.0157293448
 20
203.3402038231
  0
VERTEX
  8
0
 62
7
  6
CONTINUOUS
 10
137.0187468077
 20
203.3590227153
  0
VERTEX
  8
0
 62
7
  6
CONTINUOUS
 10
137.0315721228
 20
203.3721269791
  0
VERTEX
  8
0
 62
7
  6
CONTINUOUS
 10
137.0545092143
 20
203.3796557565
  0
VERTEX
  8
0
 62
7
  6
CONTINUOUS
 10
137.0873578469
 20
203.3820092166
  0
SEQEND
  0
LINE
  8
0
 62
7
  6
CONTINUOUS
 10
125.9489203382
 20
204.4672406474
 11
125.9490476979
 21
204.4673603966
  0
LINE
  8
0
 62
7
  6
CONTINUOUS
 10
125.9489203382
 20
204.4672406474
 11
126.0021280782
 21
204.5103420037
  0
LINE
  8
0
 62
7
  6
CONTINUOUS
 10
92.4831481356
 20
204.5555607745
 11
92.5662361562
 21
204.584859836
  0
LINE
  8
0
 62
7
  6
CONTINUOUS
 10
136.9040876685
 20
204.274124445
 11
136.9286439044
 21
204.2182337949
  0
LINE
  8
0
 62
7
  6
CONTINUOUS
 10
135.6447045636
 20
211.1270495382
 11
136.6702846563
 21
207.5386108684
  0
LINE
  8
0
 62
7
  6
CONTINUOUS
 10
141.9253992317
 20
196.3023322154
 11
142.8157294721
 21
207.4410501731
  0
POLYLINE
  8
0
 62
7
  6
CONTINUOUS
 66
1
 70
0
  0
VERTEX
  8
0
 62
7
  6
CONTINUOUS
 10
142.250415967
 20
200.3685422367
  0
VERTEX
  8
0
 62
7
  6
CONTINUOUS
 10
142.2272042223
 20
200.1535190973
  0
VERTEX
  8
0
 62
7
  6
CONTINUOUS
 10
142.1905100248
 20
199.9384621517
  0
VERTEX
  8
0
 62
7
  6
CONTINUOUS
 10
142.1406612243
 20
199.7347594889
  0
VERTEX
  8
0
 62
7
  6
CONTINUOUS
 10
142.0803238979
 20
199.5524810375
  0
VERTEX
  8
0
 62
7
  6
CONTINUOUS
 10
142.0134607997
 20
199.3971116695
  0
VERTEX
  8
0
 62
7
  6
CONTINUOUS
 10
141.9420020078
 20
199.2662174659
  0
VERTEX
  8
0
 62
7
  6
CONTINUOUS
 10
141.8664449303
 20
199.1561292195
  0
VERTEX
  8
0
 62
7
  6
CONTINUOUS
 10
141.7862154787
 20
199.0637999441
  0
VERTEX
  8
0
 62
7
  6
CONTINUOUS
 10
141.7040420369
 20
198.99070403
  0
VERTEX
  8
0
 62
7
  6
CONTINUOUS
 10
141.6222876119
 20
198.9365914381
  0
VERTEX
  8
0
 62
7
  6
CONTINUOUS
 10
141.5426981427
 20
198.90008433
  0
VERTEX
  8
0
 62
7
  6
CONTINUOUS
 10
141.4655715505
 20
198.8791454558
  0
VERTEX
  8
0
 62
7
  6
CONTINUOUS
 10
141.3895280098
 20
198.8722448376
  0
SEQEND
  0
LINE
  8
0
 62
7
  6
CONTINUOUS
 10
143.8589689974
 20
211.1270495382
 11
142.8333889046
 21
207.5386108684
  0
LINE
  8
0
 62
7
  6
CONTINUOUS
 10
142.5750296565
 20
204.2182337949
 11
142.5995858925
 21
204.274124445
  0
POLYLINE
  8
0
 62
7
  6
CONTINUOUS
 66
1
 70
0
  0
VERTEX
  8
0
 62
7
  6
CONTINUOUS
 10
142.5995858925
 20
204.274124445
  0
VERTEX
  8
0
 62
7
  6
CONTINUOUS
 10
142.6419374676
 20
204.3445173585
  0
VERTEX
  8
0
 62
7
  6
CONTINUOUS
 10
142.6975750759
 20
204.4146781642
  0
VERTEX
  8
0
 62
7
  6
CONTINUOUS
 10
142.7490477175
 20
204.4673603758
  0
SEQEND
  0
LINE
  8
0
 62
7
  6
CONTINUOUS
 10
126.0021280782
 20
204.5103420037
 11
126.0831481356
 21
204.5555607745
  0
LINE
  8
0
 62
7
  6
CONTINUOUS
 10
109.2831481356
 20
204.5555607745
 11
109.3662361562
 21
204.584859836
  0
POLYLINE
  8
0
 62
7
  6
CONTINUOUS
 66
1
 70
0
  0
VERTEX
  8
0
 62
7
  6
CONTINUOUS
 10
90.2136856415
 20
195.65834585
  0
VERTEX
  8
0
 62
7
  6
CONTINUOUS
 10
90.1301668387
 20
195.6289724692
  0
VERTEX
  8
0
 62
7
  6
CONTINUOUS
 10
90.0399917684
 20
195.5931606341
  0
VERTEX
  8
0
 62
7
  6
CONTINUOUS
 10
89.9736363991
 20
195.5612377401
  0
VERTEX
  8
0
 62
7
  6
CONTINUOUS
 10
89.9290717482
 20
195.5332120677
  0
VERTEX
  8
0
 62
7
  6
CONTINUOUS
 10
89.9034125059
 20
195.508779519
  0
VERTEX
  8
0
 62
7
  6
CONTINUOUS
 10
89.8942104502
 20
195.4873150008
  0
SEQEND
  0
LINE
  8
0
 62
2
  6
CONTINUOUS
 10
148.2518367805
 20
183.3820092166
 11
156.6518367805
 21
183.3820092166
  0
LINE
  8
0
 62
7
  6
CONTINUOUS
 10
102.9374374048
 20
204.584859836
 11
103.0205254254
 21
204.5555607745
  0
POLYLINE
  8
0
 62
7
  6
CONTINUOUS
 66
1
 70
0
  0
VERTEX
  8
0
 62
7
  6
CONTINUOUS
 10
119.8205254254
 20
204.5555607745
  0
VERTEX
  8
0
 62
7
  6
CONTINUOUS
 10
119.9015454828
 20
204.5103420037
  0
VERTEX
  8
0
 62
7
  6
CONTINUOUS
 10
119.9547532228
 20
204.4672406474
  0
SEQEND
  0
LINE
  8
0
 62
7
  6
CONTINUOUS
 10
136.7547532228
 20
204.4672406474
 11
136.7546258631
 21
204.4673603966
  0
POLYLINE
  8
0
 62
7
  6
CONTINUOUS
 66
1
 70
0
  0
VERTEX
  8
0
 62
7
  6
CONTINUOUS
 10
136.7546258435
 20
204.4673603758
  0
VERTEX
  8
0
 62
7
  6
CONTINUOUS
 10
136.8060984851
 20
204.4146781642
  0
VERTEX
  8
0
 62
7
  6
CONTINUOUS
 10
136.8617360934
 20
204.3445173585
  0
SEQEND
  0
LINE
  8
0
 62
7
  6
CONTINUOUS
 10
136.8617360934
 20
204.3445173585
 11
136.9040876685
 21
204.274124445
  0
LINE
  8
0
 62
2
  6
CONTINUOUS
 10
148.2518367805
 20
223.3820092166
 11
148.2518367805
 21
183.3820092166
  0
LINE
  8
0
 62
7
  6
CONTINUOUS
 10
142.7489203382
 20
204.4672406474
 11
142.7490476979
 21
204.4673603966
  0
LINE
  8
0
 62
7
  6
CONTINUOUS
 10
142.7489203382
 20
204.4672406474
 11
142.8021280782
 21
204.5103420037
  0
LINE
  8
0
 62
7
  6
CONTINUOUS
 10
126.0831481356
 20
204.5555607745
 11
126.1662361562
 21
204.584859836
  0
POLYLINE
  8
0
 62
7
  6
CONTINUOUS
 66
1
 70
0
  0
VERTEX
  8
0
 62
7
  6
CONTINUOUS
 10
90.2135943321
 20
195.6583700206
  0
VERTEX
  8
0
 62
7
  6
CONTINUOUS
 10
90.246619464
 20
195.6683218819
  0
VERTEX
  8
0
 62
7
  6
CONTINUOUS
 10
90.3339588733
 20
195.683266056
  0
VERTEX
  8
0
 62
7
  6
CONTINUOUS
 10
90.3742841592
 20
195.6848948397
  0
SEQEND
  0
POLYLINE
  8
0
 62
7
  6
CONTINUOUS
 66
1
 70
0
  0
VERTEX
  8
0
 62
7
  6
CONTINUOUS
 10
226.9662115619
 20
204.5848531094
  0
VERTEX
  8
0
 62
7
  6
CONTINUOUS
 10
227.0763760473
 20
204.6057475231
  0
VERTEX
  8
0
 62
7
  6
CONTINUOUS
 10
227.1823127873
 20
204.6116185131
  0
SEQEND
  0
LINE
  8
0
 62
7
  6
CONTINUOUS
 10
119.7374374048
 20
204.584859836
 11
119.8205254254
 21
204.5555607745
  0
POLYLINE
  8
0
 62
7
  6
CONTINUOUS
 66
1
 70
0
  0
VERTEX
  8
0
 62
7
  6
CONTINUOUS
 10
136.6205254254
 20
204.5555607745
  0
VERTEX
  8
0
 62
7
  6
CONTINUOUS
 10
136.7015454828
 20
204.5103420037
  0
VERTEX
  8
0
 62
7
  6
CONTINUOUS
 10
136.7547532228
 20
204.4672406474
  0
SEQEND
  0
LINE
  8
0
 62
7
  6
CONTINUOUS
 10
153.4879440888
 20
207.4410501731
 11
154.3782743292
 21
196.3023322154
  0
LINE
  8
0
 62
7
  6
CONTINUOUS
 10
142.8021280782
 20
204.5103420037
 11
142.8831481356
 21
204.5555607745
  0
LINE
  8
0
 62
7
  6
CONTINUOUS
 10
142.8831481356
 20
204.5555607745
 11
142.9662361562
 21
204.584859836
  0
POLYLINE
  8
0
 62
7
  6
CONTINUOUS
 66
1
 70
0
  0
VERTEX
  8
0
 62
7
  6
CONTINUOUS
 10
210.1662115619
 20
204.5848531094
  0
VERTEX
  8
0
 62
7
  6
CONTINUOUS
 10
210.2763760473
 20
204.6057475231
  0
VERTEX
  8
0
 62
7
  6
CONTINUOUS
 10
210.3823127873
 20
204.6116185131
  0
SEQEND
  0
POLYLINE
  8
0
 62
7
  6
CONTINUOUS
 66
1
 70
0
  0
VERTEX
  8
0
 62
7
  6
CONTINUOUS
 10
193.3662115619
 20
204.5848531094
  0
VERTEX
  8
0
 62
7
  6
CONTINUOUS
 10
193.4763760473
 20
204.6057475231
  0
VERTEX
  8
0
 62
7
  6
CONTINUOUS
 10
193.5823127873
 20
204.6116185131
  0
SEQEND
  0
POLYLINE
  8
0
 62
7
  6
CONTINUOUS
 66
1
 70
0
  0
VERTEX
  8
0
 62
7
  6
CONTINUOUS
 10
90.5505875695
 20
195.6848981012
  0
VERTEX
  8
0
 62
7
  6
CONTINUOUS
 10
90.6382009534
 20
195.6888466663
  0
VERTEX
  8
0
 62
7
  6
CONTINUOUS
 10
90.7790918508
 20
195.7120710539
  0
VERTEX
  8
0
 62
7
  6
CONTINUOUS
 10
90.9156991187
 20
195.7557713766
  0
VERTEX
  8
0
 62
7
  6
CONTINUOUS
 10
91.0453284889
 20
195.8192760987
  0
VERTEX
  8
0
 62
7
  6
CONTINUOUS
 10
91.165334905
 20
195.9015574033
  0
VERTEX
  8
0
 62
7
  6
CONTINUOUS
 10
91.273241865
 20
196.0012938726
  0
VERTEX
  8
0
 62
7
  6
CONTINUOUS
 10
91.3666398276
 20
196.1167648123
  0
VERTEX
  8
0
 62
7
  6
CONTINUOUS
 10
91.443193984
 20
196.245637069
  0
VERTEX
  8
0
 62
7
  6
CONTINUOUS
 10
91.5009979506
 20
196.3852463745
  0
VERTEX
  8
0
 62
7
  6
CONTINUOUS
 10
91.538577535
 20
196.5326358103
  0
VERTEX
  8
0
 62
7
  6
CONTINUOUS
 10
91.5521941811
 20
196.6375707869
  0
SEQEND
  0
LINE
  8
0
 62
7
  6
CONTINUOUS
 10
89.8868467757
 20
195.3820092166
 11
86.2518367805
 21
195.3820092166
  0
LINE
  8
0
 62
7
  6
CONTINUOUS
 10
96.5750950631
 20
195.3820092166
 11
98.9285784979
 21
195.3820092166
  0
LINE
  8
0
 62
7
  6
CONTINUOUS
 10
104.9750950631
 20
195.3820092166
 11
107.3285784979
 21
195.3820092166
  0
LINE
  8
0
 62
7
  6
CONTINUOUS
 10
113.3750950631
 20
195.3820092166
 11
115.7285784979
 21
195.3820092166
  0
LINE
  8
0
 62
7
  6
CONTINUOUS
 10
121.7750950631
 20
195.3820092166
 11
124.1285784979
 21
195.3820092166
  0
LINE
  8
0
 62
7
  6
CONTINUOUS
 10
130.1750950631
 20
195.3820092166
 11
132.5285784979
 21
195.3820092166
  0
LINE
  8
0
 62
7
  6
CONTINUOUS
 10
138.5750950631
 20
195.3820092166
 11
140.9285784979
 21
195.3820092166
  0
LINE
  8
0
 62
7
  6
CONTINUOUS
 10
146.9750950631
 20
195.3820092166
 11
149.3285784979
 21
195.3820092166
  0
LINE
  8
0
 62
7
  6
CONTINUOUS
 10
155.3750950631
 20
195.3820092166
 11
157.7285784979
 21
195.3820092166
  0
LINE
  8
0
 62
7
  6
CONTINUOUS
 10
163.7750950631
 20
195.3820092166
 11
166.1285784979
 21
195.3820092166
  0
LINE
  8
0
 62
7
  6
CONTINUOUS
 10
172.1750950631
 20
195.3820092166
 11
174.5285784979
 21
195.3820092166
  0
LINE
  8
0
 62
7
  6
CONTINUOUS
 10
180.5750950631
 20
195.3820092166
 11
182.9285784979
 21
195.3820092166
  0
LINE
  8
0
 62
7
  6
CONTINUOUS
 10
188.9750950631
 20
195.3820092166
 11
191.3285784979
 21
195.3820092166
  0
LINE
  8
0
 62
7
  6
CONTINUOUS
 10
197.3750950631
 20
195.3820092166
 11
199.7285784979
 21
195.3820092166
  0
LINE
  8
0
 62
7
  6
CONTINUOUS
 10
205.7750950631
 20
195.3820092166
 11
208.1285784979
 21
195.3820092166
  0
LINE
  8
0
 62
7
  6
CONTINUOUS
 10
214.1750950631
 20
195.3820092166
 11
216.5285784979
 21
195.3820092166
  0
LINE
  8
0
 62
7
  6
CONTINUOUS
 10
222.5750950631
 20
195.3820092166
 11
224.9285784979
 21
195.3820092166
  0
LINE
  8
0
 62
6
  6
CONTINUOUS
 10
230.9750950631
 20
195.3820092166
 11
231.6168267853
 21
195.3820092166
  0
LINE
  8
0
 62
7
  6
CONTINUOUS
 10
231.6168267853
 20
195.3820092166
 11
235.2518367805
 21
195.3820092166
  0
LINE
  8
0
 62
7
  6
CONTINUOUS
 10
235.2518367805
 20
195.4320092166
 11
225.0716762
 21
195.4320092166
  0
LINE
  8
0
 62
7
  6
CONTINUOUS
 10
222.2763746801
 20
195.4320092166
 11
208.4272988808
 21
195.4320092166
  0
LINE
  8
0
 62
7
  6
CONTINUOUS
 10
205.4763746801
 20
195.4320092166
 11
191.6272988808
 21
195.4320092166
  0
LINE
  8
0
 62
7
  6
CONTINUOUS
 10
188.6763746801
 20
195.4320092166
 11
174.8272988808
 21
195.4320092166
  0
LINE
  8
0
 62
7
  6
CONTINUOUS
 10
171.8763746801
 20
195.4320092166
 11
158.0272988808
 21
195.4320092166
  0
LINE
  8
0
 62
7
  6
CONTINUOUS
 10
155.0763746801
 20
195.4320092166
 11
141.2272988808
 21
195.4320092166
  0
LINE
  8
0
 62
7
  6
CONTINUOUS
 10
138.2763746801
 20
195.4320092166
 11
124.4272988808
 21
195.4320092166
  0
LINE
  8
0
 62
7
  6
CONTINUOUS
 10
121.4763746801
 20
195.4320092166
 11
107.6272988808
 21
195.4320092166
  0
LINE
  8
0
 62
7
  6
CONTINUOUS
 10
104.6763746801
 20
195.4320092166
 11
89.8903431163
 21
195.4320092166
  0
LINE
  8
0
 62
7
  6
CONTINUOUS
 10
90.3744470349
 20
195.6848946325
 11
90.5505875693
 21
195.6848946325
  0
LINE
  8
0
 62
7
  6
CONTINUOUS
 10
90.9012300554
 20
197.9514920023
 11
90.5329094397
 21
197.9514920023
  0
POLYLINE
  8
0
 62
7
  6
CONTINUOUS
 66
1
 70
0
  0
VERTEX
  8
0
 62
7
  6
CONTINUOUS
 10
138.1141455517
 20
198.8722448376
  0
VERTEX
  8
0
 62
7
  6
CONTINUOUS
 10
138.0378946438
 20
198.8791829767
  0
VERTEX
  8
0
 62
7
  6
CONTINUOUS
 10
137.960158834
 20
198.9003812458
  0
VERTEX
  8
0
 62
7
  6
CONTINUOUS
 10
137.8802020797
 20
198.9372519318
  0
VERTEX
  8
0
 62
7
  6
CONTINUOUS
 10
137.798126225
 20
198.9918674761
  0
VERTEX
  8
0
 62
7
  6
CONTINUOUS
 10
137.7157298406
 20
199.0655575097
  0
VERTEX
  8
0
 62
7
  6
CONTINUOUS
 10
137.6352115278
 20
199.158753136
  0
VERTEX
  8
0
 62
7
  6
CONTINUOUS
 10
137.5592305583
 20
199.2702149381
  0
VERTEX
  8
0
 62
7
  6
CONTINUOUS
 10
137.4874953354
 20
199.4027225987
  0
VERTEX
  8
0
 62
7
  6
CONTINUOUS
 10
137.4207726867
 20
199.559302888
  0
VERTEX
  8
0
 62
7
  6
CONTINUOUS
 10
137.3610574859
 20
199.74161725
  0
VERTEX
  8
0
 62
7
  6
CONTINUOUS
 10
137.3120724642
 20
199.9437822356
  0
VERTEX
  8
0
 62
7
  6
CONTINUOUS
 10
137.2760904848
 20
200.1562832026
  0
VERTEX
  8
0
 62
7
  6
CONTINUOUS
 10
137.253257594
 20
200.3685422367
  0
SEQEND
  0
LINE
  8
0
 62
7
  6
CONTINUOUS
 10
136.5374374048
 20
204.584859836
 11
136.6205254254
 21
204.5555607745
  0
LINE
  8
0
 62
7
  6
CONTINUOUS
 10
153.6617360934
 20
204.3445173585
 11
153.7040876685
 21
204.274124445
  0
LINE
  8
0
 62
7
  6
CONTINUOUS
 10
153.7040876685
 20
204.274124445
 11
153.7286439044
 21
204.2182337949
  0
LINE
  8
0
 62
7
  6
CONTINUOUS
 10
152.4447045636
 20
211.1270495382
 11
153.4702846563
 21
207.5386108684
  0
LINE
  8
0
 62
2
  6
CONTINUOUS
 10
156.4778286805
 20
224.2308292166
 11
156.4778286805
 21
184.2308292166
  0
LINE
  8
0
 62
6
  6
CONTINUOUS
 10
156.6518367805
 20
223.3820092166
 11
156.6518367805
 21
183.3820092166
  0
LINE
  8
DEFAULT_1
 62
7
  6
CENTER
 10
160.7518367805
 20
181.3820092166
 11
160.7518367805
 21
225.3820092166
  0
LINE
  8
0
 62
7
  6
CONTINUOUS
 10
159.6157294721
 20
207.4410501731
 11
158.7253992317
 21
196.3023322154
  0
LINE
  8
0
 62
7
  6
CONTINUOUS
 10
160.6589689974
 20
211.1270495382
 11
159.6333889046
 21
207.5386108684
  0
LINE
  8
0
 62
7
  6
CONTINUOUS
 10
159.3750296565
 20
204.2182337949
 11
159.3995858925
 21
204.274124445
  0
POLYLINE
  8
0
 62
7
  6
CONTINUOUS
 66
1
 70
0
  0
VERTEX
  8
0
 62
7
  6
CONTINUOUS
 10
159.3995858925
 20
204.274124445
  0
VERTEX
  8
0
 62
7
  6
CONTINUOUS
 10
159.4419374676
 20
204.3445173585
  0
VERTEX
  8
0
 62
7
  6
CONTINUOUS
 10
159.4975750759
 20
204.4146781642
  0
VERTEX
  8
0
 62
7
  6
CONTINUOUS
 10
159.5490477175
 20
204.4673603758
  0
SEQEND
  0
LINE
  8
0
 62
7
  6
CONTINUOUS
 10
159.5489203382
 20
204.4672406474
 11
159.5490476979
 21
204.4673603966
  0
LINE
  8
0
 62
7
  6
CONTINUOUS
 10
159.5489203382
 20
204.4672406474
 11
159.6021280782
 21
204.5103420037
  0
LINE
  8
0
 62
7
  6
CONTINUOUS
 10
159.6021280782
 20
204.5103420037
 11
159.6831481356
 21
204.5555607745
  0
LINE
  8
0
 62
7
  6
CONTINUOUS
 10
159.6831481356
 20
204.5555607745
 11
159.7662361562
 21
204.584859836
  0
POLYLINE
  8
0
 62
7
  6
CONTINUOUS
 66
1
 70
0
  0
VERTEX
  8
0
 62
7
  6
CONTINUOUS
 10
176.5662115619
 20
204.5848531094
  0
VERTEX
  8
0
 62
7
  6
CONTINUOUS
 10
176.6763760473
 20
204.6057475231
  0
VERTEX
  8
0
 62
7
  6
CONTINUOUS
 10
176.7823127873
 20
204.6116185131
  0
SEQEND
  0
POLYLINE
  8
0
 62
7
  6
CONTINUOUS
 66
1
 70
0
  0
VERTEX
  8
0
 62
7
  6
CONTINUOUS
 10
90.90123005
 20
197.9515159355
  0
VERTEX
  8
0
 62
7
  6
CONTINUOUS
 10
90.9437119081
 20
197.9528256379
  0
VERTEX
  8
0
 62
7
  6
CONTINUOUS
 10
91.0552130063
 20
197.9687171121
  0
VERTEX
  8
0
 62
7
  6
CONTINUOUS
 10
91.1654468924
 20
198.0030791412
  0
VERTEX
  8
0
 62
7
  6
CONTINUOUS
 10
91.2725041742
 20
198.0563323989
  0
VERTEX
  8
0
 62
7
  6
CONTINUOUS
 10
91.3740504521
 20
198.1286370628
  0
VERTEX
  8
0
 62
7
  6
CONTINUOUS
 10
91.4679476066
 20
198.2201428073
  0
VERTEX
  8
0
 62
7
  6
CONTINUOUS
 10
91.551385887
 20
198.329955427
  0
VERTEX
  8
0
 62
7
  6
CONTINUOUS
 10
91.6217603485
 20
198.456405189
  0
VERTEX
  8
0
 62
7
  6
CONTINUOUS
 10
91.6770917938
 20
198.5980630988
  0
VERTEX
  8
0
 62
7
  6
CONTINUOUS
 10
91.715245567
 20
198.7530296953
  0
VERTEX
  8
0
 62
7
  6
CONTINUOUS
 10
91.731120385
 20
198.8760361565
  0
SEQEND
  0
LINE
  8
0
 62
7
  6
CONTINUOUS
 10
138.1141455517
 20
198.8722448376
 11
141.3895280098
 21
198.8722448376
  0
LINE
  8
0
 62
7
  6
CONTINUOUS
 10
171.7141455517
 20
198.8722448376
 11
174.9895280098
 21
198.8722448376
  0
LINE
  8
0
 62
7
  6
CONTINUOUS
 10
235.2518367805
 20
203.3820092166
 11
226.4912857683
 21
203.3820092166
  0
LINE
  8
0
 62
7
  6
CONTINUOUS
 10
221.0123877927
 20
203.3820092166
 11
209.6912857683
 21
203.3820092166
  0
LINE
  8
0
 62
7
  6
CONTINUOUS
 10
204.2123877927
 20
203.3820092166
 11
192.8912857683
 21
203.3820092166
  0
LINE
  8
0
 62
7
  6
CONTINUOUS
 10
187.4123877927
 20
203.3820092166
 11
176.0912857683
 21
203.3820092166
  0
LINE
  8
0
 62
7
  6
CONTINUOUS
 10
170.6123877927
 20
203.3820092166
 11
159.2912857683
 21
203.3820092166
  0
LINE
  8
0
 62
7
  6
CONTINUOUS
 10
153.8123877927
 20
203.3820092166
 11
142.4912857683
 21
203.3820092166
  0
LINE
  8
0
 62
7
  6
CONTINUOUS
 10
137.0123877927
 20
203.3820092166
 11
125.6912857683
 21
203.3820092166
  0
LINE
  8
0
 62
7
  6
CONTINUOUS
 10
120.2123877927
 20
203.3820092166
 11
108.8912857683
 21
203.3820092166
  0
LINE
  8
0
 62
7
  6
CONTINUOUS
 10
103.4123877927
 20
203.3820092166
 11
92.0912857683
 21
203.3820092166
  0
LINE
  8
DEFAULT_1
 62
7
  6
CENTER
 10
83.0518367805
 20
203.3820092166
 11
92.0912857683
 21
203.3820092166
  0
LINE
  8
DEFAULT_1
 62
7
  6
CENTER
 10
235.2518367805
 20
203.3820092166
 11
238.4518367805
 21
203.3820092166
  0
LINE
  8
DEFAULT_1
 62
7
  6
CENTER
 10
221.0123877927
 20
203.3820092166
 11
226.4912857683
 21
203.3820092166
  0
LINE
  8
DEFAULT_1
 62
7
  6
CENTER
 10
204.2123877927
 20
203.3820092166
 11
209.6912857683
 21
203.3820092166
  0
LINE
  8
DEFAULT_1
 62
7
  6
CENTER
 10
187.4123877927
 20
203.3820092166
 11
192.8912857683
 21
203.3820092166
  0
LINE
  8
DEFAULT_1
 62
7
  6
CENTER
 10
170.6123877927
 20
203.3820092166
 11
170.6873578469
 21
203.3820092166
  0
LINE
  8
DEFAULT_1
 62
7
  6
CENTER
 10
153.8123877927
 20
203.3820092166
 11
159.2912857683
 21
203.3820092166
  0
LINE
  8
DEFAULT_1
 62
7
  6
CENTER
 10
137.0123877927
 20
203.3820092166
 11
137.0873578469
 21
203.3820092166
  0
LINE
  8
DEFAULT_1
 62
7
  6
CENTER
 10
120.2123877927
 20
203.3820092166
 11
125.6912857683
 21
203.3820092166
  0
LINE
  8
DEFAULT_1
 62
7
  6
CENTER
 10
103.4123877927
 20
203.3820092166
 11
108.8912857683
 21
203.3820092166
  0
LINE
  8
DEFAULT_1
 62
7
  6
CENTER
 10
176.0163157141
 20
203.3820092166
 11
176.0912857683
 21
203.3820092166
  0
LINE
  8
DEFAULT_1
 62
7
  6
CENTER
 10
142.4163157141
 20
203.3820092166
 11
142.4912857683
 21
203.3820092166
  0
LINE
  8
0
 62
7
  6
CONTINUOUS
 10
137.0873578469
 20
203.3820092166
 11
142.4163157141
 21
203.3820092166
  0
LINE
  8
0
 62
7
  6
CONTINUOUS
 10
170.6873578469
 20
203.3820092166
 11
176.0163157141
 21
203.3820092166
  0
POLYLINE
  8
0
 62
7
  6
CONTINUOUS
 66
1
 70
0
  0
VERTEX
  8
0
 62
7
  6
CONTINUOUS
 10
102.721403532
 20
204.6116185135
  0
VERTEX
  8
0
 62
7
  6
CONTINUOUS
 10
102.8255749602
 20
204.605944033
  0
VERTEX
  8
0
 62
7
  6
CONTINUOUS
 10
102.9374199618
 20
204.5848646077
  0
SEQEND
  0
POLYLINE
  8
0
 62
7
  6
CONTINUOUS
 66
1
 70
0
  0
VERTEX
  8
0
 62
7
  6
CONTINUOUS
 10
119.521403532
 20
204.6116185135
  0
VERTEX
  8
0
 62
7
  6
CONTINUOUS
 10
119.6255749602
 20
204.605944033
  0
VERTEX
  8
0
 62
7
  6
CONTINUOUS
 10
119.7374199618
 20
204.5848646077
  0
SEQEND
  0
POLYLINE
  8
0
 62
7
  6
CONTINUOUS
 66
1
 70
0
  0
VERTEX
  8
0
 62
7
  6
CONTINUOUS
 10
136.321403532
 20
204.6116185135
  0
VERTEX
  8
0
 62
7
  6
CONTINUOUS
 10
136.4255749602
 20
204.605944033
  0
VERTEX
  8
0
 62
7
  6
CONTINUOUS
 10
136.5374199618
 20
204.5848646077
  0
SEQEND
  0
POLYLINE
  8
0
 62
7
  6
CONTINUOUS
 66
1
 70
0
  0
VERTEX
  8
0
 62
7
  6
CONTINUOUS
 10
142.4163157141
 20
203.3820092166
  0
VERTEX
  8
0
 62
7
  6
CONTINUOUS
 10
142.4491854253
 20
203.3796521071
  0
VERTEX
  8
0
 62
7
  6
CONTINUOUS
 10
142.4720795993
 20
203.372139539
  0
VERTEX
  8
0
 62
7
  6
CONTINUOUS
 10
142.4848996759
 20
203.3590775938
  0
VERTEX
  8
0
 62
7
  6
CONTINUOUS
 10
142.4879442162
 20
203.3402038231
  0
SEQEND
  0
POLYLINE
  8
0
 62
7
  6
CONTINUOUS
 66
1
 70
0
  0
VERTEX
  8
0
 62
7
  6
CONTINUOUS
 10
171.7141455517
 20
198.8722448376
  0
VERTEX
  8
0
 62
7
  6
CONTINUOUS
 10
171.6378946438
 20
198.8791829767
  0
VERTEX
  8
0
 62
7
  6
CONTINUOUS
 10
171.560158834
 20
198.9003812458
  0
VERTEX
  8
0
 62
7
  6
CONTINUOUS
 10
171.4802020797
 20
198.9372519318
  0
VERTEX
  8
0
 62
7
  6
CONTINUOUS
 10
171.398126225
 20
198.9918674761
  0
VERTEX
  8
0
 62
7
  6
CONTINUOUS
 10
171.3157298406
 20
199.0655575097
  0
VERTEX
  8
0
 62
7
  6
CONTINUOUS
 10
171.2352115278
 20
199.158753136
  0
VERTEX
  8
0
 62
7
  6
CONTINUOUS
 10
171.1592305583
 20
199.2702149381
  0
VERTEX
  8
0
 62
7
  6
CONTINUOUS
 10
171.0874953354
 20
199.4027225987
  0
VERTEX
  8
0
 62
7
  6
CONTINUOUS
 10
171.0207726867
 20
199.559302888
  0
VERTEX
  8
0
 62
7
  6
CONTINUOUS
 10
170.9610574859
 20
199.74161725
  0
VERTEX
  8
0
 62
7
  6
CONTINUOUS
 10
170.9120724642
 20
199.9437822356
  0
VERTEX
  8
0
 62
7
  6
CONTINUOUS
 10
170.8760904848
 20
200.1562832026
  0
VERTEX
  8
0
 62
7
  6
CONTINUOUS
 10
170.853257594
 20
200.3685422367
  0
SEQEND
  0
LINE
  8
0
 62
7
  6
CONTINUOUS
 10
153.3374374048
 20
204.584859836
 11
153.4205254254
 21
204.5555607745
  0
POLYLINE
  8
0
 62
7
  6
CONTINUOUS
 66
1
 70
0
  0
VERTEX
  8
0
 62
7
  6
CONTINUOUS
 10
153.4205254254
 20
204.5555607745
  0
VERTEX
  8
0
 62
7
  6
CONTINUOUS
 10
153.5015454828
 20
204.5103420037
  0
VERTEX
  8
0
 62
7
  6
CONTINUOUS
 10
153.5547532228
 20
204.4672406474
  0
SEQEND
  0
LINE
  8
0
 62
7
  6
CONTINUOUS
 10
153.5547532228
 20
204.4672406474
 11
153.5546258631
 21
204.4673603966
  0
POLYLINE
  8
0
 62
7
  6
CONTINUOUS
 66
1
 70
0
  0
VERTEX
  8
0
 62
7
  6
CONTINUOUS
 10
153.5546258435
 20
204.4673603758
  0
VERTEX
  8
0
 62
7
  6
CONTINUOUS
 10
153.6060984851
 20
204.4146781642
  0
VERTEX
  8
0
 62
7
  6
CONTINUOUS
 10
153.6617360934
 20
204.3445173585
  0
SEQEND
  0
LINE
  8
0
 62
7
  6
CONTINUOUS
 10
176.4831481356
 20
204.5555607745
 11
176.5662361562
 21
204.584859836
  0
POLYLINE
  8
0
 62
7
  6
CONTINUOUS
 66
1
 70
0
  0
VERTEX
  8
0
 62
7
  6
CONTINUOUS
 10
159.7662115619
 20
204.5848531094
  0
VERTEX
  8
0
 62
7
  6
CONTINUOUS
 10
159.8763760473
 20
204.6057475231
  0
VERTEX
  8
0
 62
7
  6
CONTINUOUS
 10
159.9823127873
 20
204.6116185131
  0
SEQEND
  0
POLYLINE
  8
0
 62
7
  6
CONTINUOUS
 66
1
 70
0
  0
VERTEX
  8
0
 62
7
  6
CONTINUOUS
 10
142.9662115619
 20
204.5848531094
  0
VERTEX
  8
0
 62
7
  6
CONTINUOUS
 10
143.0763760473
 20
204.6057475231
  0
VERTEX
  8
0
 62
7
  6
CONTINUOUS
 10
143.1823127873
 20
204.6116185131
  0
SEQEND
  0
LINE
  8
0
 62
7
  6
CONTINUOUS
 10
92.7822389021
 20
204.6116185135
 11
92.7823127603
 21
204.6116185131
  0
LINE
  8
0
 62
7
  6
CONTINUOUS
 10
109.5822389021
 20
204.6116185135
 11
109.5823127603
 21
204.6116185131
  0
LINE
  8
0
 62
7
  6
CONTINUOUS
 10
126.3822389021
 20
204.6116185135
 11
126.3823127603
 21
204.6116185131
  0
LINE
  8
0
 62
7
  6
CONTINUOUS
 10
143.1822389021
 20
204.6116185135
 11
143.1823127603
 21
204.6116185131
  0
LINE
  8
0
 62
7
  6
CONTINUOUS
 10
159.9822389021
 20
204.6116185135
 11
159.9823127603
 21
204.6116185131
  0
LINE
  8
0
 62
7
  6
CONTINUOUS
 10
176.7822389021
 20
204.6116185135
 11
176.7823127603
 21
204.6116185131
  0
LINE
  8
0
 62
7
  6
CONTINUOUS
 10
193.5822389021
 20
204.6116185135
 11
193.5823127603
 21
204.6116185131
  0
LINE
  8
0
 62
7
  6
CONTINUOUS
 10
210.3822389021
 20
204.6116185135
 11
210.3823127603
 21
204.6116185131
  0
LINE
  8
0
 62
7
  6
CONTINUOUS
 10
227.1822389021
 20
204.6116185135
 11
227.1823127603
 21
204.6116185131
  0
POLYLINE
  8
0
 62
7
  6
CONTINUOUS
 66
1
 70
0
  0
VERTEX
  8
0
 62
7
  6
CONTINUOUS
 10
153.121403532
 20
204.6116185135
  0
VERTEX
  8
0
 62
7
  6
CONTINUOUS
 10
153.2255749602
 20
204.605944033
  0
VERTEX
  8
0
 62
7
  6
CONTINUOUS
 10
153.3374199618
 20
204.5848646077
  0
SEQEND
  0
POLYLINE
  8
0
 62
7
  6
CONTINUOUS
 66
1
 70
0
  0
VERTEX
  8
0
 62
7
  6
CONTINUOUS
 10
169.921403532
 20
204.6116185135
  0
VERTEX
  8
0
 62
7
  6
CONTINUOUS
 10
170.0255749601
 20
204.605944033
  0
VERTEX
  8
0
 62
7
  6
CONTINUOUS
 10
170.1374199618
 20
204.5848646077
  0
SEQEND
  0
POLYLINE
  8
0
 62
7
  6
CONTINUOUS
 66
1
 70
0
  0
VERTEX
  8
0
 62
7
  6
CONTINUOUS
 10
186.721403532
 20
204.6116185135
  0
VERTEX
  8
0
 62
7
  6
CONTINUOUS
 10
186.8255749602
 20
204.605944033
  0
VERTEX
  8
0
 62
7
  6
CONTINUOUS
 10
186.9374199618
 20
204.5848646077
  0
SEQEND
  0
POLYLINE
  8
0
 62
7
  6
CONTINUOUS
 66
1
 70
0
  0
VERTEX
  8
0
 62
7
  6
CONTINUOUS
 10
203.521403532
 20
204.6116185135
  0
VERTEX
  8
0
 62
7
  6
CONTINUOUS
 10
203.6255749602
 20
204.605944033
  0
VERTEX
  8
0
 62
7
  6
CONTINUOUS
 10
203.7374199618
 20
204.5848646077
  0
SEQEND
  0
POLYLINE
  8
0
 62
7
  6
CONTINUOUS
 66
1
 70
0
  0
VERTEX
  8
0
 62
7
  6
CONTINUOUS
 10
220.321403532
 20
204.6116185135
  0
VERTEX
  8
0
 62
7
  6
CONTINUOUS
 10
220.4255749602
 20
204.605944033
  0
VERTEX
  8
0
 62
7
  6
CONTINUOUS
 10
220.5374199618
 20
204.5848646077
  0
SEQEND
  0
POLYLINE
  8
0
 62
7
  6
CONTINUOUS
 66
1
 70
0
  0
VERTEX
  8
0
 62
7
  6
CONTINUOUS
 10
176.0163157141
 20
203.3820092166
  0
VERTEX
  8
0
 62
7
  6
CONTINUOUS
 10
176.049191484
 20
203.3796510573
  0
VERTEX
  8
0
 62
7
  6
CONTINUOUS
 10
176.0720848048
 20
203.3721365467
  0
VERTEX
  8
0
 62
7
  6
CONTINUOUS
 10
176.0848994341
 20
203.3590780827
  0
VERTEX
  8
0
 62
7
  6
CONTINUOUS
 10
176.0879442162
 20
203.3402038231
  0
SEQEND
  0
LINE
  8
0
 62
7
  6
CONTINUOUS
 10
170.1374374048
 20
204.584859836
 11
170.2205254254
 21
204.5555607745
  0
POLYLINE
  8
0
 62
7
  6
CONTINUOUS
 66
1
 70
0
  0
VERTEX
  8
0
 62
7
  6
CONTINUOUS
 10
170.2205254254
 20
204.5555607745
  0
VERTEX
  8
0
 62
7
  6
CONTINUOUS
 10
170.3015454828
 20
204.5103420037
  0
VERTEX
  8
0
 62
7
  6
CONTINUOUS
 10
170.3547532228
 20
204.4672406474
  0
SEQEND
  0
LINE
  8
0
 62
7
  6
CONTINUOUS
 10
171.1782743292
 20
196.3023322154
 11
170.2879440888
 21
207.4410501731
  0
POLYLINE
  8
0
 62
7
  6
CONTINUOUS
 66
1
 70
0
  0
VERTEX
  8
0
 62
7
  6
CONTINUOUS
 10
170.6157293448
 20
203.3402038231
  0
VERTEX
  8
0
 62
7
  6
CONTINUOUS
 10
170.61874179
 20
203.3590125124
  0
VERTEX
  8
0
 62
7
  6
CONTINUOUS
 10
170.6315710024
 20
203.3721263344
  0
VERTEX
  8
0
 62
7
  6
CONTINUOUS
 10
170.6545168604
 20
203.3796570794
  0
VERTEX
  8
0
 62
7
  6
CONTINUOUS
 10
170.6873578469
 20
203.3820092166
  0
SEQEND
  0
LINE
  8
0
 62
7
  6
CONTINUOUS
 10
176.3489203382
 20
204.4672406474
 11
176.3490476979
 21
204.4673603966
  0
LINE
  8
0
 62
7
  6
CONTINUOUS
 10
176.3489203382
 20
204.4672406474
 11
176.4021280782
 21
204.5103420037
  0
LINE
  8
0
 62
7
  6
CONTINUOUS
 10
176.4021280782
 20
204.5103420037
 11
176.4831481356
 21
204.5555607745
  0
LINE
  8
0
 62
7
  6
CONTINUOUS
 10
193.2831481356
 20
204.5555607745
 11
193.3662361562
 21
204.584859836
  0
POLYLINE
  8
0
 62
7
  6
CONTINUOUS
 66
1
 70
0
  0
VERTEX
  8
0
 62
7
  6
CONTINUOUS
 10
126.1662115619
 20
204.5848531094
  0
VERTEX
  8
0
 62
7
  6
CONTINUOUS
 10
126.2763760473
 20
204.6057475231
  0
VERTEX
  8
0
 62
7
  6
CONTINUOUS
 10
126.3823127873
 20
204.6116185131
  0
SEQEND
  0
POLYLINE
  8
0
 62
7
  6
CONTINUOUS
 66
1
 70
0
  0
VERTEX
  8
0
 62
7
  6
CONTINUOUS
 10
109.3662115619
 20
204.5848531094
  0
VERTEX
  8
0
 62
7
  6
CONTINUOUS
 10
109.4763760473
 20
204.6057475231
  0
VERTEX
  8
0
 62
7
  6
CONTINUOUS
 10
109.5823127873
 20
204.6116185131
  0
SEQEND
  0
LINE
  8
0
 62
6
  6
CONTINUOUS
 10
227.6625788827
 20
210.9168428547
 11
227.5824690136
 21
210.9167716094
  0
LINE
  8
0
 62
7
  6
CONTINUOUS
 10
219.2625796058
 20
210.9168428567
 11
219.1824690136
 21
210.9167716101
  0
LINE
  8
0
 62
7
  6
CONTINUOUS
 10
202.4625796058
 20
210.9168428567
 11
202.3824690136
 21
210.9167716101
  0
LINE
  8
0
 62
7
  6
CONTINUOUS
 10
185.6625796058
 20
210.9168428567
 11
185.5824690136
 21
210.9167716101
  0
LINE
  8
0
 62
7
  6
CONTINUOUS
 10
168.8625796058
 20
210.9168428567
 11
168.7824690136
 21
210.9167716101
  0
LINE
  8
0
 62
7
  6
CONTINUOUS
 10
152.0625796058
 20
210.9168428567
 11
151.9824690136
 21
210.9167716101
  0
LINE
  8
0
 62
7
  6
CONTINUOUS
 10
135.2625796058
 20
210.9168428567
 11
135.1824690136
 21
210.9167716101
  0
LINE
  8
0
 62
7
  6
CONTINUOUS
 10
118.4625796058
 20
210.9168428567
 11
118.3824690136
 21
210.9167716101
  0
LINE
  8
0
 62
7
  6
CONTINUOUS
 10
101.6625796058
 20
210.9168428567
 11
101.5824690136
 21
210.9167716101
  0
LINE
  8
0
 62
7
  6
CONTINUOUS
 10
236.0518367805
 20
211.3820092166
 11
228.3212045915
 21
211.3820092166
  0
LINE
  8
0
 62
7
  6
CONTINUOUS
 10
228.241093929
 20
211.3820092166
 11
227.6941921866
 21
211.3820092166
  0
LINE
  8
0
 62
7
  6
CONTINUOUS
 10
219.812590221
 20
211.3820092166
 11
211.5212045915
 21
211.3820092166
  0
LINE
  8
0
 62
7
  6
CONTINUOUS
 10
211.441093929
 20
211.3820092166
 11
210.8941921866
 21
211.3820092166
  0
LINE
  8
0
 62
7
  6
CONTINUOUS
 10
203.012590221
 20
211.3820092166
 11
194.7212045915
 21
211.3820092166
  0
LINE
  8
0
 62
7
  6
CONTINUOUS
 10
194.641093929
 20
211.3820092166
 11
194.0941921866
 21
211.3820092166
  0
LINE
  8
0
 62
7
  6
CONTINUOUS
 10
186.212590221
 20
211.3820092166
 11
177.9212045915
 21
211.3820092166
  0
LINE
  8
0
 62
7
  6
CONTINUOUS
 10
177.841093929
 20
211.3820092166
 11
177.2941921866
 21
211.3820092166
  0
LINE
  8
0
 62
7
  6
CONTINUOUS
 10
169.412590221
 20
211.3820092166
 11
161.1212045915
 21
211.3820092166
  0
LINE
  8
0
 62
7
  6
CONTINUOUS
 10
161.041093929
 20
211.3820092166
 11
160.4941921866
 21
211.3820092166
  0
LINE
  8
0
 62
7
  6
CONTINUOUS
 10
152.612590221
 20
211.3820092166
 11
144.3212045915
 21
211.3820092166
  0
LINE
  8
0
 62
7
  6
CONTINUOUS
 10
144.241093929
 20
211.3820092166
 11
143.6941921866
 21
211.3820092166
  0
LINE
  8
0
 62
7
  6
CONTINUOUS
 10
135.812590221
 20
211.3820092166
 11
127.5212045915
 21
211.3820092166
  0
LINE
  8
0
 62
7
  6
CONTINUOUS
 10
127.441093929
 20
211.3820092166
 11
126.8941921866
 21
211.3820092166
  0
LINE
  8
0
 62
7
  6
CONTINUOUS
 10
119.012590221
 20
211.3820092166
 11
110.7212045915
 21
211.3820092166
  0
LINE
  8
0
 62
7
  6
CONTINUOUS
 10
110.641093929
 20
211.3820092166
 11
110.0941921866
 21
211.3820092166
  0
LINE
  8
0
 62
7
  6
CONTINUOUS
 10
102.212590221
 20
211.3820092166
 11
93.9212045915
 21
211.3820092166
  0
LINE
  8
0
 62
7
  6
CONTINUOUS
 10
93.841093929
 20
211.3820092166
 11
93.2941921866
 21
211.3820092166
  0
LINE
  8
0
 62
7
  6
CONTINUOUS
 10
93.2666686236
 20
211.3820092166
 11
85.4518367805
 21
211.3820092166
  0
LINE
  8
0
 62
7
  6
CONTINUOUS
 10
102.2370049373
 20
211.3820092166
 11
110.0666686236
 21
211.3820092166
  0
LINE
  8
0
 62
7
  6
CONTINUOUS
 10
119.0370049373
 20
211.3820092166
 11
126.8666686236
 21
211.3820092166
  0
LINE
  8
0
 62
7
  6
CONTINUOUS
 10
135.8370049373
 20
211.3820092166
 11
143.6666686236
 21
211.3820092166
  0
LINE
  8
0
 62
7
  6
CONTINUOUS
 10
152.6370049373
 20
211.3820092166
 11
160.4666686236
 21
211.3820092166
  0
LINE
  8
0
 62
7
  6
CONTINUOUS
 10
169.4370049373
 20
211.3820092166
 11
177.2666686236
 21
211.3820092166
  0
LINE
  8
0
 62
7
  6
CONTINUOUS
 10
186.2370049373
 20
211.3820092166
 11
194.0666686236
 21
211.3820092166
  0
LINE
  8
0
 62
7
  6
CONTINUOUS
 10
203.0370049373
 20
211.3820092166
 11
210.8666686236
 21
211.3820092166
  0
LINE
  8
0
 62
7
  6
CONTINUOUS
 10
219.8370049373
 20
211.3820092166
 11
227.6666686236
 21
211.3820092166
  0
LINE
  8
0
 62
6
  6
CONTINUOUS
 10
219.8349689537
 20
211.3820092166
 11
219.8370049373
 21
211.3820092166
  0
LINE
  8
0
 62
6
  6
CONTINUOUS
 10
227.6666686236
 20
211.3820092166
 11
227.6687046073
 21
211.3820092166
  0
LINE
  8
0
 62
6
  6
CONTINUOUS
 10
228.241093929
 20
211.3820092166
 11
228.3212045915
 21
211.3820092166
  0
LINE
  8
0
 62
7
  6
CONTINUOUS
 10
186.9374374048
 20
204.584859836
 11
187.0205254254
 21
204.5555607745
  0
LINE
  8
0
 62
7
  6
CONTINUOUS
 10
170.3547532228
 20
204.4672406474
 11
170.3546258631
 21
204.4673603966
  0
POLYLINE
  8
0
 62
7
  6
CONTINUOUS
 66
1
 70
0
  0
VERTEX
  8
0
 62
7
  6
CONTINUOUS
 10
170.3546258435
 20
204.4673603758
  0
VERTEX
  8
0
 62
7
  6
CONTINUOUS
 10
170.4060984851
 20
204.4146781642
  0
VERTEX
  8
0
 62
7
  6
CONTINUOUS
 10
170.4617360934
 20
204.3445173585
  0
SEQEND
  0
LINE
  8
0
 62
7
  6
CONTINUOUS
 10
170.4617360934
 20
204.3445173585
 11
170.5040876685
 21
204.274124445
  0
LINE
  8
0
 62
7
  6
CONTINUOUS
 10
170.5040876685
 20
204.274124445
 11
170.5286439044
 21
204.2182337949
  0
LINE
  8
0
 62
7
  6
CONTINUOUS
 10
169.2447045636
 20
211.1270495382
 11
170.2702846563
 21
207.5386108684
  0
LINE
  8
0
 62
7
  6
CONTINUOUS
 10
175.5253992317
 20
196.3023322154
 11
176.4157294721
 21
207.4410501731
  0
POLYLINE
  8
0
 62
7
  6
CONTINUOUS
 66
1
 70
0
  0
VERTEX
  8
0
 62
7
  6
CONTINUOUS
 10
175.850415967
 20
200.3685422367
  0
VERTEX
  8
0
 62
7
  6
CONTINUOUS
 10
175.8272042223
 20
200.1535190973
  0
VERTEX
  8
0
 62
7
  6
CONTINUOUS
 10
175.7905100248
 20
199.9384621517
  0
VERTEX
  8
0
 62
7
  6
CONTINUOUS
 10
175.7406612243
 20
199.7347594889
  0
VERTEX
  8
0
 62
7
  6
CONTINUOUS
 10
175.6803238979
 20
199.5524810375
  0
VERTEX
  8
0
 62
7
  6
CONTINUOUS
 10
175.6134607997
 20
199.3971116695
  0
VERTEX
  8
0
 62
7
  6
CONTINUOUS
 10
175.5420020078
 20
199.2662174659
  0
VERTEX
  8
0
 62
7
  6
CONTINUOUS
 10
175.4664449303
 20
199.1561292195
  0
VERTEX
  8
0
 62
7
  6
CONTINUOUS
 10
175.3862154787
 20
199.0637999441
  0
VERTEX
  8
0
 62
7
  6
CONTINUOUS
 10
175.3040420369
 20
198.99070403
  0
VERTEX
  8
0
 62
7
  6
CONTINUOUS
 10
175.2222876119
 20
198.9365914381
  0
VERTEX
  8
0
 62
7
  6
CONTINUOUS
 10
175.1426981427
 20
198.90008433
  0
VERTEX
  8
0
 62
7
  6
CONTINUOUS
 10
175.0655715505
 20
198.8791454558
  0
VERTEX
  8
0
 62
7
  6
CONTINUOUS
 10
174.9895280098
 20
198.8722448376
  0
SEQEND
  0
LINE
  8
0
 62
7
  6
CONTINUOUS
 10
177.4589689974
 20
211.1270495382
 11
176.4333889046
 21
207.5386108684
  0
LINE
  8
0
 62
7
  6
CONTINUOUS
 10
176.1750296565
 20
204.2182337949
 11
176.1995858925
 21
204.274124445
  0
POLYLINE
  8
0
 62
7
  6
CONTINUOUS
 66
1
 70
0
  0
VERTEX
  8
0
 62
7
  6
CONTINUOUS
 10
176.1995858925
 20
204.274124445
  0
VERTEX
  8
0
 62
7
  6
CONTINUOUS
 10
176.2419374676
 20
204.3445173585
  0
VERTEX
  8
0
 62
7
  6
CONTINUOUS
 10
176.2975750759
 20
204.4146781642
  0
VERTEX
  8
0
 62
7
  6
CONTINUOUS
 10
176.3490477175
 20
204.4673603758
  0
SEQEND
  0
LINE
  8
0
 62
7
  6
CONTINUOUS
 10
193.2021280782
 20
204.5103420037
 11
193.2831481356
 21
204.5555607745
  0
LINE
  8
0
 62
7
  6
CONTINUOUS
 10
210.0831481356
 20
204.5555607745
 11
210.1662361562
 21
204.584859836
  0
POLYLINE
  8
0
 62
7
  6
CONTINUOUS
 66
1
 70
0
  0
VERTEX
  8
0
 62
7
  6
CONTINUOUS
 10
92.5662115619
 20
204.5848531094
  0
VERTEX
  8
0
 62
7
  6
CONTINUOUS
 10
92.6763760473
 20
204.6057475231
  0
VERTEX
  8
0
 62
7
  6
CONTINUOUS
 10
92.7823127873
 20
204.6116185131
  0
SEQEND
  0
LINE
  8
0
 62
7
  6
CONTINUOUS
 10
235.4518367805
 20
216.3820092166
 11
86.0518367805
 21
216.3820092166
  0
LINE
  8
0
 62
7
  6
CONTINUOUS
 10
203.7374374048
 20
204.584859836
 11
203.8205254254
 21
204.5555607745
  0
POLYLINE
  8
0
 62
7
  6
CONTINUOUS
 66
1
 70
0
  0
VERTEX
  8
0
 62
7
  6
CONTINUOUS
 10
187.0205254254
 20
204.5555607745
  0
VERTEX
  8
0
 62
7
  6
CONTINUOUS
 10
187.1015454828
 20
204.5103420037
  0
VERTEX
  8
0
 62
7
  6
CONTINUOUS
 10
187.1547532228
 20
204.4672406474
  0
SEQEND
  0
LINE
  8
0
 62
7
  6
CONTINUOUS
 10
193.1489203382
 20
204.4672406474
 11
193.1490476979
 21
204.4673603966
  0
LINE
  8
0
 62
7
  6
CONTINUOUS
 10
193.1489203382
 20
204.4672406474
 11
193.2021280782
 21
204.5103420037
  0
LINE
  8
0
 62
7
  6
CONTINUOUS
 10
226.8831481356
 20
204.5555607745
 11
226.9662361562
 21
204.584859836
  0
LINE
  8
0
 62
2
  6
CONTINUOUS
 10
148.2518367805
 20
223.3820092166
 11
156.6518367805
 21
223.3820092166
  0
LINE
  8
0
 62
7
  6
CONTINUOUS
 10
220.5374374048
 20
204.584859836
 11
220.6205254254
 21
204.5555607745
  0
LINE
  8
0
 62
7
  6
CONTINUOUS
 10
187.1547532228
 20
204.4672406474
 11
187.1546258631
 21
204.4673603966
  0
POLYLINE
  8
0
 62
7
  6
CONTINUOUS
 66
1
 70
0
  0
VERTEX
  8
0
 62
7
  6
CONTINUOUS
 10
187.1546258435
 20
204.4673603758
  0
VERTEX
  8
0
 62
7
  6
CONTINUOUS
 10
187.2060984851
 20
204.4146781642
  0
VERTEX
  8
0
 62
7
  6
CONTINUOUS
 10
187.2617360934
 20
204.3445173585
  0
SEQEND
  0
LINE
  8
0
 62
7
  6
CONTINUOUS
 10
187.0879440888
 20
207.4410501731
 11
187.9782743292
 21
196.3023322154
  0
LINE
  8
0
 62
7
  6
CONTINUOUS
 10
210.0021280782
 20
204.5103420037
 11
210.0831481356
 21
204.5555607745
  0
POLYLINE
  8
0
 62
7
  6
CONTINUOUS
 66
1
 70
0
  0
VERTEX
  8
0
 62
7
  6
CONTINUOUS
 10
225.4680534918
 20
197.9695420425
  0
VERTEX
  8
0
 62
7
  6
CONTINUOUS
 10
225.5476165052
 20
197.9961988745
  0
VERTEX
  8
0
 62
7
  6
CONTINUOUS
 10
225.6573861554
 20
198.0474937733
  0
VERTEX
  8
0
 62
7
  6
CONTINUOUS
 10
225.7627159906
 20
198.1193414463
  0
VERTEX
  8
0
 62
7
  6
CONTINUOUS
 10
225.8603140266
 20
198.2116151194
  0
VERTEX
  8
0
 62
7
  6
CONTINUOUS
 10
225.9467068248
 20
198.3228546063
  0
VERTEX
  8
0
 62
7
  6
CONTINUOUS
 10
226.0194110881
 20
198.4514450403
  0
VERTEX
  8
0
 62
7
  6
CONTINUOUS
 10
226.0762396546
 20
198.5953858254
  0
VERTEX
  8
0
 62
7
  6
CONTINUOUS
 10
226.1151493075
 20
198.7524947236
  0
VERTEX
  8
0
 62
7
  6
CONTINUOUS
 10
226.1311179305
 20
198.8760077954
  0
SEQEND
  0
POLYLINE
  8
0
 62
7
  6
CONTINUOUS
 66
1
 70
0
  0
VERTEX
  8
0
 62
7
  6
CONTINUOUS
 10
203.8205254254
 20
204.5555607745
  0
VERTEX
  8
0
 62
7
  6
CONTINUOUS
 10
203.9015454828
 20
204.5103420037
  0
VERTEX
  8
0
 62
7
  6
CONTINUOUS
 10
203.9547532228
 20
204.4672406474
  0
SEQEND
  0
LINE
  8
0
 62
7
  6
CONTINUOUS
 10
187.2617360934
 20
204.3445173585
 11
187.3040876685
 21
204.274124445
  0
LINE
  8
0
 62
7
  6
CONTINUOUS
 10
187.3040876685
 20
204.274124445
 11
187.3286439044
 21
204.2182337949
  0
LINE
  8
0
 62
7
  6
CONTINUOUS
 10
186.0447045636
 20
211.1270495382
 11
187.0702846563
 21
207.5386108684
  0
LINE
  8
0
 62
7
  6
CONTINUOUS
 10
194.2589689974
 20
211.1270495382
 11
193.2333889046
 21
207.5386108684
  0
LINE
  8
0
 62
7
  6
CONTINUOUS
 10
192.9750296565
 20
204.2182337949
 11
192.9995858925
 21
204.274124445
  0
POLYLINE
  8
0
 62
7
  6
CONTINUOUS
 66
1
 70
0
  0
VERTEX
  8
0
 62
7
  6
CONTINUOUS
 10
192.9995858925
 20
204.274124445
  0
VERTEX
  8
0
 62
7
  6
CONTINUOUS
 10
193.0419374676
 20
204.3445173585
  0
VERTEX
  8
0
 62
7
  6
CONTINUOUS
 10
193.0975750759
 20
204.4146781642
  0
VERTEX
  8
0
 62
7
  6
CONTINUOUS
 10
193.1490477175
 20
204.4673603758
  0
SEQEND
  0
LINE
  8
0
 62
7
  6
CONTINUOUS
 10
209.9489203382
 20
204.4672406474
 11
210.0021280782
 21
204.5103420037
  0
LINE
  8
0
 62
7
  6
CONTINUOUS
 10
226.8021280782
 20
204.5103420037
 11
226.8831481356
 21
204.5555607745
  0
POLYLINE
  8
0
 62
7
  6
CONTINUOUS
 66
1
 70
0
  0
VERTEX
  8
0
 62
7
  6
CONTINUOUS
 10
220.6205254254
 20
204.5555607745
  0
VERTEX
  8
0
 62
7
  6
CONTINUOUS
 10
220.7015454828
 20
204.5103420037
  0
VERTEX
  8
0
 62
7
  6
CONTINUOUS
 10
220.7547532228
 20
204.4672406474
  0
SEQEND
  0
LINE
  8
0
 62
7
  6
CONTINUOUS
 10
203.9547532228
 20
204.4672406474
 11
203.9546258631
 21
204.4673603966
  0
POLYLINE
  8
0
 62
7
  6
CONTINUOUS
 66
1
 70
0
  0
VERTEX
  8
0
 62
7
  6
CONTINUOUS
 10
203.9546258435
 20
204.4673603758
  0
VERTEX
  8
0
 62
7
  6
CONTINUOUS
 10
204.0060984851
 20
204.4146781642
  0
VERTEX
  8
0
 62
7
  6
CONTINUOUS
 10
204.0617360934
 20
204.3445173585
  0
SEQEND
  0
LINE
  8
0
 62
7
  6
CONTINUOUS
 10
193.2157294721
 20
207.4410501731
 11
192.3253992317
 21
196.3023322154
  0
LINE
  8
0
 62
7
  6
CONTINUOUS
 10
209.9489203382
 20
204.4672406474
 11
209.9490476979
 21
204.4673603966
  0
POLYLINE
  8
0
 62
7
  6
CONTINUOUS
 66
1
 70
0
  0
VERTEX
  8
0
 62
7
  6
CONTINUOUS
 10
225.359341718
 20
195.7745659178
  0
VERTEX
  8
0
 62
7
  6
CONTINUOUS
 10
225.4407302463
 20
195.8166090133
  0
VERTEX
  8
0
 62
7
  6
CONTINUOUS
 10
225.5620547099
 20
195.8989510655
  0
VERTEX
  8
0
 62
7
  6
CONTINUOUS
 10
225.6709680795
 20
195.9988731509
  0
VERTEX
  8
0
 62
7
  6
CONTINUOUS
 10
225.7650280352
 20
196.1144559622
  0
VERTEX
  8
0
 62
7
  6
CONTINUOUS
 10
225.8421102182
 20
196.2434791786
  0
VERTEX
  8
0
 62
7
  6
CONTINUOUS
 10
225.9003615864
 20
196.3833393161
  0
VERTEX
  8
0
 62
7
  6
CONTINUOUS
 10
225.9383275619
 20
196.5312544062
  0
VERTEX
  8
0
 62
7
  6
CONTINUOUS
 10
225.9521941412
 20
196.6375707901
  0
SEQEND
  0
POLYLINE
  8
0
 62
7
  6
CONTINUOUS
 66
1
 70
0
  0
VERTEX
  8
0
 62
7
  6
CONTINUOUS
 10
209.7995858925
 20
204.274124445
  0
VERTEX
  8
0
 62
7
  6
CONTINUOUS
 10
209.8419374676
 20
204.3445173585
  0
VERTEX
  8
0
 62
7
  6
CONTINUOUS
 10
209.8975750759
 20
204.4146781642
  0
VERTEX
  8
0
 62
7
  6
CONTINUOUS
 10
209.9490477175
 20
204.4673603758
  0
SEQEND
  0
LINE
  8
0
 62
7
  6
CONTINUOUS
 10
226.7489203382
 20
204.4672406474
 11
226.8021280782
 21
204.5103420037
  0
POLYLINE
  8
0
 62
7
  6
CONTINUOUS
 66
1
 70
0
  0
VERTEX
  8
0
 62
7
  6
CONTINUOUS
 10
225.253213091
 20
195.7086285832
  0
VERTEX
  8
0
 62
7
  6
CONTINUOUS
 10
225.3259684313
 20
195.7576946685
  0
VERTEX
  8
0
 62
7
  6
CONTINUOUS
 10
225.3593416916
 20
195.7745659747
  0
SEQEND
  0
LINE
  8
0
 62
7
  6
CONTINUOUS
 10
220.7547532228
 20
204.4672406474
 11
220.7546258631
 21
204.4673603966
  0
LINE
  8
0
 62
7
  6
CONTINUOUS
 10
204.0617360934
 20
204.3445173585
 11
204.1040876685
 21
204.274124445
  0
LINE
  8
0
 62
7
  6
CONTINUOUS
 10
204.1040876685
 20
204.274124445
 11
204.1286439044
 21
204.2182337949
  0
LINE
  8
0
 62
7
  6
CONTINUOUS
 10
203.8879440888
 20
207.4410501731
 11
204.7782743292
 21
196.3023322154
  0
LINE
  8
0
 62
7
  6
CONTINUOUS
 10
211.0589689974
 20
211.1270495382
 11
210.0333889046
 21
207.5386108684
  0
LINE
  8
0
 62
7
  6
CONTINUOUS
 10
209.7750296565
 20
204.2182337949
 11
209.7995858925
 21
204.274124445
  0
LINE
  8
0
 62
7
  6
CONTINUOUS
 10
226.7489203382
 20
204.4672406474
 11
226.7490476979
 21
204.4673603966
  0
POLYLINE
  8
0
 62
7
  6
CONTINUOUS
 66
1
 70
0
  0
VERTEX
  8
0
 62
7
  6
CONTINUOUS
 10
225.2532067761
 20
195.7086234641
  0
VERTEX
  8
0
 62
7
  6
CONTINUOUS
 10
225.2057395236
 20
195.6701128203
  0
VERTEX
  8
0
 62
7
  6
CONTINUOUS
 10
225.1478598646
 20
195.6213307696
  0
VERTEX
  8
0
 62
7
  6
CONTINUOUS
 10
225.1069885573
 20
195.5816696389
  0
VERTEX
  8
0
 62
7
  6
CONTINUOUS
 10
225.0830700671
 20
195.5495895428
  0
VERTEX
  8
0
 62
7
  6
CONTINUOUS
 10
225.0748818417
 20
195.5237294947
  0
SEQEND
  0
POLYLINE
  8
0
 62
7
  6
CONTINUOUS
 66
1
 70
0
  0
VERTEX
  8
0
 62
7
  6
CONTINUOUS
 10
220.7546258435
 20
204.4673603758
  0
VERTEX
  8
0
 62
7
  6
CONTINUOUS
 10
220.8060984851
 20
204.4146781642
  0
VERTEX
  8
0
 62
7
  6
CONTINUOUS
 10
220.8617360934
 20
204.3445173585
  0
SEQEND
  0
LINE
  8
0
 62
7
  6
CONTINUOUS
 10
202.8447045636
 20
211.1270495382
 11
203.8702846563
 21
207.5386108684
  0
LINE
  8
0
 62
7
  6
CONTINUOUS
 10
210.0157294721
 20
207.4410501731
 11
209.1253992317
 21
196.3023322154
  0
LINE
  8
0
 62
7
  6
CONTINUOUS
 10
220.8617360934
 20
204.3445173585
 11
220.9040876685
 21
204.274124445
  0
LINE
  8
0
 62
6
  6
CONTINUOUS
 10
215.3518367805
 20
195.3820092166
 11
215.3518367805
 21
211.3820095187
  0
POLYLINE
  8
0
 62
7
  6
CONTINUOUS
 66
1
 70
0
  0
VERTEX
  8
0
 62
7
  6
CONTINUOUS
 10
226.5995858925
 20
204.274124445
  0
VERTEX
  8
0
 62
7
  6
CONTINUOUS
 10
226.6419374676
 20
204.3445173585
  0
VERTEX
  8
0
 62
7
  6
CONTINUOUS
 10
226.6975750759
 20
204.4146781642
  0
VERTEX
  8
0
 62
7
  6
CONTINUOUS
 10
226.7490477175
 20
204.4673603758
  0
SEQEND
  0
LINE
  8
0
 62
7
  6
CONTINUOUS
 10
220.9040876685
 20
204.274124445
 11
220.9286439044
 21
204.2182337949
  0
LINE
  8
0
 62
7
  6
CONTINUOUS
 10
220.6879440888
 20
207.4410501731
 11
221.5782743292
 21
196.3023322154
  0
LINE
  8
0
 62
7
  6
CONTINUOUS
 10
227.8589689974
 20
211.1270495382
 11
226.8333889046
 21
207.5386108684
  0
POLYLINE
  8
0
 62
7
  6
CONTINUOUS
 66
1
 70
0
  0
VERTEX
  8
0
 62
7
  6
CONTINUOUS
 10
225.1757005222
 20
197.6758947002
  0
VERTEX
  8
0
 62
7
  6
CONTINUOUS
 10
225.185515768
 20
197.7008168187
  0
VERTEX
  8
0
 62
7
  6
CONTINUOUS
 10
225.2235358141
 20
197.7774032066
  0
VERTEX
  8
0
 62
7
  6
CONTINUOUS
 10
225.2661380455
 20
197.845998587
  0
VERTEX
  8
0
 62
7
  6
CONTINUOUS
 10
225.3088655483
 20
197.9067967826
  0
VERTEX
  8
0
 62
7
  6
CONTINUOUS
 10
225.3491528348
 20
197.9616957837
  0
VERTEX
  8
0
 62
7
  6
CONTINUOUS
 10
225.3845183418
 20
198.0118806545
  0
VERTEX
  8
0
 62
7
  6
CONTINUOUS
 10
225.4126700577
 20
198.0582968831
  0
VERTEX
  8
0
 62
7
  6
CONTINUOUS
 10
225.4320636773
 20
198.102649892
  0
VERTEX
  8
0
 62
7
  6
CONTINUOUS
 10
225.4412538917
 20
198.1466752119
  0
SEQEND
  0
LINE
  8
0
 62
7
  6
CONTINUOUS
 10
226.5750296565
 20
204.2182337949
 11
226.5995858925
 21
204.274124445
  0
POLYLINE
  8
0
 62
7
  6
CONTINUOUS
 66
1
 70
0
  0
VERTEX
  8
0
 62
7
  6
CONTINUOUS
 10
225.1756156744
 20
197.6759121188
  0
VERTEX
  8
0
 62
7
  6
CONTINUOUS
 10
225.215302268
 20
197.7585237626
  0
VERTEX
  8
0
 62
7
  6
CONTINUOUS
 10
225.2642208188
 20
197.8265407375
  0
VERTEX
  8
0
 62
7
  6
CONTINUOUS
 10
225.3238097241
 20
197.8854347675
  0
VERTEX
  8
0
 62
7
  6
CONTINUOUS
 10
225.3923958675
 20
197.9335522151
  0
VERTEX
  8
0
 62
7
  6
CONTINUOUS
 10
225.4680534918
 20
197.9695420425
  0
SEQEND
  0
LINE
  8
0
 62
7
  6
CONTINUOUS
 10
219.6447045636
 20
211.1270495382
 11
220.6702846563
 21
207.5386108684
  0
LINE
  8
0
 62
7
  6
CONTINUOUS
 10
225.0702825446
 20
195.3921001485
 11
225.1449017296
 21
197.5289140292
  0
LINE
  8
0
 62
7
  6
CONTINUOUS
 10
225.9521952207
 20
196.6375707037
 11
226.8157294721
 21
207.4410501731
  0
LINE
  8
0
 62
7
  6
CONTINUOUS
 10
225.4412538917
 20
198.1466752119
 11
225.5377249796
 21
199.3046131041
  0
LINE
  8
0
 62
7
  6
CONTINUOUS
 10
225.5377249796
 20
199.3046131041
 11
225.6450251195
 21
200.5726032558
  0
POLYLINE
  8
0
 62
7
  6
CONTINUOUS
 66
1
 70
0
  0
VERTEX
  8
0
 62
7
  6
CONTINUOUS
 10
225.6450251195
 20
200.5726032558
  0
VERTEX
  8
0
 62
7
  6
CONTINUOUS
 10
225.760758173
 20
201.9163424633
  0
VERTEX
  8
0
 62
7
  6
CONTINUOUS
 10
225.8208826726
 20
202.605309332
  0
SEQEND
  0
POLYLINE
  8
0
 62
7
  6
CONTINUOUS
 66
1
 70
0
  0
VERTEX
  8
0
 62
7
  6
CONTINUOUS
 10
226.5487162235
 20
204.1005085192
  0
VERTEX
  8
0
 62
7
  6
CONTINUOUS
 10
226.5535147655
 20
204.1386265615
  0
VERTEX
  8
0
 62
7
  6
CONTINUOUS
 10
226.564508691
 20
204.1862775805
  0
VERTEX
  8
0
 62
7
  6
CONTINUOUS
 10
226.5750392999
 20
204.2182599204
  0
SEQEND
  0
POLYLINE
  8
0
 62
7
  6
CONTINUOUS
 66
1
 70
0
  0
VERTEX
  8
0
 62
7
  6
CONTINUOUS
 10
225.1449015521
 20
197.5289092809
  0
VERTEX
  8
0
 62
7
  6
CONTINUOUS
 10
225.1574041595
 20
197.6169825636
  0
VERTEX
  8
0
 62
7
  6
CONTINUOUS
 10
225.1757005222
 20
197.6758947002
  0
SEQEND
  0
LINE
  8
0
 62
7
  6
CONTINUOUS
 10
231.6133304447
 20
195.4320092166
 11
231.6168267853
 21
195.3820092166
  0
LINE
  8
0
 62
6
  6
CONTINUOUS
 10
232.1518367805
 20
211.3820092166
 11
232.1518367805
 21
195.3820092166
  0
LINE
  8
0
 62
7
  6
CONTINUOUS
 10
235.9518367805
 20
213.3383782005
 11
235.9518367805
 21
211.3820092166
  0
LINE
  8
0
 62
7
  6
CONTINUOUS
 10
236.2518367805
 20
196.3820092166
 11
236.2518367805
 21
211.1820092166
  0
LINE
  8
0
 62
2
  6
CONTINUOUS
 10
272.9382851781
 20
224.2308292166
 11
272.9382851781
 21
184.2308292166
  0
LINE
  8
0
 62
7
  6
CONTINUOUS
 10
283.4359251781
 20
203.3820092166
 11
283.4359251781
 21
200.269614773
  0
POLYLINE
  8
0
 62
7
  6
CONTINUOUS
 66
1
 70
0
  0
VERTEX
  8
0
 62
7
  6
CONTINUOUS
 10
286.3636438549
 20
211.3820092166
  0
VERTEX
  8
0
 62
7
  6
CONTINUOUS
 10
286.3630319022
 20
211.3764013564
  0
VERTEX
  8
0
 62
7
  6
CONTINUOUS
 10
286.364170923
 20
211.3603362029
  0
VERTEX
  8
0
 62
7
  6
CONTINUOUS
 10
286.3672558957
 20
211.3346746151
  0
VERTEX
  8
0
 62
7
  6
CONTINUOUS
 10
286.3722730301
 20
211.300866243
  0
VERTEX
  8
0
 62
7
  6
CONTINUOUS
 10
286.379043046
 20
211.2608574606
  0
VERTEX
  8
0
 62
7
  6
CONTINUOUS
 10
286.3872577197
 20
211.2169337737
  0
VERTEX
  8
0
 62
7
  6
CONTINUOUS
 10
286.3965191415
 20
211.1715286958
  0
VERTEX
  8
0
 62
7
  6
CONTINUOUS
 10
286.406377403
 20
211.1270495382
  0
SEQEND
  0
LINE
  8
0
 62
2
  6
CONTINUOUS
 10
289.2359251781
 20
204.4320092166
 11
289.2359251781
 21
202.3320092166
  0
LINE
  8
DEFAULT_1
 62
7
  6
CENTER
 10
289.2359251781
 20
197.2320092166
 11
289.2359251781
 21
201.3819092166
  0
LINE
  8
DEFAULT_1
 62
7
  6
CENTER
 10
289.2359251781
 20
205.3821092166
 11
289.2359251781
 21
209.5320092166
  0
POLYLINE
  8
0
 62
6
  6
CONTINUOUS
 66
1
 70
0
  0
VERTEX
  8
0
 62
6
  6
CONTINUOUS
 10
286.3636907216
 20
195.3820092166
  0
VERTEX
  8
0
 62
6
  6
CONTINUOUS
 10
286.3696836646
 20
195.3996620313
  0
VERTEX
  8
0
 62
6
  6
CONTINUOUS
 10
286.3810920914
 20
195.4517967601
  0
VERTEX
  8
0
 62
6
  6
CONTINUOUS
 10
286.3973749169
 20
195.5362987342
  0
VERTEX
  8
0
 62
6
  6
CONTINUOUS
 10
286.4178754993
 20
195.6499587494
  0
VERTEX
  8
0
 62
6
  6
CONTINUOUS
 10
286.4418278742
 20
195.7886118913
  0
VERTEX
  8
0
 62
6
  6
CONTINUOUS
 10
286.4683688602
 20
195.9473115137
  0
VERTEX
  8
0
 62
6
  6
CONTINUOUS
 10
286.5253775795
 20
196.3023322154
  0
SEQEND
  0
LINE
  8
0
 62
7
  6
CONTINUOUS
 10
295.0359251781
 20
200.269614773
 11
295.0359251781
 21
203.3820092166
  0
POLYLINE
  8
0
 62
7
  6
CONTINUOUS
 66
1
 70
0
  0
VERTEX
  8
0
 62
7
  6
CONTINUOUS
 10
286.3636907216
 20
195.3820092166
  0
VERTEX
  8
0
 62
7
  6
CONTINUOUS
 10
286.3652879829
 20
195.3845379408
  0
VERTEX
  8
0
 62
7
  6
CONTINUOUS
 10
286.3676985799
 20
195.3921001485
  0
SEQEND
  0
LINE
  8
0
 62
2
  6
CONTINUOUS
 10
354.6359251781
 20
183.3820092166
 11
274.6359251781
 21
183.3820092166
  0
POLYLINE
  8
0
 62
7
  6
CONTINUOUS
 66
1
 70
0
  0
VERTEX
  8
0
 62
7
  6
CONTINUOUS
 10
286.3676985799
 20
195.3921001485
  0
VERTEX
  8
0
 62
7
  6
CONTINUOUS
 10
285.7405015749
 20
195.6412894372
  0
VERTEX
  8
0
 62
7
  6
CONTINUOUS
 10
285.1329373918
 20
195.9415236144
  0
VERTEX
  8
0
 62
7
  6
CONTINUOUS
 10
284.5517972337
 20
196.290172017
  0
VERTEX
  8
0
 62
7
  6
CONTINUOUS
 10
284.0022313285
 20
196.6843642123
  0
SEQEND
  0
LINE
  8
0
 62
7
  6
CONTINUOUS
 10
293.7359251781
 20
195.3820092166
 11
286.3636907216
 21
195.3820092166
  0
LINE
  8
0
 62
6
  6
CONTINUOUS
 10
286.3636907216
 20
195.3820092166
 11
286.3636438549
 21
195.3820092166
  0
LINE
  8
0
 62
7
  6
CONTINUOUS
 10
335.5359251781
 20
195.3820092166
 11
342.9082065014
 21
195.3820092166
  0
LINE
  8
0
 62
6
  6
CONTINUOUS
 10
342.9081596346
 20
195.3820092166
 11
342.9082065014
 21
195.3820092166
  0
LINE
  8
0
 62
7
  6
CONTINUOUS
 10
293.735925178
 20
195.3921001485
 11
286.3676985799
 21
195.3921001485
  0
LINE
  8
0
 62
7
  6
CONTINUOUS
 10
313.8831018174
 20
195.4320092166
 11
315.3887485389
 21
195.4320092166
  0
POLYLINE
  8
0
 62
7
  6
CONTINUOUS
 66
1
 70
0
  0
VERTEX
  8
0
 62
7
  6
CONTINUOUS
 10
295.6814813122
 20
195.8004475755
  0
VERTEX
  8
0
 62
7
  6
CONTINUOUS
 10
295.5734899074
 20
195.7293760674
  0
VERTEX
  8
0
 62
7
  6
CONTINUOUS
 10
295.4570607563
 20
195.6701036292
  0
VERTEX
  8
0
 62
7
  6
CONTINUOUS
 10
295.3362249836
 20
195.6213228017
  0
VERTEX
  8
0
 62
7
  6
CONTINUOUS
 10
295.2157134047
 20
195.5816664872
  0
VERTEX
  8
0
 62
7
  6
CONTINUOUS
 10
295.0989925641
 20
195.5495900168
  0
VERTEX
  8
0
 62
7
  6
CONTINUOUS
 10
294.9876186385
 20
195.5237296822
  0
SEQEND
  0
POLYLINE
  8
0
 62
7
  6
CONTINUOUS
 66
1
 70
0
  0
VERTEX
  8
0
 62
7
  6
CONTINUOUS
 10
294.9876439167
 20
195.5237351965
  0
VERTEX
  8
0
 62
7
  6
CONTINUOUS
 10
294.5738848627
 20
195.4507317441
  0
VERTEX
  8
0
 62
7
  6
CONTINUOUS
 10
294.1559974795
 20
195.4067803522
  0
VERTEX
  8
0
 62
7
  6
CONTINUOUS
 10
293.735925178
 20
195.3921001485
  0
SEQEND
  0
LINE
  8
0
 62
7
  6
CONTINUOUS
 10
310.9659584187
 20
202.7729605942
 11
312.9241213657
 21
196.1485370076
  0
LINE
  8
DEFAULT_1
 62
7
  6
CENTER
 10
314.6359251781
 20
181.3820092166
 11
314.6359251781
 21
225.3820092166
  0
LINE
  8
0
 62
7
  6
CONTINUOUS
 10
312.9373499621
 20
215.8907354198
 11
312.8929507176
 21
213.3471044037
  0
LINE
  8
0
 62
2
  6
CONTINUOUS
 10
341.0859251781
 20
203.3820092166
 11
338.9859251781
 21
203.3820092166
  0
LINE
  8
0
 62
40
  6
CONTINUOUS
 10
338.9859251781
 20
203.3820092166
 11
338.6559251781
 21
203.3820092166
  0
LINE
  8
0
 62
7
  6
CONTINUOUS
 10
310.1508250348
 20
203.3820092166
 11
308.4581159989
 21
203.3820092166
  0
LINE
  8
0
 62
2
  6
CONTINUOUS
 10
290.2859251781
 20
203.3820092166
 11
288.1859251781
 21
203.3820092166
  0
LINE
  8
0
 62
40
  6
CONTINUOUS
 10
288.1859251781
 20
203.3820092166
 11
287.6159251781
 21
203.3820092166
  0
LINE
  8
0
 62
40
  6
CONTINUOUS
 10
280.7367372105
 20
203.3820092166
 11
260.8126251781
 21
203.3820092166
  0
LINE
  8
DEFAULT_1
 62
7
  6
CENTER
 10
283.0859251781
 20
203.3820092166
 11
287.2358251781
 21
203.3820092166
  0
LINE
  8
0
 62
40
  6
CONTINUOUS
 10
290.2859251781
 20
203.3820092166
 11
290.6159251781
 21
203.3820092166
  0
LINE
  8
DEFAULT_1
 62
7
  6
CENTER
 10
291.2360251781
 20
203.3820092166
 11
295.3859251781
 21
203.3820092166
  0
LINE
  8
0
 62
7
  6
CONTINUOUS
 10
319.1210253215
 20
203.3820092166
 11
320.8137343574
 21
203.3820092166
  0
LINE
  8
DEFAULT_1
 62
7
  6
CENTER
 10
333.8859251781
 20
203.3820092166
 11
338.0358251781
 21
203.3820092166
  0
LINE
  8
0
 62
40
  6
CONTINUOUS
 10
341.0859251781
 20
203.3820092166
 11
341.6559251781
 21
203.3820092166
  0
LINE
  8
DEFAULT_1
 62
7
  6
CENTER
 10
342.0360251781
 20
203.3820092166
 11
346.1859251781
 21
203.3820092166
  0
LINE
  8
0
 62
40
  6
CONTINUOUS
 10
348.5350120623
 20
203.3820092166
 11
368.4592251781
 21
203.3820092166
  0
LINE
  8
0
 62
7
  6
CONTINUOUS
 10
297.2870061209
 20
207.2855744728
 11
308.1236511332
 21
203.4396009963
  0
LINE
  8
0
 62
7
  6
CONTINUOUS
 10
316.3788996387
 20
213.3471044037
 11
316.3345003942
 21
215.8907354198
  0
LINE
  8
0
 62
7
  6
CONTINUOUS
 10
316.3477289906
 20
196.1485370076
 11
318.3058919376
 21
202.7729605942
  0
LINE
  8
0
 62
6
  6
CONTINUOUS
 10
331.9848442353
 20
207.2855744728
 11
324.3694088911
 21
204.5828226236
  0
LINE
  8
0
 62
7
  6
CONTINUOUS
 10
321.1481992231
 20
203.4396009963
 11
324.3694088911
 21
204.5828226236
  0
LINE
  8
0
 62
6
  6
CONTINUOUS
 10
335.4648118269
 20
211.3820383971
 11
335.4645355936
 21
211.381962566
  0
LINE
  8
0
 62
6
  6
CONTINUOUS
 10
293.8070385346
 20
211.3820383967
 11
293.8073147627
 21
211.3819625669
  0
LINE
  8
0
 62
7
  6
CONTINUOUS
 10
286.3636438549
 20
211.3820092166
 11
342.9082065014
 21
211.3820092166
  0
POLYLINE
  8
0
 62
7
  6
CONTINUOUS
 66
1
 70
0
  0
VERTEX
  8
0
 62
7
  6
CONTINUOUS
 10
293.8070385346
 20
211.3820383967
  0
VERTEX
  8
0
 62
7
  6
CONTINUOUS
 10
293.7425813821
 20
211.3735843252
  0
VERTEX
  8
0
 62
7
  6
CONTINUOUS
 10
293.6824840479
 20
211.3487935464
  0
VERTEX
  8
0
 62
7
  6
CONTINUOUS
 10
293.6308120714
 20
211.3093429042
  0
VERTEX
  8
0
 62
7
  6
CONTINUOUS
 10
293.5910611227
 20
211.2579010608
  0
VERTEX
  8
0
 62
7
  6
CONTINUOUS
 10
293.5659204269
 20
211.1979479868
  0
VERTEX
  8
0
 62
7
  6
CONTINUOUS
 10
293.557090756
 20
211.1335395092
  0
VERTEX
  8
0
 62
7
  6
CONTINUOUS
 10
293.5651693266
 20
211.0690328676
  0
VERTEX
  8
0
 62
7
  6
CONTINUOUS
 10
293.5896094015
 20
211.0087918722
  0
VERTEX
  8
0
 62
7
  6
CONTINUOUS
 10
293.6287573207
 20
210.9568916344
  0
VERTEX
  8
0
 62
7
  6
CONTINUOUS
 10
293.6799644476
 20
210.9168428547
  0
SEQEND
  0
LINE
  8
0
 62
7
  6
CONTINUOUS
 10
315.8345765466
 20
216.3820092166
 11
313.4372738097
 21
216.3820092166
  0
LINE
  8
0
 62
2
  6
CONTINUOUS
 10
354.6359251781
 20
223.3820092166
 11
274.6359251781
 21
223.3820092166
  0
LINE
  8
0
 62
2
  6
CONTINUOUS
 10
340.0359251781
 20
204.4320092166
 11
340.0359251781
 21
202.3320092166
  0
LINE
  8
DEFAULT_1
 62
7
  6
CENTER
 10
340.0359251781
 20
197.2320092166
 11
340.0359251781
 21
201.3819092166
  0
LINE
  8
DEFAULT_1
 62
7
  6
CENTER
 10
340.0359251781
 20
205.3821092166
 11
340.0359251781
 21
209.5320092166
  0
LINE
  8
0
 62
7
  6
CONTINUOUS
 10
342.8731773615
 20
211.1820092166
 11
342.9082065014
 21
211.3820092166
  0
POLYLINE
  8
0
 62
6
  6
CONTINUOUS
 66
1
 70
0
  0
VERTEX
  8
0
 62
6
  6
CONTINUOUS
 10
342.8871358375
 20
211.2301126638
  0
VERTEX
  8
0
 62
6
  6
CONTINUOUS
 10
342.895929156
 20
211.2787574518
  0
VERTEX
  8
0
 62
6
  6
CONTINUOUS
 10
342.9026575988
 20
211.3209688307
  0
VERTEX
  8
0
 62
6
  6
CONTINUOUS
 10
342.9069773021
 20
211.3537332738
  0
VERTEX
  8
0
 62
6
  6
CONTINUOUS
 10
342.9087661888
 20
211.3746299656
  0
VERTEX
  8
0
 62
6
  6
CONTINUOUS
 10
342.9082065014
 20
211.3820092166
  0
SEQEND
  0
LINE
  8
0
 62
6
  6
CONTINUOUS
 10
342.8871358375
 20
211.2301126638
 11
342.8753312145
 21
211.1715286944
  0
LINE
  8
0
 62
6
  6
CONTINUOUS
 10
342.8654732136
 20
211.1270506322
 11
342.8767812915
 21
211.1783925529
  0
POLYLINE
  8
0
 62
6
  6
CONTINUOUS
 66
1
 70
0
  0
VERTEX
  8
0
 62
6
  6
CONTINUOUS
 10
342.9081596346
 20
195.3820092166
  0
VERTEX
  8
0
 62
6
  6
CONTINUOUS
 10
342.9021666916
 20
195.3996620313
  0
VERTEX
  8
0
 62
6
  6
CONTINUOUS
 10
342.8907582649
 20
195.4517967601
  0
VERTEX
  8
0
 62
6
  6
CONTINUOUS
 10
342.8744754393
 20
195.5362987342
  0
VERTEX
  8
0
 62
6
  6
CONTINUOUS
 10
342.853974857
 20
195.6499587495
  0
VERTEX
  8
0
 62
6
  6
CONTINUOUS
 10
342.830022482
 20
195.7886118913
  0
VERTEX
  8
0
 62
6
  6
CONTINUOUS
 10
342.803481496
 20
195.9473115137
  0
SEQEND
  0
LINE
  8
0
 62
6
  6
CONTINUOUS
 10
342.803481496
 20
195.9473115137
 11
342.7464727768
 21
196.3023322154
  0
POLYLINE
  8
0
 62
6
  6
CONTINUOUS
 66
1
 70
0
  0
VERTEX
  8
0
 62
6
  6
CONTINUOUS
 10
342.9082065014
 20
211.3820092166
  0
VERTEX
  8
0
 62
6
  6
CONTINUOUS
 10
342.9088184541
 20
211.3764013556
  0
VERTEX
  8
0
 62
6
  6
CONTINUOUS
 10
342.9076794331
 20
211.3603362017
  0
VERTEX
  8
0
 62
6
  6
CONTINUOUS
 10
342.9045944603
 20
211.3346746136
  0
VERTEX
  8
0
 62
6
  6
CONTINUOUS
 10
342.8995773259
 20
211.3008662411
  0
VERTEX
  8
0
 62
6
  6
CONTINUOUS
 10
342.8928073099
 20
211.2608574584
  0
VERTEX
  8
0
 62
6
  6
CONTINUOUS
 10
342.8845926362
 20
211.2169337716
  0
SEQEND
  0
POLYLINE
  8
0
 62
7
  6
CONTINUOUS
 66
1
 70
0
  0
VERTEX
  8
0
 62
7
  6
CONTINUOUS
 10
342.8672190286
 20
196.3820092166
  0
VERTEX
  8
0
 62
7
  6
CONTINUOUS
 10
342.8673595621
 20
196.2272299688
  0
VERTEX
  8
0
 62
7
  6
CONTINUOUS
 10
342.8700940647
 20
196.0758493853
  0
VERTEX
  8
0
 62
7
  6
CONTINUOUS
 10
342.8746994269
 20
195.9315736712
  0
VERTEX
  8
0
 62
7
  6
CONTINUOUS
 10
342.8805081576
 20
195.7979648481
  0
VERTEX
  8
0
 62
7
  6
CONTINUOUS
 10
342.8868973128
 20
195.6783605528
  0
VERTEX
  8
0
 62
7
  6
CONTINUOUS
 10
342.8932816893
 20
195.5757957654
  0
VERTEX
  8
0
 62
7
  6
CONTINUOUS
 10
342.8991097865
 20
195.4929278345
  0
VERTEX
  8
0
 62
7
  6
CONTINUOUS
 10
342.9038615491
 20
195.4319669523
  0
VERTEX
  8
0
 62
7
  6
CONTINUOUS
 10
342.9070471862
 20
195.3946141682
  0
VERTEX
  8
0
 62
7
  6
CONTINUOUS
 10
342.9082065014
 20
195.3820092166
  0
SEQEND
  0
LINE
  8
0
 62
2
  6
CONTINUOUS
 10
354.6359251781
 20
223.3820092166
 11
354.6359251781
 21
183.3820092166
  0
LINE
  8
0
 62
7
  6
CONTINUOUS
 10
85.2518367805
 20
72.221471049
 11
85.2518367805
 21
126.8000606102
  0
LINE
  8
0
 62
7
  6
CONTINUOUS
 10
85.5518367805
 20
103.6788574412
 11
85.5518367805
 21
108.1642201607
  0
POLYLINE
  8
0
 62
7
  6
CONTINUOUS
 66
1
 70
0
  0
VERTEX
  8
0
 62
7
  6
CONTINUOUS
 10
85.5518367805
 20
108.1642081052
  0
VERTEX
  8
0
 62
7
  6
CONTINUOUS
 10
85.5615162147
 20
108.3337752022
  0
VERTEX
  8
0
 62
7
  6
CONTINUOUS
 10
85.5916820223
 20
108.5195334297
  0
VERTEX
  8
0
 62
7
  6
CONTINUOUS
 10
85.6436816547
 20
108.7211412083
  0
VERTEX
  8
0
 62
7
  6
CONTINUOUS
 10
85.7170752036
 20
108.9355403339
  0
VERTEX
  8
0
 62
7
  6
CONTINUOUS
 10
85.810836955
 20
109.1627197566
  0
VERTEX
  8
0
 62
7
  6
CONTINUOUS
 10
85.9234143124
 20
109.4046390313
  0
VERTEX
  8
0
 62
7
  6
CONTINUOUS
 10
86.0518367805
 20
109.6642081052
  0
SEQEND
  0
POLYLINE
  8
0
 62
7
  6
CONTINUOUS
 66
1
 70
0
  0
VERTEX
  8
0
 62
7
  6
CONTINUOUS
 10
94.6973676066
 20
138.3603049861
  0
VERTEX
  8
0
 62
7
  6
CONTINUOUS
 10
94.5175843314
 20
137.9593557644
  0
VERTEX
  8
0
 62
7
  6
CONTINUOUS
 10
94.3425197933
 20
137.4937427235
  0
VERTEX
  8
0
 62
7
  6
CONTINUOUS
 10
94.1837513914
 20
136.9921182431
  0
VERTEX
  8
0
 62
7
  6
CONTINUOUS
 10
94.0410466456
 20
136.4587820409
  0
VERTEX
  8
0
 62
7
  6
CONTINUOUS
 10
93.914358412
 20
135.8983910191
  0
VERTEX
  8
0
 62
7
  6
CONTINUOUS
 10
93.803670881
 20
135.3157802136
  0
VERTEX
  8
0
 62
7
  6
CONTINUOUS
 10
93.7089420297
 20
134.7159552867
  0
VERTEX
  8
0
 62
7
  6
CONTINUOUS
 10
93.6370642159
 20
134.1641621653
  0
SEQEND
  0
POLYLINE
  8
0
 62
7
  6
CONTINUOUS
 66
1
 70
0
  0
VERTEX
  8
0
 62
7
  6
CONTINUOUS
 10
85.2518367805
 20
77.684286071
  0
VERTEX
  8
0
 62
7
  6
CONTINUOUS
 10
85.2567616514
 20
77.6765233308
  0
VERTEX
  8
0
 62
7
  6
CONTINUOUS
 10
85.2713461661
 20
77.6691432034
  0
VERTEX
  8
0
 62
7
  6
CONTINUOUS
 10
85.2949546275
 20
77.6625090103
  0
VERTEX
  8
0
 62
7
  6
CONTINUOUS
 10
85.326493077
 20
77.6569529413
  0
VERTEX
  8
0
 62
7
  6
CONTINUOUS
 10
85.3644442615
 20
77.652758758
  0
VERTEX
  8
0
 62
7
  6
CONTINUOUS
 10
85.4069353861
 20
77.6501458473
  0
VERTEX
  8
0
 62
7
  6
CONTINUOUS
 10
85.4518367805
 20
77.649256931
  0
SEQEND
  0
POLYLINE
  8
0
 62
7
  6
CONTINUOUS
 66
1
 70
0
  0
VERTEX
  8
0
 62
7
  6
CONTINUOUS
 10
85.2518364116
 20
72.2215293494
  0
VERTEX
  8
0
 62
7
  6
CONTINUOUS
 10
85.2568049727
 20
72.1772276092
  0
VERTEX
  8
0
 62
7
  6
CONTINUOUS
 10
85.2715333824
 20
72.1349819723
  0
VERTEX
  8
0
 62
7
  6
CONTINUOUS
 10
85.2952846709
 20
72.0970675323
  0
VERTEX
  8
0
 62
7
  6
CONTINUOUS
 10
85.3268702148
 20
72.0653817749
  0
VERTEX
  8
0
 62
7
  6
CONTINUOUS
 10
85.3647092114
 20
72.0415104934
  0
VERTEX
  8
0
 62
7
  6
CONTINUOUS
 10
85.4069078288
 20
72.0266483064
  0
VERTEX
  8
0
 62
7
  6
CONTINUOUS
 10
85.4518280624
 20
72.0215382633
  0
SEQEND
  0
POLYLINE
  8
0
 62
7
  6
CONTINUOUS
 66
1
 70
0
  0
VERTEX
  8
0
 62
7
  6
CONTINUOUS
 10
93.4636701921
 20
83.5110797526
  0
VERTEX
  8
0
 62
7
  6
CONTINUOUS
 10
93.4597004712
 20
83.8051115236
  0
VERTEX
  8
0
 62
7
  6
CONTINUOUS
 10
93.4596538047
 20
83.8849806966
  0
VERTEX
  8
0
 62
7
  6
CONTINUOUS
 10
93.4610305694
 20
83.9641561598
  0
VERTEX
  8
0
 62
7
  6
CONTINUOUS
 10
93.4640296788
 20
84.0423781336
  0
VERTEX
  8
0
 62
7
  6
CONTINUOUS
 10
93.4688652486
 20
84.1194492531
  0
VERTEX
  8
0
 62
7
  6
CONTINUOUS
 10
93.4757263784
 20
84.1951624257
  0
VERTEX
  8
0
 62
7
  6
CONTINUOUS
 10
93.4847822768
 20
84.2690896945
  0
VERTEX
  8
0
 62
7
  6
CONTINUOUS
 10
93.4961979326
 20
84.3407848708
  0
VERTEX
  8
0
 62
7
  6
CONTINUOUS
 10
93.5101539086
 20
84.4103838929
  0
VERTEX
  8
0
 62
7
  6
CONTINUOUS
 10
93.5269216632
 20
84.4776194789
  0
VERTEX
  8
0
 62
7
  6
CONTINUOUS
 10
93.5466238151
 20
84.5410485199
  0
VERTEX
  8
0
 62
7
  6
CONTINUOUS
 10
93.5699752131
 20
84.6000434123
  0
VERTEX
  8
0
 62
7
  6
CONTINUOUS
 10
93.5973780967
 20
84.6548134173
  0
VERTEX
  8
0
 62
7
  6
CONTINUOUS
 10
93.6282272304
 20
84.7037446847
  0
VERTEX
  8
0
 62
7
  6
CONTINUOUS
 10
93.6616912334
 20
84.7457710475
  0
VERTEX
  8
0
 62
7
  6
CONTINUOUS
 10
93.6978264353
 20
84.7811147222
  0
VERTEX
  8
0
 62
7
  6
CONTINUOUS
 10
93.736589677
 20
84.8094798656
  0
VERTEX
  8
0
 62
7
  6
CONTINUOUS
 10
93.7778632767
 20
84.8300561633
  0
VERTEX
  8
0
 62
7
  6
CONTINUOUS
 10
93.8208606128
 20
84.8412391904
  0
VERTEX
  8
0
 62
7
  6
CONTINUOUS
 10
93.842099516
 20
84.8427292027
  0
SEQEND
  0
LINE
  8
0
 62
7
  6
CONTINUOUS
 10
93.4661122467
 20
83.2280655836
 11
93.4636701921
 21
83.5110797526
  0
LINE
  8
0
 62
7
  6
CONTINUOUS
 10
93.4661122467
 20
83.2280655836
 11
93.4666686236
 21
77.679964643
  0
LINE
  8
0
 62
7
  6
CONTINUOUS
 10
93.6370642455
 20
134.1641562996
 11
93.6370049403
 21
134.1631363598
  0
LINE
  8
0
 62
7
  6
CONTINUOUS
 10
94.7092090023
 20
138.4559702359
 11
94.6933042178
 21
138.3512428939
  0
POLYLINE
  8
0
 62
7
  6
CONTINUOUS
 66
1
 70
0
  0
VERTEX
  8
0
 62
7
  6
CONTINUOUS
 10
86.0518367805
 20
102.1788684034
  0
VERTEX
  8
0
 62
7
  6
CONTINUOUS
 10
85.9235474011
 20
102.4381626746
  0
VERTEX
  8
0
 62
7
  6
CONTINUOUS
 10
85.8111224283
 20
102.6797111558
  0
VERTEX
  8
0
 62
7
  6
CONTINUOUS
 10
85.7174959364
 20
102.9064288685
  0
VERTEX
  8
0
 62
7
  6
CONTINUOUS
 10
85.6442194633
 20
103.1201553451
  0
VERTEX
  8
0
 62
7
  6
CONTINUOUS
 10
85.5919677326
 20
103.3221920586
  0
VERTEX
  8
0
 62
7
  6
CONTINUOUS
 10
85.5613724182
 20
103.510606079
  0
VERTEX
  8
0
 62
7
  6
CONTINUOUS
 10
85.5518367805
 20
103.6788684034
  0
SEQEND
  0
POLYLINE
  8
0
 62
7
  6
CONTINUOUS
 66
1
 70
0
  0
VERTEX
  8
0
 62
7
  6
CONTINUOUS
 10
93.6399565041
 20
128.335964486
  0
VERTEX
  8
0
 62
7
  6
CONTINUOUS
 10
93.643929481
 20
128.0426423671
  0
VERTEX
  8
0
 62
7
  6
CONTINUOUS
 10
93.6440558045
 20
127.963048824
  0
VERTEX
  8
0
 62
7
  6
CONTINUOUS
 10
93.6427771251
 20
127.8839861628
  0
VERTEX
  8
0
 62
7
  6
CONTINUOUS
 10
93.6398906482
 20
127.8057344386
  0
VERTEX
  8
0
 62
7
  6
CONTINUOUS
 10
93.6351752462
 20
127.7285161946
  0
VERTEX
  8
0
 62
7
  6
CONTINUOUS
 10
93.6284323257
 20
127.6525511457
  0
VERTEX
  8
0
 62
7
  6
CONTINUOUS
 10
93.6194859795
 20
127.578272001
  0
VERTEX
  8
0
 62
7
  6
CONTINUOUS
 10
93.6081664623
 20
127.5061870027
  0
VERTEX
  8
0
 62
7
  6
CONTINUOUS
 10
93.5942750631
 20
127.4360823338
  0
VERTEX
  8
0
 62
7
  6
CONTINUOUS
 10
93.5775751872
 20
127.3684321817
  0
VERTEX
  8
0
 62
7
  6
CONTINUOUS
 10
93.5578606453
 20
127.3043639974
  0
VERTEX
  8
0
 62
7
  6
CONTINUOUS
 10
93.5345139677
 20
127.2448741723
  0
VERTEX
  8
0
 62
7
  6
CONTINUOUS
 10
93.5070455446
 20
127.1896052235
  0
VERTEX
  8
0
 62
7
  6
CONTINUOUS
 10
93.476030668
 20
127.1401606942
  0
VERTEX
  8
0
 62
7
  6
CONTINUOUS
 10
93.442587982
 20
127.0979817213
  0
VERTEX
  8
0
 62
7
  6
CONTINUOUS
 10
93.4067180907
 20
127.0627074295
  0
VERTEX
  8
0
 62
7
  6
CONTINUOUS
 10
93.3683979153
 20
127.034411618
  0
VERTEX
  8
0
 62
7
  6
CONTINUOUS
 10
93.3275669148
 20
127.0137015124
  0
VERTEX
  8
0
 62
7
  6
CONTINUOUS
 10
93.2847700921
 20
127.0021132504
  0
VERTEX
  8
0
 62
7
  6
CONTINUOUS
 10
93.2614002938
 20
127.0003467402
  0
SEQEND
  0
LINE
  8
0
 62
7
  6
CONTINUOUS
 10
93.6375405297
 20
128.6189862227
 11
93.6399565041
 21
128.335964486
  0
LINE
  8
0
 62
7
  6
CONTINUOUS
 10
93.6370049373
 20
134.1630743483
 11
93.6375405297
 21
128.6189862227
  0
LINE
  8
0
 62
7
  6
CONTINUOUS
 10
93.4666686236
 20
77.67993253
 11
93.4666092975
 21
77.6789244929
  0
LINE
  8
0
 62
7
  6
CONTINUOUS
 10
92.3944646943
 20
73.3871071426
 11
92.4103670687
 21
73.4918326876
  0
LINE
  8
0
 62
7
  6
CONTINUOUS
 10
102.9166398803
 20
73.8860202812
 11
103.0973665635
 21
73.4827736486
  0
POLYLINE
  8
0
 62
7
  6
CONTINUOUS
 66
1
 70
0
  0
VERTEX
  8
0
 62
7
  6
CONTINUOUS
 10
103.1092076059
 20
73.3871152301
  0
VERTEX
  8
0
 62
7
  6
CONTINUOUS
 10
103.1368694176
 20
73.2196026609
  0
VERTEX
  8
0
 62
7
  6
CONTINUOUS
 10
103.1677742155
 20
73.0545764428
  0
VERTEX
  8
0
 62
7
  6
CONTINUOUS
 10
103.198723002
 20
72.9107487415
  0
VERTEX
  8
0
 62
7
  6
CONTINUOUS
 10
103.2301321893
 20
72.7847461184
  0
VERTEX
  8
0
 62
7
  6
CONTINUOUS
 10
103.2627153303
 20
72.6731592793
  0
VERTEX
  8
0
 62
7
  6
CONTINUOUS
 10
103.2977303391
 20
72.5723079605
  0
VERTEX
  8
0
 62
7
  6
CONTINUOUS
 10
103.3374138374
 20
72.478104494
  0
VERTEX
  8
0
 62
7
  6
CONTINUOUS
 10
103.3854409552
 20
72.3866405682
  0
VERTEX
  8
0
 62
7
  6
CONTINUOUS
 10
103.447550606
 20
72.2950333455
  0
VERTEX
  8
0
 62
7
  6
CONTINUOUS
 10
103.5312795308
 20
72.2037424779
  0
VERTEX
  8
0
 62
7
  6
CONTINUOUS
 10
103.641924942
 20
72.1202545703
  0
VERTEX
  8
0
 62
7
  6
CONTINUOUS
 10
103.7769146075
 20
72.0573108469
  0
VERTEX
  8
0
 62
7
  6
CONTINUOUS
 10
103.9247493967
 20
72.025168691
  0
VERTEX
  8
0
 62
7
  6
CONTINUOUS
 10
103.9956635393
 20
72.0215383582
  0
SEQEND
  0
LINE
  8
0
 62
7
  6
CONTINUOUS
 10
103.0933064923
 20
73.4918326873
 11
103.1092088667
 21
73.3871071426
  0
POLYLINE
  8
0
 62
7
  6
CONTINUOUS
 66
1
 70
0
  0
VERTEX
  8
0
 62
7
  6
CONTINUOUS
 10
102.0370642126
 20
77.6789143715
  0
VERTEX
  8
0
 62
7
  6
CONTINUOUS
 10
102.1084414676
 20
77.1306229891
  0
VERTEX
  8
0
 62
7
  6
CONTINUOUS
 10
102.203090929
 20
76.5306415737
  0
VERTEX
  8
0
 62
7
  6
CONTINUOUS
 10
102.3137015339
 20
75.9478546092
  0
VERTEX
  8
0
 62
7
  6
CONTINUOUS
 10
102.44031542
 20
75.3872689429
  0
VERTEX
  8
0
 62
7
  6
CONTINUOUS
 10
102.5829481744
 20
74.8537212646
  0
VERTEX
  8
0
 62
7
  6
CONTINUOUS
 10
102.7416460987
 20
74.3518708866
  0
VERTEX
  8
0
 62
7
  6
CONTINUOUS
 10
102.9166398803
 20
73.8860202812
  0
SEQEND
  0
LINE
  8
0
 62
7
  6
CONTINUOUS
 10
102.0370642422
 20
77.6789202372
 11
102.0370049403
 21
77.6799401488
  0
LINE
  8
0
 62
7
  6
CONTINUOUS
 10
101.8666093154
 20
134.1641562996
 11
101.8666686207
 21
134.1631363598
  0
POLYLINE
  8
0
 62
7
  6
CONTINUOUS
 66
1
 70
0
  0
VERTEX
  8
0
 62
7
  6
CONTINUOUS
 10
101.8597061186
 20
128.0385366137
  0
VERTEX
  8
0
 62
7
  6
CONTINUOUS
 10
101.8636705951
 20
128.3320005995
  0
VERTEX
  8
0
 62
7
  6
CONTINUOUS
 10
101.866112339
 20
128.615012801
  0
VERTEX
  8
0
 62
7
  6
CONTINUOUS
 10
101.8666686236
 20
134.1630743483
  0
SEQEND
  0
POLYLINE
  8
0
 62
7
  6
CONTINUOUS
 66
1
 70
0
  0
VERTEX
  8
0
 62
7
  6
CONTINUOUS
 10
102.0439340595
 20
83.8009110692
  0
VERTEX
  8
0
 62
7
  6
CONTINUOUS
 10
102.0399565043
 20
83.507111972
  0
VERTEX
  8
0
 62
7
  6
CONTINUOUS
 10
102.0375405298
 20
83.2240903115
  0
VERTEX
  8
0
 62
7
  6
CONTINUOUS
 10
102.0370049373
 20
77.6800021603
  0
SEQEND
  0
POLYLINE
  8
0
 62
7
  6
CONTINUOUS
 66
1
 70
0
  0
VERTEX
  8
0
 62
7
  6
CONTINUOUS
 10
111.4973676066
 20
138.3603049861
  0
VERTEX
  8
0
 62
7
  6
CONTINUOUS
 10
111.3175843314
 20
137.9593557644
  0
VERTEX
  8
0
 62
7
  6
CONTINUOUS
 10
111.1425197933
 20
137.4937427235
  0
VERTEX
  8
0
 62
7
  6
CONTINUOUS
 10
110.9837513914
 20
136.9921182431
  0
VERTEX
  8
0
 62
7
  6
CONTINUOUS
 10
110.8410466456
 20
136.4587820409
  0
VERTEX
  8
0
 62
7
  6
CONTINUOUS
 10
110.714358412
 20
135.8983910191
  0
VERTEX
  8
0
 62
7
  6
CONTINUOUS
 10
110.603670881
 20
135.3157802136
  0
VERTEX
  8
0
 62
7
  6
CONTINUOUS
 10
110.5089420297
 20
134.7159552867
  0
VERTEX
  8
0
 62
7
  6
CONTINUOUS
 10
110.4370642159
 20
134.1641621653
  0
SEQEND
  0
POLYLINE
  8
0
 62
7
  6
CONTINUOUS
 66
1
 70
0
  0
VERTEX
  8
0
 62
7
  6
CONTINUOUS
 10
110.4399565041
 20
128.335964486
  0
VERTEX
  8
0
 62
7
  6
CONTINUOUS
 10
110.443929481
 20
128.0426423671
  0
VERTEX
  8
0
 62
7
  6
CONTINUOUS
 10
110.4440558045
 20
127.963048824
  0
VERTEX
  8
0
 62
7
  6
CONTINUOUS
 10
110.4427771251
 20
127.8839861628
  0
VERTEX
  8
0
 62
7
  6
CONTINUOUS
 10
110.4398906482
 20
127.8057344386
  0
VERTEX
  8
0
 62
7
  6
CONTINUOUS
 10
110.4351752462
 20
127.7285161946
  0
VERTEX
  8
0
 62
7
  6
CONTINUOUS
 10
110.4284323257
 20
127.6525511457
  0
VERTEX
  8
0
 62
7
  6
CONTINUOUS
 10
110.4194859795
 20
127.578272001
  0
VERTEX
  8
0
 62
7
  6
CONTINUOUS
 10
110.4081664623
 20
127.5061870027
  0
VERTEX
  8
0
 62
7
  6
CONTINUOUS
 10
110.3942750631
 20
127.4360823338
  0
VERTEX
  8
0
 62
7
  6
CONTINUOUS
 10
110.3775751872
 20
127.3684321817
  0
VERTEX
  8
0
 62
7
  6
CONTINUOUS
 10
110.3578606453
 20
127.3043639974
  0
VERTEX
  8
0
 62
7
  6
CONTINUOUS
 10
110.3345139677
 20
127.2448741723
  0
VERTEX
  8
0
 62
7
  6
CONTINUOUS
 10
110.3070455446
 20
127.1896052235
  0
VERTEX
  8
0
 62
7
  6
CONTINUOUS
 10
110.276030668
 20
127.1401606942
  0
VERTEX
  8
0
 62
7
  6
CONTINUOUS
 10
110.242587982
 20
127.0979817213
  0
VERTEX
  8
0
 62
7
  6
CONTINUOUS
 10
110.2067180907
 20
127.0627074295
  0
VERTEX
  8
0
 62
7
  6
CONTINUOUS
 10
110.1683979153
 20
127.034411618
  0
VERTEX
  8
0
 62
7
  6
CONTINUOUS
 10
110.1275669148
 20
127.0137015124
  0
VERTEX
  8
0
 62
7
  6
CONTINUOUS
 10
110.0847700921
 20
127.0021132504
  0
VERTEX
  8
0
 62
7
  6
CONTINUOUS
 10
110.0614002938
 20
127.0003467402
  0
SEQEND
  0
POLYLINE
  8
0
 62
7
  6
CONTINUOUS
 66
1
 70
0
  0
VERTEX
  8
0
 62
7
  6
CONTINUOUS
 10
110.2636701921
 20
83.5110797526
  0
VERTEX
  8
0
 62
7
  6
CONTINUOUS
 10
110.2597004712
 20
83.8051115236
  0
VERTEX
  8
0
 62
7
  6
CONTINUOUS
 10
110.2596538047
 20
83.8849806966
  0
VERTEX
  8
0
 62
7
  6
CONTINUOUS
 10
110.2610305694
 20
83.9641561598
  0
VERTEX
  8
0
 62
7
  6
CONTINUOUS
 10
110.2640296788
 20
84.0423781336
  0
VERTEX
  8
0
 62
7
  6
CONTINUOUS
 10
110.2688652486
 20
84.1194492531
  0
VERTEX
  8
0
 62
7
  6
CONTINUOUS
 10
110.2757263784
 20
84.1951624257
  0
VERTEX
  8
0
 62
7
  6
CONTINUOUS
 10
110.2847822768
 20
84.2690896945
  0
VERTEX
  8
0
 62
7
  6
CONTINUOUS
 10
110.2961979326
 20
84.3407848708
  0
VERTEX
  8
0
 62
7
  6
CONTINUOUS
 10
110.3101539086
 20
84.4103838929
  0
VERTEX
  8
0
 62
7
  6
CONTINUOUS
 10
110.3269216632
 20
84.4776194789
  0
VERTEX
  8
0
 62
7
  6
CONTINUOUS
 10
110.3466238151
 20
84.5410485199
  0
VERTEX
  8
0
 62
7
  6
CONTINUOUS
 10
110.3699752131
 20
84.6000434123
  0
VERTEX
  8
0
 62
7
  6
CONTINUOUS
 10
110.3973780967
 20
84.6548134173
  0
VERTEX
  8
0
 62
7
  6
CONTINUOUS
 10
110.4282272304
 20
84.7037446847
  0
VERTEX
  8
0
 62
7
  6
CONTINUOUS
 10
110.4616912334
 20
84.7457710475
  0
VERTEX
  8
0
 62
7
  6
CONTINUOUS
 10
110.4978264353
 20
84.7811147222
  0
VERTEX
  8
0
 62
7
  6
CONTINUOUS
 10
110.536589677
 20
84.8094798656
  0
VERTEX
  8
0
 62
7
  6
CONTINUOUS
 10
110.5778632767
 20
84.8300561633
  0
VERTEX
  8
0
 62
7
  6
CONTINUOUS
 10
110.6208606128
 20
84.8412391904
  0
VERTEX
  8
0
 62
7
  6
CONTINUOUS
 10
110.642099516
 20
84.8427292027
  0
SEQEND
  0
LINE
  8
0
 62
7
  6
CONTINUOUS
 10
110.2661122467
 20
83.2280655836
 11
110.2636701921
 21
83.5110797526
  0
LINE
  8
0
 62
7
  6
CONTINUOUS
 10
110.4375405297
 20
128.6189862227
 11
110.4399565041
 21
128.335964486
  0
LINE
  8
0
 62
7
  6
CONTINUOUS
 10
110.2661122467
 20
83.2280655836
 11
110.2666686236
 21
77.679964643
  0
LINE
  8
0
 62
7
  6
CONTINUOUS
 10
110.4370049373
 20
134.1630743483
 11
110.4375405297
 21
128.6189862227
  0
LINE
  8
0
 62
7
  6
CONTINUOUS
 10
110.4370642455
 20
134.1641562996
 11
110.4370049403
 21
134.1631363598
  0
LINE
  8
0
 62
7
  6
CONTINUOUS
 10
110.2666686236
 20
77.67993253
 11
110.2666092975
 21
77.6789244929
  0
LINE
  8
0
 62
7
  6
CONTINUOUS
 10
111.5092090023
 20
138.4559702359
 11
111.4933042178
 21
138.3512428939
  0
POLYLINE
  8
0
 62
7
  6
CONTINUOUS
 66
1
 70
0
  0
VERTEX
  8
0
 62
7
  6
CONTINUOUS
 10
92.4063069975
 20
73.4827736486
  0
VERTEX
  8
0
 62
7
  6
CONTINUOUS
 10
92.5870337246
 20
73.8860203881
  0
VERTEX
  8
0
 62
7
  6
CONTINUOUS
 10
92.7620275424
 20
74.3518711193
  0
VERTEX
  8
0
 62
7
  6
CONTINUOUS
 10
92.9207254955
 20
74.8537216394
  0
VERTEX
  8
0
 62
7
  6
CONTINUOUS
 10
93.0633582711
 20
75.3872694728
  0
VERTEX
  8
0
 62
7
  6
CONTINUOUS
 10
93.189972171
 20
75.9478553037
  0
VERTEX
  8
0
 62
7
  6
CONTINUOUS
 10
93.3005827818
 20
76.5306424386
  0
VERTEX
  8
0
 62
7
  6
CONTINUOUS
 10
93.3952322416
 20
77.130624027
  0
VERTEX
  8
0
 62
7
  6
CONTINUOUS
 10
93.4666093484
 20
77.6789143715
  0
SEQEND
  0
LINE
  8
0
 62
7
  6
CONTINUOUS
 10
119.7166398803
 20
73.8860202812
 11
119.8973665635
 21
73.4827736486
  0
POLYLINE
  8
0
 62
7
  6
CONTINUOUS
 66
1
 70
0
  0
VERTEX
  8
0
 62
7
  6
CONTINUOUS
 10
100.7944658378
 20
138.4559620306
  0
VERTEX
  8
0
 62
7
  6
CONTINUOUS
 10
100.7665791921
 20
138.624757084
  0
VERTEX
  8
0
 62
7
  6
CONTINUOUS
 10
100.7357352907
 20
138.7893173003
  0
VERTEX
  8
0
 62
7
  6
CONTINUOUS
 10
100.7048515399
 20
138.9327555769
  0
VERTEX
  8
0
 62
7
  6
CONTINUOUS
 10
100.6735134933
 20
139.0584338774
  0
VERTEX
  8
0
 62
7
  6
CONTINUOUS
 10
100.641012108
 20
139.1697475477
  0
VERTEX
  8
0
 62
7
  6
CONTINUOUS
 10
100.6060998051
 20
139.2703571692
  0
VERTEX
  8
0
 62
7
  6
CONTINUOUS
 10
100.5665631779
 20
139.3643220403
  0
VERTEX
  8
0
 62
7
  6
CONTINUOUS
 10
100.5187745867
 20
139.4555178213
  0
VERTEX
  8
0
 62
7
  6
CONTINUOUS
 10
100.4570655434
 20
139.5468299977
  0
VERTEX
  8
0
 62
7
  6
CONTINUOUS
 10
100.3739684761
 20
139.6378777516
  0
VERTEX
  8
0
 62
7
  6
CONTINUOUS
 10
100.264163211
 20
139.7213473107
  0
VERTEX
  8
0
 62
7
  6
CONTINUOUS
 10
100.1300094289
 20
139.7846576179
  0
VERTEX
  8
0
 62
7
  6
CONTINUOUS
 10
99.9827631736
 20
139.8175010933
  0
VERTEX
  8
0
 62
7
  6
CONTINUOUS
 10
99.9080074679
 20
139.8215381473
  0
SEQEND
  0
LINE
  8
0
 62
7
  6
CONTINUOUS
 10
100.8103693432
 20
138.3512428939
 11
100.7944645587
 21
138.4559702359
  0
POLYLINE
  8
0
 62
7
  6
CONTINUOUS
 66
1
 70
0
  0
VERTEX
  8
0
 62
7
  6
CONTINUOUS
 10
101.866609345
 20
134.1641621653
  0
VERTEX
  8
0
 62
7
  6
CONTINUOUS
 10
101.7947315313
 20
134.7159552867
  0
VERTEX
  8
0
 62
7
  6
CONTINUOUS
 10
101.70000268
 20
135.3157802136
  0
VERTEX
  8
0
 62
7
  6
CONTINUOUS
 10
101.5893151489
 20
135.8983910191
  0
VERTEX
  8
0
 62
7
  6
CONTINUOUS
 10
101.4626269154
 20
136.4587820409
  0
VERTEX
  8
0
 62
7
  6
CONTINUOUS
 10
101.3199221696
 20
136.9921182431
  0
VERTEX
  8
0
 62
7
  6
CONTINUOUS
 10
101.1611537677
 20
137.4937427235
  0
VERTEX
  8
0
 62
7
  6
CONTINUOUS
 10
100.9860892295
 20
137.9593557643
  0
SEQEND
  0
LINE
  8
0
 62
7
  6
CONTINUOUS
 10
118.8370642422
 20
77.6789202372
 11
118.8370049403
 21
77.6799401488
  0
LINE
  8
0
 62
7
  6
CONTINUOUS
 10
109.1944646943
 20
73.3871071426
 11
109.2103670687
 21
73.4918326876
  0
POLYLINE
  8
0
 62
7
  6
CONTINUOUS
 66
1
 70
0
  0
VERTEX
  8
0
 62
7
  6
CONTINUOUS
 10
128.2973676066
 20
138.3603049861
  0
VERTEX
  8
0
 62
7
  6
CONTINUOUS
 10
128.1175843314
 20
137.9593557644
  0
VERTEX
  8
0
 62
7
  6
CONTINUOUS
 10
127.9425197933
 20
137.4937427235
  0
VERTEX
  8
0
 62
7
  6
CONTINUOUS
 10
127.7837513914
 20
136.9921182431
  0
VERTEX
  8
0
 62
7
  6
CONTINUOUS
 10
127.6410466456
 20
136.4587820409
  0
VERTEX
  8
0
 62
7
  6
CONTINUOUS
 10
127.514358412
 20
135.8983910191
  0
VERTEX
  8
0
 62
7
  6
CONTINUOUS
 10
127.403670881
 20
135.3157802136
  0
VERTEX
  8
0
 62
7
  6
CONTINUOUS
 10
127.3089420297
 20
134.7159552867
  0
VERTEX
  8
0
 62
7
  6
CONTINUOUS
 10
127.2370642159
 20
134.1641621653
  0
SEQEND
  0
POLYLINE
  8
0
 62
7
  6
CONTINUOUS
 66
1
 70
0
  0
VERTEX
  8
0
 62
7
  6
CONTINUOUS
 10
119.9092076059
 20
73.3871152301
  0
VERTEX
  8
0
 62
7
  6
CONTINUOUS
 10
119.9368694176
 20
73.2196026609
  0
VERTEX
  8
0
 62
7
  6
CONTINUOUS
 10
119.9677742155
 20
73.0545764428
  0
VERTEX
  8
0
 62
7
  6
CONTINUOUS
 10
119.998723002
 20
72.9107487415
  0
VERTEX
  8
0
 62
7
  6
CONTINUOUS
 10
120.0301321893
 20
72.7847461184
  0
VERTEX
  8
0
 62
7
  6
CONTINUOUS
 10
120.0627153303
 20
72.6731592793
  0
VERTEX
  8
0
 62
7
  6
CONTINUOUS
 10
120.0977303391
 20
72.5723079605
  0
VERTEX
  8
0
 62
7
  6
CONTINUOUS
 10
120.1374138374
 20
72.478104494
  0
VERTEX
  8
0
 62
7
  6
CONTINUOUS
 10
120.1854409552
 20
72.3866405682
  0
VERTEX
  8
0
 62
7
  6
CONTINUOUS
 10
120.247550606
 20
72.2950333455
  0
VERTEX
  8
0
 62
7
  6
CONTINUOUS
 10
120.3312795308
 20
72.2037424779
  0
VERTEX
  8
0
 62
7
  6
CONTINUOUS
 10
120.441924942
 20
72.1202545703
  0
VERTEX
  8
0
 62
7
  6
CONTINUOUS
 10
120.5769146075
 20
72.0573108469
  0
VERTEX
  8
0
 62
7
  6
CONTINUOUS
 10
120.7247493967
 20
72.025168691
  0
VERTEX
  8
0
 62
7
  6
CONTINUOUS
 10
120.7956635393
 20
72.0215383582
  0
SEQEND
  0
LINE
  8
0
 62
7
  6
CONTINUOUS
 10
119.8933064923
 20
73.4918326873
 11
119.9092088667
 21
73.3871071426
  0
POLYLINE
  8
0
 62
7
  6
CONTINUOUS
 66
1
 70
0
  0
VERTEX
  8
0
 62
7
  6
CONTINUOUS
 10
118.8370642126
 20
77.6789143715
  0
VERTEX
  8
0
 62
7
  6
CONTINUOUS
 10
118.9084414676
 20
77.1306229891
  0
VERTEX
  8
0
 62
7
  6
CONTINUOUS
 10
119.003090929
 20
76.5306415737
  0
VERTEX
  8
0
 62
7
  6
CONTINUOUS
 10
119.1137015339
 20
75.9478546092
  0
VERTEX
  8
0
 62
7
  6
CONTINUOUS
 10
119.24031542
 20
75.3872689429
  0
VERTEX
  8
0
 62
7
  6
CONTINUOUS
 10
119.3829481744
 20
74.8537212646
  0
VERTEX
  8
0
 62
7
  6
CONTINUOUS
 10
119.5416460987
 20
74.3518708866
  0
VERTEX
  8
0
 62
7
  6
CONTINUOUS
 10
119.7166398803
 20
73.8860202812
  0
SEQEND
  0
LINE
  8
0
 62
7
  6
CONTINUOUS
 10
118.6666093154
 20
134.1641562996
 11
118.6666686207
 21
134.1631363598
  0
POLYLINE
  8
0
 62
7
  6
CONTINUOUS
 66
1
 70
0
  0
VERTEX
  8
0
 62
7
  6
CONTINUOUS
 10
118.6597061186
 20
128.0385366137
  0
VERTEX
  8
0
 62
7
  6
CONTINUOUS
 10
118.6636705951
 20
128.3320005995
  0
VERTEX
  8
0
 62
7
  6
CONTINUOUS
 10
118.666112339
 20
128.615012801
  0
VERTEX
  8
0
 62
7
  6
CONTINUOUS
 10
118.6666686236
 20
134.1630743483
  0
SEQEND
  0
POLYLINE
  8
0
 62
7
  6
CONTINUOUS
 66
1
 70
0
  0
VERTEX
  8
0
 62
7
  6
CONTINUOUS
 10
118.8439340595
 20
83.8009110692
  0
VERTEX
  8
0
 62
7
  6
CONTINUOUS
 10
118.8399565043
 20
83.507111972
  0
VERTEX
  8
0
 62
7
  6
CONTINUOUS
 10
118.8375405298
 20
83.2240903115
  0
VERTEX
  8
0
 62
7
  6
CONTINUOUS
 10
118.8370049373
 20
77.6800021603
  0
SEQEND
  0
LINE
  8
0
 62
7
  6
CONTINUOUS
 10
128.3092090023
 20
138.4559702359
 11
128.2933042178
 21
138.3512428939
  0
POLYLINE
  8
0
 62
7
  6
CONTINUOUS
 66
1
 70
0
  0
VERTEX
  8
0
 62
7
  6
CONTINUOUS
 10
93.4666092975
 20
77.6789244929
  0
VERTEX
  8
0
 62
7
  6
CONTINUOUS
 10
93.4607975971
 20
77.6703275949
  0
VERTEX
  8
0
 62
7
  6
CONTINUOUS
 10
93.4417108442
 20
77.6615342765
  0
VERTEX
  8
0
 62
7
  6
CONTINUOUS
 10
93.4105095971
 20
77.6548058337
  0
VERTEX
  8
0
 62
7
  6
CONTINUOUS
 10
93.3691910512
 20
77.6504861303
  0
VERTEX
  8
0
 62
7
  6
CONTINUOUS
 10
93.3204947051
 20
77.6486972437
  0
VERTEX
  8
0
 62
7
  6
CONTINUOUS
 10
93.2666686236
 20
77.649256931
  0
SEQEND
  0
POLYLINE
  8
0
 62
7
  6
CONTINUOUS
 66
1
 70
0
  0
VERTEX
  8
0
 62
7
  6
CONTINUOUS
 10
225.9080070964
 20
72.0215383617
  0
VERTEX
  8
0
 62
7
  6
CONTINUOUS
 10
225.9828812972
 20
72.025588277
  0
VERTEX
  8
0
 62
7
  6
CONTINUOUS
 10
226.1302385213
 20
72.0584976819
  0
VERTEX
  8
0
 62
7
  6
CONTINUOUS
 10
226.2644598444
 20
72.1219113035
  0
VERTEX
  8
0
 62
7
  6
CONTINUOUS
 10
226.3742763382
 20
72.2054845313
  0
VERTEX
  8
0
 62
7
  6
CONTINUOUS
 10
226.4573482116
 20
72.2966112569
  0
VERTEX
  8
0
 62
7
  6
CONTINUOUS
 10
226.5190273208
 20
72.3879876211
  0
VERTEX
  8
0
 62
7
  6
CONTINUOUS
 10
226.5667958589
 20
72.47925353
  0
VERTEX
  8
0
 62
7
  6
CONTINUOUS
 10
226.6063238537
 20
72.5733085478
  0
VERTEX
  8
0
 62
7
  6
CONTINUOUS
 10
226.6412367077
 20
72.6740368223
  0
VERTEX
  8
0
 62
7
  6
CONTINUOUS
 10
226.6737448175
 20
72.7855017609
  0
VERTEX
  8
0
 62
7
  6
CONTINUOUS
 10
226.705093418
 20
72.9113663133
  0
VERTEX
  8
0
 62
7
  6
CONTINUOUS
 10
226.7359898992
 20
73.0550277916
  0
VERTEX
  8
0
 62
7
  6
CONTINUOUS
 10
226.7668475221
 20
73.2198502578
  0
VERTEX
  8
0
 62
7
  6
CONTINUOUS
 10
226.7944659464
 20
73.3871151746
  0
SEQEND
  0
POLYLINE
  8
0
 62
7
  6
CONTINUOUS
 66
1
 70
0
  0
VERTEX
  8
0
 62
7
  6
CONTINUOUS
 10
209.1080070957
 20
72.0215383617
  0
VERTEX
  8
0
 62
7
  6
CONTINUOUS
 10
209.1828814945
 20
72.0255882985
  0
VERTEX
  8
0
 62
7
  6
CONTINUOUS
 10
209.330238779
 20
72.0584977706
  0
VERTEX
  8
0
 62
7
  6
CONTINUOUS
 10
209.464460048
 20
72.1219114285
  0
VERTEX
  8
0
 62
7
  6
CONTINUOUS
 10
209.5742764217
 20
72.2054846089
  0
VERTEX
  8
0
 62
7
  6
CONTINUOUS
 10
209.6573482132
 20
72.296611259
  0
VERTEX
  8
0
 62
7
  6
CONTINUOUS
 10
209.7190272616
 20
72.3879875206
  0
VERTEX
  8
0
 62
7
  6
CONTINUOUS
 10
209.766795767
 20
72.4792533326
  0
VERTEX
  8
0
 62
7
  6
CONTINUOUS
 10
209.8063237538
 20
72.573308285
  0
VERTEX
  8
0
 62
7
  6
CONTINUOUS
 10
209.841236607
 20
72.674036505
  0
VERTEX
  8
0
 62
7
  6
CONTINUOUS
 10
209.8737447218
 20
72.7855014054
  0
VERTEX
  8
0
 62
7
  6
CONTINUOUS
 10
209.9050933342
 20
72.9113659511
  0
VERTEX
  8
0
 62
7
  6
CONTINUOUS
 10
209.9359898355
 20
73.0550274739
  0
VERTEX
  8
0
 62
7
  6
CONTINUOUS
 10
209.966847487
 20
73.2198500572
  0
VERTEX
  8
0
 62
7
  6
CONTINUOUS
 10
209.9944659464
 20
73.3871151745
  0
SEQEND
  0
LINE
  8
0
 62
7
  6
CONTINUOUS
 10
100.9860892295
 20
137.9593557643
 11
100.8063059543
 21
138.3603049861
  0
POLYLINE
  8
0
 62
7
  6
CONTINUOUS
 66
1
 70
0
  0
VERTEX
  8
0
 62
7
  6
CONTINUOUS
 10
117.5944658378
 20
138.4559620306
  0
VERTEX
  8
0
 62
7
  6
CONTINUOUS
 10
117.5665791921
 20
138.624757084
  0
VERTEX
  8
0
 62
7
  6
CONTINUOUS
 10
117.5357352907
 20
138.7893173003
  0
VERTEX
  8
0
 62
7
  6
CONTINUOUS
 10
117.5048515399
 20
138.9327555769
  0
VERTEX
  8
0
 62
7
  6
CONTINUOUS
 10
117.4735134933
 20
139.0584338774
  0
VERTEX
  8
0
 62
7
  6
CONTINUOUS
 10
117.441012108
 20
139.1697475477
  0
VERTEX
  8
0
 62
7
  6
CONTINUOUS
 10
117.4060998051
 20
139.2703571692
  0
VERTEX
  8
0
 62
7
  6
CONTINUOUS
 10
117.3665631779
 20
139.3643220403
  0
VERTEX
  8
0
 62
7
  6
CONTINUOUS
 10
117.3187745867
 20
139.4555178213
  0
VERTEX
  8
0
 62
7
  6
CONTINUOUS
 10
117.2570655434
 20
139.5468299977
  0
VERTEX
  8
0
 62
7
  6
CONTINUOUS
 10
117.1739684761
 20
139.6378777516
  0
VERTEX
  8
0
 62
7
  6
CONTINUOUS
 10
117.064163211
 20
139.7213473107
  0
VERTEX
  8
0
 62
7
  6
CONTINUOUS
 10
116.9300094289
 20
139.7846576179
  0
VERTEX
  8
0
 62
7
  6
CONTINUOUS
 10
116.7827631736
 20
139.8175010933
  0
VERTEX
  8
0
 62
7
  6
CONTINUOUS
 10
116.7080074679
 20
139.8215381473
  0
SEQEND
  0
LINE
  8
0
 62
7
  6
CONTINUOUS
 10
117.6103693432
 20
138.3512428939
 11
117.5944645587
 21
138.4559702359
  0
POLYLINE
  8
0
 62
7
  6
CONTINUOUS
 66
1
 70
0
  0
VERTEX
  8
0
 62
7
  6
CONTINUOUS
 10
118.666609345
 20
134.1641621653
  0
VERTEX
  8
0
 62
7
  6
CONTINUOUS
 10
118.5947315313
 20
134.7159552867
  0
VERTEX
  8
0
 62
7
  6
CONTINUOUS
 10
118.50000268
 20
135.3157802136
  0
VERTEX
  8
0
 62
7
  6
CONTINUOUS
 10
118.3893151489
 20
135.8983910191
  0
VERTEX
  8
0
 62
7
  6
CONTINUOUS
 10
118.2626269154
 20
136.4587820409
  0
VERTEX
  8
0
 62
7
  6
CONTINUOUS
 10
118.1199221696
 20
136.9921182431
  0
VERTEX
  8
0
 62
7
  6
CONTINUOUS
 10
117.9611537677
 20
137.4937427235
  0
VERTEX
  8
0
 62
7
  6
CONTINUOUS
 10
117.7860892295
 20
137.9593557644
  0
SEQEND
  0
POLYLINE
  8
0
 62
7
  6
CONTINUOUS
 66
1
 70
0
  0
VERTEX
  8
0
 62
7
  6
CONTINUOUS
 10
127.2399565041
 20
128.335964486
  0
VERTEX
  8
0
 62
7
  6
CONTINUOUS
 10
127.243929481
 20
128.0426423671
  0
VERTEX
  8
0
 62
7
  6
CONTINUOUS
 10
127.2440558045
 20
127.963048824
  0
VERTEX
  8
0
 62
7
  6
CONTINUOUS
 10
127.2427771251
 20
127.8839861628
  0
VERTEX
  8
0
 62
7
  6
CONTINUOUS
 10
127.2398906482
 20
127.8057344386
  0
VERTEX
  8
0
 62
7
  6
CONTINUOUS
 10
127.2351752462
 20
127.7285161946
  0
VERTEX
  8
0
 62
7
  6
CONTINUOUS
 10
127.2284323257
 20
127.6525511457
  0
VERTEX
  8
0
 62
7
  6
CONTINUOUS
 10
127.2194859795
 20
127.578272001
  0
VERTEX
  8
0
 62
7
  6
CONTINUOUS
 10
127.2081664623
 20
127.5061870027
  0
VERTEX
  8
0
 62
7
  6
CONTINUOUS
 10
127.1942750631
 20
127.4360823338
  0
VERTEX
  8
0
 62
7
  6
CONTINUOUS
 10
127.1775751872
 20
127.3684321817
  0
VERTEX
  8
0
 62
7
  6
CONTINUOUS
 10
127.1578606453
 20
127.3043639974
  0
VERTEX
  8
0
 62
7
  6
CONTINUOUS
 10
127.1345139677
 20
127.2448741723
  0
VERTEX
  8
0
 62
7
  6
CONTINUOUS
 10
127.1070455446
 20
127.1896052235
  0
VERTEX
  8
0
 62
7
  6
CONTINUOUS
 10
127.076030668
 20
127.1401606942
  0
VERTEX
  8
0
 62
7
  6
CONTINUOUS
 10
127.042587982
 20
127.0979817213
  0
VERTEX
  8
0
 62
7
  6
CONTINUOUS
 10
127.0067180907
 20
127.0627074295
  0
VERTEX
  8
0
 62
7
  6
CONTINUOUS
 10
126.9683979153
 20
127.034411618
  0
VERTEX
  8
0
 62
7
  6
CONTINUOUS
 10
126.9275669148
 20
127.0137015124
  0
VERTEX
  8
0
 62
7
  6
CONTINUOUS
 10
126.8847700921
 20
127.0021132504
  0
VERTEX
  8
0
 62
7
  6
CONTINUOUS
 10
126.8614002938
 20
127.0003467402
  0
SEQEND
  0
POLYLINE
  8
0
 62
7
  6
CONTINUOUS
 66
1
 70
0
  0
VERTEX
  8
0
 62
7
  6
CONTINUOUS
 10
127.0636701921
 20
83.5110797526
  0
VERTEX
  8
0
 62
7
  6
CONTINUOUS
 10
127.0597004712
 20
83.8051115236
  0
VERTEX
  8
0
 62
7
  6
CONTINUOUS
 10
127.0596538047
 20
83.8849806966
  0
VERTEX
  8
0
 62
7
  6
CONTINUOUS
 10
127.0610305694
 20
83.9641561598
  0
VERTEX
  8
0
 62
7
  6
CONTINUOUS
 10
127.0640296788
 20
84.0423781336
  0
VERTEX
  8
0
 62
7
  6
CONTINUOUS
 10
127.0688652486
 20
84.1194492531
  0
VERTEX
  8
0
 62
7
  6
CONTINUOUS
 10
127.0757263784
 20
84.1951624257
  0
VERTEX
  8
0
 62
7
  6
CONTINUOUS
 10
127.0847822768
 20
84.2690896945
  0
VERTEX
  8
0
 62
7
  6
CONTINUOUS
 10
127.0961979326
 20
84.3407848708
  0
VERTEX
  8
0
 62
7
  6
CONTINUOUS
 10
127.1101539086
 20
84.4103838929
  0
VERTEX
  8
0
 62
7
  6
CONTINUOUS
 10
127.1269216632
 20
84.4776194789
  0
VERTEX
  8
0
 62
7
  6
CONTINUOUS
 10
127.1466238151
 20
84.5410485199
  0
VERTEX
  8
0
 62
7
  6
CONTINUOUS
 10
127.1699752131
 20
84.6000434123
  0
VERTEX
  8
0
 62
7
  6
CONTINUOUS
 10
127.1973780967
 20
84.6548134173
  0
VERTEX
  8
0
 62
7
  6
CONTINUOUS
 10
127.2282272304
 20
84.7037446847
  0
VERTEX
  8
0
 62
7
  6
CONTINUOUS
 10
127.2616912334
 20
84.7457710475
  0
VERTEX
  8
0
 62
7
  6
CONTINUOUS
 10
127.2978264353
 20
84.7811147222
  0
VERTEX
  8
0
 62
7
  6
CONTINUOUS
 10
127.336589677
 20
84.8094798656
  0
VERTEX
  8
0
 62
7
  6
CONTINUOUS
 10
127.3778632767
 20
84.8300561633
  0
VERTEX
  8
0
 62
7
  6
CONTINUOUS
 10
127.4208606128
 20
84.8412391904
  0
VERTEX
  8
0
 62
7
  6
CONTINUOUS
 10
127.442099516
 20
84.8427292027
  0
SEQEND
  0
LINE
  8
0
 62
7
  6
CONTINUOUS
 10
127.0661122467
 20
83.2280655836
 11
127.0636701921
 21
83.5110797526
  0
LINE
  8
0
 62
7
  6
CONTINUOUS
 10
127.2375405297
 20
128.6189862227
 11
127.2399565041
 21
128.335964486
  0
LINE
  8
0
 62
7
  6
CONTINUOUS
 10
127.0661122467
 20
83.2280655836
 11
127.0666686236
 21
77.679964643
  0
LINE
  8
0
 62
7
  6
CONTINUOUS
 10
127.2370049373
 20
134.1630743483
 11
127.2375405297
 21
128.6189862227
  0
LINE
  8
0
 62
7
  6
CONTINUOUS
 10
127.2370642455
 20
134.1641562996
 11
127.2370049403
 21
134.1631363598
  0
LINE
  8
0
 62
7
  6
CONTINUOUS
 10
127.0666686236
 20
77.67993253
 11
127.0666092975
 21
77.6789244929
  0
POLYLINE
  8
0
 62
7
  6
CONTINUOUS
 66
1
 70
0
  0
VERTEX
  8
0
 62
7
  6
CONTINUOUS
 10
109.2063069975
 20
73.4827736486
  0
VERTEX
  8
0
 62
7
  6
CONTINUOUS
 10
109.3870337246
 20
73.8860203881
  0
VERTEX
  8
0
 62
7
  6
CONTINUOUS
 10
109.5620275424
 20
74.3518711193
  0
VERTEX
  8
0
 62
7
  6
CONTINUOUS
 10
109.7207254954
 20
74.8537216394
  0
VERTEX
  8
0
 62
7
  6
CONTINUOUS
 10
109.8633582711
 20
75.3872694728
  0
VERTEX
  8
0
 62
7
  6
CONTINUOUS
 10
109.989972171
 20
75.9478553037
  0
VERTEX
  8
0
 62
7
  6
CONTINUOUS
 10
110.1005827818
 20
76.5306424386
  0
VERTEX
  8
0
 62
7
  6
CONTINUOUS
 10
110.1952322416
 20
77.130624027
  0
VERTEX
  8
0
 62
7
  6
CONTINUOUS
 10
110.2666093484
 20
77.6789143715
  0
SEQEND
  0
POLYLINE
  8
0
 62
7
  6
CONTINUOUS
 66
1
 70
0
  0
VERTEX
  8
0
 62
7
  6
CONTINUOUS
 10
175.5088417516
 20
72.0215387082
  0
VERTEX
  8
0
 62
7
  6
CONTINUOUS
 10
175.5828814945
 20
72.0255882985
  0
VERTEX
  8
0
 62
7
  6
CONTINUOUS
 10
175.730238779
 20
72.0584977706
  0
VERTEX
  8
0
 62
7
  6
CONTINUOUS
 10
175.864460048
 20
72.1219114285
  0
VERTEX
  8
0
 62
7
  6
CONTINUOUS
 10
175.9742764217
 20
72.2054846089
  0
VERTEX
  8
0
 62
7
  6
CONTINUOUS
 10
176.0573482132
 20
72.296611259
  0
VERTEX
  8
0
 62
7
  6
CONTINUOUS
 10
176.1190272616
 20
72.3879875206
  0
VERTEX
  8
0
 62
7
  6
CONTINUOUS
 10
176.166795767
 20
72.4792533326
  0
VERTEX
  8
0
 62
7
  6
CONTINUOUS
 10
176.2063237538
 20
72.573308285
  0
VERTEX
  8
0
 62
7
  6
CONTINUOUS
 10
176.241236607
 20
72.674036505
  0
VERTEX
  8
0
 62
7
  6
CONTINUOUS
 10
176.2737447218
 20
72.7855014054
  0
VERTEX
  8
0
 62
7
  6
CONTINUOUS
 10
176.3050933342
 20
72.9113659511
  0
VERTEX
  8
0
 62
7
  6
CONTINUOUS
 10
176.3359898355
 20
73.0550274739
  0
VERTEX
  8
0
 62
7
  6
CONTINUOUS
 10
176.366847487
 20
73.2198500572
  0
VERTEX
  8
0
 62
7
  6
CONTINUOUS
 10
176.3944659464
 20
73.3871151745
  0
SEQEND
  0
POLYLINE
  8
0
 62
7
  6
CONTINUOUS
 66
1
 70
0
  0
VERTEX
  8
0
 62
7
  6
CONTINUOUS
 10
141.9088417516
 20
72.0215387082
  0
VERTEX
  8
0
 62
7
  6
CONTINUOUS
 10
141.9828814945
 20
72.0255882985
  0
VERTEX
  8
0
 62
7
  6
CONTINUOUS
 10
142.130238779
 20
72.0584977706
  0
VERTEX
  8
0
 62
7
  6
CONTINUOUS
 10
142.264460048
 20
72.1219114285
  0
VERTEX
  8
0
 62
7
  6
CONTINUOUS
 10
142.3742764217
 20
72.2054846089
  0
VERTEX
  8
0
 62
7
  6
CONTINUOUS
 10
142.4573482132
 20
72.296611259
  0
VERTEX
  8
0
 62
7
  6
CONTINUOUS
 10
142.5190272616
 20
72.3879875206
  0
VERTEX
  8
0
 62
7
  6
CONTINUOUS
 10
142.566795767
 20
72.4792533326
  0
VERTEX
  8
0
 62
7
  6
CONTINUOUS
 10
142.6063237538
 20
72.573308285
  0
VERTEX
  8
0
 62
7
  6
CONTINUOUS
 10
142.641236607
 20
72.674036505
  0
VERTEX
  8
0
 62
7
  6
CONTINUOUS
 10
142.6737447218
 20
72.7855014054
  0
VERTEX
  8
0
 62
7
  6
CONTINUOUS
 10
142.7050933342
 20
72.9113659511
  0
VERTEX
  8
0
 62
7
  6
CONTINUOUS
 10
142.7359898355
 20
73.0550274739
  0
VERTEX
  8
0
 62
7
  6
CONTINUOUS
 10
142.766847487
 20
73.2198500572
  0
VERTEX
  8
0
 62
7
  6
CONTINUOUS
 10
142.7944659464
 20
73.3871151745
  0
SEQEND
  0
POLYLINE
  8
0
 62
7
  6
CONTINUOUS
 66
1
 70
0
  0
VERTEX
  8
0
 62
7
  6
CONTINUOUS
 10
192.3080070957
 20
72.0215383617
  0
VERTEX
  8
0
 62
7
  6
CONTINUOUS
 10
192.3828814945
 20
72.0255882985
  0
VERTEX
  8
0
 62
7
  6
CONTINUOUS
 10
192.530238779
 20
72.0584977706
  0
VERTEX
  8
0
 62
7
  6
CONTINUOUS
 10
192.664460048
 20
72.1219114285
  0
VERTEX
  8
0
 62
7
  6
CONTINUOUS
 10
192.7742764217
 20
72.2054846089
  0
VERTEX
  8
0
 62
7
  6
CONTINUOUS
 10
192.8573482132
 20
72.296611259
  0
VERTEX
  8
0
 62
7
  6
CONTINUOUS
 10
192.9190272616
 20
72.3879875206
  0
VERTEX
  8
0
 62
7
  6
CONTINUOUS
 10
192.966795767
 20
72.4792533326
  0
VERTEX
  8
0
 62
7
  6
CONTINUOUS
 10
193.0063237538
 20
72.573308285
  0
VERTEX
  8
0
 62
7
  6
CONTINUOUS
 10
193.041236607
 20
72.674036505
  0
VERTEX
  8
0
 62
7
  6
CONTINUOUS
 10
193.0737447218
 20
72.7855014054
  0
VERTEX
  8
0
 62
7
  6
CONTINUOUS
 10
193.1050933342
 20
72.9113659511
  0
VERTEX
  8
0
 62
7
  6
CONTINUOUS
 10
193.1359898355
 20
73.0550274739
  0
VERTEX
  8
0
 62
7
  6
CONTINUOUS
 10
193.166847487
 20
73.2198500572
  0
VERTEX
  8
0
 62
7
  6
CONTINUOUS
 10
193.1944659464
 20
73.3871151745
  0
SEQEND
  0
POLYLINE
  8
0
 62
7
  6
CONTINUOUS
 66
1
 70
0
  0
VERTEX
  8
0
 62
7
  6
CONTINUOUS
 10
158.7080070957
 20
72.0215383617
  0
VERTEX
  8
0
 62
7
  6
CONTINUOUS
 10
158.7828814945
 20
72.0255882985
  0
VERTEX
  8
0
 62
7
  6
CONTINUOUS
 10
158.930238779
 20
72.0584977706
  0
VERTEX
  8
0
 62
7
  6
CONTINUOUS
 10
159.064460048
 20
72.1219114285
  0
VERTEX
  8
0
 62
7
  6
CONTINUOUS
 10
159.1742764217
 20
72.2054846089
  0
VERTEX
  8
0
 62
7
  6
CONTINUOUS
 10
159.2573482132
 20
72.296611259
  0
VERTEX
  8
0
 62
7
  6
CONTINUOUS
 10
159.3190272616
 20
72.3879875206
  0
VERTEX
  8
0
 62
7
  6
CONTINUOUS
 10
159.366795767
 20
72.4792533326
  0
VERTEX
  8
0
 62
7
  6
CONTINUOUS
 10
159.4063237538
 20
72.573308285
  0
VERTEX
  8
0
 62
7
  6
CONTINUOUS
 10
159.441236607
 20
72.674036505
  0
VERTEX
  8
0
 62
7
  6
CONTINUOUS
 10
159.4737447218
 20
72.7855014054
  0
VERTEX
  8
0
 62
7
  6
CONTINUOUS
 10
159.5050933342
 20
72.9113659511
  0
VERTEX
  8
0
 62
7
  6
CONTINUOUS
 10
159.5359898355
 20
73.0550274739
  0
VERTEX
  8
0
 62
7
  6
CONTINUOUS
 10
159.566847487
 20
73.2198500572
  0
VERTEX
  8
0
 62
7
  6
CONTINUOUS
 10
159.5944659464
 20
73.3871151745
  0
SEQEND
  0
POLYLINE
  8
0
 62
7
  6
CONTINUOUS
 66
1
 70
0
  0
VERTEX
  8
0
 62
7
  6
CONTINUOUS
 10
125.1080070957
 20
72.0215383617
  0
VERTEX
  8
0
 62
7
  6
CONTINUOUS
 10
125.1828814945
 20
72.0255882985
  0
VERTEX
  8
0
 62
7
  6
CONTINUOUS
 10
125.330238779
 20
72.0584977706
  0
VERTEX
  8
0
 62
7
  6
CONTINUOUS
 10
125.464460048
 20
72.1219114285
  0
VERTEX
  8
0
 62
7
  6
CONTINUOUS
 10
125.5742764217
 20
72.2054846089
  0
VERTEX
  8
0
 62
7
  6
CONTINUOUS
 10
125.6573482132
 20
72.296611259
  0
VERTEX
  8
0
 62
7
  6
CONTINUOUS
 10
125.7190272616
 20
72.3879875206
  0
VERTEX
  8
0
 62
7
  6
CONTINUOUS
 10
125.766795767
 20
72.4792533326
  0
VERTEX
  8
0
 62
7
  6
CONTINUOUS
 10
125.8063237538
 20
72.573308285
  0
VERTEX
  8
0
 62
7
  6
CONTINUOUS
 10
125.841236607
 20
72.674036505
  0
VERTEX
  8
0
 62
7
  6
CONTINUOUS
 10
125.8737447218
 20
72.7855014054
  0
VERTEX
  8
0
 62
7
  6
CONTINUOUS
 10
125.9050933342
 20
72.9113659511
  0
VERTEX
  8
0
 62
7
  6
CONTINUOUS
 10
125.9359898355
 20
73.0550274739
  0
VERTEX
  8
0
 62
7
  6
CONTINUOUS
 10
125.966847487
 20
73.2198500572
  0
VERTEX
  8
0
 62
7
  6
CONTINUOUS
 10
125.9944659464
 20
73.3871151745
  0
SEQEND
  0
POLYLINE
  8
0
 62
7
  6
CONTINUOUS
 66
1
 70
0
  0
VERTEX
  8
0
 62
7
  6
CONTINUOUS
 10
108.3080070957
 20
72.0215383617
  0
VERTEX
  8
0
 62
7
  6
CONTINUOUS
 10
108.3828814945
 20
72.0255882985
  0
VERTEX
  8
0
 62
7
  6
CONTINUOUS
 10
108.530238779
 20
72.0584977706
  0
VERTEX
  8
0
 62
7
  6
CONTINUOUS
 10
108.664460048
 20
72.1219114285
  0
VERTEX
  8
0
 62
7
  6
CONTINUOUS
 10
108.7742764217
 20
72.2054846089
  0
VERTEX
  8
0
 62
7
  6
CONTINUOUS
 10
108.8573482132
 20
72.296611259
  0
VERTEX
  8
0
 62
7
  6
CONTINUOUS
 10
108.9190272616
 20
72.3879875206
  0
VERTEX
  8
0
 62
7
  6
CONTINUOUS
 10
108.966795767
 20
72.4792533326
  0
VERTEX
  8
0
 62
7
  6
CONTINUOUS
 10
109.0063237538
 20
72.573308285
  0
VERTEX
  8
0
 62
7
  6
CONTINUOUS
 10
109.041236607
 20
72.674036505
  0
VERTEX
  8
0
 62
7
  6
CONTINUOUS
 10
109.0737447218
 20
72.7855014054
  0
VERTEX
  8
0
 62
7
  6
CONTINUOUS
 10
109.1050933342
 20
72.9113659511
  0
VERTEX
  8
0
 62
7
  6
CONTINUOUS
 10
109.1359898355
 20
73.0550274739
  0
VERTEX
  8
0
 62
7
  6
CONTINUOUS
 10
109.166847487
 20
73.2198500572
  0
VERTEX
  8
0
 62
7
  6
CONTINUOUS
 10
109.1944659464
 20
73.3871151745
  0
SEQEND
  0
POLYLINE
  8
0
 62
7
  6
CONTINUOUS
 66
1
 70
0
  0
VERTEX
  8
0
 62
7
  6
CONTINUOUS
 10
91.5080165958
 20
72.0215383507
  0
VERTEX
  8
0
 62
7
  6
CONTINUOUS
 10
91.5753019139
 20
72.0248049623
  0
VERTEX
  8
0
 62
7
  6
CONTINUOUS
 10
91.7259973372
 20
72.0570538863
  0
VERTEX
  8
0
 62
7
  6
CONTINUOUS
 10
91.8665574859
 20
72.1232050044
  0
VERTEX
  8
0
 62
7
  6
CONTINUOUS
 10
91.982911804
 20
72.2136382863
  0
VERTEX
  8
0
 62
7
  6
CONTINUOUS
 10
92.0708598174
 20
72.3145648541
  0
VERTEX
  8
0
 62
7
  6
CONTINUOUS
 10
92.135519359
 20
72.4171210852
  0
VERTEX
  8
0
 62
7
  6
CONTINUOUS
 10
92.1855870914
 20
72.5215797986
  0
VERTEX
  8
0
 62
7
  6
CONTINUOUS
 10
92.2275722096
 20
72.6324283513
  0
VERTEX
  8
0
 62
7
  6
CONTINUOUS
 10
92.265140663
 20
72.7542017828
  0
VERTEX
  8
0
 62
7
  6
CONTINUOUS
 10
92.3001947842
 20
72.8904262446
  0
VERTEX
  8
0
 62
7
  6
CONTINUOUS
 10
92.3337705883
 20
73.0440187993
  0
VERTEX
  8
0
 62
7
  6
CONTINUOUS
 10
92.3662941649
 20
73.2166952644
  0
VERTEX
  8
0
 62
7
  6
CONTINUOUS
 10
92.3944669963
 20
73.3871219099
  0
SEQEND
  0
POLYLINE
  8
0
 62
6
  6
CONTINUOUS
 66
1
 70
0
  0
VERTEX
  8
0
 62
6
  6
CONTINUOUS
 10
224.9285784979
 20
77.6493037978
  0
VERTEX
  8
0
 62
6
  6
CONTINUOUS
 10
225.1156453512
 20
77.6552967408
  0
VERTEX
  8
0
 62
6
  6
CONTINUOUS
 10
225.2956000038
 20
77.6667051676
  0
VERTEX
  8
0
 62
6
  6
CONTINUOUS
 10
225.4622204939
 20
77.6829879931
  0
VERTEX
  8
0
 62
6
  6
CONTINUOUS
 10
225.6098289023
 20
77.7034885755
  0
VERTEX
  8
0
 62
6
  6
CONTINUOUS
 10
225.7334881912
 20
77.7274409504
  0
VERTEX
  8
0
 62
6
  6
CONTINUOUS
 10
225.8291549283
 20
77.7539819364
  0
VERTEX
  8
0
 62
6
  6
CONTINUOUS
 10
225.8937863622
 20
77.7821674703
  0
VERTEX
  8
0
 62
6
  6
CONTINUOUS
 10
225.9253992317
 20
77.8109906556
  0
SEQEND
  0
LINE
  8
0
 62
7
  6
CONTINUOUS
 10
85.4518354889
 20
72.0215382543
 11
91.5081328712
 21
72.0215382543
  0
LINE
  8
0
 62
7
  6
CONTINUOUS
 10
103.99553765
 20
72.0215382543
 11
108.3081258351
 21
72.0215382543
  0
LINE
  8
0
 62
7
  6
CONTINUOUS
 10
120.79553765
 20
72.0215382543
 11
125.1081258351
 21
72.0215382543
  0
LINE
  8
0
 62
7
  6
CONTINUOUS
 10
137.5955385931
 20
72.0215382543
 11
141.908134968
 21
72.0215382543
  0
LINE
  8
0
 62
7
  6
CONTINUOUS
 10
154.39553765
 20
72.0215382543
 11
158.7081258351
 21
72.0215382543
  0
LINE
  8
0
 62
7
  6
CONTINUOUS
 10
171.1955385931
 20
72.0215382543
 11
175.508134968
 21
72.0215382543
  0
LINE
  8
0
 62
7
  6
CONTINUOUS
 10
187.99553765
 20
72.0215382543
 11
192.3081258351
 21
72.0215382543
  0
LINE
  8
0
 62
7
  6
CONTINUOUS
 10
204.79553765
 20
72.0215382543
 11
209.1081258351
 21
72.0215382543
  0
LINE
  8
0
 62
7
  6
CONTINUOUS
 10
221.59553765
 20
72.0215382543
 11
225.908129776
 21
72.0215382543
  0
LINE
  8
0
 62
7
  6
CONTINUOUS
 10
108.3081359109
 20
72.0215382543
 11
108.3080070426
 21
72.0215383314
  0
LINE
  8
0
 62
7
  6
CONTINUOUS
 10
125.1081359109
 20
72.0215382543
 11
125.1080070426
 21
72.0215383314
  0
LINE
  8
0
 62
7
  6
CONTINUOUS
 10
158.7081359109
 20
72.0215382543
 11
158.7080070426
 21
72.0215383314
  0
LINE
  8
0
 62
7
  6
CONTINUOUS
 10
192.3081359109
 20
72.0215382543
 11
192.3080070426
 21
72.0215383314
  0
LINE
  8
0
 62
7
  6
CONTINUOUS
 10
209.1081359109
 20
72.0215382543
 11
209.1080070426
 21
72.0215383314
  0
LINE
  8
0
 62
7
  6
CONTINUOUS
 10
225.9081362863
 20
72.0215382543
 11
225.9080076601
 21
72.0215383314
  0
LINE
  8
0
 62
7
  6
CONTINUOUS
 10
136.5166398803
 20
73.8860202812
 11
136.6973665635
 21
73.4827736486
  0
LINE
  8
0
 62
7
  6
CONTINUOUS
 10
135.6370642422
 20
77.6789202372
 11
135.6370049403
 21
77.6799401488
  0
POLYLINE
  8
0
 62
7
  6
CONTINUOUS
 66
1
 70
0
  0
VERTEX
  8
0
 62
7
  6
CONTINUOUS
 10
135.4597061186
 20
128.0385366137
  0
VERTEX
  8
0
 62
7
  6
CONTINUOUS
 10
135.4636705951
 20
128.3320005995
  0
VERTEX
  8
0
 62
7
  6
CONTINUOUS
 10
135.466112339
 20
128.615012801
  0
VERTEX
  8
0
 62
7
  6
CONTINUOUS
 10
135.4666686236
 20
134.1630743483
  0
SEQEND
  0
POLYLINE
  8
0
 62
7
  6
CONTINUOUS
 66
1
 70
0
  0
VERTEX
  8
0
 62
7
  6
CONTINUOUS
 10
135.6439340595
 20
83.8009110692
  0
VERTEX
  8
0
 62
7
  6
CONTINUOUS
 10
135.6399565043
 20
83.507111972
  0
VERTEX
  8
0
 62
7
  6
CONTINUOUS
 10
135.6375405298
 20
83.2240903115
  0
VERTEX
  8
0
 62
7
  6
CONTINUOUS
 10
135.6370049373
 20
77.6800021603
  0
SEQEND
  0
LINE
  8
0
 62
7
  6
CONTINUOUS
 10
125.9944646943
 20
73.3871071426
 11
126.0103670687
 21
73.4918326876
  0
POLYLINE
  8
0
 62
7
  6
CONTINUOUS
 66
1
 70
0
  0
VERTEX
  8
0
 62
7
  6
CONTINUOUS
 10
145.0973676066
 20
138.3603049861
  0
VERTEX
  8
0
 62
7
  6
CONTINUOUS
 10
144.9175843314
 20
137.9593557644
  0
VERTEX
  8
0
 62
7
  6
CONTINUOUS
 10
144.7425197933
 20
137.4937427235
  0
VERTEX
  8
0
 62
7
  6
CONTINUOUS
 10
144.5837513914
 20
136.9921182431
  0
VERTEX
  8
0
 62
7
  6
CONTINUOUS
 10
144.4410466456
 20
136.4587820409
  0
VERTEX
  8
0
 62
7
  6
CONTINUOUS
 10
144.314358412
 20
135.8983910191
  0
VERTEX
  8
0
 62
7
  6
CONTINUOUS
 10
144.203670881
 20
135.3157802136
  0
VERTEX
  8
0
 62
7
  6
CONTINUOUS
 10
144.1089420297
 20
134.7159552867
  0
VERTEX
  8
0
 62
7
  6
CONTINUOUS
 10
144.0370642159
 20
134.1641621653
  0
SEQEND
  0
POLYLINE
  8
0
 62
7
  6
CONTINUOUS
 66
1
 70
0
  0
VERTEX
  8
0
 62
7
  6
CONTINUOUS
 10
110.2666092975
 20
77.6789244929
  0
VERTEX
  8
0
 62
7
  6
CONTINUOUS
 10
110.2607975971
 20
77.6703275949
  0
VERTEX
  8
0
 62
7
  6
CONTINUOUS
 10
110.2417108442
 20
77.6615342765
  0
VERTEX
  8
0
 62
7
  6
CONTINUOUS
 10
110.2105095971
 20
77.6548058337
  0
VERTEX
  8
0
 62
7
  6
CONTINUOUS
 10
110.1691910512
 20
77.6504861303
  0
VERTEX
  8
0
 62
7
  6
CONTINUOUS
 10
110.1204947051
 20
77.6486972437
  0
VERTEX
  8
0
 62
7
  6
CONTINUOUS
 10
110.0666686236
 20
77.649256931
  0
SEQEND
  0
POLYLINE
  8
0
 62
7
  6
CONTINUOUS
 66
1
 70
0
  0
VERTEX
  8
0
 62
7
  6
CONTINUOUS
 10
219.8370049373
 20
77.649256931
  0
VERTEX
  8
0
 62
7
  6
CONTINUOUS
 10
219.7899762622
 20
77.6486449784
  0
VERTEX
  8
0
 62
7
  6
CONTINUOUS
 10
219.746453922
 20
77.6497839993
  0
VERTEX
  8
0
 62
7
  6
CONTINUOUS
 10
219.7078024739
 20
77.6528689721
  0
VERTEX
  8
0
 62
7
  6
CONTINUOUS
 10
219.6761540507
 20
77.6578861066
  0
VERTEX
  8
0
 62
7
  6
CONTINUOUS
 10
219.653203537
 20
77.6646561225
  0
VERTEX
  8
0
 62
7
  6
CONTINUOUS
 10
219.6400778558
 20
77.6728707963
  0
VERTEX
  8
0
 62
7
  6
CONTINUOUS
 10
219.6370642422
 20
77.6789202372
  0
SEQEND
  0
POLYLINE
  8
0
 62
7
  6
CONTINUOUS
 66
1
 70
0
  0
VERTEX
  8
0
 62
7
  6
CONTINUOUS
 10
203.0370049373
 20
77.649256931
  0
VERTEX
  8
0
 62
7
  6
CONTINUOUS
 10
202.9899762622
 20
77.6486449784
  0
VERTEX
  8
0
 62
7
  6
CONTINUOUS
 10
202.946453922
 20
77.6497839993
  0
VERTEX
  8
0
 62
7
  6
CONTINUOUS
 10
202.9078024739
 20
77.6528689721
  0
VERTEX
  8
0
 62
7
  6
CONTINUOUS
 10
202.8761540507
 20
77.6578861066
  0
VERTEX
  8
0
 62
7
  6
CONTINUOUS
 10
202.853203537
 20
77.6646561225
  0
VERTEX
  8
0
 62
7
  6
CONTINUOUS
 10
202.8400778558
 20
77.6728707963
  0
VERTEX
  8
0
 62
7
  6
CONTINUOUS
 10
202.8370642422
 20
77.6789202372
  0
SEQEND
  0
POLYLINE
  8
0
 62
7
  6
CONTINUOUS
 66
1
 70
0
  0
VERTEX
  8
0
 62
7
  6
CONTINUOUS
 10
186.2370049373
 20
77.649256931
  0
VERTEX
  8
0
 62
7
  6
CONTINUOUS
 10
186.1899762622
 20
77.6486449784
  0
VERTEX
  8
0
 62
7
  6
CONTINUOUS
 10
186.146453922
 20
77.6497839993
  0
VERTEX
  8
0
 62
7
  6
CONTINUOUS
 10
186.1078024739
 20
77.6528689721
  0
VERTEX
  8
0
 62
7
  6
CONTINUOUS
 10
186.0761540507
 20
77.6578861066
  0
VERTEX
  8
0
 62
7
  6
CONTINUOUS
 10
186.053203537
 20
77.6646561225
  0
VERTEX
  8
0
 62
7
  6
CONTINUOUS
 10
186.0400778558
 20
77.6728707963
  0
VERTEX
  8
0
 62
7
  6
CONTINUOUS
 10
186.0370642422
 20
77.6789202372
  0
SEQEND
  0
POLYLINE
  8
0
 62
7
  6
CONTINUOUS
 66
1
 70
0
  0
VERTEX
  8
0
 62
7
  6
CONTINUOUS
 10
169.4370049373
 20
77.649256931
  0
VERTEX
  8
0
 62
7
  6
CONTINUOUS
 10
169.3899762622
 20
77.6486449784
  0
VERTEX
  8
0
 62
7
  6
CONTINUOUS
 10
169.346453922
 20
77.6497839993
  0
VERTEX
  8
0
 62
7
  6
CONTINUOUS
 10
169.3078024739
 20
77.6528689721
  0
VERTEX
  8
0
 62
7
  6
CONTINUOUS
 10
169.2761540507
 20
77.6578861066
  0
VERTEX
  8
0
 62
7
  6
CONTINUOUS
 10
169.253203537
 20
77.6646561225
  0
VERTEX
  8
0
 62
7
  6
CONTINUOUS
 10
169.2400778558
 20
77.6728707963
  0
VERTEX
  8
0
 62
7
  6
CONTINUOUS
 10
169.2370642422
 20
77.6789202372
  0
SEQEND
  0
POLYLINE
  8
0
 62
7
  6
CONTINUOUS
 66
1
 70
0
  0
VERTEX
  8
0
 62
7
  6
CONTINUOUS
 10
152.6370049373
 20
77.649256931
  0
VERTEX
  8
0
 62
7
  6
CONTINUOUS
 10
152.5899762622
 20
77.6486449784
  0
VERTEX
  8
0
 62
7
  6
CONTINUOUS
 10
152.546453922
 20
77.6497839993
  0
VERTEX
  8
0
 62
7
  6
CONTINUOUS
 10
152.5078024739
 20
77.6528689721
  0
VERTEX
  8
0
 62
7
  6
CONTINUOUS
 10
152.4761540507
 20
77.6578861066
  0
VERTEX
  8
0
 62
7
  6
CONTINUOUS
 10
152.453203537
 20
77.6646561225
  0
VERTEX
  8
0
 62
7
  6
CONTINUOUS
 10
152.4400778558
 20
77.6728707963
  0
VERTEX
  8
0
 62
7
  6
CONTINUOUS
 10
152.4370642422
 20
77.6789202372
  0
SEQEND
  0
POLYLINE
  8
0
 62
7
  6
CONTINUOUS
 66
1
 70
0
  0
VERTEX
  8
0
 62
7
  6
CONTINUOUS
 10
135.8370049373
 20
77.649256931
  0
VERTEX
  8
0
 62
7
  6
CONTINUOUS
 10
135.7899762622
 20
77.6486449784
  0
VERTEX
  8
0
 62
7
  6
CONTINUOUS
 10
135.746453922
 20
77.6497839993
  0
VERTEX
  8
0
 62
7
  6
CONTINUOUS
 10
135.7078024739
 20
77.6528689721
  0
VERTEX
  8
0
 62
7
  6
CONTINUOUS
 10
135.6761540507
 20
77.6578861066
  0
VERTEX
  8
0
 62
7
  6
CONTINUOUS
 10
135.653203537
 20
77.6646561225
  0
VERTEX
  8
0
 62
7
  6
CONTINUOUS
 10
135.6400778558
 20
77.6728707963
  0
VERTEX
  8
0
 62
7
  6
CONTINUOUS
 10
135.6370642422
 20
77.6789202372
  0
SEQEND
  0
POLYLINE
  8
0
 62
7
  6
CONTINUOUS
 66
1
 70
0
  0
VERTEX
  8
0
 62
7
  6
CONTINUOUS
 10
119.0370049373
 20
77.649256931
  0
VERTEX
  8
0
 62
7
  6
CONTINUOUS
 10
118.9899762622
 20
77.6486449784
  0
VERTEX
  8
0
 62
7
  6
CONTINUOUS
 10
118.946453922
 20
77.6497839993
  0
VERTEX
  8
0
 62
7
  6
CONTINUOUS
 10
118.9078024739
 20
77.6528689721
  0
VERTEX
  8
0
 62
7
  6
CONTINUOUS
 10
118.8761540507
 20
77.6578861066
  0
VERTEX
  8
0
 62
7
  6
CONTINUOUS
 10
118.853203537
 20
77.6646561225
  0
VERTEX
  8
0
 62
7
  6
CONTINUOUS
 10
118.8400778558
 20
77.6728707963
  0
VERTEX
  8
0
 62
7
  6
CONTINUOUS
 10
118.8370642422
 20
77.6789202372
  0
SEQEND
  0
POLYLINE
  8
0
 62
7
  6
CONTINUOUS
 66
1
 70
0
  0
VERTEX
  8
0
 62
7
  6
CONTINUOUS
 10
102.2370049373
 20
77.649256931
  0
VERTEX
  8
0
 62
7
  6
CONTINUOUS
 10
102.1899762622
 20
77.6486449784
  0
VERTEX
  8
0
 62
7
  6
CONTINUOUS
 10
102.146453922
 20
77.6497839993
  0
VERTEX
  8
0
 62
7
  6
CONTINUOUS
 10
102.1078024739
 20
77.6528689721
  0
VERTEX
  8
0
 62
7
  6
CONTINUOUS
 10
102.0761540507
 20
77.6578861066
  0
VERTEX
  8
0
 62
7
  6
CONTINUOUS
 10
102.053203537
 20
77.6646561225
  0
VERTEX
  8
0
 62
7
  6
CONTINUOUS
 10
102.0400778558
 20
77.6728707963
  0
VERTEX
  8
0
 62
7
  6
CONTINUOUS
 10
102.0370642422
 20
77.6789202372
  0
SEQEND
  0
LINE
  8
0
 62
6
  6
CONTINUOUS
 10
224.9285784979
 20
77.6493037978
 11
224.9229401936
 21
77.6492569328
  0
LINE
  8
0
 62
7
  6
CONTINUOUS
 10
93.2666686236
 20
77.649256931
 11
85.4518367805
 21
77.649256931
  0
LINE
  8
0
 62
7
  6
CONTINUOUS
 10
102.2370049373
 20
77.649256931
 11
110.0666686236
 21
77.649256931
  0
LINE
  8
0
 62
7
  6
CONTINUOUS
 10
119.0370049373
 20
77.649256931
 11
126.8666686236
 21
77.649256931
  0
LINE
  8
0
 62
7
  6
CONTINUOUS
 10
135.8370049373
 20
77.649256931
 11
143.6666686236
 21
77.649256931
  0
LINE
  8
0
 62
7
  6
CONTINUOUS
 10
152.6370049373
 20
77.649256931
 11
160.4666686236
 21
77.649256931
  0
LINE
  8
0
 62
7
  6
CONTINUOUS
 10
169.4370049373
 20
77.649256931
 11
177.2666686236
 21
77.649256931
  0
LINE
  8
0
 62
7
  6
CONTINUOUS
 10
186.2370049373
 20
77.649256931
 11
194.0666686236
 21
77.649256931
  0
LINE
  8
0
 62
7
  6
CONTINUOUS
 10
203.0370049373
 20
77.649256931
 11
210.8666686236
 21
77.649256931
  0
LINE
  8
0
 62
7
  6
CONTINUOUS
 10
219.8370049373
 20
77.649256931
 11
227.6666686236
 21
77.649256931
  0
LINE
  8
0
 62
6
  6
CONTINUOUS
 10
219.8349689537
 20
77.649256931
 11
219.8370049373
 21
77.649256931
  0
LINE
  8
0
 62
6
  6
CONTINUOUS
 10
227.6666686236
 20
77.649256931
 11
227.6687046073
 21
77.649256931
  0
LINE
  8
DEFAULT_1
 62
7
  6
CENTER
 10
83.0518367805
 20
80.5215382543
 11
238.4518367805
 21
80.5215382543
  0
LINE
  8
0
 62
6
  6
CONTINUOUS
 10
222.5750950631
 20
77.6493037978
 11
222.5807333673
 21
77.6492569328
  0
POLYLINE
  8
0
 62
6
  6
CONTINUOUS
 66
1
 70
0
  0
VERTEX
  8
0
 62
6
  6
CONTINUOUS
 10
222.5750950631
 20
77.6493037978
  0
VERTEX
  8
0
 62
6
  6
CONTINUOUS
 10
222.3880282098
 20
77.6552967408
  0
VERTEX
  8
0
 62
6
  6
CONTINUOUS
 10
222.2080735572
 20
77.6667051676
  0
VERTEX
  8
0
 62
6
  6
CONTINUOUS
 10
222.041453067
 20
77.6829879931
  0
VERTEX
  8
0
 62
6
  6
CONTINUOUS
 10
221.8938446586
 20
77.7034885755
  0
VERTEX
  8
0
 62
6
  6
CONTINUOUS
 10
221.7701853698
 20
77.7274409504
  0
VERTEX
  8
0
 62
6
  6
CONTINUOUS
 10
221.6745186326
 20
77.7539819364
  0
VERTEX
  8
0
 62
6
  6
CONTINUOUS
 10
221.6098871988
 20
77.7821674703
  0
VERTEX
  8
0
 62
6
  6
CONTINUOUS
 10
221.5782743292
 20
77.8109906556
  0
SEQEND
  0
POLYLINE
  8
0
 62
7
  6
CONTINUOUS
 66
1
 70
0
  0
VERTEX
  8
0
 62
7
  6
CONTINUOUS
 10
101.6614009938
 20
84.8427297582
  0
VERTEX
  8
0
 62
7
  6
CONTINUOUS
 10
101.6845512106
 20
84.8409953506
  0
VERTEX
  8
0
 62
7
  6
CONTINUOUS
 10
101.7275257754
 20
84.8293915242
  0
VERTEX
  8
0
 62
7
  6
CONTINUOUS
 10
101.7686860718
 20
84.8084852741
  0
VERTEX
  8
0
 62
7
  6
CONTINUOUS
 10
101.8072999535
 20
84.7798685957
  0
VERTEX
  8
0
 62
7
  6
CONTINUOUS
 10
101.8432916413
 20
84.7443071913
  0
VERTEX
  8
0
 62
7
  6
CONTINUOUS
 10
101.8766303106
 20
84.7020642318
  0
VERTEX
  8
0
 62
7
  6
CONTINUOUS
 10
101.9073646403
 20
84.6529005012
  0
VERTEX
  8
0
 62
7
  6
CONTINUOUS
 10
101.9346448276
 20
84.5979066754
  0
VERTEX
  8
0
 62
7
  6
CONTINUOUS
 10
101.9578684553
 20
84.5386902596
  0
VERTEX
  8
0
 62
7
  6
CONTINUOUS
 10
101.977476833
 20
84.4749778144
  0
VERTEX
  8
0
 62
7
  6
CONTINUOUS
 10
101.9941496517
 20
84.4075582366
  0
VERTEX
  8
0
 62
7
  6
CONTINUOUS
 10
102.0080132777
 20
84.3377609747
  0
VERTEX
  8
0
 62
7
  6
CONTINUOUS
 10
102.0193360893
 20
84.2658890985
  0
VERTEX
  8
0
 62
7
  6
CONTINUOUS
 10
102.0283026756
 20
84.1917716623
  0
VERTEX
  8
0
 62
7
  6
CONTINUOUS
 10
102.0350768219
 20
84.1158793797
  0
VERTEX
  8
0
 62
7
  6
CONTINUOUS
 10
102.0398277466
 20
84.0386366102
  0
VERTEX
  8
0
 62
7
  6
CONTINUOUS
 10
102.0427469099
 20
83.9602472678
  0
VERTEX
  8
0
 62
7
  6
CONTINUOUS
 10
102.0440495535
 20
83.880917501
  0
VERTEX
  8
0
 62
7
  6
CONTINUOUS
 10
102.0439340595
 20
83.8009110692
  0
SEQEND
  0
POLYLINE
  8
0
 62
7
  6
CONTINUOUS
 66
1
 70
0
  0
VERTEX
  8
0
 62
7
  6
CONTINUOUS
 10
118.4614009938
 20
84.8427297582
  0
VERTEX
  8
0
 62
7
  6
CONTINUOUS
 10
118.4845512106
 20
84.8409953506
  0
VERTEX
  8
0
 62
7
  6
CONTINUOUS
 10
118.5275257754
 20
84.8293915242
  0
VERTEX
  8
0
 62
7
  6
CONTINUOUS
 10
118.5686860718
 20
84.8084852741
  0
VERTEX
  8
0
 62
7
  6
CONTINUOUS
 10
118.6072999535
 20
84.7798685957
  0
VERTEX
  8
0
 62
7
  6
CONTINUOUS
 10
118.6432916413
 20
84.7443071913
  0
VERTEX
  8
0
 62
7
  6
CONTINUOUS
 10
118.6766303106
 20
84.7020642318
  0
VERTEX
  8
0
 62
7
  6
CONTINUOUS
 10
118.7073646403
 20
84.6529005012
  0
VERTEX
  8
0
 62
7
  6
CONTINUOUS
 10
118.7346448276
 20
84.5979066754
  0
VERTEX
  8
0
 62
7
  6
CONTINUOUS
 10
118.7578684553
 20
84.5386902596
  0
VERTEX
  8
0
 62
7
  6
CONTINUOUS
 10
118.777476833
 20
84.4749778144
  0
VERTEX
  8
0
 62
7
  6
CONTINUOUS
 10
118.7941496517
 20
84.4075582366
  0
VERTEX
  8
0
 62
7
  6
CONTINUOUS
 10
118.8080132777
 20
84.3377609747
  0
VERTEX
  8
0
 62
7
  6
CONTINUOUS
 10
118.8193360893
 20
84.2658890985
  0
VERTEX
  8
0
 62
7
  6
CONTINUOUS
 10
118.8283026756
 20
84.1917716623
  0
VERTEX
  8
0
 62
7
  6
CONTINUOUS
 10
118.8350768219
 20
84.1158793797
  0
VERTEX
  8
0
 62
7
  6
CONTINUOUS
 10
118.8398277466
 20
84.0386366102
  0
VERTEX
  8
0
 62
7
  6
CONTINUOUS
 10
118.8427469099
 20
83.9602472678
  0
VERTEX
  8
0
 62
7
  6
CONTINUOUS
 10
118.8440495535
 20
83.880917501
  0
VERTEX
  8
0
 62
7
  6
CONTINUOUS
 10
118.8439340595
 20
83.8009110692
  0
SEQEND
  0
LINE
  8
0
 62
7
  6
CONTINUOUS
 10
117.7860892295
 20
137.9593557644
 11
117.6063059543
 21
138.3603049861
  0
POLYLINE
  8
0
 62
7
  6
CONTINUOUS
 66
1
 70
0
  0
VERTEX
  8
0
 62
7
  6
CONTINUOUS
 10
136.7092076059
 20
73.3871152301
  0
VERTEX
  8
0
 62
7
  6
CONTINUOUS
 10
136.7368694176
 20
73.2196026609
  0
VERTEX
  8
0
 62
7
  6
CONTINUOUS
 10
136.7677742155
 20
73.0545764428
  0
VERTEX
  8
0
 62
7
  6
CONTINUOUS
 10
136.798723002
 20
72.9107487415
  0
VERTEX
  8
0
 62
7
  6
CONTINUOUS
 10
136.8301321893
 20
72.7847461184
  0
VERTEX
  8
0
 62
7
  6
CONTINUOUS
 10
136.8627153303
 20
72.6731592793
  0
VERTEX
  8
0
 62
7
  6
CONTINUOUS
 10
136.8977303391
 20
72.5723079605
  0
VERTEX
  8
0
 62
7
  6
CONTINUOUS
 10
136.9374138374
 20
72.478104494
  0
VERTEX
  8
0
 62
7
  6
CONTINUOUS
 10
136.9854409552
 20
72.3866405682
  0
VERTEX
  8
0
 62
7
  6
CONTINUOUS
 10
137.047550606
 20
72.2950333455
  0
VERTEX
  8
0
 62
7
  6
CONTINUOUS
 10
137.1312795308
 20
72.2037424779
  0
VERTEX
  8
0
 62
7
  6
CONTINUOUS
 10
137.241924942
 20
72.1202545703
  0
VERTEX
  8
0
 62
7
  6
CONTINUOUS
 10
137.3769146075
 20
72.0573108469
  0
VERTEX
  8
0
 62
7
  6
CONTINUOUS
 10
137.5247493967
 20
72.025168691
  0
VERTEX
  8
0
 62
7
  6
CONTINUOUS
 10
137.5948487777
 20
72.0215386881
  0
SEQEND
  0
LINE
  8
0
 62
7
  6
CONTINUOUS
 10
136.6933064923
 20
73.4918326873
 11
136.7092088667
 21
73.3871071426
  0
POLYLINE
  8
0
 62
7
  6
CONTINUOUS
 66
1
 70
0
  0
VERTEX
  8
0
 62
7
  6
CONTINUOUS
 10
135.6370642126
 20
77.6789143715
  0
VERTEX
  8
0
 62
7
  6
CONTINUOUS
 10
135.7084414676
 20
77.1306229891
  0
VERTEX
  8
0
 62
7
  6
CONTINUOUS
 10
135.803090929
 20
76.5306415737
  0
VERTEX
  8
0
 62
7
  6
CONTINUOUS
 10
135.9137015339
 20
75.9478546092
  0
VERTEX
  8
0
 62
7
  6
CONTINUOUS
 10
136.04031542
 20
75.3872689429
  0
VERTEX
  8
0
 62
7
  6
CONTINUOUS
 10
136.1829481744
 20
74.8537212646
  0
VERTEX
  8
0
 62
7
  6
CONTINUOUS
 10
136.3416460987
 20
74.3518708865
  0
VERTEX
  8
0
 62
7
  6
CONTINUOUS
 10
136.5166398803
 20
73.8860202812
  0
SEQEND
  0
LINE
  8
0
 62
7
  6
CONTINUOUS
 10
135.4666093154
 20
134.1641562996
 11
135.4666686207
 21
134.1631363598
  0
LINE
  8
0
 62
7
  6
CONTINUOUS
 10
144.0370642455
 20
134.1641562996
 11
144.0370049403
 21
134.1631363598
  0
LINE
  8
0
 62
7
  6
CONTINUOUS
 10
145.1092090023
 20
138.4559702359
 11
145.0933042178
 21
138.3512428939
  0
POLYLINE
  8
0
 62
7
  6
CONTINUOUS
 66
1
 70
0
  0
VERTEX
  8
0
 62
7
  6
CONTINUOUS
 10
126.0063069975
 20
73.4827736486
  0
VERTEX
  8
0
 62
7
  6
CONTINUOUS
 10
126.1870337246
 20
73.8860203881
  0
VERTEX
  8
0
 62
7
  6
CONTINUOUS
 10
126.3620275424
 20
74.3518711193
  0
VERTEX
  8
0
 62
7
  6
CONTINUOUS
 10
126.5207254954
 20
74.8537216394
  0
VERTEX
  8
0
 62
7
  6
CONTINUOUS
 10
126.6633582711
 20
75.3872694728
  0
VERTEX
  8
0
 62
7
  6
CONTINUOUS
 10
126.789972171
 20
75.9478553037
  0
VERTEX
  8
0
 62
7
  6
CONTINUOUS
 10
126.9005827818
 20
76.5306424386
  0
VERTEX
  8
0
 62
7
  6
CONTINUOUS
 10
126.9952322416
 20
77.130624027
  0
VERTEX
  8
0
 62
7
  6
CONTINUOUS
 10
127.0666093484
 20
77.6789143715
  0
SEQEND
  0
LINE
  8
0
 62
7
  6
CONTINUOUS
 10
236.0518367805
 20
84.8429278391
 11
228.2420997905
 21
84.8427294372
  0
LINE
  8
0
 62
7
  6
CONTINUOUS
 10
219.1824690478
 20
84.8429278391
 11
211.4420997905
 21
84.8427294372
  0
LINE
  8
0
 62
7
  6
CONTINUOUS
 10
202.3824690478
 20
84.8429278391
 11
194.6420997905
 21
84.8427294372
  0
LINE
  8
0
 62
7
  6
CONTINUOUS
 10
185.5824690478
 20
84.8429278391
 11
177.8420997905
 21
84.8427294372
  0
LINE
  8
0
 62
7
  6
CONTINUOUS
 10
168.7824690478
 20
84.8429278391
 11
161.0420997905
 21
84.8427294372
  0
LINE
  8
0
 62
7
  6
CONTINUOUS
 10
151.9824690478
 20
84.8429278391
 11
144.2420997905
 21
84.8427294372
  0
LINE
  8
0
 62
7
  6
CONTINUOUS
 10
135.1824690478
 20
84.8429278391
 11
127.4420997905
 21
84.8427294372
  0
LINE
  8
0
 62
7
  6
CONTINUOUS
 10
118.3824690478
 20
84.8429278391
 11
110.6420997905
 21
84.8427294372
  0
LINE
  8
0
 62
7
  6
CONTINUOUS
 10
101.5824690478
 20
84.8429278391
 11
93.8420997905
 21
84.8427294372
  0
LINE
  8
0
 62
7
  6
CONTINUOUS
 10
101.6614010523
 20
84.8426995846
 11
101.5824684988
 21
84.8429731026
  0
LINE
  8
0
 62
7
  6
CONTINUOUS
 10
118.4614010523
 20
84.8426995846
 11
118.3824684988
 21
84.8429731026
  0
LINE
  8
0
 62
7
  6
CONTINUOUS
 10
135.2614010523
 20
84.8426995846
 11
135.1824684988
 21
84.8429731026
  0
LINE
  8
0
 62
7
  6
CONTINUOUS
 10
152.0614010523
 20
84.8426995846
 11
151.9824684988
 21
84.8429731026
  0
LINE
  8
0
 62
7
  6
CONTINUOUS
 10
168.8614010523
 20
84.8426995846
 11
168.7824684988
 21
84.8429731026
  0
LINE
  8
0
 62
7
  6
CONTINUOUS
 10
101.6625796314
 20
85.0926516053
 11
101.5824689694
 21
85.0929278391
  0
LINE
  8
0
 62
7
  6
CONTINUOUS
 10
185.6614010523
 20
84.8426995846
 11
185.5824684988
 21
84.8429731026
  0
LINE
  8
0
 62
7
  6
CONTINUOUS
 10
118.4625796314
 20
85.0926516053
 11
118.3824689694
 21
85.0929278391
  0
LINE
  8
0
 62
7
  6
CONTINUOUS
 10
202.4614010523
 20
84.8426995846
 11
202.3824684988
 21
84.8429731026
  0
LINE
  8
0
 62
7
  6
CONTINUOUS
 10
135.2625796314
 20
85.0926516053
 11
135.1824689694
 21
85.0929278391
  0
LINE
  8
0
 62
7
  6
CONTINUOUS
 10
219.2614010523
 20
84.8426995846
 11
219.1824684988
 21
84.8429731026
  0
LINE
  8
0
 62
7
  6
CONTINUOUS
 10
152.0625796314
 20
85.0926516053
 11
151.9824689694
 21
85.0929278391
  0
LINE
  8
0
 62
7
  6
CONTINUOUS
 10
168.8625796314
 20
85.0926516053
 11
168.7824689694
 21
85.0929278391
  0
LINE
  8
0
 62
7
  6
CONTINUOUS
 10
185.6625796314
 20
85.0926516053
 11
185.5824689694
 21
85.0929278391
  0
LINE
  8
0
 62
7
  6
CONTINUOUS
 10
202.4625796314
 20
85.0926516053
 11
202.3824689694
 21
85.0929278391
  0
LINE
  8
0
 62
7
  6
CONTINUOUS
 10
219.2625796314
 20
85.0926516053
 11
219.1824689694
 21
85.0929278391
  0
LINE
  8
0
 62
6
  6
CONTINUOUS
 10
219.2625796058
 20
84.9655775191
 11
219.1824690136
 21
84.9658473539
  0
POLYLINE
  8
0
 62
7
  6
CONTINUOUS
 66
1
 70
0
  0
VERTEX
  8
0
 62
7
  6
CONTINUOUS
 10
135.2614009938
 20
84.8427297582
  0
VERTEX
  8
0
 62
7
  6
CONTINUOUS
 10
135.2845512106
 20
84.8409953506
  0
VERTEX
  8
0
 62
7
  6
CONTINUOUS
 10
135.3275257754
 20
84.8293915242
  0
VERTEX
  8
0
 62
7
  6
CONTINUOUS
 10
135.3686860718
 20
84.8084852741
  0
VERTEX
  8
0
 62
7
  6
CONTINUOUS
 10
135.4072999535
 20
84.7798685957
  0
VERTEX
  8
0
 62
7
  6
CONTINUOUS
 10
135.4432916413
 20
84.7443071913
  0
VERTEX
  8
0
 62
7
  6
CONTINUOUS
 10
135.4766303106
 20
84.7020642318
  0
VERTEX
  8
0
 62
7
  6
CONTINUOUS
 10
135.5073646403
 20
84.6529005012
  0
VERTEX
  8
0
 62
7
  6
CONTINUOUS
 10
135.5346448276
 20
84.5979066754
  0
VERTEX
  8
0
 62
7
  6
CONTINUOUS
 10
135.5578684553
 20
84.5386902596
  0
VERTEX
  8
0
 62
7
  6
CONTINUOUS
 10
135.577476833
 20
84.4749778144
  0
VERTEX
  8
0
 62
7
  6
CONTINUOUS
 10
135.5941496517
 20
84.4075582366
  0
VERTEX
  8
0
 62
7
  6
CONTINUOUS
 10
135.6080132777
 20
84.3377609747
  0
VERTEX
  8
0
 62
7
  6
CONTINUOUS
 10
135.6193360893
 20
84.2658890985
  0
VERTEX
  8
0
 62
7
  6
CONTINUOUS
 10
135.6283026756
 20
84.1917716623
  0
VERTEX
  8
0
 62
7
  6
CONTINUOUS
 10
135.6350768219
 20
84.1158793797
  0
VERTEX
  8
0
 62
7
  6
CONTINUOUS
 10
135.6398277466
 20
84.0386366102
  0
VERTEX
  8
0
 62
7
  6
CONTINUOUS
 10
135.6427469099
 20
83.9602472678
  0
VERTEX
  8
0
 62
7
  6
CONTINUOUS
 10
135.6440495535
 20
83.880917501
  0
VERTEX
  8
0
 62
7
  6
CONTINUOUS
 10
135.6439340595
 20
83.8009110692
  0
SEQEND
  0
POLYLINE
  8
0
 62
7
  6
CONTINUOUS
 66
1
 70
0
  0
VERTEX
  8
0
 62
7
  6
CONTINUOUS
 10
152.0614009938
 20
84.8427297582
  0
VERTEX
  8
0
 62
7
  6
CONTINUOUS
 10
152.0845512106
 20
84.8409953506
  0
VERTEX
  8
0
 62
7
  6
CONTINUOUS
 10
152.1275257754
 20
84.8293915242
  0
VERTEX
  8
0
 62
7
  6
CONTINUOUS
 10
152.1686860718
 20
84.8084852741
  0
VERTEX
  8
0
 62
7
  6
CONTINUOUS
 10
152.2072999535
 20
84.7798685957
  0
VERTEX
  8
0
 62
7
  6
CONTINUOUS
 10
152.2432916413
 20
84.7443071913
  0
VERTEX
  8
0
 62
7
  6
CONTINUOUS
 10
152.2766303106
 20
84.7020642318
  0
VERTEX
  8
0
 62
7
  6
CONTINUOUS
 10
152.3073646403
 20
84.6529005012
  0
VERTEX
  8
0
 62
7
  6
CONTINUOUS
 10
152.3346448276
 20
84.5979066754
  0
VERTEX
  8
0
 62
7
  6
CONTINUOUS
 10
152.3578684553
 20
84.5386902596
  0
VERTEX
  8
0
 62
7
  6
CONTINUOUS
 10
152.377476833
 20
84.4749778144
  0
VERTEX
  8
0
 62
7
  6
CONTINUOUS
 10
152.3941496517
 20
84.4075582366
  0
VERTEX
  8
0
 62
7
  6
CONTINUOUS
 10
152.4080132777
 20
84.3377609747
  0
VERTEX
  8
0
 62
7
  6
CONTINUOUS
 10
152.4193360893
 20
84.2658890985
  0
VERTEX
  8
0
 62
7
  6
CONTINUOUS
 10
152.4283026756
 20
84.1917716623
  0
VERTEX
  8
0
 62
7
  6
CONTINUOUS
 10
152.4350768219
 20
84.1158793797
  0
VERTEX
  8
0
 62
7
  6
CONTINUOUS
 10
152.4398277466
 20
84.0386366102
  0
VERTEX
  8
0
 62
7
  6
CONTINUOUS
 10
152.4427469099
 20
83.9602472678
  0
VERTEX
  8
0
 62
7
  6
CONTINUOUS
 10
152.4440495535
 20
83.880917501
  0
VERTEX
  8
0
 62
7
  6
CONTINUOUS
 10
152.4439340595
 20
83.8009110692
  0
SEQEND
  0
POLYLINE
  8
0
 62
7
  6
CONTINUOUS
 66
1
 70
0
  0
VERTEX
  8
0
 62
7
  6
CONTINUOUS
 10
168.8614009938
 20
84.8427297582
  0
VERTEX
  8
0
 62
7
  6
CONTINUOUS
 10
168.8845512106
 20
84.8409953506
  0
VERTEX
  8
0
 62
7
  6
CONTINUOUS
 10
168.9275257754
 20
84.8293915242
  0
VERTEX
  8
0
 62
7
  6
CONTINUOUS
 10
168.9686860718
 20
84.8084852741
  0
VERTEX
  8
0
 62
7
  6
CONTINUOUS
 10
169.0072999535
 20
84.7798685957
  0
VERTEX
  8
0
 62
7
  6
CONTINUOUS
 10
169.0432916413
 20
84.7443071913
  0
VERTEX
  8
0
 62
7
  6
CONTINUOUS
 10
169.0766303106
 20
84.7020642318
  0
VERTEX
  8
0
 62
7
  6
CONTINUOUS
 10
169.1073646403
 20
84.6529005012
  0
VERTEX
  8
0
 62
7
  6
CONTINUOUS
 10
169.1346448276
 20
84.5979066754
  0
VERTEX
  8
0
 62
7
  6
CONTINUOUS
 10
169.1578684553
 20
84.5386902596
  0
VERTEX
  8
0
 62
7
  6
CONTINUOUS
 10
169.177476833
 20
84.4749778144
  0
VERTEX
  8
0
 62
7
  6
CONTINUOUS
 10
169.1941496517
 20
84.4075582366
  0
VERTEX
  8
0
 62
7
  6
CONTINUOUS
 10
169.2080132777
 20
84.3377609747
  0
VERTEX
  8
0
 62
7
  6
CONTINUOUS
 10
169.2193360893
 20
84.2658890985
  0
VERTEX
  8
0
 62
7
  6
CONTINUOUS
 10
169.2283026756
 20
84.1917716623
  0
VERTEX
  8
0
 62
7
  6
CONTINUOUS
 10
169.2350768219
 20
84.1158793797
  0
VERTEX
  8
0
 62
7
  6
CONTINUOUS
 10
169.2398277466
 20
84.0386366102
  0
VERTEX
  8
0
 62
7
  6
CONTINUOUS
 10
169.2427469099
 20
83.9602472678
  0
VERTEX
  8
0
 62
7
  6
CONTINUOUS
 10
169.2440495535
 20
83.880917501
  0
VERTEX
  8
0
 62
7
  6
CONTINUOUS
 10
169.2439340595
 20
83.8009110692
  0
SEQEND
  0
POLYLINE
  8
0
 62
7
  6
CONTINUOUS
 66
1
 70
0
  0
VERTEX
  8
0
 62
7
  6
CONTINUOUS
 10
185.6614009938
 20
84.8427297582
  0
VERTEX
  8
0
 62
7
  6
CONTINUOUS
 10
185.6845512106
 20
84.8409953506
  0
VERTEX
  8
0
 62
7
  6
CONTINUOUS
 10
185.7275257754
 20
84.8293915242
  0
VERTEX
  8
0
 62
7
  6
CONTINUOUS
 10
185.7686860718
 20
84.8084852741
  0
VERTEX
  8
0
 62
7
  6
CONTINUOUS
 10
185.8072999535
 20
84.7798685957
  0
VERTEX
  8
0
 62
7
  6
CONTINUOUS
 10
185.8432916413
 20
84.7443071913
  0
VERTEX
  8
0
 62
7
  6
CONTINUOUS
 10
185.8766303106
 20
84.7020642318
  0
VERTEX
  8
0
 62
7
  6
CONTINUOUS
 10
185.9073646403
 20
84.6529005012
  0
VERTEX
  8
0
 62
7
  6
CONTINUOUS
 10
185.9346448276
 20
84.5979066754
  0
VERTEX
  8
0
 62
7
  6
CONTINUOUS
 10
185.9578684553
 20
84.5386902596
  0
VERTEX
  8
0
 62
7
  6
CONTINUOUS
 10
185.977476833
 20
84.4749778144
  0
VERTEX
  8
0
 62
7
  6
CONTINUOUS
 10
185.9941496517
 20
84.4075582366
  0
VERTEX
  8
0
 62
7
  6
CONTINUOUS
 10
186.0080132777
 20
84.3377609747
  0
VERTEX
  8
0
 62
7
  6
CONTINUOUS
 10
186.0193360893
 20
84.2658890985
  0
VERTEX
  8
0
 62
7
  6
CONTINUOUS
 10
186.0283026756
 20
84.1917716623
  0
VERTEX
  8
0
 62
7
  6
CONTINUOUS
 10
186.0350768219
 20
84.1158793797
  0
VERTEX
  8
0
 62
7
  6
CONTINUOUS
 10
186.0398277466
 20
84.0386366102
  0
VERTEX
  8
0
 62
7
  6
CONTINUOUS
 10
186.0427469099
 20
83.9602472678
  0
VERTEX
  8
0
 62
7
  6
CONTINUOUS
 10
186.0440495535
 20
83.880917501
  0
VERTEX
  8
0
 62
7
  6
CONTINUOUS
 10
186.0439340595
 20
83.8009110692
  0
SEQEND
  0
POLYLINE
  8
0
 62
7
  6
CONTINUOUS
 66
1
 70
0
  0
VERTEX
  8
0
 62
7
  6
CONTINUOUS
 10
202.4614009938
 20
84.8427297582
  0
VERTEX
  8
0
 62
7
  6
CONTINUOUS
 10
202.4845512106
 20
84.8409953506
  0
VERTEX
  8
0
 62
7
  6
CONTINUOUS
 10
202.5275257754
 20
84.8293915242
  0
VERTEX
  8
0
 62
7
  6
CONTINUOUS
 10
202.5686860718
 20
84.8084852741
  0
VERTEX
  8
0
 62
7
  6
CONTINUOUS
 10
202.6072999535
 20
84.7798685957
  0
VERTEX
  8
0
 62
7
  6
CONTINUOUS
 10
202.6432916413
 20
84.7443071913
  0
VERTEX
  8
0
 62
7
  6
CONTINUOUS
 10
202.6766303106
 20
84.7020642318
  0
VERTEX
  8
0
 62
7
  6
CONTINUOUS
 10
202.7073646403
 20
84.6529005012
  0
VERTEX
  8
0
 62
7
  6
CONTINUOUS
 10
202.7346448276
 20
84.5979066754
  0
VERTEX
  8
0
 62
7
  6
CONTINUOUS
 10
202.7578684553
 20
84.5386902596
  0
VERTEX
  8
0
 62
7
  6
CONTINUOUS
 10
202.777476833
 20
84.4749778144
  0
VERTEX
  8
0
 62
7
  6
CONTINUOUS
 10
202.7941496517
 20
84.4075582366
  0
VERTEX
  8
0
 62
7
  6
CONTINUOUS
 10
202.8080132777
 20
84.3377609747
  0
VERTEX
  8
0
 62
7
  6
CONTINUOUS
 10
202.8193360893
 20
84.2658890985
  0
VERTEX
  8
0
 62
7
  6
CONTINUOUS
 10
202.8283026756
 20
84.1917716623
  0
VERTEX
  8
0
 62
7
  6
CONTINUOUS
 10
202.8350768219
 20
84.1158793797
  0
VERTEX
  8
0
 62
7
  6
CONTINUOUS
 10
202.8398277466
 20
84.0386366102
  0
VERTEX
  8
0
 62
7
  6
CONTINUOUS
 10
202.8427469099
 20
83.9602472678
  0
VERTEX
  8
0
 62
7
  6
CONTINUOUS
 10
202.8440495535
 20
83.880917501
  0
VERTEX
  8
0
 62
7
  6
CONTINUOUS
 10
202.8439340595
 20
83.8009110692
  0
SEQEND
  0
LINE
  8
0
 62
7
  6
CONTINUOUS
 10
153.3166398803
 20
73.8860202812
 11
153.4973665635
 21
73.4827736486
  0
POLYLINE
  8
0
 62
7
  6
CONTINUOUS
 66
1
 70
0
  0
VERTEX
  8
0
 62
7
  6
CONTINUOUS
 10
134.3944658378
 20
138.4559620306
  0
VERTEX
  8
0
 62
7
  6
CONTINUOUS
 10
134.3665791921
 20
138.624757084
  0
VERTEX
  8
0
 62
7
  6
CONTINUOUS
 10
134.3357352907
 20
138.7893173003
  0
VERTEX
  8
0
 62
7
  6
CONTINUOUS
 10
134.3048515399
 20
138.9327555769
  0
VERTEX
  8
0
 62
7
  6
CONTINUOUS
 10
134.2735134933
 20
139.0584338774
  0
VERTEX
  8
0
 62
7
  6
CONTINUOUS
 10
134.241012108
 20
139.1697475477
  0
VERTEX
  8
0
 62
7
  6
CONTINUOUS
 10
134.2060998051
 20
139.2703571692
  0
VERTEX
  8
0
 62
7
  6
CONTINUOUS
 10
134.1665631779
 20
139.3643220403
  0
VERTEX
  8
0
 62
7
  6
CONTINUOUS
 10
134.1187745867
 20
139.4555178213
  0
VERTEX
  8
0
 62
7
  6
CONTINUOUS
 10
134.0570655434
 20
139.5468299977
  0
VERTEX
  8
0
 62
7
  6
CONTINUOUS
 10
133.9739684761
 20
139.6378777516
  0
VERTEX
  8
0
 62
7
  6
CONTINUOUS
 10
133.864163211
 20
139.7213473107
  0
VERTEX
  8
0
 62
7
  6
CONTINUOUS
 10
133.7300094289
 20
139.7846576179
  0
VERTEX
  8
0
 62
7
  6
CONTINUOUS
 10
133.5827631736
 20
139.8175010933
  0
VERTEX
  8
0
 62
7
  6
CONTINUOUS
 10
133.5080074679
 20
139.8215381473
  0
SEQEND
  0
LINE
  8
0
 62
7
  6
CONTINUOUS
 10
134.4103693432
 20
138.3512428939
 11
134.3944645587
 21
138.4559702359
  0
POLYLINE
  8
0
 62
7
  6
CONTINUOUS
 66
1
 70
0
  0
VERTEX
  8
0
 62
7
  6
CONTINUOUS
 10
135.466609345
 20
134.1641621653
  0
VERTEX
  8
0
 62
7
  6
CONTINUOUS
 10
135.3947315313
 20
134.7159552867
  0
VERTEX
  8
0
 62
7
  6
CONTINUOUS
 10
135.30000268
 20
135.3157802136
  0
VERTEX
  8
0
 62
7
  6
CONTINUOUS
 10
135.1893151489
 20
135.8983910191
  0
VERTEX
  8
0
 62
7
  6
CONTINUOUS
 10
135.0626269154
 20
136.4587820409
  0
VERTEX
  8
0
 62
7
  6
CONTINUOUS
 10
134.9199221696
 20
136.9921182431
  0
VERTEX
  8
0
 62
7
  6
CONTINUOUS
 10
134.7611537677
 20
137.4937427235
  0
VERTEX
  8
0
 62
7
  6
CONTINUOUS
 10
134.5860892295
 20
137.9593557644
  0
SEQEND
  0
POLYLINE
  8
0
 62
7
  6
CONTINUOUS
 66
1
 70
0
  0
VERTEX
  8
0
 62
7
  6
CONTINUOUS
 10
144.0399565041
 20
128.335964486
  0
VERTEX
  8
0
 62
7
  6
CONTINUOUS
 10
144.043929481
 20
128.0426423671
  0
VERTEX
  8
0
 62
7
  6
CONTINUOUS
 10
144.0440558045
 20
127.963048824
  0
VERTEX
  8
0
 62
7
  6
CONTINUOUS
 10
144.0427771251
 20
127.8839861628
  0
VERTEX
  8
0
 62
7
  6
CONTINUOUS
 10
144.0398906482
 20
127.8057344386
  0
VERTEX
  8
0
 62
7
  6
CONTINUOUS
 10
144.0351752462
 20
127.7285161946
  0
VERTEX
  8
0
 62
7
  6
CONTINUOUS
 10
144.0284323257
 20
127.6525511457
  0
VERTEX
  8
0
 62
7
  6
CONTINUOUS
 10
144.0194859795
 20
127.578272001
  0
VERTEX
  8
0
 62
7
  6
CONTINUOUS
 10
144.0081664623
 20
127.5061870027
  0
VERTEX
  8
0
 62
7
  6
CONTINUOUS
 10
143.9942750631
 20
127.4360823338
  0
VERTEX
  8
0
 62
7
  6
CONTINUOUS
 10
143.9775751872
 20
127.3684321817
  0
VERTEX
  8
0
 62
7
  6
CONTINUOUS
 10
143.9578606453
 20
127.3043639974
  0
VERTEX
  8
0
 62
7
  6
CONTINUOUS
 10
143.9345139677
 20
127.2448741723
  0
VERTEX
  8
0
 62
7
  6
CONTINUOUS
 10
143.9070455446
 20
127.1896052235
  0
VERTEX
  8
0
 62
7
  6
CONTINUOUS
 10
143.876030668
 20
127.1401606942
  0
VERTEX
  8
0
 62
7
  6
CONTINUOUS
 10
143.842587982
 20
127.0979817213
  0
VERTEX
  8
0
 62
7
  6
CONTINUOUS
 10
143.8067180907
 20
127.0627074295
  0
VERTEX
  8
0
 62
7
  6
CONTINUOUS
 10
143.7683979153
 20
127.034411618
  0
VERTEX
  8
0
 62
7
  6
CONTINUOUS
 10
143.7275669148
 20
127.0137015124
  0
VERTEX
  8
0
 62
7
  6
CONTINUOUS
 10
143.6847700921
 20
127.0021132504
  0
VERTEX
  8
0
 62
7
  6
CONTINUOUS
 10
143.6614002938
 20
127.0003467402
  0
SEQEND
  0
POLYLINE
  8
0
 62
7
  6
CONTINUOUS
 66
1
 70
0
  0
VERTEX
  8
0
 62
7
  6
CONTINUOUS
 10
143.8636701921
 20
83.5110797526
  0
VERTEX
  8
0
 62
7
  6
CONTINUOUS
 10
143.8597004712
 20
83.8051115236
  0
VERTEX
  8
0
 62
7
  6
CONTINUOUS
 10
143.8596538047
 20
83.8849806966
  0
VERTEX
  8
0
 62
7
  6
CONTINUOUS
 10
143.8610305694
 20
83.9641561598
  0
VERTEX
  8
0
 62
7
  6
CONTINUOUS
 10
143.8640296788
 20
84.0423781336
  0
VERTEX
  8
0
 62
7
  6
CONTINUOUS
 10
143.8688652486
 20
84.1194492531
  0
VERTEX
  8
0
 62
7
  6
CONTINUOUS
 10
143.8757263784
 20
84.1951624257
  0
VERTEX
  8
0
 62
7
  6
CONTINUOUS
 10
143.8847822768
 20
84.2690896945
  0
VERTEX
  8
0
 62
7
  6
CONTINUOUS
 10
143.8961979326
 20
84.3407848708
  0
VERTEX
  8
0
 62
7
  6
CONTINUOUS
 10
143.9101539086
 20
84.4103838929
  0
VERTEX
  8
0
 62
7
  6
CONTINUOUS
 10
143.9269216632
 20
84.4776194789
  0
VERTEX
  8
0
 62
7
  6
CONTINUOUS
 10
143.9466238151
 20
84.5410485199
  0
VERTEX
  8
0
 62
7
  6
CONTINUOUS
 10
143.9699752131
 20
84.6000434123
  0
VERTEX
  8
0
 62
7
  6
CONTINUOUS
 10
143.9973780967
 20
84.6548134173
  0
VERTEX
  8
0
 62
7
  6
CONTINUOUS
 10
144.0282272304
 20
84.7037446847
  0
VERTEX
  8
0
 62
7
  6
CONTINUOUS
 10
144.0616912334
 20
84.7457710475
  0
VERTEX
  8
0
 62
7
  6
CONTINUOUS
 10
144.0978264353
 20
84.7811147222
  0
VERTEX
  8
0
 62
7
  6
CONTINUOUS
 10
144.136589677
 20
84.8094798656
  0
VERTEX
  8
0
 62
7
  6
CONTINUOUS
 10
144.1778632767
 20
84.8300561633
  0
VERTEX
  8
0
 62
7
  6
CONTINUOUS
 10
144.2208606128
 20
84.8412391904
  0
VERTEX
  8
0
 62
7
  6
CONTINUOUS
 10
144.242099516
 20
84.8427292027
  0
SEQEND
  0
LINE
  8
0
 62
7
  6
CONTINUOUS
 10
143.8661122467
 20
83.2280655836
 11
143.8636701921
 21
83.5110797526
  0
LINE
  8
0
 62
7
  6
CONTINUOUS
 10
144.0375405297
 20
128.6189862227
 11
144.0399565041
 21
128.335964486
  0
LINE
  8
0
 62
7
  6
CONTINUOUS
 10
143.8661122467
 20
83.2280655836
 11
143.8666686236
 21
77.679964643
  0
LINE
  8
0
 62
7
  6
CONTINUOUS
 10
144.0370049373
 20
134.1630743483
 11
144.0375405297
 21
128.6189862227
  0
LINE
  8
0
 62
2
  6
CONTINUOUS
 10
148.2518367805
 20
65.9215382543
 11
148.2518367805
 21
105.9215382543
  0
LINE
  8
0
 62
7
  6
CONTINUOUS
 10
143.8666686236
 20
77.67993253
 11
143.8666092975
 21
77.6789244929
  0
LINE
  8
0
 62
7
  6
CONTINUOUS
 10
142.7944646943
 20
73.3871071426
 11
142.8103670687
 21
73.4918326876
  0
POLYLINE
  8
0
 62
7
  6
CONTINUOUS
 66
1
 70
0
  0
VERTEX
  8
0
 62
7
  6
CONTINUOUS
 10
161.8973676066
 20
138.3603049861
  0
VERTEX
  8
0
 62
7
  6
CONTINUOUS
 10
161.7175843314
 20
137.9593557644
  0
VERTEX
  8
0
 62
7
  6
CONTINUOUS
 10
161.5425197933
 20
137.4937427235
  0
VERTEX
  8
0
 62
7
  6
CONTINUOUS
 10
161.3837513914
 20
136.9921182431
  0
VERTEX
  8
0
 62
7
  6
CONTINUOUS
 10
161.2410466456
 20
136.4587820409
  0
VERTEX
  8
0
 62
7
  6
CONTINUOUS
 10
161.114358412
 20
135.8983910191
  0
VERTEX
  8
0
 62
7
  6
CONTINUOUS
 10
161.003670881
 20
135.3157802136
  0
VERTEX
  8
0
 62
7
  6
CONTINUOUS
 10
160.9089420297
 20
134.7159552867
  0
VERTEX
  8
0
 62
7
  6
CONTINUOUS
 10
160.8370642159
 20
134.1641621653
  0
SEQEND
  0
POLYLINE
  8
0
 62
7
  6
CONTINUOUS
 66
1
 70
0
  0
VERTEX
  8
0
 62
7
  6
CONTINUOUS
 10
127.0666092975
 20
77.6789244929
  0
VERTEX
  8
0
 62
7
  6
CONTINUOUS
 10
127.0607975971
 20
77.6703275949
  0
VERTEX
  8
0
 62
7
  6
CONTINUOUS
 10
127.0417108442
 20
77.6615342765
  0
VERTEX
  8
0
 62
7
  6
CONTINUOUS
 10
127.0105095971
 20
77.6548058337
  0
VERTEX
  8
0
 62
7
  6
CONTINUOUS
 10
126.9691910512
 20
77.6504861303
  0
VERTEX
  8
0
 62
7
  6
CONTINUOUS
 10
126.9204947051
 20
77.6486972437
  0
VERTEX
  8
0
 62
7
  6
CONTINUOUS
 10
126.8666686236
 20
77.649256931
  0
SEQEND
  0
POLYLINE
  8
0
 62
7
  6
CONTINUOUS
 66
1
 70
0
  0
VERTEX
  8
0
 62
7
  6
CONTINUOUS
 10
219.2614009938
 20
84.8427297582
  0
VERTEX
  8
0
 62
7
  6
CONTINUOUS
 10
219.2845512106
 20
84.8409953506
  0
VERTEX
  8
0
 62
7
  6
CONTINUOUS
 10
219.3275257754
 20
84.8293915242
  0
VERTEX
  8
0
 62
7
  6
CONTINUOUS
 10
219.3686860718
 20
84.8084852741
  0
VERTEX
  8
0
 62
7
  6
CONTINUOUS
 10
219.4072999535
 20
84.7798685957
  0
VERTEX
  8
0
 62
7
  6
CONTINUOUS
 10
219.4432916413
 20
84.7443071913
  0
VERTEX
  8
0
 62
7
  6
CONTINUOUS
 10
219.4766303106
 20
84.7020642318
  0
VERTEX
  8
0
 62
7
  6
CONTINUOUS
 10
219.5073646403
 20
84.6529005012
  0
VERTEX
  8
0
 62
7
  6
CONTINUOUS
 10
219.5346448276
 20
84.5979066754
  0
VERTEX
  8
0
 62
7
  6
CONTINUOUS
 10
219.5578684553
 20
84.5386902596
  0
VERTEX
  8
0
 62
7
  6
CONTINUOUS
 10
219.577476833
 20
84.4749778144
  0
VERTEX
  8
0
 62
7
  6
CONTINUOUS
 10
219.5941496517
 20
84.4075582366
  0
VERTEX
  8
0
 62
7
  6
CONTINUOUS
 10
219.6080132777
 20
84.3377609747
  0
VERTEX
  8
0
 62
7
  6
CONTINUOUS
 10
219.6193360893
 20
84.2658890985
  0
VERTEX
  8
0
 62
7
  6
CONTINUOUS
 10
219.6283026756
 20
84.1917716623
  0
VERTEX
  8
0
 62
7
  6
CONTINUOUS
 10
219.6350768219
 20
84.1158793797
  0
VERTEX
  8
0
 62
7
  6
CONTINUOUS
 10
219.6398277466
 20
84.0386366102
  0
VERTEX
  8
0
 62
7
  6
CONTINUOUS
 10
219.6427469099
 20
83.9602472678
  0
VERTEX
  8
0
 62
7
  6
CONTINUOUS
 10
219.6440495535
 20
83.880917501
  0
VERTEX
  8
0
 62
7
  6
CONTINUOUS
 10
219.6439340595
 20
83.8009110692
  0
SEQEND
  0
POLYLINE
  8
0
 62
7
  6
CONTINUOUS
 66
1
 70
0
  0
VERTEX
  8
0
 62
7
  6
CONTINUOUS
 10
153.5092076059
 20
73.3871152301
  0
VERTEX
  8
0
 62
7
  6
CONTINUOUS
 10
153.5368694176
 20
73.2196026609
  0
VERTEX
  8
0
 62
7
  6
CONTINUOUS
 10
153.5677742155
 20
73.0545764428
  0
VERTEX
  8
0
 62
7
  6
CONTINUOUS
 10
153.598723002
 20
72.9107487415
  0
VERTEX
  8
0
 62
7
  6
CONTINUOUS
 10
153.6301321893
 20
72.7847461184
  0
VERTEX
  8
0
 62
7
  6
CONTINUOUS
 10
153.6627153303
 20
72.6731592793
  0
VERTEX
  8
0
 62
7
  6
CONTINUOUS
 10
153.6977303391
 20
72.5723079605
  0
VERTEX
  8
0
 62
7
  6
CONTINUOUS
 10
153.7374138374
 20
72.478104494
  0
VERTEX
  8
0
 62
7
  6
CONTINUOUS
 10
153.7854409552
 20
72.3866405682
  0
VERTEX
  8
0
 62
7
  6
CONTINUOUS
 10
153.847550606
 20
72.2950333455
  0
VERTEX
  8
0
 62
7
  6
CONTINUOUS
 10
153.9312795308
 20
72.2037424779
  0
VERTEX
  8
0
 62
7
  6
CONTINUOUS
 10
154.041924942
 20
72.1202545703
  0
VERTEX
  8
0
 62
7
  6
CONTINUOUS
 10
154.1769146075
 20
72.0573108469
  0
VERTEX
  8
0
 62
7
  6
CONTINUOUS
 10
154.3247493967
 20
72.025168691
  0
VERTEX
  8
0
 62
7
  6
CONTINUOUS
 10
154.3956635393
 20
72.0215383582
  0
SEQEND
  0
LINE
  8
0
 62
7
  6
CONTINUOUS
 10
153.4933064923
 20
73.4918326873
 11
153.5092088667
 21
73.3871071426
  0
POLYLINE
  8
0
 62
7
  6
CONTINUOUS
 66
1
 70
0
  0
VERTEX
  8
0
 62
7
  6
CONTINUOUS
 10
152.4370642126
 20
77.6789143715
  0
VERTEX
  8
0
 62
7
  6
CONTINUOUS
 10
152.5084414676
 20
77.1306229891
  0
VERTEX
  8
0
 62
7
  6
CONTINUOUS
 10
152.603090929
 20
76.5306415737
  0
VERTEX
  8
0
 62
7
  6
CONTINUOUS
 10
152.7137015339
 20
75.9478546092
  0
VERTEX
  8
0
 62
7
  6
CONTINUOUS
 10
152.84031542
 20
75.3872689429
  0
VERTEX
  8
0
 62
7
  6
CONTINUOUS
 10
152.9829481744
 20
74.8537212646
  0
VERTEX
  8
0
 62
7
  6
CONTINUOUS
 10
153.1416460987
 20
74.3518708865
  0
VERTEX
  8
0
 62
7
  6
CONTINUOUS
 10
153.3166398803
 20
73.8860202812
  0
SEQEND
  0
LINE
  8
0
 62
7
  6
CONTINUOUS
 10
152.4370642422
 20
77.6789202372
 11
152.4370049403
 21
77.6799401488
  0
LINE
  8
0
 62
7
  6
CONTINUOUS
 10
152.2666093154
 20
134.1641562996
 11
152.2666686207
 21
134.1631363598
  0
POLYLINE
  8
0
 62
7
  6
CONTINUOUS
 66
1
 70
0
  0
VERTEX
  8
0
 62
7
  6
CONTINUOUS
 10
152.2597061186
 20
128.0385366137
  0
VERTEX
  8
0
 62
7
  6
CONTINUOUS
 10
152.2636705951
 20
128.3320005995
  0
VERTEX
  8
0
 62
7
  6
CONTINUOUS
 10
152.266112339
 20
128.615012801
  0
VERTEX
  8
0
 62
7
  6
CONTINUOUS
 10
152.2666686236
 20
134.1630743483
  0
SEQEND
  0
POLYLINE
  8
0
 62
7
  6
CONTINUOUS
 66
1
 70
0
  0
VERTEX
  8
0
 62
7
  6
CONTINUOUS
 10
152.4439340595
 20
83.8009110692
  0
VERTEX
  8
0
 62
7
  6
CONTINUOUS
 10
152.4399565043
 20
83.507111972
  0
VERTEX
  8
0
 62
7
  6
CONTINUOUS
 10
152.4375405298
 20
83.2240903115
  0
VERTEX
  8
0
 62
7
  6
CONTINUOUS
 10
152.4370049373
 20
77.6800021603
  0
SEQEND
  0
LINE
  8
0
 62
7
  6
CONTINUOUS
 10
134.5860892295
 20
137.9593557644
 11
134.4063059543
 21
138.3603049861
  0
POLYLINE
  8
0
 62
7
  6
CONTINUOUS
 66
1
 70
0
  0
VERTEX
  8
0
 62
7
  6
CONTINUOUS
 10
160.8399565041
 20
128.335964486
  0
VERTEX
  8
0
 62
7
  6
CONTINUOUS
 10
160.843929481
 20
128.0426423671
  0
VERTEX
  8
0
 62
7
  6
CONTINUOUS
 10
160.8440558045
 20
127.963048824
  0
VERTEX
  8
0
 62
7
  6
CONTINUOUS
 10
160.8427771251
 20
127.8839861628
  0
VERTEX
  8
0
 62
7
  6
CONTINUOUS
 10
160.8398906482
 20
127.8057344386
  0
VERTEX
  8
0
 62
7
  6
CONTINUOUS
 10
160.8351752462
 20
127.7285161946
  0
VERTEX
  8
0
 62
7
  6
CONTINUOUS
 10
160.8284323257
 20
127.6525511457
  0
VERTEX
  8
0
 62
7
  6
CONTINUOUS
 10
160.8194859795
 20
127.578272001
  0
VERTEX
  8
0
 62
7
  6
CONTINUOUS
 10
160.8081664623
 20
127.5061870027
  0
VERTEX
  8
0
 62
7
  6
CONTINUOUS
 10
160.7942750631
 20
127.4360823338
  0
VERTEX
  8
0
 62
7
  6
CONTINUOUS
 10
160.7775751872
 20
127.3684321817
  0
VERTEX
  8
0
 62
7
  6
CONTINUOUS
 10
160.7578606453
 20
127.3043639974
  0
VERTEX
  8
0
 62
7
  6
CONTINUOUS
 10
160.7345139677
 20
127.2448741723
  0
VERTEX
  8
0
 62
7
  6
CONTINUOUS
 10
160.7070455446
 20
127.1896052235
  0
VERTEX
  8
0
 62
7
  6
CONTINUOUS
 10
160.676030668
 20
127.1401606942
  0
VERTEX
  8
0
 62
7
  6
CONTINUOUS
 10
160.642587982
 20
127.0979817213
  0
VERTEX
  8
0
 62
7
  6
CONTINUOUS
 10
160.6067180907
 20
127.0627074295
  0
VERTEX
  8
0
 62
7
  6
CONTINUOUS
 10
160.5683979153
 20
127.034411618
  0
VERTEX
  8
0
 62
7
  6
CONTINUOUS
 10
160.5275669148
 20
127.0137015124
  0
VERTEX
  8
0
 62
7
  6
CONTINUOUS
 10
160.4847700921
 20
127.0021132504
  0
VERTEX
  8
0
 62
7
  6
CONTINUOUS
 10
160.4614002938
 20
127.0003467402
  0
SEQEND
  0
POLYLINE
  8
0
 62
7
  6
CONTINUOUS
 66
1
 70
0
  0
VERTEX
  8
0
 62
7
  6
CONTINUOUS
 10
160.6636701921
 20
83.5110797526
  0
VERTEX
  8
0
 62
7
  6
CONTINUOUS
 10
160.6597004712
 20
83.8051115236
  0
VERTEX
  8
0
 62
7
  6
CONTINUOUS
 10
160.6596538047
 20
83.8849806966
  0
VERTEX
  8
0
 62
7
  6
CONTINUOUS
 10
160.6610305694
 20
83.9641561598
  0
VERTEX
  8
0
 62
7
  6
CONTINUOUS
 10
160.6640296788
 20
84.0423781336
  0
VERTEX
  8
0
 62
7
  6
CONTINUOUS
 10
160.6688652486
 20
84.1194492531
  0
VERTEX
  8
0
 62
7
  6
CONTINUOUS
 10
160.6757263784
 20
84.1951624257
  0
VERTEX
  8
0
 62
7
  6
CONTINUOUS
 10
160.6847822768
 20
84.2690896945
  0
VERTEX
  8
0
 62
7
  6
CONTINUOUS
 10
160.6961979326
 20
84.3407848708
  0
VERTEX
  8
0
 62
7
  6
CONTINUOUS
 10
160.7101539086
 20
84.4103838929
  0
VERTEX
  8
0
 62
7
  6
CONTINUOUS
 10
160.7269216632
 20
84.4776194789
  0
VERTEX
  8
0
 62
7
  6
CONTINUOUS
 10
160.7466238151
 20
84.5410485199
  0
VERTEX
  8
0
 62
7
  6
CONTINUOUS
 10
160.7699752131
 20
84.6000434123
  0
VERTEX
  8
0
 62
7
  6
CONTINUOUS
 10
160.7973780967
 20
84.6548134173
  0
VERTEX
  8
0
 62
7
  6
CONTINUOUS
 10
160.8282272304
 20
84.7037446847
  0
VERTEX
  8
0
 62
7
  6
CONTINUOUS
 10
160.8616912334
 20
84.7457710475
  0
VERTEX
  8
0
 62
7
  6
CONTINUOUS
 10
160.8978264353
 20
84.7811147222
  0
VERTEX
  8
0
 62
7
  6
CONTINUOUS
 10
160.936589677
 20
84.8094798656
  0
VERTEX
  8
0
 62
7
  6
CONTINUOUS
 10
160.9778632767
 20
84.8300561633
  0
VERTEX
  8
0
 62
7
  6
CONTINUOUS
 10
161.0208606128
 20
84.8412391904
  0
VERTEX
  8
0
 62
7
  6
CONTINUOUS
 10
161.042099516
 20
84.8427292027
  0
SEQEND
  0
LINE
  8
0
 62
7
  6
CONTINUOUS
 10
160.6661122467
 20
83.2280655836
 11
160.6636701921
 21
83.5110797526
  0
LINE
  8
0
 62
7
  6
CONTINUOUS
 10
160.8375405297
 20
128.6189862227
 11
160.8399565041
 21
128.335964486
  0
LINE
  8
0
 62
2
  6
CONTINUOUS
 10
156.6518367805
 20
105.9215382543
 11
156.6518367805
 21
145.9215382543
  0
LINE
  8
0
 62
7
  6
CONTINUOUS
 10
160.6661122467
 20
83.2280655836
 11
160.6666686236
 21
77.679964643
  0
LINE
  8
DEFAULT_1
 62
7
  6
CENTER
 10
160.7518367805
 20
111.1715382543
 11
160.7518367805
 21
107.9216382543
  0
LINE
  8
0
 62
2
  6
CONTINUOUS
 10
160.7518367805
 20
106.9715382543
 11
160.7518367805
 21
104.8715382543
  0
LINE
  8
0
 62
40
  6
CONTINUOUS
 10
160.7518367805
 20
77.653510554
 11
160.7518367805
 21
52.0982382543
  0
LINE
  8
DEFAULT_1
 62
7
  6
CENTER
 10
160.7518367805
 20
100.6715382543
 11
160.7518367805
 21
103.9214382543
  0
LINE
  8
0
 62
40
  6
CONTINUOUS
 10
160.7518367805
 20
134.1895655338
 11
160.7518367805
 21
159.7448382543
  0
LINE
  8
0
 62
7
  6
CONTINUOUS
 10
160.8370049373
 20
134.1630743483
 11
160.8375405297
 21
128.6189862227
  0
LINE
  8
0
 62
7
  6
CONTINUOUS
 10
160.8370642455
 20
134.1641562996
 11
160.8370049403
 21
134.1631363598
  0
LINE
  8
0
 62
7
  6
CONTINUOUS
 10
161.9092090023
 20
138.4559702359
 11
161.8933042178
 21
138.3512428939
  0
POLYLINE
  8
0
 62
7
  6
CONTINUOUS
 66
1
 70
0
  0
VERTEX
  8
0
 62
7
  6
CONTINUOUS
 10
142.8063069975
 20
73.4827736486
  0
VERTEX
  8
0
 62
7
  6
CONTINUOUS
 10
142.9870337246
 20
73.8860203881
  0
VERTEX
  8
0
 62
7
  6
CONTINUOUS
 10
143.1620275424
 20
74.3518711193
  0
VERTEX
  8
0
 62
7
  6
CONTINUOUS
 10
143.3207254955
 20
74.8537216394
  0
VERTEX
  8
0
 62
7
  6
CONTINUOUS
 10
143.4633582711
 20
75.3872694728
  0
VERTEX
  8
0
 62
7
  6
CONTINUOUS
 10
143.589972171
 20
75.9478553037
  0
VERTEX
  8
0
 62
7
  6
CONTINUOUS
 10
143.7005827818
 20
76.5306424386
  0
VERTEX
  8
0
 62
7
  6
CONTINUOUS
 10
143.7952322416
 20
77.130624027
  0
VERTEX
  8
0
 62
7
  6
CONTINUOUS
 10
143.8666093484
 20
77.6789143715
  0
SEQEND
  0
LINE
  8
DEFAULT_1
 62
7
  6
CENTER
 10
166.0018367805
 20
105.9215382543
 11
162.7519367805
 21
105.9215382543
  0
LINE
  8
0
 62
2
  6
CONTINUOUS
 10
161.8018367805
 20
105.9215382543
 11
159.7018367805
 21
105.9215382543
  0
LINE
  8
0
 62
2
  6
CONTINUOUS
 10
148.2518367805
 20
105.9215382543
 11
155.5018367805
 21
105.9215382543
  0
LINE
  8
DEFAULT_1
 62
7
  6
CENTER
 10
155.5018367805
 20
105.9215382543
 11
158.7517367805
 21
105.9215382543
  0
LINE
  8
0
 62
7
  6
CONTINUOUS
 10
170.1166398803
 20
73.8860202812
 11
170.2973665635
 21
73.4827736486
  0
POLYLINE
  8
0
 62
7
  6
CONTINUOUS
 66
1
 70
0
  0
VERTEX
  8
0
 62
7
  6
CONTINUOUS
 10
151.1944658378
 20
138.4559620306
  0
VERTEX
  8
0
 62
7
  6
CONTINUOUS
 10
151.1665791921
 20
138.624757084
  0
VERTEX
  8
0
 62
7
  6
CONTINUOUS
 10
151.1357352907
 20
138.7893173003
  0
VERTEX
  8
0
 62
7
  6
CONTINUOUS
 10
151.1048515399
 20
138.9327555769
  0
VERTEX
  8
0
 62
7
  6
CONTINUOUS
 10
151.0735134933
 20
139.0584338774
  0
VERTEX
  8
0
 62
7
  6
CONTINUOUS
 10
151.041012108
 20
139.1697475477
  0
VERTEX
  8
0
 62
7
  6
CONTINUOUS
 10
151.0060998051
 20
139.2703571692
  0
VERTEX
  8
0
 62
7
  6
CONTINUOUS
 10
150.9665631779
 20
139.3643220403
  0
VERTEX
  8
0
 62
7
  6
CONTINUOUS
 10
150.9187745867
 20
139.4555178213
  0
VERTEX
  8
0
 62
7
  6
CONTINUOUS
 10
150.8570655434
 20
139.5468299977
  0
VERTEX
  8
0
 62
7
  6
CONTINUOUS
 10
150.7739684761
 20
139.6378777516
  0
VERTEX
  8
0
 62
7
  6
CONTINUOUS
 10
150.664163211
 20
139.7213473107
  0
VERTEX
  8
0
 62
7
  6
CONTINUOUS
 10
150.5300094289
 20
139.7846576179
  0
VERTEX
  8
0
 62
7
  6
CONTINUOUS
 10
150.3827631736
 20
139.8175010933
  0
VERTEX
  8
0
 62
7
  6
CONTINUOUS
 10
150.3080074679
 20
139.8215381473
  0
SEQEND
  0
LINE
  8
0
 62
7
  6
CONTINUOUS
 10
151.2103693432
 20
138.3512428939
 11
151.1944645587
 21
138.4559702359
  0
POLYLINE
  8
0
 62
7
  6
CONTINUOUS
 66
1
 70
0
  0
VERTEX
  8
0
 62
7
  6
CONTINUOUS
 10
152.266609345
 20
134.1641621653
  0
VERTEX
  8
0
 62
7
  6
CONTINUOUS
 10
152.1947315313
 20
134.7159552867
  0
VERTEX
  8
0
 62
7
  6
CONTINUOUS
 10
152.10000268
 20
135.3157802136
  0
VERTEX
  8
0
 62
7
  6
CONTINUOUS
 10
151.9893151489
 20
135.8983910191
  0
VERTEX
  8
0
 62
7
  6
CONTINUOUS
 10
151.8626269154
 20
136.4587820409
  0
VERTEX
  8
0
 62
7
  6
CONTINUOUS
 10
151.7199221696
 20
136.9921182431
  0
VERTEX
  8
0
 62
7
  6
CONTINUOUS
 10
151.5611537677
 20
137.4937427235
  0
VERTEX
  8
0
 62
7
  6
CONTINUOUS
 10
151.3860892295
 20
137.9593557644
  0
SEQEND
  0
LINE
  8
0
 62
7
  6
CONTINUOUS
 10
169.2370642422
 20
77.6789202372
 11
169.2370049403
 21
77.6799401488
  0
LINE
  8
0
 62
7
  6
CONTINUOUS
 10
160.6666686236
 20
77.67993253
 11
160.6666092975
 21
77.6789244929
  0
LINE
  8
0
 62
7
  6
CONTINUOUS
 10
159.5944646943
 20
73.3871071426
 11
159.6103670687
 21
73.4918326876
  0
POLYLINE
  8
0
 62
7
  6
CONTINUOUS
 66
1
 70
0
  0
VERTEX
  8
0
 62
7
  6
CONTINUOUS
 10
178.6973676066
 20
138.3603049861
  0
VERTEX
  8
0
 62
7
  6
CONTINUOUS
 10
178.5175843314
 20
137.9593557644
  0
VERTEX
  8
0
 62
7
  6
CONTINUOUS
 10
178.3425197933
 20
137.4937427235
  0
VERTEX
  8
0
 62
7
  6
CONTINUOUS
 10
178.1837513914
 20
136.9921182431
  0
VERTEX
  8
0
 62
7
  6
CONTINUOUS
 10
178.0410466456
 20
136.4587820409
  0
VERTEX
  8
0
 62
7
  6
CONTINUOUS
 10
177.914358412
 20
135.8983910191
  0
VERTEX
  8
0
 62
7
  6
CONTINUOUS
 10
177.803670881
 20
135.3157802136
  0
VERTEX
  8
0
 62
7
  6
CONTINUOUS
 10
177.7089420297
 20
134.7159552867
  0
VERTEX
  8
0
 62
7
  6
CONTINUOUS
 10
177.6370642159
 20
134.1641621653
  0
SEQEND
  0
POLYLINE
  8
0
 62
7
  6
CONTINUOUS
 66
1
 70
0
  0
VERTEX
  8
0
 62
7
  6
CONTINUOUS
 10
143.8666092975
 20
77.6789244929
  0
VERTEX
  8
0
 62
7
  6
CONTINUOUS
 10
143.8607975971
 20
77.6703275949
  0
VERTEX
  8
0
 62
7
  6
CONTINUOUS
 10
143.8417108442
 20
77.6615342765
  0
VERTEX
  8
0
 62
7
  6
CONTINUOUS
 10
143.8105095971
 20
77.6548058337
  0
VERTEX
  8
0
 62
7
  6
CONTINUOUS
 10
143.7691910512
 20
77.6504861303
  0
VERTEX
  8
0
 62
7
  6
CONTINUOUS
 10
143.7204947051
 20
77.6486972437
  0
VERTEX
  8
0
 62
7
  6
CONTINUOUS
 10
143.6666686236
 20
77.649256931
  0
SEQEND
  0
LINE
  8
0
 62
7
  6
CONTINUOUS
 10
151.3860892295
 20
137.9593557644
 11
151.2063059543
 21
138.3603049861
  0
POLYLINE
  8
0
 62
7
  6
CONTINUOUS
 66
1
 70
0
  0
VERTEX
  8
0
 62
7
  6
CONTINUOUS
 10
170.3092076059
 20
73.3871152301
  0
VERTEX
  8
0
 62
7
  6
CONTINUOUS
 10
170.3368694176
 20
73.2196026609
  0
VERTEX
  8
0
 62
7
  6
CONTINUOUS
 10
170.3677742155
 20
73.0545764428
  0
VERTEX
  8
0
 62
7
  6
CONTINUOUS
 10
170.398723002
 20
72.9107487415
  0
VERTEX
  8
0
 62
7
  6
CONTINUOUS
 10
170.4301321893
 20
72.7847461184
  0
VERTEX
  8
0
 62
7
  6
CONTINUOUS
 10
170.4627153303
 20
72.6731592793
  0
VERTEX
  8
0
 62
7
  6
CONTINUOUS
 10
170.4977303391
 20
72.5723079605
  0
VERTEX
  8
0
 62
7
  6
CONTINUOUS
 10
170.5374138374
 20
72.478104494
  0
VERTEX
  8
0
 62
7
  6
CONTINUOUS
 10
170.5854409552
 20
72.3866405682
  0
VERTEX
  8
0
 62
7
  6
CONTINUOUS
 10
170.647550606
 20
72.2950333455
  0
VERTEX
  8
0
 62
7
  6
CONTINUOUS
 10
170.7312795308
 20
72.2037424779
  0
VERTEX
  8
0
 62
7
  6
CONTINUOUS
 10
170.841924942
 20
72.1202545703
  0
VERTEX
  8
0
 62
7
  6
CONTINUOUS
 10
170.9769146075
 20
72.0573108469
  0
VERTEX
  8
0
 62
7
  6
CONTINUOUS
 10
171.1247493967
 20
72.025168691
  0
VERTEX
  8
0
 62
7
  6
CONTINUOUS
 10
171.1948487777
 20
72.0215386881
  0
SEQEND
  0
LINE
  8
0
 62
7
  6
CONTINUOUS
 10
170.2933064923
 20
73.4918326873
 11
170.3092088667
 21
73.3871071426
  0
POLYLINE
  8
0
 62
7
  6
CONTINUOUS
 66
1
 70
0
  0
VERTEX
  8
0
 62
7
  6
CONTINUOUS
 10
169.2370642126
 20
77.6789143715
  0
VERTEX
  8
0
 62
7
  6
CONTINUOUS
 10
169.3084414676
 20
77.1306229891
  0
VERTEX
  8
0
 62
7
  6
CONTINUOUS
 10
169.403090929
 20
76.5306415737
  0
VERTEX
  8
0
 62
7
  6
CONTINUOUS
 10
169.5137015339
 20
75.9478546092
  0
VERTEX
  8
0
 62
7
  6
CONTINUOUS
 10
169.64031542
 20
75.3872689429
  0
VERTEX
  8
0
 62
7
  6
CONTINUOUS
 10
169.7829481744
 20
74.8537212646
  0
VERTEX
  8
0
 62
7
  6
CONTINUOUS
 10
169.9416460987
 20
74.3518708865
  0
VERTEX
  8
0
 62
7
  6
CONTINUOUS
 10
170.1166398803
 20
73.8860202812
  0
SEQEND
  0
LINE
  8
0
 62
7
  6
CONTINUOUS
 10
169.0666093154
 20
134.1641562996
 11
169.0666686207
 21
134.1631363598
  0
POLYLINE
  8
0
 62
7
  6
CONTINUOUS
 66
1
 70
0
  0
VERTEX
  8
0
 62
7
  6
CONTINUOUS
 10
169.0597061186
 20
128.0385366137
  0
VERTEX
  8
0
 62
7
  6
CONTINUOUS
 10
169.0636705951
 20
128.3320005995
  0
VERTEX
  8
0
 62
7
  6
CONTINUOUS
 10
169.066112339
 20
128.615012801
  0
VERTEX
  8
0
 62
7
  6
CONTINUOUS
 10
169.0666686236
 20
134.1630743483
  0
SEQEND
  0
POLYLINE
  8
0
 62
7
  6
CONTINUOUS
 66
1
 70
0
  0
VERTEX
  8
0
 62
7
  6
CONTINUOUS
 10
169.2439340595
 20
83.8009110692
  0
VERTEX
  8
0
 62
7
  6
CONTINUOUS
 10
169.2399565043
 20
83.507111972
  0
VERTEX
  8
0
 62
7
  6
CONTINUOUS
 10
169.2375405298
 20
83.2240903115
  0
VERTEX
  8
0
 62
7
  6
CONTINUOUS
 10
169.2370049373
 20
77.6800021603
  0
SEQEND
  0
LINE
  8
0
 62
7
  6
CONTINUOUS
 10
178.7092090023
 20
138.4559702359
 11
178.6933042178
 21
138.3512428939
  0
POLYLINE
  8
0
 62
7
  6
CONTINUOUS
 66
1
 70
0
  0
VERTEX
  8
0
 62
7
  6
CONTINUOUS
 10
159.6063069975
 20
73.4827736486
  0
VERTEX
  8
0
 62
7
  6
CONTINUOUS
 10
159.7870337246
 20
73.8860203881
  0
VERTEX
  8
0
 62
7
  6
CONTINUOUS
 10
159.9620275424
 20
74.3518711193
  0
VERTEX
  8
0
 62
7
  6
CONTINUOUS
 10
160.1207254955
 20
74.8537216394
  0
VERTEX
  8
0
 62
7
  6
CONTINUOUS
 10
160.2633582711
 20
75.3872694728
  0
VERTEX
  8
0
 62
7
  6
CONTINUOUS
 10
160.389972171
 20
75.9478553037
  0
VERTEX
  8
0
 62
7
  6
CONTINUOUS
 10
160.5005827818
 20
76.5306424386
  0
VERTEX
  8
0
 62
7
  6
CONTINUOUS
 10
160.5952322416
 20
77.130624027
  0
VERTEX
  8
0
 62
7
  6
CONTINUOUS
 10
160.6666093484
 20
77.6789143715
  0
SEQEND
  0
LINE
  8
0
 62
7
  6
CONTINUOUS
 10
186.9166398803
 20
73.8860202812
 11
187.0973665635
 21
73.4827736486
  0
POLYLINE
  8
0
 62
7
  6
CONTINUOUS
 66
1
 70
0
  0
VERTEX
  8
0
 62
7
  6
CONTINUOUS
 10
167.9944658378
 20
138.4559620306
  0
VERTEX
  8
0
 62
7
  6
CONTINUOUS
 10
167.9665791921
 20
138.624757084
  0
VERTEX
  8
0
 62
7
  6
CONTINUOUS
 10
167.9357352907
 20
138.7893173003
  0
VERTEX
  8
0
 62
7
  6
CONTINUOUS
 10
167.9048515399
 20
138.9327555769
  0
VERTEX
  8
0
 62
7
  6
CONTINUOUS
 10
167.8735134933
 20
139.0584338774
  0
VERTEX
  8
0
 62
7
  6
CONTINUOUS
 10
167.841012108
 20
139.1697475477
  0
VERTEX
  8
0
 62
7
  6
CONTINUOUS
 10
167.8060998051
 20
139.2703571692
  0
VERTEX
  8
0
 62
7
  6
CONTINUOUS
 10
167.7665631779
 20
139.3643220403
  0
VERTEX
  8
0
 62
7
  6
CONTINUOUS
 10
167.7187745867
 20
139.4555178213
  0
VERTEX
  8
0
 62
7
  6
CONTINUOUS
 10
167.6570655434
 20
139.5468299977
  0
VERTEX
  8
0
 62
7
  6
CONTINUOUS
 10
167.5739684761
 20
139.6378777516
  0
VERTEX
  8
0
 62
7
  6
CONTINUOUS
 10
167.464163211
 20
139.7213473107
  0
VERTEX
  8
0
 62
7
  6
CONTINUOUS
 10
167.3300094289
 20
139.7846576179
  0
VERTEX
  8
0
 62
7
  6
CONTINUOUS
 10
167.1827631736
 20
139.8175010933
  0
VERTEX
  8
0
 62
7
  6
CONTINUOUS
 10
167.1080074679
 20
139.8215381473
  0
SEQEND
  0
LINE
  8
0
 62
7
  6
CONTINUOUS
 10
168.0103693432
 20
138.3512428939
 11
167.9944645587
 21
138.4559702359
  0
POLYLINE
  8
0
 62
7
  6
CONTINUOUS
 66
1
 70
0
  0
VERTEX
  8
0
 62
7
  6
CONTINUOUS
 10
169.066609345
 20
134.1641621653
  0
VERTEX
  8
0
 62
7
  6
CONTINUOUS
 10
168.9947315313
 20
134.7159552867
  0
VERTEX
  8
0
 62
7
  6
CONTINUOUS
 10
168.90000268
 20
135.3157802136
  0
VERTEX
  8
0
 62
7
  6
CONTINUOUS
 10
168.7893151489
 20
135.8983910191
  0
VERTEX
  8
0
 62
7
  6
CONTINUOUS
 10
168.6626269154
 20
136.4587820409
  0
VERTEX
  8
0
 62
7
  6
CONTINUOUS
 10
168.5199221696
 20
136.9921182431
  0
VERTEX
  8
0
 62
7
  6
CONTINUOUS
 10
168.3611537677
 20
137.4937427235
  0
VERTEX
  8
0
 62
7
  6
CONTINUOUS
 10
168.1860892295
 20
137.9593557644
  0
SEQEND
  0
POLYLINE
  8
0
 62
7
  6
CONTINUOUS
 66
1
 70
0
  0
VERTEX
  8
0
 62
7
  6
CONTINUOUS
 10
177.6399565041
 20
128.335964486
  0
VERTEX
  8
0
 62
7
  6
CONTINUOUS
 10
177.643929481
 20
128.0426423671
  0
VERTEX
  8
0
 62
7
  6
CONTINUOUS
 10
177.6440558045
 20
127.963048824
  0
VERTEX
  8
0
 62
7
  6
CONTINUOUS
 10
177.6427771251
 20
127.8839861628
  0
VERTEX
  8
0
 62
7
  6
CONTINUOUS
 10
177.6398906482
 20
127.8057344386
  0
VERTEX
  8
0
 62
7
  6
CONTINUOUS
 10
177.6351752462
 20
127.7285161946
  0
VERTEX
  8
0
 62
7
  6
CONTINUOUS
 10
177.6284323257
 20
127.6525511457
  0
VERTEX
  8
0
 62
7
  6
CONTINUOUS
 10
177.6194859795
 20
127.578272001
  0
VERTEX
  8
0
 62
7
  6
CONTINUOUS
 10
177.6081664623
 20
127.5061870027
  0
VERTEX
  8
0
 62
7
  6
CONTINUOUS
 10
177.5942750631
 20
127.4360823338
  0
VERTEX
  8
0
 62
7
  6
CONTINUOUS
 10
177.5775751872
 20
127.3684321817
  0
VERTEX
  8
0
 62
7
  6
CONTINUOUS
 10
177.5578606453
 20
127.3043639974
  0
VERTEX
  8
0
 62
7
  6
CONTINUOUS
 10
177.5345139677
 20
127.2448741723
  0
VERTEX
  8
0
 62
7
  6
CONTINUOUS
 10
177.5070455446
 20
127.1896052235
  0
VERTEX
  8
0
 62
7
  6
CONTINUOUS
 10
177.476030668
 20
127.1401606942
  0
VERTEX
  8
0
 62
7
  6
CONTINUOUS
 10
177.442587982
 20
127.0979817213
  0
VERTEX
  8
0
 62
7
  6
CONTINUOUS
 10
177.4067180907
 20
127.0627074295
  0
VERTEX
  8
0
 62
7
  6
CONTINUOUS
 10
177.3683979153
 20
127.034411618
  0
VERTEX
  8
0
 62
7
  6
CONTINUOUS
 10
177.3275669148
 20
127.0137015124
  0
VERTEX
  8
0
 62
7
  6
CONTINUOUS
 10
177.2847700921
 20
127.0021132504
  0
VERTEX
  8
0
 62
7
  6
CONTINUOUS
 10
177.2614002938
 20
127.0003467402
  0
SEQEND
  0
POLYLINE
  8
0
 62
7
  6
CONTINUOUS
 66
1
 70
0
  0
VERTEX
  8
0
 62
7
  6
CONTINUOUS
 10
177.4636701921
 20
83.5110797526
  0
VERTEX
  8
0
 62
7
  6
CONTINUOUS
 10
177.4597004712
 20
83.8051115236
  0
VERTEX
  8
0
 62
7
  6
CONTINUOUS
 10
177.4596538047
 20
83.8849806966
  0
VERTEX
  8
0
 62
7
  6
CONTINUOUS
 10
177.4610305694
 20
83.9641561598
  0
VERTEX
  8
0
 62
7
  6
CONTINUOUS
 10
177.4640296788
 20
84.0423781336
  0
VERTEX
  8
0
 62
7
  6
CONTINUOUS
 10
177.4688652486
 20
84.1194492531
  0
VERTEX
  8
0
 62
7
  6
CONTINUOUS
 10
177.4757263784
 20
84.1951624257
  0
VERTEX
  8
0
 62
7
  6
CONTINUOUS
 10
177.4847822768
 20
84.2690896945
  0
VERTEX
  8
0
 62
7
  6
CONTINUOUS
 10
177.4961979326
 20
84.3407848708
  0
VERTEX
  8
0
 62
7
  6
CONTINUOUS
 10
177.5101539086
 20
84.4103838929
  0
VERTEX
  8
0
 62
7
  6
CONTINUOUS
 10
177.5269216632
 20
84.4776194789
  0
VERTEX
  8
0
 62
7
  6
CONTINUOUS
 10
177.5466238151
 20
84.5410485199
  0
VERTEX
  8
0
 62
7
  6
CONTINUOUS
 10
177.5699752131
 20
84.6000434123
  0
VERTEX
  8
0
 62
7
  6
CONTINUOUS
 10
177.5973780967
 20
84.6548134173
  0
VERTEX
  8
0
 62
7
  6
CONTINUOUS
 10
177.6282272304
 20
84.7037446847
  0
VERTEX
  8
0
 62
7
  6
CONTINUOUS
 10
177.6616912334
 20
84.7457710475
  0
VERTEX
  8
0
 62
7
  6
CONTINUOUS
 10
177.6978264353
 20
84.7811147222
  0
VERTEX
  8
0
 62
7
  6
CONTINUOUS
 10
177.736589677
 20
84.8094798656
  0
VERTEX
  8
0
 62
7
  6
CONTINUOUS
 10
177.7778632767
 20
84.8300561633
  0
VERTEX
  8
0
 62
7
  6
CONTINUOUS
 10
177.8208606128
 20
84.8412391904
  0
VERTEX
  8
0
 62
7
  6
CONTINUOUS
 10
177.842099516
 20
84.8427292027
  0
SEQEND
  0
LINE
  8
0
 62
7
  6
CONTINUOUS
 10
177.4661122467
 20
83.2280655836
 11
177.4636701921
 21
83.5110797526
  0
LINE
  8
0
 62
7
  6
CONTINUOUS
 10
177.6375405297
 20
128.6189862227
 11
177.6399565041
 21
128.335964486
  0
LINE
  8
0
 62
7
  6
CONTINUOUS
 10
177.4661122467
 20
83.2280655836
 11
177.4666686236
 21
77.679964643
  0
LINE
  8
0
 62
7
  6
CONTINUOUS
 10
177.6370049373
 20
134.1630743483
 11
177.6375405297
 21
128.6189862227
  0
LINE
  8
0
 62
7
  6
CONTINUOUS
 10
177.6370642455
 20
134.1641562996
 11
177.6370049403
 21
134.1631363598
  0
LINE
  8
0
 62
7
  6
CONTINUOUS
 10
177.4666686236
 20
77.67993253
 11
177.4666092975
 21
77.6789244929
  0
POLYLINE
  8
0
 62
7
  6
CONTINUOUS
 66
1
 70
0
  0
VERTEX
  8
0
 62
7
  6
CONTINUOUS
 10
195.4973676066
 20
138.3603049861
  0
VERTEX
  8
0
 62
7
  6
CONTINUOUS
 10
195.3175843314
 20
137.9593557644
  0
VERTEX
  8
0
 62
7
  6
CONTINUOUS
 10
195.1425197933
 20
137.4937427235
  0
VERTEX
  8
0
 62
7
  6
CONTINUOUS
 10
194.9837513914
 20
136.9921182431
  0
VERTEX
  8
0
 62
7
  6
CONTINUOUS
 10
194.8410466456
 20
136.4587820409
  0
VERTEX
  8
0
 62
7
  6
CONTINUOUS
 10
194.714358412
 20
135.8983910191
  0
VERTEX
  8
0
 62
7
  6
CONTINUOUS
 10
194.603670881
 20
135.3157802136
  0
VERTEX
  8
0
 62
7
  6
CONTINUOUS
 10
194.5089420297
 20
134.7159552867
  0
VERTEX
  8
0
 62
7
  6
CONTINUOUS
 10
194.4370642159
 20
134.1641621653
  0
SEQEND
  0
POLYLINE
  8
0
 62
7
  6
CONTINUOUS
 66
1
 70
0
  0
VERTEX
  8
0
 62
7
  6
CONTINUOUS
 10
160.6666092975
 20
77.6789244929
  0
VERTEX
  8
0
 62
7
  6
CONTINUOUS
 10
160.6607975971
 20
77.6703275949
  0
VERTEX
  8
0
 62
7
  6
CONTINUOUS
 10
160.6417108442
 20
77.6615342765
  0
VERTEX
  8
0
 62
7
  6
CONTINUOUS
 10
160.6105095971
 20
77.6548058337
  0
VERTEX
  8
0
 62
7
  6
CONTINUOUS
 10
160.5691910512
 20
77.6504861303
  0
VERTEX
  8
0
 62
7
  6
CONTINUOUS
 10
160.5204947051
 20
77.6486972437
  0
VERTEX
  8
0
 62
7
  6
CONTINUOUS
 10
160.4666686236
 20
77.649256931
  0
SEQEND
  0
POLYLINE
  8
0
 62
7
  6
CONTINUOUS
 66
1
 70
0
  0
VERTEX
  8
0
 62
7
  6
CONTINUOUS
 10
102.2421004711
 20
127.0003473456
  0
VERTEX
  8
0
 62
7
  6
CONTINUOUS
 10
102.2206794432
 20
127.001862092
  0
VERTEX
  8
0
 62
7
  6
CONTINUOUS
 10
102.1778548348
 20
127.0130242318
  0
VERTEX
  8
0
 62
7
  6
CONTINUOUS
 10
102.1369008215
 20
127.0334060312
  0
VERTEX
  8
0
 62
7
  6
CONTINUOUS
 10
102.0984170999
 20
127.0614598291
  0
VERTEX
  8
0
 62
7
  6
CONTINUOUS
 10
102.0623942117
 20
127.0965268143
  0
VERTEX
  8
0
 62
7
  6
CONTINUOUS
 10
102.0288242884
 20
127.1384924717
  0
VERTEX
  8
0
 62
7
  6
CONTINUOUS
 10
101.9976907361
 20
127.1877093366
  0
VERTEX
  8
0
 62
7
  6
CONTINUOUS
 10
101.9700981207
 20
127.2427566628
  0
VERTEX
  8
0
 62
7
  6
CONTINUOUS
 10
101.9466177659
 20
127.3020596902
  0
VERTEX
  8
0
 62
7
  6
CONTINUOUS
 10
101.9268197159
 20
127.3658369338
  0
VERTEX
  8
0
 62
7
  6
CONTINUOUS
 10
101.9100076239
 20
127.4333369767
  0
VERTEX
  8
0
 62
7
  6
CONTINUOUS
 10
101.8960345346
 20
127.5032156806
  0
VERTEX
  8
0
 62
7
  6
CONTINUOUS
 10
101.884624214
 20
127.5751254027
  0
VERTEX
  8
0
 62
7
  6
CONTINUOUS
 10
101.8755898919
 20
127.6492178388
  0
VERTEX
  8
0
 62
7
  6
CONTINUOUS
 10
101.8687614454
 20
127.72500576
  0
VERTEX
  8
0
 62
7
  6
CONTINUOUS
 10
101.8639631623
 20
127.8020559076
  0
VERTEX
  8
0
 62
7
  6
CONTINUOUS
 10
101.8609981536
 20
127.880148435
  0
VERTEX
  8
0
 62
7
  6
CONTINUOUS
 10
101.8596468434
 20
127.959066564
  0
VERTEX
  8
0
 62
7
  6
CONTINUOUS
 10
101.8597061186
 20
128.0385366137
  0
SEQEND
  0
POLYLINE
  8
0
 62
7
  6
CONTINUOUS
 66
1
 70
0
  0
VERTEX
  8
0
 62
7
  6
CONTINUOUS
 10
119.0421004711
 20
127.0003473456
  0
VERTEX
  8
0
 62
7
  6
CONTINUOUS
 10
119.0206794432
 20
127.001862092
  0
VERTEX
  8
0
 62
7
  6
CONTINUOUS
 10
118.9778548348
 20
127.0130242318
  0
VERTEX
  8
0
 62
7
  6
CONTINUOUS
 10
118.9369008215
 20
127.0334060312
  0
VERTEX
  8
0
 62
7
  6
CONTINUOUS
 10
118.8984170999
 20
127.0614598291
  0
VERTEX
  8
0
 62
7
  6
CONTINUOUS
 10
118.8623942117
 20
127.0965268143
  0
VERTEX
  8
0
 62
7
  6
CONTINUOUS
 10
118.8288242884
 20
127.1384924717
  0
VERTEX
  8
0
 62
7
  6
CONTINUOUS
 10
118.7976907361
 20
127.1877093366
  0
VERTEX
  8
0
 62
7
  6
CONTINUOUS
 10
118.7700981207
 20
127.2427566628
  0
VERTEX
  8
0
 62
7
  6
CONTINUOUS
 10
118.7466177659
 20
127.3020596902
  0
VERTEX
  8
0
 62
7
  6
CONTINUOUS
 10
118.7268197159
 20
127.3658369338
  0
VERTEX
  8
0
 62
7
  6
CONTINUOUS
 10
118.7100076239
 20
127.4333369767
  0
VERTEX
  8
0
 62
7
  6
CONTINUOUS
 10
118.6960345346
 20
127.5032156806
  0
VERTEX
  8
0
 62
7
  6
CONTINUOUS
 10
118.684624214
 20
127.5751254027
  0
VERTEX
  8
0
 62
7
  6
CONTINUOUS
 10
118.6755898919
 20
127.6492178388
  0
VERTEX
  8
0
 62
7
  6
CONTINUOUS
 10
118.6687614454
 20
127.72500576
  0
VERTEX
  8
0
 62
7
  6
CONTINUOUS
 10
118.6639631623
 20
127.8020559076
  0
VERTEX
  8
0
 62
7
  6
CONTINUOUS
 10
118.6609981536
 20
127.880148435
  0
VERTEX
  8
0
 62
7
  6
CONTINUOUS
 10
118.6596468434
 20
127.959066564
  0
VERTEX
  8
0
 62
7
  6
CONTINUOUS
 10
118.6597061186
 20
128.0385366137
  0
SEQEND
  0
POLYLINE
  8
0
 62
7
  6
CONTINUOUS
 66
1
 70
0
  0
VERTEX
  8
0
 62
7
  6
CONTINUOUS
 10
135.8421004711
 20
127.0003473456
  0
VERTEX
  8
0
 62
7
  6
CONTINUOUS
 10
135.8206794432
 20
127.001862092
  0
VERTEX
  8
0
 62
7
  6
CONTINUOUS
 10
135.7778548348
 20
127.0130242318
  0
VERTEX
  8
0
 62
7
  6
CONTINUOUS
 10
135.7369008215
 20
127.0334060312
  0
VERTEX
  8
0
 62
7
  6
CONTINUOUS
 10
135.6984170999
 20
127.0614598291
  0
VERTEX
  8
0
 62
7
  6
CONTINUOUS
 10
135.6623942117
 20
127.0965268143
  0
VERTEX
  8
0
 62
7
  6
CONTINUOUS
 10
135.6288242884
 20
127.1384924717
  0
VERTEX
  8
0
 62
7
  6
CONTINUOUS
 10
135.5976907361
 20
127.1877093366
  0
VERTEX
  8
0
 62
7
  6
CONTINUOUS
 10
135.5700981207
 20
127.2427566628
  0
VERTEX
  8
0
 62
7
  6
CONTINUOUS
 10
135.5466177659
 20
127.3020596902
  0
VERTEX
  8
0
 62
7
  6
CONTINUOUS
 10
135.5268197159
 20
127.3658369338
  0
VERTEX
  8
0
 62
7
  6
CONTINUOUS
 10
135.5100076239
 20
127.4333369767
  0
VERTEX
  8
0
 62
7
  6
CONTINUOUS
 10
135.4960345346
 20
127.5032156806
  0
VERTEX
  8
0
 62
7
  6
CONTINUOUS
 10
135.484624214
 20
127.5751254027
  0
VERTEX
  8
0
 62
7
  6
CONTINUOUS
 10
135.4755898919
 20
127.6492178388
  0
VERTEX
  8
0
 62
7
  6
CONTINUOUS
 10
135.4687614454
 20
127.72500576
  0
VERTEX
  8
0
 62
7
  6
CONTINUOUS
 10
135.4639631623
 20
127.8020559076
  0
VERTEX
  8
0
 62
7
  6
CONTINUOUS
 10
135.4609981536
 20
127.880148435
  0
VERTEX
  8
0
 62
7
  6
CONTINUOUS
 10
135.4596468434
 20
127.959066564
  0
VERTEX
  8
0
 62
7
  6
CONTINUOUS
 10
135.4597061186
 20
128.0385366137
  0
SEQEND
  0
LINE
  8
0
 62
7
  6
CONTINUOUS
 10
186.0370642422
 20
77.6789202372
 11
186.0370049403
 21
77.6799401488
  0
POLYLINE
  8
0
 62
7
  6
CONTINUOUS
 66
1
 70
0
  0
VERTEX
  8
0
 62
7
  6
CONTINUOUS
 10
185.8597061186
 20
128.0385366137
  0
VERTEX
  8
0
 62
7
  6
CONTINUOUS
 10
185.8636705951
 20
128.3320005995
  0
VERTEX
  8
0
 62
7
  6
CONTINUOUS
 10
185.866112339
 20
128.615012801
  0
VERTEX
  8
0
 62
7
  6
CONTINUOUS
 10
185.8666686236
 20
134.1630743483
  0
SEQEND
  0
POLYLINE
  8
0
 62
7
  6
CONTINUOUS
 66
1
 70
0
  0
VERTEX
  8
0
 62
7
  6
CONTINUOUS
 10
186.0439340595
 20
83.8009110692
  0
VERTEX
  8
0
 62
7
  6
CONTINUOUS
 10
186.0399565043
 20
83.507111972
  0
VERTEX
  8
0
 62
7
  6
CONTINUOUS
 10
186.0375405298
 20
83.2240903115
  0
VERTEX
  8
0
 62
7
  6
CONTINUOUS
 10
186.0370049373
 20
77.6800021603
  0
SEQEND
  0
LINE
  8
0
 62
7
  6
CONTINUOUS
 10
176.3944646943
 20
73.3871071426
 11
176.4103670687
 21
73.4918326876
  0
LINE
  8
0
 62
7
  6
CONTINUOUS
 10
227.6625789082
 20
126.7504248981
 11
227.5824689694
 21
126.7501486696
  0
LINE
  8
0
 62
7
  6
CONTINUOUS
 10
210.8625789082
 20
126.7504248981
 11
210.7824689694
 21
126.7501486696
  0
LINE
  8
0
 62
7
  6
CONTINUOUS
 10
194.0625789082
 20
126.7504248981
 11
193.9824689694
 21
126.7501486696
  0
LINE
  8
0
 62
7
  6
CONTINUOUS
 10
177.2625789082
 20
126.7504248981
 11
177.1824689694
 21
126.7501486696
  0
LINE
  8
0
 62
7
  6
CONTINUOUS
 10
160.4625789082
 20
126.7504248981
 11
160.3824689694
 21
126.7501486696
  0
LINE
  8
0
 62
7
  6
CONTINUOUS
 10
143.6625789082
 20
126.7504248981
 11
143.5824689694
 21
126.7501486696
  0
LINE
  8
0
 62
7
  6
CONTINUOUS
 10
126.8625789082
 20
126.7504248981
 11
126.7824689694
 21
126.7501486696
  0
LINE
  8
0
 62
7
  6
CONTINUOUS
 10
110.0625789082
 20
126.7504248981
 11
109.9824689694
 21
126.7501486696
  0
LINE
  8
0
 62
7
  6
CONTINUOUS
 10
93.2625789082
 20
126.7504248981
 11
93.1824689694
 21
126.7501486696
  0
LINE
  8
0
 62
6
  6
CONTINUOUS
 10
227.6625788827
 20
126.8774989848
 11
227.5824690136
 21
126.8772291551
  0
LINE
  8
0
 62
7
  6
CONTINUOUS
 10
227.6614003389
 20
127.0003769198
 11
219.9212051379
 21
127.0001486696
  0
LINE
  8
0
 62
7
  6
CONTINUOUS
 10
210.8614003389
 20
127.0003769198
 11
203.1212051379
 21
127.0001486696
  0
LINE
  8
0
 62
7
  6
CONTINUOUS
 10
194.0614003389
 20
127.0003769198
 11
186.3212051379
 21
127.0001486696
  0
LINE
  8
0
 62
7
  6
CONTINUOUS
 10
177.2614003389
 20
127.0003769198
 11
169.5212051379
 21
127.0001486696
  0
LINE
  8
0
 62
7
  6
CONTINUOUS
 10
160.4614003389
 20
127.0003769198
 11
152.7212051379
 21
127.0001486696
  0
LINE
  8
0
 62
7
  6
CONTINUOUS
 10
143.6614003389
 20
127.0003769198
 11
135.9212051379
 21
127.0001486696
  0
LINE
  8
0
 62
7
  6
CONTINUOUS
 10
126.8614003389
 20
127.0003769198
 11
119.1212051379
 21
127.0001486696
  0
LINE
  8
0
 62
7
  6
CONTINUOUS
 10
110.0614003389
 20
127.0003769198
 11
102.3212051379
 21
127.0001486696
  0
LINE
  8
0
 62
7
  6
CONTINUOUS
 10
93.2614003389
 20
127.0003769198
 11
85.4518367805
 21
127.0001486696
  0
LINE
  8
DEFAULT_1
 62
7
  6
CENTER
 10
94.0094560501
 20
131.3215382543
 11
238.2518367805
 21
131.3215382543
  0
LINE
  8
0
 62
7
  6
CONTINUOUS
 10
102.3212051384
 20
127.0001486696
 11
102.2421007585
 21
127.000347151
  0
LINE
  8
0
 62
7
  6
CONTINUOUS
 10
119.1212051384
 20
127.0001486696
 11
119.0421007585
 21
127.000347151
  0
LINE
  8
0
 62
7
  6
CONTINUOUS
 10
135.9212051384
 20
127.0001486696
 11
135.8421007585
 21
127.000347151
  0
LINE
  8
0
 62
7
  6
CONTINUOUS
 10
152.7212051384
 20
127.0001486696
 11
152.6421007585
 21
127.000347151
  0
LINE
  8
0
 62
7
  6
CONTINUOUS
 10
169.5212051384
 20
127.0001486696
 11
169.4421007585
 21
127.000347151
  0
LINE
  8
0
 62
7
  6
CONTINUOUS
 10
186.3212051384
 20
127.0001486696
 11
186.2421007585
 21
127.000347151
  0
LINE
  8
0
 62
7
  6
CONTINUOUS
 10
203.1212051384
 20
127.0001486696
 11
203.0421007585
 21
127.000347151
  0
LINE
  8
0
 62
7
  6
CONTINUOUS
 10
219.9212051384
 20
127.0001486696
 11
219.8421007585
 21
127.000347151
  0
POLYLINE
  8
0
 62
7
  6
CONTINUOUS
 66
1
 70
0
  0
VERTEX
  8
0
 62
7
  6
CONTINUOUS
 10
152.6421004711
 20
127.0003473456
  0
VERTEX
  8
0
 62
7
  6
CONTINUOUS
 10
152.6206794432
 20
127.001862092
  0
VERTEX
  8
0
 62
7
  6
CONTINUOUS
 10
152.5778548348
 20
127.0130242318
  0
VERTEX
  8
0
 62
7
  6
CONTINUOUS
 10
152.5369008215
 20
127.0334060312
  0
VERTEX
  8
0
 62
7
  6
CONTINUOUS
 10
152.4984170999
 20
127.0614598291
  0
VERTEX
  8
0
 62
7
  6
CONTINUOUS
 10
152.4623942117
 20
127.0965268143
  0
VERTEX
  8
0
 62
7
  6
CONTINUOUS
 10
152.4288242884
 20
127.1384924717
  0
VERTEX
  8
0
 62
7
  6
CONTINUOUS
 10
152.3976907361
 20
127.1877093366
  0
VERTEX
  8
0
 62
7
  6
CONTINUOUS
 10
152.3700981207
 20
127.2427566628
  0
VERTEX
  8
0
 62
7
  6
CONTINUOUS
 10
152.3466177659
 20
127.3020596902
  0
VERTEX
  8
0
 62
7
  6
CONTINUOUS
 10
152.3268197159
 20
127.3658369338
  0
VERTEX
  8
0
 62
7
  6
CONTINUOUS
 10
152.3100076239
 20
127.4333369767
  0
VERTEX
  8
0
 62
7
  6
CONTINUOUS
 10
152.2960345346
 20
127.5032156806
  0
VERTEX
  8
0
 62
7
  6
CONTINUOUS
 10
152.284624214
 20
127.5751254027
  0
VERTEX
  8
0
 62
7
  6
CONTINUOUS
 10
152.2755898919
 20
127.6492178388
  0
VERTEX
  8
0
 62
7
  6
CONTINUOUS
 10
152.2687614454
 20
127.72500576
  0
VERTEX
  8
0
 62
7
  6
CONTINUOUS
 10
152.2639631623
 20
127.8020559076
  0
VERTEX
  8
0
 62
7
  6
CONTINUOUS
 10
152.2609981536
 20
127.880148435
  0
VERTEX
  8
0
 62
7
  6
CONTINUOUS
 10
152.2596468434
 20
127.959066564
  0
VERTEX
  8
0
 62
7
  6
CONTINUOUS
 10
152.2597061186
 20
128.0385366137
  0
SEQEND
  0
POLYLINE
  8
0
 62
7
  6
CONTINUOUS
 66
1
 70
0
  0
VERTEX
  8
0
 62
7
  6
CONTINUOUS
 10
169.4421004711
 20
127.0003473456
  0
VERTEX
  8
0
 62
7
  6
CONTINUOUS
 10
169.4206794432
 20
127.001862092
  0
VERTEX
  8
0
 62
7
  6
CONTINUOUS
 10
169.3778548348
 20
127.0130242318
  0
VERTEX
  8
0
 62
7
  6
CONTINUOUS
 10
169.3369008215
 20
127.0334060312
  0
VERTEX
  8
0
 62
7
  6
CONTINUOUS
 10
169.2984170999
 20
127.0614598291
  0
VERTEX
  8
0
 62
7
  6
CONTINUOUS
 10
169.2623942117
 20
127.0965268143
  0
VERTEX
  8
0
 62
7
  6
CONTINUOUS
 10
169.2288242884
 20
127.1384924717
  0
VERTEX
  8
0
 62
7
  6
CONTINUOUS
 10
169.1976907361
 20
127.1877093366
  0
VERTEX
  8
0
 62
7
  6
CONTINUOUS
 10
169.1700981207
 20
127.2427566628
  0
VERTEX
  8
0
 62
7
  6
CONTINUOUS
 10
169.1466177659
 20
127.3020596902
  0
VERTEX
  8
0
 62
7
  6
CONTINUOUS
 10
169.1268197159
 20
127.3658369338
  0
VERTEX
  8
0
 62
7
  6
CONTINUOUS
 10
169.1100076239
 20
127.4333369767
  0
VERTEX
  8
0
 62
7
  6
CONTINUOUS
 10
169.0960345346
 20
127.5032156806
  0
VERTEX
  8
0
 62
7
  6
CONTINUOUS
 10
169.084624214
 20
127.5751254027
  0
VERTEX
  8
0
 62
7
  6
CONTINUOUS
 10
169.0755898919
 20
127.6492178388
  0
VERTEX
  8
0
 62
7
  6
CONTINUOUS
 10
169.0687614454
 20
127.72500576
  0
VERTEX
  8
0
 62
7
  6
CONTINUOUS
 10
169.0639631623
 20
127.8020559076
  0
VERTEX
  8
0
 62
7
  6
CONTINUOUS
 10
169.0609981536
 20
127.880148435
  0
VERTEX
  8
0
 62
7
  6
CONTINUOUS
 10
169.0596468434
 20
127.959066564
  0
VERTEX
  8
0
 62
7
  6
CONTINUOUS
 10
169.0597061186
 20
128.0385366137
  0
SEQEND
  0
POLYLINE
  8
0
 62
7
  6
CONTINUOUS
 66
1
 70
0
  0
VERTEX
  8
0
 62
7
  6
CONTINUOUS
 10
186.2421004711
 20
127.0003473456
  0
VERTEX
  8
0
 62
7
  6
CONTINUOUS
 10
186.2206794432
 20
127.001862092
  0
VERTEX
  8
0
 62
7
  6
CONTINUOUS
 10
186.1778548348
 20
127.0130242318
  0
VERTEX
  8
0
 62
7
  6
CONTINUOUS
 10
186.1369008215
 20
127.0334060312
  0
VERTEX
  8
0
 62
7
  6
CONTINUOUS
 10
186.0984170999
 20
127.0614598291
  0
VERTEX
  8
0
 62
7
  6
CONTINUOUS
 10
186.0623942117
 20
127.0965268143
  0
VERTEX
  8
0
 62
7
  6
CONTINUOUS
 10
186.0288242884
 20
127.1384924717
  0
VERTEX
  8
0
 62
7
  6
CONTINUOUS
 10
185.9976907361
 20
127.1877093366
  0
VERTEX
  8
0
 62
7
  6
CONTINUOUS
 10
185.9700981207
 20
127.2427566628
  0
VERTEX
  8
0
 62
7
  6
CONTINUOUS
 10
185.9466177659
 20
127.3020596902
  0
VERTEX
  8
0
 62
7
  6
CONTINUOUS
 10
185.9268197159
 20
127.3658369338
  0
VERTEX
  8
0
 62
7
  6
CONTINUOUS
 10
185.9100076239
 20
127.4333369767
  0
VERTEX
  8
0
 62
7
  6
CONTINUOUS
 10
185.8960345346
 20
127.5032156806
  0
VERTEX
  8
0
 62
7
  6
CONTINUOUS
 10
185.884624214
 20
127.5751254027
  0
VERTEX
  8
0
 62
7
  6
CONTINUOUS
 10
185.8755898919
 20
127.6492178388
  0
VERTEX
  8
0
 62
7
  6
CONTINUOUS
 10
185.8687614454
 20
127.72500576
  0
VERTEX
  8
0
 62
7
  6
CONTINUOUS
 10
185.8639631623
 20
127.8020559076
  0
VERTEX
  8
0
 62
7
  6
CONTINUOUS
 10
185.8609981536
 20
127.880148435
  0
VERTEX
  8
0
 62
7
  6
CONTINUOUS
 10
185.8596468434
 20
127.959066564
  0
VERTEX
  8
0
 62
7
  6
CONTINUOUS
 10
185.8597061186
 20
128.0385366137
  0
SEQEND
  0
POLYLINE
  8
0
 62
7
  6
CONTINUOUS
 66
1
 70
0
  0
VERTEX
  8
0
 62
7
  6
CONTINUOUS
 10
203.0421004711
 20
127.0003473456
  0
VERTEX
  8
0
 62
7
  6
CONTINUOUS
 10
203.0206794432
 20
127.001862092
  0
VERTEX
  8
0
 62
7
  6
CONTINUOUS
 10
202.9778548348
 20
127.0130242318
  0
VERTEX
  8
0
 62
7
  6
CONTINUOUS
 10
202.9369008215
 20
127.0334060312
  0
VERTEX
  8
0
 62
7
  6
CONTINUOUS
 10
202.8984170999
 20
127.0614598291
  0
VERTEX
  8
0
 62
7
  6
CONTINUOUS
 10
202.8623942117
 20
127.0965268143
  0
VERTEX
  8
0
 62
7
  6
CONTINUOUS
 10
202.8288242884
 20
127.1384924717
  0
VERTEX
  8
0
 62
7
  6
CONTINUOUS
 10
202.7976907361
 20
127.1877093366
  0
VERTEX
  8
0
 62
7
  6
CONTINUOUS
 10
202.7700981207
 20
127.2427566628
  0
VERTEX
  8
0
 62
7
  6
CONTINUOUS
 10
202.7466177659
 20
127.3020596902
  0
VERTEX
  8
0
 62
7
  6
CONTINUOUS
 10
202.7268197159
 20
127.3658369338
  0
VERTEX
  8
0
 62
7
  6
CONTINUOUS
 10
202.7100076239
 20
127.4333369767
  0
VERTEX
  8
0
 62
7
  6
CONTINUOUS
 10
202.6960345346
 20
127.5032156806
  0
VERTEX
  8
0
 62
7
  6
CONTINUOUS
 10
202.684624214
 20
127.5751254027
  0
VERTEX
  8
0
 62
7
  6
CONTINUOUS
 10
202.6755898919
 20
127.6492178388
  0
VERTEX
  8
0
 62
7
  6
CONTINUOUS
 10
202.6687614454
 20
127.72500576
  0
VERTEX
  8
0
 62
7
  6
CONTINUOUS
 10
202.6639631623
 20
127.8020559076
  0
VERTEX
  8
0
 62
7
  6
CONTINUOUS
 10
202.6609981536
 20
127.880148435
  0
VERTEX
  8
0
 62
7
  6
CONTINUOUS
 10
202.6596468434
 20
127.959066564
  0
VERTEX
  8
0
 62
7
  6
CONTINUOUS
 10
202.6597061186
 20
128.0385366137
  0
SEQEND
  0
POLYLINE
  8
0
 62
7
  6
CONTINUOUS
 66
1
 70
0
  0
VERTEX
  8
0
 62
7
  6
CONTINUOUS
 10
219.8421004711
 20
127.0003473456
  0
VERTEX
  8
0
 62
7
  6
CONTINUOUS
 10
219.8206794432
 20
127.001862092
  0
VERTEX
  8
0
 62
7
  6
CONTINUOUS
 10
219.7778548348
 20
127.0130242318
  0
VERTEX
  8
0
 62
7
  6
CONTINUOUS
 10
219.7369008215
 20
127.0334060312
  0
VERTEX
  8
0
 62
7
  6
CONTINUOUS
 10
219.6984170999
 20
127.0614598291
  0
VERTEX
  8
0
 62
7
  6
CONTINUOUS
 10
219.6623942117
 20
127.0965268143
  0
VERTEX
  8
0
 62
7
  6
CONTINUOUS
 10
219.6288242884
 20
127.1384924717
  0
VERTEX
  8
0
 62
7
  6
CONTINUOUS
 10
219.5976907361
 20
127.1877093366
  0
VERTEX
  8
0
 62
7
  6
CONTINUOUS
 10
219.5700981207
 20
127.2427566628
  0
VERTEX
  8
0
 62
7
  6
CONTINUOUS
 10
219.5466177659
 20
127.3020596902
  0
VERTEX
  8
0
 62
7
  6
CONTINUOUS
 10
219.5268197159
 20
127.3658369338
  0
VERTEX
  8
0
 62
7
  6
CONTINUOUS
 10
219.5100076239
 20
127.4333369767
  0
VERTEX
  8
0
 62
7
  6
CONTINUOUS
 10
219.4960345346
 20
127.5032156806
  0
VERTEX
  8
0
 62
7
  6
CONTINUOUS
 10
219.484624214
 20
127.5751254027
  0
VERTEX
  8
0
 62
7
  6
CONTINUOUS
 10
219.4755898919
 20
127.6492178388
  0
VERTEX
  8
0
 62
7
  6
CONTINUOUS
 10
219.4687614454
 20
127.72500576
  0
VERTEX
  8
0
 62
7
  6
CONTINUOUS
 10
219.4639631623
 20
127.8020559076
  0
VERTEX
  8
0
 62
7
  6
CONTINUOUS
 10
219.4609981536
 20
127.880148435
  0
VERTEX
  8
0
 62
7
  6
CONTINUOUS
 10
219.4596468434
 20
127.959066564
  0
VERTEX
  8
0
 62
7
  6
CONTINUOUS
 10
219.4597061186
 20
128.0385366137
  0
SEQEND
  0
LINE
  8
0
 62
7
  6
CONTINUOUS
 10
168.1860892295
 20
137.9593557644
 11
168.0063059543
 21
138.3603049861
  0
POLYLINE
  8
0
 62
7
  6
CONTINUOUS
 66
1
 70
0
  0
VERTEX
  8
0
 62
7
  6
CONTINUOUS
 10
187.1092076059
 20
73.3871152301
  0
VERTEX
  8
0
 62
7
  6
CONTINUOUS
 10
187.1368694176
 20
73.2196026609
  0
VERTEX
  8
0
 62
7
  6
CONTINUOUS
 10
187.1677742155
 20
73.0545764428
  0
VERTEX
  8
0
 62
7
  6
CONTINUOUS
 10
187.198723002
 20
72.9107487415
  0
VERTEX
  8
0
 62
7
  6
CONTINUOUS
 10
187.2301321893
 20
72.7847461184
  0
VERTEX
  8
0
 62
7
  6
CONTINUOUS
 10
187.2627153303
 20
72.6731592793
  0
VERTEX
  8
0
 62
7
  6
CONTINUOUS
 10
187.2977303391
 20
72.5723079605
  0
VERTEX
  8
0
 62
7
  6
CONTINUOUS
 10
187.3374138374
 20
72.478104494
  0
VERTEX
  8
0
 62
7
  6
CONTINUOUS
 10
187.3854409552
 20
72.3866405682
  0
VERTEX
  8
0
 62
7
  6
CONTINUOUS
 10
187.447550606
 20
72.2950333455
  0
VERTEX
  8
0
 62
7
  6
CONTINUOUS
 10
187.5312795308
 20
72.2037424779
  0
VERTEX
  8
0
 62
7
  6
CONTINUOUS
 10
187.641924942
 20
72.1202545703
  0
VERTEX
  8
0
 62
7
  6
CONTINUOUS
 10
187.7769146075
 20
72.0573108469
  0
VERTEX
  8
0
 62
7
  6
CONTINUOUS
 10
187.9247493967
 20
72.025168691
  0
VERTEX
  8
0
 62
7
  6
CONTINUOUS
 10
187.9956635393
 20
72.0215383582
  0
SEQEND
  0
LINE
  8
0
 62
7
  6
CONTINUOUS
 10
187.0933064923
 20
73.4918326873
 11
187.1092088667
 21
73.3871071426
  0
POLYLINE
  8
0
 62
7
  6
CONTINUOUS
 66
1
 70
0
  0
VERTEX
  8
0
 62
7
  6
CONTINUOUS
 10
186.0370642126
 20
77.6789143715
  0
VERTEX
  8
0
 62
7
  6
CONTINUOUS
 10
186.1084414676
 20
77.1306229891
  0
VERTEX
  8
0
 62
7
  6
CONTINUOUS
 10
186.203090929
 20
76.5306415737
  0
VERTEX
  8
0
 62
7
  6
CONTINUOUS
 10
186.3137015339
 20
75.9478546092
  0
VERTEX
  8
0
 62
7
  6
CONTINUOUS
 10
186.44031542
 20
75.3872689429
  0
VERTEX
  8
0
 62
7
  6
CONTINUOUS
 10
186.5829481744
 20
74.8537212646
  0
VERTEX
  8
0
 62
7
  6
CONTINUOUS
 10
186.7416460987
 20
74.3518708865
  0
VERTEX
  8
0
 62
7
  6
CONTINUOUS
 10
186.9166398803
 20
73.8860202812
  0
SEQEND
  0
LINE
  8
0
 62
7
  6
CONTINUOUS
 10
185.8666093154
 20
134.1641562996
 11
185.8666686207
 21
134.1631363598
  0
LINE
  8
0
 62
7
  6
CONTINUOUS
 10
195.5092090023
 20
138.4559702359
 11
195.4933042178
 21
138.3512428939
  0
POLYLINE
  8
0
 62
7
  6
CONTINUOUS
 66
1
 70
0
  0
VERTEX
  8
0
 62
7
  6
CONTINUOUS
 10
176.4063069975
 20
73.4827736486
  0
VERTEX
  8
0
 62
7
  6
CONTINUOUS
 10
176.5870337246
 20
73.8860203881
  0
VERTEX
  8
0
 62
7
  6
CONTINUOUS
 10
176.7620275424
 20
74.3518711193
  0
VERTEX
  8
0
 62
7
  6
CONTINUOUS
 10
176.9207254954
 20
74.8537216394
  0
VERTEX
  8
0
 62
7
  6
CONTINUOUS
 10
177.0633582711
 20
75.3872694728
  0
VERTEX
  8
0
 62
7
  6
CONTINUOUS
 10
177.189972171
 20
75.9478553037
  0
VERTEX
  8
0
 62
7
  6
CONTINUOUS
 10
177.3005827818
 20
76.5306424386
  0
VERTEX
  8
0
 62
7
  6
CONTINUOUS
 10
177.3952322416
 20
77.130624027
  0
VERTEX
  8
0
 62
7
  6
CONTINUOUS
 10
177.4666093484
 20
77.6789143715
  0
SEQEND
  0
POLYLINE
  8
0
 62
7
  6
CONTINUOUS
 66
1
 70
0
  0
VERTEX
  8
0
 62
7
  6
CONTINUOUS
 10
177.4666092975
 20
77.6789244929
  0
VERTEX
  8
0
 62
7
  6
CONTINUOUS
 10
177.4607975971
 20
77.6703275949
  0
VERTEX
  8
0
 62
7
  6
CONTINUOUS
 10
177.4417108442
 20
77.6615342765
  0
VERTEX
  8
0
 62
7
  6
CONTINUOUS
 10
177.4105095971
 20
77.6548058337
  0
VERTEX
  8
0
 62
7
  6
CONTINUOUS
 10
177.3691910512
 20
77.6504861303
  0
VERTEX
  8
0
 62
7
  6
CONTINUOUS
 10
177.3204947051
 20
77.6486972437
  0
VERTEX
  8
0
 62
7
  6
CONTINUOUS
 10
177.2666686236
 20
77.649256931
  0
SEQEND
  0
POLYLINE
  8
0
 62
7
  6
CONTINUOUS
 66
1
 70
0
  0
VERTEX
  8
0
 62
7
  6
CONTINUOUS
 10
213.1956631612
 20
139.8215381508
  0
VERTEX
  8
0
 62
7
  6
CONTINUOUS
 10
213.1248678335
 20
139.8179200177
  0
VERTEX
  8
0
 62
7
  6
CONTINUOUS
 10
212.9771447412
 20
139.7858434126
  0
VERTEX
  8
0
 62
7
  6
CONTINUOUS
 10
212.8422234236
 20
139.7230032746
  0
VERTEX
  8
0
 62
7
  6
CONTINUOUS
 10
212.7315895276
 20
139.6396197383
  0
VERTEX
  8
0
 62
7
  6
CONTINUOUS
 10
212.6478349916
 20
139.5484082436
  0
VERTEX
  8
0
 62
7
  6
CONTINUOUS
 10
212.5856947949
 20
139.4568651431
  0
VERTEX
  8
0
 62
7
  6
CONTINUOUS
 10
212.5376471256
 20
139.3654710193
  0
VERTEX
  8
0
 62
7
  6
CONTINUOUS
 10
212.4979546853
 20
139.2713573712
  0
VERTEX
  8
0
 62
7
  6
CONTINUOUS
 10
212.4629400546
 20
139.1706244708
  0
VERTEX
  8
0
 62
7
  6
CONTINUOUS
 10
212.4303635457
 20
139.0591887746
  0
VERTEX
  8
0
 62
7
  6
CONTINUOUS
 10
212.3989648682
 20
138.9333723927
  0
VERTEX
  8
0
 62
7
  6
CONTINUOUS
 10
212.3680287988
 20
138.7897680076
  0
VERTEX
  8
0
 62
7
  6
CONTINUOUS
 10
212.337137729
 20
138.6250042899
  0
VERTEX
  8
0
 62
7
  6
CONTINUOUS
 10
212.3092077151
 20
138.455961979
  0
SEQEND
  0
POLYLINE
  8
0
 62
7
  6
CONTINUOUS
 66
1
 70
0
  0
VERTEX
  8
0
 62
7
  6
CONTINUOUS
 10
229.9956516608
 20
139.8215381637
  0
VERTEX
  8
0
 62
7
  6
CONTINUOUS
 10
229.9330226583
 20
139.8187101301
  0
VERTEX
  8
0
 62
7
  6
CONTINUOUS
 10
229.7818264393
 20
139.7874051601
  0
VERTEX
  8
0
 62
7
  6
CONTINUOUS
 10
229.6403687567
 20
139.721873124
  0
VERTEX
  8
0
 62
7
  6
CONTINUOUS
 10
229.5230141502
 20
139.6315908927
  0
VERTEX
  8
0
 62
7
  6
CONTINUOUS
 10
229.4342859167
 20
139.5305183581
  0
VERTEX
  8
0
 62
7
  6
CONTINUOUS
 10
229.3691496499
 20
139.4277800193
  0
VERTEX
  8
0
 62
7
  6
CONTINUOUS
 10
229.3188193936
 20
139.3232252687
  0
VERTEX
  8
0
 62
7
  6
CONTINUOUS
 10
229.2766876442
 20
139.2123684983
  0
VERTEX
  8
0
 62
7
  6
CONTINUOUS
 10
229.2390295697
 20
139.0906408155
  0
VERTEX
  8
0
 62
7
  6
CONTINUOUS
 10
229.2039132731
 20
138.9544842039
  0
VERTEX
  8
0
 62
7
  6
CONTINUOUS
 10
229.1702861034
 20
138.8009471378
  0
VERTEX
  8
0
 62
7
  6
CONTINUOUS
 10
229.1377136218
 20
138.6282832189
  0
VERTEX
  8
0
 62
7
  6
CONTINUOUS
 10
229.1092067377
 20
138.4559557087
  0
SEQEND
  0
POLYLINE
  8
0
 62
6
  6
CONTINUOUS
 66
1
 70
0
  0
VERTEX
  8
0
 62
6
  6
CONTINUOUS
 10
230.9750950631
 20
134.1937727108
  0
VERTEX
  8
0
 62
6
  6
CONTINUOUS
 10
230.7880282098
 20
134.1877797678
  0
VERTEX
  8
0
 62
6
  6
CONTINUOUS
 10
230.6080735572
 20
134.1763713411
  0
VERTEX
  8
0
 62
6
  6
CONTINUOUS
 10
230.4414530671
 20
134.1600885155
  0
VERTEX
  8
0
 62
6
  6
CONTINUOUS
 10
230.2938446586
 20
134.1395879332
  0
VERTEX
  8
0
 62
6
  6
CONTINUOUS
 10
230.1701853698
 20
134.1156355582
  0
VERTEX
  8
0
 62
6
  6
CONTINUOUS
 10
230.0745186326
 20
134.0890945722
  0
VERTEX
  8
0
 62
6
  6
CONTINUOUS
 10
230.0098871988
 20
134.0609090384
  0
VERTEX
  8
0
 62
6
  6
CONTINUOUS
 10
229.9782743292
 20
134.032085853
  0
SEQEND
  0
POLYLINE
  8
0
 62
7
  6
CONTINUOUS
 66
1
 70
0
  0
VERTEX
  8
0
 62
7
  6
CONTINUOUS
 10
219.2666686236
 20
134.1938195776
  0
VERTEX
  8
0
 62
7
  6
CONTINUOUS
 10
219.3136972956
 20
134.1944315303
  0
VERTEX
  8
0
 62
7
  6
CONTINUOUS
 10
219.3572196366
 20
134.1932925094
  0
VERTEX
  8
0
 62
7
  6
CONTINUOUS
 10
219.3958710853
 20
134.1902075367
  0
VERTEX
  8
0
 62
7
  6
CONTINUOUS
 10
219.4275195088
 20
134.1851904023
  0
VERTEX
  8
0
 62
7
  6
CONTINUOUS
 10
219.450470023
 20
134.1784203865
  0
VERTEX
  8
0
 62
7
  6
CONTINUOUS
 10
219.4635957048
 20
134.1702057128
  0
VERTEX
  8
0
 62
7
  6
CONTINUOUS
 10
219.4666093154
 20
134.1641562996
  0
SEQEND
  0
POLYLINE
  8
0
 62
7
  6
CONTINUOUS
 66
1
 70
0
  0
VERTEX
  8
0
 62
7
  6
CONTINUOUS
 10
202.4666686236
 20
134.1938195776
  0
VERTEX
  8
0
 62
7
  6
CONTINUOUS
 10
202.5136972956
 20
134.1944315303
  0
VERTEX
  8
0
 62
7
  6
CONTINUOUS
 10
202.5572196366
 20
134.1932925094
  0
VERTEX
  8
0
 62
7
  6
CONTINUOUS
 10
202.5958710853
 20
134.1902075367
  0
VERTEX
  8
0
 62
7
  6
CONTINUOUS
 10
202.6275195088
 20
134.1851904023
  0
VERTEX
  8
0
 62
7
  6
CONTINUOUS
 10
202.650470023
 20
134.1784203865
  0
VERTEX
  8
0
 62
7
  6
CONTINUOUS
 10
202.6635957048
 20
134.1702057128
  0
VERTEX
  8
0
 62
7
  6
CONTINUOUS
 10
202.6666093154
 20
134.1641562996
  0
SEQEND
  0
POLYLINE
  8
0
 62
7
  6
CONTINUOUS
 66
1
 70
0
  0
VERTEX
  8
0
 62
7
  6
CONTINUOUS
 10
185.6666686236
 20
134.1938195776
  0
VERTEX
  8
0
 62
7
  6
CONTINUOUS
 10
185.7136972956
 20
134.1944315303
  0
VERTEX
  8
0
 62
7
  6
CONTINUOUS
 10
185.7572196366
 20
134.1932925094
  0
VERTEX
  8
0
 62
7
  6
CONTINUOUS
 10
185.7958710853
 20
134.1902075367
  0
VERTEX
  8
0
 62
7
  6
CONTINUOUS
 10
185.8275195088
 20
134.1851904023
  0
VERTEX
  8
0
 62
7
  6
CONTINUOUS
 10
185.850470023
 20
134.1784203865
  0
VERTEX
  8
0
 62
7
  6
CONTINUOUS
 10
185.8635957048
 20
134.1702057128
  0
VERTEX
  8
0
 62
7
  6
CONTINUOUS
 10
185.8666093154
 20
134.1641562996
  0
SEQEND
  0
POLYLINE
  8
0
 62
7
  6
CONTINUOUS
 66
1
 70
0
  0
VERTEX
  8
0
 62
7
  6
CONTINUOUS
 10
168.8666686236
 20
134.1938195776
  0
VERTEX
  8
0
 62
7
  6
CONTINUOUS
 10
168.9136972956
 20
134.1944315303
  0
VERTEX
  8
0
 62
7
  6
CONTINUOUS
 10
168.9572196366
 20
134.1932925094
  0
VERTEX
  8
0
 62
7
  6
CONTINUOUS
 10
168.9958710853
 20
134.1902075367
  0
VERTEX
  8
0
 62
7
  6
CONTINUOUS
 10
169.0275195088
 20
134.1851904023
  0
VERTEX
  8
0
 62
7
  6
CONTINUOUS
 10
169.050470023
 20
134.1784203865
  0
VERTEX
  8
0
 62
7
  6
CONTINUOUS
 10
169.0635957048
 20
134.1702057128
  0
VERTEX
  8
0
 62
7
  6
CONTINUOUS
 10
169.0666093154
 20
134.1641562996
  0
SEQEND
  0
POLYLINE
  8
0
 62
7
  6
CONTINUOUS
 66
1
 70
0
  0
VERTEX
  8
0
 62
7
  6
CONTINUOUS
 10
152.0666686236
 20
134.1938195776
  0
VERTEX
  8
0
 62
7
  6
CONTINUOUS
 10
152.1136972956
 20
134.1944315303
  0
VERTEX
  8
0
 62
7
  6
CONTINUOUS
 10
152.1572196366
 20
134.1932925094
  0
VERTEX
  8
0
 62
7
  6
CONTINUOUS
 10
152.1958710853
 20
134.1902075367
  0
VERTEX
  8
0
 62
7
  6
CONTINUOUS
 10
152.2275195088
 20
134.1851904023
  0
VERTEX
  8
0
 62
7
  6
CONTINUOUS
 10
152.250470023
 20
134.1784203865
  0
VERTEX
  8
0
 62
7
  6
CONTINUOUS
 10
152.2635957048
 20
134.1702057128
  0
VERTEX
  8
0
 62
7
  6
CONTINUOUS
 10
152.2666093154
 20
134.1641562996
  0
SEQEND
  0
POLYLINE
  8
0
 62
7
  6
CONTINUOUS
 66
1
 70
0
  0
VERTEX
  8
0
 62
7
  6
CONTINUOUS
 10
135.2666686236
 20
134.1938195776
  0
VERTEX
  8
0
 62
7
  6
CONTINUOUS
 10
135.3136972956
 20
134.1944315303
  0
VERTEX
  8
0
 62
7
  6
CONTINUOUS
 10
135.3572196366
 20
134.1932925094
  0
VERTEX
  8
0
 62
7
  6
CONTINUOUS
 10
135.3958710853
 20
134.1902075367
  0
VERTEX
  8
0
 62
7
  6
CONTINUOUS
 10
135.4275195088
 20
134.1851904023
  0
VERTEX
  8
0
 62
7
  6
CONTINUOUS
 10
135.450470023
 20
134.1784203865
  0
VERTEX
  8
0
 62
7
  6
CONTINUOUS
 10
135.4635957048
 20
134.1702057128
  0
VERTEX
  8
0
 62
7
  6
CONTINUOUS
 10
135.4666093154
 20
134.1641562996
  0
SEQEND
  0
POLYLINE
  8
0
 62
7
  6
CONTINUOUS
 66
1
 70
0
  0
VERTEX
  8
0
 62
7
  6
CONTINUOUS
 10
118.4666686236
 20
134.1938195776
  0
VERTEX
  8
0
 62
7
  6
CONTINUOUS
 10
118.5136972956
 20
134.1944315303
  0
VERTEX
  8
0
 62
7
  6
CONTINUOUS
 10
118.5572196366
 20
134.1932925094
  0
VERTEX
  8
0
 62
7
  6
CONTINUOUS
 10
118.5958710853
 20
134.1902075367
  0
VERTEX
  8
0
 62
7
  6
CONTINUOUS
 10
118.6275195088
 20
134.1851904023
  0
VERTEX
  8
0
 62
7
  6
CONTINUOUS
 10
118.650470023
 20
134.1784203865
  0
VERTEX
  8
0
 62
7
  6
CONTINUOUS
 10
118.6635957048
 20
134.1702057128
  0
VERTEX
  8
0
 62
7
  6
CONTINUOUS
 10
118.6666093154
 20
134.1641562996
  0
SEQEND
  0
POLYLINE
  8
0
 62
7
  6
CONTINUOUS
 66
1
 70
0
  0
VERTEX
  8
0
 62
7
  6
CONTINUOUS
 10
101.6666686236
 20
134.1938195776
  0
VERTEX
  8
0
 62
7
  6
CONTINUOUS
 10
101.7136972956
 20
134.1944315303
  0
VERTEX
  8
0
 62
7
  6
CONTINUOUS
 10
101.7572196366
 20
134.1932925094
  0
VERTEX
  8
0
 62
7
  6
CONTINUOUS
 10
101.7958710853
 20
134.1902075367
  0
VERTEX
  8
0
 62
7
  6
CONTINUOUS
 10
101.8275195088
 20
134.1851904023
  0
VERTEX
  8
0
 62
7
  6
CONTINUOUS
 10
101.850470023
 20
134.1784203865
  0
VERTEX
  8
0
 62
7
  6
CONTINUOUS
 10
101.8635957048
 20
134.1702057128
  0
VERTEX
  8
0
 62
7
  6
CONTINUOUS
 10
101.8666093154
 20
134.1641562996
  0
SEQEND
  0
LINE
  8
0
 62
6
  6
CONTINUOUS
 10
230.9750950631
 20
134.1937727108
 11
230.9807333673
 21
134.1938195758
  0
LINE
  8
0
 62
6
  6
CONTINUOUS
 10
219.2687045977
 20
134.1938195776
 11
219.2666686236
 21
134.1938195776
  0
LINE
  8
0
 62
7
  6
CONTINUOUS
 10
219.2666686236
 20
134.1938195776
 11
211.4370049373
 21
134.1938195776
  0
LINE
  8
0
 62
7
  6
CONTINUOUS
 10
202.4666686236
 20
134.1938195776
 11
194.6370049373
 21
134.1938195776
  0
LINE
  8
0
 62
7
  6
CONTINUOUS
 10
185.6666686236
 20
134.1938195776
 11
177.8370049373
 21
134.1938195776
  0
LINE
  8
0
 62
7
  6
CONTINUOUS
 10
168.8666686236
 20
134.1938195776
 11
161.0370049373
 21
134.1938195776
  0
LINE
  8
0
 62
7
  6
CONTINUOUS
 10
152.0666686236
 20
134.1938195776
 11
144.2370049373
 21
134.1938195776
  0
LINE
  8
0
 62
7
  6
CONTINUOUS
 10
135.2666686236
 20
134.1938195776
 11
127.4370049373
 21
134.1938195776
  0
LINE
  8
0
 62
7
  6
CONTINUOUS
 10
118.4666686236
 20
134.1938195776
 11
110.6370049373
 21
134.1938195776
  0
LINE
  8
0
 62
7
  6
CONTINUOUS
 10
101.6666686236
 20
134.1938195776
 11
93.8370049373
 21
134.1938195776
  0
LINE
  8
0
 62
7
  6
CONTINUOUS
 10
228.2370049373
 20
134.1938195776
 11
236.0518367805
 21
134.1938195776
  0
LINE
  8
0
 62
6
  6
CONTINUOUS
 10
228.2349689632
 20
134.1938195776
 11
228.2370049373
 21
134.1938195776
  0
LINE
  8
0
 62
6
  6
CONTINUOUS
 10
216.5285784979
 20
134.1937727108
 11
216.5229401936
 21
134.1938195758
  0
POLYLINE
  8
0
 62
7
  6
CONTINUOUS
 66
1
 70
0
  0
VERTEX
  8
0
 62
7
  6
CONTINUOUS
 10
93.8370049373
 20
134.1938195776
  0
VERTEX
  8
0
 62
7
  6
CONTINUOUS
 10
93.7899762654
 20
134.1944315303
  0
VERTEX
  8
0
 62
7
  6
CONTINUOUS
 10
93.7464539243
 20
134.1932925094
  0
VERTEX
  8
0
 62
7
  6
CONTINUOUS
 10
93.7078024757
 20
134.1902075367
  0
VERTEX
  8
0
 62
7
  6
CONTINUOUS
 10
93.6761540521
 20
134.1851904023
  0
VERTEX
  8
0
 62
7
  6
CONTINUOUS
 10
93.653203538
 20
134.1784203865
  0
VERTEX
  8
0
 62
7
  6
CONTINUOUS
 10
93.6400778561
 20
134.1702057128
  0
VERTEX
  8
0
 62
7
  6
CONTINUOUS
 10
93.6370642455
 20
134.1641562996
  0
SEQEND
  0
POLYLINE
  8
0
 62
7
  6
CONTINUOUS
 66
1
 70
0
  0
VERTEX
  8
0
 62
7
  6
CONTINUOUS
 10
110.6370049373
 20
134.1938195776
  0
VERTEX
  8
0
 62
7
  6
CONTINUOUS
 10
110.5899762654
 20
134.1944315303
  0
VERTEX
  8
0
 62
7
  6
CONTINUOUS
 10
110.5464539243
 20
134.1932925094
  0
VERTEX
  8
0
 62
7
  6
CONTINUOUS
 10
110.5078024757
 20
134.1902075367
  0
VERTEX
  8
0
 62
7
  6
CONTINUOUS
 10
110.4761540521
 20
134.1851904023
  0
VERTEX
  8
0
 62
7
  6
CONTINUOUS
 10
110.453203538
 20
134.1784203865
  0
VERTEX
  8
0
 62
7
  6
CONTINUOUS
 10
110.4400778561
 20
134.1702057128
  0
VERTEX
  8
0
 62
7
  6
CONTINUOUS
 10
110.4370642455
 20
134.1641562996
  0
SEQEND
  0
POLYLINE
  8
0
 62
7
  6
CONTINUOUS
 66
1
 70
0
  0
VERTEX
  8
0
 62
7
  6
CONTINUOUS
 10
127.4370049373
 20
134.1938195776
  0
VERTEX
  8
0
 62
7
  6
CONTINUOUS
 10
127.3899762654
 20
134.1944315303
  0
VERTEX
  8
0
 62
7
  6
CONTINUOUS
 10
127.3464539243
 20
134.1932925094
  0
VERTEX
  8
0
 62
7
  6
CONTINUOUS
 10
127.3078024757
 20
134.1902075367
  0
VERTEX
  8
0
 62
7
  6
CONTINUOUS
 10
127.2761540521
 20
134.1851904023
  0
VERTEX
  8
0
 62
7
  6
CONTINUOUS
 10
127.253203538
 20
134.1784203865
  0
VERTEX
  8
0
 62
7
  6
CONTINUOUS
 10
127.2400778561
 20
134.1702057128
  0
VERTEX
  8
0
 62
7
  6
CONTINUOUS
 10
127.2370642455
 20
134.1641562996
  0
SEQEND
  0
POLYLINE
  8
0
 62
7
  6
CONTINUOUS
 66
1
 70
0
  0
VERTEX
  8
0
 62
7
  6
CONTINUOUS
 10
144.2370049373
 20
134.1938195776
  0
VERTEX
  8
0
 62
7
  6
CONTINUOUS
 10
144.1899762654
 20
134.1944315303
  0
VERTEX
  8
0
 62
7
  6
CONTINUOUS
 10
144.1464539243
 20
134.1932925094
  0
VERTEX
  8
0
 62
7
  6
CONTINUOUS
 10
144.1078024757
 20
134.1902075367
  0
VERTEX
  8
0
 62
7
  6
CONTINUOUS
 10
144.0761540521
 20
134.1851904023
  0
VERTEX
  8
0
 62
7
  6
CONTINUOUS
 10
144.053203538
 20
134.1784203865
  0
VERTEX
  8
0
 62
7
  6
CONTINUOUS
 10
144.0400778561
 20
134.1702057128
  0
VERTEX
  8
0
 62
7
  6
CONTINUOUS
 10
144.0370642455
 20
134.1641562996
  0
SEQEND
  0
POLYLINE
  8
0
 62
7
  6
CONTINUOUS
 66
1
 70
0
  0
VERTEX
  8
0
 62
7
  6
CONTINUOUS
 10
161.0370049373
 20
134.1938195776
  0
VERTEX
  8
0
 62
7
  6
CONTINUOUS
 10
160.9899762654
 20
134.1944315303
  0
VERTEX
  8
0
 62
7
  6
CONTINUOUS
 10
160.9464539243
 20
134.1932925094
  0
VERTEX
  8
0
 62
7
  6
CONTINUOUS
 10
160.9078024757
 20
134.1902075367
  0
VERTEX
  8
0
 62
7
  6
CONTINUOUS
 10
160.8761540521
 20
134.1851904023
  0
VERTEX
  8
0
 62
7
  6
CONTINUOUS
 10
160.853203538
 20
134.1784203865
  0
VERTEX
  8
0
 62
7
  6
CONTINUOUS
 10
160.8400778561
 20
134.1702057128
  0
VERTEX
  8
0
 62
7
  6
CONTINUOUS
 10
160.8370642455
 20
134.1641562996
  0
SEQEND
  0
POLYLINE
  8
0
 62
7
  6
CONTINUOUS
 66
1
 70
0
  0
VERTEX
  8
0
 62
7
  6
CONTINUOUS
 10
177.8370049373
 20
134.1938195776
  0
VERTEX
  8
0
 62
7
  6
CONTINUOUS
 10
177.7899762654
 20
134.1944315303
  0
VERTEX
  8
0
 62
7
  6
CONTINUOUS
 10
177.7464539243
 20
134.1932925094
  0
VERTEX
  8
0
 62
7
  6
CONTINUOUS
 10
177.7078024757
 20
134.1902075367
  0
VERTEX
  8
0
 62
7
  6
CONTINUOUS
 10
177.6761540521
 20
134.1851904023
  0
VERTEX
  8
0
 62
7
  6
CONTINUOUS
 10
177.653203538
 20
134.1784203865
  0
VERTEX
  8
0
 62
7
  6
CONTINUOUS
 10
177.6400778561
 20
134.1702057128
  0
VERTEX
  8
0
 62
7
  6
CONTINUOUS
 10
177.6370642455
 20
134.1641562996
  0
SEQEND
  0
POLYLINE
  8
0
 62
7
  6
CONTINUOUS
 66
1
 70
0
  0
VERTEX
  8
0
 62
7
  6
CONTINUOUS
 10
194.6370049373
 20
134.1938195776
  0
VERTEX
  8
0
 62
7
  6
CONTINUOUS
 10
194.5899762654
 20
134.1944315303
  0
VERTEX
  8
0
 62
7
  6
CONTINUOUS
 10
194.5464539243
 20
134.1932925094
  0
VERTEX
  8
0
 62
7
  6
CONTINUOUS
 10
194.5078024757
 20
134.1902075367
  0
VERTEX
  8
0
 62
7
  6
CONTINUOUS
 10
194.4761540521
 20
134.1851904023
  0
VERTEX
  8
0
 62
7
  6
CONTINUOUS
 10
194.453203538
 20
134.1784203865
  0
VERTEX
  8
0
 62
7
  6
CONTINUOUS
 10
194.4400778561
 20
134.1702057128
  0
VERTEX
  8
0
 62
7
  6
CONTINUOUS
 10
194.4370642455
 20
134.1641562996
  0
SEQEND
  0
POLYLINE
  8
0
 62
7
  6
CONTINUOUS
 66
1
 70
0
  0
VERTEX
  8
0
 62
7
  6
CONTINUOUS
 10
211.4370049373
 20
134.1938195776
  0
VERTEX
  8
0
 62
7
  6
CONTINUOUS
 10
211.3899762654
 20
134.1944315303
  0
VERTEX
  8
0
 62
7
  6
CONTINUOUS
 10
211.3464539243
 20
134.1932925094
  0
VERTEX
  8
0
 62
7
  6
CONTINUOUS
 10
211.3078024757
 20
134.1902075367
  0
VERTEX
  8
0
 62
7
  6
CONTINUOUS
 10
211.2761540521
 20
134.1851904023
  0
VERTEX
  8
0
 62
7
  6
CONTINUOUS
 10
211.253203538
 20
134.1784203865
  0
VERTEX
  8
0
 62
7
  6
CONTINUOUS
 10
211.2400778561
 20
134.1702057128
  0
VERTEX
  8
0
 62
7
  6
CONTINUOUS
 10
211.2370642455
 20
134.1641562996
  0
SEQEND
  0
POLYLINE
  8
0
 62
7
  6
CONTINUOUS
 66
1
 70
0
  0
VERTEX
  8
0
 62
7
  6
CONTINUOUS
 10
228.2370049373
 20
134.1938195776
  0
VERTEX
  8
0
 62
7
  6
CONTINUOUS
 10
228.1899762654
 20
134.1944315303
  0
VERTEX
  8
0
 62
7
  6
CONTINUOUS
 10
228.1464539243
 20
134.1932925094
  0
VERTEX
  8
0
 62
7
  6
CONTINUOUS
 10
228.1078024757
 20
134.1902075367
  0
VERTEX
  8
0
 62
7
  6
CONTINUOUS
 10
228.0761540521
 20
134.1851904023
  0
VERTEX
  8
0
 62
7
  6
CONTINUOUS
 10
228.053203538
 20
134.1784203865
  0
VERTEX
  8
0
 62
7
  6
CONTINUOUS
 10
228.0400778561
 20
134.1702057128
  0
VERTEX
  8
0
 62
7
  6
CONTINUOUS
 10
228.0370642455
 20
134.1641562996
  0
SEQEND
  0
POLYLINE
  8
0
 62
6
  6
CONTINUOUS
 66
1
 70
0
  0
VERTEX
  8
0
 62
6
  6
CONTINUOUS
 10
216.5285784979
 20
134.1937727108
  0
VERTEX
  8
0
 62
6
  6
CONTINUOUS
 10
216.7156453512
 20
134.1877797678
  0
VERTEX
  8
0
 62
6
  6
CONTINUOUS
 10
216.8956000038
 20
134.1763713411
  0
VERTEX
  8
0
 62
6
  6
CONTINUOUS
 10
217.0622204939
 20
134.1600885155
  0
VERTEX
  8
0
 62
6
  6
CONTINUOUS
 10
217.2098289023
 20
134.1395879332
  0
VERTEX
  8
0
 62
6
  6
CONTINUOUS
 10
217.3334881912
 20
134.1156355582
  0
VERTEX
  8
0
 62
6
  6
CONTINUOUS
 10
217.4291549283
 20
134.0890945722
  0
VERTEX
  8
0
 62
6
  6
CONTINUOUS
 10
217.4937863622
 20
134.0609090384
  0
VERTEX
  8
0
 62
6
  6
CONTINUOUS
 10
217.5253992317
 20
134.032085853
  0
SEQEND
  0
LINE
  8
0
 62
7
  6
CONTINUOUS
 10
203.7166398803
 20
73.8860202812
 11
203.8973665635
 21
73.4827736486
  0
POLYLINE
  8
0
 62
7
  6
CONTINUOUS
 66
1
 70
0
  0
VERTEX
  8
0
 62
7
  6
CONTINUOUS
 10
184.7944658378
 20
138.4559620306
  0
VERTEX
  8
0
 62
7
  6
CONTINUOUS
 10
184.7665791921
 20
138.624757084
  0
VERTEX
  8
0
 62
7
  6
CONTINUOUS
 10
184.7357352907
 20
138.7893173003
  0
VERTEX
  8
0
 62
7
  6
CONTINUOUS
 10
184.7048515399
 20
138.9327555769
  0
VERTEX
  8
0
 62
7
  6
CONTINUOUS
 10
184.6735134933
 20
139.0584338774
  0
VERTEX
  8
0
 62
7
  6
CONTINUOUS
 10
184.641012108
 20
139.1697475477
  0
VERTEX
  8
0
 62
7
  6
CONTINUOUS
 10
184.6060998051
 20
139.2703571692
  0
VERTEX
  8
0
 62
7
  6
CONTINUOUS
 10
184.5665631779
 20
139.3643220403
  0
VERTEX
  8
0
 62
7
  6
CONTINUOUS
 10
184.5187745867
 20
139.4555178213
  0
VERTEX
  8
0
 62
7
  6
CONTINUOUS
 10
184.4570655434
 20
139.5468299977
  0
VERTEX
  8
0
 62
7
  6
CONTINUOUS
 10
184.3739684761
 20
139.6378777516
  0
VERTEX
  8
0
 62
7
  6
CONTINUOUS
 10
184.264163211
 20
139.7213473107
  0
VERTEX
  8
0
 62
7
  6
CONTINUOUS
 10
184.1300094289
 20
139.7846576179
  0
VERTEX
  8
0
 62
7
  6
CONTINUOUS
 10
183.9827631736
 20
139.8175010933
  0
VERTEX
  8
0
 62
7
  6
CONTINUOUS
 10
183.9080074679
 20
139.8215381473
  0
SEQEND
  0
LINE
  8
0
 62
7
  6
CONTINUOUS
 10
184.8103693432
 20
138.3512428939
 11
184.7944645587
 21
138.4559702359
  0
POLYLINE
  8
0
 62
7
  6
CONTINUOUS
 66
1
 70
0
  0
VERTEX
  8
0
 62
7
  6
CONTINUOUS
 10
185.866609345
 20
134.1641621653
  0
VERTEX
  8
0
 62
7
  6
CONTINUOUS
 10
185.7947315313
 20
134.7159552867
  0
VERTEX
  8
0
 62
7
  6
CONTINUOUS
 10
185.70000268
 20
135.3157802136
  0
VERTEX
  8
0
 62
7
  6
CONTINUOUS
 10
185.5893151489
 20
135.8983910191
  0
VERTEX
  8
0
 62
7
  6
CONTINUOUS
 10
185.4626269154
 20
136.4587820409
  0
VERTEX
  8
0
 62
7
  6
CONTINUOUS
 10
185.3199221696
 20
136.9921182431
  0
VERTEX
  8
0
 62
7
  6
CONTINUOUS
 10
185.1611537677
 20
137.4937427235
  0
VERTEX
  8
0
 62
7
  6
CONTINUOUS
 10
184.9860892295
 20
137.9593557644
  0
SEQEND
  0
POLYLINE
  8
0
 62
7
  6
CONTINUOUS
 66
1
 70
0
  0
VERTEX
  8
0
 62
7
  6
CONTINUOUS
 10
194.4399565041
 20
128.335964486
  0
VERTEX
  8
0
 62
7
  6
CONTINUOUS
 10
194.443929481
 20
128.0426423671
  0
VERTEX
  8
0
 62
7
  6
CONTINUOUS
 10
194.4440558045
 20
127.963048824
  0
VERTEX
  8
0
 62
7
  6
CONTINUOUS
 10
194.4427771251
 20
127.8839861628
  0
VERTEX
  8
0
 62
7
  6
CONTINUOUS
 10
194.4398906482
 20
127.8057344386
  0
VERTEX
  8
0
 62
7
  6
CONTINUOUS
 10
194.4351752462
 20
127.7285161946
  0
VERTEX
  8
0
 62
7
  6
CONTINUOUS
 10
194.4284323257
 20
127.6525511457
  0
VERTEX
  8
0
 62
7
  6
CONTINUOUS
 10
194.4194859795
 20
127.578272001
  0
VERTEX
  8
0
 62
7
  6
CONTINUOUS
 10
194.4081664623
 20
127.5061870027
  0
VERTEX
  8
0
 62
7
  6
CONTINUOUS
 10
194.3942750631
 20
127.4360823338
  0
VERTEX
  8
0
 62
7
  6
CONTINUOUS
 10
194.3775751872
 20
127.3684321817
  0
VERTEX
  8
0
 62
7
  6
CONTINUOUS
 10
194.3578606453
 20
127.3043639974
  0
VERTEX
  8
0
 62
7
  6
CONTINUOUS
 10
194.3345139677
 20
127.2448741723
  0
VERTEX
  8
0
 62
7
  6
CONTINUOUS
 10
194.3070455446
 20
127.1896052235
  0
VERTEX
  8
0
 62
7
  6
CONTINUOUS
 10
194.276030668
 20
127.1401606942
  0
VERTEX
  8
0
 62
7
  6
CONTINUOUS
 10
194.242587982
 20
127.0979817213
  0
VERTEX
  8
0
 62
7
  6
CONTINUOUS
 10
194.2067180907
 20
127.0627074295
  0
VERTEX
  8
0
 62
7
  6
CONTINUOUS
 10
194.1683979153
 20
127.034411618
  0
VERTEX
  8
0
 62
7
  6
CONTINUOUS
 10
194.1275669148
 20
127.0137015124
  0
VERTEX
  8
0
 62
7
  6
CONTINUOUS
 10
194.0847700921
 20
127.0021132504
  0
VERTEX
  8
0
 62
7
  6
CONTINUOUS
 10
194.0614002938
 20
127.0003467402
  0
SEQEND
  0
POLYLINE
  8
0
 62
7
  6
CONTINUOUS
 66
1
 70
0
  0
VERTEX
  8
0
 62
7
  6
CONTINUOUS
 10
194.2636701921
 20
83.5110797526
  0
VERTEX
  8
0
 62
7
  6
CONTINUOUS
 10
194.2597004712
 20
83.8051115236
  0
VERTEX
  8
0
 62
7
  6
CONTINUOUS
 10
194.2596538047
 20
83.8849806966
  0
VERTEX
  8
0
 62
7
  6
CONTINUOUS
 10
194.2610305694
 20
83.9641561598
  0
VERTEX
  8
0
 62
7
  6
CONTINUOUS
 10
194.2640296788
 20
84.0423781336
  0
VERTEX
  8
0
 62
7
  6
CONTINUOUS
 10
194.2688652486
 20
84.1194492531
  0
VERTEX
  8
0
 62
7
  6
CONTINUOUS
 10
194.2757263784
 20
84.1951624257
  0
VERTEX
  8
0
 62
7
  6
CONTINUOUS
 10
194.2847822768
 20
84.2690896945
  0
VERTEX
  8
0
 62
7
  6
CONTINUOUS
 10
194.2961979326
 20
84.3407848708
  0
VERTEX
  8
0
 62
7
  6
CONTINUOUS
 10
194.3101539086
 20
84.4103838929
  0
VERTEX
  8
0
 62
7
  6
CONTINUOUS
 10
194.3269216632
 20
84.4776194789
  0
VERTEX
  8
0
 62
7
  6
CONTINUOUS
 10
194.3466238151
 20
84.5410485199
  0
VERTEX
  8
0
 62
7
  6
CONTINUOUS
 10
194.3699752131
 20
84.6000434123
  0
VERTEX
  8
0
 62
7
  6
CONTINUOUS
 10
194.3973780967
 20
84.6548134173
  0
VERTEX
  8
0
 62
7
  6
CONTINUOUS
 10
194.4282272304
 20
84.7037446847
  0
VERTEX
  8
0
 62
7
  6
CONTINUOUS
 10
194.4616912334
 20
84.7457710475
  0
VERTEX
  8
0
 62
7
  6
CONTINUOUS
 10
194.4978264353
 20
84.7811147222
  0
VERTEX
  8
0
 62
7
  6
CONTINUOUS
 10
194.536589677
 20
84.8094798656
  0
VERTEX
  8
0
 62
7
  6
CONTINUOUS
 10
194.5778632767
 20
84.8300561633
  0
VERTEX
  8
0
 62
7
  6
CONTINUOUS
 10
194.6208606128
 20
84.8412391904
  0
VERTEX
  8
0
 62
7
  6
CONTINUOUS
 10
194.642099516
 20
84.8427292027
  0
SEQEND
  0
LINE
  8
0
 62
7
  6
CONTINUOUS
 10
194.2661122467
 20
83.2280655836
 11
194.2636701921
 21
83.5110797526
  0
LINE
  8
0
 62
7
  6
CONTINUOUS
 10
194.4375405297
 20
128.6189862227
 11
194.4399565041
 21
128.335964486
  0
LINE
  8
0
 62
7
  6
CONTINUOUS
 10
194.2661122467
 20
83.2280655836
 11
194.2666686236
 21
77.679964643
  0
LINE
  8
0
 62
7
  6
CONTINUOUS
 10
194.4370049373
 20
134.1630743483
 11
194.4375405297
 21
128.6189862227
  0
LINE
  8
0
 62
7
  6
CONTINUOUS
 10
194.4370642455
 20
134.1641562996
 11
194.4370049403
 21
134.1631363598
  0
LINE
  8
0
 62
7
  6
CONTINUOUS
 10
194.2666686236
 20
77.67993253
 11
194.2666092975
 21
77.6789244929
  0
LINE
  8
0
 62
7
  6
CONTINUOUS
 10
193.1944646943
 20
73.3871071426
 11
193.2103670687
 21
73.4918326876
  0
POLYLINE
  8
0
 62
7
  6
CONTINUOUS
 66
1
 70
0
  0
VERTEX
  8
0
 62
7
  6
CONTINUOUS
 10
212.2973676066
 20
138.3603049861
  0
VERTEX
  8
0
 62
7
  6
CONTINUOUS
 10
212.1175843314
 20
137.9593557644
  0
VERTEX
  8
0
 62
7
  6
CONTINUOUS
 10
211.9425197933
 20
137.4937427235
  0
VERTEX
  8
0
 62
7
  6
CONTINUOUS
 10
211.7837513914
 20
136.9921182431
  0
VERTEX
  8
0
 62
7
  6
CONTINUOUS
 10
211.6410466456
 20
136.4587820409
  0
VERTEX
  8
0
 62
7
  6
CONTINUOUS
 10
211.514358412
 20
135.8983910191
  0
VERTEX
  8
0
 62
7
  6
CONTINUOUS
 10
211.403670881
 20
135.3157802136
  0
VERTEX
  8
0
 62
7
  6
CONTINUOUS
 10
211.3089420297
 20
134.7159552867
  0
VERTEX
  8
0
 62
7
  6
CONTINUOUS
 10
211.2370642159
 20
134.1641621653
  0
SEQEND
  0
POLYLINE
  8
0
 62
7
  6
CONTINUOUS
 66
1
 70
0
  0
VERTEX
  8
0
 62
7
  6
CONTINUOUS
 10
196.3956631612
 20
139.8215381508
  0
VERTEX
  8
0
 62
7
  6
CONTINUOUS
 10
196.3248678335
 20
139.8179200177
  0
VERTEX
  8
0
 62
7
  6
CONTINUOUS
 10
196.1771447412
 20
139.7858434126
  0
VERTEX
  8
0
 62
7
  6
CONTINUOUS
 10
196.0422234236
 20
139.7230032746
  0
VERTEX
  8
0
 62
7
  6
CONTINUOUS
 10
195.9315895276
 20
139.6396197383
  0
VERTEX
  8
0
 62
7
  6
CONTINUOUS
 10
195.8478349916
 20
139.5484082436
  0
VERTEX
  8
0
 62
7
  6
CONTINUOUS
 10
195.7856947949
 20
139.4568651431
  0
VERTEX
  8
0
 62
7
  6
CONTINUOUS
 10
195.7376471256
 20
139.3654710193
  0
VERTEX
  8
0
 62
7
  6
CONTINUOUS
 10
195.6979546853
 20
139.2713573712
  0
VERTEX
  8
0
 62
7
  6
CONTINUOUS
 10
195.6629400546
 20
139.1706244708
  0
VERTEX
  8
0
 62
7
  6
CONTINUOUS
 10
195.6303635457
 20
139.0591887746
  0
VERTEX
  8
0
 62
7
  6
CONTINUOUS
 10
195.5989648682
 20
138.9333723927
  0
VERTEX
  8
0
 62
7
  6
CONTINUOUS
 10
195.5680287988
 20
138.7897680076
  0
VERTEX
  8
0
 62
7
  6
CONTINUOUS
 10
195.537137729
 20
138.6250042899
  0
VERTEX
  8
0
 62
7
  6
CONTINUOUS
 10
195.5092077151
 20
138.455961979
  0
SEQEND
  0
POLYLINE
  8
0
 62
7
  6
CONTINUOUS
 66
1
 70
0
  0
VERTEX
  8
0
 62
7
  6
CONTINUOUS
 10
179.5956631612
 20
139.8215381508
  0
VERTEX
  8
0
 62
7
  6
CONTINUOUS
 10
179.5248678335
 20
139.8179200177
  0
VERTEX
  8
0
 62
7
  6
CONTINUOUS
 10
179.3771447412
 20
139.7858434126
  0
VERTEX
  8
0
 62
7
  6
CONTINUOUS
 10
179.2422234236
 20
139.7230032746
  0
VERTEX
  8
0
 62
7
  6
CONTINUOUS
 10
179.1315895276
 20
139.6396197383
  0
VERTEX
  8
0
 62
7
  6
CONTINUOUS
 10
179.0478349916
 20
139.5484082436
  0
VERTEX
  8
0
 62
7
  6
CONTINUOUS
 10
178.9856947949
 20
139.4568651431
  0
VERTEX
  8
0
 62
7
  6
CONTINUOUS
 10
178.9376471256
 20
139.3654710193
  0
VERTEX
  8
0
 62
7
  6
CONTINUOUS
 10
178.8979546853
 20
139.2713573712
  0
VERTEX
  8
0
 62
7
  6
CONTINUOUS
 10
178.8629400546
 20
139.1706244708
  0
VERTEX
  8
0
 62
7
  6
CONTINUOUS
 10
178.8303635457
 20
139.0591887746
  0
VERTEX
  8
0
 62
7
  6
CONTINUOUS
 10
178.7989648682
 20
138.9333723927
  0
VERTEX
  8
0
 62
7
  6
CONTINUOUS
 10
178.7680287988
 20
138.7897680076
  0
VERTEX
  8
0
 62
7
  6
CONTINUOUS
 10
178.737137729
 20
138.6250042899
  0
VERTEX
  8
0
 62
7
  6
CONTINUOUS
 10
178.7092077151
 20
138.455961979
  0
SEQEND
  0
POLYLINE
  8
0
 62
7
  6
CONTINUOUS
 66
1
 70
0
  0
VERTEX
  8
0
 62
7
  6
CONTINUOUS
 10
162.7956631612
 20
139.8215381508
  0
VERTEX
  8
0
 62
7
  6
CONTINUOUS
 10
162.7248678335
 20
139.8179200177
  0
VERTEX
  8
0
 62
7
  6
CONTINUOUS
 10
162.5771447412
 20
139.7858434126
  0
VERTEX
  8
0
 62
7
  6
CONTINUOUS
 10
162.4422234236
 20
139.7230032746
  0
VERTEX
  8
0
 62
7
  6
CONTINUOUS
 10
162.3315895276
 20
139.6396197383
  0
VERTEX
  8
0
 62
7
  6
CONTINUOUS
 10
162.2478349916
 20
139.5484082436
  0
VERTEX
  8
0
 62
7
  6
CONTINUOUS
 10
162.1856947949
 20
139.4568651431
  0
VERTEX
  8
0
 62
7
  6
CONTINUOUS
 10
162.1376471256
 20
139.3654710193
  0
VERTEX
  8
0
 62
7
  6
CONTINUOUS
 10
162.0979546853
 20
139.2713573712
  0
VERTEX
  8
0
 62
7
  6
CONTINUOUS
 10
162.0629400546
 20
139.1706244708
  0
VERTEX
  8
0
 62
7
  6
CONTINUOUS
 10
162.0303635457
 20
139.0591887746
  0
VERTEX
  8
0
 62
7
  6
CONTINUOUS
 10
161.9989648682
 20
138.9333723927
  0
VERTEX
  8
0
 62
7
  6
CONTINUOUS
 10
161.9680287988
 20
138.7897680076
  0
VERTEX
  8
0
 62
7
  6
CONTINUOUS
 10
161.937137729
 20
138.6250042899
  0
VERTEX
  8
0
 62
7
  6
CONTINUOUS
 10
161.9092077151
 20
138.455961979
  0
SEQEND
  0
POLYLINE
  8
0
 62
7
  6
CONTINUOUS
 66
1
 70
0
  0
VERTEX
  8
0
 62
7
  6
CONTINUOUS
 10
145.9956631612
 20
139.8215381508
  0
VERTEX
  8
0
 62
7
  6
CONTINUOUS
 10
145.9248678335
 20
139.8179200177
  0
VERTEX
  8
0
 62
7
  6
CONTINUOUS
 10
145.7771447412
 20
139.7858434126
  0
VERTEX
  8
0
 62
7
  6
CONTINUOUS
 10
145.6422234236
 20
139.7230032746
  0
VERTEX
  8
0
 62
7
  6
CONTINUOUS
 10
145.5315895276
 20
139.6396197383
  0
VERTEX
  8
0
 62
7
  6
CONTINUOUS
 10
145.4478349916
 20
139.5484082436
  0
VERTEX
  8
0
 62
7
  6
CONTINUOUS
 10
145.3856947949
 20
139.4568651431
  0
VERTEX
  8
0
 62
7
  6
CONTINUOUS
 10
145.3376471256
 20
139.3654710193
  0
VERTEX
  8
0
 62
7
  6
CONTINUOUS
 10
145.2979546853
 20
139.2713573712
  0
VERTEX
  8
0
 62
7
  6
CONTINUOUS
 10
145.2629400546
 20
139.1706244708
  0
VERTEX
  8
0
 62
7
  6
CONTINUOUS
 10
145.2303635457
 20
139.0591887746
  0
VERTEX
  8
0
 62
7
  6
CONTINUOUS
 10
145.1989648682
 20
138.9333723927
  0
VERTEX
  8
0
 62
7
  6
CONTINUOUS
 10
145.1680287988
 20
138.7897680076
  0
VERTEX
  8
0
 62
7
  6
CONTINUOUS
 10
145.137137729
 20
138.6250042899
  0
VERTEX
  8
0
 62
7
  6
CONTINUOUS
 10
145.1092077151
 20
138.455961979
  0
SEQEND
  0
POLYLINE
  8
0
 62
7
  6
CONTINUOUS
 66
1
 70
0
  0
VERTEX
  8
0
 62
7
  6
CONTINUOUS
 10
129.1956631612
 20
139.8215381508
  0
VERTEX
  8
0
 62
7
  6
CONTINUOUS
 10
129.1248678335
 20
139.8179200177
  0
VERTEX
  8
0
 62
7
  6
CONTINUOUS
 10
128.9771447412
 20
139.7858434126
  0
VERTEX
  8
0
 62
7
  6
CONTINUOUS
 10
128.8422234236
 20
139.7230032746
  0
VERTEX
  8
0
 62
7
  6
CONTINUOUS
 10
128.7315895276
 20
139.6396197383
  0
VERTEX
  8
0
 62
7
  6
CONTINUOUS
 10
128.6478349916
 20
139.5484082436
  0
VERTEX
  8
0
 62
7
  6
CONTINUOUS
 10
128.5856947949
 20
139.4568651431
  0
VERTEX
  8
0
 62
7
  6
CONTINUOUS
 10
128.5376471256
 20
139.3654710193
  0
VERTEX
  8
0
 62
7
  6
CONTINUOUS
 10
128.4979546853
 20
139.2713573712
  0
VERTEX
  8
0
 62
7
  6
CONTINUOUS
 10
128.4629400546
 20
139.1706244708
  0
VERTEX
  8
0
 62
7
  6
CONTINUOUS
 10
128.4303635457
 20
139.0591887746
  0
VERTEX
  8
0
 62
7
  6
CONTINUOUS
 10
128.3989648682
 20
138.9333723927
  0
VERTEX
  8
0
 62
7
  6
CONTINUOUS
 10
128.3680287988
 20
138.7897680076
  0
VERTEX
  8
0
 62
7
  6
CONTINUOUS
 10
128.337137729
 20
138.6250042899
  0
VERTEX
  8
0
 62
7
  6
CONTINUOUS
 10
128.3092077151
 20
138.455961979
  0
SEQEND
  0
POLYLINE
  8
0
 62
7
  6
CONTINUOUS
 66
1
 70
0
  0
VERTEX
  8
0
 62
7
  6
CONTINUOUS
 10
112.3956631612
 20
139.8215381508
  0
VERTEX
  8
0
 62
7
  6
CONTINUOUS
 10
112.3248678335
 20
139.8179200177
  0
VERTEX
  8
0
 62
7
  6
CONTINUOUS
 10
112.1771447412
 20
139.7858434126
  0
VERTEX
  8
0
 62
7
  6
CONTINUOUS
 10
112.0422234236
 20
139.7230032746
  0
VERTEX
  8
0
 62
7
  6
CONTINUOUS
 10
111.9315895276
 20
139.6396197383
  0
VERTEX
  8
0
 62
7
  6
CONTINUOUS
 10
111.8478349916
 20
139.5484082436
  0
VERTEX
  8
0
 62
7
  6
CONTINUOUS
 10
111.7856947949
 20
139.4568651431
  0
VERTEX
  8
0
 62
7
  6
CONTINUOUS
 10
111.7376471256
 20
139.3654710193
  0
VERTEX
  8
0
 62
7
  6
CONTINUOUS
 10
111.6979546853
 20
139.2713573712
  0
VERTEX
  8
0
 62
7
  6
CONTINUOUS
 10
111.6629400546
 20
139.1706244708
  0
VERTEX
  8
0
 62
7
  6
CONTINUOUS
 10
111.6303635457
 20
139.0591887746
  0
VERTEX
  8
0
 62
7
  6
CONTINUOUS
 10
111.5989648682
 20
138.9333723927
  0
VERTEX
  8
0
 62
7
  6
CONTINUOUS
 10
111.5680287988
 20
138.7897680076
  0
VERTEX
  8
0
 62
7
  6
CONTINUOUS
 10
111.537137729
 20
138.6250042899
  0
VERTEX
  8
0
 62
7
  6
CONTINUOUS
 10
111.5092077151
 20
138.455961979
  0
SEQEND
  0
POLYLINE
  8
0
 62
7
  6
CONTINUOUS
 66
1
 70
0
  0
VERTEX
  8
0
 62
7
  6
CONTINUOUS
 10
95.5956631606
 20
139.8215381508
  0
VERTEX
  8
0
 62
7
  6
CONTINUOUS
 10
95.5248680095
 20
139.8179200358
  0
VERTEX
  8
0
 62
7
  6
CONTINUOUS
 10
95.3771449716
 20
139.7858434904
  0
VERTEX
  8
0
 62
7
  6
CONTINUOUS
 10
95.2422236051
 20
139.7230033849
  0
VERTEX
  8
0
 62
7
  6
CONTINUOUS
 10
95.1315896008
 20
139.6396198058
  0
VERTEX
  8
0
 62
7
  6
CONTINUOUS
 10
95.0478349918
 20
139.5484082438
  0
VERTEX
  8
0
 62
7
  6
CONTINUOUS
 10
94.9856947405
 20
139.456865051
  0
VERTEX
  8
0
 62
7
  6
CONTINUOUS
 10
94.937647042
 20
139.3654708407
  0
VERTEX
  8
0
 62
7
  6
CONTINUOUS
 10
94.8979545951
 20
139.2713571346
  0
VERTEX
  8
0
 62
7
  6
CONTINUOUS
 10
94.862939964
 20
139.1706241857
  0
VERTEX
  8
0
 62
7
  6
CONTINUOUS
 10
94.8303634596
 20
139.0591884554
  0
VERTEX
  8
0
 62
7
  6
CONTINUOUS
 10
94.798964793
 20
138.9333720678
  0
VERTEX
  8
0
 62
7
  6
CONTINUOUS
 10
94.7680287415
 20
138.7897677224
  0
VERTEX
  8
0
 62
7
  6
CONTINUOUS
 10
94.7371376973
 20
138.6250041095
  0
VERTEX
  8
0
 62
7
  6
CONTINUOUS
 10
94.7092077151
 20
138.455961979
  0
SEQEND
  0
LINE
  8
0
 62
7
  6
CONTINUOUS
 10
95.5955437849
 20
139.8215382543
 11
99.9081258351
 21
139.8215382543
  0
LINE
  8
0
 62
7
  6
CONTINUOUS
 10
112.3955477258
 20
139.8215382543
 11
116.7081258351
 21
139.8215382543
  0
LINE
  8
0
 62
7
  6
CONTINUOUS
 10
129.1955477258
 20
139.8215382543
 11
133.5081258351
 21
139.8215382543
  0
LINE
  8
0
 62
7
  6
CONTINUOUS
 10
145.9955477258
 20
139.8215382543
 11
150.3081258351
 21
139.8215382543
  0
LINE
  8
0
 62
7
  6
CONTINUOUS
 10
162.7955477258
 20
139.8215382543
 11
167.1081258351
 21
139.8215382543
  0
LINE
  8
0
 62
7
  6
CONTINUOUS
 10
179.5955477258
 20
139.8215382543
 11
183.9081258351
 21
139.8215382543
  0
LINE
  8
0
 62
7
  6
CONTINUOUS
 10
196.3955477258
 20
139.8215382543
 11
200.7081258351
 21
139.8215382543
  0
LINE
  8
0
 62
7
  6
CONTINUOUS
 10
213.1955477258
 20
139.8215382543
 11
217.5081258351
 21
139.8215382543
  0
LINE
  8
0
 62
7
  6
CONTINUOUS
 10
229.9955406891
 20
139.8215382543
 11
236.0518178684
 21
139.8215382543
  0
LINE
  8
0
 62
7
  6
CONTINUOUS
 10
184.9860892295
 20
137.9593557644
 11
184.8063059543
 21
138.3603049861
  0
POLYLINE
  8
0
 62
7
  6
CONTINUOUS
 66
1
 70
0
  0
VERTEX
  8
0
 62
7
  6
CONTINUOUS
 10
203.9092076059
 20
73.3871152301
  0
VERTEX
  8
0
 62
7
  6
CONTINUOUS
 10
203.9368694176
 20
73.2196026609
  0
VERTEX
  8
0
 62
7
  6
CONTINUOUS
 10
203.9677742155
 20
73.0545764428
  0
VERTEX
  8
0
 62
7
  6
CONTINUOUS
 10
203.998723002
 20
72.9107487415
  0
VERTEX
  8
0
 62
7
  6
CONTINUOUS
 10
204.0301321893
 20
72.7847461184
  0
VERTEX
  8
0
 62
7
  6
CONTINUOUS
 10
204.0627153303
 20
72.6731592793
  0
VERTEX
  8
0
 62
7
  6
CONTINUOUS
 10
204.0977303391
 20
72.5723079605
  0
VERTEX
  8
0
 62
7
  6
CONTINUOUS
 10
204.1374138374
 20
72.478104494
  0
VERTEX
  8
0
 62
7
  6
CONTINUOUS
 10
204.1854409552
 20
72.3866405682
  0
VERTEX
  8
0
 62
7
  6
CONTINUOUS
 10
204.247550606
 20
72.2950333455
  0
VERTEX
  8
0
 62
7
  6
CONTINUOUS
 10
204.3312795308
 20
72.2037424779
  0
VERTEX
  8
0
 62
7
  6
CONTINUOUS
 10
204.441924942
 20
72.1202545703
  0
VERTEX
  8
0
 62
7
  6
CONTINUOUS
 10
204.5769146075
 20
72.0573108469
  0
VERTEX
  8
0
 62
7
  6
CONTINUOUS
 10
204.7247493967
 20
72.025168691
  0
VERTEX
  8
0
 62
7
  6
CONTINUOUS
 10
204.7956635393
 20
72.0215383582
  0
SEQEND
  0
LINE
  8
0
 62
7
  6
CONTINUOUS
 10
203.8933064923
 20
73.4918326873
 11
203.9092088667
 21
73.3871071426
  0
LINE
  8
0
 62
7
  6
CONTINUOUS
 10
202.8370642422
 20
77.6789202372
 11
202.8370049403
 21
77.6799401488
  0
LINE
  8
0
 62
7
  6
CONTINUOUS
 10
202.6666093154
 20
134.1641562996
 11
202.6666686207
 21
134.1631363598
  0
POLYLINE
  8
0
 62
7
  6
CONTINUOUS
 66
1
 70
0
  0
VERTEX
  8
0
 62
7
  6
CONTINUOUS
 10
202.6597061186
 20
128.0385366137
  0
VERTEX
  8
0
 62
7
  6
CONTINUOUS
 10
202.6636705951
 20
128.3320005995
  0
VERTEX
  8
0
 62
7
  6
CONTINUOUS
 10
202.666112339
 20
128.615012801
  0
VERTEX
  8
0
 62
7
  6
CONTINUOUS
 10
202.6666686236
 20
134.1630743483
  0
SEQEND
  0
POLYLINE
  8
0
 62
7
  6
CONTINUOUS
 66
1
 70
0
  0
VERTEX
  8
0
 62
7
  6
CONTINUOUS
 10
202.8439340595
 20
83.8009110692
  0
VERTEX
  8
0
 62
7
  6
CONTINUOUS
 10
202.8399565043
 20
83.507111972
  0
VERTEX
  8
0
 62
7
  6
CONTINUOUS
 10
202.8375405298
 20
83.2240903115
  0
VERTEX
  8
0
 62
7
  6
CONTINUOUS
 10
202.8370049373
 20
77.6800021603
  0
SEQEND
  0
POLYLINE
  8
0
 62
7
  6
CONTINUOUS
 66
1
 70
0
  0
VERTEX
  8
0
 62
7
  6
CONTINUOUS
 10
193.2063069975
 20
73.4827736486
  0
VERTEX
  8
0
 62
7
  6
CONTINUOUS
 10
193.3870337246
 20
73.8860203881
  0
VERTEX
  8
0
 62
7
  6
CONTINUOUS
 10
193.5620275424
 20
74.3518711193
  0
VERTEX
  8
0
 62
7
  6
CONTINUOUS
 10
193.7207254955
 20
74.8537216394
  0
VERTEX
  8
0
 62
7
  6
CONTINUOUS
 10
193.8633582711
 20
75.3872694728
  0
VERTEX
  8
0
 62
7
  6
CONTINUOUS
 10
193.989972171
 20
75.9478553037
  0
VERTEX
  8
0
 62
7
  6
CONTINUOUS
 10
194.1005827818
 20
76.5306424386
  0
VERTEX
  8
0
 62
7
  6
CONTINUOUS
 10
194.1952322416
 20
77.130624027
  0
VERTEX
  8
0
 62
7
  6
CONTINUOUS
 10
194.2666093484
 20
77.6789143715
  0
SEQEND
  0
POLYLINE
  8
0
 62
7
  6
CONTINUOUS
 66
1
 70
0
  0
VERTEX
  8
0
 62
7
  6
CONTINUOUS
 10
194.2666092975
 20
77.6789244929
  0
VERTEX
  8
0
 62
7
  6
CONTINUOUS
 10
194.2607975971
 20
77.6703275949
  0
VERTEX
  8
0
 62
7
  6
CONTINUOUS
 10
194.2417108442
 20
77.6615342765
  0
VERTEX
  8
0
 62
7
  6
CONTINUOUS
 10
194.2105095971
 20
77.6548058337
  0
VERTEX
  8
0
 62
7
  6
CONTINUOUS
 10
194.1691910512
 20
77.6504861303
  0
VERTEX
  8
0
 62
7
  6
CONTINUOUS
 10
194.1204947051
 20
77.6486972437
  0
VERTEX
  8
0
 62
7
  6
CONTINUOUS
 10
194.0666686236
 20
77.649256931
  0
SEQEND
  0
POLYLINE
  8
0
 62
6
  6
CONTINUOUS
 66
1
 70
0
  0
VERTEX
  8
0
 62
6
  6
CONTINUOUS
 10
227.8589693101
 20
77.6919902189
  0
VERTEX
  8
0
 62
6
  6
CONTINUOUS
 10
227.8666359203
 20
77.680682141
  0
VERTEX
  8
0
 62
6
  6
CONTINUOUS
 10
227.8607975971
 20
77.6703275949
  0
SEQEND
  0
LINE
  8
0
 62
7
  6
CONTINUOUS
 10
220.5166398803
 20
73.8860202812
 11
220.6973665635
 21
73.4827736486
  0
POLYLINE
  8
0
 62
7
  6
CONTINUOUS
 66
1
 70
0
  0
VERTEX
  8
0
 62
7
  6
CONTINUOUS
 10
202.8370642126
 20
77.6789143715
  0
VERTEX
  8
0
 62
7
  6
CONTINUOUS
 10
202.9084414676
 20
77.1306229891
  0
VERTEX
  8
0
 62
7
  6
CONTINUOUS
 10
203.003090929
 20
76.5306415737
  0
VERTEX
  8
0
 62
7
  6
CONTINUOUS
 10
203.1137015339
 20
75.9478546092
  0
VERTEX
  8
0
 62
7
  6
CONTINUOUS
 10
203.24031542
 20
75.3872689429
  0
VERTEX
  8
0
 62
7
  6
CONTINUOUS
 10
203.3829481744
 20
74.8537212646
  0
VERTEX
  8
0
 62
7
  6
CONTINUOUS
 10
203.5416460987
 20
74.3518708865
  0
VERTEX
  8
0
 62
7
  6
CONTINUOUS
 10
203.7166398803
 20
73.8860202812
  0
SEQEND
  0
POLYLINE
  8
0
 62
7
  6
CONTINUOUS
 66
1
 70
0
  0
VERTEX
  8
0
 62
7
  6
CONTINUOUS
 10
211.0636701921
 20
83.5110797526
  0
VERTEX
  8
0
 62
7
  6
CONTINUOUS
 10
211.0597004712
 20
83.8051115236
  0
VERTEX
  8
0
 62
7
  6
CONTINUOUS
 10
211.0596538047
 20
83.8849806966
  0
VERTEX
  8
0
 62
7
  6
CONTINUOUS
 10
211.0610305694
 20
83.9641561598
  0
VERTEX
  8
0
 62
7
  6
CONTINUOUS
 10
211.0640296788
 20
84.0423781336
  0
VERTEX
  8
0
 62
7
  6
CONTINUOUS
 10
211.0688652486
 20
84.1194492531
  0
VERTEX
  8
0
 62
7
  6
CONTINUOUS
 10
211.0757263784
 20
84.1951624257
  0
VERTEX
  8
0
 62
7
  6
CONTINUOUS
 10
211.0847822768
 20
84.2690896945
  0
VERTEX
  8
0
 62
7
  6
CONTINUOUS
 10
211.0961979326
 20
84.3407848708
  0
VERTEX
  8
0
 62
7
  6
CONTINUOUS
 10
211.1101539086
 20
84.4103838929
  0
VERTEX
  8
0
 62
7
  6
CONTINUOUS
 10
211.1269216632
 20
84.4776194789
  0
VERTEX
  8
0
 62
7
  6
CONTINUOUS
 10
211.1466238151
 20
84.5410485199
  0
VERTEX
  8
0
 62
7
  6
CONTINUOUS
 10
211.1699752131
 20
84.6000434123
  0
VERTEX
  8
0
 62
7
  6
CONTINUOUS
 10
211.1973780967
 20
84.6548134173
  0
VERTEX
  8
0
 62
7
  6
CONTINUOUS
 10
211.2282272304
 20
84.7037446847
  0
VERTEX
  8
0
 62
7
  6
CONTINUOUS
 10
211.2616912334
 20
84.7457710475
  0
VERTEX
  8
0
 62
7
  6
CONTINUOUS
 10
211.2978264353
 20
84.7811147222
  0
VERTEX
  8
0
 62
7
  6
CONTINUOUS
 10
211.336589677
 20
84.8094798656
  0
VERTEX
  8
0
 62
7
  6
CONTINUOUS
 10
211.3778632767
 20
84.8300561633
  0
VERTEX
  8
0
 62
7
  6
CONTINUOUS
 10
211.4208606128
 20
84.8412391904
  0
VERTEX
  8
0
 62
7
  6
CONTINUOUS
 10
211.442099516
 20
84.8427292027
  0
SEQEND
  0
LINE
  8
0
 62
7
  6
CONTINUOUS
 10
211.0661122467
 20
83.2280655836
 11
211.0636701921
 21
83.5110797526
  0
LINE
  8
0
 62
7
  6
CONTINUOUS
 10
211.0661122467
 20
83.2280655836
 11
211.0666686236
 21
77.679964643
  0
LINE
  8
0
 62
7
  6
CONTINUOUS
 10
211.2370642455
 20
134.1641562996
 11
211.2370049403
 21
134.1631363598
  0
LINE
  8
0
 62
7
  6
CONTINUOUS
 10
212.3092090023
 20
138.4559702359
 11
212.2933042178
 21
138.3512428939
  0
POLYLINE
  8
0
 62
7
  6
CONTINUOUS
 66
1
 70
0
  0
VERTEX
  8
0
 62
7
  6
CONTINUOUS
 10
229.0973676066
 20
138.3603049861
  0
VERTEX
  8
0
 62
7
  6
CONTINUOUS
 10
228.9175843314
 20
137.9593557644
  0
VERTEX
  8
0
 62
7
  6
CONTINUOUS
 10
228.7425197933
 20
137.4937427235
  0
VERTEX
  8
0
 62
7
  6
CONTINUOUS
 10
228.5837513914
 20
136.9921182431
  0
VERTEX
  8
0
 62
7
  6
CONTINUOUS
 10
228.4410466456
 20
136.4587820409
  0
VERTEX
  8
0
 62
7
  6
CONTINUOUS
 10
228.314358412
 20
135.8983910191
  0
VERTEX
  8
0
 62
7
  6
CONTINUOUS
 10
228.203670881
 20
135.3157802136
  0
VERTEX
  8
0
 62
7
  6
CONTINUOUS
 10
228.1089420297
 20
134.7159552867
  0
VERTEX
  8
0
 62
7
  6
CONTINUOUS
 10
228.0370642159
 20
134.1641621653
  0
SEQEND
  0
POLYLINE
  8
0
 62
6
  6
CONTINUOUS
 66
1
 70
0
  0
VERTEX
  8
0
 62
6
  6
CONTINUOUS
 10
219.6400778558
 20
77.6728707963
  0
VERTEX
  8
0
 62
6
  6
CONTINUOUS
 10
219.6372797295
 20
77.6821322179
  0
VERTEX
  8
0
 62
6
  6
CONTINUOUS
 10
219.6447045636
 20
77.6919904792
  0
SEQEND
  0
POLYLINE
  8
0
 62
7
  6
CONTINUOUS
 66
1
 70
0
  0
VERTEX
  8
0
 62
7
  6
CONTINUOUS
 10
201.5944658378
 20
138.4559620306
  0
VERTEX
  8
0
 62
7
  6
CONTINUOUS
 10
201.5665791921
 20
138.624757084
  0
VERTEX
  8
0
 62
7
  6
CONTINUOUS
 10
201.5357352907
 20
138.7893173003
  0
VERTEX
  8
0
 62
7
  6
CONTINUOUS
 10
201.5048515399
 20
138.9327555769
  0
VERTEX
  8
0
 62
7
  6
CONTINUOUS
 10
201.4735134933
 20
139.0584338774
  0
VERTEX
  8
0
 62
7
  6
CONTINUOUS
 10
201.441012108
 20
139.1697475477
  0
VERTEX
  8
0
 62
7
  6
CONTINUOUS
 10
201.4060998051
 20
139.2703571692
  0
VERTEX
  8
0
 62
7
  6
CONTINUOUS
 10
201.3665631779
 20
139.3643220403
  0
VERTEX
  8
0
 62
7
  6
CONTINUOUS
 10
201.3187745867
 20
139.4555178213
  0
VERTEX
  8
0
 62
7
  6
CONTINUOUS
 10
201.2570655434
 20
139.5468299977
  0
VERTEX
  8
0
 62
7
  6
CONTINUOUS
 10
201.1739684761
 20
139.6378777516
  0
VERTEX
  8
0
 62
7
  6
CONTINUOUS
 10
201.064163211
 20
139.7213473107
  0
VERTEX
  8
0
 62
7
  6
CONTINUOUS
 10
200.9300094289
 20
139.7846576179
  0
VERTEX
  8
0
 62
7
  6
CONTINUOUS
 10
200.7827631736
 20
139.8175010933
  0
VERTEX
  8
0
 62
7
  6
CONTINUOUS
 10
200.7080074679
 20
139.8215381473
  0
SEQEND
  0
LINE
  8
0
 62
7
  6
CONTINUOUS
 10
201.6103693432
 20
138.3512428939
 11
201.5944645587
 21
138.4559702359
  0
POLYLINE
  8
0
 62
7
  6
CONTINUOUS
 66
1
 70
0
  0
VERTEX
  8
0
 62
7
  6
CONTINUOUS
 10
202.666609345
 20
134.1641621653
  0
VERTEX
  8
0
 62
7
  6
CONTINUOUS
 10
202.5947315313
 20
134.7159552867
  0
VERTEX
  8
0
 62
7
  6
CONTINUOUS
 10
202.50000268
 20
135.3157802136
  0
VERTEX
  8
0
 62
7
  6
CONTINUOUS
 10
202.3893151489
 20
135.8983910191
  0
VERTEX
  8
0
 62
7
  6
CONTINUOUS
 10
202.2626269154
 20
136.4587820409
  0
VERTEX
  8
0
 62
7
  6
CONTINUOUS
 10
202.1199221696
 20
136.9921182431
  0
VERTEX
  8
0
 62
7
  6
CONTINUOUS
 10
201.9611537677
 20
137.4937427235
  0
VERTEX
  8
0
 62
7
  6
CONTINUOUS
 10
201.7860892295
 20
137.9593557644
  0
SEQEND
  0
POLYLINE
  8
0
 62
7
  6
CONTINUOUS
 66
1
 70
0
  0
VERTEX
  8
0
 62
7
  6
CONTINUOUS
 10
211.2399565041
 20
128.335964486
  0
VERTEX
  8
0
 62
7
  6
CONTINUOUS
 10
211.243929481
 20
128.0426423671
  0
VERTEX
  8
0
 62
7
  6
CONTINUOUS
 10
211.2440558045
 20
127.963048824
  0
VERTEX
  8
0
 62
7
  6
CONTINUOUS
 10
211.2427771251
 20
127.8839861628
  0
VERTEX
  8
0
 62
7
  6
CONTINUOUS
 10
211.2398906482
 20
127.8057344386
  0
VERTEX
  8
0
 62
7
  6
CONTINUOUS
 10
211.2351752462
 20
127.7285161946
  0
VERTEX
  8
0
 62
7
  6
CONTINUOUS
 10
211.2284323257
 20
127.6525511457
  0
VERTEX
  8
0
 62
7
  6
CONTINUOUS
 10
211.2194859795
 20
127.578272001
  0
VERTEX
  8
0
 62
7
  6
CONTINUOUS
 10
211.2081664623
 20
127.5061870027
  0
VERTEX
  8
0
 62
7
  6
CONTINUOUS
 10
211.1942750631
 20
127.4360823338
  0
VERTEX
  8
0
 62
7
  6
CONTINUOUS
 10
211.1775751872
 20
127.3684321817
  0
VERTEX
  8
0
 62
7
  6
CONTINUOUS
 10
211.1578606453
 20
127.3043639974
  0
VERTEX
  8
0
 62
7
  6
CONTINUOUS
 10
211.1345139677
 20
127.2448741723
  0
VERTEX
  8
0
 62
7
  6
CONTINUOUS
 10
211.1070455446
 20
127.1896052235
  0
VERTEX
  8
0
 62
7
  6
CONTINUOUS
 10
211.076030668
 20
127.1401606942
  0
VERTEX
  8
0
 62
7
  6
CONTINUOUS
 10
211.042587982
 20
127.0979817213
  0
VERTEX
  8
0
 62
7
  6
CONTINUOUS
 10
211.0067180907
 20
127.0627074295
  0
VERTEX
  8
0
 62
7
  6
CONTINUOUS
 10
210.9683979153
 20
127.034411618
  0
VERTEX
  8
0
 62
7
  6
CONTINUOUS
 10
210.9275669148
 20
127.0137015124
  0
VERTEX
  8
0
 62
7
  6
CONTINUOUS
 10
210.8847700921
 20
127.0021132504
  0
VERTEX
  8
0
 62
7
  6
CONTINUOUS
 10
210.8614002938
 20
127.0003467402
  0
SEQEND
  0
LINE
  8
0
 62
7
  6
CONTINUOUS
 10
211.2375405297
 20
128.6189862227
 11
211.2399565041
 21
128.335964486
  0
LINE
  8
0
 62
7
  6
CONTINUOUS
 10
211.2370049373
 20
134.1630743483
 11
211.2375405297
 21
128.6189862227
  0
LINE
  8
0
 62
6
  6
CONTINUOUS
 10
215.3518367805
 20
84.843086528
 11
215.3518367805
 21
139.8215350077
  0
LINE
  8
0
 62
7
  6
CONTINUOUS
 10
211.0666686236
 20
77.67993253
 11
211.0666092975
 21
77.6789244929
  0
LINE
  8
0
 62
7
  6
CONTINUOUS
 10
209.9944646943
 20
73.3871071426
 11
210.0103670687
 21
73.4918326876
  0
POLYLINE
  8
0
 62
6
  6
CONTINUOUS
 66
1
 70
0
  0
VERTEX
  8
0
 62
6
  6
CONTINUOUS
 10
228.0400778561
 20
134.1702057128
  0
VERTEX
  8
0
 62
6
  6
CONTINUOUS
 10
228.0372797294
 20
134.160944291
  0
VERTEX
  8
0
 62
6
  6
CONTINUOUS
 10
228.0447045636
 20
134.1510860294
  0
SEQEND
  0
LINE
  8
0
 62
7
  6
CONTINUOUS
 10
201.7860892295
 20
137.9593557644
 11
201.6063059543
 21
138.3603049861
  0
POLYLINE
  8
0
 62
7
  6
CONTINUOUS
 66
1
 70
0
  0
VERTEX
  8
0
 62
7
  6
CONTINUOUS
 10
220.7092076059
 20
73.3871152301
  0
VERTEX
  8
0
 62
7
  6
CONTINUOUS
 10
220.7368694176
 20
73.2196026609
  0
VERTEX
  8
0
 62
7
  6
CONTINUOUS
 10
220.7677742155
 20
73.0545764428
  0
VERTEX
  8
0
 62
7
  6
CONTINUOUS
 10
220.798723002
 20
72.9107487415
  0
VERTEX
  8
0
 62
7
  6
CONTINUOUS
 10
220.8301321893
 20
72.7847461184
  0
VERTEX
  8
0
 62
7
  6
CONTINUOUS
 10
220.8627153303
 20
72.6731592793
  0
VERTEX
  8
0
 62
7
  6
CONTINUOUS
 10
220.8977303391
 20
72.5723079605
  0
VERTEX
  8
0
 62
7
  6
CONTINUOUS
 10
220.9374138374
 20
72.478104494
  0
VERTEX
  8
0
 62
7
  6
CONTINUOUS
 10
220.9854409552
 20
72.3866405682
  0
VERTEX
  8
0
 62
7
  6
CONTINUOUS
 10
221.047550606
 20
72.2950333455
  0
VERTEX
  8
0
 62
7
  6
CONTINUOUS
 10
221.1312795308
 20
72.2037424779
  0
VERTEX
  8
0
 62
7
  6
CONTINUOUS
 10
221.241924942
 20
72.1202545703
  0
VERTEX
  8
0
 62
7
  6
CONTINUOUS
 10
221.3769146075
 20
72.0573108469
  0
VERTEX
  8
0
 62
7
  6
CONTINUOUS
 10
221.5247493967
 20
72.025168691
  0
VERTEX
  8
0
 62
7
  6
CONTINUOUS
 10
221.5956635393
 20
72.0215383582
  0
SEQEND
  0
LINE
  8
0
 62
7
  6
CONTINUOUS
 10
220.6933064923
 20
73.4918326873
 11
220.7092088667
 21
73.3871071426
  0
POLYLINE
  8
0
 62
7
  6
CONTINUOUS
 66
1
 70
0
  0
VERTEX
  8
0
 62
7
  6
CONTINUOUS
 10
219.6370642126
 20
77.6789143715
  0
VERTEX
  8
0
 62
7
  6
CONTINUOUS
 10
219.7084414676
 20
77.1306229891
  0
VERTEX
  8
0
 62
7
  6
CONTINUOUS
 10
219.803090929
 20
76.5306415737
  0
VERTEX
  8
0
 62
7
  6
CONTINUOUS
 10
219.9137015339
 20
75.9478546092
  0
VERTEX
  8
0
 62
7
  6
CONTINUOUS
 10
220.04031542
 20
75.3872689429
  0
VERTEX
  8
0
 62
7
  6
CONTINUOUS
 10
220.1829481744
 20
74.8537212646
  0
VERTEX
  8
0
 62
7
  6
CONTINUOUS
 10
220.3416460987
 20
74.3518708865
  0
VERTEX
  8
0
 62
7
  6
CONTINUOUS
 10
220.5166398803
 20
73.8860202812
  0
SEQEND
  0
LINE
  8
0
 62
7
  6
CONTINUOUS
 10
219.6370642422
 20
77.6789202372
 11
219.6370049403
 21
77.6799401488
  0
LINE
  8
0
 62
7
  6
CONTINUOUS
 10
219.4666093154
 20
134.1641562996
 11
219.4666686207
 21
134.1631363598
  0
POLYLINE
  8
0
 62
7
  6
CONTINUOUS
 66
1
 70
0
  0
VERTEX
  8
0
 62
7
  6
CONTINUOUS
 10
219.4597061186
 20
128.0385366137
  0
VERTEX
  8
0
 62
7
  6
CONTINUOUS
 10
219.4636705951
 20
128.3320005995
  0
VERTEX
  8
0
 62
7
  6
CONTINUOUS
 10
219.466112339
 20
128.615012801
  0
VERTEX
  8
0
 62
7
  6
CONTINUOUS
 10
219.4666686236
 20
134.1630743483
  0
SEQEND
  0
POLYLINE
  8
0
 62
7
  6
CONTINUOUS
 66
1
 70
0
  0
VERTEX
  8
0
 62
7
  6
CONTINUOUS
 10
219.6439340595
 20
83.8009110692
  0
VERTEX
  8
0
 62
7
  6
CONTINUOUS
 10
219.6399565043
 20
83.507111972
  0
VERTEX
  8
0
 62
7
  6
CONTINUOUS
 10
219.6375405298
 20
83.2240903115
  0
VERTEX
  8
0
 62
7
  6
CONTINUOUS
 10
219.6370049373
 20
77.6800021603
  0
SEQEND
  0
LINE
  8
0
 62
7
  6
CONTINUOUS
 10
229.1092090023
 20
138.4559702359
 11
229.0933042178
 21
138.3512428939
  0
POLYLINE
  8
0
 62
7
  6
CONTINUOUS
 66
1
 70
0
  0
VERTEX
  8
0
 62
7
  6
CONTINUOUS
 10
210.0063069975
 20
73.4827736486
  0
VERTEX
  8
0
 62
7
  6
CONTINUOUS
 10
210.1870337246
 20
73.8860203881
  0
VERTEX
  8
0
 62
7
  6
CONTINUOUS
 10
210.3620275424
 20
74.3518711193
  0
VERTEX
  8
0
 62
7
  6
CONTINUOUS
 10
210.5207254955
 20
74.8537216394
  0
VERTEX
  8
0
 62
7
  6
CONTINUOUS
 10
210.6633582711
 20
75.3872694728
  0
VERTEX
  8
0
 62
7
  6
CONTINUOUS
 10
210.789972171
 20
75.9478553037
  0
VERTEX
  8
0
 62
7
  6
CONTINUOUS
 10
210.9005827818
 20
76.5306424386
  0
VERTEX
  8
0
 62
7
  6
CONTINUOUS
 10
210.9952322416
 20
77.130624027
  0
VERTEX
  8
0
 62
7
  6
CONTINUOUS
 10
211.0666093484
 20
77.6789143715
  0
SEQEND
  0
POLYLINE
  8
0
 62
7
  6
CONTINUOUS
 66
1
 70
0
  0
VERTEX
  8
0
 62
7
  6
CONTINUOUS
 10
211.0666092975
 20
77.6789244929
  0
VERTEX
  8
0
 62
7
  6
CONTINUOUS
 10
211.0607975971
 20
77.6703275949
  0
VERTEX
  8
0
 62
7
  6
CONTINUOUS
 10
211.0417108442
 20
77.6615342765
  0
VERTEX
  8
0
 62
7
  6
CONTINUOUS
 10
211.0105095971
 20
77.6548058337
  0
VERTEX
  8
0
 62
7
  6
CONTINUOUS
 10
210.9691910512
 20
77.6504861303
  0
VERTEX
  8
0
 62
7
  6
CONTINUOUS
 10
210.9204947051
 20
77.6486972437
  0
VERTEX
  8
0
 62
7
  6
CONTINUOUS
 10
210.8666686236
 20
77.649256931
  0
SEQEND
  0
POLYLINE
  8
0
 62
7
  6
CONTINUOUS
 66
1
 70
0
  0
VERTEX
  8
0
 62
7
  6
CONTINUOUS
 10
218.3944658378
 20
138.4559620306
  0
VERTEX
  8
0
 62
7
  6
CONTINUOUS
 10
218.3665791921
 20
138.624757084
  0
VERTEX
  8
0
 62
7
  6
CONTINUOUS
 10
218.3357352907
 20
138.7893173003
  0
VERTEX
  8
0
 62
7
  6
CONTINUOUS
 10
218.3048515399
 20
138.9327555769
  0
VERTEX
  8
0
 62
7
  6
CONTINUOUS
 10
218.2735134933
 20
139.0584338774
  0
VERTEX
  8
0
 62
7
  6
CONTINUOUS
 10
218.241012108
 20
139.1697475477
  0
VERTEX
  8
0
 62
7
  6
CONTINUOUS
 10
218.2060998051
 20
139.2703571692
  0
VERTEX
  8
0
 62
7
  6
CONTINUOUS
 10
218.1665631779
 20
139.3643220403
  0
VERTEX
  8
0
 62
7
  6
CONTINUOUS
 10
218.1187745867
 20
139.4555178213
  0
VERTEX
  8
0
 62
7
  6
CONTINUOUS
 10
218.0570655434
 20
139.5468299977
  0
VERTEX
  8
0
 62
7
  6
CONTINUOUS
 10
217.9739684761
 20
139.6378777516
  0
VERTEX
  8
0
 62
7
  6
CONTINUOUS
 10
217.864163211
 20
139.7213473107
  0
VERTEX
  8
0
 62
7
  6
CONTINUOUS
 10
217.7300094289
 20
139.7846576179
  0
VERTEX
  8
0
 62
7
  6
CONTINUOUS
 10
217.5827631736
 20
139.8175010933
  0
VERTEX
  8
0
 62
7
  6
CONTINUOUS
 10
217.5080074679
 20
139.8215381473
  0
SEQEND
  0
LINE
  8
0
 62
7
  6
CONTINUOUS
 10
218.4103693432
 20
138.3512428939
 11
218.3944645587
 21
138.4559702359
  0
POLYLINE
  8
0
 62
7
  6
CONTINUOUS
 66
1
 70
0
  0
VERTEX
  8
0
 62
7
  6
CONTINUOUS
 10
219.466609345
 20
134.1641621653
  0
VERTEX
  8
0
 62
7
  6
CONTINUOUS
 10
219.3947315313
 20
134.7159552867
  0
VERTEX
  8
0
 62
7
  6
CONTINUOUS
 10
219.30000268
 20
135.3157802136
  0
VERTEX
  8
0
 62
7
  6
CONTINUOUS
 10
219.1893151489
 20
135.8983910191
  0
VERTEX
  8
0
 62
7
  6
CONTINUOUS
 10
219.0626269154
 20
136.4587820409
  0
VERTEX
  8
0
 62
7
  6
CONTINUOUS
 10
218.9199221696
 20
136.9921182431
  0
VERTEX
  8
0
 62
7
  6
CONTINUOUS
 10
218.7611537677
 20
137.4937427235
  0
VERTEX
  8
0
 62
7
  6
CONTINUOUS
 10
218.5860892295
 20
137.9593557644
  0
SEQEND
  0
POLYLINE
  8
0
 62
7
  6
CONTINUOUS
 66
1
 70
0
  0
VERTEX
  8
0
 62
7
  6
CONTINUOUS
 10
228.0399565041
 20
128.335964486
  0
VERTEX
  8
0
 62
7
  6
CONTINUOUS
 10
228.043929481
 20
128.0426423671
  0
VERTEX
  8
0
 62
7
  6
CONTINUOUS
 10
228.0440558045
 20
127.963048824
  0
VERTEX
  8
0
 62
7
  6
CONTINUOUS
 10
228.0427771251
 20
127.8839861628
  0
VERTEX
  8
0
 62
7
  6
CONTINUOUS
 10
228.0398906482
 20
127.8057344386
  0
VERTEX
  8
0
 62
7
  6
CONTINUOUS
 10
228.0351752462
 20
127.7285161946
  0
VERTEX
  8
0
 62
7
  6
CONTINUOUS
 10
228.0284323257
 20
127.6525511457
  0
VERTEX
  8
0
 62
7
  6
CONTINUOUS
 10
228.0194859795
 20
127.578272001
  0
VERTEX
  8
0
 62
7
  6
CONTINUOUS
 10
228.0081664623
 20
127.5061870027
  0
VERTEX
  8
0
 62
7
  6
CONTINUOUS
 10
227.9942750631
 20
127.4360823338
  0
VERTEX
  8
0
 62
7
  6
CONTINUOUS
 10
227.9775751872
 20
127.3684321817
  0
VERTEX
  8
0
 62
7
  6
CONTINUOUS
 10
227.9578606453
 20
127.3043639974
  0
VERTEX
  8
0
 62
7
  6
CONTINUOUS
 10
227.9345139677
 20
127.2448741723
  0
VERTEX
  8
0
 62
7
  6
CONTINUOUS
 10
227.9070455446
 20
127.1896052235
  0
VERTEX
  8
0
 62
7
  6
CONTINUOUS
 10
227.876030668
 20
127.1401606942
  0
VERTEX
  8
0
 62
7
  6
CONTINUOUS
 10
227.842587982
 20
127.0979817213
  0
VERTEX
  8
0
 62
7
  6
CONTINUOUS
 10
227.8067180907
 20
127.0627074295
  0
VERTEX
  8
0
 62
7
  6
CONTINUOUS
 10
227.7683979153
 20
127.034411618
  0
VERTEX
  8
0
 62
7
  6
CONTINUOUS
 10
227.7275669148
 20
127.0137015124
  0
VERTEX
  8
0
 62
7
  6
CONTINUOUS
 10
227.6847700921
 20
127.0021132504
  0
VERTEX
  8
0
 62
7
  6
CONTINUOUS
 10
227.6614002938
 20
127.0003467402
  0
SEQEND
  0
POLYLINE
  8
0
 62
7
  6
CONTINUOUS
 66
1
 70
0
  0
VERTEX
  8
0
 62
7
  6
CONTINUOUS
 10
227.8636701921
 20
83.5110797526
  0
VERTEX
  8
0
 62
7
  6
CONTINUOUS
 10
227.8597004712
 20
83.8051115236
  0
VERTEX
  8
0
 62
7
  6
CONTINUOUS
 10
227.8596538047
 20
83.8849806966
  0
VERTEX
  8
0
 62
7
  6
CONTINUOUS
 10
227.8610305694
 20
83.9641561598
  0
VERTEX
  8
0
 62
7
  6
CONTINUOUS
 10
227.8640296788
 20
84.0423781336
  0
VERTEX
  8
0
 62
7
  6
CONTINUOUS
 10
227.8688652486
 20
84.1194492531
  0
VERTEX
  8
0
 62
7
  6
CONTINUOUS
 10
227.8757263784
 20
84.1951624257
  0
VERTEX
  8
0
 62
7
  6
CONTINUOUS
 10
227.8847822768
 20
84.2690896945
  0
VERTEX
  8
0
 62
7
  6
CONTINUOUS
 10
227.8961979326
 20
84.3407848708
  0
VERTEX
  8
0
 62
7
  6
CONTINUOUS
 10
227.9101539086
 20
84.4103838929
  0
VERTEX
  8
0
 62
7
  6
CONTINUOUS
 10
227.9269216632
 20
84.4776194789
  0
VERTEX
  8
0
 62
7
  6
CONTINUOUS
 10
227.9466238151
 20
84.5410485199
  0
VERTEX
  8
0
 62
7
  6
CONTINUOUS
 10
227.9699752131
 20
84.6000434123
  0
VERTEX
  8
0
 62
7
  6
CONTINUOUS
 10
227.9973780967
 20
84.6548134173
  0
VERTEX
  8
0
 62
7
  6
CONTINUOUS
 10
228.0282272304
 20
84.7037446847
  0
VERTEX
  8
0
 62
7
  6
CONTINUOUS
 10
228.0616912334
 20
84.7457710475
  0
VERTEX
  8
0
 62
7
  6
CONTINUOUS
 10
228.0978264353
 20
84.7811147222
  0
VERTEX
  8
0
 62
7
  6
CONTINUOUS
 10
228.136589677
 20
84.8094798656
  0
VERTEX
  8
0
 62
7
  6
CONTINUOUS
 10
228.1778632767
 20
84.8300561633
  0
VERTEX
  8
0
 62
7
  6
CONTINUOUS
 10
228.2208606128
 20
84.8412391904
  0
VERTEX
  8
0
 62
7
  6
CONTINUOUS
 10
228.242099516
 20
84.8427292027
  0
SEQEND
  0
LINE
  8
0
 62
7
  6
CONTINUOUS
 10
227.8661122467
 20
83.2280655836
 11
227.8636701921
 21
83.5110797526
  0
LINE
  8
0
 62
7
  6
CONTINUOUS
 10
228.0375405297
 20
128.6189862227
 11
228.0399565041
 21
128.335964486
  0
LINE
  8
0
 62
7
  6
CONTINUOUS
 10
227.8661122467
 20
83.2280655836
 11
227.8666686236
 21
77.679964643
  0
LINE
  8
0
 62
7
  6
CONTINUOUS
 10
228.0370049373
 20
134.1630743483
 11
228.0375405297
 21
128.6189862227
  0
LINE
  8
0
 62
7
  6
CONTINUOUS
 10
228.0370642455
 20
134.1641562996
 11
228.0370049403
 21
134.1631363598
  0
LINE
  8
0
 62
7
  6
CONTINUOUS
 10
227.8666686236
 20
77.67993253
 11
227.8666092975
 21
77.6789244929
  0
POLYLINE
  8
0
 62
7
  6
CONTINUOUS
 66
1
 70
0
  0
VERTEX
  8
0
 62
7
  6
CONTINUOUS
 10
235.4518367805
 20
109.6642081052
  0
VERTEX
  8
0
 62
7
  6
CONTINUOUS
 10
235.5801201291
 20
109.404926286
  0
VERTEX
  8
0
 62
7
  6
CONTINUOUS
 10
235.6925570577
 20
109.1633519556
  0
VERTEX
  8
0
 62
7
  6
CONTINUOUS
 10
235.7862043097
 20
108.9365774395
  0
VERTEX
  8
0
 62
7
  6
CONTINUOUS
 10
235.8594935584
 20
108.7227907071
  0
VERTEX
  8
0
 62
7
  6
CONTINUOUS
 10
235.9117378928
 20
108.5207330409
  0
VERTEX
  8
0
 62
7
  6
CONTINUOUS
 10
235.942312904
 20
108.3323633031
  0
VERTEX
  8
0
 62
7
  6
CONTINUOUS
 10
235.9518367805
 20
108.1642081052
  0
SEQEND
  0
LINE
  8
0
 62
7
  6
CONTINUOUS
 10
218.5860892295
 20
137.9593557644
 11
218.4063059543
 21
138.3603049861
  0
POLYLINE
  8
0
 62
6
  6
CONTINUOUS
 66
1
 70
0
  0
VERTEX
  8
0
 62
6
  6
CONTINUOUS
 10
219.4635957048
 20
134.1702057128
  0
VERTEX
  8
0
 62
6
  6
CONTINUOUS
 10
219.4663938316
 20
134.160944291
  0
VERTEX
  8
0
 62
6
  6
CONTINUOUS
 10
219.4589689974
 20
134.1510860294
  0
SEQEND
  0
LINE
  8
0
 62
6
  6
CONTINUOUS
 10
232.1518367805
 20
84.843051199
 11
232.1518367805
 21
139.8215350077
  0
LINE
  8
0
 62
7
  6
CONTINUOUS
 10
226.7944646943
 20
73.3871071426
 11
226.8103670687
 21
73.4918326876
  0
POLYLINE
  8
0
 62
7
  6
CONTINUOUS
 66
1
 70
0
  0
VERTEX
  8
0
 62
7
  6
CONTINUOUS
 10
226.8063069975
 20
73.4827736486
  0
VERTEX
  8
0
 62
7
  6
CONTINUOUS
 10
226.9870337246
 20
73.8860203881
  0
VERTEX
  8
0
 62
7
  6
CONTINUOUS
 10
227.1620275424
 20
74.3518711193
  0
VERTEX
  8
0
 62
7
  6
CONTINUOUS
 10
227.3207254954
 20
74.8537216394
  0
VERTEX
  8
0
 62
7
  6
CONTINUOUS
 10
227.4633582711
 20
75.3872694728
  0
VERTEX
  8
0
 62
7
  6
CONTINUOUS
 10
227.589972171
 20
75.9478553037
  0
VERTEX
  8
0
 62
7
  6
CONTINUOUS
 10
227.7005827818
 20
76.5306424386
  0
VERTEX
  8
0
 62
7
  6
CONTINUOUS
 10
227.7952322416
 20
77.130624027
  0
VERTEX
  8
0
 62
7
  6
CONTINUOUS
 10
227.8666093484
 20
77.6789143715
  0
SEQEND
  0
POLYLINE
  8
0
 62
7
  6
CONTINUOUS
 66
1
 70
0
  0
VERTEX
  8
0
 62
7
  6
CONTINUOUS
 10
227.8666092975
 20
77.6789244929
  0
VERTEX
  8
0
 62
7
  6
CONTINUOUS
 10
227.8607975971
 20
77.6703275949
  0
VERTEX
  8
0
 62
7
  6
CONTINUOUS
 10
227.8417108442
 20
77.6615342765
  0
VERTEX
  8
0
 62
7
  6
CONTINUOUS
 10
227.8105095971
 20
77.6548058337
  0
VERTEX
  8
0
 62
7
  6
CONTINUOUS
 10
227.7691910512
 20
77.6504861303
  0
VERTEX
  8
0
 62
7
  6
CONTINUOUS
 10
227.7204947051
 20
77.6486972437
  0
VERTEX
  8
0
 62
7
  6
CONTINUOUS
 10
227.6666686236
 20
77.649256931
  0
SEQEND
  0
LINE
  8
0
 62
7
  6
CONTINUOUS
 10
235.9518367805
 20
108.1642201607
 11
235.9518367805
 21
103.6788574412
  0
LINE
  8
0
 62
7
  6
CONTINUOUS
 10
236.2518367805
 20
85.0436320775
 11
236.2518367805
 21
139.6216054335
  0
POLYLINE
  8
0
 62
7
  6
CONTINUOUS
 66
1
 70
0
  0
VERTEX
  8
0
 62
7
  6
CONTINUOUS
 10
235.9518367805
 20
103.6788684034
  0
VERTEX
  8
0
 62
7
  6
CONTINUOUS
 10
235.9421572941
 20
103.5093008347
  0
VERTEX
  8
0
 62
7
  6
CONTINUOUS
 10
235.9119992923
 20
103.3235798027
  0
VERTEX
  8
0
 62
7
  6
CONTINUOUS
 10
235.859998651
 20
103.1219576502
  0
VERTEX
  8
0
 62
7
  6
CONTINUOUS
 10
235.7865960414
 20
102.9075300764
  0
VERTEX
  8
0
 62
7
  6
CONTINUOUS
 10
235.6928251329
 20
102.6803308016
  0
VERTEX
  8
0
 62
7
  6
CONTINUOUS
 10
235.5802483775
 20
102.43841503
  0
VERTEX
  8
0
 62
7
  6
CONTINUOUS
 10
235.4518367805
 20
102.1788684034
  0
SEQEND
  0
POLYLINE
  8
0
 62
7
  6
CONTINUOUS
 66
1
 70
0
  0
VERTEX
  8
0
 62
7
  6
CONTINUOUS
 10
236.2518367805
 20
134.1587903578
  0
VERTEX
  8
0
 62
7
  6
CONTINUOUS
 10
236.2469119103
 20
134.1665531249
  0
VERTEX
  8
0
 62
7
  6
CONTINUOUS
 10
236.2323273955
 20
134.17393325
  0
VERTEX
  8
0
 62
7
  6
CONTINUOUS
 10
236.2087189338
 20
134.1805674474
  0
VERTEX
  8
0
 62
7
  6
CONTINUOUS
 10
236.177180484
 20
134.1861235216
  0
VERTEX
  8
0
 62
7
  6
CONTINUOUS
 10
236.1392292993
 20
134.1903177093
  0
VERTEX
  8
0
 62
7
  6
CONTINUOUS
 10
236.0967381746
 20
134.1929306229
  0
VERTEX
  8
0
 62
7
  6
CONTINUOUS
 10
236.0518367805
 20
134.1938195776
  0
SEQEND
  0
POLYLINE
  8
0
 62
7
  6
CONTINUOUS
 66
1
 70
0
  0
VERTEX
  8
0
 62
7
  6
CONTINUOUS
 10
236.2518364646
 20
139.6217270515
  0
VERTEX
  8
0
 62
7
  6
CONTINUOUS
 10
236.2467974045
 20
139.6661433076
  0
VERTEX
  8
0
 62
7
  6
CONTINUOUS
 10
236.2320219499
 20
139.7083259224
  0
VERTEX
  8
0
 62
7
  6
CONTINUOUS
 10
236.2082463923
 20
139.7461760833
  0
VERTEX
  8
0
 62
7
  6
CONTINUOUS
 10
236.1766579401
 20
139.777801596
  0
VERTEX
  8
0
 62
7
  6
CONTINUOUS
 10
236.1388339202
 20
139.8016223863
  0
VERTEX
  8
0
 62
7
  6
CONTINUOUS
 10
236.0966641246
 20
139.81644795
  0
VERTEX
  8
0
 62
7
  6
CONTINUOUS
 10
236.0518276017
 20
139.8215382533
  0
SEQEND
  0
ARC
  8
0
 62
7
  6
CONTINUOUS
 10
155.3750950631
 20
196.3820092166
 40
1.0
 50
184.57
 51
270.0
  0
ARC
  8
0
 62
7
  6
CONTINUOUS
 10
157.7285784979
 20
196.3820092166
 40
1.0
 50
270.0
 51
355.43
  0
ARC
  8
0
 62
7
  6
CONTINUOUS
 10
149.3285784979
 20
196.3820092166
 40
1.0
 50
270.0
 51
287.4745042926
  0
ARC
  8
0
 62
7
  6
CONTINUOUS
 10
138.5750950631
 20
196.3820092166
 40
1.0
 50
184.57
 51
270.0
  0
ARC
  8
0
 62
7
  6
CONTINUOUS
 10
140.9285784979
 20
196.3820092166
 40
1.0
 50
270.0
 51
355.43
  0
ARC
  8
0
 62
7
  6
CONTINUOUS
 10
146.9750950631
 20
196.3820092166
 40
1.0
 50
252.5254957074
 51
270.0
  0
ARC
  8
0
 62
7
  6
CONTINUOUS
 10
132.5285784979
 20
196.3820092166
 40
1.0
 50
270.0
 51
287.4745042926
  0
ARC
  8
0
 62
7
  6
CONTINUOUS
 10
121.7750950631
 20
196.3820092166
 40
1.0
 50
184.57
 51
270.0
  0
ARC
  8
0
 62
7
  6
CONTINUOUS
 10
124.1285784979
 20
196.3820092166
 40
1.0
 50
270.0
 51
355.43
  0
ARC
  8
0
 62
7
  6
CONTINUOUS
 10
130.1750950631
 20
196.3820092166
 40
1.0
 50
252.5254957074
 51
270.0
  0
ARC
  8
0
 62
7
  6
CONTINUOUS
 10
115.7285784979
 20
196.3820092166
 40
1.0
 50
270.0
 51
287.4745042926
  0
ARC
  8
0
 62
7
  6
CONTINUOUS
 10
104.9750950631
 20
196.3820092166
 40
1.0
 50
184.57
 51
270.0
  0
ARC
  8
0
 62
7
  6
CONTINUOUS
 10
107.3285784979
 20
196.3820092166
 40
1.0
 50
270.0
 51
355.43
  0
ARC
  8
0
 62
7
  6
CONTINUOUS
 10
113.3750950631
 20
196.3820092166
 40
1.0
 50
252.5254957074
 51
270.0
  0
ARC
  8
0
 62
7
  6
CONTINUOUS
 10
98.9285784979
 20
196.3820092166
 40
1.0
 50
270.0
 51
287.4745042926
  0
ARC
  8
0
 62
7
  6
CONTINUOUS
 10
96.5750950631
 20
196.3820092166
 40
1.0
 50
261.8535358985
 51
270.0
  0
ARC
  8
0
 62
7
  6
CONTINUOUS
 10
86.2518367805
 20
196.3820092166
 40
1.0
 50
180.0
 51
270.0
  0
ARC
  8
0
 62
7
  6
CONTINUOUS
 10
160.1141398391
 20
207.4012116725
 40
0.5
 50
164.05
 51
175.43
  0
ARC
  8
0
 62
7
  6
CONTINUOUS
 10
152.9895337219
 20
207.4012116725
 40
0.5
 50
4.57
 51
15.95
  0
ARC
  8
0
 62
7
  6
CONTINUOUS
 10
143.3141398391
 20
207.4012116725
 40
0.5
 50
164.05
 51
175.43
  0
ARC
  8
0
 62
7
  6
CONTINUOUS
 10
136.1895337219
 20
207.4012116725
 40
0.5
 50
4.57
 51
15.95
  0
ARC
  8
0
 62
7
  6
CONTINUOUS
 10
126.5141398391
 20
207.4012116725
 40
0.5
 50
164.05
 51
175.43
  0
ARC
  8
0
 62
7
  6
CONTINUOUS
 10
119.3895337219
 20
207.4012116725
 40
0.5
 50
4.57
 51
15.95
  0
ARC
  8
0
 62
7
  6
CONTINUOUS
 10
86.0518367805
 20
215.8820092166
 40
0.5
 50
90.0
 51
180.0
  0
ARC
  8
0
 62
7
  6
CONTINUOUS
 10
109.7141398391
 20
207.4012116725
 40
0.5
 50
164.05
 51
175.43
  0
ARC
  8
0
 62
7
  6
CONTINUOUS
 10
102.5895337219
 20
207.4012116725
 40
0.5
 50
4.57
 51
15.95
  0
ARC
  8
0
 62
7
  6
CONTINUOUS
 10
92.9141398391
 20
207.4012116725
 40
0.5
 50
164.05
 51
175.43
  0
ARC
  8
0
 62
7
  6
CONTINUOUS
 10
160.4666686236
 20
211.1820092166
 40
0.2
 50
344.05
 51
90.0
  0
ARC
  8
0
 62
7
  6
CONTINUOUS
 10
152.6370049373
 20
211.1820092166
 40
0.2
 50
90.0
 51
195.95
  0
ARC
  8
0
 62
7
  6
CONTINUOUS
 10
143.6666686236
 20
211.1820092166
 40
0.2
 50
344.05
 51
90.0
  0
ARC
  8
0
 62
7
  6
CONTINUOUS
 10
135.8370049373
 20
211.1820092166
 40
0.2
 50
90.0
 51
195.95
  0
ARC
  8
0
 62
7
  6
CONTINUOUS
 10
126.8666686236
 20
211.1820092166
 40
0.2
 50
344.05
 51
90.0
  0
ARC
  8
0
 62
7
  6
CONTINUOUS
 10
119.0370049373
 20
211.1820092166
 40
0.2
 50
90.0
 51
195.95
  0
ARC
  8
0
 62
7
  6
CONTINUOUS
 10
110.0666686236
 20
211.1820092166
 40
0.2
 50
344.05
 51
90.0
  0
ARC
  8
0
 62
7
  6
CONTINUOUS
 10
102.2370049373
 20
211.1820092166
 40
0.2
 50
90.0
 51
195.95
  0
ARC
  8
0
 62
7
  6
CONTINUOUS
 10
93.2666686236
 20
211.1820092166
 40
0.2
 50
344.05
 51
90.0
  0
ARC
  8
0
 62
7
  6
CONTINUOUS
 10
85.4518367805
 20
211.1820092166
 40
0.2
 50
90.0
 51
180.0
  0
ARC
  8
0
 62
7
  6
CONTINUOUS
 10
224.9285784979
 20
196.3820092166
 40
1.0
 50
270.0
 51
278.1464641015
  0
ARC
  8
0
 62
7
  6
CONTINUOUS
 10
222.5750950631
 20
196.3820092166
 40
1.0
 50
184.57
 51
270.0
  0
ARC
  8
0
 62
7
  6
CONTINUOUS
 10
216.5285784979
 20
196.3820092166
 40
1.0
 50
270.0
 51
287.4745042926
  0
ARC
  8
0
 62
7
  6
CONTINUOUS
 10
205.7750950631
 20
196.3820092166
 40
1.0
 50
184.57
 51
270.0
  0
ARC
  8
0
 62
7
  6
CONTINUOUS
 10
208.1285784979
 20
196.3820092166
 40
1.0
 50
270.0
 51
355.43
  0
ARC
  8
0
 62
7
  6
CONTINUOUS
 10
214.1750950631
 20
196.3820092166
 40
1.0
 50
252.5254957074
 51
270.0
  0
ARC
  8
0
 62
7
  6
CONTINUOUS
 10
199.7285784979
 20
196.3820092166
 40
1.0
 50
270.0
 51
287.4745042926
  0
ARC
  8
0
 62
7
  6
CONTINUOUS
 10
188.9750950631
 20
196.3820092166
 40
1.0
 50
184.57
 51
270.0
  0
ARC
  8
0
 62
7
  6
CONTINUOUS
 10
191.3285784979
 20
196.3820092166
 40
1.0
 50
270.0
 51
355.43
  0
ARC
  8
0
 62
7
  6
CONTINUOUS
 10
197.3750950631
 20
196.3820092166
 40
1.0
 50
252.5254957074
 51
270.0
  0
ARC
  8
0
 62
7
  6
CONTINUOUS
 10
182.9285784979
 20
196.3820092166
 40
1.0
 50
270.0
 51
287.4745042926
  0
ARC
  8
0
 62
7
  6
CONTINUOUS
 10
172.1750950631
 20
196.3820092166
 40
1.0
 50
184.57
 51
270.0
  0
ARC
  8
0
 62
7
  6
CONTINUOUS
 10
174.5285784979
 20
196.3820092166
 40
1.0
 50
270.0
 51
355.43
  0
ARC
  8
0
 62
7
  6
CONTINUOUS
 10
180.5750950631
 20
196.3820092166
 40
1.0
 50
252.5254957074
 51
270.0
  0
ARC
  8
0
 62
7
  6
CONTINUOUS
 10
166.1285784979
 20
196.3820092166
 40
1.0
 50
270.0
 51
287.4745042926
  0
ARC
  8
0
 62
7
  6
CONTINUOUS
 10
163.7750950631
 20
196.3820092166
 40
1.0
 50
252.5254957074
 51
270.0
  0
ARC
  8
0
 62
7
  6
CONTINUOUS
 10
235.2518367805
 20
196.3820092166
 40
1.0
 50
270.0
 51
360.0
  0
ARC
  8
0
 62
7
  6
CONTINUOUS
 10
235.2518367805
 20
196.4320092166
 40
1.0
 50
270.0
 51
360.0
  0
ARC
  8
0
 62
7
  6
CONTINUOUS
 10
235.2518367805
 20
204.3820092166
 40
1.0
 50
270.0
 51
360.0
  0
ARC
  8
0
 62
6
  6
CONTINUOUS
 10
224.9285784979
 20
196.3820092166
 40
1.0
 50
278.1464641015
 51
355.43
  0
ARC
  8
0
 62
6
  6
CONTINUOUS
 10
230.9750950631
 20
196.3820092166
 40
1.0
 50
184.57
 51
270.0
  0
ARC
  8
0
 62
6
  6
CONTINUOUS
 10
216.5285784979
 20
196.3820092166
 40
1.0
 50
287.4745042926
 51
355.43
  0
ARC
  8
0
 62
7
  6
CONTINUOUS
 10
227.3141398391
 20
207.4012116725
 40
0.5
 50
164.05
 51
175.43
  0
ARC
  8
0
 62
7
  6
CONTINUOUS
 10
220.1895337219
 20
207.4012116725
 40
0.5
 50
4.57
 51
15.95
  0
ARC
  8
0
 62
7
  6
CONTINUOUS
 10
210.5141398391
 20
207.4012116725
 40
0.5
 50
164.05
 51
175.43
  0
ARC
  8
0
 62
7
  6
CONTINUOUS
 10
203.3895337219
 20
207.4012116725
 40
0.5
 50
4.57
 51
15.95
  0
ARC
  8
0
 62
7
  6
CONTINUOUS
 10
193.7141398391
 20
207.4012116725
 40
0.5
 50
164.05
 51
175.43
  0
ARC
  8
0
 62
7
  6
CONTINUOUS
 10
186.5895337219
 20
207.4012116725
 40
0.5
 50
4.57
 51
15.95
  0
ARC
  8
0
 62
7
  6
CONTINUOUS
 10
176.9141398391
 20
207.4012116725
 40
0.5
 50
164.05
 51
175.43
  0
ARC
  8
0
 62
7
  6
CONTINUOUS
 10
169.7895337219
 20
207.4012116725
 40
0.5
 50
4.57
 51
15.95
  0
ARC
  8
0
 62
7
  6
CONTINUOUS
 10
235.4518367805
 20
215.8820092166
 40
0.5
 50
0.0
 51
90.0
  0
ARC
  8
0
 62
7
  6
CONTINUOUS
 10
227.6666686236
 20
211.1820092166
 40
0.2
 50
344.05
 51
90.0
  0
ARC
  8
0
 62
7
  6
CONTINUOUS
 10
219.8370049373
 20
211.1820092166
 40
0.2
 50
90.0
 51
195.95
  0
ARC
  8
0
 62
7
  6
CONTINUOUS
 10
210.8666686236
 20
211.1820092166
 40
0.2
 50
344.05
 51
90.0
  0
ARC
  8
0
 62
7
  6
CONTINUOUS
 10
203.0370049373
 20
211.1820092166
 40
0.2
 50
90.0
 51
195.95
  0
ARC
  8
0
 62
7
  6
CONTINUOUS
 10
194.0666686236
 20
211.1820092166
 40
0.2
 50
344.05
 51
90.0
  0
ARC
  8
0
 62
7
  6
CONTINUOUS
 10
186.2370049373
 20
211.1820092166
 40
0.2
 50
90.0
 51
195.95
  0
ARC
  8
0
 62
7
  6
CONTINUOUS
 10
177.2666686236
 20
211.1820092166
 40
0.2
 50
344.05
 51
90.0
  0
ARC
  8
0
 62
7
  6
CONTINUOUS
 10
169.4370049373
 20
211.1820092166
 40
0.2
 50
90.0
 51
195.95
  0
ARC
  8
0
 62
7
  6
CONTINUOUS
 10
236.0518367805
 20
211.1820092166
 40
0.2
 50
0.0
 51
90.0
  0
ARC
  8
0
 62
6
  6
CONTINUOUS
 10
228.2370049373
 20
211.1820092166
 40
0.2
 50
90.0
 51
195.95
  0
ARC
  8
0
 62
6
  6
CONTINUOUS
 10
219.2666686236
 20
211.1820092166
 40
0.2
 50
344.05
 51
90.0
  0
ARC
  8
0
 62
7
  6
CONTINUOUS
 10
290.3246840578
 20
168.3374381593
 40
50.0
 50
36.1628008448
 51
46.2787379139
  0
ARC
  8
0
 62
7
  6
CONTINUOUS
 10
289.2315634585
 20
203.3820092166
 40
8.75
 50
29.0322772227
 51
59.4415682141
  0
ARC
  8
0
 62
7
  6
CONTINUOUS
 10
289.2359251781
 20
203.3820092166
 40
8.5
 50
109.7499227956
 51
231.9951143277
  0
ARC
  8
0
 62
7
  6
CONTINUOUS
 10
289.2359251781
 20
203.3820092166
 40
8.5
 50
232.4345865675
 51
250.2500772044
  0
ARC
  8
0
 62
6
  6
CONTINUOUS
 10
289.2359251781
 20
203.3820092166
 40
8.5
 50
231.9951143277
 51
232.4345865675
  0
ARC
  8
0
 62
7
  6
CONTINUOUS
 10
289.2359251781
 20
203.3820092166
 40
5.8
 50
0.0
 51
180.0
  0
CIRCLE
  8
0
 62
7
  6
CONTINUOUS
 10
289.2359251781
 20
203.3820092166
 40
4.15
  0
ARC
  8
0
 62
7
  6
CONTINUOUS
 10
293.7359251781
 20
201.3820092166
 40
6.0
 50
270.0
 51
323.8371991552
  0
ARC
  8
0
 62
7
  6
CONTINUOUS
 10
297.5378547702
 20
207.992380638
 40
0.75
 50
209.0322772227
 51
250.46
  0
ARC
  8
0
 62
7
  6
CONTINUOUS
 10
293.8073147629
 20
211.1320092166
 40
0.25
 50
90.0
 51
239.4415682141
  0
ARC
  8
0
 62
7
  6
CONTINUOUS
 10
308.4581159989
 20
204.3820092166
 40
1.0
 50
250.46
 51
270.0
  0
ARC
  8
0
 62
7
  6
CONTINUOUS
 10
313.8831018174
 20
196.4320092166
 40
1.0
 50
196.467546793
 51
270.0
  0
ARC
  8
0
 62
7
  6
CONTINUOUS
 10
310.1508250348
 20
202.5320092166
 40
0.85
 50
16.467546793
 51
90.0
  0
ARC
  8
0
 62
6
  6
CONTINUOUS
 10
304.7352090323
 20
204.1116185135
 40
0.5
 50
70.46
 51
133.7212620861
  0
ARC
  8
0
 62
7
  6
CONTINUOUS
 10
310.8932553273
 20
213.3820092166
 40
2.0
 50
270.0
 51
359.0
  0
ARC
  8
0
 62
7
  6
CONTINUOUS
 10
313.4372738097
 20
215.8820092166
 40
0.5
 50
90.0
 51
179.0
  0
ARC
  8
0
 62
7
  6
CONTINUOUS
 10
338.9471662985
 20
168.3374381593
 40
50.0
 50
135.3479452806
 51
143.8371991552
  0
ARC
  8
0
 62
6
  6
CONTINUOUS
 10
338.9471662985
 20
168.3374381593
 40
50.0
 50
133.7212620861
 51
135.3479452806
  0
ARC
  8
0
 62
7
  6
CONTINUOUS
 10
315.3887485389
 20
196.4320092166
 40
1.0
 50
270.0
 51
343.532453207
  0
ARC
  8
0
 62
7
  6
CONTINUOUS
 10
320.8137343574
 20
204.3820092166
 40
1.0
 50
270.0
 51
289.54
  0
ARC
  8
0
 62
7
  6
CONTINUOUS
 10
319.1210253215
 20
202.5320092166
 40
0.85
 50
90.0
 51
163.532453207
  0
ARC
  8
0
 62
7
  6
CONTINUOUS
 10
324.536641324
 20
204.1116185135
 40
0.5
 50
46.2787379139
 51
109.54
  0
ARC
  8
0
 62
7
  6
CONTINUOUS
 10
318.378595029
 20
213.3820092166
 40
2.0
 50
181.0
 51
270.0
  0
ARC
  8
0
 62
7
  6
CONTINUOUS
 10
315.8345765466
 20
215.8820092166
 40
0.5
 50
1.0
 51
90.0
  0
ARC
  8
0
 62
6
  6
CONTINUOUS
 10
340.0402868978
 20
203.3820092166
 40
8.75
 50
120.5584317859
 51
150.9677227773
  0
ARC
  8
0
 62
7
  6
CONTINUOUS
 10
340.0359251781
 20
203.3820092166
 40
8.5
 50
289.7499227956
 51
70.2500772044
  0
ARC
  8
0
 62
7
  6
CONTINUOUS
 10
335.5359251781
 20
201.3820092166
 40
6.0
 50
216.1628008448
 51
270.0
  0
CIRCLE
  8
0
 62
7
  6
CONTINUOUS
 10
340.0359251781
 20
203.3820092166
 40
4.15
  0
ARC
  8
0
 62
6
  6
CONTINUOUS
 10
331.733995586
 20
207.992380638
 40
0.75
 50
289.54
 51
330.9677227773
  0
ARC
  8
0
 62
6
  6
CONTINUOUS
 10
335.4645355934
 20
211.1320092166
 40
0.25
 50
300.5584317859
 51
90.0
  0
ARC
  8
0
 62
40
  6
CONTINUOUS
 10
86.5518367805
 20
80.4015382543
 40
1.5
 50
150.095255074
 51
209.904744926
  0
ARC
  8
0
 62
40
  6
CONTINUOUS
 10
234.9518367805
 20
131.4415382543
 40
1.5
 50
330.095255074
 51
29.904744926
  0
ARC
  8
0
 62
7
  6
CONTINUOUS
 10
85.4518367805
 20
126.8001486696
 40
0.2
 50
90.0
 51
180.0
  0
ARC
  8
0
 62
7
  6
CONTINUOUS
 10
236.0518367805
 20
85.042927839
 40
0.2
 50
270.0
 51
360.0
  0
ENDSEC
  0
EOF
