  0
SECTION
  2
HEADER
  9
$EXTMAX
 10
420.0
 20
297.0
 30
0.0
  9
$EXTMIN
 10
0.0
 20
0.0
 30
0.0
  9
$LIMMIN
 10
0.0
 20
0.0
  9
$LIMMAX
 10
420.0
 20
297.0
  9
$VIEWCTR
 10
210.0
 20
148.5
  9
$VIEWSIZE
 40
297.0
  9
$CLAYER
  8
0
  9
$LTSCALE
 40
23.1
  9
$CELTYPE
  6
BYLAYER
  9
$DIMSCALE
 40
1.0
  9
$DIMASZ
 40
3.5
  9
$DIMEXO
 40
2.625
  9
$DIMDLI
 40
15.96
  9
$DIMEXE
 40
7.56
  9
$DIMCEN
 40
3.78
  9
$DIMLFAC
 40
1.0
  9
$DIMBLK
  1
_FILLED
  9
$DIMTXT
 40
3.5
  9
$PDMODE
 70
3
  9
$PDSIZE
 40
0.3125
  9
$TILEMODE
 70
1
  0
ENDSEC
  0
SECTION
  2
TABLES
  0
TABLE
  2
LTYPE
 70
6
  0
LTYPE
  2
BYBLOCK
 70
0
  3

 72
65
 73
0
 40
0.0
  0
LTYPE
  2
BYLAYER
 70
0
  3

 72
65
 73
0
 40
0.0
  0
LTYPE
  2
CONTINUOUS
 70
64
  3
Solid line
 72
65
 73
0
 40
0.0
  0
LTYPE
  2
CENTER
 70
64
  3
____ _ ____ _ ____ _ ____ _ ____ _ ____ _ ____
 72
65
 73
4
 40
0.6
 49
0.375
 49
-0.075
 49
0.075
 49
-0.075
  0
LTYPE
  2
HIDDEN
 70
64
  3
- - - - - - - - - - - - - - - - - - - -
 72
65
 73
2
 40
0.2
 49
0.1
 49
-0.1
  0
LTYPE
  2
PHANTOM
 70
64
  3
_____ _ _ _____ _ _ _____ _ _ _____
 72
65
 73
6
 40
0.8
 49
0.45
 49
-0.05
 49
0.1
 49
-0.05
 49
0.1
 49
-0.05
  0
LTYPE
  2
DOT
 70
64
  3
. . . . . . . . . . . . . . . . . . . .
 72
65
 73
2
 40
0.2
 49
0.1
 49
-0.1
  0
LTYPE
  2
DASHED
 70
64
  3
- - - - - - - - - - - - - - - - - - - -
 72
65
 73
2
 40
0.2
 49
0.1
 49
-0.1
  0
ENDTAB
  0
TABLE
  2
LAYER
 70
36
  0
LAYER
  2
0
 70
0
 62
7
  6
CONTINUOUS
  0
LAYER
  2
DEFAULT_1
 70
0
 62
7
  6
CENTER
  0
LAYER
  2
DEFAULT_2
 70
0
 62
8
  6
HIDDEN
  0
LAYER
  2
DEFAULT_3
 70
0
 62
7
  6
PHANTOM
  0
LAYER
  2
BLANK_PLAN
 70
0
 62
7
  6
CONTINUOUS
  0
LAYER
  2
NOTES
 70
0
 62
7
  6
CONTINUOUS
  0
ENDTAB
  0
TABLE
  2
STYLE
 70
1
  0
STYLE
  2
STANDARD
 70
0
 40
0.0
 41
0.8
 50
0.0
 71
0
 42
0.2
  3
txt
  4

  0
STYLE
  2
TEXTSTYLE_1
 70
0
 40
0.0
 41
0.8
 50
0.0
 71
0
 42
0.2
  3
gdt
  4

  0
STYLE
  2
TEXTSTYLE_2
 70
0
 40
0.0
 41
0.6
 50
0.0
 71
0
 42
0.2
  3
txt
  4

  0
STYLE
  2
TEXTSTYLE_3
 70
0
 40
0.0
 41
1.0
 50
0.0
 71
0
 42
0.2
  3
ftb_____.ttf
  4

  0
STYLE
  2
TEXTSTYLE_4
 70
0
 40
0.0
 41
1.0
 50
0.0
 71
0
 42
0.2
  3
fti_____.ttf
  4

  0
STYLE
  2
TEXTSTYLE_5
 70
0
 40
0.0
 41
1.0
 50
0.0
 71
0
 42
0.2
  3
frutiger light.ttf
  4

  0
STYLE
  2
TEXTSTYLE_6
 70
0
 40
0.0
 41
0.7
 50
0.0
 71
0
 42
0.2
  3
txt
  4

  0
STYLE
  2
TEXTSTYLE_7
 70
0
 40
0.0
 41
0.3
 50
0.0
 71
0
 42
0.2
  3
txt
  4

  0
ENDTAB
  0
ENDSEC
  0
SECTION
  2
BLOCKS
  0
BLOCK
  8
0
 62
2
  6
CONTINUOUS
  2
SYMBOL_5_BL1
 70
64
 10
382.7840918555
 20
35.5067593403
  0
TEXT
  8
0
 62
7
  6
CONTINUOUS
 10
373.842376864
 20
30.5995157174
  7
TEXTSTYLE_4
 40
1.0655737705
  1
The brand for plastic modular belts and chains
 41
1.0
 72
0
  0
LINE
  8
0
 62
7
  6
CONTINUOUS
 10
358.7621602445
 20
36.0805298321
 11
358.7621602445
 21
33.9493822911
  0
LINE
  8
0
 62
7
  6
CONTINUOUS
 10
359.0512227376
 20
30.9584509954
 11
359.0512227376
 21
31.0552420547
  0
LINE
  8
0
 62
7
  6
CONTINUOUS
 10
358.7621602445
 20
31.0229783683
 11
358.8199727462
 21
30.8293962497
  0
LINE
  8
0
 62
7
  6
CONTINUOUS
 10
360.1556028675
 20
33.867415078
 11
360.1556028675
 21
36.0805298321
  0
LINE
  8
0
 62
7
  6
CONTINUOUS
 10
361.0746601894
 20
32.0231527829
 11
361.0746601894
 21
30.5067593403
  0
LINE
  8
0
 62
7
  6
CONTINUOUS
 10
361.3637227445
 20
30.5067593403
 11
361.3637227445
 21
31.2488242184
  0
LINE
  8
0
 62
7
  6
CONTINUOUS
 10
361.3637227445
 20
31.3778789641
 11
361.3637227445
 21
32.0231527829
  0
LINE
  8
0
 62
7
  6
CONTINUOUS
 10
358.8199727462
 20
31.216560532
 11
358.7621602445
 21
31.0229783683
  0
LINE
  8
0
 62
7
  6
CONTINUOUS
 10
359.1668477307
 20
30.7971325633
 11
359.0512227376
 21
30.9584509954
  0
LINE
  8
0
 62
7
  6
CONTINUOUS
 10
360.2652852997
 20
31.3133515913
 11
360.3230977445
 21
31.216560532
  0
LINE
  8
0
 62
7
  6
CONTINUOUS
 10
360.6121602997
 20
31.216560532
 11
360.5543476894
 21
31.3456152777
  0
LINE
  8
0
 62
7
  6
CONTINUOUS
 10
362.0408487691
 20
36.0805298321
 11
362.0408487691
 21
34.2772511436
  0
LINE
  8
0
 62
7
  6
CONTINUOUS
 10
362.0408487691
 20
32.9657757338
 11
362.0408487691
 21
32.3100380288
  0
LINE
  8
0
 62
7
  6
CONTINUOUS
 10
362.4043477445
 20
31.1520331591
 11
362.4043477445
 21
30.5067593403
  0
LINE
  8
0
 62
7
  6
CONTINUOUS
 10
362.6934101343
 20
30.5067593403
 11
362.6934101343
 21
31.1520331591
  0
LINE
  8
0
 62
7
  6
CONTINUOUS
 10
359.0512227376
 20
31.0552420547
 11
359.1090352445
 21
31.1842968456
  0
LINE
  8
0
 62
7
  6
CONTINUOUS
 10
358.8199727462
 20
30.8293962497
 11
358.9355977445
 21
30.7003414814
  0
LINE
  8
0
 62
7
  6
CONTINUOUS
 10
362.3465351343
 20
31.2810879048
 11
362.4043477445
 21
31.1520331591
  0
LINE
  8
0
 62
7
  6
CONTINUOUS
 10
363.1559103548
 20
30.7971325633
 11
363.2137226343
 21
30.668077795
  0
LINE
  8
0
 62
7
  6
CONTINUOUS
 10
362.6934101343
 20
31.1520331591
 11
362.6355978548
 21
31.3133515913
  0
LINE
  8
0
 62
7
  6
CONTINUOUS
 10
363.1559103548
 20
31.3456152777
 11
363.1559103548
 21
31.2810879048
  0
LINE
  8
0
 62
7
  6
CONTINUOUS
 10
363.1559103548
 20
30.8939236226
 11
363.1559103548
 21
30.7971325633
  0
LINE
  8
0
 62
7
  6
CONTINUOUS
 10
363.4342913921
 20
32.3100380288
 11
363.4342913921
 21
36.0805298321
  0
LINE
  8
0
 62
7
  6
CONTINUOUS
 10
363.4449727445
 20
30.7648688543
 11
363.4449727445
 21
30.8293962497
  0
LINE
  8
0
 62
7
  6
CONTINUOUS
 10
363.7621602445
 20
36.0805298321
 11
363.7621602445
 21
32.3100380288
  0
LINE
  8
0
 62
7
  6
CONTINUOUS
 10
360.5543476894
 20
30.7003414814
 11
360.6121602997
 21
30.8293962497
  0
LINE
  8
0
 62
7
  6
CONTINUOUS
 10
364.9480979651
 20
30.6035504109
 11
364.890285024
 21
30.7648688543
  0
LINE
  8
0
 62
7
  6
CONTINUOUS
 10
364.6012229651
 20
31.2810879048
 11
364.6012229651
 21
31.1842968456
  0
LINE
  8
0
 62
7
  6
CONTINUOUS
 10
364.6012229651
 20
31.0552420547
 11
364.6012229651
 21
30.8616599362
  0
LINE
  8
0
 62
7
  6
CONTINUOUS
 10
364.890285024
 20
30.7648688543
 11
364.890285024
 21
31.2810879048
  0
LINE
  8
0
 62
7
  6
CONTINUOUS
 10
365.1556028675
 20
32.3100380288
 11
365.1556028675
 21
34.1133167174
  0
LINE
  8
0
 62
7
  6
CONTINUOUS
 10
365.1556028675
 20
35.4247921272
 11
365.1556028675
 21
36.0805298321
  0
LINE
  8
0
 62
7
  6
CONTINUOUS
 10
365.4684104651
 20
32.0231527829
 11
365.4684104651
 21
31.8618343508
  0
LINE
  8
0
 62
7
  6
CONTINUOUS
 10
365.4684104651
 20
31.5391973962
 11
365.4684104651
 21
30.5067593403
  0
LINE
  8
0
 62
7
  6
CONTINUOUS
 10
365.757472524
 20
30.5067593403
 11
365.757472524
 21
31.5391973962
  0
LINE
  8
0
 62
7
  6
CONTINUOUS
 10
365.757472524
 20
31.8618343508
 11
365.757472524
 21
32.0231527829
  0
LINE
  8
0
 62
7
  6
CONTINUOUS
 10
360.3230977445
 20
30.8293962497
 11
360.2652852997
 21
30.7326051679
  0
LINE
  8
0
 62
7
  6
CONTINUOUS
 10
362.6355978548
 20
31.3133515913
 11
362.5777852445
 21
31.3778789641
  0
LINE
  8
0
 62
7
  6
CONTINUOUS
 10
363.5027853548
 20
30.7003414814
 11
363.4449727445
 21
30.7648688543
  0
LINE
  8
0
 62
7
  6
CONTINUOUS
 10
364.6590352445
 20
30.5712867188
 11
364.716847524
 21
30.5067593403
  0
LINE
  8
0
 62
7
  6
CONTINUOUS
 10
364.6012229651
 20
30.668077795
 11
364.6590352445
 21
30.5712867188
  0
LINE
  8
0
 62
7
  6
CONTINUOUS
 10
365.0059102445
 20
30.5067593403
 11
364.9480979651
 21
30.6035504109
  0
LINE
  8
0
 62
7
  6
CONTINUOUS
 10
364.890285024
 20
31.2810879048
 11
364.8324727445
 21
31.3778789641
  0
LINE
  8
0
 62
7
  6
CONTINUOUS
 10
366.2199727445
 20
31.5391973962
 11
366.2199727445
 21
30.5067593403
  0
LINE
  8
0
 62
7
  6
CONTINUOUS
 10
366.5090354651
 20
30.5067593403
 11
366.5090354651
 21
31.2488242184
  0
LINE
  8
0
 62
7
  6
CONTINUOUS
 10
366.5090354651
 20
31.3778789641
 11
366.5090354651
 21
31.5391973962
  0
LINE
  8
0
 62
7
  6
CONTINUOUS
 10
367.0408487691
 20
34.5231527829
 11
367.0408487691
 21
32.3100380288
  0
LINE
  8
0
 62
7
  6
CONTINUOUS
 10
358.9355977445
 20
31.3456152777
 11
358.8199727462
 21
31.216560532
  0
LINE
  8
0
 62
7
  6
CONTINUOUS
 10
359.1090352445
 20
31.1842968456
 11
359.1668477307
 21
31.2488242184
  0
LINE
  8
0
 62
7
  6
CONTINUOUS
 10
358.9355977445
 20
30.7003414814
 11
359.0512227376
 21
30.6358140973
  0
LINE
  8
0
 62
7
  6
CONTINUOUS
 10
359.3402852307
 20
30.7003414814
 11
359.1668477307
 21
30.7971325633
  0
LINE
  8
0
 62
7
  6
CONTINUOUS
 10
364.543410024
 20
31.3456152777
 11
364.6012229651
 21
31.2810879048
  0
LINE
  8
0
 62
7
  6
CONTINUOUS
 10
367.491847524
 20
31.2810879048
 11
367.5496604651
 21
31.1197694727
  0
LINE
  8
0
 62
7
  6
CONTINUOUS
 10
367.838722524
 20
31.1197694727
 11
367.7809102445
 21
31.2810879048
  0
LINE
  8
0
 62
7
  6
CONTINUOUS
 10
367.5496604651
 20
31.1197694727
 11
367.5496604651
 21
30.5067593403
  0
LINE
  8
0
 62
7
  6
CONTINUOUS
 10
367.838722524
 20
30.5067593403
 11
367.838722524
 21
31.1197694727
  0
LINE
  8
0
 62
7
  6
CONTINUOUS
 10
368.3012227445
 20
31.3456152777
 11
368.3012227445
 21
31.2810879048
  0
LINE
  8
0
 62
7
  6
CONTINUOUS
 10
368.4342913921
 20
32.3100380288
 11
368.4342913921
 21
34.4411855698
  0
LINE
  8
0
 62
7
  6
CONTINUOUS
 10
368.7621602445
 20
36.0805298321
 11
368.7621602445
 21
32.3100380288
  0
LINE
  8
0
 62
7
  6
CONTINUOUS
 10
363.4449727445
 20
30.8293962497
 11
363.5027853548
 21
30.926187309
  0
LINE
  8
0
 62
7
  6
CONTINUOUS
 10
359.0512227376
 20
30.6358140973
 11
359.2246602583
 21
30.5712867188
  0
LINE
  8
0
 62
7
  6
CONTINUOUS
 10
360.5543476894
 20
31.3456152777
 11
360.3809101894
 21
31.4424063369
  0
LINE
  8
0
 62
7
  6
CONTINUOUS
 10
363.2137226343
 20
30.668077795
 11
363.3871601343
 21
30.5712867188
  0
LINE
  8
0
 62
7
  6
CONTINUOUS
 10
362.2309102445
 20
31.3456152777
 11
362.3465351343
 21
31.2810879048
  0
LINE
  8
0
 62
7
  6
CONTINUOUS
 10
362.5777852445
 20
31.3778789641
 11
362.4621603548
 21
31.4424063369
  0
LINE
  8
0
 62
7
  6
CONTINUOUS
 10
368.3012227445
 20
30.7648688543
 11
368.4168479651
 21
30.6358140973
  0
LINE
  8
0
 62
7
  6
CONTINUOUS
 10
368.6480977445
 20
30.7003414814
 11
368.5902854651
 21
30.7648688543
  0
LINE
  8
0
 62
7
  6
CONTINUOUS
 10
368.3012227445
 20
31.2810879048
 11
368.4168479651
 21
31.1520331591
  0
LINE
  8
0
 62
7
  6
CONTINUOUS
 10
367.7809102445
 20
31.2810879048
 11
367.7230979651
 21
31.3778789641
  0
LINE
  8
0
 62
7
  6
CONTINUOUS
 10
370.1512223035
 20
30.7003414814
 11
370.1512223035
 21
30.7648688543
  0
LINE
  8
0
 62
7
  6
CONTINUOUS
 10
370.1556028675
 20
32.3100380288
 11
370.1556028675
 21
36.0805298321
  0
LINE
  8
0
 62
7
  6
CONTINUOUS
 10
363.2137226343
 20
31.4101426505
 11
363.1559103548
 21
31.3456152777
  0
LINE
  8
0
 62
7
  6
CONTINUOUS
 10
360.091847717
 20
31.3778789641
 11
360.2652852997
 21
31.3133515913
  0
LINE
  8
0
 62
7
  6
CONTINUOUS
 10
364.8324727445
 20
31.3778789641
 11
364.716847524
 21
31.4424063369
  0
LINE
  8
0
 62
7
  6
CONTINUOUS
 10
368.6480977445
 20
31.216560532
 11
368.5902854651
 21
31.2810879048
  0
LINE
  8
0
 62
7
  6
CONTINUOUS
 10
369.8043479651
 20
30.8293962497
 11
369.8621602445
 21
30.7648688543
  0
LINE
  8
0
 62
7
  6
CONTINUOUS
 10
370.1512223035
 20
30.7648688543
 11
370.0355977445
 21
30.8939236226
  0
LINE
  8
0
 62
7
  6
CONTINUOUS
 10
369.8043479651
 20
31.3456152777
 11
369.8621602445
 21
31.2810879048
  0
LINE
  8
0
 62
7
  6
CONTINUOUS
 10
370.1512223035
 20
31.2810879048
 11
370.0355977445
 21
31.4101426505
  0
LINE
  8
0
 62
7
  6
CONTINUOUS
 10
363.4449727445
 20
31.2810879048
 11
363.5027853548
 21
31.3456152777
  0
LINE
  8
0
 62
7
  6
CONTINUOUS
 10
363.2715352445
 20
31.0229783683
 11
363.1559103548
 21
30.8939236226
  0
LINE
  8
0
 62
7
  6
CONTINUOUS
 10
364.6012229651
 20
30.8616599362
 11
364.543410024
 21
30.7971325633
  0
LINE
  8
0
 62
7
  6
CONTINUOUS
 10
364.543410024
 20
30.6035504109
 11
364.6012229651
 21
30.668077795
  0
LINE
  8
0
 62
7
  6
CONTINUOUS
 10
363.3871601343
 20
30.5712867188
 11
363.5027853548
 21
30.5390230296
  0
LINE
  8
0
 62
7
  6
CONTINUOUS
 10
360.3809101894
 20
31.4424063369
 11
360.1496602445
 21
31.5069337098
  0
LINE
  8
0
 62
7
  6
CONTINUOUS
 10
363.7340351343
 20
30.6358140973
 11
363.5027853548
 21
30.7003414814
  0
LINE
  8
0
 62
7
  6
CONTINUOUS
 10
362.4621603548
 20
31.4424063369
 11
362.2887228548
 21
31.5069337098
  0
LINE
  8
0
 62
7
  6
CONTINUOUS
 10
364.716847524
 20
31.4424063369
 11
364.543410024
 21
31.5069337098
  0
LINE
  8
0
 62
7
  6
CONTINUOUS
 10
367.3762229651
 20
31.3456152777
 11
367.491847524
 21
31.2810879048
  0
LINE
  8
0
 62
7
  6
CONTINUOUS
 10
367.7230979651
 20
31.3778789641
 11
367.6074727445
 21
31.4424063369
  0
LINE
  8
0
 62
7
  6
CONTINUOUS
 10
359.2246602583
 20
30.5712867188
 11
359.3980977583
 21
30.5390230296
  0
LINE
  8
0
 62
7
  6
CONTINUOUS
 10
359.6871602721
 20
30.6358140973
 11
359.3402852307
 21
30.7003414814
  0
LINE
  8
0
 62
7
  6
CONTINUOUS
 10
362.1152853548
 20
31.3778789641
 11
362.2309102445
 21
31.3456152777
  0
LINE
  8
0
 62
7
  6
CONTINUOUS
 10
364.4277854651
 20
31.3778789641
 11
364.543410024
 21
31.3456152777
  0
LINE
  8
0
 62
7
  6
CONTINUOUS
 10
368.7637229651
 20
30.668077795
 11
368.6480977445
 21
30.7003414814
  0
LINE
  8
0
 62
7
  6
CONTINUOUS
 10
367.2605977445
 20
31.3778789641
 11
367.3762229651
 21
31.3456152777
  0
LINE
  8
0
 62
7
  6
CONTINUOUS
 10
368.4168479651
 20
30.6358140973
 11
368.5902854651
 21
30.5712867188
  0
LINE
  8
0
 62
7
  6
CONTINUOUS
 10
367.6074727445
 20
31.4424063369
 11
367.4340352445
 21
31.5069337098
  0
LINE
  8
0
 62
7
  6
CONTINUOUS
 10
368.8215352445
 20
31.1520331591
 11
368.6480977445
 21
31.216560532
  0
LINE
  8
0
 62
7
  6
CONTINUOUS
 10
369.6309104651
 20
30.8939236226
 11
369.8043479651
 21
30.8293962497
  0
LINE
  8
0
 62
7
  6
CONTINUOUS
 10
370.0355977445
 20
31.4101426505
 11
369.8621602445
 21
31.4746700234
  0
LINE
  8
0
 62
7
  6
CONTINUOUS
 10
368.4168479651
 20
31.1520331591
 11
368.6480977445
 21
31.0552420547
  0
LINE
  8
0
 62
7
  6
CONTINUOUS
 10
370.0355977445
 20
30.8939236226
 11
369.8043479651
 21
30.9907146818
  0
LINE
  8
0
 62
7
  6
CONTINUOUS
 10
368.5902854651
 20
31.2810879048
 11
368.6480977445
 21
31.3456152777
  0
LINE
  8
0
 62
7
  6
CONTINUOUS
 10
359.0512227376
 20
31.4101426505
 11
358.9355977445
 21
31.3456152777
  0
LINE
  8
0
 62
7
  6
CONTINUOUS
 10
359.1668477307
 20
31.2488242184
 11
359.3402852307
 21
31.3456152777
  0
LINE
  8
0
 62
7
  6
CONTINUOUS
 10
361.4793477997
 20
31.4424063369
 11
361.3637227445
 21
31.3778789641
  0
LINE
  8
0
 62
7
  6
CONTINUOUS
 10
361.3637227445
 20
31.2488242184
 11
361.4793477997
 21
31.3133515913
  0
LINE
  8
0
 62
7
  6
CONTINUOUS
 10
360.3809101894
 20
30.6035504109
 11
360.5543476894
 21
30.7003414814
  0
LINE
  8
0
 62
7
  6
CONTINUOUS
 10
359.3980977583
 20
30.5390230296
 11
359.744972717
 21
30.5067593403
  0
LINE
  8
0
 62
7
  6
CONTINUOUS
 10
363.5027853548
 20
30.5390230296
 11
363.7340351343
 21
30.5067593403
  0
LINE
  8
0
 62
7
  6
CONTINUOUS
 10
361.8840352445
 20
31.4101426505
 11
362.1152853548
 21
31.3778789641
  0
LINE
  8
0
 62
7
  6
CONTINUOUS
 10
364.1965353548
 20
31.4101426505
 11
364.4277854651
 21
31.3778789641
  0
LINE
  8
0
 62
7
  6
CONTINUOUS
 10
368.6480977445
 20
31.0552420547
 11
369.6309104651
 21
30.8939236226
  0
LINE
  8
0
 62
7
  6
CONTINUOUS
 10
369.8043479651
 20
30.9907146818
 11
368.8215352445
 21
31.1520331591
  0
LINE
  8
0
 62
7
  6
CONTINUOUS
 10
362.2887228548
 20
31.5069337098
 11
362.1152853548
 21
31.5391973962
  0
LINE
  8
0
 62
7
  6
CONTINUOUS
 10
368.5902854651
 20
30.5712867188
 11
368.7637229651
 21
30.5390230296
  0
LINE
  8
0
 62
7
  6
CONTINUOUS
 10
367.4340352445
 20
31.5069337098
 11
367.2605977445
 21
31.5391973962
  0
LINE
  8
0
 62
7
  6
CONTINUOUS
 10
369.6887227445
 20
31.3778789641
 11
369.8043479651
 21
31.3456152777
  0
LINE
  8
0
 62
7
  6
CONTINUOUS
 10
369.8621602445
 20
30.7648688543
 11
369.8043479651
 21
30.7003414814
  0
LINE
  8
0
 62
7
  6
CONTINUOUS
 10
368.4168479651
 20
31.4424063369
 11
368.3012227445
 21
31.3456152777
  0
LINE
  8
0
 62
7
  6
CONTINUOUS
 10
363.3293478548
 20
31.4746700234
 11
363.2137226343
 21
31.4101426505
  0
LINE
  8
0
 62
7
  6
CONTINUOUS
 10
363.3871601343
 20
31.0875057863
 11
363.2715352445
 21
31.0229783683
  0
LINE
  8
0
 62
7
  6
CONTINUOUS
 10
363.5027853548
 20
30.926187309
 11
363.6184102445
 21
30.9907146818
  0
LINE
  8
0
 62
7
  6
CONTINUOUS
 10
361.0746601894
 20
30.5067593403
 11
361.3637227445
 21
30.5067593403
  0
LINE
  8
0
 62
7
  6
CONTINUOUS
 10
362.4043477445
 20
30.5067593403
 11
362.6934101343
 21
30.5067593403
  0
LINE
  8
0
 62
7
  6
CONTINUOUS
 10
363.7340351343
 20
30.5067593403
 11
364.0809101343
 21
30.5067593403
  0
LINE
  8
0
 62
7
  6
CONTINUOUS
 10
364.716847524
 20
30.5067593403
 11
365.0059102445
 21
30.5067593403
  0
LINE
  8
0
 62
7
  6
CONTINUOUS
 10
365.4684104651
 20
30.5067593403
 11
365.757472524
 21
30.5067593403
  0
LINE
  8
0
 62
7
  6
CONTINUOUS
 10
366.2199727445
 20
30.5067593403
 11
366.5090354651
 21
30.5067593403
  0
LINE
  8
0
 62
7
  6
CONTINUOUS
 10
367.5496604651
 20
30.5067593403
 11
367.838722524
 21
30.5067593403
  0
LINE
  8
0
 62
7
  6
CONTINUOUS
 10
369.1105979651
 20
30.5067593403
 11
369.4574729651
 21
30.5067593403
  0
LINE
  8
0
 62
7
  6
CONTINUOUS
 10
369.4574729651
 20
30.6358140973
 11
369.1105979651
 21
30.6358140973
  0
LINE
  8
0
 62
7
  6
CONTINUOUS
 10
364.0809101343
 20
30.6358140973
 11
363.7340351343
 21
30.6358140973
  0
LINE
  8
0
 62
7
  6
CONTINUOUS
 10
368.5902854651
 20
30.7648688543
 11
368.3012227445
 21
30.7648688543
  0
LINE
  8
0
 62
7
  6
CONTINUOUS
 10
360.6121602997
 20
30.8293962497
 11
360.3230977445
 21
30.8293962497
  0
LINE
  8
0
 62
7
  6
CONTINUOUS
 10
359.6871602721
 20
31.4101426505
 11
360.091847717
 21
31.3778789641
  0
LINE
  8
0
 62
7
  6
CONTINUOUS
 10
360.1496602445
 20
31.5069337098
 11
359.744972717
 21
31.5391973962
  0
LINE
  8
0
 62
7
  6
CONTINUOUS
 10
368.7637229651
 20
30.5390230296
 11
369.1105979651
 21
30.5067593403
  0
LINE
  8
0
 62
7
  6
CONTINUOUS
 10
369.1105979651
 20
30.6358140973
 11
368.7637229651
 21
30.668077795
  0
LINE
  8
0
 62
7
  6
CONTINUOUS
 10
364.543410024
 20
31.5069337098
 11
364.1965353548
 21
31.5391973962
  0
LINE
  8
0
 62
7
  6
CONTINUOUS
 10
369.3418477445
 20
31.4101426505
 11
369.6887227445
 21
31.3778789641
  0
LINE
  8
0
 62
7
  6
CONTINUOUS
 10
369.6887227445
 20
31.5069337098
 11
369.3418477445
 21
31.5391973962
  0
LINE
  8
0
 62
7
  6
CONTINUOUS
 10
367.0293479651
 20
31.4101426505
 11
367.2605977445
 21
31.3778789641
  0
LINE
  8
0
 62
7
  6
CONTINUOUS
 10
369.8621602445
 20
31.4746700234
 11
369.6887227445
 21
31.5069337098
  0
LINE
  8
0
 62
7
  6
CONTINUOUS
 10
370.0355977445
 20
30.6035504109
 11
370.1512223035
 21
30.7003414814
  0
LINE
  8
0
 62
7
  6
CONTINUOUS
 10
364.543410024
 20
30.7971325633
 11
364.369972524
 21
30.7003414814
  0
LINE
  8
0
 62
7
  6
CONTINUOUS
 10
366.624660024
 20
31.4424063369
 11
366.5090354651
 21
31.3778789641
  0
LINE
  8
0
 62
7
  6
CONTINUOUS
 10
366.5090354651
 20
31.2488242184
 11
366.624660024
 21
31.3133515913
  0
LINE
  8
0
 62
7
  6
CONTINUOUS
 10
359.2246602583
 20
31.4746700234
 11
359.0512227376
 21
31.4101426505
  0
LINE
  8
0
 62
7
  6
CONTINUOUS
 10
361.6527851343
 20
31.5069337098
 11
361.4793477997
 21
31.4424063369
  0
LINE
  8
0
 62
7
  6
CONTINUOUS
 10
361.4793477997
 20
31.3133515913
 11
361.6527851343
 21
31.3778789641
  0
LINE
  8
0
 62
7
  6
CONTINUOUS
 10
360.2652852997
 20
30.7326051679
 11
360.091847717
 21
30.668077795
  0
LINE
  8
0
 62
7
  6
CONTINUOUS
 10
369.6887227445
 20
30.668077795
 11
369.4574729651
 21
30.6358140973
  0
LINE
  8
0
 62
7
  6
CONTINUOUS
 10
364.0809101343
 20
30.5067593403
 11
364.369972524
 21
30.5390230296
  0
LINE
  8
0
 62
7
  6
CONTINUOUS
 10
369.4574729651
 20
30.5067593403
 11
369.8043479651
 21
30.5390230296
  0
LINE
  8
0
 62
7
  6
CONTINUOUS
 10
359.744972717
 20
30.5067593403
 11
360.1496602445
 21
30.5390230296
  0
LINE
  8
0
 62
7
  6
CONTINUOUS
 10
360.091847717
 20
30.668077795
 11
359.6871602721
 21
30.6358140973
  0
LINE
  8
0
 62
7
  6
CONTINUOUS
 10
363.9652852445
 20
31.0552420547
 11
364.6012229651
 21
31.0552420547
  0
LINE
  8
0
 62
7
  6
CONTINUOUS
 10
364.6012229651
 20
31.1842968456
 11
363.9652852445
 21
31.1842968456
  0
LINE
  8
0
 62
7
  6
CONTINUOUS
 10
360.3230977445
 20
31.216560532
 11
360.6121602997
 21
31.216560532
  0
LINE
  8
0
 62
7
  6
CONTINUOUS
 10
363.1559103548
 20
31.2810879048
 11
363.4449727445
 21
31.2810879048
  0
LINE
  8
0
 62
7
  6
CONTINUOUS
 10
369.8621602445
 20
31.2810879048
 11
370.1512223035
 21
31.2810879048
  0
LINE
  8
0
 62
7
  6
CONTINUOUS
 10
363.8496603548
 20
31.4101426505
 11
364.1965353548
 21
31.4101426505
  0
LINE
  8
0
 62
7
  6
CONTINUOUS
 10
368.9949727445
 20
31.4101426505
 11
369.3418477445
 21
31.4101426505
  0
LINE
  8
0
 62
7
  6
CONTINUOUS
 10
369.3418477445
 20
31.5391973962
 11
368.9949727445
 21
31.5391973962
  0
LINE
  8
0
 62
7
  6
CONTINUOUS
 10
367.2605977445
 20
31.5391973962
 11
367.0293479651
 21
31.5391973962
  0
LINE
  8
0
 62
7
  6
CONTINUOUS
 10
366.5090354651
 20
31.5391973962
 11
366.2199727445
 21
31.5391973962
  0
LINE
  8
0
 62
7
  6
CONTINUOUS
 10
365.757472524
 20
31.5391973962
 11
365.4684104651
 21
31.5391973962
  0
LINE
  8
0
 62
7
  6
CONTINUOUS
 10
364.1965353548
 20
31.5391973962
 11
363.8496603548
 21
31.5391973962
  0
LINE
  8
0
 62
7
  6
CONTINUOUS
 10
362.1152853548
 20
31.5391973962
 11
361.8840352445
 21
31.5391973962
  0
LINE
  8
0
 62
7
  6
CONTINUOUS
 10
365.4684104651
 20
31.8618343508
 11
365.757472524
 21
31.8618343508
  0
LINE
  8
0
 62
7
  6
CONTINUOUS
 10
365.757472524
 20
32.0231527829
 11
365.4684104651
 21
32.0231527829
  0
LINE
  8
0
 62
7
  6
CONTINUOUS
 10
361.3637227445
 20
32.0231527829
 11
361.0746601894
 21
32.0231527829
  0
LINE
  8
0
 62
7
  6
CONTINUOUS
 10
360.4015045068
 20
32.3100380288
 11
360.8140758554
 21
32.3100380288
  0
LINE
  8
0
 62
7
  6
CONTINUOUS
 10
362.0408487691
 20
32.3100380288
 11
363.4342913921
 21
32.3100380288
  0
LINE
  8
0
 62
7
  6
CONTINUOUS
 10
363.7621602445
 20
32.3100380288
 11
365.1556028675
 21
32.3100380288
  0
LINE
  8
0
 62
7
  6
CONTINUOUS
 10
367.0408487691
 20
32.3100380288
 11
368.4342913921
 21
32.3100380288
  0
LINE
  8
0
 62
7
  6
CONTINUOUS
 10
368.7621602445
 20
32.3100380288
 11
370.1556028675
 21
32.3100380288
  0
LINE
  8
0
 62
7
  6
CONTINUOUS
 10
366.798097524
 20
31.5069337098
 11
366.624660024
 21
31.4424063369
  0
LINE
  8
0
 62
7
  6
CONTINUOUS
 10
364.369972524
 20
30.5390230296
 11
364.543410024
 21
30.6035504109
  0
LINE
  8
0
 62
7
  6
CONTINUOUS
 10
369.8043479651
 20
30.5390230296
 11
370.0355977445
 21
30.6035504109
  0
LINE
  8
0
 62
7
  6
CONTINUOUS
 10
369.8043479651
 20
30.7003414814
 11
369.6887227445
 21
30.668077795
  0
LINE
  8
0
 62
7
  6
CONTINUOUS
 10
368.7637229651
 20
31.3778789641
 11
368.9949727445
 21
31.4101426505
  0
LINE
  8
0
 62
7
  6
CONTINUOUS
 10
366.798097524
 20
31.3778789641
 11
367.0293479651
 21
31.4101426505
  0
LINE
  8
0
 62
7
  6
CONTINUOUS
 10
363.7340351343
 20
31.0229783683
 11
363.9652852445
 21
31.0552420547
  0
LINE
  8
0
 62
7
  6
CONTINUOUS
 10
367.0293479651
 20
31.5391973962
 11
366.798097524
 21
31.5069337098
  0
LINE
  8
0
 62
7
  6
CONTINUOUS
 10
363.6184102445
 20
31.3778789641
 11
363.8496603548
 21
31.4101426505
  0
LINE
  8
0
 62
7
  6
CONTINUOUS
 10
368.9949727445
 20
31.5391973962
 11
368.6480977445
 21
31.5069337098
  0
LINE
  8
0
 62
7
  6
CONTINUOUS
 10
363.9652852445
 20
31.1842968456
 11
363.6184102445
 21
31.1520331591
  0
LINE
  8
0
 62
7
  6
CONTINUOUS
 10
359.744972717
 20
31.5391973962
 11
359.3980977583
 21
31.5069337098
  0
LINE
  8
0
 62
7
  6
CONTINUOUS
 10
363.8496603548
 20
31.5391973962
 11
363.4449727445
 21
31.5069337098
  0
LINE
  8
0
 62
7
  6
CONTINUOUS
 10
361.221176638
 20
33.4575790124
 11
360.565438933
 21
33.4575790124
  0
LINE
  8
0
 62
7
  6
CONTINUOUS
 10
366.624660024
 20
31.3133515913
 11
366.798097524
 21
31.3778789641
  0
LINE
  8
0
 62
7
  6
CONTINUOUS
 10
368.6480977445
 20
31.3456152777
 11
368.7637229651
 21
31.3778789641
  0
LINE
  8
0
 62
7
  6
CONTINUOUS
 10
368.6480977445
 20
31.5069337098
 11
368.4168479651
 21
31.4424063369
  0
LINE
  8
0
 62
7
  6
CONTINUOUS
 10
364.369972524
 20
30.7003414814
 11
364.0809101343
 21
30.6358140973
  0
LINE
  8
0
 62
7
  6
CONTINUOUS
 10
361.6527851343
 20
31.3778789641
 11
361.8840352445
 21
31.4101426505
  0
LINE
  8
0
 62
7
  6
CONTINUOUS
 10
361.8840352445
 20
31.5391973962
 11
361.6527851343
 21
31.5069337098
  0
LINE
  8
0
 62
7
  6
CONTINUOUS
 10
359.4559102445
 20
31.3778789641
 11
359.6871602721
 21
31.4101426505
  0
LINE
  8
0
 62
7
  6
CONTINUOUS
 10
365.9752749986
 20
34.9329888485
 11
366.6310127035
 21
34.9329888485
  0
LINE
  8
0
 62
7
  6
CONTINUOUS
 10
363.6184102445
 20
30.9907146818
 11
363.7340351343
 21
31.0229783683
  0
LINE
  8
0
 62
7
  6
CONTINUOUS
 10
363.6184102445
 20
31.1520331591
 11
363.3871601343
 21
31.0875057863
  0
LINE
  8
0
 62
7
  6
CONTINUOUS
 10
363.5027853548
 20
31.3456152777
 11
363.6184102445
 21
31.3778789641
  0
LINE
  8
0
 62
7
  6
CONTINUOUS
 10
360.1496602445
 20
30.5390230296
 11
360.3809101894
 21
30.6035504109
  0
LINE
  8
0
 62
7
  6
CONTINUOUS
 10
363.4449727445
 20
31.5069337098
 11
363.3293478548
 21
31.4746700234
  0
LINE
  8
0
 62
7
  6
CONTINUOUS
 10
359.3980977583
 20
31.5069337098
 11
359.2246602583
 21
31.4746700234
  0
LINE
  8
0
 62
7
  6
CONTINUOUS
 10
370.1556028675
 20
36.0805298321
 11
368.7621602445
 21
36.0805298321
  0
LINE
  8
0
 62
7
  6
CONTINUOUS
 10
366.7949471298
 20
36.0805298321
 11
366.3823757812
 21
36.0805298321
  0
LINE
  8
0
 62
7
  6
CONTINUOUS
 10
365.1556028675
 20
36.0805298321
 11
363.7621602445
 21
36.0805298321
  0
LINE
  8
0
 62
7
  6
CONTINUOUS
 10
363.4342913921
 20
36.0805298321
 11
362.0408487691
 21
36.0805298321
  0
LINE
  8
0
 62
7
  6
CONTINUOUS
 10
360.1556028675
 20
36.0805298321
 11
358.7621602445
 21
36.0805298321
  0
LINE
  8
0
 62
7
  6
CONTINUOUS
 10
359.3402852307
 20
31.3456152777
 11
359.4559102445
 21
31.3778789641
  0
CIRCLE
  8
0
 62
7
  6
CONTINUOUS
 10
369.458881556
 20
38.4165954059
 40
2.0901639344
  0
ARC
  8
0
 62
7
  6
CONTINUOUS
 10
360.4015045068
 20
33.9493822911
 40
1.6393442623
 50
180.0
 51
270.0
  0
ARC
  8
0
 62
7
  6
CONTINUOUS
 10
366.7949471298
 20
34.4411855698
 40
1.6393442623
 50
0.0
 51
90.0
  0
ARC
  8
0
 62
7
  6
CONTINUOUS
 10
360.8140758554
 20
33.7854478649
 40
1.4754098361
 50
270.0
 51
326.2510114041
  0
ARC
  8
0
 62
7
  6
CONTINUOUS
 10
366.3823757812
 20
34.6051199961
 40
1.4754098361
 50
90.0
 51
146.2510114041
  0
ARC
  8
0
 62
7
  6
CONTINUOUS
 10
361.221176638
 20
34.2772511436
 40
0.8196721311
 50
270.0
 51
360.0
  0
ARC
  8
0
 62
7
  6
CONTINUOUS
 10
365.9752749986
 20
34.1133167174
 40
0.8196721311
 50
90.0
 51
180.0
  0
ARC
  8
0
 62
7
  6
CONTINUOUS
 10
360.565438933
 20
33.867415078
 40
0.4098360656
 50
180.0
 51
270.0
  0
ARC
  8
0
 62
7
  6
CONTINUOUS
 10
366.6310127035
 20
34.5231527829
 40
0.4098360656
 50
0.0
 51
90.0
  0
SOLID
  8
0
 62
7
  6
CONTINUOUS
 10
365.4684104651
 20
31.8618347111
 11
365.4684104651
 21
32.0231531947
 12
365.757472524
 22
31.8618347111
 13
365.757472524
 23
32.0231531947
  0
SOLID
  8
0
 62
7
  6
CONTINUOUS
 10
359.744972717
 20
31.5391977439
 11
360.1496602445
 21
31.5069333244
 12
359.3980977583
 22
31.5069333244
 13
359.3980977583
 23
31.5069333244
  0
SOLID
  8
0
 62
7
  6
CONTINUOUS
 10
359.2246602583
 20
31.4746706537
 11
359.3980977583
 21
31.5069333244
 12
360.1496602445
 22
31.5069333244
 13
360.1496602445
 23
31.5069333244
  0
SOLID
  8
0
 62
7
  6
CONTINUOUS
 10
360.1496602445
 20
31.5069333244
 11
360.3809101894
 21
31.4424063504
 12
359.2246602583
 22
31.4746706537
 13
359.2246602583
 23
31.4746706537
  0
SOLID
  8
0
 62
7
  6
CONTINUOUS
 10
359.0512227376
 20
31.4101419116
 11
359.2246602583
 21
31.4746706537
 12
360.3809101894
 22
31.4424063504
 13
360.3809101894
 23
31.4424063504
  0
SOLID
  8
0
 62
7
  6
CONTINUOUS
 10
359.0512227376
 20
31.4101419116
 11
360.3809101894
 21
31.4424063504
 12
359.6871602721
 22
31.4101419116
 13
359.6871602721
 23
31.4101419116
  0
SOLID
  8
0
 62
7
  6
CONTINUOUS
 10
359.6871602721
 20
31.4101419116
 11
360.3809101894
 21
31.4424063504
 12
360.091847717
 22
31.3778792603
 13
360.091847717
 23
31.3778792603
  0
SOLID
  8
0
 62
7
  6
CONTINUOUS
 10
360.3809101894
 20
31.4424063504
 11
360.5543476894
 21
31.345614957
 12
360.091847717
 22
31.3778792603
 13
360.091847717
 23
31.3778792603
  0
SOLID
  8
0
 62
7
  6
CONTINUOUS
 10
360.2652852997
 20
31.3133521701
 11
360.091847717
 21
31.3778792603
 12
360.5543476894
 22
31.345614957
 13
360.5543476894
 23
31.345614957
  0
SOLID
  8
0
 62
7
  6
CONTINUOUS
 10
360.2652852997
 20
31.3133521701
 11
360.5543476894
 21
31.345614957
 12
360.3230977445
 22
31.2165606992
 13
360.3230977445
 23
31.2165606992
  0
SOLID
  8
0
 62
7
  6
CONTINUOUS
 10
360.5543476894
 20
31.345614957
 11
360.6121602997
 21
31.2165606992
 12
360.3230977445
 22
31.2165606992
 13
360.3230977445
 23
31.2165606992
  0
SOLID
  8
0
 62
7
  6
CONTINUOUS
 10
361.6527851343
 20
31.5069329918
 11
361.8840352445
 21
31.5391972951
 12
362.1152853548
 22
31.5391972951
 13
362.1152853548
 23
31.5391972951
  0
SOLID
  8
0
 62
7
  6
CONTINUOUS
 10
362.1152853548
 20
31.5391972951
 11
362.2887228548
 21
31.5069329918
 12
361.6527851343
 22
31.5069329918
 13
361.6527851343
 23
31.5069329918
  0
SOLID
  8
0
 62
7
  6
CONTINUOUS
 10
361.4793477997
 20
31.4424059016
 11
361.6527851343
 21
31.5069329918
 12
362.2887228548
 22
31.5069329918
 13
362.2887228548
 23
31.5069329918
  0
SOLID
  8
0
 62
7
  6
CONTINUOUS
 10
362.2887228548
 20
31.5069329918
 11
362.4621603548
 21
31.4424059016
 12
361.4793477997
 22
31.4424059016
 13
361.4793477997
 23
31.4424059016
  0
SOLID
  8
0
 62
7
  6
CONTINUOUS
 10
362.4621603548
 20
31.4424059016
 11
361.8840352445
 21
31.4101420472
 12
361.4793477997
 22
31.4424059016
 13
361.4793477997
 23
31.4424059016
  0
SOLID
  8
0
 62
7
  6
CONTINUOUS
 10
361.3637227445
 20
31.3778788115
 11
361.4793477997
 21
31.4424059016
 12
361.8840352445
 22
31.4101420472
 13
361.8840352445
 23
31.4101420472
  0
SOLID
  8
0
 62
7
  6
CONTINUOUS
 10
361.8840352445
 20
31.4101420472
 11
361.6527851343
 21
31.3778788115
 12
361.3637227445
 22
31.3778788115
 13
361.3637227445
 23
31.3778788115
  0
SOLID
  8
0
 62
7
  6
CONTINUOUS
 10
361.8840352445
 20
31.4101420472
 11
362.4621603548
 21
31.4424059016
 12
362.1152853548
 22
31.3778788115
 13
362.1152853548
 23
31.3778788115
  0
SOLID
  8
0
 62
7
  6
CONTINUOUS
 10
362.4621603548
 20
31.4424059016
 11
362.5777852445
 21
31.3778788115
 12
362.1152853548
 22
31.3778788115
 13
362.1152853548
 23
31.3778788115
  0
SOLID
  8
0
 62
7
  6
CONTINUOUS
 10
362.2309102445
 20
31.345614957
 11
362.1152853548
 21
31.3778788115
 12
362.5777852445
 22
31.3778788115
 13
362.5777852445
 23
31.3778788115
  0
SOLID
  8
0
 62
7
  6
CONTINUOUS
 10
362.5777852445
 20
31.3778788115
 11
362.6355978548
 21
31.3133517213
 12
362.2309102445
 22
31.345614957
 13
362.2309102445
 23
31.345614957
  0
SOLID
  8
0
 62
7
  6
CONTINUOUS
 10
362.3465351343
 20
31.2810878668
 11
362.2309102445
 21
31.345614957
 12
362.6355978548
 22
31.3133517213
 13
362.6355978548
 23
31.3133517213
  0
SOLID
  8
0
 62
7
  6
CONTINUOUS
 10
362.3465351343
 20
31.2810878668
 11
362.6355978548
 21
31.3133517213
 12
362.4043477445
 22
31.1520332377
 13
362.4043477445
 23
31.1520332377
  0
SOLID
  8
0
 62
7
  6
CONTINUOUS
 10
362.6355978548
 20
31.3133517213
 11
362.6934101343
 21
31.1520332377
 12
362.4043477445
 22
31.1520332377
 13
362.4043477445
 23
31.1520332377
  0
SOLID
  8
0
 62
7
  6
CONTINUOUS
 10
361.6527851343
 20
31.3778788115
 11
361.4793477997
 21
31.3133517213
 12
361.3637227445
 22
31.3778788115
 13
361.3637227445
 23
31.3778788115
  0
SOLID
  8
0
 62
7
  6
CONTINUOUS
 10
361.4793477997
 20
31.3133517213
 11
361.3637227445
 21
31.2488235635
 12
361.3637227445
 22
31.3778788115
 13
361.3637227445
 23
31.3778788115
  0
SOLID
  8
0
 62
7
  6
CONTINUOUS
 10
361.3637227445
 20
31.2488235635
 11
361.0746601894
 21
30.5067593033
 12
361.3637227445
 22
31.3778788115
 13
361.3637227445
 23
31.3778788115
  0
SOLID
  8
0
 62
7
  6
CONTINUOUS
 10
361.3637227445
 20
31.3778788115
 11
361.0746601894
 21
30.5067593033
 12
361.3637227445
 22
32.0231527459
 13
361.3637227445
 23
32.0231527459
  0
SOLID
  8
0
 62
7
  6
CONTINUOUS
 10
361.0746601894
 20
30.5067593033
 11
361.0746601894
 21
32.0231527459
 12
361.3637227445
 22
32.0231527459
 13
361.3637227445
 23
32.0231527459
  0
SOLID
  8
0
 62
7
  6
CONTINUOUS
 10
361.3637227445
 20
31.2488235635
 11
361.3637227445
 21
30.5067593033
 12
361.0746601894
 22
30.5067593033
 13
361.0746601894
 23
30.5067593033
  0
SOLID
  8
0
 62
7
  6
CONTINUOUS
 10
362.4043477445
 20
30.5067593033
 11
362.4043477445
 21
31.1520332377
 12
362.6934101343
 22
31.1520332377
 13
362.6934101343
 23
31.1520332377
  0
SOLID
  8
0
 62
7
  6
CONTINUOUS
 10
362.6934101343
 20
31.1520332377
 11
362.6934101343
 21
30.5067593033
 12
362.4043477445
 22
30.5067593033
 13
362.4043477445
 23
30.5067593033
  0
SOLID
  8
0
 62
7
  6
CONTINUOUS
 10
363.4449727445
 20
31.506933758
 11
363.8496603548
 21
31.5391977507
 12
364.1965353548
 22
31.5391977507
 13
364.1965353548
 23
31.5391977507
  0
SOLID
  8
0
 62
7
  6
CONTINUOUS
 10
364.1965353548
 20
31.5391977507
 11
364.543410024
 21
31.506933758
 12
363.4449727445
 22
31.506933758
 13
363.4449727445
 23
31.506933758
  0
SOLID
  8
0
 62
7
  6
CONTINUOUS
 10
363.3293478548
 20
31.4746706537
 11
363.4449727445
 21
31.506933758
 12
364.543410024
 22
31.506933758
 13
364.543410024
 23
31.506933758
  0
SOLID
  8
0
 62
7
  6
CONTINUOUS
 10
364.543410024
 20
31.506933758
 11
364.716847524
 21
31.4424063504
 12
363.3293478548
 22
31.4746706537
 13
363.3293478548
 23
31.4746706537
  0
SOLID
  8
0
 62
7
  6
CONTINUOUS
 10
363.2137226343
 20
31.4101417797
 11
363.3293478548
 21
31.4746706537
 12
364.716847524
 22
31.4424063504
 13
364.716847524
 23
31.4424063504
  0
SOLID
  8
0
 62
7
  6
CONTINUOUS
 10
363.2137226343
 20
31.4101417797
 11
364.716847524
 21
31.4424063504
 12
363.8496603548
 22
31.4101417797
 13
363.8496603548
 23
31.4101417797
  0
SOLID
  8
0
 62
7
  6
CONTINUOUS
 10
363.8496603548
 20
31.4101417797
 11
364.716847524
 21
31.4424063504
 12
364.1965353548
 22
31.4101417797
 13
364.1965353548
 23
31.4101417797
  0
SOLID
  8
0
 62
7
  6
CONTINUOUS
 10
364.1965353548
 20
31.4101417797
 11
364.716847524
 21
31.4424063504
 12
364.4277854651
 22
31.3778793357
 13
364.4277854651
 23
31.3778793357
  0
SOLID
  8
0
 62
7
  6
CONTINUOUS
 10
364.716847524
 20
31.4424063504
 11
364.8324727445
 21
31.3778793357
 12
364.4277854651
 22
31.3778793357
 13
364.4277854651
 23
31.3778793357
  0
SOLID
  8
0
 62
7
  6
CONTINUOUS
 10
363.1559103548
 20
31.3456153429
 11
363.2137226343
 21
31.4101417797
 12
363.8496603548
 22
31.4101417797
 13
363.8496603548
 23
31.4101417797
  0
SOLID
  8
0
 62
7
  6
CONTINUOUS
 10
364.543410024
 20
31.3456153429
 11
364.4277854651
 21
31.3778793357
 12
364.8324727445
 22
31.3778793357
 13
364.8324727445
 23
31.3778793357
  0
SOLID
  8
0
 62
7
  6
CONTINUOUS
 10
364.543410024
 20
31.3456153429
 11
364.8324727445
 21
31.3778793357
 12
364.6012229651
 22
31.2810881318
 13
364.6012229651
 23
31.2810881318
  0
SOLID
  8
0
 62
7
  6
CONTINUOUS
 10
364.8324727445
 20
31.3778793357
 11
364.890285024
 21
31.2810881318
 12
364.6012229651
 22
31.2810881318
 13
364.6012229651
 23
31.2810881318
  0
SOLID
  8
0
 62
7
  6
CONTINUOUS
 10
364.6012229651
 20
31.1842964734
 11
364.6012229651
 21
31.2810881318
 12
364.890285024
 22
31.2810881318
 13
364.890285024
 23
31.2810881318
  0
SOLID
  8
0
 62
7
  6
CONTINUOUS
 10
364.6012229651
 20
31.1842964734
 11
364.890285024
 21
31.2810881318
 12
364.6012229651
 22
31.0552422931
 13
364.6012229651
 23
31.0552422931
  0
SOLID
  8
0
 62
7
  6
CONTINUOUS
 10
364.6012229651
 20
31.0552422931
 11
364.890285024
 21
31.2810881318
 12
364.6012229651
 22
30.8616599362
 13
364.6012229651
 23
30.8616599362
  0
SOLID
  8
0
 62
7
  6
CONTINUOUS
 10
364.890285024
 20
31.2810881318
 11
364.890285024
 21
30.7648681127
 12
364.6012229651
 22
30.8616599362
 13
364.6012229651
 23
30.8616599362
  0
SOLID
  8
0
 62
7
  6
CONTINUOUS
 10
366.798097524
 20
31.5069339419
 11
367.0293479651
 21
31.5391976292
 12
367.2605977445
 22
31.5391976292
 13
367.2605977445
 23
31.5391976292
  0
SOLID
  8
0
 62
7
  6
CONTINUOUS
 10
367.2605977445
 20
31.5391976292
 11
367.4340352445
 21
31.5069339419
 12
366.798097524
 22
31.5069339419
 13
366.798097524
 23
31.5069339419
  0
SOLID
  8
0
 62
7
  6
CONTINUOUS
 10
366.624660024
 20
31.4424065674
 11
366.798097524
 21
31.5069339419
 12
367.4340352445
 22
31.5069339419
 13
367.4340352445
 23
31.5069339419
  0
SOLID
  8
0
 62
7
  6
CONTINUOUS
 10
367.4340352445
 20
31.5069339419
 11
367.6074727445
 21
31.4424065674
 12
366.624660024
 22
31.4424065674
 13
366.624660024
 23
31.4424065674
  0
SOLID
  8
0
 62
7
  6
CONTINUOUS
 10
367.6074727445
 20
31.4424065674
 11
367.0293479651
 21
31.4101420472
 12
366.624660024
 22
31.4424065674
 13
366.624660024
 23
31.4424065674
  0
SOLID
  8
0
 62
7
  6
CONTINUOUS
 10
366.5090354651
 20
31.377879193
 11
366.624660024
 21
31.4424065674
 12
367.0293479651
 22
31.4101420472
 13
367.0293479651
 23
31.4101420472
  0
SOLID
  8
0
 62
7
  6
CONTINUOUS
 10
367.0293479651
 20
31.4101420472
 11
366.798097524
 21
31.377879193
 12
366.5090354651
 22
31.377879193
 13
366.5090354651
 23
31.377879193
  0
SOLID
  8
0
 62
7
  6
CONTINUOUS
 10
367.0293479651
 20
31.4101420472
 11
367.6074727445
 21
31.4424065674
 12
367.2605977445
 22
31.377879193
 13
367.2605977445
 23
31.377879193
  0
SOLID
  8
0
 62
7
  6
CONTINUOUS
 10
367.6074727445
 20
31.4424065674
 11
367.7230979651
 21
31.377879193
 12
367.2605977445
 22
31.377879193
 13
367.2605977445
 23
31.377879193
  0
SOLID
  8
0
 62
7
  6
CONTINUOUS
 10
367.3762229651
 20
31.345614957
 11
367.2605977445
 21
31.377879193
 12
367.7230979651
 22
31.377879193
 13
367.7230979651
 23
31.377879193
  0
SOLID
  8
0
 62
7
  6
CONTINUOUS
 10
367.3762229651
 20
31.345614957
 11
367.7230979651
 21
31.377879193
 12
367.491847524
 22
31.2810881312
 13
367.491847524
 23
31.2810881312
  0
SOLID
  8
0
 62
7
  6
CONTINUOUS
 10
367.7230979651
 20
31.377879193
 11
367.7809102445
 21
31.2810881312
 12
367.491847524
 22
31.2810881312
 13
367.491847524
 23
31.2810881312
  0
SOLID
  8
0
 62
7
  6
CONTINUOUS
 10
367.5496604651
 20
31.119769695
 11
367.491847524
 21
31.2810881312
 12
367.7809102445
 22
31.2810881312
 13
367.7809102445
 23
31.2810881312
  0
SOLID
  8
0
 62
7
  6
CONTINUOUS
 10
367.7809102445
 20
31.2810881312
 11
367.838722524
 21
31.119769695
 12
367.5496604651
 22
31.119769695
 13
367.5496604651
 23
31.119769695
  0
SOLID
  8
0
 62
7
  6
CONTINUOUS
 10
366.798097524
 20
31.377879193
 11
366.624660024
 21
31.3133521701
 12
366.5090354651
 22
31.377879193
 13
366.5090354651
 23
31.377879193
  0
SOLID
  8
0
 62
7
  6
CONTINUOUS
 10
366.624660024
 20
31.3133521701
 11
366.5090354651
 21
31.2488235635
 12
366.5090354651
 22
31.377879193
 13
366.5090354651
 23
31.377879193
  0
SOLID
  8
0
 62
7
  6
CONTINUOUS
 10
366.5090354651
 20
31.2488235635
 11
366.2199727445
 21
30.5067596374
 12
366.5090354651
 22
31.377879193
 13
366.5090354651
 23
31.377879193
  0
SOLID
  8
0
 62
7
  6
CONTINUOUS
 10
366.5090354651
 20
31.377879193
 11
366.2199727445
 21
30.5067596374
 12
366.5090354651
 22
31.5391976292
 13
366.5090354651
 23
31.5391976292
  0
SOLID
  8
0
 62
7
  6
CONTINUOUS
 10
366.2199727445
 20
30.5067596374
 11
366.2199727445
 21
31.5391976292
 12
366.5090354651
 22
31.5391976292
 13
366.5090354651
 23
31.5391976292
  0
SOLID
  8
0
 62
7
  6
CONTINUOUS
 10
366.5090354651
 20
31.2488235635
 11
366.5090354651
 21
30.5067596374
 12
366.2199727445
 22
30.5067596374
 13
366.2199727445
 23
30.5067596374
  0
SOLID
  8
0
 62
7
  6
CONTINUOUS
 10
367.5496604651
 20
30.5067596374
 11
367.5496604651
 21
31.119769695
 12
367.838722524
 22
31.119769695
 13
367.838722524
 23
31.119769695
  0
SOLID
  8
0
 62
7
  6
CONTINUOUS
 10
367.838722524
 20
31.119769695
 11
367.838722524
 21
30.5067596374
 12
367.5496604651
 22
30.5067596374
 13
367.5496604651
 23
30.5067596374
  0
SOLID
  8
0
 62
7
  6
CONTINUOUS
 10
368.6480977445
 20
31.5069334157
 11
368.9949727445
 21
31.539197762
 12
369.3418477445
 22
31.539197762
 13
369.3418477445
 23
31.539197762
  0
SOLID
  8
0
 62
7
  6
CONTINUOUS
 10
369.3418477445
 20
31.539197762
 11
369.6887227445
 21
31.5069334157
 12
368.6480977445
 22
31.5069334157
 13
368.6480977445
 23
31.5069334157
  0
SOLID
  8
0
 62
7
  6
CONTINUOUS
 10
368.4168479651
 20
31.4424063504
 11
368.6480977445
 21
31.5069334157
 12
369.6887227445
 22
31.5069334157
 13
369.6887227445
 23
31.5069334157
  0
SOLID
  8
0
 62
7
  6
CONTINUOUS
 10
368.4168479651
 20
31.4424063504
 11
369.6887227445
 21
31.5069334406
 12
369.8621602445
 22
31.4746706537
 13
369.8621602445
 23
31.4746706537
  0
SOLID
  8
0
 62
7
  6
CONTINUOUS
 10
368.4168479651
 20
31.4424063504
 11
369.8621602445
 21
31.4746706537
 12
368.9949727445
 22
31.4101421267
 13
368.9949727445
 23
31.4101421267
  0
SOLID
  8
0
 62
7
  6
CONTINUOUS
 10
368.9949727445
 20
31.4101421267
 11
369.8621602445
 21
31.4746706537
 12
369.3418477445
 22
31.4101421267
 13
369.3418477445
 23
31.4101421267
  0
SOLID
  8
0
 62
7
  6
CONTINUOUS
 10
369.8621602445
 20
31.4746706537
 11
370.0355977445
 21
31.4101421267
 12
369.3418477445
 22
31.4101421267
 13
369.3418477445
 23
31.4101421267
  0
SOLID
  8
0
 62
7
  6
CONTINUOUS
 10
369.6887227445
 20
31.3778792603
 11
369.3418477445
 21
31.4101421267
 12
370.0355977445
 22
31.4101421267
 13
370.0355977445
 23
31.4101421267
  0
SOLID
  8
0
 62
7
  6
CONTINUOUS
 10
368.3012227445
 20
31.3456148845
 11
368.4168479651
 21
31.4424063504
 12
368.9949727445
 22
31.4101421267
 13
368.9949727445
 23
31.4101421267
  0
SOLID
  8
0
 62
7
  6
CONTINUOUS
 10
369.6887227445
 20
31.3778792603
 11
370.0355977445
 21
31.4101421267
 12
369.8043479651
 22
31.3456148845
 13
369.8043479651
 23
31.3456148845
  0
SOLID
  8
0
 62
7
  6
CONTINUOUS
 10
369.8043479651
 20
31.3456148845
 11
370.0355977445
 21
31.4101421267
 12
369.8621602445
 22
31.281087868
 13
369.8621602445
 23
31.281087868
  0
SOLID
  8
0
 62
7
  6
CONTINUOUS
 10
370.0355977445
 20
31.4101421267
 11
370.1512223035
 21
31.281087868
 12
369.8621602445
 22
31.281087868
 13
369.8621602445
 23
31.281087868
  0
SOLID
  8
0
 62
7
  6
CONTINUOUS
 10
359.4559102445
 20
31.3778792603
 11
358.9355977445
 21
31.3456148963
 12
359.6871602721
 22
31.4101421155
 13
359.6871602721
 23
31.4101421155
  0
SOLID
  8
0
 62
7
  6
CONTINUOUS
 10
358.9355977445
 20
31.3456148963
 11
359.0512227376
 21
31.4101421155
 12
359.6871602721
 22
31.4101421155
 13
359.6871602721
 23
31.4101421155
  0
SOLID
  8
0
 62
7
  6
CONTINUOUS
 10
359.4559102445
 20
31.3778792603
 11
359.3402852307
 21
31.3456148963
 12
358.9355977445
 22
31.3456148963
 13
358.9355977445
 23
31.3456148963
  0
SOLID
  8
0
 62
7
  6
CONTINUOUS
 10
358.8199727462
 20
31.2165607767
 11
358.9355977445
 21
31.3456148963
 12
359.3402852307
 22
31.3456148963
 13
359.3402852307
 23
31.3456148963
  0
SOLID
  8
0
 62
7
  6
CONTINUOUS
 10
363.1559103548
 20
31.3456149608
 11
363.8496603548
 21
31.4101420472
 12
363.6184102445
 22
31.3778792603
 13
363.6184102445
 23
31.3778792603
  0
SOLID
  8
0
 62
7
  6
CONTINUOUS
 10
363.6184102445
 20
31.3778792603
 11
363.5027853548
 21
31.3456149608
 12
363.1559103548
 22
31.3456149608
 13
363.1559103548
 23
31.3456149608
  0
SOLID
  8
0
 62
7
  6
CONTINUOUS
 10
363.1559103548
 20
31.2810878707
 11
363.1559103548
 21
31.3456149608
 12
363.5027853548
 22
31.3456149608
 13
363.5027853548
 23
31.3456149608
  0
SOLID
  8
0
 62
7
  6
CONTINUOUS
 10
363.5027853548
 20
31.3456149608
 11
363.4449727445
 21
31.2810878707
 12
363.1559103548
 22
31.2810878707
 13
363.1559103548
 23
31.2810878707
  0
SOLID
  8
0
 62
7
  6
CONTINUOUS
 10
368.3012227445
 20
31.3456149608
 11
368.9949727445
 21
31.4101420472
 12
368.7637229651
 22
31.3778792603
 13
368.7637229651
 23
31.3778792603
  0
SOLID
  8
0
 62
7
  6
CONTINUOUS
 10
368.7637229651
 20
31.3778792603
 11
368.6480977445
 21
31.3456149608
 12
368.3012227445
 22
31.3456149608
 13
368.3012227445
 23
31.3456149608
  0
SOLID
  8
0
 62
7
  6
CONTINUOUS
 10
368.3012227445
 20
31.2810878707
 11
368.3012227445
 21
31.3456149608
 12
368.6480977445
 22
31.3456149608
 13
368.6480977445
 23
31.3456149608
  0
SOLID
  8
0
 62
7
  6
CONTINUOUS
 10
368.6480977445
 20
31.3456149608
 11
368.5902854651
 21
31.2810878707
 12
368.3012227445
 22
31.2810878707
 13
368.3012227445
 23
31.2810878707
  0
SOLID
  8
0
 62
7
  6
CONTINUOUS
 10
368.4168479651
 20
31.1520336865
 11
368.3012227445
 21
31.2810878707
 12
368.5902854651
 22
31.2810878707
 13
368.5902854651
 23
31.2810878707
  0
SOLID
  8
0
 62
7
  6
CONTINUOUS
 10
358.8199727462
 20
31.2165607767
 11
359.3402852307
 21
31.345614957
 12
359.1668477307
 22
31.2488235635
 13
359.1668477307
 23
31.2488235635
  0
SOLID
  8
0
 62
7
  6
CONTINUOUS
 10
359.1668477307
 20
31.2488235635
 11
359.1090352445
 21
31.1842964734
 12
358.8199727462
 22
31.2165607767
 13
358.8199727462
 23
31.2165607767
  0
SOLID
  8
0
 62
7
  6
CONTINUOUS
 10
358.7621602445
 20
31.0229779898
 11
358.8199727462
 21
31.2165607767
 12
359.1090352445
 22
31.1842964734
 13
359.1090352445
 23
31.1842964734
  0
SOLID
  8
0
 62
7
  6
CONTINUOUS
 10
363.6184102445
 20
31.1520336865
 11
363.9652852445
 21
31.1842964611
 12
364.6012229651
 22
31.1842964611
 13
364.6012229651
 23
31.1842964611
  0
SOLID
  8
0
 62
7
  6
CONTINUOUS
 10
363.6184102445
 20
31.1520336865
 11
364.6012229651
 21
31.1842964611
 12
363.3871601343
 22
31.0875057863
 13
363.3871601343
 23
31.0875057863
  0
SOLID
  8
0
 62
7
  6
CONTINUOUS
 10
363.3871601343
 20
31.0875057863
 11
364.6012229651
 21
31.1842964611
 12
363.9652852445
 22
31.0552422808
 13
363.9652852445
 23
31.0552422808
  0
SOLID
  8
0
 62
7
  6
CONTINUOUS
 10
364.6012229651
 20
31.1842964611
 11
364.6012229651
 21
31.0552422808
 12
363.9652852445
 22
31.0552422808
 13
363.9652852445
 23
31.0552422808
  0
SOLID
  8
0
 62
7
  6
CONTINUOUS
 10
368.4168479651
 20
31.1520338754
 11
368.5902854651
 21
31.2810878668
 12
368.6480977445
 22
31.2165607767
 13
368.6480977445
 23
31.2165607767
  0
SOLID
  8
0
 62
7
  6
CONTINUOUS
 10
368.6480977445
 20
31.2165607767
 11
368.8215352445
 21
31.1520338754
 12
368.4168479651
 22
31.1520338754
 13
368.4168479651
 23
31.1520338754
  0
SOLID
  8
0
 62
7
  6
CONTINUOUS
 10
368.6480977445
 20
31.0552422931
 11
368.4168479651
 21
31.1520338754
 12
368.8215352445
 22
31.1520338754
 13
368.8215352445
 23
31.1520338754
  0
SOLID
  8
0
 62
7
  6
CONTINUOUS
 10
368.8215352445
 20
31.1520338754
 11
369.8043479651
 21
30.9907152029
 12
368.6480977445
 22
31.0552422931
 13
368.6480977445
 23
31.0552422931
  0
SOLID
  8
0
 62
7
  6
CONTINUOUS
 10
369.6309104651
 20
30.8939239876
 11
368.6480977445
 21
31.0552422931
 12
369.8043479651
 22
30.9907152029
 13
369.8043479651
 23
30.9907152029
  0
SOLID
  8
0
 62
7
  6
CONTINUOUS
 10
369.8043479651
 20
30.9907152029
 11
370.0355977445
 21
30.8939239876
 12
369.6309104651
 22
30.8939239876
 13
369.6309104651
 23
30.8939239876
  0
SOLID
  8
0
 62
7
  6
CONTINUOUS
 10
369.8043479651
 20
30.8293967193
 11
369.6309104651
 21
30.8939239876
 12
370.0355977445
 22
30.8939239876
 13
370.0355977445
 23
30.8939239876
  0
SOLID
  8
0
 62
7
  6
CONTINUOUS
 10
369.8043479651
 20
30.8293967193
 11
370.0355977445
 21
30.8939239876
 12
369.8621602445
 22
30.7648682694
 13
369.8621602445
 23
30.7648682694
  0
SOLID
  8
0
 62
7
  6
CONTINUOUS
 10
370.0355977445
 20
30.8939239876
 11
370.1512223035
 21
30.7648682694
 12
369.8621602445
 22
30.7648682694
 13
369.8621602445
 23
30.7648682694
  0
SOLID
  8
0
 62
7
  6
CONTINUOUS
 10
369.8043479651
 20
30.7003411846
 11
369.8621602445
 21
30.7648682694
 12
370.1512223035
 22
30.7648682694
 13
370.1512223035
 23
30.7648682694
  0
SOLID
  8
0
 62
7
  6
CONTINUOUS
 10
370.1512223035
 20
30.7648682694
 11
370.1512223035
 21
30.7003411846
 12
369.8043479651
 22
30.7003411846
 13
369.8043479651
 23
30.7003411846
  0
SOLID
  8
0
 62
7
  6
CONTINUOUS
 10
369.6887227445
 20
30.6680782357
 11
369.8043479651
 21
30.7003411846
 12
370.1512223035
 22
30.7003411846
 13
370.1512223035
 23
30.7003411846
  0
SOLID
  8
0
 62
7
  6
CONTINUOUS
 10
369.6887227445
 20
30.6680782357
 11
370.1512223035
 21
30.7003411846
 12
369.4574729651
 22
30.6358140998
 13
369.4574729651
 23
30.6358140998
  0
SOLID
  8
0
 62
7
  6
CONTINUOUS
 10
370.1512223035
 20
30.7003411846
 11
370.0355977445
 21
30.6035511455
 12
369.4574729651
 22
30.6358140998
 13
369.4574729651
 23
30.6358140998
  0
SOLID
  8
0
 62
7
  6
CONTINUOUS
 10
370.0355977445
 20
30.6035511455
 11
368.5902854651
 21
30.5712868422
 12
369.4574729651
 22
30.6358140998
 13
369.4574729651
 23
30.6358140998
  0
SOLID
  8
0
 62
7
  6
CONTINUOUS
 10
369.4574729651
 20
30.6358140998
 11
368.5902854651
 21
30.5712868422
 12
369.1105979651
 22
30.6358140998
 13
369.1105979651
 23
30.6358140998
  0
SOLID
  8
0
 62
7
  6
CONTINUOUS
 10
368.5902854651
 20
30.5712868422
 11
368.4168479651
 21
30.6358140998
 12
369.1105979651
 22
30.6358140998
 13
369.1105979651
 23
30.6358140998
  0
SOLID
  8
0
 62
7
  6
CONTINUOUS
 10
368.5902854651
 20
30.5712868422
 11
370.0355977445
 21
30.6035511455
 12
368.7637229651
 22
30.5390223111
 13
368.7637229651
 23
30.5390223111
  0
SOLID
  8
0
 62
7
  6
CONTINUOUS
 10
370.0355977445
 20
30.6035511455
 11
369.8043479651
 21
30.5390223111
 12
368.7637229651
 22
30.5390223111
 13
368.7637229651
 23
30.5390223111
  0
SOLID
  8
0
 62
7
  6
CONTINUOUS
 10
369.1105979651
 20
30.5067599302
 11
368.7637229651
 21
30.5390223111
 12
369.8043479651
 22
30.5390223111
 13
369.8043479651
 23
30.5390223111
  0
SOLID
  8
0
 62
7
  6
CONTINUOUS
 10
369.8043479651
 20
30.5390223111
 11
369.4574729651
 21
30.5067599302
 12
369.1105979651
 22
30.5067599302
 13
369.1105979651
 23
30.5067599302
  0
SOLID
  8
0
 62
7
  6
CONTINUOUS
 10
358.7621602445
 20
31.0229779898
 11
359.1090352445
 21
31.1842964734
 12
359.0512227376
 22
31.0552422931
 13
359.0512227376
 23
31.0552422931
  0
SOLID
  8
0
 62
7
  6
CONTINUOUS
 10
359.0512227376
 20
31.0552422931
 11
359.0512227376
 21
30.9584509954
 12
358.7621602445
 22
31.0229779898
 13
358.7621602445
 23
31.0229779898
  0
SOLID
  8
0
 62
7
  6
CONTINUOUS
 10
358.8199727462
 20
30.8293967193
 11
358.7621602445
 21
31.0229779898
 12
359.0512227376
 22
30.9584509954
 13
359.0512227376
 23
30.9584509954
  0
SOLID
  8
0
 62
7
  6
CONTINUOUS
 10
359.0512227376
 20
30.9584509954
 11
359.1668477307
 21
30.797132416
 12
358.8199727462
 22
30.8293967193
 13
358.8199727462
 23
30.8293967193
  0
SOLID
  8
0
 62
7
  6
CONTINUOUS
 10
358.9355977445
 20
30.7003413087
 11
358.8199727462
 21
30.8293967193
 12
359.1668477307
 22
30.797132416
 13
359.1668477307
 23
30.797132416
  0
SOLID
  8
0
 62
7
  6
CONTINUOUS
 10
359.1668477307
 20
30.797132416
 11
359.3402852307
 21
30.7003413087
 12
358.9355977445
 22
30.7003413087
 13
358.9355977445
 23
30.7003413087
  0
SOLID
  8
0
 62
7
  6
CONTINUOUS
 10
359.0512227376
 20
30.6358140759
 11
358.9355977445
 21
30.7003413087
 12
359.3402852307
 22
30.7003413087
 13
359.3402852307
 23
30.7003413087
  0
SOLID
  8
0
 62
7
  6
CONTINUOUS
 10
359.3402852307
 20
30.7003413087
 11
359.6871602721
 21
30.6358140759
 12
359.0512227376
 22
30.6358140759
 13
359.0512227376
 23
30.6358140759
  0
SOLID
  8
0
 62
7
  6
CONTINUOUS
 10
359.2246602583
 20
30.5712868422
 11
359.0512227376
 21
30.6358140759
 12
359.6871602721
 22
30.6358140759
 13
359.6871602721
 23
30.6358140759
  0
SOLID
  8
0
 62
7
  6
CONTINUOUS
 10
363.2715352445
 20
31.0229779808
 11
363.3871601343
 21
31.0875057863
 12
363.9652852445
 22
31.0552422931
 13
363.9652852445
 23
31.0552422931
  0
SOLID
  8
0
 62
7
  6
CONTINUOUS
 10
363.9652852445
 20
31.0552422931
 11
363.7340351343
 21
31.0229779808
 12
363.2715352445
 22
31.0229779808
 13
363.2715352445
 23
31.0229779808
  0
SOLID
  8
0
 62
7
  6
CONTINUOUS
 10
363.1559103548
 20
30.8939238094
 11
363.2715352445
 21
31.0229779808
 12
363.7340351343
 22
31.0229779808
 13
363.7340351343
 23
31.0229779808
  0
SOLID
  8
0
 62
7
  6
CONTINUOUS
 10
363.5027853548
 20
30.926187309
 11
363.1559103548
 21
30.8939238094
 12
363.6184102445
 22
30.9907152029
 13
363.6184102445
 23
30.9907152029
  0
SOLID
  8
0
 62
7
  6
CONTINUOUS
 10
363.1559103548
 20
30.8939238094
 11
363.7340351343
 21
31.0229779898
 12
363.6184102445
 22
30.9907152029
 13
363.6184102445
 23
30.9907152029
  0
SOLID
  8
0
 62
7
  6
CONTINUOUS
 10
363.5027853548
 20
30.926187309
 11
363.4449727445
 21
30.8293967193
 12
363.1559103548
 22
30.8939238094
 13
363.1559103548
 23
30.8939238094
  0
SOLID
  8
0
 62
7
  6
CONTINUOUS
 10
363.1559103548
 20
30.797132416
 11
363.1559103548
 21
30.8939238094
 12
363.4449727445
 22
30.8293967193
 13
363.4449727445
 23
30.8293967193
  0
SOLID
  8
0
 62
7
  6
CONTINUOUS
 10
363.4449727445
 20
30.8293967193
 11
363.4449727445
 21
30.7648681127
 12
363.1559103548
 22
30.797132416
 13
363.1559103548
 23
30.797132416
  0
SOLID
  8
0
 62
7
  6
CONTINUOUS
 10
363.2137226343
 20
30.6680782357
 11
363.1559103548
 21
30.797132416
 12
363.4449727445
 22
30.7648681127
 13
363.4449727445
 23
30.7648681127
  0
SOLID
  8
0
 62
7
  6
CONTINUOUS
 10
364.6012229651
 20
30.8616599362
 11
364.890285024
 21
30.7648681127
 12
364.543410024
 22
30.797132416
 13
364.543410024
 23
30.797132416
  0
SOLID
  8
0
 62
7
  6
CONTINUOUS
 10
364.369972524
 20
30.7003410226
 11
364.543410024
 21
30.797132416
 12
364.890285024
 22
30.7648681127
 13
364.890285024
 23
30.7648681127
  0
SOLID
  8
0
 62
7
  6
CONTINUOUS
 10
364.369972524
 20
30.7003410226
 11
364.890285024
 21
30.7648681127
 12
364.6012229651
 22
30.6680782357
 13
364.6012229651
 23
30.6680782357
  0
SOLID
  8
0
 62
7
  6
CONTINUOUS
 10
364.890285024
 20
30.7648681127
 11
364.9480979651
 21
30.6035511455
 12
364.6012229651
 22
30.6680782357
 13
364.6012229651
 23
30.6680782357
  0
SOLID
  8
0
 62
7
  6
CONTINUOUS
 10
364.6590352445
 20
30.5712868422
 11
364.6012229651
 21
30.6680782357
 12
364.9480979651
 22
30.6035511455
 13
364.9480979651
 23
30.6035511455
  0
SOLID
  8
0
 62
7
  6
CONTINUOUS
 10
364.6590352445
 20
30.5712868422
 11
364.9480979651
 21
30.6035511455
 12
364.716847524
 22
30.5067598731
 13
364.716847524
 23
30.5067598731
  0
SOLID
  8
0
 62
7
  6
CONTINUOUS
 10
364.9480979651
 20
30.6035511455
 11
365.0059102445
 21
30.5067598731
 12
364.716847524
 22
30.5067598731
 13
364.716847524
 23
30.5067598731
  0
SOLID
  8
0
 62
7
  6
CONTINUOUS
 10
360.2652852997
 20
30.7326051679
 11
360.3230977445
 21
30.8293966612
 12
360.6121602997
 22
30.8293966612
 13
360.6121602997
 23
30.8293966612
  0
SOLID
  8
0
 62
7
  6
CONTINUOUS
 10
360.6121602997
 20
30.8293966612
 11
360.5543476894
 21
30.7003410226
 12
360.2652852997
 22
30.7326051679
 13
360.2652852997
 23
30.7326051679
  0
SOLID
  8
0
 62
7
  6
CONTINUOUS
 10
360.091847717
 20
30.6680782357
 11
360.2652852997
 21
30.7326051679
 12
360.5543476894
 22
30.7003410226
 13
360.5543476894
 23
30.7003410226
  0
SOLID
  8
0
 62
7
  6
CONTINUOUS
 10
360.091847717
 20
30.6680782357
 11
360.5543476894
 21
30.7003410226
 12
359.6871602721
 22
30.6358139324
 13
359.6871602721
 23
30.6358139324
  0
SOLID
  8
0
 62
7
  6
CONTINUOUS
 10
360.5543476894
 20
30.7003410226
 11
360.3809101894
 21
30.6035511455
 12
359.6871602721
 22
30.6358139324
 13
359.6871602721
 23
30.6358139324
  0
SOLID
  8
0
 62
7
  6
CONTINUOUS
 10
359.2246602583
 20
30.5712868422
 11
359.6871602721
 21
30.6358139324
 12
360.3809101894
 22
30.6035511455
 13
360.3809101894
 23
30.6035511455
  0
SOLID
  8
0
 62
7
  6
CONTINUOUS
 10
359.2246602583
 20
30.5712868422
 11
360.3809101894
 21
30.6035511455
 12
359.3980977583
 22
30.5390224228
 13
359.3980977583
 23
30.5390224228
  0
SOLID
  8
0
 62
7
  6
CONTINUOUS
 10
360.3809101894
 20
30.6035511455
 11
360.1496602445
 21
30.5390224228
 12
359.3980977583
 22
30.5390224228
 13
359.3980977583
 23
30.5390224228
  0
SOLID
  8
0
 62
7
  6
CONTINUOUS
 10
359.744972717
 20
30.5067597521
 11
359.3980977583
 21
30.5390224228
 12
360.1496602445
 22
30.5390224228
 13
360.1496602445
 23
30.5390224228
  0
SOLID
  8
0
 62
7
  6
CONTINUOUS
 10
363.2137226343
 20
30.6680782357
 11
363.4449727445
 21
30.7648681127
 12
363.5027853548
 22
30.7003410226
 13
363.5027853548
 23
30.7003410226
  0
SOLID
  8
0
 62
7
  6
CONTINUOUS
 10
363.5027853548
 20
30.7003410226
 11
363.7340351343
 21
30.6358139324
 12
363.2137226343
 22
30.6680782357
 13
363.2137226343
 23
30.6680782357
  0
SOLID
  8
0
 62
7
  6
CONTINUOUS
 10
363.3871601343
 20
30.5712868422
 11
363.2137226343
 21
30.6680782357
 12
363.7340351343
 22
30.6358139324
 13
363.7340351343
 23
30.6358139324
  0
SOLID
  8
0
 62
7
  6
CONTINUOUS
 10
364.0809101343
 20
30.6358139363
 11
364.369972524
 21
30.7003410226
 12
364.6012229651
 22
30.6680782357
 13
364.6012229651
 23
30.6680782357
  0
SOLID
  8
0
 62
7
  6
CONTINUOUS
 10
364.6012229651
 20
30.6680782357
 11
364.543410024
 21
30.6035511455
 12
364.0809101343
 22
30.6358139363
 13
364.0809101343
 23
30.6358139363
  0
SOLID
  8
0
 62
7
  6
CONTINUOUS
 10
364.543410024
 20
30.6035511455
 11
363.3871601343
 21
30.5712868422
 12
364.0809101343
 22
30.6358139363
 13
364.0809101343
 23
30.6358139363
  0
SOLID
  8
0
 62
7
  6
CONTINUOUS
 10
363.3871601343
 20
30.5712868422
 11
363.7340351343
 21
30.6358139363
 12
364.0809101343
 22
30.6358139363
 13
364.0809101343
 23
30.6358139363
  0
SOLID
  8
0
 62
7
  6
CONTINUOUS
 10
363.3871601343
 20
30.5712868422
 11
364.543410024
 21
30.6035511455
 12
363.5027853548
 22
30.5390225267
 13
363.5027853548
 23
30.5390225267
  0
SOLID
  8
0
 62
7
  6
CONTINUOUS
 10
364.543410024
 20
30.6035511455
 11
364.369972524
 21
30.5390225267
 12
363.5027853548
 22
30.5390225267
 13
363.5027853548
 23
30.5390225267
  0
SOLID
  8
0
 62
7
  6
CONTINUOUS
 10
363.7340351343
 20
30.5067596914
 11
363.5027853548
 21
30.5390225267
 12
364.369972524
 22
30.5390225267
 13
364.369972524
 23
30.5390225267
  0
SOLID
  8
0
 62
7
  6
CONTINUOUS
 10
364.369972524
 20
30.5390225267
 11
364.0809101343
 21
30.5067596914
 12
363.7340351343
 22
30.5067596914
 13
363.7340351343
 23
30.5067596914
  0
SOLID
  8
0
 62
7
  6
CONTINUOUS
 10
368.7637229651
 20
30.6680782357
 11
368.4168479651
 21
30.6358138717
 12
368.6480977445
 22
30.7003410226
 13
368.6480977445
 23
30.7003410226
  0
SOLID
  8
0
 62
7
  6
CONTINUOUS
 10
368.6480977445
 20
30.7003410226
 11
368.4168479651
 21
30.6358138717
 12
368.5902854651
 22
30.7648680521
 13
368.5902854651
 23
30.7648680521
  0
SOLID
  8
0
 62
7
  6
CONTINUOUS
 10
368.4168479651
 20
30.6358138717
 11
368.3012227445
 21
30.7648680521
 12
368.5902854651
 22
30.7648680521
 13
368.5902854651
 23
30.7648680521
  0
SOLID
  8
0
 62
7
  6
CONTINUOUS
 10
368.7637229651
 20
30.6680782357
 11
369.1105979651
 21
30.6358138717
 12
368.4168479651
 22
30.6358138717
 13
368.4168479651
 23
30.6358138717
  0
SOLID
  8
0
 62
7
  6
CONTINUOUS
 10
365.4684104651
 20
30.5067597521
 11
365.4684104651
 21
31.5391977439
 12
365.757472524
 22
30.5067597521
 13
365.757472524
 23
31.5391977439
  0
ENDBLK
  8
0
  6
BYBLOCK
 62
0
  0
BLOCK
  8
0
 62
2
  6
CONTINUOUS
  2
SYMBOL_0_BL0
 70
64
 10
240.8592468615
 20
19.762288695
  0
TEXT
  8
0
 62
7
  6
CONTINUOUS
 10
227.1239507038
 20
19.1357028027
  7
TEXTSTYLE_3
 40
2.7338706658
  1
Ammeraal Beltech
 41
1.0
 51
15.0
 72
0
  0
TEXT
  8
0
 62
7
  6
CONTINUOUS
 10
237.9247515296
 20
16.8621661299
  7
TEXTSTYLE_4
 40
1.0935482663
  1
Innovation & Service in Belting
 41
1.0
 72
0
  0
LINE
  8
0
 62
7
  6
CONTINUOUS
 10
221.0994100525
 20
19.9022961113
 11
221.8775620458
 21
23.5632134089
  0
LINE
  8
0
 62
7
  6
CONTINUOUS
 10
231.9727303357
 20
27.2266073205
 11
222.3653797889
 21
24.1049898993
  0
LINE
  8
0
 62
7
  6
CONTINUOUS
 10
221.3246933848
 20
19.2089453082
 11
228.8317686459
 21
12.4495443822
  0
LINE
  8
0
 62
7
  6
CONTINUOUS
 10
221.5872277955
 20
20.4440726016
 11
232.3954971607
 21
23.9558922005
  0
LINE
  8
0
 62
7
  6
CONTINUOUS
 10
232.3912920235
 20
13.6061036368
 11
223.9458323548
 21
21.2104296785
  0
LINE
  8
0
 62
7
  6
CONTINUOUS
 10
232.9111147433
 20
26.3816822048
 11
231.9345552061
 21
21.7873308023
  0
LINE
  8
0
 62
7
  6
CONTINUOUS
 10
231.2347532584
 20
18.4950214885
 11
230.5483050469
 21
15.2655365641
  0
LINE
  8
0
 62
7
  6
CONTINUOUS
 10
233.5922108419
 20
13.9963058145
 11
234.5484423775
 21
18.4950214885
  0
LINE
  8
0
 62
7
  6
CONTINUOUS
 10
235.2482443252
 20
21.7873308023
 11
235.6924861276
 21
23.8773241617
  0
LINE
  8
0
 62
7
  6
CONTINUOUS
 10
229.5448697213
 20
12.2979700695
 11
233.1043930989
 21
13.4545293241
  0
LINE
  8
0
 62
7
  6
CONTINUOUS
 10
232.685831411
 20
27.0750330078
 11
235.4672027953
 21
24.5706749648
  0
ARC
  8
0
 62
7
  6
CONTINUOUS
 10
222.5906631212
 20
23.4116390962
 40
0.7290321776
 50
108.0
 51
168.0
  0
ARC
  8
0
 62
7
  6
CONTINUOUS
 10
232.198013668
 20
26.5332565175
 40
0.7290321776
 50
348.0
 51
108.0
  0
ARC
  8
0
 62
7
  6
CONTINUOUS
 10
234.9793850522
 20
24.0288984744
 40
0.7290321776
 50
348.0
 51
48.0
  0
ARC
  8
0
 62
7
  6
CONTINUOUS
 10
229.319586389
 20
12.9913208726
 40
0.7290321776
 50
228.0
 51
288.0
  0
ARC
  8
0
 62
7
  6
CONTINUOUS
 10
221.8125111278
 20
19.7507217986
 40
0.7290321776
 50
108.0
 51
228.0
  0
ARC
  8
0
 62
7
  6
CONTINUOUS
 10
232.8791097665
 20
14.1478801272
 40
0.7290321776
 50
228.0
 51
348.0
  0
ENDBLK
  8
0
  6
BYBLOCK
 62
0
  0
ENDSEC
  0
SECTION
  2
ENTITIES
  0
TEXT
  8
0
 62
5
  6
CONTINUOUS
 10
304.937007874
 20
25.636
  7
TEXTSTYLE_2
 40
2.8
  1
Scale :
 41
0.6
 51
0.000019
 72
0
  0
TEXT
  8
0
 62
5
  6
CONTINUOUS
 10
324.937007874
 20
25.636
  7
TEXTSTYLE_2
 40
2.8
  1
Belt type:
 41
0.6
 51
0.000019
 72
0
  0
INSERT
  8
0
 62
2
  6
CONTINUOUS
  2
SYMBOL_0_BL0
 10
240.8592468615
 20
19.762288695
  0
INSERT
  8
0
 62
2
  6
CONTINUOUS
  2
SYMBOL_5_BL1
 10
382.7840918555
 20
35.5067593403
  0
LINE
  8
0
 62
2
  6
CONTINUOUS
 10
218.937007874
 20
30.0
 11
408.937007874
 21
30.0
  0
LINE
  8
0
 62
2
  6
CONTINUOUS
 10
218.937007874
 20
30.0
 11
218.937007874
 21
10.0
  0
LINE
  8
0
 62
2
  6
CONTINUOUS
 10
218.937007874
 20
10.0
 11
408.937007874
 21
10.0
  0
LINE
  8
0
 62
2
  6
CONTINUOUS
 10
303.937007874
 20
30.0
 11
303.937007874
 21
10.0
  0
LINE
  8
0
 62
2
  6
CONTINUOUS
 10
323.937007874
 20
30.0
 11
323.937007874
 21
10.0
  0
LINE
  8
0
 62
2
  6
CONTINUOUS
 10
408.937007874
 20
30.0
 11
408.937007874
 21
10.0
  0
TEXT
  8
0
 62
5
  6
CONTINUOUS
 10
221.937007874
 20
23.303
  7
TEXTSTYLE_5
 40
1.52
  1
                                                                     Ammeraal Beltech Modular A/S
 41
1.0
 72
0
  0
TEXT
  8
0
 62
5
  6
CONTINUOUS
 10
221.937007874
 20
20.595
  7
TEXTSTYLE_5
 40
1.5
  1
                                                                      Hjulmagervej 21, 7100 Vejle,  DK
 41
1.0
 72
0
  0
TEXT
  8
0
 62
5
  6
CONTINUOUS
 10
221.937007874
 20
17.881
  7
TEXTSTYLE_5
 40
1.495
  1
                                                                      tel: 
 41
1.0
 72
0
  0
TEXT
  8
0
 62
5
  6
CONTINUOUS
 10
266.9239544389
 20
17.881
  7
TEXTSTYLE_5
 40
1.51
  1
+45 75723100     fax: +45 75723348
 41
1.0
 72
0
  0
TEXT
  8
0
 62
5
  6
CONTINUOUS
 10
221.937007874
 20
15.177
  7
TEXTSTYLE_5
 40
1.5
  1
                                                                      admin@unichains.dk  www.unichains.com
 41
1.0
 72
0
  0
TEXT
  8
0
 62
5
  6
CONTINUOUS
 10
308.687007874
 20
13.75
  7
TEXTSTYLE_6
 40
5.0
  1
1:1
 41
0.7
 72
1
 11
313.937007874
 21
13.75
  0
TEXT
  8
0
 62
5
  6
CONTINUOUS
 10
326.937007874
 20
13.75
  7
TEXTSTYLE_7
 40
7.5
  1
uni MPB K600 Product Support Flat 4" K600
 41
0.2516768293
 72
0
  0
LINE
  8
0
 62
7
  6
CONTINUOUS
 10
0.0
 20
0.0
 11
0.0
 21
297.0
  0
LINE
  8
0
 62
7
  6
CONTINUOUS
 10
8.937007874
 20
10.0
 11
8.937007874
 21
287.0
  0
LINE
  8
0
 62
7
  6
CONTINUOUS
 10
0.0
 20
0.0
 11
420.0
 21
0.0
  0
LINE
  8
0
 62
7
  6
CONTINUOUS
 10
408.937007874
 20
10.0
 11
8.937007874
 21
10.0
  0
LINE
  8
0
 62
7
  6
CONTINUOUS
 10
218.937007874
 20
30.0
 11
408.937007874
 21
30.0
  0
LINE
  8
0
 62
7
  6
CONTINUOUS
 10
210.0
 20
297.0
 11
210.0
 21
292.0
  0
LINE
  8
0
 62
7
  6
CONTINUOUS
 10
210.0
 20
0.0
 11
210.0
 21
5.0
  0
LINE
  8
0
 62
7
  6
CONTINUOUS
 10
8.937007874
 20
287.0
 11
408.937007874
 21
287.0
  0
LINE
  8
0
 62
7
  6
CONTINUOUS
 10
0.0
 20
297.0
 11
420.0
 21
297.0
  0
LINE
  8
0
 62
7
  6
CONTINUOUS
 10
408.937007874
 20
287.0
 11
408.937007874
 21
10.0
  0
LINE
  8
0
 62
7
  6
CONTINUOUS
 10
420.0
 20
0.0
 11
420.0
 21
297.0
  0
LINE
  8
0
 62
7
  6
CONTINUOUS
 10
86.8771990852
 20
145.7537882192
 11
86.8771990852
 21
160.5537882192
  0
LINE
  8
0
 62
7
  6
CONTINUOUS
 10
87.30191129
 20
260.8564062117
 11
87.1271990852
 21
160.7537882192
  0
LINE
  8
0
 62
7
  6
CONTINUOUS
 10
98.0573596657
 20
144.8037882192
 11
98.0587533211
 21
144.7638791511
  0
LINE
  8
0
 62
7
  6
CONTINUOUS
 10
91.5122090804
 20
144.7537882192
 11
91.6603070846
 21
146.8716883499
  0
LINE
  8
0
 62
7
  6
CONTINUOUS
 10
104.7801155275
 20
153.83901965
 11
104.7799881678
 21
153.8391393992
  0
LINE
  8
0
 62
7
  6
CONTINUOUS
 10
103.6700668683
 20
160.4988285409
 11
104.6956469611
 21
156.9103898711
  0
LINE
  8
0
 62
7
  6
CONTINUOUS
 10
104.7133063936
 20
156.8128291757
 11
105.603636634
 21
145.6741112181
  0
LINE
  8
0
 62
7
  6
CONTINUOUS
 10
93.1775575255
 20
146.0093497064
 11
94.0410917769
 21
156.8128291757
  0
POLYLINE
  8
0
 62
7
  6
CONTINUOUS
 66
1
 70
0
  0
VERTEX
  8
0
 62
7
  6
CONTINUOUS
 10
91.6603068156
 20
146.8716842601
  0
VERTEX
  8
0
 62
7
  6
CONTINUOUS
 10
91.673780915
 20
146.9505303016
  0
VERTEX
  8
0
 62
7
  6
CONTINUOUS
 10
91.7049333273
 20
147.034533089
  0
VERTEX
  8
0
 62
7
  6
CONTINUOUS
 10
91.7113372201
 20
147.0476121888
  0
SEQEND
  0
LINE
  8
0
 62
2
  6
CONTINUOUS
 10
149.8771990852
 20
132.7537882192
 11
158.2771990852
 21
132.7537882192
  0
LINE
  8
0
 62
7
  6
CONTINUOUS
 10
121.5801155275
 20
153.83901965
 11
121.5799881678
 21
153.8391393992
  0
LINE
  8
0
 62
7
  6
CONTINUOUS
 10
95.0843313021
 20
160.4988285409
 11
94.0587512094
 21
156.9103898711
  0
LINE
  8
0
 62
7
  6
CONTINUOUS
 10
91.5122090804
 20
144.7537882192
 11
87.8771990852
 21
144.7537882192
  0
LINE
  8
0
 62
7
  6
CONTINUOUS
 10
98.2004573678
 20
144.7537882192
 11
100.5539408026
 21
144.7537882192
  0
LINE
  8
0
 62
7
  6
CONTINUOUS
 10
106.6004573678
 20
144.7537882192
 11
108.9539408026
 21
144.7537882192
  0
LINE
  8
0
 62
7
  6
CONTINUOUS
 10
115.0004573678
 20
144.7537882192
 11
117.3539408026
 21
144.7537882192
  0
LINE
  8
0
 62
7
  6
CONTINUOUS
 10
123.4004573678
 20
144.7537882192
 11
125.7539408026
 21
144.7537882192
  0
LINE
  8
0
 62
7
  6
CONTINUOUS
 10
131.8004573678
 20
144.7537882192
 11
134.1539408026
 21
144.7537882192
  0
LINE
  8
0
 62
7
  6
CONTINUOUS
 10
140.2004573678
 20
144.7537882192
 11
142.5539408026
 21
144.7537882192
  0
LINE
  8
0
 62
7
  6
CONTINUOUS
 10
148.6004573678
 20
144.7537882192
 11
150.9539408026
 21
144.7537882192
  0
LINE
  8
0
 62
7
  6
CONTINUOUS
 10
157.0004573678
 20
144.7537882192
 11
159.3539408026
 21
144.7537882192
  0
LINE
  8
0
 62
7
  6
CONTINUOUS
 10
165.4004573678
 20
144.7537882192
 11
167.7539408026
 21
144.7537882192
  0
LINE
  8
0
 62
7
  6
CONTINUOUS
 10
173.8004573678
 20
144.7537882192
 11
176.1539408026
 21
144.7537882192
  0
LINE
  8
0
 62
7
  6
CONTINUOUS
 10
182.2004573678
 20
144.7537882192
 11
184.5539408026
 21
144.7537882192
  0
LINE
  8
0
 62
7
  6
CONTINUOUS
 10
190.6004573678
 20
144.7537882192
 11
192.9539408026
 21
144.7537882192
  0
LINE
  8
0
 62
7
  6
CONTINUOUS
 10
199.0004573678
 20
144.7537882192
 11
201.3539408026
 21
144.7537882192
  0
LINE
  8
0
 62
7
  6
CONTINUOUS
 10
207.4004573678
 20
144.7537882192
 11
209.7539408026
 21
144.7537882192
  0
LINE
  8
0
 62
7
  6
CONTINUOUS
 10
215.8004573678
 20
144.7537882192
 11
218.1539408026
 21
144.7537882192
  0
LINE
  8
0
 62
7
  6
CONTINUOUS
 10
224.2004573678
 20
144.7537882192
 11
226.5539408026
 21
144.7537882192
  0
LINE
  8
0
 62
6
  6
CONTINUOUS
 10
232.6004573678
 20
144.7537882192
 11
233.24218909
 21
144.7537882192
  0
LINE
  8
0
 62
7
  6
CONTINUOUS
 10
233.24218909
 20
144.7537882192
 11
236.8771990852
 21
144.7537882192
  0
LINE
  8
0
 62
7
  6
CONTINUOUS
 10
236.8771990852
 20
144.8037882192
 11
226.6970385047
 21
144.8037882192
  0
LINE
  8
0
 62
7
  6
CONTINUOUS
 10
223.9017369849
 20
144.8037882192
 11
210.0526611856
 21
144.8037882192
  0
LINE
  8
0
 62
7
  6
CONTINUOUS
 10
207.1017369849
 20
144.8037882192
 11
193.2526611856
 21
144.8037882192
  0
LINE
  8
0
 62
7
  6
CONTINUOUS
 10
190.3017369849
 20
144.8037882192
 11
176.4526611856
 21
144.8037882192
  0
LINE
  8
0
 62
7
  6
CONTINUOUS
 10
173.5017369849
 20
144.8037882192
 11
159.6526611856
 21
144.8037882192
  0
LINE
  8
0
 62
7
  6
CONTINUOUS
 10
156.7017369849
 20
144.8037882192
 11
142.8526611856
 21
144.8037882192
  0
LINE
  8
0
 62
7
  6
CONTINUOUS
 10
139.9017369849
 20
144.8037882192
 11
126.0526611856
 21
144.8037882192
  0
LINE
  8
0
 62
7
  6
CONTINUOUS
 10
123.1017369849
 20
144.8037882192
 11
109.2526611856
 21
144.8037882192
  0
LINE
  8
0
 62
7
  6
CONTINUOUS
 10
106.3017369849
 20
144.8037882192
 11
91.515705421
 21
144.8037882192
  0
LINE
  8
0
 62
7
  6
CONTINUOUS
 10
91.9998093396
 20
145.0566736352
 11
92.1759498741
 21
145.0566736352
  0
LINE
  8
0
 62
7
  6
CONTINUOUS
 10
110.8410917769
 20
156.8128291757
 11
109.9507615365
 21
145.6741112181
  0
POLYLINE
  8
0
 62
7
  6
CONTINUOUS
 66
1
 70
0
  0
VERTEX
  8
0
 62
7
  6
CONTINUOUS
 10
92.1759498742
 20
145.0566771039
  0
VERTEX
  8
0
 62
7
  6
CONTINUOUS
 10
92.2635632581
 20
145.0606256689
  0
VERTEX
  8
0
 62
7
  6
CONTINUOUS
 10
92.4044541555
 20
145.0838500566
  0
VERTEX
  8
0
 62
7
  6
CONTINUOUS
 10
92.5410614235
 20
145.1275503792
  0
VERTEX
  8
0
 62
7
  6
CONTINUOUS
 10
92.6706907937
 20
145.1910551013
  0
VERTEX
  8
0
 62
7
  6
CONTINUOUS
 10
92.7906972097
 20
145.273336406
  0
VERTEX
  8
0
 62
7
  6
CONTINUOUS
 10
92.8986041698
 20
145.3730728752
  0
VERTEX
  8
0
 62
7
  6
CONTINUOUS
 10
92.9920021323
 20
145.4885438149
  0
VERTEX
  8
0
 62
7
  6
CONTINUOUS
 10
93.0685562887
 20
145.6174160717
  0
VERTEX
  8
0
 62
7
  6
CONTINUOUS
 10
93.1263602553
 20
145.7570253771
  0
VERTEX
  8
0
 62
7
  6
CONTINUOUS
 10
93.1639398397
 20
145.904414813
  0
VERTEX
  8
0
 62
7
  6
CONTINUOUS
 10
93.1775564858
 20
146.0093497895
  0
SEQEND
  0
POLYLINE
  8
0
 62
7
  6
CONTINUOUS
 66
1
 70
0
  0
VERTEX
  8
0
 62
7
  6
CONTINUOUS
 10
92.5265923547
 20
147.3232949381
  0
VERTEX
  8
0
 62
7
  6
CONTINUOUS
 10
92.5690742129
 20
147.3246046406
  0
VERTEX
  8
0
 62
7
  6
CONTINUOUS
 10
92.680575311
 20
147.3404961148
  0
VERTEX
  8
0
 62
7
  6
CONTINUOUS
 10
92.7908091972
 20
147.3748581438
  0
VERTEX
  8
0
 62
7
  6
CONTINUOUS
 10
92.8978664789
 20
147.4281114015
  0
VERTEX
  8
0
 62
7
  6
CONTINUOUS
 10
92.9994127569
 20
147.5004160654
  0
VERTEX
  8
0
 62
7
  6
CONTINUOUS
 10
93.0933099113
 20
147.59192181
  0
VERTEX
  8
0
 62
7
  6
CONTINUOUS
 10
93.1767481917
 20
147.7017344297
  0
VERTEX
  8
0
 62
7
  6
CONTINUOUS
 10
93.2471226533
 20
147.8281841917
  0
VERTEX
  8
0
 62
7
  6
CONTINUOUS
 10
93.3024540986
 20
147.9698421014
  0
VERTEX
  8
0
 62
7
  6
CONTINUOUS
 10
93.3406078717
 20
148.1248086979
  0
VERTEX
  8
0
 62
7
  6
CONTINUOUS
 10
93.3564826897
 20
148.2478151592
  0
SEQEND
  0
LINE
  8
0
 62
7
  6
CONTINUOUS
 10
92.5265923601
 20
147.323271005
 11
92.1582717444
 21
147.323271005
  0
LINE
  8
0
 62
7
  6
CONTINUOUS
 10
139.7395078526
 20
148.2440238402
 11
143.0148903182
 21
148.2440238402
  0
LINE
  8
0
 62
7
  6
CONTINUOUS
 10
173.3395078526
 20
148.2440238402
 11
176.6148903182
 21
148.2440238402
  0
POLYLINE
  8
0
 62
7
  6
CONTINUOUS
 66
1
 70
0
  0
VERTEX
  8
0
 62
7
  6
CONTINUOUS
 10
144.0416780188
 20
152.7537882192
  0
VERTEX
  8
0
 62
7
  6
CONTINUOUS
 10
144.0740782517
 20
152.7515114665
  0
VERTEX
  8
0
 62
7
  6
CONTINUOUS
 10
144.0971588541
 20
152.7440797958
  0
VERTEX
  8
0
 62
7
  6
CONTINUOUS
 10
144.1102459337
 20
152.7308889768
  0
VERTEX
  8
0
 62
7
  6
CONTINUOUS
 10
144.1133065209
 20
152.7119828258
  0
SEQEND
  0
POLYLINE
  8
0
 62
7
  6
CONTINUOUS
 66
1
 70
0
  0
VERTEX
  8
0
 62
7
  6
CONTINUOUS
 10
139.7395078526
 20
148.2440238402
  0
VERTEX
  8
0
 62
7
  6
CONTINUOUS
 10
139.664828106
 20
148.2506802148
  0
VERTEX
  8
0
 62
7
  6
CONTINUOUS
 10
139.588628783
 20
148.2710387594
  0
VERTEX
  8
0
 62
7
  6
CONTINUOUS
 10
139.5100118036
 20
148.3065678529
  0
VERTEX
  8
0
 62
7
  6
CONTINUOUS
 10
139.428827532
 20
148.3595481965
  0
VERTEX
  8
0
 62
7
  6
CONTINUOUS
 10
139.3467897642
 20
148.4315783328
  0
VERTEX
  8
0
 62
7
  6
CONTINUOUS
 10
139.2660576618
 20
148.5234356942
  0
VERTEX
  8
0
 62
7
  6
CONTINUOUS
 10
139.189632192
 20
148.6337744014
  0
VERTEX
  8
0
 62
7
  6
CONTINUOUS
 10
139.1173065439
 20
148.7653425979
  0
VERTEX
  8
0
 62
7
  6
CONTINUOUS
 10
139.0498285121
 20
148.9213265551
  0
VERTEX
  8
0
 62
7
  6
CONTINUOUS
 10
138.9891663156
 20
149.1037819549
  0
VERTEX
  8
0
 62
7
  6
CONTINUOUS
 10
138.9391048009
 20
149.3074376813
  0
VERTEX
  8
0
 62
7
  6
CONTINUOUS
 10
138.9021387766
 20
149.5230690297
  0
VERTEX
  8
0
 62
7
  6
CONTINUOUS
 10
138.8786198987
 20
149.7403212393
  0
SEQEND
  0
POLYLINE
  8
0
 62
7
  6
CONTINUOUS
 66
1
 70
0
  0
VERTEX
  8
0
 62
7
  6
CONTINUOUS
 10
173.3395078526
 20
148.2440238402
  0
VERTEX
  8
0
 62
7
  6
CONTINUOUS
 10
173.264828106
 20
148.2506802148
  0
VERTEX
  8
0
 62
7
  6
CONTINUOUS
 10
173.188628783
 20
148.2710387594
  0
VERTEX
  8
0
 62
7
  6
CONTINUOUS
 10
173.1100118036
 20
148.3065678529
  0
VERTEX
  8
0
 62
7
  6
CONTINUOUS
 10
173.028827532
 20
148.3595481965
  0
VERTEX
  8
0
 62
7
  6
CONTINUOUS
 10
172.9467897642
 20
148.4315783328
  0
VERTEX
  8
0
 62
7
  6
CONTINUOUS
 10
172.8660576618
 20
148.5234356942
  0
VERTEX
  8
0
 62
7
  6
CONTINUOUS
 10
172.789632192
 20
148.6337744014
  0
VERTEX
  8
0
 62
7
  6
CONTINUOUS
 10
172.7173065439
 20
148.7653425979
  0
VERTEX
  8
0
 62
7
  6
CONTINUOUS
 10
172.6498285121
 20
148.9213265551
  0
VERTEX
  8
0
 62
7
  6
CONTINUOUS
 10
172.5891663156
 20
149.1037819549
  0
VERTEX
  8
0
 62
7
  6
CONTINUOUS
 10
172.5391048009
 20
149.3074376813
  0
VERTEX
  8
0
 62
7
  6
CONTINUOUS
 10
172.5021387766
 20
149.5230690297
  0
VERTEX
  8
0
 62
7
  6
CONTINUOUS
 10
172.4786198987
 20
149.7403212393
  0
SEQEND
  0
LINE
  8
0
 62
7
  6
CONTINUOUS
 10
138.3801155275
 20
153.83901965
 11
138.3799881678
 21
153.8391393992
  0
LINE
  8
0
 62
7
  6
CONTINUOUS
 10
120.4700668683
 20
160.4988285409
 11
121.4956469611
 21
156.9103898711
  0
LINE
  8
0
 62
7
  6
CONTINUOUS
 10
121.5133063936
 20
156.8128291757
 11
122.403636634
 21
145.6741112181
  0
LINE
  8
0
 62
7
  6
CONTINUOUS
 10
236.8771990852
 20
152.7537882192
 11
228.116648073
 21
152.7537882192
  0
LINE
  8
0
 62
7
  6
CONTINUOUS
 10
222.6377500974
 20
152.7537882192
 11
211.316648073
 21
152.7537882192
  0
LINE
  8
0
 62
7
  6
CONTINUOUS
 10
205.8377500974
 20
152.7537882192
 11
194.516648073
 21
152.7537882192
  0
LINE
  8
0
 62
7
  6
CONTINUOUS
 10
189.0377500974
 20
152.7537882192
 11
177.716648073
 21
152.7537882192
  0
LINE
  8
0
 62
7
  6
CONTINUOUS
 10
172.2377500974
 20
152.7537882192
 11
160.916648073
 21
152.7537882192
  0
LINE
  8
0
 62
7
  6
CONTINUOUS
 10
155.4377500974
 20
152.7537882192
 11
144.116648073
 21
152.7537882192
  0
LINE
  8
0
 62
7
  6
CONTINUOUS
 10
138.6377500974
 20
152.7537882192
 11
127.316648073
 21
152.7537882192
  0
LINE
  8
0
 62
7
  6
CONTINUOUS
 10
121.8377500974
 20
152.7537882192
 11
110.516648073
 21
152.7537882192
  0
LINE
  8
DEFAULT_1
 62
2
  6
CENTER
 10
228.116648073
 20
152.7537882192
 11
222.6377500974
 21
152.7537882192
  0
LINE
  8
DEFAULT_1
 62
2
  6
CENTER
 10
211.316648073
 20
152.7537882192
 11
205.8377500974
 21
152.7537882192
  0
LINE
  8
DEFAULT_1
 62
2
  6
CENTER
 10
194.516648073
 20
152.7537882192
 11
189.0377500974
 21
152.7537882192
  0
LINE
  8
DEFAULT_1
 62
2
  6
CENTER
 10
177.716648073
 20
152.7537882192
 11
177.6416780188
 21
152.7537882192
  0
LINE
  8
DEFAULT_1
 62
2
  6
CENTER
 10
160.916648073
 20
152.7537882192
 11
155.4377500974
 21
152.7537882192
  0
LINE
  8
DEFAULT_1
 62
2
  6
CENTER
 10
144.116648073
 20
152.7537882192
 11
144.0416780188
 21
152.7537882192
  0
LINE
  8
DEFAULT_1
 62
2
  6
CENTER
 10
127.316648073
 20
152.7537882192
 11
121.8377500974
 21
152.7537882192
  0
LINE
  8
DEFAULT_1
 62
2
  6
CENTER
 10
110.516648073
 20
152.7537882192
 11
105.0377500974
 21
152.7537882192
  0
LINE
  8
DEFAULT_1
 62
2
  6
CENTER
 10
172.3127201516
 20
152.7537882192
 11
172.2377500974
 21
152.7537882192
  0
LINE
  8
DEFAULT_1
 62
2
  6
CENTER
 10
138.7127201516
 20
152.7537882192
 11
138.6377500974
 21
152.7537882192
  0
LINE
  8
0
 62
7
  6
CONTINUOUS
 10
105.0377500974
 20
152.7537882192
 11
93.716648073
 21
152.7537882192
  0
LINE
  8
0
 62
40
  6
CONTINUOUS
 10
86.8769158894
 20
152.7537882192
 11
86.6771990852
 21
152.7537882192
  0
LINE
  8
0
 62
7
  6
CONTINUOUS
 10
138.7127201516
 20
152.7537882192
 11
144.0416780188
 21
152.7537882192
  0
LINE
  8
0
 62
7
  6
CONTINUOUS
 10
172.3127201516
 20
152.7537882192
 11
177.6416780188
 21
152.7537882192
  0
LINE
  8
DEFAULT_1
 62
2
  6
CENTER
 10
236.8771990852
 20
152.7537882192
 11
239.8771990852
 21
152.7537882192
  0
LINE
  8
0
 62
7
  6
CONTINUOUS
 10
94.4076012069
 20
153.9833975162
 11
94.407675065
 21
153.9833975158
  0
LINE
  8
0
 62
7
  6
CONTINUOUS
 10
111.2076012069
 20
153.9833975162
 11
111.207675065
 21
153.9833975158
  0
LINE
  8
0
 62
7
  6
CONTINUOUS
 10
128.0076012069
 20
153.9833975162
 11
128.007675065
 21
153.9833975158
  0
LINE
  8
0
 62
7
  6
CONTINUOUS
 10
144.8076012069
 20
153.9833975162
 11
144.807675065
 21
153.9833975158
  0
LINE
  8
0
 62
7
  6
CONTINUOUS
 10
161.6076012069
 20
153.9833975162
 11
161.607675065
 21
153.9833975158
  0
LINE
  8
0
 62
7
  6
CONTINUOUS
 10
178.4076012069
 20
153.9833975162
 11
178.407675065
 21
153.9833975158
  0
LINE
  8
0
 62
7
  6
CONTINUOUS
 10
195.2076012069
 20
153.9833975162
 11
195.207675065
 21
153.9833975158
  0
LINE
  8
0
 62
7
  6
CONTINUOUS
 10
212.0076012069
 20
153.9833975162
 11
212.007675065
 21
153.9833975158
  0
LINE
  8
0
 62
7
  6
CONTINUOUS
 10
228.8076012069
 20
153.9833975162
 11
228.807675065
 21
153.9833975158
  0
POLYLINE
  8
0
 62
7
  6
CONTINUOUS
 66
1
 70
0
  0
VERTEX
  8
0
 62
7
  6
CONTINUOUS
 10
177.6416780188
 20
152.7537882192
  0
VERTEX
  8
0
 62
7
  6
CONTINUOUS
 10
177.6740782478
 20
152.7515114672
  0
VERTEX
  8
0
 62
7
  6
CONTINUOUS
 10
177.6971588529
 20
152.7440797965
  0
VERTEX
  8
0
 62
7
  6
CONTINUOUS
 10
177.7102459233
 20
152.7308889978
  0
VERTEX
  8
0
 62
7
  6
CONTINUOUS
 10
177.7133065209
 20
152.7119828258
  0
SEQEND
  0
LINE
  8
0
 62
7
  6
CONTINUOUS
 10
111.8843313021
 20
160.4988285409
 11
110.8587512094
 21
156.9103898711
  0
POLYLINE
  8
0
 62
7
  6
CONTINUOUS
 66
1
 70
0
  0
VERTEX
  8
0
 62
7
  6
CONTINUOUS
 10
91.7113372201
 20
147.0476121888
  0
VERTEX
  8
0
 62
7
  6
CONTINUOUS
 10
91.7559631922
 20
147.1231762727
  0
VERTEX
  8
0
 62
7
  6
CONTINUOUS
 10
91.8290774477
 20
147.2158934365
  0
VERTEX
  8
0
 62
7
  6
CONTINUOUS
 10
91.9258099478
 20
147.312094245
  0
VERTEX
  8
0
 62
7
  6
CONTINUOUS
 10
92.0456431297
 20
147.4114471445
  0
VERTEX
  8
0
 62
7
  6
CONTINUOUS
 10
92.1849722562
 20
147.5151136791
  0
SEQEND
  0
POLYLINE
  8
0
 62
7
  6
CONTINUOUS
 66
1
 70
0
  0
VERTEX
  8
0
 62
7
  6
CONTINUOUS
 10
91.7113023942
 20
147.0476218183
  0
VERTEX
  8
0
 62
7
  6
CONTINUOUS
 10
91.7459864162
 20
147.1063381039
  0
VERTEX
  8
0
 62
7
  6
CONTINUOUS
 10
91.8024839605
 20
147.1747065487
  0
VERTEX
  8
0
 62
7
  6
CONTINUOUS
 10
91.8701722864
 20
147.232017113
  0
VERTEX
  8
0
 62
7
  6
CONTINUOUS
 10
91.9469215775
 20
147.2764665263
  0
VERTEX
  8
0
 62
7
  6
CONTINUOUS
 10
92.0303169159
 20
147.3066561949
  0
VERTEX
  8
0
 62
7
  6
CONTINUOUS
 10
92.1177342651
 20
147.3216362082
  0
VERTEX
  8
0
 62
7
  6
CONTINUOUS
 10
92.158142462
 20
147.3232717126
  0
SEQEND
  0
LINE
  8
0
 62
6
  6
CONTINUOUS
 10
229.2879411874
 20
160.2886218574
 11
229.2078313183
 21
160.2885506121
  0
LINE
  8
0
 62
6
  6
CONTINUOUS
 10
220.8879419106
 20
160.2886218594
 11
220.8078313183
 21
160.2885506128
  0
LINE
  8
0
 62
7
  6
CONTINUOUS
 10
237.6771990852
 20
160.7537882192
 11
229.3195544914
 21
160.7537882192
  0
LINE
  8
0
 62
7
  6
CONTINUOUS
 10
221.4379525257
 20
160.7537882192
 11
212.5195544914
 21
160.7537882192
  0
LINE
  8
0
 62
7
  6
CONTINUOUS
 10
204.6379525257
 20
160.7537882192
 11
195.7195544914
 21
160.7537882192
  0
LINE
  8
0
 62
7
  6
CONTINUOUS
 10
187.8379525257
 20
160.7537882192
 11
178.9195544914
 21
160.7537882192
  0
LINE
  8
0
 62
7
  6
CONTINUOUS
 10
171.0379525257
 20
160.7537882192
 11
162.1195544914
 21
160.7537882192
  0
LINE
  8
0
 62
7
  6
CONTINUOUS
 10
154.2379525257
 20
160.7537882192
 11
145.3195544914
 21
160.7537882192
  0
LINE
  8
0
 62
7
  6
CONTINUOUS
 10
137.4379525257
 20
160.7537882192
 11
128.5195544914
 21
160.7537882192
  0
LINE
  8
0
 62
7
  6
CONTINUOUS
 10
120.6379525257
 20
160.7537882192
 11
111.7195544914
 21
160.7537882192
  0
LINE
  8
0
 62
7
  6
CONTINUOUS
 10
103.8379525257
 20
160.7537882192
 11
94.9195544914
 21
160.7537882192
  0
LINE
  8
0
 62
7
  6
CONTINUOUS
 10
94.8920309284
 20
160.7537882192
 11
87.0771990852
 21
160.7537882192
  0
LINE
  8
0
 62
7
  6
CONTINUOUS
 10
103.8623672421
 20
160.7537882192
 11
111.6920309284
 21
160.7537882192
  0
LINE
  8
0
 62
7
  6
CONTINUOUS
 10
120.6623672421
 20
160.7537882192
 11
128.4920309284
 21
160.7537882192
  0
LINE
  8
0
 62
7
  6
CONTINUOUS
 10
137.4623672421
 20
160.7537882192
 11
145.2920309284
 21
160.7537882192
  0
LINE
  8
0
 62
7
  6
CONTINUOUS
 10
154.2623672421
 20
160.7537882192
 11
162.0920309284
 21
160.7537882192
  0
LINE
  8
0
 62
7
  6
CONTINUOUS
 10
171.0623672421
 20
160.7537882192
 11
178.8920309284
 21
160.7537882192
  0
LINE
  8
0
 62
7
  6
CONTINUOUS
 10
187.8623672421
 20
160.7537882192
 11
195.6920309284
 21
160.7537882192
  0
LINE
  8
0
 62
7
  6
CONTINUOUS
 10
204.6623672421
 20
160.7537882192
 11
212.4920309284
 21
160.7537882192
  0
LINE
  8
0
 62
7
  6
CONTINUOUS
 10
221.4623672421
 20
160.7537882192
 11
229.2920309284
 21
160.7537882192
  0
LINE
  8
0
 62
6
  6
CONTINUOUS
 10
221.4603312584
 20
160.7537882192
 11
221.4623672421
 21
160.7537882192
  0
LINE
  8
0
 62
6
  6
CONTINUOUS
 10
229.2920309284
 20
160.7537882192
 11
229.2940669121
 21
160.7537882192
  0
LINE
  8
0
 62
7
  6
CONTINUOUS
 10
155.1801155275
 20
153.83901965
 11
155.1799881678
 21
153.8391393992
  0
LINE
  8
0
 62
7
  6
CONTINUOUS
 10
137.2700668683
 20
160.4988285409
 11
138.2956469611
 21
156.9103898711
  0
LINE
  8
0
 62
7
  6
CONTINUOUS
 10
139.203636634
 20
145.6741112181
 11
138.3133063936
 21
156.8128291757
  0
LINE
  8
0
 62
7
  6
CONTINUOUS
 10
127.6410917769
 20
156.8128291757
 11
126.7507615365
 21
145.6741112181
  0
LINE
  8
0
 62
7
  6
CONTINUOUS
 10
128.6843313021
 20
160.4988285409
 11
127.6587512094
 21
156.9103898711
  0
LINE
  8
0
 62
2
  6
CONTINUOUS
 10
149.8771990852
 20
172.7537882192
 11
158.2771990852
 21
172.7537882192
  0
LINE
  8
0
 62
7
  6
CONTINUOUS
 10
171.9801155275
 20
153.83901965
 11
171.9799881678
 21
153.8391393992
  0
LINE
  8
0
 62
2
  6
CONTINUOUS
 10
149.8771990852
 20
172.7537882192
 11
149.8771990852
 21
132.7537882192
  0
LINE
  8
0
 62
7
  6
CONTINUOUS
 10
143.5507615365
 20
145.6741112181
 11
144.4410917769
 21
156.8128291757
  0
POLYLINE
  8
0
 62
7
  6
CONTINUOUS
 66
1
 70
0
  0
VERTEX
  8
0
 62
7
  6
CONTINUOUS
 10
143.8757782717
 20
149.7403212393
  0
VERTEX
  8
0
 62
7
  6
CONTINUOUS
 10
143.8519142246
 20
149.5205763069
  0
VERTEX
  8
0
 62
7
  6
CONTINUOUS
 10
143.8143112225
 20
149.3027123258
  0
VERTEX
  8
0
 62
7
  6
CONTINUOUS
 10
143.7635004563
 20
149.0977942853
  0
VERTEX
  8
0
 62
7
  6
CONTINUOUS
 10
143.7023246469
 20
148.9154683948
  0
VERTEX
  8
0
 62
7
  6
CONTINUOUS
 10
143.6347539638
 20
148.7605853846
  0
VERTEX
  8
0
 62
7
  6
CONTINUOUS
 10
143.5626857221
 20
148.6304185194
  0
VERTEX
  8
0
 62
7
  6
CONTINUOUS
 10
143.4866264935
 20
148.5212416048
  0
VERTEX
  8
0
 62
7
  6
CONTINUOUS
 10
143.4061239069
 20
148.4300950146
  0
VERTEX
  8
0
 62
7
  6
CONTINUOUS
 10
143.3242836628
 20
148.3585720324
  0
VERTEX
  8
0
 62
7
  6
CONTINUOUS
 10
143.2433852364
 20
148.3060202287
  0
VERTEX
  8
0
 62
7
  6
CONTINUOUS
 10
143.1650867627
 20
148.2707954909
  0
VERTEX
  8
0
 62
7
  6
CONTINUOUS
 10
143.0894130984
 20
148.2506523843
  0
VERTEX
  8
0
 62
7
  6
CONTINUOUS
 10
143.0148903182
 20
148.2440238402
  0
SEQEND
  0
POLYLINE
  8
0
 62
7
  6
CONTINUOUS
 66
1
 70
0
  0
VERTEX
  8
0
 62
7
  6
CONTINUOUS
 10
138.6410916495
 20
152.7119828258
  0
VERTEX
  8
0
 62
7
  6
CONTINUOUS
 10
138.6441779736
 20
152.7309406906
  0
VERTEX
  8
0
 62
7
  6
CONTINUOUS
 10
138.6573093215
 20
152.7441192445
  0
VERTEX
  8
0
 62
7
  6
CONTINUOUS
 10
138.6803564842
 20
152.7515176442
  0
VERTEX
  8
0
 62
7
  6
CONTINUOUS
 10
138.7127201516
 20
152.7537882192
  0
SEQEND
  0
LINE
  8
0
 62
7
  6
CONTINUOUS
 10
93.9742826429
 20
153.83901965
 11
93.9744100026
 21
153.8391393992
  0
LINE
  8
0
 62
7
  6
CONTINUOUS
 10
188.7801155275
 20
153.83901965
 11
188.7799881678
 21
153.8391393992
  0
LINE
  8
0
 62
7
  6
CONTINUOUS
 10
154.0700668683
 20
160.4988285409
 11
155.0956469611
 21
156.9103898711
  0
LINE
  8
0
 62
7
  6
CONTINUOUS
 10
155.1133063936
 20
156.8128291757
 11
156.003636634
 21
145.6741112181
  0
LINE
  8
0
 62
7
  6
CONTINUOUS
 10
145.4843313021
 20
160.4988285409
 11
144.4587512094
 21
156.9103898711
  0
LINE
  8
0
 62
2
  6
CONTINUOUS
 10
158.1031909852
 20
173.6026082192
 11
158.1031909852
 21
133.6026082192
  0
LINE
  8
0
 62
6
  6
CONTINUOUS
 10
158.2771990852
 20
172.7537882192
 11
158.2771990852
 21
132.7537882192
  0
LINE
  8
DEFAULT_1
 62
2
  6
CENTER
 10
162.3771990852
 20
130.7537882192
 11
162.3771990852
 21
264.3537882192
  0
LINE
  8
0
 62
7
  6
CONTINUOUS
 10
110.7742826429
 20
153.83901965
 11
110.7744100026
 21
153.8391393992
  0
LINE
  8
0
 62
7
  6
CONTINUOUS
 10
205.5801155275
 20
153.83901965
 11
205.5799881678
 21
153.8391393992
  0
LINE
  8
0
 62
7
  6
CONTINUOUS
 10
170.8700668683
 20
160.4988285409
 11
171.8956469611
 21
156.9103898711
  0
LINE
  8
0
 62
7
  6
CONTINUOUS
 10
172.803636634
 20
145.6741112181
 11
171.9133063936
 21
156.8128291757
  0
LINE
  8
0
 62
7
  6
CONTINUOUS
 10
161.2410917769
 20
156.8128291757
 11
160.3507615365
 21
145.6741112181
  0
LINE
  8
0
 62
7
  6
CONTINUOUS
 10
162.2843313021
 20
160.4988285409
 11
161.2587512094
 21
156.9103898711
  0
LINE
  8
0
 62
7
  6
CONTINUOUS
 10
127.5742826429
 20
153.83901965
 11
127.5744100026
 21
153.8391393992
  0
LINE
  8
0
 62
7
  6
CONTINUOUS
 10
222.3801155275
 20
153.83901965
 11
222.3799881678
 21
153.8391393992
  0
LINE
  8
0
 62
7
  6
CONTINUOUS
 10
187.6700668683
 20
160.4988285409
 11
188.6956469611
 21
156.9103898711
  0
LINE
  8
0
 62
7
  6
CONTINUOUS
 10
177.1507615365
 20
145.6741112181
 11
178.0410917769
 21
156.8128291757
  0
POLYLINE
  8
0
 62
7
  6
CONTINUOUS
 66
1
 70
0
  0
VERTEX
  8
0
 62
7
  6
CONTINUOUS
 10
177.4757782717
 20
149.7403212393
  0
VERTEX
  8
0
 62
7
  6
CONTINUOUS
 10
177.4519142246
 20
149.5205763069
  0
VERTEX
  8
0
 62
7
  6
CONTINUOUS
 10
177.4143112225
 20
149.3027123258
  0
VERTEX
  8
0
 62
7
  6
CONTINUOUS
 10
177.3635004563
 20
149.0977942853
  0
VERTEX
  8
0
 62
7
  6
CONTINUOUS
 10
177.3023246469
 20
148.9154683948
  0
VERTEX
  8
0
 62
7
  6
CONTINUOUS
 10
177.2347539638
 20
148.7605853846
  0
VERTEX
  8
0
 62
7
  6
CONTINUOUS
 10
177.1626857221
 20
148.6304185194
  0
VERTEX
  8
0
 62
7
  6
CONTINUOUS
 10
177.0866264935
 20
148.5212416048
  0
VERTEX
  8
0
 62
7
  6
CONTINUOUS
 10
177.0061239069
 20
148.4300950146
  0
VERTEX
  8
0
 62
7
  6
CONTINUOUS
 10
176.9242836628
 20
148.3585720324
  0
VERTEX
  8
0
 62
7
  6
CONTINUOUS
 10
176.8433852364
 20
148.3060202287
  0
VERTEX
  8
0
 62
7
  6
CONTINUOUS
 10
176.7650867627
 20
148.2707954909
  0
VERTEX
  8
0
 62
7
  6
CONTINUOUS
 10
176.6894130984
 20
148.2506523843
  0
VERTEX
  8
0
 62
7
  6
CONTINUOUS
 10
176.6148903182
 20
148.2440238402
  0
SEQEND
  0
POLYLINE
  8
0
 62
7
  6
CONTINUOUS
 66
1
 70
0
  0
VERTEX
  8
0
 62
7
  6
CONTINUOUS
 10
172.2410916495
 20
152.7119828258
  0
VERTEX
  8
0
 62
7
  6
CONTINUOUS
 10
172.2441779456
 20
152.7309406344
  0
VERTEX
  8
0
 62
7
  6
CONTINUOUS
 10
172.2573092336
 20
152.744119195
  0
VERTEX
  8
0
 62
7
  6
CONTINUOUS
 10
172.2803564569
 20
152.7515176396
  0
VERTEX
  8
0
 62
7
  6
CONTINUOUS
 10
172.3127201516
 20
152.7537882192
  0
SEQEND
  0
LINE
  8
0
 62
7
  6
CONTINUOUS
 10
144.3742826429
 20
153.83901965
 11
144.3744100026
 21
153.8391393992
  0
LINE
  8
0
 62
7
  6
CONTINUOUS
 10
188.7133063936
 20
156.8128291757
 11
189.603636634
 21
145.6741112181
  0
LINE
  8
0
 62
7
  6
CONTINUOUS
 10
179.0843313021
 20
160.4988285409
 11
178.0587512094
 21
156.9103898711
  0
POLYLINE
  8
0
 62
7
  6
CONTINUOUS
 66
1
 70
0
  0
VERTEX
  8
0
 62
7
  6
CONTINUOUS
 10
91.8390479462
 20
145.0301248526
  0
VERTEX
  8
0
 62
7
  6
CONTINUOUS
 10
91.7555291434
 20
145.0007514719
  0
VERTEX
  8
0
 62
7
  6
CONTINUOUS
 10
91.6653540731
 20
144.9649396368
  0
VERTEX
  8
0
 62
7
  6
CONTINUOUS
 10
91.5989987038
 20
144.9330167427
  0
VERTEX
  8
0
 62
7
  6
CONTINUOUS
 10
91.5544340529
 20
144.9049910704
  0
VERTEX
  8
0
 62
7
  6
CONTINUOUS
 10
91.5287748106
 20
144.8805585217
  0
VERTEX
  8
0
 62
7
  6
CONTINUOUS
 10
91.519572755
 20
144.8590940035
  0
SEQEND
  0
LINE
  8
0
 62
7
  6
CONTINUOUS
 10
161.1742826429
 20
153.83901965
 11
161.1744100026
 21
153.8391393992
  0
POLYLINE
  8
0
 62
7
  6
CONTINUOUS
 66
1
 70
0
  0
VERTEX
  8
0
 62
7
  6
CONTINUOUS
 10
91.8389566368
 20
145.0301490233
  0
VERTEX
  8
0
 62
7
  6
CONTINUOUS
 10
91.8719817687
 20
145.0401008846
  0
VERTEX
  8
0
 62
7
  6
CONTINUOUS
 10
91.9593211781
 20
145.0550450587
  0
VERTEX
  8
0
 62
7
  6
CONTINUOUS
 10
91.9996464639
 20
145.0566738423
  0
SEQEND
  0
LINE
  8
0
 62
7
  6
CONTINUOUS
 10
204.4700668683
 20
160.4988285409
 11
205.4956469611
 21
156.9103898711
  0
LINE
  8
0
 62
7
  6
CONTINUOUS
 10
205.5133063936
 20
156.8128291757
 11
206.403636634
 21
145.6741112181
  0
LINE
  8
0
 62
7
  6
CONTINUOUS
 10
194.8410917769
 20
156.8128291757
 11
193.9507615365
 21
145.6741112181
  0
LINE
  8
0
 62
7
  6
CONTINUOUS
 10
195.8843313021
 20
160.4988285409
 11
194.8587512094
 21
156.9103898711
  0
LINE
  8
0
 62
7
  6
CONTINUOUS
 10
177.9742826429
 20
153.83901965
 11
177.9744100026
 21
153.8391393992
  0
LINE
  8
0
 62
7
  6
CONTINUOUS
 10
221.2700668683
 20
160.4988285409
 11
222.2956469611
 21
156.9103898711
  0
LINE
  8
0
 62
7
  6
CONTINUOUS
 10
211.6410917769
 20
156.8128291757
 11
210.7507615365
 21
145.6741112181
  0
LINE
  8
0
 62
7
  6
CONTINUOUS
 10
222.3133063936
 20
156.8128291757
 11
223.203636634
 21
145.6741112181
  0
LINE
  8
0
 62
6
  6
CONTINUOUS
 10
216.9771990852
 20
144.7537882192
 11
216.9771990852
 21
160.7537885213
  0
LINE
  8
0
 62
7
  6
CONTINUOUS
 10
212.6843313021
 20
160.4988285409
 11
211.6587512094
 21
156.9103898711
  0
LINE
  8
0
 62
7
  6
CONTINUOUS
 10
194.7742826429
 20
153.83901965
 11
194.7744100026
 21
153.8391393992
  0
LINE
  8
0
 62
7
  6
CONTINUOUS
 10
233.2386927494
 20
144.8037882192
 11
233.24218909
 21
144.7537882192
  0
LINE
  8
0
 62
7
  6
CONTINUOUS
 10
226.6956448493
 20
144.7638791511
 11
226.7702640343
 21
146.9006930319
  0
LINE
  8
0
 62
7
  6
CONTINUOUS
 10
211.5742826429
 20
153.83901965
 11
211.5744100026
 21
153.8391393992
  0
LINE
  8
0
 62
7
  6
CONTINUOUS
 10
88.8019090054
 20
262.3537882192
 11
235.9524891651
 21
262.3537882192
  0
LINE
  8
0
 62
6
  6
CONTINUOUS
 10
233.7771990852
 20
160.7537882192
 11
233.7771990852
 21
144.7537882192
  0
LINE
  8
0
 62
7
  6
CONTINUOUS
 10
227.5775575255
 20
146.0093497064
 11
228.4410917769
 21
156.8128291757
  0
LINE
  8
0
 62
7
  6
CONTINUOUS
 10
227.0666161965
 20
147.5184542146
 11
227.1630872843
 21
148.6763921067
  0
LINE
  8
0
 62
7
  6
CONTINUOUS
 10
227.1630872843
 20
148.6763921067
 11
227.2703874242
 21
149.9443822585
  0
POLYLINE
  8
0
 62
7
  6
CONTINUOUS
 66
1
 70
0
  0
VERTEX
  8
0
 62
7
  6
CONTINUOUS
 10
227.2703874242
 20
149.9443822585
  0
VERTEX
  8
0
 62
7
  6
CONTINUOUS
 10
227.3861204777
 20
151.288121466
  0
VERTEX
  8
0
 62
7
  6
CONTINUOUS
 10
227.4462449774
 20
151.9770883347
  0
SEQEND
  0
POLYLINE
  8
0
 62
7
  6
CONTINUOUS
 66
1
 70
0
  0
VERTEX
  8
0
 62
7
  6
CONTINUOUS
 10
226.7702638568
 20
146.9006882835
  0
VERTEX
  8
0
 62
7
  6
CONTINUOUS
 10
226.7827664643
 20
146.9887615662
  0
VERTEX
  8
0
 62
7
  6
CONTINUOUS
 10
226.8010628269
 20
147.0476737029
  0
SEQEND
  0
POLYLINE
  8
0
 62
7
  6
CONTINUOUS
 66
1
 70
0
  0
VERTEX
  8
0
 62
7
  6
CONTINUOUS
 10
227.0934157965
 20
147.3413210451
  0
VERTEX
  8
0
 62
7
  6
CONTINUOUS
 10
227.17297881
 20
147.3679778772
  0
VERTEX
  8
0
 62
7
  6
CONTINUOUS
 10
227.2827484601
 20
147.4192727759
  0
VERTEX
  8
0
 62
7
  6
CONTINUOUS
 10
227.3880782953
 20
147.491120449
  0
VERTEX
  8
0
 62
7
  6
CONTINUOUS
 10
227.4856763314
 20
147.5833941221
  0
VERTEX
  8
0
 62
7
  6
CONTINUOUS
 10
227.5720691296
 20
147.694633609
  0
VERTEX
  8
0
 62
7
  6
CONTINUOUS
 10
227.6447733929
 20
147.823224043
  0
VERTEX
  8
0
 62
7
  6
CONTINUOUS
 10
227.7016019593
 20
147.967164828
  0
VERTEX
  8
0
 62
7
  6
CONTINUOUS
 10
227.7405116122
 20
148.1242737262
  0
VERTEX
  8
0
 62
7
  6
CONTINUOUS
 10
227.7564802352
 20
148.2477867981
  0
SEQEND
  0
LINE
  8
0
 62
7
  6
CONTINUOUS
 10
237.6271990852
 20
160.7537882192
 11
237.4524868804
 21
260.8564062117
  0
LINE
  8
0
 62
7
  6
CONTINUOUS
 10
237.8771990852
 20
145.7537882192
 11
237.8771990852
 21
160.5537882192
  0
LINE
  8
0
 62
7
  6
CONTINUOUS
 10
229.4843313021
 20
160.4988285409
 11
228.4587512094
 21
156.9103898711
  0
POLYLINE
  8
0
 62
7
  6
CONTINUOUS
 66
1
 70
0
  0
VERTEX
  8
0
 62
7
  6
CONTINUOUS
 10
226.8010628269
 20
147.0476737029
  0
VERTEX
  8
0
 62
7
  6
CONTINUOUS
 10
226.8108780728
 20
147.0725958213
  0
VERTEX
  8
0
 62
7
  6
CONTINUOUS
 10
226.8488981188
 20
147.1491822093
  0
VERTEX
  8
0
 62
7
  6
CONTINUOUS
 10
226.8915003502
 20
147.2177775897
  0
VERTEX
  8
0
 62
7
  6
CONTINUOUS
 10
226.9342278531
 20
147.2785757852
  0
VERTEX
  8
0
 62
7
  6
CONTINUOUS
 10
226.9745151395
 20
147.3334747863
  0
VERTEX
  8
0
 62
7
  6
CONTINUOUS
 10
227.0098806466
 20
147.3836596572
  0
VERTEX
  8
0
 62
7
  6
CONTINUOUS
 10
227.0380323625
 20
147.4300758857
  0
VERTEX
  8
0
 62
7
  6
CONTINUOUS
 10
227.0574259821
 20
147.4744288946
  0
VERTEX
  8
0
 62
7
  6
CONTINUOUS
 10
227.0666161965
 20
147.5184542146
  0
SEQEND
  0
POLYLINE
  8
0
 62
7
  6
CONTINUOUS
 66
1
 70
0
  0
VERTEX
  8
0
 62
7
  6
CONTINUOUS
 10
226.8009779791
 20
147.0476911214
  0
VERTEX
  8
0
 62
7
  6
CONTINUOUS
 10
226.8406645728
 20
147.1303027653
  0
VERTEX
  8
0
 62
7
  6
CONTINUOUS
 10
226.8895831235
 20
147.1983197401
  0
VERTEX
  8
0
 62
7
  6
CONTINUOUS
 10
226.9491720289
 20
147.2572137701
  0
VERTEX
  8
0
 62
7
  6
CONTINUOUS
 10
227.0177581723
 20
147.3053312178
  0
VERTEX
  8
0
 62
7
  6
CONTINUOUS
 10
227.0934157965
 20
147.3413210451
  0
SEQEND
  0
LINE
  8
0
 62
7
  6
CONTINUOUS
 10
228.3742826429
 20
153.83901965
 11
228.3744100026
 21
153.8391393992
  0
POLYLINE
  8
0
 62
7
  6
CONTINUOUS
 66
1
 70
0
  0
VERTEX
  8
0
 62
7
  6
CONTINUOUS
 10
226.8785753957
 20
145.0804075859
  0
VERTEX
  8
0
 62
7
  6
CONTINUOUS
 10
226.951330736
 20
145.1294736712
  0
VERTEX
  8
0
 62
7
  6
CONTINUOUS
 10
226.9847039964
 20
145.1463449773
  0
SEQEND
  0
POLYLINE
  8
0
 62
7
  6
CONTINUOUS
 66
1
 70
0
  0
VERTEX
  8
0
 62
7
  6
CONTINUOUS
 10
226.9847040227
 20
145.1463449205
  0
VERTEX
  8
0
 62
7
  6
CONTINUOUS
 10
227.0660925511
 20
145.1883880159
  0
VERTEX
  8
0
 62
7
  6
CONTINUOUS
 10
227.1874170146
 20
145.2707300682
  0
VERTEX
  8
0
 62
7
  6
CONTINUOUS
 10
227.2963303842
 20
145.3706521536
  0
VERTEX
  8
0
 62
7
  6
CONTINUOUS
 10
227.3903903399
 20
145.4862349649
  0
VERTEX
  8
0
 62
7
  6
CONTINUOUS
 10
227.4674725229
 20
145.6152581812
  0
VERTEX
  8
0
 62
7
  6
CONTINUOUS
 10
227.5257238911
 20
145.7551183187
  0
VERTEX
  8
0
 62
7
  6
CONTINUOUS
 10
227.5636898666
 20
145.9030334088
  0
VERTEX
  8
0
 62
7
  6
CONTINUOUS
 10
227.577556446
 20
146.0093497927
  0
SEQEND
  0
POLYLINE
  8
0
 62
7
  6
CONTINUOUS
 66
1
 70
0
  0
VERTEX
  8
0
 62
7
  6
CONTINUOUS
 10
226.8785690809
 20
145.0804024667
  0
VERTEX
  8
0
 62
7
  6
CONTINUOUS
 10
226.8311018283
 20
145.041891823
  0
VERTEX
  8
0
 62
7
  6
CONTINUOUS
 10
226.7732221693
 20
144.9931097723
  0
VERTEX
  8
0
 62
7
  6
CONTINUOUS
 10
226.732350862
 20
144.9534486415
  0
VERTEX
  8
0
 62
7
  6
CONTINUOUS
 10
226.7084323719
 20
144.9213685454
  0
VERTEX
  8
0
 62
7
  6
CONTINUOUS
 10
226.7002441465
 20
144.8955084973
  0
SEQEND
  0
LINE
  8
0
 62
7
  6
CONTINUOUS
 10
86.8771990852
 20
44.8749116258
 11
86.8771990852
 21
99.4532190121
  0
LINE
  8
0
 62
7
  6
CONTINUOUS
 10
87.1271990852
 20
89.3927704669
 11
87.1271990852
 21
67.7571872076
  0
POLYLINE
  8
0
 62
7
  6
CONTINUOUS
 66
1
 70
0
  0
VERTEX
  8
0
 62
7
  6
CONTINUOUS
 10
96.3227299114
 20
111.013745569
  0
VERTEX
  8
0
 62
7
  6
CONTINUOUS
 10
96.1429466362
 20
110.6127963473
  0
VERTEX
  8
0
 62
7
  6
CONTINUOUS
 10
95.967882098
 20
110.1471833065
  0
VERTEX
  8
0
 62
7
  6
CONTINUOUS
 10
95.8091136961
 20
109.645558826
  0
VERTEX
  8
0
 62
7
  6
CONTINUOUS
 10
95.6664089503
 20
109.1122226238
  0
VERTEX
  8
0
 62
7
  6
CONTINUOUS
 10
95.5397207168
 20
108.5518316021
  0
VERTEX
  8
0
 62
7
  6
CONTINUOUS
 10
95.4290331857
 20
107.9692207965
  0
VERTEX
  8
0
 62
7
  6
CONTINUOUS
 10
95.3343043344
 20
107.3693958696
  0
VERTEX
  8
0
 62
7
  6
CONTINUOUS
 10
95.2624265207
 20
106.8176027482
  0
SEQEND
  0
POLYLINE
  8
0
 62
7
  6
CONTINUOUS
 66
1
 70
0
  0
VERTEX
  8
0
 62
7
  6
CONTINUOUS
 10
86.8771990852
 20
50.3377266539
  0
VERTEX
  8
0
 62
7
  6
CONTINUOUS
 10
86.8821239561
 20
50.3299639137
  0
VERTEX
  8
0
 62
7
  6
CONTINUOUS
 10
86.8967084709
 20
50.3225837864
  0
VERTEX
  8
0
 62
7
  6
CONTINUOUS
 10
86.9203169323
 20
50.3159495932
  0
VERTEX
  8
0
 62
7
  6
CONTINUOUS
 10
86.9518553818
 20
50.3103935243
  0
VERTEX
  8
0
 62
7
  6
CONTINUOUS
 10
86.9898065662
 20
50.3061993409
  0
VERTEX
  8
0
 62
7
  6
CONTINUOUS
 10
87.0322976909
 20
50.3035864303
  0
VERTEX
  8
0
 62
7
  6
CONTINUOUS
 10
87.0771990852
 20
50.302697514
  0
SEQEND
  0
POLYLINE
  8
0
 62
7
  6
CONTINUOUS
 66
1
 70
0
  0
VERTEX
  8
0
 62
7
  6
CONTINUOUS
 10
86.8771987164
 20
44.8749699324
  0
VERTEX
  8
0
 62
7
  6
CONTINUOUS
 10
86.8821650641
 20
44.830677937
  0
VERTEX
  8
0
 62
7
  6
CONTINUOUS
 10
86.8968919053
 20
44.7884304339
  0
VERTEX
  8
0
 62
7
  6
CONTINUOUS
 10
86.9206423302
 20
44.7505139583
  0
VERTEX
  8
0
 62
7
  6
CONTINUOUS
 10
86.9522277246
 20
44.7188261952
  0
VERTEX
  8
0
 62
7
  6
CONTINUOUS
 10
86.9900673708
 20
44.6949530825
  0
VERTEX
  8
0
 62
7
  6
CONTINUOUS
 10
87.0322671587
 20
44.6800895751
  0
VERTEX
  8
0
 62
7
  6
CONTINUOUS
 10
87.0771903671
 20
44.6749788462
  0
SEQEND
  0
POLYLINE
  8
0
 62
7
  6
CONTINUOUS
 66
1
 70
0
  0
VERTEX
  8
0
 62
7
  6
CONTINUOUS
 10
95.0890324969
 20
56.1645203356
  0
VERTEX
  8
0
 62
7
  6
CONTINUOUS
 10
95.0851849284
 20
56.4462443998
  0
VERTEX
  8
0
 62
7
  6
CONTINUOUS
 10
95.0848859869
 20
56.513378549
  0
VERTEX
  8
0
 62
7
  6
CONTINUOUS
 10
95.0855408545
 20
56.5795940824
  0
VERTEX
  8
0
 62
7
  6
CONTINUOUS
 10
95.0872379946
 20
56.6448393979
  0
VERTEX
  8
0
 62
7
  6
CONTINUOUS
 10
95.0900822075
 20
56.7090701136
  0
VERTEX
  8
0
 62
7
  6
CONTINUOUS
 10
95.0941816617
 20
56.7722862591
  0
VERTEX
  8
0
 62
7
  6
CONTINUOUS
 10
95.0996340091
 20
56.8344650173
  0
VERTEX
  8
0
 62
7
  6
CONTINUOUS
 10
95.1065348197
 20
56.8954810501
  0
VERTEX
  8
0
 62
7
  6
CONTINUOUS
 10
95.1149820468
 20
56.9550818486
  0
VERTEX
  8
0
 62
7
  6
CONTINUOUS
 10
95.1251044638
 20
57.0134024597
  0
VERTEX
  8
0
 62
7
  6
CONTINUOUS
 10
95.1370166058
 20
57.0704723865
  0
VERTEX
  8
0
 62
7
  6
CONTINUOUS
 10
95.1509709524
 20
57.1262916894
  0
VERTEX
  8
0
 62
7
  6
CONTINUOUS
 10
95.1670724721
 20
57.1800302661
  0
VERTEX
  8
0
 62
7
  6
CONTINUOUS
 10
95.1857597092
 20
57.230977648
  0
VERTEX
  8
0
 62
7
  6
CONTINUOUS
 10
95.2077458237
 20
57.2798640525
  0
VERTEX
  8
0
 62
7
  6
CONTINUOUS
 10
95.2330466426
 20
57.3258822315
  0
VERTEX
  8
0
 62
7
  6
CONTINUOUS
 10
95.2617341498
 20
57.3683560498
  0
VERTEX
  8
0
 62
7
  6
CONTINUOUS
 10
95.2937701443
 20
57.4065041273
  0
VERTEX
  8
0
 62
7
  6
CONTINUOUS
 10
95.329219265
 20
57.4395784538
  0
VERTEX
  8
0
 62
7
  6
CONTINUOUS
 10
95.3676561871
 20
57.4663394083
  0
VERTEX
  8
0
 62
7
  6
CONTINUOUS
 10
95.4084597353
 20
57.4854216239
  0
VERTEX
  8
0
 62
7
  6
CONTINUOUS
 10
95.4497723579
 20
57.4951211286
  0
VERTEX
  8
0
 62
7
  6
CONTINUOUS
 10
95.46746193
 20
57.4961697439
  0
SEQEND
  0
LINE
  8
0
 62
7
  6
CONTINUOUS
 10
95.0914745515
 20
55.8815061665
 11
95.0890324969
 21
56.1645203356
  0
LINE
  8
0
 62
7
  6
CONTINUOUS
 10
95.0914745515
 20
55.8815061665
 11
95.0920309284
 21
50.333405226
  0
LINE
  8
0
 62
7
  6
CONTINUOUS
 10
95.2624265503
 20
106.8175968826
 11
95.262367245
 21
106.8165769427
  0
LINE
  8
0
 62
7
  6
CONTINUOUS
 10
96.334571307
 20
111.1094108189
 11
96.3186665225
 21
111.0046834769
  0
POLYLINE
  8
0
 62
7
  6
CONTINUOUS
 66
1
 70
0
  0
VERTEX
  8
0
 62
7
  6
CONTINUOUS
 10
95.2653188088
 20
100.9894050689
  0
VERTEX
  8
0
 62
7
  6
CONTINUOUS
 10
95.2691658018
 20
100.7077873804
  0
VERTEX
  8
0
 62
7
  6
CONTINUOUS
 10
95.2695195745
 20
100.6405063934
  0
VERTEX
  8
0
 62
7
  6
CONTINUOUS
 10
95.2689215096
 20
100.5741461565
  0
VERTEX
  8
0
 62
7
  6
CONTINUOUS
 10
95.2672839089
 20
100.5087574021
  0
VERTEX
  8
0
 62
7
  6
CONTINUOUS
 10
95.2645028106
 20
100.4443886571
  0
VERTEX
  8
0
 62
7
  6
CONTINUOUS
 10
95.2604693345
 20
100.3810415188
  0
VERTEX
  8
0
 62
7
  6
CONTINUOUS
 10
95.2550852337
 20
100.3187370218
  0
VERTEX
  8
0
 62
7
  6
CONTINUOUS
 10
95.2482544551
 20
100.2575899337
  0
VERTEX
  8
0
 62
7
  6
CONTINUOUS
 10
95.2398861409
 20
100.1978778826
  0
VERTEX
  8
0
 62
7
  6
CONTINUOUS
 10
95.2298414084
 20
100.1394608647
  0
VERTEX
  8
0
 62
7
  6
CONTINUOUS
 10
95.2180029228
 20
100.0822147818
  0
VERTEX
  8
0
 62
7
  6
CONTINUOUS
 10
95.2041617057
 20
100.026362971
  0
VERTEX
  8
0
 62
7
  6
CONTINUOUS
 10
95.188125348
 20
99.9723780652
  0
VERTEX
  8
0
 62
7
  6
CONTINUOUS
 10
95.1695535519
 20
99.9212433888
  0
VERTEX
  8
0
 62
7
  6
CONTINUOUS
 10
95.1477056221
 20
99.8722245339
  0
VERTEX
  8
0
 62
7
  6
CONTINUOUS
 10
95.1225286199
 20
99.8260211098
  0
VERTEX
  8
0
 62
7
  6
CONTINUOUS
 10
95.0939645325
 20
99.7833436928
  0
VERTEX
  8
0
 62
7
  6
CONTINUOUS
 10
95.0620454351
 20
99.7449644354
  0
VERTEX
  8
0
 62
7
  6
CONTINUOUS
 10
95.026719367
 20
99.7116407224
  0
VERTEX
  8
0
 62
7
  6
CONTINUOUS
 10
94.9883937822
 20
99.6845898116
  0
VERTEX
  8
0
 62
7
  6
CONTINUOUS
 10
94.9476615703
 20
99.6651533604
  0
VERTEX
  8
0
 62
7
  6
CONTINUOUS
 10
94.9063532291
 20
99.6550420758
  0
VERTEX
  8
0
 62
7
  6
CONTINUOUS
 10
94.8867624668
 20
99.653787373
  0
SEQEND
  0
LINE
  8
0
 62
7
  6
CONTINUOUS
 10
95.2629028344
 20
101.2724268057
 11
95.2653188088
 21
100.9894050689
  0
LINE
  8
0
 62
7
  6
CONTINUOUS
 10
95.2623672421
 20
106.8165149312
 11
95.2629028344
 21
101.2724268057
  0
LINE
  8
0
 62
7
  6
CONTINUOUS
 10
95.0920309283
 20
50.333373113
 11
95.0919716023
 21
50.3323650758
  0
LINE
  8
0
 62
7
  6
CONTINUOUS
 10
94.019826999
 20
46.0405477255
 11
94.0357293734
 21
46.1452732705
  0
LINE
  8
0
 62
7
  6
CONTINUOUS
 10
104.542002185
 20
46.5394608641
 11
104.7227288682
 21
46.1362142316
  0
POLYLINE
  8
0
 62
7
  6
CONTINUOUS
 66
1
 70
0
  0
VERTEX
  8
0
 62
7
  6
CONTINUOUS
 10
104.7345701791
 20
46.0405540908
  0
VERTEX
  8
0
 62
7
  6
CONTINUOUS
 10
104.7603761144
 20
45.8836759523
  0
VERTEX
  8
0
 62
7
  6
CONTINUOUS
 10
104.7893690318
 20
45.7269510073
  0
VERTEX
  8
0
 62
7
  6
CONTINUOUS
 10
104.8183245624
 20
45.589424798
  0
VERTEX
  8
0
 62
7
  6
CONTINUOUS
 10
104.8475855127
 20
45.4681278544
  0
VERTEX
  8
0
 62
7
  6
CONTINUOUS
 10
104.8777081028
 20
45.3601358249
  0
VERTEX
  8
0
 62
7
  6
CONTINUOUS
 10
104.909621734
 20
45.2623949217
  0
VERTEX
  8
0
 62
7
  6
CONTINUOUS
 10
104.9449196261
 20
45.171558055
  0
VERTEX
  8
0
 62
7
  6
CONTINUOUS
 10
104.9861450972
 20
45.0843514672
  0
VERTEX
  8
0
 62
7
  6
CONTINUOUS
 10
105.0370011198
 20
44.9983371414
  0
VERTEX
  8
0
 62
7
  6
CONTINUOUS
 10
105.1025725777
 20
44.9126137202
  0
VERTEX
  8
0
 62
7
  6
CONTINUOUS
 10
105.187739269
 20
44.8301226833
  0
VERTEX
  8
0
 62
7
  6
CONTINUOUS
 10
105.2941955211
 20
44.7581656862
  0
VERTEX
  8
0
 62
7
  6
CONTINUOUS
 10
105.4192069551
 20
44.7052755893
  0
VERTEX
  8
0
 62
7
  6
CONTINUOUS
 10
105.5559462112
 20
44.6780329482
  0
VERTEX
  8
0
 62
7
  6
CONTINUOUS
 10
105.6210106932
 20
44.6749789245
  0
SEQEND
  0
LINE
  8
0
 62
7
  6
CONTINUOUS
 10
104.7186687971
 20
46.1452732702
 11
104.7345711714
 21
46.0405477255
  0
POLYLINE
  8
0
 62
7
  6
CONTINUOUS
 66
1
 70
0
  0
VERTEX
  8
0
 62
7
  6
CONTINUOUS
 10
103.6624265173
 20
50.3323549544
  0
VERTEX
  8
0
 62
7
  6
CONTINUOUS
 10
103.7338037724
 20
49.7840635721
  0
VERTEX
  8
0
 62
7
  6
CONTINUOUS
 10
103.8284532338
 20
49.1840821566
  0
VERTEX
  8
0
 62
7
  6
CONTINUOUS
 10
103.9390638386
 20
48.6012951922
  0
VERTEX
  8
0
 62
7
  6
CONTINUOUS
 10
104.0656777248
 20
48.0407095259
  0
VERTEX
  8
0
 62
7
  6
CONTINUOUS
 10
104.2083104792
 20
47.5071618475
  0
VERTEX
  8
0
 62
7
  6
CONTINUOUS
 10
104.3670084034
 20
47.0053114695
  0
VERTEX
  8
0
 62
7
  6
CONTINUOUS
 10
104.542002185
 20
46.5394608641
  0
SEQEND
  0
LINE
  8
0
 62
7
  6
CONTINUOUS
 10
103.6624265469
 20
50.3323608201
 11
103.662367245
 21
50.3333807318
  0
LINE
  8
0
 62
7
  6
CONTINUOUS
 10
103.4919716202
 20
106.8175968826
 11
103.4920309254
 21
106.8165769427
  0
POLYLINE
  8
0
 62
7
  6
CONTINUOUS
 66
1
 70
0
  0
VERTEX
  8
0
 62
7
  6
CONTINUOUS
 10
103.4851857054
 20
100.7037276
  0
VERTEX
  8
0
 62
7
  6
CONTINUOUS
 10
103.4890328999
 20
100.9854411824
  0
VERTEX
  8
0
 62
7
  6
CONTINUOUS
 10
103.4914746437
 20
101.2684533839
  0
VERTEX
  8
0
 62
7
  6
CONTINUOUS
 10
103.4920309284
 20
106.8165149312
  0
SEQEND
  0
POLYLINE
  8
0
 62
7
  6
CONTINUOUS
 66
1
 70
0
  0
VERTEX
  8
0
 62
7
  6
CONTINUOUS
 10
103.6691647752
 20
56.4420826357
  0
VERTEX
  8
0
 62
7
  6
CONTINUOUS
 10
103.6653188091
 20
56.160552555
  0
VERTEX
  8
0
 62
7
  6
CONTINUOUS
 10
103.6629028346
 20
55.8775308944
  0
VERTEX
  8
0
 62
7
  6
CONTINUOUS
 10
103.6623672421
 20
50.3334427433
  0
SEQEND
  0
POLYLINE
  8
0
 62
7
  6
CONTINUOUS
 66
1
 70
0
  0
VERTEX
  8
0
 62
7
  6
CONTINUOUS
 10
113.1227299114
 20
111.013745569
  0
VERTEX
  8
0
 62
7
  6
CONTINUOUS
 10
112.9429466362
 20
110.6127963473
  0
VERTEX
  8
0
 62
7
  6
CONTINUOUS
 10
112.767882098
 20
110.1471833065
  0
VERTEX
  8
0
 62
7
  6
CONTINUOUS
 10
112.6091136961
 20
109.645558826
  0
VERTEX
  8
0
 62
7
  6
CONTINUOUS
 10
112.4664089503
 20
109.1122226238
  0
VERTEX
  8
0
 62
7
  6
CONTINUOUS
 10
112.3397207168
 20
108.5518316021
  0
VERTEX
  8
0
 62
7
  6
CONTINUOUS
 10
112.2290331857
 20
107.9692207965
  0
VERTEX
  8
0
 62
7
  6
CONTINUOUS
 10
112.1343043344
 20
107.3693958696
  0
VERTEX
  8
0
 62
7
  6
CONTINUOUS
 10
112.0624265207
 20
106.8176027482
  0
SEQEND
  0
POLYLINE
  8
0
 62
7
  6
CONTINUOUS
 66
1
 70
0
  0
VERTEX
  8
0
 62
7
  6
CONTINUOUS
 10
112.0653188088
 20
100.9894050689
  0
VERTEX
  8
0
 62
7
  6
CONTINUOUS
 10
112.0691658018
 20
100.7077873804
  0
VERTEX
  8
0
 62
7
  6
CONTINUOUS
 10
112.0695195745
 20
100.6405063934
  0
VERTEX
  8
0
 62
7
  6
CONTINUOUS
 10
112.0689215096
 20
100.5741461565
  0
VERTEX
  8
0
 62
7
  6
CONTINUOUS
 10
112.0672839089
 20
100.5087574021
  0
VERTEX
  8
0
 62
7
  6
CONTINUOUS
 10
112.0645028106
 20
100.4443886571
  0
VERTEX
  8
0
 62
7
  6
CONTINUOUS
 10
112.0604693345
 20
100.3810415188
  0
VERTEX
  8
0
 62
7
  6
CONTINUOUS
 10
112.0550852337
 20
100.3187370218
  0
VERTEX
  8
0
 62
7
  6
CONTINUOUS
 10
112.0482544551
 20
100.2575899337
  0
VERTEX
  8
0
 62
7
  6
CONTINUOUS
 10
112.0398861409
 20
100.1978778826
  0
VERTEX
  8
0
 62
7
  6
CONTINUOUS
 10
112.0298414084
 20
100.1394608647
  0
VERTEX
  8
0
 62
7
  6
CONTINUOUS
 10
112.0180029228
 20
100.0822147818
  0
VERTEX
  8
0
 62
7
  6
CONTINUOUS
 10
112.0041617057
 20
100.026362971
  0
VERTEX
  8
0
 62
7
  6
CONTINUOUS
 10
111.988125348
 20
99.9723780652
  0
VERTEX
  8
0
 62
7
  6
CONTINUOUS
 10
111.9695535519
 20
99.9212433888
  0
VERTEX
  8
0
 62
7
  6
CONTINUOUS
 10
111.9477056221
 20
99.8722245339
  0
VERTEX
  8
0
 62
7
  6
CONTINUOUS
 10
111.9225286199
 20
99.8260211098
  0
VERTEX
  8
0
 62
7
  6
CONTINUOUS
 10
111.8939645325
 20
99.7833436928
  0
VERTEX
  8
0
 62
7
  6
CONTINUOUS
 10
111.8620454351
 20
99.7449644354
  0
VERTEX
  8
0
 62
7
  6
CONTINUOUS
 10
111.826719367
 20
99.7116407224
  0
VERTEX
  8
0
 62
7
  6
CONTINUOUS
 10
111.7883937822
 20
99.6845898116
  0
VERTEX
  8
0
 62
7
  6
CONTINUOUS
 10
111.7476615703
 20
99.6651533604
  0
VERTEX
  8
0
 62
7
  6
CONTINUOUS
 10
111.7063532291
 20
99.6550420758
  0
VERTEX
  8
0
 62
7
  6
CONTINUOUS
 10
111.6867624668
 20
99.653787373
  0
SEQEND
  0
POLYLINE
  8
0
 62
7
  6
CONTINUOUS
 66
1
 70
0
  0
VERTEX
  8
0
 62
7
  6
CONTINUOUS
 10
111.8890324969
 20
56.1645203356
  0
VERTEX
  8
0
 62
7
  6
CONTINUOUS
 10
111.8851849284
 20
56.4462443998
  0
VERTEX
  8
0
 62
7
  6
CONTINUOUS
 10
111.8848859869
 20
56.513378549
  0
VERTEX
  8
0
 62
7
  6
CONTINUOUS
 10
111.8855408545
 20
56.5795940824
  0
VERTEX
  8
0
 62
7
  6
CONTINUOUS
 10
111.8872379946
 20
56.6448393979
  0
VERTEX
  8
0
 62
7
  6
CONTINUOUS
 10
111.8900822075
 20
56.7090701136
  0
VERTEX
  8
0
 62
7
  6
CONTINUOUS
 10
111.8941816617
 20
56.7722862591
  0
VERTEX
  8
0
 62
7
  6
CONTINUOUS
 10
111.8996340091
 20
56.8344650173
  0
VERTEX
  8
0
 62
7
  6
CONTINUOUS
 10
111.9065348197
 20
56.8954810501
  0
VERTEX
  8
0
 62
7
  6
CONTINUOUS
 10
111.9149820468
 20
56.9550818486
  0
VERTEX
  8
0
 62
7
  6
CONTINUOUS
 10
111.9251044638
 20
57.0134024597
  0
VERTEX
  8
0
 62
7
  6
CONTINUOUS
 10
111.9370166058
 20
57.0704723865
  0
VERTEX
  8
0
 62
7
  6
CONTINUOUS
 10
111.9509709524
 20
57.1262916894
  0
VERTEX
  8
0
 62
7
  6
CONTINUOUS
 10
111.9670724721
 20
57.1800302661
  0
VERTEX
  8
0
 62
7
  6
CONTINUOUS
 10
111.9857597092
 20
57.230977648
  0
VERTEX
  8
0
 62
7
  6
CONTINUOUS
 10
112.0077458237
 20
57.2798640525
  0
VERTEX
  8
0
 62
7
  6
CONTINUOUS
 10
112.0330466426
 20
57.3258822315
  0
VERTEX
  8
0
 62
7
  6
CONTINUOUS
 10
112.0617341498
 20
57.3683560498
  0
VERTEX
  8
0
 62
7
  6
CONTINUOUS
 10
112.0937701443
 20
57.4065041273
  0
VERTEX
  8
0
 62
7
  6
CONTINUOUS
 10
112.129219265
 20
57.4395784538
  0
VERTEX
  8
0
 62
7
  6
CONTINUOUS
 10
112.1676561871
 20
57.4663394083
  0
VERTEX
  8
0
 62
7
  6
CONTINUOUS
 10
112.2084597353
 20
57.4854216239
  0
VERTEX
  8
0
 62
7
  6
CONTINUOUS
 10
112.2497723579
 20
57.4951211286
  0
VERTEX
  8
0
 62
7
  6
CONTINUOUS
 10
112.26746193
 20
57.4961697439
  0
SEQEND
  0
LINE
  8
0
 62
7
  6
CONTINUOUS
 10
111.8914745515
 20
55.8815061665
 11
111.8890324969
 21
56.1645203356
  0
LINE
  8
0
 62
7
  6
CONTINUOUS
 10
112.0629028344
 20
101.2724268057
 11
112.0653188088
 21
100.9894050689
  0
LINE
  8
0
 62
7
  6
CONTINUOUS
 10
111.8914745515
 20
55.8815061665
 11
111.8920309284
 21
50.333405226
  0
LINE
  8
0
 62
7
  6
CONTINUOUS
 10
112.0623672421
 20
106.8165149312
 11
112.0629028344
 21
101.2724268057
  0
LINE
  8
0
 62
7
  6
CONTINUOUS
 10
112.0624265503
 20
106.8175968826
 11
112.062367245
 21
106.8165769427
  0
LINE
  8
0
 62
7
  6
CONTINUOUS
 10
111.8920309283
 20
50.333373113
 11
111.8919716023
 21
50.3323650758
  0
LINE
  8
0
 62
7
  6
CONTINUOUS
 10
113.134571307
 20
111.1094108189
 11
113.1186665225
 21
111.0046834769
  0
POLYLINE
  8
0
 62
7
  6
CONTINUOUS
 66
1
 70
0
  0
VERTEX
  8
0
 62
7
  6
CONTINUOUS
 10
94.0316693022
 20
46.1362142316
  0
VERTEX
  8
0
 62
7
  6
CONTINUOUS
 10
94.2123960293
 20
46.539460971
  0
VERTEX
  8
0
 62
7
  6
CONTINUOUS
 10
94.3873898472
 20
47.0053117023
  0
VERTEX
  8
0
 62
7
  6
CONTINUOUS
 10
94.5460878002
 20
47.5071622223
  0
VERTEX
  8
0
 62
7
  6
CONTINUOUS
 10
94.6887205759
 20
48.0407100557
  0
VERTEX
  8
0
 62
7
  6
CONTINUOUS
 10
94.8153344757
 20
48.6012958866
  0
VERTEX
  8
0
 62
7
  6
CONTINUOUS
 10
94.9259450866
 20
49.1840830216
  0
VERTEX
  8
0
 62
7
  6
CONTINUOUS
 10
95.0205945463
 20
49.78406461
  0
VERTEX
  8
0
 62
7
  6
CONTINUOUS
 10
95.0919716531
 20
50.3323549545
  0
SEQEND
  0
LINE
  8
0
 62
7
  6
CONTINUOUS
 10
121.342002185
 20
46.5394608641
 11
121.5227288682
 21
46.1362142316
  0
POLYLINE
  8
0
 62
7
  6
CONTINUOUS
 66
1
 70
0
  0
VERTEX
  8
0
 62
7
  6
CONTINUOUS
 10
102.4198278966
 20
111.1094041917
  0
VERTEX
  8
0
 62
7
  6
CONTINUOUS
 10
102.393781662
 20
111.2676639638
  0
VERTEX
  8
0
 62
7
  6
CONTINUOUS
 10
102.3648329525
 20
111.4240005219
  0
VERTEX
  8
0
 62
7
  6
CONTINUOUS
 10
102.3359242939
 20
111.5611956069
  0
VERTEX
  8
0
 62
7
  6
CONTINUOUS
 10
102.3067138672
 20
111.6822110355
  0
VERTEX
  8
0
 62
7
  6
CONTINUOUS
 10
102.2766477733
 20
111.7899622703
  0
VERTEX
  8
0
 62
7
  6
CONTINUOUS
 10
102.2448015309
 20
111.8874920606
  0
VERTEX
  8
0
 62
7
  6
CONTINUOUS
 10
102.209593124
 20
111.9781308461
  0
VERTEX
  8
0
 62
7
  6
CONTINUOUS
 10
102.1685076774
 20
112.0651209835
  0
VERTEX
  8
0
 62
7
  6
CONTINUOUS
 10
102.1178830163
 20
112.1508905997
  0
VERTEX
  8
0
 62
7
  6
CONTINUOUS
 10
102.0526842666
 20
112.2363653785
  0
VERTEX
  8
0
 62
7
  6
CONTINUOUS
 10
101.9680535926
 20
112.3186878229
  0
VERTEX
  8
0
 62
7
  6
CONTINUOUS
 10
101.8622325707
 20
112.3906768883
  0
VERTEX
  8
0
 62
7
  6
CONTINUOUS
 10
101.7378940829
 20
112.443840819
  0
VERTEX
  8
0
 62
7
  6
CONTINUOUS
 10
101.601832932
 20
112.4715968952
  0
VERTEX
  8
0
 62
7
  6
CONTINUOUS
 10
101.5333863502
 20
112.4749787489
  0
SEQEND
  0
LINE
  8
0
 62
7
  6
CONTINUOUS
 10
102.4357316479
 20
111.0046834769
 11
102.4198268634
 21
111.1094108189
  0
POLYLINE
  8
0
 62
7
  6
CONTINUOUS
 66
1
 70
0
  0
VERTEX
  8
0
 62
7
  6
CONTINUOUS
 10
103.4919716498
 20
106.8176027482
  0
VERTEX
  8
0
 62
7
  6
CONTINUOUS
 10
103.420093836
 20
107.3693958696
  0
VERTEX
  8
0
 62
7
  6
CONTINUOUS
 10
103.3253649847
 20
107.9692207965
  0
VERTEX
  8
0
 62
7
  6
CONTINUOUS
 10
103.2146774537
 20
108.5518316021
  0
VERTEX
  8
0
 62
7
  6
CONTINUOUS
 10
103.0879892201
 20
109.1122226238
  0
VERTEX
  8
0
 62
7
  6
CONTINUOUS
 10
102.9452844743
 20
109.645558826
  0
VERTEX
  8
0
 62
7
  6
CONTINUOUS
 10
102.7865160724
 20
110.1471833065
  0
VERTEX
  8
0
 62
7
  6
CONTINUOUS
 10
102.6114515343
 20
110.6127963473
  0
SEQEND
  0
LINE
  8
0
 62
7
  6
CONTINUOUS
 10
120.4624265469
 20
50.3323608201
 11
120.462367245
 21
50.3333807318
  0
LINE
  8
0
 62
7
  6
CONTINUOUS
 10
110.819826999
 20
46.0405477255
 11
110.8357293734
 21
46.1452732705
  0
POLYLINE
  8
0
 62
7
  6
CONTINUOUS
 66
1
 70
0
  0
VERTEX
  8
0
 62
7
  6
CONTINUOUS
 10
129.9227299114
 20
111.013745569
  0
VERTEX
  8
0
 62
7
  6
CONTINUOUS
 10
129.7429466362
 20
110.6127963473
  0
VERTEX
  8
0
 62
7
  6
CONTINUOUS
 10
129.567882098
 20
110.1471833065
  0
VERTEX
  8
0
 62
7
  6
CONTINUOUS
 10
129.4091136961
 20
109.645558826
  0
VERTEX
  8
0
 62
7
  6
CONTINUOUS
 10
129.2664089503
 20
109.1122226238
  0
VERTEX
  8
0
 62
7
  6
CONTINUOUS
 10
129.1397207168
 20
108.5518316021
  0
VERTEX
  8
0
 62
7
  6
CONTINUOUS
 10
129.0290331857
 20
107.9692207965
  0
VERTEX
  8
0
 62
7
  6
CONTINUOUS
 10
128.9343043344
 20
107.3693958696
  0
VERTEX
  8
0
 62
7
  6
CONTINUOUS
 10
128.8624265207
 20
106.8176027482
  0
SEQEND
  0
POLYLINE
  8
0
 62
7
  6
CONTINUOUS
 66
1
 70
0
  0
VERTEX
  8
0
 62
7
  6
CONTINUOUS
 10
121.5345701791
 20
46.0405540908
  0
VERTEX
  8
0
 62
7
  6
CONTINUOUS
 10
121.5603761144
 20
45.8836759523
  0
VERTEX
  8
0
 62
7
  6
CONTINUOUS
 10
121.5893690318
 20
45.7269510073
  0
VERTEX
  8
0
 62
7
  6
CONTINUOUS
 10
121.6183245624
 20
45.589424798
  0
VERTEX
  8
0
 62
7
  6
CONTINUOUS
 10
121.6475855127
 20
45.4681278544
  0
VERTEX
  8
0
 62
7
  6
CONTINUOUS
 10
121.6777081028
 20
45.3601358249
  0
VERTEX
  8
0
 62
7
  6
CONTINUOUS
 10
121.709621734
 20
45.2623949217
  0
VERTEX
  8
0
 62
7
  6
CONTINUOUS
 10
121.7449196261
 20
45.171558055
  0
VERTEX
  8
0
 62
7
  6
CONTINUOUS
 10
121.7861450972
 20
45.0843514672
  0
VERTEX
  8
0
 62
7
  6
CONTINUOUS
 10
121.8370011198
 20
44.9983371414
  0
VERTEX
  8
0
 62
7
  6
CONTINUOUS
 10
121.9025725777
 20
44.9126137202
  0
VERTEX
  8
0
 62
7
  6
CONTINUOUS
 10
121.987739269
 20
44.8301226833
  0
VERTEX
  8
0
 62
7
  6
CONTINUOUS
 10
122.0941955211
 20
44.7581656862
  0
VERTEX
  8
0
 62
7
  6
CONTINUOUS
 10
122.2192069551
 20
44.7052755893
  0
VERTEX
  8
0
 62
7
  6
CONTINUOUS
 10
122.3559462112
 20
44.6780329482
  0
VERTEX
  8
0
 62
7
  6
CONTINUOUS
 10
122.4210106932
 20
44.6749789245
  0
SEQEND
  0
LINE
  8
0
 62
7
  6
CONTINUOUS
 10
121.5186687971
 20
46.1452732702
 11
121.5345711714
 21
46.0405477255
  0
POLYLINE
  8
0
 62
7
  6
CONTINUOUS
 66
1
 70
0
  0
VERTEX
  8
0
 62
7
  6
CONTINUOUS
 10
120.4624265173
 20
50.3323549544
  0
VERTEX
  8
0
 62
7
  6
CONTINUOUS
 10
120.5338037724
 20
49.7840635721
  0
VERTEX
  8
0
 62
7
  6
CONTINUOUS
 10
120.6284532338
 20
49.1840821566
  0
VERTEX
  8
0
 62
7
  6
CONTINUOUS
 10
120.7390638386
 20
48.6012951922
  0
VERTEX
  8
0
 62
7
  6
CONTINUOUS
 10
120.8656777248
 20
48.0407095259
  0
VERTEX
  8
0
 62
7
  6
CONTINUOUS
 10
121.0083104792
 20
47.5071618475
  0
VERTEX
  8
0
 62
7
  6
CONTINUOUS
 10
121.1670084034
 20
47.0053114695
  0
VERTEX
  8
0
 62
7
  6
CONTINUOUS
 10
121.342002185
 20
46.5394608641
  0
SEQEND
  0
LINE
  8
0
 62
7
  6
CONTINUOUS
 10
120.2919716202
 20
106.8175968826
 11
120.2920309254
 21
106.8165769427
  0
POLYLINE
  8
0
 62
7
  6
CONTINUOUS
 66
1
 70
0
  0
VERTEX
  8
0
 62
7
  6
CONTINUOUS
 10
120.2851857054
 20
100.7037276
  0
VERTEX
  8
0
 62
7
  6
CONTINUOUS
 10
120.2890328999
 20
100.9854411824
  0
VERTEX
  8
0
 62
7
  6
CONTINUOUS
 10
120.2914746437
 20
101.2684533839
  0
VERTEX
  8
0
 62
7
  6
CONTINUOUS
 10
120.2920309284
 20
106.8165149312
  0
SEQEND
  0
POLYLINE
  8
0
 62
7
  6
CONTINUOUS
 66
1
 70
0
  0
VERTEX
  8
0
 62
7
  6
CONTINUOUS
 10
120.4691647752
 20
56.4420826357
  0
VERTEX
  8
0
 62
7
  6
CONTINUOUS
 10
120.4653188091
 20
56.160552555
  0
VERTEX
  8
0
 62
7
  6
CONTINUOUS
 10
120.4629028346
 20
55.8775308944
  0
VERTEX
  8
0
 62
7
  6
CONTINUOUS
 10
120.4623672421
 20
50.3334427433
  0
SEQEND
  0
LINE
  8
0
 62
7
  6
CONTINUOUS
 10
129.934571307
 20
111.1094108189
 11
129.9186665225
 21
111.0046834769
  0
POLYLINE
  8
0
 62
7
  6
CONTINUOUS
 66
1
 70
0
  0
VERTEX
  8
0
 62
7
  6
CONTINUOUS
 10
95.0919716023
 20
50.3323650758
  0
VERTEX
  8
0
 62
7
  6
CONTINUOUS
 10
95.0861599019
 20
50.3237681779
  0
VERTEX
  8
0
 62
7
  6
CONTINUOUS
 10
95.0670731489
 20
50.3149748594
  0
VERTEX
  8
0
 62
7
  6
CONTINUOUS
 10
95.0358719018
 20
50.3082464166
  0
VERTEX
  8
0
 62
7
  6
CONTINUOUS
 10
94.994553356
 20
50.3039267133
  0
VERTEX
  8
0
 62
7
  6
CONTINUOUS
 10
94.9458570098
 20
50.3021378266
  0
VERTEX
  8
0
 62
7
  6
CONTINUOUS
 10
94.8920309284
 20
50.302697514
  0
SEQEND
  0
POLYLINE
  8
0
 62
7
  6
CONTINUOUS
 66
1
 70
0
  0
VERTEX
  8
0
 62
7
  6
CONTINUOUS
 10
227.5333860438
 20
44.674978926
  0
VERTEX
  8
0
 62
7
  6
CONTINUOUS
 10
227.6019423875
 20
44.678371675
  0
VERTEX
  8
0
 62
7
  6
CONTINUOUS
 10
227.7381036941
 20
44.7061826163
  0
VERTEX
  8
0
 62
7
  6
CONTINUOUS
 10
227.8625112579
 20
44.759434581
  0
VERTEX
  8
0
 62
7
  6
CONTINUOUS
 10
227.968358348
 20
44.8315213186
  0
VERTEX
  8
0
 62
7
  6
CONTINUOUS
 10
228.0529789427
 20
44.9139288964
  0
VERTEX
  8
0
 62
7
  6
CONTINUOUS
 10
228.1181509052
 20
44.9994701302
  0
VERTEX
  8
0
 62
7
  6
CONTINUOUS
 10
228.1687516104
 20
45.0853021468
  0
VERTEX
  8
0
 62
7
  6
CONTINUOUS
 10
228.2098227882
 20
45.1723660378
  0
VERTEX
  8
0
 62
7
  6
CONTINUOUS
 10
228.2450261814
 20
45.2630988749
  0
VERTEX
  8
0
 62
7
  6
CONTINUOUS
 10
228.276874796
 20
45.3607494938
  0
VERTEX
  8
0
 62
7
  6
CONTINUOUS
 10
228.3069481143
 20
45.4686508579
  0
VERTEX
  8
0
 62
7
  6
CONTINUOUS
 10
228.3361687809
 20
45.5898474637
  0
VERTEX
  8
0
 62
7
  6
CONTINUOUS
 10
228.3650894283
 20
45.7272566025
  0
VERTEX
  8
0
 62
7
  6
CONTINUOUS
 10
228.3940509313
 20
45.8838420778
  0
VERTEX
  8
0
 62
7
  6
CONTINUOUS
 10
228.419827986
 20
46.0405540562
  0
SEQEND
  0
LINE
  8
0
 62
7
  6
CONTINUOUS
 10
102.6114515343
 20
110.6127963473
 11
102.4316682591
 21
111.013745569
  0
POLYLINE
  8
0
 62
7
  6
CONTINUOUS
 66
1
 70
0
  0
VERTEX
  8
0
 62
7
  6
CONTINUOUS
 10
119.2198278966
 20
111.1094041917
  0
VERTEX
  8
0
 62
7
  6
CONTINUOUS
 10
119.193781662
 20
111.2676639638
  0
VERTEX
  8
0
 62
7
  6
CONTINUOUS
 10
119.1648329525
 20
111.4240005219
  0
VERTEX
  8
0
 62
7
  6
CONTINUOUS
 10
119.1359242939
 20
111.5611956069
  0
VERTEX
  8
0
 62
7
  6
CONTINUOUS
 10
119.1067138672
 20
111.6822110355
  0
VERTEX
  8
0
 62
7
  6
CONTINUOUS
 10
119.0766477733
 20
111.7899622703
  0
VERTEX
  8
0
 62
7
  6
CONTINUOUS
 10
119.0448015309
 20
111.8874920606
  0
VERTEX
  8
0
 62
7
  6
CONTINUOUS
 10
119.009593124
 20
111.9781308461
  0
VERTEX
  8
0
 62
7
  6
CONTINUOUS
 10
118.9685076774
 20
112.0651209835
  0
VERTEX
  8
0
 62
7
  6
CONTINUOUS
 10
118.9178830163
 20
112.1508905997
  0
VERTEX
  8
0
 62
7
  6
CONTINUOUS
 10
118.8526842666
 20
112.2363653785
  0
VERTEX
  8
0
 62
7
  6
CONTINUOUS
 10
118.7680535926
 20
112.3186878229
  0
VERTEX
  8
0
 62
7
  6
CONTINUOUS
 10
118.6622325707
 20
112.3906768883
  0
VERTEX
  8
0
 62
7
  6
CONTINUOUS
 10
118.5378940829
 20
112.443840819
  0
VERTEX
  8
0
 62
7
  6
CONTINUOUS
 10
118.401832932
 20
112.4715968952
  0
VERTEX
  8
0
 62
7
  6
CONTINUOUS
 10
118.3333863502
 20
112.4749787489
  0
SEQEND
  0
LINE
  8
0
 62
7
  6
CONTINUOUS
 10
119.2357316479
 20
111.0046834769
 11
119.2198268634
 21
111.1094108189
  0
POLYLINE
  8
0
 62
7
  6
CONTINUOUS
 66
1
 70
0
  0
VERTEX
  8
0
 62
7
  6
CONTINUOUS
 10
120.2919716498
 20
106.8176027482
  0
VERTEX
  8
0
 62
7
  6
CONTINUOUS
 10
120.220093836
 20
107.3693958696
  0
VERTEX
  8
0
 62
7
  6
CONTINUOUS
 10
120.1253649847
 20
107.9692207965
  0
VERTEX
  8
0
 62
7
  6
CONTINUOUS
 10
120.0146774537
 20
108.5518316021
  0
VERTEX
  8
0
 62
7
  6
CONTINUOUS
 10
119.8879892201
 20
109.1122226238
  0
VERTEX
  8
0
 62
7
  6
CONTINUOUS
 10
119.7452844743
 20
109.645558826
  0
VERTEX
  8
0
 62
7
  6
CONTINUOUS
 10
119.5865160724
 20
110.1471833065
  0
VERTEX
  8
0
 62
7
  6
CONTINUOUS
 10
119.4114515343
 20
110.6127963473
  0
SEQEND
  0
POLYLINE
  8
0
 62
7
  6
CONTINUOUS
 66
1
 70
0
  0
VERTEX
  8
0
 62
7
  6
CONTINUOUS
 10
128.8653188088
 20
100.9894050689
  0
VERTEX
  8
0
 62
7
  6
CONTINUOUS
 10
128.8691658018
 20
100.7077873804
  0
VERTEX
  8
0
 62
7
  6
CONTINUOUS
 10
128.8695195745
 20
100.6405063934
  0
VERTEX
  8
0
 62
7
  6
CONTINUOUS
 10
128.8689215096
 20
100.5741461565
  0
VERTEX
  8
0
 62
7
  6
CONTINUOUS
 10
128.8672839089
 20
100.5087574021
  0
VERTEX
  8
0
 62
7
  6
CONTINUOUS
 10
128.8645028106
 20
100.4443886571
  0
VERTEX
  8
0
 62
7
  6
CONTINUOUS
 10
128.8604693345
 20
100.3810415188
  0
VERTEX
  8
0
 62
7
  6
CONTINUOUS
 10
128.8550852337
 20
100.3187370218
  0
VERTEX
  8
0
 62
7
  6
CONTINUOUS
 10
128.8482544551
 20
100.2575899337
  0
VERTEX
  8
0
 62
7
  6
CONTINUOUS
 10
128.8398861409
 20
100.1978778826
  0
VERTEX
  8
0
 62
7
  6
CONTINUOUS
 10
128.8298414084
 20
100.1394608647
  0
VERTEX
  8
0
 62
7
  6
CONTINUOUS
 10
128.8180029228
 20
100.0822147818
  0
VERTEX
  8
0
 62
7
  6
CONTINUOUS
 10
128.8041617057
 20
100.026362971
  0
VERTEX
  8
0
 62
7
  6
CONTINUOUS
 10
128.788125348
 20
99.9723780652
  0
VERTEX
  8
0
 62
7
  6
CONTINUOUS
 10
128.7695535519
 20
99.9212433888
  0
VERTEX
  8
0
 62
7
  6
CONTINUOUS
 10
128.7477056221
 20
99.8722245339
  0
VERTEX
  8
0
 62
7
  6
CONTINUOUS
 10
128.7225286199
 20
99.8260211098
  0
VERTEX
  8
0
 62
7
  6
CONTINUOUS
 10
128.6939645325
 20
99.7833436928
  0
VERTEX
  8
0
 62
7
  6
CONTINUOUS
 10
128.6620454351
 20
99.7449644354
  0
VERTEX
  8
0
 62
7
  6
CONTINUOUS
 10
128.626719367
 20
99.7116407224
  0
VERTEX
  8
0
 62
7
  6
CONTINUOUS
 10
128.5883937822
 20
99.6845898116
  0
VERTEX
  8
0
 62
7
  6
CONTINUOUS
 10
128.5476615703
 20
99.6651533604
  0
VERTEX
  8
0
 62
7
  6
CONTINUOUS
 10
128.5063532291
 20
99.6550420758
  0
VERTEX
  8
0
 62
7
  6
CONTINUOUS
 10
128.4867624668
 20
99.653787373
  0
SEQEND
  0
POLYLINE
  8
0
 62
7
  6
CONTINUOUS
 66
1
 70
0
  0
VERTEX
  8
0
 62
7
  6
CONTINUOUS
 10
128.6890324969
 20
56.1645203356
  0
VERTEX
  8
0
 62
7
  6
CONTINUOUS
 10
128.6851849284
 20
56.4462443998
  0
VERTEX
  8
0
 62
7
  6
CONTINUOUS
 10
128.6848859869
 20
56.513378549
  0
VERTEX
  8
0
 62
7
  6
CONTINUOUS
 10
128.6855408545
 20
56.5795940824
  0
VERTEX
  8
0
 62
7
  6
CONTINUOUS
 10
128.6872379946
 20
56.6448393979
  0
VERTEX
  8
0
 62
7
  6
CONTINUOUS
 10
128.6900822075
 20
56.7090701136
  0
VERTEX
  8
0
 62
7
  6
CONTINUOUS
 10
128.6941816617
 20
56.7722862591
  0
VERTEX
  8
0
 62
7
  6
CONTINUOUS
 10
128.6996340091
 20
56.8344650173
  0
VERTEX
  8
0
 62
7
  6
CONTINUOUS
 10
128.7065348197
 20
56.8954810501
  0
VERTEX
  8
0
 62
7
  6
CONTINUOUS
 10
128.7149820468
 20
56.9550818486
  0
VERTEX
  8
0
 62
7
  6
CONTINUOUS
 10
128.7251044638
 20
57.0134024597
  0
VERTEX
  8
0
 62
7
  6
CONTINUOUS
 10
128.7370166058
 20
57.0704723865
  0
VERTEX
  8
0
 62
7
  6
CONTINUOUS
 10
128.7509709524
 20
57.1262916894
  0
VERTEX
  8
0
 62
7
  6
CONTINUOUS
 10
128.7670724721
 20
57.1800302661
  0
VERTEX
  8
0
 62
7
  6
CONTINUOUS
 10
128.7857597092
 20
57.230977648
  0
VERTEX
  8
0
 62
7
  6
CONTINUOUS
 10
128.8077458237
 20
57.2798640525
  0
VERTEX
  8
0
 62
7
  6
CONTINUOUS
 10
128.8330466426
 20
57.3258822315
  0
VERTEX
  8
0
 62
7
  6
CONTINUOUS
 10
128.8617341498
 20
57.3683560498
  0
VERTEX
  8
0
 62
7
  6
CONTINUOUS
 10
128.8937701443
 20
57.4065041273
  0
VERTEX
  8
0
 62
7
  6
CONTINUOUS
 10
128.929219265
 20
57.4395784538
  0
VERTEX
  8
0
 62
7
  6
CONTINUOUS
 10
128.9676561871
 20
57.4663394083
  0
VERTEX
  8
0
 62
7
  6
CONTINUOUS
 10
129.0084597353
 20
57.4854216239
  0
VERTEX
  8
0
 62
7
  6
CONTINUOUS
 10
129.0497723579
 20
57.4951211286
  0
VERTEX
  8
0
 62
7
  6
CONTINUOUS
 10
129.06746193
 20
57.4961697439
  0
SEQEND
  0
LINE
  8
0
 62
7
  6
CONTINUOUS
 10
128.6914745515
 20
55.8815061665
 11
128.6890324969
 21
56.1645203356
  0
LINE
  8
0
 62
7
  6
CONTINUOUS
 10
128.8629028344
 20
101.2724268057
 11
128.8653188088
 21
100.9894050689
  0
LINE
  8
0
 62
7
  6
CONTINUOUS
 10
128.6914745515
 20
55.8815061665
 11
128.6920309284
 21
50.333405226
  0
LINE
  8
0
 62
7
  6
CONTINUOUS
 10
128.8623672421
 20
106.8165149312
 11
128.8629028344
 21
101.2724268057
  0
LINE
  8
0
 62
7
  6
CONTINUOUS
 10
128.8624265503
 20
106.8175968826
 11
128.862367245
 21
106.8165769427
  0
LINE
  8
0
 62
7
  6
CONTINUOUS
 10
128.6920309283
 20
50.333373113
 11
128.6919716023
 21
50.3323650758
  0
POLYLINE
  8
0
 62
7
  6
CONTINUOUS
 66
1
 70
0
  0
VERTEX
  8
0
 62
7
  6
CONTINUOUS
 10
110.8316693022
 20
46.1362142316
  0
VERTEX
  8
0
 62
7
  6
CONTINUOUS
 10
111.0123960293
 20
46.539460971
  0
VERTEX
  8
0
 62
7
  6
CONTINUOUS
 10
111.1873898472
 20
47.0053117023
  0
VERTEX
  8
0
 62
7
  6
CONTINUOUS
 10
111.3460878002
 20
47.5071622223
  0
VERTEX
  8
0
 62
7
  6
CONTINUOUS
 10
111.4887205759
 20
48.0407100557
  0
VERTEX
  8
0
 62
7
  6
CONTINUOUS
 10
111.6153344757
 20
48.6012958866
  0
VERTEX
  8
0
 62
7
  6
CONTINUOUS
 10
111.7259450866
 20
49.1840830216
  0
VERTEX
  8
0
 62
7
  6
CONTINUOUS
 10
111.8205945463
 20
49.78406461
  0
VERTEX
  8
0
 62
7
  6
CONTINUOUS
 10
111.8919716531
 20
50.3323549545
  0
SEQEND
  0
POLYLINE
  8
0
 62
7
  6
CONTINUOUS
 66
1
 70
0
  0
VERTEX
  8
0
 62
7
  6
CONTINUOUS
 10
93.133362109
 20
44.6749789537
  0
VERTEX
  8
0
 62
7
  6
CONTINUOUS
 10
93.2037445813
 20
44.6785536242
  0
VERTEX
  8
0
 62
7
  6
CONTINUOUS
 10
93.3408033368
 20
44.707036268
  0
VERTEX
  8
0
 62
7
  6
CONTINUOUS
 10
93.4646672163
 20
44.7606301154
  0
VERTEX
  8
0
 62
7
  6
CONTINUOUS
 10
93.5732470844
 20
44.8355946959
  0
VERTEX
  8
0
 62
7
  6
CONTINUOUS
 10
93.6639327311
 20
44.9267290175
  0
VERTEX
  8
0
 62
7
  6
CONTINUOUS
 10
93.7330245163
 20
45.0226316577
  0
VERTEX
  8
0
 62
7
  6
CONTINUOUS
 10
93.785645875
 20
45.1189458751
  0
VERTEX
  8
0
 62
7
  6
CONTINUOUS
 10
93.8284795603
 20
45.2183814356
  0
VERTEX
  8
0
 62
7
  6
CONTINUOUS
 10
93.865801092
 20
45.324966332
  0
VERTEX
  8
0
 62
7
  6
CONTINUOUS
 10
93.8999525519
 20
45.4420906179
  0
VERTEX
  8
0
 62
7
  6
CONTINUOUS
 10
93.9322477051
 20
45.5725889763
  0
VERTEX
  8
0
 62
7
  6
CONTINUOUS
 10
93.9633938694
 20
45.7186935134
  0
VERTEX
  8
0
 62
7
  6
CONTINUOUS
 10
93.9936973255
 20
45.8818091219
  0
VERTEX
  8
0
 62
7
  6
CONTINUOUS
 10
94.0198288674
 20
46.0405597108
  0
SEQEND
  0
POLYLINE
  8
0
 62
7
  6
CONTINUOUS
 66
1
 70
0
  0
VERTEX
  8
0
 62
7
  6
CONTINUOUS
 10
177.1341118149
 20
44.6749791878
  0
VERTEX
  8
0
 62
7
  6
CONTINUOUS
 10
177.201941868
 20
44.6783716232
  0
VERTEX
  8
0
 62
7
  6
CONTINUOUS
 10
177.3381030317
 20
44.7061824083
  0
VERTEX
  8
0
 62
7
  6
CONTINUOUS
 10
177.4625106603
 20
44.759434251
  0
VERTEX
  8
0
 62
7
  6
CONTINUOUS
 10
177.5683578431
 20
44.8315209017
  0
VERTEX
  8
0
 62
7
  6
CONTINUOUS
 10
177.6529784762
 20
44.9139283632
  0
VERTEX
  8
0
 62
7
  6
CONTINUOUS
 10
177.7181504852
 20
44.999469498
  0
VERTEX
  8
0
 62
7
  6
CONTINUOUS
 10
177.7687512385
 20
45.0853014368
  0
VERTEX
  8
0
 62
7
  6
CONTINUOUS
 10
177.8098224674
 20
45.1723652843
  0
VERTEX
  8
0
 62
7
  6
CONTINUOUS
 10
177.8450259135
 20
45.2630981193
  0
VERTEX
  8
0
 62
7
  6
CONTINUOUS
 10
177.8768745695
 20
45.3607487409
  0
VERTEX
  8
0
 62
7
  6
CONTINUOUS
 10
177.9069479256
 20
45.4686501291
  0
VERTEX
  8
0
 62
7
  6
CONTINUOUS
 10
177.9361686319
 20
45.589846802
  0
VERTEX
  8
0
 62
7
  6
CONTINUOUS
 10
177.9650893235
 20
45.7272560713
  0
VERTEX
  8
0
 62
7
  6
CONTINUOUS
 10
177.9940508768
 20
45.8838417641
  0
VERTEX
  8
0
 62
7
  6
CONTINUOUS
 10
178.019827986
 20
46.0405540562
  0
SEQEND
  0
POLYLINE
  8
0
 62
7
  6
CONTINUOUS
 66
1
 70
0
  0
VERTEX
  8
0
 62
7
  6
CONTINUOUS
 10
143.5341118149
 20
44.6749791878
  0
VERTEX
  8
0
 62
7
  6
CONTINUOUS
 10
143.601941868
 20
44.6783716232
  0
VERTEX
  8
0
 62
7
  6
CONTINUOUS
 10
143.7381030317
 20
44.7061824083
  0
VERTEX
  8
0
 62
7
  6
CONTINUOUS
 10
143.8625106603
 20
44.759434251
  0
VERTEX
  8
0
 62
7
  6
CONTINUOUS
 10
143.9683578431
 20
44.8315209017
  0
VERTEX
  8
0
 62
7
  6
CONTINUOUS
 10
144.0529784762
 20
44.9139283632
  0
VERTEX
  8
0
 62
7
  6
CONTINUOUS
 10
144.1181504852
 20
44.999469498
  0
VERTEX
  8
0
 62
7
  6
CONTINUOUS
 10
144.1687512385
 20
45.0853014368
  0
VERTEX
  8
0
 62
7
  6
CONTINUOUS
 10
144.2098224674
 20
45.1723652843
  0
VERTEX
  8
0
 62
7
  6
CONTINUOUS
 10
144.2450259135
 20
45.2630981193
  0
VERTEX
  8
0
 62
7
  6
CONTINUOUS
 10
144.2768745695
 20
45.3607487409
  0
VERTEX
  8
0
 62
7
  6
CONTINUOUS
 10
144.3069479256
 20
45.4686501291
  0
VERTEX
  8
0
 62
7
  6
CONTINUOUS
 10
144.3361686319
 20
45.589846802
  0
VERTEX
  8
0
 62
7
  6
CONTINUOUS
 10
144.3650893235
 20
45.7272560713
  0
VERTEX
  8
0
 62
7
  6
CONTINUOUS
 10
144.3940508768
 20
45.8838417641
  0
VERTEX
  8
0
 62
7
  6
CONTINUOUS
 10
144.419827986
 20
46.0405540562
  0
SEQEND
  0
POLYLINE
  8
0
 62
7
  6
CONTINUOUS
 66
1
 70
0
  0
VERTEX
  8
0
 62
7
  6
CONTINUOUS
 10
210.7333860454
 20
44.674978926
  0
VERTEX
  8
0
 62
7
  6
CONTINUOUS
 10
210.801941868
 20
44.6783716232
  0
VERTEX
  8
0
 62
7
  6
CONTINUOUS
 10
210.9381030317
 20
44.7061824083
  0
VERTEX
  8
0
 62
7
  6
CONTINUOUS
 10
211.0625106603
 20
44.759434251
  0
VERTEX
  8
0
 62
7
  6
CONTINUOUS
 10
211.1683578431
 20
44.8315209017
  0
VERTEX
  8
0
 62
7
  6
CONTINUOUS
 10
211.2529784762
 20
44.9139283632
  0
VERTEX
  8
0
 62
7
  6
CONTINUOUS
 10
211.3181504852
 20
44.999469498
  0
VERTEX
  8
0
 62
7
  6
CONTINUOUS
 10
211.3687512385
 20
45.0853014368
  0
VERTEX
  8
0
 62
7
  6
CONTINUOUS
 10
211.4098224674
 20
45.1723652843
  0
VERTEX
  8
0
 62
7
  6
CONTINUOUS
 10
211.4450259135
 20
45.2630981193
  0
VERTEX
  8
0
 62
7
  6
CONTINUOUS
 10
211.4768745695
 20
45.3607487409
  0
VERTEX
  8
0
 62
7
  6
CONTINUOUS
 10
211.5069479256
 20
45.4686501291
  0
VERTEX
  8
0
 62
7
  6
CONTINUOUS
 10
211.5361686319
 20
45.589846802
  0
VERTEX
  8
0
 62
7
  6
CONTINUOUS
 10
211.5650893235
 20
45.7272560713
  0
VERTEX
  8
0
 62
7
  6
CONTINUOUS
 10
211.5940508768
 20
45.8838417641
  0
VERTEX
  8
0
 62
7
  6
CONTINUOUS
 10
211.619827986
 20
46.0405540562
  0
SEQEND
  0
POLYLINE
  8
0
 62
7
  6
CONTINUOUS
 66
1
 70
0
  0
VERTEX
  8
0
 62
7
  6
CONTINUOUS
 10
193.9333860454
 20
44.674978926
  0
VERTEX
  8
0
 62
7
  6
CONTINUOUS
 10
194.001941868
 20
44.6783716232
  0
VERTEX
  8
0
 62
7
  6
CONTINUOUS
 10
194.1381030317
 20
44.7061824083
  0
VERTEX
  8
0
 62
7
  6
CONTINUOUS
 10
194.2625106603
 20
44.759434251
  0
VERTEX
  8
0
 62
7
  6
CONTINUOUS
 10
194.3683578431
 20
44.8315209017
  0
VERTEX
  8
0
 62
7
  6
CONTINUOUS
 10
194.4529784762
 20
44.9139283632
  0
VERTEX
  8
0
 62
7
  6
CONTINUOUS
 10
194.5181504852
 20
44.999469498
  0
VERTEX
  8
0
 62
7
  6
CONTINUOUS
 10
194.5687512385
 20
45.0853014368
  0
VERTEX
  8
0
 62
7
  6
CONTINUOUS
 10
194.6098224674
 20
45.1723652843
  0
VERTEX
  8
0
 62
7
  6
CONTINUOUS
 10
194.6450259135
 20
45.2630981193
  0
VERTEX
  8
0
 62
7
  6
CONTINUOUS
 10
194.6768745695
 20
45.3607487409
  0
VERTEX
  8
0
 62
7
  6
CONTINUOUS
 10
194.7069479256
 20
45.4686501291
  0
VERTEX
  8
0
 62
7
  6
CONTINUOUS
 10
194.7361686319
 20
45.589846802
  0
VERTEX
  8
0
 62
7
  6
CONTINUOUS
 10
194.7650893235
 20
45.7272560713
  0
VERTEX
  8
0
 62
7
  6
CONTINUOUS
 10
194.7940508768
 20
45.8838417641
  0
VERTEX
  8
0
 62
7
  6
CONTINUOUS
 10
194.819827986
 20
46.0405540562
  0
SEQEND
  0
POLYLINE
  8
0
 62
7
  6
CONTINUOUS
 66
1
 70
0
  0
VERTEX
  8
0
 62
7
  6
CONTINUOUS
 10
160.3333860454
 20
44.674978926
  0
VERTEX
  8
0
 62
7
  6
CONTINUOUS
 10
160.401941868
 20
44.6783716232
  0
VERTEX
  8
0
 62
7
  6
CONTINUOUS
 10
160.5381030317
 20
44.7061824083
  0
VERTEX
  8
0
 62
7
  6
CONTINUOUS
 10
160.6625106603
 20
44.759434251
  0
VERTEX
  8
0
 62
7
  6
CONTINUOUS
 10
160.7683578431
 20
44.8315209017
  0
VERTEX
  8
0
 62
7
  6
CONTINUOUS
 10
160.8529784762
 20
44.9139283632
  0
VERTEX
  8
0
 62
7
  6
CONTINUOUS
 10
160.9181504852
 20
44.999469498
  0
VERTEX
  8
0
 62
7
  6
CONTINUOUS
 10
160.9687512385
 20
45.0853014368
  0
VERTEX
  8
0
 62
7
  6
CONTINUOUS
 10
161.0098224674
 20
45.1723652843
  0
VERTEX
  8
0
 62
7
  6
CONTINUOUS
 10
161.0450259135
 20
45.2630981193
  0
VERTEX
  8
0
 62
7
  6
CONTINUOUS
 10
161.0768745695
 20
45.3607487409
  0
VERTEX
  8
0
 62
7
  6
CONTINUOUS
 10
161.1069479256
 20
45.4686501291
  0
VERTEX
  8
0
 62
7
  6
CONTINUOUS
 10
161.1361686319
 20
45.589846802
  0
VERTEX
  8
0
 62
7
  6
CONTINUOUS
 10
161.1650893235
 20
45.7272560713
  0
VERTEX
  8
0
 62
7
  6
CONTINUOUS
 10
161.1940508768
 20
45.8838417641
  0
VERTEX
  8
0
 62
7
  6
CONTINUOUS
 10
161.219827986
 20
46.0405540562
  0
SEQEND
  0
POLYLINE
  8
0
 62
7
  6
CONTINUOUS
 66
1
 70
0
  0
VERTEX
  8
0
 62
7
  6
CONTINUOUS
 10
126.7333860454
 20
44.674978926
  0
VERTEX
  8
0
 62
7
  6
CONTINUOUS
 10
126.801941868
 20
44.6783716232
  0
VERTEX
  8
0
 62
7
  6
CONTINUOUS
 10
126.9381030317
 20
44.7061824083
  0
VERTEX
  8
0
 62
7
  6
CONTINUOUS
 10
127.0625106603
 20
44.759434251
  0
VERTEX
  8
0
 62
7
  6
CONTINUOUS
 10
127.1683578431
 20
44.8315209017
  0
VERTEX
  8
0
 62
7
  6
CONTINUOUS
 10
127.2529784762
 20
44.9139283632
  0
VERTEX
  8
0
 62
7
  6
CONTINUOUS
 10
127.3181504852
 20
44.999469498
  0
VERTEX
  8
0
 62
7
  6
CONTINUOUS
 10
127.3687512385
 20
45.0853014368
  0
VERTEX
  8
0
 62
7
  6
CONTINUOUS
 10
127.4098224674
 20
45.1723652843
  0
VERTEX
  8
0
 62
7
  6
CONTINUOUS
 10
127.4450259135
 20
45.2630981193
  0
VERTEX
  8
0
 62
7
  6
CONTINUOUS
 10
127.4768745695
 20
45.3607487409
  0
VERTEX
  8
0
 62
7
  6
CONTINUOUS
 10
127.5069479256
 20
45.4686501291
  0
VERTEX
  8
0
 62
7
  6
CONTINUOUS
 10
127.5361686319
 20
45.589846802
  0
VERTEX
  8
0
 62
7
  6
CONTINUOUS
 10
127.5650893235
 20
45.7272560713
  0
VERTEX
  8
0
 62
7
  6
CONTINUOUS
 10
127.5940508768
 20
45.8838417641
  0
VERTEX
  8
0
 62
7
  6
CONTINUOUS
 10
127.619827986
 20
46.0405540562
  0
SEQEND
  0
POLYLINE
  8
0
 62
7
  6
CONTINUOUS
 66
1
 70
0
  0
VERTEX
  8
0
 62
7
  6
CONTINUOUS
 10
109.9333860454
 20
44.674978926
  0
VERTEX
  8
0
 62
7
  6
CONTINUOUS
 10
110.001941868
 20
44.6783716232
  0
VERTEX
  8
0
 62
7
  6
CONTINUOUS
 10
110.1381030317
 20
44.7061824083
  0
VERTEX
  8
0
 62
7
  6
CONTINUOUS
 10
110.2625106603
 20
44.759434251
  0
VERTEX
  8
0
 62
7
  6
CONTINUOUS
 10
110.3683578431
 20
44.8315209017
  0
VERTEX
  8
0
 62
7
  6
CONTINUOUS
 10
110.4529784762
 20
44.9139283632
  0
VERTEX
  8
0
 62
7
  6
CONTINUOUS
 10
110.5181504852
 20
44.999469498
  0
VERTEX
  8
0
 62
7
  6
CONTINUOUS
 10
110.5687512385
 20
45.0853014368
  0
VERTEX
  8
0
 62
7
  6
CONTINUOUS
 10
110.6098224674
 20
45.1723652843
  0
VERTEX
  8
0
 62
7
  6
CONTINUOUS
 10
110.6450259135
 20
45.2630981193
  0
VERTEX
  8
0
 62
7
  6
CONTINUOUS
 10
110.6768745695
 20
45.3607487409
  0
VERTEX
  8
0
 62
7
  6
CONTINUOUS
 10
110.7069479256
 20
45.4686501291
  0
VERTEX
  8
0
 62
7
  6
CONTINUOUS
 10
110.7361686319
 20
45.589846802
  0
VERTEX
  8
0
 62
7
  6
CONTINUOUS
 10
110.7650893235
 20
45.7272560713
  0
VERTEX
  8
0
 62
7
  6
CONTINUOUS
 10
110.7940508768
 20
45.8838417641
  0
VERTEX
  8
0
 62
7
  6
CONTINUOUS
 10
110.819827986
 20
46.0405540562
  0
SEQEND
  0
POLYLINE
  8
0
 62
6
  6
CONTINUOUS
 66
1
 70
0
  0
VERTEX
  8
0
 62
6
  6
CONTINUOUS
 10
226.5539408026
 20
50.3027443808
  0
VERTEX
  8
0
 62
6
  6
CONTINUOUS
 10
226.7410076559
 20
50.3087373238
  0
VERTEX
  8
0
 62
6
  6
CONTINUOUS
 10
226.9209623085
 20
50.3201457505
  0
VERTEX
  8
0
 62
6
  6
CONTINUOUS
 10
227.0875827987
 20
50.3364285761
  0
VERTEX
  8
0
 62
6
  6
CONTINUOUS
 10
227.2351912071
 20
50.3569291584
  0
VERTEX
  8
0
 62
6
  6
CONTINUOUS
 10
227.3588504959
 20
50.3808815334
  0
VERTEX
  8
0
 62
6
  6
CONTINUOUS
 10
227.4545172331
 20
50.4074225194
  0
VERTEX
  8
0
 62
6
  6
CONTINUOUS
 10
227.5191486669
 20
50.4356080532
  0
VERTEX
  8
0
 62
6
  6
CONTINUOUS
 10
227.5507615365
 20
50.4644312386
  0
SEQEND
  0
LINE
  8
0
 62
7
  6
CONTINUOUS
 10
87.0771977936
 20
44.6749788373
 11
93.133495176
 21
44.6749788373
  0
LINE
  8
0
 62
7
  6
CONTINUOUS
 10
105.6208999548
 20
44.6749788373
 11
109.9334881399
 21
44.6749788373
  0
LINE
  8
0
 62
7
  6
CONTINUOUS
 10
122.4208999548
 20
44.6749788373
 11
126.7334881399
 21
44.6749788373
  0
LINE
  8
0
 62
7
  6
CONTINUOUS
 10
139.2209008978
 20
44.6749788373
 11
143.5334972727
 21
44.6749788373
  0
LINE
  8
0
 62
7
  6
CONTINUOUS
 10
156.0208999548
 20
44.6749788373
 11
160.3334881399
 21
44.6749788373
  0
LINE
  8
0
 62
7
  6
CONTINUOUS
 10
172.8209008978
 20
44.6749788373
 11
177.1334972727
 21
44.6749788373
  0
LINE
  8
0
 62
7
  6
CONTINUOUS
 10
189.6208999548
 20
44.6749788373
 11
193.9334881399
 21
44.6749788373
  0
LINE
  8
0
 62
7
  6
CONTINUOUS
 10
206.4208999548
 20
44.6749788373
 11
210.7334881399
 21
44.6749788373
  0
LINE
  8
0
 62
7
  6
CONTINUOUS
 10
223.2208999548
 20
44.6749788373
 11
227.5334920807
 21
44.6749788373
  0
LINE
  8
0
 62
7
  6
CONTINUOUS
 10
109.9334982157
 20
44.6749788373
 11
109.9333859923
 21
44.6749788956
  0
LINE
  8
0
 62
7
  6
CONTINUOUS
 10
126.7334982157
 20
44.6749788373
 11
126.7333859923
 21
44.6749788956
  0
LINE
  8
0
 62
7
  6
CONTINUOUS
 10
160.3334982157
 20
44.6749788373
 11
160.3333859923
 21
44.6749788956
  0
LINE
  8
0
 62
7
  6
CONTINUOUS
 10
193.9334982157
 20
44.6749788373
 11
193.9333859923
 21
44.6749788956
  0
LINE
  8
0
 62
7
  6
CONTINUOUS
 10
210.7334982157
 20
44.6749788373
 11
210.7333859923
 21
44.6749788956
  0
LINE
  8
0
 62
7
  6
CONTINUOUS
 10
227.533498591
 20
44.6749788373
 11
227.5333866064
 21
44.6749788956
  0
LINE
  8
0
 62
7
  6
CONTINUOUS
 10
138.142002185
 20
46.5394608641
 11
138.3227288682
 21
46.1362142316
  0
LINE
  8
0
 62
7
  6
CONTINUOUS
 10
137.2624265469
 20
50.3323608201
 11
137.262367245
 21
50.3333807318
  0
POLYLINE
  8
0
 62
7
  6
CONTINUOUS
 66
1
 70
0
  0
VERTEX
  8
0
 62
7
  6
CONTINUOUS
 10
137.0851857054
 20
100.7037276
  0
VERTEX
  8
0
 62
7
  6
CONTINUOUS
 10
137.0890328999
 20
100.9854411824
  0
VERTEX
  8
0
 62
7
  6
CONTINUOUS
 10
137.0914746437
 20
101.2684533839
  0
VERTEX
  8
0
 62
7
  6
CONTINUOUS
 10
137.0920309284
 20
106.8165149312
  0
SEQEND
  0
POLYLINE
  8
0
 62
7
  6
CONTINUOUS
 66
1
 70
0
  0
VERTEX
  8
0
 62
7
  6
CONTINUOUS
 10
137.2691647752
 20
56.4420826357
  0
VERTEX
  8
0
 62
7
  6
CONTINUOUS
 10
137.2653188091
 20
56.160552555
  0
VERTEX
  8
0
 62
7
  6
CONTINUOUS
 10
137.2629028346
 20
55.8775308944
  0
VERTEX
  8
0
 62
7
  6
CONTINUOUS
 10
137.2623672421
 20
50.3334427433
  0
SEQEND
  0
LINE
  8
0
 62
7
  6
CONTINUOUS
 10
127.619826999
 20
46.0405477255
 11
127.6357293734
 21
46.1452732705
  0
POLYLINE
  8
0
 62
7
  6
CONTINUOUS
 66
1
 70
0
  0
VERTEX
  8
0
 62
7
  6
CONTINUOUS
 10
146.7227299114
 20
111.013745569
  0
VERTEX
  8
0
 62
7
  6
CONTINUOUS
 10
146.5429466362
 20
110.6127963473
  0
VERTEX
  8
0
 62
7
  6
CONTINUOUS
 10
146.367882098
 20
110.1471833065
  0
VERTEX
  8
0
 62
7
  6
CONTINUOUS
 10
146.2091136961
 20
109.645558826
  0
VERTEX
  8
0
 62
7
  6
CONTINUOUS
 10
146.0664089503
 20
109.1122226238
  0
VERTEX
  8
0
 62
7
  6
CONTINUOUS
 10
145.9397207168
 20
108.5518316021
  0
VERTEX
  8
0
 62
7
  6
CONTINUOUS
 10
145.8290331857
 20
107.9692207965
  0
VERTEX
  8
0
 62
7
  6
CONTINUOUS
 10
145.7343043344
 20
107.3693958696
  0
VERTEX
  8
0
 62
7
  6
CONTINUOUS
 10
145.6624265207
 20
106.8176027482
  0
SEQEND
  0
POLYLINE
  8
0
 62
7
  6
CONTINUOUS
 66
1
 70
0
  0
VERTEX
  8
0
 62
7
  6
CONTINUOUS
 10
111.8919716023
 20
50.3323650758
  0
VERTEX
  8
0
 62
7
  6
CONTINUOUS
 10
111.8861599019
 20
50.3237681779
  0
VERTEX
  8
0
 62
7
  6
CONTINUOUS
 10
111.8670731489
 20
50.3149748594
  0
VERTEX
  8
0
 62
7
  6
CONTINUOUS
 10
111.8358719018
 20
50.3082464166
  0
VERTEX
  8
0
 62
7
  6
CONTINUOUS
 10
111.794553356
 20
50.3039267133
  0
VERTEX
  8
0
 62
7
  6
CONTINUOUS
 10
111.7458570098
 20
50.3021378266
  0
VERTEX
  8
0
 62
7
  6
CONTINUOUS
 10
111.6920309284
 20
50.302697514
  0
SEQEND
  0
POLYLINE
  8
0
 62
7
  6
CONTINUOUS
 66
1
 70
0
  0
VERTEX
  8
0
 62
7
  6
CONTINUOUS
 10
221.4623672421
 20
50.302697514
  0
VERTEX
  8
0
 62
7
  6
CONTINUOUS
 10
221.4153385669
 20
50.3020855613
  0
VERTEX
  8
0
 62
7
  6
CONTINUOUS
 10
221.3718162268
 20
50.3032245823
  0
VERTEX
  8
0
 62
7
  6
CONTINUOUS
 10
221.3331647786
 20
50.3063095551
  0
VERTEX
  8
0
 62
7
  6
CONTINUOUS
 10
221.3015163555
 20
50.3113266895
  0
VERTEX
  8
0
 62
7
  6
CONTINUOUS
 10
221.2785658418
 20
50.3180967055
  0
VERTEX
  8
0
 62
7
  6
CONTINUOUS
 10
221.2654401605
 20
50.3263113792
  0
VERTEX
  8
0
 62
7
  6
CONTINUOUS
 10
221.2624265469
 20
50.3323608201
  0
SEQEND
  0
POLYLINE
  8
0
 62
7
  6
CONTINUOUS
 66
1
 70
0
  0
VERTEX
  8
0
 62
7
  6
CONTINUOUS
 10
204.6623672421
 20
50.302697514
  0
VERTEX
  8
0
 62
7
  6
CONTINUOUS
 10
204.6153385669
 20
50.3020855613
  0
VERTEX
  8
0
 62
7
  6
CONTINUOUS
 10
204.5718162268
 20
50.3032245823
  0
VERTEX
  8
0
 62
7
  6
CONTINUOUS
 10
204.5331647786
 20
50.3063095551
  0
VERTEX
  8
0
 62
7
  6
CONTINUOUS
 10
204.5015163555
 20
50.3113266895
  0
VERTEX
  8
0
 62
7
  6
CONTINUOUS
 10
204.4785658418
 20
50.3180967055
  0
VERTEX
  8
0
 62
7
  6
CONTINUOUS
 10
204.4654401605
 20
50.3263113792
  0
VERTEX
  8
0
 62
7
  6
CONTINUOUS
 10
204.4624265469
 20
50.3323608201
  0
SEQEND
  0
POLYLINE
  8
0
 62
7
  6
CONTINUOUS
 66
1
 70
0
  0
VERTEX
  8
0
 62
7
  6
CONTINUOUS
 10
187.8623672421
 20
50.302697514
  0
VERTEX
  8
0
 62
7
  6
CONTINUOUS
 10
187.8153385669
 20
50.3020855613
  0
VERTEX
  8
0
 62
7
  6
CONTINUOUS
 10
187.7718162268
 20
50.3032245823
  0
VERTEX
  8
0
 62
7
  6
CONTINUOUS
 10
187.7331647786
 20
50.3063095551
  0
VERTEX
  8
0
 62
7
  6
CONTINUOUS
 10
187.7015163555
 20
50.3113266895
  0
VERTEX
  8
0
 62
7
  6
CONTINUOUS
 10
187.6785658418
 20
50.3180967055
  0
VERTEX
  8
0
 62
7
  6
CONTINUOUS
 10
187.6654401605
 20
50.3263113792
  0
VERTEX
  8
0
 62
7
  6
CONTINUOUS
 10
187.6624265469
 20
50.3323608201
  0
SEQEND
  0
POLYLINE
  8
0
 62
7
  6
CONTINUOUS
 66
1
 70
0
  0
VERTEX
  8
0
 62
7
  6
CONTINUOUS
 10
171.0623672421
 20
50.302697514
  0
VERTEX
  8
0
 62
7
  6
CONTINUOUS
 10
171.0153385669
 20
50.3020855613
  0
VERTEX
  8
0
 62
7
  6
CONTINUOUS
 10
170.9718162268
 20
50.3032245823
  0
VERTEX
  8
0
 62
7
  6
CONTINUOUS
 10
170.9331647786
 20
50.3063095551
  0
VERTEX
  8
0
 62
7
  6
CONTINUOUS
 10
170.9015163555
 20
50.3113266895
  0
VERTEX
  8
0
 62
7
  6
CONTINUOUS
 10
170.8785658418
 20
50.3180967055
  0
VERTEX
  8
0
 62
7
  6
CONTINUOUS
 10
170.8654401605
 20
50.3263113792
  0
VERTEX
  8
0
 62
7
  6
CONTINUOUS
 10
170.8624265469
 20
50.3323608201
  0
SEQEND
  0
POLYLINE
  8
0
 62
7
  6
CONTINUOUS
 66
1
 70
0
  0
VERTEX
  8
0
 62
7
  6
CONTINUOUS
 10
154.2623672421
 20
50.302697514
  0
VERTEX
  8
0
 62
7
  6
CONTINUOUS
 10
154.2153385669
 20
50.3020855613
  0
VERTEX
  8
0
 62
7
  6
CONTINUOUS
 10
154.1718162268
 20
50.3032245823
  0
VERTEX
  8
0
 62
7
  6
CONTINUOUS
 10
154.1331647786
 20
50.3063095551
  0
VERTEX
  8
0
 62
7
  6
CONTINUOUS
 10
154.1015163555
 20
50.3113266895
  0
VERTEX
  8
0
 62
7
  6
CONTINUOUS
 10
154.0785658418
 20
50.3180967055
  0
VERTEX
  8
0
 62
7
  6
CONTINUOUS
 10
154.0654401605
 20
50.3263113792
  0
VERTEX
  8
0
 62
7
  6
CONTINUOUS
 10
154.0624265469
 20
50.3323608201
  0
SEQEND
  0
POLYLINE
  8
0
 62
7
  6
CONTINUOUS
 66
1
 70
0
  0
VERTEX
  8
0
 62
7
  6
CONTINUOUS
 10
137.4623672421
 20
50.302697514
  0
VERTEX
  8
0
 62
7
  6
CONTINUOUS
 10
137.4153385669
 20
50.3020855613
  0
VERTEX
  8
0
 62
7
  6
CONTINUOUS
 10
137.3718162268
 20
50.3032245823
  0
VERTEX
  8
0
 62
7
  6
CONTINUOUS
 10
137.3331647786
 20
50.3063095551
  0
VERTEX
  8
0
 62
7
  6
CONTINUOUS
 10
137.3015163555
 20
50.3113266895
  0
VERTEX
  8
0
 62
7
  6
CONTINUOUS
 10
137.2785658418
 20
50.3180967055
  0
VERTEX
  8
0
 62
7
  6
CONTINUOUS
 10
137.2654401605
 20
50.3263113792
  0
VERTEX
  8
0
 62
7
  6
CONTINUOUS
 10
137.2624265469
 20
50.3323608201
  0
SEQEND
  0
POLYLINE
  8
0
 62
7
  6
CONTINUOUS
 66
1
 70
0
  0
VERTEX
  8
0
 62
7
  6
CONTINUOUS
 10
120.6623672421
 20
50.302697514
  0
VERTEX
  8
0
 62
7
  6
CONTINUOUS
 10
120.6153385669
 20
50.3020855613
  0
VERTEX
  8
0
 62
7
  6
CONTINUOUS
 10
120.5718162268
 20
50.3032245823
  0
VERTEX
  8
0
 62
7
  6
CONTINUOUS
 10
120.5331647786
 20
50.3063095551
  0
VERTEX
  8
0
 62
7
  6
CONTINUOUS
 10
120.5015163555
 20
50.3113266895
  0
VERTEX
  8
0
 62
7
  6
CONTINUOUS
 10
120.4785658418
 20
50.3180967055
  0
VERTEX
  8
0
 62
7
  6
CONTINUOUS
 10
120.4654401605
 20
50.3263113792
  0
VERTEX
  8
0
 62
7
  6
CONTINUOUS
 10
120.4624265469
 20
50.3323608201
  0
SEQEND
  0
POLYLINE
  8
0
 62
7
  6
CONTINUOUS
 66
1
 70
0
  0
VERTEX
  8
0
 62
7
  6
CONTINUOUS
 10
103.8623672421
 20
50.302697514
  0
VERTEX
  8
0
 62
7
  6
CONTINUOUS
 10
103.8153385669
 20
50.3020855613
  0
VERTEX
  8
0
 62
7
  6
CONTINUOUS
 10
103.7718162268
 20
50.3032245823
  0
VERTEX
  8
0
 62
7
  6
CONTINUOUS
 10
103.7331647786
 20
50.3063095551
  0
VERTEX
  8
0
 62
7
  6
CONTINUOUS
 10
103.7015163555
 20
50.3113266895
  0
VERTEX
  8
0
 62
7
  6
CONTINUOUS
 10
103.6785658418
 20
50.3180967055
  0
VERTEX
  8
0
 62
7
  6
CONTINUOUS
 10
103.6654401605
 20
50.3263113792
  0
VERTEX
  8
0
 62
7
  6
CONTINUOUS
 10
103.6624265469
 20
50.3323608201
  0
SEQEND
  0
LINE
  8
0
 62
6
  6
CONTINUOUS
 10
226.5539408026
 20
50.3027443808
 11
226.5483024984
 21
50.3026975157
  0
LINE
  8
0
 62
7
  6
CONTINUOUS
 10
94.8920309284
 20
50.302697514
 11
87.0771990852
 21
50.302697514
  0
LINE
  8
0
 62
7
  6
CONTINUOUS
 10
103.8623672421
 20
50.302697514
 11
111.6920309284
 21
50.302697514
  0
LINE
  8
0
 62
7
  6
CONTINUOUS
 10
120.6623672421
 20
50.302697514
 11
128.4920309284
 21
50.302697514
  0
LINE
  8
0
 62
7
  6
CONTINUOUS
 10
137.4623672421
 20
50.302697514
 11
145.2920309284
 21
50.302697514
  0
LINE
  8
0
 62
7
  6
CONTINUOUS
 10
154.2623672421
 20
50.302697514
 11
162.0920309284
 21
50.302697514
  0
LINE
  8
0
 62
7
  6
CONTINUOUS
 10
171.0623672421
 20
50.302697514
 11
178.8920309284
 21
50.302697514
  0
LINE
  8
0
 62
7
  6
CONTINUOUS
 10
187.8623672421
 20
50.302697514
 11
195.6920309284
 21
50.302697514
  0
LINE
  8
0
 62
7
  6
CONTINUOUS
 10
204.6623672421
 20
50.302697514
 11
212.4920309284
 21
50.302697514
  0
LINE
  8
0
 62
7
  6
CONTINUOUS
 10
221.4623672421
 20
50.302697514
 11
229.2920309284
 21
50.302697514
  0
LINE
  8
0
 62
6
  6
CONTINUOUS
 10
221.4603312584
 20
50.302697514
 11
221.4623672421
 21
50.302697514
  0
LINE
  8
0
 62
6
  6
CONTINUOUS
 10
229.2920309284
 20
50.302697514
 11
229.2940669121
 21
50.302697514
  0
LINE
  8
DEFAULT_1
 62
2
  6
CENTER
 10
84.8771990852
 20
53.1749788373
 11
229.1195798156
 21
53.1749788373
  0
LINE
  8
0
 62
6
  6
CONTINUOUS
 10
224.2004573678
 20
50.3027443808
 11
224.2060956721
 21
50.3026975157
  0
POLYLINE
  8
0
 62
6
  6
CONTINUOUS
 66
1
 70
0
  0
VERTEX
  8
0
 62
6
  6
CONTINUOUS
 10
224.2004573678
 20
50.3027443808
  0
VERTEX
  8
0
 62
6
  6
CONTINUOUS
 10
224.0133905145
 20
50.3087373238
  0
VERTEX
  8
0
 62
6
  6
CONTINUOUS
 10
223.8334358619
 20
50.3201457505
  0
VERTEX
  8
0
 62
6
  6
CONTINUOUS
 10
223.6668153718
 20
50.3364285761
  0
VERTEX
  8
0
 62
6
  6
CONTINUOUS
 10
223.5192069634
 20
50.3569291584
  0
VERTEX
  8
0
 62
6
  6
CONTINUOUS
 10
223.3955476745
 20
50.3808815334
  0
VERTEX
  8
0
 62
6
  6
CONTINUOUS
 10
223.2998809374
 20
50.4074225194
  0
VERTEX
  8
0
 62
6
  6
CONTINUOUS
 10
223.2352495035
 20
50.4356080532
  0
VERTEX
  8
0
 62
6
  6
CONTINUOUS
 10
223.203636634
 20
50.4644312386
  0
SEQEND
  0
POLYLINE
  8
0
 62
7
  6
CONTINUOUS
 66
1
 70
0
  0
VERTEX
  8
0
 62
7
  6
CONTINUOUS
 10
103.2867631807
 20
57.4961702977
  0
VERTEX
  8
0
 62
7
  6
CONTINUOUS
 10
103.3063283988
 20
57.4949187862
  0
VERTEX
  8
0
 62
7
  6
CONTINUOUS
 10
103.3476414922
 20
57.484811956
  0
VERTEX
  8
0
 62
7
  6
CONTINUOUS
 10
103.3883767615
 20
57.4653782642
  0
VERTEX
  8
0
 62
7
  6
CONTINUOUS
 10
103.4267099043
 20
57.4383247813
  0
VERTEX
  8
0
 62
7
  6
CONTINUOUS
 10
103.462042764
 20
57.4049961704
  0
VERTEX
  8
0
 62
7
  6
CONTINUOUS
 10
103.4939635291
 20
57.3666158692
  0
VERTEX
  8
0
 62
7
  6
CONTINUOUS
 10
103.5225280978
 20
57.3239383547
  0
VERTEX
  8
0
 62
7
  6
CONTINUOUS
 10
103.5477053295
 20
57.2777310432
  0
VERTEX
  8
0
 62
7
  6
CONTINUOUS
 10
103.5695628901
 20
57.2286957182
  0
VERTEX
  8
0
 62
7
  6
CONTINUOUS
 10
103.5881300269
 20
57.1775775752
  0
VERTEX
  8
0
 62
7
  6
CONTINUOUS
 10
103.6041476279
 20
57.123623266
  0
VERTEX
  8
0
 62
7
  6
CONTINUOUS
 10
103.6180153557
 20
57.0676901285
  0
VERTEX
  8
0
 62
7
  6
CONTINUOUS
 10
103.6298452826
 20
57.0104813927
  0
VERTEX
  8
0
 62
7
  6
CONTINUOUS
 10
103.6398901459
 20
56.9520471968
  0
VERTEX
  8
0
 62
7
  6
CONTINUOUS
 10
103.6482604642
 20
56.8923231883
  0
VERTEX
  8
0
 62
7
  6
CONTINUOUS
 10
103.6550900808
 20
56.8311716644
  0
VERTEX
  8
0
 62
7
  6
CONTINUOUS
 10
103.6604735166
 20
56.7688599799
  0
VERTEX
  8
0
 62
7
  6
CONTINUOUS
 10
103.6645060731
 20
56.705507311
  0
VERTEX
  8
0
 62
7
  6
CONTINUOUS
 10
103.6672862891
 20
56.6411321438
  0
VERTEX
  8
0
 62
7
  6
CONTINUOUS
 10
103.6689227746
 20
56.5757378228
  0
VERTEX
  8
0
 62
7
  6
CONTINUOUS
 10
103.6695196314
 20
56.5093709779
  0
VERTEX
  8
0
 62
7
  6
CONTINUOUS
 10
103.6691647752
 20
56.4420826357
  0
SEQEND
  0
LINE
  8
0
 62
7
  6
CONTINUOUS
 10
119.4114515343
 20
110.6127963473
 11
119.2316682591
 21
111.013745569
  0
POLYLINE
  8
0
 62
7
  6
CONTINUOUS
 66
1
 70
0
  0
VERTEX
  8
0
 62
7
  6
CONTINUOUS
 10
138.3345701791
 20
46.0405540908
  0
VERTEX
  8
0
 62
7
  6
CONTINUOUS
 10
138.3603761144
 20
45.8836759523
  0
VERTEX
  8
0
 62
7
  6
CONTINUOUS
 10
138.3893690318
 20
45.7269510073
  0
VERTEX
  8
0
 62
7
  6
CONTINUOUS
 10
138.4183245624
 20
45.589424798
  0
VERTEX
  8
0
 62
7
  6
CONTINUOUS
 10
138.4475855127
 20
45.4681278544
  0
VERTEX
  8
0
 62
7
  6
CONTINUOUS
 10
138.4777081028
 20
45.3601358249
  0
VERTEX
  8
0
 62
7
  6
CONTINUOUS
 10
138.509621734
 20
45.2623949217
  0
VERTEX
  8
0
 62
7
  6
CONTINUOUS
 10
138.5449196261
 20
45.171558055
  0
VERTEX
  8
0
 62
7
  6
CONTINUOUS
 10
138.5861450972
 20
45.0843514672
  0
VERTEX
  8
0
 62
7
  6
CONTINUOUS
 10
138.6370011198
 20
44.9983371414
  0
VERTEX
  8
0
 62
7
  6
CONTINUOUS
 10
138.7025725777
 20
44.9126137202
  0
VERTEX
  8
0
 62
7
  6
CONTINUOUS
 10
138.787739269
 20
44.8301226833
  0
VERTEX
  8
0
 62
7
  6
CONTINUOUS
 10
138.8941955211
 20
44.7581656862
  0
VERTEX
  8
0
 62
7
  6
CONTINUOUS
 10
139.0192069551
 20
44.7052755893
  0
VERTEX
  8
0
 62
7
  6
CONTINUOUS
 10
139.1559462112
 20
44.6780329482
  0
VERTEX
  8
0
 62
7
  6
CONTINUOUS
 10
139.2202949137
 20
44.6749791789
  0
SEQEND
  0
LINE
  8
0
 62
7
  6
CONTINUOUS
 10
138.3186687971
 20
46.1452732702
 11
138.3345711714
 21
46.0405477255
  0
POLYLINE
  8
0
 62
7
  6
CONTINUOUS
 66
1
 70
0
  0
VERTEX
  8
0
 62
7
  6
CONTINUOUS
 10
137.2624265173
 20
50.3323549545
  0
VERTEX
  8
0
 62
7
  6
CONTINUOUS
 10
137.3338037724
 20
49.7840635721
  0
VERTEX
  8
0
 62
7
  6
CONTINUOUS
 10
137.4284532338
 20
49.1840821566
  0
VERTEX
  8
0
 62
7
  6
CONTINUOUS
 10
137.5390638386
 20
48.6012951922
  0
VERTEX
  8
0
 62
7
  6
CONTINUOUS
 10
137.6656777248
 20
48.0407095259
  0
VERTEX
  8
0
 62
7
  6
CONTINUOUS
 10
137.8083104792
 20
47.5071618475
  0
VERTEX
  8
0
 62
7
  6
CONTINUOUS
 10
137.9670084034
 20
47.0053114695
  0
VERTEX
  8
0
 62
7
  6
CONTINUOUS
 10
138.142002185
 20
46.5394608641
  0
SEQEND
  0
LINE
  8
0
 62
7
  6
CONTINUOUS
 10
137.0919716202
 20
106.8175968826
 11
137.0920309254
 21
106.8165769427
  0
LINE
  8
0
 62
7
  6
CONTINUOUS
 10
145.6624265503
 20
106.8175968826
 11
145.662367245
 21
106.8165769427
  0
LINE
  8
0
 62
7
  6
CONTINUOUS
 10
146.734571307
 20
111.1094108189
 11
146.7186665225
 21
111.0046834769
  0
POLYLINE
  8
0
 62
7
  6
CONTINUOUS
 66
1
 70
0
  0
VERTEX
  8
0
 62
7
  6
CONTINUOUS
 10
127.6316693022
 20
46.1362142316
  0
VERTEX
  8
0
 62
7
  6
CONTINUOUS
 10
127.8123960293
 20
46.539460971
  0
VERTEX
  8
0
 62
7
  6
CONTINUOUS
 10
127.9873898472
 20
47.0053117023
  0
VERTEX
  8
0
 62
7
  6
CONTINUOUS
 10
128.1460878002
 20
47.5071622223
  0
VERTEX
  8
0
 62
7
  6
CONTINUOUS
 10
128.2887205759
 20
48.0407100557
  0
VERTEX
  8
0
 62
7
  6
CONTINUOUS
 10
128.4153344757
 20
48.6012958866
  0
VERTEX
  8
0
 62
7
  6
CONTINUOUS
 10
128.5259450866
 20
49.1840830216
  0
VERTEX
  8
0
 62
7
  6
CONTINUOUS
 10
128.6205945463
 20
49.78406461
  0
VERTEX
  8
0
 62
7
  6
CONTINUOUS
 10
128.6919716531
 20
50.3323549545
  0
SEQEND
  0
LINE
  8
0
 62
7
  6
CONTINUOUS
 10
237.6771990852
 20
57.496368422
 11
229.8674620952
 21
57.4961700201
  0
LINE
  8
0
 62
7
  6
CONTINUOUS
 10
220.8078313525
 20
57.496368422
 11
213.0674620952
 21
57.4961700201
  0
LINE
  8
0
 62
7
  6
CONTINUOUS
 10
204.0078313525
 20
57.496368422
 11
196.2674620952
 21
57.4961700201
  0
LINE
  8
0
 62
7
  6
CONTINUOUS
 10
187.2078313525
 20
57.496368422
 11
179.4674620952
 21
57.4961700201
  0
LINE
  8
0
 62
7
  6
CONTINUOUS
 10
170.4078313525
 20
57.496368422
 11
162.6674620952
 21
57.4961700201
  0
LINE
  8
0
 62
7
  6
CONTINUOUS
 10
153.6078313525
 20
57.496368422
 11
145.8674620952
 21
57.4961700201
  0
LINE
  8
0
 62
7
  6
CONTINUOUS
 10
136.8078313525
 20
57.496368422
 11
129.0674620952
 21
57.4961700201
  0
LINE
  8
0
 62
7
  6
CONTINUOUS
 10
120.0078313525
 20
57.496368422
 11
112.2674620952
 21
57.4961700201
  0
LINE
  8
0
 62
7
  6
CONTINUOUS
 10
103.2078313525
 20
57.496368422
 11
95.4674620952
 21
57.4961700201
  0
LINE
  8
0
 62
7
  6
CONTINUOUS
 10
103.2867633571
 20
57.4961401675
 11
103.2078308035
 21
57.4964136855
  0
LINE
  8
0
 62
7
  6
CONTINUOUS
 10
120.0867633571
 20
57.4961401675
 11
120.0078308035
 21
57.4964136855
  0
LINE
  8
0
 62
7
  6
CONTINUOUS
 10
136.8867633571
 20
57.4961401675
 11
136.8078308035
 21
57.4964136855
  0
LINE
  8
0
 62
7
  6
CONTINUOUS
 10
153.6867633571
 20
57.4961401675
 11
153.6078308035
 21
57.4964136855
  0
LINE
  8
0
 62
7
  6
CONTINUOUS
 10
170.4867633571
 20
57.4961401675
 11
170.4078308035
 21
57.4964136855
  0
LINE
  8
0
 62
7
  6
CONTINUOUS
 10
187.2867633571
 20
57.4961401675
 11
187.2078308035
 21
57.4964136855
  0
LINE
  8
0
 62
7
  6
CONTINUOUS
 10
204.0867633571
 20
57.4961401675
 11
204.0078308035
 21
57.4964136855
  0
LINE
  8
0
 62
7
  6
CONTINUOUS
 10
220.8867633571
 20
57.4961401675
 11
220.8078308035
 21
57.4964136855
  0
LINE
  8
0
 62
6
  6
CONTINUOUS
 10
220.8879419088
 20
57.7460921885
 11
220.8078313183
 21
57.7463684218
  0
LINE
  8
0
 62
6
  6
CONTINUOUS
 10
220.8879419106
 20
57.619018102
 11
220.8078313183
 21
57.6192879369
  0
POLYLINE
  8
0
 62
7
  6
CONTINUOUS
 66
1
 70
0
  0
VERTEX
  8
0
 62
7
  6
CONTINUOUS
 10
120.0867631807
 20
57.4961702977
  0
VERTEX
  8
0
 62
7
  6
CONTINUOUS
 10
120.1063283988
 20
57.4949187862
  0
VERTEX
  8
0
 62
7
  6
CONTINUOUS
 10
120.1476414922
 20
57.484811956
  0
VERTEX
  8
0
 62
7
  6
CONTINUOUS
 10
120.1883767615
 20
57.4653782642
  0
VERTEX
  8
0
 62
7
  6
CONTINUOUS
 10
120.2267099043
 20
57.4383247813
  0
VERTEX
  8
0
 62
7
  6
CONTINUOUS
 10
120.262042764
 20
57.4049961704
  0
VERTEX
  8
0
 62
7
  6
CONTINUOUS
 10
120.2939635291
 20
57.3666158692
  0
VERTEX
  8
0
 62
7
  6
CONTINUOUS
 10
120.3225280978
 20
57.3239383547
  0
VERTEX
  8
0
 62
7
  6
CONTINUOUS
 10
120.3477053295
 20
57.2777310432
  0
VERTEX
  8
0
 62
7
  6
CONTINUOUS
 10
120.3695628901
 20
57.2286957182
  0
VERTEX
  8
0
 62
7
  6
CONTINUOUS
 10
120.3881300269
 20
57.1775775752
  0
VERTEX
  8
0
 62
7
  6
CONTINUOUS
 10
120.4041476279
 20
57.123623266
  0
VERTEX
  8
0
 62
7
  6
CONTINUOUS
 10
120.4180153557
 20
57.0676901285
  0
VERTEX
  8
0
 62
7
  6
CONTINUOUS
 10
120.4298452826
 20
57.0104813927
  0
VERTEX
  8
0
 62
7
  6
CONTINUOUS
 10
120.4398901459
 20
56.9520471968
  0
VERTEX
  8
0
 62
7
  6
CONTINUOUS
 10
120.4482604642
 20
56.8923231883
  0
VERTEX
  8
0
 62
7
  6
CONTINUOUS
 10
120.4550900808
 20
56.8311716644
  0
VERTEX
  8
0
 62
7
  6
CONTINUOUS
 10
120.4604735166
 20
56.7688599799
  0
VERTEX
  8
0
 62
7
  6
CONTINUOUS
 10
120.4645060731
 20
56.705507311
  0
VERTEX
  8
0
 62
7
  6
CONTINUOUS
 10
120.4672862891
 20
56.6411321438
  0
VERTEX
  8
0
 62
7
  6
CONTINUOUS
 10
120.4689227746
 20
56.5757378228
  0
VERTEX
  8
0
 62
7
  6
CONTINUOUS
 10
120.4695196314
 20
56.5093709779
  0
VERTEX
  8
0
 62
7
  6
CONTINUOUS
 10
120.4691647752
 20
56.4420826357
  0
SEQEND
  0
POLYLINE
  8
0
 62
7
  6
CONTINUOUS
 66
1
 70
0
  0
VERTEX
  8
0
 62
7
  6
CONTINUOUS
 10
136.8867631807
 20
57.4961702977
  0
VERTEX
  8
0
 62
7
  6
CONTINUOUS
 10
136.9063283988
 20
57.4949187862
  0
VERTEX
  8
0
 62
7
  6
CONTINUOUS
 10
136.9476414922
 20
57.484811956
  0
VERTEX
  8
0
 62
7
  6
CONTINUOUS
 10
136.9883767615
 20
57.4653782642
  0
VERTEX
  8
0
 62
7
  6
CONTINUOUS
 10
137.0267099043
 20
57.4383247813
  0
VERTEX
  8
0
 62
7
  6
CONTINUOUS
 10
137.062042764
 20
57.4049961704
  0
VERTEX
  8
0
 62
7
  6
CONTINUOUS
 10
137.0939635291
 20
57.3666158692
  0
VERTEX
  8
0
 62
7
  6
CONTINUOUS
 10
137.1225280978
 20
57.3239383547
  0
VERTEX
  8
0
 62
7
  6
CONTINUOUS
 10
137.1477053295
 20
57.2777310432
  0
VERTEX
  8
0
 62
7
  6
CONTINUOUS
 10
137.1695628901
 20
57.2286957182
  0
VERTEX
  8
0
 62
7
  6
CONTINUOUS
 10
137.1881300269
 20
57.1775775752
  0
VERTEX
  8
0
 62
7
  6
CONTINUOUS
 10
137.2041476279
 20
57.123623266
  0
VERTEX
  8
0
 62
7
  6
CONTINUOUS
 10
137.2180153557
 20
57.0676901285
  0
VERTEX
  8
0
 62
7
  6
CONTINUOUS
 10
137.2298452826
 20
57.0104813927
  0
VERTEX
  8
0
 62
7
  6
CONTINUOUS
 10
137.2398901459
 20
56.9520471968
  0
VERTEX
  8
0
 62
7
  6
CONTINUOUS
 10
137.2482604642
 20
56.8923231883
  0
VERTEX
  8
0
 62
7
  6
CONTINUOUS
 10
137.2550900808
 20
56.8311716644
  0
VERTEX
  8
0
 62
7
  6
CONTINUOUS
 10
137.2604735166
 20
56.7688599799
  0
VERTEX
  8
0
 62
7
  6
CONTINUOUS
 10
137.2645060731
 20
56.705507311
  0
VERTEX
  8
0
 62
7
  6
CONTINUOUS
 10
137.2672862891
 20
56.6411321438
  0
VERTEX
  8
0
 62
7
  6
CONTINUOUS
 10
137.2689227746
 20
56.5757378228
  0
VERTEX
  8
0
 62
7
  6
CONTINUOUS
 10
137.2695196314
 20
56.5093709779
  0
VERTEX
  8
0
 62
7
  6
CONTINUOUS
 10
137.2691647752
 20
56.4420826357
  0
SEQEND
  0
POLYLINE
  8
0
 62
7
  6
CONTINUOUS
 66
1
 70
0
  0
VERTEX
  8
0
 62
7
  6
CONTINUOUS
 10
153.6867631807
 20
57.4961702977
  0
VERTEX
  8
0
 62
7
  6
CONTINUOUS
 10
153.7063283988
 20
57.4949187862
  0
VERTEX
  8
0
 62
7
  6
CONTINUOUS
 10
153.7476414922
 20
57.484811956
  0
VERTEX
  8
0
 62
7
  6
CONTINUOUS
 10
153.7883767615
 20
57.4653782642
  0
VERTEX
  8
0
 62
7
  6
CONTINUOUS
 10
153.8267099043
 20
57.4383247813
  0
VERTEX
  8
0
 62
7
  6
CONTINUOUS
 10
153.862042764
 20
57.4049961704
  0
VERTEX
  8
0
 62
7
  6
CONTINUOUS
 10
153.8939635291
 20
57.3666158692
  0
VERTEX
  8
0
 62
7
  6
CONTINUOUS
 10
153.9225280978
 20
57.3239383547
  0
VERTEX
  8
0
 62
7
  6
CONTINUOUS
 10
153.9477053295
 20
57.2777310432
  0
VERTEX
  8
0
 62
7
  6
CONTINUOUS
 10
153.9695628901
 20
57.2286957182
  0
VERTEX
  8
0
 62
7
  6
CONTINUOUS
 10
153.9881300269
 20
57.1775775752
  0
VERTEX
  8
0
 62
7
  6
CONTINUOUS
 10
154.0041476279
 20
57.123623266
  0
VERTEX
  8
0
 62
7
  6
CONTINUOUS
 10
154.0180153557
 20
57.0676901285
  0
VERTEX
  8
0
 62
7
  6
CONTINUOUS
 10
154.0298452826
 20
57.0104813927
  0
VERTEX
  8
0
 62
7
  6
CONTINUOUS
 10
154.0398901459
 20
56.9520471968
  0
VERTEX
  8
0
 62
7
  6
CONTINUOUS
 10
154.0482604642
 20
56.8923231883
  0
VERTEX
  8
0
 62
7
  6
CONTINUOUS
 10
154.0550900808
 20
56.8311716644
  0
VERTEX
  8
0
 62
7
  6
CONTINUOUS
 10
154.0604735166
 20
56.7688599799
  0
VERTEX
  8
0
 62
7
  6
CONTINUOUS
 10
154.0645060731
 20
56.705507311
  0
VERTEX
  8
0
 62
7
  6
CONTINUOUS
 10
154.0672862891
 20
56.6411321438
  0
VERTEX
  8
0
 62
7
  6
CONTINUOUS
 10
154.0689227746
 20
56.5757378228
  0
VERTEX
  8
0
 62
7
  6
CONTINUOUS
 10
154.0695196314
 20
56.5093709779
  0
VERTEX
  8
0
 62
7
  6
CONTINUOUS
 10
154.0691647752
 20
56.4420826357
  0
SEQEND
  0
POLYLINE
  8
0
 62
7
  6
CONTINUOUS
 66
1
 70
0
  0
VERTEX
  8
0
 62
7
  6
CONTINUOUS
 10
170.4867631807
 20
57.4961702977
  0
VERTEX
  8
0
 62
7
  6
CONTINUOUS
 10
170.5063283988
 20
57.4949187862
  0
VERTEX
  8
0
 62
7
  6
CONTINUOUS
 10
170.5476414922
 20
57.484811956
  0
VERTEX
  8
0
 62
7
  6
CONTINUOUS
 10
170.5883767615
 20
57.4653782642
  0
VERTEX
  8
0
 62
7
  6
CONTINUOUS
 10
170.6267099043
 20
57.4383247813
  0
VERTEX
  8
0
 62
7
  6
CONTINUOUS
 10
170.662042764
 20
57.4049961704
  0
VERTEX
  8
0
 62
7
  6
CONTINUOUS
 10
170.6939635291
 20
57.3666158692
  0
VERTEX
  8
0
 62
7
  6
CONTINUOUS
 10
170.7225280978
 20
57.3239383547
  0
VERTEX
  8
0
 62
7
  6
CONTINUOUS
 10
170.7477053295
 20
57.2777310432
  0
VERTEX
  8
0
 62
7
  6
CONTINUOUS
 10
170.7695628901
 20
57.2286957182
  0
VERTEX
  8
0
 62
7
  6
CONTINUOUS
 10
170.7881300269
 20
57.1775775752
  0
VERTEX
  8
0
 62
7
  6
CONTINUOUS
 10
170.8041476279
 20
57.123623266
  0
VERTEX
  8
0
 62
7
  6
CONTINUOUS
 10
170.8180153557
 20
57.0676901285
  0
VERTEX
  8
0
 62
7
  6
CONTINUOUS
 10
170.8298452826
 20
57.0104813927
  0
VERTEX
  8
0
 62
7
  6
CONTINUOUS
 10
170.8398901459
 20
56.9520471968
  0
VERTEX
  8
0
 62
7
  6
CONTINUOUS
 10
170.8482604642
 20
56.8923231883
  0
VERTEX
  8
0
 62
7
  6
CONTINUOUS
 10
170.8550900808
 20
56.8311716644
  0
VERTEX
  8
0
 62
7
  6
CONTINUOUS
 10
170.8604735166
 20
56.7688599799
  0
VERTEX
  8
0
 62
7
  6
CONTINUOUS
 10
170.8645060731
 20
56.705507311
  0
VERTEX
  8
0
 62
7
  6
CONTINUOUS
 10
170.8672862891
 20
56.6411321438
  0
VERTEX
  8
0
 62
7
  6
CONTINUOUS
 10
170.8689227746
 20
56.5757378228
  0
VERTEX
  8
0
 62
7
  6
CONTINUOUS
 10
170.8695196314
 20
56.5093709779
  0
VERTEX
  8
0
 62
7
  6
CONTINUOUS
 10
170.8691647752
 20
56.4420826357
  0
SEQEND
  0
POLYLINE
  8
0
 62
7
  6
CONTINUOUS
 66
1
 70
0
  0
VERTEX
  8
0
 62
7
  6
CONTINUOUS
 10
187.2867631807
 20
57.4961702977
  0
VERTEX
  8
0
 62
7
  6
CONTINUOUS
 10
187.3063283988
 20
57.4949187862
  0
VERTEX
  8
0
 62
7
  6
CONTINUOUS
 10
187.3476414922
 20
57.484811956
  0
VERTEX
  8
0
 62
7
  6
CONTINUOUS
 10
187.3883767615
 20
57.4653782642
  0
VERTEX
  8
0
 62
7
  6
CONTINUOUS
 10
187.4267099043
 20
57.4383247813
  0
VERTEX
  8
0
 62
7
  6
CONTINUOUS
 10
187.462042764
 20
57.4049961704
  0
VERTEX
  8
0
 62
7
  6
CONTINUOUS
 10
187.4939635291
 20
57.3666158692
  0
VERTEX
  8
0
 62
7
  6
CONTINUOUS
 10
187.5225280978
 20
57.3239383547
  0
VERTEX
  8
0
 62
7
  6
CONTINUOUS
 10
187.5477053295
 20
57.2777310432
  0
VERTEX
  8
0
 62
7
  6
CONTINUOUS
 10
187.5695628901
 20
57.2286957182
  0
VERTEX
  8
0
 62
7
  6
CONTINUOUS
 10
187.5881300269
 20
57.1775775752
  0
VERTEX
  8
0
 62
7
  6
CONTINUOUS
 10
187.6041476279
 20
57.123623266
  0
VERTEX
  8
0
 62
7
  6
CONTINUOUS
 10
187.6180153557
 20
57.0676901285
  0
VERTEX
  8
0
 62
7
  6
CONTINUOUS
 10
187.6298452826
 20
57.0104813927
  0
VERTEX
  8
0
 62
7
  6
CONTINUOUS
 10
187.6398901459
 20
56.9520471968
  0
VERTEX
  8
0
 62
7
  6
CONTINUOUS
 10
187.6482604642
 20
56.8923231883
  0
VERTEX
  8
0
 62
7
  6
CONTINUOUS
 10
187.6550900808
 20
56.8311716644
  0
VERTEX
  8
0
 62
7
  6
CONTINUOUS
 10
187.6604735166
 20
56.7688599799
  0
VERTEX
  8
0
 62
7
  6
CONTINUOUS
 10
187.6645060731
 20
56.705507311
  0
VERTEX
  8
0
 62
7
  6
CONTINUOUS
 10
187.6672862891
 20
56.6411321438
  0
VERTEX
  8
0
 62
7
  6
CONTINUOUS
 10
187.6689227746
 20
56.5757378228
  0
VERTEX
  8
0
 62
7
  6
CONTINUOUS
 10
187.6695196314
 20
56.5093709779
  0
VERTEX
  8
0
 62
7
  6
CONTINUOUS
 10
187.6691647752
 20
56.4420826357
  0
SEQEND
  0
POLYLINE
  8
0
 62
7
  6
CONTINUOUS
 66
1
 70
0
  0
VERTEX
  8
0
 62
7
  6
CONTINUOUS
 10
204.0867631807
 20
57.4961702977
  0
VERTEX
  8
0
 62
7
  6
CONTINUOUS
 10
204.1063283988
 20
57.4949187862
  0
VERTEX
  8
0
 62
7
  6
CONTINUOUS
 10
204.1476414922
 20
57.484811956
  0
VERTEX
  8
0
 62
7
  6
CONTINUOUS
 10
204.1883767615
 20
57.4653782642
  0
VERTEX
  8
0
 62
7
  6
CONTINUOUS
 10
204.2267099043
 20
57.4383247813
  0
VERTEX
  8
0
 62
7
  6
CONTINUOUS
 10
204.262042764
 20
57.4049961704
  0
VERTEX
  8
0
 62
7
  6
CONTINUOUS
 10
204.2939635291
 20
57.3666158692
  0
VERTEX
  8
0
 62
7
  6
CONTINUOUS
 10
204.3225280978
 20
57.3239383547
  0
VERTEX
  8
0
 62
7
  6
CONTINUOUS
 10
204.3477053295
 20
57.2777310432
  0
VERTEX
  8
0
 62
7
  6
CONTINUOUS
 10
204.3695628901
 20
57.2286957182
  0
VERTEX
  8
0
 62
7
  6
CONTINUOUS
 10
204.3881300269
 20
57.1775775752
  0
VERTEX
  8
0
 62
7
  6
CONTINUOUS
 10
204.4041476279
 20
57.123623266
  0
VERTEX
  8
0
 62
7
  6
CONTINUOUS
 10
204.4180153557
 20
57.0676901285
  0
VERTEX
  8
0
 62
7
  6
CONTINUOUS
 10
204.4298452826
 20
57.0104813927
  0
VERTEX
  8
0
 62
7
  6
CONTINUOUS
 10
204.4398901459
 20
56.9520471968
  0
VERTEX
  8
0
 62
7
  6
CONTINUOUS
 10
204.4482604642
 20
56.8923231883
  0
VERTEX
  8
0
 62
7
  6
CONTINUOUS
 10
204.4550900808
 20
56.8311716644
  0
VERTEX
  8
0
 62
7
  6
CONTINUOUS
 10
204.4604735166
 20
56.7688599799
  0
VERTEX
  8
0
 62
7
  6
CONTINUOUS
 10
204.4645060731
 20
56.705507311
  0
VERTEX
  8
0
 62
7
  6
CONTINUOUS
 10
204.4672862891
 20
56.6411321438
  0
VERTEX
  8
0
 62
7
  6
CONTINUOUS
 10
204.4689227746
 20
56.5757378228
  0
VERTEX
  8
0
 62
7
  6
CONTINUOUS
 10
204.4695196314
 20
56.5093709779
  0
VERTEX
  8
0
 62
7
  6
CONTINUOUS
 10
204.4691647752
 20
56.4420826357
  0
SEQEND
  0
LINE
  8
0
 62
7
  6
CONTINUOUS
 10
154.942002185
 20
46.5394608641
 11
155.1227288682
 21
46.1362142316
  0
POLYLINE
  8
0
 62
7
  6
CONTINUOUS
 66
1
 70
0
  0
VERTEX
  8
0
 62
7
  6
CONTINUOUS
 10
136.0198278966
 20
111.1094041917
  0
VERTEX
  8
0
 62
7
  6
CONTINUOUS
 10
135.993781662
 20
111.2676639638
  0
VERTEX
  8
0
 62
7
  6
CONTINUOUS
 10
135.9648329525
 20
111.4240005219
  0
VERTEX
  8
0
 62
7
  6
CONTINUOUS
 10
135.9359242939
 20
111.5611956069
  0
VERTEX
  8
0
 62
7
  6
CONTINUOUS
 10
135.9067138672
 20
111.6822110355
  0
VERTEX
  8
0
 62
7
  6
CONTINUOUS
 10
135.8766477733
 20
111.7899622703
  0
VERTEX
  8
0
 62
7
  6
CONTINUOUS
 10
135.8448015309
 20
111.8874920606
  0
VERTEX
  8
0
 62
7
  6
CONTINUOUS
 10
135.809593124
 20
111.9781308461
  0
VERTEX
  8
0
 62
7
  6
CONTINUOUS
 10
135.7685076774
 20
112.0651209835
  0
VERTEX
  8
0
 62
7
  6
CONTINUOUS
 10
135.7178830163
 20
112.1508905997
  0
VERTEX
  8
0
 62
7
  6
CONTINUOUS
 10
135.6526842666
 20
112.2363653785
  0
VERTEX
  8
0
 62
7
  6
CONTINUOUS
 10
135.5680535926
 20
112.3186878229
  0
VERTEX
  8
0
 62
7
  6
CONTINUOUS
 10
135.4622325707
 20
112.3906768883
  0
VERTEX
  8
0
 62
7
  6
CONTINUOUS
 10
135.3378940829
 20
112.443840819
  0
VERTEX
  8
0
 62
7
  6
CONTINUOUS
 10
135.201832932
 20
112.4715968952
  0
VERTEX
  8
0
 62
7
  6
CONTINUOUS
 10
135.1333863502
 20
112.4749787489
  0
SEQEND
  0
LINE
  8
0
 62
7
  6
CONTINUOUS
 10
136.0357316479
 20
111.0046834769
 11
136.0198268634
 21
111.1094108189
  0
POLYLINE
  8
0
 62
7
  6
CONTINUOUS
 66
1
 70
0
  0
VERTEX
  8
0
 62
7
  6
CONTINUOUS
 10
137.0919716498
 20
106.8176027482
  0
VERTEX
  8
0
 62
7
  6
CONTINUOUS
 10
137.020093836
 20
107.3693958696
  0
VERTEX
  8
0
 62
7
  6
CONTINUOUS
 10
136.9253649847
 20
107.9692207965
  0
VERTEX
  8
0
 62
7
  6
CONTINUOUS
 10
136.8146774537
 20
108.5518316021
  0
VERTEX
  8
0
 62
7
  6
CONTINUOUS
 10
136.6879892201
 20
109.1122226238
  0
VERTEX
  8
0
 62
7
  6
CONTINUOUS
 10
136.5452844743
 20
109.645558826
  0
VERTEX
  8
0
 62
7
  6
CONTINUOUS
 10
136.3865160724
 20
110.1471833065
  0
VERTEX
  8
0
 62
7
  6
CONTINUOUS
 10
136.2114515343
 20
110.6127963473
  0
SEQEND
  0
POLYLINE
  8
0
 62
7
  6
CONTINUOUS
 66
1
 70
0
  0
VERTEX
  8
0
 62
7
  6
CONTINUOUS
 10
145.6653188088
 20
100.9894050689
  0
VERTEX
  8
0
 62
7
  6
CONTINUOUS
 10
145.6691658018
 20
100.7077873804
  0
VERTEX
  8
0
 62
7
  6
CONTINUOUS
 10
145.6695195745
 20
100.6405063934
  0
VERTEX
  8
0
 62
7
  6
CONTINUOUS
 10
145.6689215096
 20
100.5741461565
  0
VERTEX
  8
0
 62
7
  6
CONTINUOUS
 10
145.6672839089
 20
100.5087574021
  0
VERTEX
  8
0
 62
7
  6
CONTINUOUS
 10
145.6645028106
 20
100.4443886571
  0
VERTEX
  8
0
 62
7
  6
CONTINUOUS
 10
145.6604693345
 20
100.3810415188
  0
VERTEX
  8
0
 62
7
  6
CONTINUOUS
 10
145.6550852337
 20
100.3187370218
  0
VERTEX
  8
0
 62
7
  6
CONTINUOUS
 10
145.6482544551
 20
100.2575899337
  0
VERTEX
  8
0
 62
7
  6
CONTINUOUS
 10
145.6398861409
 20
100.1978778826
  0
VERTEX
  8
0
 62
7
  6
CONTINUOUS
 10
145.6298414084
 20
100.1394608647
  0
VERTEX
  8
0
 62
7
  6
CONTINUOUS
 10
145.6180029228
 20
100.0822147818
  0
VERTEX
  8
0
 62
7
  6
CONTINUOUS
 10
145.6041617057
 20
100.026362971
  0
VERTEX
  8
0
 62
7
  6
CONTINUOUS
 10
145.588125348
 20
99.9723780652
  0
VERTEX
  8
0
 62
7
  6
CONTINUOUS
 10
145.5695535519
 20
99.9212433888
  0
VERTEX
  8
0
 62
7
  6
CONTINUOUS
 10
145.5477056221
 20
99.8722245339
  0
VERTEX
  8
0
 62
7
  6
CONTINUOUS
 10
145.5225286199
 20
99.8260211098
  0
VERTEX
  8
0
 62
7
  6
CONTINUOUS
 10
145.4939645325
 20
99.7833436928
  0
VERTEX
  8
0
 62
7
  6
CONTINUOUS
 10
145.4620454351
 20
99.7449644354
  0
VERTEX
  8
0
 62
7
  6
CONTINUOUS
 10
145.426719367
 20
99.7116407224
  0
VERTEX
  8
0
 62
7
  6
CONTINUOUS
 10
145.3883937822
 20
99.6845898116
  0
VERTEX
  8
0
 62
7
  6
CONTINUOUS
 10
145.3476615703
 20
99.6651533604
  0
VERTEX
  8
0
 62
7
  6
CONTINUOUS
 10
145.3063532291
 20
99.6550420758
  0
VERTEX
  8
0
 62
7
  6
CONTINUOUS
 10
145.2867624668
 20
99.653787373
  0
SEQEND
  0
POLYLINE
  8
0
 62
7
  6
CONTINUOUS
 66
1
 70
0
  0
VERTEX
  8
0
 62
7
  6
CONTINUOUS
 10
145.4890324969
 20
56.1645203356
  0
VERTEX
  8
0
 62
7
  6
CONTINUOUS
 10
145.4851849284
 20
56.4462443998
  0
VERTEX
  8
0
 62
7
  6
CONTINUOUS
 10
145.4848859869
 20
56.513378549
  0
VERTEX
  8
0
 62
7
  6
CONTINUOUS
 10
145.4855408545
 20
56.5795940824
  0
VERTEX
  8
0
 62
7
  6
CONTINUOUS
 10
145.4872379946
 20
56.6448393979
  0
VERTEX
  8
0
 62
7
  6
CONTINUOUS
 10
145.4900822075
 20
56.7090701136
  0
VERTEX
  8
0
 62
7
  6
CONTINUOUS
 10
145.4941816617
 20
56.7722862591
  0
VERTEX
  8
0
 62
7
  6
CONTINUOUS
 10
145.4996340091
 20
56.8344650173
  0
VERTEX
  8
0
 62
7
  6
CONTINUOUS
 10
145.5065348197
 20
56.8954810501
  0
VERTEX
  8
0
 62
7
  6
CONTINUOUS
 10
145.5149820468
 20
56.9550818486
  0
VERTEX
  8
0
 62
7
  6
CONTINUOUS
 10
145.5251044638
 20
57.0134024597
  0
VERTEX
  8
0
 62
7
  6
CONTINUOUS
 10
145.5370166058
 20
57.0704723865
  0
VERTEX
  8
0
 62
7
  6
CONTINUOUS
 10
145.5509709524
 20
57.1262916894
  0
VERTEX
  8
0
 62
7
  6
CONTINUOUS
 10
145.5670724721
 20
57.1800302661
  0
VERTEX
  8
0
 62
7
  6
CONTINUOUS
 10
145.5857597092
 20
57.230977648
  0
VERTEX
  8
0
 62
7
  6
CONTINUOUS
 10
145.6077458237
 20
57.2798640525
  0
VERTEX
  8
0
 62
7
  6
CONTINUOUS
 10
145.6330466426
 20
57.3258822315
  0
VERTEX
  8
0
 62
7
  6
CONTINUOUS
 10
145.6617341498
 20
57.3683560498
  0
VERTEX
  8
0
 62
7
  6
CONTINUOUS
 10
145.6937701443
 20
57.4065041273
  0
VERTEX
  8
0
 62
7
  6
CONTINUOUS
 10
145.729219265
 20
57.4395784538
  0
VERTEX
  8
0
 62
7
  6
CONTINUOUS
 10
145.7676561871
 20
57.4663394083
  0
VERTEX
  8
0
 62
7
  6
CONTINUOUS
 10
145.8084597353
 20
57.4854216239
  0
VERTEX
  8
0
 62
7
  6
CONTINUOUS
 10
145.8497723579
 20
57.4951211286
  0
VERTEX
  8
0
 62
7
  6
CONTINUOUS
 10
145.86746193
 20
57.4961697439
  0
SEQEND
  0
LINE
  8
0
 62
7
  6
CONTINUOUS
 10
145.4914745515
 20
55.8815061665
 11
145.4890324969
 21
56.1645203356
  0
LINE
  8
0
 62
7
  6
CONTINUOUS
 10
145.6629028344
 20
101.2724268057
 11
145.6653188088
 21
100.9894050689
  0
LINE
  8
0
 62
7
  6
CONTINUOUS
 10
145.4914745515
 20
55.8815061665
 11
145.4920309284
 21
50.333405226
  0
LINE
  8
0
 62
7
  6
CONTINUOUS
 10
145.6623672421
 20
106.8165149312
 11
145.6629028344
 21
101.2724268057
  0
LINE
  8
0
 62
2
  6
CONTINUOUS
 10
149.8771990852
 20
38.5749788373
 11
149.8771990852
 21
78.5749788373
  0
LINE
  8
0
 62
7
  6
CONTINUOUS
 10
145.4920309283
 20
50.333373113
 11
145.4919716023
 21
50.3323650758
  0
LINE
  8
0
 62
7
  6
CONTINUOUS
 10
144.419826999
 20
46.0405477255
 11
144.4357293734
 21
46.1452732705
  0
POLYLINE
  8
0
 62
7
  6
CONTINUOUS
 66
1
 70
0
  0
VERTEX
  8
0
 62
7
  6
CONTINUOUS
 10
163.5227299114
 20
111.013745569
  0
VERTEX
  8
0
 62
7
  6
CONTINUOUS
 10
163.3429466362
 20
110.6127963473
  0
VERTEX
  8
0
 62
7
  6
CONTINUOUS
 10
163.167882098
 20
110.1471833065
  0
VERTEX
  8
0
 62
7
  6
CONTINUOUS
 10
163.0091136961
 20
109.645558826
  0
VERTEX
  8
0
 62
7
  6
CONTINUOUS
 10
162.8664089503
 20
109.1122226238
  0
VERTEX
  8
0
 62
7
  6
CONTINUOUS
 10
162.7397207168
 20
108.5518316021
  0
VERTEX
  8
0
 62
7
  6
CONTINUOUS
 10
162.6290331857
 20
107.9692207965
  0
VERTEX
  8
0
 62
7
  6
CONTINUOUS
 10
162.5343043344
 20
107.3693958696
  0
VERTEX
  8
0
 62
7
  6
CONTINUOUS
 10
162.4624265207
 20
106.8176027482
  0
SEQEND
  0
POLYLINE
  8
0
 62
7
  6
CONTINUOUS
 66
1
 70
0
  0
VERTEX
  8
0
 62
7
  6
CONTINUOUS
 10
128.6919716023
 20
50.3323650758
  0
VERTEX
  8
0
 62
7
  6
CONTINUOUS
 10
128.6861599019
 20
50.3237681779
  0
VERTEX
  8
0
 62
7
  6
CONTINUOUS
 10
128.6670731489
 20
50.3149748594
  0
VERTEX
  8
0
 62
7
  6
CONTINUOUS
 10
128.6358719018
 20
50.3082464166
  0
VERTEX
  8
0
 62
7
  6
CONTINUOUS
 10
128.594553356
 20
50.3039267133
  0
VERTEX
  8
0
 62
7
  6
CONTINUOUS
 10
128.5458570098
 20
50.3021378266
  0
VERTEX
  8
0
 62
7
  6
CONTINUOUS
 10
128.4920309284
 20
50.302697514
  0
SEQEND
  0
POLYLINE
  8
0
 62
7
  6
CONTINUOUS
 66
1
 70
0
  0
VERTEX
  8
0
 62
7
  6
CONTINUOUS
 10
220.8867631807
 20
57.4961702977
  0
VERTEX
  8
0
 62
7
  6
CONTINUOUS
 10
220.9063283988
 20
57.4949187862
  0
VERTEX
  8
0
 62
7
  6
CONTINUOUS
 10
220.9476414922
 20
57.484811956
  0
VERTEX
  8
0
 62
7
  6
CONTINUOUS
 10
220.9883767615
 20
57.4653782642
  0
VERTEX
  8
0
 62
7
  6
CONTINUOUS
 10
221.0267099043
 20
57.4383247813
  0
VERTEX
  8
0
 62
7
  6
CONTINUOUS
 10
221.062042764
 20
57.4049961704
  0
VERTEX
  8
0
 62
7
  6
CONTINUOUS
 10
221.0939635291
 20
57.3666158692
  0
VERTEX
  8
0
 62
7
  6
CONTINUOUS
 10
221.1225280978
 20
57.3239383547
  0
VERTEX
  8
0
 62
7
  6
CONTINUOUS
 10
221.1477053295
 20
57.2777310432
  0
VERTEX
  8
0
 62
7
  6
CONTINUOUS
 10
221.1695628901
 20
57.2286957182
  0
VERTEX
  8
0
 62
7
  6
CONTINUOUS
 10
221.1881300269
 20
57.1775775752
  0
VERTEX
  8
0
 62
7
  6
CONTINUOUS
 10
221.2041476279
 20
57.123623266
  0
VERTEX
  8
0
 62
7
  6
CONTINUOUS
 10
221.2180153557
 20
57.0676901285
  0
VERTEX
  8
0
 62
7
  6
CONTINUOUS
 10
221.2298452826
 20
57.0104813927
  0
VERTEX
  8
0
 62
7
  6
CONTINUOUS
 10
221.2398901459
 20
56.9520471968
  0
VERTEX
  8
0
 62
7
  6
CONTINUOUS
 10
221.2482604642
 20
56.8923231883
  0
VERTEX
  8
0
 62
7
  6
CONTINUOUS
 10
221.2550900808
 20
56.8311716644
  0
VERTEX
  8
0
 62
7
  6
CONTINUOUS
 10
221.2604735166
 20
56.7688599799
  0
VERTEX
  8
0
 62
7
  6
CONTINUOUS
 10
221.2645060731
 20
56.705507311
  0
VERTEX
  8
0
 62
7
  6
CONTINUOUS
 10
221.2672862891
 20
56.6411321438
  0
VERTEX
  8
0
 62
7
  6
CONTINUOUS
 10
221.2689227746
 20
56.5757378228
  0
VERTEX
  8
0
 62
7
  6
CONTINUOUS
 10
221.2695196314
 20
56.5093709779
  0
VERTEX
  8
0
 62
7
  6
CONTINUOUS
 10
221.2691647752
 20
56.4420826357
  0
SEQEND
  0
POLYLINE
  8
0
 62
7
  6
CONTINUOUS
 66
1
 70
0
  0
VERTEX
  8
0
 62
7
  6
CONTINUOUS
 10
155.1345701791
 20
46.0405540908
  0
VERTEX
  8
0
 62
7
  6
CONTINUOUS
 10
155.1603761144
 20
45.8836759523
  0
VERTEX
  8
0
 62
7
  6
CONTINUOUS
 10
155.1893690318
 20
45.7269510073
  0
VERTEX
  8
0
 62
7
  6
CONTINUOUS
 10
155.2183245624
 20
45.589424798
  0
VERTEX
  8
0
 62
7
  6
CONTINUOUS
 10
155.2475855127
 20
45.4681278544
  0
VERTEX
  8
0
 62
7
  6
CONTINUOUS
 10
155.2777081028
 20
45.3601358249
  0
VERTEX
  8
0
 62
7
  6
CONTINUOUS
 10
155.309621734
 20
45.2623949217
  0
VERTEX
  8
0
 62
7
  6
CONTINUOUS
 10
155.3449196261
 20
45.171558055
  0
VERTEX
  8
0
 62
7
  6
CONTINUOUS
 10
155.3861450972
 20
45.0843514672
  0
VERTEX
  8
0
 62
7
  6
CONTINUOUS
 10
155.4370011198
 20
44.9983371414
  0
VERTEX
  8
0
 62
7
  6
CONTINUOUS
 10
155.5025725777
 20
44.9126137202
  0
VERTEX
  8
0
 62
7
  6
CONTINUOUS
 10
155.587739269
 20
44.8301226833
  0
VERTEX
  8
0
 62
7
  6
CONTINUOUS
 10
155.6941955211
 20
44.7581656862
  0
VERTEX
  8
0
 62
7
  6
CONTINUOUS
 10
155.8192069551
 20
44.7052755893
  0
VERTEX
  8
0
 62
7
  6
CONTINUOUS
 10
155.9559462112
 20
44.6780329482
  0
VERTEX
  8
0
 62
7
  6
CONTINUOUS
 10
156.0210106932
 20
44.6749789245
  0
SEQEND
  0
LINE
  8
0
 62
7
  6
CONTINUOUS
 10
155.1186687971
 20
46.1452732702
 11
155.1345711714
 21
46.0405477255
  0
POLYLINE
  8
0
 62
7
  6
CONTINUOUS
 66
1
 70
0
  0
VERTEX
  8
0
 62
7
  6
CONTINUOUS
 10
154.0624265173
 20
50.3323549545
  0
VERTEX
  8
0
 62
7
  6
CONTINUOUS
 10
154.1338037724
 20
49.7840635721
  0
VERTEX
  8
0
 62
7
  6
CONTINUOUS
 10
154.2284532338
 20
49.1840821566
  0
VERTEX
  8
0
 62
7
  6
CONTINUOUS
 10
154.3390638386
 20
48.6012951922
  0
VERTEX
  8
0
 62
7
  6
CONTINUOUS
 10
154.4656777248
 20
48.0407095259
  0
VERTEX
  8
0
 62
7
  6
CONTINUOUS
 10
154.6083104792
 20
47.5071618475
  0
VERTEX
  8
0
 62
7
  6
CONTINUOUS
 10
154.7670084034
 20
47.0053114695
  0
VERTEX
  8
0
 62
7
  6
CONTINUOUS
 10
154.942002185
 20
46.5394608641
  0
SEQEND
  0
LINE
  8
0
 62
7
  6
CONTINUOUS
 10
154.0624265469
 20
50.3323608201
 11
154.062367245
 21
50.3333807318
  0
LINE
  8
0
 62
7
  6
CONTINUOUS
 10
153.8919716202
 20
106.8175968826
 11
153.8920309254
 21
106.8165769427
  0
POLYLINE
  8
0
 62
7
  6
CONTINUOUS
 66
1
 70
0
  0
VERTEX
  8
0
 62
7
  6
CONTINUOUS
 10
153.8851857054
 20
100.7037276
  0
VERTEX
  8
0
 62
7
  6
CONTINUOUS
 10
153.8890328999
 20
100.9854411824
  0
VERTEX
  8
0
 62
7
  6
CONTINUOUS
 10
153.8914746437
 20
101.2684533839
  0
VERTEX
  8
0
 62
7
  6
CONTINUOUS
 10
153.8920309284
 20
106.8165149312
  0
SEQEND
  0
POLYLINE
  8
0
 62
7
  6
CONTINUOUS
 66
1
 70
0
  0
VERTEX
  8
0
 62
7
  6
CONTINUOUS
 10
154.0691647752
 20
56.4420826357
  0
VERTEX
  8
0
 62
7
  6
CONTINUOUS
 10
154.0653188091
 20
56.160552555
  0
VERTEX
  8
0
 62
7
  6
CONTINUOUS
 10
154.0629028346
 20
55.8775308944
  0
VERTEX
  8
0
 62
7
  6
CONTINUOUS
 10
154.0623672421
 20
50.3334427433
  0
SEQEND
  0
LINE
  8
0
 62
7
  6
CONTINUOUS
 10
136.2114515343
 20
110.6127963473
 11
136.0316682591
 21
111.013745569
  0
POLYLINE
  8
0
 62
7
  6
CONTINUOUS
 66
1
 70
0
  0
VERTEX
  8
0
 62
7
  6
CONTINUOUS
 10
162.4653188088
 20
100.9894050689
  0
VERTEX
  8
0
 62
7
  6
CONTINUOUS
 10
162.4691658018
 20
100.7077873804
  0
VERTEX
  8
0
 62
7
  6
CONTINUOUS
 10
162.4695195745
 20
100.6405063934
  0
VERTEX
  8
0
 62
7
  6
CONTINUOUS
 10
162.4689215096
 20
100.5741461565
  0
VERTEX
  8
0
 62
7
  6
CONTINUOUS
 10
162.4672839089
 20
100.5087574021
  0
VERTEX
  8
0
 62
7
  6
CONTINUOUS
 10
162.4645028106
 20
100.4443886571
  0
VERTEX
  8
0
 62
7
  6
CONTINUOUS
 10
162.4604693345
 20
100.3810415188
  0
VERTEX
  8
0
 62
7
  6
CONTINUOUS
 10
162.4550852337
 20
100.3187370218
  0
VERTEX
  8
0
 62
7
  6
CONTINUOUS
 10
162.4482544551
 20
100.2575899337
  0
VERTEX
  8
0
 62
7
  6
CONTINUOUS
 10
162.4398861409
 20
100.1978778826
  0
VERTEX
  8
0
 62
7
  6
CONTINUOUS
 10
162.4298414084
 20
100.1394608647
  0
VERTEX
  8
0
 62
7
  6
CONTINUOUS
 10
162.4180029228
 20
100.0822147818
  0
VERTEX
  8
0
 62
7
  6
CONTINUOUS
 10
162.4041617057
 20
100.026362971
  0
VERTEX
  8
0
 62
7
  6
CONTINUOUS
 10
162.388125348
 20
99.9723780652
  0
VERTEX
  8
0
 62
7
  6
CONTINUOUS
 10
162.3695535519
 20
99.9212433888
  0
VERTEX
  8
0
 62
7
  6
CONTINUOUS
 10
162.3477056221
 20
99.8722245339
  0
VERTEX
  8
0
 62
7
  6
CONTINUOUS
 10
162.3225286199
 20
99.8260211098
  0
VERTEX
  8
0
 62
7
  6
CONTINUOUS
 10
162.2939645325
 20
99.7833436928
  0
VERTEX
  8
0
 62
7
  6
CONTINUOUS
 10
162.2620454351
 20
99.7449644354
  0
VERTEX
  8
0
 62
7
  6
CONTINUOUS
 10
162.226719367
 20
99.7116407224
  0
VERTEX
  8
0
 62
7
  6
CONTINUOUS
 10
162.1883937822
 20
99.6845898116
  0
VERTEX
  8
0
 62
7
  6
CONTINUOUS
 10
162.1476615703
 20
99.6651533604
  0
VERTEX
  8
0
 62
7
  6
CONTINUOUS
 10
162.1063532291
 20
99.6550420758
  0
VERTEX
  8
0
 62
7
  6
CONTINUOUS
 10
162.0867624668
 20
99.653787373
  0
SEQEND
  0
POLYLINE
  8
0
 62
7
  6
CONTINUOUS
 66
1
 70
0
  0
VERTEX
  8
0
 62
7
  6
CONTINUOUS
 10
162.2890324969
 20
56.1645203356
  0
VERTEX
  8
0
 62
7
  6
CONTINUOUS
 10
162.2851849284
 20
56.4462443998
  0
VERTEX
  8
0
 62
7
  6
CONTINUOUS
 10
162.2848859869
 20
56.513378549
  0
VERTEX
  8
0
 62
7
  6
CONTINUOUS
 10
162.2855408545
 20
56.5795940824
  0
VERTEX
  8
0
 62
7
  6
CONTINUOUS
 10
162.2872379946
 20
56.6448393979
  0
VERTEX
  8
0
 62
7
  6
CONTINUOUS
 10
162.2900822075
 20
56.7090701136
  0
VERTEX
  8
0
 62
7
  6
CONTINUOUS
 10
162.2941816617
 20
56.7722862591
  0
VERTEX
  8
0
 62
7
  6
CONTINUOUS
 10
162.2996340091
 20
56.8344650173
  0
VERTEX
  8
0
 62
7
  6
CONTINUOUS
 10
162.3065348197
 20
56.8954810501
  0
VERTEX
  8
0
 62
7
  6
CONTINUOUS
 10
162.3149820468
 20
56.9550818486
  0
VERTEX
  8
0
 62
7
  6
CONTINUOUS
 10
162.3251044638
 20
57.0134024597
  0
VERTEX
  8
0
 62
7
  6
CONTINUOUS
 10
162.3370166058
 20
57.0704723865
  0
VERTEX
  8
0
 62
7
  6
CONTINUOUS
 10
162.3509709524
 20
57.1262916894
  0
VERTEX
  8
0
 62
7
  6
CONTINUOUS
 10
162.3670724721
 20
57.1800302661
  0
VERTEX
  8
0
 62
7
  6
CONTINUOUS
 10
162.3857597092
 20
57.230977648
  0
VERTEX
  8
0
 62
7
  6
CONTINUOUS
 10
162.4077458237
 20
57.2798640525
  0
VERTEX
  8
0
 62
7
  6
CONTINUOUS
 10
162.4330466426
 20
57.3258822315
  0
VERTEX
  8
0
 62
7
  6
CONTINUOUS
 10
162.4617341498
 20
57.3683560498
  0
VERTEX
  8
0
 62
7
  6
CONTINUOUS
 10
162.4937701443
 20
57.4065041273
  0
VERTEX
  8
0
 62
7
  6
CONTINUOUS
 10
162.529219265
 20
57.4395784538
  0
VERTEX
  8
0
 62
7
  6
CONTINUOUS
 10
162.5676561871
 20
57.4663394083
  0
VERTEX
  8
0
 62
7
  6
CONTINUOUS
 10
162.6084597353
 20
57.4854216239
  0
VERTEX
  8
0
 62
7
  6
CONTINUOUS
 10
162.6497723579
 20
57.4951211286
  0
VERTEX
  8
0
 62
7
  6
CONTINUOUS
 10
162.66746193
 20
57.4961697439
  0
SEQEND
  0
LINE
  8
0
 62
7
  6
CONTINUOUS
 10
162.2914745515
 20
55.8815061665
 11
162.2890324969
 21
56.1645203356
  0
LINE
  8
0
 62
7
  6
CONTINUOUS
 10
162.4629028344
 20
101.2724268057
 11
162.4653188088
 21
100.9894050689
  0
LINE
  8
0
 62
2
  6
CONTINUOUS
 10
158.2771990852
 20
78.5749788373
 11
158.2771990852
 21
118.5749788373
  0
LINE
  8
0
 62
7
  6
CONTINUOUS
 10
162.2914745515
 20
55.8815061665
 11
162.2920309284
 21
50.333405226
  0
LINE
  8
DEFAULT_1
 62
2
  6
CENTER
 10
162.3771990852
 20
83.8249788373
 11
162.3771990852
 21
80.5750788373
  0
LINE
  8
DEFAULT_1
 62
40
  6
CENTER
 10
162.3771990852
 20
80.5750788373
 11
162.3771990852
 21
79.6249788373
  0
LINE
  8
0
 62
2
  6
CONTINUOUS
 10
162.3771990852
 20
79.6249788373
 11
162.3771990852
 21
77.5249788373
  0
LINE
  8
0
 62
40
  6
CONTINUOUS
 10
162.3771990852
 20
50.3069511369
 11
162.3771990852
 21
24.7516788373
  0
LINE
  8
DEFAULT_1
 62
40
  6
CENTER
 10
162.3771990852
 20
61.5776106356
 11
162.3771990852
 21
73.3249788373
  0
LINE
  8
DEFAULT_1
 62
40
  6
CENTER
 10
162.3771990852
 20
76.5748788373
 11
162.3771990852
 21
77.5249788373
  0
LINE
  8
DEFAULT_1
 62
2
  6
CENTER
 10
162.3771990852
 20
73.3249788373
 11
162.3771990852
 21
76.5748788373
  0
LINE
  8
DEFAULT_1
 62
40
  6
CENTER
 10
162.3771990852
 20
83.8249788373
 11
162.3771990852
 21
95.5723469843
  0
LINE
  8
0
 62
40
  6
CONTINUOUS
 10
162.3771990852
 20
106.8430061167
 11
162.3771990852
 21
132.3982788373
  0
LINE
  8
0
 62
7
  6
CONTINUOUS
 10
162.4623672421
 20
106.8165149312
 11
162.4629028344
 21
101.2724268057
  0
LINE
  8
0
 62
7
  6
CONTINUOUS
 10
162.4624265503
 20
106.8175968826
 11
162.462367245
 21
106.8165769427
  0
LINE
  8
0
 62
7
  6
CONTINUOUS
 10
163.534571307
 20
111.1094108189
 11
163.5186665225
 21
111.0046834769
  0
POLYLINE
  8
0
 62
7
  6
CONTINUOUS
 66
1
 70
0
  0
VERTEX
  8
0
 62
7
  6
CONTINUOUS
 10
144.4316693022
 20
46.1362142316
  0
VERTEX
  8
0
 62
7
  6
CONTINUOUS
 10
144.6123960293
 20
46.539460971
  0
VERTEX
  8
0
 62
7
  6
CONTINUOUS
 10
144.7873898472
 20
47.0053117023
  0
VERTEX
  8
0
 62
7
  6
CONTINUOUS
 10
144.9460878002
 20
47.5071622223
  0
VERTEX
  8
0
 62
7
  6
CONTINUOUS
 10
145.0887205759
 20
48.0407100557
  0
VERTEX
  8
0
 62
7
  6
CONTINUOUS
 10
145.2153344757
 20
48.6012958866
  0
VERTEX
  8
0
 62
7
  6
CONTINUOUS
 10
145.3259450866
 20
49.1840830216
  0
VERTEX
  8
0
 62
7
  6
CONTINUOUS
 10
145.4205945463
 20
49.78406461
  0
VERTEX
  8
0
 62
7
  6
CONTINUOUS
 10
145.4919716531
 20
50.3323549545
  0
SEQEND
  0
LINE
  8
DEFAULT_1
 62
2
  6
CENTER
 10
167.6271990852
 20
78.5749788373
 11
164.3772990852
 21
78.5749788373
  0
LINE
  8
0
 62
2
  6
CONTINUOUS
 10
163.4271990852
 20
78.5749788373
 11
161.3271990852
 21
78.5749788373
  0
LINE
  8
0
 62
2
  6
CONTINUOUS
 10
149.8771990852
 20
78.5749788373
 11
157.1271990852
 21
78.5749788373
  0
LINE
  8
DEFAULT_1
 62
2
  6
CENTER
 10
157.1271990852
 20
78.5749788373
 11
160.3770990852
 21
78.5749788373
  0
LINE
  8
0
 62
7
  6
CONTINUOUS
 10
171.742002185
 20
46.5394608641
 11
171.9227288682
 21
46.1362142316
  0
POLYLINE
  8
0
 62
7
  6
CONTINUOUS
 66
1
 70
0
  0
VERTEX
  8
0
 62
7
  6
CONTINUOUS
 10
152.8198278966
 20
111.1094041917
  0
VERTEX
  8
0
 62
7
  6
CONTINUOUS
 10
152.793781662
 20
111.2676639638
  0
VERTEX
  8
0
 62
7
  6
CONTINUOUS
 10
152.7648329525
 20
111.4240005219
  0
VERTEX
  8
0
 62
7
  6
CONTINUOUS
 10
152.7359242939
 20
111.5611956069
  0
VERTEX
  8
0
 62
7
  6
CONTINUOUS
 10
152.7067138672
 20
111.6822110355
  0
VERTEX
  8
0
 62
7
  6
CONTINUOUS
 10
152.6766477733
 20
111.7899622703
  0
VERTEX
  8
0
 62
7
  6
CONTINUOUS
 10
152.6448015309
 20
111.8874920606
  0
VERTEX
  8
0
 62
7
  6
CONTINUOUS
 10
152.609593124
 20
111.9781308461
  0
VERTEX
  8
0
 62
7
  6
CONTINUOUS
 10
152.5685076774
 20
112.0651209835
  0
VERTEX
  8
0
 62
7
  6
CONTINUOUS
 10
152.5178830163
 20
112.1508905997
  0
VERTEX
  8
0
 62
7
  6
CONTINUOUS
 10
152.4526842666
 20
112.2363653785
  0
VERTEX
  8
0
 62
7
  6
CONTINUOUS
 10
152.3680535926
 20
112.3186878229
  0
VERTEX
  8
0
 62
7
  6
CONTINUOUS
 10
152.2622325707
 20
112.3906768883
  0
VERTEX
  8
0
 62
7
  6
CONTINUOUS
 10
152.1378940829
 20
112.443840819
  0
VERTEX
  8
0
 62
7
  6
CONTINUOUS
 10
152.001832932
 20
112.4715968952
  0
VERTEX
  8
0
 62
7
  6
CONTINUOUS
 10
151.9333863502
 20
112.4749787489
  0
SEQEND
  0
LINE
  8
0
 62
7
  6
CONTINUOUS
 10
152.8357316479
 20
111.0046834769
 11
152.8198268634
 21
111.1094108189
  0
POLYLINE
  8
0
 62
7
  6
CONTINUOUS
 66
1
 70
0
  0
VERTEX
  8
0
 62
7
  6
CONTINUOUS
 10
153.8919716498
 20
106.8176027482
  0
VERTEX
  8
0
 62
7
  6
CONTINUOUS
 10
153.820093836
 20
107.3693958696
  0
VERTEX
  8
0
 62
7
  6
CONTINUOUS
 10
153.7253649847
 20
107.9692207965
  0
VERTEX
  8
0
 62
7
  6
CONTINUOUS
 10
153.6146774537
 20
108.5518316021
  0
VERTEX
  8
0
 62
7
  6
CONTINUOUS
 10
153.4879892201
 20
109.1122226238
  0
VERTEX
  8
0
 62
7
  6
CONTINUOUS
 10
153.3452844743
 20
109.645558826
  0
VERTEX
  8
0
 62
7
  6
CONTINUOUS
 10
153.1865160724
 20
110.1471833065
  0
VERTEX
  8
0
 62
7
  6
CONTINUOUS
 10
153.0114515343
 20
110.6127963473
  0
SEQEND
  0
LINE
  8
0
 62
7
  6
CONTINUOUS
 10
170.8624265469
 20
50.3323608201
 11
170.862367245
 21
50.3333807318
  0
LINE
  8
0
 62
7
  6
CONTINUOUS
 10
162.2920309283
 20
50.333373113
 11
162.2919716023
 21
50.3323650758
  0
LINE
  8
0
 62
7
  6
CONTINUOUS
 10
161.219826999
 20
46.0405477255
 11
161.2357293734
 21
46.1452732705
  0
POLYLINE
  8
0
 62
7
  6
CONTINUOUS
 66
1
 70
0
  0
VERTEX
  8
0
 62
7
  6
CONTINUOUS
 10
180.3227299114
 20
111.013745569
  0
VERTEX
  8
0
 62
7
  6
CONTINUOUS
 10
180.1429466362
 20
110.6127963473
  0
VERTEX
  8
0
 62
7
  6
CONTINUOUS
 10
179.967882098
 20
110.1471833065
  0
VERTEX
  8
0
 62
7
  6
CONTINUOUS
 10
179.8091136961
 20
109.645558826
  0
VERTEX
  8
0
 62
7
  6
CONTINUOUS
 10
179.6664089503
 20
109.1122226238
  0
VERTEX
  8
0
 62
7
  6
CONTINUOUS
 10
179.5397207168
 20
108.5518316021
  0
VERTEX
  8
0
 62
7
  6
CONTINUOUS
 10
179.4290331857
 20
107.9692207965
  0
VERTEX
  8
0
 62
7
  6
CONTINUOUS
 10
179.3343043344
 20
107.3693958696
  0
VERTEX
  8
0
 62
7
  6
CONTINUOUS
 10
179.2624265207
 20
106.8176027482
  0
SEQEND
  0
POLYLINE
  8
0
 62
7
  6
CONTINUOUS
 66
1
 70
0
  0
VERTEX
  8
0
 62
7
  6
CONTINUOUS
 10
145.4919716023
 20
50.3323650758
  0
VERTEX
  8
0
 62
7
  6
CONTINUOUS
 10
145.4861599019
 20
50.3237681779
  0
VERTEX
  8
0
 62
7
  6
CONTINUOUS
 10
145.4670731489
 20
50.3149748594
  0
VERTEX
  8
0
 62
7
  6
CONTINUOUS
 10
145.4358719018
 20
50.3082464166
  0
VERTEX
  8
0
 62
7
  6
CONTINUOUS
 10
145.394553356
 20
50.3039267133
  0
VERTEX
  8
0
 62
7
  6
CONTINUOUS
 10
145.3458570098
 20
50.3021378266
  0
VERTEX
  8
0
 62
7
  6
CONTINUOUS
 10
145.2920309284
 20
50.302697514
  0
SEQEND
  0
LINE
  8
0
 62
7
  6
CONTINUOUS
 10
153.0114515343
 20
110.6127963473
 11
152.8316682591
 21
111.013745569
  0
POLYLINE
  8
0
 62
7
  6
CONTINUOUS
 66
1
 70
0
  0
VERTEX
  8
0
 62
7
  6
CONTINUOUS
 10
171.9345701791
 20
46.0405540908
  0
VERTEX
  8
0
 62
7
  6
CONTINUOUS
 10
171.9603761144
 20
45.8836759523
  0
VERTEX
  8
0
 62
7
  6
CONTINUOUS
 10
171.9893690318
 20
45.7269510073
  0
VERTEX
  8
0
 62
7
  6
CONTINUOUS
 10
172.0183245624
 20
45.589424798
  0
VERTEX
  8
0
 62
7
  6
CONTINUOUS
 10
172.0475855127
 20
45.4681278544
  0
VERTEX
  8
0
 62
7
  6
CONTINUOUS
 10
172.0777081028
 20
45.3601358249
  0
VERTEX
  8
0
 62
7
  6
CONTINUOUS
 10
172.109621734
 20
45.2623949217
  0
VERTEX
  8
0
 62
7
  6
CONTINUOUS
 10
172.1449196262
 20
45.171558055
  0
VERTEX
  8
0
 62
7
  6
CONTINUOUS
 10
172.1861450972
 20
45.0843514672
  0
VERTEX
  8
0
 62
7
  6
CONTINUOUS
 10
172.2370011198
 20
44.9983371414
  0
VERTEX
  8
0
 62
7
  6
CONTINUOUS
 10
172.3025725777
 20
44.9126137202
  0
VERTEX
  8
0
 62
7
  6
CONTINUOUS
 10
172.387739269
 20
44.8301226833
  0
VERTEX
  8
0
 62
7
  6
CONTINUOUS
 10
172.4941955211
 20
44.7581656862
  0
VERTEX
  8
0
 62
7
  6
CONTINUOUS
 10
172.6192069551
 20
44.7052755893
  0
VERTEX
  8
0
 62
7
  6
CONTINUOUS
 10
172.7559462112
 20
44.6780329482
  0
VERTEX
  8
0
 62
7
  6
CONTINUOUS
 10
172.8202949137
 20
44.6749791789
  0
SEQEND
  0
LINE
  8
0
 62
7
  6
CONTINUOUS
 10
171.9186687971
 20
46.1452732702
 11
171.9345711714
 21
46.0405477255
  0
POLYLINE
  8
0
 62
7
  6
CONTINUOUS
 66
1
 70
0
  0
VERTEX
  8
0
 62
7
  6
CONTINUOUS
 10
170.8624265173
 20
50.3323549544
  0
VERTEX
  8
0
 62
7
  6
CONTINUOUS
 10
170.9338037724
 20
49.7840635721
  0
VERTEX
  8
0
 62
7
  6
CONTINUOUS
 10
171.0284532338
 20
49.1840821566
  0
VERTEX
  8
0
 62
7
  6
CONTINUOUS
 10
171.1390638386
 20
48.6012951922
  0
VERTEX
  8
0
 62
7
  6
CONTINUOUS
 10
171.2656777248
 20
48.0407095259
  0
VERTEX
  8
0
 62
7
  6
CONTINUOUS
 10
171.4083104792
 20
47.5071618475
  0
VERTEX
  8
0
 62
7
  6
CONTINUOUS
 10
171.5670084034
 20
47.0053114695
  0
VERTEX
  8
0
 62
7
  6
CONTINUOUS
 10
171.742002185
 20
46.5394608641
  0
SEQEND
  0
LINE
  8
0
 62
7
  6
CONTINUOUS
 10
170.6919716202
 20
106.8175968826
 11
170.6920309254
 21
106.8165769427
  0
POLYLINE
  8
0
 62
7
  6
CONTINUOUS
 66
1
 70
0
  0
VERTEX
  8
0
 62
7
  6
CONTINUOUS
 10
170.6851857054
 20
100.7037276
  0
VERTEX
  8
0
 62
7
  6
CONTINUOUS
 10
170.6890328999
 20
100.9854411824
  0
VERTEX
  8
0
 62
7
  6
CONTINUOUS
 10
170.6914746437
 20
101.2684533839
  0
VERTEX
  8
0
 62
7
  6
CONTINUOUS
 10
170.6920309284
 20
106.8165149312
  0
SEQEND
  0
POLYLINE
  8
0
 62
7
  6
CONTINUOUS
 66
1
 70
0
  0
VERTEX
  8
0
 62
7
  6
CONTINUOUS
 10
170.8691647752
 20
56.4420826357
  0
VERTEX
  8
0
 62
7
  6
CONTINUOUS
 10
170.8653188091
 20
56.160552555
  0
VERTEX
  8
0
 62
7
  6
CONTINUOUS
 10
170.8629028346
 20
55.8775308944
  0
VERTEX
  8
0
 62
7
  6
CONTINUOUS
 10
170.8623672421
 20
50.3334427433
  0
SEQEND
  0
LINE
  8
0
 62
7
  6
CONTINUOUS
 10
180.334571307
 20
111.1094108189
 11
180.3186665225
 21
111.0046834769
  0
POLYLINE
  8
0
 62
7
  6
CONTINUOUS
 66
1
 70
0
  0
VERTEX
  8
0
 62
7
  6
CONTINUOUS
 10
161.2316693022
 20
46.1362142316
  0
VERTEX
  8
0
 62
7
  6
CONTINUOUS
 10
161.4123960293
 20
46.539460971
  0
VERTEX
  8
0
 62
7
  6
CONTINUOUS
 10
161.5873898472
 20
47.0053117023
  0
VERTEX
  8
0
 62
7
  6
CONTINUOUS
 10
161.7460878002
 20
47.5071622223
  0
VERTEX
  8
0
 62
7
  6
CONTINUOUS
 10
161.8887205759
 20
48.0407100557
  0
VERTEX
  8
0
 62
7
  6
CONTINUOUS
 10
162.0153344757
 20
48.6012958866
  0
VERTEX
  8
0
 62
7
  6
CONTINUOUS
 10
162.1259450866
 20
49.1840830216
  0
VERTEX
  8
0
 62
7
  6
CONTINUOUS
 10
162.2205945463
 20
49.78406461
  0
VERTEX
  8
0
 62
7
  6
CONTINUOUS
 10
162.2919716531
 20
50.3323549545
  0
SEQEND
  0
LINE
  8
0
 62
7
  6
CONTINUOUS
 10
188.542002185
 20
46.5394608641
 11
188.7227288682
 21
46.1362142316
  0
POLYLINE
  8
0
 62
7
  6
CONTINUOUS
 66
1
 70
0
  0
VERTEX
  8
0
 62
7
  6
CONTINUOUS
 10
169.6198278966
 20
111.1094041917
  0
VERTEX
  8
0
 62
7
  6
CONTINUOUS
 10
169.593781662
 20
111.2676639638
  0
VERTEX
  8
0
 62
7
  6
CONTINUOUS
 10
169.5648329525
 20
111.4240005219
  0
VERTEX
  8
0
 62
7
  6
CONTINUOUS
 10
169.5359242939
 20
111.5611956069
  0
VERTEX
  8
0
 62
7
  6
CONTINUOUS
 10
169.5067138672
 20
111.6822110355
  0
VERTEX
  8
0
 62
7
  6
CONTINUOUS
 10
169.4766477733
 20
111.7899622703
  0
VERTEX
  8
0
 62
7
  6
CONTINUOUS
 10
169.4448015309
 20
111.8874920606
  0
VERTEX
  8
0
 62
7
  6
CONTINUOUS
 10
169.409593124
 20
111.9781308461
  0
VERTEX
  8
0
 62
7
  6
CONTINUOUS
 10
169.3685076774
 20
112.0651209835
  0
VERTEX
  8
0
 62
7
  6
CONTINUOUS
 10
169.3178830163
 20
112.1508905997
  0
VERTEX
  8
0
 62
7
  6
CONTINUOUS
 10
169.2526842666
 20
112.2363653785
  0
VERTEX
  8
0
 62
7
  6
CONTINUOUS
 10
169.1680535926
 20
112.3186878229
  0
VERTEX
  8
0
 62
7
  6
CONTINUOUS
 10
169.0622325707
 20
112.3906768883
  0
VERTEX
  8
0
 62
7
  6
CONTINUOUS
 10
168.9378940829
 20
112.443840819
  0
VERTEX
  8
0
 62
7
  6
CONTINUOUS
 10
168.801832932
 20
112.4715968952
  0
VERTEX
  8
0
 62
7
  6
CONTINUOUS
 10
168.7333863502
 20
112.4749787489
  0
SEQEND
  0
LINE
  8
0
 62
7
  6
CONTINUOUS
 10
169.6357316479
 20
111.0046834769
 11
169.6198268634
 21
111.1094108189
  0
POLYLINE
  8
0
 62
7
  6
CONTINUOUS
 66
1
 70
0
  0
VERTEX
  8
0
 62
7
  6
CONTINUOUS
 10
170.6919716498
 20
106.8176027482
  0
VERTEX
  8
0
 62
7
  6
CONTINUOUS
 10
170.620093836
 20
107.3693958696
  0
VERTEX
  8
0
 62
7
  6
CONTINUOUS
 10
170.5253649847
 20
107.9692207965
  0
VERTEX
  8
0
 62
7
  6
CONTINUOUS
 10
170.4146774537
 20
108.5518316021
  0
VERTEX
  8
0
 62
7
  6
CONTINUOUS
 10
170.2879892201
 20
109.1122226238
  0
VERTEX
  8
0
 62
7
  6
CONTINUOUS
 10
170.1452844743
 20
109.645558826
  0
VERTEX
  8
0
 62
7
  6
CONTINUOUS
 10
169.9865160724
 20
110.1471833065
  0
VERTEX
  8
0
 62
7
  6
CONTINUOUS
 10
169.8114515343
 20
110.6127963473
  0
SEQEND
  0
POLYLINE
  8
0
 62
7
  6
CONTINUOUS
 66
1
 70
0
  0
VERTEX
  8
0
 62
7
  6
CONTINUOUS
 10
179.2653188088
 20
100.9894050689
  0
VERTEX
  8
0
 62
7
  6
CONTINUOUS
 10
179.2691658018
 20
100.7077873804
  0
VERTEX
  8
0
 62
7
  6
CONTINUOUS
 10
179.2695195745
 20
100.6405063934
  0
VERTEX
  8
0
 62
7
  6
CONTINUOUS
 10
179.2689215096
 20
100.5741461565
  0
VERTEX
  8
0
 62
7
  6
CONTINUOUS
 10
179.2672839089
 20
100.5087574021
  0
VERTEX
  8
0
 62
7
  6
CONTINUOUS
 10
179.2645028106
 20
100.4443886571
  0
VERTEX
  8
0
 62
7
  6
CONTINUOUS
 10
179.2604693345
 20
100.3810415188
  0
VERTEX
  8
0
 62
7
  6
CONTINUOUS
 10
179.2550852337
 20
100.3187370218
  0
VERTEX
  8
0
 62
7
  6
CONTINUOUS
 10
179.2482544551
 20
100.2575899337
  0
VERTEX
  8
0
 62
7
  6
CONTINUOUS
 10
179.2398861409
 20
100.1978778826
  0
VERTEX
  8
0
 62
7
  6
CONTINUOUS
 10
179.2298414084
 20
100.1394608647
  0
VERTEX
  8
0
 62
7
  6
CONTINUOUS
 10
179.2180029228
 20
100.0822147818
  0
VERTEX
  8
0
 62
7
  6
CONTINUOUS
 10
179.2041617057
 20
100.026362971
  0
VERTEX
  8
0
 62
7
  6
CONTINUOUS
 10
179.188125348
 20
99.9723780652
  0
VERTEX
  8
0
 62
7
  6
CONTINUOUS
 10
179.1695535519
 20
99.9212433888
  0
VERTEX
  8
0
 62
7
  6
CONTINUOUS
 10
179.1477056221
 20
99.8722245339
  0
VERTEX
  8
0
 62
7
  6
CONTINUOUS
 10
179.1225286199
 20
99.8260211098
  0
VERTEX
  8
0
 62
7
  6
CONTINUOUS
 10
179.0939645325
 20
99.7833436928
  0
VERTEX
  8
0
 62
7
  6
CONTINUOUS
 10
179.0620454351
 20
99.7449644354
  0
VERTEX
  8
0
 62
7
  6
CONTINUOUS
 10
179.026719367
 20
99.7116407224
  0
VERTEX
  8
0
 62
7
  6
CONTINUOUS
 10
178.9883937822
 20
99.6845898116
  0
VERTEX
  8
0
 62
7
  6
CONTINUOUS
 10
178.9476615703
 20
99.6651533604
  0
VERTEX
  8
0
 62
7
  6
CONTINUOUS
 10
178.9063532291
 20
99.6550420758
  0
VERTEX
  8
0
 62
7
  6
CONTINUOUS
 10
178.8867624668
 20
99.653787373
  0
SEQEND
  0
POLYLINE
  8
0
 62
7
  6
CONTINUOUS
 66
1
 70
0
  0
VERTEX
  8
0
 62
7
  6
CONTINUOUS
 10
179.0890324969
 20
56.1645203356
  0
VERTEX
  8
0
 62
7
  6
CONTINUOUS
 10
179.0851849284
 20
56.4462443998
  0
VERTEX
  8
0
 62
7
  6
CONTINUOUS
 10
179.0848859869
 20
56.513378549
  0
VERTEX
  8
0
 62
7
  6
CONTINUOUS
 10
179.0855408545
 20
56.5795940824
  0
VERTEX
  8
0
 62
7
  6
CONTINUOUS
 10
179.0872379946
 20
56.6448393979
  0
VERTEX
  8
0
 62
7
  6
CONTINUOUS
 10
179.0900822075
 20
56.7090701136
  0
VERTEX
  8
0
 62
7
  6
CONTINUOUS
 10
179.0941816617
 20
56.7722862591
  0
VERTEX
  8
0
 62
7
  6
CONTINUOUS
 10
179.0996340091
 20
56.8344650173
  0
VERTEX
  8
0
 62
7
  6
CONTINUOUS
 10
179.1065348197
 20
56.8954810501
  0
VERTEX
  8
0
 62
7
  6
CONTINUOUS
 10
179.1149820468
 20
56.9550818486
  0
VERTEX
  8
0
 62
7
  6
CONTINUOUS
 10
179.1251044638
 20
57.0134024597
  0
VERTEX
  8
0
 62
7
  6
CONTINUOUS
 10
179.1370166058
 20
57.0704723865
  0
VERTEX
  8
0
 62
7
  6
CONTINUOUS
 10
179.1509709524
 20
57.1262916894
  0
VERTEX
  8
0
 62
7
  6
CONTINUOUS
 10
179.1670724721
 20
57.1800302661
  0
VERTEX
  8
0
 62
7
  6
CONTINUOUS
 10
179.1857597092
 20
57.230977648
  0
VERTEX
  8
0
 62
7
  6
CONTINUOUS
 10
179.2077458237
 20
57.2798640525
  0
VERTEX
  8
0
 62
7
  6
CONTINUOUS
 10
179.2330466426
 20
57.3258822315
  0
VERTEX
  8
0
 62
7
  6
CONTINUOUS
 10
179.2617341498
 20
57.3683560498
  0
VERTEX
  8
0
 62
7
  6
CONTINUOUS
 10
179.2937701443
 20
57.4065041273
  0
VERTEX
  8
0
 62
7
  6
CONTINUOUS
 10
179.329219265
 20
57.4395784538
  0
VERTEX
  8
0
 62
7
  6
CONTINUOUS
 10
179.3676561871
 20
57.4663394083
  0
VERTEX
  8
0
 62
7
  6
CONTINUOUS
 10
179.4084597353
 20
57.4854216239
  0
VERTEX
  8
0
 62
7
  6
CONTINUOUS
 10
179.4497723579
 20
57.4951211286
  0
VERTEX
  8
0
 62
7
  6
CONTINUOUS
 10
179.46746193
 20
57.4961697439
  0
SEQEND
  0
LINE
  8
0
 62
7
  6
CONTINUOUS
 10
179.0914745515
 20
55.8815061665
 11
179.0890324969
 21
56.1645203356
  0
LINE
  8
0
 62
7
  6
CONTINUOUS
 10
179.2629028344
 20
101.2724268057
 11
179.2653188088
 21
100.9894050689
  0
LINE
  8
0
 62
7
  6
CONTINUOUS
 10
179.0914745515
 20
55.8815061665
 11
179.0920309284
 21
50.333405226
  0
LINE
  8
0
 62
7
  6
CONTINUOUS
 10
179.2623672421
 20
106.8165149312
 11
179.2629028344
 21
101.2724268057
  0
LINE
  8
0
 62
7
  6
CONTINUOUS
 10
179.2624265503
 20
106.8175968826
 11
179.262367245
 21
106.8165769427
  0
LINE
  8
0
 62
7
  6
CONTINUOUS
 10
179.0920309283
 20
50.333373113
 11
179.0919716023
 21
50.3323650758
  0
POLYLINE
  8
0
 62
7
  6
CONTINUOUS
 66
1
 70
0
  0
VERTEX
  8
0
 62
7
  6
CONTINUOUS
 10
197.1227299114
 20
111.013745569
  0
VERTEX
  8
0
 62
7
  6
CONTINUOUS
 10
196.9429466362
 20
110.6127963473
  0
VERTEX
  8
0
 62
7
  6
CONTINUOUS
 10
196.767882098
 20
110.1471833065
  0
VERTEX
  8
0
 62
7
  6
CONTINUOUS
 10
196.6091136961
 20
109.645558826
  0
VERTEX
  8
0
 62
7
  6
CONTINUOUS
 10
196.4664089503
 20
109.1122226238
  0
VERTEX
  8
0
 62
7
  6
CONTINUOUS
 10
196.3397207168
 20
108.5518316021
  0
VERTEX
  8
0
 62
7
  6
CONTINUOUS
 10
196.2290331857
 20
107.9692207965
  0
VERTEX
  8
0
 62
7
  6
CONTINUOUS
 10
196.1343043344
 20
107.3693958696
  0
VERTEX
  8
0
 62
7
  6
CONTINUOUS
 10
196.0624265207
 20
106.8176027482
  0
SEQEND
  0
POLYLINE
  8
0
 62
7
  6
CONTINUOUS
 66
1
 70
0
  0
VERTEX
  8
0
 62
7
  6
CONTINUOUS
 10
162.2919716023
 20
50.3323650758
  0
VERTEX
  8
0
 62
7
  6
CONTINUOUS
 10
162.2861599019
 20
50.3237681779
  0
VERTEX
  8
0
 62
7
  6
CONTINUOUS
 10
162.2670731489
 20
50.3149748594
  0
VERTEX
  8
0
 62
7
  6
CONTINUOUS
 10
162.2358719018
 20
50.3082464166
  0
VERTEX
  8
0
 62
7
  6
CONTINUOUS
 10
162.194553356
 20
50.3039267133
  0
VERTEX
  8
0
 62
7
  6
CONTINUOUS
 10
162.1458570098
 20
50.3021378266
  0
VERTEX
  8
0
 62
7
  6
CONTINUOUS
 10
162.0920309284
 20
50.302697514
  0
SEQEND
  0
POLYLINE
  8
0
 62
7
  6
CONTINUOUS
 66
1
 70
0
  0
VERTEX
  8
0
 62
7
  6
CONTINUOUS
 10
103.8674628979
 20
99.6537879765
  0
VERTEX
  8
0
 62
7
  6
CONTINUOUS
 10
103.8497761913
 20
99.6548362934
  0
VERTEX
  8
0
 62
7
  6
CONTINUOUS
 10
103.8084634693
 20
99.6645353458
  0
VERTEX
  8
0
 62
7
  6
CONTINUOUS
 10
103.7676587463
 20
99.6836175189
  0
VERTEX
  8
0
 62
7
  6
CONTINUOUS
 10
103.7292206697
 20
99.7103785825
  0
VERTEX
  8
0
 62
7
  6
CONTINUOUS
 10
103.6937721152
 20
99.7434524691
  0
VERTEX
  8
0
 62
7
  6
CONTINUOUS
 10
103.6617348824
 20
99.7816025371
  0
VERTEX
  8
0
 62
7
  6
CONTINUOUS
 10
103.6330472716
 20
99.8240766583
  0
VERTEX
  8
0
 62
7
  6
CONTINUOUS
 10
103.6077428162
 20
99.8701023275
  0
VERTEX
  8
0
 62
7
  6
CONTINUOUS
 10
103.5857607225
 20
99.9189733192
  0
VERTEX
  8
0
 62
7
  6
CONTINUOUS
 10
103.5670765203
 20
99.969929943
  0
VERTEX
  8
0
 62
7
  6
CONTINUOUS
 10
103.5509658852
 20
100.023697316
  0
VERTEX
  8
0
 62
7
  6
CONTINUOUS
 10
103.5370141513
 20
100.0794825703
  0
VERTEX
  8
0
 62
7
  6
CONTINUOUS
 10
103.5251046683
 20
100.1365718691
  0
VERTEX
  8
0
 62
7
  6
CONTINUOUS
 10
103.5149799918
 20
100.1948908033
  0
VERTEX
  8
0
 62
7
  6
CONTINUOUS
 10
103.5065351604
 20
100.2544849885
  0
VERTEX
  8
0
 62
7
  6
CONTINUOUS
 10
103.4996341503
 20
100.3155018366
  0
VERTEX
  8
0
 62
7
  6
CONTINUOUS
 10
103.4941819593
 20
100.3776782052
  0
VERTEX
  8
0
 62
7
  6
CONTINUOUS
 10
103.4900828677
 20
100.4408939777
  0
VERTEX
  8
0
 62
7
  6
CONTINUOUS
 10
103.4872387615
 20
100.505126605
  0
VERTEX
  8
0
 62
7
  6
CONTINUOUS
 10
103.4855414404
 20
100.5703739331
  0
VERTEX
  8
0
 62
7
  6
CONTINUOUS
 10
103.4848866065
 20
100.6365911995
  0
VERTEX
  8
0
 62
7
  6
CONTINUOUS
 10
103.4851857054
 20
100.7037276
  0
SEQEND
  0
POLYLINE
  8
0
 62
7
  6
CONTINUOUS
 66
1
 70
0
  0
VERTEX
  8
0
 62
7
  6
CONTINUOUS
 10
120.6674628979
 20
99.6537879765
  0
VERTEX
  8
0
 62
7
  6
CONTINUOUS
 10
120.6497761913
 20
99.6548362934
  0
VERTEX
  8
0
 62
7
  6
CONTINUOUS
 10
120.6084634693
 20
99.6645353458
  0
VERTEX
  8
0
 62
7
  6
CONTINUOUS
 10
120.5676587463
 20
99.6836175189
  0
VERTEX
  8
0
 62
7
  6
CONTINUOUS
 10
120.5292206697
 20
99.7103785825
  0
VERTEX
  8
0
 62
7
  6
CONTINUOUS
 10
120.4937721152
 20
99.7434524691
  0
VERTEX
  8
0
 62
7
  6
CONTINUOUS
 10
120.4617348824
 20
99.7816025371
  0
VERTEX
  8
0
 62
7
  6
CONTINUOUS
 10
120.4330472716
 20
99.8240766583
  0
VERTEX
  8
0
 62
7
  6
CONTINUOUS
 10
120.4077428162
 20
99.8701023275
  0
VERTEX
  8
0
 62
7
  6
CONTINUOUS
 10
120.3857607225
 20
99.9189733192
  0
VERTEX
  8
0
 62
7
  6
CONTINUOUS
 10
120.3670765203
 20
99.969929943
  0
VERTEX
  8
0
 62
7
  6
CONTINUOUS
 10
120.3509658852
 20
100.023697316
  0
VERTEX
  8
0
 62
7
  6
CONTINUOUS
 10
120.3370141513
 20
100.0794825703
  0
VERTEX
  8
0
 62
7
  6
CONTINUOUS
 10
120.3251046683
 20
100.1365718691
  0
VERTEX
  8
0
 62
7
  6
CONTINUOUS
 10
120.3149799918
 20
100.1948908033
  0
VERTEX
  8
0
 62
7
  6
CONTINUOUS
 10
120.3065351604
 20
100.2544849885
  0
VERTEX
  8
0
 62
7
  6
CONTINUOUS
 10
120.2996341503
 20
100.3155018366
  0
VERTEX
  8
0
 62
7
  6
CONTINUOUS
 10
120.2941819593
 20
100.3776782052
  0
VERTEX
  8
0
 62
7
  6
CONTINUOUS
 10
120.2900828677
 20
100.4408939777
  0
VERTEX
  8
0
 62
7
  6
CONTINUOUS
 10
120.2872387615
 20
100.505126605
  0
VERTEX
  8
0
 62
7
  6
CONTINUOUS
 10
120.2855414404
 20
100.5703739331
  0
VERTEX
  8
0
 62
7
  6
CONTINUOUS
 10
120.2848866065
 20
100.6365911995
  0
VERTEX
  8
0
 62
7
  6
CONTINUOUS
 10
120.2851857054
 20
100.7037276
  0
SEQEND
  0
LINE
  8
0
 62
7
  6
CONTINUOUS
 10
187.6624265469
 20
50.3323608201
 11
187.662367245
 21
50.3333807318
  0
POLYLINE
  8
0
 62
7
  6
CONTINUOUS
 66
1
 70
0
  0
VERTEX
  8
0
 62
7
  6
CONTINUOUS
 10
187.4851857054
 20
100.7037276
  0
VERTEX
  8
0
 62
7
  6
CONTINUOUS
 10
187.4890328999
 20
100.9854411824
  0
VERTEX
  8
0
 62
7
  6
CONTINUOUS
 10
187.4914746437
 20
101.2684533839
  0
VERTEX
  8
0
 62
7
  6
CONTINUOUS
 10
187.4920309284
 20
106.8165149312
  0
SEQEND
  0
POLYLINE
  8
0
 62
7
  6
CONTINUOUS
 66
1
 70
0
  0
VERTEX
  8
0
 62
7
  6
CONTINUOUS
 10
187.6691647752
 20
56.4420826357
  0
VERTEX
  8
0
 62
7
  6
CONTINUOUS
 10
187.6653188091
 20
56.160552555
  0
VERTEX
  8
0
 62
7
  6
CONTINUOUS
 10
187.6629028346
 20
55.8775308944
  0
VERTEX
  8
0
 62
7
  6
CONTINUOUS
 10
187.6623672421
 20
50.3334427433
  0
SEQEND
  0
LINE
  8
0
 62
7
  6
CONTINUOUS
 10
178.019826999
 20
46.0405477255
 11
178.0357293734
 21
46.1452732705
  0
LINE
  8
0
 62
6
  6
CONTINUOUS
 10
229.2879411857
 20
99.4038654808
 11
229.2078313183
 21
99.4035892527
  0
LINE
  8
0
 62
6
  6
CONTINUOUS
 10
229.2879411874
 20
99.5309395678
 11
229.2078313183
 21
99.5306697381
  0
LINE
  8
0
 62
7
  6
CONTINUOUS
 10
229.2867626437
 20
99.6538175027
 11
221.5465674426
 21
99.6535892525
  0
LINE
  8
0
 62
7
  6
CONTINUOUS
 10
212.4867626437
 20
99.6538175027
 11
204.7465674426
 21
99.6535892525
  0
LINE
  8
0
 62
7
  6
CONTINUOUS
 10
195.6867626437
 20
99.6538175027
 11
187.9465674426
 21
99.6535892525
  0
LINE
  8
0
 62
7
  6
CONTINUOUS
 10
178.8867626437
 20
99.6538175027
 11
171.1465674426
 21
99.6535892525
  0
LINE
  8
0
 62
7
  6
CONTINUOUS
 10
162.0867626437
 20
99.6538175027
 11
154.3465674426
 21
99.6535892525
  0
LINE
  8
0
 62
7
  6
CONTINUOUS
 10
145.2867626437
 20
99.6538175027
 11
137.5465674426
 21
99.6535892525
  0
LINE
  8
0
 62
7
  6
CONTINUOUS
 10
128.4867626437
 20
99.6538175027
 11
120.7465674426
 21
99.6535892525
  0
LINE
  8
0
 62
7
  6
CONTINUOUS
 10
111.6867626437
 20
99.6538175027
 11
103.9465674426
 21
99.6535892525
  0
LINE
  8
0
 62
7
  6
CONTINUOUS
 10
94.8867626437
 20
99.6538175027
 11
87.0771990852
 21
99.6535892525
  0
LINE
  8
DEFAULT_1
 62
2
  6
CENTER
 10
95.6348183549
 20
103.9749788373
 11
239.8771990852
 21
103.9749788373
  0
LINE
  8
0
 62
7
  6
CONTINUOUS
 10
103.9465674432
 20
99.6535892525
 11
103.8674630633
 21
99.653787734
  0
LINE
  8
0
 62
7
  6
CONTINUOUS
 10
120.7465674432
 20
99.6535892525
 11
120.6674630633
 21
99.653787734
  0
LINE
  8
0
 62
7
  6
CONTINUOUS
 10
137.5465674432
 20
99.6535892525
 11
137.4674630633
 21
99.653787734
  0
LINE
  8
0
 62
7
  6
CONTINUOUS
 10
154.3465674432
 20
99.6535892525
 11
154.2674630633
 21
99.653787734
  0
LINE
  8
0
 62
7
  6
CONTINUOUS
 10
171.1465674432
 20
99.6535892525
 11
171.0674630633
 21
99.653787734
  0
LINE
  8
0
 62
7
  6
CONTINUOUS
 10
187.9465674432
 20
99.6535892525
 11
187.8674630633
 21
99.653787734
  0
LINE
  8
0
 62
7
  6
CONTINUOUS
 10
204.7465674432
 20
99.6535892525
 11
204.6674630633
 21
99.653787734
  0
LINE
  8
0
 62
7
  6
CONTINUOUS
 10
221.5465674432
 20
99.6535892525
 11
221.4674630633
 21
99.653787734
  0
POLYLINE
  8
0
 62
7
  6
CONTINUOUS
 66
1
 70
0
  0
VERTEX
  8
0
 62
7
  6
CONTINUOUS
 10
137.4674628979
 20
99.6537879765
  0
VERTEX
  8
0
 62
7
  6
CONTINUOUS
 10
137.4497761913
 20
99.6548362934
  0
VERTEX
  8
0
 62
7
  6
CONTINUOUS
 10
137.4084634693
 20
99.6645353458
  0
VERTEX
  8
0
 62
7
  6
CONTINUOUS
 10
137.3676587463
 20
99.6836175189
  0
VERTEX
  8
0
 62
7
  6
CONTINUOUS
 10
137.3292206697
 20
99.7103785825
  0
VERTEX
  8
0
 62
7
  6
CONTINUOUS
 10
137.2937721152
 20
99.7434524691
  0
VERTEX
  8
0
 62
7
  6
CONTINUOUS
 10
137.2617348824
 20
99.7816025371
  0
VERTEX
  8
0
 62
7
  6
CONTINUOUS
 10
137.2330472716
 20
99.8240766583
  0
VERTEX
  8
0
 62
7
  6
CONTINUOUS
 10
137.2077428162
 20
99.8701023275
  0
VERTEX
  8
0
 62
7
  6
CONTINUOUS
 10
137.1857607225
 20
99.9189733192
  0
VERTEX
  8
0
 62
7
  6
CONTINUOUS
 10
137.1670765203
 20
99.969929943
  0
VERTEX
  8
0
 62
7
  6
CONTINUOUS
 10
137.1509658852
 20
100.023697316
  0
VERTEX
  8
0
 62
7
  6
CONTINUOUS
 10
137.1370141513
 20
100.0794825703
  0
VERTEX
  8
0
 62
7
  6
CONTINUOUS
 10
137.1251046683
 20
100.1365718691
  0
VERTEX
  8
0
 62
7
  6
CONTINUOUS
 10
137.1149799918
 20
100.1948908033
  0
VERTEX
  8
0
 62
7
  6
CONTINUOUS
 10
137.1065351604
 20
100.2544849885
  0
VERTEX
  8
0
 62
7
  6
CONTINUOUS
 10
137.0996341503
 20
100.3155018366
  0
VERTEX
  8
0
 62
7
  6
CONTINUOUS
 10
137.0941819593
 20
100.3776782052
  0
VERTEX
  8
0
 62
7
  6
CONTINUOUS
 10
137.0900828677
 20
100.4408939777
  0
VERTEX
  8
0
 62
7
  6
CONTINUOUS
 10
137.0872387615
 20
100.505126605
  0
VERTEX
  8
0
 62
7
  6
CONTINUOUS
 10
137.0855414404
 20
100.5703739331
  0
VERTEX
  8
0
 62
7
  6
CONTINUOUS
 10
137.0848866065
 20
100.6365911995
  0
VERTEX
  8
0
 62
7
  6
CONTINUOUS
 10
137.0851857054
 20
100.7037276
  0
SEQEND
  0
POLYLINE
  8
0
 62
7
  6
CONTINUOUS
 66
1
 70
0
  0
VERTEX
  8
0
 62
7
  6
CONTINUOUS
 10
154.2674628979
 20
99.6537879765
  0
VERTEX
  8
0
 62
7
  6
CONTINUOUS
 10
154.2497761913
 20
99.6548362934
  0
VERTEX
  8
0
 62
7
  6
CONTINUOUS
 10
154.2084634693
 20
99.6645353458
  0
VERTEX
  8
0
 62
7
  6
CONTINUOUS
 10
154.1676587463
 20
99.6836175189
  0
VERTEX
  8
0
 62
7
  6
CONTINUOUS
 10
154.1292206697
 20
99.7103785825
  0
VERTEX
  8
0
 62
7
  6
CONTINUOUS
 10
154.0937721152
 20
99.7434524691
  0
VERTEX
  8
0
 62
7
  6
CONTINUOUS
 10
154.0617348824
 20
99.7816025371
  0
VERTEX
  8
0
 62
7
  6
CONTINUOUS
 10
154.0330472716
 20
99.8240766583
  0
VERTEX
  8
0
 62
7
  6
CONTINUOUS
 10
154.0077428162
 20
99.8701023275
  0
VERTEX
  8
0
 62
7
  6
CONTINUOUS
 10
153.9857607225
 20
99.9189733192
  0
VERTEX
  8
0
 62
7
  6
CONTINUOUS
 10
153.9670765203
 20
99.969929943
  0
VERTEX
  8
0
 62
7
  6
CONTINUOUS
 10
153.9509658852
 20
100.023697316
  0
VERTEX
  8
0
 62
7
  6
CONTINUOUS
 10
153.9370141513
 20
100.0794825703
  0
VERTEX
  8
0
 62
7
  6
CONTINUOUS
 10
153.9251046683
 20
100.1365718691
  0
VERTEX
  8
0
 62
7
  6
CONTINUOUS
 10
153.9149799918
 20
100.1948908033
  0
VERTEX
  8
0
 62
7
  6
CONTINUOUS
 10
153.9065351604
 20
100.2544849885
  0
VERTEX
  8
0
 62
7
  6
CONTINUOUS
 10
153.8996341503
 20
100.3155018366
  0
VERTEX
  8
0
 62
7
  6
CONTINUOUS
 10
153.8941819593
 20
100.3776782052
  0
VERTEX
  8
0
 62
7
  6
CONTINUOUS
 10
153.8900828677
 20
100.4408939777
  0
VERTEX
  8
0
 62
7
  6
CONTINUOUS
 10
153.8872387615
 20
100.505126605
  0
VERTEX
  8
0
 62
7
  6
CONTINUOUS
 10
153.8855414404
 20
100.5703739331
  0
VERTEX
  8
0
 62
7
  6
CONTINUOUS
 10
153.8848866065
 20
100.6365911995
  0
VERTEX
  8
0
 62
7
  6
CONTINUOUS
 10
153.8851857054
 20
100.7037276
  0
SEQEND
  0
POLYLINE
  8
0
 62
7
  6
CONTINUOUS
 66
1
 70
0
  0
VERTEX
  8
0
 62
7
  6
CONTINUOUS
 10
171.0674628979
 20
99.6537879765
  0
VERTEX
  8
0
 62
7
  6
CONTINUOUS
 10
171.0497761913
 20
99.6548362934
  0
VERTEX
  8
0
 62
7
  6
CONTINUOUS
 10
171.0084634693
 20
99.6645353458
  0
VERTEX
  8
0
 62
7
  6
CONTINUOUS
 10
170.9676587463
 20
99.6836175189
  0
VERTEX
  8
0
 62
7
  6
CONTINUOUS
 10
170.9292206697
 20
99.7103785825
  0
VERTEX
  8
0
 62
7
  6
CONTINUOUS
 10
170.8937721152
 20
99.7434524691
  0
VERTEX
  8
0
 62
7
  6
CONTINUOUS
 10
170.8617348824
 20
99.7816025371
  0
VERTEX
  8
0
 62
7
  6
CONTINUOUS
 10
170.8330472716
 20
99.8240766583
  0
VERTEX
  8
0
 62
7
  6
CONTINUOUS
 10
170.8077428162
 20
99.8701023275
  0
VERTEX
  8
0
 62
7
  6
CONTINUOUS
 10
170.7857607225
 20
99.9189733192
  0
VERTEX
  8
0
 62
7
  6
CONTINUOUS
 10
170.7670765203
 20
99.969929943
  0
VERTEX
  8
0
 62
7
  6
CONTINUOUS
 10
170.7509658852
 20
100.023697316
  0
VERTEX
  8
0
 62
7
  6
CONTINUOUS
 10
170.7370141513
 20
100.0794825703
  0
VERTEX
  8
0
 62
7
  6
CONTINUOUS
 10
170.7251046683
 20
100.1365718691
  0
VERTEX
  8
0
 62
7
  6
CONTINUOUS
 10
170.7149799918
 20
100.1948908033
  0
VERTEX
  8
0
 62
7
  6
CONTINUOUS
 10
170.7065351604
 20
100.2544849885
  0
VERTEX
  8
0
 62
7
  6
CONTINUOUS
 10
170.6996341503
 20
100.3155018366
  0
VERTEX
  8
0
 62
7
  6
CONTINUOUS
 10
170.6941819593
 20
100.3776782052
  0
VERTEX
  8
0
 62
7
  6
CONTINUOUS
 10
170.6900828677
 20
100.4408939777
  0
VERTEX
  8
0
 62
7
  6
CONTINUOUS
 10
170.6872387615
 20
100.505126605
  0
VERTEX
  8
0
 62
7
  6
CONTINUOUS
 10
170.6855414404
 20
100.5703739331
  0
VERTEX
  8
0
 62
7
  6
CONTINUOUS
 10
170.6848866065
 20
100.6365911995
  0
VERTEX
  8
0
 62
7
  6
CONTINUOUS
 10
170.6851857054
 20
100.7037276
  0
SEQEND
  0
POLYLINE
  8
0
 62
7
  6
CONTINUOUS
 66
1
 70
0
  0
VERTEX
  8
0
 62
7
  6
CONTINUOUS
 10
187.8674628979
 20
99.6537879765
  0
VERTEX
  8
0
 62
7
  6
CONTINUOUS
 10
187.8497761913
 20
99.6548362934
  0
VERTEX
  8
0
 62
7
  6
CONTINUOUS
 10
187.8084634693
 20
99.6645353458
  0
VERTEX
  8
0
 62
7
  6
CONTINUOUS
 10
187.7676587463
 20
99.6836175189
  0
VERTEX
  8
0
 62
7
  6
CONTINUOUS
 10
187.7292206697
 20
99.7103785825
  0
VERTEX
  8
0
 62
7
  6
CONTINUOUS
 10
187.6937721152
 20
99.7434524691
  0
VERTEX
  8
0
 62
7
  6
CONTINUOUS
 10
187.6617348824
 20
99.7816025371
  0
VERTEX
  8
0
 62
7
  6
CONTINUOUS
 10
187.6330472716
 20
99.8240766583
  0
VERTEX
  8
0
 62
7
  6
CONTINUOUS
 10
187.6077428162
 20
99.8701023275
  0
VERTEX
  8
0
 62
7
  6
CONTINUOUS
 10
187.5857607225
 20
99.9189733192
  0
VERTEX
  8
0
 62
7
  6
CONTINUOUS
 10
187.5670765203
 20
99.969929943
  0
VERTEX
  8
0
 62
7
  6
CONTINUOUS
 10
187.5509658852
 20
100.023697316
  0
VERTEX
  8
0
 62
7
  6
CONTINUOUS
 10
187.5370141513
 20
100.0794825703
  0
VERTEX
  8
0
 62
7
  6
CONTINUOUS
 10
187.5251046683
 20
100.1365718691
  0
VERTEX
  8
0
 62
7
  6
CONTINUOUS
 10
187.5149799918
 20
100.1948908033
  0
VERTEX
  8
0
 62
7
  6
CONTINUOUS
 10
187.5065351604
 20
100.2544849885
  0
VERTEX
  8
0
 62
7
  6
CONTINUOUS
 10
187.4996341503
 20
100.3155018366
  0
VERTEX
  8
0
 62
7
  6
CONTINUOUS
 10
187.4941819593
 20
100.3776782052
  0
VERTEX
  8
0
 62
7
  6
CONTINUOUS
 10
187.4900828677
 20
100.4408939777
  0
VERTEX
  8
0
 62
7
  6
CONTINUOUS
 10
187.4872387615
 20
100.505126605
  0
VERTEX
  8
0
 62
7
  6
CONTINUOUS
 10
187.4855414404
 20
100.5703739331
  0
VERTEX
  8
0
 62
7
  6
CONTINUOUS
 10
187.4848866065
 20
100.6365911995
  0
VERTEX
  8
0
 62
7
  6
CONTINUOUS
 10
187.4851857054
 20
100.7037276
  0
SEQEND
  0
POLYLINE
  8
0
 62
7
  6
CONTINUOUS
 66
1
 70
0
  0
VERTEX
  8
0
 62
7
  6
CONTINUOUS
 10
204.6674628979
 20
99.6537879765
  0
VERTEX
  8
0
 62
7
  6
CONTINUOUS
 10
204.6497761913
 20
99.6548362934
  0
VERTEX
  8
0
 62
7
  6
CONTINUOUS
 10
204.6084634693
 20
99.6645353458
  0
VERTEX
  8
0
 62
7
  6
CONTINUOUS
 10
204.5676587463
 20
99.6836175189
  0
VERTEX
  8
0
 62
7
  6
CONTINUOUS
 10
204.5292206697
 20
99.7103785825
  0
VERTEX
  8
0
 62
7
  6
CONTINUOUS
 10
204.4937721152
 20
99.7434524691
  0
VERTEX
  8
0
 62
7
  6
CONTINUOUS
 10
204.4617348824
 20
99.7816025371
  0
VERTEX
  8
0
 62
7
  6
CONTINUOUS
 10
204.4330472716
 20
99.8240766583
  0
VERTEX
  8
0
 62
7
  6
CONTINUOUS
 10
204.4077428162
 20
99.8701023275
  0
VERTEX
  8
0
 62
7
  6
CONTINUOUS
 10
204.3857607225
 20
99.9189733192
  0
VERTEX
  8
0
 62
7
  6
CONTINUOUS
 10
204.3670765203
 20
99.969929943
  0
VERTEX
  8
0
 62
7
  6
CONTINUOUS
 10
204.3509658852
 20
100.023697316
  0
VERTEX
  8
0
 62
7
  6
CONTINUOUS
 10
204.3370141513
 20
100.0794825703
  0
VERTEX
  8
0
 62
7
  6
CONTINUOUS
 10
204.3251046683
 20
100.1365718691
  0
VERTEX
  8
0
 62
7
  6
CONTINUOUS
 10
204.3149799918
 20
100.1948908033
  0
VERTEX
  8
0
 62
7
  6
CONTINUOUS
 10
204.3065351604
 20
100.2544849885
  0
VERTEX
  8
0
 62
7
  6
CONTINUOUS
 10
204.2996341503
 20
100.3155018366
  0
VERTEX
  8
0
 62
7
  6
CONTINUOUS
 10
204.2941819593
 20
100.3776782052
  0
VERTEX
  8
0
 62
7
  6
CONTINUOUS
 10
204.2900828677
 20
100.4408939777
  0
VERTEX
  8
0
 62
7
  6
CONTINUOUS
 10
204.2872387615
 20
100.505126605
  0
VERTEX
  8
0
 62
7
  6
CONTINUOUS
 10
204.2855414404
 20
100.5703739331
  0
VERTEX
  8
0
 62
7
  6
CONTINUOUS
 10
204.2848866065
 20
100.6365911995
  0
VERTEX
  8
0
 62
7
  6
CONTINUOUS
 10
204.2851857054
 20
100.7037276
  0
SEQEND
  0
POLYLINE
  8
0
 62
7
  6
CONTINUOUS
 66
1
 70
0
  0
VERTEX
  8
0
 62
7
  6
CONTINUOUS
 10
221.4674628979
 20
99.6537879765
  0
VERTEX
  8
0
 62
7
  6
CONTINUOUS
 10
221.4497761913
 20
99.6548362934
  0
VERTEX
  8
0
 62
7
  6
CONTINUOUS
 10
221.4084634693
 20
99.6645353458
  0
VERTEX
  8
0
 62
7
  6
CONTINUOUS
 10
221.3676587463
 20
99.6836175189
  0
VERTEX
  8
0
 62
7
  6
CONTINUOUS
 10
221.3292206697
 20
99.7103785825
  0
VERTEX
  8
0
 62
7
  6
CONTINUOUS
 10
221.2937721152
 20
99.7434524691
  0
VERTEX
  8
0
 62
7
  6
CONTINUOUS
 10
221.2617348824
 20
99.7816025371
  0
VERTEX
  8
0
 62
7
  6
CONTINUOUS
 10
221.2330472716
 20
99.8240766583
  0
VERTEX
  8
0
 62
7
  6
CONTINUOUS
 10
221.2077428162
 20
99.8701023275
  0
VERTEX
  8
0
 62
7
  6
CONTINUOUS
 10
221.1857607225
 20
99.9189733192
  0
VERTEX
  8
0
 62
7
  6
CONTINUOUS
 10
221.1670765203
 20
99.969929943
  0
VERTEX
  8
0
 62
7
  6
CONTINUOUS
 10
221.1509658852
 20
100.023697316
  0
VERTEX
  8
0
 62
7
  6
CONTINUOUS
 10
221.1370141513
 20
100.0794825703
  0
VERTEX
  8
0
 62
7
  6
CONTINUOUS
 10
221.1251046683
 20
100.1365718691
  0
VERTEX
  8
0
 62
7
  6
CONTINUOUS
 10
221.1149799918
 20
100.1948908033
  0
VERTEX
  8
0
 62
7
  6
CONTINUOUS
 10
221.1065351604
 20
100.2544849885
  0
VERTEX
  8
0
 62
7
  6
CONTINUOUS
 10
221.0996341503
 20
100.3155018366
  0
VERTEX
  8
0
 62
7
  6
CONTINUOUS
 10
221.0941819593
 20
100.3776782052
  0
VERTEX
  8
0
 62
7
  6
CONTINUOUS
 10
221.0900828677
 20
100.4408939777
  0
VERTEX
  8
0
 62
7
  6
CONTINUOUS
 10
221.0872387615
 20
100.505126605
  0
VERTEX
  8
0
 62
7
  6
CONTINUOUS
 10
221.0855414404
 20
100.5703739331
  0
VERTEX
  8
0
 62
7
  6
CONTINUOUS
 10
221.0848866065
 20
100.6365911995
  0
VERTEX
  8
0
 62
7
  6
CONTINUOUS
 10
221.0851857054
 20
100.7037276
  0
SEQEND
  0
LINE
  8
0
 62
7
  6
CONTINUOUS
 10
169.8114515343
 20
110.6127963473
 11
169.6316682591
 21
111.013745569
  0
POLYLINE
  8
0
 62
7
  6
CONTINUOUS
 66
1
 70
0
  0
VERTEX
  8
0
 62
7
  6
CONTINUOUS
 10
188.7345701791
 20
46.0405540908
  0
VERTEX
  8
0
 62
7
  6
CONTINUOUS
 10
188.7603761144
 20
45.8836759523
  0
VERTEX
  8
0
 62
7
  6
CONTINUOUS
 10
188.7893690318
 20
45.7269510073
  0
VERTEX
  8
0
 62
7
  6
CONTINUOUS
 10
188.8183245624
 20
45.589424798
  0
VERTEX
  8
0
 62
7
  6
CONTINUOUS
 10
188.8475855127
 20
45.4681278544
  0
VERTEX
  8
0
 62
7
  6
CONTINUOUS
 10
188.8777081028
 20
45.3601358249
  0
VERTEX
  8
0
 62
7
  6
CONTINUOUS
 10
188.909621734
 20
45.2623949217
  0
VERTEX
  8
0
 62
7
  6
CONTINUOUS
 10
188.9449196261
 20
45.171558055
  0
VERTEX
  8
0
 62
7
  6
CONTINUOUS
 10
188.9861450972
 20
45.0843514672
  0
VERTEX
  8
0
 62
7
  6
CONTINUOUS
 10
189.0370011198
 20
44.9983371414
  0
VERTEX
  8
0
 62
7
  6
CONTINUOUS
 10
189.1025725777
 20
44.9126137202
  0
VERTEX
  8
0
 62
7
  6
CONTINUOUS
 10
189.187739269
 20
44.8301226833
  0
VERTEX
  8
0
 62
7
  6
CONTINUOUS
 10
189.2941955211
 20
44.7581656862
  0
VERTEX
  8
0
 62
7
  6
CONTINUOUS
 10
189.4192069551
 20
44.7052755893
  0
VERTEX
  8
0
 62
7
  6
CONTINUOUS
 10
189.5559462112
 20
44.6780329482
  0
VERTEX
  8
0
 62
7
  6
CONTINUOUS
 10
189.6210106932
 20
44.6749789245
  0
SEQEND
  0
LINE
  8
0
 62
7
  6
CONTINUOUS
 10
188.7186687971
 20
46.1452732702
 11
188.7345711714
 21
46.0405477255
  0
POLYLINE
  8
0
 62
7
  6
CONTINUOUS
 66
1
 70
0
  0
VERTEX
  8
0
 62
7
  6
CONTINUOUS
 10
187.6624265173
 20
50.3323549545
  0
VERTEX
  8
0
 62
7
  6
CONTINUOUS
 10
187.7338037724
 20
49.7840635721
  0
VERTEX
  8
0
 62
7
  6
CONTINUOUS
 10
187.8284532338
 20
49.1840821566
  0
VERTEX
  8
0
 62
7
  6
CONTINUOUS
 10
187.9390638386
 20
48.6012951922
  0
VERTEX
  8
0
 62
7
  6
CONTINUOUS
 10
188.0656777248
 20
48.0407095259
  0
VERTEX
  8
0
 62
7
  6
CONTINUOUS
 10
188.2083104792
 20
47.5071618475
  0
VERTEX
  8
0
 62
7
  6
CONTINUOUS
 10
188.3670084034
 20
47.0053114695
  0
VERTEX
  8
0
 62
7
  6
CONTINUOUS
 10
188.542002185
 20
46.5394608641
  0
SEQEND
  0
LINE
  8
0
 62
7
  6
CONTINUOUS
 10
187.4919716202
 20
106.8175968826
 11
187.4920309254
 21
106.8165769427
  0
LINE
  8
0
 62
7
  6
CONTINUOUS
 10
197.134571307
 20
111.1094108189
 11
197.1186665225
 21
111.0046834769
  0
POLYLINE
  8
0
 62
7
  6
CONTINUOUS
 66
1
 70
0
  0
VERTEX
  8
0
 62
7
  6
CONTINUOUS
 10
178.0316693022
 20
46.1362142316
  0
VERTEX
  8
0
 62
7
  6
CONTINUOUS
 10
178.2123960293
 20
46.539460971
  0
VERTEX
  8
0
 62
7
  6
CONTINUOUS
 10
178.3873898472
 20
47.0053117023
  0
VERTEX
  8
0
 62
7
  6
CONTINUOUS
 10
178.5460878002
 20
47.5071622223
  0
VERTEX
  8
0
 62
7
  6
CONTINUOUS
 10
178.6887205759
 20
48.0407100557
  0
VERTEX
  8
0
 62
7
  6
CONTINUOUS
 10
178.8153344757
 20
48.6012958866
  0
VERTEX
  8
0
 62
7
  6
CONTINUOUS
 10
178.9259450866
 20
49.1840830216
  0
VERTEX
  8
0
 62
7
  6
CONTINUOUS
 10
179.0205945463
 20
49.78406461
  0
VERTEX
  8
0
 62
7
  6
CONTINUOUS
 10
179.0919716531
 20
50.3323549545
  0
SEQEND
  0
POLYLINE
  8
0
 62
7
  6
CONTINUOUS
 66
1
 70
0
  0
VERTEX
  8
0
 62
7
  6
CONTINUOUS
 10
179.0919716023
 20
50.3323650758
  0
VERTEX
  8
0
 62
7
  6
CONTINUOUS
 10
179.0861599019
 20
50.3237681779
  0
VERTEX
  8
0
 62
7
  6
CONTINUOUS
 10
179.0670731489
 20
50.3149748594
  0
VERTEX
  8
0
 62
7
  6
CONTINUOUS
 10
179.0358719018
 20
50.3082464166
  0
VERTEX
  8
0
 62
7
  6
CONTINUOUS
 10
178.994553356
 20
50.3039267133
  0
VERTEX
  8
0
 62
7
  6
CONTINUOUS
 10
178.9458570098
 20
50.3021378266
  0
VERTEX
  8
0
 62
7
  6
CONTINUOUS
 10
178.8920309284
 20
50.302697514
  0
SEQEND
  0
POLYLINE
  8
0
 62
7
  6
CONTINUOUS
 66
1
 70
0
  0
VERTEX
  8
0
 62
7
  6
CONTINUOUS
 10
231.6210334426
 20
112.4749787241
  0
VERTEX
  8
0
 62
7
  6
CONTINUOUS
 10
231.5548477372
 20
112.4718200676
  0
VERTEX
  8
0
 62
7
  6
CONTINUOUS
 10
231.4171716253
 20
112.4440497451
  0
VERTEX
  8
0
 62
7
  6
CONTINUOUS
 10
231.2925859107
 20
112.3909085174
  0
VERTEX
  8
0
 62
7
  6
CONTINUOUS
 10
231.1832239561
 20
112.3160992398
  0
VERTEX
  8
0
 62
7
  6
CONTINUOUS
 10
231.0918385668
 20
112.2248645328
  0
VERTEX
  8
0
 62
7
  6
CONTINUOUS
 10
231.0222998704
 20
112.1288146635
  0
VERTEX
  8
0
 62
7
  6
CONTINUOUS
 10
230.9694252881
 20
112.0324069861
  0
VERTEX
  8
0
 62
7
  6
CONTINUOUS
 10
230.9264530519
 20
111.9329573538
  0
VERTEX
  8
0
 62
7
  6
CONTINUOUS
 10
230.8890535591
 20
111.8264232738
  0
VERTEX
  8
0
 62
7
  6
CONTINUOUS
 10
230.8548548774
 20
111.7093927293
  0
VERTEX
  8
0
 62
7
  6
CONTINUOUS
 10
230.8225267322
 20
111.5790081736
  0
VERTEX
  8
0
 62
7
  6
CONTINUOUS
 10
230.7913519825
 20
111.4330120483
  0
VERTEX
  8
0
 62
7
  6
CONTINUOUS
 10
230.7610187251
 20
111.2699734872
  0
VERTEX
  8
0
 62
7
  6
CONTINUOUS
 10
230.7345694495
 20
111.1093989033
  0
SEQEND
  0
POLYLINE
  8
0
 62
7
  6
CONTINUOUS
 66
1
 70
0
  0
VERTEX
  8
0
 62
7
  6
CONTINUOUS
 10
214.8210103808
 20
112.4749787504
  0
VERTEX
  8
0
 62
7
  6
CONTINUOUS
 10
214.7560555113
 20
112.4719350425
  0
VERTEX
  8
0
 62
7
  6
CONTINUOUS
 10
214.6194166741
 20
112.4447468413
  0
VERTEX
  8
0
 62
7
  6
CONTINUOUS
 10
214.4944748421
 20
112.3919447248
  0
VERTEX
  8
0
 62
7
  6
CONTINUOUS
 10
214.3880451123
 20
112.3200857556
  0
VERTEX
  8
0
 62
7
  6
CONTINUOUS
 10
214.3028683418
 20
112.2376802393
  0
VERTEX
  8
0
 62
7
  6
CONTINUOUS
 10
214.2372697567
 20
112.1520233528
  0
VERTEX
  8
0
 62
7
  6
CONTINUOUS
 10
214.1863894058
 20
112.0660712403
  0
VERTEX
  8
0
 62
7
  6
CONTINUOUS
 10
214.1451494078
 20
111.9789381474
  0
VERTEX
  8
0
 62
7
  6
CONTINUOUS
 10
214.1098463688
 20
111.8881951477
  0
VERTEX
  8
0
 62
7
  6
CONTINUOUS
 10
214.0779350459
 20
111.7905749664
  0
VERTEX
  8
0
 62
7
  6
CONTINUOUS
 10
214.0478196564
 20
111.6827330407
  0
VERTEX
  8
0
 62
7
  6
CONTINUOUS
 10
214.0185689488
 20
111.5616173437
  0
VERTEX
  8
0
 62
7
  6
CONTINUOUS
 10
213.9896254284
 20
111.4243053663
  0
VERTEX
  8
0
 62
7
  6
CONTINUOUS
 10
213.9606453398
 20
111.2678296456
  0
VERTEX
  8
0
 62
7
  6
CONTINUOUS
 10
213.9345702688
 20
111.1094041595
  0
SEQEND
  0
POLYLINE
  8
0
 62
6
  6
CONTINUOUS
 66
1
 70
0
  0
VERTEX
  8
0
 62
6
  6
CONTINUOUS
 10
232.6004573678
 20
106.8472132938
  0
VERTEX
  8
0
 62
6
  6
CONTINUOUS
 10
232.4133905145
 20
106.8412203508
  0
VERTEX
  8
0
 62
6
  6
CONTINUOUS
 10
232.2334358619
 20
106.829811924
  0
VERTEX
  8
0
 62
6
  6
CONTINUOUS
 10
232.0668153718
 20
106.8135290985
  0
VERTEX
  8
0
 62
6
  6
CONTINUOUS
 10
231.9192069634
 20
106.7930285161
  0
VERTEX
  8
0
 62
6
  6
CONTINUOUS
 10
231.7955476745
 20
106.7690761411
  0
VERTEX
  8
0
 62
6
  6
CONTINUOUS
 10
231.6998809374
 20
106.7425351551
  0
VERTEX
  8
0
 62
6
  6
CONTINUOUS
 10
231.6352495035
 20
106.7143496213
  0
VERTEX
  8
0
 62
6
  6
CONTINUOUS
 10
231.603636634
 20
106.6855264359
  0
SEQEND
  0
POLYLINE
  8
0
 62
7
  6
CONTINUOUS
 66
1
 70
0
  0
VERTEX
  8
0
 62
7
  6
CONTINUOUS
 10
220.8920309284
 20
106.8472601605
  0
VERTEX
  8
0
 62
7
  6
CONTINUOUS
 10
220.9390596003
 20
106.8478721132
  0
VERTEX
  8
0
 62
7
  6
CONTINUOUS
 10
220.9825819414
 20
106.8467330924
  0
VERTEX
  8
0
 62
7
  6
CONTINUOUS
 10
221.02123339
 20
106.8436481197
  0
VERTEX
  8
0
 62
7
  6
CONTINUOUS
 10
221.0528818136
 20
106.8386309853
  0
VERTEX
  8
0
 62
7
  6
CONTINUOUS
 10
221.0758323277
 20
106.8318609694
  0
VERTEX
  8
0
 62
7
  6
CONTINUOUS
 10
221.0889580096
 20
106.8236462957
  0
VERTEX
  8
0
 62
7
  6
CONTINUOUS
 10
221.0919716202
 20
106.8175968826
  0
SEQEND
  0
POLYLINE
  8
0
 62
7
  6
CONTINUOUS
 66
1
 70
0
  0
VERTEX
  8
0
 62
7
  6
CONTINUOUS
 10
204.0920309284
 20
106.8472601605
  0
VERTEX
  8
0
 62
7
  6
CONTINUOUS
 10
204.1390596003
 20
106.8478721132
  0
VERTEX
  8
0
 62
7
  6
CONTINUOUS
 10
204.1825819414
 20
106.8467330924
  0
VERTEX
  8
0
 62
7
  6
CONTINUOUS
 10
204.22123339
 20
106.8436481197
  0
VERTEX
  8
0
 62
7
  6
CONTINUOUS
 10
204.2528818136
 20
106.8386309853
  0
VERTEX
  8
0
 62
7
  6
CONTINUOUS
 10
204.2758323277
 20
106.8318609694
  0
VERTEX
  8
0
 62
7
  6
CONTINUOUS
 10
204.2889580096
 20
106.8236462957
  0
VERTEX
  8
0
 62
7
  6
CONTINUOUS
 10
204.2919716202
 20
106.8175968826
  0
SEQEND
  0
POLYLINE
  8
0
 62
7
  6
CONTINUOUS
 66
1
 70
0
  0
VERTEX
  8
0
 62
7
  6
CONTINUOUS
 10
187.2920309284
 20
106.8472601605
  0
VERTEX
  8
0
 62
7
  6
CONTINUOUS
 10
187.3390596003
 20
106.8478721132
  0
VERTEX
  8
0
 62
7
  6
CONTINUOUS
 10
187.3825819414
 20
106.8467330924
  0
VERTEX
  8
0
 62
7
  6
CONTINUOUS
 10
187.42123339
 20
106.8436481197
  0
VERTEX
  8
0
 62
7
  6
CONTINUOUS
 10
187.4528818136
 20
106.8386309853
  0
VERTEX
  8
0
 62
7
  6
CONTINUOUS
 10
187.4758323277
 20
106.8318609694
  0
VERTEX
  8
0
 62
7
  6
CONTINUOUS
 10
187.4889580096
 20
106.8236462957
  0
VERTEX
  8
0
 62
7
  6
CONTINUOUS
 10
187.4919716202
 20
106.8175968826
  0
SEQEND
  0
POLYLINE
  8
0
 62
7
  6
CONTINUOUS
 66
1
 70
0
  0
VERTEX
  8
0
 62
7
  6
CONTINUOUS
 10
170.4920309284
 20
106.8472601605
  0
VERTEX
  8
0
 62
7
  6
CONTINUOUS
 10
170.5390596003
 20
106.8478721132
  0
VERTEX
  8
0
 62
7
  6
CONTINUOUS
 10
170.5825819414
 20
106.8467330924
  0
VERTEX
  8
0
 62
7
  6
CONTINUOUS
 10
170.62123339
 20
106.8436481197
  0
VERTEX
  8
0
 62
7
  6
CONTINUOUS
 10
170.6528818136
 20
106.8386309853
  0
VERTEX
  8
0
 62
7
  6
CONTINUOUS
 10
170.6758323277
 20
106.8318609694
  0
VERTEX
  8
0
 62
7
  6
CONTINUOUS
 10
170.6889580096
 20
106.8236462957
  0
VERTEX
  8
0
 62
7
  6
CONTINUOUS
 10
170.6919716202
 20
106.8175968826
  0
SEQEND
  0
POLYLINE
  8
0
 62
7
  6
CONTINUOUS
 66
1
 70
0
  0
VERTEX
  8
0
 62
7
  6
CONTINUOUS
 10
153.6920309284
 20
106.8472601605
  0
VERTEX
  8
0
 62
7
  6
CONTINUOUS
 10
153.7390596003
 20
106.8478721132
  0
VERTEX
  8
0
 62
7
  6
CONTINUOUS
 10
153.7825819414
 20
106.8467330924
  0
VERTEX
  8
0
 62
7
  6
CONTINUOUS
 10
153.82123339
 20
106.8436481197
  0
VERTEX
  8
0
 62
7
  6
CONTINUOUS
 10
153.8528818136
 20
106.8386309853
  0
VERTEX
  8
0
 62
7
  6
CONTINUOUS
 10
153.8758323277
 20
106.8318609694
  0
VERTEX
  8
0
 62
7
  6
CONTINUOUS
 10
153.8889580096
 20
106.8236462957
  0
VERTEX
  8
0
 62
7
  6
CONTINUOUS
 10
153.8919716202
 20
106.8175968826
  0
SEQEND
  0
POLYLINE
  8
0
 62
7
  6
CONTINUOUS
 66
1
 70
0
  0
VERTEX
  8
0
 62
7
  6
CONTINUOUS
 10
136.8920309284
 20
106.8472601605
  0
VERTEX
  8
0
 62
7
  6
CONTINUOUS
 10
136.9390596003
 20
106.8478721132
  0
VERTEX
  8
0
 62
7
  6
CONTINUOUS
 10
136.9825819414
 20
106.8467330924
  0
VERTEX
  8
0
 62
7
  6
CONTINUOUS
 10
137.02123339
 20
106.8436481197
  0
VERTEX
  8
0
 62
7
  6
CONTINUOUS
 10
137.0528818136
 20
106.8386309853
  0
VERTEX
  8
0
 62
7
  6
CONTINUOUS
 10
137.0758323277
 20
106.8318609694
  0
VERTEX
  8
0
 62
7
  6
CONTINUOUS
 10
137.0889580096
 20
106.8236462957
  0
VERTEX
  8
0
 62
7
  6
CONTINUOUS
 10
137.0919716202
 20
106.8175968826
  0
SEQEND
  0
POLYLINE
  8
0
 62
7
  6
CONTINUOUS
 66
1
 70
0
  0
VERTEX
  8
0
 62
7
  6
CONTINUOUS
 10
120.0920309284
 20
106.8472601605
  0
VERTEX
  8
0
 62
7
  6
CONTINUOUS
 10
120.1390596003
 20
106.8478721132
  0
VERTEX
  8
0
 62
7
  6
CONTINUOUS
 10
120.1825819414
 20
106.8467330924
  0
VERTEX
  8
0
 62
7
  6
CONTINUOUS
 10
120.22123339
 20
106.8436481197
  0
VERTEX
  8
0
 62
7
  6
CONTINUOUS
 10
120.2528818136
 20
106.8386309853
  0
VERTEX
  8
0
 62
7
  6
CONTINUOUS
 10
120.2758323277
 20
106.8318609694
  0
VERTEX
  8
0
 62
7
  6
CONTINUOUS
 10
120.2889580096
 20
106.8236462957
  0
VERTEX
  8
0
 62
7
  6
CONTINUOUS
 10
120.2919716202
 20
106.8175968826
  0
SEQEND
  0
POLYLINE
  8
0
 62
7
  6
CONTINUOUS
 66
1
 70
0
  0
VERTEX
  8
0
 62
7
  6
CONTINUOUS
 10
103.2920309284
 20
106.8472601605
  0
VERTEX
  8
0
 62
7
  6
CONTINUOUS
 10
103.3390596003
 20
106.8478721132
  0
VERTEX
  8
0
 62
7
  6
CONTINUOUS
 10
103.3825819414
 20
106.8467330924
  0
VERTEX
  8
0
 62
7
  6
CONTINUOUS
 10
103.42123339
 20
106.8436481197
  0
VERTEX
  8
0
 62
7
  6
CONTINUOUS
 10
103.4528818136
 20
106.8386309853
  0
VERTEX
  8
0
 62
7
  6
CONTINUOUS
 10
103.4758323277
 20
106.8318609694
  0
VERTEX
  8
0
 62
7
  6
CONTINUOUS
 10
103.4889580096
 20
106.8236462957
  0
VERTEX
  8
0
 62
7
  6
CONTINUOUS
 10
103.4919716202
 20
106.8175968826
  0
SEQEND
  0
LINE
  8
0
 62
6
  6
CONTINUOUS
 10
232.6004573678
 20
106.8472132938
 11
232.6060956721
 21
106.8472601588
  0
LINE
  8
0
 62
6
  6
CONTINUOUS
 10
220.8940669025
 20
106.8472601605
 11
220.8920309284
 21
106.8472601605
  0
LINE
  8
0
 62
7
  6
CONTINUOUS
 10
220.8920309284
 20
106.8472601605
 11
213.0623672421
 21
106.8472601605
  0
LINE
  8
0
 62
7
  6
CONTINUOUS
 10
204.0920309284
 20
106.8472601605
 11
196.2623672421
 21
106.8472601605
  0
LINE
  8
0
 62
7
  6
CONTINUOUS
 10
187.2920309284
 20
106.8472601605
 11
179.4623672421
 21
106.8472601605
  0
LINE
  8
0
 62
7
  6
CONTINUOUS
 10
170.4920309284
 20
106.8472601605
 11
162.6623672421
 21
106.8472601605
  0
LINE
  8
0
 62
7
  6
CONTINUOUS
 10
153.6920309284
 20
106.8472601605
 11
145.8623672421
 21
106.8472601605
  0
LINE
  8
0
 62
7
  6
CONTINUOUS
 10
136.8920309284
 20
106.8472601605
 11
129.0623672421
 21
106.8472601605
  0
LINE
  8
0
 62
7
  6
CONTINUOUS
 10
120.0920309284
 20
106.8472601605
 11
112.2623672421
 21
106.8472601605
  0
LINE
  8
0
 62
7
  6
CONTINUOUS
 10
103.2920309284
 20
106.8472601605
 11
95.4623672421
 21
106.8472601605
  0
LINE
  8
0
 62
7
  6
CONTINUOUS
 10
229.8623672421
 20
106.8472601605
 11
237.6771990852
 21
106.8472601605
  0
LINE
  8
0
 62
6
  6
CONTINUOUS
 10
229.860331268
 20
106.8472601605
 11
229.8623672421
 21
106.8472601605
  0
LINE
  8
0
 62
6
  6
CONTINUOUS
 10
218.1539408026
 20
106.8472132938
 11
218.1483024984
 21
106.8472601588
  0
POLYLINE
  8
0
 62
7
  6
CONTINUOUS
 66
1
 70
0
  0
VERTEX
  8
0
 62
7
  6
CONTINUOUS
 10
95.4623672421
 20
106.8472601605
  0
VERTEX
  8
0
 62
7
  6
CONTINUOUS
 10
95.4153385701
 20
106.8478721132
  0
VERTEX
  8
0
 62
7
  6
CONTINUOUS
 10
95.3718162291
 20
106.8467330924
  0
VERTEX
  8
0
 62
7
  6
CONTINUOUS
 10
95.3331647804
 20
106.8436481197
  0
VERTEX
  8
0
 62
7
  6
CONTINUOUS
 10
95.3015163569
 20
106.8386309853
  0
VERTEX
  8
0
 62
7
  6
CONTINUOUS
 10
95.2785658427
 20
106.8318609694
  0
VERTEX
  8
0
 62
7
  6
CONTINUOUS
 10
95.2654401609
 20
106.8236462957
  0
VERTEX
  8
0
 62
7
  6
CONTINUOUS
 10
95.2624265503
 20
106.8175968826
  0
SEQEND
  0
POLYLINE
  8
0
 62
7
  6
CONTINUOUS
 66
1
 70
0
  0
VERTEX
  8
0
 62
7
  6
CONTINUOUS
 10
112.2623672421
 20
106.8472601605
  0
VERTEX
  8
0
 62
7
  6
CONTINUOUS
 10
112.2153385701
 20
106.8478721132
  0
VERTEX
  8
0
 62
7
  6
CONTINUOUS
 10
112.1718162291
 20
106.8467330924
  0
VERTEX
  8
0
 62
7
  6
CONTINUOUS
 10
112.1331647804
 20
106.8436481197
  0
VERTEX
  8
0
 62
7
  6
CONTINUOUS
 10
112.1015163569
 20
106.8386309853
  0
VERTEX
  8
0
 62
7
  6
CONTINUOUS
 10
112.0785658427
 20
106.8318609694
  0
VERTEX
  8
0
 62
7
  6
CONTINUOUS
 10
112.0654401609
 20
106.8236462957
  0
VERTEX
  8
0
 62
7
  6
CONTINUOUS
 10
112.0624265503
 20
106.8175968826
  0
SEQEND
  0
POLYLINE
  8
0
 62
7
  6
CONTINUOUS
 66
1
 70
0
  0
VERTEX
  8
0
 62
7
  6
CONTINUOUS
 10
129.0623672421
 20
106.8472601605
  0
VERTEX
  8
0
 62
7
  6
CONTINUOUS
 10
129.0153385701
 20
106.8478721132
  0
VERTEX
  8
0
 62
7
  6
CONTINUOUS
 10
128.9718162291
 20
106.8467330924
  0
VERTEX
  8
0
 62
7
  6
CONTINUOUS
 10
128.9331647804
 20
106.8436481197
  0
VERTEX
  8
0
 62
7
  6
CONTINUOUS
 10
128.9015163569
 20
106.8386309853
  0
VERTEX
  8
0
 62
7
  6
CONTINUOUS
 10
128.8785658427
 20
106.8318609694
  0
VERTEX
  8
0
 62
7
  6
CONTINUOUS
 10
128.8654401609
 20
106.8236462957
  0
VERTEX
  8
0
 62
7
  6
CONTINUOUS
 10
128.8624265503
 20
106.8175968826
  0
SEQEND
  0
POLYLINE
  8
0
 62
7
  6
CONTINUOUS
 66
1
 70
0
  0
VERTEX
  8
0
 62
7
  6
CONTINUOUS
 10
145.8623672421
 20
106.8472601605
  0
VERTEX
  8
0
 62
7
  6
CONTINUOUS
 10
145.8153385701
 20
106.8478721132
  0
VERTEX
  8
0
 62
7
  6
CONTINUOUS
 10
145.7718162291
 20
106.8467330924
  0
VERTEX
  8
0
 62
7
  6
CONTINUOUS
 10
145.7331647804
 20
106.8436481197
  0
VERTEX
  8
0
 62
7
  6
CONTINUOUS
 10
145.7015163569
 20
106.8386309853
  0
VERTEX
  8
0
 62
7
  6
CONTINUOUS
 10
145.6785658427
 20
106.8318609694
  0
VERTEX
  8
0
 62
7
  6
CONTINUOUS
 10
145.6654401609
 20
106.8236462957
  0
VERTEX
  8
0
 62
7
  6
CONTINUOUS
 10
145.6624265503
 20
106.8175968826
  0
SEQEND
  0
POLYLINE
  8
0
 62
7
  6
CONTINUOUS
 66
1
 70
0
  0
VERTEX
  8
0
 62
7
  6
CONTINUOUS
 10
162.6623672421
 20
106.8472601605
  0
VERTEX
  8
0
 62
7
  6
CONTINUOUS
 10
162.6153385701
 20
106.8478721132
  0
VERTEX
  8
0
 62
7
  6
CONTINUOUS
 10
162.5718162291
 20
106.8467330924
  0
VERTEX
  8
0
 62
7
  6
CONTINUOUS
 10
162.5331647804
 20
106.8436481197
  0
VERTEX
  8
0
 62
7
  6
CONTINUOUS
 10
162.5015163569
 20
106.8386309853
  0
VERTEX
  8
0
 62
7
  6
CONTINUOUS
 10
162.4785658427
 20
106.8318609694
  0
VERTEX
  8
0
 62
7
  6
CONTINUOUS
 10
162.4654401609
 20
106.8236462957
  0
VERTEX
  8
0
 62
7
  6
CONTINUOUS
 10
162.4624265503
 20
106.8175968826
  0
SEQEND
  0
POLYLINE
  8
0
 62
7
  6
CONTINUOUS
 66
1
 70
0
  0
VERTEX
  8
0
 62
7
  6
CONTINUOUS
 10
179.4623672421
 20
106.8472601605
  0
VERTEX
  8
0
 62
7
  6
CONTINUOUS
 10
179.4153385701
 20
106.8478721132
  0
VERTEX
  8
0
 62
7
  6
CONTINUOUS
 10
179.3718162291
 20
106.8467330924
  0
VERTEX
  8
0
 62
7
  6
CONTINUOUS
 10
179.3331647804
 20
106.8436481197
  0
VERTEX
  8
0
 62
7
  6
CONTINUOUS
 10
179.3015163569
 20
106.8386309853
  0
VERTEX
  8
0
 62
7
  6
CONTINUOUS
 10
179.2785658427
 20
106.8318609694
  0
VERTEX
  8
0
 62
7
  6
CONTINUOUS
 10
179.2654401609
 20
106.8236462957
  0
VERTEX
  8
0
 62
7
  6
CONTINUOUS
 10
179.2624265503
 20
106.8175968826
  0
SEQEND
  0
POLYLINE
  8
0
 62
7
  6
CONTINUOUS
 66
1
 70
0
  0
VERTEX
  8
0
 62
7
  6
CONTINUOUS
 10
196.2623672421
 20
106.8472601605
  0
VERTEX
  8
0
 62
7
  6
CONTINUOUS
 10
196.2153385701
 20
106.8478721132
  0
VERTEX
  8
0
 62
7
  6
CONTINUOUS
 10
196.1718162291
 20
106.8467330924
  0
VERTEX
  8
0
 62
7
  6
CONTINUOUS
 10
196.1331647804
 20
106.8436481197
  0
VERTEX
  8
0
 62
7
  6
CONTINUOUS
 10
196.1015163569
 20
106.8386309853
  0
VERTEX
  8
0
 62
7
  6
CONTINUOUS
 10
196.0785658427
 20
106.8318609694
  0
VERTEX
  8
0
 62
7
  6
CONTINUOUS
 10
196.0654401609
 20
106.8236462957
  0
VERTEX
  8
0
 62
7
  6
CONTINUOUS
 10
196.0624265503
 20
106.8175968826
  0
SEQEND
  0
POLYLINE
  8
0
 62
7
  6
CONTINUOUS
 66
1
 70
0
  0
VERTEX
  8
0
 62
7
  6
CONTINUOUS
 10
213.0623672421
 20
106.8472601605
  0
VERTEX
  8
0
 62
7
  6
CONTINUOUS
 10
213.0153385701
 20
106.8478721132
  0
VERTEX
  8
0
 62
7
  6
CONTINUOUS
 10
212.9718162291
 20
106.8467330924
  0
VERTEX
  8
0
 62
7
  6
CONTINUOUS
 10
212.9331647804
 20
106.8436481197
  0
VERTEX
  8
0
 62
7
  6
CONTINUOUS
 10
212.9015163569
 20
106.8386309853
  0
VERTEX
  8
0
 62
7
  6
CONTINUOUS
 10
212.8785658427
 20
106.8318609694
  0
VERTEX
  8
0
 62
7
  6
CONTINUOUS
 10
212.8654401609
 20
106.8236462957
  0
VERTEX
  8
0
 62
7
  6
CONTINUOUS
 10
212.8624265503
 20
106.8175968826
  0
SEQEND
  0
POLYLINE
  8
0
 62
7
  6
CONTINUOUS
 66
1
 70
0
  0
VERTEX
  8
0
 62
7
  6
CONTINUOUS
 10
229.8623672421
 20
106.8472601605
  0
VERTEX
  8
0
 62
7
  6
CONTINUOUS
 10
229.8153385701
 20
106.8478721132
  0
VERTEX
  8
0
 62
7
  6
CONTINUOUS
 10
229.7718162291
 20
106.8467330924
  0
VERTEX
  8
0
 62
7
  6
CONTINUOUS
 10
229.7331647804
 20
106.8436481197
  0
VERTEX
  8
0
 62
7
  6
CONTINUOUS
 10
229.7015163569
 20
106.8386309853
  0
VERTEX
  8
0
 62
7
  6
CONTINUOUS
 10
229.6785658427
 20
106.8318609694
  0
VERTEX
  8
0
 62
7
  6
CONTINUOUS
 10
229.6654401609
 20
106.8236462957
  0
VERTEX
  8
0
 62
7
  6
CONTINUOUS
 10
229.6624265503
 20
106.8175968826
  0
SEQEND
  0
POLYLINE
  8
0
 62
6
  6
CONTINUOUS
 66
1
 70
0
  0
VERTEX
  8
0
 62
6
  6
CONTINUOUS
 10
218.1539408026
 20
106.8472132938
  0
VERTEX
  8
0
 62
6
  6
CONTINUOUS
 10
218.3410076559
 20
106.8412203508
  0
VERTEX
  8
0
 62
6
  6
CONTINUOUS
 10
218.5209623085
 20
106.829811924
  0
VERTEX
  8
0
 62
6
  6
CONTINUOUS
 10
218.6875827986
 20
106.8135290985
  0
VERTEX
  8
0
 62
6
  6
CONTINUOUS
 10
218.8351912071
 20
106.7930285161
  0
VERTEX
  8
0
 62
6
  6
CONTINUOUS
 10
218.9588504959
 20
106.7690761411
  0
VERTEX
  8
0
 62
6
  6
CONTINUOUS
 10
219.0545172331
 20
106.7425351551
  0
VERTEX
  8
0
 62
6
  6
CONTINUOUS
 10
219.1191486669
 20
106.7143496213
  0
VERTEX
  8
0
 62
6
  6
CONTINUOUS
 10
219.1507615365
 20
106.6855264359
  0
SEQEND
  0
LINE
  8
0
 62
7
  6
CONTINUOUS
 10
205.342002185
 20
46.5394608641
 11
205.5227288682
 21
46.1362142316
  0
POLYLINE
  8
0
 62
7
  6
CONTINUOUS
 66
1
 70
0
  0
VERTEX
  8
0
 62
7
  6
CONTINUOUS
 10
186.4198278966
 20
111.1094041917
  0
VERTEX
  8
0
 62
7
  6
CONTINUOUS
 10
186.393781662
 20
111.2676639638
  0
VERTEX
  8
0
 62
7
  6
CONTINUOUS
 10
186.3648329525
 20
111.4240005219
  0
VERTEX
  8
0
 62
7
  6
CONTINUOUS
 10
186.3359242939
 20
111.5611956069
  0
VERTEX
  8
0
 62
7
  6
CONTINUOUS
 10
186.3067138672
 20
111.6822110355
  0
VERTEX
  8
0
 62
7
  6
CONTINUOUS
 10
186.2766477733
 20
111.7899622703
  0
VERTEX
  8
0
 62
7
  6
CONTINUOUS
 10
186.2448015309
 20
111.8874920606
  0
VERTEX
  8
0
 62
7
  6
CONTINUOUS
 10
186.209593124
 20
111.9781308461
  0
VERTEX
  8
0
 62
7
  6
CONTINUOUS
 10
186.1685076774
 20
112.0651209835
  0
VERTEX
  8
0
 62
7
  6
CONTINUOUS
 10
186.1178830163
 20
112.1508905997
  0
VERTEX
  8
0
 62
7
  6
CONTINUOUS
 10
186.0526842666
 20
112.2363653785
  0
VERTEX
  8
0
 62
7
  6
CONTINUOUS
 10
185.9680535926
 20
112.3186878229
  0
VERTEX
  8
0
 62
7
  6
CONTINUOUS
 10
185.8622325707
 20
112.3906768883
  0
VERTEX
  8
0
 62
7
  6
CONTINUOUS
 10
185.7378940829
 20
112.443840819
  0
VERTEX
  8
0
 62
7
  6
CONTINUOUS
 10
185.601832932
 20
112.4715968952
  0
VERTEX
  8
0
 62
7
  6
CONTINUOUS
 10
185.5333863502
 20
112.4749787489
  0
SEQEND
  0
LINE
  8
0
 62
7
  6
CONTINUOUS
 10
186.4357316479
 20
111.0046834769
 11
186.4198268634
 21
111.1094108189
  0
POLYLINE
  8
0
 62
7
  6
CONTINUOUS
 66
1
 70
0
  0
VERTEX
  8
0
 62
7
  6
CONTINUOUS
 10
187.4919716498
 20
106.8176027482
  0
VERTEX
  8
0
 62
7
  6
CONTINUOUS
 10
187.420093836
 20
107.3693958696
  0
VERTEX
  8
0
 62
7
  6
CONTINUOUS
 10
187.3253649847
 20
107.9692207965
  0
VERTEX
  8
0
 62
7
  6
CONTINUOUS
 10
187.2146774537
 20
108.5518316021
  0
VERTEX
  8
0
 62
7
  6
CONTINUOUS
 10
187.0879892201
 20
109.1122226238
  0
VERTEX
  8
0
 62
7
  6
CONTINUOUS
 10
186.9452844743
 20
109.645558826
  0
VERTEX
  8
0
 62
7
  6
CONTINUOUS
 10
186.7865160724
 20
110.1471833065
  0
VERTEX
  8
0
 62
7
  6
CONTINUOUS
 10
186.6114515343
 20
110.6127963473
  0
SEQEND
  0
POLYLINE
  8
0
 62
7
  6
CONTINUOUS
 66
1
 70
0
  0
VERTEX
  8
0
 62
7
  6
CONTINUOUS
 10
196.0653188088
 20
100.9894050689
  0
VERTEX
  8
0
 62
7
  6
CONTINUOUS
 10
196.0691658018
 20
100.7077873804
  0
VERTEX
  8
0
 62
7
  6
CONTINUOUS
 10
196.0695195745
 20
100.6405063934
  0
VERTEX
  8
0
 62
7
  6
CONTINUOUS
 10
196.0689215096
 20
100.5741461565
  0
VERTEX
  8
0
 62
7
  6
CONTINUOUS
 10
196.0672839089
 20
100.5087574021
  0
VERTEX
  8
0
 62
7
  6
CONTINUOUS
 10
196.0645028106
 20
100.4443886571
  0
VERTEX
  8
0
 62
7
  6
CONTINUOUS
 10
196.0604693345
 20
100.3810415188
  0
VERTEX
  8
0
 62
7
  6
CONTINUOUS
 10
196.0550852337
 20
100.3187370218
  0
VERTEX
  8
0
 62
7
  6
CONTINUOUS
 10
196.0482544551
 20
100.2575899337
  0
VERTEX
  8
0
 62
7
  6
CONTINUOUS
 10
196.0398861409
 20
100.1978778826
  0
VERTEX
  8
0
 62
7
  6
CONTINUOUS
 10
196.0298414084
 20
100.1394608647
  0
VERTEX
  8
0
 62
7
  6
CONTINUOUS
 10
196.0180029228
 20
100.0822147818
  0
VERTEX
  8
0
 62
7
  6
CONTINUOUS
 10
196.0041617057
 20
100.026362971
  0
VERTEX
  8
0
 62
7
  6
CONTINUOUS
 10
195.988125348
 20
99.9723780652
  0
VERTEX
  8
0
 62
7
  6
CONTINUOUS
 10
195.9695535519
 20
99.9212433888
  0
VERTEX
  8
0
 62
7
  6
CONTINUOUS
 10
195.9477056221
 20
99.8722245339
  0
VERTEX
  8
0
 62
7
  6
CONTINUOUS
 10
195.9225286199
 20
99.8260211098
  0
VERTEX
  8
0
 62
7
  6
CONTINUOUS
 10
195.8939645325
 20
99.7833436928
  0
VERTEX
  8
0
 62
7
  6
CONTINUOUS
 10
195.8620454351
 20
99.7449644354
  0
VERTEX
  8
0
 62
7
  6
CONTINUOUS
 10
195.826719367
 20
99.7116407224
  0
VERTEX
  8
0
 62
7
  6
CONTINUOUS
 10
195.7883937822
 20
99.6845898116
  0
VERTEX
  8
0
 62
7
  6
CONTINUOUS
 10
195.7476615703
 20
99.6651533604
  0
VERTEX
  8
0
 62
7
  6
CONTINUOUS
 10
195.7063532291
 20
99.6550420758
  0
VERTEX
  8
0
 62
7
  6
CONTINUOUS
 10
195.6867624668
 20
99.653787373
  0
SEQEND
  0
POLYLINE
  8
0
 62
7
  6
CONTINUOUS
 66
1
 70
0
  0
VERTEX
  8
0
 62
7
  6
CONTINUOUS
 10
195.8890324969
 20
56.1645203356
  0
VERTEX
  8
0
 62
7
  6
CONTINUOUS
 10
195.8851849284
 20
56.4462443998
  0
VERTEX
  8
0
 62
7
  6
CONTINUOUS
 10
195.8848859869
 20
56.513378549
  0
VERTEX
  8
0
 62
7
  6
CONTINUOUS
 10
195.8855408545
 20
56.5795940824
  0
VERTEX
  8
0
 62
7
  6
CONTINUOUS
 10
195.8872379946
 20
56.6448393979
  0
VERTEX
  8
0
 62
7
  6
CONTINUOUS
 10
195.8900822075
 20
56.7090701136
  0
VERTEX
  8
0
 62
7
  6
CONTINUOUS
 10
195.8941816617
 20
56.7722862591
  0
VERTEX
  8
0
 62
7
  6
CONTINUOUS
 10
195.8996340091
 20
56.8344650173
  0
VERTEX
  8
0
 62
7
  6
CONTINUOUS
 10
195.9065348197
 20
56.8954810501
  0
VERTEX
  8
0
 62
7
  6
CONTINUOUS
 10
195.9149820468
 20
56.9550818486
  0
VERTEX
  8
0
 62
7
  6
CONTINUOUS
 10
195.9251044638
 20
57.0134024597
  0
VERTEX
  8
0
 62
7
  6
CONTINUOUS
 10
195.9370166058
 20
57.0704723865
  0
VERTEX
  8
0
 62
7
  6
CONTINUOUS
 10
195.9509709524
 20
57.1262916894
  0
VERTEX
  8
0
 62
7
  6
CONTINUOUS
 10
195.9670724721
 20
57.1800302661
  0
VERTEX
  8
0
 62
7
  6
CONTINUOUS
 10
195.9857597092
 20
57.230977648
  0
VERTEX
  8
0
 62
7
  6
CONTINUOUS
 10
196.0077458237
 20
57.2798640525
  0
VERTEX
  8
0
 62
7
  6
CONTINUOUS
 10
196.0330466426
 20
57.3258822315
  0
VERTEX
  8
0
 62
7
  6
CONTINUOUS
 10
196.0617341498
 20
57.3683560498
  0
VERTEX
  8
0
 62
7
  6
CONTINUOUS
 10
196.0937701443
 20
57.4065041273
  0
VERTEX
  8
0
 62
7
  6
CONTINUOUS
 10
196.129219265
 20
57.4395784538
  0
VERTEX
  8
0
 62
7
  6
CONTINUOUS
 10
196.1676561871
 20
57.4663394083
  0
VERTEX
  8
0
 62
7
  6
CONTINUOUS
 10
196.2084597353
 20
57.4854216239
  0
VERTEX
  8
0
 62
7
  6
CONTINUOUS
 10
196.2497723579
 20
57.4951211286
  0
VERTEX
  8
0
 62
7
  6
CONTINUOUS
 10
196.26746193
 20
57.4961697439
  0
SEQEND
  0
LINE
  8
0
 62
7
  6
CONTINUOUS
 10
195.8914745515
 20
55.8815061665
 11
195.8890324969
 21
56.1645203356
  0
LINE
  8
0
 62
7
  6
CONTINUOUS
 10
196.0629028344
 20
101.2724268057
 11
196.0653188088
 21
100.9894050689
  0
LINE
  8
0
 62
7
  6
CONTINUOUS
 10
195.8914745515
 20
55.8815061665
 11
195.8920309284
 21
50.333405226
  0
LINE
  8
0
 62
7
  6
CONTINUOUS
 10
196.0623672421
 20
106.8165149312
 11
196.0629028344
 21
101.2724268057
  0
LINE
  8
0
 62
7
  6
CONTINUOUS
 10
196.0624265503
 20
106.8175968826
 11
196.062367245
 21
106.8165769427
  0
LINE
  8
0
 62
7
  6
CONTINUOUS
 10
195.8920309283
 20
50.333373113
 11
195.8919716023
 21
50.3323650758
  0
LINE
  8
0
 62
7
  6
CONTINUOUS
 10
194.819826999
 20
46.0405477255
 11
194.8357293734
 21
46.1452732705
  0
POLYLINE
  8
0
 62
7
  6
CONTINUOUS
 66
1
 70
0
  0
VERTEX
  8
0
 62
7
  6
CONTINUOUS
 10
213.9227299114
 20
111.013745569
  0
VERTEX
  8
0
 62
7
  6
CONTINUOUS
 10
213.7429466362
 20
110.6127963473
  0
VERTEX
  8
0
 62
7
  6
CONTINUOUS
 10
213.567882098
 20
110.1471833065
  0
VERTEX
  8
0
 62
7
  6
CONTINUOUS
 10
213.4091136961
 20
109.645558826
  0
VERTEX
  8
0
 62
7
  6
CONTINUOUS
 10
213.2664089503
 20
109.1122226238
  0
VERTEX
  8
0
 62
7
  6
CONTINUOUS
 10
213.1397207168
 20
108.5518316021
  0
VERTEX
  8
0
 62
7
  6
CONTINUOUS
 10
213.0290331857
 20
107.9692207965
  0
VERTEX
  8
0
 62
7
  6
CONTINUOUS
 10
212.9343043344
 20
107.3693958696
  0
VERTEX
  8
0
 62
7
  6
CONTINUOUS
 10
212.8624265207
 20
106.8176027482
  0
SEQEND
  0
POLYLINE
  8
0
 62
7
  6
CONTINUOUS
 66
1
 70
0
  0
VERTEX
  8
0
 62
7
  6
CONTINUOUS
 10
198.0210103808
 20
112.4749787504
  0
VERTEX
  8
0
 62
7
  6
CONTINUOUS
 10
197.9560555113
 20
112.4719350425
  0
VERTEX
  8
0
 62
7
  6
CONTINUOUS
 10
197.8194166741
 20
112.4447468413
  0
VERTEX
  8
0
 62
7
  6
CONTINUOUS
 10
197.6944748421
 20
112.3919447248
  0
VERTEX
  8
0
 62
7
  6
CONTINUOUS
 10
197.5880451123
 20
112.3200857556
  0
VERTEX
  8
0
 62
7
  6
CONTINUOUS
 10
197.5028683418
 20
112.2376802393
  0
VERTEX
  8
0
 62
7
  6
CONTINUOUS
 10
197.4372697567
 20
112.1520233528
  0
VERTEX
  8
0
 62
7
  6
CONTINUOUS
 10
197.3863894058
 20
112.0660712403
  0
VERTEX
  8
0
 62
7
  6
CONTINUOUS
 10
197.3451494078
 20
111.9789381474
  0
VERTEX
  8
0
 62
7
  6
CONTINUOUS
 10
197.3098463688
 20
111.8881951477
  0
VERTEX
  8
0
 62
7
  6
CONTINUOUS
 10
197.2779350459
 20
111.7905749664
  0
VERTEX
  8
0
 62
7
  6
CONTINUOUS
 10
197.2478196564
 20
111.6827330407
  0
VERTEX
  8
0
 62
7
  6
CONTINUOUS
 10
197.2185689488
 20
111.5616173437
  0
VERTEX
  8
0
 62
7
  6
CONTINUOUS
 10
197.1896254284
 20
111.4243053663
  0
VERTEX
  8
0
 62
7
  6
CONTINUOUS
 10
197.1606453398
 20
111.2678296456
  0
VERTEX
  8
0
 62
7
  6
CONTINUOUS
 10
197.1345702688
 20
111.1094041595
  0
SEQEND
  0
POLYLINE
  8
0
 62
7
  6
CONTINUOUS
 66
1
 70
0
  0
VERTEX
  8
0
 62
7
  6
CONTINUOUS
 10
181.2210103808
 20
112.4749787504
  0
VERTEX
  8
0
 62
7
  6
CONTINUOUS
 10
181.1560555113
 20
112.4719350425
  0
VERTEX
  8
0
 62
7
  6
CONTINUOUS
 10
181.0194166741
 20
112.4447468413
  0
VERTEX
  8
0
 62
7
  6
CONTINUOUS
 10
180.8944748421
 20
112.3919447248
  0
VERTEX
  8
0
 62
7
  6
CONTINUOUS
 10
180.7880451123
 20
112.3200857556
  0
VERTEX
  8
0
 62
7
  6
CONTINUOUS
 10
180.7028683418
 20
112.2376802393
  0
VERTEX
  8
0
 62
7
  6
CONTINUOUS
 10
180.6372697567
 20
112.1520233528
  0
VERTEX
  8
0
 62
7
  6
CONTINUOUS
 10
180.5863894058
 20
112.0660712403
  0
VERTEX
  8
0
 62
7
  6
CONTINUOUS
 10
180.5451494078
 20
111.9789381474
  0
VERTEX
  8
0
 62
7
  6
CONTINUOUS
 10
180.5098463688
 20
111.8881951477
  0
VERTEX
  8
0
 62
7
  6
CONTINUOUS
 10
180.4779350459
 20
111.7905749664
  0
VERTEX
  8
0
 62
7
  6
CONTINUOUS
 10
180.4478196564
 20
111.6827330407
  0
VERTEX
  8
0
 62
7
  6
CONTINUOUS
 10
180.4185689488
 20
111.5616173437
  0
VERTEX
  8
0
 62
7
  6
CONTINUOUS
 10
180.3896254284
 20
111.4243053663
  0
VERTEX
  8
0
 62
7
  6
CONTINUOUS
 10
180.3606453398
 20
111.2678296456
  0
VERTEX
  8
0
 62
7
  6
CONTINUOUS
 10
180.3345702688
 20
111.1094041595
  0
SEQEND
  0
POLYLINE
  8
0
 62
7
  6
CONTINUOUS
 66
1
 70
0
  0
VERTEX
  8
0
 62
7
  6
CONTINUOUS
 10
164.4210103808
 20
112.4749787504
  0
VERTEX
  8
0
 62
7
  6
CONTINUOUS
 10
164.3560555113
 20
112.4719350425
  0
VERTEX
  8
0
 62
7
  6
CONTINUOUS
 10
164.2194166741
 20
112.4447468413
  0
VERTEX
  8
0
 62
7
  6
CONTINUOUS
 10
164.0944748421
 20
112.3919447248
  0
VERTEX
  8
0
 62
7
  6
CONTINUOUS
 10
163.9880451123
 20
112.3200857556
  0
VERTEX
  8
0
 62
7
  6
CONTINUOUS
 10
163.9028683418
 20
112.2376802393
  0
VERTEX
  8
0
 62
7
  6
CONTINUOUS
 10
163.8372697567
 20
112.1520233528
  0
VERTEX
  8
0
 62
7
  6
CONTINUOUS
 10
163.7863894058
 20
112.0660712403
  0
VERTEX
  8
0
 62
7
  6
CONTINUOUS
 10
163.7451494078
 20
111.9789381474
  0
VERTEX
  8
0
 62
7
  6
CONTINUOUS
 10
163.7098463688
 20
111.8881951477
  0
VERTEX
  8
0
 62
7
  6
CONTINUOUS
 10
163.6779350459
 20
111.7905749664
  0
VERTEX
  8
0
 62
7
  6
CONTINUOUS
 10
163.6478196564
 20
111.6827330407
  0
VERTEX
  8
0
 62
7
  6
CONTINUOUS
 10
163.6185689488
 20
111.5616173437
  0
VERTEX
  8
0
 62
7
  6
CONTINUOUS
 10
163.5896254284
 20
111.4243053663
  0
VERTEX
  8
0
 62
7
  6
CONTINUOUS
 10
163.5606453398
 20
111.2678296456
  0
VERTEX
  8
0
 62
7
  6
CONTINUOUS
 10
163.5345702688
 20
111.1094041595
  0
SEQEND
  0
POLYLINE
  8
0
 62
7
  6
CONTINUOUS
 66
1
 70
0
  0
VERTEX
  8
0
 62
7
  6
CONTINUOUS
 10
147.6210103808
 20
112.4749787504
  0
VERTEX
  8
0
 62
7
  6
CONTINUOUS
 10
147.5560555113
 20
112.4719350425
  0
VERTEX
  8
0
 62
7
  6
CONTINUOUS
 10
147.4194166741
 20
112.4447468413
  0
VERTEX
  8
0
 62
7
  6
CONTINUOUS
 10
147.2944748421
 20
112.3919447248
  0
VERTEX
  8
0
 62
7
  6
CONTINUOUS
 10
147.1880451123
 20
112.3200857556
  0
VERTEX
  8
0
 62
7
  6
CONTINUOUS
 10
147.1028683418
 20
112.2376802393
  0
VERTEX
  8
0
 62
7
  6
CONTINUOUS
 10
147.0372697567
 20
112.1520233528
  0
VERTEX
  8
0
 62
7
  6
CONTINUOUS
 10
146.9863894058
 20
112.0660712403
  0
VERTEX
  8
0
 62
7
  6
CONTINUOUS
 10
146.9451494078
 20
111.9789381474
  0
VERTEX
  8
0
 62
7
  6
CONTINUOUS
 10
146.9098463688
 20
111.8881951477
  0
VERTEX
  8
0
 62
7
  6
CONTINUOUS
 10
146.8779350459
 20
111.7905749664
  0
VERTEX
  8
0
 62
7
  6
CONTINUOUS
 10
146.8478196564
 20
111.6827330407
  0
VERTEX
  8
0
 62
7
  6
CONTINUOUS
 10
146.8185689488
 20
111.5616173437
  0
VERTEX
  8
0
 62
7
  6
CONTINUOUS
 10
146.7896254284
 20
111.4243053663
  0
VERTEX
  8
0
 62
7
  6
CONTINUOUS
 10
146.7606453398
 20
111.2678296456
  0
VERTEX
  8
0
 62
7
  6
CONTINUOUS
 10
146.7345702688
 20
111.1094041595
  0
SEQEND
  0
POLYLINE
  8
0
 62
7
  6
CONTINUOUS
 66
1
 70
0
  0
VERTEX
  8
0
 62
7
  6
CONTINUOUS
 10
130.8210103808
 20
112.4749787504
  0
VERTEX
  8
0
 62
7
  6
CONTINUOUS
 10
130.7560555113
 20
112.4719350425
  0
VERTEX
  8
0
 62
7
  6
CONTINUOUS
 10
130.6194166741
 20
112.4447468413
  0
VERTEX
  8
0
 62
7
  6
CONTINUOUS
 10
130.4944748421
 20
112.3919447248
  0
VERTEX
  8
0
 62
7
  6
CONTINUOUS
 10
130.3880451123
 20
112.3200857556
  0
VERTEX
  8
0
 62
7
  6
CONTINUOUS
 10
130.3028683418
 20
112.2376802393
  0
VERTEX
  8
0
 62
7
  6
CONTINUOUS
 10
130.2372697567
 20
112.1520233528
  0
VERTEX
  8
0
 62
7
  6
CONTINUOUS
 10
130.1863894058
 20
112.0660712403
  0
VERTEX
  8
0
 62
7
  6
CONTINUOUS
 10
130.1451494078
 20
111.9789381474
  0
VERTEX
  8
0
 62
7
  6
CONTINUOUS
 10
130.1098463688
 20
111.8881951477
  0
VERTEX
  8
0
 62
7
  6
CONTINUOUS
 10
130.0779350459
 20
111.7905749664
  0
VERTEX
  8
0
 62
7
  6
CONTINUOUS
 10
130.0478196564
 20
111.6827330407
  0
VERTEX
  8
0
 62
7
  6
CONTINUOUS
 10
130.0185689488
 20
111.5616173437
  0
VERTEX
  8
0
 62
7
  6
CONTINUOUS
 10
129.9896254284
 20
111.4243053663
  0
VERTEX
  8
0
 62
7
  6
CONTINUOUS
 10
129.9606453398
 20
111.2678296456
  0
VERTEX
  8
0
 62
7
  6
CONTINUOUS
 10
129.9345702688
 20
111.1094041595
  0
SEQEND
  0
POLYLINE
  8
0
 62
7
  6
CONTINUOUS
 66
1
 70
0
  0
VERTEX
  8
0
 62
7
  6
CONTINUOUS
 10
114.0210103808
 20
112.4749787504
  0
VERTEX
  8
0
 62
7
  6
CONTINUOUS
 10
113.9560555113
 20
112.4719350425
  0
VERTEX
  8
0
 62
7
  6
CONTINUOUS
 10
113.8194166741
 20
112.4447468413
  0
VERTEX
  8
0
 62
7
  6
CONTINUOUS
 10
113.6944748421
 20
112.3919447248
  0
VERTEX
  8
0
 62
7
  6
CONTINUOUS
 10
113.5880451123
 20
112.3200857556
  0
VERTEX
  8
0
 62
7
  6
CONTINUOUS
 10
113.5028683418
 20
112.2376802393
  0
VERTEX
  8
0
 62
7
  6
CONTINUOUS
 10
113.4372697567
 20
112.1520233528
  0
VERTEX
  8
0
 62
7
  6
CONTINUOUS
 10
113.3863894058
 20
112.0660712403
  0
VERTEX
  8
0
 62
7
  6
CONTINUOUS
 10
113.3451494078
 20
111.9789381474
  0
VERTEX
  8
0
 62
7
  6
CONTINUOUS
 10
113.3098463688
 20
111.8881951477
  0
VERTEX
  8
0
 62
7
  6
CONTINUOUS
 10
113.2779350459
 20
111.7905749664
  0
VERTEX
  8
0
 62
7
  6
CONTINUOUS
 10
113.2478196564
 20
111.6827330407
  0
VERTEX
  8
0
 62
7
  6
CONTINUOUS
 10
113.2185689488
 20
111.5616173437
  0
VERTEX
  8
0
 62
7
  6
CONTINUOUS
 10
113.1896254284
 20
111.4243053663
  0
VERTEX
  8
0
 62
7
  6
CONTINUOUS
 10
113.1606453398
 20
111.2678296456
  0
VERTEX
  8
0
 62
7
  6
CONTINUOUS
 10
113.1345702688
 20
111.1094041595
  0
SEQEND
  0
POLYLINE
  8
0
 62
7
  6
CONTINUOUS
 66
1
 70
0
  0
VERTEX
  8
0
 62
7
  6
CONTINUOUS
 10
97.2210103822
 20
112.4749787504
  0
VERTEX
  8
0
 62
7
  6
CONTINUOUS
 10
97.1560550688
 20
112.4719350007
  0
VERTEX
  8
0
 62
7
  6
CONTINUOUS
 10
97.0194161155
 20
112.4447466689
  0
VERTEX
  8
0
 62
7
  6
CONTINUOUS
 10
96.8944743418
 20
112.3919444514
  0
VERTEX
  8
0
 62
7
  6
CONTINUOUS
 10
96.7880446863
 20
112.3200854066
  0
VERTEX
  8
0
 62
7
  6
CONTINUOUS
 10
96.7028679401
 20
112.2376797828
  0
VERTEX
  8
0
 62
7
  6
CONTINUOUS
 10
96.6372693905
 20
112.152022804
  0
VERTEX
  8
0
 62
7
  6
CONTINUOUS
 10
96.5863890796
 20
112.0660706199
  0
VERTEX
  8
0
 62
7
  6
CONTINUOUS
 10
96.545149126
 20
111.9789374875
  0
VERTEX
  8
0
 62
7
  6
CONTINUOUS
 10
96.5098461334
 20
111.8881944854
  0
VERTEX
  8
0
 62
7
  6
CONTINUOUS
 10
96.4779348467
 20
111.7905743058
  0
VERTEX
  8
0
 62
7
  6
CONTINUOUS
 10
96.4478194903
 20
111.6827324004
  0
VERTEX
  8
0
 62
7
  6
CONTINUOUS
 10
96.4185688175
 20
111.5616167616
  0
VERTEX
  8
0
 62
7
  6
CONTINUOUS
 10
96.389625336
 20
111.4243048984
  0
VERTEX
  8
0
 62
7
  6
CONTINUOUS
 10
96.3606452916
 20
111.2678293685
  0
VERTEX
  8
0
 62
7
  6
CONTINUOUS
 10
96.3345702688
 20
111.1094041595
  0
SEQEND
  0
LINE
  8
0
 62
7
  6
CONTINUOUS
 10
97.2209060897
 20
112.4749788373
 11
101.5334881399
 21
112.4749788373
  0
LINE
  8
0
 62
7
  6
CONTINUOUS
 10
114.0209100306
 20
112.4749788373
 11
118.3334881399
 21
112.4749788373
  0
LINE
  8
0
 62
7
  6
CONTINUOUS
 10
130.8209100306
 20
112.4749788373
 11
135.1334881399
 21
112.4749788373
  0
LINE
  8
0
 62
7
  6
CONTINUOUS
 10
147.6209100306
 20
112.4749788373
 11
151.9334881399
 21
112.4749788373
  0
LINE
  8
0
 62
7
  6
CONTINUOUS
 10
164.4209100306
 20
112.4749788373
 11
168.7334881399
 21
112.4749788373
  0
LINE
  8
0
 62
7
  6
CONTINUOUS
 10
181.2209100306
 20
112.4749788373
 11
185.5334881399
 21
112.4749788373
  0
LINE
  8
0
 62
7
  6
CONTINUOUS
 10
198.0209100306
 20
112.4749788373
 11
202.3334881399
 21
112.4749788373
  0
LINE
  8
0
 62
7
  6
CONTINUOUS
 10
214.8209100306
 20
112.4749788373
 11
219.1334881399
 21
112.4749788373
  0
LINE
  8
0
 62
7
  6
CONTINUOUS
 10
231.6209029939
 20
112.4749788373
 11
237.6771801731
 21
112.4749788373
  0
LINE
  8
0
 62
7
  6
CONTINUOUS
 10
186.6114515343
 20
110.6127963473
 11
186.4316682591
 21
111.013745569
  0
POLYLINE
  8
0
 62
7
  6
CONTINUOUS
 66
1
 70
0
  0
VERTEX
  8
0
 62
7
  6
CONTINUOUS
 10
205.5345701791
 20
46.0405540908
  0
VERTEX
  8
0
 62
7
  6
CONTINUOUS
 10
205.5603761144
 20
45.8836759523
  0
VERTEX
  8
0
 62
7
  6
CONTINUOUS
 10
205.5893690318
 20
45.7269510073
  0
VERTEX
  8
0
 62
7
  6
CONTINUOUS
 10
205.6183245624
 20
45.589424798
  0
VERTEX
  8
0
 62
7
  6
CONTINUOUS
 10
205.6475855127
 20
45.4681278544
  0
VERTEX
  8
0
 62
7
  6
CONTINUOUS
 10
205.6777081028
 20
45.3601358249
  0
VERTEX
  8
0
 62
7
  6
CONTINUOUS
 10
205.709621734
 20
45.2623949217
  0
VERTEX
  8
0
 62
7
  6
CONTINUOUS
 10
205.7449196262
 20
45.171558055
  0
VERTEX
  8
0
 62
7
  6
CONTINUOUS
 10
205.7861450972
 20
45.0843514672
  0
VERTEX
  8
0
 62
7
  6
CONTINUOUS
 10
205.8370011198
 20
44.9983371414
  0
VERTEX
  8
0
 62
7
  6
CONTINUOUS
 10
205.9025725777
 20
44.9126137202
  0
VERTEX
  8
0
 62
7
  6
CONTINUOUS
 10
205.987739269
 20
44.8301226833
  0
VERTEX
  8
0
 62
7
  6
CONTINUOUS
 10
206.0941955211
 20
44.7581656862
  0
VERTEX
  8
0
 62
7
  6
CONTINUOUS
 10
206.2192069551
 20
44.7052755893
  0
VERTEX
  8
0
 62
7
  6
CONTINUOUS
 10
206.3559462112
 20
44.6780329482
  0
VERTEX
  8
0
 62
7
  6
CONTINUOUS
 10
206.4210106932
 20
44.6749789245
  0
SEQEND
  0
LINE
  8
0
 62
7
  6
CONTINUOUS
 10
205.5186687971
 20
46.1452732702
 11
205.5345711714
 21
46.0405477255
  0
LINE
  8
0
 62
7
  6
CONTINUOUS
 10
204.4624265469
 20
50.3323608201
 11
204.462367245
 21
50.3333807318
  0
LINE
  8
0
 62
7
  6
CONTINUOUS
 10
204.2919716202
 20
106.8175968826
 11
204.2920309254
 21
106.8165769427
  0
POLYLINE
  8
0
 62
7
  6
CONTINUOUS
 66
1
 70
0
  0
VERTEX
  8
0
 62
7
  6
CONTINUOUS
 10
204.2851857054
 20
100.7037276
  0
VERTEX
  8
0
 62
7
  6
CONTINUOUS
 10
204.2890328999
 20
100.9854411824
  0
VERTEX
  8
0
 62
7
  6
CONTINUOUS
 10
204.2914746437
 20
101.2684533839
  0
VERTEX
  8
0
 62
7
  6
CONTINUOUS
 10
204.2920309284
 20
106.8165149312
  0
SEQEND
  0
POLYLINE
  8
0
 62
7
  6
CONTINUOUS
 66
1
 70
0
  0
VERTEX
  8
0
 62
7
  6
CONTINUOUS
 10
204.4691647752
 20
56.4420826357
  0
VERTEX
  8
0
 62
7
  6
CONTINUOUS
 10
204.4653188091
 20
56.160552555
  0
VERTEX
  8
0
 62
7
  6
CONTINUOUS
 10
204.4629028346
 20
55.8775308944
  0
VERTEX
  8
0
 62
7
  6
CONTINUOUS
 10
204.4623672421
 20
50.3334427433
  0
SEQEND
  0
POLYLINE
  8
0
 62
7
  6
CONTINUOUS
 66
1
 70
0
  0
VERTEX
  8
0
 62
7
  6
CONTINUOUS
 10
194.8316693022
 20
46.1362142316
  0
VERTEX
  8
0
 62
7
  6
CONTINUOUS
 10
195.0123960293
 20
46.539460971
  0
VERTEX
  8
0
 62
7
  6
CONTINUOUS
 10
195.1873898472
 20
47.0053117023
  0
VERTEX
  8
0
 62
7
  6
CONTINUOUS
 10
195.3460878002
 20
47.5071622223
  0
VERTEX
  8
0
 62
7
  6
CONTINUOUS
 10
195.4887205759
 20
48.0407100557
  0
VERTEX
  8
0
 62
7
  6
CONTINUOUS
 10
195.6153344757
 20
48.6012958866
  0
VERTEX
  8
0
 62
7
  6
CONTINUOUS
 10
195.7259450866
 20
49.1840830216
  0
VERTEX
  8
0
 62
7
  6
CONTINUOUS
 10
195.8205945463
 20
49.78406461
  0
VERTEX
  8
0
 62
7
  6
CONTINUOUS
 10
195.8919716531
 20
50.3323549545
  0
SEQEND
  0
POLYLINE
  8
0
 62
7
  6
CONTINUOUS
 66
1
 70
0
  0
VERTEX
  8
0
 62
7
  6
CONTINUOUS
 10
195.8919716023
 20
50.3323650758
  0
VERTEX
  8
0
 62
7
  6
CONTINUOUS
 10
195.8861599019
 20
50.3237681779
  0
VERTEX
  8
0
 62
7
  6
CONTINUOUS
 10
195.8670731489
 20
50.3149748594
  0
VERTEX
  8
0
 62
7
  6
CONTINUOUS
 10
195.8358719018
 20
50.3082464166
  0
VERTEX
  8
0
 62
7
  6
CONTINUOUS
 10
195.794553356
 20
50.3039267133
  0
VERTEX
  8
0
 62
7
  6
CONTINUOUS
 10
195.7458570098
 20
50.3021378266
  0
VERTEX
  8
0
 62
7
  6
CONTINUOUS
 10
195.6920309284
 20
50.302697514
  0
SEQEND
  0
POLYLINE
  8
0
 62
6
  6
CONTINUOUS
 66
1
 70
0
  0
VERTEX
  8
0
 62
6
  6
CONTINUOUS
 10
229.4843316148
 20
50.3454308018
  0
VERTEX
  8
0
 62
6
  6
CONTINUOUS
 10
229.491998225
 20
50.3341227239
  0
VERTEX
  8
0
 62
6
  6
CONTINUOUS
 10
229.4861599019
 20
50.3237681779
  0
SEQEND
  0
LINE
  8
0
 62
7
  6
CONTINUOUS
 10
222.142002185
 20
46.5394608641
 11
222.3227288682
 21
46.1362142316
  0
POLYLINE
  8
0
 62
7
  6
CONTINUOUS
 66
1
 70
0
  0
VERTEX
  8
0
 62
7
  6
CONTINUOUS
 10
204.4624265173
 20
50.3323549544
  0
VERTEX
  8
0
 62
7
  6
CONTINUOUS
 10
204.5338037724
 20
49.7840635721
  0
VERTEX
  8
0
 62
7
  6
CONTINUOUS
 10
204.6284532338
 20
49.1840821566
  0
VERTEX
  8
0
 62
7
  6
CONTINUOUS
 10
204.7390638386
 20
48.6012951922
  0
VERTEX
  8
0
 62
7
  6
CONTINUOUS
 10
204.8656777248
 20
48.0407095259
  0
VERTEX
  8
0
 62
7
  6
CONTINUOUS
 10
205.0083104792
 20
47.5071618475
  0
VERTEX
  8
0
 62
7
  6
CONTINUOUS
 10
205.1670084034
 20
47.0053114695
  0
VERTEX
  8
0
 62
7
  6
CONTINUOUS
 10
205.342002185
 20
46.5394608641
  0
SEQEND
  0
POLYLINE
  8
0
 62
7
  6
CONTINUOUS
 66
1
 70
0
  0
VERTEX
  8
0
 62
7
  6
CONTINUOUS
 10
212.6890324969
 20
56.1645203356
  0
VERTEX
  8
0
 62
7
  6
CONTINUOUS
 10
212.6851849284
 20
56.4462443998
  0
VERTEX
  8
0
 62
7
  6
CONTINUOUS
 10
212.6848859869
 20
56.513378549
  0
VERTEX
  8
0
 62
7
  6
CONTINUOUS
 10
212.6855408545
 20
56.5795940824
  0
VERTEX
  8
0
 62
7
  6
CONTINUOUS
 10
212.6872379946
 20
56.6448393979
  0
VERTEX
  8
0
 62
7
  6
CONTINUOUS
 10
212.6900822075
 20
56.7090701136
  0
VERTEX
  8
0
 62
7
  6
CONTINUOUS
 10
212.6941816617
 20
56.7722862591
  0
VERTEX
  8
0
 62
7
  6
CONTINUOUS
 10
212.6996340091
 20
56.8344650173
  0
VERTEX
  8
0
 62
7
  6
CONTINUOUS
 10
212.7065348197
 20
56.8954810501
  0
VERTEX
  8
0
 62
7
  6
CONTINUOUS
 10
212.7149820468
 20
56.9550818486
  0
VERTEX
  8
0
 62
7
  6
CONTINUOUS
 10
212.7251044638
 20
57.0134024597
  0
VERTEX
  8
0
 62
7
  6
CONTINUOUS
 10
212.7370166058
 20
57.0704723865
  0
VERTEX
  8
0
 62
7
  6
CONTINUOUS
 10
212.7509709524
 20
57.1262916894
  0
VERTEX
  8
0
 62
7
  6
CONTINUOUS
 10
212.7670724721
 20
57.1800302661
  0
VERTEX
  8
0
 62
7
  6
CONTINUOUS
 10
212.7857597092
 20
57.230977648
  0
VERTEX
  8
0
 62
7
  6
CONTINUOUS
 10
212.8077458237
 20
57.2798640525
  0
VERTEX
  8
0
 62
7
  6
CONTINUOUS
 10
212.8330466426
 20
57.3258822315
  0
VERTEX
  8
0
 62
7
  6
CONTINUOUS
 10
212.8617341498
 20
57.3683560498
  0
VERTEX
  8
0
 62
7
  6
CONTINUOUS
 10
212.8937701443
 20
57.4065041273
  0
VERTEX
  8
0
 62
7
  6
CONTINUOUS
 10
212.929219265
 20
57.4395784538
  0
VERTEX
  8
0
 62
7
  6
CONTINUOUS
 10
212.9676561871
 20
57.4663394083
  0
VERTEX
  8
0
 62
7
  6
CONTINUOUS
 10
213.0084597353
 20
57.4854216239
  0
VERTEX
  8
0
 62
7
  6
CONTINUOUS
 10
213.0497723579
 20
57.4951211286
  0
VERTEX
  8
0
 62
7
  6
CONTINUOUS
 10
213.06746193
 20
57.4961697439
  0
SEQEND
  0
LINE
  8
0
 62
7
  6
CONTINUOUS
 10
212.6914745515
 20
55.8815061665
 11
212.6890324969
 21
56.1645203356
  0
LINE
  8
0
 62
7
  6
CONTINUOUS
 10
212.6914745515
 20
55.8815061665
 11
212.6920309284
 21
50.333405226
  0
LINE
  8
0
 62
7
  6
CONTINUOUS
 10
212.8624265503
 20
106.8175968826
 11
212.862367245
 21
106.8165769427
  0
LINE
  8
0
 62
7
  6
CONTINUOUS
 10
213.934571307
 20
111.1094108189
 11
213.9186665225
 21
111.0046834769
  0
POLYLINE
  8
0
 62
7
  6
CONTINUOUS
 66
1
 70
0
  0
VERTEX
  8
0
 62
7
  6
CONTINUOUS
 10
230.7227299114
 20
111.013745569
  0
VERTEX
  8
0
 62
7
  6
CONTINUOUS
 10
230.5429466362
 20
110.6127963473
  0
VERTEX
  8
0
 62
7
  6
CONTINUOUS
 10
230.367882098
 20
110.1471833065
  0
VERTEX
  8
0
 62
7
  6
CONTINUOUS
 10
230.2091136961
 20
109.645558826
  0
VERTEX
  8
0
 62
7
  6
CONTINUOUS
 10
230.0664089503
 20
109.1122226238
  0
VERTEX
  8
0
 62
7
  6
CONTINUOUS
 10
229.9397207168
 20
108.5518316021
  0
VERTEX
  8
0
 62
7
  6
CONTINUOUS
 10
229.8290331857
 20
107.9692207965
  0
VERTEX
  8
0
 62
7
  6
CONTINUOUS
 10
229.7343043344
 20
107.3693958696
  0
VERTEX
  8
0
 62
7
  6
CONTINUOUS
 10
229.6624265207
 20
106.8176027482
  0
SEQEND
  0
POLYLINE
  8
0
 62
6
  6
CONTINUOUS
 66
1
 70
0
  0
VERTEX
  8
0
 62
6
  6
CONTINUOUS
 10
221.2654401605
 20
50.3263113792
  0
VERTEX
  8
0
 62
6
  6
CONTINUOUS
 10
221.2626420342
 20
50.3355728009
  0
VERTEX
  8
0
 62
6
  6
CONTINUOUS
 10
221.2700668683
 20
50.3454310621
  0
SEQEND
  0
POLYLINE
  8
0
 62
7
  6
CONTINUOUS
 66
1
 70
0
  0
VERTEX
  8
0
 62
7
  6
CONTINUOUS
 10
203.2198278966
 20
111.1094041917
  0
VERTEX
  8
0
 62
7
  6
CONTINUOUS
 10
203.193781662
 20
111.2676639638
  0
VERTEX
  8
0
 62
7
  6
CONTINUOUS
 10
203.1648329525
 20
111.4240005219
  0
VERTEX
  8
0
 62
7
  6
CONTINUOUS
 10
203.1359242939
 20
111.5611956069
  0
VERTEX
  8
0
 62
7
  6
CONTINUOUS
 10
203.1067138672
 20
111.6822110355
  0
VERTEX
  8
0
 62
7
  6
CONTINUOUS
 10
203.0766477733
 20
111.7899622703
  0
VERTEX
  8
0
 62
7
  6
CONTINUOUS
 10
203.0448015309
 20
111.8874920606
  0
VERTEX
  8
0
 62
7
  6
CONTINUOUS
 10
203.009593124
 20
111.9781308461
  0
VERTEX
  8
0
 62
7
  6
CONTINUOUS
 10
202.9685076774
 20
112.0651209835
  0
VERTEX
  8
0
 62
7
  6
CONTINUOUS
 10
202.9178830163
 20
112.1508905997
  0
VERTEX
  8
0
 62
7
  6
CONTINUOUS
 10
202.8526842666
 20
112.2363653785
  0
VERTEX
  8
0
 62
7
  6
CONTINUOUS
 10
202.7680535926
 20
112.3186878229
  0
VERTEX
  8
0
 62
7
  6
CONTINUOUS
 10
202.6622325707
 20
112.3906768883
  0
VERTEX
  8
0
 62
7
  6
CONTINUOUS
 10
202.5378940829
 20
112.443840819
  0
VERTEX
  8
0
 62
7
  6
CONTINUOUS
 10
202.401832932
 20
112.4715968952
  0
VERTEX
  8
0
 62
7
  6
CONTINUOUS
 10
202.3333863502
 20
112.4749787489
  0
SEQEND
  0
LINE
  8
0
 62
7
  6
CONTINUOUS
 10
203.2357316479
 20
111.0046834769
 11
203.2198268634
 21
111.1094108189
  0
POLYLINE
  8
0
 62
7
  6
CONTINUOUS
 66
1
 70
0
  0
VERTEX
  8
0
 62
7
  6
CONTINUOUS
 10
204.2919716498
 20
106.8176027482
  0
VERTEX
  8
0
 62
7
  6
CONTINUOUS
 10
204.220093836
 20
107.3693958696
  0
VERTEX
  8
0
 62
7
  6
CONTINUOUS
 10
204.1253649847
 20
107.9692207965
  0
VERTEX
  8
0
 62
7
  6
CONTINUOUS
 10
204.0146774537
 20
108.5518316021
  0
VERTEX
  8
0
 62
7
  6
CONTINUOUS
 10
203.8879892201
 20
109.1122226238
  0
VERTEX
  8
0
 62
7
  6
CONTINUOUS
 10
203.7452844743
 20
109.645558826
  0
VERTEX
  8
0
 62
7
  6
CONTINUOUS
 10
203.5865160724
 20
110.1471833065
  0
VERTEX
  8
0
 62
7
  6
CONTINUOUS
 10
203.4114515343
 20
110.6127963473
  0
SEQEND
  0
POLYLINE
  8
0
 62
7
  6
CONTINUOUS
 66
1
 70
0
  0
VERTEX
  8
0
 62
7
  6
CONTINUOUS
 10
212.8653188088
 20
100.9894050689
  0
VERTEX
  8
0
 62
7
  6
CONTINUOUS
 10
212.8691658018
 20
100.7077873804
  0
VERTEX
  8
0
 62
7
  6
CONTINUOUS
 10
212.8695195745
 20
100.6405063934
  0
VERTEX
  8
0
 62
7
  6
CONTINUOUS
 10
212.8689215096
 20
100.5741461565
  0
VERTEX
  8
0
 62
7
  6
CONTINUOUS
 10
212.8672839089
 20
100.5087574021
  0
VERTEX
  8
0
 62
7
  6
CONTINUOUS
 10
212.8645028106
 20
100.4443886571
  0
VERTEX
  8
0
 62
7
  6
CONTINUOUS
 10
212.8604693345
 20
100.3810415188
  0
VERTEX
  8
0
 62
7
  6
CONTINUOUS
 10
212.8550852337
 20
100.3187370218
  0
VERTEX
  8
0
 62
7
  6
CONTINUOUS
 10
212.8482544551
 20
100.2575899337
  0
VERTEX
  8
0
 62
7
  6
CONTINUOUS
 10
212.8398861409
 20
100.1978778826
  0
VERTEX
  8
0
 62
7
  6
CONTINUOUS
 10
212.8298414084
 20
100.1394608647
  0
VERTEX
  8
0
 62
7
  6
CONTINUOUS
 10
212.8180029228
 20
100.0822147818
  0
VERTEX
  8
0
 62
7
  6
CONTINUOUS
 10
212.8041617057
 20
100.026362971
  0
VERTEX
  8
0
 62
7
  6
CONTINUOUS
 10
212.788125348
 20
99.9723780652
  0
VERTEX
  8
0
 62
7
  6
CONTINUOUS
 10
212.7695535519
 20
99.9212433888
  0
VERTEX
  8
0
 62
7
  6
CONTINUOUS
 10
212.7477056221
 20
99.8722245339
  0
VERTEX
  8
0
 62
7
  6
CONTINUOUS
 10
212.7225286199
 20
99.8260211098
  0
VERTEX
  8
0
 62
7
  6
CONTINUOUS
 10
212.6939645325
 20
99.7833436928
  0
VERTEX
  8
0
 62
7
  6
CONTINUOUS
 10
212.6620454351
 20
99.7449644354
  0
VERTEX
  8
0
 62
7
  6
CONTINUOUS
 10
212.626719367
 20
99.7116407224
  0
VERTEX
  8
0
 62
7
  6
CONTINUOUS
 10
212.5883937822
 20
99.6845898116
  0
VERTEX
  8
0
 62
7
  6
CONTINUOUS
 10
212.5476615703
 20
99.6651533604
  0
VERTEX
  8
0
 62
7
  6
CONTINUOUS
 10
212.5063532291
 20
99.6550420758
  0
VERTEX
  8
0
 62
7
  6
CONTINUOUS
 10
212.4867624668
 20
99.653787373
  0
SEQEND
  0
LINE
  8
0
 62
7
  6
CONTINUOUS
 10
212.8629028344
 20
101.2724268057
 11
212.8653188088
 21
100.9894050689
  0
LINE
  8
0
 62
7
  6
CONTINUOUS
 10
212.8623672421
 20
106.8165149312
 11
212.8629028344
 21
101.2724268057
  0
LINE
  8
0
 62
6
  6
CONTINUOUS
 10
216.9771990852
 20
57.4965271109
 11
216.9771990852
 21
112.4749755907
  0
LINE
  8
0
 62
7
  6
CONTINUOUS
 10
212.6920309283
 20
50.333373113
 11
212.6919716023
 21
50.3323650758
  0
LINE
  8
0
 62
7
  6
CONTINUOUS
 10
211.619826999
 20
46.0405477255
 11
211.6357293734
 21
46.1452732705
  0
POLYLINE
  8
0
 62
6
  6
CONTINUOUS
 66
1
 70
0
  0
VERTEX
  8
0
 62
6
  6
CONTINUOUS
 10
229.6654401609
 20
106.8236462957
  0
VERTEX
  8
0
 62
6
  6
CONTINUOUS
 10
229.6626420341
 20
106.8143848739
  0
VERTEX
  8
0
 62
6
  6
CONTINUOUS
 10
229.6700668683
 20
106.8045266124
  0
SEQEND
  0
LINE
  8
0
 62
7
  6
CONTINUOUS
 10
203.4114515343
 20
110.6127963473
 11
203.2316682591
 21
111.013745569
  0
POLYLINE
  8
0
 62
7
  6
CONTINUOUS
 66
1
 70
0
  0
VERTEX
  8
0
 62
7
  6
CONTINUOUS
 10
222.3345701791
 20
46.0405540908
  0
VERTEX
  8
0
 62
7
  6
CONTINUOUS
 10
222.3603761144
 20
45.8836759523
  0
VERTEX
  8
0
 62
7
  6
CONTINUOUS
 10
222.3893690318
 20
45.7269510073
  0
VERTEX
  8
0
 62
7
  6
CONTINUOUS
 10
222.4183245624
 20
45.589424798
  0
VERTEX
  8
0
 62
7
  6
CONTINUOUS
 10
222.4475855127
 20
45.4681278544
  0
VERTEX
  8
0
 62
7
  6
CONTINUOUS
 10
222.4777081028
 20
45.3601358249
  0
VERTEX
  8
0
 62
7
  6
CONTINUOUS
 10
222.509621734
 20
45.2623949217
  0
VERTEX
  8
0
 62
7
  6
CONTINUOUS
 10
222.5449196262
 20
45.171558055
  0
VERTEX
  8
0
 62
7
  6
CONTINUOUS
 10
222.5861450972
 20
45.0843514672
  0
VERTEX
  8
0
 62
7
  6
CONTINUOUS
 10
222.6370011198
 20
44.9983371414
  0
VERTEX
  8
0
 62
7
  6
CONTINUOUS
 10
222.7025725777
 20
44.9126137202
  0
VERTEX
  8
0
 62
7
  6
CONTINUOUS
 10
222.787739269
 20
44.8301226833
  0
VERTEX
  8
0
 62
7
  6
CONTINUOUS
 10
222.8941955211
 20
44.7581656862
  0
VERTEX
  8
0
 62
7
  6
CONTINUOUS
 10
223.0192069551
 20
44.7052755893
  0
VERTEX
  8
0
 62
7
  6
CONTINUOUS
 10
223.1559462112
 20
44.6780329482
  0
VERTEX
  8
0
 62
7
  6
CONTINUOUS
 10
223.2210106932
 20
44.6749789245
  0
SEQEND
  0
LINE
  8
0
 62
7
  6
CONTINUOUS
 10
222.3186687971
 20
46.1452732702
 11
222.3345711714
 21
46.0405477255
  0
POLYLINE
  8
0
 62
7
  6
CONTINUOUS
 66
1
 70
0
  0
VERTEX
  8
0
 62
7
  6
CONTINUOUS
 10
221.2624265173
 20
50.3323549544
  0
VERTEX
  8
0
 62
7
  6
CONTINUOUS
 10
221.3338037724
 20
49.7840635721
  0
VERTEX
  8
0
 62
7
  6
CONTINUOUS
 10
221.4284532338
 20
49.1840821566
  0
VERTEX
  8
0
 62
7
  6
CONTINUOUS
 10
221.5390638386
 20
48.6012951922
  0
VERTEX
  8
0
 62
7
  6
CONTINUOUS
 10
221.6656777248
 20
48.0407095259
  0
VERTEX
  8
0
 62
7
  6
CONTINUOUS
 10
221.8083104792
 20
47.5071618475
  0
VERTEX
  8
0
 62
7
  6
CONTINUOUS
 10
221.9670084034
 20
47.0053114695
  0
VERTEX
  8
0
 62
7
  6
CONTINUOUS
 10
222.142002185
 20
46.5394608641
  0
SEQEND
  0
LINE
  8
0
 62
7
  6
CONTINUOUS
 10
221.2624265469
 20
50.3323608201
 11
221.262367245
 21
50.3333807318
  0
LINE
  8
0
 62
7
  6
CONTINUOUS
 10
221.0919716202
 20
106.8175968826
 11
221.0920309254
 21
106.8165769427
  0
POLYLINE
  8
0
 62
7
  6
CONTINUOUS
 66
1
 70
0
  0
VERTEX
  8
0
 62
7
  6
CONTINUOUS
 10
221.0851857054
 20
100.7037276
  0
VERTEX
  8
0
 62
7
  6
CONTINUOUS
 10
221.0890328999
 20
100.9854411824
  0
VERTEX
  8
0
 62
7
  6
CONTINUOUS
 10
221.0914746437
 20
101.2684533839
  0
VERTEX
  8
0
 62
7
  6
CONTINUOUS
 10
221.0920309284
 20
106.8165149312
  0
SEQEND
  0
POLYLINE
  8
0
 62
7
  6
CONTINUOUS
 66
1
 70
0
  0
VERTEX
  8
0
 62
7
  6
CONTINUOUS
 10
221.2691647752
 20
56.4420826357
  0
VERTEX
  8
0
 62
7
  6
CONTINUOUS
 10
221.2653188091
 20
56.160552555
  0
VERTEX
  8
0
 62
7
  6
CONTINUOUS
 10
221.2629028346
 20
55.8775308944
  0
VERTEX
  8
0
 62
7
  6
CONTINUOUS
 10
221.2623672421
 20
50.3334427433
  0
SEQEND
  0
LINE
  8
0
 62
7
  6
CONTINUOUS
 10
230.734571307
 20
111.1094108189
 11
230.7186665225
 21
111.0046834769
  0
POLYLINE
  8
0
 62
7
  6
CONTINUOUS
 66
1
 70
0
  0
VERTEX
  8
0
 62
7
  6
CONTINUOUS
 10
211.6316693022
 20
46.1362142316
  0
VERTEX
  8
0
 62
7
  6
CONTINUOUS
 10
211.8123960293
 20
46.539460971
  0
VERTEX
  8
0
 62
7
  6
CONTINUOUS
 10
211.9873898472
 20
47.0053117023
  0
VERTEX
  8
0
 62
7
  6
CONTINUOUS
 10
212.1460878002
 20
47.5071622223
  0
VERTEX
  8
0
 62
7
  6
CONTINUOUS
 10
212.2887205759
 20
48.0407100557
  0
VERTEX
  8
0
 62
7
  6
CONTINUOUS
 10
212.4153344757
 20
48.6012958866
  0
VERTEX
  8
0
 62
7
  6
CONTINUOUS
 10
212.5259450866
 20
49.1840830216
  0
VERTEX
  8
0
 62
7
  6
CONTINUOUS
 10
212.6205945463
 20
49.78406461
  0
VERTEX
  8
0
 62
7
  6
CONTINUOUS
 10
212.6919716531
 20
50.3323549545
  0
SEQEND
  0
POLYLINE
  8
0
 62
7
  6
CONTINUOUS
 66
1
 70
0
  0
VERTEX
  8
0
 62
7
  6
CONTINUOUS
 10
212.6919716023
 20
50.3323650758
  0
VERTEX
  8
0
 62
7
  6
CONTINUOUS
 10
212.6861599019
 20
50.3237681779
  0
VERTEX
  8
0
 62
7
  6
CONTINUOUS
 10
212.6670731489
 20
50.3149748594
  0
VERTEX
  8
0
 62
7
  6
CONTINUOUS
 10
212.6358719018
 20
50.3082464166
  0
VERTEX
  8
0
 62
7
  6
CONTINUOUS
 10
212.594553356
 20
50.3039267133
  0
VERTEX
  8
0
 62
7
  6
CONTINUOUS
 10
212.5458570098
 20
50.3021378266
  0
VERTEX
  8
0
 62
7
  6
CONTINUOUS
 10
212.4920309284
 20
50.302697514
  0
SEQEND
  0
POLYLINE
  8
0
 62
7
  6
CONTINUOUS
 66
1
 70
0
  0
VERTEX
  8
0
 62
7
  6
CONTINUOUS
 10
220.0198278966
 20
111.1094041917
  0
VERTEX
  8
0
 62
7
  6
CONTINUOUS
 10
219.993781662
 20
111.2676639638
  0
VERTEX
  8
0
 62
7
  6
CONTINUOUS
 10
219.9648329525
 20
111.4240005219
  0
VERTEX
  8
0
 62
7
  6
CONTINUOUS
 10
219.9359242939
 20
111.5611956069
  0
VERTEX
  8
0
 62
7
  6
CONTINUOUS
 10
219.9067138672
 20
111.6822110355
  0
VERTEX
  8
0
 62
7
  6
CONTINUOUS
 10
219.8766477733
 20
111.7899622703
  0
VERTEX
  8
0
 62
7
  6
CONTINUOUS
 10
219.8448015309
 20
111.8874920606
  0
VERTEX
  8
0
 62
7
  6
CONTINUOUS
 10
219.809593124
 20
111.9781308461
  0
VERTEX
  8
0
 62
7
  6
CONTINUOUS
 10
219.7685076774
 20
112.0651209835
  0
VERTEX
  8
0
 62
7
  6
CONTINUOUS
 10
219.7178830163
 20
112.1508905997
  0
VERTEX
  8
0
 62
7
  6
CONTINUOUS
 10
219.6526842666
 20
112.2363653785
  0
VERTEX
  8
0
 62
7
  6
CONTINUOUS
 10
219.5680535926
 20
112.3186878229
  0
VERTEX
  8
0
 62
7
  6
CONTINUOUS
 10
219.4622325707
 20
112.3906768883
  0
VERTEX
  8
0
 62
7
  6
CONTINUOUS
 10
219.3378940829
 20
112.443840819
  0
VERTEX
  8
0
 62
7
  6
CONTINUOUS
 10
219.201832932
 20
112.4715968952
  0
VERTEX
  8
0
 62
7
  6
CONTINUOUS
 10
219.1333863502
 20
112.4749787489
  0
SEQEND
  0
LINE
  8
0
 62
7
  6
CONTINUOUS
 10
220.0357316479
 20
111.0046834769
 11
220.0198268634
 21
111.1094108189
  0
POLYLINE
  8
0
 62
7
  6
CONTINUOUS
 66
1
 70
0
  0
VERTEX
  8
0
 62
7
  6
CONTINUOUS
 10
221.0919716498
 20
106.8176027482
  0
VERTEX
  8
0
 62
7
  6
CONTINUOUS
 10
221.020093836
 20
107.3693958696
  0
VERTEX
  8
0
 62
7
  6
CONTINUOUS
 10
220.9253649847
 20
107.9692207965
  0
VERTEX
  8
0
 62
7
  6
CONTINUOUS
 10
220.8146774537
 20
108.5518316021
  0
VERTEX
  8
0
 62
7
  6
CONTINUOUS
 10
220.6879892201
 20
109.1122226238
  0
VERTEX
  8
0
 62
7
  6
CONTINUOUS
 10
220.5452844743
 20
109.645558826
  0
VERTEX
  8
0
 62
7
  6
CONTINUOUS
 10
220.3865160724
 20
110.1471833065
  0
VERTEX
  8
0
 62
7
  6
CONTINUOUS
 10
220.2114515343
 20
110.6127963473
  0
SEQEND
  0
POLYLINE
  8
0
 62
7
  6
CONTINUOUS
 66
1
 70
0
  0
VERTEX
  8
0
 62
7
  6
CONTINUOUS
 10
229.6653188088
 20
100.9894050689
  0
VERTEX
  8
0
 62
7
  6
CONTINUOUS
 10
229.6691658018
 20
100.7077873804
  0
VERTEX
  8
0
 62
7
  6
CONTINUOUS
 10
229.6695195745
 20
100.6405063934
  0
VERTEX
  8
0
 62
7
  6
CONTINUOUS
 10
229.6689215096
 20
100.5741461565
  0
VERTEX
  8
0
 62
7
  6
CONTINUOUS
 10
229.6672839089
 20
100.5087574021
  0
VERTEX
  8
0
 62
7
  6
CONTINUOUS
 10
229.6645028106
 20
100.4443886571
  0
VERTEX
  8
0
 62
7
  6
CONTINUOUS
 10
229.6604693345
 20
100.3810415188
  0
VERTEX
  8
0
 62
7
  6
CONTINUOUS
 10
229.6550852337
 20
100.3187370218
  0
VERTEX
  8
0
 62
7
  6
CONTINUOUS
 10
229.6482544551
 20
100.2575899337
  0
VERTEX
  8
0
 62
7
  6
CONTINUOUS
 10
229.6398861409
 20
100.1978778826
  0
VERTEX
  8
0
 62
7
  6
CONTINUOUS
 10
229.6298414084
 20
100.1394608647
  0
VERTEX
  8
0
 62
7
  6
CONTINUOUS
 10
229.6180029228
 20
100.0822147818
  0
VERTEX
  8
0
 62
7
  6
CONTINUOUS
 10
229.6041617057
 20
100.026362971
  0
VERTEX
  8
0
 62
7
  6
CONTINUOUS
 10
229.588125348
 20
99.9723780652
  0
VERTEX
  8
0
 62
7
  6
CONTINUOUS
 10
229.5695535519
 20
99.9212433888
  0
VERTEX
  8
0
 62
7
  6
CONTINUOUS
 10
229.5477056221
 20
99.8722245339
  0
VERTEX
  8
0
 62
7
  6
CONTINUOUS
 10
229.5225286199
 20
99.8260211098
  0
VERTEX
  8
0
 62
7
  6
CONTINUOUS
 10
229.4939645325
 20
99.7833436928
  0
VERTEX
  8
0
 62
7
  6
CONTINUOUS
 10
229.4620454351
 20
99.7449644354
  0
VERTEX
  8
0
 62
7
  6
CONTINUOUS
 10
229.426719367
 20
99.7116407224
  0
VERTEX
  8
0
 62
7
  6
CONTINUOUS
 10
229.3883937822
 20
99.6845898116
  0
VERTEX
  8
0
 62
7
  6
CONTINUOUS
 10
229.3476615703
 20
99.6651533604
  0
VERTEX
  8
0
 62
7
  6
CONTINUOUS
 10
229.3063532291
 20
99.6550420758
  0
VERTEX
  8
0
 62
7
  6
CONTINUOUS
 10
229.2867624668
 20
99.653787373
  0
SEQEND
  0
POLYLINE
  8
0
 62
7
  6
CONTINUOUS
 66
1
 70
0
  0
VERTEX
  8
0
 62
7
  6
CONTINUOUS
 10
229.4890324969
 20
56.1645203356
  0
VERTEX
  8
0
 62
7
  6
CONTINUOUS
 10
229.4851849284
 20
56.4462443998
  0
VERTEX
  8
0
 62
7
  6
CONTINUOUS
 10
229.4848859869
 20
56.513378549
  0
VERTEX
  8
0
 62
7
  6
CONTINUOUS
 10
229.4855408545
 20
56.5795940824
  0
VERTEX
  8
0
 62
7
  6
CONTINUOUS
 10
229.4872379946
 20
56.6448393979
  0
VERTEX
  8
0
 62
7
  6
CONTINUOUS
 10
229.4900822075
 20
56.7090701136
  0
VERTEX
  8
0
 62
7
  6
CONTINUOUS
 10
229.4941816617
 20
56.7722862591
  0
VERTEX
  8
0
 62
7
  6
CONTINUOUS
 10
229.4996340091
 20
56.8344650173
  0
VERTEX
  8
0
 62
7
  6
CONTINUOUS
 10
229.5065348197
 20
56.8954810501
  0
VERTEX
  8
0
 62
7
  6
CONTINUOUS
 10
229.5149820468
 20
56.9550818486
  0
VERTEX
  8
0
 62
7
  6
CONTINUOUS
 10
229.5251044638
 20
57.0134024597
  0
VERTEX
  8
0
 62
7
  6
CONTINUOUS
 10
229.5370166058
 20
57.0704723865
  0
VERTEX
  8
0
 62
7
  6
CONTINUOUS
 10
229.5509709524
 20
57.1262916894
  0
VERTEX
  8
0
 62
7
  6
CONTINUOUS
 10
229.5670724721
 20
57.1800302661
  0
VERTEX
  8
0
 62
7
  6
CONTINUOUS
 10
229.5857597092
 20
57.230977648
  0
VERTEX
  8
0
 62
7
  6
CONTINUOUS
 10
229.6077458237
 20
57.2798640525
  0
VERTEX
  8
0
 62
7
  6
CONTINUOUS
 10
229.6330466426
 20
57.3258822315
  0
VERTEX
  8
0
 62
7
  6
CONTINUOUS
 10
229.6617341498
 20
57.3683560498
  0
VERTEX
  8
0
 62
7
  6
CONTINUOUS
 10
229.6937701443
 20
57.4065041273
  0
VERTEX
  8
0
 62
7
  6
CONTINUOUS
 10
229.729219265
 20
57.4395784538
  0
VERTEX
  8
0
 62
7
  6
CONTINUOUS
 10
229.7676561871
 20
57.4663394083
  0
VERTEX
  8
0
 62
7
  6
CONTINUOUS
 10
229.8084597353
 20
57.4854216239
  0
VERTEX
  8
0
 62
7
  6
CONTINUOUS
 10
229.8497723579
 20
57.4951211286
  0
VERTEX
  8
0
 62
7
  6
CONTINUOUS
 10
229.86746193
 20
57.4961697439
  0
SEQEND
  0
LINE
  8
0
 62
7
  6
CONTINUOUS
 10
229.4914745515
 20
55.8815061665
 11
229.4890324969
 21
56.1645203356
  0
LINE
  8
0
 62
7
  6
CONTINUOUS
 10
229.6629028344
 20
101.2724268057
 11
229.6653188088
 21
100.9894050689
  0
LINE
  8
0
 62
7
  6
CONTINUOUS
 10
229.4914745515
 20
55.8815061665
 11
229.4920309284
 21
50.333405226
  0
LINE
  8
0
 62
7
  6
CONTINUOUS
 10
229.6623672421
 20
106.8165149312
 11
229.6629028344
 21
101.2724268057
  0
LINE
  8
0
 62
7
  6
CONTINUOUS
 10
229.6624265503
 20
106.8175968826
 11
229.662367245
 21
106.8165769427
  0
LINE
  8
0
 62
7
  6
CONTINUOUS
 10
229.4920309283
 20
50.333373113
 11
229.4919716023
 21
50.3323650758
  0
LINE
  8
0
 62
7
  6
CONTINUOUS
 10
220.2114515343
 20
110.6127963473
 11
220.0316682591
 21
111.013745569
  0
POLYLINE
  8
0
 62
6
  6
CONTINUOUS
 66
1
 70
0
  0
VERTEX
  8
0
 62
6
  6
CONTINUOUS
 10
221.0889580096
 20
106.8236462957
  0
VERTEX
  8
0
 62
6
  6
CONTINUOUS
 10
221.0917561363
 20
106.8143848739
  0
VERTEX
  8
0
 62
6
  6
CONTINUOUS
 10
221.0843313021
 20
106.8045266124
  0
SEQEND
  0
LINE
  8
0
 62
6
  6
CONTINUOUS
 10
233.7771990852
 20
57.4964917819
 11
233.7771990852
 21
112.4749755907
  0
LINE
  8
0
 62
7
  6
CONTINUOUS
 10
228.419826999
 20
46.0405477255
 11
228.4357293734
 21
46.1452732705
  0
POLYLINE
  8
0
 62
7
  6
CONTINUOUS
 66
1
 70
0
  0
VERTEX
  8
0
 62
7
  6
CONTINUOUS
 10
228.4316693022
 20
46.1362142316
  0
VERTEX
  8
0
 62
7
  6
CONTINUOUS
 10
228.6123960293
 20
46.539460971
  0
VERTEX
  8
0
 62
7
  6
CONTINUOUS
 10
228.7873898472
 20
47.0053117023
  0
VERTEX
  8
0
 62
7
  6
CONTINUOUS
 10
228.9460878002
 20
47.5071622223
  0
VERTEX
  8
0
 62
7
  6
CONTINUOUS
 10
229.0887205759
 20
48.0407100557
  0
VERTEX
  8
0
 62
7
  6
CONTINUOUS
 10
229.2153344757
 20
48.6012958866
  0
VERTEX
  8
0
 62
7
  6
CONTINUOUS
 10
229.3259450866
 20
49.1840830216
  0
VERTEX
  8
0
 62
7
  6
CONTINUOUS
 10
229.4205945463
 20
49.78406461
  0
VERTEX
  8
0
 62
7
  6
CONTINUOUS
 10
229.4919716531
 20
50.3323549545
  0
SEQEND
  0
POLYLINE
  8
0
 62
7
  6
CONTINUOUS
 66
1
 70
0
  0
VERTEX
  8
0
 62
7
  6
CONTINUOUS
 10
229.4919716023
 20
50.3323650758
  0
VERTEX
  8
0
 62
7
  6
CONTINUOUS
 10
229.4861599019
 20
50.3237681779
  0
VERTEX
  8
0
 62
7
  6
CONTINUOUS
 10
229.4670731489
 20
50.3149748594
  0
VERTEX
  8
0
 62
7
  6
CONTINUOUS
 10
229.4358719018
 20
50.3082464166
  0
VERTEX
  8
0
 62
7
  6
CONTINUOUS
 10
229.394553356
 20
50.3039267133
  0
VERTEX
  8
0
 62
7
  6
CONTINUOUS
 10
229.3458570098
 20
50.3021378266
  0
VERTEX
  8
0
 62
7
  6
CONTINUOUS
 10
229.2920309284
 20
50.302697514
  0
SEQEND
  0
LINE
  8
0
 62
7
  6
CONTINUOUS
 10
237.6271990852
 20
67.7571872076
 11
237.6271990852
 21
89.3927704669
  0
LINE
  8
0
 62
7
  6
CONTINUOUS
 10
237.8771990852
 20
57.6970726604
 11
237.8771990852
 21
112.2750460165
  0
POLYLINE
  8
0
 62
7
  6
CONTINUOUS
 66
1
 70
0
  0
VERTEX
  8
0
 62
7
  6
CONTINUOUS
 10
237.8771990852
 20
106.8122309408
  0
VERTEX
  8
0
 62
7
  6
CONTINUOUS
 10
237.8722742151
 20
106.8199937078
  0
VERTEX
  8
0
 62
7
  6
CONTINUOUS
 10
237.8576897002
 20
106.8273738329
  0
VERTEX
  8
0
 62
7
  6
CONTINUOUS
 10
237.8340812385
 20
106.8340080303
  0
VERTEX
  8
0
 62
7
  6
CONTINUOUS
 10
237.8025427888
 20
106.8395641045
  0
VERTEX
  8
0
 62
7
  6
CONTINUOUS
 10
237.7645916041
 20
106.8437582922
  0
VERTEX
  8
0
 62
7
  6
CONTINUOUS
 10
237.7221004793
 20
106.8463712058
  0
VERTEX
  8
0
 62
7
  6
CONTINUOUS
 10
237.6771990852
 20
106.8472601605
  0
SEQEND
  0
POLYLINE
  8
0
 62
7
  6
CONTINUOUS
 66
1
 70
0
  0
VERTEX
  8
0
 62
7
  6
CONTINUOUS
 10
237.8771987694
 20
112.2751676345
  0
VERTEX
  8
0
 62
7
  6
CONTINUOUS
 10
237.8721597092
 20
112.3195838906
  0
VERTEX
  8
0
 62
7
  6
CONTINUOUS
 10
237.8573842547
 20
112.3617665054
  0
VERTEX
  8
0
 62
7
  6
CONTINUOUS
 10
237.8336086971
 20
112.3996166662
  0
VERTEX
  8
0
 62
7
  6
CONTINUOUS
 10
237.8020202449
 20
112.4312421789
  0
VERTEX
  8
0
 62
7
  6
CONTINUOUS
 10
237.764196225
 20
112.4550629692
  0
VERTEX
  8
0
 62
7
  6
CONTINUOUS
 10
237.7220264294
 20
112.469888533
  0
VERTEX
  8
0
 62
7
  6
CONTINUOUS
 10
237.6771899064
 20
112.4749788362
  0
SEQEND
  0
LINE
  8
0
 62
2
  6
CONTINUOUS
 10
352.7179098518
 20
132.7537882192
 11
272.7179098518
 21
132.7537882192
  0
POLYLINE
  8
0
 62
7
  6
CONTINUOUS
 66
1
 70
0
  0
VERTEX
  8
0
 62
7
  6
CONTINUOUS
 10
284.4496832536
 20
144.7638791511
  0
VERTEX
  8
0
 62
7
  6
CONTINUOUS
 10
283.8224862486
 20
145.0130684398
  0
VERTEX
  8
0
 62
7
  6
CONTINUOUS
 10
283.2149220655
 20
145.313302617
  0
VERTEX
  8
0
 62
7
  6
CONTINUOUS
 10
282.6337819074
 20
145.6619510197
  0
VERTEX
  8
0
 62
7
  6
CONTINUOUS
 10
282.0842160021
 20
146.056143215
  0
SEQEND
  0
POLYLINE
  8
0
 62
7
  6
CONTINUOUS
 66
1
 70
0
  0
VERTEX
  8
0
 62
7
  6
CONTINUOUS
 10
310.21455121
 20
261.5828771703
  0
VERTEX
  8
0
 62
7
  6
CONTINUOUS
 10
310.1831318165
 20
261.5611816422
  0
VERTEX
  8
0
 62
7
  6
CONTINUOUS
 10
310.1188542514
 20
261.5151066172
  0
VERTEX
  8
0
 62
7
  6
CONTINUOUS
 10
310.0548664952
 20
261.4674372032
  0
VERTEX
  8
0
 62
7
  6
CONTINUOUS
 10
309.9958158722
 20
261.4221563712
  0
VERTEX
  8
0
 62
7
  6
CONTINUOUS
 10
309.9802176315
 20
261.4100131389
  0
SEQEND
  0
LINE
  8
0
 62
7
  6
CONTINUOUS
 10
291.8179098518
 20
144.7537882192
 11
284.4456753953
 21
144.7537882192
  0
LINE
  8
0
 62
6
  6
CONTINUOUS
 10
284.4456753953
 20
144.7537882192
 11
284.4456285285
 21
144.7537882192
  0
LINE
  8
0
 62
7
  6
CONTINUOUS
 10
333.6179098518
 20
144.7537882192
 11
340.9901911751
 21
144.7537882192
  0
LINE
  8
0
 62
6
  6
CONTINUOUS
 10
340.9901443083
 20
144.7537882192
 11
340.9901911751
 21
144.7537882192
  0
LINE
  8
0
 62
7
  6
CONTINUOUS
 10
311.9650864911
 20
144.8037882192
 11
313.4707332126
 21
144.8037882192
  0
LINE
  8
0
 62
2
  6
CONTINUOUS
 10
339.1679098518
 20
152.7537882192
 11
337.0679098518
 21
152.7537882192
  0
LINE
  8
0
 62
40
  6
CONTINUOUS
 10
337.0679098518
 20
152.7537882192
 11
336.7379098518
 21
152.7537882192
  0
LINE
  8
DEFAULT_1
 62
2
  6
CENTER
 10
332.8679098518
 20
152.7537882192
 11
331.9679098518
 21
152.7537882192
  0
LINE
  8
0
 62
7
  6
CONTINUOUS
 10
308.2328097084
 20
152.7537882192
 11
306.5401006726
 21
152.7537882192
  0
LINE
  8
0
 62
2
  6
CONTINUOUS
 10
288.3679098518
 20
152.7537882192
 11
286.2679098518
 21
152.7537882192
  0
LINE
  8
0
 62
40
  6
CONTINUOUS
 10
286.2679098518
 20
152.7537882192
 11
285.6979098518
 21
152.7537882192
  0
LINE
  8
DEFAULT_1
 62
2
  6
CENTER
 10
282.0679098518
 20
152.7537882192
 11
281.1679098518
 21
152.7537882192
  0
LINE
  8
0
 62
40
  6
CONTINUOUS
 10
278.8187218842
 20
152.7537882192
 11
258.8946098518
 21
152.7537882192
  0
LINE
  8
0
 62
40
  6
CONTINUOUS
 10
288.3679098518
 20
152.7537882192
 11
288.6979098518
 21
152.7537882192
  0
LINE
  8
DEFAULT_1
 62
2
  6
CENTER
 10
292.5679098518
 20
152.7537882192
 11
293.4679098518
 21
152.7537882192
  0
LINE
  8
0
 62
7
  6
CONTINUOUS
 10
317.2030099952
 20
152.7537882192
 11
318.895719031
 21
152.7537882192
  0
LINE
  8
0
 62
40
  6
CONTINUOUS
 10
339.1679098518
 20
152.7537882192
 11
339.7379098518
 21
152.7537882192
  0
LINE
  8
DEFAULT_1
 62
2
  6
CENTER
 10
343.3679098518
 20
152.7537882192
 11
344.2679098518
 21
152.7537882192
  0
LINE
  8
0
 62
40
  6
CONTINUOUS
 10
346.616996736
 20
152.7537882192
 11
366.5412098518
 21
152.7537882192
  0
LINE
  8
0
 62
7
  6
CONTINUOUS
 10
295.3689907946
 20
156.6573534755
 11
306.2056358069
 21
152.811379999
  0
LINE
  8
0
 62
2
  6
CONTINUOUS
 10
271.0202698518
 20
173.6026082192
 11
271.0202698518
 21
133.6026082192
  0
LINE
  8
0
 62
6
  6
CONTINUOUS
 10
333.5467965006
 20
160.7538173998
 11
333.5465202672
 21
160.7537415687
  0
LINE
  8
0
 62
6
  6
CONTINUOUS
 10
291.8890232082
 20
160.7538173994
 11
291.8892994364
 21
160.7537415696
  0
POLYLINE
  8
0
 62
7
  6
CONTINUOUS
 66
1
 70
0
  0
VERTEX
  8
0
 62
7
  6
CONTINUOUS
 10
291.8890232082
 20
160.7538173994
  0
VERTEX
  8
0
 62
7
  6
CONTINUOUS
 10
291.8245660557
 20
160.7453633278
  0
VERTEX
  8
0
 62
7
  6
CONTINUOUS
 10
291.7644687216
 20
160.7205725491
  0
VERTEX
  8
0
 62
7
  6
CONTINUOUS
 10
291.7127967451
 20
160.6811219068
  0
VERTEX
  8
0
 62
7
  6
CONTINUOUS
 10
291.6730457963
 20
160.6296800634
  0
VERTEX
  8
0
 62
7
  6
CONTINUOUS
 10
291.6479051006
 20
160.5697269894
  0
VERTEX
  8
0
 62
7
  6
CONTINUOUS
 10
291.6390754297
 20
160.5053185118
  0
VERTEX
  8
0
 62
7
  6
CONTINUOUS
 10
291.6471540003
 20
160.4408118703
  0
VERTEX
  8
0
 62
7
  6
CONTINUOUS
 10
291.6715940751
 20
160.3805708749
  0
VERTEX
  8
0
 62
7
  6
CONTINUOUS
 10
291.7107419944
 20
160.3286706371
  0
VERTEX
  8
0
 62
7
  6
CONTINUOUS
 10
291.7619491213
 20
160.2886218574
  0
SEQEND
  0
LINE
  8
0
 62
7
  6
CONTINUOUS
 10
284.4456285285
 20
160.7537882192
 11
340.9901911751
 21
160.7537882192
  0
LINE
  8
0
 62
7
  6
CONTINUOUS
 10
281.5179098518
 20
152.7537882192
 11
281.5179098518
 21
149.6413937757
  0
LINE
  8
0
 62
2
  6
CONTINUOUS
 10
287.3179098518
 20
153.8037882192
 11
287.3179098518
 21
151.7037882192
  0
LINE
  8
DEFAULT_1
 62
2
  6
CENTER
 10
287.3179098518
 20
147.5037882192
 11
287.3179098518
 21
146.6037882192
  0
LINE
  8
DEFAULT_1
 62
2
  6
CENTER
 10
287.3179098518
 20
158.0037882192
 11
287.3179098518
 21
158.9037882192
  0
POLYLINE
  8
0
 62
6
  6
CONTINUOUS
 66
1
 70
0
  0
VERTEX
  8
0
 62
6
  6
CONTINUOUS
 10
284.4456285285
 20
160.7537882192
  0
VERTEX
  8
0
 62
6
  6
CONTINUOUS
 10
284.4450165759
 20
160.748180359
  0
VERTEX
  8
0
 62
6
  6
CONTINUOUS
 10
284.4461555967
 20
160.7321152055
  0
VERTEX
  8
0
 62
6
  6
CONTINUOUS
 10
284.4492405694
 20
160.7064536177
  0
VERTEX
  8
0
 62
6
  6
CONTINUOUS
 10
284.4542577038
 20
160.6726452457
  0
VERTEX
  8
0
 62
6
  6
CONTINUOUS
 10
284.4610277196
 20
160.6326364633
  0
VERTEX
  8
0
 62
6
  6
CONTINUOUS
 10
284.4692423934
 20
160.5887127763
  0
VERTEX
  8
0
 62
6
  6
CONTINUOUS
 10
284.4785038151
 20
160.5433076985
  0
VERTEX
  8
0
 62
6
  6
CONTINUOUS
 10
284.4883620767
 20
160.4988285409
  0
SEQEND
  0
LINE
  8
0
 62
2
  6
CONTINUOUS
 10
352.7179098518
 20
172.7537882192
 11
272.7179098518
 21
172.7537882192
  0
LINE
  8
0
 62
7
  6
CONTINUOUS
 10
293.1179098518
 20
149.6413937757
 11
293.1179098518
 21
152.7537882192
  0
LINE
  8
0
 62
7
  6
CONTINUOUS
 10
309.0479430924
 20
152.1447395969
 11
311.0061060394
 21
145.5203160102
  0
POLYLINE
  8
0
 62
6
  6
CONTINUOUS
 66
1
 70
0
  0
VERTEX
  8
0
 62
6
  6
CONTINUOUS
 10
284.4456753953
 20
144.7537882192
  0
VERTEX
  8
0
 62
6
  6
CONTINUOUS
 10
284.4516683383
 20
144.771441034
  0
VERTEX
  8
0
 62
6
  6
CONTINUOUS
 10
284.463076765
 20
144.8235757628
  0
VERTEX
  8
0
 62
6
  6
CONTINUOUS
 10
284.4793595906
 20
144.9080777368
  0
VERTEX
  8
0
 62
6
  6
CONTINUOUS
 10
284.499860173
 20
145.0217377521
  0
VERTEX
  8
0
 62
6
  6
CONTINUOUS
 10
284.5238125479
 20
145.160390894
  0
VERTEX
  8
0
 62
6
  6
CONTINUOUS
 10
284.5503535339
 20
145.3190905163
  0
VERTEX
  8
0
 62
6
  6
CONTINUOUS
 10
284.6073622531
 20
145.6741112181
  0
SEQEND
  0
LINE
  8
DEFAULT_1
 62
2
  6
CENTER
 10
312.7179098518
 20
130.7537882192
 11
312.7179098518
 21
264.3537882192
  0
LINE
  8
0
 62
7
  6
CONTINUOUS
 10
307.7179098518
 20
172.5024587665
 11
309.5662465968
 21
260.7339631099
  0
LINE
  8
0
 62
7
  6
CONTINUOUS
 10
317.7179098518
 20
172.5024587665
 11
315.8695731068
 21
260.7339631099
  0
POLYLINE
  8
0
 62
7
  6
CONTINUOUS
 66
1
 70
0
  0
VERTEX
  8
0
 62
7
  6
CONTINUOUS
 10
284.4456753953
 20
144.7537882192
  0
VERTEX
  8
0
 62
7
  6
CONTINUOUS
 10
284.4472726565
 20
144.7563169434
  0
VERTEX
  8
0
 62
7
  6
CONTINUOUS
 10
284.4496832536
 20
144.7638791511
  0
SEQEND
  0
POLYLINE
  8
0
 62
6
  6
CONTINUOUS
 66
1
 70
0
  0
VERTEX
  8
0
 62
6
  6
CONTINUOUS
 10
340.9901443083
 20
144.7537882192
  0
VERTEX
  8
0
 62
6
  6
CONTINUOUS
 10
340.9841513653
 20
144.771441034
  0
VERTEX
  8
0
 62
6
  6
CONTINUOUS
 10
340.9727429386
 20
144.8235757628
  0
VERTEX
  8
0
 62
6
  6
CONTINUOUS
 10
340.956460113
 20
144.9080777368
  0
VERTEX
  8
0
 62
6
  6
CONTINUOUS
 10
340.9359595307
 20
145.0217377521
  0
VERTEX
  8
0
 62
6
  6
CONTINUOUS
 10
340.9120071557
 20
145.160390894
  0
VERTEX
  8
0
 62
6
  6
CONTINUOUS
 10
340.8854661697
 20
145.3190905163
  0
SEQEND
  0
LINE
  8
0
 62
7
  6
CONTINUOUS
 10
314.4297136643
 20
145.5203160102
 11
316.3878766112
 21
152.1447395969
  0
LINE
  8
0
 62
6
  6
CONTINUOUS
 10
340.8854661697
 20
145.3190905163
 11
340.8284574505
 21
145.6741112181
  0
POLYLINE
  8
0
 62
6
  6
CONTINUOUS
 66
1
 70
0
  0
VERTEX
  8
0
 62
6
  6
CONTINUOUS
 10
340.9901911751
 20
160.7537882192
  0
VERTEX
  8
0
 62
6
  6
CONTINUOUS
 10
340.9908031278
 20
160.7481803582
  0
VERTEX
  8
0
 62
6
  6
CONTINUOUS
 10
340.9896641068
 20
160.7321152044
  0
VERTEX
  8
0
 62
6
  6
CONTINUOUS
 10
340.986579134
 20
160.7064536162
  0
VERTEX
  8
0
 62
6
  6
CONTINUOUS
 10
340.9815619995
 20
160.6726452438
  0
VERTEX
  8
0
 62
6
  6
CONTINUOUS
 10
340.9747919836
 20
160.6326364611
  0
VERTEX
  8
0
 62
6
  6
CONTINUOUS
 10
340.9665773099
 20
160.5887127742
  0
SEQEND
  0
LINE
  8
0
 62
2
  6
CONTINUOUS
 10
338.1179098518
 20
153.8037882192
 11
338.1179098518
 21
151.7037882192
  0
LINE
  8
DEFAULT_1
 62
2
  6
CENTER
 10
338.1179098518
 20
147.5037882192
 11
338.1179098518
 21
146.6037882192
  0
LINE
  8
DEFAULT_1
 62
2
  6
CENTER
 10
338.1179098518
 20
158.0037882192
 11
338.1179098518
 21
158.9037882192
  0
POLYLINE
  8
0
 62
6
  6
CONTINUOUS
 66
1
 70
0
  0
VERTEX
  8
0
 62
6
  6
CONTINUOUS
 10
340.9691205112
 20
160.6018916665
  0
VERTEX
  8
0
 62
6
  6
CONTINUOUS
 10
340.9779138297
 20
160.6505364545
  0
VERTEX
  8
0
 62
6
  6
CONTINUOUS
 10
340.9846422724
 20
160.6927478333
  0
VERTEX
  8
0
 62
6
  6
CONTINUOUS
 10
340.9889619758
 20
160.7255122765
  0
VERTEX
  8
0
 62
6
  6
CONTINUOUS
 10
340.9907508624
 20
160.7464089683
  0
VERTEX
  8
0
 62
6
  6
CONTINUOUS
 10
340.9901911751
 20
160.7537882192
  0
SEQEND
  0
LINE
  8
0
 62
2
  6
CONTINUOUS
 10
352.7179098518
 20
172.7537882192
 11
352.7179098518
 21
132.7537882192
  0
LINE
  8
0
 62
6
  6
CONTINUOUS
 10
340.9691205112
 20
160.6018916665
 11
340.9573158882
 21
160.5433076971
  0
LINE
  8
0
 62
6
  6
CONTINUOUS
 10
340.9474578873
 20
160.4988296348
 11
340.9587659652
 21
160.5501715556
  0
LINE
  8
0
 62
6
  6
CONTINUOUS
 10
330.066828909
 20
156.6573534755
 11
322.4513935648
 21
153.9546016263
  0
LINE
  8
0
 62
7
  6
CONTINUOUS
 10
319.2301838968
 20
152.811379999
 11
322.4513935648
 21
153.9546016263
  0
POLYLINE
  8
0
 62
7
  6
CONTINUOUS
 66
1
 70
0
  0
VERTEX
  8
0
 62
7
  6
CONTINUOUS
 10
315.455586814
 20
261.410029128
  0
VERTEX
  8
0
 62
7
  6
CONTINUOUS
 10
315.4404898813
 20
261.4217830678
  0
VERTEX
  8
0
 62
7
  6
CONTINUOUS
 10
315.3814449547
 20
261.467068022
  0
VERTEX
  8
0
 62
7
  6
CONTINUOUS
 10
315.3174802164
 20
261.5147313137
  0
VERTEX
  8
0
 62
7
  6
CONTINUOUS
 10
315.2532740164
 20
261.5607714723
  0
VERTEX
  8
0
 62
7
  6
CONTINUOUS
 10
315.2212684905
 20
261.5828771724
  0
SEQEND
  0
LINE
  8
DEFAULT_1
 62
40
  6
CENTER
 10
311.6564984086
 20
262.3537882192
 11
313.7793212951
 21
262.3537882192
  0
ARC
  8
0
 62
7
  6
CONTINUOUS
 10
157.0004573678
 20
145.7537882192
 40
1.0
 50
184.57
 51
270.0
  0
ARC
  8
0
 62
7
  6
CONTINUOUS
 10
159.3539408026
 20
145.7537882192
 40
1.0
 50
270.0
 51
355.43
  0
ARC
  8
0
 62
7
  6
CONTINUOUS
 10
150.9539408026
 20
145.7537882192
 40
1.0
 50
270.0
 51
287.4745042926
  0
ARC
  8
0
 62
7
  6
CONTINUOUS
 10
140.2004573678
 20
145.7537882192
 40
1.0
 50
184.57
 51
270.0
  0
ARC
  8
0
 62
7
  6
CONTINUOUS
 10
142.5539408026
 20
145.7537882192
 40
1.0
 50
270.0
 51
355.43
  0
ARC
  8
0
 62
7
  6
CONTINUOUS
 10
148.6004573678
 20
145.7537882192
 40
1.0
 50
252.5254957074
 51
270.0
  0
ARC
  8
0
 62
7
  6
CONTINUOUS
 10
134.1539408026
 20
145.7537882192
 40
1.0
 50
270.0
 51
287.4745042926
  0
ARC
  8
0
 62
7
  6
CONTINUOUS
 10
123.4004573678
 20
145.7537882192
 40
1.0
 50
184.57
 51
270.0
  0
ARC
  8
0
 62
7
  6
CONTINUOUS
 10
125.7539408026
 20
145.7537882192
 40
1.0
 50
270.0
 51
355.43
  0
ARC
  8
0
 62
7
  6
CONTINUOUS
 10
131.8004573678
 20
145.7537882192
 40
1.0
 50
252.5254957074
 51
270.0
  0
ARC
  8
0
 62
7
  6
CONTINUOUS
 10
117.3539408026
 20
145.7537882192
 40
1.0
 50
270.0
 51
287.4745042926
  0
ARC
  8
0
 62
7
  6
CONTINUOUS
 10
106.6004573678
 20
145.7537882192
 40
1.0
 50
184.57
 51
270.0
  0
ARC
  8
0
 62
7
  6
CONTINUOUS
 10
108.9539408026
 20
145.7537882192
 40
1.0
 50
270.0
 51
355.43
  0
ARC
  8
0
 62
7
  6
CONTINUOUS
 10
115.0004573678
 20
145.7537882192
 40
1.0
 50
252.5254957074
 51
270.0
  0
ARC
  8
0
 62
7
  6
CONTINUOUS
 10
100.5539408026
 20
145.7537882192
 40
1.0
 50
270.0
 51
287.4745042926
  0
ARC
  8
0
 62
7
  6
CONTINUOUS
 10
98.2004573678
 20
145.7537882192
 40
1.0
 50
261.8535358985
 51
270.0
  0
ARC
  8
0
 62
7
  6
CONTINUOUS
 10
87.8771990852
 20
145.7537882192
 40
1.0
 50
180.0
 51
270.0
  0
ARC
  8
0
 62
7
  6
CONTINUOUS
 10
161.7395021438
 20
156.7729906751
 40
0.5
 50
164.05
 51
175.43
  0
ARC
  8
0
 62
7
  6
CONTINUOUS
 10
154.6148960266
 20
156.7729906751
 40
0.5
 50
4.57
 51
15.95
  0
ARC
  8
0
 62
7
  6
CONTINUOUS
 10
144.9395021438
 20
156.7729906751
 40
0.5
 50
164.05
 51
175.43
  0
ARC
  8
0
 62
7
  6
CONTINUOUS
 10
137.8148960266
 20
156.7729906751
 40
0.5
 50
4.57
 51
15.95
  0
ARC
  8
0
 62
7
  6
CONTINUOUS
 10
128.1395021438
 20
156.7729906751
 40
0.5
 50
164.05
 51
175.43
  0
ARC
  8
0
 62
7
  6
CONTINUOUS
 10
121.0148960266
 20
156.7729906751
 40
0.5
 50
4.57
 51
15.95
  0
ARC
  8
0
 62
7
  6
CONTINUOUS
 10
111.3395021438
 20
156.7729906751
 40
0.5
 50
164.05
 51
175.43
  0
ARC
  8
0
 62
7
  6
CONTINUOUS
 10
104.2148960266
 20
156.7729906751
 40
0.5
 50
4.57
 51
15.95
  0
ARC
  8
0
 62
7
  6
CONTINUOUS
 10
94.5395021438
 20
156.7729906751
 40
0.5
 50
164.05
 51
175.43
  0
ARC
  8
0
 62
7
  6
CONTINUOUS
 10
162.0920309284
 20
160.5537882192
 40
0.2
 50
344.05
 51
90.0
  0
ARC
  8
0
 62
7
  6
CONTINUOUS
 10
154.2623672421
 20
160.5537882192
 40
0.2
 50
90.0
 51
195.95
  0
ARC
  8
0
 62
7
  6
CONTINUOUS
 10
145.2920309284
 20
160.5537882192
 40
0.2
 50
344.05
 51
90.0
  0
ARC
  8
0
 62
7
  6
CONTINUOUS
 10
137.4623672421
 20
160.5537882192
 40
0.2
 50
90.0
 51
195.95
  0
ARC
  8
0
 62
7
  6
CONTINUOUS
 10
128.4920309284
 20
160.5537882192
 40
0.2
 50
344.05
 51
90.0
  0
ARC
  8
0
 62
7
  6
CONTINUOUS
 10
120.6623672421
 20
160.5537882192
 40
0.2
 50
90.0
 51
195.95
  0
ARC
  8
0
 62
7
  6
CONTINUOUS
 10
111.6920309284
 20
160.5537882192
 40
0.2
 50
344.05
 51
90.0
  0
ARC
  8
0
 62
7
  6
CONTINUOUS
 10
103.8623672421
 20
160.5537882192
 40
0.2
 50
90.0
 51
195.95
  0
ARC
  8
0
 62
7
  6
CONTINUOUS
 10
94.8920309284
 20
160.5537882192
 40
0.2
 50
344.05
 51
90.0
  0
ARC
  8
0
 62
7
  6
CONTINUOUS
 10
87.0771990852
 20
160.5537882192
 40
0.2
 50
90.0
 51
180.0
  0
ARC
  8
0
 62
7
  6
CONTINUOUS
 10
88.8019090054
 20
260.8537882192
 40
1.5
 50
90.0
 51
179.9
  0
ARC
  8
0
 62
7
  6
CONTINUOUS
 10
201.3539408026
 20
145.7537882192
 40
1.0
 50
270.0
 51
287.4745042926
  0
ARC
  8
0
 62
7
  6
CONTINUOUS
 10
190.6004573678
 20
145.7537882192
 40
1.0
 50
184.57
 51
270.0
  0
ARC
  8
0
 62
7
  6
CONTINUOUS
 10
192.9539408026
 20
145.7537882192
 40
1.0
 50
270.0
 51
355.43
  0
ARC
  8
0
 62
7
  6
CONTINUOUS
 10
199.0004573678
 20
145.7537882192
 40
1.0
 50
252.5254957074
 51
270.0
  0
ARC
  8
0
 62
7
  6
CONTINUOUS
 10
184.5539408026
 20
145.7537882192
 40
1.0
 50
270.0
 51
287.4745042926
  0
ARC
  8
0
 62
7
  6
CONTINUOUS
 10
173.8004573678
 20
145.7537882192
 40
1.0
 50
184.57
 51
270.0
  0
ARC
  8
0
 62
7
  6
CONTINUOUS
 10
176.1539408026
 20
145.7537882192
 40
1.0
 50
270.0
 51
355.43
  0
ARC
  8
0
 62
7
  6
CONTINUOUS
 10
182.2004573678
 20
145.7537882192
 40
1.0
 50
252.5254957074
 51
270.0
  0
ARC
  8
0
 62
7
  6
CONTINUOUS
 10
167.7539408026
 20
145.7537882192
 40
1.0
 50
270.0
 51
287.4745042926
  0
ARC
  8
0
 62
7
  6
CONTINUOUS
 10
165.4004573678
 20
145.7537882192
 40
1.0
 50
252.5254957074
 51
270.0
  0
ARC
  8
0
 62
7
  6
CONTINUOUS
 10
195.3395021438
 20
156.7729906751
 40
0.5
 50
164.05
 51
175.43
  0
ARC
  8
0
 62
7
  6
CONTINUOUS
 10
188.2148960266
 20
156.7729906751
 40
0.5
 50
4.57
 51
15.95
  0
ARC
  8
0
 62
7
  6
CONTINUOUS
 10
178.5395021438
 20
156.7729906751
 40
0.5
 50
164.05
 51
175.43
  0
ARC
  8
0
 62
7
  6
CONTINUOUS
 10
171.4148960266
 20
156.7729906751
 40
0.5
 50
4.57
 51
15.95
  0
ARC
  8
0
 62
7
  6
CONTINUOUS
 10
195.6920309284
 20
160.5537882192
 40
0.2
 50
344.05
 51
90.0
  0
ARC
  8
0
 62
7
  6
CONTINUOUS
 10
187.8623672421
 20
160.5537882192
 40
0.2
 50
90.0
 51
195.95
  0
ARC
  8
0
 62
7
  6
CONTINUOUS
 10
178.8920309284
 20
160.5537882192
 40
0.2
 50
344.05
 51
90.0
  0
ARC
  8
0
 62
7
  6
CONTINUOUS
 10
171.0623672421
 20
160.5537882192
 40
0.2
 50
90.0
 51
195.95
  0
ARC
  8
0
 62
7
  6
CONTINUOUS
 10
226.5539408026
 20
145.7537882192
 40
1.0
 50
270.0
 51
278.1464641015
  0
ARC
  8
0
 62
7
  6
CONTINUOUS
 10
224.2004573678
 20
145.7537882192
 40
1.0
 50
184.57
 51
270.0
  0
ARC
  8
0
 62
7
  6
CONTINUOUS
 10
218.1539408026
 20
145.7537882192
 40
1.0
 50
270.0
 51
287.4745042926
  0
ARC
  8
0
 62
7
  6
CONTINUOUS
 10
207.4004573678
 20
145.7537882192
 40
1.0
 50
184.57
 51
270.0
  0
ARC
  8
0
 62
7
  6
CONTINUOUS
 10
209.7539408026
 20
145.7537882192
 40
1.0
 50
270.0
 51
355.43
  0
ARC
  8
0
 62
7
  6
CONTINUOUS
 10
215.8004573678
 20
145.7537882192
 40
1.0
 50
252.5254957074
 51
270.0
  0
ARC
  8
0
 62
7
  6
CONTINUOUS
 10
236.8771990852
 20
145.7537882192
 40
1.0
 50
270.0
 51
360.0
  0
ARC
  8
0
 62
7
  6
CONTINUOUS
 10
236.8771990852
 20
145.8037882192
 40
1.0
 50
270.0
 51
360.0
  0
ARC
  8
0
 62
6
  6
CONTINUOUS
 10
226.5539408026
 20
145.7537882192
 40
1.0
 50
278.1464641015
 51
355.43
  0
ARC
  8
0
 62
6
  6
CONTINUOUS
 10
232.6004573678
 20
145.7537882192
 40
1.0
 50
184.57
 51
270.0
  0
ARC
  8
0
 62
6
  6
CONTINUOUS
 10
218.1539408026
 20
145.7537882192
 40
1.0
 50
287.4745042926
 51
355.43
  0
ARC
  8
0
 62
7
  6
CONTINUOUS
 10
236.8771990852
 20
153.7537882192
 40
1.0
 50
270.0
 51
360.0
  0
ARC
  8
0
 62
7
  6
CONTINUOUS
 10
228.9395021438
 20
156.7729906751
 40
0.5
 50
164.05
 51
175.43
  0
ARC
  8
0
 62
7
  6
CONTINUOUS
 10
221.8148960266
 20
156.7729906751
 40
0.5
 50
4.57
 51
15.95
  0
ARC
  8
0
 62
7
  6
CONTINUOUS
 10
212.1395021438
 20
156.7729906751
 40
0.5
 50
164.05
 51
175.43
  0
ARC
  8
0
 62
7
  6
CONTINUOUS
 10
205.0148960266
 20
156.7729906751
 40
0.5
 50
4.57
 51
15.95
  0
ARC
  8
0
 62
7
  6
CONTINUOUS
 10
229.2920309284
 20
160.5537882192
 40
0.2
 50
344.05
 51
90.0
  0
ARC
  8
0
 62
7
  6
CONTINUOUS
 10
221.4623672421
 20
160.5537882192
 40
0.2
 50
90.0
 51
195.95
  0
ARC
  8
0
 62
7
  6
CONTINUOUS
 10
212.4920309284
 20
160.5537882192
 40
0.2
 50
344.05
 51
90.0
  0
ARC
  8
0
 62
7
  6
CONTINUOUS
 10
204.6623672421
 20
160.5537882192
 40
0.2
 50
90.0
 51
195.95
  0
ARC
  8
0
 62
7
  6
CONTINUOUS
 10
237.6771990852
 20
160.5537882192
 40
0.2
 50
0.0
 51
90.0
  0
ARC
  8
0
 62
6
  6
CONTINUOUS
 10
229.8623672421
 20
160.5537882192
 40
0.2
 50
90.0
 51
195.95
  0
ARC
  8
0
 62
6
  6
CONTINUOUS
 10
220.8920309284
 20
160.5537882192
 40
0.2
 50
344.05
 51
90.0
  0
ARC
  8
0
 62
7
  6
CONTINUOUS
 10
235.9524891651
 20
260.8537882192
 40
1.5
 50
0.1
 51
90.0
  0
ARC
  8
0
 62
40
  6
CONTINUOUS
 10
88.1771990852
 20
53.0549788373
 40
1.5
 50
150.095255074
 51
209.904744926
  0
ARC
  8
0
 62
40
  6
CONTINUOUS
 10
236.5771990852
 20
104.0949788373
 40
1.5
 50
330.095255074
 51
29.904744926
  0
ARC
  8
0
 62
7
  6
CONTINUOUS
 10
87.0771990852
 20
99.4535892525
 40
0.2
 50
90.0
 51
180.0
  0
ARC
  8
0
 62
7
  6
CONTINUOUS
 10
237.6771990852
 20
57.696368422
 40
0.2
 50
270.0
 51
360.0
  0
ARC
  8
0
 62
7
  6
CONTINUOUS
 10
288.4066687315
 20
117.7092171619
 40
50.0
 50
36.1628008448
 51
46.2787379139
  0
ARC
  8
0
 62
7
  6
CONTINUOUS
 10
287.3135481321
 20
152.7537882192
 40
8.75
 50
29.0322772227
 51
59.4415682141
  0
ARC
  8
0
 62
7
  6
CONTINUOUS
 10
287.3179098518
 20
152.7537882192
 40
8.5
 50
109.7499227956
 51
231.9951143277
  0
ARC
  8
0
 62
7
  6
CONTINUOUS
 10
287.3179098518
 20
152.7537882192
 40
8.5
 50
232.4345865675
 51
250.2500772044
  0
ARC
  8
0
 62
6
  6
CONTINUOUS
 10
287.3179098518
 20
152.7537882192
 40
8.5
 50
231.9951143277
 51
232.4345865675
  0
ARC
  8
0
 62
7
  6
CONTINUOUS
 10
287.3179098518
 20
152.7537882192
 40
5.8
 50
0.0
 51
180.0
  0
CIRCLE
  8
0
 62
7
  6
CONTINUOUS
 10
287.3179098518
 20
152.7537882192
 40
4.15
  0
ARC
  8
0
 62
7
  6
CONTINUOUS
 10
291.8179098518
 20
150.7537882192
 40
6.0
 50
270.0
 51
323.8371991552
  0
ARC
  8
0
 62
7
  6
CONTINUOUS
 10
295.6198394439
 20
157.3641596407
 40
0.75
 50
209.0322772227
 51
250.46
  0
ARC
  8
0
 62
7
  6
CONTINUOUS
 10
291.8892994366
 20
160.5037882192
 40
0.25
 50
90.0
 51
239.4415682141
  0
ARC
  8
0
 62
7
  6
CONTINUOUS
 10
295.7205420778
 20
172.7537882192
 40
12.0
 50
270.0
 51
358.7999025083
  0
ARC
  8
0
 62
7
  6
CONTINUOUS
 10
306.5401006726
 20
153.7537882192
 40
1.0
 50
250.46
 51
270.0
  0
ARC
  8
0
 62
7
  6
CONTINUOUS
 10
311.9650864911
 20
145.8037882192
 40
1.0
 50
196.467546793
 51
270.0
  0
ARC
  8
0
 62
7
  6
CONTINUOUS
 10
308.2328097084
 20
151.9037882192
 40
0.85
 50
16.467546793
 51
90.0
  0
ARC
  8
0
 62
7
  6
CONTINUOUS
 10
302.817193706
 20
153.4833975162
 40
0.5
 50
70.46
 51
133.7212620861
  0
ARC
  8
DEFAULT_1
 62
40
  6
CENTER
 10
311.6564984086
 20
260.2537882192
 40
2.1
 50
90.0
 51
150.4708019066
  0
ARC
  8
0
 62
7
  6
CONTINUOUS
 10
310.3160820827
 20
260.7182550191
 40
0.75
 50
130.4769917756
 51
178.7999025083
  0
ARC
  8
0
 62
7
  6
CONTINUOUS
 10
313.4707332126
 20
145.8037882192
 40
1.0
 50
270.0
 51
343.532453207
  0
ARC
  8
0
 62
7
  6
CONTINUOUS
 10
318.895719031
 20
153.7537882192
 40
1.0
 50
270.0
 51
289.54
  0
ARC
  8
0
 62
7
  6
CONTINUOUS
 10
317.2030099952
 20
151.9037882192
 40
0.85
 50
90.0
 51
163.532453207
  0
ARC
  8
0
 62
7
  6
CONTINUOUS
 10
322.6186259977
 20
153.4833975162
 40
0.5
 50
46.2787379139
 51
109.54
  0
ARC
  8
0
 62
7
  6
CONTINUOUS
 10
337.0291509721
 20
117.7092171619
 40
50.0
 50
133.7212620861
 51
143.8371991552
  0
ARC
  8
0
 62
7
  6
CONTINUOUS
 10
329.7152776259
 20
172.7537882192
 40
12.0
 50
181.2000974917
 51
270.0
  0
ARC
  8
0
 62
6
  6
CONTINUOUS
 10
338.1222715715
 20
152.7537882192
 40
8.75
 50
120.5584317859
 51
150.9677227773
  0
ARC
  8
0
 62
7
  6
CONTINUOUS
 10
338.1179098518
 20
152.7537882192
 40
8.5
 50
289.7499227956
 51
70.2500772044
  0
ARC
  8
0
 62
7
  6
CONTINUOUS
 10
333.6179098518
 20
150.7537882192
 40
6.0
 50
216.1628008448
 51
270.0
  0
CIRCLE
  8
0
 62
7
  6
CONTINUOUS
 10
338.1179098518
 20
152.7537882192
 40
4.15
  0
ARC
  8
0
 62
6
  6
CONTINUOUS
 10
329.8159802597
 20
157.3641596407
 40
0.75
 50
289.54
 51
330.9677227773
  0
ARC
  8
0
 62
6
  6
CONTINUOUS
 10
333.5465202671
 20
160.5037882192
 40
0.25
 50
300.5584317859
 51
90.0
  0
ARC
  8
0
 62
7
  6
CONTINUOUS
 10
312.7179098518
 20
257.9037882192
 40
4.45
 50
49.5230082244
 51
52.0184905223
  0
ARC
  8
0
 62
7
  6
CONTINUOUS
 10
312.7179098518
 20
257.9037882192
 40
4.45
 50
127.981381308
 51
130.4769917756
  0
ARC
  8
0
 62
7
  6
CONTINUOUS
 10
312.7179098518
 20
257.9037882192
 40
4.45
 50
55.7674935528
 51
124.2325036586
  0
ARC
  8
DEFAULT_1
 62
40
  6
CENTER
 10
313.7793212951
 20
260.2537882192
 40
2.1
 50
29.5291980949
 51
90.0
  0
ARC
  8
0
 62
7
  6
CONTINUOUS
 10
315.1197376209
 20
260.7182550191
 40
0.75
 50
1.2000974917
 51
49.5230082244
  0
ENDSEC
  0
EOF
