  0
SECTION
  2
HEADER
  9
$EXTMAX
 10
420.0
 20
297.0
 30
0.0
  9
$EXTMIN
 10
0.0
 20
0.0
 30
0.0
  9
$LIMMIN
 10
0.0
 20
0.0
  9
$LIMMAX
 10
420.0
 20
297.0
  9
$VIEWCTR
 10
210.0
 20
148.5
  9
$VIEWSIZE
 40
297.0
  9
$CLAYER
  8
0
  9
$LTSCALE
 40
23.1
  9
$CELTYPE
  6
BYLAYER
  9
$DIMSCALE
 40
1.0
  9
$DIMASZ
 40
3.5
  9
$DIMEXO
 40
2.625
  9
$DIMDLI
 40
15.96
  9
$DIMEXE
 40
7.56
  9
$DIMCEN
 40
3.78
  9
$DIMLFAC
 40
1.0
  9
$DIMBLK
  1
_FILLED
  9
$DIMTXT
 40
3.5
  9
$PDMODE
 70
3
  9
$PDSIZE
 40
0.3125
  9
$TILEMODE
 70
1
  0
ENDSEC
  0
SECTION
  2
TABLES
  0
TABLE
  2
LTYPE
 70
6
  0
LTYPE
  2
BYBLOCK
 70
0
  3

 72
65
 73
0
 40
0.0
  0
LTYPE
  2
BYLAYER
 70
0
  3

 72
65
 73
0
 40
0.0
  0
LTYPE
  2
CONTINUOUS
 70
64
  3
Solid line
 72
65
 73
0
 40
0.0
  0
LTYPE
  2
CENTER
 70
64
  3
____ _ ____ _ ____ _ ____ _ ____ _ ____ _ ____
 72
65
 73
4
 40
0.6
 49
0.375
 49
-0.075
 49
0.075
 49
-0.075
  0
LTYPE
  2
HIDDEN
 70
64
  3
- - - - - - - - - - - - - - - - - - - -
 72
65
 73
2
 40
0.2
 49
0.1
 49
-0.1
  0
LTYPE
  2
PHANTOM
 70
64
  3
_____ _ _ _____ _ _ _____ _ _ _____
 72
65
 73
6
 40
0.8
 49
0.45
 49
-0.05
 49
0.1
 49
-0.05
 49
0.1
 49
-0.05
  0
LTYPE
  2
DOT
 70
64
  3
. . . . . . . . . . . . . . . . . . . .
 72
65
 73
2
 40
0.2
 49
0.1
 49
-0.1
  0
LTYPE
  2
DASHED
 70
64
  3
- - - - - - - - - - - - - - - - - - - -
 72
65
 73
2
 40
0.2
 49
0.1
 49
-0.1
  0
ENDTAB
  0
TABLE
  2
LAYER
 70
36
  0
LAYER
  2
0
 70
0
 62
7
  6
CONTINUOUS
  0
LAYER
  2
DEFAULT_1
 70
0
 62
7
  6
CENTER
  0
LAYER
  2
DEFAULT_2
 70
0
 62
8
  6
HIDDEN
  0
LAYER
  2
DEFAULT_3
 70
0
 62
7
  6
PHANTOM
  0
LAYER
  2
3_ALL_SYMBOLS
 70
0
 62
7
  6
CONTINUOUS
  0
LAYER
  2
BLANK_PLAN
 70
0
 62
7
  6
CONTINUOUS
  0
LAYER
  2
NOTES
 70
0
 62
7
  6
CONTINUOUS
  0
ENDTAB
  0
TABLE
  2
STYLE
 70
1
  0
STYLE
  2
STANDARD
 70
0
 40
0.0
 41
0.8
 50
0.0
 71
0
 42
0.2
  3
txt
  4

  0
STYLE
  2
TEXTSTYLE_1
 70
0
 40
0.0
 41
0.8
 50
0.0
 71
0
 42
0.2
  3
gdt
  4

  0
STYLE
  2
TEXTSTYLE_2
 70
0
 40
0.0
 41
0.6
 50
0.0
 71
0
 42
0.2
  3
txt
  4

  0
STYLE
  2
TEXTSTYLE_3
 70
0
 40
0.0
 41
1.0
 50
0.0
 71
0
 42
0.2
  3
ftb_____.ttf
  4

  0
STYLE
  2
TEXTSTYLE_4
 70
0
 40
0.0
 41
1.0
 50
0.0
 71
0
 42
0.2
  3
fti_____.ttf
  4

  0
STYLE
  2
TEXTSTYLE_5
 70
0
 40
0.0
 41
1.0
 50
0.0
 71
0
 42
0.2
  3
frutiger light.ttf
  4

  0
STYLE
  2
TEXTSTYLE_6
 70
0
 40
0.0
 41
0.7
 50
0.0
 71
0
 42
0.2
  3
txt
  4

  0
STYLE
  2
TEXTSTYLE_7
 70
0
 40
0.0
 41
0.3
 50
0.0
 71
0
 42
0.2
  3
txt
  4

  0
ENDTAB
  0
ENDSEC
  0
SECTION
  2
BLOCKS
  0
BLOCK
  8
0
 62
2
  6
CONTINUOUS
  2
SYMBOL_5_BL1
 70
64
 10
382.7840918555
 20
35.5067593403
  0
TEXT
  8
0
 62
7
  6
CONTINUOUS
 10
373.842376864
 20
30.5995157174
  7
TEXTSTYLE_4
 40
1.0655737705
  1
The brand for plastic modular belts and chains
 41
1.0
 72
0
  0
LINE
  8
0
 62
7
  6
CONTINUOUS
 10
358.7621602445
 20
36.0805298321
 11
358.7621602445
 21
33.9493822911
  0
LINE
  8
0
 62
7
  6
CONTINUOUS
 10
359.0512227376
 20
30.9584509954
 11
359.0512227376
 21
31.0552420547
  0
LINE
  8
0
 62
7
  6
CONTINUOUS
 10
358.7621602445
 20
31.0229783683
 11
358.8199727462
 21
30.8293962497
  0
LINE
  8
0
 62
7
  6
CONTINUOUS
 10
360.1556028675
 20
33.867415078
 11
360.1556028675
 21
36.0805298321
  0
LINE
  8
0
 62
7
  6
CONTINUOUS
 10
361.0746601894
 20
32.0231527829
 11
361.0746601894
 21
30.5067593403
  0
LINE
  8
0
 62
7
  6
CONTINUOUS
 10
361.3637227445
 20
30.5067593403
 11
361.3637227445
 21
31.2488242184
  0
LINE
  8
0
 62
7
  6
CONTINUOUS
 10
361.3637227445
 20
31.3778789641
 11
361.3637227445
 21
32.0231527829
  0
LINE
  8
0
 62
7
  6
CONTINUOUS
 10
358.8199727462
 20
31.216560532
 11
358.7621602445
 21
31.0229783683
  0
LINE
  8
0
 62
7
  6
CONTINUOUS
 10
359.1668477307
 20
30.7971325633
 11
359.0512227376
 21
30.9584509954
  0
LINE
  8
0
 62
7
  6
CONTINUOUS
 10
360.2652852997
 20
31.3133515913
 11
360.3230977445
 21
31.216560532
  0
LINE
  8
0
 62
7
  6
CONTINUOUS
 10
360.6121602997
 20
31.216560532
 11
360.5543476894
 21
31.3456152777
  0
LINE
  8
0
 62
7
  6
CONTINUOUS
 10
362.0408487691
 20
36.0805298321
 11
362.0408487691
 21
34.2772511436
  0
LINE
  8
0
 62
7
  6
CONTINUOUS
 10
362.0408487691
 20
32.9657757338
 11
362.0408487691
 21
32.3100380288
  0
LINE
  8
0
 62
7
  6
CONTINUOUS
 10
362.4043477445
 20
31.1520331591
 11
362.4043477445
 21
30.5067593403
  0
LINE
  8
0
 62
7
  6
CONTINUOUS
 10
362.6934101343
 20
30.5067593403
 11
362.6934101343
 21
31.1520331591
  0
LINE
  8
0
 62
7
  6
CONTINUOUS
 10
359.0512227376
 20
31.0552420547
 11
359.1090352445
 21
31.1842968456
  0
LINE
  8
0
 62
7
  6
CONTINUOUS
 10
358.8199727462
 20
30.8293962497
 11
358.9355977445
 21
30.7003414814
  0
LINE
  8
0
 62
7
  6
CONTINUOUS
 10
362.3465351343
 20
31.2810879048
 11
362.4043477445
 21
31.1520331591
  0
LINE
  8
0
 62
7
  6
CONTINUOUS
 10
363.1559103548
 20
30.7971325633
 11
363.2137226343
 21
30.668077795
  0
LINE
  8
0
 62
7
  6
CONTINUOUS
 10
362.6934101343
 20
31.1520331591
 11
362.6355978548
 21
31.3133515913
  0
LINE
  8
0
 62
7
  6
CONTINUOUS
 10
363.1559103548
 20
31.3456152777
 11
363.1559103548
 21
31.2810879048
  0
LINE
  8
0
 62
7
  6
CONTINUOUS
 10
363.1559103548
 20
30.8939236226
 11
363.1559103548
 21
30.7971325633
  0
LINE
  8
0
 62
7
  6
CONTINUOUS
 10
363.4342913921
 20
32.3100380288
 11
363.4342913921
 21
36.0805298321
  0
LINE
  8
0
 62
7
  6
CONTINUOUS
 10
363.4449727445
 20
30.7648688543
 11
363.4449727445
 21
30.8293962497
  0
LINE
  8
0
 62
7
  6
CONTINUOUS
 10
363.7621602445
 20
36.0805298321
 11
363.7621602445
 21
32.3100380288
  0
LINE
  8
0
 62
7
  6
CONTINUOUS
 10
360.5543476894
 20
30.7003414814
 11
360.6121602997
 21
30.8293962497
  0
LINE
  8
0
 62
7
  6
CONTINUOUS
 10
364.9480979651
 20
30.6035504109
 11
364.890285024
 21
30.7648688543
  0
LINE
  8
0
 62
7
  6
CONTINUOUS
 10
364.6012229651
 20
31.2810879048
 11
364.6012229651
 21
31.1842968456
  0
LINE
  8
0
 62
7
  6
CONTINUOUS
 10
364.6012229651
 20
31.0552420547
 11
364.6012229651
 21
30.8616599362
  0
LINE
  8
0
 62
7
  6
CONTINUOUS
 10
364.890285024
 20
30.7648688543
 11
364.890285024
 21
31.2810879048
  0
LINE
  8
0
 62
7
  6
CONTINUOUS
 10
365.1556028675
 20
32.3100380288
 11
365.1556028675
 21
34.1133167174
  0
LINE
  8
0
 62
7
  6
CONTINUOUS
 10
365.1556028675
 20
35.4247921272
 11
365.1556028675
 21
36.0805298321
  0
LINE
  8
0
 62
7
  6
CONTINUOUS
 10
365.4684104651
 20
32.0231527829
 11
365.4684104651
 21
31.8618343508
  0
LINE
  8
0
 62
7
  6
CONTINUOUS
 10
365.4684104651
 20
31.5391973962
 11
365.4684104651
 21
30.5067593403
  0
LINE
  8
0
 62
7
  6
CONTINUOUS
 10
365.757472524
 20
30.5067593403
 11
365.757472524
 21
31.5391973962
  0
LINE
  8
0
 62
7
  6
CONTINUOUS
 10
365.757472524
 20
31.8618343508
 11
365.757472524
 21
32.0231527829
  0
LINE
  8
0
 62
7
  6
CONTINUOUS
 10
360.3230977445
 20
30.8293962497
 11
360.2652852997
 21
30.7326051679
  0
LINE
  8
0
 62
7
  6
CONTINUOUS
 10
362.6355978548
 20
31.3133515913
 11
362.5777852445
 21
31.3778789641
  0
LINE
  8
0
 62
7
  6
CONTINUOUS
 10
363.5027853548
 20
30.7003414814
 11
363.4449727445
 21
30.7648688543
  0
LINE
  8
0
 62
7
  6
CONTINUOUS
 10
364.6590352445
 20
30.5712867188
 11
364.716847524
 21
30.5067593403
  0
LINE
  8
0
 62
7
  6
CONTINUOUS
 10
364.6012229651
 20
30.668077795
 11
364.6590352445
 21
30.5712867188
  0
LINE
  8
0
 62
7
  6
CONTINUOUS
 10
365.0059102445
 20
30.5067593403
 11
364.9480979651
 21
30.6035504109
  0
LINE
  8
0
 62
7
  6
CONTINUOUS
 10
364.890285024
 20
31.2810879048
 11
364.8324727445
 21
31.3778789641
  0
LINE
  8
0
 62
7
  6
CONTINUOUS
 10
366.2199727445
 20
31.5391973962
 11
366.2199727445
 21
30.5067593403
  0
LINE
  8
0
 62
7
  6
CONTINUOUS
 10
366.5090354651
 20
30.5067593403
 11
366.5090354651
 21
31.2488242184
  0
LINE
  8
0
 62
7
  6
CONTINUOUS
 10
366.5090354651
 20
31.3778789641
 11
366.5090354651
 21
31.5391973962
  0
LINE
  8
0
 62
7
  6
CONTINUOUS
 10
367.0408487691
 20
34.5231527829
 11
367.0408487691
 21
32.3100380288
  0
LINE
  8
0
 62
7
  6
CONTINUOUS
 10
358.9355977445
 20
31.3456152777
 11
358.8199727462
 21
31.216560532
  0
LINE
  8
0
 62
7
  6
CONTINUOUS
 10
359.1090352445
 20
31.1842968456
 11
359.1668477307
 21
31.2488242184
  0
LINE
  8
0
 62
7
  6
CONTINUOUS
 10
358.9355977445
 20
30.7003414814
 11
359.0512227376
 21
30.6358140973
  0
LINE
  8
0
 62
7
  6
CONTINUOUS
 10
359.3402852307
 20
30.7003414814
 11
359.1668477307
 21
30.7971325633
  0
LINE
  8
0
 62
7
  6
CONTINUOUS
 10
364.543410024
 20
31.3456152777
 11
364.6012229651
 21
31.2810879048
  0
LINE
  8
0
 62
7
  6
CONTINUOUS
 10
367.491847524
 20
31.2810879048
 11
367.5496604651
 21
31.1197694727
  0
LINE
  8
0
 62
7
  6
CONTINUOUS
 10
367.838722524
 20
31.1197694727
 11
367.7809102445
 21
31.2810879048
  0
LINE
  8
0
 62
7
  6
CONTINUOUS
 10
367.5496604651
 20
31.1197694727
 11
367.5496604651
 21
30.5067593403
  0
LINE
  8
0
 62
7
  6
CONTINUOUS
 10
367.838722524
 20
30.5067593403
 11
367.838722524
 21
31.1197694727
  0
LINE
  8
0
 62
7
  6
CONTINUOUS
 10
368.3012227445
 20
31.3456152777
 11
368.3012227445
 21
31.2810879048
  0
LINE
  8
0
 62
7
  6
CONTINUOUS
 10
368.4342913921
 20
32.3100380288
 11
368.4342913921
 21
34.4411855698
  0
LINE
  8
0
 62
7
  6
CONTINUOUS
 10
368.7621602445
 20
36.0805298321
 11
368.7621602445
 21
32.3100380288
  0
LINE
  8
0
 62
7
  6
CONTINUOUS
 10
363.4449727445
 20
30.8293962497
 11
363.5027853548
 21
30.926187309
  0
LINE
  8
0
 62
7
  6
CONTINUOUS
 10
359.0512227376
 20
30.6358140973
 11
359.2246602583
 21
30.5712867188
  0
LINE
  8
0
 62
7
  6
CONTINUOUS
 10
360.5543476894
 20
31.3456152777
 11
360.3809101894
 21
31.4424063369
  0
LINE
  8
0
 62
7
  6
CONTINUOUS
 10
363.2137226343
 20
30.668077795
 11
363.3871601343
 21
30.5712867188
  0
LINE
  8
0
 62
7
  6
CONTINUOUS
 10
362.2309102445
 20
31.3456152777
 11
362.3465351343
 21
31.2810879048
  0
LINE
  8
0
 62
7
  6
CONTINUOUS
 10
362.5777852445
 20
31.3778789641
 11
362.4621603548
 21
31.4424063369
  0
LINE
  8
0
 62
7
  6
CONTINUOUS
 10
368.3012227445
 20
30.7648688543
 11
368.4168479651
 21
30.6358140973
  0
LINE
  8
0
 62
7
  6
CONTINUOUS
 10
368.6480977445
 20
30.7003414814
 11
368.5902854651
 21
30.7648688543
  0
LINE
  8
0
 62
7
  6
CONTINUOUS
 10
368.3012227445
 20
31.2810879048
 11
368.4168479651
 21
31.1520331591
  0
LINE
  8
0
 62
7
  6
CONTINUOUS
 10
367.7809102445
 20
31.2810879048
 11
367.7230979651
 21
31.3778789641
  0
LINE
  8
0
 62
7
  6
CONTINUOUS
 10
370.1512223035
 20
30.7003414814
 11
370.1512223035
 21
30.7648688543
  0
LINE
  8
0
 62
7
  6
CONTINUOUS
 10
370.1556028675
 20
32.3100380288
 11
370.1556028675
 21
36.0805298321
  0
LINE
  8
0
 62
7
  6
CONTINUOUS
 10
363.2137226343
 20
31.4101426505
 11
363.1559103548
 21
31.3456152777
  0
LINE
  8
0
 62
7
  6
CONTINUOUS
 10
360.091847717
 20
31.3778789641
 11
360.2652852997
 21
31.3133515913
  0
LINE
  8
0
 62
7
  6
CONTINUOUS
 10
364.8324727445
 20
31.3778789641
 11
364.716847524
 21
31.4424063369
  0
LINE
  8
0
 62
7
  6
CONTINUOUS
 10
368.6480977445
 20
31.216560532
 11
368.5902854651
 21
31.2810879048
  0
LINE
  8
0
 62
7
  6
CONTINUOUS
 10
369.8043479651
 20
30.8293962497
 11
369.8621602445
 21
30.7648688543
  0
LINE
  8
0
 62
7
  6
CONTINUOUS
 10
370.1512223035
 20
30.7648688543
 11
370.0355977445
 21
30.8939236226
  0
LINE
  8
0
 62
7
  6
CONTINUOUS
 10
369.8043479651
 20
31.3456152777
 11
369.8621602445
 21
31.2810879048
  0
LINE
  8
0
 62
7
  6
CONTINUOUS
 10
370.1512223035
 20
31.2810879048
 11
370.0355977445
 21
31.4101426505
  0
LINE
  8
0
 62
7
  6
CONTINUOUS
 10
363.4449727445
 20
31.2810879048
 11
363.5027853548
 21
31.3456152777
  0
LINE
  8
0
 62
7
  6
CONTINUOUS
 10
363.2715352445
 20
31.0229783683
 11
363.1559103548
 21
30.8939236226
  0
LINE
  8
0
 62
7
  6
CONTINUOUS
 10
364.6012229651
 20
30.8616599362
 11
364.543410024
 21
30.7971325633
  0
LINE
  8
0
 62
7
  6
CONTINUOUS
 10
364.543410024
 20
30.6035504109
 11
364.6012229651
 21
30.668077795
  0
LINE
  8
0
 62
7
  6
CONTINUOUS
 10
363.3871601343
 20
30.5712867188
 11
363.5027853548
 21
30.5390230296
  0
LINE
  8
0
 62
7
  6
CONTINUOUS
 10
360.3809101894
 20
31.4424063369
 11
360.1496602445
 21
31.5069337098
  0
LINE
  8
0
 62
7
  6
CONTINUOUS
 10
363.7340351343
 20
30.6358140973
 11
363.5027853548
 21
30.7003414814
  0
LINE
  8
0
 62
7
  6
CONTINUOUS
 10
362.4621603548
 20
31.4424063369
 11
362.2887228548
 21
31.5069337098
  0
LINE
  8
0
 62
7
  6
CONTINUOUS
 10
364.716847524
 20
31.4424063369
 11
364.543410024
 21
31.5069337098
  0
LINE
  8
0
 62
7
  6
CONTINUOUS
 10
367.3762229651
 20
31.3456152777
 11
367.491847524
 21
31.2810879048
  0
LINE
  8
0
 62
7
  6
CONTINUOUS
 10
367.7230979651
 20
31.3778789641
 11
367.6074727445
 21
31.4424063369
  0
LINE
  8
0
 62
7
  6
CONTINUOUS
 10
359.2246602583
 20
30.5712867188
 11
359.3980977583
 21
30.5390230296
  0
LINE
  8
0
 62
7
  6
CONTINUOUS
 10
359.6871602721
 20
30.6358140973
 11
359.3402852307
 21
30.7003414814
  0
LINE
  8
0
 62
7
  6
CONTINUOUS
 10
362.1152853548
 20
31.3778789641
 11
362.2309102445
 21
31.3456152777
  0
LINE
  8
0
 62
7
  6
CONTINUOUS
 10
364.4277854651
 20
31.3778789641
 11
364.543410024
 21
31.3456152777
  0
LINE
  8
0
 62
7
  6
CONTINUOUS
 10
368.7637229651
 20
30.668077795
 11
368.6480977445
 21
30.7003414814
  0
LINE
  8
0
 62
7
  6
CONTINUOUS
 10
367.2605977445
 20
31.3778789641
 11
367.3762229651
 21
31.3456152777
  0
LINE
  8
0
 62
7
  6
CONTINUOUS
 10
368.4168479651
 20
30.6358140973
 11
368.5902854651
 21
30.5712867188
  0
LINE
  8
0
 62
7
  6
CONTINUOUS
 10
367.6074727445
 20
31.4424063369
 11
367.4340352445
 21
31.5069337098
  0
LINE
  8
0
 62
7
  6
CONTINUOUS
 10
368.8215352445
 20
31.1520331591
 11
368.6480977445
 21
31.216560532
  0
LINE
  8
0
 62
7
  6
CONTINUOUS
 10
369.6309104651
 20
30.8939236226
 11
369.8043479651
 21
30.8293962497
  0
LINE
  8
0
 62
7
  6
CONTINUOUS
 10
370.0355977445
 20
31.4101426505
 11
369.8621602445
 21
31.4746700234
  0
LINE
  8
0
 62
7
  6
CONTINUOUS
 10
368.4168479651
 20
31.1520331591
 11
368.6480977445
 21
31.0552420547
  0
LINE
  8
0
 62
7
  6
CONTINUOUS
 10
370.0355977445
 20
30.8939236226
 11
369.8043479651
 21
30.9907146818
  0
LINE
  8
0
 62
7
  6
CONTINUOUS
 10
368.5902854651
 20
31.2810879048
 11
368.6480977445
 21
31.3456152777
  0
LINE
  8
0
 62
7
  6
CONTINUOUS
 10
359.0512227376
 20
31.4101426505
 11
358.9355977445
 21
31.3456152777
  0
LINE
  8
0
 62
7
  6
CONTINUOUS
 10
359.1668477307
 20
31.2488242184
 11
359.3402852307
 21
31.3456152777
  0
LINE
  8
0
 62
7
  6
CONTINUOUS
 10
361.4793477997
 20
31.4424063369
 11
361.3637227445
 21
31.3778789641
  0
LINE
  8
0
 62
7
  6
CONTINUOUS
 10
361.3637227445
 20
31.2488242184
 11
361.4793477997
 21
31.3133515913
  0
LINE
  8
0
 62
7
  6
CONTINUOUS
 10
360.3809101894
 20
30.6035504109
 11
360.5543476894
 21
30.7003414814
  0
LINE
  8
0
 62
7
  6
CONTINUOUS
 10
359.3980977583
 20
30.5390230296
 11
359.744972717
 21
30.5067593403
  0
LINE
  8
0
 62
7
  6
CONTINUOUS
 10
363.5027853548
 20
30.5390230296
 11
363.7340351343
 21
30.5067593403
  0
LINE
  8
0
 62
7
  6
CONTINUOUS
 10
361.8840352445
 20
31.4101426505
 11
362.1152853548
 21
31.3778789641
  0
LINE
  8
0
 62
7
  6
CONTINUOUS
 10
364.1965353548
 20
31.4101426505
 11
364.4277854651
 21
31.3778789641
  0
LINE
  8
0
 62
7
  6
CONTINUOUS
 10
368.6480977445
 20
31.0552420547
 11
369.6309104651
 21
30.8939236226
  0
LINE
  8
0
 62
7
  6
CONTINUOUS
 10
369.8043479651
 20
30.9907146818
 11
368.8215352445
 21
31.1520331591
  0
LINE
  8
0
 62
7
  6
CONTINUOUS
 10
362.2887228548
 20
31.5069337098
 11
362.1152853548
 21
31.5391973962
  0
LINE
  8
0
 62
7
  6
CONTINUOUS
 10
368.5902854651
 20
30.5712867188
 11
368.7637229651
 21
30.5390230296
  0
LINE
  8
0
 62
7
  6
CONTINUOUS
 10
367.4340352445
 20
31.5069337098
 11
367.2605977445
 21
31.5391973962
  0
LINE
  8
0
 62
7
  6
CONTINUOUS
 10
369.6887227445
 20
31.3778789641
 11
369.8043479651
 21
31.3456152777
  0
LINE
  8
0
 62
7
  6
CONTINUOUS
 10
369.8621602445
 20
30.7648688543
 11
369.8043479651
 21
30.7003414814
  0
LINE
  8
0
 62
7
  6
CONTINUOUS
 10
368.4168479651
 20
31.4424063369
 11
368.3012227445
 21
31.3456152777
  0
LINE
  8
0
 62
7
  6
CONTINUOUS
 10
363.3293478548
 20
31.4746700234
 11
363.2137226343
 21
31.4101426505
  0
LINE
  8
0
 62
7
  6
CONTINUOUS
 10
363.3871601343
 20
31.0875057863
 11
363.2715352445
 21
31.0229783683
  0
LINE
  8
0
 62
7
  6
CONTINUOUS
 10
363.5027853548
 20
30.926187309
 11
363.6184102445
 21
30.9907146818
  0
LINE
  8
0
 62
7
  6
CONTINUOUS
 10
361.0746601894
 20
30.5067593403
 11
361.3637227445
 21
30.5067593403
  0
LINE
  8
0
 62
7
  6
CONTINUOUS
 10
362.4043477445
 20
30.5067593403
 11
362.6934101343
 21
30.5067593403
  0
LINE
  8
0
 62
7
  6
CONTINUOUS
 10
363.7340351343
 20
30.5067593403
 11
364.0809101343
 21
30.5067593403
  0
LINE
  8
0
 62
7
  6
CONTINUOUS
 10
364.716847524
 20
30.5067593403
 11
365.0059102445
 21
30.5067593403
  0
LINE
  8
0
 62
7
  6
CONTINUOUS
 10
365.4684104651
 20
30.5067593403
 11
365.757472524
 21
30.5067593403
  0
LINE
  8
0
 62
7
  6
CONTINUOUS
 10
366.2199727445
 20
30.5067593403
 11
366.5090354651
 21
30.5067593403
  0
LINE
  8
0
 62
7
  6
CONTINUOUS
 10
367.5496604651
 20
30.5067593403
 11
367.838722524
 21
30.5067593403
  0
LINE
  8
0
 62
7
  6
CONTINUOUS
 10
369.1105979651
 20
30.5067593403
 11
369.4574729651
 21
30.5067593403
  0
LINE
  8
0
 62
7
  6
CONTINUOUS
 10
369.4574729651
 20
30.6358140973
 11
369.1105979651
 21
30.6358140973
  0
LINE
  8
0
 62
7
  6
CONTINUOUS
 10
364.0809101343
 20
30.6358140973
 11
363.7340351343
 21
30.6358140973
  0
LINE
  8
0
 62
7
  6
CONTINUOUS
 10
368.5902854651
 20
30.7648688543
 11
368.3012227445
 21
30.7648688543
  0
LINE
  8
0
 62
7
  6
CONTINUOUS
 10
360.6121602997
 20
30.8293962497
 11
360.3230977445
 21
30.8293962497
  0
LINE
  8
0
 62
7
  6
CONTINUOUS
 10
359.6871602721
 20
31.4101426505
 11
360.091847717
 21
31.3778789641
  0
LINE
  8
0
 62
7
  6
CONTINUOUS
 10
360.1496602445
 20
31.5069337098
 11
359.744972717
 21
31.5391973962
  0
LINE
  8
0
 62
7
  6
CONTINUOUS
 10
368.7637229651
 20
30.5390230296
 11
369.1105979651
 21
30.5067593403
  0
LINE
  8
0
 62
7
  6
CONTINUOUS
 10
369.1105979651
 20
30.6358140973
 11
368.7637229651
 21
30.668077795
  0
LINE
  8
0
 62
7
  6
CONTINUOUS
 10
364.543410024
 20
31.5069337098
 11
364.1965353548
 21
31.5391973962
  0
LINE
  8
0
 62
7
  6
CONTINUOUS
 10
369.3418477445
 20
31.4101426505
 11
369.6887227445
 21
31.3778789641
  0
LINE
  8
0
 62
7
  6
CONTINUOUS
 10
369.6887227445
 20
31.5069337098
 11
369.3418477445
 21
31.5391973962
  0
LINE
  8
0
 62
7
  6
CONTINUOUS
 10
367.0293479651
 20
31.4101426505
 11
367.2605977445
 21
31.3778789641
  0
LINE
  8
0
 62
7
  6
CONTINUOUS
 10
369.8621602445
 20
31.4746700234
 11
369.6887227445
 21
31.5069337098
  0
LINE
  8
0
 62
7
  6
CONTINUOUS
 10
370.0355977445
 20
30.6035504109
 11
370.1512223035
 21
30.7003414814
  0
LINE
  8
0
 62
7
  6
CONTINUOUS
 10
364.543410024
 20
30.7971325633
 11
364.369972524
 21
30.7003414814
  0
LINE
  8
0
 62
7
  6
CONTINUOUS
 10
366.624660024
 20
31.4424063369
 11
366.5090354651
 21
31.3778789641
  0
LINE
  8
0
 62
7
  6
CONTINUOUS
 10
366.5090354651
 20
31.2488242184
 11
366.624660024
 21
31.3133515913
  0
LINE
  8
0
 62
7
  6
CONTINUOUS
 10
359.2246602583
 20
31.4746700234
 11
359.0512227376
 21
31.4101426505
  0
LINE
  8
0
 62
7
  6
CONTINUOUS
 10
361.6527851343
 20
31.5069337098
 11
361.4793477997
 21
31.4424063369
  0
LINE
  8
0
 62
7
  6
CONTINUOUS
 10
361.4793477997
 20
31.3133515913
 11
361.6527851343
 21
31.3778789641
  0
LINE
  8
0
 62
7
  6
CONTINUOUS
 10
360.2652852997
 20
30.7326051679
 11
360.091847717
 21
30.668077795
  0
LINE
  8
0
 62
7
  6
CONTINUOUS
 10
369.6887227445
 20
30.668077795
 11
369.4574729651
 21
30.6358140973
  0
LINE
  8
0
 62
7
  6
CONTINUOUS
 10
364.0809101343
 20
30.5067593403
 11
364.369972524
 21
30.5390230296
  0
LINE
  8
0
 62
7
  6
CONTINUOUS
 10
369.4574729651
 20
30.5067593403
 11
369.8043479651
 21
30.5390230296
  0
LINE
  8
0
 62
7
  6
CONTINUOUS
 10
359.744972717
 20
30.5067593403
 11
360.1496602445
 21
30.5390230296
  0
LINE
  8
0
 62
7
  6
CONTINUOUS
 10
360.091847717
 20
30.668077795
 11
359.6871602721
 21
30.6358140973
  0
LINE
  8
0
 62
7
  6
CONTINUOUS
 10
363.9652852445
 20
31.0552420547
 11
364.6012229651
 21
31.0552420547
  0
LINE
  8
0
 62
7
  6
CONTINUOUS
 10
364.6012229651
 20
31.1842968456
 11
363.9652852445
 21
31.1842968456
  0
LINE
  8
0
 62
7
  6
CONTINUOUS
 10
360.3230977445
 20
31.216560532
 11
360.6121602997
 21
31.216560532
  0
LINE
  8
0
 62
7
  6
CONTINUOUS
 10
363.1559103548
 20
31.2810879048
 11
363.4449727445
 21
31.2810879048
  0
LINE
  8
0
 62
7
  6
CONTINUOUS
 10
369.8621602445
 20
31.2810879048
 11
370.1512223035
 21
31.2810879048
  0
LINE
  8
0
 62
7
  6
CONTINUOUS
 10
363.8496603548
 20
31.4101426505
 11
364.1965353548
 21
31.4101426505
  0
LINE
  8
0
 62
7
  6
CONTINUOUS
 10
368.9949727445
 20
31.4101426505
 11
369.3418477445
 21
31.4101426505
  0
LINE
  8
0
 62
7
  6
CONTINUOUS
 10
369.3418477445
 20
31.5391973962
 11
368.9949727445
 21
31.5391973962
  0
LINE
  8
0
 62
7
  6
CONTINUOUS
 10
367.2605977445
 20
31.5391973962
 11
367.0293479651
 21
31.5391973962
  0
LINE
  8
0
 62
7
  6
CONTINUOUS
 10
366.5090354651
 20
31.5391973962
 11
366.2199727445
 21
31.5391973962
  0
LINE
  8
0
 62
7
  6
CONTINUOUS
 10
365.757472524
 20
31.5391973962
 11
365.4684104651
 21
31.5391973962
  0
LINE
  8
0
 62
7
  6
CONTINUOUS
 10
364.1965353548
 20
31.5391973962
 11
363.8496603548
 21
31.5391973962
  0
LINE
  8
0
 62
7
  6
CONTINUOUS
 10
362.1152853548
 20
31.5391973962
 11
361.8840352445
 21
31.5391973962
  0
LINE
  8
0
 62
7
  6
CONTINUOUS
 10
365.4684104651
 20
31.8618343508
 11
365.757472524
 21
31.8618343508
  0
LINE
  8
0
 62
7
  6
CONTINUOUS
 10
365.757472524
 20
32.0231527829
 11
365.4684104651
 21
32.0231527829
  0
LINE
  8
0
 62
7
  6
CONTINUOUS
 10
361.3637227445
 20
32.0231527829
 11
361.0746601894
 21
32.0231527829
  0
LINE
  8
0
 62
7
  6
CONTINUOUS
 10
360.4015045068
 20
32.3100380288
 11
360.8140758554
 21
32.3100380288
  0
LINE
  8
0
 62
7
  6
CONTINUOUS
 10
362.0408487691
 20
32.3100380288
 11
363.4342913921
 21
32.3100380288
  0
LINE
  8
0
 62
7
  6
CONTINUOUS
 10
363.7621602445
 20
32.3100380288
 11
365.1556028675
 21
32.3100380288
  0
LINE
  8
0
 62
7
  6
CONTINUOUS
 10
367.0408487691
 20
32.3100380288
 11
368.4342913921
 21
32.3100380288
  0
LINE
  8
0
 62
7
  6
CONTINUOUS
 10
368.7621602445
 20
32.3100380288
 11
370.1556028675
 21
32.3100380288
  0
LINE
  8
0
 62
7
  6
CONTINUOUS
 10
366.798097524
 20
31.5069337098
 11
366.624660024
 21
31.4424063369
  0
LINE
  8
0
 62
7
  6
CONTINUOUS
 10
364.369972524
 20
30.5390230296
 11
364.543410024
 21
30.6035504109
  0
LINE
  8
0
 62
7
  6
CONTINUOUS
 10
369.8043479651
 20
30.5390230296
 11
370.0355977445
 21
30.6035504109
  0
LINE
  8
0
 62
7
  6
CONTINUOUS
 10
369.8043479651
 20
30.7003414814
 11
369.6887227445
 21
30.668077795
  0
LINE
  8
0
 62
7
  6
CONTINUOUS
 10
368.7637229651
 20
31.3778789641
 11
368.9949727445
 21
31.4101426505
  0
LINE
  8
0
 62
7
  6
CONTINUOUS
 10
366.798097524
 20
31.3778789641
 11
367.0293479651
 21
31.4101426505
  0
LINE
  8
0
 62
7
  6
CONTINUOUS
 10
363.7340351343
 20
31.0229783683
 11
363.9652852445
 21
31.0552420547
  0
LINE
  8
0
 62
7
  6
CONTINUOUS
 10
367.0293479651
 20
31.5391973962
 11
366.798097524
 21
31.5069337098
  0
LINE
  8
0
 62
7
  6
CONTINUOUS
 10
363.6184102445
 20
31.3778789641
 11
363.8496603548
 21
31.4101426505
  0
LINE
  8
0
 62
7
  6
CONTINUOUS
 10
368.9949727445
 20
31.5391973962
 11
368.6480977445
 21
31.5069337098
  0
LINE
  8
0
 62
7
  6
CONTINUOUS
 10
363.9652852445
 20
31.1842968456
 11
363.6184102445
 21
31.1520331591
  0
LINE
  8
0
 62
7
  6
CONTINUOUS
 10
359.744972717
 20
31.5391973962
 11
359.3980977583
 21
31.5069337098
  0
LINE
  8
0
 62
7
  6
CONTINUOUS
 10
363.8496603548
 20
31.5391973962
 11
363.4449727445
 21
31.5069337098
  0
LINE
  8
0
 62
7
  6
CONTINUOUS
 10
361.221176638
 20
33.4575790124
 11
360.565438933
 21
33.4575790124
  0
LINE
  8
0
 62
7
  6
CONTINUOUS
 10
366.624660024
 20
31.3133515913
 11
366.798097524
 21
31.3778789641
  0
LINE
  8
0
 62
7
  6
CONTINUOUS
 10
368.6480977445
 20
31.3456152777
 11
368.7637229651
 21
31.3778789641
  0
LINE
  8
0
 62
7
  6
CONTINUOUS
 10
368.6480977445
 20
31.5069337098
 11
368.4168479651
 21
31.4424063369
  0
LINE
  8
0
 62
7
  6
CONTINUOUS
 10
364.369972524
 20
30.7003414814
 11
364.0809101343
 21
30.6358140973
  0
LINE
  8
0
 62
7
  6
CONTINUOUS
 10
361.6527851343
 20
31.3778789641
 11
361.8840352445
 21
31.4101426505
  0
LINE
  8
0
 62
7
  6
CONTINUOUS
 10
361.8840352445
 20
31.5391973962
 11
361.6527851343
 21
31.5069337098
  0
LINE
  8
0
 62
7
  6
CONTINUOUS
 10
359.4559102445
 20
31.3778789641
 11
359.6871602721
 21
31.4101426505
  0
LINE
  8
0
 62
7
  6
CONTINUOUS
 10
365.9752749986
 20
34.9329888485
 11
366.6310127035
 21
34.9329888485
  0
LINE
  8
0
 62
7
  6
CONTINUOUS
 10
363.6184102445
 20
30.9907146818
 11
363.7340351343
 21
31.0229783683
  0
LINE
  8
0
 62
7
  6
CONTINUOUS
 10
363.6184102445
 20
31.1520331591
 11
363.3871601343
 21
31.0875057863
  0
LINE
  8
0
 62
7
  6
CONTINUOUS
 10
363.5027853548
 20
31.3456152777
 11
363.6184102445
 21
31.3778789641
  0
LINE
  8
0
 62
7
  6
CONTINUOUS
 10
360.1496602445
 20
30.5390230296
 11
360.3809101894
 21
30.6035504109
  0
LINE
  8
0
 62
7
  6
CONTINUOUS
 10
363.4449727445
 20
31.5069337098
 11
363.3293478548
 21
31.4746700234
  0
LINE
  8
0
 62
7
  6
CONTINUOUS
 10
359.3980977583
 20
31.5069337098
 11
359.2246602583
 21
31.4746700234
  0
LINE
  8
0
 62
7
  6
CONTINUOUS
 10
370.1556028675
 20
36.0805298321
 11
368.7621602445
 21
36.0805298321
  0
LINE
  8
0
 62
7
  6
CONTINUOUS
 10
366.7949471298
 20
36.0805298321
 11
366.3823757812
 21
36.0805298321
  0
LINE
  8
0
 62
7
  6
CONTINUOUS
 10
365.1556028675
 20
36.0805298321
 11
363.7621602445
 21
36.0805298321
  0
LINE
  8
0
 62
7
  6
CONTINUOUS
 10
363.4342913921
 20
36.0805298321
 11
362.0408487691
 21
36.0805298321
  0
LINE
  8
0
 62
7
  6
CONTINUOUS
 10
360.1556028675
 20
36.0805298321
 11
358.7621602445
 21
36.0805298321
  0
LINE
  8
0
 62
7
  6
CONTINUOUS
 10
359.3402852307
 20
31.3456152777
 11
359.4559102445
 21
31.3778789641
  0
CIRCLE
  8
0
 62
7
  6
CONTINUOUS
 10
369.458881556
 20
38.4165954059
 40
2.0901639344
  0
ARC
  8
0
 62
7
  6
CONTINUOUS
 10
360.4015045068
 20
33.9493822911
 40
1.6393442623
 50
180.0
 51
270.0
  0
ARC
  8
0
 62
7
  6
CONTINUOUS
 10
366.7949471298
 20
34.4411855698
 40
1.6393442623
 50
0.0
 51
90.0
  0
ARC
  8
0
 62
7
  6
CONTINUOUS
 10
360.8140758554
 20
33.7854478649
 40
1.4754098361
 50
270.0
 51
326.2510114041
  0
ARC
  8
0
 62
7
  6
CONTINUOUS
 10
366.3823757812
 20
34.6051199961
 40
1.4754098361
 50
90.0
 51
146.2510114041
  0
ARC
  8
0
 62
7
  6
CONTINUOUS
 10
361.221176638
 20
34.2772511436
 40
0.8196721311
 50
270.0
 51
360.0
  0
ARC
  8
0
 62
7
  6
CONTINUOUS
 10
365.9752749986
 20
34.1133167174
 40
0.8196721311
 50
90.0
 51
180.0
  0
ARC
  8
0
 62
7
  6
CONTINUOUS
 10
360.565438933
 20
33.867415078
 40
0.4098360656
 50
180.0
 51
270.0
  0
ARC
  8
0
 62
7
  6
CONTINUOUS
 10
366.6310127035
 20
34.5231527829
 40
0.4098360656
 50
0.0
 51
90.0
  0
SOLID
  8
0
 62
7
  6
CONTINUOUS
 10
365.4684104651
 20
31.8618347111
 11
365.4684104651
 21
32.0231531947
 12
365.757472524
 22
31.8618347111
 13
365.757472524
 23
32.0231531947
  0
SOLID
  8
0
 62
7
  6
CONTINUOUS
 10
359.744972717
 20
31.5391977439
 11
360.1496602445
 21
31.5069333244
 12
359.3980977583
 22
31.5069333244
 13
359.3980977583
 23
31.5069333244
  0
SOLID
  8
0
 62
7
  6
CONTINUOUS
 10
359.2246602583
 20
31.4746706537
 11
359.3980977583
 21
31.5069333244
 12
360.1496602445
 22
31.5069333244
 13
360.1496602445
 23
31.5069333244
  0
SOLID
  8
0
 62
7
  6
CONTINUOUS
 10
360.1496602445
 20
31.5069333244
 11
360.3809101894
 21
31.4424063504
 12
359.2246602583
 22
31.4746706537
 13
359.2246602583
 23
31.4746706537
  0
SOLID
  8
0
 62
7
  6
CONTINUOUS
 10
359.0512227376
 20
31.4101419116
 11
359.2246602583
 21
31.4746706537
 12
360.3809101894
 22
31.4424063504
 13
360.3809101894
 23
31.4424063504
  0
SOLID
  8
0
 62
7
  6
CONTINUOUS
 10
359.0512227376
 20
31.4101419116
 11
360.3809101894
 21
31.4424063504
 12
359.6871602721
 22
31.4101419116
 13
359.6871602721
 23
31.4101419116
  0
SOLID
  8
0
 62
7
  6
CONTINUOUS
 10
359.6871602721
 20
31.4101419116
 11
360.3809101894
 21
31.4424063504
 12
360.091847717
 22
31.3778792603
 13
360.091847717
 23
31.3778792603
  0
SOLID
  8
0
 62
7
  6
CONTINUOUS
 10
360.3809101894
 20
31.4424063504
 11
360.5543476894
 21
31.345614957
 12
360.091847717
 22
31.3778792603
 13
360.091847717
 23
31.3778792603
  0
SOLID
  8
0
 62
7
  6
CONTINUOUS
 10
360.2652852997
 20
31.3133521701
 11
360.091847717
 21
31.3778792603
 12
360.5543476894
 22
31.345614957
 13
360.5543476894
 23
31.345614957
  0
SOLID
  8
0
 62
7
  6
CONTINUOUS
 10
360.2652852997
 20
31.3133521701
 11
360.5543476894
 21
31.345614957
 12
360.3230977445
 22
31.2165606992
 13
360.3230977445
 23
31.2165606992
  0
SOLID
  8
0
 62
7
  6
CONTINUOUS
 10
360.5543476894
 20
31.345614957
 11
360.6121602997
 21
31.2165606992
 12
360.3230977445
 22
31.2165606992
 13
360.3230977445
 23
31.2165606992
  0
SOLID
  8
0
 62
7
  6
CONTINUOUS
 10
361.6527851343
 20
31.5069329918
 11
361.8840352445
 21
31.5391972951
 12
362.1152853548
 22
31.5391972951
 13
362.1152853548
 23
31.5391972951
  0
SOLID
  8
0
 62
7
  6
CONTINUOUS
 10
362.1152853548
 20
31.5391972951
 11
362.2887228548
 21
31.5069329918
 12
361.6527851343
 22
31.5069329918
 13
361.6527851343
 23
31.5069329918
  0
SOLID
  8
0
 62
7
  6
CONTINUOUS
 10
361.4793477997
 20
31.4424059016
 11
361.6527851343
 21
31.5069329918
 12
362.2887228548
 22
31.5069329918
 13
362.2887228548
 23
31.5069329918
  0
SOLID
  8
0
 62
7
  6
CONTINUOUS
 10
362.2887228548
 20
31.5069329918
 11
362.4621603548
 21
31.4424059016
 12
361.4793477997
 22
31.4424059016
 13
361.4793477997
 23
31.4424059016
  0
SOLID
  8
0
 62
7
  6
CONTINUOUS
 10
362.4621603548
 20
31.4424059016
 11
361.8840352445
 21
31.4101420472
 12
361.4793477997
 22
31.4424059016
 13
361.4793477997
 23
31.4424059016
  0
SOLID
  8
0
 62
7
  6
CONTINUOUS
 10
361.3637227445
 20
31.3778788115
 11
361.4793477997
 21
31.4424059016
 12
361.8840352445
 22
31.4101420472
 13
361.8840352445
 23
31.4101420472
  0
SOLID
  8
0
 62
7
  6
CONTINUOUS
 10
361.8840352445
 20
31.4101420472
 11
361.6527851343
 21
31.3778788115
 12
361.3637227445
 22
31.3778788115
 13
361.3637227445
 23
31.3778788115
  0
SOLID
  8
0
 62
7
  6
CONTINUOUS
 10
361.8840352445
 20
31.4101420472
 11
362.4621603548
 21
31.4424059016
 12
362.1152853548
 22
31.3778788115
 13
362.1152853548
 23
31.3778788115
  0
SOLID
  8
0
 62
7
  6
CONTINUOUS
 10
362.4621603548
 20
31.4424059016
 11
362.5777852445
 21
31.3778788115
 12
362.1152853548
 22
31.3778788115
 13
362.1152853548
 23
31.3778788115
  0
SOLID
  8
0
 62
7
  6
CONTINUOUS
 10
362.2309102445
 20
31.345614957
 11
362.1152853548
 21
31.3778788115
 12
362.5777852445
 22
31.3778788115
 13
362.5777852445
 23
31.3778788115
  0
SOLID
  8
0
 62
7
  6
CONTINUOUS
 10
362.5777852445
 20
31.3778788115
 11
362.6355978548
 21
31.3133517213
 12
362.2309102445
 22
31.345614957
 13
362.2309102445
 23
31.345614957
  0
SOLID
  8
0
 62
7
  6
CONTINUOUS
 10
362.3465351343
 20
31.2810878668
 11
362.2309102445
 21
31.345614957
 12
362.6355978548
 22
31.3133517213
 13
362.6355978548
 23
31.3133517213
  0
SOLID
  8
0
 62
7
  6
CONTINUOUS
 10
362.3465351343
 20
31.2810878668
 11
362.6355978548
 21
31.3133517213
 12
362.4043477445
 22
31.1520332377
 13
362.4043477445
 23
31.1520332377
  0
SOLID
  8
0
 62
7
  6
CONTINUOUS
 10
362.6355978548
 20
31.3133517213
 11
362.6934101343
 21
31.1520332377
 12
362.4043477445
 22
31.1520332377
 13
362.4043477445
 23
31.1520332377
  0
SOLID
  8
0
 62
7
  6
CONTINUOUS
 10
361.6527851343
 20
31.3778788115
 11
361.4793477997
 21
31.3133517213
 12
361.3637227445
 22
31.3778788115
 13
361.3637227445
 23
31.3778788115
  0
SOLID
  8
0
 62
7
  6
CONTINUOUS
 10
361.4793477997
 20
31.3133517213
 11
361.3637227445
 21
31.2488235635
 12
361.3637227445
 22
31.3778788115
 13
361.3637227445
 23
31.3778788115
  0
SOLID
  8
0
 62
7
  6
CONTINUOUS
 10
361.3637227445
 20
31.2488235635
 11
361.0746601894
 21
30.5067593033
 12
361.3637227445
 22
31.3778788115
 13
361.3637227445
 23
31.3778788115
  0
SOLID
  8
0
 62
7
  6
CONTINUOUS
 10
361.3637227445
 20
31.3778788115
 11
361.0746601894
 21
30.5067593033
 12
361.3637227445
 22
32.0231527459
 13
361.3637227445
 23
32.0231527459
  0
SOLID
  8
0
 62
7
  6
CONTINUOUS
 10
361.0746601894
 20
30.5067593033
 11
361.0746601894
 21
32.0231527459
 12
361.3637227445
 22
32.0231527459
 13
361.3637227445
 23
32.0231527459
  0
SOLID
  8
0
 62
7
  6
CONTINUOUS
 10
361.3637227445
 20
31.2488235635
 11
361.3637227445
 21
30.5067593033
 12
361.0746601894
 22
30.5067593033
 13
361.0746601894
 23
30.5067593033
  0
SOLID
  8
0
 62
7
  6
CONTINUOUS
 10
362.4043477445
 20
30.5067593033
 11
362.4043477445
 21
31.1520332377
 12
362.6934101343
 22
31.1520332377
 13
362.6934101343
 23
31.1520332377
  0
SOLID
  8
0
 62
7
  6
CONTINUOUS
 10
362.6934101343
 20
31.1520332377
 11
362.6934101343
 21
30.5067593033
 12
362.4043477445
 22
30.5067593033
 13
362.4043477445
 23
30.5067593033
  0
SOLID
  8
0
 62
7
  6
CONTINUOUS
 10
363.4449727445
 20
31.506933758
 11
363.8496603548
 21
31.5391977507
 12
364.1965353548
 22
31.5391977507
 13
364.1965353548
 23
31.5391977507
  0
SOLID
  8
0
 62
7
  6
CONTINUOUS
 10
364.1965353548
 20
31.5391977507
 11
364.543410024
 21
31.506933758
 12
363.4449727445
 22
31.506933758
 13
363.4449727445
 23
31.506933758
  0
SOLID
  8
0
 62
7
  6
CONTINUOUS
 10
363.3293478548
 20
31.4746706537
 11
363.4449727445
 21
31.506933758
 12
364.543410024
 22
31.506933758
 13
364.543410024
 23
31.506933758
  0
SOLID
  8
0
 62
7
  6
CONTINUOUS
 10
364.543410024
 20
31.506933758
 11
364.716847524
 21
31.4424063504
 12
363.3293478548
 22
31.4746706537
 13
363.3293478548
 23
31.4746706537
  0
SOLID
  8
0
 62
7
  6
CONTINUOUS
 10
363.2137226343
 20
31.4101417797
 11
363.3293478548
 21
31.4746706537
 12
364.716847524
 22
31.4424063504
 13
364.716847524
 23
31.4424063504
  0
SOLID
  8
0
 62
7
  6
CONTINUOUS
 10
363.2137226343
 20
31.4101417797
 11
364.716847524
 21
31.4424063504
 12
363.8496603548
 22
31.4101417797
 13
363.8496603548
 23
31.4101417797
  0
SOLID
  8
0
 62
7
  6
CONTINUOUS
 10
363.8496603548
 20
31.4101417797
 11
364.716847524
 21
31.4424063504
 12
364.1965353548
 22
31.4101417797
 13
364.1965353548
 23
31.4101417797
  0
SOLID
  8
0
 62
7
  6
CONTINUOUS
 10
364.1965353548
 20
31.4101417797
 11
364.716847524
 21
31.4424063504
 12
364.4277854651
 22
31.3778793357
 13
364.4277854651
 23
31.3778793357
  0
SOLID
  8
0
 62
7
  6
CONTINUOUS
 10
364.716847524
 20
31.4424063504
 11
364.8324727445
 21
31.3778793357
 12
364.4277854651
 22
31.3778793357
 13
364.4277854651
 23
31.3778793357
  0
SOLID
  8
0
 62
7
  6
CONTINUOUS
 10
363.1559103548
 20
31.3456153429
 11
363.2137226343
 21
31.4101417797
 12
363.8496603548
 22
31.4101417797
 13
363.8496603548
 23
31.4101417797
  0
SOLID
  8
0
 62
7
  6
CONTINUOUS
 10
364.543410024
 20
31.3456153429
 11
364.4277854651
 21
31.3778793357
 12
364.8324727445
 22
31.3778793357
 13
364.8324727445
 23
31.3778793357
  0
SOLID
  8
0
 62
7
  6
CONTINUOUS
 10
364.543410024
 20
31.3456153429
 11
364.8324727445
 21
31.3778793357
 12
364.6012229651
 22
31.2810881318
 13
364.6012229651
 23
31.2810881318
  0
SOLID
  8
0
 62
7
  6
CONTINUOUS
 10
364.8324727445
 20
31.3778793357
 11
364.890285024
 21
31.2810881318
 12
364.6012229651
 22
31.2810881318
 13
364.6012229651
 23
31.2810881318
  0
SOLID
  8
0
 62
7
  6
CONTINUOUS
 10
364.6012229651
 20
31.1842964734
 11
364.6012229651
 21
31.2810881318
 12
364.890285024
 22
31.2810881318
 13
364.890285024
 23
31.2810881318
  0
SOLID
  8
0
 62
7
  6
CONTINUOUS
 10
364.6012229651
 20
31.1842964734
 11
364.890285024
 21
31.2810881318
 12
364.6012229651
 22
31.0552422931
 13
364.6012229651
 23
31.0552422931
  0
SOLID
  8
0
 62
7
  6
CONTINUOUS
 10
364.6012229651
 20
31.0552422931
 11
364.890285024
 21
31.2810881318
 12
364.6012229651
 22
30.8616599362
 13
364.6012229651
 23
30.8616599362
  0
SOLID
  8
0
 62
7
  6
CONTINUOUS
 10
364.890285024
 20
31.2810881318
 11
364.890285024
 21
30.7648681127
 12
364.6012229651
 22
30.8616599362
 13
364.6012229651
 23
30.8616599362
  0
SOLID
  8
0
 62
7
  6
CONTINUOUS
 10
366.798097524
 20
31.5069339419
 11
367.0293479651
 21
31.5391976292
 12
367.2605977445
 22
31.5391976292
 13
367.2605977445
 23
31.5391976292
  0
SOLID
  8
0
 62
7
  6
CONTINUOUS
 10
367.2605977445
 20
31.5391976292
 11
367.4340352445
 21
31.5069339419
 12
366.798097524
 22
31.5069339419
 13
366.798097524
 23
31.5069339419
  0
SOLID
  8
0
 62
7
  6
CONTINUOUS
 10
366.624660024
 20
31.4424065674
 11
366.798097524
 21
31.5069339419
 12
367.4340352445
 22
31.5069339419
 13
367.4340352445
 23
31.5069339419
  0
SOLID
  8
0
 62
7
  6
CONTINUOUS
 10
367.4340352445
 20
31.5069339419
 11
367.6074727445
 21
31.4424065674
 12
366.624660024
 22
31.4424065674
 13
366.624660024
 23
31.4424065674
  0
SOLID
  8
0
 62
7
  6
CONTINUOUS
 10
367.6074727445
 20
31.4424065674
 11
367.0293479651
 21
31.4101420472
 12
366.624660024
 22
31.4424065674
 13
366.624660024
 23
31.4424065674
  0
SOLID
  8
0
 62
7
  6
CONTINUOUS
 10
366.5090354651
 20
31.377879193
 11
366.624660024
 21
31.4424065674
 12
367.0293479651
 22
31.4101420472
 13
367.0293479651
 23
31.4101420472
  0
SOLID
  8
0
 62
7
  6
CONTINUOUS
 10
367.0293479651
 20
31.4101420472
 11
366.798097524
 21
31.377879193
 12
366.5090354651
 22
31.377879193
 13
366.5090354651
 23
31.377879193
  0
SOLID
  8
0
 62
7
  6
CONTINUOUS
 10
367.0293479651
 20
31.4101420472
 11
367.6074727445
 21
31.4424065674
 12
367.2605977445
 22
31.377879193
 13
367.2605977445
 23
31.377879193
  0
SOLID
  8
0
 62
7
  6
CONTINUOUS
 10
367.6074727445
 20
31.4424065674
 11
367.7230979651
 21
31.377879193
 12
367.2605977445
 22
31.377879193
 13
367.2605977445
 23
31.377879193
  0
SOLID
  8
0
 62
7
  6
CONTINUOUS
 10
367.3762229651
 20
31.345614957
 11
367.2605977445
 21
31.377879193
 12
367.7230979651
 22
31.377879193
 13
367.7230979651
 23
31.377879193
  0
SOLID
  8
0
 62
7
  6
CONTINUOUS
 10
367.3762229651
 20
31.345614957
 11
367.7230979651
 21
31.377879193
 12
367.491847524
 22
31.2810881312
 13
367.491847524
 23
31.2810881312
  0
SOLID
  8
0
 62
7
  6
CONTINUOUS
 10
367.7230979651
 20
31.377879193
 11
367.7809102445
 21
31.2810881312
 12
367.491847524
 22
31.2810881312
 13
367.491847524
 23
31.2810881312
  0
SOLID
  8
0
 62
7
  6
CONTINUOUS
 10
367.5496604651
 20
31.119769695
 11
367.491847524
 21
31.2810881312
 12
367.7809102445
 22
31.2810881312
 13
367.7809102445
 23
31.2810881312
  0
SOLID
  8
0
 62
7
  6
CONTINUOUS
 10
367.7809102445
 20
31.2810881312
 11
367.838722524
 21
31.119769695
 12
367.5496604651
 22
31.119769695
 13
367.5496604651
 23
31.119769695
  0
SOLID
  8
0
 62
7
  6
CONTINUOUS
 10
366.798097524
 20
31.377879193
 11
366.624660024
 21
31.3133521701
 12
366.5090354651
 22
31.377879193
 13
366.5090354651
 23
31.377879193
  0
SOLID
  8
0
 62
7
  6
CONTINUOUS
 10
366.624660024
 20
31.3133521701
 11
366.5090354651
 21
31.2488235635
 12
366.5090354651
 22
31.377879193
 13
366.5090354651
 23
31.377879193
  0
SOLID
  8
0
 62
7
  6
CONTINUOUS
 10
366.5090354651
 20
31.2488235635
 11
366.2199727445
 21
30.5067596374
 12
366.5090354651
 22
31.377879193
 13
366.5090354651
 23
31.377879193
  0
SOLID
  8
0
 62
7
  6
CONTINUOUS
 10
366.5090354651
 20
31.377879193
 11
366.2199727445
 21
30.5067596374
 12
366.5090354651
 22
31.5391976292
 13
366.5090354651
 23
31.5391976292
  0
SOLID
  8
0
 62
7
  6
CONTINUOUS
 10
366.2199727445
 20
30.5067596374
 11
366.2199727445
 21
31.5391976292
 12
366.5090354651
 22
31.5391976292
 13
366.5090354651
 23
31.5391976292
  0
SOLID
  8
0
 62
7
  6
CONTINUOUS
 10
366.5090354651
 20
31.2488235635
 11
366.5090354651
 21
30.5067596374
 12
366.2199727445
 22
30.5067596374
 13
366.2199727445
 23
30.5067596374
  0
SOLID
  8
0
 62
7
  6
CONTINUOUS
 10
367.5496604651
 20
30.5067596374
 11
367.5496604651
 21
31.119769695
 12
367.838722524
 22
31.119769695
 13
367.838722524
 23
31.119769695
  0
SOLID
  8
0
 62
7
  6
CONTINUOUS
 10
367.838722524
 20
31.119769695
 11
367.838722524
 21
30.5067596374
 12
367.5496604651
 22
30.5067596374
 13
367.5496604651
 23
30.5067596374
  0
SOLID
  8
0
 62
7
  6
CONTINUOUS
 10
368.6480977445
 20
31.5069334157
 11
368.9949727445
 21
31.539197762
 12
369.3418477445
 22
31.539197762
 13
369.3418477445
 23
31.539197762
  0
SOLID
  8
0
 62
7
  6
CONTINUOUS
 10
369.3418477445
 20
31.539197762
 11
369.6887227445
 21
31.5069334157
 12
368.6480977445
 22
31.5069334157
 13
368.6480977445
 23
31.5069334157
  0
SOLID
  8
0
 62
7
  6
CONTINUOUS
 10
368.4168479651
 20
31.4424063504
 11
368.6480977445
 21
31.5069334157
 12
369.6887227445
 22
31.5069334157
 13
369.6887227445
 23
31.5069334157
  0
SOLID
  8
0
 62
7
  6
CONTINUOUS
 10
368.4168479651
 20
31.4424063504
 11
369.6887227445
 21
31.5069334406
 12
369.8621602445
 22
31.4746706537
 13
369.8621602445
 23
31.4746706537
  0
SOLID
  8
0
 62
7
  6
CONTINUOUS
 10
368.4168479651
 20
31.4424063504
 11
369.8621602445
 21
31.4746706537
 12
368.9949727445
 22
31.4101421267
 13
368.9949727445
 23
31.4101421267
  0
SOLID
  8
0
 62
7
  6
CONTINUOUS
 10
368.9949727445
 20
31.4101421267
 11
369.8621602445
 21
31.4746706537
 12
369.3418477445
 22
31.4101421267
 13
369.3418477445
 23
31.4101421267
  0
SOLID
  8
0
 62
7
  6
CONTINUOUS
 10
369.8621602445
 20
31.4746706537
 11
370.0355977445
 21
31.4101421267
 12
369.3418477445
 22
31.4101421267
 13
369.3418477445
 23
31.4101421267
  0
SOLID
  8
0
 62
7
  6
CONTINUOUS
 10
369.6887227445
 20
31.3778792603
 11
369.3418477445
 21
31.4101421267
 12
370.0355977445
 22
31.4101421267
 13
370.0355977445
 23
31.4101421267
  0
SOLID
  8
0
 62
7
  6
CONTINUOUS
 10
368.3012227445
 20
31.3456148845
 11
368.4168479651
 21
31.4424063504
 12
368.9949727445
 22
31.4101421267
 13
368.9949727445
 23
31.4101421267
  0
SOLID
  8
0
 62
7
  6
CONTINUOUS
 10
369.6887227445
 20
31.3778792603
 11
370.0355977445
 21
31.4101421267
 12
369.8043479651
 22
31.3456148845
 13
369.8043479651
 23
31.3456148845
  0
SOLID
  8
0
 62
7
  6
CONTINUOUS
 10
369.8043479651
 20
31.3456148845
 11
370.0355977445
 21
31.4101421267
 12
369.8621602445
 22
31.281087868
 13
369.8621602445
 23
31.281087868
  0
SOLID
  8
0
 62
7
  6
CONTINUOUS
 10
370.0355977445
 20
31.4101421267
 11
370.1512223035
 21
31.281087868
 12
369.8621602445
 22
31.281087868
 13
369.8621602445
 23
31.281087868
  0
SOLID
  8
0
 62
7
  6
CONTINUOUS
 10
359.4559102445
 20
31.3778792603
 11
358.9355977445
 21
31.3456148963
 12
359.6871602721
 22
31.4101421155
 13
359.6871602721
 23
31.4101421155
  0
SOLID
  8
0
 62
7
  6
CONTINUOUS
 10
358.9355977445
 20
31.3456148963
 11
359.0512227376
 21
31.4101421155
 12
359.6871602721
 22
31.4101421155
 13
359.6871602721
 23
31.4101421155
  0
SOLID
  8
0
 62
7
  6
CONTINUOUS
 10
359.4559102445
 20
31.3778792603
 11
359.3402852307
 21
31.3456148963
 12
358.9355977445
 22
31.3456148963
 13
358.9355977445
 23
31.3456148963
  0
SOLID
  8
0
 62
7
  6
CONTINUOUS
 10
358.8199727462
 20
31.2165607767
 11
358.9355977445
 21
31.3456148963
 12
359.3402852307
 22
31.3456148963
 13
359.3402852307
 23
31.3456148963
  0
SOLID
  8
0
 62
7
  6
CONTINUOUS
 10
363.1559103548
 20
31.3456149608
 11
363.8496603548
 21
31.4101420472
 12
363.6184102445
 22
31.3778792603
 13
363.6184102445
 23
31.3778792603
  0
SOLID
  8
0
 62
7
  6
CONTINUOUS
 10
363.6184102445
 20
31.3778792603
 11
363.5027853548
 21
31.3456149608
 12
363.1559103548
 22
31.3456149608
 13
363.1559103548
 23
31.3456149608
  0
SOLID
  8
0
 62
7
  6
CONTINUOUS
 10
363.1559103548
 20
31.2810878707
 11
363.1559103548
 21
31.3456149608
 12
363.5027853548
 22
31.3456149608
 13
363.5027853548
 23
31.3456149608
  0
SOLID
  8
0
 62
7
  6
CONTINUOUS
 10
363.5027853548
 20
31.3456149608
 11
363.4449727445
 21
31.2810878707
 12
363.1559103548
 22
31.2810878707
 13
363.1559103548
 23
31.2810878707
  0
SOLID
  8
0
 62
7
  6
CONTINUOUS
 10
368.3012227445
 20
31.3456149608
 11
368.9949727445
 21
31.4101420472
 12
368.7637229651
 22
31.3778792603
 13
368.7637229651
 23
31.3778792603
  0
SOLID
  8
0
 62
7
  6
CONTINUOUS
 10
368.7637229651
 20
31.3778792603
 11
368.6480977445
 21
31.3456149608
 12
368.3012227445
 22
31.3456149608
 13
368.3012227445
 23
31.3456149608
  0
SOLID
  8
0
 62
7
  6
CONTINUOUS
 10
368.3012227445
 20
31.2810878707
 11
368.3012227445
 21
31.3456149608
 12
368.6480977445
 22
31.3456149608
 13
368.6480977445
 23
31.3456149608
  0
SOLID
  8
0
 62
7
  6
CONTINUOUS
 10
368.6480977445
 20
31.3456149608
 11
368.5902854651
 21
31.2810878707
 12
368.3012227445
 22
31.2810878707
 13
368.3012227445
 23
31.2810878707
  0
SOLID
  8
0
 62
7
  6
CONTINUOUS
 10
368.4168479651
 20
31.1520336865
 11
368.3012227445
 21
31.2810878707
 12
368.5902854651
 22
31.2810878707
 13
368.5902854651
 23
31.2810878707
  0
SOLID
  8
0
 62
7
  6
CONTINUOUS
 10
358.8199727462
 20
31.2165607767
 11
359.3402852307
 21
31.345614957
 12
359.1668477307
 22
31.2488235635
 13
359.1668477307
 23
31.2488235635
  0
SOLID
  8
0
 62
7
  6
CONTINUOUS
 10
359.1668477307
 20
31.2488235635
 11
359.1090352445
 21
31.1842964734
 12
358.8199727462
 22
31.2165607767
 13
358.8199727462
 23
31.2165607767
  0
SOLID
  8
0
 62
7
  6
CONTINUOUS
 10
358.7621602445
 20
31.0229779898
 11
358.8199727462
 21
31.2165607767
 12
359.1090352445
 22
31.1842964734
 13
359.1090352445
 23
31.1842964734
  0
SOLID
  8
0
 62
7
  6
CONTINUOUS
 10
363.6184102445
 20
31.1520336865
 11
363.9652852445
 21
31.1842964611
 12
364.6012229651
 22
31.1842964611
 13
364.6012229651
 23
31.1842964611
  0
SOLID
  8
0
 62
7
  6
CONTINUOUS
 10
363.6184102445
 20
31.1520336865
 11
364.6012229651
 21
31.1842964611
 12
363.3871601343
 22
31.0875057863
 13
363.3871601343
 23
31.0875057863
  0
SOLID
  8
0
 62
7
  6
CONTINUOUS
 10
363.3871601343
 20
31.0875057863
 11
364.6012229651
 21
31.1842964611
 12
363.9652852445
 22
31.0552422808
 13
363.9652852445
 23
31.0552422808
  0
SOLID
  8
0
 62
7
  6
CONTINUOUS
 10
364.6012229651
 20
31.1842964611
 11
364.6012229651
 21
31.0552422808
 12
363.9652852445
 22
31.0552422808
 13
363.9652852445
 23
31.0552422808
  0
SOLID
  8
0
 62
7
  6
CONTINUOUS
 10
368.4168479651
 20
31.1520338754
 11
368.5902854651
 21
31.2810878668
 12
368.6480977445
 22
31.2165607767
 13
368.6480977445
 23
31.2165607767
  0
SOLID
  8
0
 62
7
  6
CONTINUOUS
 10
368.6480977445
 20
31.2165607767
 11
368.8215352445
 21
31.1520338754
 12
368.4168479651
 22
31.1520338754
 13
368.4168479651
 23
31.1520338754
  0
SOLID
  8
0
 62
7
  6
CONTINUOUS
 10
368.6480977445
 20
31.0552422931
 11
368.4168479651
 21
31.1520338754
 12
368.8215352445
 22
31.1520338754
 13
368.8215352445
 23
31.1520338754
  0
SOLID
  8
0
 62
7
  6
CONTINUOUS
 10
368.8215352445
 20
31.1520338754
 11
369.8043479651
 21
30.9907152029
 12
368.6480977445
 22
31.0552422931
 13
368.6480977445
 23
31.0552422931
  0
SOLID
  8
0
 62
7
  6
CONTINUOUS
 10
369.6309104651
 20
30.8939239876
 11
368.6480977445
 21
31.0552422931
 12
369.8043479651
 22
30.9907152029
 13
369.8043479651
 23
30.9907152029
  0
SOLID
  8
0
 62
7
  6
CONTINUOUS
 10
369.8043479651
 20
30.9907152029
 11
370.0355977445
 21
30.8939239876
 12
369.6309104651
 22
30.8939239876
 13
369.6309104651
 23
30.8939239876
  0
SOLID
  8
0
 62
7
  6
CONTINUOUS
 10
369.8043479651
 20
30.8293967193
 11
369.6309104651
 21
30.8939239876
 12
370.0355977445
 22
30.8939239876
 13
370.0355977445
 23
30.8939239876
  0
SOLID
  8
0
 62
7
  6
CONTINUOUS
 10
369.8043479651
 20
30.8293967193
 11
370.0355977445
 21
30.8939239876
 12
369.8621602445
 22
30.7648682694
 13
369.8621602445
 23
30.7648682694
  0
SOLID
  8
0
 62
7
  6
CONTINUOUS
 10
370.0355977445
 20
30.8939239876
 11
370.1512223035
 21
30.7648682694
 12
369.8621602445
 22
30.7648682694
 13
369.8621602445
 23
30.7648682694
  0
SOLID
  8
0
 62
7
  6
CONTINUOUS
 10
369.8043479651
 20
30.7003411846
 11
369.8621602445
 21
30.7648682694
 12
370.1512223035
 22
30.7648682694
 13
370.1512223035
 23
30.7648682694
  0
SOLID
  8
0
 62
7
  6
CONTINUOUS
 10
370.1512223035
 20
30.7648682694
 11
370.1512223035
 21
30.7003411846
 12
369.8043479651
 22
30.7003411846
 13
369.8043479651
 23
30.7003411846
  0
SOLID
  8
0
 62
7
  6
CONTINUOUS
 10
369.6887227445
 20
30.6680782357
 11
369.8043479651
 21
30.7003411846
 12
370.1512223035
 22
30.7003411846
 13
370.1512223035
 23
30.7003411846
  0
SOLID
  8
0
 62
7
  6
CONTINUOUS
 10
369.6887227445
 20
30.6680782357
 11
370.1512223035
 21
30.7003411846
 12
369.4574729651
 22
30.6358140998
 13
369.4574729651
 23
30.6358140998
  0
SOLID
  8
0
 62
7
  6
CONTINUOUS
 10
370.1512223035
 20
30.7003411846
 11
370.0355977445
 21
30.6035511455
 12
369.4574729651
 22
30.6358140998
 13
369.4574729651
 23
30.6358140998
  0
SOLID
  8
0
 62
7
  6
CONTINUOUS
 10
370.0355977445
 20
30.6035511455
 11
368.5902854651
 21
30.5712868422
 12
369.4574729651
 22
30.6358140998
 13
369.4574729651
 23
30.6358140998
  0
SOLID
  8
0
 62
7
  6
CONTINUOUS
 10
369.4574729651
 20
30.6358140998
 11
368.5902854651
 21
30.5712868422
 12
369.1105979651
 22
30.6358140998
 13
369.1105979651
 23
30.6358140998
  0
SOLID
  8
0
 62
7
  6
CONTINUOUS
 10
368.5902854651
 20
30.5712868422
 11
368.4168479651
 21
30.6358140998
 12
369.1105979651
 22
30.6358140998
 13
369.1105979651
 23
30.6358140998
  0
SOLID
  8
0
 62
7
  6
CONTINUOUS
 10
368.5902854651
 20
30.5712868422
 11
370.0355977445
 21
30.6035511455
 12
368.7637229651
 22
30.5390223111
 13
368.7637229651
 23
30.5390223111
  0
SOLID
  8
0
 62
7
  6
CONTINUOUS
 10
370.0355977445
 20
30.6035511455
 11
369.8043479651
 21
30.5390223111
 12
368.7637229651
 22
30.5390223111
 13
368.7637229651
 23
30.5390223111
  0
SOLID
  8
0
 62
7
  6
CONTINUOUS
 10
369.1105979651
 20
30.5067599302
 11
368.7637229651
 21
30.5390223111
 12
369.8043479651
 22
30.5390223111
 13
369.8043479651
 23
30.5390223111
  0
SOLID
  8
0
 62
7
  6
CONTINUOUS
 10
369.8043479651
 20
30.5390223111
 11
369.4574729651
 21
30.5067599302
 12
369.1105979651
 22
30.5067599302
 13
369.1105979651
 23
30.5067599302
  0
SOLID
  8
0
 62
7
  6
CONTINUOUS
 10
358.7621602445
 20
31.0229779898
 11
359.1090352445
 21
31.1842964734
 12
359.0512227376
 22
31.0552422931
 13
359.0512227376
 23
31.0552422931
  0
SOLID
  8
0
 62
7
  6
CONTINUOUS
 10
359.0512227376
 20
31.0552422931
 11
359.0512227376
 21
30.9584509954
 12
358.7621602445
 22
31.0229779898
 13
358.7621602445
 23
31.0229779898
  0
SOLID
  8
0
 62
7
  6
CONTINUOUS
 10
358.8199727462
 20
30.8293967193
 11
358.7621602445
 21
31.0229779898
 12
359.0512227376
 22
30.9584509954
 13
359.0512227376
 23
30.9584509954
  0
SOLID
  8
0
 62
7
  6
CONTINUOUS
 10
359.0512227376
 20
30.9584509954
 11
359.1668477307
 21
30.797132416
 12
358.8199727462
 22
30.8293967193
 13
358.8199727462
 23
30.8293967193
  0
SOLID
  8
0
 62
7
  6
CONTINUOUS
 10
358.9355977445
 20
30.7003413087
 11
358.8199727462
 21
30.8293967193
 12
359.1668477307
 22
30.797132416
 13
359.1668477307
 23
30.797132416
  0
SOLID
  8
0
 62
7
  6
CONTINUOUS
 10
359.1668477307
 20
30.797132416
 11
359.3402852307
 21
30.7003413087
 12
358.9355977445
 22
30.7003413087
 13
358.9355977445
 23
30.7003413087
  0
SOLID
  8
0
 62
7
  6
CONTINUOUS
 10
359.0512227376
 20
30.6358140759
 11
358.9355977445
 21
30.7003413087
 12
359.3402852307
 22
30.7003413087
 13
359.3402852307
 23
30.7003413087
  0
SOLID
  8
0
 62
7
  6
CONTINUOUS
 10
359.3402852307
 20
30.7003413087
 11
359.6871602721
 21
30.6358140759
 12
359.0512227376
 22
30.6358140759
 13
359.0512227376
 23
30.6358140759
  0
SOLID
  8
0
 62
7
  6
CONTINUOUS
 10
359.2246602583
 20
30.5712868422
 11
359.0512227376
 21
30.6358140759
 12
359.6871602721
 22
30.6358140759
 13
359.6871602721
 23
30.6358140759
  0
SOLID
  8
0
 62
7
  6
CONTINUOUS
 10
363.2715352445
 20
31.0229779808
 11
363.3871601343
 21
31.0875057863
 12
363.9652852445
 22
31.0552422931
 13
363.9652852445
 23
31.0552422931
  0
SOLID
  8
0
 62
7
  6
CONTINUOUS
 10
363.9652852445
 20
31.0552422931
 11
363.7340351343
 21
31.0229779808
 12
363.2715352445
 22
31.0229779808
 13
363.2715352445
 23
31.0229779808
  0
SOLID
  8
0
 62
7
  6
CONTINUOUS
 10
363.1559103548
 20
30.8939238094
 11
363.2715352445
 21
31.0229779808
 12
363.7340351343
 22
31.0229779808
 13
363.7340351343
 23
31.0229779808
  0
SOLID
  8
0
 62
7
  6
CONTINUOUS
 10
363.5027853548
 20
30.926187309
 11
363.1559103548
 21
30.8939238094
 12
363.6184102445
 22
30.9907152029
 13
363.6184102445
 23
30.9907152029
  0
SOLID
  8
0
 62
7
  6
CONTINUOUS
 10
363.1559103548
 20
30.8939238094
 11
363.7340351343
 21
31.0229779898
 12
363.6184102445
 22
30.9907152029
 13
363.6184102445
 23
30.9907152029
  0
SOLID
  8
0
 62
7
  6
CONTINUOUS
 10
363.5027853548
 20
30.926187309
 11
363.4449727445
 21
30.8293967193
 12
363.1559103548
 22
30.8939238094
 13
363.1559103548
 23
30.8939238094
  0
SOLID
  8
0
 62
7
  6
CONTINUOUS
 10
363.1559103548
 20
30.797132416
 11
363.1559103548
 21
30.8939238094
 12
363.4449727445
 22
30.8293967193
 13
363.4449727445
 23
30.8293967193
  0
SOLID
  8
0
 62
7
  6
CONTINUOUS
 10
363.4449727445
 20
30.8293967193
 11
363.4449727445
 21
30.7648681127
 12
363.1559103548
 22
30.797132416
 13
363.1559103548
 23
30.797132416
  0
SOLID
  8
0
 62
7
  6
CONTINUOUS
 10
363.2137226343
 20
30.6680782357
 11
363.1559103548
 21
30.797132416
 12
363.4449727445
 22
30.7648681127
 13
363.4449727445
 23
30.7648681127
  0
SOLID
  8
0
 62
7
  6
CONTINUOUS
 10
364.6012229651
 20
30.8616599362
 11
364.890285024
 21
30.7648681127
 12
364.543410024
 22
30.797132416
 13
364.543410024
 23
30.797132416
  0
SOLID
  8
0
 62
7
  6
CONTINUOUS
 10
364.369972524
 20
30.7003410226
 11
364.543410024
 21
30.797132416
 12
364.890285024
 22
30.7648681127
 13
364.890285024
 23
30.7648681127
  0
SOLID
  8
0
 62
7
  6
CONTINUOUS
 10
364.369972524
 20
30.7003410226
 11
364.890285024
 21
30.7648681127
 12
364.6012229651
 22
30.6680782357
 13
364.6012229651
 23
30.6680782357
  0
SOLID
  8
0
 62
7
  6
CONTINUOUS
 10
364.890285024
 20
30.7648681127
 11
364.9480979651
 21
30.6035511455
 12
364.6012229651
 22
30.6680782357
 13
364.6012229651
 23
30.6680782357
  0
SOLID
  8
0
 62
7
  6
CONTINUOUS
 10
364.6590352445
 20
30.5712868422
 11
364.6012229651
 21
30.6680782357
 12
364.9480979651
 22
30.6035511455
 13
364.9480979651
 23
30.6035511455
  0
SOLID
  8
0
 62
7
  6
CONTINUOUS
 10
364.6590352445
 20
30.5712868422
 11
364.9480979651
 21
30.6035511455
 12
364.716847524
 22
30.5067598731
 13
364.716847524
 23
30.5067598731
  0
SOLID
  8
0
 62
7
  6
CONTINUOUS
 10
364.9480979651
 20
30.6035511455
 11
365.0059102445
 21
30.5067598731
 12
364.716847524
 22
30.5067598731
 13
364.716847524
 23
30.5067598731
  0
SOLID
  8
0
 62
7
  6
CONTINUOUS
 10
360.2652852997
 20
30.7326051679
 11
360.3230977445
 21
30.8293966612
 12
360.6121602997
 22
30.8293966612
 13
360.6121602997
 23
30.8293966612
  0
SOLID
  8
0
 62
7
  6
CONTINUOUS
 10
360.6121602997
 20
30.8293966612
 11
360.5543476894
 21
30.7003410226
 12
360.2652852997
 22
30.7326051679
 13
360.2652852997
 23
30.7326051679
  0
SOLID
  8
0
 62
7
  6
CONTINUOUS
 10
360.091847717
 20
30.6680782357
 11
360.2652852997
 21
30.7326051679
 12
360.5543476894
 22
30.7003410226
 13
360.5543476894
 23
30.7003410226
  0
SOLID
  8
0
 62
7
  6
CONTINUOUS
 10
360.091847717
 20
30.6680782357
 11
360.5543476894
 21
30.7003410226
 12
359.6871602721
 22
30.6358139324
 13
359.6871602721
 23
30.6358139324
  0
SOLID
  8
0
 62
7
  6
CONTINUOUS
 10
360.5543476894
 20
30.7003410226
 11
360.3809101894
 21
30.6035511455
 12
359.6871602721
 22
30.6358139324
 13
359.6871602721
 23
30.6358139324
  0
SOLID
  8
0
 62
7
  6
CONTINUOUS
 10
359.2246602583
 20
30.5712868422
 11
359.6871602721
 21
30.6358139324
 12
360.3809101894
 22
30.6035511455
 13
360.3809101894
 23
30.6035511455
  0
SOLID
  8
0
 62
7
  6
CONTINUOUS
 10
359.2246602583
 20
30.5712868422
 11
360.3809101894
 21
30.6035511455
 12
359.3980977583
 22
30.5390224228
 13
359.3980977583
 23
30.5390224228
  0
SOLID
  8
0
 62
7
  6
CONTINUOUS
 10
360.3809101894
 20
30.6035511455
 11
360.1496602445
 21
30.5390224228
 12
359.3980977583
 22
30.5390224228
 13
359.3980977583
 23
30.5390224228
  0
SOLID
  8
0
 62
7
  6
CONTINUOUS
 10
359.744972717
 20
30.5067597521
 11
359.3980977583
 21
30.5390224228
 12
360.1496602445
 22
30.5390224228
 13
360.1496602445
 23
30.5390224228
  0
SOLID
  8
0
 62
7
  6
CONTINUOUS
 10
363.2137226343
 20
30.6680782357
 11
363.4449727445
 21
30.7648681127
 12
363.5027853548
 22
30.7003410226
 13
363.5027853548
 23
30.7003410226
  0
SOLID
  8
0
 62
7
  6
CONTINUOUS
 10
363.5027853548
 20
30.7003410226
 11
363.7340351343
 21
30.6358139324
 12
363.2137226343
 22
30.6680782357
 13
363.2137226343
 23
30.6680782357
  0
SOLID
  8
0
 62
7
  6
CONTINUOUS
 10
363.3871601343
 20
30.5712868422
 11
363.2137226343
 21
30.6680782357
 12
363.7340351343
 22
30.6358139324
 13
363.7340351343
 23
30.6358139324
  0
SOLID
  8
0
 62
7
  6
CONTINUOUS
 10
364.0809101343
 20
30.6358139363
 11
364.369972524
 21
30.7003410226
 12
364.6012229651
 22
30.6680782357
 13
364.6012229651
 23
30.6680782357
  0
SOLID
  8
0
 62
7
  6
CONTINUOUS
 10
364.6012229651
 20
30.6680782357
 11
364.543410024
 21
30.6035511455
 12
364.0809101343
 22
30.6358139363
 13
364.0809101343
 23
30.6358139363
  0
SOLID
  8
0
 62
7
  6
CONTINUOUS
 10
364.543410024
 20
30.6035511455
 11
363.3871601343
 21
30.5712868422
 12
364.0809101343
 22
30.6358139363
 13
364.0809101343
 23
30.6358139363
  0
SOLID
  8
0
 62
7
  6
CONTINUOUS
 10
363.3871601343
 20
30.5712868422
 11
363.7340351343
 21
30.6358139363
 12
364.0809101343
 22
30.6358139363
 13
364.0809101343
 23
30.6358139363
  0
SOLID
  8
0
 62
7
  6
CONTINUOUS
 10
363.3871601343
 20
30.5712868422
 11
364.543410024
 21
30.6035511455
 12
363.5027853548
 22
30.5390225267
 13
363.5027853548
 23
30.5390225267
  0
SOLID
  8
0
 62
7
  6
CONTINUOUS
 10
364.543410024
 20
30.6035511455
 11
364.369972524
 21
30.5390225267
 12
363.5027853548
 22
30.5390225267
 13
363.5027853548
 23
30.5390225267
  0
SOLID
  8
0
 62
7
  6
CONTINUOUS
 10
363.7340351343
 20
30.5067596914
 11
363.5027853548
 21
30.5390225267
 12
364.369972524
 22
30.5390225267
 13
364.369972524
 23
30.5390225267
  0
SOLID
  8
0
 62
7
  6
CONTINUOUS
 10
364.369972524
 20
30.5390225267
 11
364.0809101343
 21
30.5067596914
 12
363.7340351343
 22
30.5067596914
 13
363.7340351343
 23
30.5067596914
  0
SOLID
  8
0
 62
7
  6
CONTINUOUS
 10
368.7637229651
 20
30.6680782357
 11
368.4168479651
 21
30.6358138717
 12
368.6480977445
 22
30.7003410226
 13
368.6480977445
 23
30.7003410226
  0
SOLID
  8
0
 62
7
  6
CONTINUOUS
 10
368.6480977445
 20
30.7003410226
 11
368.4168479651
 21
30.6358138717
 12
368.5902854651
 22
30.7648680521
 13
368.5902854651
 23
30.7648680521
  0
SOLID
  8
0
 62
7
  6
CONTINUOUS
 10
368.4168479651
 20
30.6358138717
 11
368.3012227445
 21
30.7648680521
 12
368.5902854651
 22
30.7648680521
 13
368.5902854651
 23
30.7648680521
  0
SOLID
  8
0
 62
7
  6
CONTINUOUS
 10
368.7637229651
 20
30.6680782357
 11
369.1105979651
 21
30.6358138717
 12
368.4168479651
 22
30.6358138717
 13
368.4168479651
 23
30.6358138717
  0
SOLID
  8
0
 62
7
  6
CONTINUOUS
 10
365.4684104651
 20
30.5067597521
 11
365.4684104651
 21
31.5391977439
 12
365.757472524
 22
30.5067597521
 13
365.757472524
 23
31.5391977439
  0
ENDBLK
  8
0
  6
BYBLOCK
 62
0
  0
BLOCK
  8
0
 62
2
  6
CONTINUOUS
  2
SYMBOL_0_BL0
 70
64
 10
240.8592468615
 20
19.762288695
  0
TEXT
  8
0
 62
7
  6
CONTINUOUS
 10
227.1239507038
 20
19.1357028027
  7
TEXTSTYLE_3
 40
2.7338706658
  1
Ammeraal Beltech
 41
1.0
 51
15.0
 72
0
  0
TEXT
  8
0
 62
7
  6
CONTINUOUS
 10
237.9247515296
 20
16.8621661299
  7
TEXTSTYLE_4
 40
1.0935482663
  1
Innovation & Service in Belting
 41
1.0
 72
0
  0
LINE
  8
0
 62
7
  6
CONTINUOUS
 10
221.0994100525
 20
19.9022961113
 11
221.8775620458
 21
23.5632134089
  0
LINE
  8
0
 62
7
  6
CONTINUOUS
 10
231.9727303357
 20
27.2266073205
 11
222.3653797889
 21
24.1049898993
  0
LINE
  8
0
 62
7
  6
CONTINUOUS
 10
221.3246933848
 20
19.2089453082
 11
228.8317686459
 21
12.4495443822
  0
LINE
  8
0
 62
7
  6
CONTINUOUS
 10
221.5872277955
 20
20.4440726016
 11
232.3954971607
 21
23.9558922005
  0
LINE
  8
0
 62
7
  6
CONTINUOUS
 10
232.3912920235
 20
13.6061036368
 11
223.9458323548
 21
21.2104296785
  0
LINE
  8
0
 62
7
  6
CONTINUOUS
 10
232.9111147433
 20
26.3816822048
 11
231.9345552061
 21
21.7873308023
  0
LINE
  8
0
 62
7
  6
CONTINUOUS
 10
231.2347532584
 20
18.4950214885
 11
230.5483050469
 21
15.2655365641
  0
LINE
  8
0
 62
7
  6
CONTINUOUS
 10
233.5922108419
 20
13.9963058145
 11
234.5484423775
 21
18.4950214885
  0
LINE
  8
0
 62
7
  6
CONTINUOUS
 10
235.2482443252
 20
21.7873308023
 11
235.6924861276
 21
23.8773241617
  0
LINE
  8
0
 62
7
  6
CONTINUOUS
 10
229.5448697213
 20
12.2979700695
 11
233.1043930989
 21
13.4545293241
  0
LINE
  8
0
 62
7
  6
CONTINUOUS
 10
232.685831411
 20
27.0750330078
 11
235.4672027953
 21
24.5706749648
  0
ARC
  8
0
 62
7
  6
CONTINUOUS
 10
222.5906631212
 20
23.4116390962
 40
0.7290321776
 50
108.0
 51
168.0
  0
ARC
  8
0
 62
7
  6
CONTINUOUS
 10
232.198013668
 20
26.5332565175
 40
0.7290321776
 50
348.0
 51
108.0
  0
ARC
  8
0
 62
7
  6
CONTINUOUS
 10
234.9793850522
 20
24.0288984744
 40
0.7290321776
 50
348.0
 51
48.0
  0
ARC
  8
0
 62
7
  6
CONTINUOUS
 10
229.319586389
 20
12.9913208726
 40
0.7290321776
 50
228.0
 51
288.0
  0
ARC
  8
0
 62
7
  6
CONTINUOUS
 10
221.8125111278
 20
19.7507217986
 40
0.7290321776
 50
108.0
 51
228.0
  0
ARC
  8
0
 62
7
  6
CONTINUOUS
 10
232.8791097665
 20
14.1478801272
 40
0.7290321776
 50
228.0
 51
348.0
  0
ENDBLK
  8
0
  6
BYBLOCK
 62
0
  0
ENDSEC
  0
SECTION
  2
ENTITIES
  0
TEXT
  8
0
 62
5
  6
CONTINUOUS
 10
304.937007874
 20
25.636
  7
TEXTSTYLE_2
 40
2.8
  1
Scale :
 41
0.6
 51
0.000019
 72
0
  0
TEXT
  8
0
 62
5
  6
CONTINUOUS
 10
324.937007874
 20
25.636
  7
TEXTSTYLE_2
 40
2.8
  1
Belt type:
 41
0.6
 51
0.000019
 72
0
  0
INSERT
  8
0
 62
2
  6
CONTINUOUS
  2
SYMBOL_0_BL0
 10
240.8592468615
 20
19.762288695
  0
INSERT
  8
0
 62
2
  6
CONTINUOUS
  2
SYMBOL_5_BL1
 10
382.7840918555
 20
35.5067593403
  0
LINE
  8
0
 62
2
  6
CONTINUOUS
 10
218.937007874
 20
30.0
 11
408.937007874
 21
30.0
  0
LINE
  8
0
 62
2
  6
CONTINUOUS
 10
218.937007874
 20
30.0
 11
218.937007874
 21
10.0
  0
LINE
  8
0
 62
2
  6
CONTINUOUS
 10
218.937007874
 20
10.0
 11
408.937007874
 21
10.0
  0
LINE
  8
0
 62
2
  6
CONTINUOUS
 10
303.937007874
 20
30.0
 11
303.937007874
 21
10.0
  0
LINE
  8
0
 62
2
  6
CONTINUOUS
 10
323.937007874
 20
30.0
 11
323.937007874
 21
10.0
  0
LINE
  8
0
 62
2
  6
CONTINUOUS
 10
408.937007874
 20
30.0
 11
408.937007874
 21
10.0
  0
TEXT
  8
0
 62
5
  6
CONTINUOUS
 10
221.937007874
 20
23.303
  7
TEXTSTYLE_5
 40
1.52
  1
                                                                     Ammeraal Beltech Modular A/S
 41
1.0
 72
0
  0
TEXT
  8
0
 62
5
  6
CONTINUOUS
 10
221.937007874
 20
20.595
  7
TEXTSTYLE_5
 40
1.5
  1
                                                                      Hjulmagervej 21, 7100 Vejle,  DK
 41
1.0
 72
0
  0
TEXT
  8
0
 62
5
  6
CONTINUOUS
 10
221.937007874
 20
17.881
  7
TEXTSTYLE_5
 40
1.495
  1
                                                                      tel: 
 41
1.0
 72
0
  0
TEXT
  8
0
 62
5
  6
CONTINUOUS
 10
266.9239544389
 20
17.881
  7
TEXTSTYLE_5
 40
1.51
  1
+45 75723100     fax: +45 75723348
 41
1.0
 72
0
  0
TEXT
  8
0
 62
5
  6
CONTINUOUS
 10
221.937007874
 20
15.177
  7
TEXTSTYLE_5
 40
1.5
  1
                                                                      admin@unichains.dk  www.unichains.com
 41
1.0
 72
0
  0
TEXT
  8
0
 62
5
  6
CONTINUOUS
 10
308.687007874
 20
13.75
  7
TEXTSTYLE_6
 40
5.0
  1
1:1
 41
0.7
 72
1
 11
313.937007874
 21
13.75
  0
TEXT
  8
0
 62
5
  6
CONTINUOUS
 10
326.937007874
 20
13.75
  7
TEXTSTYLE_7
 40
7.5
  1
uni MPB K600 Product Support Flat 3" K600
 41
0.2510670732
 72
0
  0
LINE
  8
0
 62
7
  6
CONTINUOUS
 10
0.0
 20
0.0
 11
0.0
 21
297.0
  0
LINE
  8
0
 62
7
  6
CONTINUOUS
 10
8.937007874
 20
10.0
 11
8.937007874
 21
287.0
  0
LINE
  8
0
 62
7
  6
CONTINUOUS
 10
0.0
 20
0.0
 11
420.0
 21
0.0
  0
LINE
  8
0
 62
7
  6
CONTINUOUS
 10
408.937007874
 20
10.0
 11
8.937007874
 21
10.0
  0
LINE
  8
0
 62
7
  6
CONTINUOUS
 10
218.937007874
 20
30.0
 11
408.937007874
 21
30.0
  0
LINE
  8
0
 62
7
  6
CONTINUOUS
 10
210.0
 20
297.0
 11
210.0
 21
292.0
  0
LINE
  8
0
 62
7
  6
CONTINUOUS
 10
210.0
 20
0.0
 11
210.0
 21
5.0
  0
LINE
  8
0
 62
7
  6
CONTINUOUS
 10
8.937007874
 20
287.0
 11
408.937007874
 21
287.0
  0
LINE
  8
0
 62
7
  6
CONTINUOUS
 10
0.0
 20
297.0
 11
420.0
 21
297.0
  0
LINE
  8
0
 62
7
  6
CONTINUOUS
 10
408.937007874
 20
287.0
 11
408.937007874
 21
10.0
  0
LINE
  8
0
 62
7
  6
CONTINUOUS
 10
420.0
 20
0.0
 11
420.0
 21
297.0
  0
LINE
  8
0
 62
7
  6
CONTINUOUS
 10
80.0771679533
 20
58.243499061
 11
80.0771679533
 21
112.8218064411
  0
LINE
  8
0
 62
7
  6
CONTINUOUS
 10
80.3271679533
 20
104.1859465166
 11
80.3271679533
 21
79.7011860159
  0
POLYLINE
  8
0
 62
7
  6
CONTINUOUS
 66
1
 70
0
  0
VERTEX
  8
0
 62
7
  6
CONTINUOUS
 10
89.5226987795
 20
124.3823329981
  0
VERTEX
  8
0
 62
7
  6
CONTINUOUS
 10
89.3429155043
 20
123.9813837763
  0
VERTEX
  8
0
 62
7
  6
CONTINUOUS
 10
89.1678509661
 20
123.5157707355
  0
VERTEX
  8
0
 62
7
  6
CONTINUOUS
 10
89.0090825642
 20
123.014146255
  0
VERTEX
  8
0
 62
7
  6
CONTINUOUS
 10
88.8663778184
 20
122.4808100528
  0
VERTEX
  8
0
 62
7
  6
CONTINUOUS
 10
88.7396895849
 20
121.9204190311
  0
VERTEX
  8
0
 62
7
  6
CONTINUOUS
 10
88.6290020538
 20
121.3378082256
  0
VERTEX
  8
0
 62
7
  6
CONTINUOUS
 10
88.5342732025
 20
120.7379832987
  0
VERTEX
  8
0
 62
7
  6
CONTINUOUS
 10
88.4623953888
 20
120.1861901772
  0
SEQEND
  0
POLYLINE
  8
0
 62
7
  6
CONTINUOUS
 66
1
 70
0
  0
VERTEX
  8
0
 62
7
  6
CONTINUOUS
 10
80.0771679533
 20
63.706314083
  0
VERTEX
  8
0
 62
7
  6
CONTINUOUS
 10
80.0820928242
 20
63.6985513427
  0
VERTEX
  8
0
 62
7
  6
CONTINUOUS
 10
80.096677339
 20
63.6911712154
  0
VERTEX
  8
0
 62
7
  6
CONTINUOUS
 10
80.1202858004
 20
63.6845370223
  0
VERTEX
  8
0
 62
7
  6
CONTINUOUS
 10
80.1518242499
 20
63.6789809533
  0
VERTEX
  8
0
 62
7
  6
CONTINUOUS
 10
80.1897754343
 20
63.67478677
  0
VERTEX
  8
0
 62
7
  6
CONTINUOUS
 10
80.232266559
 20
63.6721738593
  0
VERTEX
  8
0
 62
7
  6
CONTINUOUS
 10
80.2771679533
 20
63.671284943
  0
SEQEND
  0
POLYLINE
  8
0
 62
7
  6
CONTINUOUS
 66
1
 70
0
  0
VERTEX
  8
0
 62
7
  6
CONTINUOUS
 10
80.0771675845
 20
58.2435573614
  0
VERTEX
  8
0
 62
7
  6
CONTINUOUS
 10
80.0821361456
 20
58.1992556211
  0
VERTEX
  8
0
 62
7
  6
CONTINUOUS
 10
80.0968645552
 20
58.1570099842
  0
VERTEX
  8
0
 62
7
  6
CONTINUOUS
 10
80.1206158438
 20
58.1190955443
  0
VERTEX
  8
0
 62
7
  6
CONTINUOUS
 10
80.1522013876
 20
58.0874097869
  0
VERTEX
  8
0
 62
7
  6
CONTINUOUS
 10
80.1900403843
 20
58.0635385054
  0
VERTEX
  8
0
 62
7
  6
CONTINUOUS
 10
80.2322390016
 20
58.0486763184
  0
VERTEX
  8
0
 62
7
  6
CONTINUOUS
 10
80.2771592352
 20
58.0435662753
  0
SEQEND
  0
POLYLINE
  8
0
 62
7
  6
CONTINUOUS
 66
1
 70
0
  0
VERTEX
  8
0
 62
7
  6
CONTINUOUS
 10
88.289001365
 20
69.5331077646
  0
VERTEX
  8
0
 62
7
  6
CONTINUOUS
 10
88.2850663984
 20
69.823323033
  0
VERTEX
  8
0
 62
7
  6
CONTINUOUS
 10
88.2849309829
 20
69.899427939
  0
VERTEX
  8
0
 62
7
  6
CONTINUOUS
 10
88.2860707725
 20
69.9749259687
  0
VERTEX
  8
0
 62
7
  6
CONTINUOUS
 10
88.2886544371
 20
70.0495910932
  0
VERTEX
  8
0
 62
7
  6
CONTINUOUS
 10
88.292867689
 20
70.1232394422
  0
VERTEX
  8
0
 62
7
  6
CONTINUOUS
 10
88.2988806998
 20
70.1957166962
  0
VERTEX
  8
0
 62
7
  6
CONTINUOUS
 10
88.3068411639
 20
70.2667150508
  0
VERTEX
  8
0
 62
7
  6
CONTINUOUS
 10
88.3168878625
 20
70.3357370604
  0
VERTEX
  8
0
 62
7
  6
CONTINUOUS
 10
88.3291885742
 20
70.4028808676
  0
VERTEX
  8
0
 62
7
  6
CONTINUOUS
 10
88.3438899873
 20
70.4679397244
  0
VERTEX
  8
0
 62
7
  6
CONTINUOUS
 10
88.3612544712
 20
70.5304608294
  0
VERTEX
  8
0
 62
7
  6
CONTINUOUS
 10
88.3814442799
 20
70.5887885915
  0
VERTEX
  8
0
 62
7
  6
CONTINUOUS
 10
88.4052958022
 20
70.6435301322
  0
VERTEX
  8
0
 62
7
  6
CONTINUOUS
 10
88.4326635859
 20
70.6938905573
  0
VERTEX
  8
0
 62
7
  6
CONTINUOUS
 10
88.4628568835
 20
70.7384739749
  0
VERTEX
  8
0
 62
7
  6
CONTINUOUS
 10
88.4953791722
 20
70.7768195352
  0
VERTEX
  8
0
 62
7
  6
CONTINUOUS
 10
88.5303497585
 20
70.8091066264
  0
VERTEX
  8
0
 62
7
  6
CONTINUOUS
 10
88.5676387436
 20
70.8349348168
  0
VERTEX
  8
0
 62
7
  6
CONTINUOUS
 10
88.6072460883
 20
70.8535876487
  0
VERTEX
  8
0
 62
7
  6
CONTINUOUS
 10
88.648253123
 20
70.8635327572
  0
VERTEX
  8
0
 62
7
  6
CONTINUOUS
 10
88.6674307291
 20
70.8647571969
  0
SEQEND
  0
LINE
  8
0
 62
7
  6
CONTINUOUS
 10
88.2914434196
 20
69.2500935956
 11
88.289001365
 21
69.5331077646
  0
LINE
  8
0
 62
7
  6
CONTINUOUS
 10
88.2914434196
 20
69.2500935956
 11
88.2919997965
 21
63.701992655
  0
LINE
  8
0
 62
7
  6
CONTINUOUS
 10
88.4623954184
 20
120.1861843116
 11
88.4623361131
 21
120.1851643718
  0
LINE
  8
0
 62
7
  6
CONTINUOUS
 10
89.5345401751
 20
124.4779982479
 11
89.5186353906
 21
124.3732709059
  0
POLYLINE
  8
0
 62
7
  6
CONTINUOUS
 66
1
 70
0
  0
VERTEX
  8
0
 62
7
  6
CONTINUOUS
 10
88.4652876769
 20
114.3579924979
  0
VERTEX
  8
0
 62
7
  6
CONTINUOUS
 10
88.4692226332
 20
114.0684694581
  0
VERTEX
  8
0
 62
7
  6
CONTINUOUS
 10
88.4694325296
 20
113.9926385838
  0
VERTEX
  8
0
 62
7
  6
CONTINUOUS
 10
88.4683842691
 20
113.9172656303
  0
VERTEX
  8
0
 62
7
  6
CONTINUOUS
 10
88.4659059045
 20
113.8425928169
  0
VERTEX
  8
0
 62
7
  6
CONTINUOUS
 10
88.4618063598
 20
113.7688267975
  0
VERTEX
  8
0
 62
7
  6
CONTINUOUS
 10
88.4559073448
 20
113.6961353942
  0
VERTEX
  8
0
 62
7
  6
CONTINUOUS
 10
88.4480534688
 20
113.6248264782
  0
VERTEX
  8
0
 62
7
  6
CONTINUOUS
 10
88.438106668
 20
113.5554416846
  0
VERTEX
  8
0
 62
7
  6
CONTINUOUS
 10
88.4258834613
 20
113.4878879268
  0
VERTEX
  8
0
 62
7
  6
CONTINUOUS
 10
88.4112371694
 20
113.422381129
  0
VERTEX
  8
0
 62
7
  6
CONTINUOUS
 10
88.3938877224
 20
113.3593100046
  0
VERTEX
  8
0
 62
7
  6
CONTINUOUS
 10
88.3736986585
 20
113.3004270247
  0
VERTEX
  8
0
 62
7
  6
CONTINUOUS
 10
88.3498376026
 20
113.2452478597
  0
VERTEX
  8
0
 62
7
  6
CONTINUOUS
 10
88.3223682763
 20
113.1943943827
  0
VERTEX
  8
0
 62
7
  6
CONTINUOUS
 10
88.2920445049
 20
113.1494088541
  0
VERTEX
  8
0
 62
7
  6
CONTINUOUS
 10
88.2596038905
 20
113.1109933176
  0
VERTEX
  8
0
 62
7
  6
CONTINUOUS
 10
88.2249317871
 20
113.0787917479
  0
VERTEX
  8
0
 62
7
  6
CONTINUOUS
 10
88.1880781256
 20
113.0530089069
  0
VERTEX
  8
0
 62
7
  6
CONTINUOUS
 10
88.1488809295
 20
113.0341987933
  0
VERTEX
  8
0
 62
7
  6
CONTINUOUS
 10
88.1080386297
 20
113.0238513456
  0
VERTEX
  8
0
 62
7
  6
CONTINUOUS
 10
88.086731424
 20
113.0223747711
  0
SEQEND
  0
LINE
  8
0
 62
7
  6
CONTINUOUS
 10
88.4628717025
 20
114.6410142347
 11
88.4652876769
 21
114.3579924979
  0
LINE
  8
0
 62
7
  6
CONTINUOUS
 10
88.4623361102
 20
120.1851023603
 11
88.4628717025
 21
114.6410142347
  0
LINE
  8
0
 62
7
  6
CONTINUOUS
 10
88.2919997964
 20
63.701960542
 11
88.2919404704
 21
63.7009525048
  0
LINE
  8
0
 62
7
  6
CONTINUOUS
 10
87.2197958671
 20
59.4091351546
 11
87.2356982415
 21
59.5138606996
  0
LINE
  8
0
 62
7
  6
CONTINUOUS
 10
97.7419710531
 20
59.9080482931
 11
97.9226977363
 21
59.5048016606
  0
POLYLINE
  8
0
 62
7
  6
CONTINUOUS
 66
1
 70
0
  0
VERTEX
  8
0
 62
7
  6
CONTINUOUS
 10
97.9345388174
 20
59.4091429936
  0
VERTEX
  8
0
 62
7
  6
CONTINUOUS
 10
97.9624219376
 20
59.2403679866
  0
VERTEX
  8
0
 62
7
  6
CONTINUOUS
 10
97.993470598
 20
59.0747859945
  0
VERTEX
  8
0
 62
7
  6
CONTINUOUS
 10
98.0245226916
 20
58.9307543017
  0
VERTEX
  8
0
 62
7
  6
CONTINUOUS
 10
98.0560412491
 20
58.8046318779
  0
VERTEX
  8
0
 62
7
  6
CONTINUOUS
 10
98.0888042895
 20
58.6928056854
  0
VERTEX
  8
0
 62
7
  6
CONTINUOUS
 10
98.1241763424
 20
58.5914167367
  0
VERTEX
  8
0
 62
7
  6
CONTINUOUS
 10
98.1645647921
 20
58.4962555809
  0
VERTEX
  8
0
 62
7
  6
CONTINUOUS
 10
98.2136926849
 20
58.4037611236
  0
VERTEX
  8
0
 62
7
  6
CONTINUOUS
 10
98.2770877684
 20
58.3117059085
  0
VERTEX
  8
0
 62
7
  6
CONTINUOUS
 10
98.3612050496
 20
58.2215702844
  0
VERTEX
  8
0
 62
7
  6
CONTINUOUS
 10
98.4696197388
 20
58.1408523169
  0
VERTEX
  8
0
 62
7
  6
CONTINUOUS
 10
98.6004131407
 20
58.0799613126
  0
VERTEX
  8
0
 62
7
  6
CONTINUOUS
 10
98.7459366383
 20
58.0476366704
  0
VERTEX
  8
0
 62
7
  6
CONTINUOUS
 10
98.8210101577
 20
58.0435663895
  0
SEQEND
  0
LINE
  8
0
 62
7
  6
CONTINUOUS
 10
97.9186376652
 20
59.5138606992
 11
97.9345400395
 21
59.4091351546
  0
POLYLINE
  8
0
 62
7
  6
CONTINUOUS
 66
1
 70
0
  0
VERTEX
  8
0
 62
7
  6
CONTINUOUS
 10
96.8623953854
 20
63.7009423835
  0
VERTEX
  8
0
 62
7
  6
CONTINUOUS
 10
96.9337726405
 20
63.1526510011
  0
VERTEX
  8
0
 62
7
  6
CONTINUOUS
 10
97.0284221019
 20
62.5526695856
  0
VERTEX
  8
0
 62
7
  6
CONTINUOUS
 10
97.1390327067
 20
61.9698826212
  0
VERTEX
  8
0
 62
7
  6
CONTINUOUS
 10
97.2656465929
 20
61.4092969549
  0
VERTEX
  8
0
 62
7
  6
CONTINUOUS
 10
97.4082793473
 20
60.8757492766
  0
VERTEX
  8
0
 62
7
  6
CONTINUOUS
 10
97.5669772715
 20
60.3738988985
  0
VERTEX
  8
0
 62
7
  6
CONTINUOUS
 10
97.7419710531
 20
59.9080482931
  0
SEQEND
  0
LINE
  8
0
 62
7
  6
CONTINUOUS
 10
96.862395415
 20
63.7009482492
 11
96.8623361131
 21
63.7019681608
  0
LINE
  8
0
 62
7
  6
CONTINUOUS
 10
96.6919404883
 20
120.1861843116
 11
96.6919997935
 21
120.1851643718
  0
POLYLINE
  8
0
 62
7
  6
CONTINUOUS
 66
1
 70
0
  0
VERTEX
  8
0
 62
7
  6
CONTINUOUS
 10
96.6850722494
 20
114.0643583558
  0
VERTEX
  8
0
 62
7
  6
CONTINUOUS
 10
96.689001768
 20
114.3540286115
  0
VERTEX
  8
0
 62
7
  6
CONTINUOUS
 10
96.6914435118
 20
114.6370408129
  0
VERTEX
  8
0
 62
7
  6
CONTINUOUS
 10
96.6919997965
 20
120.1851023603
  0
SEQEND
  0
POLYLINE
  8
0
 62
7
  6
CONTINUOUS
 66
1
 70
0
  0
VERTEX
  8
0
 62
7
  6
CONTINUOUS
 10
96.8692273231
 20
69.8191164851
  0
VERTEX
  8
0
 62
7
  6
CONTINUOUS
 10
96.8652876772
 20
69.529139984
  0
VERTEX
  8
0
 62
7
  6
CONTINUOUS
 10
96.8628717027
 20
69.2461183235
  0
VERTEX
  8
0
 62
7
  6
CONTINUOUS
 10
96.8623361102
 20
63.7020301723
  0
SEQEND
  0
POLYLINE
  8
0
 62
7
  6
CONTINUOUS
 66
1
 70
0
  0
VERTEX
  8
0
 62
7
  6
CONTINUOUS
 10
106.3226987795
 20
124.3823329981
  0
VERTEX
  8
0
 62
7
  6
CONTINUOUS
 10
106.1429155043
 20
123.9813837763
  0
VERTEX
  8
0
 62
7
  6
CONTINUOUS
 10
105.9678509661
 20
123.5157707355
  0
VERTEX
  8
0
 62
7
  6
CONTINUOUS
 10
105.8090825642
 20
123.014146255
  0
VERTEX
  8
0
 62
7
  6
CONTINUOUS
 10
105.6663778184
 20
122.4808100528
  0
VERTEX
  8
0
 62
7
  6
CONTINUOUS
 10
105.5396895849
 20
121.9204190311
  0
VERTEX
  8
0
 62
7
  6
CONTINUOUS
 10
105.4290020538
 20
121.3378082256
  0
VERTEX
  8
0
 62
7
  6
CONTINUOUS
 10
105.3342732025
 20
120.7379832987
  0
VERTEX
  8
0
 62
7
  6
CONTINUOUS
 10
105.2623953888
 20
120.1861901772
  0
SEQEND
  0
POLYLINE
  8
0
 62
7
  6
CONTINUOUS
 66
1
 70
0
  0
VERTEX
  8
0
 62
7
  6
CONTINUOUS
 10
105.2652876769
 20
114.3579924979
  0
VERTEX
  8
0
 62
7
  6
CONTINUOUS
 10
105.2692226332
 20
114.0684694581
  0
VERTEX
  8
0
 62
7
  6
CONTINUOUS
 10
105.2694325296
 20
113.9926385838
  0
VERTEX
  8
0
 62
7
  6
CONTINUOUS
 10
105.2683842691
 20
113.9172656303
  0
VERTEX
  8
0
 62
7
  6
CONTINUOUS
 10
105.2659059045
 20
113.8425928169
  0
VERTEX
  8
0
 62
7
  6
CONTINUOUS
 10
105.2618063598
 20
113.7688267975
  0
VERTEX
  8
0
 62
7
  6
CONTINUOUS
 10
105.2559073448
 20
113.6961353942
  0
VERTEX
  8
0
 62
7
  6
CONTINUOUS
 10
105.2480534688
 20
113.6248264782
  0
VERTEX
  8
0
 62
7
  6
CONTINUOUS
 10
105.238106668
 20
113.5554416846
  0
VERTEX
  8
0
 62
7
  6
CONTINUOUS
 10
105.2258834613
 20
113.4878879268
  0
VERTEX
  8
0
 62
7
  6
CONTINUOUS
 10
105.2112371694
 20
113.422381129
  0
VERTEX
  8
0
 62
7
  6
CONTINUOUS
 10
105.1938877224
 20
113.3593100046
  0
VERTEX
  8
0
 62
7
  6
CONTINUOUS
 10
105.1736986585
 20
113.3004270247
  0
VERTEX
  8
0
 62
7
  6
CONTINUOUS
 10
105.1498376026
 20
113.2452478597
  0
VERTEX
  8
0
 62
7
  6
CONTINUOUS
 10
105.1223682763
 20
113.1943943827
  0
VERTEX
  8
0
 62
7
  6
CONTINUOUS
 10
105.0920445049
 20
113.1494088541
  0
VERTEX
  8
0
 62
7
  6
CONTINUOUS
 10
105.0596038905
 20
113.1109933176
  0
VERTEX
  8
0
 62
7
  6
CONTINUOUS
 10
105.0249317871
 20
113.0787917479
  0
VERTEX
  8
0
 62
7
  6
CONTINUOUS
 10
104.9880781256
 20
113.0530089069
  0
VERTEX
  8
0
 62
7
  6
CONTINUOUS
 10
104.9488809295
 20
113.0341987933
  0
VERTEX
  8
0
 62
7
  6
CONTINUOUS
 10
104.9080386297
 20
113.0238513456
  0
VERTEX
  8
0
 62
7
  6
CONTINUOUS
 10
104.886731424
 20
113.0223747711
  0
SEQEND
  0
POLYLINE
  8
0
 62
7
  6
CONTINUOUS
 66
1
 70
0
  0
VERTEX
  8
0
 62
7
  6
CONTINUOUS
 10
105.089001365
 20
69.5331077646
  0
VERTEX
  8
0
 62
7
  6
CONTINUOUS
 10
105.0850663984
 20
69.823323033
  0
VERTEX
  8
0
 62
7
  6
CONTINUOUS
 10
105.0849309829
 20
69.899427939
  0
VERTEX
  8
0
 62
7
  6
CONTINUOUS
 10
105.0860707725
 20
69.9749259687
  0
VERTEX
  8
0
 62
7
  6
CONTINUOUS
 10
105.0886544371
 20
70.0495910932
  0
VERTEX
  8
0
 62
7
  6
CONTINUOUS
 10
105.092867689
 20
70.1232394422
  0
VERTEX
  8
0
 62
7
  6
CONTINUOUS
 10
105.0988806998
 20
70.1957166962
  0
VERTEX
  8
0
 62
7
  6
CONTINUOUS
 10
105.1068411639
 20
70.2667150508
  0
VERTEX
  8
0
 62
7
  6
CONTINUOUS
 10
105.1168878625
 20
70.3357370604
  0
VERTEX
  8
0
 62
7
  6
CONTINUOUS
 10
105.1291885742
 20
70.4028808676
  0
VERTEX
  8
0
 62
7
  6
CONTINUOUS
 10
105.1438899873
 20
70.4679397244
  0
VERTEX
  8
0
 62
7
  6
CONTINUOUS
 10
105.1612544712
 20
70.5304608294
  0
VERTEX
  8
0
 62
7
  6
CONTINUOUS
 10
105.1814442799
 20
70.5887885915
  0
VERTEX
  8
0
 62
7
  6
CONTINUOUS
 10
105.2052958022
 20
70.6435301322
  0
VERTEX
  8
0
 62
7
  6
CONTINUOUS
 10
105.2326635859
 20
70.6938905573
  0
VERTEX
  8
0
 62
7
  6
CONTINUOUS
 10
105.2628568835
 20
70.7384739749
  0
VERTEX
  8
0
 62
7
  6
CONTINUOUS
 10
105.2953791722
 20
70.7768195352
  0
VERTEX
  8
0
 62
7
  6
CONTINUOUS
 10
105.3303497585
 20
70.8091066264
  0
VERTEX
  8
0
 62
7
  6
CONTINUOUS
 10
105.3676387436
 20
70.8349348168
  0
VERTEX
  8
0
 62
7
  6
CONTINUOUS
 10
105.4072460883
 20
70.8535876487
  0
VERTEX
  8
0
 62
7
  6
CONTINUOUS
 10
105.448253123
 20
70.8635327572
  0
VERTEX
  8
0
 62
7
  6
CONTINUOUS
 10
105.4674307291
 20
70.8647571969
  0
SEQEND
  0
LINE
  8
0
 62
7
  6
CONTINUOUS
 10
105.0914434196
 20
69.2500935956
 11
105.089001365
 21
69.5331077646
  0
LINE
  8
0
 62
7
  6
CONTINUOUS
 10
105.2628717025
 20
114.6410142347
 11
105.2652876769
 21
114.3579924979
  0
LINE
  8
0
 62
7
  6
CONTINUOUS
 10
105.0914434196
 20
69.2500935956
 11
105.0919997965
 21
63.701992655
  0
LINE
  8
0
 62
7
  6
CONTINUOUS
 10
105.2623361102
 20
120.1851023603
 11
105.2628717025
 21
114.6410142347
  0
LINE
  8
0
 62
7
  6
CONTINUOUS
 10
105.2623954184
 20
120.1861843116
 11
105.2623361131
 21
120.1851643718
  0
LINE
  8
0
 62
7
  6
CONTINUOUS
 10
105.0919997964
 20
63.701960542
 11
105.0919404704
 21
63.7009525048
  0
LINE
  8
0
 62
7
  6
CONTINUOUS
 10
106.3345401751
 20
124.4779982479
 11
106.3186353906
 21
124.3732709059
  0
POLYLINE
  8
0
 62
7
  6
CONTINUOUS
 66
1
 70
0
  0
VERTEX
  8
0
 62
7
  6
CONTINUOUS
 10
87.2316381703
 20
59.5048016606
  0
VERTEX
  8
0
 62
7
  6
CONTINUOUS
 10
87.4123648974
 20
59.9080484001
  0
VERTEX
  8
0
 62
7
  6
CONTINUOUS
 10
87.5873587153
 20
60.3738991313
  0
VERTEX
  8
0
 62
7
  6
CONTINUOUS
 10
87.7460566683
 20
60.8757496514
  0
VERTEX
  8
0
 62
7
  6
CONTINUOUS
 10
87.888689444
 20
61.4092974848
  0
VERTEX
  8
0
 62
7
  6
CONTINUOUS
 10
88.0153033438
 20
61.9698833156
  0
VERTEX
  8
0
 62
7
  6
CONTINUOUS
 10
88.1259139547
 20
62.5526704506
  0
VERTEX
  8
0
 62
7
  6
CONTINUOUS
 10
88.2205634144
 20
63.152652039
  0
VERTEX
  8
0
 62
7
  6
CONTINUOUS
 10
88.2919405212
 20
63.7009423835
  0
SEQEND
  0
LINE
  8
0
 62
7
  6
CONTINUOUS
 10
114.5419710531
 20
59.9080482931
 11
114.7226977363
 21
59.5048016606
  0
POLYLINE
  8
0
 62
7
  6
CONTINUOUS
 66
1
 70
0
  0
VERTEX
  8
0
 62
7
  6
CONTINUOUS
 10
95.6197969765
 20
124.4779902617
  0
VERTEX
  8
0
 62
7
  6
CONTINUOUS
 10
95.591676652
 20
124.6481170011
  0
VERTEX
  8
0
 62
7
  6
CONTINUOUS
 10
95.5606756432
 20
124.8132897476
  0
VERTEX
  8
0
 62
7
  6
CONTINUOUS
 10
95.5296743529
 20
124.9569767997
  0
VERTEX
  8
0
 62
7
  6
CONTINUOUS
 10
95.4982112603
 20
125.0828093057
  0
VERTEX
  8
0
 62
7
  6
CONTINUOUS
 10
95.4655117409
 20
125.1943891903
  0
VERTEX
  8
0
 62
7
  6
CONTINUOUS
 10
95.4302192862
 20
125.2955598402
  0
VERTEX
  8
0
 62
7
  6
CONTINUOUS
 10
95.389947162
 20
125.390503453
  0
VERTEX
  8
0
 62
7
  6
CONTINUOUS
 10
95.3410156334
 20
125.4827493669
  0
VERTEX
  8
0
 62
7
  6
CONTINUOUS
 10
95.277954874
 20
125.5745332991
  0
VERTEX
  8
0
 62
7
  6
CONTINUOUS
 10
95.1943580619
 20
125.6644474619
  0
VERTEX
  8
0
 62
7
  6
CONTINUOUS
 10
95.0866050161
 20
125.7451382925
  0
VERTEX
  8
0
 62
7
  6
CONTINUOUS
 10
94.9565288667
 20
125.8062759543
  0
VERTEX
  8
0
 62
7
  6
CONTINUOUS
 10
94.8117318883
 20
125.8391235209
  0
VERTEX
  8
0
 62
7
  6
CONTINUOUS
 10
94.7333255209
 20
125.8435661428
  0
SEQEND
  0
LINE
  8
0
 62
7
  6
CONTINUOUS
 10
95.635700516
 20
124.3732709059
 11
95.6197957315
 21
124.4779982479
  0
POLYLINE
  8
0
 62
7
  6
CONTINUOUS
 66
1
 70
0
  0
VERTEX
  8
0
 62
7
  6
CONTINUOUS
 10
96.6919405179
 20
120.1861901772
  0
VERTEX
  8
0
 62
7
  6
CONTINUOUS
 10
96.6200627041
 20
120.7379832987
  0
VERTEX
  8
0
 62
7
  6
CONTINUOUS
 10
96.5253338528
 20
121.3378082256
  0
VERTEX
  8
0
 62
7
  6
CONTINUOUS
 10
96.4146463218
 20
121.9204190311
  0
VERTEX
  8
0
 62
7
  6
CONTINUOUS
 10
96.2879580882
 20
122.4808100528
  0
VERTEX
  8
0
 62
7
  6
CONTINUOUS
 10
96.1452533424
 20
123.014146255
  0
VERTEX
  8
0
 62
7
  6
CONTINUOUS
 10
95.9864849405
 20
123.5157707355
  0
VERTEX
  8
0
 62
7
  6
CONTINUOUS
 10
95.8114204024
 20
123.9813837763
  0
SEQEND
  0
LINE
  8
0
 62
7
  6
CONTINUOUS
 10
113.662395415
 20
63.7009482492
 11
113.6623361131
 21
63.7019681608
  0
LINE
  8
0
 62
7
  6
CONTINUOUS
 10
104.0197958671
 20
59.4091351546
 11
104.0356982415
 21
59.5138606996
  0
POLYLINE
  8
0
 62
7
  6
CONTINUOUS
 66
1
 70
0
  0
VERTEX
  8
0
 62
7
  6
CONTINUOUS
 10
123.1226987795
 20
124.3823329981
  0
VERTEX
  8
0
 62
7
  6
CONTINUOUS
 10
122.9429155043
 20
123.9813837763
  0
VERTEX
  8
0
 62
7
  6
CONTINUOUS
 10
122.7678509661
 20
123.5157707355
  0
VERTEX
  8
0
 62
7
  6
CONTINUOUS
 10
122.6090825642
 20
123.014146255
  0
VERTEX
  8
0
 62
7
  6
CONTINUOUS
 10
122.4663778184
 20
122.4808100528
  0
VERTEX
  8
0
 62
7
  6
CONTINUOUS
 10
122.3396895849
 20
121.9204190311
  0
VERTEX
  8
0
 62
7
  6
CONTINUOUS
 10
122.2290020538
 20
121.3378082256
  0
VERTEX
  8
0
 62
7
  6
CONTINUOUS
 10
122.1342732025
 20
120.7379832987
  0
VERTEX
  8
0
 62
7
  6
CONTINUOUS
 10
122.0623953888
 20
120.1861901772
  0
SEQEND
  0
POLYLINE
  8
0
 62
7
  6
CONTINUOUS
 66
1
 70
0
  0
VERTEX
  8
0
 62
7
  6
CONTINUOUS
 10
114.7345388174
 20
59.4091429936
  0
VERTEX
  8
0
 62
7
  6
CONTINUOUS
 10
114.7624219376
 20
59.2403679866
  0
VERTEX
  8
0
 62
7
  6
CONTINUOUS
 10
114.793470598
 20
59.0747859945
  0
VERTEX
  8
0
 62
7
  6
CONTINUOUS
 10
114.8245226916
 20
58.9307543017
  0
VERTEX
  8
0
 62
7
  6
CONTINUOUS
 10
114.8560412491
 20
58.8046318779
  0
VERTEX
  8
0
 62
7
  6
CONTINUOUS
 10
114.8888042895
 20
58.6928056854
  0
VERTEX
  8
0
 62
7
  6
CONTINUOUS
 10
114.9241763424
 20
58.5914167367
  0
VERTEX
  8
0
 62
7
  6
CONTINUOUS
 10
114.9645647921
 20
58.4962555808
  0
VERTEX
  8
0
 62
7
  6
CONTINUOUS
 10
115.0136926849
 20
58.4037611236
  0
VERTEX
  8
0
 62
7
  6
CONTINUOUS
 10
115.0770877684
 20
58.3117059085
  0
VERTEX
  8
0
 62
7
  6
CONTINUOUS
 10
115.1612050497
 20
58.2215702844
  0
VERTEX
  8
0
 62
7
  6
CONTINUOUS
 10
115.2696197388
 20
58.1408523169
  0
VERTEX
  8
0
 62
7
  6
CONTINUOUS
 10
115.4004131407
 20
58.0799613126
  0
VERTEX
  8
0
 62
7
  6
CONTINUOUS
 10
115.5459366383
 20
58.0476366704
  0
VERTEX
  8
0
 62
7
  6
CONTINUOUS
 10
115.6210101577
 20
58.0435663895
  0
SEQEND
  0
LINE
  8
0
 62
7
  6
CONTINUOUS
 10
114.7186376652
 20
59.5138606992
 11
114.7345400395
 21
59.4091351546
  0
POLYLINE
  8
0
 62
7
  6
CONTINUOUS
 66
1
 70
0
  0
VERTEX
  8
0
 62
7
  6
CONTINUOUS
 10
113.6623953854
 20
63.7009423835
  0
VERTEX
  8
0
 62
7
  6
CONTINUOUS
 10
113.7337726405
 20
63.1526510011
  0
VERTEX
  8
0
 62
7
  6
CONTINUOUS
 10
113.8284221019
 20
62.5526695856
  0
VERTEX
  8
0
 62
7
  6
CONTINUOUS
 10
113.9390327067
 20
61.9698826212
  0
VERTEX
  8
0
 62
7
  6
CONTINUOUS
 10
114.0656465929
 20
61.4092969549
  0
VERTEX
  8
0
 62
7
  6
CONTINUOUS
 10
114.2082793473
 20
60.8757492766
  0
VERTEX
  8
0
 62
7
  6
CONTINUOUS
 10
114.3669772715
 20
60.3738988985
  0
VERTEX
  8
0
 62
7
  6
CONTINUOUS
 10
114.5419710531
 20
59.9080482931
  0
SEQEND
  0
LINE
  8
0
 62
7
  6
CONTINUOUS
 10
113.4919404883
 20
120.1861843116
 11
113.4919997935
 21
120.1851643718
  0
POLYLINE
  8
0
 62
7
  6
CONTINUOUS
 66
1
 70
0
  0
VERTEX
  8
0
 62
7
  6
CONTINUOUS
 10
113.4850722494
 20
114.0643583558
  0
VERTEX
  8
0
 62
7
  6
CONTINUOUS
 10
113.489001768
 20
114.3540286115
  0
VERTEX
  8
0
 62
7
  6
CONTINUOUS
 10
113.4914435118
 20
114.6370408129
  0
VERTEX
  8
0
 62
7
  6
CONTINUOUS
 10
113.4919997965
 20
120.1851023603
  0
SEQEND
  0
POLYLINE
  8
0
 62
7
  6
CONTINUOUS
 66
1
 70
0
  0
VERTEX
  8
0
 62
7
  6
CONTINUOUS
 10
113.6692273231
 20
69.8191164851
  0
VERTEX
  8
0
 62
7
  6
CONTINUOUS
 10
113.6652876772
 20
69.529139984
  0
VERTEX
  8
0
 62
7
  6
CONTINUOUS
 10
113.6628717027
 20
69.2461183235
  0
VERTEX
  8
0
 62
7
  6
CONTINUOUS
 10
113.6623361102
 20
63.7020301723
  0
SEQEND
  0
LINE
  8
0
 62
7
  6
CONTINUOUS
 10
123.1345401751
 20
124.4779982479
 11
123.1186353906
 21
124.3732709059
  0
POLYLINE
  8
0
 62
7
  6
CONTINUOUS
 66
1
 70
0
  0
VERTEX
  8
0
 62
7
  6
CONTINUOUS
 10
88.2919404704
 20
63.7009525048
  0
VERTEX
  8
0
 62
7
  6
CONTINUOUS
 10
88.28612877
 20
63.6923556069
  0
VERTEX
  8
0
 62
7
  6
CONTINUOUS
 10
88.267042017
 20
63.6835622884
  0
VERTEX
  8
0
 62
7
  6
CONTINUOUS
 10
88.2358407699
 20
63.6768338457
  0
VERTEX
  8
0
 62
7
  6
CONTINUOUS
 10
88.1945222241
 20
63.6725141423
  0
VERTEX
  8
0
 62
7
  6
CONTINUOUS
 10
88.1458258779
 20
63.6707252557
  0
VERTEX
  8
0
 62
7
  6
CONTINUOUS
 10
88.0919997965
 20
63.671284943
  0
SEQEND
  0
POLYLINE
  8
0
 62
7
  6
CONTINUOUS
 66
1
 70
0
  0
VERTEX
  8
0
 62
7
  6
CONTINUOUS
 10
220.7333251494
 20
58.0435663903
  0
VERTEX
  8
0
 62
7
  6
CONTINUOUS
 10
220.8118490828
 20
58.0480224063
  0
VERTEX
  8
0
 62
7
  6
CONTINUOUS
 10
220.956750695
 20
58.0809333317
  0
VERTEX
  8
0
 62
7
  6
CONTINUOUS
 10
221.0868929464
 20
58.1421690438
  0
VERTEX
  8
0
 62
7
  6
CONTINUOUS
 10
221.1946630426
 20
58.2229629172
  0
VERTEX
  8
0
 62
7
  6
CONTINUOUS
 10
221.2782406156
 20
58.3129611622
  0
VERTEX
  8
0
 62
7
  6
CONTINUOUS
 10
221.3412722597
 20
58.4048124414
  0
VERTEX
  8
0
 62
7
  6
CONTINUOUS
 10
221.3901827042
 20
58.4971293218
  0
VERTEX
  8
0
 62
7
  6
CONTINUOUS
 10
221.4304450111
 20
58.5921625802
  0
VERTEX
  8
0
 62
7
  6
CONTINUOUS
 10
221.4657372408
 20
58.6934510123
  0
VERTEX
  8
0
 62
7
  6
CONTINUOUS
 10
221.4984430636
 20
58.8051814408
  0
VERTEX
  8
0
 62
7
  6
CONTINUOUS
 10
221.5299164629
 20
58.9311996087
  0
VERTEX
  8
0
 62
7
  6
CONTINUOUS
 10
221.5609303385
 20
59.0751095744
  0
VERTEX
  8
0
 62
7
  6
CONTINUOUS
 10
221.5919449967
 20
59.240544913
  0
VERTEX
  8
0
 62
7
  6
CONTINUOUS
 10
221.6197970828
 20
59.4091429524
  0
SEQEND
  0
POLYLINE
  8
0
 62
7
  6
CONTINUOUS
 66
1
 70
0
  0
VERTEX
  8
0
 62
7
  6
CONTINUOUS
 10
203.9333251512
 20
58.0435663903
  0
VERTEX
  8
0
 62
7
  6
CONTINUOUS
 10
204.0118485421
 20
58.0480223444
  0
VERTEX
  8
0
 62
7
  6
CONTINUOUS
 10
204.1567500338
 20
58.0809331028
  0
VERTEX
  8
0
 62
7
  6
CONTINUOUS
 10
204.2868923718
 20
58.1421686947
  0
VERTEX
  8
0
 62
7
  6
CONTINUOUS
 10
204.3946625495
 20
58.2229624678
  0
VERTEX
  8
0
 62
7
  6
CONTINUOUS
 10
204.4782401655
 20
58.3129605918
  0
VERTEX
  8
0
 62
7
  6
CONTINUOUS
 10
204.5412718602
 20
58.4048117727
  0
VERTEX
  8
0
 62
7
  6
CONTINUOUS
 10
204.5901823572
 20
58.4971285844
  0
VERTEX
  8
0
 62
7
  6
CONTINUOUS
 10
204.6304447226
 20
58.5921618257
  0
VERTEX
  8
0
 62
7
  6
CONTINUOUS
 10
204.6657370003
 20
58.693450257
  0
VERTEX
  8
0
 62
7
  6
CONTINUOUS
 10
204.6984428641
 20
58.8051807019
  0
VERTEX
  8
0
 62
7
  6
CONTINUOUS
 10
204.7299163051
 20
58.9311989278
  0
VERTEX
  8
0
 62
7
  6
CONTINUOUS
 10
204.7609302271
 20
59.0751090199
  0
VERTEX
  8
0
 62
7
  6
CONTINUOUS
 10
204.7919449384
 20
59.2405445803
  0
VERTEX
  8
0
 62
7
  6
CONTINUOUS
 10
204.8197970828
 20
59.4091429524
  0
SEQEND
  0
LINE
  8
0
 62
7
  6
CONTINUOUS
 10
95.8114204024
 20
123.9813837763
 11
95.6316371272
 21
124.3823329981
  0
POLYLINE
  8
0
 62
7
  6
CONTINUOUS
 66
1
 70
0
  0
VERTEX
  8
0
 62
7
  6
CONTINUOUS
 10
112.4197969765
 20
124.4779902617
  0
VERTEX
  8
0
 62
7
  6
CONTINUOUS
 10
112.391676652
 20
124.6481170011
  0
VERTEX
  8
0
 62
7
  6
CONTINUOUS
 10
112.3606756432
 20
124.8132897476
  0
VERTEX
  8
0
 62
7
  6
CONTINUOUS
 10
112.3296743529
 20
124.9569767997
  0
VERTEX
  8
0
 62
7
  6
CONTINUOUS
 10
112.2982112603
 20
125.0828093057
  0
VERTEX
  8
0
 62
7
  6
CONTINUOUS
 10
112.2655117409
 20
125.1943891903
  0
VERTEX
  8
0
 62
7
  6
CONTINUOUS
 10
112.2302192862
 20
125.2955598402
  0
VERTEX
  8
0
 62
7
  6
CONTINUOUS
 10
112.189947162
 20
125.390503453
  0
VERTEX
  8
0
 62
7
  6
CONTINUOUS
 10
112.1410156334
 20
125.4827493669
  0
VERTEX
  8
0
 62
7
  6
CONTINUOUS
 10
112.077954874
 20
125.5745332991
  0
VERTEX
  8
0
 62
7
  6
CONTINUOUS
 10
111.9943580619
 20
125.6644474619
  0
VERTEX
  8
0
 62
7
  6
CONTINUOUS
 10
111.8866050161
 20
125.7451382925
  0
VERTEX
  8
0
 62
7
  6
CONTINUOUS
 10
111.7565288667
 20
125.8062759543
  0
VERTEX
  8
0
 62
7
  6
CONTINUOUS
 10
111.6117318883
 20
125.8391235209
  0
VERTEX
  8
0
 62
7
  6
CONTINUOUS
 10
111.5333255209
 20
125.8435661428
  0
SEQEND
  0
LINE
  8
0
 62
7
  6
CONTINUOUS
 10
112.435700516
 20
124.3732709059
 11
112.4197957315
 21
124.4779982479
  0
POLYLINE
  8
0
 62
7
  6
CONTINUOUS
 66
1
 70
0
  0
VERTEX
  8
0
 62
7
  6
CONTINUOUS
 10
113.4919405179
 20
120.1861901772
  0
VERTEX
  8
0
 62
7
  6
CONTINUOUS
 10
113.4200627041
 20
120.7379832987
  0
VERTEX
  8
0
 62
7
  6
CONTINUOUS
 10
113.3253338528
 20
121.3378082256
  0
VERTEX
  8
0
 62
7
  6
CONTINUOUS
 10
113.2146463218
 20
121.9204190311
  0
VERTEX
  8
0
 62
7
  6
CONTINUOUS
 10
113.0879580882
 20
122.4808100528
  0
VERTEX
  8
0
 62
7
  6
CONTINUOUS
 10
112.9452533424
 20
123.014146255
  0
VERTEX
  8
0
 62
7
  6
CONTINUOUS
 10
112.7864849405
 20
123.5157707355
  0
VERTEX
  8
0
 62
7
  6
CONTINUOUS
 10
112.6114204024
 20
123.9813837763
  0
SEQEND
  0
POLYLINE
  8
0
 62
7
  6
CONTINUOUS
 66
1
 70
0
  0
VERTEX
  8
0
 62
7
  6
CONTINUOUS
 10
122.0652876769
 20
114.3579924979
  0
VERTEX
  8
0
 62
7
  6
CONTINUOUS
 10
122.0692226332
 20
114.0684694581
  0
VERTEX
  8
0
 62
7
  6
CONTINUOUS
 10
122.0694325296
 20
113.9926385838
  0
VERTEX
  8
0
 62
7
  6
CONTINUOUS
 10
122.0683842691
 20
113.9172656303
  0
VERTEX
  8
0
 62
7
  6
CONTINUOUS
 10
122.0659059045
 20
113.8425928169
  0
VERTEX
  8
0
 62
7
  6
CONTINUOUS
 10
122.0618063598
 20
113.7688267975
  0
VERTEX
  8
0
 62
7
  6
CONTINUOUS
 10
122.0559073448
 20
113.6961353942
  0
VERTEX
  8
0
 62
7
  6
CONTINUOUS
 10
122.0480534688
 20
113.6248264782
  0
VERTEX
  8
0
 62
7
  6
CONTINUOUS
 10
122.038106668
 20
113.5554416846
  0
VERTEX
  8
0
 62
7
  6
CONTINUOUS
 10
122.0258834613
 20
113.4878879268
  0
VERTEX
  8
0
 62
7
  6
CONTINUOUS
 10
122.0112371694
 20
113.422381129
  0
VERTEX
  8
0
 62
7
  6
CONTINUOUS
 10
121.9938877224
 20
113.3593100046
  0
VERTEX
  8
0
 62
7
  6
CONTINUOUS
 10
121.9736986585
 20
113.3004270247
  0
VERTEX
  8
0
 62
7
  6
CONTINUOUS
 10
121.9498376026
 20
113.2452478597
  0
VERTEX
  8
0
 62
7
  6
CONTINUOUS
 10
121.9223682763
 20
113.1943943827
  0
VERTEX
  8
0
 62
7
  6
CONTINUOUS
 10
121.8920445049
 20
113.1494088541
  0
VERTEX
  8
0
 62
7
  6
CONTINUOUS
 10
121.8596038905
 20
113.1109933176
  0
VERTEX
  8
0
 62
7
  6
CONTINUOUS
 10
121.8249317871
 20
113.0787917479
  0
VERTEX
  8
0
 62
7
  6
CONTINUOUS
 10
121.7880781256
 20
113.0530089069
  0
VERTEX
  8
0
 62
7
  6
CONTINUOUS
 10
121.7488809295
 20
113.0341987933
  0
VERTEX
  8
0
 62
7
  6
CONTINUOUS
 10
121.7080386297
 20
113.0238513456
  0
VERTEX
  8
0
 62
7
  6
CONTINUOUS
 10
121.686731424
 20
113.0223747711
  0
SEQEND
  0
POLYLINE
  8
0
 62
7
  6
CONTINUOUS
 66
1
 70
0
  0
VERTEX
  8
0
 62
7
  6
CONTINUOUS
 10
121.889001365
 20
69.5331077646
  0
VERTEX
  8
0
 62
7
  6
CONTINUOUS
 10
121.8850663984
 20
69.823323033
  0
VERTEX
  8
0
 62
7
  6
CONTINUOUS
 10
121.8849309829
 20
69.899427939
  0
VERTEX
  8
0
 62
7
  6
CONTINUOUS
 10
121.8860707725
 20
69.9749259687
  0
VERTEX
  8
0
 62
7
  6
CONTINUOUS
 10
121.8886544371
 20
70.0495910932
  0
VERTEX
  8
0
 62
7
  6
CONTINUOUS
 10
121.892867689
 20
70.1232394422
  0
VERTEX
  8
0
 62
7
  6
CONTINUOUS
 10
121.8988806998
 20
70.1957166962
  0
VERTEX
  8
0
 62
7
  6
CONTINUOUS
 10
121.9068411639
 20
70.2667150508
  0
VERTEX
  8
0
 62
7
  6
CONTINUOUS
 10
121.9168878625
 20
70.3357370604
  0
VERTEX
  8
0
 62
7
  6
CONTINUOUS
 10
121.9291885742
 20
70.4028808676
  0
VERTEX
  8
0
 62
7
  6
CONTINUOUS
 10
121.9438899873
 20
70.4679397244
  0
VERTEX
  8
0
 62
7
  6
CONTINUOUS
 10
121.9612544712
 20
70.5304608294
  0
VERTEX
  8
0
 62
7
  6
CONTINUOUS
 10
121.9814442799
 20
70.5887885915
  0
VERTEX
  8
0
 62
7
  6
CONTINUOUS
 10
122.0052958022
 20
70.6435301322
  0
VERTEX
  8
0
 62
7
  6
CONTINUOUS
 10
122.0326635859
 20
70.6938905573
  0
VERTEX
  8
0
 62
7
  6
CONTINUOUS
 10
122.0628568835
 20
70.7384739749
  0
VERTEX
  8
0
 62
7
  6
CONTINUOUS
 10
122.0953791722
 20
70.7768195352
  0
VERTEX
  8
0
 62
7
  6
CONTINUOUS
 10
122.1303497585
 20
70.8091066264
  0
VERTEX
  8
0
 62
7
  6
CONTINUOUS
 10
122.1676387436
 20
70.8349348168
  0
VERTEX
  8
0
 62
7
  6
CONTINUOUS
 10
122.2072460883
 20
70.8535876487
  0
VERTEX
  8
0
 62
7
  6
CONTINUOUS
 10
122.248253123
 20
70.8635327572
  0
VERTEX
  8
0
 62
7
  6
CONTINUOUS
 10
122.2674307291
 20
70.8647571969
  0
SEQEND
  0
LINE
  8
0
 62
7
  6
CONTINUOUS
 10
121.8914434196
 20
69.2500935956
 11
121.889001365
 21
69.5331077646
  0
LINE
  8
0
 62
7
  6
CONTINUOUS
 10
122.0628717025
 20
114.6410142347
 11
122.0652876769
 21
114.3579924979
  0
LINE
  8
0
 62
7
  6
CONTINUOUS
 10
121.8914434196
 20
69.2500935956
 11
121.8919997965
 21
63.701992655
  0
LINE
  8
0
 62
7
  6
CONTINUOUS
 10
122.0623361102
 20
120.1851023603
 11
122.0628717025
 21
114.6410142347
  0
LINE
  8
0
 62
7
  6
CONTINUOUS
 10
122.0623954184
 20
120.1861843116
 11
122.0623361131
 21
120.1851643718
  0
LINE
  8
0
 62
7
  6
CONTINUOUS
 10
121.8919997964
 20
63.701960542
 11
121.8919404704
 21
63.7009525048
  0
POLYLINE
  8
0
 62
7
  6
CONTINUOUS
 66
1
 70
0
  0
VERTEX
  8
0
 62
7
  6
CONTINUOUS
 10
104.0316381703
 20
59.5048016606
  0
VERTEX
  8
0
 62
7
  6
CONTINUOUS
 10
104.2123648974
 20
59.9080484001
  0
VERTEX
  8
0
 62
7
  6
CONTINUOUS
 10
104.3873587153
 20
60.3738991313
  0
VERTEX
  8
0
 62
7
  6
CONTINUOUS
 10
104.5460566683
 20
60.8757496514
  0
VERTEX
  8
0
 62
7
  6
CONTINUOUS
 10
104.688689444
 20
61.4092974848
  0
VERTEX
  8
0
 62
7
  6
CONTINUOUS
 10
104.8153033438
 20
61.9698833156
  0
VERTEX
  8
0
 62
7
  6
CONTINUOUS
 10
104.9259139547
 20
62.5526704506
  0
VERTEX
  8
0
 62
7
  6
CONTINUOUS
 10
105.0205634144
 20
63.152652039
  0
VERTEX
  8
0
 62
7
  6
CONTINUOUS
 10
105.0919405212
 20
63.7009423835
  0
SEQEND
  0
POLYLINE
  8
0
 62
7
  6
CONTINUOUS
 66
1
 70
0
  0
VERTEX
  8
0
 62
7
  6
CONTINUOUS
 10
170.3342454338
 20
58.0435668116
  0
VERTEX
  8
0
 62
7
  6
CONTINUOUS
 10
170.4118485421
 20
58.0480223444
  0
VERTEX
  8
0
 62
7
  6
CONTINUOUS
 10
170.5567500338
 20
58.0809331028
  0
VERTEX
  8
0
 62
7
  6
CONTINUOUS
 10
170.6868923718
 20
58.1421686947
  0
VERTEX
  8
0
 62
7
  6
CONTINUOUS
 10
170.7946625495
 20
58.2229624678
  0
VERTEX
  8
0
 62
7
  6
CONTINUOUS
 10
170.8782401655
 20
58.3129605918
  0
VERTEX
  8
0
 62
7
  6
CONTINUOUS
 10
170.9412718602
 20
58.4048117727
  0
VERTEX
  8
0
 62
7
  6
CONTINUOUS
 10
170.9901823572
 20
58.4971285844
  0
VERTEX
  8
0
 62
7
  6
CONTINUOUS
 10
171.0304447226
 20
58.5921618257
  0
VERTEX
  8
0
 62
7
  6
CONTINUOUS
 10
171.0657370003
 20
58.693450257
  0
VERTEX
  8
0
 62
7
  6
CONTINUOUS
 10
171.0984428641
 20
58.8051807019
  0
VERTEX
  8
0
 62
7
  6
CONTINUOUS
 10
171.1299163051
 20
58.9311989278
  0
VERTEX
  8
0
 62
7
  6
CONTINUOUS
 10
171.1609302271
 20
59.0751090199
  0
VERTEX
  8
0
 62
7
  6
CONTINUOUS
 10
171.1919449384
 20
59.2405445803
  0
VERTEX
  8
0
 62
7
  6
CONTINUOUS
 10
171.2197970828
 20
59.4091429524
  0
SEQEND
  0
POLYLINE
  8
0
 62
7
  6
CONTINUOUS
 66
1
 70
0
  0
VERTEX
  8
0
 62
7
  6
CONTINUOUS
 10
136.7342454338
 20
58.0435668116
  0
VERTEX
  8
0
 62
7
  6
CONTINUOUS
 10
136.8118485421
 20
58.0480223444
  0
VERTEX
  8
0
 62
7
  6
CONTINUOUS
 10
136.9567500338
 20
58.0809331028
  0
VERTEX
  8
0
 62
7
  6
CONTINUOUS
 10
137.0868923718
 20
58.1421686947
  0
VERTEX
  8
0
 62
7
  6
CONTINUOUS
 10
137.1946625495
 20
58.2229624678
  0
VERTEX
  8
0
 62
7
  6
CONTINUOUS
 10
137.2782401655
 20
58.3129605918
  0
VERTEX
  8
0
 62
7
  6
CONTINUOUS
 10
137.3412718602
 20
58.4048117727
  0
VERTEX
  8
0
 62
7
  6
CONTINUOUS
 10
137.3901823572
 20
58.4971285844
  0
VERTEX
  8
0
 62
7
  6
CONTINUOUS
 10
137.4304447226
 20
58.5921618257
  0
VERTEX
  8
0
 62
7
  6
CONTINUOUS
 10
137.4657370003
 20
58.693450257
  0
VERTEX
  8
0
 62
7
  6
CONTINUOUS
 10
137.4984428641
 20
58.8051807019
  0
VERTEX
  8
0
 62
7
  6
CONTINUOUS
 10
137.5299163051
 20
58.9311989278
  0
VERTEX
  8
0
 62
7
  6
CONTINUOUS
 10
137.5609302271
 20
59.0751090199
  0
VERTEX
  8
0
 62
7
  6
CONTINUOUS
 10
137.5919449384
 20
59.2405445803
  0
VERTEX
  8
0
 62
7
  6
CONTINUOUS
 10
137.6197970828
 20
59.4091429524
  0
SEQEND
  0
POLYLINE
  8
0
 62
7
  6
CONTINUOUS
 66
1
 70
0
  0
VERTEX
  8
0
 62
7
  6
CONTINUOUS
 10
187.1333251512
 20
58.0435663903
  0
VERTEX
  8
0
 62
7
  6
CONTINUOUS
 10
187.2118485421
 20
58.0480223444
  0
VERTEX
  8
0
 62
7
  6
CONTINUOUS
 10
187.3567500338
 20
58.0809331028
  0
VERTEX
  8
0
 62
7
  6
CONTINUOUS
 10
187.4868923718
 20
58.1421686947
  0
VERTEX
  8
0
 62
7
  6
CONTINUOUS
 10
187.5946625495
 20
58.2229624678
  0
VERTEX
  8
0
 62
7
  6
CONTINUOUS
 10
187.6782401655
 20
58.3129605918
  0
VERTEX
  8
0
 62
7
  6
CONTINUOUS
 10
187.7412718602
 20
58.4048117727
  0
VERTEX
  8
0
 62
7
  6
CONTINUOUS
 10
187.7901823572
 20
58.4971285844
  0
VERTEX
  8
0
 62
7
  6
CONTINUOUS
 10
187.8304447226
 20
58.5921618257
  0
VERTEX
  8
0
 62
7
  6
CONTINUOUS
 10
187.8657370003
 20
58.693450257
  0
VERTEX
  8
0
 62
7
  6
CONTINUOUS
 10
187.8984428641
 20
58.8051807019
  0
VERTEX
  8
0
 62
7
  6
CONTINUOUS
 10
187.9299163051
 20
58.9311989278
  0
VERTEX
  8
0
 62
7
  6
CONTINUOUS
 10
187.9609302271
 20
59.0751090199
  0
VERTEX
  8
0
 62
7
  6
CONTINUOUS
 10
187.9919449384
 20
59.2405445803
  0
VERTEX
  8
0
 62
7
  6
CONTINUOUS
 10
188.0197970828
 20
59.4091429524
  0
SEQEND
  0
POLYLINE
  8
0
 62
7
  6
CONTINUOUS
 66
1
 70
0
  0
VERTEX
  8
0
 62
7
  6
CONTINUOUS
 10
153.5333251512
 20
58.0435663903
  0
VERTEX
  8
0
 62
7
  6
CONTINUOUS
 10
153.6118485421
 20
58.0480223444
  0
VERTEX
  8
0
 62
7
  6
CONTINUOUS
 10
153.7567500338
 20
58.0809331028
  0
VERTEX
  8
0
 62
7
  6
CONTINUOUS
 10
153.8868923718
 20
58.1421686947
  0
VERTEX
  8
0
 62
7
  6
CONTINUOUS
 10
153.9946625495
 20
58.2229624678
  0
VERTEX
  8
0
 62
7
  6
CONTINUOUS
 10
154.0782401655
 20
58.3129605918
  0
VERTEX
  8
0
 62
7
  6
CONTINUOUS
 10
154.1412718602
 20
58.4048117727
  0
VERTEX
  8
0
 62
7
  6
CONTINUOUS
 10
154.1901823572
 20
58.4971285844
  0
VERTEX
  8
0
 62
7
  6
CONTINUOUS
 10
154.2304447226
 20
58.5921618257
  0
VERTEX
  8
0
 62
7
  6
CONTINUOUS
 10
154.2657370003
 20
58.693450257
  0
VERTEX
  8
0
 62
7
  6
CONTINUOUS
 10
154.2984428641
 20
58.8051807019
  0
VERTEX
  8
0
 62
7
  6
CONTINUOUS
 10
154.3299163051
 20
58.9311989278
  0
VERTEX
  8
0
 62
7
  6
CONTINUOUS
 10
154.3609302271
 20
59.0751090199
  0
VERTEX
  8
0
 62
7
  6
CONTINUOUS
 10
154.3919449384
 20
59.2405445803
  0
VERTEX
  8
0
 62
7
  6
CONTINUOUS
 10
154.4197970828
 20
59.4091429524
  0
SEQEND
  0
POLYLINE
  8
0
 62
7
  6
CONTINUOUS
 66
1
 70
0
  0
VERTEX
  8
0
 62
7
  6
CONTINUOUS
 10
119.9333251512
 20
58.0435663903
  0
VERTEX
  8
0
 62
7
  6
CONTINUOUS
 10
120.0118485421
 20
58.0480223444
  0
VERTEX
  8
0
 62
7
  6
CONTINUOUS
 10
120.1567500338
 20
58.0809331028
  0
VERTEX
  8
0
 62
7
  6
CONTINUOUS
 10
120.2868923718
 20
58.1421686947
  0
VERTEX
  8
0
 62
7
  6
CONTINUOUS
 10
120.3946625495
 20
58.2229624678
  0
VERTEX
  8
0
 62
7
  6
CONTINUOUS
 10
120.4782401655
 20
58.3129605918
  0
VERTEX
  8
0
 62
7
  6
CONTINUOUS
 10
120.5412718602
 20
58.4048117727
  0
VERTEX
  8
0
 62
7
  6
CONTINUOUS
 10
120.5901823572
 20
58.4971285844
  0
VERTEX
  8
0
 62
7
  6
CONTINUOUS
 10
120.6304447226
 20
58.5921618257
  0
VERTEX
  8
0
 62
7
  6
CONTINUOUS
 10
120.6657370003
 20
58.693450257
  0
VERTEX
  8
0
 62
7
  6
CONTINUOUS
 10
120.6984428641
 20
58.8051807019
  0
VERTEX
  8
0
 62
7
  6
CONTINUOUS
 10
120.7299163051
 20
58.9311989278
  0
VERTEX
  8
0
 62
7
  6
CONTINUOUS
 10
120.7609302271
 20
59.0751090199
  0
VERTEX
  8
0
 62
7
  6
CONTINUOUS
 10
120.7919449384
 20
59.2405445803
  0
VERTEX
  8
0
 62
7
  6
CONTINUOUS
 10
120.8197970828
 20
59.4091429524
  0
SEQEND
  0
POLYLINE
  8
0
 62
7
  6
CONTINUOUS
 66
1
 70
0
  0
VERTEX
  8
0
 62
7
  6
CONTINUOUS
 10
103.1333251512
 20
58.0435663903
  0
VERTEX
  8
0
 62
7
  6
CONTINUOUS
 10
103.2118485421
 20
58.0480223444
  0
VERTEX
  8
0
 62
7
  6
CONTINUOUS
 10
103.3567500338
 20
58.0809331028
  0
VERTEX
  8
0
 62
7
  6
CONTINUOUS
 10
103.4868923718
 20
58.1421686947
  0
VERTEX
  8
0
 62
7
  6
CONTINUOUS
 10
103.5946625495
 20
58.2229624678
  0
VERTEX
  8
0
 62
7
  6
CONTINUOUS
 10
103.6782401655
 20
58.3129605918
  0
VERTEX
  8
0
 62
7
  6
CONTINUOUS
 10
103.7412718602
 20
58.4048117727
  0
VERTEX
  8
0
 62
7
  6
CONTINUOUS
 10
103.7901823572
 20
58.4971285844
  0
VERTEX
  8
0
 62
7
  6
CONTINUOUS
 10
103.8304447226
 20
58.5921618257
  0
VERTEX
  8
0
 62
7
  6
CONTINUOUS
 10
103.8657370003
 20
58.693450257
  0
VERTEX
  8
0
 62
7
  6
CONTINUOUS
 10
103.8984428641
 20
58.8051807019
  0
VERTEX
  8
0
 62
7
  6
CONTINUOUS
 10
103.9299163051
 20
58.9311989278
  0
VERTEX
  8
0
 62
7
  6
CONTINUOUS
 10
103.9609302271
 20
59.0751090199
  0
VERTEX
  8
0
 62
7
  6
CONTINUOUS
 10
103.9919449384
 20
59.2405445803
  0
VERTEX
  8
0
 62
7
  6
CONTINUOUS
 10
104.0197970828
 20
59.4091429524
  0
SEQEND
  0
POLYLINE
  8
0
 62
7
  6
CONTINUOUS
 66
1
 70
0
  0
VERTEX
  8
0
 62
7
  6
CONTINUOUS
 10
86.3333309771
 20
58.0435663827
  0
VERTEX
  8
0
 62
7
  6
CONTINUOUS
 10
86.4037134494
 20
58.0471410533
  0
VERTEX
  8
0
 62
7
  6
CONTINUOUS
 10
86.5407722049
 20
58.0756236971
  0
VERTEX
  8
0
 62
7
  6
CONTINUOUS
 10
86.6646360844
 20
58.1292175445
  0
VERTEX
  8
0
 62
7
  6
CONTINUOUS
 10
86.7732159525
 20
58.204182125
  0
VERTEX
  8
0
 62
7
  6
CONTINUOUS
 10
86.8639015992
 20
58.2953164465
  0
VERTEX
  8
0
 62
7
  6
CONTINUOUS
 10
86.9329933844
 20
58.3912190867
  0
VERTEX
  8
0
 62
7
  6
CONTINUOUS
 10
86.9856147431
 20
58.4875333041
  0
VERTEX
  8
0
 62
7
  6
CONTINUOUS
 10
87.0284484284
 20
58.5869688646
  0
VERTEX
  8
0
 62
7
  6
CONTINUOUS
 10
87.0657699601
 20
58.6935537611
  0
VERTEX
  8
0
 62
7
  6
CONTINUOUS
 10
87.09992142
 20
58.8106780469
  0
VERTEX
  8
0
 62
7
  6
CONTINUOUS
 10
87.1322165732
 20
58.9411764054
  0
VERTEX
  8
0
 62
7
  6
CONTINUOUS
 10
87.1633627375
 20
59.0872809424
  0
VERTEX
  8
0
 62
7
  6
CONTINUOUS
 10
87.1936661936
 20
59.2503965509
  0
VERTEX
  8
0
 62
7
  6
CONTINUOUS
 10
87.2197977355
 20
59.4091471398
  0
SEQEND
  0
POLYLINE
  8
0
 62
6
  6
CONTINUOUS
 66
1
 70
0
  0
VERTEX
  8
0
 62
6
  6
CONTINUOUS
 10
219.7539096707
 20
63.6713318098
  0
VERTEX
  8
0
 62
6
  6
CONTINUOUS
 10
219.940976524
 20
63.6773247528
  0
VERTEX
  8
0
 62
6
  6
CONTINUOUS
 10
220.1209311766
 20
63.6887331795
  0
VERTEX
  8
0
 62
6
  6
CONTINUOUS
 10
220.2875516668
 20
63.7050160051
  0
VERTEX
  8
0
 62
6
  6
CONTINUOUS
 10
220.4351600752
 20
63.7255165874
  0
VERTEX
  8
0
 62
6
  6
CONTINUOUS
 10
220.558819364
 20
63.7494689624
  0
VERTEX
  8
0
 62
6
  6
CONTINUOUS
 10
220.6544861012
 20
63.7760099484
  0
VERTEX
  8
0
 62
6
  6
CONTINUOUS
 10
220.719117535
 20
63.8041954822
  0
VERTEX
  8
0
 62
6
  6
CONTINUOUS
 10
220.7507304046
 20
63.8330186676
  0
SEQEND
  0
LINE
  8
0
 62
7
  6
CONTINUOUS
 10
80.2771666617
 20
58.0435662663
 11
86.3334640441
 21
58.0435662663
  0
LINE
  8
0
 62
7
  6
CONTINUOUS
 10
98.8208688229
 20
58.0435662663
 11
103.133457008
 21
58.0435662663
  0
LINE
  8
0
 62
7
  6
CONTINUOUS
 10
115.6208688229
 20
58.0435662663
 11
119.933457008
 21
58.0435662663
  0
LINE
  8
0
 62
7
  6
CONTINUOUS
 10
132.4208697659
 20
58.0435662663
 11
136.7334661408
 21
58.0435662663
  0
LINE
  8
0
 62
7
  6
CONTINUOUS
 10
149.2208688229
 20
58.0435662663
 11
153.533457008
 21
58.0435662663
  0
LINE
  8
0
 62
7
  6
CONTINUOUS
 10
166.0208697659
 20
58.0435662663
 11
170.3334661408
 21
58.0435662663
  0
LINE
  8
0
 62
7
  6
CONTINUOUS
 10
182.8208688229
 20
58.0435662663
 11
187.133457008
 21
58.0435662663
  0
LINE
  8
0
 62
7
  6
CONTINUOUS
 10
199.6208688229
 20
58.0435662663
 11
203.933457008
 21
58.0435662663
  0
LINE
  8
0
 62
7
  6
CONTINUOUS
 10
216.4208688229
 20
58.0435662663
 11
220.7334609488
 21
58.0435662663
  0
LINE
  8
0
 62
7
  6
CONTINUOUS
 10
103.1334670838
 20
58.0435662663
 11
103.1333250971
 21
58.0435663599
  0
LINE
  8
0
 62
7
  6
CONTINUOUS
 10
119.9334670838
 20
58.0435662663
 11
119.9333250971
 21
58.0435663599
  0
LINE
  8
0
 62
7
  6
CONTINUOUS
 10
153.5334670838
 20
58.0435662663
 11
153.5333250971
 21
58.0435663599
  0
LINE
  8
0
 62
7
  6
CONTINUOUS
 10
187.1334670838
 20
58.0435662663
 11
187.1333250971
 21
58.0435663599
  0
LINE
  8
0
 62
7
  6
CONTINUOUS
 10
203.9334670838
 20
58.0435662663
 11
203.9333250971
 21
58.0435663599
  0
LINE
  8
0
 62
7
  6
CONTINUOUS
 10
220.7334674591
 20
58.0435662663
 11
220.7333257131
 21
58.04356636
  0
LINE
  8
0
 62
7
  6
CONTINUOUS
 10
131.3419710531
 20
59.9080482931
 11
131.5226977363
 21
59.5048016606
  0
LINE
  8
0
 62
7
  6
CONTINUOUS
 10
130.462395415
 20
63.7009482492
 11
130.4623361131
 21
63.7019681608
  0
POLYLINE
  8
0
 62
7
  6
CONTINUOUS
 66
1
 70
0
  0
VERTEX
  8
0
 62
7
  6
CONTINUOUS
 10
130.2850722494
 20
114.0643583558
  0
VERTEX
  8
0
 62
7
  6
CONTINUOUS
 10
130.289001768
 20
114.3540286115
  0
VERTEX
  8
0
 62
7
  6
CONTINUOUS
 10
130.2914435118
 20
114.6370408129
  0
VERTEX
  8
0
 62
7
  6
CONTINUOUS
 10
130.2919997965
 20
120.1851023603
  0
SEQEND
  0
POLYLINE
  8
0
 62
7
  6
CONTINUOUS
 66
1
 70
0
  0
VERTEX
  8
0
 62
7
  6
CONTINUOUS
 10
130.4692273231
 20
69.8191164851
  0
VERTEX
  8
0
 62
7
  6
CONTINUOUS
 10
130.4652876772
 20
69.529139984
  0
VERTEX
  8
0
 62
7
  6
CONTINUOUS
 10
130.4628717027
 20
69.2461183235
  0
VERTEX
  8
0
 62
7
  6
CONTINUOUS
 10
130.4623361102
 20
63.7020301723
  0
SEQEND
  0
LINE
  8
0
 62
7
  6
CONTINUOUS
 10
120.8197958671
 20
59.4091351546
 11
120.8356982415
 21
59.5138606996
  0
POLYLINE
  8
0
 62
7
  6
CONTINUOUS
 66
1
 70
0
  0
VERTEX
  8
0
 62
7
  6
CONTINUOUS
 10
139.9226987795
 20
124.3823329981
  0
VERTEX
  8
0
 62
7
  6
CONTINUOUS
 10
139.7429155043
 20
123.9813837763
  0
VERTEX
  8
0
 62
7
  6
CONTINUOUS
 10
139.5678509661
 20
123.5157707355
  0
VERTEX
  8
0
 62
7
  6
CONTINUOUS
 10
139.4090825642
 20
123.014146255
  0
VERTEX
  8
0
 62
7
  6
CONTINUOUS
 10
139.2663778184
 20
122.4808100528
  0
VERTEX
  8
0
 62
7
  6
CONTINUOUS
 10
139.1396895849
 20
121.9204190311
  0
VERTEX
  8
0
 62
7
  6
CONTINUOUS
 10
139.0290020538
 20
121.3378082256
  0
VERTEX
  8
0
 62
7
  6
CONTINUOUS
 10
138.9342732025
 20
120.7379832987
  0
VERTEX
  8
0
 62
7
  6
CONTINUOUS
 10
138.8623953888
 20
120.1861901772
  0
SEQEND
  0
POLYLINE
  8
0
 62
7
  6
CONTINUOUS
 66
1
 70
0
  0
VERTEX
  8
0
 62
7
  6
CONTINUOUS
 10
105.0919404704
 20
63.7009525048
  0
VERTEX
  8
0
 62
7
  6
CONTINUOUS
 10
105.08612877
 20
63.6923556069
  0
VERTEX
  8
0
 62
7
  6
CONTINUOUS
 10
105.067042017
 20
63.6835622884
  0
VERTEX
  8
0
 62
7
  6
CONTINUOUS
 10
105.0358407699
 20
63.6768338457
  0
VERTEX
  8
0
 62
7
  6
CONTINUOUS
 10
104.9945222241
 20
63.6725141423
  0
VERTEX
  8
0
 62
7
  6
CONTINUOUS
 10
104.9458258779
 20
63.6707252557
  0
VERTEX
  8
0
 62
7
  6
CONTINUOUS
 10
104.8919997965
 20
63.671284943
  0
SEQEND
  0
POLYLINE
  8
0
 62
7
  6
CONTINUOUS
 66
1
 70
0
  0
VERTEX
  8
0
 62
7
  6
CONTINUOUS
 10
214.6623361102
 20
63.671284943
  0
VERTEX
  8
0
 62
7
  6
CONTINUOUS
 10
214.615307435
 20
63.6706729904
  0
VERTEX
  8
0
 62
7
  6
CONTINUOUS
 10
214.5717850949
 20
63.6718120113
  0
VERTEX
  8
0
 62
7
  6
CONTINUOUS
 10
214.5331336467
 20
63.6748969841
  0
VERTEX
  8
0
 62
7
  6
CONTINUOUS
 10
214.5014852236
 20
63.6799141186
  0
VERTEX
  8
0
 62
7
  6
CONTINUOUS
 10
214.4785347099
 20
63.6866841345
  0
VERTEX
  8
0
 62
7
  6
CONTINUOUS
 10
214.4654090286
 20
63.6948988082
  0
VERTEX
  8
0
 62
7
  6
CONTINUOUS
 10
214.462395415
 20
63.7009482492
  0
SEQEND
  0
POLYLINE
  8
0
 62
7
  6
CONTINUOUS
 66
1
 70
0
  0
VERTEX
  8
0
 62
7
  6
CONTINUOUS
 10
197.8623361102
 20
63.671284943
  0
VERTEX
  8
0
 62
7
  6
CONTINUOUS
 10
197.815307435
 20
63.6706729904
  0
VERTEX
  8
0
 62
7
  6
CONTINUOUS
 10
197.7717850949
 20
63.6718120113
  0
VERTEX
  8
0
 62
7
  6
CONTINUOUS
 10
197.7331336467
 20
63.6748969841
  0
VERTEX
  8
0
 62
7
  6
CONTINUOUS
 10
197.7014852236
 20
63.6799141186
  0
VERTEX
  8
0
 62
7
  6
CONTINUOUS
 10
197.6785347099
 20
63.6866841345
  0
VERTEX
  8
0
 62
7
  6
CONTINUOUS
 10
197.6654090286
 20
63.6948988082
  0
VERTEX
  8
0
 62
7
  6
CONTINUOUS
 10
197.662395415
 20
63.7009482492
  0
SEQEND
  0
POLYLINE
  8
0
 62
7
  6
CONTINUOUS
 66
1
 70
0
  0
VERTEX
  8
0
 62
7
  6
CONTINUOUS
 10
181.0623361102
 20
63.671284943
  0
VERTEX
  8
0
 62
7
  6
CONTINUOUS
 10
181.015307435
 20
63.6706729904
  0
VERTEX
  8
0
 62
7
  6
CONTINUOUS
 10
180.9717850949
 20
63.6718120113
  0
VERTEX
  8
0
 62
7
  6
CONTINUOUS
 10
180.9331336467
 20
63.6748969841
  0
VERTEX
  8
0
 62
7
  6
CONTINUOUS
 10
180.9014852236
 20
63.6799141186
  0
VERTEX
  8
0
 62
7
  6
CONTINUOUS
 10
180.8785347099
 20
63.6866841345
  0
VERTEX
  8
0
 62
7
  6
CONTINUOUS
 10
180.8654090286
 20
63.6948988082
  0
VERTEX
  8
0
 62
7
  6
CONTINUOUS
 10
180.862395415
 20
63.7009482492
  0
SEQEND
  0
POLYLINE
  8
0
 62
7
  6
CONTINUOUS
 66
1
 70
0
  0
VERTEX
  8
0
 62
7
  6
CONTINUOUS
 10
164.2623361102
 20
63.671284943
  0
VERTEX
  8
0
 62
7
  6
CONTINUOUS
 10
164.215307435
 20
63.6706729904
  0
VERTEX
  8
0
 62
7
  6
CONTINUOUS
 10
164.1717850949
 20
63.6718120113
  0
VERTEX
  8
0
 62
7
  6
CONTINUOUS
 10
164.1331336467
 20
63.6748969841
  0
VERTEX
  8
0
 62
7
  6
CONTINUOUS
 10
164.1014852236
 20
63.6799141186
  0
VERTEX
  8
0
 62
7
  6
CONTINUOUS
 10
164.0785347099
 20
63.6866841345
  0
VERTEX
  8
0
 62
7
  6
CONTINUOUS
 10
164.0654090286
 20
63.6948988082
  0
VERTEX
  8
0
 62
7
  6
CONTINUOUS
 10
164.062395415
 20
63.7009482492
  0
SEQEND
  0
POLYLINE
  8
0
 62
7
  6
CONTINUOUS
 66
1
 70
0
  0
VERTEX
  8
0
 62
7
  6
CONTINUOUS
 10
147.4623361102
 20
63.671284943
  0
VERTEX
  8
0
 62
7
  6
CONTINUOUS
 10
147.415307435
 20
63.6706729904
  0
VERTEX
  8
0
 62
7
  6
CONTINUOUS
 10
147.3717850949
 20
63.6718120113
  0
VERTEX
  8
0
 62
7
  6
CONTINUOUS
 10
147.3331336467
 20
63.6748969841
  0
VERTEX
  8
0
 62
7
  6
CONTINUOUS
 10
147.3014852236
 20
63.6799141186
  0
VERTEX
  8
0
 62
7
  6
CONTINUOUS
 10
147.2785347099
 20
63.6866841345
  0
VERTEX
  8
0
 62
7
  6
CONTINUOUS
 10
147.2654090286
 20
63.6948988082
  0
VERTEX
  8
0
 62
7
  6
CONTINUOUS
 10
147.262395415
 20
63.7009482492
  0
SEQEND
  0
POLYLINE
  8
0
 62
7
  6
CONTINUOUS
 66
1
 70
0
  0
VERTEX
  8
0
 62
7
  6
CONTINUOUS
 10
130.6623361102
 20
63.671284943
  0
VERTEX
  8
0
 62
7
  6
CONTINUOUS
 10
130.615307435
 20
63.6706729904
  0
VERTEX
  8
0
 62
7
  6
CONTINUOUS
 10
130.5717850949
 20
63.6718120113
  0
VERTEX
  8
0
 62
7
  6
CONTINUOUS
 10
130.5331336467
 20
63.6748969841
  0
VERTEX
  8
0
 62
7
  6
CONTINUOUS
 10
130.5014852236
 20
63.6799141186
  0
VERTEX
  8
0
 62
7
  6
CONTINUOUS
 10
130.4785347099
 20
63.6866841345
  0
VERTEX
  8
0
 62
7
  6
CONTINUOUS
 10
130.4654090286
 20
63.6948988082
  0
VERTEX
  8
0
 62
7
  6
CONTINUOUS
 10
130.462395415
 20
63.7009482492
  0
SEQEND
  0
POLYLINE
  8
0
 62
7
  6
CONTINUOUS
 66
1
 70
0
  0
VERTEX
  8
0
 62
7
  6
CONTINUOUS
 10
113.8623361102
 20
63.671284943
  0
VERTEX
  8
0
 62
7
  6
CONTINUOUS
 10
113.815307435
 20
63.6706729904
  0
VERTEX
  8
0
 62
7
  6
CONTINUOUS
 10
113.7717850949
 20
63.6718120113
  0
VERTEX
  8
0
 62
7
  6
CONTINUOUS
 10
113.7331336467
 20
63.6748969841
  0
VERTEX
  8
0
 62
7
  6
CONTINUOUS
 10
113.7014852236
 20
63.6799141186
  0
VERTEX
  8
0
 62
7
  6
CONTINUOUS
 10
113.6785347099
 20
63.6866841345
  0
VERTEX
  8
0
 62
7
  6
CONTINUOUS
 10
113.6654090286
 20
63.6948988082
  0
VERTEX
  8
0
 62
7
  6
CONTINUOUS
 10
113.662395415
 20
63.7009482492
  0
SEQEND
  0
POLYLINE
  8
0
 62
7
  6
CONTINUOUS
 66
1
 70
0
  0
VERTEX
  8
0
 62
7
  6
CONTINUOUS
 10
97.0623361102
 20
63.671284943
  0
VERTEX
  8
0
 62
7
  6
CONTINUOUS
 10
97.015307435
 20
63.6706729904
  0
VERTEX
  8
0
 62
7
  6
CONTINUOUS
 10
96.9717850949
 20
63.6718120113
  0
VERTEX
  8
0
 62
7
  6
CONTINUOUS
 10
96.9331336467
 20
63.6748969841
  0
VERTEX
  8
0
 62
7
  6
CONTINUOUS
 10
96.9014852236
 20
63.6799141186
  0
VERTEX
  8
0
 62
7
  6
CONTINUOUS
 10
96.8785347099
 20
63.6866841345
  0
VERTEX
  8
0
 62
7
  6
CONTINUOUS
 10
96.8654090286
 20
63.6948988082
  0
VERTEX
  8
0
 62
7
  6
CONTINUOUS
 10
96.862395415
 20
63.7009482492
  0
SEQEND
  0
LINE
  8
0
 62
6
  6
CONTINUOUS
 10
219.7539096707
 20
63.6713318098
 11
219.7482713665
 21
63.6712849448
  0
LINE
  8
0
 62
7
  6
CONTINUOUS
 10
88.0919997965
 20
63.671284943
 11
80.2771679533
 21
63.671284943
  0
LINE
  8
0
 62
7
  6
CONTINUOUS
 10
97.0623361102
 20
63.671284943
 11
104.8919997965
 21
63.671284943
  0
LINE
  8
0
 62
7
  6
CONTINUOUS
 10
113.8623361102
 20
63.671284943
 11
121.6919997965
 21
63.671284943
  0
LINE
  8
0
 62
7
  6
CONTINUOUS
 10
130.6623361102
 20
63.671284943
 11
138.4919997965
 21
63.671284943
  0
LINE
  8
0
 62
7
  6
CONTINUOUS
 10
147.4623361102
 20
63.671284943
 11
155.2919997965
 21
63.671284943
  0
LINE
  8
0
 62
7
  6
CONTINUOUS
 10
164.2623361102
 20
63.671284943
 11
172.0919997965
 21
63.671284943
  0
LINE
  8
0
 62
7
  6
CONTINUOUS
 10
181.0623361102
 20
63.671284943
 11
188.8919997965
 21
63.671284943
  0
LINE
  8
0
 62
7
  6
CONTINUOUS
 10
197.8623361102
 20
63.671284943
 11
205.6919997965
 21
63.671284943
  0
LINE
  8
0
 62
7
  6
CONTINUOUS
 10
214.6623361102
 20
63.671284943
 11
222.4919997965
 21
63.671284943
  0
LINE
  8
0
 62
6
  6
CONTINUOUS
 10
214.6603001265
 20
63.671284943
 11
214.6623361102
 21
63.671284943
  0
LINE
  8
0
 62
6
  6
CONTINUOUS
 10
222.4919997965
 20
63.671284943
 11
222.4940357802
 21
63.671284943
  0
LINE
  8
DEFAULT_1
 62
2
  6
CENTER
 10
77.8771679533
 20
66.5435662663
 11
233.2771679533
 21
66.5435662663
  0
LINE
  8
0
 62
6
  6
CONTINUOUS
 10
217.4004262359
 20
63.6713318098
 11
217.4060645402
 21
63.6712849448
  0
POLYLINE
  8
0
 62
6
  6
CONTINUOUS
 66
1
 70
0
  0
VERTEX
  8
0
 62
6
  6
CONTINUOUS
 10
217.4004262359
 20
63.6713318098
  0
VERTEX
  8
0
 62
6
  6
CONTINUOUS
 10
217.2133593826
 20
63.6773247528
  0
VERTEX
  8
0
 62
6
  6
CONTINUOUS
 10
217.03340473
 20
63.6887331795
  0
VERTEX
  8
0
 62
6
  6
CONTINUOUS
 10
216.8667842399
 20
63.7050160051
  0
VERTEX
  8
0
 62
6
  6
CONTINUOUS
 10
216.7191758315
 20
63.7255165874
  0
VERTEX
  8
0
 62
6
  6
CONTINUOUS
 10
216.5955165426
 20
63.7494689624
  0
VERTEX
  8
0
 62
6
  6
CONTINUOUS
 10
216.4998498055
 20
63.7760099484
  0
VERTEX
  8
0
 62
6
  6
CONTINUOUS
 10
216.4352183716
 20
63.8041954822
  0
VERTEX
  8
0
 62
6
  6
CONTINUOUS
 10
216.4036055021
 20
63.8330186676
  0
SEQEND
  0
POLYLINE
  8
0
 62
7
  6
CONTINUOUS
 66
1
 70
0
  0
VERTEX
  8
0
 62
7
  6
CONTINUOUS
 10
96.4867321251
 20
70.8647577526
  0
VERTEX
  8
0
 62
7
  6
CONTINUOUS
 10
96.5078189004
 20
70.8633106879
  0
VERTEX
  8
0
 62
7
  6
CONTINUOUS
 10
96.5488127505
 20
70.8529593098
  0
VERTEX
  8
0
 62
7
  6
CONTINUOUS
 10
96.5883179321
 20
70.833982098
  0
VERTEX
  8
0
 62
7
  6
CONTINUOUS
 10
96.6254684614
 20
70.8079040214
  0
VERTEX
  8
0
 62
7
  6
CONTINUOUS
 10
96.6602982531
 20
70.7754067126
  0
VERTEX
  8
0
 62
7
  6
CONTINUOUS
 10
96.692697506
 20
70.7368560985
  0
VERTEX
  8
0
 62
7
  6
CONTINUOUS
 10
96.7227783845
 20
70.6920586619
  0
VERTEX
  8
0
 62
7
  6
CONTINUOUS
 10
96.7500378587
 20
70.641466684
  0
VERTEX
  8
0
 62
7
  6
CONTINUOUS
 10
96.7737672646
 20
70.5865293477
  0
VERTEX
  8
0
 62
7
  6
CONTINUOUS
 10
96.7938476466
 20
70.5279634224
  0
VERTEX
  8
0
 62
7
  6
CONTINUOUS
 10
96.8111206156
 20
70.4652235488
  0
VERTEX
  8
0
 62
7
  6
CONTINUOUS
 10
96.8257371207
 20
70.3999613505
  0
VERTEX
  8
0
 62
7
  6
CONTINUOUS
 10
96.837951231
 20
70.3326462465
  0
VERTEX
  8
0
 62
7
  6
CONTINUOUS
 10
96.8479091252
 20
70.2634520214
  0
VERTEX
  8
0
 62
7
  6
CONTINUOUS
 10
96.8557856097
 20
70.1922735273
  0
VERTEX
  8
0
 62
7
  6
CONTINUOUS
 10
96.8617163073
 20
70.1196281488
  0
VERTEX
  8
0
 62
7
  6
CONTINUOUS
 10
96.8658496908
 20
70.045817136
  0
VERTEX
  8
0
 62
7
  6
CONTINUOUS
 10
96.86835812
 20
69.9709940899
  0
VERTEX
  8
0
 62
7
  6
CONTINUOUS
 10
96.8694279345
 20
69.8953509338
  0
VERTEX
  8
0
 62
7
  6
CONTINUOUS
 10
96.8692273231
 20
69.8191164851
  0
SEQEND
  0
LINE
  8
0
 62
7
  6
CONTINUOUS
 10
112.6114204024
 20
123.9813837763
 11
112.4316371272
 21
124.3823329981
  0
POLYLINE
  8
0
 62
7
  6
CONTINUOUS
 66
1
 70
0
  0
VERTEX
  8
0
 62
7
  6
CONTINUOUS
 10
131.5345388174
 20
59.4091429936
  0
VERTEX
  8
0
 62
7
  6
CONTINUOUS
 10
131.5624219376
 20
59.2403679866
  0
VERTEX
  8
0
 62
7
  6
CONTINUOUS
 10
131.593470598
 20
59.0747859945
  0
VERTEX
  8
0
 62
7
  6
CONTINUOUS
 10
131.6245226916
 20
58.9307543017
  0
VERTEX
  8
0
 62
7
  6
CONTINUOUS
 10
131.6560412491
 20
58.8046318779
  0
VERTEX
  8
0
 62
7
  6
CONTINUOUS
 10
131.6888042895
 20
58.6928056854
  0
VERTEX
  8
0
 62
7
  6
CONTINUOUS
 10
131.7241763424
 20
58.5914167367
  0
VERTEX
  8
0
 62
7
  6
CONTINUOUS
 10
131.7645647921
 20
58.4962555808
  0
VERTEX
  8
0
 62
7
  6
CONTINUOUS
 10
131.8136926849
 20
58.4037611236
  0
VERTEX
  8
0
 62
7
  6
CONTINUOUS
 10
131.8770877684
 20
58.3117059085
  0
VERTEX
  8
0
 62
7
  6
CONTINUOUS
 10
131.9612050497
 20
58.2215702844
  0
VERTEX
  8
0
 62
7
  6
CONTINUOUS
 10
132.0696197388
 20
58.1408523169
  0
VERTEX
  8
0
 62
7
  6
CONTINUOUS
 10
132.2004131407
 20
58.0799613126
  0
VERTEX
  8
0
 62
7
  6
CONTINUOUS
 10
132.3459366383
 20
58.0476366704
  0
VERTEX
  8
0
 62
7
  6
CONTINUOUS
 10
132.4200947584
 20
58.043566806
  0
SEQEND
  0
LINE
  8
0
 62
7
  6
CONTINUOUS
 10
131.5186376652
 20
59.5138606992
 11
131.5345400395
 21
59.4091351546
  0
POLYLINE
  8
0
 62
7
  6
CONTINUOUS
 66
1
 70
0
  0
VERTEX
  8
0
 62
7
  6
CONTINUOUS
 10
130.4623953854
 20
63.7009423835
  0
VERTEX
  8
0
 62
7
  6
CONTINUOUS
 10
130.5337726405
 20
63.1526510011
  0
VERTEX
  8
0
 62
7
  6
CONTINUOUS
 10
130.6284221019
 20
62.5526695856
  0
VERTEX
  8
0
 62
7
  6
CONTINUOUS
 10
130.7390327067
 20
61.9698826212
  0
VERTEX
  8
0
 62
7
  6
CONTINUOUS
 10
130.8656465929
 20
61.4092969549
  0
VERTEX
  8
0
 62
7
  6
CONTINUOUS
 10
131.0082793473
 20
60.8757492766
  0
VERTEX
  8
0
 62
7
  6
CONTINUOUS
 10
131.1669772715
 20
60.3738988985
  0
VERTEX
  8
0
 62
7
  6
CONTINUOUS
 10
131.3419710531
 20
59.9080482931
  0
SEQEND
  0
LINE
  8
0
 62
7
  6
CONTINUOUS
 10
130.2919404883
 20
120.1861843116
 11
130.2919997935
 21
120.1851643718
  0
LINE
  8
0
 62
7
  6
CONTINUOUS
 10
138.8623954184
 20
120.1861843116
 11
138.8623361131
 21
120.1851643718
  0
LINE
  8
0
 62
7
  6
CONTINUOUS
 10
139.9345401751
 20
124.4779982479
 11
139.9186353906
 21
124.3732709059
  0
POLYLINE
  8
0
 62
7
  6
CONTINUOUS
 66
1
 70
0
  0
VERTEX
  8
0
 62
7
  6
CONTINUOUS
 10
120.8316381703
 20
59.5048016606
  0
VERTEX
  8
0
 62
7
  6
CONTINUOUS
 10
121.0123648974
 20
59.9080484001
  0
VERTEX
  8
0
 62
7
  6
CONTINUOUS
 10
121.1873587153
 20
60.3738991313
  0
VERTEX
  8
0
 62
7
  6
CONTINUOUS
 10
121.3460566683
 20
60.8757496514
  0
VERTEX
  8
0
 62
7
  6
CONTINUOUS
 10
121.488689444
 20
61.4092974848
  0
VERTEX
  8
0
 62
7
  6
CONTINUOUS
 10
121.6153033438
 20
61.9698833156
  0
VERTEX
  8
0
 62
7
  6
CONTINUOUS
 10
121.7259139547
 20
62.5526704506
  0
VERTEX
  8
0
 62
7
  6
CONTINUOUS
 10
121.8205634144
 20
63.152652039
  0
VERTEX
  8
0
 62
7
  6
CONTINUOUS
 10
121.8919405212
 20
63.7009423835
  0
SEQEND
  0
LINE
  8
0
 62
7
  6
CONTINUOUS
 10
230.8771679533
 20
70.864955851
 11
223.0674309633
 21
70.8647574491
  0
LINE
  8
0
 62
7
  6
CONTINUOUS
 10
214.0078002206
 20
70.864955851
 11
206.2674309633
 21
70.8647574491
  0
LINE
  8
0
 62
7
  6
CONTINUOUS
 10
197.2078002206
 20
70.864955851
 11
189.4674309633
 21
70.8647574491
  0
LINE
  8
0
 62
7
  6
CONTINUOUS
 10
180.4078002206
 20
70.864955851
 11
172.6674309633
 21
70.8647574491
  0
LINE
  8
0
 62
7
  6
CONTINUOUS
 10
163.6078002206
 20
70.864955851
 11
155.8674309633
 21
70.8647574491
  0
LINE
  8
0
 62
7
  6
CONTINUOUS
 10
146.8078002206
 20
70.864955851
 11
139.0674309633
 21
70.8647574491
  0
LINE
  8
0
 62
7
  6
CONTINUOUS
 10
130.0078002206
 20
70.864955851
 11
122.2674309633
 21
70.8647574491
  0
LINE
  8
0
 62
7
  6
CONTINUOUS
 10
113.2078002206
 20
70.864955851
 11
105.4674309633
 21
70.8647574491
  0
LINE
  8
0
 62
7
  6
CONTINUOUS
 10
96.4078002206
 20
70.864955851
 11
88.6674309633
 21
70.8647574491
  0
LINE
  8
0
 62
7
  6
CONTINUOUS
 10
96.4867322252
 20
70.8647275966
 11
96.4077996716
 21
70.8650011145
  0
LINE
  8
0
 62
7
  6
CONTINUOUS
 10
113.2867322252
 20
70.8647275966
 11
113.2077996716
 21
70.8650011145
  0
LINE
  8
0
 62
7
  6
CONTINUOUS
 10
130.0867322252
 20
70.8647275966
 11
130.0077996716
 21
70.8650011145
  0
LINE
  8
0
 62
7
  6
CONTINUOUS
 10
146.8867322252
 20
70.8647275966
 11
146.8077996716
 21
70.8650011145
  0
LINE
  8
0
 62
7
  6
CONTINUOUS
 10
163.6867322252
 20
70.8647275966
 11
163.6077996716
 21
70.8650011145
  0
LINE
  8
0
 62
7
  6
CONTINUOUS
 10
180.4867322252
 20
70.8647275966
 11
180.4077996716
 21
70.8650011145
  0
LINE
  8
0
 62
7
  6
CONTINUOUS
 10
197.2867322252
 20
70.8647275966
 11
197.2077996716
 21
70.8650011145
  0
LINE
  8
0
 62
7
  6
CONTINUOUS
 10
214.0867322252
 20
70.8647275966
 11
214.0077996716
 21
70.8650011145
  0
LINE
  8
0
 62
6
  6
CONTINUOUS
 10
214.0879107769
 20
71.1146796176
 11
214.0078001864
 21
71.1149558509
  0
LINE
  8
0
 62
6
  6
CONTINUOUS
 10
214.0879107787
 20
70.987605531
 11
214.0078001864
 21
70.9878753659
  0
POLYLINE
  8
0
 62
7
  6
CONTINUOUS
 66
1
 70
0
  0
VERTEX
  8
0
 62
7
  6
CONTINUOUS
 10
113.2867321251
 20
70.8647577526
  0
VERTEX
  8
0
 62
7
  6
CONTINUOUS
 10
113.3078189004
 20
70.8633106879
  0
VERTEX
  8
0
 62
7
  6
CONTINUOUS
 10
113.3488127505
 20
70.8529593098
  0
VERTEX
  8
0
 62
7
  6
CONTINUOUS
 10
113.3883179321
 20
70.833982098
  0
VERTEX
  8
0
 62
7
  6
CONTINUOUS
 10
113.4254684614
 20
70.8079040214
  0
VERTEX
  8
0
 62
7
  6
CONTINUOUS
 10
113.4602982531
 20
70.7754067126
  0
VERTEX
  8
0
 62
7
  6
CONTINUOUS
 10
113.492697506
 20
70.7368560985
  0
VERTEX
  8
0
 62
7
  6
CONTINUOUS
 10
113.5227783845
 20
70.6920586619
  0
VERTEX
  8
0
 62
7
  6
CONTINUOUS
 10
113.5500378587
 20
70.641466684
  0
VERTEX
  8
0
 62
7
  6
CONTINUOUS
 10
113.5737672646
 20
70.5865293477
  0
VERTEX
  8
0
 62
7
  6
CONTINUOUS
 10
113.5938476466
 20
70.5279634224
  0
VERTEX
  8
0
 62
7
  6
CONTINUOUS
 10
113.6111206156
 20
70.4652235488
  0
VERTEX
  8
0
 62
7
  6
CONTINUOUS
 10
113.6257371207
 20
70.3999613505
  0
VERTEX
  8
0
 62
7
  6
CONTINUOUS
 10
113.637951231
 20
70.3326462465
  0
VERTEX
  8
0
 62
7
  6
CONTINUOUS
 10
113.6479091252
 20
70.2634520214
  0
VERTEX
  8
0
 62
7
  6
CONTINUOUS
 10
113.6557856097
 20
70.1922735273
  0
VERTEX
  8
0
 62
7
  6
CONTINUOUS
 10
113.6617163073
 20
70.1196281488
  0
VERTEX
  8
0
 62
7
  6
CONTINUOUS
 10
113.6658496908
 20
70.045817136
  0
VERTEX
  8
0
 62
7
  6
CONTINUOUS
 10
113.66835812
 20
69.9709940899
  0
VERTEX
  8
0
 62
7
  6
CONTINUOUS
 10
113.6694279345
 20
69.8953509338
  0
VERTEX
  8
0
 62
7
  6
CONTINUOUS
 10
113.6692273231
 20
69.8191164851
  0
SEQEND
  0
POLYLINE
  8
0
 62
7
  6
CONTINUOUS
 66
1
 70
0
  0
VERTEX
  8
0
 62
7
  6
CONTINUOUS
 10
130.0867321251
 20
70.8647577526
  0
VERTEX
  8
0
 62
7
  6
CONTINUOUS
 10
130.1078189004
 20
70.8633106879
  0
VERTEX
  8
0
 62
7
  6
CONTINUOUS
 10
130.1488127505
 20
70.8529593098
  0
VERTEX
  8
0
 62
7
  6
CONTINUOUS
 10
130.1883179321
 20
70.833982098
  0
VERTEX
  8
0
 62
7
  6
CONTINUOUS
 10
130.2254684614
 20
70.8079040214
  0
VERTEX
  8
0
 62
7
  6
CONTINUOUS
 10
130.2602982531
 20
70.7754067126
  0
VERTEX
  8
0
 62
7
  6
CONTINUOUS
 10
130.292697506
 20
70.7368560985
  0
VERTEX
  8
0
 62
7
  6
CONTINUOUS
 10
130.3227783845
 20
70.6920586619
  0
VERTEX
  8
0
 62
7
  6
CONTINUOUS
 10
130.3500378587
 20
70.641466684
  0
VERTEX
  8
0
 62
7
  6
CONTINUOUS
 10
130.3737672646
 20
70.5865293477
  0
VERTEX
  8
0
 62
7
  6
CONTINUOUS
 10
130.3938476466
 20
70.5279634224
  0
VERTEX
  8
0
 62
7
  6
CONTINUOUS
 10
130.4111206156
 20
70.4652235488
  0
VERTEX
  8
0
 62
7
  6
CONTINUOUS
 10
130.4257371207
 20
70.3999613505
  0
VERTEX
  8
0
 62
7
  6
CONTINUOUS
 10
130.437951231
 20
70.3326462465
  0
VERTEX
  8
0
 62
7
  6
CONTINUOUS
 10
130.4479091252
 20
70.2634520214
  0
VERTEX
  8
0
 62
7
  6
CONTINUOUS
 10
130.4557856097
 20
70.1922735273
  0
VERTEX
  8
0
 62
7
  6
CONTINUOUS
 10
130.4617163073
 20
70.1196281488
  0
VERTEX
  8
0
 62
7
  6
CONTINUOUS
 10
130.4658496908
 20
70.045817136
  0
VERTEX
  8
0
 62
7
  6
CONTINUOUS
 10
130.46835812
 20
69.9709940899
  0
VERTEX
  8
0
 62
7
  6
CONTINUOUS
 10
130.4694279345
 20
69.8953509338
  0
VERTEX
  8
0
 62
7
  6
CONTINUOUS
 10
130.4692273231
 20
69.8191164851
  0
SEQEND
  0
POLYLINE
  8
0
 62
7
  6
CONTINUOUS
 66
1
 70
0
  0
VERTEX
  8
0
 62
7
  6
CONTINUOUS
 10
146.8867321251
 20
70.8647577526
  0
VERTEX
  8
0
 62
7
  6
CONTINUOUS
 10
146.9078189004
 20
70.8633106879
  0
VERTEX
  8
0
 62
7
  6
CONTINUOUS
 10
146.9488127505
 20
70.8529593098
  0
VERTEX
  8
0
 62
7
  6
CONTINUOUS
 10
146.9883179321
 20
70.833982098
  0
VERTEX
  8
0
 62
7
  6
CONTINUOUS
 10
147.0254684614
 20
70.8079040214
  0
VERTEX
  8
0
 62
7
  6
CONTINUOUS
 10
147.0602982531
 20
70.7754067126
  0
VERTEX
  8
0
 62
7
  6
CONTINUOUS
 10
147.092697506
 20
70.7368560985
  0
VERTEX
  8
0
 62
7
  6
CONTINUOUS
 10
147.1227783845
 20
70.6920586619
  0
VERTEX
  8
0
 62
7
  6
CONTINUOUS
 10
147.1500378587
 20
70.641466684
  0
VERTEX
  8
0
 62
7
  6
CONTINUOUS
 10
147.1737672646
 20
70.5865293477
  0
VERTEX
  8
0
 62
7
  6
CONTINUOUS
 10
147.1938476466
 20
70.5279634224
  0
VERTEX
  8
0
 62
7
  6
CONTINUOUS
 10
147.2111206156
 20
70.4652235488
  0
VERTEX
  8
0
 62
7
  6
CONTINUOUS
 10
147.2257371207
 20
70.3999613505
  0
VERTEX
  8
0
 62
7
  6
CONTINUOUS
 10
147.237951231
 20
70.3326462465
  0
VERTEX
  8
0
 62
7
  6
CONTINUOUS
 10
147.2479091252
 20
70.2634520214
  0
VERTEX
  8
0
 62
7
  6
CONTINUOUS
 10
147.2557856097
 20
70.1922735273
  0
VERTEX
  8
0
 62
7
  6
CONTINUOUS
 10
147.2617163073
 20
70.1196281488
  0
VERTEX
  8
0
 62
7
  6
CONTINUOUS
 10
147.2658496908
 20
70.045817136
  0
VERTEX
  8
0
 62
7
  6
CONTINUOUS
 10
147.26835812
 20
69.9709940899
  0
VERTEX
  8
0
 62
7
  6
CONTINUOUS
 10
147.2694279345
 20
69.8953509338
  0
VERTEX
  8
0
 62
7
  6
CONTINUOUS
 10
147.2692273231
 20
69.8191164851
  0
SEQEND
  0
POLYLINE
  8
0
 62
7
  6
CONTINUOUS
 66
1
 70
0
  0
VERTEX
  8
0
 62
7
  6
CONTINUOUS
 10
163.6867321251
 20
70.8647577526
  0
VERTEX
  8
0
 62
7
  6
CONTINUOUS
 10
163.7078189004
 20
70.8633106879
  0
VERTEX
  8
0
 62
7
  6
CONTINUOUS
 10
163.7488127505
 20
70.8529593098
  0
VERTEX
  8
0
 62
7
  6
CONTINUOUS
 10
163.7883179321
 20
70.833982098
  0
VERTEX
  8
0
 62
7
  6
CONTINUOUS
 10
163.8254684614
 20
70.8079040214
  0
VERTEX
  8
0
 62
7
  6
CONTINUOUS
 10
163.8602982531
 20
70.7754067126
  0
VERTEX
  8
0
 62
7
  6
CONTINUOUS
 10
163.892697506
 20
70.7368560985
  0
VERTEX
  8
0
 62
7
  6
CONTINUOUS
 10
163.9227783845
 20
70.6920586619
  0
VERTEX
  8
0
 62
7
  6
CONTINUOUS
 10
163.9500378587
 20
70.641466684
  0
VERTEX
  8
0
 62
7
  6
CONTINUOUS
 10
163.9737672646
 20
70.5865293477
  0
VERTEX
  8
0
 62
7
  6
CONTINUOUS
 10
163.9938476466
 20
70.5279634224
  0
VERTEX
  8
0
 62
7
  6
CONTINUOUS
 10
164.0111206156
 20
70.4652235488
  0
VERTEX
  8
0
 62
7
  6
CONTINUOUS
 10
164.0257371207
 20
70.3999613505
  0
VERTEX
  8
0
 62
7
  6
CONTINUOUS
 10
164.037951231
 20
70.3326462465
  0
VERTEX
  8
0
 62
7
  6
CONTINUOUS
 10
164.0479091252
 20
70.2634520214
  0
VERTEX
  8
0
 62
7
  6
CONTINUOUS
 10
164.0557856097
 20
70.1922735273
  0
VERTEX
  8
0
 62
7
  6
CONTINUOUS
 10
164.0617163073
 20
70.1196281488
  0
VERTEX
  8
0
 62
7
  6
CONTINUOUS
 10
164.0658496908
 20
70.045817136
  0
VERTEX
  8
0
 62
7
  6
CONTINUOUS
 10
164.06835812
 20
69.9709940899
  0
VERTEX
  8
0
 62
7
  6
CONTINUOUS
 10
164.0694279345
 20
69.8953509338
  0
VERTEX
  8
0
 62
7
  6
CONTINUOUS
 10
164.0692273231
 20
69.8191164851
  0
SEQEND
  0
POLYLINE
  8
0
 62
7
  6
CONTINUOUS
 66
1
 70
0
  0
VERTEX
  8
0
 62
7
  6
CONTINUOUS
 10
180.4867321251
 20
70.8647577526
  0
VERTEX
  8
0
 62
7
  6
CONTINUOUS
 10
180.5078189004
 20
70.8633106879
  0
VERTEX
  8
0
 62
7
  6
CONTINUOUS
 10
180.5488127505
 20
70.8529593098
  0
VERTEX
  8
0
 62
7
  6
CONTINUOUS
 10
180.5883179321
 20
70.833982098
  0
VERTEX
  8
0
 62
7
  6
CONTINUOUS
 10
180.6254684614
 20
70.8079040214
  0
VERTEX
  8
0
 62
7
  6
CONTINUOUS
 10
180.6602982531
 20
70.7754067126
  0
VERTEX
  8
0
 62
7
  6
CONTINUOUS
 10
180.692697506
 20
70.7368560985
  0
VERTEX
  8
0
 62
7
  6
CONTINUOUS
 10
180.7227783845
 20
70.6920586619
  0
VERTEX
  8
0
 62
7
  6
CONTINUOUS
 10
180.7500378587
 20
70.641466684
  0
VERTEX
  8
0
 62
7
  6
CONTINUOUS
 10
180.7737672646
 20
70.5865293477
  0
VERTEX
  8
0
 62
7
  6
CONTINUOUS
 10
180.7938476466
 20
70.5279634224
  0
VERTEX
  8
0
 62
7
  6
CONTINUOUS
 10
180.8111206156
 20
70.4652235488
  0
VERTEX
  8
0
 62
7
  6
CONTINUOUS
 10
180.8257371207
 20
70.3999613505
  0
VERTEX
  8
0
 62
7
  6
CONTINUOUS
 10
180.837951231
 20
70.3326462465
  0
VERTEX
  8
0
 62
7
  6
CONTINUOUS
 10
180.8479091252
 20
70.2634520214
  0
VERTEX
  8
0
 62
7
  6
CONTINUOUS
 10
180.8557856097
 20
70.1922735273
  0
VERTEX
  8
0
 62
7
  6
CONTINUOUS
 10
180.8617163073
 20
70.1196281488
  0
VERTEX
  8
0
 62
7
  6
CONTINUOUS
 10
180.8658496908
 20
70.045817136
  0
VERTEX
  8
0
 62
7
  6
CONTINUOUS
 10
180.86835812
 20
69.9709940899
  0
VERTEX
  8
0
 62
7
  6
CONTINUOUS
 10
180.8694279345
 20
69.8953509338
  0
VERTEX
  8
0
 62
7
  6
CONTINUOUS
 10
180.8692273231
 20
69.8191164851
  0
SEQEND
  0
POLYLINE
  8
0
 62
7
  6
CONTINUOUS
 66
1
 70
0
  0
VERTEX
  8
0
 62
7
  6
CONTINUOUS
 10
197.2867321251
 20
70.8647577526
  0
VERTEX
  8
0
 62
7
  6
CONTINUOUS
 10
197.3078189004
 20
70.8633106879
  0
VERTEX
  8
0
 62
7
  6
CONTINUOUS
 10
197.3488127505
 20
70.8529593098
  0
VERTEX
  8
0
 62
7
  6
CONTINUOUS
 10
197.3883179321
 20
70.833982098
  0
VERTEX
  8
0
 62
7
  6
CONTINUOUS
 10
197.4254684614
 20
70.8079040214
  0
VERTEX
  8
0
 62
7
  6
CONTINUOUS
 10
197.4602982531
 20
70.7754067126
  0
VERTEX
  8
0
 62
7
  6
CONTINUOUS
 10
197.492697506
 20
70.7368560985
  0
VERTEX
  8
0
 62
7
  6
CONTINUOUS
 10
197.5227783845
 20
70.6920586619
  0
VERTEX
  8
0
 62
7
  6
CONTINUOUS
 10
197.5500378587
 20
70.641466684
  0
VERTEX
  8
0
 62
7
  6
CONTINUOUS
 10
197.5737672646
 20
70.5865293477
  0
VERTEX
  8
0
 62
7
  6
CONTINUOUS
 10
197.5938476466
 20
70.5279634224
  0
VERTEX
  8
0
 62
7
  6
CONTINUOUS
 10
197.6111206156
 20
70.4652235488
  0
VERTEX
  8
0
 62
7
  6
CONTINUOUS
 10
197.6257371207
 20
70.3999613505
  0
VERTEX
  8
0
 62
7
  6
CONTINUOUS
 10
197.637951231
 20
70.3326462465
  0
VERTEX
  8
0
 62
7
  6
CONTINUOUS
 10
197.6479091252
 20
70.2634520214
  0
VERTEX
  8
0
 62
7
  6
CONTINUOUS
 10
197.6557856097
 20
70.1922735273
  0
VERTEX
  8
0
 62
7
  6
CONTINUOUS
 10
197.6617163073
 20
70.1196281488
  0
VERTEX
  8
0
 62
7
  6
CONTINUOUS
 10
197.6658496908
 20
70.045817136
  0
VERTEX
  8
0
 62
7
  6
CONTINUOUS
 10
197.66835812
 20
69.9709940899
  0
VERTEX
  8
0
 62
7
  6
CONTINUOUS
 10
197.6694279345
 20
69.8953509338
  0
VERTEX
  8
0
 62
7
  6
CONTINUOUS
 10
197.6692273231
 20
69.8191164851
  0
SEQEND
  0
LINE
  8
0
 62
7
  6
CONTINUOUS
 10
148.1419710531
 20
59.9080482931
 11
148.3226977363
 21
59.5048016606
  0
POLYLINE
  8
0
 62
7
  6
CONTINUOUS
 66
1
 70
0
  0
VERTEX
  8
0
 62
7
  6
CONTINUOUS
 10
129.2197969765
 20
124.4779902617
  0
VERTEX
  8
0
 62
7
  6
CONTINUOUS
 10
129.191676652
 20
124.6481170011
  0
VERTEX
  8
0
 62
7
  6
CONTINUOUS
 10
129.1606756432
 20
124.8132897476
  0
VERTEX
  8
0
 62
7
  6
CONTINUOUS
 10
129.1296743529
 20
124.9569767997
  0
VERTEX
  8
0
 62
7
  6
CONTINUOUS
 10
129.0982112603
 20
125.0828093057
  0
VERTEX
  8
0
 62
7
  6
CONTINUOUS
 10
129.0655117409
 20
125.1943891903
  0
VERTEX
  8
0
 62
7
  6
CONTINUOUS
 10
129.0302192862
 20
125.2955598402
  0
VERTEX
  8
0
 62
7
  6
CONTINUOUS
 10
128.989947162
 20
125.390503453
  0
VERTEX
  8
0
 62
7
  6
CONTINUOUS
 10
128.9410156334
 20
125.4827493669
  0
VERTEX
  8
0
 62
7
  6
CONTINUOUS
 10
128.877954874
 20
125.5745332991
  0
VERTEX
  8
0
 62
7
  6
CONTINUOUS
 10
128.7943580619
 20
125.6644474619
  0
VERTEX
  8
0
 62
7
  6
CONTINUOUS
 10
128.6866050161
 20
125.7451382925
  0
VERTEX
  8
0
 62
7
  6
CONTINUOUS
 10
128.5565288667
 20
125.8062759543
  0
VERTEX
  8
0
 62
7
  6
CONTINUOUS
 10
128.4117318883
 20
125.8391235209
  0
VERTEX
  8
0
 62
7
  6
CONTINUOUS
 10
128.3333255209
 20
125.8435661428
  0
SEQEND
  0
LINE
  8
0
 62
7
  6
CONTINUOUS
 10
129.235700516
 20
124.3732709059
 11
129.2197957315
 21
124.4779982479
  0
POLYLINE
  8
0
 62
7
  6
CONTINUOUS
 66
1
 70
0
  0
VERTEX
  8
0
 62
7
  6
CONTINUOUS
 10
130.2919405179
 20
120.1861901772
  0
VERTEX
  8
0
 62
7
  6
CONTINUOUS
 10
130.2200627041
 20
120.7379832987
  0
VERTEX
  8
0
 62
7
  6
CONTINUOUS
 10
130.1253338528
 20
121.3378082256
  0
VERTEX
  8
0
 62
7
  6
CONTINUOUS
 10
130.0146463218
 20
121.9204190311
  0
VERTEX
  8
0
 62
7
  6
CONTINUOUS
 10
129.8879580882
 20
122.4808100528
  0
VERTEX
  8
0
 62
7
  6
CONTINUOUS
 10
129.7452533424
 20
123.014146255
  0
VERTEX
  8
0
 62
7
  6
CONTINUOUS
 10
129.5864849405
 20
123.5157707355
  0
VERTEX
  8
0
 62
7
  6
CONTINUOUS
 10
129.4114204024
 20
123.9813837763
  0
SEQEND
  0
POLYLINE
  8
0
 62
7
  6
CONTINUOUS
 66
1
 70
0
  0
VERTEX
  8
0
 62
7
  6
CONTINUOUS
 10
138.8652876769
 20
114.3579924979
  0
VERTEX
  8
0
 62
7
  6
CONTINUOUS
 10
138.8692226332
 20
114.0684694581
  0
VERTEX
  8
0
 62
7
  6
CONTINUOUS
 10
138.8694325296
 20
113.9926385838
  0
VERTEX
  8
0
 62
7
  6
CONTINUOUS
 10
138.8683842691
 20
113.9172656303
  0
VERTEX
  8
0
 62
7
  6
CONTINUOUS
 10
138.8659059045
 20
113.8425928169
  0
VERTEX
  8
0
 62
7
  6
CONTINUOUS
 10
138.8618063598
 20
113.7688267975
  0
VERTEX
  8
0
 62
7
  6
CONTINUOUS
 10
138.8559073448
 20
113.6961353942
  0
VERTEX
  8
0
 62
7
  6
CONTINUOUS
 10
138.8480534688
 20
113.6248264782
  0
VERTEX
  8
0
 62
7
  6
CONTINUOUS
 10
138.838106668
 20
113.5554416846
  0
VERTEX
  8
0
 62
7
  6
CONTINUOUS
 10
138.8258834613
 20
113.4878879268
  0
VERTEX
  8
0
 62
7
  6
CONTINUOUS
 10
138.8112371694
 20
113.422381129
  0
VERTEX
  8
0
 62
7
  6
CONTINUOUS
 10
138.7938877224
 20
113.3593100046
  0
VERTEX
  8
0
 62
7
  6
CONTINUOUS
 10
138.7736986585
 20
113.3004270247
  0
VERTEX
  8
0
 62
7
  6
CONTINUOUS
 10
138.7498376026
 20
113.2452478597
  0
VERTEX
  8
0
 62
7
  6
CONTINUOUS
 10
138.7223682763
 20
113.1943943827
  0
VERTEX
  8
0
 62
7
  6
CONTINUOUS
 10
138.6920445049
 20
113.1494088541
  0
VERTEX
  8
0
 62
7
  6
CONTINUOUS
 10
138.6596038905
 20
113.1109933176
  0
VERTEX
  8
0
 62
7
  6
CONTINUOUS
 10
138.6249317871
 20
113.0787917479
  0
VERTEX
  8
0
 62
7
  6
CONTINUOUS
 10
138.5880781256
 20
113.0530089069
  0
VERTEX
  8
0
 62
7
  6
CONTINUOUS
 10
138.5488809295
 20
113.0341987933
  0
VERTEX
  8
0
 62
7
  6
CONTINUOUS
 10
138.5080386297
 20
113.0238513456
  0
VERTEX
  8
0
 62
7
  6
CONTINUOUS
 10
138.486731424
 20
113.0223747711
  0
SEQEND
  0
POLYLINE
  8
0
 62
7
  6
CONTINUOUS
 66
1
 70
0
  0
VERTEX
  8
0
 62
7
  6
CONTINUOUS
 10
138.689001365
 20
69.5331077646
  0
VERTEX
  8
0
 62
7
  6
CONTINUOUS
 10
138.6850663984
 20
69.823323033
  0
VERTEX
  8
0
 62
7
  6
CONTINUOUS
 10
138.6849309829
 20
69.899427939
  0
VERTEX
  8
0
 62
7
  6
CONTINUOUS
 10
138.6860707725
 20
69.9749259687
  0
VERTEX
  8
0
 62
7
  6
CONTINUOUS
 10
138.6886544371
 20
70.0495910932
  0
VERTEX
  8
0
 62
7
  6
CONTINUOUS
 10
138.692867689
 20
70.1232394422
  0
VERTEX
  8
0
 62
7
  6
CONTINUOUS
 10
138.6988806998
 20
70.1957166962
  0
VERTEX
  8
0
 62
7
  6
CONTINUOUS
 10
138.7068411639
 20
70.2667150508
  0
VERTEX
  8
0
 62
7
  6
CONTINUOUS
 10
138.7168878625
 20
70.3357370604
  0
VERTEX
  8
0
 62
7
  6
CONTINUOUS
 10
138.7291885742
 20
70.4028808676
  0
VERTEX
  8
0
 62
7
  6
CONTINUOUS
 10
138.7438899873
 20
70.4679397244
  0
VERTEX
  8
0
 62
7
  6
CONTINUOUS
 10
138.7612544712
 20
70.5304608294
  0
VERTEX
  8
0
 62
7
  6
CONTINUOUS
 10
138.7814442799
 20
70.5887885915
  0
VERTEX
  8
0
 62
7
  6
CONTINUOUS
 10
138.8052958022
 20
70.6435301322
  0
VERTEX
  8
0
 62
7
  6
CONTINUOUS
 10
138.8326635859
 20
70.6938905573
  0
VERTEX
  8
0
 62
7
  6
CONTINUOUS
 10
138.8628568835
 20
70.7384739749
  0
VERTEX
  8
0
 62
7
  6
CONTINUOUS
 10
138.8953791722
 20
70.7768195352
  0
VERTEX
  8
0
 62
7
  6
CONTINUOUS
 10
138.9303497585
 20
70.8091066264
  0
VERTEX
  8
0
 62
7
  6
CONTINUOUS
 10
138.9676387436
 20
70.8349348168
  0
VERTEX
  8
0
 62
7
  6
CONTINUOUS
 10
139.0072460883
 20
70.8535876487
  0
VERTEX
  8
0
 62
7
  6
CONTINUOUS
 10
139.048253123
 20
70.8635327572
  0
VERTEX
  8
0
 62
7
  6
CONTINUOUS
 10
139.0674307291
 20
70.8647571969
  0
SEQEND
  0
LINE
  8
0
 62
7
  6
CONTINUOUS
 10
138.6914434196
 20
69.2500935956
 11
138.689001365
 21
69.5331077646
  0
LINE
  8
0
 62
7
  6
CONTINUOUS
 10
138.8628717025
 20
114.6410142347
 11
138.8652876769
 21
114.3579924979
  0
LINE
  8
0
 62
7
  6
CONTINUOUS
 10
138.6914434196
 20
69.2500935956
 11
138.6919997965
 21
63.701992655
  0
LINE
  8
0
 62
7
  6
CONTINUOUS
 10
138.8623361102
 20
120.1851023603
 11
138.8628717025
 21
114.6410142347
  0
LINE
  8
0
 62
2
  6
CONTINUOUS
 10
143.0771679533
 20
51.9435662663
 11
143.0771679533
 21
91.9435662663
  0
LINE
  8
0
 62
7
  6
CONTINUOUS
 10
138.6919997964
 20
63.701960542
 11
138.6919404704
 21
63.7009525048
  0
LINE
  8
0
 62
7
  6
CONTINUOUS
 10
137.6197958671
 20
59.4091351546
 11
137.6356982415
 21
59.5138606996
  0
POLYLINE
  8
0
 62
7
  6
CONTINUOUS
 66
1
 70
0
  0
VERTEX
  8
0
 62
7
  6
CONTINUOUS
 10
156.7226987795
 20
124.3823329981
  0
VERTEX
  8
0
 62
7
  6
CONTINUOUS
 10
156.5429155043
 20
123.9813837763
  0
VERTEX
  8
0
 62
7
  6
CONTINUOUS
 10
156.3678509661
 20
123.5157707355
  0
VERTEX
  8
0
 62
7
  6
CONTINUOUS
 10
156.2090825642
 20
123.014146255
  0
VERTEX
  8
0
 62
7
  6
CONTINUOUS
 10
156.0663778184
 20
122.4808100528
  0
VERTEX
  8
0
 62
7
  6
CONTINUOUS
 10
155.9396895849
 20
121.9204190311
  0
VERTEX
  8
0
 62
7
  6
CONTINUOUS
 10
155.8290020538
 20
121.3378082256
  0
VERTEX
  8
0
 62
7
  6
CONTINUOUS
 10
155.7342732025
 20
120.7379832987
  0
VERTEX
  8
0
 62
7
  6
CONTINUOUS
 10
155.6623953888
 20
120.1861901772
  0
SEQEND
  0
POLYLINE
  8
0
 62
7
  6
CONTINUOUS
 66
1
 70
0
  0
VERTEX
  8
0
 62
7
  6
CONTINUOUS
 10
121.8919404704
 20
63.7009525048
  0
VERTEX
  8
0
 62
7
  6
CONTINUOUS
 10
121.88612877
 20
63.6923556069
  0
VERTEX
  8
0
 62
7
  6
CONTINUOUS
 10
121.867042017
 20
63.6835622884
  0
VERTEX
  8
0
 62
7
  6
CONTINUOUS
 10
121.8358407699
 20
63.6768338457
  0
VERTEX
  8
0
 62
7
  6
CONTINUOUS
 10
121.7945222241
 20
63.6725141423
  0
VERTEX
  8
0
 62
7
  6
CONTINUOUS
 10
121.7458258779
 20
63.6707252557
  0
VERTEX
  8
0
 62
7
  6
CONTINUOUS
 10
121.6919997965
 20
63.671284943
  0
SEQEND
  0
POLYLINE
  8
0
 62
7
  6
CONTINUOUS
 66
1
 70
0
  0
VERTEX
  8
0
 62
7
  6
CONTINUOUS
 10
214.0867321251
 20
70.8647577526
  0
VERTEX
  8
0
 62
7
  6
CONTINUOUS
 10
214.1078189004
 20
70.8633106879
  0
VERTEX
  8
0
 62
7
  6
CONTINUOUS
 10
214.1488127505
 20
70.8529593098
  0
VERTEX
  8
0
 62
7
  6
CONTINUOUS
 10
214.1883179321
 20
70.833982098
  0
VERTEX
  8
0
 62
7
  6
CONTINUOUS
 10
214.2254684614
 20
70.8079040214
  0
VERTEX
  8
0
 62
7
  6
CONTINUOUS
 10
214.2602982531
 20
70.7754067126
  0
VERTEX
  8
0
 62
7
  6
CONTINUOUS
 10
214.292697506
 20
70.7368560985
  0
VERTEX
  8
0
 62
7
  6
CONTINUOUS
 10
214.3227783845
 20
70.6920586619
  0
VERTEX
  8
0
 62
7
  6
CONTINUOUS
 10
214.3500378587
 20
70.641466684
  0
VERTEX
  8
0
 62
7
  6
CONTINUOUS
 10
214.3737672646
 20
70.5865293477
  0
VERTEX
  8
0
 62
7
  6
CONTINUOUS
 10
214.3938476466
 20
70.5279634224
  0
VERTEX
  8
0
 62
7
  6
CONTINUOUS
 10
214.4111206156
 20
70.4652235488
  0
VERTEX
  8
0
 62
7
  6
CONTINUOUS
 10
214.4257371207
 20
70.3999613505
  0
VERTEX
  8
0
 62
7
  6
CONTINUOUS
 10
214.437951231
 20
70.3326462465
  0
VERTEX
  8
0
 62
7
  6
CONTINUOUS
 10
214.4479091252
 20
70.2634520214
  0
VERTEX
  8
0
 62
7
  6
CONTINUOUS
 10
214.4557856097
 20
70.1922735273
  0
VERTEX
  8
0
 62
7
  6
CONTINUOUS
 10
214.4617163073
 20
70.1196281488
  0
VERTEX
  8
0
 62
7
  6
CONTINUOUS
 10
214.4658496908
 20
70.045817136
  0
VERTEX
  8
0
 62
7
  6
CONTINUOUS
 10
214.46835812
 20
69.9709940899
  0
VERTEX
  8
0
 62
7
  6
CONTINUOUS
 10
214.4694279345
 20
69.8953509338
  0
VERTEX
  8
0
 62
7
  6
CONTINUOUS
 10
214.4692273231
 20
69.8191164851
  0
SEQEND
  0
POLYLINE
  8
0
 62
7
  6
CONTINUOUS
 66
1
 70
0
  0
VERTEX
  8
0
 62
7
  6
CONTINUOUS
 10
148.3345388174
 20
59.4091429936
  0
VERTEX
  8
0
 62
7
  6
CONTINUOUS
 10
148.3624219376
 20
59.2403679866
  0
VERTEX
  8
0
 62
7
  6
CONTINUOUS
 10
148.393470598
 20
59.0747859945
  0
VERTEX
  8
0
 62
7
  6
CONTINUOUS
 10
148.4245226916
 20
58.9307543017
  0
VERTEX
  8
0
 62
7
  6
CONTINUOUS
 10
148.4560412491
 20
58.8046318779
  0
VERTEX
  8
0
 62
7
  6
CONTINUOUS
 10
148.4888042895
 20
58.6928056854
  0
VERTEX
  8
0
 62
7
  6
CONTINUOUS
 10
148.5241763424
 20
58.5914167367
  0
VERTEX
  8
0
 62
7
  6
CONTINUOUS
 10
148.5645647921
 20
58.4962555808
  0
VERTEX
  8
0
 62
7
  6
CONTINUOUS
 10
148.6136926849
 20
58.4037611236
  0
VERTEX
  8
0
 62
7
  6
CONTINUOUS
 10
148.6770877684
 20
58.3117059085
  0
VERTEX
  8
0
 62
7
  6
CONTINUOUS
 10
148.7612050497
 20
58.2215702844
  0
VERTEX
  8
0
 62
7
  6
CONTINUOUS
 10
148.8696197388
 20
58.1408523169
  0
VERTEX
  8
0
 62
7
  6
CONTINUOUS
 10
149.0004131407
 20
58.0799613126
  0
VERTEX
  8
0
 62
7
  6
CONTINUOUS
 10
149.1459366383
 20
58.0476366704
  0
VERTEX
  8
0
 62
7
  6
CONTINUOUS
 10
149.2210101577
 20
58.0435663895
  0
SEQEND
  0
LINE
  8
0
 62
7
  6
CONTINUOUS
 10
148.3186376652
 20
59.5138606992
 11
148.3345400395
 21
59.4091351546
  0
POLYLINE
  8
0
 62
7
  6
CONTINUOUS
 66
1
 70
0
  0
VERTEX
  8
0
 62
7
  6
CONTINUOUS
 10
147.2623953854
 20
63.7009423835
  0
VERTEX
  8
0
 62
7
  6
CONTINUOUS
 10
147.3337726405
 20
63.1526510011
  0
VERTEX
  8
0
 62
7
  6
CONTINUOUS
 10
147.4284221019
 20
62.5526695856
  0
VERTEX
  8
0
 62
7
  6
CONTINUOUS
 10
147.5390327067
 20
61.9698826212
  0
VERTEX
  8
0
 62
7
  6
CONTINUOUS
 10
147.6656465929
 20
61.4092969549
  0
VERTEX
  8
0
 62
7
  6
CONTINUOUS
 10
147.8082793473
 20
60.8757492766
  0
VERTEX
  8
0
 62
7
  6
CONTINUOUS
 10
147.9669772715
 20
60.3738988985
  0
VERTEX
  8
0
 62
7
  6
CONTINUOUS
 10
148.1419710531
 20
59.9080482931
  0
SEQEND
  0
LINE
  8
0
 62
7
  6
CONTINUOUS
 10
147.262395415
 20
63.7009482492
 11
147.2623361131
 21
63.7019681608
  0
LINE
  8
0
 62
7
  6
CONTINUOUS
 10
147.0919404883
 20
120.1861843116
 11
147.0919997935
 21
120.1851643718
  0
POLYLINE
  8
0
 62
7
  6
CONTINUOUS
 66
1
 70
0
  0
VERTEX
  8
0
 62
7
  6
CONTINUOUS
 10
147.0850722494
 20
114.0643583558
  0
VERTEX
  8
0
 62
7
  6
CONTINUOUS
 10
147.089001768
 20
114.3540286115
  0
VERTEX
  8
0
 62
7
  6
CONTINUOUS
 10
147.0914435118
 20
114.6370408129
  0
VERTEX
  8
0
 62
7
  6
CONTINUOUS
 10
147.0919997965
 20
120.1851023603
  0
SEQEND
  0
POLYLINE
  8
0
 62
7
  6
CONTINUOUS
 66
1
 70
0
  0
VERTEX
  8
0
 62
7
  6
CONTINUOUS
 10
147.2692273231
 20
69.8191164851
  0
VERTEX
  8
0
 62
7
  6
CONTINUOUS
 10
147.2652876772
 20
69.529139984
  0
VERTEX
  8
0
 62
7
  6
CONTINUOUS
 10
147.2628717027
 20
69.2461183235
  0
VERTEX
  8
0
 62
7
  6
CONTINUOUS
 10
147.2623361102
 20
63.7020301723
  0
SEQEND
  0
LINE
  8
0
 62
7
  6
CONTINUOUS
 10
129.4114204024
 20
123.9813837763
 11
129.2316371272
 21
124.3823329981
  0
POLYLINE
  8
0
 62
7
  6
CONTINUOUS
 66
1
 70
0
  0
VERTEX
  8
0
 62
7
  6
CONTINUOUS
 10
155.6652876769
 20
114.3579924979
  0
VERTEX
  8
0
 62
7
  6
CONTINUOUS
 10
155.6692226332
 20
114.0684694581
  0
VERTEX
  8
0
 62
7
  6
CONTINUOUS
 10
155.6694325296
 20
113.9926385838
  0
VERTEX
  8
0
 62
7
  6
CONTINUOUS
 10
155.6683842691
 20
113.9172656303
  0
VERTEX
  8
0
 62
7
  6
CONTINUOUS
 10
155.6659059045
 20
113.8425928169
  0
VERTEX
  8
0
 62
7
  6
CONTINUOUS
 10
155.6618063598
 20
113.7688267975
  0
VERTEX
  8
0
 62
7
  6
CONTINUOUS
 10
155.6559073448
 20
113.6961353942
  0
VERTEX
  8
0
 62
7
  6
CONTINUOUS
 10
155.6480534688
 20
113.6248264782
  0
VERTEX
  8
0
 62
7
  6
CONTINUOUS
 10
155.638106668
 20
113.5554416846
  0
VERTEX
  8
0
 62
7
  6
CONTINUOUS
 10
155.6258834613
 20
113.4878879268
  0
VERTEX
  8
0
 62
7
  6
CONTINUOUS
 10
155.6112371694
 20
113.422381129
  0
VERTEX
  8
0
 62
7
  6
CONTINUOUS
 10
155.5938877224
 20
113.3593100046
  0
VERTEX
  8
0
 62
7
  6
CONTINUOUS
 10
155.5736986585
 20
113.3004270247
  0
VERTEX
  8
0
 62
7
  6
CONTINUOUS
 10
155.5498376026
 20
113.2452478597
  0
VERTEX
  8
0
 62
7
  6
CONTINUOUS
 10
155.5223682763
 20
113.1943943827
  0
VERTEX
  8
0
 62
7
  6
CONTINUOUS
 10
155.4920445049
 20
113.1494088541
  0
VERTEX
  8
0
 62
7
  6
CONTINUOUS
 10
155.4596038905
 20
113.1109933176
  0
VERTEX
  8
0
 62
7
  6
CONTINUOUS
 10
155.4249317871
 20
113.0787917479
  0
VERTEX
  8
0
 62
7
  6
CONTINUOUS
 10
155.3880781256
 20
113.0530089069
  0
VERTEX
  8
0
 62
7
  6
CONTINUOUS
 10
155.3488809295
 20
113.0341987933
  0
VERTEX
  8
0
 62
7
  6
CONTINUOUS
 10
155.3080386297
 20
113.0238513456
  0
VERTEX
  8
0
 62
7
  6
CONTINUOUS
 10
155.286731424
 20
113.0223747711
  0
SEQEND
  0
POLYLINE
  8
0
 62
7
  6
CONTINUOUS
 66
1
 70
0
  0
VERTEX
  8
0
 62
7
  6
CONTINUOUS
 10
155.489001365
 20
69.5331077646
  0
VERTEX
  8
0
 62
7
  6
CONTINUOUS
 10
155.4850663984
 20
69.823323033
  0
VERTEX
  8
0
 62
7
  6
CONTINUOUS
 10
155.4849309829
 20
69.899427939
  0
VERTEX
  8
0
 62
7
  6
CONTINUOUS
 10
155.4860707725
 20
69.9749259687
  0
VERTEX
  8
0
 62
7
  6
CONTINUOUS
 10
155.4886544371
 20
70.0495910932
  0
VERTEX
  8
0
 62
7
  6
CONTINUOUS
 10
155.492867689
 20
70.1232394422
  0
VERTEX
  8
0
 62
7
  6
CONTINUOUS
 10
155.4988806998
 20
70.1957166962
  0
VERTEX
  8
0
 62
7
  6
CONTINUOUS
 10
155.5068411639
 20
70.2667150508
  0
VERTEX
  8
0
 62
7
  6
CONTINUOUS
 10
155.5168878625
 20
70.3357370604
  0
VERTEX
  8
0
 62
7
  6
CONTINUOUS
 10
155.5291885742
 20
70.4028808676
  0
VERTEX
  8
0
 62
7
  6
CONTINUOUS
 10
155.5438899873
 20
70.4679397244
  0
VERTEX
  8
0
 62
7
  6
CONTINUOUS
 10
155.5612544712
 20
70.5304608294
  0
VERTEX
  8
0
 62
7
  6
CONTINUOUS
 10
155.5814442799
 20
70.5887885915
  0
VERTEX
  8
0
 62
7
  6
CONTINUOUS
 10
155.6052958022
 20
70.6435301322
  0
VERTEX
  8
0
 62
7
  6
CONTINUOUS
 10
155.6326635859
 20
70.6938905573
  0
VERTEX
  8
0
 62
7
  6
CONTINUOUS
 10
155.6628568835
 20
70.7384739749
  0
VERTEX
  8
0
 62
7
  6
CONTINUOUS
 10
155.6953791722
 20
70.7768195352
  0
VERTEX
  8
0
 62
7
  6
CONTINUOUS
 10
155.7303497585
 20
70.8091066264
  0
VERTEX
  8
0
 62
7
  6
CONTINUOUS
 10
155.7676387436
 20
70.8349348168
  0
VERTEX
  8
0
 62
7
  6
CONTINUOUS
 10
155.8072460883
 20
70.8535876487
  0
VERTEX
  8
0
 62
7
  6
CONTINUOUS
 10
155.848253123
 20
70.8635327572
  0
VERTEX
  8
0
 62
7
  6
CONTINUOUS
 10
155.8674307291
 20
70.8647571969
  0
SEQEND
  0
LINE
  8
0
 62
7
  6
CONTINUOUS
 10
155.4914434196
 20
69.2500935956
 11
155.489001365
 21
69.5331077646
  0
LINE
  8
0
 62
7
  6
CONTINUOUS
 10
155.6628717025
 20
114.6410142347
 11
155.6652876769
 21
114.3579924979
  0
LINE
  8
0
 62
2
  6
CONTINUOUS
 10
151.4771679533
 20
91.9435662663
 11
151.4771679533
 21
131.9435662663
  0
LINE
  8
0
 62
7
  6
CONTINUOUS
 10
155.4914434196
 20
69.2500935956
 11
155.4919997965
 21
63.701992655
  0
LINE
  8
DEFAULT_1
 62
2
  6
CENTER
 10
155.5771679533
 20
97.1935662663
 11
155.5771679533
 21
93.9436662663
  0
LINE
  8
0
 62
2
  6
CONTINUOUS
 10
155.5771679533
 20
92.9935662663
 11
155.5771679533
 21
90.8935662663
  0
LINE
  8
0
 62
40
  6
CONTINUOUS
 10
155.5771679533
 20
63.6755385659
 11
155.5771679533
 21
38.1202662663
  0
LINE
  8
DEFAULT_1
 62
2
  6
CENTER
 10
155.5771679533
 20
86.6935662663
 11
155.5771679533
 21
89.9434662663
  0
LINE
  8
0
 62
40
  6
CONTINUOUS
 10
155.5771679533
 20
120.2115935457
 11
155.5771679533
 21
145.7668662663
  0
LINE
  8
0
 62
7
  6
CONTINUOUS
 10
155.6623361102
 20
120.1851023603
 11
155.6628717025
 21
114.6410142347
  0
LINE
  8
0
 62
7
  6
CONTINUOUS
 10
155.6623954184
 20
120.1861843116
 11
155.6623361131
 21
120.1851643718
  0
LINE
  8
0
 62
7
  6
CONTINUOUS
 10
156.7345401751
 20
124.4779982479
 11
156.7186353906
 21
124.3732709059
  0
POLYLINE
  8
0
 62
7
  6
CONTINUOUS
 66
1
 70
0
  0
VERTEX
  8
0
 62
7
  6
CONTINUOUS
 10
137.6316381703
 20
59.5048016606
  0
VERTEX
  8
0
 62
7
  6
CONTINUOUS
 10
137.8123648974
 20
59.9080484001
  0
VERTEX
  8
0
 62
7
  6
CONTINUOUS
 10
137.9873587153
 20
60.3738991313
  0
VERTEX
  8
0
 62
7
  6
CONTINUOUS
 10
138.1460566683
 20
60.8757496514
  0
VERTEX
  8
0
 62
7
  6
CONTINUOUS
 10
138.288689444
 20
61.4092974848
  0
VERTEX
  8
0
 62
7
  6
CONTINUOUS
 10
138.4153033438
 20
61.9698833156
  0
VERTEX
  8
0
 62
7
  6
CONTINUOUS
 10
138.5259139547
 20
62.5526704506
  0
VERTEX
  8
0
 62
7
  6
CONTINUOUS
 10
138.6205634144
 20
63.152652039
  0
VERTEX
  8
0
 62
7
  6
CONTINUOUS
 10
138.6919405212
 20
63.7009423835
  0
SEQEND
  0
LINE
  8
DEFAULT_1
 62
2
  6
CENTER
 10
160.8271679533
 20
91.9435662663
 11
157.5772679533
 21
91.9435662663
  0
LINE
  8
0
 62
2
  6
CONTINUOUS
 10
156.6271679533
 20
91.9435662663
 11
154.5271679533
 21
91.9435662663
  0
LINE
  8
0
 62
2
  6
CONTINUOUS
 10
143.0771679533
 20
91.9435662663
 11
150.3271679533
 21
91.9435662663
  0
LINE
  8
DEFAULT_1
 62
2
  6
CENTER
 10
150.3271679533
 20
91.9435662663
 11
153.5770679533
 21
91.9435662663
  0
LINE
  8
0
 62
7
  6
CONTINUOUS
 10
164.9419710531
 20
59.9080482931
 11
165.1226977363
 21
59.5048016606
  0
POLYLINE
  8
0
 62
7
  6
CONTINUOUS
 66
1
 70
0
  0
VERTEX
  8
0
 62
7
  6
CONTINUOUS
 10
146.0197969765
 20
124.4779902617
  0
VERTEX
  8
0
 62
7
  6
CONTINUOUS
 10
145.991676652
 20
124.6481170011
  0
VERTEX
  8
0
 62
7
  6
CONTINUOUS
 10
145.9606756432
 20
124.8132897476
  0
VERTEX
  8
0
 62
7
  6
CONTINUOUS
 10
145.9296743529
 20
124.9569767997
  0
VERTEX
  8
0
 62
7
  6
CONTINUOUS
 10
145.8982112603
 20
125.0828093057
  0
VERTEX
  8
0
 62
7
  6
CONTINUOUS
 10
145.8655117409
 20
125.1943891903
  0
VERTEX
  8
0
 62
7
  6
CONTINUOUS
 10
145.8302192862
 20
125.2955598402
  0
VERTEX
  8
0
 62
7
  6
CONTINUOUS
 10
145.789947162
 20
125.390503453
  0
VERTEX
  8
0
 62
7
  6
CONTINUOUS
 10
145.7410156334
 20
125.4827493669
  0
VERTEX
  8
0
 62
7
  6
CONTINUOUS
 10
145.677954874
 20
125.5745332991
  0
VERTEX
  8
0
 62
7
  6
CONTINUOUS
 10
145.5943580619
 20
125.6644474619
  0
VERTEX
  8
0
 62
7
  6
CONTINUOUS
 10
145.4866050161
 20
125.7451382925
  0
VERTEX
  8
0
 62
7
  6
CONTINUOUS
 10
145.3565288667
 20
125.8062759543
  0
VERTEX
  8
0
 62
7
  6
CONTINUOUS
 10
145.2117318883
 20
125.8391235209
  0
VERTEX
  8
0
 62
7
  6
CONTINUOUS
 10
145.1333255209
 20
125.8435661428
  0
SEQEND
  0
LINE
  8
0
 62
7
  6
CONTINUOUS
 10
146.035700516
 20
124.3732709059
 11
146.0197957315
 21
124.4779982479
  0
POLYLINE
  8
0
 62
7
  6
CONTINUOUS
 66
1
 70
0
  0
VERTEX
  8
0
 62
7
  6
CONTINUOUS
 10
147.0919405179
 20
120.1861901772
  0
VERTEX
  8
0
 62
7
  6
CONTINUOUS
 10
147.0200627041
 20
120.7379832987
  0
VERTEX
  8
0
 62
7
  6
CONTINUOUS
 10
146.9253338528
 20
121.3378082256
  0
VERTEX
  8
0
 62
7
  6
CONTINUOUS
 10
146.8146463218
 20
121.9204190311
  0
VERTEX
  8
0
 62
7
  6
CONTINUOUS
 10
146.6879580882
 20
122.4808100528
  0
VERTEX
  8
0
 62
7
  6
CONTINUOUS
 10
146.5452533424
 20
123.014146255
  0
VERTEX
  8
0
 62
7
  6
CONTINUOUS
 10
146.3864849405
 20
123.5157707355
  0
VERTEX
  8
0
 62
7
  6
CONTINUOUS
 10
146.2114204024
 20
123.9813837763
  0
SEQEND
  0
LINE
  8
0
 62
7
  6
CONTINUOUS
 10
164.062395415
 20
63.7009482492
 11
164.0623361131
 21
63.7019681608
  0
LINE
  8
0
 62
7
  6
CONTINUOUS
 10
155.4919997964
 20
63.701960542
 11
155.4919404704
 21
63.7009525048
  0
LINE
  8
0
 62
7
  6
CONTINUOUS
 10
154.4197958671
 20
59.4091351546
 11
154.4356982415
 21
59.5138606996
  0
POLYLINE
  8
0
 62
7
  6
CONTINUOUS
 66
1
 70
0
  0
VERTEX
  8
0
 62
7
  6
CONTINUOUS
 10
173.5226987795
 20
124.3823329981
  0
VERTEX
  8
0
 62
7
  6
CONTINUOUS
 10
173.3429155043
 20
123.9813837763
  0
VERTEX
  8
0
 62
7
  6
CONTINUOUS
 10
173.1678509661
 20
123.5157707355
  0
VERTEX
  8
0
 62
7
  6
CONTINUOUS
 10
173.0090825642
 20
123.014146255
  0
VERTEX
  8
0
 62
7
  6
CONTINUOUS
 10
172.8663778184
 20
122.4808100528
  0
VERTEX
  8
0
 62
7
  6
CONTINUOUS
 10
172.7396895849
 20
121.9204190311
  0
VERTEX
  8
0
 62
7
  6
CONTINUOUS
 10
172.6290020538
 20
121.3378082256
  0
VERTEX
  8
0
 62
7
  6
CONTINUOUS
 10
172.5342732025
 20
120.7379832987
  0
VERTEX
  8
0
 62
7
  6
CONTINUOUS
 10
172.4623953888
 20
120.1861901772
  0
SEQEND
  0
POLYLINE
  8
0
 62
7
  6
CONTINUOUS
 66
1
 70
0
  0
VERTEX
  8
0
 62
7
  6
CONTINUOUS
 10
138.6919404704
 20
63.7009525048
  0
VERTEX
  8
0
 62
7
  6
CONTINUOUS
 10
138.68612877
 20
63.6923556069
  0
VERTEX
  8
0
 62
7
  6
CONTINUOUS
 10
138.667042017
 20
63.6835622884
  0
VERTEX
  8
0
 62
7
  6
CONTINUOUS
 10
138.6358407699
 20
63.6768338457
  0
VERTEX
  8
0
 62
7
  6
CONTINUOUS
 10
138.5945222241
 20
63.6725141423
  0
VERTEX
  8
0
 62
7
  6
CONTINUOUS
 10
138.5458258779
 20
63.6707252557
  0
VERTEX
  8
0
 62
7
  6
CONTINUOUS
 10
138.4919997965
 20
63.671284943
  0
SEQEND
  0
LINE
  8
0
 62
7
  6
CONTINUOUS
 10
146.2114204024
 20
123.9813837763
 11
146.0316371272
 21
124.3823329981
  0
POLYLINE
  8
0
 62
7
  6
CONTINUOUS
 66
1
 70
0
  0
VERTEX
  8
0
 62
7
  6
CONTINUOUS
 10
165.1345388174
 20
59.4091429936
  0
VERTEX
  8
0
 62
7
  6
CONTINUOUS
 10
165.1624219376
 20
59.2403679866
  0
VERTEX
  8
0
 62
7
  6
CONTINUOUS
 10
165.193470598
 20
59.0747859945
  0
VERTEX
  8
0
 62
7
  6
CONTINUOUS
 10
165.2245226916
 20
58.9307543017
  0
VERTEX
  8
0
 62
7
  6
CONTINUOUS
 10
165.2560412491
 20
58.8046318779
  0
VERTEX
  8
0
 62
7
  6
CONTINUOUS
 10
165.2888042895
 20
58.6928056854
  0
VERTEX
  8
0
 62
7
  6
CONTINUOUS
 10
165.3241763424
 20
58.5914167367
  0
VERTEX
  8
0
 62
7
  6
CONTINUOUS
 10
165.3645647921
 20
58.4962555808
  0
VERTEX
  8
0
 62
7
  6
CONTINUOUS
 10
165.4136926849
 20
58.4037611236
  0
VERTEX
  8
0
 62
7
  6
CONTINUOUS
 10
165.4770877684
 20
58.3117059085
  0
VERTEX
  8
0
 62
7
  6
CONTINUOUS
 10
165.5612050497
 20
58.2215702844
  0
VERTEX
  8
0
 62
7
  6
CONTINUOUS
 10
165.6696197388
 20
58.1408523169
  0
VERTEX
  8
0
 62
7
  6
CONTINUOUS
 10
165.8004131407
 20
58.0799613126
  0
VERTEX
  8
0
 62
7
  6
CONTINUOUS
 10
165.9459366383
 20
58.0476366704
  0
VERTEX
  8
0
 62
7
  6
CONTINUOUS
 10
166.0200947584
 20
58.043566806
  0
SEQEND
  0
LINE
  8
0
 62
7
  6
CONTINUOUS
 10
165.1186376652
 20
59.5138606992
 11
165.1345400395
 21
59.4091351546
  0
POLYLINE
  8
0
 62
7
  6
CONTINUOUS
 66
1
 70
0
  0
VERTEX
  8
0
 62
7
  6
CONTINUOUS
 10
164.0623953854
 20
63.7009423835
  0
VERTEX
  8
0
 62
7
  6
CONTINUOUS
 10
164.1337726405
 20
63.1526510011
  0
VERTEX
  8
0
 62
7
  6
CONTINUOUS
 10
164.2284221019
 20
62.5526695856
  0
VERTEX
  8
0
 62
7
  6
CONTINUOUS
 10
164.3390327067
 20
61.9698826212
  0
VERTEX
  8
0
 62
7
  6
CONTINUOUS
 10
164.4656465929
 20
61.4092969549
  0
VERTEX
  8
0
 62
7
  6
CONTINUOUS
 10
164.6082793473
 20
60.8757492766
  0
VERTEX
  8
0
 62
7
  6
CONTINUOUS
 10
164.7669772715
 20
60.3738988985
  0
VERTEX
  8
0
 62
7
  6
CONTINUOUS
 10
164.9419710531
 20
59.9080482931
  0
SEQEND
  0
LINE
  8
0
 62
7
  6
CONTINUOUS
 10
163.8919404883
 20
120.1861843116
 11
163.8919997935
 21
120.1851643718
  0
POLYLINE
  8
0
 62
7
  6
CONTINUOUS
 66
1
 70
0
  0
VERTEX
  8
0
 62
7
  6
CONTINUOUS
 10
163.8850722494
 20
114.0643583558
  0
VERTEX
  8
0
 62
7
  6
CONTINUOUS
 10
163.889001768
 20
114.3540286115
  0
VERTEX
  8
0
 62
7
  6
CONTINUOUS
 10
163.8914435118
 20
114.6370408129
  0
VERTEX
  8
0
 62
7
  6
CONTINUOUS
 10
163.8919997965
 20
120.1851023603
  0
SEQEND
  0
POLYLINE
  8
0
 62
7
  6
CONTINUOUS
 66
1
 70
0
  0
VERTEX
  8
0
 62
7
  6
CONTINUOUS
 10
164.0692273231
 20
69.8191164851
  0
VERTEX
  8
0
 62
7
  6
CONTINUOUS
 10
164.0652876772
 20
69.529139984
  0
VERTEX
  8
0
 62
7
  6
CONTINUOUS
 10
164.0628717027
 20
69.2461183235
  0
VERTEX
  8
0
 62
7
  6
CONTINUOUS
 10
164.0623361102
 20
63.7020301723
  0
SEQEND
  0
LINE
  8
0
 62
7
  6
CONTINUOUS
 10
173.5345401751
 20
124.4779982479
 11
173.5186353906
 21
124.3732709059
  0
POLYLINE
  8
0
 62
7
  6
CONTINUOUS
 66
1
 70
0
  0
VERTEX
  8
0
 62
7
  6
CONTINUOUS
 10
154.4316381703
 20
59.5048016606
  0
VERTEX
  8
0
 62
7
  6
CONTINUOUS
 10
154.6123648974
 20
59.9080484001
  0
VERTEX
  8
0
 62
7
  6
CONTINUOUS
 10
154.7873587153
 20
60.3738991313
  0
VERTEX
  8
0
 62
7
  6
CONTINUOUS
 10
154.9460566683
 20
60.8757496514
  0
VERTEX
  8
0
 62
7
  6
CONTINUOUS
 10
155.088689444
 20
61.4092974848
  0
VERTEX
  8
0
 62
7
  6
CONTINUOUS
 10
155.2153033438
 20
61.9698833156
  0
VERTEX
  8
0
 62
7
  6
CONTINUOUS
 10
155.3259139547
 20
62.5526704506
  0
VERTEX
  8
0
 62
7
  6
CONTINUOUS
 10
155.4205634144
 20
63.152652039
  0
VERTEX
  8
0
 62
7
  6
CONTINUOUS
 10
155.4919405212
 20
63.7009423835
  0
SEQEND
  0
LINE
  8
0
 62
7
  6
CONTINUOUS
 10
181.7419710531
 20
59.9080482931
 11
181.9226977363
 21
59.5048016606
  0
POLYLINE
  8
0
 62
7
  6
CONTINUOUS
 66
1
 70
0
  0
VERTEX
  8
0
 62
7
  6
CONTINUOUS
 10
162.8197969765
 20
124.4779902617
  0
VERTEX
  8
0
 62
7
  6
CONTINUOUS
 10
162.791676652
 20
124.6481170011
  0
VERTEX
  8
0
 62
7
  6
CONTINUOUS
 10
162.7606756432
 20
124.8132897476
  0
VERTEX
  8
0
 62
7
  6
CONTINUOUS
 10
162.7296743529
 20
124.9569767997
  0
VERTEX
  8
0
 62
7
  6
CONTINUOUS
 10
162.6982112603
 20
125.0828093057
  0
VERTEX
  8
0
 62
7
  6
CONTINUOUS
 10
162.6655117409
 20
125.1943891903
  0
VERTEX
  8
0
 62
7
  6
CONTINUOUS
 10
162.6302192862
 20
125.2955598402
  0
VERTEX
  8
0
 62
7
  6
CONTINUOUS
 10
162.589947162
 20
125.390503453
  0
VERTEX
  8
0
 62
7
  6
CONTINUOUS
 10
162.5410156334
 20
125.4827493669
  0
VERTEX
  8
0
 62
7
  6
CONTINUOUS
 10
162.477954874
 20
125.5745332991
  0
VERTEX
  8
0
 62
7
  6
CONTINUOUS
 10
162.3943580619
 20
125.6644474619
  0
VERTEX
  8
0
 62
7
  6
CONTINUOUS
 10
162.2866050161
 20
125.7451382925
  0
VERTEX
  8
0
 62
7
  6
CONTINUOUS
 10
162.1565288667
 20
125.8062759543
  0
VERTEX
  8
0
 62
7
  6
CONTINUOUS
 10
162.0117318883
 20
125.8391235209
  0
VERTEX
  8
0
 62
7
  6
CONTINUOUS
 10
161.9333255209
 20
125.8435661428
  0
SEQEND
  0
LINE
  8
0
 62
7
  6
CONTINUOUS
 10
162.835700516
 20
124.3732709059
 11
162.8197957315
 21
124.4779982479
  0
POLYLINE
  8
0
 62
7
  6
CONTINUOUS
 66
1
 70
0
  0
VERTEX
  8
0
 62
7
  6
CONTINUOUS
 10
163.8919405179
 20
120.1861901772
  0
VERTEX
  8
0
 62
7
  6
CONTINUOUS
 10
163.8200627041
 20
120.7379832987
  0
VERTEX
  8
0
 62
7
  6
CONTINUOUS
 10
163.7253338528
 20
121.3378082256
  0
VERTEX
  8
0
 62
7
  6
CONTINUOUS
 10
163.6146463218
 20
121.9204190311
  0
VERTEX
  8
0
 62
7
  6
CONTINUOUS
 10
163.4879580882
 20
122.4808100528
  0
VERTEX
  8
0
 62
7
  6
CONTINUOUS
 10
163.3452533424
 20
123.014146255
  0
VERTEX
  8
0
 62
7
  6
CONTINUOUS
 10
163.1864849405
 20
123.5157707355
  0
VERTEX
  8
0
 62
7
  6
CONTINUOUS
 10
163.0114204024
 20
123.9813837763
  0
SEQEND
  0
POLYLINE
  8
0
 62
7
  6
CONTINUOUS
 66
1
 70
0
  0
VERTEX
  8
0
 62
7
  6
CONTINUOUS
 10
172.4652876769
 20
114.3579924979
  0
VERTEX
  8
0
 62
7
  6
CONTINUOUS
 10
172.4692226332
 20
114.0684694581
  0
VERTEX
  8
0
 62
7
  6
CONTINUOUS
 10
172.4694325296
 20
113.9926385838
  0
VERTEX
  8
0
 62
7
  6
CONTINUOUS
 10
172.4683842691
 20
113.9172656303
  0
VERTEX
  8
0
 62
7
  6
CONTINUOUS
 10
172.4659059045
 20
113.8425928169
  0
VERTEX
  8
0
 62
7
  6
CONTINUOUS
 10
172.4618063598
 20
113.7688267975
  0
VERTEX
  8
0
 62
7
  6
CONTINUOUS
 10
172.4559073448
 20
113.6961353942
  0
VERTEX
  8
0
 62
7
  6
CONTINUOUS
 10
172.4480534688
 20
113.6248264782
  0
VERTEX
  8
0
 62
7
  6
CONTINUOUS
 10
172.438106668
 20
113.5554416846
  0
VERTEX
  8
0
 62
7
  6
CONTINUOUS
 10
172.4258834613
 20
113.4878879268
  0
VERTEX
  8
0
 62
7
  6
CONTINUOUS
 10
172.4112371694
 20
113.422381129
  0
VERTEX
  8
0
 62
7
  6
CONTINUOUS
 10
172.3938877224
 20
113.3593100046
  0
VERTEX
  8
0
 62
7
  6
CONTINUOUS
 10
172.3736986585
 20
113.3004270247
  0
VERTEX
  8
0
 62
7
  6
CONTINUOUS
 10
172.3498376026
 20
113.2452478597
  0
VERTEX
  8
0
 62
7
  6
CONTINUOUS
 10
172.3223682763
 20
113.1943943827
  0
VERTEX
  8
0
 62
7
  6
CONTINUOUS
 10
172.2920445049
 20
113.1494088541
  0
VERTEX
  8
0
 62
7
  6
CONTINUOUS
 10
172.2596038905
 20
113.1109933176
  0
VERTEX
  8
0
 62
7
  6
CONTINUOUS
 10
172.2249317871
 20
113.0787917479
  0
VERTEX
  8
0
 62
7
  6
CONTINUOUS
 10
172.1880781256
 20
113.0530089069
  0
VERTEX
  8
0
 62
7
  6
CONTINUOUS
 10
172.1488809295
 20
113.0341987933
  0
VERTEX
  8
0
 62
7
  6
CONTINUOUS
 10
172.1080386297
 20
113.0238513456
  0
VERTEX
  8
0
 62
7
  6
CONTINUOUS
 10
172.086731424
 20
113.0223747711
  0
SEQEND
  0
POLYLINE
  8
0
 62
7
  6
CONTINUOUS
 66
1
 70
0
  0
VERTEX
  8
0
 62
7
  6
CONTINUOUS
 10
172.289001365
 20
69.5331077646
  0
VERTEX
  8
0
 62
7
  6
CONTINUOUS
 10
172.2850663984
 20
69.823323033
  0
VERTEX
  8
0
 62
7
  6
CONTINUOUS
 10
172.2849309829
 20
69.899427939
  0
VERTEX
  8
0
 62
7
  6
CONTINUOUS
 10
172.2860707725
 20
69.9749259687
  0
VERTEX
  8
0
 62
7
  6
CONTINUOUS
 10
172.2886544371
 20
70.0495910932
  0
VERTEX
  8
0
 62
7
  6
CONTINUOUS
 10
172.292867689
 20
70.1232394422
  0
VERTEX
  8
0
 62
7
  6
CONTINUOUS
 10
172.2988806998
 20
70.1957166962
  0
VERTEX
  8
0
 62
7
  6
CONTINUOUS
 10
172.3068411639
 20
70.2667150508
  0
VERTEX
  8
0
 62
7
  6
CONTINUOUS
 10
172.3168878625
 20
70.3357370604
  0
VERTEX
  8
0
 62
7
  6
CONTINUOUS
 10
172.3291885742
 20
70.4028808676
  0
VERTEX
  8
0
 62
7
  6
CONTINUOUS
 10
172.3438899873
 20
70.4679397244
  0
VERTEX
  8
0
 62
7
  6
CONTINUOUS
 10
172.3612544712
 20
70.5304608294
  0
VERTEX
  8
0
 62
7
  6
CONTINUOUS
 10
172.3814442799
 20
70.5887885915
  0
VERTEX
  8
0
 62
7
  6
CONTINUOUS
 10
172.4052958022
 20
70.6435301322
  0
VERTEX
  8
0
 62
7
  6
CONTINUOUS
 10
172.4326635859
 20
70.6938905573
  0
VERTEX
  8
0
 62
7
  6
CONTINUOUS
 10
172.4628568835
 20
70.7384739749
  0
VERTEX
  8
0
 62
7
  6
CONTINUOUS
 10
172.4953791722
 20
70.7768195352
  0
VERTEX
  8
0
 62
7
  6
CONTINUOUS
 10
172.5303497585
 20
70.8091066264
  0
VERTEX
  8
0
 62
7
  6
CONTINUOUS
 10
172.5676387436
 20
70.8349348168
  0
VERTEX
  8
0
 62
7
  6
CONTINUOUS
 10
172.6072460883
 20
70.8535876487
  0
VERTEX
  8
0
 62
7
  6
CONTINUOUS
 10
172.648253123
 20
70.8635327572
  0
VERTEX
  8
0
 62
7
  6
CONTINUOUS
 10
172.6674307291
 20
70.8647571969
  0
SEQEND
  0
LINE
  8
0
 62
7
  6
CONTINUOUS
 10
172.2914434196
 20
69.2500935956
 11
172.289001365
 21
69.5331077646
  0
LINE
  8
0
 62
7
  6
CONTINUOUS
 10
172.4628717025
 20
114.6410142347
 11
172.4652876769
 21
114.3579924979
  0
LINE
  8
0
 62
7
  6
CONTINUOUS
 10
172.2914434196
 20
69.2500935956
 11
172.2919997965
 21
63.701992655
  0
LINE
  8
0
 62
7
  6
CONTINUOUS
 10
172.4623361102
 20
120.1851023603
 11
172.4628717025
 21
114.6410142347
  0
LINE
  8
0
 62
7
  6
CONTINUOUS
 10
172.4623954184
 20
120.1861843116
 11
172.4623361131
 21
120.1851643718
  0
LINE
  8
0
 62
7
  6
CONTINUOUS
 10
172.2919997964
 20
63.701960542
 11
172.2919404704
 21
63.7009525048
  0
POLYLINE
  8
0
 62
7
  6
CONTINUOUS
 66
1
 70
0
  0
VERTEX
  8
0
 62
7
  6
CONTINUOUS
 10
190.3226987795
 20
124.3823329981
  0
VERTEX
  8
0
 62
7
  6
CONTINUOUS
 10
190.1429155043
 20
123.9813837763
  0
VERTEX
  8
0
 62
7
  6
CONTINUOUS
 10
189.9678509661
 20
123.5157707355
  0
VERTEX
  8
0
 62
7
  6
CONTINUOUS
 10
189.8090825642
 20
123.014146255
  0
VERTEX
  8
0
 62
7
  6
CONTINUOUS
 10
189.6663778184
 20
122.4808100528
  0
VERTEX
  8
0
 62
7
  6
CONTINUOUS
 10
189.5396895849
 20
121.9204190311
  0
VERTEX
  8
0
 62
7
  6
CONTINUOUS
 10
189.4290020538
 20
121.3378082256
  0
VERTEX
  8
0
 62
7
  6
CONTINUOUS
 10
189.3342732025
 20
120.7379832987
  0
VERTEX
  8
0
 62
7
  6
CONTINUOUS
 10
189.2623953888
 20
120.1861901772
  0
SEQEND
  0
POLYLINE
  8
0
 62
7
  6
CONTINUOUS
 66
1
 70
0
  0
VERTEX
  8
0
 62
7
  6
CONTINUOUS
 10
155.4919404704
 20
63.7009525048
  0
VERTEX
  8
0
 62
7
  6
CONTINUOUS
 10
155.48612877
 20
63.6923556069
  0
VERTEX
  8
0
 62
7
  6
CONTINUOUS
 10
155.467042017
 20
63.6835622884
  0
VERTEX
  8
0
 62
7
  6
CONTINUOUS
 10
155.4358407699
 20
63.6768338457
  0
VERTEX
  8
0
 62
7
  6
CONTINUOUS
 10
155.3945222241
 20
63.6725141423
  0
VERTEX
  8
0
 62
7
  6
CONTINUOUS
 10
155.3458258779
 20
63.6707252557
  0
VERTEX
  8
0
 62
7
  6
CONTINUOUS
 10
155.2919997965
 20
63.671284943
  0
SEQEND
  0
POLYLINE
  8
0
 62
7
  6
CONTINUOUS
 66
1
 70
0
  0
VERTEX
  8
0
 62
7
  6
CONTINUOUS
 10
97.0674316853
 20
113.0223753767
  0
VERTEX
  8
0
 62
7
  6
CONTINUOUS
 10
97.0480712009
 20
113.0236223806
  0
VERTEX
  8
0
 62
7
  6
CONTINUOUS
 10
97.0072112083
 20
113.0335580577
  0
VERTEX
  8
0
 62
7
  6
CONTINUOUS
 10
96.967903193
 20
113.0520445149
  0
VERTEX
  8
0
 62
7
  6
CONTINUOUS
 10
96.9308975621
 20
113.0775857597
  0
VERTEX
  8
0
 62
7
  6
CONTINUOUS
 10
96.8960745758
 20
113.1095874512
  0
VERTEX
  8
0
 62
7
  6
CONTINUOUS
 10
96.8635067942
 20
113.1478038983
  0
VERTEX
  8
0
 62
7
  6
CONTINUOUS
 10
96.8330706452
 20
113.1925745368
  0
VERTEX
  8
0
 62
7
  6
CONTINUOUS
 10
96.8054804158
 20
113.2432257281
  0
VERTEX
  8
0
 62
7
  6
CONTINUOUS
 10
96.7814841981
 20
113.2982397919
  0
VERTEX
  8
0
 62
7
  6
CONTINUOUS
 10
96.7611917609
 20
113.3568843726
  0
VERTEX
  8
0
 62
7
  6
CONTINUOUS
 10
96.7437685425
 20
113.4196780371
  0
VERTEX
  8
0
 62
7
  6
CONTINUOUS
 10
96.729032688
 20
113.4850298158
  0
VERTEX
  8
0
 62
7
  6
CONTINUOUS
 10
96.7167224231
 20
113.5524087054
  0
VERTEX
  8
0
 62
7
  6
CONTINUOUS
 10
96.7066888662
 20
113.6216195813
  0
VERTEX
  8
0
 62
7
  6
CONTINUOUS
 10
96.6987526527
 20
113.6927504299
  0
VERTEX
  8
0
 62
7
  6
CONTINUOUS
 10
96.6927726479
 20
113.7652755995
  0
VERTEX
  8
0
 62
7
  6
CONTINUOUS
 10
96.6885948699
 20
113.8388833087
  0
VERTEX
  8
0
 62
7
  6
CONTINUOUS
 10
96.6860426119
 20
113.9134060931
  0
VERTEX
  8
0
 62
7
  6
CONTINUOUS
 10
96.6849258514
 20
113.9886436289
  0
VERTEX
  8
0
 62
7
  6
CONTINUOUS
 10
96.6850722494
 20
114.0643583558
  0
SEQEND
  0
POLYLINE
  8
0
 62
7
  6
CONTINUOUS
 66
1
 70
0
  0
VERTEX
  8
0
 62
7
  6
CONTINUOUS
 10
113.8674316853
 20
113.0223753767
  0
VERTEX
  8
0
 62
7
  6
CONTINUOUS
 10
113.8480712009
 20
113.0236223806
  0
VERTEX
  8
0
 62
7
  6
CONTINUOUS
 10
113.8072112083
 20
113.0335580577
  0
VERTEX
  8
0
 62
7
  6
CONTINUOUS
 10
113.767903193
 20
113.0520445149
  0
VERTEX
  8
0
 62
7
  6
CONTINUOUS
 10
113.7308975621
 20
113.0775857597
  0
VERTEX
  8
0
 62
7
  6
CONTINUOUS
 10
113.6960745758
 20
113.1095874512
  0
VERTEX
  8
0
 62
7
  6
CONTINUOUS
 10
113.6635067942
 20
113.1478038983
  0
VERTEX
  8
0
 62
7
  6
CONTINUOUS
 10
113.6330706452
 20
113.1925745368
  0
VERTEX
  8
0
 62
7
  6
CONTINUOUS
 10
113.6054804158
 20
113.2432257281
  0
VERTEX
  8
0
 62
7
  6
CONTINUOUS
 10
113.5814841981
 20
113.2982397919
  0
VERTEX
  8
0
 62
7
  6
CONTINUOUS
 10
113.5611917609
 20
113.3568843726
  0
VERTEX
  8
0
 62
7
  6
CONTINUOUS
 10
113.5437685425
 20
113.4196780371
  0
VERTEX
  8
0
 62
7
  6
CONTINUOUS
 10
113.529032688
 20
113.4850298158
  0
VERTEX
  8
0
 62
7
  6
CONTINUOUS
 10
113.5167224231
 20
113.5524087054
  0
VERTEX
  8
0
 62
7
  6
CONTINUOUS
 10
113.5066888662
 20
113.6216195813
  0
VERTEX
  8
0
 62
7
  6
CONTINUOUS
 10
113.4987526527
 20
113.6927504299
  0
VERTEX
  8
0
 62
7
  6
CONTINUOUS
 10
113.4927726479
 20
113.7652755995
  0
VERTEX
  8
0
 62
7
  6
CONTINUOUS
 10
113.4885948699
 20
113.8388833087
  0
VERTEX
  8
0
 62
7
  6
CONTINUOUS
 10
113.4860426119
 20
113.9134060931
  0
VERTEX
  8
0
 62
7
  6
CONTINUOUS
 10
113.4849258514
 20
113.9886436289
  0
VERTEX
  8
0
 62
7
  6
CONTINUOUS
 10
113.4850722494
 20
114.0643583558
  0
SEQEND
  0
LINE
  8
0
 62
7
  6
CONTINUOUS
 10
180.862395415
 20
63.7009482492
 11
180.8623361131
 21
63.7019681608
  0
POLYLINE
  8
0
 62
7
  6
CONTINUOUS
 66
1
 70
0
  0
VERTEX
  8
0
 62
7
  6
CONTINUOUS
 10
180.6850722494
 20
114.0643583558
  0
VERTEX
  8
0
 62
7
  6
CONTINUOUS
 10
180.689001768
 20
114.3540286115
  0
VERTEX
  8
0
 62
7
  6
CONTINUOUS
 10
180.6914435118
 20
114.6370408129
  0
VERTEX
  8
0
 62
7
  6
CONTINUOUS
 10
180.6919997965
 20
120.1851023603
  0
SEQEND
  0
POLYLINE
  8
0
 62
7
  6
CONTINUOUS
 66
1
 70
0
  0
VERTEX
  8
0
 62
7
  6
CONTINUOUS
 10
180.8692273231
 20
69.8191164851
  0
VERTEX
  8
0
 62
7
  6
CONTINUOUS
 10
180.8652876772
 20
69.529139984
  0
VERTEX
  8
0
 62
7
  6
CONTINUOUS
 10
180.8628717027
 20
69.2461183235
  0
VERTEX
  8
0
 62
7
  6
CONTINUOUS
 10
180.8623361102
 20
63.7020301723
  0
SEQEND
  0
LINE
  8
0
 62
7
  6
CONTINUOUS
 10
171.2197958671
 20
59.4091351546
 11
171.2356982415
 21
59.5138606996
  0
LINE
  8
0
 62
6
  6
CONTINUOUS
 10
222.4879100538
 20
112.7724529099
 11
222.4078001864
 21
112.7721766817
  0
LINE
  8
0
 62
6
  6
CONTINUOUS
 10
222.4879100555
 20
112.8995269968
 11
222.4078001864
 21
112.8992571671
  0
LINE
  8
0
 62
7
  6
CONTINUOUS
 10
222.4867315118
 20
113.0224049317
 11
214.7465363107
 21
113.0221766815
  0
LINE
  8
0
 62
7
  6
CONTINUOUS
 10
205.6867315118
 20
113.0224049317
 11
197.9465363107
 21
113.0221766815
  0
LINE
  8
0
 62
7
  6
CONTINUOUS
 10
188.8867315118
 20
113.0224049317
 11
181.1465363107
 21
113.0221766815
  0
LINE
  8
0
 62
7
  6
CONTINUOUS
 10
172.0867315118
 20
113.0224049317
 11
164.3465363107
 21
113.0221766815
  0
LINE
  8
0
 62
7
  6
CONTINUOUS
 10
155.2867315118
 20
113.0224049317
 11
147.5465363107
 21
113.0221766815
  0
LINE
  8
0
 62
7
  6
CONTINUOUS
 10
138.4867315118
 20
113.0224049317
 11
130.7465363107
 21
113.0221766815
  0
LINE
  8
0
 62
7
  6
CONTINUOUS
 10
121.6867315118
 20
113.0224049317
 11
113.9465363107
 21
113.0221766815
  0
LINE
  8
0
 62
7
  6
CONTINUOUS
 10
104.8867315118
 20
113.0224049317
 11
97.1465363107
 21
113.0221766815
  0
LINE
  8
0
 62
7
  6
CONTINUOUS
 10
88.0867315118
 20
113.0224049317
 11
80.2771679533
 21
113.0221766815
  0
LINE
  8
DEFAULT_1
 62
2
  6
CENTER
 10
77.8771679533
 20
117.3435662663
 11
233.2771679533
 21
117.3435662663
  0
LINE
  8
0
 62
7
  6
CONTINUOUS
 10
97.1465363113
 20
113.0221766815
 11
97.0674319314
 21
113.022375163
  0
LINE
  8
0
 62
7
  6
CONTINUOUS
 10
113.9465363113
 20
113.0221766815
 11
113.8674319314
 21
113.022375163
  0
LINE
  8
0
 62
7
  6
CONTINUOUS
 10
130.7465363113
 20
113.0221766815
 11
130.6674319314
 21
113.022375163
  0
LINE
  8
0
 62
7
  6
CONTINUOUS
 10
147.5465363113
 20
113.0221766815
 11
147.4674319314
 21
113.022375163
  0
LINE
  8
0
 62
7
  6
CONTINUOUS
 10
164.3465363113
 20
113.0221766815
 11
164.2674319314
 21
113.022375163
  0
LINE
  8
0
 62
7
  6
CONTINUOUS
 10
181.1465363113
 20
113.0221766815
 11
181.0674319314
 21
113.022375163
  0
LINE
  8
0
 62
7
  6
CONTINUOUS
 10
197.9465363113
 20
113.0221766815
 11
197.8674319314
 21
113.022375163
  0
LINE
  8
0
 62
7
  6
CONTINUOUS
 10
214.7465363113
 20
113.0221766815
 11
214.6674319314
 21
113.022375163
  0
POLYLINE
  8
0
 62
7
  6
CONTINUOUS
 66
1
 70
0
  0
VERTEX
  8
0
 62
7
  6
CONTINUOUS
 10
130.6674316853
 20
113.0223753767
  0
VERTEX
  8
0
 62
7
  6
CONTINUOUS
 10
130.6480712009
 20
113.0236223806
  0
VERTEX
  8
0
 62
7
  6
CONTINUOUS
 10
130.6072112083
 20
113.0335580577
  0
VERTEX
  8
0
 62
7
  6
CONTINUOUS
 10
130.567903193
 20
113.0520445149
  0
VERTEX
  8
0
 62
7
  6
CONTINUOUS
 10
130.5308975621
 20
113.0775857597
  0
VERTEX
  8
0
 62
7
  6
CONTINUOUS
 10
130.4960745758
 20
113.1095874512
  0
VERTEX
  8
0
 62
7
  6
CONTINUOUS
 10
130.4635067942
 20
113.1478038983
  0
VERTEX
  8
0
 62
7
  6
CONTINUOUS
 10
130.4330706452
 20
113.1925745368
  0
VERTEX
  8
0
 62
7
  6
CONTINUOUS
 10
130.4054804158
 20
113.2432257281
  0
VERTEX
  8
0
 62
7
  6
CONTINUOUS
 10
130.3814841981
 20
113.2982397919
  0
VERTEX
  8
0
 62
7
  6
CONTINUOUS
 10
130.3611917609
 20
113.3568843726
  0
VERTEX
  8
0
 62
7
  6
CONTINUOUS
 10
130.3437685425
 20
113.4196780371
  0
VERTEX
  8
0
 62
7
  6
CONTINUOUS
 10
130.329032688
 20
113.4850298158
  0
VERTEX
  8
0
 62
7
  6
CONTINUOUS
 10
130.3167224231
 20
113.5524087054
  0
VERTEX
  8
0
 62
7
  6
CONTINUOUS
 10
130.3066888662
 20
113.6216195813
  0
VERTEX
  8
0
 62
7
  6
CONTINUOUS
 10
130.2987526527
 20
113.6927504299
  0
VERTEX
  8
0
 62
7
  6
CONTINUOUS
 10
130.2927726479
 20
113.7652755995
  0
VERTEX
  8
0
 62
7
  6
CONTINUOUS
 10
130.2885948699
 20
113.8388833087
  0
VERTEX
  8
0
 62
7
  6
CONTINUOUS
 10
130.2860426119
 20
113.9134060931
  0
VERTEX
  8
0
 62
7
  6
CONTINUOUS
 10
130.2849258514
 20
113.9886436289
  0
VERTEX
  8
0
 62
7
  6
CONTINUOUS
 10
130.2850722494
 20
114.0643583558
  0
SEQEND
  0
POLYLINE
  8
0
 62
7
  6
CONTINUOUS
 66
1
 70
0
  0
VERTEX
  8
0
 62
7
  6
CONTINUOUS
 10
147.4674316853
 20
113.0223753767
  0
VERTEX
  8
0
 62
7
  6
CONTINUOUS
 10
147.4480712009
 20
113.0236223806
  0
VERTEX
  8
0
 62
7
  6
CONTINUOUS
 10
147.4072112083
 20
113.0335580577
  0
VERTEX
  8
0
 62
7
  6
CONTINUOUS
 10
147.367903193
 20
113.0520445149
  0
VERTEX
  8
0
 62
7
  6
CONTINUOUS
 10
147.3308975621
 20
113.0775857597
  0
VERTEX
  8
0
 62
7
  6
CONTINUOUS
 10
147.2960745758
 20
113.1095874512
  0
VERTEX
  8
0
 62
7
  6
CONTINUOUS
 10
147.2635067942
 20
113.1478038983
  0
VERTEX
  8
0
 62
7
  6
CONTINUOUS
 10
147.2330706452
 20
113.1925745368
  0
VERTEX
  8
0
 62
7
  6
CONTINUOUS
 10
147.2054804158
 20
113.2432257281
  0
VERTEX
  8
0
 62
7
  6
CONTINUOUS
 10
147.1814841981
 20
113.2982397919
  0
VERTEX
  8
0
 62
7
  6
CONTINUOUS
 10
147.1611917609
 20
113.3568843726
  0
VERTEX
  8
0
 62
7
  6
CONTINUOUS
 10
147.1437685425
 20
113.4196780371
  0
VERTEX
  8
0
 62
7
  6
CONTINUOUS
 10
147.129032688
 20
113.4850298158
  0
VERTEX
  8
0
 62
7
  6
CONTINUOUS
 10
147.1167224231
 20
113.5524087054
  0
VERTEX
  8
0
 62
7
  6
CONTINUOUS
 10
147.1066888662
 20
113.6216195813
  0
VERTEX
  8
0
 62
7
  6
CONTINUOUS
 10
147.0987526527
 20
113.6927504299
  0
VERTEX
  8
0
 62
7
  6
CONTINUOUS
 10
147.0927726479
 20
113.7652755995
  0
VERTEX
  8
0
 62
7
  6
CONTINUOUS
 10
147.0885948699
 20
113.8388833087
  0
VERTEX
  8
0
 62
7
  6
CONTINUOUS
 10
147.0860426119
 20
113.9134060931
  0
VERTEX
  8
0
 62
7
  6
CONTINUOUS
 10
147.0849258514
 20
113.9886436289
  0
VERTEX
  8
0
 62
7
  6
CONTINUOUS
 10
147.0850722494
 20
114.0643583558
  0
SEQEND
  0
POLYLINE
  8
0
 62
7
  6
CONTINUOUS
 66
1
 70
0
  0
VERTEX
  8
0
 62
7
  6
CONTINUOUS
 10
164.2674316853
 20
113.0223753767
  0
VERTEX
  8
0
 62
7
  6
CONTINUOUS
 10
164.2480712009
 20
113.0236223806
  0
VERTEX
  8
0
 62
7
  6
CONTINUOUS
 10
164.2072112083
 20
113.0335580577
  0
VERTEX
  8
0
 62
7
  6
CONTINUOUS
 10
164.167903193
 20
113.0520445149
  0
VERTEX
  8
0
 62
7
  6
CONTINUOUS
 10
164.1308975621
 20
113.0775857597
  0
VERTEX
  8
0
 62
7
  6
CONTINUOUS
 10
164.0960745758
 20
113.1095874512
  0
VERTEX
  8
0
 62
7
  6
CONTINUOUS
 10
164.0635067942
 20
113.1478038983
  0
VERTEX
  8
0
 62
7
  6
CONTINUOUS
 10
164.0330706452
 20
113.1925745368
  0
VERTEX
  8
0
 62
7
  6
CONTINUOUS
 10
164.0054804158
 20
113.2432257281
  0
VERTEX
  8
0
 62
7
  6
CONTINUOUS
 10
163.9814841981
 20
113.2982397919
  0
VERTEX
  8
0
 62
7
  6
CONTINUOUS
 10
163.9611917609
 20
113.3568843726
  0
VERTEX
  8
0
 62
7
  6
CONTINUOUS
 10
163.9437685425
 20
113.4196780371
  0
VERTEX
  8
0
 62
7
  6
CONTINUOUS
 10
163.929032688
 20
113.4850298158
  0
VERTEX
  8
0
 62
7
  6
CONTINUOUS
 10
163.9167224231
 20
113.5524087054
  0
VERTEX
  8
0
 62
7
  6
CONTINUOUS
 10
163.9066888662
 20
113.6216195813
  0
VERTEX
  8
0
 62
7
  6
CONTINUOUS
 10
163.8987526527
 20
113.6927504299
  0
VERTEX
  8
0
 62
7
  6
CONTINUOUS
 10
163.8927726479
 20
113.7652755995
  0
VERTEX
  8
0
 62
7
  6
CONTINUOUS
 10
163.8885948699
 20
113.8388833087
  0
VERTEX
  8
0
 62
7
  6
CONTINUOUS
 10
163.8860426119
 20
113.9134060931
  0
VERTEX
  8
0
 62
7
  6
CONTINUOUS
 10
163.8849258514
 20
113.9886436289
  0
VERTEX
  8
0
 62
7
  6
CONTINUOUS
 10
163.8850722494
 20
114.0643583558
  0
SEQEND
  0
POLYLINE
  8
0
 62
7
  6
CONTINUOUS
 66
1
 70
0
  0
VERTEX
  8
0
 62
7
  6
CONTINUOUS
 10
181.0674316853
 20
113.0223753767
  0
VERTEX
  8
0
 62
7
  6
CONTINUOUS
 10
181.0480712009
 20
113.0236223806
  0
VERTEX
  8
0
 62
7
  6
CONTINUOUS
 10
181.0072112083
 20
113.0335580577
  0
VERTEX
  8
0
 62
7
  6
CONTINUOUS
 10
180.967903193
 20
113.0520445149
  0
VERTEX
  8
0
 62
7
  6
CONTINUOUS
 10
180.9308975621
 20
113.0775857597
  0
VERTEX
  8
0
 62
7
  6
CONTINUOUS
 10
180.8960745758
 20
113.1095874512
  0
VERTEX
  8
0
 62
7
  6
CONTINUOUS
 10
180.8635067942
 20
113.1478038983
  0
VERTEX
  8
0
 62
7
  6
CONTINUOUS
 10
180.8330706452
 20
113.1925745368
  0
VERTEX
  8
0
 62
7
  6
CONTINUOUS
 10
180.8054804158
 20
113.2432257281
  0
VERTEX
  8
0
 62
7
  6
CONTINUOUS
 10
180.7814841981
 20
113.2982397919
  0
VERTEX
  8
0
 62
7
  6
CONTINUOUS
 10
180.7611917609
 20
113.3568843726
  0
VERTEX
  8
0
 62
7
  6
CONTINUOUS
 10
180.7437685425
 20
113.4196780371
  0
VERTEX
  8
0
 62
7
  6
CONTINUOUS
 10
180.729032688
 20
113.4850298158
  0
VERTEX
  8
0
 62
7
  6
CONTINUOUS
 10
180.7167224231
 20
113.5524087054
  0
VERTEX
  8
0
 62
7
  6
CONTINUOUS
 10
180.7066888662
 20
113.6216195813
  0
VERTEX
  8
0
 62
7
  6
CONTINUOUS
 10
180.6987526527
 20
113.6927504299
  0
VERTEX
  8
0
 62
7
  6
CONTINUOUS
 10
180.6927726479
 20
113.7652755995
  0
VERTEX
  8
0
 62
7
  6
CONTINUOUS
 10
180.6885948699
 20
113.8388833087
  0
VERTEX
  8
0
 62
7
  6
CONTINUOUS
 10
180.6860426119
 20
113.9134060931
  0
VERTEX
  8
0
 62
7
  6
CONTINUOUS
 10
180.6849258514
 20
113.9886436289
  0
VERTEX
  8
0
 62
7
  6
CONTINUOUS
 10
180.6850722494
 20
114.0643583558
  0
SEQEND
  0
POLYLINE
  8
0
 62
7
  6
CONTINUOUS
 66
1
 70
0
  0
VERTEX
  8
0
 62
7
  6
CONTINUOUS
 10
197.8674316853
 20
113.0223753767
  0
VERTEX
  8
0
 62
7
  6
CONTINUOUS
 10
197.8480712009
 20
113.0236223806
  0
VERTEX
  8
0
 62
7
  6
CONTINUOUS
 10
197.8072112083
 20
113.0335580577
  0
VERTEX
  8
0
 62
7
  6
CONTINUOUS
 10
197.767903193
 20
113.0520445149
  0
VERTEX
  8
0
 62
7
  6
CONTINUOUS
 10
197.7308975621
 20
113.0775857597
  0
VERTEX
  8
0
 62
7
  6
CONTINUOUS
 10
197.6960745758
 20
113.1095874512
  0
VERTEX
  8
0
 62
7
  6
CONTINUOUS
 10
197.6635067942
 20
113.1478038983
  0
VERTEX
  8
0
 62
7
  6
CONTINUOUS
 10
197.6330706452
 20
113.1925745368
  0
VERTEX
  8
0
 62
7
  6
CONTINUOUS
 10
197.6054804158
 20
113.2432257281
  0
VERTEX
  8
0
 62
7
  6
CONTINUOUS
 10
197.5814841981
 20
113.2982397919
  0
VERTEX
  8
0
 62
7
  6
CONTINUOUS
 10
197.5611917609
 20
113.3568843726
  0
VERTEX
  8
0
 62
7
  6
CONTINUOUS
 10
197.5437685425
 20
113.4196780371
  0
VERTEX
  8
0
 62
7
  6
CONTINUOUS
 10
197.529032688
 20
113.4850298158
  0
VERTEX
  8
0
 62
7
  6
CONTINUOUS
 10
197.5167224231
 20
113.5524087054
  0
VERTEX
  8
0
 62
7
  6
CONTINUOUS
 10
197.5066888662
 20
113.6216195813
  0
VERTEX
  8
0
 62
7
  6
CONTINUOUS
 10
197.4987526527
 20
113.6927504299
  0
VERTEX
  8
0
 62
7
  6
CONTINUOUS
 10
197.4927726479
 20
113.7652755995
  0
VERTEX
  8
0
 62
7
  6
CONTINUOUS
 10
197.4885948699
 20
113.8388833087
  0
VERTEX
  8
0
 62
7
  6
CONTINUOUS
 10
197.4860426119
 20
113.9134060931
  0
VERTEX
  8
0
 62
7
  6
CONTINUOUS
 10
197.4849258514
 20
113.9886436289
  0
VERTEX
  8
0
 62
7
  6
CONTINUOUS
 10
197.4850722494
 20
114.0643583558
  0
SEQEND
  0
POLYLINE
  8
0
 62
7
  6
CONTINUOUS
 66
1
 70
0
  0
VERTEX
  8
0
 62
7
  6
CONTINUOUS
 10
214.6674316853
 20
113.0223753767
  0
VERTEX
  8
0
 62
7
  6
CONTINUOUS
 10
214.6480712009
 20
113.0236223806
  0
VERTEX
  8
0
 62
7
  6
CONTINUOUS
 10
214.6072112083
 20
113.0335580577
  0
VERTEX
  8
0
 62
7
  6
CONTINUOUS
 10
214.567903193
 20
113.0520445149
  0
VERTEX
  8
0
 62
7
  6
CONTINUOUS
 10
214.5308975621
 20
113.0775857597
  0
VERTEX
  8
0
 62
7
  6
CONTINUOUS
 10
214.4960745758
 20
113.1095874512
  0
VERTEX
  8
0
 62
7
  6
CONTINUOUS
 10
214.4635067942
 20
113.1478038983
  0
VERTEX
  8
0
 62
7
  6
CONTINUOUS
 10
214.4330706452
 20
113.1925745368
  0
VERTEX
  8
0
 62
7
  6
CONTINUOUS
 10
214.4054804158
 20
113.2432257281
  0
VERTEX
  8
0
 62
7
  6
CONTINUOUS
 10
214.3814841981
 20
113.2982397919
  0
VERTEX
  8
0
 62
7
  6
CONTINUOUS
 10
214.3611917609
 20
113.3568843726
  0
VERTEX
  8
0
 62
7
  6
CONTINUOUS
 10
214.3437685425
 20
113.4196780371
  0
VERTEX
  8
0
 62
7
  6
CONTINUOUS
 10
214.329032688
 20
113.4850298158
  0
VERTEX
  8
0
 62
7
  6
CONTINUOUS
 10
214.3167224231
 20
113.5524087054
  0
VERTEX
  8
0
 62
7
  6
CONTINUOUS
 10
214.3066888662
 20
113.6216195813
  0
VERTEX
  8
0
 62
7
  6
CONTINUOUS
 10
214.2987526527
 20
113.6927504299
  0
VERTEX
  8
0
 62
7
  6
CONTINUOUS
 10
214.2927726479
 20
113.7652755995
  0
VERTEX
  8
0
 62
7
  6
CONTINUOUS
 10
214.2885948699
 20
113.8388833087
  0
VERTEX
  8
0
 62
7
  6
CONTINUOUS
 10
214.2860426119
 20
113.9134060931
  0
VERTEX
  8
0
 62
7
  6
CONTINUOUS
 10
214.2849258514
 20
113.9886436289
  0
VERTEX
  8
0
 62
7
  6
CONTINUOUS
 10
214.2850722494
 20
114.0643583558
  0
SEQEND
  0
LINE
  8
0
 62
7
  6
CONTINUOUS
 10
163.0114204024
 20
123.9813837763
 11
162.8316371272
 21
124.3823329981
  0
POLYLINE
  8
0
 62
7
  6
CONTINUOUS
 66
1
 70
0
  0
VERTEX
  8
0
 62
7
  6
CONTINUOUS
 10
181.9345388174
 20
59.4091429936
  0
VERTEX
  8
0
 62
7
  6
CONTINUOUS
 10
181.9624219376
 20
59.2403679866
  0
VERTEX
  8
0
 62
7
  6
CONTINUOUS
 10
181.993470598
 20
59.0747859945
  0
VERTEX
  8
0
 62
7
  6
CONTINUOUS
 10
182.0245226916
 20
58.9307543017
  0
VERTEX
  8
0
 62
7
  6
CONTINUOUS
 10
182.0560412491
 20
58.8046318779
  0
VERTEX
  8
0
 62
7
  6
CONTINUOUS
 10
182.0888042895
 20
58.6928056854
  0
VERTEX
  8
0
 62
7
  6
CONTINUOUS
 10
182.1241763424
 20
58.5914167367
  0
VERTEX
  8
0
 62
7
  6
CONTINUOUS
 10
182.1645647921
 20
58.4962555808
  0
VERTEX
  8
0
 62
7
  6
CONTINUOUS
 10
182.2136926849
 20
58.4037611236
  0
VERTEX
  8
0
 62
7
  6
CONTINUOUS
 10
182.2770877684
 20
58.3117059085
  0
VERTEX
  8
0
 62
7
  6
CONTINUOUS
 10
182.3612050497
 20
58.2215702844
  0
VERTEX
  8
0
 62
7
  6
CONTINUOUS
 10
182.4696197388
 20
58.1408523169
  0
VERTEX
  8
0
 62
7
  6
CONTINUOUS
 10
182.6004131407
 20
58.0799613126
  0
VERTEX
  8
0
 62
7
  6
CONTINUOUS
 10
182.7459366383
 20
58.0476366704
  0
VERTEX
  8
0
 62
7
  6
CONTINUOUS
 10
182.8210101577
 20
58.0435663895
  0
SEQEND
  0
LINE
  8
0
 62
7
  6
CONTINUOUS
 10
181.9186376652
 20
59.5138606992
 11
181.9345400395
 21
59.4091351546
  0
POLYLINE
  8
0
 62
7
  6
CONTINUOUS
 66
1
 70
0
  0
VERTEX
  8
0
 62
7
  6
CONTINUOUS
 10
180.8623953854
 20
63.7009423835
  0
VERTEX
  8
0
 62
7
  6
CONTINUOUS
 10
180.9337726405
 20
63.1526510011
  0
VERTEX
  8
0
 62
7
  6
CONTINUOUS
 10
181.0284221019
 20
62.5526695856
  0
VERTEX
  8
0
 62
7
  6
CONTINUOUS
 10
181.1390327067
 20
61.9698826212
  0
VERTEX
  8
0
 62
7
  6
CONTINUOUS
 10
181.2656465929
 20
61.4092969549
  0
VERTEX
  8
0
 62
7
  6
CONTINUOUS
 10
181.4082793473
 20
60.8757492766
  0
VERTEX
  8
0
 62
7
  6
CONTINUOUS
 10
181.5669772715
 20
60.3738988985
  0
VERTEX
  8
0
 62
7
  6
CONTINUOUS
 10
181.7419710531
 20
59.9080482931
  0
SEQEND
  0
LINE
  8
0
 62
7
  6
CONTINUOUS
 10
180.6919404883
 20
120.1861843116
 11
180.6919997935
 21
120.1851643718
  0
LINE
  8
0
 62
7
  6
CONTINUOUS
 10
190.3345401751
 20
124.4779982479
 11
190.3186353906
 21
124.3732709059
  0
POLYLINE
  8
0
 62
7
  6
CONTINUOUS
 66
1
 70
0
  0
VERTEX
  8
0
 62
7
  6
CONTINUOUS
 10
171.2316381703
 20
59.5048016606
  0
VERTEX
  8
0
 62
7
  6
CONTINUOUS
 10
171.4123648974
 20
59.9080484001
  0
VERTEX
  8
0
 62
7
  6
CONTINUOUS
 10
171.5873587153
 20
60.3738991313
  0
VERTEX
  8
0
 62
7
  6
CONTINUOUS
 10
171.7460566683
 20
60.8757496514
  0
VERTEX
  8
0
 62
7
  6
CONTINUOUS
 10
171.888689444
 20
61.4092974848
  0
VERTEX
  8
0
 62
7
  6
CONTINUOUS
 10
172.0153033438
 20
61.9698833156
  0
VERTEX
  8
0
 62
7
  6
CONTINUOUS
 10
172.1259139547
 20
62.5526704506
  0
VERTEX
  8
0
 62
7
  6
CONTINUOUS
 10
172.2205634144
 20
63.152652039
  0
VERTEX
  8
0
 62
7
  6
CONTINUOUS
 10
172.2919405212
 20
63.7009423835
  0
SEQEND
  0
POLYLINE
  8
0
 62
7
  6
CONTINUOUS
 66
1
 70
0
  0
VERTEX
  8
0
 62
7
  6
CONTINUOUS
 10
172.2919404704
 20
63.7009525048
  0
VERTEX
  8
0
 62
7
  6
CONTINUOUS
 10
172.28612877
 20
63.6923556069
  0
VERTEX
  8
0
 62
7
  6
CONTINUOUS
 10
172.267042017
 20
63.6835622884
  0
VERTEX
  8
0
 62
7
  6
CONTINUOUS
 10
172.2358407699
 20
63.6768338457
  0
VERTEX
  8
0
 62
7
  6
CONTINUOUS
 10
172.1945222241
 20
63.6725141423
  0
VERTEX
  8
0
 62
7
  6
CONTINUOUS
 10
172.1458258779
 20
63.6707252557
  0
VERTEX
  8
0
 62
7
  6
CONTINUOUS
 10
172.0919997965
 20
63.671284943
  0
SEQEND
  0
POLYLINE
  8
0
 62
7
  6
CONTINUOUS
 66
1
 70
0
  0
VERTEX
  8
0
 62
7
  6
CONTINUOUS
 10
208.0210097776
 20
125.8435661436
  0
VERTEX
  8
0
 62
7
  6
CONTINUOUS
 10
207.9460536831
 20
125.839508639
  0
VERTEX
  8
0
 62
7
  6
CONTINUOUS
 10
207.8006351415
 20
125.8072469342
  0
VERTEX
  8
0
 62
7
  6
CONTINUOUS
 10
207.6699084186
 20
125.7464540074
  0
VERTEX
  8
0
 62
7
  6
CONTINUOUS
 10
207.5615111914
 20
125.6658395404
  0
VERTEX
  8
0
 62
7
  6
CONTINUOUS
 10
207.4773744999
 20
125.5757883085
  0
VERTEX
  8
0
 62
7
  6
CONTINUOUS
 10
207.4139498914
 20
125.4838003914
  0
VERTEX
  8
0
 62
7
  6
CONTINUOUS
 10
207.3648005651
 20
125.3913766422
  0
VERTEX
  8
0
 62
7
  6
CONTINUOUS
 10
207.3244020971
 20
125.296304886
  0
VERTEX
  8
0
 62
7
  6
CONTINUOUS
 10
207.2890297269
 20
125.1950335741
  0
VERTEX
  8
0
 62
7
  6
CONTINUOUS
 10
207.2562729527
 20
125.083357869
  0
VERTEX
  8
0
 62
7
  6
CONTINUOUS
 10
207.2247646985
 20
124.9574211537
  0
VERTEX
  8
0
 62
7
  6
CONTINUOUS
 10
207.1937252101
 20
124.8136125439
  0
VERTEX
  8
0
 62
7
  6
CONTINUOUS
 10
207.1626902355
 20
124.648293457
  0
VERTEX
  8
0
 62
7
  6
CONTINUOUS
 10
207.1345389241
 20
124.4779902234
  0
SEQEND
  0
POLYLINE
  8
0
 62
7
  6
CONTINUOUS
 66
1
 70
0
  0
VERTEX
  8
0
 62
7
  6
CONTINUOUS
 10
224.8210023107
 20
125.8435661532
  0
VERTEX
  8
0
 62
7
  6
CONTINUOUS
 10
224.7548166053
 20
125.8404074966
  0
VERTEX
  8
0
 62
7
  6
CONTINUOUS
 10
224.6171404934
 20
125.8126371742
  0
VERTEX
  8
0
 62
7
  6
CONTINUOUS
 10
224.4925547788
 20
125.7594959464
  0
VERTEX
  8
0
 62
7
  6
CONTINUOUS
 10
224.3831928242
 20
125.6846866689
  0
VERTEX
  8
0
 62
7
  6
CONTINUOUS
 10
224.2918074349
 20
125.5934519619
  0
VERTEX
  8
0
 62
7
  6
CONTINUOUS
 10
224.2222687385
 20
125.4974020925
  0
VERTEX
  8
0
 62
7
  6
CONTINUOUS
 10
224.1693941562
 20
125.4009944151
  0
VERTEX
  8
0
 62
7
  6
CONTINUOUS
 10
224.12642192
 20
125.3015447828
  0
VERTEX
  8
0
 62
7
  6
CONTINUOUS
 10
224.0890224272
 20
125.1950107028
  0
VERTEX
  8
0
 62
7
  6
CONTINUOUS
 10
224.0548237455
 20
125.0779801583
  0
VERTEX
  8
0
 62
7
  6
CONTINUOUS
 10
224.0224956003
 20
124.9475956027
  0
VERTEX
  8
0
 62
7
  6
CONTINUOUS
 10
223.9913208506
 20
124.8015994774
  0
VERTEX
  8
0
 62
7
  6
CONTINUOUS
 10
223.9609875932
 20
124.6385609162
  0
VERTEX
  8
0
 62
7
  6
CONTINUOUS
 10
223.9345383176
 20
124.4779863323
  0
SEQEND
  0
POLYLINE
  8
0
 62
6
  6
CONTINUOUS
 66
1
 70
0
  0
VERTEX
  8
0
 62
6
  6
CONTINUOUS
 10
225.8004262359
 20
120.2158007228
  0
VERTEX
  8
0
 62
6
  6
CONTINUOUS
 10
225.6133593826
 20
120.2098077798
  0
VERTEX
  8
0
 62
6
  6
CONTINUOUS
 10
225.43340473
 20
120.1983993531
  0
VERTEX
  8
0
 62
6
  6
CONTINUOUS
 10
225.2667842399
 20
120.1821165275
  0
VERTEX
  8
0
 62
6
  6
CONTINUOUS
 10
225.1191758315
 20
120.1616159452
  0
VERTEX
  8
0
 62
6
  6
CONTINUOUS
 10
224.9955165426
 20
120.1376635702
  0
VERTEX
  8
0
 62
6
  6
CONTINUOUS
 10
224.8998498055
 20
120.1111225842
  0
VERTEX
  8
0
 62
6
  6
CONTINUOUS
 10
224.8352183716
 20
120.0829370503
  0
VERTEX
  8
0
 62
6
  6
CONTINUOUS
 10
224.8036055021
 20
120.054113865
  0
SEQEND
  0
POLYLINE
  8
0
 62
7
  6
CONTINUOUS
 66
1
 70
0
  0
VERTEX
  8
0
 62
7
  6
CONTINUOUS
 10
214.0919997965
 20
120.2158475896
  0
VERTEX
  8
0
 62
7
  6
CONTINUOUS
 10
214.1390284684
 20
120.2164595422
  0
VERTEX
  8
0
 62
7
  6
CONTINUOUS
 10
214.1825508095
 20
120.2153205214
  0
VERTEX
  8
0
 62
7
  6
CONTINUOUS
 10
214.2212022581
 20
120.2122355487
  0
VERTEX
  8
0
 62
7
  6
CONTINUOUS
 10
214.2528506817
 20
120.2072184143
  0
VERTEX
  8
0
 62
7
  6
CONTINUOUS
 10
214.2758011958
 20
120.2004483985
  0
VERTEX
  8
0
 62
7
  6
CONTINUOUS
 10
214.2889268777
 20
120.1922337247
  0
VERTEX
  8
0
 62
7
  6
CONTINUOUS
 10
214.2919404883
 20
120.1861843116
  0
SEQEND
  0
POLYLINE
  8
0
 62
7
  6
CONTINUOUS
 66
1
 70
0
  0
VERTEX
  8
0
 62
7
  6
CONTINUOUS
 10
197.2919997965
 20
120.2158475896
  0
VERTEX
  8
0
 62
7
  6
CONTINUOUS
 10
197.3390284684
 20
120.2164595422
  0
VERTEX
  8
0
 62
7
  6
CONTINUOUS
 10
197.3825508095
 20
120.2153205214
  0
VERTEX
  8
0
 62
7
  6
CONTINUOUS
 10
197.4212022581
 20
120.2122355487
  0
VERTEX
  8
0
 62
7
  6
CONTINUOUS
 10
197.4528506817
 20
120.2072184143
  0
VERTEX
  8
0
 62
7
  6
CONTINUOUS
 10
197.4758011958
 20
120.2004483985
  0
VERTEX
  8
0
 62
7
  6
CONTINUOUS
 10
197.4889268777
 20
120.1922337247
  0
VERTEX
  8
0
 62
7
  6
CONTINUOUS
 10
197.4919404883
 20
120.1861843116
  0
SEQEND
  0
POLYLINE
  8
0
 62
7
  6
CONTINUOUS
 66
1
 70
0
  0
VERTEX
  8
0
 62
7
  6
CONTINUOUS
 10
180.4919997965
 20
120.2158475896
  0
VERTEX
  8
0
 62
7
  6
CONTINUOUS
 10
180.5390284684
 20
120.2164595422
  0
VERTEX
  8
0
 62
7
  6
CONTINUOUS
 10
180.5825508095
 20
120.2153205214
  0
VERTEX
  8
0
 62
7
  6
CONTINUOUS
 10
180.6212022581
 20
120.2122355487
  0
VERTEX
  8
0
 62
7
  6
CONTINUOUS
 10
180.6528506817
 20
120.2072184143
  0
VERTEX
  8
0
 62
7
  6
CONTINUOUS
 10
180.6758011958
 20
120.2004483985
  0
VERTEX
  8
0
 62
7
  6
CONTINUOUS
 10
180.6889268777
 20
120.1922337247
  0
VERTEX
  8
0
 62
7
  6
CONTINUOUS
 10
180.6919404883
 20
120.1861843116
  0
SEQEND
  0
POLYLINE
  8
0
 62
7
  6
CONTINUOUS
 66
1
 70
0
  0
VERTEX
  8
0
 62
7
  6
CONTINUOUS
 10
163.6919997965
 20
120.2158475896
  0
VERTEX
  8
0
 62
7
  6
CONTINUOUS
 10
163.7390284684
 20
120.2164595422
  0
VERTEX
  8
0
 62
7
  6
CONTINUOUS
 10
163.7825508095
 20
120.2153205214
  0
VERTEX
  8
0
 62
7
  6
CONTINUOUS
 10
163.8212022581
 20
120.2122355487
  0
VERTEX
  8
0
 62
7
  6
CONTINUOUS
 10
163.8528506817
 20
120.2072184143
  0
VERTEX
  8
0
 62
7
  6
CONTINUOUS
 10
163.8758011958
 20
120.2004483985
  0
VERTEX
  8
0
 62
7
  6
CONTINUOUS
 10
163.8889268777
 20
120.1922337247
  0
VERTEX
  8
0
 62
7
  6
CONTINUOUS
 10
163.8919404883
 20
120.1861843116
  0
SEQEND
  0
POLYLINE
  8
0
 62
7
  6
CONTINUOUS
 66
1
 70
0
  0
VERTEX
  8
0
 62
7
  6
CONTINUOUS
 10
146.8919997965
 20
120.2158475896
  0
VERTEX
  8
0
 62
7
  6
CONTINUOUS
 10
146.9390284684
 20
120.2164595422
  0
VERTEX
  8
0
 62
7
  6
CONTINUOUS
 10
146.9825508095
 20
120.2153205214
  0
VERTEX
  8
0
 62
7
  6
CONTINUOUS
 10
147.0212022581
 20
120.2122355487
  0
VERTEX
  8
0
 62
7
  6
CONTINUOUS
 10
147.0528506817
 20
120.2072184143
  0
VERTEX
  8
0
 62
7
  6
CONTINUOUS
 10
147.0758011958
 20
120.2004483985
  0
VERTEX
  8
0
 62
7
  6
CONTINUOUS
 10
147.0889268777
 20
120.1922337247
  0
VERTEX
  8
0
 62
7
  6
CONTINUOUS
 10
147.0919404883
 20
120.1861843116
  0
SEQEND
  0
POLYLINE
  8
0
 62
7
  6
CONTINUOUS
 66
1
 70
0
  0
VERTEX
  8
0
 62
7
  6
CONTINUOUS
 10
130.0919997965
 20
120.2158475896
  0
VERTEX
  8
0
 62
7
  6
CONTINUOUS
 10
130.1390284684
 20
120.2164595422
  0
VERTEX
  8
0
 62
7
  6
CONTINUOUS
 10
130.1825508095
 20
120.2153205214
  0
VERTEX
  8
0
 62
7
  6
CONTINUOUS
 10
130.2212022581
 20
120.2122355487
  0
VERTEX
  8
0
 62
7
  6
CONTINUOUS
 10
130.2528506817
 20
120.2072184143
  0
VERTEX
  8
0
 62
7
  6
CONTINUOUS
 10
130.2758011958
 20
120.2004483985
  0
VERTEX
  8
0
 62
7
  6
CONTINUOUS
 10
130.2889268777
 20
120.1922337247
  0
VERTEX
  8
0
 62
7
  6
CONTINUOUS
 10
130.2919404883
 20
120.1861843116
  0
SEQEND
  0
POLYLINE
  8
0
 62
7
  6
CONTINUOUS
 66
1
 70
0
  0
VERTEX
  8
0
 62
7
  6
CONTINUOUS
 10
113.2919997965
 20
120.2158475896
  0
VERTEX
  8
0
 62
7
  6
CONTINUOUS
 10
113.3390284684
 20
120.2164595422
  0
VERTEX
  8
0
 62
7
  6
CONTINUOUS
 10
113.3825508095
 20
120.2153205214
  0
VERTEX
  8
0
 62
7
  6
CONTINUOUS
 10
113.4212022581
 20
120.2122355487
  0
VERTEX
  8
0
 62
7
  6
CONTINUOUS
 10
113.4528506817
 20
120.2072184143
  0
VERTEX
  8
0
 62
7
  6
CONTINUOUS
 10
113.4758011958
 20
120.2004483985
  0
VERTEX
  8
0
 62
7
  6
CONTINUOUS
 10
113.4889268777
 20
120.1922337247
  0
VERTEX
  8
0
 62
7
  6
CONTINUOUS
 10
113.4919404883
 20
120.1861843116
  0
SEQEND
  0
POLYLINE
  8
0
 62
7
  6
CONTINUOUS
 66
1
 70
0
  0
VERTEX
  8
0
 62
7
  6
CONTINUOUS
 10
96.4919997965
 20
120.2158475896
  0
VERTEX
  8
0
 62
7
  6
CONTINUOUS
 10
96.5390284684
 20
120.2164595422
  0
VERTEX
  8
0
 62
7
  6
CONTINUOUS
 10
96.5825508095
 20
120.2153205214
  0
VERTEX
  8
0
 62
7
  6
CONTINUOUS
 10
96.6212022581
 20
120.2122355487
  0
VERTEX
  8
0
 62
7
  6
CONTINUOUS
 10
96.6528506817
 20
120.2072184143
  0
VERTEX
  8
0
 62
7
  6
CONTINUOUS
 10
96.6758011958
 20
120.2004483985
  0
VERTEX
  8
0
 62
7
  6
CONTINUOUS
 10
96.6889268777
 20
120.1922337247
  0
VERTEX
  8
0
 62
7
  6
CONTINUOUS
 10
96.6919404883
 20
120.1861843116
  0
SEQEND
  0
LINE
  8
0
 62
6
  6
CONTINUOUS
 10
225.8004262359
 20
120.2158007228
 11
225.8060645402
 21
120.2158475878
  0
LINE
  8
0
 62
6
  6
CONTINUOUS
 10
214.0940357706
 20
120.2158475896
 11
214.0919997965
 21
120.2158475896
  0
LINE
  8
0
 62
7
  6
CONTINUOUS
 10
214.0919997965
 20
120.2158475896
 11
206.2623361102
 21
120.2158475896
  0
LINE
  8
0
 62
7
  6
CONTINUOUS
 10
197.2919997965
 20
120.2158475896
 11
189.4623361102
 21
120.2158475896
  0
LINE
  8
0
 62
7
  6
CONTINUOUS
 10
180.4919997965
 20
120.2158475896
 11
172.6623361102
 21
120.2158475896
  0
LINE
  8
0
 62
7
  6
CONTINUOUS
 10
163.6919997965
 20
120.2158475896
 11
155.8623361102
 21
120.2158475896
  0
LINE
  8
0
 62
7
  6
CONTINUOUS
 10
146.8919997965
 20
120.2158475896
 11
139.0623361102
 21
120.2158475896
  0
LINE
  8
0
 62
7
  6
CONTINUOUS
 10
130.0919997965
 20
120.2158475896
 11
122.2623361102
 21
120.2158475896
  0
LINE
  8
0
 62
7
  6
CONTINUOUS
 10
113.2919997965
 20
120.2158475896
 11
105.4623361102
 21
120.2158475896
  0
LINE
  8
0
 62
7
  6
CONTINUOUS
 10
96.4919997965
 20
120.2158475896
 11
88.6623361102
 21
120.2158475896
  0
LINE
  8
0
 62
7
  6
CONTINUOUS
 10
223.0623361102
 20
120.2158475896
 11
230.8771679533
 21
120.2158475896
  0
LINE
  8
0
 62
6
  6
CONTINUOUS
 10
223.0603001361
 20
120.2158475896
 11
223.0623361102
 21
120.2158475896
  0
LINE
  8
0
 62
6
  6
CONTINUOUS
 10
211.3539096707
 20
120.2158007228
 11
211.3482713665
 21
120.2158475878
  0
POLYLINE
  8
0
 62
7
  6
CONTINUOUS
 66
1
 70
0
  0
VERTEX
  8
0
 62
7
  6
CONTINUOUS
 10
88.6623361102
 20
120.2158475896
  0
VERTEX
  8
0
 62
7
  6
CONTINUOUS
 10
88.6153074382
 20
120.2164595422
  0
VERTEX
  8
0
 62
7
  6
CONTINUOUS
 10
88.5717850972
 20
120.2153205214
  0
VERTEX
  8
0
 62
7
  6
CONTINUOUS
 10
88.5331336485
 20
120.2122355487
  0
VERTEX
  8
0
 62
7
  6
CONTINUOUS
 10
88.501485225
 20
120.2072184143
  0
VERTEX
  8
0
 62
7
  6
CONTINUOUS
 10
88.4785347108
 20
120.2004483985
  0
VERTEX
  8
0
 62
7
  6
CONTINUOUS
 10
88.465409029
 20
120.1922337247
  0
VERTEX
  8
0
 62
7
  6
CONTINUOUS
 10
88.4623954184
 20
120.1861843116
  0
SEQEND
  0
POLYLINE
  8
0
 62
7
  6
CONTINUOUS
 66
1
 70
0
  0
VERTEX
  8
0
 62
7
  6
CONTINUOUS
 10
105.4623361102
 20
120.2158475896
  0
VERTEX
  8
0
 62
7
  6
CONTINUOUS
 10
105.4153074382
 20
120.2164595422
  0
VERTEX
  8
0
 62
7
  6
CONTINUOUS
 10
105.3717850972
 20
120.2153205214
  0
VERTEX
  8
0
 62
7
  6
CONTINUOUS
 10
105.3331336485
 20
120.2122355487
  0
VERTEX
  8
0
 62
7
  6
CONTINUOUS
 10
105.301485225
 20
120.2072184143
  0
VERTEX
  8
0
 62
7
  6
CONTINUOUS
 10
105.2785347108
 20
120.2004483985
  0
VERTEX
  8
0
 62
7
  6
CONTINUOUS
 10
105.265409029
 20
120.1922337247
  0
VERTEX
  8
0
 62
7
  6
CONTINUOUS
 10
105.2623954184
 20
120.1861843116
  0
SEQEND
  0
POLYLINE
  8
0
 62
7
  6
CONTINUOUS
 66
1
 70
0
  0
VERTEX
  8
0
 62
7
  6
CONTINUOUS
 10
122.2623361102
 20
120.2158475896
  0
VERTEX
  8
0
 62
7
  6
CONTINUOUS
 10
122.2153074382
 20
120.2164595422
  0
VERTEX
  8
0
 62
7
  6
CONTINUOUS
 10
122.1717850972
 20
120.2153205214
  0
VERTEX
  8
0
 62
7
  6
CONTINUOUS
 10
122.1331336485
 20
120.2122355487
  0
VERTEX
  8
0
 62
7
  6
CONTINUOUS
 10
122.101485225
 20
120.2072184143
  0
VERTEX
  8
0
 62
7
  6
CONTINUOUS
 10
122.0785347108
 20
120.2004483985
  0
VERTEX
  8
0
 62
7
  6
CONTINUOUS
 10
122.065409029
 20
120.1922337247
  0
VERTEX
  8
0
 62
7
  6
CONTINUOUS
 10
122.0623954184
 20
120.1861843116
  0
SEQEND
  0
POLYLINE
  8
0
 62
7
  6
CONTINUOUS
 66
1
 70
0
  0
VERTEX
  8
0
 62
7
  6
CONTINUOUS
 10
139.0623361102
 20
120.2158475896
  0
VERTEX
  8
0
 62
7
  6
CONTINUOUS
 10
139.0153074382
 20
120.2164595422
  0
VERTEX
  8
0
 62
7
  6
CONTINUOUS
 10
138.9717850972
 20
120.2153205214
  0
VERTEX
  8
0
 62
7
  6
CONTINUOUS
 10
138.9331336485
 20
120.2122355487
  0
VERTEX
  8
0
 62
7
  6
CONTINUOUS
 10
138.901485225
 20
120.2072184143
  0
VERTEX
  8
0
 62
7
  6
CONTINUOUS
 10
138.8785347108
 20
120.2004483985
  0
VERTEX
  8
0
 62
7
  6
CONTINUOUS
 10
138.865409029
 20
120.1922337247
  0
VERTEX
  8
0
 62
7
  6
CONTINUOUS
 10
138.8623954184
 20
120.1861843116
  0
SEQEND
  0
POLYLINE
  8
0
 62
7
  6
CONTINUOUS
 66
1
 70
0
  0
VERTEX
  8
0
 62
7
  6
CONTINUOUS
 10
155.8623361102
 20
120.2158475896
  0
VERTEX
  8
0
 62
7
  6
CONTINUOUS
 10
155.8153074382
 20
120.2164595422
  0
VERTEX
  8
0
 62
7
  6
CONTINUOUS
 10
155.7717850972
 20
120.2153205214
  0
VERTEX
  8
0
 62
7
  6
CONTINUOUS
 10
155.7331336485
 20
120.2122355487
  0
VERTEX
  8
0
 62
7
  6
CONTINUOUS
 10
155.701485225
 20
120.2072184143
  0
VERTEX
  8
0
 62
7
  6
CONTINUOUS
 10
155.6785347108
 20
120.2004483985
  0
VERTEX
  8
0
 62
7
  6
CONTINUOUS
 10
155.665409029
 20
120.1922337247
  0
VERTEX
  8
0
 62
7
  6
CONTINUOUS
 10
155.6623954184
 20
120.1861843116
  0
SEQEND
  0
POLYLINE
  8
0
 62
7
  6
CONTINUOUS
 66
1
 70
0
  0
VERTEX
  8
0
 62
7
  6
CONTINUOUS
 10
172.6623361102
 20
120.2158475896
  0
VERTEX
  8
0
 62
7
  6
CONTINUOUS
 10
172.6153074382
 20
120.2164595422
  0
VERTEX
  8
0
 62
7
  6
CONTINUOUS
 10
172.5717850972
 20
120.2153205214
  0
VERTEX
  8
0
 62
7
  6
CONTINUOUS
 10
172.5331336485
 20
120.2122355487
  0
VERTEX
  8
0
 62
7
  6
CONTINUOUS
 10
172.501485225
 20
120.2072184143
  0
VERTEX
  8
0
 62
7
  6
CONTINUOUS
 10
172.4785347108
 20
120.2004483985
  0
VERTEX
  8
0
 62
7
  6
CONTINUOUS
 10
172.465409029
 20
120.1922337247
  0
VERTEX
  8
0
 62
7
  6
CONTINUOUS
 10
172.4623954184
 20
120.1861843116
  0
SEQEND
  0
POLYLINE
  8
0
 62
7
  6
CONTINUOUS
 66
1
 70
0
  0
VERTEX
  8
0
 62
7
  6
CONTINUOUS
 10
189.4623361102
 20
120.2158475896
  0
VERTEX
  8
0
 62
7
  6
CONTINUOUS
 10
189.4153074382
 20
120.2164595422
  0
VERTEX
  8
0
 62
7
  6
CONTINUOUS
 10
189.3717850972
 20
120.2153205214
  0
VERTEX
  8
0
 62
7
  6
CONTINUOUS
 10
189.3331336485
 20
120.2122355487
  0
VERTEX
  8
0
 62
7
  6
CONTINUOUS
 10
189.301485225
 20
120.2072184143
  0
VERTEX
  8
0
 62
7
  6
CONTINUOUS
 10
189.2785347108
 20
120.2004483985
  0
VERTEX
  8
0
 62
7
  6
CONTINUOUS
 10
189.265409029
 20
120.1922337247
  0
VERTEX
  8
0
 62
7
  6
CONTINUOUS
 10
189.2623954184
 20
120.1861843116
  0
SEQEND
  0
POLYLINE
  8
0
 62
7
  6
CONTINUOUS
 66
1
 70
0
  0
VERTEX
  8
0
 62
7
  6
CONTINUOUS
 10
206.2623361102
 20
120.2158475896
  0
VERTEX
  8
0
 62
7
  6
CONTINUOUS
 10
206.2153074382
 20
120.2164595422
  0
VERTEX
  8
0
 62
7
  6
CONTINUOUS
 10
206.1717850972
 20
120.2153205214
  0
VERTEX
  8
0
 62
7
  6
CONTINUOUS
 10
206.1331336485
 20
120.2122355487
  0
VERTEX
  8
0
 62
7
  6
CONTINUOUS
 10
206.101485225
 20
120.2072184143
  0
VERTEX
  8
0
 62
7
  6
CONTINUOUS
 10
206.0785347108
 20
120.2004483985
  0
VERTEX
  8
0
 62
7
  6
CONTINUOUS
 10
206.065409029
 20
120.1922337247
  0
VERTEX
  8
0
 62
7
  6
CONTINUOUS
 10
206.0623954184
 20
120.1861843116
  0
SEQEND
  0
POLYLINE
  8
0
 62
7
  6
CONTINUOUS
 66
1
 70
0
  0
VERTEX
  8
0
 62
7
  6
CONTINUOUS
 10
223.0623361102
 20
120.2158475896
  0
VERTEX
  8
0
 62
7
  6
CONTINUOUS
 10
223.0153074382
 20
120.2164595422
  0
VERTEX
  8
0
 62
7
  6
CONTINUOUS
 10
222.9717850972
 20
120.2153205214
  0
VERTEX
  8
0
 62
7
  6
CONTINUOUS
 10
222.9331336485
 20
120.2122355487
  0
VERTEX
  8
0
 62
7
  6
CONTINUOUS
 10
222.901485225
 20
120.2072184143
  0
VERTEX
  8
0
 62
7
  6
CONTINUOUS
 10
222.8785347108
 20
120.2004483985
  0
VERTEX
  8
0
 62
7
  6
CONTINUOUS
 10
222.865409029
 20
120.1922337247
  0
VERTEX
  8
0
 62
7
  6
CONTINUOUS
 10
222.8623954184
 20
120.1861843116
  0
SEQEND
  0
POLYLINE
  8
0
 62
6
  6
CONTINUOUS
 66
1
 70
0
  0
VERTEX
  8
0
 62
6
  6
CONTINUOUS
 10
211.3539096707
 20
120.2158007228
  0
VERTEX
  8
0
 62
6
  6
CONTINUOUS
 10
211.540976524
 20
120.2098077798
  0
VERTEX
  8
0
 62
6
  6
CONTINUOUS
 10
211.7209311766
 20
120.1983993531
  0
VERTEX
  8
0
 62
6
  6
CONTINUOUS
 10
211.8875516667
 20
120.1821165275
  0
VERTEX
  8
0
 62
6
  6
CONTINUOUS
 10
212.0351600752
 20
120.1616159452
  0
VERTEX
  8
0
 62
6
  6
CONTINUOUS
 10
212.158819364
 20
120.1376635702
  0
VERTEX
  8
0
 62
6
  6
CONTINUOUS
 10
212.2544861012
 20
120.1111225842
  0
VERTEX
  8
0
 62
6
  6
CONTINUOUS
 10
212.319117535
 20
120.0829370503
  0
VERTEX
  8
0
 62
6
  6
CONTINUOUS
 10
212.3507304046
 20
120.054113865
  0
SEQEND
  0
LINE
  8
0
 62
7
  6
CONTINUOUS
 10
198.5419710531
 20
59.9080482931
 11
198.7226977363
 21
59.5048016606
  0
POLYLINE
  8
0
 62
7
  6
CONTINUOUS
 66
1
 70
0
  0
VERTEX
  8
0
 62
7
  6
CONTINUOUS
 10
179.6197969765
 20
124.4779902617
  0
VERTEX
  8
0
 62
7
  6
CONTINUOUS
 10
179.591676652
 20
124.6481170011
  0
VERTEX
  8
0
 62
7
  6
CONTINUOUS
 10
179.5606756432
 20
124.8132897476
  0
VERTEX
  8
0
 62
7
  6
CONTINUOUS
 10
179.5296743529
 20
124.9569767997
  0
VERTEX
  8
0
 62
7
  6
CONTINUOUS
 10
179.4982112603
 20
125.0828093057
  0
VERTEX
  8
0
 62
7
  6
CONTINUOUS
 10
179.4655117409
 20
125.1943891903
  0
VERTEX
  8
0
 62
7
  6
CONTINUOUS
 10
179.4302192862
 20
125.2955598402
  0
VERTEX
  8
0
 62
7
  6
CONTINUOUS
 10
179.389947162
 20
125.390503453
  0
VERTEX
  8
0
 62
7
  6
CONTINUOUS
 10
179.3410156334
 20
125.4827493669
  0
VERTEX
  8
0
 62
7
  6
CONTINUOUS
 10
179.277954874
 20
125.5745332991
  0
VERTEX
  8
0
 62
7
  6
CONTINUOUS
 10
179.1943580619
 20
125.6644474619
  0
VERTEX
  8
0
 62
7
  6
CONTINUOUS
 10
179.0866050161
 20
125.7451382925
  0
VERTEX
  8
0
 62
7
  6
CONTINUOUS
 10
178.9565288667
 20
125.8062759543
  0
VERTEX
  8
0
 62
7
  6
CONTINUOUS
 10
178.8117318883
 20
125.8391235209
  0
VERTEX
  8
0
 62
7
  6
CONTINUOUS
 10
178.7333255209
 20
125.8435661428
  0
SEQEND
  0
LINE
  8
0
 62
7
  6
CONTINUOUS
 10
179.635700516
 20
124.3732709059
 11
179.6197957315
 21
124.4779982479
  0
POLYLINE
  8
0
 62
7
  6
CONTINUOUS
 66
1
 70
0
  0
VERTEX
  8
0
 62
7
  6
CONTINUOUS
 10
180.6919405179
 20
120.1861901772
  0
VERTEX
  8
0
 62
7
  6
CONTINUOUS
 10
180.6200627041
 20
120.7379832987
  0
VERTEX
  8
0
 62
7
  6
CONTINUOUS
 10
180.5253338528
 20
121.3378082256
  0
VERTEX
  8
0
 62
7
  6
CONTINUOUS
 10
180.4146463218
 20
121.9204190311
  0
VERTEX
  8
0
 62
7
  6
CONTINUOUS
 10
180.2879580882
 20
122.4808100528
  0
VERTEX
  8
0
 62
7
  6
CONTINUOUS
 10
180.1452533424
 20
123.014146255
  0
VERTEX
  8
0
 62
7
  6
CONTINUOUS
 10
179.9864849405
 20
123.5157707355
  0
VERTEX
  8
0
 62
7
  6
CONTINUOUS
 10
179.8114204024
 20
123.9813837763
  0
SEQEND
  0
POLYLINE
  8
0
 62
7
  6
CONTINUOUS
 66
1
 70
0
  0
VERTEX
  8
0
 62
7
  6
CONTINUOUS
 10
189.2652876769
 20
114.3579924979
  0
VERTEX
  8
0
 62
7
  6
CONTINUOUS
 10
189.2692226332
 20
114.0684694581
  0
VERTEX
  8
0
 62
7
  6
CONTINUOUS
 10
189.2694325296
 20
113.9926385838
  0
VERTEX
  8
0
 62
7
  6
CONTINUOUS
 10
189.2683842691
 20
113.9172656303
  0
VERTEX
  8
0
 62
7
  6
CONTINUOUS
 10
189.2659059045
 20
113.8425928169
  0
VERTEX
  8
0
 62
7
  6
CONTINUOUS
 10
189.2618063598
 20
113.7688267975
  0
VERTEX
  8
0
 62
7
  6
CONTINUOUS
 10
189.2559073448
 20
113.6961353942
  0
VERTEX
  8
0
 62
7
  6
CONTINUOUS
 10
189.2480534688
 20
113.6248264782
  0
VERTEX
  8
0
 62
7
  6
CONTINUOUS
 10
189.238106668
 20
113.5554416846
  0
VERTEX
  8
0
 62
7
  6
CONTINUOUS
 10
189.2258834613
 20
113.4878879268
  0
VERTEX
  8
0
 62
7
  6
CONTINUOUS
 10
189.2112371694
 20
113.422381129
  0
VERTEX
  8
0
 62
7
  6
CONTINUOUS
 10
189.1938877224
 20
113.3593100046
  0
VERTEX
  8
0
 62
7
  6
CONTINUOUS
 10
189.1736986585
 20
113.3004270247
  0
VERTEX
  8
0
 62
7
  6
CONTINUOUS
 10
189.1498376026
 20
113.2452478597
  0
VERTEX
  8
0
 62
7
  6
CONTINUOUS
 10
189.1223682763
 20
113.1943943827
  0
VERTEX
  8
0
 62
7
  6
CONTINUOUS
 10
189.0920445049
 20
113.1494088541
  0
VERTEX
  8
0
 62
7
  6
CONTINUOUS
 10
189.0596038905
 20
113.1109933176
  0
VERTEX
  8
0
 62
7
  6
CONTINUOUS
 10
189.0249317871
 20
113.0787917479
  0
VERTEX
  8
0
 62
7
  6
CONTINUOUS
 10
188.9880781256
 20
113.0530089069
  0
VERTEX
  8
0
 62
7
  6
CONTINUOUS
 10
188.9488809295
 20
113.0341987933
  0
VERTEX
  8
0
 62
7
  6
CONTINUOUS
 10
188.9080386297
 20
113.0238513456
  0
VERTEX
  8
0
 62
7
  6
CONTINUOUS
 10
188.886731424
 20
113.0223747711
  0
SEQEND
  0
POLYLINE
  8
0
 62
7
  6
CONTINUOUS
 66
1
 70
0
  0
VERTEX
  8
0
 62
7
  6
CONTINUOUS
 10
189.089001365
 20
69.5331077646
  0
VERTEX
  8
0
 62
7
  6
CONTINUOUS
 10
189.0850663984
 20
69.823323033
  0
VERTEX
  8
0
 62
7
  6
CONTINUOUS
 10
189.0849309829
 20
69.899427939
  0
VERTEX
  8
0
 62
7
  6
CONTINUOUS
 10
189.0860707725
 20
69.9749259687
  0
VERTEX
  8
0
 62
7
  6
CONTINUOUS
 10
189.0886544371
 20
70.0495910932
  0
VERTEX
  8
0
 62
7
  6
CONTINUOUS
 10
189.092867689
 20
70.1232394422
  0
VERTEX
  8
0
 62
7
  6
CONTINUOUS
 10
189.0988806998
 20
70.1957166962
  0
VERTEX
  8
0
 62
7
  6
CONTINUOUS
 10
189.1068411639
 20
70.2667150508
  0
VERTEX
  8
0
 62
7
  6
CONTINUOUS
 10
189.1168878625
 20
70.3357370604
  0
VERTEX
  8
0
 62
7
  6
CONTINUOUS
 10
189.1291885742
 20
70.4028808676
  0
VERTEX
  8
0
 62
7
  6
CONTINUOUS
 10
189.1438899873
 20
70.4679397244
  0
VERTEX
  8
0
 62
7
  6
CONTINUOUS
 10
189.1612544712
 20
70.5304608294
  0
VERTEX
  8
0
 62
7
  6
CONTINUOUS
 10
189.1814442799
 20
70.5887885915
  0
VERTEX
  8
0
 62
7
  6
CONTINUOUS
 10
189.2052958022
 20
70.6435301322
  0
VERTEX
  8
0
 62
7
  6
CONTINUOUS
 10
189.2326635859
 20
70.6938905573
  0
VERTEX
  8
0
 62
7
  6
CONTINUOUS
 10
189.2628568835
 20
70.7384739749
  0
VERTEX
  8
0
 62
7
  6
CONTINUOUS
 10
189.2953791722
 20
70.7768195352
  0
VERTEX
  8
0
 62
7
  6
CONTINUOUS
 10
189.3303497585
 20
70.8091066264
  0
VERTEX
  8
0
 62
7
  6
CONTINUOUS
 10
189.3676387436
 20
70.8349348168
  0
VERTEX
  8
0
 62
7
  6
CONTINUOUS
 10
189.4072460883
 20
70.8535876487
  0
VERTEX
  8
0
 62
7
  6
CONTINUOUS
 10
189.448253123
 20
70.8635327572
  0
VERTEX
  8
0
 62
7
  6
CONTINUOUS
 10
189.4674307291
 20
70.8647571969
  0
SEQEND
  0
LINE
  8
0
 62
7
  6
CONTINUOUS
 10
189.0914434196
 20
69.2500935956
 11
189.089001365
 21
69.5331077646
  0
LINE
  8
0
 62
7
  6
CONTINUOUS
 10
189.2628717025
 20
114.6410142347
 11
189.2652876769
 21
114.3579924979
  0
LINE
  8
0
 62
7
  6
CONTINUOUS
 10
189.0914434196
 20
69.2500935956
 11
189.0919997965
 21
63.701992655
  0
LINE
  8
0
 62
7
  6
CONTINUOUS
 10
189.2623361102
 20
120.1851023603
 11
189.2628717025
 21
114.6410142347
  0
LINE
  8
0
 62
7
  6
CONTINUOUS
 10
189.2623954184
 20
120.1861843116
 11
189.2623361131
 21
120.1851643718
  0
LINE
  8
0
 62
7
  6
CONTINUOUS
 10
189.0919997964
 20
63.701960542
 11
189.0919404704
 21
63.7009525048
  0
LINE
  8
0
 62
7
  6
CONTINUOUS
 10
188.0197958671
 20
59.4091351546
 11
188.0356982415
 21
59.5138606996
  0
POLYLINE
  8
0
 62
7
  6
CONTINUOUS
 66
1
 70
0
  0
VERTEX
  8
0
 62
7
  6
CONTINUOUS
 10
207.1226987795
 20
124.3823329981
  0
VERTEX
  8
0
 62
7
  6
CONTINUOUS
 10
206.9429155043
 20
123.9813837763
  0
VERTEX
  8
0
 62
7
  6
CONTINUOUS
 10
206.7678509661
 20
123.5157707355
  0
VERTEX
  8
0
 62
7
  6
CONTINUOUS
 10
206.6090825642
 20
123.014146255
  0
VERTEX
  8
0
 62
7
  6
CONTINUOUS
 10
206.4663778184
 20
122.4808100528
  0
VERTEX
  8
0
 62
7
  6
CONTINUOUS
 10
206.3396895849
 20
121.9204190311
  0
VERTEX
  8
0
 62
7
  6
CONTINUOUS
 10
206.2290020538
 20
121.3378082256
  0
VERTEX
  8
0
 62
7
  6
CONTINUOUS
 10
206.1342732025
 20
120.7379832987
  0
VERTEX
  8
0
 62
7
  6
CONTINUOUS
 10
206.0623953888
 20
120.1861901772
  0
SEQEND
  0
POLYLINE
  8
0
 62
7
  6
CONTINUOUS
 66
1
 70
0
  0
VERTEX
  8
0
 62
7
  6
CONTINUOUS
 10
191.2210097776
 20
125.8435661436
  0
VERTEX
  8
0
 62
7
  6
CONTINUOUS
 10
191.1460536831
 20
125.839508639
  0
VERTEX
  8
0
 62
7
  6
CONTINUOUS
 10
191.0006351415
 20
125.8072469342
  0
VERTEX
  8
0
 62
7
  6
CONTINUOUS
 10
190.8699084186
 20
125.7464540074
  0
VERTEX
  8
0
 62
7
  6
CONTINUOUS
 10
190.7615111914
 20
125.6658395404
  0
VERTEX
  8
0
 62
7
  6
CONTINUOUS
 10
190.6773744999
 20
125.5757883085
  0
VERTEX
  8
0
 62
7
  6
CONTINUOUS
 10
190.6139498914
 20
125.4838003914
  0
VERTEX
  8
0
 62
7
  6
CONTINUOUS
 10
190.5648005651
 20
125.3913766422
  0
VERTEX
  8
0
 62
7
  6
CONTINUOUS
 10
190.5244020971
 20
125.296304886
  0
VERTEX
  8
0
 62
7
  6
CONTINUOUS
 10
190.4890297269
 20
125.1950335741
  0
VERTEX
  8
0
 62
7
  6
CONTINUOUS
 10
190.4562729527
 20
125.083357869
  0
VERTEX
  8
0
 62
7
  6
CONTINUOUS
 10
190.4247646985
 20
124.9574211537
  0
VERTEX
  8
0
 62
7
  6
CONTINUOUS
 10
190.3937252101
 20
124.8136125439
  0
VERTEX
  8
0
 62
7
  6
CONTINUOUS
 10
190.3626902355
 20
124.648293457
  0
VERTEX
  8
0
 62
7
  6
CONTINUOUS
 10
190.3345389241
 20
124.4779902234
  0
SEQEND
  0
POLYLINE
  8
0
 62
7
  6
CONTINUOUS
 66
1
 70
0
  0
VERTEX
  8
0
 62
7
  6
CONTINUOUS
 10
174.4210097776
 20
125.8435661436
  0
VERTEX
  8
0
 62
7
  6
CONTINUOUS
 10
174.3460536831
 20
125.839508639
  0
VERTEX
  8
0
 62
7
  6
CONTINUOUS
 10
174.2006351415
 20
125.8072469342
  0
VERTEX
  8
0
 62
7
  6
CONTINUOUS
 10
174.0699084186
 20
125.7464540074
  0
VERTEX
  8
0
 62
7
  6
CONTINUOUS
 10
173.9615111914
 20
125.6658395404
  0
VERTEX
  8
0
 62
7
  6
CONTINUOUS
 10
173.8773744999
 20
125.5757883085
  0
VERTEX
  8
0
 62
7
  6
CONTINUOUS
 10
173.8139498914
 20
125.4838003914
  0
VERTEX
  8
0
 62
7
  6
CONTINUOUS
 10
173.7648005651
 20
125.3913766422
  0
VERTEX
  8
0
 62
7
  6
CONTINUOUS
 10
173.7244020971
 20
125.296304886
  0
VERTEX
  8
0
 62
7
  6
CONTINUOUS
 10
173.6890297269
 20
125.1950335741
  0
VERTEX
  8
0
 62
7
  6
CONTINUOUS
 10
173.6562729527
 20
125.083357869
  0
VERTEX
  8
0
 62
7
  6
CONTINUOUS
 10
173.6247646985
 20
124.9574211537
  0
VERTEX
  8
0
 62
7
  6
CONTINUOUS
 10
173.5937252101
 20
124.8136125439
  0
VERTEX
  8
0
 62
7
  6
CONTINUOUS
 10
173.5626902355
 20
124.6482934571
  0
VERTEX
  8
0
 62
7
  6
CONTINUOUS
 10
173.5345389241
 20
124.4779902234
  0
SEQEND
  0
POLYLINE
  8
0
 62
7
  6
CONTINUOUS
 66
1
 70
0
  0
VERTEX
  8
0
 62
7
  6
CONTINUOUS
 10
157.6210097776
 20
125.8435661436
  0
VERTEX
  8
0
 62
7
  6
CONTINUOUS
 10
157.5460536831
 20
125.839508639
  0
VERTEX
  8
0
 62
7
  6
CONTINUOUS
 10
157.4006351415
 20
125.8072469342
  0
VERTEX
  8
0
 62
7
  6
CONTINUOUS
 10
157.2699084186
 20
125.7464540074
  0
VERTEX
  8
0
 62
7
  6
CONTINUOUS
 10
157.1615111914
 20
125.6658395404
  0
VERTEX
  8
0
 62
7
  6
CONTINUOUS
 10
157.0773744999
 20
125.5757883085
  0
VERTEX
  8
0
 62
7
  6
CONTINUOUS
 10
157.0139498914
 20
125.4838003914
  0
VERTEX
  8
0
 62
7
  6
CONTINUOUS
 10
156.9648005651
 20
125.3913766422
  0
VERTEX
  8
0
 62
7
  6
CONTINUOUS
 10
156.9244020971
 20
125.296304886
  0
VERTEX
  8
0
 62
7
  6
CONTINUOUS
 10
156.8890297269
 20
125.1950335741
  0
VERTEX
  8
0
 62
7
  6
CONTINUOUS
 10
156.8562729527
 20
125.083357869
  0
VERTEX
  8
0
 62
7
  6
CONTINUOUS
 10
156.8247646985
 20
124.9574211537
  0
VERTEX
  8
0
 62
7
  6
CONTINUOUS
 10
156.7937252101
 20
124.8136125439
  0
VERTEX
  8
0
 62
7
  6
CONTINUOUS
 10
156.7626902355
 20
124.6482934571
  0
VERTEX
  8
0
 62
7
  6
CONTINUOUS
 10
156.7345389241
 20
124.4779902234
  0
SEQEND
  0
POLYLINE
  8
0
 62
7
  6
CONTINUOUS
 66
1
 70
0
  0
VERTEX
  8
0
 62
7
  6
CONTINUOUS
 10
140.8210097776
 20
125.8435661436
  0
VERTEX
  8
0
 62
7
  6
CONTINUOUS
 10
140.7460536831
 20
125.839508639
  0
VERTEX
  8
0
 62
7
  6
CONTINUOUS
 10
140.6006351415
 20
125.8072469342
  0
VERTEX
  8
0
 62
7
  6
CONTINUOUS
 10
140.4699084186
 20
125.7464540074
  0
VERTEX
  8
0
 62
7
  6
CONTINUOUS
 10
140.3615111914
 20
125.6658395404
  0
VERTEX
  8
0
 62
7
  6
CONTINUOUS
 10
140.2773744999
 20
125.5757883085
  0
VERTEX
  8
0
 62
7
  6
CONTINUOUS
 10
140.2139498914
 20
125.4838003914
  0
VERTEX
  8
0
 62
7
  6
CONTINUOUS
 10
140.1648005651
 20
125.3913766422
  0
VERTEX
  8
0
 62
7
  6
CONTINUOUS
 10
140.1244020971
 20
125.296304886
  0
VERTEX
  8
0
 62
7
  6
CONTINUOUS
 10
140.0890297269
 20
125.1950335741
  0
VERTEX
  8
0
 62
7
  6
CONTINUOUS
 10
140.0562729527
 20
125.083357869
  0
VERTEX
  8
0
 62
7
  6
CONTINUOUS
 10
140.0247646985
 20
124.9574211537
  0
VERTEX
  8
0
 62
7
  6
CONTINUOUS
 10
139.9937252101
 20
124.8136125439
  0
VERTEX
  8
0
 62
7
  6
CONTINUOUS
 10
139.9626902355
 20
124.648293457
  0
VERTEX
  8
0
 62
7
  6
CONTINUOUS
 10
139.9345389241
 20
124.4779902234
  0
SEQEND
  0
POLYLINE
  8
0
 62
7
  6
CONTINUOUS
 66
1
 70
0
  0
VERTEX
  8
0
 62
7
  6
CONTINUOUS
 10
124.0210097776
 20
125.8435661436
  0
VERTEX
  8
0
 62
7
  6
CONTINUOUS
 10
123.9460536831
 20
125.839508639
  0
VERTEX
  8
0
 62
7
  6
CONTINUOUS
 10
123.8006351415
 20
125.8072469342
  0
VERTEX
  8
0
 62
7
  6
CONTINUOUS
 10
123.6699084186
 20
125.7464540074
  0
VERTEX
  8
0
 62
7
  6
CONTINUOUS
 10
123.5615111914
 20
125.6658395404
  0
VERTEX
  8
0
 62
7
  6
CONTINUOUS
 10
123.4773744999
 20
125.5757883085
  0
VERTEX
  8
0
 62
7
  6
CONTINUOUS
 10
123.4139498914
 20
125.4838003914
  0
VERTEX
  8
0
 62
7
  6
CONTINUOUS
 10
123.3648005651
 20
125.3913766422
  0
VERTEX
  8
0
 62
7
  6
CONTINUOUS
 10
123.3244020971
 20
125.296304886
  0
VERTEX
  8
0
 62
7
  6
CONTINUOUS
 10
123.2890297269
 20
125.1950335741
  0
VERTEX
  8
0
 62
7
  6
CONTINUOUS
 10
123.2562729527
 20
125.083357869
  0
VERTEX
  8
0
 62
7
  6
CONTINUOUS
 10
123.2247646985
 20
124.9574211537
  0
VERTEX
  8
0
 62
7
  6
CONTINUOUS
 10
123.1937252101
 20
124.8136125439
  0
VERTEX
  8
0
 62
7
  6
CONTINUOUS
 10
123.1626902355
 20
124.648293457
  0
VERTEX
  8
0
 62
7
  6
CONTINUOUS
 10
123.1345389241
 20
124.4779902234
  0
SEQEND
  0
POLYLINE
  8
0
 62
7
  6
CONTINUOUS
 66
1
 70
0
  0
VERTEX
  8
0
 62
7
  6
CONTINUOUS
 10
107.2210097776
 20
125.8435661436
  0
VERTEX
  8
0
 62
7
  6
CONTINUOUS
 10
107.1460536831
 20
125.839508639
  0
VERTEX
  8
0
 62
7
  6
CONTINUOUS
 10
107.0006351415
 20
125.8072469342
  0
VERTEX
  8
0
 62
7
  6
CONTINUOUS
 10
106.8699084186
 20
125.7464540074
  0
VERTEX
  8
0
 62
7
  6
CONTINUOUS
 10
106.7615111914
 20
125.6658395404
  0
VERTEX
  8
0
 62
7
  6
CONTINUOUS
 10
106.6773744999
 20
125.5757883085
  0
VERTEX
  8
0
 62
7
  6
CONTINUOUS
 10
106.6139498914
 20
125.4838003914
  0
VERTEX
  8
0
 62
7
  6
CONTINUOUS
 10
106.5648005651
 20
125.3913766422
  0
VERTEX
  8
0
 62
7
  6
CONTINUOUS
 10
106.5244020971
 20
125.296304886
  0
VERTEX
  8
0
 62
7
  6
CONTINUOUS
 10
106.4890297269
 20
125.1950335741
  0
VERTEX
  8
0
 62
7
  6
CONTINUOUS
 10
106.4562729527
 20
125.083357869
  0
VERTEX
  8
0
 62
7
  6
CONTINUOUS
 10
106.4247646985
 20
124.9574211537
  0
VERTEX
  8
0
 62
7
  6
CONTINUOUS
 10
106.3937252101
 20
124.8136125439
  0
VERTEX
  8
0
 62
7
  6
CONTINUOUS
 10
106.3626902355
 20
124.6482934571
  0
VERTEX
  8
0
 62
7
  6
CONTINUOUS
 10
106.3345389241
 20
124.4779902234
  0
SEQEND
  0
POLYLINE
  8
0
 62
7
  6
CONTINUOUS
 66
1
 70
0
  0
VERTEX
  8
0
 62
7
  6
CONTINUOUS
 10
90.4210097792
 20
125.8435661436
  0
VERTEX
  8
0
 62
7
  6
CONTINUOUS
 10
90.3460532228
 20
125.8395085887
  0
VERTEX
  8
0
 62
7
  6
CONTINUOUS
 10
90.2006345847
 20
125.8072467444
  0
VERTEX
  8
0
 62
7
  6
CONTINUOUS
 10
90.0699079377
 20
125.746453718
  0
VERTEX
  8
0
 62
7
  6
CONTINUOUS
 10
89.9615107726
 20
125.6658391613
  0
VERTEX
  8
0
 62
7
  6
CONTINUOUS
 10
89.8773741103
 20
125.5757878174
  0
VERTEX
  8
0
 62
7
  6
CONTINUOUS
 10
89.8139495419
 20
125.4837998089
  0
VERTEX
  8
0
 62
7
  6
CONTINUOUS
 10
89.7648002604
 20
125.3913759967
  0
VERTEX
  8
0
 62
7
  6
CONTINUOUS
 10
89.7244018437
 20
125.2963042249
  0
VERTEX
  8
0
 62
7
  6
CONTINUOUS
 10
89.6890295155
 20
125.1950329116
  0
VERTEX
  8
0
 62
7
  6
CONTINUOUS
 10
89.6562727772
 20
125.0833572199
  0
VERTEX
  8
0
 62
7
  6
CONTINUOUS
 10
89.6247645595
 20
124.9574205549
  0
VERTEX
  8
0
 62
7
  6
CONTINUOUS
 10
89.5937251119
 20
124.8136120555
  0
VERTEX
  8
0
 62
7
  6
CONTINUOUS
 10
89.5626901839
 20
124.6482931633
  0
VERTEX
  8
0
 62
7
  6
CONTINUOUS
 10
89.5345389241
 20
124.4779902234
  0
SEQEND
  0
LINE
  8
0
 62
7
  6
CONTINUOUS
 10
90.4208749578
 20
125.8435662663
 11
94.733457008
 21
125.8435662663
  0
LINE
  8
0
 62
7
  6
CONTINUOUS
 10
107.2208788987
 20
125.8435662663
 11
111.533457008
 21
125.8435662663
  0
LINE
  8
0
 62
7
  6
CONTINUOUS
 10
124.0208788987
 20
125.8435662663
 11
128.333457008
 21
125.8435662663
  0
LINE
  8
0
 62
7
  6
CONTINUOUS
 10
140.8208788987
 20
125.8435662663
 11
145.133457008
 21
125.8435662663
  0
LINE
  8
0
 62
7
  6
CONTINUOUS
 10
157.6208788987
 20
125.8435662663
 11
161.933457008
 21
125.8435662663
  0
LINE
  8
0
 62
7
  6
CONTINUOUS
 10
174.4208788987
 20
125.8435662663
 11
178.733457008
 21
125.8435662663
  0
LINE
  8
0
 62
7
  6
CONTINUOUS
 10
191.2208788987
 20
125.8435662663
 11
195.533457008
 21
125.8435662663
  0
LINE
  8
0
 62
7
  6
CONTINUOUS
 10
208.0208788987
 20
125.8435662663
 11
212.333457008
 21
125.8435662663
  0
LINE
  8
0
 62
7
  6
CONTINUOUS
 10
224.820871862
 20
125.8435662663
 11
230.8771490412
 21
125.8435662663
  0
LINE
  8
0
 62
7
  6
CONTINUOUS
 10
179.8114204024
 20
123.9813837763
 11
179.6316371272
 21
124.3823329981
  0
POLYLINE
  8
0
 62
7
  6
CONTINUOUS
 66
1
 70
0
  0
VERTEX
  8
0
 62
7
  6
CONTINUOUS
 10
198.7345388174
 20
59.4091429936
  0
VERTEX
  8
0
 62
7
  6
CONTINUOUS
 10
198.7624219376
 20
59.2403679866
  0
VERTEX
  8
0
 62
7
  6
CONTINUOUS
 10
198.793470598
 20
59.0747859945
  0
VERTEX
  8
0
 62
7
  6
CONTINUOUS
 10
198.8245226916
 20
58.9307543017
  0
VERTEX
  8
0
 62
7
  6
CONTINUOUS
 10
198.8560412491
 20
58.8046318779
  0
VERTEX
  8
0
 62
7
  6
CONTINUOUS
 10
198.8888042895
 20
58.6928056854
  0
VERTEX
  8
0
 62
7
  6
CONTINUOUS
 10
198.9241763424
 20
58.5914167367
  0
VERTEX
  8
0
 62
7
  6
CONTINUOUS
 10
198.9645647921
 20
58.4962555808
  0
VERTEX
  8
0
 62
7
  6
CONTINUOUS
 10
199.0136926849
 20
58.4037611236
  0
VERTEX
  8
0
 62
7
  6
CONTINUOUS
 10
199.0770877684
 20
58.3117059085
  0
VERTEX
  8
0
 62
7
  6
CONTINUOUS
 10
199.1612050497
 20
58.2215702844
  0
VERTEX
  8
0
 62
7
  6
CONTINUOUS
 10
199.2696197388
 20
58.1408523169
  0
VERTEX
  8
0
 62
7
  6
CONTINUOUS
 10
199.4004131407
 20
58.0799613126
  0
VERTEX
  8
0
 62
7
  6
CONTINUOUS
 10
199.5459366383
 20
58.0476366704
  0
VERTEX
  8
0
 62
7
  6
CONTINUOUS
 10
199.6210101577
 20
58.0435663895
  0
SEQEND
  0
LINE
  8
0
 62
7
  6
CONTINUOUS
 10
198.7186376652
 20
59.5138606992
 11
198.7345400395
 21
59.4091351546
  0
LINE
  8
0
 62
7
  6
CONTINUOUS
 10
197.662395415
 20
63.7009482492
 11
197.6623361131
 21
63.7019681608
  0
LINE
  8
0
 62
7
  6
CONTINUOUS
 10
197.4919404883
 20
120.1861843116
 11
197.4919997935
 21
120.1851643718
  0
POLYLINE
  8
0
 62
7
  6
CONTINUOUS
 66
1
 70
0
  0
VERTEX
  8
0
 62
7
  6
CONTINUOUS
 10
197.4850722494
 20
114.0643583558
  0
VERTEX
  8
0
 62
7
  6
CONTINUOUS
 10
197.489001768
 20
114.3540286115
  0
VERTEX
  8
0
 62
7
  6
CONTINUOUS
 10
197.4914435118
 20
114.6370408129
  0
VERTEX
  8
0
 62
7
  6
CONTINUOUS
 10
197.4919997965
 20
120.1851023603
  0
SEQEND
  0
POLYLINE
  8
0
 62
7
  6
CONTINUOUS
 66
1
 70
0
  0
VERTEX
  8
0
 62
7
  6
CONTINUOUS
 10
197.6692273231
 20
69.8191164851
  0
VERTEX
  8
0
 62
7
  6
CONTINUOUS
 10
197.6652876772
 20
69.529139984
  0
VERTEX
  8
0
 62
7
  6
CONTINUOUS
 10
197.6628717027
 20
69.2461183235
  0
VERTEX
  8
0
 62
7
  6
CONTINUOUS
 10
197.6623361102
 20
63.7020301723
  0
SEQEND
  0
POLYLINE
  8
0
 62
7
  6
CONTINUOUS
 66
1
 70
0
  0
VERTEX
  8
0
 62
7
  6
CONTINUOUS
 10
188.0316381703
 20
59.5048016606
  0
VERTEX
  8
0
 62
7
  6
CONTINUOUS
 10
188.2123648974
 20
59.9080484001
  0
VERTEX
  8
0
 62
7
  6
CONTINUOUS
 10
188.3873587153
 20
60.3738991313
  0
VERTEX
  8
0
 62
7
  6
CONTINUOUS
 10
188.5460566683
 20
60.8757496514
  0
VERTEX
  8
0
 62
7
  6
CONTINUOUS
 10
188.688689444
 20
61.4092974848
  0
VERTEX
  8
0
 62
7
  6
CONTINUOUS
 10
188.8153033438
 20
61.9698833156
  0
VERTEX
  8
0
 62
7
  6
CONTINUOUS
 10
188.9259139547
 20
62.5526704506
  0
VERTEX
  8
0
 62
7
  6
CONTINUOUS
 10
189.0205634144
 20
63.152652039
  0
VERTEX
  8
0
 62
7
  6
CONTINUOUS
 10
189.0919405212
 20
63.7009423835
  0
SEQEND
  0
POLYLINE
  8
0
 62
7
  6
CONTINUOUS
 66
1
 70
0
  0
VERTEX
  8
0
 62
7
  6
CONTINUOUS
 10
189.0919404704
 20
63.7009525048
  0
VERTEX
  8
0
 62
7
  6
CONTINUOUS
 10
189.08612877
 20
63.6923556069
  0
VERTEX
  8
0
 62
7
  6
CONTINUOUS
 10
189.067042017
 20
63.6835622884
  0
VERTEX
  8
0
 62
7
  6
CONTINUOUS
 10
189.0358407699
 20
63.6768338457
  0
VERTEX
  8
0
 62
7
  6
CONTINUOUS
 10
188.9945222241
 20
63.6725141423
  0
VERTEX
  8
0
 62
7
  6
CONTINUOUS
 10
188.9458258779
 20
63.6707252557
  0
VERTEX
  8
0
 62
7
  6
CONTINUOUS
 10
188.8919997965
 20
63.671284943
  0
SEQEND
  0
POLYLINE
  8
0
 62
6
  6
CONTINUOUS
 66
1
 70
0
  0
VERTEX
  8
0
 62
6
  6
CONTINUOUS
 10
222.6843004829
 20
63.7140182309
  0
VERTEX
  8
0
 62
6
  6
CONTINUOUS
 10
222.6919670932
 20
63.7027101529
  0
VERTEX
  8
0
 62
6
  6
CONTINUOUS
 10
222.68612877
 20
63.6923556069
  0
SEQEND
  0
LINE
  8
0
 62
7
  6
CONTINUOUS
 10
215.3419710531
 20
59.9080482931
 11
215.5226977363
 21
59.5048016606
  0
POLYLINE
  8
0
 62
7
  6
CONTINUOUS
 66
1
 70
0
  0
VERTEX
  8
0
 62
7
  6
CONTINUOUS
 10
197.6623953854
 20
63.7009423835
  0
VERTEX
  8
0
 62
7
  6
CONTINUOUS
 10
197.7337726405
 20
63.1526510011
  0
VERTEX
  8
0
 62
7
  6
CONTINUOUS
 10
197.8284221019
 20
62.5526695856
  0
VERTEX
  8
0
 62
7
  6
CONTINUOUS
 10
197.9390327067
 20
61.9698826212
  0
VERTEX
  8
0
 62
7
  6
CONTINUOUS
 10
198.0656465929
 20
61.4092969549
  0
VERTEX
  8
0
 62
7
  6
CONTINUOUS
 10
198.2082793473
 20
60.8757492766
  0
VERTEX
  8
0
 62
7
  6
CONTINUOUS
 10
198.3669772715
 20
60.3738988985
  0
VERTEX
  8
0
 62
7
  6
CONTINUOUS
 10
198.5419710531
 20
59.9080482931
  0
SEQEND
  0
POLYLINE
  8
0
 62
7
  6
CONTINUOUS
 66
1
 70
0
  0
VERTEX
  8
0
 62
7
  6
CONTINUOUS
 10
205.889001365
 20
69.5331077646
  0
VERTEX
  8
0
 62
7
  6
CONTINUOUS
 10
205.8850663984
 20
69.823323033
  0
VERTEX
  8
0
 62
7
  6
CONTINUOUS
 10
205.8849309829
 20
69.899427939
  0
VERTEX
  8
0
 62
7
  6
CONTINUOUS
 10
205.8860707725
 20
69.9749259687
  0
VERTEX
  8
0
 62
7
  6
CONTINUOUS
 10
205.8886544371
 20
70.0495910932
  0
VERTEX
  8
0
 62
7
  6
CONTINUOUS
 10
205.892867689
 20
70.1232394422
  0
VERTEX
  8
0
 62
7
  6
CONTINUOUS
 10
205.8988806998
 20
70.1957166962
  0
VERTEX
  8
0
 62
7
  6
CONTINUOUS
 10
205.9068411639
 20
70.2667150508
  0
VERTEX
  8
0
 62
7
  6
CONTINUOUS
 10
205.9168878625
 20
70.3357370604
  0
VERTEX
  8
0
 62
7
  6
CONTINUOUS
 10
205.9291885742
 20
70.4028808676
  0
VERTEX
  8
0
 62
7
  6
CONTINUOUS
 10
205.9438899873
 20
70.4679397244
  0
VERTEX
  8
0
 62
7
  6
CONTINUOUS
 10
205.9612544712
 20
70.5304608294
  0
VERTEX
  8
0
 62
7
  6
CONTINUOUS
 10
205.9814442799
 20
70.5887885915
  0
VERTEX
  8
0
 62
7
  6
CONTINUOUS
 10
206.0052958022
 20
70.6435301322
  0
VERTEX
  8
0
 62
7
  6
CONTINUOUS
 10
206.0326635859
 20
70.6938905573
  0
VERTEX
  8
0
 62
7
  6
CONTINUOUS
 10
206.0628568835
 20
70.7384739749
  0
VERTEX
  8
0
 62
7
  6
CONTINUOUS
 10
206.0953791722
 20
70.7768195352
  0
VERTEX
  8
0
 62
7
  6
CONTINUOUS
 10
206.1303497585
 20
70.8091066264
  0
VERTEX
  8
0
 62
7
  6
CONTINUOUS
 10
206.1676387436
 20
70.8349348168
  0
VERTEX
  8
0
 62
7
  6
CONTINUOUS
 10
206.2072460883
 20
70.8535876487
  0
VERTEX
  8
0
 62
7
  6
CONTINUOUS
 10
206.248253123
 20
70.8635327572
  0
VERTEX
  8
0
 62
7
  6
CONTINUOUS
 10
206.2674307291
 20
70.8647571969
  0
SEQEND
  0
LINE
  8
0
 62
7
  6
CONTINUOUS
 10
205.8914434196
 20
69.2500935956
 11
205.889001365
 21
69.5331077646
  0
LINE
  8
0
 62
7
  6
CONTINUOUS
 10
205.8914434196
 20
69.2500935956
 11
205.8919997965
 21
63.701992655
  0
LINE
  8
0
 62
7
  6
CONTINUOUS
 10
206.0623954184
 20
120.1861843116
 11
206.0623361131
 21
120.1851643718
  0
LINE
  8
0
 62
7
  6
CONTINUOUS
 10
207.1345401751
 20
124.4779982479
 11
207.1186353906
 21
124.3732709059
  0
POLYLINE
  8
0
 62
7
  6
CONTINUOUS
 66
1
 70
0
  0
VERTEX
  8
0
 62
7
  6
CONTINUOUS
 10
223.9226987795
 20
124.3823329981
  0
VERTEX
  8
0
 62
7
  6
CONTINUOUS
 10
223.7429155043
 20
123.9813837763
  0
VERTEX
  8
0
 62
7
  6
CONTINUOUS
 10
223.5678509661
 20
123.5157707355
  0
VERTEX
  8
0
 62
7
  6
CONTINUOUS
 10
223.4090825642
 20
123.014146255
  0
VERTEX
  8
0
 62
7
  6
CONTINUOUS
 10
223.2663778184
 20
122.4808100528
  0
VERTEX
  8
0
 62
7
  6
CONTINUOUS
 10
223.1396895849
 20
121.9204190311
  0
VERTEX
  8
0
 62
7
  6
CONTINUOUS
 10
223.0290020538
 20
121.3378082256
  0
VERTEX
  8
0
 62
7
  6
CONTINUOUS
 10
222.9342732025
 20
120.7379832987
  0
VERTEX
  8
0
 62
7
  6
CONTINUOUS
 10
222.8623953888
 20
120.1861901772
  0
SEQEND
  0
POLYLINE
  8
0
 62
6
  6
CONTINUOUS
 66
1
 70
0
  0
VERTEX
  8
0
 62
6
  6
CONTINUOUS
 10
214.4654090286
 20
63.6948988082
  0
VERTEX
  8
0
 62
6
  6
CONTINUOUS
 10
214.4626109023
 20
63.7041602299
  0
VERTEX
  8
0
 62
6
  6
CONTINUOUS
 10
214.4700357364
 20
63.7140184912
  0
SEQEND
  0
POLYLINE
  8
0
 62
7
  6
CONTINUOUS
 66
1
 70
0
  0
VERTEX
  8
0
 62
7
  6
CONTINUOUS
 10
196.4197969765
 20
124.4779902617
  0
VERTEX
  8
0
 62
7
  6
CONTINUOUS
 10
196.391676652
 20
124.6481170011
  0
VERTEX
  8
0
 62
7
  6
CONTINUOUS
 10
196.3606756432
 20
124.8132897476
  0
VERTEX
  8
0
 62
7
  6
CONTINUOUS
 10
196.3296743529
 20
124.9569767997
  0
VERTEX
  8
0
 62
7
  6
CONTINUOUS
 10
196.2982112603
 20
125.0828093057
  0
VERTEX
  8
0
 62
7
  6
CONTINUOUS
 10
196.2655117409
 20
125.1943891903
  0
VERTEX
  8
0
 62
7
  6
CONTINUOUS
 10
196.2302192862
 20
125.2955598402
  0
VERTEX
  8
0
 62
7
  6
CONTINUOUS
 10
196.189947162
 20
125.390503453
  0
VERTEX
  8
0
 62
7
  6
CONTINUOUS
 10
196.1410156334
 20
125.4827493669
  0
VERTEX
  8
0
 62
7
  6
CONTINUOUS
 10
196.077954874
 20
125.5745332991
  0
VERTEX
  8
0
 62
7
  6
CONTINUOUS
 10
195.9943580619
 20
125.6644474619
  0
VERTEX
  8
0
 62
7
  6
CONTINUOUS
 10
195.8866050161
 20
125.7451382925
  0
VERTEX
  8
0
 62
7
  6
CONTINUOUS
 10
195.7565288667
 20
125.8062759543
  0
VERTEX
  8
0
 62
7
  6
CONTINUOUS
 10
195.6117318883
 20
125.8391235209
  0
VERTEX
  8
0
 62
7
  6
CONTINUOUS
 10
195.5333255209
 20
125.8435661428
  0
SEQEND
  0
LINE
  8
0
 62
7
  6
CONTINUOUS
 10
196.435700516
 20
124.3732709059
 11
196.4197957315
 21
124.4779982479
  0
POLYLINE
  8
0
 62
7
  6
CONTINUOUS
 66
1
 70
0
  0
VERTEX
  8
0
 62
7
  6
CONTINUOUS
 10
197.4919405179
 20
120.1861901772
  0
VERTEX
  8
0
 62
7
  6
CONTINUOUS
 10
197.4200627041
 20
120.7379832987
  0
VERTEX
  8
0
 62
7
  6
CONTINUOUS
 10
197.3253338528
 20
121.3378082256
  0
VERTEX
  8
0
 62
7
  6
CONTINUOUS
 10
197.2146463218
 20
121.9204190311
  0
VERTEX
  8
0
 62
7
  6
CONTINUOUS
 10
197.0879580882
 20
122.4808100528
  0
VERTEX
  8
0
 62
7
  6
CONTINUOUS
 10
196.9452533424
 20
123.014146255
  0
VERTEX
  8
0
 62
7
  6
CONTINUOUS
 10
196.7864849405
 20
123.5157707355
  0
VERTEX
  8
0
 62
7
  6
CONTINUOUS
 10
196.6114204024
 20
123.9813837763
  0
SEQEND
  0
POLYLINE
  8
0
 62
7
  6
CONTINUOUS
 66
1
 70
0
  0
VERTEX
  8
0
 62
7
  6
CONTINUOUS
 10
206.0652876769
 20
114.3579924979
  0
VERTEX
  8
0
 62
7
  6
CONTINUOUS
 10
206.0692226332
 20
114.0684694581
  0
VERTEX
  8
0
 62
7
  6
CONTINUOUS
 10
206.0694325296
 20
113.9926385838
  0
VERTEX
  8
0
 62
7
  6
CONTINUOUS
 10
206.0683842691
 20
113.9172656303
  0
VERTEX
  8
0
 62
7
  6
CONTINUOUS
 10
206.0659059045
 20
113.8425928169
  0
VERTEX
  8
0
 62
7
  6
CONTINUOUS
 10
206.0618063598
 20
113.7688267975
  0
VERTEX
  8
0
 62
7
  6
CONTINUOUS
 10
206.0559073448
 20
113.6961353942
  0
VERTEX
  8
0
 62
7
  6
CONTINUOUS
 10
206.0480534688
 20
113.6248264782
  0
VERTEX
  8
0
 62
7
  6
CONTINUOUS
 10
206.038106668
 20
113.5554416846
  0
VERTEX
  8
0
 62
7
  6
CONTINUOUS
 10
206.0258834613
 20
113.4878879268
  0
VERTEX
  8
0
 62
7
  6
CONTINUOUS
 10
206.0112371694
 20
113.422381129
  0
VERTEX
  8
0
 62
7
  6
CONTINUOUS
 10
205.9938877224
 20
113.3593100046
  0
VERTEX
  8
0
 62
7
  6
CONTINUOUS
 10
205.9736986585
 20
113.3004270247
  0
VERTEX
  8
0
 62
7
  6
CONTINUOUS
 10
205.9498376026
 20
113.2452478597
  0
VERTEX
  8
0
 62
7
  6
CONTINUOUS
 10
205.9223682763
 20
113.1943943827
  0
VERTEX
  8
0
 62
7
  6
CONTINUOUS
 10
205.8920445049
 20
113.1494088541
  0
VERTEX
  8
0
 62
7
  6
CONTINUOUS
 10
205.8596038905
 20
113.1109933176
  0
VERTEX
  8
0
 62
7
  6
CONTINUOUS
 10
205.8249317871
 20
113.0787917479
  0
VERTEX
  8
0
 62
7
  6
CONTINUOUS
 10
205.7880781256
 20
113.0530089069
  0
VERTEX
  8
0
 62
7
  6
CONTINUOUS
 10
205.7488809295
 20
113.0341987933
  0
VERTEX
  8
0
 62
7
  6
CONTINUOUS
 10
205.7080386297
 20
113.0238513456
  0
VERTEX
  8
0
 62
7
  6
CONTINUOUS
 10
205.686731424
 20
113.0223747711
  0
SEQEND
  0
LINE
  8
0
 62
7
  6
CONTINUOUS
 10
206.0628717025
 20
114.6410142347
 11
206.0652876769
 21
114.3579924979
  0
LINE
  8
0
 62
7
  6
CONTINUOUS
 10
206.0623361102
 20
120.1851023603
 11
206.0628717025
 21
114.6410142347
  0
LINE
  8
0
 62
6
  6
CONTINUOUS
 10
210.1771679533
 20
70.8651145399
 11
210.1771679533
 21
125.8435630197
  0
LINE
  8
0
 62
7
  6
CONTINUOUS
 10
205.8919997964
 20
63.701960542
 11
205.8919404704
 21
63.7009525048
  0
LINE
  8
0
 62
7
  6
CONTINUOUS
 10
204.8197958671
 20
59.4091351546
 11
204.8356982415
 21
59.5138606996
  0
POLYLINE
  8
0
 62
6
  6
CONTINUOUS
 66
1
 70
0
  0
VERTEX
  8
0
 62
6
  6
CONTINUOUS
 10
222.865409029
 20
120.1922337247
  0
VERTEX
  8
0
 62
6
  6
CONTINUOUS
 10
222.8626109022
 20
120.182972303
  0
VERTEX
  8
0
 62
6
  6
CONTINUOUS
 10
222.8700357364
 20
120.1731140414
  0
SEQEND
  0
LINE
  8
0
 62
7
  6
CONTINUOUS
 10
196.6114204024
 20
123.9813837763
 11
196.4316371272
 21
124.3823329981
  0
POLYLINE
  8
0
 62
7
  6
CONTINUOUS
 66
1
 70
0
  0
VERTEX
  8
0
 62
7
  6
CONTINUOUS
 10
215.5345388174
 20
59.4091429936
  0
VERTEX
  8
0
 62
7
  6
CONTINUOUS
 10
215.5624219376
 20
59.2403679866
  0
VERTEX
  8
0
 62
7
  6
CONTINUOUS
 10
215.593470598
 20
59.0747859945
  0
VERTEX
  8
0
 62
7
  6
CONTINUOUS
 10
215.6245226916
 20
58.9307543017
  0
VERTEX
  8
0
 62
7
  6
CONTINUOUS
 10
215.6560412491
 20
58.8046318779
  0
VERTEX
  8
0
 62
7
  6
CONTINUOUS
 10
215.6888042895
 20
58.6928056854
  0
VERTEX
  8
0
 62
7
  6
CONTINUOUS
 10
215.7241763424
 20
58.5914167367
  0
VERTEX
  8
0
 62
7
  6
CONTINUOUS
 10
215.7645647921
 20
58.4962555808
  0
VERTEX
  8
0
 62
7
  6
CONTINUOUS
 10
215.8136926849
 20
58.4037611236
  0
VERTEX
  8
0
 62
7
  6
CONTINUOUS
 10
215.8770877684
 20
58.3117059085
  0
VERTEX
  8
0
 62
7
  6
CONTINUOUS
 10
215.9612050497
 20
58.2215702844
  0
VERTEX
  8
0
 62
7
  6
CONTINUOUS
 10
216.0696197388
 20
58.1408523169
  0
VERTEX
  8
0
 62
7
  6
CONTINUOUS
 10
216.2004131407
 20
58.0799613126
  0
VERTEX
  8
0
 62
7
  6
CONTINUOUS
 10
216.3459366383
 20
58.0476366704
  0
VERTEX
  8
0
 62
7
  6
CONTINUOUS
 10
216.4210101577
 20
58.0435663895
  0
SEQEND
  0
LINE
  8
0
 62
7
  6
CONTINUOUS
 10
215.5186376652
 20
59.5138606992
 11
215.5345400395
 21
59.4091351546
  0
POLYLINE
  8
0
 62
7
  6
CONTINUOUS
 66
1
 70
0
  0
VERTEX
  8
0
 62
7
  6
CONTINUOUS
 10
214.4623953854
 20
63.7009423835
  0
VERTEX
  8
0
 62
7
  6
CONTINUOUS
 10
214.5337726405
 20
63.1526510011
  0
VERTEX
  8
0
 62
7
  6
CONTINUOUS
 10
214.6284221019
 20
62.5526695856
  0
VERTEX
  8
0
 62
7
  6
CONTINUOUS
 10
214.7390327067
 20
61.9698826212
  0
VERTEX
  8
0
 62
7
  6
CONTINUOUS
 10
214.8656465929
 20
61.4092969549
  0
VERTEX
  8
0
 62
7
  6
CONTINUOUS
 10
215.0082793473
 20
60.8757492766
  0
VERTEX
  8
0
 62
7
  6
CONTINUOUS
 10
215.1669772715
 20
60.3738988985
  0
VERTEX
  8
0
 62
7
  6
CONTINUOUS
 10
215.3419710531
 20
59.9080482931
  0
SEQEND
  0
LINE
  8
0
 62
7
  6
CONTINUOUS
 10
214.462395415
 20
63.7009482492
 11
214.4623361131
 21
63.7019681608
  0
LINE
  8
0
 62
7
  6
CONTINUOUS
 10
214.2919404883
 20
120.1861843116
 11
214.2919997935
 21
120.1851643718
  0
POLYLINE
  8
0
 62
7
  6
CONTINUOUS
 66
1
 70
0
  0
VERTEX
  8
0
 62
7
  6
CONTINUOUS
 10
214.2850722494
 20
114.0643583558
  0
VERTEX
  8
0
 62
7
  6
CONTINUOUS
 10
214.289001768
 20
114.3540286115
  0
VERTEX
  8
0
 62
7
  6
CONTINUOUS
 10
214.2914435118
 20
114.6370408129
  0
VERTEX
  8
0
 62
7
  6
CONTINUOUS
 10
214.2919997965
 20
120.1851023603
  0
SEQEND
  0
POLYLINE
  8
0
 62
7
  6
CONTINUOUS
 66
1
 70
0
  0
VERTEX
  8
0
 62
7
  6
CONTINUOUS
 10
214.4692273231
 20
69.8191164851
  0
VERTEX
  8
0
 62
7
  6
CONTINUOUS
 10
214.4652876772
 20
69.529139984
  0
VERTEX
  8
0
 62
7
  6
CONTINUOUS
 10
214.4628717027
 20
69.2461183235
  0
VERTEX
  8
0
 62
7
  6
CONTINUOUS
 10
214.4623361102
 20
63.7020301723
  0
SEQEND
  0
LINE
  8
0
 62
7
  6
CONTINUOUS
 10
223.9345401751
 20
124.4779982479
 11
223.9186353906
 21
124.3732709059
  0
POLYLINE
  8
0
 62
7
  6
CONTINUOUS
 66
1
 70
0
  0
VERTEX
  8
0
 62
7
  6
CONTINUOUS
 10
204.8316381703
 20
59.5048016606
  0
VERTEX
  8
0
 62
7
  6
CONTINUOUS
 10
205.0123648974
 20
59.9080484001
  0
VERTEX
  8
0
 62
7
  6
CONTINUOUS
 10
205.1873587153
 20
60.3738991313
  0
VERTEX
  8
0
 62
7
  6
CONTINUOUS
 10
205.3460566683
 20
60.8757496514
  0
VERTEX
  8
0
 62
7
  6
CONTINUOUS
 10
205.488689444
 20
61.4092974848
  0
VERTEX
  8
0
 62
7
  6
CONTINUOUS
 10
205.6153033438
 20
61.9698833156
  0
VERTEX
  8
0
 62
7
  6
CONTINUOUS
 10
205.7259139547
 20
62.5526704506
  0
VERTEX
  8
0
 62
7
  6
CONTINUOUS
 10
205.8205634144
 20
63.152652039
  0
VERTEX
  8
0
 62
7
  6
CONTINUOUS
 10
205.8919405212
 20
63.7009423835
  0
SEQEND
  0
POLYLINE
  8
0
 62
7
  6
CONTINUOUS
 66
1
 70
0
  0
VERTEX
  8
0
 62
7
  6
CONTINUOUS
 10
205.8919404704
 20
63.7009525048
  0
VERTEX
  8
0
 62
7
  6
CONTINUOUS
 10
205.88612877
 20
63.6923556069
  0
VERTEX
  8
0
 62
7
  6
CONTINUOUS
 10
205.867042017
 20
63.6835622884
  0
VERTEX
  8
0
 62
7
  6
CONTINUOUS
 10
205.8358407699
 20
63.6768338457
  0
VERTEX
  8
0
 62
7
  6
CONTINUOUS
 10
205.7945222241
 20
63.6725141423
  0
VERTEX
  8
0
 62
7
  6
CONTINUOUS
 10
205.7458258779
 20
63.6707252557
  0
VERTEX
  8
0
 62
7
  6
CONTINUOUS
 10
205.6919997965
 20
63.671284943
  0
SEQEND
  0
POLYLINE
  8
0
 62
7
  6
CONTINUOUS
 66
1
 70
0
  0
VERTEX
  8
0
 62
7
  6
CONTINUOUS
 10
213.2197969765
 20
124.4779902617
  0
VERTEX
  8
0
 62
7
  6
CONTINUOUS
 10
213.191676652
 20
124.6481170011
  0
VERTEX
  8
0
 62
7
  6
CONTINUOUS
 10
213.1606756432
 20
124.8132897476
  0
VERTEX
  8
0
 62
7
  6
CONTINUOUS
 10
213.1296743529
 20
124.9569767997
  0
VERTEX
  8
0
 62
7
  6
CONTINUOUS
 10
213.0982112603
 20
125.0828093057
  0
VERTEX
  8
0
 62
7
  6
CONTINUOUS
 10
213.0655117409
 20
125.1943891903
  0
VERTEX
  8
0
 62
7
  6
CONTINUOUS
 10
213.0302192862
 20
125.2955598402
  0
VERTEX
  8
0
 62
7
  6
CONTINUOUS
 10
212.989947162
 20
125.390503453
  0
VERTEX
  8
0
 62
7
  6
CONTINUOUS
 10
212.9410156334
 20
125.4827493669
  0
VERTEX
  8
0
 62
7
  6
CONTINUOUS
 10
212.877954874
 20
125.5745332991
  0
VERTEX
  8
0
 62
7
  6
CONTINUOUS
 10
212.7943580619
 20
125.6644474619
  0
VERTEX
  8
0
 62
7
  6
CONTINUOUS
 10
212.6866050161
 20
125.7451382925
  0
VERTEX
  8
0
 62
7
  6
CONTINUOUS
 10
212.5565288667
 20
125.8062759543
  0
VERTEX
  8
0
 62
7
  6
CONTINUOUS
 10
212.4117318883
 20
125.8391235209
  0
VERTEX
  8
0
 62
7
  6
CONTINUOUS
 10
212.3333255209
 20
125.8435661428
  0
SEQEND
  0
LINE
  8
0
 62
7
  6
CONTINUOUS
 10
213.235700516
 20
124.3732709059
 11
213.2197957315
 21
124.4779982479
  0
POLYLINE
  8
0
 62
7
  6
CONTINUOUS
 66
1
 70
0
  0
VERTEX
  8
0
 62
7
  6
CONTINUOUS
 10
214.2919405179
 20
120.1861901772
  0
VERTEX
  8
0
 62
7
  6
CONTINUOUS
 10
214.2200627041
 20
120.7379832987
  0
VERTEX
  8
0
 62
7
  6
CONTINUOUS
 10
214.1253338528
 20
121.3378082256
  0
VERTEX
  8
0
 62
7
  6
CONTINUOUS
 10
214.0146463218
 20
121.9204190311
  0
VERTEX
  8
0
 62
7
  6
CONTINUOUS
 10
213.8879580882
 20
122.4808100528
  0
VERTEX
  8
0
 62
7
  6
CONTINUOUS
 10
213.7452533424
 20
123.014146255
  0
VERTEX
  8
0
 62
7
  6
CONTINUOUS
 10
213.5864849405
 20
123.5157707355
  0
VERTEX
  8
0
 62
7
  6
CONTINUOUS
 10
213.4114204024
 20
123.9813837763
  0
SEQEND
  0
POLYLINE
  8
0
 62
7
  6
CONTINUOUS
 66
1
 70
0
  0
VERTEX
  8
0
 62
7
  6
CONTINUOUS
 10
222.8652876769
 20
114.3579924979
  0
VERTEX
  8
0
 62
7
  6
CONTINUOUS
 10
222.8692226332
 20
114.0684694581
  0
VERTEX
  8
0
 62
7
  6
CONTINUOUS
 10
222.8694325296
 20
113.9926385838
  0
VERTEX
  8
0
 62
7
  6
CONTINUOUS
 10
222.8683842691
 20
113.9172656303
  0
VERTEX
  8
0
 62
7
  6
CONTINUOUS
 10
222.8659059045
 20
113.8425928169
  0
VERTEX
  8
0
 62
7
  6
CONTINUOUS
 10
222.8618063598
 20
113.7688267975
  0
VERTEX
  8
0
 62
7
  6
CONTINUOUS
 10
222.8559073448
 20
113.6961353942
  0
VERTEX
  8
0
 62
7
  6
CONTINUOUS
 10
222.8480534688
 20
113.6248264782
  0
VERTEX
  8
0
 62
7
  6
CONTINUOUS
 10
222.838106668
 20
113.5554416846
  0
VERTEX
  8
0
 62
7
  6
CONTINUOUS
 10
222.8258834613
 20
113.4878879268
  0
VERTEX
  8
0
 62
7
  6
CONTINUOUS
 10
222.8112371694
 20
113.422381129
  0
VERTEX
  8
0
 62
7
  6
CONTINUOUS
 10
222.7938877224
 20
113.3593100046
  0
VERTEX
  8
0
 62
7
  6
CONTINUOUS
 10
222.7736986585
 20
113.3004270247
  0
VERTEX
  8
0
 62
7
  6
CONTINUOUS
 10
222.7498376026
 20
113.2452478597
  0
VERTEX
  8
0
 62
7
  6
CONTINUOUS
 10
222.7223682763
 20
113.1943943827
  0
VERTEX
  8
0
 62
7
  6
CONTINUOUS
 10
222.6920445049
 20
113.1494088541
  0
VERTEX
  8
0
 62
7
  6
CONTINUOUS
 10
222.6596038905
 20
113.1109933176
  0
VERTEX
  8
0
 62
7
  6
CONTINUOUS
 10
222.6249317871
 20
113.0787917479
  0
VERTEX
  8
0
 62
7
  6
CONTINUOUS
 10
222.5880781256
 20
113.0530089069
  0
VERTEX
  8
0
 62
7
  6
CONTINUOUS
 10
222.5488809295
 20
113.0341987933
  0
VERTEX
  8
0
 62
7
  6
CONTINUOUS
 10
222.5080386297
 20
113.0238513456
  0
VERTEX
  8
0
 62
7
  6
CONTINUOUS
 10
222.486731424
 20
113.0223747711
  0
SEQEND
  0
POLYLINE
  8
0
 62
7
  6
CONTINUOUS
 66
1
 70
0
  0
VERTEX
  8
0
 62
7
  6
CONTINUOUS
 10
222.689001365
 20
69.5331077646
  0
VERTEX
  8
0
 62
7
  6
CONTINUOUS
 10
222.6850663984
 20
69.823323033
  0
VERTEX
  8
0
 62
7
  6
CONTINUOUS
 10
222.6849309829
 20
69.899427939
  0
VERTEX
  8
0
 62
7
  6
CONTINUOUS
 10
222.6860707725
 20
69.9749259687
  0
VERTEX
  8
0
 62
7
  6
CONTINUOUS
 10
222.6886544371
 20
70.0495910932
  0
VERTEX
  8
0
 62
7
  6
CONTINUOUS
 10
222.692867689
 20
70.1232394422
  0
VERTEX
  8
0
 62
7
  6
CONTINUOUS
 10
222.6988806998
 20
70.1957166962
  0
VERTEX
  8
0
 62
7
  6
CONTINUOUS
 10
222.7068411639
 20
70.2667150508
  0
VERTEX
  8
0
 62
7
  6
CONTINUOUS
 10
222.7168878625
 20
70.3357370604
  0
VERTEX
  8
0
 62
7
  6
CONTINUOUS
 10
222.7291885742
 20
70.4028808676
  0
VERTEX
  8
0
 62
7
  6
CONTINUOUS
 10
222.7438899873
 20
70.4679397244
  0
VERTEX
  8
0
 62
7
  6
CONTINUOUS
 10
222.7612544712
 20
70.5304608294
  0
VERTEX
  8
0
 62
7
  6
CONTINUOUS
 10
222.7814442799
 20
70.5887885915
  0
VERTEX
  8
0
 62
7
  6
CONTINUOUS
 10
222.8052958022
 20
70.6435301322
  0
VERTEX
  8
0
 62
7
  6
CONTINUOUS
 10
222.8326635859
 20
70.6938905573
  0
VERTEX
  8
0
 62
7
  6
CONTINUOUS
 10
222.8628568835
 20
70.7384739749
  0
VERTEX
  8
0
 62
7
  6
CONTINUOUS
 10
222.8953791722
 20
70.7768195352
  0
VERTEX
  8
0
 62
7
  6
CONTINUOUS
 10
222.9303497585
 20
70.8091066264
  0
VERTEX
  8
0
 62
7
  6
CONTINUOUS
 10
222.9676387436
 20
70.8349348168
  0
VERTEX
  8
0
 62
7
  6
CONTINUOUS
 10
223.0072460883
 20
70.8535876487
  0
VERTEX
  8
0
 62
7
  6
CONTINUOUS
 10
223.048253123
 20
70.8635327572
  0
VERTEX
  8
0
 62
7
  6
CONTINUOUS
 10
223.0674307291
 20
70.8647571969
  0
SEQEND
  0
LINE
  8
0
 62
7
  6
CONTINUOUS
 10
222.6914434196
 20
69.2500935956
 11
222.689001365
 21
69.5331077646
  0
LINE
  8
0
 62
7
  6
CONTINUOUS
 10
222.8628717025
 20
114.6410142347
 11
222.8652876769
 21
114.3579924979
  0
LINE
  8
0
 62
7
  6
CONTINUOUS
 10
222.6914434196
 20
69.2500935956
 11
222.6919997965
 21
63.701992655
  0
LINE
  8
0
 62
7
  6
CONTINUOUS
 10
222.8623361102
 20
120.1851023603
 11
222.8628717025
 21
114.6410142347
  0
LINE
  8
0
 62
7
  6
CONTINUOUS
 10
222.8623954184
 20
120.1861843116
 11
222.8623361131
 21
120.1851643718
  0
LINE
  8
0
 62
7
  6
CONTINUOUS
 10
222.6919997964
 20
63.701960542
 11
222.6919404704
 21
63.7009525048
  0
LINE
  8
0
 62
7
  6
CONTINUOUS
 10
213.4114204024
 20
123.9813837763
 11
213.2316371272
 21
124.3823329981
  0
POLYLINE
  8
0
 62
6
  6
CONTINUOUS
 66
1
 70
0
  0
VERTEX
  8
0
 62
6
  6
CONTINUOUS
 10
214.2889268777
 20
120.1922337247
  0
VERTEX
  8
0
 62
6
  6
CONTINUOUS
 10
214.2917250044
 20
120.182972303
  0
VERTEX
  8
0
 62
6
  6
CONTINUOUS
 10
214.2843001702
 20
120.1731140414
  0
SEQEND
  0
LINE
  8
0
 62
6
  6
CONTINUOUS
 10
226.9771679533
 20
70.8650792109
 11
226.9771679533
 21
125.8435630197
  0
LINE
  8
0
 62
7
  6
CONTINUOUS
 10
221.6197958671
 20
59.4091351546
 11
221.6356982415
 21
59.5138606996
  0
POLYLINE
  8
0
 62
7
  6
CONTINUOUS
 66
1
 70
0
  0
VERTEX
  8
0
 62
7
  6
CONTINUOUS
 10
221.6316381703
 20
59.5048016606
  0
VERTEX
  8
0
 62
7
  6
CONTINUOUS
 10
221.8123648974
 20
59.9080484001
  0
VERTEX
  8
0
 62
7
  6
CONTINUOUS
 10
221.9873587153
 20
60.3738991313
  0
VERTEX
  8
0
 62
7
  6
CONTINUOUS
 10
222.1460566683
 20
60.8757496514
  0
VERTEX
  8
0
 62
7
  6
CONTINUOUS
 10
222.288689444
 20
61.4092974848
  0
VERTEX
  8
0
 62
7
  6
CONTINUOUS
 10
222.4153033438
 20
61.9698833156
  0
VERTEX
  8
0
 62
7
  6
CONTINUOUS
 10
222.5259139547
 20
62.5526704506
  0
VERTEX
  8
0
 62
7
  6
CONTINUOUS
 10
222.6205634144
 20
63.152652039
  0
VERTEX
  8
0
 62
7
  6
CONTINUOUS
 10
222.6919405212
 20
63.7009423835
  0
SEQEND
  0
POLYLINE
  8
0
 62
7
  6
CONTINUOUS
 66
1
 70
0
  0
VERTEX
  8
0
 62
7
  6
CONTINUOUS
 10
222.6919404704
 20
63.7009525048
  0
VERTEX
  8
0
 62
7
  6
CONTINUOUS
 10
222.68612877
 20
63.6923556069
  0
VERTEX
  8
0
 62
7
  6
CONTINUOUS
 10
222.667042017
 20
63.6835622884
  0
VERTEX
  8
0
 62
7
  6
CONTINUOUS
 10
222.6358407699
 20
63.6768338457
  0
VERTEX
  8
0
 62
7
  6
CONTINUOUS
 10
222.5945222241
 20
63.6725141423
  0
VERTEX
  8
0
 62
7
  6
CONTINUOUS
 10
222.5458258779
 20
63.6707252557
  0
VERTEX
  8
0
 62
7
  6
CONTINUOUS
 10
222.4919997965
 20
63.671284943
  0
SEQEND
  0
LINE
  8
0
 62
7
  6
CONTINUOUS
 10
230.8271679533
 20
79.7011860159
 11
230.8271679533
 21
104.1859465166
  0
LINE
  8
0
 62
7
  6
CONTINUOUS
 10
231.0771679533
 20
71.0656600894
 11
231.0771679533
 21
125.6436334455
  0
POLYLINE
  8
0
 62
7
  6
CONTINUOUS
 66
1
 70
0
  0
VERTEX
  8
0
 62
7
  6
CONTINUOUS
 10
231.0771679533
 20
120.1808183698
  0
VERTEX
  8
0
 62
7
  6
CONTINUOUS
 10
231.0722430832
 20
120.1885811368
  0
VERTEX
  8
0
 62
7
  6
CONTINUOUS
 10
231.0576585683
 20
120.195961262
  0
VERTEX
  8
0
 62
7
  6
CONTINUOUS
 10
231.0340501066
 20
120.2025954594
  0
VERTEX
  8
0
 62
7
  6
CONTINUOUS
 10
231.0025116569
 20
120.2081515335
  0
VERTEX
  8
0
 62
7
  6
CONTINUOUS
 10
230.9645604722
 20
120.2123457213
  0
VERTEX
  8
0
 62
7
  6
CONTINUOUS
 10
230.9220693474
 20
120.2149586349
  0
VERTEX
  8
0
 62
7
  6
CONTINUOUS
 10
230.8771679533
 20
120.2158475896
  0
SEQEND
  0
POLYLINE
  8
0
 62
7
  6
CONTINUOUS
 66
1
 70
0
  0
VERTEX
  8
0
 62
7
  6
CONTINUOUS
 10
231.0771676375
 20
125.6437550635
  0
VERTEX
  8
0
 62
7
  6
CONTINUOUS
 10
231.0721285773
 20
125.6881713196
  0
VERTEX
  8
0
 62
7
  6
CONTINUOUS
 10
231.0573531227
 20
125.7303539344
  0
VERTEX
  8
0
 62
7
  6
CONTINUOUS
 10
231.0335775652
 20
125.7682040952
  0
VERTEX
  8
0
 62
7
  6
CONTINUOUS
 10
231.001989113
 20
125.799829608
  0
VERTEX
  8
0
 62
7
  6
CONTINUOUS
 10
230.964165093
 20
125.8236503983
  0
VERTEX
  8
0
 62
7
  6
CONTINUOUS
 10
230.9219952975
 20
125.838475962
  0
VERTEX
  8
0
 62
7
  6
CONTINUOUS
 10
230.8771587745
 20
125.8435662652
  0
SEQEND
  0
LINE
  8
0
 62
2
  6
CONTINUOUS
 10
262.6491093781
 20
51.9435662663
 11
262.6491093781
 21
131.9435662663
  0
POLYLINE
  8
0
 62
7
  6
CONTINUOUS
 66
1
 70
0
  0
VERTEX
  8
0
 62
7
  6
CONTINUOUS
 10
274.65920031
 20
120.2117928645
  0
VERTEX
  8
0
 62
7
  6
CONTINUOUS
 10
274.9083895987
 20
120.8389898695
  0
VERTEX
  8
0
 62
7
  6
CONTINUOUS
 10
275.2086237759
 20
121.4465540526
  0
VERTEX
  8
0
 62
7
  6
CONTINUOUS
 10
275.5572721785
 20
122.0276942107
  0
VERTEX
  8
0
 62
7
  6
CONTINUOUS
 10
275.9514643738
 20
122.577260116
  0
SEQEND
  0
LINE
  8
0
 62
7
  6
CONTINUOUS
 10
274.6491093781
 20
71.0435662663
 11
274.6491093781
 21
63.671284943
  0
LINE
  8
0
 62
6
  6
CONTINUOUS
 10
274.6491093781
 20
63.6713318098
 11
274.6491093781
 21
63.671284943
  0
LINE
  8
0
 62
7
  6
CONTINUOUS
 10
274.6491093781
 20
112.8435662663
 11
274.6491093781
 21
120.2158007228
  0
LINE
  8
0
 62
6
  6
CONTINUOUS
 10
274.6491093781
 20
120.2158007228
 11
274.6491093781
 21
120.2158475896
  0
LINE
  8
0
 62
7
  6
CONTINUOUS
 10
274.65920031
 20
112.8435662664
 11
274.65920031
 21
120.2117928645
  0
LINE
  8
0
 62
7
  6
CONTINUOUS
 10
274.6991093781
 20
92.696389627
 11
274.6991093781
 21
91.1907429055
  0
LINE
  8
0
 62
2
  6
CONTINUOUS
 10
302.6491093781
 20
51.9435662663
 11
262.6491093781
 21
51.9435662663
  0
POLYLINE
  8
0
 62
7
  6
CONTINUOUS
 66
1
 70
0
  0
VERTEX
  8
0
 62
7
  6
CONTINUOUS
 10
274.7908353579
 20
111.5918475277
  0
VERTEX
  8
0
 62
7
  6
CONTINUOUS
 10
274.7178319056
 20
112.0056065817
  0
VERTEX
  8
0
 62
7
  6
CONTINUOUS
 10
274.6738805137
 20
112.4234939649
  0
VERTEX
  8
0
 62
7
  6
CONTINUOUS
 10
274.65920031
 20
112.8435662664
  0
SEQEND
  0
LINE
  8
DEFAULT_1
 62
2
  6
CENTER
 10
282.6491093781
 20
122.5935662663
 11
282.6491093781
 21
119.3436662663
  0
LINE
  8
0
 62
2
  6
CONTINUOUS
 10
282.6491093781
 20
118.3935662663
 11
282.6491093781
 21
116.2935662663
  0
LINE
  8
0
 62
40
  6
CONTINUOUS
 10
282.6491093781
 20
116.2935662663
 11
282.6491093781
 21
115.9635662663
  0
LINE
  8
0
 62
7
  6
CONTINUOUS
 10
282.6491093781
 20
98.1213754455
 11
282.6491093781
 21
96.4286664097
  0
LINE
  8
0
 62
7
  6
CONTINUOUS
 10
282.6491093781
 20
87.4584661229
 11
282.6491093781
 21
85.7657570871
  0
LINE
  8
DEFAULT_1
 62
2
  6
CENTER
 10
282.6491093781
 20
71.7935662663
 11
282.6491093781
 21
68.5436662663
  0
LINE
  8
0
 62
2
  6
CONTINUOUS
 10
282.6491093781
 20
67.5935662663
 11
282.6491093781
 21
65.4935662663
  0
LINE
  8
0
 62
40
  6
CONTINUOUS
 10
282.6491093781
 20
65.4935662663
 11
282.6491093781
 21
64.9235662663
  0
LINE
  8
0
 62
40
  6
CONTINUOUS
 10
282.6491093781
 20
58.0444793821
 11
282.6491093781
 21
38.1202662663
  0
LINE
  8
DEFAULT_1
 62
2
  6
CENTER
 10
282.6491093781
 20
61.2935662663
 11
282.6491093781
 21
64.5434662663
  0
LINE
  8
0
 62
40
  6
CONTINUOUS
 10
282.6491093781
 20
67.5935662663
 11
282.6491093781
 21
67.9235662663
  0
LINE
  8
DEFAULT_1
 62
2
  6
CENTER
 10
282.6491093781
 20
112.0935662663
 11
282.6491093781
 21
115.3434662663
  0
LINE
  8
0
 62
40
  6
CONTINUOUS
 10
282.6491093781
 20
118.3935662663
 11
282.6491093781
 21
118.9635662663
  0
LINE
  8
0
 62
40
  6
CONTINUOUS
 10
282.6491093781
 20
125.8427542339
 11
282.6491093781
 21
145.7668662663
  0
LINE
  8
0
 62
7
  6
CONTINUOUS
 10
286.5526746343
 20
109.2924853235
 11
282.7067011578
 21
98.4558403112
  0
POLYLINE
  8
0
 62
6
  6
CONTINUOUS
 66
1
 70
0
  0
VERTEX
  8
0
 62
6
  6
CONTINUOUS
 10
290.4972128253
 20
63.6923556069
  0
VERTEX
  8
0
 62
6
  6
CONTINUOUS
 10
290.5458576133
 20
63.6835622884
  0
VERTEX
  8
0
 62
6
  6
CONTINUOUS
 10
290.5880689922
 20
63.6768338457
  0
VERTEX
  8
0
 62
6
  6
CONTINUOUS
 10
290.6208334353
 20
63.6725141423
  0
VERTEX
  8
0
 62
6
  6
CONTINUOUS
 10
290.6417301271
 20
63.6707252557
  0
VERTEX
  8
0
 62
6
  6
CONTINUOUS
 10
290.6491093781
 20
63.671284943
  0
SEQEND
  0
LINE
  8
0
 62
6
  6
CONTINUOUS
 10
290.4972128253
 20
63.6923556069
 11
290.4386288559
 21
63.7041602299
  0
LINE
  8
0
 62
6
  6
CONTINUOUS
 10
290.3941507937
 20
63.7140182309
 11
290.4454927144
 21
63.7027101529
  0
LINE
  8
0
 62
7
  6
CONTINUOUS
 10
282.7067011578
 20
85.4312922213
 11
283.8499227851
 21
82.2100825533
  0
LINE
  8
0
 62
6
  6
CONTINUOUS
 10
286.5526746343
 20
74.5946472091
 11
283.8499227851
 21
82.2100825533
  0
LINE
  8
0
 62
6
  6
CONTINUOUS
 10
290.6491385582
 20
112.7724529099
 11
290.6490627284
 21
112.7721766817
  0
POLYLINE
  8
0
 62
6
  6
CONTINUOUS
 66
1
 70
0
  0
VERTEX
  8
0
 62
6
  6
CONTINUOUS
 10
290.6491093781
 20
63.671284943
  0
VERTEX
  8
0
 62
6
  6
CONTINUOUS
 10
290.6435015171
 20
63.6706729904
  0
VERTEX
  8
0
 62
6
  6
CONTINUOUS
 10
290.6274363632
 20
63.6718120113
  0
VERTEX
  8
0
 62
6
  6
CONTINUOUS
 10
290.6017747751
 20
63.6748969841
  0
VERTEX
  8
0
 62
6
  6
CONTINUOUS
 10
290.5679664026
 20
63.6799141186
  0
VERTEX
  8
0
 62
6
  6
CONTINUOUS
 10
290.5279576199
 20
63.6866841345
  0
VERTEX
  8
0
 62
6
  6
CONTINUOUS
 10
290.4840339331
 20
63.6948988082
  0
SEQEND
  0
LINE
  8
DEFAULT_1
 62
2
  6
CENTER
 10
287.8991093781
 20
66.5435662663
 11
284.6492093781
 21
66.5435662663
  0
LINE
  8
0
 62
2
  6
CONTINUOUS
 10
283.6991093781
 20
66.5435662663
 11
281.5991093781
 21
66.5435662663
  0
LINE
  8
DEFAULT_1
 62
2
  6
CENTER
 10
277.3991093781
 20
66.5435662663
 11
280.6490093781
 21
66.5435662663
  0
LINE
  8
0
 62
6
  6
CONTINUOUS
 10
290.6491385586
 20
71.1146796176
 11
290.6490627275
 21
71.1149558509
  0
LINE
  8
0
 62
7
  6
CONTINUOUS
 10
290.6491093781
 20
63.671284943
 11
290.6491093781
 21
120.2158475896
  0
LINE
  8
0
 62
6
  6
CONTINUOUS
 10
275.2144116752
 20
63.7760099484
 11
275.5694323769
 21
63.8330186676
  0
POLYLINE
  8
0
 62
7
  6
CONTINUOUS
 66
1
 70
0
  0
VERTEX
  8
0
 62
7
  6
CONTINUOUS
 10
275.067547737
 20
110.8980101322
  0
VERTEX
  8
0
 62
7
  6
CONTINUOUS
 10
274.9964762289
 20
111.006001537
  0
VERTEX
  8
0
 62
7
  6
CONTINUOUS
 10
274.9372037907
 20
111.1224306881
  0
VERTEX
  8
0
 62
7
  6
CONTINUOUS
 10
274.8884229632
 20
111.2432664609
  0
VERTEX
  8
0
 62
7
  6
CONTINUOUS
 10
274.8487666487
 20
111.3637780397
  0
VERTEX
  8
0
 62
7
  6
CONTINUOUS
 10
274.8166901783
 20
111.4804988803
  0
VERTEX
  8
0
 62
7
  6
CONTINUOUS
 10
274.7908298436
 20
111.5918728059
  0
SEQEND
  0
POLYLINE
  8
0
 62
7
  6
CONTINUOUS
 66
1
 70
0
  0
VERTEX
  8
0
 62
7
  6
CONTINUOUS
 10
290.6491385582
 20
112.7724529099
  0
VERTEX
  8
0
 62
7
  6
CONTINUOUS
 10
290.6406844866
 20
112.8369100624
  0
VERTEX
  8
0
 62
7
  6
CONTINUOUS
 10
290.6158937079
 20
112.8970073965
  0
VERTEX
  8
0
 62
7
  6
CONTINUOUS
 10
290.5764430657
 20
112.948679373
  0
VERTEX
  8
0
 62
7
  6
CONTINUOUS
 10
290.5250012222
 20
112.9884303218
  0
VERTEX
  8
0
 62
7
  6
CONTINUOUS
 10
290.4650481483
 20
113.0135710175
  0
VERTEX
  8
0
 62
7
  6
CONTINUOUS
 10
290.4006396707
 20
113.0224006884
  0
VERTEX
  8
0
 62
7
  6
CONTINUOUS
 10
290.3361330291
 20
113.0143221178
  0
VERTEX
  8
0
 62
7
  6
CONTINUOUS
 10
290.2758920337
 20
112.989882043
  0
VERTEX
  8
0
 62
7
  6
CONTINUOUS
 10
290.2239917959
 20
112.9507341237
  0
VERTEX
  8
0
 62
7
  6
CONTINUOUS
 10
290.1839430162
 20
112.8995269968
  0
SEQEND
  0
LINE
  8
0
 62
2
  6
CONTINUOUS
 10
302.6491093781
 20
51.9435662663
 11
302.6491093781
 21
131.9435662663
  0
LINE
  8
0
 62
7
  6
CONTINUOUS
 10
282.0400607557
 20
95.6135330257
 11
275.4156371691
 21
93.6553700787
  0
LINE
  8
0
 62
7
  6
CONTINUOUS
 10
275.4156371691
 20
90.2317624539
 11
282.0400607557
 21
88.2735995069
  0
LINE
  8
0
 62
7
  6
CONTINUOUS
 10
365.203877075
 20
88.7617440202
 11
302.3878030117
 21
87.3935662663
  0
LINE
  8
DEFAULT_1
 62
2
  6
CENTER
 10
260.6491093781
 20
91.9435662663
 11
368.8491093781
 21
91.9435662663
  0
LINE
  8
0
 62
7
  6
CONTINUOUS
 10
302.3878030117
 20
96.4935662663
 11
365.203877075
 21
95.1253885124
  0
POLYLINE
  8
0
 62
7
  6
CONTINUOUS
 66
1
 70
0
  0
VERTEX
  8
0
 62
7
  6
CONTINUOUS
 10
274.6491093781
 20
120.2158007228
  0
VERTEX
  8
0
 62
7
  6
CONTINUOUS
 10
274.6516381023
 20
120.2142034616
  0
VERTEX
  8
0
 62
7
  6
CONTINUOUS
 10
274.65920031
 20
120.2117928645
  0
SEQEND
  0
POLYLINE
  8
0
 62
6
  6
CONTINUOUS
 66
1
 70
0
  0
VERTEX
  8
0
 62
6
  6
CONTINUOUS
 10
274.6491093781
 20
63.6713318098
  0
VERTEX
  8
0
 62
6
  6
CONTINUOUS
 10
274.6667621928
 20
63.6773247528
  0
VERTEX
  8
0
 62
6
  6
CONTINUOUS
 10
274.7188969216
 20
63.6887331795
  0
VERTEX
  8
0
 62
6
  6
CONTINUOUS
 10
274.8033988957
 20
63.7050160051
  0
VERTEX
  8
0
 62
6
  6
CONTINUOUS
 10
274.917058911
 20
63.7255165874
  0
VERTEX
  8
0
 62
6
  6
CONTINUOUS
 10
275.0557120528
 20
63.7494689624
  0
VERTEX
  8
0
 62
6
  6
CONTINUOUS
 10
275.2144116752
 20
63.7760099484
  0
SEQEND
  0
POLYLINE
  8
0
 62
6
  6
CONTINUOUS
 66
1
 70
0
  0
VERTEX
  8
0
 62
6
  6
CONTINUOUS
 10
274.6491093781
 20
120.2158007228
  0
VERTEX
  8
0
 62
6
  6
CONTINUOUS
 10
274.6667621928
 20
120.2098077798
  0
VERTEX
  8
0
 62
6
  6
CONTINUOUS
 10
274.7188969216
 20
120.1983993531
  0
VERTEX
  8
0
 62
6
  6
CONTINUOUS
 10
274.8033988957
 20
120.1821165275
  0
VERTEX
  8
0
 62
6
  6
CONTINUOUS
 10
274.9170589109
 20
120.1616159452
  0
VERTEX
  8
0
 62
6
  6
CONTINUOUS
 10
275.0557120528
 20
120.1376635702
  0
VERTEX
  8
0
 62
6
  6
CONTINUOUS
 10
275.2144116752
 20
120.1111225842
  0
VERTEX
  8
0
 62
6
  6
CONTINUOUS
 10
275.5694323769
 20
120.054113865
  0
SEQEND
  0
LINE
  8
0
 62
7
  6
CONTINUOUS
 10
279.5367149345
 20
111.5435662663
 11
282.6491093781
 21
111.5435662663
  0
LINE
  8
DEFAULT_1
 62
2
  6
CENTER
 10
287.8991093781
 20
117.3435662663
 11
284.6492093781
 21
117.3435662663
  0
LINE
  8
0
 62
2
  6
CONTINUOUS
 10
283.6991093781
 20
117.3435662663
 11
281.5991093781
 21
117.3435662663
  0
LINE
  8
DEFAULT_1
 62
2
  6
CENTER
 10
277.3991093781
 20
117.3435662663
 11
280.6490093781
 21
117.3435662663
  0
POLYLINE
  8
0
 62
6
  6
CONTINUOUS
 66
1
 70
0
  0
VERTEX
  8
0
 62
6
  6
CONTINUOUS
 10
290.6491093781
 20
120.2158475896
  0
VERTEX
  8
0
 62
6
  6
CONTINUOUS
 10
290.6435015179
 20
120.2164595422
  0
VERTEX
  8
0
 62
6
  6
CONTINUOUS
 10
290.6274363644
 20
120.2153205214
  0
VERTEX
  8
0
 62
6
  6
CONTINUOUS
 10
290.6017747766
 20
120.2122355487
  0
VERTEX
  8
0
 62
6
  6
CONTINUOUS
 10
290.5679664045
 20
120.2072184143
  0
VERTEX
  8
0
 62
6
  6
CONTINUOUS
 10
290.5279576221
 20
120.2004483985
  0
VERTEX
  8
0
 62
6
  6
CONTINUOUS
 10
290.4840339352
 20
120.1922337247
  0
VERTEX
  8
0
 62
6
  6
CONTINUOUS
 10
290.4386288573
 20
120.182972303
  0
VERTEX
  8
0
 62
6
  6
CONTINUOUS
 10
290.3941496997
 20
120.1731140414
  0
SEQEND
  0
LINE
  8
0
 62
7
  6
CONTINUOUS
 10
282.6491093781
 20
123.1435662663
 11
279.5367149345
 21
123.1435662663
  0
LINE
  8
0
 62
2
  6
CONTINUOUS
 10
303.4979293781
 20
133.6412062663
 11
263.4979293781
 21
133.6412062663
  0
LINE
  8
0
 62
7
  6
CONTINUOUS
 10
80.0771679533
 20
165.4716157955
 11
80.0771679533
 21
180.2716157955
  0
LINE
  8
0
 62
7
  6
CONTINUOUS
 10
80.4588554616
 20
255.9229235533
 11
80.3271679533
 21
180.4716157955
  0
LINE
  8
0
 62
7
  6
CONTINUOUS
 10
84.7121779485
 20
164.4716157955
 11
84.8602759527
 21
166.5895159262
  0
LINE
  8
0
 62
7
  6
CONTINUOUS
 10
91.2573285338
 20
164.5216157955
 11
91.2587221892
 21
164.4817067274
  0
LINE
  8
0
 62
7
  6
CONTINUOUS
 10
86.3775263936
 20
165.7271772827
 11
87.241060645
 21
176.530656752
  0
POLYLINE
  8
0
 62
7
  6
CONTINUOUS
 66
1
 70
0
  0
VERTEX
  8
0
 62
7
  6
CONTINUOUS
 10
84.8602756837
 20
166.5895118364
  0
VERTEX
  8
0
 62
7
  6
CONTINUOUS
 10
84.8737497831
 20
166.6683578779
  0
VERTEX
  8
0
 62
7
  6
CONTINUOUS
 10
84.9049021954
 20
166.7523606653
  0
VERTEX
  8
0
 62
7
  6
CONTINUOUS
 10
84.9113060882
 20
166.7654397651
  0
SEQEND
  0
LINE
  8
0
 62
7
  6
CONTINUOUS
 10
97.9800843956
 20
173.5568472263
 11
97.9799570359
 21
173.5569669755
  0
LINE
  8
0
 62
7
  6
CONTINUOUS
 10
96.8700357364
 20
180.2166561172
 11
97.8956158292
 21
176.6282174474
  0
LINE
  8
0
 62
7
  6
CONTINUOUS
 10
97.9132752617
 20
176.530656752
 11
98.8036055021
 21
165.3919387944
  0
LINE
  8
0
 62
7
  6
CONTINUOUS
 10
88.2843001702
 20
180.2166561172
 11
87.2587200775
 21
176.6282174474
  0
LINE
  8
0
 62
7
  6
CONTINUOUS
 10
104.041060645
 20
176.530656752
 11
103.1507304046
 21
165.3919387944
  0
LINE
  8
0
 62
2
  6
CONTINUOUS
 10
143.0771679533
 20
152.4716157955
 11
151.4771679533
 21
152.4716157955
  0
LINE
  8
0
 62
7
  6
CONTINUOUS
 10
114.7800843956
 20
173.5568472263
 11
114.7799570359
 21
173.5569669755
  0
LINE
  8
0
 62
7
  6
CONTINUOUS
 10
114.7132752617
 20
176.530656752
 11
115.6036055021
 21
165.3919387944
  0
LINE
  8
0
 62
7
  6
CONTINUOUS
 10
113.6700357364
 20
180.2166561172
 11
114.6956158292
 21
176.6282174474
  0
LINE
  8
0
 62
7
  6
CONTINUOUS
 10
105.0843001702
 20
180.2166561172
 11
104.0587200775
 21
176.6282174474
  0
POLYLINE
  8
0
 62
7
  6
CONTINUOUS
 66
1
 70
0
  0
VERTEX
  8
0
 62
7
  6
CONTINUOUS
 10
84.9113060882
 20
166.7654397651
  0
VERTEX
  8
0
 62
7
  6
CONTINUOUS
 10
84.9559320603
 20
166.841003849
  0
VERTEX
  8
0
 62
7
  6
CONTINUOUS
 10
85.0290463158
 20
166.9337210128
  0
VERTEX
  8
0
 62
7
  6
CONTINUOUS
 10
85.1257788159
 20
167.0299218214
  0
VERTEX
  8
0
 62
7
  6
CONTINUOUS
 10
85.2456119978
 20
167.1292747208
  0
VERTEX
  8
0
 62
7
  6
CONTINUOUS
 10
85.3849411243
 20
167.2329412554
  0
SEQEND
  0
POLYLINE
  8
0
 62
7
  6
CONTINUOUS
 66
1
 70
0
  0
VERTEX
  8
0
 62
7
  6
CONTINUOUS
 10
84.9112712623
 20
166.7654493946
  0
VERTEX
  8
0
 62
7
  6
CONTINUOUS
 10
84.9459552843
 20
166.8241656802
  0
VERTEX
  8
0
 62
7
  6
CONTINUOUS
 10
85.0024528286
 20
166.892534125
  0
VERTEX
  8
0
 62
7
  6
CONTINUOUS
 10
85.0701411545
 20
166.9498446893
  0
VERTEX
  8
0
 62
7
  6
CONTINUOUS
 10
85.1468904456
 20
166.9942941026
  0
VERTEX
  8
0
 62
7
  6
CONTINUOUS
 10
85.230285784
 20
167.0244837712
  0
VERTEX
  8
0
 62
7
  6
CONTINUOUS
 10
85.3177031332
 20
167.0394637845
  0
VERTEX
  8
0
 62
7
  6
CONTINUOUS
 10
85.3581113301
 20
167.0410992889
  0
SEQEND
  0
POLYLINE
  8
0
 62
7
  6
CONTINUOUS
 66
1
 70
0
  0
VERTEX
  8
0
 62
7
  6
CONTINUOUS
 10
85.3759187423
 20
164.7745046802
  0
VERTEX
  8
0
 62
7
  6
CONTINUOUS
 10
85.4635321262
 20
164.7784532452
  0
VERTEX
  8
0
 62
7
  6
CONTINUOUS
 10
85.6044230236
 20
164.8016776329
  0
VERTEX
  8
0
 62
7
  6
CONTINUOUS
 10
85.7410302916
 20
164.8453779556
  0
VERTEX
  8
0
 62
7
  6
CONTINUOUS
 10
85.8706596618
 20
164.9088826776
  0
VERTEX
  8
0
 62
7
  6
CONTINUOUS
 10
85.9906660778
 20
164.9911639823
  0
VERTEX
  8
0
 62
7
  6
CONTINUOUS
 10
86.0985730379
 20
165.0909004515
  0
VERTEX
  8
0
 62
7
  6
CONTINUOUS
 10
86.1919710004
 20
165.2063713912
  0
VERTEX
  8
0
 62
7
  6
CONTINUOUS
 10
86.2685251568
 20
165.335243648
  0
VERTEX
  8
0
 62
7
  6
CONTINUOUS
 10
86.3263291234
 20
165.4748529535
  0
VERTEX
  8
0
 62
7
  6
CONTINUOUS
 10
86.3639087078
 20
165.6222423893
  0
VERTEX
  8
0
 62
7
  6
CONTINUOUS
 10
86.3775253539
 20
165.7271773658
  0
SEQEND
  0
LINE
  8
0
 62
7
  6
CONTINUOUS
 10
84.7121779485
 20
164.4716157955
 11
81.0771679533
 21
164.4716157955
  0
LINE
  8
0
 62
7
  6
CONTINUOUS
 10
91.4004262359
 20
164.4716157955
 11
93.7539096707
 21
164.4716157955
  0
LINE
  8
0
 62
7
  6
CONTINUOUS
 10
99.8004262359
 20
164.4716157955
 11
102.1539096707
 21
164.4716157955
  0
LINE
  8
0
 62
7
  6
CONTINUOUS
 10
108.2004262359
 20
164.4716157955
 11
110.5539096707
 21
164.4716157955
  0
LINE
  8
0
 62
7
  6
CONTINUOUS
 10
116.6004262359
 20
164.4716157955
 11
118.9539096707
 21
164.4716157955
  0
LINE
  8
0
 62
7
  6
CONTINUOUS
 10
125.0004262359
 20
164.4716157955
 11
127.3539096707
 21
164.4716157955
  0
LINE
  8
0
 62
7
  6
CONTINUOUS
 10
133.4004262359
 20
164.4716157955
 11
135.7539096707
 21
164.4716157955
  0
LINE
  8
0
 62
7
  6
CONTINUOUS
 10
141.8004262359
 20
164.4716157955
 11
144.1539096707
 21
164.4716157955
  0
LINE
  8
0
 62
7
  6
CONTINUOUS
 10
150.2004262359
 20
164.4716157955
 11
152.5539096707
 21
164.4716157955
  0
LINE
  8
0
 62
7
  6
CONTINUOUS
 10
158.6004262359
 20
164.4716157955
 11
160.9539096707
 21
164.4716157955
  0
LINE
  8
0
 62
7
  6
CONTINUOUS
 10
167.0004262359
 20
164.4716157955
 11
169.3539096707
 21
164.4716157955
  0
LINE
  8
0
 62
7
  6
CONTINUOUS
 10
175.4004262359
 20
164.4716157955
 11
177.7539096707
 21
164.4716157955
  0
LINE
  8
0
 62
7
  6
CONTINUOUS
 10
183.8004262359
 20
164.4716157955
 11
186.1539096707
 21
164.4716157955
  0
LINE
  8
0
 62
7
  6
CONTINUOUS
 10
192.2004262359
 20
164.4716157955
 11
194.5539096707
 21
164.4716157955
  0
LINE
  8
0
 62
7
  6
CONTINUOUS
 10
200.6004262359
 20
164.4716157955
 11
202.9539096707
 21
164.4716157955
  0
LINE
  8
0
 62
7
  6
CONTINUOUS
 10
209.0004262359
 20
164.4716157955
 11
211.3539096707
 21
164.4716157955
  0
LINE
  8
0
 62
7
  6
CONTINUOUS
 10
217.4004262359
 20
164.4716157955
 11
219.7539096707
 21
164.4716157955
  0
LINE
  8
0
 62
6
  6
CONTINUOUS
 10
225.8004262359
 20
164.4716157955
 11
226.4421579581
 21
164.4716157955
  0
LINE
  8
0
 62
7
  6
CONTINUOUS
 10
226.4421579581
 20
164.4716157955
 11
230.0771679533
 21
164.4716157955
  0
LINE
  8
0
 62
7
  6
CONTINUOUS
 10
230.0771679533
 20
164.5216157955
 11
219.8970073728
 21
164.5216157955
  0
LINE
  8
0
 62
7
  6
CONTINUOUS
 10
217.101705853
 20
164.5216157955
 11
203.2526300537
 21
164.5216157955
  0
LINE
  8
0
 62
7
  6
CONTINUOUS
 10
200.301705853
 20
164.5216157955
 11
186.4526300537
 21
164.5216157955
  0
LINE
  8
0
 62
7
  6
CONTINUOUS
 10
183.501705853
 20
164.5216157955
 11
169.6526300537
 21
164.5216157955
  0
LINE
  8
0
 62
7
  6
CONTINUOUS
 10
166.701705853
 20
164.5216157955
 11
152.8526300537
 21
164.5216157955
  0
LINE
  8
0
 62
7
  6
CONTINUOUS
 10
149.901705853
 20
164.5216157955
 11
136.0526300537
 21
164.5216157955
  0
LINE
  8
0
 62
7
  6
CONTINUOUS
 10
133.101705853
 20
164.5216157955
 11
119.2526300537
 21
164.5216157955
  0
LINE
  8
0
 62
7
  6
CONTINUOUS
 10
116.301705853
 20
164.5216157955
 11
102.4526300537
 21
164.5216157955
  0
LINE
  8
0
 62
7
  6
CONTINUOUS
 10
99.501705853
 20
164.5216157955
 11
84.7156742891
 21
164.5216157955
  0
LINE
  8
0
 62
7
  6
CONTINUOUS
 10
85.1997782077
 20
164.7745012115
 11
85.3759187422
 21
164.7745012115
  0
LINE
  8
0
 62
7
  6
CONTINUOUS
 10
85.7265612282
 20
167.0410985813
 11
85.3582406125
 21
167.0410985813
  0
POLYLINE
  8
0
 62
7
  6
CONTINUOUS
 66
1
 70
0
  0
VERTEX
  8
0
 62
7
  6
CONTINUOUS
 10
132.939476722
 20
167.9618514165
  0
VERTEX
  8
0
 62
7
  6
CONTINUOUS
 10
132.8642551218
 20
167.9686043085
  0
VERTEX
  8
0
 62
7
  6
CONTINUOUS
 10
132.7875236618
 20
167.9892513192
  0
VERTEX
  8
0
 62
7
  6
CONTINUOUS
 10
132.7084410246
 20
168.0252425151
  0
VERTEX
  8
0
 62
7
  6
CONTINUOUS
 10
132.6269437691
 20
168.0787889736
  0
VERTEX
  8
0
 62
7
  6
CONTINUOUS
 10
132.5447784714
 20
168.1513953794
  0
VERTEX
  8
0
 62
7
  6
CONTINUOUS
 10
132.4641168497
 20
168.2437212224
  0
VERTEX
  8
0
 62
7
  6
CONTINUOUS
 10
132.3878472606
 20
168.3544480247
  0
VERTEX
  8
0
 62
7
  6
CONTINUOUS
 10
132.3157270018
 20
168.4863421224
  0
VERTEX
  8
0
 62
7
  6
CONTINUOUS
 10
132.2485125777
 20
168.6425308395
  0
VERTEX
  8
0
 62
7
  6
CONTINUOUS
 10
132.1881789097
 20
168.8249406783
  0
VERTEX
  8
0
 62
7
  6
CONTINUOUS
 10
132.1384919599
 20
169.0280820749
  0
VERTEX
  8
0
 62
7
  6
CONTINUOUS
 10
132.1018687663
 20
169.2426294008
  0
VERTEX
  8
0
 62
7
  6
CONTINUOUS
 10
132.0785887668
 20
169.4581488156
  0
SEQEND
  0
LINE
  8
0
 62
7
  6
CONTINUOUS
 10
131.5800843956
 20
173.5568472263
 11
131.5799570359
 21
173.5569669755
  0
LINE
  8
0
 62
7
  6
CONTINUOUS
 10
120.841060645
 20
176.530656752
 11
119.9507304046
 21
165.3919387944
  0
POLYLINE
  8
0
 62
7
  6
CONTINUOUS
 66
1
 70
0
  0
VERTEX
  8
0
 62
7
  6
CONTINUOUS
 10
85.7265612228
 20
167.0411225144
  0
VERTEX
  8
0
 62
7
  6
CONTINUOUS
 10
85.769043081
 20
167.0424322169
  0
VERTEX
  8
0
 62
7
  6
CONTINUOUS
 10
85.8805441791
 20
167.0583236911
  0
VERTEX
  8
0
 62
7
  6
CONTINUOUS
 10
85.9907780653
 20
167.0926857201
  0
VERTEX
  8
0
 62
7
  6
CONTINUOUS
 10
86.097835347
 20
167.1459389779
  0
VERTEX
  8
0
 62
7
  6
CONTINUOUS
 10
86.199381625
 20
167.2182436417
  0
VERTEX
  8
0
 62
7
  6
CONTINUOUS
 10
86.2932787794
 20
167.3097493863
  0
VERTEX
  8
0
 62
7
  6
CONTINUOUS
 10
86.3767170598
 20
167.419562006
  0
VERTEX
  8
0
 62
7
  6
CONTINUOUS
 10
86.4470915214
 20
167.546011768
  0
VERTEX
  8
0
 62
7
  6
CONTINUOUS
 10
86.5024229667
 20
167.6876696777
  0
VERTEX
  8
0
 62
7
  6
CONTINUOUS
 10
86.5405767398
 20
167.8426362742
  0
VERTEX
  8
0
 62
7
  6
CONTINUOUS
 10
86.5564515578
 20
167.9656427355
  0
SEQEND
  0
LINE
  8
0
 62
7
  6
CONTINUOUS
 10
230.0771679533
 20
172.4716157955
 11
221.3166169411
 21
172.4716157955
  0
LINE
  8
0
 62
7
  6
CONTINUOUS
 10
215.8377189655
 20
172.4716157955
 11
204.5166169411
 21
172.4716157955
  0
LINE
  8
0
 62
7
  6
CONTINUOUS
 10
199.0377189655
 20
172.4716157955
 11
187.7166169411
 21
172.4716157955
  0
LINE
  8
0
 62
7
  6
CONTINUOUS
 10
182.2377189655
 20
172.4716157955
 11
170.9166169411
 21
172.4716157955
  0
LINE
  8
0
 62
7
  6
CONTINUOUS
 10
165.4377189655
 20
172.4716157955
 11
154.1166169411
 21
172.4716157955
  0
LINE
  8
0
 62
7
  6
CONTINUOUS
 10
148.6377189655
 20
172.4716157955
 11
137.3166169411
 21
172.4716157955
  0
LINE
  8
0
 62
7
  6
CONTINUOUS
 10
131.8377189655
 20
172.4716157955
 11
120.5166169411
 21
172.4716157955
  0
LINE
  8
0
 62
7
  6
CONTINUOUS
 10
115.0377189655
 20
172.4716157955
 11
103.7166169411
 21
172.4716157955
  0
LINE
  8
0
 62
7
  6
CONTINUOUS
 10
98.2377189655
 20
172.4716157955
 11
86.9166169411
 21
172.4716157955
  0
LINE
  8
DEFAULT_1
 62
2
  6
CENTER
 10
77.8771679533
 20
172.4716157955
 11
86.9166169411
 21
172.4716157955
  0
LINE
  8
DEFAULT_1
 62
2
  6
CENTER
 10
230.0771679533
 20
172.4716157955
 11
233.2771679533
 21
172.4716157955
  0
LINE
  8
DEFAULT_1
 62
2
  6
CENTER
 10
215.8377189655
 20
172.4716157955
 11
221.3166169411
 21
172.4716157955
  0
LINE
  8
DEFAULT_1
 62
2
  6
CENTER
 10
199.0377189655
 20
172.4716157955
 11
204.5166169411
 21
172.4716157955
  0
LINE
  8
DEFAULT_1
 62
2
  6
CENTER
 10
182.2377189655
 20
172.4716157955
 11
187.7166169411
 21
172.4716157955
  0
LINE
  8
DEFAULT_1
 62
2
  6
CENTER
 10
165.4377189655
 20
172.4716157955
 11
165.5126890197
 21
172.4716157955
  0
LINE
  8
DEFAULT_1
 62
2
  6
CENTER
 10
148.6377189655
 20
172.4716157955
 11
154.1166169411
 21
172.4716157955
  0
LINE
  8
DEFAULT_1
 62
2
  6
CENTER
 10
131.8377189655
 20
172.4716157955
 11
131.9126890197
 21
172.4716157955
  0
LINE
  8
DEFAULT_1
 62
2
  6
CENTER
 10
115.0377189655
 20
172.4716157955
 11
120.5166169411
 21
172.4716157955
  0
LINE
  8
DEFAULT_1
 62
2
  6
CENTER
 10
98.2377189655
 20
172.4716157955
 11
103.7166169411
 21
172.4716157955
  0
LINE
  8
DEFAULT_1
 62
2
  6
CENTER
 10
170.8416468869
 20
172.4716157955
 11
170.9166169411
 21
172.4716157955
  0
LINE
  8
DEFAULT_1
 62
2
  6
CENTER
 10
137.2416468869
 20
172.4716157955
 11
137.3166169411
 21
172.4716157955
  0
LINE
  8
0
 62
7
  6
CONTINUOUS
 10
131.9126890197
 20
172.4716157955
 11
137.2416468869
 21
172.4716157955
  0
LINE
  8
0
 62
7
  6
CONTINUOUS
 10
165.5126890197
 20
172.4716157955
 11
170.8416468869
 21
172.4716157955
  0
LINE
  8
0
 62
7
  6
CONTINUOUS
 10
87.607570075
 20
173.7012250925
 11
87.6076439331
 21
173.7012250921
  0
LINE
  8
0
 62
7
  6
CONTINUOUS
 10
104.407570075
 20
173.7012250925
 11
104.4076439331
 21
173.7012250921
  0
LINE
  8
0
 62
7
  6
CONTINUOUS
 10
121.207570075
 20
173.7012250925
 11
121.2076439331
 21
173.7012250921
  0
LINE
  8
0
 62
7
  6
CONTINUOUS
 10
138.007570075
 20
173.7012250925
 11
138.0076439331
 21
173.7012250921
  0
LINE
  8
0
 62
7
  6
CONTINUOUS
 10
154.807570075
 20
173.7012250925
 11
154.8076439331
 21
173.7012250921
  0
LINE
  8
0
 62
7
  6
CONTINUOUS
 10
171.607570075
 20
173.7012250925
 11
171.6076439331
 21
173.7012250921
  0
LINE
  8
0
 62
7
  6
CONTINUOUS
 10
188.407570075
 20
173.7012250925
 11
188.4076439331
 21
173.7012250921
  0
LINE
  8
0
 62
7
  6
CONTINUOUS
 10
205.207570075
 20
173.7012250925
 11
205.2076439331
 21
173.7012250921
  0
LINE
  8
0
 62
7
  6
CONTINUOUS
 10
222.007570075
 20
173.7012250925
 11
222.0076439331
 21
173.7012250921
  0
POLYLINE
  8
0
 62
7
  6
CONTINUOUS
 66
1
 70
0
  0
VERTEX
  8
0
 62
7
  6
CONTINUOUS
 10
137.2416468869
 20
172.4716157955
  0
VERTEX
  8
0
 62
7
  6
CONTINUOUS
 10
137.2745222973
 20
172.4692576986
  0
VERTEX
  8
0
 62
7
  6
CONTINUOUS
 10
137.2974150232
 20
172.4617436744
  0
VERTEX
  8
0
 62
7
  6
CONTINUOUS
 10
137.3102299149
 20
172.4486860602
  0
VERTEX
  8
0
 62
7
  6
CONTINUOUS
 10
137.313275389
 20
172.4298104021
  0
SEQEND
  0
POLYLINE
  8
0
 62
7
  6
CONTINUOUS
 66
1
 70
0
  0
VERTEX
  8
0
 62
7
  6
CONTINUOUS
 10
170.8416468869
 20
172.4716157955
  0
VERTEX
  8
0
 62
7
  6
CONTINUOUS
 10
170.8745223024
 20
172.4692576977
  0
VERTEX
  8
0
 62
7
  6
CONTINUOUS
 10
170.8974150114
 20
172.4617436812
  0
VERTEX
  8
0
 62
7
  6
CONTINUOUS
 10
170.9102299018
 20
172.4486860867
  0
VERTEX
  8
0
 62
7
  6
CONTINUOUS
 10
170.913275389
 20
172.4298104021
  0
SEQEND
  0
POLYLINE
  8
0
 62
7
  6
CONTINUOUS
 66
1
 70
0
  0
VERTEX
  8
0
 62
7
  6
CONTINUOUS
 10
166.539476722
 20
167.9618514165
  0
VERTEX
  8
0
 62
7
  6
CONTINUOUS
 10
166.4642551218
 20
167.9686043085
  0
VERTEX
  8
0
 62
7
  6
CONTINUOUS
 10
166.3875236618
 20
167.9892513192
  0
VERTEX
  8
0
 62
7
  6
CONTINUOUS
 10
166.3084410246
 20
168.0252425151
  0
VERTEX
  8
0
 62
7
  6
CONTINUOUS
 10
166.2269437691
 20
168.0787889736
  0
VERTEX
  8
0
 62
7
  6
CONTINUOUS
 10
166.1447784714
 20
168.1513953794
  0
VERTEX
  8
0
 62
7
  6
CONTINUOUS
 10
166.0641168497
 20
168.2437212224
  0
VERTEX
  8
0
 62
7
  6
CONTINUOUS
 10
165.9878472606
 20
168.3544480247
  0
VERTEX
  8
0
 62
7
  6
CONTINUOUS
 10
165.9157270018
 20
168.4863421224
  0
VERTEX
  8
0
 62
7
  6
CONTINUOUS
 10
165.8485125777
 20
168.6425308395
  0
VERTEX
  8
0
 62
7
  6
CONTINUOUS
 10
165.7881789097
 20
168.8249406783
  0
VERTEX
  8
0
 62
7
  6
CONTINUOUS
 10
165.7384919599
 20
169.0280820749
  0
VERTEX
  8
0
 62
7
  6
CONTINUOUS
 10
165.7018687663
 20
169.2426294008
  0
VERTEX
  8
0
 62
7
  6
CONTINUOUS
 10
165.6785887668
 20
169.4581488156
  0
SEQEND
  0
LINE
  8
0
 62
7
  6
CONTINUOUS
 10
130.4700357364
 20
180.2166561172
 11
131.4956158292
 21
176.6282174474
  0
LINE
  8
0
 62
7
  6
CONTINUOUS
 10
132.4036055021
 20
165.3919387944
 11
131.5132752617
 21
176.530656752
  0
LINE
  8
0
 62
7
  6
CONTINUOUS
 10
121.8843001702
 20
180.2166561172
 11
120.8587200775
 21
176.6282174474
  0
LINE
  8
0
 62
7
  6
CONTINUOUS
 10
87.174251511
 20
173.5568472263
 11
87.1743788707
 21
173.5569669755
  0
LINE
  8
0
 62
6
  6
CONTINUOUS
 10
222.4879100555
 20
180.0064494337
 11
222.4078001864
 21
180.0063781884
  0
LINE
  8
0
 62
6
  6
CONTINUOUS
 10
214.0879107787
 20
180.0064494357
 11
214.0078001864
 21
180.0063781891
  0
LINE
  8
0
 62
7
  6
CONTINUOUS
 10
230.8771679533
 20
180.4716157955
 11
222.5195233595
 21
180.4716157955
  0
LINE
  8
0
 62
7
  6
CONTINUOUS
 10
214.6379213938
 20
180.4716157955
 11
205.7195233595
 21
180.4716157955
  0
LINE
  8
0
 62
7
  6
CONTINUOUS
 10
197.8379213938
 20
180.4716157955
 11
188.9195233595
 21
180.4716157955
  0
LINE
  8
0
 62
7
  6
CONTINUOUS
 10
181.0379213938
 20
180.4716157955
 11
172.1195233595
 21
180.4716157955
  0
LINE
  8
0
 62
7
  6
CONTINUOUS
 10
164.2379213938
 20
180.4716157955
 11
155.3195233595
 21
180.4716157955
  0
LINE
  8
0
 62
7
  6
CONTINUOUS
 10
147.4379213938
 20
180.4716157955
 11
138.5195233595
 21
180.4716157955
  0
LINE
  8
0
 62
7
  6
CONTINUOUS
 10
130.6379213938
 20
180.4716157955
 11
121.7195233595
 21
180.4716157955
  0
LINE
  8
0
 62
7
  6
CONTINUOUS
 10
113.8379213938
 20
180.4716157955
 11
104.9195233595
 21
180.4716157955
  0
LINE
  8
0
 62
7
  6
CONTINUOUS
 10
97.0379213938
 20
180.4716157955
 11
88.1195233595
 21
180.4716157955
  0
LINE
  8
0
 62
7
  6
CONTINUOUS
 10
88.0919997965
 20
180.4716157955
 11
80.2771679533
 21
180.4716157955
  0
LINE
  8
0
 62
7
  6
CONTINUOUS
 10
97.0623361102
 20
180.4716157955
 11
104.8919997965
 21
180.4716157955
  0
LINE
  8
0
 62
7
  6
CONTINUOUS
 10
113.8623361102
 20
180.4716157955
 11
121.6919997965
 21
180.4716157955
  0
LINE
  8
0
 62
7
  6
CONTINUOUS
 10
130.6623361102
 20
180.4716157955
 11
138.4919997965
 21
180.4716157955
  0
LINE
  8
0
 62
7
  6
CONTINUOUS
 10
147.4623361102
 20
180.4716157955
 11
155.2919997965
 21
180.4716157955
  0
LINE
  8
0
 62
7
  6
CONTINUOUS
 10
164.2623361102
 20
180.4716157955
 11
172.0919997965
 21
180.4716157955
  0
LINE
  8
0
 62
7
  6
CONTINUOUS
 10
181.0623361102
 20
180.4716157955
 11
188.8919997965
 21
180.4716157955
  0
LINE
  8
0
 62
7
  6
CONTINUOUS
 10
197.8623361102
 20
180.4716157955
 11
205.6919997965
 21
180.4716157955
  0
LINE
  8
0
 62
7
  6
CONTINUOUS
 10
214.6623361102
 20
180.4716157955
 11
222.4919997965
 21
180.4716157955
  0
LINE
  8
0
 62
6
  6
CONTINUOUS
 10
214.6603001265
 20
180.4716157955
 11
214.6623361102
 21
180.4716157955
  0
LINE
  8
0
 62
6
  6
CONTINUOUS
 10
222.4919997965
 20
180.4716157955
 11
222.4940357802
 21
180.4716157955
  0
LINE
  8
0
 62
7
  6
CONTINUOUS
 10
148.3800843956
 20
173.5568472263
 11
148.3799570359
 21
173.5569669755
  0
POLYLINE
  8
0
 62
7
  6
CONTINUOUS
 66
1
 70
0
  0
VERTEX
  8
0
 62
7
  6
CONTINUOUS
 10
131.8410605176
 20
172.4298104021
  0
VERTEX
  8
0
 62
7
  6
CONTINUOUS
 10
131.8440736998
 20
172.4486205904
  0
VERTEX
  8
0
 62
7
  6
CONTINUOUS
 10
131.8569028144
 20
172.4617332811
  0
VERTEX
  8
0
 62
7
  6
CONTINUOUS
 10
131.8798480542
 20
172.469263662
  0
VERTEX
  8
0
 62
7
  6
CONTINUOUS
 10
131.9126890197
 20
172.4716157955
  0
SEQEND
  0
LINE
  8
0
 62
2
  6
CONTINUOUS
 10
143.0771679533
 20
192.4716157955
 11
143.0771679533
 21
152.4716157955
  0
LINE
  8
0
 62
7
  6
CONTINUOUS
 10
136.7507304046
 20
165.3919387944
 11
137.641060645
 21
176.530656752
  0
POLYLINE
  8
0
 62
7
  6
CONTINUOUS
 66
1
 70
0
  0
VERTEX
  8
0
 62
7
  6
CONTINUOUS
 10
137.0757471398
 20
169.4581488156
  0
VERTEX
  8
0
 62
7
  6
CONTINUOUS
 10
137.0521098692
 20
169.2400401345
  0
VERTEX
  8
0
 62
7
  6
CONTINUOUS
 10
137.0148229546
 20
169.0231470515
  0
VERTEX
  8
0
 62
7
  6
CONTINUOUS
 10
136.9643465688
 20
168.8186486519
  0
VERTEX
  8
0
 62
7
  6
CONTINUOUS
 10
136.9034619056
 20
168.6363381308
  0
VERTEX
  8
0
 62
7
  6
CONTINUOUS
 10
136.8361390445
 20
168.4812904858
  0
VERTEX
  8
0
 62
7
  6
CONTINUOUS
 10
136.7642836247
 20
168.3508722318
  0
VERTEX
  8
0
 62
7
  6
CONTINUOUS
 10
136.6884001515
 20
168.2413797868
  0
VERTEX
  8
0
 62
7
  6
CONTINUOUS
 10
136.6079888244
 20
168.1498183684
  0
VERTEX
  8
0
 62
7
  6
CONTINUOUS
 10
136.5260297159
 20
168.0777487899
  0
VERTEX
  8
0
 62
7
  6
CONTINUOUS
 10
136.4448307618
 20
168.0246564226
  0
VERTEX
  8
0
 62
7
  6
CONTINUOUS
 10
136.3660834542
 20
167.9889897768
  0
VERTEX
  8
0
 62
7
  6
CONTINUOUS
 10
136.2899065824
 20
167.9685732034
  0
VERTEX
  8
0
 62
7
  6
CONTINUOUS
 10
136.214859185
 20
167.9618514165
  0
SEQEND
  0
LINE
  8
0
 62
7
  6
CONTINUOUS
 10
103.974251511
 20
173.5568472263
 11
103.9743788707
 21
173.5569669755
  0
LINE
  8
0
 62
2
  6
CONTINUOUS
 10
143.0771679533
 20
192.4716157955
 11
151.4771679533
 21
192.4716157955
  0
LINE
  8
0
 62
7
  6
CONTINUOUS
 10
165.1800843956
 20
173.5568472263
 11
165.1799570359
 21
173.5569669755
  0
LINE
  8
0
 62
7
  6
CONTINUOUS
 10
147.2700357364
 20
180.2166561172
 11
148.2956158292
 21
176.6282174474
  0
LINE
  8
0
 62
7
  6
CONTINUOUS
 10
148.3132752617
 20
176.530656752
 11
149.2036055021
 21
165.3919387944
  0
LINE
  8
0
 62
7
  6
CONTINUOUS
 10
138.6843001702
 20
180.2166561172
 11
137.6587200775
 21
176.6282174474
  0
LINE
  8
0
 62
2
  6
CONTINUOUS
 10
151.3031598533
 20
193.3204357955
 11
151.3031598533
 21
153.3204357955
  0
LINE
  8
0
 62
6
  6
CONTINUOUS
 10
151.4771679533
 20
192.4716157955
 11
151.4771679533
 21
152.4716157955
  0
LINE
  8
DEFAULT_1
 62
2
  6
CENTER
 10
155.5771679533
 20
150.4716157955
 11
155.5771679533
 21
258.6716157955
  0
LINE
  8
0
 62
7
  6
CONTINUOUS
 10
120.774251511
 20
173.5568472263
 11
120.7743788707
 21
173.5569669755
  0
LINE
  8
0
 62
7
  6
CONTINUOUS
 10
181.9800843956
 20
173.5568472263
 11
181.9799570359
 21
173.5569669755
  0
LINE
  8
0
 62
7
  6
CONTINUOUS
 10
154.441060645
 20
176.530656752
 11
153.5507304046
 21
165.3919387944
  0
LINE
  8
0
 62
7
  6
CONTINUOUS
 10
155.4843001702
 20
180.2166561172
 11
154.4587200775
 21
176.6282174474
  0
LINE
  8
0
 62
7
  6
CONTINUOUS
 10
164.0700357364
 20
180.2166561172
 11
165.0956158292
 21
176.6282174474
  0
LINE
  8
0
 62
7
  6
CONTINUOUS
 10
166.0036055021
 20
165.3919387944
 11
165.1132752617
 21
176.530656752
  0
LINE
  8
0
 62
7
  6
CONTINUOUS
 10
137.574251511
 20
173.5568472263
 11
137.5743788707
 21
173.5569669755
  0
LINE
  8
0
 62
7
  6
CONTINUOUS
 10
198.7800843956
 20
173.5568472263
 11
198.7799570359
 21
173.5569669755
  0
LINE
  8
0
 62
7
  6
CONTINUOUS
 10
170.3507304046
 20
165.3919387944
 11
171.241060645
 21
176.530656752
  0
POLYLINE
  8
0
 62
7
  6
CONTINUOUS
 66
1
 70
0
  0
VERTEX
  8
0
 62
7
  6
CONTINUOUS
 10
170.6757471398
 20
169.4581488156
  0
VERTEX
  8
0
 62
7
  6
CONTINUOUS
 10
170.6521098692
 20
169.2400401345
  0
VERTEX
  8
0
 62
7
  6
CONTINUOUS
 10
170.6148229546
 20
169.0231470515
  0
VERTEX
  8
0
 62
7
  6
CONTINUOUS
 10
170.5643465688
 20
168.8186486519
  0
VERTEX
  8
0
 62
7
  6
CONTINUOUS
 10
170.5034619056
 20
168.6363381308
  0
VERTEX
  8
0
 62
7
  6
CONTINUOUS
 10
170.4361390445
 20
168.4812904858
  0
VERTEX
  8
0
 62
7
  6
CONTINUOUS
 10
170.3642836247
 20
168.3508722318
  0
VERTEX
  8
0
 62
7
  6
CONTINUOUS
 10
170.2884001515
 20
168.2413797868
  0
VERTEX
  8
0
 62
7
  6
CONTINUOUS
 10
170.2079888244
 20
168.1498183684
  0
VERTEX
  8
0
 62
7
  6
CONTINUOUS
 10
170.1260297159
 20
168.0777487899
  0
VERTEX
  8
0
 62
7
  6
CONTINUOUS
 10
170.0448307618
 20
168.0246564226
  0
VERTEX
  8
0
 62
7
  6
CONTINUOUS
 10
169.9660834542
 20
167.9889897768
  0
VERTEX
  8
0
 62
7
  6
CONTINUOUS
 10
169.8899065824
 20
167.9685732034
  0
VERTEX
  8
0
 62
7
  6
CONTINUOUS
 10
169.814859185
 20
167.9618514165
  0
SEQEND
  0
POLYLINE
  8
0
 62
7
  6
CONTINUOUS
 66
1
 70
0
  0
VERTEX
  8
0
 62
7
  6
CONTINUOUS
 10
165.4410605176
 20
172.4298104021
  0
VERTEX
  8
0
 62
7
  6
CONTINUOUS
 10
165.4440737426
 20
172.4486206777
  0
VERTEX
  8
0
 62
7
  6
CONTINUOUS
 10
165.4569028212
 20
172.4617332851
  0
VERTEX
  8
0
 62
7
  6
CONTINUOUS
 10
165.4798479854
 20
172.4692636501
  0
VERTEX
  8
0
 62
7
  6
CONTINUOUS
 10
165.5126890197
 20
172.4716157955
  0
SEQEND
  0
POLYLINE
  8
0
 62
7
  6
CONTINUOUS
 66
1
 70
0
  0
VERTEX
  8
0
 62
7
  6
CONTINUOUS
 10
85.0390168143
 20
164.7479524289
  0
VERTEX
  8
0
 62
7
  6
CONTINUOUS
 10
84.9554980115
 20
164.7185790482
  0
VERTEX
  8
0
 62
7
  6
CONTINUOUS
 10
84.8653229412
 20
164.6827672131
  0
VERTEX
  8
0
 62
7
  6
CONTINUOUS
 10
84.7989675719
 20
164.650844319
  0
VERTEX
  8
0
 62
7
  6
CONTINUOUS
 10
84.754402921
 20
164.6228186467
  0
VERTEX
  8
0
 62
7
  6
CONTINUOUS
 10
84.7287436787
 20
164.598386098
  0
VERTEX
  8
0
 62
7
  6
CONTINUOUS
 10
84.7195416231
 20
164.5769215798
  0
SEQEND
  0
POLYLINE
  8
0
 62
7
  6
CONTINUOUS
 66
1
 70
0
  0
VERTEX
  8
0
 62
7
  6
CONTINUOUS
 10
85.0389255049
 20
164.7479765996
  0
VERTEX
  8
0
 62
7
  6
CONTINUOUS
 10
85.0719506368
 20
164.7579284609
  0
VERTEX
  8
0
 62
7
  6
CONTINUOUS
 10
85.1592900462
 20
164.772872635
  0
VERTEX
  8
0
 62
7
  6
CONTINUOUS
 10
85.199615332
 20
164.7745014187
  0
SEQEND
  0
LINE
  8
0
 62
7
  6
CONTINUOUS
 10
215.5800843956
 20
173.5568472263
 11
215.5799570359
 21
173.5569669755
  0
LINE
  8
0
 62
7
  6
CONTINUOUS
 10
180.8700357364
 20
180.2166561172
 11
181.8956158292
 21
176.6282174474
  0
LINE
  8
0
 62
7
  6
CONTINUOUS
 10
181.9132752617
 20
176.530656752
 11
182.8036055021
 21
165.3919387944
  0
LINE
  8
0
 62
7
  6
CONTINUOUS
 10
172.2843001702
 20
180.2166561172
 11
171.2587200775
 21
176.6282174474
  0
LINE
  8
0
 62
7
  6
CONTINUOUS
 10
154.374251511
 20
173.5568472263
 11
154.3743788707
 21
173.5569669755
  0
LINE
  8
0
 62
7
  6
CONTINUOUS
 10
188.041060645
 20
176.530656752
 11
187.1507304046
 21
165.3919387944
  0
LINE
  8
0
 62
7
  6
CONTINUOUS
 10
171.174251511
 20
173.5568472263
 11
171.1743788707
 21
173.5569669755
  0
LINE
  8
0
 62
7
  6
CONTINUOUS
 10
197.6700357364
 20
180.2166561172
 11
198.6956158292
 21
176.6282174474
  0
LINE
  8
0
 62
7
  6
CONTINUOUS
 10
198.7132752617
 20
176.530656752
 11
199.6036055021
 21
165.3919387944
  0
LINE
  8
0
 62
7
  6
CONTINUOUS
 10
189.0843001702
 20
180.2166561172
 11
188.0587200775
 21
176.6282174474
  0
LINE
  8
0
 62
7
  6
CONTINUOUS
 10
187.974251511
 20
173.5568472263
 11
187.9743788707
 21
173.5569669755
  0
LINE
  8
0
 62
6
  6
CONTINUOUS
 10
210.1771679533
 20
164.4716157955
 11
210.1771679533
 21
180.4716160976
  0
LINE
  8
0
 62
7
  6
CONTINUOUS
 10
204.841060645
 20
176.530656752
 11
203.9507304046
 21
165.3919387944
  0
LINE
  8
0
 62
7
  6
CONTINUOUS
 10
205.8843001702
 20
180.2166561172
 11
204.8587200775
 21
176.6282174474
  0
LINE
  8
0
 62
7
  6
CONTINUOUS
 10
81.2088543183
 20
256.6716157955
 11
229.9454815883
 21
256.6716157955
  0
LINE
  8
0
 62
7
  6
CONTINUOUS
 10
214.4700357364
 20
180.2166561172
 11
215.4956158292
 21
176.6282174474
  0
LINE
  8
0
 62
7
  6
CONTINUOUS
 10
215.5132752617
 20
176.530656752
 11
216.4036055021
 21
165.3919387944
  0
LINE
  8
0
 62
7
  6
CONTINUOUS
 10
204.774251511
 20
173.5568472263
 11
204.7743788707
 21
173.5569669755
  0
POLYLINE
  8
0
 62
7
  6
CONTINUOUS
 66
1
 70
0
  0
VERTEX
  8
0
 62
7
  6
CONTINUOUS
 10
220.2933846646
 20
167.0591486214
  0
VERTEX
  8
0
 62
7
  6
CONTINUOUS
 10
220.3729476781
 20
167.0858054535
  0
VERTEX
  8
0
 62
7
  6
CONTINUOUS
 10
220.4827173282
 20
167.1371003522
  0
VERTEX
  8
0
 62
7
  6
CONTINUOUS
 10
220.5880471634
 20
167.2089480253
  0
VERTEX
  8
0
 62
7
  6
CONTINUOUS
 10
220.6856451995
 20
167.3012216984
  0
VERTEX
  8
0
 62
7
  6
CONTINUOUS
 10
220.7720379977
 20
167.4124611853
  0
VERTEX
  8
0
 62
7
  6
CONTINUOUS
 10
220.844742261
 20
167.5410516193
  0
VERTEX
  8
0
 62
7
  6
CONTINUOUS
 10
220.9015708274
 20
167.6849924043
  0
VERTEX
  8
0
 62
7
  6
CONTINUOUS
 10
220.9404804803
 20
167.8421013025
  0
VERTEX
  8
0
 62
7
  6
CONTINUOUS
 10
220.9564491033
 20
167.9656143744
  0
SEQEND
  0
LINE
  8
0
 62
7
  6
CONTINUOUS
 10
226.4386616175
 20
164.5216157955
 11
226.4421579581
 21
164.4716157955
  0
LINE
  8
0
 62
7
  6
CONTINUOUS
 10
219.8956137174
 20
164.4817067274
 11
219.9702329024
 21
166.6185206082
  0
LINE
  8
0
 62
7
  6
CONTINUOUS
 10
220.7775263936
 20
165.7271772827
 11
221.641060645
 21
176.530656752
  0
LINE
  8
0
 62
7
  6
CONTINUOUS
 10
220.2665850646
 20
167.2362817909
 11
220.3630561524
 21
168.394219683
  0
LINE
  8
0
 62
7
  6
CONTINUOUS
 10
220.3630561524
 20
168.394219683
 11
220.4703562923
 21
169.6622098348
  0
POLYLINE
  8
0
 62
7
  6
CONTINUOUS
 66
1
 70
0
  0
VERTEX
  8
0
 62
7
  6
CONTINUOUS
 10
220.4703562923
 20
169.6622098348
  0
VERTEX
  8
0
 62
7
  6
CONTINUOUS
 10
220.5860893458
 20
171.0059490423
  0
VERTEX
  8
0
 62
7
  6
CONTINUOUS
 10
220.6462138455
 20
171.694915911
  0
SEQEND
  0
LINE
  8
0
 62
7
  6
CONTINUOUS
 10
221.574251511
 20
173.5568472263
 11
221.5743788707
 21
173.5569669755
  0
POLYLINE
  8
0
 62
7
  6
CONTINUOUS
 66
1
 70
0
  0
VERTEX
  8
0
 62
7
  6
CONTINUOUS
 10
220.1846728908
 20
164.8641724968
  0
VERTEX
  8
0
 62
7
  6
CONTINUOUS
 10
220.2660614192
 20
164.9062155922
  0
VERTEX
  8
0
 62
7
  6
CONTINUOUS
 10
220.3873858827
 20
164.9885576445
  0
VERTEX
  8
0
 62
7
  6
CONTINUOUS
 10
220.4962992523
 20
165.0884797299
  0
VERTEX
  8
0
 62
7
  6
CONTINUOUS
 10
220.590359208
 20
165.2040625412
  0
VERTEX
  8
0
 62
7
  6
CONTINUOUS
 10
220.667441391
 20
165.3330857575
  0
VERTEX
  8
0
 62
7
  6
CONTINUOUS
 10
220.7256927592
 20
165.472945895
  0
VERTEX
  8
0
 62
7
  6
CONTINUOUS
 10
220.7636587347
 20
165.6208609851
  0
VERTEX
  8
0
 62
7
  6
CONTINUOUS
 10
220.7775253141
 20
165.727177369
  0
SEQEND
  0
LINE
  8
0
 62
6
  6
CONTINUOUS
 10
226.9771679533
 20
180.4716157955
 11
226.9771679533
 21
164.4716157955
  0
POLYLINE
  8
0
 62
7
  6
CONTINUOUS
 66
1
 70
0
  0
VERTEX
  8
0
 62
7
  6
CONTINUOUS
 10
221.3740473963
 20
173.1901150982
  0
VERTEX
  8
0
 62
7
  6
CONTINUOUS
 10
221.3788459383
 20
173.2282331405
  0
VERTEX
  8
0
 62
7
  6
CONTINUOUS
 10
221.3898398638
 20
173.2758841595
  0
VERTEX
  8
0
 62
7
  6
CONTINUOUS
 10
221.4003704728
 20
173.3078664993
  0
SEQEND
  0
POLYLINE
  8
0
 62
7
  6
CONTINUOUS
 66
1
 70
0
  0
VERTEX
  8
0
 62
7
  6
CONTINUOUS
 10
219.9702327249
 20
166.6185158598
  0
VERTEX
  8
0
 62
7
  6
CONTINUOUS
 10
219.9827353324
 20
166.7065891425
  0
VERTEX
  8
0
 62
7
  6
CONTINUOUS
 10
220.001031695
 20
166.7655012792
  0
SEQEND
  0
LINE
  8
0
 62
7
  6
CONTINUOUS
 10
222.6843001702
 20
180.2166561172
 11
221.6587200775
 21
176.6282174474
  0
POLYLINE
  8
0
 62
7
  6
CONTINUOUS
 66
1
 70
0
  0
VERTEX
  8
0
 62
7
  6
CONTINUOUS
 10
220.001031695
 20
166.7655012792
  0
VERTEX
  8
0
 62
7
  6
CONTINUOUS
 10
220.0108469409
 20
166.7904233976
  0
VERTEX
  8
0
 62
7
  6
CONTINUOUS
 10
220.0488669869
 20
166.8670097856
  0
VERTEX
  8
0
 62
7
  6
CONTINUOUS
 10
220.0914692183
 20
166.935605166
  0
VERTEX
  8
0
 62
7
  6
CONTINUOUS
 10
220.1341967212
 20
166.9964033615
  0
VERTEX
  8
0
 62
7
  6
CONTINUOUS
 10
220.1744840076
 20
167.0513023627
  0
VERTEX
  8
0
 62
7
  6
CONTINUOUS
 10
220.2098495147
 20
167.1014872335
  0
VERTEX
  8
0
 62
7
  6
CONTINUOUS
 10
220.2380012306
 20
167.147903462
  0
VERTEX
  8
0
 62
7
  6
CONTINUOUS
 10
220.2573948502
 20
167.192256471
  0
VERTEX
  8
0
 62
7
  6
CONTINUOUS
 10
220.2665850646
 20
167.2362817909
  0
SEQEND
  0
POLYLINE
  8
0
 62
7
  6
CONTINUOUS
 66
1
 70
0
  0
VERTEX
  8
0
 62
7
  6
CONTINUOUS
 10
220.078537949
 20
164.798230043
  0
VERTEX
  8
0
 62
7
  6
CONTINUOUS
 10
220.0310706964
 20
164.7597193993
  0
VERTEX
  8
0
 62
7
  6
CONTINUOUS
 10
219.9731910374
 20
164.7109373486
  0
VERTEX
  8
0
 62
7
  6
CONTINUOUS
 10
219.9323197301
 20
164.6712762179
  0
VERTEX
  8
0
 62
7
  6
CONTINUOUS
 10
219.90840124
 20
164.6391961217
  0
VERTEX
  8
0
 62
7
  6
CONTINUOUS
 10
219.9002130146
 20
164.6133360736
  0
SEQEND
  0
POLYLINE
  8
0
 62
7
  6
CONTINUOUS
 66
1
 70
0
  0
VERTEX
  8
0
 62
7
  6
CONTINUOUS
 10
220.0785442638
 20
164.7982351622
  0
VERTEX
  8
0
 62
7
  6
CONTINUOUS
 10
220.1512996041
 20
164.8473012475
  0
VERTEX
  8
0
 62
7
  6
CONTINUOUS
 10
220.1846728645
 20
164.8641725536
  0
SEQEND
  0
LINE
  8
0
 62
7
  6
CONTINUOUS
 10
230.8271679533
 20
180.4716157955
 11
230.6954804451
 21
255.9229235533
  0
LINE
  8
0
 62
7
  6
CONTINUOUS
 10
231.0771679533
 20
165.4716157955
 11
231.0771679533
 21
180.2716157955
  0
POLYLINE
  8
0
 62
7
  6
CONTINUOUS
 66
1
 70
0
  0
VERTEX
  8
0
 62
7
  6
CONTINUOUS
 10
220.0009468472
 20
166.7655186977
  0
VERTEX
  8
0
 62
7
  6
CONTINUOUS
 10
220.0406334409
 20
166.8481303416
  0
VERTEX
  8
0
 62
7
  6
CONTINUOUS
 10
220.0895519916
 20
166.9161473164
  0
VERTEX
  8
0
 62
7
  6
CONTINUOUS
 10
220.149140897
 20
166.9750413464
  0
VERTEX
  8
0
 62
7
  6
CONTINUOUS
 10
220.2177270404
 20
167.0231587941
  0
VERTEX
  8
0
 62
7
  6
CONTINUOUS
 10
220.2933846646
 20
167.0591486214
  0
SEQEND
  0
ARC
  8
0
 62
40
  6
CONTINUOUS
 10
81.3771679533
 20
66.4235662663
 40
1.5
 50
150.095255074
 51
209.904744926
  0
ARC
  8
0
 62
40
  6
CONTINUOUS
 10
229.7771679533
 20
117.4635662663
 40
1.5
 50
330.095255074
 51
29.904744926
  0
ARC
  8
0
 62
7
  6
CONTINUOUS
 10
80.2771679533
 20
112.8221766815
 40
0.2
 50
90.0
 51
180.0
  0
ARC
  8
0
 62
7
  6
CONTINUOUS
 10
230.8771679533
 20
71.064955851
 40
0.2
 50
270.0
 51
360.0
  0
ARC
  8
0
 62
7
  6
CONTINUOUS
 10
247.6045383208
 20
67.632325146
 40
50.0
 50
43.7212620861
 51
53.8371991552
  0
ARC
  8
0
 62
7
  6
CONTINUOUS
 10
302.6491093781
 20
75.396411646
 40
12.0
 50
91.2477446171
 51
180.0
  0
ARC
  8
0
 62
6
  6
CONTINUOUS
 10
282.6491093781
 20
66.5392045466
 40
8.75
 50
30.5584317859
 51
60.9677227773
  0
ARC
  8
0
 62
7
  6
CONTINUOUS
 10
282.6491093781
 20
66.5435662663
 40
8.5
 50
199.7499227956
 51
340.2500772044
  0
ARC
  8
0
 62
7
  6
CONTINUOUS
 10
280.6491093781
 20
71.0435662663
 40
6.0
 50
126.1628008448
 51
180.0
  0
CIRCLE
  8
0
 62
7
  6
CONTINUOUS
 10
282.6491093781
 20
66.5435662663
 40
4.15
  0
ARC
  8
0
 62
6
  6
CONTINUOUS
 10
287.2594807995
 20
74.8454958584
 40
0.75
 50
199.54
 51
240.9677227773
  0
ARC
  8
0
 62
6
  6
CONTINUOUS
 10
290.3991093781
 20
71.114955851
 40
0.25
 50
210.5584317859
 51
360.0
  0
ARC
  8
0
 62
7
  6
CONTINUOUS
 10
275.6991093781
 20
91.1907429055
 40
1.0
 50
180.0
 51
253.532453207
  0
ARC
  8
0
 62
7
  6
CONTINUOUS
 10
283.6491093781
 20
85.7657570871
 40
1.0
 50
180.0
 51
199.54
  0
ARC
  8
0
 62
7
  6
CONTINUOUS
 10
281.7991093781
 20
87.4584661229
 40
0.85
 50
0.0
 51
73.532453207
  0
ARC
  8
0
 62
7
  6
CONTINUOUS
 10
283.378718675
 20
82.0428501204
 40
0.5
 50
316.2787379139
 51
19.54
  0
ARC
  8
0
 62
7
  6
CONTINUOUS
 10
247.6045383208
 20
116.2548073866
 40
50.0
 50
306.1628008448
 51
316.2787379139
  0
ARC
  8
0
 62
7
  6
CONTINUOUS
 10
275.6991093781
 20
92.696389627
 40
1.0
 50
106.467546793
 51
180.0
  0
ARC
  8
0
 62
7
  6
CONTINUOUS
 10
281.7991093781
 20
96.4286664097
 40
0.85
 50
286.467546793
 51
360.0
  0
ARC
  8
0
 62
7
  6
CONTINUOUS
 10
283.6491093781
 20
98.1213754455
 40
1.0
 50
160.46
 51
180.0
  0
ARC
  8
0
 62
7
  6
CONTINUOUS
 10
283.378718675
 20
101.8442824121
 40
0.5
 50
340.46
 51
43.7212620861
  0
ARC
  8
0
 62
7
  6
CONTINUOUS
 10
280.6491093781
 20
112.8435662663
 40
6.0
 50
180.0
 51
233.8371991552
  0
ARC
  8
0
 62
7
  6
CONTINUOUS
 10
287.2594807995
 20
109.0416366742
 40
0.75
 50
119.0322772227
 51
160.46
  0
ARC
  8
0
 62
7
  6
CONTINUOUS
 10
290.3991093781
 20
112.7721766815
 40
0.25
 50
0.0
 51
149.4415682141
  0
ARC
  8
0
 62
7
  6
CONTINUOUS
 10
282.6491093781
 20
117.347927986
 40
8.75
 50
299.0322772227
 51
329.4415682141
  0
ARC
  8
0
 62
7
  6
CONTINUOUS
 10
282.6491093781
 20
117.3435662663
 40
8.5
 50
19.7499227956
 51
141.9951143277
  0
ARC
  8
0
 62
7
  6
CONTINUOUS
 10
282.6491093781
 20
117.3435662663
 40
8.5
 50
142.4345865675
 51
160.2500772044
  0
ARC
  8
0
 62
6
  6
CONTINUOUS
 10
282.6491093781
 20
117.3435662663
 40
8.5
 50
141.9951143277
 51
142.4345865675
  0
ARC
  8
0
 62
7
  6
CONTINUOUS
 10
282.6491093781
 20
117.3435662663
 40
5.8
 50
270.0
 51
90.0
  0
CIRCLE
  8
0
 62
7
  6
CONTINUOUS
 10
282.6491093781
 20
117.3435662663
 40
4.15
  0
ARC
  8
0
 62
7
  6
CONTINUOUS
 10
302.6491093781
 20
108.4907208866
 40
12.0
 50
180.0
 51
268.7522553829
  0
ARC
  8
0
 62
7
  6
CONTINUOUS
 10
365.1875454271
 20
89.5115661839
 40
0.75
 50
271.2477446171
 51
318.905924708
  0
ARC
  8
0
 62
7
  6
CONTINUOUS
 10
362.3991093781
 20
91.9435662663
 40
4.45
 50
318.905924708
 51
41.094075292
  0
ARC
  8
0
 62
7
  6
CONTINUOUS
 10
365.1875454271
 20
94.3755663487
 40
0.75
 50
41.094075292
 51
88.7522553829
  0
ARC
  8
0
 62
7
  6
CONTINUOUS
 10
150.2004262359
 20
165.4716157955
 40
1.0
 50
184.57
 51
270.0
  0
ARC
  8
0
 62
7
  6
CONTINUOUS
 10
152.5539096707
 20
165.4716157955
 40
1.0
 50
270.0
 51
355.43
  0
ARC
  8
0
 62
7
  6
CONTINUOUS
 10
144.1539096707
 20
165.4716157955
 40
1.0
 50
270.0
 51
287.4745042926
  0
ARC
  8
0
 62
7
  6
CONTINUOUS
 10
133.4004262359
 20
165.4716157955
 40
1.0
 50
184.57
 51
270.0
  0
ARC
  8
0
 62
7
  6
CONTINUOUS
 10
135.7539096707
 20
165.4716157955
 40
1.0
 50
270.0
 51
355.43
  0
ARC
  8
0
 62
7
  6
CONTINUOUS
 10
141.8004262359
 20
165.4716157955
 40
1.0
 50
252.5254957074
 51
270.0
  0
ARC
  8
0
 62
7
  6
CONTINUOUS
 10
127.3539096707
 20
165.4716157955
 40
1.0
 50
270.0
 51
287.4745042926
  0
ARC
  8
0
 62
7
  6
CONTINUOUS
 10
116.6004262359
 20
165.4716157955
 40
1.0
 50
184.57
 51
270.0
  0
ARC
  8
0
 62
7
  6
CONTINUOUS
 10
118.9539096707
 20
165.4716157955
 40
1.0
 50
270.0
 51
355.43
  0
ARC
  8
0
 62
7
  6
CONTINUOUS
 10
125.0004262359
 20
165.4716157955
 40
1.0
 50
252.5254957074
 51
270.0
  0
ARC
  8
0
 62
7
  6
CONTINUOUS
 10
110.5539096707
 20
165.4716157955
 40
1.0
 50
270.0
 51
287.4745042926
  0
ARC
  8
0
 62
7
  6
CONTINUOUS
 10
99.8004262359
 20
165.4716157955
 40
1.0
 50
184.57
 51
270.0
  0
ARC
  8
0
 62
7
  6
CONTINUOUS
 10
102.1539096707
 20
165.4716157955
 40
1.0
 50
270.0
 51
355.43
  0
ARC
  8
0
 62
7
  6
CONTINUOUS
 10
108.2004262359
 20
165.4716157955
 40
1.0
 50
252.5254957074
 51
270.0
  0
ARC
  8
0
 62
7
  6
CONTINUOUS
 10
93.7539096707
 20
165.4716157955
 40
1.0
 50
270.0
 51
287.4745042926
  0
ARC
  8
0
 62
7
  6
CONTINUOUS
 10
81.0771679533
 20
165.4716157955
 40
1.0
 50
180.0
 51
270.0
  0
ARC
  8
0
 62
7
  6
CONTINUOUS
 10
91.4004262359
 20
165.4716157955
 40
1.0
 50
261.8535358985
 51
270.0
  0
ARC
  8
0
 62
7
  6
CONTINUOUS
 10
154.9394710119
 20
176.4908182514
 40
0.5
 50
164.05
 51
175.43
  0
ARC
  8
0
 62
7
  6
CONTINUOUS
 10
147.8148648947
 20
176.4908182514
 40
0.5
 50
4.57
 51
15.95
  0
ARC
  8
0
 62
7
  6
CONTINUOUS
 10
138.1394710119
 20
176.4908182514
 40
0.5
 50
164.05
 51
175.43
  0
ARC
  8
0
 62
7
  6
CONTINUOUS
 10
131.0148648947
 20
176.4908182514
 40
0.5
 50
4.57
 51
15.95
  0
ARC
  8
0
 62
7
  6
CONTINUOUS
 10
121.3394710119
 20
176.4908182514
 40
0.5
 50
164.05
 51
175.43
  0
ARC
  8
0
 62
7
  6
CONTINUOUS
 10
114.2148648947
 20
176.4908182514
 40
0.5
 50
4.57
 51
15.95
  0
ARC
  8
0
 62
7
  6
CONTINUOUS
 10
104.5394710119
 20
176.4908182514
 40
0.5
 50
164.05
 51
175.43
  0
ARC
  8
0
 62
7
  6
CONTINUOUS
 10
97.4148648947
 20
176.4908182514
 40
0.5
 50
4.57
 51
15.95
  0
ARC
  8
0
 62
7
  6
CONTINUOUS
 10
87.7394710119
 20
176.4908182514
 40
0.5
 50
164.05
 51
175.43
  0
ARC
  8
0
 62
7
  6
CONTINUOUS
 10
155.2919997965
 20
180.2716157955
 40
0.2
 50
344.05
 51
90.0
  0
ARC
  8
0
 62
7
  6
CONTINUOUS
 10
147.4623361102
 20
180.2716157955
 40
0.2
 50
90.0
 51
195.95
  0
ARC
  8
0
 62
7
  6
CONTINUOUS
 10
138.4919997965
 20
180.2716157955
 40
0.2
 50
344.05
 51
90.0
  0
ARC
  8
0
 62
7
  6
CONTINUOUS
 10
130.6623361102
 20
180.2716157955
 40
0.2
 50
90.0
 51
195.95
  0
ARC
  8
0
 62
7
  6
CONTINUOUS
 10
121.6919997965
 20
180.2716157955
 40
0.2
 50
344.05
 51
90.0
  0
ARC
  8
0
 62
7
  6
CONTINUOUS
 10
113.8623361102
 20
180.2716157955
 40
0.2
 50
90.0
 51
195.95
  0
ARC
  8
0
 62
7
  6
CONTINUOUS
 10
104.8919997965
 20
180.2716157955
 40
0.2
 50
344.05
 51
90.0
  0
ARC
  8
0
 62
7
  6
CONTINUOUS
 10
97.0623361102
 20
180.2716157955
 40
0.2
 50
90.0
 51
195.95
  0
ARC
  8
0
 62
7
  6
CONTINUOUS
 10
80.2771679533
 20
180.2716157955
 40
0.2
 50
90.0
 51
180.0
  0
ARC
  8
0
 62
7
  6
CONTINUOUS
 10
88.0919997965
 20
180.2716157955
 40
0.2
 50
344.05
 51
90.0
  0
ARC
  8
0
 62
7
  6
CONTINUOUS
 10
81.2088543193
 20
255.921614557
 40
0.75
 50
90.0000000669
 51
179.9
  0
ARC
  8
0
 62
7
  6
CONTINUOUS
 10
194.5539096707
 20
165.4716157955
 40
1.0
 50
270.0
 51
287.4745042926
  0
ARC
  8
0
 62
7
  6
CONTINUOUS
 10
183.8004262359
 20
165.4716157955
 40
1.0
 50
184.57
 51
270.0
  0
ARC
  8
0
 62
7
  6
CONTINUOUS
 10
186.1539096707
 20
165.4716157955
 40
1.0
 50
270.0
 51
355.43
  0
ARC
  8
0
 62
7
  6
CONTINUOUS
 10
192.2004262359
 20
165.4716157955
 40
1.0
 50
252.5254957074
 51
270.0
  0
ARC
  8
0
 62
7
  6
CONTINUOUS
 10
177.7539096707
 20
165.4716157955
 40
1.0
 50
270.0
 51
287.4745042926
  0
ARC
  8
0
 62
7
  6
CONTINUOUS
 10
167.0004262359
 20
165.4716157955
 40
1.0
 50
184.57
 51
270.0
  0
ARC
  8
0
 62
7
  6
CONTINUOUS
 10
169.3539096707
 20
165.4716157955
 40
1.0
 50
270.0
 51
355.43
  0
ARC
  8
0
 62
7
  6
CONTINUOUS
 10
175.4004262359
 20
165.4716157955
 40
1.0
 50
252.5254957074
 51
270.0
  0
ARC
  8
0
 62
7
  6
CONTINUOUS
 10
160.9539096707
 20
165.4716157955
 40
1.0
 50
270.0
 51
287.4745042926
  0
ARC
  8
0
 62
7
  6
CONTINUOUS
 10
158.6004262359
 20
165.4716157955
 40
1.0
 50
252.5254957074
 51
270.0
  0
ARC
  8
0
 62
7
  6
CONTINUOUS
 10
188.5394710119
 20
176.4908182514
 40
0.5
 50
164.05
 51
175.43
  0
ARC
  8
0
 62
7
  6
CONTINUOUS
 10
181.4148648947
 20
176.4908182514
 40
0.5
 50
4.57
 51
15.95
  0
ARC
  8
0
 62
7
  6
CONTINUOUS
 10
171.7394710119
 20
176.4908182514
 40
0.5
 50
164.05
 51
175.43
  0
ARC
  8
0
 62
7
  6
CONTINUOUS
 10
164.6148648947
 20
176.4908182514
 40
0.5
 50
4.57
 51
15.95
  0
ARC
  8
0
 62
7
  6
CONTINUOUS
 10
188.8919997965
 20
180.2716157955
 40
0.2
 50
344.05
 51
90.0
  0
ARC
  8
0
 62
7
  6
CONTINUOUS
 10
181.0623361102
 20
180.2716157955
 40
0.2
 50
90.0
 51
195.95
  0
ARC
  8
0
 62
7
  6
CONTINUOUS
 10
172.0919997965
 20
180.2716157955
 40
0.2
 50
344.05
 51
90.0
  0
ARC
  8
0
 62
7
  6
CONTINUOUS
 10
164.2623361102
 20
180.2716157955
 40
0.2
 50
90.0
 51
195.95
  0
ARC
  8
0
 62
7
  6
CONTINUOUS
 10
219.7539096707
 20
165.4716157955
 40
1.0
 50
270.0
 51
278.1464641015
  0
ARC
  8
0
 62
7
  6
CONTINUOUS
 10
217.4004262359
 20
165.4716157955
 40
1.0
 50
184.57
 51
270.0
  0
ARC
  8
0
 62
7
  6
CONTINUOUS
 10
211.3539096707
 20
165.4716157955
 40
1.0
 50
270.0
 51
287.4745042926
  0
ARC
  8
0
 62
7
  6
CONTINUOUS
 10
200.6004262359
 20
165.4716157955
 40
1.0
 50
184.57
 51
270.0
  0
ARC
  8
0
 62
7
  6
CONTINUOUS
 10
202.9539096707
 20
165.4716157955
 40
1.0
 50
270.0
 51
355.43
  0
ARC
  8
0
 62
7
  6
CONTINUOUS
 10
209.0004262359
 20
165.4716157955
 40
1.0
 50
252.5254957074
 51
270.0
  0
ARC
  8
0
 62
7
  6
CONTINUOUS
 10
230.0771679533
 20
165.4716157955
 40
1.0
 50
270.0
 51
360.0
  0
ARC
  8
0
 62
7
  6
CONTINUOUS
 10
230.0771679533
 20
165.5216157955
 40
1.0
 50
270.0
 51
360.0
  0
ARC
  8
0
 62
6
  6
CONTINUOUS
 10
219.7539096707
 20
165.4716157955
 40
1.0
 50
278.1464641015
 51
355.43
  0
ARC
  8
0
 62
6
  6
CONTINUOUS
 10
225.8004262359
 20
165.4716157955
 40
1.0
 50
184.57
 51
270.0
  0
ARC
  8
0
 62
6
  6
CONTINUOUS
 10
211.3539096707
 20
165.4716157955
 40
1.0
 50
287.4745042926
 51
355.43
  0
ARC
  8
0
 62
7
  6
CONTINUOUS
 10
230.0771679533
 20
173.4716157955
 40
1.0
 50
270.0
 51
360.0
  0
ARC
  8
0
 62
7
  6
CONTINUOUS
 10
222.1394710119
 20
176.4908182514
 40
0.5
 50
164.05
 51
175.43
  0
ARC
  8
0
 62
7
  6
CONTINUOUS
 10
215.0148648947
 20
176.4908182514
 40
0.5
 50
4.57
 51
15.95
  0
ARC
  8
0
 62
7
  6
CONTINUOUS
 10
205.3394710119
 20
176.4908182514
 40
0.5
 50
164.05
 51
175.43
  0
ARC
  8
0
 62
7
  6
CONTINUOUS
 10
198.2148648947
 20
176.4908182514
 40
0.5
 50
4.57
 51
15.95
  0
ARC
  8
0
 62
7
  6
CONTINUOUS
 10
222.4919997965
 20
180.2716157955
 40
0.2
 50
344.05
 51
90.0
  0
ARC
  8
0
 62
7
  6
CONTINUOUS
 10
214.6623361102
 20
180.2716157955
 40
0.2
 50
90.0
 51
195.95
  0
ARC
  8
0
 62
7
  6
CONTINUOUS
 10
205.6919997965
 20
180.2716157955
 40
0.2
 50
344.05
 51
90.0
  0
ARC
  8
0
 62
7
  6
CONTINUOUS
 10
197.8623361102
 20
180.2716157955
 40
0.2
 50
90.0
 51
195.95
  0
ARC
  8
0
 62
7
  6
CONTINUOUS
 10
230.8771679533
 20
180.2716157956
 40
0.2
 50
0.0
 51
90.0
  0
ARC
  8
0
 62
6
  6
CONTINUOUS
 10
223.0623361102
 20
180.2716157955
 40
0.2
 50
90.0
 51
195.95
  0
ARC
  8
0
 62
6
  6
CONTINUOUS
 10
214.0919997965
 20
180.2716157955
 40
0.2
 50
344.05
 51
90.0
  0
ARC
  8
0
 62
7
  6
CONTINUOUS
 10
229.9454815874
 20
255.921614557
 40
0.75
 50
0.1
 51
89.9999999331
  0
ENDSEC
  0
EOF
