  0
SECTION
  2
HEADER
  9
$EXTMAX
 10
420.0
 20
297.0
 30
0.0
  9
$EXTMIN
 10
0.0
 20
0.0
 30
0.0
  9
$LIMMIN
 10
0.0
 20
0.0
  9
$LIMMAX
 10
420.0
 20
297.0
  9
$VIEWCTR
 10
210.0
 20
148.5
  9
$VIEWSIZE
 40
297.0
  9
$CLAYER
  8
0
  9
$LTSCALE
 40
23.1
  9
$CELTYPE
  6
BYLAYER
  9
$DIMSCALE
 40
1.0
  9
$DIMASZ
 40
3.5
  9
$DIMEXO
 40
2.625
  9
$DIMDLI
 40
15.96
  9
$DIMEXE
 40
7.56
  9
$DIMCEN
 40
3.78
  9
$DIMLFAC
 40
1.0
  9
$DIMBLK
  1
_FILLED
  9
$DIMTXT
 40
3.5
  9
$PDMODE
 70
3
  9
$PDSIZE
 40
0.3125
  9
$TILEMODE
 70
1
  0
ENDSEC
  0
SECTION
  2
TABLES
  0
TABLE
  2
LTYPE
 70
6
  0
LTYPE
  2
BYBLOCK
 70
0
  3

 72
65
 73
0
 40
0.0
  0
LTYPE
  2
BYLAYER
 70
0
  3

 72
65
 73
0
 40
0.0
  0
LTYPE
  2
CONTINUOUS
 70
64
  3
Solid line
 72
65
 73
0
 40
0.0
  0
LTYPE
  2
CENTER
 70
64
  3
____ _ ____ _ ____ _ ____ _ ____ _ ____ _ ____
 72
65
 73
4
 40
0.6
 49
0.375
 49
-0.075
 49
0.075
 49
-0.075
  0
LTYPE
  2
HIDDEN
 70
64
  3
- - - - - - - - - - - - - - - - - - - -
 72
65
 73
2
 40
0.2
 49
0.1
 49
-0.1
  0
LTYPE
  2
PHANTOM
 70
64
  3
_____ _ _ _____ _ _ _____ _ _ _____
 72
65
 73
6
 40
0.8
 49
0.45
 49
-0.05
 49
0.1
 49
-0.05
 49
0.1
 49
-0.05
  0
LTYPE
  2
DOT
 70
64
  3
. . . . . . . . . . . . . . . . . . . .
 72
65
 73
2
 40
0.2
 49
0.1
 49
-0.1
  0
LTYPE
  2
DASHED
 70
64
  3
- - - - - - - - - - - - - - - - - - - -
 72
65
 73
2
 40
0.2
 49
0.1
 49
-0.1
  0
ENDTAB
  0
TABLE
  2
LAYER
 70
36
  0
LAYER
  2
0
 70
0
 62
7
  6
CONTINUOUS
  0
LAYER
  2
DEFAULT_1
 70
0
 62
7
  6
CENTER
  0
LAYER
  2
DEFAULT_2
 70
0
 62
8
  6
HIDDEN
  0
LAYER
  2
DEFAULT_3
 70
0
 62
7
  6
PHANTOM
  0
LAYER
  2
3_ALL_SYMBOLS
 70
0
 62
7
  6
CONTINUOUS
  0
LAYER
  2
BLANK_PLAN
 70
0
 62
7
  6
CONTINUOUS
  0
LAYER
  2
NOTES
 70
0
 62
7
  6
CONTINUOUS
  0
ENDTAB
  0
TABLE
  2
STYLE
 70
1
  0
STYLE
  2
STANDARD
 70
0
 40
0.0
 41
0.8
 50
0.0
 71
0
 42
0.2
  3
txt
  4

  0
STYLE
  2
TEXTSTYLE_1
 70
0
 40
0.0
 41
0.8
 50
0.0
 71
0
 42
0.2
  3
gdt
  4

  0
STYLE
  2
TEXTSTYLE_2
 70
0
 40
0.0
 41
0.6
 50
0.0
 71
0
 42
0.2
  3
txt
  4

  0
STYLE
  2
TEXTSTYLE_3
 70
0
 40
0.0
 41
1.0
 50
0.0
 71
0
 42
0.2
  3
ftb_____.ttf
  4

  0
STYLE
  2
TEXTSTYLE_4
 70
0
 40
0.0
 41
1.0
 50
0.0
 71
0
 42
0.2
  3
fti_____.ttf
  4

  0
STYLE
  2
TEXTSTYLE_5
 70
0
 40
0.0
 41
1.0
 50
0.0
 71
0
 42
0.2
  3
frutiger light.ttf
  4

  0
STYLE
  2
TEXTSTYLE_6
 70
0
 40
0.0
 41
0.7
 50
0.0
 71
0
 42
0.2
  3
txt
  4

  0
STYLE
  2
TEXTSTYLE_7
 70
0
 40
0.0
 41
0.32
 50
0.0
 71
0
 42
0.2
  3
txt
  4

  0
ENDTAB
  0
ENDSEC
  0
SECTION
  2
BLOCKS
  0
BLOCK
  8
0
 62
2
  6
CONTINUOUS
  2
SYMBOL_5_BL1
 70
64
 10
382.7840918555
 20
35.5067593403
  0
TEXT
  8
0
 62
7
  6
CONTINUOUS
 10
373.842376864
 20
30.5995157174
  7
TEXTSTYLE_4
 40
1.0655737705
  1
The brand for plastic modular belts and chains
 41
1.0
 72
0
  0
LINE
  8
0
 62
7
  6
CONTINUOUS
 10
358.7621602445
 20
36.0805298321
 11
358.7621602445
 21
33.9493822911
  0
LINE
  8
0
 62
7
  6
CONTINUOUS
 10
359.0512227376
 20
30.9584509954
 11
359.0512227376
 21
31.0552420547
  0
LINE
  8
0
 62
7
  6
CONTINUOUS
 10
358.7621602445
 20
31.0229783683
 11
358.8199727462
 21
30.8293962497
  0
LINE
  8
0
 62
7
  6
CONTINUOUS
 10
360.1556028675
 20
33.867415078
 11
360.1556028675
 21
36.0805298321
  0
LINE
  8
0
 62
7
  6
CONTINUOUS
 10
361.0746601894
 20
32.0231527829
 11
361.0746601894
 21
30.5067593403
  0
LINE
  8
0
 62
7
  6
CONTINUOUS
 10
361.3637227445
 20
30.5067593403
 11
361.3637227445
 21
31.2488242184
  0
LINE
  8
0
 62
7
  6
CONTINUOUS
 10
361.3637227445
 20
31.3778789641
 11
361.3637227445
 21
32.0231527829
  0
LINE
  8
0
 62
7
  6
CONTINUOUS
 10
358.8199727462
 20
31.216560532
 11
358.7621602445
 21
31.0229783683
  0
LINE
  8
0
 62
7
  6
CONTINUOUS
 10
359.1668477307
 20
30.7971325633
 11
359.0512227376
 21
30.9584509954
  0
LINE
  8
0
 62
7
  6
CONTINUOUS
 10
360.2652852997
 20
31.3133515913
 11
360.3230977445
 21
31.216560532
  0
LINE
  8
0
 62
7
  6
CONTINUOUS
 10
360.6121602997
 20
31.216560532
 11
360.5543476894
 21
31.3456152777
  0
LINE
  8
0
 62
7
  6
CONTINUOUS
 10
362.0408487691
 20
36.0805298321
 11
362.0408487691
 21
34.2772511436
  0
LINE
  8
0
 62
7
  6
CONTINUOUS
 10
362.0408487691
 20
32.9657757338
 11
362.0408487691
 21
32.3100380288
  0
LINE
  8
0
 62
7
  6
CONTINUOUS
 10
362.4043477445
 20
31.1520331591
 11
362.4043477445
 21
30.5067593403
  0
LINE
  8
0
 62
7
  6
CONTINUOUS
 10
362.6934101343
 20
30.5067593403
 11
362.6934101343
 21
31.1520331591
  0
LINE
  8
0
 62
7
  6
CONTINUOUS
 10
359.0512227376
 20
31.0552420547
 11
359.1090352445
 21
31.1842968456
  0
LINE
  8
0
 62
7
  6
CONTINUOUS
 10
358.8199727462
 20
30.8293962497
 11
358.9355977445
 21
30.7003414814
  0
LINE
  8
0
 62
7
  6
CONTINUOUS
 10
362.3465351343
 20
31.2810879048
 11
362.4043477445
 21
31.1520331591
  0
LINE
  8
0
 62
7
  6
CONTINUOUS
 10
363.1559103548
 20
30.7971325633
 11
363.2137226343
 21
30.668077795
  0
LINE
  8
0
 62
7
  6
CONTINUOUS
 10
362.6934101343
 20
31.1520331591
 11
362.6355978548
 21
31.3133515913
  0
LINE
  8
0
 62
7
  6
CONTINUOUS
 10
363.1559103548
 20
31.3456152777
 11
363.1559103548
 21
31.2810879048
  0
LINE
  8
0
 62
7
  6
CONTINUOUS
 10
363.1559103548
 20
30.8939236226
 11
363.1559103548
 21
30.7971325633
  0
LINE
  8
0
 62
7
  6
CONTINUOUS
 10
363.4342913921
 20
32.3100380288
 11
363.4342913921
 21
36.0805298321
  0
LINE
  8
0
 62
7
  6
CONTINUOUS
 10
363.4449727445
 20
30.7648688543
 11
363.4449727445
 21
30.8293962497
  0
LINE
  8
0
 62
7
  6
CONTINUOUS
 10
363.7621602445
 20
36.0805298321
 11
363.7621602445
 21
32.3100380288
  0
LINE
  8
0
 62
7
  6
CONTINUOUS
 10
360.5543476894
 20
30.7003414814
 11
360.6121602997
 21
30.8293962497
  0
LINE
  8
0
 62
7
  6
CONTINUOUS
 10
364.9480979651
 20
30.6035504109
 11
364.890285024
 21
30.7648688543
  0
LINE
  8
0
 62
7
  6
CONTINUOUS
 10
364.6012229651
 20
31.2810879048
 11
364.6012229651
 21
31.1842968456
  0
LINE
  8
0
 62
7
  6
CONTINUOUS
 10
364.6012229651
 20
31.0552420547
 11
364.6012229651
 21
30.8616599362
  0
LINE
  8
0
 62
7
  6
CONTINUOUS
 10
364.890285024
 20
30.7648688543
 11
364.890285024
 21
31.2810879048
  0
LINE
  8
0
 62
7
  6
CONTINUOUS
 10
365.1556028675
 20
32.3100380288
 11
365.1556028675
 21
34.1133167174
  0
LINE
  8
0
 62
7
  6
CONTINUOUS
 10
365.1556028675
 20
35.4247921272
 11
365.1556028675
 21
36.0805298321
  0
LINE
  8
0
 62
7
  6
CONTINUOUS
 10
365.4684104651
 20
32.0231527829
 11
365.4684104651
 21
31.8618343508
  0
LINE
  8
0
 62
7
  6
CONTINUOUS
 10
365.4684104651
 20
31.5391973962
 11
365.4684104651
 21
30.5067593403
  0
LINE
  8
0
 62
7
  6
CONTINUOUS
 10
365.757472524
 20
30.5067593403
 11
365.757472524
 21
31.5391973962
  0
LINE
  8
0
 62
7
  6
CONTINUOUS
 10
365.757472524
 20
31.8618343508
 11
365.757472524
 21
32.0231527829
  0
LINE
  8
0
 62
7
  6
CONTINUOUS
 10
360.3230977445
 20
30.8293962497
 11
360.2652852997
 21
30.7326051679
  0
LINE
  8
0
 62
7
  6
CONTINUOUS
 10
362.6355978548
 20
31.3133515913
 11
362.5777852445
 21
31.3778789641
  0
LINE
  8
0
 62
7
  6
CONTINUOUS
 10
363.5027853548
 20
30.7003414814
 11
363.4449727445
 21
30.7648688543
  0
LINE
  8
0
 62
7
  6
CONTINUOUS
 10
364.6590352445
 20
30.5712867188
 11
364.716847524
 21
30.5067593403
  0
LINE
  8
0
 62
7
  6
CONTINUOUS
 10
364.6012229651
 20
30.668077795
 11
364.6590352445
 21
30.5712867188
  0
LINE
  8
0
 62
7
  6
CONTINUOUS
 10
365.0059102445
 20
30.5067593403
 11
364.9480979651
 21
30.6035504109
  0
LINE
  8
0
 62
7
  6
CONTINUOUS
 10
364.890285024
 20
31.2810879048
 11
364.8324727445
 21
31.3778789641
  0
LINE
  8
0
 62
7
  6
CONTINUOUS
 10
366.2199727445
 20
31.5391973962
 11
366.2199727445
 21
30.5067593403
  0
LINE
  8
0
 62
7
  6
CONTINUOUS
 10
366.5090354651
 20
30.5067593403
 11
366.5090354651
 21
31.2488242184
  0
LINE
  8
0
 62
7
  6
CONTINUOUS
 10
366.5090354651
 20
31.3778789641
 11
366.5090354651
 21
31.5391973962
  0
LINE
  8
0
 62
7
  6
CONTINUOUS
 10
367.0408487691
 20
34.5231527829
 11
367.0408487691
 21
32.3100380288
  0
LINE
  8
0
 62
7
  6
CONTINUOUS
 10
358.9355977445
 20
31.3456152777
 11
358.8199727462
 21
31.216560532
  0
LINE
  8
0
 62
7
  6
CONTINUOUS
 10
359.1090352445
 20
31.1842968456
 11
359.1668477307
 21
31.2488242184
  0
LINE
  8
0
 62
7
  6
CONTINUOUS
 10
358.9355977445
 20
30.7003414814
 11
359.0512227376
 21
30.6358140973
  0
LINE
  8
0
 62
7
  6
CONTINUOUS
 10
359.3402852307
 20
30.7003414814
 11
359.1668477307
 21
30.7971325633
  0
LINE
  8
0
 62
7
  6
CONTINUOUS
 10
364.543410024
 20
31.3456152777
 11
364.6012229651
 21
31.2810879048
  0
LINE
  8
0
 62
7
  6
CONTINUOUS
 10
367.491847524
 20
31.2810879048
 11
367.5496604651
 21
31.1197694727
  0
LINE
  8
0
 62
7
  6
CONTINUOUS
 10
367.838722524
 20
31.1197694727
 11
367.7809102445
 21
31.2810879048
  0
LINE
  8
0
 62
7
  6
CONTINUOUS
 10
367.5496604651
 20
31.1197694727
 11
367.5496604651
 21
30.5067593403
  0
LINE
  8
0
 62
7
  6
CONTINUOUS
 10
367.838722524
 20
30.5067593403
 11
367.838722524
 21
31.1197694727
  0
LINE
  8
0
 62
7
  6
CONTINUOUS
 10
368.3012227445
 20
31.3456152777
 11
368.3012227445
 21
31.2810879048
  0
LINE
  8
0
 62
7
  6
CONTINUOUS
 10
368.4342913921
 20
32.3100380288
 11
368.4342913921
 21
34.4411855698
  0
LINE
  8
0
 62
7
  6
CONTINUOUS
 10
368.7621602445
 20
36.0805298321
 11
368.7621602445
 21
32.3100380288
  0
LINE
  8
0
 62
7
  6
CONTINUOUS
 10
363.4449727445
 20
30.8293962497
 11
363.5027853548
 21
30.926187309
  0
LINE
  8
0
 62
7
  6
CONTINUOUS
 10
359.0512227376
 20
30.6358140973
 11
359.2246602583
 21
30.5712867188
  0
LINE
  8
0
 62
7
  6
CONTINUOUS
 10
360.5543476894
 20
31.3456152777
 11
360.3809101894
 21
31.4424063369
  0
LINE
  8
0
 62
7
  6
CONTINUOUS
 10
363.2137226343
 20
30.668077795
 11
363.3871601343
 21
30.5712867188
  0
LINE
  8
0
 62
7
  6
CONTINUOUS
 10
362.2309102445
 20
31.3456152777
 11
362.3465351343
 21
31.2810879048
  0
LINE
  8
0
 62
7
  6
CONTINUOUS
 10
362.5777852445
 20
31.3778789641
 11
362.4621603548
 21
31.4424063369
  0
LINE
  8
0
 62
7
  6
CONTINUOUS
 10
368.3012227445
 20
30.7648688543
 11
368.4168479651
 21
30.6358140973
  0
LINE
  8
0
 62
7
  6
CONTINUOUS
 10
368.6480977445
 20
30.7003414814
 11
368.5902854651
 21
30.7648688543
  0
LINE
  8
0
 62
7
  6
CONTINUOUS
 10
368.3012227445
 20
31.2810879048
 11
368.4168479651
 21
31.1520331591
  0
LINE
  8
0
 62
7
  6
CONTINUOUS
 10
367.7809102445
 20
31.2810879048
 11
367.7230979651
 21
31.3778789641
  0
LINE
  8
0
 62
7
  6
CONTINUOUS
 10
370.1512223035
 20
30.7003414814
 11
370.1512223035
 21
30.7648688543
  0
LINE
  8
0
 62
7
  6
CONTINUOUS
 10
370.1556028675
 20
32.3100380288
 11
370.1556028675
 21
36.0805298321
  0
LINE
  8
0
 62
7
  6
CONTINUOUS
 10
363.2137226343
 20
31.4101426505
 11
363.1559103548
 21
31.3456152777
  0
LINE
  8
0
 62
7
  6
CONTINUOUS
 10
360.091847717
 20
31.3778789641
 11
360.2652852997
 21
31.3133515913
  0
LINE
  8
0
 62
7
  6
CONTINUOUS
 10
364.8324727445
 20
31.3778789641
 11
364.716847524
 21
31.4424063369
  0
LINE
  8
0
 62
7
  6
CONTINUOUS
 10
368.6480977445
 20
31.216560532
 11
368.5902854651
 21
31.2810879048
  0
LINE
  8
0
 62
7
  6
CONTINUOUS
 10
369.8043479651
 20
30.8293962497
 11
369.8621602445
 21
30.7648688543
  0
LINE
  8
0
 62
7
  6
CONTINUOUS
 10
370.1512223035
 20
30.7648688543
 11
370.0355977445
 21
30.8939236226
  0
LINE
  8
0
 62
7
  6
CONTINUOUS
 10
369.8043479651
 20
31.3456152777
 11
369.8621602445
 21
31.2810879048
  0
LINE
  8
0
 62
7
  6
CONTINUOUS
 10
370.1512223035
 20
31.2810879048
 11
370.0355977445
 21
31.4101426505
  0
LINE
  8
0
 62
7
  6
CONTINUOUS
 10
363.4449727445
 20
31.2810879048
 11
363.5027853548
 21
31.3456152777
  0
LINE
  8
0
 62
7
  6
CONTINUOUS
 10
363.2715352445
 20
31.0229783683
 11
363.1559103548
 21
30.8939236226
  0
LINE
  8
0
 62
7
  6
CONTINUOUS
 10
364.6012229651
 20
30.8616599362
 11
364.543410024
 21
30.7971325633
  0
LINE
  8
0
 62
7
  6
CONTINUOUS
 10
364.543410024
 20
30.6035504109
 11
364.6012229651
 21
30.668077795
  0
LINE
  8
0
 62
7
  6
CONTINUOUS
 10
363.3871601343
 20
30.5712867188
 11
363.5027853548
 21
30.5390230296
  0
LINE
  8
0
 62
7
  6
CONTINUOUS
 10
360.3809101894
 20
31.4424063369
 11
360.1496602445
 21
31.5069337098
  0
LINE
  8
0
 62
7
  6
CONTINUOUS
 10
363.7340351343
 20
30.6358140973
 11
363.5027853548
 21
30.7003414814
  0
LINE
  8
0
 62
7
  6
CONTINUOUS
 10
362.4621603548
 20
31.4424063369
 11
362.2887228548
 21
31.5069337098
  0
LINE
  8
0
 62
7
  6
CONTINUOUS
 10
364.716847524
 20
31.4424063369
 11
364.543410024
 21
31.5069337098
  0
LINE
  8
0
 62
7
  6
CONTINUOUS
 10
367.3762229651
 20
31.3456152777
 11
367.491847524
 21
31.2810879048
  0
LINE
  8
0
 62
7
  6
CONTINUOUS
 10
367.7230979651
 20
31.3778789641
 11
367.6074727445
 21
31.4424063369
  0
LINE
  8
0
 62
7
  6
CONTINUOUS
 10
359.2246602583
 20
30.5712867188
 11
359.3980977583
 21
30.5390230296
  0
LINE
  8
0
 62
7
  6
CONTINUOUS
 10
359.6871602721
 20
30.6358140973
 11
359.3402852307
 21
30.7003414814
  0
LINE
  8
0
 62
7
  6
CONTINUOUS
 10
362.1152853548
 20
31.3778789641
 11
362.2309102445
 21
31.3456152777
  0
LINE
  8
0
 62
7
  6
CONTINUOUS
 10
364.4277854651
 20
31.3778789641
 11
364.543410024
 21
31.3456152777
  0
LINE
  8
0
 62
7
  6
CONTINUOUS
 10
368.7637229651
 20
30.668077795
 11
368.6480977445
 21
30.7003414814
  0
LINE
  8
0
 62
7
  6
CONTINUOUS
 10
367.2605977445
 20
31.3778789641
 11
367.3762229651
 21
31.3456152777
  0
LINE
  8
0
 62
7
  6
CONTINUOUS
 10
368.4168479651
 20
30.6358140973
 11
368.5902854651
 21
30.5712867188
  0
LINE
  8
0
 62
7
  6
CONTINUOUS
 10
367.6074727445
 20
31.4424063369
 11
367.4340352445
 21
31.5069337098
  0
LINE
  8
0
 62
7
  6
CONTINUOUS
 10
368.8215352445
 20
31.1520331591
 11
368.6480977445
 21
31.216560532
  0
LINE
  8
0
 62
7
  6
CONTINUOUS
 10
369.6309104651
 20
30.8939236226
 11
369.8043479651
 21
30.8293962497
  0
LINE
  8
0
 62
7
  6
CONTINUOUS
 10
370.0355977445
 20
31.4101426505
 11
369.8621602445
 21
31.4746700234
  0
LINE
  8
0
 62
7
  6
CONTINUOUS
 10
368.4168479651
 20
31.1520331591
 11
368.6480977445
 21
31.0552420547
  0
LINE
  8
0
 62
7
  6
CONTINUOUS
 10
370.0355977445
 20
30.8939236226
 11
369.8043479651
 21
30.9907146818
  0
LINE
  8
0
 62
7
  6
CONTINUOUS
 10
368.5902854651
 20
31.2810879048
 11
368.6480977445
 21
31.3456152777
  0
LINE
  8
0
 62
7
  6
CONTINUOUS
 10
359.0512227376
 20
31.4101426505
 11
358.9355977445
 21
31.3456152777
  0
LINE
  8
0
 62
7
  6
CONTINUOUS
 10
359.1668477307
 20
31.2488242184
 11
359.3402852307
 21
31.3456152777
  0
LINE
  8
0
 62
7
  6
CONTINUOUS
 10
361.4793477997
 20
31.4424063369
 11
361.3637227445
 21
31.3778789641
  0
LINE
  8
0
 62
7
  6
CONTINUOUS
 10
361.3637227445
 20
31.2488242184
 11
361.4793477997
 21
31.3133515913
  0
LINE
  8
0
 62
7
  6
CONTINUOUS
 10
360.3809101894
 20
30.6035504109
 11
360.5543476894
 21
30.7003414814
  0
LINE
  8
0
 62
7
  6
CONTINUOUS
 10
359.3980977583
 20
30.5390230296
 11
359.744972717
 21
30.5067593403
  0
LINE
  8
0
 62
7
  6
CONTINUOUS
 10
363.5027853548
 20
30.5390230296
 11
363.7340351343
 21
30.5067593403
  0
LINE
  8
0
 62
7
  6
CONTINUOUS
 10
361.8840352445
 20
31.4101426505
 11
362.1152853548
 21
31.3778789641
  0
LINE
  8
0
 62
7
  6
CONTINUOUS
 10
364.1965353548
 20
31.4101426505
 11
364.4277854651
 21
31.3778789641
  0
LINE
  8
0
 62
7
  6
CONTINUOUS
 10
368.6480977445
 20
31.0552420547
 11
369.6309104651
 21
30.8939236226
  0
LINE
  8
0
 62
7
  6
CONTINUOUS
 10
369.8043479651
 20
30.9907146818
 11
368.8215352445
 21
31.1520331591
  0
LINE
  8
0
 62
7
  6
CONTINUOUS
 10
362.2887228548
 20
31.5069337098
 11
362.1152853548
 21
31.5391973962
  0
LINE
  8
0
 62
7
  6
CONTINUOUS
 10
368.5902854651
 20
30.5712867188
 11
368.7637229651
 21
30.5390230296
  0
LINE
  8
0
 62
7
  6
CONTINUOUS
 10
367.4340352445
 20
31.5069337098
 11
367.2605977445
 21
31.5391973962
  0
LINE
  8
0
 62
7
  6
CONTINUOUS
 10
369.6887227445
 20
31.3778789641
 11
369.8043479651
 21
31.3456152777
  0
LINE
  8
0
 62
7
  6
CONTINUOUS
 10
369.8621602445
 20
30.7648688543
 11
369.8043479651
 21
30.7003414814
  0
LINE
  8
0
 62
7
  6
CONTINUOUS
 10
368.4168479651
 20
31.4424063369
 11
368.3012227445
 21
31.3456152777
  0
LINE
  8
0
 62
7
  6
CONTINUOUS
 10
363.3293478548
 20
31.4746700234
 11
363.2137226343
 21
31.4101426505
  0
LINE
  8
0
 62
7
  6
CONTINUOUS
 10
363.3871601343
 20
31.0875057863
 11
363.2715352445
 21
31.0229783683
  0
LINE
  8
0
 62
7
  6
CONTINUOUS
 10
363.5027853548
 20
30.926187309
 11
363.6184102445
 21
30.9907146818
  0
LINE
  8
0
 62
7
  6
CONTINUOUS
 10
361.0746601894
 20
30.5067593403
 11
361.3637227445
 21
30.5067593403
  0
LINE
  8
0
 62
7
  6
CONTINUOUS
 10
362.4043477445
 20
30.5067593403
 11
362.6934101343
 21
30.5067593403
  0
LINE
  8
0
 62
7
  6
CONTINUOUS
 10
363.7340351343
 20
30.5067593403
 11
364.0809101343
 21
30.5067593403
  0
LINE
  8
0
 62
7
  6
CONTINUOUS
 10
364.716847524
 20
30.5067593403
 11
365.0059102445
 21
30.5067593403
  0
LINE
  8
0
 62
7
  6
CONTINUOUS
 10
365.4684104651
 20
30.5067593403
 11
365.757472524
 21
30.5067593403
  0
LINE
  8
0
 62
7
  6
CONTINUOUS
 10
366.2199727445
 20
30.5067593403
 11
366.5090354651
 21
30.5067593403
  0
LINE
  8
0
 62
7
  6
CONTINUOUS
 10
367.5496604651
 20
30.5067593403
 11
367.838722524
 21
30.5067593403
  0
LINE
  8
0
 62
7
  6
CONTINUOUS
 10
369.1105979651
 20
30.5067593403
 11
369.4574729651
 21
30.5067593403
  0
LINE
  8
0
 62
7
  6
CONTINUOUS
 10
369.4574729651
 20
30.6358140973
 11
369.1105979651
 21
30.6358140973
  0
LINE
  8
0
 62
7
  6
CONTINUOUS
 10
364.0809101343
 20
30.6358140973
 11
363.7340351343
 21
30.6358140973
  0
LINE
  8
0
 62
7
  6
CONTINUOUS
 10
368.5902854651
 20
30.7648688543
 11
368.3012227445
 21
30.7648688543
  0
LINE
  8
0
 62
7
  6
CONTINUOUS
 10
360.6121602997
 20
30.8293962497
 11
360.3230977445
 21
30.8293962497
  0
LINE
  8
0
 62
7
  6
CONTINUOUS
 10
359.6871602721
 20
31.4101426505
 11
360.091847717
 21
31.3778789641
  0
LINE
  8
0
 62
7
  6
CONTINUOUS
 10
360.1496602445
 20
31.5069337098
 11
359.744972717
 21
31.5391973962
  0
LINE
  8
0
 62
7
  6
CONTINUOUS
 10
368.7637229651
 20
30.5390230296
 11
369.1105979651
 21
30.5067593403
  0
LINE
  8
0
 62
7
  6
CONTINUOUS
 10
369.1105979651
 20
30.6358140973
 11
368.7637229651
 21
30.668077795
  0
LINE
  8
0
 62
7
  6
CONTINUOUS
 10
364.543410024
 20
31.5069337098
 11
364.1965353548
 21
31.5391973962
  0
LINE
  8
0
 62
7
  6
CONTINUOUS
 10
369.3418477445
 20
31.4101426505
 11
369.6887227445
 21
31.3778789641
  0
LINE
  8
0
 62
7
  6
CONTINUOUS
 10
369.6887227445
 20
31.5069337098
 11
369.3418477445
 21
31.5391973962
  0
LINE
  8
0
 62
7
  6
CONTINUOUS
 10
367.0293479651
 20
31.4101426505
 11
367.2605977445
 21
31.3778789641
  0
LINE
  8
0
 62
7
  6
CONTINUOUS
 10
369.8621602445
 20
31.4746700234
 11
369.6887227445
 21
31.5069337098
  0
LINE
  8
0
 62
7
  6
CONTINUOUS
 10
370.0355977445
 20
30.6035504109
 11
370.1512223035
 21
30.7003414814
  0
LINE
  8
0
 62
7
  6
CONTINUOUS
 10
364.543410024
 20
30.7971325633
 11
364.369972524
 21
30.7003414814
  0
LINE
  8
0
 62
7
  6
CONTINUOUS
 10
366.624660024
 20
31.4424063369
 11
366.5090354651
 21
31.3778789641
  0
LINE
  8
0
 62
7
  6
CONTINUOUS
 10
366.5090354651
 20
31.2488242184
 11
366.624660024
 21
31.3133515913
  0
LINE
  8
0
 62
7
  6
CONTINUOUS
 10
359.2246602583
 20
31.4746700234
 11
359.0512227376
 21
31.4101426505
  0
LINE
  8
0
 62
7
  6
CONTINUOUS
 10
361.6527851343
 20
31.5069337098
 11
361.4793477997
 21
31.4424063369
  0
LINE
  8
0
 62
7
  6
CONTINUOUS
 10
361.4793477997
 20
31.3133515913
 11
361.6527851343
 21
31.3778789641
  0
LINE
  8
0
 62
7
  6
CONTINUOUS
 10
360.2652852997
 20
30.7326051679
 11
360.091847717
 21
30.668077795
  0
LINE
  8
0
 62
7
  6
CONTINUOUS
 10
369.6887227445
 20
30.668077795
 11
369.4574729651
 21
30.6358140973
  0
LINE
  8
0
 62
7
  6
CONTINUOUS
 10
364.0809101343
 20
30.5067593403
 11
364.369972524
 21
30.5390230296
  0
LINE
  8
0
 62
7
  6
CONTINUOUS
 10
369.4574729651
 20
30.5067593403
 11
369.8043479651
 21
30.5390230296
  0
LINE
  8
0
 62
7
  6
CONTINUOUS
 10
359.744972717
 20
30.5067593403
 11
360.1496602445
 21
30.5390230296
  0
LINE
  8
0
 62
7
  6
CONTINUOUS
 10
360.091847717
 20
30.668077795
 11
359.6871602721
 21
30.6358140973
  0
LINE
  8
0
 62
7
  6
CONTINUOUS
 10
363.9652852445
 20
31.0552420547
 11
364.6012229651
 21
31.0552420547
  0
LINE
  8
0
 62
7
  6
CONTINUOUS
 10
364.6012229651
 20
31.1842968456
 11
363.9652852445
 21
31.1842968456
  0
LINE
  8
0
 62
7
  6
CONTINUOUS
 10
360.3230977445
 20
31.216560532
 11
360.6121602997
 21
31.216560532
  0
LINE
  8
0
 62
7
  6
CONTINUOUS
 10
363.1559103548
 20
31.2810879048
 11
363.4449727445
 21
31.2810879048
  0
LINE
  8
0
 62
7
  6
CONTINUOUS
 10
369.8621602445
 20
31.2810879048
 11
370.1512223035
 21
31.2810879048
  0
LINE
  8
0
 62
7
  6
CONTINUOUS
 10
363.8496603548
 20
31.4101426505
 11
364.1965353548
 21
31.4101426505
  0
LINE
  8
0
 62
7
  6
CONTINUOUS
 10
368.9949727445
 20
31.4101426505
 11
369.3418477445
 21
31.4101426505
  0
LINE
  8
0
 62
7
  6
CONTINUOUS
 10
369.3418477445
 20
31.5391973962
 11
368.9949727445
 21
31.5391973962
  0
LINE
  8
0
 62
7
  6
CONTINUOUS
 10
367.2605977445
 20
31.5391973962
 11
367.0293479651
 21
31.5391973962
  0
LINE
  8
0
 62
7
  6
CONTINUOUS
 10
366.5090354651
 20
31.5391973962
 11
366.2199727445
 21
31.5391973962
  0
LINE
  8
0
 62
7
  6
CONTINUOUS
 10
365.757472524
 20
31.5391973962
 11
365.4684104651
 21
31.5391973962
  0
LINE
  8
0
 62
7
  6
CONTINUOUS
 10
364.1965353548
 20
31.5391973962
 11
363.8496603548
 21
31.5391973962
  0
LINE
  8
0
 62
7
  6
CONTINUOUS
 10
362.1152853548
 20
31.5391973962
 11
361.8840352445
 21
31.5391973962
  0
LINE
  8
0
 62
7
  6
CONTINUOUS
 10
365.4684104651
 20
31.8618343508
 11
365.757472524
 21
31.8618343508
  0
LINE
  8
0
 62
7
  6
CONTINUOUS
 10
365.757472524
 20
32.0231527829
 11
365.4684104651
 21
32.0231527829
  0
LINE
  8
0
 62
7
  6
CONTINUOUS
 10
361.3637227445
 20
32.0231527829
 11
361.0746601894
 21
32.0231527829
  0
LINE
  8
0
 62
7
  6
CONTINUOUS
 10
360.4015045068
 20
32.3100380288
 11
360.8140758554
 21
32.3100380288
  0
LINE
  8
0
 62
7
  6
CONTINUOUS
 10
362.0408487691
 20
32.3100380288
 11
363.4342913921
 21
32.3100380288
  0
LINE
  8
0
 62
7
  6
CONTINUOUS
 10
363.7621602445
 20
32.3100380288
 11
365.1556028675
 21
32.3100380288
  0
LINE
  8
0
 62
7
  6
CONTINUOUS
 10
367.0408487691
 20
32.3100380288
 11
368.4342913921
 21
32.3100380288
  0
LINE
  8
0
 62
7
  6
CONTINUOUS
 10
368.7621602445
 20
32.3100380288
 11
370.1556028675
 21
32.3100380288
  0
LINE
  8
0
 62
7
  6
CONTINUOUS
 10
366.798097524
 20
31.5069337098
 11
366.624660024
 21
31.4424063369
  0
LINE
  8
0
 62
7
  6
CONTINUOUS
 10
364.369972524
 20
30.5390230296
 11
364.543410024
 21
30.6035504109
  0
LINE
  8
0
 62
7
  6
CONTINUOUS
 10
369.8043479651
 20
30.5390230296
 11
370.0355977445
 21
30.6035504109
  0
LINE
  8
0
 62
7
  6
CONTINUOUS
 10
369.8043479651
 20
30.7003414814
 11
369.6887227445
 21
30.668077795
  0
LINE
  8
0
 62
7
  6
CONTINUOUS
 10
368.7637229651
 20
31.3778789641
 11
368.9949727445
 21
31.4101426505
  0
LINE
  8
0
 62
7
  6
CONTINUOUS
 10
366.798097524
 20
31.3778789641
 11
367.0293479651
 21
31.4101426505
  0
LINE
  8
0
 62
7
  6
CONTINUOUS
 10
363.7340351343
 20
31.0229783683
 11
363.9652852445
 21
31.0552420547
  0
LINE
  8
0
 62
7
  6
CONTINUOUS
 10
367.0293479651
 20
31.5391973962
 11
366.798097524
 21
31.5069337098
  0
LINE
  8
0
 62
7
  6
CONTINUOUS
 10
363.6184102445
 20
31.3778789641
 11
363.8496603548
 21
31.4101426505
  0
LINE
  8
0
 62
7
  6
CONTINUOUS
 10
368.9949727445
 20
31.5391973962
 11
368.6480977445
 21
31.5069337098
  0
LINE
  8
0
 62
7
  6
CONTINUOUS
 10
363.9652852445
 20
31.1842968456
 11
363.6184102445
 21
31.1520331591
  0
LINE
  8
0
 62
7
  6
CONTINUOUS
 10
359.744972717
 20
31.5391973962
 11
359.3980977583
 21
31.5069337098
  0
LINE
  8
0
 62
7
  6
CONTINUOUS
 10
363.8496603548
 20
31.5391973962
 11
363.4449727445
 21
31.5069337098
  0
LINE
  8
0
 62
7
  6
CONTINUOUS
 10
361.221176638
 20
33.4575790124
 11
360.565438933
 21
33.4575790124
  0
LINE
  8
0
 62
7
  6
CONTINUOUS
 10
366.624660024
 20
31.3133515913
 11
366.798097524
 21
31.3778789641
  0
LINE
  8
0
 62
7
  6
CONTINUOUS
 10
368.6480977445
 20
31.3456152777
 11
368.7637229651
 21
31.3778789641
  0
LINE
  8
0
 62
7
  6
CONTINUOUS
 10
368.6480977445
 20
31.5069337098
 11
368.4168479651
 21
31.4424063369
  0
LINE
  8
0
 62
7
  6
CONTINUOUS
 10
364.369972524
 20
30.7003414814
 11
364.0809101343
 21
30.6358140973
  0
LINE
  8
0
 62
7
  6
CONTINUOUS
 10
361.6527851343
 20
31.3778789641
 11
361.8840352445
 21
31.4101426505
  0
LINE
  8
0
 62
7
  6
CONTINUOUS
 10
361.8840352445
 20
31.5391973962
 11
361.6527851343
 21
31.5069337098
  0
LINE
  8
0
 62
7
  6
CONTINUOUS
 10
359.4559102445
 20
31.3778789641
 11
359.6871602721
 21
31.4101426505
  0
LINE
  8
0
 62
7
  6
CONTINUOUS
 10
365.9752749986
 20
34.9329888485
 11
366.6310127035
 21
34.9329888485
  0
LINE
  8
0
 62
7
  6
CONTINUOUS
 10
363.6184102445
 20
30.9907146818
 11
363.7340351343
 21
31.0229783683
  0
LINE
  8
0
 62
7
  6
CONTINUOUS
 10
363.6184102445
 20
31.1520331591
 11
363.3871601343
 21
31.0875057863
  0
LINE
  8
0
 62
7
  6
CONTINUOUS
 10
363.5027853548
 20
31.3456152777
 11
363.6184102445
 21
31.3778789641
  0
LINE
  8
0
 62
7
  6
CONTINUOUS
 10
360.1496602445
 20
30.5390230296
 11
360.3809101894
 21
30.6035504109
  0
LINE
  8
0
 62
7
  6
CONTINUOUS
 10
363.4449727445
 20
31.5069337098
 11
363.3293478548
 21
31.4746700234
  0
LINE
  8
0
 62
7
  6
CONTINUOUS
 10
359.3980977583
 20
31.5069337098
 11
359.2246602583
 21
31.4746700234
  0
LINE
  8
0
 62
7
  6
CONTINUOUS
 10
370.1556028675
 20
36.0805298321
 11
368.7621602445
 21
36.0805298321
  0
LINE
  8
0
 62
7
  6
CONTINUOUS
 10
366.7949471298
 20
36.0805298321
 11
366.3823757812
 21
36.0805298321
  0
LINE
  8
0
 62
7
  6
CONTINUOUS
 10
365.1556028675
 20
36.0805298321
 11
363.7621602445
 21
36.0805298321
  0
LINE
  8
0
 62
7
  6
CONTINUOUS
 10
363.4342913921
 20
36.0805298321
 11
362.0408487691
 21
36.0805298321
  0
LINE
  8
0
 62
7
  6
CONTINUOUS
 10
360.1556028675
 20
36.0805298321
 11
358.7621602445
 21
36.0805298321
  0
LINE
  8
0
 62
7
  6
CONTINUOUS
 10
359.3402852307
 20
31.3456152777
 11
359.4559102445
 21
31.3778789641
  0
CIRCLE
  8
0
 62
7
  6
CONTINUOUS
 10
369.458881556
 20
38.4165954059
 40
2.0901639344
  0
ARC
  8
0
 62
7
  6
CONTINUOUS
 10
360.4015045068
 20
33.9493822911
 40
1.6393442623
 50
180.0
 51
270.0
  0
ARC
  8
0
 62
7
  6
CONTINUOUS
 10
366.7949471298
 20
34.4411855698
 40
1.6393442623
 50
0.0
 51
90.0
  0
ARC
  8
0
 62
7
  6
CONTINUOUS
 10
360.8140758554
 20
33.7854478649
 40
1.4754098361
 50
270.0
 51
326.2510114041
  0
ARC
  8
0
 62
7
  6
CONTINUOUS
 10
366.3823757812
 20
34.6051199961
 40
1.4754098361
 50
90.0
 51
146.2510114041
  0
ARC
  8
0
 62
7
  6
CONTINUOUS
 10
361.221176638
 20
34.2772511436
 40
0.8196721311
 50
270.0
 51
360.0
  0
ARC
  8
0
 62
7
  6
CONTINUOUS
 10
365.9752749986
 20
34.1133167174
 40
0.8196721311
 50
90.0
 51
180.0
  0
ARC
  8
0
 62
7
  6
CONTINUOUS
 10
360.565438933
 20
33.867415078
 40
0.4098360656
 50
180.0
 51
270.0
  0
ARC
  8
0
 62
7
  6
CONTINUOUS
 10
366.6310127035
 20
34.5231527829
 40
0.4098360656
 50
0.0
 51
90.0
  0
SOLID
  8
0
 62
7
  6
CONTINUOUS
 10
365.4684104651
 20
31.8618347111
 11
365.4684104651
 21
32.0231531947
 12
365.757472524
 22
31.8618347111
 13
365.757472524
 23
32.0231531947
  0
SOLID
  8
0
 62
7
  6
CONTINUOUS
 10
359.744972717
 20
31.5391977439
 11
360.1496602445
 21
31.5069333244
 12
359.3980977583
 22
31.5069333244
 13
359.3980977583
 23
31.5069333244
  0
SOLID
  8
0
 62
7
  6
CONTINUOUS
 10
359.2246602583
 20
31.4746706537
 11
359.3980977583
 21
31.5069333244
 12
360.1496602445
 22
31.5069333244
 13
360.1496602445
 23
31.5069333244
  0
SOLID
  8
0
 62
7
  6
CONTINUOUS
 10
360.1496602445
 20
31.5069333244
 11
360.3809101894
 21
31.4424063504
 12
359.2246602583
 22
31.4746706537
 13
359.2246602583
 23
31.4746706537
  0
SOLID
  8
0
 62
7
  6
CONTINUOUS
 10
359.0512227376
 20
31.4101419116
 11
359.2246602583
 21
31.4746706537
 12
360.3809101894
 22
31.4424063504
 13
360.3809101894
 23
31.4424063504
  0
SOLID
  8
0
 62
7
  6
CONTINUOUS
 10
359.0512227376
 20
31.4101419116
 11
360.3809101894
 21
31.4424063504
 12
359.6871602721
 22
31.4101419116
 13
359.6871602721
 23
31.4101419116
  0
SOLID
  8
0
 62
7
  6
CONTINUOUS
 10
359.6871602721
 20
31.4101419116
 11
360.3809101894
 21
31.4424063504
 12
360.091847717
 22
31.3778792603
 13
360.091847717
 23
31.3778792603
  0
SOLID
  8
0
 62
7
  6
CONTINUOUS
 10
360.3809101894
 20
31.4424063504
 11
360.5543476894
 21
31.345614957
 12
360.091847717
 22
31.3778792603
 13
360.091847717
 23
31.3778792603
  0
SOLID
  8
0
 62
7
  6
CONTINUOUS
 10
360.2652852997
 20
31.3133521701
 11
360.091847717
 21
31.3778792603
 12
360.5543476894
 22
31.345614957
 13
360.5543476894
 23
31.345614957
  0
SOLID
  8
0
 62
7
  6
CONTINUOUS
 10
360.2652852997
 20
31.3133521701
 11
360.5543476894
 21
31.345614957
 12
360.3230977445
 22
31.2165606992
 13
360.3230977445
 23
31.2165606992
  0
SOLID
  8
0
 62
7
  6
CONTINUOUS
 10
360.5543476894
 20
31.345614957
 11
360.6121602997
 21
31.2165606992
 12
360.3230977445
 22
31.2165606992
 13
360.3230977445
 23
31.2165606992
  0
SOLID
  8
0
 62
7
  6
CONTINUOUS
 10
361.6527851343
 20
31.5069329918
 11
361.8840352445
 21
31.5391972951
 12
362.1152853548
 22
31.5391972951
 13
362.1152853548
 23
31.5391972951
  0
SOLID
  8
0
 62
7
  6
CONTINUOUS
 10
362.1152853548
 20
31.5391972951
 11
362.2887228548
 21
31.5069329918
 12
361.6527851343
 22
31.5069329918
 13
361.6527851343
 23
31.5069329918
  0
SOLID
  8
0
 62
7
  6
CONTINUOUS
 10
361.4793477997
 20
31.4424059016
 11
361.6527851343
 21
31.5069329918
 12
362.2887228548
 22
31.5069329918
 13
362.2887228548
 23
31.5069329918
  0
SOLID
  8
0
 62
7
  6
CONTINUOUS
 10
362.2887228548
 20
31.5069329918
 11
362.4621603548
 21
31.4424059016
 12
361.4793477997
 22
31.4424059016
 13
361.4793477997
 23
31.4424059016
  0
SOLID
  8
0
 62
7
  6
CONTINUOUS
 10
362.4621603548
 20
31.4424059016
 11
361.8840352445
 21
31.4101420472
 12
361.4793477997
 22
31.4424059016
 13
361.4793477997
 23
31.4424059016
  0
SOLID
  8
0
 62
7
  6
CONTINUOUS
 10
361.3637227445
 20
31.3778788115
 11
361.4793477997
 21
31.4424059016
 12
361.8840352445
 22
31.4101420472
 13
361.8840352445
 23
31.4101420472
  0
SOLID
  8
0
 62
7
  6
CONTINUOUS
 10
361.8840352445
 20
31.4101420472
 11
361.6527851343
 21
31.3778788115
 12
361.3637227445
 22
31.3778788115
 13
361.3637227445
 23
31.3778788115
  0
SOLID
  8
0
 62
7
  6
CONTINUOUS
 10
361.8840352445
 20
31.4101420472
 11
362.4621603548
 21
31.4424059016
 12
362.1152853548
 22
31.3778788115
 13
362.1152853548
 23
31.3778788115
  0
SOLID
  8
0
 62
7
  6
CONTINUOUS
 10
362.4621603548
 20
31.4424059016
 11
362.5777852445
 21
31.3778788115
 12
362.1152853548
 22
31.3778788115
 13
362.1152853548
 23
31.3778788115
  0
SOLID
  8
0
 62
7
  6
CONTINUOUS
 10
362.2309102445
 20
31.345614957
 11
362.1152853548
 21
31.3778788115
 12
362.5777852445
 22
31.3778788115
 13
362.5777852445
 23
31.3778788115
  0
SOLID
  8
0
 62
7
  6
CONTINUOUS
 10
362.5777852445
 20
31.3778788115
 11
362.6355978548
 21
31.3133517213
 12
362.2309102445
 22
31.345614957
 13
362.2309102445
 23
31.345614957
  0
SOLID
  8
0
 62
7
  6
CONTINUOUS
 10
362.3465351343
 20
31.2810878668
 11
362.2309102445
 21
31.345614957
 12
362.6355978548
 22
31.3133517213
 13
362.6355978548
 23
31.3133517213
  0
SOLID
  8
0
 62
7
  6
CONTINUOUS
 10
362.3465351343
 20
31.2810878668
 11
362.6355978548
 21
31.3133517213
 12
362.4043477445
 22
31.1520332377
 13
362.4043477445
 23
31.1520332377
  0
SOLID
  8
0
 62
7
  6
CONTINUOUS
 10
362.6355978548
 20
31.3133517213
 11
362.6934101343
 21
31.1520332377
 12
362.4043477445
 22
31.1520332377
 13
362.4043477445
 23
31.1520332377
  0
SOLID
  8
0
 62
7
  6
CONTINUOUS
 10
361.6527851343
 20
31.3778788115
 11
361.4793477997
 21
31.3133517213
 12
361.3637227445
 22
31.3778788115
 13
361.3637227445
 23
31.3778788115
  0
SOLID
  8
0
 62
7
  6
CONTINUOUS
 10
361.4793477997
 20
31.3133517213
 11
361.3637227445
 21
31.2488235635
 12
361.3637227445
 22
31.3778788115
 13
361.3637227445
 23
31.3778788115
  0
SOLID
  8
0
 62
7
  6
CONTINUOUS
 10
361.3637227445
 20
31.2488235635
 11
361.0746601894
 21
30.5067593033
 12
361.3637227445
 22
31.3778788115
 13
361.3637227445
 23
31.3778788115
  0
SOLID
  8
0
 62
7
  6
CONTINUOUS
 10
361.3637227445
 20
31.3778788115
 11
361.0746601894
 21
30.5067593033
 12
361.3637227445
 22
32.0231527459
 13
361.3637227445
 23
32.0231527459
  0
SOLID
  8
0
 62
7
  6
CONTINUOUS
 10
361.0746601894
 20
30.5067593033
 11
361.0746601894
 21
32.0231527459
 12
361.3637227445
 22
32.0231527459
 13
361.3637227445
 23
32.0231527459
  0
SOLID
  8
0
 62
7
  6
CONTINUOUS
 10
361.3637227445
 20
31.2488235635
 11
361.3637227445
 21
30.5067593033
 12
361.0746601894
 22
30.5067593033
 13
361.0746601894
 23
30.5067593033
  0
SOLID
  8
0
 62
7
  6
CONTINUOUS
 10
362.4043477445
 20
30.5067593033
 11
362.4043477445
 21
31.1520332377
 12
362.6934101343
 22
31.1520332377
 13
362.6934101343
 23
31.1520332377
  0
SOLID
  8
0
 62
7
  6
CONTINUOUS
 10
362.6934101343
 20
31.1520332377
 11
362.6934101343
 21
30.5067593033
 12
362.4043477445
 22
30.5067593033
 13
362.4043477445
 23
30.5067593033
  0
SOLID
  8
0
 62
7
  6
CONTINUOUS
 10
363.4449727445
 20
31.506933758
 11
363.8496603548
 21
31.5391977507
 12
364.1965353548
 22
31.5391977507
 13
364.1965353548
 23
31.5391977507
  0
SOLID
  8
0
 62
7
  6
CONTINUOUS
 10
364.1965353548
 20
31.5391977507
 11
364.543410024
 21
31.506933758
 12
363.4449727445
 22
31.506933758
 13
363.4449727445
 23
31.506933758
  0
SOLID
  8
0
 62
7
  6
CONTINUOUS
 10
363.3293478548
 20
31.4746706537
 11
363.4449727445
 21
31.506933758
 12
364.543410024
 22
31.506933758
 13
364.543410024
 23
31.506933758
  0
SOLID
  8
0
 62
7
  6
CONTINUOUS
 10
364.543410024
 20
31.506933758
 11
364.716847524
 21
31.4424063504
 12
363.3293478548
 22
31.4746706537
 13
363.3293478548
 23
31.4746706537
  0
SOLID
  8
0
 62
7
  6
CONTINUOUS
 10
363.2137226343
 20
31.4101417797
 11
363.3293478548
 21
31.4746706537
 12
364.716847524
 22
31.4424063504
 13
364.716847524
 23
31.4424063504
  0
SOLID
  8
0
 62
7
  6
CONTINUOUS
 10
363.2137226343
 20
31.4101417797
 11
364.716847524
 21
31.4424063504
 12
363.8496603548
 22
31.4101417797
 13
363.8496603548
 23
31.4101417797
  0
SOLID
  8
0
 62
7
  6
CONTINUOUS
 10
363.8496603548
 20
31.4101417797
 11
364.716847524
 21
31.4424063504
 12
364.1965353548
 22
31.4101417797
 13
364.1965353548
 23
31.4101417797
  0
SOLID
  8
0
 62
7
  6
CONTINUOUS
 10
364.1965353548
 20
31.4101417797
 11
364.716847524
 21
31.4424063504
 12
364.4277854651
 22
31.3778793357
 13
364.4277854651
 23
31.3778793357
  0
SOLID
  8
0
 62
7
  6
CONTINUOUS
 10
364.716847524
 20
31.4424063504
 11
364.8324727445
 21
31.3778793357
 12
364.4277854651
 22
31.3778793357
 13
364.4277854651
 23
31.3778793357
  0
SOLID
  8
0
 62
7
  6
CONTINUOUS
 10
363.1559103548
 20
31.3456153429
 11
363.2137226343
 21
31.4101417797
 12
363.8496603548
 22
31.4101417797
 13
363.8496603548
 23
31.4101417797
  0
SOLID
  8
0
 62
7
  6
CONTINUOUS
 10
364.543410024
 20
31.3456153429
 11
364.4277854651
 21
31.3778793357
 12
364.8324727445
 22
31.3778793357
 13
364.8324727445
 23
31.3778793357
  0
SOLID
  8
0
 62
7
  6
CONTINUOUS
 10
364.543410024
 20
31.3456153429
 11
364.8324727445
 21
31.3778793357
 12
364.6012229651
 22
31.2810881318
 13
364.6012229651
 23
31.2810881318
  0
SOLID
  8
0
 62
7
  6
CONTINUOUS
 10
364.8324727445
 20
31.3778793357
 11
364.890285024
 21
31.2810881318
 12
364.6012229651
 22
31.2810881318
 13
364.6012229651
 23
31.2810881318
  0
SOLID
  8
0
 62
7
  6
CONTINUOUS
 10
364.6012229651
 20
31.1842964734
 11
364.6012229651
 21
31.2810881318
 12
364.890285024
 22
31.2810881318
 13
364.890285024
 23
31.2810881318
  0
SOLID
  8
0
 62
7
  6
CONTINUOUS
 10
364.6012229651
 20
31.1842964734
 11
364.890285024
 21
31.2810881318
 12
364.6012229651
 22
31.0552422931
 13
364.6012229651
 23
31.0552422931
  0
SOLID
  8
0
 62
7
  6
CONTINUOUS
 10
364.6012229651
 20
31.0552422931
 11
364.890285024
 21
31.2810881318
 12
364.6012229651
 22
30.8616599362
 13
364.6012229651
 23
30.8616599362
  0
SOLID
  8
0
 62
7
  6
CONTINUOUS
 10
364.890285024
 20
31.2810881318
 11
364.890285024
 21
30.7648681127
 12
364.6012229651
 22
30.8616599362
 13
364.6012229651
 23
30.8616599362
  0
SOLID
  8
0
 62
7
  6
CONTINUOUS
 10
366.798097524
 20
31.5069339419
 11
367.0293479651
 21
31.5391976292
 12
367.2605977445
 22
31.5391976292
 13
367.2605977445
 23
31.5391976292
  0
SOLID
  8
0
 62
7
  6
CONTINUOUS
 10
367.2605977445
 20
31.5391976292
 11
367.4340352445
 21
31.5069339419
 12
366.798097524
 22
31.5069339419
 13
366.798097524
 23
31.5069339419
  0
SOLID
  8
0
 62
7
  6
CONTINUOUS
 10
366.624660024
 20
31.4424065674
 11
366.798097524
 21
31.5069339419
 12
367.4340352445
 22
31.5069339419
 13
367.4340352445
 23
31.5069339419
  0
SOLID
  8
0
 62
7
  6
CONTINUOUS
 10
367.4340352445
 20
31.5069339419
 11
367.6074727445
 21
31.4424065674
 12
366.624660024
 22
31.4424065674
 13
366.624660024
 23
31.4424065674
  0
SOLID
  8
0
 62
7
  6
CONTINUOUS
 10
367.6074727445
 20
31.4424065674
 11
367.0293479651
 21
31.4101420472
 12
366.624660024
 22
31.4424065674
 13
366.624660024
 23
31.4424065674
  0
SOLID
  8
0
 62
7
  6
CONTINUOUS
 10
366.5090354651
 20
31.377879193
 11
366.624660024
 21
31.4424065674
 12
367.0293479651
 22
31.4101420472
 13
367.0293479651
 23
31.4101420472
  0
SOLID
  8
0
 62
7
  6
CONTINUOUS
 10
367.0293479651
 20
31.4101420472
 11
366.798097524
 21
31.377879193
 12
366.5090354651
 22
31.377879193
 13
366.5090354651
 23
31.377879193
  0
SOLID
  8
0
 62
7
  6
CONTINUOUS
 10
367.0293479651
 20
31.4101420472
 11
367.6074727445
 21
31.4424065674
 12
367.2605977445
 22
31.377879193
 13
367.2605977445
 23
31.377879193
  0
SOLID
  8
0
 62
7
  6
CONTINUOUS
 10
367.6074727445
 20
31.4424065674
 11
367.7230979651
 21
31.377879193
 12
367.2605977445
 22
31.377879193
 13
367.2605977445
 23
31.377879193
  0
SOLID
  8
0
 62
7
  6
CONTINUOUS
 10
367.3762229651
 20
31.345614957
 11
367.2605977445
 21
31.377879193
 12
367.7230979651
 22
31.377879193
 13
367.7230979651
 23
31.377879193
  0
SOLID
  8
0
 62
7
  6
CONTINUOUS
 10
367.3762229651
 20
31.345614957
 11
367.7230979651
 21
31.377879193
 12
367.491847524
 22
31.2810881312
 13
367.491847524
 23
31.2810881312
  0
SOLID
  8
0
 62
7
  6
CONTINUOUS
 10
367.7230979651
 20
31.377879193
 11
367.7809102445
 21
31.2810881312
 12
367.491847524
 22
31.2810881312
 13
367.491847524
 23
31.2810881312
  0
SOLID
  8
0
 62
7
  6
CONTINUOUS
 10
367.5496604651
 20
31.119769695
 11
367.491847524
 21
31.2810881312
 12
367.7809102445
 22
31.2810881312
 13
367.7809102445
 23
31.2810881312
  0
SOLID
  8
0
 62
7
  6
CONTINUOUS
 10
367.7809102445
 20
31.2810881312
 11
367.838722524
 21
31.119769695
 12
367.5496604651
 22
31.119769695
 13
367.5496604651
 23
31.119769695
  0
SOLID
  8
0
 62
7
  6
CONTINUOUS
 10
366.798097524
 20
31.377879193
 11
366.624660024
 21
31.3133521701
 12
366.5090354651
 22
31.377879193
 13
366.5090354651
 23
31.377879193
  0
SOLID
  8
0
 62
7
  6
CONTINUOUS
 10
366.624660024
 20
31.3133521701
 11
366.5090354651
 21
31.2488235635
 12
366.5090354651
 22
31.377879193
 13
366.5090354651
 23
31.377879193
  0
SOLID
  8
0
 62
7
  6
CONTINUOUS
 10
366.5090354651
 20
31.2488235635
 11
366.2199727445
 21
30.5067596374
 12
366.5090354651
 22
31.377879193
 13
366.5090354651
 23
31.377879193
  0
SOLID
  8
0
 62
7
  6
CONTINUOUS
 10
366.5090354651
 20
31.377879193
 11
366.2199727445
 21
30.5067596374
 12
366.5090354651
 22
31.5391976292
 13
366.5090354651
 23
31.5391976292
  0
SOLID
  8
0
 62
7
  6
CONTINUOUS
 10
366.2199727445
 20
30.5067596374
 11
366.2199727445
 21
31.5391976292
 12
366.5090354651
 22
31.5391976292
 13
366.5090354651
 23
31.5391976292
  0
SOLID
  8
0
 62
7
  6
CONTINUOUS
 10
366.5090354651
 20
31.2488235635
 11
366.5090354651
 21
30.5067596374
 12
366.2199727445
 22
30.5067596374
 13
366.2199727445
 23
30.5067596374
  0
SOLID
  8
0
 62
7
  6
CONTINUOUS
 10
367.5496604651
 20
30.5067596374
 11
367.5496604651
 21
31.119769695
 12
367.838722524
 22
31.119769695
 13
367.838722524
 23
31.119769695
  0
SOLID
  8
0
 62
7
  6
CONTINUOUS
 10
367.838722524
 20
31.119769695
 11
367.838722524
 21
30.5067596374
 12
367.5496604651
 22
30.5067596374
 13
367.5496604651
 23
30.5067596374
  0
SOLID
  8
0
 62
7
  6
CONTINUOUS
 10
368.6480977445
 20
31.5069334157
 11
368.9949727445
 21
31.539197762
 12
369.3418477445
 22
31.539197762
 13
369.3418477445
 23
31.539197762
  0
SOLID
  8
0
 62
7
  6
CONTINUOUS
 10
369.3418477445
 20
31.539197762
 11
369.6887227445
 21
31.5069334157
 12
368.6480977445
 22
31.5069334157
 13
368.6480977445
 23
31.5069334157
  0
SOLID
  8
0
 62
7
  6
CONTINUOUS
 10
368.4168479651
 20
31.4424063504
 11
368.6480977445
 21
31.5069334157
 12
369.6887227445
 22
31.5069334157
 13
369.6887227445
 23
31.5069334157
  0
SOLID
  8
0
 62
7
  6
CONTINUOUS
 10
368.4168479651
 20
31.4424063504
 11
369.6887227445
 21
31.5069334406
 12
369.8621602445
 22
31.4746706537
 13
369.8621602445
 23
31.4746706537
  0
SOLID
  8
0
 62
7
  6
CONTINUOUS
 10
368.4168479651
 20
31.4424063504
 11
369.8621602445
 21
31.4746706537
 12
368.9949727445
 22
31.4101421267
 13
368.9949727445
 23
31.4101421267
  0
SOLID
  8
0
 62
7
  6
CONTINUOUS
 10
368.9949727445
 20
31.4101421267
 11
369.8621602445
 21
31.4746706537
 12
369.3418477445
 22
31.4101421267
 13
369.3418477445
 23
31.4101421267
  0
SOLID
  8
0
 62
7
  6
CONTINUOUS
 10
369.8621602445
 20
31.4746706537
 11
370.0355977445
 21
31.4101421267
 12
369.3418477445
 22
31.4101421267
 13
369.3418477445
 23
31.4101421267
  0
SOLID
  8
0
 62
7
  6
CONTINUOUS
 10
369.6887227445
 20
31.3778792603
 11
369.3418477445
 21
31.4101421267
 12
370.0355977445
 22
31.4101421267
 13
370.0355977445
 23
31.4101421267
  0
SOLID
  8
0
 62
7
  6
CONTINUOUS
 10
368.3012227445
 20
31.3456148845
 11
368.4168479651
 21
31.4424063504
 12
368.9949727445
 22
31.4101421267
 13
368.9949727445
 23
31.4101421267
  0
SOLID
  8
0
 62
7
  6
CONTINUOUS
 10
369.6887227445
 20
31.3778792603
 11
370.0355977445
 21
31.4101421267
 12
369.8043479651
 22
31.3456148845
 13
369.8043479651
 23
31.3456148845
  0
SOLID
  8
0
 62
7
  6
CONTINUOUS
 10
369.8043479651
 20
31.3456148845
 11
370.0355977445
 21
31.4101421267
 12
369.8621602445
 22
31.281087868
 13
369.8621602445
 23
31.281087868
  0
SOLID
  8
0
 62
7
  6
CONTINUOUS
 10
370.0355977445
 20
31.4101421267
 11
370.1512223035
 21
31.281087868
 12
369.8621602445
 22
31.281087868
 13
369.8621602445
 23
31.281087868
  0
SOLID
  8
0
 62
7
  6
CONTINUOUS
 10
359.4559102445
 20
31.3778792603
 11
358.9355977445
 21
31.3456148963
 12
359.6871602721
 22
31.4101421155
 13
359.6871602721
 23
31.4101421155
  0
SOLID
  8
0
 62
7
  6
CONTINUOUS
 10
358.9355977445
 20
31.3456148963
 11
359.0512227376
 21
31.4101421155
 12
359.6871602721
 22
31.4101421155
 13
359.6871602721
 23
31.4101421155
  0
SOLID
  8
0
 62
7
  6
CONTINUOUS
 10
359.4559102445
 20
31.3778792603
 11
359.3402852307
 21
31.3456148963
 12
358.9355977445
 22
31.3456148963
 13
358.9355977445
 23
31.3456148963
  0
SOLID
  8
0
 62
7
  6
CONTINUOUS
 10
358.8199727462
 20
31.2165607767
 11
358.9355977445
 21
31.3456148963
 12
359.3402852307
 22
31.3456148963
 13
359.3402852307
 23
31.3456148963
  0
SOLID
  8
0
 62
7
  6
CONTINUOUS
 10
363.1559103548
 20
31.3456149608
 11
363.8496603548
 21
31.4101420472
 12
363.6184102445
 22
31.3778792603
 13
363.6184102445
 23
31.3778792603
  0
SOLID
  8
0
 62
7
  6
CONTINUOUS
 10
363.6184102445
 20
31.3778792603
 11
363.5027853548
 21
31.3456149608
 12
363.1559103548
 22
31.3456149608
 13
363.1559103548
 23
31.3456149608
  0
SOLID
  8
0
 62
7
  6
CONTINUOUS
 10
363.1559103548
 20
31.2810878707
 11
363.1559103548
 21
31.3456149608
 12
363.5027853548
 22
31.3456149608
 13
363.5027853548
 23
31.3456149608
  0
SOLID
  8
0
 62
7
  6
CONTINUOUS
 10
363.5027853548
 20
31.3456149608
 11
363.4449727445
 21
31.2810878707
 12
363.1559103548
 22
31.2810878707
 13
363.1559103548
 23
31.2810878707
  0
SOLID
  8
0
 62
7
  6
CONTINUOUS
 10
368.3012227445
 20
31.3456149608
 11
368.9949727445
 21
31.4101420472
 12
368.7637229651
 22
31.3778792603
 13
368.7637229651
 23
31.3778792603
  0
SOLID
  8
0
 62
7
  6
CONTINUOUS
 10
368.7637229651
 20
31.3778792603
 11
368.6480977445
 21
31.3456149608
 12
368.3012227445
 22
31.3456149608
 13
368.3012227445
 23
31.3456149608
  0
SOLID
  8
0
 62
7
  6
CONTINUOUS
 10
368.3012227445
 20
31.2810878707
 11
368.3012227445
 21
31.3456149608
 12
368.6480977445
 22
31.3456149608
 13
368.6480977445
 23
31.3456149608
  0
SOLID
  8
0
 62
7
  6
CONTINUOUS
 10
368.6480977445
 20
31.3456149608
 11
368.5902854651
 21
31.2810878707
 12
368.3012227445
 22
31.2810878707
 13
368.3012227445
 23
31.2810878707
  0
SOLID
  8
0
 62
7
  6
CONTINUOUS
 10
368.4168479651
 20
31.1520336865
 11
368.3012227445
 21
31.2810878707
 12
368.5902854651
 22
31.2810878707
 13
368.5902854651
 23
31.2810878707
  0
SOLID
  8
0
 62
7
  6
CONTINUOUS
 10
358.8199727462
 20
31.2165607767
 11
359.3402852307
 21
31.345614957
 12
359.1668477307
 22
31.2488235635
 13
359.1668477307
 23
31.2488235635
  0
SOLID
  8
0
 62
7
  6
CONTINUOUS
 10
359.1668477307
 20
31.2488235635
 11
359.1090352445
 21
31.1842964734
 12
358.8199727462
 22
31.2165607767
 13
358.8199727462
 23
31.2165607767
  0
SOLID
  8
0
 62
7
  6
CONTINUOUS
 10
358.7621602445
 20
31.0229779898
 11
358.8199727462
 21
31.2165607767
 12
359.1090352445
 22
31.1842964734
 13
359.1090352445
 23
31.1842964734
  0
SOLID
  8
0
 62
7
  6
CONTINUOUS
 10
363.6184102445
 20
31.1520336865
 11
363.9652852445
 21
31.1842964611
 12
364.6012229651
 22
31.1842964611
 13
364.6012229651
 23
31.1842964611
  0
SOLID
  8
0
 62
7
  6
CONTINUOUS
 10
363.6184102445
 20
31.1520336865
 11
364.6012229651
 21
31.1842964611
 12
363.3871601343
 22
31.0875057863
 13
363.3871601343
 23
31.0875057863
  0
SOLID
  8
0
 62
7
  6
CONTINUOUS
 10
363.3871601343
 20
31.0875057863
 11
364.6012229651
 21
31.1842964611
 12
363.9652852445
 22
31.0552422808
 13
363.9652852445
 23
31.0552422808
  0
SOLID
  8
0
 62
7
  6
CONTINUOUS
 10
364.6012229651
 20
31.1842964611
 11
364.6012229651
 21
31.0552422808
 12
363.9652852445
 22
31.0552422808
 13
363.9652852445
 23
31.0552422808
  0
SOLID
  8
0
 62
7
  6
CONTINUOUS
 10
368.4168479651
 20
31.1520338754
 11
368.5902854651
 21
31.2810878668
 12
368.6480977445
 22
31.2165607767
 13
368.6480977445
 23
31.2165607767
  0
SOLID
  8
0
 62
7
  6
CONTINUOUS
 10
368.6480977445
 20
31.2165607767
 11
368.8215352445
 21
31.1520338754
 12
368.4168479651
 22
31.1520338754
 13
368.4168479651
 23
31.1520338754
  0
SOLID
  8
0
 62
7
  6
CONTINUOUS
 10
368.6480977445
 20
31.0552422931
 11
368.4168479651
 21
31.1520338754
 12
368.8215352445
 22
31.1520338754
 13
368.8215352445
 23
31.1520338754
  0
SOLID
  8
0
 62
7
  6
CONTINUOUS
 10
368.8215352445
 20
31.1520338754
 11
369.8043479651
 21
30.9907152029
 12
368.6480977445
 22
31.0552422931
 13
368.6480977445
 23
31.0552422931
  0
SOLID
  8
0
 62
7
  6
CONTINUOUS
 10
369.6309104651
 20
30.8939239876
 11
368.6480977445
 21
31.0552422931
 12
369.8043479651
 22
30.9907152029
 13
369.8043479651
 23
30.9907152029
  0
SOLID
  8
0
 62
7
  6
CONTINUOUS
 10
369.8043479651
 20
30.9907152029
 11
370.0355977445
 21
30.8939239876
 12
369.6309104651
 22
30.8939239876
 13
369.6309104651
 23
30.8939239876
  0
SOLID
  8
0
 62
7
  6
CONTINUOUS
 10
369.8043479651
 20
30.8293967193
 11
369.6309104651
 21
30.8939239876
 12
370.0355977445
 22
30.8939239876
 13
370.0355977445
 23
30.8939239876
  0
SOLID
  8
0
 62
7
  6
CONTINUOUS
 10
369.8043479651
 20
30.8293967193
 11
370.0355977445
 21
30.8939239876
 12
369.8621602445
 22
30.7648682694
 13
369.8621602445
 23
30.7648682694
  0
SOLID
  8
0
 62
7
  6
CONTINUOUS
 10
370.0355977445
 20
30.8939239876
 11
370.1512223035
 21
30.7648682694
 12
369.8621602445
 22
30.7648682694
 13
369.8621602445
 23
30.7648682694
  0
SOLID
  8
0
 62
7
  6
CONTINUOUS
 10
369.8043479651
 20
30.7003411846
 11
369.8621602445
 21
30.7648682694
 12
370.1512223035
 22
30.7648682694
 13
370.1512223035
 23
30.7648682694
  0
SOLID
  8
0
 62
7
  6
CONTINUOUS
 10
370.1512223035
 20
30.7648682694
 11
370.1512223035
 21
30.7003411846
 12
369.8043479651
 22
30.7003411846
 13
369.8043479651
 23
30.7003411846
  0
SOLID
  8
0
 62
7
  6
CONTINUOUS
 10
369.6887227445
 20
30.6680782357
 11
369.8043479651
 21
30.7003411846
 12
370.1512223035
 22
30.7003411846
 13
370.1512223035
 23
30.7003411846
  0
SOLID
  8
0
 62
7
  6
CONTINUOUS
 10
369.6887227445
 20
30.6680782357
 11
370.1512223035
 21
30.7003411846
 12
369.4574729651
 22
30.6358140998
 13
369.4574729651
 23
30.6358140998
  0
SOLID
  8
0
 62
7
  6
CONTINUOUS
 10
370.1512223035
 20
30.7003411846
 11
370.0355977445
 21
30.6035511455
 12
369.4574729651
 22
30.6358140998
 13
369.4574729651
 23
30.6358140998
  0
SOLID
  8
0
 62
7
  6
CONTINUOUS
 10
370.0355977445
 20
30.6035511455
 11
368.5902854651
 21
30.5712868422
 12
369.4574729651
 22
30.6358140998
 13
369.4574729651
 23
30.6358140998
  0
SOLID
  8
0
 62
7
  6
CONTINUOUS
 10
369.4574729651
 20
30.6358140998
 11
368.5902854651
 21
30.5712868422
 12
369.1105979651
 22
30.6358140998
 13
369.1105979651
 23
30.6358140998
  0
SOLID
  8
0
 62
7
  6
CONTINUOUS
 10
368.5902854651
 20
30.5712868422
 11
368.4168479651
 21
30.6358140998
 12
369.1105979651
 22
30.6358140998
 13
369.1105979651
 23
30.6358140998
  0
SOLID
  8
0
 62
7
  6
CONTINUOUS
 10
368.5902854651
 20
30.5712868422
 11
370.0355977445
 21
30.6035511455
 12
368.7637229651
 22
30.5390223111
 13
368.7637229651
 23
30.5390223111
  0
SOLID
  8
0
 62
7
  6
CONTINUOUS
 10
370.0355977445
 20
30.6035511455
 11
369.8043479651
 21
30.5390223111
 12
368.7637229651
 22
30.5390223111
 13
368.7637229651
 23
30.5390223111
  0
SOLID
  8
0
 62
7
  6
CONTINUOUS
 10
369.1105979651
 20
30.5067599302
 11
368.7637229651
 21
30.5390223111
 12
369.8043479651
 22
30.5390223111
 13
369.8043479651
 23
30.5390223111
  0
SOLID
  8
0
 62
7
  6
CONTINUOUS
 10
369.8043479651
 20
30.5390223111
 11
369.4574729651
 21
30.5067599302
 12
369.1105979651
 22
30.5067599302
 13
369.1105979651
 23
30.5067599302
  0
SOLID
  8
0
 62
7
  6
CONTINUOUS
 10
358.7621602445
 20
31.0229779898
 11
359.1090352445
 21
31.1842964734
 12
359.0512227376
 22
31.0552422931
 13
359.0512227376
 23
31.0552422931
  0
SOLID
  8
0
 62
7
  6
CONTINUOUS
 10
359.0512227376
 20
31.0552422931
 11
359.0512227376
 21
30.9584509954
 12
358.7621602445
 22
31.0229779898
 13
358.7621602445
 23
31.0229779898
  0
SOLID
  8
0
 62
7
  6
CONTINUOUS
 10
358.8199727462
 20
30.8293967193
 11
358.7621602445
 21
31.0229779898
 12
359.0512227376
 22
30.9584509954
 13
359.0512227376
 23
30.9584509954
  0
SOLID
  8
0
 62
7
  6
CONTINUOUS
 10
359.0512227376
 20
30.9584509954
 11
359.1668477307
 21
30.797132416
 12
358.8199727462
 22
30.8293967193
 13
358.8199727462
 23
30.8293967193
  0
SOLID
  8
0
 62
7
  6
CONTINUOUS
 10
358.9355977445
 20
30.7003413087
 11
358.8199727462
 21
30.8293967193
 12
359.1668477307
 22
30.797132416
 13
359.1668477307
 23
30.797132416
  0
SOLID
  8
0
 62
7
  6
CONTINUOUS
 10
359.1668477307
 20
30.797132416
 11
359.3402852307
 21
30.7003413087
 12
358.9355977445
 22
30.7003413087
 13
358.9355977445
 23
30.7003413087
  0
SOLID
  8
0
 62
7
  6
CONTINUOUS
 10
359.0512227376
 20
30.6358140759
 11
358.9355977445
 21
30.7003413087
 12
359.3402852307
 22
30.7003413087
 13
359.3402852307
 23
30.7003413087
  0
SOLID
  8
0
 62
7
  6
CONTINUOUS
 10
359.3402852307
 20
30.7003413087
 11
359.6871602721
 21
30.6358140759
 12
359.0512227376
 22
30.6358140759
 13
359.0512227376
 23
30.6358140759
  0
SOLID
  8
0
 62
7
  6
CONTINUOUS
 10
359.2246602583
 20
30.5712868422
 11
359.0512227376
 21
30.6358140759
 12
359.6871602721
 22
30.6358140759
 13
359.6871602721
 23
30.6358140759
  0
SOLID
  8
0
 62
7
  6
CONTINUOUS
 10
363.2715352445
 20
31.0229779808
 11
363.3871601343
 21
31.0875057863
 12
363.9652852445
 22
31.0552422931
 13
363.9652852445
 23
31.0552422931
  0
SOLID
  8
0
 62
7
  6
CONTINUOUS
 10
363.9652852445
 20
31.0552422931
 11
363.7340351343
 21
31.0229779808
 12
363.2715352445
 22
31.0229779808
 13
363.2715352445
 23
31.0229779808
  0
SOLID
  8
0
 62
7
  6
CONTINUOUS
 10
363.1559103548
 20
30.8939238094
 11
363.2715352445
 21
31.0229779808
 12
363.7340351343
 22
31.0229779808
 13
363.7340351343
 23
31.0229779808
  0
SOLID
  8
0
 62
7
  6
CONTINUOUS
 10
363.5027853548
 20
30.926187309
 11
363.1559103548
 21
30.8939238094
 12
363.6184102445
 22
30.9907152029
 13
363.6184102445
 23
30.9907152029
  0
SOLID
  8
0
 62
7
  6
CONTINUOUS
 10
363.1559103548
 20
30.8939238094
 11
363.7340351343
 21
31.0229779898
 12
363.6184102445
 22
30.9907152029
 13
363.6184102445
 23
30.9907152029
  0
SOLID
  8
0
 62
7
  6
CONTINUOUS
 10
363.5027853548
 20
30.926187309
 11
363.4449727445
 21
30.8293967193
 12
363.1559103548
 22
30.8939238094
 13
363.1559103548
 23
30.8939238094
  0
SOLID
  8
0
 62
7
  6
CONTINUOUS
 10
363.1559103548
 20
30.797132416
 11
363.1559103548
 21
30.8939238094
 12
363.4449727445
 22
30.8293967193
 13
363.4449727445
 23
30.8293967193
  0
SOLID
  8
0
 62
7
  6
CONTINUOUS
 10
363.4449727445
 20
30.8293967193
 11
363.4449727445
 21
30.7648681127
 12
363.1559103548
 22
30.797132416
 13
363.1559103548
 23
30.797132416
  0
SOLID
  8
0
 62
7
  6
CONTINUOUS
 10
363.2137226343
 20
30.6680782357
 11
363.1559103548
 21
30.797132416
 12
363.4449727445
 22
30.7648681127
 13
363.4449727445
 23
30.7648681127
  0
SOLID
  8
0
 62
7
  6
CONTINUOUS
 10
364.6012229651
 20
30.8616599362
 11
364.890285024
 21
30.7648681127
 12
364.543410024
 22
30.797132416
 13
364.543410024
 23
30.797132416
  0
SOLID
  8
0
 62
7
  6
CONTINUOUS
 10
364.369972524
 20
30.7003410226
 11
364.543410024
 21
30.797132416
 12
364.890285024
 22
30.7648681127
 13
364.890285024
 23
30.7648681127
  0
SOLID
  8
0
 62
7
  6
CONTINUOUS
 10
364.369972524
 20
30.7003410226
 11
364.890285024
 21
30.7648681127
 12
364.6012229651
 22
30.6680782357
 13
364.6012229651
 23
30.6680782357
  0
SOLID
  8
0
 62
7
  6
CONTINUOUS
 10
364.890285024
 20
30.7648681127
 11
364.9480979651
 21
30.6035511455
 12
364.6012229651
 22
30.6680782357
 13
364.6012229651
 23
30.6680782357
  0
SOLID
  8
0
 62
7
  6
CONTINUOUS
 10
364.6590352445
 20
30.5712868422
 11
364.6012229651
 21
30.6680782357
 12
364.9480979651
 22
30.6035511455
 13
364.9480979651
 23
30.6035511455
  0
SOLID
  8
0
 62
7
  6
CONTINUOUS
 10
364.6590352445
 20
30.5712868422
 11
364.9480979651
 21
30.6035511455
 12
364.716847524
 22
30.5067598731
 13
364.716847524
 23
30.5067598731
  0
SOLID
  8
0
 62
7
  6
CONTINUOUS
 10
364.9480979651
 20
30.6035511455
 11
365.0059102445
 21
30.5067598731
 12
364.716847524
 22
30.5067598731
 13
364.716847524
 23
30.5067598731
  0
SOLID
  8
0
 62
7
  6
CONTINUOUS
 10
360.2652852997
 20
30.7326051679
 11
360.3230977445
 21
30.8293966612
 12
360.6121602997
 22
30.8293966612
 13
360.6121602997
 23
30.8293966612
  0
SOLID
  8
0
 62
7
  6
CONTINUOUS
 10
360.6121602997
 20
30.8293966612
 11
360.5543476894
 21
30.7003410226
 12
360.2652852997
 22
30.7326051679
 13
360.2652852997
 23
30.7326051679
  0
SOLID
  8
0
 62
7
  6
CONTINUOUS
 10
360.091847717
 20
30.6680782357
 11
360.2652852997
 21
30.7326051679
 12
360.5543476894
 22
30.7003410226
 13
360.5543476894
 23
30.7003410226
  0
SOLID
  8
0
 62
7
  6
CONTINUOUS
 10
360.091847717
 20
30.6680782357
 11
360.5543476894
 21
30.7003410226
 12
359.6871602721
 22
30.6358139324
 13
359.6871602721
 23
30.6358139324
  0
SOLID
  8
0
 62
7
  6
CONTINUOUS
 10
360.5543476894
 20
30.7003410226
 11
360.3809101894
 21
30.6035511455
 12
359.6871602721
 22
30.6358139324
 13
359.6871602721
 23
30.6358139324
  0
SOLID
  8
0
 62
7
  6
CONTINUOUS
 10
359.2246602583
 20
30.5712868422
 11
359.6871602721
 21
30.6358139324
 12
360.3809101894
 22
30.6035511455
 13
360.3809101894
 23
30.6035511455
  0
SOLID
  8
0
 62
7
  6
CONTINUOUS
 10
359.2246602583
 20
30.5712868422
 11
360.3809101894
 21
30.6035511455
 12
359.3980977583
 22
30.5390224228
 13
359.3980977583
 23
30.5390224228
  0
SOLID
  8
0
 62
7
  6
CONTINUOUS
 10
360.3809101894
 20
30.6035511455
 11
360.1496602445
 21
30.5390224228
 12
359.3980977583
 22
30.5390224228
 13
359.3980977583
 23
30.5390224228
  0
SOLID
  8
0
 62
7
  6
CONTINUOUS
 10
359.744972717
 20
30.5067597521
 11
359.3980977583
 21
30.5390224228
 12
360.1496602445
 22
30.5390224228
 13
360.1496602445
 23
30.5390224228
  0
SOLID
  8
0
 62
7
  6
CONTINUOUS
 10
363.2137226343
 20
30.6680782357
 11
363.4449727445
 21
30.7648681127
 12
363.5027853548
 22
30.7003410226
 13
363.5027853548
 23
30.7003410226
  0
SOLID
  8
0
 62
7
  6
CONTINUOUS
 10
363.5027853548
 20
30.7003410226
 11
363.7340351343
 21
30.6358139324
 12
363.2137226343
 22
30.6680782357
 13
363.2137226343
 23
30.6680782357
  0
SOLID
  8
0
 62
7
  6
CONTINUOUS
 10
363.3871601343
 20
30.5712868422
 11
363.2137226343
 21
30.6680782357
 12
363.7340351343
 22
30.6358139324
 13
363.7340351343
 23
30.6358139324
  0
SOLID
  8
0
 62
7
  6
CONTINUOUS
 10
364.0809101343
 20
30.6358139363
 11
364.369972524
 21
30.7003410226
 12
364.6012229651
 22
30.6680782357
 13
364.6012229651
 23
30.6680782357
  0
SOLID
  8
0
 62
7
  6
CONTINUOUS
 10
364.6012229651
 20
30.6680782357
 11
364.543410024
 21
30.6035511455
 12
364.0809101343
 22
30.6358139363
 13
364.0809101343
 23
30.6358139363
  0
SOLID
  8
0
 62
7
  6
CONTINUOUS
 10
364.543410024
 20
30.6035511455
 11
363.3871601343
 21
30.5712868422
 12
364.0809101343
 22
30.6358139363
 13
364.0809101343
 23
30.6358139363
  0
SOLID
  8
0
 62
7
  6
CONTINUOUS
 10
363.3871601343
 20
30.5712868422
 11
363.7340351343
 21
30.6358139363
 12
364.0809101343
 22
30.6358139363
 13
364.0809101343
 23
30.6358139363
  0
SOLID
  8
0
 62
7
  6
CONTINUOUS
 10
363.3871601343
 20
30.5712868422
 11
364.543410024
 21
30.6035511455
 12
363.5027853548
 22
30.5390225267
 13
363.5027853548
 23
30.5390225267
  0
SOLID
  8
0
 62
7
  6
CONTINUOUS
 10
364.543410024
 20
30.6035511455
 11
364.369972524
 21
30.5390225267
 12
363.5027853548
 22
30.5390225267
 13
363.5027853548
 23
30.5390225267
  0
SOLID
  8
0
 62
7
  6
CONTINUOUS
 10
363.7340351343
 20
30.5067596914
 11
363.5027853548
 21
30.5390225267
 12
364.369972524
 22
30.5390225267
 13
364.369972524
 23
30.5390225267
  0
SOLID
  8
0
 62
7
  6
CONTINUOUS
 10
364.369972524
 20
30.5390225267
 11
364.0809101343
 21
30.5067596914
 12
363.7340351343
 22
30.5067596914
 13
363.7340351343
 23
30.5067596914
  0
SOLID
  8
0
 62
7
  6
CONTINUOUS
 10
368.7637229651
 20
30.6680782357
 11
368.4168479651
 21
30.6358138717
 12
368.6480977445
 22
30.7003410226
 13
368.6480977445
 23
30.7003410226
  0
SOLID
  8
0
 62
7
  6
CONTINUOUS
 10
368.6480977445
 20
30.7003410226
 11
368.4168479651
 21
30.6358138717
 12
368.5902854651
 22
30.7648680521
 13
368.5902854651
 23
30.7648680521
  0
SOLID
  8
0
 62
7
  6
CONTINUOUS
 10
368.4168479651
 20
30.6358138717
 11
368.3012227445
 21
30.7648680521
 12
368.5902854651
 22
30.7648680521
 13
368.5902854651
 23
30.7648680521
  0
SOLID
  8
0
 62
7
  6
CONTINUOUS
 10
368.7637229651
 20
30.6680782357
 11
369.1105979651
 21
30.6358138717
 12
368.4168479651
 22
30.6358138717
 13
368.4168479651
 23
30.6358138717
  0
SOLID
  8
0
 62
7
  6
CONTINUOUS
 10
365.4684104651
 20
30.5067597521
 11
365.4684104651
 21
31.5391977439
 12
365.757472524
 22
30.5067597521
 13
365.757472524
 23
31.5391977439
  0
ENDBLK
  8
0
  6
BYBLOCK
 62
0
  0
BLOCK
  8
0
 62
2
  6
CONTINUOUS
  2
SYMBOL_0_BL0
 70
64
 10
240.8592468615
 20
19.762288695
  0
TEXT
  8
0
 62
7
  6
CONTINUOUS
 10
227.1239507038
 20
19.1357028027
  7
TEXTSTYLE_3
 40
2.7338706658
  1
Ammeraal Beltech
 41
1.0
 51
15.0
 72
0
  0
TEXT
  8
0
 62
7
  6
CONTINUOUS
 10
237.9247515296
 20
16.8621661299
  7
TEXTSTYLE_4
 40
1.0935482663
  1
Innovation & Service in Belting
 41
1.0
 72
0
  0
LINE
  8
0
 62
7
  6
CONTINUOUS
 10
221.0994100525
 20
19.9022961113
 11
221.8775620458
 21
23.5632134089
  0
LINE
  8
0
 62
7
  6
CONTINUOUS
 10
231.9727303357
 20
27.2266073205
 11
222.3653797889
 21
24.1049898993
  0
LINE
  8
0
 62
7
  6
CONTINUOUS
 10
221.3246933848
 20
19.2089453082
 11
228.8317686459
 21
12.4495443822
  0
LINE
  8
0
 62
7
  6
CONTINUOUS
 10
221.5872277955
 20
20.4440726016
 11
232.3954971607
 21
23.9558922005
  0
LINE
  8
0
 62
7
  6
CONTINUOUS
 10
232.3912920235
 20
13.6061036368
 11
223.9458323548
 21
21.2104296785
  0
LINE
  8
0
 62
7
  6
CONTINUOUS
 10
232.9111147433
 20
26.3816822048
 11
231.9345552061
 21
21.7873308023
  0
LINE
  8
0
 62
7
  6
CONTINUOUS
 10
231.2347532584
 20
18.4950214885
 11
230.5483050469
 21
15.2655365641
  0
LINE
  8
0
 62
7
  6
CONTINUOUS
 10
233.5922108419
 20
13.9963058145
 11
234.5484423775
 21
18.4950214885
  0
LINE
  8
0
 62
7
  6
CONTINUOUS
 10
235.2482443252
 20
21.7873308023
 11
235.6924861276
 21
23.8773241617
  0
LINE
  8
0
 62
7
  6
CONTINUOUS
 10
229.5448697213
 20
12.2979700695
 11
233.1043930989
 21
13.4545293241
  0
LINE
  8
0
 62
7
  6
CONTINUOUS
 10
232.685831411
 20
27.0750330078
 11
235.4672027953
 21
24.5706749648
  0
ARC
  8
0
 62
7
  6
CONTINUOUS
 10
222.5906631212
 20
23.4116390962
 40
0.7290321776
 50
108.0
 51
168.0
  0
ARC
  8
0
 62
7
  6
CONTINUOUS
 10
232.198013668
 20
26.5332565175
 40
0.7290321776
 50
348.0
 51
108.0
  0
ARC
  8
0
 62
7
  6
CONTINUOUS
 10
234.9793850522
 20
24.0288984744
 40
0.7290321776
 50
348.0
 51
48.0
  0
ARC
  8
0
 62
7
  6
CONTINUOUS
 10
229.319586389
 20
12.9913208726
 40
0.7290321776
 50
228.0
 51
288.0
  0
ARC
  8
0
 62
7
  6
CONTINUOUS
 10
221.8125111278
 20
19.7507217986
 40
0.7290321776
 50
108.0
 51
228.0
  0
ARC
  8
0
 62
7
  6
CONTINUOUS
 10
232.8791097665
 20
14.1478801272
 40
0.7290321776
 50
228.0
 51
348.0
  0
ENDBLK
  8
0
  6
BYBLOCK
 62
0
  0
ENDSEC
  0
SECTION
  2
ENTITIES
  0
TEXT
  8
0
 62
5
  6
CONTINUOUS
 10
304.937007874
 20
25.636
  7
TEXTSTYLE_2
 40
2.8
  1
Scale :
 41
0.6
 51
0.000019
 72
0
  0
TEXT
  8
0
 62
5
  6
CONTINUOUS
 10
324.937007874
 20
25.636
  7
TEXTSTYLE_2
 40
2.8
  1
Belt type:
 41
0.6
 51
0.000019
 72
0
  0
INSERT
  8
0
 62
2
  6
CONTINUOUS
  2
SYMBOL_0_BL0
 10
240.8592468615
 20
19.762288695
  0
INSERT
  8
0
 62
2
  6
CONTINUOUS
  2
SYMBOL_5_BL1
 10
382.7840918555
 20
35.5067593403
  0
LINE
  8
0
 62
2
  6
CONTINUOUS
 10
218.937007874
 20
30.0
 11
408.937007874
 21
30.0
  0
LINE
  8
0
 62
2
  6
CONTINUOUS
 10
218.937007874
 20
30.0
 11
218.937007874
 21
10.0
  0
LINE
  8
0
 62
2
  6
CONTINUOUS
 10
218.937007874
 20
10.0
 11
408.937007874
 21
10.0
  0
LINE
  8
0
 62
2
  6
CONTINUOUS
 10
303.937007874
 20
30.0
 11
303.937007874
 21
10.0
  0
LINE
  8
0
 62
2
  6
CONTINUOUS
 10
323.937007874
 20
30.0
 11
323.937007874
 21
10.0
  0
LINE
  8
0
 62
2
  6
CONTINUOUS
 10
408.937007874
 20
30.0
 11
408.937007874
 21
10.0
  0
TEXT
  8
0
 62
5
  6
CONTINUOUS
 10
221.937007874
 20
23.303
  7
TEXTSTYLE_5
 40
1.52
  1
                                                                     Ammeraal Beltech Modular A/S
 41
1.0
 72
0
  0
TEXT
  8
0
 62
5
  6
CONTINUOUS
 10
221.937007874
 20
20.595
  7
TEXTSTYLE_5
 40
1.5
  1
                                                                      Hjulmagervej 21, 7100 Vejle,  DK
 41
1.0
 72
0
  0
TEXT
  8
0
 62
5
  6
CONTINUOUS
 10
221.937007874
 20
17.881
  7
TEXTSTYLE_5
 40
1.495
  1
                                                                      tel: 
 41
1.0
 72
0
  0
TEXT
  8
0
 62
5
  6
CONTINUOUS
 10
266.9239544389
 20
17.881
  7
TEXTSTYLE_5
 40
1.51
  1
+45 75723100     fax: +45 75723348
 41
1.0
 72
0
  0
TEXT
  8
0
 62
5
  6
CONTINUOUS
 10
221.937007874
 20
15.177
  7
TEXTSTYLE_5
 40
1.5
  1
                                                                      admin@unichains.dk  www.unichains.com
 41
1.0
 72
0
  0
TEXT
  8
0
 62
5
  6
CONTINUOUS
 10
308.687007874
 20
13.75
  7
TEXTSTYLE_6
 40
5.0
  1
1:1
 41
0.7
 72
1
 11
313.937007874
 21
13.75
  0
TEXT
  8
0
 62
5
  6
CONTINUOUS
 10
326.937007874
 20
13.75
  7
TEXTSTYLE_7
 40
7.5
  1
uni MPB K600 Product Support Flat 1" K600 
 41
0.2652380952
 72
0
  0
LINE
  8
0
 62
7
  6
CONTINUOUS
 10
0.0
 20
0.0
 11
0.0
 21
297.0
  0
LINE
  8
0
 62
7
  6
CONTINUOUS
 10
8.937007874
 20
10.0
 11
8.937007874
 21
287.0
  0
LINE
  8
0
 62
7
  6
CONTINUOUS
 10
0.0
 20
0.0
 11
420.0
 21
0.0
  0
LINE
  8
0
 62
7
  6
CONTINUOUS
 10
408.937007874
 20
10.0
 11
8.937007874
 21
10.0
  0
LINE
  8
0
 62
7
  6
CONTINUOUS
 10
218.937007874
 20
30.0
 11
408.937007874
 21
30.0
  0
LINE
  8
0
 62
7
  6
CONTINUOUS
 10
210.0
 20
297.0
 11
210.0
 21
292.0
  0
LINE
  8
0
 62
7
  6
CONTINUOUS
 10
210.0
 20
0.0
 11
210.0
 21
5.0
  0
LINE
  8
0
 62
7
  6
CONTINUOUS
 10
8.937007874
 20
287.0
 11
408.937007874
 21
287.0
  0
LINE
  8
0
 62
7
  6
CONTINUOUS
 10
0.0
 20
297.0
 11
420.0
 21
297.0
  0
LINE
  8
0
 62
7
  6
CONTINUOUS
 10
408.937007874
 20
287.0
 11
408.937007874
 21
10.0
  0
LINE
  8
0
 62
7
  6
CONTINUOUS
 10
420.0
 20
0.0
 11
420.0
 21
297.0
  0
LINE
  8
0
 62
7
  6
CONTINUOUS
 10
122.877218453
 20
189.1747083172
 11
122.877218453
 21
203.9747083172
  0
LINE
  8
0
 62
7
  6
CONTINUOUS
 10
123.1702431289
 20
228.8260067312
 11
123.127218453
 21
204.1747083172
  0
LINE
  8
0
 62
7
  6
CONTINUOUS
 10
127.5122284482
 20
188.1747083172
 11
127.6603264523
 21
190.2926084479
  0
LINE
  8
0
 62
7
  6
CONTINUOUS
 10
134.0573790335
 20
188.2247083172
 11
134.0587726889
 21
188.1847992491
  0
LINE
  8
0
 62
7
  6
CONTINUOUS
 10
129.1775768933
 20
189.4302698044
 11
130.0411111446
 21
200.2337492737
  0
POLYLINE
  8
0
 62
7
  6
CONTINUOUS
 66
1
 70
0
  0
VERTEX
  8
0
 62
7
  6
CONTINUOUS
 10
129.774097896
 20
196.8932076198
  0
VERTEX
  8
0
 62
7
  6
CONTINUOUS
 10
129.778896438
 20
196.9313256621
  0
VERTEX
  8
0
 62
7
  6
CONTINUOUS
 10
129.7898903635
 20
196.9789766812
  0
VERTEX
  8
0
 62
7
  6
CONTINUOUS
 10
129.8004209724
 20
197.010959021
  0
SEQEND
  0
POLYLINE
  8
0
 62
7
  6
CONTINUOUS
 66
1
 70
0
  0
VERTEX
  8
0
 62
7
  6
CONTINUOUS
 10
127.6603261833
 20
190.2926043581
  0
VERTEX
  8
0
 62
7
  6
CONTINUOUS
 10
127.6738002828
 20
190.3714503996
  0
VERTEX
  8
0
 62
7
  6
CONTINUOUS
 10
127.7049526951
 20
190.455453187
  0
VERTEX
  8
0
 62
7
  6
CONTINUOUS
 10
127.7113565879
 20
190.4685322868
  0
SEQEND
  0
LINE
  8
0
 62
7
  6
CONTINUOUS
 10
131.0843506699
 20
203.9197486388
 11
130.0587705772
 21
200.3313099691
  0
LINE
  8
0
 62
7
  6
CONTINUOUS
 10
129.800411329
 20
197.0109328955
 11
129.824967565
 21
197.0668235457
  0
LINE
  8
0
 62
7
  6
CONTINUOUS
 10
140.7133257613
 20
200.2337492737
 11
141.6036560017
 21
189.095031316
  0
POLYLINE
  8
0
 62
7
  6
CONTINUOUS
 66
1
 70
0
  0
VERTEX
  8
0
 62
7
  6
CONTINUOUS
 10
127.7113565879
 20
190.4685322868
  0
VERTEX
  8
0
 62
7
  6
CONTINUOUS
 10
127.75598256
 20
190.5440963707
  0
VERTEX
  8
0
 62
7
  6
CONTINUOUS
 10
127.8290968154
 20
190.6368135345
  0
VERTEX
  8
0
 62
7
  6
CONTINUOUS
 10
127.9258293156
 20
190.733014343
  0
VERTEX
  8
0
 62
7
  6
CONTINUOUS
 10
128.0456624975
 20
190.8323672425
  0
VERTEX
  8
0
 62
7
  6
CONTINUOUS
 10
128.184991624
 20
190.9360337771
  0
SEQEND
  0
POLYLINE
  8
0
 62
7
  6
CONTINUOUS
 66
1
 70
0
  0
VERTEX
  8
0
 62
7
  6
CONTINUOUS
 10
127.711321762
 20
190.4685419163
  0
VERTEX
  8
0
 62
7
  6
CONTINUOUS
 10
127.746005784
 20
190.5272582018
  0
VERTEX
  8
0
 62
7
  6
CONTINUOUS
 10
127.8025033282
 20
190.5956266467
  0
VERTEX
  8
0
 62
7
  6
CONTINUOUS
 10
127.8701916541
 20
190.652937211
  0
VERTEX
  8
0
 62
7
  6
CONTINUOUS
 10
127.9469409453
 20
190.6973866243
  0
VERTEX
  8
0
 62
7
  6
CONTINUOUS
 10
128.0303362836
 20
190.7275762929
  0
VERTEX
  8
0
 62
7
  6
CONTINUOUS
 10
128.1177536329
 20
190.7425563062
  0
VERTEX
  8
0
 62
7
  6
CONTINUOUS
 10
128.1581618297
 20
190.7441918106
  0
SEQEND
  0
POLYLINE
  8
0
 62
7
  6
CONTINUOUS
 66
1
 70
0
  0
VERTEX
  8
0
 62
7
  6
CONTINUOUS
 10
129.824967565
 20
197.0668235457
  0
VERTEX
  8
0
 62
7
  6
CONTINUOUS
 10
129.8673191401
 20
197.1372164591
  0
VERTEX
  8
0
 62
7
  6
CONTINUOUS
 10
129.9229567484
 20
197.2073772648
  0
VERTEX
  8
0
 62
7
  6
CONTINUOUS
 10
129.97442939
 20
197.2600594764
  0
SEQEND
  0
LINE
  8
0
 62
7
  6
CONTINUOUS
 10
140.929469341
 20
197.0668235457
 11
140.954025577
 21
197.0109328955
  0
LINE
  8
0
 62
7
  6
CONTINUOUS
 10
139.6700862361
 20
203.9197486388
 11
140.6956663288
 21
200.3313099691
  0
LINE
  8
0
 62
7
  6
CONTINUOUS
 10
146.8411111446
 20
200.2337492737
 11
145.9507809042
 21
189.095031316
  0
LINE
  8
0
 62
7
  6
CONTINUOUS
 10
147.8843506699
 20
203.9197486388
 11
146.8587705772
 21
200.3313099691
  0
LINE
  8
0
 62
7
  6
CONTINUOUS
 10
140.8871177659
 20
197.1372164591
 11
140.929469341
 21
197.0668235457
  0
LINE
  8
0
 62
7
  6
CONTINUOUS
 10
146.600411329
 20
197.0109328955
 11
146.624967565
 21
197.0668235457
  0
LINE
  8
0
 62
7
  6
CONTINUOUS
 10
129.9743020107
 20
197.259939748
 11
129.9744293704
 21
197.2600594972
  0
LINE
  8
0
 62
7
  6
CONTINUOUS
 10
140.7801348953
 20
197.259939748
 11
140.7800075356
 21
197.2600594972
  0
POLYLINE
  8
0
 62
7
  6
CONTINUOUS
 66
1
 70
0
  0
VERTEX
  8
0
 62
7
  6
CONTINUOUS
 10
140.780007516
 20
197.2600594764
  0
VERTEX
  8
0
 62
7
  6
CONTINUOUS
 10
140.8314801576
 20
197.2073772648
  0
VERTEX
  8
0
 62
7
  6
CONTINUOUS
 10
140.8871177659
 20
197.1372164591
  0
SEQEND
  0
LINE
  8
0
 62
7
  6
CONTINUOUS
 10
157.5133257613
 20
200.2337492737
 11
158.4036560017
 21
189.095031316
  0
POLYLINE
  8
0
 62
7
  6
CONTINUOUS
 66
1
 70
0
  0
VERTEX
  8
0
 62
7
  6
CONTINUOUS
 10
146.624967565
 20
197.0668235457
  0
VERTEX
  8
0
 62
7
  6
CONTINUOUS
 10
146.6673191401
 20
197.1372164591
  0
VERTEX
  8
0
 62
7
  6
CONTINUOUS
 10
146.7229567484
 20
197.2073772648
  0
VERTEX
  8
0
 62
7
  6
CONTINUOUS
 10
146.77442939
 20
197.2600594764
  0
SEQEND
  0
LINE
  8
0
 62
7
  6
CONTINUOUS
 10
129.9743020107
 20
197.259939748
 11
130.0275097507
 21
197.3030411043
  0
LINE
  8
0
 62
7
  6
CONTINUOUS
 10
157.6871177659
 20
197.1372164591
 11
157.729469341
 21
197.0668235457
  0
LINE
  8
0
 62
7
  6
CONTINUOUS
 10
157.729469341
 20
197.0668235457
 11
157.754025577
 21
197.0109328955
  0
LINE
  8
0
 62
7
  6
CONTINUOUS
 10
156.4700862361
 20
203.9197486388
 11
157.4956663288
 21
200.3313099691
  0
LINE
  8
0
 62
7
  6
CONTINUOUS
 10
163.6411111446
 20
200.2337492737
 11
162.7507809042
 21
189.095031316
  0
LINE
  8
0
 62
7
  6
CONTINUOUS
 10
164.6843506699
 20
203.9197486388
 11
163.6587705772
 21
200.3313099691
  0
POLYLINE
  8
0
 62
7
  6
CONTINUOUS
 66
1
 70
0
  0
VERTEX
  8
0
 62
7
  6
CONTINUOUS
 10
140.6459070979
 20
197.3482598751
  0
VERTEX
  8
0
 62
7
  6
CONTINUOUS
 10
140.7269271553
 20
197.3030411043
  0
VERTEX
  8
0
 62
7
  6
CONTINUOUS
 10
140.7801348953
 20
197.259939748
  0
SEQEND
  0
LINE
  8
0
 62
7
  6
CONTINUOUS
 10
157.5801348953
 20
197.259939748
 11
157.5800075356
 21
197.2600594972
  0
POLYLINE
  8
0
 62
7
  6
CONTINUOUS
 66
1
 70
0
  0
VERTEX
  8
0
 62
7
  6
CONTINUOUS
 10
157.580007516
 20
197.2600594764
  0
VERTEX
  8
0
 62
7
  6
CONTINUOUS
 10
157.6314801576
 20
197.2073772648
  0
VERTEX
  8
0
 62
7
  6
CONTINUOUS
 10
157.6871177659
 20
197.1372164591
  0
SEQEND
  0
LINE
  8
0
 62
7
  6
CONTINUOUS
 10
163.400411329
 20
197.0109328955
 11
163.424967565
 21
197.0668235457
  0
POLYLINE
  8
0
 62
7
  6
CONTINUOUS
 66
1
 70
0
  0
VERTEX
  8
0
 62
7
  6
CONTINUOUS
 10
163.424967565
 20
197.0668235457
  0
VERTEX
  8
0
 62
7
  6
CONTINUOUS
 10
163.4673191401
 20
197.1372164591
  0
VERTEX
  8
0
 62
7
  6
CONTINUOUS
 10
163.5229567484
 20
197.2073772648
  0
VERTEX
  8
0
 62
7
  6
CONTINUOUS
 10
163.57442939
 20
197.2600594764
  0
SEQEND
  0
LINE
  8
0
 62
7
  6
CONTINUOUS
 10
146.7743020107
 20
197.259939748
 11
146.7744293704
 21
197.2600594972
  0
LINE
  8
0
 62
7
  6
CONTINUOUS
 10
146.7743020107
 20
197.259939748
 11
146.8275097507
 21
197.3030411043
  0
LINE
  8
0
 62
7
  6
CONTINUOUS
 10
130.0275097507
 20
197.3030411043
 11
130.1085298081
 21
197.3482598751
  0
LINE
  8
0
 62
2
  6
CONTINUOUS
 10
185.877218453
 20
176.1747083172
 11
194.277218453
 21
176.1747083172
  0
LINE
  8
0
 62
7
  6
CONTINUOUS
 10
175.2036560017
 20
189.095031316
 11
174.3133257613
 21
200.2337492737
  0
POLYLINE
  8
0
 62
7
  6
CONTINUOUS
 66
1
 70
0
  0
VERTEX
  8
0
 62
7
  6
CONTINUOUS
 10
174.6411110173
 20
196.1329029238
  0
VERTEX
  8
0
 62
7
  6
CONTINUOUS
 10
174.6441129645
 20
196.1516902322
  0
VERTEX
  8
0
 62
7
  6
CONTINUOUS
 10
174.6569158371
 20
196.1648042087
  0
VERTEX
  8
0
 62
7
  6
CONTINUOUS
 10
174.6798655324
 20
196.1723504669
  0
VERTEX
  8
0
 62
7
  6
CONTINUOUS
 10
174.7127395194
 20
196.1747083172
  0
SEQEND
  0
LINE
  8
0
 62
7
  6
CONTINUOUS
 10
140.5628190773
 20
197.3775589367
 11
140.6459070979
 21
197.3482598751
  0
POLYLINE
  8
0
 62
7
  6
CONTINUOUS
 66
1
 70
0
  0
VERTEX
  8
0
 62
7
  6
CONTINUOUS
 10
157.4459070979
 20
197.3482598751
  0
VERTEX
  8
0
 62
7
  6
CONTINUOUS
 10
157.5269271553
 20
197.3030411043
  0
VERTEX
  8
0
 62
7
  6
CONTINUOUS
 10
157.5801348953
 20
197.259939748
  0
SEQEND
  0
POLYLINE
  8
0
 62
7
  6
CONTINUOUS
 66
1
 70
0
  0
VERTEX
  8
0
 62
7
  6
CONTINUOUS
 10
174.380007516
 20
197.2600594764
  0
VERTEX
  8
0
 62
7
  6
CONTINUOUS
 10
174.4314801576
 20
197.2073772648
  0
VERTEX
  8
0
 62
7
  6
CONTINUOUS
 10
174.4871177659
 20
197.1372164591
  0
SEQEND
  0
LINE
  8
0
 62
7
  6
CONTINUOUS
 10
174.4871177659
 20
197.1372164591
 11
174.529469341
 21
197.0668235457
  0
LINE
  8
0
 62
7
  6
CONTINUOUS
 10
174.529469341
 20
197.0668235457
 11
174.554025577
 21
197.0109328955
  0
LINE
  8
0
 62
7
  6
CONTINUOUS
 10
173.2700862361
 20
203.9197486388
 11
174.2956663288
 21
200.3313099691
  0
LINE
  8
0
 62
7
  6
CONTINUOUS
 10
179.5507809042
 20
189.095031316
 11
180.4411111446
 21
200.2337492737
  0
POLYLINE
  8
0
 62
7
  6
CONTINUOUS
 66
1
 70
0
  0
VERTEX
  8
0
 62
7
  6
CONTINUOUS
 10
179.8757976395
 20
193.1612413373
  0
VERTEX
  8
0
 62
7
  6
CONTINUOUS
 10
179.8525218688
 20
192.9457526545
  0
VERTEX
  8
0
 62
7
  6
CONTINUOUS
 10
179.8157385195
 20
192.7304182184
  0
VERTEX
  8
0
 62
7
  6
CONTINUOUS
 10
179.7657952725
 20
192.526595112
  0
VERTEX
  8
0
 62
7
  6
CONTINUOUS
 10
179.7053755027
 20
192.3443115635
  0
VERTEX
  8
0
 62
7
  6
CONTINUOUS
 10
179.6384436539
 20
192.1889916702
  0
VERTEX
  8
0
 62
7
  6
CONTINUOUS
 10
179.566925412
 20
192.0581694528
  0
VERTEX
  8
0
 62
7
  6
CONTINUOUS
 10
179.4913194983
 20
191.9481711669
  0
VERTEX
  8
0
 62
7
  6
CONTINUOUS
 10
179.4110618442
 20
191.8559565944
  0
VERTEX
  8
0
 62
7
  6
CONTINUOUS
 10
179.3289199236
 20
191.7830151528
  0
VERTEX
  8
0
 62
7
  6
CONTINUOUS
 10
179.2472483565
 20
191.7290565453
  0
VERTEX
  8
0
 62
7
  6
CONTINUOUS
 10
179.1677855935
 20
191.6926768386
  0
VERTEX
  8
0
 62
7
  6
CONTINUOUS
 10
179.0908023624
 20
191.6718173233
  0
VERTEX
  8
0
 62
7
  6
CONTINUOUS
 10
179.0149096827
 20
191.6649439382
  0
SEQEND
  0
LINE
  8
0
 62
7
  6
CONTINUOUS
 10
181.4843506699
 20
203.9197486388
 11
180.4587705772
 21
200.3313099691
  0
LINE
  8
0
 62
7
  6
CONTINUOUS
 10
163.5743020107
 20
197.259939748
 11
163.5744293704
 21
197.2600594972
  0
LINE
  8
0
 62
7
  6
CONTINUOUS
 10
163.5743020107
 20
197.259939748
 11
163.6275097507
 21
197.3030411043
  0
LINE
  8
0
 62
7
  6
CONTINUOUS
 10
146.8275097507
 20
197.3030411043
 11
146.9085298081
 21
197.3482598751
  0
LINE
  8
0
 62
7
  6
CONTINUOUS
 10
130.1085298081
 20
197.3482598751
 11
130.1916178287
 21
197.3775589367
  0
POLYLINE
  8
0
 62
7
  6
CONTINUOUS
 66
1
 70
0
  0
VERTEX
  8
0
 62
7
  6
CONTINUOUS
 10
264.5915932344
 20
197.37755221
  0
VERTEX
  8
0
 62
7
  6
CONTINUOUS
 10
264.7017577198
 20
197.3984466237
  0
VERTEX
  8
0
 62
7
  6
CONTINUOUS
 10
264.8076944598
 20
197.4043176137
  0
SEQEND
  0
LINE
  8
0
 62
7
  6
CONTINUOUS
 10
157.3628190773
 20
197.3775589367
 11
157.4459070979
 21
197.3482598751
  0
POLYLINE
  8
0
 62
7
  6
CONTINUOUS
 66
1
 70
0
  0
VERTEX
  8
0
 62
7
  6
CONTINUOUS
 10
174.2459070979
 20
197.3482598751
  0
VERTEX
  8
0
 62
7
  6
CONTINUOUS
 10
174.3269271553
 20
197.3030411043
  0
VERTEX
  8
0
 62
7
  6
CONTINUOUS
 10
174.3801348953
 20
197.259939748
  0
SEQEND
  0
LINE
  8
0
 62
7
  6
CONTINUOUS
 10
174.3801348953
 20
197.259939748
 11
174.3800075356
 21
197.2600594972
  0
LINE
  8
0
 62
2
  6
CONTINUOUS
 10
185.877218453
 20
216.1747083172
 11
185.877218453
 21
176.1747083172
  0
LINE
  8
0
 62
7
  6
CONTINUOUS
 10
180.200411329
 20
197.0109328955
 11
180.224967565
 21
197.0668235457
  0
POLYLINE
  8
0
 62
7
  6
CONTINUOUS
 66
1
 70
0
  0
VERTEX
  8
0
 62
7
  6
CONTINUOUS
 10
180.224967565
 20
197.0668235457
  0
VERTEX
  8
0
 62
7
  6
CONTINUOUS
 10
180.2673191401
 20
197.1372164591
  0
VERTEX
  8
0
 62
7
  6
CONTINUOUS
 10
180.3229567484
 20
197.2073772648
  0
VERTEX
  8
0
 62
7
  6
CONTINUOUS
 10
180.37442939
 20
197.2600594764
  0
SEQEND
  0
LINE
  8
0
 62
7
  6
CONTINUOUS
 10
163.6275097507
 20
197.3030411043
 11
163.7085298081
 21
197.3482598751
  0
LINE
  8
0
 62
7
  6
CONTINUOUS
 10
146.9085298081
 20
197.3482598751
 11
146.9916178287
 21
197.3775589367
  0
POLYLINE
  8
0
 62
7
  6
CONTINUOUS
 66
1
 70
0
  0
VERTEX
  8
0
 62
7
  6
CONTINUOUS
 10
247.7915932344
 20
197.37755221
  0
VERTEX
  8
0
 62
7
  6
CONTINUOUS
 10
247.9017577198
 20
197.3984466237
  0
VERTEX
  8
0
 62
7
  6
CONTINUOUS
 10
248.0076944598
 20
197.4043176137
  0
SEQEND
  0
POLYLINE
  8
0
 62
7
  6
CONTINUOUS
 66
1
 70
0
  0
VERTEX
  8
0
 62
7
  6
CONTINUOUS
 10
230.9915932344
 20
197.37755221
  0
VERTEX
  8
0
 62
7
  6
CONTINUOUS
 10
231.1017577198
 20
197.3984466237
  0
VERTEX
  8
0
 62
7
  6
CONTINUOUS
 10
231.2076944598
 20
197.4043176137
  0
SEQEND
  0
POLYLINE
  8
0
 62
7
  6
CONTINUOUS
 66
1
 70
0
  0
VERTEX
  8
0
 62
7
  6
CONTINUOUS
 10
128.175969242
 20
188.4775972018
  0
VERTEX
  8
0
 62
7
  6
CONTINUOUS
 10
128.2635826259
 20
188.4815457669
  0
VERTEX
  8
0
 62
7
  6
CONTINUOUS
 10
128.4044735233
 20
188.5047701546
  0
VERTEX
  8
0
 62
7
  6
CONTINUOUS
 10
128.5410807913
 20
188.5484704772
  0
VERTEX
  8
0
 62
7
  6
CONTINUOUS
 10
128.6707101614
 20
188.6119751993
  0
VERTEX
  8
0
 62
7
  6
CONTINUOUS
 10
128.7907165775
 20
188.6942565039
  0
VERTEX
  8
0
 62
7
  6
CONTINUOUS
 10
128.8986235375
 20
188.7939929732
  0
VERTEX
  8
0
 62
7
  6
CONTINUOUS
 10
128.9920215001
 20
188.9094639129
  0
VERTEX
  8
0
 62
7
  6
CONTINUOUS
 10
129.0685756565
 20
189.0383361697
  0
VERTEX
  8
0
 62
7
  6
CONTINUOUS
 10
129.1263796231
 20
189.1779454751
  0
VERTEX
  8
0
 62
7
  6
CONTINUOUS
 10
129.1639592075
 20
189.3253349109
  0
VERTEX
  8
0
 62
7
  6
CONTINUOUS
 10
129.1775758536
 20
189.4302698875
  0
SEQEND
  0
LINE
  8
0
 62
7
  6
CONTINUOUS
 10
127.5122284482
 20
188.1747083172
 11
123.877218453
 21
188.1747083172
  0
LINE
  8
0
 62
7
  6
CONTINUOUS
 10
134.2004767356
 20
188.1747083172
 11
136.5539601704
 21
188.1747083172
  0
LINE
  8
0
 62
7
  6
CONTINUOUS
 10
142.6004767356
 20
188.1747083172
 11
144.9539601704
 21
188.1747083172
  0
LINE
  8
0
 62
7
  6
CONTINUOUS
 10
151.0004767356
 20
188.1747083172
 11
153.3539601704
 21
188.1747083172
  0
LINE
  8
0
 62
7
  6
CONTINUOUS
 10
159.4004767356
 20
188.1747083172
 11
161.7539601704
 21
188.1747083172
  0
LINE
  8
0
 62
7
  6
CONTINUOUS
 10
167.8004767356
 20
188.1747083172
 11
170.1539601704
 21
188.1747083172
  0
LINE
  8
0
 62
7
  6
CONTINUOUS
 10
176.2004767356
 20
188.1747083172
 11
178.5539601704
 21
188.1747083172
  0
LINE
  8
0
 62
7
  6
CONTINUOUS
 10
184.6004767356
 20
188.1747083172
 11
186.9539601704
 21
188.1747083172
  0
LINE
  8
0
 62
7
  6
CONTINUOUS
 10
193.0004767356
 20
188.1747083172
 11
195.3539601704
 21
188.1747083172
  0
LINE
  8
0
 62
7
  6
CONTINUOUS
 10
201.4004767356
 20
188.1747083172
 11
203.7539601704
 21
188.1747083172
  0
LINE
  8
0
 62
7
  6
CONTINUOUS
 10
209.8004767356
 20
188.1747083172
 11
212.1539601704
 21
188.1747083172
  0
LINE
  8
0
 62
7
  6
CONTINUOUS
 10
218.2004767356
 20
188.1747083172
 11
220.5539601704
 21
188.1747083172
  0
LINE
  8
0
 62
7
  6
CONTINUOUS
 10
226.6004767356
 20
188.1747083172
 11
228.9539601704
 21
188.1747083172
  0
LINE
  8
0
 62
7
  6
CONTINUOUS
 10
235.0004767356
 20
188.1747083172
 11
237.3539601704
 21
188.1747083172
  0
LINE
  8
0
 62
7
  6
CONTINUOUS
 10
243.4004767356
 20
188.1747083172
 11
245.7539601704
 21
188.1747083172
  0
LINE
  8
0
 62
7
  6
CONTINUOUS
 10
251.8004767356
 20
188.1747083172
 11
254.1539601704
 21
188.1747083172
  0
LINE
  8
0
 62
7
  6
CONTINUOUS
 10
260.2004767356
 20
188.1747083172
 11
262.5539601704
 21
188.1747083172
  0
LINE
  8
0
 62
6
  6
CONTINUOUS
 10
268.6004767356
 20
188.1747083172
 11
269.2422084578
 21
188.1747083172
  0
LINE
  8
0
 62
7
  6
CONTINUOUS
 10
269.2422084578
 20
188.1747083172
 11
272.877218453
 21
188.1747083172
  0
LINE
  8
0
 62
7
  6
CONTINUOUS
 10
272.877218453
 20
188.2247083172
 11
262.6970578725
 21
188.2247083172
  0
LINE
  8
0
 62
7
  6
CONTINUOUS
 10
259.9017563526
 20
188.2247083172
 11
246.0526805533
 21
188.2247083172
  0
LINE
  8
0
 62
7
  6
CONTINUOUS
 10
243.1017563526
 20
188.2247083172
 11
229.2526805533
 21
188.2247083172
  0
LINE
  8
0
 62
7
  6
CONTINUOUS
 10
226.3017563526
 20
188.2247083172
 11
212.4526805533
 21
188.2247083172
  0
LINE
  8
0
 62
7
  6
CONTINUOUS
 10
209.5017563526
 20
188.2247083172
 11
195.6526805533
 21
188.2247083172
  0
LINE
  8
0
 62
7
  6
CONTINUOUS
 10
192.7017563526
 20
188.2247083172
 11
178.8526805533
 21
188.2247083172
  0
LINE
  8
0
 62
7
  6
CONTINUOUS
 10
175.9017563526
 20
188.2247083172
 11
162.0526805533
 21
188.2247083172
  0
LINE
  8
0
 62
7
  6
CONTINUOUS
 10
159.1017563526
 20
188.2247083172
 11
145.2526805533
 21
188.2247083172
  0
LINE
  8
0
 62
7
  6
CONTINUOUS
 10
142.3017563526
 20
188.2247083172
 11
127.5157247888
 21
188.2247083172
  0
LINE
  8
0
 62
7
  6
CONTINUOUS
 10
127.9998287074
 20
188.4775937331
 11
128.1759692419
 21
188.4775937331
  0
LINE
  8
0
 62
7
  6
CONTINUOUS
 10
128.5266117279
 20
190.744191103
 11
128.1582911122
 21
190.744191103
  0
LINE
  8
0
 62
7
  6
CONTINUOUS
 10
175.7395272238
 20
191.6649439382
 11
179.0149096827
 21
191.6649439382
  0
LINE
  8
0
 62
7
  6
CONTINUOUS
 10
209.3395272238
 20
191.6649439382
 11
212.6149096827
 21
191.6649439382
  0
POLYLINE
  8
0
 62
7
  6
CONTINUOUS
 66
1
 70
0
  0
VERTEX
  8
0
 62
7
  6
CONTINUOUS
 10
175.7395272238
 20
191.6649439382
  0
VERTEX
  8
0
 62
7
  6
CONTINUOUS
 10
175.6634322401
 20
191.671853855
  0
VERTEX
  8
0
 62
7
  6
CONTINUOUS
 10
175.5858480378
 20
191.6929683395
  0
VERTEX
  8
0
 62
7
  6
CONTINUOUS
 10
175.5060228313
 20
191.7297056552
  0
VERTEX
  8
0
 62
7
  6
CONTINUOUS
 10
175.4240332895
 20
191.7841597893
  0
VERTEX
  8
0
 62
7
  6
CONTINUOUS
 10
175.3416710026
 20
191.8576865798
  0
VERTEX
  8
0
 62
7
  6
CONTINUOUS
 10
175.2611303351
 20
191.9507519542
  0
VERTEX
  8
0
 62
7
  6
CONTINUOUS
 10
175.1851061618
 20
192.0621027138
  0
VERTEX
  8
0
 62
7
  6
CONTINUOUS
 10
175.1133130329
 20
192.1945178754
  0
VERTEX
  8
0
 62
7
  6
CONTINUOUS
 10
175.046516617
 20
192.35103864
  0
VERTEX
  8
0
 62
7
  6
CONTINUOUS
 10
174.9867081926
 20
192.5333681958
  0
VERTEX
  8
0
 62
7
  6
CONTINUOUS
 10
174.9376176301
 20
192.7356810437
  0
VERTEX
  8
0
 62
7
  6
CONTINUOUS
 10
174.9015393397
 20
192.9484909639
  0
VERTEX
  8
0
 62
7
  6
CONTINUOUS
 10
174.8786392665
 20
193.1612413373
  0
SEQEND
  0
POLYLINE
  8
0
 62
7
  6
CONTINUOUS
 66
1
 70
0
  0
VERTEX
  8
0
 62
7
  6
CONTINUOUS
 10
209.3395272238
 20
191.6649439382
  0
VERTEX
  8
0
 62
7
  6
CONTINUOUS
 10
209.2634322401
 20
191.671853855
  0
VERTEX
  8
0
 62
7
  6
CONTINUOUS
 10
209.1858480378
 20
191.6929683395
  0
VERTEX
  8
0
 62
7
  6
CONTINUOUS
 10
209.1060228313
 20
191.7297056552
  0
VERTEX
  8
0
 62
7
  6
CONTINUOUS
 10
209.0240332895
 20
191.7841597893
  0
VERTEX
  8
0
 62
7
  6
CONTINUOUS
 10
208.9416710026
 20
191.8576865798
  0
VERTEX
  8
0
 62
7
  6
CONTINUOUS
 10
208.8611303351
 20
191.9507519542
  0
VERTEX
  8
0
 62
7
  6
CONTINUOUS
 10
208.7851061618
 20
192.0621027138
  0
VERTEX
  8
0
 62
7
  6
CONTINUOUS
 10
208.7133130329
 20
192.1945178754
  0
VERTEX
  8
0
 62
7
  6
CONTINUOUS
 10
208.646516617
 20
192.35103864
  0
VERTEX
  8
0
 62
7
  6
CONTINUOUS
 10
208.5867081926
 20
192.5333681958
  0
VERTEX
  8
0
 62
7
  6
CONTINUOUS
 10
208.5376176301
 20
192.7356810437
  0
VERTEX
  8
0
 62
7
  6
CONTINUOUS
 10
208.5015393397
 20
192.9484909639
  0
VERTEX
  8
0
 62
7
  6
CONTINUOUS
 10
208.4786392665
 20
193.1612413373
  0
SEQEND
  0
LINE
  8
0
 62
7
  6
CONTINUOUS
 10
174.1628190773
 20
197.3775589367
 11
174.2459070979
 21
197.3482598751
  0
LINE
  8
0
 62
7
  6
CONTINUOUS
 10
191.1133257613
 20
200.2337492737
 11
192.0036560017
 21
189.095031316
  0
LINE
  8
0
 62
7
  6
CONTINUOUS
 10
180.3743020107
 20
197.259939748
 11
180.3744293704
 21
197.2600594972
  0
LINE
  8
0
 62
7
  6
CONTINUOUS
 10
180.3743020107
 20
197.259939748
 11
180.4275097507
 21
197.3030411043
  0
LINE
  8
0
 62
7
  6
CONTINUOUS
 10
163.7085298081
 20
197.3482598751
 11
163.7916178287
 21
197.3775589367
  0
POLYLINE
  8
0
 62
7
  6
CONTINUOUS
 66
1
 70
0
  0
VERTEX
  8
0
 62
7
  6
CONTINUOUS
 10
127.839067314
 20
188.4510449506
  0
VERTEX
  8
0
 62
7
  6
CONTINUOUS
 10
127.7555485112
 20
188.4216715698
  0
VERTEX
  8
0
 62
7
  6
CONTINUOUS
 10
127.6653734409
 20
188.3858597347
  0
VERTEX
  8
0
 62
7
  6
CONTINUOUS
 10
127.5990180716
 20
188.3539368407
  0
VERTEX
  8
0
 62
7
  6
CONTINUOUS
 10
127.5544534207
 20
188.3259111683
  0
VERTEX
  8
0
 62
7
  6
CONTINUOUS
 10
127.5287941784
 20
188.3014786197
  0
VERTEX
  8
0
 62
7
  6
CONTINUOUS
 10
127.5195921227
 20
188.2800141014
  0
SEQEND
  0
POLYLINE
  8
0
 62
7
  6
CONTINUOUS
 66
1
 70
0
  0
VERTEX
  8
0
 62
7
  6
CONTINUOUS
 10
127.8389760046
 20
188.4510691212
  0
VERTEX
  8
0
 62
7
  6
CONTINUOUS
 10
127.8720011365
 20
188.4610209825
  0
VERTEX
  8
0
 62
7
  6
CONTINUOUS
 10
127.9593405458
 20
188.4759651567
  0
VERTEX
  8
0
 62
7
  6
CONTINUOUS
 10
127.9996658317
 20
188.4775939403
  0
SEQEND
  0
POLYLINE
  8
0
 62
7
  6
CONTINUOUS
 66
1
 70
0
  0
VERTEX
  8
0
 62
7
  6
CONTINUOUS
 10
214.1915932344
 20
197.37755221
  0
VERTEX
  8
0
 62
7
  6
CONTINUOUS
 10
214.3017577198
 20
197.3984466237
  0
VERTEX
  8
0
 62
7
  6
CONTINUOUS
 10
214.4076944598
 20
197.4043176137
  0
SEQEND
  0
POLYLINE
  8
0
 62
7
  6
CONTINUOUS
 66
1
 70
0
  0
VERTEX
  8
0
 62
7
  6
CONTINUOUS
 10
197.3915932344
 20
197.37755221
  0
VERTEX
  8
0
 62
7
  6
CONTINUOUS
 10
197.5017577198
 20
197.3984466237
  0
VERTEX
  8
0
 62
7
  6
CONTINUOUS
 10
197.6076944598
 20
197.4043176137
  0
SEQEND
  0
POLYLINE
  8
0
 62
7
  6
CONTINUOUS
 66
1
 70
0
  0
VERTEX
  8
0
 62
7
  6
CONTINUOUS
 10
128.5266117225
 20
190.7442150361
  0
VERTEX
  8
0
 62
7
  6
CONTINUOUS
 10
128.5690935807
 20
190.7455247386
  0
VERTEX
  8
0
 62
7
  6
CONTINUOUS
 10
128.6805946788
 20
190.7614162127
  0
VERTEX
  8
0
 62
7
  6
CONTINUOUS
 10
128.7908285649
 20
190.7957782418
  0
VERTEX
  8
0
 62
7
  6
CONTINUOUS
 10
128.8978858467
 20
190.8490314995
  0
VERTEX
  8
0
 62
7
  6
CONTINUOUS
 10
128.9994321246
 20
190.9213361634
  0
VERTEX
  8
0
 62
7
  6
CONTINUOUS
 10
129.0933292791
 20
191.012841908
  0
VERTEX
  8
0
 62
7
  6
CONTINUOUS
 10
129.1767675595
 20
191.1226545276
  0
VERTEX
  8
0
 62
7
  6
CONTINUOUS
 10
129.2471420211
 20
191.2491042897
  0
VERTEX
  8
0
 62
7
  6
CONTINUOUS
 10
129.3024734663
 20
191.3907621994
  0
VERTEX
  8
0
 62
7
  6
CONTINUOUS
 10
129.3406272395
 20
191.5457287959
  0
VERTEX
  8
0
 62
7
  6
CONTINUOUS
 10
129.3565020575
 20
191.6687352572
  0
SEQEND
  0
LINE
  8
0
 62
7
  6
CONTINUOUS
 10
272.877218453
 20
196.1747083172
 11
264.1166674408
 21
196.1747083172
  0
LINE
  8
0
 62
7
  6
CONTINUOUS
 10
258.6377694652
 20
196.1747083172
 11
247.3166674408
 21
196.1747083172
  0
LINE
  8
0
 62
7
  6
CONTINUOUS
 10
241.8377694652
 20
196.1747083172
 11
230.5166674408
 21
196.1747083172
  0
LINE
  8
0
 62
7
  6
CONTINUOUS
 10
225.0377694652
 20
196.1747083172
 11
213.7166674408
 21
196.1747083172
  0
LINE
  8
0
 62
7
  6
CONTINUOUS
 10
208.2377694652
 20
196.1747083172
 11
196.9166674408
 21
196.1747083172
  0
LINE
  8
0
 62
7
  6
CONTINUOUS
 10
191.4377694652
 20
196.1747083172
 11
180.1166674408
 21
196.1747083172
  0
LINE
  8
0
 62
7
  6
CONTINUOUS
 10
174.6377694652
 20
196.1747083172
 11
163.3166674408
 21
196.1747083172
  0
LINE
  8
0
 62
7
  6
CONTINUOUS
 10
157.8377694652
 20
196.1747083172
 11
146.5166674408
 21
196.1747083172
  0
LINE
  8
0
 62
7
  6
CONTINUOUS
 10
141.0377694652
 20
196.1747083172
 11
129.7166674408
 21
196.1747083172
  0
LINE
  8
DEFAULT_1
 62
2
  6
CENTER
 10
120.677218453
 20
196.1747083172
 11
129.7166674408
 21
196.1747083172
  0
LINE
  8
DEFAULT_1
 62
2
  6
CENTER
 10
272.877218453
 20
196.1747083172
 11
276.077218453
 21
196.1747083172
  0
LINE
  8
DEFAULT_1
 62
2
  6
CENTER
 10
258.6377694652
 20
196.1747083172
 11
264.1166674408
 21
196.1747083172
  0
LINE
  8
DEFAULT_1
 62
2
  6
CENTER
 10
241.8377694652
 20
196.1747083172
 11
247.3166674408
 21
196.1747083172
  0
LINE
  8
DEFAULT_1
 62
2
  6
CENTER
 10
225.0377694652
 20
196.1747083172
 11
230.5166674408
 21
196.1747083172
  0
LINE
  8
DEFAULT_1
 62
2
  6
CENTER
 10
208.2377694652
 20
196.1747083172
 11
208.3127395194
 21
196.1747083172
  0
LINE
  8
DEFAULT_1
 62
2
  6
CENTER
 10
191.4377694652
 20
196.1747083172
 11
196.9166674408
 21
196.1747083172
  0
LINE
  8
DEFAULT_1
 62
2
  6
CENTER
 10
174.6377694652
 20
196.1747083172
 11
174.7127395194
 21
196.1747083172
  0
LINE
  8
DEFAULT_1
 62
2
  6
CENTER
 10
157.8377694652
 20
196.1747083172
 11
163.3166674408
 21
196.1747083172
  0
LINE
  8
DEFAULT_1
 62
2
  6
CENTER
 10
141.0377694652
 20
196.1747083172
 11
146.5166674408
 21
196.1747083172
  0
LINE
  8
DEFAULT_1
 62
2
  6
CENTER
 10
213.6416973866
 20
196.1747083172
 11
213.7166674408
 21
196.1747083172
  0
LINE
  8
DEFAULT_1
 62
2
  6
CENTER
 10
180.0416973866
 20
196.1747083172
 11
180.1166674408
 21
196.1747083172
  0
LINE
  8
0
 62
7
  6
CONTINUOUS
 10
174.7127395194
 20
196.1747083172
 11
180.0416973866
 21
196.1747083172
  0
LINE
  8
0
 62
7
  6
CONTINUOUS
 10
208.3127395194
 20
196.1747083172
 11
213.6416973866
 21
196.1747083172
  0
LINE
  8
0
 62
7
  6
CONTINUOUS
 10
130.4076205746
 20
197.4043176141
 11
130.4076944328
 21
197.4043176137
  0
LINE
  8
0
 62
7
  6
CONTINUOUS
 10
147.2076205746
 20
197.4043176141
 11
147.2076944328
 21
197.4043176137
  0
LINE
  8
0
 62
7
  6
CONTINUOUS
 10
164.0076205746
 20
197.4043176141
 11
164.0076944328
 21
197.4043176137
  0
LINE
  8
0
 62
7
  6
CONTINUOUS
 10
180.8076205746
 20
197.4043176141
 11
180.8076944328
 21
197.4043176137
  0
LINE
  8
0
 62
7
  6
CONTINUOUS
 10
197.6076205746
 20
197.4043176141
 11
197.6076944328
 21
197.4043176137
  0
LINE
  8
0
 62
7
  6
CONTINUOUS
 10
214.4076205746
 20
197.4043176141
 11
214.4076944328
 21
197.4043176137
  0
LINE
  8
0
 62
7
  6
CONTINUOUS
 10
231.2076205746
 20
197.4043176141
 11
231.2076944328
 21
197.4043176137
  0
LINE
  8
0
 62
7
  6
CONTINUOUS
 10
248.0076205746
 20
197.4043176141
 11
248.0076944328
 21
197.4043176137
  0
LINE
  8
0
 62
7
  6
CONTINUOUS
 10
264.8076205746
 20
197.4043176141
 11
264.8076944328
 21
197.4043176137
  0
POLYLINE
  8
0
 62
7
  6
CONTINUOUS
 66
1
 70
0
  0
VERTEX
  8
0
 62
7
  6
CONTINUOUS
 10
140.3467852045
 20
197.4043176141
  0
VERTEX
  8
0
 62
7
  6
CONTINUOUS
 10
140.4509566327
 20
197.3986431336
  0
VERTEX
  8
0
 62
7
  6
CONTINUOUS
 10
140.5628016344
 20
197.3775637083
  0
SEQEND
  0
POLYLINE
  8
0
 62
7
  6
CONTINUOUS
 66
1
 70
0
  0
VERTEX
  8
0
 62
7
  6
CONTINUOUS
 10
157.1467852045
 20
197.4043176141
  0
VERTEX
  8
0
 62
7
  6
CONTINUOUS
 10
157.2509566327
 20
197.3986431336
  0
VERTEX
  8
0
 62
7
  6
CONTINUOUS
 10
157.3628016344
 20
197.3775637083
  0
SEQEND
  0
POLYLINE
  8
0
 62
7
  6
CONTINUOUS
 66
1
 70
0
  0
VERTEX
  8
0
 62
7
  6
CONTINUOUS
 10
173.9467852045
 20
197.4043176141
  0
VERTEX
  8
0
 62
7
  6
CONTINUOUS
 10
174.0509566327
 20
197.3986431336
  0
VERTEX
  8
0
 62
7
  6
CONTINUOUS
 10
174.1628016344
 20
197.3775637083
  0
SEQEND
  0
POLYLINE
  8
0
 62
7
  6
CONTINUOUS
 66
1
 70
0
  0
VERTEX
  8
0
 62
7
  6
CONTINUOUS
 10
190.7467852045
 20
197.4043176141
  0
VERTEX
  8
0
 62
7
  6
CONTINUOUS
 10
190.8509566327
 20
197.3986431336
  0
VERTEX
  8
0
 62
7
  6
CONTINUOUS
 10
190.9628016344
 20
197.3775637083
  0
SEQEND
  0
POLYLINE
  8
0
 62
7
  6
CONTINUOUS
 66
1
 70
0
  0
VERTEX
  8
0
 62
7
  6
CONTINUOUS
 10
207.5467852045
 20
197.4043176141
  0
VERTEX
  8
0
 62
7
  6
CONTINUOUS
 10
207.6509566327
 20
197.3986431336
  0
VERTEX
  8
0
 62
7
  6
CONTINUOUS
 10
207.7628016344
 20
197.3775637083
  0
SEQEND
  0
POLYLINE
  8
0
 62
7
  6
CONTINUOUS
 66
1
 70
0
  0
VERTEX
  8
0
 62
7
  6
CONTINUOUS
 10
180.0416973866
 20
196.1747083172
  0
VERTEX
  8
0
 62
7
  6
CONTINUOUS
 10
180.0745659829
 20
196.1723514008
  0
VERTEX
  8
0
 62
7
  6
CONTINUOUS
 10
180.0974602779
 20
196.1648392108
  0
VERTEX
  8
0
 62
7
  6
CONTINUOUS
 10
180.1102812711
 20
196.1517768509
  0
VERTEX
  8
0
 62
7
  6
CONTINUOUS
 10
180.1133258887
 20
196.1329029238
  0
SEQEND
  0
POLYLINE
  8
0
 62
7
  6
CONTINUOUS
 66
1
 70
0
  0
VERTEX
  8
0
 62
7
  6
CONTINUOUS
 10
213.6416973866
 20
196.1747083172
  0
VERTEX
  8
0
 62
7
  6
CONTINUOUS
 10
213.6745731099
 20
196.1723501661
  0
VERTEX
  8
0
 62
7
  6
CONTINUOUS
 10
213.6974663372
 20
196.164835728
  0
VERTEX
  8
0
 62
7
  6
CONTINUOUS
 10
213.7102810086
 20
196.1517773813
  0
VERTEX
  8
0
 62
7
  6
CONTINUOUS
 10
213.7133258887
 20
196.1329029238
  0
SEQEND
  0
LINE
  8
0
 62
7
  6
CONTINUOUS
 10
190.9628190773
 20
197.3775589367
 11
191.0459070979
 21
197.3482598751
  0
POLYLINE
  8
0
 62
7
  6
CONTINUOUS
 66
1
 70
0
  0
VERTEX
  8
0
 62
7
  6
CONTINUOUS
 10
191.0459070979
 20
197.3482598751
  0
VERTEX
  8
0
 62
7
  6
CONTINUOUS
 10
191.1269271553
 20
197.3030411043
  0
VERTEX
  8
0
 62
7
  6
CONTINUOUS
 10
191.1801348953
 20
197.259939748
  0
SEQEND
  0
LINE
  8
0
 62
7
  6
CONTINUOUS
 10
191.1801348953
 20
197.259939748
 11
191.1800075356
 21
197.2600594972
  0
POLYLINE
  8
0
 62
7
  6
CONTINUOUS
 66
1
 70
0
  0
VERTEX
  8
0
 62
7
  6
CONTINUOUS
 10
191.180007516
 20
197.2600594764
  0
VERTEX
  8
0
 62
7
  6
CONTINUOUS
 10
191.2314801576
 20
197.2073772648
  0
VERTEX
  8
0
 62
7
  6
CONTINUOUS
 10
191.2871177659
 20
197.1372164591
  0
SEQEND
  0
LINE
  8
0
 62
7
  6
CONTINUOUS
 10
191.2871177659
 20
197.1372164591
 11
191.329469341
 21
197.0668235457
  0
LINE
  8
0
 62
7
  6
CONTINUOUS
 10
191.329469341
 20
197.0668235457
 11
191.354025577
 21
197.0109328955
  0
LINE
  8
0
 62
7
  6
CONTINUOUS
 10
190.0700862361
 20
203.9197486388
 11
191.0956663288
 21
200.3313099691
  0
LINE
  8
0
 62
2
  6
CONTINUOUS
 10
194.103210353
 20
217.0235283172
 11
194.103210353
 21
177.0235283172
  0
LINE
  8
0
 62
6
  6
CONTINUOUS
 10
194.277218453
 20
216.1747083172
 11
194.277218453
 21
176.1747083172
  0
LINE
  8
DEFAULT_1
 62
2
  6
CENTER
 10
198.377218453
 20
174.1747083172
 11
198.377218453
 21
231.5747083172
  0
LINE
  8
0
 62
7
  6
CONTINUOUS
 10
197.2411111446
 20
200.2337492737
 11
196.3507809042
 21
189.095031316
  0
LINE
  8
0
 62
7
  6
CONTINUOUS
 10
198.2843506699
 20
203.9197486388
 11
197.2587705772
 21
200.3313099691
  0
LINE
  8
0
 62
7
  6
CONTINUOUS
 10
180.4275097507
 20
197.3030411043
 11
180.5085298081
 21
197.3482598751
  0
LINE
  8
0
 62
7
  6
CONTINUOUS
 10
180.5085298081
 20
197.3482598751
 11
180.5916178287
 21
197.3775589367
  0
POLYLINE
  8
0
 62
7
  6
CONTINUOUS
 66
1
 70
0
  0
VERTEX
  8
0
 62
7
  6
CONTINUOUS
 10
180.5915932344
 20
197.37755221
  0
VERTEX
  8
0
 62
7
  6
CONTINUOUS
 10
180.7017577198
 20
197.3984466237
  0
VERTEX
  8
0
 62
7
  6
CONTINUOUS
 10
180.8076944598
 20
197.4043176137
  0
SEQEND
  0
POLYLINE
  8
0
 62
7
  6
CONTINUOUS
 66
1
 70
0
  0
VERTEX
  8
0
 62
7
  6
CONTINUOUS
 10
224.3467852045
 20
197.4043176141
  0
VERTEX
  8
0
 62
7
  6
CONTINUOUS
 10
224.4509566327
 20
197.3986431336
  0
VERTEX
  8
0
 62
7
  6
CONTINUOUS
 10
224.5628016344
 20
197.3775637083
  0
SEQEND
  0
POLYLINE
  8
0
 62
7
  6
CONTINUOUS
 66
1
 70
0
  0
VERTEX
  8
0
 62
7
  6
CONTINUOUS
 10
241.1467852045
 20
197.4043176141
  0
VERTEX
  8
0
 62
7
  6
CONTINUOUS
 10
241.2509566327
 20
197.3986431336
  0
VERTEX
  8
0
 62
7
  6
CONTINUOUS
 10
241.3628016344
 20
197.3775637083
  0
SEQEND
  0
POLYLINE
  8
0
 62
7
  6
CONTINUOUS
 66
1
 70
0
  0
VERTEX
  8
0
 62
7
  6
CONTINUOUS
 10
257.9467852045
 20
197.4043176141
  0
VERTEX
  8
0
 62
7
  6
CONTINUOUS
 10
258.0509566327
 20
197.3986431336
  0
VERTEX
  8
0
 62
7
  6
CONTINUOUS
 10
258.1628016344
 20
197.3775637083
  0
SEQEND
  0
LINE
  8
0
 62
7
  6
CONTINUOUS
 10
207.7628190773
 20
197.3775589367
 11
207.8459070979
 21
197.3482598751
  0
POLYLINE
  8
0
 62
7
  6
CONTINUOUS
 66
1
 70
0
  0
VERTEX
  8
0
 62
7
  6
CONTINUOUS
 10
207.8459070979
 20
197.3482598751
  0
VERTEX
  8
0
 62
7
  6
CONTINUOUS
 10
207.9269271553
 20
197.3030411043
  0
VERTEX
  8
0
 62
7
  6
CONTINUOUS
 10
207.9801348953
 20
197.259939748
  0
SEQEND
  0
LINE
  8
0
 62
7
  6
CONTINUOUS
 10
197.000411329
 20
197.0109328955
 11
197.024967565
 21
197.0668235457
  0
POLYLINE
  8
0
 62
7
  6
CONTINUOUS
 66
1
 70
0
  0
VERTEX
  8
0
 62
7
  6
CONTINUOUS
 10
197.024967565
 20
197.0668235457
  0
VERTEX
  8
0
 62
7
  6
CONTINUOUS
 10
197.0673191401
 20
197.1372164591
  0
VERTEX
  8
0
 62
7
  6
CONTINUOUS
 10
197.1229567484
 20
197.2073772648
  0
VERTEX
  8
0
 62
7
  6
CONTINUOUS
 10
197.17442939
 20
197.2600594764
  0
SEQEND
  0
LINE
  8
0
 62
7
  6
CONTINUOUS
 10
197.1743020107
 20
197.259939748
 11
197.1744293704
 21
197.2600594972
  0
LINE
  8
0
 62
7
  6
CONTINUOUS
 10
197.1743020107
 20
197.259939748
 11
197.2275097507
 21
197.3030411043
  0
LINE
  8
0
 62
7
  6
CONTINUOUS
 10
197.2275097507
 20
197.3030411043
 11
197.3085298081
 21
197.3482598751
  0
LINE
  8
0
 62
7
  6
CONTINUOUS
 10
197.3085298081
 20
197.3482598751
 11
197.3916178287
 21
197.3775589367
  0
POLYLINE
  8
0
 62
7
  6
CONTINUOUS
 66
1
 70
0
  0
VERTEX
  8
0
 62
7
  6
CONTINUOUS
 10
163.7915932344
 20
197.37755221
  0
VERTEX
  8
0
 62
7
  6
CONTINUOUS
 10
163.9017577198
 20
197.3984466237
  0
VERTEX
  8
0
 62
7
  6
CONTINUOUS
 10
164.0076944598
 20
197.4043176137
  0
SEQEND
  0
POLYLINE
  8
0
 62
7
  6
CONTINUOUS
 66
1
 70
0
  0
VERTEX
  8
0
 62
7
  6
CONTINUOUS
 10
146.9915932344
 20
197.37755221
  0
VERTEX
  8
0
 62
7
  6
CONTINUOUS
 10
147.1017577198
 20
197.3984466237
  0
VERTEX
  8
0
 62
7
  6
CONTINUOUS
 10
147.2076944598
 20
197.4043176137
  0
SEQEND
  0
LINE
  8
0
 62
6
  6
CONTINUOUS
 10
265.2879605552
 20
203.7095419554
 11
265.2078506861
 21
203.70947071
  0
LINE
  8
0
 62
7
  6
CONTINUOUS
 10
256.8879612783
 20
203.7095419574
 11
256.8078506861
 21
203.7094707108
  0
LINE
  8
0
 62
7
  6
CONTINUOUS
 10
240.0879612783
 20
203.7095419574
 11
240.0078506861
 21
203.7094707108
  0
LINE
  8
0
 62
7
  6
CONTINUOUS
 10
223.2879612783
 20
203.7095419574
 11
223.2078506861
 21
203.7094707108
  0
LINE
  8
0
 62
7
  6
CONTINUOUS
 10
206.4879612783
 20
203.7095419574
 11
206.4078506861
 21
203.7094707108
  0
LINE
  8
0
 62
7
  6
CONTINUOUS
 10
189.6879612783
 20
203.7095419574
 11
189.6078506861
 21
203.7094707108
  0
LINE
  8
0
 62
7
  6
CONTINUOUS
 10
172.8879612783
 20
203.7095419574
 11
172.8078506861
 21
203.7094707108
  0
LINE
  8
0
 62
7
  6
CONTINUOUS
 10
156.0879612783
 20
203.7095419574
 11
156.0078506861
 21
203.7094707108
  0
LINE
  8
0
 62
7
  6
CONTINUOUS
 10
139.2879612783
 20
203.7095419574
 11
139.2078506861
 21
203.7094707108
  0
LINE
  8
0
 62
7
  6
CONTINUOUS
 10
273.677218453
 20
204.1747083172
 11
265.3195738591
 21
204.1747083172
  0
LINE
  8
0
 62
7
  6
CONTINUOUS
 10
257.4379718935
 20
204.1747083172
 11
248.5195738591
 21
204.1747083172
  0
LINE
  8
0
 62
7
  6
CONTINUOUS
 10
240.6379718935
 20
204.1747083172
 11
231.7195738591
 21
204.1747083172
  0
LINE
  8
0
 62
7
  6
CONTINUOUS
 10
223.8379718935
 20
204.1747083172
 11
214.9195738591
 21
204.1747083172
  0
LINE
  8
0
 62
7
  6
CONTINUOUS
 10
207.0379718935
 20
204.1747083172
 11
198.1195738591
 21
204.1747083172
  0
LINE
  8
0
 62
7
  6
CONTINUOUS
 10
190.2379718935
 20
204.1747083172
 11
181.3195738591
 21
204.1747083172
  0
LINE
  8
0
 62
7
  6
CONTINUOUS
 10
173.4379718935
 20
204.1747083172
 11
164.5195738591
 21
204.1747083172
  0
LINE
  8
0
 62
7
  6
CONTINUOUS
 10
156.6379718935
 20
204.1747083172
 11
147.7195738591
 21
204.1747083172
  0
LINE
  8
0
 62
7
  6
CONTINUOUS
 10
139.8379718935
 20
204.1747083172
 11
130.9195738591
 21
204.1747083172
  0
LINE
  8
0
 62
7
  6
CONTINUOUS
 10
130.8920502961
 20
204.1747083172
 11
123.077218453
 21
204.1747083172
  0
LINE
  8
0
 62
7
  6
CONTINUOUS
 10
139.8623866099
 20
204.1747083172
 11
147.6920502961
 21
204.1747083172
  0
LINE
  8
0
 62
7
  6
CONTINUOUS
 10
156.6623866099
 20
204.1747083172
 11
164.4920502961
 21
204.1747083172
  0
LINE
  8
0
 62
7
  6
CONTINUOUS
 10
173.4623866099
 20
204.1747083172
 11
181.2920502961
 21
204.1747083172
  0
LINE
  8
0
 62
7
  6
CONTINUOUS
 10
190.2623866099
 20
204.1747083172
 11
198.0920502961
 21
204.1747083172
  0
LINE
  8
0
 62
7
  6
CONTINUOUS
 10
207.0623866099
 20
204.1747083172
 11
214.8920502961
 21
204.1747083172
  0
LINE
  8
0
 62
7
  6
CONTINUOUS
 10
223.8623866099
 20
204.1747083172
 11
231.6920502961
 21
204.1747083172
  0
LINE
  8
0
 62
7
  6
CONTINUOUS
 10
240.6623866099
 20
204.1747083172
 11
248.4920502961
 21
204.1747083172
  0
LINE
  8
0
 62
7
  6
CONTINUOUS
 10
257.4623866099
 20
204.1747083172
 11
265.2920502961
 21
204.1747083172
  0
LINE
  8
0
 62
6
  6
CONTINUOUS
 10
257.4603506262
 20
204.1747083172
 11
257.4623866099
 21
204.1747083172
  0
LINE
  8
0
 62
6
  6
CONTINUOUS
 10
265.2920502961
 20
204.1747083172
 11
265.2940862798
 21
204.1747083172
  0
LINE
  8
0
 62
7
  6
CONTINUOUS
 10
224.5628190773
 20
197.3775589367
 11
224.6459070979
 21
197.3482598751
  0
LINE
  8
0
 62
7
  6
CONTINUOUS
 10
207.9801348953
 20
197.259939748
 11
207.9800075356
 21
197.2600594972
  0
POLYLINE
  8
0
 62
7
  6
CONTINUOUS
 66
1
 70
0
  0
VERTEX
  8
0
 62
7
  6
CONTINUOUS
 10
207.980007516
 20
197.2600594764
  0
VERTEX
  8
0
 62
7
  6
CONTINUOUS
 10
208.0314801576
 20
197.2073772648
  0
VERTEX
  8
0
 62
7
  6
CONTINUOUS
 10
208.0871177659
 20
197.1372164591
  0
SEQEND
  0
LINE
  8
0
 62
7
  6
CONTINUOUS
 10
208.0871177659
 20
197.1372164591
 11
208.129469341
 21
197.0668235457
  0
LINE
  8
0
 62
7
  6
CONTINUOUS
 10
208.8036560017
 20
189.095031316
 11
207.9133257613
 21
200.2337492737
  0
POLYLINE
  8
0
 62
7
  6
CONTINUOUS
 66
1
 70
0
  0
VERTEX
  8
0
 62
7
  6
CONTINUOUS
 10
208.2411110173
 20
196.1329029238
  0
VERTEX
  8
0
 62
7
  6
CONTINUOUS
 10
208.2441235683
 20
196.1517118282
  0
VERTEX
  8
0
 62
7
  6
CONTINUOUS
 10
208.2569527642
 20
196.1648254863
  0
VERTEX
  8
0
 62
7
  6
CONTINUOUS
 10
208.2798985163
 20
196.1723561771
  0
VERTEX
  8
0
 62
7
  6
CONTINUOUS
 10
208.3127395194
 20
196.1747083172
  0
SEQEND
  0
LINE
  8
0
 62
7
  6
CONTINUOUS
 10
214.1085298081
 20
197.3482598751
 11
214.1916178287
 21
197.3775589367
  0
POLYLINE
  8
0
 62
7
  6
CONTINUOUS
 66
1
 70
0
  0
VERTEX
  8
0
 62
7
  6
CONTINUOUS
 10
130.1915932344
 20
197.37755221
  0
VERTEX
  8
0
 62
7
  6
CONTINUOUS
 10
130.3017577198
 20
197.3984466237
  0
VERTEX
  8
0
 62
7
  6
CONTINUOUS
 10
130.4076944598
 20
197.4043176137
  0
SEQEND
  0
LINE
  8
0
 62
7
  6
CONTINUOUS
 10
241.3628190773
 20
197.3775589367
 11
241.4459070979
 21
197.3482598751
  0
POLYLINE
  8
0
 62
7
  6
CONTINUOUS
 66
1
 70
0
  0
VERTEX
  8
0
 62
7
  6
CONTINUOUS
 10
224.6459070979
 20
197.3482598751
  0
VERTEX
  8
0
 62
7
  6
CONTINUOUS
 10
224.7269271553
 20
197.3030411043
  0
VERTEX
  8
0
 62
7
  6
CONTINUOUS
 10
224.7801348953
 20
197.259939748
  0
SEQEND
  0
LINE
  8
0
 62
7
  6
CONTINUOUS
 10
208.129469341
 20
197.0668235457
 11
208.154025577
 21
197.0109328955
  0
LINE
  8
0
 62
7
  6
CONTINUOUS
 10
206.8700862361
 20
203.9197486388
 11
207.8956663288
 21
200.3313099691
  0
LINE
  8
0
 62
7
  6
CONTINUOUS
 10
213.1507809042
 20
189.095031316
 11
214.0411111446
 21
200.2337492737
  0
POLYLINE
  8
0
 62
7
  6
CONTINUOUS
 66
1
 70
0
  0
VERTEX
  8
0
 62
7
  6
CONTINUOUS
 10
213.4757976395
 20
193.1612413373
  0
VERTEX
  8
0
 62
7
  6
CONTINUOUS
 10
213.4525218688
 20
192.9457526545
  0
VERTEX
  8
0
 62
7
  6
CONTINUOUS
 10
213.4157385195
 20
192.7304182184
  0
VERTEX
  8
0
 62
7
  6
CONTINUOUS
 10
213.3657952725
 20
192.526595112
  0
VERTEX
  8
0
 62
7
  6
CONTINUOUS
 10
213.3053755027
 20
192.3443115635
  0
VERTEX
  8
0
 62
7
  6
CONTINUOUS
 10
213.2384436539
 20
192.1889916702
  0
VERTEX
  8
0
 62
7
  6
CONTINUOUS
 10
213.166925412
 20
192.0581694528
  0
VERTEX
  8
0
 62
7
  6
CONTINUOUS
 10
213.0913194983
 20
191.9481711669
  0
VERTEX
  8
0
 62
7
  6
CONTINUOUS
 10
213.0110618442
 20
191.8559565944
  0
VERTEX
  8
0
 62
7
  6
CONTINUOUS
 10
212.9289199236
 20
191.7830151528
  0
VERTEX
  8
0
 62
7
  6
CONTINUOUS
 10
212.8472483565
 20
191.7290565453
  0
VERTEX
  8
0
 62
7
  6
CONTINUOUS
 10
212.7677855935
 20
191.6926768386
  0
VERTEX
  8
0
 62
7
  6
CONTINUOUS
 10
212.6908023624
 20
191.6718173233
  0
VERTEX
  8
0
 62
7
  6
CONTINUOUS
 10
212.6149096827
 20
191.6649439382
  0
SEQEND
  0
LINE
  8
0
 62
7
  6
CONTINUOUS
 10
215.0843506699
 20
203.9197486388
 11
214.0587705772
 21
200.3313099691
  0
LINE
  8
0
 62
7
  6
CONTINUOUS
 10
213.800411329
 20
197.0109328955
 11
213.824967565
 21
197.0668235457
  0
POLYLINE
  8
0
 62
7
  6
CONTINUOUS
 66
1
 70
0
  0
VERTEX
  8
0
 62
7
  6
CONTINUOUS
 10
213.824967565
 20
197.0668235457
  0
VERTEX
  8
0
 62
7
  6
CONTINUOUS
 10
213.8673191401
 20
197.1372164591
  0
VERTEX
  8
0
 62
7
  6
CONTINUOUS
 10
213.9229567484
 20
197.2073772648
  0
VERTEX
  8
0
 62
7
  6
CONTINUOUS
 10
213.97442939
 20
197.2600594764
  0
SEQEND
  0
LINE
  8
0
 62
7
  6
CONTINUOUS
 10
213.9743020107
 20
197.259939748
 11
213.9744293704
 21
197.2600594972
  0
LINE
  8
0
 62
7
  6
CONTINUOUS
 10
213.9743020107
 20
197.259939748
 11
214.0275097507
 21
197.3030411043
  0
LINE
  8
0
 62
7
  6
CONTINUOUS
 10
214.0275097507
 20
197.3030411043
 11
214.1085298081
 21
197.3482598751
  0
LINE
  8
0
 62
7
  6
CONTINUOUS
 10
230.9085298081
 20
197.3482598751
 11
230.9916178287
 21
197.3775589367
  0
LINE
  8
0
 62
2
  6
CONTINUOUS
 10
185.877218453
 20
216.1747083172
 11
194.277218453
 21
216.1747083172
  0
LINE
  8
0
 62
7
  6
CONTINUOUS
 10
258.1628190773
 20
197.3775589367
 11
258.2459070979
 21
197.3482598751
  0
POLYLINE
  8
0
 62
7
  6
CONTINUOUS
 66
1
 70
0
  0
VERTEX
  8
0
 62
7
  6
CONTINUOUS
 10
241.4459070979
 20
197.3482598751
  0
VERTEX
  8
0
 62
7
  6
CONTINUOUS
 10
241.5269271553
 20
197.3030411043
  0
VERTEX
  8
0
 62
7
  6
CONTINUOUS
 10
241.5801348953
 20
197.259939748
  0
SEQEND
  0
LINE
  8
0
 62
7
  6
CONTINUOUS
 10
224.7801348953
 20
197.259939748
 11
224.7800075356
 21
197.2600594972
  0
POLYLINE
  8
0
 62
7
  6
CONTINUOUS
 66
1
 70
0
  0
VERTEX
  8
0
 62
7
  6
CONTINUOUS
 10
224.780007516
 20
197.2600594764
  0
VERTEX
  8
0
 62
7
  6
CONTINUOUS
 10
224.8314801576
 20
197.2073772648
  0
VERTEX
  8
0
 62
7
  6
CONTINUOUS
 10
224.8871177659
 20
197.1372164591
  0
SEQEND
  0
LINE
  8
0
 62
7
  6
CONTINUOUS
 10
230.8275097507
 20
197.3030411043
 11
230.9085298081
 21
197.3482598751
  0
LINE
  8
0
 62
7
  6
CONTINUOUS
 10
247.7085298081
 20
197.3482598751
 11
247.7916178287
 21
197.3775589367
  0
LINE
  8
0
 62
7
  6
CONTINUOUS
 10
224.8871177659
 20
197.1372164591
 11
224.929469341
 21
197.0668235457
  0
LINE
  8
0
 62
7
  6
CONTINUOUS
 10
224.929469341
 20
197.0668235457
 11
224.954025577
 21
197.0109328955
  0
LINE
  8
0
 62
7
  6
CONTINUOUS
 10
224.7133257613
 20
200.2337492737
 11
225.6036560017
 21
189.095031316
  0
LINE
  8
0
 62
7
  6
CONTINUOUS
 10
230.7743020107
 20
197.259939748
 11
230.7744293704
 21
197.2600594972
  0
LINE
  8
0
 62
7
  6
CONTINUOUS
 10
230.7743020107
 20
197.259939748
 11
230.8275097507
 21
197.3030411043
  0
LINE
  8
0
 62
7
  6
CONTINUOUS
 10
264.5085298081
 20
197.3482598751
 11
264.5916178287
 21
197.3775589367
  0
LINE
  8
0
 62
7
  6
CONTINUOUS
 10
123.9202336635
 20
229.5747083172
 11
272.8342032425
 21
229.5747083172
  0
POLYLINE
  8
0
 62
7
  6
CONTINUOUS
 66
1
 70
0
  0
VERTEX
  8
0
 62
7
  6
CONTINUOUS
 10
258.2459070979
 20
197.3482598751
  0
VERTEX
  8
0
 62
7
  6
CONTINUOUS
 10
258.3269271553
 20
197.3030411043
  0
VERTEX
  8
0
 62
7
  6
CONTINUOUS
 10
258.3801348953
 20
197.259939748
  0
SEQEND
  0
LINE
  8
0
 62
7
  6
CONTINUOUS
 10
241.5801348953
 20
197.259939748
 11
241.5800075356
 21
197.2600594972
  0
POLYLINE
  8
0
 62
7
  6
CONTINUOUS
 66
1
 70
0
  0
VERTEX
  8
0
 62
7
  6
CONTINUOUS
 10
241.580007516
 20
197.2600594764
  0
VERTEX
  8
0
 62
7
  6
CONTINUOUS
 10
241.6314801576
 20
197.2073772648
  0
VERTEX
  8
0
 62
7
  6
CONTINUOUS
 10
241.6871177659
 20
197.1372164591
  0
SEQEND
  0
LINE
  8
0
 62
7
  6
CONTINUOUS
 10
223.6700862361
 20
203.9197486388
 11
224.6956663288
 21
200.3313099691
  0
LINE
  8
0
 62
7
  6
CONTINUOUS
 10
230.8411111446
 20
200.2337492737
 11
229.9507809042
 21
189.095031316
  0
LINE
  8
0
 62
7
  6
CONTINUOUS
 10
231.8843506699
 20
203.9197486388
 11
230.8587705772
 21
200.3313099691
  0
LINE
  8
0
 62
7
  6
CONTINUOUS
 10
230.600411329
 20
197.0109328955
 11
230.624967565
 21
197.0668235457
  0
POLYLINE
  8
0
 62
7
  6
CONTINUOUS
 66
1
 70
0
  0
VERTEX
  8
0
 62
7
  6
CONTINUOUS
 10
230.624967565
 20
197.0668235457
  0
VERTEX
  8
0
 62
7
  6
CONTINUOUS
 10
230.6673191401
 20
197.1372164591
  0
VERTEX
  8
0
 62
7
  6
CONTINUOUS
 10
230.7229567484
 20
197.2073772648
  0
VERTEX
  8
0
 62
7
  6
CONTINUOUS
 10
230.77442939
 20
197.2600594764
  0
SEQEND
  0
LINE
  8
0
 62
7
  6
CONTINUOUS
 10
247.6275097507
 20
197.3030411043
 11
247.7085298081
 21
197.3482598751
  0
POLYLINE
  8
0
 62
7
  6
CONTINUOUS
 66
1
 70
0
  0
VERTEX
  8
0
 62
7
  6
CONTINUOUS
 10
263.0934351643
 20
190.7622411431
  0
VERTEX
  8
0
 62
7
  6
CONTINUOUS
 10
263.1729981778
 20
190.7888979752
  0
VERTEX
  8
0
 62
7
  6
CONTINUOUS
 10
263.2827678279
 20
190.8401928739
  0
VERTEX
  8
0
 62
7
  6
CONTINUOUS
 10
263.3880976631
 20
190.912040547
  0
VERTEX
  8
0
 62
7
  6
CONTINUOUS
 10
263.4856956992
 20
191.0043142201
  0
VERTEX
  8
0
 62
7
  6
CONTINUOUS
 10
263.5720884973
 20
191.115553707
  0
VERTEX
  8
0
 62
7
  6
CONTINUOUS
 10
263.6447927607
 20
191.244144141
  0
VERTEX
  8
0
 62
7
  6
CONTINUOUS
 10
263.7016213271
 20
191.388084926
  0
VERTEX
  8
0
 62
7
  6
CONTINUOUS
 10
263.74053098
 20
191.5451938242
  0
VERTEX
  8
0
 62
7
  6
CONTINUOUS
 10
263.756499603
 20
191.6687068961
  0
SEQEND
  0
LINE
  8
0
 62
7
  6
CONTINUOUS
 10
247.5743020107
 20
197.259939748
 11
247.5744293704
 21
197.2600594972
  0
LINE
  8
0
 62
7
  6
CONTINUOUS
 10
247.5743020107
 20
197.259939748
 11
247.6275097507
 21
197.3030411043
  0
LINE
  8
0
 62
7
  6
CONTINUOUS
 10
264.4275097507
 20
197.3030411043
 11
264.5085298081
 21
197.3482598751
  0
LINE
  8
0
 62
7
  6
CONTINUOUS
 10
258.3801348953
 20
197.259939748
 11
258.3800075356
 21
197.2600594972
  0
LINE
  8
0
 62
7
  6
CONTINUOUS
 10
241.6871177659
 20
197.1372164591
 11
241.729469341
 21
197.0668235457
  0
LINE
  8
0
 62
7
  6
CONTINUOUS
 10
241.729469341
 20
197.0668235457
 11
241.754025577
 21
197.0109328955
  0
LINE
  8
0
 62
7
  6
CONTINUOUS
 10
241.5133257613
 20
200.2337492737
 11
242.4036560017
 21
189.095031316
  0
POLYLINE
  8
0
 62
7
  6
CONTINUOUS
 66
1
 70
0
  0
VERTEX
  8
0
 62
7
  6
CONTINUOUS
 10
262.9847233905
 20
188.5672650185
  0
VERTEX
  8
0
 62
7
  6
CONTINUOUS
 10
263.0661119189
 20
188.6093081139
  0
VERTEX
  8
0
 62
7
  6
CONTINUOUS
 10
263.1874363824
 20
188.6916501662
  0
VERTEX
  8
0
 62
7
  6
CONTINUOUS
 10
263.296349752
 20
188.7915722516
  0
VERTEX
  8
0
 62
7
  6
CONTINUOUS
 10
263.3904097077
 20
188.9071550629
  0
VERTEX
  8
0
 62
7
  6
CONTINUOUS
 10
263.4674918907
 20
189.0361782792
  0
VERTEX
  8
0
 62
7
  6
CONTINUOUS
 10
263.5257432589
 20
189.1760384167
  0
VERTEX
  8
0
 62
7
  6
CONTINUOUS
 10
263.5637092344
 20
189.3239535068
  0
VERTEX
  8
0
 62
7
  6
CONTINUOUS
 10
263.5775758138
 20
189.4302698907
  0
SEQEND
  0
POLYLINE
  8
0
 62
7
  6
CONTINUOUS
 66
1
 70
0
  0
VERTEX
  8
0
 62
7
  6
CONTINUOUS
 10
258.380007516
 20
197.2600594764
  0
VERTEX
  8
0
 62
7
  6
CONTINUOUS
 10
258.4314801576
 20
197.2073772648
  0
VERTEX
  8
0
 62
7
  6
CONTINUOUS
 10
258.4871177659
 20
197.1372164591
  0
SEQEND
  0
LINE
  8
0
 62
7
  6
CONTINUOUS
 10
240.4700862361
 20
203.9197486388
 11
241.4956663288
 21
200.3313099691
  0
LINE
  8
0
 62
7
  6
CONTINUOUS
 10
248.6843506699
 20
203.9197486388
 11
247.6587705772
 21
200.3313099691
  0
LINE
  8
0
 62
7
  6
CONTINUOUS
 10
247.400411329
 20
197.0109328955
 11
247.424967565
 21
197.0668235457
  0
POLYLINE
  8
0
 62
7
  6
CONTINUOUS
 66
1
 70
0
  0
VERTEX
  8
0
 62
7
  6
CONTINUOUS
 10
247.424967565
 20
197.0668235457
  0
VERTEX
  8
0
 62
7
  6
CONTINUOUS
 10
247.4673191401
 20
197.1372164591
  0
VERTEX
  8
0
 62
7
  6
CONTINUOUS
 10
247.5229567484
 20
197.2073772648
  0
VERTEX
  8
0
 62
7
  6
CONTINUOUS
 10
247.57442939
 20
197.2600594764
  0
SEQEND
  0
LINE
  8
0
 62
7
  6
CONTINUOUS
 10
264.3743020107
 20
197.259939748
 11
264.4275097507
 21
197.3030411043
  0
POLYLINE
  8
0
 62
7
  6
CONTINUOUS
 66
1
 70
0
  0
VERTEX
  8
0
 62
7
  6
CONTINUOUS
 10
262.8785947635
 20
188.5013276838
  0
VERTEX
  8
0
 62
7
  6
CONTINUOUS
 10
262.9513501038
 20
188.5503937691
  0
VERTEX
  8
0
 62
7
  6
CONTINUOUS
 10
262.9847233642
 20
188.5672650753
  0
SEQEND
  0
LINE
  8
0
 62
7
  6
CONTINUOUS
 10
258.4871177659
 20
197.1372164591
 11
258.529469341
 21
197.0668235457
  0
LINE
  8
0
 62
7
  6
CONTINUOUS
 10
247.6411111446
 20
200.2337492737
 11
246.7507809042
 21
189.095031316
  0
LINE
  8
0
 62
7
  6
CONTINUOUS
 10
264.3743020107
 20
197.259939748
 11
264.3744293704
 21
197.2600594972
  0
POLYLINE
  8
0
 62
7
  6
CONTINUOUS
 66
1
 70
0
  0
VERTEX
  8
0
 62
7
  6
CONTINUOUS
 10
262.8785884487
 20
188.5013225647
  0
VERTEX
  8
0
 62
7
  6
CONTINUOUS
 10
262.8311211961
 20
188.462811921
  0
VERTEX
  8
0
 62
7
  6
CONTINUOUS
 10
262.7732415371
 20
188.4140298703
  0
VERTEX
  8
0
 62
7
  6
CONTINUOUS
 10
262.7323702298
 20
188.3743687395
  0
VERTEX
  8
0
 62
7
  6
CONTINUOUS
 10
262.7084517397
 20
188.3422886434
  0
VERTEX
  8
0
 62
7
  6
CONTINUOUS
 10
262.7002635143
 20
188.3164285953
  0
SEQEND
  0
LINE
  8
0
 62
7
  6
CONTINUOUS
 10
258.529469341
 20
197.0668235457
 11
258.554025577
 21
197.0109328955
  0
LINE
  8
0
 62
7
  6
CONTINUOUS
 10
258.3133257613
 20
200.2337492737
 11
259.2036560017
 21
189.095031316
  0
LINE
  8
0
 62
6
  6
CONTINUOUS
 10
252.977218453
 20
188.1747083172
 11
252.977218453
 21
204.1747086193
  0
POLYLINE
  8
0
 62
7
  6
CONTINUOUS
 66
1
 70
0
  0
VERTEX
  8
0
 62
7
  6
CONTINUOUS
 10
264.224967565
 20
197.0668235457
  0
VERTEX
  8
0
 62
7
  6
CONTINUOUS
 10
264.2673191401
 20
197.1372164591
  0
VERTEX
  8
0
 62
7
  6
CONTINUOUS
 10
264.3229567484
 20
197.2073772648
  0
VERTEX
  8
0
 62
7
  6
CONTINUOUS
 10
264.37442939
 20
197.2600594764
  0
SEQEND
  0
LINE
  8
0
 62
7
  6
CONTINUOUS
 10
257.2700862361
 20
203.9197486388
 11
258.2956663288
 21
200.3313099691
  0
LINE
  8
0
 62
7
  6
CONTINUOUS
 10
262.6956642171
 20
188.1847992491
 11
262.7702834021
 21
190.3216131298
  0
LINE
  8
0
 62
7
  6
CONTINUOUS
 10
265.4843506699
 20
203.9197486388
 11
264.4587705772
 21
200.3313099691
  0
POLYLINE
  8
0
 62
7
  6
CONTINUOUS
 66
1
 70
0
  0
VERTEX
  8
0
 62
7
  6
CONTINUOUS
 10
262.8010821947
 20
190.4685938009
  0
VERTEX
  8
0
 62
7
  6
CONTINUOUS
 10
262.8108974405
 20
190.4935159193
  0
VERTEX
  8
0
 62
7
  6
CONTINUOUS
 10
262.8489174866
 20
190.5701023073
  0
VERTEX
  8
0
 62
7
  6
CONTINUOUS
 10
262.891519718
 20
190.6386976877
  0
VERTEX
  8
0
 62
7
  6
CONTINUOUS
 10
262.9342472209
 20
190.6994958832
  0
VERTEX
  8
0
 62
7
  6
CONTINUOUS
 10
262.9745345073
 20
190.7543948843
  0
VERTEX
  8
0
 62
7
  6
CONTINUOUS
 10
263.0099000143
 20
190.8045797552
  0
VERTEX
  8
0
 62
7
  6
CONTINUOUS
 10
263.0380517302
 20
190.8509959837
  0
VERTEX
  8
0
 62
7
  6
CONTINUOUS
 10
263.0574453498
 20
190.8953489926
  0
VERTEX
  8
0
 62
7
  6
CONTINUOUS
 10
263.0666355642
 20
190.9393743126
  0
SEQEND
  0
LINE
  8
0
 62
7
  6
CONTINUOUS
 10
264.200411329
 20
197.0109328955
 11
264.224967565
 21
197.0668235457
  0
POLYLINE
  8
0
 62
7
  6
CONTINUOUS
 66
1
 70
0
  0
VERTEX
  8
0
 62
7
  6
CONTINUOUS
 10
262.8009973469
 20
190.4686112194
  0
VERTEX
  8
0
 62
7
  6
CONTINUOUS
 10
262.8406839405
 20
190.5512228633
  0
VERTEX
  8
0
 62
7
  6
CONTINUOUS
 10
262.8896024913
 20
190.6192398381
  0
VERTEX
  8
0
 62
7
  6
CONTINUOUS
 10
262.9491913966
 20
190.6781338681
  0
VERTEX
  8
0
 62
7
  6
CONTINUOUS
 10
263.01777754
 20
190.7262513158
  0
VERTEX
  8
0
 62
7
  6
CONTINUOUS
 10
263.0934351643
 20
190.7622411431
  0
SEQEND
  0
LINE
  8
0
 62
7
  6
CONTINUOUS
 10
269.2387121172
 20
188.2247083172
 11
269.2422084578
 21
188.1747083172
  0
LINE
  8
0
 62
7
  6
CONTINUOUS
 10
263.5775768933
 20
189.4302698044
 11
264.4411111446
 21
200.2337492737
  0
LINE
  8
0
 62
7
  6
CONTINUOUS
 10
263.0666355642
 20
190.9393743126
 11
263.1631066521
 21
192.0973122047
  0
LINE
  8
0
 62
7
  6
CONTINUOUS
 10
263.1631066521
 20
192.0973122047
 11
263.270406792
 21
193.3653023565
  0
POLYLINE
  8
0
 62
7
  6
CONTINUOUS
 66
1
 70
0
  0
VERTEX
  8
0
 62
7
  6
CONTINUOUS
 10
263.270406792
 20
193.3653023565
  0
VERTEX
  8
0
 62
7
  6
CONTINUOUS
 10
263.3861398455
 20
194.709041564
  0
VERTEX
  8
0
 62
7
  6
CONTINUOUS
 10
263.4462643451
 20
195.3980084326
  0
SEQEND
  0
POLYLINE
  8
0
 62
7
  6
CONTINUOUS
 66
1
 70
0
  0
VERTEX
  8
0
 62
7
  6
CONTINUOUS
 10
264.174097896
 20
196.8932076198
  0
VERTEX
  8
0
 62
7
  6
CONTINUOUS
 10
264.178896438
 20
196.9313256621
  0
VERTEX
  8
0
 62
7
  6
CONTINUOUS
 10
264.1898903635
 20
196.9789766812
  0
VERTEX
  8
0
 62
7
  6
CONTINUOUS
 10
264.2004209724
 20
197.010959021
  0
SEQEND
  0
POLYLINE
  8
0
 62
7
  6
CONTINUOUS
 66
1
 70
0
  0
VERTEX
  8
0
 62
7
  6
CONTINUOUS
 10
262.7702832246
 20
190.3216083815
  0
VERTEX
  8
0
 62
7
  6
CONTINUOUS
 10
262.7827858321
 20
190.4096816642
  0
VERTEX
  8
0
 62
7
  6
CONTINUOUS
 10
262.8010821947
 20
190.4685938009
  0
SEQEND
  0
LINE
  8
0
 62
7
  6
CONTINUOUS
 10
273.627218453
 20
204.1747083172
 11
273.5841937771
 21
228.8260067312
  0
LINE
  8
0
 62
6
  6
CONTINUOUS
 10
269.777218453
 20
204.1747083172
 11
269.777218453
 21
188.1747083172
  0
LINE
  8
0
 62
7
  6
CONTINUOUS
 10
273.877218453
 20
189.1747083172
 11
273.877218453
 21
203.9747083172
  0
LINE
  8
0
 62
7
  6
CONTINUOUS
 10
122.877218453
 20
74.3560625134
 11
122.877218453
 21
128.9346520746
  0
LINE
  8
0
 62
7
  6
CONTINUOUS
 10
123.127218453
 20
113.1458250653
 11
123.127218453
 21
102.966434372
  0
POLYLINE
  8
0
 62
7
  6
CONTINUOUS
 66
1
 70
0
  0
VERTEX
  8
0
 62
7
  6
CONTINUOUS
 10
123.127218453
 20
113.1458250653
  0
VERTEX
  8
0
 62
7
  6
CONTINUOUS
 10
123.1414266398
 20
113.4266927974
  0
VERTEX
  8
0
 62
7
  6
CONTINUOUS
 10
123.1853640272
 20
113.7342284726
  0
VERTEX
  8
0
 62
7
  6
CONTINUOUS
 10
123.2609577021
 20
114.069747269
  0
VERTEX
  8
0
 62
7
  6
CONTINUOUS
 10
123.3698057559
 20
114.4352298368
  0
VERTEX
  8
0
 62
7
  6
CONTINUOUS
 10
123.5118807351
 20
114.831499738
  0
VERTEX
  8
0
 62
7
  6
CONTINUOUS
 10
123.6833389028
 20
115.2561879949
  0
VERTEX
  8
0
 62
7
  6
CONTINUOUS
 10
123.875910597
 20
115.7055176868
  0
SEQEND
  0
POLYLINE
  8
0
 62
7
  6
CONTINUOUS
 66
1
 70
0
  0
VERTEX
  8
0
 62
7
  6
CONTINUOUS
 10
132.3227492792
 20
140.4948964504
  0
VERTEX
  8
0
 62
7
  6
CONTINUOUS
 10
132.1429660039
 20
140.0939472287
  0
VERTEX
  8
0
 62
7
  6
CONTINUOUS
 10
131.9679014658
 20
139.6283341879
  0
VERTEX
  8
0
 62
7
  6
CONTINUOUS
 10
131.8091330639
 20
139.1267097074
  0
VERTEX
  8
0
 62
7
  6
CONTINUOUS
 10
131.6664283181
 20
138.5933735052
  0
VERTEX
  8
0
 62
7
  6
CONTINUOUS
 10
131.5397400845
 20
138.0329824835
  0
VERTEX
  8
0
 62
7
  6
CONTINUOUS
 10
131.4290525535
 20
137.4503716779
  0
VERTEX
  8
0
 62
7
  6
CONTINUOUS
 10
131.3343237022
 20
136.850546751
  0
VERTEX
  8
0
 62
7
  6
CONTINUOUS
 10
131.2624458884
 20
136.2987536296
  0
SEQEND
  0
POLYLINE
  8
0
 62
7
  6
CONTINUOUS
 66
1
 70
0
  0
VERTEX
  8
0
 62
7
  6
CONTINUOUS
 10
122.877218453
 20
79.8188775353
  0
VERTEX
  8
0
 62
7
  6
CONTINUOUS
 10
122.8821433239
 20
79.8111147951
  0
VERTEX
  8
0
 62
7
  6
CONTINUOUS
 10
122.8967278386
 20
79.8037346678
  0
VERTEX
  8
0
 62
7
  6
CONTINUOUS
 10
122.9203363
 20
79.7971004746
  0
VERTEX
  8
0
 62
7
  6
CONTINUOUS
 10
122.9518747495
 20
79.7915444056
  0
VERTEX
  8
0
 62
7
  6
CONTINUOUS
 10
122.989825934
 20
79.7873502223
  0
VERTEX
  8
0
 62
7
  6
CONTINUOUS
 10
123.0323170587
 20
79.7847373117
  0
VERTEX
  8
0
 62
7
  6
CONTINUOUS
 10
123.077218453
 20
79.7838483954
  0
SEQEND
  0
POLYLINE
  8
0
 62
7
  6
CONTINUOUS
 66
1
 70
0
  0
VERTEX
  8
0
 62
7
  6
CONTINUOUS
 10
122.8772180841
 20
74.3561208138
  0
VERTEX
  8
0
 62
7
  6
CONTINUOUS
 10
122.8821866452
 20
74.3118190735
  0
VERTEX
  8
0
 62
7
  6
CONTINUOUS
 10
122.8969150549
 20
74.2695734366
  0
VERTEX
  8
0
 62
7
  6
CONTINUOUS
 10
122.9206663434
 20
74.2316589966
  0
VERTEX
  8
0
 62
7
  6
CONTINUOUS
 10
122.9522518873
 20
74.1999732393
  0
VERTEX
  8
0
 62
7
  6
CONTINUOUS
 10
122.9900908839
 20
74.1761019578
  0
VERTEX
  8
0
 62
7
  6
CONTINUOUS
 10
123.0322895013
 20
74.1612397708
  0
VERTEX
  8
0
 62
7
  6
CONTINUOUS
 10
123.0772097349
 20
74.1561297276
  0
SEQEND
  0
POLYLINE
  8
0
 62
7
  6
CONTINUOUS
 66
1
 70
0
  0
VERTEX
  8
0
 62
7
  6
CONTINUOUS
 10
131.0890518647
 20
85.645671217
  0
VERTEX
  8
0
 62
7
  6
CONTINUOUS
 10
131.0851168981
 20
85.9358864854
  0
VERTEX
  8
0
 62
7
  6
CONTINUOUS
 10
131.0849814826
 20
86.0119913914
  0
VERTEX
  8
0
 62
7
  6
CONTINUOUS
 10
131.0861212722
 20
86.0874894211
  0
VERTEX
  8
0
 62
7
  6
CONTINUOUS
 10
131.0887049368
 20
86.1621545456
  0
VERTEX
  8
0
 62
7
  6
CONTINUOUS
 10
131.0929181886
 20
86.2358028945
  0
VERTEX
  8
0
 62
7
  6
CONTINUOUS
 10
131.0989311994
 20
86.3082801486
  0
VERTEX
  8
0
 62
7
  6
CONTINUOUS
 10
131.1068916636
 20
86.3792785032
  0
VERTEX
  8
0
 62
7
  6
CONTINUOUS
 10
131.1169383622
 20
86.4483005128
  0
VERTEX
  8
0
 62
7
  6
CONTINUOUS
 10
131.1292390739
 20
86.5154443199
  0
VERTEX
  8
0
 62
7
  6
CONTINUOUS
 10
131.143940487
 20
86.5805031768
  0
VERTEX
  8
0
 62
7
  6
CONTINUOUS
 10
131.1613049709
 20
86.6430242818
  0
VERTEX
  8
0
 62
7
  6
CONTINUOUS
 10
131.1814947796
 20
86.7013520439
  0
VERTEX
  8
0
 62
7
  6
CONTINUOUS
 10
131.2053463018
 20
86.7560935846
  0
VERTEX
  8
0
 62
7
  6
CONTINUOUS
 10
131.2327140856
 20
86.8064540097
  0
VERTEX
  8
0
 62
7
  6
CONTINUOUS
 10
131.2629073831
 20
86.8510374273
  0
VERTEX
  8
0
 62
7
  6
CONTINUOUS
 10
131.2954296719
 20
86.8893829875
  0
VERTEX
  8
0
 62
7
  6
CONTINUOUS
 10
131.3304002582
 20
86.9216700787
  0
VERTEX
  8
0
 62
7
  6
CONTINUOUS
 10
131.3676892432
 20
86.9474982691
  0
VERTEX
  8
0
 62
7
  6
CONTINUOUS
 10
131.4072965879
 20
86.9661511011
  0
VERTEX
  8
0
 62
7
  6
CONTINUOUS
 10
131.4483036227
 20
86.9760962095
  0
VERTEX
  8
0
 62
7
  6
CONTINUOUS
 10
131.4674812287
 20
86.9773206493
  0
SEQEND
  0
LINE
  8
0
 62
7
  6
CONTINUOUS
 10
131.0914939193
 20
85.3626570479
 11
131.0890518647
 21
85.645671217
  0
LINE
  8
0
 62
7
  6
CONTINUOUS
 10
131.0914939193
 20
85.3626570479
 11
131.0920502961
 21
79.8145561074
  0
LINE
  8
0
 62
7
  6
CONTINUOUS
 10
131.262445918
 20
136.298747764
 11
131.2623866128
 21
136.2977278241
  0
LINE
  8
0
 62
7
  6
CONTINUOUS
 10
132.3345906748
 20
140.5905617003
 11
132.3186858903
 21
140.4858343583
  0
POLYLINE
  8
0
 62
7
  6
CONTINUOUS
 66
1
 70
0
  0
VERTEX
  8
0
 62
7
  6
CONTINUOUS
 10
123.875910597
 20
100.4067417505
  0
VERTEX
  8
0
 62
7
  6
CONTINUOUS
 10
123.6823302391
 20
100.858474154
  0
VERTEX
  8
0
 62
7
  6
CONTINUOUS
 10
123.5116847867
 20
101.2812699605
  0
VERTEX
  8
0
 62
7
  6
CONTINUOUS
 10
123.3710576081
 20
101.6732393805
  0
VERTEX
  8
0
 62
7
  6
CONTINUOUS
 10
123.2624813826
 20
102.036727203
  0
VERTEX
  8
0
 62
7
  6
CONTINUOUS
 10
123.1859944091
 20
102.3746329705
  0
VERTEX
  8
0
 62
7
  6
CONTINUOUS
 10
123.141376479
 20
102.6860802248
  0
VERTEX
  8
0
 62
7
  6
CONTINUOUS
 10
123.127218453
 20
102.966434372
  0
SEQEND
  0
POLYLINE
  8
0
 62
7
  6
CONTINUOUS
 66
1
 70
0
  0
VERTEX
  8
0
 62
7
  6
CONTINUOUS
 10
131.2653381766
 20
130.4705559503
  0
VERTEX
  8
0
 62
7
  6
CONTINUOUS
 10
131.2693111535
 20
130.1772338315
  0
VERTEX
  8
0
 62
7
  6
CONTINUOUS
 10
131.269437477
 20
130.0976402884
  0
VERTEX
  8
0
 62
7
  6
CONTINUOUS
 10
131.2681587976
 20
130.0185776272
  0
VERTEX
  8
0
 62
7
  6
CONTINUOUS
 10
131.2652723207
 20
129.9403259029
  0
VERTEX
  8
0
 62
7
  6
CONTINUOUS
 10
131.2605569187
 20
129.863107659
  0
VERTEX
  8
0
 62
7
  6
CONTINUOUS
 10
131.2538139982
 20
129.7871426101
  0
VERTEX
  8
0
 62
7
  6
CONTINUOUS
 10
131.244867652
 20
129.7128634654
  0
VERTEX
  8
0
 62
7
  6
CONTINUOUS
 10
131.2335481348
 20
129.640778467
  0
VERTEX
  8
0
 62
7
  6
CONTINUOUS
 10
131.2196567356
 20
129.5706737981
  0
VERTEX
  8
0
 62
7
  6
CONTINUOUS
 10
131.2029568597
 20
129.503023646
  0
VERTEX
  8
0
 62
7
  6
CONTINUOUS
 10
131.1832423179
 20
129.4389554617
  0
VERTEX
  8
0
 62
7
  6
CONTINUOUS
 10
131.1598956403
 20
129.3794656367
  0
VERTEX
  8
0
 62
7
  6
CONTINUOUS
 10
131.1324272171
 20
129.3241966878
  0
VERTEX
  8
0
 62
7
  6
CONTINUOUS
 10
131.1014123405
 20
129.2747521585
  0
VERTEX
  8
0
 62
7
  6
CONTINUOUS
 10
131.0679696545
 20
129.2325731856
  0
VERTEX
  8
0
 62
7
  6
CONTINUOUS
 10
131.0320997632
 20
129.1972988938
  0
VERTEX
  8
0
 62
7
  6
CONTINUOUS
 10
130.9937795878
 20
129.1690030824
  0
VERTEX
  8
0
 62
7
  6
CONTINUOUS
 10
130.9529485873
 20
129.1482929767
  0
VERTEX
  8
0
 62
7
  6
CONTINUOUS
 10
130.9101517646
 20
129.1367047147
  0
VERTEX
  8
0
 62
7
  6
CONTINUOUS
 10
130.8867819663
 20
129.1349382046
  0
SEQEND
  0
LINE
  8
0
 62
7
  6
CONTINUOUS
 10
131.2629222022
 20
130.7535776871
 11
131.2653381766
 21
130.4705559503
  0
LINE
  8
0
 62
7
  6
CONTINUOUS
 10
131.2623866099
 20
136.2976658126
 11
131.2629222022
 21
130.7535776871
  0
LINE
  8
0
 62
7
  6
CONTINUOUS
 10
131.0920502961
 20
79.8145239944
 11
131.0919909701
 21
79.8135159572
  0
LINE
  8
0
 62
7
  6
CONTINUOUS
 10
130.0198463668
 20
75.5216986069
 11
130.0357487412
 21
75.6264241519
  0
LINE
  8
0
 62
7
  6
CONTINUOUS
 10
140.5420215528
 20
76.0206117455
 11
140.722748236
 21
75.617365113
  0
POLYLINE
  8
0
 62
7
  6
CONTINUOUS
 66
1
 70
0
  0
VERTEX
  8
0
 62
7
  6
CONTINUOUS
 10
140.7345892784
 20
75.5217066944
  0
VERTEX
  8
0
 62
7
  6
CONTINUOUS
 10
140.7622510901
 20
75.3541941252
  0
VERTEX
  8
0
 62
7
  6
CONTINUOUS
 10
140.793155888
 20
75.1891679071
  0
VERTEX
  8
0
 62
7
  6
CONTINUOUS
 10
140.8241046745
 20
75.0453402058
  0
VERTEX
  8
0
 62
7
  6
CONTINUOUS
 10
140.8555138618
 20
74.9193375827
  0
VERTEX
  8
0
 62
7
  6
CONTINUOUS
 10
140.8880970029
 20
74.8077507436
  0
VERTEX
  8
0
 62
7
  6
CONTINUOUS
 10
140.9231120116
 20
74.7068994248
  0
VERTEX
  8
0
 62
7
  6
CONTINUOUS
 10
140.9627955099
 20
74.6126959583
  0
VERTEX
  8
0
 62
7
  6
CONTINUOUS
 10
141.0108226278
 20
74.5212320325
  0
VERTEX
  8
0
 62
7
  6
CONTINUOUS
 10
141.0729322785
 20
74.4296248098
  0
VERTEX
  8
0
 62
7
  6
CONTINUOUS
 10
141.1566612033
 20
74.3383339422
  0
VERTEX
  8
0
 62
7
  6
CONTINUOUS
 10
141.2673066145
 20
74.2548460346
  0
VERTEX
  8
0
 62
7
  6
CONTINUOUS
 10
141.40229628
 20
74.1919023112
  0
VERTEX
  8
0
 62
7
  6
CONTINUOUS
 10
141.5501310693
 20
74.1597601554
  0
VERTEX
  8
0
 62
7
  6
CONTINUOUS
 10
141.6210452118
 20
74.1561298226
  0
SEQEND
  0
LINE
  8
0
 62
7
  6
CONTINUOUS
 10
140.7186881649
 20
75.6264241516
 11
140.7345905392
 21
75.5216986069
  0
POLYLINE
  8
0
 62
7
  6
CONTINUOUS
 66
1
 70
0
  0
VERTEX
  8
0
 62
7
  6
CONTINUOUS
 10
139.6624458851
 20
79.8135058358
  0
VERTEX
  8
0
 62
7
  6
CONTINUOUS
 10
139.7338231402
 20
79.2652144535
  0
VERTEX
  8
0
 62
7
  6
CONTINUOUS
 10
139.8284726015
 20
78.665233038
  0
VERTEX
  8
0
 62
7
  6
CONTINUOUS
 10
139.9390832064
 20
78.0824460736
  0
VERTEX
  8
0
 62
7
  6
CONTINUOUS
 10
140.0656970925
 20
77.5218604073
  0
VERTEX
  8
0
 62
7
  6
CONTINUOUS
 10
140.2083298469
 20
76.9883127289
  0
VERTEX
  8
0
 62
7
  6
CONTINUOUS
 10
140.3670277712
 20
76.4864623509
  0
VERTEX
  8
0
 62
7
  6
CONTINUOUS
 10
140.5420215528
 20
76.0206117455
  0
SEQEND
  0
LINE
  8
0
 62
7
  6
CONTINUOUS
 10
139.6624459147
 20
79.8135117015
 11
139.6623866128
 21
79.8145316132
  0
LINE
  8
0
 62
7
  6
CONTINUOUS
 10
139.491990988
 20
136.298747764
 11
139.4920502932
 21
136.2977278241
  0
POLYLINE
  8
0
 62
7
  6
CONTINUOUS
 66
1
 70
0
  0
VERTEX
  8
0
 62
7
  6
CONTINUOUS
 10
139.4850877911
 20
130.1731280781
  0
VERTEX
  8
0
 62
7
  6
CONTINUOUS
 10
139.4890522676
 20
130.4665920638
  0
VERTEX
  8
0
 62
7
  6
CONTINUOUS
 10
139.4914940115
 20
130.7496042653
  0
VERTEX
  8
0
 62
7
  6
CONTINUOUS
 10
139.4920502961
 20
136.2976658126
  0
SEQEND
  0
POLYLINE
  8
0
 62
7
  6
CONTINUOUS
 66
1
 70
0
  0
VERTEX
  8
0
 62
7
  6
CONTINUOUS
 10
139.669315732
 20
85.9355025335
  0
VERTEX
  8
0
 62
7
  6
CONTINUOUS
 10
139.6653381768
 20
85.6417034364
  0
VERTEX
  8
0
 62
7
  6
CONTINUOUS
 10
139.6629222024
 20
85.3586817758
  0
VERTEX
  8
0
 62
7
  6
CONTINUOUS
 10
139.6623866099
 20
79.8145936247
  0
SEQEND
  0
POLYLINE
  8
0
 62
7
  6
CONTINUOUS
 66
1
 70
0
  0
VERTEX
  8
0
 62
7
  6
CONTINUOUS
 10
149.1227492792
 20
140.4948964504
  0
VERTEX
  8
0
 62
7
  6
CONTINUOUS
 10
148.9429660039
 20
140.0939472287
  0
VERTEX
  8
0
 62
7
  6
CONTINUOUS
 10
148.7679014658
 20
139.6283341879
  0
VERTEX
  8
0
 62
7
  6
CONTINUOUS
 10
148.6091330639
 20
139.1267097074
  0
VERTEX
  8
0
 62
7
  6
CONTINUOUS
 10
148.4664283181
 20
138.5933735052
  0
VERTEX
  8
0
 62
7
  6
CONTINUOUS
 10
148.3397400845
 20
138.0329824835
  0
VERTEX
  8
0
 62
7
  6
CONTINUOUS
 10
148.2290525535
 20
137.4503716779
  0
VERTEX
  8
0
 62
7
  6
CONTINUOUS
 10
148.1343237022
 20
136.850546751
  0
VERTEX
  8
0
 62
7
  6
CONTINUOUS
 10
148.0624458884
 20
136.2987536296
  0
SEQEND
  0
POLYLINE
  8
0
 62
7
  6
CONTINUOUS
 66
1
 70
0
  0
VERTEX
  8
0
 62
7
  6
CONTINUOUS
 10
147.8890518647
 20
85.645671217
  0
VERTEX
  8
0
 62
7
  6
CONTINUOUS
 10
147.8851168981
 20
85.9358864854
  0
VERTEX
  8
0
 62
7
  6
CONTINUOUS
 10
147.8849814826
 20
86.0119913914
  0
VERTEX
  8
0
 62
7
  6
CONTINUOUS
 10
147.8861212722
 20
86.0874894211
  0
VERTEX
  8
0
 62
7
  6
CONTINUOUS
 10
147.8887049368
 20
86.1621545456
  0
VERTEX
  8
0
 62
7
  6
CONTINUOUS
 10
147.8929181886
 20
86.2358028945
  0
VERTEX
  8
0
 62
7
  6
CONTINUOUS
 10
147.8989311994
 20
86.3082801486
  0
VERTEX
  8
0
 62
7
  6
CONTINUOUS
 10
147.9068916636
 20
86.3792785032
  0
VERTEX
  8
0
 62
7
  6
CONTINUOUS
 10
147.9169383622
 20
86.4483005128
  0
VERTEX
  8
0
 62
7
  6
CONTINUOUS
 10
147.9292390739
 20
86.5154443199
  0
VERTEX
  8
0
 62
7
  6
CONTINUOUS
 10
147.943940487
 20
86.5805031768
  0
VERTEX
  8
0
 62
7
  6
CONTINUOUS
 10
147.9613049709
 20
86.6430242818
  0
VERTEX
  8
0
 62
7
  6
CONTINUOUS
 10
147.9814947796
 20
86.7013520439
  0
VERTEX
  8
0
 62
7
  6
CONTINUOUS
 10
148.0053463018
 20
86.7560935846
  0
VERTEX
  8
0
 62
7
  6
CONTINUOUS
 10
148.0327140856
 20
86.8064540097
  0
VERTEX
  8
0
 62
7
  6
CONTINUOUS
 10
148.0629073831
 20
86.8510374273
  0
VERTEX
  8
0
 62
7
  6
CONTINUOUS
 10
148.0954296719
 20
86.8893829875
  0
VERTEX
  8
0
 62
7
  6
CONTINUOUS
 10
148.1304002582
 20
86.9216700787
  0
VERTEX
  8
0
 62
7
  6
CONTINUOUS
 10
148.1676892432
 20
86.9474982691
  0
VERTEX
  8
0
 62
7
  6
CONTINUOUS
 10
148.2072965879
 20
86.9661511011
  0
VERTEX
  8
0
 62
7
  6
CONTINUOUS
 10
148.2483036227
 20
86.9760962095
  0
VERTEX
  8
0
 62
7
  6
CONTINUOUS
 10
148.2674812287
 20
86.9773206493
  0
SEQEND
  0
POLYLINE
  8
0
 62
7
  6
CONTINUOUS
 66
1
 70
0
  0
VERTEX
  8
0
 62
7
  6
CONTINUOUS
 10
148.0653381766
 20
130.4705559503
  0
VERTEX
  8
0
 62
7
  6
CONTINUOUS
 10
148.0693111535
 20
130.1772338315
  0
VERTEX
  8
0
 62
7
  6
CONTINUOUS
 10
148.069437477
 20
130.0976402884
  0
VERTEX
  8
0
 62
7
  6
CONTINUOUS
 10
148.0681587976
 20
130.0185776272
  0
VERTEX
  8
0
 62
7
  6
CONTINUOUS
 10
148.0652723207
 20
129.9403259029
  0
VERTEX
  8
0
 62
7
  6
CONTINUOUS
 10
148.0605569187
 20
129.863107659
  0
VERTEX
  8
0
 62
7
  6
CONTINUOUS
 10
148.0538139982
 20
129.7871426101
  0
VERTEX
  8
0
 62
7
  6
CONTINUOUS
 10
148.044867652
 20
129.7128634654
  0
VERTEX
  8
0
 62
7
  6
CONTINUOUS
 10
148.0335481348
 20
129.640778467
  0
VERTEX
  8
0
 62
7
  6
CONTINUOUS
 10
148.0196567356
 20
129.5706737981
  0
VERTEX
  8
0
 62
7
  6
CONTINUOUS
 10
148.0029568597
 20
129.503023646
  0
VERTEX
  8
0
 62
7
  6
CONTINUOUS
 10
147.9832423179
 20
129.4389554617
  0
VERTEX
  8
0
 62
7
  6
CONTINUOUS
 10
147.9598956403
 20
129.3794656367
  0
VERTEX
  8
0
 62
7
  6
CONTINUOUS
 10
147.9324272171
 20
129.3241966878
  0
VERTEX
  8
0
 62
7
  6
CONTINUOUS
 10
147.9014123405
 20
129.2747521585
  0
VERTEX
  8
0
 62
7
  6
CONTINUOUS
 10
147.8679696545
 20
129.2325731856
  0
VERTEX
  8
0
 62
7
  6
CONTINUOUS
 10
147.8320997632
 20
129.1972988938
  0
VERTEX
  8
0
 62
7
  6
CONTINUOUS
 10
147.7937795878
 20
129.1690030824
  0
VERTEX
  8
0
 62
7
  6
CONTINUOUS
 10
147.7529485873
 20
129.1482929767
  0
VERTEX
  8
0
 62
7
  6
CONTINUOUS
 10
147.7101517646
 20
129.1367047147
  0
VERTEX
  8
0
 62
7
  6
CONTINUOUS
 10
147.6867819663
 20
129.1349382046
  0
SEQEND
  0
LINE
  8
0
 62
7
  6
CONTINUOUS
 10
147.8914939193
 20
85.3626570479
 11
147.8890518647
 21
85.645671217
  0
LINE
  8
0
 62
7
  6
CONTINUOUS
 10
148.0629222022
 20
130.7535776871
 11
148.0653381766
 21
130.4705559503
  0
LINE
  8
0
 62
7
  6
CONTINUOUS
 10
147.8914939193
 20
85.3626570479
 11
147.8920502961
 21
79.8145561074
  0
LINE
  8
0
 62
7
  6
CONTINUOUS
 10
148.0623866099
 20
136.2976658126
 11
148.0629222022
 21
130.7535776871
  0
LINE
  8
0
 62
7
  6
CONTINUOUS
 10
148.062445918
 20
136.298747764
 11
148.0623866128
 21
136.2977278241
  0
LINE
  8
0
 62
7
  6
CONTINUOUS
 10
147.8920502961
 20
79.8145239944
 11
147.8919909701
 21
79.8135159572
  0
LINE
  8
0
 62
7
  6
CONTINUOUS
 10
149.1345906748
 20
140.5905617003
 11
149.1186858903
 21
140.4858343583
  0
POLYLINE
  8
0
 62
7
  6
CONTINUOUS
 66
1
 70
0
  0
VERTEX
  8
0
 62
7
  6
CONTINUOUS
 10
130.03168867
 20
75.617365113
  0
VERTEX
  8
0
 62
7
  6
CONTINUOUS
 10
130.2124153971
 20
76.0206118524
  0
VERTEX
  8
0
 62
7
  6
CONTINUOUS
 10
130.3874092149
 20
76.4864625837
  0
VERTEX
  8
0
 62
7
  6
CONTINUOUS
 10
130.546107168
 20
76.9883131037
  0
VERTEX
  8
0
 62
7
  6
CONTINUOUS
 10
130.6887399436
 20
77.5218609371
  0
VERTEX
  8
0
 62
7
  6
CONTINUOUS
 10
130.8153538435
 20
78.082446768
  0
VERTEX
  8
0
 62
7
  6
CONTINUOUS
 10
130.9259644543
 20
78.665233903
  0
VERTEX
  8
0
 62
7
  6
CONTINUOUS
 10
131.0206139141
 20
79.2652154914
  0
VERTEX
  8
0
 62
7
  6
CONTINUOUS
 10
131.0919910209
 20
79.8135058359
  0
SEQEND
  0
LINE
  8
0
 62
7
  6
CONTINUOUS
 10
157.3420215528
 20
76.0206117455
 11
157.522748236
 21
75.617365113
  0
POLYLINE
  8
0
 62
7
  6
CONTINUOUS
 66
1
 70
0
  0
VERTEX
  8
0
 62
7
  6
CONTINUOUS
 10
138.4198475104
 20
140.590553495
  0
VERTEX
  8
0
 62
7
  6
CONTINUOUS
 10
138.3919608646
 20
140.7593485483
  0
VERTEX
  8
0
 62
7
  6
CONTINUOUS
 10
138.3611169632
 20
140.9239087647
  0
VERTEX
  8
0
 62
7
  6
CONTINUOUS
 10
138.3302332124
 20
141.0673470412
  0
VERTEX
  8
0
 62
7
  6
CONTINUOUS
 10
138.2988951658
 20
141.1930253417
  0
VERTEX
  8
0
 62
7
  6
CONTINUOUS
 10
138.2663937805
 20
141.304339012
  0
VERTEX
  8
0
 62
7
  6
CONTINUOUS
 10
138.2314814777
 20
141.4049486335
  0
VERTEX
  8
0
 62
7
  6
CONTINUOUS
 10
138.1919448504
 20
141.4989135046
  0
VERTEX
  8
0
 62
7
  6
CONTINUOUS
 10
138.1441562592
 20
141.5901092857
  0
VERTEX
  8
0
 62
7
  6
CONTINUOUS
 10
138.082447216
 20
141.6814214621
  0
VERTEX
  8
0
 62
7
  6
CONTINUOUS
 10
137.9993501486
 20
141.772469216
  0
VERTEX
  8
0
 62
7
  6
CONTINUOUS
 10
137.8895448835
 20
141.8559387751
  0
VERTEX
  8
0
 62
7
  6
CONTINUOUS
 10
137.7553911014
 20
141.9192490822
  0
VERTEX
  8
0
 62
7
  6
CONTINUOUS
 10
137.6081448461
 20
141.9520925576
  0
VERTEX
  8
0
 62
7
  6
CONTINUOUS
 10
137.5333891404
 20
141.9561296117
  0
SEQEND
  0
LINE
  8
0
 62
7
  6
CONTINUOUS
 10
138.4357510157
 20
140.4858343583
 11
138.4198462312
 21
140.5905617003
  0
POLYLINE
  8
0
 62
7
  6
CONTINUOUS
 66
1
 70
0
  0
VERTEX
  8
0
 62
7
  6
CONTINUOUS
 10
139.4919910176
 20
136.2987536296
  0
VERTEX
  8
0
 62
7
  6
CONTINUOUS
 10
139.4201132038
 20
136.850546751
  0
VERTEX
  8
0
 62
7
  6
CONTINUOUS
 10
139.3253843525
 20
137.4503716779
  0
VERTEX
  8
0
 62
7
  6
CONTINUOUS
 10
139.2146968215
 20
138.0329824834
  0
VERTEX
  8
0
 62
7
  6
CONTINUOUS
 10
139.0880085879
 20
138.5933735052
  0
VERTEX
  8
0
 62
7
  6
CONTINUOUS
 10
138.9453038421
 20
139.1267097074
  0
VERTEX
  8
0
 62
7
  6
CONTINUOUS
 10
138.7865354402
 20
139.6283341879
  0
VERTEX
  8
0
 62
7
  6
CONTINUOUS
 10
138.611470902
 20
140.0939472287
  0
SEQEND
  0
LINE
  8
0
 62
7
  6
CONTINUOUS
 10
156.4624459147
 20
79.8135117015
 11
156.4623866128
 21
79.8145316132
  0
LINE
  8
0
 62
7
  6
CONTINUOUS
 10
146.8198463668
 20
75.5216986069
 11
146.8357487412
 21
75.6264241519
  0
POLYLINE
  8
0
 62
7
  6
CONTINUOUS
 66
1
 70
0
  0
VERTEX
  8
0
 62
7
  6
CONTINUOUS
 10
165.9227492792
 20
140.4948964504
  0
VERTEX
  8
0
 62
7
  6
CONTINUOUS
 10
165.7429660039
 20
140.0939472287
  0
VERTEX
  8
0
 62
7
  6
CONTINUOUS
 10
165.5679014658
 20
139.6283341879
  0
VERTEX
  8
0
 62
7
  6
CONTINUOUS
 10
165.4091330639
 20
139.1267097074
  0
VERTEX
  8
0
 62
7
  6
CONTINUOUS
 10
165.2664283181
 20
138.5933735052
  0
VERTEX
  8
0
 62
7
  6
CONTINUOUS
 10
165.1397400845
 20
138.0329824835
  0
VERTEX
  8
0
 62
7
  6
CONTINUOUS
 10
165.0290525535
 20
137.4503716779
  0
VERTEX
  8
0
 62
7
  6
CONTINUOUS
 10
164.9343237022
 20
136.850546751
  0
VERTEX
  8
0
 62
7
  6
CONTINUOUS
 10
164.8624458884
 20
136.2987536296
  0
SEQEND
  0
POLYLINE
  8
0
 62
7
  6
CONTINUOUS
 66
1
 70
0
  0
VERTEX
  8
0
 62
7
  6
CONTINUOUS
 10
157.5345892784
 20
75.5217066944
  0
VERTEX
  8
0
 62
7
  6
CONTINUOUS
 10
157.5622510901
 20
75.3541941252
  0
VERTEX
  8
0
 62
7
  6
CONTINUOUS
 10
157.593155888
 20
75.1891679071
  0
VERTEX
  8
0
 62
7
  6
CONTINUOUS
 10
157.6241046745
 20
75.0453402058
  0
VERTEX
  8
0
 62
7
  6
CONTINUOUS
 10
157.6555138618
 20
74.9193375827
  0
VERTEX
  8
0
 62
7
  6
CONTINUOUS
 10
157.6880970029
 20
74.8077507436
  0
VERTEX
  8
0
 62
7
  6
CONTINUOUS
 10
157.7231120116
 20
74.7068994248
  0
VERTEX
  8
0
 62
7
  6
CONTINUOUS
 10
157.7627955099
 20
74.6126959583
  0
VERTEX
  8
0
 62
7
  6
CONTINUOUS
 10
157.8108226278
 20
74.5212320325
  0
VERTEX
  8
0
 62
7
  6
CONTINUOUS
 10
157.8729322785
 20
74.4296248098
  0
VERTEX
  8
0
 62
7
  6
CONTINUOUS
 10
157.9566612033
 20
74.3383339422
  0
VERTEX
  8
0
 62
7
  6
CONTINUOUS
 10
158.0673066145
 20
74.2548460346
  0
VERTEX
  8
0
 62
7
  6
CONTINUOUS
 10
158.20229628
 20
74.1919023112
  0
VERTEX
  8
0
 62
7
  6
CONTINUOUS
 10
158.3501310693
 20
74.1597601554
  0
VERTEX
  8
0
 62
7
  6
CONTINUOUS
 10
158.4210452118
 20
74.1561298226
  0
SEQEND
  0
LINE
  8
0
 62
7
  6
CONTINUOUS
 10
157.5186881649
 20
75.6264241516
 11
157.5345905392
 21
75.5216986069
  0
POLYLINE
  8
0
 62
7
  6
CONTINUOUS
 66
1
 70
0
  0
VERTEX
  8
0
 62
7
  6
CONTINUOUS
 10
156.4624458851
 20
79.8135058358
  0
VERTEX
  8
0
 62
7
  6
CONTINUOUS
 10
156.5338231402
 20
79.2652144535
  0
VERTEX
  8
0
 62
7
  6
CONTINUOUS
 10
156.6284726015
 20
78.665233038
  0
VERTEX
  8
0
 62
7
  6
CONTINUOUS
 10
156.7390832064
 20
78.0824460736
  0
VERTEX
  8
0
 62
7
  6
CONTINUOUS
 10
156.8656970925
 20
77.5218604073
  0
VERTEX
  8
0
 62
7
  6
CONTINUOUS
 10
157.0083298469
 20
76.9883127289
  0
VERTEX
  8
0
 62
7
  6
CONTINUOUS
 10
157.1670277712
 20
76.4864623509
  0
VERTEX
  8
0
 62
7
  6
CONTINUOUS
 10
157.3420215528
 20
76.0206117455
  0
SEQEND
  0
LINE
  8
0
 62
7
  6
CONTINUOUS
 10
156.291990988
 20
136.298747764
 11
156.2920502932
 21
136.2977278241
  0
POLYLINE
  8
0
 62
7
  6
CONTINUOUS
 66
1
 70
0
  0
VERTEX
  8
0
 62
7
  6
CONTINUOUS
 10
156.2850877911
 20
130.1731280781
  0
VERTEX
  8
0
 62
7
  6
CONTINUOUS
 10
156.2890522676
 20
130.4665920638
  0
VERTEX
  8
0
 62
7
  6
CONTINUOUS
 10
156.2914940115
 20
130.7496042653
  0
VERTEX
  8
0
 62
7
  6
CONTINUOUS
 10
156.2920502961
 20
136.2976658126
  0
SEQEND
  0
POLYLINE
  8
0
 62
7
  6
CONTINUOUS
 66
1
 70
0
  0
VERTEX
  8
0
 62
7
  6
CONTINUOUS
 10
156.469315732
 20
85.9355025335
  0
VERTEX
  8
0
 62
7
  6
CONTINUOUS
 10
156.4653381768
 20
85.6417034364
  0
VERTEX
  8
0
 62
7
  6
CONTINUOUS
 10
156.4629222024
 20
85.3586817758
  0
VERTEX
  8
0
 62
7
  6
CONTINUOUS
 10
156.4623866099
 20
79.8145936247
  0
SEQEND
  0
LINE
  8
0
 62
7
  6
CONTINUOUS
 10
165.9345906748
 20
140.5905617003
 11
165.9186858903
 21
140.4858343583
  0
POLYLINE
  8
0
 62
7
  6
CONTINUOUS
 66
1
 70
0
  0
VERTEX
  8
0
 62
7
  6
CONTINUOUS
 10
131.0919909701
 20
79.8135159572
  0
VERTEX
  8
0
 62
7
  6
CONTINUOUS
 10
131.0861792697
 20
79.8049190593
  0
VERTEX
  8
0
 62
7
  6
CONTINUOUS
 10
131.0670925167
 20
79.7961257408
  0
VERTEX
  8
0
 62
7
  6
CONTINUOUS
 10
131.0358912696
 20
79.789397298
  0
VERTEX
  8
0
 62
7
  6
CONTINUOUS
 10
130.9945727237
 20
79.7850775947
  0
VERTEX
  8
0
 62
7
  6
CONTINUOUS
 10
130.9458763776
 20
79.783288708
  0
VERTEX
  8
0
 62
7
  6
CONTINUOUS
 10
130.8920502961
 20
79.7838483954
  0
SEQEND
  0
POLYLINE
  8
0
 62
7
  6
CONTINUOUS
 66
1
 70
0
  0
VERTEX
  8
0
 62
7
  6
CONTINUOUS
 10
263.5333887689
 20
74.1561298261
  0
VERTEX
  8
0
 62
7
  6
CONTINUOUS
 10
263.6082629697
 20
74.1601797413
  0
VERTEX
  8
0
 62
7
  6
CONTINUOUS
 10
263.7556201938
 20
74.1930891463
  0
VERTEX
  8
0
 62
7
  6
CONTINUOUS
 10
263.8898415169
 20
74.2565027678
  0
VERTEX
  8
0
 62
7
  6
CONTINUOUS
 10
263.9996580107
 20
74.3400759956
  0
VERTEX
  8
0
 62
7
  6
CONTINUOUS
 10
264.0827298841
 20
74.4312027213
  0
VERTEX
  8
0
 62
7
  6
CONTINUOUS
 10
264.1444089933
 20
74.5225790854
  0
VERTEX
  8
0
 62
7
  6
CONTINUOUS
 10
264.1921775315
 20
74.6138449943
  0
VERTEX
  8
0
 62
7
  6
CONTINUOUS
 10
264.2317055262
 20
74.7079000122
  0
VERTEX
  8
0
 62
7
  6
CONTINUOUS
 10
264.2666183802
 20
74.8086282866
  0
VERTEX
  8
0
 62
7
  6
CONTINUOUS
 10
264.29912649
 20
74.9200932253
  0
VERTEX
  8
0
 62
7
  6
CONTINUOUS
 10
264.3304750905
 20
75.0459577776
  0
VERTEX
  8
0
 62
7
  6
CONTINUOUS
 10
264.3613715718
 20
75.189619256
  0
VERTEX
  8
0
 62
7
  6
CONTINUOUS
 10
264.3922291946
 20
75.3544417221
  0
VERTEX
  8
0
 62
7
  6
CONTINUOUS
 10
264.4198476189
 20
75.5217066389
  0
SEQEND
  0
POLYLINE
  8
0
 62
7
  6
CONTINUOUS
 66
1
 70
0
  0
VERTEX
  8
0
 62
7
  6
CONTINUOUS
 10
246.7333887682
 20
74.1561298261
  0
VERTEX
  8
0
 62
7
  6
CONTINUOUS
 10
246.808263167
 20
74.1601797628
  0
VERTEX
  8
0
 62
7
  6
CONTINUOUS
 10
246.9556204515
 20
74.193089235
  0
VERTEX
  8
0
 62
7
  6
CONTINUOUS
 10
247.0898417205
 20
74.2565028929
  0
VERTEX
  8
0
 62
7
  6
CONTINUOUS
 10
247.1996580943
 20
74.3400760732
  0
VERTEX
  8
0
 62
7
  6
CONTINUOUS
 10
247.2827298857
 20
74.4312027233
  0
VERTEX
  8
0
 62
7
  6
CONTINUOUS
 10
247.3444089341
 20
74.522578985
  0
VERTEX
  8
0
 62
7
  6
CONTINUOUS
 10
247.3921774395
 20
74.613844797
  0
VERTEX
  8
0
 62
7
  6
CONTINUOUS
 10
247.4317054263
 20
74.7078997494
  0
VERTEX
  8
0
 62
7
  6
CONTINUOUS
 10
247.4666182796
 20
74.8086279693
  0
VERTEX
  8
0
 62
7
  6
CONTINUOUS
 10
247.4991263943
 20
74.9200928697
  0
VERTEX
  8
0
 62
7
  6
CONTINUOUS
 10
247.5304750068
 20
75.0459574155
  0
VERTEX
  8
0
 62
7
  6
CONTINUOUS
 10
247.561371508
 20
75.1896189382
  0
VERTEX
  8
0
 62
7
  6
CONTINUOUS
 10
247.5922291595
 20
75.3544415215
  0
VERTEX
  8
0
 62
7
  6
CONTINUOUS
 10
247.6198476189
 20
75.5217066389
  0
SEQEND
  0
LINE
  8
0
 62
7
  6
CONTINUOUS
 10
138.611470902
 20
140.0939472287
 11
138.4316876268
 21
140.4948964504
  0
POLYLINE
  8
0
 62
7
  6
CONTINUOUS
 66
1
 70
0
  0
VERTEX
  8
0
 62
7
  6
CONTINUOUS
 10
155.2198475104
 20
140.590553495
  0
VERTEX
  8
0
 62
7
  6
CONTINUOUS
 10
155.1919608646
 20
140.7593485483
  0
VERTEX
  8
0
 62
7
  6
CONTINUOUS
 10
155.1611169632
 20
140.9239087647
  0
VERTEX
  8
0
 62
7
  6
CONTINUOUS
 10
155.1302332124
 20
141.0673470412
  0
VERTEX
  8
0
 62
7
  6
CONTINUOUS
 10
155.0988951658
 20
141.1930253417
  0
VERTEX
  8
0
 62
7
  6
CONTINUOUS
 10
155.0663937805
 20
141.304339012
  0
VERTEX
  8
0
 62
7
  6
CONTINUOUS
 10
155.0314814777
 20
141.4049486335
  0
VERTEX
  8
0
 62
7
  6
CONTINUOUS
 10
154.9919448504
 20
141.4989135046
  0
VERTEX
  8
0
 62
7
  6
CONTINUOUS
 10
154.9441562592
 20
141.5901092857
  0
VERTEX
  8
0
 62
7
  6
CONTINUOUS
 10
154.882447216
 20
141.6814214621
  0
VERTEX
  8
0
 62
7
  6
CONTINUOUS
 10
154.7993501486
 20
141.772469216
  0
VERTEX
  8
0
 62
7
  6
CONTINUOUS
 10
154.6895448835
 20
141.8559387751
  0
VERTEX
  8
0
 62
7
  6
CONTINUOUS
 10
154.5553911014
 20
141.9192490822
  0
VERTEX
  8
0
 62
7
  6
CONTINUOUS
 10
154.4081448461
 20
141.9520925576
  0
VERTEX
  8
0
 62
7
  6
CONTINUOUS
 10
154.3333891404
 20
141.9561296117
  0
SEQEND
  0
LINE
  8
0
 62
7
  6
CONTINUOUS
 10
155.2357510157
 20
140.4858343583
 11
155.2198462312
 21
140.5905617003
  0
POLYLINE
  8
0
 62
7
  6
CONTINUOUS
 66
1
 70
0
  0
VERTEX
  8
0
 62
7
  6
CONTINUOUS
 10
156.2919910176
 20
136.2987536296
  0
VERTEX
  8
0
 62
7
  6
CONTINUOUS
 10
156.2201132038
 20
136.850546751
  0
VERTEX
  8
0
 62
7
  6
CONTINUOUS
 10
156.1253843525
 20
137.4503716779
  0
VERTEX
  8
0
 62
7
  6
CONTINUOUS
 10
156.0146968215
 20
138.0329824835
  0
VERTEX
  8
0
 62
7
  6
CONTINUOUS
 10
155.8880085879
 20
138.5933735052
  0
VERTEX
  8
0
 62
7
  6
CONTINUOUS
 10
155.7453038421
 20
139.1267097074
  0
VERTEX
  8
0
 62
7
  6
CONTINUOUS
 10
155.5865354402
 20
139.6283341879
  0
VERTEX
  8
0
 62
7
  6
CONTINUOUS
 10
155.411470902
 20
140.0939472287
  0
SEQEND
  0
POLYLINE
  8
0
 62
7
  6
CONTINUOUS
 66
1
 70
0
  0
VERTEX
  8
0
 62
7
  6
CONTINUOUS
 10
164.6890518647
 20
85.645671217
  0
VERTEX
  8
0
 62
7
  6
CONTINUOUS
 10
164.6851168981
 20
85.9358864854
  0
VERTEX
  8
0
 62
7
  6
CONTINUOUS
 10
164.6849814826
 20
86.0119913914
  0
VERTEX
  8
0
 62
7
  6
CONTINUOUS
 10
164.6861212722
 20
86.0874894211
  0
VERTEX
  8
0
 62
7
  6
CONTINUOUS
 10
164.6887049368
 20
86.1621545456
  0
VERTEX
  8
0
 62
7
  6
CONTINUOUS
 10
164.6929181886
 20
86.2358028945
  0
VERTEX
  8
0
 62
7
  6
CONTINUOUS
 10
164.6989311994
 20
86.3082801486
  0
VERTEX
  8
0
 62
7
  6
CONTINUOUS
 10
164.7068916636
 20
86.3792785032
  0
VERTEX
  8
0
 62
7
  6
CONTINUOUS
 10
164.7169383622
 20
86.4483005128
  0
VERTEX
  8
0
 62
7
  6
CONTINUOUS
 10
164.7292390739
 20
86.5154443199
  0
VERTEX
  8
0
 62
7
  6
CONTINUOUS
 10
164.743940487
 20
86.5805031768
  0
VERTEX
  8
0
 62
7
  6
CONTINUOUS
 10
164.7613049709
 20
86.6430242818
  0
VERTEX
  8
0
 62
7
  6
CONTINUOUS
 10
164.7814947796
 20
86.7013520439
  0
VERTEX
  8
0
 62
7
  6
CONTINUOUS
 10
164.8053463018
 20
86.7560935846
  0
VERTEX
  8
0
 62
7
  6
CONTINUOUS
 10
164.8327140856
 20
86.8064540097
  0
VERTEX
  8
0
 62
7
  6
CONTINUOUS
 10
164.8629073831
 20
86.8510374273
  0
VERTEX
  8
0
 62
7
  6
CONTINUOUS
 10
164.8954296719
 20
86.8893829875
  0
VERTEX
  8
0
 62
7
  6
CONTINUOUS
 10
164.9304002582
 20
86.9216700787
  0
VERTEX
  8
0
 62
7
  6
CONTINUOUS
 10
164.9676892432
 20
86.9474982691
  0
VERTEX
  8
0
 62
7
  6
CONTINUOUS
 10
165.0072965879
 20
86.9661511011
  0
VERTEX
  8
0
 62
7
  6
CONTINUOUS
 10
165.0483036227
 20
86.9760962095
  0
VERTEX
  8
0
 62
7
  6
CONTINUOUS
 10
165.0674812287
 20
86.9773206493
  0
SEQEND
  0
POLYLINE
  8
0
 62
7
  6
CONTINUOUS
 66
1
 70
0
  0
VERTEX
  8
0
 62
7
  6
CONTINUOUS
 10
164.8653381766
 20
130.4705559503
  0
VERTEX
  8
0
 62
7
  6
CONTINUOUS
 10
164.8693111535
 20
130.1772338315
  0
VERTEX
  8
0
 62
7
  6
CONTINUOUS
 10
164.869437477
 20
130.0976402884
  0
VERTEX
  8
0
 62
7
  6
CONTINUOUS
 10
164.8681587976
 20
130.0185776272
  0
VERTEX
  8
0
 62
7
  6
CONTINUOUS
 10
164.8652723207
 20
129.9403259029
  0
VERTEX
  8
0
 62
7
  6
CONTINUOUS
 10
164.8605569187
 20
129.863107659
  0
VERTEX
  8
0
 62
7
  6
CONTINUOUS
 10
164.8538139982
 20
129.7871426101
  0
VERTEX
  8
0
 62
7
  6
CONTINUOUS
 10
164.844867652
 20
129.7128634654
  0
VERTEX
  8
0
 62
7
  6
CONTINUOUS
 10
164.8335481348
 20
129.640778467
  0
VERTEX
  8
0
 62
7
  6
CONTINUOUS
 10
164.8196567356
 20
129.5706737981
  0
VERTEX
  8
0
 62
7
  6
CONTINUOUS
 10
164.8029568597
 20
129.503023646
  0
VERTEX
  8
0
 62
7
  6
CONTINUOUS
 10
164.7832423179
 20
129.4389554617
  0
VERTEX
  8
0
 62
7
  6
CONTINUOUS
 10
164.7598956403
 20
129.3794656367
  0
VERTEX
  8
0
 62
7
  6
CONTINUOUS
 10
164.7324272171
 20
129.3241966878
  0
VERTEX
  8
0
 62
7
  6
CONTINUOUS
 10
164.7014123405
 20
129.2747521585
  0
VERTEX
  8
0
 62
7
  6
CONTINUOUS
 10
164.6679696545
 20
129.2325731856
  0
VERTEX
  8
0
 62
7
  6
CONTINUOUS
 10
164.6320997632
 20
129.1972988938
  0
VERTEX
  8
0
 62
7
  6
CONTINUOUS
 10
164.5937795878
 20
129.1690030824
  0
VERTEX
  8
0
 62
7
  6
CONTINUOUS
 10
164.5529485873
 20
129.1482929767
  0
VERTEX
  8
0
 62
7
  6
CONTINUOUS
 10
164.5101517646
 20
129.1367047147
  0
VERTEX
  8
0
 62
7
  6
CONTINUOUS
 10
164.4867819663
 20
129.1349382046
  0
SEQEND
  0
LINE
  8
0
 62
7
  6
CONTINUOUS
 10
164.6914939193
 20
85.3626570479
 11
164.6890518647
 21
85.645671217
  0
LINE
  8
0
 62
7
  6
CONTINUOUS
 10
164.8629222022
 20
130.7535776871
 11
164.8653381766
 21
130.4705559503
  0
LINE
  8
0
 62
7
  6
CONTINUOUS
 10
164.6914939193
 20
85.3626570479
 11
164.6920502961
 21
79.8145561074
  0
LINE
  8
0
 62
7
  6
CONTINUOUS
 10
164.8623866099
 20
136.2976658126
 11
164.8629222022
 21
130.7535776871
  0
LINE
  8
0
 62
7
  6
CONTINUOUS
 10
164.862445918
 20
136.298747764
 11
164.8623866128
 21
136.2977278241
  0
LINE
  8
0
 62
7
  6
CONTINUOUS
 10
164.6920502961
 20
79.8145239944
 11
164.6919909701
 21
79.8135159572
  0
POLYLINE
  8
0
 62
7
  6
CONTINUOUS
 66
1
 70
0
  0
VERTEX
  8
0
 62
7
  6
CONTINUOUS
 10
146.83168867
 20
75.617365113
  0
VERTEX
  8
0
 62
7
  6
CONTINUOUS
 10
147.0124153971
 20
76.0206118524
  0
VERTEX
  8
0
 62
7
  6
CONTINUOUS
 10
147.1874092149
 20
76.4864625837
  0
VERTEX
  8
0
 62
7
  6
CONTINUOUS
 10
147.346107168
 20
76.9883131037
  0
VERTEX
  8
0
 62
7
  6
CONTINUOUS
 10
147.4887399436
 20
77.5218609371
  0
VERTEX
  8
0
 62
7
  6
CONTINUOUS
 10
147.6153538435
 20
78.082446768
  0
VERTEX
  8
0
 62
7
  6
CONTINUOUS
 10
147.7259644543
 20
78.665233903
  0
VERTEX
  8
0
 62
7
  6
CONTINUOUS
 10
147.8206139141
 20
79.2652154914
  0
VERTEX
  8
0
 62
7
  6
CONTINUOUS
 10
147.8919910209
 20
79.8135058359
  0
SEQEND
  0
POLYLINE
  8
0
 62
7
  6
CONTINUOUS
 66
1
 70
0
  0
VERTEX
  8
0
 62
7
  6
CONTINUOUS
 10
213.1342234242
 20
74.1561301726
  0
VERTEX
  8
0
 62
7
  6
CONTINUOUS
 10
213.208263167
 20
74.1601797628
  0
VERTEX
  8
0
 62
7
  6
CONTINUOUS
 10
213.3556204515
 20
74.193089235
  0
VERTEX
  8
0
 62
7
  6
CONTINUOUS
 10
213.4898417205
 20
74.2565028929
  0
VERTEX
  8
0
 62
7
  6
CONTINUOUS
 10
213.5996580943
 20
74.3400760732
  0
VERTEX
  8
0
 62
7
  6
CONTINUOUS
 10
213.6827298857
 20
74.4312027233
  0
VERTEX
  8
0
 62
7
  6
CONTINUOUS
 10
213.7444089341
 20
74.522578985
  0
VERTEX
  8
0
 62
7
  6
CONTINUOUS
 10
213.7921774395
 20
74.613844797
  0
VERTEX
  8
0
 62
7
  6
CONTINUOUS
 10
213.8317054263
 20
74.7078997494
  0
VERTEX
  8
0
 62
7
  6
CONTINUOUS
 10
213.8666182796
 20
74.8086279693
  0
VERTEX
  8
0
 62
7
  6
CONTINUOUS
 10
213.8991263943
 20
74.9200928697
  0
VERTEX
  8
0
 62
7
  6
CONTINUOUS
 10
213.9304750068
 20
75.0459574155
  0
VERTEX
  8
0
 62
7
  6
CONTINUOUS
 10
213.961371508
 20
75.1896189382
  0
VERTEX
  8
0
 62
7
  6
CONTINUOUS
 10
213.9922291595
 20
75.3544415215
  0
VERTEX
  8
0
 62
7
  6
CONTINUOUS
 10
214.0198476189
 20
75.5217066389
  0
SEQEND
  0
POLYLINE
  8
0
 62
7
  6
CONTINUOUS
 66
1
 70
0
  0
VERTEX
  8
0
 62
7
  6
CONTINUOUS
 10
179.5342234242
 20
74.1561301726
  0
VERTEX
  8
0
 62
7
  6
CONTINUOUS
 10
179.608263167
 20
74.1601797628
  0
VERTEX
  8
0
 62
7
  6
CONTINUOUS
 10
179.7556204515
 20
74.193089235
  0
VERTEX
  8
0
 62
7
  6
CONTINUOUS
 10
179.8898417205
 20
74.2565028929
  0
VERTEX
  8
0
 62
7
  6
CONTINUOUS
 10
179.9996580943
 20
74.3400760732
  0
VERTEX
  8
0
 62
7
  6
CONTINUOUS
 10
180.0827298857
 20
74.4312027233
  0
VERTEX
  8
0
 62
7
  6
CONTINUOUS
 10
180.1444089341
 20
74.522578985
  0
VERTEX
  8
0
 62
7
  6
CONTINUOUS
 10
180.1921774395
 20
74.613844797
  0
VERTEX
  8
0
 62
7
  6
CONTINUOUS
 10
180.2317054263
 20
74.7078997494
  0
VERTEX
  8
0
 62
7
  6
CONTINUOUS
 10
180.2666182796
 20
74.8086279693
  0
VERTEX
  8
0
 62
7
  6
CONTINUOUS
 10
180.2991263943
 20
74.9200928697
  0
VERTEX
  8
0
 62
7
  6
CONTINUOUS
 10
180.3304750068
 20
75.0459574155
  0
VERTEX
  8
0
 62
7
  6
CONTINUOUS
 10
180.361371508
 20
75.1896189382
  0
VERTEX
  8
0
 62
7
  6
CONTINUOUS
 10
180.3922291595
 20
75.3544415215
  0
VERTEX
  8
0
 62
7
  6
CONTINUOUS
 10
180.4198476189
 20
75.5217066389
  0
SEQEND
  0
POLYLINE
  8
0
 62
7
  6
CONTINUOUS
 66
1
 70
0
  0
VERTEX
  8
0
 62
7
  6
CONTINUOUS
 10
229.9333887682
 20
74.1561298261
  0
VERTEX
  8
0
 62
7
  6
CONTINUOUS
 10
230.008263167
 20
74.1601797628
  0
VERTEX
  8
0
 62
7
  6
CONTINUOUS
 10
230.1556204515
 20
74.193089235
  0
VERTEX
  8
0
 62
7
  6
CONTINUOUS
 10
230.2898417205
 20
74.2565028929
  0
VERTEX
  8
0
 62
7
  6
CONTINUOUS
 10
230.3996580943
 20
74.3400760732
  0
VERTEX
  8
0
 62
7
  6
CONTINUOUS
 10
230.4827298857
 20
74.4312027233
  0
VERTEX
  8
0
 62
7
  6
CONTINUOUS
 10
230.5444089341
 20
74.522578985
  0
VERTEX
  8
0
 62
7
  6
CONTINUOUS
 10
230.5921774395
 20
74.613844797
  0
VERTEX
  8
0
 62
7
  6
CONTINUOUS
 10
230.6317054263
 20
74.7078997494
  0
VERTEX
  8
0
 62
7
  6
CONTINUOUS
 10
230.6666182796
 20
74.8086279693
  0
VERTEX
  8
0
 62
7
  6
CONTINUOUS
 10
230.6991263943
 20
74.9200928697
  0
VERTEX
  8
0
 62
7
  6
CONTINUOUS
 10
230.7304750068
 20
75.0459574155
  0
VERTEX
  8
0
 62
7
  6
CONTINUOUS
 10
230.761371508
 20
75.1896189382
  0
VERTEX
  8
0
 62
7
  6
CONTINUOUS
 10
230.7922291595
 20
75.3544415215
  0
VERTEX
  8
0
 62
7
  6
CONTINUOUS
 10
230.8198476189
 20
75.5217066389
  0
SEQEND
  0
POLYLINE
  8
0
 62
7
  6
CONTINUOUS
 66
1
 70
0
  0
VERTEX
  8
0
 62
7
  6
CONTINUOUS
 10
196.3333887682
 20
74.1561298261
  0
VERTEX
  8
0
 62
7
  6
CONTINUOUS
 10
196.408263167
 20
74.1601797628
  0
VERTEX
  8
0
 62
7
  6
CONTINUOUS
 10
196.5556204515
 20
74.193089235
  0
VERTEX
  8
0
 62
7
  6
CONTINUOUS
 10
196.6898417205
 20
74.2565028929
  0
VERTEX
  8
0
 62
7
  6
CONTINUOUS
 10
196.7996580943
 20
74.3400760732
  0
VERTEX
  8
0
 62
7
  6
CONTINUOUS
 10
196.8827298857
 20
74.4312027233
  0
VERTEX
  8
0
 62
7
  6
CONTINUOUS
 10
196.9444089341
 20
74.522578985
  0
VERTEX
  8
0
 62
7
  6
CONTINUOUS
 10
196.9921774395
 20
74.613844797
  0
VERTEX
  8
0
 62
7
  6
CONTINUOUS
 10
197.0317054263
 20
74.7078997494
  0
VERTEX
  8
0
 62
7
  6
CONTINUOUS
 10
197.0666182796
 20
74.8086279693
  0
VERTEX
  8
0
 62
7
  6
CONTINUOUS
 10
197.0991263943
 20
74.9200928697
  0
VERTEX
  8
0
 62
7
  6
CONTINUOUS
 10
197.1304750068
 20
75.0459574155
  0
VERTEX
  8
0
 62
7
  6
CONTINUOUS
 10
197.161371508
 20
75.1896189382
  0
VERTEX
  8
0
 62
7
  6
CONTINUOUS
 10
197.1922291595
 20
75.3544415215
  0
VERTEX
  8
0
 62
7
  6
CONTINUOUS
 10
197.2198476189
 20
75.5217066389
  0
SEQEND
  0
POLYLINE
  8
0
 62
7
  6
CONTINUOUS
 66
1
 70
0
  0
VERTEX
  8
0
 62
7
  6
CONTINUOUS
 10
162.7333887682
 20
74.1561298261
  0
VERTEX
  8
0
 62
7
  6
CONTINUOUS
 10
162.808263167
 20
74.1601797628
  0
VERTEX
  8
0
 62
7
  6
CONTINUOUS
 10
162.9556204515
 20
74.193089235
  0
VERTEX
  8
0
 62
7
  6
CONTINUOUS
 10
163.0898417205
 20
74.2565028929
  0
VERTEX
  8
0
 62
7
  6
CONTINUOUS
 10
163.1996580943
 20
74.3400760732
  0
VERTEX
  8
0
 62
7
  6
CONTINUOUS
 10
163.2827298857
 20
74.4312027233
  0
VERTEX
  8
0
 62
7
  6
CONTINUOUS
 10
163.3444089341
 20
74.522578985
  0
VERTEX
  8
0
 62
7
  6
CONTINUOUS
 10
163.3921774395
 20
74.613844797
  0
VERTEX
  8
0
 62
7
  6
CONTINUOUS
 10
163.4317054263
 20
74.7078997494
  0
VERTEX
  8
0
 62
7
  6
CONTINUOUS
 10
163.4666182796
 20
74.8086279693
  0
VERTEX
  8
0
 62
7
  6
CONTINUOUS
 10
163.4991263943
 20
74.9200928697
  0
VERTEX
  8
0
 62
7
  6
CONTINUOUS
 10
163.5304750068
 20
75.0459574155
  0
VERTEX
  8
0
 62
7
  6
CONTINUOUS
 10
163.561371508
 20
75.1896189382
  0
VERTEX
  8
0
 62
7
  6
CONTINUOUS
 10
163.5922291595
 20
75.3544415215
  0
VERTEX
  8
0
 62
7
  6
CONTINUOUS
 10
163.6198476189
 20
75.5217066389
  0
SEQEND
  0
POLYLINE
  8
0
 62
7
  6
CONTINUOUS
 66
1
 70
0
  0
VERTEX
  8
0
 62
7
  6
CONTINUOUS
 10
145.9333887682
 20
74.1561298261
  0
VERTEX
  8
0
 62
7
  6
CONTINUOUS
 10
146.008263167
 20
74.1601797628
  0
VERTEX
  8
0
 62
7
  6
CONTINUOUS
 10
146.1556204515
 20
74.193089235
  0
VERTEX
  8
0
 62
7
  6
CONTINUOUS
 10
146.2898417205
 20
74.2565028929
  0
VERTEX
  8
0
 62
7
  6
CONTINUOUS
 10
146.3996580943
 20
74.3400760732
  0
VERTEX
  8
0
 62
7
  6
CONTINUOUS
 10
146.4827298857
 20
74.4312027233
  0
VERTEX
  8
0
 62
7
  6
CONTINUOUS
 10
146.5444089341
 20
74.522578985
  0
VERTEX
  8
0
 62
7
  6
CONTINUOUS
 10
146.5921774395
 20
74.613844797
  0
VERTEX
  8
0
 62
7
  6
CONTINUOUS
 10
146.6317054263
 20
74.7078997494
  0
VERTEX
  8
0
 62
7
  6
CONTINUOUS
 10
146.6666182796
 20
74.8086279693
  0
VERTEX
  8
0
 62
7
  6
CONTINUOUS
 10
146.6991263943
 20
74.9200928697
  0
VERTEX
  8
0
 62
7
  6
CONTINUOUS
 10
146.7304750068
 20
75.0459574155
  0
VERTEX
  8
0
 62
7
  6
CONTINUOUS
 10
146.761371508
 20
75.1896189382
  0
VERTEX
  8
0
 62
7
  6
CONTINUOUS
 10
146.7922291595
 20
75.3544415215
  0
VERTEX
  8
0
 62
7
  6
CONTINUOUS
 10
146.8198476189
 20
75.5217066389
  0
SEQEND
  0
POLYLINE
  8
0
 62
7
  6
CONTINUOUS
 66
1
 70
0
  0
VERTEX
  8
0
 62
7
  6
CONTINUOUS
 10
129.1333982683
 20
74.1561298151
  0
VERTEX
  8
0
 62
7
  6
CONTINUOUS
 10
129.2006835865
 20
74.1593964266
  0
VERTEX
  8
0
 62
7
  6
CONTINUOUS
 10
129.3513790097
 20
74.1916453507
  0
VERTEX
  8
0
 62
7
  6
CONTINUOUS
 10
129.4919391584
 20
74.2577964687
  0
VERTEX
  8
0
 62
7
  6
CONTINUOUS
 10
129.6082934765
 20
74.3482297506
  0
VERTEX
  8
0
 62
7
  6
CONTINUOUS
 10
129.6962414899
 20
74.4491563185
  0
VERTEX
  8
0
 62
7
  6
CONTINUOUS
 10
129.7609010315
 20
74.5517125495
  0
VERTEX
  8
0
 62
7
  6
CONTINUOUS
 10
129.8109687639
 20
74.6561712629
  0
VERTEX
  8
0
 62
7
  6
CONTINUOUS
 10
129.8529538821
 20
74.7670198156
  0
VERTEX
  8
0
 62
7
  6
CONTINUOUS
 10
129.8905223355
 20
74.8887932471
  0
VERTEX
  8
0
 62
7
  6
CONTINUOUS
 10
129.9255764568
 20
75.0250177089
  0
VERTEX
  8
0
 62
7
  6
CONTINUOUS
 10
129.9591522608
 20
75.1786102636
  0
VERTEX
  8
0
 62
7
  6
CONTINUOUS
 10
129.9916758374
 20
75.3512867288
  0
VERTEX
  8
0
 62
7
  6
CONTINUOUS
 10
130.0198486688
 20
75.5217133743
  0
SEQEND
  0
POLYLINE
  8
0
 62
6
  6
CONTINUOUS
 66
1
 70
0
  0
VERTEX
  8
0
 62
6
  6
CONTINUOUS
 10
262.5539601704
 20
79.7838952622
  0
VERTEX
  8
0
 62
6
  6
CONTINUOUS
 10
262.7410270237
 20
79.7898882052
  0
VERTEX
  8
0
 62
6
  6
CONTINUOUS
 10
262.9209816763
 20
79.8012966319
  0
VERTEX
  8
0
 62
6
  6
CONTINUOUS
 10
263.0876021664
 20
79.8175794574
  0
VERTEX
  8
0
 62
6
  6
CONTINUOUS
 10
263.2352105749
 20
79.8380800398
  0
VERTEX
  8
0
 62
6
  6
CONTINUOUS
 10
263.3588698637
 20
79.8620324148
  0
VERTEX
  8
0
 62
6
  6
CONTINUOUS
 10
263.4545366008
 20
79.8885734008
  0
VERTEX
  8
0
 62
6
  6
CONTINUOUS
 10
263.5191680347
 20
79.9167589346
  0
VERTEX
  8
0
 62
6
  6
CONTINUOUS
 10
263.5507809042
 20
79.94558212
  0
SEQEND
  0
LINE
  8
0
 62
7
  6
CONTINUOUS
 10
123.0772171614
 20
74.1561297186
 11
129.1335145438
 21
74.1561297186
  0
LINE
  8
0
 62
7
  6
CONTINUOUS
 10
141.6209193226
 20
74.1561297187
 11
145.9335075077
 21
74.1561297186
  0
LINE
  8
0
 62
7
  6
CONTINUOUS
 10
158.4209193226
 20
74.1561297187
 11
162.7335075077
 21
74.1561297186
  0
LINE
  8
0
 62
7
  6
CONTINUOUS
 10
175.2209202656
 20
74.1561297186
 11
179.5335166405
 21
74.1561297186
  0
LINE
  8
0
 62
7
  6
CONTINUOUS
 10
192.0209193226
 20
74.1561297187
 11
196.3335075077
 21
74.1561297186
  0
LINE
  8
0
 62
7
  6
CONTINUOUS
 10
208.8209202656
 20
74.1561297186
 11
213.1335166405
 21
74.1561297186
  0
LINE
  8
0
 62
7
  6
CONTINUOUS
 10
225.6209193226
 20
74.1561297187
 11
229.9335075077
 21
74.1561297186
  0
LINE
  8
0
 62
7
  6
CONTINUOUS
 10
242.4209193226
 20
74.1561297187
 11
246.7335075077
 21
74.1561297186
  0
LINE
  8
0
 62
7
  6
CONTINUOUS
 10
259.2209193226
 20
74.1561297187
 11
263.5335114485
 21
74.1561297186
  0
LINE
  8
0
 62
7
  6
CONTINUOUS
 10
145.9335175834
 20
74.1561297187
 11
145.9333887151
 21
74.1561297957
  0
LINE
  8
0
 62
7
  6
CONTINUOUS
 10
162.7335175834
 20
74.1561297187
 11
162.7333887151
 21
74.1561297957
  0
LINE
  8
0
 62
7
  6
CONTINUOUS
 10
196.3335175834
 20
74.1561297187
 11
196.3333887151
 21
74.1561297957
  0
LINE
  8
0
 62
7
  6
CONTINUOUS
 10
229.9335175834
 20
74.1561297187
 11
229.9333887151
 21
74.1561297957
  0
LINE
  8
0
 62
7
  6
CONTINUOUS
 10
246.7335175834
 20
74.1561297187
 11
246.7333887151
 21
74.1561297957
  0
LINE
  8
0
 62
7
  6
CONTINUOUS
 10
263.5335179588
 20
74.1561297186
 11
263.5333893326
 21
74.1561297957
  0
LINE
  8
0
 62
7
  6
CONTINUOUS
 10
174.1420215528
 20
76.0206117455
 11
174.322748236
 21
75.617365113
  0
LINE
  8
0
 62
7
  6
CONTINUOUS
 10
173.2624459147
 20
79.8135117015
 11
173.2623866128
 21
79.8145316132
  0
POLYLINE
  8
0
 62
7
  6
CONTINUOUS
 66
1
 70
0
  0
VERTEX
  8
0
 62
7
  6
CONTINUOUS
 10
173.0850877911
 20
130.1731280781
  0
VERTEX
  8
0
 62
7
  6
CONTINUOUS
 10
173.0890522676
 20
130.4665920638
  0
VERTEX
  8
0
 62
7
  6
CONTINUOUS
 10
173.0914940115
 20
130.7496042653
  0
VERTEX
  8
0
 62
7
  6
CONTINUOUS
 10
173.0920502961
 20
136.2976658126
  0
SEQEND
  0
POLYLINE
  8
0
 62
7
  6
CONTINUOUS
 66
1
 70
0
  0
VERTEX
  8
0
 62
7
  6
CONTINUOUS
 10
173.269315732
 20
85.9355025335
  0
VERTEX
  8
0
 62
7
  6
CONTINUOUS
 10
173.2653381768
 20
85.6417034364
  0
VERTEX
  8
0
 62
7
  6
CONTINUOUS
 10
173.2629222024
 20
85.3586817758
  0
VERTEX
  8
0
 62
7
  6
CONTINUOUS
 10
173.2623866099
 20
79.8145936247
  0
SEQEND
  0
LINE
  8
0
 62
7
  6
CONTINUOUS
 10
163.6198463668
 20
75.5216986069
 11
163.6357487412
 21
75.6264241519
  0
POLYLINE
  8
0
 62
7
  6
CONTINUOUS
 66
1
 70
0
  0
VERTEX
  8
0
 62
7
  6
CONTINUOUS
 10
182.7227492792
 20
140.4948964504
  0
VERTEX
  8
0
 62
7
  6
CONTINUOUS
 10
182.5429660039
 20
140.0939472287
  0
VERTEX
  8
0
 62
7
  6
CONTINUOUS
 10
182.3679014658
 20
139.6283341879
  0
VERTEX
  8
0
 62
7
  6
CONTINUOUS
 10
182.2091330639
 20
139.1267097074
  0
VERTEX
  8
0
 62
7
  6
CONTINUOUS
 10
182.0664283181
 20
138.5933735052
  0
VERTEX
  8
0
 62
7
  6
CONTINUOUS
 10
181.9397400845
 20
138.0329824835
  0
VERTEX
  8
0
 62
7
  6
CONTINUOUS
 10
181.8290525535
 20
137.4503716779
  0
VERTEX
  8
0
 62
7
  6
CONTINUOUS
 10
181.7343237022
 20
136.850546751
  0
VERTEX
  8
0
 62
7
  6
CONTINUOUS
 10
181.6624458884
 20
136.2987536296
  0
SEQEND
  0
POLYLINE
  8
0
 62
7
  6
CONTINUOUS
 66
1
 70
0
  0
VERTEX
  8
0
 62
7
  6
CONTINUOUS
 10
147.8919909701
 20
79.8135159572
  0
VERTEX
  8
0
 62
7
  6
CONTINUOUS
 10
147.8861792697
 20
79.8049190593
  0
VERTEX
  8
0
 62
7
  6
CONTINUOUS
 10
147.8670925167
 20
79.7961257408
  0
VERTEX
  8
0
 62
7
  6
CONTINUOUS
 10
147.8358912696
 20
79.789397298
  0
VERTEX
  8
0
 62
7
  6
CONTINUOUS
 10
147.7945727237
 20
79.7850775947
  0
VERTEX
  8
0
 62
7
  6
CONTINUOUS
 10
147.7458763776
 20
79.783288708
  0
VERTEX
  8
0
 62
7
  6
CONTINUOUS
 10
147.6920502961
 20
79.7838483954
  0
SEQEND
  0
POLYLINE
  8
0
 62
7
  6
CONTINUOUS
 66
1
 70
0
  0
VERTEX
  8
0
 62
7
  6
CONTINUOUS
 10
257.4623866099
 20
79.7838483954
  0
VERTEX
  8
0
 62
7
  6
CONTINUOUS
 10
257.4153579347
 20
79.7832364427
  0
VERTEX
  8
0
 62
7
  6
CONTINUOUS
 10
257.3718355946
 20
79.7843754637
  0
VERTEX
  8
0
 62
7
  6
CONTINUOUS
 10
257.3331841464
 20
79.7874604365
  0
VERTEX
  8
0
 62
7
  6
CONTINUOUS
 10
257.3015357233
 20
79.7924775709
  0
VERTEX
  8
0
 62
7
  6
CONTINUOUS
 10
257.2785852095
 20
79.7992475869
  0
VERTEX
  8
0
 62
7
  6
CONTINUOUS
 10
257.2654595283
 20
79.8074622606
  0
VERTEX
  8
0
 62
7
  6
CONTINUOUS
 10
257.2624459147
 20
79.8135117015
  0
SEQEND
  0
POLYLINE
  8
0
 62
7
  6
CONTINUOUS
 66
1
 70
0
  0
VERTEX
  8
0
 62
7
  6
CONTINUOUS
 10
240.6623866099
 20
79.7838483954
  0
VERTEX
  8
0
 62
7
  6
CONTINUOUS
 10
240.6153579347
 20
79.7832364427
  0
VERTEX
  8
0
 62
7
  6
CONTINUOUS
 10
240.5718355946
 20
79.7843754637
  0
VERTEX
  8
0
 62
7
  6
CONTINUOUS
 10
240.5331841464
 20
79.7874604365
  0
VERTEX
  8
0
 62
7
  6
CONTINUOUS
 10
240.5015357233
 20
79.7924775709
  0
VERTEX
  8
0
 62
7
  6
CONTINUOUS
 10
240.4785852095
 20
79.7992475869
  0
VERTEX
  8
0
 62
7
  6
CONTINUOUS
 10
240.4654595283
 20
79.8074622606
  0
VERTEX
  8
0
 62
7
  6
CONTINUOUS
 10
240.4624459147
 20
79.8135117015
  0
SEQEND
  0
POLYLINE
  8
0
 62
7
  6
CONTINUOUS
 66
1
 70
0
  0
VERTEX
  8
0
 62
7
  6
CONTINUOUS
 10
223.8623866099
 20
79.7838483954
  0
VERTEX
  8
0
 62
7
  6
CONTINUOUS
 10
223.8153579347
 20
79.7832364427
  0
VERTEX
  8
0
 62
7
  6
CONTINUOUS
 10
223.7718355946
 20
79.7843754637
  0
VERTEX
  8
0
 62
7
  6
CONTINUOUS
 10
223.7331841464
 20
79.7874604365
  0
VERTEX
  8
0
 62
7
  6
CONTINUOUS
 10
223.7015357233
 20
79.7924775709
  0
VERTEX
  8
0
 62
7
  6
CONTINUOUS
 10
223.6785852095
 20
79.7992475869
  0
VERTEX
  8
0
 62
7
  6
CONTINUOUS
 10
223.6654595283
 20
79.8074622606
  0
VERTEX
  8
0
 62
7
  6
CONTINUOUS
 10
223.6624459147
 20
79.8135117015
  0
SEQEND
  0
POLYLINE
  8
0
 62
7
  6
CONTINUOUS
 66
1
 70
0
  0
VERTEX
  8
0
 62
7
  6
CONTINUOUS
 10
207.0623866099
 20
79.7838483954
  0
VERTEX
  8
0
 62
7
  6
CONTINUOUS
 10
207.0153579347
 20
79.7832364427
  0
VERTEX
  8
0
 62
7
  6
CONTINUOUS
 10
206.9718355946
 20
79.7843754637
  0
VERTEX
  8
0
 62
7
  6
CONTINUOUS
 10
206.9331841464
 20
79.7874604365
  0
VERTEX
  8
0
 62
7
  6
CONTINUOUS
 10
206.9015357233
 20
79.7924775709
  0
VERTEX
  8
0
 62
7
  6
CONTINUOUS
 10
206.8785852095
 20
79.7992475869
  0
VERTEX
  8
0
 62
7
  6
CONTINUOUS
 10
206.8654595283
 20
79.8074622606
  0
VERTEX
  8
0
 62
7
  6
CONTINUOUS
 10
206.8624459147
 20
79.8135117015
  0
SEQEND
  0
POLYLINE
  8
0
 62
7
  6
CONTINUOUS
 66
1
 70
0
  0
VERTEX
  8
0
 62
7
  6
CONTINUOUS
 10
190.2623866099
 20
79.7838483954
  0
VERTEX
  8
0
 62
7
  6
CONTINUOUS
 10
190.2153579347
 20
79.7832364427
  0
VERTEX
  8
0
 62
7
  6
CONTINUOUS
 10
190.1718355946
 20
79.7843754637
  0
VERTEX
  8
0
 62
7
  6
CONTINUOUS
 10
190.1331841464
 20
79.7874604365
  0
VERTEX
  8
0
 62
7
  6
CONTINUOUS
 10
190.1015357233
 20
79.7924775709
  0
VERTEX
  8
0
 62
7
  6
CONTINUOUS
 10
190.0785852095
 20
79.7992475869
  0
VERTEX
  8
0
 62
7
  6
CONTINUOUS
 10
190.0654595283
 20
79.8074622606
  0
VERTEX
  8
0
 62
7
  6
CONTINUOUS
 10
190.0624459147
 20
79.8135117015
  0
SEQEND
  0
POLYLINE
  8
0
 62
7
  6
CONTINUOUS
 66
1
 70
0
  0
VERTEX
  8
0
 62
7
  6
CONTINUOUS
 10
173.4623866099
 20
79.7838483954
  0
VERTEX
  8
0
 62
7
  6
CONTINUOUS
 10
173.4153579347
 20
79.7832364427
  0
VERTEX
  8
0
 62
7
  6
CONTINUOUS
 10
173.3718355946
 20
79.7843754637
  0
VERTEX
  8
0
 62
7
  6
CONTINUOUS
 10
173.3331841464
 20
79.7874604365
  0
VERTEX
  8
0
 62
7
  6
CONTINUOUS
 10
173.3015357233
 20
79.7924775709
  0
VERTEX
  8
0
 62
7
  6
CONTINUOUS
 10
173.2785852095
 20
79.7992475869
  0
VERTEX
  8
0
 62
7
  6
CONTINUOUS
 10
173.2654595283
 20
79.8074622606
  0
VERTEX
  8
0
 62
7
  6
CONTINUOUS
 10
173.2624459147
 20
79.8135117015
  0
SEQEND
  0
POLYLINE
  8
0
 62
7
  6
CONTINUOUS
 66
1
 70
0
  0
VERTEX
  8
0
 62
7
  6
CONTINUOUS
 10
156.6623866099
 20
79.7838483954
  0
VERTEX
  8
0
 62
7
  6
CONTINUOUS
 10
156.6153579347
 20
79.7832364427
  0
VERTEX
  8
0
 62
7
  6
CONTINUOUS
 10
156.5718355946
 20
79.7843754637
  0
VERTEX
  8
0
 62
7
  6
CONTINUOUS
 10
156.5331841464
 20
79.7874604365
  0
VERTEX
  8
0
 62
7
  6
CONTINUOUS
 10
156.5015357233
 20
79.7924775709
  0
VERTEX
  8
0
 62
7
  6
CONTINUOUS
 10
156.4785852095
 20
79.7992475869
  0
VERTEX
  8
0
 62
7
  6
CONTINUOUS
 10
156.4654595283
 20
79.8074622606
  0
VERTEX
  8
0
 62
7
  6
CONTINUOUS
 10
156.4624459147
 20
79.8135117015
  0
SEQEND
  0
POLYLINE
  8
0
 62
7
  6
CONTINUOUS
 66
1
 70
0
  0
VERTEX
  8
0
 62
7
  6
CONTINUOUS
 10
139.8623866099
 20
79.7838483954
  0
VERTEX
  8
0
 62
7
  6
CONTINUOUS
 10
139.8153579347
 20
79.7832364427
  0
VERTEX
  8
0
 62
7
  6
CONTINUOUS
 10
139.7718355946
 20
79.7843754637
  0
VERTEX
  8
0
 62
7
  6
CONTINUOUS
 10
139.7331841464
 20
79.7874604365
  0
VERTEX
  8
0
 62
7
  6
CONTINUOUS
 10
139.7015357233
 20
79.7924775709
  0
VERTEX
  8
0
 62
7
  6
CONTINUOUS
 10
139.6785852095
 20
79.7992475869
  0
VERTEX
  8
0
 62
7
  6
CONTINUOUS
 10
139.6654595283
 20
79.8074622606
  0
VERTEX
  8
0
 62
7
  6
CONTINUOUS
 10
139.6624459147
 20
79.8135117015
  0
SEQEND
  0
LINE
  8
0
 62
6
  6
CONTINUOUS
 10
262.5539601704
 20
79.7838952622
 11
262.5483218662
 21
79.7838483971
  0
LINE
  8
0
 62
7
  6
CONTINUOUS
 10
130.8920502961
 20
79.7838483954
 11
123.077218453
 21
79.7838483954
  0
LINE
  8
0
 62
7
  6
CONTINUOUS
 10
139.8623866099
 20
79.7838483954
 11
147.6920502961
 21
79.7838483954
  0
LINE
  8
0
 62
7
  6
CONTINUOUS
 10
156.6623866099
 20
79.7838483954
 11
164.4920502961
 21
79.7838483954
  0
LINE
  8
0
 62
7
  6
CONTINUOUS
 10
173.4623866099
 20
79.7838483954
 11
181.2920502961
 21
79.7838483954
  0
LINE
  8
0
 62
7
  6
CONTINUOUS
 10
190.2623866099
 20
79.7838483954
 11
198.0920502961
 21
79.7838483954
  0
LINE
  8
0
 62
7
  6
CONTINUOUS
 10
207.0623866099
 20
79.7838483954
 11
214.8920502961
 21
79.7838483954
  0
LINE
  8
0
 62
7
  6
CONTINUOUS
 10
223.8623866099
 20
79.7838483954
 11
231.6920502961
 21
79.7838483954
  0
LINE
  8
0
 62
7
  6
CONTINUOUS
 10
240.6623866099
 20
79.7838483954
 11
248.4920502961
 21
79.7838483954
  0
LINE
  8
0
 62
7
  6
CONTINUOUS
 10
257.4623866099
 20
79.7838483954
 11
265.2920502961
 21
79.7838483954
  0
LINE
  8
0
 62
6
  6
CONTINUOUS
 10
257.4603506262
 20
79.7838483954
 11
257.4623866099
 21
79.7838483954
  0
LINE
  8
0
 62
6
  6
CONTINUOUS
 10
265.2920502961
 20
79.7838483954
 11
265.2940862798
 21
79.7838483954
  0
LINE
  8
DEFAULT_1
 62
7
  6
CENTER
 10
120.677218453
 20
82.6561297186
 11
276.077218453
 21
82.6561297186
  0
LINE
  8
0
 62
6
  6
CONTINUOUS
 10
260.2004767356
 20
79.7838952622
 11
260.2061150398
 21
79.7838483971
  0
POLYLINE
  8
0
 62
6
  6
CONTINUOUS
 66
1
 70
0
  0
VERTEX
  8
0
 62
6
  6
CONTINUOUS
 10
260.2004767356
 20
79.7838952622
  0
VERTEX
  8
0
 62
6
  6
CONTINUOUS
 10
260.0134098823
 20
79.7898882052
  0
VERTEX
  8
0
 62
6
  6
CONTINUOUS
 10
259.8334552297
 20
79.8012966319
  0
VERTEX
  8
0
 62
6
  6
CONTINUOUS
 10
259.6668347396
 20
79.8175794574
  0
VERTEX
  8
0
 62
6
  6
CONTINUOUS
 10
259.5192263311
 20
79.8380800398
  0
VERTEX
  8
0
 62
6
  6
CONTINUOUS
 10
259.3955670423
 20
79.8620324148
  0
VERTEX
  8
0
 62
6
  6
CONTINUOUS
 10
259.2999003052
 20
79.8885734008
  0
VERTEX
  8
0
 62
6
  6
CONTINUOUS
 10
259.2352688713
 20
79.9167589346
  0
VERTEX
  8
0
 62
6
  6
CONTINUOUS
 10
259.2036560017
 20
79.94558212
  0
SEQEND
  0
POLYLINE
  8
0
 62
7
  6
CONTINUOUS
 66
1
 70
0
  0
VERTEX
  8
0
 62
7
  6
CONTINUOUS
 10
139.2867826663
 20
86.9773212226
  0
VERTEX
  8
0
 62
7
  6
CONTINUOUS
 10
139.3099328831
 20
86.9755868149
  0
VERTEX
  8
0
 62
7
  6
CONTINUOUS
 10
139.352907448
 20
86.9639829886
  0
VERTEX
  8
0
 62
7
  6
CONTINUOUS
 10
139.3940677443
 20
86.9430767385
  0
VERTEX
  8
0
 62
7
  6
CONTINUOUS
 10
139.432681626
 20
86.9144600601
  0
VERTEX
  8
0
 62
7
  6
CONTINUOUS
 10
139.4686733138
 20
86.8788986557
  0
VERTEX
  8
0
 62
7
  6
CONTINUOUS
 10
139.5020119832
 20
86.8366556962
  0
VERTEX
  8
0
 62
7
  6
CONTINUOUS
 10
139.5327463129
 20
86.7874919655
  0
VERTEX
  8
0
 62
7
  6
CONTINUOUS
 10
139.5600265002
 20
86.7324981397
  0
VERTEX
  8
0
 62
7
  6
CONTINUOUS
 10
139.5832501278
 20
86.673281724
  0
VERTEX
  8
0
 62
7
  6
CONTINUOUS
 10
139.6028585055
 20
86.6095692787
  0
VERTEX
  8
0
 62
7
  6
CONTINUOUS
 10
139.6195313242
 20
86.5421497009
  0
VERTEX
  8
0
 62
7
  6
CONTINUOUS
 10
139.6333949502
 20
86.472352439
  0
VERTEX
  8
0
 62
7
  6
CONTINUOUS
 10
139.6447177618
 20
86.4004805628
  0
VERTEX
  8
0
 62
7
  6
CONTINUOUS
 10
139.6536843481
 20
86.3263631266
  0
VERTEX
  8
0
 62
7
  6
CONTINUOUS
 10
139.6604584944
 20
86.250470844
  0
VERTEX
  8
0
 62
7
  6
CONTINUOUS
 10
139.6652094191
 20
86.1732280746
  0
VERTEX
  8
0
 62
7
  6
CONTINUOUS
 10
139.6681285824
 20
86.0948387322
  0
VERTEX
  8
0
 62
7
  6
CONTINUOUS
 10
139.669431226
 20
86.0155089653
  0
VERTEX
  8
0
 62
7
  6
CONTINUOUS
 10
139.669315732
 20
85.9355025335
  0
SEQEND
  0
POLYLINE
  8
0
 62
7
  6
CONTINUOUS
 66
1
 70
0
  0
VERTEX
  8
0
 62
7
  6
CONTINUOUS
 10
156.0867826663
 20
86.9773212226
  0
VERTEX
  8
0
 62
7
  6
CONTINUOUS
 10
156.1099328831
 20
86.9755868149
  0
VERTEX
  8
0
 62
7
  6
CONTINUOUS
 10
156.152907448
 20
86.9639829886
  0
VERTEX
  8
0
 62
7
  6
CONTINUOUS
 10
156.1940677443
 20
86.9430767385
  0
VERTEX
  8
0
 62
7
  6
CONTINUOUS
 10
156.232681626
 20
86.9144600601
  0
VERTEX
  8
0
 62
7
  6
CONTINUOUS
 10
156.2686733138
 20
86.8788986557
  0
VERTEX
  8
0
 62
7
  6
CONTINUOUS
 10
156.3020119832
 20
86.8366556962
  0
VERTEX
  8
0
 62
7
  6
CONTINUOUS
 10
156.3327463129
 20
86.7874919655
  0
VERTEX
  8
0
 62
7
  6
CONTINUOUS
 10
156.3600265002
 20
86.7324981397
  0
VERTEX
  8
0
 62
7
  6
CONTINUOUS
 10
156.3832501278
 20
86.673281724
  0
VERTEX
  8
0
 62
7
  6
CONTINUOUS
 10
156.4028585055
 20
86.6095692787
  0
VERTEX
  8
0
 62
7
  6
CONTINUOUS
 10
156.4195313242
 20
86.5421497009
  0
VERTEX
  8
0
 62
7
  6
CONTINUOUS
 10
156.4333949502
 20
86.472352439
  0
VERTEX
  8
0
 62
7
  6
CONTINUOUS
 10
156.4447177618
 20
86.4004805628
  0
VERTEX
  8
0
 62
7
  6
CONTINUOUS
 10
156.4536843481
 20
86.3263631266
  0
VERTEX
  8
0
 62
7
  6
CONTINUOUS
 10
156.4604584944
 20
86.250470844
  0
VERTEX
  8
0
 62
7
  6
CONTINUOUS
 10
156.4652094191
 20
86.1732280746
  0
VERTEX
  8
0
 62
7
  6
CONTINUOUS
 10
156.4681285824
 20
86.0948387322
  0
VERTEX
  8
0
 62
7
  6
CONTINUOUS
 10
156.469431226
 20
86.0155089653
  0
VERTEX
  8
0
 62
7
  6
CONTINUOUS
 10
156.469315732
 20
85.9355025335
  0
SEQEND
  0
LINE
  8
0
 62
7
  6
CONTINUOUS
 10
155.411470902
 20
140.0939472287
 11
155.2316876268
 21
140.4948964504
  0
POLYLINE
  8
0
 62
7
  6
CONTINUOUS
 66
1
 70
0
  0
VERTEX
  8
0
 62
7
  6
CONTINUOUS
 10
174.3345892784
 20
75.5217066944
  0
VERTEX
  8
0
 62
7
  6
CONTINUOUS
 10
174.3622510901
 20
75.3541941252
  0
VERTEX
  8
0
 62
7
  6
CONTINUOUS
 10
174.393155888
 20
75.1891679071
  0
VERTEX
  8
0
 62
7
  6
CONTINUOUS
 10
174.4241046745
 20
75.0453402058
  0
VERTEX
  8
0
 62
7
  6
CONTINUOUS
 10
174.4555138618
 20
74.9193375827
  0
VERTEX
  8
0
 62
7
  6
CONTINUOUS
 10
174.4880970029
 20
74.8077507436
  0
VERTEX
  8
0
 62
7
  6
CONTINUOUS
 10
174.5231120116
 20
74.7068994248
  0
VERTEX
  8
0
 62
7
  6
CONTINUOUS
 10
174.5627955099
 20
74.6126959583
  0
VERTEX
  8
0
 62
7
  6
CONTINUOUS
 10
174.6108226278
 20
74.5212320325
  0
VERTEX
  8
0
 62
7
  6
CONTINUOUS
 10
174.6729322785
 20
74.4296248098
  0
VERTEX
  8
0
 62
7
  6
CONTINUOUS
 10
174.7566612033
 20
74.3383339422
  0
VERTEX
  8
0
 62
7
  6
CONTINUOUS
 10
174.8673066145
 20
74.2548460346
  0
VERTEX
  8
0
 62
7
  6
CONTINUOUS
 10
175.00229628
 20
74.1919023112
  0
VERTEX
  8
0
 62
7
  6
CONTINUOUS
 10
175.1501310693
 20
74.1597601554
  0
VERTEX
  8
0
 62
7
  6
CONTINUOUS
 10
175.2202304503
 20
74.1561301525
  0
SEQEND
  0
LINE
  8
0
 62
7
  6
CONTINUOUS
 10
174.3186881649
 20
75.6264241516
 11
174.3345905392
 21
75.5216986069
  0
POLYLINE
  8
0
 62
7
  6
CONTINUOUS
 66
1
 70
0
  0
VERTEX
  8
0
 62
7
  6
CONTINUOUS
 10
173.2624458851
 20
79.8135058358
  0
VERTEX
  8
0
 62
7
  6
CONTINUOUS
 10
173.3338231402
 20
79.2652144535
  0
VERTEX
  8
0
 62
7
  6
CONTINUOUS
 10
173.4284726015
 20
78.665233038
  0
VERTEX
  8
0
 62
7
  6
CONTINUOUS
 10
173.5390832064
 20
78.0824460736
  0
VERTEX
  8
0
 62
7
  6
CONTINUOUS
 10
173.6656970925
 20
77.5218604073
  0
VERTEX
  8
0
 62
7
  6
CONTINUOUS
 10
173.8083298469
 20
76.9883127289
  0
VERTEX
  8
0
 62
7
  6
CONTINUOUS
 10
173.9670277712
 20
76.4864623509
  0
VERTEX
  8
0
 62
7
  6
CONTINUOUS
 10
174.1420215528
 20
76.0206117455
  0
SEQEND
  0
LINE
  8
0
 62
7
  6
CONTINUOUS
 10
173.091990988
 20
136.298747764
 11
173.0920502932
 21
136.2977278241
  0
LINE
  8
0
 62
7
  6
CONTINUOUS
 10
181.662445918
 20
136.298747764
 11
181.6623866128
 21
136.2977278241
  0
LINE
  8
0
 62
7
  6
CONTINUOUS
 10
182.7345906748
 20
140.5905617003
 11
182.7186858903
 21
140.4858343583
  0
POLYLINE
  8
0
 62
7
  6
CONTINUOUS
 66
1
 70
0
  0
VERTEX
  8
0
 62
7
  6
CONTINUOUS
 10
163.63168867
 20
75.617365113
  0
VERTEX
  8
0
 62
7
  6
CONTINUOUS
 10
163.8124153971
 20
76.0206118524
  0
VERTEX
  8
0
 62
7
  6
CONTINUOUS
 10
163.9874092149
 20
76.4864625837
  0
VERTEX
  8
0
 62
7
  6
CONTINUOUS
 10
164.146107168
 20
76.9883131037
  0
VERTEX
  8
0
 62
7
  6
CONTINUOUS
 10
164.2887399436
 20
77.5218609371
  0
VERTEX
  8
0
 62
7
  6
CONTINUOUS
 10
164.4153538435
 20
78.082446768
  0
VERTEX
  8
0
 62
7
  6
CONTINUOUS
 10
164.5259644543
 20
78.665233903
  0
VERTEX
  8
0
 62
7
  6
CONTINUOUS
 10
164.6206139141
 20
79.2652154914
  0
VERTEX
  8
0
 62
7
  6
CONTINUOUS
 10
164.6919910209
 20
79.8135058359
  0
SEQEND
  0
LINE
  8
0
 62
7
  6
CONTINUOUS
 10
273.677218453
 20
86.9775193034
 11
265.867481463
 21
86.9773209015
  0
LINE
  8
0
 62
7
  6
CONTINUOUS
 10
256.8078507203
 20
86.9775193034
 11
249.067481463
 21
86.9773209015
  0
LINE
  8
0
 62
7
  6
CONTINUOUS
 10
240.0078507203
 20
86.9775193034
 11
232.267481463
 21
86.9773209015
  0
LINE
  8
0
 62
7
  6
CONTINUOUS
 10
223.2078507203
 20
86.9775193034
 11
215.467481463
 21
86.9773209015
  0
LINE
  8
0
 62
7
  6
CONTINUOUS
 10
206.4078507203
 20
86.9775193034
 11
198.667481463
 21
86.9773209015
  0
LINE
  8
0
 62
7
  6
CONTINUOUS
 10
189.6078507203
 20
86.9775193034
 11
181.867481463
 21
86.9773209015
  0
LINE
  8
0
 62
7
  6
CONTINUOUS
 10
172.8078507203
 20
86.9775193034
 11
165.067481463
 21
86.9773209015
  0
LINE
  8
0
 62
7
  6
CONTINUOUS
 10
156.0078507203
 20
86.9775193034
 11
148.267481463
 21
86.9773209015
  0
LINE
  8
0
 62
7
  6
CONTINUOUS
 10
139.2078507203
 20
86.9775193034
 11
131.467481463
 21
86.9773209015
  0
LINE
  8
0
 62
7
  6
CONTINUOUS
 10
139.2867827249
 20
86.9772910489
 11
139.2078501713
 21
86.9775645669
  0
LINE
  8
0
 62
7
  6
CONTINUOUS
 10
156.0867827249
 20
86.9772910489
 11
156.0078501713
 21
86.9775645669
  0
LINE
  8
0
 62
7
  6
CONTINUOUS
 10
172.8867827249
 20
86.9772910489
 11
172.8078501713
 21
86.9775645669
  0
LINE
  8
0
 62
7
  6
CONTINUOUS
 10
189.6867827249
 20
86.9772910489
 11
189.6078501713
 21
86.9775645669
  0
LINE
  8
0
 62
7
  6
CONTINUOUS
 10
206.4867827249
 20
86.9772910489
 11
206.4078501713
 21
86.9775645669
  0
LINE
  8
0
 62
7
  6
CONTINUOUS
 10
139.2879613039
 20
87.2272430697
 11
139.2078506419
 21
87.2275193034
  0
LINE
  8
0
 62
7
  6
CONTINUOUS
 10
223.2867827249
 20
86.9772910489
 11
223.2078501713
 21
86.9775645669
  0
LINE
  8
0
 62
7
  6
CONTINUOUS
 10
156.0879613039
 20
87.2272430697
 11
156.0078506419
 21
87.2275193034
  0
LINE
  8
0
 62
7
  6
CONTINUOUS
 10
240.0867827249
 20
86.9772910489
 11
240.0078501713
 21
86.9775645669
  0
LINE
  8
0
 62
7
  6
CONTINUOUS
 10
172.8879613039
 20
87.2272430697
 11
172.8078506419
 21
87.2275193034
  0
LINE
  8
0
 62
7
  6
CONTINUOUS
 10
256.8867827249
 20
86.9772910489
 11
256.8078501713
 21
86.9775645669
  0
LINE
  8
0
 62
7
  6
CONTINUOUS
 10
189.6879613039
 20
87.2272430697
 11
189.6078506419
 21
87.2275193034
  0
LINE
  8
0
 62
7
  6
CONTINUOUS
 10
206.4879613039
 20
87.2272430697
 11
206.4078506419
 21
87.2275193034
  0
LINE
  8
0
 62
7
  6
CONTINUOUS
 10
223.2879613039
 20
87.2272430697
 11
223.2078506419
 21
87.2275193034
  0
LINE
  8
0
 62
7
  6
CONTINUOUS
 10
240.0879613039
 20
87.2272430697
 11
240.0078506419
 21
87.2275193034
  0
LINE
  8
0
 62
7
  6
CONTINUOUS
 10
256.8879613039
 20
87.2272430697
 11
256.8078506419
 21
87.2275193034
  0
LINE
  8
0
 62
6
  6
CONTINUOUS
 10
256.8879612783
 20
87.1001689834
 11
256.8078506861
 21
87.1004388183
  0
POLYLINE
  8
0
 62
7
  6
CONTINUOUS
 66
1
 70
0
  0
VERTEX
  8
0
 62
7
  6
CONTINUOUS
 10
172.8867826663
 20
86.9773212226
  0
VERTEX
  8
0
 62
7
  6
CONTINUOUS
 10
172.9099328831
 20
86.9755868149
  0
VERTEX
  8
0
 62
7
  6
CONTINUOUS
 10
172.952907448
 20
86.9639829886
  0
VERTEX
  8
0
 62
7
  6
CONTINUOUS
 10
172.9940677443
 20
86.9430767385
  0
VERTEX
  8
0
 62
7
  6
CONTINUOUS
 10
173.032681626
 20
86.9144600601
  0
VERTEX
  8
0
 62
7
  6
CONTINUOUS
 10
173.0686733138
 20
86.8788986557
  0
VERTEX
  8
0
 62
7
  6
CONTINUOUS
 10
173.1020119832
 20
86.8366556962
  0
VERTEX
  8
0
 62
7
  6
CONTINUOUS
 10
173.1327463129
 20
86.7874919655
  0
VERTEX
  8
0
 62
7
  6
CONTINUOUS
 10
173.1600265002
 20
86.7324981397
  0
VERTEX
  8
0
 62
7
  6
CONTINUOUS
 10
173.1832501278
 20
86.673281724
  0
VERTEX
  8
0
 62
7
  6
CONTINUOUS
 10
173.2028585055
 20
86.6095692787
  0
VERTEX
  8
0
 62
7
  6
CONTINUOUS
 10
173.2195313242
 20
86.5421497009
  0
VERTEX
  8
0
 62
7
  6
CONTINUOUS
 10
173.2333949502
 20
86.472352439
  0
VERTEX
  8
0
 62
7
  6
CONTINUOUS
 10
173.2447177618
 20
86.4004805628
  0
VERTEX
  8
0
 62
7
  6
CONTINUOUS
 10
173.2536843481
 20
86.3263631266
  0
VERTEX
  8
0
 62
7
  6
CONTINUOUS
 10
173.2604584944
 20
86.250470844
  0
VERTEX
  8
0
 62
7
  6
CONTINUOUS
 10
173.2652094191
 20
86.1732280746
  0
VERTEX
  8
0
 62
7
  6
CONTINUOUS
 10
173.2681285824
 20
86.0948387322
  0
VERTEX
  8
0
 62
7
  6
CONTINUOUS
 10
173.269431226
 20
86.0155089653
  0
VERTEX
  8
0
 62
7
  6
CONTINUOUS
 10
173.269315732
 20
85.9355025335
  0
SEQEND
  0
POLYLINE
  8
0
 62
7
  6
CONTINUOUS
 66
1
 70
0
  0
VERTEX
  8
0
 62
7
  6
CONTINUOUS
 10
189.6867826663
 20
86.9773212226
  0
VERTEX
  8
0
 62
7
  6
CONTINUOUS
 10
189.7099328831
 20
86.9755868149
  0
VERTEX
  8
0
 62
7
  6
CONTINUOUS
 10
189.752907448
 20
86.9639829886
  0
VERTEX
  8
0
 62
7
  6
CONTINUOUS
 10
189.7940677443
 20
86.9430767385
  0
VERTEX
  8
0
 62
7
  6
CONTINUOUS
 10
189.832681626
 20
86.9144600601
  0
VERTEX
  8
0
 62
7
  6
CONTINUOUS
 10
189.8686733138
 20
86.8788986557
  0
VERTEX
  8
0
 62
7
  6
CONTINUOUS
 10
189.9020119832
 20
86.8366556962
  0
VERTEX
  8
0
 62
7
  6
CONTINUOUS
 10
189.9327463129
 20
86.7874919655
  0
VERTEX
  8
0
 62
7
  6
CONTINUOUS
 10
189.9600265002
 20
86.7324981397
  0
VERTEX
  8
0
 62
7
  6
CONTINUOUS
 10
189.9832501278
 20
86.673281724
  0
VERTEX
  8
0
 62
7
  6
CONTINUOUS
 10
190.0028585055
 20
86.6095692787
  0
VERTEX
  8
0
 62
7
  6
CONTINUOUS
 10
190.0195313242
 20
86.5421497009
  0
VERTEX
  8
0
 62
7
  6
CONTINUOUS
 10
190.0333949502
 20
86.472352439
  0
VERTEX
  8
0
 62
7
  6
CONTINUOUS
 10
190.0447177618
 20
86.4004805628
  0
VERTEX
  8
0
 62
7
  6
CONTINUOUS
 10
190.0536843481
 20
86.3263631266
  0
VERTEX
  8
0
 62
7
  6
CONTINUOUS
 10
190.0604584944
 20
86.250470844
  0
VERTEX
  8
0
 62
7
  6
CONTINUOUS
 10
190.0652094191
 20
86.1732280746
  0
VERTEX
  8
0
 62
7
  6
CONTINUOUS
 10
190.0681285824
 20
86.0948387322
  0
VERTEX
  8
0
 62
7
  6
CONTINUOUS
 10
190.069431226
 20
86.0155089653
  0
VERTEX
  8
0
 62
7
  6
CONTINUOUS
 10
190.069315732
 20
85.9355025335
  0
SEQEND
  0
POLYLINE
  8
0
 62
7
  6
CONTINUOUS
 66
1
 70
0
  0
VERTEX
  8
0
 62
7
  6
CONTINUOUS
 10
206.4867826663
 20
86.9773212226
  0
VERTEX
  8
0
 62
7
  6
CONTINUOUS
 10
206.5099328831
 20
86.9755868149
  0
VERTEX
  8
0
 62
7
  6
CONTINUOUS
 10
206.552907448
 20
86.9639829886
  0
VERTEX
  8
0
 62
7
  6
CONTINUOUS
 10
206.5940677443
 20
86.9430767385
  0
VERTEX
  8
0
 62
7
  6
CONTINUOUS
 10
206.632681626
 20
86.9144600601
  0
VERTEX
  8
0
 62
7
  6
CONTINUOUS
 10
206.6686733138
 20
86.8788986557
  0
VERTEX
  8
0
 62
7
  6
CONTINUOUS
 10
206.7020119832
 20
86.8366556962
  0
VERTEX
  8
0
 62
7
  6
CONTINUOUS
 10
206.7327463129
 20
86.7874919655
  0
VERTEX
  8
0
 62
7
  6
CONTINUOUS
 10
206.7600265002
 20
86.7324981397
  0
VERTEX
  8
0
 62
7
  6
CONTINUOUS
 10
206.7832501278
 20
86.673281724
  0
VERTEX
  8
0
 62
7
  6
CONTINUOUS
 10
206.8028585055
 20
86.6095692787
  0
VERTEX
  8
0
 62
7
  6
CONTINUOUS
 10
206.8195313242
 20
86.5421497009
  0
VERTEX
  8
0
 62
7
  6
CONTINUOUS
 10
206.8333949502
 20
86.472352439
  0
VERTEX
  8
0
 62
7
  6
CONTINUOUS
 10
206.8447177618
 20
86.4004805628
  0
VERTEX
  8
0
 62
7
  6
CONTINUOUS
 10
206.8536843481
 20
86.3263631266
  0
VERTEX
  8
0
 62
7
  6
CONTINUOUS
 10
206.8604584944
 20
86.250470844
  0
VERTEX
  8
0
 62
7
  6
CONTINUOUS
 10
206.8652094191
 20
86.1732280746
  0
VERTEX
  8
0
 62
7
  6
CONTINUOUS
 10
206.8681285824
 20
86.0948387322
  0
VERTEX
  8
0
 62
7
  6
CONTINUOUS
 10
206.869431226
 20
86.0155089653
  0
VERTEX
  8
0
 62
7
  6
CONTINUOUS
 10
206.869315732
 20
85.9355025335
  0
SEQEND
  0
POLYLINE
  8
0
 62
7
  6
CONTINUOUS
 66
1
 70
0
  0
VERTEX
  8
0
 62
7
  6
CONTINUOUS
 10
223.2867826663
 20
86.9773212226
  0
VERTEX
  8
0
 62
7
  6
CONTINUOUS
 10
223.3099328831
 20
86.9755868149
  0
VERTEX
  8
0
 62
7
  6
CONTINUOUS
 10
223.352907448
 20
86.9639829886
  0
VERTEX
  8
0
 62
7
  6
CONTINUOUS
 10
223.3940677443
 20
86.9430767385
  0
VERTEX
  8
0
 62
7
  6
CONTINUOUS
 10
223.432681626
 20
86.9144600601
  0
VERTEX
  8
0
 62
7
  6
CONTINUOUS
 10
223.4686733138
 20
86.8788986557
  0
VERTEX
  8
0
 62
7
  6
CONTINUOUS
 10
223.5020119832
 20
86.8366556962
  0
VERTEX
  8
0
 62
7
  6
CONTINUOUS
 10
223.5327463129
 20
86.7874919655
  0
VERTEX
  8
0
 62
7
  6
CONTINUOUS
 10
223.5600265002
 20
86.7324981397
  0
VERTEX
  8
0
 62
7
  6
CONTINUOUS
 10
223.5832501278
 20
86.673281724
  0
VERTEX
  8
0
 62
7
  6
CONTINUOUS
 10
223.6028585055
 20
86.6095692787
  0
VERTEX
  8
0
 62
7
  6
CONTINUOUS
 10
223.6195313242
 20
86.5421497009
  0
VERTEX
  8
0
 62
7
  6
CONTINUOUS
 10
223.6333949502
 20
86.472352439
  0
VERTEX
  8
0
 62
7
  6
CONTINUOUS
 10
223.6447177618
 20
86.4004805628
  0
VERTEX
  8
0
 62
7
  6
CONTINUOUS
 10
223.6536843481
 20
86.3263631266
  0
VERTEX
  8
0
 62
7
  6
CONTINUOUS
 10
223.6604584944
 20
86.250470844
  0
VERTEX
  8
0
 62
7
  6
CONTINUOUS
 10
223.6652094191
 20
86.1732280746
  0
VERTEX
  8
0
 62
7
  6
CONTINUOUS
 10
223.6681285824
 20
86.0948387322
  0
VERTEX
  8
0
 62
7
  6
CONTINUOUS
 10
223.669431226
 20
86.0155089653
  0
VERTEX
  8
0
 62
7
  6
CONTINUOUS
 10
223.669315732
 20
85.9355025335
  0
SEQEND
  0
POLYLINE
  8
0
 62
7
  6
CONTINUOUS
 66
1
 70
0
  0
VERTEX
  8
0
 62
7
  6
CONTINUOUS
 10
240.0867826663
 20
86.9773212226
  0
VERTEX
  8
0
 62
7
  6
CONTINUOUS
 10
240.1099328831
 20
86.9755868149
  0
VERTEX
  8
0
 62
7
  6
CONTINUOUS
 10
240.152907448
 20
86.9639829886
  0
VERTEX
  8
0
 62
7
  6
CONTINUOUS
 10
240.1940677443
 20
86.9430767385
  0
VERTEX
  8
0
 62
7
  6
CONTINUOUS
 10
240.232681626
 20
86.9144600601
  0
VERTEX
  8
0
 62
7
  6
CONTINUOUS
 10
240.2686733138
 20
86.8788986557
  0
VERTEX
  8
0
 62
7
  6
CONTINUOUS
 10
240.3020119832
 20
86.8366556962
  0
VERTEX
  8
0
 62
7
  6
CONTINUOUS
 10
240.3327463129
 20
86.7874919655
  0
VERTEX
  8
0
 62
7
  6
CONTINUOUS
 10
240.3600265002
 20
86.7324981397
  0
VERTEX
  8
0
 62
7
  6
CONTINUOUS
 10
240.3832501278
 20
86.673281724
  0
VERTEX
  8
0
 62
7
  6
CONTINUOUS
 10
240.4028585055
 20
86.6095692787
  0
VERTEX
  8
0
 62
7
  6
CONTINUOUS
 10
240.4195313242
 20
86.5421497009
  0
VERTEX
  8
0
 62
7
  6
CONTINUOUS
 10
240.4333949502
 20
86.472352439
  0
VERTEX
  8
0
 62
7
  6
CONTINUOUS
 10
240.4447177618
 20
86.4004805628
  0
VERTEX
  8
0
 62
7
  6
CONTINUOUS
 10
240.4536843481
 20
86.3263631266
  0
VERTEX
  8
0
 62
7
  6
CONTINUOUS
 10
240.4604584944
 20
86.250470844
  0
VERTEX
  8
0
 62
7
  6
CONTINUOUS
 10
240.4652094191
 20
86.1732280746
  0
VERTEX
  8
0
 62
7
  6
CONTINUOUS
 10
240.4681285824
 20
86.0948387322
  0
VERTEX
  8
0
 62
7
  6
CONTINUOUS
 10
240.469431226
 20
86.0155089653
  0
VERTEX
  8
0
 62
7
  6
CONTINUOUS
 10
240.469315732
 20
85.9355025335
  0
SEQEND
  0
LINE
  8
0
 62
7
  6
CONTINUOUS
 10
190.9420215528
 20
76.0206117455
 11
191.122748236
 21
75.617365113
  0
POLYLINE
  8
0
 62
7
  6
CONTINUOUS
 66
1
 70
0
  0
VERTEX
  8
0
 62
7
  6
CONTINUOUS
 10
172.0198475104
 20
140.590553495
  0
VERTEX
  8
0
 62
7
  6
CONTINUOUS
 10
171.9919608646
 20
140.7593485483
  0
VERTEX
  8
0
 62
7
  6
CONTINUOUS
 10
171.9611169632
 20
140.9239087647
  0
VERTEX
  8
0
 62
7
  6
CONTINUOUS
 10
171.9302332124
 20
141.0673470412
  0
VERTEX
  8
0
 62
7
  6
CONTINUOUS
 10
171.8988951658
 20
141.1930253417
  0
VERTEX
  8
0
 62
7
  6
CONTINUOUS
 10
171.8663937805
 20
141.304339012
  0
VERTEX
  8
0
 62
7
  6
CONTINUOUS
 10
171.8314814777
 20
141.4049486335
  0
VERTEX
  8
0
 62
7
  6
CONTINUOUS
 10
171.7919448504
 20
141.4989135046
  0
VERTEX
  8
0
 62
7
  6
CONTINUOUS
 10
171.7441562592
 20
141.5901092857
  0
VERTEX
  8
0
 62
7
  6
CONTINUOUS
 10
171.682447216
 20
141.6814214621
  0
VERTEX
  8
0
 62
7
  6
CONTINUOUS
 10
171.5993501486
 20
141.772469216
  0
VERTEX
  8
0
 62
7
  6
CONTINUOUS
 10
171.4895448835
 20
141.8559387751
  0
VERTEX
  8
0
 62
7
  6
CONTINUOUS
 10
171.3553911014
 20
141.9192490822
  0
VERTEX
  8
0
 62
7
  6
CONTINUOUS
 10
171.2081448461
 20
141.9520925576
  0
VERTEX
  8
0
 62
7
  6
CONTINUOUS
 10
171.1333891404
 20
141.9561296117
  0
SEQEND
  0
LINE
  8
0
 62
7
  6
CONTINUOUS
 10
172.0357510157
 20
140.4858343583
 11
172.0198462312
 21
140.5905617003
  0
POLYLINE
  8
0
 62
7
  6
CONTINUOUS
 66
1
 70
0
  0
VERTEX
  8
0
 62
7
  6
CONTINUOUS
 10
173.0919910176
 20
136.2987536296
  0
VERTEX
  8
0
 62
7
  6
CONTINUOUS
 10
173.0201132038
 20
136.850546751
  0
VERTEX
  8
0
 62
7
  6
CONTINUOUS
 10
172.9253843525
 20
137.4503716779
  0
VERTEX
  8
0
 62
7
  6
CONTINUOUS
 10
172.8146968215
 20
138.0329824835
  0
VERTEX
  8
0
 62
7
  6
CONTINUOUS
 10
172.6880085879
 20
138.5933735052
  0
VERTEX
  8
0
 62
7
  6
CONTINUOUS
 10
172.5453038421
 20
139.1267097074
  0
VERTEX
  8
0
 62
7
  6
CONTINUOUS
 10
172.3865354402
 20
139.6283341879
  0
VERTEX
  8
0
 62
7
  6
CONTINUOUS
 10
172.211470902
 20
140.0939472287
  0
SEQEND
  0
POLYLINE
  8
0
 62
7
  6
CONTINUOUS
 66
1
 70
0
  0
VERTEX
  8
0
 62
7
  6
CONTINUOUS
 10
181.4890518647
 20
85.645671217
  0
VERTEX
  8
0
 62
7
  6
CONTINUOUS
 10
181.4851168981
 20
85.9358864854
  0
VERTEX
  8
0
 62
7
  6
CONTINUOUS
 10
181.4849814826
 20
86.0119913914
  0
VERTEX
  8
0
 62
7
  6
CONTINUOUS
 10
181.4861212722
 20
86.0874894211
  0
VERTEX
  8
0
 62
7
  6
CONTINUOUS
 10
181.4887049368
 20
86.1621545456
  0
VERTEX
  8
0
 62
7
  6
CONTINUOUS
 10
181.4929181886
 20
86.2358028945
  0
VERTEX
  8
0
 62
7
  6
CONTINUOUS
 10
181.4989311994
 20
86.3082801486
  0
VERTEX
  8
0
 62
7
  6
CONTINUOUS
 10
181.5068916636
 20
86.3792785032
  0
VERTEX
  8
0
 62
7
  6
CONTINUOUS
 10
181.5169383622
 20
86.4483005128
  0
VERTEX
  8
0
 62
7
  6
CONTINUOUS
 10
181.5292390739
 20
86.5154443199
  0
VERTEX
  8
0
 62
7
  6
CONTINUOUS
 10
181.543940487
 20
86.5805031768
  0
VERTEX
  8
0
 62
7
  6
CONTINUOUS
 10
181.5613049709
 20
86.6430242818
  0
VERTEX
  8
0
 62
7
  6
CONTINUOUS
 10
181.5814947796
 20
86.7013520439
  0
VERTEX
  8
0
 62
7
  6
CONTINUOUS
 10
181.6053463018
 20
86.7560935846
  0
VERTEX
  8
0
 62
7
  6
CONTINUOUS
 10
181.6327140856
 20
86.8064540097
  0
VERTEX
  8
0
 62
7
  6
CONTINUOUS
 10
181.6629073831
 20
86.8510374273
  0
VERTEX
  8
0
 62
7
  6
CONTINUOUS
 10
181.6954296719
 20
86.8893829875
  0
VERTEX
  8
0
 62
7
  6
CONTINUOUS
 10
181.7304002582
 20
86.9216700787
  0
VERTEX
  8
0
 62
7
  6
CONTINUOUS
 10
181.7676892432
 20
86.9474982691
  0
VERTEX
  8
0
 62
7
  6
CONTINUOUS
 10
181.8072965879
 20
86.9661511011
  0
VERTEX
  8
0
 62
7
  6
CONTINUOUS
 10
181.8483036227
 20
86.9760962095
  0
VERTEX
  8
0
 62
7
  6
CONTINUOUS
 10
181.8674812287
 20
86.9773206493
  0
SEQEND
  0
POLYLINE
  8
0
 62
7
  6
CONTINUOUS
 66
1
 70
0
  0
VERTEX
  8
0
 62
7
  6
CONTINUOUS
 10
181.6653381766
 20
130.4705559503
  0
VERTEX
  8
0
 62
7
  6
CONTINUOUS
 10
181.6693111535
 20
130.1772338315
  0
VERTEX
  8
0
 62
7
  6
CONTINUOUS
 10
181.669437477
 20
130.0976402884
  0
VERTEX
  8
0
 62
7
  6
CONTINUOUS
 10
181.6681587976
 20
130.0185776272
  0
VERTEX
  8
0
 62
7
  6
CONTINUOUS
 10
181.6652723207
 20
129.9403259029
  0
VERTEX
  8
0
 62
7
  6
CONTINUOUS
 10
181.6605569187
 20
129.863107659
  0
VERTEX
  8
0
 62
7
  6
CONTINUOUS
 10
181.6538139982
 20
129.7871426101
  0
VERTEX
  8
0
 62
7
  6
CONTINUOUS
 10
181.644867652
 20
129.7128634654
  0
VERTEX
  8
0
 62
7
  6
CONTINUOUS
 10
181.6335481348
 20
129.640778467
  0
VERTEX
  8
0
 62
7
  6
CONTINUOUS
 10
181.6196567356
 20
129.5706737981
  0
VERTEX
  8
0
 62
7
  6
CONTINUOUS
 10
181.6029568597
 20
129.503023646
  0
VERTEX
  8
0
 62
7
  6
CONTINUOUS
 10
181.5832423179
 20
129.4389554617
  0
VERTEX
  8
0
 62
7
  6
CONTINUOUS
 10
181.5598956403
 20
129.3794656367
  0
VERTEX
  8
0
 62
7
  6
CONTINUOUS
 10
181.5324272171
 20
129.3241966878
  0
VERTEX
  8
0
 62
7
  6
CONTINUOUS
 10
181.5014123405
 20
129.2747521585
  0
VERTEX
  8
0
 62
7
  6
CONTINUOUS
 10
181.4679696545
 20
129.2325731856
  0
VERTEX
  8
0
 62
7
  6
CONTINUOUS
 10
181.4320997632
 20
129.1972988938
  0
VERTEX
  8
0
 62
7
  6
CONTINUOUS
 10
181.3937795878
 20
129.1690030824
  0
VERTEX
  8
0
 62
7
  6
CONTINUOUS
 10
181.3529485873
 20
129.1482929767
  0
VERTEX
  8
0
 62
7
  6
CONTINUOUS
 10
181.3101517646
 20
129.1367047147
  0
VERTEX
  8
0
 62
7
  6
CONTINUOUS
 10
181.2867819663
 20
129.1349382046
  0
SEQEND
  0
LINE
  8
0
 62
7
  6
CONTINUOUS
 10
181.4914939193
 20
85.3626570479
 11
181.4890518647
 21
85.645671217
  0
LINE
  8
0
 62
7
  6
CONTINUOUS
 10
181.6629222022
 20
130.7535776871
 11
181.6653381766
 21
130.4705559503
  0
LINE
  8
0
 62
7
  6
CONTINUOUS
 10
181.4914939193
 20
85.3626570479
 11
181.4920502961
 21
79.8145561074
  0
LINE
  8
0
 62
7
  6
CONTINUOUS
 10
181.6623866099
 20
136.2976658126
 11
181.6629222022
 21
130.7535776871
  0
LINE
  8
0
 62
2
  6
CONTINUOUS
 10
185.877218453
 20
68.0561297186
 11
185.877218453
 21
108.0561297186
  0
LINE
  8
0
 62
7
  6
CONTINUOUS
 10
181.4920502961
 20
79.8145239944
 11
181.4919909701
 21
79.8135159572
  0
LINE
  8
0
 62
7
  6
CONTINUOUS
 10
180.4198463668
 20
75.5216986069
 11
180.4357487412
 21
75.6264241519
  0
POLYLINE
  8
0
 62
7
  6
CONTINUOUS
 66
1
 70
0
  0
VERTEX
  8
0
 62
7
  6
CONTINUOUS
 10
199.5227492792
 20
140.4948964504
  0
VERTEX
  8
0
 62
7
  6
CONTINUOUS
 10
199.3429660039
 20
140.0939472287
  0
VERTEX
  8
0
 62
7
  6
CONTINUOUS
 10
199.1679014658
 20
139.6283341879
  0
VERTEX
  8
0
 62
7
  6
CONTINUOUS
 10
199.0091330639
 20
139.1267097074
  0
VERTEX
  8
0
 62
7
  6
CONTINUOUS
 10
198.8664283181
 20
138.5933735052
  0
VERTEX
  8
0
 62
7
  6
CONTINUOUS
 10
198.7397400845
 20
138.0329824835
  0
VERTEX
  8
0
 62
7
  6
CONTINUOUS
 10
198.6290525535
 20
137.4503716779
  0
VERTEX
  8
0
 62
7
  6
CONTINUOUS
 10
198.5343237022
 20
136.850546751
  0
VERTEX
  8
0
 62
7
  6
CONTINUOUS
 10
198.4624458884
 20
136.2987536296
  0
SEQEND
  0
POLYLINE
  8
0
 62
7
  6
CONTINUOUS
 66
1
 70
0
  0
VERTEX
  8
0
 62
7
  6
CONTINUOUS
 10
164.6919909701
 20
79.8135159572
  0
VERTEX
  8
0
 62
7
  6
CONTINUOUS
 10
164.6861792697
 20
79.8049190593
  0
VERTEX
  8
0
 62
7
  6
CONTINUOUS
 10
164.6670925167
 20
79.7961257408
  0
VERTEX
  8
0
 62
7
  6
CONTINUOUS
 10
164.6358912696
 20
79.789397298
  0
VERTEX
  8
0
 62
7
  6
CONTINUOUS
 10
164.5945727237
 20
79.7850775947
  0
VERTEX
  8
0
 62
7
  6
CONTINUOUS
 10
164.5458763776
 20
79.783288708
  0
VERTEX
  8
0
 62
7
  6
CONTINUOUS
 10
164.4920502961
 20
79.7838483954
  0
SEQEND
  0
POLYLINE
  8
0
 62
7
  6
CONTINUOUS
 66
1
 70
0
  0
VERTEX
  8
0
 62
7
  6
CONTINUOUS
 10
256.8867826663
 20
86.9773212226
  0
VERTEX
  8
0
 62
7
  6
CONTINUOUS
 10
256.9099328831
 20
86.9755868149
  0
VERTEX
  8
0
 62
7
  6
CONTINUOUS
 10
256.952907448
 20
86.9639829886
  0
VERTEX
  8
0
 62
7
  6
CONTINUOUS
 10
256.9940677443
 20
86.9430767385
  0
VERTEX
  8
0
 62
7
  6
CONTINUOUS
 10
257.032681626
 20
86.9144600601
  0
VERTEX
  8
0
 62
7
  6
CONTINUOUS
 10
257.0686733138
 20
86.8788986557
  0
VERTEX
  8
0
 62
7
  6
CONTINUOUS
 10
257.1020119832
 20
86.8366556962
  0
VERTEX
  8
0
 62
7
  6
CONTINUOUS
 10
257.1327463129
 20
86.7874919655
  0
VERTEX
  8
0
 62
7
  6
CONTINUOUS
 10
257.1600265002
 20
86.7324981397
  0
VERTEX
  8
0
 62
7
  6
CONTINUOUS
 10
257.1832501278
 20
86.673281724
  0
VERTEX
  8
0
 62
7
  6
CONTINUOUS
 10
257.2028585055
 20
86.6095692787
  0
VERTEX
  8
0
 62
7
  6
CONTINUOUS
 10
257.2195313242
 20
86.5421497009
  0
VERTEX
  8
0
 62
7
  6
CONTINUOUS
 10
257.2333949502
 20
86.472352439
  0
VERTEX
  8
0
 62
7
  6
CONTINUOUS
 10
257.2447177618
 20
86.4004805628
  0
VERTEX
  8
0
 62
7
  6
CONTINUOUS
 10
257.2536843481
 20
86.3263631266
  0
VERTEX
  8
0
 62
7
  6
CONTINUOUS
 10
257.2604584944
 20
86.250470844
  0
VERTEX
  8
0
 62
7
  6
CONTINUOUS
 10
257.2652094191
 20
86.1732280746
  0
VERTEX
  8
0
 62
7
  6
CONTINUOUS
 10
257.2681285824
 20
86.0948387322
  0
VERTEX
  8
0
 62
7
  6
CONTINUOUS
 10
257.269431226
 20
86.0155089653
  0
VERTEX
  8
0
 62
7
  6
CONTINUOUS
 10
257.269315732
 20
85.9355025335
  0
SEQEND
  0
POLYLINE
  8
0
 62
7
  6
CONTINUOUS
 66
1
 70
0
  0
VERTEX
  8
0
 62
7
  6
CONTINUOUS
 10
191.1345892784
 20
75.5217066944
  0
VERTEX
  8
0
 62
7
  6
CONTINUOUS
 10
191.1622510901
 20
75.3541941252
  0
VERTEX
  8
0
 62
7
  6
CONTINUOUS
 10
191.193155888
 20
75.1891679071
  0
VERTEX
  8
0
 62
7
  6
CONTINUOUS
 10
191.2241046745
 20
75.0453402058
  0
VERTEX
  8
0
 62
7
  6
CONTINUOUS
 10
191.2555138618
 20
74.9193375827
  0
VERTEX
  8
0
 62
7
  6
CONTINUOUS
 10
191.2880970029
 20
74.8077507436
  0
VERTEX
  8
0
 62
7
  6
CONTINUOUS
 10
191.3231120116
 20
74.7068994248
  0
VERTEX
  8
0
 62
7
  6
CONTINUOUS
 10
191.3627955099
 20
74.6126959583
  0
VERTEX
  8
0
 62
7
  6
CONTINUOUS
 10
191.4108226278
 20
74.5212320325
  0
VERTEX
  8
0
 62
7
  6
CONTINUOUS
 10
191.4729322785
 20
74.4296248098
  0
VERTEX
  8
0
 62
7
  6
CONTINUOUS
 10
191.5566612033
 20
74.3383339422
  0
VERTEX
  8
0
 62
7
  6
CONTINUOUS
 10
191.6673066145
 20
74.2548460346
  0
VERTEX
  8
0
 62
7
  6
CONTINUOUS
 10
191.80229628
 20
74.1919023112
  0
VERTEX
  8
0
 62
7
  6
CONTINUOUS
 10
191.9501310693
 20
74.1597601554
  0
VERTEX
  8
0
 62
7
  6
CONTINUOUS
 10
192.0210452118
 20
74.1561298226
  0
SEQEND
  0
LINE
  8
0
 62
7
  6
CONTINUOUS
 10
191.1186881649
 20
75.6264241516
 11
191.1345905392
 21
75.5216986069
  0
POLYLINE
  8
0
 62
7
  6
CONTINUOUS
 66
1
 70
0
  0
VERTEX
  8
0
 62
7
  6
CONTINUOUS
 10
190.0624458851
 20
79.8135058358
  0
VERTEX
  8
0
 62
7
  6
CONTINUOUS
 10
190.1338231402
 20
79.2652144535
  0
VERTEX
  8
0
 62
7
  6
CONTINUOUS
 10
190.2284726015
 20
78.665233038
  0
VERTEX
  8
0
 62
7
  6
CONTINUOUS
 10
190.3390832064
 20
78.0824460736
  0
VERTEX
  8
0
 62
7
  6
CONTINUOUS
 10
190.4656970925
 20
77.5218604073
  0
VERTEX
  8
0
 62
7
  6
CONTINUOUS
 10
190.6083298469
 20
76.9883127289
  0
VERTEX
  8
0
 62
7
  6
CONTINUOUS
 10
190.7670277712
 20
76.4864623509
  0
VERTEX
  8
0
 62
7
  6
CONTINUOUS
 10
190.9420215528
 20
76.0206117455
  0
SEQEND
  0
LINE
  8
0
 62
7
  6
CONTINUOUS
 10
190.0624459147
 20
79.8135117015
 11
190.0623866128
 21
79.8145316132
  0
LINE
  8
0
 62
7
  6
CONTINUOUS
 10
189.891990988
 20
136.298747764
 11
189.8920502932
 21
136.2977278241
  0
POLYLINE
  8
0
 62
7
  6
CONTINUOUS
 66
1
 70
0
  0
VERTEX
  8
0
 62
7
  6
CONTINUOUS
 10
189.8850877911
 20
130.1731280781
  0
VERTEX
  8
0
 62
7
  6
CONTINUOUS
 10
189.8890522676
 20
130.4665920638
  0
VERTEX
  8
0
 62
7
  6
CONTINUOUS
 10
189.8914940115
 20
130.7496042653
  0
VERTEX
  8
0
 62
7
  6
CONTINUOUS
 10
189.8920502961
 20
136.2976658126
  0
SEQEND
  0
POLYLINE
  8
0
 62
7
  6
CONTINUOUS
 66
1
 70
0
  0
VERTEX
  8
0
 62
7
  6
CONTINUOUS
 10
190.069315732
 20
85.9355025335
  0
VERTEX
  8
0
 62
7
  6
CONTINUOUS
 10
190.0653381768
 20
85.6417034364
  0
VERTEX
  8
0
 62
7
  6
CONTINUOUS
 10
190.0629222024
 20
85.3586817758
  0
VERTEX
  8
0
 62
7
  6
CONTINUOUS
 10
190.0623866099
 20
79.8145936247
  0
SEQEND
  0
LINE
  8
0
 62
7
  6
CONTINUOUS
 10
172.211470902
 20
140.0939472287
 11
172.0316876268
 21
140.4948964504
  0
POLYLINE
  8
0
 62
7
  6
CONTINUOUS
 66
1
 70
0
  0
VERTEX
  8
0
 62
7
  6
CONTINUOUS
 10
198.2890518647
 20
85.645671217
  0
VERTEX
  8
0
 62
7
  6
CONTINUOUS
 10
198.2851168981
 20
85.9358864854
  0
VERTEX
  8
0
 62
7
  6
CONTINUOUS
 10
198.2849814826
 20
86.0119913914
  0
VERTEX
  8
0
 62
7
  6
CONTINUOUS
 10
198.2861212722
 20
86.0874894211
  0
VERTEX
  8
0
 62
7
  6
CONTINUOUS
 10
198.2887049368
 20
86.1621545456
  0
VERTEX
  8
0
 62
7
  6
CONTINUOUS
 10
198.2929181886
 20
86.2358028945
  0
VERTEX
  8
0
 62
7
  6
CONTINUOUS
 10
198.2989311994
 20
86.3082801486
  0
VERTEX
  8
0
 62
7
  6
CONTINUOUS
 10
198.3068916636
 20
86.3792785032
  0
VERTEX
  8
0
 62
7
  6
CONTINUOUS
 10
198.3169383622
 20
86.4483005128
  0
VERTEX
  8
0
 62
7
  6
CONTINUOUS
 10
198.3292390739
 20
86.5154443199
  0
VERTEX
  8
0
 62
7
  6
CONTINUOUS
 10
198.343940487
 20
86.5805031768
  0
VERTEX
  8
0
 62
7
  6
CONTINUOUS
 10
198.3613049709
 20
86.6430242818
  0
VERTEX
  8
0
 62
7
  6
CONTINUOUS
 10
198.3814947796
 20
86.7013520439
  0
VERTEX
  8
0
 62
7
  6
CONTINUOUS
 10
198.4053463018
 20
86.7560935846
  0
VERTEX
  8
0
 62
7
  6
CONTINUOUS
 10
198.4327140856
 20
86.8064540097
  0
VERTEX
  8
0
 62
7
  6
CONTINUOUS
 10
198.4629073831
 20
86.8510374273
  0
VERTEX
  8
0
 62
7
  6
CONTINUOUS
 10
198.4954296719
 20
86.8893829875
  0
VERTEX
  8
0
 62
7
  6
CONTINUOUS
 10
198.5304002582
 20
86.9216700787
  0
VERTEX
  8
0
 62
7
  6
CONTINUOUS
 10
198.5676892432
 20
86.9474982691
  0
VERTEX
  8
0
 62
7
  6
CONTINUOUS
 10
198.6072965879
 20
86.9661511011
  0
VERTEX
  8
0
 62
7
  6
CONTINUOUS
 10
198.6483036227
 20
86.9760962095
  0
VERTEX
  8
0
 62
7
  6
CONTINUOUS
 10
198.6674812287
 20
86.9773206493
  0
SEQEND
  0
POLYLINE
  8
0
 62
7
  6
CONTINUOUS
 66
1
 70
0
  0
VERTEX
  8
0
 62
7
  6
CONTINUOUS
 10
198.4653381766
 20
130.4705559503
  0
VERTEX
  8
0
 62
7
  6
CONTINUOUS
 10
198.4693111535
 20
130.1772338315
  0
VERTEX
  8
0
 62
7
  6
CONTINUOUS
 10
198.469437477
 20
130.0976402884
  0
VERTEX
  8
0
 62
7
  6
CONTINUOUS
 10
198.4681587976
 20
130.0185776272
  0
VERTEX
  8
0
 62
7
  6
CONTINUOUS
 10
198.4652723207
 20
129.9403259029
  0
VERTEX
  8
0
 62
7
  6
CONTINUOUS
 10
198.4605569187
 20
129.863107659
  0
VERTEX
  8
0
 62
7
  6
CONTINUOUS
 10
198.4538139982
 20
129.7871426101
  0
VERTEX
  8
0
 62
7
  6
CONTINUOUS
 10
198.444867652
 20
129.7128634654
  0
VERTEX
  8
0
 62
7
  6
CONTINUOUS
 10
198.4335481348
 20
129.640778467
  0
VERTEX
  8
0
 62
7
  6
CONTINUOUS
 10
198.4196567356
 20
129.5706737981
  0
VERTEX
  8
0
 62
7
  6
CONTINUOUS
 10
198.4029568597
 20
129.503023646
  0
VERTEX
  8
0
 62
7
  6
CONTINUOUS
 10
198.3832423179
 20
129.4389554617
  0
VERTEX
  8
0
 62
7
  6
CONTINUOUS
 10
198.3598956403
 20
129.3794656367
  0
VERTEX
  8
0
 62
7
  6
CONTINUOUS
 10
198.3324272171
 20
129.3241966878
  0
VERTEX
  8
0
 62
7
  6
CONTINUOUS
 10
198.3014123405
 20
129.2747521585
  0
VERTEX
  8
0
 62
7
  6
CONTINUOUS
 10
198.2679696545
 20
129.2325731856
  0
VERTEX
  8
0
 62
7
  6
CONTINUOUS
 10
198.2320997632
 20
129.1972988938
  0
VERTEX
  8
0
 62
7
  6
CONTINUOUS
 10
198.1937795878
 20
129.1690030824
  0
VERTEX
  8
0
 62
7
  6
CONTINUOUS
 10
198.1529485873
 20
129.1482929767
  0
VERTEX
  8
0
 62
7
  6
CONTINUOUS
 10
198.1101517646
 20
129.1367047147
  0
VERTEX
  8
0
 62
7
  6
CONTINUOUS
 10
198.0867819663
 20
129.1349382046
  0
SEQEND
  0
LINE
  8
0
 62
7
  6
CONTINUOUS
 10
198.2914939193
 20
85.3626570479
 11
198.2890518647
 21
85.645671217
  0
LINE
  8
0
 62
7
  6
CONTINUOUS
 10
198.4629222022
 20
130.7535776871
 11
198.4653381766
 21
130.4705559503
  0
LINE
  8
0
 62
2
  6
CONTINUOUS
 10
194.277218453
 20
108.0561297186
 11
194.277218453
 21
148.0561297186
  0
LINE
  8
0
 62
7
  6
CONTINUOUS
 10
198.2914939193
 20
85.3626570479
 11
198.2920502961
 21
79.8145561074
  0
LINE
  8
DEFAULT_1
 62
7
  6
CENTER
 10
198.377218453
 20
113.3061297186
 11
198.377218453
 21
110.0562297186
  0
LINE
  8
0
 62
2
  6
CONTINUOUS
 10
198.377218453
 20
109.1061297186
 11
198.377218453
 21
107.0061297186
  0
LINE
  8
0
 62
40
  6
CONTINUOUS
 10
198.377218453
 20
79.7881020183
 11
198.377218453
 21
54.2328297186
  0
LINE
  8
DEFAULT_1
 62
7
  6
CENTER
 10
198.377218453
 20
102.8061297186
 11
198.377218453
 21
106.0560297186
  0
LINE
  8
0
 62
40
  6
CONTINUOUS
 10
198.377218453
 20
136.3241569981
 11
198.377218453
 21
161.8794297186
  0
LINE
  8
0
 62
7
  6
CONTINUOUS
 10
198.4623866099
 20
136.2976658126
 11
198.4629222022
 21
130.7535776871
  0
LINE
  8
0
 62
7
  6
CONTINUOUS
 10
198.462445918
 20
136.298747764
 11
198.4623866128
 21
136.2977278241
  0
LINE
  8
0
 62
7
  6
CONTINUOUS
 10
199.5345906748
 20
140.5905617003
 11
199.5186858903
 21
140.4858343583
  0
POLYLINE
  8
0
 62
7
  6
CONTINUOUS
 66
1
 70
0
  0
VERTEX
  8
0
 62
7
  6
CONTINUOUS
 10
180.43168867
 20
75.617365113
  0
VERTEX
  8
0
 62
7
  6
CONTINUOUS
 10
180.6124153971
 20
76.0206118524
  0
VERTEX
  8
0
 62
7
  6
CONTINUOUS
 10
180.7874092149
 20
76.4864625837
  0
VERTEX
  8
0
 62
7
  6
CONTINUOUS
 10
180.946107168
 20
76.9883131037
  0
VERTEX
  8
0
 62
7
  6
CONTINUOUS
 10
181.0887399436
 20
77.5218609371
  0
VERTEX
  8
0
 62
7
  6
CONTINUOUS
 10
181.2153538435
 20
78.082446768
  0
VERTEX
  8
0
 62
7
  6
CONTINUOUS
 10
181.3259644543
 20
78.665233903
  0
VERTEX
  8
0
 62
7
  6
CONTINUOUS
 10
181.4206139141
 20
79.2652154914
  0
VERTEX
  8
0
 62
7
  6
CONTINUOUS
 10
181.4919910209
 20
79.8135058359
  0
SEQEND
  0
LINE
  8
DEFAULT_1
 62
7
  6
CENTER
 10
203.627218453
 20
108.0561297186
 11
200.377318453
 21
108.0561297186
  0
LINE
  8
0
 62
2
  6
CONTINUOUS
 10
199.427218453
 20
108.0561297186
 11
197.327218453
 21
108.0561297186
  0
LINE
  8
0
 62
2
  6
CONTINUOUS
 10
185.877218453
 20
108.0561297186
 11
193.127218453
 21
108.0561297186
  0
LINE
  8
DEFAULT_1
 62
7
  6
CENTER
 10
193.127218453
 20
108.0561297186
 11
196.377118453
 21
108.0561297186
  0
LINE
  8
0
 62
7
  6
CONTINUOUS
 10
207.7420215528
 20
76.0206117455
 11
207.922748236
 21
75.617365113
  0
POLYLINE
  8
0
 62
7
  6
CONTINUOUS
 66
1
 70
0
  0
VERTEX
  8
0
 62
7
  6
CONTINUOUS
 10
188.8198475104
 20
140.590553495
  0
VERTEX
  8
0
 62
7
  6
CONTINUOUS
 10
188.7919608646
 20
140.7593485483
  0
VERTEX
  8
0
 62
7
  6
CONTINUOUS
 10
188.7611169632
 20
140.9239087647
  0
VERTEX
  8
0
 62
7
  6
CONTINUOUS
 10
188.7302332124
 20
141.0673470412
  0
VERTEX
  8
0
 62
7
  6
CONTINUOUS
 10
188.6988951658
 20
141.1930253417
  0
VERTEX
  8
0
 62
7
  6
CONTINUOUS
 10
188.6663937805
 20
141.304339012
  0
VERTEX
  8
0
 62
7
  6
CONTINUOUS
 10
188.6314814777
 20
141.4049486335
  0
VERTEX
  8
0
 62
7
  6
CONTINUOUS
 10
188.5919448504
 20
141.4989135046
  0
VERTEX
  8
0
 62
7
  6
CONTINUOUS
 10
188.5441562592
 20
141.5901092857
  0
VERTEX
  8
0
 62
7
  6
CONTINUOUS
 10
188.482447216
 20
141.6814214621
  0
VERTEX
  8
0
 62
7
  6
CONTINUOUS
 10
188.3993501486
 20
141.772469216
  0
VERTEX
  8
0
 62
7
  6
CONTINUOUS
 10
188.2895448835
 20
141.8559387751
  0
VERTEX
  8
0
 62
7
  6
CONTINUOUS
 10
188.1553911014
 20
141.9192490822
  0
VERTEX
  8
0
 62
7
  6
CONTINUOUS
 10
188.0081448461
 20
141.9520925576
  0
VERTEX
  8
0
 62
7
  6
CONTINUOUS
 10
187.9333891404
 20
141.9561296117
  0
SEQEND
  0
LINE
  8
0
 62
7
  6
CONTINUOUS
 10
188.8357510157
 20
140.4858343583
 11
188.8198462312
 21
140.5905617003
  0
POLYLINE
  8
0
 62
7
  6
CONTINUOUS
 66
1
 70
0
  0
VERTEX
  8
0
 62
7
  6
CONTINUOUS
 10
189.8919910176
 20
136.2987536296
  0
VERTEX
  8
0
 62
7
  6
CONTINUOUS
 10
189.8201132038
 20
136.850546751
  0
VERTEX
  8
0
 62
7
  6
CONTINUOUS
 10
189.7253843525
 20
137.4503716779
  0
VERTEX
  8
0
 62
7
  6
CONTINUOUS
 10
189.6146968215
 20
138.0329824835
  0
VERTEX
  8
0
 62
7
  6
CONTINUOUS
 10
189.4880085879
 20
138.5933735052
  0
VERTEX
  8
0
 62
7
  6
CONTINUOUS
 10
189.3453038421
 20
139.1267097074
  0
VERTEX
  8
0
 62
7
  6
CONTINUOUS
 10
189.1865354402
 20
139.6283341879
  0
VERTEX
  8
0
 62
7
  6
CONTINUOUS
 10
189.011470902
 20
140.0939472287
  0
SEQEND
  0
LINE
  8
0
 62
7
  6
CONTINUOUS
 10
206.8624459147
 20
79.8135117015
 11
206.8623866128
 21
79.8145316132
  0
LINE
  8
0
 62
7
  6
CONTINUOUS
 10
198.2920502961
 20
79.8145239944
 11
198.2919909701
 21
79.8135159572
  0
LINE
  8
0
 62
7
  6
CONTINUOUS
 10
197.2198463668
 20
75.5216986069
 11
197.2357487412
 21
75.6264241519
  0
POLYLINE
  8
0
 62
7
  6
CONTINUOUS
 66
1
 70
0
  0
VERTEX
  8
0
 62
7
  6
CONTINUOUS
 10
216.3227492792
 20
140.4948964504
  0
VERTEX
  8
0
 62
7
  6
CONTINUOUS
 10
216.1429660039
 20
140.0939472287
  0
VERTEX
  8
0
 62
7
  6
CONTINUOUS
 10
215.9679014658
 20
139.6283341879
  0
VERTEX
  8
0
 62
7
  6
CONTINUOUS
 10
215.8091330639
 20
139.1267097074
  0
VERTEX
  8
0
 62
7
  6
CONTINUOUS
 10
215.6664283181
 20
138.5933735052
  0
VERTEX
  8
0
 62
7
  6
CONTINUOUS
 10
215.5397400845
 20
138.0329824835
  0
VERTEX
  8
0
 62
7
  6
CONTINUOUS
 10
215.4290525535
 20
137.4503716779
  0
VERTEX
  8
0
 62
7
  6
CONTINUOUS
 10
215.3343237022
 20
136.850546751
  0
VERTEX
  8
0
 62
7
  6
CONTINUOUS
 10
215.2624458884
 20
136.2987536296
  0
SEQEND
  0
POLYLINE
  8
0
 62
7
  6
CONTINUOUS
 66
1
 70
0
  0
VERTEX
  8
0
 62
7
  6
CONTINUOUS
 10
181.4919909701
 20
79.8135159572
  0
VERTEX
  8
0
 62
7
  6
CONTINUOUS
 10
181.4861792697
 20
79.8049190593
  0
VERTEX
  8
0
 62
7
  6
CONTINUOUS
 10
181.4670925167
 20
79.7961257408
  0
VERTEX
  8
0
 62
7
  6
CONTINUOUS
 10
181.4358912696
 20
79.789397298
  0
VERTEX
  8
0
 62
7
  6
CONTINUOUS
 10
181.3945727237
 20
79.7850775947
  0
VERTEX
  8
0
 62
7
  6
CONTINUOUS
 10
181.3458763776
 20
79.783288708
  0
VERTEX
  8
0
 62
7
  6
CONTINUOUS
 10
181.2920502961
 20
79.7838483954
  0
SEQEND
  0
LINE
  8
0
 62
7
  6
CONTINUOUS
 10
189.011470902
 20
140.0939472287
 11
188.8316876268
 21
140.4948964504
  0
POLYLINE
  8
0
 62
7
  6
CONTINUOUS
 66
1
 70
0
  0
VERTEX
  8
0
 62
7
  6
CONTINUOUS
 10
207.9345892784
 20
75.5217066944
  0
VERTEX
  8
0
 62
7
  6
CONTINUOUS
 10
207.9622510901
 20
75.3541941252
  0
VERTEX
  8
0
 62
7
  6
CONTINUOUS
 10
207.993155888
 20
75.1891679071
  0
VERTEX
  8
0
 62
7
  6
CONTINUOUS
 10
208.0241046745
 20
75.0453402058
  0
VERTEX
  8
0
 62
7
  6
CONTINUOUS
 10
208.0555138618
 20
74.9193375827
  0
VERTEX
  8
0
 62
7
  6
CONTINUOUS
 10
208.0880970029
 20
74.8077507436
  0
VERTEX
  8
0
 62
7
  6
CONTINUOUS
 10
208.1231120116
 20
74.7068994248
  0
VERTEX
  8
0
 62
7
  6
CONTINUOUS
 10
208.1627955099
 20
74.6126959583
  0
VERTEX
  8
0
 62
7
  6
CONTINUOUS
 10
208.2108226278
 20
74.5212320325
  0
VERTEX
  8
0
 62
7
  6
CONTINUOUS
 10
208.2729322785
 20
74.4296248098
  0
VERTEX
  8
0
 62
7
  6
CONTINUOUS
 10
208.3566612033
 20
74.3383339422
  0
VERTEX
  8
0
 62
7
  6
CONTINUOUS
 10
208.4673066145
 20
74.2548460346
  0
VERTEX
  8
0
 62
7
  6
CONTINUOUS
 10
208.60229628
 20
74.1919023112
  0
VERTEX
  8
0
 62
7
  6
CONTINUOUS
 10
208.7501310693
 20
74.1597601554
  0
VERTEX
  8
0
 62
7
  6
CONTINUOUS
 10
208.8202304503
 20
74.1561301525
  0
SEQEND
  0
LINE
  8
0
 62
7
  6
CONTINUOUS
 10
207.9186881649
 20
75.6264241516
 11
207.9345905392
 21
75.5216986069
  0
POLYLINE
  8
0
 62
7
  6
CONTINUOUS
 66
1
 70
0
  0
VERTEX
  8
0
 62
7
  6
CONTINUOUS
 10
206.8624458851
 20
79.8135058358
  0
VERTEX
  8
0
 62
7
  6
CONTINUOUS
 10
206.9338231402
 20
79.2652144535
  0
VERTEX
  8
0
 62
7
  6
CONTINUOUS
 10
207.0284726015
 20
78.665233038
  0
VERTEX
  8
0
 62
7
  6
CONTINUOUS
 10
207.1390832064
 20
78.0824460735
  0
VERTEX
  8
0
 62
7
  6
CONTINUOUS
 10
207.2656970925
 20
77.5218604073
  0
VERTEX
  8
0
 62
7
  6
CONTINUOUS
 10
207.4083298469
 20
76.9883127289
  0
VERTEX
  8
0
 62
7
  6
CONTINUOUS
 10
207.5670277712
 20
76.4864623509
  0
VERTEX
  8
0
 62
7
  6
CONTINUOUS
 10
207.7420215528
 20
76.0206117455
  0
SEQEND
  0
LINE
  8
0
 62
7
  6
CONTINUOUS
 10
206.691990988
 20
136.298747764
 11
206.6920502932
 21
136.2977278241
  0
POLYLINE
  8
0
 62
7
  6
CONTINUOUS
 66
1
 70
0
  0
VERTEX
  8
0
 62
7
  6
CONTINUOUS
 10
206.6850877911
 20
130.1731280781
  0
VERTEX
  8
0
 62
7
  6
CONTINUOUS
 10
206.6890522676
 20
130.4665920638
  0
VERTEX
  8
0
 62
7
  6
CONTINUOUS
 10
206.6914940115
 20
130.7496042653
  0
VERTEX
  8
0
 62
7
  6
CONTINUOUS
 10
206.6920502961
 20
136.2976658126
  0
SEQEND
  0
POLYLINE
  8
0
 62
7
  6
CONTINUOUS
 66
1
 70
0
  0
VERTEX
  8
0
 62
7
  6
CONTINUOUS
 10
206.869315732
 20
85.9355025335
  0
VERTEX
  8
0
 62
7
  6
CONTINUOUS
 10
206.8653381768
 20
85.6417034364
  0
VERTEX
  8
0
 62
7
  6
CONTINUOUS
 10
206.8629222024
 20
85.3586817758
  0
VERTEX
  8
0
 62
7
  6
CONTINUOUS
 10
206.8623866099
 20
79.8145936247
  0
SEQEND
  0
LINE
  8
0
 62
7
  6
CONTINUOUS
 10
216.3345906748
 20
140.5905617003
 11
216.3186858903
 21
140.4858343583
  0
POLYLINE
  8
0
 62
7
  6
CONTINUOUS
 66
1
 70
0
  0
VERTEX
  8
0
 62
7
  6
CONTINUOUS
 10
197.23168867
 20
75.617365113
  0
VERTEX
  8
0
 62
7
  6
CONTINUOUS
 10
197.4124153971
 20
76.0206118524
  0
VERTEX
  8
0
 62
7
  6
CONTINUOUS
 10
197.5874092149
 20
76.4864625837
  0
VERTEX
  8
0
 62
7
  6
CONTINUOUS
 10
197.746107168
 20
76.9883131037
  0
VERTEX
  8
0
 62
7
  6
CONTINUOUS
 10
197.8887399436
 20
77.5218609371
  0
VERTEX
  8
0
 62
7
  6
CONTINUOUS
 10
198.0153538435
 20
78.082446768
  0
VERTEX
  8
0
 62
7
  6
CONTINUOUS
 10
198.1259644543
 20
78.665233903
  0
VERTEX
  8
0
 62
7
  6
CONTINUOUS
 10
198.2206139141
 20
79.2652154914
  0
VERTEX
  8
0
 62
7
  6
CONTINUOUS
 10
198.2919910209
 20
79.8135058359
  0
SEQEND
  0
LINE
  8
0
 62
7
  6
CONTINUOUS
 10
224.5420215528
 20
76.0206117455
 11
224.722748236
 21
75.617365113
  0
POLYLINE
  8
0
 62
7
  6
CONTINUOUS
 66
1
 70
0
  0
VERTEX
  8
0
 62
7
  6
CONTINUOUS
 10
205.6198475104
 20
140.590553495
  0
VERTEX
  8
0
 62
7
  6
CONTINUOUS
 10
205.5919608646
 20
140.7593485483
  0
VERTEX
  8
0
 62
7
  6
CONTINUOUS
 10
205.5611169632
 20
140.9239087647
  0
VERTEX
  8
0
 62
7
  6
CONTINUOUS
 10
205.5302332124
 20
141.0673470412
  0
VERTEX
  8
0
 62
7
  6
CONTINUOUS
 10
205.4988951658
 20
141.1930253417
  0
VERTEX
  8
0
 62
7
  6
CONTINUOUS
 10
205.4663937805
 20
141.304339012
  0
VERTEX
  8
0
 62
7
  6
CONTINUOUS
 10
205.4314814777
 20
141.4049486335
  0
VERTEX
  8
0
 62
7
  6
CONTINUOUS
 10
205.3919448504
 20
141.4989135046
  0
VERTEX
  8
0
 62
7
  6
CONTINUOUS
 10
205.3441562592
 20
141.5901092857
  0
VERTEX
  8
0
 62
7
  6
CONTINUOUS
 10
205.282447216
 20
141.6814214621
  0
VERTEX
  8
0
 62
7
  6
CONTINUOUS
 10
205.1993501486
 20
141.772469216
  0
VERTEX
  8
0
 62
7
  6
CONTINUOUS
 10
205.0895448835
 20
141.8559387751
  0
VERTEX
  8
0
 62
7
  6
CONTINUOUS
 10
204.9553911014
 20
141.9192490822
  0
VERTEX
  8
0
 62
7
  6
CONTINUOUS
 10
204.8081448461
 20
141.9520925576
  0
VERTEX
  8
0
 62
7
  6
CONTINUOUS
 10
204.7333891404
 20
141.9561296117
  0
SEQEND
  0
LINE
  8
0
 62
7
  6
CONTINUOUS
 10
205.6357510157
 20
140.4858343583
 11
205.6198462312
 21
140.5905617003
  0
POLYLINE
  8
0
 62
7
  6
CONTINUOUS
 66
1
 70
0
  0
VERTEX
  8
0
 62
7
  6
CONTINUOUS
 10
206.6919910176
 20
136.2987536296
  0
VERTEX
  8
0
 62
7
  6
CONTINUOUS
 10
206.6201132038
 20
136.850546751
  0
VERTEX
  8
0
 62
7
  6
CONTINUOUS
 10
206.5253843525
 20
137.4503716779
  0
VERTEX
  8
0
 62
7
  6
CONTINUOUS
 10
206.4146968215
 20
138.0329824835
  0
VERTEX
  8
0
 62
7
  6
CONTINUOUS
 10
206.2880085879
 20
138.5933735052
  0
VERTEX
  8
0
 62
7
  6
CONTINUOUS
 10
206.1453038421
 20
139.1267097074
  0
VERTEX
  8
0
 62
7
  6
CONTINUOUS
 10
205.9865354402
 20
139.6283341879
  0
VERTEX
  8
0
 62
7
  6
CONTINUOUS
 10
205.811470902
 20
140.0939472287
  0
SEQEND
  0
POLYLINE
  8
0
 62
7
  6
CONTINUOUS
 66
1
 70
0
  0
VERTEX
  8
0
 62
7
  6
CONTINUOUS
 10
215.0890518647
 20
85.645671217
  0
VERTEX
  8
0
 62
7
  6
CONTINUOUS
 10
215.0851168981
 20
85.9358864854
  0
VERTEX
  8
0
 62
7
  6
CONTINUOUS
 10
215.0849814826
 20
86.0119913914
  0
VERTEX
  8
0
 62
7
  6
CONTINUOUS
 10
215.0861212722
 20
86.0874894211
  0
VERTEX
  8
0
 62
7
  6
CONTINUOUS
 10
215.0887049368
 20
86.1621545456
  0
VERTEX
  8
0
 62
7
  6
CONTINUOUS
 10
215.0929181886
 20
86.2358028945
  0
VERTEX
  8
0
 62
7
  6
CONTINUOUS
 10
215.0989311994
 20
86.3082801486
  0
VERTEX
  8
0
 62
7
  6
CONTINUOUS
 10
215.1068916636
 20
86.3792785032
  0
VERTEX
  8
0
 62
7
  6
CONTINUOUS
 10
215.1169383622
 20
86.4483005128
  0
VERTEX
  8
0
 62
7
  6
CONTINUOUS
 10
215.1292390739
 20
86.5154443199
  0
VERTEX
  8
0
 62
7
  6
CONTINUOUS
 10
215.143940487
 20
86.5805031768
  0
VERTEX
  8
0
 62
7
  6
CONTINUOUS
 10
215.1613049709
 20
86.6430242818
  0
VERTEX
  8
0
 62
7
  6
CONTINUOUS
 10
215.1814947796
 20
86.7013520439
  0
VERTEX
  8
0
 62
7
  6
CONTINUOUS
 10
215.2053463018
 20
86.7560935846
  0
VERTEX
  8
0
 62
7
  6
CONTINUOUS
 10
215.2327140856
 20
86.8064540097
  0
VERTEX
  8
0
 62
7
  6
CONTINUOUS
 10
215.2629073831
 20
86.8510374273
  0
VERTEX
  8
0
 62
7
  6
CONTINUOUS
 10
215.2954296719
 20
86.8893829875
  0
VERTEX
  8
0
 62
7
  6
CONTINUOUS
 10
215.3304002582
 20
86.9216700787
  0
VERTEX
  8
0
 62
7
  6
CONTINUOUS
 10
215.3676892432
 20
86.9474982691
  0
VERTEX
  8
0
 62
7
  6
CONTINUOUS
 10
215.4072965879
 20
86.9661511011
  0
VERTEX
  8
0
 62
7
  6
CONTINUOUS
 10
215.4483036227
 20
86.9760962095
  0
VERTEX
  8
0
 62
7
  6
CONTINUOUS
 10
215.4674812287
 20
86.9773206493
  0
SEQEND
  0
POLYLINE
  8
0
 62
7
  6
CONTINUOUS
 66
1
 70
0
  0
VERTEX
  8
0
 62
7
  6
CONTINUOUS
 10
215.2653381766
 20
130.4705559503
  0
VERTEX
  8
0
 62
7
  6
CONTINUOUS
 10
215.2693111535
 20
130.1772338315
  0
VERTEX
  8
0
 62
7
  6
CONTINUOUS
 10
215.269437477
 20
130.0976402884
  0
VERTEX
  8
0
 62
7
  6
CONTINUOUS
 10
215.2681587976
 20
130.0185776272
  0
VERTEX
  8
0
 62
7
  6
CONTINUOUS
 10
215.2652723207
 20
129.9403259029
  0
VERTEX
  8
0
 62
7
  6
CONTINUOUS
 10
215.2605569187
 20
129.863107659
  0
VERTEX
  8
0
 62
7
  6
CONTINUOUS
 10
215.2538139982
 20
129.7871426101
  0
VERTEX
  8
0
 62
7
  6
CONTINUOUS
 10
215.244867652
 20
129.7128634654
  0
VERTEX
  8
0
 62
7
  6
CONTINUOUS
 10
215.2335481348
 20
129.640778467
  0
VERTEX
  8
0
 62
7
  6
CONTINUOUS
 10
215.2196567356
 20
129.5706737981
  0
VERTEX
  8
0
 62
7
  6
CONTINUOUS
 10
215.2029568597
 20
129.503023646
  0
VERTEX
  8
0
 62
7
  6
CONTINUOUS
 10
215.1832423179
 20
129.4389554617
  0
VERTEX
  8
0
 62
7
  6
CONTINUOUS
 10
215.1598956403
 20
129.3794656367
  0
VERTEX
  8
0
 62
7
  6
CONTINUOUS
 10
215.1324272171
 20
129.3241966878
  0
VERTEX
  8
0
 62
7
  6
CONTINUOUS
 10
215.1014123405
 20
129.2747521585
  0
VERTEX
  8
0
 62
7
  6
CONTINUOUS
 10
215.0679696545
 20
129.2325731856
  0
VERTEX
  8
0
 62
7
  6
CONTINUOUS
 10
215.0320997632
 20
129.1972988938
  0
VERTEX
  8
0
 62
7
  6
CONTINUOUS
 10
214.9937795878
 20
129.1690030824
  0
VERTEX
  8
0
 62
7
  6
CONTINUOUS
 10
214.9529485873
 20
129.1482929767
  0
VERTEX
  8
0
 62
7
  6
CONTINUOUS
 10
214.9101517646
 20
129.1367047147
  0
VERTEX
  8
0
 62
7
  6
CONTINUOUS
 10
214.8867819663
 20
129.1349382046
  0
SEQEND
  0
LINE
  8
0
 62
7
  6
CONTINUOUS
 10
215.0914939193
 20
85.3626570479
 11
215.0890518647
 21
85.645671217
  0
LINE
  8
0
 62
7
  6
CONTINUOUS
 10
215.2629222022
 20
130.7535776871
 11
215.2653381766
 21
130.4705559503
  0
LINE
  8
0
 62
7
  6
CONTINUOUS
 10
215.0914939193
 20
85.3626570479
 11
215.0920502961
 21
79.8145561074
  0
LINE
  8
0
 62
7
  6
CONTINUOUS
 10
215.2623866099
 20
136.2976658126
 11
215.2629222022
 21
130.7535776871
  0
LINE
  8
0
 62
7
  6
CONTINUOUS
 10
215.262445918
 20
136.298747764
 11
215.2623866128
 21
136.2977278241
  0
LINE
  8
0
 62
7
  6
CONTINUOUS
 10
215.0920502961
 20
79.8145239944
 11
215.0919909701
 21
79.8135159572
  0
POLYLINE
  8
0
 62
7
  6
CONTINUOUS
 66
1
 70
0
  0
VERTEX
  8
0
 62
7
  6
CONTINUOUS
 10
233.1227492792
 20
140.4948964504
  0
VERTEX
  8
0
 62
7
  6
CONTINUOUS
 10
232.9429660039
 20
140.0939472287
  0
VERTEX
  8
0
 62
7
  6
CONTINUOUS
 10
232.7679014658
 20
139.6283341879
  0
VERTEX
  8
0
 62
7
  6
CONTINUOUS
 10
232.6091330639
 20
139.1267097074
  0
VERTEX
  8
0
 62
7
  6
CONTINUOUS
 10
232.4664283181
 20
138.5933735052
  0
VERTEX
  8
0
 62
7
  6
CONTINUOUS
 10
232.3397400845
 20
138.0329824835
  0
VERTEX
  8
0
 62
7
  6
CONTINUOUS
 10
232.2290525535
 20
137.4503716779
  0
VERTEX
  8
0
 62
7
  6
CONTINUOUS
 10
232.1343237022
 20
136.850546751
  0
VERTEX
  8
0
 62
7
  6
CONTINUOUS
 10
232.0624458884
 20
136.2987536296
  0
SEQEND
  0
POLYLINE
  8
0
 62
7
  6
CONTINUOUS
 66
1
 70
0
  0
VERTEX
  8
0
 62
7
  6
CONTINUOUS
 10
198.2919909701
 20
79.8135159572
  0
VERTEX
  8
0
 62
7
  6
CONTINUOUS
 10
198.2861792697
 20
79.8049190593
  0
VERTEX
  8
0
 62
7
  6
CONTINUOUS
 10
198.2670925167
 20
79.7961257408
  0
VERTEX
  8
0
 62
7
  6
CONTINUOUS
 10
198.2358912696
 20
79.789397298
  0
VERTEX
  8
0
 62
7
  6
CONTINUOUS
 10
198.1945727237
 20
79.7850775947
  0
VERTEX
  8
0
 62
7
  6
CONTINUOUS
 10
198.1458763776
 20
79.783288708
  0
VERTEX
  8
0
 62
7
  6
CONTINUOUS
 10
198.0920502961
 20
79.7838483954
  0
SEQEND
  0
POLYLINE
  8
0
 62
7
  6
CONTINUOUS
 66
1
 70
0
  0
VERTEX
  8
0
 62
7
  6
CONTINUOUS
 10
139.8674821437
 20
129.13493881
  0
VERTEX
  8
0
 62
7
  6
CONTINUOUS
 10
139.8460611157
 20
129.1364535564
  0
VERTEX
  8
0
 62
7
  6
CONTINUOUS
 10
139.8032365074
 20
129.1476156961
  0
VERTEX
  8
0
 62
7
  6
CONTINUOUS
 10
139.762282494
 20
129.1679974956
  0
VERTEX
  8
0
 62
7
  6
CONTINUOUS
 10
139.7237987724
 20
129.1960512934
  0
VERTEX
  8
0
 62
7
  6
CONTINUOUS
 10
139.6877758842
 20
129.2311182786
  0
VERTEX
  8
0
 62
7
  6
CONTINUOUS
 10
139.6542059609
 20
129.273083936
  0
VERTEX
  8
0
 62
7
  6
CONTINUOUS
 10
139.6230724086
 20
129.322300801
  0
VERTEX
  8
0
 62
7
  6
CONTINUOUS
 10
139.5954797932
 20
129.3773481271
  0
VERTEX
  8
0
 62
7
  6
CONTINUOUS
 10
139.5719994384
 20
129.4366511545
  0
VERTEX
  8
0
 62
7
  6
CONTINUOUS
 10
139.5522013884
 20
129.5004283981
  0
VERTEX
  8
0
 62
7
  6
CONTINUOUS
 10
139.5353892964
 20
129.5679284411
  0
VERTEX
  8
0
 62
7
  6
CONTINUOUS
 10
139.5214162071
 20
129.6378071449
  0
VERTEX
  8
0
 62
7
  6
CONTINUOUS
 10
139.5100058865
 20
129.709716867
  0
VERTEX
  8
0
 62
7
  6
CONTINUOUS
 10
139.5009715644
 20
129.7838093031
  0
VERTEX
  8
0
 62
7
  6
CONTINUOUS
 10
139.4941431179
 20
129.8595972243
  0
VERTEX
  8
0
 62
7
  6
CONTINUOUS
 10
139.4893448348
 20
129.936647372
  0
VERTEX
  8
0
 62
7
  6
CONTINUOUS
 10
139.4863798261
 20
130.0147398994
  0
VERTEX
  8
0
 62
7
  6
CONTINUOUS
 10
139.4850285159
 20
130.0936580284
  0
VERTEX
  8
0
 62
7
  6
CONTINUOUS
 10
139.4850877911
 20
130.1731280781
  0
SEQEND
  0
POLYLINE
  8
0
 62
7
  6
CONTINUOUS
 66
1
 70
0
  0
VERTEX
  8
0
 62
7
  6
CONTINUOUS
 10
156.6674821437
 20
129.13493881
  0
VERTEX
  8
0
 62
7
  6
CONTINUOUS
 10
156.6460611157
 20
129.1364535564
  0
VERTEX
  8
0
 62
7
  6
CONTINUOUS
 10
156.6032365074
 20
129.1476156961
  0
VERTEX
  8
0
 62
7
  6
CONTINUOUS
 10
156.562282494
 20
129.1679974956
  0
VERTEX
  8
0
 62
7
  6
CONTINUOUS
 10
156.5237987724
 20
129.1960512934
  0
VERTEX
  8
0
 62
7
  6
CONTINUOUS
 10
156.4877758842
 20
129.2311182786
  0
VERTEX
  8
0
 62
7
  6
CONTINUOUS
 10
156.4542059609
 20
129.273083936
  0
VERTEX
  8
0
 62
7
  6
CONTINUOUS
 10
156.4230724086
 20
129.322300801
  0
VERTEX
  8
0
 62
7
  6
CONTINUOUS
 10
156.3954797932
 20
129.3773481271
  0
VERTEX
  8
0
 62
7
  6
CONTINUOUS
 10
156.3719994384
 20
129.4366511545
  0
VERTEX
  8
0
 62
7
  6
CONTINUOUS
 10
156.3522013884
 20
129.5004283981
  0
VERTEX
  8
0
 62
7
  6
CONTINUOUS
 10
156.3353892964
 20
129.5679284411
  0
VERTEX
  8
0
 62
7
  6
CONTINUOUS
 10
156.3214162071
 20
129.6378071449
  0
VERTEX
  8
0
 62
7
  6
CONTINUOUS
 10
156.3100058865
 20
129.709716867
  0
VERTEX
  8
0
 62
7
  6
CONTINUOUS
 10
156.3009715644
 20
129.7838093031
  0
VERTEX
  8
0
 62
7
  6
CONTINUOUS
 10
156.2941431179
 20
129.8595972243
  0
VERTEX
  8
0
 62
7
  6
CONTINUOUS
 10
156.2893448348
 20
129.936647372
  0
VERTEX
  8
0
 62
7
  6
CONTINUOUS
 10
156.2863798261
 20
130.0147398994
  0
VERTEX
  8
0
 62
7
  6
CONTINUOUS
 10
156.2850285159
 20
130.0936580284
  0
VERTEX
  8
0
 62
7
  6
CONTINUOUS
 10
156.2850877911
 20
130.1731280781
  0
SEQEND
  0
POLYLINE
  8
0
 62
7
  6
CONTINUOUS
 66
1
 70
0
  0
VERTEX
  8
0
 62
7
  6
CONTINUOUS
 10
173.4674821437
 20
129.13493881
  0
VERTEX
  8
0
 62
7
  6
CONTINUOUS
 10
173.4460611157
 20
129.1364535564
  0
VERTEX
  8
0
 62
7
  6
CONTINUOUS
 10
173.4032365074
 20
129.1476156961
  0
VERTEX
  8
0
 62
7
  6
CONTINUOUS
 10
173.362282494
 20
129.1679974956
  0
VERTEX
  8
0
 62
7
  6
CONTINUOUS
 10
173.3237987724
 20
129.1960512934
  0
VERTEX
  8
0
 62
7
  6
CONTINUOUS
 10
173.2877758842
 20
129.2311182786
  0
VERTEX
  8
0
 62
7
  6
CONTINUOUS
 10
173.2542059609
 20
129.273083936
  0
VERTEX
  8
0
 62
7
  6
CONTINUOUS
 10
173.2230724086
 20
129.322300801
  0
VERTEX
  8
0
 62
7
  6
CONTINUOUS
 10
173.1954797932
 20
129.3773481271
  0
VERTEX
  8
0
 62
7
  6
CONTINUOUS
 10
173.1719994384
 20
129.4366511545
  0
VERTEX
  8
0
 62
7
  6
CONTINUOUS
 10
173.1522013884
 20
129.5004283981
  0
VERTEX
  8
0
 62
7
  6
CONTINUOUS
 10
173.1353892964
 20
129.5679284411
  0
VERTEX
  8
0
 62
7
  6
CONTINUOUS
 10
173.1214162071
 20
129.6378071449
  0
VERTEX
  8
0
 62
7
  6
CONTINUOUS
 10
173.1100058865
 20
129.709716867
  0
VERTEX
  8
0
 62
7
  6
CONTINUOUS
 10
173.1009715644
 20
129.7838093031
  0
VERTEX
  8
0
 62
7
  6
CONTINUOUS
 10
173.0941431179
 20
129.8595972243
  0
VERTEX
  8
0
 62
7
  6
CONTINUOUS
 10
173.0893448348
 20
129.936647372
  0
VERTEX
  8
0
 62
7
  6
CONTINUOUS
 10
173.0863798261
 20
130.0147398994
  0
VERTEX
  8
0
 62
7
  6
CONTINUOUS
 10
173.0850285159
 20
130.0936580284
  0
VERTEX
  8
0
 62
7
  6
CONTINUOUS
 10
173.0850877911
 20
130.1731280781
  0
SEQEND
  0
LINE
  8
0
 62
7
  6
CONTINUOUS
 10
223.6624459147
 20
79.8135117015
 11
223.6623866128
 21
79.8145316132
  0
POLYLINE
  8
0
 62
7
  6
CONTINUOUS
 66
1
 70
0
  0
VERTEX
  8
0
 62
7
  6
CONTINUOUS
 10
223.4850877911
 20
130.1731280781
  0
VERTEX
  8
0
 62
7
  6
CONTINUOUS
 10
223.4890522676
 20
130.4665920638
  0
VERTEX
  8
0
 62
7
  6
CONTINUOUS
 10
223.4914940115
 20
130.7496042653
  0
VERTEX
  8
0
 62
7
  6
CONTINUOUS
 10
223.4920502961
 20
136.2976658126
  0
SEQEND
  0
POLYLINE
  8
0
 62
7
  6
CONTINUOUS
 66
1
 70
0
  0
VERTEX
  8
0
 62
7
  6
CONTINUOUS
 10
223.669315732
 20
85.9355025335
  0
VERTEX
  8
0
 62
7
  6
CONTINUOUS
 10
223.6653381768
 20
85.6417034364
  0
VERTEX
  8
0
 62
7
  6
CONTINUOUS
 10
223.6629222024
 20
85.3586817758
  0
VERTEX
  8
0
 62
7
  6
CONTINUOUS
 10
223.6623866099
 20
79.8145936247
  0
SEQEND
  0
LINE
  8
0
 62
7
  6
CONTINUOUS
 10
214.0198463668
 20
75.5216986069
 11
214.0357487412
 21
75.6264241519
  0
LINE
  8
0
 62
7
  6
CONTINUOUS
 10
265.2879605807
 20
128.8850163625
 11
265.2078506419
 21
128.8847401339
  0
LINE
  8
0
 62
7
  6
CONTINUOUS
 10
248.4879605807
 20
128.8850163625
 11
248.4078506419
 21
128.8847401339
  0
LINE
  8
0
 62
7
  6
CONTINUOUS
 10
231.6879605807
 20
128.8850163625
 11
231.6078506419
 21
128.8847401339
  0
LINE
  8
0
 62
7
  6
CONTINUOUS
 10
214.8879605807
 20
128.8850163625
 11
214.8078506419
 21
128.8847401339
  0
LINE
  8
0
 62
7
  6
CONTINUOUS
 10
198.0879605807
 20
128.8850163625
 11
198.0078506419
 21
128.8847401339
  0
LINE
  8
0
 62
7
  6
CONTINUOUS
 10
181.2879605807
 20
128.8850163625
 11
181.2078506419
 21
128.8847401339
  0
LINE
  8
0
 62
7
  6
CONTINUOUS
 10
164.4879605807
 20
128.8850163625
 11
164.4078506419
 21
128.8847401339
  0
LINE
  8
0
 62
7
  6
CONTINUOUS
 10
147.6879605807
 20
128.8850163625
 11
147.6078506419
 21
128.8847401339
  0
LINE
  8
0
 62
7
  6
CONTINUOUS
 10
130.8879605807
 20
128.8850163625
 11
130.8078506419
 21
128.8847401339
  0
LINE
  8
0
 62
6
  6
CONTINUOUS
 10
265.2879605552
 20
129.0120904492
 11
265.2078506861
 21
129.0118206195
  0
LINE
  8
0
 62
7
  6
CONTINUOUS
 10
265.2867820114
 20
129.1349683841
 11
257.5465868104
 21
129.1347401339
  0
LINE
  8
0
 62
7
  6
CONTINUOUS
 10
248.4867820114
 20
129.1349683841
 11
240.7465868104
 21
129.1347401339
  0
LINE
  8
0
 62
7
  6
CONTINUOUS
 10
231.6867820114
 20
129.1349683841
 11
223.9465868104
 21
129.1347401339
  0
LINE
  8
0
 62
7
  6
CONTINUOUS
 10
214.8867820114
 20
129.1349683841
 11
207.1465868104
 21
129.1347401339
  0
LINE
  8
0
 62
7
  6
CONTINUOUS
 10
198.0867820114
 20
129.1349683841
 11
190.3465868104
 21
129.1347401339
  0
LINE
  8
0
 62
7
  6
CONTINUOUS
 10
181.2867820114
 20
129.1349683841
 11
173.5465868104
 21
129.1347401339
  0
LINE
  8
0
 62
7
  6
CONTINUOUS
 10
164.4867820114
 20
129.1349683841
 11
156.7465868104
 21
129.1347401339
  0
LINE
  8
0
 62
7
  6
CONTINUOUS
 10
147.6867820114
 20
129.1349683841
 11
139.9465868104
 21
129.1347401339
  0
LINE
  8
0
 62
7
  6
CONTINUOUS
 10
130.8867820114
 20
129.1349683841
 11
123.077218453
 21
129.1347401339
  0
LINE
  8
DEFAULT_1
 62
7
  6
CENTER
 10
120.677218453
 20
133.4561297186
 11
276.077218453
 21
133.4561297186
  0
LINE
  8
0
 62
7
  6
CONTINUOUS
 10
139.9465868109
 20
129.1347401339
 11
139.8674824311
 21
129.1349386154
  0
LINE
  8
0
 62
7
  6
CONTINUOUS
 10
156.7465868109
 20
129.1347401339
 11
156.6674824311
 21
129.1349386154
  0
LINE
  8
0
 62
7
  6
CONTINUOUS
 10
173.5465868109
 20
129.1347401339
 11
173.4674824311
 21
129.1349386154
  0
LINE
  8
0
 62
7
  6
CONTINUOUS
 10
190.3465868109
 20
129.1347401339
 11
190.2674824311
 21
129.1349386154
  0
LINE
  8
0
 62
7
  6
CONTINUOUS
 10
207.1465868109
 20
129.1347401339
 11
207.0674824311
 21
129.1349386154
  0
LINE
  8
0
 62
7
  6
CONTINUOUS
 10
223.9465868109
 20
129.1347401339
 11
223.8674824311
 21
129.1349386154
  0
LINE
  8
0
 62
7
  6
CONTINUOUS
 10
240.7465868109
 20
129.1347401339
 11
240.6674824311
 21
129.1349386154
  0
LINE
  8
0
 62
7
  6
CONTINUOUS
 10
257.5465868109
 20
129.1347401339
 11
257.4674824311
 21
129.1349386154
  0
POLYLINE
  8
0
 62
7
  6
CONTINUOUS
 66
1
 70
0
  0
VERTEX
  8
0
 62
7
  6
CONTINUOUS
 10
190.2674821437
 20
129.13493881
  0
VERTEX
  8
0
 62
7
  6
CONTINUOUS
 10
190.2460611157
 20
129.1364535564
  0
VERTEX
  8
0
 62
7
  6
CONTINUOUS
 10
190.2032365074
 20
129.1476156961
  0
VERTEX
  8
0
 62
7
  6
CONTINUOUS
 10
190.162282494
 20
129.1679974956
  0
VERTEX
  8
0
 62
7
  6
CONTINUOUS
 10
190.1237987724
 20
129.1960512934
  0
VERTEX
  8
0
 62
7
  6
CONTINUOUS
 10
190.0877758842
 20
129.2311182786
  0
VERTEX
  8
0
 62
7
  6
CONTINUOUS
 10
190.0542059609
 20
129.273083936
  0
VERTEX
  8
0
 62
7
  6
CONTINUOUS
 10
190.0230724086
 20
129.322300801
  0
VERTEX
  8
0
 62
7
  6
CONTINUOUS
 10
189.9954797932
 20
129.3773481271
  0
VERTEX
  8
0
 62
7
  6
CONTINUOUS
 10
189.9719994384
 20
129.4366511545
  0
VERTEX
  8
0
 62
7
  6
CONTINUOUS
 10
189.9522013884
 20
129.5004283981
  0
VERTEX
  8
0
 62
7
  6
CONTINUOUS
 10
189.9353892964
 20
129.5679284411
  0
VERTEX
  8
0
 62
7
  6
CONTINUOUS
 10
189.9214162071
 20
129.6378071449
  0
VERTEX
  8
0
 62
7
  6
CONTINUOUS
 10
189.9100058865
 20
129.709716867
  0
VERTEX
  8
0
 62
7
  6
CONTINUOUS
 10
189.9009715644
 20
129.7838093031
  0
VERTEX
  8
0
 62
7
  6
CONTINUOUS
 10
189.8941431179
 20
129.8595972243
  0
VERTEX
  8
0
 62
7
  6
CONTINUOUS
 10
189.8893448348
 20
129.936647372
  0
VERTEX
  8
0
 62
7
  6
CONTINUOUS
 10
189.8863798261
 20
130.0147398994
  0
VERTEX
  8
0
 62
7
  6
CONTINUOUS
 10
189.8850285159
 20
130.0936580284
  0
VERTEX
  8
0
 62
7
  6
CONTINUOUS
 10
189.8850877911
 20
130.1731280781
  0
SEQEND
  0
POLYLINE
  8
0
 62
7
  6
CONTINUOUS
 66
1
 70
0
  0
VERTEX
  8
0
 62
7
  6
CONTINUOUS
 10
207.0674821437
 20
129.13493881
  0
VERTEX
  8
0
 62
7
  6
CONTINUOUS
 10
207.0460611157
 20
129.1364535564
  0
VERTEX
  8
0
 62
7
  6
CONTINUOUS
 10
207.0032365074
 20
129.1476156961
  0
VERTEX
  8
0
 62
7
  6
CONTINUOUS
 10
206.962282494
 20
129.1679974956
  0
VERTEX
  8
0
 62
7
  6
CONTINUOUS
 10
206.9237987724
 20
129.1960512934
  0
VERTEX
  8
0
 62
7
  6
CONTINUOUS
 10
206.8877758842
 20
129.2311182786
  0
VERTEX
  8
0
 62
7
  6
CONTINUOUS
 10
206.8542059609
 20
129.273083936
  0
VERTEX
  8
0
 62
7
  6
CONTINUOUS
 10
206.8230724086
 20
129.322300801
  0
VERTEX
  8
0
 62
7
  6
CONTINUOUS
 10
206.7954797932
 20
129.3773481271
  0
VERTEX
  8
0
 62
7
  6
CONTINUOUS
 10
206.7719994384
 20
129.4366511545
  0
VERTEX
  8
0
 62
7
  6
CONTINUOUS
 10
206.7522013884
 20
129.5004283981
  0
VERTEX
  8
0
 62
7
  6
CONTINUOUS
 10
206.7353892964
 20
129.5679284411
  0
VERTEX
  8
0
 62
7
  6
CONTINUOUS
 10
206.7214162071
 20
129.6378071449
  0
VERTEX
  8
0
 62
7
  6
CONTINUOUS
 10
206.7100058865
 20
129.709716867
  0
VERTEX
  8
0
 62
7
  6
CONTINUOUS
 10
206.7009715644
 20
129.7838093031
  0
VERTEX
  8
0
 62
7
  6
CONTINUOUS
 10
206.6941431179
 20
129.8595972243
  0
VERTEX
  8
0
 62
7
  6
CONTINUOUS
 10
206.6893448348
 20
129.936647372
  0
VERTEX
  8
0
 62
7
  6
CONTINUOUS
 10
206.6863798261
 20
130.0147398994
  0
VERTEX
  8
0
 62
7
  6
CONTINUOUS
 10
206.6850285159
 20
130.0936580284
  0
VERTEX
  8
0
 62
7
  6
CONTINUOUS
 10
206.6850877911
 20
130.1731280781
  0
SEQEND
  0
POLYLINE
  8
0
 62
7
  6
CONTINUOUS
 66
1
 70
0
  0
VERTEX
  8
0
 62
7
  6
CONTINUOUS
 10
223.8674821437
 20
129.13493881
  0
VERTEX
  8
0
 62
7
  6
CONTINUOUS
 10
223.8460611157
 20
129.1364535564
  0
VERTEX
  8
0
 62
7
  6
CONTINUOUS
 10
223.8032365074
 20
129.1476156961
  0
VERTEX
  8
0
 62
7
  6
CONTINUOUS
 10
223.762282494
 20
129.1679974956
  0
VERTEX
  8
0
 62
7
  6
CONTINUOUS
 10
223.7237987724
 20
129.1960512934
  0
VERTEX
  8
0
 62
7
  6
CONTINUOUS
 10
223.6877758842
 20
129.2311182786
  0
VERTEX
  8
0
 62
7
  6
CONTINUOUS
 10
223.6542059609
 20
129.273083936
  0
VERTEX
  8
0
 62
7
  6
CONTINUOUS
 10
223.6230724086
 20
129.322300801
  0
VERTEX
  8
0
 62
7
  6
CONTINUOUS
 10
223.5954797932
 20
129.3773481271
  0
VERTEX
  8
0
 62
7
  6
CONTINUOUS
 10
223.5719994384
 20
129.4366511545
  0
VERTEX
  8
0
 62
7
  6
CONTINUOUS
 10
223.5522013884
 20
129.5004283981
  0
VERTEX
  8
0
 62
7
  6
CONTINUOUS
 10
223.5353892964
 20
129.5679284411
  0
VERTEX
  8
0
 62
7
  6
CONTINUOUS
 10
223.5214162071
 20
129.6378071449
  0
VERTEX
  8
0
 62
7
  6
CONTINUOUS
 10
223.5100058865
 20
129.709716867
  0
VERTEX
  8
0
 62
7
  6
CONTINUOUS
 10
223.5009715644
 20
129.7838093031
  0
VERTEX
  8
0
 62
7
  6
CONTINUOUS
 10
223.4941431179
 20
129.8595972243
  0
VERTEX
  8
0
 62
7
  6
CONTINUOUS
 10
223.4893448348
 20
129.936647372
  0
VERTEX
  8
0
 62
7
  6
CONTINUOUS
 10
223.4863798261
 20
130.0147398994
  0
VERTEX
  8
0
 62
7
  6
CONTINUOUS
 10
223.4850285159
 20
130.0936580284
  0
VERTEX
  8
0
 62
7
  6
CONTINUOUS
 10
223.4850877911
 20
130.1731280781
  0
SEQEND
  0
POLYLINE
  8
0
 62
7
  6
CONTINUOUS
 66
1
 70
0
  0
VERTEX
  8
0
 62
7
  6
CONTINUOUS
 10
240.6674821437
 20
129.13493881
  0
VERTEX
  8
0
 62
7
  6
CONTINUOUS
 10
240.6460611157
 20
129.1364535564
  0
VERTEX
  8
0
 62
7
  6
CONTINUOUS
 10
240.6032365074
 20
129.1476156961
  0
VERTEX
  8
0
 62
7
  6
CONTINUOUS
 10
240.562282494
 20
129.1679974956
  0
VERTEX
  8
0
 62
7
  6
CONTINUOUS
 10
240.5237987724
 20
129.1960512934
  0
VERTEX
  8
0
 62
7
  6
CONTINUOUS
 10
240.4877758842
 20
129.2311182786
  0
VERTEX
  8
0
 62
7
  6
CONTINUOUS
 10
240.4542059609
 20
129.273083936
  0
VERTEX
  8
0
 62
7
  6
CONTINUOUS
 10
240.4230724086
 20
129.322300801
  0
VERTEX
  8
0
 62
7
  6
CONTINUOUS
 10
240.3954797932
 20
129.3773481271
  0
VERTEX
  8
0
 62
7
  6
CONTINUOUS
 10
240.3719994384
 20
129.4366511545
  0
VERTEX
  8
0
 62
7
  6
CONTINUOUS
 10
240.3522013884
 20
129.5004283981
  0
VERTEX
  8
0
 62
7
  6
CONTINUOUS
 10
240.3353892964
 20
129.5679284411
  0
VERTEX
  8
0
 62
7
  6
CONTINUOUS
 10
240.3214162071
 20
129.6378071449
  0
VERTEX
  8
0
 62
7
  6
CONTINUOUS
 10
240.3100058865
 20
129.709716867
  0
VERTEX
  8
0
 62
7
  6
CONTINUOUS
 10
240.3009715644
 20
129.7838093031
  0
VERTEX
  8
0
 62
7
  6
CONTINUOUS
 10
240.2941431179
 20
129.8595972243
  0
VERTEX
  8
0
 62
7
  6
CONTINUOUS
 10
240.2893448348
 20
129.936647372
  0
VERTEX
  8
0
 62
7
  6
CONTINUOUS
 10
240.2863798261
 20
130.0147398994
  0
VERTEX
  8
0
 62
7
  6
CONTINUOUS
 10
240.2850285159
 20
130.0936580284
  0
VERTEX
  8
0
 62
7
  6
CONTINUOUS
 10
240.2850877911
 20
130.1731280781
  0
SEQEND
  0
POLYLINE
  8
0
 62
7
  6
CONTINUOUS
 66
1
 70
0
  0
VERTEX
  8
0
 62
7
  6
CONTINUOUS
 10
257.4674821437
 20
129.13493881
  0
VERTEX
  8
0
 62
7
  6
CONTINUOUS
 10
257.4460611157
 20
129.1364535564
  0
VERTEX
  8
0
 62
7
  6
CONTINUOUS
 10
257.4032365074
 20
129.1476156961
  0
VERTEX
  8
0
 62
7
  6
CONTINUOUS
 10
257.362282494
 20
129.1679974956
  0
VERTEX
  8
0
 62
7
  6
CONTINUOUS
 10
257.3237987724
 20
129.1960512934
  0
VERTEX
  8
0
 62
7
  6
CONTINUOUS
 10
257.2877758842
 20
129.2311182786
  0
VERTEX
  8
0
 62
7
  6
CONTINUOUS
 10
257.2542059609
 20
129.273083936
  0
VERTEX
  8
0
 62
7
  6
CONTINUOUS
 10
257.2230724086
 20
129.322300801
  0
VERTEX
  8
0
 62
7
  6
CONTINUOUS
 10
257.1954797932
 20
129.3773481271
  0
VERTEX
  8
0
 62
7
  6
CONTINUOUS
 10
257.1719994384
 20
129.4366511545
  0
VERTEX
  8
0
 62
7
  6
CONTINUOUS
 10
257.1522013884
 20
129.5004283981
  0
VERTEX
  8
0
 62
7
  6
CONTINUOUS
 10
257.1353892964
 20
129.5679284411
  0
VERTEX
  8
0
 62
7
  6
CONTINUOUS
 10
257.1214162071
 20
129.6378071449
  0
VERTEX
  8
0
 62
7
  6
CONTINUOUS
 10
257.1100058865
 20
129.709716867
  0
VERTEX
  8
0
 62
7
  6
CONTINUOUS
 10
257.1009715644
 20
129.7838093031
  0
VERTEX
  8
0
 62
7
  6
CONTINUOUS
 10
257.0941431179
 20
129.8595972243
  0
VERTEX
  8
0
 62
7
  6
CONTINUOUS
 10
257.0893448348
 20
129.936647372
  0
VERTEX
  8
0
 62
7
  6
CONTINUOUS
 10
257.0863798261
 20
130.0147398994
  0
VERTEX
  8
0
 62
7
  6
CONTINUOUS
 10
257.0850285159
 20
130.0936580284
  0
VERTEX
  8
0
 62
7
  6
CONTINUOUS
 10
257.0850877911
 20
130.1731280781
  0
SEQEND
  0
LINE
  8
0
 62
7
  6
CONTINUOUS
 10
205.811470902
 20
140.0939472287
 11
205.6316876268
 21
140.4948964504
  0
POLYLINE
  8
0
 62
7
  6
CONTINUOUS
 66
1
 70
0
  0
VERTEX
  8
0
 62
7
  6
CONTINUOUS
 10
224.7345892784
 20
75.5217066944
  0
VERTEX
  8
0
 62
7
  6
CONTINUOUS
 10
224.7622510901
 20
75.3541941252
  0
VERTEX
  8
0
 62
7
  6
CONTINUOUS
 10
224.793155888
 20
75.1891679071
  0
VERTEX
  8
0
 62
7
  6
CONTINUOUS
 10
224.8241046745
 20
75.0453402058
  0
VERTEX
  8
0
 62
7
  6
CONTINUOUS
 10
224.8555138618
 20
74.9193375827
  0
VERTEX
  8
0
 62
7
  6
CONTINUOUS
 10
224.8880970029
 20
74.8077507436
  0
VERTEX
  8
0
 62
7
  6
CONTINUOUS
 10
224.9231120116
 20
74.7068994248
  0
VERTEX
  8
0
 62
7
  6
CONTINUOUS
 10
224.9627955099
 20
74.6126959583
  0
VERTEX
  8
0
 62
7
  6
CONTINUOUS
 10
225.0108226278
 20
74.5212320325
  0
VERTEX
  8
0
 62
7
  6
CONTINUOUS
 10
225.0729322785
 20
74.4296248098
  0
VERTEX
  8
0
 62
7
  6
CONTINUOUS
 10
225.1566612033
 20
74.3383339422
  0
VERTEX
  8
0
 62
7
  6
CONTINUOUS
 10
225.2673066145
 20
74.2548460346
  0
VERTEX
  8
0
 62
7
  6
CONTINUOUS
 10
225.40229628
 20
74.1919023112
  0
VERTEX
  8
0
 62
7
  6
CONTINUOUS
 10
225.5501310693
 20
74.1597601554
  0
VERTEX
  8
0
 62
7
  6
CONTINUOUS
 10
225.6210452118
 20
74.1561298226
  0
SEQEND
  0
LINE
  8
0
 62
7
  6
CONTINUOUS
 10
224.7186881649
 20
75.6264241516
 11
224.7345905392
 21
75.5216986069
  0
POLYLINE
  8
0
 62
7
  6
CONTINUOUS
 66
1
 70
0
  0
VERTEX
  8
0
 62
7
  6
CONTINUOUS
 10
223.6624458851
 20
79.8135058358
  0
VERTEX
  8
0
 62
7
  6
CONTINUOUS
 10
223.7338231402
 20
79.2652144535
  0
VERTEX
  8
0
 62
7
  6
CONTINUOUS
 10
223.8284726015
 20
78.665233038
  0
VERTEX
  8
0
 62
7
  6
CONTINUOUS
 10
223.9390832064
 20
78.0824460736
  0
VERTEX
  8
0
 62
7
  6
CONTINUOUS
 10
224.0656970925
 20
77.5218604073
  0
VERTEX
  8
0
 62
7
  6
CONTINUOUS
 10
224.2083298469
 20
76.9883127289
  0
VERTEX
  8
0
 62
7
  6
CONTINUOUS
 10
224.3670277712
 20
76.4864623509
  0
VERTEX
  8
0
 62
7
  6
CONTINUOUS
 10
224.5420215528
 20
76.0206117455
  0
SEQEND
  0
LINE
  8
0
 62
7
  6
CONTINUOUS
 10
223.491990988
 20
136.298747764
 11
223.4920502932
 21
136.2977278241
  0
LINE
  8
0
 62
7
  6
CONTINUOUS
 10
233.1345906748
 20
140.5905617003
 11
233.1186858903
 21
140.4858343583
  0
POLYLINE
  8
0
 62
7
  6
CONTINUOUS
 66
1
 70
0
  0
VERTEX
  8
0
 62
7
  6
CONTINUOUS
 10
214.03168867
 20
75.617365113
  0
VERTEX
  8
0
 62
7
  6
CONTINUOUS
 10
214.2124153971
 20
76.0206118524
  0
VERTEX
  8
0
 62
7
  6
CONTINUOUS
 10
214.3874092149
 20
76.4864625837
  0
VERTEX
  8
0
 62
7
  6
CONTINUOUS
 10
214.546107168
 20
76.9883131037
  0
VERTEX
  8
0
 62
7
  6
CONTINUOUS
 10
214.6887399436
 20
77.5218609371
  0
VERTEX
  8
0
 62
7
  6
CONTINUOUS
 10
214.8153538435
 20
78.082446768
  0
VERTEX
  8
0
 62
7
  6
CONTINUOUS
 10
214.9259644543
 20
78.665233903
  0
VERTEX
  8
0
 62
7
  6
CONTINUOUS
 10
215.0206139141
 20
79.2652154914
  0
VERTEX
  8
0
 62
7
  6
CONTINUOUS
 10
215.0919910209
 20
79.8135058359
  0
SEQEND
  0
POLYLINE
  8
0
 62
7
  6
CONTINUOUS
 66
1
 70
0
  0
VERTEX
  8
0
 62
7
  6
CONTINUOUS
 10
215.0919909701
 20
79.8135159572
  0
VERTEX
  8
0
 62
7
  6
CONTINUOUS
 10
215.0861792697
 20
79.8049190593
  0
VERTEX
  8
0
 62
7
  6
CONTINUOUS
 10
215.0670925167
 20
79.7961257408
  0
VERTEX
  8
0
 62
7
  6
CONTINUOUS
 10
215.0358912696
 20
79.789397298
  0
VERTEX
  8
0
 62
7
  6
CONTINUOUS
 10
214.9945727237
 20
79.7850775947
  0
VERTEX
  8
0
 62
7
  6
CONTINUOUS
 10
214.9458763776
 20
79.783288708
  0
VERTEX
  8
0
 62
7
  6
CONTINUOUS
 10
214.8920502961
 20
79.7838483954
  0
SEQEND
  0
POLYLINE
  8
0
 62
7
  6
CONTINUOUS
 66
1
 70
0
  0
VERTEX
  8
0
 62
7
  6
CONTINUOUS
 10
250.8210448337
 20
141.9561296152
  0
VERTEX
  8
0
 62
7
  6
CONTINUOUS
 10
250.750249506
 20
141.9525114821
  0
VERTEX
  8
0
 62
7
  6
CONTINUOUS
 10
250.6025264137
 20
141.920434877
  0
VERTEX
  8
0
 62
7
  6
CONTINUOUS
 10
250.4676050961
 20
141.857594739
  0
VERTEX
  8
0
 62
7
  6
CONTINUOUS
 10
250.3569712001
 20
141.7742112027
  0
VERTEX
  8
0
 62
7
  6
CONTINUOUS
 10
250.2732166641
 20
141.6829997079
  0
VERTEX
  8
0
 62
7
  6
CONTINUOUS
 10
250.2110764675
 20
141.5914566074
  0
VERTEX
  8
0
 62
7
  6
CONTINUOUS
 10
250.1630287981
 20
141.5000624836
  0
VERTEX
  8
0
 62
7
  6
CONTINUOUS
 10
250.1233363578
 20
141.4059488356
  0
VERTEX
  8
0
 62
7
  6
CONTINUOUS
 10
250.0883217272
 20
141.3052159351
  0
VERTEX
  8
0
 62
7
  6
CONTINUOUS
 10
250.0557452182
 20
141.1937802389
  0
VERTEX
  8
0
 62
7
  6
CONTINUOUS
 10
250.0243465408
 20
141.0679638571
  0
VERTEX
  8
0
 62
7
  6
CONTINUOUS
 10
249.9934104713
 20
140.924359472
  0
VERTEX
  8
0
 62
7
  6
CONTINUOUS
 10
249.9625194015
 20
140.7595957542
  0
VERTEX
  8
0
 62
7
  6
CONTINUOUS
 10
249.9345893876
 20
140.5905534434
  0
SEQEND
  0
POLYLINE
  8
0
 62
7
  6
CONTINUOUS
 66
1
 70
0
  0
VERTEX
  8
0
 62
7
  6
CONTINUOUS
 10
267.6210333333
 20
141.956129628
  0
VERTEX
  8
0
 62
7
  6
CONTINUOUS
 10
267.5584043308
 20
141.9533015945
  0
VERTEX
  8
0
 62
7
  6
CONTINUOUS
 10
267.4072081118
 20
141.9219966244
  0
VERTEX
  8
0
 62
7
  6
CONTINUOUS
 10
267.2657504292
 20
141.8564645883
  0
VERTEX
  8
0
 62
7
  6
CONTINUOUS
 10
267.1483958227
 20
141.766182357
  0
VERTEX
  8
0
 62
7
  6
CONTINUOUS
 10
267.0596675892
 20
141.6651098225
  0
VERTEX
  8
0
 62
7
  6
CONTINUOUS
 10
266.9945313224
 20
141.5623714836
  0
VERTEX
  8
0
 62
7
  6
CONTINUOUS
 10
266.9442010661
 20
141.457816733
  0
VERTEX
  8
0
 62
7
  6
CONTINUOUS
 10
266.9020693167
 20
141.3469599627
  0
VERTEX
  8
0
 62
7
  6
CONTINUOUS
 10
266.8644112422
 20
141.2252322798
  0
VERTEX
  8
0
 62
7
  6
CONTINUOUS
 10
266.8292949457
 20
141.0890756682
  0
VERTEX
  8
0
 62
7
  6
CONTINUOUS
 10
266.7956677759
 20
140.9355386021
  0
VERTEX
  8
0
 62
7
  6
CONTINUOUS
 10
266.7630952943
 20
140.7628746832
  0
VERTEX
  8
0
 62
7
  6
CONTINUOUS
 10
266.7345884102
 20
140.5905471731
  0
SEQEND
  0
POLYLINE
  8
0
 62
6
  6
CONTINUOUS
 66
1
 70
0
  0
VERTEX
  8
0
 62
6
  6
CONTINUOUS
 10
268.6004767356
 20
136.3283641752
  0
VERTEX
  8
0
 62
6
  6
CONTINUOUS
 10
268.4134098823
 20
136.3223712322
  0
VERTEX
  8
0
 62
6
  6
CONTINUOUS
 10
268.2334552297
 20
136.3109628054
  0
VERTEX
  8
0
 62
6
  6
CONTINUOUS
 10
268.0668347396
 20
136.2946799799
  0
VERTEX
  8
0
 62
6
  6
CONTINUOUS
 10
267.9192263312
 20
136.2741793975
  0
VERTEX
  8
0
 62
6
  6
CONTINUOUS
 10
267.7955670423
 20
136.2502270225
  0
VERTEX
  8
0
 62
6
  6
CONTINUOUS
 10
267.6999003052
 20
136.2236860365
  0
VERTEX
  8
0
 62
6
  6
CONTINUOUS
 10
267.6352688713
 20
136.1955005027
  0
VERTEX
  8
0
 62
6
  6
CONTINUOUS
 10
267.6036560017
 20
136.1666773173
  0
SEQEND
  0
POLYLINE
  8
0
 62
7
  6
CONTINUOUS
 66
1
 70
0
  0
VERTEX
  8
0
 62
7
  6
CONTINUOUS
 10
256.8920502961
 20
136.3284110419
  0
VERTEX
  8
0
 62
7
  6
CONTINUOUS
 10
256.9390789681
 20
136.3290229946
  0
VERTEX
  8
0
 62
7
  6
CONTINUOUS
 10
256.9826013091
 20
136.3278839738
  0
VERTEX
  8
0
 62
7
  6
CONTINUOUS
 10
257.0212527578
 20
136.3247990011
  0
VERTEX
  8
0
 62
7
  6
CONTINUOUS
 10
257.0529011813
 20
136.3197818667
  0
VERTEX
  8
0
 62
7
  6
CONTINUOUS
 10
257.0758516955
 20
136.3130118508
  0
VERTEX
  8
0
 62
7
  6
CONTINUOUS
 10
257.0889773773
 20
136.3047971771
  0
VERTEX
  8
0
 62
7
  6
CONTINUOUS
 10
257.091990988
 20
136.298747764
  0
SEQEND
  0
POLYLINE
  8
0
 62
7
  6
CONTINUOUS
 66
1
 70
0
  0
VERTEX
  8
0
 62
7
  6
CONTINUOUS
 10
240.0920502961
 20
136.3284110419
  0
VERTEX
  8
0
 62
7
  6
CONTINUOUS
 10
240.1390789681
 20
136.3290229946
  0
VERTEX
  8
0
 62
7
  6
CONTINUOUS
 10
240.1826013091
 20
136.3278839738
  0
VERTEX
  8
0
 62
7
  6
CONTINUOUS
 10
240.2212527578
 20
136.3247990011
  0
VERTEX
  8
0
 62
7
  6
CONTINUOUS
 10
240.2529011813
 20
136.3197818667
  0
VERTEX
  8
0
 62
7
  6
CONTINUOUS
 10
240.2758516955
 20
136.3130118508
  0
VERTEX
  8
0
 62
7
  6
CONTINUOUS
 10
240.2889773773
 20
136.3047971771
  0
VERTEX
  8
0
 62
7
  6
CONTINUOUS
 10
240.291990988
 20
136.298747764
  0
SEQEND
  0
POLYLINE
  8
0
 62
7
  6
CONTINUOUS
 66
1
 70
0
  0
VERTEX
  8
0
 62
7
  6
CONTINUOUS
 10
223.2920502961
 20
136.3284110419
  0
VERTEX
  8
0
 62
7
  6
CONTINUOUS
 10
223.3390789681
 20
136.3290229946
  0
VERTEX
  8
0
 62
7
  6
CONTINUOUS
 10
223.3826013091
 20
136.3278839738
  0
VERTEX
  8
0
 62
7
  6
CONTINUOUS
 10
223.4212527578
 20
136.3247990011
  0
VERTEX
  8
0
 62
7
  6
CONTINUOUS
 10
223.4529011813
 20
136.3197818667
  0
VERTEX
  8
0
 62
7
  6
CONTINUOUS
 10
223.4758516955
 20
136.3130118508
  0
VERTEX
  8
0
 62
7
  6
CONTINUOUS
 10
223.4889773773
 20
136.3047971771
  0
VERTEX
  8
0
 62
7
  6
CONTINUOUS
 10
223.491990988
 20
136.298747764
  0
SEQEND
  0
POLYLINE
  8
0
 62
7
  6
CONTINUOUS
 66
1
 70
0
  0
VERTEX
  8
0
 62
7
  6
CONTINUOUS
 10
206.4920502961
 20
136.3284110419
  0
VERTEX
  8
0
 62
7
  6
CONTINUOUS
 10
206.5390789681
 20
136.3290229946
  0
VERTEX
  8
0
 62
7
  6
CONTINUOUS
 10
206.5826013091
 20
136.3278839738
  0
VERTEX
  8
0
 62
7
  6
CONTINUOUS
 10
206.6212527578
 20
136.3247990011
  0
VERTEX
  8
0
 62
7
  6
CONTINUOUS
 10
206.6529011813
 20
136.3197818667
  0
VERTEX
  8
0
 62
7
  6
CONTINUOUS
 10
206.6758516955
 20
136.3130118508
  0
VERTEX
  8
0
 62
7
  6
CONTINUOUS
 10
206.6889773773
 20
136.3047971771
  0
VERTEX
  8
0
 62
7
  6
CONTINUOUS
 10
206.691990988
 20
136.298747764
  0
SEQEND
  0
POLYLINE
  8
0
 62
7
  6
CONTINUOUS
 66
1
 70
0
  0
VERTEX
  8
0
 62
7
  6
CONTINUOUS
 10
189.6920502961
 20
136.3284110419
  0
VERTEX
  8
0
 62
7
  6
CONTINUOUS
 10
189.7390789681
 20
136.3290229946
  0
VERTEX
  8
0
 62
7
  6
CONTINUOUS
 10
189.7826013091
 20
136.3278839738
  0
VERTEX
  8
0
 62
7
  6
CONTINUOUS
 10
189.8212527578
 20
136.3247990011
  0
VERTEX
  8
0
 62
7
  6
CONTINUOUS
 10
189.8529011813
 20
136.3197818667
  0
VERTEX
  8
0
 62
7
  6
CONTINUOUS
 10
189.8758516955
 20
136.3130118508
  0
VERTEX
  8
0
 62
7
  6
CONTINUOUS
 10
189.8889773773
 20
136.3047971771
  0
VERTEX
  8
0
 62
7
  6
CONTINUOUS
 10
189.891990988
 20
136.298747764
  0
SEQEND
  0
POLYLINE
  8
0
 62
7
  6
CONTINUOUS
 66
1
 70
0
  0
VERTEX
  8
0
 62
7
  6
CONTINUOUS
 10
172.8920502961
 20
136.3284110419
  0
VERTEX
  8
0
 62
7
  6
CONTINUOUS
 10
172.9390789681
 20
136.3290229946
  0
VERTEX
  8
0
 62
7
  6
CONTINUOUS
 10
172.9826013091
 20
136.3278839738
  0
VERTEX
  8
0
 62
7
  6
CONTINUOUS
 10
173.0212527578
 20
136.3247990011
  0
VERTEX
  8
0
 62
7
  6
CONTINUOUS
 10
173.0529011813
 20
136.3197818667
  0
VERTEX
  8
0
 62
7
  6
CONTINUOUS
 10
173.0758516955
 20
136.3130118508
  0
VERTEX
  8
0
 62
7
  6
CONTINUOUS
 10
173.0889773773
 20
136.3047971771
  0
VERTEX
  8
0
 62
7
  6
CONTINUOUS
 10
173.091990988
 20
136.298747764
  0
SEQEND
  0
POLYLINE
  8
0
 62
7
  6
CONTINUOUS
 66
1
 70
0
  0
VERTEX
  8
0
 62
7
  6
CONTINUOUS
 10
156.0920502961
 20
136.3284110419
  0
VERTEX
  8
0
 62
7
  6
CONTINUOUS
 10
156.1390789681
 20
136.3290229946
  0
VERTEX
  8
0
 62
7
  6
CONTINUOUS
 10
156.1826013091
 20
136.3278839738
  0
VERTEX
  8
0
 62
7
  6
CONTINUOUS
 10
156.2212527578
 20
136.3247990011
  0
VERTEX
  8
0
 62
7
  6
CONTINUOUS
 10
156.2529011813
 20
136.3197818667
  0
VERTEX
  8
0
 62
7
  6
CONTINUOUS
 10
156.2758516955
 20
136.3130118508
  0
VERTEX
  8
0
 62
7
  6
CONTINUOUS
 10
156.2889773773
 20
136.3047971771
  0
VERTEX
  8
0
 62
7
  6
CONTINUOUS
 10
156.291990988
 20
136.298747764
  0
SEQEND
  0
POLYLINE
  8
0
 62
7
  6
CONTINUOUS
 66
1
 70
0
  0
VERTEX
  8
0
 62
7
  6
CONTINUOUS
 10
139.2920502961
 20
136.3284110419
  0
VERTEX
  8
0
 62
7
  6
CONTINUOUS
 10
139.3390789681
 20
136.3290229946
  0
VERTEX
  8
0
 62
7
  6
CONTINUOUS
 10
139.3826013091
 20
136.3278839738
  0
VERTEX
  8
0
 62
7
  6
CONTINUOUS
 10
139.4212527578
 20
136.3247990011
  0
VERTEX
  8
0
 62
7
  6
CONTINUOUS
 10
139.4529011813
 20
136.3197818667
  0
VERTEX
  8
0
 62
7
  6
CONTINUOUS
 10
139.4758516955
 20
136.3130118508
  0
VERTEX
  8
0
 62
7
  6
CONTINUOUS
 10
139.4889773773
 20
136.3047971771
  0
VERTEX
  8
0
 62
7
  6
CONTINUOUS
 10
139.491990988
 20
136.298747764
  0
SEQEND
  0
LINE
  8
0
 62
6
  6
CONTINUOUS
 10
268.6004767356
 20
136.3283641752
 11
268.6061150398
 21
136.3284110402
  0
LINE
  8
0
 62
6
  6
CONTINUOUS
 10
256.8940862703
 20
136.3284110419
 11
256.8920502961
 21
136.3284110419
  0
LINE
  8
0
 62
7
  6
CONTINUOUS
 10
256.8920502961
 20
136.3284110419
 11
249.0623866099
 21
136.3284110419
  0
LINE
  8
0
 62
7
  6
CONTINUOUS
 10
240.0920502961
 20
136.3284110419
 11
232.2623866099
 21
136.3284110419
  0
LINE
  8
0
 62
7
  6
CONTINUOUS
 10
223.2920502961
 20
136.3284110419
 11
215.4623866099
 21
136.3284110419
  0
LINE
  8
0
 62
7
  6
CONTINUOUS
 10
206.4920502961
 20
136.3284110419
 11
198.6623866099
 21
136.3284110419
  0
LINE
  8
0
 62
7
  6
CONTINUOUS
 10
189.6920502961
 20
136.3284110419
 11
181.8623866099
 21
136.3284110419
  0
LINE
  8
0
 62
7
  6
CONTINUOUS
 10
172.8920502961
 20
136.3284110419
 11
165.0623866099
 21
136.3284110419
  0
LINE
  8
0
 62
7
  6
CONTINUOUS
 10
156.0920502961
 20
136.3284110419
 11
148.2623866099
 21
136.3284110419
  0
LINE
  8
0
 62
7
  6
CONTINUOUS
 10
139.2920502961
 20
136.3284110419
 11
131.4623866099
 21
136.3284110419
  0
LINE
  8
0
 62
7
  6
CONTINUOUS
 10
265.8623866099
 20
136.3284110419
 11
273.677218453
 21
136.3284110419
  0
LINE
  8
0
 62
6
  6
CONTINUOUS
 10
265.8603506357
 20
136.3284110419
 11
265.8623866099
 21
136.3284110419
  0
LINE
  8
0
 62
6
  6
CONTINUOUS
 10
254.1539601704
 20
136.3283641752
 11
254.1483218662
 21
136.3284110402
  0
POLYLINE
  8
0
 62
7
  6
CONTINUOUS
 66
1
 70
0
  0
VERTEX
  8
0
 62
7
  6
CONTINUOUS
 10
131.4623866099
 20
136.3284110419
  0
VERTEX
  8
0
 62
7
  6
CONTINUOUS
 10
131.4153579379
 20
136.3290229946
  0
VERTEX
  8
0
 62
7
  6
CONTINUOUS
 10
131.3718355969
 20
136.3278839738
  0
VERTEX
  8
0
 62
7
  6
CONTINUOUS
 10
131.3331841482
 20
136.3247990011
  0
VERTEX
  8
0
 62
7
  6
CONTINUOUS
 10
131.3015357247
 20
136.3197818667
  0
VERTEX
  8
0
 62
7
  6
CONTINUOUS
 10
131.2785852105
 20
136.3130118508
  0
VERTEX
  8
0
 62
7
  6
CONTINUOUS
 10
131.2654595286
 20
136.3047971771
  0
VERTEX
  8
0
 62
7
  6
CONTINUOUS
 10
131.262445918
 20
136.298747764
  0
SEQEND
  0
POLYLINE
  8
0
 62
7
  6
CONTINUOUS
 66
1
 70
0
  0
VERTEX
  8
0
 62
7
  6
CONTINUOUS
 10
148.2623866099
 20
136.3284110419
  0
VERTEX
  8
0
 62
7
  6
CONTINUOUS
 10
148.2153579379
 20
136.3290229946
  0
VERTEX
  8
0
 62
7
  6
CONTINUOUS
 10
148.1718355969
 20
136.3278839738
  0
VERTEX
  8
0
 62
7
  6
CONTINUOUS
 10
148.1331841482
 20
136.3247990011
  0
VERTEX
  8
0
 62
7
  6
CONTINUOUS
 10
148.1015357247
 20
136.3197818667
  0
VERTEX
  8
0
 62
7
  6
CONTINUOUS
 10
148.0785852105
 20
136.3130118508
  0
VERTEX
  8
0
 62
7
  6
CONTINUOUS
 10
148.0654595286
 20
136.3047971771
  0
VERTEX
  8
0
 62
7
  6
CONTINUOUS
 10
148.062445918
 20
136.298747764
  0
SEQEND
  0
POLYLINE
  8
0
 62
7
  6
CONTINUOUS
 66
1
 70
0
  0
VERTEX
  8
0
 62
7
  6
CONTINUOUS
 10
165.0623866099
 20
136.3284110419
  0
VERTEX
  8
0
 62
7
  6
CONTINUOUS
 10
165.0153579379
 20
136.3290229946
  0
VERTEX
  8
0
 62
7
  6
CONTINUOUS
 10
164.9718355969
 20
136.3278839738
  0
VERTEX
  8
0
 62
7
  6
CONTINUOUS
 10
164.9331841482
 20
136.3247990011
  0
VERTEX
  8
0
 62
7
  6
CONTINUOUS
 10
164.9015357247
 20
136.3197818667
  0
VERTEX
  8
0
 62
7
  6
CONTINUOUS
 10
164.8785852105
 20
136.3130118508
  0
VERTEX
  8
0
 62
7
  6
CONTINUOUS
 10
164.8654595286
 20
136.3047971771
  0
VERTEX
  8
0
 62
7
  6
CONTINUOUS
 10
164.862445918
 20
136.298747764
  0
SEQEND
  0
POLYLINE
  8
0
 62
7
  6
CONTINUOUS
 66
1
 70
0
  0
VERTEX
  8
0
 62
7
  6
CONTINUOUS
 10
181.8623866099
 20
136.3284110419
  0
VERTEX
  8
0
 62
7
  6
CONTINUOUS
 10
181.8153579379
 20
136.3290229946
  0
VERTEX
  8
0
 62
7
  6
CONTINUOUS
 10
181.7718355969
 20
136.3278839738
  0
VERTEX
  8
0
 62
7
  6
CONTINUOUS
 10
181.7331841482
 20
136.3247990011
  0
VERTEX
  8
0
 62
7
  6
CONTINUOUS
 10
181.7015357247
 20
136.3197818667
  0
VERTEX
  8
0
 62
7
  6
CONTINUOUS
 10
181.6785852105
 20
136.3130118508
  0
VERTEX
  8
0
 62
7
  6
CONTINUOUS
 10
181.6654595286
 20
136.3047971771
  0
VERTEX
  8
0
 62
7
  6
CONTINUOUS
 10
181.662445918
 20
136.298747764
  0
SEQEND
  0
POLYLINE
  8
0
 62
7
  6
CONTINUOUS
 66
1
 70
0
  0
VERTEX
  8
0
 62
7
  6
CONTINUOUS
 10
198.6623866099
 20
136.3284110419
  0
VERTEX
  8
0
 62
7
  6
CONTINUOUS
 10
198.6153579379
 20
136.3290229946
  0
VERTEX
  8
0
 62
7
  6
CONTINUOUS
 10
198.5718355969
 20
136.3278839738
  0
VERTEX
  8
0
 62
7
  6
CONTINUOUS
 10
198.5331841482
 20
136.3247990011
  0
VERTEX
  8
0
 62
7
  6
CONTINUOUS
 10
198.5015357247
 20
136.3197818667
  0
VERTEX
  8
0
 62
7
  6
CONTINUOUS
 10
198.4785852105
 20
136.3130118508
  0
VERTEX
  8
0
 62
7
  6
CONTINUOUS
 10
198.4654595286
 20
136.3047971771
  0
VERTEX
  8
0
 62
7
  6
CONTINUOUS
 10
198.462445918
 20
136.298747764
  0
SEQEND
  0
POLYLINE
  8
0
 62
7
  6
CONTINUOUS
 66
1
 70
0
  0
VERTEX
  8
0
 62
7
  6
CONTINUOUS
 10
215.4623866099
 20
136.3284110419
  0
VERTEX
  8
0
 62
7
  6
CONTINUOUS
 10
215.4153579379
 20
136.3290229946
  0
VERTEX
  8
0
 62
7
  6
CONTINUOUS
 10
215.3718355969
 20
136.3278839738
  0
VERTEX
  8
0
 62
7
  6
CONTINUOUS
 10
215.3331841482
 20
136.3247990011
  0
VERTEX
  8
0
 62
7
  6
CONTINUOUS
 10
215.3015357247
 20
136.3197818667
  0
VERTEX
  8
0
 62
7
  6
CONTINUOUS
 10
215.2785852105
 20
136.3130118508
  0
VERTEX
  8
0
 62
7
  6
CONTINUOUS
 10
215.2654595286
 20
136.3047971771
  0
VERTEX
  8
0
 62
7
  6
CONTINUOUS
 10
215.262445918
 20
136.298747764
  0
SEQEND
  0
POLYLINE
  8
0
 62
7
  6
CONTINUOUS
 66
1
 70
0
  0
VERTEX
  8
0
 62
7
  6
CONTINUOUS
 10
232.2623866099
 20
136.3284110419
  0
VERTEX
  8
0
 62
7
  6
CONTINUOUS
 10
232.2153579379
 20
136.3290229946
  0
VERTEX
  8
0
 62
7
  6
CONTINUOUS
 10
232.1718355969
 20
136.3278839738
  0
VERTEX
  8
0
 62
7
  6
CONTINUOUS
 10
232.1331841482
 20
136.3247990011
  0
VERTEX
  8
0
 62
7
  6
CONTINUOUS
 10
232.1015357247
 20
136.3197818667
  0
VERTEX
  8
0
 62
7
  6
CONTINUOUS
 10
232.0785852105
 20
136.3130118508
  0
VERTEX
  8
0
 62
7
  6
CONTINUOUS
 10
232.0654595286
 20
136.3047971771
  0
VERTEX
  8
0
 62
7
  6
CONTINUOUS
 10
232.062445918
 20
136.298747764
  0
SEQEND
  0
POLYLINE
  8
0
 62
7
  6
CONTINUOUS
 66
1
 70
0
  0
VERTEX
  8
0
 62
7
  6
CONTINUOUS
 10
249.0623866099
 20
136.3284110419
  0
VERTEX
  8
0
 62
7
  6
CONTINUOUS
 10
249.0153579379
 20
136.3290229946
  0
VERTEX
  8
0
 62
7
  6
CONTINUOUS
 10
248.9718355969
 20
136.3278839738
  0
VERTEX
  8
0
 62
7
  6
CONTINUOUS
 10
248.9331841482
 20
136.3247990011
  0
VERTEX
  8
0
 62
7
  6
CONTINUOUS
 10
248.9015357247
 20
136.3197818667
  0
VERTEX
  8
0
 62
7
  6
CONTINUOUS
 10
248.8785852105
 20
136.3130118508
  0
VERTEX
  8
0
 62
7
  6
CONTINUOUS
 10
248.8654595286
 20
136.3047971771
  0
VERTEX
  8
0
 62
7
  6
CONTINUOUS
 10
248.862445918
 20
136.298747764
  0
SEQEND
  0
POLYLINE
  8
0
 62
7
  6
CONTINUOUS
 66
1
 70
0
  0
VERTEX
  8
0
 62
7
  6
CONTINUOUS
 10
265.8623866099
 20
136.3284110419
  0
VERTEX
  8
0
 62
7
  6
CONTINUOUS
 10
265.8153579379
 20
136.3290229946
  0
VERTEX
  8
0
 62
7
  6
CONTINUOUS
 10
265.7718355969
 20
136.3278839738
  0
VERTEX
  8
0
 62
7
  6
CONTINUOUS
 10
265.7331841482
 20
136.3247990011
  0
VERTEX
  8
0
 62
7
  6
CONTINUOUS
 10
265.7015357247
 20
136.3197818667
  0
VERTEX
  8
0
 62
7
  6
CONTINUOUS
 10
265.6785852105
 20
136.3130118508
  0
VERTEX
  8
0
 62
7
  6
CONTINUOUS
 10
265.6654595286
 20
136.3047971771
  0
VERTEX
  8
0
 62
7
  6
CONTINUOUS
 10
265.662445918
 20
136.298747764
  0
SEQEND
  0
POLYLINE
  8
0
 62
6
  6
CONTINUOUS
 66
1
 70
0
  0
VERTEX
  8
0
 62
6
  6
CONTINUOUS
 10
254.1539601704
 20
136.3283641752
  0
VERTEX
  8
0
 62
6
  6
CONTINUOUS
 10
254.3410270237
 20
136.3223712322
  0
VERTEX
  8
0
 62
6
  6
CONTINUOUS
 10
254.5209816763
 20
136.3109628054
  0
VERTEX
  8
0
 62
6
  6
CONTINUOUS
 10
254.6876021664
 20
136.2946799799
  0
VERTEX
  8
0
 62
6
  6
CONTINUOUS
 10
254.8352105748
 20
136.2741793975
  0
VERTEX
  8
0
 62
6
  6
CONTINUOUS
 10
254.9588698637
 20
136.2502270225
  0
VERTEX
  8
0
 62
6
  6
CONTINUOUS
 10
255.0545366008
 20
136.2236860365
  0
VERTEX
  8
0
 62
6
  6
CONTINUOUS
 10
255.1191680347
 20
136.1955005027
  0
VERTEX
  8
0
 62
6
  6
CONTINUOUS
 10
255.1507809042
 20
136.1666773173
  0
SEQEND
  0
LINE
  8
0
 62
7
  6
CONTINUOUS
 10
241.3420215528
 20
76.0206117455
 11
241.522748236
 21
75.617365113
  0
POLYLINE
  8
0
 62
7
  6
CONTINUOUS
 66
1
 70
0
  0
VERTEX
  8
0
 62
7
  6
CONTINUOUS
 10
222.4198475104
 20
140.590553495
  0
VERTEX
  8
0
 62
7
  6
CONTINUOUS
 10
222.3919608646
 20
140.7593485483
  0
VERTEX
  8
0
 62
7
  6
CONTINUOUS
 10
222.3611169632
 20
140.9239087647
  0
VERTEX
  8
0
 62
7
  6
CONTINUOUS
 10
222.3302332124
 20
141.0673470412
  0
VERTEX
  8
0
 62
7
  6
CONTINUOUS
 10
222.2988951658
 20
141.1930253417
  0
VERTEX
  8
0
 62
7
  6
CONTINUOUS
 10
222.2663937805
 20
141.304339012
  0
VERTEX
  8
0
 62
7
  6
CONTINUOUS
 10
222.2314814777
 20
141.4049486335
  0
VERTEX
  8
0
 62
7
  6
CONTINUOUS
 10
222.1919448504
 20
141.4989135046
  0
VERTEX
  8
0
 62
7
  6
CONTINUOUS
 10
222.1441562592
 20
141.5901092857
  0
VERTEX
  8
0
 62
7
  6
CONTINUOUS
 10
222.082447216
 20
141.6814214621
  0
VERTEX
  8
0
 62
7
  6
CONTINUOUS
 10
221.9993501486
 20
141.772469216
  0
VERTEX
  8
0
 62
7
  6
CONTINUOUS
 10
221.8895448835
 20
141.8559387751
  0
VERTEX
  8
0
 62
7
  6
CONTINUOUS
 10
221.7553911014
 20
141.9192490822
  0
VERTEX
  8
0
 62
7
  6
CONTINUOUS
 10
221.6081448461
 20
141.9520925576
  0
VERTEX
  8
0
 62
7
  6
CONTINUOUS
 10
221.5333891404
 20
141.9561296117
  0
SEQEND
  0
LINE
  8
0
 62
7
  6
CONTINUOUS
 10
222.4357510157
 20
140.4858343583
 11
222.4198462312
 21
140.5905617003
  0
POLYLINE
  8
0
 62
7
  6
CONTINUOUS
 66
1
 70
0
  0
VERTEX
  8
0
 62
7
  6
CONTINUOUS
 10
223.4919910176
 20
136.2987536296
  0
VERTEX
  8
0
 62
7
  6
CONTINUOUS
 10
223.4201132038
 20
136.850546751
  0
VERTEX
  8
0
 62
7
  6
CONTINUOUS
 10
223.3253843525
 20
137.4503716779
  0
VERTEX
  8
0
 62
7
  6
CONTINUOUS
 10
223.2146968215
 20
138.0329824835
  0
VERTEX
  8
0
 62
7
  6
CONTINUOUS
 10
223.0880085879
 20
138.5933735052
  0
VERTEX
  8
0
 62
7
  6
CONTINUOUS
 10
222.9453038421
 20
139.1267097074
  0
VERTEX
  8
0
 62
7
  6
CONTINUOUS
 10
222.7865354402
 20
139.6283341879
  0
VERTEX
  8
0
 62
7
  6
CONTINUOUS
 10
222.611470902
 20
140.0939472287
  0
SEQEND
  0
POLYLINE
  8
0
 62
7
  6
CONTINUOUS
 66
1
 70
0
  0
VERTEX
  8
0
 62
7
  6
CONTINUOUS
 10
231.8890518647
 20
85.645671217
  0
VERTEX
  8
0
 62
7
  6
CONTINUOUS
 10
231.8851168981
 20
85.9358864854
  0
VERTEX
  8
0
 62
7
  6
CONTINUOUS
 10
231.8849814826
 20
86.0119913914
  0
VERTEX
  8
0
 62
7
  6
CONTINUOUS
 10
231.8861212722
 20
86.0874894211
  0
VERTEX
  8
0
 62
7
  6
CONTINUOUS
 10
231.8887049368
 20
86.1621545456
  0
VERTEX
  8
0
 62
7
  6
CONTINUOUS
 10
231.8929181886
 20
86.2358028945
  0
VERTEX
  8
0
 62
7
  6
CONTINUOUS
 10
231.8989311994
 20
86.3082801486
  0
VERTEX
  8
0
 62
7
  6
CONTINUOUS
 10
231.9068916636
 20
86.3792785032
  0
VERTEX
  8
0
 62
7
  6
CONTINUOUS
 10
231.9169383622
 20
86.4483005128
  0
VERTEX
  8
0
 62
7
  6
CONTINUOUS
 10
231.9292390739
 20
86.5154443199
  0
VERTEX
  8
0
 62
7
  6
CONTINUOUS
 10
231.943940487
 20
86.5805031768
  0
VERTEX
  8
0
 62
7
  6
CONTINUOUS
 10
231.9613049709
 20
86.6430242818
  0
VERTEX
  8
0
 62
7
  6
CONTINUOUS
 10
231.9814947796
 20
86.7013520439
  0
VERTEX
  8
0
 62
7
  6
CONTINUOUS
 10
232.0053463018
 20
86.7560935846
  0
VERTEX
  8
0
 62
7
  6
CONTINUOUS
 10
232.0327140856
 20
86.8064540097
  0
VERTEX
  8
0
 62
7
  6
CONTINUOUS
 10
232.0629073831
 20
86.8510374273
  0
VERTEX
  8
0
 62
7
  6
CONTINUOUS
 10
232.0954296719
 20
86.8893829875
  0
VERTEX
  8
0
 62
7
  6
CONTINUOUS
 10
232.1304002582
 20
86.9216700787
  0
VERTEX
  8
0
 62
7
  6
CONTINUOUS
 10
232.1676892432
 20
86.9474982691
  0
VERTEX
  8
0
 62
7
  6
CONTINUOUS
 10
232.2072965879
 20
86.9661511011
  0
VERTEX
  8
0
 62
7
  6
CONTINUOUS
 10
232.2483036227
 20
86.9760962095
  0
VERTEX
  8
0
 62
7
  6
CONTINUOUS
 10
232.2674812287
 20
86.9773206493
  0
SEQEND
  0
POLYLINE
  8
0
 62
7
  6
CONTINUOUS
 66
1
 70
0
  0
VERTEX
  8
0
 62
7
  6
CONTINUOUS
 10
232.0653381766
 20
130.4705559503
  0
VERTEX
  8
0
 62
7
  6
CONTINUOUS
 10
232.0693111535
 20
130.1772338315
  0
VERTEX
  8
0
 62
7
  6
CONTINUOUS
 10
232.069437477
 20
130.0976402884
  0
VERTEX
  8
0
 62
7
  6
CONTINUOUS
 10
232.0681587976
 20
130.0185776272
  0
VERTEX
  8
0
 62
7
  6
CONTINUOUS
 10
232.0652723207
 20
129.9403259029
  0
VERTEX
  8
0
 62
7
  6
CONTINUOUS
 10
232.0605569187
 20
129.863107659
  0
VERTEX
  8
0
 62
7
  6
CONTINUOUS
 10
232.0538139982
 20
129.7871426101
  0
VERTEX
  8
0
 62
7
  6
CONTINUOUS
 10
232.044867652
 20
129.7128634654
  0
VERTEX
  8
0
 62
7
  6
CONTINUOUS
 10
232.0335481348
 20
129.640778467
  0
VERTEX
  8
0
 62
7
  6
CONTINUOUS
 10
232.0196567356
 20
129.5706737981
  0
VERTEX
  8
0
 62
7
  6
CONTINUOUS
 10
232.0029568597
 20
129.503023646
  0
VERTEX
  8
0
 62
7
  6
CONTINUOUS
 10
231.9832423179
 20
129.4389554617
  0
VERTEX
  8
0
 62
7
  6
CONTINUOUS
 10
231.9598956403
 20
129.3794656367
  0
VERTEX
  8
0
 62
7
  6
CONTINUOUS
 10
231.9324272171
 20
129.3241966878
  0
VERTEX
  8
0
 62
7
  6
CONTINUOUS
 10
231.9014123405
 20
129.2747521585
  0
VERTEX
  8
0
 62
7
  6
CONTINUOUS
 10
231.8679696545
 20
129.2325731856
  0
VERTEX
  8
0
 62
7
  6
CONTINUOUS
 10
231.8320997632
 20
129.1972988938
  0
VERTEX
  8
0
 62
7
  6
CONTINUOUS
 10
231.7937795878
 20
129.1690030824
  0
VERTEX
  8
0
 62
7
  6
CONTINUOUS
 10
231.7529485873
 20
129.1482929767
  0
VERTEX
  8
0
 62
7
  6
CONTINUOUS
 10
231.7101517646
 20
129.1367047147
  0
VERTEX
  8
0
 62
7
  6
CONTINUOUS
 10
231.6867819663
 20
129.1349382046
  0
SEQEND
  0
LINE
  8
0
 62
7
  6
CONTINUOUS
 10
231.8914939193
 20
85.3626570479
 11
231.8890518647
 21
85.645671217
  0
LINE
  8
0
 62
7
  6
CONTINUOUS
 10
232.0629222022
 20
130.7535776871
 11
232.0653381766
 21
130.4705559503
  0
LINE
  8
0
 62
7
  6
CONTINUOUS
 10
231.8914939193
 20
85.3626570479
 11
231.8920502961
 21
79.8145561074
  0
LINE
  8
0
 62
7
  6
CONTINUOUS
 10
232.0623866099
 20
136.2976658126
 11
232.0629222022
 21
130.7535776871
  0
LINE
  8
0
 62
7
  6
CONTINUOUS
 10
232.062445918
 20
136.298747764
 11
232.0623866128
 21
136.2977278241
  0
LINE
  8
0
 62
7
  6
CONTINUOUS
 10
231.8920502961
 20
79.8145239944
 11
231.8919909701
 21
79.8135159572
  0
LINE
  8
0
 62
7
  6
CONTINUOUS
 10
230.8198463668
 20
75.5216986069
 11
230.8357487412
 21
75.6264241519
  0
POLYLINE
  8
0
 62
7
  6
CONTINUOUS
 66
1
 70
0
  0
VERTEX
  8
0
 62
7
  6
CONTINUOUS
 10
249.9227492792
 20
140.4948964504
  0
VERTEX
  8
0
 62
7
  6
CONTINUOUS
 10
249.7429660039
 20
140.0939472287
  0
VERTEX
  8
0
 62
7
  6
CONTINUOUS
 10
249.5679014658
 20
139.6283341879
  0
VERTEX
  8
0
 62
7
  6
CONTINUOUS
 10
249.4091330639
 20
139.1267097074
  0
VERTEX
  8
0
 62
7
  6
CONTINUOUS
 10
249.2664283181
 20
138.5933735052
  0
VERTEX
  8
0
 62
7
  6
CONTINUOUS
 10
249.1397400845
 20
138.0329824835
  0
VERTEX
  8
0
 62
7
  6
CONTINUOUS
 10
249.0290525535
 20
137.4503716779
  0
VERTEX
  8
0
 62
7
  6
CONTINUOUS
 10
248.9343237022
 20
136.850546751
  0
VERTEX
  8
0
 62
7
  6
CONTINUOUS
 10
248.8624458884
 20
136.2987536296
  0
SEQEND
  0
POLYLINE
  8
0
 62
7
  6
CONTINUOUS
 66
1
 70
0
  0
VERTEX
  8
0
 62
7
  6
CONTINUOUS
 10
234.0210448337
 20
141.9561296152
  0
VERTEX
  8
0
 62
7
  6
CONTINUOUS
 10
233.950249506
 20
141.9525114821
  0
VERTEX
  8
0
 62
7
  6
CONTINUOUS
 10
233.8025264137
 20
141.920434877
  0
VERTEX
  8
0
 62
7
  6
CONTINUOUS
 10
233.6676050961
 20
141.857594739
  0
VERTEX
  8
0
 62
7
  6
CONTINUOUS
 10
233.5569712001
 20
141.7742112027
  0
VERTEX
  8
0
 62
7
  6
CONTINUOUS
 10
233.4732166641
 20
141.6829997079
  0
VERTEX
  8
0
 62
7
  6
CONTINUOUS
 10
233.4110764675
 20
141.5914566074
  0
VERTEX
  8
0
 62
7
  6
CONTINUOUS
 10
233.3630287981
 20
141.5000624836
  0
VERTEX
  8
0
 62
7
  6
CONTINUOUS
 10
233.3233363578
 20
141.4059488356
  0
VERTEX
  8
0
 62
7
  6
CONTINUOUS
 10
233.2883217272
 20
141.3052159351
  0
VERTEX
  8
0
 62
7
  6
CONTINUOUS
 10
233.2557452182
 20
141.1937802389
  0
VERTEX
  8
0
 62
7
  6
CONTINUOUS
 10
233.2243465408
 20
141.0679638571
  0
VERTEX
  8
0
 62
7
  6
CONTINUOUS
 10
233.1934104713
 20
140.924359472
  0
VERTEX
  8
0
 62
7
  6
CONTINUOUS
 10
233.1625194015
 20
140.7595957542
  0
VERTEX
  8
0
 62
7
  6
CONTINUOUS
 10
233.1345893876
 20
140.5905534434
  0
SEQEND
  0
POLYLINE
  8
0
 62
7
  6
CONTINUOUS
 66
1
 70
0
  0
VERTEX
  8
0
 62
7
  6
CONTINUOUS
 10
217.2210448337
 20
141.9561296152
  0
VERTEX
  8
0
 62
7
  6
CONTINUOUS
 10
217.150249506
 20
141.9525114821
  0
VERTEX
  8
0
 62
7
  6
CONTINUOUS
 10
217.0025264137
 20
141.920434877
  0
VERTEX
  8
0
 62
7
  6
CONTINUOUS
 10
216.8676050961
 20
141.857594739
  0
VERTEX
  8
0
 62
7
  6
CONTINUOUS
 10
216.7569712001
 20
141.7742112027
  0
VERTEX
  8
0
 62
7
  6
CONTINUOUS
 10
216.6732166641
 20
141.6829997079
  0
VERTEX
  8
0
 62
7
  6
CONTINUOUS
 10
216.6110764675
 20
141.5914566074
  0
VERTEX
  8
0
 62
7
  6
CONTINUOUS
 10
216.5630287981
 20
141.5000624836
  0
VERTEX
  8
0
 62
7
  6
CONTINUOUS
 10
216.5233363578
 20
141.4059488356
  0
VERTEX
  8
0
 62
7
  6
CONTINUOUS
 10
216.4883217272
 20
141.3052159351
  0
VERTEX
  8
0
 62
7
  6
CONTINUOUS
 10
216.4557452182
 20
141.1937802389
  0
VERTEX
  8
0
 62
7
  6
CONTINUOUS
 10
216.4243465408
 20
141.0679638571
  0
VERTEX
  8
0
 62
7
  6
CONTINUOUS
 10
216.3934104713
 20
140.924359472
  0
VERTEX
  8
0
 62
7
  6
CONTINUOUS
 10
216.3625194015
 20
140.7595957542
  0
VERTEX
  8
0
 62
7
  6
CONTINUOUS
 10
216.3345893876
 20
140.5905534434
  0
SEQEND
  0
POLYLINE
  8
0
 62
7
  6
CONTINUOUS
 66
1
 70
0
  0
VERTEX
  8
0
 62
7
  6
CONTINUOUS
 10
200.4210448337
 20
141.9561296152
  0
VERTEX
  8
0
 62
7
  6
CONTINUOUS
 10
200.350249506
 20
141.9525114821
  0
VERTEX
  8
0
 62
7
  6
CONTINUOUS
 10
200.2025264137
 20
141.920434877
  0
VERTEX
  8
0
 62
7
  6
CONTINUOUS
 10
200.0676050961
 20
141.857594739
  0
VERTEX
  8
0
 62
7
  6
CONTINUOUS
 10
199.9569712001
 20
141.7742112027
  0
VERTEX
  8
0
 62
7
  6
CONTINUOUS
 10
199.8732166641
 20
141.6829997079
  0
VERTEX
  8
0
 62
7
  6
CONTINUOUS
 10
199.8110764675
 20
141.5914566074
  0
VERTEX
  8
0
 62
7
  6
CONTINUOUS
 10
199.7630287981
 20
141.5000624836
  0
VERTEX
  8
0
 62
7
  6
CONTINUOUS
 10
199.7233363578
 20
141.4059488356
  0
VERTEX
  8
0
 62
7
  6
CONTINUOUS
 10
199.6883217272
 20
141.3052159351
  0
VERTEX
  8
0
 62
7
  6
CONTINUOUS
 10
199.6557452182
 20
141.1937802389
  0
VERTEX
  8
0
 62
7
  6
CONTINUOUS
 10
199.6243465408
 20
141.0679638571
  0
VERTEX
  8
0
 62
7
  6
CONTINUOUS
 10
199.5934104713
 20
140.924359472
  0
VERTEX
  8
0
 62
7
  6
CONTINUOUS
 10
199.5625194015
 20
140.7595957542
  0
VERTEX
  8
0
 62
7
  6
CONTINUOUS
 10
199.5345893876
 20
140.5905534434
  0
SEQEND
  0
POLYLINE
  8
0
 62
7
  6
CONTINUOUS
 66
1
 70
0
  0
VERTEX
  8
0
 62
7
  6
CONTINUOUS
 10
183.6210448337
 20
141.9561296152
  0
VERTEX
  8
0
 62
7
  6
CONTINUOUS
 10
183.550249506
 20
141.9525114821
  0
VERTEX
  8
0
 62
7
  6
CONTINUOUS
 10
183.4025264137
 20
141.920434877
  0
VERTEX
  8
0
 62
7
  6
CONTINUOUS
 10
183.2676050961
 20
141.857594739
  0
VERTEX
  8
0
 62
7
  6
CONTINUOUS
 10
183.1569712001
 20
141.7742112027
  0
VERTEX
  8
0
 62
7
  6
CONTINUOUS
 10
183.0732166641
 20
141.6829997079
  0
VERTEX
  8
0
 62
7
  6
CONTINUOUS
 10
183.0110764675
 20
141.5914566074
  0
VERTEX
  8
0
 62
7
  6
CONTINUOUS
 10
182.9630287981
 20
141.5000624836
  0
VERTEX
  8
0
 62
7
  6
CONTINUOUS
 10
182.9233363578
 20
141.4059488356
  0
VERTEX
  8
0
 62
7
  6
CONTINUOUS
 10
182.8883217272
 20
141.3052159351
  0
VERTEX
  8
0
 62
7
  6
CONTINUOUS
 10
182.8557452182
 20
141.1937802389
  0
VERTEX
  8
0
 62
7
  6
CONTINUOUS
 10
182.8243465408
 20
141.0679638571
  0
VERTEX
  8
0
 62
7
  6
CONTINUOUS
 10
182.7934104713
 20
140.924359472
  0
VERTEX
  8
0
 62
7
  6
CONTINUOUS
 10
182.7625194015
 20
140.7595957542
  0
VERTEX
  8
0
 62
7
  6
CONTINUOUS
 10
182.7345893876
 20
140.5905534434
  0
SEQEND
  0
POLYLINE
  8
0
 62
7
  6
CONTINUOUS
 66
1
 70
0
  0
VERTEX
  8
0
 62
7
  6
CONTINUOUS
 10
166.8210448337
 20
141.9561296152
  0
VERTEX
  8
0
 62
7
  6
CONTINUOUS
 10
166.750249506
 20
141.9525114821
  0
VERTEX
  8
0
 62
7
  6
CONTINUOUS
 10
166.6025264137
 20
141.920434877
  0
VERTEX
  8
0
 62
7
  6
CONTINUOUS
 10
166.4676050961
 20
141.857594739
  0
VERTEX
  8
0
 62
7
  6
CONTINUOUS
 10
166.3569712001
 20
141.7742112027
  0
VERTEX
  8
0
 62
7
  6
CONTINUOUS
 10
166.2732166641
 20
141.6829997079
  0
VERTEX
  8
0
 62
7
  6
CONTINUOUS
 10
166.2110764675
 20
141.5914566074
  0
VERTEX
  8
0
 62
7
  6
CONTINUOUS
 10
166.1630287981
 20
141.5000624836
  0
VERTEX
  8
0
 62
7
  6
CONTINUOUS
 10
166.1233363578
 20
141.4059488356
  0
VERTEX
  8
0
 62
7
  6
CONTINUOUS
 10
166.0883217272
 20
141.3052159351
  0
VERTEX
  8
0
 62
7
  6
CONTINUOUS
 10
166.0557452182
 20
141.1937802389
  0
VERTEX
  8
0
 62
7
  6
CONTINUOUS
 10
166.0243465408
 20
141.0679638571
  0
VERTEX
  8
0
 62
7
  6
CONTINUOUS
 10
165.9934104713
 20
140.924359472
  0
VERTEX
  8
0
 62
7
  6
CONTINUOUS
 10
165.9625194015
 20
140.7595957542
  0
VERTEX
  8
0
 62
7
  6
CONTINUOUS
 10
165.9345893876
 20
140.5905534434
  0
SEQEND
  0
POLYLINE
  8
0
 62
7
  6
CONTINUOUS
 66
1
 70
0
  0
VERTEX
  8
0
 62
7
  6
CONTINUOUS
 10
150.0210448337
 20
141.9561296152
  0
VERTEX
  8
0
 62
7
  6
CONTINUOUS
 10
149.950249506
 20
141.9525114821
  0
VERTEX
  8
0
 62
7
  6
CONTINUOUS
 10
149.8025264137
 20
141.920434877
  0
VERTEX
  8
0
 62
7
  6
CONTINUOUS
 10
149.6676050961
 20
141.857594739
  0
VERTEX
  8
0
 62
7
  6
CONTINUOUS
 10
149.5569712001
 20
141.7742112027
  0
VERTEX
  8
0
 62
7
  6
CONTINUOUS
 10
149.4732166641
 20
141.6829997079
  0
VERTEX
  8
0
 62
7
  6
CONTINUOUS
 10
149.4110764675
 20
141.5914566074
  0
VERTEX
  8
0
 62
7
  6
CONTINUOUS
 10
149.3630287981
 20
141.5000624836
  0
VERTEX
  8
0
 62
7
  6
CONTINUOUS
 10
149.3233363578
 20
141.4059488356
  0
VERTEX
  8
0
 62
7
  6
CONTINUOUS
 10
149.2883217272
 20
141.3052159351
  0
VERTEX
  8
0
 62
7
  6
CONTINUOUS
 10
149.2557452182
 20
141.1937802389
  0
VERTEX
  8
0
 62
7
  6
CONTINUOUS
 10
149.2243465408
 20
141.0679638571
  0
VERTEX
  8
0
 62
7
  6
CONTINUOUS
 10
149.1934104713
 20
140.924359472
  0
VERTEX
  8
0
 62
7
  6
CONTINUOUS
 10
149.1625194015
 20
140.7595957542
  0
VERTEX
  8
0
 62
7
  6
CONTINUOUS
 10
149.1345893876
 20
140.5905534434
  0
SEQEND
  0
POLYLINE
  8
0
 62
7
  6
CONTINUOUS
 66
1
 70
0
  0
VERTEX
  8
0
 62
7
  6
CONTINUOUS
 10
133.2210448331
 20
141.9561296152
  0
VERTEX
  8
0
 62
7
  6
CONTINUOUS
 10
133.150249682
 20
141.9525115002
  0
VERTEX
  8
0
 62
7
  6
CONTINUOUS
 10
133.0025266441
 20
141.9204349548
  0
VERTEX
  8
0
 62
7
  6
CONTINUOUS
 10
132.8676052777
 20
141.8575948492
  0
VERTEX
  8
0
 62
7
  6
CONTINUOUS
 10
132.7569712733
 20
141.7742112701
  0
VERTEX
  8
0
 62
7
  6
CONTINUOUS
 10
132.6732166643
 20
141.6829997081
  0
VERTEX
  8
0
 62
7
  6
CONTINUOUS
 10
132.611076413
 20
141.5914565154
  0
VERTEX
  8
0
 62
7
  6
CONTINUOUS
 10
132.5630287146
 20
141.500062305
  0
VERTEX
  8
0
 62
7
  6
CONTINUOUS
 10
132.5233362676
 20
141.4059485989
  0
VERTEX
  8
0
 62
7
  6
CONTINUOUS
 10
132.4883216365
 20
141.30521565
  0
VERTEX
  8
0
 62
7
  6
CONTINUOUS
 10
132.4557451321
 20
141.1937799198
  0
VERTEX
  8
0
 62
7
  6
CONTINUOUS
 10
132.4243464655
 20
141.0679635321
  0
VERTEX
  8
0
 62
7
  6
CONTINUOUS
 10
132.393410414
 20
140.9243591868
  0
VERTEX
  8
0
 62
7
  6
CONTINUOUS
 10
132.3625193699
 20
140.7595955738
  0
VERTEX
  8
0
 62
7
  6
CONTINUOUS
 10
132.3345893876
 20
140.5905534433
  0
SEQEND
  0
LINE
  8
0
 62
7
  6
CONTINUOUS
 10
133.2209254575
 20
141.9561297186
 11
137.5335075077
 21
141.9561297186
  0
LINE
  8
0
 62
7
  6
CONTINUOUS
 10
150.0209293983
 20
141.9561297186
 11
154.3335075077
 21
141.9561297186
  0
LINE
  8
0
 62
7
  6
CONTINUOUS
 10
166.8209293983
 20
141.9561297186
 11
171.1335075077
 21
141.9561297186
  0
LINE
  8
0
 62
7
  6
CONTINUOUS
 10
183.6209293983
 20
141.9561297186
 11
187.9335075077
 21
141.9561297186
  0
LINE
  8
0
 62
7
  6
CONTINUOUS
 10
200.4209293983
 20
141.9561297186
 11
204.7335075077
 21
141.9561297186
  0
LINE
  8
0
 62
7
  6
CONTINUOUS
 10
217.2209293983
 20
141.9561297186
 11
221.5335075077
 21
141.9561297186
  0
LINE
  8
0
 62
7
  6
CONTINUOUS
 10
234.0209293983
 20
141.9561297186
 11
238.3335075077
 21
141.9561297186
  0
LINE
  8
0
 62
7
  6
CONTINUOUS
 10
250.8209293983
 20
141.9561297186
 11
255.1335075077
 21
141.9561297186
  0
LINE
  8
0
 62
7
  6
CONTINUOUS
 10
267.6209223617
 20
141.9561297186
 11
273.6771995409
 21
141.9561297186
  0
LINE
  8
0
 62
7
  6
CONTINUOUS
 10
222.611470902
 20
140.0939472287
 11
222.4316876268
 21
140.4948964504
  0
POLYLINE
  8
0
 62
7
  6
CONTINUOUS
 66
1
 70
0
  0
VERTEX
  8
0
 62
7
  6
CONTINUOUS
 10
241.5345892784
 20
75.5217066944
  0
VERTEX
  8
0
 62
7
  6
CONTINUOUS
 10
241.5622510901
 20
75.3541941252
  0
VERTEX
  8
0
 62
7
  6
CONTINUOUS
 10
241.593155888
 20
75.1891679071
  0
VERTEX
  8
0
 62
7
  6
CONTINUOUS
 10
241.6241046745
 20
75.0453402058
  0
VERTEX
  8
0
 62
7
  6
CONTINUOUS
 10
241.6555138618
 20
74.9193375827
  0
VERTEX
  8
0
 62
7
  6
CONTINUOUS
 10
241.6880970029
 20
74.8077507436
  0
VERTEX
  8
0
 62
7
  6
CONTINUOUS
 10
241.7231120116
 20
74.7068994248
  0
VERTEX
  8
0
 62
7
  6
CONTINUOUS
 10
241.7627955099
 20
74.6126959583
  0
VERTEX
  8
0
 62
7
  6
CONTINUOUS
 10
241.8108226278
 20
74.5212320325
  0
VERTEX
  8
0
 62
7
  6
CONTINUOUS
 10
241.8729322785
 20
74.4296248098
  0
VERTEX
  8
0
 62
7
  6
CONTINUOUS
 10
241.9566612033
 20
74.3383339422
  0
VERTEX
  8
0
 62
7
  6
CONTINUOUS
 10
242.0673066145
 20
74.2548460346
  0
VERTEX
  8
0
 62
7
  6
CONTINUOUS
 10
242.20229628
 20
74.1919023112
  0
VERTEX
  8
0
 62
7
  6
CONTINUOUS
 10
242.3501310693
 20
74.1597601554
  0
VERTEX
  8
0
 62
7
  6
CONTINUOUS
 10
242.4210452118
 20
74.1561298226
  0
SEQEND
  0
LINE
  8
0
 62
7
  6
CONTINUOUS
 10
241.5186881649
 20
75.6264241516
 11
241.5345905392
 21
75.5216986069
  0
LINE
  8
0
 62
7
  6
CONTINUOUS
 10
240.4624459147
 20
79.8135117015
 11
240.4623866128
 21
79.8145316132
  0
LINE
  8
0
 62
7
  6
CONTINUOUS
 10
240.291990988
 20
136.298747764
 11
240.2920502932
 21
136.2977278241
  0
POLYLINE
  8
0
 62
7
  6
CONTINUOUS
 66
1
 70
0
  0
VERTEX
  8
0
 62
7
  6
CONTINUOUS
 10
240.2850877911
 20
130.1731280781
  0
VERTEX
  8
0
 62
7
  6
CONTINUOUS
 10
240.2890522676
 20
130.4665920638
  0
VERTEX
  8
0
 62
7
  6
CONTINUOUS
 10
240.2914940115
 20
130.7496042653
  0
VERTEX
  8
0
 62
7
  6
CONTINUOUS
 10
240.2920502961
 20
136.2976658126
  0
SEQEND
  0
POLYLINE
  8
0
 62
7
  6
CONTINUOUS
 66
1
 70
0
  0
VERTEX
  8
0
 62
7
  6
CONTINUOUS
 10
240.469315732
 20
85.9355025335
  0
VERTEX
  8
0
 62
7
  6
CONTINUOUS
 10
240.4653381768
 20
85.6417034364
  0
VERTEX
  8
0
 62
7
  6
CONTINUOUS
 10
240.4629222024
 20
85.3586817758
  0
VERTEX
  8
0
 62
7
  6
CONTINUOUS
 10
240.4623866099
 20
79.8145936247
  0
SEQEND
  0
POLYLINE
  8
0
 62
7
  6
CONTINUOUS
 66
1
 70
0
  0
VERTEX
  8
0
 62
7
  6
CONTINUOUS
 10
230.83168867
 20
75.617365113
  0
VERTEX
  8
0
 62
7
  6
CONTINUOUS
 10
231.0124153971
 20
76.0206118524
  0
VERTEX
  8
0
 62
7
  6
CONTINUOUS
 10
231.1874092149
 20
76.4864625837
  0
VERTEX
  8
0
 62
7
  6
CONTINUOUS
 10
231.346107168
 20
76.9883131037
  0
VERTEX
  8
0
 62
7
  6
CONTINUOUS
 10
231.4887399436
 20
77.5218609371
  0
VERTEX
  8
0
 62
7
  6
CONTINUOUS
 10
231.6153538435
 20
78.082446768
  0
VERTEX
  8
0
 62
7
  6
CONTINUOUS
 10
231.7259644543
 20
78.665233903
  0
VERTEX
  8
0
 62
7
  6
CONTINUOUS
 10
231.8206139141
 20
79.2652154914
  0
VERTEX
  8
0
 62
7
  6
CONTINUOUS
 10
231.8919910209
 20
79.8135058359
  0
SEQEND
  0
POLYLINE
  8
0
 62
7
  6
CONTINUOUS
 66
1
 70
0
  0
VERTEX
  8
0
 62
7
  6
CONTINUOUS
 10
231.8919909701
 20
79.8135159572
  0
VERTEX
  8
0
 62
7
  6
CONTINUOUS
 10
231.8861792697
 20
79.8049190593
  0
VERTEX
  8
0
 62
7
  6
CONTINUOUS
 10
231.8670925167
 20
79.7961257408
  0
VERTEX
  8
0
 62
7
  6
CONTINUOUS
 10
231.8358912696
 20
79.789397298
  0
VERTEX
  8
0
 62
7
  6
CONTINUOUS
 10
231.7945727237
 20
79.7850775947
  0
VERTEX
  8
0
 62
7
  6
CONTINUOUS
 10
231.7458763776
 20
79.783288708
  0
VERTEX
  8
0
 62
7
  6
CONTINUOUS
 10
231.6920502961
 20
79.7838483954
  0
SEQEND
  0
POLYLINE
  8
0
 62
6
  6
CONTINUOUS
 66
1
 70
0
  0
VERTEX
  8
0
 62
6
  6
CONTINUOUS
 10
265.4843509826
 20
79.8265816832
  0
VERTEX
  8
0
 62
6
  6
CONTINUOUS
 10
265.4920175928
 20
79.8152736053
  0
VERTEX
  8
0
 62
6
  6
CONTINUOUS
 10
265.4861792697
 20
79.8049190593
  0
SEQEND
  0
LINE
  8
0
 62
7
  6
CONTINUOUS
 10
258.1420215528
 20
76.0206117455
 11
258.322748236
 21
75.617365113
  0
POLYLINE
  8
0
 62
7
  6
CONTINUOUS
 66
1
 70
0
  0
VERTEX
  8
0
 62
7
  6
CONTINUOUS
 10
240.4624458851
 20
79.8135058358
  0
VERTEX
  8
0
 62
7
  6
CONTINUOUS
 10
240.5338231402
 20
79.2652144535
  0
VERTEX
  8
0
 62
7
  6
CONTINUOUS
 10
240.6284726015
 20
78.665233038
  0
VERTEX
  8
0
 62
7
  6
CONTINUOUS
 10
240.7390832064
 20
78.0824460736
  0
VERTEX
  8
0
 62
7
  6
CONTINUOUS
 10
240.8656970925
 20
77.5218604073
  0
VERTEX
  8
0
 62
7
  6
CONTINUOUS
 10
241.0083298469
 20
76.9883127289
  0
VERTEX
  8
0
 62
7
  6
CONTINUOUS
 10
241.1670277712
 20
76.4864623509
  0
VERTEX
  8
0
 62
7
  6
CONTINUOUS
 10
241.3420215528
 20
76.0206117455
  0
SEQEND
  0
POLYLINE
  8
0
 62
7
  6
CONTINUOUS
 66
1
 70
0
  0
VERTEX
  8
0
 62
7
  6
CONTINUOUS
 10
248.6890518647
 20
85.645671217
  0
VERTEX
  8
0
 62
7
  6
CONTINUOUS
 10
248.6851168981
 20
85.9358864854
  0
VERTEX
  8
0
 62
7
  6
CONTINUOUS
 10
248.6849814826
 20
86.0119913914
  0
VERTEX
  8
0
 62
7
  6
CONTINUOUS
 10
248.6861212722
 20
86.0874894211
  0
VERTEX
  8
0
 62
7
  6
CONTINUOUS
 10
248.6887049368
 20
86.1621545456
  0
VERTEX
  8
0
 62
7
  6
CONTINUOUS
 10
248.6929181886
 20
86.2358028945
  0
VERTEX
  8
0
 62
7
  6
CONTINUOUS
 10
248.6989311994
 20
86.3082801486
  0
VERTEX
  8
0
 62
7
  6
CONTINUOUS
 10
248.7068916636
 20
86.3792785032
  0
VERTEX
  8
0
 62
7
  6
CONTINUOUS
 10
248.7169383622
 20
86.4483005128
  0
VERTEX
  8
0
 62
7
  6
CONTINUOUS
 10
248.7292390739
 20
86.5154443199
  0
VERTEX
  8
0
 62
7
  6
CONTINUOUS
 10
248.743940487
 20
86.5805031768
  0
VERTEX
  8
0
 62
7
  6
CONTINUOUS
 10
248.7613049709
 20
86.6430242818
  0
VERTEX
  8
0
 62
7
  6
CONTINUOUS
 10
248.7814947796
 20
86.7013520439
  0
VERTEX
  8
0
 62
7
  6
CONTINUOUS
 10
248.8053463018
 20
86.7560935846
  0
VERTEX
  8
0
 62
7
  6
CONTINUOUS
 10
248.8327140856
 20
86.8064540097
  0
VERTEX
  8
0
 62
7
  6
CONTINUOUS
 10
248.8629073831
 20
86.8510374273
  0
VERTEX
  8
0
 62
7
  6
CONTINUOUS
 10
248.8954296719
 20
86.8893829875
  0
VERTEX
  8
0
 62
7
  6
CONTINUOUS
 10
248.9304002582
 20
86.9216700787
  0
VERTEX
  8
0
 62
7
  6
CONTINUOUS
 10
248.9676892432
 20
86.9474982691
  0
VERTEX
  8
0
 62
7
  6
CONTINUOUS
 10
249.0072965879
 20
86.9661511011
  0
VERTEX
  8
0
 62
7
  6
CONTINUOUS
 10
249.0483036227
 20
86.9760962095
  0
VERTEX
  8
0
 62
7
  6
CONTINUOUS
 10
249.0674812287
 20
86.9773206493
  0
SEQEND
  0
LINE
  8
0
 62
7
  6
CONTINUOUS
 10
248.6914939193
 20
85.3626570479
 11
248.6890518647
 21
85.645671217
  0
LINE
  8
0
 62
7
  6
CONTINUOUS
 10
248.6914939193
 20
85.3626570479
 11
248.6920502961
 21
79.8145561074
  0
LINE
  8
0
 62
7
  6
CONTINUOUS
 10
248.862445918
 20
136.298747764
 11
248.8623866128
 21
136.2977278241
  0
LINE
  8
0
 62
7
  6
CONTINUOUS
 10
249.9345906748
 20
140.5905617003
 11
249.9186858903
 21
140.4858343583
  0
POLYLINE
  8
0
 62
7
  6
CONTINUOUS
 66
1
 70
0
  0
VERTEX
  8
0
 62
7
  6
CONTINUOUS
 10
266.7227492792
 20
140.4948964504
  0
VERTEX
  8
0
 62
7
  6
CONTINUOUS
 10
266.5429660039
 20
140.0939472287
  0
VERTEX
  8
0
 62
7
  6
CONTINUOUS
 10
266.3679014658
 20
139.6283341879
  0
VERTEX
  8
0
 62
7
  6
CONTINUOUS
 10
266.2091330639
 20
139.1267097074
  0
VERTEX
  8
0
 62
7
  6
CONTINUOUS
 10
266.0664283181
 20
138.5933735052
  0
VERTEX
  8
0
 62
7
  6
CONTINUOUS
 10
265.9397400845
 20
138.0329824835
  0
VERTEX
  8
0
 62
7
  6
CONTINUOUS
 10
265.8290525535
 20
137.4503716779
  0
VERTEX
  8
0
 62
7
  6
CONTINUOUS
 10
265.7343237022
 20
136.850546751
  0
VERTEX
  8
0
 62
7
  6
CONTINUOUS
 10
265.6624458884
 20
136.2987536296
  0
SEQEND
  0
POLYLINE
  8
0
 62
6
  6
CONTINUOUS
 66
1
 70
0
  0
VERTEX
  8
0
 62
6
  6
CONTINUOUS
 10
257.2654595283
 20
79.8074622606
  0
VERTEX
  8
0
 62
6
  6
CONTINUOUS
 10
257.262661402
 20
79.8167236823
  0
VERTEX
  8
0
 62
6
  6
CONTINUOUS
 10
257.2700862361
 20
79.8265819435
  0
SEQEND
  0
POLYLINE
  8
0
 62
7
  6
CONTINUOUS
 66
1
 70
0
  0
VERTEX
  8
0
 62
7
  6
CONTINUOUS
 10
239.2198475104
 20
140.590553495
  0
VERTEX
  8
0
 62
7
  6
CONTINUOUS
 10
239.1919608646
 20
140.7593485483
  0
VERTEX
  8
0
 62
7
  6
CONTINUOUS
 10
239.1611169632
 20
140.9239087647
  0
VERTEX
  8
0
 62
7
  6
CONTINUOUS
 10
239.1302332124
 20
141.0673470412
  0
VERTEX
  8
0
 62
7
  6
CONTINUOUS
 10
239.0988951658
 20
141.1930253417
  0
VERTEX
  8
0
 62
7
  6
CONTINUOUS
 10
239.0663937805
 20
141.304339012
  0
VERTEX
  8
0
 62
7
  6
CONTINUOUS
 10
239.0314814777
 20
141.4049486335
  0
VERTEX
  8
0
 62
7
  6
CONTINUOUS
 10
238.9919448504
 20
141.4989135046
  0
VERTEX
  8
0
 62
7
  6
CONTINUOUS
 10
238.9441562592
 20
141.5901092857
  0
VERTEX
  8
0
 62
7
  6
CONTINUOUS
 10
238.882447216
 20
141.6814214621
  0
VERTEX
  8
0
 62
7
  6
CONTINUOUS
 10
238.7993501486
 20
141.772469216
  0
VERTEX
  8
0
 62
7
  6
CONTINUOUS
 10
238.6895448835
 20
141.8559387751
  0
VERTEX
  8
0
 62
7
  6
CONTINUOUS
 10
238.5553911014
 20
141.9192490822
  0
VERTEX
  8
0
 62
7
  6
CONTINUOUS
 10
238.4081448461
 20
141.9520925576
  0
VERTEX
  8
0
 62
7
  6
CONTINUOUS
 10
238.3333891404
 20
141.9561296117
  0
SEQEND
  0
LINE
  8
0
 62
7
  6
CONTINUOUS
 10
239.2357510157
 20
140.4858343583
 11
239.2198462312
 21
140.5905617003
  0
POLYLINE
  8
0
 62
7
  6
CONTINUOUS
 66
1
 70
0
  0
VERTEX
  8
0
 62
7
  6
CONTINUOUS
 10
240.2919910176
 20
136.2987536296
  0
VERTEX
  8
0
 62
7
  6
CONTINUOUS
 10
240.2201132038
 20
136.850546751
  0
VERTEX
  8
0
 62
7
  6
CONTINUOUS
 10
240.1253843525
 20
137.4503716779
  0
VERTEX
  8
0
 62
7
  6
CONTINUOUS
 10
240.0146968215
 20
138.0329824835
  0
VERTEX
  8
0
 62
7
  6
CONTINUOUS
 10
239.8880085879
 20
138.5933735052
  0
VERTEX
  8
0
 62
7
  6
CONTINUOUS
 10
239.7453038421
 20
139.1267097074
  0
VERTEX
  8
0
 62
7
  6
CONTINUOUS
 10
239.5865354402
 20
139.6283341879
  0
VERTEX
  8
0
 62
7
  6
CONTINUOUS
 10
239.411470902
 20
140.0939472287
  0
SEQEND
  0
POLYLINE
  8
0
 62
7
  6
CONTINUOUS
 66
1
 70
0
  0
VERTEX
  8
0
 62
7
  6
CONTINUOUS
 10
248.8653381766
 20
130.4705559503
  0
VERTEX
  8
0
 62
7
  6
CONTINUOUS
 10
248.8693111535
 20
130.1772338315
  0
VERTEX
  8
0
 62
7
  6
CONTINUOUS
 10
248.869437477
 20
130.0976402884
  0
VERTEX
  8
0
 62
7
  6
CONTINUOUS
 10
248.8681587976
 20
130.0185776272
  0
VERTEX
  8
0
 62
7
  6
CONTINUOUS
 10
248.8652723207
 20
129.9403259029
  0
VERTEX
  8
0
 62
7
  6
CONTINUOUS
 10
248.8605569187
 20
129.863107659
  0
VERTEX
  8
0
 62
7
  6
CONTINUOUS
 10
248.8538139982
 20
129.7871426101
  0
VERTEX
  8
0
 62
7
  6
CONTINUOUS
 10
248.844867652
 20
129.7128634654
  0
VERTEX
  8
0
 62
7
  6
CONTINUOUS
 10
248.8335481348
 20
129.640778467
  0
VERTEX
  8
0
 62
7
  6
CONTINUOUS
 10
248.8196567356
 20
129.5706737981
  0
VERTEX
  8
0
 62
7
  6
CONTINUOUS
 10
248.8029568597
 20
129.503023646
  0
VERTEX
  8
0
 62
7
  6
CONTINUOUS
 10
248.7832423179
 20
129.4389554617
  0
VERTEX
  8
0
 62
7
  6
CONTINUOUS
 10
248.7598956403
 20
129.3794656367
  0
VERTEX
  8
0
 62
7
  6
CONTINUOUS
 10
248.7324272171
 20
129.3241966878
  0
VERTEX
  8
0
 62
7
  6
CONTINUOUS
 10
248.7014123405
 20
129.2747521585
  0
VERTEX
  8
0
 62
7
  6
CONTINUOUS
 10
248.6679696545
 20
129.2325731856
  0
VERTEX
  8
0
 62
7
  6
CONTINUOUS
 10
248.6320997632
 20
129.1972988938
  0
VERTEX
  8
0
 62
7
  6
CONTINUOUS
 10
248.5937795878
 20
129.1690030824
  0
VERTEX
  8
0
 62
7
  6
CONTINUOUS
 10
248.5529485873
 20
129.1482929767
  0
VERTEX
  8
0
 62
7
  6
CONTINUOUS
 10
248.5101517646
 20
129.1367047147
  0
VERTEX
  8
0
 62
7
  6
CONTINUOUS
 10
248.4867819663
 20
129.1349382046
  0
SEQEND
  0
LINE
  8
0
 62
7
  6
CONTINUOUS
 10
248.8629222022
 20
130.7535776871
 11
248.8653381766
 21
130.4705559503
  0
LINE
  8
0
 62
7
  6
CONTINUOUS
 10
248.8623866099
 20
136.2976658126
 11
248.8629222022
 21
130.7535776871
  0
LINE
  8
0
 62
6
  6
CONTINUOUS
 10
252.977218453
 20
86.9776779923
 11
252.977218453
 21
141.9561264721
  0
LINE
  8
0
 62
7
  6
CONTINUOUS
 10
248.6920502961
 20
79.8145239944
 11
248.6919909701
 21
79.8135159572
  0
LINE
  8
0
 62
7
  6
CONTINUOUS
 10
247.6198463668
 20
75.5216986069
 11
247.6357487412
 21
75.6264241519
  0
POLYLINE
  8
0
 62
6
  6
CONTINUOUS
 66
1
 70
0
  0
VERTEX
  8
0
 62
6
  6
CONTINUOUS
 10
265.6654595286
 20
136.3047971771
  0
VERTEX
  8
0
 62
6
  6
CONTINUOUS
 10
265.6626614019
 20
136.2955357553
  0
VERTEX
  8
0
 62
6
  6
CONTINUOUS
 10
265.6700862361
 20
136.2856774938
  0
SEQEND
  0
LINE
  8
0
 62
7
  6
CONTINUOUS
 10
239.411470902
 20
140.0939472287
 11
239.2316876268
 21
140.4948964504
  0
POLYLINE
  8
0
 62
7
  6
CONTINUOUS
 66
1
 70
0
  0
VERTEX
  8
0
 62
7
  6
CONTINUOUS
 10
258.3345892784
 20
75.5217066944
  0
VERTEX
  8
0
 62
7
  6
CONTINUOUS
 10
258.3622510901
 20
75.3541941252
  0
VERTEX
  8
0
 62
7
  6
CONTINUOUS
 10
258.393155888
 20
75.1891679071
  0
VERTEX
  8
0
 62
7
  6
CONTINUOUS
 10
258.4241046745
 20
75.0453402058
  0
VERTEX
  8
0
 62
7
  6
CONTINUOUS
 10
258.4555138618
 20
74.9193375827
  0
VERTEX
  8
0
 62
7
  6
CONTINUOUS
 10
258.4880970029
 20
74.8077507436
  0
VERTEX
  8
0
 62
7
  6
CONTINUOUS
 10
258.5231120116
 20
74.7068994248
  0
VERTEX
  8
0
 62
7
  6
CONTINUOUS
 10
258.5627955099
 20
74.6126959583
  0
VERTEX
  8
0
 62
7
  6
CONTINUOUS
 10
258.6108226278
 20
74.5212320325
  0
VERTEX
  8
0
 62
7
  6
CONTINUOUS
 10
258.6729322785
 20
74.4296248098
  0
VERTEX
  8
0
 62
7
  6
CONTINUOUS
 10
258.7566612033
 20
74.3383339422
  0
VERTEX
  8
0
 62
7
  6
CONTINUOUS
 10
258.8673066145
 20
74.2548460346
  0
VERTEX
  8
0
 62
7
  6
CONTINUOUS
 10
259.00229628
 20
74.1919023112
  0
VERTEX
  8
0
 62
7
  6
CONTINUOUS
 10
259.1501310693
 20
74.1597601554
  0
VERTEX
  8
0
 62
7
  6
CONTINUOUS
 10
259.2210452118
 20
74.1561298226
  0
SEQEND
  0
LINE
  8
0
 62
7
  6
CONTINUOUS
 10
258.3186881649
 20
75.6264241516
 11
258.3345905392
 21
75.5216986069
  0
POLYLINE
  8
0
 62
7
  6
CONTINUOUS
 66
1
 70
0
  0
VERTEX
  8
0
 62
7
  6
CONTINUOUS
 10
257.2624458851
 20
79.8135058358
  0
VERTEX
  8
0
 62
7
  6
CONTINUOUS
 10
257.3338231402
 20
79.2652144535
  0
VERTEX
  8
0
 62
7
  6
CONTINUOUS
 10
257.4284726015
 20
78.665233038
  0
VERTEX
  8
0
 62
7
  6
CONTINUOUS
 10
257.5390832064
 20
78.0824460736
  0
VERTEX
  8
0
 62
7
  6
CONTINUOUS
 10
257.6656970925
 20
77.5218604073
  0
VERTEX
  8
0
 62
7
  6
CONTINUOUS
 10
257.8083298469
 20
76.9883127289
  0
VERTEX
  8
0
 62
7
  6
CONTINUOUS
 10
257.9670277712
 20
76.4864623509
  0
VERTEX
  8
0
 62
7
  6
CONTINUOUS
 10
258.1420215528
 20
76.0206117455
  0
SEQEND
  0
LINE
  8
0
 62
7
  6
CONTINUOUS
 10
257.2624459147
 20
79.8135117015
 11
257.2623866128
 21
79.8145316132
  0
LINE
  8
0
 62
7
  6
CONTINUOUS
 10
257.091990988
 20
136.298747764
 11
257.0920502932
 21
136.2977278241
  0
POLYLINE
  8
0
 62
7
  6
CONTINUOUS
 66
1
 70
0
  0
VERTEX
  8
0
 62
7
  6
CONTINUOUS
 10
257.0850877911
 20
130.1731280781
  0
VERTEX
  8
0
 62
7
  6
CONTINUOUS
 10
257.0890522676
 20
130.4665920638
  0
VERTEX
  8
0
 62
7
  6
CONTINUOUS
 10
257.0914940115
 20
130.7496042653
  0
VERTEX
  8
0
 62
7
  6
CONTINUOUS
 10
257.0920502961
 20
136.2976658126
  0
SEQEND
  0
POLYLINE
  8
0
 62
7
  6
CONTINUOUS
 66
1
 70
0
  0
VERTEX
  8
0
 62
7
  6
CONTINUOUS
 10
257.269315732
 20
85.9355025335
  0
VERTEX
  8
0
 62
7
  6
CONTINUOUS
 10
257.2653381768
 20
85.6417034364
  0
VERTEX
  8
0
 62
7
  6
CONTINUOUS
 10
257.2629222024
 20
85.3586817758
  0
VERTEX
  8
0
 62
7
  6
CONTINUOUS
 10
257.2623866099
 20
79.8145936247
  0
SEQEND
  0
LINE
  8
0
 62
7
  6
CONTINUOUS
 10
266.7345906748
 20
140.5905617003
 11
266.7186858903
 21
140.4858343583
  0
POLYLINE
  8
0
 62
7
  6
CONTINUOUS
 66
1
 70
0
  0
VERTEX
  8
0
 62
7
  6
CONTINUOUS
 10
247.63168867
 20
75.617365113
  0
VERTEX
  8
0
 62
7
  6
CONTINUOUS
 10
247.8124153971
 20
76.0206118524
  0
VERTEX
  8
0
 62
7
  6
CONTINUOUS
 10
247.9874092149
 20
76.4864625837
  0
VERTEX
  8
0
 62
7
  6
CONTINUOUS
 10
248.146107168
 20
76.9883131037
  0
VERTEX
  8
0
 62
7
  6
CONTINUOUS
 10
248.2887399436
 20
77.5218609371
  0
VERTEX
  8
0
 62
7
  6
CONTINUOUS
 10
248.4153538435
 20
78.082446768
  0
VERTEX
  8
0
 62
7
  6
CONTINUOUS
 10
248.5259644543
 20
78.665233903
  0
VERTEX
  8
0
 62
7
  6
CONTINUOUS
 10
248.6206139141
 20
79.2652154914
  0
VERTEX
  8
0
 62
7
  6
CONTINUOUS
 10
248.6919910209
 20
79.8135058359
  0
SEQEND
  0
POLYLINE
  8
0
 62
7
  6
CONTINUOUS
 66
1
 70
0
  0
VERTEX
  8
0
 62
7
  6
CONTINUOUS
 10
248.6919909701
 20
79.8135159572
  0
VERTEX
  8
0
 62
7
  6
CONTINUOUS
 10
248.6861792697
 20
79.8049190593
  0
VERTEX
  8
0
 62
7
  6
CONTINUOUS
 10
248.6670925167
 20
79.7961257408
  0
VERTEX
  8
0
 62
7
  6
CONTINUOUS
 10
248.6358912696
 20
79.789397298
  0
VERTEX
  8
0
 62
7
  6
CONTINUOUS
 10
248.5945727237
 20
79.7850775947
  0
VERTEX
  8
0
 62
7
  6
CONTINUOUS
 10
248.5458763776
 20
79.783288708
  0
VERTEX
  8
0
 62
7
  6
CONTINUOUS
 10
248.4920502961
 20
79.7838483954
  0
SEQEND
  0
POLYLINE
  8
0
 62
7
  6
CONTINUOUS
 66
1
 70
0
  0
VERTEX
  8
0
 62
7
  6
CONTINUOUS
 10
256.0198475104
 20
140.590553495
  0
VERTEX
  8
0
 62
7
  6
CONTINUOUS
 10
255.9919608646
 20
140.7593485483
  0
VERTEX
  8
0
 62
7
  6
CONTINUOUS
 10
255.9611169632
 20
140.9239087647
  0
VERTEX
  8
0
 62
7
  6
CONTINUOUS
 10
255.9302332124
 20
141.0673470412
  0
VERTEX
  8
0
 62
7
  6
CONTINUOUS
 10
255.8988951658
 20
141.1930253417
  0
VERTEX
  8
0
 62
7
  6
CONTINUOUS
 10
255.8663937805
 20
141.304339012
  0
VERTEX
  8
0
 62
7
  6
CONTINUOUS
 10
255.8314814777
 20
141.4049486335
  0
VERTEX
  8
0
 62
7
  6
CONTINUOUS
 10
255.7919448504
 20
141.4989135046
  0
VERTEX
  8
0
 62
7
  6
CONTINUOUS
 10
255.7441562592
 20
141.5901092857
  0
VERTEX
  8
0
 62
7
  6
CONTINUOUS
 10
255.682447216
 20
141.6814214621
  0
VERTEX
  8
0
 62
7
  6
CONTINUOUS
 10
255.5993501486
 20
141.772469216
  0
VERTEX
  8
0
 62
7
  6
CONTINUOUS
 10
255.4895448835
 20
141.8559387751
  0
VERTEX
  8
0
 62
7
  6
CONTINUOUS
 10
255.3553911014
 20
141.9192490822
  0
VERTEX
  8
0
 62
7
  6
CONTINUOUS
 10
255.2081448461
 20
141.9520925576
  0
VERTEX
  8
0
 62
7
  6
CONTINUOUS
 10
255.1333891404
 20
141.9561296117
  0
SEQEND
  0
LINE
  8
0
 62
7
  6
CONTINUOUS
 10
256.0357510157
 20
140.4858343583
 11
256.0198462312
 21
140.5905617003
  0
POLYLINE
  8
0
 62
7
  6
CONTINUOUS
 66
1
 70
0
  0
VERTEX
  8
0
 62
7
  6
CONTINUOUS
 10
257.0919910176
 20
136.2987536296
  0
VERTEX
  8
0
 62
7
  6
CONTINUOUS
 10
257.0201132038
 20
136.850546751
  0
VERTEX
  8
0
 62
7
  6
CONTINUOUS
 10
256.9253843525
 20
137.4503716779
  0
VERTEX
  8
0
 62
7
  6
CONTINUOUS
 10
256.8146968215
 20
138.0329824835
  0
VERTEX
  8
0
 62
7
  6
CONTINUOUS
 10
256.6880085879
 20
138.5933735052
  0
VERTEX
  8
0
 62
7
  6
CONTINUOUS
 10
256.5453038421
 20
139.1267097074
  0
VERTEX
  8
0
 62
7
  6
CONTINUOUS
 10
256.3865354402
 20
139.6283341879
  0
VERTEX
  8
0
 62
7
  6
CONTINUOUS
 10
256.211470902
 20
140.0939472287
  0
SEQEND
  0
POLYLINE
  8
0
 62
7
  6
CONTINUOUS
 66
1
 70
0
  0
VERTEX
  8
0
 62
7
  6
CONTINUOUS
 10
265.4890518647
 20
85.645671217
  0
VERTEX
  8
0
 62
7
  6
CONTINUOUS
 10
265.4851168981
 20
85.9358864854
  0
VERTEX
  8
0
 62
7
  6
CONTINUOUS
 10
265.4849814826
 20
86.0119913914
  0
VERTEX
  8
0
 62
7
  6
CONTINUOUS
 10
265.4861212722
 20
86.0874894211
  0
VERTEX
  8
0
 62
7
  6
CONTINUOUS
 10
265.4887049368
 20
86.1621545456
  0
VERTEX
  8
0
 62
7
  6
CONTINUOUS
 10
265.4929181886
 20
86.2358028945
  0
VERTEX
  8
0
 62
7
  6
CONTINUOUS
 10
265.4989311994
 20
86.3082801486
  0
VERTEX
  8
0
 62
7
  6
CONTINUOUS
 10
265.5068916636
 20
86.3792785032
  0
VERTEX
  8
0
 62
7
  6
CONTINUOUS
 10
265.5169383622
 20
86.4483005128
  0
VERTEX
  8
0
 62
7
  6
CONTINUOUS
 10
265.5292390739
 20
86.5154443199
  0
VERTEX
  8
0
 62
7
  6
CONTINUOUS
 10
265.543940487
 20
86.5805031768
  0
VERTEX
  8
0
 62
7
  6
CONTINUOUS
 10
265.5613049709
 20
86.6430242818
  0
VERTEX
  8
0
 62
7
  6
CONTINUOUS
 10
265.5814947796
 20
86.7013520439
  0
VERTEX
  8
0
 62
7
  6
CONTINUOUS
 10
265.6053463018
 20
86.7560935846
  0
VERTEX
  8
0
 62
7
  6
CONTINUOUS
 10
265.6327140856
 20
86.8064540097
  0
VERTEX
  8
0
 62
7
  6
CONTINUOUS
 10
265.6629073831
 20
86.8510374273
  0
VERTEX
  8
0
 62
7
  6
CONTINUOUS
 10
265.6954296719
 20
86.8893829875
  0
VERTEX
  8
0
 62
7
  6
CONTINUOUS
 10
265.7304002582
 20
86.9216700787
  0
VERTEX
  8
0
 62
7
  6
CONTINUOUS
 10
265.7676892432
 20
86.9474982691
  0
VERTEX
  8
0
 62
7
  6
CONTINUOUS
 10
265.8072965879
 20
86.9661511011
  0
VERTEX
  8
0
 62
7
  6
CONTINUOUS
 10
265.8483036227
 20
86.9760962095
  0
VERTEX
  8
0
 62
7
  6
CONTINUOUS
 10
265.8674812287
 20
86.9773206493
  0
SEQEND
  0
POLYLINE
  8
0
 62
7
  6
CONTINUOUS
 66
1
 70
0
  0
VERTEX
  8
0
 62
7
  6
CONTINUOUS
 10
265.6653381766
 20
130.4705559503
  0
VERTEX
  8
0
 62
7
  6
CONTINUOUS
 10
265.6693111535
 20
130.1772338315
  0
VERTEX
  8
0
 62
7
  6
CONTINUOUS
 10
265.669437477
 20
130.0976402884
  0
VERTEX
  8
0
 62
7
  6
CONTINUOUS
 10
265.6681587976
 20
130.0185776272
  0
VERTEX
  8
0
 62
7
  6
CONTINUOUS
 10
265.6652723207
 20
129.9403259029
  0
VERTEX
  8
0
 62
7
  6
CONTINUOUS
 10
265.6605569187
 20
129.863107659
  0
VERTEX
  8
0
 62
7
  6
CONTINUOUS
 10
265.6538139982
 20
129.7871426101
  0
VERTEX
  8
0
 62
7
  6
CONTINUOUS
 10
265.644867652
 20
129.7128634654
  0
VERTEX
  8
0
 62
7
  6
CONTINUOUS
 10
265.6335481348
 20
129.640778467
  0
VERTEX
  8
0
 62
7
  6
CONTINUOUS
 10
265.6196567356
 20
129.5706737981
  0
VERTEX
  8
0
 62
7
  6
CONTINUOUS
 10
265.6029568597
 20
129.503023646
  0
VERTEX
  8
0
 62
7
  6
CONTINUOUS
 10
265.5832423179
 20
129.4389554617
  0
VERTEX
  8
0
 62
7
  6
CONTINUOUS
 10
265.5598956403
 20
129.3794656367
  0
VERTEX
  8
0
 62
7
  6
CONTINUOUS
 10
265.5324272171
 20
129.3241966878
  0
VERTEX
  8
0
 62
7
  6
CONTINUOUS
 10
265.5014123405
 20
129.2747521585
  0
VERTEX
  8
0
 62
7
  6
CONTINUOUS
 10
265.4679696545
 20
129.2325731856
  0
VERTEX
  8
0
 62
7
  6
CONTINUOUS
 10
265.4320997632
 20
129.1972988938
  0
VERTEX
  8
0
 62
7
  6
CONTINUOUS
 10
265.3937795878
 20
129.1690030824
  0
VERTEX
  8
0
 62
7
  6
CONTINUOUS
 10
265.3529485873
 20
129.1482929767
  0
VERTEX
  8
0
 62
7
  6
CONTINUOUS
 10
265.3101517646
 20
129.1367047147
  0
VERTEX
  8
0
 62
7
  6
CONTINUOUS
 10
265.2867819663
 20
129.1349382046
  0
SEQEND
  0
LINE
  8
0
 62
7
  6
CONTINUOUS
 10
265.4914939193
 20
85.3626570479
 11
265.4890518647
 21
85.645671217
  0
LINE
  8
0
 62
7
  6
CONTINUOUS
 10
265.6629222022
 20
130.7535776871
 11
265.6653381766
 21
130.4705559503
  0
LINE
  8
0
 62
7
  6
CONTINUOUS
 10
265.4914939193
 20
85.3626570479
 11
265.4920502961
 21
79.8145561074
  0
LINE
  8
0
 62
7
  6
CONTINUOUS
 10
265.6623866099
 20
136.2976658126
 11
265.6629222022
 21
130.7535776871
  0
LINE
  8
0
 62
7
  6
CONTINUOUS
 10
265.662445918
 20
136.298747764
 11
265.6623866128
 21
136.2977278241
  0
LINE
  8
0
 62
7
  6
CONTINUOUS
 10
265.4920502961
 20
79.8145239944
 11
265.4919909701
 21
79.8135159572
  0
LINE
  8
0
 62
7
  6
CONTINUOUS
 10
256.211470902
 20
140.0939472287
 11
256.0316876268
 21
140.4948964504
  0
POLYLINE
  8
0
 62
6
  6
CONTINUOUS
 66
1
 70
0
  0
VERTEX
  8
0
 62
6
  6
CONTINUOUS
 10
257.0889773773
 20
136.3047971771
  0
VERTEX
  8
0
 62
6
  6
CONTINUOUS
 10
257.0917755041
 20
136.2955357553
  0
VERTEX
  8
0
 62
6
  6
CONTINUOUS
 10
257.0843506699
 20
136.2856774938
  0
SEQEND
  0
LINE
  8
0
 62
6
  6
CONTINUOUS
 10
269.777218453
 20
86.9776426633
 11
269.777218453
 21
141.9561264721
  0
LINE
  8
0
 62
7
  6
CONTINUOUS
 10
264.4198463668
 20
75.5216986069
 11
264.4357487412
 21
75.6264241519
  0
POLYLINE
  8
0
 62
7
  6
CONTINUOUS
 66
1
 70
0
  0
VERTEX
  8
0
 62
7
  6
CONTINUOUS
 10
264.43168867
 20
75.617365113
  0
VERTEX
  8
0
 62
7
  6
CONTINUOUS
 10
264.6124153971
 20
76.0206118524
  0
VERTEX
  8
0
 62
7
  6
CONTINUOUS
 10
264.7874092149
 20
76.4864625837
  0
VERTEX
  8
0
 62
7
  6
CONTINUOUS
 10
264.946107168
 20
76.9883131037
  0
VERTEX
  8
0
 62
7
  6
CONTINUOUS
 10
265.0887399436
 20
77.5218609371
  0
VERTEX
  8
0
 62
7
  6
CONTINUOUS
 10
265.2153538435
 20
78.082446768
  0
VERTEX
  8
0
 62
7
  6
CONTINUOUS
 10
265.3259644543
 20
78.665233903
  0
VERTEX
  8
0
 62
7
  6
CONTINUOUS
 10
265.4206139141
 20
79.2652154914
  0
VERTEX
  8
0
 62
7
  6
CONTINUOUS
 10
265.4919910209
 20
79.8135058359
  0
SEQEND
  0
POLYLINE
  8
0
 62
7
  6
CONTINUOUS
 66
1
 70
0
  0
VERTEX
  8
0
 62
7
  6
CONTINUOUS
 10
265.4919909701
 20
79.8135159572
  0
VERTEX
  8
0
 62
7
  6
CONTINUOUS
 10
265.4861792697
 20
79.8049190593
  0
VERTEX
  8
0
 62
7
  6
CONTINUOUS
 10
265.4670925167
 20
79.7961257408
  0
VERTEX
  8
0
 62
7
  6
CONTINUOUS
 10
265.4358912696
 20
79.789397298
  0
VERTEX
  8
0
 62
7
  6
CONTINUOUS
 10
265.3945727237
 20
79.7850775947
  0
VERTEX
  8
0
 62
7
  6
CONTINUOUS
 10
265.3458763776
 20
79.783288708
  0
VERTEX
  8
0
 62
7
  6
CONTINUOUS
 10
265.2920502961
 20
79.7838483954
  0
SEQEND
  0
POLYLINE
  8
0
 62
7
  6
CONTINUOUS
 66
1
 70
0
  0
VERTEX
  8
0
 62
7
  6
CONTINUOUS
 10
272.8785263089
 20
115.7055176868
  0
VERTEX
  8
0
 62
7
  6
CONTINUOUS
 10
273.0721054127
 20
115.2537881371
  0
VERTEX
  8
0
 62
7
  6
CONTINUOUS
 10
273.2427422838
 20
114.8310148485
  0
VERTEX
  8
0
 62
7
  6
CONTINUOUS
 10
273.3833707388
 20
114.4390459182
  0
VERTEX
  8
0
 62
7
  6
CONTINUOUS
 10
273.491950015
 20
114.075553171
  0
VERTEX
  8
0
 62
7
  6
CONTINUOUS
 10
273.568435597
 20
113.7376635672
  0
VERTEX
  8
0
 62
7
  6
CONTINUOUS
 10
273.6130548507
 20
113.4262363712
  0
VERTEX
  8
0
 62
7
  6
CONTINUOUS
 10
273.627218453
 20
113.1458250653
  0
SEQEND
  0
LINE
  8
0
 62
7
  6
CONTINUOUS
 10
273.627218453
 20
102.966434372
 11
273.627218453
 21
113.1458250653
  0
LINE
  8
0
 62
7
  6
CONTINUOUS
 10
273.877218453
 20
87.1782235418
 11
273.877218453
 21
141.7561968979
  0
POLYLINE
  8
0
 62
7
  6
CONTINUOUS
 66
1
 70
0
  0
VERTEX
  8
0
 62
7
  6
CONTINUOUS
 10
273.627218453
 20
102.966434372
  0
VERTEX
  8
0
 62
7
  6
CONTINUOUS
 10
273.6129930481
 20
102.6853905768
  0
VERTEX
  8
0
 62
7
  6
CONTINUOUS
 10
273.5690080722
 20
102.3776808917
  0
VERTEX
  8
0
 62
7
  6
CONTINUOUS
 10
273.4933768785
 20
102.0421229058
  0
VERTEX
  8
0
 62
7
  6
CONTINUOUS
 10
273.3845306932
 20
101.6767251573
  0
VERTEX
  8
0
 62
7
  6
CONTINUOUS
 10
273.2424516473
 20
101.280487155
  0
VERTEX
  8
0
 62
7
  6
CONTINUOUS
 10
273.0709614806
 20
100.8557461504
  0
VERTEX
  8
0
 62
7
  6
CONTINUOUS
 10
272.8785263089
 20
100.4067417505
  0
SEQEND
  0
POLYLINE
  8
0
 62
7
  6
CONTINUOUS
 66
1
 70
0
  0
VERTEX
  8
0
 62
7
  6
CONTINUOUS
 10
273.877218453
 20
136.2933818222
  0
VERTEX
  8
0
 62
7
  6
CONTINUOUS
 10
273.8722935829
 20
136.3011445892
  0
VERTEX
  8
0
 62
7
  6
CONTINUOUS
 10
273.857709068
 20
136.3085247143
  0
VERTEX
  8
0
 62
7
  6
CONTINUOUS
 10
273.8341006063
 20
136.3151589117
  0
VERTEX
  8
0
 62
7
  6
CONTINUOUS
 10
273.8025621565
 20
136.3207149859
  0
VERTEX
  8
0
 62
7
  6
CONTINUOUS
 10
273.7646109719
 20
136.3249091736
  0
VERTEX
  8
0
 62
7
  6
CONTINUOUS
 10
273.7221198471
 20
136.3275220872
  0
VERTEX
  8
0
 62
7
  6
CONTINUOUS
 10
273.677218453
 20
136.3284110419
  0
SEQEND
  0
POLYLINE
  8
0
 62
7
  6
CONTINUOUS
 66
1
 70
0
  0
VERTEX
  8
0
 62
7
  6
CONTINUOUS
 10
273.8772181371
 20
141.7563185159
  0
VERTEX
  8
0
 62
7
  6
CONTINUOUS
 10
273.872179077
 20
141.800734772
  0
VERTEX
  8
0
 62
7
  6
CONTINUOUS
 10
273.8574036224
 20
141.8429173868
  0
VERTEX
  8
0
 62
7
  6
CONTINUOUS
 10
273.8336280648
 20
141.8807675476
  0
VERTEX
  8
0
 62
7
  6
CONTINUOUS
 10
273.8020396126
 20
141.9123930603
  0
VERTEX
  8
0
 62
7
  6
CONTINUOUS
 10
273.7642155927
 20
141.9362138506
  0
VERTEX
  8
0
 62
7
  6
CONTINUOUS
 10
273.7220457971
 20
141.9510394144
  0
VERTEX
  8
0
 62
7
  6
CONTINUOUS
 10
273.6772092742
 20
141.9561297176
  0
SEQEND
  0
LINE
  8
0
 62
2
  6
CONTINUOUS
 10
354.0784087082
 20
68.0561297186
 11
314.0784087082
 21
68.0561297186
  0
POLYLINE
  8
0
 62
6
  6
CONTINUOUS
 66
1
 70
0
  0
VERTEX
  8
0
 62
6
  6
CONTINUOUS
 10
342.0784087082
 20
79.7838483954
  0
VERTEX
  8
0
 62
6
  6
CONTINUOUS
 10
342.0728008473
 20
79.7832364427
  0
VERTEX
  8
0
 62
6
  6
CONTINUOUS
 10
342.0567356934
 20
79.7843754637
  0
VERTEX
  8
0
 62
6
  6
CONTINUOUS
 10
342.0310741052
 20
79.7874604365
  0
VERTEX
  8
0
 62
6
  6
CONTINUOUS
 10
341.9972657328
 20
79.7924775709
  0
VERTEX
  8
0
 62
6
  6
CONTINUOUS
 10
341.9572569501
 20
79.7992475869
  0
VERTEX
  8
0
 62
6
  6
CONTINUOUS
 10
341.9133332633
 20
79.8074622606
  0
SEQEND
  0
POLYLINE
  8
0
 62
7
  6
CONTINUOUS
 66
1
 70
0
  0
VERTEX
  8
0
 62
7
  6
CONTINUOUS
 10
327.0784087082
 20
79.8248358682
  0
VERTEX
  8
0
 62
7
  6
CONTINUOUS
 10
326.9236294604
 20
79.8246953346
  0
VERTEX
  8
0
 62
7
  6
CONTINUOUS
 10
326.772248877
 20
79.8219608321
  0
VERTEX
  8
0
 62
7
  6
CONTINUOUS
 10
326.6279731629
 20
79.8173554699
  0
VERTEX
  8
0
 62
7
  6
CONTINUOUS
 10
326.4943643398
 20
79.8115467392
  0
VERTEX
  8
0
 62
7
  6
CONTINUOUS
 10
326.3747600444
 20
79.805157584
  0
VERTEX
  8
0
 62
7
  6
CONTINUOUS
 10
326.2721952571
 20
79.7987732074
  0
VERTEX
  8
0
 62
7
  6
CONTINUOUS
 10
326.1893273262
 20
79.7929451103
  0
VERTEX
  8
0
 62
7
  6
CONTINUOUS
 10
326.128366444
 20
79.7881933477
  0
VERTEX
  8
0
 62
7
  6
CONTINUOUS
 10
326.0910136599
 20
79.7850077106
  0
VERTEX
  8
0
 62
7
  6
CONTINUOUS
 10
326.0784087082
 20
79.7838483954
  0
SEQEND
  0
LINE
  8
0
 62
7
  6
CONTINUOUS
 10
341.8784087082
 20
79.8188775353
 11
342.0784087082
 21
79.7838483954
  0
POLYLINE
  8
0
 62
6
  6
CONTINUOUS
 66
1
 70
0
  0
VERTEX
  8
0
 62
6
  6
CONTINUOUS
 10
341.9265121555
 20
79.8049190593
  0
VERTEX
  8
0
 62
6
  6
CONTINUOUS
 10
341.9751569435
 20
79.7961257408
  0
VERTEX
  8
0
 62
6
  6
CONTINUOUS
 10
342.0173683224
 20
79.789397298
  0
VERTEX
  8
0
 62
6
  6
CONTINUOUS
 10
342.0501327655
 20
79.7850775947
  0
VERTEX
  8
0
 62
6
  6
CONTINUOUS
 10
342.0710294573
 20
79.783288708
  0
VERTEX
  8
0
 62
6
  6
CONTINUOUS
 10
342.0784087082
 20
79.7838483954
  0
SEQEND
  0
LINE
  8
0
 62
2
  6
CONTINUOUS
 10
314.0784087082
 20
68.0561297186
 11
314.0784087082
 21
148.0561297186
  0
POLYLINE
  8
0
 62
7
  6
CONTINUOUS
 66
1
 70
0
  0
VERTEX
  8
0
 62
7
  6
CONTINUOUS
 10
326.0884996401
 20
136.3243563169
  0
VERTEX
  8
0
 62
7
  6
CONTINUOUS
 10
326.3376889289
 20
136.9515533219
  0
VERTEX
  8
0
 62
7
  6
CONTINUOUS
 10
326.6379231061
 20
137.559117505
  0
VERTEX
  8
0
 62
7
  6
CONTINUOUS
 10
326.9865715087
 20
138.1402576631
  0
VERTEX
  8
0
 62
7
  6
CONTINUOUS
 10
327.380763704
 20
138.6898235683
  0
SEQEND
  0
LINE
  8
0
 62
6
  6
CONTINUOUS
 10
326.6437110054
 20
79.8885734008
 11
326.9987317071
 21
79.94558212
  0
LINE
  8
DEFAULT_1
 62
7
  6
CENTER
 10
339.3284087082
 20
82.6561297186
 11
336.0785087082
 21
82.6561297186
  0
LINE
  8
0
 62
2
  6
CONTINUOUS
 10
335.1284087082
 20
82.6561297186
 11
333.0284087082
 21
82.6561297186
  0
LINE
  8
DEFAULT_1
 62
7
  6
CENTER
 10
328.8284087082
 20
82.6561297186
 11
332.0783087082
 21
82.6561297186
  0
LINE
  8
0
 62
6
  6
CONTINUOUS
 10
341.9265121555
 20
79.8049190593
 11
341.8679281861
 21
79.8167236823
  0
LINE
  8
0
 62
6
  6
CONTINUOUS
 10
341.8234501238
 20
79.8265816832
 11
341.8747920446
 21
79.8152736053
  0
LINE
  8
0
 62
7
  6
CONTINUOUS
 10
326.0784087082
 20
87.1561297186
 11
326.0784087082
 21
79.7838483954
  0
LINE
  8
0
 62
6
  6
CONTINUOUS
 10
326.0784087082
 20
79.7838952622
 11
326.0784087082
 21
79.7838483954
  0
LINE
  8
0
 62
7
  6
CONTINUOUS
 10
326.0784087082
 20
128.9561297186
 11
326.0784087082
 21
136.3283641752
  0
LINE
  8
0
 62
6
  6
CONTINUOUS
 10
326.0784087082
 20
136.3283641752
 11
326.0784087082
 21
136.3284110419
  0
LINE
  8
0
 62
7
  6
CONTINUOUS
 10
326.0884996401
 20
128.9561297187
 11
326.0884996401
 21
136.3243563169
  0
LINE
  8
0
 62
7
  6
CONTINUOUS
 10
326.1284087082
 20
108.8089530794
 11
326.1284087082
 21
107.3033063579
  0
LINE
  8
0
 62
7
  6
CONTINUOUS
 10
337.9819739645
 20
125.4050487759
 11
334.136000488
 21
114.5684037636
  0
LINE
  8
0
 62
7
  6
CONTINUOUS
 10
334.136000488
 20
101.5438556737
 11
335.2792221153
 21
98.3226460057
  0
LINE
  8
0
 62
6
  6
CONTINUOUS
 10
337.9819739645
 20
90.7072106614
 11
335.2792221153
 21
98.3226460057
  0
POLYLINE
  8
0
 62
7
  6
CONTINUOUS
 66
1
 70
0
  0
VERTEX
  8
0
 62
7
  6
CONTINUOUS
 10
326.2201346881
 20
127.7044109801
  0
VERTEX
  8
0
 62
7
  6
CONTINUOUS
 10
326.1471312358
 20
128.1181700341
  0
VERTEX
  8
0
 62
7
  6
CONTINUOUS
 10
326.1031798439
 20
128.5360574172
  0
VERTEX
  8
0
 62
7
  6
CONTINUOUS
 10
326.0884996401
 20
128.9561297187
  0
SEQEND
  0
LINE
  8
DEFAULT_1
 62
7
  6
CENTER
 10
334.0784087082
 20
138.7061297186
 11
334.0784087082
 21
135.4562297186
  0
LINE
  8
0
 62
2
  6
CONTINUOUS
 10
334.0784087082
 20
134.5061297186
 11
334.0784087082
 21
132.4061297186
  0
LINE
  8
0
 62
40
  6
CONTINUOUS
 10
334.0784087082
 20
132.4061297186
 11
334.0784087082
 21
132.0761297186
  0
LINE
  8
0
 62
7
  6
CONTINUOUS
 10
334.0784087082
 20
114.2339388979
 11
334.0784087082
 21
112.541229862
  0
LINE
  8
0
 62
7
  6
CONTINUOUS
 10
334.0784087082
 20
103.5710295753
 11
334.0784087082
 21
101.8783205394
  0
LINE
  8
DEFAULT_1
 62
7
  6
CENTER
 10
334.0784087082
 20
87.9061297186
 11
334.0784087082
 21
84.6562297186
  0
LINE
  8
0
 62
2
  6
CONTINUOUS
 10
334.0784087082
 20
83.7061297186
 11
334.0784087082
 21
81.6061297186
  0
LINE
  8
0
 62
40
  6
CONTINUOUS
 10
334.0784087082
 20
81.6061297186
 11
334.0784087082
 21
81.0361297186
  0
LINE
  8
0
 62
40
  6
CONTINUOUS
 10
334.0784087082
 20
74.1570428345
 11
334.0784087082
 21
54.2328297186
  0
LINE
  8
DEFAULT_1
 62
7
  6
CENTER
 10
334.0784087082
 20
77.4061297186
 11
334.0784087082
 21
80.6560297186
  0
LINE
  8
0
 62
40
  6
CONTINUOUS
 10
334.0784087082
 20
83.7061297186
 11
334.0784087082
 21
84.0361297186
  0
LINE
  8
DEFAULT_1
 62
7
  6
CENTER
 10
334.0784087082
 20
128.2061297186
 11
334.0784087082
 21
131.4560297186
  0
LINE
  8
0
 62
40
  6
CONTINUOUS
 10
334.0784087082
 20
134.5061297186
 11
334.0784087082
 21
135.0761297186
  0
LINE
  8
0
 62
40
  6
CONTINUOUS
 10
334.0784087082
 20
141.9553176863
 11
334.0784087082
 21
161.8794297186
  0
LINE
  8
0
 62
6
  6
CONTINUOUS
 10
342.0784378884
 20
128.8850163622
 11
342.0783620586
 21
128.8847401341
  0
LINE
  8
0
 62
7
  6
CONTINUOUS
 10
333.4693600859
 20
111.7260964781
 11
326.8449364993
 21
109.7679335311
  0
LINE
  8
0
 62
7
  6
CONTINUOUS
 10
365.7174286938
 20
104.7509447874
 11
346.0084381416
 21
104.4061297186
  0
LINE
  8
0
 62
7
  6
CONTINUOUS
 10
326.8449364993
 20
106.3443259062
 11
333.4693600859
 21
104.3861629592
  0
LINE
  8
0
 62
6
  6
CONTINUOUS
 10
342.0784378888
 20
87.2272430699
 11
342.0783620577
 21
87.2275193032
  0
LINE
  8
DEFAULT_1
 62
7
  6
CENTER
 10
312.0784087082
 20
108.0561297186
 11
369.4784087082
 21
108.0561297186
  0
POLYLINE
  8
0
 62
7
  6
CONTINUOUS
 66
1
 70
0
  0
VERTEX
  8
0
 62
7
  6
CONTINUOUS
 10
326.4968470671
 20
127.0105735846
  0
VERTEX
  8
0
 62
7
  6
CONTINUOUS
 10
326.4257755591
 20
127.1185649894
  0
VERTEX
  8
0
 62
7
  6
CONTINUOUS
 10
326.3665031209
 20
127.2349941405
  0
VERTEX
  8
0
 62
7
  6
CONTINUOUS
 10
326.3177222934
 20
127.3558299132
  0
VERTEX
  8
0
 62
7
  6
CONTINUOUS
 10
326.2780659789
 20
127.4763414921
  0
VERTEX
  8
0
 62
7
  6
CONTINUOUS
 10
326.2459895085
 20
127.5930623327
  0
VERTEX
  8
0
 62
7
  6
CONTINUOUS
 10
326.2201291738
 20
127.7044362583
  0
SEQEND
  0
LINE
  8
0
 62
7
  6
CONTINUOUS
 10
342.0784087082
 20
79.7838483954
 11
342.0784087082
 21
136.3284110419
  0
LINE
  8
0
 62
7
  6
CONTINUOUS
 10
346.0084381416
 20
111.7061297186
 11
365.7174286938
 21
111.3613146498
  0
POLYLINE
  8
0
 62
7
  6
CONTINUOUS
 66
1
 70
0
  0
VERTEX
  8
0
 62
7
  6
CONTINUOUS
 10
342.0784378884
 20
128.8850163622
  0
VERTEX
  8
0
 62
7
  6
CONTINUOUS
 10
342.0699838168
 20
128.9494735147
  0
VERTEX
  8
0
 62
7
  6
CONTINUOUS
 10
342.0451930381
 20
129.0095708489
  0
VERTEX
  8
0
 62
7
  6
CONTINUOUS
 10
342.0057423959
 20
129.0612428253
  0
VERTEX
  8
0
 62
7
  6
CONTINUOUS
 10
341.9543005524
 20
129.1009937741
  0
VERTEX
  8
0
 62
7
  6
CONTINUOUS
 10
341.8943474785
 20
129.1261344699
  0
VERTEX
  8
0
 62
7
  6
CONTINUOUS
 10
341.8299390009
 20
129.1349641407
  0
VERTEX
  8
0
 62
7
  6
CONTINUOUS
 10
341.7654323593
 20
129.1268855702
  0
VERTEX
  8
0
 62
7
  6
CONTINUOUS
 10
341.7051913639
 20
129.1024454953
  0
VERTEX
  8
0
 62
7
  6
CONTINUOUS
 10
341.6532911261
 20
129.063297576
  0
VERTEX
  8
0
 62
7
  6
CONTINUOUS
 10
341.6132423464
 20
129.0120904492
  0
SEQEND
  0
LINE
  8
0
 62
2
  6
CONTINUOUS
 10
354.0784087082
 20
68.0561297186
 11
354.0784087082
 21
148.0561297186
  0
POLYLINE
  8
0
 62
7
  6
CONTINUOUS
 66
1
 70
0
  0
VERTEX
  8
0
 62
7
  6
CONTINUOUS
 10
326.0784087082
 20
136.3283641752
  0
VERTEX
  8
0
 62
7
  6
CONTINUOUS
 10
326.0809374324
 20
136.3267669139
  0
VERTEX
  8
0
 62
7
  6
CONTINUOUS
 10
326.0884996401
 20
136.3243563169
  0
SEQEND
  0
LINE
  8
0
 62
7
  6
CONTINUOUS
 10
330.9660142647
 20
127.6561297186
 11
334.0784087082
 21
127.6561297186
  0
POLYLINE
  8
0
 62
6
  6
CONTINUOUS
 66
1
 70
0
  0
VERTEX
  8
0
 62
6
  6
CONTINUOUS
 10
326.0784087082
 20
79.7838952622
  0
VERTEX
  8
0
 62
6
  6
CONTINUOUS
 10
326.096061523
 20
79.7898882052
  0
VERTEX
  8
0
 62
6
  6
CONTINUOUS
 10
326.1481962518
 20
79.8012966319
  0
VERTEX
  8
0
 62
6
  6
CONTINUOUS
 10
326.2326982258
 20
79.8175794574
  0
VERTEX
  8
0
 62
6
  6
CONTINUOUS
 10
326.3463582411
 20
79.8380800398
  0
VERTEX
  8
0
 62
6
  6
CONTINUOUS
 10
326.485011383
 20
79.8620324148
  0
VERTEX
  8
0
 62
6
  6
CONTINUOUS
 10
326.6437110054
 20
79.8885734008
  0
SEQEND
  0
POLYLINE
  8
0
 62
6
  6
CONTINUOUS
 66
1
 70
0
  0
VERTEX
  8
0
 62
6
  6
CONTINUOUS
 10
326.0784087082
 20
136.3283641752
  0
VERTEX
  8
0
 62
6
  6
CONTINUOUS
 10
326.096061523
 20
136.3223712322
  0
VERTEX
  8
0
 62
6
  6
CONTINUOUS
 10
326.1481962518
 20
136.3109628054
  0
VERTEX
  8
0
 62
6
  6
CONTINUOUS
 10
326.2326982258
 20
136.2946799799
  0
VERTEX
  8
0
 62
6
  6
CONTINUOUS
 10
326.3463582411
 20
136.2741793975
  0
VERTEX
  8
0
 62
6
  6
CONTINUOUS
 10
326.485011383
 20
136.2502270225
  0
VERTEX
  8
0
 62
6
  6
CONTINUOUS
 10
326.6437110053
 20
136.2236860365
  0
VERTEX
  8
0
 62
6
  6
CONTINUOUS
 10
326.9987317071
 20
136.1666773173
  0
SEQEND
  0
LINE
  8
0
 62
40
  6
CONTINUOUS
 10
367.4784087082
 20
108.3565866332
 11
367.4784087082
 21
107.7556728041
  0
LINE
  8
DEFAULT_1
 62
7
  6
CENTER
 10
339.3284087082
 20
133.4561297186
 11
336.0785087082
 21
133.4561297186
  0
LINE
  8
0
 62
2
  6
CONTINUOUS
 10
335.1284087082
 20
133.4561297186
 11
333.0284087082
 21
133.4561297186
  0
LINE
  8
DEFAULT_1
 62
7
  6
CENTER
 10
328.8284087082
 20
133.4561297186
 11
332.0783087082
 21
133.4561297186
  0
POLYLINE
  8
0
 62
7
  6
CONTINUOUS
 66
1
 70
0
  0
VERTEX
  8
0
 62
7
  6
CONTINUOUS
 10
342.0784087082
 20
136.3284110419
  0
VERTEX
  8
0
 62
7
  6
CONTINUOUS
 10
342.072800848
 20
136.3290229946
  0
VERTEX
  8
0
 62
7
  6
CONTINUOUS
 10
342.0567356946
 20
136.3278839738
  0
VERTEX
  8
0
 62
7
  6
CONTINUOUS
 10
342.0310741067
 20
136.3247990011
  0
VERTEX
  8
0
 62
7
  6
CONTINUOUS
 10
341.9972657347
 20
136.3197818667
  0
VERTEX
  8
0
 62
7
  6
CONTINUOUS
 10
341.9572569523
 20
136.3130118508
  0
VERTEX
  8
0
 62
7
  6
CONTINUOUS
 10
341.9133332653
 20
136.3047971771
  0
VERTEX
  8
0
 62
7
  6
CONTINUOUS
 10
341.8679281875
 20
136.2955357553
  0
VERTEX
  8
0
 62
7
  6
CONTINUOUS
 10
341.8234490299
 20
136.2856774938
  0
SEQEND
  0
LINE
  8
0
 62
7
  6
CONTINUOUS
 10
334.0784087082
 20
139.2561297186
 11
330.9660142647
 21
139.2561297186
  0
LINE
  8
0
 62
2
  6
CONTINUOUS
 10
354.9272287082
 20
149.7537697186
 11
314.9272287082
 21
149.7537697186
  0
ARC
  8
0
 62
7
  6
CONTINUOUS
 10
193.0004767356
 20
189.1747083172
 40
1.0
 50
184.57
 51
270.0
  0
ARC
  8
0
 62
7
  6
CONTINUOUS
 10
195.3539601704
 20
189.1747083172
 40
1.0
 50
270.0
 51
355.43
  0
ARC
  8
0
 62
7
  6
CONTINUOUS
 10
186.9539601704
 20
189.1747083172
 40
1.0
 50
270.0
 51
287.4745042926
  0
ARC
  8
0
 62
7
  6
CONTINUOUS
 10
176.2004767356
 20
189.1747083172
 40
1.0
 50
184.57
 51
270.0
  0
ARC
  8
0
 62
7
  6
CONTINUOUS
 10
178.5539601704
 20
189.1747083172
 40
1.0
 50
270.0
 51
355.43
  0
ARC
  8
0
 62
7
  6
CONTINUOUS
 10
184.6004767356
 20
189.1747083172
 40
1.0
 50
252.5254957074
 51
270.0
  0
ARC
  8
0
 62
7
  6
CONTINUOUS
 10
170.1539601704
 20
189.1747083172
 40
1.0
 50
270.0
 51
287.4745042926
  0
ARC
  8
0
 62
7
  6
CONTINUOUS
 10
159.4004767356
 20
189.1747083172
 40
1.0
 50
184.57
 51
270.0
  0
ARC
  8
0
 62
7
  6
CONTINUOUS
 10
161.7539601704
 20
189.1747083172
 40
1.0
 50
270.0
 51
355.43
  0
ARC
  8
0
 62
7
  6
CONTINUOUS
 10
167.8004767356
 20
189.1747083172
 40
1.0
 50
252.5254957074
 51
270.0
  0
ARC
  8
0
 62
7
  6
CONTINUOUS
 10
153.3539601704
 20
189.1747083172
 40
1.0
 50
270.0
 51
287.4745042926
  0
ARC
  8
0
 62
7
  6
CONTINUOUS
 10
142.6004767356
 20
189.1747083172
 40
1.0
 50
184.57
 51
270.0
  0
ARC
  8
0
 62
7
  6
CONTINUOUS
 10
144.9539601704
 20
189.1747083172
 40
1.0
 50
270.0
 51
355.43
  0
ARC
  8
0
 62
7
  6
CONTINUOUS
 10
151.0004767356
 20
189.1747083172
 40
1.0
 50
252.5254957074
 51
270.0
  0
ARC
  8
0
 62
7
  6
CONTINUOUS
 10
136.5539601704
 20
189.1747083172
 40
1.0
 50
270.0
 51
287.4745042926
  0
ARC
  8
0
 62
7
  6
CONTINUOUS
 10
134.2004767356
 20
189.1747083172
 40
1.0
 50
261.8535358985
 51
270.0
  0
ARC
  8
0
 62
7
  6
CONTINUOUS
 10
123.877218453
 20
189.1747083172
 40
1.0
 50
180.0
 51
270.0
  0
ARC
  8
0
 62
7
  6
CONTINUOUS
 10
197.7395215116
 20
200.1939107731
 40
0.5
 50
164.05
 51
175.43
  0
ARC
  8
0
 62
7
  6
CONTINUOUS
 10
190.6149153944
 20
200.1939107731
 40
0.5
 50
4.57
 51
15.95
  0
ARC
  8
0
 62
7
  6
CONTINUOUS
 10
180.9395215116
 20
200.1939107731
 40
0.5
 50
164.05
 51
175.43
  0
ARC
  8
0
 62
7
  6
CONTINUOUS
 10
173.8149153944
 20
200.1939107731
 40
0.5
 50
4.57
 51
15.95
  0
ARC
  8
0
 62
7
  6
CONTINUOUS
 10
164.1395215116
 20
200.1939107731
 40
0.5
 50
164.05
 51
175.43
  0
ARC
  8
0
 62
7
  6
CONTINUOUS
 10
157.0149153944
 20
200.1939107731
 40
0.5
 50
4.57
 51
15.95
  0
ARC
  8
0
 62
7
  6
CONTINUOUS
 10
147.3395215116
 20
200.1939107731
 40
0.5
 50
164.05
 51
175.43
  0
ARC
  8
0
 62
7
  6
CONTINUOUS
 10
140.2149153944
 20
200.1939107731
 40
0.5
 50
4.57
 51
15.95
  0
ARC
  8
0
 62
7
  6
CONTINUOUS
 10
130.5395215116
 20
200.1939107731
 40
0.5
 50
164.05
 51
175.43
  0
ARC
  8
0
 62
7
  6
CONTINUOUS
 10
198.0920502961
 20
203.9747083172
 40
0.2
 50
344.05
 51
90.0
  0
ARC
  8
0
 62
7
  6
CONTINUOUS
 10
190.2623866099
 20
203.9747083172
 40
0.2
 50
90.0
 51
195.95
  0
ARC
  8
0
 62
7
  6
CONTINUOUS
 10
181.2920502961
 20
203.9747083172
 40
0.2
 50
344.05
 51
90.0
  0
ARC
  8
0
 62
7
  6
CONTINUOUS
 10
173.4623866099
 20
203.9747083172
 40
0.2
 50
90.0
 51
195.95
  0
ARC
  8
0
 62
7
  6
CONTINUOUS
 10
164.4920502961
 20
203.9747083172
 40
0.2
 50
344.05
 51
90.0
  0
ARC
  8
0
 62
7
  6
CONTINUOUS
 10
156.6623866099
 20
203.9747083172
 40
0.2
 50
90.0
 51
195.95
  0
ARC
  8
0
 62
7
  6
CONTINUOUS
 10
147.6920502961
 20
203.9747083172
 40
0.2
 50
344.05
 51
90.0
  0
ARC
  8
0
 62
7
  6
CONTINUOUS
 10
139.8623866099
 20
203.9747083172
 40
0.2
 50
90.0
 51
195.95
  0
ARC
  8
0
 62
7
  6
CONTINUOUS
 10
130.8920502961
 20
203.9747083172
 40
0.2
 50
344.05
 51
90.0
  0
ARC
  8
0
 62
7
  6
CONTINUOUS
 10
123.077218453
 20
203.9747083172
 40
0.2
 50
90.0
 51
180.0
  0
ARC
  8
0
 62
7
  6
CONTINUOUS
 10
123.9202420051
 20
228.8247083171
 40
0.75
 50
90.0
 51
179.9
  0
ARC
  8
0
 62
7
  6
CONTINUOUS
 10
237.3539601704
 20
189.1747083172
 40
1.0
 50
270.0
 51
287.4745042926
  0
ARC
  8
0
 62
7
  6
CONTINUOUS
 10
226.6004767356
 20
189.1747083172
 40
1.0
 50
184.57
 51
270.0
  0
ARC
  8
0
 62
7
  6
CONTINUOUS
 10
228.9539601704
 20
189.1747083172
 40
1.0
 50
270.0
 51
355.43
  0
ARC
  8
0
 62
7
  6
CONTINUOUS
 10
235.0004767356
 20
189.1747083172
 40
1.0
 50
252.5254957074
 51
270.0
  0
ARC
  8
0
 62
7
  6
CONTINUOUS
 10
220.5539601704
 20
189.1747083172
 40
1.0
 50
270.0
 51
287.4745042926
  0
ARC
  8
0
 62
7
  6
CONTINUOUS
 10
209.8004767356
 20
189.1747083172
 40
1.0
 50
184.57
 51
270.0
  0
ARC
  8
0
 62
7
  6
CONTINUOUS
 10
212.1539601704
 20
189.1747083172
 40
1.0
 50
270.0
 51
355.43
  0
ARC
  8
0
 62
7
  6
CONTINUOUS
 10
218.2004767356
 20
189.1747083172
 40
1.0
 50
252.5254957074
 51
270.0
  0
ARC
  8
0
 62
7
  6
CONTINUOUS
 10
203.7539601704
 20
189.1747083172
 40
1.0
 50
270.0
 51
287.4745042926
  0
ARC
  8
0
 62
7
  6
CONTINUOUS
 10
201.4004767356
 20
189.1747083172
 40
1.0
 50
252.5254957074
 51
270.0
  0
ARC
  8
0
 62
7
  6
CONTINUOUS
 10
231.3395215116
 20
200.1939107731
 40
0.5
 50
164.05
 51
175.43
  0
ARC
  8
0
 62
7
  6
CONTINUOUS
 10
224.2149153944
 20
200.1939107731
 40
0.5
 50
4.57
 51
15.95
  0
ARC
  8
0
 62
7
  6
CONTINUOUS
 10
214.5395215116
 20
200.1939107731
 40
0.5
 50
164.05
 51
175.43
  0
ARC
  8
0
 62
7
  6
CONTINUOUS
 10
207.4149153944
 20
200.1939107731
 40
0.5
 50
4.57
 51
15.95
  0
ARC
  8
0
 62
7
  6
CONTINUOUS
 10
231.6920502961
 20
203.9747083172
 40
0.2
 50
344.05
 51
90.0
  0
ARC
  8
0
 62
7
  6
CONTINUOUS
 10
223.8623866099
 20
203.9747083172
 40
0.2
 50
90.0
 51
195.95
  0
ARC
  8
0
 62
7
  6
CONTINUOUS
 10
214.8920502961
 20
203.9747083172
 40
0.2
 50
344.05
 51
90.0
  0
ARC
  8
0
 62
7
  6
CONTINUOUS
 10
207.0623866099
 20
203.9747083172
 40
0.2
 50
90.0
 51
195.95
  0
ARC
  8
0
 62
7
  6
CONTINUOUS
 10
262.5539601704
 20
189.1747083172
 40
1.0
 50
270.0
 51
278.1464641015
  0
ARC
  8
0
 62
7
  6
CONTINUOUS
 10
260.2004767356
 20
189.1747083172
 40
1.0
 50
184.57
 51
270.0
  0
ARC
  8
0
 62
7
  6
CONTINUOUS
 10
254.1539601704
 20
189.1747083172
 40
1.0
 50
270.0
 51
287.4745042926
  0
ARC
  8
0
 62
7
  6
CONTINUOUS
 10
243.4004767356
 20
189.1747083172
 40
1.0
 50
184.57
 51
270.0
  0
ARC
  8
0
 62
7
  6
CONTINUOUS
 10
245.7539601704
 20
189.1747083172
 40
1.0
 50
270.0
 51
355.43
  0
ARC
  8
0
 62
7
  6
CONTINUOUS
 10
251.8004767356
 20
189.1747083172
 40
1.0
 50
252.5254957074
 51
270.0
  0
ARC
  8
0
 62
7
  6
CONTINUOUS
 10
272.877218453
 20
189.1747083172
 40
1.0
 50
270.0
 51
360.0
  0
ARC
  8
0
 62
7
  6
CONTINUOUS
 10
272.877218453
 20
189.2247083172
 40
1.0
 50
270.0
 51
360.0
  0
ARC
  8
0
 62
6
  6
CONTINUOUS
 10
262.5539601704
 20
189.1747083172
 40
1.0
 50
278.1464641015
 51
355.43
  0
ARC
  8
0
 62
6
  6
CONTINUOUS
 10
268.6004767356
 20
189.1747083172
 40
1.0
 50
184.57
 51
270.0
  0
ARC
  8
0
 62
6
  6
CONTINUOUS
 10
254.1539601704
 20
189.1747083172
 40
1.0
 50
287.4745042926
 51
355.43
  0
ARC
  8
0
 62
7
  6
CONTINUOUS
 10
272.877218453
 20
197.1747083172
 40
1.0
 50
270.0
 51
360.0
  0
ARC
  8
0
 62
7
  6
CONTINUOUS
 10
264.9395215116
 20
200.1939107731
 40
0.5
 50
164.05
 51
175.43
  0
ARC
  8
0
 62
7
  6
CONTINUOUS
 10
257.8149153944
 20
200.1939107731
 40
0.5
 50
4.57
 51
15.95
  0
ARC
  8
0
 62
7
  6
CONTINUOUS
 10
248.1395215116
 20
200.1939107731
 40
0.5
 50
164.05
 51
175.43
  0
ARC
  8
0
 62
7
  6
CONTINUOUS
 10
241.0149153944
 20
200.1939107731
 40
0.5
 50
4.57
 51
15.95
  0
ARC
  8
0
 62
7
  6
CONTINUOUS
 10
265.2920502961
 20
203.9747083172
 40
0.2
 50
344.05
 51
90.0
  0
ARC
  8
0
 62
7
  6
CONTINUOUS
 10
257.4623866099
 20
203.9747083172
 40
0.2
 50
90.0
 51
195.95
  0
ARC
  8
0
 62
7
  6
CONTINUOUS
 10
248.4920502961
 20
203.9747083172
 40
0.2
 50
344.05
 51
90.0
  0
ARC
  8
0
 62
7
  6
CONTINUOUS
 10
240.6623866099
 20
203.9747083172
 40
0.2
 50
90.0
 51
195.95
  0
ARC
  8
0
 62
7
  6
CONTINUOUS
 10
273.677218453
 20
203.9747083172
 40
0.2
 50
0.0
 51
90.0
  0
ARC
  8
0
 62
6
  6
CONTINUOUS
 10
265.8623866099
 20
203.9747083172
 40
0.2
 50
90.0
 51
195.95
  0
ARC
  8
0
 62
6
  6
CONTINUOUS
 10
256.8920502961
 20
203.9747083172
 40
0.2
 50
344.05
 51
90.0
  0
ARC
  8
0
 62
7
  6
CONTINUOUS
 10
272.8341949009
 20
228.8247083171
 40
0.75
 50
0.1
 51
90.0
  0
ARC
  8
0
 62
40
  6
CONTINUOUS
 10
124.177218453
 20
82.5361297186
 40
1.5
 50
150.095255074
 51
209.904744926
  0
ARC
  8
0
 62
40
  6
CONTINUOUS
 10
272.577218453
 20
133.5761297186
 40
1.5
 50
330.095255074
 51
29.904744926
  0
ARC
  8
0
 62
7
  6
CONTINUOUS
 10
123.077218453
 20
128.9347401339
 40
0.2
 50
90.0
 51
180.0
  0
ARC
  8
0
 62
7
  6
CONTINUOUS
 10
273.677218453
 20
87.1775193034
 40
0.2
 50
270.0
 51
360.0
  0
ARC
  8
0
 62
7
  6
CONTINUOUS
 10
299.0338376509
 20
83.7448885983
 40
50.0
 50
43.7212620861
 51
53.8371991552
  0
ARC
  8
0
 62
7
  6
CONTINUOUS
 10
332.0784087082
 20
87.1561297186
 40
6.0
 50
126.1628008448
 51
180.0
  0
ARC
  8
0
 62
7
  6
CONTINUOUS
 10
327.1284087082
 20
107.3033063579
 40
1.0
 50
180.0
 51
253.532453207
  0
ARC
  8
0
 62
7
  6
CONTINUOUS
 10
299.0338376509
 20
132.367370839
 40
50.0
 50
306.1628008448
 51
316.2787379139
  0
ARC
  8
0
 62
7
  6
CONTINUOUS
 10
332.0784087082
 20
128.9561297186
 40
6.0
 50
180.0
 51
233.8371991552
  0
ARC
  8
0
 62
7
  6
CONTINUOUS
 10
327.1284087082
 20
108.8089530794
 40
1.0
 50
106.467546793
 51
180.0
  0
ARC
  8
0
 62
6
  6
CONTINUOUS
 10
334.0784087082
 20
82.651767999
 40
8.75
 50
30.5584317859
 51
60.9677227773
  0
ARC
  8
0
 62
7
  6
CONTINUOUS
 10
334.0784087082
 20
82.6561297186
 40
8.5
 50
199.7499227956
 51
340.2500772044
  0
CIRCLE
  8
0
 62
7
  6
CONTINUOUS
 10
334.0784087082
 20
82.6561297186
 40
4.15
  0
ARC
  8
0
 62
6
  6
CONTINUOUS
 10
338.6887801297
 20
90.9580593107
 40
0.75
 50
199.54
 51
240.9677227773
  0
ARC
  8
0
 62
6
  6
CONTINUOUS
 10
341.8284087082
 20
87.2275193034
 40
0.25
 50
210.5584317859
 51
360.0
  0
ARC
  8
0
 62
7
  6
CONTINUOUS
 10
346.0784087082
 20
100.4067417505
 40
4.0
 50
91.0023056608
 51
180.0
  0
ARC
  8
0
 62
7
  6
CONTINUOUS
 10
335.0784087082
 20
101.8783205394
 40
1.0
 50
180.0
 51
199.54
  0
ARC
  8
0
 62
7
  6
CONTINUOUS
 10
333.2284087082
 20
103.5710295753
 40
0.85
 50
0.0
 51
73.532453207
  0
ARC
  8
0
 62
7
  6
CONTINUOUS
 10
334.8080180052
 20
98.1554135728
 40
0.5
 50
316.2787379139
 51
19.54
  0
ARC
  8
0
 62
40
  6
CONTINUOUS
 10
364.4784087082
 20
107.7556728041
 40
3.0
 50
333.0581329042
 51
360.0
  0
ARC
  8
0
 62
7
  6
CONTINUOUS
 10
365.7043092125
 20
105.5008300315
 40
0.75
 50
271.0023056608
 51
316.3206709304
  0
ARC
  8
0
 62
7
  6
CONTINUOUS
 10
346.0784087082
 20
115.7055176868
 40
4.0
 50
180.0
 51
268.9976943392
  0
ARC
  8
0
 62
7
  6
CONTINUOUS
 10
335.0784087082
 20
114.2339388979
 40
1.0
 50
160.46
 51
180.0
  0
ARC
  8
0
 62
7
  6
CONTINUOUS
 10
333.2284087082
 20
112.541229862
 40
0.85
 50
286.467546793
 51
360.0
  0
ARC
  8
0
 62
7
  6
CONTINUOUS
 10
334.8080180052
 20
117.9568458645
 40
0.5
 50
340.46
 51
43.7212620861
  0
ARC
  8
0
 62
7
  6
CONTINUOUS
 10
334.0784087082
 20
133.4604914383
 40
8.75
 50
299.0322772227
 51
329.4415682141
  0
ARC
  8
0
 62
7
  6
CONTINUOUS
 10
334.0784087082
 20
133.4561297186
 40
8.5
 50
19.7499227956
 51
141.9951143277
  0
ARC
  8
0
 62
7
  6
CONTINUOUS
 10
334.0784087082
 20
133.4561297186
 40
8.5
 50
142.4345865675
 51
160.2500772044
  0
ARC
  8
0
 62
6
  6
CONTINUOUS
 10
334.0784087082
 20
133.4561297186
 40
8.5
 50
141.9951143277
 51
142.4345865675
  0
ARC
  8
0
 62
7
  6
CONTINUOUS
 10
334.0784087082
 20
133.4561297186
 40
5.8
 50
270.0
 51
90.0
  0
CIRCLE
  8
0
 62
7
  6
CONTINUOUS
 10
334.0784087082
 20
133.4561297186
 40
4.15
  0
ARC
  8
0
 62
7
  6
CONTINUOUS
 10
338.6887801297
 20
125.1542001265
 40
0.75
 50
119.0322772227
 51
160.46
  0
ARC
  8
0
 62
7
  6
CONTINUOUS
 10
341.8284087082
 20
128.8847401339
 40
0.25
 50
0.0
 51
149.4415682141
  0
ARC
  8
0
 62
7
  6
CONTINUOUS
 10
363.0284087082
 20
108.0561297186
 40
4.45
 50
316.3206709304
 51
43.6793290696
  0
ARC
  8
0
 62
40
  6
CONTINUOUS
 10
364.4784087082
 20
108.3565866332
 40
3.0
 50
0.0
 51
26.9418632896
  0
ARC
  8
0
 62
7
  6
CONTINUOUS
 10
365.7043092125
 20
110.6114294058
 40
0.75
 50
43.6793290696
 51
88.9976943392
  0
ENDSEC
  0
EOF
