  0
SECTION
  2
HEADER
  9
$EXTMAX
 10
210.0
 20
297.0
 30
0.0
  9
$EXTMIN
 10
0.0
 20
0.0
 30
0.0
  9
$LIMMIN
 10
0.0
 20
0.0
  9
$LIMMAX
 10
210.0
 20
297.0
  9
$VIEWCTR
 10
105.0
 20
148.5
  9
$VIEWSIZE
 40
297.0
  9
$CLAYER
  8
0
  9
$LTSCALE
 40
19.36
  9
$CELTYPE
  6
BYLAYER
  9
$DIMSCALE
 40
1.0
  9
$DIMASZ
 40
3.5
  9
$DIMEXO
 40
2.2
  9
$DIMDLI
 40
13.376
  9
$DIMEXE
 40
6.336
  9
$DIMCEN
 40
3.168
  9
$DIMLFAC
 40
1.0
  9
$DIMBLK
  1
_FILLED
  9
$DIMTXT
 40
3.5
  9
$PDMODE
 70
3
  9
$PDSIZE
 40
0.3125
  9
$TILEMODE
 70
1
  0
ENDSEC
  0
SECTION
  2
TABLES
  0
TABLE
  2
LTYPE
 70
6
  0
LTYPE
  2
BYBLOCK
 70
0
  3

 72
65
 73
0
 40
0.0
  0
LTYPE
  2
BYLAYER
 70
0
  3

 72
65
 73
0
 40
0.0
  0
LTYPE
  2
CONTINUOUS
 70
64
  3
Solid line
 72
65
 73
0
 40
0.0
  0
LTYPE
  2
CENTER
 70
64
  3
____ _ ____ _ ____ _ ____ _ ____ _ ____ _ ____
 72
65
 73
4
 40
0.6
 49
0.375
 49
-0.075
 49
0.075
 49
-0.075
  0
LTYPE
  2
HIDDEN
 70
64
  3
- - - - - - - - - - - - - - - - - - - -
 72
65
 73
2
 40
0.2
 49
0.1
 49
-0.1
  0
LTYPE
  2
PHANTOM
 70
64
  3
_____ _ _ _____ _ _ _____ _ _ _____
 72
65
 73
6
 40
0.8
 49
0.45
 49
-0.05
 49
0.1
 49
-0.05
 49
0.1
 49
-0.05
  0
LTYPE
  2
DOT
 70
64
  3
. . . . . . . . . . . . . . . . . . . .
 72
65
 73
2
 40
0.2
 49
0.1
 49
-0.1
  0
LTYPE
  2
DASHED
 70
64
  3
- - - - - - - - - - - - - - - - - - - -
 72
65
 73
2
 40
0.2
 49
0.1
 49
-0.1
  0
ENDTAB
  0
TABLE
  2
LAYER
 70
36
  0
LAYER
  2
0
 70
0
 62
7
  6
CONTINUOUS
  0
LAYER
  2
DEFAULT_1
 70
0
 62
7
  6
CENTER
  0
LAYER
  2
DEFAULT_2
 70
0
 62
8
  6
HIDDEN
  0
LAYER
  2
DEFAULT_3
 70
0
 62
7
  6
PHANTOM
  0
LAYER
  2
1_AXIS
 70
0
 62
7
  6
CONTINUOUS
  0
LAYER
  2
1_CSYS
 70
0
 62
7
  6
CONTINUOUS
  0
LAYER
  2
1_DATUMPLANE
 70
0
 62
7
  6
CONTINUOUS
  0
LAYER
  2
4_QUILT
 70
0
 62
7
  6
CONTINUOUS
  0
LAYER
  2
4_SURFACE
 70
0
 62
7
  6
CONTINUOUS
  0
LAYER
  2
6_DIM
 70
0
 62
7
  6
CONTINUOUS
  0
LAYER
  2
CURVE
 70
0
 62
7
  6
CONTINUOUS
  0
LAYER
  2
SURFACE
 70
0
 62
7
  6
CONTINUOUS
  0
ENDTAB
  0
TABLE
  2
STYLE
 70
1
  0
STYLE
  2
STANDARD
 70
0
 40
0.0
 41
0.8
 50
0.0
 71
0
 42
0.2
  3
txt
  4

  0
STYLE
  2
TEXTSTYLE_1
 70
0
 40
0.0
 41
0.8
 50
0.0
 71
0
 42
0.2
  3
gdt
  4

  0
STYLE
  2
TEXTSTYLE_2
 70
0
 40
0.0
 41
0.6
 50
0.0
 71
0
 42
0.2
  3
txt
  4

  0
STYLE
  2
TEXTSTYLE_3
 70
0
 40
0.0
 41
1.0
 50
0.0
 71
0
 42
0.2
  3
ftb_____.ttf
  4

  0
STYLE
  2
TEXTSTYLE_4
 70
0
 40
0.0
 41
1.0
 50
0.0
 71
0
 42
0.2
  3
fti_____.ttf
  4

  0
STYLE
  2
TEXTSTYLE_5
 70
0
 40
0.0
 41
1.0
 50
0.0
 71
0
 42
0.2
  3
frutiger light.ttf
  4

  0
STYLE
  2
TEXTSTYLE_6
 70
0
 40
0.0
 41
0.7
 50
0.0
 71
0
 42
0.2
  3
txt
  4

  0
STYLE
  2
TEXTSTYLE_7
 70
0
 40
0.0
 41
0.65
 50
0.0
 71
0
 42
0.2
  3
txt
  4

  0
ENDTAB
  0
ENDSEC
  0
SECTION
  2
BLOCKS
  0
BLOCK
  8
0
 62
2
  6
CONTINUOUS
  2
SYMBOL_8_BL1
 70
64
 10
173.5956734183
 20
35.5937998301
  0
TEXT
  8
0
 62
7
  6
CONTINUOUS
 10
164.6539584268
 20
30.6865562072
  7
TEXTSTYLE_4
 40
1.0655737705
  1
The brand for plastic modular belts and chains
 41
1.0
 72
0
  0
LINE
  8
0
 62
7
  6
CONTINUOUS
 10
149.5737418074
 20
36.1675703219
 11
149.5737418074
 21
34.0364227809
  0
LINE
  8
0
 62
7
  6
CONTINUOUS
 10
149.8628043005
 20
31.0454914852
 11
149.8628043005
 21
31.1422825445
  0
LINE
  8
0
 62
7
  6
CONTINUOUS
 10
149.5737418074
 20
31.1100188581
 11
149.6315543091
 21
30.9164367395
  0
LINE
  8
0
 62
7
  6
CONTINUOUS
 10
150.9671844304
 20
33.9544555678
 11
150.9671844304
 21
36.1675703219
  0
LINE
  8
0
 62
7
  6
CONTINUOUS
 10
151.8862417523
 20
32.1101932727
 11
151.8862417523
 21
30.5937998301
  0
LINE
  8
0
 62
7
  6
CONTINUOUS
 10
152.1753043074
 20
30.5937998301
 11
152.1753043074
 21
31.3358647082
  0
LINE
  8
0
 62
7
  6
CONTINUOUS
 10
152.1753043074
 20
31.4649194539
 11
152.1753043074
 21
32.1101932727
  0
LINE
  8
0
 62
7
  6
CONTINUOUS
 10
149.6315543091
 20
31.3036010218
 11
149.5737418074
 21
31.1100188581
  0
LINE
  8
0
 62
7
  6
CONTINUOUS
 10
149.9784292936
 20
30.8841730531
 11
149.8628043005
 21
31.0454914852
  0
LINE
  8
0
 62
7
  6
CONTINUOUS
 10
151.0768668626
 20
31.400392081
 11
151.1346793074
 21
31.3036010218
  0
LINE
  8
0
 62
7
  6
CONTINUOUS
 10
151.4237418626
 20
31.3036010218
 11
151.3659292523
 21
31.4326557675
  0
LINE
  8
0
 62
7
  6
CONTINUOUS
 10
152.852430332
 20
36.1675703219
 11
152.852430332
 21
34.3642916334
  0
LINE
  8
0
 62
7
  6
CONTINUOUS
 10
152.852430332
 20
33.0528162235
 11
152.852430332
 21
32.3970785186
  0
LINE
  8
0
 62
7
  6
CONTINUOUS
 10
153.2159293074
 20
31.2390736489
 11
153.2159293074
 21
30.5937998301
  0
LINE
  8
0
 62
7
  6
CONTINUOUS
 10
153.5049916972
 20
30.5937998301
 11
153.5049916972
 21
31.2390736489
  0
LINE
  8
0
 62
7
  6
CONTINUOUS
 10
149.8628043005
 20
31.1422825445
 11
149.9206168074
 21
31.2713373354
  0
LINE
  8
0
 62
7
  6
CONTINUOUS
 10
149.6315543091
 20
30.9164367395
 11
149.7471793074
 21
30.7873819712
  0
LINE
  8
0
 62
7
  6
CONTINUOUS
 10
153.1581166972
 20
31.3681283946
 11
153.2159293074
 21
31.2390736489
  0
LINE
  8
0
 62
7
  6
CONTINUOUS
 10
153.9674919177
 20
30.8841730531
 11
154.0253041972
 21
30.7551182848
  0
LINE
  8
0
 62
7
  6
CONTINUOUS
 10
153.5049916972
 20
31.2390736489
 11
153.4471794177
 21
31.400392081
  0
LINE
  8
0
 62
7
  6
CONTINUOUS
 10
153.9674919177
 20
31.4326557675
 11
153.9674919177
 21
31.3681283946
  0
LINE
  8
0
 62
7
  6
CONTINUOUS
 10
153.9674919177
 20
30.9809641124
 11
153.9674919177
 21
30.8841730531
  0
LINE
  8
0
 62
7
  6
CONTINUOUS
 10
154.245872955
 20
32.3970785186
 11
154.245872955
 21
36.1675703219
  0
LINE
  8
0
 62
7
  6
CONTINUOUS
 10
154.2565543074
 20
30.8519093441
 11
154.2565543074
 21
30.9164367395
  0
LINE
  8
0
 62
7
  6
CONTINUOUS
 10
154.5737418074
 20
36.1675703219
 11
154.5737418074
 21
32.3970785186
  0
LINE
  8
0
 62
7
  6
CONTINUOUS
 10
151.3659292523
 20
30.7873819712
 11
151.4237418626
 21
30.9164367395
  0
LINE
  8
0
 62
7
  6
CONTINUOUS
 10
155.759679528
 20
30.6905909007
 11
155.7018665869
 21
30.8519093441
  0
LINE
  8
0
 62
7
  6
CONTINUOUS
 10
155.412804528
 20
31.3681283946
 11
155.412804528
 21
31.2713373354
  0
LINE
  8
0
 62
7
  6
CONTINUOUS
 10
155.412804528
 20
31.1422825445
 11
155.412804528
 21
30.9487004259
  0
LINE
  8
0
 62
7
  6
CONTINUOUS
 10
155.7018665869
 20
30.8519093441
 11
155.7018665869
 21
31.3681283946
  0
LINE
  8
0
 62
7
  6
CONTINUOUS
 10
155.9671844304
 20
32.3970785186
 11
155.9671844304
 21
34.2003572071
  0
LINE
  8
0
 62
7
  6
CONTINUOUS
 10
155.9671844304
 20
35.511832617
 11
155.9671844304
 21
36.1675703219
  0
LINE
  8
0
 62
7
  6
CONTINUOUS
 10
156.279992028
 20
32.1101932727
 11
156.279992028
 21
31.9488748406
  0
LINE
  8
0
 62
7
  6
CONTINUOUS
 10
156.279992028
 20
31.626237886
 11
156.279992028
 21
30.5937998301
  0
LINE
  8
0
 62
7
  6
CONTINUOUS
 10
156.5690540869
 20
30.5937998301
 11
156.5690540869
 21
31.626237886
  0
LINE
  8
0
 62
7
  6
CONTINUOUS
 10
156.5690540869
 20
31.9488748406
 11
156.5690540869
 21
32.1101932727
  0
LINE
  8
0
 62
7
  6
CONTINUOUS
 10
151.1346793074
 20
30.9164367395
 11
151.0768668626
 21
30.8196456577
  0
LINE
  8
0
 62
7
  6
CONTINUOUS
 10
153.4471794177
 20
31.400392081
 11
153.3893668074
 21
31.4649194539
  0
LINE
  8
0
 62
7
  6
CONTINUOUS
 10
154.3143669177
 20
30.7873819712
 11
154.2565543074
 21
30.8519093441
  0
LINE
  8
0
 62
7
  6
CONTINUOUS
 10
155.4706168074
 20
30.6583272086
 11
155.5284290869
 21
30.5937998301
  0
LINE
  8
0
 62
7
  6
CONTINUOUS
 10
155.412804528
 20
30.7551182848
 11
155.4706168074
 21
30.6583272086
  0
LINE
  8
0
 62
7
  6
CONTINUOUS
 10
155.8174918074
 20
30.5937998301
 11
155.759679528
 21
30.6905909007
  0
LINE
  8
0
 62
7
  6
CONTINUOUS
 10
155.7018665869
 20
31.3681283946
 11
155.6440543074
 21
31.4649194539
  0
LINE
  8
0
 62
7
  6
CONTINUOUS
 10
157.0315543074
 20
31.626237886
 11
157.0315543074
 21
30.5937998301
  0
LINE
  8
0
 62
7
  6
CONTINUOUS
 10
157.320617028
 20
30.5937998301
 11
157.320617028
 21
31.3358647082
  0
LINE
  8
0
 62
7
  6
CONTINUOUS
 10
157.320617028
 20
31.4649194539
 11
157.320617028
 21
31.626237886
  0
LINE
  8
0
 62
7
  6
CONTINUOUS
 10
157.852430332
 20
34.6101932727
 11
157.852430332
 21
32.3970785186
  0
LINE
  8
0
 62
7
  6
CONTINUOUS
 10
149.7471793074
 20
31.4326557675
 11
149.6315543091
 21
31.3036010218
  0
LINE
  8
0
 62
7
  6
CONTINUOUS
 10
149.9206168074
 20
31.2713373354
 11
149.9784292936
 21
31.3358647082
  0
LINE
  8
0
 62
7
  6
CONTINUOUS
 10
149.7471793074
 20
30.7873819712
 11
149.8628043005
 21
30.7228545871
  0
LINE
  8
0
 62
7
  6
CONTINUOUS
 10
150.1518667936
 20
30.7873819712
 11
149.9784292936
 21
30.8841730531
  0
LINE
  8
0
 62
7
  6
CONTINUOUS
 10
155.3549915869
 20
31.4326557675
 11
155.412804528
 21
31.3681283946
  0
LINE
  8
0
 62
7
  6
CONTINUOUS
 10
158.3034290869
 20
31.3681283946
 11
158.361242028
 21
31.2068099625
  0
LINE
  8
0
 62
7
  6
CONTINUOUS
 10
158.6503040869
 20
31.2068099625
 11
158.5924918074
 21
31.3681283946
  0
LINE
  8
0
 62
7
  6
CONTINUOUS
 10
158.361242028
 20
31.2068099625
 11
158.361242028
 21
30.5937998301
  0
LINE
  8
0
 62
7
  6
CONTINUOUS
 10
158.6503040869
 20
30.5937998301
 11
158.6503040869
 21
31.2068099625
  0
LINE
  8
0
 62
7
  6
CONTINUOUS
 10
159.1128043074
 20
31.4326557675
 11
159.1128043074
 21
31.3681283946
  0
LINE
  8
0
 62
7
  6
CONTINUOUS
 10
159.245872955
 20
32.3970785186
 11
159.245872955
 21
34.5282260596
  0
LINE
  8
0
 62
7
  6
CONTINUOUS
 10
159.5737418074
 20
36.1675703219
 11
159.5737418074
 21
32.3970785186
  0
LINE
  8
0
 62
7
  6
CONTINUOUS
 10
154.2565543074
 20
30.9164367395
 11
154.3143669177
 21
31.0132277988
  0
LINE
  8
0
 62
7
  6
CONTINUOUS
 10
149.8628043005
 20
30.7228545871
 11
150.0362418212
 21
30.6583272086
  0
LINE
  8
0
 62
7
  6
CONTINUOUS
 10
151.3659292523
 20
31.4326557675
 11
151.1924917523
 21
31.5294468267
  0
LINE
  8
0
 62
7
  6
CONTINUOUS
 10
154.0253041972
 20
30.7551182848
 11
154.1987416972
 21
30.6583272086
  0
LINE
  8
0
 62
7
  6
CONTINUOUS
 10
153.0424918074
 20
31.4326557675
 11
153.1581166972
 21
31.3681283946
  0
LINE
  8
0
 62
7
  6
CONTINUOUS
 10
153.3893668074
 20
31.4649194539
 11
153.2737419177
 21
31.5294468267
  0
LINE
  8
0
 62
7
  6
CONTINUOUS
 10
159.1128043074
 20
30.8519093441
 11
159.228429528
 21
30.7228545871
  0
LINE
  8
0
 62
7
  6
CONTINUOUS
 10
159.4596793074
 20
30.7873819712
 11
159.401867028
 21
30.8519093441
  0
LINE
  8
0
 62
7
  6
CONTINUOUS
 10
159.1128043074
 20
31.3681283946
 11
159.228429528
 21
31.2390736489
  0
LINE
  8
0
 62
7
  6
CONTINUOUS
 10
158.5924918074
 20
31.3681283946
 11
158.534679528
 21
31.4649194539
  0
LINE
  8
0
 62
7
  6
CONTINUOUS
 10
160.9628038663
 20
30.7873819712
 11
160.9628038663
 21
30.8519093441
  0
LINE
  8
0
 62
7
  6
CONTINUOUS
 10
160.9671844304
 20
32.3970785186
 11
160.9671844304
 21
36.1675703219
  0
LINE
  8
0
 62
7
  6
CONTINUOUS
 10
154.0253041972
 20
31.4971831403
 11
153.9674919177
 21
31.4326557675
  0
LINE
  8
0
 62
7
  6
CONTINUOUS
 10
150.9034292799
 20
31.4649194539
 11
151.0768668626
 21
31.400392081
  0
LINE
  8
0
 62
7
  6
CONTINUOUS
 10
155.6440543074
 20
31.4649194539
 11
155.5284290869
 21
31.5294468267
  0
LINE
  8
0
 62
7
  6
CONTINUOUS
 10
159.4596793074
 20
31.3036010218
 11
159.401867028
 21
31.3681283946
  0
LINE
  8
0
 62
7
  6
CONTINUOUS
 10
160.615929528
 20
30.9164367395
 11
160.6737418074
 21
30.8519093441
  0
LINE
  8
0
 62
7
  6
CONTINUOUS
 10
160.9628038663
 20
30.8519093441
 11
160.8471793074
 21
30.9809641124
  0
LINE
  8
0
 62
7
  6
CONTINUOUS
 10
160.615929528
 20
31.4326557675
 11
160.6737418074
 21
31.3681283946
  0
LINE
  8
0
 62
7
  6
CONTINUOUS
 10
160.9628038663
 20
31.3681283946
 11
160.8471793074
 21
31.4971831403
  0
LINE
  8
0
 62
7
  6
CONTINUOUS
 10
154.2565543074
 20
31.3681283946
 11
154.3143669177
 21
31.4326557675
  0
LINE
  8
0
 62
7
  6
CONTINUOUS
 10
154.0831168074
 20
31.1100188581
 11
153.9674919177
 21
30.9809641124
  0
LINE
  8
0
 62
7
  6
CONTINUOUS
 10
155.412804528
 20
30.9487004259
 11
155.3549915869
 21
30.8841730531
  0
LINE
  8
0
 62
7
  6
CONTINUOUS
 10
155.3549915869
 20
30.6905909007
 11
155.412804528
 21
30.7551182848
  0
LINE
  8
0
 62
7
  6
CONTINUOUS
 10
154.1987416972
 20
30.6583272086
 11
154.3143669177
 21
30.6260635193
  0
LINE
  8
0
 62
7
  6
CONTINUOUS
 10
151.1924917523
 20
31.5294468267
 11
150.9612418074
 21
31.5939741996
  0
LINE
  8
0
 62
7
  6
CONTINUOUS
 10
154.5456166972
 20
30.7228545871
 11
154.3143669177
 21
30.7873819712
  0
LINE
  8
0
 62
7
  6
CONTINUOUS
 10
153.2737419177
 20
31.5294468267
 11
153.1003044177
 21
31.5939741996
  0
LINE
  8
0
 62
7
  6
CONTINUOUS
 10
155.5284290869
 20
31.5294468267
 11
155.3549915869
 21
31.5939741996
  0
LINE
  8
0
 62
7
  6
CONTINUOUS
 10
158.187804528
 20
31.4326557675
 11
158.3034290869
 21
31.3681283946
  0
LINE
  8
0
 62
7
  6
CONTINUOUS
 10
158.534679528
 20
31.4649194539
 11
158.4190543074
 21
31.5294468267
  0
LINE
  8
0
 62
7
  6
CONTINUOUS
 10
150.0362418212
 20
30.6583272086
 11
150.2096793212
 21
30.6260635193
  0
LINE
  8
0
 62
7
  6
CONTINUOUS
 10
150.498741835
 20
30.7228545871
 11
150.1518667936
 21
30.7873819712
  0
LINE
  8
0
 62
7
  6
CONTINUOUS
 10
152.9268669177
 20
31.4649194539
 11
153.0424918074
 21
31.4326557675
  0
LINE
  8
0
 62
7
  6
CONTINUOUS
 10
155.239367028
 20
31.4649194539
 11
155.3549915869
 21
31.4326557675
  0
LINE
  8
0
 62
7
  6
CONTINUOUS
 10
159.575304528
 20
30.7551182848
 11
159.4596793074
 21
30.7873819712
  0
LINE
  8
0
 62
7
  6
CONTINUOUS
 10
158.0721793074
 20
31.4649194539
 11
158.187804528
 21
31.4326557675
  0
LINE
  8
0
 62
7
  6
CONTINUOUS
 10
159.228429528
 20
30.7228545871
 11
159.401867028
 21
30.6583272086
  0
LINE
  8
0
 62
7
  6
CONTINUOUS
 10
158.4190543074
 20
31.5294468267
 11
158.2456168074
 21
31.5939741996
  0
LINE
  8
0
 62
7
  6
CONTINUOUS
 10
159.6331168074
 20
31.2390736489
 11
159.4596793074
 21
31.3036010218
  0
LINE
  8
0
 62
7
  6
CONTINUOUS
 10
160.442492028
 20
30.9809641124
 11
160.615929528
 21
30.9164367395
  0
LINE
  8
0
 62
7
  6
CONTINUOUS
 10
160.8471793074
 20
31.4971831403
 11
160.6737418074
 21
31.5617105132
  0
LINE
  8
0
 62
7
  6
CONTINUOUS
 10
159.228429528
 20
31.2390736489
 11
159.4596793074
 21
31.1422825445
  0
LINE
  8
0
 62
7
  6
CONTINUOUS
 10
160.8471793074
 20
30.9809641124
 11
160.615929528
 21
31.0777551716
  0
LINE
  8
0
 62
7
  6
CONTINUOUS
 10
159.401867028
 20
31.3681283946
 11
159.4596793074
 21
31.4326557675
  0
LINE
  8
0
 62
7
  6
CONTINUOUS
 10
149.8628043005
 20
31.4971831403
 11
149.7471793074
 21
31.4326557675
  0
LINE
  8
0
 62
7
  6
CONTINUOUS
 10
149.9784292936
 20
31.3358647082
 11
150.1518667936
 21
31.4326557675
  0
LINE
  8
0
 62
7
  6
CONTINUOUS
 10
152.2909293626
 20
31.5294468267
 11
152.1753043074
 21
31.4649194539
  0
LINE
  8
0
 62
7
  6
CONTINUOUS
 10
152.1753043074
 20
31.3358647082
 11
152.2909293626
 21
31.400392081
  0
LINE
  8
0
 62
7
  6
CONTINUOUS
 10
151.1924917523
 20
30.6905909007
 11
151.3659292523
 21
30.7873819712
  0
LINE
  8
0
 62
7
  6
CONTINUOUS
 10
150.2096793212
 20
30.6260635193
 11
150.5565542799
 21
30.5937998301
  0
LINE
  8
0
 62
7
  6
CONTINUOUS
 10
154.3143669177
 20
30.6260635193
 11
154.5456166972
 21
30.5937998301
  0
LINE
  8
0
 62
7
  6
CONTINUOUS
 10
152.6956168074
 20
31.4971831403
 11
152.9268669177
 21
31.4649194539
  0
LINE
  8
0
 62
7
  6
CONTINUOUS
 10
155.0081169177
 20
31.4971831403
 11
155.239367028
 21
31.4649194539
  0
LINE
  8
0
 62
7
  6
CONTINUOUS
 10
159.4596793074
 20
31.1422825445
 11
160.442492028
 21
30.9809641124
  0
LINE
  8
0
 62
7
  6
CONTINUOUS
 10
160.615929528
 20
31.0777551716
 11
159.6331168074
 21
31.2390736489
  0
LINE
  8
0
 62
7
  6
CONTINUOUS
 10
153.1003044177
 20
31.5939741996
 11
152.9268669177
 21
31.626237886
  0
LINE
  8
0
 62
7
  6
CONTINUOUS
 10
159.401867028
 20
30.6583272086
 11
159.575304528
 21
30.6260635193
  0
LINE
  8
0
 62
7
  6
CONTINUOUS
 10
158.2456168074
 20
31.5939741996
 11
158.0721793074
 21
31.626237886
  0
LINE
  8
0
 62
7
  6
CONTINUOUS
 10
160.5003043074
 20
31.4649194539
 11
160.615929528
 21
31.4326557675
  0
LINE
  8
0
 62
7
  6
CONTINUOUS
 10
160.6737418074
 20
30.8519093441
 11
160.615929528
 21
30.7873819712
  0
LINE
  8
0
 62
7
  6
CONTINUOUS
 10
159.228429528
 20
31.5294468267
 11
159.1128043074
 21
31.4326557675
  0
LINE
  8
0
 62
7
  6
CONTINUOUS
 10
154.1409294177
 20
31.5617105132
 11
154.0253041972
 21
31.4971831403
  0
LINE
  8
0
 62
7
  6
CONTINUOUS
 10
154.1987416972
 20
31.1745462761
 11
154.0831168074
 21
31.1100188581
  0
LINE
  8
0
 62
7
  6
CONTINUOUS
 10
154.3143669177
 20
31.0132277988
 11
154.4299918074
 21
31.0777551716
  0
LINE
  8
0
 62
7
  6
CONTINUOUS
 10
151.8862417523
 20
30.5937998301
 11
152.1753043074
 21
30.5937998301
  0
LINE
  8
0
 62
7
  6
CONTINUOUS
 10
153.2159293074
 20
30.5937998301
 11
153.5049916972
 21
30.5937998301
  0
LINE
  8
0
 62
7
  6
CONTINUOUS
 10
154.5456166972
 20
30.5937998301
 11
154.8924916972
 21
30.5937998301
  0
LINE
  8
0
 62
7
  6
CONTINUOUS
 10
155.5284290869
 20
30.5937998301
 11
155.8174918074
 21
30.5937998301
  0
LINE
  8
0
 62
7
  6
CONTINUOUS
 10
156.279992028
 20
30.5937998301
 11
156.5690540869
 21
30.5937998301
  0
LINE
  8
0
 62
7
  6
CONTINUOUS
 10
157.0315543074
 20
30.5937998301
 11
157.320617028
 21
30.5937998301
  0
LINE
  8
0
 62
7
  6
CONTINUOUS
 10
158.361242028
 20
30.5937998301
 11
158.6503040869
 21
30.5937998301
  0
LINE
  8
0
 62
7
  6
CONTINUOUS
 10
159.922179528
 20
30.5937998301
 11
160.269054528
 21
30.5937998301
  0
LINE
  8
0
 62
7
  6
CONTINUOUS
 10
160.269054528
 20
30.7228545871
 11
159.922179528
 21
30.7228545871
  0
LINE
  8
0
 62
7
  6
CONTINUOUS
 10
154.8924916972
 20
30.7228545871
 11
154.5456166972
 21
30.7228545871
  0
LINE
  8
0
 62
7
  6
CONTINUOUS
 10
159.401867028
 20
30.8519093441
 11
159.1128043074
 21
30.8519093441
  0
LINE
  8
0
 62
7
  6
CONTINUOUS
 10
151.4237418626
 20
30.9164367395
 11
151.1346793074
 21
30.9164367395
  0
LINE
  8
0
 62
7
  6
CONTINUOUS
 10
150.498741835
 20
31.4971831403
 11
150.9034292799
 21
31.4649194539
  0
LINE
  8
0
 62
7
  6
CONTINUOUS
 10
150.9612418074
 20
31.5939741996
 11
150.5565542799
 21
31.626237886
  0
LINE
  8
0
 62
7
  6
CONTINUOUS
 10
159.575304528
 20
30.6260635193
 11
159.922179528
 21
30.5937998301
  0
LINE
  8
0
 62
7
  6
CONTINUOUS
 10
159.922179528
 20
30.7228545871
 11
159.575304528
 21
30.7551182848
  0
LINE
  8
0
 62
7
  6
CONTINUOUS
 10
155.3549915869
 20
31.5939741996
 11
155.0081169177
 21
31.626237886
  0
LINE
  8
0
 62
7
  6
CONTINUOUS
 10
160.1534293074
 20
31.4971831403
 11
160.5003043074
 21
31.4649194539
  0
LINE
  8
0
 62
7
  6
CONTINUOUS
 10
160.5003043074
 20
31.5939741996
 11
160.1534293074
 21
31.626237886
  0
LINE
  8
0
 62
7
  6
CONTINUOUS
 10
157.840929528
 20
31.4971831403
 11
158.0721793074
 21
31.4649194539
  0
LINE
  8
0
 62
7
  6
CONTINUOUS
 10
160.6737418074
 20
31.5617105132
 11
160.5003043074
 21
31.5939741996
  0
LINE
  8
0
 62
7
  6
CONTINUOUS
 10
160.8471793074
 20
30.6905909007
 11
160.9628038663
 21
30.7873819712
  0
LINE
  8
0
 62
7
  6
CONTINUOUS
 10
155.3549915869
 20
30.8841730531
 11
155.1815540869
 21
30.7873819712
  0
LINE
  8
0
 62
7
  6
CONTINUOUS
 10
157.4362415869
 20
31.5294468267
 11
157.320617028
 21
31.4649194539
  0
LINE
  8
0
 62
7
  6
CONTINUOUS
 10
157.320617028
 20
31.3358647082
 11
157.4362415869
 21
31.400392081
  0
LINE
  8
0
 62
7
  6
CONTINUOUS
 10
150.0362418212
 20
31.5617105132
 11
149.8628043005
 21
31.4971831403
  0
LINE
  8
0
 62
7
  6
CONTINUOUS
 10
152.4643666972
 20
31.5939741996
 11
152.2909293626
 21
31.5294468267
  0
LINE
  8
0
 62
7
  6
CONTINUOUS
 10
152.2909293626
 20
31.400392081
 11
152.4643666972
 21
31.4649194539
  0
LINE
  8
0
 62
7
  6
CONTINUOUS
 10
151.0768668626
 20
30.8196456577
 11
150.9034292799
 21
30.7551182848
  0
LINE
  8
0
 62
7
  6
CONTINUOUS
 10
160.5003043074
 20
30.7551182848
 11
160.269054528
 21
30.7228545871
  0
LINE
  8
0
 62
7
  6
CONTINUOUS
 10
154.8924916972
 20
30.5937998301
 11
155.1815540869
 21
30.6260635193
  0
LINE
  8
0
 62
7
  6
CONTINUOUS
 10
160.269054528
 20
30.5937998301
 11
160.615929528
 21
30.6260635193
  0
LINE
  8
0
 62
7
  6
CONTINUOUS
 10
150.5565542799
 20
30.5937998301
 11
150.9612418074
 21
30.6260635193
  0
LINE
  8
0
 62
7
  6
CONTINUOUS
 10
150.9034292799
 20
30.7551182848
 11
150.498741835
 21
30.7228545871
  0
LINE
  8
0
 62
7
  6
CONTINUOUS
 10
154.7768668074
 20
31.1422825445
 11
155.412804528
 21
31.1422825445
  0
LINE
  8
0
 62
7
  6
CONTINUOUS
 10
155.412804528
 20
31.2713373354
 11
154.7768668074
 21
31.2713373354
  0
LINE
  8
0
 62
7
  6
CONTINUOUS
 10
151.1346793074
 20
31.3036010218
 11
151.4237418626
 21
31.3036010218
  0
LINE
  8
0
 62
7
  6
CONTINUOUS
 10
153.9674919177
 20
31.3681283946
 11
154.2565543074
 21
31.3681283946
  0
LINE
  8
0
 62
7
  6
CONTINUOUS
 10
160.6737418074
 20
31.3681283946
 11
160.9628038663
 21
31.3681283946
  0
LINE
  8
0
 62
7
  6
CONTINUOUS
 10
154.6612419177
 20
31.4971831403
 11
155.0081169177
 21
31.4971831403
  0
LINE
  8
0
 62
7
  6
CONTINUOUS
 10
159.8065543074
 20
31.4971831403
 11
160.1534293074
 21
31.4971831403
  0
LINE
  8
0
 62
7
  6
CONTINUOUS
 10
160.1534293074
 20
31.626237886
 11
159.8065543074
 21
31.626237886
  0
LINE
  8
0
 62
7
  6
CONTINUOUS
 10
158.0721793074
 20
31.626237886
 11
157.840929528
 21
31.626237886
  0
LINE
  8
0
 62
7
  6
CONTINUOUS
 10
157.320617028
 20
31.626237886
 11
157.0315543074
 21
31.626237886
  0
LINE
  8
0
 62
7
  6
CONTINUOUS
 10
156.5690540869
 20
31.626237886
 11
156.279992028
 21
31.626237886
  0
LINE
  8
0
 62
7
  6
CONTINUOUS
 10
155.0081169177
 20
31.626237886
 11
154.6612419177
 21
31.626237886
  0
LINE
  8
0
 62
7
  6
CONTINUOUS
 10
152.9268669177
 20
31.626237886
 11
152.6956168074
 21
31.626237886
  0
LINE
  8
0
 62
7
  6
CONTINUOUS
 10
156.279992028
 20
31.9488748406
 11
156.5690540869
 21
31.9488748406
  0
LINE
  8
0
 62
7
  6
CONTINUOUS
 10
156.5690540869
 20
32.1101932727
 11
156.279992028
 21
32.1101932727
  0
LINE
  8
0
 62
7
  6
CONTINUOUS
 10
152.1753043074
 20
32.1101932727
 11
151.8862417523
 21
32.1101932727
  0
LINE
  8
0
 62
7
  6
CONTINUOUS
 10
151.2130860697
 20
32.3970785186
 11
151.6256574183
 21
32.3970785186
  0
LINE
  8
0
 62
7
  6
CONTINUOUS
 10
152.852430332
 20
32.3970785186
 11
154.245872955
 21
32.3970785186
  0
LINE
  8
0
 62
7
  6
CONTINUOUS
 10
154.5737418074
 20
32.3970785186
 11
155.9671844304
 21
32.3970785186
  0
LINE
  8
0
 62
7
  6
CONTINUOUS
 10
157.852430332
 20
32.3970785186
 11
159.245872955
 21
32.3970785186
  0
LINE
  8
0
 62
7
  6
CONTINUOUS
 10
159.5737418074
 20
32.3970785186
 11
160.9671844304
 21
32.3970785186
  0
LINE
  8
0
 62
7
  6
CONTINUOUS
 10
157.6096790869
 20
31.5939741996
 11
157.4362415869
 21
31.5294468267
  0
LINE
  8
0
 62
7
  6
CONTINUOUS
 10
155.1815540869
 20
30.6260635193
 11
155.3549915869
 21
30.6905909007
  0
LINE
  8
0
 62
7
  6
CONTINUOUS
 10
160.615929528
 20
30.6260635193
 11
160.8471793074
 21
30.6905909007
  0
LINE
  8
0
 62
7
  6
CONTINUOUS
 10
160.615929528
 20
30.7873819712
 11
160.5003043074
 21
30.7551182848
  0
LINE
  8
0
 62
7
  6
CONTINUOUS
 10
159.575304528
 20
31.4649194539
 11
159.8065543074
 21
31.4971831403
  0
LINE
  8
0
 62
7
  6
CONTINUOUS
 10
157.6096790869
 20
31.4649194539
 11
157.840929528
 21
31.4971831403
  0
LINE
  8
0
 62
7
  6
CONTINUOUS
 10
154.5456166972
 20
31.1100188581
 11
154.7768668074
 21
31.1422825445
  0
LINE
  8
0
 62
7
  6
CONTINUOUS
 10
157.840929528
 20
31.626237886
 11
157.6096790869
 21
31.5939741996
  0
LINE
  8
0
 62
7
  6
CONTINUOUS
 10
154.4299918074
 20
31.4649194539
 11
154.6612419177
 21
31.4971831403
  0
LINE
  8
0
 62
7
  6
CONTINUOUS
 10
159.8065543074
 20
31.626237886
 11
159.4596793074
 21
31.5939741996
  0
LINE
  8
0
 62
7
  6
CONTINUOUS
 10
154.7768668074
 20
31.2713373354
 11
154.4299918074
 21
31.2390736489
  0
LINE
  8
0
 62
7
  6
CONTINUOUS
 10
150.5565542799
 20
31.626237886
 11
150.2096793212
 21
31.5939741996
  0
LINE
  8
0
 62
7
  6
CONTINUOUS
 10
154.6612419177
 20
31.626237886
 11
154.2565543074
 21
31.5939741996
  0
LINE
  8
0
 62
7
  6
CONTINUOUS
 10
152.0327582009
 20
33.5446195022
 11
151.3770204959
 21
33.5446195022
  0
LINE
  8
0
 62
7
  6
CONTINUOUS
 10
157.4362415869
 20
31.400392081
 11
157.6096790869
 21
31.4649194539
  0
LINE
  8
0
 62
7
  6
CONTINUOUS
 10
159.4596793074
 20
31.4326557675
 11
159.575304528
 21
31.4649194539
  0
LINE
  8
0
 62
7
  6
CONTINUOUS
 10
159.4596793074
 20
31.5939741996
 11
159.228429528
 21
31.5294468267
  0
LINE
  8
0
 62
7
  6
CONTINUOUS
 10
155.1815540869
 20
30.7873819712
 11
154.8924916972
 21
30.7228545871
  0
LINE
  8
0
 62
7
  6
CONTINUOUS
 10
152.4643666972
 20
31.4649194539
 11
152.6956168074
 21
31.4971831403
  0
LINE
  8
0
 62
7
  6
CONTINUOUS
 10
152.6956168074
 20
31.626237886
 11
152.4643666972
 21
31.5939741996
  0
LINE
  8
0
 62
7
  6
CONTINUOUS
 10
150.2674918074
 20
31.4649194539
 11
150.498741835
 21
31.4971831403
  0
LINE
  8
0
 62
7
  6
CONTINUOUS
 10
156.7868565615
 20
35.0200293383
 11
157.4425942664
 21
35.0200293383
  0
LINE
  8
0
 62
7
  6
CONTINUOUS
 10
154.4299918074
 20
31.0777551716
 11
154.5456166972
 21
31.1100188581
  0
LINE
  8
0
 62
7
  6
CONTINUOUS
 10
154.4299918074
 20
31.2390736489
 11
154.1987416972
 21
31.1745462761
  0
LINE
  8
0
 62
7
  6
CONTINUOUS
 10
154.3143669177
 20
31.4326557675
 11
154.4299918074
 21
31.4649194539
  0
LINE
  8
0
 62
7
  6
CONTINUOUS
 10
150.9612418074
 20
30.6260635193
 11
151.1924917523
 21
30.6905909007
  0
LINE
  8
0
 62
7
  6
CONTINUOUS
 10
154.2565543074
 20
31.5939741996
 11
154.1409294177
 21
31.5617105132
  0
LINE
  8
0
 62
7
  6
CONTINUOUS
 10
150.2096793212
 20
31.5939741996
 11
150.0362418212
 21
31.5617105132
  0
LINE
  8
0
 62
7
  6
CONTINUOUS
 10
160.9671844304
 20
36.1675703219
 11
159.5737418074
 21
36.1675703219
  0
LINE
  8
0
 62
7
  6
CONTINUOUS
 10
157.6065286927
 20
36.1675703219
 11
157.1939573441
 21
36.1675703219
  0
LINE
  8
0
 62
7
  6
CONTINUOUS
 10
155.9671844304
 20
36.1675703219
 11
154.5737418074
 21
36.1675703219
  0
LINE
  8
0
 62
7
  6
CONTINUOUS
 10
154.245872955
 20
36.1675703219
 11
152.852430332
 21
36.1675703219
  0
LINE
  8
0
 62
7
  6
CONTINUOUS
 10
150.9671844304
 20
36.1675703219
 11
149.5737418074
 21
36.1675703219
  0
LINE
  8
0
 62
7
  6
CONTINUOUS
 10
150.1518667936
 20
31.4326557675
 11
150.2674918074
 21
31.4649194539
  0
CIRCLE
  8
0
 62
7
  6
CONTINUOUS
 10
160.2704631189
 20
38.5036358957
 40
2.0901639344
  0
ARC
  8
0
 62
7
  6
CONTINUOUS
 10
151.2130860697
 20
34.0364227809
 40
1.6393442623
 50
180.0
 51
270.0
  0
ARC
  8
0
 62
7
  6
CONTINUOUS
 10
157.6065286927
 20
34.5282260596
 40
1.6393442623
 50
0.0
 51
90.0
  0
ARC
  8
0
 62
7
  6
CONTINUOUS
 10
151.6256574183
 20
33.8724883547
 40
1.4754098361
 50
270.0
 51
326.2510114041
  0
ARC
  8
0
 62
7
  6
CONTINUOUS
 10
157.1939573441
 20
34.6921604858
 40
1.4754098361
 50
90.0
 51
146.2510114041
  0
ARC
  8
0
 62
7
  6
CONTINUOUS
 10
152.0327582009
 20
34.3642916334
 40
0.8196721311
 50
270.0
 51
360.0
  0
ARC
  8
0
 62
7
  6
CONTINUOUS
 10
156.7868565615
 20
34.2003572071
 40
0.8196721311
 50
90.0
 51
180.0
  0
ARC
  8
0
 62
7
  6
CONTINUOUS
 10
151.3770204959
 20
33.9544555678
 40
0.4098360656
 50
180.0
 51
270.0
  0
ARC
  8
0
 62
7
  6
CONTINUOUS
 10
157.4425942664
 20
34.6101932727
 40
0.4098360656
 50
0.0
 51
90.0
  0
SOLID
  8
0
 62
7
  6
CONTINUOUS
 10
156.279992028
 20
31.9488752009
 11
156.279992028
 21
32.1101936845
 12
156.5690540869
 22
31.9488752009
 13
156.5690540869
 23
32.1101936845
  0
SOLID
  8
0
 62
7
  6
CONTINUOUS
 10
150.5565542799
 20
31.6262382337
 11
150.9612418074
 21
31.5939740028
 12
150.2096793212
 22
31.5939740028
 13
150.2096793212
 23
31.5939740028
  0
SOLID
  8
0
 62
7
  6
CONTINUOUS
 10
150.0362418212
 20
31.5617111435
 11
150.2096793212
 21
31.5939740028
 12
150.9612418074
 22
31.5939740028
 13
150.9612418074
 23
31.5939740028
  0
SOLID
  8
0
 62
7
  6
CONTINUOUS
 10
150.9612418074
 20
31.5939740028
 11
151.1924917523
 21
31.5294468402
 12
150.0362418212
 22
31.5617111435
 13
150.0362418212
 23
31.5617111435
  0
SOLID
  8
0
 62
7
  6
CONTINUOUS
 10
149.8628043005
 20
31.49718259
 11
150.0362418212
 21
31.5617111435
 12
151.1924917523
 22
31.5294468402
 13
151.1924917523
 23
31.5294468402
  0
SOLID
  8
0
 62
7
  6
CONTINUOUS
 10
149.8628043005
 20
31.49718259
 11
151.1924917523
 21
31.5294468402
 12
150.498741835
 22
31.49718259
 13
150.498741835
 23
31.49718259
  0
SOLID
  8
0
 62
7
  6
CONTINUOUS
 10
150.498741835
 20
31.49718259
 11
151.1924917523
 21
31.5294468402
 12
150.9034292799
 22
31.4649197501
 13
150.9034292799
 23
31.4649197501
  0
SOLID
  8
0
 62
7
  6
CONTINUOUS
 10
151.1924917523
 20
31.5294468402
 11
151.3659292523
 21
31.4326554468
 12
150.9034292799
 22
31.4649197501
 13
150.9034292799
 23
31.4649197501
  0
SOLID
  8
0
 62
7
  6
CONTINUOUS
 10
151.0768668626
 20
31.4003926599
 11
150.9034292799
 21
31.4649197501
 12
151.3659292523
 22
31.4326554468
 13
151.3659292523
 23
31.4326554468
  0
SOLID
  8
0
 62
7
  6
CONTINUOUS
 10
151.0768668626
 20
31.4003926599
 11
151.3659292523
 21
31.4326554468
 12
151.1346793074
 22
31.3036013776
 13
151.1346793074
 23
31.3036013776
  0
SOLID
  8
0
 62
7
  6
CONTINUOUS
 10
151.3659292523
 20
31.4326554468
 11
151.4237418626
 21
31.3036013776
 12
151.1346793074
 22
31.3036013776
 13
151.1346793074
 23
31.3036013776
  0
SOLID
  8
0
 62
7
  6
CONTINUOUS
 10
152.4643666972
 20
31.5939739754
 11
152.6956168074
 21
31.6262382787
 12
152.9268669177
 22
31.6262382787
 13
152.9268669177
 23
31.6262382787
  0
SOLID
  8
0
 62
7
  6
CONTINUOUS
 10
152.9268669177
 20
31.6262382787
 11
153.1003044177
 21
31.5939739754
 12
152.4643666972
 22
31.5939739754
 13
152.4643666972
 23
31.5939739754
  0
SOLID
  8
0
 62
7
  6
CONTINUOUS
 10
152.2909293626
 20
31.5294468852
 11
152.4643666972
 21
31.5939739754
 12
153.1003044177
 22
31.5939739754
 13
153.1003044177
 23
31.5939739754
  0
SOLID
  8
0
 62
7
  6
CONTINUOUS
 10
153.1003044177
 20
31.5939739754
 11
153.2737419177
 21
31.5294468852
 12
152.2909293626
 22
31.5294468852
 13
152.2909293626
 23
31.5294468852
  0
SOLID
  8
0
 62
7
  6
CONTINUOUS
 10
153.2737419177
 20
31.5294468852
 11
152.6956168074
 21
31.4971825369
 12
152.2909293626
 22
31.5294468852
 13
152.2909293626
 23
31.5294468852
  0
SOLID
  8
0
 62
7
  6
CONTINUOUS
 10
152.1753043074
 20
31.4649197951
 11
152.2909293626
 21
31.5294468852
 12
152.6956168074
 22
31.4971825369
 13
152.6956168074
 23
31.4971825369
  0
SOLID
  8
0
 62
7
  6
CONTINUOUS
 10
152.6956168074
 20
31.4971825369
 11
152.4643666972
 21
31.4649197951
 12
152.1753043074
 22
31.4649197951
 13
152.1753043074
 23
31.4649197951
  0
SOLID
  8
0
 62
7
  6
CONTINUOUS
 10
152.6956168074
 20
31.4971825369
 11
153.2737419177
 21
31.5294468852
 12
152.9268669177
 22
31.4649197951
 13
152.9268669177
 23
31.4649197951
  0
SOLID
  8
0
 62
7
  6
CONTINUOUS
 10
153.2737419177
 20
31.5294468852
 11
153.3893668074
 21
31.4649197951
 12
152.9268669177
 22
31.4649197951
 13
152.9268669177
 23
31.4649197951
  0
SOLID
  8
0
 62
7
  6
CONTINUOUS
 10
153.0424918074
 20
31.4326554468
 11
152.9268669177
 21
31.4649197951
 12
153.3893668074
 22
31.4649197951
 13
153.3893668074
 23
31.4649197951
  0
SOLID
  8
0
 62
7
  6
CONTINUOUS
 10
153.3893668074
 20
31.4649197951
 11
153.4471794177
 21
31.4003927049
 12
153.0424918074
 22
31.4326554468
 13
153.0424918074
 23
31.4326554468
  0
SOLID
  8
0
 62
7
  6
CONTINUOUS
 10
153.1581166972
 20
31.3681283566
 11
153.0424918074
 21
31.4326554468
 12
153.4471794177
 22
31.4003927049
 13
153.4471794177
 23
31.4003927049
  0
SOLID
  8
0
 62
7
  6
CONTINUOUS
 10
153.1581166972
 20
31.3681283566
 11
153.4471794177
 21
31.4003927049
 12
153.2159293074
 22
31.2390742213
 13
153.2159293074
 23
31.2390742213
  0
SOLID
  8
0
 62
7
  6
CONTINUOUS
 10
153.4471794177
 20
31.4003927049
 11
153.5049916972
 21
31.2390742213
 12
153.2159293074
 22
31.2390742213
 13
153.2159293074
 23
31.2390742213
  0
SOLID
  8
0
 62
7
  6
CONTINUOUS
 10
152.4643666972
 20
31.4649197951
 11
152.2909293626
 21
31.4003927049
 12
152.1753043074
 22
31.4649197951
 13
152.1753043074
 23
31.4649197951
  0
SOLID
  8
0
 62
7
  6
CONTINUOUS
 10
152.2909293626
 20
31.4003927049
 11
152.1753043074
 21
31.3358640533
 12
152.1753043074
 22
31.4649197951
 13
152.1753043074
 23
31.4649197951
  0
SOLID
  8
0
 62
7
  6
CONTINUOUS
 10
152.1753043074
 20
31.3358640533
 11
151.8862417523
 21
30.5938002869
 12
152.1753043074
 22
31.4649197951
 13
152.1753043074
 23
31.4649197951
  0
SOLID
  8
0
 62
7
  6
CONTINUOUS
 10
152.1753043074
 20
31.4649197951
 11
151.8862417523
 21
30.5938002869
 12
152.1753043074
 22
32.1101937295
 13
152.1753043074
 23
32.1101937295
  0
SOLID
  8
0
 62
7
  6
CONTINUOUS
 10
151.8862417523
 20
30.5938002869
 11
151.8862417523
 21
32.1101937295
 12
152.1753043074
 22
32.1101937295
 13
152.1753043074
 23
32.1101937295
  0
SOLID
  8
0
 62
7
  6
CONTINUOUS
 10
152.1753043074
 20
31.3358640533
 11
152.1753043074
 21
30.5938002869
 12
151.8862417523
 22
30.5938002869
 13
151.8862417523
 23
30.5938002869
  0
SOLID
  8
0
 62
7
  6
CONTINUOUS
 10
153.2159293074
 20
30.5938002869
 11
153.2159293074
 21
31.2390742213
 12
153.5049916972
 22
31.2390742213
 13
153.5049916972
 23
31.2390742213
  0
SOLID
  8
0
 62
7
  6
CONTINUOUS
 10
153.5049916972
 20
31.2390742213
 11
153.5049916972
 21
30.5938002869
 12
153.2159293074
 22
30.5938002869
 13
153.2159293074
 23
30.5938002869
  0
SOLID
  8
0
 62
7
  6
CONTINUOUS
 10
154.2565543074
 20
31.5939738288
 11
154.6612419177
 21
31.6262385959
 12
155.0081169177
 22
31.6262385959
 13
155.0081169177
 23
31.6262385959
  0
SOLID
  8
0
 62
7
  6
CONTINUOUS
 10
155.0081169177
 20
31.6262385959
 11
155.3549915869
 21
31.5939738288
 12
154.2565543074
 22
31.5939738288
 13
154.2565543074
 23
31.5939738288
  0
SOLID
  8
0
 62
7
  6
CONTINUOUS
 10
154.1409294177
 20
31.5617111435
 11
154.2565543074
 21
31.5939738288
 12
155.3549915869
 22
31.5939738288
 13
155.3549915869
 23
31.5939738288
  0
SOLID
  8
0
 62
7
  6
CONTINUOUS
 10
155.3549915869
 20
31.5939738288
 11
155.5284290869
 21
31.5294468402
 12
154.1409294177
 22
31.5617111435
 13
154.1409294177
 23
31.5617111435
  0
SOLID
  8
0
 62
7
  6
CONTINUOUS
 10
154.0253041972
 20
31.4971826249
 11
154.1409294177
 21
31.5617111435
 12
155.5284290869
 22
31.5294468402
 13
155.5284290869
 23
31.5294468402
  0
SOLID
  8
0
 62
7
  6
CONTINUOUS
 10
154.0253041972
 20
31.4971826249
 11
155.5284290869
 21
31.5294468402
 12
154.6612419177
 22
31.4971826249
 13
154.6612419177
 23
31.4971826249
  0
SOLID
  8
0
 62
7
  6
CONTINUOUS
 10
154.6612419177
 20
31.4971826249
 11
155.5284290869
 21
31.5294468402
 12
155.0081169177
 22
31.4971826249
 13
155.0081169177
 23
31.4971826249
  0
SOLID
  8
0
 62
7
  6
CONTINUOUS
 10
155.0081169177
 20
31.4971826249
 11
155.5284290869
 21
31.5294468402
 12
155.239367028
 22
31.4649194065
 13
155.239367028
 23
31.4649194065
  0
SOLID
  8
0
 62
7
  6
CONTINUOUS
 10
155.5284290869
 20
31.5294468402
 11
155.6440543074
 21
31.4649194065
 12
155.239367028
 22
31.4649194065
 13
155.239367028
 23
31.4649194065
  0
SOLID
  8
0
 62
7
  6
CONTINUOUS
 10
153.9674919177
 20
31.4326554138
 11
154.0253041972
 21
31.4971826249
 12
154.6612419177
 22
31.4971826249
 13
154.6612419177
 23
31.4971826249
  0
SOLID
  8
0
 62
7
  6
CONTINUOUS
 10
155.3549915869
 20
31.4326554138
 11
155.239367028
 21
31.4649194065
 12
155.6440543074
 22
31.4649194065
 13
155.6440543074
 23
31.4649194065
  0
SOLID
  8
0
 62
7
  6
CONTINUOUS
 10
155.3549915869
 20
31.4326554138
 11
155.6440543074
 21
31.4649194065
 12
155.412804528
 22
31.3681282026
 13
155.412804528
 23
31.3681282026
  0
SOLID
  8
0
 62
7
  6
CONTINUOUS
 10
155.6440543074
 20
31.4649194065
 11
155.7018665869
 21
31.3681282026
 12
155.412804528
 22
31.3681282026
 13
155.412804528
 23
31.3681282026
  0
SOLID
  8
0
 62
7
  6
CONTINUOUS
 10
155.412804528
 20
31.2713369632
 11
155.412804528
 21
31.3681282026
 12
155.7018665869
 22
31.3681282026
 13
155.7018665869
 23
31.3681282026
  0
SOLID
  8
0
 62
7
  6
CONTINUOUS
 10
155.412804528
 20
31.2713369632
 11
155.7018665869
 21
31.3681282026
 12
155.412804528
 22
31.1422827828
 13
155.412804528
 23
31.1422827828
  0
SOLID
  8
0
 62
7
  6
CONTINUOUS
 10
155.412804528
 20
31.1422827828
 11
155.7018665869
 21
31.3681282026
 12
155.412804528
 22
30.9487004259
 13
155.412804528
 23
30.9487004259
  0
SOLID
  8
0
 62
7
  6
CONTINUOUS
 10
155.7018665869
 20
31.3681282026
 11
155.7018665869
 21
30.8519086025
 12
155.412804528
 22
30.9487004259
 13
155.412804528
 23
30.9487004259
  0
SOLID
  8
0
 62
7
  6
CONTINUOUS
 10
157.6096790869
 20
31.5939736268
 11
157.840929528
 21
31.6262383465
 12
158.0721793074
 22
31.6262383465
 13
158.0721793074
 23
31.6262383465
  0
SOLID
  8
0
 62
7
  6
CONTINUOUS
 10
158.0721793074
 20
31.6262383465
 11
158.2456168074
 21
31.5939736268
 12
157.6096790869
 22
31.5939736268
 13
157.6096790869
 23
31.5939736268
  0
SOLID
  8
0
 62
7
  6
CONTINUOUS
 10
157.4362415869
 20
31.5294472848
 11
157.6096790869
 21
31.5939736268
 12
158.2456168074
 22
31.5939736268
 13
158.2456168074
 23
31.5939736268
  0
SOLID
  8
0
 62
7
  6
CONTINUOUS
 10
158.2456168074
 20
31.5939736268
 11
158.4190543074
 21
31.5294472848
 12
157.4362415869
 22
31.5294472848
 13
157.4362415869
 23
31.5294472848
  0
SOLID
  8
0
 62
7
  6
CONTINUOUS
 10
158.4190543074
 20
31.5294472848
 11
157.840929528
 21
31.4971825369
 12
157.4362415869
 22
31.5294472848
 13
157.4362415869
 23
31.5294472848
  0
SOLID
  8
0
 62
7
  6
CONTINUOUS
 10
157.320617028
 20
31.4649199103
 11
157.4362415869
 21
31.5294472848
 12
157.840929528
 22
31.4971825369
 13
157.840929528
 23
31.4971825369
  0
SOLID
  8
0
 62
7
  6
CONTINUOUS
 10
157.840929528
 20
31.4971825369
 11
157.6096790869
 21
31.4649199103
 12
157.320617028
 22
31.4649199103
 13
157.320617028
 23
31.4649199103
  0
SOLID
  8
0
 62
7
  6
CONTINUOUS
 10
157.840929528
 20
31.4971825369
 11
158.4190543074
 21
31.5294472848
 12
158.0721793074
 22
31.4649199103
 13
158.0721793074
 23
31.4649199103
  0
SOLID
  8
0
 62
7
  6
CONTINUOUS
 10
158.4190543074
 20
31.5294472848
 11
158.534679528
 21
31.4649199103
 12
158.0721793074
 22
31.4649199103
 13
158.0721793074
 23
31.4649199103
  0
SOLID
  8
0
 62
7
  6
CONTINUOUS
 10
158.187804528
 20
31.4326554468
 11
158.0721793074
 21
31.4649199103
 12
158.534679528
 22
31.4649199103
 13
158.534679528
 23
31.4649199103
  0
SOLID
  8
0
 62
7
  6
CONTINUOUS
 10
158.187804528
 20
31.4326554468
 11
158.534679528
 21
31.4649199103
 12
158.3034290869
 22
31.3681288486
 13
158.3034290869
 23
31.3681288486
  0
SOLID
  8
0
 62
7
  6
CONTINUOUS
 10
158.534679528
 20
31.4649199103
 11
158.5924918074
 21
31.3681288486
 12
158.3034290869
 22
31.3681288486
 13
158.3034290869
 23
31.3681288486
  0
SOLID
  8
0
 62
7
  6
CONTINUOUS
 10
158.361242028
 20
31.2068093799
 11
158.3034290869
 21
31.3681288486
 12
158.5924918074
 22
31.3681288486
 13
158.5924918074
 23
31.3681288486
  0
SOLID
  8
0
 62
7
  6
CONTINUOUS
 10
158.5924918074
 20
31.3681288486
 11
158.6503040869
 21
31.2068093799
 12
158.361242028
 22
31.2068093799
 13
158.361242028
 23
31.2068093799
  0
SOLID
  8
0
 62
7
  6
CONTINUOUS
 10
157.6096790869
 20
31.4649199103
 11
157.4362415869
 21
31.4003926599
 12
157.320617028
 22
31.4649199103
 13
157.320617028
 23
31.4649199103
  0
SOLID
  8
0
 62
7
  6
CONTINUOUS
 10
157.4362415869
 20
31.4003926599
 11
157.320617028
 21
31.3358640533
 12
157.320617028
 22
31.4649199103
 13
157.320617028
 23
31.4649199103
  0
SOLID
  8
0
 62
7
  6
CONTINUOUS
 10
157.320617028
 20
31.3358640533
 11
157.0315543074
 21
30.5938003547
 12
157.320617028
 22
31.4649199103
 13
157.320617028
 23
31.4649199103
  0
SOLID
  8
0
 62
7
  6
CONTINUOUS
 10
157.320617028
 20
31.4649199103
 11
157.0315543074
 21
30.5938003547
 12
157.320617028
 22
31.6262383465
 13
157.320617028
 23
31.6262383465
  0
SOLID
  8
0
 62
7
  6
CONTINUOUS
 10
157.0315543074
 20
30.5938003547
 11
157.0315543074
 21
31.6262383465
 12
157.320617028
 22
31.6262383465
 13
157.320617028
 23
31.6262383465
  0
SOLID
  8
0
 62
7
  6
CONTINUOUS
 10
157.320617028
 20
31.3358640533
 11
157.320617028
 21
30.5938003547
 12
157.0315543074
 22
30.5938003547
 13
157.0315543074
 23
30.5938003547
  0
SOLID
  8
0
 62
7
  6
CONTINUOUS
 10
158.361242028
 20
30.5938003547
 11
158.361242028
 21
31.2068093799
 12
158.6503040869
 22
31.2068093799
 13
158.6503040869
 23
31.2068093799
  0
SOLID
  8
0
 62
7
  6
CONTINUOUS
 10
158.6503040869
 20
31.2068093799
 11
158.6503040869
 21
30.5938003547
 12
158.361242028
 22
30.5938003547
 13
158.361242028
 23
30.5938003547
  0
SOLID
  8
0
 62
7
  6
CONTINUOUS
 10
159.4596793074
 20
31.5939739474
 11
159.8065543074
 21
31.6262381969
 12
160.1534293074
 22
31.6262381969
 13
160.1534293074
 23
31.6262381969
  0
SOLID
  8
0
 62
7
  6
CONTINUOUS
 10
160.1534293074
 20
31.6262381969
 11
160.5003043074
 21
31.5939739474
 12
159.4596793074
 22
31.5939739474
 13
159.4596793074
 23
31.5939739474
  0
SOLID
  8
0
 62
7
  6
CONTINUOUS
 10
159.228429528
 20
31.5294468402
 11
159.4596793074
 21
31.5939739474
 12
160.5003043074
 22
31.5939739474
 13
160.5003043074
 23
31.5939739474
  0
SOLID
  8
0
 62
7
  6
CONTINUOUS
 10
159.228429528
 20
31.5294468402
 11
160.5003043074
 21
31.5939739304
 12
160.6737418074
 22
31.5617111435
 13
160.6737418074
 23
31.5617111435
  0
SOLID
  8
0
 62
7
  6
CONTINUOUS
 10
159.228429528
 20
31.5294468402
 11
160.6737418074
 21
31.5617111435
 12
159.8065543074
 22
31.4971825592
 13
159.8065543074
 23
31.4971825592
  0
SOLID
  8
0
 62
7
  6
CONTINUOUS
 10
159.8065543074
 20
31.4971825592
 11
160.6737418074
 21
31.5617111435
 12
160.1534293074
 22
31.4971825592
 13
160.1534293074
 23
31.4971825592
  0
SOLID
  8
0
 62
7
  6
CONTINUOUS
 10
160.6737418074
 20
31.5617111435
 11
160.8471793074
 21
31.4971825592
 12
160.1534293074
 22
31.4971825592
 13
160.1534293074
 23
31.4971825592
  0
SOLID
  8
0
 62
7
  6
CONTINUOUS
 10
160.5003043074
 20
31.4649197501
 11
160.1534293074
 21
31.4971825592
 12
160.8471793074
 22
31.4971825592
 13
160.8471793074
 23
31.4971825592
  0
SOLID
  8
0
 62
7
  6
CONTINUOUS
 10
159.1128043074
 20
31.4326555427
 11
159.228429528
 21
31.5294468402
 12
159.8065543074
 22
31.4971825592
 13
159.8065543074
 23
31.4971825592
  0
SOLID
  8
0
 62
7
  6
CONTINUOUS
 10
160.5003043074
 20
31.4649197501
 11
160.8471793074
 21
31.4971825592
 12
160.615929528
 22
31.4326555427
 13
160.615929528
 23
31.4326555427
  0
SOLID
  8
0
 62
7
  6
CONTINUOUS
 10
160.615929528
 20
31.4326555427
 11
160.8471793074
 21
31.4971825592
 12
160.6737418074
 22
31.3681283005
 13
160.6737418074
 23
31.3681283005
  0
SOLID
  8
0
 62
7
  6
CONTINUOUS
 10
160.8471793074
 20
31.4971825592
 11
160.9628038663
 21
31.3681283005
 12
160.6737418074
 22
31.3681283005
 13
160.6737418074
 23
31.3681283005
  0
SOLID
  8
0
 62
7
  6
CONTINUOUS
 10
150.2674918074
 20
31.4649197501
 11
149.7471793074
 21
31.4326554237
 12
150.498741835
 22
31.4971824493
 13
150.498741835
 23
31.4971824493
  0
SOLID
  8
0
 62
7
  6
CONTINUOUS
 10
149.7471793074
 20
31.4326554237
 11
149.8628043005
 21
31.4971824493
 12
150.498741835
 22
31.4971824493
 13
150.498741835
 23
31.4971824493
  0
SOLID
  8
0
 62
7
  6
CONTINUOUS
 10
150.2674918074
 20
31.4649197501
 11
150.1518667936
 21
31.4326554237
 12
149.7471793074
 22
31.4326554237
 13
149.7471793074
 23
31.4326554237
  0
SOLID
  8
0
 62
7
  6
CONTINUOUS
 10
149.6315543091
 20
31.3036012664
 11
149.7471793074
 21
31.4326554237
 12
150.1518667936
 22
31.4326554237
 13
150.1518667936
 23
31.4326554237
  0
SOLID
  8
0
 62
7
  6
CONTINUOUS
 10
153.9674919177
 20
31.4326554237
 11
154.6612419177
 21
31.4971825369
 12
154.4299918074
 22
31.4649197501
 13
154.4299918074
 23
31.4649197501
  0
SOLID
  8
0
 62
7
  6
CONTINUOUS
 10
154.4299918074
 20
31.4649197501
 11
154.3143669177
 21
31.4326554237
 12
153.9674919177
 22
31.4326554237
 13
153.9674919177
 23
31.4326554237
  0
SOLID
  8
0
 62
7
  6
CONTINUOUS
 10
153.9674919177
 20
31.3681283335
 11
153.9674919177
 21
31.4326554237
 12
154.3143669177
 22
31.4326554237
 13
154.3143669177
 23
31.4326554237
  0
SOLID
  8
0
 62
7
  6
CONTINUOUS
 10
154.3143669177
 20
31.4326554237
 11
154.2565543074
 21
31.3681283335
 12
153.9674919177
 22
31.3681283335
 13
153.9674919177
 23
31.3681283335
  0
SOLID
  8
0
 62
7
  6
CONTINUOUS
 10
159.1128043074
 20
31.4326555528
 11
159.8065543074
 21
31.4971825369
 12
159.575304528
 22
31.4649197501
 13
159.575304528
 23
31.4649197501
  0
SOLID
  8
0
 62
7
  6
CONTINUOUS
 10
159.575304528
 20
31.4649197501
 11
159.4596793074
 21
31.4326555528
 12
159.1128043074
 22
31.4326555528
 13
159.1128043074
 23
31.4326555528
  0
SOLID
  8
0
 62
7
  6
CONTINUOUS
 10
159.1128043074
 20
31.3681284626
 11
159.1128043074
 21
31.4326555528
 12
159.4596793074
 22
31.4326555528
 13
159.4596793074
 23
31.4326555528
  0
SOLID
  8
0
 62
7
  6
CONTINUOUS
 10
159.4596793074
 20
31.4326555528
 11
159.401867028
 21
31.3681284626
 12
159.1128043074
 22
31.3681284626
 13
159.1128043074
 23
31.3681284626
  0
SOLID
  8
0
 62
7
  6
CONTINUOUS
 10
159.228429528
 20
31.2390741763
 11
159.1128043074
 21
31.3681284626
 12
159.401867028
 22
31.3681284626
 13
159.401867028
 23
31.3681284626
  0
SOLID
  8
0
 62
7
  6
CONTINUOUS
 10
149.6315543091
 20
31.3036012664
 11
150.1518667936
 21
31.4326554468
 12
149.9784292936
 22
31.3358640533
 13
149.9784292936
 23
31.3358640533
  0
SOLID
  8
0
 62
7
  6
CONTINUOUS
 10
149.9784292936
 20
31.3358640533
 11
149.9206168074
 21
31.2713369632
 12
149.6315543091
 22
31.3036012664
 13
149.6315543091
 23
31.3036012664
  0
SOLID
  8
0
 62
7
  6
CONTINUOUS
 10
149.5737418074
 20
31.1100184796
 11
149.6315543091
 21
31.3036012664
 12
149.9206168074
 22
31.2713369632
 13
149.9206168074
 23
31.2713369632
  0
SOLID
  8
0
 62
7
  6
CONTINUOUS
 10
154.4299918074
 20
31.2390741763
 11
154.7768668074
 21
31.271336924
 12
155.412804528
 22
31.271336924
 13
155.412804528
 23
31.271336924
  0
SOLID
  8
0
 62
7
  6
CONTINUOUS
 10
154.4299918074
 20
31.2390741763
 11
155.412804528
 21
31.271336924
 12
154.1987416972
 22
31.1745462761
 13
154.1987416972
 23
31.1745462761
  0
SOLID
  8
0
 62
7
  6
CONTINUOUS
 10
154.1987416972
 20
31.1745462761
 11
155.412804528
 21
31.271336924
 12
154.7768668074
 22
31.1422827436
 13
154.7768668074
 23
31.1422827436
  0
SOLID
  8
0
 62
7
  6
CONTINUOUS
 10
155.412804528
 20
31.271336924
 11
155.412804528
 21
31.1422827436
 12
154.7768668074
 22
31.1422827436
 13
154.7768668074
 23
31.1422827436
  0
SOLID
  8
0
 62
7
  6
CONTINUOUS
 10
159.228429528
 20
31.2390745501
 11
159.401867028
 21
31.3681283566
 12
159.4596793074
 22
31.3036012664
 13
159.4596793074
 23
31.3036012664
  0
SOLID
  8
0
 62
7
  6
CONTINUOUS
 10
159.4596793074
 20
31.3036012664
 11
159.6331168074
 21
31.2390745501
 12
159.228429528
 22
31.2390745501
 13
159.228429528
 23
31.2390745501
  0
SOLID
  8
0
 62
7
  6
CONTINUOUS
 10
159.4596793074
 20
31.1422827828
 11
159.228429528
 21
31.2390745501
 12
159.6331168074
 22
31.2390745501
 13
159.6331168074
 23
31.2390745501
  0
SOLID
  8
0
 62
7
  6
CONTINUOUS
 10
159.6331168074
 20
31.2390745501
 11
160.615929528
 21
31.0777556927
 12
159.4596793074
 22
31.1422827828
 13
159.4596793074
 23
31.1422827828
  0
SOLID
  8
0
 62
7
  6
CONTINUOUS
 10
160.442492028
 20
30.9809646623
 11
159.4596793074
 21
31.1422827828
 12
160.615929528
 22
31.0777556927
 13
160.615929528
 23
31.0777556927
  0
SOLID
  8
0
 62
7
  6
CONTINUOUS
 10
160.615929528
 20
31.0777556927
 11
160.8471793074
 21
30.9809646623
 12
160.442492028
 22
30.9809646623
 13
160.442492028
 23
30.9809646623
  0
SOLID
  8
0
 62
7
  6
CONTINUOUS
 10
160.615929528
 20
30.9164372091
 11
160.442492028
 21
30.9809646623
 12
160.8471793074
 22
30.9809646623
 13
160.8471793074
 23
30.9809646623
  0
SOLID
  8
0
 62
7
  6
CONTINUOUS
 10
160.615929528
 20
30.9164372091
 11
160.8471793074
 21
30.9809646623
 12
160.6737418074
 22
30.8519089441
 13
160.6737418074
 23
30.8519089441
  0
SOLID
  8
0
 62
7
  6
CONTINUOUS
 10
160.8471793074
 20
30.9809646623
 11
160.9628038663
 21
30.8519089441
 12
160.6737418074
 22
30.8519089441
 13
160.6737418074
 23
30.8519089441
  0
SOLID
  8
0
 62
7
  6
CONTINUOUS
 10
160.615929528
 20
30.7873818593
 11
160.6737418074
 21
30.8519089441
 12
160.9628038663
 22
30.8519089441
 13
160.9628038663
 23
30.8519089441
  0
SOLID
  8
0
 62
7
  6
CONTINUOUS
 10
160.9628038663
 20
30.8519089441
 11
160.9628038663
 21
30.7873818593
 12
160.615929528
 22
30.7873818593
 13
160.615929528
 23
30.7873818593
  0
SOLID
  8
0
 62
7
  6
CONTINUOUS
 10
160.5003043074
 20
30.7551187255
 11
160.615929528
 21
30.7873818593
 12
160.9628038663
 22
30.7873818593
 13
160.9628038663
 23
30.7873818593
  0
SOLID
  8
0
 62
7
  6
CONTINUOUS
 10
160.5003043074
 20
30.7551187255
 11
160.9628038663
 21
30.7873818593
 12
160.269054528
 22
30.7228547745
 13
160.269054528
 23
30.7228547745
  0
SOLID
  8
0
 62
7
  6
CONTINUOUS
 10
160.9628038663
 20
30.7873818593
 11
160.8471793074
 21
30.6905916353
 12
160.269054528
 22
30.7228547745
 13
160.269054528
 23
30.7228547745
  0
SOLID
  8
0
 62
7
  6
CONTINUOUS
 10
160.8471793074
 20
30.6905916353
 11
159.401867028
 21
30.658327332
 12
160.269054528
 22
30.7228547745
 13
160.269054528
 23
30.7228547745
  0
SOLID
  8
0
 62
7
  6
CONTINUOUS
 10
160.269054528
 20
30.7228547745
 11
159.401867028
 21
30.658327332
 12
159.922179528
 22
30.7228547745
 13
159.922179528
 23
30.7228547745
  0
SOLID
  8
0
 62
7
  6
CONTINUOUS
 10
159.401867028
 20
30.658327332
 11
159.228429528
 21
30.7228547745
 12
159.922179528
 22
30.7228547745
 13
159.922179528
 23
30.7228547745
  0
SOLID
  8
0
 62
7
  6
CONTINUOUS
 10
159.401867028
 20
30.658327332
 11
160.8471793074
 21
30.6905916353
 12
159.575304528
 22
30.6260629858
 13
159.575304528
 23
30.6260629858
  0
SOLID
  8
0
 62
7
  6
CONTINUOUS
 10
160.8471793074
 20
30.6905916353
 11
160.615929528
 21
30.6260629858
 12
159.575304528
 22
30.6260629858
 13
159.575304528
 23
30.6260629858
  0
SOLID
  8
0
 62
7
  6
CONTINUOUS
 10
159.922179528
 20
30.5938006049
 11
159.575304528
 21
30.6260629858
 12
160.615929528
 22
30.6260629858
 13
160.615929528
 23
30.6260629858
  0
SOLID
  8
0
 62
7
  6
CONTINUOUS
 10
160.615929528
 20
30.6260629858
 11
160.269054528
 21
30.5938006049
 12
159.922179528
 22
30.5938006049
 13
159.922179528
 23
30.5938006049
  0
SOLID
  8
0
 62
7
  6
CONTINUOUS
 10
149.5737418074
 20
31.1100184796
 11
149.9206168074
 21
31.2713369632
 12
149.8628043005
 22
31.1422827828
 13
149.8628043005
 23
31.1422827828
  0
SOLID
  8
0
 62
7
  6
CONTINUOUS
 10
149.8628043005
 20
31.1422827828
 11
149.8628043005
 21
31.0454914852
 12
149.5737418074
 22
31.1100184796
 13
149.5737418074
 23
31.1100184796
  0
SOLID
  8
0
 62
7
  6
CONTINUOUS
 10
149.6315543091
 20
30.9164372091
 11
149.5737418074
 21
31.1100184796
 12
149.8628043005
 22
31.0454914852
 13
149.8628043005
 23
31.0454914852
  0
SOLID
  8
0
 62
7
  6
CONTINUOUS
 10
149.8628043005
 20
31.0454914852
 11
149.9784292936
 21
30.8841729058
 12
149.6315543091
 22
30.9164372091
 13
149.6315543091
 23
30.9164372091
  0
SOLID
  8
0
 62
7
  6
CONTINUOUS
 10
149.7471793074
 20
30.7873813202
 11
149.6315543091
 21
30.9164372091
 12
149.9784292936
 22
30.8841729058
 13
149.9784292936
 23
30.8841729058
  0
SOLID
  8
0
 62
7
  6
CONTINUOUS
 10
149.9784292936
 20
30.8841729058
 11
150.1518667936
 21
30.7873813202
 12
149.7471793074
 22
30.7873813202
 13
149.7471793074
 23
30.7873813202
  0
SOLID
  8
0
 62
7
  6
CONTINUOUS
 10
149.8628043005
 20
30.7228547004
 11
149.7471793074
 21
30.7873813202
 12
150.1518667936
 22
30.7873813202
 13
150.1518667936
 23
30.7873813202
  0
SOLID
  8
0
 62
7
  6
CONTINUOUS
 10
150.1518667936
 20
30.7873813202
 11
150.498741835
 21
30.7228547004
 12
149.8628043005
 22
30.7228547004
 13
149.8628043005
 23
30.7228547004
  0
SOLID
  8
0
 62
7
  6
CONTINUOUS
 10
150.0362418212
 20
30.658327332
 11
149.8628043005
 21
30.7228547004
 12
150.498741835
 22
30.7228547004
 13
150.498741835
 23
30.7228547004
  0
SOLID
  8
0
 62
7
  6
CONTINUOUS
 10
154.0831168074
 20
31.1100184386
 11
154.1987416972
 21
31.1745462761
 12
154.7768668074
 22
31.1422827828
 13
154.7768668074
 23
31.1422827828
  0
SOLID
  8
0
 62
7
  6
CONTINUOUS
 10
154.7768668074
 20
31.1422827828
 11
154.5456166972
 21
31.1100184386
 12
154.0831168074
 22
31.1100184386
 13
154.0831168074
 23
31.1100184386
  0
SOLID
  8
0
 62
7
  6
CONTINUOUS
 10
153.9674919177
 20
30.9809642992
 11
154.0831168074
 21
31.1100184386
 12
154.5456166972
 22
31.1100184386
 13
154.5456166972
 23
31.1100184386
  0
SOLID
  8
0
 62
7
  6
CONTINUOUS
 10
154.3143669177
 20
31.0132277988
 11
153.9674919177
 21
30.9809642992
 12
154.4299918074
 22
31.0777556927
 13
154.4299918074
 23
31.0777556927
  0
SOLID
  8
0
 62
7
  6
CONTINUOUS
 10
153.9674919177
 20
30.9809642992
 11
154.5456166972
 21
31.1100184796
 12
154.4299918074
 22
31.0777556927
 13
154.4299918074
 23
31.0777556927
  0
SOLID
  8
0
 62
7
  6
CONTINUOUS
 10
154.3143669177
 20
31.0132277988
 11
154.2565543074
 21
30.9164372091
 12
153.9674919177
 22
30.9809642992
 13
153.9674919177
 23
30.9809642992
  0
SOLID
  8
0
 62
7
  6
CONTINUOUS
 10
153.9674919177
 20
30.8841729058
 11
153.9674919177
 21
30.9809642992
 12
154.2565543074
 22
30.9164372091
 13
154.2565543074
 23
30.9164372091
  0
SOLID
  8
0
 62
7
  6
CONTINUOUS
 10
154.2565543074
 20
30.9164372091
 11
154.2565543074
 21
30.8519086025
 12
153.9674919177
 22
30.8841729058
 13
153.9674919177
 23
30.8841729058
  0
SOLID
  8
0
 62
7
  6
CONTINUOUS
 10
154.0253041972
 20
30.7551187255
 11
153.9674919177
 21
30.8841729058
 12
154.2565543074
 22
30.8519086025
 13
154.2565543074
 23
30.8519086025
  0
SOLID
  8
0
 62
7
  6
CONTINUOUS
 10
155.412804528
 20
30.9487004259
 11
155.7018665869
 21
30.8519086025
 12
155.3549915869
 22
30.8841729058
 13
155.3549915869
 23
30.8841729058
  0
SOLID
  8
0
 62
7
  6
CONTINUOUS
 10
155.1815540869
 20
30.7873815123
 11
155.3549915869
 21
30.8841729058
 12
155.7018665869
 22
30.8519086025
 13
155.7018665869
 23
30.8519086025
  0
SOLID
  8
0
 62
7
  6
CONTINUOUS
 10
155.1815540869
 20
30.7873815123
 11
155.7018665869
 21
30.8519086025
 12
155.412804528
 22
30.7551187255
 13
155.412804528
 23
30.7551187255
  0
SOLID
  8
0
 62
7
  6
CONTINUOUS
 10
155.7018665869
 20
30.8519086025
 11
155.759679528
 21
30.6905916353
 12
155.412804528
 22
30.7551187255
 13
155.412804528
 23
30.7551187255
  0
SOLID
  8
0
 62
7
  6
CONTINUOUS
 10
155.4706168074
 20
30.658327332
 11
155.412804528
 21
30.7551187255
 12
155.759679528
 22
30.6905916353
 13
155.759679528
 23
30.6905916353
  0
SOLID
  8
0
 62
7
  6
CONTINUOUS
 10
155.4706168074
 20
30.658327332
 11
155.759679528
 21
30.6905916353
 12
155.5284290869
 22
30.5938002079
 13
155.5284290869
 23
30.5938002079
  0
SOLID
  8
0
 62
7
  6
CONTINUOUS
 10
155.759679528
 20
30.6905916353
 11
155.8174918074
 21
30.5938002079
 12
155.5284290869
 22
30.5938002079
 13
155.5284290869
 23
30.5938002079
  0
SOLID
  8
0
 62
7
  6
CONTINUOUS
 10
151.0768668626
 20
30.8196456577
 11
151.1346793074
 21
30.9164373395
 12
151.4237418626
 22
30.9164373395
 13
151.4237418626
 23
30.9164373395
  0
SOLID
  8
0
 62
7
  6
CONTINUOUS
 10
151.4237418626
 20
30.9164373395
 11
151.3659292523
 21
30.7873815123
 12
151.0768668626
 22
30.8196456577
 13
151.0768668626
 23
30.8196456577
  0
SOLID
  8
0
 62
7
  6
CONTINUOUS
 10
150.9034292799
 20
30.7551187255
 11
151.0768668626
 21
30.8196456577
 12
151.3659292523
 22
30.7873815123
 13
151.3659292523
 23
30.7873815123
  0
SOLID
  8
0
 62
7
  6
CONTINUOUS
 10
150.9034292799
 20
30.7551187255
 11
151.3659292523
 21
30.7873815123
 12
150.498741835
 22
30.7228544222
 13
150.498741835
 23
30.7228544222
  0
SOLID
  8
0
 62
7
  6
CONTINUOUS
 10
151.3659292523
 20
30.7873815123
 11
151.1924917523
 21
30.6905916353
 12
150.498741835
 22
30.7228544222
 13
150.498741835
 23
30.7228544222
  0
SOLID
  8
0
 62
7
  6
CONTINUOUS
 10
150.0362418212
 20
30.658327332
 11
150.498741835
 21
30.7228544222
 12
151.1924917523
 22
30.6905916353
 13
151.1924917523
 23
30.6905916353
  0
SOLID
  8
0
 62
7
  6
CONTINUOUS
 10
150.0362418212
 20
30.658327332
 11
151.1924917523
 21
30.6905916353
 12
150.2096793212
 22
30.6260631011
 13
150.2096793212
 23
30.6260631011
  0
SOLID
  8
0
 62
7
  6
CONTINUOUS
 10
151.1924917523
 20
30.6905916353
 11
150.9612418074
 21
30.6260631011
 12
150.2096793212
 22
30.6260631011
 13
150.2096793212
 23
30.6260631011
  0
SOLID
  8
0
 62
7
  6
CONTINUOUS
 10
150.5565542799
 20
30.5938002419
 11
150.2096793212
 21
30.6260631011
 12
150.9612418074
 22
30.6260631011
 13
150.9612418074
 23
30.6260631011
  0
SOLID
  8
0
 62
7
  6
CONTINUOUS
 10
154.0253041972
 20
30.7551187255
 11
154.2565543074
 21
30.8519086025
 12
154.3143669177
 22
30.7873815123
 13
154.3143669177
 23
30.7873815123
  0
SOLID
  8
0
 62
7
  6
CONTINUOUS
 10
154.3143669177
 20
30.7873815123
 11
154.5456166972
 21
30.7228544222
 12
154.0253041972
 22
30.7551187255
 13
154.0253041972
 23
30.7551187255
  0
SOLID
  8
0
 62
7
  6
CONTINUOUS
 10
154.1987416972
 20
30.658327332
 11
154.0253041972
 21
30.7551187255
 12
154.5456166972
 22
30.7228544222
 13
154.5456166972
 23
30.7228544222
  0
SOLID
  8
0
 62
7
  6
CONTINUOUS
 10
154.8924916972
 20
30.7228544637
 11
155.1815540869
 21
30.7873815123
 12
155.412804528
 22
30.7551187255
 13
155.412804528
 23
30.7551187255
  0
SOLID
  8
0
 62
7
  6
CONTINUOUS
 10
155.412804528
 20
30.7551187255
 11
155.3549915869
 21
30.6905916353
 12
154.8924916972
 22
30.7228544637
 13
154.8924916972
 23
30.7228544637
  0
SOLID
  8
0
 62
7
  6
CONTINUOUS
 10
155.3549915869
 20
30.6905916353
 11
154.1987416972
 21
30.658327332
 12
154.8924916972
 22
30.7228544637
 13
154.8924916972
 23
30.7228544637
  0
SOLID
  8
0
 62
7
  6
CONTINUOUS
 10
154.1987416972
 20
30.658327332
 11
154.5456166972
 21
30.7228544637
 12
154.8924916972
 22
30.7228544637
 13
154.8924916972
 23
30.7228544637
  0
SOLID
  8
0
 62
7
  6
CONTINUOUS
 10
154.1987416972
 20
30.658327332
 11
155.3549915869
 21
30.6905916353
 12
154.3143669177
 22
30.6260630541
 13
154.3143669177
 23
30.6260630541
  0
SOLID
  8
0
 62
7
  6
CONTINUOUS
 10
155.3549915869
 20
30.6905916353
 11
155.1815540869
 21
30.6260630541
 12
154.3143669177
 22
30.6260630541
 13
154.3143669177
 23
30.6260630541
  0
SOLID
  8
0
 62
7
  6
CONTINUOUS
 10
154.5456166972
 20
30.5938002188
 11
154.3143669177
 21
30.6260630541
 12
155.1815540869
 22
30.6260630541
 13
155.1815540869
 23
30.6260630541
  0
SOLID
  8
0
 62
7
  6
CONTINUOUS
 10
155.1815540869
 20
30.6260630541
 11
154.8924916972
 21
30.5938002188
 12
154.5456166972
 22
30.5938002188
 13
154.5456166972
 23
30.5938002188
  0
SOLID
  8
0
 62
7
  6
CONTINUOUS
 10
159.575304528
 20
30.7551187255
 11
159.228429528
 21
30.7228544637
 12
159.4596793074
 22
30.7873815123
 13
159.4596793074
 23
30.7873815123
  0
SOLID
  8
0
 62
7
  6
CONTINUOUS
 10
159.4596793074
 20
30.7873815123
 11
159.228429528
 21
30.7228544637
 12
159.401867028
 22
30.851908644
 13
159.401867028
 23
30.851908644
  0
SOLID
  8
0
 62
7
  6
CONTINUOUS
 10
159.228429528
 20
30.7228544637
 11
159.1128043074
 21
30.851908644
 12
159.401867028
 22
30.851908644
 13
159.401867028
 23
30.851908644
  0
SOLID
  8
0
 62
7
  6
CONTINUOUS
 10
159.575304528
 20
30.7551187255
 11
159.922179528
 21
30.7228544637
 12
159.228429528
 22
30.7228544637
 13
159.228429528
 23
30.7228544637
  0
SOLID
  8
0
 62
7
  6
CONTINUOUS
 10
156.279992028
 20
30.5938002419
 11
156.279992028
 21
31.6262382337
 12
156.5690540869
 22
30.5938002419
 13
156.5690540869
 23
31.6262382337
  0
ENDBLK
  8
0
  6
BYBLOCK
 62
0
  0
BLOCK
  8
0
 62
2
  6
CONTINUOUS
  2
SYMBOL_3_BL0
 70
64
 10
32.1213064866
 20
19.8534310916
  0
TEXT
  8
0
 62
7
  6
CONTINUOUS
 10
18.3860103289
 20
19.2268451992
  7
TEXTSTYLE_3
 40
2.7338706658
  1
Ammeraal Beltech
 41
1.0
 51
15.0
 72
0
  0
TEXT
  8
0
 62
7
  6
CONTINUOUS
 10
29.1868111546
 20
16.9533085264
  7
TEXTSTYLE_4
 40
1.0935482663
  1
Innovation & Service in Belting
 41
1.0
 72
0
  0
LINE
  8
0
 62
7
  6
CONTINUOUS
 10
12.3614696776
 20
19.9934385078
 11
13.1396216709
 21
23.6543558055
  0
LINE
  8
0
 62
7
  6
CONTINUOUS
 10
23.2347899607
 20
27.3177497171
 11
13.6274394139
 21
24.1961322958
  0
LINE
  8
0
 62
7
  6
CONTINUOUS
 10
12.5867530099
 20
19.3000877048
 11
20.093828271
 21
12.5406867788
  0
LINE
  8
0
 62
7
  6
CONTINUOUS
 10
12.8492874206
 20
20.5352149982
 11
23.6575567857
 21
24.0470345971
  0
LINE
  8
0
 62
7
  6
CONTINUOUS
 10
23.6533516486
 20
13.6972460334
 11
15.2078919798
 21
21.3015720751
  0
LINE
  8
0
 62
7
  6
CONTINUOUS
 10
24.1731743684
 20
26.4728246013
 11
23.1966148312
 21
21.8784731989
  0
LINE
  8
0
 62
7
  6
CONTINUOUS
 10
22.4968128835
 20
18.5861638851
 11
21.810364672
 21
15.3566789607
  0
LINE
  8
0
 62
7
  6
CONTINUOUS
 10
24.8542704669
 20
14.087448211
 11
25.8105020025
 21
18.5861638851
  0
LINE
  8
0
 62
7
  6
CONTINUOUS
 10
26.5103039502
 20
21.8784731989
 11
26.9545457526
 21
23.9684665583
  0
LINE
  8
0
 62
7
  6
CONTINUOUS
 10
20.8069293463
 20
12.3891124661
 11
24.3664527239
 21
13.5456717207
  0
LINE
  8
0
 62
7
  6
CONTINUOUS
 10
23.9478910361
 20
27.1661754044
 11
26.7292624203
 21
24.6618173613
  0
ARC
  8
0
 62
7
  6
CONTINUOUS
 10
13.8527227462
 20
23.5027814928
 40
0.7290321776
 50
108.0
 51
168.0
  0
ARC
  8
0
 62
7
  6
CONTINUOUS
 10
23.4600732931
 20
26.624398914
 40
0.7290321776
 50
348.0
 51
108.0
  0
ARC
  8
0
 62
7
  6
CONTINUOUS
 10
26.2414446773
 20
24.120040871
 40
0.7290321776
 50
348.0
 51
48.0
  0
ARC
  8
0
 62
7
  6
CONTINUOUS
 10
20.581646014
 20
13.0824632691
 40
0.7290321776
 50
228.0
 51
288.0
  0
ARC
  8
0
 62
7
  6
CONTINUOUS
 10
13.0745707529
 20
19.8418641951
 40
0.7290321776
 50
108.0
 51
228.0
  0
ARC
  8
0
 62
7
  6
CONTINUOUS
 10
24.1411693916
 20
14.2390225237
 40
0.7290321776
 50
228.0
 51
348.0
  0
ENDBLK
  8
0
  6
BYBLOCK
 62
0
  0
ENDSEC
  0
SECTION
  2
ENTITIES
  0
TEXT
  8
0
 62
5
  6
CONTINUOUS
 10
96.0
 20
25.636
  7
TEXTSTYLE_2
 40
2.8
  1
Scale :
 41
0.6
 51
0.000019
 72
0
  0
TEXT
  8
0
 62
5
  6
CONTINUOUS
 10
116.0
 20
25.636
  7
TEXTSTYLE_2
 40
2.8
  1
Belt type:
 41
0.6
 51
0.000019
 72
0
  0
INSERT
  8
0
 62
2
  6
CONTINUOUS
  2
SYMBOL_3_BL0
 10
32.1213064866
 20
19.8534310916
  0
INSERT
  8
0
 62
2
  6
CONTINUOUS
  2
SYMBOL_8_BL1
 10
173.5956734183
 20
35.5937998301
  0
LINE
  8
0
 62
2
  6
CONTINUOUS
 10
10.0
 20
30.0
 11
200.0
 21
30.0
  0
LINE
  8
0
 62
2
  6
CONTINUOUS
 10
10.0
 20
30.0
 11
10.0
 21
10.0
  0
LINE
  8
0
 62
2
  6
CONTINUOUS
 10
10.0
 20
10.0
 11
200.0
 21
10.0
  0
LINE
  8
0
 62
2
  6
CONTINUOUS
 10
95.0
 20
30.0
 11
95.0
 21
10.0
  0
LINE
  8
0
 62
2
  6
CONTINUOUS
 10
115.0
 20
30.0
 11
115.0
 21
10.0
  0
LINE
  8
0
 62
2
  6
CONTINUOUS
 10
200.0
 20
30.0
 11
200.0
 21
10.0
  0
TEXT
  8
0
 62
5
  6
CONTINUOUS
 10
13.0
 20
23.303
  7
TEXTSTYLE_5
 40
1.52
  1
                                                                     Ammeraal Beltech Modular A/S
 41
1.0
 72
0
  0
TEXT
  8
0
 62
5
  6
CONTINUOUS
 10
13.0
 20
20.595
  7
TEXTSTYLE_5
 40
1.5
  1
                                                                      Hjulmagervej 21,  7100 Vejle,  DK
 41
1.0
 72
0
  0
TEXT
  8
0
 62
5
  6
CONTINUOUS
 10
13.0
 20
17.881
  7
TEXTSTYLE_5
 40
1.495
  1
                                                                      tel: 
 41
1.0
 72
0
  0
TEXT
  8
0
 62
5
  6
CONTINUOUS
 10
57.9869465649
 20
17.881
  7
TEXTSTYLE_5
 40
1.51
  1
+45 75723100     fax: +45 75723348
 41
1.0
 72
0
  0
TEXT
  8
0
 62
5
  6
CONTINUOUS
 10
13.0
 20
15.177
  7
TEXTSTYLE_5
 40
1.5
  1
                                                                      admin@unichains.dk  www.unichains.com
 41
1.0
 72
0
  0
TEXT
  8
0
 62
5
  6
CONTINUOUS
 10
99.75
 20
13.75
  7
TEXTSTYLE_6
 40
5.0
  1
1:1
 41
0.7
 72
1
 11
105.0
 21
13.75
  0
TEXT
  8
0
 62
5
  6
CONTINUOUS
 10
118.0
 20
13.75
  7
TEXTSTYLE_7
 40
7.5
  1
uni SSB C TAB K325
 41
0.5830439815
 72
0
  0
LINE
  8
0
 62
7
  6
CONTINUOUS
 10
210.0
 20
0.0
 11
0.0
 21
0.0
  0
LINE
  8
0
 62
7
  6
CONTINUOUS
 10
10.0
 20
10.0
 11
200.0
 21
10.0
  0
LINE
  8
0
 62
7
  6
CONTINUOUS
 10
10.0
 20
30.0
 11
200.0
 21
30.0
  0
LINE
  8
0
 62
7
  6
CONTINUOUS
 10
0.0
 20
0.0
 11
0.0
 21
297.0
  0
LINE
  8
0
 62
7
  6
CONTINUOUS
 10
10.0
 20
10.0
 11
10.0
 21
287.0
  0
LINE
  8
0
 62
7
  6
CONTINUOUS
 10
200.0
 20
287.0
 11
200.0
 21
10.0
  0
LINE
  8
0
 62
7
  6
CONTINUOUS
 10
210.0
 20
0.0
 11
210.0
 21
297.0
  0
LINE
  8
0
 62
7
  6
CONTINUOUS
 10
10.0
 20
287.0
 11
200.0
 21
287.0
  0
LINE
  8
0
 62
7
  6
CONTINUOUS
 10
0.0
 20
297.0
 11
210.0
 21
297.0
  0
LINE
  8
0
 62
7
  6
CONTINUOUS
 10
39.2066810345
 20
112.0769396552
 11
39.2066810345
 21
150.6769396552
  0
POLYLINE
  8
0
 62
7
  6
CONTINUOUS
 66
1
 70
0
  0
VERTEX
  8
0
 62
7
  6
CONTINUOUS
 10
48.6395049117
 20
149.9058290766
  0
VERTEX
  8
0
 62
7
  6
CONTINUOUS
 10
48.6339552128
 20
149.8918156984
  0
VERTEX
  8
0
 62
7
  6
CONTINUOUS
 10
48.6225741957
 20
149.8657759062
  0
VERTEX
  8
0
 62
7
  6
CONTINUOUS
 10
48.6099535489
 20
149.8399232265
  0
VERTEX
  8
0
 62
7
  6
CONTINUOUS
 10
48.5962365382
 20
149.8144004024
  0
VERTEX
  8
0
 62
7
  6
CONTINUOUS
 10
48.5815505654
 20
149.7893213335
  0
VERTEX
  8
0
 62
7
  6
CONTINUOUS
 10
48.5659776306
 20
149.76473378
  0
VERTEX
  8
0
 62
7
  6
CONTINUOUS
 10
48.5495789592
 20
149.7406684599
  0
VERTEX
  8
0
 62
7
  6
CONTINUOUS
 10
48.5323884433
 20
149.7171380053
  0
VERTEX
  8
0
 62
7
  6
CONTINUOUS
 10
48.5144625212
 20
149.6941984927
  0
VERTEX
  8
0
 62
7
  6
CONTINUOUS
 10
48.4958165049
 20
149.6718649058
  0
VERTEX
  8
0
 62
7
  6
CONTINUOUS
 10
48.4764443974
 20
149.6501454677
  0
VERTEX
  8
0
 62
7
  6
CONTINUOUS
 10
48.4563212625
 20
149.6290472012
  0
VERTEX
  8
0
 62
7
  6
CONTINUOUS
 10
48.4354305753
 20
149.6086052425
  0
VERTEX
  8
0
 62
7
  6
CONTINUOUS
 10
48.413743921
 20
149.5888689818
  0
VERTEX
  8
0
 62
7
  6
CONTINUOUS
 10
48.3911995259
 20
149.5698730122
  0
VERTEX
  8
0
 62
7
  6
CONTINUOUS
 10
48.3678125876
 20
149.5517499567
  0
VERTEX
  8
0
 62
7
  6
CONTINUOUS
 10
48.3434681074
 20
149.5345545846
  0
VERTEX
  8
0
 62
7
  6
CONTINUOUS
 10
48.3182327249
 20
149.5185021009
  0
VERTEX
  8
0
 62
7
  6
CONTINUOUS
 10
48.2918514229
 20
149.5036518684
  0
VERTEX
  8
0
 62
7
  6
CONTINUOUS
 10
48.264324301
 20
149.4902873016
  0
VERTEX
  8
0
 62
7
  6
CONTINUOUS
 10
48.2354896155
 20
149.4786758783
  0
VERTEX
  8
0
 62
7
  6
CONTINUOUS
 10
48.2053159713
 20
149.4692558942
  0
VERTEX
  8
0
 62
7
  6
CONTINUOUS
 10
48.1735355598
 20
149.462506339
  0
VERTEX
  8
0
 62
7
  6
CONTINUOUS
 10
48.1410566518
 20
149.4591617626
  0
VERTEX
  8
0
 62
7
  6
CONTINUOUS
 10
48.1283836468
 20
149.4588687206
  0
SEQEND
  0
LINE
  8
0
 62
7
  6
CONTINUOUS
 10
42.7235320606
 20
150.6943894035
 11
42.7486948021
 21
149.9738227646
  0
POLYLINE
  8
0
 62
7
  6
CONTINUOUS
 66
1
 70
0
  0
VERTEX
  8
0
 62
7
  6
CONTINUOUS
 10
48.7340560432
 20
150.1703972842
  0
VERTEX
  8
0
 62
7
  6
CONTINUOUS
 10
48.6797021678
 20
150.0155006729
  0
VERTEX
  8
0
 62
7
  6
CONTINUOUS
 10
48.6573059911
 20
149.9534324947
  0
VERTEX
  8
0
 62
7
  6
CONTINUOUS
 10
48.6395077295
 20
149.9058388199
  0
SEQEND
  0
LINE
  8
0
 62
7
  6
CONTINUOUS
 10
48.6898300084
 20
150.6943894035
 11
48.6646676758
 21
149.9738344752
  0
POLYLINE
  8
0
 62
7
  6
CONTINUOUS
 66
1
 70
0
  0
VERTEX
  8
0
 62
7
  6
CONTINUOUS
 10
52.1655608834
 20
109.8769396552
  0
VERTEX
  8
0
 62
7
  6
CONTINUOUS
 10
52.1577312943
 20
109.9885720452
  0
VERTEX
  8
0
 62
7
  6
CONTINUOUS
 10
52.1338186139
 20
110.1000166613
  0
VERTEX
  8
0
 62
7
  6
CONTINUOUS
 10
52.0938346987
 20
110.2079705563
  0
VERTEX
  8
0
 62
7
  6
CONTINUOUS
 10
52.0386930028
 20
110.3091833744
  0
VERTEX
  8
0
 62
7
  6
CONTINUOUS
 10
51.9700562554
 20
110.4008712936
  0
SEQEND
  0
POLYLINE
  8
0
 62
7
  6
CONTINUOUS
 66
1
 70
0
  0
VERTEX
  8
0
 62
7
  6
CONTINUOUS
 10
52.2414239589
 20
101.056266478
  0
VERTEX
  8
0
 62
7
  6
CONTINUOUS
 10
52.2434907582
 20
101.0248110031
  0
VERTEX
  8
0
 62
7
  6
CONTINUOUS
 10
52.2455798102
 20
100.995454357
  0
VERTEX
  8
0
 62
7
  6
CONTINUOUS
 10
52.2477005862
 20
100.9680673721
  0
VERTEX
  8
0
 62
7
  6
CONTINUOUS
 10
52.2498680545
 20
100.9424864122
  0
VERTEX
  8
0
 62
7
  6
CONTINUOUS
 10
52.2521057751
 20
100.9185018425
  0
VERTEX
  8
0
 62
7
  6
CONTINUOUS
 10
52.2544507626
 20
100.8958427759
  0
VERTEX
  8
0
 62
7
  6
CONTINUOUS
 10
52.2569630149
 20
100.8741472356
  0
VERTEX
  8
0
 62
7
  6
CONTINUOUS
 10
52.2597415862
 20
100.8529256008
  0
VERTEX
  8
0
 62
7
  6
CONTINUOUS
 10
52.262958923
 20
100.8314734732
  0
VERTEX
  8
0
 62
7
  6
CONTINUOUS
 10
52.2668897066
 20
100.8089502391
  0
VERTEX
  8
0
 62
7
  6
CONTINUOUS
 10
52.2720231515
 20
100.7841368719
  0
VERTEX
  8
0
 62
7
  6
CONTINUOUS
 10
52.279276062
 20
100.7552056835
  0
VERTEX
  8
0
 62
7
  6
CONTINUOUS
 10
52.2902949793
 20
100.7198499952
  0
VERTEX
  8
0
 62
7
  6
CONTINUOUS
 10
52.3073267711
 20
100.6769394839
  0
VERTEX
  8
0
 62
7
  6
CONTINUOUS
 10
52.3323481149
 20
100.6281482952
  0
VERTEX
  8
0
 62
7
  6
CONTINUOUS
 10
52.3666442831
 20
100.5766373768
  0
VERTEX
  8
0
 62
7
  6
CONTINUOUS
 10
52.4122980963
 20
100.5242425866
  0
VERTEX
  8
0
 62
7
  6
CONTINUOUS
 10
52.4714871206
 20
100.4735747763
  0
VERTEX
  8
0
 62
7
  6
CONTINUOUS
 10
52.5438880017
 20
100.4295563539
  0
VERTEX
  8
0
 62
7
  6
CONTINUOUS
 10
52.6266683613
 20
100.3971356847
  0
VERTEX
  8
0
 62
7
  6
CONTINUOUS
 10
52.715665916
 20
100.3796346529
  0
VERTEX
  8
0
 62
7
  6
CONTINUOUS
 10
52.7665067485
 20
100.3769412413
  0
SEQEND
  0
LINE
  8
0
 62
7
  6
CONTINUOUS
 10
52.2373287322
 20
101.125994995
 11
52.2414239589
 21
101.056266478
  0
LINE
  8
0
 62
7
  6
CONTINUOUS
 10
52.233256537
 20
101.2055774873
 11
52.2373287322
 21
101.125994995
  0
LINE
  8
0
 62
7
  6
CONTINUOUS
 10
52.2291913443
 20
101.295806484
 11
52.233256537
 21
101.2055774873
  0
LINE
  8
0
 62
7
  6
CONTINUOUS
 10
52.2251296006
 20
101.3973697323
 11
52.2291913443
 21
101.295806484
  0
LINE
  8
0
 62
7
  6
CONTINUOUS
 10
52.2190523124
 20
101.5722547548
 11
52.2251296006
 21
101.3973697323
  0
LINE
  8
0
 62
7
  6
CONTINUOUS
 10
52.2130197478
 20
101.7757564305
 11
52.2190523124
 21
101.5722547548
  0
LINE
  8
0
 62
7
  6
CONTINUOUS
 10
52.2050933466
 20
102.0952780337
 11
52.2130197478
 21
101.7757564305
  0
LINE
  8
0
 62
7
  6
CONTINUOUS
 10
52.1973768302
 20
102.4751341166
 11
52.2050933466
 21
102.0952780337
  0
LINE
  8
0
 62
7
  6
CONTINUOUS
 10
51.7476113292
 20
145.2492132381
 11
51.747877338
 21
141.6769396552
  0
LINE
  8
0
 62
7
  6
CONTINUOUS
 10
51.8893944287
 20
110.4815050208
 11
51.7927888
 21
110.5532032063
  0
POLYLINE
  8
0
 62
7
  6
CONTINUOUS
 66
1
 70
0
  0
VERTEX
  8
0
 62
7
  6
CONTINUOUS
 10
51.8883678364
 20
110.4823498737
  0
VERTEX
  8
0
 62
7
  6
CONTINUOUS
 10
51.9723842236
 20
110.3981066117
  0
VERTEX
  8
0
 62
7
  6
CONTINUOUS
 10
52.0429706136
 20
110.3023474374
  0
VERTEX
  8
0
 62
7
  6
CONTINUOUS
 10
52.0985608098
 20
110.1972132581
  0
VERTEX
  8
0
 62
7
  6
CONTINUOUS
 10
52.1379328116
 20
110.0850579354
  0
VERTEX
  8
0
 62
7
  6
CONTINUOUS
 10
52.1602430643
 20
109.9683582039
  0
VERTEX
  8
0
 62
7
  6
CONTINUOUS
 10
52.165483274
 20
109.8769396551
  0
SEQEND
  0
POLYLINE
  8
0
 62
7
  6
CONTINUOUS
 66
1
 70
0
  0
VERTEX
  8
0
 62
7
  6
CONTINUOUS
 10
51.7478011856
 20
141.6769396552
  0
VERTEX
  8
0
 62
7
  6
CONTINUOUS
 10
51.7556307747
 20
141.5653072652
  0
VERTEX
  8
0
 62
7
  6
CONTINUOUS
 10
51.7795434551
 20
141.4538626491
  0
VERTEX
  8
0
 62
7
  6
CONTINUOUS
 10
51.8195273703
 20
141.3459087541
  0
VERTEX
  8
0
 62
7
  6
CONTINUOUS
 10
51.8746690661
 20
141.2446959359
  0
VERTEX
  8
0
 62
7
  6
CONTINUOUS
 10
51.9433058135
 20
141.1530080168
  0
VERTEX
  8
0
 62
7
  6
CONTINUOUS
 10
52.0239676403
 20
141.0723742896
  0
VERTEX
  8
0
 62
7
  6
CONTINUOUS
 10
52.1205732689
 20
141.0006761041
  0
SEQEND
  0
POLYLINE
  8
0
 62
7
  6
CONTINUOUS
 66
1
 70
0
  0
VERTEX
  8
0
 62
7
  6
CONTINUOUS
 10
51.6719381101
 20
150.4976128323
  0
VERTEX
  8
0
 62
7
  6
CONTINUOUS
 10
51.6698713107
 20
150.5290683072
  0
VERTEX
  8
0
 62
7
  6
CONTINUOUS
 10
51.6677822588
 20
150.5584249533
  0
VERTEX
  8
0
 62
7
  6
CONTINUOUS
 10
51.6656614828
 20
150.5858119383
  0
VERTEX
  8
0
 62
7
  6
CONTINUOUS
 10
51.6634940145
 20
150.6113928982
  0
VERTEX
  8
0
 62
7
  6
CONTINUOUS
 10
51.6612562939
 20
150.6353774679
  0
VERTEX
  8
0
 62
7
  6
CONTINUOUS
 10
51.6589113063
 20
150.6580365344
  0
VERTEX
  8
0
 62
7
  6
CONTINUOUS
 10
51.6563990541
 20
150.6797320747
  0
VERTEX
  8
0
 62
7
  6
CONTINUOUS
 10
51.6536204828
 20
150.7009537096
  0
VERTEX
  8
0
 62
7
  6
CONTINUOUS
 10
51.6504031459
 20
150.7224058371
  0
VERTEX
  8
0
 62
7
  6
CONTINUOUS
 10
51.6464723623
 20
150.7449290713
  0
VERTEX
  8
0
 62
7
  6
CONTINUOUS
 10
51.6413389174
 20
150.7697424384
  0
VERTEX
  8
0
 62
7
  6
CONTINUOUS
 10
51.634086007
 20
150.7986736268
  0
VERTEX
  8
0
 62
7
  6
CONTINUOUS
 10
51.6230670897
 20
150.8340293152
  0
VERTEX
  8
0
 62
7
  6
CONTINUOUS
 10
51.6060352979
 20
150.8769398265
  0
VERTEX
  8
0
 62
7
  6
CONTINUOUS
 10
51.5810139541
 20
150.9257310151
  0
VERTEX
  8
0
 62
7
  6
CONTINUOUS
 10
51.5467177859
 20
150.9772419336
  0
VERTEX
  8
0
 62
7
  6
CONTINUOUS
 10
51.5010639726
 20
151.0296367237
  0
VERTEX
  8
0
 62
7
  6
CONTINUOUS
 10
51.4418749483
 20
151.0803045341
  0
VERTEX
  8
0
 62
7
  6
CONTINUOUS
 10
51.3694740673
 20
151.1243229565
  0
VERTEX
  8
0
 62
7
  6
CONTINUOUS
 10
51.2866937076
 20
151.1567436256
  0
VERTEX
  8
0
 62
7
  6
CONTINUOUS
 10
51.197696153
 20
151.1742446574
  0
VERTEX
  8
0
 62
7
  6
CONTINUOUS
 10
51.1468553205
 20
151.176938069
  0
SEQEND
  0
LINE
  8
0
 62
7
  6
CONTINUOUS
 10
51.6760333368
 20
150.4278843153
 11
51.6719381101
 21
150.4976128323
  0
LINE
  8
0
 62
7
  6
CONTINUOUS
 10
51.680105532
 20
150.348301823
 11
51.6760333368
 21
150.4278843153
  0
LINE
  8
0
 62
7
  6
CONTINUOUS
 10
51.6841707247
 20
150.2580728264
 11
51.680105532
 21
150.348301823
  0
LINE
  8
0
 62
7
  6
CONTINUOUS
 10
51.6882324684
 20
150.156509578
 11
51.6841707247
 21
150.2580728264
  0
LINE
  8
0
 62
7
  6
CONTINUOUS
 10
51.6943097566
 20
149.9816245556
 11
51.6882324684
 21
150.156509578
  0
LINE
  8
0
 62
7
  6
CONTINUOUS
 10
51.7003423212
 20
149.7781228799
 11
51.6943097566
 21
149.9816245556
  0
LINE
  8
0
 62
7
  6
CONTINUOUS
 10
51.7082687224
 20
149.4586012766
 11
51.7003423212
 21
149.7781228799
  0
LINE
  8
0
 62
7
  6
CONTINUOUS
 10
51.7178680573
 20
148.9736824671
 11
51.7082687224
 21
149.4586012766
  0
LINE
  8
0
 62
7
  6
CONTINUOUS
 10
52.1864772563
 20
103.1704769948
 11
52.1973768302
 21
102.4751341166
  0
LINE
  8
0
 62
7
  6
CONTINUOUS
 10
51.7285885982
 20
148.2517717298
 11
51.7178680573
 21
148.9736824671
  0
LINE
  8
0
 62
7
  6
CONTINUOUS
 10
52.1769447088
 20
104.0320054635
 11
52.1864772563
 21
103.1704769948
  0
LINE
  8
0
 62
7
  6
CONTINUOUS
 10
51.7378166292
 20
147.3611060112
 11
51.7285885982
 21
148.2517717298
  0
LINE
  8
0
 62
7
  6
CONTINUOUS
 10
52.1696381305
 20
105.0741804049
 11
52.1769447088
 21
104.0320054635
  0
LINE
  8
0
 62
7
  6
CONTINUOUS
 10
51.7446480171
 20
146.2876321378
 11
51.7378166292
 21
147.3611060112
  0
LINE
  8
0
 62
7
  6
CONTINUOUS
 10
52.16609704
 20
106.0867728218
 11
52.1696381305
 21
105.0741804049
  0
LINE
  8
0
 62
7
  6
CONTINUOUS
 10
51.7476113292
 20
145.2492132381
 11
51.7446480171
 21
146.2876321378
  0
LINE
  8
0
 62
7
  6
CONTINUOUS
 10
52.16609704
 20
106.0867728218
 11
52.165484731
 21
109.8769396552
  0
POLYLINE
  8
4_SURFACE
 62
7
  6
CONTINUOUS
 66
1
 70
0
  0
VERTEX
  8
4_SURFACE
 62
7
  6
CONTINUOUS
 10
107.946846074
 20
100.3769412213
  0
VERTEX
  8
4_SURFACE
 62
7
  6
CONTINUOUS
 10
107.9961564805
 20
100.3794768456
  0
VERTEX
  8
4_SURFACE
 62
7
  6
CONTINUOUS
 10
108.0842884855
 20
100.3964384469
  0
VERTEX
  8
4_SURFACE
 62
7
  6
CONTINUOUS
 10
108.1652990258
 20
100.4275020303
  0
VERTEX
  8
4_SURFACE
 62
7
  6
CONTINUOUS
 10
108.2361426565
 20
100.4694514244
  0
VERTEX
  8
4_SURFACE
 62
7
  6
CONTINUOUS
 10
108.2947978944
 20
100.5180857921
  0
VERTEX
  8
4_SURFACE
 62
7
  6
CONTINUOUS
 10
108.3410258833
 20
100.5692627346
  0
VERTEX
  8
4_SURFACE
 62
7
  6
CONTINUOUS
 10
108.3760992279
 20
100.6198792441
  0
VERTEX
  8
4_SURFACE
 62
7
  6
CONTINUOUS
 10
108.4014692
 20
100.667025702
  0
VERTEX
  8
4_SURFACE
 62
7
  6
CONTINUOUS
 10
108.419065006
 20
100.7087445885
  0
VERTEX
  8
4_SURFACE
 62
7
  6
CONTINUOUS
 10
108.4308587274
 20
100.7439785027
  0
VERTEX
  8
4_SURFACE
 62
7
  6
CONTINUOUS
 10
108.438777579
 20
100.7732358141
  0
VERTEX
  8
4_SURFACE
 62
7
  6
CONTINUOUS
 10
108.4443725287
 20
100.7982576616
  0
VERTEX
  8
4_SURFACE
 62
7
  6
CONTINUOUS
 10
108.4485716063
 20
100.82053074
  0
VERTEX
  8
4_SURFACE
 62
7
  6
CONTINUOUS
 10
108.4518989045
 20
100.8410669918
  0
VERTEX
  8
4_SURFACE
 62
7
  6
CONTINUOUS
 10
108.4546912315
 20
100.8607826921
  0
VERTEX
  8
4_SURFACE
 62
7
  6
CONTINUOUS
 10
108.4571602934
 20
100.8804551539
  0
VERTEX
  8
4_SURFACE
 62
7
  6
CONTINUOUS
 10
108.4594244421
 20
100.9005943745
  0
VERTEX
  8
4_SURFACE
 62
7
  6
CONTINUOUS
 10
108.4615560885
 20
100.9215774975
  0
VERTEX
  8
4_SURFACE
 62
7
  6
CONTINUOUS
 10
108.4636012091
 20
100.943696094
  0
VERTEX
  8
4_SURFACE
 62
7
  6
CONTINUOUS
 10
108.4655896719
 20
100.967181459
  0
VERTEX
  8
4_SURFACE
 62
7
  6
CONTINUOUS
 10
108.4675417382
 20
100.9922277896
  0
VERTEX
  8
4_SURFACE
 62
7
  6
CONTINUOUS
 10
108.4694712941
 20
101.0190026516
  0
VERTEX
  8
4_SURFACE
 62
7
  6
CONTINUOUS
 10
108.4713887432
 20
101.0476667159
  0
VERTEX
  8
4_SURFACE
 62
7
  6
CONTINUOUS
 10
108.4752212556
 20
101.111364929
  0
SEQEND
  0
LINE
  8
0
 62
7
  6
CONTINUOUS
 10
93.8175956223
 20
100.3769396556
 11
107.9457664466
 21
100.3769396556
  0
LINE
  8
0
 62
7
  6
CONTINUOUS
 10
52.7665067485
 20
100.3769412413
 11
66.8968377453
 21
100.3769415909
  0
LINE
  8
4_SURFACE
 62
7
  6
CONTINUOUS
 10
93.8165271134
 20
100.3769415849
 11
107.946846074
 21
100.3769412213
  0
POLYLINE
  8
0
 62
7
  6
CONTINUOUS
 66
1
 70
0
  0
VERTEX
  8
0
 62
7
  6
CONTINUOUS
 10
51.7976583572
 20
110.5501282083
  0
VERTEX
  8
0
 62
7
  6
CONTINUOUS
 10
51.6963901134
 20
110.6052566453
  0
VERTEX
  8
0
 62
7
  6
CONTINUOUS
 10
51.5883948089
 20
110.6452214228
  0
VERTEX
  8
0
 62
7
  6
CONTINUOUS
 10
51.4769267798
 20
110.6691170545
  0
VERTEX
  8
0
 62
7
  6
CONTINUOUS
 10
51.3921330242
 20
110.6764893861
  0
SEQEND
  0
POLYLINE
  8
0
 62
7
  6
CONTINUOUS
 66
1
 70
0
  0
VERTEX
  8
0
 62
7
  6
CONTINUOUS
 10
42.7738536882
 20
149.9058404861
  0
VERTEX
  8
0
 62
7
  6
CONTINUOUS
 10
42.7555273
 20
149.9548724363
  0
VERTEX
  8
0
 62
7
  6
CONTINUOUS
 10
42.7331236388
 20
150.0170102867
  0
SEQEND
  0
LINE
  8
0
 62
7
  6
CONTINUOUS
 10
42.7331236388
 20
150.0170102867
 11
42.6793056942
 21
150.1703982982
  0
POLYLINE
  8
0
 62
7
  6
CONTINUOUS
 66
1
 70
0
  0
VERTEX
  8
0
 62
7
  6
CONTINUOUS
 10
66.8968376994
 20
100.3769412032
  0
VERTEX
  8
0
 62
7
  6
CONTINUOUS
 10
66.9490793437
 20
100.3797805155
  0
VERTEX
  8
0
 62
7
  6
CONTINUOUS
 10
67.037242418
 20
100.3972965716
  0
VERTEX
  8
0
 62
7
  6
CONTINUOUS
 10
67.1181079188
 20
100.428878852
  0
VERTEX
  8
0
 62
7
  6
CONTINUOUS
 10
67.1886871625
 20
100.4712666852
  0
VERTEX
  8
0
 62
7
  6
CONTINUOUS
 10
67.2470143176
 20
100.5202391289
  0
VERTEX
  8
0
 62
7
  6
CONTINUOUS
 10
67.292885653
 20
100.571641682
  0
VERTEX
  8
0
 62
7
  6
CONTINUOUS
 10
67.3275636631
 20
100.6223064931
  0
VERTEX
  8
0
 62
7
  6
CONTINUOUS
 10
67.3525129101
 20
100.6692444473
  0
VERTEX
  8
0
 62
7
  6
CONTINUOUS
 10
67.3697254357
 20
100.7105262674
  0
VERTEX
  8
0
 62
7
  6
CONTINUOUS
 10
67.3812507584
 20
100.7452981989
  0
VERTEX
  8
0
 62
7
  6
CONTINUOUS
 10
67.3890057758
 20
100.7741734754
  0
VERTEX
  8
0
 62
7
  6
CONTINUOUS
 10
67.3945083349
 20
100.7989247638
  0
VERTEX
  8
0
 62
7
  6
CONTINUOUS
 10
67.3986600146
 20
100.8210400628
  0
VERTEX
  8
0
 62
7
  6
CONTINUOUS
 10
67.4019686636
 20
100.8415299508
  0
VERTEX
  8
0
 62
7
  6
CONTINUOUS
 10
67.4047459415
 20
100.86119463
  0
VERTEX
  8
0
 62
7
  6
CONTINUOUS
 10
67.4072036635
 20
100.880821321
  0
VERTEX
  8
0
 62
7
  6
CONTINUOUS
 10
67.4094585901
 20
100.9009146015
  0
VERTEX
  8
0
 62
7
  6
CONTINUOUS
 10
67.4115823048
 20
100.9218484421
  0
VERTEX
  8
0
 62
7
  6
CONTINUOUS
 10
67.4136203838
 20
100.9439130778
  0
VERTEX
  8
0
 62
7
  6
CONTINUOUS
 10
67.4156025383
 20
100.9673399924
  0
VERTEX
  8
0
 62
7
  6
CONTINUOUS
 10
67.4175490186
 20
100.9923249969
  0
VERTEX
  8
0
 62
7
  6
CONTINUOUS
 10
67.4194737851
 20
101.0190385447
  0
VERTEX
  8
0
 62
7
  6
CONTINUOUS
 10
67.4213869751
 20
101.0476393189
  0
VERTEX
  8
0
 62
7
  6
CONTINUOUS
 10
67.4252119748
 20
101.1112000622
  0
SEQEND
  0
POLYLINE
  8
0
 62
7
  6
CONTINUOUS
 66
1
 70
0
  0
VERTEX
  8
0
 62
7
  6
CONTINUOUS
 10
67.7200562554
 20
141.1530080168
  0
VERTEX
  8
0
 62
7
  6
CONTINUOUS
 10
67.7886930028
 20
141.2446959359
  0
VERTEX
  8
0
 62
7
  6
CONTINUOUS
 10
67.8438346987
 20
141.3459087541
  0
VERTEX
  8
0
 62
7
  6
CONTINUOUS
 10
67.8838186139
 20
141.4538626491
  0
VERTEX
  8
0
 62
7
  6
CONTINUOUS
 10
67.9077312943
 20
141.5653072652
  0
VERTEX
  8
0
 62
7
  6
CONTINUOUS
 10
67.9155608834
 20
141.6769396552
  0
SEQEND
  0
LINE
  8
1_AXIS
 62
2
  6
CENTER
 10
50.2107917358
 20
106.7269396552
 11
113.9359956236
 21
106.7269396552
  0
POLYLINE
  8
0
 62
7
  6
CONTINUOUS
 66
1
 70
0
  0
VERTEX
  8
0
 62
7
  6
CONTINUOUS
 10
51.3921362179
 20
110.6764870251
  0
VERTEX
  8
0
 62
7
  6
CONTINUOUS
 10
51.4590078468
 20
110.671433775
  0
VERTEX
  8
0
 62
7
  6
CONTINUOUS
 10
51.5756981678
 20
110.6487872657
  0
VERTEX
  8
0
 62
7
  6
CONTINUOUS
 10
51.6877826365
 20
110.6090925397
  0
VERTEX
  8
0
 62
7
  6
CONTINUOUS
 10
51.7927888
 20
110.5532032063
  0
SEQEND
  0
LINE
  8
0
 62
7
  6
CONTINUOUS
 10
67.4960426413
 20
105.6221375225
 11
67.497877338
 21
109.8769396552
  0
LINE
  8
0
 62
7
  6
CONTINUOUS
 10
67.918986719
 20
146.3470227078
 11
67.9157731303
 21
145.2666080051
  0
LINE
  8
0
 62
7
  6
CONTINUOUS
 10
67.4898052881
 20
104.4454504982
 11
67.4960426413
 21
105.6221375225
  0
LINE
  8
0
 62
7
  6
CONTINUOUS
 10
67.9263480185
 20
147.4548191399
 11
67.918986719
 21
146.3470227078
  0
LINE
  8
0
 62
7
  6
CONTINUOUS
 10
67.4789226007
 20
103.3288369107
 11
67.4898052881
 21
104.4454504982
  0
LINE
  8
0
 62
7
  6
CONTINUOUS
 10
67.9362115199
 20
148.3633712734
 11
67.9263480185
 21
147.4548191399
  0
LINE
  8
0
 62
7
  6
CONTINUOUS
 10
67.9456379272
 20
148.981905342
 11
67.9362115199
 21
148.3633712734
  0
POLYLINE
  8
0
 62
7
  6
CONTINUOUS
 66
1
 70
0
  0
VERTEX
  8
0
 62
7
  6
CONTINUOUS
 10
67.4657456953
 20
102.4621477839
  0
VERTEX
  8
0
 62
7
  6
CONTINUOUS
 10
67.4677241417
 20
102.5719739684
  0
VERTEX
  8
0
 62
7
  6
CONTINUOUS
 10
67.4789226007
 20
103.3288369107
  0
SEQEND
  0
LINE
  8
0
 62
7
  6
CONTINUOUS
 10
67.9557355198
 20
149.486938881
 11
67.9456379272
 21
148.981905342
  0
LINE
  8
0
 62
7
  6
CONTINUOUS
 10
67.9640239565
 20
149.8142180564
 11
67.9557355198
 21
149.486938881
  0
LINE
  8
0
 62
7
  6
CONTINUOUS
 10
67.9702374654
 20
150.0179971326
 11
67.9640239565
 21
149.8142180564
  0
LINE
  8
0
 62
7
  6
CONTINUOUS
 10
67.9763648756
 20
150.1886457756
 11
67.9702374654
 21
150.0179971326
  0
LINE
  8
0
 62
7
  6
CONTINUOUS
 10
67.9803667083
 20
150.2853047588
 11
67.9763648756
 21
150.1886457756
  0
LINE
  8
0
 62
7
  6
CONTINUOUS
 10
67.9842902131
 20
150.3695024126
 11
67.9803667083
 21
150.2853047588
  0
LINE
  8
0
 62
7
  6
CONTINUOUS
 10
67.9881500942
 20
150.4426792481
 11
67.9842902131
 21
150.3695024126
  0
POLYLINE
  8
0
 62
7
  6
CONTINUOUS
 66
1
 70
0
  0
VERTEX
  8
0
 62
7
  6
CONTINUOUS
 10
67.9154832689
 20
141.6769396552
  0
VERTEX
  8
0
 62
7
  6
CONTINUOUS
 10
67.9099806795
 20
141.5832685235
  0
VERTEX
  8
0
 62
7
  6
CONTINUOUS
 10
67.8873365987
 20
141.4666217257
  0
VERTEX
  8
0
 62
7
  6
CONTINUOUS
 10
67.8476412208
 20
141.3545698909
  0
VERTEX
  8
0
 62
7
  6
CONTINUOUS
 10
67.7917470666
 20
141.2495899274
  0
VERTEX
  8
0
 62
7
  6
CONTINUOUS
 10
67.7208842628
 20
141.154031364
  0
VERTEX
  8
0
 62
7
  6
CONTINUOUS
 10
67.6366260916
 20
141.0700296666
  0
VERTEX
  8
0
 62
7
  6
CONTINUOUS
 10
67.540846212
 20
140.9994525875
  0
VERTEX
  8
0
 62
7
  6
CONTINUOUS
 10
67.4356856508
 20
140.943867132
  0
VERTEX
  8
0
 62
7
  6
CONTINUOUS
 10
67.3234976499
 20
140.904495774
  0
VERTEX
  8
0
 62
7
  6
CONTINUOUS
 10
67.2067544432
 20
140.8821831213
  0
VERTEX
  8
0
 62
7
  6
CONTINUOUS
 10
67.1421950051
 20
140.8773942586
  0
SEQEND
  0
POLYLINE
  8
0
 62
7
  6
CONTINUOUS
 66
1
 70
0
  0
VERTEX
  8
0
 62
7
  6
CONTINUOUS
 10
68.2711702644
 20
110.6764874116
  0
VERTEX
  8
0
 62
7
  6
CONTINUOUS
 10
68.1864352891
 20
110.6691170545
  0
VERTEX
  8
0
 62
7
  6
CONTINUOUS
 10
68.07496726
 20
110.6452214228
  0
VERTEX
  8
0
 62
7
  6
CONTINUOUS
 10
67.9669719555
 20
110.6052566453
  0
VERTEX
  8
0
 62
7
  6
CONTINUOUS
 10
67.8657037117
 20
110.5501282083
  0
VERTEX
  8
0
 62
7
  6
CONTINUOUS
 10
67.7739676403
 20
110.4815050208
  0
SEQEND
  0
LINE
  8
4_SURFACE
 62
7
  6
CONTINUOUS
 10
109.3212290448
 20
110.6764893861
 11
109.3480753645
 21
110.6769396552
  0
LINE
  8
0
 62
7
  6
CONTINUOUS
 10
68.2980753645
 20
110.6769396552
 11
68.2711702644
 21
110.6764874116
  0
LINE
  8
4_SURFACE
 62
7
  6
CONTINUOUS
 10
120.1066810345
 20
110.6769396552
 11
109.3480753645
 21
110.6769396552
  0
LINE
  8
0
 62
7
  6
CONTINUOUS
 10
92.4152867045
 20
110.6769396552
 11
68.2980753645
 21
110.6769396552
  0
LINE
  8
0
 62
7
  6
CONTINUOUS
 10
40.6066810345
 20
110.6769396552
 11
51.3652867045
 21
110.6769396552
  0
LINE
  8
0
 62
7
  6
CONTINUOUS
 10
51.3921330242
 20
110.6764893861
 11
51.3652867045
 21
110.6769396552
  0
LINE
  8
4_SURFACE
 62
7
  6
CONTINUOUS
 10
92.4152867045
 20
110.6769396552
 11
92.4421918045
 21
110.6764874116
  0
POLYLINE
  8
4_SURFACE
 62
7
  6
CONTINUOUS
 66
1
 70
0
  0
VERTEX
  8
4_SURFACE
 62
7
  6
CONTINUOUS
 10
92.4421950051
 20
110.6764850517
  0
VERTEX
  8
4_SURFACE
 62
7
  6
CONTINUOUS
 10
92.5067544432
 20
110.6716961891
  0
VERTEX
  8
4_SURFACE
 62
7
  6
CONTINUOUS
 10
92.6234976499
 20
110.6493835364
  0
VERTEX
  8
4_SURFACE
 62
7
  6
CONTINUOUS
 10
92.7356856508
 20
110.6100121784
  0
VERTEX
  8
4_SURFACE
 62
7
  6
CONTINUOUS
 10
92.840846212
 20
110.5544267229
  0
VERTEX
  8
4_SURFACE
 62
7
  6
CONTINUOUS
 10
92.9366260916
 20
110.4838496437
  0
VERTEX
  8
4_SURFACE
 62
7
  6
CONTINUOUS
 10
93.0208842628
 20
110.3998479463
  0
VERTEX
  8
4_SURFACE
 62
7
  6
CONTINUOUS
 10
93.0917470666
 20
110.3042893829
  0
VERTEX
  8
4_SURFACE
 62
7
  6
CONTINUOUS
 10
93.1476412208
 20
110.1993094194
  0
VERTEX
  8
4_SURFACE
 62
7
  6
CONTINUOUS
 10
93.1873365987
 20
110.0872575847
  0
VERTEX
  8
4_SURFACE
 62
7
  6
CONTINUOUS
 10
93.2099806795
 20
109.9706107869
  0
VERTEX
  8
4_SURFACE
 62
7
  6
CONTINUOUS
 10
93.2154832689
 20
109.8769396551
  0
SEQEND
  0
POLYLINE
  8
4_SURFACE
 62
7
  6
CONTINUOUS
 66
1
 70
0
  0
VERTEX
  8
4_SURFACE
 62
7
  6
CONTINUOUS
 10
92.4421918045
 20
110.6764874116
  0
VERTEX
  8
4_SURFACE
 62
7
  6
CONTINUOUS
 10
92.5269267798
 20
110.6691170545
  0
VERTEX
  8
4_SURFACE
 62
7
  6
CONTINUOUS
 10
92.6383948089
 20
110.6452214228
  0
VERTEX
  8
4_SURFACE
 62
7
  6
CONTINUOUS
 10
92.7463901134
 20
110.6052566453
  0
VERTEX
  8
4_SURFACE
 62
7
  6
CONTINUOUS
 10
92.8476583572
 20
110.5501282083
  0
VERTEX
  8
4_SURFACE
 62
7
  6
CONTINUOUS
 10
92.9393944287
 20
110.4815050208
  0
SEQEND
  0
LINE
  8
0
 62
7
  6
CONTINUOUS
 10
67.9157731303
 20
145.2666080051
 11
67.915484731
 21
141.6769396552
  0
LINE
  8
0
 62
7
  6
CONTINUOUS
 10
67.4576265491
 20
102.0669404294
 11
67.4657456953
 21
102.4621477839
  0
LINE
  8
0
 62
7
  6
CONTINUOUS
 10
67.4493381125
 20
101.739661254
 11
67.4576265491
 21
102.0669404294
  0
LINE
  8
0
 62
7
  6
CONTINUOUS
 10
67.4431246035
 20
101.5358821778
 11
67.4493381125
 21
101.739661254
  0
LINE
  8
0
 62
7
  6
CONTINUOUS
 10
67.4369971933
 20
101.3652335348
 11
67.4431246035
 21
101.5358821778
  0
LINE
  8
0
 62
7
  6
CONTINUOUS
 10
67.4329953607
 20
101.2685745516
 11
67.4369971933
 21
101.3652335348
  0
LINE
  8
0
 62
7
  6
CONTINUOUS
 10
67.4290718558
 20
101.1843768977
 11
67.4329953607
 21
101.2685745516
  0
LINE
  8
0
 62
7
  6
CONTINUOUS
 10
67.4252119748
 20
101.1112000622
 11
67.4290718558
 21
101.1843768977
  0
POLYLINE
  8
0
 62
7
  6
CONTINUOUS
 66
1
 70
0
  0
VERTEX
  8
0
 62
7
  6
CONTINUOUS
 10
67.4978788
 20
109.8769396551
  0
VERTEX
  8
0
 62
7
  6
CONTINUOUS
 10
67.5033813894
 20
109.9706107869
  0
VERTEX
  8
0
 62
7
  6
CONTINUOUS
 10
67.5260254703
 20
110.0872575847
  0
VERTEX
  8
0
 62
7
  6
CONTINUOUS
 10
67.5657208482
 20
110.1993094194
  0
VERTEX
  8
0
 62
7
  6
CONTINUOUS
 10
67.6216150024
 20
110.3042893829
  0
VERTEX
  8
0
 62
7
  6
CONTINUOUS
 10
67.6924778062
 20
110.3998479463
  0
VERTEX
  8
0
 62
7
  6
CONTINUOUS
 10
67.7767359773
 20
110.4838496437
  0
VERTEX
  8
0
 62
7
  6
CONTINUOUS
 10
67.872515857
 20
110.5544267229
  0
VERTEX
  8
0
 62
7
  6
CONTINUOUS
 10
67.9776764181
 20
110.6100121784
  0
VERTEX
  8
0
 62
7
  6
CONTINUOUS
 10
68.0898644191
 20
110.6493835364
  0
VERTEX
  8
0
 62
7
  6
CONTINUOUS
 10
68.2066076258
 20
110.6716961891
  0
VERTEX
  8
0
 62
7
  6
CONTINUOUS
 10
68.2711670638
 20
110.6764850517
  0
SEQEND
  0
POLYLINE
  8
0
 62
7
  6
CONTINUOUS
 66
1
 70
0
  0
VERTEX
  8
0
 62
7
  6
CONTINUOUS
 10
52.0249942325
 20
141.0715294366
  0
VERTEX
  8
0
 62
7
  6
CONTINUOUS
 10
51.9409778453
 20
141.1557726986
  0
VERTEX
  8
0
 62
7
  6
CONTINUOUS
 10
51.8703914554
 20
141.2515318729
  0
VERTEX
  8
0
 62
7
  6
CONTINUOUS
 10
51.8148012592
 20
141.3566660523
  0
VERTEX
  8
0
 62
7
  6
CONTINUOUS
 10
51.7754292574
 20
141.468821375
  0
VERTEX
  8
0
 62
7
  6
CONTINUOUS
 10
51.7531190047
 20
141.5855211065
  0
VERTEX
  8
0
 62
7
  6
CONTINUOUS
 10
51.747878795
 20
141.6769396553
  0
SEQEND
  0
POLYLINE
  8
0
 62
7
  6
CONTINUOUS
 66
1
 70
0
  0
VERTEX
  8
0
 62
7
  6
CONTINUOUS
 10
67.6933058135
 20
110.4008712936
  0
VERTEX
  8
0
 62
7
  6
CONTINUOUS
 10
67.6246690661
 20
110.3091833744
  0
VERTEX
  8
0
 62
7
  6
CONTINUOUS
 10
67.5695273703
 20
110.2079705563
  0
VERTEX
  8
0
 62
7
  6
CONTINUOUS
 10
67.5295434551
 20
110.1000166613
  0
VERTEX
  8
0
 62
7
  6
CONTINUOUS
 10
67.5056307747
 20
109.9885720452
  0
VERTEX
  8
0
 62
7
  6
CONTINUOUS
 10
67.4978011856
 20
109.8769396552
  0
SEQEND
  0
POLYLINE
  8
4_SURFACE
 62
7
  6
CONTINUOUS
 66
1
 70
0
  0
VERTEX
  8
4_SURFACE
 62
7
  6
CONTINUOUS
 10
108.5976583572
 20
141.003751102
  0
VERTEX
  8
4_SURFACE
 62
7
  6
CONTINUOUS
 10
108.4963901134
 20
140.948622665
  0
VERTEX
  8
4_SURFACE
 62
7
  6
CONTINUOUS
 10
108.3883948089
 20
140.9086578876
  0
VERTEX
  8
4_SURFACE
 62
7
  6
CONTINUOUS
 10
108.2769267798
 20
140.8847622558
  0
VERTEX
  8
4_SURFACE
 62
7
  6
CONTINUOUS
 10
108.1921330242
 20
140.8773899243
  0
SEQEND
  0
POLYLINE
  8
0
 62
7
  6
CONTINUOUS
 66
1
 70
0
  0
VERTEX
  8
0
 62
7
  6
CONTINUOUS
 10
52.1157037117
 20
141.003751102
  0
VERTEX
  8
0
 62
7
  6
CONTINUOUS
 10
52.2169719555
 20
140.948622665
  0
VERTEX
  8
0
 62
7
  6
CONTINUOUS
 10
52.32496726
 20
140.9086578876
  0
VERTEX
  8
0
 62
7
  6
CONTINUOUS
 10
52.4364352891
 20
140.8847622558
  0
VERTEX
  8
0
 62
7
  6
CONTINUOUS
 10
52.5212290448
 20
140.8773899243
  0
SEQEND
  0
POLYLINE
  8
4_SURFACE
 62
7
  6
CONTINUOUS
 66
1
 70
0
  0
VERTEX
  8
4_SURFACE
 62
7
  6
CONTINUOUS
 10
93.0200562554
 20
110.4008712936
  0
VERTEX
  8
4_SURFACE
 62
7
  6
CONTINUOUS
 10
93.0886930028
 20
110.3091833744
  0
VERTEX
  8
4_SURFACE
 62
7
  6
CONTINUOUS
 10
93.1438346987
 20
110.2079705563
  0
VERTEX
  8
4_SURFACE
 62
7
  6
CONTINUOUS
 10
93.1838186139
 20
110.1000166613
  0
VERTEX
  8
4_SURFACE
 62
7
  6
CONTINUOUS
 10
93.2077312943
 20
109.9885720452
  0
VERTEX
  8
4_SURFACE
 62
7
  6
CONTINUOUS
 10
93.2155608834
 20
109.8769396552
  0
SEQEND
  0
POLYLINE
  8
4_SURFACE
 62
7
  6
CONTINUOUS
 66
1
 70
0
  0
VERTEX
  8
4_SURFACE
 62
7
  6
CONTINUOUS
 10
108.6893944287
 20
141.0723742896
  0
VERTEX
  8
4_SURFACE
 62
7
  6
CONTINUOUS
 10
108.5927888
 20
141.0006761041
  0
VERTEX
  8
4_SURFACE
 62
7
  6
CONTINUOUS
 10
108.4877826365
 20
140.9447867706
  0
VERTEX
  8
4_SURFACE
 62
7
  6
CONTINUOUS
 10
108.3756981679
 20
140.9050920446
  0
VERTEX
  8
4_SURFACE
 62
7
  6
CONTINUOUS
 10
108.2590078469
 20
140.8824455354
  0
VERTEX
  8
4_SURFACE
 62
7
  6
CONTINUOUS
 10
108.1921362179
 20
140.8773922852
  0
SEQEND
  0
POLYLINE
  8
4_SURFACE
 62
7
  6
CONTINUOUS
 66
1
 70
0
  0
VERTEX
  8
4_SURFACE
 62
7
  6
CONTINUOUS
 10
93.2915023407
 20
101.0550288101
  0
VERTEX
  8
4_SURFACE
 62
7
  6
CONTINUOUS
 10
93.2935719502
 20
101.0236248234
  0
VERTEX
  8
4_SURFACE
 62
7
  6
CONTINUOUS
 10
93.2956641257
 20
100.9943197126
  0
VERTEX
  8
4_SURFACE
 62
7
  6
CONTINUOUS
 10
93.2977884705
 20
100.9669835318
  0
VERTEX
  8
4_SURFACE
 62
7
  6
CONTINUOUS
 10
93.2999602521
 20
100.9414505008
  0
VERTEX
  8
4_SURFACE
 62
7
  6
CONTINUOUS
 10
93.3022034836
 20
100.9175084135
  0
VERTEX
  8
4_SURFACE
 62
7
  6
CONTINUOUS
 10
93.304555967
 20
100.8948824619
  0
VERTEX
  8
4_SURFACE
 62
7
  6
CONTINUOUS
 10
93.3070790212
 20
100.8732054656
  0
VERTEX
  8
4_SURFACE
 62
7
  6
CONTINUOUS
 10
93.3098741712
 20
100.8519792073
  0
VERTEX
  8
4_SURFACE
 62
7
  6
CONTINUOUS
 10
93.3131174619
 20
100.83049256
  0
VERTEX
  8
4_SURFACE
 62
7
  6
CONTINUOUS
 10
93.3170898412
 20
100.8078948031
  0
VERTEX
  8
4_SURFACE
 62
7
  6
CONTINUOUS
 10
93.3222955151
 20
100.7829365749
  0
VERTEX
  8
4_SURFACE
 62
7
  6
CONTINUOUS
 10
93.3296808704
 20
100.753749992
  0
VERTEX
  8
4_SURFACE
 62
7
  6
CONTINUOUS
 10
93.3409326675
 20
100.7180290622
  0
VERTEX
  8
4_SURFACE
 62
7
  6
CONTINUOUS
 10
93.3583075969
 20
100.6747635721
  0
VERTEX
  8
4_SURFACE
 62
7
  6
CONTINUOUS
 10
93.3837292387
 20
100.6257886671
  0
VERTEX
  8
4_SURFACE
 62
7
  6
CONTINUOUS
 10
93.4184498571
 20
100.5742675873
  0
VERTEX
  8
4_SURFACE
 62
7
  6
CONTINUOUS
 10
93.4645298486
 20
100.5220251299
  0
VERTEX
  8
4_SURFACE
 62
7
  6
CONTINUOUS
 10
93.5241002356
 20
100.471679969
  0
VERTEX
  8
4_SURFACE
 62
7
  6
CONTINUOUS
 10
93.5967756436
 20
100.4281303769
  0
VERTEX
  8
4_SURFACE
 62
7
  6
CONTINUOUS
 10
93.6796741419
 20
100.396266381
  0
VERTEX
  8
4_SURFACE
 62
7
  6
CONTINUOUS
 10
93.7686023042
 20
100.3793378398
  0
VERTEX
  8
4_SURFACE
 62
7
  6
CONTINUOUS
 10
93.8165271593
 20
100.3769411973
  0
SEQEND
  0
LINE
  8
4_SURFACE
 62
7
  6
CONTINUOUS
 10
93.2874023086
 20
101.1246528056
 11
93.2915023407
 21
101.0550288101
  0
LINE
  8
4_SURFACE
 62
7
  6
CONTINUOUS
 10
93.2833258435
 20
101.2041343538
 11
93.2874023086
 21
101.1246528056
  0
LINE
  8
4_SURFACE
 62
7
  6
CONTINUOUS
 10
93.279256556
 20
101.2942707289
 11
93.2833258435
 21
101.2041343538
  0
LINE
  8
4_SURFACE
 62
7
  6
CONTINUOUS
 10
93.2751906981
 20
101.3957540763
 11
93.279256556
 21
101.2942707289
  0
LINE
  8
4_SURFACE
 62
7
  6
CONTINUOUS
 10
92.7422304365
 20
150.0446947083
 11
92.7361389594
 21
150.2103243282
  0
LINE
  8
4_SURFACE
 62
7
  6
CONTINUOUS
 10
93.2691070031
 20
101.5705512215
 11
93.2751906981
 21
101.3957540763
  0
LINE
  8
4_SURFACE
 62
7
  6
CONTINUOUS
 10
92.7482880507
 20
149.8509868665
 11
92.7422304365
 21
150.0446947083
  0
LINE
  8
4_SURFACE
 62
7
  6
CONTINUOUS
 10
93.2630677198
 20
101.7740110955
 11
93.2691070031
 21
101.5705512215
  0
LINE
  8
4_SURFACE
 62
7
  6
CONTINUOUS
 10
92.7562617371
 20
149.5456541213
 11
92.7482880507
 21
149.8509868665
  0
LINE
  8
4_SURFACE
 62
7
  6
CONTINUOUS
 10
93.2551322587
 20
102.0935477402
 11
93.2630677198
 21
101.7740110955
  0
LINE
  8
4_SURFACE
 62
7
  6
CONTINUOUS
 10
92.7659554377
 20
149.0803653509
 11
92.7562617371
 21
149.5456541213
  0
LINE
  8
4_SURFACE
 62
7
  6
CONTINUOUS
 10
93.2455215461
 20
102.5786210864
 11
93.2551322587
 21
102.0935477402
  0
LINE
  8
4_SURFACE
 62
7
  6
CONTINUOUS
 10
92.776868293
 20
148.384641685
 11
92.7659554377
 21
149.0803653509
  0
LINE
  8
4_SURFACE
 62
7
  6
CONTINUOUS
 10
93.2347878911
 20
103.300960654
 11
93.2455215461
 21
102.5786210864
  0
LINE
  8
4_SURFACE
 62
7
  6
CONTINUOUS
 10
92.7864124564
 20
147.5224162219
 11
92.776868293
 21
148.384641685
  0
LINE
  8
4_SURFACE
 62
7
  6
CONTINUOUS
 10
93.2255487243
 20
104.1923810164
 11
93.2347878911
 21
103.300960654
  0
LINE
  8
4_SURFACE
 62
7
  6
CONTINUOUS
 10
92.7937265773
 20
146.4791846259
 11
92.7864124564
 21
147.5224162219
  0
LINE
  8
4_SURFACE
 62
7
  6
CONTINUOUS
 10
93.218710781
 20
105.266975286
 11
93.2255487243
 21
104.1923810164
  0
LINE
  8
4_SURFACE
 62
7
  6
CONTINUOUS
 10
92.7972682686
 20
145.4654158201
 11
92.7937265773
 21
146.4791846259
  0
LINE
  8
4_SURFACE
 62
7
  6
CONTINUOUS
 10
93.2157482775
 20
106.306623129
 11
93.218710781
 21
105.266975286
  0
LINE
  8
4_SURFACE
 62
7
  6
CONTINUOUS
 10
92.7972682686
 20
145.4654158201
 11
92.797877338
 21
141.6769396552
  0
LINE
  8
4_SURFACE
 62
7
  6
CONTINUOUS
 10
93.2157482775
 20
106.306623129
 11
93.215484731
 21
109.8769396552
  0
POLYLINE
  8
0
 62
7
  6
CONTINUOUS
 66
1
 70
0
  0
VERTEX
  8
0
 62
7
  6
CONTINUOUS
 10
52.5212258511
 20
140.8773922852
  0
VERTEX
  8
0
 62
7
  6
CONTINUOUS
 10
52.4543542221
 20
140.8824455354
  0
VERTEX
  8
0
 62
7
  6
CONTINUOUS
 10
52.3376639011
 20
140.9050920446
  0
VERTEX
  8
0
 62
7
  6
CONTINUOUS
 10
52.2255794325
 20
140.9447867706
  0
VERTEX
  8
0
 62
7
  6
CONTINUOUS
 10
52.1205732689
 20
141.0006761041
  0
SEQEND
  0
POLYLINE
  8
4_SURFACE
 62
7
  6
CONTINUOUS
 66
1
 70
0
  0
VERTEX
  8
4_SURFACE
 62
7
  6
CONTINUOUS
 10
92.7218597283
 20
150.4988505002
  0
VERTEX
  8
4_SURFACE
 62
7
  6
CONTINUOUS
 10
92.7197901188
 20
150.5302544869
  0
VERTEX
  8
4_SURFACE
 62
7
  6
CONTINUOUS
 10
92.7176979433
 20
150.5595595978
  0
VERTEX
  8
4_SURFACE
 62
7
  6
CONTINUOUS
 10
92.7155735985
 20
150.5868957785
  0
VERTEX
  8
4_SURFACE
 62
7
  6
CONTINUOUS
 10
92.7134018169
 20
150.6124288096
  0
VERTEX
  8
4_SURFACE
 62
7
  6
CONTINUOUS
 10
92.7111585854
 20
150.6363708969
  0
VERTEX
  8
4_SURFACE
 62
7
  6
CONTINUOUS
 10
92.708806102
 20
150.6589968484
  0
VERTEX
  8
4_SURFACE
 62
7
  6
CONTINUOUS
 10
92.7062830478
 20
150.6806738448
  0
VERTEX
  8
4_SURFACE
 62
7
  6
CONTINUOUS
 10
92.7034878978
 20
150.701900103
  0
VERTEX
  8
4_SURFACE
 62
7
  6
CONTINUOUS
 10
92.7002446071
 20
150.7233867503
  0
VERTEX
  8
4_SURFACE
 62
7
  6
CONTINUOUS
 10
92.6962722278
 20
150.7459845072
  0
VERTEX
  8
4_SURFACE
 62
7
  6
CONTINUOUS
 10
92.6910665538
 20
150.7709427355
  0
VERTEX
  8
4_SURFACE
 62
7
  6
CONTINUOUS
 10
92.6836811986
 20
150.8001293184
  0
VERTEX
  8
4_SURFACE
 62
7
  6
CONTINUOUS
 10
92.6724294015
 20
150.8358502481
  0
VERTEX
  8
4_SURFACE
 62
7
  6
CONTINUOUS
 10
92.655054472
 20
150.8791157383
  0
VERTEX
  8
4_SURFACE
 62
7
  6
CONTINUOUS
 10
92.6296328302
 20
150.9280906432
  0
VERTEX
  8
4_SURFACE
 62
7
  6
CONTINUOUS
 10
92.5949122119
 20
150.979611723
  0
VERTEX
  8
4_SURFACE
 62
7
  6
CONTINUOUS
 10
92.5488322203
 20
151.0318541804
  0
VERTEX
  8
4_SURFACE
 62
7
  6
CONTINUOUS
 10
92.4892618333
 20
151.0821993413
  0
VERTEX
  8
4_SURFACE
 62
7
  6
CONTINUOUS
 10
92.4165864254
 20
151.1257489335
  0
VERTEX
  8
4_SURFACE
 62
7
  6
CONTINUOUS
 10
92.3336879271
 20
151.1576129294
  0
VERTEX
  8
4_SURFACE
 62
7
  6
CONTINUOUS
 10
92.2447597647
 20
151.1745414706
  0
VERTEX
  8
4_SURFACE
 62
7
  6
CONTINUOUS
 10
92.1968349097
 20
151.1769381131
  0
SEQEND
  0
LINE
  8
4_SURFACE
 62
7
  6
CONTINUOUS
 10
92.7259597604
 20
150.4292265047
 11
92.7218597283
 21
150.4988505002
  0
LINE
  8
4_SURFACE
 62
7
  6
CONTINUOUS
 10
92.7300362255
 20
150.3497449566
 11
92.7259597604
 21
150.4292265047
  0
POLYLINE
  8
4_SURFACE
 62
7
  6
CONTINUOUS
 66
1
 70
0
  0
VERTEX
  8
4_SURFACE
 62
7
  6
CONTINUOUS
 10
92.7361389594
 20
150.2103243282
  0
VERTEX
  8
4_SURFACE
 62
7
  6
CONTINUOUS
 10
92.7341055129
 20
150.2596085815
  0
VERTEX
  8
4_SURFACE
 62
7
  6
CONTINUOUS
 10
92.7300362255
 20
150.3497449566
  0
SEQEND
  0
POLYLINE
  8
0
 62
7
  6
CONTINUOUS
 66
1
 70
0
  0
VERTEX
  8
0
 62
7
  6
CONTINUOUS
 10
67.1421918045
 20
140.8773918987
  0
VERTEX
  8
0
 62
7
  6
CONTINUOUS
 10
67.2269267798
 20
140.8847622558
  0
VERTEX
  8
0
 62
7
  6
CONTINUOUS
 10
67.3383948089
 20
140.9086578876
  0
VERTEX
  8
0
 62
7
  6
CONTINUOUS
 10
67.4463901134
 20
140.948622665
  0
VERTEX
  8
0
 62
7
  6
CONTINUOUS
 10
67.5476583572
 20
141.003751102
  0
VERTEX
  8
0
 62
7
  6
CONTINUOUS
 10
67.6393944287
 20
141.0723742896
  0
SEQEND
  0
LINE
  8
4_SURFACE
 62
7
  6
CONTINUOUS
 10
108.1921330242
 20
140.8773899243
 11
108.1652867045
 21
140.8769396552
  0
LINE
  8
0
 62
7
  6
CONTINUOUS
 10
67.1152867045
 20
140.8769396552
 11
67.1421918045
 21
140.8773918987
  0
LINE
  8
4_SURFACE
 62
7
  6
CONTINUOUS
 10
108.1652867045
 20
140.8769396552
 11
93.5980753645
 21
140.8769396552
  0
LINE
  8
0
 62
7
  6
CONTINUOUS
 10
52.5480753645
 20
140.8769396552
 11
67.1152867045
 21
140.8769396552
  0
LINE
  8
0
 62
7
  6
CONTINUOUS
 10
52.5212290448
 20
140.8773899243
 11
52.5480753645
 21
140.8769396552
  0
LINE
  8
4_SURFACE
 62
7
  6
CONTINUOUS
 10
93.5980753645
 20
140.8769396552
 11
93.5711702644
 21
140.8773918987
  0
POLYLINE
  8
4_SURFACE
 62
7
  6
CONTINUOUS
 66
1
 70
0
  0
VERTEX
  8
4_SURFACE
 62
7
  6
CONTINUOUS
 10
93.5711670638
 20
140.8773942586
  0
VERTEX
  8
4_SURFACE
 62
7
  6
CONTINUOUS
 10
93.5066076258
 20
140.8821831213
  0
VERTEX
  8
4_SURFACE
 62
7
  6
CONTINUOUS
 10
93.3898644191
 20
140.904495774
  0
VERTEX
  8
4_SURFACE
 62
7
  6
CONTINUOUS
 10
93.2776764181
 20
140.943867132
  0
VERTEX
  8
4_SURFACE
 62
7
  6
CONTINUOUS
 10
93.172515857
 20
140.9994525875
  0
VERTEX
  8
4_SURFACE
 62
7
  6
CONTINUOUS
 10
93.0767359773
 20
141.0700296666
  0
VERTEX
  8
4_SURFACE
 62
7
  6
CONTINUOUS
 10
92.9924778062
 20
141.154031364
  0
VERTEX
  8
4_SURFACE
 62
7
  6
CONTINUOUS
 10
92.9216150024
 20
141.2495899274
  0
VERTEX
  8
4_SURFACE
 62
7
  6
CONTINUOUS
 10
92.8657208482
 20
141.3545698909
  0
VERTEX
  8
4_SURFACE
 62
7
  6
CONTINUOUS
 10
92.8260254703
 20
141.4666217257
  0
VERTEX
  8
4_SURFACE
 62
7
  6
CONTINUOUS
 10
92.8033813894
 20
141.5832685235
  0
VERTEX
  8
4_SURFACE
 62
7
  6
CONTINUOUS
 10
92.7978788
 20
141.6769396552
  0
SEQEND
  0
POLYLINE
  8
4_SURFACE
 62
7
  6
CONTINUOUS
 66
1
 70
0
  0
VERTEX
  8
4_SURFACE
 62
7
  6
CONTINUOUS
 10
93.5711702644
 20
140.8773918987
  0
VERTEX
  8
4_SURFACE
 62
7
  6
CONTINUOUS
 10
93.4864352891
 20
140.8847622558
  0
VERTEX
  8
4_SURFACE
 62
7
  6
CONTINUOUS
 10
93.37496726
 20
140.9086578876
  0
VERTEX
  8
4_SURFACE
 62
7
  6
CONTINUOUS
 10
93.2669719555
 20
140.948622665
  0
VERTEX
  8
4_SURFACE
 62
7
  6
CONTINUOUS
 10
93.1657037117
 20
141.003751102
  0
VERTEX
  8
4_SURFACE
 62
7
  6
CONTINUOUS
 10
93.0739676403
 20
141.0723742896
  0
SEQEND
  0
LINE
  8
1_AXIS
 62
2
  6
CENTER
 10
37.2066810345
 20
144.8269396552
 11
123.5066810345
 21
144.8269396552
  0
POLYLINE
  8
4_SURFACE
 62
7
  6
CONTINUOUS
 66
1
 70
0
  0
VERTEX
  8
4_SURFACE
 62
7
  6
CONTINUOUS
 10
92.9933058135
 20
141.1530080168
  0
VERTEX
  8
4_SURFACE
 62
7
  6
CONTINUOUS
 10
92.9246690661
 20
141.2446959359
  0
VERTEX
  8
4_SURFACE
 62
7
  6
CONTINUOUS
 10
92.8695273703
 20
141.3459087541
  0
VERTEX
  8
4_SURFACE
 62
7
  6
CONTINUOUS
 10
92.8295434551
 20
141.4538626491
  0
VERTEX
  8
4_SURFACE
 62
7
  6
CONTINUOUS
 10
92.8056307747
 20
141.5653072652
  0
VERTEX
  8
4_SURFACE
 62
7
  6
CONTINUOUS
 10
92.7978011856
 20
141.6769396552
  0
SEQEND
  0
POLYLINE
  8
0
 62
7
  6
CONTINUOUS
 66
1
 70
0
  0
VERTEX
  8
0
 62
7
  6
CONTINUOUS
 10
43.2849771619
 20
149.4588690693
  0
VERTEX
  8
0
 62
7
  6
CONTINUOUS
 10
43.2706848647
 20
149.4592397234
  0
VERTEX
  8
0
 62
7
  6
CONTINUOUS
 10
43.2382347731
 20
149.462764264
  0
VERTEX
  8
0
 62
7
  6
CONTINUOUS
 10
43.2065565203
 20
149.4696537318
  0
VERTEX
  8
0
 62
7
  6
CONTINUOUS
 10
43.176446466
 20
149.4791911513
  0
VERTEX
  8
0
 62
7
  6
CONTINUOUS
 10
43.1476759798
 20
149.4908972717
  0
VERTEX
  8
0
 62
7
  6
CONTINUOUS
 10
43.1202048788
 20
149.5043397412
  0
VERTEX
  8
0
 62
7
  6
CONTINUOUS
 10
43.0938783675
 20
149.5192562685
  0
VERTEX
  8
0
 62
7
  6
CONTINUOUS
 10
43.0686957094
 20
149.5353608914
  0
VERTEX
  8
0
 62
7
  6
CONTINUOUS
 10
43.0444025956
 20
149.5526025681
  0
VERTEX
  8
0
 62
7
  6
CONTINUOUS
 10
43.0210652207
 20
149.5707619817
  0
VERTEX
  8
0
 62
7
  6
CONTINUOUS
 10
42.9985779434
 20
149.5897825442
  0
VERTEX
  8
0
 62
7
  6
CONTINUOUS
 10
42.9769393669
 20
149.6095436891
  0
VERTEX
  8
0
 62
7
  6
CONTINUOUS
 10
42.9561020949
 20
149.6299997501
  0
VERTEX
  8
0
 62
7
  6
CONTINUOUS
 10
42.9360271165
 20
149.6511128728
  0
VERTEX
  8
0
 62
7
  6
CONTINUOUS
 10
42.9167004656
 20
149.6728457684
  0
VERTEX
  8
0
 62
7
  6
CONTINUOUS
 10
42.8980979766
 20
149.6951922005
  0
VERTEX
  8
0
 62
7
  6
CONTINUOUS
 10
42.8802132614
 20
149.71814563
  0
VERTEX
  8
0
 62
7
  6
CONTINUOUS
 10
42.8630614493
 20
149.7416924077
  0
VERTEX
  8
0
 62
7
  6
CONTINUOUS
 10
42.846700976
 20
149.7657750766
  0
VERTEX
  8
0
 62
7
  6
CONTINUOUS
 10
42.8311668159
 20
149.7903807783
  0
VERTEX
  8
0
 62
7
  6
CONTINUOUS
 10
42.8165227291
 20
149.8154755034
  0
VERTEX
  8
0
 62
7
  6
CONTINUOUS
 10
42.8028523788
 20
149.8410093256
  0
VERTEX
  8
0
 62
7
  6
CONTINUOUS
 10
42.7902842767
 20
149.8668660542
  0
VERTEX
  8
0
 62
7
  6
CONTINUOUS
 10
42.7789630882
 20
149.8928992654
  0
VERTEX
  8
0
 62
7
  6
CONTINUOUS
 10
42.7738565798
 20
149.9058305893
  0
SEQEND
  0
POLYLINE
  8
4_SURFACE
 62
7
  6
CONTINUOUS
 66
1
 70
0
  0
VERTEX
  8
4_SURFACE
 62
7
  6
CONTINUOUS
 10
117.9395054981
 20
149.9058306126
  0
VERTEX
  8
4_SURFACE
 62
7
  6
CONTINUOUS
 10
117.9343943508
 20
149.8928879297
  0
VERTEX
  8
4_SURFACE
 62
7
  6
CONTINUOUS
 10
117.9230627012
 20
149.8668333119
  0
VERTEX
  8
4_SURFACE
 62
7
  6
CONTINUOUS
 10
117.9104785955
 20
149.8409484864
  0
VERTEX
  8
4_SURFACE
 62
7
  6
CONTINUOUS
 10
117.8967880836
 20
149.8153839319
  0
VERTEX
  8
4_SURFACE
 62
7
  6
CONTINUOUS
 10
117.8821221046
 20
149.7902603993
  0
VERTEX
  8
4_SURFACE
 62
7
  6
CONTINUOUS
 10
117.8665678919
 20
149.7656328817
  0
VERTEX
  8
4_SURFACE
 62
7
  6
CONTINUOUS
 10
117.8501936884
 20
149.7415404949
  0
VERTEX
  8
4_SURFACE
 62
7
  6
CONTINUOUS
 10
117.8330393669
 20
149.7180004295
  0
VERTEX
  8
4_SURFACE
 62
7
  6
CONTINUOUS
 10
117.8151659407
 20
149.6950703605
  0
VERTEX
  8
4_SURFACE
 62
7
  6
CONTINUOUS
 10
117.7965877125
 20
149.6727598913
  0
VERTEX
  8
4_SURFACE
 62
7
  6
CONTINUOUS
 10
117.777296918
 20
149.6510715028
  0
VERTEX
  8
4_SURFACE
 62
7
  6
CONTINUOUS
 10
117.7572673403
 20
149.6300072384
  0
VERTEX
  8
4_SURFACE
 62
7
  6
CONTINUOUS
 10
117.736482161
 20
149.6096000319
  0
VERTEX
  8
4_SURFACE
 62
7
  6
CONTINUOUS
 10
117.7148989198
 20
149.5898835433
  0
VERTEX
  8
4_SURFACE
 62
7
  6
CONTINUOUS
 10
117.6924652664
 20
149.5708988434
  0
VERTEX
  8
4_SURFACE
 62
7
  6
CONTINUOUS
 10
117.6691747978
 20
149.5527628822
  0
VERTEX
  8
4_SURFACE
 62
7
  6
CONTINUOUS
 10
117.6449158358
 20
149.5355294738
  0
VERTEX
  8
4_SURFACE
 62
7
  6
CONTINUOUS
 10
117.6197611859
 20
149.5194238762
  0
VERTEX
  8
4_SURFACE
 62
7
  6
CONTINUOUS
 10
117.5934523597
 20
149.504496111
  0
VERTEX
  8
4_SURFACE
 62
7
  6
CONTINUOUS
 10
117.5659836943
 20
149.491031133
  0
VERTEX
  8
4_SURFACE
 62
7
  6
CONTINUOUS
 10
117.5371897285
 20
149.4792908546
  0
VERTEX
  8
4_SURFACE
 62
7
  6
CONTINUOUS
 10
117.5070224794
 20
149.469712283
  0
VERTEX
  8
4_SURFACE
 62
7
  6
CONTINUOUS
 10
117.4753612271
 20
149.4628028798
  0
VERTEX
  8
4_SURFACE
 62
7
  6
CONTINUOUS
 10
117.4427983629
 20
149.4592459416
  0
VERTEX
  8
4_SURFACE
 62
7
  6
CONTINUOUS
 10
117.428384907
 20
149.4588690692
  0
SEQEND
  0
POLYLINE
  8
0
 62
7
  6
CONTINUOUS
 66
1
 70
0
  0
VERTEX
  8
0
 62
7
  6
CONTINUOUS
 10
68.5165243696
 20
151.1769381071
  0
VERTEX
  8
0
 62
7
  6
CONTINUOUS
 10
68.4642827252
 20
151.1740987948
  0
VERTEX
  8
0
 62
7
  6
CONTINUOUS
 10
68.376119651
 20
151.1565827388
  0
VERTEX
  8
0
 62
7
  6
CONTINUOUS
 10
68.2952541502
 20
151.1250004583
  0
VERTEX
  8
0
 62
7
  6
CONTINUOUS
 10
68.2246749065
 20
151.0826126252
  0
VERTEX
  8
0
 62
7
  6
CONTINUOUS
 10
68.1663477513
 20
151.0336401815
  0
VERTEX
  8
0
 62
7
  6
CONTINUOUS
 10
68.1204764159
 20
150.9822376283
  0
VERTEX
  8
0
 62
7
  6
CONTINUOUS
 10
68.0857984059
 20
150.9315728172
  0
VERTEX
  8
0
 62
7
  6
CONTINUOUS
 10
68.0608491589
 20
150.8846348631
  0
VERTEX
  8
0
 62
7
  6
CONTINUOUS
 10
68.0436366333
 20
150.843353043
  0
VERTEX
  8
0
 62
7
  6
CONTINUOUS
 10
68.0321113106
 20
150.8085811114
  0
VERTEX
  8
0
 62
7
  6
CONTINUOUS
 10
68.0243562932
 20
150.7797058349
  0
VERTEX
  8
0
 62
7
  6
CONTINUOUS
 10
68.018853734
 20
150.7549545465
  0
VERTEX
  8
0
 62
7
  6
CONTINUOUS
 10
68.0147020544
 20
150.7328392475
  0
VERTEX
  8
0
 62
7
  6
CONTINUOUS
 10
68.0113934054
 20
150.7123493595
  0
VERTEX
  8
0
 62
7
  6
CONTINUOUS
 10
68.0086161275
 20
150.6926846804
  0
VERTEX
  8
0
 62
7
  6
CONTINUOUS
 10
68.0061584055
 20
150.6730579894
  0
VERTEX
  8
0
 62
7
  6
CONTINUOUS
 10
68.0039034789
 20
150.6529647089
  0
VERTEX
  8
0
 62
7
  6
CONTINUOUS
 10
68.0017797641
 20
150.6320308683
  0
VERTEX
  8
0
 62
7
  6
CONTINUOUS
 10
67.9997416851
 20
150.6099662325
  0
VERTEX
  8
0
 62
7
  6
CONTINUOUS
 10
67.9977595307
 20
150.5865393179
  0
VERTEX
  8
0
 62
7
  6
CONTINUOUS
 10
67.9958130504
 20
150.5615543134
  0
VERTEX
  8
0
 62
7
  6
CONTINUOUS
 10
67.9938882839
 20
150.5348407657
  0
VERTEX
  8
0
 62
7
  6
CONTINUOUS
 10
67.9919750939
 20
150.5062399915
  0
VERTEX
  8
0
 62
7
  6
CONTINUOUS
 10
67.9881500942
 20
150.4426792481
  0
SEQEND
  0
POLYLINE
  8
4_SURFACE
 62
7
  6
CONTINUOUS
 66
1
 70
0
  0
VERTEX
  8
4_SURFACE
 62
7
  6
CONTINUOUS
 10
109.566515995
 20
151.1769380891
  0
VERTEX
  8
4_SURFACE
 62
7
  6
CONTINUOUS
 10
109.5172055885
 20
151.1744024647
  0
VERTEX
  8
4_SURFACE
 62
7
  6
CONTINUOUS
 10
109.4290735835
 20
151.1574408635
  0
VERTEX
  8
4_SURFACE
 62
7
  6
CONTINUOUS
 10
109.3480630432
 20
151.12637728
  0
VERTEX
  8
4_SURFACE
 62
7
  6
CONTINUOUS
 10
109.2772194125
 20
151.0844278859
  0
VERTEX
  8
4_SURFACE
 62
7
  6
CONTINUOUS
 10
109.2185641746
 20
151.0357935183
  0
VERTEX
  8
4_SURFACE
 62
7
  6
CONTINUOUS
 10
109.1723361857
 20
150.9846165758
  0
VERTEX
  8
4_SURFACE
 62
7
  6
CONTINUOUS
 10
109.1372628411
 20
150.9340000663
  0
VERTEX
  8
4_SURFACE
 62
7
  6
CONTINUOUS
 10
109.111892869
 20
150.8868536084
  0
VERTEX
  8
4_SURFACE
 62
7
  6
CONTINUOUS
 10
109.094297063
 20
150.8451347218
  0
VERTEX
  8
4_SURFACE
 62
7
  6
CONTINUOUS
 10
109.0825033416
 20
150.8099008076
  0
VERTEX
  8
4_SURFACE
 62
7
  6
CONTINUOUS
 10
109.07458449
 20
150.7806434963
  0
VERTEX
  8
4_SURFACE
 62
7
  6
CONTINUOUS
 10
109.0689895403
 20
150.7556216487
  0
VERTEX
  8
4_SURFACE
 62
7
  6
CONTINUOUS
 10
109.0647904626
 20
150.7333485703
  0
VERTEX
  8
4_SURFACE
 62
7
  6
CONTINUOUS
 10
109.0614631645
 20
150.7128123186
  0
VERTEX
  8
4_SURFACE
 62
7
  6
CONTINUOUS
 10
109.0586708375
 20
150.6930966183
  0
VERTEX
  8
4_SURFACE
 62
7
  6
CONTINUOUS
 10
109.0562017756
 20
150.6734241565
  0
VERTEX
  8
4_SURFACE
 62
7
  6
CONTINUOUS
 10
109.0539376269
 20
150.6532849358
  0
VERTEX
  8
4_SURFACE
 62
7
  6
CONTINUOUS
 10
109.0518059805
 20
150.6323018128
  0
VERTEX
  8
4_SURFACE
 62
7
  6
CONTINUOUS
 10
109.0497608599
 20
150.6101832163
  0
VERTEX
  8
4_SURFACE
 62
7
  6
CONTINUOUS
 10
109.0477723971
 20
150.5866978514
  0
VERTEX
  8
4_SURFACE
 62
7
  6
CONTINUOUS
 10
109.0458203308
 20
150.5616515208
  0
VERTEX
  8
4_SURFACE
 62
7
  6
CONTINUOUS
 10
109.0438907749
 20
150.5348766588
  0
VERTEX
  8
4_SURFACE
 62
7
  6
CONTINUOUS
 10
109.0419733257
 20
150.5062125945
  0
VERTEX
  8
4_SURFACE
 62
7
  6
CONTINUOUS
 10
109.0381408134
 20
150.4425143813
  0
SEQEND
  0
LINE
  8
0
 62
7
  6
CONTINUOUS
 10
43.2849771637
 20
149.4588674743
 11
48.1283836575
 21
149.4588674743
  0
LINE
  8
4_SURFACE
 62
7
  6
CONTINUOUS
 10
112.5849784115
 20
149.4588674743
 11
117.4283849052
 21
149.4588674743
  0
LINE
  8
0
 62
7
  6
CONTINUOUS
 10
121.0066810345
 20
151.1769396556
 11
118.4895254242
 21
151.1769396556
  0
LINE
  8
0
 62
7
  6
CONTINUOUS
 10
111.5238366448
 20
151.1769396556
 11
109.5675955749
 21
151.1769396556
  0
LINE
  8
0
 62
7
  6
CONTINUOUS
 10
92.1957664466
 20
151.1769396552
 11
68.5165243238
 21
151.1769376895
  0
LINE
  8
0
 62
7
  6
CONTINUOUS
 10
42.2238366448
 20
151.1769396556
 11
39.7066810345
 21
151.1769396556
  0
LINE
  8
4_SURFACE
 62
7
  6
CONTINUOUS
 10
109.566515995
 20
151.1769380891
 11
111.523836645
 21
151.1769396547
  0
LINE
  8
4_SURFACE
 62
7
  6
CONTINUOUS
 10
118.489525424
 20
151.1769396547
 11
121.0066810345
 21
151.1769396547
  0
LINE
  8
0
 62
7
  6
CONTINUOUS
 10
51.1468553205
 20
151.176938069
 11
49.1895254242
 21
151.1769396556
  0
LINE
  8
4_SURFACE
 62
7
  6
CONTINUOUS
 10
92.1968349555
 20
151.1769376955
 11
92.1957664703
 21
151.1769388374
  0
POLYLINE
  8
4_SURFACE
 62
7
  6
CONTINUOUS
 66
1
 70
0
  0
VERTEX
  8
4_SURFACE
 62
7
  6
CONTINUOUS
 10
112.5849784222
 20
149.4588687205
  0
VERTEX
  8
4_SURFACE
 62
7
  6
CONTINUOUS
 10
112.572184009
 20
149.4591673028
  0
VERTEX
  8
4_SURFACE
 62
7
  6
CONTINUOUS
 10
112.5395900122
 20
149.4625441125
  0
VERTEX
  8
4_SURFACE
 62
7
  6
CONTINUOUS
 10
112.5078330068
 20
149.4693123809
  0
VERTEX
  8
4_SURFACE
 62
7
  6
CONTINUOUS
 10
112.4776002575
 20
149.4787737015
  0
VERTEX
  8
4_SURFACE
 62
7
  6
CONTINUOUS
 10
112.4487408844
 20
149.4904196415
  0
VERTEX
  8
4_SURFACE
 62
7
  6
CONTINUOUS
 10
112.421214974
 20
149.5038073964
  0
VERTEX
  8
4_SURFACE
 62
7
  6
CONTINUOUS
 10
112.394851176
 20
149.5186691365
  0
VERTEX
  8
4_SURFACE
 62
7
  6
CONTINUOUS
 10
112.3696431053
 20
149.5347232419
  0
VERTEX
  8
4_SURFACE
 62
7
  6
CONTINUOUS
 10
112.3453329621
 20
149.5519104436
  0
VERTEX
  8
4_SURFACE
 62
7
  6
CONTINUOUS
 10
112.3219927914
 20
149.5700104115
  0
VERTEX
  8
4_SURFACE
 62
7
  6
CONTINUOUS
 10
112.2995021764
 20
149.5889706429
  0
VERTEX
  8
4_SURFACE
 62
7
  6
CONTINUOUS
 10
112.2778709505
 20
149.6086624222
  0
VERTEX
  8
4_SURFACE
 62
7
  6
CONTINUOUS
 10
112.2570324957
 20
149.629055623
  0
VERTEX
  8
4_SURFACE
 62
7
  6
CONTINUOUS
 10
112.2369549069
 20
149.6501050892
  0
VERTEX
  8
4_SURFACE
 62
7
  6
CONTINUOUS
 10
112.2176188256
 20
149.6717800093
  0
VERTEX
  8
4_SURFACE
 62
7
  6
CONTINUOUS
 10
112.1989972487
 20
149.6940775635
  0
VERTEX
  8
4_SURFACE
 62
7
  6
CONTINUOUS
 10
112.181082798
 20
149.7169935829
  0
VERTEX
  8
4_SURFACE
 62
7
  6
CONTINUOUS
 10
112.1638899675
 20
149.7405171043
  0
VERTEX
  8
4_SURFACE
 62
7
  6
CONTINUOUS
 10
112.1474778
 20
149.7645917857
  0
VERTEX
  8
4_SURFACE
 62
7
  6
CONTINUOUS
 10
112.1318849899
 20
149.7892008021
  0
VERTEX
  8
4_SURFACE
 62
7
  6
CONTINUOUS
 10
112.1171772306
 20
149.8143083744
  0
VERTEX
  8
4_SURFACE
 62
7
  6
CONTINUOUS
 10
112.1034400765
 20
149.8398617341
  0
VERTEX
  8
4_SURFACE
 62
7
  6
CONTINUOUS
 10
112.0908033482
 20
149.8657424869
  0
VERTEX
  8
4_SURFACE
 62
7
  6
CONTINUOUS
 10
112.0794117045
 20
149.8918038929
  0
VERTEX
  8
4_SURFACE
 62
7
  6
CONTINUOUS
 10
112.0738571486
 20
149.9058290993
  0
SEQEND
  0
LINE
  8
4_SURFACE
 62
7
  6
CONTINUOUS
 10
108.5460374651
 20
105.620594279
 11
108.547877338
 21
109.8769396552
  0
LINE
  8
4_SURFACE
 62
7
  6
CONTINUOUS
 10
108.9673246039
 20
145.9332850313
 11
108.965484731
 21
141.6769396552
  0
LINE
  8
4_SURFACE
 62
7
  6
CONTINUOUS
 10
108.5398008419
 20
104.4448480391
 11
108.5460374651
 21
105.620594279
  0
LINE
  8
4_SURFACE
 62
7
  6
CONTINUOUS
 10
108.973561227
 20
147.1090312713
 11
108.9673246039
 21
145.9332850313
  0
LINE
  8
4_SURFACE
 62
7
  6
CONTINUOUS
 10
108.9844375963
 20
148.2248916959
 11
108.973561227
 21
147.1090312713
  0
LINE
  8
4_SURFACE
 62
7
  6
CONTINUOUS
 10
108.5289244727
 20
103.3289876144
 11
108.5398008419
 21
104.4448480391
  0
LINE
  8
4_SURFACE
 62
7
  6
CONTINUOUS
 10
108.9956280392
 20
148.9813414112
 11
108.9844375963
 21
148.2248916959
  0
LINE
  8
4_SURFACE
 62
7
  6
CONTINUOUS
 10
108.5177340298
 20
102.5725378991
 11
108.5289244727
 21
103.3289876144
  0
LINE
  8
4_SURFACE
 62
7
  6
CONTINUOUS
 10
109.0057179661
 20
149.4861704003
 11
108.9956280392
 21
148.9813414112
  0
LINE
  8
4_SURFACE
 62
7
  6
CONTINUOUS
 10
108.5076441029
 20
102.0677089101
 11
108.5177340298
 21
102.5725378991
  0
LINE
  8
4_SURFACE
 62
7
  6
CONTINUOUS
 10
109.0140014411
 20
149.8134188281
 11
109.0057179661
 21
149.4861704003
  0
LINE
  8
4_SURFACE
 62
7
  6
CONTINUOUS
 10
108.4993606279
 20
101.7404604822
 11
108.5076441029
 21
102.0677089101
  0
LINE
  8
4_SURFACE
 62
7
  6
CONTINUOUS
 10
109.0202129834
 20
150.0172572178
 11
109.0140014411
 21
149.8134188281
  0
LINE
  8
4_SURFACE
 62
7
  6
CONTINUOUS
 10
108.4931490856
 20
101.5366220925
 11
108.4993606279
 21
101.7404604822
  0
LINE
  8
4_SURFACE
 62
7
  6
CONTINUOUS
 10
109.0263413735
 20
150.1880446868
 11
109.0202129834
 21
150.0172572178
  0
LINE
  8
4_SURFACE
 62
7
  6
CONTINUOUS
 10
108.4870206955
 20
101.3658346236
 11
108.4931490856
 21
101.5366220925
  0
LINE
  8
4_SURFACE
 62
7
  6
CONTINUOUS
 10
109.0303463537
 20
150.2848411966
 11
109.0263413735
 21
150.1880446868
  0
LINE
  8
4_SURFACE
 62
7
  6
CONTINUOUS
 10
108.4830157153
 20
101.2690381137
 11
108.4870206955
 21
101.3658346236
  0
LINE
  8
4_SURFACE
 62
7
  6
CONTINUOUS
 10
109.034274732
 20
150.3691899841
 11
109.0303463537
 21
150.2848411966
  0
LINE
  8
4_SURFACE
 62
7
  6
CONTINUOUS
 10
108.4790873369
 20
101.1846893263
 11
108.4830157153
 21
101.2690381137
  0
LINE
  8
4_SURFACE
 62
7
  6
CONTINUOUS
 10
109.0381408134
 20
150.4425143813
 11
109.034274732
 21
150.3691899841
  0
LINE
  8
4_SURFACE
 62
7
  6
CONTINUOUS
 10
108.4752212556
 20
101.111364929
 11
108.4790873369
 21
101.1846893263
  0
POLYLINE
  8
4_SURFACE
 62
7
  6
CONTINUOUS
 66
1
 70
0
  0
VERTEX
  8
4_SURFACE
 62
7
  6
CONTINUOUS
 10
108.965483274
 20
141.6769396553
  0
VERTEX
  8
4_SURFACE
 62
7
  6
CONTINUOUS
 10
108.9602430643
 20
141.5855211065
  0
VERTEX
  8
4_SURFACE
 62
7
  6
CONTINUOUS
 10
108.9379328116
 20
141.468821375
  0
VERTEX
  8
4_SURFACE
 62
7
  6
CONTINUOUS
 10
108.8985608098
 20
141.3566660523
  0
VERTEX
  8
4_SURFACE
 62
7
  6
CONTINUOUS
 10
108.8429706136
 20
141.2515318729
  0
VERTEX
  8
4_SURFACE
 62
7
  6
CONTINUOUS
 10
108.7723842236
 20
141.1557726986
  0
VERTEX
  8
4_SURFACE
 62
7
  6
CONTINUOUS
 10
108.6883678364
 20
141.0715294366
  0
SEQEND
  0
POLYLINE
  8
4_SURFACE
 62
7
  6
CONTINUOUS
 66
1
 70
0
  0
VERTEX
  8
4_SURFACE
 62
7
  6
CONTINUOUS
 10
108.547878795
 20
109.8769396551
  0
VERTEX
  8
4_SURFACE
 62
7
  6
CONTINUOUS
 10
108.5531190047
 20
109.9683582039
  0
VERTEX
  8
4_SURFACE
 62
7
  6
CONTINUOUS
 10
108.5754292574
 20
110.0850579354
  0
VERTEX
  8
4_SURFACE
 62
7
  6
CONTINUOUS
 10
108.6148012592
 20
110.1972132581
  0
VERTEX
  8
4_SURFACE
 62
7
  6
CONTINUOUS
 10
108.6703914554
 20
110.3023474374
  0
VERTEX
  8
4_SURFACE
 62
7
  6
CONTINUOUS
 10
108.7409778454
 20
110.3981066117
  0
VERTEX
  8
4_SURFACE
 62
7
  6
CONTINUOUS
 10
108.8249942325
 20
110.4823498737
  0
SEQEND
  0
POLYLINE
  8
4_SURFACE
 62
7
  6
CONTINUOUS
 66
1
 70
0
  0
VERTEX
  8
4_SURFACE
 62
7
  6
CONTINUOUS
 10
108.9655608834
 20
141.6769396552
  0
VERTEX
  8
4_SURFACE
 62
7
  6
CONTINUOUS
 10
108.9577312943
 20
141.5653072652
  0
VERTEX
  8
4_SURFACE
 62
7
  6
CONTINUOUS
 10
108.9338186139
 20
141.4538626491
  0
VERTEX
  8
4_SURFACE
 62
7
  6
CONTINUOUS
 10
108.8938346987
 20
141.3459087541
  0
VERTEX
  8
4_SURFACE
 62
7
  6
CONTINUOUS
 10
108.8386930028
 20
141.2446959359
  0
VERTEX
  8
4_SURFACE
 62
7
  6
CONTINUOUS
 10
108.7700562554
 20
141.1530080168
  0
SEQEND
  0
POLYLINE
  8
4_SURFACE
 62
7
  6
CONTINUOUS
 66
1
 70
0
  0
VERTEX
  8
4_SURFACE
 62
7
  6
CONTINUOUS
 10
108.5478011856
 20
109.8769396552
  0
VERTEX
  8
4_SURFACE
 62
7
  6
CONTINUOUS
 10
108.5556307747
 20
109.9885720452
  0
VERTEX
  8
4_SURFACE
 62
7
  6
CONTINUOUS
 10
108.5795434551
 20
110.1000166613
  0
VERTEX
  8
4_SURFACE
 62
7
  6
CONTINUOUS
 10
108.6195273703
 20
110.2079705563
  0
VERTEX
  8
4_SURFACE
 62
7
  6
CONTINUOUS
 10
108.6746690661
 20
110.3091833744
  0
VERTEX
  8
4_SURFACE
 62
7
  6
CONTINUOUS
 10
108.7433058135
 20
110.4008712936
  0
SEQEND
  0
POLYLINE
  8
4_SURFACE
 62
7
  6
CONTINUOUS
 66
1
 70
0
  0
VERTEX
  8
4_SURFACE
 62
7
  6
CONTINUOUS
 10
118.0340621893
 20
150.1704147518
  0
VERTEX
  8
4_SURFACE
 62
7
  6
CONTINUOUS
 10
117.9773087276
 20
150.00877438
  0
VERTEX
  8
4_SURFACE
 62
7
  6
CONTINUOUS
 10
117.9562715844
 20
149.950619691
  0
VERTEX
  8
4_SURFACE
 62
7
  6
CONTINUOUS
 10
117.9395081892
 20
149.9058399833
  0
SEQEND
  0
POLYLINE
  8
4_SURFACE
 62
7
  6
CONTINUOUS
 66
1
 70
0
  0
VERTEX
  8
4_SURFACE
 62
7
  6
CONTINUOUS
 10
108.8239676403
 20
110.4815050208
  0
VERTEX
  8
4_SURFACE
 62
7
  6
CONTINUOUS
 10
108.920573269
 20
110.5532032063
  0
VERTEX
  8
4_SURFACE
 62
7
  6
CONTINUOUS
 10
109.0255794325
 20
110.6090925397
  0
VERTEX
  8
4_SURFACE
 62
7
  6
CONTINUOUS
 10
109.1376639012
 20
110.6487872657
  0
VERTEX
  8
4_SURFACE
 62
7
  6
CONTINUOUS
 10
109.2543542221
 20
110.671433775
  0
VERTEX
  8
4_SURFACE
 62
7
  6
CONTINUOUS
 10
109.3212258511
 20
110.6764870251
  0
SEQEND
  0
POLYLINE
  8
4_SURFACE
 62
7
  6
CONTINUOUS
 66
1
 70
0
  0
VERTEX
  8
4_SURFACE
 62
7
  6
CONTINUOUS
 10
108.9157037117
 20
110.5501282083
  0
VERTEX
  8
4_SURFACE
 62
7
  6
CONTINUOUS
 10
109.0169719555
 20
110.6052566453
  0
VERTEX
  8
4_SURFACE
 62
7
  6
CONTINUOUS
 10
109.12496726
 20
110.6452214228
  0
VERTEX
  8
4_SURFACE
 62
7
  6
CONTINUOUS
 10
109.2364352891
 20
110.6691170545
  0
VERTEX
  8
4_SURFACE
 62
7
  6
CONTINUOUS
 10
109.3212290448
 20
110.6764893861
  0
SEQEND
  0
LINE
  8
4_SURFACE
 62
7
  6
CONTINUOUS
 10
112.0235320606
 20
150.6943894035
 11
112.0486943939
 21
149.9738344526
  0
LINE
  8
4_SURFACE
 62
7
  6
CONTINUOUS
 10
117.9898300084
 20
150.6943894035
 11
117.9646674909
 21
149.9738291794
  0
POLYLINE
  8
4_SURFACE
 62
7
  6
CONTINUOUS
 66
1
 70
0
  0
VERTEX
  8
4_SURFACE
 62
7
  6
CONTINUOUS
 10
112.0738543194
 20
149.9058388724
  0
VERTEX
  8
4_SURFACE
 62
7
  6
CONTINUOUS
 10
112.0560690293
 20
149.9533972436
  0
VERTEX
  8
4_SURFACE
 62
7
  6
CONTINUOUS
 10
112.0336918778
 20
150.0154106856
  0
SEQEND
  0
LINE
  8
4_SURFACE
 62
7
  6
CONTINUOUS
 10
112.0336918778
 20
150.0154106856
 11
111.9793060558
 21
150.1703971991
  0
LINE
  8
4_SURFACE
 62
7
  6
CONTINUOUS
 10
121.5066810345
 20
112.0769396552
 11
121.5066810345
 21
150.6769396552
  0
LINE
  8
0
 62
7
  6
CONTINUOUS
 10
39.2066810377
 20
204.0573144434
 11
39.208784688
 21
203.9947071941
  0
LINE
  8
0
 62
7
  6
CONTINUOUS
 10
39.2066810345
 20
193.0961206492
 11
39.2066810345
 21
204.5518030101
  0
LINE
  8
0
 62
7
  6
CONTINUOUS
 10
42.6282855587
 20
200.8048468524
 11
42.4935769259
 21
193.087394446
  0
POLYLINE
  8
0
 62
7
  6
CONTINUOUS
 66
1
 70
0
  0
VERTEX
  8
0
 62
7
  6
CONTINUOUS
 10
39.2122456115
 20
203.9950009737
  0
VERTEX
  8
0
 62
7
  6
CONTINUOUS
 10
39.2203072545
 20
203.9591185307
  0
VERTEX
  8
0
 62
7
  6
CONTINUOUS
 10
39.2444467505
 20
203.8943848013
  0
VERTEX
  8
0
 62
7
  6
CONTINUOUS
 10
39.2805451691
 20
203.8324562462
  0
VERTEX
  8
0
 62
7
  6
CONTINUOUS
 10
39.3282408777
 20
203.7747099621
  0
VERTEX
  8
0
 62
7
  6
CONTINUOUS
 10
39.3868901202
 20
203.7224643981
  0
VERTEX
  8
0
 62
7
  6
CONTINUOUS
 10
39.4555525762
 20
203.6769279278
  0
VERTEX
  8
0
 62
7
  6
CONTINUOUS
 10
39.5329592111
 20
203.6391792347
  0
VERTEX
  8
0
 62
7
  6
CONTINUOUS
 10
39.6174274078
 20
203.6101658122
  0
VERTEX
  8
0
 62
7
  6
CONTINUOUS
 10
39.7066810345
 20
203.5906996404
  0
SEQEND
  0
LINE
  8
0
 62
7
  6
CONTINUOUS
 10
49.4197851431
 20
193.087394446
 11
49.2850765102
 21
200.8048468524
  0
LINE
  8
0
 62
7
  6
CONTINUOUS
 10
52.3697851431
 20
193.087394446
 11
52.1655608834
 21
204.787394446
  0
LINE
  8
0
 62
7
  6
CONTINUOUS
 10
58.7566810345
 20
183.0961206492
 11
58.7566810345
 21
192.5961206492
  0
LINE
  8
0
 62
7
  6
CONTINUOUS
 10
62.7566810345
 20
192.5961206492
 11
62.7566810345
 21
183.0961206492
  0
LINE
  8
0
 62
7
  6
CONTINUOUS
 10
67.4978011856
 20
204.787394446
 11
67.2935769259
 21
193.087394446
  0
LINE
  8
0
 62
7
  6
CONTINUOUS
 10
101.4566810345
 20
182.5961206492
 11
98.4566810345
 21
182.5961206492
  0
LINE
  8
0
 62
7
  6
CONTINUOUS
 10
62.2566810345
 20
182.5961206492
 11
59.2566810345
 21
182.5961206492
  0
LINE
  8
0
 62
7
  6
CONTINUOUS
 10
70.1435769259
 20
193.087394446
 11
70.2782855587
 21
200.8048468524
  0
LINE
  8
0
 62
7
  6
CONTINUOUS
 10
39.7066810345
 20
192.5961206492
 11
88.1203081099
 21
192.5961206492
  0
LINE
  8
4_SURFACE
 62
7
  6
CONTINUOUS
 10
88.1203081099
 20
192.5961206492
 11
121.0066810345
 21
192.5961206492
  0
LINE
  8
0
 62
7
  6
CONTINUOUS
 10
56.7726815023
 20
198.9461206492
 11
63.0184805671
 21
198.9461206492
  0
LINE
  8
0
 62
7
  6
CONTINUOUS
 10
97.6948815023
 20
198.9461206492
 11
103.9406805671
 21
198.9461206492
  0
LINE
  8
1_AXIS
 62
2
  6
CENTER
 10
37.2066810345
 20
198.9461206492
 11
123.5066810345
 21
198.9461206492
  0
LINE
  8
4_SURFACE
 62
7
  6
CONTINUOUS
 10
117.5859632038
 20
201.2961206492
 11
111.9212081563
 21
201.2961206492
  0
LINE
  8
0
 62
7
  6
CONTINUOUS
 10
89.9421539127
 20
201.2961206492
 11
70.7712081563
 21
201.2961206492
  0
LINE
  8
0
 62
7
  6
CONTINUOUS
 10
48.7921539127
 20
201.2961206492
 11
43.1273988652
 21
201.2961206492
  0
LINE
  8
4_SURFACE
 62
7
  6
CONTINUOUS
 10
90.5697851431
 20
193.087394446
 11
90.4350765102
 21
200.8048468524
  0
LINE
  8
0
 62
7
  6
CONTINUOUS
 10
41.2482692302
 20
205.2961206492
 11
92.4152867045
 21
205.2961206492
  0
LINE
  8
4_SURFACE
 62
7
  6
CONTINUOUS
 10
92.4152867045
 20
205.2961206492
 11
119.4650928388
 21
205.2961206492
  0
LINE
  8
4_SURFACE
 62
7
  6
CONTINUOUS
 10
93.2155608834
 20
204.787394446
 11
93.4197851431
 21
193.087394446
  0
LINE
  8
0
 62
7
  6
CONTINUOUS
 10
97.9566810345
 20
183.0961206492
 11
97.9566810345
 21
192.5961206492
  0
LINE
  8
0
 62
7
  6
CONTINUOUS
 10
39.5443122577
 20
204.9636468939
 11
41.1659004534
 21
205.287964533
  0
LINE
  8
4_SURFACE
 62
7
  6
CONTINUOUS
 10
121.1690498112
 20
204.9636468939
 11
119.5474616155
 21
205.287964533
  0
LINE
  8
0
 62
7
  6
CONTINUOUS
 10
101.9566810345
 20
192.5961206492
 11
101.9566810345
 21
183.0961206492
  0
LINE
  8
4_SURFACE
 62
7
  6
CONTINUOUS
 10
108.3435769259
 20
193.087394446
 11
108.5478011856
 21
204.787394446
  0
LINE
  8
4_SURFACE
 62
7
  6
CONTINUOUS
 10
111.4282855587
 20
200.8048468524
 11
111.2935769259
 21
193.087394446
  0
LINE
  8
4_SURFACE
 62
7
  6
CONTINUOUS
 10
118.0850765102
 20
200.8048468524
 11
118.2197851431
 21
193.087394446
  0
LINE
  8
4_SURFACE
 62
7
  6
CONTINUOUS
 10
121.5066810345
 20
193.0961206492
 11
121.5066810345
 21
204.5518030101
  0
LINE
  8
4_SURFACE
 62
7
  6
CONTINUOUS
 10
121.5045774635
 20
203.9947084301
 11
121.5066810313
 21
204.057315222
  0
POLYLINE
  8
4_SURFACE
 62
7
  6
CONTINUOUS
 66
1
 70
0
  0
VERTEX
  8
4_SURFACE
 62
7
  6
CONTINUOUS
 10
121.5011166696
 20
203.9950021905
  0
VERTEX
  8
4_SURFACE
 62
7
  6
CONTINUOUS
 10
121.4930548145
 20
203.9591185307
  0
VERTEX
  8
4_SURFACE
 62
7
  6
CONTINUOUS
 10
121.4689153184
 20
203.8943848013
  0
VERTEX
  8
4_SURFACE
 62
7
  6
CONTINUOUS
 10
121.4328168998
 20
203.8324562462
  0
VERTEX
  8
4_SURFACE
 62
7
  6
CONTINUOUS
 10
121.3851211913
 20
203.7747099621
  0
VERTEX
  8
4_SURFACE
 62
7
  6
CONTINUOUS
 10
121.3264719488
 20
203.7224643981
  0
VERTEX
  8
4_SURFACE
 62
7
  6
CONTINUOUS
 10
121.2578094928
 20
203.6769279278
  0
VERTEX
  8
4_SURFACE
 62
7
  6
CONTINUOUS
 10
121.1804028578
 20
203.6391792347
  0
VERTEX
  8
4_SURFACE
 62
7
  6
CONTINUOUS
 10
121.0959346612
 20
203.6101658122
  0
VERTEX
  8
4_SURFACE
 62
7
  6
CONTINUOUS
 10
121.0066810345
 20
203.5906996404
  0
SEQEND
  0
LINE
  8
0
 62
7
  6
CONTINUOUS
 10
163.4472187714
 20
100.3769396552
 11
163.4472735107
 21
100.3769396556
  0
LINE
  8
0
 62
7
  6
CONTINUOUS
 10
157.106650522
 20
105.4901452586
 11
157.0971982354
 21
105.4889396552
  0
LINE
  8
0
 62
7
  6
CONTINUOUS
 10
157.5884720322
 20
105.5440440683
 11
157.106650522
 21
105.4901452586
  0
LINE
  8
0
 62
7
  6
CONTINUOUS
 10
169.1796723246
 20
110.6769396552
 11
169.2971982354
 21
110.6769396552
  0
LINE
  8
0
 62
7
  6
CONTINUOUS
 10
147.0971982354
 20
120.9128024321
 11
147.0971982354
 21
130.6410768783
  0
LINE
  8
0
 62
7
  6
CONTINUOUS
 10
165.7956300589
 20
113.3169396552
 11
157.5971982354
 21
113.3169396552
  0
LINE
  8
0
 62
7
  6
CONTINUOUS
 10
158.4121739988
 20
116.0092485318
 11
165.7956299893
 21
113.3175113802
  0
LINE
  8
0
 62
7
  6
CONTINUOUS
 10
168.5263610908
 20
112.1427526763
 11
168.6494575411
 21
112.0769396552
  0
LINE
  8
0
 62
7
  6
CONTINUOUS
 10
147.5797484871
 20
120.4131070186
 11
157.0971982354
 21
120.0807503498
  0
LINE
  8
0
 62
7
  6
CONTINUOUS
 10
157.0971982354
 20
146.0649396552
 11
157.0971982354
 21
105.4889396552
  0
LINE
  8
DEFAULT_1
 62
2
  6
CENTER
 10
163.4471982354
 20
98.3769396547
 11
163.4471982354
 21
153.1769396556
  0
LINE
  8
0
 62
7
  6
CONTINUOUS
 10
157.0971982354
 20
131.4731289606
 11
147.5797484871
 21
131.1407722918
  0
LINE
  8
4_SURFACE
 62
7
  6
CONTINUOUS
 10
169.7971982354
 20
111.1769396552
 11
169.7971982354
 21
109.8769396552
  0
LINE
  8
0
 62
7
  6
CONTINUOUS
 10
169.7971982354
 20
106.7269396552
 11
169.7971982354
 21
144.8269396552
  0
POLYLINE
  8
0
 62
7
  6
CONTINUOUS
 66
1
 70
0
  0
VERTEX
  8
0
 62
7
  6
CONTINUOUS
 10
168.5263610908
 20
112.1427526767
  0
VERTEX
  8
0
 62
7
  6
CONTINUOUS
 10
168.3954623875
 20
112.0586479997
  0
VERTEX
  8
0
 62
7
  6
CONTINUOUS
 10
168.3335338324
 20
112.0196910845
  0
VERTEX
  8
0
 62
7
  6
CONTINUOUS
 10
168.2757875483
 20
111.9845519832
  0
VERTEX
  8
0
 62
7
  6
CONTINUOUS
 10
168.2235419843
 20
111.9546686732
  0
VERTEX
  8
0
 62
7
  6
CONTINUOUS
 10
168.178005514
 20
111.9315763706
  0
VERTEX
  8
0
 62
7
  6
CONTINUOUS
 10
168.1402568209
 20
111.9168946935
  0
VERTEX
  8
0
 62
7
  6
CONTINUOUS
 10
168.1112433984
 20
111.9122878424
  0
VERTEX
  8
0
 62
7
  6
CONTINUOUS
 10
168.0917772266
 20
111.919335142
  0
SEQEND
  0
LINE
  8
0
 62
7
  6
CONTINUOUS
 10
157.5971982354
 20
146.0098384792
 11
157.0971982354
 21
146.0649396552
  0
ARC
  8
4_SURFACE
 62
7
  6
CONTINUOUS
 10
120.1066810345
 20
112.0769396552
 40
1.4
 50
270.0
 51
360.0
  0
ARC
  8
0
 62
7
  6
CONTINUOUS
 10
40.6066810345
 20
112.0769396552
 40
1.4
 50
180.0
 51
270.0
  0
ARC
  8
4_SURFACE
 62
7
  6
CONTINUOUS
 10
121.0066810345
 20
150.6769396556
 40
0.5
 50
0.0
 51
90.0
  0
ARC
  8
4_SURFACE
 62
7
  6
CONTINUOUS
 10
118.4895253953
 20
150.676938894
 40
0.5
 50
89.9999969543
 51
177.9999127278
  0
ARC
  8
4_SURFACE
 62
7
  6
CONTINUOUS
 10
111.5238366589
 20
150.6769393165
 40
0.5
 50
2.0000388335
 51
90.0000013552
  0
ARC
  8
0
 62
7
  6
CONTINUOUS
 10
39.7066810345
 20
150.6769396556
 40
0.5
 50
90.0
 51
180.0000000494
  0
ARC
  8
0
 62
7
  6
CONTINUOUS
 10
42.2238366737
 20
150.676938894
 40
0.5
 50
2.0000872722
 51
90.0000030457
  0
ARC
  8
0
 62
7
  6
CONTINUOUS
 10
49.1895254101
 20
150.6769393165
 40
0.5
 50
89.9999986448
 51
177.9999611665
  0
ARC
  8
0
 62
7
  6
CONTINUOUS
 10
62.2566810345
 20
183.0961206492
 40
0.5
 50
270.0
 51
360.0
  0
ARC
  8
0
 62
7
  6
CONTINUOUS
 10
59.2566810345
 20
183.0961206492
 40
0.5
 50
180.0
 51
270.0
  0
ARC
  8
0
 62
7
  6
CONTINUOUS
 10
69.6436519769
 20
193.0961206492
 40
0.5
 50
270.0001262164
 51
359.0000022027
  0
ARC
  8
0
 62
7
  6
CONTINUOUS
 10
66.7936530783
 20
193.0961206492
 40
0.5
 50
270.0
 51
359.0
  0
ARC
  8
0
 62
7
  6
CONTINUOUS
 10
49.9197097732
 20
193.0961206492
 40
0.5
 50
180.9999984349
 51
269.9999103205
  0
ARC
  8
0
 62
7
  6
CONTINUOUS
 10
52.8697089906
 20
193.0961206492
 40
0.5
 50
181.0
 51
270.0
  0
ARC
  8
0
 62
7
  6
CONTINUOUS
 10
39.7066810345
 20
193.0961206492
 40
0.5
 50
180.0
 51
270.0
  0
ARC
  8
0
 62
7
  6
CONTINUOUS
 10
41.9936551496
 20
193.0961206492
 40
0.4999993097
 50
269.9997626556
 51
358.9999958577
  0
ARC
  8
0
 62
7
  6
CONTINUOUS
 10
66.997877338
 20
204.7961206492
 40
0.5
 50
359.0
 51
90.0
  0
ARC
  8
0
 62
7
  6
CONTINUOUS
 10
70.7782094063
 20
200.7961206492
 40
0.5
 50
90.7997619845
 51
179.0
  0
ARC
  8
0
 62
7
  6
CONTINUOUS
 10
48.7851512437
 20
200.7961206492
 40
0.5
 50
0.9999971623
 51
89.2000756982
  0
ARC
  8
0
 62
7
  6
CONTINUOUS
 10
43.1282094063
 20
200.7961206492
 40
0.5
 50
90.0
 51
179.0
  0
ARC
  8
0
 62
7
  6
CONTINUOUS
 10
52.6654823633
 20
204.7961206492
 40
0.4999990895
 50
89.9997286858
 51
181.0000047351
  0
ARC
  8
0
 62
7
  6
CONTINUOUS
 10
41.2482692302
 20
204.8761206492
 40
0.42
 50
90.0
 51
101.309932474
  0
ARC
  8
0
 62
7
  6
CONTINUOUS
 10
39.6266810345
 20
204.5518030101
 40
0.42
 50
101.309932474
 51
180.0
  0
ARC
  8
0
 62
7
  6
CONTINUOUS
 10
98.4566810345
 20
183.0961206492
 40
0.5
 50
180.0
 51
270.0
  0
ARC
  8
0
 62
7
  6
CONTINUOUS
 10
101.4566810345
 20
183.0961206492
 40
0.5
 50
270.0
 51
360.0
  0
ARC
  8
4_SURFACE
 62
7
  6
CONTINUOUS
 10
121.0066810345
 20
193.0961206492
 40
0.5
 50
270.0
 51
360.0
  0
ARC
  8
4_SURFACE
 62
7
  6
CONTINUOUS
 10
107.8436530783
 20
193.0961206492
 40
0.5
 50
270.0
 51
359.0
  0
ARC
  8
4_SURFACE
 62
7
  6
CONTINUOUS
 10
110.7936530783
 20
193.0961206492
 40
0.5
 50
270.0
 51
359.0
  0
ARC
  8
4_SURFACE
 62
7
  6
CONTINUOUS
 10
93.9197089906
 20
193.0961206492
 40
0.5
 50
181.0
 51
270.0
  0
ARC
  8
4_SURFACE
 62
7
  6
CONTINUOUS
 10
91.0697089906
 20
193.0961206492
 40
0.5
 50
181.0000376368
 51
269.9999927404
  0
ARC
  8
4_SURFACE
 62
7
  6
CONTINUOUS
 10
118.7197069194
 20
193.0961206492
 40
0.4999993097
 50
181.0000041423
 51
270.0002373444
  0
ARC
  8
4_SURFACE
 62
7
  6
CONTINUOUS
 10
117.5851526626
 20
200.7961206492
 40
0.5
 50
1.0
 51
90.0
  0
ARC
  8
4_SURFACE
 62
7
  6
CONTINUOUS
 10
111.9282094063
 20
200.7961206492
 40
0.5
 50
90.7997619845
 51
179.0
  0
ARC
  8
4_SURFACE
 62
7
  6
CONTINUOUS
 10
89.9351521151
 20
200.7961206492
 40
0.5
 50
0.9999989049
 51
89.2002380155
  0
ARC
  8
4_SURFACE
 62
7
  6
CONTINUOUS
 10
93.7154847353
 20
204.7961203991
 40
0.5
 50
90.0000005003
 51
180.9999713344
  0
ARC
  8
4_SURFACE
 62
7
  6
CONTINUOUS
 10
108.0478797057
 20
204.7961206492
 40
0.4999990895
 50
358.9999952649
 51
90.0002713142
  0
ARC
  8
4_SURFACE
 62
7
  6
CONTINUOUS
 10
121.0866776876
 20
204.5518036795
 40
0.42
 50
359.9999086862
 51
78.6896019019
  0
ARC
  8
4_SURFACE
 62
7
  6
CONTINUOUS
 10
119.4650961633
 20
204.8761199843
 40
0.42
 50
78.6905300294
 51
90.0004535201
  0
ARC
  8
0
 62
7
  6
CONTINUOUS
 10
147.5971982354
 20
120.9128024321
 40
0.5
 50
180.0
 51
268.0
  0
ARC
  8
0
 62
7
  6
CONTINUOUS
 10
157.5971982354
 20
113.8169372903
 40
0.4999990904
 50
179.9997290017
 51
270.0
  0
ARC
  8
0
 62
7
  6
CONTINUOUS
 10
147.5971982354
 20
130.6410768783
 40
0.5
 50
92.0
 51
180.0
  0
ARC
  8
0
 62
7
  6
CONTINUOUS
 10
163.4477094878
 20
106.8771471411
 40
6.855
 50
33.8856307322
 51
69.97
  0
ARC
  8
0
 62
7
  6
CONTINUOUS
 10
163.4472735107
 20
106.8769396547
 40
6.5
 50
192.3297961702
 51
269.9996994122
  0
ARC
  8
4_SURFACE
 62
7
  6
CONTINUOUS
 10
163.4472735107
 20
106.8769396547
 40
6.5
 50
264.6358986144
 51
270.0
  0
ARC
  8
4_SURFACE
 62
7
  6
CONTINUOUS
 10
163.4472735107
 20
106.8769396547
 40
6.5
 50
192.3297961702
 51
264.4517416307
  0
ARC
  8
0
 62
7
  6
CONTINUOUS
 10
163.4471982354
 20
106.7269396552
 40
6.35
 50
270.0006792053
 51
360.0
  0
ARC
  8
4_SURFACE
 62
7
  6
CONTINUOUS
 10
163.4471982354
 20
106.7269396552
 40
6.35
 50
354.375358752
 51
360.0
  0
ARC
  8
4_SURFACE
 62
7
  6
CONTINUOUS
 10
163.4471982354
 20
106.7269396552
 40
6.35
 50
270.0006792053
 51
275.6262268835
  0
CIRCLE
  8
1_AXIS
 62
7
  6
CONTINUOUS
 10
163.4471982354
 20
106.7269396552
 40
3.25
  0
ARC
  8
0
 62
7
  6
CONTINUOUS
 10
159.0971982354
 20
117.8882753531
 40
2.0
 50
180.0
 51
249.97
  0
ARC
  8
4_SURFACE
 62
7
  6
CONTINUOUS
 10
169.2971982354
 20
111.1769396552
 40
0.5
 50
280.9884413852
 51
350.0242038472
  0
ARC
  8
0
 62
7
  6
CONTINUOUS
 10
169.2971982354
 20
111.1769396552
 40
0.5
 50
270.0
 51
360.0
  0
ARC
  8
0
 62
7
  6
CONTINUOUS
 10
169.1799099901
 20
110.7269396552
 40
0.05
 50
213.8856307322
 51
270.0000000001
  0
ARC
  8
4_SURFACE
 62
7
  6
CONTINUOUS
 10
163.4472735107
 20
144.6769396556
 40
6.5
 50
90.0
 51
95.3639560751
  0
ARC
  8
4_SURFACE
 62
7
  6
CONTINUOUS
 10
163.4472735107
 20
144.6769396556
 40
6.5
 50
100.9868300648
 51
101.322206726
  0
ARC
  8
4_SURFACE
 62
7
  6
CONTINUOUS
 10
163.4472735107
 20
144.6769396556
 40
6.5
 50
162.1227700784
 51
163.8709781856
  0
ARC
  8
0
 62
7
  6
CONTINUOUS
 10
163.4472735107
 20
144.6769396556
 40
6.5
 50
90.0003317657
 51
167.6702038298
  0
ARC
  8
0
 62
7
  6
CONTINUOUS
 10
163.4471982354
 20
144.8269396552
 40
6.35
 50
0.0
 51
89.9993207947
  0
ARC
  8
4_SURFACE
 62
7
  6
CONTINUOUS
 10
163.4471982354
 20
144.8269396552
 40
6.35
 50
50.9594275671
 51
52.4472209778
  0
ARC
  8
4_SURFACE
 62
7
  6
CONTINUOUS
 10
163.4471982354
 20
144.8269396552
 40
6.35
 50
84.7812283108
 51
89.9993207947
  0
ARC
  8
4_SURFACE
 62
7
  6
CONTINUOUS
 10
163.4471982354
 20
144.8269396552
 40
6.35
 50
80.4281498738
 51
83.1083477208
  0
ARC
  8
4_SURFACE
 62
7
  6
CONTINUOUS
 10
163.4471982354
 20
144.8269396552
 40
6.35
 50
74.2365845981
 51
77.5945159124
  0
ARC
  8
4_SURFACE
 62
7
  6
CONTINUOUS
 10
163.4471982354
 20
144.8269396552
 40
6.35
 50
66.4420897731
 51
72.2782476518
  0
ARC
  8
4_SURFACE
 62
7
  6
CONTINUOUS
 10
163.4471982354
 20
144.8269396552
 40
6.35
 50
18.5580497091
 51
46.1548586741
  0
ARC
  8
4_SURFACE
 62
7
  6
CONTINUOUS
 10
163.4471982354
 20
144.8269396552
 40
6.35
 50
0.0
 51
5.624641248
  0
CIRCLE
  8
1_AXIS
 62
7
  6
CONTINUOUS
 10
163.4471982354
 20
144.8269396552
 40
3.25
  0
ENDSEC
  0
EOF
