  0
SECTION
  2
HEADER
  9
$EXTMAX
 10
420.0
 20
297.0
 30
0.0
  9
$EXTMIN
 10
0.0
 20
0.0
 30
0.0
  9
$LIMMIN
 10
0.0
 20
0.0
  9
$LIMMAX
 10
420.0
 20
297.0
  9
$VIEWCTR
 10
210.0
 20
148.5
  9
$VIEWSIZE
 40
297.0
  9
$CLAYER
  8
0
  9
$LTSCALE
 40
23.1
  9
$CELTYPE
  6
BYLAYER
  9
$DIMSCALE
 40
1.0
  9
$DIMASZ
 40
3.5
  9
$DIMEXO
 40
2.625
  9
$DIMDLI
 40
15.96
  9
$DIMEXE
 40
7.56
  9
$DIMCEN
 40
3.78
  9
$DIMLFAC
 40
1.0
  9
$DIMBLK
  1
_FILLED
  9
$DIMTXT
 40
3.5
  9
$PDMODE
 70
3
  9
$PDSIZE
 40
0.3125
  9
$TILEMODE
 70
1
  0
ENDSEC
  0
SECTION
  2
TABLES
  0
TABLE
  2
LTYPE
 70
6
  0
LTYPE
  2
BYBLOCK
 70
0
  3

 72
65
 73
0
 40
0.0
  0
LTYPE
  2
BYLAYER
 70
0
  3

 72
65
 73
0
 40
0.0
  0
LTYPE
  2
CONTINUOUS
 70
64
  3
Solid line
 72
65
 73
0
 40
0.0
  0
LTYPE
  2
CENTER
 70
64
  3
____ _ ____ _ ____ _ ____ _ ____ _ ____ _ ____
 72
65
 73
4
 40
0.6
 49
0.375
 49
-0.075
 49
0.075
 49
-0.075
  0
LTYPE
  2
HIDDEN
 70
64
  3
- - - - - - - - - - - - - - - - - - - -
 72
65
 73
2
 40
0.2
 49
0.1
 49
-0.1
  0
LTYPE
  2
PHANTOM
 70
64
  3
_____ _ _ _____ _ _ _____ _ _ _____
 72
65
 73
6
 40
0.8
 49
0.45
 49
-0.05
 49
0.1
 49
-0.05
 49
0.1
 49
-0.05
  0
LTYPE
  2
DOT
 70
64
  3
. . . . . . . . . . . . . . . . . . . .
 72
65
 73
2
 40
0.2
 49
0.1
 49
-0.1
  0
LTYPE
  2
DASHED
 70
64
  3
- - - - - - - - - - - - - - - - - - - -
 72
65
 73
2
 40
0.2
 49
0.1
 49
-0.1
  0
ENDTAB
  0
TABLE
  2
LAYER
 70
36
  0
LAYER
  2
0
 70
0
 62
7
  6
CONTINUOUS
  0
LAYER
  2
DEFAULT_1
 70
0
 62
7
  6
CENTER
  0
LAYER
  2
DEFAULT_2
 70
0
 62
8
  6
HIDDEN
  0
LAYER
  2
DEFAULT_3
 70
0
 62
7
  6
PHANTOM
  0
LAYER
  2
1_AXIS
 70
0
 62
7
  6
CONTINUOUS
  0
LAYER
  2
1_CSYS
 70
0
 62
7
  6
CONTINUOUS
  0
LAYER
  2
1_DATUMPLANE
 70
0
 62
7
  6
CONTINUOUS
  0
LAYER
  2
4_QUILT
 70
0
 62
7
  6
CONTINUOUS
  0
LAYER
  2
4_SURFACE
 70
0
 62
7
  6
CONTINUOUS
  0
LAYER
  2
6_DIM
 70
0
 62
7
  6
CONTINUOUS
  0
LAYER
  2
CURVE
 70
0
 62
7
  6
CONTINUOUS
  0
LAYER
  2
SURFACE
 70
0
 62
7
  6
CONTINUOUS
  0
ENDTAB
  0
TABLE
  2
STYLE
 70
1
  0
STYLE
  2
STANDARD
 70
0
 40
0.0
 41
0.8
 50
0.0
 71
0
 42
0.2
  3
txt
  4

  0
STYLE
  2
TEXTSTYLE_1
 70
0
 40
0.0
 41
0.8
 50
0.0
 71
0
 42
0.2
  3
gdt
  4

  0
STYLE
  2
TEXTSTYLE_2
 70
0
 40
0.0
 41
0.6
 50
0.0
 71
0
 42
0.2
  3
txt
  4

  0
STYLE
  2
TEXTSTYLE_3
 70
0
 40
0.0
 41
1.0
 50
0.0
 71
0
 42
0.2
  3
ftb_____.ttf
  4

  0
STYLE
  2
TEXTSTYLE_4
 70
0
 40
0.0
 41
1.0
 50
0.0
 71
0
 42
0.2
  3
fti_____.ttf
  4

  0
STYLE
  2
TEXTSTYLE_5
 70
0
 40
0.0
 41
1.0
 50
0.0
 71
0
 42
0.2
  3
frutiger light.ttf
  4

  0
STYLE
  2
TEXTSTYLE_6
 70
0
 40
0.0
 41
0.7
 50
0.0
 71
0
 42
0.2
  3
txt
  4

  0
STYLE
  2
TEXTSTYLE_7
 70
0
 40
0.0
 41
0.8
 50
0.0
 71
0
 42
0.2
  3
txt
  4

  0
ENDTAB
  0
ENDSEC
  0
SECTION
  2
BLOCKS
  0
BLOCK
  8
0
 62
2
  6
CONTINUOUS
  2
SYMBOL_5_BL1
 70
64
 10
382.7840918555
 20
35.5067593403
  0
TEXT
  8
0
 62
7
  6
CONTINUOUS
 10
373.842376864
 20
30.5995157174
  7
TEXTSTYLE_4
 40
1.0655737705
  1
The brand for plastic modular belts and chains
 41
1.0
 72
0
  0
LINE
  8
0
 62
7
  6
CONTINUOUS
 10
358.7621602445
 20
36.0805298321
 11
358.7621602445
 21
33.9493822911
  0
LINE
  8
0
 62
7
  6
CONTINUOUS
 10
359.0512227376
 20
30.9584509954
 11
359.0512227376
 21
31.0552420547
  0
LINE
  8
0
 62
7
  6
CONTINUOUS
 10
358.7621602445
 20
31.0229783683
 11
358.8199727462
 21
30.8293962497
  0
LINE
  8
0
 62
7
  6
CONTINUOUS
 10
360.1556028675
 20
33.867415078
 11
360.1556028675
 21
36.0805298321
  0
LINE
  8
0
 62
7
  6
CONTINUOUS
 10
361.0746601894
 20
32.0231527829
 11
361.0746601894
 21
30.5067593403
  0
LINE
  8
0
 62
7
  6
CONTINUOUS
 10
361.3637227445
 20
30.5067593403
 11
361.3637227445
 21
31.2488242184
  0
LINE
  8
0
 62
7
  6
CONTINUOUS
 10
361.3637227445
 20
31.3778789641
 11
361.3637227445
 21
32.0231527829
  0
LINE
  8
0
 62
7
  6
CONTINUOUS
 10
358.8199727462
 20
31.216560532
 11
358.7621602445
 21
31.0229783683
  0
LINE
  8
0
 62
7
  6
CONTINUOUS
 10
359.1668477307
 20
30.7971325633
 11
359.0512227376
 21
30.9584509954
  0
LINE
  8
0
 62
7
  6
CONTINUOUS
 10
360.2652852997
 20
31.3133515913
 11
360.3230977445
 21
31.216560532
  0
LINE
  8
0
 62
7
  6
CONTINUOUS
 10
360.6121602997
 20
31.216560532
 11
360.5543476894
 21
31.3456152777
  0
LINE
  8
0
 62
7
  6
CONTINUOUS
 10
362.0408487691
 20
36.0805298321
 11
362.0408487691
 21
34.2772511436
  0
LINE
  8
0
 62
7
  6
CONTINUOUS
 10
362.0408487691
 20
32.9657757338
 11
362.0408487691
 21
32.3100380288
  0
LINE
  8
0
 62
7
  6
CONTINUOUS
 10
362.4043477445
 20
31.1520331591
 11
362.4043477445
 21
30.5067593403
  0
LINE
  8
0
 62
7
  6
CONTINUOUS
 10
362.6934101343
 20
30.5067593403
 11
362.6934101343
 21
31.1520331591
  0
LINE
  8
0
 62
7
  6
CONTINUOUS
 10
359.0512227376
 20
31.0552420547
 11
359.1090352445
 21
31.1842968456
  0
LINE
  8
0
 62
7
  6
CONTINUOUS
 10
358.8199727462
 20
30.8293962497
 11
358.9355977445
 21
30.7003414814
  0
LINE
  8
0
 62
7
  6
CONTINUOUS
 10
362.3465351343
 20
31.2810879048
 11
362.4043477445
 21
31.1520331591
  0
LINE
  8
0
 62
7
  6
CONTINUOUS
 10
363.1559103548
 20
30.7971325633
 11
363.2137226343
 21
30.668077795
  0
LINE
  8
0
 62
7
  6
CONTINUOUS
 10
362.6934101343
 20
31.1520331591
 11
362.6355978548
 21
31.3133515913
  0
LINE
  8
0
 62
7
  6
CONTINUOUS
 10
363.1559103548
 20
31.3456152777
 11
363.1559103548
 21
31.2810879048
  0
LINE
  8
0
 62
7
  6
CONTINUOUS
 10
363.1559103548
 20
30.8939236226
 11
363.1559103548
 21
30.7971325633
  0
LINE
  8
0
 62
7
  6
CONTINUOUS
 10
363.4342913921
 20
32.3100380288
 11
363.4342913921
 21
36.0805298321
  0
LINE
  8
0
 62
7
  6
CONTINUOUS
 10
363.4449727445
 20
30.7648688543
 11
363.4449727445
 21
30.8293962497
  0
LINE
  8
0
 62
7
  6
CONTINUOUS
 10
363.7621602445
 20
36.0805298321
 11
363.7621602445
 21
32.3100380288
  0
LINE
  8
0
 62
7
  6
CONTINUOUS
 10
360.5543476894
 20
30.7003414814
 11
360.6121602997
 21
30.8293962497
  0
LINE
  8
0
 62
7
  6
CONTINUOUS
 10
364.9480979651
 20
30.6035504109
 11
364.890285024
 21
30.7648688543
  0
LINE
  8
0
 62
7
  6
CONTINUOUS
 10
364.6012229651
 20
31.2810879048
 11
364.6012229651
 21
31.1842968456
  0
LINE
  8
0
 62
7
  6
CONTINUOUS
 10
364.6012229651
 20
31.0552420547
 11
364.6012229651
 21
30.8616599362
  0
LINE
  8
0
 62
7
  6
CONTINUOUS
 10
364.890285024
 20
30.7648688543
 11
364.890285024
 21
31.2810879048
  0
LINE
  8
0
 62
7
  6
CONTINUOUS
 10
365.1556028675
 20
32.3100380288
 11
365.1556028675
 21
34.1133167174
  0
LINE
  8
0
 62
7
  6
CONTINUOUS
 10
365.1556028675
 20
35.4247921272
 11
365.1556028675
 21
36.0805298321
  0
LINE
  8
0
 62
7
  6
CONTINUOUS
 10
365.4684104651
 20
32.0231527829
 11
365.4684104651
 21
31.8618343508
  0
LINE
  8
0
 62
7
  6
CONTINUOUS
 10
365.4684104651
 20
31.5391973962
 11
365.4684104651
 21
30.5067593403
  0
LINE
  8
0
 62
7
  6
CONTINUOUS
 10
365.757472524
 20
30.5067593403
 11
365.757472524
 21
31.5391973962
  0
LINE
  8
0
 62
7
  6
CONTINUOUS
 10
365.757472524
 20
31.8618343508
 11
365.757472524
 21
32.0231527829
  0
LINE
  8
0
 62
7
  6
CONTINUOUS
 10
360.3230977445
 20
30.8293962497
 11
360.2652852997
 21
30.7326051679
  0
LINE
  8
0
 62
7
  6
CONTINUOUS
 10
362.6355978548
 20
31.3133515913
 11
362.5777852445
 21
31.3778789641
  0
LINE
  8
0
 62
7
  6
CONTINUOUS
 10
363.5027853548
 20
30.7003414814
 11
363.4449727445
 21
30.7648688543
  0
LINE
  8
0
 62
7
  6
CONTINUOUS
 10
364.6590352445
 20
30.5712867188
 11
364.716847524
 21
30.5067593403
  0
LINE
  8
0
 62
7
  6
CONTINUOUS
 10
364.6012229651
 20
30.668077795
 11
364.6590352445
 21
30.5712867188
  0
LINE
  8
0
 62
7
  6
CONTINUOUS
 10
365.0059102445
 20
30.5067593403
 11
364.9480979651
 21
30.6035504109
  0
LINE
  8
0
 62
7
  6
CONTINUOUS
 10
364.890285024
 20
31.2810879048
 11
364.8324727445
 21
31.3778789641
  0
LINE
  8
0
 62
7
  6
CONTINUOUS
 10
366.2199727445
 20
31.5391973962
 11
366.2199727445
 21
30.5067593403
  0
LINE
  8
0
 62
7
  6
CONTINUOUS
 10
366.5090354651
 20
30.5067593403
 11
366.5090354651
 21
31.2488242184
  0
LINE
  8
0
 62
7
  6
CONTINUOUS
 10
366.5090354651
 20
31.3778789641
 11
366.5090354651
 21
31.5391973962
  0
LINE
  8
0
 62
7
  6
CONTINUOUS
 10
367.0408487691
 20
34.5231527829
 11
367.0408487691
 21
32.3100380288
  0
LINE
  8
0
 62
7
  6
CONTINUOUS
 10
358.9355977445
 20
31.3456152777
 11
358.8199727462
 21
31.216560532
  0
LINE
  8
0
 62
7
  6
CONTINUOUS
 10
359.1090352445
 20
31.1842968456
 11
359.1668477307
 21
31.2488242184
  0
LINE
  8
0
 62
7
  6
CONTINUOUS
 10
358.9355977445
 20
30.7003414814
 11
359.0512227376
 21
30.6358140973
  0
LINE
  8
0
 62
7
  6
CONTINUOUS
 10
359.3402852307
 20
30.7003414814
 11
359.1668477307
 21
30.7971325633
  0
LINE
  8
0
 62
7
  6
CONTINUOUS
 10
364.543410024
 20
31.3456152777
 11
364.6012229651
 21
31.2810879048
  0
LINE
  8
0
 62
7
  6
CONTINUOUS
 10
367.491847524
 20
31.2810879048
 11
367.5496604651
 21
31.1197694727
  0
LINE
  8
0
 62
7
  6
CONTINUOUS
 10
367.838722524
 20
31.1197694727
 11
367.7809102445
 21
31.2810879048
  0
LINE
  8
0
 62
7
  6
CONTINUOUS
 10
367.5496604651
 20
31.1197694727
 11
367.5496604651
 21
30.5067593403
  0
LINE
  8
0
 62
7
  6
CONTINUOUS
 10
367.838722524
 20
30.5067593403
 11
367.838722524
 21
31.1197694727
  0
LINE
  8
0
 62
7
  6
CONTINUOUS
 10
368.3012227445
 20
31.3456152777
 11
368.3012227445
 21
31.2810879048
  0
LINE
  8
0
 62
7
  6
CONTINUOUS
 10
368.4342913921
 20
32.3100380288
 11
368.4342913921
 21
34.4411855698
  0
LINE
  8
0
 62
7
  6
CONTINUOUS
 10
368.7621602445
 20
36.0805298321
 11
368.7621602445
 21
32.3100380288
  0
LINE
  8
0
 62
7
  6
CONTINUOUS
 10
363.4449727445
 20
30.8293962497
 11
363.5027853548
 21
30.926187309
  0
LINE
  8
0
 62
7
  6
CONTINUOUS
 10
359.0512227376
 20
30.6358140973
 11
359.2246602583
 21
30.5712867188
  0
LINE
  8
0
 62
7
  6
CONTINUOUS
 10
360.5543476894
 20
31.3456152777
 11
360.3809101894
 21
31.4424063369
  0
LINE
  8
0
 62
7
  6
CONTINUOUS
 10
363.2137226343
 20
30.668077795
 11
363.3871601343
 21
30.5712867188
  0
LINE
  8
0
 62
7
  6
CONTINUOUS
 10
362.2309102445
 20
31.3456152777
 11
362.3465351343
 21
31.2810879048
  0
LINE
  8
0
 62
7
  6
CONTINUOUS
 10
362.5777852445
 20
31.3778789641
 11
362.4621603548
 21
31.4424063369
  0
LINE
  8
0
 62
7
  6
CONTINUOUS
 10
368.3012227445
 20
30.7648688543
 11
368.4168479651
 21
30.6358140973
  0
LINE
  8
0
 62
7
  6
CONTINUOUS
 10
368.6480977445
 20
30.7003414814
 11
368.5902854651
 21
30.7648688543
  0
LINE
  8
0
 62
7
  6
CONTINUOUS
 10
368.3012227445
 20
31.2810879048
 11
368.4168479651
 21
31.1520331591
  0
LINE
  8
0
 62
7
  6
CONTINUOUS
 10
367.7809102445
 20
31.2810879048
 11
367.7230979651
 21
31.3778789641
  0
LINE
  8
0
 62
7
  6
CONTINUOUS
 10
370.1512223035
 20
30.7003414814
 11
370.1512223035
 21
30.7648688543
  0
LINE
  8
0
 62
7
  6
CONTINUOUS
 10
370.1556028675
 20
32.3100380288
 11
370.1556028675
 21
36.0805298321
  0
LINE
  8
0
 62
7
  6
CONTINUOUS
 10
363.2137226343
 20
31.4101426505
 11
363.1559103548
 21
31.3456152777
  0
LINE
  8
0
 62
7
  6
CONTINUOUS
 10
360.091847717
 20
31.3778789641
 11
360.2652852997
 21
31.3133515913
  0
LINE
  8
0
 62
7
  6
CONTINUOUS
 10
364.8324727445
 20
31.3778789641
 11
364.716847524
 21
31.4424063369
  0
LINE
  8
0
 62
7
  6
CONTINUOUS
 10
368.6480977445
 20
31.216560532
 11
368.5902854651
 21
31.2810879048
  0
LINE
  8
0
 62
7
  6
CONTINUOUS
 10
369.8043479651
 20
30.8293962497
 11
369.8621602445
 21
30.7648688543
  0
LINE
  8
0
 62
7
  6
CONTINUOUS
 10
370.1512223035
 20
30.7648688543
 11
370.0355977445
 21
30.8939236226
  0
LINE
  8
0
 62
7
  6
CONTINUOUS
 10
369.8043479651
 20
31.3456152777
 11
369.8621602445
 21
31.2810879048
  0
LINE
  8
0
 62
7
  6
CONTINUOUS
 10
370.1512223035
 20
31.2810879048
 11
370.0355977445
 21
31.4101426505
  0
LINE
  8
0
 62
7
  6
CONTINUOUS
 10
363.4449727445
 20
31.2810879048
 11
363.5027853548
 21
31.3456152777
  0
LINE
  8
0
 62
7
  6
CONTINUOUS
 10
363.2715352445
 20
31.0229783683
 11
363.1559103548
 21
30.8939236226
  0
LINE
  8
0
 62
7
  6
CONTINUOUS
 10
364.6012229651
 20
30.8616599362
 11
364.543410024
 21
30.7971325633
  0
LINE
  8
0
 62
7
  6
CONTINUOUS
 10
364.543410024
 20
30.6035504109
 11
364.6012229651
 21
30.668077795
  0
LINE
  8
0
 62
7
  6
CONTINUOUS
 10
363.3871601343
 20
30.5712867188
 11
363.5027853548
 21
30.5390230296
  0
LINE
  8
0
 62
7
  6
CONTINUOUS
 10
360.3809101894
 20
31.4424063369
 11
360.1496602445
 21
31.5069337098
  0
LINE
  8
0
 62
7
  6
CONTINUOUS
 10
363.7340351343
 20
30.6358140973
 11
363.5027853548
 21
30.7003414814
  0
LINE
  8
0
 62
7
  6
CONTINUOUS
 10
362.4621603548
 20
31.4424063369
 11
362.2887228548
 21
31.5069337098
  0
LINE
  8
0
 62
7
  6
CONTINUOUS
 10
364.716847524
 20
31.4424063369
 11
364.543410024
 21
31.5069337098
  0
LINE
  8
0
 62
7
  6
CONTINUOUS
 10
367.3762229651
 20
31.3456152777
 11
367.491847524
 21
31.2810879048
  0
LINE
  8
0
 62
7
  6
CONTINUOUS
 10
367.7230979651
 20
31.3778789641
 11
367.6074727445
 21
31.4424063369
  0
LINE
  8
0
 62
7
  6
CONTINUOUS
 10
359.2246602583
 20
30.5712867188
 11
359.3980977583
 21
30.5390230296
  0
LINE
  8
0
 62
7
  6
CONTINUOUS
 10
359.6871602721
 20
30.6358140973
 11
359.3402852307
 21
30.7003414814
  0
LINE
  8
0
 62
7
  6
CONTINUOUS
 10
362.1152853548
 20
31.3778789641
 11
362.2309102445
 21
31.3456152777
  0
LINE
  8
0
 62
7
  6
CONTINUOUS
 10
364.4277854651
 20
31.3778789641
 11
364.543410024
 21
31.3456152777
  0
LINE
  8
0
 62
7
  6
CONTINUOUS
 10
368.7637229651
 20
30.668077795
 11
368.6480977445
 21
30.7003414814
  0
LINE
  8
0
 62
7
  6
CONTINUOUS
 10
367.2605977445
 20
31.3778789641
 11
367.3762229651
 21
31.3456152777
  0
LINE
  8
0
 62
7
  6
CONTINUOUS
 10
368.4168479651
 20
30.6358140973
 11
368.5902854651
 21
30.5712867188
  0
LINE
  8
0
 62
7
  6
CONTINUOUS
 10
367.6074727445
 20
31.4424063369
 11
367.4340352445
 21
31.5069337098
  0
LINE
  8
0
 62
7
  6
CONTINUOUS
 10
368.8215352445
 20
31.1520331591
 11
368.6480977445
 21
31.216560532
  0
LINE
  8
0
 62
7
  6
CONTINUOUS
 10
369.6309104651
 20
30.8939236226
 11
369.8043479651
 21
30.8293962497
  0
LINE
  8
0
 62
7
  6
CONTINUOUS
 10
370.0355977445
 20
31.4101426505
 11
369.8621602445
 21
31.4746700234
  0
LINE
  8
0
 62
7
  6
CONTINUOUS
 10
368.4168479651
 20
31.1520331591
 11
368.6480977445
 21
31.0552420547
  0
LINE
  8
0
 62
7
  6
CONTINUOUS
 10
370.0355977445
 20
30.8939236226
 11
369.8043479651
 21
30.9907146818
  0
LINE
  8
0
 62
7
  6
CONTINUOUS
 10
368.5902854651
 20
31.2810879048
 11
368.6480977445
 21
31.3456152777
  0
LINE
  8
0
 62
7
  6
CONTINUOUS
 10
359.0512227376
 20
31.4101426505
 11
358.9355977445
 21
31.3456152777
  0
LINE
  8
0
 62
7
  6
CONTINUOUS
 10
359.1668477307
 20
31.2488242184
 11
359.3402852307
 21
31.3456152777
  0
LINE
  8
0
 62
7
  6
CONTINUOUS
 10
361.4793477997
 20
31.4424063369
 11
361.3637227445
 21
31.3778789641
  0
LINE
  8
0
 62
7
  6
CONTINUOUS
 10
361.3637227445
 20
31.2488242184
 11
361.4793477997
 21
31.3133515913
  0
LINE
  8
0
 62
7
  6
CONTINUOUS
 10
360.3809101894
 20
30.6035504109
 11
360.5543476894
 21
30.7003414814
  0
LINE
  8
0
 62
7
  6
CONTINUOUS
 10
359.3980977583
 20
30.5390230296
 11
359.744972717
 21
30.5067593403
  0
LINE
  8
0
 62
7
  6
CONTINUOUS
 10
363.5027853548
 20
30.5390230296
 11
363.7340351343
 21
30.5067593403
  0
LINE
  8
0
 62
7
  6
CONTINUOUS
 10
361.8840352445
 20
31.4101426505
 11
362.1152853548
 21
31.3778789641
  0
LINE
  8
0
 62
7
  6
CONTINUOUS
 10
364.1965353548
 20
31.4101426505
 11
364.4277854651
 21
31.3778789641
  0
LINE
  8
0
 62
7
  6
CONTINUOUS
 10
368.6480977445
 20
31.0552420547
 11
369.6309104651
 21
30.8939236226
  0
LINE
  8
0
 62
7
  6
CONTINUOUS
 10
369.8043479651
 20
30.9907146818
 11
368.8215352445
 21
31.1520331591
  0
LINE
  8
0
 62
7
  6
CONTINUOUS
 10
362.2887228548
 20
31.5069337098
 11
362.1152853548
 21
31.5391973962
  0
LINE
  8
0
 62
7
  6
CONTINUOUS
 10
368.5902854651
 20
30.5712867188
 11
368.7637229651
 21
30.5390230296
  0
LINE
  8
0
 62
7
  6
CONTINUOUS
 10
367.4340352445
 20
31.5069337098
 11
367.2605977445
 21
31.5391973962
  0
LINE
  8
0
 62
7
  6
CONTINUOUS
 10
369.6887227445
 20
31.3778789641
 11
369.8043479651
 21
31.3456152777
  0
LINE
  8
0
 62
7
  6
CONTINUOUS
 10
369.8621602445
 20
30.7648688543
 11
369.8043479651
 21
30.7003414814
  0
LINE
  8
0
 62
7
  6
CONTINUOUS
 10
368.4168479651
 20
31.4424063369
 11
368.3012227445
 21
31.3456152777
  0
LINE
  8
0
 62
7
  6
CONTINUOUS
 10
363.3293478548
 20
31.4746700234
 11
363.2137226343
 21
31.4101426505
  0
LINE
  8
0
 62
7
  6
CONTINUOUS
 10
363.3871601343
 20
31.0875057863
 11
363.2715352445
 21
31.0229783683
  0
LINE
  8
0
 62
7
  6
CONTINUOUS
 10
363.5027853548
 20
30.926187309
 11
363.6184102445
 21
30.9907146818
  0
LINE
  8
0
 62
7
  6
CONTINUOUS
 10
361.0746601894
 20
30.5067593403
 11
361.3637227445
 21
30.5067593403
  0
LINE
  8
0
 62
7
  6
CONTINUOUS
 10
362.4043477445
 20
30.5067593403
 11
362.6934101343
 21
30.5067593403
  0
LINE
  8
0
 62
7
  6
CONTINUOUS
 10
363.7340351343
 20
30.5067593403
 11
364.0809101343
 21
30.5067593403
  0
LINE
  8
0
 62
7
  6
CONTINUOUS
 10
364.716847524
 20
30.5067593403
 11
365.0059102445
 21
30.5067593403
  0
LINE
  8
0
 62
7
  6
CONTINUOUS
 10
365.4684104651
 20
30.5067593403
 11
365.757472524
 21
30.5067593403
  0
LINE
  8
0
 62
7
  6
CONTINUOUS
 10
366.2199727445
 20
30.5067593403
 11
366.5090354651
 21
30.5067593403
  0
LINE
  8
0
 62
7
  6
CONTINUOUS
 10
367.5496604651
 20
30.5067593403
 11
367.838722524
 21
30.5067593403
  0
LINE
  8
0
 62
7
  6
CONTINUOUS
 10
369.1105979651
 20
30.5067593403
 11
369.4574729651
 21
30.5067593403
  0
LINE
  8
0
 62
7
  6
CONTINUOUS
 10
369.4574729651
 20
30.6358140973
 11
369.1105979651
 21
30.6358140973
  0
LINE
  8
0
 62
7
  6
CONTINUOUS
 10
364.0809101343
 20
30.6358140973
 11
363.7340351343
 21
30.6358140973
  0
LINE
  8
0
 62
7
  6
CONTINUOUS
 10
368.5902854651
 20
30.7648688543
 11
368.3012227445
 21
30.7648688543
  0
LINE
  8
0
 62
7
  6
CONTINUOUS
 10
360.6121602997
 20
30.8293962497
 11
360.3230977445
 21
30.8293962497
  0
LINE
  8
0
 62
7
  6
CONTINUOUS
 10
359.6871602721
 20
31.4101426505
 11
360.091847717
 21
31.3778789641
  0
LINE
  8
0
 62
7
  6
CONTINUOUS
 10
360.1496602445
 20
31.5069337098
 11
359.744972717
 21
31.5391973962
  0
LINE
  8
0
 62
7
  6
CONTINUOUS
 10
368.7637229651
 20
30.5390230296
 11
369.1105979651
 21
30.5067593403
  0
LINE
  8
0
 62
7
  6
CONTINUOUS
 10
369.1105979651
 20
30.6358140973
 11
368.7637229651
 21
30.668077795
  0
LINE
  8
0
 62
7
  6
CONTINUOUS
 10
364.543410024
 20
31.5069337098
 11
364.1965353548
 21
31.5391973962
  0
LINE
  8
0
 62
7
  6
CONTINUOUS
 10
369.3418477445
 20
31.4101426505
 11
369.6887227445
 21
31.3778789641
  0
LINE
  8
0
 62
7
  6
CONTINUOUS
 10
369.6887227445
 20
31.5069337098
 11
369.3418477445
 21
31.5391973962
  0
LINE
  8
0
 62
7
  6
CONTINUOUS
 10
367.0293479651
 20
31.4101426505
 11
367.2605977445
 21
31.3778789641
  0
LINE
  8
0
 62
7
  6
CONTINUOUS
 10
369.8621602445
 20
31.4746700234
 11
369.6887227445
 21
31.5069337098
  0
LINE
  8
0
 62
7
  6
CONTINUOUS
 10
370.0355977445
 20
30.6035504109
 11
370.1512223035
 21
30.7003414814
  0
LINE
  8
0
 62
7
  6
CONTINUOUS
 10
364.543410024
 20
30.7971325633
 11
364.369972524
 21
30.7003414814
  0
LINE
  8
0
 62
7
  6
CONTINUOUS
 10
366.624660024
 20
31.4424063369
 11
366.5090354651
 21
31.3778789641
  0
LINE
  8
0
 62
7
  6
CONTINUOUS
 10
366.5090354651
 20
31.2488242184
 11
366.624660024
 21
31.3133515913
  0
LINE
  8
0
 62
7
  6
CONTINUOUS
 10
359.2246602583
 20
31.4746700234
 11
359.0512227376
 21
31.4101426505
  0
LINE
  8
0
 62
7
  6
CONTINUOUS
 10
361.6527851343
 20
31.5069337098
 11
361.4793477997
 21
31.4424063369
  0
LINE
  8
0
 62
7
  6
CONTINUOUS
 10
361.4793477997
 20
31.3133515913
 11
361.6527851343
 21
31.3778789641
  0
LINE
  8
0
 62
7
  6
CONTINUOUS
 10
360.2652852997
 20
30.7326051679
 11
360.091847717
 21
30.668077795
  0
LINE
  8
0
 62
7
  6
CONTINUOUS
 10
369.6887227445
 20
30.668077795
 11
369.4574729651
 21
30.6358140973
  0
LINE
  8
0
 62
7
  6
CONTINUOUS
 10
364.0809101343
 20
30.5067593403
 11
364.369972524
 21
30.5390230296
  0
LINE
  8
0
 62
7
  6
CONTINUOUS
 10
369.4574729651
 20
30.5067593403
 11
369.8043479651
 21
30.5390230296
  0
LINE
  8
0
 62
7
  6
CONTINUOUS
 10
359.744972717
 20
30.5067593403
 11
360.1496602445
 21
30.5390230296
  0
LINE
  8
0
 62
7
  6
CONTINUOUS
 10
360.091847717
 20
30.668077795
 11
359.6871602721
 21
30.6358140973
  0
LINE
  8
0
 62
7
  6
CONTINUOUS
 10
363.9652852445
 20
31.0552420547
 11
364.6012229651
 21
31.0552420547
  0
LINE
  8
0
 62
7
  6
CONTINUOUS
 10
364.6012229651
 20
31.1842968456
 11
363.9652852445
 21
31.1842968456
  0
LINE
  8
0
 62
7
  6
CONTINUOUS
 10
360.3230977445
 20
31.216560532
 11
360.6121602997
 21
31.216560532
  0
LINE
  8
0
 62
7
  6
CONTINUOUS
 10
363.1559103548
 20
31.2810879048
 11
363.4449727445
 21
31.2810879048
  0
LINE
  8
0
 62
7
  6
CONTINUOUS
 10
369.8621602445
 20
31.2810879048
 11
370.1512223035
 21
31.2810879048
  0
LINE
  8
0
 62
7
  6
CONTINUOUS
 10
363.8496603548
 20
31.4101426505
 11
364.1965353548
 21
31.4101426505
  0
LINE
  8
0
 62
7
  6
CONTINUOUS
 10
368.9949727445
 20
31.4101426505
 11
369.3418477445
 21
31.4101426505
  0
LINE
  8
0
 62
7
  6
CONTINUOUS
 10
369.3418477445
 20
31.5391973962
 11
368.9949727445
 21
31.5391973962
  0
LINE
  8
0
 62
7
  6
CONTINUOUS
 10
367.2605977445
 20
31.5391973962
 11
367.0293479651
 21
31.5391973962
  0
LINE
  8
0
 62
7
  6
CONTINUOUS
 10
366.5090354651
 20
31.5391973962
 11
366.2199727445
 21
31.5391973962
  0
LINE
  8
0
 62
7
  6
CONTINUOUS
 10
365.757472524
 20
31.5391973962
 11
365.4684104651
 21
31.5391973962
  0
LINE
  8
0
 62
7
  6
CONTINUOUS
 10
364.1965353548
 20
31.5391973962
 11
363.8496603548
 21
31.5391973962
  0
LINE
  8
0
 62
7
  6
CONTINUOUS
 10
362.1152853548
 20
31.5391973962
 11
361.8840352445
 21
31.5391973962
  0
LINE
  8
0
 62
7
  6
CONTINUOUS
 10
365.4684104651
 20
31.8618343508
 11
365.757472524
 21
31.8618343508
  0
LINE
  8
0
 62
7
  6
CONTINUOUS
 10
365.757472524
 20
32.0231527829
 11
365.4684104651
 21
32.0231527829
  0
LINE
  8
0
 62
7
  6
CONTINUOUS
 10
361.3637227445
 20
32.0231527829
 11
361.0746601894
 21
32.0231527829
  0
LINE
  8
0
 62
7
  6
CONTINUOUS
 10
360.4015045068
 20
32.3100380288
 11
360.8140758554
 21
32.3100380288
  0
LINE
  8
0
 62
7
  6
CONTINUOUS
 10
362.0408487691
 20
32.3100380288
 11
363.4342913921
 21
32.3100380288
  0
LINE
  8
0
 62
7
  6
CONTINUOUS
 10
363.7621602445
 20
32.3100380288
 11
365.1556028675
 21
32.3100380288
  0
LINE
  8
0
 62
7
  6
CONTINUOUS
 10
367.0408487691
 20
32.3100380288
 11
368.4342913921
 21
32.3100380288
  0
LINE
  8
0
 62
7
  6
CONTINUOUS
 10
368.7621602445
 20
32.3100380288
 11
370.1556028675
 21
32.3100380288
  0
LINE
  8
0
 62
7
  6
CONTINUOUS
 10
366.798097524
 20
31.5069337098
 11
366.624660024
 21
31.4424063369
  0
LINE
  8
0
 62
7
  6
CONTINUOUS
 10
364.369972524
 20
30.5390230296
 11
364.543410024
 21
30.6035504109
  0
LINE
  8
0
 62
7
  6
CONTINUOUS
 10
369.8043479651
 20
30.5390230296
 11
370.0355977445
 21
30.6035504109
  0
LINE
  8
0
 62
7
  6
CONTINUOUS
 10
369.8043479651
 20
30.7003414814
 11
369.6887227445
 21
30.668077795
  0
LINE
  8
0
 62
7
  6
CONTINUOUS
 10
368.7637229651
 20
31.3778789641
 11
368.9949727445
 21
31.4101426505
  0
LINE
  8
0
 62
7
  6
CONTINUOUS
 10
366.798097524
 20
31.3778789641
 11
367.0293479651
 21
31.4101426505
  0
LINE
  8
0
 62
7
  6
CONTINUOUS
 10
363.7340351343
 20
31.0229783683
 11
363.9652852445
 21
31.0552420547
  0
LINE
  8
0
 62
7
  6
CONTINUOUS
 10
367.0293479651
 20
31.5391973962
 11
366.798097524
 21
31.5069337098
  0
LINE
  8
0
 62
7
  6
CONTINUOUS
 10
363.6184102445
 20
31.3778789641
 11
363.8496603548
 21
31.4101426505
  0
LINE
  8
0
 62
7
  6
CONTINUOUS
 10
368.9949727445
 20
31.5391973962
 11
368.6480977445
 21
31.5069337098
  0
LINE
  8
0
 62
7
  6
CONTINUOUS
 10
363.9652852445
 20
31.1842968456
 11
363.6184102445
 21
31.1520331591
  0
LINE
  8
0
 62
7
  6
CONTINUOUS
 10
359.744972717
 20
31.5391973962
 11
359.3980977583
 21
31.5069337098
  0
LINE
  8
0
 62
7
  6
CONTINUOUS
 10
363.8496603548
 20
31.5391973962
 11
363.4449727445
 21
31.5069337098
  0
LINE
  8
0
 62
7
  6
CONTINUOUS
 10
361.221176638
 20
33.4575790124
 11
360.565438933
 21
33.4575790124
  0
LINE
  8
0
 62
7
  6
CONTINUOUS
 10
366.624660024
 20
31.3133515913
 11
366.798097524
 21
31.3778789641
  0
LINE
  8
0
 62
7
  6
CONTINUOUS
 10
368.6480977445
 20
31.3456152777
 11
368.7637229651
 21
31.3778789641
  0
LINE
  8
0
 62
7
  6
CONTINUOUS
 10
368.6480977445
 20
31.5069337098
 11
368.4168479651
 21
31.4424063369
  0
LINE
  8
0
 62
7
  6
CONTINUOUS
 10
364.369972524
 20
30.7003414814
 11
364.0809101343
 21
30.6358140973
  0
LINE
  8
0
 62
7
  6
CONTINUOUS
 10
361.6527851343
 20
31.3778789641
 11
361.8840352445
 21
31.4101426505
  0
LINE
  8
0
 62
7
  6
CONTINUOUS
 10
361.8840352445
 20
31.5391973962
 11
361.6527851343
 21
31.5069337098
  0
LINE
  8
0
 62
7
  6
CONTINUOUS
 10
359.4559102445
 20
31.3778789641
 11
359.6871602721
 21
31.4101426505
  0
LINE
  8
0
 62
7
  6
CONTINUOUS
 10
365.9752749986
 20
34.9329888485
 11
366.6310127035
 21
34.9329888485
  0
LINE
  8
0
 62
7
  6
CONTINUOUS
 10
363.6184102445
 20
30.9907146818
 11
363.7340351343
 21
31.0229783683
  0
LINE
  8
0
 62
7
  6
CONTINUOUS
 10
363.6184102445
 20
31.1520331591
 11
363.3871601343
 21
31.0875057863
  0
LINE
  8
0
 62
7
  6
CONTINUOUS
 10
363.5027853548
 20
31.3456152777
 11
363.6184102445
 21
31.3778789641
  0
LINE
  8
0
 62
7
  6
CONTINUOUS
 10
360.1496602445
 20
30.5390230296
 11
360.3809101894
 21
30.6035504109
  0
LINE
  8
0
 62
7
  6
CONTINUOUS
 10
363.4449727445
 20
31.5069337098
 11
363.3293478548
 21
31.4746700234
  0
LINE
  8
0
 62
7
  6
CONTINUOUS
 10
359.3980977583
 20
31.5069337098
 11
359.2246602583
 21
31.4746700234
  0
LINE
  8
0
 62
7
  6
CONTINUOUS
 10
370.1556028675
 20
36.0805298321
 11
368.7621602445
 21
36.0805298321
  0
LINE
  8
0
 62
7
  6
CONTINUOUS
 10
366.7949471298
 20
36.0805298321
 11
366.3823757812
 21
36.0805298321
  0
LINE
  8
0
 62
7
  6
CONTINUOUS
 10
365.1556028675
 20
36.0805298321
 11
363.7621602445
 21
36.0805298321
  0
LINE
  8
0
 62
7
  6
CONTINUOUS
 10
363.4342913921
 20
36.0805298321
 11
362.0408487691
 21
36.0805298321
  0
LINE
  8
0
 62
7
  6
CONTINUOUS
 10
360.1556028675
 20
36.0805298321
 11
358.7621602445
 21
36.0805298321
  0
LINE
  8
0
 62
7
  6
CONTINUOUS
 10
359.3402852307
 20
31.3456152777
 11
359.4559102445
 21
31.3778789641
  0
CIRCLE
  8
0
 62
7
  6
CONTINUOUS
 10
369.458881556
 20
38.4165954059
 40
2.0901639344
  0
ARC
  8
0
 62
7
  6
CONTINUOUS
 10
360.4015045068
 20
33.9493822911
 40
1.6393442623
 50
180.0
 51
270.0
  0
ARC
  8
0
 62
7
  6
CONTINUOUS
 10
366.7949471298
 20
34.4411855698
 40
1.6393442623
 50
0.0
 51
90.0
  0
ARC
  8
0
 62
7
  6
CONTINUOUS
 10
360.8140758554
 20
33.7854478649
 40
1.4754098361
 50
270.0
 51
326.2510114041
  0
ARC
  8
0
 62
7
  6
CONTINUOUS
 10
366.3823757812
 20
34.6051199961
 40
1.4754098361
 50
90.0
 51
146.2510114041
  0
ARC
  8
0
 62
7
  6
CONTINUOUS
 10
361.221176638
 20
34.2772511436
 40
0.8196721311
 50
270.0
 51
360.0
  0
ARC
  8
0
 62
7
  6
CONTINUOUS
 10
365.9752749986
 20
34.1133167174
 40
0.8196721311
 50
90.0
 51
180.0
  0
ARC
  8
0
 62
7
  6
CONTINUOUS
 10
360.565438933
 20
33.867415078
 40
0.4098360656
 50
180.0
 51
270.0
  0
ARC
  8
0
 62
7
  6
CONTINUOUS
 10
366.6310127035
 20
34.5231527829
 40
0.4098360656
 50
0.0
 51
90.0
  0
SOLID
  8
0
 62
7
  6
CONTINUOUS
 10
365.4684104651
 20
31.8618347111
 11
365.4684104651
 21
32.0231531947
 12
365.757472524
 22
31.8618347111
 13
365.757472524
 23
32.0231531947
  0
SOLID
  8
0
 62
7
  6
CONTINUOUS
 10
359.744972717
 20
31.5391977439
 11
360.1496602445
 21
31.5069333244
 12
359.3980977583
 22
31.5069333244
 13
359.3980977583
 23
31.5069333244
  0
SOLID
  8
0
 62
7
  6
CONTINUOUS
 10
359.2246602583
 20
31.4746706537
 11
359.3980977583
 21
31.5069333244
 12
360.1496602445
 22
31.5069333244
 13
360.1496602445
 23
31.5069333244
  0
SOLID
  8
0
 62
7
  6
CONTINUOUS
 10
360.1496602445
 20
31.5069333244
 11
360.3809101894
 21
31.4424063504
 12
359.2246602583
 22
31.4746706537
 13
359.2246602583
 23
31.4746706537
  0
SOLID
  8
0
 62
7
  6
CONTINUOUS
 10
359.0512227376
 20
31.4101419116
 11
359.2246602583
 21
31.4746706537
 12
360.3809101894
 22
31.4424063504
 13
360.3809101894
 23
31.4424063504
  0
SOLID
  8
0
 62
7
  6
CONTINUOUS
 10
359.0512227376
 20
31.4101419116
 11
360.3809101894
 21
31.4424063504
 12
359.6871602721
 22
31.4101419116
 13
359.6871602721
 23
31.4101419116
  0
SOLID
  8
0
 62
7
  6
CONTINUOUS
 10
359.6871602721
 20
31.4101419116
 11
360.3809101894
 21
31.4424063504
 12
360.091847717
 22
31.3778792603
 13
360.091847717
 23
31.3778792603
  0
SOLID
  8
0
 62
7
  6
CONTINUOUS
 10
360.3809101894
 20
31.4424063504
 11
360.5543476894
 21
31.345614957
 12
360.091847717
 22
31.3778792603
 13
360.091847717
 23
31.3778792603
  0
SOLID
  8
0
 62
7
  6
CONTINUOUS
 10
360.2652852997
 20
31.3133521701
 11
360.091847717
 21
31.3778792603
 12
360.5543476894
 22
31.345614957
 13
360.5543476894
 23
31.345614957
  0
SOLID
  8
0
 62
7
  6
CONTINUOUS
 10
360.2652852997
 20
31.3133521701
 11
360.5543476894
 21
31.345614957
 12
360.3230977445
 22
31.2165606992
 13
360.3230977445
 23
31.2165606992
  0
SOLID
  8
0
 62
7
  6
CONTINUOUS
 10
360.5543476894
 20
31.345614957
 11
360.6121602997
 21
31.2165606992
 12
360.3230977445
 22
31.2165606992
 13
360.3230977445
 23
31.2165606992
  0
SOLID
  8
0
 62
7
  6
CONTINUOUS
 10
361.6527851343
 20
31.5069329918
 11
361.8840352445
 21
31.5391972951
 12
362.1152853548
 22
31.5391972951
 13
362.1152853548
 23
31.5391972951
  0
SOLID
  8
0
 62
7
  6
CONTINUOUS
 10
362.1152853548
 20
31.5391972951
 11
362.2887228548
 21
31.5069329918
 12
361.6527851343
 22
31.5069329918
 13
361.6527851343
 23
31.5069329918
  0
SOLID
  8
0
 62
7
  6
CONTINUOUS
 10
361.4793477997
 20
31.4424059016
 11
361.6527851343
 21
31.5069329918
 12
362.2887228548
 22
31.5069329918
 13
362.2887228548
 23
31.5069329918
  0
SOLID
  8
0
 62
7
  6
CONTINUOUS
 10
362.2887228548
 20
31.5069329918
 11
362.4621603548
 21
31.4424059016
 12
361.4793477997
 22
31.4424059016
 13
361.4793477997
 23
31.4424059016
  0
SOLID
  8
0
 62
7
  6
CONTINUOUS
 10
362.4621603548
 20
31.4424059016
 11
361.8840352445
 21
31.4101420472
 12
361.4793477997
 22
31.4424059016
 13
361.4793477997
 23
31.4424059016
  0
SOLID
  8
0
 62
7
  6
CONTINUOUS
 10
361.3637227445
 20
31.3778788115
 11
361.4793477997
 21
31.4424059016
 12
361.8840352445
 22
31.4101420472
 13
361.8840352445
 23
31.4101420472
  0
SOLID
  8
0
 62
7
  6
CONTINUOUS
 10
361.8840352445
 20
31.4101420472
 11
361.6527851343
 21
31.3778788115
 12
361.3637227445
 22
31.3778788115
 13
361.3637227445
 23
31.3778788115
  0
SOLID
  8
0
 62
7
  6
CONTINUOUS
 10
361.8840352445
 20
31.4101420472
 11
362.4621603548
 21
31.4424059016
 12
362.1152853548
 22
31.3778788115
 13
362.1152853548
 23
31.3778788115
  0
SOLID
  8
0
 62
7
  6
CONTINUOUS
 10
362.4621603548
 20
31.4424059016
 11
362.5777852445
 21
31.3778788115
 12
362.1152853548
 22
31.3778788115
 13
362.1152853548
 23
31.3778788115
  0
SOLID
  8
0
 62
7
  6
CONTINUOUS
 10
362.2309102445
 20
31.345614957
 11
362.1152853548
 21
31.3778788115
 12
362.5777852445
 22
31.3778788115
 13
362.5777852445
 23
31.3778788115
  0
SOLID
  8
0
 62
7
  6
CONTINUOUS
 10
362.5777852445
 20
31.3778788115
 11
362.6355978548
 21
31.3133517213
 12
362.2309102445
 22
31.345614957
 13
362.2309102445
 23
31.345614957
  0
SOLID
  8
0
 62
7
  6
CONTINUOUS
 10
362.3465351343
 20
31.2810878668
 11
362.2309102445
 21
31.345614957
 12
362.6355978548
 22
31.3133517213
 13
362.6355978548
 23
31.3133517213
  0
SOLID
  8
0
 62
7
  6
CONTINUOUS
 10
362.3465351343
 20
31.2810878668
 11
362.6355978548
 21
31.3133517213
 12
362.4043477445
 22
31.1520332377
 13
362.4043477445
 23
31.1520332377
  0
SOLID
  8
0
 62
7
  6
CONTINUOUS
 10
362.6355978548
 20
31.3133517213
 11
362.6934101343
 21
31.1520332377
 12
362.4043477445
 22
31.1520332377
 13
362.4043477445
 23
31.1520332377
  0
SOLID
  8
0
 62
7
  6
CONTINUOUS
 10
361.6527851343
 20
31.3778788115
 11
361.4793477997
 21
31.3133517213
 12
361.3637227445
 22
31.3778788115
 13
361.3637227445
 23
31.3778788115
  0
SOLID
  8
0
 62
7
  6
CONTINUOUS
 10
361.4793477997
 20
31.3133517213
 11
361.3637227445
 21
31.2488235635
 12
361.3637227445
 22
31.3778788115
 13
361.3637227445
 23
31.3778788115
  0
SOLID
  8
0
 62
7
  6
CONTINUOUS
 10
361.3637227445
 20
31.2488235635
 11
361.0746601894
 21
30.5067593033
 12
361.3637227445
 22
31.3778788115
 13
361.3637227445
 23
31.3778788115
  0
SOLID
  8
0
 62
7
  6
CONTINUOUS
 10
361.3637227445
 20
31.3778788115
 11
361.0746601894
 21
30.5067593033
 12
361.3637227445
 22
32.0231527459
 13
361.3637227445
 23
32.0231527459
  0
SOLID
  8
0
 62
7
  6
CONTINUOUS
 10
361.0746601894
 20
30.5067593033
 11
361.0746601894
 21
32.0231527459
 12
361.3637227445
 22
32.0231527459
 13
361.3637227445
 23
32.0231527459
  0
SOLID
  8
0
 62
7
  6
CONTINUOUS
 10
361.3637227445
 20
31.2488235635
 11
361.3637227445
 21
30.5067593033
 12
361.0746601894
 22
30.5067593033
 13
361.0746601894
 23
30.5067593033
  0
SOLID
  8
0
 62
7
  6
CONTINUOUS
 10
362.4043477445
 20
30.5067593033
 11
362.4043477445
 21
31.1520332377
 12
362.6934101343
 22
31.1520332377
 13
362.6934101343
 23
31.1520332377
  0
SOLID
  8
0
 62
7
  6
CONTINUOUS
 10
362.6934101343
 20
31.1520332377
 11
362.6934101343
 21
30.5067593033
 12
362.4043477445
 22
30.5067593033
 13
362.4043477445
 23
30.5067593033
  0
SOLID
  8
0
 62
7
  6
CONTINUOUS
 10
363.4449727445
 20
31.506933758
 11
363.8496603548
 21
31.5391977507
 12
364.1965353548
 22
31.5391977507
 13
364.1965353548
 23
31.5391977507
  0
SOLID
  8
0
 62
7
  6
CONTINUOUS
 10
364.1965353548
 20
31.5391977507
 11
364.543410024
 21
31.506933758
 12
363.4449727445
 22
31.506933758
 13
363.4449727445
 23
31.506933758
  0
SOLID
  8
0
 62
7
  6
CONTINUOUS
 10
363.3293478548
 20
31.4746706537
 11
363.4449727445
 21
31.506933758
 12
364.543410024
 22
31.506933758
 13
364.543410024
 23
31.506933758
  0
SOLID
  8
0
 62
7
  6
CONTINUOUS
 10
364.543410024
 20
31.506933758
 11
364.716847524
 21
31.4424063504
 12
363.3293478548
 22
31.4746706537
 13
363.3293478548
 23
31.4746706537
  0
SOLID
  8
0
 62
7
  6
CONTINUOUS
 10
363.2137226343
 20
31.4101417797
 11
363.3293478548
 21
31.4746706537
 12
364.716847524
 22
31.4424063504
 13
364.716847524
 23
31.4424063504
  0
SOLID
  8
0
 62
7
  6
CONTINUOUS
 10
363.2137226343
 20
31.4101417797
 11
364.716847524
 21
31.4424063504
 12
363.8496603548
 22
31.4101417797
 13
363.8496603548
 23
31.4101417797
  0
SOLID
  8
0
 62
7
  6
CONTINUOUS
 10
363.8496603548
 20
31.4101417797
 11
364.716847524
 21
31.4424063504
 12
364.1965353548
 22
31.4101417797
 13
364.1965353548
 23
31.4101417797
  0
SOLID
  8
0
 62
7
  6
CONTINUOUS
 10
364.1965353548
 20
31.4101417797
 11
364.716847524
 21
31.4424063504
 12
364.4277854651
 22
31.3778793357
 13
364.4277854651
 23
31.3778793357
  0
SOLID
  8
0
 62
7
  6
CONTINUOUS
 10
364.716847524
 20
31.4424063504
 11
364.8324727445
 21
31.3778793357
 12
364.4277854651
 22
31.3778793357
 13
364.4277854651
 23
31.3778793357
  0
SOLID
  8
0
 62
7
  6
CONTINUOUS
 10
363.1559103548
 20
31.3456153429
 11
363.2137226343
 21
31.4101417797
 12
363.8496603548
 22
31.4101417797
 13
363.8496603548
 23
31.4101417797
  0
SOLID
  8
0
 62
7
  6
CONTINUOUS
 10
364.543410024
 20
31.3456153429
 11
364.4277854651
 21
31.3778793357
 12
364.8324727445
 22
31.3778793357
 13
364.8324727445
 23
31.3778793357
  0
SOLID
  8
0
 62
7
  6
CONTINUOUS
 10
364.543410024
 20
31.3456153429
 11
364.8324727445
 21
31.3778793357
 12
364.6012229651
 22
31.2810881318
 13
364.6012229651
 23
31.2810881318
  0
SOLID
  8
0
 62
7
  6
CONTINUOUS
 10
364.8324727445
 20
31.3778793357
 11
364.890285024
 21
31.2810881318
 12
364.6012229651
 22
31.2810881318
 13
364.6012229651
 23
31.2810881318
  0
SOLID
  8
0
 62
7
  6
CONTINUOUS
 10
364.6012229651
 20
31.1842964734
 11
364.6012229651
 21
31.2810881318
 12
364.890285024
 22
31.2810881318
 13
364.890285024
 23
31.2810881318
  0
SOLID
  8
0
 62
7
  6
CONTINUOUS
 10
364.6012229651
 20
31.1842964734
 11
364.890285024
 21
31.2810881318
 12
364.6012229651
 22
31.0552422931
 13
364.6012229651
 23
31.0552422931
  0
SOLID
  8
0
 62
7
  6
CONTINUOUS
 10
364.6012229651
 20
31.0552422931
 11
364.890285024
 21
31.2810881318
 12
364.6012229651
 22
30.8616599362
 13
364.6012229651
 23
30.8616599362
  0
SOLID
  8
0
 62
7
  6
CONTINUOUS
 10
364.890285024
 20
31.2810881318
 11
364.890285024
 21
30.7648681127
 12
364.6012229651
 22
30.8616599362
 13
364.6012229651
 23
30.8616599362
  0
SOLID
  8
0
 62
7
  6
CONTINUOUS
 10
366.798097524
 20
31.5069339419
 11
367.0293479651
 21
31.5391976292
 12
367.2605977445
 22
31.5391976292
 13
367.2605977445
 23
31.5391976292
  0
SOLID
  8
0
 62
7
  6
CONTINUOUS
 10
367.2605977445
 20
31.5391976292
 11
367.4340352445
 21
31.5069339419
 12
366.798097524
 22
31.5069339419
 13
366.798097524
 23
31.5069339419
  0
SOLID
  8
0
 62
7
  6
CONTINUOUS
 10
366.624660024
 20
31.4424065674
 11
366.798097524
 21
31.5069339419
 12
367.4340352445
 22
31.5069339419
 13
367.4340352445
 23
31.5069339419
  0
SOLID
  8
0
 62
7
  6
CONTINUOUS
 10
367.4340352445
 20
31.5069339419
 11
367.6074727445
 21
31.4424065674
 12
366.624660024
 22
31.4424065674
 13
366.624660024
 23
31.4424065674
  0
SOLID
  8
0
 62
7
  6
CONTINUOUS
 10
367.6074727445
 20
31.4424065674
 11
367.0293479651
 21
31.4101420472
 12
366.624660024
 22
31.4424065674
 13
366.624660024
 23
31.4424065674
  0
SOLID
  8
0
 62
7
  6
CONTINUOUS
 10
366.5090354651
 20
31.377879193
 11
366.624660024
 21
31.4424065674
 12
367.0293479651
 22
31.4101420472
 13
367.0293479651
 23
31.4101420472
  0
SOLID
  8
0
 62
7
  6
CONTINUOUS
 10
367.0293479651
 20
31.4101420472
 11
366.798097524
 21
31.377879193
 12
366.5090354651
 22
31.377879193
 13
366.5090354651
 23
31.377879193
  0
SOLID
  8
0
 62
7
  6
CONTINUOUS
 10
367.0293479651
 20
31.4101420472
 11
367.6074727445
 21
31.4424065674
 12
367.2605977445
 22
31.377879193
 13
367.2605977445
 23
31.377879193
  0
SOLID
  8
0
 62
7
  6
CONTINUOUS
 10
367.6074727445
 20
31.4424065674
 11
367.7230979651
 21
31.377879193
 12
367.2605977445
 22
31.377879193
 13
367.2605977445
 23
31.377879193
  0
SOLID
  8
0
 62
7
  6
CONTINUOUS
 10
367.3762229651
 20
31.345614957
 11
367.2605977445
 21
31.377879193
 12
367.7230979651
 22
31.377879193
 13
367.7230979651
 23
31.377879193
  0
SOLID
  8
0
 62
7
  6
CONTINUOUS
 10
367.3762229651
 20
31.345614957
 11
367.7230979651
 21
31.377879193
 12
367.491847524
 22
31.2810881312
 13
367.491847524
 23
31.2810881312
  0
SOLID
  8
0
 62
7
  6
CONTINUOUS
 10
367.7230979651
 20
31.377879193
 11
367.7809102445
 21
31.2810881312
 12
367.491847524
 22
31.2810881312
 13
367.491847524
 23
31.2810881312
  0
SOLID
  8
0
 62
7
  6
CONTINUOUS
 10
367.5496604651
 20
31.119769695
 11
367.491847524
 21
31.2810881312
 12
367.7809102445
 22
31.2810881312
 13
367.7809102445
 23
31.2810881312
  0
SOLID
  8
0
 62
7
  6
CONTINUOUS
 10
367.7809102445
 20
31.2810881312
 11
367.838722524
 21
31.119769695
 12
367.5496604651
 22
31.119769695
 13
367.5496604651
 23
31.119769695
  0
SOLID
  8
0
 62
7
  6
CONTINUOUS
 10
366.798097524
 20
31.377879193
 11
366.624660024
 21
31.3133521701
 12
366.5090354651
 22
31.377879193
 13
366.5090354651
 23
31.377879193
  0
SOLID
  8
0
 62
7
  6
CONTINUOUS
 10
366.624660024
 20
31.3133521701
 11
366.5090354651
 21
31.2488235635
 12
366.5090354651
 22
31.377879193
 13
366.5090354651
 23
31.377879193
  0
SOLID
  8
0
 62
7
  6
CONTINUOUS
 10
366.5090354651
 20
31.2488235635
 11
366.2199727445
 21
30.5067596374
 12
366.5090354651
 22
31.377879193
 13
366.5090354651
 23
31.377879193
  0
SOLID
  8
0
 62
7
  6
CONTINUOUS
 10
366.5090354651
 20
31.377879193
 11
366.2199727445
 21
30.5067596374
 12
366.5090354651
 22
31.5391976292
 13
366.5090354651
 23
31.5391976292
  0
SOLID
  8
0
 62
7
  6
CONTINUOUS
 10
366.2199727445
 20
30.5067596374
 11
366.2199727445
 21
31.5391976292
 12
366.5090354651
 22
31.5391976292
 13
366.5090354651
 23
31.5391976292
  0
SOLID
  8
0
 62
7
  6
CONTINUOUS
 10
366.5090354651
 20
31.2488235635
 11
366.5090354651
 21
30.5067596374
 12
366.2199727445
 22
30.5067596374
 13
366.2199727445
 23
30.5067596374
  0
SOLID
  8
0
 62
7
  6
CONTINUOUS
 10
367.5496604651
 20
30.5067596374
 11
367.5496604651
 21
31.119769695
 12
367.838722524
 22
31.119769695
 13
367.838722524
 23
31.119769695
  0
SOLID
  8
0
 62
7
  6
CONTINUOUS
 10
367.838722524
 20
31.119769695
 11
367.838722524
 21
30.5067596374
 12
367.5496604651
 22
30.5067596374
 13
367.5496604651
 23
30.5067596374
  0
SOLID
  8
0
 62
7
  6
CONTINUOUS
 10
368.6480977445
 20
31.5069334157
 11
368.9949727445
 21
31.539197762
 12
369.3418477445
 22
31.539197762
 13
369.3418477445
 23
31.539197762
  0
SOLID
  8
0
 62
7
  6
CONTINUOUS
 10
369.3418477445
 20
31.539197762
 11
369.6887227445
 21
31.5069334157
 12
368.6480977445
 22
31.5069334157
 13
368.6480977445
 23
31.5069334157
  0
SOLID
  8
0
 62
7
  6
CONTINUOUS
 10
368.4168479651
 20
31.4424063504
 11
368.6480977445
 21
31.5069334157
 12
369.6887227445
 22
31.5069334157
 13
369.6887227445
 23
31.5069334157
  0
SOLID
  8
0
 62
7
  6
CONTINUOUS
 10
368.4168479651
 20
31.4424063504
 11
369.6887227445
 21
31.5069334406
 12
369.8621602445
 22
31.4746706537
 13
369.8621602445
 23
31.4746706537
  0
SOLID
  8
0
 62
7
  6
CONTINUOUS
 10
368.4168479651
 20
31.4424063504
 11
369.8621602445
 21
31.4746706537
 12
368.9949727445
 22
31.4101421267
 13
368.9949727445
 23
31.4101421267
  0
SOLID
  8
0
 62
7
  6
CONTINUOUS
 10
368.9949727445
 20
31.4101421267
 11
369.8621602445
 21
31.4746706537
 12
369.3418477445
 22
31.4101421267
 13
369.3418477445
 23
31.4101421267
  0
SOLID
  8
0
 62
7
  6
CONTINUOUS
 10
369.8621602445
 20
31.4746706537
 11
370.0355977445
 21
31.4101421267
 12
369.3418477445
 22
31.4101421267
 13
369.3418477445
 23
31.4101421267
  0
SOLID
  8
0
 62
7
  6
CONTINUOUS
 10
369.6887227445
 20
31.3778792603
 11
369.3418477445
 21
31.4101421267
 12
370.0355977445
 22
31.4101421267
 13
370.0355977445
 23
31.4101421267
  0
SOLID
  8
0
 62
7
  6
CONTINUOUS
 10
368.3012227445
 20
31.3456148845
 11
368.4168479651
 21
31.4424063504
 12
368.9949727445
 22
31.4101421267
 13
368.9949727445
 23
31.4101421267
  0
SOLID
  8
0
 62
7
  6
CONTINUOUS
 10
369.6887227445
 20
31.3778792603
 11
370.0355977445
 21
31.4101421267
 12
369.8043479651
 22
31.3456148845
 13
369.8043479651
 23
31.3456148845
  0
SOLID
  8
0
 62
7
  6
CONTINUOUS
 10
369.8043479651
 20
31.3456148845
 11
370.0355977445
 21
31.4101421267
 12
369.8621602445
 22
31.281087868
 13
369.8621602445
 23
31.281087868
  0
SOLID
  8
0
 62
7
  6
CONTINUOUS
 10
370.0355977445
 20
31.4101421267
 11
370.1512223035
 21
31.281087868
 12
369.8621602445
 22
31.281087868
 13
369.8621602445
 23
31.281087868
  0
SOLID
  8
0
 62
7
  6
CONTINUOUS
 10
359.4559102445
 20
31.3778792603
 11
358.9355977445
 21
31.3456148963
 12
359.6871602721
 22
31.4101421155
 13
359.6871602721
 23
31.4101421155
  0
SOLID
  8
0
 62
7
  6
CONTINUOUS
 10
358.9355977445
 20
31.3456148963
 11
359.0512227376
 21
31.4101421155
 12
359.6871602721
 22
31.4101421155
 13
359.6871602721
 23
31.4101421155
  0
SOLID
  8
0
 62
7
  6
CONTINUOUS
 10
359.4559102445
 20
31.3778792603
 11
359.3402852307
 21
31.3456148963
 12
358.9355977445
 22
31.3456148963
 13
358.9355977445
 23
31.3456148963
  0
SOLID
  8
0
 62
7
  6
CONTINUOUS
 10
358.8199727462
 20
31.2165607767
 11
358.9355977445
 21
31.3456148963
 12
359.3402852307
 22
31.3456148963
 13
359.3402852307
 23
31.3456148963
  0
SOLID
  8
0
 62
7
  6
CONTINUOUS
 10
363.1559103548
 20
31.3456149608
 11
363.8496603548
 21
31.4101420472
 12
363.6184102445
 22
31.3778792603
 13
363.6184102445
 23
31.3778792603
  0
SOLID
  8
0
 62
7
  6
CONTINUOUS
 10
363.6184102445
 20
31.3778792603
 11
363.5027853548
 21
31.3456149608
 12
363.1559103548
 22
31.3456149608
 13
363.1559103548
 23
31.3456149608
  0
SOLID
  8
0
 62
7
  6
CONTINUOUS
 10
363.1559103548
 20
31.2810878707
 11
363.1559103548
 21
31.3456149608
 12
363.5027853548
 22
31.3456149608
 13
363.5027853548
 23
31.3456149608
  0
SOLID
  8
0
 62
7
  6
CONTINUOUS
 10
363.5027853548
 20
31.3456149608
 11
363.4449727445
 21
31.2810878707
 12
363.1559103548
 22
31.2810878707
 13
363.1559103548
 23
31.2810878707
  0
SOLID
  8
0
 62
7
  6
CONTINUOUS
 10
368.3012227445
 20
31.3456149608
 11
368.9949727445
 21
31.4101420472
 12
368.7637229651
 22
31.3778792603
 13
368.7637229651
 23
31.3778792603
  0
SOLID
  8
0
 62
7
  6
CONTINUOUS
 10
368.7637229651
 20
31.3778792603
 11
368.6480977445
 21
31.3456149608
 12
368.3012227445
 22
31.3456149608
 13
368.3012227445
 23
31.3456149608
  0
SOLID
  8
0
 62
7
  6
CONTINUOUS
 10
368.3012227445
 20
31.2810878707
 11
368.3012227445
 21
31.3456149608
 12
368.6480977445
 22
31.3456149608
 13
368.6480977445
 23
31.3456149608
  0
SOLID
  8
0
 62
7
  6
CONTINUOUS
 10
368.6480977445
 20
31.3456149608
 11
368.5902854651
 21
31.2810878707
 12
368.3012227445
 22
31.2810878707
 13
368.3012227445
 23
31.2810878707
  0
SOLID
  8
0
 62
7
  6
CONTINUOUS
 10
368.4168479651
 20
31.1520336865
 11
368.3012227445
 21
31.2810878707
 12
368.5902854651
 22
31.2810878707
 13
368.5902854651
 23
31.2810878707
  0
SOLID
  8
0
 62
7
  6
CONTINUOUS
 10
358.8199727462
 20
31.2165607767
 11
359.3402852307
 21
31.345614957
 12
359.1668477307
 22
31.2488235635
 13
359.1668477307
 23
31.2488235635
  0
SOLID
  8
0
 62
7
  6
CONTINUOUS
 10
359.1668477307
 20
31.2488235635
 11
359.1090352445
 21
31.1842964734
 12
358.8199727462
 22
31.2165607767
 13
358.8199727462
 23
31.2165607767
  0
SOLID
  8
0
 62
7
  6
CONTINUOUS
 10
358.7621602445
 20
31.0229779898
 11
358.8199727462
 21
31.2165607767
 12
359.1090352445
 22
31.1842964734
 13
359.1090352445
 23
31.1842964734
  0
SOLID
  8
0
 62
7
  6
CONTINUOUS
 10
363.6184102445
 20
31.1520336865
 11
363.9652852445
 21
31.1842964611
 12
364.6012229651
 22
31.1842964611
 13
364.6012229651
 23
31.1842964611
  0
SOLID
  8
0
 62
7
  6
CONTINUOUS
 10
363.6184102445
 20
31.1520336865
 11
364.6012229651
 21
31.1842964611
 12
363.3871601343
 22
31.0875057863
 13
363.3871601343
 23
31.0875057863
  0
SOLID
  8
0
 62
7
  6
CONTINUOUS
 10
363.3871601343
 20
31.0875057863
 11
364.6012229651
 21
31.1842964611
 12
363.9652852445
 22
31.0552422808
 13
363.9652852445
 23
31.0552422808
  0
SOLID
  8
0
 62
7
  6
CONTINUOUS
 10
364.6012229651
 20
31.1842964611
 11
364.6012229651
 21
31.0552422808
 12
363.9652852445
 22
31.0552422808
 13
363.9652852445
 23
31.0552422808
  0
SOLID
  8
0
 62
7
  6
CONTINUOUS
 10
368.4168479651
 20
31.1520338754
 11
368.5902854651
 21
31.2810878668
 12
368.6480977445
 22
31.2165607767
 13
368.6480977445
 23
31.2165607767
  0
SOLID
  8
0
 62
7
  6
CONTINUOUS
 10
368.6480977445
 20
31.2165607767
 11
368.8215352445
 21
31.1520338754
 12
368.4168479651
 22
31.1520338754
 13
368.4168479651
 23
31.1520338754
  0
SOLID
  8
0
 62
7
  6
CONTINUOUS
 10
368.6480977445
 20
31.0552422931
 11
368.4168479651
 21
31.1520338754
 12
368.8215352445
 22
31.1520338754
 13
368.8215352445
 23
31.1520338754
  0
SOLID
  8
0
 62
7
  6
CONTINUOUS
 10
368.8215352445
 20
31.1520338754
 11
369.8043479651
 21
30.9907152029
 12
368.6480977445
 22
31.0552422931
 13
368.6480977445
 23
31.0552422931
  0
SOLID
  8
0
 62
7
  6
CONTINUOUS
 10
369.6309104651
 20
30.8939239876
 11
368.6480977445
 21
31.0552422931
 12
369.8043479651
 22
30.9907152029
 13
369.8043479651
 23
30.9907152029
  0
SOLID
  8
0
 62
7
  6
CONTINUOUS
 10
369.8043479651
 20
30.9907152029
 11
370.0355977445
 21
30.8939239876
 12
369.6309104651
 22
30.8939239876
 13
369.6309104651
 23
30.8939239876
  0
SOLID
  8
0
 62
7
  6
CONTINUOUS
 10
369.8043479651
 20
30.8293967193
 11
369.6309104651
 21
30.8939239876
 12
370.0355977445
 22
30.8939239876
 13
370.0355977445
 23
30.8939239876
  0
SOLID
  8
0
 62
7
  6
CONTINUOUS
 10
369.8043479651
 20
30.8293967193
 11
370.0355977445
 21
30.8939239876
 12
369.8621602445
 22
30.7648682694
 13
369.8621602445
 23
30.7648682694
  0
SOLID
  8
0
 62
7
  6
CONTINUOUS
 10
370.0355977445
 20
30.8939239876
 11
370.1512223035
 21
30.7648682694
 12
369.8621602445
 22
30.7648682694
 13
369.8621602445
 23
30.7648682694
  0
SOLID
  8
0
 62
7
  6
CONTINUOUS
 10
369.8043479651
 20
30.7003411846
 11
369.8621602445
 21
30.7648682694
 12
370.1512223035
 22
30.7648682694
 13
370.1512223035
 23
30.7648682694
  0
SOLID
  8
0
 62
7
  6
CONTINUOUS
 10
370.1512223035
 20
30.7648682694
 11
370.1512223035
 21
30.7003411846
 12
369.8043479651
 22
30.7003411846
 13
369.8043479651
 23
30.7003411846
  0
SOLID
  8
0
 62
7
  6
CONTINUOUS
 10
369.6887227445
 20
30.6680782357
 11
369.8043479651
 21
30.7003411846
 12
370.1512223035
 22
30.7003411846
 13
370.1512223035
 23
30.7003411846
  0
SOLID
  8
0
 62
7
  6
CONTINUOUS
 10
369.6887227445
 20
30.6680782357
 11
370.1512223035
 21
30.7003411846
 12
369.4574729651
 22
30.6358140998
 13
369.4574729651
 23
30.6358140998
  0
SOLID
  8
0
 62
7
  6
CONTINUOUS
 10
370.1512223035
 20
30.7003411846
 11
370.0355977445
 21
30.6035511455
 12
369.4574729651
 22
30.6358140998
 13
369.4574729651
 23
30.6358140998
  0
SOLID
  8
0
 62
7
  6
CONTINUOUS
 10
370.0355977445
 20
30.6035511455
 11
368.5902854651
 21
30.5712868422
 12
369.4574729651
 22
30.6358140998
 13
369.4574729651
 23
30.6358140998
  0
SOLID
  8
0
 62
7
  6
CONTINUOUS
 10
369.4574729651
 20
30.6358140998
 11
368.5902854651
 21
30.5712868422
 12
369.1105979651
 22
30.6358140998
 13
369.1105979651
 23
30.6358140998
  0
SOLID
  8
0
 62
7
  6
CONTINUOUS
 10
368.5902854651
 20
30.5712868422
 11
368.4168479651
 21
30.6358140998
 12
369.1105979651
 22
30.6358140998
 13
369.1105979651
 23
30.6358140998
  0
SOLID
  8
0
 62
7
  6
CONTINUOUS
 10
368.5902854651
 20
30.5712868422
 11
370.0355977445
 21
30.6035511455
 12
368.7637229651
 22
30.5390223111
 13
368.7637229651
 23
30.5390223111
  0
SOLID
  8
0
 62
7
  6
CONTINUOUS
 10
370.0355977445
 20
30.6035511455
 11
369.8043479651
 21
30.5390223111
 12
368.7637229651
 22
30.5390223111
 13
368.7637229651
 23
30.5390223111
  0
SOLID
  8
0
 62
7
  6
CONTINUOUS
 10
369.1105979651
 20
30.5067599302
 11
368.7637229651
 21
30.5390223111
 12
369.8043479651
 22
30.5390223111
 13
369.8043479651
 23
30.5390223111
  0
SOLID
  8
0
 62
7
  6
CONTINUOUS
 10
369.8043479651
 20
30.5390223111
 11
369.4574729651
 21
30.5067599302
 12
369.1105979651
 22
30.5067599302
 13
369.1105979651
 23
30.5067599302
  0
SOLID
  8
0
 62
7
  6
CONTINUOUS
 10
358.7621602445
 20
31.0229779898
 11
359.1090352445
 21
31.1842964734
 12
359.0512227376
 22
31.0552422931
 13
359.0512227376
 23
31.0552422931
  0
SOLID
  8
0
 62
7
  6
CONTINUOUS
 10
359.0512227376
 20
31.0552422931
 11
359.0512227376
 21
30.9584509954
 12
358.7621602445
 22
31.0229779898
 13
358.7621602445
 23
31.0229779898
  0
SOLID
  8
0
 62
7
  6
CONTINUOUS
 10
358.8199727462
 20
30.8293967193
 11
358.7621602445
 21
31.0229779898
 12
359.0512227376
 22
30.9584509954
 13
359.0512227376
 23
30.9584509954
  0
SOLID
  8
0
 62
7
  6
CONTINUOUS
 10
359.0512227376
 20
30.9584509954
 11
359.1668477307
 21
30.797132416
 12
358.8199727462
 22
30.8293967193
 13
358.8199727462
 23
30.8293967193
  0
SOLID
  8
0
 62
7
  6
CONTINUOUS
 10
358.9355977445
 20
30.7003413087
 11
358.8199727462
 21
30.8293967193
 12
359.1668477307
 22
30.797132416
 13
359.1668477307
 23
30.797132416
  0
SOLID
  8
0
 62
7
  6
CONTINUOUS
 10
359.1668477307
 20
30.797132416
 11
359.3402852307
 21
30.7003413087
 12
358.9355977445
 22
30.7003413087
 13
358.9355977445
 23
30.7003413087
  0
SOLID
  8
0
 62
7
  6
CONTINUOUS
 10
359.0512227376
 20
30.6358140759
 11
358.9355977445
 21
30.7003413087
 12
359.3402852307
 22
30.7003413087
 13
359.3402852307
 23
30.7003413087
  0
SOLID
  8
0
 62
7
  6
CONTINUOUS
 10
359.3402852307
 20
30.7003413087
 11
359.6871602721
 21
30.6358140759
 12
359.0512227376
 22
30.6358140759
 13
359.0512227376
 23
30.6358140759
  0
SOLID
  8
0
 62
7
  6
CONTINUOUS
 10
359.2246602583
 20
30.5712868422
 11
359.0512227376
 21
30.6358140759
 12
359.6871602721
 22
30.6358140759
 13
359.6871602721
 23
30.6358140759
  0
SOLID
  8
0
 62
7
  6
CONTINUOUS
 10
363.2715352445
 20
31.0229779808
 11
363.3871601343
 21
31.0875057863
 12
363.9652852445
 22
31.0552422931
 13
363.9652852445
 23
31.0552422931
  0
SOLID
  8
0
 62
7
  6
CONTINUOUS
 10
363.9652852445
 20
31.0552422931
 11
363.7340351343
 21
31.0229779808
 12
363.2715352445
 22
31.0229779808
 13
363.2715352445
 23
31.0229779808
  0
SOLID
  8
0
 62
7
  6
CONTINUOUS
 10
363.1559103548
 20
30.8939238094
 11
363.2715352445
 21
31.0229779808
 12
363.7340351343
 22
31.0229779808
 13
363.7340351343
 23
31.0229779808
  0
SOLID
  8
0
 62
7
  6
CONTINUOUS
 10
363.5027853548
 20
30.926187309
 11
363.1559103548
 21
30.8939238094
 12
363.6184102445
 22
30.9907152029
 13
363.6184102445
 23
30.9907152029
  0
SOLID
  8
0
 62
7
  6
CONTINUOUS
 10
363.1559103548
 20
30.8939238094
 11
363.7340351343
 21
31.0229779898
 12
363.6184102445
 22
30.9907152029
 13
363.6184102445
 23
30.9907152029
  0
SOLID
  8
0
 62
7
  6
CONTINUOUS
 10
363.5027853548
 20
30.926187309
 11
363.4449727445
 21
30.8293967193
 12
363.1559103548
 22
30.8939238094
 13
363.1559103548
 23
30.8939238094
  0
SOLID
  8
0
 62
7
  6
CONTINUOUS
 10
363.1559103548
 20
30.797132416
 11
363.1559103548
 21
30.8939238094
 12
363.4449727445
 22
30.8293967193
 13
363.4449727445
 23
30.8293967193
  0
SOLID
  8
0
 62
7
  6
CONTINUOUS
 10
363.4449727445
 20
30.8293967193
 11
363.4449727445
 21
30.7648681127
 12
363.1559103548
 22
30.797132416
 13
363.1559103548
 23
30.797132416
  0
SOLID
  8
0
 62
7
  6
CONTINUOUS
 10
363.2137226343
 20
30.6680782357
 11
363.1559103548
 21
30.797132416
 12
363.4449727445
 22
30.7648681127
 13
363.4449727445
 23
30.7648681127
  0
SOLID
  8
0
 62
7
  6
CONTINUOUS
 10
364.6012229651
 20
30.8616599362
 11
364.890285024
 21
30.7648681127
 12
364.543410024
 22
30.797132416
 13
364.543410024
 23
30.797132416
  0
SOLID
  8
0
 62
7
  6
CONTINUOUS
 10
364.369972524
 20
30.7003410226
 11
364.543410024
 21
30.797132416
 12
364.890285024
 22
30.7648681127
 13
364.890285024
 23
30.7648681127
  0
SOLID
  8
0
 62
7
  6
CONTINUOUS
 10
364.369972524
 20
30.7003410226
 11
364.890285024
 21
30.7648681127
 12
364.6012229651
 22
30.6680782357
 13
364.6012229651
 23
30.6680782357
  0
SOLID
  8
0
 62
7
  6
CONTINUOUS
 10
364.890285024
 20
30.7648681127
 11
364.9480979651
 21
30.6035511455
 12
364.6012229651
 22
30.6680782357
 13
364.6012229651
 23
30.6680782357
  0
SOLID
  8
0
 62
7
  6
CONTINUOUS
 10
364.6590352445
 20
30.5712868422
 11
364.6012229651
 21
30.6680782357
 12
364.9480979651
 22
30.6035511455
 13
364.9480979651
 23
30.6035511455
  0
SOLID
  8
0
 62
7
  6
CONTINUOUS
 10
364.6590352445
 20
30.5712868422
 11
364.9480979651
 21
30.6035511455
 12
364.716847524
 22
30.5067598731
 13
364.716847524
 23
30.5067598731
  0
SOLID
  8
0
 62
7
  6
CONTINUOUS
 10
364.9480979651
 20
30.6035511455
 11
365.0059102445
 21
30.5067598731
 12
364.716847524
 22
30.5067598731
 13
364.716847524
 23
30.5067598731
  0
SOLID
  8
0
 62
7
  6
CONTINUOUS
 10
360.2652852997
 20
30.7326051679
 11
360.3230977445
 21
30.8293966612
 12
360.6121602997
 22
30.8293966612
 13
360.6121602997
 23
30.8293966612
  0
SOLID
  8
0
 62
7
  6
CONTINUOUS
 10
360.6121602997
 20
30.8293966612
 11
360.5543476894
 21
30.7003410226
 12
360.2652852997
 22
30.7326051679
 13
360.2652852997
 23
30.7326051679
  0
SOLID
  8
0
 62
7
  6
CONTINUOUS
 10
360.091847717
 20
30.6680782357
 11
360.2652852997
 21
30.7326051679
 12
360.5543476894
 22
30.7003410226
 13
360.5543476894
 23
30.7003410226
  0
SOLID
  8
0
 62
7
  6
CONTINUOUS
 10
360.091847717
 20
30.6680782357
 11
360.5543476894
 21
30.7003410226
 12
359.6871602721
 22
30.6358139324
 13
359.6871602721
 23
30.6358139324
  0
SOLID
  8
0
 62
7
  6
CONTINUOUS
 10
360.5543476894
 20
30.7003410226
 11
360.3809101894
 21
30.6035511455
 12
359.6871602721
 22
30.6358139324
 13
359.6871602721
 23
30.6358139324
  0
SOLID
  8
0
 62
7
  6
CONTINUOUS
 10
359.2246602583
 20
30.5712868422
 11
359.6871602721
 21
30.6358139324
 12
360.3809101894
 22
30.6035511455
 13
360.3809101894
 23
30.6035511455
  0
SOLID
  8
0
 62
7
  6
CONTINUOUS
 10
359.2246602583
 20
30.5712868422
 11
360.3809101894
 21
30.6035511455
 12
359.3980977583
 22
30.5390224228
 13
359.3980977583
 23
30.5390224228
  0
SOLID
  8
0
 62
7
  6
CONTINUOUS
 10
360.3809101894
 20
30.6035511455
 11
360.1496602445
 21
30.5390224228
 12
359.3980977583
 22
30.5390224228
 13
359.3980977583
 23
30.5390224228
  0
SOLID
  8
0
 62
7
  6
CONTINUOUS
 10
359.744972717
 20
30.5067597521
 11
359.3980977583
 21
30.5390224228
 12
360.1496602445
 22
30.5390224228
 13
360.1496602445
 23
30.5390224228
  0
SOLID
  8
0
 62
7
  6
CONTINUOUS
 10
363.2137226343
 20
30.6680782357
 11
363.4449727445
 21
30.7648681127
 12
363.5027853548
 22
30.7003410226
 13
363.5027853548
 23
30.7003410226
  0
SOLID
  8
0
 62
7
  6
CONTINUOUS
 10
363.5027853548
 20
30.7003410226
 11
363.7340351343
 21
30.6358139324
 12
363.2137226343
 22
30.6680782357
 13
363.2137226343
 23
30.6680782357
  0
SOLID
  8
0
 62
7
  6
CONTINUOUS
 10
363.3871601343
 20
30.5712868422
 11
363.2137226343
 21
30.6680782357
 12
363.7340351343
 22
30.6358139324
 13
363.7340351343
 23
30.6358139324
  0
SOLID
  8
0
 62
7
  6
CONTINUOUS
 10
364.0809101343
 20
30.6358139363
 11
364.369972524
 21
30.7003410226
 12
364.6012229651
 22
30.6680782357
 13
364.6012229651
 23
30.6680782357
  0
SOLID
  8
0
 62
7
  6
CONTINUOUS
 10
364.6012229651
 20
30.6680782357
 11
364.543410024
 21
30.6035511455
 12
364.0809101343
 22
30.6358139363
 13
364.0809101343
 23
30.6358139363
  0
SOLID
  8
0
 62
7
  6
CONTINUOUS
 10
364.543410024
 20
30.6035511455
 11
363.3871601343
 21
30.5712868422
 12
364.0809101343
 22
30.6358139363
 13
364.0809101343
 23
30.6358139363
  0
SOLID
  8
0
 62
7
  6
CONTINUOUS
 10
363.3871601343
 20
30.5712868422
 11
363.7340351343
 21
30.6358139363
 12
364.0809101343
 22
30.6358139363
 13
364.0809101343
 23
30.6358139363
  0
SOLID
  8
0
 62
7
  6
CONTINUOUS
 10
363.3871601343
 20
30.5712868422
 11
364.543410024
 21
30.6035511455
 12
363.5027853548
 22
30.5390225267
 13
363.5027853548
 23
30.5390225267
  0
SOLID
  8
0
 62
7
  6
CONTINUOUS
 10
364.543410024
 20
30.6035511455
 11
364.369972524
 21
30.5390225267
 12
363.5027853548
 22
30.5390225267
 13
363.5027853548
 23
30.5390225267
  0
SOLID
  8
0
 62
7
  6
CONTINUOUS
 10
363.7340351343
 20
30.5067596914
 11
363.5027853548
 21
30.5390225267
 12
364.369972524
 22
30.5390225267
 13
364.369972524
 23
30.5390225267
  0
SOLID
  8
0
 62
7
  6
CONTINUOUS
 10
364.369972524
 20
30.5390225267
 11
364.0809101343
 21
30.5067596914
 12
363.7340351343
 22
30.5067596914
 13
363.7340351343
 23
30.5067596914
  0
SOLID
  8
0
 62
7
  6
CONTINUOUS
 10
368.7637229651
 20
30.6680782357
 11
368.4168479651
 21
30.6358138717
 12
368.6480977445
 22
30.7003410226
 13
368.6480977445
 23
30.7003410226
  0
SOLID
  8
0
 62
7
  6
CONTINUOUS
 10
368.6480977445
 20
30.7003410226
 11
368.4168479651
 21
30.6358138717
 12
368.5902854651
 22
30.7648680521
 13
368.5902854651
 23
30.7648680521
  0
SOLID
  8
0
 62
7
  6
CONTINUOUS
 10
368.4168479651
 20
30.6358138717
 11
368.3012227445
 21
30.7648680521
 12
368.5902854651
 22
30.7648680521
 13
368.5902854651
 23
30.7648680521
  0
SOLID
  8
0
 62
7
  6
CONTINUOUS
 10
368.7637229651
 20
30.6680782357
 11
369.1105979651
 21
30.6358138717
 12
368.4168479651
 22
30.6358138717
 13
368.4168479651
 23
30.6358138717
  0
SOLID
  8
0
 62
7
  6
CONTINUOUS
 10
365.4684104651
 20
30.5067597521
 11
365.4684104651
 21
31.5391977439
 12
365.757472524
 22
30.5067597521
 13
365.757472524
 23
31.5391977439
  0
ENDBLK
  8
0
  6
BYBLOCK
 62
0
  0
BLOCK
  8
0
 62
2
  6
CONTINUOUS
  2
SYMBOL_0_BL0
 70
64
 10
240.8592468615
 20
19.762288695
  0
TEXT
  8
0
 62
7
  6
CONTINUOUS
 10
227.1239507038
 20
19.1357028027
  7
TEXTSTYLE_3
 40
2.7338706658
  1
Ammeraal Beltech
 41
1.0
 51
15.0
 72
0
  0
TEXT
  8
0
 62
7
  6
CONTINUOUS
 10
237.9247515296
 20
16.8621661299
  7
TEXTSTYLE_4
 40
1.0935482663
  1
Innovation & Service in Belting
 41
1.0
 72
0
  0
LINE
  8
0
 62
7
  6
CONTINUOUS
 10
221.0994100525
 20
19.9022961113
 11
221.8775620458
 21
23.5632134089
  0
LINE
  8
0
 62
7
  6
CONTINUOUS
 10
231.9727303357
 20
27.2266073205
 11
222.3653797889
 21
24.1049898993
  0
LINE
  8
0
 62
7
  6
CONTINUOUS
 10
221.3246933848
 20
19.2089453082
 11
228.8317686459
 21
12.4495443822
  0
LINE
  8
0
 62
7
  6
CONTINUOUS
 10
221.5872277955
 20
20.4440726016
 11
232.3954971607
 21
23.9558922005
  0
LINE
  8
0
 62
7
  6
CONTINUOUS
 10
232.3912920235
 20
13.6061036368
 11
223.9458323548
 21
21.2104296785
  0
LINE
  8
0
 62
7
  6
CONTINUOUS
 10
232.9111147433
 20
26.3816822048
 11
231.9345552061
 21
21.7873308023
  0
LINE
  8
0
 62
7
  6
CONTINUOUS
 10
231.2347532584
 20
18.4950214885
 11
230.5483050469
 21
15.2655365641
  0
LINE
  8
0
 62
7
  6
CONTINUOUS
 10
233.5922108419
 20
13.9963058145
 11
234.5484423775
 21
18.4950214885
  0
LINE
  8
0
 62
7
  6
CONTINUOUS
 10
235.2482443252
 20
21.7873308023
 11
235.6924861276
 21
23.8773241617
  0
LINE
  8
0
 62
7
  6
CONTINUOUS
 10
229.5448697213
 20
12.2979700695
 11
233.1043930989
 21
13.4545293241
  0
LINE
  8
0
 62
7
  6
CONTINUOUS
 10
232.685831411
 20
27.0750330078
 11
235.4672027953
 21
24.5706749648
  0
ARC
  8
0
 62
7
  6
CONTINUOUS
 10
222.5906631212
 20
23.4116390962
 40
0.7290321776
 50
108.0
 51
168.0
  0
ARC
  8
0
 62
7
  6
CONTINUOUS
 10
232.198013668
 20
26.5332565175
 40
0.7290321776
 50
348.0
 51
108.0
  0
ARC
  8
0
 62
7
  6
CONTINUOUS
 10
234.9793850522
 20
24.0288984744
 40
0.7290321776
 50
348.0
 51
48.0
  0
ARC
  8
0
 62
7
  6
CONTINUOUS
 10
229.319586389
 20
12.9913208726
 40
0.7290321776
 50
228.0
 51
288.0
  0
ARC
  8
0
 62
7
  6
CONTINUOUS
 10
221.8125111278
 20
19.7507217986
 40
0.7290321776
 50
108.0
 51
228.0
  0
ARC
  8
0
 62
7
  6
CONTINUOUS
 10
232.8791097665
 20
14.1478801272
 40
0.7290321776
 50
228.0
 51
348.0
  0
ENDBLK
  8
0
  6
BYBLOCK
 62
0
  0
ENDSEC
  0
SECTION
  2
ENTITIES
  0
TEXT
  8
0
 62
5
  6
CONTINUOUS
 10
304.937007874
 20
25.636
  7
TEXTSTYLE_2
 40
2.8
  1
Scale :
 41
0.6
 51
0.000019
 72
0
  0
TEXT
  8
0
 62
5
  6
CONTINUOUS
 10
324.937007874
 20
25.636
  7
TEXTSTYLE_2
 40
2.8
  1
Belt type:
 41
0.6
 51
0.000019
 72
0
  0
INSERT
  8
0
 62
2
  6
CONTINUOUS
  2
SYMBOL_0_BL0
 10
240.8592468615
 20
19.762288695
  0
INSERT
  8
0
 62
2
  6
CONTINUOUS
  2
SYMBOL_5_BL1
 10
382.7840918555
 20
35.5067593403
  0
LINE
  8
0
 62
2
  6
CONTINUOUS
 10
218.937007874
 20
30.0
 11
408.937007874
 21
30.0
  0
LINE
  8
0
 62
2
  6
CONTINUOUS
 10
218.937007874
 20
30.0
 11
218.937007874
 21
10.0
  0
LINE
  8
0
 62
2
  6
CONTINUOUS
 10
218.937007874
 20
10.0
 11
408.937007874
 21
10.0
  0
LINE
  8
0
 62
2
  6
CONTINUOUS
 10
303.937007874
 20
30.0
 11
303.937007874
 21
10.0
  0
LINE
  8
0
 62
2
  6
CONTINUOUS
 10
323.937007874
 20
30.0
 11
323.937007874
 21
10.0
  0
LINE
  8
0
 62
2
  6
CONTINUOUS
 10
408.937007874
 20
30.0
 11
408.937007874
 21
10.0
  0
TEXT
  8
0
 62
5
  6
CONTINUOUS
 10
221.937007874
 20
23.303
  7
TEXTSTYLE_5
 40
1.52
  1
                                                                     Ammeraal Beltech Modular A/S
 41
1.0
 72
0
  0
TEXT
  8
0
 62
5
  6
CONTINUOUS
 10
221.937007874
 20
20.595
  7
TEXTSTYLE_5
 40
1.5
  1
                                                                      Hjulmagervej 21, 7100 Vejle,  DK
 41
1.0
 72
0
  0
TEXT
  8
0
 62
5
  6
CONTINUOUS
 10
221.937007874
 20
17.881
  7
TEXTSTYLE_5
 40
1.495
  1
                                                                      tel: 
 41
1.0
 72
0
  0
TEXT
  8
0
 62
5
  6
CONTINUOUS
 10
266.9239544389
 20
17.881
  7
TEXTSTYLE_5
 40
1.51
  1
+45 75723100     fax: +45 75723348
 41
1.0
 72
0
  0
TEXT
  8
0
 62
5
  6
CONTINUOUS
 10
221.937007874
 20
15.177
  7
TEXTSTYLE_5
 40
1.5
  1
                                                                      admin@unichains.dk  www.unichains.com
 41
1.0
 72
0
  0
TEXT
  8
0
 62
5
  6
CONTINUOUS
 10
308.687007874
 20
13.75
  7
TEXTSTYLE_6
 40
5.0
  1
1:1
 41
0.7
 72
1
 11
313.937007874
 21
13.75
  0
TEXT
  8
0
 62
5
  6
CONTINUOUS
 10
326.937007874
 20
13.75
  7
TEXTSTYLE_7
 40
7.5
  1
uni SSB C K750
 41
0.7011904762
 72
0
  0
LINE
  8
0
 62
7
  6
CONTINUOUS
 10
0.0
 20
0.0
 11
0.0
 21
297.0
  0
LINE
  8
0
 62
7
  6
CONTINUOUS
 10
8.937007874
 20
10.0
 11
8.937007874
 21
287.0
  0
LINE
  8
0
 62
7
  6
CONTINUOUS
 10
0.0
 20
0.0
 11
420.0
 21
0.0
  0
LINE
  8
0
 62
7
  6
CONTINUOUS
 10
408.937007874
 20
10.0
 11
8.937007874
 21
10.0
  0
LINE
  8
0
 62
7
  6
CONTINUOUS
 10
218.937007874
 20
30.0
 11
408.937007874
 21
30.0
  0
LINE
  8
0
 62
7
  6
CONTINUOUS
 10
210.0
 20
297.0
 11
210.0
 21
292.0
  0
LINE
  8
0
 62
7
  6
CONTINUOUS
 10
210.0
 20
0.0
 11
210.0
 21
5.0
  0
LINE
  8
0
 62
7
  6
CONTINUOUS
 10
8.937007874
 20
287.0
 11
408.937007874
 21
287.0
  0
LINE
  8
0
 62
7
  6
CONTINUOUS
 10
0.0
 20
297.0
 11
420.0
 21
297.0
  0
LINE
  8
0
 62
7
  6
CONTINUOUS
 10
408.937007874
 20
287.0
 11
408.937007874
 21
10.0
  0
LINE
  8
0
 62
7
  6
CONTINUOUS
 10
420.0
 20
0.0
 11
420.0
 21
297.0
  0
LINE
  8
4_SURFACE
 62
7
  6
CONTINUOUS
 10
98.1451596316
 20
103.9008478938
 11
98.1713068283
 21
103.8107692626
  0
LINE
  8
4_SURFACE
 62
7
  6
CONTINUOUS
 10
98.136296027
 20
103.9942240225
 11
98.1451596316
 21
103.9008478938
  0
LINE
  8
4_SURFACE
 62
7
  6
CONTINUOUS
 10
98.1362955439
 20
142.5945730654
 11
98.1362955439
 21
103.9945732716
  0
LINE
  8
4_SURFACE
 62
7
  6
CONTINUOUS
 10
98.1713068283
 20
103.8107692626
 11
98.2138175236
 21
103.7271589023
  0
LINE
  8
4_SURFACE
 62
7
  6
CONTINUOUS
 10
107.5942732755
 20
104.6979341876
 11
107.6194445197
 21
103.9771240629
  0
LINE
  8
4_SURFACE
 62
7
  6
CONTINUOUS
 10
101.6783176981
 20
104.6979309165
 11
101.6531465681
 21
103.9771240629
  0
LINE
  8
4_SURFACE
 62
7
  6
CONTINUOUS
 10
98.2138175236
 20
103.7271589023
 11
98.2711958349
 21
103.652959087
  0
LINE
  8
4_SURFACE
 62
7
  6
CONTINUOUS
 10
107.5691231435
 20
104.7656696565
 11
107.5749051651
 21
104.7504035142
  0
LINE
  8
4_SURFACE
 62
7
  6
CONTINUOUS
 10
107.5749051651
 20
104.7504035142
 11
107.5818859408
 21
104.7317179512
  0
LINE
  8
4_SURFACE
 62
7
  6
CONTINUOUS
 10
107.5818859408
 20
104.7317179512
 11
107.5909370513
 21
104.7071080213
  0
LINE
  8
4_SURFACE
 62
7
  6
CONTINUOUS
 10
107.5909370513
 20
104.7071080213
 11
107.6018775605
 21
104.676852085
  0
LINE
  8
4_SURFACE
 62
7
  6
CONTINUOUS
 10
107.6018775605
 20
104.676852085
 11
107.6145368512
 21
104.6412799348
  0
LINE
  8
4_SURFACE
 62
7
  6
CONTINUOUS
 10
107.6145368512
 20
104.6412799348
 11
107.6633938116
 21
104.5018980721
  0
LINE
  8
4_SURFACE
 62
7
  6
CONTINUOUS
 10
110.6743712937
 20
108.4082999386
 11
110.6774918474
 21
113.2945730654
  0
LINE
  8
4_SURFACE
 62
7
  6
CONTINUOUS
 10
111.0982223613
 20
149.3814280481
 11
111.0950992404
 21
144.7945730654
  0
LINE
  8
4_SURFACE
 62
7
  6
CONTINUOUS
 10
110.6662250916
 20
107.1711199772
 11
110.6743712937
 21
108.4082999386
  0
LINE
  8
4_SURFACE
 62
7
  6
CONTINUOUS
 10
111.1063473316
 20
150.6159393902
 11
111.0982223613
 21
149.3814280481
  0
LINE
  8
4_SURFACE
 62
7
  6
CONTINUOUS
 10
111.1175245863
 20
151.6060619415
 11
111.1063473316
 21
150.6159393902
  0
LINE
  8
4_SURFACE
 62
7
  6
CONTINUOUS
 10
110.6550155507
 20
106.1794383073
 11
110.6662250916
 21
107.1711199772
  0
LINE
  8
4_SURFACE
 62
7
  6
CONTINUOUS
 10
111.1282252281
 20
152.2623901686
 11
111.1175245863
 21
151.6060619415
  0
LINE
  8
4_SURFACE
 62
7
  6
CONTINUOUS
 10
110.6442835369
 20
105.5224282024
 11
110.6550155507
 21
106.1794383073
  0
LINE
  8
4_SURFACE
 62
7
  6
CONTINUOUS
 10
111.1373012956
 20
152.6879006686
 11
111.1282252281
 21
152.2623901686
  0
LINE
  8
4_SURFACE
 62
7
  6
CONTINUOUS
 10
110.6351821945
 20
105.0967686414
 11
110.6442835369
 21
105.5224282024
  0
LINE
  8
4_SURFACE
 62
7
  6
CONTINUOUS
 10
111.1442418436
 20
152.9530971226
 11
111.1373012956
 21
152.6879006686
  0
LINE
  8
4_SURFACE
 62
7
  6
CONTINUOUS
 10
110.6282259224
 20
104.8317463596
 11
110.6351821945
 21
105.0967686414
  0
LINE
  8
4_SURFACE
 62
7
  6
CONTINUOUS
 10
111.1512007151
 20
153.1756592438
 11
111.1442418436
 21
152.9530971226
  0
LINE
  8
4_SURFACE
 62
7
  6
CONTINUOUS
 10
110.6212565648
 20
104.6095937734
 11
110.6282259224
 21
104.8317463596
  0
LINE
  8
4_SURFACE
 62
7
  6
CONTINUOUS
 10
111.1558253654
 20
153.3023307939
 11
111.1512007151
 21
153.1756592438
  0
LINE
  8
4_SURFACE
 62
7
  6
CONTINUOUS
 10
110.6166289241
 20
104.4833093795
 11
110.6212565648
 21
104.6095937734
  0
LINE
  8
4_SURFACE
 62
7
  6
CONTINUOUS
 10
111.1604338875
 20
153.4131744829
 11
111.1558253654
 21
153.3023307939
  0
LINE
  8
4_SURFACE
 62
7
  6
CONTINUOUS
 10
110.6120215769
 20
104.3729312434
 11
110.6166289241
 21
104.4833093795
  0
LINE
  8
4_SURFACE
 62
7
  6
CONTINUOUS
 10
111.1650334985
 20
153.5095020797
 11
111.1604338875
 21
153.4131744829
  0
LINE
  8
4_SURFACE
 62
7
  6
CONTINUOUS
 10
110.607428161
 20
104.2771315903
 11
110.6120215769
 21
104.3729312434
  0
POLYLINE
  8
4_SURFACE
 62
7
  6
CONTINUOUS
 66
1
 70
0
  0
VERTEX
  8
4_SURFACE
 62
7
  6
CONTINUOUS
 10
111.0950957704
 20
144.7945730656
  0
VERTEX
  8
4_SURFACE
 62
7
  6
CONTINUOUS
 10
111.0903587026
 20
144.7076193645
  0
VERTEX
  8
4_SURFACE
 62
7
  6
CONTINUOUS
 10
111.0645127533
 20
144.5755051642
  0
VERTEX
  8
4_SURFACE
 62
7
  6
CONTINUOUS
 10
111.0168700248
 20
144.4495817863
  0
VERTEX
  8
4_SURFACE
 62
7
  6
CONTINUOUS
 10
110.9487770739
 20
144.3334245778
  0
VERTEX
  8
4_SURFACE
 62
7
  6
CONTINUOUS
 10
110.8621625389
 20
144.2303268151
  0
VERTEX
  8
4_SURFACE
 62
7
  6
CONTINUOUS
 10
110.7594749973
 20
144.1432068112
  0
VERTEX
  8
4_SURFACE
 62
7
  6
CONTINUOUS
 10
110.6436192813
 20
144.0745342526
  0
VERTEX
  8
4_SURFACE
 62
7
  6
CONTINUOUS
 10
110.5178819441
 20
144.0262607612
  0
VERTEX
  8
4_SURFACE
 62
7
  6
CONTINUOUS
 10
110.3858356436
 20
143.9997552057
  0
VERTEX
  8
4_SURFACE
 62
7
  6
CONTINUOUS
 10
110.3094873031
 20
143.9947096229
  0
SEQEND
  0
POLYLINE
  8
4_SURFACE
 62
7
  6
CONTINUOUS
 66
1
 70
0
  0
VERTEX
  8
4_SURFACE
 62
7
  6
CONTINUOUS
 10
111.0951753928
 20
144.7945730654
  0
VERTEX
  8
4_SURFACE
 62
7
  6
CONTINUOUS
 10
111.0856548667
 20
144.6715403669
  0
VERTEX
  8
4_SURFACE
 62
7
  6
CONTINUOUS
 10
111.056613569
 20
144.5492329239
  0
VERTEX
  8
4_SURFACE
 62
7
  6
CONTINUOUS
 10
111.0083057154
 20
144.4320779681
  0
VERTEX
  8
4_SURFACE
 62
7
  6
CONTINUOUS
 10
110.9422624539
 20
144.3242428257
  0
VERTEX
  8
4_SURFACE
 62
7
  6
CONTINUOUS
 10
110.8607614379
 20
144.2288685725
  0
SEQEND
  0
LINE
  8
4_SURFACE
 62
7
  6
CONTINUOUS
 10
101.6296137776
 20
104.5601198218
 11
101.6353277268
 21
104.5764862659
  0
LINE
  8
4_SURFACE
 62
7
  6
CONTINUOUS
 10
101.6089097458
 20
104.501084507
 11
101.6296137776
 21
104.5601198218
  0
LINE
  8
4_SURFACE
 62
7
  6
CONTINUOUS
 10
101.6353277268
 20
104.5764862659
 11
101.6594602117
 21
104.6452551067
  0
POLYLINE
  8
4_SURFACE
 62
7
  6
CONTINUOUS
 66
1
 70
0
  0
VERTEX
  8
4_SURFACE
 62
7
  6
CONTINUOUS
 10
101.6594602117
 20
104.6452551067
  0
VERTEX
  8
4_SURFACE
 62
7
  6
CONTINUOUS
 10
101.6725377343
 20
104.6819318277
  0
VERTEX
  8
4_SURFACE
 62
7
  6
CONTINUOUS
 10
101.6759382369
 20
104.6913650561
  0
SEQEND
  0
LINE
  8
4_SURFACE
 62
7
  6
CONTINUOUS
 10
98.2711958349
 20
103.652959087
 11
98.3414226248
 21
103.5907810483
  0
LINE
  8
4_SURFACE
 62
7
  6
CONTINUOUS
 10
101.6759382369
 20
104.6913650561
 11
101.6865057651
 21
104.7203510965
  0
LINE
  8
4_SURFACE
 62
7
  6
CONTINUOUS
 10
101.6865057651
 20
104.7203510965
 11
101.6938887661
 21
104.7402730802
  0
LINE
  8
4_SURFACE
 62
7
  6
CONTINUOUS
 10
101.6938887661
 20
104.7402730802
 11
101.7015771101
 21
104.7606990311
  0
POLYLINE
  8
4_SURFACE
 62
7
  6
CONTINUOUS
 66
1
 70
0
  0
VERTEX
  8
4_SURFACE
 62
7
  6
CONTINUOUS
 10
101.7015771101
 20
104.7606990311
  0
VERTEX
  8
4_SURFACE
 62
7
  6
CONTINUOUS
 10
101.7048778435
 20
104.7693354918
  0
VERTEX
  8
4_SURFACE
 62
7
  6
CONTINUOUS
 10
101.715876003
 20
104.7957488925
  0
VERTEX
  8
4_SURFACE
 62
7
  6
CONTINUOUS
 10
101.7282517541
 20
104.8221221709
  0
VERTEX
  8
4_SURFACE
 62
7
  6
CONTINUOUS
 10
101.7418306387
 20
104.8482393739
  0
VERTEX
  8
4_SURFACE
 62
7
  6
CONTINUOUS
 10
101.7564841141
 20
104.8739769241
  0
VERTEX
  8
4_SURFACE
 62
7
  6
CONTINUOUS
 10
101.7721145223
 20
104.8992633745
  0
VERTEX
  8
4_SURFACE
 62
7
  6
CONTINUOUS
 10
101.7886414476
 20
104.9240375137
  0
VERTEX
  8
4_SURFACE
 62
7
  6
CONTINUOUS
 10
101.8060246583
 20
104.9482814443
  0
VERTEX
  8
4_SURFACE
 62
7
  6
CONTINUOUS
 10
101.8241900387
 20
104.9719176367
  0
VERTEX
  8
4_SURFACE
 62
7
  6
CONTINUOUS
 10
101.8431240499
 20
104.9949354498
  0
VERTEX
  8
4_SURFACE
 62
7
  6
CONTINUOUS
 10
101.8628382939
 20
105.0173338636
  0
VERTEX
  8
4_SURFACE
 62
7
  6
CONTINUOUS
 10
101.8833556931
 20
105.0391019928
  0
VERTEX
  8
4_SURFACE
 62
7
  6
CONTINUOUS
 10
101.904702755
 20
105.0602066439
  0
VERTEX
  8
4_SURFACE
 62
7
  6
CONTINUOUS
 10
101.9269363155
 20
105.0806219891
  0
VERTEX
  8
4_SURFACE
 62
7
  6
CONTINUOUS
 10
101.9500780612
 20
105.1002585033
  0
VERTEX
  8
4_SURFACE
 62
7
  6
CONTINUOUS
 10
101.9742203088
 20
105.1190603442
  0
VERTEX
  8
4_SURFACE
 62
7
  6
CONTINUOUS
 10
101.9993607424
 20
105.1368566377
  0
VERTEX
  8
4_SURFACE
 62
7
  6
CONTINUOUS
 10
102.0255833411
 20
105.1535125019
  0
VERTEX
  8
4_SURFACE
 62
7
  6
CONTINUOUS
 10
102.0529990216
 20
105.1688363084
  0
VERTEX
  8
4_SURFACE
 62
7
  6
CONTINUOUS
 10
102.0817613184
 20
105.182595135
  0
VERTEX
  8
4_SURFACE
 62
7
  6
CONTINUOUS
 10
102.1120265116
 20
105.1944325628
  0
VERTEX
  8
4_SURFACE
 62
7
  6
CONTINUOUS
 10
102.1438825275
 20
105.2038375353
  0
VERTEX
  8
4_SURFACE
 62
7
  6
CONTINUOUS
 10
102.1774107491
 20
105.2101650458
  0
VERTEX
  8
4_SURFACE
 62
7
  6
CONTINUOUS
 10
102.2145916017
 20
105.2126410309
  0
SEQEND
  0
POLYLINE
  8
4_SURFACE
 62
7
  6
CONTINUOUS
 66
1
 70
0
  0
VERTEX
  8
4_SURFACE
 62
7
  6
CONTINUOUS
 10
98.3414226248
 20
103.5907810483
  0
VERTEX
  8
4_SURFACE
 62
7
  6
CONTINUOUS
 10
98.4220265394
 20
103.5428129849
  0
VERTEX
  8
4_SURFACE
 62
7
  6
CONTINUOUS
 10
98.5101710088
 20
103.5107430014
  0
SEQEND
  0
LINE
  8
4_SURFACE
 62
7
  6
CONTINUOUS
 10
129.7869362211
 20
144.6715403669
 11
129.777415695
 21
144.7945730654
  0
POLYLINE
  8
4_SURFACE
 62
7
  6
CONTINUOUS
 66
1
 70
0
  0
VERTEX
  8
4_SURFACE
 62
7
  6
CONTINUOUS
 10
129.7023214259
 20
153.6029129492
  0
VERTEX
  8
4_SURFACE
 62
7
  6
CONTINUOUS
 10
129.7001324236
 20
153.6371218041
  0
VERTEX
  8
4_SURFACE
 62
7
  6
CONTINUOUS
 10
129.6979209225
 20
153.668919976
  0
VERTEX
  8
4_SURFACE
 62
7
  6
CONTINUOUS
 10
129.6956758525
 20
153.6984648682
  0
VERTEX
  8
4_SURFACE
 62
7
  6
CONTINUOUS
 10
129.6933808975
 20
153.7259413356
  0
VERTEX
  8
4_SURFACE
 62
7
  6
CONTINUOUS
 10
129.6910090858
 20
153.7515966677
  0
VERTEX
  8
4_SURFACE
 62
7
  6
CONTINUOUS
 10
129.6885163817
 20
153.7757561498
  0
VERTEX
  8
4_SURFACE
 62
7
  6
CONTINUOUS
 10
129.6858296459
 20
153.7988568789
  0
VERTEX
  8
4_SURFACE
 62
7
  6
CONTINUOUS
 10
129.6828236031
 20
153.8215057413
  0
VERTEX
  8
4_SURFACE
 62
7
  6
CONTINUOUS
 10
129.6792704966
 20
153.8446038475
  0
VERTEX
  8
4_SURFACE
 62
7
  6
CONTINUOUS
 10
129.6748007771
 20
153.8692055526
  0
VERTEX
  8
4_SURFACE
 62
7
  6
CONTINUOUS
 10
129.6687281114
 20
153.8968895067
  0
VERTEX
  8
4_SURFACE
 62
7
  6
CONTINUOUS
 10
129.6597193828
 20
153.9300352577
  0
VERTEX
  8
4_SURFACE
 62
7
  6
CONTINUOUS
 10
129.6454379846
 20
153.9712431983
  0
VERTEX
  8
4_SURFACE
 62
7
  6
CONTINUOUS
 10
129.6228057674
 20
154.0211940041
  0
VERTEX
  8
4_SURFACE
 62
7
  6
CONTINUOUS
 10
129.5891681984
 20
154.0771420041
  0
VERTEX
  8
4_SURFACE
 62
7
  6
CONTINUOUS
 10
129.5420802399
 20
154.13549181
  0
VERTEX
  8
4_SURFACE
 62
7
  6
CONTINUOUS
 10
129.4789400188
 20
154.1923904712
  0
VERTEX
  8
4_SURFACE
 62
7
  6
CONTINUOUS
 10
129.3997125468
 20
154.2416432443
  0
VERTEX
  8
4_SURFACE
 62
7
  6
CONTINUOUS
 10
129.3079705673
 20
154.2767370205
  0
VERTEX
  8
4_SURFACE
 62
7
  6
CONTINUOUS
 10
129.2092978662
 20
154.2934236347
  0
VERTEX
  8
4_SURFACE
 62
7
  6
CONTINUOUS
 10
129.1753725735
 20
154.2945714989
  0
SEQEND
  0
POLYLINE
  8
4_SURFACE
 62
7
  6
CONTINUOUS
 66
1
 70
0
  0
VERTEX
  8
4_SURFACE
 62
7
  6
CONTINUOUS
 10
130.2701455739
 20
104.1882555202
  0
VERTEX
  8
4_SURFACE
 62
7
  6
CONTINUOUS
 10
130.2723299987
 20
104.1539584809
  0
VERTEX
  8
4_SURFACE
 62
7
  6
CONTINUOUS
 10
130.2745362628
 20
104.1220740777
  0
VERTEX
  8
4_SURFACE
 62
7
  6
CONTINUOUS
 10
130.2767753295
 20
104.0924440963
  0
VERTEX
  8
4_SURFACE
 62
7
  6
CONTINUOUS
 10
130.2790630426
 20
104.0648866527
  0
VERTEX
  8
4_SURFACE
 62
7
  6
CONTINUOUS
 10
130.2814255389
 20
104.0391594791
  0
VERTEX
  8
4_SURFACE
 62
7
  6
CONTINUOUS
 10
130.283905426
 20
104.0149442967
  0
VERTEX
  8
4_SURFACE
 62
7
  6
CONTINUOUS
 10
130.286573341
 20
103.9918139508
  0
VERTEX
  8
4_SURFACE
 62
7
  6
CONTINUOUS
 10
130.2895499169
 20
103.9691768421
  0
VERTEX
  8
4_SURFACE
 62
7
  6
CONTINUOUS
 10
130.2930544961
 20
103.9461520908
  0
VERTEX
  8
4_SURFACE
 62
7
  6
CONTINUOUS
 10
130.2974450201
 20
103.921694445
  0
VERTEX
  8
4_SURFACE
 62
7
  6
CONTINUOUS
 10
130.3033753418
 20
103.8942882751
  0
VERTEX
  8
4_SURFACE
 62
7
  6
CONTINUOUS
 10
130.3121151735
 20
103.8616257787
  0
VERTEX
  8
4_SURFACE
 62
7
  6
CONTINUOUS
 10
130.3259219458
 20
103.821073144
  0
VERTEX
  8
4_SURFACE
 62
7
  6
CONTINUOUS
 10
130.3478505247
 20
103.7717251268
  0
VERTEX
  8
4_SURFACE
 62
7
  6
CONTINUOUS
 10
130.3806730766
 20
103.7160198129
  0
VERTEX
  8
4_SURFACE
 62
7
  6
CONTINUOUS
 10
130.4269101479
 20
103.6575356232
  0
VERTEX
  8
4_SURFACE
 62
7
  6
CONTINUOUS
 10
130.4892674273
 20
103.600118784
  0
VERTEX
  8
4_SURFACE
 62
7
  6
CONTINUOUS
 10
130.5679041598
 20
103.5500216685
  0
VERTEX
  8
4_SURFACE
 62
7
  6
CONTINUOUS
 10
130.6593652451
 20
103.5138788147
  0
VERTEX
  8
4_SURFACE
 62
7
  6
CONTINUOUS
 10
130.7581385318
 20
103.4960977822
  0
VERTEX
  8
4_SURFACE
 62
7
  6
CONTINUOUS
 10
130.7972178847
 20
103.4945740103
  0
SEQEND
  0
LINE
  8
4_SURFACE
 62
7
  6
CONTINUOUS
 10
129.7826734586
 20
144.7036766602
 11
129.7774953239
 21
144.7945730655
  0
LINE
  8
4_SURFACE
 62
7
  6
CONTINUOUS
 10
129.7066639247
 20
153.5266372394
 11
129.7023214259
 21
153.6029129492
  0
LINE
  8
4_SURFACE
 62
7
  6
CONTINUOUS
 10
130.2658110341
 20
104.2647075182
 11
130.2701455739
 21
104.1882555202
  0
LINE
  8
4_SURFACE
 62
7
  6
CONTINUOUS
 10
129.7109871515
 20
153.4389968337
 11
129.7066639247
 21
153.5266372394
  0
LINE
  8
4_SURFACE
 62
7
  6
CONTINUOUS
 10
130.2614950338
 20
104.3525140374
 11
130.2658110341
 21
104.2647075182
  0
LINE
  8
4_SURFACE
 62
7
  6
CONTINUOUS
 10
129.7153044653
 20
153.3390876225
 11
129.7109871515
 21
153.4389968337
  0
LINE
  8
4_SURFACE
 62
7
  6
CONTINUOUS
 10
130.2571847708
 20
104.4525710876
 11
130.2614950338
 21
104.3525140374
  0
LINE
  8
4_SURFACE
 62
7
  6
CONTINUOUS
 10
129.7196166927
 20
153.2261434678
 11
129.7153044653
 21
153.3390876225
  0
LINE
  8
4_SURFACE
 62
7
  6
CONTINUOUS
 10
130.2528797372
 20
104.5656363648
 11
130.2571847708
 21
104.4525710876
  0
LINE
  8
4_SURFACE
 62
7
  6
CONTINUOUS
 10
130.2464487493
 20
104.7610671197
 11
130.2528797372
 21
104.5656363648
  0
LINE
  8
4_SURFACE
 62
7
  6
CONTINUOUS
 10
129.7260590139
 20
153.0308273506
 11
129.7196166927
 21
153.2261434678
  0
LINE
  8
4_SURFACE
 62
7
  6
CONTINUOUS
 10
129.7324372234
 20
152.8025603631
 11
129.7260590139
 21
153.0308273506
  0
LINE
  8
4_SURFACE
 62
7
  6
CONTINUOUS
 10
130.2400822469
 20
104.9893645602
 11
130.2464487493
 21
104.7610671197
  0
LINE
  8
4_SURFACE
 62
7
  6
CONTINUOUS
 10
129.7407849649
 20
152.4422342587
 11
129.7324372234
 21
152.8025603631
  0
LINE
  8
4_SURFACE
 62
7
  6
CONTINUOUS
 10
130.2317502233
 20
105.3495926567
 11
130.2400822469
 21
104.9893645602
  0
LINE
  8
4_SURFACE
 62
7
  6
CONTINUOUS
 10
130.2217547044
 20
105.899158628
 11
130.2317502233
 21
105.3495926567
  0
LINE
  8
4_SURFACE
 62
7
  6
CONTINUOUS
 10
129.7507999786
 20
151.8922781421
 11
129.7407849649
 21
152.4422342587
  0
LINE
  8
4_SURFACE
 62
7
  6
CONTINUOUS
 10
130.2108423571
 20
106.7210859343
 11
130.2217547044
 21
105.899158628
  0
LINE
  8
4_SURFACE
 62
7
  6
CONTINUOUS
 10
129.7617339816
 20
151.0694009658
 11
129.7507999786
 21
151.8922781421
  0
LINE
  8
4_SURFACE
 62
7
  6
CONTINUOUS
 10
129.7718630016
 20
149.8615371077
 11
129.7617339816
 21
151.0694009658
  0
LINE
  8
4_SURFACE
 62
7
  6
CONTINUOUS
 10
130.2007315195
 20
107.9270405279
 11
130.2108423571
 21
106.7210859343
  0
LINE
  8
4_SURFACE
 62
7
  6
CONTINUOUS
 10
129.7772235903
 20
148.368559991
 11
129.7718630016
 21
149.8615371077
  0
LINE
  8
4_SURFACE
 62
7
  6
CONTINUOUS
 10
130.1953718492
 20
109.4171613512
 11
130.2007315195
 21
107.9270405279
  0
LINE
  8
4_SURFACE
 62
7
  6
CONTINUOUS
 10
129.7772235903
 20
148.368559991
 11
129.7774918474
 21
144.7945730654
  0
LINE
  8
4_SURFACE
 62
7
  6
CONTINUOUS
 10
130.1950992404
 20
113.2945730654
 11
130.1953718492
 21
109.4171613512
  0
POLYLINE
  8
4_SURFACE
 62
7
  6
CONTINUOUS
 66
1
 70
0
  0
VERTEX
  8
4_SURFACE
 62
7
  6
CONTINUOUS
 10
110.7653348972
 20
144.1473916651
  0
VERTEX
  8
4_SURFACE
 62
7
  6
CONTINUOUS
 10
110.6574199636
 20
144.0813618842
  0
VERTEX
  8
4_SURFACE
 62
7
  6
CONTINUOUS
 10
110.5402101264
 20
144.0330845483
  0
VERTEX
  8
4_SURFACE
 62
7
  6
CONTINUOUS
 10
110.41789547
 20
144.0040777926
  0
VERTEX
  8
4_SURFACE
 62
7
  6
CONTINUOUS
 10
110.3094855482
 20
143.9947059237
  0
SEQEND
  0
POLYLINE
  8
4_SURFACE
 62
7
  6
CONTINUOUS
 66
1
 70
0
  0
VERTEX
  8
4_SURFACE
 62
7
  6
CONTINUOUS
 10
129.9303286339
 20
144.3242428257
  0
VERTEX
  8
4_SURFACE
 62
7
  6
CONTINUOUS
 10
129.8642853724
 20
144.4320779681
  0
VERTEX
  8
4_SURFACE
 62
7
  6
CONTINUOUS
 10
129.8159775188
 20
144.5492329239
  0
VERTEX
  8
4_SURFACE
 62
7
  6
CONTINUOUS
 10
129.7869362211
 20
144.6715403669
  0
SEQEND
  0
LINE
  8
4_SURFACE
 62
7
  6
CONTINUOUS
 10
155.5558253654
 20
153.3023307939
 11
155.5512007151
 21
153.1756592438
  0
LINE
  8
4_SURFACE
 62
7
  6
CONTINUOUS
 10
155.5604338875
 20
153.4131744829
 11
155.5558253654
 21
153.3023307939
  0
LINE
  8
4_SURFACE
 62
7
  6
CONTINUOUS
 10
155.5650334985
 20
153.5095020797
 11
155.5604338875
 21
153.4131744829
  0
POLYLINE
  8
4_SURFACE
 62
7
  6
CONTINUOUS
 66
1
 70
0
  0
VERTEX
  8
4_SURFACE
 62
7
  6
CONTINUOUS
 10
155.4950957704
 20
144.7945730656
  0
VERTEX
  8
4_SURFACE
 62
7
  6
CONTINUOUS
 10
155.4903587026
 20
144.7076193645
  0
VERTEX
  8
4_SURFACE
 62
7
  6
CONTINUOUS
 10
155.4645127533
 20
144.5755051642
  0
VERTEX
  8
4_SURFACE
 62
7
  6
CONTINUOUS
 10
155.4168700249
 20
144.4495817864
  0
VERTEX
  8
4_SURFACE
 62
7
  6
CONTINUOUS
 10
155.3487770739
 20
144.3334245779
  0
VERTEX
  8
4_SURFACE
 62
7
  6
CONTINUOUS
 10
155.262162539
 20
144.2303268152
  0
VERTEX
  8
4_SURFACE
 62
7
  6
CONTINUOUS
 10
155.1594749974
 20
144.1432068112
  0
VERTEX
  8
4_SURFACE
 62
7
  6
CONTINUOUS
 10
155.0436192814
 20
144.0745342526
  0
VERTEX
  8
4_SURFACE
 62
7
  6
CONTINUOUS
 10
154.9178819442
 20
144.0262607612
  0
VERTEX
  8
4_SURFACE
 62
7
  6
CONTINUOUS
 10
154.7858356437
 20
143.9997552057
  0
VERTEX
  8
4_SURFACE
 62
7
  6
CONTINUOUS
 10
154.7094873031
 20
143.9947096229
  0
SEQEND
  0
POLYLINE
  8
4_SURFACE
 62
7
  6
CONTINUOUS
 66
1
 70
0
  0
VERTEX
  8
4_SURFACE
 62
7
  6
CONTINUOUS
 10
155.4951753928
 20
144.7945730654
  0
VERTEX
  8
4_SURFACE
 62
7
  6
CONTINUOUS
 10
155.4856548667
 20
144.6715403669
  0
VERTEX
  8
4_SURFACE
 62
7
  6
CONTINUOUS
 10
155.456613569
 20
144.5492329239
  0
VERTEX
  8
4_SURFACE
 62
7
  6
CONTINUOUS
 10
155.4083057154
 20
144.4320779681
  0
VERTEX
  8
4_SURFACE
 62
7
  6
CONTINUOUS
 10
155.3422624539
 20
144.3242428257
  0
VERTEX
  8
4_SURFACE
 62
7
  6
CONTINUOUS
 10
155.2607614379
 20
144.2288685725
  0
SEQEND
  0
POLYLINE
  8
0
 62
7
  6
CONTINUOUS
 66
1
 70
0
  0
VERTEX
  8
0
 62
7
  6
CONTINUOUS
 10
287.8742636852
 20
103.4960171004
  0
VERTEX
  8
0
 62
7
  6
CONTINUOUS
 10
287.9661739109
 20
103.5117371592
  0
VERTEX
  8
0
 62
7
  6
CONTINUOUS
 10
288.0533859453
 20
103.5441819762
  0
SEQEND
  0
POLYLINE
  8
4_SURFACE
 62
7
  6
CONTINUOUS
 66
1
 70
0
  0
VERTEX
  8
4_SURFACE
 62
7
  6
CONTINUOUS
 10
98.5101710088
 20
103.5107430014
  0
VERTEX
  8
4_SURFACE
 62
7
  6
CONTINUOUS
 10
98.6027540771
 20
103.495699696
  0
VERTEX
  8
4_SURFACE
 62
7
  6
CONTINUOUS
 10
98.6363002313
 20
103.4945730918
  0
SEQEND
  0
LINE
  8
4_SURFACE
 62
7
  6
CONTINUOUS
 10
155.0743687265
 20
108.4077180828
 11
155.0774918474
 21
112.9945730654
  0
LINE
  8
4_SURFACE
 62
7
  6
CONTINUOUS
 10
155.4982223613
 20
149.3814280481
 11
155.4950992404
 21
144.7945730654
  0
LINE
  8
4_SURFACE
 62
7
  6
CONTINUOUS
 10
155.0662437562
 20
107.1732067406
 11
155.0743687265
 21
108.4077180828
  0
LINE
  8
4_SURFACE
 62
7
  6
CONTINUOUS
 10
155.5063473316
 20
150.6159393902
 11
155.4982223613
 21
149.3814280481
  0
LINE
  8
4_SURFACE
 62
7
  6
CONTINUOUS
 10
155.5175245863
 20
151.6060619415
 11
155.5063473316
 21
150.6159393902
  0
LINE
  8
4_SURFACE
 62
7
  6
CONTINUOUS
 10
155.0550665015
 20
106.1830841893
 11
155.0662437562
 21
107.1732067406
  0
LINE
  8
4_SURFACE
 62
7
  6
CONTINUOUS
 10
155.5282252281
 20
152.2623901686
 11
155.5175245863
 21
151.6060619415
  0
LINE
  8
4_SURFACE
 62
7
  6
CONTINUOUS
 10
155.0443658597
 20
105.5267559623
 11
155.0550665015
 21
106.1830841893
  0
LINE
  8
4_SURFACE
 62
7
  6
CONTINUOUS
 10
155.5373012956
 20
152.6879006686
 11
155.5282252281
 21
152.2623901686
  0
LINE
  8
4_SURFACE
 62
7
  6
CONTINUOUS
 10
155.0352897923
 20
105.1012454623
 11
155.0443658597
 21
105.5267559623
  0
LINE
  8
4_SURFACE
 62
7
  6
CONTINUOUS
 10
155.5442418436
 20
152.9530971226
 11
155.5373012956
 21
152.6879006686
  0
LINE
  8
4_SURFACE
 62
7
  6
CONTINUOUS
 10
155.0283492442
 20
104.8360490083
 11
155.0352897923
 21
105.1012454623
  0
LINE
  8
4_SURFACE
 62
7
  6
CONTINUOUS
 10
155.5512007151
 20
153.1756592438
 11
155.5442418436
 21
152.9530971226
  0
LINE
  8
4_SURFACE
 62
7
  6
CONTINUOUS
 10
155.0213903727
 20
104.6134868871
 11
155.0283492442
 21
104.8360490083
  0
LINE
  8
4_SURFACE
 62
7
  6
CONTINUOUS
 10
155.0167657224
 20
104.4868153369
 11
155.0213903727
 21
104.6134868871
  0
LINE
  8
4_SURFACE
 62
7
  6
CONTINUOUS
 10
155.0121572003
 20
104.375971648
 11
155.0167657224
 21
104.4868153369
  0
LINE
  8
4_SURFACE
 62
7
  6
CONTINUOUS
 10
155.0075575893
 20
104.2796440512
 11
155.0121572003
 21
104.375971648
  0
POLYLINE
  8
4_SURFACE
 62
7
  6
CONTINUOUS
 66
1
 70
0
  0
VERTEX
  8
4_SURFACE
 62
7
  6
CONTINUOUS
 10
155.0774953174
 20
112.9945730653
  0
VERTEX
  8
4_SURFACE
 62
7
  6
CONTINUOUS
 10
155.0822323852
 20
113.0815267664
  0
VERTEX
  8
4_SURFACE
 62
7
  6
CONTINUOUS
 10
155.1080783345
 20
113.2136409667
  0
VERTEX
  8
4_SURFACE
 62
7
  6
CONTINUOUS
 10
155.155721063
 20
113.3395643445
  0
VERTEX
  8
4_SURFACE
 62
7
  6
CONTINUOUS
 10
155.2238140139
 20
113.455721553
  0
VERTEX
  8
4_SURFACE
 62
7
  6
CONTINUOUS
 10
155.3104285489
 20
113.5588193157
  0
VERTEX
  8
4_SURFACE
 62
7
  6
CONTINUOUS
 10
155.4131160905
 20
113.6459393197
  0
VERTEX
  8
4_SURFACE
 62
7
  6
CONTINUOUS
 10
155.5289718065
 20
113.7146118783
  0
VERTEX
  8
4_SURFACE
 62
7
  6
CONTINUOUS
 10
155.6547091437
 20
113.7628853696
  0
VERTEX
  8
4_SURFACE
 62
7
  6
CONTINUOUS
 10
155.7867554441
 20
113.7893909252
  0
VERTEX
  8
4_SURFACE
 62
7
  6
CONTINUOUS
 10
155.8631037847
 20
113.794436508
  0
SEQEND
  0
POLYLINE
  8
4_SURFACE
 62
7
  6
CONTINUOUS
 66
1
 70
0
  0
VERTEX
  8
4_SURFACE
 62
7
  6
CONTINUOUS
 10
155.077415695
 20
112.9945730654
  0
VERTEX
  8
4_SURFACE
 62
7
  6
CONTINUOUS
 10
155.0869362211
 20
113.1176057639
  0
VERTEX
  8
4_SURFACE
 62
7
  6
CONTINUOUS
 10
155.1159775188
 20
113.2399132069
  0
VERTEX
  8
4_SURFACE
 62
7
  6
CONTINUOUS
 10
155.1642853724
 20
113.3570681628
  0
VERTEX
  8
4_SURFACE
 62
7
  6
CONTINUOUS
 10
155.2303286339
 20
113.4649033051
  0
VERTEX
  8
4_SURFACE
 62
7
  6
CONTINUOUS
 10
155.3118296499
 20
113.5602775584
  0
SEQEND
  0
POLYLINE
  8
4_SURFACE
 62
7
  6
CONTINUOUS
 66
1
 70
0
  0
VERTEX
  8
4_SURFACE
 62
7
  6
CONTINUOUS
 10
155.1653348972
 20
144.1473916651
  0
VERTEX
  8
4_SURFACE
 62
7
  6
CONTINUOUS
 10
155.0574199636
 20
144.0813618842
  0
VERTEX
  8
4_SURFACE
 62
7
  6
CONTINUOUS
 10
154.9402101264
 20
144.0330845483
  0
VERTEX
  8
4_SURFACE
 62
7
  6
CONTINUOUS
 10
154.81789547
 20
144.0040777926
  0
VERTEX
  8
4_SURFACE
 62
7
  6
CONTINUOUS
 10
154.7094855482
 20
143.9947059237
  0
SEQEND
  0
POLYLINE
  8
0
 62
7
  6
CONTINUOUS
 66
1
 70
0
  0
VERTEX
  8
0
 62
7
  6
CONTINUOUS
 10
205.0753723466
 20
103.4945746322
  0
VERTEX
  8
0
 62
7
  6
CONTINUOUS
 10
205.1167359809
 20
103.4962820385
  0
VERTEX
  8
0
 62
7
  6
CONTINUOUS
 10
205.2150137767
 20
103.5143938704
  0
VERTEX
  8
0
 62
7
  6
CONTINUOUS
 10
205.3045027416
 20
103.5499278916
  0
VERTEX
  8
0
 62
7
  6
CONTINUOUS
 10
205.381117231
 20
103.5984168421
  0
VERTEX
  8
0
 62
7
  6
CONTINUOUS
 10
205.4424560109
 20
103.6540556598
  0
VERTEX
  8
0
 62
7
  6
CONTINUOUS
 10
205.4888342293
 20
103.7115218889
  0
VERTEX
  8
0
 62
7
  6
CONTINUOUS
 10
205.522025695
 20
103.7664519207
  0
VERTEX
  8
0
 62
7
  6
CONTINUOUS
 10
205.5442411134
 20
103.8148765274
  0
VERTEX
  8
0
 62
7
  6
CONTINUOUS
 10
205.5586219745
 20
103.8555352028
  0
VERTEX
  8
0
 62
7
  6
CONTINUOUS
 10
205.5679136284
 20
103.8889277245
  0
VERTEX
  8
0
 62
7
  6
CONTINUOUS
 10
205.5742355968
 20
103.9171179734
  0
VERTEX
  8
0
 62
7
  6
CONTINUOUS
 10
205.5788670125
 20
103.9421361346
  0
VERTEX
  8
0
 62
7
  6
CONTINUOUS
 10
205.5825337871
 20
103.9656172164
  0
VERTEX
  8
0
 62
7
  6
CONTINUOUS
 10
205.5856495047
 20
103.9888414217
  0
VERTEX
  8
0
 62
7
  6
CONTINUOUS
 10
205.5884356988
 20
104.0126533778
  0
VERTEX
  8
0
 62
7
  6
CONTINUOUS
 10
205.5910191064
 20
104.0376522353
  0
VERTEX
  8
0
 62
7
  6
CONTINUOUS
 10
205.5934797927
 20
104.0643338922
  0
VERTEX
  8
0
 62
7
  6
CONTINUOUS
 10
205.5958667008
 20
104.0930884486
  0
VERTEX
  8
0
 62
7
  6
CONTINUOUS
 10
205.5982099776
 20
104.1242280928
  0
VERTEX
  8
0
 62
7
  6
CONTINUOUS
 10
205.6005281567
 20
104.158004486
  0
VERTEX
  8
0
 62
7
  6
CONTINUOUS
 10
205.6028329896
 20
104.1946298585
  0
VERTEX
  8
0
 62
7
  6
CONTINUOUS
 10
205.607427885
 20
104.277125907
  0
SEQEND
  0
LINE
  8
0
 62
7
  6
CONTINUOUS
 10
287.8362908565
 20
103.4945730918
 11
287.8742636852
 21
103.4960171004
  0
POLYLINE
  8
0
 62
7
  6
CONTINUOUS
 66
1
 70
0
  0
VERTEX
  8
0
 62
7
  6
CONTINUOUS
 10
255.6753732864
 20
103.4945740102
  0
VERTEX
  8
0
 62
7
  6
CONTINUOUS
 10
255.711708028
 20
103.4958909787
  0
VERTEX
  8
0
 62
7
  6
CONTINUOUS
 10
255.8099334279
 20
103.512950399
  0
VERTEX
  8
0
 62
7
  6
CONTINUOUS
 10
255.8996489193
 20
103.547470355
  0
VERTEX
  8
0
 62
7
  6
CONTINUOUS
 10
255.9767068696
 20
103.5950703726
  0
VERTEX
  8
0
 62
7
  6
CONTINUOUS
 10
256.0386334301
 20
103.6500126054
  0
VERTEX
  8
0
 62
7
  6
CONTINUOUS
 10
256.085718641
 20
103.7070786621
  0
VERTEX
  8
0
 62
7
  6
CONTINUOUS
 10
256.1197183208
 20
103.7620825109
  0
VERTEX
  8
0
 62
7
  6
CONTINUOUS
 10
256.1427390607
 20
103.8111523405
  0
VERTEX
  8
0
 62
7
  6
CONTINUOUS
 10
256.1577484713
 20
103.8527474481
  0
VERTEX
  8
0
 62
7
  6
CONTINUOUS
 10
256.167427165
 20
103.886976466
  0
VERTEX
  8
0
 62
7
  6
CONTINUOUS
 10
256.1739660903
 20
103.9157926639
  0
VERTEX
  8
0
 62
7
  6
CONTINUOUS
 10
256.1787155796
 20
103.9412440534
  0
VERTEX
  8
0
 62
7
  6
CONTINUOUS
 10
256.1824630243
 20
103.9651273859
  0
VERTEX
  8
0
 62
7
  6
CONTINUOUS
 10
256.1856314992
 20
103.9886972609
  0
VERTEX
  8
0
 62
7
  6
CONTINUOUS
 10
256.1884502563
 20
104.012785946
  0
VERTEX
  8
0
 62
7
  6
CONTINUOUS
 10
256.1910580154
 20
104.0380517142
  0
VERTEX
  8
0
 62
7
  6
CONTINUOUS
 10
256.1935389541
 20
104.0650117603
  0
VERTEX
  8
0
 62
7
  6
CONTINUOUS
 10
256.1959432922
 20
104.094059932
  0
VERTEX
  8
0
 62
7
  6
CONTINUOUS
 10
256.1983017118
 20
104.1255074575
  0
VERTEX
  8
0
 62
7
  6
CONTINUOUS
 10
256.2006329084
 20
104.1596020111
  0
VERTEX
  8
0
 62
7
  6
CONTINUOUS
 10
256.2029485452
 20
104.1965477581
  0
VERTEX
  8
0
 62
7
  6
CONTINUOUS
 10
256.2075578401
 20
104.279649272
  0
SEQEND
  0
LINE
  8
0
 62
7
  6
CONTINUOUS
 10
231.9972626137
 20
103.494573865
 11
231.9972154864
 21
103.4945730712
  0
LINE
  8
0
 62
7
  6
CONTINUOUS
 10
276.3972149393
 20
103.4945730698
 11
276.3972626137
 21
103.494573865
  0
LINE
  8
4_SURFACE
 62
7
  6
CONTINUOUS
 10
110.0753284742
 20
103.494573865
 11
108.1191399332
 21
103.494573865
  0
LINE
  8
4_SURFACE
 62
7
  6
CONTINUOUS
 10
101.1534511546
 20
103.494573865
 11
98.6362955439
 21
103.494573865
  0
LINE
  8
4_SURFACE
 62
7
  6
CONTINUOUS
 10
130.7972114927
 20
103.4945730654
 11
154.4753795952
 21
103.4945730654
  0
LINE
  8
0
 62
7
  6
CONTINUOUS
 10
181.3972626137
 20
103.494573865
 11
205.0753284742
 21
103.494573865
  0
LINE
  8
0
 62
7
  6
CONTINUOUS
 10
231.9972114927
 20
103.4945730654
 11
255.6753284742
 21
103.494573865
  0
LINE
  8
0
 62
7
  6
CONTINUOUS
 10
276.3972114927
 20
103.4945730654
 11
278.3534553115
 21
103.4945730654
  0
LINE
  8
0
 62
7
  6
CONTINUOUS
 10
285.3191357763
 20
103.4945730654
 11
287.8362976664
 21
103.4945730654
  0
LINE
  8
0
 62
7
  6
CONTINUOUS
 10
130.7972626137
 20
103.494573865
 11
154.4753284742
 21
103.494573865
  0
LINE
  8
4_SURFACE
 62
7
  6
CONTINUOUS
 10
110.0753759149
 20
103.4945730704
 11
110.0753284742
 21
103.494573865
  0
LINE
  8
4_SURFACE
 62
7
  6
CONTINUOUS
 10
154.4753284742
 20
103.494573865
 11
154.4753756878
 21
103.494573071
  0
POLYLINE
  8
4_SURFACE
 62
7
  6
CONTINUOUS
 66
1
 70
0
  0
VERTEX
  8
4_SURFACE
 62
7
  6
CONTINUOUS
 10
107.0579996997
 20
105.2126410175
  0
VERTEX
  8
4_SURFACE
 62
7
  6
CONTINUOUS
 10
107.0923000242
 20
105.2105312812
  0
VERTEX
  8
4_SURFACE
 62
7
  6
CONTINUOUS
 10
107.1259872527
 20
105.2044909026
  0
VERTEX
  8
4_SURFACE
 62
7
  6
CONTINUOUS
 10
107.1579888638
 20
105.1953111638
  0
VERTEX
  8
4_SURFACE
 62
7
  6
CONTINUOUS
 10
107.1883773837
 20
105.1836557981
  0
VERTEX
  8
4_SURFACE
 62
7
  6
CONTINUOUS
 10
107.2172556095
 20
105.1700435135
  0
VERTEX
  8
4_SURFACE
 62
7
  6
CONTINUOUS
 10
107.2447878047
 20
105.1548332225
  0
VERTEX
  8
4_SURFACE
 62
7
  6
CONTINUOUS
 10
107.2711067266
 20
105.1382774939
  0
VERTEX
  8
4_SURFACE
 62
7
  6
CONTINUOUS
 10
107.2963461385
 20
105.1205606865
  0
VERTEX
  8
4_SURFACE
 62
7
  6
CONTINUOUS
 10
107.3205852686
 20
105.1018220829
  0
VERTEX
  8
4_SURFACE
 62
7
  6
CONTINUOUS
 10
107.3438260615
 20
105.0822327408
  0
VERTEX
  8
4_SURFACE
 62
7
  6
CONTINUOUS
 10
107.3661548367
 20
105.0618545517
  0
VERTEX
  8
4_SURFACE
 62
7
  6
CONTINUOUS
 10
107.3875943357
 20
105.0407789042
  0
VERTEX
  8
4_SURFACE
 62
7
  6
CONTINUOUS
 10
107.4081986578
 20
105.0190361264
  0
VERTEX
  8
4_SURFACE
 62
7
  6
CONTINUOUS
 10
107.4279956107
 20
104.9966604507
  0
VERTEX
  8
4_SURFACE
 62
7
  6
CONTINUOUS
 10
107.4470077697
 20
104.9736653308
  0
VERTEX
  8
4_SURFACE
 62
7
  6
CONTINUOUS
 10
107.4652477323
 20
104.95005281
  0
VERTEX
  8
4_SURFACE
 62
7
  6
CONTINUOUS
 10
107.4827030427
 20
104.9258343711
  0
VERTEX
  8
4_SURFACE
 62
7
  6
CONTINUOUS
 10
107.4993004678
 20
104.9010885151
  0
VERTEX
  8
4_SURFACE
 62
7
  6
CONTINUOUS
 10
107.515003489
 20
104.8758295748
  0
VERTEX
  8
4_SURFACE
 62
7
  6
CONTINUOUS
 10
107.5297357949
 20
104.8501138592
  0
VERTEX
  8
4_SURFACE
 62
7
  6
CONTINUOUS
 10
107.5434011363
 20
104.8240109377
  0
VERTEX
  8
4_SURFACE
 62
7
  6
CONTINUOUS
 10
107.5558750965
 20
104.7976358759
  0
VERTEX
  8
4_SURFACE
 62
7
  6
CONTINUOUS
 10
107.5669838519
 20
104.7712011785
  0
VERTEX
  8
4_SURFACE
 62
7
  6
CONTINUOUS
 10
107.5691199704
 20
104.7656824226
  0
SEQEND
  0
POLYLINE
  8
4_SURFACE
 62
7
  6
CONTINUOUS
 66
1
 70
0
  0
VERTEX
  8
4_SURFACE
 62
7
  6
CONTINUOUS
 10
110.0753731367
 20
103.4945740114
  0
VERTEX
  8
4_SURFACE
 62
7
  6
CONTINUOUS
 10
110.1167495951
 20
103.4962825122
  0
VERTEX
  8
4_SURFACE
 62
7
  6
CONTINUOUS
 10
110.2150333613
 20
103.5143988306
  0
VERTEX
  8
4_SURFACE
 62
7
  6
CONTINUOUS
 10
110.3045228269
 20
103.5499374433
  0
VERTEX
  8
4_SURFACE
 62
7
  6
CONTINUOUS
 10
110.3811347181
 20
103.5984294958
  0
VERTEX
  8
4_SURFACE
 62
7
  6
CONTINUOUS
 10
110.4424702421
 20
103.6540701334
  0
VERTEX
  8
4_SURFACE
 62
7
  6
CONTINUOUS
 10
110.4888460313
 20
103.7115382395
  0
VERTEX
  8
4_SURFACE
 62
7
  6
CONTINUOUS
 10
110.5220351143
 20
103.7664694412
  0
VERTEX
  8
4_SURFACE
 62
7
  6
CONTINUOUS
 10
110.5442478495
 20
103.8148931311
  0
VERTEX
  8
4_SURFACE
 62
7
  6
CONTINUOUS
 10
110.5586262154
 20
103.8555489136
  0
VERTEX
  8
4_SURFACE
 62
7
  6
CONTINUOUS
 10
110.5679159017
 20
103.8889373119
  0
VERTEX
  8
4_SURFACE
 62
7
  6
CONTINUOUS
 10
110.5742365949
 20
103.9171235506
  0
VERTEX
  8
4_SURFACE
 62
7
  6
CONTINUOUS
 10
110.5788672327
 20
103.9421380214
  0
VERTEX
  8
4_SURFACE
 62
7
  6
CONTINUOUS
 10
110.5825339698
 20
103.9656186222
  0
VERTEX
  8
4_SURFACE
 62
7
  6
CONTINUOUS
 10
110.5856498666
 20
103.9888442046
  0
VERTEX
  8
4_SURFACE
 62
7
  6
CONTINUOUS
 10
110.5884360954
 20
104.0126568599
  0
VERTEX
  8
4_SURFACE
 62
7
  6
CONTINUOUS
 10
110.5910194845
 20
104.0376560931
  0
VERTEX
  8
4_SURFACE
 62
7
  6
CONTINUOUS
 10
110.5934801329
 20
104.0643378765
  0
VERTEX
  8
4_SURFACE
 62
7
  6
CONTINUOUS
 10
110.5958669986
 20
104.0930922766
  0
VERTEX
  8
4_SURFACE
 62
7
  6
CONTINUOUS
 10
110.598210253
 20
104.1242316581
  0
VERTEX
  8
4_SURFACE
 62
7
  6
CONTINUOUS
 10
110.6005284544
 20
104.1580086194
  0
VERTEX
  8
4_SURFACE
 62
7
  6
CONTINUOUS
 10
110.6028332892
 20
104.1946346147
  0
VERTEX
  8
4_SURFACE
 62
7
  6
CONTINUOUS
 10
110.607428161
 20
104.2771315903
  0
SEQEND
  0
POLYLINE
  8
4_SURFACE
 62
7
  6
CONTINUOUS
 66
1
 70
0
  0
VERTEX
  8
4_SURFACE
 62
7
  6
CONTINUOUS
 10
154.475372495
 20
103.4945746306
  0
VERTEX
  8
4_SURFACE
 62
7
  6
CONTINUOUS
 10
154.5116947487
 20
103.4958906633
  0
VERTEX
  8
4_SURFACE
 62
7
  6
CONTINUOUS
 10
154.6099142588
 20
103.512945775
  0
VERTEX
  8
4_SURFACE
 62
7
  6
CONTINUOUS
 10
154.6996291707
 20
103.5474612439
  0
VERTEX
  8
4_SURFACE
 62
7
  6
CONTINUOUS
 10
154.7766895813
 20
103.5950581721
  0
VERTEX
  8
4_SURFACE
 62
7
  6
CONTINUOUS
 10
154.8386192786
 20
103.649998551
  0
VERTEX
  8
4_SURFACE
 62
7
  6
CONTINUOUS
 10
154.8857068077
 20
103.7070626584
  0
VERTEX
  8
4_SURFACE
 62
7
  6
CONTINUOUS
 10
154.9197087538
 20
103.762065144
  0
VERTEX
  8
4_SURFACE
 62
7
  6
CONTINUOUS
 10
154.9427320999
 20
103.8111355733
  0
VERTEX
  8
4_SURFACE
 62
7
  6
CONTINUOUS
 10
154.9577440356
 20
103.8527333941
  0
VERTEX
  8
4_SURFACE
 62
7
  6
CONTINUOUS
 10
154.9674247701
 20
103.8869665411
  0
VERTEX
  8
4_SURFACE
 62
7
  6
CONTINUOUS
 10
154.9739650329
 20
103.9157868498
  0
VERTEX
  8
4_SURFACE
 62
7
  6
CONTINUOUS
 10
154.9787153372
 20
103.9412420336
  0
VERTEX
  8
4_SURFACE
 62
7
  6
CONTINUOUS
 10
154.9824628572
 20
103.9651260836
  0
VERTEX
  8
4_SURFACE
 62
7
  6
CONTINUOUS
 10
154.9856311532
 20
103.9886946065
  0
VERTEX
  8
4_SURFACE
 62
7
  6
CONTINUOUS
 10
154.9884498747
 20
104.0127825981
  0
VERTEX
  8
4_SURFACE
 62
7
  6
CONTINUOUS
 10
154.9910576539
 20
104.0380480189
  0
VERTEX
  8
4_SURFACE
 62
7
  6
CONTINUOUS
 10
154.9935386323
 20
104.0650079756
  0
VERTEX
  8
4_SURFACE
 62
7
  6
CONTINUOUS
 10
154.9959430144
 20
104.0940563511
  0
VERTEX
  8
4_SURFACE
 62
7
  6
CONTINUOUS
 10
154.9983014547
 20
104.1255041471
  0
VERTEX
  8
4_SURFACE
 62
7
  6
CONTINUOUS
 10
155.0006326311
 20
104.1595981693
  0
VERTEX
  8
4_SURFACE
 62
7
  6
CONTINUOUS
 10
155.0029482678
 20
104.1965433371
  0
VERTEX
  8
4_SURFACE
 62
7
  6
CONTINUOUS
 10
155.0075575893
 20
104.2796440512
  0
SEQEND
  0
LINE
  8
4_SURFACE
 62
7
  6
CONTINUOUS
 10
181.3972153186
 20
103.4945730707
 11
181.3972626137
 21
103.494573865
  0
LINE
  8
4_SURFACE
 62
7
  6
CONTINUOUS
 10
130.7972626137
 20
103.494573865
 11
130.7972151066
 21
103.4945730702
  0
LINE
  8
0
 62
7
  6
CONTINUOUS
 10
284.2579994864
 20
105.2126452463
 11
279.4145913884
 21
105.2126452463
  0
LINE
  8
4_SURFACE
 62
7
  6
CONTINUOUS
 10
107.0579996995
 20
105.2126452463
 11
102.2145916014
 21
105.2126452463
  0
LINE
  8
1_AXIS
 62
2
  6
CENTER
 10
96.1362955439
 20
109.8445730654
 11
290.3362955439
 21
109.8445730654
  0
POLYLINE
  8
0
 62
7
  6
CONTINUOUS
 66
1
 70
0
  0
VERTEX
  8
0
 62
7
  6
CONTINUOUS
 10
284.2579994861
 20
105.2126410309
  0
VERTEX
  8
0
 62
7
  6
CONTINUOUS
 10
284.2618291085
 20
105.2126135905
  0
VERTEX
  8
0
 62
7
  6
CONTINUOUS
 10
284.2975667845
 20
105.209839952
  0
VERTEX
  8
0
 62
7
  6
CONTINUOUS
 10
284.3323229673
 20
105.2029323852
  0
VERTEX
  8
0
 62
7
  6
CONTINUOUS
 10
284.3652193919
 20
105.1927923985
  0
VERTEX
  8
0
 62
7
  6
CONTINUOUS
 10
284.3964402077
 20
105.1801021179
  0
VERTEX
  8
0
 62
7
  6
CONTINUOUS
 10
284.4260707586
 20
105.165407786
  0
VERTEX
  8
0
 62
7
  6
CONTINUOUS
 10
284.4542655564
 20
105.1490965592
  0
VERTEX
  8
0
 62
7
  6
CONTINUOUS
 10
284.4812699288
 20
105.1313622602
  0
VERTEX
  8
0
 62
7
  6
CONTINUOUS
 10
284.5071465311
 20
105.1124208136
  0
VERTEX
  8
0
 62
7
  6
CONTINUOUS
 10
284.5319734367
 20
105.0924259368
  0
VERTEX
  8
0
 62
7
  6
CONTINUOUS
 10
284.5557597513
 20
105.0715354606
  0
VERTEX
  8
0
 62
7
  6
CONTINUOUS
 10
284.5785762126
 20
105.0498303128
  0
VERTEX
  8
0
 62
7
  6
CONTINUOUS
 10
284.600449528
 20
105.0273913107
  0
VERTEX
  8
0
 62
7
  6
CONTINUOUS
 10
284.6214261591
 20
105.0042552083
  0
VERTEX
  8
0
 62
7
  6
CONTINUOUS
 10
284.6415247941
 20
104.9804578388
  0
VERTEX
  8
0
 62
7
  6
CONTINUOUS
 10
284.6607623192
 20
104.9560108649
  0
VERTEX
  8
0
 62
7
  6
CONTINUOUS
 10
284.6791375589
 20
104.9309220315
  0
VERTEX
  8
0
 62
7
  6
CONTINUOUS
 10
284.6965815334
 20
104.9052697441
  0
VERTEX
  8
0
 62
7
  6
CONTINUOUS
 10
284.7130508389
 20
104.8790812102
  0
VERTEX
  8
0
 62
7
  6
CONTINUOUS
 10
284.7284765203
 20
104.8524009921
  0
VERTEX
  8
0
 62
7
  6
CONTINUOUS
 10
284.7427564239
 20
104.8253009607
  0
VERTEX
  8
0
 62
7
  6
CONTINUOUS
 10
284.7557587805
 20
104.7978958936
  0
VERTEX
  8
0
 62
7
  6
CONTINUOUS
 10
284.7672918255
 20
104.7704157381
  0
VERTEX
  8
0
 62
7
  6
CONTINUOUS
 10
284.769120186
 20
104.7656818934
  0
SEQEND
  0
LINE
  8
0
 62
7
  6
CONTINUOUS
 10
255.6753284742
 20
103.494573865
 11
255.6753760676
 21
103.49457307
  0
LINE
  8
0
 62
7
  6
CONTINUOUS
 10
205.0753755354
 20
103.4945730714
 11
205.0753284742
 21
103.494573865
  0
LINE
  8
4_SURFACE
 62
7
  6
CONTINUOUS
 10
180.7856548667
 20
113.1176057639
 11
180.7951753928
 21
112.9945730654
  0
POLYLINE
  8
4_SURFACE
 62
7
  6
CONTINUOUS
 66
1
 70
0
  0
VERTEX
  8
4_SURFACE
 62
7
  6
CONTINUOUS
 10
180.870269662
 20
104.1862331817
  0
VERTEX
  8
4_SURFACE
 62
7
  6
CONTINUOUS
 10
180.8724586642
 20
104.1520243268
  0
VERTEX
  8
4_SURFACE
 62
7
  6
CONTINUOUS
 10
180.8746701653
 20
104.1202261549
  0
VERTEX
  8
4_SURFACE
 62
7
  6
CONTINUOUS
 10
180.8769152353
 20
104.0906812626
  0
VERTEX
  8
4_SURFACE
 62
7
  6
CONTINUOUS
 10
180.8792101904
 20
104.0632047952
  0
VERTEX
  8
4_SURFACE
 62
7
  6
CONTINUOUS
 10
180.881582002
 20
104.0375494631
  0
VERTEX
  8
4_SURFACE
 62
7
  6
CONTINUOUS
 10
180.8840747061
 20
104.0133899811
  0
VERTEX
  8
4_SURFACE
 62
7
  6
CONTINUOUS
 10
180.8867614419
 20
103.990289252
  0
VERTEX
  8
4_SURFACE
 62
7
  6
CONTINUOUS
 10
180.8897674848
 20
103.9676403896
  0
VERTEX
  8
4_SURFACE
 62
7
  6
CONTINUOUS
 10
180.8933205912
 20
103.9445422834
  0
VERTEX
  8
4_SURFACE
 62
7
  6
CONTINUOUS
 10
180.8977903107
 20
103.9199405783
  0
VERTEX
  8
4_SURFACE
 62
7
  6
CONTINUOUS
 10
180.9038629764
 20
103.8922566242
  0
VERTEX
  8
4_SURFACE
 62
7
  6
CONTINUOUS
 10
180.9128717051
 20
103.8591108731
  0
VERTEX
  8
4_SURFACE
 62
7
  6
CONTINUOUS
 10
180.9271531032
 20
103.8179029326
  0
VERTEX
  8
4_SURFACE
 62
7
  6
CONTINUOUS
 10
180.9497853204
 20
103.7679521267
  0
VERTEX
  8
4_SURFACE
 62
7
  6
CONTINUOUS
 10
180.9834228894
 20
103.7120041267
  0
VERTEX
  8
4_SURFACE
 62
7
  6
CONTINUOUS
 10
181.030510848
 20
103.6536543209
  0
VERTEX
  8
4_SURFACE
 62
7
  6
CONTINUOUS
 10
181.093651069
 20
103.5967556596
  0
VERTEX
  8
4_SURFACE
 62
7
  6
CONTINUOUS
 10
181.1728785411
 20
103.5475028865
  0
VERTEX
  8
4_SURFACE
 62
7
  6
CONTINUOUS
 10
181.2646205205
 20
103.5124091103
  0
VERTEX
  8
4_SURFACE
 62
7
  6
CONTINUOUS
 10
181.3632932216
 20
103.4957224962
  0
VERTEX
  8
4_SURFACE
 62
7
  6
CONTINUOUS
 10
181.3972185143
 20
103.4945746319
  0
SEQEND
  0
LINE
  8
4_SURFACE
 62
7
  6
CONTINUOUS
 10
180.7899176293
 20
113.0854694706
 11
180.7950957639
 21
112.9945730653
  0
LINE
  8
4_SURFACE
 62
7
  6
CONTINUOUS
 10
180.8659271632
 20
104.2625088915
 11
180.870269662
 21
104.1862331817
  0
LINE
  8
4_SURFACE
 62
7
  6
CONTINUOUS
 10
180.8616039364
 20
104.3501492972
 11
180.8659271632
 21
104.2625088915
  0
LINE
  8
4_SURFACE
 62
7
  6
CONTINUOUS
 10
180.8572866226
 20
104.4500585084
 11
180.8616039364
 21
104.3501492972
  0
LINE
  8
4_SURFACE
 62
7
  6
CONTINUOUS
 10
180.8529743952
 20
104.563002663
 11
180.8572866226
 21
104.4500585084
  0
LINE
  8
4_SURFACE
 62
7
  6
CONTINUOUS
 10
180.8465320739
 20
104.7583187802
 11
180.8529743952
 21
104.563002663
  0
LINE
  8
4_SURFACE
 62
7
  6
CONTINUOUS
 10
180.8401538644
 20
104.9865857678
 11
180.8465320739
 21
104.7583187802
  0
LINE
  8
4_SURFACE
 62
7
  6
CONTINUOUS
 10
180.33871942
 20
152.5386313924
 11
180.3303200931
 21
152.88246901
  0
LINE
  8
4_SURFACE
 62
7
  6
CONTINUOUS
 10
180.8318061229
 20
105.3469118722
 11
180.8401538644
 21
104.9865857678
  0
LINE
  8
4_SURFACE
 62
7
  6
CONTINUOUS
 10
180.3488473549
 20
152.0116788117
 11
180.33871942
 21
152.5386313924
  0
LINE
  8
4_SURFACE
 62
7
  6
CONTINUOUS
 10
180.8217911092
 20
105.8968679887
 11
180.8318061229
 21
105.3469118722
  0
LINE
  8
4_SURFACE
 62
7
  6
CONTINUOUS
 10
180.3600242291
 20
151.2196664309
 11
180.3488473549
 21
152.0116788117
  0
LINE
  8
4_SURFACE
 62
7
  6
CONTINUOUS
 10
180.8108571062
 20
106.719745165
 11
180.8217911092
 21
105.8968679887
  0
LINE
  8
4_SURFACE
 62
7
  6
CONTINUOUS
 10
180.370651581
 20
150.0513466235
 11
180.3600242291
 21
151.2196664309
  0
LINE
  8
4_SURFACE
 62
7
  6
CONTINUOUS
 10
180.8007280862
 20
107.9276090232
 11
180.8108571062
 21
106.719745165
  0
LINE
  8
4_SURFACE
 62
7
  6
CONTINUOUS
 10
180.3768515902
 20
148.5991372943
 11
180.370651581
 21
150.0513466235
  0
LINE
  8
4_SURFACE
 62
7
  6
CONTINUOUS
 10
180.7953674975
 20
109.4205861399
 11
180.8007280862
 21
107.9276090232
  0
LINE
  8
4_SURFACE
 62
7
  6
CONTINUOUS
 10
180.3768515902
 20
148.5991372943
 11
180.3774918474
 21
144.7945730654
  0
LINE
  8
4_SURFACE
 62
7
  6
CONTINUOUS
 10
180.7953674975
 20
109.4205861399
 11
180.7950992404
 21
112.9945730654
  0
POLYLINE
  8
0
 62
7
  6
CONTINUOUS
 66
1
 70
0
  0
VERTEX
  8
0
 62
7
  6
CONTINUOUS
 10
206.4630284951
 20
113.7944387996
  0
VERTEX
  8
0
 62
7
  6
CONTINUOUS
 10
206.3546956178
 20
113.7850683383
  0
VERTEX
  8
0
 62
7
  6
CONTINUOUS
 10
206.2323809614
 20
113.7560615826
  0
VERTEX
  8
0
 62
7
  6
CONTINUOUS
 10
206.1151711242
 20
113.7077842467
  0
VERTEX
  8
0
 62
7
  6
CONTINUOUS
 10
206.0072561906
 20
113.6417544657
  0
VERTEX
  8
0
 62
7
  6
CONTINUOUS
 10
205.9118296499
 20
113.5602775584
  0
SEQEND
  0
LINE
  8
0
 62
7
  6
CONTINUOUS
 10
206.4776898739
 20
113.7945730654
 11
206.4630284951
 21
113.7944387996
  0
LINE
  8
4_SURFACE
 62
7
  6
CONTINUOUS
 10
155.8631055396
 20
113.7944402071
 11
155.8776898739
 21
113.7945730654
  0
LINE
  8
0
 62
7
  6
CONTINUOUS
 10
230.5949012139
 20
113.7945730654
 11
206.4776898739
 21
113.7945730654
  0
LINE
  8
4_SURFACE
 62
7
  6
CONTINUOUS
 10
179.9949012139
 20
113.7945730654
 11
155.8776898739
 21
113.7945730654
  0
LINE
  8
4_SURFACE
 62
7
  6
CONTINUOUS
 10
129.6952515452
 20
113.7945730654
 11
111.1774918474
 21
113.7945730654
  0
LINE
  8
0
 62
7
  6
CONTINUOUS
 10
256.7773395426
 20
113.7945730654
 11
275.2950992404
 21
113.7945730654
  0
LINE
  8
0
 62
7
  6
CONTINUOUS
 10
230.6094855482
 20
113.7944402071
 11
230.5949012139
 21
113.7945730654
  0
LINE
  8
4_SURFACE
 62
7
  6
CONTINUOUS
 10
179.9949012139
 20
113.7945730654
 11
180.0095625927
 21
113.7944387996
  0
POLYLINE
  8
4_SURFACE
 62
7
  6
CONTINUOUS
 66
1
 70
0
  0
VERTEX
  8
4_SURFACE
 62
7
  6
CONTINUOUS
 10
180.0095643565
 20
113.7944351037
  0
VERTEX
  8
4_SURFACE
 62
7
  6
CONTINUOUS
 10
180.0818504581
 20
113.7898364567
  0
VERTEX
  8
4_SURFACE
 62
7
  6
CONTINUOUS
 10
180.2140017966
 20
113.7640004625
  0
VERTEX
  8
4_SURFACE
 62
7
  6
CONTINUOUS
 10
180.3399806207
 20
113.716361912
  0
VERTEX
  8
4_SURFACE
 62
7
  6
CONTINUOUS
 10
180.4561936147
 20
113.6482661242
  0
VERTEX
  8
4_SURFACE
 62
7
  6
CONTINUOUS
 10
180.5593301582
 20
113.5616511716
  0
VERTEX
  8
4_SURFACE
 62
7
  6
CONTINUOUS
 10
180.6464659666
 20
113.4589795305
  0
VERTEX
  8
4_SURFACE
 62
7
  6
CONTINUOUS
 10
180.7151407661
 20
113.3431582287
  0
VERTEX
  8
4_SURFACE
 62
7
  6
CONTINUOUS
 10
180.7634127496
 20
113.2174666997
  0
VERTEX
  8
4_SURFACE
 62
7
  6
CONTINUOUS
 10
180.7899176293
 20
113.0854694706
  0
SEQEND
  0
POLYLINE
  8
0
 62
7
  6
CONTINUOUS
 66
1
 70
0
  0
VERTEX
  8
0
 62
7
  6
CONTINUOUS
 10
230.6094873031
 20
113.794436508
  0
VERTEX
  8
0
 62
7
  6
CONTINUOUS
 10
230.6858356437
 20
113.7893909252
  0
VERTEX
  8
0
 62
7
  6
CONTINUOUS
 10
230.8178819442
 20
113.7628853696
  0
VERTEX
  8
0
 62
7
  6
CONTINUOUS
 10
230.9436192814
 20
113.7146118783
  0
VERTEX
  8
0
 62
7
  6
CONTINUOUS
 10
231.0594749974
 20
113.6459393197
  0
VERTEX
  8
0
 62
7
  6
CONTINUOUS
 10
231.162162539
 20
113.5588193157
  0
VERTEX
  8
0
 62
7
  6
CONTINUOUS
 10
231.2487770739
 20
113.455721553
  0
VERTEX
  8
0
 62
7
  6
CONTINUOUS
 10
231.3168700249
 20
113.3395643445
  0
VERTEX
  8
0
 62
7
  6
CONTINUOUS
 10
231.3645127533
 20
113.2136409667
  0
VERTEX
  8
0
 62
7
  6
CONTINUOUS
 10
231.3903587026
 20
113.0815267664
  0
SEQEND
  0
POLYLINE
  8
4_SURFACE
 62
7
  6
CONTINUOUS
 66
1
 70
0
  0
VERTEX
  8
4_SURFACE
 62
7
  6
CONTINUOUS
 10
180.0095625927
 20
113.7944387996
  0
VERTEX
  8
4_SURFACE
 62
7
  6
CONTINUOUS
 10
180.11789547
 20
113.7850683383
  0
VERTEX
  8
4_SURFACE
 62
7
  6
CONTINUOUS
 10
180.2402101264
 20
113.7560615826
  0
VERTEX
  8
4_SURFACE
 62
7
  6
CONTINUOUS
 10
180.3574199636
 20
113.7077842467
  0
VERTEX
  8
4_SURFACE
 62
7
  6
CONTINUOUS
 10
180.4653348972
 20
113.6417544657
  0
VERTEX
  8
4_SURFACE
 62
7
  6
CONTINUOUS
 10
180.5607614379
 20
113.5602775584
  0
SEQEND
  0
POLYLINE
  8
4_SURFACE
 62
7
  6
CONTINUOUS
 66
1
 70
0
  0
VERTEX
  8
4_SURFACE
 62
7
  6
CONTINUOUS
 10
180.6422624539
 20
113.4649033051
  0
VERTEX
  8
4_SURFACE
 62
7
  6
CONTINUOUS
 10
180.7083057154
 20
113.3570681628
  0
VERTEX
  8
4_SURFACE
 62
7
  6
CONTINUOUS
 10
180.756613569
 20
113.2399132069
  0
VERTEX
  8
4_SURFACE
 62
7
  6
CONTINUOUS
 10
180.7856548667
 20
113.1176057639
  0
SEQEND
  0
LINE
  8
4_SURFACE
 62
7
  6
CONTINUOUS
 10
180.3869362211
 20
144.6715403669
 11
180.377415695
 21
144.7945730654
  0
POLYLINE
  8
4_SURFACE
 62
7
  6
CONTINUOUS
 66
1
 70
0
  0
VERTEX
  8
4_SURFACE
 62
7
  6
CONTINUOUS
 10
180.3023214259
 20
153.6029129492
  0
VERTEX
  8
4_SURFACE
 62
7
  6
CONTINUOUS
 10
180.3001324236
 20
153.6371218041
  0
VERTEX
  8
4_SURFACE
 62
7
  6
CONTINUOUS
 10
180.2979209225
 20
153.668919976
  0
VERTEX
  8
4_SURFACE
 62
7
  6
CONTINUOUS
 10
180.2956758525
 20
153.6984648682
  0
VERTEX
  8
4_SURFACE
 62
7
  6
CONTINUOUS
 10
180.2933808975
 20
153.7259413356
  0
VERTEX
  8
4_SURFACE
 62
7
  6
CONTINUOUS
 10
180.2910090858
 20
153.7515966677
  0
VERTEX
  8
4_SURFACE
 62
7
  6
CONTINUOUS
 10
180.2885163817
 20
153.7757561498
  0
VERTEX
  8
4_SURFACE
 62
7
  6
CONTINUOUS
 10
180.2858296459
 20
153.7988568789
  0
VERTEX
  8
4_SURFACE
 62
7
  6
CONTINUOUS
 10
180.2828236031
 20
153.8215057413
  0
VERTEX
  8
4_SURFACE
 62
7
  6
CONTINUOUS
 10
180.2792704966
 20
153.8446038475
  0
VERTEX
  8
4_SURFACE
 62
7
  6
CONTINUOUS
 10
180.2748007771
 20
153.8692055526
  0
VERTEX
  8
4_SURFACE
 62
7
  6
CONTINUOUS
 10
180.2687281114
 20
153.8968895067
  0
VERTEX
  8
4_SURFACE
 62
7
  6
CONTINUOUS
 10
180.2597193828
 20
153.9300352577
  0
VERTEX
  8
4_SURFACE
 62
7
  6
CONTINUOUS
 10
180.2454379846
 20
153.9712431983
  0
VERTEX
  8
4_SURFACE
 62
7
  6
CONTINUOUS
 10
180.2228057674
 20
154.0211940041
  0
VERTEX
  8
4_SURFACE
 62
7
  6
CONTINUOUS
 10
180.1891681984
 20
154.0771420041
  0
VERTEX
  8
4_SURFACE
 62
7
  6
CONTINUOUS
 10
180.1420802399
 20
154.13549181
  0
VERTEX
  8
4_SURFACE
 62
7
  6
CONTINUOUS
 10
180.0789400188
 20
154.1923904712
  0
VERTEX
  8
4_SURFACE
 62
7
  6
CONTINUOUS
 10
179.9997125468
 20
154.2416432443
  0
VERTEX
  8
4_SURFACE
 62
7
  6
CONTINUOUS
 10
179.9079705673
 20
154.2767370205
  0
VERTEX
  8
4_SURFACE
 62
7
  6
CONTINUOUS
 10
179.8092978662
 20
154.2934236347
  0
VERTEX
  8
4_SURFACE
 62
7
  6
CONTINUOUS
 10
179.7753725735
 20
154.2945714989
  0
SEQEND
  0
LINE
  8
4_SURFACE
 62
7
  6
CONTINUOUS
 10
180.3826734586
 20
144.7036766602
 11
180.3774953239
 21
144.7945730655
  0
LINE
  8
4_SURFACE
 62
7
  6
CONTINUOUS
 10
180.3066639247
 20
153.5266372394
 11
180.3023214259
 21
153.6029129492
  0
LINE
  8
4_SURFACE
 62
7
  6
CONTINUOUS
 10
180.3109871515
 20
153.4389968337
 11
180.3066639247
 21
153.5266372394
  0
LINE
  8
4_SURFACE
 62
7
  6
CONTINUOUS
 10
180.3153044653
 20
153.3390876225
 11
180.3109871515
 21
153.4389968337
  0
LINE
  8
4_SURFACE
 62
7
  6
CONTINUOUS
 10
180.3196166927
 20
153.2261434678
 11
180.3153044653
 21
153.3390876225
  0
LINE
  8
4_SURFACE
 62
7
  6
CONTINUOUS
 10
180.3260590139
 20
153.0308273506
 11
180.3196166927
 21
153.2261434678
  0
LINE
  8
4_SURFACE
 62
7
  6
CONTINUOUS
 10
180.3303200931
 20
152.88246901
 11
180.3260590139
 21
153.0308273506
  0
POLYLINE
  8
4_SURFACE
 62
7
  6
CONTINUOUS
 66
1
 70
0
  0
VERTEX
  8
4_SURFACE
 62
7
  6
CONTINUOUS
 10
155.4072561906
 20
113.6417544657
  0
VERTEX
  8
4_SURFACE
 62
7
  6
CONTINUOUS
 10
155.5151711242
 20
113.7077842467
  0
VERTEX
  8
4_SURFACE
 62
7
  6
CONTINUOUS
 10
155.6323809614
 20
113.7560615826
  0
VERTEX
  8
4_SURFACE
 62
7
  6
CONTINUOUS
 10
155.7546956178
 20
113.7850683382
  0
VERTEX
  8
4_SURFACE
 62
7
  6
CONTINUOUS
 10
155.8631055396
 20
113.7944402071
  0
SEQEND
  0
POLYLINE
  8
4_SURFACE
 62
7
  6
CONTINUOUS
 66
1
 70
0
  0
VERTEX
  8
4_SURFACE
 62
7
  6
CONTINUOUS
 10
180.5303286339
 20
144.3242428257
  0
VERTEX
  8
4_SURFACE
 62
7
  6
CONTINUOUS
 10
180.4642853724
 20
144.4320779681
  0
VERTEX
  8
4_SURFACE
 62
7
  6
CONTINUOUS
 10
180.4159775188
 20
144.5492329239
  0
VERTEX
  8
4_SURFACE
 62
7
  6
CONTINUOUS
 10
180.3869362211
 20
144.6715403669
  0
SEQEND
  0
POLYLINE
  8
0
 62
7
  6
CONTINUOUS
 66
1
 70
0
  0
VERTEX
  8
0
 62
7
  6
CONTINUOUS
 10
205.9422624539
 20
144.3242428257
  0
VERTEX
  8
0
 62
7
  6
CONTINUOUS
 10
206.0083057154
 20
144.4320779681
  0
VERTEX
  8
0
 62
7
  6
CONTINUOUS
 10
206.056613569
 20
144.5492329239
  0
VERTEX
  8
0
 62
7
  6
CONTINUOUS
 10
206.0856548667
 20
144.6715403669
  0
SEQEND
  0
POLYLINE
  8
0
 62
7
  6
CONTINUOUS
 66
1
 70
0
  0
VERTEX
  8
0
 62
7
  6
CONTINUOUS
 10
231.0653348972
 20
113.6417544657
  0
VERTEX
  8
0
 62
7
  6
CONTINUOUS
 10
230.9574199636
 20
113.7077842467
  0
VERTEX
  8
0
 62
7
  6
CONTINUOUS
 10
230.8402101264
 20
113.7560615826
  0
VERTEX
  8
0
 62
7
  6
CONTINUOUS
 10
230.71789547
 20
113.7850683382
  0
VERTEX
  8
0
 62
7
  6
CONTINUOUS
 10
230.6094855482
 20
113.7944402071
  0
SEQEND
  0
LINE
  8
0
 62
7
  6
CONTINUOUS
 10
205.6743712733
 20
108.4082949512
 11
205.6774918474
 21
112.9945730654
  0
LINE
  8
0
 62
7
  6
CONTINUOUS
 10
206.0982198145
 20
149.3808511796
 11
206.0950992404
 21
144.7945730654
  0
LINE
  8
0
 62
7
  6
CONTINUOUS
 10
205.6662250221
 20
107.1711123222
 11
205.6743712733
 21
108.4082949512
  0
LINE
  8
0
 62
7
  6
CONTINUOUS
 10
206.1063660657
 20
150.6180338086
 11
206.0982198145
 21
149.3808511796
  0
LINE
  8
0
 62
7
  6
CONTINUOUS
 10
206.117575661
 20
151.6097165092
 11
206.1063660657
 21
150.6180338086
  0
LINE
  8
0
 62
7
  6
CONTINUOUS
 10
205.6550154268
 20
106.1794296217
 11
205.6662250221
 21
107.1711123222
  0
LINE
  8
0
 62
7
  6
CONTINUOUS
 10
206.1283077202
 20
152.2667265564
 11
206.117575661
 21
151.6097165092
  0
LINE
  8
0
 62
7
  6
CONTINUOUS
 10
205.6442833677
 20
105.5224195744
 11
205.6550154268
 21
106.1794296217
  0
LINE
  8
0
 62
7
  6
CONTINUOUS
 10
206.1374090961
 20
152.6923856324
 11
206.1283077202
 21
152.2667265564
  0
LINE
  8
0
 62
7
  6
CONTINUOUS
 10
205.6351819917
 20
105.0967604985
 11
205.6442833677
 21
105.5224195744
  0
LINE
  8
0
 62
7
  6
CONTINUOUS
 10
206.1443653875
 20
152.9574075496
 11
206.1374090961
 21
152.6923856324
  0
LINE
  8
0
 62
7
  6
CONTINUOUS
 10
205.6282257003
 20
104.8317385812
 11
205.6351819917
 21
105.0967604985
  0
LINE
  8
0
 62
7
  6
CONTINUOUS
 10
206.15133476
 20
153.1795593846
 11
206.1443653875
 21
152.9574075496
  0
LINE
  8
0
 62
7
  6
CONTINUOUS
 10
205.6212563278
 20
104.6095867463
 11
205.6282257003
 21
104.8317385812
  0
LINE
  8
0
 62
7
  6
CONTINUOUS
 10
206.1559624186
 20
153.3058432605
 11
206.15133476
 21
153.1795593846
  0
LINE
  8
0
 62
7
  6
CONTINUOUS
 10
205.6166286693
 20
104.4833028704
 11
205.6212563278
 21
104.6095867463
  0
LINE
  8
0
 62
7
  6
CONTINUOUS
 10
206.1605697719
 20
153.4162205134
 11
206.1559624186
 21
153.3058432605
  0
LINE
  8
0
 62
7
  6
CONTINUOUS
 10
205.6120213159
 20
104.3729256175
 11
205.6166286693
 21
104.4833028704
  0
LINE
  8
0
 62
7
  6
CONTINUOUS
 10
206.1651632029
 20
153.5120202239
 11
206.1605697719
 21
153.4162205134
  0
LINE
  8
0
 62
7
  6
CONTINUOUS
 10
205.607427885
 20
104.277125907
 11
205.6120213159
 21
104.3729256175
  0
POLYLINE
  8
0
 62
7
  6
CONTINUOUS
 66
1
 70
0
  0
VERTEX
  8
0
 62
7
  6
CONTINUOUS
 10
206.0950957639
 20
144.7945730655
  0
VERTEX
  8
0
 62
7
  6
CONTINUOUS
 10
206.0899176293
 20
144.7036766602
  0
VERTEX
  8
0
 62
7
  6
CONTINUOUS
 10
206.0634127496
 20
144.5716794311
  0
VERTEX
  8
0
 62
7
  6
CONTINUOUS
 10
206.0151407661
 20
144.4459879022
  0
VERTEX
  8
0
 62
7
  6
CONTINUOUS
 10
205.9464659666
 20
144.3301666004
  0
VERTEX
  8
0
 62
7
  6
CONTINUOUS
 10
205.8593301582
 20
144.2274949593
  0
VERTEX
  8
0
 62
7
  6
CONTINUOUS
 10
205.7561936147
 20
144.1408800067
  0
VERTEX
  8
0
 62
7
  6
CONTINUOUS
 10
205.6399806207
 20
144.0727842189
  0
VERTEX
  8
0
 62
7
  6
CONTINUOUS
 10
205.5140017966
 20
144.0251456684
  0
VERTEX
  8
0
 62
7
  6
CONTINUOUS
 10
205.3818504581
 20
143.9993096742
  0
VERTEX
  8
0
 62
7
  6
CONTINUOUS
 10
205.3095643566
 20
143.9947110271
  0
SEQEND
  0
POLYLINE
  8
0
 62
7
  6
CONTINUOUS
 66
1
 70
0
  0
VERTEX
  8
0
 62
7
  6
CONTINUOUS
 10
205.6774953239
 20
112.9945730653
  0
VERTEX
  8
0
 62
7
  6
CONTINUOUS
 10
205.6826734586
 20
113.0854694706
  0
VERTEX
  8
0
 62
7
  6
CONTINUOUS
 10
205.7091783382
 20
113.2174666997
  0
VERTEX
  8
0
 62
7
  6
CONTINUOUS
 10
205.7574503217
 20
113.3431582287
  0
VERTEX
  8
0
 62
7
  6
CONTINUOUS
 10
205.8261251212
 20
113.4589795305
  0
VERTEX
  8
0
 62
7
  6
CONTINUOUS
 10
205.9132609296
 20
113.5616511716
  0
VERTEX
  8
0
 62
7
  6
CONTINUOUS
 10
206.0163974731
 20
113.6482661242
  0
VERTEX
  8
0
 62
7
  6
CONTINUOUS
 10
206.1326104671
 20
113.716361912
  0
VERTEX
  8
0
 62
7
  6
CONTINUOUS
 10
206.2585892912
 20
113.7640004625
  0
VERTEX
  8
0
 62
7
  6
CONTINUOUS
 10
206.3907406298
 20
113.7898364567
  0
VERTEX
  8
0
 62
7
  6
CONTINUOUS
 10
206.4630267313
 20
113.7944351037
  0
SEQEND
  0
LINE
  8
0
 62
7
  6
CONTINUOUS
 10
206.0856548667
 20
144.6715403669
 11
206.0951753928
 21
144.7945730654
  0
LINE
  8
0
 62
7
  6
CONTINUOUS
 10
205.6869362211
 20
113.1176057639
 11
205.677415695
 21
112.9945730654
  0
POLYLINE
  8
0
 62
7
  6
CONTINUOUS
 66
1
 70
0
  0
VERTEX
  8
0
 62
7
  6
CONTINUOUS
 10
255.9095625927
 20
143.9947073313
  0
VERTEX
  8
0
 62
7
  6
CONTINUOUS
 10
256.01789547
 20
144.0040777926
  0
VERTEX
  8
0
 62
7
  6
CONTINUOUS
 10
256.1402101264
 20
144.0330845483
  0
VERTEX
  8
0
 62
7
  6
CONTINUOUS
 10
256.2574199636
 20
144.0813618842
  0
VERTEX
  8
0
 62
7
  6
CONTINUOUS
 10
256.3653348972
 20
144.1473916651
  0
VERTEX
  8
0
 62
7
  6
CONTINUOUS
 10
256.4607614379
 20
144.2288685724
  0
SEQEND
  0
POLYLINE
  8
0
 62
7
  6
CONTINUOUS
 66
1
 70
0
  0
VERTEX
  8
0
 62
7
  6
CONTINUOUS
 10
205.3095625927
 20
143.9947073313
  0
VERTEX
  8
0
 62
7
  6
CONTINUOUS
 10
205.41789547
 20
144.0040777926
  0
VERTEX
  8
0
 62
7
  6
CONTINUOUS
 10
205.5402101264
 20
144.0330845483
  0
VERTEX
  8
0
 62
7
  6
CONTINUOUS
 10
205.6574199636
 20
144.0813618842
  0
VERTEX
  8
0
 62
7
  6
CONTINUOUS
 10
205.7653348972
 20
144.1473916651
  0
VERTEX
  8
0
 62
7
  6
CONTINUOUS
 10
205.8607614379
 20
144.2288685724
  0
SEQEND
  0
POLYLINE
  8
4_SURFACE
 62
7
  6
CONTINUOUS
 66
1
 70
0
  0
VERTEX
  8
4_SURFACE
 62
7
  6
CONTINUOUS
 10
130.5630267313
 20
143.9947110271
  0
VERTEX
  8
4_SURFACE
 62
7
  6
CONTINUOUS
 10
130.4907406298
 20
143.9993096742
  0
VERTEX
  8
4_SURFACE
 62
7
  6
CONTINUOUS
 10
130.3585892912
 20
144.0251456684
  0
VERTEX
  8
4_SURFACE
 62
7
  6
CONTINUOUS
 10
130.2326104671
 20
144.0727842189
  0
VERTEX
  8
4_SURFACE
 62
7
  6
CONTINUOUS
 10
130.1163974731
 20
144.1408800067
  0
VERTEX
  8
4_SURFACE
 62
7
  6
CONTINUOUS
 10
130.0132609296
 20
144.2274949593
  0
VERTEX
  8
4_SURFACE
 62
7
  6
CONTINUOUS
 10
129.9261251212
 20
144.3301666004
  0
VERTEX
  8
4_SURFACE
 62
7
  6
CONTINUOUS
 10
129.8574503217
 20
144.4459879022
  0
VERTEX
  8
4_SURFACE
 62
7
  6
CONTINUOUS
 10
129.8091783382
 20
144.5716794311
  0
VERTEX
  8
4_SURFACE
 62
7
  6
CONTINUOUS
 10
129.7826734586
 20
144.7036766602
  0
SEQEND
  0
POLYLINE
  8
4_SURFACE
 62
7
  6
CONTINUOUS
 66
1
 70
0
  0
VERTEX
  8
4_SURFACE
 62
7
  6
CONTINUOUS
 10
130.5630284951
 20
143.9947073313
  0
VERTEX
  8
4_SURFACE
 62
7
  6
CONTINUOUS
 10
130.4546956178
 20
144.0040777926
  0
VERTEX
  8
4_SURFACE
 62
7
  6
CONTINUOUS
 10
130.3323809614
 20
144.0330845483
  0
VERTEX
  8
4_SURFACE
 62
7
  6
CONTINUOUS
 10
130.2151711242
 20
144.0813618842
  0
VERTEX
  8
4_SURFACE
 62
7
  6
CONTINUOUS
 10
130.1072561906
 20
144.1473916651
  0
VERTEX
  8
4_SURFACE
 62
7
  6
CONTINUOUS
 10
130.0118296499
 20
144.2288685724
  0
SEQEND
  0
POLYLINE
  8
4_SURFACE
 62
7
  6
CONTINUOUS
 66
1
 70
0
  0
VERTEX
  8
4_SURFACE
 62
7
  6
CONTINUOUS
 10
181.1630284951
 20
143.9947073313
  0
VERTEX
  8
4_SURFACE
 62
7
  6
CONTINUOUS
 10
181.0546956178
 20
144.0040777926
  0
VERTEX
  8
4_SURFACE
 62
7
  6
CONTINUOUS
 10
180.9323809614
 20
144.0330845483
  0
VERTEX
  8
4_SURFACE
 62
7
  6
CONTINUOUS
 10
180.8151711242
 20
144.0813618842
  0
VERTEX
  8
4_SURFACE
 62
7
  6
CONTINUOUS
 10
180.7072561906
 20
144.1473916651
  0
VERTEX
  8
4_SURFACE
 62
7
  6
CONTINUOUS
 10
180.6118296499
 20
144.2288685724
  0
SEQEND
  0
POLYLINE
  8
0
 62
7
  6
CONTINUOUS
 66
1
 70
0
  0
VERTEX
  8
0
 62
7
  6
CONTINUOUS
 10
205.8303286339
 20
113.4649033051
  0
VERTEX
  8
0
 62
7
  6
CONTINUOUS
 10
205.7642853724
 20
113.3570681628
  0
VERTEX
  8
0
 62
7
  6
CONTINUOUS
 10
205.7159775188
 20
113.2399132069
  0
VERTEX
  8
0
 62
7
  6
CONTINUOUS
 10
205.6869362211
 20
113.1176057639
  0
SEQEND
  0
LINE
  8
0
 62
7
  6
CONTINUOUS
 10
255.8949012139
 20
143.9945730654
 11
255.9095625927
 21
143.9947073313
  0
LINE
  8
0
 62
7
  6
CONTINUOUS
 10
205.2949012139
 20
143.9945730654
 11
205.3095625927
 21
143.9947073313
  0
LINE
  8
4_SURFACE
 62
7
  6
CONTINUOUS
 10
154.7094855482
 20
143.9947059237
 11
154.6949012139
 21
143.9945730654
  0
LINE
  8
4_SURFACE
 62
7
  6
CONTINUOUS
 10
110.3094855482
 20
143.9947059237
 11
110.2949012139
 21
143.9945730654
  0
LINE
  8
4_SURFACE
 62
7
  6
CONTINUOUS
 10
154.6949012139
 20
143.9945730654
 11
130.5776898739
 21
143.9945730654
  0
LINE
  8
4_SURFACE
 62
7
  6
CONTINUOUS
 10
110.2949012139
 20
143.9945730654
 11
99.5362955439
 21
143.9945730654
  0
LINE
  8
0
 62
7
  6
CONTINUOUS
 10
181.1776898739
 20
143.9945730654
 11
205.2949012139
 21
143.9945730654
  0
LINE
  8
0
 62
7
  6
CONTINUOUS
 10
231.7776898739
 20
143.9945730654
 11
255.8949012139
 21
143.9945730654
  0
LINE
  8
0
 62
7
  6
CONTINUOUS
 10
276.1776898739
 20
143.9945730654
 11
286.9362955439
 21
143.9945730654
  0
LINE
  8
1_AXIS
 62
2
  6
CENTER
 10
104.7343408096
 20
147.9445730654
 11
277.3321848426
 21
147.9445730654
  0
LINE
  8
0
 62
7
  6
CONTINUOUS
 10
231.7631055396
 20
143.9947059237
 11
231.7776898739
 21
143.9945730654
  0
LINE
  8
0
 62
7
  6
CONTINUOUS
 10
276.1631055396
 20
143.9947059237
 11
276.1776898739
 21
143.9945730654
  0
LINE
  8
4_SURFACE
 62
7
  6
CONTINUOUS
 10
130.5776898739
 20
143.9945730654
 11
130.5630284951
 21
143.9947073313
  0
LINE
  8
4_SURFACE
 62
7
  6
CONTINUOUS
 10
181.1776898739
 20
143.9945730654
 11
181.1630284951
 21
143.9947073313
  0
POLYLINE
  8
4_SURFACE
 62
7
  6
CONTINUOUS
 66
1
 70
0
  0
VERTEX
  8
4_SURFACE
 62
7
  6
CONTINUOUS
 10
181.1630267313
 20
143.9947110271
  0
VERTEX
  8
4_SURFACE
 62
7
  6
CONTINUOUS
 10
181.0907406298
 20
143.9993096742
  0
VERTEX
  8
4_SURFACE
 62
7
  6
CONTINUOUS
 10
180.9585892912
 20
144.0251456684
  0
VERTEX
  8
4_SURFACE
 62
7
  6
CONTINUOUS
 10
180.8326104671
 20
144.0727842189
  0
VERTEX
  8
4_SURFACE
 62
7
  6
CONTINUOUS
 10
180.7163974731
 20
144.1408800067
  0
VERTEX
  8
4_SURFACE
 62
7
  6
CONTINUOUS
 10
180.6132609296
 20
144.2274949593
  0
VERTEX
  8
4_SURFACE
 62
7
  6
CONTINUOUS
 10
180.5261251212
 20
144.3301666004
  0
VERTEX
  8
4_SURFACE
 62
7
  6
CONTINUOUS
 10
180.4574503217
 20
144.4459879022
  0
VERTEX
  8
4_SURFACE
 62
7
  6
CONTINUOUS
 10
180.4091783382
 20
144.5716794311
  0
VERTEX
  8
4_SURFACE
 62
7
  6
CONTINUOUS
 10
180.3826734586
 20
144.7036766602
  0
SEQEND
  0
POLYLINE
  8
0
 62
7
  6
CONTINUOUS
 66
1
 70
0
  0
VERTEX
  8
0
 62
7
  6
CONTINUOUS
 10
231.7631037847
 20
143.9947096229
  0
VERTEX
  8
0
 62
7
  6
CONTINUOUS
 10
231.6867554441
 20
143.9997552057
  0
VERTEX
  8
0
 62
7
  6
CONTINUOUS
 10
231.5547091437
 20
144.0262607612
  0
VERTEX
  8
0
 62
7
  6
CONTINUOUS
 10
231.4289718065
 20
144.0745342526
  0
VERTEX
  8
0
 62
7
  6
CONTINUOUS
 10
231.3131160905
 20
144.1432068112
  0
VERTEX
  8
0
 62
7
  6
CONTINUOUS
 10
231.2104285489
 20
144.2303268152
  0
VERTEX
  8
0
 62
7
  6
CONTINUOUS
 10
231.1238140139
 20
144.3334245779
  0
VERTEX
  8
0
 62
7
  6
CONTINUOUS
 10
231.055721063
 20
144.4495817864
  0
VERTEX
  8
0
 62
7
  6
CONTINUOUS
 10
231.0080783345
 20
144.5755051642
  0
VERTEX
  8
0
 62
7
  6
CONTINUOUS
 10
230.9822323852
 20
144.7076193645
  0
SEQEND
  0
POLYLINE
  8
0
 62
7
  6
CONTINUOUS
 66
1
 70
0
  0
VERTEX
  8
0
 62
7
  6
CONTINUOUS
 10
276.1631037847
 20
143.9947096229
  0
VERTEX
  8
0
 62
7
  6
CONTINUOUS
 10
276.0867554442
 20
143.9997552057
  0
VERTEX
  8
0
 62
7
  6
CONTINUOUS
 10
275.9547091437
 20
144.0262607612
  0
VERTEX
  8
0
 62
7
  6
CONTINUOUS
 10
275.8289718065
 20
144.0745342526
  0
VERTEX
  8
0
 62
7
  6
CONTINUOUS
 10
275.7131160905
 20
144.1432068112
  0
VERTEX
  8
0
 62
7
  6
CONTINUOUS
 10
275.6104285489
 20
144.2303268151
  0
VERTEX
  8
0
 62
7
  6
CONTINUOUS
 10
275.5238140139
 20
144.3334245778
  0
VERTEX
  8
0
 62
7
  6
CONTINUOUS
 10
275.455721063
 20
144.4495817863
  0
VERTEX
  8
0
 62
7
  6
CONTINUOUS
 10
275.4080783345
 20
144.5755051642
  0
VERTEX
  8
0
 62
7
  6
CONTINUOUS
 10
275.3822323852
 20
144.7076193645
  0
SEQEND
  0
POLYLINE
  8
0
 62
7
  6
CONTINUOUS
 66
1
 70
0
  0
VERTEX
  8
0
 62
7
  6
CONTINUOUS
 10
257.2972187412
 20
154.2945714987
  0
VERTEX
  8
0
 62
7
  6
CONTINUOUS
 10
257.255855107
 20
154.2928640924
  0
VERTEX
  8
0
 62
7
  6
CONTINUOUS
 10
257.1575773112
 20
154.2747522605
  0
VERTEX
  8
0
 62
7
  6
CONTINUOUS
 10
257.0680883462
 20
154.2392182393
  0
VERTEX
  8
0
 62
7
  6
CONTINUOUS
 10
256.9914738568
 20
154.1907292888
  0
VERTEX
  8
0
 62
7
  6
CONTINUOUS
 10
256.9301350769
 20
154.1350904711
  0
VERTEX
  8
0
 62
7
  6
CONTINUOUS
 10
256.8837568585
 20
154.077624242
  0
VERTEX
  8
0
 62
7
  6
CONTINUOUS
 10
256.8505653929
 20
154.0226942102
  0
VERTEX
  8
0
 62
7
  6
CONTINUOUS
 10
256.8283499744
 20
153.9742696035
  0
VERTEX
  8
0
 62
7
  6
CONTINUOUS
 10
256.8139691133
 20
153.9336109281
  0
VERTEX
  8
0
 62
7
  6
CONTINUOUS
 10
256.8046774594
 20
153.9002184063
  0
VERTEX
  8
0
 62
7
  6
CONTINUOUS
 10
256.798355491
 20
153.8720281575
  0
VERTEX
  8
0
 62
7
  6
CONTINUOUS
 10
256.7937240753
 20
153.8470099963
  0
VERTEX
  8
0
 62
7
  6
CONTINUOUS
 10
256.7900573007
 20
153.8235289145
  0
VERTEX
  8
0
 62
7
  6
CONTINUOUS
 10
256.7869415831
 20
153.8003047092
  0
VERTEX
  8
0
 62
7
  6
CONTINUOUS
 10
256.784155389
 20
153.776492753
  0
VERTEX
  8
0
 62
7
  6
CONTINUOUS
 10
256.7815719815
 20
153.7514938955
  0
VERTEX
  8
0
 62
7
  6
CONTINUOUS
 10
256.7791112951
 20
153.7248122387
  0
VERTEX
  8
0
 62
7
  6
CONTINUOUS
 10
256.776724387
 20
153.6960576823
  0
VERTEX
  8
0
 62
7
  6
CONTINUOUS
 10
256.7743811102
 20
153.6649180381
  0
VERTEX
  8
0
 62
7
  6
CONTINUOUS
 10
256.7720629311
 20
153.6311416449
  0
VERTEX
  8
0
 62
7
  6
CONTINUOUS
 10
256.7697580982
 20
153.5945162723
  0
VERTEX
  8
0
 62
7
  6
CONTINUOUS
 10
256.7651632029
 20
153.5120202239
  0
SEQEND
  0
POLYLINE
  8
0
 62
7
  6
CONTINUOUS
 66
1
 70
0
  0
VERTEX
  8
0
 62
7
  6
CONTINUOUS
 10
206.6972187412
 20
154.2945714987
  0
VERTEX
  8
0
 62
7
  6
CONTINUOUS
 10
206.655855107
 20
154.2928640924
  0
VERTEX
  8
0
 62
7
  6
CONTINUOUS
 10
206.5575773112
 20
154.2747522605
  0
VERTEX
  8
0
 62
7
  6
CONTINUOUS
 10
206.4680883462
 20
154.2392182393
  0
VERTEX
  8
0
 62
7
  6
CONTINUOUS
 10
206.3914738568
 20
154.1907292888
  0
VERTEX
  8
0
 62
7
  6
CONTINUOUS
 10
206.3301350769
 20
154.1350904711
  0
VERTEX
  8
0
 62
7
  6
CONTINUOUS
 10
206.2837568585
 20
154.077624242
  0
VERTEX
  8
0
 62
7
  6
CONTINUOUS
 10
206.2505653929
 20
154.0226942102
  0
VERTEX
  8
0
 62
7
  6
CONTINUOUS
 10
206.2283499744
 20
153.9742696035
  0
VERTEX
  8
0
 62
7
  6
CONTINUOUS
 10
206.2139691133
 20
153.9336109281
  0
VERTEX
  8
0
 62
7
  6
CONTINUOUS
 10
206.2046774594
 20
153.9002184063
  0
VERTEX
  8
0
 62
7
  6
CONTINUOUS
 10
206.198355491
 20
153.8720281575
  0
VERTEX
  8
0
 62
7
  6
CONTINUOUS
 10
206.1937240753
 20
153.8470099963
  0
VERTEX
  8
0
 62
7
  6
CONTINUOUS
 10
206.1900573007
 20
153.8235289145
  0
VERTEX
  8
0
 62
7
  6
CONTINUOUS
 10
206.1869415831
 20
153.8003047092
  0
VERTEX
  8
0
 62
7
  6
CONTINUOUS
 10
206.184155389
 20
153.776492753
  0
VERTEX
  8
0
 62
7
  6
CONTINUOUS
 10
206.1815719815
 20
153.7514938955
  0
VERTEX
  8
0
 62
7
  6
CONTINUOUS
 10
206.1791112951
 20
153.7248122387
  0
VERTEX
  8
0
 62
7
  6
CONTINUOUS
 10
206.176724387
 20
153.6960576823
  0
VERTEX
  8
0
 62
7
  6
CONTINUOUS
 10
206.1743811102
 20
153.6649180381
  0
VERTEX
  8
0
 62
7
  6
CONTINUOUS
 10
206.1720629311
 20
153.6311416449
  0
VERTEX
  8
0
 62
7
  6
CONTINUOUS
 10
206.1697580982
 20
153.5945162723
  0
VERTEX
  8
0
 62
7
  6
CONTINUOUS
 10
206.1651632029
 20
153.5120202239
  0
SEQEND
  0
POLYLINE
  8
4_SURFACE
 62
7
  6
CONTINUOUS
 66
1
 70
0
  0
VERTEX
  8
4_SURFACE
 62
7
  6
CONTINUOUS
 10
156.0972185929
 20
154.2945715003
  0
VERTEX
  8
4_SURFACE
 62
7
  6
CONTINUOUS
 10
156.0608963391
 20
154.2932554675
  0
VERTEX
  8
4_SURFACE
 62
7
  6
CONTINUOUS
 10
155.962676829
 20
154.2762003559
  0
VERTEX
  8
4_SURFACE
 62
7
  6
CONTINUOUS
 10
155.8729619171
 20
154.241684887
  0
VERTEX
  8
4_SURFACE
 62
7
  6
CONTINUOUS
 10
155.7959015066
 20
154.1940879588
  0
VERTEX
  8
4_SURFACE
 62
7
  6
CONTINUOUS
 10
155.7339718092
 20
154.1391475798
  0
VERTEX
  8
4_SURFACE
 62
7
  6
CONTINUOUS
 10
155.6868842801
 20
154.0820834725
  0
VERTEX
  8
4_SURFACE
 62
7
  6
CONTINUOUS
 10
155.652882334
 20
154.0270809868
  0
VERTEX
  8
4_SURFACE
 62
7
  6
CONTINUOUS
 10
155.6298589879
 20
153.9780105575
  0
VERTEX
  8
4_SURFACE
 62
7
  6
CONTINUOUS
 10
155.6148470522
 20
153.9364127368
  0
VERTEX
  8
4_SURFACE
 62
7
  6
CONTINUOUS
 10
155.6051663177
 20
153.9021795898
  0
VERTEX
  8
4_SURFACE
 62
7
  6
CONTINUOUS
 10
155.5986260549
 20
153.8733592811
  0
VERTEX
  8
4_SURFACE
 62
7
  6
CONTINUOUS
 10
155.5938757506
 20
153.8479040973
  0
VERTEX
  8
4_SURFACE
 62
7
  6
CONTINUOUS
 10
155.5901282306
 20
153.8240200473
  0
VERTEX
  8
4_SURFACE
 62
7
  6
CONTINUOUS
 10
155.5869599346
 20
153.8004515243
  0
VERTEX
  8
4_SURFACE
 62
7
  6
CONTINUOUS
 10
155.5841412131
 20
153.7763635328
  0
VERTEX
  8
4_SURFACE
 62
7
  6
CONTINUOUS
 10
155.5815334339
 20
153.751098112
  0
VERTEX
  8
4_SURFACE
 62
7
  6
CONTINUOUS
 10
155.5790524555
 20
153.7241381553
  0
VERTEX
  8
4_SURFACE
 62
7
  6
CONTINUOUS
 10
155.5766480735
 20
153.6950897798
  0
VERTEX
  8
4_SURFACE
 62
7
  6
CONTINUOUS
 10
155.5742896331
 20
153.6636419837
  0
VERTEX
  8
4_SURFACE
 62
7
  6
CONTINUOUS
 10
155.5719584567
 20
153.6295479615
  0
VERTEX
  8
4_SURFACE
 62
7
  6
CONTINUOUS
 10
155.56964282
 20
153.5926027938
  0
VERTEX
  8
4_SURFACE
 62
7
  6
CONTINUOUS
 10
155.5650334985
 20
153.5095020797
  0
SEQEND
  0
LINE
  8
0
 62
7
  6
CONTINUOUS
 10
274.7753284742
 20
154.2945722658
 11
274.7753756014
 21
154.2945730597
  0
LINE
  8
0
 62
7
  6
CONTINUOUS
 10
230.3753284742
 20
154.2945722658
 11
230.3753756014
 21
154.2945730597
  0
LINE
  8
4_SURFACE
 62
7
  6
CONTINUOUS
 10
179.7753757692
 20
154.2945730601
 11
179.7753284742
 21
154.2945722658
  0
LINE
  8
4_SURFACE
 62
7
  6
CONTINUOUS
 10
129.1753757692
 20
154.2945730601
 11
129.1753284742
 21
154.2945722658
  0
LINE
  8
0
 62
7
  6
CONTINUOUS
 10
274.7753795952
 20
154.2945730654
 11
257.2972114927
 21
154.2945730654
  0
LINE
  8
0
 62
7
  6
CONTINUOUS
 10
230.3753795952
 20
154.2945730654
 11
206.6972626137
 21
154.2945722658
  0
LINE
  8
4_SURFACE
 62
7
  6
CONTINUOUS
 10
179.7753795952
 20
154.2945730654
 11
156.0972114927
 21
154.2945730654
  0
LINE
  8
4_SURFACE
 62
7
  6
CONTINUOUS
 10
129.1753795952
 20
154.2945730654
 11
111.6972114927
 21
154.2945730654
  0
LINE
  8
0
 62
7
  6
CONTINUOUS
 10
179.7753284742
 20
154.2945722658
 11
156.0972626137
 21
154.2945722658
  0
LINE
  8
4_SURFACE
 62
7
  6
CONTINUOUS
 10
111.6972626137
 20
154.2945722658
 11
111.6972154
 21
154.2945730599
  0
LINE
  8
4_SURFACE
 62
7
  6
CONTINUOUS
 10
156.0972626137
 20
154.2945722658
 11
156.0972154
 21
154.2945730599
  0
LINE
  8
0
 62
7
  6
CONTINUOUS
 10
206.6972155524
 20
154.2945730595
 11
206.6972626137
 21
154.2945722658
  0
LINE
  8
0
 62
7
  6
CONTINUOUS
 10
257.2972155524
 20
154.2945730595
 11
257.2972626137
 21
154.2945722658
  0
POLYLINE
  8
4_SURFACE
 62
7
  6
CONTINUOUS
 66
1
 70
0
  0
VERTEX
  8
4_SURFACE
 62
7
  6
CONTINUOUS
 10
111.6972185929
 20
154.2945715003
  0
VERTEX
  8
4_SURFACE
 62
7
  6
CONTINUOUS
 10
111.6608963391
 20
154.2932554675
  0
VERTEX
  8
4_SURFACE
 62
7
  6
CONTINUOUS
 10
111.562676829
 20
154.2762003559
  0
VERTEX
  8
4_SURFACE
 62
7
  6
CONTINUOUS
 10
111.4729619171
 20
154.241684887
  0
VERTEX
  8
4_SURFACE
 62
7
  6
CONTINUOUS
 10
111.3959015066
 20
154.1940879588
  0
VERTEX
  8
4_SURFACE
 62
7
  6
CONTINUOUS
 10
111.3339718092
 20
154.1391475798
  0
VERTEX
  8
4_SURFACE
 62
7
  6
CONTINUOUS
 10
111.2868842801
 20
154.0820834725
  0
VERTEX
  8
4_SURFACE
 62
7
  6
CONTINUOUS
 10
111.252882334
 20
154.0270809868
  0
VERTEX
  8
4_SURFACE
 62
7
  6
CONTINUOUS
 10
111.2298589879
 20
153.9780105575
  0
VERTEX
  8
4_SURFACE
 62
7
  6
CONTINUOUS
 10
111.2148470522
 20
153.9364127368
  0
VERTEX
  8
4_SURFACE
 62
7
  6
CONTINUOUS
 10
111.2051663177
 20
153.9021795898
  0
VERTEX
  8
4_SURFACE
 62
7
  6
CONTINUOUS
 10
111.1986260549
 20
153.8733592811
  0
VERTEX
  8
4_SURFACE
 62
7
  6
CONTINUOUS
 10
111.1938757506
 20
153.8479040973
  0
VERTEX
  8
4_SURFACE
 62
7
  6
CONTINUOUS
 10
111.1901282306
 20
153.8240200473
  0
VERTEX
  8
4_SURFACE
 62
7
  6
CONTINUOUS
 10
111.1869599346
 20
153.8004515243
  0
VERTEX
  8
4_SURFACE
 62
7
  6
CONTINUOUS
 10
111.1841412131
 20
153.7763635328
  0
VERTEX
  8
4_SURFACE
 62
7
  6
CONTINUOUS
 10
111.1815334339
 20
153.751098112
  0
VERTEX
  8
4_SURFACE
 62
7
  6
CONTINUOUS
 10
111.1790524555
 20
153.7241381553
  0
VERTEX
  8
4_SURFACE
 62
7
  6
CONTINUOUS
 10
111.1766480735
 20
153.6950897798
  0
VERTEX
  8
4_SURFACE
 62
7
  6
CONTINUOUS
 10
111.1742896331
 20
153.6636419837
  0
VERTEX
  8
4_SURFACE
 62
7
  6
CONTINUOUS
 10
111.1719584567
 20
153.6295479615
  0
VERTEX
  8
4_SURFACE
 62
7
  6
CONTINUOUS
 10
111.16964282
 20
153.5926027938
  0
VERTEX
  8
4_SURFACE
 62
7
  6
CONTINUOUS
 10
111.1650334985
 20
153.5095020797
  0
SEQEND
  0
POLYLINE
  8
0
 62
7
  6
CONTINUOUS
 66
1
 70
0
  0
VERTEX
  8
0
 62
7
  6
CONTINUOUS
 10
231.3072561906
 20
144.1473916651
  0
VERTEX
  8
0
 62
7
  6
CONTINUOUS
 10
231.4151711242
 20
144.0813618842
  0
VERTEX
  8
0
 62
7
  6
CONTINUOUS
 10
231.5323809614
 20
144.0330845483
  0
VERTEX
  8
0
 62
7
  6
CONTINUOUS
 10
231.6546956178
 20
144.0040777926
  0
VERTEX
  8
0
 62
7
  6
CONTINUOUS
 10
231.7631055396
 20
143.9947059237
  0
SEQEND
  0
POLYLINE
  8
0
 62
7
  6
CONTINUOUS
 66
1
 70
0
  0
VERTEX
  8
0
 62
7
  6
CONTINUOUS
 10
231.3951753928
 20
112.9945730654
  0
VERTEX
  8
0
 62
7
  6
CONTINUOUS
 10
231.3856548667
 20
113.1176057639
  0
VERTEX
  8
0
 62
7
  6
CONTINUOUS
 10
231.356613569
 20
113.2399132069
  0
VERTEX
  8
0
 62
7
  6
CONTINUOUS
 10
231.3083057154
 20
113.3570681628
  0
VERTEX
  8
0
 62
7
  6
CONTINUOUS
 10
231.2422624539
 20
113.4649033051
  0
VERTEX
  8
0
 62
7
  6
CONTINUOUS
 10
231.1607614379
 20
113.5602775584
  0
SEQEND
  0
POLYLINE
  8
0
 62
7
  6
CONTINUOUS
 66
1
 70
0
  0
VERTEX
  8
0
 62
7
  6
CONTINUOUS
 10
230.977415695
 20
144.7945730654
  0
VERTEX
  8
0
 62
7
  6
CONTINUOUS
 10
230.9869362211
 20
144.6715403669
  0
VERTEX
  8
0
 62
7
  6
CONTINUOUS
 10
231.0159775188
 20
144.5492329239
  0
VERTEX
  8
0
 62
7
  6
CONTINUOUS
 10
231.0642853724
 20
144.4320779681
  0
VERTEX
  8
0
 62
7
  6
CONTINUOUS
 10
231.1303286339
 20
144.3242428257
  0
VERTEX
  8
0
 62
7
  6
CONTINUOUS
 10
231.2118296499
 20
144.2288685725
  0
SEQEND
  0
POLYLINE
  8
0
 62
7
  6
CONTINUOUS
 66
1
 70
0
  0
VERTEX
  8
0
 62
7
  6
CONTINUOUS
 10
231.4701459833
 20
104.1882490865
  0
VERTEX
  8
0
 62
7
  6
CONTINUOUS
 10
231.4723304088
 20
104.1539527049
  0
VERTEX
  8
0
 62
7
  6
CONTINUOUS
 10
231.4745366535
 20
104.1220689156
  0
VERTEX
  8
0
 62
7
  6
CONTINUOUS
 10
231.4767757511
 20
104.0924387085
  0
VERTEX
  8
0
 62
7
  6
CONTINUOUS
 10
231.4790635108
 20
104.0648811916
  0
VERTEX
  8
0
 62
7
  6
CONTINUOUS
 10
231.4814260517
 20
104.0391541972
  0
VERTEX
  8
0
 62
7
  6
CONTINUOUS
 10
231.4839059695
 20
104.0149394109
  0
VERTEX
  8
0
 62
7
  6
CONTINUOUS
 10
231.4865738734
 20
103.9918097428
  0
VERTEX
  8
0
 62
7
  6
CONTINUOUS
 10
231.4895503298
 20
103.9691738303
  0
VERTEX
  8
0
 62
7
  6
CONTINUOUS
 10
231.4930548636
 20
103.9461493253
  0
VERTEX
  8
0
 62
7
  6
CONTINUOUS
 10
231.4974461782
 20
103.9216878667
  0
VERTEX
  8
0
 62
7
  6
CONTINUOUS
 10
231.5033778827
 20
103.8942771556
  0
VERTEX
  8
0
 62
7
  6
CONTINUOUS
 10
231.5121200481
 20
103.8616093279
  0
VERTEX
  8
0
 62
7
  6
CONTINUOUS
 10
231.5259302996
 20
103.8210516673
  0
VERTEX
  8
0
 62
7
  6
CONTINUOUS
 10
231.5478629036
 20
103.7717012435
  0
VERTEX
  8
0
 62
7
  6
CONTINUOUS
 10
231.5806886476
 20
103.7159974994
  0
VERTEX
  8
0
 62
7
  6
CONTINUOUS
 10
231.6269281261
 20
103.6575167769
  0
VERTEX
  8
0
 62
7
  6
CONTINUOUS
 10
231.6892877434
 20
103.6001037814
  0
VERTEX
  8
0
 62
7
  6
CONTINUOUS
 10
231.7679255803
 20
103.5500114218
  0
VERTEX
  8
0
 62
7
  6
CONTINUOUS
 10
231.8593846722
 20
103.5138739778
  0
VERTEX
  8
0
 62
7
  6
CONTINUOUS
 10
231.9581512979
 20
103.4960974356
  0
VERTEX
  8
0
 62
7
  6
CONTINUOUS
 10
231.9972186757
 20
103.4945746307
  0
SEQEND
  0
POLYLINE
  8
0
 62
7
  6
CONTINUOUS
 66
1
 70
0
  0
VERTEX
  8
0
 62
7
  6
CONTINUOUS
 10
230.9024451045
 20
153.6008970443
  0
VERTEX
  8
0
 62
7
  6
CONTINUOUS
 10
230.900260679
 20
153.6351934259
  0
VERTEX
  8
0
 62
7
  6
CONTINUOUS
 10
230.8980544343
 20
153.6670772152
  0
VERTEX
  8
0
 62
7
  6
CONTINUOUS
 10
230.8958153367
 20
153.6967074223
  0
VERTEX
  8
0
 62
7
  6
CONTINUOUS
 10
230.893527577
 20
153.7242649393
  0
VERTEX
  8
0
 62
7
  6
CONTINUOUS
 10
230.8911650361
 20
153.7499919336
  0
VERTEX
  8
0
 62
7
  6
CONTINUOUS
 10
230.8886851183
 20
153.7742067199
  0
VERTEX
  8
0
 62
7
  6
CONTINUOUS
 10
230.8860172144
 20
153.7973363881
  0
VERTEX
  8
0
 62
7
  6
CONTINUOUS
 10
230.883040758
 20
153.8199723006
  0
VERTEX
  8
0
 62
7
  6
CONTINUOUS
 10
230.8795362243
 20
153.8429968055
  0
VERTEX
  8
0
 62
7
  6
CONTINUOUS
 10
230.8751449096
 20
153.8674582641
  0
VERTEX
  8
0
 62
7
  6
CONTINUOUS
 10
230.8692132051
 20
153.8948689753
  0
VERTEX
  8
0
 62
7
  6
CONTINUOUS
 10
230.8604710397
 20
153.9275368029
  0
VERTEX
  8
0
 62
7
  6
CONTINUOUS
 10
230.8466607882
 20
153.9680944636
  0
VERTEX
  8
0
 62
7
  6
CONTINUOUS
 10
230.8247281842
 20
154.0174448874
  0
VERTEX
  8
0
 62
7
  6
CONTINUOUS
 10
230.7919024402
 20
154.0731486315
  0
VERTEX
  8
0
 62
7
  6
CONTINUOUS
 10
230.7456629617
 20
154.131629354
  0
VERTEX
  8
0
 62
7
  6
CONTINUOUS
 10
230.6833033444
 20
154.1890423495
  0
VERTEX
  8
0
 62
7
  6
CONTINUOUS
 10
230.6046655075
 20
154.2391347091
  0
VERTEX
  8
0
 62
7
  6
CONTINUOUS
 10
230.5132064156
 20
154.2752721531
  0
VERTEX
  8
0
 62
7
  6
CONTINUOUS
 10
230.4144397899
 20
154.2930486952
  0
VERTEX
  8
0
 62
7
  6
CONTINUOUS
 10
230.3753724121
 20
154.2945715002
  0
SEQEND
  0
LINE
  8
0
 62
7
  6
CONTINUOUS
 10
231.465811415
 20
104.2646999965
 11
231.4701459833
 21
104.1882490865
  0
LINE
  8
0
 62
7
  6
CONTINUOUS
 10
230.9067796728
 20
153.5244461344
 11
230.9024451045
 21
153.6008970443
  0
LINE
  8
0
 62
7
  6
CONTINUOUS
 10
231.3903587026
 20
113.0815267664
 11
231.3950957704
 21
112.9945730653
  0
LINE
  8
0
 62
7
  6
CONTINUOUS
 10
230.9822323852
 20
144.7076193645
 11
230.9774953174
 21
144.7945730656
  0
LINE
  8
0
 62
7
  6
CONTINUOUS
 10
231.461495389
 20
104.3525063947
 11
231.465811415
 21
104.2646999965
  0
LINE
  8
0
 62
7
  6
CONTINUOUS
 10
230.9110956988
 20
153.4366397361
 11
230.9067796728
 21
153.5244461344
  0
LINE
  8
0
 62
7
  6
CONTINUOUS
 10
231.457185121
 20
104.4525625813
 11
231.461495389
 21
104.3525063947
  0
LINE
  8
0
 62
7
  6
CONTINUOUS
 10
230.9154059668
 20
153.3365835496
 11
230.9110956988
 21
153.4366397361
  0
LINE
  8
0
 62
7
  6
CONTINUOUS
 10
231.4528800641
 20
104.5656270208
 11
231.457185121
 21
104.4525625813
  0
LINE
  8
0
 62
7
  6
CONTINUOUS
 10
230.9197110238
 20
153.2235191101
 11
230.9154059668
 21
153.3365835496
  0
LINE
  8
0
 62
7
  6
CONTINUOUS
 10
231.4464490514
 20
104.7610573569
 11
231.4528800641
 21
104.5656270208
  0
LINE
  8
0
 62
7
  6
CONTINUOUS
 10
230.9261420364
 20
153.0280887739
 11
230.9197110238
 21
153.2235191101
  0
LINE
  8
0
 62
7
  6
CONTINUOUS
 10
231.4400825169
 20
104.989353967
 11
231.4464490514
 21
104.7610573569
  0
LINE
  8
0
 62
7
  6
CONTINUOUS
 10
230.932508571
 20
152.7997921638
 11
230.9261420364
 21
153.0280887739
  0
LINE
  8
0
 62
7
  6
CONTINUOUS
 10
231.4317504536
 20
105.349581364
 11
231.4400825169
 21
104.989353967
  0
LINE
  8
0
 62
7
  6
CONTINUOUS
 10
230.9408406342
 20
152.4395647668
 11
230.932508571
 21
152.7997921638
  0
LINE
  8
0
 62
7
  6
CONTINUOUS
 10
231.4217548832
 20
105.8991471753
 11
231.4317504536
 21
105.349581364
  0
LINE
  8
0
 62
7
  6
CONTINUOUS
 10
230.9508362047
 20
151.8899989556
 11
230.9408406342
 21
152.4395647668
  0
LINE
  8
0
 62
7
  6
CONTINUOUS
 10
231.4108424759
 20
106.7210753938
 11
231.4217548832
 21
105.8991471753
  0
LINE
  8
0
 62
7
  6
CONTINUOUS
 10
230.961748612
 20
151.0680707371
 11
230.9508362047
 21
151.8899989556
  0
LINE
  8
0
 62
7
  6
CONTINUOUS
 10
230.9718595187
 20
149.8621133608
 11
230.961748612
 21
151.0680707371
  0
LINE
  8
0
 62
7
  6
CONTINUOUS
 10
231.4007315691
 20
107.92703277
 11
231.4108424759
 21
106.7210753938
  0
LINE
  8
0
 62
7
  6
CONTINUOUS
 10
230.9772192334
 20
148.3719871041
 11
230.9718595187
 21
149.8621133608
  0
LINE
  8
0
 62
7
  6
CONTINUOUS
 10
231.3953718544
 20
109.4171590268
 11
231.4007315691
 21
107.92703277
  0
LINE
  8
0
 62
7
  6
CONTINUOUS
 10
230.9772192334
 20
148.3719871041
 11
230.9774918474
 21
144.7945730654
  0
LINE
  8
0
 62
7
  6
CONTINUOUS
 10
231.3953718544
 20
109.4171590268
 11
231.3950992404
 21
112.9945730654
  0
POLYLINE
  8
0
 62
7
  6
CONTINUOUS
 66
1
 70
0
  0
VERTEX
  8
0
 62
7
  6
CONTINUOUS
 10
256.5422624539
 20
144.3242428257
  0
VERTEX
  8
0
 62
7
  6
CONTINUOUS
 10
256.6083057154
 20
144.4320779681
  0
VERTEX
  8
0
 62
7
  6
CONTINUOUS
 10
256.656613569
 20
144.5492329239
  0
VERTEX
  8
0
 62
7
  6
CONTINUOUS
 10
256.6856548667
 20
144.6715403669
  0
SEQEND
  0
POLYLINE
  8
0
 62
7
  6
CONTINUOUS
 66
1
 70
0
  0
VERTEX
  8
0
 62
7
  6
CONTINUOUS
 10
275.7072561906
 20
144.1473916651
  0
VERTEX
  8
0
 62
7
  6
CONTINUOUS
 10
275.8151711242
 20
144.0813618842
  0
VERTEX
  8
0
 62
7
  6
CONTINUOUS
 10
275.9323809614
 20
144.0330845483
  0
VERTEX
  8
0
 62
7
  6
CONTINUOUS
 10
276.0546956178
 20
144.0040777926
  0
VERTEX
  8
0
 62
7
  6
CONTINUOUS
 10
276.1631055396
 20
143.9947059237
  0
SEQEND
  0
LINE
  8
0
 62
7
  6
CONTINUOUS
 10
256.2743687449
 20
108.4077226022
 11
256.2774918474
 21
113.2945730654
  0
LINE
  8
0
 62
7
  6
CONTINUOUS
 10
256.6982198145
 20
149.3808511796
 11
256.6950992404
 21
144.7945730654
  0
LINE
  8
0
 62
7
  6
CONTINUOUS
 10
256.2662438191
 20
107.1732136601
 11
256.2743687449
 21
108.4077226022
  0
LINE
  8
0
 62
7
  6
CONTINUOUS
 10
256.7063660657
 20
150.6180338086
 11
256.6982198145
 21
149.3808511796
  0
LINE
  8
0
 62
7
  6
CONTINUOUS
 10
256.717575661
 20
151.6097165092
 11
256.7063660657
 21
150.6180338086
  0
LINE
  8
0
 62
7
  6
CONTINUOUS
 10
256.2550666132
 20
106.1830920266
 11
256.2662438191
 21
107.1732136601
  0
LINE
  8
0
 62
7
  6
CONTINUOUS
 10
256.7283077202
 20
152.2667265564
 11
256.717575661
 21
151.6097165092
  0
LINE
  8
0
 62
7
  6
CONTINUOUS
 10
256.2443660122
 20
105.5267637188
 11
256.2550666132
 21
106.1830920266
  0
LINE
  8
0
 62
7
  6
CONTINUOUS
 10
256.7374090961
 20
152.6923856324
 11
256.7283077202
 21
152.2667265564
  0
LINE
  8
0
 62
7
  6
CONTINUOUS
 10
256.2352899746
 20
105.1012527792
 11
256.2443660122
 21
105.5267637188
  0
LINE
  8
0
 62
7
  6
CONTINUOUS
 10
256.2283494435
 20
104.8360560347
 11
256.2352899746
 21
105.1012527792
  0
LINE
  8
0
 62
7
  6
CONTINUOUS
 10
256.7443653875
 20
152.9574075496
 11
256.7374090961
 21
152.6923856324
  0
LINE
  8
0
 62
7
  6
CONTINUOUS
 10
256.75133476
 20
153.1795593846
 11
256.7443653875
 21
152.9574075496
  0
LINE
  8
0
 62
7
  6
CONTINUOUS
 10
256.2213905857
 20
104.6134932166
 11
256.2283494435
 21
104.8360560347
  0
LINE
  8
0
 62
7
  6
CONTINUOUS
 10
256.2167659526
 20
104.4868212547
 11
256.2213905857
 21
104.6134932166
  0
LINE
  8
0
 62
7
  6
CONTINUOUS
 10
256.7559624186
 20
153.3058432605
 11
256.75133476
 21
153.1795593846
  0
LINE
  8
0
 62
7
  6
CONTINUOUS
 10
256.2121574372
 20
104.3759767432
 11
256.2167659526
 21
104.4868212547
  0
LINE
  8
0
 62
7
  6
CONTINUOUS
 10
256.7605697719
 20
153.4162205134
 11
256.7559624186
 21
153.3058432605
  0
LINE
  8
0
 62
7
  6
CONTINUOUS
 10
256.2075578401
 20
104.279649272
 11
256.2121574372
 21
104.3759767432
  0
LINE
  8
0
 62
7
  6
CONTINUOUS
 10
256.7651632029
 20
153.5120202239
 11
256.7605697719
 21
153.4162205134
  0
POLYLINE
  8
0
 62
7
  6
CONTINUOUS
 66
1
 70
0
  0
VERTEX
  8
0
 62
7
  6
CONTINUOUS
 10
256.6950957639
 20
144.7945730655
  0
VERTEX
  8
0
 62
7
  6
CONTINUOUS
 10
256.6899176293
 20
144.7036766602
  0
VERTEX
  8
0
 62
7
  6
CONTINUOUS
 10
256.6634127496
 20
144.5716794311
  0
VERTEX
  8
0
 62
7
  6
CONTINUOUS
 10
256.6151407661
 20
144.4459879022
  0
VERTEX
  8
0
 62
7
  6
CONTINUOUS
 10
256.5464659666
 20
144.3301666004
  0
VERTEX
  8
0
 62
7
  6
CONTINUOUS
 10
256.4593301582
 20
144.2274949593
  0
VERTEX
  8
0
 62
7
  6
CONTINUOUS
 10
256.3561936147
 20
144.1408800067
  0
VERTEX
  8
0
 62
7
  6
CONTINUOUS
 10
256.2399806207
 20
144.0727842189
  0
VERTEX
  8
0
 62
7
  6
CONTINUOUS
 10
256.1140017966
 20
144.0251456684
  0
VERTEX
  8
0
 62
7
  6
CONTINUOUS
 10
255.9818504581
 20
143.9993096742
  0
VERTEX
  8
0
 62
7
  6
CONTINUOUS
 10
255.9095643566
 20
143.9947110271
  0
SEQEND
  0
LINE
  8
0
 62
7
  6
CONTINUOUS
 10
256.6856548667
 20
144.6715403669
 11
256.6951753928
 21
144.7945730654
  0
LINE
  8
0
 62
7
  6
CONTINUOUS
 10
288.0535671091
 20
103.5442493732
 11
288.1334038837
 21
103.59242302
  0
LINE
  8
0
 62
7
  6
CONTINUOUS
 10
284.7691232592
 20
104.7656693598
 11
284.776155226
 21
104.74707747
  0
LINE
  8
0
 62
7
  6
CONTINUOUS
 10
284.776155226
 20
104.74707747
 11
284.7832598831
 21
104.7280091055
  0
LINE
  8
0
 62
7
  6
CONTINUOUS
 10
284.7832598831
 20
104.7280091055
 11
284.7924696978
 21
104.7029012263
  0
LINE
  8
0
 62
7
  6
CONTINUOUS
 10
284.7924696978
 20
104.7029012263
 11
284.8036006989
 21
104.6720420556
  0
LINE
  8
0
 62
7
  6
CONTINUOUS
 10
284.8036006989
 20
104.6720420556
 11
284.8185812983
 21
104.6298164569
  0
LINE
  8
0
 62
7
  6
CONTINUOUS
 10
284.8449188993
 20
104.5545597761
 11
284.8636813608
 21
104.5010844539
  0
LINE
  8
0
 62
7
  6
CONTINUOUS
 10
284.8185812983
 20
104.6298164569
 11
284.8449188993
 21
104.5545597761
  0
POLYLINE
  8
0
 62
7
  6
CONTINUOUS
 66
1
 70
0
  0
VERTEX
  8
0
 62
7
  6
CONTINUOUS
 10
275.377415695
 20
144.7945730654
  0
VERTEX
  8
0
 62
7
  6
CONTINUOUS
 10
275.3869362211
 20
144.6715403669
  0
VERTEX
  8
0
 62
7
  6
CONTINUOUS
 10
275.4159775188
 20
144.5492329239
  0
VERTEX
  8
0
 62
7
  6
CONTINUOUS
 10
275.4642853724
 20
144.4320779681
  0
VERTEX
  8
0
 62
7
  6
CONTINUOUS
 10
275.5303286339
 20
144.3242428257
  0
VERTEX
  8
0
 62
7
  6
CONTINUOUS
 10
275.6118296499
 20
144.2288685725
  0
SEQEND
  0
POLYLINE
  8
0
 62
7
  6
CONTINUOUS
 66
1
 70
0
  0
VERTEX
  8
0
 62
7
  6
CONTINUOUS
 10
275.8702692567
 20
104.1862395045
  0
VERTEX
  8
0
 62
7
  6
CONTINUOUS
 10
275.8724582594
 20
104.1520299945
  0
VERTEX
  8
0
 62
7
  6
CONTINUOUS
 10
275.8746697815
 20
104.1202312162
  0
VERTEX
  8
0
 62
7
  6
CONTINUOUS
 10
275.876914816
 20
104.0906866004
  0
VERTEX
  8
0
 62
7
  6
CONTINUOUS
 10
275.8792097246
 20
104.0632101905
  0
VERTEX
  8
0
 62
7
  6
CONTINUOUS
 10
275.8815814924
 20
104.0375546661
  0
VERTEX
  8
0
 62
7
  6
CONTINUOUS
 10
275.884074168
 20
104.0133947729
  0
VERTEX
  8
0
 62
7
  6
CONTINUOUS
 10
275.8867609205
 20
103.9902933395
  0
VERTEX
  8
0
 62
7
  6
CONTINUOUS
 10
275.8897670954
 20
103.9676432307
  0
VERTEX
  8
0
 62
7
  6
CONTINUOUS
 10
275.893320195
 20
103.9445452202
  0
VERTEX
  8
0
 62
7
  6
CONTINUOUS
 10
275.8977890959
 20
103.9199473628
  0
VERTEX
  8
0
 62
7
  6
CONTINUOUS
 10
275.9038603311
 20
103.892268003
  0
VERTEX
  8
0
 62
7
  6
CONTINUOUS
 10
275.9128666572
 20
103.8591276032
  0
VERTEX
  8
0
 62
7
  6
CONTINUOUS
 10
275.9271445266
 20
103.8179245553
  0
VERTEX
  8
0
 62
7
  6
CONTINUOUS
 10
275.9497727663
 20
103.7679758509
  0
VERTEX
  8
0
 62
7
  6
CONTINUOUS
 10
275.9834072684
 20
103.7120260419
  0
VERTEX
  8
0
 62
7
  6
CONTINUOUS
 10
276.0304929103
 20
103.6536727158
  0
VERTEX
  8
0
 62
7
  6
CONTINUOUS
 10
276.0936308704
 20
103.5967702202
  0
VERTEX
  8
0
 62
7
  6
CONTINUOUS
 10
276.1728573245
 20
103.5475127355
  0
VERTEX
  8
0
 62
7
  6
CONTINUOUS
 10
276.2646013465
 20
103.5124136536
  0
VERTEX
  8
0
 62
7
  6
CONTINUOUS
 10
276.3632806599
 20
103.4957227005
  0
VERTEX
  8
0
 62
7
  6
CONTINUOUS
 10
276.3972177236
 20
103.4945740112
  0
SEQEND
  0
POLYLINE
  8
0
 62
7
  6
CONTINUOUS
 66
1
 70
0
  0
VERTEX
  8
0
 62
7
  6
CONTINUOUS
 10
275.3024451045
 20
153.6008970443
  0
VERTEX
  8
0
 62
7
  6
CONTINUOUS
 10
275.300260679
 20
153.6351934259
  0
VERTEX
  8
0
 62
7
  6
CONTINUOUS
 10
275.2980544343
 20
153.6670772152
  0
VERTEX
  8
0
 62
7
  6
CONTINUOUS
 10
275.2958153367
 20
153.6967074223
  0
VERTEX
  8
0
 62
7
  6
CONTINUOUS
 10
275.293527577
 20
153.7242649393
  0
VERTEX
  8
0
 62
7
  6
CONTINUOUS
 10
275.2911650361
 20
153.7499919336
  0
VERTEX
  8
0
 62
7
  6
CONTINUOUS
 10
275.2886851183
 20
153.7742067199
  0
VERTEX
  8
0
 62
7
  6
CONTINUOUS
 10
275.2860172144
 20
153.7973363881
  0
VERTEX
  8
0
 62
7
  6
CONTINUOUS
 10
275.283040758
 20
153.8199723006
  0
VERTEX
  8
0
 62
7
  6
CONTINUOUS
 10
275.2795362243
 20
153.8429968055
  0
VERTEX
  8
0
 62
7
  6
CONTINUOUS
 10
275.2751449096
 20
153.8674582641
  0
VERTEX
  8
0
 62
7
  6
CONTINUOUS
 10
275.2692132051
 20
153.8948689753
  0
VERTEX
  8
0
 62
7
  6
CONTINUOUS
 10
275.2604710397
 20
153.9275368029
  0
VERTEX
  8
0
 62
7
  6
CONTINUOUS
 10
275.2466607882
 20
153.9680944636
  0
VERTEX
  8
0
 62
7
  6
CONTINUOUS
 10
275.2247281842
 20
154.0174448874
  0
VERTEX
  8
0
 62
7
  6
CONTINUOUS
 10
275.1919024402
 20
154.0731486315
  0
VERTEX
  8
0
 62
7
  6
CONTINUOUS
 10
275.1456629617
 20
154.131629354
  0
VERTEX
  8
0
 62
7
  6
CONTINUOUS
 10
275.0833033444
 20
154.1890423495
  0
VERTEX
  8
0
 62
7
  6
CONTINUOUS
 10
275.0046655075
 20
154.2391347091
  0
VERTEX
  8
0
 62
7
  6
CONTINUOUS
 10
274.9132064156
 20
154.2752721531
  0
VERTEX
  8
0
 62
7
  6
CONTINUOUS
 10
274.8144397899
 20
154.2930486952
  0
VERTEX
  8
0
 62
7
  6
CONTINUOUS
 10
274.7753724121
 20
154.2945715002
  0
SEQEND
  0
LINE
  8
0
 62
7
  6
CONTINUOUS
 10
275.8659267855
 20
104.2625163135
 11
275.8702692567
 21
104.1862395045
  0
LINE
  8
0
 62
7
  6
CONTINUOUS
 10
275.3067796728
 20
153.5244461344
 11
275.3024451045
 21
153.6008970443
  0
LINE
  8
0
 62
7
  6
CONTINUOUS
 10
275.3822323852
 20
144.7076193645
 11
275.3774953174
 21
144.7945730656
  0
LINE
  8
0
 62
7
  6
CONTINUOUS
 10
275.8616035854
 20
104.3501568406
 11
275.8659267855
 21
104.2625163135
  0
LINE
  8
0
 62
7
  6
CONTINUOUS
 10
275.3110956988
 20
153.4366397361
 11
275.3067796728
 21
153.5244461344
  0
LINE
  8
0
 62
7
  6
CONTINUOUS
 10
275.8572862757
 20
104.4500668971
 11
275.8616035854
 21
104.3501568406
  0
LINE
  8
0
 62
7
  6
CONTINUOUS
 10
275.3154059668
 20
153.3365835496
 11
275.3110956988
 21
153.4366397361
  0
LINE
  8
0
 62
7
  6
CONTINUOUS
 10
275.8529740712
 20
104.5630118995
 11
275.8572862757
 21
104.4500668971
  0
LINE
  8
0
 62
7
  6
CONTINUOUS
 10
275.3197110238
 20
153.2235191101
 11
275.3154059668
 21
153.3365835496
  0
LINE
  8
0
 62
7
  6
CONTINUOUS
 10
275.8465317747
 20
104.7583284197
 11
275.8529740712
 21
104.5630118995
  0
LINE
  8
0
 62
7
  6
CONTINUOUS
 10
275.3261420364
 20
153.0280887739
 11
275.3197110238
 21
153.2235191101
  0
LINE
  8
0
 62
7
  6
CONTINUOUS
 10
275.8401535971
 20
104.9865962545
 11
275.8465317747
 21
104.7583284197
  0
LINE
  8
0
 62
7
  6
CONTINUOUS
 10
275.332508571
 20
152.7997921638
 11
275.3261420364
 21
153.0280887739
  0
LINE
  8
0
 62
7
  6
CONTINUOUS
 10
275.8318058947
 20
105.3469230493
 11
275.8401535971
 21
104.9865962545
  0
LINE
  8
0
 62
7
  6
CONTINUOUS
 10
275.3408406342
 20
152.4395647668
 11
275.332508571
 21
152.7997921638
  0
LINE
  8
0
 62
7
  6
CONTINUOUS
 10
275.8217909321
 20
105.8968793349
 11
275.8318058947
 21
105.3469230493
  0
LINE
  8
0
 62
7
  6
CONTINUOUS
 10
275.3508362047
 20
151.8899989556
 11
275.3408406342
 21
152.4395647668
  0
LINE
  8
0
 62
7
  6
CONTINUOUS
 10
275.8108569883
 20
106.7197556192
 11
275.8217909321
 21
105.8968793349
  0
LINE
  8
0
 62
7
  6
CONTINUOUS
 10
275.361748612
 20
151.0680707371
 11
275.3508362047
 21
151.8899989556
  0
LINE
  8
0
 62
7
  6
CONTINUOUS
 10
275.3718595187
 20
149.8621133608
 11
275.361748612
 21
151.0680707371
  0
LINE
  8
0
 62
7
  6
CONTINUOUS
 10
275.8007280369
 20
107.9276167355
 11
275.8108569883
 21
106.7197556192
  0
LINE
  8
0
 62
7
  6
CONTINUOUS
 10
275.3772192334
 20
148.3719871041
 11
275.3718595187
 21
149.8621133608
  0
LINE
  8
0
 62
7
  6
CONTINUOUS
 10
275.7953674923
 20
109.4205884692
 11
275.8007280369
 21
107.9276167355
  0
LINE
  8
0
 62
7
  6
CONTINUOUS
 10
275.3772192334
 20
148.3719871041
 11
275.3774918474
 21
144.7945730654
  0
LINE
  8
0
 62
7
  6
CONTINUOUS
 10
275.7950992404
 20
113.2945730654
 11
275.7953674923
 21
109.4205884692
  0
LINE
  8
0
 62
7
  6
CONTINUOUS
 10
288.1334038837
 20
103.59242302
 11
288.2029076578
 21
103.654582675
  0
LINE
  8
0
 62
7
  6
CONTINUOUS
 10
284.794273241
 20
104.6979351743
 11
284.8194445197
 21
103.9771240629
  0
LINE
  8
0
 62
7
  6
CONTINUOUS
 10
288.3362955439
 20
142.5945730654
 11
288.3362955439
 21
103.9945732687
  0
LINE
  8
0
 62
7
  6
CONTINUOUS
 10
278.8783176637
 20
104.6979299319
 11
278.8531465681
 21
103.9771240629
  0
POLYLINE
  8
0
 62
7
  6
CONTINUOUS
 66
1
 70
0
  0
VERTEX
  8
0
 62
7
  6
CONTINUOUS
 10
288.3016909314
 20
103.8118013987
  0
VERTEX
  8
0
 62
7
  6
CONTINUOUS
 10
288.3275351213
 20
103.9013927368
  0
VERTEX
  8
0
 62
7
  6
CONTINUOUS
 10
288.3362950608
 20
103.9942240191
  0
SEQEND
  0
LINE
  8
0
 62
7
  6
CONTINUOUS
 10
278.8089097575
 20
104.5010845602
 11
278.8594318338
 21
104.6451749395
  0
LINE
  8
0
 62
7
  6
CONTINUOUS
 10
278.8594318338
 20
104.6451749395
 11
278.8727209585
 21
104.6824413007
  0
LINE
  8
0
 62
7
  6
CONTINUOUS
 10
278.8727209585
 20
104.6824413007
 11
278.8832785022
 21
104.7115548001
  0
LINE
  8
0
 62
7
  6
CONTINUOUS
 10
278.8832785022
 20
104.7115548001
 11
278.8906491469
 21
104.7315669769
  0
LINE
  8
0
 62
7
  6
CONTINUOUS
 10
278.8906491469
 20
104.7315669769
 11
278.8983192011
 21
104.7520850744
  0
LINE
  8
0
 62
7
  6
CONTINUOUS
 10
278.8983192011
 20
104.7520850744
 11
278.9034679419
 21
104.7656696501
  0
POLYLINE
  8
0
 62
7
  6
CONTINUOUS
 66
1
 70
0
  0
VERTEX
  8
0
 62
7
  6
CONTINUOUS
 10
278.903471682
 20
104.765683904
  0
VERTEX
  8
0
 62
7
  6
CONTINUOUS
 10
278.9060328911
 20
104.772281374
  0
VERTEX
  8
0
 62
7
  6
CONTINUOUS
 10
278.917679843
 20
104.7997817197
  0
VERTEX
  8
0
 62
7
  6
CONTINUOUS
 10
278.9307827785
 20
104.8271865064
  0
VERTEX
  8
0
 62
7
  6
CONTINUOUS
 10
278.9451515269
 20
104.8542709177
  0
VERTEX
  8
0
 62
7
  6
CONTINUOUS
 10
278.9606584074
 20
104.8809282339
  0
VERTEX
  8
0
 62
7
  6
CONTINUOUS
 10
278.9772028578
 20
104.907088298
  0
VERTEX
  8
0
 62
7
  6
CONTINUOUS
 10
278.9947209434
 20
104.9327124635
  0
VERTEX
  8
0
 62
7
  6
CONTINUOUS
 10
279.0131726202
 20
104.9577761103
  0
VERTEX
  8
0
 62
7
  6
CONTINUOUS
 10
279.0324896444
 20
104.982199304
  0
VERTEX
  8
0
 62
7
  6
CONTINUOUS
 10
279.0526719334
 20
105.0059732141
  0
VERTEX
  8
0
 62
7
  6
CONTINUOUS
 10
279.0737373146
 20
105.0290848563
  0
VERTEX
  8
0
 62
7
  6
CONTINUOUS
 10
279.0957036131
 20
105.0514948711
  0
VERTEX
  8
0
 62
7
  6
CONTINUOUS
 10
279.1186195913
 20
105.073166544
  0
VERTEX
  8
0
 62
7
  6
CONTINUOUS
 10
279.1425056787
 20
105.0940104256
  0
VERTEX
  8
0
 62
7
  6
CONTINUOUS
 10
279.167437879
 20
105.1139483521
  0
VERTEX
  8
0
 62
7
  6
CONTINUOUS
 10
279.1934137573
 20
105.1328100443
  0
VERTEX
  8
0
 62
7
  6
CONTINUOUS
 10
279.2205215039
 20
105.1504484218
  0
VERTEX
  8
0
 62
7
  6
CONTINUOUS
 10
279.2488302723
 20
105.1666438638
  0
VERTEX
  8
0
 62
7
  6
CONTINUOUS
 10
279.2785740075
 20
105.1811902447
  0
VERTEX
  8
0
 62
7
  6
CONTINUOUS
 10
279.3099220088
 20
105.1936993754
  0
VERTEX
  8
0
 62
7
  6
CONTINUOUS
 10
279.3429680563
 20
105.2036125275
  0
VERTEX
  8
0
 62
7
  6
CONTINUOUS
 10
279.377903142
 20
105.2102296808
  0
VERTEX
  8
0
 62
7
  6
CONTINUOUS
 10
279.4145913882
 20
105.2126410175
  0
SEQEND
  0
LINE
  8
0
 62
7
  6
CONTINUOUS
 10
288.2596612431
 20
103.7285664849
 11
288.3016909314
 21
103.8118013987
  0
LINE
  8
0
 62
7
  6
CONTINUOUS
 10
288.2029076578
 20
103.654582675
 11
288.2596612431
 21
103.7285664849
  0
LINE
  8
4_SURFACE
 62
7
  6
CONTINUOUS
 10
98.1362955439
 20
203.6977290369
 11
98.1362955439
 21
192.2584427541
  0
POLYLINE
  8
4_SURFACE
 62
7
  6
CONTINUOUS
 66
1
 70
0
  0
VERTEX
  8
4_SURFACE
 62
7
  6
CONTINUOUS
 10
101.7445499014
 20
198.1084427541
  0
VERTEX
  8
4_SURFACE
 62
7
  6
CONTINUOUS
 10
101.7457042367
 20
197.6460897925
  0
VERTEX
  8
4_SURFACE
 62
7
  6
CONTINUOUS
 10
101.7491438982
 20
197.1931286653
  0
VERTEX
  8
4_SURFACE
 62
7
  6
CONTINUOUS
 10
101.7547992986
 20
196.7587637658
  0
VERTEX
  8
4_SURFACE
 62
7
  6
CONTINUOUS
 10
101.7625559476
 20
196.35182749
  0
VERTEX
  8
4_SURFACE
 62
7
  6
CONTINUOUS
 10
101.7722566684
 20
195.9806023305
  0
VERTEX
  8
4_SURFACE
 62
7
  6
CONTINUOUS
 10
101.7837046596
 20
195.6526527405
  0
VERTEX
  8
4_SURFACE
 62
7
  6
CONTINUOUS
 10
101.7966673927
 20
195.3746693774
  0
VERTEX
  8
4_SURFACE
 62
7
  6
CONTINUOUS
 10
101.8108812348
 20
195.15233077
  0
VERTEX
  8
4_SURFACE
 62
7
  6
CONTINUOUS
 10
101.8260567836
 20
194.9901838247
  0
VERTEX
  8
4_SURFACE
 62
7
  6
CONTINUOUS
 10
101.8418847618
 20
194.8915476675
  0
VERTEX
  8
4_SURFACE
 62
7
  6
CONTINUOUS
 10
101.8580424022
 20
194.8584427541
  0
SEQEND
  0
POLYLINE
  8
4_SURFACE
 62
7
  6
CONTINUOUS
 66
1
 70
0
  0
VERTEX
  8
4_SURFACE
 62
7
  6
CONTINUOUS
 10
101.9715349031
 20
198.1084427541
  0
VERTEX
  8
4_SURFACE
 62
7
  6
CONTINUOUS
 10
101.9703805678
 20
198.5707957158
  0
VERTEX
  8
4_SURFACE
 62
7
  6
CONTINUOUS
 10
101.9669409063
 20
199.023756843
  0
VERTEX
  8
4_SURFACE
 62
7
  6
CONTINUOUS
 10
101.9612855059
 20
199.4581217424
  0
VERTEX
  8
4_SURFACE
 62
7
  6
CONTINUOUS
 10
101.9535288569
 20
199.8650580182
  0
VERTEX
  8
4_SURFACE
 62
7
  6
CONTINUOUS
 10
101.9438281361
 20
200.2362831778
  0
VERTEX
  8
4_SURFACE
 62
7
  6
CONTINUOUS
 10
101.9323801449
 20
200.5642327678
  0
VERTEX
  8
4_SURFACE
 62
7
  6
CONTINUOUS
 10
101.9194174118
 20
200.8422161308
  0
VERTEX
  8
4_SURFACE
 62
7
  6
CONTINUOUS
 10
101.9052035697
 20
201.0645547383
  0
VERTEX
  8
4_SURFACE
 62
7
  6
CONTINUOUS
 10
101.890028021
 20
201.2267016836
  0
VERTEX
  8
4_SURFACE
 62
7
  6
CONTINUOUS
 10
101.8742000427
 20
201.3253378407
  0
VERTEX
  8
4_SURFACE
 62
7
  6
CONTINUOUS
 10
101.8580424024
 20
201.3584427541
  0
SEQEND
  0
LINE
  8
4_SURFACE
 62
7
  6
CONTINUOUS
 10
101.6893954617
 20
201.3752092129
 11
101.6894003827
 21
201.3752538948
  0
POLYLINE
  8
4_SURFACE
 62
7
  6
CONTINUOUS
 66
1
 70
0
  0
VERTEX
  8
4_SURFACE
 62
7
  6
CONTINUOUS
 10
101.6894003827
 20
201.3752538948
  0
VERTEX
  8
4_SURFACE
 62
7
  6
CONTINUOUS
 10
101.6912552491
 20
201.3888181362
  0
VERTEX
  8
4_SURFACE
 62
7
  6
CONTINUOUS
 10
101.6953017234
 20
201.408606546
  0
SEQEND
  0
LINE
  8
4_SURFACE
 62
7
  6
CONTINUOUS
 10
101.6952916931
 20
201.4085658856
 11
101.7029906562
 21
201.4393405891
  0
POLYLINE
  8
4_SURFACE
 62
7
  6
CONTINUOUS
 66
1
 70
0
  0
VERTEX
  8
4_SURFACE
 62
7
  6
CONTINUOUS
 10
101.7029906562
 20
201.4393405891
  0
VERTEX
  8
4_SURFACE
 62
7
  6
CONTINUOUS
 10
101.7109332224
 20
201.4701472581
  0
VERTEX
  8
4_SURFACE
 62
7
  6
CONTINUOUS
 10
101.7131882979
 20
201.478718736
  0
SEQEND
  0
POLYLINE
  8
4_SURFACE
 62
7
  6
CONTINUOUS
 66
1
 70
0
  0
VERTEX
  8
4_SURFACE
 62
7
  6
CONTINUOUS
 10
101.7131873065
 20
201.478721547
  0
VERTEX
  8
4_SURFACE
 62
7
  6
CONTINUOUS
 10
101.7152625062
 20
201.4864606922
  0
VERTEX
  8
4_SURFACE
 62
7
  6
CONTINUOUS
 10
101.7289697822
 20
201.5327886611
  0
VERTEX
  8
4_SURFACE
 62
7
  6
CONTINUOUS
 10
101.7443395553
 20
201.5774157686
  0
VERTEX
  8
4_SURFACE
 62
7
  6
CONTINUOUS
 10
101.761249433
 20
201.6203080904
  0
VERTEX
  8
4_SURFACE
 62
7
  6
CONTINUOUS
 10
101.7796049341
 20
201.661457222
  0
VERTEX
  8
4_SURFACE
 62
7
  6
CONTINUOUS
 10
101.7993107393
 20
201.7008346609
  0
VERTEX
  8
4_SURFACE
 62
7
  6
CONTINUOUS
 10
101.8202852397
 20
201.7384018104
  0
VERTEX
  8
4_SURFACE
 62
7
  6
CONTINUOUS
 10
101.8424098817
 20
201.7740594018
  0
VERTEX
  8
4_SURFACE
 62
7
  6
CONTINUOUS
 10
101.8656602853
 20
201.8078352653
  0
VERTEX
  8
4_SURFACE
 62
7
  6
CONTINUOUS
 10
101.8900424912
 20
201.8397647135
  0
VERTEX
  8
4_SURFACE
 62
7
  6
CONTINUOUS
 10
101.9155791787
 20
201.8698420072
  0
VERTEX
  8
4_SURFACE
 62
7
  6
CONTINUOUS
 10
101.9422721763
 20
201.89799882
  0
VERTEX
  8
4_SURFACE
 62
7
  6
CONTINUOUS
 10
101.9701418643
 20
201.9241423567
  0
VERTEX
  8
4_SURFACE
 62
7
  6
CONTINUOUS
 10
101.9991628977
 20
201.9480968773
  0
VERTEX
  8
4_SURFACE
 62
7
  6
CONTINUOUS
 10
102.0293058163
 20
201.9696587763
  0
VERTEX
  8
4_SURFACE
 62
7
  6
CONTINUOUS
 10
102.0608484859
 20
201.988751864
  0
VERTEX
  8
4_SURFACE
 62
7
  6
CONTINUOUS
 10
102.094133447
 20
202.0051433448
  0
VERTEX
  8
4_SURFACE
 62
7
  6
CONTINUOUS
 10
102.1293896715
 20
202.0183177667
  0
VERTEX
  8
4_SURFACE
 62
7
  6
CONTINUOUS
 10
102.1675129481
 20
202.0276350986
  0
VERTEX
  8
4_SURFACE
 62
7
  6
CONTINUOUS
 10
102.2065235416
 20
202.0316857963
  0
VERTEX
  8
4_SURFACE
 62
7
  6
CONTINUOUS
 10
102.2145916043
 20
202.0318094622
  0
SEQEND
  0
POLYLINE
  8
4_SURFACE
 62
7
  6
CONTINUOUS
 66
1
 70
0
  0
VERTEX
  8
4_SURFACE
 62
7
  6
CONTINUOUS
 10
107.3010561847
 20
198.1084427541
  0
VERTEX
  8
4_SURFACE
 62
7
  6
CONTINUOUS
 10
107.30221052
 20
198.5707957158
  0
VERTEX
  8
4_SURFACE
 62
7
  6
CONTINUOUS
 10
107.3056501815
 20
199.023756843
  0
VERTEX
  8
4_SURFACE
 62
7
  6
CONTINUOUS
 10
107.3113055819
 20
199.4581217424
  0
VERTEX
  8
4_SURFACE
 62
7
  6
CONTINUOUS
 10
107.3190622309
 20
199.8650580182
  0
VERTEX
  8
4_SURFACE
 62
7
  6
CONTINUOUS
 10
107.3287629517
 20
200.2362831778
  0
VERTEX
  8
4_SURFACE
 62
7
  6
CONTINUOUS
 10
107.3402109429
 20
200.5642327678
  0
VERTEX
  8
4_SURFACE
 62
7
  6
CONTINUOUS
 10
107.353173676
 20
200.8422161308
  0
VERTEX
  8
4_SURFACE
 62
7
  6
CONTINUOUS
 10
107.3673875181
 20
201.0645547383
  0
VERTEX
  8
4_SURFACE
 62
7
  6
CONTINUOUS
 10
107.3825630669
 20
201.2267016836
  0
VERTEX
  8
4_SURFACE
 62
7
  6
CONTINUOUS
 10
107.3983910451
 20
201.3253378407
  0
VERTEX
  8
4_SURFACE
 62
7
  6
CONTINUOUS
 10
107.4145486855
 20
201.3584427541
  0
SEQEND
  0
POLYLINE
  8
4_SURFACE
 62
7
  6
CONTINUOUS
 66
1
 70
0
  0
VERTEX
  8
4_SURFACE
 62
7
  6
CONTINUOUS
 10
107.5280411864
 20
198.1084427541
  0
VERTEX
  8
4_SURFACE
 62
7
  6
CONTINUOUS
 10
107.5268868511
 20
197.6460897925
  0
VERTEX
  8
4_SURFACE
 62
7
  6
CONTINUOUS
 10
107.5234471896
 20
197.1931286653
  0
VERTEX
  8
4_SURFACE
 62
7
  6
CONTINUOUS
 10
107.5177917892
 20
196.7587637658
  0
VERTEX
  8
4_SURFACE
 62
7
  6
CONTINUOUS
 10
107.5100351402
 20
196.35182749
  0
VERTEX
  8
4_SURFACE
 62
7
  6
CONTINUOUS
 10
107.5003344194
 20
195.9806023305
  0
VERTEX
  8
4_SURFACE
 62
7
  6
CONTINUOUS
 10
107.4888864282
 20
195.6526527405
  0
VERTEX
  8
4_SURFACE
 62
7
  6
CONTINUOUS
 10
107.4759236951
 20
195.3746693774
  0
VERTEX
  8
4_SURFACE
 62
7
  6
CONTINUOUS
 10
107.461709853
 20
195.15233077
  0
VERTEX
  8
4_SURFACE
 62
7
  6
CONTINUOUS
 10
107.4465343043
 20
194.9901838247
  0
VERTEX
  8
4_SURFACE
 62
7
  6
CONTINUOUS
 10
107.430706326
 20
194.8915476675
  0
VERTEX
  8
4_SURFACE
 62
7
  6
CONTINUOUS
 10
107.4145486857
 20
194.8584427541
  0
SEQEND
  0
LINE
  8
4_SURFACE
 62
7
  6
CONTINUOUS
 10
110.677415695
 20
203.9497165509
 11
110.4731914353
 21
192.2497165509
  0
POLYLINE
  8
4_SURFACE
 62
7
  6
CONTINUOUS
 66
1
 70
0
  0
VERTEX
  8
4_SURFACE
 62
7
  6
CONTINUOUS
 10
101.8580424024
 20
201.3584427541
  0
VERTEX
  8
4_SURFACE
 62
7
  6
CONTINUOUS
 10
101.8418848178
 20
201.3253380715
  0
VERTEX
  8
4_SURFACE
 62
7
  6
CONTINUOUS
 10
101.8260568346
 20
201.2267021129
  0
VERTEX
  8
4_SURFACE
 62
7
  6
CONTINUOUS
 10
101.8108812783
 20
201.0645553074
  0
VERTEX
  8
4_SURFACE
 62
7
  6
CONTINUOUS
 10
101.7966674271
 20
200.8422167648
  0
VERTEX
  8
4_SURFACE
 62
7
  6
CONTINUOUS
 10
101.7837046846
 20
200.5642333876
  0
VERTEX
  8
4_SURFACE
 62
7
  6
CONTINUOUS
 10
101.7722566847
 20
200.2362837152
  0
VERTEX
  8
4_SURFACE
 62
7
  6
CONTINUOUS
 10
101.7625559568
 20
199.8650584273
  0
VERTEX
  8
4_SURFACE
 62
7
  6
CONTINUOUS
 10
101.7547993027
 20
199.4581220041
  0
VERTEX
  8
4_SURFACE
 62
7
  6
CONTINUOUS
 10
101.7491438995
 20
199.0237569681
  0
VERTEX
  8
4_SURFACE
 62
7
  6
CONTINUOUS
 10
101.7457042369
 20
198.570795745
  0
VERTEX
  8
4_SURFACE
 62
7
  6
CONTINUOUS
 10
101.7445499014
 20
198.1084427541
  0
SEQEND
  0
LINE
  8
4_SURFACE
 62
7
  6
CONTINUOUS
 10
107.5594026488
 20
201.4787192573
 11
107.5643075981
 21
201.4599765755
  0
LINE
  8
4_SURFACE
 62
7
  6
CONTINUOUS
 10
107.5643075981
 20
201.4599765755
 11
107.5695108685
 21
201.4396932817
  0
LINE
  8
4_SURFACE
 62
7
  6
CONTINUOUS
 10
107.5695108685
 20
201.4396932817
 11
107.5773061492
 21
201.408538809
  0
POLYLINE
  8
4_SURFACE
 62
7
  6
CONTINUOUS
 66
1
 70
0
  0
VERTEX
  8
4_SURFACE
 62
7
  6
CONTINUOUS
 10
107.5772894223
 20
201.4086063155
  0
VERTEX
  8
4_SURFACE
 62
7
  6
CONTINUOUS
 10
107.5812269669
 20
201.3894781984
  0
VERTEX
  8
4_SURFACE
 62
7
  6
CONTINUOUS
 10
107.5831908298
 20
201.3752526822
  0
SEQEND
  0
LINE
  8
4_SURFACE
 62
7
  6
CONTINUOUS
 10
107.5831979066
 20
201.3752094428
 11
107.5831931006
 21
201.3752530789
  0
LINE
  8
4_SURFACE
 62
7
  6
CONTINUOUS
 10
113.5579000682
 20
199.9671689573
 11
113.4231914353
 21
192.2497165509
  0
POLYLINE
  8
4_SURFACE
 62
7
  6
CONTINUOUS
 66
1
 70
0
  0
VERTEX
  8
4_SURFACE
 62
7
  6
CONTINUOUS
 10
101.8580424022
 20
194.8584427541
  0
VERTEX
  8
4_SURFACE
 62
7
  6
CONTINUOUS
 10
101.8741999867
 20
194.8915474368
  0
VERTEX
  8
4_SURFACE
 62
7
  6
CONTINUOUS
 10
101.8900279699
 20
194.9901833954
  0
VERTEX
  8
4_SURFACE
 62
7
  6
CONTINUOUS
 10
101.9052035262
 20
195.1523302009
  0
VERTEX
  8
4_SURFACE
 62
7
  6
CONTINUOUS
 10
101.9194173774
 20
195.3746687435
  0
VERTEX
  8
4_SURFACE
 62
7
  6
CONTINUOUS
 10
101.9323801199
 20
195.6526521207
  0
VERTEX
  8
4_SURFACE
 62
7
  6
CONTINUOUS
 10
101.9438281198
 20
195.980601793
  0
VERTEX
  8
4_SURFACE
 62
7
  6
CONTINUOUS
 10
101.9535288477
 20
196.3518270809
  0
VERTEX
  8
4_SURFACE
 62
7
  6
CONTINUOUS
 10
101.9612855018
 20
196.7587635041
  0
VERTEX
  8
4_SURFACE
 62
7
  6
CONTINUOUS
 10
101.966940905
 20
197.1931285401
  0
VERTEX
  8
4_SURFACE
 62
7
  6
CONTINUOUS
 10
101.9703805676
 20
197.6460897632
  0
VERTEX
  8
4_SURFACE
 62
7
  6
CONTINUOUS
 10
101.9715349031
 20
198.1084427541
  0
SEQEND
  0
POLYLINE
  8
4_SURFACE
 62
7
  6
CONTINUOUS
 66
1
 70
0
  0
VERTEX
  8
4_SURFACE
 62
7
  6
CONTINUOUS
 10
107.4145486857
 20
194.8584427541
  0
VERTEX
  8
4_SURFACE
 62
7
  6
CONTINUOUS
 10
107.3983911011
 20
194.8915474368
  0
VERTEX
  8
4_SURFACE
 62
7
  6
CONTINUOUS
 10
107.3825631179
 20
194.9901833954
  0
VERTEX
  8
4_SURFACE
 62
7
  6
CONTINUOUS
 10
107.3673875616
 20
195.1523302009
  0
VERTEX
  8
4_SURFACE
 62
7
  6
CONTINUOUS
 10
107.3531737104
 20
195.3746687435
  0
VERTEX
  8
4_SURFACE
 62
7
  6
CONTINUOUS
 10
107.3402109679
 20
195.6526521207
  0
VERTEX
  8
4_SURFACE
 62
7
  6
CONTINUOUS
 10
107.328762968
 20
195.980601793
  0
VERTEX
  8
4_SURFACE
 62
7
  6
CONTINUOUS
 10
107.3190622401
 20
196.3518270809
  0
VERTEX
  8
4_SURFACE
 62
7
  6
CONTINUOUS
 10
107.311305586
 20
196.7587635041
  0
VERTEX
  8
4_SURFACE
 62
7
  6
CONTINUOUS
 10
107.3056501828
 20
197.1931285401
  0
VERTEX
  8
4_SURFACE
 62
7
  6
CONTINUOUS
 10
107.3022105202
 20
197.6460897632
  0
VERTEX
  8
4_SURFACE
 62
7
  6
CONTINUOUS
 10
107.3010561847
 20
198.1084427541
  0
SEQEND
  0
POLYLINE
  8
4_SURFACE
 62
7
  6
CONTINUOUS
 66
1
 70
0
  0
VERTEX
  8
4_SURFACE
 62
7
  6
CONTINUOUS
 10
107.4145486855
 20
201.3584427541
  0
VERTEX
  8
4_SURFACE
 62
7
  6
CONTINUOUS
 10
107.43070627
 20
201.3253380715
  0
VERTEX
  8
4_SURFACE
 62
7
  6
CONTINUOUS
 10
107.4465342532
 20
201.2267021129
  0
VERTEX
  8
4_SURFACE
 62
7
  6
CONTINUOUS
 10
107.4617098095
 20
201.0645553074
  0
VERTEX
  8
4_SURFACE
 62
7
  6
CONTINUOUS
 10
107.4759236607
 20
200.8422167648
  0
VERTEX
  8
4_SURFACE
 62
7
  6
CONTINUOUS
 10
107.4888864032
 20
200.5642333876
  0
VERTEX
  8
4_SURFACE
 62
7
  6
CONTINUOUS
 10
107.5003344031
 20
200.2362837152
  0
VERTEX
  8
4_SURFACE
 62
7
  6
CONTINUOUS
 10
107.510035131
 20
199.8650584273
  0
VERTEX
  8
4_SURFACE
 62
7
  6
CONTINUOUS
 10
107.5177917851
 20
199.4581220041
  0
VERTEX
  8
4_SURFACE
 62
7
  6
CONTINUOUS
 10
107.5234471883
 20
199.0237569681
  0
VERTEX
  8
4_SURFACE
 62
7
  6
CONTINUOUS
 10
107.5268868509
 20
198.570795745
  0
VERTEX
  8
4_SURFACE
 62
7
  6
CONTINUOUS
 10
107.5280411864
 20
198.1084427541
  0
SEQEND
  0
LINE
  8
4_SURFACE
 62
7
  6
CONTINUOUS
 10
127.4146910196
 20
199.9671689573
 11
127.5493996525
 21
192.2497165509
  0
LINE
  8
4_SURFACE
 62
7
  6
CONTINUOUS
 10
130.3993996525
 20
192.2497165509
 11
130.1951753928
 21
203.9497165509
  0
LINE
  8
4_SURFACE
 62
7
  6
CONTINUOUS
 10
154.8731914353
 20
192.2497165509
 11
155.077415695
 21
203.9497165509
  0
POLYLINE
  8
4_SURFACE
 62
7
  6
CONTINUOUS
 66
1
 70
0
  0
VERTEX
  8
4_SURFACE
 62
7
  6
CONTINUOUS
 10
155.0275633996
 20
200.7777664108
  0
VERTEX
  8
4_SURFACE
 62
7
  6
CONTINUOUS
 10
155.0260296113
 20
200.7420322663
  0
VERTEX
  8
4_SURFACE
 62
7
  6
CONTINUOUS
 10
155.0235157157
 20
200.6780914746
  0
SEQEND
  0
POLYLINE
  8
4_SURFACE
 62
7
  6
CONTINUOUS
 66
1
 70
0
  0
VERTEX
  8
4_SURFACE
 62
7
  6
CONTINUOUS
 10
155.0434208837
 20
200.9369916388
  0
VERTEX
  8
4_SURFACE
 62
7
  6
CONTINUOUS
 10
155.0386118328
 20
200.9063887759
  0
VERTEX
  8
4_SURFACE
 62
7
  6
CONTINUOUS
 10
155.0313962209
 20
200.8398290423
  0
VERTEX
  8
4_SURFACE
 62
7
  6
CONTINUOUS
 10
155.0275617841
 20
200.7776985062
  0
SEQEND
  0
LINE
  8
4_SURFACE
 62
7
  6
CONTINUOUS
 10
157.8579000682
 20
199.9671689573
 11
157.7231914353
 21
192.2497165509
  0
POLYLINE
  8
4_SURFACE
 62
7
  6
CONTINUOUS
 66
1
 70
0
  0
VERTEX
  8
4_SURFACE
 62
7
  6
CONTINUOUS
 10
155.155867361
 20
201.1884723248
  0
VERTEX
  8
4_SURFACE
 62
7
  6
CONTINUOUS
 10
155.1066544439
 20
201.1197816237
  0
VERTEX
  8
4_SURFACE
 62
7
  6
CONTINUOUS
 10
155.0730771852
 20
201.048696495
  0
VERTEX
  8
4_SURFACE
 62
7
  6
CONTINUOUS
 10
155.0515179061
 20
200.9767976012
  0
VERTEX
  8
4_SURFACE
 62
7
  6
CONTINUOUS
 10
155.0434208837
 20
200.9369916388
  0
SEQEND
  0
LINE
  8
4_SURFACE
 62
7
  6
CONTINUOUS
 10
178.0146910196
 20
199.9671689573
 11
178.1493996525
 21
192.2497165509
  0
LINE
  8
4_SURFACE
 62
7
  6
CONTINUOUS
 10
180.7951753928
 20
203.9497165509
 11
180.9993996525
 21
192.2497165509
  0
POLYLINE
  8
0
 62
7
  6
CONTINUOUS
 66
1
 70
0
  0
VERTEX
  8
0
 62
7
  6
CONTINUOUS
 10
278.5182326009
 20
191.7584566399
  0
VERTEX
  8
0
 62
7
  6
CONTINUOUS
 10
278.6292586772
 20
191.7717930887
  0
VERTEX
  8
0
 62
7
  6
CONTINUOUS
 10
278.7345248989
 20
191.809423272
  0
VERTEX
  8
0
 62
7
  6
CONTINUOUS
 10
278.8288003831
 20
191.8693872813
  0
VERTEX
  8
0
 62
7
  6
CONTINUOUS
 10
278.9074295714
 20
191.948616734
  0
VERTEX
  8
0
 62
7
  6
CONTINUOUS
 10
278.9665702079
 20
192.0431021651
  0
VERTEX
  8
0
 62
7
  6
CONTINUOUS
 10
279.0033776309
 20
192.1481122258
  0
VERTEX
  8
0
 62
7
  6
CONTINUOUS
 10
279.0161256662
 20
192.2584427541
  0
SEQEND
  0
POLYLINE
  8
4_SURFACE
 62
7
  6
CONTINUOUS
 66
1
 70
0
  0
VERTEX
  8
4_SURFACE
 62
7
  6
CONTINUOUS
 10
107.9543584869
 20
191.7584566399
  0
VERTEX
  8
4_SURFACE
 62
7
  6
CONTINUOUS
 10
107.8433324106
 20
191.7717930887
  0
VERTEX
  8
4_SURFACE
 62
7
  6
CONTINUOUS
 10
107.7380661889
 20
191.809423272
  0
VERTEX
  8
4_SURFACE
 62
7
  6
CONTINUOUS
 10
107.6437907047
 20
191.8693872813
  0
VERTEX
  8
4_SURFACE
 62
7
  6
CONTINUOUS
 10
107.5651615164
 20
191.948616734
  0
VERTEX
  8
4_SURFACE
 62
7
  6
CONTINUOUS
 10
107.5060208799
 20
192.0431021651
  0
VERTEX
  8
4_SURFACE
 62
7
  6
CONTINUOUS
 10
107.469213457
 20
192.1481122258
  0
VERTEX
  8
4_SURFACE
 62
7
  6
CONTINUOUS
 10
107.4564654216
 20
192.2584427541
  0
SEQEND
  0
LINE
  8
4_SURFACE
 62
7
  6
CONTINUOUS
 10
98.6362955439
 20
191.7584427541
 11
181.4993235001
 21
191.7584427541
  0
LINE
  8
0
 62
7
  6
CONTINUOUS
 10
181.4993235001
 20
191.7584427541
 11
287.8362955439
 21
191.7584427541
  0
LINE
  8
0
 62
7
  6
CONTINUOUS
 10
242.6362955439
 20
192.808518029
 11
245.0362955126
 21
192.808518029
  0
LINE
  8
1_AXIS
 62
2
  6
CENTER
 10
96.1362955439
 20
198.1084427541
 11
290.3362955439
 21
198.1084427541
  0
LINE
  8
0
 62
7
  6
CONTINUOUS
 10
131.6833954812
 20
198.1084427541
 11
137.9291956075
 21
198.1084427541
  0
LINE
  8
0
 62
7
  6
CONTINUOUS
 10
182.2813954812
 20
198.1084427541
 11
188.5271956075
 21
198.1084427541
  0
LINE
  8
0
 62
7
  6
CONTINUOUS
 10
232.8733954812
 20
198.1084427541
 11
239.1191956075
 21
198.1084427541
  0
LINE
  8
0
 62
7
  6
CONTINUOUS
 10
241.6460353259
 20
198.1084427541
 11
246.0265557725
 21
198.1084427541
  0
LINE
  8
0
 62
7
  6
CONTINUOUS
 10
248.5433954812
 20
198.1084427541
 11
254.7891956075
 21
198.1084427541
  0
POLYLINE
  8
0
 62
7
  6
CONTINUOUS
 66
1
 70
0
  0
VERTEX
  8
0
 62
7
  6
CONTINUOUS
 10
245.0362955124
 20
192.8085180223
  0
VERTEX
  8
0
 62
7
  6
CONTINUOUS
 10
245.0864335637
 20
192.8062946146
  0
VERTEX
  8
0
 62
7
  6
CONTINUOUS
 10
245.136404203
 20
192.799581685
  0
VERTEX
  8
0
 62
7
  6
CONTINUOUS
 10
245.1836360961
 20
192.7889001941
  0
VERTEX
  8
0
 62
7
  6
CONTINUOUS
 10
245.2265675654
 20
192.7751966184
  0
VERTEX
  8
0
 62
7
  6
CONTINUOUS
 10
245.2642241278
 20
192.7595879684
  0
VERTEX
  8
0
 62
7
  6
CONTINUOUS
 10
245.2961714982
 20
192.7431748643
  0
VERTEX
  8
0
 62
7
  6
CONTINUOUS
 10
245.3225393778
 20
192.7267808407
  0
VERTEX
  8
0
 62
7
  6
CONTINUOUS
 10
245.3427079345
 20
192.7117511142
  0
VERTEX
  8
0
 62
7
  6
CONTINUOUS
 10
245.3563139617
 20
192.6996093867
  0
VERTEX
  8
0
 62
7
  6
CONTINUOUS
 10
245.3594199949
 20
192.6964305589
  0
SEQEND
  0
POLYLINE
  8
4_SURFACE
 62
7
  6
CONTINUOUS
 66
1
 70
0
  0
VERTEX
  8
4_SURFACE
 62
7
  6
CONTINUOUS
 10
101.3182326009
 20
191.7584566399
  0
VERTEX
  8
4_SURFACE
 62
7
  6
CONTINUOUS
 10
101.4292586772
 20
191.7717930887
  0
VERTEX
  8
4_SURFACE
 62
7
  6
CONTINUOUS
 10
101.5345248989
 20
191.809423272
  0
VERTEX
  8
4_SURFACE
 62
7
  6
CONTINUOUS
 10
101.6288003831
 20
191.8693872813
  0
VERTEX
  8
4_SURFACE
 62
7
  6
CONTINUOUS
 10
101.7074295714
 20
191.948616734
  0
VERTEX
  8
4_SURFACE
 62
7
  6
CONTINUOUS
 10
101.7665702079
 20
192.0431021651
  0
VERTEX
  8
4_SURFACE
 62
7
  6
CONTINUOUS
 10
101.8033776309
 20
192.1481122258
  0
VERTEX
  8
4_SURFACE
 62
7
  6
CONTINUOUS
 10
101.8161256662
 20
192.2584427541
  0
SEQEND
  0
LINE
  8
0
 62
7
  6
CONTINUOUS
 10
272.4217684221
 20
200.4584427541
 11
259.5508226657
 21
200.4584427541
  0
LINE
  8
0
 62
7
  6
CONTINUOUS
 10
228.1217684221
 20
200.4584427541
 11
208.9508226657
 21
200.4584427541
  0
LINE
  8
4_SURFACE
 62
7
  6
CONTINUOUS
 10
177.5217684221
 20
200.4584427541
 11
158.3508226657
 21
200.4584427541
  0
LINE
  8
4_SURFACE
 62
7
  6
CONTINUOUS
 10
126.9217684221
 20
200.4584427541
 11
114.0508226657
 21
200.4584427541
  0
LINE
  8
0
 62
7
  6
CONTINUOUS
 10
284.2579994835
 20
202.0318183436
 11
279.4145915208
 21
202.0318183436
  0
LINE
  8
4_SURFACE
 62
7
  6
CONTINUOUS
 10
107.057999567
 20
202.0318183436
 11
102.2145916044
 21
202.0318183436
  0
LINE
  8
4_SURFACE
 62
7
  6
CONTINUOUS
 10
100.1798641299
 20
204.4584427541
 11
181.2950992404
 21
204.4584427541
  0
LINE
  8
0
 62
7
  6
CONTINUOUS
 10
181.1776898739
 20
204.4584427541
 11
286.2927269579
 21
204.4584427541
  0
POLYLINE
  8
4_SURFACE
 62
7
  6
CONTINUOUS
 66
1
 70
0
  0
VERTEX
  8
4_SURFACE
 62
7
  6
CONTINUOUS
 10
107.0579995675
 20
202.0318094668
  0
VERTEX
  8
4_SURFACE
 62
7
  6
CONTINUOUS
 10
107.0633192877
 20
202.0317557382
  0
VERTEX
  8
4_SURFACE
 62
7
  6
CONTINUOUS
 10
107.1024500236
 20
202.0280848917
  0
VERTEX
  8
4_SURFACE
 62
7
  6
CONTINUOUS
 10
107.1407972619
 20
202.0190580743
  0
VERTEX
  8
4_SURFACE
 62
7
  6
CONTINUOUS
 10
107.1762328697
 20
202.0061023752
  0
VERTEX
  8
4_SURFACE
 62
7
  6
CONTINUOUS
 10
107.2096578704
 20
201.989891149
  0
VERTEX
  8
4_SURFACE
 62
7
  6
CONTINUOUS
 10
107.2413072527
 20
201.9709590074
  0
VERTEX
  8
4_SURFACE
 62
7
  6
CONTINUOUS
 10
107.2715405973
 20
201.949544677
  0
VERTEX
  8
4_SURFACE
 62
7
  6
CONTINUOUS
 10
107.3006453967
 20
201.9257262082
  0
VERTEX
  8
4_SURFACE
 62
7
  6
CONTINUOUS
 10
107.3285897569
 20
201.8997145457
  0
VERTEX
  8
4_SURFACE
 62
7
  6
CONTINUOUS
 10
107.3553516875
 20
201.8716877513
  0
VERTEX
  8
4_SURFACE
 62
7
  6
CONTINUOUS
 10
107.3809536404
 20
201.8417397069
  0
VERTEX
  8
4_SURFACE
 62
7
  6
CONTINUOUS
 10
107.4053985674
 20
201.8099419525
  0
VERTEX
  8
4_SURFACE
 62
7
  6
CONTINUOUS
 10
107.4287138677
 20
201.7762967049
  0
VERTEX
  8
4_SURFACE
 62
7
  6
CONTINUOUS
 10
107.4509059915
 20
201.7407709621
  0
VERTEX
  8
4_SURFACE
 62
7
  6
CONTINUOUS
 10
107.4719535817
 20
201.7033340298
  0
VERTEX
  8
4_SURFACE
 62
7
  6
CONTINUOUS
 10
107.4917358422
 20
201.6640909836
  0
VERTEX
  8
4_SURFACE
 62
7
  6
CONTINUOUS
 10
107.5101736972
 20
201.6230778844
  0
VERTEX
  8
4_SURFACE
 62
7
  6
CONTINUOUS
 10
107.5271721603
 20
201.5803262359
  0
VERTEX
  8
4_SURFACE
 62
7
  6
CONTINUOUS
 10
107.5426385733
 20
201.5358429197
  0
VERTEX
  8
4_SURFACE
 62
7
  6
CONTINUOUS
 10
107.5564523599
 20
201.489662429
  0
VERTEX
  8
4_SURFACE
 62
7
  6
CONTINUOUS
 10
107.559403664
 20
201.4787219349
  0
SEQEND
  0
POLYLINE
  8
0
 62
7
  6
CONTINUOUS
 66
1
 70
0
  0
VERTEX
  8
0
 62
7
  6
CONTINUOUS
 10
284.2579994836
 20
202.0318094622
  0
VERTEX
  8
0
 62
7
  6
CONTINUOUS
 10
284.2660675463
 20
202.0316857963
  0
VERTEX
  8
0
 62
7
  6
CONTINUOUS
 10
284.3050781397
 20
202.0276350986
  0
VERTEX
  8
0
 62
7
  6
CONTINUOUS
 10
284.3432014164
 20
202.0183177666
  0
VERTEX
  8
0
 62
7
  6
CONTINUOUS
 10
284.3784576408
 20
202.0051433448
  0
VERTEX
  8
0
 62
7
  6
CONTINUOUS
 10
284.4117426018
 20
201.988751864
  0
VERTEX
  8
0
 62
7
  6
CONTINUOUS
 10
284.4432852715
 20
201.9696587764
  0
VERTEX
  8
0
 62
7
  6
CONTINUOUS
 10
284.47342819
 20
201.9480968773
  0
VERTEX
  8
0
 62
7
  6
CONTINUOUS
 10
284.5024492234
 20
201.9241423568
  0
VERTEX
  8
0
 62
7
  6
CONTINUOUS
 10
284.5303189114
 20
201.8979988201
  0
VERTEX
  8
0
 62
7
  6
CONTINUOUS
 10
284.557011909
 20
201.8698420073
  0
VERTEX
  8
0
 62
7
  6
CONTINUOUS
 10
284.5825485966
 20
201.8397647136
  0
VERTEX
  8
0
 62
7
  6
CONTINUOUS
 10
284.6069308025
 20
201.8078352654
  0
VERTEX
  8
0
 62
7
  6
CONTINUOUS
 10
284.6301812061
 20
201.7740594018
  0
VERTEX
  8
0
 62
7
  6
CONTINUOUS
 10
284.6523058481
 20
201.7384018105
  0
VERTEX
  8
0
 62
7
  6
CONTINUOUS
 10
284.6732803485
 20
201.7008346609
  0
VERTEX
  8
0
 62
7
  6
CONTINUOUS
 10
284.6929861537
 20
201.6614572221
  0
VERTEX
  8
0
 62
7
  6
CONTINUOUS
 10
284.7113416548
 20
201.6203080904
  0
VERTEX
  8
0
 62
7
  6
CONTINUOUS
 10
284.7282515325
 20
201.5774157686
  0
VERTEX
  8
0
 62
7
  6
CONTINUOUS
 10
284.7436213056
 20
201.5327886611
  0
VERTEX
  8
0
 62
7
  6
CONTINUOUS
 10
284.7573285816
 20
201.4864606922
  0
SEQEND
  0
POLYLINE
  8
0
 62
7
  6
CONTINUOUS
 66
1
 70
0
  0
VERTEX
  8
0
 62
7
  6
CONTINUOUS
 10
285.1543584869
 20
191.7584566399
  0
VERTEX
  8
0
 62
7
  6
CONTINUOUS
 10
285.0433324106
 20
191.7717930887
  0
VERTEX
  8
0
 62
7
  6
CONTINUOUS
 10
284.9380661889
 20
191.809423272
  0
VERTEX
  8
0
 62
7
  6
CONTINUOUS
 10
284.8437907047
 20
191.8693872813
  0
VERTEX
  8
0
 62
7
  6
CONTINUOUS
 10
284.7651615164
 20
191.948616734
  0
VERTEX
  8
0
 62
7
  6
CONTINUOUS
 10
284.7060208799
 20
192.0431021651
  0
VERTEX
  8
0
 62
7
  6
CONTINUOUS
 10
284.669213457
 20
192.1481122258
  0
VERTEX
  8
0
 62
7
  6
CONTINUOUS
 10
284.6564654216
 20
192.2584427541
  0
SEQEND
  0
LINE
  8
0
 62
7
  6
CONTINUOUS
 10
205.677415695
 20
203.9497165509
 11
205.4731914353
 21
192.2497165509
  0
LINE
  8
0
 62
7
  6
CONTINUOUS
 10
208.4579000682
 20
199.9671689573
 11
208.3231914353
 21
192.2497165509
  0
LINE
  8
4_SURFACE
 62
7
  6
CONTINUOUS
 10
100.0935730304
 20
204.4498982514
 11
98.4900044444
 21
204.1291845342
  0
LINE
  8
0
 62
7
  6
CONTINUOUS
 10
287.9825866434
 20
204.1291845342
 11
286.3790180574
 21
204.4498982514
  0
POLYLINE
  8
0
 62
7
  6
CONTINUOUS
 66
1
 70
0
  0
VERTEX
  8
0
 62
7
  6
CONTINUOUS
 10
242.3622524885
 20
192.7347465215
  0
VERTEX
  8
0
 62
7
  6
CONTINUOUS
 10
242.3933373432
 20
192.7522744613
  0
VERTEX
  8
0
 62
7
  6
CONTINUOUS
 10
242.4307471492
 20
192.7693003762
  0
VERTEX
  8
0
 62
7
  6
CONTINUOUS
 10
242.4743918021
 20
192.7847012858
  0
VERTEX
  8
0
 62
7
  6
CONTINUOUS
 10
242.5233179313
 20
192.7971043733
  0
VERTEX
  8
0
 62
7
  6
CONTINUOUS
 10
242.575892489
 20
192.8052882532
  0
VERTEX
  8
0
 62
7
  6
CONTINUOUS
 10
242.6288615058
 20
192.808470445
  0
VERTEX
  8
0
 62
7
  6
CONTINUOUS
 10
242.6362955439
 20
192.8085181406
  0
SEQEND
  0
LINE
  8
0
 62
7
  6
CONTINUOUS
 10
231.4450276882
 20
200.7777664108
 11
231.4478994483
 21
200.7089172599
  0
LINE
  8
0
 62
7
  6
CONTINUOUS
 10
231.4478994483
 20
200.7089172599
 11
231.4490753722
 21
200.6780914746
  0
LINE
  8
0
 62
7
  6
CONTINUOUS
 10
228.6146910196
 20
199.9671689573
 11
228.7493996525
 21
192.2497165509
  0
LINE
  8
0
 62
7
  6
CONTINUOUS
 10
231.5993996525
 20
192.2497165509
 11
231.3951753928
 21
203.9497165509
  0
POLYLINE
  8
0
 62
7
  6
CONTINUOUS
 66
1
 70
0
  0
VERTEX
  8
0
 62
7
  6
CONTINUOUS
 10
231.3167237268
 20
201.1884723248
  0
VERTEX
  8
0
 62
7
  6
CONTINUOUS
 10
231.365936644
 20
201.1197816237
  0
VERTEX
  8
0
 62
7
  6
CONTINUOUS
 10
231.3995139026
 20
201.048696495
  0
VERTEX
  8
0
 62
7
  6
CONTINUOUS
 10
231.4210731817
 20
200.9767976012
  0
VERTEX
  8
0
 62
7
  6
CONTINUOUS
 10
231.4291688236
 20
200.9369994942
  0
SEQEND
  0
POLYLINE
  8
0
 62
7
  6
CONTINUOUS
 66
1
 70
0
  0
VERTEX
  8
0
 62
7
  6
CONTINUOUS
 10
231.4291688236
 20
200.9369994942
  0
VERTEX
  8
0
 62
7
  6
CONTINUOUS
 10
231.433979255
 20
200.9063887759
  0
VERTEX
  8
0
 62
7
  6
CONTINUOUS
 10
231.4411948669
 20
200.8398290423
  0
VERTEX
  8
0
 62
7
  6
CONTINUOUS
 10
231.4450293037
 20
200.7776985062
  0
SEQEND
  0
POLYLINE
  8
0
 62
7
  6
CONTINUOUS
 66
1
 70
0
  0
VERTEX
  8
0
 62
7
  6
CONTINUOUS
 10
242.310744945
 20
192.6941439391
  0
VERTEX
  8
0
 62
7
  6
CONTINUOUS
 10
242.3098148649
 20
192.6927243771
  0
VERTEX
  8
0
 62
7
  6
CONTINUOUS
 10
242.3110520296
 20
192.6941049567
  0
VERTEX
  8
0
 62
7
  6
CONTINUOUS
 10
242.3205470201
 20
192.7036743965
  0
VERTEX
  8
0
 62
7
  6
CONTINUOUS
 10
242.3377876365
 20
192.7179683718
  0
VERTEX
  8
0
 62
7
  6
CONTINUOUS
 10
242.3622524885
 20
192.7347465215
  0
SEQEND
  0
LINE
  8
0
 62
7
  6
CONTINUOUS
 10
242.3362955439
 20
192.7167312968
 11
242.3362955439
 21
192.6094271952
  0
LINE
  8
0
 62
7
  6
CONTINUOUS
 10
245.3362955439
 20
192.7165296652
 11
245.3362955439
 21
192.6094271952
  0
LINE
  8
0
 62
7
  6
CONTINUOUS
 10
256.0731914353
 20
192.2497165509
 11
256.277415695
 21
203.9497165509
  0
LINE
  8
0
 62
7
  6
CONTINUOUS
 10
259.0579000682
 20
199.9671689573
 11
258.9231914353
 21
192.2497165509
  0
POLYLINE
  8
1_AXIS
 62
7
  6
CONTINUOUS
 66
1
 70
0
  0
VERTEX
  8
1_AXIS
 62
7
  6
CONTINUOUS
 10
279.0580424024
 20
201.3584427541
  0
VERTEX
  8
1_AXIS
 62
7
  6
CONTINUOUS
 10
279.0418848178
 20
201.3253380715
  0
VERTEX
  8
1_AXIS
 62
7
  6
CONTINUOUS
 10
279.0260568346
 20
201.2267021129
  0
VERTEX
  8
1_AXIS
 62
7
  6
CONTINUOUS
 10
279.0108812783
 20
201.0645553074
  0
VERTEX
  8
1_AXIS
 62
7
  6
CONTINUOUS
 10
278.9966674271
 20
200.8422167648
  0
VERTEX
  8
1_AXIS
 62
7
  6
CONTINUOUS
 10
278.9837046846
 20
200.5642333876
  0
VERTEX
  8
1_AXIS
 62
7
  6
CONTINUOUS
 10
278.9722566847
 20
200.2362837152
  0
VERTEX
  8
1_AXIS
 62
7
  6
CONTINUOUS
 10
278.9625559568
 20
199.8650584273
  0
VERTEX
  8
1_AXIS
 62
7
  6
CONTINUOUS
 10
278.9547993027
 20
199.4581220041
  0
VERTEX
  8
1_AXIS
 62
7
  6
CONTINUOUS
 10
278.9491438995
 20
199.0237569681
  0
VERTEX
  8
1_AXIS
 62
7
  6
CONTINUOUS
 10
278.9457042369
 20
198.570795745
  0
VERTEX
  8
1_AXIS
 62
7
  6
CONTINUOUS
 10
278.9445499014
 20
198.1084427541
  0
SEQEND
  0
LINE
  8
0
 62
7
  6
CONTINUOUS
 10
272.9146910196
 20
199.9671689573
 11
273.0493996525
 21
192.2497165509
  0
LINE
  8
0
 62
7
  6
CONTINUOUS
 10
275.7951753928
 20
203.9497165509
 11
275.9993996525
 21
192.2497165509
  0
LINE
  8
0
 62
7
  6
CONTINUOUS
 10
278.8952918081
 20
201.4085663555
 11
278.9028567145
 21
201.4388128035
  0
POLYLINE
  8
0
 62
7
  6
CONTINUOUS
 66
1
 70
0
  0
VERTEX
  8
0
 62
7
  6
CONTINUOUS
 10
278.9028567145
 20
201.4388128035
  0
VERTEX
  8
0
 62
7
  6
CONTINUOUS
 10
278.9080275311
 20
201.4589884398
  0
VERTEX
  8
0
 62
7
  6
CONTINUOUS
 10
278.9131884411
 20
201.4787192654
  0
SEQEND
  0
POLYLINE
  8
0
 62
7
  6
CONTINUOUS
 66
1
 70
0
  0
VERTEX
  8
0
 62
7
  6
CONTINUOUS
 10
278.9131874238
 20
201.4787219349
  0
VERTEX
  8
0
 62
7
  6
CONTINUOUS
 10
278.9161387279
 20
201.489662429
  0
VERTEX
  8
0
 62
7
  6
CONTINUOUS
 10
278.9299525145
 20
201.5358429197
  0
VERTEX
  8
0
 62
7
  6
CONTINUOUS
 10
278.9454189275
 20
201.5803262358
  0
VERTEX
  8
0
 62
7
  6
CONTINUOUS
 10
278.9624173906
 20
201.6230778844
  0
VERTEX
  8
0
 62
7
  6
CONTINUOUS
 10
278.9808552456
 20
201.6640909836
  0
VERTEX
  8
0
 62
7
  6
CONTINUOUS
 10
279.0006375061
 20
201.7033340297
  0
VERTEX
  8
0
 62
7
  6
CONTINUOUS
 10
279.0216850963
 20
201.740770962
  0
VERTEX
  8
0
 62
7
  6
CONTINUOUS
 10
279.04387722
 20
201.7762967048
  0
VERTEX
  8
0
 62
7
  6
CONTINUOUS
 10
279.0671925203
 20
201.8099419524
  0
VERTEX
  8
0
 62
7
  6
CONTINUOUS
 10
279.0916374474
 20
201.8417397068
  0
VERTEX
  8
0
 62
7
  6
CONTINUOUS
 10
279.1172394002
 20
201.8716877512
  0
VERTEX
  8
0
 62
7
  6
CONTINUOUS
 10
279.1440013308
 20
201.8997145456
  0
VERTEX
  8
0
 62
7
  6
CONTINUOUS
 10
279.1719456911
 20
201.9257262081
  0
VERTEX
  8
0
 62
7
  6
CONTINUOUS
 10
279.2010504904
 20
201.9495446769
  0
VERTEX
  8
0
 62
7
  6
CONTINUOUS
 10
279.231283835
 20
201.9709590073
  0
VERTEX
  8
0
 62
7
  6
CONTINUOUS
 10
279.2629332173
 20
201.989891149
  0
VERTEX
  8
0
 62
7
  6
CONTINUOUS
 10
279.2963582181
 20
202.0061023752
  0
VERTEX
  8
0
 62
7
  6
CONTINUOUS
 10
279.3317938259
 20
202.0190580743
  0
VERTEX
  8
0
 62
7
  6
CONTINUOUS
 10
279.3701410642
 20
202.0280848917
  0
VERTEX
  8
0
 62
7
  6
CONTINUOUS
 10
279.4092718001
 20
202.0317557382
  0
VERTEX
  8
0
 62
7
  6
CONTINUOUS
 10
279.4145915203
 20
202.0318094668
  0
SEQEND
  0
POLYLINE
  8
1_AXIS
 62
7
  6
CONTINUOUS
 66
1
 70
0
  0
VERTEX
  8
1_AXIS
 62
7
  6
CONTINUOUS
 10
279.0580424022
 20
194.8584427541
  0
VERTEX
  8
1_AXIS
 62
7
  6
CONTINUOUS
 10
279.0741999867
 20
194.8915474368
  0
VERTEX
  8
1_AXIS
 62
7
  6
CONTINUOUS
 10
279.0900279699
 20
194.9901833954
  0
VERTEX
  8
1_AXIS
 62
7
  6
CONTINUOUS
 10
279.1052035262
 20
195.1523302009
  0
VERTEX
  8
1_AXIS
 62
7
  6
CONTINUOUS
 10
279.1194173774
 20
195.3746687435
  0
VERTEX
  8
1_AXIS
 62
7
  6
CONTINUOUS
 10
279.1323801199
 20
195.6526521207
  0
VERTEX
  8
1_AXIS
 62
7
  6
CONTINUOUS
 10
279.1438281198
 20
195.980601793
  0
VERTEX
  8
1_AXIS
 62
7
  6
CONTINUOUS
 10
279.1535288477
 20
196.3518270809
  0
VERTEX
  8
1_AXIS
 62
7
  6
CONTINUOUS
 10
279.1612855018
 20
196.7587635041
  0
VERTEX
  8
1_AXIS
 62
7
  6
CONTINUOUS
 10
279.166940905
 20
197.1931285401
  0
VERTEX
  8
1_AXIS
 62
7
  6
CONTINUOUS
 10
279.1703805676
 20
197.6460897632
  0
VERTEX
  8
1_AXIS
 62
7
  6
CONTINUOUS
 10
279.1715349031
 20
198.1084427541
  0
SEQEND
  0
POLYLINE
  8
1_AXIS
 62
7
  6
CONTINUOUS
 66
1
 70
0
  0
VERTEX
  8
1_AXIS
 62
7
  6
CONTINUOUS
 10
284.6145486857
 20
194.8584427541
  0
VERTEX
  8
1_AXIS
 62
7
  6
CONTINUOUS
 10
284.5983911011
 20
194.8915474368
  0
VERTEX
  8
1_AXIS
 62
7
  6
CONTINUOUS
 10
284.5825631179
 20
194.9901833954
  0
VERTEX
  8
1_AXIS
 62
7
  6
CONTINUOUS
 10
284.5673875616
 20
195.1523302009
  0
VERTEX
  8
1_AXIS
 62
7
  6
CONTINUOUS
 10
284.5531737104
 20
195.3746687435
  0
VERTEX
  8
1_AXIS
 62
7
  6
CONTINUOUS
 10
284.5402109679
 20
195.6526521207
  0
VERTEX
  8
1_AXIS
 62
7
  6
CONTINUOUS
 10
284.528762968
 20
195.980601793
  0
VERTEX
  8
1_AXIS
 62
7
  6
CONTINUOUS
 10
284.5190622401
 20
196.3518270809
  0
VERTEX
  8
1_AXIS
 62
7
  6
CONTINUOUS
 10
284.511305586
 20
196.7587635041
  0
VERTEX
  8
1_AXIS
 62
7
  6
CONTINUOUS
 10
284.5056501828
 20
197.1931285401
  0
VERTEX
  8
1_AXIS
 62
7
  6
CONTINUOUS
 10
284.5022105202
 20
197.6460897632
  0
VERTEX
  8
1_AXIS
 62
7
  6
CONTINUOUS
 10
284.5010561847
 20
198.1084427541
  0
SEQEND
  0
POLYLINE
  8
1_AXIS
 62
7
  6
CONTINUOUS
 66
1
 70
0
  0
VERTEX
  8
1_AXIS
 62
7
  6
CONTINUOUS
 10
278.9445499014
 20
198.1084427541
  0
VERTEX
  8
1_AXIS
 62
7
  6
CONTINUOUS
 10
278.9457042367
 20
197.6460897925
  0
VERTEX
  8
1_AXIS
 62
7
  6
CONTINUOUS
 10
278.9491438982
 20
197.1931286653
  0
VERTEX
  8
1_AXIS
 62
7
  6
CONTINUOUS
 10
278.9547992986
 20
196.7587637658
  0
VERTEX
  8
1_AXIS
 62
7
  6
CONTINUOUS
 10
278.9625559476
 20
196.35182749
  0
VERTEX
  8
1_AXIS
 62
7
  6
CONTINUOUS
 10
278.9722566684
 20
195.9806023305
  0
VERTEX
  8
1_AXIS
 62
7
  6
CONTINUOUS
 10
278.9837046596
 20
195.6526527405
  0
VERTEX
  8
1_AXIS
 62
7
  6
CONTINUOUS
 10
278.9966673927
 20
195.3746693774
  0
VERTEX
  8
1_AXIS
 62
7
  6
CONTINUOUS
 10
279.0108812348
 20
195.15233077
  0
VERTEX
  8
1_AXIS
 62
7
  6
CONTINUOUS
 10
279.0260567836
 20
194.9901838247
  0
VERTEX
  8
1_AXIS
 62
7
  6
CONTINUOUS
 10
279.0418847618
 20
194.8915476675
  0
VERTEX
  8
1_AXIS
 62
7
  6
CONTINUOUS
 10
279.0580424022
 20
194.8584427541
  0
SEQEND
  0
POLYLINE
  8
1_AXIS
 62
7
  6
CONTINUOUS
 66
1
 70
0
  0
VERTEX
  8
1_AXIS
 62
7
  6
CONTINUOUS
 10
279.1715349031
 20
198.1084427541
  0
VERTEX
  8
1_AXIS
 62
7
  6
CONTINUOUS
 10
279.1703805678
 20
198.5707957158
  0
VERTEX
  8
1_AXIS
 62
7
  6
CONTINUOUS
 10
279.1669409063
 20
199.023756843
  0
VERTEX
  8
1_AXIS
 62
7
  6
CONTINUOUS
 10
279.1612855059
 20
199.4581217424
  0
VERTEX
  8
1_AXIS
 62
7
  6
CONTINUOUS
 10
279.1535288569
 20
199.8650580182
  0
VERTEX
  8
1_AXIS
 62
7
  6
CONTINUOUS
 10
279.1438281361
 20
200.2362831778
  0
VERTEX
  8
1_AXIS
 62
7
  6
CONTINUOUS
 10
279.1323801449
 20
200.5642327678
  0
VERTEX
  8
1_AXIS
 62
7
  6
CONTINUOUS
 10
279.1194174118
 20
200.8422161308
  0
VERTEX
  8
1_AXIS
 62
7
  6
CONTINUOUS
 10
279.1052035697
 20
201.0645547383
  0
VERTEX
  8
1_AXIS
 62
7
  6
CONTINUOUS
 10
279.090028021
 20
201.2267016836
  0
VERTEX
  8
1_AXIS
 62
7
  6
CONTINUOUS
 10
279.0742000427
 20
201.3253378407
  0
VERTEX
  8
1_AXIS
 62
7
  6
CONTINUOUS
 10
279.0580424024
 20
201.3584427541
  0
SEQEND
  0
LINE
  8
0
 62
7
  6
CONTINUOUS
 10
288.3362955439
 20
203.6977290369
 11
288.3362955439
 21
192.2584427541
  0
POLYLINE
  8
1_AXIS
 62
7
  6
CONTINUOUS
 66
1
 70
0
  0
VERTEX
  8
1_AXIS
 62
7
  6
CONTINUOUS
 10
284.5010561847
 20
198.1084427541
  0
VERTEX
  8
1_AXIS
 62
7
  6
CONTINUOUS
 10
284.50221052
 20
198.5707957158
  0
VERTEX
  8
1_AXIS
 62
7
  6
CONTINUOUS
 10
284.5056501815
 20
199.023756843
  0
VERTEX
  8
1_AXIS
 62
7
  6
CONTINUOUS
 10
284.5113055819
 20
199.4581217424
  0
VERTEX
  8
1_AXIS
 62
7
  6
CONTINUOUS
 10
284.5190622309
 20
199.8650580182
  0
VERTEX
  8
1_AXIS
 62
7
  6
CONTINUOUS
 10
284.5287629517
 20
200.2362831778
  0
VERTEX
  8
1_AXIS
 62
7
  6
CONTINUOUS
 10
284.5402109429
 20
200.5642327678
  0
VERTEX
  8
1_AXIS
 62
7
  6
CONTINUOUS
 10
284.553173676
 20
200.8422161308
  0
VERTEX
  8
1_AXIS
 62
7
  6
CONTINUOUS
 10
284.5673875181
 20
201.0645547383
  0
VERTEX
  8
1_AXIS
 62
7
  6
CONTINUOUS
 10
284.5825630669
 20
201.2267016836
  0
VERTEX
  8
1_AXIS
 62
7
  6
CONTINUOUS
 10
284.5983910451
 20
201.3253378407
  0
VERTEX
  8
1_AXIS
 62
7
  6
CONTINUOUS
 10
284.6145486855
 20
201.3584427541
  0
SEQEND
  0
POLYLINE
  8
1_AXIS
 62
7
  6
CONTINUOUS
 66
1
 70
0
  0
VERTEX
  8
1_AXIS
 62
7
  6
CONTINUOUS
 10
284.7280411864
 20
198.1084427541
  0
VERTEX
  8
1_AXIS
 62
7
  6
CONTINUOUS
 10
284.7268868511
 20
197.6460897925
  0
VERTEX
  8
1_AXIS
 62
7
  6
CONTINUOUS
 10
284.7234471896
 20
197.1931286653
  0
VERTEX
  8
1_AXIS
 62
7
  6
CONTINUOUS
 10
284.7177917892
 20
196.7587637658
  0
VERTEX
  8
1_AXIS
 62
7
  6
CONTINUOUS
 10
284.7100351402
 20
196.35182749
  0
VERTEX
  8
1_AXIS
 62
7
  6
CONTINUOUS
 10
284.7003344194
 20
195.9806023305
  0
VERTEX
  8
1_AXIS
 62
7
  6
CONTINUOUS
 10
284.6888864282
 20
195.6526527405
  0
VERTEX
  8
1_AXIS
 62
7
  6
CONTINUOUS
 10
284.6759236951
 20
195.3746693774
  0
VERTEX
  8
1_AXIS
 62
7
  6
CONTINUOUS
 10
284.661709853
 20
195.15233077
  0
VERTEX
  8
1_AXIS
 62
7
  6
CONTINUOUS
 10
284.6465343043
 20
194.9901838247
  0
VERTEX
  8
1_AXIS
 62
7
  6
CONTINUOUS
 10
284.630706326
 20
194.8915476675
  0
VERTEX
  8
1_AXIS
 62
7
  6
CONTINUOUS
 10
284.6145486857
 20
194.8584427541
  0
SEQEND
  0
POLYLINE
  8
0
 62
7
  6
CONTINUOUS
 66
1
 70
0
  0
VERTEX
  8
0
 62
7
  6
CONTINUOUS
 10
278.8893999732
 20
201.3752500968
  0
VERTEX
  8
0
 62
7
  6
CONTINUOUS
 10
278.891251753
 20
201.3887967443
  0
VERTEX
  8
0
 62
7
  6
CONTINUOUS
 10
278.8953018688
 20
201.4086071395
  0
SEQEND
  0
POLYLINE
  8
1_AXIS
 62
7
  6
CONTINUOUS
 66
1
 70
0
  0
VERTEX
  8
1_AXIS
 62
7
  6
CONTINUOUS
 10
284.6145486855
 20
201.3584427541
  0
VERTEX
  8
1_AXIS
 62
7
  6
CONTINUOUS
 10
284.63070627
 20
201.3253380715
  0
VERTEX
  8
1_AXIS
 62
7
  6
CONTINUOUS
 10
284.6465342532
 20
201.2267021129
  0
VERTEX
  8
1_AXIS
 62
7
  6
CONTINUOUS
 10
284.6617098095
 20
201.0645553074
  0
VERTEX
  8
1_AXIS
 62
7
  6
CONTINUOUS
 10
284.6759236607
 20
200.8422167648
  0
VERTEX
  8
1_AXIS
 62
7
  6
CONTINUOUS
 10
284.6888864032
 20
200.5642333876
  0
VERTEX
  8
1_AXIS
 62
7
  6
CONTINUOUS
 10
284.7003344031
 20
200.2362837152
  0
VERTEX
  8
1_AXIS
 62
7
  6
CONTINUOUS
 10
284.710035131
 20
199.8650584273
  0
VERTEX
  8
1_AXIS
 62
7
  6
CONTINUOUS
 10
284.7177917851
 20
199.4581220041
  0
VERTEX
  8
1_AXIS
 62
7
  6
CONTINUOUS
 10
284.7234471883
 20
199.0237569681
  0
VERTEX
  8
1_AXIS
 62
7
  6
CONTINUOUS
 10
284.7268868509
 20
198.570795745
  0
VERTEX
  8
1_AXIS
 62
7
  6
CONTINUOUS
 10
284.7280411864
 20
198.1084427541
  0
SEQEND
  0
LINE
  8
0
 62
7
  6
CONTINUOUS
 10
284.7573285816
 20
201.4864606922
 11
284.7598988896
 21
201.4768397309
  0
LINE
  8
0
 62
7
  6
CONTINUOUS
 10
284.7598988896
 20
201.4768397309
 11
284.7651717461
 21
201.4566365179
  0
LINE
  8
0
 62
7
  6
CONTINUOUS
 10
284.7651717461
 20
201.4566365179
 11
284.7703495006
 21
201.4363856988
  0
LINE
  8
0
 62
7
  6
CONTINUOUS
 10
284.7703495006
 20
201.4363856988
 11
284.7773062146
 21
201.4085386171
  0
POLYLINE
  8
0
 62
7
  6
CONTINUOUS
 66
1
 70
0
  0
VERTEX
  8
0
 62
7
  6
CONTINUOUS
 10
284.7772891835
 20
201.4086072796
  0
VERTEX
  8
0
 62
7
  6
CONTINUOUS
 10
284.7814466965
 20
201.3881348317
  0
VERTEX
  8
0
 62
7
  6
CONTINUOUS
 10
284.7831910131
 20
201.3752510999
  0
SEQEND
  0
LINE
  8
0
 62
7
  6
CONTINUOUS
 10
284.7831956252
 20
201.3752092214
 11
284.7831910131
 21
201.3752510999
  0
LINE
  8
4_SURFACE
 62
7
  6
CONTINUOUS
 10
338.3441290661
 20
108.6616743244
 11
337.8441290661
 21
108.6065730654
  0
LINE
  8
4_SURFACE
 62
7
  6
CONTINUOUS
 10
346.5425608199
 20
141.3540013404
 11
339.1591048295
 21
138.6622641888
  0
LINE
  8
4_SURFACE
 62
7
  6
CONTINUOUS
 10
337.8441290661
 20
108.6065730654
 11
337.8441290661
 21
149.1825730654
  0
LINE
  8
DEFAULT_1
 62
2
  6
CENTER
 10
344.1941290661
 20
101.4945729243
 11
344.1941290661
 21
156.2945731007
  0
POLYLINE
  8
4_SURFACE
 62
7
  6
CONTINUOUS
 66
1
 70
0
  0
VERTEX
  8
4_SURFACE
 62
7
  6
CONTINUOUS
 10
349.2778446594
 20
142.5945730654
  0
VERTEX
  8
4_SURFACE
 62
7
  6
CONTINUOUS
 10
349.3177590819
 20
142.8217524641
  0
VERTEX
  8
4_SURFACE
 62
7
  6
CONTINUOUS
 10
349.361749174
 20
143.0427754775
  0
VERTEX
  8
4_SURFACE
 62
7
  6
CONTINUOUS
 10
349.4150826376
 20
143.2393766134
  0
VERTEX
  8
4_SURFACE
 62
7
  6
CONTINUOUS
 10
349.4820488568
 20
143.4035747432
  0
VERTEX
  8
4_SURFACE
 62
7
  6
CONTINUOUS
 10
349.5636212509
 20
143.5323209438
  0
SEQEND
  0
LINE
  8
0
 62
7
  6
CONTINUOUS
 10
350.5441290661
 20
144.7945730654
 11
350.5441290661
 21
143.4945730654
  0
LINE
  8
4_SURFACE
 62
7
  6
CONTINUOUS
 10
350.5441290661
 20
109.8445730654
 11
350.5441290661
 21
147.9445730654
  0
LINE
  8
4_SURFACE
 62
7
  6
CONTINUOUS
 10
346.8634528587
 20
142.248334168
 11
346.8277189429
 21
142.2402731544
  0
POLYLINE
  8
4_SURFACE
 62
7
  6
CONTINUOUS
 66
1
 70
0
  0
VERTEX
  8
4_SURFACE
 62
7
  6
CONTINUOUS
 10
347.2741591327
 20
142.0786816087
  0
VERTEX
  8
4_SURFACE
 62
7
  6
CONTINUOUS
 10
347.2052410078
 20
142.139338484
  0
VERTEX
  8
4_SURFACE
 62
7
  6
CONTINUOUS
 10
347.1338389967
 20
142.1895509357
  0
VERTEX
  8
4_SURFACE
 62
7
  6
CONTINUOUS
 10
347.0618589226
 20
142.2263199161
  0
VERTEX
  8
4_SURFACE
 62
7
  6
CONTINUOUS
 10
346.9913678153
 20
142.2482454584
  0
VERTEX
  8
4_SURFACE
 62
7
  6
CONTINUOUS
 10
346.9247044712
 20
142.255184986
  0
VERTEX
  8
4_SURFACE
 62
7
  6
CONTINUOUS
 10
346.8633850931
 20
142.2483188479
  0
SEQEND
  0
LINE
  8
4_SURFACE
 62
7
  6
CONTINUOUS
 10
346.8277189429
 20
142.2402731544
 11
346.7637779082
 21
142.2261220857
  0
LINE
  8
4_SURFACE
 62
7
  6
CONTINUOUS
 10
346.7637779082
 20
142.2261220857
 11
346.7083233258
 21
142.2141332055
  0
LINE
  8
4_SURFACE
 62
7
  6
CONTINUOUS
 10
346.7083233258
 20
142.2141332055
 11
346.6380879698
 21
142.1993273723
  0
LINE
  8
4_SURFACE
 62
7
  6
CONTINUOUS
 10
346.6380879698
 20
142.1993273723
 11
346.5802162282
 21
142.1874455937
  0
LINE
  8
4_SURFACE
 62
7
  6
CONTINUOUS
 10
346.5802162282
 20
142.1874455937
 11
346.5199494202
 21
142.175377233
  0
LINE
  8
4_SURFACE
 62
7
  6
CONTINUOUS
 10
346.5199494202
 20
142.175377233
 11
346.4565792496
 21
142.1630232204
  0
LINE
  8
4_SURFACE
 62
7
  6
CONTINUOUS
 10
346.4565792496
 20
142.1630232204
 11
346.4121821592
 21
142.1545730654
  0
LINE
  8
4_SURFACE
 62
7
  6
CONTINUOUS
 10
346.5425608896
 20
141.3545730654
 11
338.3441290661
 21
141.3545730654
  0
LINE
  8
4_SURFACE
 62
7
  6
CONTINUOUS
 10
349.9268408207
 20
143.9945730654
 11
350.0441290661
 21
143.9945730654
  0
POLYLINE
  8
4_SURFACE
 62
7
  6
CONTINUOUS
 66
1
 70
0
  0
VERTEX
  8
4_SURFACE
 62
7
  6
CONTINUOUS
 10
338.3354028629
 20
149.1274606601
  0
VERTEX
  8
4_SURFACE
 62
7
  6
CONTINUOUS
 10
337.8564640332
 20
149.1810222537
  0
VERTEX
  8
4_SURFACE
 62
7
  6
CONTINUOUS
 10
337.8441290661
 20
149.1825730654
  0
SEQEND
  0
LINE
  8
0
 62
7
  6
CONTINUOUS
 10
344.1925357403
 20
154.2945728655
 11
344.1909424147
 21
154.2945722658
  0
ARC
  8
4_SURFACE
 62
7
  6
CONTINUOUS
 10
99.5362955439
 20
142.5945730654
 40
1.4
 50
90.0
 51
180.0
  0
ARC
  8
0
 62
7
  6
CONTINUOUS
 10
286.9362955439
 20
142.5945730654
 40
1.4
 50
0.0
 51
90.0
  0
ARC
  8
4_SURFACE
 62
7
  6
CONTINUOUS
 10
111.1774918474
 20
113.2945730654
 40
0.5
 50
90.0
 51
180.0
  0
ARC
  8
0
 62
7
  6
CONTINUOUS
 10
275.2950992404
 20
113.2945730654
 40
0.5
 50
0.0
 51
90.0
  0
ARC
  8
4_SURFACE
 62
7
  6
CONTINUOUS
 10
101.1534511569
 20
103.9945738758
 40
0.5
 50
269.9999997418
 51
357.9999928524
  0
ARC
  8
4_SURFACE
 62
7
  6
CONTINUOUS
 10
108.1191398961
 20
103.9945748739
 40
0.5
 50
182.0001215873
 51
270.0000042521
  0
ARC
  8
0
 62
7
  6
CONTINUOUS
 10
278.3534511917
 20
103.9945748739
 40
0.5
 50
269.9999957479
 51
357.9998784127
  0
ARC
  8
0
 62
7
  6
CONTINUOUS
 10
285.3191399309
 20
103.9945738758
 40
0.5
 50
182.0000071476
 51
270.0000002582
  0
ARC
  8
4_SURFACE
 62
7
  6
CONTINUOUS
 10
129.6951013536
 20
113.2945751786
 40
0.4999989434
 50
359.9997578452
 51
90.0002421567
  0
ARC
  8
0
 62
7
  6
CONTINUOUS
 10
256.7774897342
 20
113.2945751786
 40
0.4999989434
 50
89.9997578433
 51
180.0002421548
  0
ARC
  8
4_SURFACE
 62
7
  6
CONTINUOUS
 10
98.6362935403
 20
103.9945718166
 40
0.4999979946
 50
179.9997714245
 51
270.000228359
  0
ARC
  8
0
 62
7
  6
CONTINUOUS
 10
287.8362975475
 20
103.9945718166
 40
0.4999979946
 50
269.9997716373
 51
0.0002285755
  0
ARC
  8
4_SURFACE
 62
7
  6
CONTINUOUS
 10
178.649325587
 20
192.2584427541
 40
0.5
 50
180.9999958264
 51
269.9997608503
  0
ARC
  8
4_SURFACE
 62
7
  6
CONTINUOUS
 10
154.3732675878
 20
192.2584427541
 40
0.5
 50
270.0
 51
359.0
  0
ARC
  8
4_SURFACE
 62
7
  6
CONTINUOUS
 10
181.4993235001
 20
192.2584427541
 40
0.5
 50
181.0
 51
270.0
  0
ARC
  8
4_SURFACE
 62
7
  6
CONTINUOUS
 10
130.8993235001
 20
192.2584427541
 40
0.5
 50
181.0
 51
270.0
  0
ARC
  8
4_SURFACE
 62
7
  6
CONTINUOUS
 10
128.0493235001
 20
192.2584427541
 40
0.5
 50
181.000073784
 51
269.9999706843
  0
ARC
  8
4_SURFACE
 62
7
  6
CONTINUOUS
 10
98.6362955439
 20
192.2584427541
 40
0.5
 50
180.0
 51
270.0
  0
ARC
  8
4_SURFACE
 62
7
  6
CONTINUOUS
 10
109.9732675878
 20
192.2584427541
 40
0.5
 50
270.0
 51
359.0
  0
ARC
  8
4_SURFACE
 62
7
  6
CONTINUOUS
 10
112.9232695908
 20
192.2584427541
 40
0.4999997915
 50
269.9998260517
 51
359.0000995079
  0
ARC
  8
4_SURFACE
 62
7
  6
CONTINUOUS
 10
157.2232699362
 20
192.2584427541
 40
0.4999996723
 50
269.9997502288
 51
358.9998616194
  0
ARC
  8
4_SURFACE
 62
7
  6
CONTINUOUS
 10
114.0578239158
 20
199.9584427541
 40
0.5
 50
90.7989892563
 51
179.0
  0
ARC
  8
4_SURFACE
 62
7
  6
CONTINUOUS
 10
126.9147711425
 20
199.9584427541
 40
0.4999984731
 50
1.0000079405
 51
89.2014649421
  0
ARC
  8
4_SURFACE
 62
7
  6
CONTINUOUS
 10
110.1774918474
 20
203.9584427541
 40
0.5
 50
359.0
 51
90.0
  0
ARC
  8
4_SURFACE
 62
7
  6
CONTINUOUS
 10
130.6950992404
 20
203.9584427541
 40
0.5
 50
90.0
 51
181.0
  0
ARC
  8
4_SURFACE
 62
7
  6
CONTINUOUS
 10
98.5762955439
 20
203.6977290369
 40
0.44
 50
101.309932474
 51
180.0
  0
ARC
  8
4_SURFACE
 62
7
  6
CONTINUOUS
 10
100.1798641299
 20
204.0184427541
 40
0.44
 50
90.0
 51
101.309932474
  0
ARC
  8
4_SURFACE
 62
7
  6
CONTINUOUS
 10
158.3578239158
 20
199.9584427541
 40
0.5
 50
90.7989892563
 51
179.0
  0
ARC
  8
4_SURFACE
 62
7
  6
CONTINUOUS
 10
177.5147711425
 20
199.9584427541
 40
0.4999984731
 50
1.0000079405
 51
89.2014649421
  0
ARC
  8
4_SURFACE
 62
7
  6
CONTINUOUS
 10
181.2950992562
 20
203.9584418462
 40
0.5
 50
90.0000018161
 51
180.9998959405
  0
ARC
  8
4_SURFACE
 62
7
  6
CONTINUOUS
 10
154.5774974864
 20
203.9584427541
 40
0.4999978315
 50
358.9999887224
 51
90.0006461796
  0
ARC
  8
0
 62
7
  6
CONTINUOUS
 10
258.4232675878
 20
192.2584427541
 40
0.5
 50
270.0000293157
 51
358.999926216
  0
ARC
  8
0
 62
7
  6
CONTINUOUS
 10
276.4993235001
 20
192.2584427541
 40
0.5
 50
181.0
 51
270.0
  0
ARC
  8
0
 62
7
  6
CONTINUOUS
 10
287.8362955439
 20
192.2584427541
 40
0.5
 50
270.0
 51
360.0
  0
ARC
  8
0
 62
7
  6
CONTINUOUS
 10
207.8232655008
 20
192.2584427541
 40
0.5
 50
270.0002391497
 51
359.0000041736
  0
ARC
  8
0
 62
7
  6
CONTINUOUS
 10
232.0993235001
 20
192.2584427541
 40
0.5
 50
181.0
 51
270.0
  0
ARC
  8
0
 62
7
  6
CONTINUOUS
 10
204.9732675878
 20
192.2584427541
 40
0.5
 50
270.0
 51
359.0
  0
ARC
  8
0
 62
7
  6
CONTINUOUS
 10
255.5732675878
 20
192.2584427541
 40
0.5
 50
270.0
 51
359.0
  0
ARC
  8
0
 62
7
  6
CONTINUOUS
 10
273.549321497
 20
192.2584427541
 40
0.4999997915
 50
180.9999004921
 51
270.0001739483
  0
ARC
  8
0
 62
7
  6
CONTINUOUS
 10
229.2493211516
 20
192.2584427541
 40
0.4999996723
 50
181.0001383806
 51
270.0002497712
  0
ARC
  8
0
 62
7
  6
CONTINUOUS
 10
228.1147654079
 20
199.9584427541
 40
0.5
 50
0.9999964718
 51
89.2008088929
  0
ARC
  8
0
 62
7
  6
CONTINUOUS
 10
208.9578199453
 20
199.9584427541
 40
0.4999984731
 50
90.7985350579
 51
178.9999920595
  0
ARC
  8
0
 62
7
  6
CONTINUOUS
 10
205.1774918316
 20
203.9584418462
 40
0.5
 50
359.0001040595
 51
89.9999981839
  0
ARC
  8
0
 62
7
  6
CONTINUOUS
 10
231.8950936014
 20
203.9584427541
 40
0.4999978315
 50
89.9993538204
 51
181.0000112776
  0
ARC
  8
0
 62
7
  6
CONTINUOUS
 10
272.4147648347
 20
199.9584427541
 40
0.5
 50
0.9999953255
 51
89.200743324
  0
ARC
  8
0
 62
7
  6
CONTINUOUS
 10
259.5578199453
 20
199.9584427541
 40
0.4999984731
 50
90.7985350579
 51
178.9999920595
  0
ARC
  8
0
 62
7
  6
CONTINUOUS
 10
255.7774918474
 20
203.9584427541
 40
0.5
 50
359.0
 51
90.0
  0
ARC
  8
0
 62
7
  6
CONTINUOUS
 10
287.8962955439
 20
203.6977290369
 40
0.44
 50
0.0
 51
78.690067526
  0
ARC
  8
0
 62
7
  6
CONTINUOUS
 10
276.2950992404
 20
203.9584427541
 40
0.5
 50
90.0
 51
180.9998899842
  0
ARC
  8
0
 62
7
  6
CONTINUOUS
 10
286.2927269579
 20
204.0184427541
 40
0.44
 50
78.690067526
 51
90.0
  0
ARC
  8
4_SURFACE
 62
7
  6
CONTINUOUS
 10
339.8441290661
 20
136.7832373675
 40
2.0
 50
110.03
 51
180.0
  0
ARC
  8
4_SURFACE
 62
7
  6
CONTINUOUS
 10
338.3441290661
 20
140.8545777621
 40
0.4999981936
 50
90.0
 51
180.0005381905
  0
ARC
  8
0
 62
7
  6
CONTINUOUS
 10
344.1942043414
 20
109.994573065
 40
6.5
 50
218.143996285
 51
269.9712469788
  0
ARC
  8
4_SURFACE
 62
7
  6
CONTINUOUS
 10
344.1942043414
 20
109.994573065
 40
6.5
 50
192.3297961702
 51
269.9712469788
  0
ARC
  8
0
 62
7
  6
CONTINUOUS
 10
344.1942043414
 20
109.994573065
 40
6.5
 50
198.7000530991
 51
217.4696528181
  0
ARC
  8
0
 62
7
  6
CONTINUOUS
 10
344.1941290661
 20
109.8445730654
 40
6.35
 50
314.2224747532
 51
314.7144417864
  0
ARC
  8
0
 62
7
  6
CONTINUOUS
 10
344.1941290661
 20
109.8445730654
 40
6.35
 50
353.11589077
 51
360.0
  0
ARC
  8
0
 62
7
  6
CONTINUOUS
 10
344.1941290661
 20
109.8445730654
 40
6.35
 50
346.2130516321
 51
353.0951155404
  0
ARC
  8
0
 62
7
  6
CONTINUOUS
 10
344.1941290661
 20
109.8445730654
 40
6.35
 50
339.3263003673
 51
341.0374451002
  0
ARC
  8
0
 62
7
  6
CONTINUOUS
 10
344.1941290661
 20
109.8445730654
 40
6.35
 50
277.7141292121
 51
290.0465424077
  0
ARC
  8
4_SURFACE
 62
7
  6
CONTINUOUS
 10
344.1941290661
 20
109.8445730654
 40
6.35
 50
269.9712469788
 51
360.0
  0
CIRCLE
  8
4_SURFACE
 62
7
  6
CONTINUOUS
 10
344.1941290661
 20
109.8445730654
 40
3.25
  0
ARC
  8
0
 62
7
  6
CONTINUOUS
 10
344.1946403184
 20
147.7943655795
 40
6.855
 50
310.5483116692
 51
317.6417373394
  0
ARC
  8
0
 62
7
  6
CONTINUOUS
 10
344.1946403184
 20
147.7943655795
 40
6.855
 50
295.2402525271
 51
300.5039433329
  0
ARC
  8
4_SURFACE
 62
7
  6
CONTINUOUS
 10
344.1946403184
 20
147.7943655795
 40
6.855
 50
290.03
 51
326.1143692678
  0
ARC
  8
0
 62
7
  6
CONTINUOUS
 10
344.1942043414
 20
147.7945730659
 40
6.5
 50
90.0287530212
 51
167.6702038298
  0
ARC
  8
4_SURFACE
 62
7
  6
CONTINUOUS
 10
344.1942043414
 20
147.7945730659
 40
6.5
 50
90.0287530212
 51
167.6702038298
  0
ARC
  8
0
 62
7
  6
CONTINUOUS
 10
344.1941290661
 20
147.9445730654
 40
6.35
 50
0.0
 51
90.0287530212
  0
ARC
  8
4_SURFACE
 62
7
  6
CONTINUOUS
 10
344.1941290661
 20
147.9445730654
 40
6.35
 50
0.0
 51
90.0287530212
  0
CIRCLE
  8
4_SURFACE
 62
7
  6
CONTINUOUS
 10
344.1941290661
 20
147.9445730654
 40
3.25
  0
ARC
  8
0
 62
7
  6
CONTINUOUS
 10
350.0441290661
 20
143.4945784259
 40
0.4999979383
 50
64.2855070814
 51
77.1427530848
  0
ARC
  8
0
 62
7
  6
CONTINUOUS
 10
350.0441290661
 20
143.4945784259
 40
0.4999979383
 50
45.1917832506
 51
51.7091047837
  0
ARC
  8
0
 62
7
  6
CONTINUOUS
 10
350.0441290661
 20
143.4945784259
 40
0.4999979383
 50
31.7114664282
 51
38.7979055842
  0
ARC
  8
4_SURFACE
 62
7
  6
CONTINUOUS
 10
350.0441290661
 20
143.4945784259
 40
0.4999979383
 50
359.9993857461
 51
90.0
  0
ARC
  8
4_SURFACE
 62
7
  6
CONTINUOUS
 10
349.9268408207
 20
143.9445730654
 40
0.05
 50
90.0000000001
 51
146.1143692679
  0
ENDSEC
  0
EOF
