  0
SECTION
  2
HEADER
  9
$EXTMAX
 10
210.0
 20
297.0
 30
0.0
  9
$EXTMIN
 10
0.0
 20
0.0
 30
0.0
  9
$LIMMIN
 10
0.0
 20
0.0
  9
$LIMMAX
 10
210.0
 20
297.0
  9
$VIEWCTR
 10
105.0
 20
148.5
  9
$VIEWSIZE
 40
297.0
  9
$CLAYER
  8
0
  9
$LTSCALE
 40
19.36
  9
$CELTYPE
  6
BYLAYER
  9
$DIMSCALE
 40
1.0
  9
$DIMASZ
 40
3.5
  9
$DIMEXO
 40
2.2
  9
$DIMDLI
 40
13.376
  9
$DIMEXE
 40
6.336
  9
$DIMCEN
 40
3.168
  9
$DIMLFAC
 40
1.0
  9
$DIMBLK
  1
_FILLED
  9
$DIMTXT
 40
3.5
  9
$PDMODE
 70
3
  9
$PDSIZE
 40
0.3125
  9
$TILEMODE
 70
1
  0
ENDSEC
  0
SECTION
  2
TABLES
  0
TABLE
  2
LTYPE
 70
6
  0
LTYPE
  2
BYBLOCK
 70
0
  3

 72
65
 73
0
 40
0.0
  0
LTYPE
  2
BYLAYER
 70
0
  3

 72
65
 73
0
 40
0.0
  0
LTYPE
  2
CONTINUOUS
 70
64
  3
Solid line
 72
65
 73
0
 40
0.0
  0
LTYPE
  2
CENTER
 70
64
  3
____ _ ____ _ ____ _ ____ _ ____ _ ____ _ ____
 72
65
 73
4
 40
0.6
 49
0.375
 49
-0.075
 49
0.075
 49
-0.075
  0
LTYPE
  2
HIDDEN
 70
64
  3
- - - - - - - - - - - - - - - - - - - -
 72
65
 73
2
 40
0.2
 49
0.1
 49
-0.1
  0
LTYPE
  2
PHANTOM
 70
64
  3
_____ _ _ _____ _ _ _____ _ _ _____
 72
65
 73
6
 40
0.8
 49
0.45
 49
-0.05
 49
0.1
 49
-0.05
 49
0.1
 49
-0.05
  0
LTYPE
  2
DOT
 70
64
  3
. . . . . . . . . . . . . . . . . . . .
 72
65
 73
2
 40
0.2
 49
0.1
 49
-0.1
  0
LTYPE
  2
DASHED
 70
64
  3
- - - - - - - - - - - - - - - - - - - -
 72
65
 73
2
 40
0.2
 49
0.1
 49
-0.1
  0
ENDTAB
  0
TABLE
  2
LAYER
 70
36
  0
LAYER
  2
0
 70
0
 62
7
  6
CONTINUOUS
  0
LAYER
  2
DEFAULT_1
 70
0
 62
7
  6
CENTER
  0
LAYER
  2
DEFAULT_2
 70
0
 62
8
  6
HIDDEN
  0
LAYER
  2
DEFAULT_3
 70
0
 62
7
  6
PHANTOM
  0
LAYER
  2
1_AXIS
 70
0
 62
7
  6
CONTINUOUS
  0
LAYER
  2
1_CSYS
 70
0
 62
7
  6
CONTINUOUS
  0
LAYER
  2
1_DATUMPLANE
 70
0
 62
7
  6
CONTINUOUS
  0
LAYER
  2
4_QUILT
 70
0
 62
7
  6
CONTINUOUS
  0
LAYER
  2
4_SURFACE
 70
0
 62
7
  6
CONTINUOUS
  0
LAYER
  2
6_DIM
 70
0
 62
7
  6
CONTINUOUS
  0
LAYER
  2
CURVE
 70
0
 62
7
  6
CONTINUOUS
  0
LAYER
  2
SURFACE
 70
0
 62
7
  6
CONTINUOUS
  0
ENDTAB
  0
TABLE
  2
STYLE
 70
1
  0
STYLE
  2
STANDARD
 70
0
 40
0.0
 41
0.8
 50
0.0
 71
0
 42
0.2
  3
txt
  4

  0
STYLE
  2
TEXTSTYLE_1
 70
0
 40
0.0
 41
0.8
 50
0.0
 71
0
 42
0.2
  3
gdt
  4

  0
STYLE
  2
TEXTSTYLE_2
 70
0
 40
0.0
 41
0.6
 50
0.0
 71
0
 42
0.2
  3
txt
  4

  0
STYLE
  2
TEXTSTYLE_3
 70
0
 40
0.0
 41
1.0
 50
0.0
 71
0
 42
0.2
  3
ftb_____.ttf
  4

  0
STYLE
  2
TEXTSTYLE_4
 70
0
 40
0.0
 41
1.0
 50
0.0
 71
0
 42
0.2
  3
fti_____.ttf
  4

  0
STYLE
  2
TEXTSTYLE_5
 70
0
 40
0.0
 41
1.0
 50
0.0
 71
0
 42
0.2
  3
frutiger light.ttf
  4

  0
STYLE
  2
TEXTSTYLE_6
 70
0
 40
0.0
 41
0.7
 50
0.0
 71
0
 42
0.2
  3
txt
  4

  0
STYLE
  2
TEXTSTYLE_7
 70
0
 40
0.0
 41
0.8
 50
0.0
 71
0
 42
0.2
  3
txt
  4

  0
ENDTAB
  0
ENDSEC
  0
SECTION
  2
BLOCKS
  0
BLOCK
  8
0
 62
2
  6
CONTINUOUS
  2
SYMBOL_8_BL1
 70
64
 10
173.5956734183
 20
35.5937998301
  0
TEXT
  8
0
 62
7
  6
CONTINUOUS
 10
164.6539584268
 20
30.6865562072
  7
TEXTSTYLE_4
 40
1.0655737705
  1
The brand for plastic modular belts and chains
 41
1.0
 72
0
  0
LINE
  8
0
 62
7
  6
CONTINUOUS
 10
149.5737418074
 20
36.1675703219
 11
149.5737418074
 21
34.0364227809
  0
LINE
  8
0
 62
7
  6
CONTINUOUS
 10
149.8628043005
 20
31.0454914852
 11
149.8628043005
 21
31.1422825445
  0
LINE
  8
0
 62
7
  6
CONTINUOUS
 10
149.5737418074
 20
31.1100188581
 11
149.6315543091
 21
30.9164367395
  0
LINE
  8
0
 62
7
  6
CONTINUOUS
 10
150.9671844304
 20
33.9544555678
 11
150.9671844304
 21
36.1675703219
  0
LINE
  8
0
 62
7
  6
CONTINUOUS
 10
151.8862417523
 20
32.1101932727
 11
151.8862417523
 21
30.5937998301
  0
LINE
  8
0
 62
7
  6
CONTINUOUS
 10
152.1753043074
 20
30.5937998301
 11
152.1753043074
 21
31.3358647082
  0
LINE
  8
0
 62
7
  6
CONTINUOUS
 10
152.1753043074
 20
31.4649194539
 11
152.1753043074
 21
32.1101932727
  0
LINE
  8
0
 62
7
  6
CONTINUOUS
 10
149.6315543091
 20
31.3036010218
 11
149.5737418074
 21
31.1100188581
  0
LINE
  8
0
 62
7
  6
CONTINUOUS
 10
149.9784292936
 20
30.8841730531
 11
149.8628043005
 21
31.0454914852
  0
LINE
  8
0
 62
7
  6
CONTINUOUS
 10
151.0768668626
 20
31.400392081
 11
151.1346793074
 21
31.3036010218
  0
LINE
  8
0
 62
7
  6
CONTINUOUS
 10
151.4237418626
 20
31.3036010218
 11
151.3659292523
 21
31.4326557675
  0
LINE
  8
0
 62
7
  6
CONTINUOUS
 10
152.852430332
 20
36.1675703219
 11
152.852430332
 21
34.3642916334
  0
LINE
  8
0
 62
7
  6
CONTINUOUS
 10
152.852430332
 20
33.0528162235
 11
152.852430332
 21
32.3970785186
  0
LINE
  8
0
 62
7
  6
CONTINUOUS
 10
153.2159293074
 20
31.2390736489
 11
153.2159293074
 21
30.5937998301
  0
LINE
  8
0
 62
7
  6
CONTINUOUS
 10
153.5049916972
 20
30.5937998301
 11
153.5049916972
 21
31.2390736489
  0
LINE
  8
0
 62
7
  6
CONTINUOUS
 10
149.8628043005
 20
31.1422825445
 11
149.9206168074
 21
31.2713373354
  0
LINE
  8
0
 62
7
  6
CONTINUOUS
 10
149.6315543091
 20
30.9164367395
 11
149.7471793074
 21
30.7873819712
  0
LINE
  8
0
 62
7
  6
CONTINUOUS
 10
153.1581166972
 20
31.3681283946
 11
153.2159293074
 21
31.2390736489
  0
LINE
  8
0
 62
7
  6
CONTINUOUS
 10
153.9674919177
 20
30.8841730531
 11
154.0253041972
 21
30.7551182848
  0
LINE
  8
0
 62
7
  6
CONTINUOUS
 10
153.5049916972
 20
31.2390736489
 11
153.4471794177
 21
31.400392081
  0
LINE
  8
0
 62
7
  6
CONTINUOUS
 10
153.9674919177
 20
31.4326557675
 11
153.9674919177
 21
31.3681283946
  0
LINE
  8
0
 62
7
  6
CONTINUOUS
 10
153.9674919177
 20
30.9809641124
 11
153.9674919177
 21
30.8841730531
  0
LINE
  8
0
 62
7
  6
CONTINUOUS
 10
154.245872955
 20
32.3970785186
 11
154.245872955
 21
36.1675703219
  0
LINE
  8
0
 62
7
  6
CONTINUOUS
 10
154.2565543074
 20
30.8519093441
 11
154.2565543074
 21
30.9164367395
  0
LINE
  8
0
 62
7
  6
CONTINUOUS
 10
154.5737418074
 20
36.1675703219
 11
154.5737418074
 21
32.3970785186
  0
LINE
  8
0
 62
7
  6
CONTINUOUS
 10
151.3659292523
 20
30.7873819712
 11
151.4237418626
 21
30.9164367395
  0
LINE
  8
0
 62
7
  6
CONTINUOUS
 10
155.759679528
 20
30.6905909007
 11
155.7018665869
 21
30.8519093441
  0
LINE
  8
0
 62
7
  6
CONTINUOUS
 10
155.412804528
 20
31.3681283946
 11
155.412804528
 21
31.2713373354
  0
LINE
  8
0
 62
7
  6
CONTINUOUS
 10
155.412804528
 20
31.1422825445
 11
155.412804528
 21
30.9487004259
  0
LINE
  8
0
 62
7
  6
CONTINUOUS
 10
155.7018665869
 20
30.8519093441
 11
155.7018665869
 21
31.3681283946
  0
LINE
  8
0
 62
7
  6
CONTINUOUS
 10
155.9671844304
 20
32.3970785186
 11
155.9671844304
 21
34.2003572071
  0
LINE
  8
0
 62
7
  6
CONTINUOUS
 10
155.9671844304
 20
35.511832617
 11
155.9671844304
 21
36.1675703219
  0
LINE
  8
0
 62
7
  6
CONTINUOUS
 10
156.279992028
 20
32.1101932727
 11
156.279992028
 21
31.9488748406
  0
LINE
  8
0
 62
7
  6
CONTINUOUS
 10
156.279992028
 20
31.626237886
 11
156.279992028
 21
30.5937998301
  0
LINE
  8
0
 62
7
  6
CONTINUOUS
 10
156.5690540869
 20
30.5937998301
 11
156.5690540869
 21
31.626237886
  0
LINE
  8
0
 62
7
  6
CONTINUOUS
 10
156.5690540869
 20
31.9488748406
 11
156.5690540869
 21
32.1101932727
  0
LINE
  8
0
 62
7
  6
CONTINUOUS
 10
151.1346793074
 20
30.9164367395
 11
151.0768668626
 21
30.8196456577
  0
LINE
  8
0
 62
7
  6
CONTINUOUS
 10
153.4471794177
 20
31.400392081
 11
153.3893668074
 21
31.4649194539
  0
LINE
  8
0
 62
7
  6
CONTINUOUS
 10
154.3143669177
 20
30.7873819712
 11
154.2565543074
 21
30.8519093441
  0
LINE
  8
0
 62
7
  6
CONTINUOUS
 10
155.4706168074
 20
30.6583272086
 11
155.5284290869
 21
30.5937998301
  0
LINE
  8
0
 62
7
  6
CONTINUOUS
 10
155.412804528
 20
30.7551182848
 11
155.4706168074
 21
30.6583272086
  0
LINE
  8
0
 62
7
  6
CONTINUOUS
 10
155.8174918074
 20
30.5937998301
 11
155.759679528
 21
30.6905909007
  0
LINE
  8
0
 62
7
  6
CONTINUOUS
 10
155.7018665869
 20
31.3681283946
 11
155.6440543074
 21
31.4649194539
  0
LINE
  8
0
 62
7
  6
CONTINUOUS
 10
157.0315543074
 20
31.626237886
 11
157.0315543074
 21
30.5937998301
  0
LINE
  8
0
 62
7
  6
CONTINUOUS
 10
157.320617028
 20
30.5937998301
 11
157.320617028
 21
31.3358647082
  0
LINE
  8
0
 62
7
  6
CONTINUOUS
 10
157.320617028
 20
31.4649194539
 11
157.320617028
 21
31.626237886
  0
LINE
  8
0
 62
7
  6
CONTINUOUS
 10
157.852430332
 20
34.6101932727
 11
157.852430332
 21
32.3970785186
  0
LINE
  8
0
 62
7
  6
CONTINUOUS
 10
149.7471793074
 20
31.4326557675
 11
149.6315543091
 21
31.3036010218
  0
LINE
  8
0
 62
7
  6
CONTINUOUS
 10
149.9206168074
 20
31.2713373354
 11
149.9784292936
 21
31.3358647082
  0
LINE
  8
0
 62
7
  6
CONTINUOUS
 10
149.7471793074
 20
30.7873819712
 11
149.8628043005
 21
30.7228545871
  0
LINE
  8
0
 62
7
  6
CONTINUOUS
 10
150.1518667936
 20
30.7873819712
 11
149.9784292936
 21
30.8841730531
  0
LINE
  8
0
 62
7
  6
CONTINUOUS
 10
155.3549915869
 20
31.4326557675
 11
155.412804528
 21
31.3681283946
  0
LINE
  8
0
 62
7
  6
CONTINUOUS
 10
158.3034290869
 20
31.3681283946
 11
158.361242028
 21
31.2068099625
  0
LINE
  8
0
 62
7
  6
CONTINUOUS
 10
158.6503040869
 20
31.2068099625
 11
158.5924918074
 21
31.3681283946
  0
LINE
  8
0
 62
7
  6
CONTINUOUS
 10
158.361242028
 20
31.2068099625
 11
158.361242028
 21
30.5937998301
  0
LINE
  8
0
 62
7
  6
CONTINUOUS
 10
158.6503040869
 20
30.5937998301
 11
158.6503040869
 21
31.2068099625
  0
LINE
  8
0
 62
7
  6
CONTINUOUS
 10
159.1128043074
 20
31.4326557675
 11
159.1128043074
 21
31.3681283946
  0
LINE
  8
0
 62
7
  6
CONTINUOUS
 10
159.245872955
 20
32.3970785186
 11
159.245872955
 21
34.5282260596
  0
LINE
  8
0
 62
7
  6
CONTINUOUS
 10
159.5737418074
 20
36.1675703219
 11
159.5737418074
 21
32.3970785186
  0
LINE
  8
0
 62
7
  6
CONTINUOUS
 10
154.2565543074
 20
30.9164367395
 11
154.3143669177
 21
31.0132277988
  0
LINE
  8
0
 62
7
  6
CONTINUOUS
 10
149.8628043005
 20
30.7228545871
 11
150.0362418212
 21
30.6583272086
  0
LINE
  8
0
 62
7
  6
CONTINUOUS
 10
151.3659292523
 20
31.4326557675
 11
151.1924917523
 21
31.5294468267
  0
LINE
  8
0
 62
7
  6
CONTINUOUS
 10
154.0253041972
 20
30.7551182848
 11
154.1987416972
 21
30.6583272086
  0
LINE
  8
0
 62
7
  6
CONTINUOUS
 10
153.0424918074
 20
31.4326557675
 11
153.1581166972
 21
31.3681283946
  0
LINE
  8
0
 62
7
  6
CONTINUOUS
 10
153.3893668074
 20
31.4649194539
 11
153.2737419177
 21
31.5294468267
  0
LINE
  8
0
 62
7
  6
CONTINUOUS
 10
159.1128043074
 20
30.8519093441
 11
159.228429528
 21
30.7228545871
  0
LINE
  8
0
 62
7
  6
CONTINUOUS
 10
159.4596793074
 20
30.7873819712
 11
159.401867028
 21
30.8519093441
  0
LINE
  8
0
 62
7
  6
CONTINUOUS
 10
159.1128043074
 20
31.3681283946
 11
159.228429528
 21
31.2390736489
  0
LINE
  8
0
 62
7
  6
CONTINUOUS
 10
158.5924918074
 20
31.3681283946
 11
158.534679528
 21
31.4649194539
  0
LINE
  8
0
 62
7
  6
CONTINUOUS
 10
160.9628038663
 20
30.7873819712
 11
160.9628038663
 21
30.8519093441
  0
LINE
  8
0
 62
7
  6
CONTINUOUS
 10
160.9671844304
 20
32.3970785186
 11
160.9671844304
 21
36.1675703219
  0
LINE
  8
0
 62
7
  6
CONTINUOUS
 10
154.0253041972
 20
31.4971831403
 11
153.9674919177
 21
31.4326557675
  0
LINE
  8
0
 62
7
  6
CONTINUOUS
 10
150.9034292799
 20
31.4649194539
 11
151.0768668626
 21
31.400392081
  0
LINE
  8
0
 62
7
  6
CONTINUOUS
 10
155.6440543074
 20
31.4649194539
 11
155.5284290869
 21
31.5294468267
  0
LINE
  8
0
 62
7
  6
CONTINUOUS
 10
159.4596793074
 20
31.3036010218
 11
159.401867028
 21
31.3681283946
  0
LINE
  8
0
 62
7
  6
CONTINUOUS
 10
160.615929528
 20
30.9164367395
 11
160.6737418074
 21
30.8519093441
  0
LINE
  8
0
 62
7
  6
CONTINUOUS
 10
160.9628038663
 20
30.8519093441
 11
160.8471793074
 21
30.9809641124
  0
LINE
  8
0
 62
7
  6
CONTINUOUS
 10
160.615929528
 20
31.4326557675
 11
160.6737418074
 21
31.3681283946
  0
LINE
  8
0
 62
7
  6
CONTINUOUS
 10
160.9628038663
 20
31.3681283946
 11
160.8471793074
 21
31.4971831403
  0
LINE
  8
0
 62
7
  6
CONTINUOUS
 10
154.2565543074
 20
31.3681283946
 11
154.3143669177
 21
31.4326557675
  0
LINE
  8
0
 62
7
  6
CONTINUOUS
 10
154.0831168074
 20
31.1100188581
 11
153.9674919177
 21
30.9809641124
  0
LINE
  8
0
 62
7
  6
CONTINUOUS
 10
155.412804528
 20
30.9487004259
 11
155.3549915869
 21
30.8841730531
  0
LINE
  8
0
 62
7
  6
CONTINUOUS
 10
155.3549915869
 20
30.6905909007
 11
155.412804528
 21
30.7551182848
  0
LINE
  8
0
 62
7
  6
CONTINUOUS
 10
154.1987416972
 20
30.6583272086
 11
154.3143669177
 21
30.6260635193
  0
LINE
  8
0
 62
7
  6
CONTINUOUS
 10
151.1924917523
 20
31.5294468267
 11
150.9612418074
 21
31.5939741996
  0
LINE
  8
0
 62
7
  6
CONTINUOUS
 10
154.5456166972
 20
30.7228545871
 11
154.3143669177
 21
30.7873819712
  0
LINE
  8
0
 62
7
  6
CONTINUOUS
 10
153.2737419177
 20
31.5294468267
 11
153.1003044177
 21
31.5939741996
  0
LINE
  8
0
 62
7
  6
CONTINUOUS
 10
155.5284290869
 20
31.5294468267
 11
155.3549915869
 21
31.5939741996
  0
LINE
  8
0
 62
7
  6
CONTINUOUS
 10
158.187804528
 20
31.4326557675
 11
158.3034290869
 21
31.3681283946
  0
LINE
  8
0
 62
7
  6
CONTINUOUS
 10
158.534679528
 20
31.4649194539
 11
158.4190543074
 21
31.5294468267
  0
LINE
  8
0
 62
7
  6
CONTINUOUS
 10
150.0362418212
 20
30.6583272086
 11
150.2096793212
 21
30.6260635193
  0
LINE
  8
0
 62
7
  6
CONTINUOUS
 10
150.498741835
 20
30.7228545871
 11
150.1518667936
 21
30.7873819712
  0
LINE
  8
0
 62
7
  6
CONTINUOUS
 10
152.9268669177
 20
31.4649194539
 11
153.0424918074
 21
31.4326557675
  0
LINE
  8
0
 62
7
  6
CONTINUOUS
 10
155.239367028
 20
31.4649194539
 11
155.3549915869
 21
31.4326557675
  0
LINE
  8
0
 62
7
  6
CONTINUOUS
 10
159.575304528
 20
30.7551182848
 11
159.4596793074
 21
30.7873819712
  0
LINE
  8
0
 62
7
  6
CONTINUOUS
 10
158.0721793074
 20
31.4649194539
 11
158.187804528
 21
31.4326557675
  0
LINE
  8
0
 62
7
  6
CONTINUOUS
 10
159.228429528
 20
30.7228545871
 11
159.401867028
 21
30.6583272086
  0
LINE
  8
0
 62
7
  6
CONTINUOUS
 10
158.4190543074
 20
31.5294468267
 11
158.2456168074
 21
31.5939741996
  0
LINE
  8
0
 62
7
  6
CONTINUOUS
 10
159.6331168074
 20
31.2390736489
 11
159.4596793074
 21
31.3036010218
  0
LINE
  8
0
 62
7
  6
CONTINUOUS
 10
160.442492028
 20
30.9809641124
 11
160.615929528
 21
30.9164367395
  0
LINE
  8
0
 62
7
  6
CONTINUOUS
 10
160.8471793074
 20
31.4971831403
 11
160.6737418074
 21
31.5617105132
  0
LINE
  8
0
 62
7
  6
CONTINUOUS
 10
159.228429528
 20
31.2390736489
 11
159.4596793074
 21
31.1422825445
  0
LINE
  8
0
 62
7
  6
CONTINUOUS
 10
160.8471793074
 20
30.9809641124
 11
160.615929528
 21
31.0777551716
  0
LINE
  8
0
 62
7
  6
CONTINUOUS
 10
159.401867028
 20
31.3681283946
 11
159.4596793074
 21
31.4326557675
  0
LINE
  8
0
 62
7
  6
CONTINUOUS
 10
149.8628043005
 20
31.4971831403
 11
149.7471793074
 21
31.4326557675
  0
LINE
  8
0
 62
7
  6
CONTINUOUS
 10
149.9784292936
 20
31.3358647082
 11
150.1518667936
 21
31.4326557675
  0
LINE
  8
0
 62
7
  6
CONTINUOUS
 10
152.2909293626
 20
31.5294468267
 11
152.1753043074
 21
31.4649194539
  0
LINE
  8
0
 62
7
  6
CONTINUOUS
 10
152.1753043074
 20
31.3358647082
 11
152.2909293626
 21
31.400392081
  0
LINE
  8
0
 62
7
  6
CONTINUOUS
 10
151.1924917523
 20
30.6905909007
 11
151.3659292523
 21
30.7873819712
  0
LINE
  8
0
 62
7
  6
CONTINUOUS
 10
150.2096793212
 20
30.6260635193
 11
150.5565542799
 21
30.5937998301
  0
LINE
  8
0
 62
7
  6
CONTINUOUS
 10
154.3143669177
 20
30.6260635193
 11
154.5456166972
 21
30.5937998301
  0
LINE
  8
0
 62
7
  6
CONTINUOUS
 10
152.6956168074
 20
31.4971831403
 11
152.9268669177
 21
31.4649194539
  0
LINE
  8
0
 62
7
  6
CONTINUOUS
 10
155.0081169177
 20
31.4971831403
 11
155.239367028
 21
31.4649194539
  0
LINE
  8
0
 62
7
  6
CONTINUOUS
 10
159.4596793074
 20
31.1422825445
 11
160.442492028
 21
30.9809641124
  0
LINE
  8
0
 62
7
  6
CONTINUOUS
 10
160.615929528
 20
31.0777551716
 11
159.6331168074
 21
31.2390736489
  0
LINE
  8
0
 62
7
  6
CONTINUOUS
 10
153.1003044177
 20
31.5939741996
 11
152.9268669177
 21
31.626237886
  0
LINE
  8
0
 62
7
  6
CONTINUOUS
 10
159.401867028
 20
30.6583272086
 11
159.575304528
 21
30.6260635193
  0
LINE
  8
0
 62
7
  6
CONTINUOUS
 10
158.2456168074
 20
31.5939741996
 11
158.0721793074
 21
31.626237886
  0
LINE
  8
0
 62
7
  6
CONTINUOUS
 10
160.5003043074
 20
31.4649194539
 11
160.615929528
 21
31.4326557675
  0
LINE
  8
0
 62
7
  6
CONTINUOUS
 10
160.6737418074
 20
30.8519093441
 11
160.615929528
 21
30.7873819712
  0
LINE
  8
0
 62
7
  6
CONTINUOUS
 10
159.228429528
 20
31.5294468267
 11
159.1128043074
 21
31.4326557675
  0
LINE
  8
0
 62
7
  6
CONTINUOUS
 10
154.1409294177
 20
31.5617105132
 11
154.0253041972
 21
31.4971831403
  0
LINE
  8
0
 62
7
  6
CONTINUOUS
 10
154.1987416972
 20
31.1745462761
 11
154.0831168074
 21
31.1100188581
  0
LINE
  8
0
 62
7
  6
CONTINUOUS
 10
154.3143669177
 20
31.0132277988
 11
154.4299918074
 21
31.0777551716
  0
LINE
  8
0
 62
7
  6
CONTINUOUS
 10
151.8862417523
 20
30.5937998301
 11
152.1753043074
 21
30.5937998301
  0
LINE
  8
0
 62
7
  6
CONTINUOUS
 10
153.2159293074
 20
30.5937998301
 11
153.5049916972
 21
30.5937998301
  0
LINE
  8
0
 62
7
  6
CONTINUOUS
 10
154.5456166972
 20
30.5937998301
 11
154.8924916972
 21
30.5937998301
  0
LINE
  8
0
 62
7
  6
CONTINUOUS
 10
155.5284290869
 20
30.5937998301
 11
155.8174918074
 21
30.5937998301
  0
LINE
  8
0
 62
7
  6
CONTINUOUS
 10
156.279992028
 20
30.5937998301
 11
156.5690540869
 21
30.5937998301
  0
LINE
  8
0
 62
7
  6
CONTINUOUS
 10
157.0315543074
 20
30.5937998301
 11
157.320617028
 21
30.5937998301
  0
LINE
  8
0
 62
7
  6
CONTINUOUS
 10
158.361242028
 20
30.5937998301
 11
158.6503040869
 21
30.5937998301
  0
LINE
  8
0
 62
7
  6
CONTINUOUS
 10
159.922179528
 20
30.5937998301
 11
160.269054528
 21
30.5937998301
  0
LINE
  8
0
 62
7
  6
CONTINUOUS
 10
160.269054528
 20
30.7228545871
 11
159.922179528
 21
30.7228545871
  0
LINE
  8
0
 62
7
  6
CONTINUOUS
 10
154.8924916972
 20
30.7228545871
 11
154.5456166972
 21
30.7228545871
  0
LINE
  8
0
 62
7
  6
CONTINUOUS
 10
159.401867028
 20
30.8519093441
 11
159.1128043074
 21
30.8519093441
  0
LINE
  8
0
 62
7
  6
CONTINUOUS
 10
151.4237418626
 20
30.9164367395
 11
151.1346793074
 21
30.9164367395
  0
LINE
  8
0
 62
7
  6
CONTINUOUS
 10
150.498741835
 20
31.4971831403
 11
150.9034292799
 21
31.4649194539
  0
LINE
  8
0
 62
7
  6
CONTINUOUS
 10
150.9612418074
 20
31.5939741996
 11
150.5565542799
 21
31.626237886
  0
LINE
  8
0
 62
7
  6
CONTINUOUS
 10
159.575304528
 20
30.6260635193
 11
159.922179528
 21
30.5937998301
  0
LINE
  8
0
 62
7
  6
CONTINUOUS
 10
159.922179528
 20
30.7228545871
 11
159.575304528
 21
30.7551182848
  0
LINE
  8
0
 62
7
  6
CONTINUOUS
 10
155.3549915869
 20
31.5939741996
 11
155.0081169177
 21
31.626237886
  0
LINE
  8
0
 62
7
  6
CONTINUOUS
 10
160.1534293074
 20
31.4971831403
 11
160.5003043074
 21
31.4649194539
  0
LINE
  8
0
 62
7
  6
CONTINUOUS
 10
160.5003043074
 20
31.5939741996
 11
160.1534293074
 21
31.626237886
  0
LINE
  8
0
 62
7
  6
CONTINUOUS
 10
157.840929528
 20
31.4971831403
 11
158.0721793074
 21
31.4649194539
  0
LINE
  8
0
 62
7
  6
CONTINUOUS
 10
160.6737418074
 20
31.5617105132
 11
160.5003043074
 21
31.5939741996
  0
LINE
  8
0
 62
7
  6
CONTINUOUS
 10
160.8471793074
 20
30.6905909007
 11
160.9628038663
 21
30.7873819712
  0
LINE
  8
0
 62
7
  6
CONTINUOUS
 10
155.3549915869
 20
30.8841730531
 11
155.1815540869
 21
30.7873819712
  0
LINE
  8
0
 62
7
  6
CONTINUOUS
 10
157.4362415869
 20
31.5294468267
 11
157.320617028
 21
31.4649194539
  0
LINE
  8
0
 62
7
  6
CONTINUOUS
 10
157.320617028
 20
31.3358647082
 11
157.4362415869
 21
31.400392081
  0
LINE
  8
0
 62
7
  6
CONTINUOUS
 10
150.0362418212
 20
31.5617105132
 11
149.8628043005
 21
31.4971831403
  0
LINE
  8
0
 62
7
  6
CONTINUOUS
 10
152.4643666972
 20
31.5939741996
 11
152.2909293626
 21
31.5294468267
  0
LINE
  8
0
 62
7
  6
CONTINUOUS
 10
152.2909293626
 20
31.400392081
 11
152.4643666972
 21
31.4649194539
  0
LINE
  8
0
 62
7
  6
CONTINUOUS
 10
151.0768668626
 20
30.8196456577
 11
150.9034292799
 21
30.7551182848
  0
LINE
  8
0
 62
7
  6
CONTINUOUS
 10
160.5003043074
 20
30.7551182848
 11
160.269054528
 21
30.7228545871
  0
LINE
  8
0
 62
7
  6
CONTINUOUS
 10
154.8924916972
 20
30.5937998301
 11
155.1815540869
 21
30.6260635193
  0
LINE
  8
0
 62
7
  6
CONTINUOUS
 10
160.269054528
 20
30.5937998301
 11
160.615929528
 21
30.6260635193
  0
LINE
  8
0
 62
7
  6
CONTINUOUS
 10
150.5565542799
 20
30.5937998301
 11
150.9612418074
 21
30.6260635193
  0
LINE
  8
0
 62
7
  6
CONTINUOUS
 10
150.9034292799
 20
30.7551182848
 11
150.498741835
 21
30.7228545871
  0
LINE
  8
0
 62
7
  6
CONTINUOUS
 10
154.7768668074
 20
31.1422825445
 11
155.412804528
 21
31.1422825445
  0
LINE
  8
0
 62
7
  6
CONTINUOUS
 10
155.412804528
 20
31.2713373354
 11
154.7768668074
 21
31.2713373354
  0
LINE
  8
0
 62
7
  6
CONTINUOUS
 10
151.1346793074
 20
31.3036010218
 11
151.4237418626
 21
31.3036010218
  0
LINE
  8
0
 62
7
  6
CONTINUOUS
 10
153.9674919177
 20
31.3681283946
 11
154.2565543074
 21
31.3681283946
  0
LINE
  8
0
 62
7
  6
CONTINUOUS
 10
160.6737418074
 20
31.3681283946
 11
160.9628038663
 21
31.3681283946
  0
LINE
  8
0
 62
7
  6
CONTINUOUS
 10
154.6612419177
 20
31.4971831403
 11
155.0081169177
 21
31.4971831403
  0
LINE
  8
0
 62
7
  6
CONTINUOUS
 10
159.8065543074
 20
31.4971831403
 11
160.1534293074
 21
31.4971831403
  0
LINE
  8
0
 62
7
  6
CONTINUOUS
 10
160.1534293074
 20
31.626237886
 11
159.8065543074
 21
31.626237886
  0
LINE
  8
0
 62
7
  6
CONTINUOUS
 10
158.0721793074
 20
31.626237886
 11
157.840929528
 21
31.626237886
  0
LINE
  8
0
 62
7
  6
CONTINUOUS
 10
157.320617028
 20
31.626237886
 11
157.0315543074
 21
31.626237886
  0
LINE
  8
0
 62
7
  6
CONTINUOUS
 10
156.5690540869
 20
31.626237886
 11
156.279992028
 21
31.626237886
  0
LINE
  8
0
 62
7
  6
CONTINUOUS
 10
155.0081169177
 20
31.626237886
 11
154.6612419177
 21
31.626237886
  0
LINE
  8
0
 62
7
  6
CONTINUOUS
 10
152.9268669177
 20
31.626237886
 11
152.6956168074
 21
31.626237886
  0
LINE
  8
0
 62
7
  6
CONTINUOUS
 10
156.279992028
 20
31.9488748406
 11
156.5690540869
 21
31.9488748406
  0
LINE
  8
0
 62
7
  6
CONTINUOUS
 10
156.5690540869
 20
32.1101932727
 11
156.279992028
 21
32.1101932727
  0
LINE
  8
0
 62
7
  6
CONTINUOUS
 10
152.1753043074
 20
32.1101932727
 11
151.8862417523
 21
32.1101932727
  0
LINE
  8
0
 62
7
  6
CONTINUOUS
 10
151.2130860697
 20
32.3970785186
 11
151.6256574183
 21
32.3970785186
  0
LINE
  8
0
 62
7
  6
CONTINUOUS
 10
152.852430332
 20
32.3970785186
 11
154.245872955
 21
32.3970785186
  0
LINE
  8
0
 62
7
  6
CONTINUOUS
 10
154.5737418074
 20
32.3970785186
 11
155.9671844304
 21
32.3970785186
  0
LINE
  8
0
 62
7
  6
CONTINUOUS
 10
157.852430332
 20
32.3970785186
 11
159.245872955
 21
32.3970785186
  0
LINE
  8
0
 62
7
  6
CONTINUOUS
 10
159.5737418074
 20
32.3970785186
 11
160.9671844304
 21
32.3970785186
  0
LINE
  8
0
 62
7
  6
CONTINUOUS
 10
157.6096790869
 20
31.5939741996
 11
157.4362415869
 21
31.5294468267
  0
LINE
  8
0
 62
7
  6
CONTINUOUS
 10
155.1815540869
 20
30.6260635193
 11
155.3549915869
 21
30.6905909007
  0
LINE
  8
0
 62
7
  6
CONTINUOUS
 10
160.615929528
 20
30.6260635193
 11
160.8471793074
 21
30.6905909007
  0
LINE
  8
0
 62
7
  6
CONTINUOUS
 10
160.615929528
 20
30.7873819712
 11
160.5003043074
 21
30.7551182848
  0
LINE
  8
0
 62
7
  6
CONTINUOUS
 10
159.575304528
 20
31.4649194539
 11
159.8065543074
 21
31.4971831403
  0
LINE
  8
0
 62
7
  6
CONTINUOUS
 10
157.6096790869
 20
31.4649194539
 11
157.840929528
 21
31.4971831403
  0
LINE
  8
0
 62
7
  6
CONTINUOUS
 10
154.5456166972
 20
31.1100188581
 11
154.7768668074
 21
31.1422825445
  0
LINE
  8
0
 62
7
  6
CONTINUOUS
 10
157.840929528
 20
31.626237886
 11
157.6096790869
 21
31.5939741996
  0
LINE
  8
0
 62
7
  6
CONTINUOUS
 10
154.4299918074
 20
31.4649194539
 11
154.6612419177
 21
31.4971831403
  0
LINE
  8
0
 62
7
  6
CONTINUOUS
 10
159.8065543074
 20
31.626237886
 11
159.4596793074
 21
31.5939741996
  0
LINE
  8
0
 62
7
  6
CONTINUOUS
 10
154.7768668074
 20
31.2713373354
 11
154.4299918074
 21
31.2390736489
  0
LINE
  8
0
 62
7
  6
CONTINUOUS
 10
150.5565542799
 20
31.626237886
 11
150.2096793212
 21
31.5939741996
  0
LINE
  8
0
 62
7
  6
CONTINUOUS
 10
154.6612419177
 20
31.626237886
 11
154.2565543074
 21
31.5939741996
  0
LINE
  8
0
 62
7
  6
CONTINUOUS
 10
152.0327582009
 20
33.5446195022
 11
151.3770204959
 21
33.5446195022
  0
LINE
  8
0
 62
7
  6
CONTINUOUS
 10
157.4362415869
 20
31.400392081
 11
157.6096790869
 21
31.4649194539
  0
LINE
  8
0
 62
7
  6
CONTINUOUS
 10
159.4596793074
 20
31.4326557675
 11
159.575304528
 21
31.4649194539
  0
LINE
  8
0
 62
7
  6
CONTINUOUS
 10
159.4596793074
 20
31.5939741996
 11
159.228429528
 21
31.5294468267
  0
LINE
  8
0
 62
7
  6
CONTINUOUS
 10
155.1815540869
 20
30.7873819712
 11
154.8924916972
 21
30.7228545871
  0
LINE
  8
0
 62
7
  6
CONTINUOUS
 10
152.4643666972
 20
31.4649194539
 11
152.6956168074
 21
31.4971831403
  0
LINE
  8
0
 62
7
  6
CONTINUOUS
 10
152.6956168074
 20
31.626237886
 11
152.4643666972
 21
31.5939741996
  0
LINE
  8
0
 62
7
  6
CONTINUOUS
 10
150.2674918074
 20
31.4649194539
 11
150.498741835
 21
31.4971831403
  0
LINE
  8
0
 62
7
  6
CONTINUOUS
 10
156.7868565615
 20
35.0200293383
 11
157.4425942664
 21
35.0200293383
  0
LINE
  8
0
 62
7
  6
CONTINUOUS
 10
154.4299918074
 20
31.0777551716
 11
154.5456166972
 21
31.1100188581
  0
LINE
  8
0
 62
7
  6
CONTINUOUS
 10
154.4299918074
 20
31.2390736489
 11
154.1987416972
 21
31.1745462761
  0
LINE
  8
0
 62
7
  6
CONTINUOUS
 10
154.3143669177
 20
31.4326557675
 11
154.4299918074
 21
31.4649194539
  0
LINE
  8
0
 62
7
  6
CONTINUOUS
 10
150.9612418074
 20
30.6260635193
 11
151.1924917523
 21
30.6905909007
  0
LINE
  8
0
 62
7
  6
CONTINUOUS
 10
154.2565543074
 20
31.5939741996
 11
154.1409294177
 21
31.5617105132
  0
LINE
  8
0
 62
7
  6
CONTINUOUS
 10
150.2096793212
 20
31.5939741996
 11
150.0362418212
 21
31.5617105132
  0
LINE
  8
0
 62
7
  6
CONTINUOUS
 10
160.9671844304
 20
36.1675703219
 11
159.5737418074
 21
36.1675703219
  0
LINE
  8
0
 62
7
  6
CONTINUOUS
 10
157.6065286927
 20
36.1675703219
 11
157.1939573441
 21
36.1675703219
  0
LINE
  8
0
 62
7
  6
CONTINUOUS
 10
155.9671844304
 20
36.1675703219
 11
154.5737418074
 21
36.1675703219
  0
LINE
  8
0
 62
7
  6
CONTINUOUS
 10
154.245872955
 20
36.1675703219
 11
152.852430332
 21
36.1675703219
  0
LINE
  8
0
 62
7
  6
CONTINUOUS
 10
150.9671844304
 20
36.1675703219
 11
149.5737418074
 21
36.1675703219
  0
LINE
  8
0
 62
7
  6
CONTINUOUS
 10
150.1518667936
 20
31.4326557675
 11
150.2674918074
 21
31.4649194539
  0
CIRCLE
  8
0
 62
7
  6
CONTINUOUS
 10
160.2704631189
 20
38.5036358957
 40
2.0901639344
  0
ARC
  8
0
 62
7
  6
CONTINUOUS
 10
151.2130860697
 20
34.0364227809
 40
1.6393442623
 50
180.0
 51
270.0
  0
ARC
  8
0
 62
7
  6
CONTINUOUS
 10
157.6065286927
 20
34.5282260596
 40
1.6393442623
 50
0.0
 51
90.0
  0
ARC
  8
0
 62
7
  6
CONTINUOUS
 10
151.6256574183
 20
33.8724883547
 40
1.4754098361
 50
270.0
 51
326.2510114041
  0
ARC
  8
0
 62
7
  6
CONTINUOUS
 10
157.1939573441
 20
34.6921604858
 40
1.4754098361
 50
90.0
 51
146.2510114041
  0
ARC
  8
0
 62
7
  6
CONTINUOUS
 10
152.0327582009
 20
34.3642916334
 40
0.8196721311
 50
270.0
 51
360.0
  0
ARC
  8
0
 62
7
  6
CONTINUOUS
 10
156.7868565615
 20
34.2003572071
 40
0.8196721311
 50
90.0
 51
180.0
  0
ARC
  8
0
 62
7
  6
CONTINUOUS
 10
151.3770204959
 20
33.9544555678
 40
0.4098360656
 50
180.0
 51
270.0
  0
ARC
  8
0
 62
7
  6
CONTINUOUS
 10
157.4425942664
 20
34.6101932727
 40
0.4098360656
 50
0.0
 51
90.0
  0
SOLID
  8
0
 62
7
  6
CONTINUOUS
 10
156.279992028
 20
31.9488752009
 11
156.279992028
 21
32.1101936845
 12
156.5690540869
 22
31.9488752009
 13
156.5690540869
 23
32.1101936845
  0
SOLID
  8
0
 62
7
  6
CONTINUOUS
 10
150.5565542799
 20
31.6262382337
 11
150.9612418074
 21
31.5939740028
 12
150.2096793212
 22
31.5939740028
 13
150.2096793212
 23
31.5939740028
  0
SOLID
  8
0
 62
7
  6
CONTINUOUS
 10
150.0362418212
 20
31.5617111435
 11
150.2096793212
 21
31.5939740028
 12
150.9612418074
 22
31.5939740028
 13
150.9612418074
 23
31.5939740028
  0
SOLID
  8
0
 62
7
  6
CONTINUOUS
 10
150.9612418074
 20
31.5939740028
 11
151.1924917523
 21
31.5294468402
 12
150.0362418212
 22
31.5617111435
 13
150.0362418212
 23
31.5617111435
  0
SOLID
  8
0
 62
7
  6
CONTINUOUS
 10
149.8628043005
 20
31.49718259
 11
150.0362418212
 21
31.5617111435
 12
151.1924917523
 22
31.5294468402
 13
151.1924917523
 23
31.5294468402
  0
SOLID
  8
0
 62
7
  6
CONTINUOUS
 10
149.8628043005
 20
31.49718259
 11
151.1924917523
 21
31.5294468402
 12
150.498741835
 22
31.49718259
 13
150.498741835
 23
31.49718259
  0
SOLID
  8
0
 62
7
  6
CONTINUOUS
 10
150.498741835
 20
31.49718259
 11
151.1924917523
 21
31.5294468402
 12
150.9034292799
 22
31.4649197501
 13
150.9034292799
 23
31.4649197501
  0
SOLID
  8
0
 62
7
  6
CONTINUOUS
 10
151.1924917523
 20
31.5294468402
 11
151.3659292523
 21
31.4326554468
 12
150.9034292799
 22
31.4649197501
 13
150.9034292799
 23
31.4649197501
  0
SOLID
  8
0
 62
7
  6
CONTINUOUS
 10
151.0768668626
 20
31.4003926599
 11
150.9034292799
 21
31.4649197501
 12
151.3659292523
 22
31.4326554468
 13
151.3659292523
 23
31.4326554468
  0
SOLID
  8
0
 62
7
  6
CONTINUOUS
 10
151.0768668626
 20
31.4003926599
 11
151.3659292523
 21
31.4326554468
 12
151.1346793074
 22
31.3036013776
 13
151.1346793074
 23
31.3036013776
  0
SOLID
  8
0
 62
7
  6
CONTINUOUS
 10
151.3659292523
 20
31.4326554468
 11
151.4237418626
 21
31.3036013776
 12
151.1346793074
 22
31.3036013776
 13
151.1346793074
 23
31.3036013776
  0
SOLID
  8
0
 62
7
  6
CONTINUOUS
 10
152.4643666972
 20
31.5939739754
 11
152.6956168074
 21
31.6262382787
 12
152.9268669177
 22
31.6262382787
 13
152.9268669177
 23
31.6262382787
  0
SOLID
  8
0
 62
7
  6
CONTINUOUS
 10
152.9268669177
 20
31.6262382787
 11
153.1003044177
 21
31.5939739754
 12
152.4643666972
 22
31.5939739754
 13
152.4643666972
 23
31.5939739754
  0
SOLID
  8
0
 62
7
  6
CONTINUOUS
 10
152.2909293626
 20
31.5294468852
 11
152.4643666972
 21
31.5939739754
 12
153.1003044177
 22
31.5939739754
 13
153.1003044177
 23
31.5939739754
  0
SOLID
  8
0
 62
7
  6
CONTINUOUS
 10
153.1003044177
 20
31.5939739754
 11
153.2737419177
 21
31.5294468852
 12
152.2909293626
 22
31.5294468852
 13
152.2909293626
 23
31.5294468852
  0
SOLID
  8
0
 62
7
  6
CONTINUOUS
 10
153.2737419177
 20
31.5294468852
 11
152.6956168074
 21
31.4971825369
 12
152.2909293626
 22
31.5294468852
 13
152.2909293626
 23
31.5294468852
  0
SOLID
  8
0
 62
7
  6
CONTINUOUS
 10
152.1753043074
 20
31.4649197951
 11
152.2909293626
 21
31.5294468852
 12
152.6956168074
 22
31.4971825369
 13
152.6956168074
 23
31.4971825369
  0
SOLID
  8
0
 62
7
  6
CONTINUOUS
 10
152.6956168074
 20
31.4971825369
 11
152.4643666972
 21
31.4649197951
 12
152.1753043074
 22
31.4649197951
 13
152.1753043074
 23
31.4649197951
  0
SOLID
  8
0
 62
7
  6
CONTINUOUS
 10
152.6956168074
 20
31.4971825369
 11
153.2737419177
 21
31.5294468852
 12
152.9268669177
 22
31.4649197951
 13
152.9268669177
 23
31.4649197951
  0
SOLID
  8
0
 62
7
  6
CONTINUOUS
 10
153.2737419177
 20
31.5294468852
 11
153.3893668074
 21
31.4649197951
 12
152.9268669177
 22
31.4649197951
 13
152.9268669177
 23
31.4649197951
  0
SOLID
  8
0
 62
7
  6
CONTINUOUS
 10
153.0424918074
 20
31.4326554468
 11
152.9268669177
 21
31.4649197951
 12
153.3893668074
 22
31.4649197951
 13
153.3893668074
 23
31.4649197951
  0
SOLID
  8
0
 62
7
  6
CONTINUOUS
 10
153.3893668074
 20
31.4649197951
 11
153.4471794177
 21
31.4003927049
 12
153.0424918074
 22
31.4326554468
 13
153.0424918074
 23
31.4326554468
  0
SOLID
  8
0
 62
7
  6
CONTINUOUS
 10
153.1581166972
 20
31.3681283566
 11
153.0424918074
 21
31.4326554468
 12
153.4471794177
 22
31.4003927049
 13
153.4471794177
 23
31.4003927049
  0
SOLID
  8
0
 62
7
  6
CONTINUOUS
 10
153.1581166972
 20
31.3681283566
 11
153.4471794177
 21
31.4003927049
 12
153.2159293074
 22
31.2390742213
 13
153.2159293074
 23
31.2390742213
  0
SOLID
  8
0
 62
7
  6
CONTINUOUS
 10
153.4471794177
 20
31.4003927049
 11
153.5049916972
 21
31.2390742213
 12
153.2159293074
 22
31.2390742213
 13
153.2159293074
 23
31.2390742213
  0
SOLID
  8
0
 62
7
  6
CONTINUOUS
 10
152.4643666972
 20
31.4649197951
 11
152.2909293626
 21
31.4003927049
 12
152.1753043074
 22
31.4649197951
 13
152.1753043074
 23
31.4649197951
  0
SOLID
  8
0
 62
7
  6
CONTINUOUS
 10
152.2909293626
 20
31.4003927049
 11
152.1753043074
 21
31.3358640533
 12
152.1753043074
 22
31.4649197951
 13
152.1753043074
 23
31.4649197951
  0
SOLID
  8
0
 62
7
  6
CONTINUOUS
 10
152.1753043074
 20
31.3358640533
 11
151.8862417523
 21
30.5938002869
 12
152.1753043074
 22
31.4649197951
 13
152.1753043074
 23
31.4649197951
  0
SOLID
  8
0
 62
7
  6
CONTINUOUS
 10
152.1753043074
 20
31.4649197951
 11
151.8862417523
 21
30.5938002869
 12
152.1753043074
 22
32.1101937295
 13
152.1753043074
 23
32.1101937295
  0
SOLID
  8
0
 62
7
  6
CONTINUOUS
 10
151.8862417523
 20
30.5938002869
 11
151.8862417523
 21
32.1101937295
 12
152.1753043074
 22
32.1101937295
 13
152.1753043074
 23
32.1101937295
  0
SOLID
  8
0
 62
7
  6
CONTINUOUS
 10
152.1753043074
 20
31.3358640533
 11
152.1753043074
 21
30.5938002869
 12
151.8862417523
 22
30.5938002869
 13
151.8862417523
 23
30.5938002869
  0
SOLID
  8
0
 62
7
  6
CONTINUOUS
 10
153.2159293074
 20
30.5938002869
 11
153.2159293074
 21
31.2390742213
 12
153.5049916972
 22
31.2390742213
 13
153.5049916972
 23
31.2390742213
  0
SOLID
  8
0
 62
7
  6
CONTINUOUS
 10
153.5049916972
 20
31.2390742213
 11
153.5049916972
 21
30.5938002869
 12
153.2159293074
 22
30.5938002869
 13
153.2159293074
 23
30.5938002869
  0
SOLID
  8
0
 62
7
  6
CONTINUOUS
 10
154.2565543074
 20
31.5939738288
 11
154.6612419177
 21
31.6262385959
 12
155.0081169177
 22
31.6262385959
 13
155.0081169177
 23
31.6262385959
  0
SOLID
  8
0
 62
7
  6
CONTINUOUS
 10
155.0081169177
 20
31.6262385959
 11
155.3549915869
 21
31.5939738288
 12
154.2565543074
 22
31.5939738288
 13
154.2565543074
 23
31.5939738288
  0
SOLID
  8
0
 62
7
  6
CONTINUOUS
 10
154.1409294177
 20
31.5617111435
 11
154.2565543074
 21
31.5939738288
 12
155.3549915869
 22
31.5939738288
 13
155.3549915869
 23
31.5939738288
  0
SOLID
  8
0
 62
7
  6
CONTINUOUS
 10
155.3549915869
 20
31.5939738288
 11
155.5284290869
 21
31.5294468402
 12
154.1409294177
 22
31.5617111435
 13
154.1409294177
 23
31.5617111435
  0
SOLID
  8
0
 62
7
  6
CONTINUOUS
 10
154.0253041972
 20
31.4971826249
 11
154.1409294177
 21
31.5617111435
 12
155.5284290869
 22
31.5294468402
 13
155.5284290869
 23
31.5294468402
  0
SOLID
  8
0
 62
7
  6
CONTINUOUS
 10
154.0253041972
 20
31.4971826249
 11
155.5284290869
 21
31.5294468402
 12
154.6612419177
 22
31.4971826249
 13
154.6612419177
 23
31.4971826249
  0
SOLID
  8
0
 62
7
  6
CONTINUOUS
 10
154.6612419177
 20
31.4971826249
 11
155.5284290869
 21
31.5294468402
 12
155.0081169177
 22
31.4971826249
 13
155.0081169177
 23
31.4971826249
  0
SOLID
  8
0
 62
7
  6
CONTINUOUS
 10
155.0081169177
 20
31.4971826249
 11
155.5284290869
 21
31.5294468402
 12
155.239367028
 22
31.4649194065
 13
155.239367028
 23
31.4649194065
  0
SOLID
  8
0
 62
7
  6
CONTINUOUS
 10
155.5284290869
 20
31.5294468402
 11
155.6440543074
 21
31.4649194065
 12
155.239367028
 22
31.4649194065
 13
155.239367028
 23
31.4649194065
  0
SOLID
  8
0
 62
7
  6
CONTINUOUS
 10
153.9674919177
 20
31.4326554138
 11
154.0253041972
 21
31.4971826249
 12
154.6612419177
 22
31.4971826249
 13
154.6612419177
 23
31.4971826249
  0
SOLID
  8
0
 62
7
  6
CONTINUOUS
 10
155.3549915869
 20
31.4326554138
 11
155.239367028
 21
31.4649194065
 12
155.6440543074
 22
31.4649194065
 13
155.6440543074
 23
31.4649194065
  0
SOLID
  8
0
 62
7
  6
CONTINUOUS
 10
155.3549915869
 20
31.4326554138
 11
155.6440543074
 21
31.4649194065
 12
155.412804528
 22
31.3681282026
 13
155.412804528
 23
31.3681282026
  0
SOLID
  8
0
 62
7
  6
CONTINUOUS
 10
155.6440543074
 20
31.4649194065
 11
155.7018665869
 21
31.3681282026
 12
155.412804528
 22
31.3681282026
 13
155.412804528
 23
31.3681282026
  0
SOLID
  8
0
 62
7
  6
CONTINUOUS
 10
155.412804528
 20
31.2713369632
 11
155.412804528
 21
31.3681282026
 12
155.7018665869
 22
31.3681282026
 13
155.7018665869
 23
31.3681282026
  0
SOLID
  8
0
 62
7
  6
CONTINUOUS
 10
155.412804528
 20
31.2713369632
 11
155.7018665869
 21
31.3681282026
 12
155.412804528
 22
31.1422827828
 13
155.412804528
 23
31.1422827828
  0
SOLID
  8
0
 62
7
  6
CONTINUOUS
 10
155.412804528
 20
31.1422827828
 11
155.7018665869
 21
31.3681282026
 12
155.412804528
 22
30.9487004259
 13
155.412804528
 23
30.9487004259
  0
SOLID
  8
0
 62
7
  6
CONTINUOUS
 10
155.7018665869
 20
31.3681282026
 11
155.7018665869
 21
30.8519086025
 12
155.412804528
 22
30.9487004259
 13
155.412804528
 23
30.9487004259
  0
SOLID
  8
0
 62
7
  6
CONTINUOUS
 10
157.6096790869
 20
31.5939736268
 11
157.840929528
 21
31.6262383465
 12
158.0721793074
 22
31.6262383465
 13
158.0721793074
 23
31.6262383465
  0
SOLID
  8
0
 62
7
  6
CONTINUOUS
 10
158.0721793074
 20
31.6262383465
 11
158.2456168074
 21
31.5939736268
 12
157.6096790869
 22
31.5939736268
 13
157.6096790869
 23
31.5939736268
  0
SOLID
  8
0
 62
7
  6
CONTINUOUS
 10
157.4362415869
 20
31.5294472848
 11
157.6096790869
 21
31.5939736268
 12
158.2456168074
 22
31.5939736268
 13
158.2456168074
 23
31.5939736268
  0
SOLID
  8
0
 62
7
  6
CONTINUOUS
 10
158.2456168074
 20
31.5939736268
 11
158.4190543074
 21
31.5294472848
 12
157.4362415869
 22
31.5294472848
 13
157.4362415869
 23
31.5294472848
  0
SOLID
  8
0
 62
7
  6
CONTINUOUS
 10
158.4190543074
 20
31.5294472848
 11
157.840929528
 21
31.4971825369
 12
157.4362415869
 22
31.5294472848
 13
157.4362415869
 23
31.5294472848
  0
SOLID
  8
0
 62
7
  6
CONTINUOUS
 10
157.320617028
 20
31.4649199103
 11
157.4362415869
 21
31.5294472848
 12
157.840929528
 22
31.4971825369
 13
157.840929528
 23
31.4971825369
  0
SOLID
  8
0
 62
7
  6
CONTINUOUS
 10
157.840929528
 20
31.4971825369
 11
157.6096790869
 21
31.4649199103
 12
157.320617028
 22
31.4649199103
 13
157.320617028
 23
31.4649199103
  0
SOLID
  8
0
 62
7
  6
CONTINUOUS
 10
157.840929528
 20
31.4971825369
 11
158.4190543074
 21
31.5294472848
 12
158.0721793074
 22
31.4649199103
 13
158.0721793074
 23
31.4649199103
  0
SOLID
  8
0
 62
7
  6
CONTINUOUS
 10
158.4190543074
 20
31.5294472848
 11
158.534679528
 21
31.4649199103
 12
158.0721793074
 22
31.4649199103
 13
158.0721793074
 23
31.4649199103
  0
SOLID
  8
0
 62
7
  6
CONTINUOUS
 10
158.187804528
 20
31.4326554468
 11
158.0721793074
 21
31.4649199103
 12
158.534679528
 22
31.4649199103
 13
158.534679528
 23
31.4649199103
  0
SOLID
  8
0
 62
7
  6
CONTINUOUS
 10
158.187804528
 20
31.4326554468
 11
158.534679528
 21
31.4649199103
 12
158.3034290869
 22
31.3681288486
 13
158.3034290869
 23
31.3681288486
  0
SOLID
  8
0
 62
7
  6
CONTINUOUS
 10
158.534679528
 20
31.4649199103
 11
158.5924918074
 21
31.3681288486
 12
158.3034290869
 22
31.3681288486
 13
158.3034290869
 23
31.3681288486
  0
SOLID
  8
0
 62
7
  6
CONTINUOUS
 10
158.361242028
 20
31.2068093799
 11
158.3034290869
 21
31.3681288486
 12
158.5924918074
 22
31.3681288486
 13
158.5924918074
 23
31.3681288486
  0
SOLID
  8
0
 62
7
  6
CONTINUOUS
 10
158.5924918074
 20
31.3681288486
 11
158.6503040869
 21
31.2068093799
 12
158.361242028
 22
31.2068093799
 13
158.361242028
 23
31.2068093799
  0
SOLID
  8
0
 62
7
  6
CONTINUOUS
 10
157.6096790869
 20
31.4649199103
 11
157.4362415869
 21
31.4003926599
 12
157.320617028
 22
31.4649199103
 13
157.320617028
 23
31.4649199103
  0
SOLID
  8
0
 62
7
  6
CONTINUOUS
 10
157.4362415869
 20
31.4003926599
 11
157.320617028
 21
31.3358640533
 12
157.320617028
 22
31.4649199103
 13
157.320617028
 23
31.4649199103
  0
SOLID
  8
0
 62
7
  6
CONTINUOUS
 10
157.320617028
 20
31.3358640533
 11
157.0315543074
 21
30.5938003547
 12
157.320617028
 22
31.4649199103
 13
157.320617028
 23
31.4649199103
  0
SOLID
  8
0
 62
7
  6
CONTINUOUS
 10
157.320617028
 20
31.4649199103
 11
157.0315543074
 21
30.5938003547
 12
157.320617028
 22
31.6262383465
 13
157.320617028
 23
31.6262383465
  0
SOLID
  8
0
 62
7
  6
CONTINUOUS
 10
157.0315543074
 20
30.5938003547
 11
157.0315543074
 21
31.6262383465
 12
157.320617028
 22
31.6262383465
 13
157.320617028
 23
31.6262383465
  0
SOLID
  8
0
 62
7
  6
CONTINUOUS
 10
157.320617028
 20
31.3358640533
 11
157.320617028
 21
30.5938003547
 12
157.0315543074
 22
30.5938003547
 13
157.0315543074
 23
30.5938003547
  0
SOLID
  8
0
 62
7
  6
CONTINUOUS
 10
158.361242028
 20
30.5938003547
 11
158.361242028
 21
31.2068093799
 12
158.6503040869
 22
31.2068093799
 13
158.6503040869
 23
31.2068093799
  0
SOLID
  8
0
 62
7
  6
CONTINUOUS
 10
158.6503040869
 20
31.2068093799
 11
158.6503040869
 21
30.5938003547
 12
158.361242028
 22
30.5938003547
 13
158.361242028
 23
30.5938003547
  0
SOLID
  8
0
 62
7
  6
CONTINUOUS
 10
159.4596793074
 20
31.5939739474
 11
159.8065543074
 21
31.6262381969
 12
160.1534293074
 22
31.6262381969
 13
160.1534293074
 23
31.6262381969
  0
SOLID
  8
0
 62
7
  6
CONTINUOUS
 10
160.1534293074
 20
31.6262381969
 11
160.5003043074
 21
31.5939739474
 12
159.4596793074
 22
31.5939739474
 13
159.4596793074
 23
31.5939739474
  0
SOLID
  8
0
 62
7
  6
CONTINUOUS
 10
159.228429528
 20
31.5294468402
 11
159.4596793074
 21
31.5939739474
 12
160.5003043074
 22
31.5939739474
 13
160.5003043074
 23
31.5939739474
  0
SOLID
  8
0
 62
7
  6
CONTINUOUS
 10
159.228429528
 20
31.5294468402
 11
160.5003043074
 21
31.5939739304
 12
160.6737418074
 22
31.5617111435
 13
160.6737418074
 23
31.5617111435
  0
SOLID
  8
0
 62
7
  6
CONTINUOUS
 10
159.228429528
 20
31.5294468402
 11
160.6737418074
 21
31.5617111435
 12
159.8065543074
 22
31.4971825592
 13
159.8065543074
 23
31.4971825592
  0
SOLID
  8
0
 62
7
  6
CONTINUOUS
 10
159.8065543074
 20
31.4971825592
 11
160.6737418074
 21
31.5617111435
 12
160.1534293074
 22
31.4971825592
 13
160.1534293074
 23
31.4971825592
  0
SOLID
  8
0
 62
7
  6
CONTINUOUS
 10
160.6737418074
 20
31.5617111435
 11
160.8471793074
 21
31.4971825592
 12
160.1534293074
 22
31.4971825592
 13
160.1534293074
 23
31.4971825592
  0
SOLID
  8
0
 62
7
  6
CONTINUOUS
 10
160.5003043074
 20
31.4649197501
 11
160.1534293074
 21
31.4971825592
 12
160.8471793074
 22
31.4971825592
 13
160.8471793074
 23
31.4971825592
  0
SOLID
  8
0
 62
7
  6
CONTINUOUS
 10
159.1128043074
 20
31.4326555427
 11
159.228429528
 21
31.5294468402
 12
159.8065543074
 22
31.4971825592
 13
159.8065543074
 23
31.4971825592
  0
SOLID
  8
0
 62
7
  6
CONTINUOUS
 10
160.5003043074
 20
31.4649197501
 11
160.8471793074
 21
31.4971825592
 12
160.615929528
 22
31.4326555427
 13
160.615929528
 23
31.4326555427
  0
SOLID
  8
0
 62
7
  6
CONTINUOUS
 10
160.615929528
 20
31.4326555427
 11
160.8471793074
 21
31.4971825592
 12
160.6737418074
 22
31.3681283005
 13
160.6737418074
 23
31.3681283005
  0
SOLID
  8
0
 62
7
  6
CONTINUOUS
 10
160.8471793074
 20
31.4971825592
 11
160.9628038663
 21
31.3681283005
 12
160.6737418074
 22
31.3681283005
 13
160.6737418074
 23
31.3681283005
  0
SOLID
  8
0
 62
7
  6
CONTINUOUS
 10
150.2674918074
 20
31.4649197501
 11
149.7471793074
 21
31.4326554237
 12
150.498741835
 22
31.4971824493
 13
150.498741835
 23
31.4971824493
  0
SOLID
  8
0
 62
7
  6
CONTINUOUS
 10
149.7471793074
 20
31.4326554237
 11
149.8628043005
 21
31.4971824493
 12
150.498741835
 22
31.4971824493
 13
150.498741835
 23
31.4971824493
  0
SOLID
  8
0
 62
7
  6
CONTINUOUS
 10
150.2674918074
 20
31.4649197501
 11
150.1518667936
 21
31.4326554237
 12
149.7471793074
 22
31.4326554237
 13
149.7471793074
 23
31.4326554237
  0
SOLID
  8
0
 62
7
  6
CONTINUOUS
 10
149.6315543091
 20
31.3036012664
 11
149.7471793074
 21
31.4326554237
 12
150.1518667936
 22
31.4326554237
 13
150.1518667936
 23
31.4326554237
  0
SOLID
  8
0
 62
7
  6
CONTINUOUS
 10
153.9674919177
 20
31.4326554237
 11
154.6612419177
 21
31.4971825369
 12
154.4299918074
 22
31.4649197501
 13
154.4299918074
 23
31.4649197501
  0
SOLID
  8
0
 62
7
  6
CONTINUOUS
 10
154.4299918074
 20
31.4649197501
 11
154.3143669177
 21
31.4326554237
 12
153.9674919177
 22
31.4326554237
 13
153.9674919177
 23
31.4326554237
  0
SOLID
  8
0
 62
7
  6
CONTINUOUS
 10
153.9674919177
 20
31.3681283335
 11
153.9674919177
 21
31.4326554237
 12
154.3143669177
 22
31.4326554237
 13
154.3143669177
 23
31.4326554237
  0
SOLID
  8
0
 62
7
  6
CONTINUOUS
 10
154.3143669177
 20
31.4326554237
 11
154.2565543074
 21
31.3681283335
 12
153.9674919177
 22
31.3681283335
 13
153.9674919177
 23
31.3681283335
  0
SOLID
  8
0
 62
7
  6
CONTINUOUS
 10
159.1128043074
 20
31.4326555528
 11
159.8065543074
 21
31.4971825369
 12
159.575304528
 22
31.4649197501
 13
159.575304528
 23
31.4649197501
  0
SOLID
  8
0
 62
7
  6
CONTINUOUS
 10
159.575304528
 20
31.4649197501
 11
159.4596793074
 21
31.4326555528
 12
159.1128043074
 22
31.4326555528
 13
159.1128043074
 23
31.4326555528
  0
SOLID
  8
0
 62
7
  6
CONTINUOUS
 10
159.1128043074
 20
31.3681284626
 11
159.1128043074
 21
31.4326555528
 12
159.4596793074
 22
31.4326555528
 13
159.4596793074
 23
31.4326555528
  0
SOLID
  8
0
 62
7
  6
CONTINUOUS
 10
159.4596793074
 20
31.4326555528
 11
159.401867028
 21
31.3681284626
 12
159.1128043074
 22
31.3681284626
 13
159.1128043074
 23
31.3681284626
  0
SOLID
  8
0
 62
7
  6
CONTINUOUS
 10
159.228429528
 20
31.2390741763
 11
159.1128043074
 21
31.3681284626
 12
159.401867028
 22
31.3681284626
 13
159.401867028
 23
31.3681284626
  0
SOLID
  8
0
 62
7
  6
CONTINUOUS
 10
149.6315543091
 20
31.3036012664
 11
150.1518667936
 21
31.4326554468
 12
149.9784292936
 22
31.3358640533
 13
149.9784292936
 23
31.3358640533
  0
SOLID
  8
0
 62
7
  6
CONTINUOUS
 10
149.9784292936
 20
31.3358640533
 11
149.9206168074
 21
31.2713369632
 12
149.6315543091
 22
31.3036012664
 13
149.6315543091
 23
31.3036012664
  0
SOLID
  8
0
 62
7
  6
CONTINUOUS
 10
149.5737418074
 20
31.1100184796
 11
149.6315543091
 21
31.3036012664
 12
149.9206168074
 22
31.2713369632
 13
149.9206168074
 23
31.2713369632
  0
SOLID
  8
0
 62
7
  6
CONTINUOUS
 10
154.4299918074
 20
31.2390741763
 11
154.7768668074
 21
31.271336924
 12
155.412804528
 22
31.271336924
 13
155.412804528
 23
31.271336924
  0
SOLID
  8
0
 62
7
  6
CONTINUOUS
 10
154.4299918074
 20
31.2390741763
 11
155.412804528
 21
31.271336924
 12
154.1987416972
 22
31.1745462761
 13
154.1987416972
 23
31.1745462761
  0
SOLID
  8
0
 62
7
  6
CONTINUOUS
 10
154.1987416972
 20
31.1745462761
 11
155.412804528
 21
31.271336924
 12
154.7768668074
 22
31.1422827436
 13
154.7768668074
 23
31.1422827436
  0
SOLID
  8
0
 62
7
  6
CONTINUOUS
 10
155.412804528
 20
31.271336924
 11
155.412804528
 21
31.1422827436
 12
154.7768668074
 22
31.1422827436
 13
154.7768668074
 23
31.1422827436
  0
SOLID
  8
0
 62
7
  6
CONTINUOUS
 10
159.228429528
 20
31.2390745501
 11
159.401867028
 21
31.3681283566
 12
159.4596793074
 22
31.3036012664
 13
159.4596793074
 23
31.3036012664
  0
SOLID
  8
0
 62
7
  6
CONTINUOUS
 10
159.4596793074
 20
31.3036012664
 11
159.6331168074
 21
31.2390745501
 12
159.228429528
 22
31.2390745501
 13
159.228429528
 23
31.2390745501
  0
SOLID
  8
0
 62
7
  6
CONTINUOUS
 10
159.4596793074
 20
31.1422827828
 11
159.228429528
 21
31.2390745501
 12
159.6331168074
 22
31.2390745501
 13
159.6331168074
 23
31.2390745501
  0
SOLID
  8
0
 62
7
  6
CONTINUOUS
 10
159.6331168074
 20
31.2390745501
 11
160.615929528
 21
31.0777556927
 12
159.4596793074
 22
31.1422827828
 13
159.4596793074
 23
31.1422827828
  0
SOLID
  8
0
 62
7
  6
CONTINUOUS
 10
160.442492028
 20
30.9809646623
 11
159.4596793074
 21
31.1422827828
 12
160.615929528
 22
31.0777556927
 13
160.615929528
 23
31.0777556927
  0
SOLID
  8
0
 62
7
  6
CONTINUOUS
 10
160.615929528
 20
31.0777556927
 11
160.8471793074
 21
30.9809646623
 12
160.442492028
 22
30.9809646623
 13
160.442492028
 23
30.9809646623
  0
SOLID
  8
0
 62
7
  6
CONTINUOUS
 10
160.615929528
 20
30.9164372091
 11
160.442492028
 21
30.9809646623
 12
160.8471793074
 22
30.9809646623
 13
160.8471793074
 23
30.9809646623
  0
SOLID
  8
0
 62
7
  6
CONTINUOUS
 10
160.615929528
 20
30.9164372091
 11
160.8471793074
 21
30.9809646623
 12
160.6737418074
 22
30.8519089441
 13
160.6737418074
 23
30.8519089441
  0
SOLID
  8
0
 62
7
  6
CONTINUOUS
 10
160.8471793074
 20
30.9809646623
 11
160.9628038663
 21
30.8519089441
 12
160.6737418074
 22
30.8519089441
 13
160.6737418074
 23
30.8519089441
  0
SOLID
  8
0
 62
7
  6
CONTINUOUS
 10
160.615929528
 20
30.7873818593
 11
160.6737418074
 21
30.8519089441
 12
160.9628038663
 22
30.8519089441
 13
160.9628038663
 23
30.8519089441
  0
SOLID
  8
0
 62
7
  6
CONTINUOUS
 10
160.9628038663
 20
30.8519089441
 11
160.9628038663
 21
30.7873818593
 12
160.615929528
 22
30.7873818593
 13
160.615929528
 23
30.7873818593
  0
SOLID
  8
0
 62
7
  6
CONTINUOUS
 10
160.5003043074
 20
30.7551187255
 11
160.615929528
 21
30.7873818593
 12
160.9628038663
 22
30.7873818593
 13
160.9628038663
 23
30.7873818593
  0
SOLID
  8
0
 62
7
  6
CONTINUOUS
 10
160.5003043074
 20
30.7551187255
 11
160.9628038663
 21
30.7873818593
 12
160.269054528
 22
30.7228547745
 13
160.269054528
 23
30.7228547745
  0
SOLID
  8
0
 62
7
  6
CONTINUOUS
 10
160.9628038663
 20
30.7873818593
 11
160.8471793074
 21
30.6905916353
 12
160.269054528
 22
30.7228547745
 13
160.269054528
 23
30.7228547745
  0
SOLID
  8
0
 62
7
  6
CONTINUOUS
 10
160.8471793074
 20
30.6905916353
 11
159.401867028
 21
30.658327332
 12
160.269054528
 22
30.7228547745
 13
160.269054528
 23
30.7228547745
  0
SOLID
  8
0
 62
7
  6
CONTINUOUS
 10
160.269054528
 20
30.7228547745
 11
159.401867028
 21
30.658327332
 12
159.922179528
 22
30.7228547745
 13
159.922179528
 23
30.7228547745
  0
SOLID
  8
0
 62
7
  6
CONTINUOUS
 10
159.401867028
 20
30.658327332
 11
159.228429528
 21
30.7228547745
 12
159.922179528
 22
30.7228547745
 13
159.922179528
 23
30.7228547745
  0
SOLID
  8
0
 62
7
  6
CONTINUOUS
 10
159.401867028
 20
30.658327332
 11
160.8471793074
 21
30.6905916353
 12
159.575304528
 22
30.6260629858
 13
159.575304528
 23
30.6260629858
  0
SOLID
  8
0
 62
7
  6
CONTINUOUS
 10
160.8471793074
 20
30.6905916353
 11
160.615929528
 21
30.6260629858
 12
159.575304528
 22
30.6260629858
 13
159.575304528
 23
30.6260629858
  0
SOLID
  8
0
 62
7
  6
CONTINUOUS
 10
159.922179528
 20
30.5938006049
 11
159.575304528
 21
30.6260629858
 12
160.615929528
 22
30.6260629858
 13
160.615929528
 23
30.6260629858
  0
SOLID
  8
0
 62
7
  6
CONTINUOUS
 10
160.615929528
 20
30.6260629858
 11
160.269054528
 21
30.5938006049
 12
159.922179528
 22
30.5938006049
 13
159.922179528
 23
30.5938006049
  0
SOLID
  8
0
 62
7
  6
CONTINUOUS
 10
149.5737418074
 20
31.1100184796
 11
149.9206168074
 21
31.2713369632
 12
149.8628043005
 22
31.1422827828
 13
149.8628043005
 23
31.1422827828
  0
SOLID
  8
0
 62
7
  6
CONTINUOUS
 10
149.8628043005
 20
31.1422827828
 11
149.8628043005
 21
31.0454914852
 12
149.5737418074
 22
31.1100184796
 13
149.5737418074
 23
31.1100184796
  0
SOLID
  8
0
 62
7
  6
CONTINUOUS
 10
149.6315543091
 20
30.9164372091
 11
149.5737418074
 21
31.1100184796
 12
149.8628043005
 22
31.0454914852
 13
149.8628043005
 23
31.0454914852
  0
SOLID
  8
0
 62
7
  6
CONTINUOUS
 10
149.8628043005
 20
31.0454914852
 11
149.9784292936
 21
30.8841729058
 12
149.6315543091
 22
30.9164372091
 13
149.6315543091
 23
30.9164372091
  0
SOLID
  8
0
 62
7
  6
CONTINUOUS
 10
149.7471793074
 20
30.7873813202
 11
149.6315543091
 21
30.9164372091
 12
149.9784292936
 22
30.8841729058
 13
149.9784292936
 23
30.8841729058
  0
SOLID
  8
0
 62
7
  6
CONTINUOUS
 10
149.9784292936
 20
30.8841729058
 11
150.1518667936
 21
30.7873813202
 12
149.7471793074
 22
30.7873813202
 13
149.7471793074
 23
30.7873813202
  0
SOLID
  8
0
 62
7
  6
CONTINUOUS
 10
149.8628043005
 20
30.7228547004
 11
149.7471793074
 21
30.7873813202
 12
150.1518667936
 22
30.7873813202
 13
150.1518667936
 23
30.7873813202
  0
SOLID
  8
0
 62
7
  6
CONTINUOUS
 10
150.1518667936
 20
30.7873813202
 11
150.498741835
 21
30.7228547004
 12
149.8628043005
 22
30.7228547004
 13
149.8628043005
 23
30.7228547004
  0
SOLID
  8
0
 62
7
  6
CONTINUOUS
 10
150.0362418212
 20
30.658327332
 11
149.8628043005
 21
30.7228547004
 12
150.498741835
 22
30.7228547004
 13
150.498741835
 23
30.7228547004
  0
SOLID
  8
0
 62
7
  6
CONTINUOUS
 10
154.0831168074
 20
31.1100184386
 11
154.1987416972
 21
31.1745462761
 12
154.7768668074
 22
31.1422827828
 13
154.7768668074
 23
31.1422827828
  0
SOLID
  8
0
 62
7
  6
CONTINUOUS
 10
154.7768668074
 20
31.1422827828
 11
154.5456166972
 21
31.1100184386
 12
154.0831168074
 22
31.1100184386
 13
154.0831168074
 23
31.1100184386
  0
SOLID
  8
0
 62
7
  6
CONTINUOUS
 10
153.9674919177
 20
30.9809642992
 11
154.0831168074
 21
31.1100184386
 12
154.5456166972
 22
31.1100184386
 13
154.5456166972
 23
31.1100184386
  0
SOLID
  8
0
 62
7
  6
CONTINUOUS
 10
154.3143669177
 20
31.0132277988
 11
153.9674919177
 21
30.9809642992
 12
154.4299918074
 22
31.0777556927
 13
154.4299918074
 23
31.0777556927
  0
SOLID
  8
0
 62
7
  6
CONTINUOUS
 10
153.9674919177
 20
30.9809642992
 11
154.5456166972
 21
31.1100184796
 12
154.4299918074
 22
31.0777556927
 13
154.4299918074
 23
31.0777556927
  0
SOLID
  8
0
 62
7
  6
CONTINUOUS
 10
154.3143669177
 20
31.0132277988
 11
154.2565543074
 21
30.9164372091
 12
153.9674919177
 22
30.9809642992
 13
153.9674919177
 23
30.9809642992
  0
SOLID
  8
0
 62
7
  6
CONTINUOUS
 10
153.9674919177
 20
30.8841729058
 11
153.9674919177
 21
30.9809642992
 12
154.2565543074
 22
30.9164372091
 13
154.2565543074
 23
30.9164372091
  0
SOLID
  8
0
 62
7
  6
CONTINUOUS
 10
154.2565543074
 20
30.9164372091
 11
154.2565543074
 21
30.8519086025
 12
153.9674919177
 22
30.8841729058
 13
153.9674919177
 23
30.8841729058
  0
SOLID
  8
0
 62
7
  6
CONTINUOUS
 10
154.0253041972
 20
30.7551187255
 11
153.9674919177
 21
30.8841729058
 12
154.2565543074
 22
30.8519086025
 13
154.2565543074
 23
30.8519086025
  0
SOLID
  8
0
 62
7
  6
CONTINUOUS
 10
155.412804528
 20
30.9487004259
 11
155.7018665869
 21
30.8519086025
 12
155.3549915869
 22
30.8841729058
 13
155.3549915869
 23
30.8841729058
  0
SOLID
  8
0
 62
7
  6
CONTINUOUS
 10
155.1815540869
 20
30.7873815123
 11
155.3549915869
 21
30.8841729058
 12
155.7018665869
 22
30.8519086025
 13
155.7018665869
 23
30.8519086025
  0
SOLID
  8
0
 62
7
  6
CONTINUOUS
 10
155.1815540869
 20
30.7873815123
 11
155.7018665869
 21
30.8519086025
 12
155.412804528
 22
30.7551187255
 13
155.412804528
 23
30.7551187255
  0
SOLID
  8
0
 62
7
  6
CONTINUOUS
 10
155.7018665869
 20
30.8519086025
 11
155.759679528
 21
30.6905916353
 12
155.412804528
 22
30.7551187255
 13
155.412804528
 23
30.7551187255
  0
SOLID
  8
0
 62
7
  6
CONTINUOUS
 10
155.4706168074
 20
30.658327332
 11
155.412804528
 21
30.7551187255
 12
155.759679528
 22
30.6905916353
 13
155.759679528
 23
30.6905916353
  0
SOLID
  8
0
 62
7
  6
CONTINUOUS
 10
155.4706168074
 20
30.658327332
 11
155.759679528
 21
30.6905916353
 12
155.5284290869
 22
30.5938002079
 13
155.5284290869
 23
30.5938002079
  0
SOLID
  8
0
 62
7
  6
CONTINUOUS
 10
155.759679528
 20
30.6905916353
 11
155.8174918074
 21
30.5938002079
 12
155.5284290869
 22
30.5938002079
 13
155.5284290869
 23
30.5938002079
  0
SOLID
  8
0
 62
7
  6
CONTINUOUS
 10
151.0768668626
 20
30.8196456577
 11
151.1346793074
 21
30.9164373395
 12
151.4237418626
 22
30.9164373395
 13
151.4237418626
 23
30.9164373395
  0
SOLID
  8
0
 62
7
  6
CONTINUOUS
 10
151.4237418626
 20
30.9164373395
 11
151.3659292523
 21
30.7873815123
 12
151.0768668626
 22
30.8196456577
 13
151.0768668626
 23
30.8196456577
  0
SOLID
  8
0
 62
7
  6
CONTINUOUS
 10
150.9034292799
 20
30.7551187255
 11
151.0768668626
 21
30.8196456577
 12
151.3659292523
 22
30.7873815123
 13
151.3659292523
 23
30.7873815123
  0
SOLID
  8
0
 62
7
  6
CONTINUOUS
 10
150.9034292799
 20
30.7551187255
 11
151.3659292523
 21
30.7873815123
 12
150.498741835
 22
30.7228544222
 13
150.498741835
 23
30.7228544222
  0
SOLID
  8
0
 62
7
  6
CONTINUOUS
 10
151.3659292523
 20
30.7873815123
 11
151.1924917523
 21
30.6905916353
 12
150.498741835
 22
30.7228544222
 13
150.498741835
 23
30.7228544222
  0
SOLID
  8
0
 62
7
  6
CONTINUOUS
 10
150.0362418212
 20
30.658327332
 11
150.498741835
 21
30.7228544222
 12
151.1924917523
 22
30.6905916353
 13
151.1924917523
 23
30.6905916353
  0
SOLID
  8
0
 62
7
  6
CONTINUOUS
 10
150.0362418212
 20
30.658327332
 11
151.1924917523
 21
30.6905916353
 12
150.2096793212
 22
30.6260631011
 13
150.2096793212
 23
30.6260631011
  0
SOLID
  8
0
 62
7
  6
CONTINUOUS
 10
151.1924917523
 20
30.6905916353
 11
150.9612418074
 21
30.6260631011
 12
150.2096793212
 22
30.6260631011
 13
150.2096793212
 23
30.6260631011
  0
SOLID
  8
0
 62
7
  6
CONTINUOUS
 10
150.5565542799
 20
30.5938002419
 11
150.2096793212
 21
30.6260631011
 12
150.9612418074
 22
30.6260631011
 13
150.9612418074
 23
30.6260631011
  0
SOLID
  8
0
 62
7
  6
CONTINUOUS
 10
154.0253041972
 20
30.7551187255
 11
154.2565543074
 21
30.8519086025
 12
154.3143669177
 22
30.7873815123
 13
154.3143669177
 23
30.7873815123
  0
SOLID
  8
0
 62
7
  6
CONTINUOUS
 10
154.3143669177
 20
30.7873815123
 11
154.5456166972
 21
30.7228544222
 12
154.0253041972
 22
30.7551187255
 13
154.0253041972
 23
30.7551187255
  0
SOLID
  8
0
 62
7
  6
CONTINUOUS
 10
154.1987416972
 20
30.658327332
 11
154.0253041972
 21
30.7551187255
 12
154.5456166972
 22
30.7228544222
 13
154.5456166972
 23
30.7228544222
  0
SOLID
  8
0
 62
7
  6
CONTINUOUS
 10
154.8924916972
 20
30.7228544637
 11
155.1815540869
 21
30.7873815123
 12
155.412804528
 22
30.7551187255
 13
155.412804528
 23
30.7551187255
  0
SOLID
  8
0
 62
7
  6
CONTINUOUS
 10
155.412804528
 20
30.7551187255
 11
155.3549915869
 21
30.6905916353
 12
154.8924916972
 22
30.7228544637
 13
154.8924916972
 23
30.7228544637
  0
SOLID
  8
0
 62
7
  6
CONTINUOUS
 10
155.3549915869
 20
30.6905916353
 11
154.1987416972
 21
30.658327332
 12
154.8924916972
 22
30.7228544637
 13
154.8924916972
 23
30.7228544637
  0
SOLID
  8
0
 62
7
  6
CONTINUOUS
 10
154.1987416972
 20
30.658327332
 11
154.5456166972
 21
30.7228544637
 12
154.8924916972
 22
30.7228544637
 13
154.8924916972
 23
30.7228544637
  0
SOLID
  8
0
 62
7
  6
CONTINUOUS
 10
154.1987416972
 20
30.658327332
 11
155.3549915869
 21
30.6905916353
 12
154.3143669177
 22
30.6260630541
 13
154.3143669177
 23
30.6260630541
  0
SOLID
  8
0
 62
7
  6
CONTINUOUS
 10
155.3549915869
 20
30.6905916353
 11
155.1815540869
 21
30.6260630541
 12
154.3143669177
 22
30.6260630541
 13
154.3143669177
 23
30.6260630541
  0
SOLID
  8
0
 62
7
  6
CONTINUOUS
 10
154.5456166972
 20
30.5938002188
 11
154.3143669177
 21
30.6260630541
 12
155.1815540869
 22
30.6260630541
 13
155.1815540869
 23
30.6260630541
  0
SOLID
  8
0
 62
7
  6
CONTINUOUS
 10
155.1815540869
 20
30.6260630541
 11
154.8924916972
 21
30.5938002188
 12
154.5456166972
 22
30.5938002188
 13
154.5456166972
 23
30.5938002188
  0
SOLID
  8
0
 62
7
  6
CONTINUOUS
 10
159.575304528
 20
30.7551187255
 11
159.228429528
 21
30.7228544637
 12
159.4596793074
 22
30.7873815123
 13
159.4596793074
 23
30.7873815123
  0
SOLID
  8
0
 62
7
  6
CONTINUOUS
 10
159.4596793074
 20
30.7873815123
 11
159.228429528
 21
30.7228544637
 12
159.401867028
 22
30.851908644
 13
159.401867028
 23
30.851908644
  0
SOLID
  8
0
 62
7
  6
CONTINUOUS
 10
159.228429528
 20
30.7228544637
 11
159.1128043074
 21
30.851908644
 12
159.401867028
 22
30.851908644
 13
159.401867028
 23
30.851908644
  0
SOLID
  8
0
 62
7
  6
CONTINUOUS
 10
159.575304528
 20
30.7551187255
 11
159.922179528
 21
30.7228544637
 12
159.228429528
 22
30.7228544637
 13
159.228429528
 23
30.7228544637
  0
SOLID
  8
0
 62
7
  6
CONTINUOUS
 10
156.279992028
 20
30.5938002419
 11
156.279992028
 21
31.6262382337
 12
156.5690540869
 22
30.5938002419
 13
156.5690540869
 23
31.6262382337
  0
ENDBLK
  8
0
  6
BYBLOCK
 62
0
  0
BLOCK
  8
0
 62
2
  6
CONTINUOUS
  2
SYMBOL_3_BL0
 70
64
 10
32.1213064866
 20
19.8534310916
  0
TEXT
  8
0
 62
7
  6
CONTINUOUS
 10
18.3860103289
 20
19.2268451992
  7
TEXTSTYLE_3
 40
2.7338706658
  1
Ammeraal Beltech
 41
1.0
 51
15.0
 72
0
  0
TEXT
  8
0
 62
7
  6
CONTINUOUS
 10
29.1868111546
 20
16.9533085264
  7
TEXTSTYLE_4
 40
1.0935482663
  1
Innovation & Service in Belting
 41
1.0
 72
0
  0
LINE
  8
0
 62
7
  6
CONTINUOUS
 10
12.3614696776
 20
19.9934385078
 11
13.1396216709
 21
23.6543558055
  0
LINE
  8
0
 62
7
  6
CONTINUOUS
 10
23.2347899607
 20
27.3177497171
 11
13.6274394139
 21
24.1961322958
  0
LINE
  8
0
 62
7
  6
CONTINUOUS
 10
12.5867530099
 20
19.3000877048
 11
20.093828271
 21
12.5406867788
  0
LINE
  8
0
 62
7
  6
CONTINUOUS
 10
12.8492874206
 20
20.5352149982
 11
23.6575567857
 21
24.0470345971
  0
LINE
  8
0
 62
7
  6
CONTINUOUS
 10
23.6533516486
 20
13.6972460334
 11
15.2078919798
 21
21.3015720751
  0
LINE
  8
0
 62
7
  6
CONTINUOUS
 10
24.1731743684
 20
26.4728246013
 11
23.1966148312
 21
21.8784731989
  0
LINE
  8
0
 62
7
  6
CONTINUOUS
 10
22.4968128835
 20
18.5861638851
 11
21.810364672
 21
15.3566789607
  0
LINE
  8
0
 62
7
  6
CONTINUOUS
 10
24.8542704669
 20
14.087448211
 11
25.8105020025
 21
18.5861638851
  0
LINE
  8
0
 62
7
  6
CONTINUOUS
 10
26.5103039502
 20
21.8784731989
 11
26.9545457526
 21
23.9684665583
  0
LINE
  8
0
 62
7
  6
CONTINUOUS
 10
20.8069293463
 20
12.3891124661
 11
24.3664527239
 21
13.5456717207
  0
LINE
  8
0
 62
7
  6
CONTINUOUS
 10
23.9478910361
 20
27.1661754044
 11
26.7292624203
 21
24.6618173613
  0
ARC
  8
0
 62
7
  6
CONTINUOUS
 10
13.8527227462
 20
23.5027814928
 40
0.7290321776
 50
108.0
 51
168.0
  0
ARC
  8
0
 62
7
  6
CONTINUOUS
 10
23.4600732931
 20
26.624398914
 40
0.7290321776
 50
348.0
 51
108.0
  0
ARC
  8
0
 62
7
  6
CONTINUOUS
 10
26.2414446773
 20
24.120040871
 40
0.7290321776
 50
348.0
 51
48.0
  0
ARC
  8
0
 62
7
  6
CONTINUOUS
 10
20.581646014
 20
13.0824632691
 40
0.7290321776
 50
228.0
 51
288.0
  0
ARC
  8
0
 62
7
  6
CONTINUOUS
 10
13.0745707529
 20
19.8418641951
 40
0.7290321776
 50
108.0
 51
228.0
  0
ARC
  8
0
 62
7
  6
CONTINUOUS
 10
24.1411693916
 20
14.2390225237
 40
0.7290321776
 50
228.0
 51
348.0
  0
ENDBLK
  8
0
  6
BYBLOCK
 62
0
  0
ENDSEC
  0
SECTION
  2
ENTITIES
  0
TEXT
  8
0
 62
5
  6
CONTINUOUS
 10
96.0
 20
25.636
  7
TEXTSTYLE_2
 40
2.8
  1
Scale :
 41
0.6
 51
0.000019
 72
0
  0
TEXT
  8
0
 62
5
  6
CONTINUOUS
 10
116.0
 20
25.636
  7
TEXTSTYLE_2
 40
2.8
  1
Belt type:
 41
0.6
 51
0.000019
 72
0
  0
INSERT
  8
0
 62
2
  6
CONTINUOUS
  2
SYMBOL_3_BL0
 10
32.1213064866
 20
19.8534310916
  0
INSERT
  8
0
 62
2
  6
CONTINUOUS
  2
SYMBOL_8_BL1
 10
173.5956734183
 20
35.5937998301
  0
LINE
  8
0
 62
2
  6
CONTINUOUS
 10
10.0
 20
30.0
 11
200.0
 21
30.0
  0
LINE
  8
0
 62
2
  6
CONTINUOUS
 10
10.0
 20
30.0
 11
10.0
 21
10.0
  0
LINE
  8
0
 62
2
  6
CONTINUOUS
 10
10.0
 20
10.0
 11
200.0
 21
10.0
  0
LINE
  8
0
 62
2
  6
CONTINUOUS
 10
95.0
 20
30.0
 11
95.0
 21
10.0
  0
LINE
  8
0
 62
2
  6
CONTINUOUS
 10
115.0
 20
30.0
 11
115.0
 21
10.0
  0
LINE
  8
0
 62
2
  6
CONTINUOUS
 10
200.0
 20
30.0
 11
200.0
 21
10.0
  0
TEXT
  8
0
 62
5
  6
CONTINUOUS
 10
13.0
 20
23.303
  7
TEXTSTYLE_5
 40
1.52
  1
                                                                     Ammeraal Beltech Modular A/S
 41
1.0
 72
0
  0
TEXT
  8
0
 62
5
  6
CONTINUOUS
 10
13.0
 20
20.595
  7
TEXTSTYLE_5
 40
1.5
  1
                                                                      Hjulmagervej 21,  7100 Vejle,  DK
 41
1.0
 72
0
  0
TEXT
  8
0
 62
5
  6
CONTINUOUS
 10
13.0
 20
17.881
  7
TEXTSTYLE_5
 40
1.495
  1
                                                                      tel: 
 41
1.0
 72
0
  0
TEXT
  8
0
 62
5
  6
CONTINUOUS
 10
57.9869465649
 20
17.881
  7
TEXTSTYLE_5
 40
1.51
  1
+45 75723100     fax: +45 75723348
 41
1.0
 72
0
  0
TEXT
  8
0
 62
5
  6
CONTINUOUS
 10
13.0
 20
15.177
  7
TEXTSTYLE_5
 40
1.5
  1
                                                                      admin@unichains.dk  www.unichains.com
 41
1.0
 72
0
  0
TEXT
  8
0
 62
5
  6
CONTINUOUS
 10
99.75
 20
13.75
  7
TEXTSTYLE_6
 40
5.0
  1
1:1
 41
0.7
 72
1
 11
105.0
 21
13.75
  0
TEXT
  8
0
 62
5
  6
CONTINUOUS
 10
118.0
 20
13.75
  7
TEXTSTYLE_7
 40
7.5
  1
uni SSB C K450
 41
0.705952381
 72
0
  0
LINE
  8
0
 62
7
  6
CONTINUOUS
 10
210.0
 20
0.0
 11
0.0
 21
0.0
  0
LINE
  8
0
 62
7
  6
CONTINUOUS
 10
10.0
 20
10.0
 11
200.0
 21
10.0
  0
LINE
  8
0
 62
7
  6
CONTINUOUS
 10
10.0
 20
30.0
 11
200.0
 21
30.0
  0
LINE
  8
0
 62
7
  6
CONTINUOUS
 10
0.0
 20
0.0
 11
0.0
 21
297.0
  0
LINE
  8
0
 62
7
  6
CONTINUOUS
 10
10.0
 20
10.0
 11
10.0
 21
287.0
  0
LINE
  8
0
 62
7
  6
CONTINUOUS
 10
200.0
 20
287.0
 11
200.0
 21
10.0
  0
LINE
  8
0
 62
7
  6
CONTINUOUS
 10
210.0
 20
0.0
 11
210.0
 21
297.0
  0
LINE
  8
0
 62
7
  6
CONTINUOUS
 10
10.0
 20
287.0
 11
200.0
 21
287.0
  0
LINE
  8
0
 62
7
  6
CONTINUOUS
 10
0.0
 20
297.0
 11
210.0
 21
297.0
  0
LINE
  8
4_SURFACE
 62
7
  6
CONTINUOUS
 10
34.3801724138
 20
104.4614224136
 11
34.3801724138
 21
143.0614224136
  0
LINE
  8
4_SURFACE
 62
7
  6
CONTINUOUS
 10
37.9221946361
 20
105.1647814162
 11
37.8970234399
 21
104.4439726652
  0
LINE
  8
4_SURFACE
 62
7
  6
CONTINUOUS
 10
43.8129982841
 20
105.2325252909
 11
43.8215761406
 21
105.2098055346
  0
LINE
  8
4_SURFACE
 62
7
  6
CONTINUOUS
 10
43.8215761406
 20
105.2098055346
 11
43.8310037601
 21
105.1843648363
  0
LINE
  8
4_SURFACE
 62
7
  6
CONTINUOUS
 10
43.8310037601
 20
105.1843648363
 11
43.8400523337
 21
105.1595338074
  0
LINE
  8
4_SURFACE
 62
7
  6
CONTINUOUS
 10
43.8400523337
 20
105.1595338074
 11
43.8529956436
 21
105.1234196823
  0
LINE
  8
4_SURFACE
 62
7
  6
CONTINUOUS
 10
43.8529956436
 20
105.1234196823
 11
43.8732017566
 21
105.066048548
  0
LINE
  8
4_SURFACE
 62
7
  6
CONTINUOUS
 10
43.8732017566
 20
105.066048548
 11
43.9075529075
 21
104.9679478219
  0
LINE
  8
4_SURFACE
 62
7
  6
CONTINUOUS
 10
43.838150491
 20
105.1647728393
 11
43.8633213877
 21
104.4439726652
  0
LINE
  8
4_SURFACE
 62
7
  6
CONTINUOUS
 10
46.9200700967
 20
109.3807100827
 11
46.9213687173
 21
113.4614224136
  0
LINE
  8
4_SURFACE
 62
7
  6
CONTINUOUS
 10
47.340274726
 20
149.3421329844
 11
47.3389761103
 21
145.2614224136
  0
LINE
  8
4_SURFACE
 62
7
  6
CONTINUOUS
 10
46.9152775992
 20
108.3196073279
 11
46.9200700967
 21
109.3807100827
  0
LINE
  8
4_SURFACE
 62
7
  6
CONTINUOUS
 10
47.3450672113
 20
150.4032347929
 11
47.340274726
 21
149.3421329844
  0
LINE
  8
4_SURFACE
 62
7
  6
CONTINUOUS
 10
47.3540244473
 20
151.4708128397
 11
47.3450672113
 21
150.4032347929
  0
LINE
  8
4_SURFACE
 62
7
  6
CONTINUOUS
 10
46.9063203528
 20
107.2520294097
 11
46.9152775992
 21
108.3196073279
  0
LINE
  8
4_SURFACE
 62
7
  6
CONTINUOUS
 10
47.3651945058
 20
152.3291455195
 11
47.3540244473
 21
151.4708128397
  0
LINE
  8
4_SURFACE
 62
7
  6
CONTINUOUS
 10
46.8951502935
 20
106.3936975043
 11
46.9063203528
 21
107.2520294097
  0
LINE
  8
4_SURFACE
 62
7
  6
CONTINUOUS
 10
47.375528093
 20
152.9016475451
 11
47.3651945058
 21
152.3291455195
  0
LINE
  8
4_SURFACE
 62
7
  6
CONTINUOUS
 10
46.8848167129
 20
105.8211962379
 11
46.8951502935
 21
106.3936975043
  0
LINE
  8
4_SURFACE
 62
7
  6
CONTINUOUS
 10
47.3841431188
 20
153.2737600178
 11
47.375528093
 21
152.9016475451
  0
LINE
  8
4_SURFACE
 62
7
  6
CONTINUOUS
 10
46.8762017032
 20
105.4490845952
 11
46.8848167129
 21
105.8211962379
  0
LINE
  8
4_SURFACE
 62
7
  6
CONTINUOUS
 10
47.3906561443
 20
153.5057983282
 11
47.3841431188
 21
153.2737600178
  0
LINE
  8
4_SURFACE
 62
7
  6
CONTINUOUS
 10
46.8696886988
 20
105.2170470071
 11
46.8762017032
 21
105.4490845952
  0
LINE
  8
4_SURFACE
 62
7
  6
CONTINUOUS
 10
47.3971177803
 20
153.7003712525
 11
47.3906561443
 21
153.5057983282
  0
LINE
  8
4_SURFACE
 62
7
  6
CONTINUOUS
 10
46.8632270929
 20
105.0224748328
 11
46.8696886988
 21
105.2170470071
  0
LINE
  8
4_SURFACE
 62
7
  6
CONTINUOUS
 10
47.4013525701
 20
153.8105847026
 11
47.3971177803
 21
153.7003712525
  0
LINE
  8
4_SURFACE
 62
7
  6
CONTINUOUS
 10
46.8589923251
 20
104.9122617825
 11
46.8632270929
 21
105.0224748328
  0
LINE
  8
4_SURFACE
 62
7
  6
CONTINUOUS
 10
47.4055029307
 20
153.9063248188
 11
47.4013525701
 21
153.8105847026
  0
LINE
  8
4_SURFACE
 62
7
  6
CONTINUOUS
 10
46.8548419837
 20
104.8165218887
 11
46.8589923251
 21
104.9122617825
  0
LINE
  8
4_SURFACE
 62
7
  6
CONTINUOUS
 10
47.4095730695
 20
153.9891083164
 11
47.4055029307
 21
153.9063248188
  0
LINE
  8
4_SURFACE
 62
7
  6
CONTINUOUS
 10
46.8507718558
 20
104.7337383717
 11
46.8548419837
 21
104.8165218887
  0
POLYLINE
  8
4_SURFACE
 62
7
  6
CONTINUOUS
 66
1
 70
0
  0
VERTEX
  8
4_SURFACE
 62
7
  6
CONTINUOUS
 10
47.3389749889
 20
145.2614224136
  0
VERTEX
  8
4_SURFACE
 62
7
  6
CONTINUOUS
 10
47.3337223111
 20
145.1698986177
  0
VERTEX
  8
4_SURFACE
 62
7
  6
CONTINUOUS
 10
47.3113840047
 20
145.0531569563
  0
VERTEX
  8
4_SURFACE
 62
7
  6
CONTINUOUS
 10
47.2719914033
 20
144.9410109861
  0
VERTEX
  8
4_SURFACE
 62
7
  6
CONTINUOUS
 10
47.2164037785
 20
144.8359232977
  0
VERTEX
  8
4_SURFACE
 62
7
  6
CONTINUOUS
 10
47.1458473828
 20
144.7402237155
  0
VERTEX
  8
4_SURFACE
 62
7
  6
CONTINUOUS
 10
47.0618823992
 20
144.6560331721
  0
VERTEX
  8
4_SURFACE
 62
7
  6
CONTINUOUS
 10
46.9663625201
 20
144.585211736
  0
VERTEX
  8
4_SURFACE
 62
7
  6
CONTINUOUS
 10
46.8614035063
 20
144.5293270879
  0
VERTEX
  8
4_SURFACE
 62
7
  6
CONTINUOUS
 10
46.7493302028
 20
144.4896136487
  0
VERTEX
  8
4_SURFACE
 62
7
  6
CONTINUOUS
 10
46.6326008944
 20
144.4669402969
  0
VERTEX
  8
4_SURFACE
 62
7
  6
CONTINUOUS
 10
46.5607216798
 20
144.4617247961
  0
SEQEND
  0
POLYLINE
  8
4_SURFACE
 62
7
  6
CONTINUOUS
 66
1
 70
0
  0
VERTEX
  8
4_SURFACE
 62
7
  6
CONTINUOUS
 10
46.9213698387
 20
113.4614224135
  0
VERTEX
  8
4_SURFACE
 62
7
  6
CONTINUOUS
 10
46.9266225165
 20
113.5529462095
  0
VERTEX
  8
4_SURFACE
 62
7
  6
CONTINUOUS
 10
46.9489608229
 20
113.6696878709
  0
VERTEX
  8
4_SURFACE
 62
7
  6
CONTINUOUS
 10
46.9883534243
 20
113.7818338411
  0
VERTEX
  8
4_SURFACE
 62
7
  6
CONTINUOUS
 10
47.0439410491
 20
113.8869215295
  0
VERTEX
  8
4_SURFACE
 62
7
  6
CONTINUOUS
 10
47.1144974447
 20
113.9826211116
  0
VERTEX
  8
4_SURFACE
 62
7
  6
CONTINUOUS
 10
47.1984624284
 20
114.0668116551
  0
VERTEX
  8
4_SURFACE
 62
7
  6
CONTINUOUS
 10
47.2939823074
 20
114.1376330912
  0
VERTEX
  8
4_SURFACE
 62
7
  6
CONTINUOUS
 10
47.3989413212
 20
114.1935177393
  0
VERTEX
  8
4_SURFACE
 62
7
  6
CONTINUOUS
 10
47.5110146247
 20
114.2332311785
  0
VERTEX
  8
4_SURFACE
 62
7
  6
CONTINUOUS
 10
47.6277439331
 20
114.2559045303
  0
VERTEX
  8
4_SURFACE
 62
7
  6
CONTINUOUS
 10
47.6996231478
 20
114.261120031
  0
SEQEND
  0
POLYLINE
  8
4_SURFACE
 62
7
  6
CONTINUOUS
 66
1
 70
0
  0
VERTEX
  8
4_SURFACE
 62
7
  6
CONTINUOUS
 10
47.3390522627
 20
145.2614224136
  0
VERTEX
  8
4_SURFACE
 62
7
  6
CONTINUOUS
 10
47.3324818761
 20
145.1591195458
  0
VERTEX
  8
4_SURFACE
 62
7
  6
CONTINUOUS
 10
47.3124201167
 20
145.0567567104
  0
VERTEX
  8
4_SURFACE
 62
7
  6
CONTINUOUS
 10
47.2787905167
 20
144.9568624513
  0
VERTEX
  8
4_SURFACE
 62
7
  6
CONTINUOUS
 10
47.2321546641
 20
144.8619749291
  0
VERTEX
  8
4_SURFACE
 62
7
  6
CONTINUOUS
 10
47.173668107
 20
144.7744000209
  0
VERTEX
  8
4_SURFACE
 62
7
  6
CONTINUOUS
 10
47.104656818
 20
144.6957364242
  0
VERTEX
  8
4_SURFACE
 62
7
  6
CONTINUOUS
 10
47.0259583454
 20
144.6267429702
  0
VERTEX
  8
4_SURFACE
 62
7
  6
CONTINUOUS
 10
46.9383333259
 20
144.568266602
  0
VERTEX
  8
4_SURFACE
 62
7
  6
CONTINUOUS
 10
46.8433975963
 20
144.5216450662
  0
VERTEX
  8
4_SURFACE
 62
7
  6
CONTINUOUS
 10
46.7434688901
 20
144.4880335223
  0
SEQEND
  0
POLYLINE
  8
4_SURFACE
 62
7
  6
CONTINUOUS
 66
1
 70
0
  0
VERTEX
  8
4_SURFACE
 62
7
  6
CONTINUOUS
 10
46.9212925649
 20
113.4614224136
  0
VERTEX
  8
4_SURFACE
 62
7
  6
CONTINUOUS
 10
46.9278629515
 20
113.5637252814
  0
VERTEX
  8
4_SURFACE
 62
7
  6
CONTINUOUS
 10
46.9479247109
 20
113.6660881168
  0
VERTEX
  8
4_SURFACE
 62
7
  6
CONTINUOUS
 10
46.9815543109
 20
113.7659823759
  0
VERTEX
  8
4_SURFACE
 62
7
  6
CONTINUOUS
 10
47.0281901635
 20
113.8608698981
  0
VERTEX
  8
4_SURFACE
 62
7
  6
CONTINUOUS
 10
47.0866767206
 20
113.9484448063
  0
VERTEX
  8
4_SURFACE
 62
7
  6
CONTINUOUS
 10
47.1556880095
 20
114.027108403
  0
VERTEX
  8
4_SURFACE
 62
7
  6
CONTINUOUS
 10
47.2343864822
 20
114.096101857
  0
VERTEX
  8
4_SURFACE
 62
7
  6
CONTINUOUS
 10
47.3220115017
 20
114.1545782251
  0
VERTEX
  8
4_SURFACE
 62
7
  6
CONTINUOUS
 10
47.4169472313
 20
114.201199761
  0
VERTEX
  8
4_SURFACE
 62
7
  6
CONTINUOUS
 10
47.5168759375
 20
114.2348113049
  0
SEQEND
  0
LINE
  8
4_SURFACE
 62
7
  6
CONTINUOUS
 10
37.8527919107
 20
104.96794777
 11
37.905537449
 21
105.1183172532
  0
LINE
  8
4_SURFACE
 62
7
  6
CONTINUOUS
 10
37.905537449
 20
105.1183172532
 11
37.9163124222
 21
105.1484974216
  0
LINE
  8
4_SURFACE
 62
7
  6
CONTINUOUS
 10
37.9163124222
 20
105.1484974216
 11
37.9277654441
 21
105.1800685688
  0
LINE
  8
4_SURFACE
 62
7
  6
CONTINUOUS
 10
37.9277654441
 20
105.1800685688
 11
37.9400119675
 21
105.2131247966
  0
LINE
  8
4_SURFACE
 62
7
  6
CONTINUOUS
 10
37.9400119675
 20
105.2131247966
 11
37.9473458511
 21
105.2325235227
  0
POLYLINE
  8
4_SURFACE
 62
7
  6
CONTINUOUS
 66
1
 70
0
  0
VERTEX
  8
4_SURFACE
 62
7
  6
CONTINUOUS
 10
37.947347463
 20
105.2325301772
  0
VERTEX
  8
4_SURFACE
 62
7
  6
CONTINUOUS
 10
37.9520507494
 20
105.2444718393
  0
VERTEX
  8
4_SURFACE
 62
7
  6
CONTINUOUS
 10
37.9628723756
 20
105.2695278045
  0
VERTEX
  8
4_SURFACE
 62
7
  6
CONTINUOUS
 10
37.9748638401
 20
105.2944409092
  0
VERTEX
  8
4_SURFACE
 62
7
  6
CONTINUOUS
 10
37.9878927476
 20
105.3190713746
  0
VERTEX
  8
4_SURFACE
 62
7
  6
CONTINUOUS
 10
38.0018396915
 20
105.3433075652
  0
VERTEX
  8
4_SURFACE
 62
7
  6
CONTINUOUS
 10
38.0166208931
 20
105.3670916737
  0
VERTEX
  8
4_SURFACE
 62
7
  6
CONTINUOUS
 10
38.0321729609
 20
105.3903885454
  0
VERTEX
  8
4_SURFACE
 62
7
  6
CONTINUOUS
 10
38.048457049
 20
105.4131815972
  0
VERTEX
  8
4_SURFACE
 62
7
  6
CONTINUOUS
 10
38.0654209136
 20
105.4354246687
  0
VERTEX
  8
4_SURFACE
 62
7
  6
CONTINUOUS
 10
38.0830364007
 20
105.4570942898
  0
VERTEX
  8
4_SURFACE
 62
7
  6
CONTINUOUS
 10
38.1013068427
 20
105.4781908306
  0
VERTEX
  8
4_SURFACE
 62
7
  6
CONTINUOUS
 10
38.1202483456
 20
105.4987114556
  0
VERTEX
  8
4_SURFACE
 62
7
  6
CONTINUOUS
 10
38.1398833221
 20
105.5186437508
  0
VERTEX
  8
4_SURFACE
 62
7
  6
CONTINUOUS
 10
38.1602260776
 20
105.5379457993
  0
VERTEX
  8
4_SURFACE
 62
7
  6
CONTINUOUS
 10
38.1813430394
 20
105.5566069081
  0
VERTEX
  8
4_SURFACE
 62
7
  6
CONTINUOUS
 10
38.2032379533
 20
105.5745416301
  0
VERTEX
  8
4_SURFACE
 62
7
  6
CONTINUOUS
 10
38.2259707788
 20
105.5916773247
  0
VERTEX
  8
4_SURFACE
 62
7
  6
CONTINUOUS
 10
38.2495753204
 20
105.6079137523
  0
VERTEX
  8
4_SURFACE
 62
7
  6
CONTINUOUS
 10
38.2740619134
 20
105.6230823821
  0
VERTEX
  8
4_SURFACE
 62
7
  6
CONTINUOUS
 10
38.2996256889
 20
105.6371102696
  0
VERTEX
  8
4_SURFACE
 62
7
  6
CONTINUOUS
 10
38.3263135678
 20
105.6497388116
  0
VERTEX
  8
4_SURFACE
 62
7
  6
CONTINUOUS
 10
38.3542094622
 20
105.6606947172
  0
VERTEX
  8
4_SURFACE
 62
7
  6
CONTINUOUS
 10
38.3833958625
 20
105.6695926929
  0
VERTEX
  8
4_SURFACE
 62
7
  6
CONTINUOUS
 10
38.4139903249
 20
105.6759620389
  0
VERTEX
  8
4_SURFACE
 62
7
  6
CONTINUOUS
 10
38.4453016259
 20
105.6791776716
  0
VERTEX
  8
4_SURFACE
 62
7
  6
CONTINUOUS
 10
38.4584685413
 20
105.6794929044
  0
SEQEND
  0
POLYLINE
  8
4_SURFACE
 62
7
  6
CONTINUOUS
 66
1
 70
0
  0
VERTEX
  8
4_SURFACE
 62
7
  6
CONTINUOUS
 10
59.7654954895
 20
104.63167273
  0
VERTEX
  8
4_SURFACE
 62
7
  6
CONTINUOUS
 10
59.7674571783
 20
104.6024060001
  0
VERTEX
  8
4_SURFACE
 62
7
  6
CONTINUOUS
 10
59.7694404322
 20
104.5749965653
  0
VERTEX
  8
4_SURFACE
 62
7
  6
CONTINUOUS
 10
59.7714539158
 20
104.5493314045
  0
VERTEX
  8
4_SURFACE
 62
7
  6
CONTINUOUS
 10
59.7735111877
 20
104.5252663191
  0
VERTEX
  8
4_SURFACE
 62
7
  6
CONTINUOUS
 10
59.7756330109
 20
104.5026195273
  0
VERTEX
  8
4_SURFACE
 62
7
  6
CONTINUOUS
 10
59.777851272
 20
104.4811587807
  0
VERTEX
  8
4_SURFACE
 62
7
  6
CONTINUOUS
 10
59.7802163564
 20
104.460578462
  0
VERTEX
  8
4_SURFACE
 62
7
  6
CONTINUOUS
 10
59.7828089904
 20
104.4404734134
  0
VERTEX
  8
4_SURFACE
 62
7
  6
CONTINUOUS
 10
59.785766108
 20
104.4202670415
  0
VERTEX
  8
4_SURFACE
 62
7
  6
CONTINUOUS
 10
59.7893001475
 20
104.3992761724
  0
VERTEX
  8
4_SURFACE
 62
7
  6
CONTINUOUS
 10
59.7937709097
 20
104.3765592113
  0
VERTEX
  8
4_SURFACE
 62
7
  6
CONTINUOUS
 10
59.7998266256
 20
104.3507234025
  0
VERTEX
  8
4_SURFACE
 62
7
  6
CONTINUOUS
 10
59.8086363283
 20
104.3198552577
  0
VERTEX
  8
4_SURFACE
 62
7
  6
CONTINUOUS
 10
59.8219693414
 20
104.282368035
  0
VERTEX
  8
4_SURFACE
 62
7
  6
CONTINUOUS
 10
59.8417408373
 20
104.2385445462
  0
VERTEX
  8
4_SURFACE
 62
7
  6
CONTINUOUS
 10
59.8691664367
 20
104.190976007
  0
VERTEX
  8
4_SURFACE
 62
7
  6
CONTINUOUS
 10
59.9055271676
 20
104.1417917173
  0
VERTEX
  8
4_SURFACE
 62
7
  6
CONTINUOUS
 10
59.9527406063
 20
104.0925465903
  0
VERTEX
  8
4_SURFACE
 62
7
  6
CONTINUOUS
 10
60.0122641173
 20
104.0459855102
  0
VERTEX
  8
4_SURFACE
 62
7
  6
CONTINUOUS
 10
60.0831175196
 20
104.0065422756
  0
VERTEX
  8
4_SURFACE
 62
7
  6
CONTINUOUS
 10
60.1625706995
 20
103.9781593783
  0
VERTEX
  8
4_SURFACE
 62
7
  6
CONTINUOUS
 10
60.2469789641
 20
103.9633653995
  0
VERTEX
  8
4_SURFACE
 62
7
  6
CONTINUOUS
 10
60.2900839365
 20
103.9614238202
  0
SEQEND
  0
LINE
  8
4_SURFACE
 62
7
  6
CONTINUOUS
 10
59.7616115267
 20
104.6962149943
 11
59.7654954895
 21
104.63167273
  0
LINE
  8
4_SURFACE
 62
7
  6
CONTINUOUS
 10
59.7577527294
 20
104.769442273
 11
59.7616115267
 21
104.6962149943
  0
LINE
  8
4_SURFACE
 62
7
  6
CONTINUOUS
 10
59.7539023973
 20
104.8520491596
 11
59.7577527294
 21
104.769442273
  0
POLYLINE
  8
4_SURFACE
 62
7
  6
CONTINUOUS
 66
1
 70
0
  0
VERTEX
  8
4_SURFACE
 62
7
  6
CONTINUOUS
 10
59.194849338
 20
154.0911720971
  0
VERTEX
  8
4_SURFACE
 62
7
  6
CONTINUOUS
 10
59.1928876493
 20
154.120438827
  0
VERTEX
  8
4_SURFACE
 62
7
  6
CONTINUOUS
 10
59.1909043954
 20
154.1478482618
  0
VERTEX
  8
4_SURFACE
 62
7
  6
CONTINUOUS
 10
59.1888909118
 20
154.1735134226
  0
VERTEX
  8
4_SURFACE
 62
7
  6
CONTINUOUS
 10
59.1868336398
 20
154.1975785081
  0
VERTEX
  8
4_SURFACE
 62
7
  6
CONTINUOUS
 10
59.1847118167
 20
154.2202252998
  0
VERTEX
  8
4_SURFACE
 62
7
  6
CONTINUOUS
 10
59.1824935556
 20
154.2416860464
  0
VERTEX
  8
4_SURFACE
 62
7
  6
CONTINUOUS
 10
59.1801284712
 20
154.2622663652
  0
VERTEX
  8
4_SURFACE
 62
7
  6
CONTINUOUS
 10
59.1775358372
 20
154.2823714137
  0
VERTEX
  8
4_SURFACE
 62
7
  6
CONTINUOUS
 10
59.1745787196
 20
154.3025777857
  0
VERTEX
  8
4_SURFACE
 62
7
  6
CONTINUOUS
 10
59.1710446801
 20
154.3235686548
  0
VERTEX
  8
4_SURFACE
 62
7
  6
CONTINUOUS
 10
59.1665739179
 20
154.3462856159
  0
VERTEX
  8
4_SURFACE
 62
7
  6
CONTINUOUS
 10
59.160518202
 20
154.3721214247
  0
VERTEX
  8
4_SURFACE
 62
7
  6
CONTINUOUS
 10
59.1517084993
 20
154.4029895695
  0
VERTEX
  8
4_SURFACE
 62
7
  6
CONTINUOUS
 10
59.1383754862
 20
154.4404767922
  0
VERTEX
  8
4_SURFACE
 62
7
  6
CONTINUOUS
 10
59.1186039903
 20
154.484300281
  0
VERTEX
  8
4_SURFACE
 62
7
  6
CONTINUOUS
 10
59.0911783908
 20
154.5318688202
  0
VERTEX
  8
4_SURFACE
 62
7
  6
CONTINUOUS
 10
59.05481766
 20
154.5810531098
  0
VERTEX
  8
4_SURFACE
 62
7
  6
CONTINUOUS
 10
59.0076042213
 20
154.6302982369
  0
VERTEX
  8
4_SURFACE
 62
7
  6
CONTINUOUS
 10
58.9480807102
 20
154.676859317
  0
VERTEX
  8
4_SURFACE
 62
7
  6
CONTINUOUS
 10
58.877227308
 20
154.7163025515
  0
VERTEX
  8
4_SURFACE
 62
7
  6
CONTINUOUS
 10
58.7977741281
 20
154.7446854489
  0
VERTEX
  8
4_SURFACE
 62
7
  6
CONTINUOUS
 10
58.7133658634
 20
154.7594794276
  0
VERTEX
  8
4_SURFACE
 62
7
  6
CONTINUOUS
 10
58.6702608911
 20
154.761421007
  0
SEQEND
  0
LINE
  8
4_SURFACE
 62
7
  6
CONTINUOUS
 10
59.6824818761
 20
113.5637252814
 11
59.6890522627
 21
113.4614224136
  0
LINE
  8
4_SURFACE
 62
7
  6
CONTINUOUS
 10
59.2778629515
 20
145.1591195458
 11
59.2712925649
 21
145.2614224136
  0
LINE
  8
4_SURFACE
 62
7
  6
CONTINUOUS
 10
59.1987333009
 20
154.0266298329
 11
59.194849338
 21
154.0911720971
  0
LINE
  8
4_SURFACE
 62
7
  6
CONTINUOUS
 10
59.2025920981
 20
153.9534025542
 11
59.1987333009
 21
154.0266298329
  0
LINE
  8
4_SURFACE
 62
7
  6
CONTINUOUS
 10
59.2064424303
 20
153.8707956676
 11
59.2025920981
 21
153.9534025542
  0
LINE
  8
4_SURFACE
 62
7
  6
CONTINUOUS
 10
59.7500551932
 20
104.944644202
 11
59.7539023973
 21
104.8520491596
  0
LINE
  8
4_SURFACE
 62
7
  6
CONTINUOUS
 10
59.2102896344
 20
153.7782006251
 11
59.2064424303
 21
153.8707956676
  0
LINE
  8
4_SURFACE
 62
7
  6
CONTINUOUS
 10
59.7442944123
 20
105.103404885
 11
59.7500551932
 21
104.944644202
  0
LINE
  8
4_SURFACE
 62
7
  6
CONTINUOUS
 10
59.2160504153
 20
153.6194399422
 11
59.2102896344
 21
153.7782006251
  0
LINE
  8
4_SURFACE
 62
7
  6
CONTINUOUS
 10
59.7385653976
 20
105.2873752023
 11
59.7442944123
 21
105.103404885
  0
LINE
  8
4_SURFACE
 62
7
  6
CONTINUOUS
 10
59.22177943
 20
153.4354696249
 11
59.2160504153
 21
153.6194399422
  0
LINE
  8
4_SURFACE
 62
7
  6
CONTINUOUS
 10
59.7310187855
 20
105.5747475092
 11
59.7385653976
 21
105.2873752023
  0
LINE
  8
4_SURFACE
 62
7
  6
CONTINUOUS
 10
59.2293260421
 20
153.1480973179
 11
59.22177943
 21
153.4354696249
  0
LINE
  8
4_SURFACE
 62
7
  6
CONTINUOUS
 10
59.7218226818
 20
106.0083641535
 11
59.7310187855
 21
105.5747475092
  0
LINE
  8
4_SURFACE
 62
7
  6
CONTINUOUS
 10
59.2385221458
 20
152.7144806737
 11
59.2293260421
 21
153.1480973179
  0
LINE
  8
4_SURFACE
 62
7
  6
CONTINUOUS
 10
59.7113959048
 20
106.6503264235
 11
59.7218226818
 21
106.0083641535
  0
LINE
  8
4_SURFACE
 62
7
  6
CONTINUOUS
 10
59.2489489228
 20
152.0725184036
 11
59.2385221458
 21
152.7144806737
  0
LINE
  8
4_SURFACE
 62
7
  6
CONTINUOUS
 10
59.2596317831
 20
151.1367742773
 11
59.2489489228
 21
152.0725184036
  0
LINE
  8
4_SURFACE
 62
7
  6
CONTINUOUS
 10
59.7007130445
 20
107.5860705499
 11
59.7113959048
 21
106.6503264235
  0
LINE
  8
4_SURFACE
 62
7
  6
CONTINUOUS
 10
59.2676297702
 20
149.9811690202
 11
59.2596317831
 21
151.1367742773
  0
LINE
  8
4_SURFACE
 62
7
  6
CONTINUOUS
 10
59.6927150574
 20
108.741675807
 11
59.7007130445
 21
107.5860705499
  0
LINE
  8
4_SURFACE
 62
7
  6
CONTINUOUS
 10
59.2711342901
 20
148.8078584596
 11
59.2676297702
 21
149.9811690202
  0
LINE
  8
4_SURFACE
 62
7
  6
CONTINUOUS
 10
59.6892105374
 20
109.9149863675
 11
59.6927150574
 21
108.741675807
  0
LINE
  8
4_SURFACE
 62
7
  6
CONTINUOUS
 10
59.2711342901
 20
148.8078584596
 11
59.2713687173
 21
145.2614224136
  0
LINE
  8
4_SURFACE
 62
7
  6
CONTINUOUS
 10
59.6892105374
 20
109.9149863675
 11
59.6889761103
 21
113.4614224136
  0
POLYLINE
  8
0
 62
7
  6
CONTINUOUS
 66
1
 70
0
  0
VERTEX
  8
0
 62
7
  6
CONTINUOUS
 10
122.5702522978
 20
103.961423803
  0
VERTEX
  8
0
 62
7
  6
CONTINUOUS
 10
122.6138775975
 20
103.9634108233
  0
VERTEX
  8
0
 62
7
  6
CONTINUOUS
 10
122.6975596596
 20
103.9781026101
  0
VERTEX
  8
0
 62
7
  6
CONTINUOUS
 10
122.7774347691
 20
104.0066367758
  0
VERTEX
  8
0
 62
7
  6
CONTINUOUS
 10
122.8494160661
 20
104.0468801609
  0
VERTEX
  8
0
 62
7
  6
CONTINUOUS
 10
122.9102579304
 20
104.094981554
  0
VERTEX
  8
0
 62
7
  6
CONTINUOUS
 10
122.95839227
 20
104.1461111852
  0
VERTEX
  8
0
 62
7
  6
CONTINUOUS
 10
122.994228513
 20
104.1957241789
  0
VERTEX
  8
0
 62
7
  6
CONTINUOUS
 10
123.0196448163
 20
104.2406061322
  0
VERTEX
  8
0
 62
7
  6
CONTINUOUS
 10
123.0375015296
 20
104.2801833673
  0
VERTEX
  8
0
 62
7
  6
CONTINUOUS
 10
123.0501621984
 20
104.3150318812
  0
VERTEX
  8
0
 62
7
  6
CONTINUOUS
 10
123.0590595931
 20
104.3451453616
  0
VERTEX
  8
0
 62
7
  6
CONTINUOUS
 10
123.0653931515
 20
104.3711333554
  0
VERTEX
  8
0
 62
7
  6
CONTINUOUS
 10
123.0700877404
 20
104.3940909692
  0
VERTEX
  8
0
 62
7
  6
CONTINUOUS
 10
123.0737819183
 20
104.4152588255
  0
VERTEX
  8
0
 62
7
  6
CONTINUOUS
 10
123.0768525779
 20
104.4355629033
  0
VERTEX
  8
0
 62
7
  6
CONTINUOUS
 10
123.079531063
 20
104.455728987
  0
VERTEX
  8
0
 62
7
  6
CONTINUOUS
 10
123.0819637866
 20
104.476350063
  0
VERTEX
  8
0
 62
7
  6
CONTINUOUS
 10
123.0842399373
 20
104.4978700432
  0
VERTEX
  8
0
 62
7
  6
CONTINUOUS
 10
123.0864149982
 20
104.5206271506
  0
VERTEX
  8
0
 62
7
  6
CONTINUOUS
 10
123.0885239388
 20
104.5448816847
  0
VERTEX
  8
0
 62
7
  6
CONTINUOUS
 10
123.0905891306
 20
104.5708362783
  0
VERTEX
  8
0
 62
7
  6
CONTINUOUS
 10
123.0926250333
 20
104.5986522836
  0
VERTEX
  8
0
 62
7
  6
CONTINUOUS
 10
123.0946410992
 20
104.6284621447
  0
VERTEX
  8
0
 62
7
  6
CONTINUOUS
 10
123.0966474933
 20
104.6604429374
  0
VERTEX
  8
0
 62
7
  6
CONTINUOUS
 10
123.1006662585
 20
104.7317313147
  0
SEQEND
  0
POLYLINE
  8
4_SURFACE
 62
7
  6
CONTINUOUS
 66
1
 70
0
  0
VERTEX
  8
4_SURFACE
 62
7
  6
CONTINUOUS
 10
79.9702010658
 20
103.9614235431
  0
VERTEX
  8
4_SURFACE
 62
7
  6
CONTINUOUS
 10
80.0138839167
 20
103.9634112106
  0
VERTEX
  8
4_SURFACE
 62
7
  6
CONTINUOUS
 10
80.0975702224
 20
103.9781052009
  0
VERTEX
  8
4_SURFACE
 62
7
  6
CONTINUOUS
 10
80.1774477544
 20
104.0066424733
  0
VERTEX
  8
4_SURFACE
 62
7
  6
CONTINUOUS
 10
80.2494298552
 20
104.0468892004
  0
VERTEX
  8
4_SURFACE
 62
7
  6
CONTINUOUS
 10
80.3102713055
 20
104.0949936856
  0
VERTEX
  8
4_SURFACE
 62
7
  6
CONTINUOUS
 10
80.358404455
 20
104.1461258639
  0
VERTEX
  8
4_SURFACE
 62
7
  6
CONTINUOUS
 10
80.3942386995
 20
104.1957400548
  0
VERTEX
  8
4_SURFACE
 62
7
  6
CONTINUOUS
 10
80.4196524625
 20
104.2406212455
  0
VERTEX
  8
4_SURFACE
 62
7
  6
CONTINUOUS
 10
80.437506911
 20
104.2801967024
  0
VERTEX
  8
4_SURFACE
 62
7
  6
CONTINUOUS
 10
80.4501657729
 20
104.3150429314
  0
VERTEX
  8
4_SURFACE
 62
7
  6
CONTINUOUS
 10
80.4590617849
 20
104.3451537507
  0
VERTEX
  8
4_SURFACE
 62
7
  6
CONTINUOUS
 10
80.4653943878
 20
104.3711391338
  0
VERTEX
  8
4_SURFACE
 62
7
  6
CONTINUOUS
 10
80.4700883657
 20
104.3940944198
  0
VERTEX
  8
4_SURFACE
 62
7
  6
CONTINUOUS
 10
80.4737825839
 20
104.4152629339
  0
VERTEX
  8
4_SURFACE
 62
7
  6
CONTINUOUS
 10
80.4768532132
 20
104.4355673546
  0
VERTEX
  8
4_SURFACE
 62
7
  6
CONTINUOUS
 10
80.4795316419
 20
104.4557335964
  0
VERTEX
  8
4_SURFACE
 62
7
  6
CONTINUOUS
 10
80.4819643058
 20
104.4763547334
  0
VERTEX
  8
4_SURFACE
 62
7
  6
CONTINUOUS
 10
80.4842404017
 20
104.4978746969
  0
VERTEX
  8
4_SURFACE
 62
7
  6
CONTINUOUS
 10
80.4864154146
 20
104.5206316878
  0
VERTEX
  8
4_SURFACE
 62
7
  6
CONTINUOUS
 10
80.4885243569
 20
104.5448865925
  0
VERTEX
  8
4_SURFACE
 62
7
  6
CONTINUOUS
 10
80.490589544
 20
104.570841611
  0
VERTEX
  8
4_SURFACE
 62
7
  6
CONTINUOUS
 10
80.4926254335
 20
104.5986579838
  0
VERTEX
  8
4_SURFACE
 62
7
  6
CONTINUOUS
 10
80.4946414822
 20
104.6284681222
  0
VERTEX
  8
4_SURFACE
 62
7
  6
CONTINUOUS
 10
80.4966478592
 20
104.6604490739
  0
VERTEX
  8
4_SURFACE
 62
7
  6
CONTINUOUS
 10
80.5006666167
 20
104.7317380352
  0
SEQEND
  0
LINE
  8
4_SURFACE
 62
7
  6
CONTINUOUS
 10
46.3202601617
 20
103.9614238187
 11
44.3630168033
 21
103.961422414
  0
LINE
  8
4_SURFACE
 62
7
  6
CONTINUOUS
 10
37.3973280243
 20
103.961422414
 11
34.8801724138
 21
103.961422414
  0
LINE
  8
0
 62
7
  6
CONTINUOUS
 10
60.2910870016
 20
103.961422414
 11
79.9692578259
 21
103.961422414
  0
LINE
  8
0
 62
7
  6
CONTINUOUS
 10
145.4630168033
 20
103.961422414
 11
147.9801724138
 21
103.961422414
  0
LINE
  8
4_SURFACE
 62
7
  6
CONTINUOUS
 10
60.290083891
 20
103.9614244613
 11
79.970201111
 21
103.9614243495
  0
LINE
  8
0
 62
7
  6
CONTINUOUS
 10
122.5702523433
 20
103.9614244441
 11
102.8901494736
 21
103.9614243386
  0
LINE
  8
0
 62
7
  6
CONTINUOUS
 10
136.5400763225
 20
103.9614238355
 11
138.4973280243
 21
103.961422414
  0
POLYLINE
  8
4_SURFACE
 62
7
  6
CONTINUOUS
 66
1
 70
0
  0
VERTEX
  8
4_SURFACE
 62
7
  6
CONTINUOUS
 10
43.3018750383
 20
105.6794932218
  0
VERTEX
  8
4_SURFACE
 62
7
  6
CONTINUOUS
 10
43.3134233898
 20
105.6792492064
  0
VERTEX
  8
4_SURFACE
 62
7
  6
CONTINUOUS
 10
43.3447600981
 20
105.6762082078
  0
VERTEX
  8
4_SURFACE
 62
7
  6
CONTINUOUS
 10
43.3754475737
 20
105.6699773483
  0
VERTEX
  8
4_SURFACE
 62
7
  6
CONTINUOUS
 10
43.4046974329
 20
105.6611955385
  0
VERTEX
  8
4_SURFACE
 62
7
  6
CONTINUOUS
 10
43.4326574761
 20
105.6503330774
  0
VERTEX
  8
4_SURFACE
 62
7
  6
CONTINUOUS
 10
43.459397221
 20
105.637784322
  0
VERTEX
  8
4_SURFACE
 62
7
  6
CONTINUOUS
 10
43.4850211739
 20
105.6238187909
  0
VERTEX
  8
4_SURFACE
 62
7
  6
CONTINUOUS
 10
43.5095525184
 20
105.6087073237
  0
VERTEX
  8
4_SURFACE
 62
7
  6
CONTINUOUS
 10
43.5332133735
 20
105.5925128673
  0
VERTEX
  8
4_SURFACE
 62
7
  6
CONTINUOUS
 10
43.5559874424
 20
105.5754204532
  0
VERTEX
  8
4_SURFACE
 62
7
  6
CONTINUOUS
 10
43.5779398891
 20
105.5575092117
  0
VERTEX
  8
4_SURFACE
 62
7
  6
CONTINUOUS
 10
43.5991052312
 20
105.5388733334
  0
VERTEX
  8
4_SURFACE
 62
7
  6
CONTINUOUS
 10
43.6194977303
 20
105.5195883436
  0
VERTEX
  8
4_SURFACE
 62
7
  6
CONTINUOUS
 10
43.6391816849
 20
105.4996696135
  0
VERTEX
  8
4_SURFACE
 62
7
  6
CONTINUOUS
 10
43.6581674496
 20
105.479163289
  0
VERTEX
  8
4_SURFACE
 62
7
  6
CONTINUOUS
 10
43.676480964
 20
105.4580790212
  0
VERTEX
  8
4_SURFACE
 62
7
  6
CONTINUOUS
 10
43.6941372703
 20
105.4364221184
  0
VERTEX
  8
4_SURFACE
 62
7
  6
CONTINUOUS
 10
43.7111397453
 20
105.4141932769
  0
VERTEX
  8
4_SURFACE
 62
7
  6
CONTINUOUS
 10
43.7274604332
 20
105.3914166983
  0
VERTEX
  8
4_SURFACE
 62
7
  6
CONTINUOUS
 10
43.7430491688
 20
105.3681369394
  0
VERTEX
  8
4_SURFACE
 62
7
  6
CONTINUOUS
 10
43.7578678305
 20
105.344370511
  0
VERTEX
  8
4_SURFACE
 62
7
  6
CONTINUOUS
 10
43.7718556937
 20
105.3201489633
  0
VERTEX
  8
4_SURFACE
 62
7
  6
CONTINUOUS
 10
43.7849301292
 20
105.2955285429
  0
VERTEX
  8
4_SURFACE
 62
7
  6
CONTINUOUS
 10
43.7969728125
 20
105.2706185398
  0
VERTEX
  8
4_SURFACE
 62
7
  6
CONTINUOUS
 10
43.8078525583
 20
105.2455553437
  0
VERTEX
  8
4_SURFACE
 62
7
  6
CONTINUOUS
 10
43.8129967374
 20
105.2325318201
  0
SEQEND
  0
POLYLINE
  8
4_SURFACE
 62
7
  6
CONTINUOUS
 66
1
 70
0
  0
VERTEX
  8
4_SURFACE
 62
7
  6
CONTINUOUS
 10
46.3202601617
 20
103.9614238187
  0
VERTEX
  8
4_SURFACE
 62
7
  6
CONTINUOUS
 10
46.3611730143
 20
103.9631767294
  0
VERTEX
  8
4_SURFACE
 62
7
  6
CONTINUOUS
 10
46.4451462818
 20
103.9774707904
  0
VERTEX
  8
4_SURFACE
 62
7
  6
CONTINUOUS
 10
46.5255244471
 20
104.0057708975
  0
VERTEX
  8
4_SURFACE
 62
7
  6
CONTINUOUS
 10
46.5980815055
 20
104.0459860412
  0
VERTEX
  8
4_SURFACE
 62
7
  6
CONTINUOUS
 10
46.6594491048
 20
104.094235698
  0
VERTEX
  8
4_SURFACE
 62
7
  6
CONTINUOUS
 10
46.7079711059
 20
104.1455971803
  0
VERTEX
  8
4_SURFACE
 62
7
  6
CONTINUOUS
 10
46.7439864973
 20
104.1953431897
  0
VERTEX
  8
4_SURFACE
 62
7
  6
CONTINUOUS
 10
46.7694248144
 20
104.2401684665
  0
VERTEX
  8
4_SURFACE
 62
7
  6
CONTINUOUS
 10
46.7873327487
 20
104.2797646473
  0
VERTEX
  8
4_SURFACE
 62
7
  6
CONTINUOUS
 10
46.8000905081
 20
104.3148118332
  0
VERTEX
  8
4_SURFACE
 62
7
  6
CONTINUOUS
 10
46.8090616396
 20
104.3451530391
  0
VERTEX
  8
4_SURFACE
 62
7
  6
CONTINUOUS
 10
46.8154326466
 20
104.3713114578
  0
VERTEX
  8
4_SURFACE
 62
7
  6
CONTINUOUS
 10
46.8201487746
 20
104.3944159811
  0
VERTEX
  8
4_SURFACE
 62
7
  6
CONTINUOUS
 10
46.8238540334
 20
104.4157050678
  0
VERTEX
  8
4_SURFACE
 62
7
  6
CONTINUOUS
 10
46.8269285174
 20
104.4361011515
  0
VERTEX
  8
4_SURFACE
 62
7
  6
CONTINUOUS
 10
46.8296104152
 20
104.4563653861
  0
VERTEX
  8
4_SURFACE
 62
7
  6
CONTINUOUS
 10
46.8320469791
 20
104.4770973975
  0
VERTEX
  8
4_SURFACE
 62
7
  6
CONTINUOUS
 10
46.8343272225
 20
104.4987409059
  0
VERTEX
  8
4_SURFACE
 62
7
  6
CONTINUOUS
 10
46.8365063191
 20
104.5216318337
  0
VERTEX
  8
4_SURFACE
 62
7
  6
CONTINUOUS
 10
46.8386188742
 20
104.5460261917
  0
VERTEX
  8
4_SURFACE
 62
7
  6
CONTINUOUS
 10
46.8406869328
 20
104.5721211955
  0
VERTEX
  8
4_SURFACE
 62
7
  6
CONTINUOUS
 10
46.8427246088
 20
104.6000710604
  0
VERTEX
  8
4_SURFACE
 62
7
  6
CONTINUOUS
 10
46.8447418571
 20
104.6300124993
  0
VERTEX
  8
4_SURFACE
 62
7
  6
CONTINUOUS
 10
46.8467498009
 20
104.6621368609
  0
VERTEX
  8
4_SURFACE
 62
7
  6
CONTINUOUS
 10
46.8507718558
 20
104.7337383717
  0
SEQEND
  0
LINE
  8
0
 62
7
  6
CONTINUOUS
 10
144.4018762845
 20
105.6794945944
 11
139.5584697787
 21
105.6794945944
  0
LINE
  8
4_SURFACE
 62
7
  6
CONTINUOUS
 10
43.3018750489
 20
105.6794945944
 11
38.4584685431
 21
105.6794945944
  0
POLYLINE
  8
0
 62
7
  6
CONTINUOUS
 66
1
 70
0
  0
VERTEX
  8
0
 62
7
  6
CONTINUOUS
 10
144.4018762863
 20
105.6794929044
  0
VERTEX
  8
0
 62
7
  6
CONTINUOUS
 10
144.4149275582
 20
105.6791830966
  0
VERTEX
  8
0
 62
7
  6
CONTINUOUS
 10
144.4461255497
 20
105.6759979081
  0
VERTEX
  8
0
 62
7
  6
CONTINUOUS
 10
144.4767395981
 20
105.6696467938
  0
VERTEX
  8
0
 62
7
  6
CONTINUOUS
 10
144.5058668953
 20
105.6607886105
  0
VERTEX
  8
0
 62
7
  6
CONTINUOUS
 10
144.5337356156
 20
105.649867111
  0
VERTEX
  8
0
 62
7
  6
CONTINUOUS
 10
144.5604223953
 20
105.637262129
  0
VERTEX
  8
0
 62
7
  6
CONTINUOUS
 10
144.5859987294
 20
105.6232484644
  0
VERTEX
  8
0
 62
7
  6
CONTINUOUS
 10
144.610511057
 20
105.6080827925
  0
VERTEX
  8
0
 62
7
  6
CONTINUOUS
 10
144.6341450617
 20
105.5918424001
  0
VERTEX
  8
0
 62
7
  6
CONTINUOUS
 10
144.6569194031
 20
105.5746890841
  0
VERTEX
  8
0
 62
7
  6
CONTINUOUS
 10
144.6788636434
 20
105.5567245293
  0
VERTEX
  8
0
 62
7
  6
CONTINUOUS
 10
144.7000338006
 20
105.5380236249
  0
VERTEX
  8
0
 62
7
  6
CONTINUOUS
 10
144.7204286163
 20
105.5186760451
  0
VERTEX
  8
0
 62
7
  6
CONTINUOUS
 10
144.7401110128
 20
105.4986962118
  0
VERTEX
  8
0
 62
7
  6
CONTINUOUS
 10
144.7590924066
 20
105.4781299463
  0
VERTEX
  8
0
 62
7
  6
CONTINUOUS
 10
144.7773930465
 20
105.4569934217
  0
VERTEX
  8
0
 62
7
  6
CONTINUOUS
 10
144.7950274349
 20
105.4352931865
  0
VERTEX
  8
0
 62
7
  6
CONTINUOUS
 10
144.8119978913
 20
105.413032436
  0
VERTEX
  8
0
 62
7
  6
CONTINUOUS
 10
144.8282759334
 20
105.3902378868
  0
VERTEX
  8
0
 62
7
  6
CONTINUOUS
 10
144.8438128836
 20
105.3669536382
  0
VERTEX
  8
0
 62
7
  6
CONTINUOUS
 10
144.8585740533
 20
105.3431924086
  0
VERTEX
  8
0
 62
7
  6
CONTINUOUS
 10
144.8725000372
 20
105.3189845465
  0
VERTEX
  8
0
 62
7
  6
CONTINUOUS
 10
144.8855099737
 20
105.2943835556
  0
VERTEX
  8
0
 62
7
  6
CONTINUOUS
 10
144.8974865242
 20
105.2694970093
  0
VERTEX
  8
0
 62
7
  6
CONTINUOUS
 10
144.9082984207
 20
105.2444611528
  0
VERTEX
  8
0
 62
7
  6
CONTINUOUS
 10
144.9129973564
 20
105.2325301986
  0
SEQEND
  0
POLYLINE
  8
0
 62
7
  6
CONTINUOUS
 66
1
 70
0
  0
VERTEX
  8
0
 62
7
  6
CONTINUOUS
 10
123.9495766815
 20
114.261120338
  0
VERTEX
  8
0
 62
7
  6
CONTINUOUS
 10
123.8692579945
 20
114.2548580383
  0
VERTEX
  8
0
 62
7
  6
CONTINUOUS
 10
123.7668759375
 20
114.2348113048
  0
VERTEX
  8
0
 62
7
  6
CONTINUOUS
 10
123.6669472313
 20
114.201199761
  0
VERTEX
  8
0
 62
7
  6
CONTINUOUS
 10
123.5720115017
 20
114.1545782251
  0
VERTEX
  8
0
 62
7
  6
CONTINUOUS
 10
123.4843864822
 20
114.096101857
  0
VERTEX
  8
0
 62
7
  6
CONTINUOUS
 10
123.4056880095
 20
114.027108403
  0
VERTEX
  8
0
 62
7
  6
CONTINUOUS
 10
123.3366767206
 20
113.9484448063
  0
VERTEX
  8
0
 62
7
  6
CONTINUOUS
 10
123.2781901635
 20
113.8608698981
  0
VERTEX
  8
0
 62
7
  6
CONTINUOUS
 10
123.2315543109
 20
113.7659823759
  0
VERTEX
  8
0
 62
7
  6
CONTINUOUS
 10
123.1979247109
 20
113.6660881168
  0
SEQEND
  0
LINE
  8
1_AXIS
 62
2
  6
CENTER
 10
29.7751641138
 20
110.3114224136
 11
150.4801724138
 21
110.3114224136
  0
POLYLINE
  8
4_SURFACE
 62
7
  6
CONTINUOUS
 66
1
 70
0
  0
VERTEX
  8
4_SURFACE
 62
7
  6
CONTINUOUS
 10
58.9107707809
 20
114.2611186841
  0
VERTEX
  8
4_SURFACE
 62
7
  6
CONTINUOUS
 10
58.9803332438
 20
114.256168919
  0
VERTEX
  8
4_SURFACE
 62
7
  6
CONTINUOUS
 10
59.0971047808
 20
114.2338345999
  0
VERTEX
  8
4_SURFACE
 62
7
  6
CONTINUOUS
 10
59.2092753773
 20
114.194451475
  0
VERTEX
  8
4_SURFACE
 62
7
  6
CONTINUOUS
 10
59.3143864018
 20
114.1388780262
  0
VERTEX
  8
4_SURFACE
 62
7
  6
CONTINUOUS
 10
59.4101084237
 20
114.0683392453
  0
VERTEX
  8
4_SURFACE
 62
7
  6
CONTINUOUS
 10
59.4943194954
 20
113.9843945797
  0
VERTEX
  8
4_SURFACE
 62
7
  6
CONTINUOUS
 10
59.5651587071
 20
113.8888969225
  0
VERTEX
  8
4_SURFACE
 62
7
  6
CONTINUOUS
 10
59.6210576224
 20
113.7839610804
  0
VERTEX
  8
4_SURFACE
 62
7
  6
CONTINUOUS
 10
59.660780568
 20
113.6719123705
  0
VERTEX
  8
4_SURFACE
 62
7
  6
CONTINUOUS
 10
59.6834579097
 20
113.5552130155
  0
VERTEX
  8
4_SURFACE
 62
7
  6
CONTINUOUS
 10
59.6889749858
 20
113.4614224135
  0
SEQEND
  0
POLYLINE
  8
4_SURFACE
 62
7
  6
CONTINUOUS
 66
1
 70
0
  0
VERTEX
  8
4_SURFACE
 62
7
  6
CONTINUOUS
 10
58.9107681461
 20
114.261120338
  0
VERTEX
  8
4_SURFACE
 62
7
  6
CONTINUOUS
 10
58.9910868331
 20
114.2548580383
  0
VERTEX
  8
4_SURFACE
 62
7
  6
CONTINUOUS
 10
59.0934688901
 20
114.2348113048
  0
VERTEX
  8
4_SURFACE
 62
7
  6
CONTINUOUS
 10
59.1933975963
 20
114.201199761
  0
VERTEX
  8
4_SURFACE
 62
7
  6
CONTINUOUS
 10
59.2883333259
 20
114.1545782251
  0
VERTEX
  8
4_SURFACE
 62
7
  6
CONTINUOUS
 10
59.3759583454
 20
114.096101857
  0
VERTEX
  8
4_SURFACE
 62
7
  6
CONTINUOUS
 10
59.454656818
 20
114.027108403
  0
VERTEX
  8
4_SURFACE
 62
7
  6
CONTINUOUS
 10
59.523668107
 20
113.9484448063
  0
VERTEX
  8
4_SURFACE
 62
7
  6
CONTINUOUS
 10
59.5821546641
 20
113.8608698981
  0
VERTEX
  8
4_SURFACE
 62
7
  6
CONTINUOUS
 10
59.6287905167
 20
113.7659823759
  0
VERTEX
  8
4_SURFACE
 62
7
  6
CONTINUOUS
 10
59.6624201167
 20
113.6660881168
  0
SEQEND
  0
POLYLINE
  8
4_SURFACE
 62
7
  6
CONTINUOUS
 66
1
 70
0
  0
VERTEX
  8
4_SURFACE
 62
7
  6
CONTINUOUS
 10
81.3615618891
 20
114.2613598936
  0
VERTEX
  8
4_SURFACE
 62
7
  6
CONTINUOUS
 10
81.2690582284
 20
114.2548322718
  0
VERTEX
  8
4_SURFACE
 62
7
  6
CONTINUOUS
 10
81.1665499958
 20
114.2347250244
  0
VERTEX
  8
4_SURFACE
 62
7
  6
CONTINUOUS
 10
81.0665824702
 20
114.2010495603
  0
VERTEX
  8
4_SURFACE
 62
7
  6
CONTINUOUS
 10
80.9716937676
 20
114.1543951021
  0
VERTEX
  8
4_SURFACE
 62
7
  6
CONTINUOUS
 10
80.8841565918
 20
114.0959254471
  0
VERTEX
  8
4_SURFACE
 62
7
  6
CONTINUOUS
 10
80.8055222343
 20
114.0269426354
  0
VERTEX
  8
4_SURFACE
 62
7
  6
CONTINUOUS
 10
80.7365399369
 20
113.9482665623
  0
VERTEX
  8
4_SURFACE
 62
7
  6
CONTINUOUS
 10
80.6780696841
 20
113.8606608352
  0
VERTEX
  8
4_SURFACE
 62
7
  6
CONTINUOUS
 10
80.6314639182
 20
113.7657627996
  0
VERTEX
  8
4_SURFACE
 62
7
  6
CONTINUOUS
 10
80.5978754897
 20
113.6659020966
  0
SEQEND
  0
LINE
  8
0
 62
7
  6
CONTINUOUS
 10
123.9715667438
 20
114.2614224136
 11
123.9495766815
 21
114.261120338
  0
LINE
  8
4_SURFACE
 62
7
  6
CONTINUOUS
 10
47.6996257767
 20
114.2611216856
 11
47.7215667438
 21
114.2614224136
  0
LINE
  8
4_SURFACE
 62
7
  6
CONTINUOUS
 10
81.3715667438
 20
114.2614224136
 11
81.3615618891
 21
114.2613598936
  0
LINE
  8
0
 62
7
  6
CONTINUOUS
 10
135.1387780838
 20
114.2614224136
 11
123.9715667438
 21
114.2614224136
  0
LINE
  8
0
 62
7
  6
CONTINUOUS
 10
101.4887780838
 20
114.2614224136
 11
81.3715667438
 21
114.2614224136
  0
LINE
  8
4_SURFACE
 62
7
  6
CONTINUOUS
 10
58.8887780838
 20
114.2614224136
 11
47.7215667438
 21
114.2614224136
  0
LINE
  8
0
 62
7
  6
CONTINUOUS
 10
101.4887780838
 20
114.2614224136
 11
101.4987829385
 21
114.2613598936
  0
LINE
  8
4_SURFACE
 62
7
  6
CONTINUOUS
 10
58.8887780838
 20
114.2614224136
 11
58.9107681461
 21
114.261120338
  0
LINE
  8
0
 62
7
  6
CONTINUOUS
 10
135.1607190509
 20
114.2611216856
 11
135.1387780838
 21
114.2614224136
  0
POLYLINE
  8
0
 62
7
  6
CONTINUOUS
 66
1
 70
0
  0
VERTEX
  8
0
 62
7
  6
CONTINUOUS
 10
101.4987841562
 20
114.2613582812
  0
VERTEX
  8
0
 62
7
  6
CONTINUOUS
 10
101.5804322138
 20
114.2561574375
  0
VERTEX
  8
0
 62
7
  6
CONTINUOUS
 10
101.6972781522
 20
114.2337875167
  0
VERTEX
  8
0
 62
7
  6
CONTINUOUS
 10
101.8094925261
 20
114.1943563279
  0
VERTEX
  8
0
 62
7
  6
CONTINUOUS
 10
101.9146105517
 20
114.1387370663
  0
VERTEX
  8
0
 62
7
  6
CONTINUOUS
 10
102.0103118016
 20
114.0681645042
  0
VERTEX
  8
0
 62
7
  6
CONTINUOUS
 10
102.0944845462
 20
113.9842035266
  0
VERTEX
  8
0
 62
7
  6
CONTINUOUS
 10
102.1652768233
 20
113.8887101697
  0
VERTEX
  8
0
 62
7
  6
CONTINUOUS
 10
102.2211287715
 20
113.7837997527
  0
VERTEX
  8
0
 62
7
  6
CONTINUOUS
 10
102.2608125952
 20
113.6717952169
  0
VERTEX
  8
0
 62
7
  6
CONTINUOUS
 10
102.2834651025
 20
113.5551522222
  0
VERTEX
  8
0
 62
7
  6
CONTINUOUS
 10
102.2889750079
 20
113.4614224135
  0
SEQEND
  0
POLYLINE
  8
0
 62
7
  6
CONTINUOUS
 66
1
 70
0
  0
VERTEX
  8
0
 62
7
  6
CONTINUOUS
 10
101.4987829385
 20
114.2613598936
  0
VERTEX
  8
0
 62
7
  6
CONTINUOUS
 10
101.5912865992
 20
114.2548322718
  0
VERTEX
  8
0
 62
7
  6
CONTINUOUS
 10
101.6937948318
 20
114.2347250244
  0
VERTEX
  8
0
 62
7
  6
CONTINUOUS
 10
101.7937623574
 20
114.2010495603
  0
VERTEX
  8
0
 62
7
  6
CONTINUOUS
 10
101.88865106
 20
114.1543951021
  0
VERTEX
  8
0
 62
7
  6
CONTINUOUS
 10
101.9761882358
 20
114.0959254471
  0
VERTEX
  8
0
 62
7
  6
CONTINUOUS
 10
102.0548225933
 20
114.0269426354
  0
VERTEX
  8
0
 62
7
  6
CONTINUOUS
 10
102.1238048907
 20
113.9482665623
  0
VERTEX
  8
0
 62
7
  6
CONTINUOUS
 10
102.1822751435
 20
113.8606608352
  0
VERTEX
  8
0
 62
7
  6
CONTINUOUS
 10
102.2288809094
 20
113.7657627996
  0
VERTEX
  8
0
 62
7
  6
CONTINUOUS
 10
102.2624693379
 20
113.6659020966
  0
SEQEND
  0
LINE
  8
4_SURFACE
 62
7
  6
CONTINUOUS
 10
80.5700722545
 20
109.3814786934
 11
80.5713687173
 21
113.4614224136
  0
LINE
  8
4_SURFACE
 62
7
  6
CONTINUOUS
 10
80.9902747309
 20
149.3421347445
 11
80.9889761103
 21
145.2614224136
  0
LINE
  8
4_SURFACE
 62
7
  6
CONTINUOUS
 10
80.5652715456
 20
108.3186480861
 11
80.5700722545
 21
109.3814786934
  0
LINE
  8
4_SURFACE
 62
7
  6
CONTINUOUS
 10
80.9950672284
 20
150.4032374992
 11
80.9902747309
 21
149.3421347445
  0
LINE
  8
4_SURFACE
 62
7
  6
CONTINUOUS
 10
81.0040244748
 20
151.4708154174
 11
80.9950672284
 21
150.4032374992
  0
LINE
  8
4_SURFACE
 62
7
  6
CONTINUOUS
 10
80.556295066
 20
107.249663828
 11
80.5652715456
 21
108.3186480861
  0
LINE
  8
4_SURFACE
 62
7
  6
CONTINUOUS
 10
81.015194534
 20
152.3291473229
 11
81.0040244748
 21
151.4708154174
  0
LINE
  8
4_SURFACE
 62
7
  6
CONTINUOUS
 10
80.5451009776
 20
106.3905553942
 11
80.556295066
 21
107.249663828
  0
LINE
  8
4_SURFACE
 62
7
  6
CONTINUOUS
 10
81.0255281147
 20
152.9016485892
 11
81.015194534
 21
152.3291473229
  0
LINE
  8
4_SURFACE
 62
7
  6
CONTINUOUS
 10
80.5347465693
 20
105.8178244605
 11
80.5451009776
 21
106.3905553942
  0
LINE
  8
4_SURFACE
 62
7
  6
CONTINUOUS
 10
81.0341431244
 20
153.273760232
 11
81.0255281147
 21
152.9016485892
  0
LINE
  8
4_SURFACE
 62
7
  6
CONTINUOUS
 10
80.5261161813
 20
105.4457823027
 11
80.5347465693
 21
105.8178244605
  0
LINE
  8
4_SURFACE
 62
7
  6
CONTINUOUS
 10
81.0406561288
 20
153.50579782
 11
81.0341431244
 21
153.273760232
  0
LINE
  8
4_SURFACE
 62
7
  6
CONTINUOUS
 10
80.5195925799
 20
105.2139038605
 11
80.5261161813
 21
105.4457823027
  0
LINE
  8
4_SURFACE
 62
7
  6
CONTINUOUS
 10
81.0471177347
 20
153.7003699944
 11
81.0406561288
 21
153.50579782
  0
LINE
  8
4_SURFACE
 62
7
  6
CONTINUOUS
 10
80.513122167
 20
105.0195846832
 11
80.5195925799
 21
105.2139038605
  0
LINE
  8
4_SURFACE
 62
7
  6
CONTINUOUS
 10
81.0513525025
 20
153.8105830447
 11
81.0471177347
 21
153.7003699944
  0
LINE
  8
4_SURFACE
 62
7
  6
CONTINUOUS
 10
80.5088843441
 20
104.9096201455
 11
80.513122167
 21
105.0195846832
  0
LINE
  8
4_SURFACE
 62
7
  6
CONTINUOUS
 10
81.0555028439
 20
153.9063229385
 11
81.0513525025
 21
153.8105830447
  0
LINE
  8
4_SURFACE
 62
7
  6
CONTINUOUS
 10
80.5047343088
 20
104.8141931771
 11
80.5088843441
 21
104.9096201455
  0
LINE
  8
4_SURFACE
 62
7
  6
CONTINUOUS
 10
81.0595729717
 20
153.9891064555
 11
81.0555028439
 21
153.9063229385
  0
LINE
  8
4_SURFACE
 62
7
  6
CONTINUOUS
 10
80.5006666167
 20
104.7317380352
 11
80.5047343088
 21
104.8141931771
  0
POLYLINE
  8
4_SURFACE
 62
7
  6
CONTINUOUS
 66
1
 70
0
  0
VERTEX
  8
4_SURFACE
 62
7
  6
CONTINUOUS
 10
80.9889749889
 20
145.2614224136
  0
VERTEX
  8
4_SURFACE
 62
7
  6
CONTINUOUS
 10
80.9837223111
 20
145.1698986177
  0
VERTEX
  8
4_SURFACE
 62
7
  6
CONTINUOUS
 10
80.9613840047
 20
145.0531569563
  0
VERTEX
  8
4_SURFACE
 62
7
  6
CONTINUOUS
 10
80.9219914033
 20
144.9410109861
  0
VERTEX
  8
4_SURFACE
 62
7
  6
CONTINUOUS
 10
80.8664037785
 20
144.8359232977
  0
VERTEX
  8
4_SURFACE
 62
7
  6
CONTINUOUS
 10
80.7958473829
 20
144.7402237155
  0
VERTEX
  8
4_SURFACE
 62
7
  6
CONTINUOUS
 10
80.7118823992
 20
144.6560331721
  0
VERTEX
  8
4_SURFACE
 62
7
  6
CONTINUOUS
 10
80.6163625201
 20
144.585211736
  0
VERTEX
  8
4_SURFACE
 62
7
  6
CONTINUOUS
 10
80.5114035064
 20
144.5293270879
  0
VERTEX
  8
4_SURFACE
 62
7
  6
CONTINUOUS
 10
80.3993302029
 20
144.4896136487
  0
VERTEX
  8
4_SURFACE
 62
7
  6
CONTINUOUS
 10
80.2826008945
 20
144.4669402969
  0
VERTEX
  8
4_SURFACE
 62
7
  6
CONTINUOUS
 10
80.2107216798
 20
144.4617247961
  0
SEQEND
  0
POLYLINE
  8
4_SURFACE
 62
7
  6
CONTINUOUS
 66
1
 70
0
  0
VERTEX
  8
4_SURFACE
 62
7
  6
CONTINUOUS
 10
80.5713698197
 20
113.4614224135
  0
VERTEX
  8
4_SURFACE
 62
7
  6
CONTINUOUS
 10
80.5768797251
 20
113.5551522222
  0
VERTEX
  8
4_SURFACE
 62
7
  6
CONTINUOUS
 10
80.5995322324
 20
113.6717952169
  0
VERTEX
  8
4_SURFACE
 62
7
  6
CONTINUOUS
 10
80.6392160561
 20
113.7837997527
  0
VERTEX
  8
4_SURFACE
 62
7
  6
CONTINUOUS
 10
80.6950680043
 20
113.8887101697
  0
VERTEX
  8
4_SURFACE
 62
7
  6
CONTINUOUS
 10
80.7658602814
 20
113.9842035266
  0
VERTEX
  8
4_SURFACE
 62
7
  6
CONTINUOUS
 10
80.850033026
 20
114.0681645042
  0
VERTEX
  8
4_SURFACE
 62
7
  6
CONTINUOUS
 10
80.9457342759
 20
114.1387370663
  0
VERTEX
  8
4_SURFACE
 62
7
  6
CONTINUOUS
 10
81.0508523015
 20
114.1943563279
  0
VERTEX
  8
4_SURFACE
 62
7
  6
CONTINUOUS
 10
81.1630666754
 20
114.2337875167
  0
VERTEX
  8
4_SURFACE
 62
7
  6
CONTINUOUS
 10
81.2799126137
 20
114.2561574375
  0
VERTEX
  8
4_SURFACE
 62
7
  6
CONTINUOUS
 10
81.3615606714
 20
114.2613582812
  0
SEQEND
  0
LINE
  8
4_SURFACE
 62
7
  6
CONTINUOUS
 10
80.5778487983
 20
113.5636154908
 11
80.5712925649
 21
113.4614224136
  0
POLYLINE
  8
4_SURFACE
 62
7
  6
CONTINUOUS
 66
1
 70
0
  0
VERTEX
  8
4_SURFACE
 62
7
  6
CONTINUOUS
 10
80.9890522627
 20
145.2614224136
  0
VERTEX
  8
4_SURFACE
 62
7
  6
CONTINUOUS
 10
80.9824818761
 20
145.1591195458
  0
VERTEX
  8
4_SURFACE
 62
7
  6
CONTINUOUS
 10
80.9624201167
 20
145.0567567104
  0
VERTEX
  8
4_SURFACE
 62
7
  6
CONTINUOUS
 10
80.9287905167
 20
144.9568624513
  0
VERTEX
  8
4_SURFACE
 62
7
  6
CONTINUOUS
 10
80.8821546641
 20
144.8619749291
  0
VERTEX
  8
4_SURFACE
 62
7
  6
CONTINUOUS
 10
80.823668107
 20
144.7744000209
  0
VERTEX
  8
4_SURFACE
 62
7
  6
CONTINUOUS
 10
80.754656818
 20
144.6957364242
  0
VERTEX
  8
4_SURFACE
 62
7
  6
CONTINUOUS
 10
80.6759583454
 20
144.6267429702
  0
VERTEX
  8
4_SURFACE
 62
7
  6
CONTINUOUS
 10
80.5883333259
 20
144.568266602
  0
VERTEX
  8
4_SURFACE
 62
7
  6
CONTINUOUS
 10
80.4933975963
 20
144.5216450662
  0
VERTEX
  8
4_SURFACE
 62
7
  6
CONTINUOUS
 10
80.3934688901
 20
144.4880335223
  0
SEQEND
  0
LINE
  8
4_SURFACE
 62
7
  6
CONTINUOUS
 10
47.6192579945
 20
114.2548580383
 11
47.6996257767
 21
114.2611216856
  0
POLYLINE
  8
0
 62
7
  6
CONTINUOUS
 66
1
 70
0
  0
VERTEX
  8
0
 62
7
  6
CONTINUOUS
 10
135.1607216798
 20
114.261120031
  0
VERTEX
  8
0
 62
7
  6
CONTINUOUS
 10
135.2326008945
 20
114.2559045303
  0
VERTEX
  8
0
 62
7
  6
CONTINUOUS
 10
135.3493302029
 20
114.2332311785
  0
VERTEX
  8
0
 62
7
  6
CONTINUOUS
 10
135.4614035064
 20
114.1935177393
  0
VERTEX
  8
0
 62
7
  6
CONTINUOUS
 10
135.5663625201
 20
114.1376330912
  0
VERTEX
  8
0
 62
7
  6
CONTINUOUS
 10
135.6618823992
 20
114.0668116551
  0
VERTEX
  8
0
 62
7
  6
CONTINUOUS
 10
135.7458473829
 20
113.9826211116
  0
VERTEX
  8
0
 62
7
  6
CONTINUOUS
 10
135.8164037785
 20
113.8869215295
  0
VERTEX
  8
0
 62
7
  6
CONTINUOUS
 10
135.8719914033
 20
113.7818338411
  0
VERTEX
  8
0
 62
7
  6
CONTINUOUS
 10
135.9113840047
 20
113.6696878709
  0
VERTEX
  8
0
 62
7
  6
CONTINUOUS
 10
135.9337223111
 20
113.5529462095
  0
VERTEX
  8
0
 62
7
  6
CONTINUOUS
 10
135.9389749889
 20
113.4614224135
  0
SEQEND
  0
LINE
  8
0
 62
7
  6
CONTINUOUS
 10
135.2410868331
 20
114.2548580383
 11
135.1607190509
 21
114.2611216856
  0
POLYLINE
  8
0
 62
7
  6
CONTINUOUS
 66
1
 70
0
  0
VERTEX
  8
0
 62
7
  6
CONTINUOUS
 10
102.3660950886
 20
104.6224955367
  0
VERTEX
  8
0
 62
7
  6
CONTINUOUS
 10
102.3680362899
 20
104.5941792469
  0
VERTEX
  8
0
 62
7
  6
CONTINUOUS
 10
102.3700005917
 20
104.5676411755
  0
VERTEX
  8
0
 62
7
  6
CONTINUOUS
 10
102.3719974478
 20
104.5427652857
  0
VERTEX
  8
0
 62
7
  6
CONTINUOUS
 10
102.3740415314
 20
104.5194037142
  0
VERTEX
  8
0
 62
7
  6
CONTINUOUS
 10
102.3761549752
 20
104.497371927
  0
VERTEX
  8
0
 62
7
  6
CONTINUOUS
 10
102.3783720746
 20
104.4764304866
  0
VERTEX
  8
0
 62
7
  6
CONTINUOUS
 10
102.3807467004
 20
104.4562666593
  0
VERTEX
  8
0
 62
7
  6
CONTINUOUS
 10
102.3833654249
 20
104.4364628155
  0
VERTEX
  8
0
 62
7
  6
CONTINUOUS
 10
102.386373834
 20
104.4164317332
  0
VERTEX
  8
0
 62
7
  6
CONTINUOUS
 10
102.3899946768
 20
104.3954938606
  0
VERTEX
  8
0
 62
7
  6
CONTINUOUS
 10
102.3946103832
 20
104.3726802012
  0
VERTEX
  8
0
 62
7
  6
CONTINUOUS
 10
102.4009088308
 20
104.3465644898
  0
VERTEX
  8
0
 62
7
  6
CONTINUOUS
 10
102.41010792
 20
104.3152615959
  0
VERTEX
  8
0
 62
7
  6
CONTINUOUS
 10
102.4239651737
 20
104.2774190535
  0
VERTEX
  8
0
 62
7
  6
CONTINUOUS
 10
102.4442876205
 20
104.233593698
  0
VERTEX
  8
0
 62
7
  6
CONTINUOUS
 10
102.472150389
 20
104.186439504
  0
VERTEX
  8
0
 62
7
  6
CONTINUOUS
 10
102.5088722893
 20
104.1378358236
  0
VERTEX
  8
0
 62
7
  6
CONTINUOUS
 10
102.5563179206
 20
104.089318503
  0
VERTEX
  8
0
 62
7
  6
CONTINUOUS
 10
102.6157675361
 20
104.0436672765
  0
VERTEX
  8
0
 62
7
  6
CONTINUOUS
 10
102.6861455579
 20
104.0051756583
  0
VERTEX
  8
0
 62
7
  6
CONTINUOUS
 10
102.7647677623
 20
103.9775824276
  0
VERTEX
  8
0
 62
7
  6
CONTINUOUS
 10
102.8481144859
 20
103.9632663146
  0
VERTEX
  8
0
 62
7
  6
CONTINUOUS
 10
102.8901495188
 20
103.9614235323
  0
SEQEND
  0
POLYLINE
  8
0
 62
7
  6
CONTINUOUS
 66
1
 70
0
  0
VERTEX
  8
0
 62
7
  6
CONTINUOUS
 10
101.7943294842
 20
154.0991406736
  0
VERTEX
  8
0
 62
7
  6
CONTINUOUS
 10
101.7923910527
 20
154.1275047268
  0
VERTEX
  8
0
 62
7
  6
CONTINUOUS
 10
101.790429818
 20
154.1540906452
  0
VERTEX
  8
0
 62
7
  6
CONTINUOUS
 10
101.788436516
 20
154.1790130021
  0
VERTEX
  8
0
 62
7
  6
CONTINUOUS
 10
101.786396754
 20
154.2024179073
  0
VERTEX
  8
0
 62
7
  6
CONTINUOUS
 10
101.784288775
 20
154.2244879473
  0
VERTEX
  8
0
 62
7
  6
CONTINUOUS
 10
101.7820790516
 20
154.2454585443
  0
VERTEX
  8
0
 62
7
  6
CONTINUOUS
 10
101.7797148864
 20
154.2656379976
  0
VERTEX
  8
0
 62
7
  6
CONTINUOUS
 10
101.7771118621
 20
154.285436468
  0
VERTEX
  8
0
 62
7
  6
CONTINUOUS
 10
101.7741273724
 20
154.3054357869
  0
VERTEX
  8
0
 62
7
  6
CONTINUOUS
 10
101.7705435413
 20
154.3263081377
  0
VERTEX
  8
0
 62
7
  6
CONTINUOUS
 10
101.7659885802
 20
154.3490018737
  0
VERTEX
  8
0
 62
7
  6
CONTINUOUS
 10
101.7597963963
 20
154.3749087198
  0
VERTEX
  8
0
 62
7
  6
CONTINUOUS
 10
101.7507827826
 20
154.4058950637
  0
VERTEX
  8
0
 62
7
  6
CONTINUOUS
 10
101.7372088865
 20
154.4433868154
  0
VERTEX
  8
0
 62
7
  6
CONTINUOUS
 10
101.7172477878
 20
154.4869528699
  0
VERTEX
  8
0
 62
7
  6
CONTINUOUS
 10
101.6897665693
 20
154.5340282224
  0
VERTEX
  8
0
 62
7
  6
CONTINUOUS
 10
101.6534454795
 20
154.5826856767
  0
VERTEX
  8
0
 62
7
  6
CONTINUOUS
 10
101.6063876388
 20
154.6314029417
  0
VERTEX
  8
0
 62
7
  6
CONTINUOUS
 10
101.5472693484
 20
154.6773998947
  0
VERTEX
  8
0
 62
7
  6
CONTINUOUS
 10
101.4771164198
 20
154.7163530153
  0
VERTEX
  8
0
 62
7
  6
CONTINUOUS
 10
101.3985778653
 20
154.744471803
  0
VERTEX
  8
0
 62
7
  6
CONTINUOUS
 10
101.3151502054
 20
154.7593187515
  0
VERTEX
  8
0
 62
7
  6
CONTINUOUS
 10
101.2702685051
 20
154.7614209917
  0
SEQEND
  0
LINE
  8
0
 62
7
  6
CONTINUOUS
 10
102.2824960293
 20
113.5636154908
 11
102.2890522627
 21
113.4614224136
  0
POLYLINE
  8
0
 62
7
  6
CONTINUOUS
 66
1
 70
0
  0
VERTEX
  8
0
 62
7
  6
CONTINUOUS
 10
101.8712925649
 20
145.2614224136
  0
VERTEX
  8
0
 62
7
  6
CONTINUOUS
 10
101.8778629515
 20
145.1591195458
  0
VERTEX
  8
0
 62
7
  6
CONTINUOUS
 10
101.8979247109
 20
145.0567567104
  0
VERTEX
  8
0
 62
7
  6
CONTINUOUS
 10
101.9315543109
 20
144.9568624513
  0
VERTEX
  8
0
 62
7
  6
CONTINUOUS
 10
101.9781901635
 20
144.8619749291
  0
VERTEX
  8
0
 62
7
  6
CONTINUOUS
 10
102.0366767206
 20
144.7744000209
  0
VERTEX
  8
0
 62
7
  6
CONTINUOUS
 10
102.1056880095
 20
144.6957364242
  0
VERTEX
  8
0
 62
7
  6
CONTINUOUS
 10
102.1843864822
 20
144.6267429702
  0
VERTEX
  8
0
 62
7
  6
CONTINUOUS
 10
102.2720115017
 20
144.568266602
  0
VERTEX
  8
0
 62
7
  6
CONTINUOUS
 10
102.3669472313
 20
144.5216450662
  0
VERTEX
  8
0
 62
7
  6
CONTINUOUS
 10
102.4668759375
 20
144.4880335223
  0
SEQEND
  0
LINE
  8
0
 62
7
  6
CONTINUOUS
 10
102.3622563634
 20
104.6848762735
 11
102.3660950886
 21
104.6224955367
  0
LINE
  8
0
 62
7
  6
CONTINUOUS
 10
101.7981634865
 20
154.0366623149
 11
101.7943294842
 21
154.0991406736
  0
LINE
  8
0
 62
7
  6
CONTINUOUS
 10
102.3584463065
 20
104.7555895884
 11
102.3622563634
 21
104.6848762735
  0
LINE
  8
0
 62
7
  6
CONTINUOUS
 10
101.8019694193
 20
153.9658532612
 11
101.7981634865
 21
154.0366623149
  0
LINE
  8
0
 62
7
  6
CONTINUOUS
 10
102.35464643
 20
104.8353191265
 11
102.3584463065
 21
104.7555895884
  0
LINE
  8
0
 62
7
  6
CONTINUOUS
 10
101.8057654395
 20
153.8860335878
 11
101.8019694193
 21
153.9658532612
  0
LINE
  8
0
 62
7
  6
CONTINUOUS
 10
102.3508499526
 20
104.9246639588
 11
102.35464643
 21
104.8353191265
  0
LINE
  8
0
 62
7
  6
CONTINUOUS
 10
101.8095581041
 20
153.7966076954
 11
101.8057654395
 21
153.8860335878
  0
LINE
  8
0
 62
7
  6
CONTINUOUS
 10
102.3451635149
 20
105.0778349813
 11
102.3508499526
 21
104.9246639588
  0
LINE
  8
0
 62
7
  6
CONTINUOUS
 10
101.8152386883
 20
153.6433401113
 11
101.8095581041
 21
153.7966076954
  0
LINE
  8
0
 62
7
  6
CONTINUOUS
 10
102.3395040647
 20
105.2553323317
 11
102.3451635149
 21
105.0778349813
  0
LINE
  8
0
 62
7
  6
CONTINUOUS
 10
101.8208919708
 20
153.4657842237
 11
101.8152386883
 21
153.6433401113
  0
LINE
  8
0
 62
7
  6
CONTINUOUS
 10
102.3320422216
 20
105.5324876414
 11
102.3395040647
 21
105.2553323317
  0
LINE
  8
0
 62
7
  6
CONTINUOUS
 10
101.8283454
 20
153.1886118475
 11
101.8208919708
 21
153.4657842237
  0
LINE
  8
0
 62
7
  6
CONTINUOUS
 10
102.3229314113
 20
105.95044033
 11
102.3320422216
 21
105.5324876414
  0
LINE
  8
0
 62
7
  6
CONTINUOUS
 10
101.8374455969
 20
152.7707470638
 11
101.8283454
 21
153.1886118475
  0
LINE
  8
0
 62
7
  6
CONTINUOUS
 10
102.3125537917
 20
106.5688985165
 11
102.3229314113
 21
105.95044033
  0
LINE
  8
0
 62
7
  6
CONTINUOUS
 10
101.8478106764
 20
152.1525897072
 11
101.8374455969
 21
152.7707470638
  0
LINE
  8
0
 62
7
  6
CONTINUOUS
 10
101.8585475301
 20
151.2518719008
 11
101.8478106764
 21
152.1525897072
  0
LINE
  8
0
 62
7
  6
CONTINUOUS
 10
102.3018037941
 20
107.470301503
 11
102.3125537917
 21
106.5688985165
  0
LINE
  8
0
 62
7
  6
CONTINUOUS
 10
101.8668190151
 20
150.1395274306
 11
101.8585475301
 21
151.2518719008
  0
LINE
  8
0
 62
7
  6
CONTINUOUS
 10
102.2935234777
 20
108.5837508265
 11
102.3018037941
 21
107.470301503
  0
LINE
  8
0
 62
7
  6
CONTINUOUS
 10
101.8708364339
 20
149.0084087347
 11
101.8668190151
 21
150.1395274306
  0
LINE
  8
0
 62
7
  6
CONTINUOUS
 10
102.2895052798
 20
109.7161802742
 11
102.2935234777
 21
108.5837508265
  0
LINE
  8
0
 62
7
  6
CONTINUOUS
 10
101.8708364339
 20
149.0084087347
 11
101.8713687173
 21
145.2614224136
  0
LINE
  8
0
 62
7
  6
CONTINUOUS
 10
102.2889761103
 20
113.4614224136
 11
102.2895052798
 21
109.7161802742
  0
POLYLINE
  8
0
 62
7
  6
CONTINUOUS
 66
1
 70
0
  0
VERTEX
  8
0
 62
7
  6
CONTINUOUS
 10
122.8107681461
 20
144.4617244891
  0
VERTEX
  8
0
 62
7
  6
CONTINUOUS
 10
122.8910868331
 20
144.4679867888
  0
VERTEX
  8
0
 62
7
  6
CONTINUOUS
 10
122.9934688901
 20
144.4880335223
  0
VERTEX
  8
0
 62
7
  6
CONTINUOUS
 10
123.0933975963
 20
144.5216450661
  0
VERTEX
  8
0
 62
7
  6
CONTINUOUS
 10
123.1883333259
 20
144.568266602
  0
VERTEX
  8
0
 62
7
  6
CONTINUOUS
 10
123.2759583454
 20
144.6267429702
  0
VERTEX
  8
0
 62
7
  6
CONTINUOUS
 10
123.354656818
 20
144.6957364242
  0
VERTEX
  8
0
 62
7
  6
CONTINUOUS
 10
123.423668107
 20
144.7744000209
  0
VERTEX
  8
0
 62
7
  6
CONTINUOUS
 10
123.4821546641
 20
144.8619749291
  0
VERTEX
  8
0
 62
7
  6
CONTINUOUS
 10
123.5287905167
 20
144.9568624513
  0
VERTEX
  8
0
 62
7
  6
CONTINUOUS
 10
123.5624201167
 20
145.0567567104
  0
SEQEND
  0
POLYLINE
  8
4_SURFACE
 62
7
  6
CONTINUOUS
 66
1
 70
0
  0
VERTEX
  8
4_SURFACE
 62
7
  6
CONTINUOUS
 10
60.0495740467
 20
144.4617261431
  0
VERTEX
  8
4_SURFACE
 62
7
  6
CONTINUOUS
 10
59.9800115838
 20
144.4666759082
  0
VERTEX
  8
4_SURFACE
 62
7
  6
CONTINUOUS
 10
59.8632400468
 20
144.4890102273
  0
VERTEX
  8
4_SURFACE
 62
7
  6
CONTINUOUS
 10
59.7510694503
 20
144.5283933521
  0
VERTEX
  8
4_SURFACE
 62
7
  6
CONTINUOUS
 10
59.6459584258
 20
144.5839668009
  0
VERTEX
  8
4_SURFACE
 62
7
  6
CONTINUOUS
 10
59.5502364039
 20
144.6545055819
  0
VERTEX
  8
4_SURFACE
 62
7
  6
CONTINUOUS
 10
59.4660253322
 20
144.7384502475
  0
VERTEX
  8
4_SURFACE
 62
7
  6
CONTINUOUS
 10
59.3951861205
 20
144.8339479047
  0
VERTEX
  8
4_SURFACE
 62
7
  6
CONTINUOUS
 10
59.3392872052
 20
144.9388837468
  0
VERTEX
  8
4_SURFACE
 62
7
  6
CONTINUOUS
 10
59.2995642596
 20
145.0509324567
  0
VERTEX
  8
4_SURFACE
 62
7
  6
CONTINUOUS
 10
59.2768869178
 20
145.1676318117
  0
VERTEX
  8
4_SURFACE
 62
7
  6
CONTINUOUS
 10
59.2713698418
 20
145.2614224136
  0
SEQEND
  0
POLYLINE
  8
4_SURFACE
 62
7
  6
CONTINUOUS
 66
1
 70
0
  0
VERTEX
  8
4_SURFACE
 62
7
  6
CONTINUOUS
 10
60.0495766815
 20
144.4617244891
  0
VERTEX
  8
4_SURFACE
 62
7
  6
CONTINUOUS
 10
59.9692579945
 20
144.4679867888
  0
VERTEX
  8
4_SURFACE
 62
7
  6
CONTINUOUS
 10
59.8668759375
 20
144.4880335223
  0
VERTEX
  8
4_SURFACE
 62
7
  6
CONTINUOUS
 10
59.7669472313
 20
144.5216450661
  0
VERTEX
  8
4_SURFACE
 62
7
  6
CONTINUOUS
 10
59.6720115017
 20
144.568266602
  0
VERTEX
  8
4_SURFACE
 62
7
  6
CONTINUOUS
 10
59.5843864822
 20
144.6267429702
  0
VERTEX
  8
4_SURFACE
 62
7
  6
CONTINUOUS
 10
59.5056880095
 20
144.6957364242
  0
VERTEX
  8
4_SURFACE
 62
7
  6
CONTINUOUS
 10
59.4366767206
 20
144.7744000209
  0
VERTEX
  8
4_SURFACE
 62
7
  6
CONTINUOUS
 10
59.3781901635
 20
144.8619749291
  0
VERTEX
  8
4_SURFACE
 62
7
  6
CONTINUOUS
 10
59.3315543109
 20
144.9568624513
  0
VERTEX
  8
4_SURFACE
 62
7
  6
CONTINUOUS
 10
59.2979247109
 20
145.0567567104
  0
SEQEND
  0
LINE
  8
4_SURFACE
 62
7
  6
CONTINUOUS
 10
80.2910868331
 20
144.4679867888
 11
80.2107190509
 21
144.4617231415
  0
LINE
  8
0
 62
7
  6
CONTINUOUS
 10
122.7887780838
 20
144.4614224136
 11
122.8107681461
 21
144.4617244891
  0
LINE
  8
4_SURFACE
 62
7
  6
CONTINUOUS
 10
80.2107190509
 20
144.4617231415
 11
80.1887780838
 21
144.4614224136
  0
LINE
  8
4_SURFACE
 62
7
  6
CONTINUOUS
 10
46.5607190509
 20
144.4617231415
 11
46.5387780838
 21
144.4614224136
  0
LINE
  8
4_SURFACE
 62
7
  6
CONTINUOUS
 10
80.1887780838
 20
144.4614224136
 11
60.0715667438
 21
144.4614224136
  0
LINE
  8
4_SURFACE
 62
7
  6
CONTINUOUS
 10
35.7801724138
 20
144.4614224136
 11
46.5387780838
 21
144.4614224136
  0
LINE
  8
0
 62
7
  6
CONTINUOUS
 10
102.6715667438
 20
144.4614224136
 11
122.7887780838
 21
144.4614224136
  0
LINE
  8
0
 62
7
  6
CONTINUOUS
 10
136.3215667438
 20
144.4614224136
 11
147.0801724138
 21
144.4614224136
  0
LINE
  8
4_SURFACE
 62
7
  6
CONTINUOUS
 10
60.0715667438
 20
144.4614224136
 11
60.0495766815
 21
144.4617244891
  0
LINE
  8
0
 62
7
  6
CONTINUOUS
 10
102.6496257766
 20
144.4617231415
 11
102.6715667438
 21
144.4614224136
  0
LINE
  8
0
 62
7
  6
CONTINUOUS
 10
136.2996257766
 20
144.4617231415
 11
136.3215667438
 21
144.4614224136
  0
POLYLINE
  8
0
 62
7
  6
CONTINUOUS
 66
1
 70
0
  0
VERTEX
  8
0
 62
7
  6
CONTINUOUS
 10
102.6496231478
 20
144.4617247961
  0
VERTEX
  8
0
 62
7
  6
CONTINUOUS
 10
102.5777439331
 20
144.4669402969
  0
VERTEX
  8
0
 62
7
  6
CONTINUOUS
 10
102.4610146247
 20
144.4896136487
  0
VERTEX
  8
0
 62
7
  6
CONTINUOUS
 10
102.3489413212
 20
144.5293270879
  0
VERTEX
  8
0
 62
7
  6
CONTINUOUS
 10
102.2439823074
 20
144.585211736
  0
VERTEX
  8
0
 62
7
  6
CONTINUOUS
 10
102.1484624284
 20
144.6560331721
  0
VERTEX
  8
0
 62
7
  6
CONTINUOUS
 10
102.0644974447
 20
144.7402237155
  0
VERTEX
  8
0
 62
7
  6
CONTINUOUS
 10
101.9939410491
 20
144.8359232977
  0
VERTEX
  8
0
 62
7
  6
CONTINUOUS
 10
101.9383534243
 20
144.9410109861
  0
VERTEX
  8
0
 62
7
  6
CONTINUOUS
 10
101.8989608229
 20
145.0531569563
  0
VERTEX
  8
0
 62
7
  6
CONTINUOUS
 10
101.8766225165
 20
145.1698986177
  0
VERTEX
  8
0
 62
7
  6
CONTINUOUS
 10
101.8713698387
 20
145.2614224136
  0
SEQEND
  0
LINE
  8
0
 62
7
  6
CONTINUOUS
 10
102.5692579945
 20
144.4679867888
 11
102.6496257766
 21
144.4617231415
  0
LINE
  8
4_SURFACE
 62
7
  6
CONTINUOUS
 10
46.6410868331
 20
144.4679867888
 11
46.5607190509
 21
144.4617231415
  0
LINE
  8
1_AXIS
 62
2
  6
CENTER
 10
45.3842546434
 20
148.4114224136
 11
137.4760901842
 21
148.4114224136
  0
POLYLINE
  8
0
 62
7
  6
CONTINUOUS
 66
1
 70
0
  0
VERTEX
  8
0
 62
7
  6
CONTINUOUS
 10
136.2996231478
 20
144.4617247961
  0
VERTEX
  8
0
 62
7
  6
CONTINUOUS
 10
136.2277439332
 20
144.4669402969
  0
VERTEX
  8
0
 62
7
  6
CONTINUOUS
 10
136.1110146248
 20
144.4896136487
  0
VERTEX
  8
0
 62
7
  6
CONTINUOUS
 10
135.9989413212
 20
144.5293270879
  0
VERTEX
  8
0
 62
7
  6
CONTINUOUS
 10
135.8939823075
 20
144.585211736
  0
VERTEX
  8
0
 62
7
  6
CONTINUOUS
 10
135.7984624284
 20
144.6560331721
  0
VERTEX
  8
0
 62
7
  6
CONTINUOUS
 10
135.7144974447
 20
144.7402237155
  0
VERTEX
  8
0
 62
7
  6
CONTINUOUS
 10
135.6439410491
 20
144.8359232977
  0
VERTEX
  8
0
 62
7
  6
CONTINUOUS
 10
135.5883534243
 20
144.9410109861
  0
VERTEX
  8
0
 62
7
  6
CONTINUOUS
 10
135.5489608229
 20
145.0531569563
  0
VERTEX
  8
0
 62
7
  6
CONTINUOUS
 10
135.5266225165
 20
145.1698986177
  0
VERTEX
  8
0
 62
7
  6
CONTINUOUS
 10
135.5213698387
 20
145.2614224136
  0
SEQEND
  0
LINE
  8
0
 62
7
  6
CONTINUOUS
 10
136.2192579945
 20
144.4679867888
 11
136.2996257766
 21
144.4617231415
  0
POLYLINE
  8
0
 62
7
  6
CONTINUOUS
 66
1
 70
0
  0
VERTEX
  8
0
 62
7
  6
CONTINUOUS
 10
124.1900925298
 20
154.7614210242
  0
VERTEX
  8
0
 62
7
  6
CONTINUOUS
 10
124.1464672301
 20
154.7594340039
  0
VERTEX
  8
0
 62
7
  6
CONTINUOUS
 10
124.062785168
 20
154.7447422171
  0
VERTEX
  8
0
 62
7
  6
CONTINUOUS
 10
123.9829100585
 20
154.7162080514
  0
VERTEX
  8
0
 62
7
  6
CONTINUOUS
 10
123.9109287615
 20
154.6759646662
  0
VERTEX
  8
0
 62
7
  6
CONTINUOUS
 10
123.8500868972
 20
154.6278632732
  0
VERTEX
  8
0
 62
7
  6
CONTINUOUS
 10
123.8019525576
 20
154.576733642
  0
VERTEX
  8
0
 62
7
  6
CONTINUOUS
 10
123.7661163146
 20
154.5271206483
  0
VERTEX
  8
0
 62
7
  6
CONTINUOUS
 10
123.7407000113
 20
154.482238695
  0
VERTEX
  8
0
 62
7
  6
CONTINUOUS
 10
123.722843298
 20
154.4426614598
  0
VERTEX
  8
0
 62
7
  6
CONTINUOUS
 10
123.7101826292
 20
154.4078129459
  0
VERTEX
  8
0
 62
7
  6
CONTINUOUS
 10
123.7012852345
 20
154.3776994656
  0
VERTEX
  8
0
 62
7
  6
CONTINUOUS
 10
123.694951676
 20
154.3517114718
  0
VERTEX
  8
0
 62
7
  6
CONTINUOUS
 10
123.6902570872
 20
154.3287538579
  0
VERTEX
  8
0
 62
7
  6
CONTINUOUS
 10
123.6865629093
 20
154.3075860017
  0
VERTEX
  8
0
 62
7
  6
CONTINUOUS
 10
123.6834922497
 20
154.2872819239
  0
VERTEX
  8
0
 62
7
  6
CONTINUOUS
 10
123.6808137646
 20
154.2671158402
  0
VERTEX
  8
0
 62
7
  6
CONTINUOUS
 10
123.678381041
 20
154.2464947641
  0
VERTEX
  8
0
 62
7
  6
CONTINUOUS
 10
123.6761048903
 20
154.224974784
  0
VERTEX
  8
0
 62
7
  6
CONTINUOUS
 10
123.6739298294
 20
154.2022176766
  0
VERTEX
  8
0
 62
7
  6
CONTINUOUS
 10
123.6718208888
 20
154.1779631424
  0
VERTEX
  8
0
 62
7
  6
CONTINUOUS
 10
123.669755697
 20
154.1520085489
  0
VERTEX
  8
0
 62
7
  6
CONTINUOUS
 10
123.6677197943
 20
154.1241925436
  0
VERTEX
  8
0
 62
7
  6
CONTINUOUS
 10
123.6657037284
 20
154.0943826824
  0
VERTEX
  8
0
 62
7
  6
CONTINUOUS
 10
123.6636973343
 20
154.0624018898
  0
VERTEX
  8
0
 62
7
  6
CONTINUOUS
 10
123.6596785691
 20
153.9911135125
  0
SEQEND
  0
LINE
  8
1_AXIS
 62
7
  6
CONTINUOUS
 10
47.9403752858
 20
154.7614214057
 11
47.9410925413
 21
154.7614224136
  0
LINE
  8
4_SURFACE
 62
7
  6
CONTINUOUS
 10
81.5900846659
 20
154.7614210085
 11
81.591086978
 21
154.7614220132
  0
LINE
  8
0
 62
7
  6
CONTINUOUS
 10
134.9192522868
 20
154.7614224136
 11
124.1900924843
 21
154.7614204081
  0
LINE
  8
0
 62
7
  6
CONTINUOUS
 10
58.6692578259
 20
154.7614224131
 11
47.9410925413
 21
154.7614224136
  0
LINE
  8
4_SURFACE
 62
7
  6
CONTINUOUS
 10
58.6702609366
 20
154.7614203909
 11
47.9410882102
 21
154.7614224136
  0
LINE
  8
0
 62
7
  6
CONTINUOUS
 10
101.2702685051
 20
154.7614209917
 11
81.5910870016
 21
154.7614224136
  0
LINE
  8
1_AXIS
 62
7
  6
CONTINUOUS
 10
134.9192522868
 20
154.7614224136
 11
134.9199783484
 21
154.7614213777
  0
POLYLINE
  8
4_SURFACE
 62
7
  6
CONTINUOUS
 66
1
 70
0
  0
VERTEX
  8
4_SURFACE
 62
7
  6
CONTINUOUS
 10
81.5900846659
 20
154.7614210085
  0
VERTEX
  8
4_SURFACE
 62
7
  6
CONTINUOUS
 10
81.5491718133
 20
154.7596680978
  0
VERTEX
  8
4_SURFACE
 62
7
  6
CONTINUOUS
 10
81.4651985458
 20
154.7453740367
  0
VERTEX
  8
4_SURFACE
 62
7
  6
CONTINUOUS
 10
81.3848203805
 20
154.7170739297
  0
VERTEX
  8
4_SURFACE
 62
7
  6
CONTINUOUS
 10
81.3122633221
 20
154.676858786
  0
VERTEX
  8
4_SURFACE
 62
7
  6
CONTINUOUS
 10
81.2508957228
 20
154.6286091292
  0
VERTEX
  8
4_SURFACE
 62
7
  6
CONTINUOUS
 10
81.2023737217
 20
154.5772476468
  0
VERTEX
  8
4_SURFACE
 62
7
  6
CONTINUOUS
 10
81.1663583303
 20
154.5275016374
  0
VERTEX
  8
4_SURFACE
 62
7
  6
CONTINUOUS
 10
81.1409200132
 20
154.4826763607
  0
VERTEX
  8
4_SURFACE
 62
7
  6
CONTINUOUS
 10
81.1230120789
 20
154.4430801799
  0
VERTEX
  8
4_SURFACE
 62
7
  6
CONTINUOUS
 10
81.1102543195
 20
154.4080329939
  0
VERTEX
  8
4_SURFACE
 62
7
  6
CONTINUOUS
 10
81.1012831879
 20
154.3776917881
  0
VERTEX
  8
4_SURFACE
 62
7
  6
CONTINUOUS
 10
81.094912181
 20
154.3515333694
  0
VERTEX
  8
4_SURFACE
 62
7
  6
CONTINUOUS
 10
81.090196053
 20
154.3284288461
  0
VERTEX
  8
4_SURFACE
 62
7
  6
CONTINUOUS
 10
81.0864907941
 20
154.3071397594
  0
VERTEX
  8
4_SURFACE
 62
7
  6
CONTINUOUS
 10
81.0834163102
 20
154.2867436757
  0
VERTEX
  8
4_SURFACE
 62
7
  6
CONTINUOUS
 10
81.0807344123
 20
154.2664794411
  0
VERTEX
  8
4_SURFACE
 62
7
  6
CONTINUOUS
 10
81.0782978485
 20
154.2457474297
  0
VERTEX
  8
4_SURFACE
 62
7
  6
CONTINUOUS
 10
81.0760176051
 20
154.2241039213
  0
VERTEX
  8
4_SURFACE
 62
7
  6
CONTINUOUS
 10
81.0738385085
 20
154.2012129935
  0
VERTEX
  8
4_SURFACE
 62
7
  6
CONTINUOUS
 10
81.0717259534
 20
154.1768186355
  0
VERTEX
  8
4_SURFACE
 62
7
  6
CONTINUOUS
 10
81.0696578947
 20
154.1507236317
  0
VERTEX
  8
4_SURFACE
 62
7
  6
CONTINUOUS
 10
81.0676202187
 20
154.1227737667
  0
VERTEX
  8
4_SURFACE
 62
7
  6
CONTINUOUS
 10
81.0656029705
 20
154.0928323279
  0
VERTEX
  8
4_SURFACE
 62
7
  6
CONTINUOUS
 10
81.0635950267
 20
154.0607079663
  0
VERTEX
  8
4_SURFACE
 62
7
  6
CONTINUOUS
 10
81.0595729717
 20
153.9891064555
  0
SEQEND
  0
POLYLINE
  8
4_SURFACE
 62
7
  6
CONTINUOUS
 66
1
 70
0
  0
VERTEX
  8
4_SURFACE
 62
7
  6
CONTINUOUS
 10
47.9403752856
 20
154.7614215063
  0
VERTEX
  8
4_SURFACE
 62
7
  6
CONTINUOUS
 10
47.899172004
 20
154.7596681138
  0
VERTEX
  8
4_SURFACE
 62
7
  6
CONTINUOUS
 10
47.8151989211
 20
154.745374134
  0
VERTEX
  8
4_SURFACE
 62
7
  6
CONTINUOUS
 10
47.7348209041
 20
154.7170741657
  0
VERTEX
  8
4_SURFACE
 62
7
  6
CONTINUOUS
 10
47.662263932
 20
154.6768591932
  0
VERTEX
  8
4_SURFACE
 62
7
  6
CONTINUOUS
 10
47.6008963456
 20
154.6286097022
  0
VERTEX
  8
4_SURFACE
 62
7
  6
CONTINUOUS
 10
47.5523742927
 20
154.5772483429
  0
VERTEX
  8
4_SURFACE
 62
7
  6
CONTINUOUS
 10
47.51635881
 20
154.5275023918
  0
VERTEX
  8
4_SURFACE
 62
7
  6
CONTINUOUS
 10
47.4909203963
 20
154.4826771221
  0
VERTEX
  8
4_SURFACE
 62
7
  6
CONTINUOUS
 10
47.4730123852
 20
154.4430809388
  0
VERTEX
  8
4_SURFACE
 62
7
  6
CONTINUOUS
 10
47.4602545608
 20
154.408033734
  0
VERTEX
  8
4_SURFACE
 62
7
  6
CONTINUOUS
 10
47.4512833746
 20
154.3776924883
  0
VERTEX
  8
4_SURFACE
 62
7
  6
CONTINUOUS
 10
47.4449123277
 20
154.3515340316
  0
VERTEX
  8
4_SURFACE
 62
7
  6
CONTINUOUS
 10
47.4401961742
 20
154.3284294922
  0
VERTEX
  8
4_SURFACE
 62
7
  6
CONTINUOUS
 10
47.4364908998
 20
154.3071404145
  0
VERTEX
  8
4_SURFACE
 62
7
  6
CONTINUOUS
 10
47.4334164074
 20
154.2867443658
  0
VERTEX
  8
4_SURFACE
 62
7
  6
CONTINUOUS
 10
47.4307345059
 20
154.2664801927
  0
VERTEX
  8
4_SURFACE
 62
7
  6
CONTINUOUS
 10
47.4282979412
 20
154.2457482649
  0
VERTEX
  8
4_SURFACE
 62
7
  6
CONTINUOUS
 10
47.4260176988
 20
154.2241048584
  0
VERTEX
  8
4_SURFACE
 62
7
  6
CONTINUOUS
 10
47.4238386041
 20
154.201214047
  0
VERTEX
  8
4_SURFACE
 62
7
  6
CONTINUOUS
 10
47.4217260511
 20
154.1768198155
  0
VERTEX
  8
4_SURFACE
 62
7
  6
CONTINUOUS
 10
47.4196579944
 20
154.1507249434
  0
VERTEX
  8
4_SURFACE
 62
7
  6
CONTINUOUS
 10
47.4176203198
 20
154.1227752097
  0
VERTEX
  8
4_SURFACE
 62
7
  6
CONTINUOUS
 10
47.4156030723
 20
154.0928338979
  0
VERTEX
  8
4_SURFACE
 62
7
  6
CONTINUOUS
 10
47.4135951284
 20
154.0607096541
  0
VERTEX
  8
4_SURFACE
 62
7
  6
CONTINUOUS
 10
47.4095730695
 20
153.9891083164
  0
SEQEND
  0
LINE
  8
0
 62
7
  6
CONTINUOUS
 10
123.1700722419
 20
109.3814742352
 11
123.1713687173
 21
113.4614224136
  0
LINE
  8
0
 62
7
  6
CONTINUOUS
 10
123.5902725857
 20
149.3413705919
 11
123.5889761103
 21
145.2614224136
  0
LINE
  8
0
 62
7
  6
CONTINUOUS
 10
123.1652714961
 20
108.3186403002
 11
123.1700722419
 21
109.3814742352
  0
LINE
  8
0
 62
7
  6
CONTINUOUS
 10
123.5950733314
 20
150.404204527
 11
123.5902725857
 21
149.3413705919
  0
LINE
  8
0
 62
7
  6
CONTINUOUS
 10
123.6040498735
 20
151.4731914005
 11
123.5950733314
 21
150.404204527
  0
LINE
  8
0
 62
7
  6
CONTINUOUS
 10
123.1562949541
 20
107.2496534267
 11
123.1652714961
 21
108.3186403002
  0
LINE
  8
0
 62
7
  6
CONTINUOUS
 10
123.6152440303
 20
152.3323009206
 11
123.6040498735
 21
151.4731914005
  0
LINE
  8
0
 62
7
  6
CONTINUOUS
 10
123.1451007972
 20
106.3905439065
 11
123.1562949541
 21
107.2496534267
  0
LINE
  8
0
 62
7
  6
CONTINUOUS
 10
123.625598496
 20
152.9050317138
 11
123.6152440303
 21
152.3323009206
  0
LINE
  8
0
 62
7
  6
CONTINUOUS
 10
123.1347463316
 20
105.8178131134
 11
123.1451007972
 21
106.3905439065
  0
LINE
  8
0
 62
7
  6
CONTINUOUS
 10
123.6342289237
 20
153.2770731884
 11
123.625598496
 21
152.9050317138
  0
LINE
  8
0
 62
7
  6
CONTINUOUS
 10
123.1261159039
 20
105.4457716387
 11
123.1347463316
 21
105.8178131134
  0
LINE
  8
0
 62
7
  6
CONTINUOUS
 10
123.6407525521
 20
153.5089508325
 11
123.6342289237
 21
153.2770731884
  0
LINE
  8
0
 62
7
  6
CONTINUOUS
 10
123.1195922755
 20
105.2138939947
 11
123.1261159039
 21
105.4457716387
  0
LINE
  8
0
 62
7
  6
CONTINUOUS
 10
123.6472229862
 20
153.7032691329
 11
123.6407525521
 21
153.5089508325
  0
LINE
  8
0
 62
7
  6
CONTINUOUS
 10
123.1131218413
 20
105.0195756943
 11
123.1195922755
 21
105.2138939947
  0
LINE
  8
0
 62
7
  6
CONTINUOUS
 10
123.6514608195
 20
153.8132328082
 11
123.6472229862
 21
153.7032691329
  0
LINE
  8
0
 62
7
  6
CONTINUOUS
 10
123.1088840081
 20
104.909612019
 11
123.1131218413
 21
105.0195756943
  0
LINE
  8
0
 62
7
  6
CONTINUOUS
 10
123.6556108651
 20
153.9086591919
 11
123.6514608195
 21
153.8132328082
  0
LINE
  8
0
 62
7
  6
CONTINUOUS
 10
123.1047339625
 20
104.8141856353
 11
123.1088840081
 21
104.909612019
  0
LINE
  8
0
 62
7
  6
CONTINUOUS
 10
123.6596785691
 20
153.9911135125
 11
123.6556108651
 21
153.9086591919
  0
LINE
  8
0
 62
7
  6
CONTINUOUS
 10
123.1006662585
 20
104.7317313147
 11
123.1047339625
 21
104.8141856353
  0
POLYLINE
  8
0
 62
7
  6
CONTINUOUS
 66
1
 70
0
  0
VERTEX
  8
0
 62
7
  6
CONTINUOUS
 10
123.5889749858
 20
145.2614224136
  0
VERTEX
  8
0
 62
7
  6
CONTINUOUS
 10
123.5834579097
 20
145.1676318117
  0
VERTEX
  8
0
 62
7
  6
CONTINUOUS
 10
123.560780568
 20
145.0509324567
  0
VERTEX
  8
0
 62
7
  6
CONTINUOUS
 10
123.5210576224
 20
144.9388837468
  0
VERTEX
  8
0
 62
7
  6
CONTINUOUS
 10
123.4651587071
 20
144.8339479047
  0
VERTEX
  8
0
 62
7
  6
CONTINUOUS
 10
123.3943194954
 20
144.7384502475
  0
VERTEX
  8
0
 62
7
  6
CONTINUOUS
 10
123.3101084237
 20
144.6545055819
  0
VERTEX
  8
0
 62
7
  6
CONTINUOUS
 10
123.2143864018
 20
144.5839668009
  0
VERTEX
  8
0
 62
7
  6
CONTINUOUS
 10
123.1092753773
 20
144.5283933521
  0
VERTEX
  8
0
 62
7
  6
CONTINUOUS
 10
122.9971047808
 20
144.4890102273
  0
VERTEX
  8
0
 62
7
  6
CONTINUOUS
 10
122.8803332438
 20
144.4666759082
  0
VERTEX
  8
0
 62
7
  6
CONTINUOUS
 10
122.8107707809
 20
144.4617261431
  0
SEQEND
  0
POLYLINE
  8
0
 62
7
  6
CONTINUOUS
 66
1
 70
0
  0
VERTEX
  8
0
 62
7
  6
CONTINUOUS
 10
123.1713698418
 20
113.4614224135
  0
VERTEX
  8
0
 62
7
  6
CONTINUOUS
 10
123.1768869178
 20
113.5552130155
  0
VERTEX
  8
0
 62
7
  6
CONTINUOUS
 10
123.1995642596
 20
113.6719123705
  0
VERTEX
  8
0
 62
7
  6
CONTINUOUS
 10
123.2392872052
 20
113.7839610804
  0
VERTEX
  8
0
 62
7
  6
CONTINUOUS
 10
123.2951861205
 20
113.8888969225
  0
VERTEX
  8
0
 62
7
  6
CONTINUOUS
 10
123.3660253322
 20
113.9843945797
  0
VERTEX
  8
0
 62
7
  6
CONTINUOUS
 10
123.4502364039
 20
114.0683392453
  0
VERTEX
  8
0
 62
7
  6
CONTINUOUS
 10
123.5459584258
 20
114.1388780262
  0
VERTEX
  8
0
 62
7
  6
CONTINUOUS
 10
123.6510694503
 20
114.194451475
  0
VERTEX
  8
0
 62
7
  6
CONTINUOUS
 10
123.7632400468
 20
114.2338345999
  0
VERTEX
  8
0
 62
7
  6
CONTINUOUS
 10
123.8800115838
 20
114.256168919
  0
VERTEX
  8
0
 62
7
  6
CONTINUOUS
 10
123.9495740467
 20
114.2611186841
  0
SEQEND
  0
LINE
  8
0
 62
7
  6
CONTINUOUS
 10
123.5824818761
 20
145.1591195458
 11
123.5890522627
 21
145.2614224136
  0
LINE
  8
0
 62
7
  6
CONTINUOUS
 10
123.1778629515
 20
113.5637252814
 11
123.1712925649
 21
113.4614224136
  0
LINE
  8
0
 62
7
  6
CONTINUOUS
 10
144.9129989558
 20
105.2325235768
 11
144.9209132229
 21
105.2115764603
  0
LINE
  8
0
 62
7
  6
CONTINUOUS
 10
144.9209132229
 20
105.2115764603
 11
144.9297301192
 21
105.1878287732
  0
LINE
  8
0
 62
7
  6
CONTINUOUS
 10
144.9297301192
 20
105.1878287732
 11
144.9382930452
 21
105.1643907672
  0
LINE
  8
0
 62
7
  6
CONTINUOUS
 10
144.9382930452
 20
105.1643907672
 11
144.9466213642
 21
105.1412842238
  0
POLYLINE
  8
0
 62
7
  6
CONTINUOUS
 66
1
 70
0
  0
VERTEX
  8
0
 62
7
  6
CONTINUOUS
 10
136.0160153434
 20
104.6237041536
  0
VERTEX
  8
0
 62
7
  6
CONTINUOUS
 10
136.0179537749
 20
104.5953401003
  0
VERTEX
  8
0
 62
7
  6
CONTINUOUS
 10
136.0199150095
 20
104.568754182
  0
VERTEX
  8
0
 62
7
  6
CONTINUOUS
 10
136.0219083116
 20
104.5438318251
  0
VERTEX
  8
0
 62
7
  6
CONTINUOUS
 10
136.0239480735
 20
104.5204269199
  0
VERTEX
  8
0
 62
7
  6
CONTINUOUS
 10
136.0260560526
 20
104.4983568799
  0
VERTEX
  8
0
 62
7
  6
CONTINUOUS
 10
136.028265776
 20
104.4773862828
  0
VERTEX
  8
0
 62
7
  6
CONTINUOUS
 10
136.0306299412
 20
104.4572068296
  0
VERTEX
  8
0
 62
7
  6
CONTINUOUS
 10
136.0332329655
 20
104.4374083592
  0
VERTEX
  8
0
 62
7
  6
CONTINUOUS
 10
136.0362174551
 20
104.4174090403
  0
VERTEX
  8
0
 62
7
  6
CONTINUOUS
 10
136.0398012863
 20
104.3965366895
  0
VERTEX
  8
0
 62
7
  6
CONTINUOUS
 10
136.0443562474
 20
104.3738429535
  0
VERTEX
  8
0
 62
7
  6
CONTINUOUS
 10
136.0505484313
 20
104.3479361073
  0
VERTEX
  8
0
 62
7
  6
CONTINUOUS
 10
136.0595620449
 20
104.3169497635
  0
VERTEX
  8
0
 62
7
  6
CONTINUOUS
 10
136.0731359411
 20
104.2794580117
  0
VERTEX
  8
0
 62
7
  6
CONTINUOUS
 10
136.0930970398
 20
104.2358919573
  0
VERTEX
  8
0
 62
7
  6
CONTINUOUS
 10
136.1205782583
 20
104.1888166047
  0
VERTEX
  8
0
 62
7
  6
CONTINUOUS
 10
136.1568993481
 20
104.1401591504
  0
VERTEX
  8
0
 62
7
  6
CONTINUOUS
 10
136.2039571888
 20
104.0914418855
  0
VERTEX
  8
0
 62
7
  6
CONTINUOUS
 10
136.2630754792
 20
104.0454449324
  0
VERTEX
  8
0
 62
7
  6
CONTINUOUS
 10
136.3332284078
 20
104.0064918118
  0
VERTEX
  8
0
 62
7
  6
CONTINUOUS
 10
136.4117669623
 20
103.9783730241
  0
VERTEX
  8
0
 62
7
  6
CONTINUOUS
 10
136.4951946222
 20
103.9635260757
  0
VERTEX
  8
0
 62
7
  6
CONTINUOUS
 10
136.5400763225
 20
103.9614238355
  0
SEQEND
  0
POLYLINE
  8
0
 62
7
  6
CONTINUOUS
 66
1
 70
0
  0
VERTEX
  8
0
 62
7
  6
CONTINUOUS
 10
135.4443313806
 20
154.0991118857
  0
VERTEX
  8
0
 62
7
  6
CONTINUOUS
 10
135.4423930018
 20
154.1274772607
  0
VERTEX
  8
0
 62
7
  6
CONTINUOUS
 10
135.4404318264
 20
154.1540644819
  0
VERTEX
  8
0
 62
7
  6
CONTINUOUS
 10
135.4384385938
 20
154.1789880955
  0
VERTEX
  8
0
 62
7
  6
CONTINUOUS
 10
135.4363989173
 20
154.2023941738
  0
VERTEX
  8
0
 62
7
  6
CONTINUOUS
 10
135.4342910484
 20
154.2244652578
  0
VERTEX
  8
0
 62
7
  6
CONTINUOUS
 10
135.432081475
 20
154.2454366982
  0
VERTEX
  8
0
 62
7
  6
CONTINUOUS
 10
135.4297175235
 20
154.265616704
  0
VERTEX
  8
0
 62
7
  6
CONTINUOUS
 10
135.4271148202
 20
154.2854152881
  0
VERTEX
  8
0
 62
7
  6
CONTINUOUS
 10
135.4241308195
 20
154.3054141703
  0
VERTEX
  8
0
 62
7
  6
CONTINUOUS
 10
135.4205477402
 20
154.3262854066
  0
VERTEX
  8
0
 62
7
  6
CONTINUOUS
 10
135.4159940359
 20
154.3489768007
  0
VERTEX
  8
0
 62
7
  6
CONTINUOUS
 10
135.4098040781
 20
154.3748793385
  0
VERTEX
  8
0
 62
7
  6
CONTINUOUS
 10
135.4007944097
 20
154.4058589052
  0
VERTEX
  8
0
 62
7
  6
CONTINUOUS
 10
135.3872264027
 20
154.4433434851
  0
VERTEX
  8
0
 62
7
  6
CONTINUOUS
 10
135.3672718932
 20
154.4869060486
  0
VERTEX
  8
0
 62
7
  6
CONTINUOUS
 10
135.3397953498
 20
154.5339844392
  0
VERTEX
  8
0
 62
7
  6
CONTINUOUS
 10
135.3034770459
 20
154.5826482767
  0
VERTEX
  8
0
 62
7
  6
CONTINUOUS
 10
135.2564200031
 20
154.6313736472
  0
VERTEX
  8
0
 62
7
  6
CONTINUOUS
 10
135.1972998552
 20
154.6773796103
  0
VERTEX
  8
0
 62
7
  6
CONTINUOUS
 10
135.127141949
 20
154.7163414002
  0
VERTEX
  8
0
 62
7
  6
CONTINUOUS
 10
135.0485958702
 20
154.7444670007
  0
VERTEX
  8
0
 62
7
  6
CONTINUOUS
 10
134.9651592721
 20
154.7593179186
  0
VERTEX
  8
0
 62
7
  6
CONTINUOUS
 10
134.9199783487
 20
154.7614214937
  0
SEQEND
  0
POLYLINE
  8
0
 62
7
  6
CONTINUOUS
 66
1
 70
0
  0
VERTEX
  8
0
 62
7
  6
CONTINUOUS
 10
135.9390522627
 20
113.4614224136
  0
VERTEX
  8
0
 62
7
  6
CONTINUOUS
 10
135.9324818761
 20
113.5637252814
  0
VERTEX
  8
0
 62
7
  6
CONTINUOUS
 10
135.9124201167
 20
113.6660881168
  0
VERTEX
  8
0
 62
7
  6
CONTINUOUS
 10
135.8787905167
 20
113.7659823759
  0
VERTEX
  8
0
 62
7
  6
CONTINUOUS
 10
135.8321546641
 20
113.8608698981
  0
VERTEX
  8
0
 62
7
  6
CONTINUOUS
 10
135.773668107
 20
113.9484448063
  0
VERTEX
  8
0
 62
7
  6
CONTINUOUS
 10
135.704656818
 20
114.027108403
  0
VERTEX
  8
0
 62
7
  6
CONTINUOUS
 10
135.6259583454
 20
114.096101857
  0
VERTEX
  8
0
 62
7
  6
CONTINUOUS
 10
135.5383333259
 20
114.1545782251
  0
VERTEX
  8
0
 62
7
  6
CONTINUOUS
 10
135.4433975963
 20
114.201199761
  0
VERTEX
  8
0
 62
7
  6
CONTINUOUS
 10
135.3434688901
 20
114.2348113049
  0
SEQEND
  0
POLYLINE
  8
0
 62
7
  6
CONTINUOUS
 66
1
 70
0
  0
VERTEX
  8
0
 62
7
  6
CONTINUOUS
 10
135.5212925649
 20
145.2614224136
  0
VERTEX
  8
0
 62
7
  6
CONTINUOUS
 10
135.5278629515
 20
145.1591195458
  0
VERTEX
  8
0
 62
7
  6
CONTINUOUS
 10
135.5479247109
 20
145.0567567104
  0
VERTEX
  8
0
 62
7
  6
CONTINUOUS
 10
135.5815543109
 20
144.9568624513
  0
VERTEX
  8
0
 62
7
  6
CONTINUOUS
 10
135.6281901635
 20
144.8619749291
  0
VERTEX
  8
0
 62
7
  6
CONTINUOUS
 10
135.6866767206
 20
144.7744000209
  0
VERTEX
  8
0
 62
7
  6
CONTINUOUS
 10
135.7556880095
 20
144.6957364242
  0
VERTEX
  8
0
 62
7
  6
CONTINUOUS
 10
135.8343864822
 20
144.6267429702
  0
VERTEX
  8
0
 62
7
  6
CONTINUOUS
 10
135.9220115017
 20
144.568266602
  0
VERTEX
  8
0
 62
7
  6
CONTINUOUS
 10
136.0169472313
 20
144.5216450662
  0
VERTEX
  8
0
 62
7
  6
CONTINUOUS
 10
136.1168759375
 20
144.4880335223
  0
SEQEND
  0
LINE
  8
0
 62
7
  6
CONTINUOUS
 10
136.012181341
 20
104.6861825123
 11
136.0160153434
 21
104.6237041536
  0
LINE
  8
0
 62
7
  6
CONTINUOUS
 10
135.4481652971
 20
154.0366307483
 11
135.4443313806
 21
154.0991118857
  0
LINE
  8
0
 62
7
  6
CONTINUOUS
 10
136.0083754083
 20
104.7569915659
 11
136.012181341
 21
104.6861825123
  0
LINE
  8
0
 62
7
  6
CONTINUOUS
 10
135.4519711593
 20
153.9658188148
 11
135.4481652971
 21
154.0366307483
  0
LINE
  8
0
 62
7
  6
CONTINUOUS
 10
136.0045793881
 20
104.8368112394
 11
136.0083754083
 21
104.7569915659
  0
LINE
  8
0
 62
7
  6
CONTINUOUS
 10
135.4557671153
 20
153.8859962492
 11
135.4519711593
 21
153.9658188148
  0
LINE
  8
0
 62
7
  6
CONTINUOUS
 10
136.0007867235
 20
104.9262371318
 11
136.0045793881
 21
104.8368112394
  0
LINE
  8
0
 62
7
  6
CONTINUOUS
 10
135.4595597169
 20
153.7965675311
 11
135.4557671153
 21
153.8859962492
  0
LINE
  8
0
 62
7
  6
CONTINUOUS
 10
135.9951061393
 20
105.0795047159
 11
136.0007867235
 21
104.9262371318
  0
LINE
  8
0
 62
7
  6
CONTINUOUS
 10
135.4652402027
 20
153.6432960008
 11
135.4595597169
 21
153.7965675311
  0
LINE
  8
0
 62
7
  6
CONTINUOUS
 10
135.9894528568
 20
105.2570606034
 11
135.9951061393
 21
105.0795047159
  0
LINE
  8
0
 62
7
  6
CONTINUOUS
 10
135.4708933771
 20
153.4657367301
 11
135.4652402027
 21
153.6432960008
  0
LINE
  8
0
 62
7
  6
CONTINUOUS
 10
135.9819994276
 20
105.5342329797
 11
135.9894528568
 21
105.2570606034
  0
LINE
  8
0
 62
7
  6
CONTINUOUS
 10
135.4783466518
 20
153.1885607691
 11
135.4708933771
 21
153.4657367301
  0
LINE
  8
0
 62
7
  6
CONTINUOUS
 10
135.9728992307
 20
105.9520977634
 11
135.9819994276
 21
105.5342329797
  0
LINE
  8
0
 62
7
  6
CONTINUOUS
 10
135.487446642
 20
152.7706932133
 11
135.4783466518
 21
153.1885607691
  0
LINE
  8
0
 62
7
  6
CONTINUOUS
 10
135.9625341512
 20
106.57025512
 11
135.9728992307
 21
105.9520977634
  0
LINE
  8
0
 62
7
  6
CONTINUOUS
 10
135.497811457
 20
152.1525357713
 11
135.487446642
 21
152.7706932133
  0
LINE
  8
0
 62
7
  6
CONTINUOUS
 10
135.5085479943
 20
151.2518239213
 11
135.497811457
 21
152.1525357713
  0
LINE
  8
0
 62
7
  6
CONTINUOUS
 10
135.9517972974
 20
107.4709729264
 11
135.9625341512
 21
106.57025512
  0
LINE
  8
0
 62
7
  6
CONTINUOUS
 10
135.5168191963
 20
150.1394937994
 11
135.5085479943
 21
151.2518239213
  0
LINE
  8
0
 62
7
  6
CONTINUOUS
 10
135.9435258125
 20
108.5833173966
 11
135.9517972974
 21
107.4709729264
  0
LINE
  8
0
 62
7
  6
CONTINUOUS
 10
135.5208364575
 20
149.0083955355
 11
135.5168191963
 21
150.1394937994
  0
LINE
  8
0
 62
7
  6
CONTINUOUS
 10
135.9395083937
 20
109.7144360925
 11
135.9435258125
 21
108.5833173966
  0
LINE
  8
0
 62
7
  6
CONTINUOUS
 10
135.5208364575
 20
149.0083955355
 11
135.5213687173
 21
145.2614224136
  0
LINE
  8
0
 62
7
  6
CONTINUOUS
 10
135.9395083937
 20
109.7144360925
 11
135.9389761103
 21
113.4614224136
  0
LINE
  8
0
 62
7
  6
CONTINUOUS
 10
144.9466213642
 20
105.1412842238
 11
144.9626723053
 21
105.0960586649
  0
LINE
  8
0
 62
7
  6
CONTINUOUS
 10
144.9626723053
 20
105.0960586649
 11
145.0075529303
 21
104.967947732
  0
LINE
  8
0
 62
7
  6
CONTINUOUS
 10
139.0221943814
 20
105.1647741228
 11
138.9970234399
 21
104.4439726652
  0
LINE
  8
0
 62
7
  6
CONTINUOUS
 10
144.9381501214
 20
105.1647834232
 11
144.9633213877
 21
104.4439726652
  0
LINE
  8
0
 62
7
  6
CONTINUOUS
 10
138.9527918928
 20
104.9679477449
 11
139.0020377728
 21
105.1084332378
  0
LINE
  8
0
 62
7
  6
CONTINUOUS
 10
139.0020377728
 20
105.1084332378
 11
139.0176646102
 21
105.1522542546
  0
LINE
  8
0
 62
7
  6
CONTINUOUS
 10
139.0176646102
 20
105.1522542546
 11
139.0288788286
 21
105.1831056979
  0
POLYLINE
  8
0
 62
7
  6
CONTINUOUS
 66
1
 70
0
  0
VERTEX
  8
0
 62
7
  6
CONTINUOUS
 10
139.0288788286
 20
105.1831056979
  0
VERTEX
  8
0
 62
7
  6
CONTINUOUS
 10
139.0408543606
 20
105.2153687796
  0
VERTEX
  8
0
 62
7
  6
CONTINUOUS
 10
139.0473465366
 20
105.2325252731
  0
SEQEND
  0
POLYLINE
  8
0
 62
7
  6
CONTINUOUS
 66
1
 70
0
  0
VERTEX
  8
0
 62
7
  6
CONTINUOUS
 10
139.0473480982
 20
105.2325318411
  0
VERTEX
  8
0
 62
7
  6
CONTINUOUS
 10
139.052487715
 20
105.2455441979
  0
VERTEX
  8
0
 62
7
  6
CONTINUOUS
 10
139.0633575663
 20
105.270587069
  0
VERTEX
  8
0
 62
7
  6
CONTINUOUS
 10
139.0753852502
 20
105.2954705146
  0
VERTEX
  8
0
 62
7
  6
CONTINUOUS
 10
139.088440718
 20
105.3200616285
  0
VERTEX
  8
0
 62
7
  6
CONTINUOUS
 10
139.1024077093
 20
105.3442551272
  0
VERTEX
  8
0
 62
7
  6
CONTINUOUS
 10
139.1172064986
 20
105.3679990151
  0
VERTEX
  8
0
 62
7
  6
CONTINUOUS
 10
139.1327803285
 20
105.3912664949
  0
VERTEX
  8
0
 62
7
  6
CONTINUOUS
 10
139.1490951658
 20
105.4140448174
  0
VERTEX
  8
0
 62
7
  6
CONTINUOUS
 10
139.1661044074
 20
105.4362914869
  0
VERTEX
  8
0
 62
7
  6
CONTINUOUS
 10
139.1837797888
 20
105.457979094
  0
VERTEX
  8
0
 62
7
  6
CONTINUOUS
 10
139.202123663
 20
105.4791033737
  0
VERTEX
  8
0
 62
7
  6
CONTINUOUS
 10
139.2211494668
 20
105.499655311
  0
VERTEX
  8
0
 62
7
  6
CONTINUOUS
 10
139.2408809772
 20
105.5196215028
  0
VERTEX
  8
0
 62
7
  6
CONTINUOUS
 10
139.2613256108
 20
105.5389518625
  0
VERTEX
  8
0
 62
7
  6
CONTINUOUS
 10
139.2825442995
 20
105.557627418
  0
VERTEX
  8
0
 62
7
  6
CONTINUOUS
 10
139.3045461898
 20
105.5755683541
  0
VERTEX
  8
0
 62
7
  6
CONTINUOUS
 10
139.3273617077
 20
105.5926780771
  0
VERTEX
  8
0
 62
7
  6
CONTINUOUS
 10
139.3510520463
 20
105.6088763231
  0
VERTEX
  8
0
 62
7
  6
CONTINUOUS
 10
139.3756084614
 20
105.6239842018
  0
VERTEX
  8
0
 62
7
  6
CONTINUOUS
 10
139.4012446427
 20
105.6379352185
  0
VERTEX
  8
0
 62
7
  6
CONTINUOUS
 10
139.4279820599
 20
105.650459763
  0
VERTEX
  8
0
 62
7
  6
CONTINUOUS
 10
139.4559136571
 20
105.6612874897
  0
VERTEX
  8
0
 62
7
  6
CONTINUOUS
 10
139.4851080112
 20
105.6700307765
  0
VERTEX
  8
0
 62
7
  6
CONTINUOUS
 10
139.5158160334
 20
105.6762432009
  0
VERTEX
  8
0
 62
7
  6
CONTINUOUS
 10
139.5470372924
 20
105.6792539849
  0
VERTEX
  8
0
 62
7
  6
CONTINUOUS
 10
139.5584697893
 20
105.6794932218
  0
SEQEND
  0
LINE
  8
0
 62
7
  6
CONTINUOUS
 10
148.4801724138
 20
104.4614224136
 11
148.4801724138
 21
143.0614224136
  0
LINE
  8
4_SURFACE
 62
7
  6
CONTINUOUS
 10
34.3801724138
 20
198.1596176578
 11
34.3801724138
 21
186.703935297
  0
POLYLINE
  8
4_SURFACE
 62
7
  6
CONTINUOUS
 66
1
 70
0
  0
VERTEX
  8
4_SURFACE
 62
7
  6
CONTINUOUS
 10
37.9884267992
 20
192.553935297
  0
VERTEX
  8
4_SURFACE
 62
7
  6
CONTINUOUS
 10
37.9891936216
 20
192.931096781
  0
VERTEX
  8
4_SURFACE
 62
7
  6
CONTINUOUS
 10
37.9914837879
 20
193.3031690332
  0
VERTEX
  8
4_SURFACE
 62
7
  6
CONTINUOUS
 10
37.9952665267
 20
193.6651302929
  0
VERTEX
  8
4_SURFACE
 62
7
  6
CONTINUOUS
 10
38.0004909866
 20
194.0120929133
  0
VERTEX
  8
4_SURFACE
 62
7
  6
CONTINUOUS
 10
38.0070868909
 20
194.3393688141
  0
VERTEX
  8
4_SURFACE
 62
7
  6
CONTINUOUS
 10
38.01496544
 20
194.6425321607
  0
VERTEX
  8
4_SURFACE
 62
7
  6
CONTINUOUS
 10
38.0240204617
 20
194.9174792047
  0
VERTEX
  8
4_SURFACE
 62
7
  6
CONTINUOUS
 10
38.0341298104
 20
195.1604845348
  0
VERTEX
  8
4_SURFACE
 62
7
  6
CONTINUOUS
 10
38.0451569745
 20
195.3682520359
  0
VERTEX
  8
4_SURFACE
 62
7
  6
CONTINUOUS
 10
38.0569528964
 20
195.5379607173
  0
VERTEX
  8
4_SURFACE
 62
7
  6
CONTINUOUS
 10
38.0693579909
 20
195.6673043771
  0
VERTEX
  8
4_SURFACE
 62
7
  6
CONTINUOUS
 10
38.0822043013
 20
195.7545239665
  0
VERTEX
  8
4_SURFACE
 62
7
  6
CONTINUOUS
 10
38.0953177964
 20
195.7984326382
  0
VERTEX
  8
4_SURFACE
 62
7
  6
CONTINUOUS
 10
38.1019193
 20
195.8039212465
  0
SEQEND
  0
POLYLINE
  8
4_SURFACE
 62
7
  6
CONTINUOUS
 66
1
 70
0
  0
VERTEX
  8
4_SURFACE
 62
7
  6
CONTINUOUS
 10
38.2154118009
 20
192.553935297
  0
VERTEX
  8
4_SURFACE
 62
7
  6
CONTINUOUS
 10
38.2146449785
 20
192.1767738129
  0
VERTEX
  8
4_SURFACE
 62
7
  6
CONTINUOUS
 10
38.2123548122
 20
191.8047015607
  0
VERTEX
  8
4_SURFACE
 62
7
  6
CONTINUOUS
 10
38.2085720734
 20
191.442740301
  0
VERTEX
  8
4_SURFACE
 62
7
  6
CONTINUOUS
 10
38.2033476135
 20
191.0957776806
  0
VERTEX
  8
4_SURFACE
 62
7
  6
CONTINUOUS
 10
38.1967517092
 20
190.7685017798
  0
VERTEX
  8
4_SURFACE
 62
7
  6
CONTINUOUS
 10
38.1888731601
 20
190.4653384332
  0
VERTEX
  8
4_SURFACE
 62
7
  6
CONTINUOUS
 10
38.1798181384
 20
190.1903913893
  0
VERTEX
  8
4_SURFACE
 62
7
  6
CONTINUOUS
 10
38.1697087897
 20
189.9473860591
  0
VERTEX
  8
4_SURFACE
 62
7
  6
CONTINUOUS
 10
38.1586816256
 20
189.739618558
  0
VERTEX
  8
4_SURFACE
 62
7
  6
CONTINUOUS
 10
38.1468857037
 20
189.5699098766
  0
VERTEX
  8
4_SURFACE
 62
7
  6
CONTINUOUS
 10
38.1344806092
 20
189.4405662168
  0
VERTEX
  8
4_SURFACE
 62
7
  6
CONTINUOUS
 10
38.1216342988
 20
189.3533466274
  0
VERTEX
  8
4_SURFACE
 62
7
  6
CONTINUOUS
 10
38.1085208037
 20
189.3094379557
  0
VERTEX
  8
4_SURFACE
 62
7
  6
CONTINUOUS
 10
38.1019193001
 20
189.3039493475
  0
SEQEND
  0
POLYLINE
  8
4_SURFACE
 62
7
  6
CONTINUOUS
 66
1
 70
0
  0
VERTEX
  8
4_SURFACE
 62
7
  6
CONTINUOUS
 10
37.9332706393
 20
195.8206951964
  0
VERTEX
  8
4_SURFACE
 62
7
  6
CONTINUOUS
 10
37.9344094496
 20
195.8296277095
  0
VERTEX
  8
4_SURFACE
 62
7
  6
CONTINUOUS
 10
37.938409925
 20
195.8508869436
  0
VERTEX
  8
4_SURFACE
 62
7
  6
CONTINUOUS
 10
37.9391774701
 20
195.8540902871
  0
SEQEND
  0
POLYLINE
  8
4_SURFACE
 62
7
  6
CONTINUOUS
 66
1
 70
0
  0
VERTEX
  8
4_SURFACE
 62
7
  6
CONTINUOUS
 10
37.9391733183
 20
195.8540734575
  0
VERTEX
  8
4_SURFACE
 62
7
  6
CONTINUOUS
 10
37.9465068167
 20
195.8834094556
  0
VERTEX
  8
4_SURFACE
 62
7
  6
CONTINUOUS
 10
37.9518116687
 20
195.9041229664
  0
VERTEX
  8
4_SURFACE
 62
7
  6
CONTINUOUS
 10
37.9570643772
 20
195.9242108837
  0
SEQEND
  0
POLYLINE
  8
4_SURFACE
 62
7
  6
CONTINUOUS
 66
1
 70
0
  0
VERTEX
  8
4_SURFACE
 62
7
  6
CONTINUOUS
 10
37.9570631501
 20
195.9242097737
  0
VERTEX
  8
4_SURFACE
 62
7
  6
CONTINUOUS
 10
37.9614168442
 20
195.9401968934
  0
VERTEX
  8
4_SURFACE
 62
7
  6
CONTINUOUS
 10
37.9727508072
 20
195.9779808008
  0
VERTEX
  8
4_SURFACE
 62
7
  6
CONTINUOUS
 10
37.9851908359
 20
196.0146091258
  0
VERTEX
  8
4_SURFACE
 62
7
  6
CONTINUOUS
 10
37.9986727845
 20
196.0500731191
  0
VERTEX
  8
4_SURFACE
 62
7
  6
CONTINUOUS
 10
38.01313708
 20
196.0843640528
  0
VERTEX
  8
4_SURFACE
 62
7
  6
CONTINUOUS
 10
38.0285304572
 20
196.1174668477
  0
VERTEX
  8
4_SURFACE
 62
7
  6
CONTINUOUS
 10
38.0448052623
 20
196.149373086
  0
VERTEX
  8
4_SURFACE
 62
7
  6
CONTINUOUS
 10
38.0619120126
 20
196.1800545584
  0
VERTEX
  8
4_SURFACE
 62
7
  6
CONTINUOUS
 10
38.0797927543
 20
196.2094681816
  0
VERTEX
  8
4_SURFACE
 62
7
  6
CONTINUOUS
 10
38.0984054629
 20
196.2375951093
  0
VERTEX
  8
4_SURFACE
 62
7
  6
CONTINUOUS
 10
38.117759222
 20
196.264472152
  0
VERTEX
  8
4_SURFACE
 62
7
  6
CONTINUOUS
 10
38.1378558316
 20
196.2901107507
  0
VERTEX
  8
4_SURFACE
 62
7
  6
CONTINUOUS
 10
38.1586950656
 20
196.3144870073
  0
VERTEX
  8
4_SURFACE
 62
7
  6
CONTINUOUS
 10
38.1802963866
 20
196.3375915096
  0
VERTEX
  8
4_SURFACE
 62
7
  6
CONTINUOUS
 10
38.2026373944
 20
196.3593458261
  0
VERTEX
  8
4_SURFACE
 62
7
  6
CONTINUOUS
 10
38.2257366332
 20
196.3796983225
  0
VERTEX
  8
4_SURFACE
 62
7
  6
CONTINUOUS
 10
38.2495497855
 20
196.398530956
  0
VERTEX
  8
4_SURFACE
 62
7
  6
CONTINUOUS
 10
38.2741133915
 20
196.4157677058
  0
VERTEX
  8
4_SURFACE
 62
7
  6
CONTINUOUS
 10
38.2995833341
 20
196.4313726942
  0
VERTEX
  8
4_SURFACE
 62
7
  6
CONTINUOUS
 10
38.326130746
 20
196.4452286585
  0
VERTEX
  8
4_SURFACE
 62
7
  6
CONTINUOUS
 10
38.3538086828
 20
196.4570771742
  0
VERTEX
  8
4_SURFACE
 62
7
  6
CONTINUOUS
 10
38.3830518704
 20
196.4666994228
  0
VERTEX
  8
4_SURFACE
 62
7
  6
CONTINUOUS
 10
38.4137433102
 20
196.4735348468
  0
VERTEX
  8
4_SURFACE
 62
7
  6
CONTINUOUS
 10
38.4448097889
 20
196.4769504859
  0
VERTEX
  8
4_SURFACE
 62
7
  6
CONTINUOUS
 10
38.4584685454
 20
196.4773049787
  0
SEQEND
  0
POLYLINE
  8
4_SURFACE
 62
7
  6
CONTINUOUS
 66
1
 70
0
  0
VERTEX
  8
4_SURFACE
 62
7
  6
CONTINUOUS
 10
43.5449330267
 20
192.553935297
  0
VERTEX
  8
4_SURFACE
 62
7
  6
CONTINUOUS
 10
43.5456998491
 20
192.1767738129
  0
VERTEX
  8
4_SURFACE
 62
7
  6
CONTINUOUS
 10
43.5479900154
 20
191.8047015607
  0
VERTEX
  8
4_SURFACE
 62
7
  6
CONTINUOUS
 10
43.5517727541
 20
191.442740301
  0
VERTEX
  8
4_SURFACE
 62
7
  6
CONTINUOUS
 10
43.5569972141
 20
191.0957776806
  0
VERTEX
  8
4_SURFACE
 62
7
  6
CONTINUOUS
 10
43.5635931184
 20
190.7685017798
  0
VERTEX
  8
4_SURFACE
 62
7
  6
CONTINUOUS
 10
43.5714716675
 20
190.4653384332
  0
VERTEX
  8
4_SURFACE
 62
7
  6
CONTINUOUS
 10
43.5805266892
 20
190.1903913893
  0
VERTEX
  8
4_SURFACE
 62
7
  6
CONTINUOUS
 10
43.5906360379
 20
189.9473860591
  0
VERTEX
  8
4_SURFACE
 62
7
  6
CONTINUOUS
 10
43.6016632019
 20
189.739618558
  0
VERTEX
  8
4_SURFACE
 62
7
  6
CONTINUOUS
 10
43.6134591239
 20
189.5699098766
  0
VERTEX
  8
4_SURFACE
 62
7
  6
CONTINUOUS
 10
43.6258642184
 20
189.4405662168
  0
VERTEX
  8
4_SURFACE
 62
7
  6
CONTINUOUS
 10
43.6387105288
 20
189.3533466274
  0
VERTEX
  8
4_SURFACE
 62
7
  6
CONTINUOUS
 10
43.6518240239
 20
189.3094379557
  0
VERTEX
  8
4_SURFACE
 62
7
  6
CONTINUOUS
 10
43.6584255275
 20
189.3039493475
  0
SEQEND
  0
POLYLINE
  8
4_SURFACE
 62
7
  6
CONTINUOUS
 66
1
 70
0
  0
VERTEX
  8
4_SURFACE
 62
7
  6
CONTINUOUS
 10
43.7719180284
 20
192.553935297
  0
VERTEX
  8
4_SURFACE
 62
7
  6
CONTINUOUS
 10
43.771151206
 20
192.931096781
  0
VERTEX
  8
4_SURFACE
 62
7
  6
CONTINUOUS
 10
43.7688610397
 20
193.3031690332
  0
VERTEX
  8
4_SURFACE
 62
7
  6
CONTINUOUS
 10
43.7650783009
 20
193.6651302929
  0
VERTEX
  8
4_SURFACE
 62
7
  6
CONTINUOUS
 10
43.759853841
 20
194.0120929133
  0
VERTEX
  8
4_SURFACE
 62
7
  6
CONTINUOUS
 10
43.7532579367
 20
194.3393688141
  0
VERTEX
  8
4_SURFACE
 62
7
  6
CONTINUOUS
 10
43.7453793875
 20
194.6425321607
  0
VERTEX
  8
4_SURFACE
 62
7
  6
CONTINUOUS
 10
43.7363243659
 20
194.9174792047
  0
VERTEX
  8
4_SURFACE
 62
7
  6
CONTINUOUS
 10
43.7262150172
 20
195.1604845348
  0
VERTEX
  8
4_SURFACE
 62
7
  6
CONTINUOUS
 10
43.7151878531
 20
195.3682520359
  0
VERTEX
  8
4_SURFACE
 62
7
  6
CONTINUOUS
 10
43.7033919312
 20
195.5379607173
  0
VERTEX
  8
4_SURFACE
 62
7
  6
CONTINUOUS
 10
43.6909868367
 20
195.6673043771
  0
VERTEX
  8
4_SURFACE
 62
7
  6
CONTINUOUS
 10
43.6781405263
 20
195.7545239665
  0
VERTEX
  8
4_SURFACE
 62
7
  6
CONTINUOUS
 10
43.6650270312
 20
195.7984326382
  0
VERTEX
  8
4_SURFACE
 62
7
  6
CONTINUOUS
 10
43.6584255276
 20
195.8039212465
  0
SEQEND
  0
POLYLINE
  8
4_SURFACE
 62
7
  6
CONTINUOUS
 66
1
 70
0
  0
VERTEX
  8
4_SURFACE
 62
7
  6
CONTINUOUS
 10
43.8211672127
 20
195.8540908612
  0
VERTEX
  8
4_SURFACE
 62
7
  6
CONTINUOUS
 10
43.8218552652
 20
195.8512281646
  0
VERTEX
  8
4_SURFACE
 62
7
  6
CONTINUOUS
 10
43.82582279
 20
195.8303959604
  0
VERTEX
  8
4_SURFACE
 62
7
  6
CONTINUOUS
 10
43.8270741626
 20
195.8206952652
  0
SEQEND
  0
LINE
  8
4_SURFACE
 62
7
  6
CONTINUOUS
 10
46.7170683052
 20
186.6952090937
 11
46.9212925649
 21
198.3952090937
  0
LINE
  8
4_SURFACE
 62
7
  6
CONTINUOUS
 10
49.8017769381
 20
194.4126615002
 11
49.6670683052
 21
186.6952090937
  0
LINE
  8
4_SURFACE
 62
7
  6
CONTINUOUS
 10
43.8032798447
 20
195.9242131043
 11
43.8113914271
 21
195.8930155147
  0
POLYLINE
  8
4_SURFACE
 62
7
  6
CONTINUOUS
 66
1
 70
0
  0
VERTEX
  8
4_SURFACE
 62
7
  6
CONTINUOUS
 10
43.8113914271
 20
195.8930155147
  0
VERTEX
  8
4_SURFACE
 62
7
  6
CONTINUOUS
 10
43.8206707589
 20
195.8561033344
  0
VERTEX
  8
4_SURFACE
 62
7
  6
CONTINUOUS
 10
43.8211792652
 20
195.8540431866
  0
SEQEND
  0
LINE
  8
4_SURFACE
 62
7
  6
CONTINUOUS
 10
56.9085678895
 20
194.4126615002
 11
57.0432765224
 21
186.6952090937
  0
POLYLINE
  8
4_SURFACE
 62
7
  6
CONTINUOUS
 66
1
 70
0
  0
VERTEX
  8
4_SURFACE
 62
7
  6
CONTINUOUS
 10
38.1019193001
 20
189.3039493475
  0
VERTEX
  8
4_SURFACE
 62
7
  6
CONTINUOUS
 10
38.0953178346
 20
189.309437892
  0
VERTEX
  8
4_SURFACE
 62
7
  6
CONTINUOUS
 10
38.0822043379
 20
189.3533464424
  0
VERTEX
  8
4_SURFACE
 62
7
  6
CONTINUOUS
 10
38.0693580246
 20
189.4405659276
  0
VERTEX
  8
4_SURFACE
 62
7
  6
CONTINUOUS
 10
38.0569529261
 20
189.5699095095
  0
VERTEX
  8
4_SURFACE
 62
7
  6
CONTINUOUS
 10
38.0451569994
 20
189.7396181455
  0
VERTEX
  8
4_SURFACE
 62
7
  6
CONTINUOUS
 10
38.0341298302
 20
189.9473856364
  0
VERTEX
  8
4_SURFACE
 62
7
  6
CONTINUOUS
 10
38.0240204765
 20
190.1903909898
  0
VERTEX
  8
4_SURFACE
 62
7
  6
CONTINUOUS
 10
38.0149654503
 20
190.4653380846
  0
VERTEX
  8
4_SURFACE
 62
7
  6
CONTINUOUS
 10
38.0070868973
 20
190.7685015012
  0
VERTEX
  8
4_SURFACE
 62
7
  6
CONTINUOUS
 10
38.0004909901
 20
191.0957774813
  0
VERTEX
  8
4_SURFACE
 62
7
  6
CONTINUOUS
 10
37.9952665282
 20
191.4427401798
  0
VERTEX
  8
4_SURFACE
 62
7
  6
CONTINUOUS
 10
37.9914837884
 20
191.8047015053
  0
VERTEX
  8
4_SURFACE
 62
7
  6
CONTINUOUS
 10
37.9891936216
 20
192.1767738009
  0
VERTEX
  8
4_SURFACE
 62
7
  6
CONTINUOUS
 10
37.9884267992
 20
192.553935297
  0
SEQEND
  0
LINE
  8
4_SURFACE
 62
7
  6
CONTINUOUS
 10
59.6890522627
 20
198.3952090937
 11
59.8932765224
 21
186.6952090937
  0
POLYLINE
  8
4_SURFACE
 62
7
  6
CONTINUOUS
 66
1
 70
0
  0
VERTEX
  8
4_SURFACE
 62
7
  6
CONTINUOUS
 10
43.6584255276
 20
195.8039212465
  0
VERTEX
  8
4_SURFACE
 62
7
  6
CONTINUOUS
 10
43.6518240621
 20
195.7984327019
  0
VERTEX
  8
4_SURFACE
 62
7
  6
CONTINUOUS
 10
43.6387105654
 20
195.7545241516
  0
VERTEX
  8
4_SURFACE
 62
7
  6
CONTINUOUS
 10
43.6258642521
 20
195.6673046663
  0
VERTEX
  8
4_SURFACE
 62
7
  6
CONTINUOUS
 10
43.6134591536
 20
195.5379610844
  0
VERTEX
  8
4_SURFACE
 62
7
  6
CONTINUOUS
 10
43.6016632269
 20
195.3682524484
  0
VERTEX
  8
4_SURFACE
 62
7
  6
CONTINUOUS
 10
43.5906360577
 20
195.1604849575
  0
VERTEX
  8
4_SURFACE
 62
7
  6
CONTINUOUS
 10
43.5805267039
 20
194.9174796041
  0
VERTEX
  8
4_SURFACE
 62
7
  6
CONTINUOUS
 10
43.5714716777
 20
194.6425325093
  0
VERTEX
  8
4_SURFACE
 62
7
  6
CONTINUOUS
 10
43.5635931248
 20
194.3393690927
  0
VERTEX
  8
4_SURFACE
 62
7
  6
CONTINUOUS
 10
43.5569972176
 20
194.0120931126
  0
VERTEX
  8
4_SURFACE
 62
7
  6
CONTINUOUS
 10
43.5517727557
 20
193.6651304141
  0
VERTEX
  8
4_SURFACE
 62
7
  6
CONTINUOUS
 10
43.5479900158
 20
193.3031690886
  0
VERTEX
  8
4_SURFACE
 62
7
  6
CONTINUOUS
 10
43.5456998491
 20
192.931096793
  0
VERTEX
  8
4_SURFACE
 62
7
  6
CONTINUOUS
 10
43.5449330267
 20
192.553935297
  0
SEQEND
  0
POLYLINE
  8
4_SURFACE
 62
7
  6
CONTINUOUS
 66
1
 70
0
  0
VERTEX
  8
4_SURFACE
 62
7
  6
CONTINUOUS
 10
38.1019193
 20
195.8039212465
  0
VERTEX
  8
4_SURFACE
 62
7
  6
CONTINUOUS
 10
38.1085207655
 20
195.7984327019
  0
VERTEX
  8
4_SURFACE
 62
7
  6
CONTINUOUS
 10
38.1216342622
 20
195.7545241516
  0
VERTEX
  8
4_SURFACE
 62
7
  6
CONTINUOUS
 10
38.1344805755
 20
195.6673046663
  0
VERTEX
  8
4_SURFACE
 62
7
  6
CONTINUOUS
 10
38.146885674
 20
195.5379610844
  0
VERTEX
  8
4_SURFACE
 62
7
  6
CONTINUOUS
 10
38.1586816007
 20
195.3682524484
  0
VERTEX
  8
4_SURFACE
 62
7
  6
CONTINUOUS
 10
38.1697087699
 20
195.1604849575
  0
VERTEX
  8
4_SURFACE
 62
7
  6
CONTINUOUS
 10
38.1798181236
 20
194.9174796041
  0
VERTEX
  8
4_SURFACE
 62
7
  6
CONTINUOUS
 10
38.1888731498
 20
194.6425325093
  0
VERTEX
  8
4_SURFACE
 62
7
  6
CONTINUOUS
 10
38.1967517028
 20
194.3393690927
  0
VERTEX
  8
4_SURFACE
 62
7
  6
CONTINUOUS
 10
38.20334761
 20
194.0120931126
  0
VERTEX
  8
4_SURFACE
 62
7
  6
CONTINUOUS
 10
38.2085720719
 20
193.6651304141
  0
VERTEX
  8
4_SURFACE
 62
7
  6
CONTINUOUS
 10
38.2123548117
 20
193.3031690886
  0
VERTEX
  8
4_SURFACE
 62
7
  6
CONTINUOUS
 10
38.2146449785
 20
192.931096793
  0
VERTEX
  8
4_SURFACE
 62
7
  6
CONTINUOUS
 10
38.2154118009
 20
192.553935297
  0
SEQEND
  0
POLYLINE
  8
4_SURFACE
 62
7
  6
CONTINUOUS
 66
1
 70
0
  0
VERTEX
  8
4_SURFACE
 62
7
  6
CONTINUOUS
 10
43.6584255275
 20
189.3039493475
  0
VERTEX
  8
4_SURFACE
 62
7
  6
CONTINUOUS
 10
43.665026993
 20
189.309437892
  0
VERTEX
  8
4_SURFACE
 62
7
  6
CONTINUOUS
 10
43.6781404896
 20
189.3533464424
  0
VERTEX
  8
4_SURFACE
 62
7
  6
CONTINUOUS
 10
43.690986803
 20
189.4405659276
  0
VERTEX
  8
4_SURFACE
 62
7
  6
CONTINUOUS
 10
43.7033919015
 20
189.5699095095
  0
VERTEX
  8
4_SURFACE
 62
7
  6
CONTINUOUS
 10
43.7151878282
 20
189.7396181455
  0
VERTEX
  8
4_SURFACE
 62
7
  6
CONTINUOUS
 10
43.7262149973
 20
189.9473856364
  0
VERTEX
  8
4_SURFACE
 62
7
  6
CONTINUOUS
 10
43.7363243511
 20
190.1903909898
  0
VERTEX
  8
4_SURFACE
 62
7
  6
CONTINUOUS
 10
43.7453793773
 20
190.4653380846
  0
VERTEX
  8
4_SURFACE
 62
7
  6
CONTINUOUS
 10
43.7532579303
 20
190.7685015012
  0
VERTEX
  8
4_SURFACE
 62
7
  6
CONTINUOUS
 10
43.7598538375
 20
191.0957774813
  0
VERTEX
  8
4_SURFACE
 62
7
  6
CONTINUOUS
 10
43.7650782994
 20
191.4427401798
  0
VERTEX
  8
4_SURFACE
 62
7
  6
CONTINUOUS
 10
43.7688610392
 20
191.8047015053
  0
VERTEX
  8
4_SURFACE
 62
7
  6
CONTINUOUS
 10
43.771151206
 20
192.1767738009
  0
VERTEX
  8
4_SURFACE
 62
7
  6
CONTINUOUS
 10
43.7719180284
 20
192.553935297
  0
SEQEND
  0
LINE
  8
4_SURFACE
 62
7
  6
CONTINUOUS
 10
80.5712925649
 20
198.3952090937
 11
80.3670683052
 21
186.6952090937
  0
LINE
  8
4_SURFACE
 62
7
  6
CONTINUOUS
 10
83.3517769381
 20
194.4126615002
 11
83.2170683052
 21
186.6952090937
  0
POLYLINE
  8
0
 62
7
  6
CONTINUOUS
 66
1
 70
0
  0
VERTEX
  8
0
 62
7
  6
CONTINUOUS
 10
138.6621091686
 20
186.2039491829
  0
VERTEX
  8
0
 62
7
  6
CONTINUOUS
 10
138.7401839829
 20
186.2106757995
  0
VERTEX
  8
0
 62
7
  6
CONTINUOUS
 10
138.8162359224
 20
186.2295059744
  0
VERTEX
  8
0
 62
7
  6
CONTINUOUS
 10
138.8884059414
 20
186.25994968
  0
VERTEX
  8
0
 62
7
  6
CONTINUOUS
 10
138.9549349941
 20
186.3012328708
  0
VERTEX
  8
0
 62
7
  6
CONTINUOUS
 10
139.014209027
 20
186.352317317
  0
VERTEX
  8
0
 62
7
  6
CONTINUOUS
 10
139.0647997603
 20
186.4119284977
  0
VERTEX
  8
0
 62
7
  6
CONTINUOUS
 10
139.1054993395
 20
186.4785901225
  0
VERTEX
  8
0
 62
7
  6
CONTINUOUS
 10
139.1353478141
 20
186.5506635781
  0
VERTEX
  8
0
 62
7
  6
CONTINUOUS
 10
139.1536528987
 20
186.6263902694
  0
VERTEX
  8
0
 62
7
  6
CONTINUOUS
 10
139.1600022681
 20
186.703935297
  0
SEQEND
  0
POLYLINE
  8
4_SURFACE
 62
7
  6
CONTINUOUS
 66
1
 70
0
  0
VERTEX
  8
4_SURFACE
 62
7
  6
CONTINUOUS
 10
44.198235659
 20
186.2039491829
  0
VERTEX
  8
4_SURFACE
 62
7
  6
CONTINUOUS
 10
44.1201608447
 20
186.2106757995
  0
VERTEX
  8
4_SURFACE
 62
7
  6
CONTINUOUS
 10
44.0441089052
 20
186.2295059744
  0
VERTEX
  8
4_SURFACE
 62
7
  6
CONTINUOUS
 10
43.9719388862
 20
186.25994968
  0
VERTEX
  8
4_SURFACE
 62
7
  6
CONTINUOUS
 10
43.9054098335
 20
186.3012328708
  0
VERTEX
  8
4_SURFACE
 62
7
  6
CONTINUOUS
 10
43.8461358006
 20
186.352317317
  0
VERTEX
  8
4_SURFACE
 62
7
  6
CONTINUOUS
 10
43.7955450673
 20
186.4119284977
  0
VERTEX
  8
4_SURFACE
 62
7
  6
CONTINUOUS
 10
43.7548454881
 20
186.4785901225
  0
VERTEX
  8
4_SURFACE
 62
7
  6
CONTINUOUS
 10
43.7249970134
 20
186.5506635781
  0
VERTEX
  8
4_SURFACE
 62
7
  6
CONTINUOUS
 10
43.7066919289
 20
186.6263902694
  0
VERTEX
  8
4_SURFACE
 62
7
  6
CONTINUOUS
 10
43.7003425595
 20
186.703935297
  0
SEQEND
  0
LINE
  8
0
 62
7
  6
CONTINUOUS
 10
112.5301724138
 20
187.2540105719
 11
114.9301726036
 21
187.2540105719
  0
LINE
  8
4_SURFACE
 62
7
  6
CONTINUOUS
 10
34.8801724138
 20
186.203935297
 11
85.6665446797
 21
186.203935297
  0
LINE
  8
0
 62
7
  6
CONTINUOUS
 10
85.6665446797
 20
186.203935297
 11
147.9801724138
 21
186.203935297
  0
POLYLINE
  8
0
 62
7
  6
CONTINUOUS
 66
1
 70
0
  0
VERTEX
  8
0
 62
7
  6
CONTINUOUS
 10
114.9301726043
 20
187.2540137841
  0
VERTEX
  8
0
 62
7
  6
CONTINUOUS
 10
114.9473757244
 20
187.2537516386
  0
VERTEX
  8
0
 62
7
  6
CONTINUOUS
 10
114.9915822165
 20
187.250672308
  0
VERTEX
  8
0
 62
7
  6
CONTINUOUS
 10
115.0350741255
 20
187.2441899985
  0
VERTEX
  8
0
 62
7
  6
CONTINUOUS
 10
115.0764747313
 20
187.2346755018
  0
VERTEX
  8
0
 62
7
  6
CONTINUOUS
 10
115.1150490713
 20
187.2226353493
  0
VERTEX
  8
0
 62
7
  6
CONTINUOUS
 10
115.1504386891
 20
187.2085609258
  0
VERTEX
  8
0
 62
7
  6
CONTINUOUS
 10
115.1820159014
 20
187.193110669
  0
VERTEX
  8
0
 62
7
  6
CONTINUOUS
 10
115.2088978575
 20
187.1772634673
  0
VERTEX
  8
0
 62
7
  6
CONTINUOUS
 10
115.2304119449
 20
187.1621437869
  0
VERTEX
  8
0
 62
7
  6
CONTINUOUS
 10
115.2459691214
 20
187.1491223915
  0
VERTEX
  8
0
 62
7
  6
CONTINUOUS
 10
115.2550546648
 20
187.1400057788
  0
VERTEX
  8
0
 62
7
  6
CONTINUOUS
 10
115.2563668409
 20
187.1384865725
  0
SEQEND
  0
POLYLINE
  8
4_SURFACE
 62
7
  6
CONTINUOUS
 66
1
 70
0
  0
VERTEX
  8
4_SURFACE
 62
7
  6
CONTINUOUS
 10
37.5621091686
 20
186.2039491829
  0
VERTEX
  8
4_SURFACE
 62
7
  6
CONTINUOUS
 10
37.6401839829
 20
186.2106757995
  0
VERTEX
  8
4_SURFACE
 62
7
  6
CONTINUOUS
 10
37.7162359224
 20
186.2295059744
  0
VERTEX
  8
4_SURFACE
 62
7
  6
CONTINUOUS
 10
37.7884059414
 20
186.25994968
  0
VERTEX
  8
4_SURFACE
 62
7
  6
CONTINUOUS
 10
37.8549349941
 20
186.3012328708
  0
VERTEX
  8
4_SURFACE
 62
7
  6
CONTINUOUS
 10
37.914209027
 20
186.352317317
  0
VERTEX
  8
4_SURFACE
 62
7
  6
CONTINUOUS
 10
37.9647997603
 20
186.4119284977
  0
VERTEX
  8
4_SURFACE
 62
7
  6
CONTINUOUS
 10
38.0054993395
 20
186.4785901225
  0
VERTEX
  8
4_SURFACE
 62
7
  6
CONTINUOUS
 10
38.0353478141
 20
186.5506635781
  0
VERTEX
  8
4_SURFACE
 62
7
  6
CONTINUOUS
 10
38.0536528987
 20
186.6263902694
  0
VERTEX
  8
4_SURFACE
 62
7
  6
CONTINUOUS
 10
38.0600022681
 20
186.703935297
  0
SEQEND
  0
LINE
  8
0
 62
7
  6
CONTINUOUS
 10
73.1372729518
 20
192.553935297
 11
79.3830718755
 21
192.553935297
  0
LINE
  8
0
 62
7
  6
CONTINUOUS
 10
103.4772729518
 20
192.553935297
 11
109.7230718755
 21
192.553935297
  0
LINE
  8
0
 62
7
  6
CONTINUOUS
 10
111.5099123587
 20
192.553935297
 11
115.8904324699
 21
192.553935297
  0
LINE
  8
1_AXIS
 62
2
  6
CENTER
 10
31.0749452954
 20
192.553935297
 11
151.954595186
 21
192.553935297
  0
POLYLINE
  8
0
 62
7
  6
CONTINUOUS
 66
1
 70
0
  0
VERTEX
  8
0
 62
7
  6
CONTINUOUS
 10
145.298235659
 20
186.2039491829
  0
VERTEX
  8
0
 62
7
  6
CONTINUOUS
 10
145.2201608447
 20
186.2106757995
  0
VERTEX
  8
0
 62
7
  6
CONTINUOUS
 10
145.1441089052
 20
186.2295059744
  0
VERTEX
  8
0
 62
7
  6
CONTINUOUS
 10
145.0719388862
 20
186.25994968
  0
VERTEX
  8
0
 62
7
  6
CONTINUOUS
 10
145.0054098335
 20
186.3012328708
  0
VERTEX
  8
0
 62
7
  6
CONTINUOUS
 10
144.9461358006
 20
186.352317317
  0
VERTEX
  8
0
 62
7
  6
CONTINUOUS
 10
144.8955450673
 20
186.4119284977
  0
VERTEX
  8
0
 62
7
  6
CONTINUOUS
 10
144.8548454881
 20
186.4785901225
  0
VERTEX
  8
0
 62
7
  6
CONTINUOUS
 10
144.8249970134
 20
186.5506635781
  0
VERTEX
  8
0
 62
7
  6
CONTINUOUS
 10
144.8066919289
 20
186.6263902694
  0
VERTEX
  8
0
 62
7
  6
CONTINUOUS
 10
144.8003425595
 20
186.703935297
  0
SEQEND
  0
LINE
  8
0
 62
7
  6
CONTINUOUS
 10
132.565645292
 20
194.903935297
 11
126.4446995356
 21
194.903935297
  0
LINE
  8
0
 62
7
  6
CONTINUOUS
 10
99.015645292
 20
194.903935297
 11
83.8446995356
 21
194.903935297
  0
LINE
  8
4_SURFACE
 62
7
  6
CONTINUOUS
 10
56.415645292
 20
194.903935297
 11
50.2946995356
 21
194.903935297
  0
LINE
  8
0
 62
7
  6
CONTINUOUS
 10
144.4018762804
 20
196.4773108864
 11
139.5584690693
 21
196.4773108864
  0
LINE
  8
4_SURFACE
 62
7
  6
CONTINUOUS
 10
43.3018757583
 20
196.4773108864
 11
38.4584685472
 21
196.4773108864
  0
POLYLINE
  8
4_SURFACE
 62
7
  6
CONTINUOUS
 66
1
 70
0
  0
VERTEX
  8
4_SURFACE
 62
7
  6
CONTINUOUS
 10
43.3018757538
 20
196.4773048522
  0
VERTEX
  8
4_SURFACE
 62
7
  6
CONTINUOUS
 10
43.3139868676
 20
196.4770265274
  0
VERTEX
  8
4_SURFACE
 62
7
  6
CONTINUOUS
 10
43.3451062056
 20
196.4737810359
  0
VERTEX
  8
4_SURFACE
 62
7
  6
CONTINUOUS
 10
43.3759006779
 20
196.4670824575
  0
VERTEX
  8
4_SURFACE
 62
7
  6
CONTINUOUS
 10
43.4052384127
 20
196.4575675778
  0
VERTEX
  8
4_SURFACE
 62
7
  6
CONTINUOUS
 10
43.4329895107
 20
196.4458088375
  0
VERTEX
  8
4_SURFACE
 62
7
  6
CONTINUOUS
 10
43.4595946992
 20
196.4320331488
  0
VERTEX
  8
4_SURFACE
 62
7
  6
CONTINUOUS
 10
43.4851133441
 20
196.4165005545
  0
VERTEX
  8
4_SURFACE
 62
7
  6
CONTINUOUS
 10
43.5097159543
 20
196.3993343546
  0
VERTEX
  8
4_SURFACE
 62
7
  6
CONTINUOUS
 10
43.533569576
 20
196.3805641078
  0
VERTEX
  8
4_SURFACE
 62
7
  6
CONTINUOUS
 10
43.5567022793
 20
196.3602761171
  0
VERTEX
  8
4_SURFACE
 62
7
  6
CONTINUOUS
 10
43.57907672
 20
196.3385814314
  0
VERTEX
  8
4_SURFACE
 62
7
  6
CONTINUOUS
 10
43.6007089056
 20
196.3155383181
  0
VERTEX
  8
4_SURFACE
 62
7
  6
CONTINUOUS
 10
43.6215763079
 20
196.2912237544
  0
VERTEX
  8
4_SURFACE
 62
7
  6
CONTINUOUS
 10
43.6417028449
 20
196.2656452053
  0
VERTEX
  8
4_SURFACE
 62
7
  6
CONTINUOUS
 10
43.6610838549
 20
196.238832274
  0
VERTEX
  8
4_SURFACE
 62
7
  6
CONTINUOUS
 10
43.6797262915
 20
196.210767217
  0
VERTEX
  8
4_SURFACE
 62
7
  6
CONTINUOUS
 10
43.6976381332
 20
196.1814166403
  0
VERTEX
  8
4_SURFACE
 62
7
  6
CONTINUOUS
 10
43.7147774002
 20
196.1507986601
  0
VERTEX
  8
4_SURFACE
 62
7
  6
CONTINUOUS
 10
43.731086935
 20
196.1189564344
  0
VERTEX
  8
4_SURFACE
 62
7
  6
CONTINUOUS
 10
43.7465167833
 20
196.0859194433
  0
VERTEX
  8
4_SURFACE
 62
7
  6
CONTINUOUS
 10
43.7610201935
 20
196.0516952341
  0
VERTEX
  8
4_SURFACE
 62
7
  6
CONTINUOUS
 10
43.7745440897
 20
196.0162996503
  0
VERTEX
  8
4_SURFACE
 62
7
  6
CONTINUOUS
 10
43.7870293601
 20
195.9797413698
  0
VERTEX
  8
4_SURFACE
 62
7
  6
CONTINUOUS
 10
43.7984124961
 20
195.9420289896
  0
VERTEX
  8
4_SURFACE
 62
7
  6
CONTINUOUS
 10
43.8032811204
 20
195.9242118775
  0
SEQEND
  0
LINE
  8
0
 62
7
  6
CONTINUOUS
 10
99.5085678895
 20
194.4126615002
 11
99.6432765224
 21
186.6952090937
  0
LINE
  8
4_SURFACE
 62
7
  6
CONTINUOUS
 10
36.4217606095
 20
198.903935297
 11
81.3715667438
 21
198.903935297
  0
LINE
  8
0
 62
7
  6
CONTINUOUS
 10
81.3715667438
 20
198.903935297
 11
146.4385842181
 21
198.903935297
  0
POLYLINE
  8
0
 62
7
  6
CONTINUOUS
 66
1
 70
0
  0
VERTEX
  8
0
 62
7
  6
CONTINUOUS
 10
144.4018762822
 20
196.4773049787
  0
VERTEX
  8
0
 62
7
  6
CONTINUOUS
 10
144.4155350387
 20
196.4769504859
  0
VERTEX
  8
0
 62
7
  6
CONTINUOUS
 10
144.4466015174
 20
196.4735348468
  0
VERTEX
  8
0
 62
7
  6
CONTINUOUS
 10
144.4772929572
 20
196.4666994228
  0
VERTEX
  8
0
 62
7
  6
CONTINUOUS
 10
144.5065361448
 20
196.4570771742
  0
VERTEX
  8
0
 62
7
  6
CONTINUOUS
 10
144.5342140816
 20
196.4452286585
  0
VERTEX
  8
0
 62
7
  6
CONTINUOUS
 10
144.5607614934
 20
196.4313726942
  0
VERTEX
  8
0
 62
7
  6
CONTINUOUS
 10
144.5862314361
 20
196.4157677058
  0
VERTEX
  8
0
 62
7
  6
CONTINUOUS
 10
144.6107950421
 20
196.3985309561
  0
VERTEX
  8
0
 62
7
  6
CONTINUOUS
 10
144.6346081943
 20
196.3796983225
  0
VERTEX
  8
0
 62
7
  6
CONTINUOUS
 10
144.6577074331
 20
196.3593458262
  0
VERTEX
  8
0
 62
7
  6
CONTINUOUS
 10
144.6800484409
 20
196.3375915096
  0
VERTEX
  8
0
 62
7
  6
CONTINUOUS
 10
144.7016497619
 20
196.3144870073
  0
VERTEX
  8
0
 62
7
  6
CONTINUOUS
 10
144.722488996
 20
196.2901107507
  0
VERTEX
  8
0
 62
7
  6
CONTINUOUS
 10
144.7425856055
 20
196.264472152
  0
VERTEX
  8
0
 62
7
  6
CONTINUOUS
 10
144.7619393647
 20
196.2375951094
  0
VERTEX
  8
0
 62
7
  6
CONTINUOUS
 10
144.7805520733
 20
196.2094681816
  0
VERTEX
  8
0
 62
7
  6
CONTINUOUS
 10
144.798432815
 20
196.1800545584
  0
VERTEX
  8
0
 62
7
  6
CONTINUOUS
 10
144.8155395652
 20
196.149373086
  0
VERTEX
  8
0
 62
7
  6
CONTINUOUS
 10
144.8318143704
 20
196.1174668477
  0
VERTEX
  8
0
 62
7
  6
CONTINUOUS
 10
144.8472077476
 20
196.0843640528
  0
VERTEX
  8
0
 62
7
  6
CONTINUOUS
 10
144.8616720431
 20
196.0500731191
  0
VERTEX
  8
0
 62
7
  6
CONTINUOUS
 10
144.8751539916
 20
196.0146091258
  0
VERTEX
  8
0
 62
7
  6
CONTINUOUS
 10
144.8875940204
 20
195.9779808008
  0
VERTEX
  8
0
 62
7
  6
CONTINUOUS
 10
144.8989279834
 20
195.9401968934
  0
VERTEX
  8
0
 62
7
  6
CONTINUOUS
 10
144.9032816775
 20
195.9242097737
  0
SEQEND
  0
LINE
  8
0
 62
7
  6
CONTINUOUS
 10
102.2890522627
 20
198.3952090937
 11
102.4932765224
 21
186.6952090937
  0
LINE
  8
4_SURFACE
 62
7
  6
CONTINUOUS
 10
36.3393918327
 20
198.8957791807
 11
34.717803637
 21
198.5714615416
  0
LINE
  8
0
 62
7
  6
CONTINUOUS
 10
146.5209529948
 20
198.8957791807
 11
148.1425411906
 21
198.5714615416
  0
LINE
  8
0
 62
7
  6
CONTINUOUS
 10
112.2301724138
 20
187.0549197381
 11
112.2301724138
 21
187.1622810303
  0
POLYLINE
  8
0
 62
7
  6
CONTINUOUS
 66
1
 70
0
  0
VERTEX
  8
0
 62
7
  6
CONTINUOUS
 10
112.2042793839
 20
187.1391027474
  0
VERTEX
  8
0
 62
7
  6
CONTINUOUS
 10
112.2035218043
 20
187.1379705723
  0
VERTEX
  8
0
 62
7
  6
CONTINUOUS
 10
112.2051980889
 20
187.1399032639
  0
VERTEX
  8
0
 62
7
  6
CONTINUOUS
 10
112.214176471
 20
187.1489391638
  0
VERTEX
  8
0
 62
7
  6
CONTINUOUS
 10
112.2294725421
 20
187.161786759
  0
VERTEX
  8
0
 62
7
  6
CONTINUOUS
 10
112.2507783444
 20
187.1768335844
  0
VERTEX
  8
0
 62
7
  6
CONTINUOUS
 10
112.277474087
 20
187.1926483433
  0
VERTEX
  8
0
 62
7
  6
CONTINUOUS
 10
112.3087376701
 20
187.2080391968
  0
VERTEX
  8
0
 62
7
  6
CONTINUOUS
 10
112.3438867641
 20
187.2221348448
  0
VERTEX
  8
0
 62
7
  6
CONTINUOUS
 10
112.3822739841
 20
187.2342398633
  0
VERTEX
  8
0
 62
7
  6
CONTINUOUS
 10
112.4234576872
 20
187.2438410743
  0
VERTEX
  8
0
 62
7
  6
CONTINUOUS
 10
112.4667678667
 20
187.250451034
  0
VERTEX
  8
0
 62
7
  6
CONTINUOUS
 10
112.5108526846
 20
187.2536837779
  0
VERTEX
  8
0
 62
7
  6
CONTINUOUS
 10
112.5301724138
 20
187.2540105725
  0
SEQEND
  0
LINE
  8
0
 62
7
  6
CONTINUOUS
 10
115.2301724138
 20
187.1623121247
 11
115.2301724138
 21
187.0549197381
  0
POLYLINE
  8
1_AXIS
 62
7
  6
CONTINUOUS
 66
1
 70
0
  0
VERTEX
  8
1_AXIS
 62
7
  6
CONTINUOUS
 10
139.2019193001
 20
189.3039493475
  0
VERTEX
  8
1_AXIS
 62
7
  6
CONTINUOUS
 10
139.1953178346
 20
189.309437892
  0
VERTEX
  8
1_AXIS
 62
7
  6
CONTINUOUS
 10
139.1822043379
 20
189.3533464424
  0
VERTEX
  8
1_AXIS
 62
7
  6
CONTINUOUS
 10
139.1693580246
 20
189.4405659276
  0
VERTEX
  8
1_AXIS
 62
7
  6
CONTINUOUS
 10
139.1569529261
 20
189.5699095095
  0
VERTEX
  8
1_AXIS
 62
7
  6
CONTINUOUS
 10
139.1451569994
 20
189.7396181455
  0
VERTEX
  8
1_AXIS
 62
7
  6
CONTINUOUS
 10
139.1341298302
 20
189.9473856364
  0
VERTEX
  8
1_AXIS
 62
7
  6
CONTINUOUS
 10
139.1240204765
 20
190.1903909898
  0
VERTEX
  8
1_AXIS
 62
7
  6
CONTINUOUS
 10
139.1149654503
 20
190.4653380846
  0
VERTEX
  8
1_AXIS
 62
7
  6
CONTINUOUS
 10
139.1070868973
 20
190.7685015012
  0
VERTEX
  8
1_AXIS
 62
7
  6
CONTINUOUS
 10
139.1004909901
 20
191.0957774813
  0
VERTEX
  8
1_AXIS
 62
7
  6
CONTINUOUS
 10
139.0952665282
 20
191.4427401798
  0
VERTEX
  8
1_AXIS
 62
7
  6
CONTINUOUS
 10
139.0914837884
 20
191.8047015053
  0
VERTEX
  8
1_AXIS
 62
7
  6
CONTINUOUS
 10
139.0891936216
 20
192.1767738009
  0
VERTEX
  8
1_AXIS
 62
7
  6
CONTINUOUS
 10
139.0884267992
 20
192.553935297
  0
SEQEND
  0
LINE
  8
0
 62
7
  6
CONTINUOUS
 10
123.1712925649
 20
198.3952090937
 11
122.9670683052
 21
186.6952090937
  0
LINE
  8
0
 62
7
  6
CONTINUOUS
 10
125.9517769381
 20
194.4126615002
 11
125.8170683052
 21
186.6952090937
  0
POLYLINE
  8
1_AXIS
 62
7
  6
CONTINUOUS
 66
1
 70
0
  0
VERTEX
  8
1_AXIS
 62
7
  6
CONTINUOUS
 10
144.7584255276
 20
195.8039212465
  0
VERTEX
  8
1_AXIS
 62
7
  6
CONTINUOUS
 10
144.7518240621
 20
195.7984327019
  0
VERTEX
  8
1_AXIS
 62
7
  6
CONTINUOUS
 10
144.7387105654
 20
195.7545241516
  0
VERTEX
  8
1_AXIS
 62
7
  6
CONTINUOUS
 10
144.7258642521
 20
195.6673046663
  0
VERTEX
  8
1_AXIS
 62
7
  6
CONTINUOUS
 10
144.7134591536
 20
195.5379610844
  0
VERTEX
  8
1_AXIS
 62
7
  6
CONTINUOUS
 10
144.7016632269
 20
195.3682524484
  0
VERTEX
  8
1_AXIS
 62
7
  6
CONTINUOUS
 10
144.6906360577
 20
195.1604849575
  0
VERTEX
  8
1_AXIS
 62
7
  6
CONTINUOUS
 10
144.6805267039
 20
194.9174796041
  0
VERTEX
  8
1_AXIS
 62
7
  6
CONTINUOUS
 10
144.6714716777
 20
194.6425325093
  0
VERTEX
  8
1_AXIS
 62
7
  6
CONTINUOUS
 10
144.6635931248
 20
194.3393690927
  0
VERTEX
  8
1_AXIS
 62
7
  6
CONTINUOUS
 10
144.6569972176
 20
194.0120931126
  0
VERTEX
  8
1_AXIS
 62
7
  6
CONTINUOUS
 10
144.6517727557
 20
193.6651304141
  0
VERTEX
  8
1_AXIS
 62
7
  6
CONTINUOUS
 10
144.6479900158
 20
193.3031690886
  0
VERTEX
  8
1_AXIS
 62
7
  6
CONTINUOUS
 10
144.6456998491
 20
192.931096793
  0
VERTEX
  8
1_AXIS
 62
7
  6
CONTINUOUS
 10
144.6449330267
 20
192.553935297
  0
SEQEND
  0
POLYLINE
  8
1_AXIS
 62
7
  6
CONTINUOUS
 66
1
 70
0
  0
VERTEX
  8
1_AXIS
 62
7
  6
CONTINUOUS
 10
139.2019193
 20
195.8039212465
  0
VERTEX
  8
1_AXIS
 62
7
  6
CONTINUOUS
 10
139.2085207655
 20
195.7984327019
  0
VERTEX
  8
1_AXIS
 62
7
  6
CONTINUOUS
 10
139.2216342622
 20
195.7545241516
  0
VERTEX
  8
1_AXIS
 62
7
  6
CONTINUOUS
 10
139.2344805755
 20
195.6673046663
  0
VERTEX
  8
1_AXIS
 62
7
  6
CONTINUOUS
 10
139.246885674
 20
195.5379610844
  0
VERTEX
  8
1_AXIS
 62
7
  6
CONTINUOUS
 10
139.2586816007
 20
195.3682524484
  0
VERTEX
  8
1_AXIS
 62
7
  6
CONTINUOUS
 10
139.2697087699
 20
195.1604849575
  0
VERTEX
  8
1_AXIS
 62
7
  6
CONTINUOUS
 10
139.2798181236
 20
194.9174796041
  0
VERTEX
  8
1_AXIS
 62
7
  6
CONTINUOUS
 10
139.2888731498
 20
194.6425325093
  0
VERTEX
  8
1_AXIS
 62
7
  6
CONTINUOUS
 10
139.2967517028
 20
194.3393690927
  0
VERTEX
  8
1_AXIS
 62
7
  6
CONTINUOUS
 10
139.30334761
 20
194.0120931126
  0
VERTEX
  8
1_AXIS
 62
7
  6
CONTINUOUS
 10
139.3085720719
 20
193.6651304141
  0
VERTEX
  8
1_AXIS
 62
7
  6
CONTINUOUS
 10
139.3123548117
 20
193.3031690886
  0
VERTEX
  8
1_AXIS
 62
7
  6
CONTINUOUS
 10
139.3146449785
 20
192.931096793
  0
VERTEX
  8
1_AXIS
 62
7
  6
CONTINUOUS
 10
139.3154118009
 20
192.553935297
  0
SEQEND
  0
POLYLINE
  8
1_AXIS
 62
7
  6
CONTINUOUS
 66
1
 70
0
  0
VERTEX
  8
1_AXIS
 62
7
  6
CONTINUOUS
 10
144.7584255275
 20
189.3039493475
  0
VERTEX
  8
1_AXIS
 62
7
  6
CONTINUOUS
 10
144.765026993
 20
189.309437892
  0
VERTEX
  8
1_AXIS
 62
7
  6
CONTINUOUS
 10
144.7781404896
 20
189.3533464424
  0
VERTEX
  8
1_AXIS
 62
7
  6
CONTINUOUS
 10
144.790986803
 20
189.4405659276
  0
VERTEX
  8
1_AXIS
 62
7
  6
CONTINUOUS
 10
144.8033919015
 20
189.5699095095
  0
VERTEX
  8
1_AXIS
 62
7
  6
CONTINUOUS
 10
144.8151878282
 20
189.7396181455
  0
VERTEX
  8
1_AXIS
 62
7
  6
CONTINUOUS
 10
144.8262149973
 20
189.9473856364
  0
VERTEX
  8
1_AXIS
 62
7
  6
CONTINUOUS
 10
144.8363243511
 20
190.1903909898
  0
VERTEX
  8
1_AXIS
 62
7
  6
CONTINUOUS
 10
144.8453793773
 20
190.4653380846
  0
VERTEX
  8
1_AXIS
 62
7
  6
CONTINUOUS
 10
144.8532579303
 20
190.7685015012
  0
VERTEX
  8
1_AXIS
 62
7
  6
CONTINUOUS
 10
144.8598538375
 20
191.0957774813
  0
VERTEX
  8
1_AXIS
 62
7
  6
CONTINUOUS
 10
144.8650782994
 20
191.4427401798
  0
VERTEX
  8
1_AXIS
 62
7
  6
CONTINUOUS
 10
144.8688610392
 20
191.8047015053
  0
VERTEX
  8
1_AXIS
 62
7
  6
CONTINUOUS
 10
144.871151206
 20
192.1767738009
  0
VERTEX
  8
1_AXIS
 62
7
  6
CONTINUOUS
 10
144.8719180284
 20
192.553935297
  0
SEQEND
  0
LINE
  8
0
 62
7
  6
CONTINUOUS
 10
133.0585678895
 20
194.4126615002
 11
133.1932765224
 21
186.6952090937
  0
LINE
  8
0
 62
7
  6
CONTINUOUS
 10
136.1432765224
 20
186.6952090937
 11
135.9390522627
 21
198.3952090937
  0
POLYLINE
  8
0
 62
7
  6
CONTINUOUS
 66
1
 70
0
  0
VERTEX
  8
0
 62
7
  6
CONTINUOUS
 10
139.0391734443
 20
195.8540739558
  0
VERTEX
  8
0
 62
7
  6
CONTINUOUS
 10
139.0419845247
 20
195.8654152147
  0
VERTEX
  8
0
 62
7
  6
CONTINUOUS
 10
139.0471037493
 20
195.8857615321
  0
VERTEX
  8
0
 62
7
  6
CONTINUOUS
 10
139.0523845015
 20
195.9063340178
  0
VERTEX
  8
0
 62
7
  6
CONTINUOUS
 10
139.0570649902
 20
195.9242131317
  0
SEQEND
  0
POLYLINE
  8
0
 62
7
  6
CONTINUOUS
 66
1
 70
0
  0
VERTEX
  8
0
 62
7
  6
CONTINUOUS
 10
139.0570637071
 20
195.9242118775
  0
VERTEX
  8
0
 62
7
  6
CONTINUOUS
 10
139.0619323314
 20
195.9420289896
  0
VERTEX
  8
0
 62
7
  6
CONTINUOUS
 10
139.0733154675
 20
195.9797413698
  0
VERTEX
  8
0
 62
7
  6
CONTINUOUS
 10
139.0858007378
 20
196.0162996503
  0
VERTEX
  8
0
 62
7
  6
CONTINUOUS
 10
139.0993246341
 20
196.0516952341
  0
VERTEX
  8
0
 62
7
  6
CONTINUOUS
 10
139.1138280443
 20
196.0859194433
  0
VERTEX
  8
0
 62
7
  6
CONTINUOUS
 10
139.1292578925
 20
196.1189564344
  0
VERTEX
  8
0
 62
7
  6
CONTINUOUS
 10
139.1455674273
 20
196.1507986601
  0
VERTEX
  8
0
 62
7
  6
CONTINUOUS
 10
139.1627066944
 20
196.1814166402
  0
VERTEX
  8
0
 62
7
  6
CONTINUOUS
 10
139.180618536
 20
196.2107672169
  0
VERTEX
  8
0
 62
7
  6
CONTINUOUS
 10
139.1992609726
 20
196.238832274
  0
VERTEX
  8
0
 62
7
  6
CONTINUOUS
 10
139.2186419827
 20
196.2656452053
  0
VERTEX
  8
0
 62
7
  6
CONTINUOUS
 10
139.2387685196
 20
196.2912237543
  0
VERTEX
  8
0
 62
7
  6
CONTINUOUS
 10
139.259635922
 20
196.3155383181
  0
VERTEX
  8
0
 62
7
  6
CONTINUOUS
 10
139.2812681076
 20
196.3385814313
  0
VERTEX
  8
0
 62
7
  6
CONTINUOUS
 10
139.3036425483
 20
196.3602761171
  0
VERTEX
  8
0
 62
7
  6
CONTINUOUS
 10
139.3267752515
 20
196.3805641078
  0
VERTEX
  8
0
 62
7
  6
CONTINUOUS
 10
139.3506288732
 20
196.3993343545
  0
VERTEX
  8
0
 62
7
  6
CONTINUOUS
 10
139.3752314834
 20
196.4165005545
  0
VERTEX
  8
0
 62
7
  6
CONTINUOUS
 10
139.4007501283
 20
196.4320331488
  0
VERTEX
  8
0
 62
7
  6
CONTINUOUS
 10
139.4273553169
 20
196.4458088375
  0
VERTEX
  8
0
 62
7
  6
CONTINUOUS
 10
139.4551064149
 20
196.4575675779
  0
VERTEX
  8
0
 62
7
  6
CONTINUOUS
 10
139.4844441497
 20
196.4670824575
  0
VERTEX
  8
0
 62
7
  6
CONTINUOUS
 10
139.515238622
 20
196.4737810359
  0
VERTEX
  8
0
 62
7
  6
CONTINUOUS
 10
139.54635796
 20
196.4770265274
  0
VERTEX
  8
0
 62
7
  6
CONTINUOUS
 10
139.5584690737
 20
196.4773048522
  0
SEQEND
  0
POLYLINE
  8
1_AXIS
 62
7
  6
CONTINUOUS
 66
1
 70
0
  0
VERTEX
  8
1_AXIS
 62
7
  6
CONTINUOUS
 10
139.0884267992
 20
192.553935297
  0
VERTEX
  8
1_AXIS
 62
7
  6
CONTINUOUS
 10
139.0891936216
 20
192.931096781
  0
VERTEX
  8
1_AXIS
 62
7
  6
CONTINUOUS
 10
139.0914837879
 20
193.3031690332
  0
VERTEX
  8
1_AXIS
 62
7
  6
CONTINUOUS
 10
139.0952665267
 20
193.6651302929
  0
VERTEX
  8
1_AXIS
 62
7
  6
CONTINUOUS
 10
139.1004909866
 20
194.0120929133
  0
VERTEX
  8
1_AXIS
 62
7
  6
CONTINUOUS
 10
139.1070868909
 20
194.3393688141
  0
VERTEX
  8
1_AXIS
 62
7
  6
CONTINUOUS
 10
139.11496544
 20
194.6425321607
  0
VERTEX
  8
1_AXIS
 62
7
  6
CONTINUOUS
 10
139.1240204617
 20
194.9174792047
  0
VERTEX
  8
1_AXIS
 62
7
  6
CONTINUOUS
 10
139.1341298104
 20
195.1604845348
  0
VERTEX
  8
1_AXIS
 62
7
  6
CONTINUOUS
 10
139.1451569745
 20
195.3682520359
  0
VERTEX
  8
1_AXIS
 62
7
  6
CONTINUOUS
 10
139.1569528964
 20
195.5379607173
  0
VERTEX
  8
1_AXIS
 62
7
  6
CONTINUOUS
 10
139.1693579909
 20
195.6673043771
  0
VERTEX
  8
1_AXIS
 62
7
  6
CONTINUOUS
 10
139.1822043013
 20
195.7545239665
  0
VERTEX
  8
1_AXIS
 62
7
  6
CONTINUOUS
 10
139.1953177964
 20
195.7984326382
  0
VERTEX
  8
1_AXIS
 62
7
  6
CONTINUOUS
 10
139.2019193
 20
195.8039212465
  0
SEQEND
  0
POLYLINE
  8
1_AXIS
 62
7
  6
CONTINUOUS
 66
1
 70
0
  0
VERTEX
  8
1_AXIS
 62
7
  6
CONTINUOUS
 10
139.3154118009
 20
192.553935297
  0
VERTEX
  8
1_AXIS
 62
7
  6
CONTINUOUS
 10
139.3146449785
 20
192.1767738129
  0
VERTEX
  8
1_AXIS
 62
7
  6
CONTINUOUS
 10
139.3123548122
 20
191.8047015607
  0
VERTEX
  8
1_AXIS
 62
7
  6
CONTINUOUS
 10
139.3085720734
 20
191.442740301
  0
VERTEX
  8
1_AXIS
 62
7
  6
CONTINUOUS
 10
139.3033476135
 20
191.0957776806
  0
VERTEX
  8
1_AXIS
 62
7
  6
CONTINUOUS
 10
139.2967517092
 20
190.7685017798
  0
VERTEX
  8
1_AXIS
 62
7
  6
CONTINUOUS
 10
139.2888731601
 20
190.4653384332
  0
VERTEX
  8
1_AXIS
 62
7
  6
CONTINUOUS
 10
139.2798181384
 20
190.1903913893
  0
VERTEX
  8
1_AXIS
 62
7
  6
CONTINUOUS
 10
139.2697087897
 20
189.9473860591
  0
VERTEX
  8
1_AXIS
 62
7
  6
CONTINUOUS
 10
139.2586816256
 20
189.739618558
  0
VERTEX
  8
1_AXIS
 62
7
  6
CONTINUOUS
 10
139.2468857037
 20
189.5699098766
  0
VERTEX
  8
1_AXIS
 62
7
  6
CONTINUOUS
 10
139.2344806092
 20
189.4405662168
  0
VERTEX
  8
1_AXIS
 62
7
  6
CONTINUOUS
 10
139.2216342988
 20
189.3533466274
  0
VERTEX
  8
1_AXIS
 62
7
  6
CONTINUOUS
 10
139.2085208037
 20
189.3094379557
  0
VERTEX
  8
1_AXIS
 62
7
  6
CONTINUOUS
 10
139.2019193001
 20
189.3039493475
  0
SEQEND
  0
POLYLINE
  8
0
 62
7
  6
CONTINUOUS
 66
1
 70
0
  0
VERTEX
  8
0
 62
7
  6
CONTINUOUS
 10
139.033270505
 20
195.8206938122
  0
VERTEX
  8
0
 62
7
  6
CONTINUOUS
 10
139.0344629106
 20
195.8299944425
  0
VERTEX
  8
0
 62
7
  6
CONTINUOUS
 10
139.0383259706
 20
195.8505248271
  0
VERTEX
  8
0
 62
7
  6
CONTINUOUS
 10
139.0391774868
 20
195.8540903418
  0
SEQEND
  0
POLYLINE
  8
1_AXIS
 62
7
  6
CONTINUOUS
 66
1
 70
0
  0
VERTEX
  8
1_AXIS
 62
7
  6
CONTINUOUS
 10
144.6449330267
 20
192.553935297
  0
VERTEX
  8
1_AXIS
 62
7
  6
CONTINUOUS
 10
144.6456998491
 20
192.1767738129
  0
VERTEX
  8
1_AXIS
 62
7
  6
CONTINUOUS
 10
144.6479900154
 20
191.8047015607
  0
VERTEX
  8
1_AXIS
 62
7
  6
CONTINUOUS
 10
144.6517727541
 20
191.442740301
  0
VERTEX
  8
1_AXIS
 62
7
  6
CONTINUOUS
 10
144.6569972141
 20
191.0957776806
  0
VERTEX
  8
1_AXIS
 62
7
  6
CONTINUOUS
 10
144.6635931184
 20
190.7685017798
  0
VERTEX
  8
1_AXIS
 62
7
  6
CONTINUOUS
 10
144.6714716675
 20
190.4653384332
  0
VERTEX
  8
1_AXIS
 62
7
  6
CONTINUOUS
 10
144.6805266892
 20
190.1903913893
  0
VERTEX
  8
1_AXIS
 62
7
  6
CONTINUOUS
 10
144.6906360379
 20
189.9473860591
  0
VERTEX
  8
1_AXIS
 62
7
  6
CONTINUOUS
 10
144.7016632019
 20
189.739618558
  0
VERTEX
  8
1_AXIS
 62
7
  6
CONTINUOUS
 10
144.7134591239
 20
189.5699098766
  0
VERTEX
  8
1_AXIS
 62
7
  6
CONTINUOUS
 10
144.7258642184
 20
189.4405662168
  0
VERTEX
  8
1_AXIS
 62
7
  6
CONTINUOUS
 10
144.7387105288
 20
189.3533466274
  0
VERTEX
  8
1_AXIS
 62
7
  6
CONTINUOUS
 10
144.7518240239
 20
189.3094379557
  0
VERTEX
  8
1_AXIS
 62
7
  6
CONTINUOUS
 10
144.7584255275
 20
189.3039493475
  0
SEQEND
  0
POLYLINE
  8
1_AXIS
 62
7
  6
CONTINUOUS
 66
1
 70
0
  0
VERTEX
  8
1_AXIS
 62
7
  6
CONTINUOUS
 10
144.8719180284
 20
192.553935297
  0
VERTEX
  8
1_AXIS
 62
7
  6
CONTINUOUS
 10
144.871151206
 20
192.931096781
  0
VERTEX
  8
1_AXIS
 62
7
  6
CONTINUOUS
 10
144.8688610397
 20
193.3031690332
  0
VERTEX
  8
1_AXIS
 62
7
  6
CONTINUOUS
 10
144.8650783009
 20
193.6651302929
  0
VERTEX
  8
1_AXIS
 62
7
  6
CONTINUOUS
 10
144.859853841
 20
194.0120929133
  0
VERTEX
  8
1_AXIS
 62
7
  6
CONTINUOUS
 10
144.8532579367
 20
194.3393688141
  0
VERTEX
  8
1_AXIS
 62
7
  6
CONTINUOUS
 10
144.8453793875
 20
194.6425321607
  0
VERTEX
  8
1_AXIS
 62
7
  6
CONTINUOUS
 10
144.8363243659
 20
194.9174792047
  0
VERTEX
  8
1_AXIS
 62
7
  6
CONTINUOUS
 10
144.8262150172
 20
195.1604845348
  0
VERTEX
  8
1_AXIS
 62
7
  6
CONTINUOUS
 10
144.8151878531
 20
195.3682520359
  0
VERTEX
  8
1_AXIS
 62
7
  6
CONTINUOUS
 10
144.8033919312
 20
195.5379607173
  0
VERTEX
  8
1_AXIS
 62
7
  6
CONTINUOUS
 10
144.7909868367
 20
195.6673043771
  0
VERTEX
  8
1_AXIS
 62
7
  6
CONTINUOUS
 10
144.7781405263
 20
195.7545239665
  0
VERTEX
  8
1_AXIS
 62
7
  6
CONTINUOUS
 10
144.7650270312
 20
195.7984326382
  0
VERTEX
  8
1_AXIS
 62
7
  6
CONTINUOUS
 10
144.7584255276
 20
195.8039212465
  0
SEQEND
  0
LINE
  8
0
 62
7
  6
CONTINUOUS
 10
148.4801724138
 20
198.1596176578
 11
148.4801724138
 21
186.703935297
  0
POLYLINE
  8
0
 62
7
  6
CONTINUOUS
 66
1
 70
0
  0
VERTEX
  8
0
 62
7
  6
CONTINUOUS
 10
144.9032804518
 20
195.9242108784
  0
VERTEX
  8
0
 62
7
  6
CONTINUOUS
 10
144.908059778
 20
195.905950555
  0
VERTEX
  8
0
 62
7
  6
CONTINUOUS
 10
144.9132653017
 20
195.885666237
  0
SEQEND
  0
LINE
  8
0
 62
7
  6
CONTINUOUS
 10
144.9132653017
 20
195.885666237
 11
144.9211792315
 21
195.8540433547
  0
LINE
  8
0
 62
7
  6
CONTINUOUS
 10
144.9211714852
 20
195.8540735554
 11
144.9211624715
 21
195.8541100961
  0
POLYLINE
  8
0
 62
7
  6
CONTINUOUS
 66
1
 70
0
  0
VERTEX
  8
0
 62
7
  6
CONTINUOUS
 10
144.9211674909
 20
195.8540897462
  0
VERTEX
  8
0
 62
7
  6
CONTINUOUS
 10
144.9220978251
 20
195.8501820055
  0
VERTEX
  8
0
 62
7
  6
CONTINUOUS
 10
144.9259934765
 20
195.8292248486
  0
VERTEX
  8
0
 62
7
  6
CONTINUOUS
 10
144.9270743596
 20
195.8206936398
  0
SEQEND
  0
POLYLINE
  8
0
 62
7
  6
CONTINUOUS
 66
1
 70
0
  0
VERTEX
  8
0
 62
7
  6
CONTINUOUS
 10
171.0002350829
 20
153.7906799778
  0
VERTEX
  8
0
 62
7
  6
CONTINUOUS
 10
171.081063446
 20
153.8390540184
  0
VERTEX
  8
0
 62
7
  6
CONTINUOUS
 10
171.2095500633
 20
153.9103246988
  0
VERTEX
  8
0
 62
7
  6
CONTINUOUS
 10
171.355861055
 20
153.9847384731
  0
VERTEX
  8
0
 62
7
  6
CONTINUOUS
 10
171.5217382932
 20
154.0620578987
  0
VERTEX
  8
0
 62
7
  6
CONTINUOUS
 10
171.7092658259
 20
154.1419189808
  0
VERTEX
  8
0
 62
7
  6
CONTINUOUS
 10
171.9208974859
 20
154.2237467341
  0
VERTEX
  8
0
 62
7
  6
CONTINUOUS
 10
172.1594766889
 20
154.3066514012
  0
VERTEX
  8
0
 62
7
  6
CONTINUOUS
 10
172.4284214331
 20
154.3893081813
  0
VERTEX
  8
0
 62
7
  6
CONTINUOUS
 10
172.7318472887
 20
154.4697314735
  0
VERTEX
  8
0
 62
7
  6
CONTINUOUS
 10
173.0748474269
 20
154.5449702964
  0
VERTEX
  8
0
 62
7
  6
CONTINUOUS
 10
173.4637771266
 20
154.6105839964
  0
VERTEX
  8
0
 62
7
  6
CONTINUOUS
 10
173.9065000436
 20
154.6598871314
  0
VERTEX
  8
0
 62
7
  6
CONTINUOUS
 10
174.412751804
 20
154.6828940091
  0
SEQEND
  0
POLYLINE
  8
4_SURFACE
 62
7
  6
CONTINUOUS
 66
1
 70
0
  0
VERTEX
  8
4_SURFACE
 62
7
  6
CONTINUOUS
 10
171.0002301856
 20
153.7906859293
  0
VERTEX
  8
4_SURFACE
 62
7
  6
CONTINUOUS
 10
170.7866288266
 20
153.6528314461
  0
VERTEX
  8
4_SURFACE
 62
7
  6
CONTINUOUS
 10
170.3497627639
 20
153.3313425214
  0
SEQEND
  0
LINE
  8
4_SURFACE
 62
7
  6
CONTINUOUS
 10
168.5673512452
 20
109.1285235895
 11
168.1633316486
 21
109.0838287402
  0
LINE
  8
4_SURFACE
 62
7
  6
CONTINUOUS
 10
168.1633316486
 20
109.0838287402
 11
168.0673512452
 21
109.0734224136
  0
POLYLINE
  8
0
 62
7
  6
CONTINUOUS
 66
1
 70
0
  0
VERTEX
  8
0
 62
7
  6
CONTINUOUS
 10
169.1210548538
 20
106.6933370913
  0
VERTEX
  8
0
 62
7
  6
CONTINUOUS
 10
169.1509707666
 20
106.6516405505
  0
VERTEX
  8
0
 62
7
  6
CONTINUOUS
 10
169.1755195417
 20
106.6179321845
  0
VERTEX
  8
0
 62
7
  6
CONTINUOUS
 10
169.1943244425
 20
106.592418842
  0
VERTEX
  8
0
 62
7
  6
CONTINUOUS
 10
169.208724429
 20
106.5730574227
  0
SEQEND
  0
POLYLINE
  8
0
 62
7
  6
CONTINUOUS
 66
1
 70
0
  0
VERTEX
  8
0
 62
7
  6
CONTINUOUS
 10
169.04733006
 20
106.7991738669
  0
VERTEX
  8
0
 62
7
  6
CONTINUOUS
 10
169.0863460399
 20
106.7426036617
  0
VERTEX
  8
0
 62
7
  6
CONTINUOUS
 10
169.1210548538
 20
106.6933370913
  0
SEQEND
  0
LINE
  8
0
 62
7
  6
CONTINUOUS
 10
169.0045292352
 20
106.8627314097
 11
169.04733006
 21
106.7991738669
  0
POLYLINE
  8
0
 62
7
  6
CONTINUOUS
 66
1
 70
0
  0
VERTEX
  8
0
 62
7
  6
CONTINUOUS
 10
168.9097560334
 20
107.0095293575
  0
VERTEX
  8
0
 62
7
  6
CONTINUOUS
 10
168.9584839748
 20
106.9329686477
  0
VERTEX
  8
0
 62
7
  6
CONTINUOUS
 10
169.0045292352
 20
106.8627314097
  0
SEQEND
  0
POLYLINE
  8
0
 62
7
  6
CONTINUOUS
 66
1
 70
0
  0
VERTEX
  8
0
 62
7
  6
CONTINUOUS
 10
168.8065492163
 20
107.1799486823
  0
VERTEX
  8
0
 62
7
  6
CONTINUOUS
 10
168.8589321322
 20
107.0919748128
  0
VERTEX
  8
0
 62
7
  6
CONTINUOUS
 10
168.9097560334
 20
107.0095293575
  0
SEQEND
  0
POLYLINE
  8
0
 62
7
  6
CONTINUOUS
 66
1
 70
0
  0
VERTEX
  8
0
 62
7
  6
CONTINUOUS
 10
168.6993096174
 20
107.3706019268
  0
VERTEX
  8
0
 62
7
  6
CONTINUOUS
 10
168.7531511117
 20
107.2730083591
  0
VERTEX
  8
0
 62
7
  6
CONTINUOUS
 10
168.8065492163
 20
107.1799486823
  0
SEQEND
  0
LINE
  8
0
 62
7
  6
CONTINUOUS
 10
168.6686109044
 20
107.4280894428
 11
168.6993096174
 21
107.3706019268
  0
LINE
  8
4_SURFACE
 62
7
  6
CONTINUOUS
 10
176.7657829991
 20
141.8208506886
 11
169.3823270086
 21
139.129113537
  0
POLYLINE
  8
4_SURFACE
 62
7
  6
CONTINUOUS
 66
1
 70
0
  0
VERTEX
  8
4_SURFACE
 62
7
  6
CONTINUOUS
 10
179.4969001525
 20
142.9958129256
  0
VERTEX
  8
4_SURFACE
 62
7
  6
CONTINUOUS
 10
179.5384617321
 20
143.0177048605
  0
VERTEX
  8
4_SURFACE
 62
7
  6
CONTINUOUS
 10
179.5793760001
 20
143.0395811687
  0
VERTEX
  8
4_SURFACE
 62
7
  6
CONTINUOUS
 10
179.6196105509
 20
143.0614224136
  0
SEQEND
  0
LINE
  8
4_SURFACE
 62
7
  6
CONTINUOUS
 10
168.0673512452
 20
109.0734224136
 11
168.0673512452
 21
149.6494224136
  0
LINE
  8
1_AXIS
 62
7
  6
CONTINUOUS
 10
174.4173512452
 20
154.682938416
 11
174.4173512452
 21
154.7614224136
  0
LINE
  8
DEFAULT_1
 62
2
  6
CENTER
 10
174.4173512452
 20
101.9614224132
 11
174.4173512452
 21
156.761422414
  0
LINE
  8
0
 62
7
  6
CONTINUOUS
 10
180.7673512452
 20
145.2614224136
 11
180.7673512452
 21
143.9614224136
  0
LINE
  8
4_SURFACE
 62
7
  6
CONTINUOUS
 10
180.7673512452
 20
148.4114224136
 11
180.7673512452
 21
110.3114224136
  0
LINE
  8
4_SURFACE
 62
7
  6
CONTINUOUS
 10
176.7657830687
 20
141.8214224136
 11
168.5673512452
 21
141.8214224136
  0
LINE
  8
4_SURFACE
 62
7
  6
CONTINUOUS
 10
180.1500629998
 20
144.4614224136
 11
180.2673512452
 21
144.4614224136
  0
POLYLINE
  8
4_SURFACE
 62
7
  6
CONTINUOUS
 66
1
 70
0
  0
VERTEX
  8
4_SURFACE
 62
7
  6
CONTINUOUS
 10
179.4969001525
 20
142.995812925
  0
VERTEX
  8
4_SURFACE
 62
7
  6
CONTINUOUS
 10
179.413599352
 20
143.0209142266
  0
VERTEX
  8
4_SURFACE
 62
7
  6
CONTINUOUS
 10
179.3341341588
 20
143.0494941254
  0
VERTEX
  8
4_SURFACE
 62
7
  6
CONTINUOUS
 10
179.2609314115
 20
143.0802808235
  0
VERTEX
  8
4_SURFACE
 62
7
  6
CONTINUOUS
 10
179.1963282899
 20
143.1116343682
  0
VERTEX
  8
4_SURFACE
 62
7
  6
CONTINUOUS
 10
179.1424495545
 20
143.1417171181
  0
VERTEX
  8
4_SURFACE
 62
7
  6
CONTINUOUS
 10
179.1010759787
 20
143.1687348289
  0
VERTEX
  8
4_SURFACE
 62
7
  6
CONTINUOUS
 10
179.0735090413
 20
143.1911955017
  0
VERTEX
  8
4_SURFACE
 62
7
  6
CONTINUOUS
 10
179.0604563593
 20
143.2081098958
  0
VERTEX
  8
4_SURFACE
 62
7
  6
CONTINUOUS
 10
179.0619703088
 20
143.2190638354
  0
SEQEND
  0
POLYLINE
  8
4_SURFACE
 62
7
  6
CONTINUOUS
 66
1
 70
0
  0
VERTEX
  8
4_SURFACE
 62
7
  6
CONTINUOUS
 10
168.558625042
 20
149.5943174148
  0
VERTEX
  8
4_SURFACE
 62
7
  6
CONTINUOUS
 10
168.0914318441
 20
149.6465230344
  0
VERTEX
  8
4_SURFACE
 62
7
  6
CONTINUOUS
 10
168.0734059142
 20
149.6486155639
  0
VERTEX
  8
4_SURFACE
 62
7
  6
CONTINUOUS
 10
168.0673512452
 20
149.6494224136
  0
SEQEND
  0
LINE
  8
1_AXIS
 62
7
  6
CONTINUOUS
 10
174.4173512452
 20
154.682938416
 11
174.412751804
 21
154.6828940091
  0
LINE
  8
0
 62
7
  6
CONTINUOUS
 10
174.4174265205
 20
154.7614224131
 11
174.4173714231
 21
154.7614224136
  0
ARC
  8
4_SURFACE
 62
7
  6
CONTINUOUS
 10
35.7801724138
 20
143.0614224136
 40
1.4
 50
90.0
 51
180.0
  0
ARC
  8
0
 62
7
  6
CONTINUOUS
 10
147.0801724138
 20
143.0614224136
 40
1.4
 50
0.0
 51
90.0
  0
ARC
  8
4_SURFACE
 62
7
  6
CONTINUOUS
 10
34.8801724138
 20
104.4614224132
 40
0.5
 50
180.0
 51
270.0
  0
ARC
  8
4_SURFACE
 62
7
  6
CONTINUOUS
 10
37.3973280754
 20
104.461423818
 40
0.5
 50
269.9999943802
 51
357.9998389714
  0
ARC
  8
4_SURFACE
 62
7
  6
CONTINUOUS
 10
44.3630167894
 20
104.4614227523
 40
0.5
 50
182.0000388335
 51
270.0000013552
  0
ARC
  8
0
 62
7
  6
CONTINUOUS
 10
147.9801724138
 20
104.4614224132
 40
0.5
 50
270.0
 51
360.0
  0
ARC
  8
0
 62
7
  6
CONTINUOUS
 10
145.4630167522
 20
104.461423818
 40
0.5
 50
182.0001610286
 51
270.0000056198
  0
ARC
  8
0
 62
7
  6
CONTINUOUS
 10
138.4973280382
 20
104.4614227523
 40
0.5
 50
269.9999986448
 51
357.9999611665
  0
ARC
  8
4_SURFACE
 62
7
  6
CONTINUOUS
 10
34.8801724138
 20
186.703935297
 40
0.5
 50
180.0
 51
270.0
  0
ARC
  8
4_SURFACE
 62
7
  6
CONTINUOUS
 10
79.8671444576
 20
186.703935297
 40
0.5
 50
270.0
 51
359.0
  0
ARC
  8
4_SURFACE
 62
7
  6
CONTINUOUS
 10
57.5432011315
 20
186.703935297
 40
0.5
 50
180.999998477
 51
269.999912732
  0
ARC
  8
4_SURFACE
 62
7
  6
CONTINUOUS
 10
60.3932003699
 20
186.703935297
 40
0.5
 50
181.0
 51
270.0
  0
ARC
  8
4_SURFACE
 62
7
  6
CONTINUOUS
 10
46.2171444576
 20
186.703935297
 40
0.5
 50
270.0
 51
359.0
  0
ARC
  8
4_SURFACE
 62
7
  6
CONTINUOUS
 10
49.1671454915
 20
186.703935297
 40
0.4999999371
 50
269.999922745
 51
359.0000183973
  0
ARC
  8
4_SURFACE
 62
7
  6
CONTINUOUS
 10
82.7171453232
 20
186.703935297
 40
0.4999998719
 50
269.9999050932
 51
358.9999364779
  0
ARC
  8
4_SURFACE
 62
7
  6
CONTINUOUS
 10
83.8517007856
 20
194.403935297
 40
0.5
 50
90.7997619845
 51
179.0
  0
ARC
  8
4_SURFACE
 62
7
  6
CONTINUOUS
 10
50.3017007856
 20
194.403935297
 40
0.5
 50
90.7997619845
 51
179.0
  0
ARC
  8
4_SURFACE
 62
7
  6
CONTINUOUS
 10
80.0713687173
 20
198.403935297
 40
0.5
 50
359.0
 51
90.0
  0
ARC
  8
4_SURFACE
 62
7
  6
CONTINUOUS
 10
60.1889761103
 20
198.403935297
 40
0.5
 50
90.0
 51
181.0
  0
ARC
  8
4_SURFACE
 62
7
  6
CONTINUOUS
 10
56.4086457177
 20
194.403935297
 40
0.4999993556
 50
1.0000033514
 51
89.2004297599
  0
ARC
  8
4_SURFACE
 62
7
  6
CONTINUOUS
 10
46.4213705396
 20
198.403935297
 40
0.4999992992
 50
358.9999963556
 51
90.0002088182
  0
ARC
  8
4_SURFACE
 62
7
  6
CONTINUOUS
 10
36.421758059
 20
198.4839347869
 40
0.42
 50
89.999652069
 51
101.3095776515
  0
ARC
  8
4_SURFACE
 62
7
  6
CONTINUOUS
 10
34.8001747743
 20
198.1596181299
 40
0.42
 50
101.3102608739
 51
180.0
  0
ARC
  8
0
 62
7
  6
CONTINUOUS
 10
136.6432003699
 20
186.703935297
 40
0.5
 50
181.0
 51
270.0
  0
ARC
  8
0
 62
7
  6
CONTINUOUS
 10
122.4671444576
 20
186.703935297
 40
0.5
 50
270.0
 51
359.0
  0
ARC
  8
0
 62
7
  6
CONTINUOUS
 10
125.3171444576
 20
186.703935297
 40
0.5
 50
270.0000072844
 51
358.9999623162
  0
ARC
  8
0
 62
7
  6
CONTINUOUS
 10
102.9932003699
 20
186.703935297
 40
0.5
 50
181.0
 51
270.0
  0
ARC
  8
0
 62
7
  6
CONTINUOUS
 10
147.9801724138
 20
186.703935297
 40
0.5
 50
270.0
 51
360.0
  0
ARC
  8
0
 62
7
  6
CONTINUOUS
 10
133.6931993361
 20
186.703935297
 40
0.4999999371
 50
180.9999816027
 51
270.000077255
  0
ARC
  8
0
 62
7
  6
CONTINUOUS
 10
100.1431995044
 20
186.703935297
 40
0.4999998719
 50
181.0000635221
 51
270.0000949068
  0
ARC
  8
0
 62
7
  6
CONTINUOUS
 10
122.6713687129
 20
198.4039350468
 40
0.5
 50
359.0000286656
 51
89.9999994997
  0
ARC
  8
0
 62
7
  6
CONTINUOUS
 10
102.7889761149
 20
198.4039350324
 40
0.5
 50
90.0000005292
 51
180.9999696797
  0
ARC
  8
0
 62
7
  6
CONTINUOUS
 10
132.5586433859
 20
194.403935297
 40
0.5
 50
0.999998688
 51
89.2001629438
  0
ARC
  8
0
 62
7
  6
CONTINUOUS
 10
99.0086435232
 20
194.403935297
 40
0.5
 50
0.9999989625
 51
89.2001786473
  0
ARC
  8
0
 62
7
  6
CONTINUOUS
 10
126.4516991099
 20
194.403935297
 40
0.4999993556
 50
90.7995702401
 51
178.9999966486
  0
ARC
  8
0
 62
7
  6
CONTINUOUS
 10
136.438974288
 20
198.403935297
 40
0.4999992992
 50
89.9997911818
 51
181.0000036444
  0
ARC
  8
0
 62
7
  6
CONTINUOUS
 10
146.4385867686
 20
198.4839347869
 40
0.42
 50
78.6904223485
 51
90.000347931
  0
ARC
  8
0
 62
7
  6
CONTINUOUS
 10
148.0601700532
 20
198.1596181299
 40
0.42
 50
0.0
 51
78.6897391261
  0
ARC
  8
4_SURFACE
 62
7
  6
CONTINUOUS
 10
170.0673512452
 20
137.2500867157
 40
2.0
 50
110.03
 51
180.0
  0
ARC
  8
4_SURFACE
 62
7
  6
CONTINUOUS
 10
168.5673512452
 20
141.321424081
 40
0.4999993587
 50
90.0
 51
180.0001910685
  0
ARC
  8
0
 62
7
  6
CONTINUOUS
 10
174.4174265205
 20
110.4614224132
 40
6.5
 50
215.4843835183
 51
216.3966990104
  0
ARC
  8
0
 62
7
  6
CONTINUOUS
 10
174.4174265205
 20
110.4614224132
 40
6.5
 50
202.0687374101
 51
202.2966060761
  0
ARC
  8
0
 62
7
  6
CONTINUOUS
 10
174.4174265205
 20
110.4614224132
 40
6.5
 50
192.3297961702
 51
200.7718900419
  0
ARC
  8
0
 62
7
  6
CONTINUOUS
 10
174.4174265205
 20
110.4614224132
 40
6.5
 50
203.3859775291
 51
207.8181392799
  0
ARC
  8
0
 62
7
  6
CONTINUOUS
 10
174.4174265205
 20
110.4614224132
 40
6.5
 50
217.4690876109
 51
269.9998032322
  0
ARC
  8
4_SURFACE
 62
7
  6
CONTINUOUS
 10
174.4174265205
 20
110.4614224132
 40
6.5
 50
192.3297961702
 51
270.0
  0
ARC
  8
0
 62
7
  6
CONTINUOUS
 10
174.4173512452
 20
110.3114224136
 40
6.35
 50
305.011575685
 51
306.400740783
  0
ARC
  8
0
 62
7
  6
CONTINUOUS
 10
174.4173512452
 20
110.3114224136
 40
6.35
 50
313.8451508721
 51
341.4420118002
  0
ARC
  8
0
 62
7
  6
CONTINUOUS
 10
174.4173512452
 20
110.3114224136
 40
6.35
 50
292.9720843034
 51
293.5579232328
  0
ARC
  8
0
 62
7
  6
CONTINUOUS
 10
174.4173512452
 20
110.3114224136
 40
6.35
 50
354.4862485567
 51
360.0
  0
ARC
  8
0
 62
7
  6
CONTINUOUS
 10
174.4173512452
 20
110.3114224136
 40
6.35
 50
287.7217523399
 51
291.2257372796
  0
ARC
  8
0
 62
7
  6
CONTINUOUS
 10
174.4173512452
 20
110.3114224136
 40
6.35
 50
276.8924382507
 51
285.7634153992
  0
ARC
  8
0
 62
7
  6
CONTINUOUS
 10
174.4173512452
 20
110.3114224136
 40
6.35
 50
270.0006792053
 51
275.2178553864
  0
ARC
  8
4_SURFACE
 62
7
  6
CONTINUOUS
 10
174.4173512452
 20
110.3114224136
 40
6.35
 50
270.0006792053
 51
360.0
  0
CIRCLE
  8
4_SURFACE
 62
7
  6
CONTINUOUS
 10
174.4173512452
 20
110.3114224136
 40
3.25
  0
ARC
  8
4_SURFACE
 62
7
  6
CONTINUOUS
 10
174.4178624976
 20
148.2612149277
 40
6.855
 50
290.03
 51
326.1143692679
  0
ARC
  8
4_SURFACE
 62
7
  6
CONTINUOUS
 10
174.4174265205
 20
148.261422414
 40
6.5
 50
119.1702471916
 51
121.7172799644
  0
ARC
  8
4_SURFACE
 62
7
  6
CONTINUOUS
 10
174.4174265205
 20
148.261422414
 40
6.5
 50
90.0
 51
95.2123088314
  0
ARC
  8
4_SURFACE
 62
7
  6
CONTINUOUS
 10
174.4174265205
 20
148.261422414
 40
6.5
 50
123.0620855924
 51
167.6702038298
  0
ARC
  8
0
 62
7
  6
CONTINUOUS
 10
174.4174265205
 20
148.261422414
 40
6.5
 50
90.0
 51
121.7172799644
  0
ARC
  8
0
 62
7
  6
CONTINUOUS
 10
174.4174265205
 20
148.261422414
 40
6.5
 50
121.7366613111
 51
167.6702038298
  0
ARC
  8
0
 62
7
  6
CONTINUOUS
 10
174.4173512452
 20
148.4114224136
 40
6.35
 50
0.0
 51
5.624641248
  0
ARC
  8
0
 62
7
  6
CONTINUOUS
 10
174.4173512452
 20
148.4114224136
 40
6.35
 50
84.3737731165
 51
89.9993207947
  0
ARC
  8
1_AXIS
 62
7
  6
CONTINUOUS
 10
174.4173512452
 20
148.4114224136
 40
6.35
 50
0.0
 51
90.0
  0
CIRCLE
  8
4_SURFACE
 62
7
  6
CONTINUOUS
 10
174.4173512452
 20
148.4114224136
 40
3.25
  0
ARC
  8
4_SURFACE
 62
7
  6
CONTINUOUS
 10
180.2673512452
 20
143.961424081
 40
0.4999993587
 50
359.9998089315
 51
90.0
  0
ARC
  8
0
 62
7
  6
CONTINUOUS
 10
180.2673512452
 20
143.961424081
 40
0.4999993587
 50
79.3349209123
 51
90.0
  0
ARC
  8
0
 62
7
  6
CONTINUOUS
 10
180.2673512452
 20
143.961424081
 40
0.4999993587
 50
11.2498247308
 51
78.7499714641
  0
ARC
  8
4_SURFACE
 62
7
  6
CONTINUOUS
 10
180.1500629998
 20
144.4114224136
 40
0.05
 50
90.6327996538
 51
146.1143692678
  0
ENDSEC
  0
EOF
