  0
SECTION
  2
HEADER
  9
$EXTMAX
 10
210.0
 20
297.0
 30
0.0
  9
$EXTMIN
 10
0.0
 20
0.0
 30
0.0
  9
$LIMMIN
 10
0.0
 20
0.0
  9
$LIMMAX
 10
210.0
 20
297.0
  9
$VIEWCTR
 10
105.0
 20
148.5
  9
$VIEWSIZE
 40
297.0
  9
$CLAYER
  8
0
  9
$LTSCALE
 40
19.36
  9
$CELTYPE
  6
BYLAYER
  9
$DIMSCALE
 40
1.0
  9
$DIMASZ
 40
3.5
  9
$DIMEXO
 40
2.2
  9
$DIMDLI
 40
13.376
  9
$DIMEXE
 40
6.336
  9
$DIMCEN
 40
3.168
  9
$DIMLFAC
 40
1.0
  9
$DIMBLK
  1
_FILLED
  9
$DIMTXT
 40
3.5
  9
$PDMODE
 70
3
  9
$PDSIZE
 40
0.3125
  9
$TILEMODE
 70
1
  0
ENDSEC
  0
SECTION
  2
TABLES
  0
TABLE
  2
LTYPE
 70
6
  0
LTYPE
  2
BYBLOCK
 70
0
  3

 72
65
 73
0
 40
0.0
  0
LTYPE
  2
BYLAYER
 70
0
  3

 72
65
 73
0
 40
0.0
  0
LTYPE
  2
CONTINUOUS
 70
64
  3
Solid line
 72
65
 73
0
 40
0.0
  0
LTYPE
  2
CENTER
 70
64
  3
____ _ ____ _ ____ _ ____ _ ____ _ ____ _ ____
 72
65
 73
4
 40
0.6
 49
0.375
 49
-0.075
 49
0.075
 49
-0.075
  0
LTYPE
  2
HIDDEN
 70
64
  3
- - - - - - - - - - - - - - - - - - - -
 72
65
 73
2
 40
0.2
 49
0.1
 49
-0.1
  0
LTYPE
  2
PHANTOM
 70
64
  3
_____ _ _ _____ _ _ _____ _ _ _____
 72
65
 73
6
 40
0.8
 49
0.45
 49
-0.05
 49
0.1
 49
-0.05
 49
0.1
 49
-0.05
  0
LTYPE
  2
DOT
 70
64
  3
. . . . . . . . . . . . . . . . . . . .
 72
65
 73
2
 40
0.2
 49
0.1
 49
-0.1
  0
LTYPE
  2
DASHED
 70
64
  3
- - - - - - - - - - - - - - - - - - - -
 72
65
 73
2
 40
0.2
 49
0.1
 49
-0.1
  0
ENDTAB
  0
TABLE
  2
LAYER
 70
36
  0
LAYER
  2
0
 70
0
 62
7
  6
CONTINUOUS
  0
LAYER
  2
DEFAULT_1
 70
0
 62
7
  6
CENTER
  0
LAYER
  2
DEFAULT_2
 70
0
 62
8
  6
HIDDEN
  0
LAYER
  2
DEFAULT_3
 70
0
 62
7
  6
PHANTOM
  0
LAYER
  2
1_AXIS
 70
0
 62
7
  6
CONTINUOUS
  0
LAYER
  2
1_CSYS
 70
0
 62
7
  6
CONTINUOUS
  0
LAYER
  2
1_DATUMPLANE
 70
0
 62
7
  6
CONTINUOUS
  0
LAYER
  2
4_QUILT
 70
0
 62
7
  6
CONTINUOUS
  0
LAYER
  2
4_SURFACE
 70
0
 62
7
  6
CONTINUOUS
  0
LAYER
  2
6_DIM
 70
0
 62
7
  6
CONTINUOUS
  0
LAYER
  2
CURVE
 70
0
 62
7
  6
CONTINUOUS
  0
LAYER
  2
SURFACE
 70
0
 62
7
  6
CONTINUOUS
  0
ENDTAB
  0
TABLE
  2
STYLE
 70
1
  0
STYLE
  2
STANDARD
 70
0
 40
0.0
 41
0.8
 50
0.0
 71
0
 42
0.2
  3
txt
  4

  0
STYLE
  2
TEXTSTYLE_1
 70
0
 40
0.0
 41
0.8
 50
0.0
 71
0
 42
0.2
  3
gdt
  4

  0
STYLE
  2
TEXTSTYLE_2
 70
0
 40
0.0
 41
0.6
 50
0.0
 71
0
 42
0.2
  3
txt
  4

  0
STYLE
  2
TEXTSTYLE_3
 70
0
 40
0.0
 41
1.0
 50
0.0
 71
0
 42
0.2
  3
ftb_____.ttf
  4

  0
STYLE
  2
TEXTSTYLE_4
 70
0
 40
0.0
 41
1.0
 50
0.0
 71
0
 42
0.2
  3
fti_____.ttf
  4

  0
STYLE
  2
TEXTSTYLE_5
 70
0
 40
0.0
 41
1.0
 50
0.0
 71
0
 42
0.2
  3
frutiger light.ttf
  4

  0
STYLE
  2
TEXTSTYLE_6
 70
0
 40
0.0
 41
0.7
 50
0.0
 71
0
 42
0.2
  3
txt
  4

  0
STYLE
  2
TEXTSTYLE_7
 70
0
 40
0.0
 41
0.75
 50
0.0
 71
0
 42
0.2
  3
txt
  4

  0
ENDTAB
  0
ENDSEC
  0
SECTION
  2
BLOCKS
  0
BLOCK
  8
0
 62
2
  6
CONTINUOUS
  2
SYMBOL_8_BL1
 70
64
 10
173.5956734183
 20
35.5937998301
  0
TEXT
  8
0
 62
7
  6
CONTINUOUS
 10
164.6539584268
 20
30.6865562072
  7
TEXTSTYLE_4
 40
1.0655737705
  1
The brand for plastic modular belts and chains
 41
1.0
 72
0
  0
LINE
  8
0
 62
7
  6
CONTINUOUS
 10
149.5737418074
 20
36.1675703219
 11
149.5737418074
 21
34.0364227809
  0
LINE
  8
0
 62
7
  6
CONTINUOUS
 10
149.8628043005
 20
31.0454914852
 11
149.8628043005
 21
31.1422825445
  0
LINE
  8
0
 62
7
  6
CONTINUOUS
 10
149.5737418074
 20
31.1100188581
 11
149.6315543091
 21
30.9164367395
  0
LINE
  8
0
 62
7
  6
CONTINUOUS
 10
150.9671844304
 20
33.9544555678
 11
150.9671844304
 21
36.1675703219
  0
LINE
  8
0
 62
7
  6
CONTINUOUS
 10
151.8862417523
 20
32.1101932727
 11
151.8862417523
 21
30.5937998301
  0
LINE
  8
0
 62
7
  6
CONTINUOUS
 10
152.1753043074
 20
30.5937998301
 11
152.1753043074
 21
31.3358647082
  0
LINE
  8
0
 62
7
  6
CONTINUOUS
 10
152.1753043074
 20
31.4649194539
 11
152.1753043074
 21
32.1101932727
  0
LINE
  8
0
 62
7
  6
CONTINUOUS
 10
149.6315543091
 20
31.3036010218
 11
149.5737418074
 21
31.1100188581
  0
LINE
  8
0
 62
7
  6
CONTINUOUS
 10
149.9784292936
 20
30.8841730531
 11
149.8628043005
 21
31.0454914852
  0
LINE
  8
0
 62
7
  6
CONTINUOUS
 10
151.0768668626
 20
31.400392081
 11
151.1346793074
 21
31.3036010218
  0
LINE
  8
0
 62
7
  6
CONTINUOUS
 10
151.4237418626
 20
31.3036010218
 11
151.3659292523
 21
31.4326557675
  0
LINE
  8
0
 62
7
  6
CONTINUOUS
 10
152.852430332
 20
36.1675703219
 11
152.852430332
 21
34.3642916334
  0
LINE
  8
0
 62
7
  6
CONTINUOUS
 10
152.852430332
 20
33.0528162235
 11
152.852430332
 21
32.3970785186
  0
LINE
  8
0
 62
7
  6
CONTINUOUS
 10
153.2159293074
 20
31.2390736489
 11
153.2159293074
 21
30.5937998301
  0
LINE
  8
0
 62
7
  6
CONTINUOUS
 10
153.5049916972
 20
30.5937998301
 11
153.5049916972
 21
31.2390736489
  0
LINE
  8
0
 62
7
  6
CONTINUOUS
 10
149.8628043005
 20
31.1422825445
 11
149.9206168074
 21
31.2713373354
  0
LINE
  8
0
 62
7
  6
CONTINUOUS
 10
149.6315543091
 20
30.9164367395
 11
149.7471793074
 21
30.7873819712
  0
LINE
  8
0
 62
7
  6
CONTINUOUS
 10
153.1581166972
 20
31.3681283946
 11
153.2159293074
 21
31.2390736489
  0
LINE
  8
0
 62
7
  6
CONTINUOUS
 10
153.9674919177
 20
30.8841730531
 11
154.0253041972
 21
30.7551182848
  0
LINE
  8
0
 62
7
  6
CONTINUOUS
 10
153.5049916972
 20
31.2390736489
 11
153.4471794177
 21
31.400392081
  0
LINE
  8
0
 62
7
  6
CONTINUOUS
 10
153.9674919177
 20
31.4326557675
 11
153.9674919177
 21
31.3681283946
  0
LINE
  8
0
 62
7
  6
CONTINUOUS
 10
153.9674919177
 20
30.9809641124
 11
153.9674919177
 21
30.8841730531
  0
LINE
  8
0
 62
7
  6
CONTINUOUS
 10
154.245872955
 20
32.3970785186
 11
154.245872955
 21
36.1675703219
  0
LINE
  8
0
 62
7
  6
CONTINUOUS
 10
154.2565543074
 20
30.8519093441
 11
154.2565543074
 21
30.9164367395
  0
LINE
  8
0
 62
7
  6
CONTINUOUS
 10
154.5737418074
 20
36.1675703219
 11
154.5737418074
 21
32.3970785186
  0
LINE
  8
0
 62
7
  6
CONTINUOUS
 10
151.3659292523
 20
30.7873819712
 11
151.4237418626
 21
30.9164367395
  0
LINE
  8
0
 62
7
  6
CONTINUOUS
 10
155.759679528
 20
30.6905909007
 11
155.7018665869
 21
30.8519093441
  0
LINE
  8
0
 62
7
  6
CONTINUOUS
 10
155.412804528
 20
31.3681283946
 11
155.412804528
 21
31.2713373354
  0
LINE
  8
0
 62
7
  6
CONTINUOUS
 10
155.412804528
 20
31.1422825445
 11
155.412804528
 21
30.9487004259
  0
LINE
  8
0
 62
7
  6
CONTINUOUS
 10
155.7018665869
 20
30.8519093441
 11
155.7018665869
 21
31.3681283946
  0
LINE
  8
0
 62
7
  6
CONTINUOUS
 10
155.9671844304
 20
32.3970785186
 11
155.9671844304
 21
34.2003572071
  0
LINE
  8
0
 62
7
  6
CONTINUOUS
 10
155.9671844304
 20
35.511832617
 11
155.9671844304
 21
36.1675703219
  0
LINE
  8
0
 62
7
  6
CONTINUOUS
 10
156.279992028
 20
32.1101932727
 11
156.279992028
 21
31.9488748406
  0
LINE
  8
0
 62
7
  6
CONTINUOUS
 10
156.279992028
 20
31.626237886
 11
156.279992028
 21
30.5937998301
  0
LINE
  8
0
 62
7
  6
CONTINUOUS
 10
156.5690540869
 20
30.5937998301
 11
156.5690540869
 21
31.626237886
  0
LINE
  8
0
 62
7
  6
CONTINUOUS
 10
156.5690540869
 20
31.9488748406
 11
156.5690540869
 21
32.1101932727
  0
LINE
  8
0
 62
7
  6
CONTINUOUS
 10
151.1346793074
 20
30.9164367395
 11
151.0768668626
 21
30.8196456577
  0
LINE
  8
0
 62
7
  6
CONTINUOUS
 10
153.4471794177
 20
31.400392081
 11
153.3893668074
 21
31.4649194539
  0
LINE
  8
0
 62
7
  6
CONTINUOUS
 10
154.3143669177
 20
30.7873819712
 11
154.2565543074
 21
30.8519093441
  0
LINE
  8
0
 62
7
  6
CONTINUOUS
 10
155.4706168074
 20
30.6583272086
 11
155.5284290869
 21
30.5937998301
  0
LINE
  8
0
 62
7
  6
CONTINUOUS
 10
155.412804528
 20
30.7551182848
 11
155.4706168074
 21
30.6583272086
  0
LINE
  8
0
 62
7
  6
CONTINUOUS
 10
155.8174918074
 20
30.5937998301
 11
155.759679528
 21
30.6905909007
  0
LINE
  8
0
 62
7
  6
CONTINUOUS
 10
155.7018665869
 20
31.3681283946
 11
155.6440543074
 21
31.4649194539
  0
LINE
  8
0
 62
7
  6
CONTINUOUS
 10
157.0315543074
 20
31.626237886
 11
157.0315543074
 21
30.5937998301
  0
LINE
  8
0
 62
7
  6
CONTINUOUS
 10
157.320617028
 20
30.5937998301
 11
157.320617028
 21
31.3358647082
  0
LINE
  8
0
 62
7
  6
CONTINUOUS
 10
157.320617028
 20
31.4649194539
 11
157.320617028
 21
31.626237886
  0
LINE
  8
0
 62
7
  6
CONTINUOUS
 10
157.852430332
 20
34.6101932727
 11
157.852430332
 21
32.3970785186
  0
LINE
  8
0
 62
7
  6
CONTINUOUS
 10
149.7471793074
 20
31.4326557675
 11
149.6315543091
 21
31.3036010218
  0
LINE
  8
0
 62
7
  6
CONTINUOUS
 10
149.9206168074
 20
31.2713373354
 11
149.9784292936
 21
31.3358647082
  0
LINE
  8
0
 62
7
  6
CONTINUOUS
 10
149.7471793074
 20
30.7873819712
 11
149.8628043005
 21
30.7228545871
  0
LINE
  8
0
 62
7
  6
CONTINUOUS
 10
150.1518667936
 20
30.7873819712
 11
149.9784292936
 21
30.8841730531
  0
LINE
  8
0
 62
7
  6
CONTINUOUS
 10
155.3549915869
 20
31.4326557675
 11
155.412804528
 21
31.3681283946
  0
LINE
  8
0
 62
7
  6
CONTINUOUS
 10
158.3034290869
 20
31.3681283946
 11
158.361242028
 21
31.2068099625
  0
LINE
  8
0
 62
7
  6
CONTINUOUS
 10
158.6503040869
 20
31.2068099625
 11
158.5924918074
 21
31.3681283946
  0
LINE
  8
0
 62
7
  6
CONTINUOUS
 10
158.361242028
 20
31.2068099625
 11
158.361242028
 21
30.5937998301
  0
LINE
  8
0
 62
7
  6
CONTINUOUS
 10
158.6503040869
 20
30.5937998301
 11
158.6503040869
 21
31.2068099625
  0
LINE
  8
0
 62
7
  6
CONTINUOUS
 10
159.1128043074
 20
31.4326557675
 11
159.1128043074
 21
31.3681283946
  0
LINE
  8
0
 62
7
  6
CONTINUOUS
 10
159.245872955
 20
32.3970785186
 11
159.245872955
 21
34.5282260596
  0
LINE
  8
0
 62
7
  6
CONTINUOUS
 10
159.5737418074
 20
36.1675703219
 11
159.5737418074
 21
32.3970785186
  0
LINE
  8
0
 62
7
  6
CONTINUOUS
 10
154.2565543074
 20
30.9164367395
 11
154.3143669177
 21
31.0132277988
  0
LINE
  8
0
 62
7
  6
CONTINUOUS
 10
149.8628043005
 20
30.7228545871
 11
150.0362418212
 21
30.6583272086
  0
LINE
  8
0
 62
7
  6
CONTINUOUS
 10
151.3659292523
 20
31.4326557675
 11
151.1924917523
 21
31.5294468267
  0
LINE
  8
0
 62
7
  6
CONTINUOUS
 10
154.0253041972
 20
30.7551182848
 11
154.1987416972
 21
30.6583272086
  0
LINE
  8
0
 62
7
  6
CONTINUOUS
 10
153.0424918074
 20
31.4326557675
 11
153.1581166972
 21
31.3681283946
  0
LINE
  8
0
 62
7
  6
CONTINUOUS
 10
153.3893668074
 20
31.4649194539
 11
153.2737419177
 21
31.5294468267
  0
LINE
  8
0
 62
7
  6
CONTINUOUS
 10
159.1128043074
 20
30.8519093441
 11
159.228429528
 21
30.7228545871
  0
LINE
  8
0
 62
7
  6
CONTINUOUS
 10
159.4596793074
 20
30.7873819712
 11
159.401867028
 21
30.8519093441
  0
LINE
  8
0
 62
7
  6
CONTINUOUS
 10
159.1128043074
 20
31.3681283946
 11
159.228429528
 21
31.2390736489
  0
LINE
  8
0
 62
7
  6
CONTINUOUS
 10
158.5924918074
 20
31.3681283946
 11
158.534679528
 21
31.4649194539
  0
LINE
  8
0
 62
7
  6
CONTINUOUS
 10
160.9628038663
 20
30.7873819712
 11
160.9628038663
 21
30.8519093441
  0
LINE
  8
0
 62
7
  6
CONTINUOUS
 10
160.9671844304
 20
32.3970785186
 11
160.9671844304
 21
36.1675703219
  0
LINE
  8
0
 62
7
  6
CONTINUOUS
 10
154.0253041972
 20
31.4971831403
 11
153.9674919177
 21
31.4326557675
  0
LINE
  8
0
 62
7
  6
CONTINUOUS
 10
150.9034292799
 20
31.4649194539
 11
151.0768668626
 21
31.400392081
  0
LINE
  8
0
 62
7
  6
CONTINUOUS
 10
155.6440543074
 20
31.4649194539
 11
155.5284290869
 21
31.5294468267
  0
LINE
  8
0
 62
7
  6
CONTINUOUS
 10
159.4596793074
 20
31.3036010218
 11
159.401867028
 21
31.3681283946
  0
LINE
  8
0
 62
7
  6
CONTINUOUS
 10
160.615929528
 20
30.9164367395
 11
160.6737418074
 21
30.8519093441
  0
LINE
  8
0
 62
7
  6
CONTINUOUS
 10
160.9628038663
 20
30.8519093441
 11
160.8471793074
 21
30.9809641124
  0
LINE
  8
0
 62
7
  6
CONTINUOUS
 10
160.615929528
 20
31.4326557675
 11
160.6737418074
 21
31.3681283946
  0
LINE
  8
0
 62
7
  6
CONTINUOUS
 10
160.9628038663
 20
31.3681283946
 11
160.8471793074
 21
31.4971831403
  0
LINE
  8
0
 62
7
  6
CONTINUOUS
 10
154.2565543074
 20
31.3681283946
 11
154.3143669177
 21
31.4326557675
  0
LINE
  8
0
 62
7
  6
CONTINUOUS
 10
154.0831168074
 20
31.1100188581
 11
153.9674919177
 21
30.9809641124
  0
LINE
  8
0
 62
7
  6
CONTINUOUS
 10
155.412804528
 20
30.9487004259
 11
155.3549915869
 21
30.8841730531
  0
LINE
  8
0
 62
7
  6
CONTINUOUS
 10
155.3549915869
 20
30.6905909007
 11
155.412804528
 21
30.7551182848
  0
LINE
  8
0
 62
7
  6
CONTINUOUS
 10
154.1987416972
 20
30.6583272086
 11
154.3143669177
 21
30.6260635193
  0
LINE
  8
0
 62
7
  6
CONTINUOUS
 10
151.1924917523
 20
31.5294468267
 11
150.9612418074
 21
31.5939741996
  0
LINE
  8
0
 62
7
  6
CONTINUOUS
 10
154.5456166972
 20
30.7228545871
 11
154.3143669177
 21
30.7873819712
  0
LINE
  8
0
 62
7
  6
CONTINUOUS
 10
153.2737419177
 20
31.5294468267
 11
153.1003044177
 21
31.5939741996
  0
LINE
  8
0
 62
7
  6
CONTINUOUS
 10
155.5284290869
 20
31.5294468267
 11
155.3549915869
 21
31.5939741996
  0
LINE
  8
0
 62
7
  6
CONTINUOUS
 10
158.187804528
 20
31.4326557675
 11
158.3034290869
 21
31.3681283946
  0
LINE
  8
0
 62
7
  6
CONTINUOUS
 10
158.534679528
 20
31.4649194539
 11
158.4190543074
 21
31.5294468267
  0
LINE
  8
0
 62
7
  6
CONTINUOUS
 10
150.0362418212
 20
30.6583272086
 11
150.2096793212
 21
30.6260635193
  0
LINE
  8
0
 62
7
  6
CONTINUOUS
 10
150.498741835
 20
30.7228545871
 11
150.1518667936
 21
30.7873819712
  0
LINE
  8
0
 62
7
  6
CONTINUOUS
 10
152.9268669177
 20
31.4649194539
 11
153.0424918074
 21
31.4326557675
  0
LINE
  8
0
 62
7
  6
CONTINUOUS
 10
155.239367028
 20
31.4649194539
 11
155.3549915869
 21
31.4326557675
  0
LINE
  8
0
 62
7
  6
CONTINUOUS
 10
159.575304528
 20
30.7551182848
 11
159.4596793074
 21
30.7873819712
  0
LINE
  8
0
 62
7
  6
CONTINUOUS
 10
158.0721793074
 20
31.4649194539
 11
158.187804528
 21
31.4326557675
  0
LINE
  8
0
 62
7
  6
CONTINUOUS
 10
159.228429528
 20
30.7228545871
 11
159.401867028
 21
30.6583272086
  0
LINE
  8
0
 62
7
  6
CONTINUOUS
 10
158.4190543074
 20
31.5294468267
 11
158.2456168074
 21
31.5939741996
  0
LINE
  8
0
 62
7
  6
CONTINUOUS
 10
159.6331168074
 20
31.2390736489
 11
159.4596793074
 21
31.3036010218
  0
LINE
  8
0
 62
7
  6
CONTINUOUS
 10
160.442492028
 20
30.9809641124
 11
160.615929528
 21
30.9164367395
  0
LINE
  8
0
 62
7
  6
CONTINUOUS
 10
160.8471793074
 20
31.4971831403
 11
160.6737418074
 21
31.5617105132
  0
LINE
  8
0
 62
7
  6
CONTINUOUS
 10
159.228429528
 20
31.2390736489
 11
159.4596793074
 21
31.1422825445
  0
LINE
  8
0
 62
7
  6
CONTINUOUS
 10
160.8471793074
 20
30.9809641124
 11
160.615929528
 21
31.0777551716
  0
LINE
  8
0
 62
7
  6
CONTINUOUS
 10
159.401867028
 20
31.3681283946
 11
159.4596793074
 21
31.4326557675
  0
LINE
  8
0
 62
7
  6
CONTINUOUS
 10
149.8628043005
 20
31.4971831403
 11
149.7471793074
 21
31.4326557675
  0
LINE
  8
0
 62
7
  6
CONTINUOUS
 10
149.9784292936
 20
31.3358647082
 11
150.1518667936
 21
31.4326557675
  0
LINE
  8
0
 62
7
  6
CONTINUOUS
 10
152.2909293626
 20
31.5294468267
 11
152.1753043074
 21
31.4649194539
  0
LINE
  8
0
 62
7
  6
CONTINUOUS
 10
152.1753043074
 20
31.3358647082
 11
152.2909293626
 21
31.400392081
  0
LINE
  8
0
 62
7
  6
CONTINUOUS
 10
151.1924917523
 20
30.6905909007
 11
151.3659292523
 21
30.7873819712
  0
LINE
  8
0
 62
7
  6
CONTINUOUS
 10
150.2096793212
 20
30.6260635193
 11
150.5565542799
 21
30.5937998301
  0
LINE
  8
0
 62
7
  6
CONTINUOUS
 10
154.3143669177
 20
30.6260635193
 11
154.5456166972
 21
30.5937998301
  0
LINE
  8
0
 62
7
  6
CONTINUOUS
 10
152.6956168074
 20
31.4971831403
 11
152.9268669177
 21
31.4649194539
  0
LINE
  8
0
 62
7
  6
CONTINUOUS
 10
155.0081169177
 20
31.4971831403
 11
155.239367028
 21
31.4649194539
  0
LINE
  8
0
 62
7
  6
CONTINUOUS
 10
159.4596793074
 20
31.1422825445
 11
160.442492028
 21
30.9809641124
  0
LINE
  8
0
 62
7
  6
CONTINUOUS
 10
160.615929528
 20
31.0777551716
 11
159.6331168074
 21
31.2390736489
  0
LINE
  8
0
 62
7
  6
CONTINUOUS
 10
153.1003044177
 20
31.5939741996
 11
152.9268669177
 21
31.626237886
  0
LINE
  8
0
 62
7
  6
CONTINUOUS
 10
159.401867028
 20
30.6583272086
 11
159.575304528
 21
30.6260635193
  0
LINE
  8
0
 62
7
  6
CONTINUOUS
 10
158.2456168074
 20
31.5939741996
 11
158.0721793074
 21
31.626237886
  0
LINE
  8
0
 62
7
  6
CONTINUOUS
 10
160.5003043074
 20
31.4649194539
 11
160.615929528
 21
31.4326557675
  0
LINE
  8
0
 62
7
  6
CONTINUOUS
 10
160.6737418074
 20
30.8519093441
 11
160.615929528
 21
30.7873819712
  0
LINE
  8
0
 62
7
  6
CONTINUOUS
 10
159.228429528
 20
31.5294468267
 11
159.1128043074
 21
31.4326557675
  0
LINE
  8
0
 62
7
  6
CONTINUOUS
 10
154.1409294177
 20
31.5617105132
 11
154.0253041972
 21
31.4971831403
  0
LINE
  8
0
 62
7
  6
CONTINUOUS
 10
154.1987416972
 20
31.1745462761
 11
154.0831168074
 21
31.1100188581
  0
LINE
  8
0
 62
7
  6
CONTINUOUS
 10
154.3143669177
 20
31.0132277988
 11
154.4299918074
 21
31.0777551716
  0
LINE
  8
0
 62
7
  6
CONTINUOUS
 10
151.8862417523
 20
30.5937998301
 11
152.1753043074
 21
30.5937998301
  0
LINE
  8
0
 62
7
  6
CONTINUOUS
 10
153.2159293074
 20
30.5937998301
 11
153.5049916972
 21
30.5937998301
  0
LINE
  8
0
 62
7
  6
CONTINUOUS
 10
154.5456166972
 20
30.5937998301
 11
154.8924916972
 21
30.5937998301
  0
LINE
  8
0
 62
7
  6
CONTINUOUS
 10
155.5284290869
 20
30.5937998301
 11
155.8174918074
 21
30.5937998301
  0
LINE
  8
0
 62
7
  6
CONTINUOUS
 10
156.279992028
 20
30.5937998301
 11
156.5690540869
 21
30.5937998301
  0
LINE
  8
0
 62
7
  6
CONTINUOUS
 10
157.0315543074
 20
30.5937998301
 11
157.320617028
 21
30.5937998301
  0
LINE
  8
0
 62
7
  6
CONTINUOUS
 10
158.361242028
 20
30.5937998301
 11
158.6503040869
 21
30.5937998301
  0
LINE
  8
0
 62
7
  6
CONTINUOUS
 10
159.922179528
 20
30.5937998301
 11
160.269054528
 21
30.5937998301
  0
LINE
  8
0
 62
7
  6
CONTINUOUS
 10
160.269054528
 20
30.7228545871
 11
159.922179528
 21
30.7228545871
  0
LINE
  8
0
 62
7
  6
CONTINUOUS
 10
154.8924916972
 20
30.7228545871
 11
154.5456166972
 21
30.7228545871
  0
LINE
  8
0
 62
7
  6
CONTINUOUS
 10
159.401867028
 20
30.8519093441
 11
159.1128043074
 21
30.8519093441
  0
LINE
  8
0
 62
7
  6
CONTINUOUS
 10
151.4237418626
 20
30.9164367395
 11
151.1346793074
 21
30.9164367395
  0
LINE
  8
0
 62
7
  6
CONTINUOUS
 10
150.498741835
 20
31.4971831403
 11
150.9034292799
 21
31.4649194539
  0
LINE
  8
0
 62
7
  6
CONTINUOUS
 10
150.9612418074
 20
31.5939741996
 11
150.5565542799
 21
31.626237886
  0
LINE
  8
0
 62
7
  6
CONTINUOUS
 10
159.575304528
 20
30.6260635193
 11
159.922179528
 21
30.5937998301
  0
LINE
  8
0
 62
7
  6
CONTINUOUS
 10
159.922179528
 20
30.7228545871
 11
159.575304528
 21
30.7551182848
  0
LINE
  8
0
 62
7
  6
CONTINUOUS
 10
155.3549915869
 20
31.5939741996
 11
155.0081169177
 21
31.626237886
  0
LINE
  8
0
 62
7
  6
CONTINUOUS
 10
160.1534293074
 20
31.4971831403
 11
160.5003043074
 21
31.4649194539
  0
LINE
  8
0
 62
7
  6
CONTINUOUS
 10
160.5003043074
 20
31.5939741996
 11
160.1534293074
 21
31.626237886
  0
LINE
  8
0
 62
7
  6
CONTINUOUS
 10
157.840929528
 20
31.4971831403
 11
158.0721793074
 21
31.4649194539
  0
LINE
  8
0
 62
7
  6
CONTINUOUS
 10
160.6737418074
 20
31.5617105132
 11
160.5003043074
 21
31.5939741996
  0
LINE
  8
0
 62
7
  6
CONTINUOUS
 10
160.8471793074
 20
30.6905909007
 11
160.9628038663
 21
30.7873819712
  0
LINE
  8
0
 62
7
  6
CONTINUOUS
 10
155.3549915869
 20
30.8841730531
 11
155.1815540869
 21
30.7873819712
  0
LINE
  8
0
 62
7
  6
CONTINUOUS
 10
157.4362415869
 20
31.5294468267
 11
157.320617028
 21
31.4649194539
  0
LINE
  8
0
 62
7
  6
CONTINUOUS
 10
157.320617028
 20
31.3358647082
 11
157.4362415869
 21
31.400392081
  0
LINE
  8
0
 62
7
  6
CONTINUOUS
 10
150.0362418212
 20
31.5617105132
 11
149.8628043005
 21
31.4971831403
  0
LINE
  8
0
 62
7
  6
CONTINUOUS
 10
152.4643666972
 20
31.5939741996
 11
152.2909293626
 21
31.5294468267
  0
LINE
  8
0
 62
7
  6
CONTINUOUS
 10
152.2909293626
 20
31.400392081
 11
152.4643666972
 21
31.4649194539
  0
LINE
  8
0
 62
7
  6
CONTINUOUS
 10
151.0768668626
 20
30.8196456577
 11
150.9034292799
 21
30.7551182848
  0
LINE
  8
0
 62
7
  6
CONTINUOUS
 10
160.5003043074
 20
30.7551182848
 11
160.269054528
 21
30.7228545871
  0
LINE
  8
0
 62
7
  6
CONTINUOUS
 10
154.8924916972
 20
30.5937998301
 11
155.1815540869
 21
30.6260635193
  0
LINE
  8
0
 62
7
  6
CONTINUOUS
 10
160.269054528
 20
30.5937998301
 11
160.615929528
 21
30.6260635193
  0
LINE
  8
0
 62
7
  6
CONTINUOUS
 10
150.5565542799
 20
30.5937998301
 11
150.9612418074
 21
30.6260635193
  0
LINE
  8
0
 62
7
  6
CONTINUOUS
 10
150.9034292799
 20
30.7551182848
 11
150.498741835
 21
30.7228545871
  0
LINE
  8
0
 62
7
  6
CONTINUOUS
 10
154.7768668074
 20
31.1422825445
 11
155.412804528
 21
31.1422825445
  0
LINE
  8
0
 62
7
  6
CONTINUOUS
 10
155.412804528
 20
31.2713373354
 11
154.7768668074
 21
31.2713373354
  0
LINE
  8
0
 62
7
  6
CONTINUOUS
 10
151.1346793074
 20
31.3036010218
 11
151.4237418626
 21
31.3036010218
  0
LINE
  8
0
 62
7
  6
CONTINUOUS
 10
153.9674919177
 20
31.3681283946
 11
154.2565543074
 21
31.3681283946
  0
LINE
  8
0
 62
7
  6
CONTINUOUS
 10
160.6737418074
 20
31.3681283946
 11
160.9628038663
 21
31.3681283946
  0
LINE
  8
0
 62
7
  6
CONTINUOUS
 10
154.6612419177
 20
31.4971831403
 11
155.0081169177
 21
31.4971831403
  0
LINE
  8
0
 62
7
  6
CONTINUOUS
 10
159.8065543074
 20
31.4971831403
 11
160.1534293074
 21
31.4971831403
  0
LINE
  8
0
 62
7
  6
CONTINUOUS
 10
160.1534293074
 20
31.626237886
 11
159.8065543074
 21
31.626237886
  0
LINE
  8
0
 62
7
  6
CONTINUOUS
 10
158.0721793074
 20
31.626237886
 11
157.840929528
 21
31.626237886
  0
LINE
  8
0
 62
7
  6
CONTINUOUS
 10
157.320617028
 20
31.626237886
 11
157.0315543074
 21
31.626237886
  0
LINE
  8
0
 62
7
  6
CONTINUOUS
 10
156.5690540869
 20
31.626237886
 11
156.279992028
 21
31.626237886
  0
LINE
  8
0
 62
7
  6
CONTINUOUS
 10
155.0081169177
 20
31.626237886
 11
154.6612419177
 21
31.626237886
  0
LINE
  8
0
 62
7
  6
CONTINUOUS
 10
152.9268669177
 20
31.626237886
 11
152.6956168074
 21
31.626237886
  0
LINE
  8
0
 62
7
  6
CONTINUOUS
 10
156.279992028
 20
31.9488748406
 11
156.5690540869
 21
31.9488748406
  0
LINE
  8
0
 62
7
  6
CONTINUOUS
 10
156.5690540869
 20
32.1101932727
 11
156.279992028
 21
32.1101932727
  0
LINE
  8
0
 62
7
  6
CONTINUOUS
 10
152.1753043074
 20
32.1101932727
 11
151.8862417523
 21
32.1101932727
  0
LINE
  8
0
 62
7
  6
CONTINUOUS
 10
151.2130860697
 20
32.3970785186
 11
151.6256574183
 21
32.3970785186
  0
LINE
  8
0
 62
7
  6
CONTINUOUS
 10
152.852430332
 20
32.3970785186
 11
154.245872955
 21
32.3970785186
  0
LINE
  8
0
 62
7
  6
CONTINUOUS
 10
154.5737418074
 20
32.3970785186
 11
155.9671844304
 21
32.3970785186
  0
LINE
  8
0
 62
7
  6
CONTINUOUS
 10
157.852430332
 20
32.3970785186
 11
159.245872955
 21
32.3970785186
  0
LINE
  8
0
 62
7
  6
CONTINUOUS
 10
159.5737418074
 20
32.3970785186
 11
160.9671844304
 21
32.3970785186
  0
LINE
  8
0
 62
7
  6
CONTINUOUS
 10
157.6096790869
 20
31.5939741996
 11
157.4362415869
 21
31.5294468267
  0
LINE
  8
0
 62
7
  6
CONTINUOUS
 10
155.1815540869
 20
30.6260635193
 11
155.3549915869
 21
30.6905909007
  0
LINE
  8
0
 62
7
  6
CONTINUOUS
 10
160.615929528
 20
30.6260635193
 11
160.8471793074
 21
30.6905909007
  0
LINE
  8
0
 62
7
  6
CONTINUOUS
 10
160.615929528
 20
30.7873819712
 11
160.5003043074
 21
30.7551182848
  0
LINE
  8
0
 62
7
  6
CONTINUOUS
 10
159.575304528
 20
31.4649194539
 11
159.8065543074
 21
31.4971831403
  0
LINE
  8
0
 62
7
  6
CONTINUOUS
 10
157.6096790869
 20
31.4649194539
 11
157.840929528
 21
31.4971831403
  0
LINE
  8
0
 62
7
  6
CONTINUOUS
 10
154.5456166972
 20
31.1100188581
 11
154.7768668074
 21
31.1422825445
  0
LINE
  8
0
 62
7
  6
CONTINUOUS
 10
157.840929528
 20
31.626237886
 11
157.6096790869
 21
31.5939741996
  0
LINE
  8
0
 62
7
  6
CONTINUOUS
 10
154.4299918074
 20
31.4649194539
 11
154.6612419177
 21
31.4971831403
  0
LINE
  8
0
 62
7
  6
CONTINUOUS
 10
159.8065543074
 20
31.626237886
 11
159.4596793074
 21
31.5939741996
  0
LINE
  8
0
 62
7
  6
CONTINUOUS
 10
154.7768668074
 20
31.2713373354
 11
154.4299918074
 21
31.2390736489
  0
LINE
  8
0
 62
7
  6
CONTINUOUS
 10
150.5565542799
 20
31.626237886
 11
150.2096793212
 21
31.5939741996
  0
LINE
  8
0
 62
7
  6
CONTINUOUS
 10
154.6612419177
 20
31.626237886
 11
154.2565543074
 21
31.5939741996
  0
LINE
  8
0
 62
7
  6
CONTINUOUS
 10
152.0327582009
 20
33.5446195022
 11
151.3770204959
 21
33.5446195022
  0
LINE
  8
0
 62
7
  6
CONTINUOUS
 10
157.4362415869
 20
31.400392081
 11
157.6096790869
 21
31.4649194539
  0
LINE
  8
0
 62
7
  6
CONTINUOUS
 10
159.4596793074
 20
31.4326557675
 11
159.575304528
 21
31.4649194539
  0
LINE
  8
0
 62
7
  6
CONTINUOUS
 10
159.4596793074
 20
31.5939741996
 11
159.228429528
 21
31.5294468267
  0
LINE
  8
0
 62
7
  6
CONTINUOUS
 10
155.1815540869
 20
30.7873819712
 11
154.8924916972
 21
30.7228545871
  0
LINE
  8
0
 62
7
  6
CONTINUOUS
 10
152.4643666972
 20
31.4649194539
 11
152.6956168074
 21
31.4971831403
  0
LINE
  8
0
 62
7
  6
CONTINUOUS
 10
152.6956168074
 20
31.626237886
 11
152.4643666972
 21
31.5939741996
  0
LINE
  8
0
 62
7
  6
CONTINUOUS
 10
150.2674918074
 20
31.4649194539
 11
150.498741835
 21
31.4971831403
  0
LINE
  8
0
 62
7
  6
CONTINUOUS
 10
156.7868565615
 20
35.0200293383
 11
157.4425942664
 21
35.0200293383
  0
LINE
  8
0
 62
7
  6
CONTINUOUS
 10
154.4299918074
 20
31.0777551716
 11
154.5456166972
 21
31.1100188581
  0
LINE
  8
0
 62
7
  6
CONTINUOUS
 10
154.4299918074
 20
31.2390736489
 11
154.1987416972
 21
31.1745462761
  0
LINE
  8
0
 62
7
  6
CONTINUOUS
 10
154.3143669177
 20
31.4326557675
 11
154.4299918074
 21
31.4649194539
  0
LINE
  8
0
 62
7
  6
CONTINUOUS
 10
150.9612418074
 20
30.6260635193
 11
151.1924917523
 21
30.6905909007
  0
LINE
  8
0
 62
7
  6
CONTINUOUS
 10
154.2565543074
 20
31.5939741996
 11
154.1409294177
 21
31.5617105132
  0
LINE
  8
0
 62
7
  6
CONTINUOUS
 10
150.2096793212
 20
31.5939741996
 11
150.0362418212
 21
31.5617105132
  0
LINE
  8
0
 62
7
  6
CONTINUOUS
 10
160.9671844304
 20
36.1675703219
 11
159.5737418074
 21
36.1675703219
  0
LINE
  8
0
 62
7
  6
CONTINUOUS
 10
157.6065286927
 20
36.1675703219
 11
157.1939573441
 21
36.1675703219
  0
LINE
  8
0
 62
7
  6
CONTINUOUS
 10
155.9671844304
 20
36.1675703219
 11
154.5737418074
 21
36.1675703219
  0
LINE
  8
0
 62
7
  6
CONTINUOUS
 10
154.245872955
 20
36.1675703219
 11
152.852430332
 21
36.1675703219
  0
LINE
  8
0
 62
7
  6
CONTINUOUS
 10
150.9671844304
 20
36.1675703219
 11
149.5737418074
 21
36.1675703219
  0
LINE
  8
0
 62
7
  6
CONTINUOUS
 10
150.1518667936
 20
31.4326557675
 11
150.2674918074
 21
31.4649194539
  0
CIRCLE
  8
0
 62
7
  6
CONTINUOUS
 10
160.2704631189
 20
38.5036358957
 40
2.0901639344
  0
ARC
  8
0
 62
7
  6
CONTINUOUS
 10
151.2130860697
 20
34.0364227809
 40
1.6393442623
 50
180.0
 51
270.0
  0
ARC
  8
0
 62
7
  6
CONTINUOUS
 10
157.6065286927
 20
34.5282260596
 40
1.6393442623
 50
0.0
 51
90.0
  0
ARC
  8
0
 62
7
  6
CONTINUOUS
 10
151.6256574183
 20
33.8724883547
 40
1.4754098361
 50
270.0
 51
326.2510114041
  0
ARC
  8
0
 62
7
  6
CONTINUOUS
 10
157.1939573441
 20
34.6921604858
 40
1.4754098361
 50
90.0
 51
146.2510114041
  0
ARC
  8
0
 62
7
  6
CONTINUOUS
 10
152.0327582009
 20
34.3642916334
 40
0.8196721311
 50
270.0
 51
360.0
  0
ARC
  8
0
 62
7
  6
CONTINUOUS
 10
156.7868565615
 20
34.2003572071
 40
0.8196721311
 50
90.0
 51
180.0
  0
ARC
  8
0
 62
7
  6
CONTINUOUS
 10
151.3770204959
 20
33.9544555678
 40
0.4098360656
 50
180.0
 51
270.0
  0
ARC
  8
0
 62
7
  6
CONTINUOUS
 10
157.4425942664
 20
34.6101932727
 40
0.4098360656
 50
0.0
 51
90.0
  0
SOLID
  8
0
 62
7
  6
CONTINUOUS
 10
156.279992028
 20
31.9488752009
 11
156.279992028
 21
32.1101936845
 12
156.5690540869
 22
31.9488752009
 13
156.5690540869
 23
32.1101936845
  0
SOLID
  8
0
 62
7
  6
CONTINUOUS
 10
150.5565542799
 20
31.6262382337
 11
150.9612418074
 21
31.5939740028
 12
150.2096793212
 22
31.5939740028
 13
150.2096793212
 23
31.5939740028
  0
SOLID
  8
0
 62
7
  6
CONTINUOUS
 10
150.0362418212
 20
31.5617111435
 11
150.2096793212
 21
31.5939740028
 12
150.9612418074
 22
31.5939740028
 13
150.9612418074
 23
31.5939740028
  0
SOLID
  8
0
 62
7
  6
CONTINUOUS
 10
150.9612418074
 20
31.5939740028
 11
151.1924917523
 21
31.5294468402
 12
150.0362418212
 22
31.5617111435
 13
150.0362418212
 23
31.5617111435
  0
SOLID
  8
0
 62
7
  6
CONTINUOUS
 10
149.8628043005
 20
31.49718259
 11
150.0362418212
 21
31.5617111435
 12
151.1924917523
 22
31.5294468402
 13
151.1924917523
 23
31.5294468402
  0
SOLID
  8
0
 62
7
  6
CONTINUOUS
 10
149.8628043005
 20
31.49718259
 11
151.1924917523
 21
31.5294468402
 12
150.498741835
 22
31.49718259
 13
150.498741835
 23
31.49718259
  0
SOLID
  8
0
 62
7
  6
CONTINUOUS
 10
150.498741835
 20
31.49718259
 11
151.1924917523
 21
31.5294468402
 12
150.9034292799
 22
31.4649197501
 13
150.9034292799
 23
31.4649197501
  0
SOLID
  8
0
 62
7
  6
CONTINUOUS
 10
151.1924917523
 20
31.5294468402
 11
151.3659292523
 21
31.4326554468
 12
150.9034292799
 22
31.4649197501
 13
150.9034292799
 23
31.4649197501
  0
SOLID
  8
0
 62
7
  6
CONTINUOUS
 10
151.0768668626
 20
31.4003926599
 11
150.9034292799
 21
31.4649197501
 12
151.3659292523
 22
31.4326554468
 13
151.3659292523
 23
31.4326554468
  0
SOLID
  8
0
 62
7
  6
CONTINUOUS
 10
151.0768668626
 20
31.4003926599
 11
151.3659292523
 21
31.4326554468
 12
151.1346793074
 22
31.3036013776
 13
151.1346793074
 23
31.3036013776
  0
SOLID
  8
0
 62
7
  6
CONTINUOUS
 10
151.3659292523
 20
31.4326554468
 11
151.4237418626
 21
31.3036013776
 12
151.1346793074
 22
31.3036013776
 13
151.1346793074
 23
31.3036013776
  0
SOLID
  8
0
 62
7
  6
CONTINUOUS
 10
152.4643666972
 20
31.5939739754
 11
152.6956168074
 21
31.6262382787
 12
152.9268669177
 22
31.6262382787
 13
152.9268669177
 23
31.6262382787
  0
SOLID
  8
0
 62
7
  6
CONTINUOUS
 10
152.9268669177
 20
31.6262382787
 11
153.1003044177
 21
31.5939739754
 12
152.4643666972
 22
31.5939739754
 13
152.4643666972
 23
31.5939739754
  0
SOLID
  8
0
 62
7
  6
CONTINUOUS
 10
152.2909293626
 20
31.5294468852
 11
152.4643666972
 21
31.5939739754
 12
153.1003044177
 22
31.5939739754
 13
153.1003044177
 23
31.5939739754
  0
SOLID
  8
0
 62
7
  6
CONTINUOUS
 10
153.1003044177
 20
31.5939739754
 11
153.2737419177
 21
31.5294468852
 12
152.2909293626
 22
31.5294468852
 13
152.2909293626
 23
31.5294468852
  0
SOLID
  8
0
 62
7
  6
CONTINUOUS
 10
153.2737419177
 20
31.5294468852
 11
152.6956168074
 21
31.4971825369
 12
152.2909293626
 22
31.5294468852
 13
152.2909293626
 23
31.5294468852
  0
SOLID
  8
0
 62
7
  6
CONTINUOUS
 10
152.1753043074
 20
31.4649197951
 11
152.2909293626
 21
31.5294468852
 12
152.6956168074
 22
31.4971825369
 13
152.6956168074
 23
31.4971825369
  0
SOLID
  8
0
 62
7
  6
CONTINUOUS
 10
152.6956168074
 20
31.4971825369
 11
152.4643666972
 21
31.4649197951
 12
152.1753043074
 22
31.4649197951
 13
152.1753043074
 23
31.4649197951
  0
SOLID
  8
0
 62
7
  6
CONTINUOUS
 10
152.6956168074
 20
31.4971825369
 11
153.2737419177
 21
31.5294468852
 12
152.9268669177
 22
31.4649197951
 13
152.9268669177
 23
31.4649197951
  0
SOLID
  8
0
 62
7
  6
CONTINUOUS
 10
153.2737419177
 20
31.5294468852
 11
153.3893668074
 21
31.4649197951
 12
152.9268669177
 22
31.4649197951
 13
152.9268669177
 23
31.4649197951
  0
SOLID
  8
0
 62
7
  6
CONTINUOUS
 10
153.0424918074
 20
31.4326554468
 11
152.9268669177
 21
31.4649197951
 12
153.3893668074
 22
31.4649197951
 13
153.3893668074
 23
31.4649197951
  0
SOLID
  8
0
 62
7
  6
CONTINUOUS
 10
153.3893668074
 20
31.4649197951
 11
153.4471794177
 21
31.4003927049
 12
153.0424918074
 22
31.4326554468
 13
153.0424918074
 23
31.4326554468
  0
SOLID
  8
0
 62
7
  6
CONTINUOUS
 10
153.1581166972
 20
31.3681283566
 11
153.0424918074
 21
31.4326554468
 12
153.4471794177
 22
31.4003927049
 13
153.4471794177
 23
31.4003927049
  0
SOLID
  8
0
 62
7
  6
CONTINUOUS
 10
153.1581166972
 20
31.3681283566
 11
153.4471794177
 21
31.4003927049
 12
153.2159293074
 22
31.2390742213
 13
153.2159293074
 23
31.2390742213
  0
SOLID
  8
0
 62
7
  6
CONTINUOUS
 10
153.4471794177
 20
31.4003927049
 11
153.5049916972
 21
31.2390742213
 12
153.2159293074
 22
31.2390742213
 13
153.2159293074
 23
31.2390742213
  0
SOLID
  8
0
 62
7
  6
CONTINUOUS
 10
152.4643666972
 20
31.4649197951
 11
152.2909293626
 21
31.4003927049
 12
152.1753043074
 22
31.4649197951
 13
152.1753043074
 23
31.4649197951
  0
SOLID
  8
0
 62
7
  6
CONTINUOUS
 10
152.2909293626
 20
31.4003927049
 11
152.1753043074
 21
31.3358640533
 12
152.1753043074
 22
31.4649197951
 13
152.1753043074
 23
31.4649197951
  0
SOLID
  8
0
 62
7
  6
CONTINUOUS
 10
152.1753043074
 20
31.3358640533
 11
151.8862417523
 21
30.5938002869
 12
152.1753043074
 22
31.4649197951
 13
152.1753043074
 23
31.4649197951
  0
SOLID
  8
0
 62
7
  6
CONTINUOUS
 10
152.1753043074
 20
31.4649197951
 11
151.8862417523
 21
30.5938002869
 12
152.1753043074
 22
32.1101937295
 13
152.1753043074
 23
32.1101937295
  0
SOLID
  8
0
 62
7
  6
CONTINUOUS
 10
151.8862417523
 20
30.5938002869
 11
151.8862417523
 21
32.1101937295
 12
152.1753043074
 22
32.1101937295
 13
152.1753043074
 23
32.1101937295
  0
SOLID
  8
0
 62
7
  6
CONTINUOUS
 10
152.1753043074
 20
31.3358640533
 11
152.1753043074
 21
30.5938002869
 12
151.8862417523
 22
30.5938002869
 13
151.8862417523
 23
30.5938002869
  0
SOLID
  8
0
 62
7
  6
CONTINUOUS
 10
153.2159293074
 20
30.5938002869
 11
153.2159293074
 21
31.2390742213
 12
153.5049916972
 22
31.2390742213
 13
153.5049916972
 23
31.2390742213
  0
SOLID
  8
0
 62
7
  6
CONTINUOUS
 10
153.5049916972
 20
31.2390742213
 11
153.5049916972
 21
30.5938002869
 12
153.2159293074
 22
30.5938002869
 13
153.2159293074
 23
30.5938002869
  0
SOLID
  8
0
 62
7
  6
CONTINUOUS
 10
154.2565543074
 20
31.5939738288
 11
154.6612419177
 21
31.6262385959
 12
155.0081169177
 22
31.6262385959
 13
155.0081169177
 23
31.6262385959
  0
SOLID
  8
0
 62
7
  6
CONTINUOUS
 10
155.0081169177
 20
31.6262385959
 11
155.3549915869
 21
31.5939738288
 12
154.2565543074
 22
31.5939738288
 13
154.2565543074
 23
31.5939738288
  0
SOLID
  8
0
 62
7
  6
CONTINUOUS
 10
154.1409294177
 20
31.5617111435
 11
154.2565543074
 21
31.5939738288
 12
155.3549915869
 22
31.5939738288
 13
155.3549915869
 23
31.5939738288
  0
SOLID
  8
0
 62
7
  6
CONTINUOUS
 10
155.3549915869
 20
31.5939738288
 11
155.5284290869
 21
31.5294468402
 12
154.1409294177
 22
31.5617111435
 13
154.1409294177
 23
31.5617111435
  0
SOLID
  8
0
 62
7
  6
CONTINUOUS
 10
154.0253041972
 20
31.4971826249
 11
154.1409294177
 21
31.5617111435
 12
155.5284290869
 22
31.5294468402
 13
155.5284290869
 23
31.5294468402
  0
SOLID
  8
0
 62
7
  6
CONTINUOUS
 10
154.0253041972
 20
31.4971826249
 11
155.5284290869
 21
31.5294468402
 12
154.6612419177
 22
31.4971826249
 13
154.6612419177
 23
31.4971826249
  0
SOLID
  8
0
 62
7
  6
CONTINUOUS
 10
154.6612419177
 20
31.4971826249
 11
155.5284290869
 21
31.5294468402
 12
155.0081169177
 22
31.4971826249
 13
155.0081169177
 23
31.4971826249
  0
SOLID
  8
0
 62
7
  6
CONTINUOUS
 10
155.0081169177
 20
31.4971826249
 11
155.5284290869
 21
31.5294468402
 12
155.239367028
 22
31.4649194065
 13
155.239367028
 23
31.4649194065
  0
SOLID
  8
0
 62
7
  6
CONTINUOUS
 10
155.5284290869
 20
31.5294468402
 11
155.6440543074
 21
31.4649194065
 12
155.239367028
 22
31.4649194065
 13
155.239367028
 23
31.4649194065
  0
SOLID
  8
0
 62
7
  6
CONTINUOUS
 10
153.9674919177
 20
31.4326554138
 11
154.0253041972
 21
31.4971826249
 12
154.6612419177
 22
31.4971826249
 13
154.6612419177
 23
31.4971826249
  0
SOLID
  8
0
 62
7
  6
CONTINUOUS
 10
155.3549915869
 20
31.4326554138
 11
155.239367028
 21
31.4649194065
 12
155.6440543074
 22
31.4649194065
 13
155.6440543074
 23
31.4649194065
  0
SOLID
  8
0
 62
7
  6
CONTINUOUS
 10
155.3549915869
 20
31.4326554138
 11
155.6440543074
 21
31.4649194065
 12
155.412804528
 22
31.3681282026
 13
155.412804528
 23
31.3681282026
  0
SOLID
  8
0
 62
7
  6
CONTINUOUS
 10
155.6440543074
 20
31.4649194065
 11
155.7018665869
 21
31.3681282026
 12
155.412804528
 22
31.3681282026
 13
155.412804528
 23
31.3681282026
  0
SOLID
  8
0
 62
7
  6
CONTINUOUS
 10
155.412804528
 20
31.2713369632
 11
155.412804528
 21
31.3681282026
 12
155.7018665869
 22
31.3681282026
 13
155.7018665869
 23
31.3681282026
  0
SOLID
  8
0
 62
7
  6
CONTINUOUS
 10
155.412804528
 20
31.2713369632
 11
155.7018665869
 21
31.3681282026
 12
155.412804528
 22
31.1422827828
 13
155.412804528
 23
31.1422827828
  0
SOLID
  8
0
 62
7
  6
CONTINUOUS
 10
155.412804528
 20
31.1422827828
 11
155.7018665869
 21
31.3681282026
 12
155.412804528
 22
30.9487004259
 13
155.412804528
 23
30.9487004259
  0
SOLID
  8
0
 62
7
  6
CONTINUOUS
 10
155.7018665869
 20
31.3681282026
 11
155.7018665869
 21
30.8519086025
 12
155.412804528
 22
30.9487004259
 13
155.412804528
 23
30.9487004259
  0
SOLID
  8
0
 62
7
  6
CONTINUOUS
 10
157.6096790869
 20
31.5939736268
 11
157.840929528
 21
31.6262383465
 12
158.0721793074
 22
31.6262383465
 13
158.0721793074
 23
31.6262383465
  0
SOLID
  8
0
 62
7
  6
CONTINUOUS
 10
158.0721793074
 20
31.6262383465
 11
158.2456168074
 21
31.5939736268
 12
157.6096790869
 22
31.5939736268
 13
157.6096790869
 23
31.5939736268
  0
SOLID
  8
0
 62
7
  6
CONTINUOUS
 10
157.4362415869
 20
31.5294472848
 11
157.6096790869
 21
31.5939736268
 12
158.2456168074
 22
31.5939736268
 13
158.2456168074
 23
31.5939736268
  0
SOLID
  8
0
 62
7
  6
CONTINUOUS
 10
158.2456168074
 20
31.5939736268
 11
158.4190543074
 21
31.5294472848
 12
157.4362415869
 22
31.5294472848
 13
157.4362415869
 23
31.5294472848
  0
SOLID
  8
0
 62
7
  6
CONTINUOUS
 10
158.4190543074
 20
31.5294472848
 11
157.840929528
 21
31.4971825369
 12
157.4362415869
 22
31.5294472848
 13
157.4362415869
 23
31.5294472848
  0
SOLID
  8
0
 62
7
  6
CONTINUOUS
 10
157.320617028
 20
31.4649199103
 11
157.4362415869
 21
31.5294472848
 12
157.840929528
 22
31.4971825369
 13
157.840929528
 23
31.4971825369
  0
SOLID
  8
0
 62
7
  6
CONTINUOUS
 10
157.840929528
 20
31.4971825369
 11
157.6096790869
 21
31.4649199103
 12
157.320617028
 22
31.4649199103
 13
157.320617028
 23
31.4649199103
  0
SOLID
  8
0
 62
7
  6
CONTINUOUS
 10
157.840929528
 20
31.4971825369
 11
158.4190543074
 21
31.5294472848
 12
158.0721793074
 22
31.4649199103
 13
158.0721793074
 23
31.4649199103
  0
SOLID
  8
0
 62
7
  6
CONTINUOUS
 10
158.4190543074
 20
31.5294472848
 11
158.534679528
 21
31.4649199103
 12
158.0721793074
 22
31.4649199103
 13
158.0721793074
 23
31.4649199103
  0
SOLID
  8
0
 62
7
  6
CONTINUOUS
 10
158.187804528
 20
31.4326554468
 11
158.0721793074
 21
31.4649199103
 12
158.534679528
 22
31.4649199103
 13
158.534679528
 23
31.4649199103
  0
SOLID
  8
0
 62
7
  6
CONTINUOUS
 10
158.187804528
 20
31.4326554468
 11
158.534679528
 21
31.4649199103
 12
158.3034290869
 22
31.3681288486
 13
158.3034290869
 23
31.3681288486
  0
SOLID
  8
0
 62
7
  6
CONTINUOUS
 10
158.534679528
 20
31.4649199103
 11
158.5924918074
 21
31.3681288486
 12
158.3034290869
 22
31.3681288486
 13
158.3034290869
 23
31.3681288486
  0
SOLID
  8
0
 62
7
  6
CONTINUOUS
 10
158.361242028
 20
31.2068093799
 11
158.3034290869
 21
31.3681288486
 12
158.5924918074
 22
31.3681288486
 13
158.5924918074
 23
31.3681288486
  0
SOLID
  8
0
 62
7
  6
CONTINUOUS
 10
158.5924918074
 20
31.3681288486
 11
158.6503040869
 21
31.2068093799
 12
158.361242028
 22
31.2068093799
 13
158.361242028
 23
31.2068093799
  0
SOLID
  8
0
 62
7
  6
CONTINUOUS
 10
157.6096790869
 20
31.4649199103
 11
157.4362415869
 21
31.4003926599
 12
157.320617028
 22
31.4649199103
 13
157.320617028
 23
31.4649199103
  0
SOLID
  8
0
 62
7
  6
CONTINUOUS
 10
157.4362415869
 20
31.4003926599
 11
157.320617028
 21
31.3358640533
 12
157.320617028
 22
31.4649199103
 13
157.320617028
 23
31.4649199103
  0
SOLID
  8
0
 62
7
  6
CONTINUOUS
 10
157.320617028
 20
31.3358640533
 11
157.0315543074
 21
30.5938003547
 12
157.320617028
 22
31.4649199103
 13
157.320617028
 23
31.4649199103
  0
SOLID
  8
0
 62
7
  6
CONTINUOUS
 10
157.320617028
 20
31.4649199103
 11
157.0315543074
 21
30.5938003547
 12
157.320617028
 22
31.6262383465
 13
157.320617028
 23
31.6262383465
  0
SOLID
  8
0
 62
7
  6
CONTINUOUS
 10
157.0315543074
 20
30.5938003547
 11
157.0315543074
 21
31.6262383465
 12
157.320617028
 22
31.6262383465
 13
157.320617028
 23
31.6262383465
  0
SOLID
  8
0
 62
7
  6
CONTINUOUS
 10
157.320617028
 20
31.3358640533
 11
157.320617028
 21
30.5938003547
 12
157.0315543074
 22
30.5938003547
 13
157.0315543074
 23
30.5938003547
  0
SOLID
  8
0
 62
7
  6
CONTINUOUS
 10
158.361242028
 20
30.5938003547
 11
158.361242028
 21
31.2068093799
 12
158.6503040869
 22
31.2068093799
 13
158.6503040869
 23
31.2068093799
  0
SOLID
  8
0
 62
7
  6
CONTINUOUS
 10
158.6503040869
 20
31.2068093799
 11
158.6503040869
 21
30.5938003547
 12
158.361242028
 22
30.5938003547
 13
158.361242028
 23
30.5938003547
  0
SOLID
  8
0
 62
7
  6
CONTINUOUS
 10
159.4596793074
 20
31.5939739474
 11
159.8065543074
 21
31.6262381969
 12
160.1534293074
 22
31.6262381969
 13
160.1534293074
 23
31.6262381969
  0
SOLID
  8
0
 62
7
  6
CONTINUOUS
 10
160.1534293074
 20
31.6262381969
 11
160.5003043074
 21
31.5939739474
 12
159.4596793074
 22
31.5939739474
 13
159.4596793074
 23
31.5939739474
  0
SOLID
  8
0
 62
7
  6
CONTINUOUS
 10
159.228429528
 20
31.5294468402
 11
159.4596793074
 21
31.5939739474
 12
160.5003043074
 22
31.5939739474
 13
160.5003043074
 23
31.5939739474
  0
SOLID
  8
0
 62
7
  6
CONTINUOUS
 10
159.228429528
 20
31.5294468402
 11
160.5003043074
 21
31.5939739304
 12
160.6737418074
 22
31.5617111435
 13
160.6737418074
 23
31.5617111435
  0
SOLID
  8
0
 62
7
  6
CONTINUOUS
 10
159.228429528
 20
31.5294468402
 11
160.6737418074
 21
31.5617111435
 12
159.8065543074
 22
31.4971825592
 13
159.8065543074
 23
31.4971825592
  0
SOLID
  8
0
 62
7
  6
CONTINUOUS
 10
159.8065543074
 20
31.4971825592
 11
160.6737418074
 21
31.5617111435
 12
160.1534293074
 22
31.4971825592
 13
160.1534293074
 23
31.4971825592
  0
SOLID
  8
0
 62
7
  6
CONTINUOUS
 10
160.6737418074
 20
31.5617111435
 11
160.8471793074
 21
31.4971825592
 12
160.1534293074
 22
31.4971825592
 13
160.1534293074
 23
31.4971825592
  0
SOLID
  8
0
 62
7
  6
CONTINUOUS
 10
160.5003043074
 20
31.4649197501
 11
160.1534293074
 21
31.4971825592
 12
160.8471793074
 22
31.4971825592
 13
160.8471793074
 23
31.4971825592
  0
SOLID
  8
0
 62
7
  6
CONTINUOUS
 10
159.1128043074
 20
31.4326555427
 11
159.228429528
 21
31.5294468402
 12
159.8065543074
 22
31.4971825592
 13
159.8065543074
 23
31.4971825592
  0
SOLID
  8
0
 62
7
  6
CONTINUOUS
 10
160.5003043074
 20
31.4649197501
 11
160.8471793074
 21
31.4971825592
 12
160.615929528
 22
31.4326555427
 13
160.615929528
 23
31.4326555427
  0
SOLID
  8
0
 62
7
  6
CONTINUOUS
 10
160.615929528
 20
31.4326555427
 11
160.8471793074
 21
31.4971825592
 12
160.6737418074
 22
31.3681283005
 13
160.6737418074
 23
31.3681283005
  0
SOLID
  8
0
 62
7
  6
CONTINUOUS
 10
160.8471793074
 20
31.4971825592
 11
160.9628038663
 21
31.3681283005
 12
160.6737418074
 22
31.3681283005
 13
160.6737418074
 23
31.3681283005
  0
SOLID
  8
0
 62
7
  6
CONTINUOUS
 10
150.2674918074
 20
31.4649197501
 11
149.7471793074
 21
31.4326554237
 12
150.498741835
 22
31.4971824493
 13
150.498741835
 23
31.4971824493
  0
SOLID
  8
0
 62
7
  6
CONTINUOUS
 10
149.7471793074
 20
31.4326554237
 11
149.8628043005
 21
31.4971824493
 12
150.498741835
 22
31.4971824493
 13
150.498741835
 23
31.4971824493
  0
SOLID
  8
0
 62
7
  6
CONTINUOUS
 10
150.2674918074
 20
31.4649197501
 11
150.1518667936
 21
31.4326554237
 12
149.7471793074
 22
31.4326554237
 13
149.7471793074
 23
31.4326554237
  0
SOLID
  8
0
 62
7
  6
CONTINUOUS
 10
149.6315543091
 20
31.3036012664
 11
149.7471793074
 21
31.4326554237
 12
150.1518667936
 22
31.4326554237
 13
150.1518667936
 23
31.4326554237
  0
SOLID
  8
0
 62
7
  6
CONTINUOUS
 10
153.9674919177
 20
31.4326554237
 11
154.6612419177
 21
31.4971825369
 12
154.4299918074
 22
31.4649197501
 13
154.4299918074
 23
31.4649197501
  0
SOLID
  8
0
 62
7
  6
CONTINUOUS
 10
154.4299918074
 20
31.4649197501
 11
154.3143669177
 21
31.4326554237
 12
153.9674919177
 22
31.4326554237
 13
153.9674919177
 23
31.4326554237
  0
SOLID
  8
0
 62
7
  6
CONTINUOUS
 10
153.9674919177
 20
31.3681283335
 11
153.9674919177
 21
31.4326554237
 12
154.3143669177
 22
31.4326554237
 13
154.3143669177
 23
31.4326554237
  0
SOLID
  8
0
 62
7
  6
CONTINUOUS
 10
154.3143669177
 20
31.4326554237
 11
154.2565543074
 21
31.3681283335
 12
153.9674919177
 22
31.3681283335
 13
153.9674919177
 23
31.3681283335
  0
SOLID
  8
0
 62
7
  6
CONTINUOUS
 10
159.1128043074
 20
31.4326555528
 11
159.8065543074
 21
31.4971825369
 12
159.575304528
 22
31.4649197501
 13
159.575304528
 23
31.4649197501
  0
SOLID
  8
0
 62
7
  6
CONTINUOUS
 10
159.575304528
 20
31.4649197501
 11
159.4596793074
 21
31.4326555528
 12
159.1128043074
 22
31.4326555528
 13
159.1128043074
 23
31.4326555528
  0
SOLID
  8
0
 62
7
  6
CONTINUOUS
 10
159.1128043074
 20
31.3681284626
 11
159.1128043074
 21
31.4326555528
 12
159.4596793074
 22
31.4326555528
 13
159.4596793074
 23
31.4326555528
  0
SOLID
  8
0
 62
7
  6
CONTINUOUS
 10
159.4596793074
 20
31.4326555528
 11
159.401867028
 21
31.3681284626
 12
159.1128043074
 22
31.3681284626
 13
159.1128043074
 23
31.3681284626
  0
SOLID
  8
0
 62
7
  6
CONTINUOUS
 10
159.228429528
 20
31.2390741763
 11
159.1128043074
 21
31.3681284626
 12
159.401867028
 22
31.3681284626
 13
159.401867028
 23
31.3681284626
  0
SOLID
  8
0
 62
7
  6
CONTINUOUS
 10
149.6315543091
 20
31.3036012664
 11
150.1518667936
 21
31.4326554468
 12
149.9784292936
 22
31.3358640533
 13
149.9784292936
 23
31.3358640533
  0
SOLID
  8
0
 62
7
  6
CONTINUOUS
 10
149.9784292936
 20
31.3358640533
 11
149.9206168074
 21
31.2713369632
 12
149.6315543091
 22
31.3036012664
 13
149.6315543091
 23
31.3036012664
  0
SOLID
  8
0
 62
7
  6
CONTINUOUS
 10
149.5737418074
 20
31.1100184796
 11
149.6315543091
 21
31.3036012664
 12
149.9206168074
 22
31.2713369632
 13
149.9206168074
 23
31.2713369632
  0
SOLID
  8
0
 62
7
  6
CONTINUOUS
 10
154.4299918074
 20
31.2390741763
 11
154.7768668074
 21
31.271336924
 12
155.412804528
 22
31.271336924
 13
155.412804528
 23
31.271336924
  0
SOLID
  8
0
 62
7
  6
CONTINUOUS
 10
154.4299918074
 20
31.2390741763
 11
155.412804528
 21
31.271336924
 12
154.1987416972
 22
31.1745462761
 13
154.1987416972
 23
31.1745462761
  0
SOLID
  8
0
 62
7
  6
CONTINUOUS
 10
154.1987416972
 20
31.1745462761
 11
155.412804528
 21
31.271336924
 12
154.7768668074
 22
31.1422827436
 13
154.7768668074
 23
31.1422827436
  0
SOLID
  8
0
 62
7
  6
CONTINUOUS
 10
155.412804528
 20
31.271336924
 11
155.412804528
 21
31.1422827436
 12
154.7768668074
 22
31.1422827436
 13
154.7768668074
 23
31.1422827436
  0
SOLID
  8
0
 62
7
  6
CONTINUOUS
 10
159.228429528
 20
31.2390745501
 11
159.401867028
 21
31.3681283566
 12
159.4596793074
 22
31.3036012664
 13
159.4596793074
 23
31.3036012664
  0
SOLID
  8
0
 62
7
  6
CONTINUOUS
 10
159.4596793074
 20
31.3036012664
 11
159.6331168074
 21
31.2390745501
 12
159.228429528
 22
31.2390745501
 13
159.228429528
 23
31.2390745501
  0
SOLID
  8
0
 62
7
  6
CONTINUOUS
 10
159.4596793074
 20
31.1422827828
 11
159.228429528
 21
31.2390745501
 12
159.6331168074
 22
31.2390745501
 13
159.6331168074
 23
31.2390745501
  0
SOLID
  8
0
 62
7
  6
CONTINUOUS
 10
159.6331168074
 20
31.2390745501
 11
160.615929528
 21
31.0777556927
 12
159.4596793074
 22
31.1422827828
 13
159.4596793074
 23
31.1422827828
  0
SOLID
  8
0
 62
7
  6
CONTINUOUS
 10
160.442492028
 20
30.9809646623
 11
159.4596793074
 21
31.1422827828
 12
160.615929528
 22
31.0777556927
 13
160.615929528
 23
31.0777556927
  0
SOLID
  8
0
 62
7
  6
CONTINUOUS
 10
160.615929528
 20
31.0777556927
 11
160.8471793074
 21
30.9809646623
 12
160.442492028
 22
30.9809646623
 13
160.442492028
 23
30.9809646623
  0
SOLID
  8
0
 62
7
  6
CONTINUOUS
 10
160.615929528
 20
30.9164372091
 11
160.442492028
 21
30.9809646623
 12
160.8471793074
 22
30.9809646623
 13
160.8471793074
 23
30.9809646623
  0
SOLID
  8
0
 62
7
  6
CONTINUOUS
 10
160.615929528
 20
30.9164372091
 11
160.8471793074
 21
30.9809646623
 12
160.6737418074
 22
30.8519089441
 13
160.6737418074
 23
30.8519089441
  0
SOLID
  8
0
 62
7
  6
CONTINUOUS
 10
160.8471793074
 20
30.9809646623
 11
160.9628038663
 21
30.8519089441
 12
160.6737418074
 22
30.8519089441
 13
160.6737418074
 23
30.8519089441
  0
SOLID
  8
0
 62
7
  6
CONTINUOUS
 10
160.615929528
 20
30.7873818593
 11
160.6737418074
 21
30.8519089441
 12
160.9628038663
 22
30.8519089441
 13
160.9628038663
 23
30.8519089441
  0
SOLID
  8
0
 62
7
  6
CONTINUOUS
 10
160.9628038663
 20
30.8519089441
 11
160.9628038663
 21
30.7873818593
 12
160.615929528
 22
30.7873818593
 13
160.615929528
 23
30.7873818593
  0
SOLID
  8
0
 62
7
  6
CONTINUOUS
 10
160.5003043074
 20
30.7551187255
 11
160.615929528
 21
30.7873818593
 12
160.9628038663
 22
30.7873818593
 13
160.9628038663
 23
30.7873818593
  0
SOLID
  8
0
 62
7
  6
CONTINUOUS
 10
160.5003043074
 20
30.7551187255
 11
160.9628038663
 21
30.7873818593
 12
160.269054528
 22
30.7228547745
 13
160.269054528
 23
30.7228547745
  0
SOLID
  8
0
 62
7
  6
CONTINUOUS
 10
160.9628038663
 20
30.7873818593
 11
160.8471793074
 21
30.6905916353
 12
160.269054528
 22
30.7228547745
 13
160.269054528
 23
30.7228547745
  0
SOLID
  8
0
 62
7
  6
CONTINUOUS
 10
160.8471793074
 20
30.6905916353
 11
159.401867028
 21
30.658327332
 12
160.269054528
 22
30.7228547745
 13
160.269054528
 23
30.7228547745
  0
SOLID
  8
0
 62
7
  6
CONTINUOUS
 10
160.269054528
 20
30.7228547745
 11
159.401867028
 21
30.658327332
 12
159.922179528
 22
30.7228547745
 13
159.922179528
 23
30.7228547745
  0
SOLID
  8
0
 62
7
  6
CONTINUOUS
 10
159.401867028
 20
30.658327332
 11
159.228429528
 21
30.7228547745
 12
159.922179528
 22
30.7228547745
 13
159.922179528
 23
30.7228547745
  0
SOLID
  8
0
 62
7
  6
CONTINUOUS
 10
159.401867028
 20
30.658327332
 11
160.8471793074
 21
30.6905916353
 12
159.575304528
 22
30.6260629858
 13
159.575304528
 23
30.6260629858
  0
SOLID
  8
0
 62
7
  6
CONTINUOUS
 10
160.8471793074
 20
30.6905916353
 11
160.615929528
 21
30.6260629858
 12
159.575304528
 22
30.6260629858
 13
159.575304528
 23
30.6260629858
  0
SOLID
  8
0
 62
7
  6
CONTINUOUS
 10
159.922179528
 20
30.5938006049
 11
159.575304528
 21
30.6260629858
 12
160.615929528
 22
30.6260629858
 13
160.615929528
 23
30.6260629858
  0
SOLID
  8
0
 62
7
  6
CONTINUOUS
 10
160.615929528
 20
30.6260629858
 11
160.269054528
 21
30.5938006049
 12
159.922179528
 22
30.5938006049
 13
159.922179528
 23
30.5938006049
  0
SOLID
  8
0
 62
7
  6
CONTINUOUS
 10
149.5737418074
 20
31.1100184796
 11
149.9206168074
 21
31.2713369632
 12
149.8628043005
 22
31.1422827828
 13
149.8628043005
 23
31.1422827828
  0
SOLID
  8
0
 62
7
  6
CONTINUOUS
 10
149.8628043005
 20
31.1422827828
 11
149.8628043005
 21
31.0454914852
 12
149.5737418074
 22
31.1100184796
 13
149.5737418074
 23
31.1100184796
  0
SOLID
  8
0
 62
7
  6
CONTINUOUS
 10
149.6315543091
 20
30.9164372091
 11
149.5737418074
 21
31.1100184796
 12
149.8628043005
 22
31.0454914852
 13
149.8628043005
 23
31.0454914852
  0
SOLID
  8
0
 62
7
  6
CONTINUOUS
 10
149.8628043005
 20
31.0454914852
 11
149.9784292936
 21
30.8841729058
 12
149.6315543091
 22
30.9164372091
 13
149.6315543091
 23
30.9164372091
  0
SOLID
  8
0
 62
7
  6
CONTINUOUS
 10
149.7471793074
 20
30.7873813202
 11
149.6315543091
 21
30.9164372091
 12
149.9784292936
 22
30.8841729058
 13
149.9784292936
 23
30.8841729058
  0
SOLID
  8
0
 62
7
  6
CONTINUOUS
 10
149.9784292936
 20
30.8841729058
 11
150.1518667936
 21
30.7873813202
 12
149.7471793074
 22
30.7873813202
 13
149.7471793074
 23
30.7873813202
  0
SOLID
  8
0
 62
7
  6
CONTINUOUS
 10
149.8628043005
 20
30.7228547004
 11
149.7471793074
 21
30.7873813202
 12
150.1518667936
 22
30.7873813202
 13
150.1518667936
 23
30.7873813202
  0
SOLID
  8
0
 62
7
  6
CONTINUOUS
 10
150.1518667936
 20
30.7873813202
 11
150.498741835
 21
30.7228547004
 12
149.8628043005
 22
30.7228547004
 13
149.8628043005
 23
30.7228547004
  0
SOLID
  8
0
 62
7
  6
CONTINUOUS
 10
150.0362418212
 20
30.658327332
 11
149.8628043005
 21
30.7228547004
 12
150.498741835
 22
30.7228547004
 13
150.498741835
 23
30.7228547004
  0
SOLID
  8
0
 62
7
  6
CONTINUOUS
 10
154.0831168074
 20
31.1100184386
 11
154.1987416972
 21
31.1745462761
 12
154.7768668074
 22
31.1422827828
 13
154.7768668074
 23
31.1422827828
  0
SOLID
  8
0
 62
7
  6
CONTINUOUS
 10
154.7768668074
 20
31.1422827828
 11
154.5456166972
 21
31.1100184386
 12
154.0831168074
 22
31.1100184386
 13
154.0831168074
 23
31.1100184386
  0
SOLID
  8
0
 62
7
  6
CONTINUOUS
 10
153.9674919177
 20
30.9809642992
 11
154.0831168074
 21
31.1100184386
 12
154.5456166972
 22
31.1100184386
 13
154.5456166972
 23
31.1100184386
  0
SOLID
  8
0
 62
7
  6
CONTINUOUS
 10
154.3143669177
 20
31.0132277988
 11
153.9674919177
 21
30.9809642992
 12
154.4299918074
 22
31.0777556927
 13
154.4299918074
 23
31.0777556927
  0
SOLID
  8
0
 62
7
  6
CONTINUOUS
 10
153.9674919177
 20
30.9809642992
 11
154.5456166972
 21
31.1100184796
 12
154.4299918074
 22
31.0777556927
 13
154.4299918074
 23
31.0777556927
  0
SOLID
  8
0
 62
7
  6
CONTINUOUS
 10
154.3143669177
 20
31.0132277988
 11
154.2565543074
 21
30.9164372091
 12
153.9674919177
 22
30.9809642992
 13
153.9674919177
 23
30.9809642992
  0
SOLID
  8
0
 62
7
  6
CONTINUOUS
 10
153.9674919177
 20
30.8841729058
 11
153.9674919177
 21
30.9809642992
 12
154.2565543074
 22
30.9164372091
 13
154.2565543074
 23
30.9164372091
  0
SOLID
  8
0
 62
7
  6
CONTINUOUS
 10
154.2565543074
 20
30.9164372091
 11
154.2565543074
 21
30.8519086025
 12
153.9674919177
 22
30.8841729058
 13
153.9674919177
 23
30.8841729058
  0
SOLID
  8
0
 62
7
  6
CONTINUOUS
 10
154.0253041972
 20
30.7551187255
 11
153.9674919177
 21
30.8841729058
 12
154.2565543074
 22
30.8519086025
 13
154.2565543074
 23
30.8519086025
  0
SOLID
  8
0
 62
7
  6
CONTINUOUS
 10
155.412804528
 20
30.9487004259
 11
155.7018665869
 21
30.8519086025
 12
155.3549915869
 22
30.8841729058
 13
155.3549915869
 23
30.8841729058
  0
SOLID
  8
0
 62
7
  6
CONTINUOUS
 10
155.1815540869
 20
30.7873815123
 11
155.3549915869
 21
30.8841729058
 12
155.7018665869
 22
30.8519086025
 13
155.7018665869
 23
30.8519086025
  0
SOLID
  8
0
 62
7
  6
CONTINUOUS
 10
155.1815540869
 20
30.7873815123
 11
155.7018665869
 21
30.8519086025
 12
155.412804528
 22
30.7551187255
 13
155.412804528
 23
30.7551187255
  0
SOLID
  8
0
 62
7
  6
CONTINUOUS
 10
155.7018665869
 20
30.8519086025
 11
155.759679528
 21
30.6905916353
 12
155.412804528
 22
30.7551187255
 13
155.412804528
 23
30.7551187255
  0
SOLID
  8
0
 62
7
  6
CONTINUOUS
 10
155.4706168074
 20
30.658327332
 11
155.412804528
 21
30.7551187255
 12
155.759679528
 22
30.6905916353
 13
155.759679528
 23
30.6905916353
  0
SOLID
  8
0
 62
7
  6
CONTINUOUS
 10
155.4706168074
 20
30.658327332
 11
155.759679528
 21
30.6905916353
 12
155.5284290869
 22
30.5938002079
 13
155.5284290869
 23
30.5938002079
  0
SOLID
  8
0
 62
7
  6
CONTINUOUS
 10
155.759679528
 20
30.6905916353
 11
155.8174918074
 21
30.5938002079
 12
155.5284290869
 22
30.5938002079
 13
155.5284290869
 23
30.5938002079
  0
SOLID
  8
0
 62
7
  6
CONTINUOUS
 10
151.0768668626
 20
30.8196456577
 11
151.1346793074
 21
30.9164373395
 12
151.4237418626
 22
30.9164373395
 13
151.4237418626
 23
30.9164373395
  0
SOLID
  8
0
 62
7
  6
CONTINUOUS
 10
151.4237418626
 20
30.9164373395
 11
151.3659292523
 21
30.7873815123
 12
151.0768668626
 22
30.8196456577
 13
151.0768668626
 23
30.8196456577
  0
SOLID
  8
0
 62
7
  6
CONTINUOUS
 10
150.9034292799
 20
30.7551187255
 11
151.0768668626
 21
30.8196456577
 12
151.3659292523
 22
30.7873815123
 13
151.3659292523
 23
30.7873815123
  0
SOLID
  8
0
 62
7
  6
CONTINUOUS
 10
150.9034292799
 20
30.7551187255
 11
151.3659292523
 21
30.7873815123
 12
150.498741835
 22
30.7228544222
 13
150.498741835
 23
30.7228544222
  0
SOLID
  8
0
 62
7
  6
CONTINUOUS
 10
151.3659292523
 20
30.7873815123
 11
151.1924917523
 21
30.6905916353
 12
150.498741835
 22
30.7228544222
 13
150.498741835
 23
30.7228544222
  0
SOLID
  8
0
 62
7
  6
CONTINUOUS
 10
150.0362418212
 20
30.658327332
 11
150.498741835
 21
30.7228544222
 12
151.1924917523
 22
30.6905916353
 13
151.1924917523
 23
30.6905916353
  0
SOLID
  8
0
 62
7
  6
CONTINUOUS
 10
150.0362418212
 20
30.658327332
 11
151.1924917523
 21
30.6905916353
 12
150.2096793212
 22
30.6260631011
 13
150.2096793212
 23
30.6260631011
  0
SOLID
  8
0
 62
7
  6
CONTINUOUS
 10
151.1924917523
 20
30.6905916353
 11
150.9612418074
 21
30.6260631011
 12
150.2096793212
 22
30.6260631011
 13
150.2096793212
 23
30.6260631011
  0
SOLID
  8
0
 62
7
  6
CONTINUOUS
 10
150.5565542799
 20
30.5938002419
 11
150.2096793212
 21
30.6260631011
 12
150.9612418074
 22
30.6260631011
 13
150.9612418074
 23
30.6260631011
  0
SOLID
  8
0
 62
7
  6
CONTINUOUS
 10
154.0253041972
 20
30.7551187255
 11
154.2565543074
 21
30.8519086025
 12
154.3143669177
 22
30.7873815123
 13
154.3143669177
 23
30.7873815123
  0
SOLID
  8
0
 62
7
  6
CONTINUOUS
 10
154.3143669177
 20
30.7873815123
 11
154.5456166972
 21
30.7228544222
 12
154.0253041972
 22
30.7551187255
 13
154.0253041972
 23
30.7551187255
  0
SOLID
  8
0
 62
7
  6
CONTINUOUS
 10
154.1987416972
 20
30.658327332
 11
154.0253041972
 21
30.7551187255
 12
154.5456166972
 22
30.7228544222
 13
154.5456166972
 23
30.7228544222
  0
SOLID
  8
0
 62
7
  6
CONTINUOUS
 10
154.8924916972
 20
30.7228544637
 11
155.1815540869
 21
30.7873815123
 12
155.412804528
 22
30.7551187255
 13
155.412804528
 23
30.7551187255
  0
SOLID
  8
0
 62
7
  6
CONTINUOUS
 10
155.412804528
 20
30.7551187255
 11
155.3549915869
 21
30.6905916353
 12
154.8924916972
 22
30.7228544637
 13
154.8924916972
 23
30.7228544637
  0
SOLID
  8
0
 62
7
  6
CONTINUOUS
 10
155.3549915869
 20
30.6905916353
 11
154.1987416972
 21
30.658327332
 12
154.8924916972
 22
30.7228544637
 13
154.8924916972
 23
30.7228544637
  0
SOLID
  8
0
 62
7
  6
CONTINUOUS
 10
154.1987416972
 20
30.658327332
 11
154.5456166972
 21
30.7228544637
 12
154.8924916972
 22
30.7228544637
 13
154.8924916972
 23
30.7228544637
  0
SOLID
  8
0
 62
7
  6
CONTINUOUS
 10
154.1987416972
 20
30.658327332
 11
155.3549915869
 21
30.6905916353
 12
154.3143669177
 22
30.6260630541
 13
154.3143669177
 23
30.6260630541
  0
SOLID
  8
0
 62
7
  6
CONTINUOUS
 10
155.3549915869
 20
30.6905916353
 11
155.1815540869
 21
30.6260630541
 12
154.3143669177
 22
30.6260630541
 13
154.3143669177
 23
30.6260630541
  0
SOLID
  8
0
 62
7
  6
CONTINUOUS
 10
154.5456166972
 20
30.5938002188
 11
154.3143669177
 21
30.6260630541
 12
155.1815540869
 22
30.6260630541
 13
155.1815540869
 23
30.6260630541
  0
SOLID
  8
0
 62
7
  6
CONTINUOUS
 10
155.1815540869
 20
30.6260630541
 11
154.8924916972
 21
30.5938002188
 12
154.5456166972
 22
30.5938002188
 13
154.5456166972
 23
30.5938002188
  0
SOLID
  8
0
 62
7
  6
CONTINUOUS
 10
159.575304528
 20
30.7551187255
 11
159.228429528
 21
30.7228544637
 12
159.4596793074
 22
30.7873815123
 13
159.4596793074
 23
30.7873815123
  0
SOLID
  8
0
 62
7
  6
CONTINUOUS
 10
159.4596793074
 20
30.7873815123
 11
159.228429528
 21
30.7228544637
 12
159.401867028
 22
30.851908644
 13
159.401867028
 23
30.851908644
  0
SOLID
  8
0
 62
7
  6
CONTINUOUS
 10
159.228429528
 20
30.7228544637
 11
159.1128043074
 21
30.851908644
 12
159.401867028
 22
30.851908644
 13
159.401867028
 23
30.851908644
  0
SOLID
  8
0
 62
7
  6
CONTINUOUS
 10
159.575304528
 20
30.7551187255
 11
159.922179528
 21
30.7228544637
 12
159.228429528
 22
30.7228544637
 13
159.228429528
 23
30.7228544637
  0
SOLID
  8
0
 62
7
  6
CONTINUOUS
 10
156.279992028
 20
30.5938002419
 11
156.279992028
 21
31.6262382337
 12
156.5690540869
 22
30.5938002419
 13
156.5690540869
 23
31.6262382337
  0
ENDBLK
  8
0
  6
BYBLOCK
 62
0
  0
BLOCK
  8
0
 62
2
  6
CONTINUOUS
  2
SYMBOL_3_BL0
 70
64
 10
32.1213064866
 20
19.8534310916
  0
TEXT
  8
0
 62
7
  6
CONTINUOUS
 10
18.3860103289
 20
19.2268451992
  7
TEXTSTYLE_3
 40
2.7338706658
  1
Ammeraal Beltech
 41
1.0
 51
15.0
 72
0
  0
TEXT
  8
0
 62
7
  6
CONTINUOUS
 10
29.1868111546
 20
16.9533085264
  7
TEXTSTYLE_4
 40
1.0935482663
  1
Innovation & Service in Belting
 41
1.0
 72
0
  0
LINE
  8
0
 62
7
  6
CONTINUOUS
 10
12.3614696776
 20
19.9934385078
 11
13.1396216709
 21
23.6543558055
  0
LINE
  8
0
 62
7
  6
CONTINUOUS
 10
23.2347899607
 20
27.3177497171
 11
13.6274394139
 21
24.1961322958
  0
LINE
  8
0
 62
7
  6
CONTINUOUS
 10
12.5867530099
 20
19.3000877048
 11
20.093828271
 21
12.5406867788
  0
LINE
  8
0
 62
7
  6
CONTINUOUS
 10
12.8492874206
 20
20.5352149982
 11
23.6575567857
 21
24.0470345971
  0
LINE
  8
0
 62
7
  6
CONTINUOUS
 10
23.6533516486
 20
13.6972460334
 11
15.2078919798
 21
21.3015720751
  0
LINE
  8
0
 62
7
  6
CONTINUOUS
 10
24.1731743684
 20
26.4728246013
 11
23.1966148312
 21
21.8784731989
  0
LINE
  8
0
 62
7
  6
CONTINUOUS
 10
22.4968128835
 20
18.5861638851
 11
21.810364672
 21
15.3566789607
  0
LINE
  8
0
 62
7
  6
CONTINUOUS
 10
24.8542704669
 20
14.087448211
 11
25.8105020025
 21
18.5861638851
  0
LINE
  8
0
 62
7
  6
CONTINUOUS
 10
26.5103039502
 20
21.8784731989
 11
26.9545457526
 21
23.9684665583
  0
LINE
  8
0
 62
7
  6
CONTINUOUS
 10
20.8069293463
 20
12.3891124661
 11
24.3664527239
 21
13.5456717207
  0
LINE
  8
0
 62
7
  6
CONTINUOUS
 10
23.9478910361
 20
27.1661754044
 11
26.7292624203
 21
24.6618173613
  0
ARC
  8
0
 62
7
  6
CONTINUOUS
 10
13.8527227462
 20
23.5027814928
 40
0.7290321776
 50
108.0
 51
168.0
  0
ARC
  8
0
 62
7
  6
CONTINUOUS
 10
23.4600732931
 20
26.624398914
 40
0.7290321776
 50
348.0
 51
108.0
  0
ARC
  8
0
 62
7
  6
CONTINUOUS
 10
26.2414446773
 20
24.120040871
 40
0.7290321776
 50
348.0
 51
48.0
  0
ARC
  8
0
 62
7
  6
CONTINUOUS
 10
20.581646014
 20
13.0824632691
 40
0.7290321776
 50
228.0
 51
288.0
  0
ARC
  8
0
 62
7
  6
CONTINUOUS
 10
13.0745707529
 20
19.8418641951
 40
0.7290321776
 50
108.0
 51
228.0
  0
ARC
  8
0
 62
7
  6
CONTINUOUS
 10
24.1411693916
 20
14.2390225237
 40
0.7290321776
 50
228.0
 51
348.0
  0
ENDBLK
  8
0
  6
BYBLOCK
 62
0
  0
ENDSEC
  0
SECTION
  2
ENTITIES
  0
TEXT
  8
0
 62
5
  6
CONTINUOUS
 10
96.0
 20
25.636
  7
TEXTSTYLE_2
 40
2.8
  1
Scale :
 41
0.6
 51
0.000019
 72
0
  0
TEXT
  8
0
 62
5
  6
CONTINUOUS
 10
116.0
 20
25.636
  7
TEXTSTYLE_2
 40
2.8
  1
Belt type:
 41
0.6
 51
0.000019
 72
0
  0
INSERT
  8
0
 62
2
  6
CONTINUOUS
  2
SYMBOL_3_BL0
 10
32.1213064866
 20
19.8534310916
  0
INSERT
  8
0
 62
2
  6
CONTINUOUS
  2
SYMBOL_8_BL1
 10
173.5956734183
 20
35.5937998301
  0
LINE
  8
0
 62
2
  6
CONTINUOUS
 10
10.0
 20
30.0
 11
200.0
 21
30.0
  0
LINE
  8
0
 62
2
  6
CONTINUOUS
 10
10.0
 20
30.0
 11
10.0
 21
10.0
  0
LINE
  8
0
 62
2
  6
CONTINUOUS
 10
10.0
 20
10.0
 11
200.0
 21
10.0
  0
LINE
  8
0
 62
2
  6
CONTINUOUS
 10
95.0
 20
30.0
 11
95.0
 21
10.0
  0
LINE
  8
0
 62
2
  6
CONTINUOUS
 10
115.0
 20
30.0
 11
115.0
 21
10.0
  0
LINE
  8
0
 62
2
  6
CONTINUOUS
 10
200.0
 20
30.0
 11
200.0
 21
10.0
  0
TEXT
  8
0
 62
5
  6
CONTINUOUS
 10
13.0
 20
23.303
  7
TEXTSTYLE_5
 40
1.52
  1
                                                                     Ammeraal Beltech Modular A/S
 41
1.0
 72
0
  0
TEXT
  8
0
 62
5
  6
CONTINUOUS
 10
13.0
 20
20.595
  7
TEXTSTYLE_5
 40
1.5
  1
                                                                      Hjulmagervej 21,  7100 Vejle,  DK
 41
1.0
 72
0
  0
TEXT
  8
0
 62
5
  6
CONTINUOUS
 10
13.0
 20
17.881
  7
TEXTSTYLE_5
 40
1.495
  1
                                                                      tel: 
 41
1.0
 72
0
  0
TEXT
  8
0
 62
5
  6
CONTINUOUS
 10
57.9869465649
 20
17.881
  7
TEXTSTYLE_5
 40
1.51
  1
+45 75723100     fax: +45 75723348
 41
1.0
 72
0
  0
TEXT
  8
0
 62
5
  6
CONTINUOUS
 10
13.0
 20
15.177
  7
TEXTSTYLE_5
 40
1.5
  1
                                                                      admin@unichains.dk  www.unichains.com
 41
1.0
 72
0
  0
TEXT
  8
0
 62
5
  6
CONTINUOUS
 10
99.75
 20
13.75
  7
TEXTSTYLE_6
 40
5.0
  1
1:1
 41
0.7
 72
1
 11
105.0
 21
13.75
  0
TEXT
  8
0
 62
5
  6
CONTINUOUS
 10
118.0
 20
13.75
  7
TEXTSTYLE_7
 40
7.5
  1
uni SSB C K325
 41
0.6573660714
 72
0
  0
LINE
  8
0
 62
7
  6
CONTINUOUS
 10
210.0
 20
0.0
 11
0.0
 21
0.0
  0
LINE
  8
0
 62
7
  6
CONTINUOUS
 10
10.0
 20
10.0
 11
200.0
 21
10.0
  0
LINE
  8
0
 62
7
  6
CONTINUOUS
 10
10.0
 20
30.0
 11
200.0
 21
30.0
  0
LINE
  8
0
 62
7
  6
CONTINUOUS
 10
0.0
 20
0.0
 11
0.0
 21
297.0
  0
LINE
  8
0
 62
7
  6
CONTINUOUS
 10
10.0
 20
10.0
 11
10.0
 21
287.0
  0
LINE
  8
0
 62
7
  6
CONTINUOUS
 10
200.0
 20
287.0
 11
200.0
 21
10.0
  0
LINE
  8
0
 62
7
  6
CONTINUOUS
 10
210.0
 20
0.0
 11
210.0
 21
297.0
  0
LINE
  8
0
 62
7
  6
CONTINUOUS
 10
10.0
 20
287.0
 11
200.0
 21
287.0
  0
LINE
  8
0
 62
7
  6
CONTINUOUS
 10
0.0
 20
297.0
 11
210.0
 21
297.0
  0
LINE
  8
0
 62
7
  6
CONTINUOUS
 10
40.9669181034
 20
109.7566271552
 11
40.9669181034
 21
148.3566271552
  0
POLYLINE
  8
0
 62
7
  6
CONTINUOUS
 66
1
 70
0
  0
VERTEX
  8
0
 62
7
  6
CONTINUOUS
 10
50.3997419807
 20
147.5855165766
  0
VERTEX
  8
0
 62
7
  6
CONTINUOUS
 10
50.3941922818
 20
147.5715031984
  0
VERTEX
  8
0
 62
7
  6
CONTINUOUS
 10
50.3828112646
 20
147.5454634062
  0
VERTEX
  8
0
 62
7
  6
CONTINUOUS
 10
50.3701906178
 20
147.5196107265
  0
VERTEX
  8
0
 62
7
  6
CONTINUOUS
 10
50.3564736072
 20
147.4940879024
  0
VERTEX
  8
0
 62
7
  6
CONTINUOUS
 10
50.3417876343
 20
147.4690088335
  0
VERTEX
  8
0
 62
7
  6
CONTINUOUS
 10
50.3262146995
 20
147.44442128
  0
VERTEX
  8
0
 62
7
  6
CONTINUOUS
 10
50.3098160282
 20
147.4203559599
  0
VERTEX
  8
0
 62
7
  6
CONTINUOUS
 10
50.2926255123
 20
147.3968255053
  0
VERTEX
  8
0
 62
7
  6
CONTINUOUS
 10
50.2746995902
 20
147.3738859927
  0
VERTEX
  8
0
 62
7
  6
CONTINUOUS
 10
50.2560535739
 20
147.3515524058
  0
VERTEX
  8
0
 62
7
  6
CONTINUOUS
 10
50.2366814664
 20
147.3298329677
  0
VERTEX
  8
0
 62
7
  6
CONTINUOUS
 10
50.2165583314
 20
147.3087347012
  0
VERTEX
  8
0
 62
7
  6
CONTINUOUS
 10
50.1956676442
 20
147.2882927425
  0
VERTEX
  8
0
 62
7
  6
CONTINUOUS
 10
50.17398099
 20
147.2685564818
  0
VERTEX
  8
0
 62
7
  6
CONTINUOUS
 10
50.1514365949
 20
147.2495605122
  0
VERTEX
  8
0
 62
7
  6
CONTINUOUS
 10
50.1280496565
 20
147.2314374567
  0
VERTEX
  8
0
 62
7
  6
CONTINUOUS
 10
50.1037051763
 20
147.2142420846
  0
VERTEX
  8
0
 62
7
  6
CONTINUOUS
 10
50.0784697938
 20
147.1981896009
  0
VERTEX
  8
0
 62
7
  6
CONTINUOUS
 10
50.0520884919
 20
147.1833393684
  0
VERTEX
  8
0
 62
7
  6
CONTINUOUS
 10
50.02456137
 20
147.1699748016
  0
VERTEX
  8
0
 62
7
  6
CONTINUOUS
 10
49.9957266844
 20
147.1583633783
  0
VERTEX
  8
0
 62
7
  6
CONTINUOUS
 10
49.9655530403
 20
147.1489433942
  0
VERTEX
  8
0
 62
7
  6
CONTINUOUS
 10
49.9337726288
 20
147.142193839
  0
VERTEX
  8
0
 62
7
  6
CONTINUOUS
 10
49.9012937208
 20
147.1388492626
  0
VERTEX
  8
0
 62
7
  6
CONTINUOUS
 10
49.8886207157
 20
147.1385562206
  0
SEQEND
  0
LINE
  8
0
 62
7
  6
CONTINUOUS
 10
44.4837691296
 20
148.3740769035
 11
44.5089318711
 21
147.6535102646
  0
POLYLINE
  8
0
 62
7
  6
CONTINUOUS
 66
1
 70
0
  0
VERTEX
  8
0
 62
7
  6
CONTINUOUS
 10
50.4942931122
 20
147.8500847842
  0
VERTEX
  8
0
 62
7
  6
CONTINUOUS
 10
50.4399392367
 20
147.6951881729
  0
VERTEX
  8
0
 62
7
  6
CONTINUOUS
 10
50.41754306
 20
147.6331199947
  0
VERTEX
  8
0
 62
7
  6
CONTINUOUS
 10
50.3997447985
 20
147.5855263199
  0
SEQEND
  0
LINE
  8
0
 62
7
  6
CONTINUOUS
 10
50.4500670773
 20
148.3740769035
 11
50.4249047448
 21
147.6535219752
  0
POLYLINE
  8
0
 62
7
  6
CONTINUOUS
 66
1
 70
0
  0
VERTEX
  8
0
 62
7
  6
CONTINUOUS
 10
53.9257979524
 20
107.5566271552
  0
VERTEX
  8
0
 62
7
  6
CONTINUOUS
 10
53.9179683632
 20
107.6682595452
  0
VERTEX
  8
0
 62
7
  6
CONTINUOUS
 10
53.8940556828
 20
107.7797041613
  0
VERTEX
  8
0
 62
7
  6
CONTINUOUS
 10
53.8540717677
 20
107.8876580563
  0
VERTEX
  8
0
 62
7
  6
CONTINUOUS
 10
53.7989300718
 20
107.9888708744
  0
VERTEX
  8
0
 62
7
  6
CONTINUOUS
 10
53.7302933244
 20
108.0805587936
  0
SEQEND
  0
POLYLINE
  8
0
 62
7
  6
CONTINUOUS
 66
1
 70
0
  0
VERTEX
  8
0
 62
7
  6
CONTINUOUS
 10
54.0016610278
 20
98.735953978
  0
VERTEX
  8
0
 62
7
  6
CONTINUOUS
 10
54.0037278272
 20
98.7044985031
  0
VERTEX
  8
0
 62
7
  6
CONTINUOUS
 10
54.0058168792
 20
98.675141857
  0
VERTEX
  8
0
 62
7
  6
CONTINUOUS
 10
54.0079376551
 20
98.6477548721
  0
VERTEX
  8
0
 62
7
  6
CONTINUOUS
 10
54.0101051235
 20
98.6221739122
  0
VERTEX
  8
0
 62
7
  6
CONTINUOUS
 10
54.012342844
 20
98.5981893425
  0
VERTEX
  8
0
 62
7
  6
CONTINUOUS
 10
54.0146878316
 20
98.5755302759
  0
VERTEX
  8
0
 62
7
  6
CONTINUOUS
 10
54.0172000838
 20
98.5538347356
  0
VERTEX
  8
0
 62
7
  6
CONTINUOUS
 10
54.0199786551
 20
98.5326131008
  0
VERTEX
  8
0
 62
7
  6
CONTINUOUS
 10
54.023195992
 20
98.5111609732
  0
VERTEX
  8
0
 62
7
  6
CONTINUOUS
 10
54.0271267756
 20
98.4886377391
  0
VERTEX
  8
0
 62
7
  6
CONTINUOUS
 10
54.0322602205
 20
98.4638243719
  0
VERTEX
  8
0
 62
7
  6
CONTINUOUS
 10
54.039513131
 20
98.4348931835
  0
VERTEX
  8
0
 62
7
  6
CONTINUOUS
 10
54.0505320483
 20
98.3995374952
  0
VERTEX
  8
0
 62
7
  6
CONTINUOUS
 10
54.0675638401
 20
98.3566269839
  0
VERTEX
  8
0
 62
7
  6
CONTINUOUS
 10
54.0925851839
 20
98.3078357952
  0
VERTEX
  8
0
 62
7
  6
CONTINUOUS
 10
54.126881352
 20
98.2563248768
  0
VERTEX
  8
0
 62
7
  6
CONTINUOUS
 10
54.1725351653
 20
98.2039300866
  0
VERTEX
  8
0
 62
7
  6
CONTINUOUS
 10
54.2317241896
 20
98.1532622763
  0
VERTEX
  8
0
 62
7
  6
CONTINUOUS
 10
54.3041250706
 20
98.1092438539
  0
VERTEX
  8
0
 62
7
  6
CONTINUOUS
 10
54.3869054303
 20
98.0768231847
  0
VERTEX
  8
0
 62
7
  6
CONTINUOUS
 10
54.475902985
 20
98.0593221529
  0
VERTEX
  8
0
 62
7
  6
CONTINUOUS
 10
54.5267438174
 20
98.0566287413
  0
SEQEND
  0
LINE
  8
0
 62
7
  6
CONTINUOUS
 10
53.9975658011
 20
98.805682495
 11
54.0016610278
 21
98.735953978
  0
LINE
  8
0
 62
7
  6
CONTINUOUS
 10
53.993493606
 20
98.8852649873
 11
53.9975658011
 21
98.805682495
  0
LINE
  8
0
 62
7
  6
CONTINUOUS
 10
53.9894284133
 20
98.975493984
 11
53.993493606
 21
98.8852649873
  0
LINE
  8
0
 62
7
  6
CONTINUOUS
 10
53.9853666695
 20
99.0770572323
 11
53.9894284133
 21
98.975493984
  0
LINE
  8
0
 62
7
  6
CONTINUOUS
 10
53.9792893814
 20
99.2519422548
 11
53.9853666695
 21
99.0770572323
  0
LINE
  8
0
 62
7
  6
CONTINUOUS
 10
53.9732568167
 20
99.4554439305
 11
53.9792893814
 21
99.2519422548
  0
LINE
  8
0
 62
7
  6
CONTINUOUS
 10
53.9653304155
 20
99.7749655337
 11
53.9732568167
 21
99.4554439305
  0
LINE
  8
0
 62
7
  6
CONTINUOUS
 10
53.9576138992
 20
100.1548216166
 11
53.9653304155
 21
99.7749655337
  0
LINE
  8
0
 62
7
  6
CONTINUOUS
 10
53.5078483982
 20
142.9289007381
 11
53.508114407
 21
139.3566271552
  0
LINE
  8
0
 62
7
  6
CONTINUOUS
 10
53.6496314977
 20
108.1611925208
 11
53.553025869
 21
108.2328907063
  0
POLYLINE
  8
0
 62
7
  6
CONTINUOUS
 66
1
 70
0
  0
VERTEX
  8
0
 62
7
  6
CONTINUOUS
 10
53.6486049054
 20
108.1620373737
  0
VERTEX
  8
0
 62
7
  6
CONTINUOUS
 10
53.7326212926
 20
108.0777941117
  0
VERTEX
  8
0
 62
7
  6
CONTINUOUS
 10
53.8032076826
 20
107.9820349374
  0
VERTEX
  8
0
 62
7
  6
CONTINUOUS
 10
53.8587978787
 20
107.8769007581
  0
VERTEX
  8
0
 62
7
  6
CONTINUOUS
 10
53.8981698805
 20
107.7647454354
  0
VERTEX
  8
0
 62
7
  6
CONTINUOUS
 10
53.9204801332
 20
107.6480457039
  0
VERTEX
  8
0
 62
7
  6
CONTINUOUS
 10
53.9257203429
 20
107.5566271551
  0
SEQEND
  0
POLYLINE
  8
0
 62
7
  6
CONTINUOUS
 66
1
 70
0
  0
VERTEX
  8
0
 62
7
  6
CONTINUOUS
 10
53.5080382545
 20
139.3566271552
  0
VERTEX
  8
0
 62
7
  6
CONTINUOUS
 10
53.5158678437
 20
139.2449947652
  0
VERTEX
  8
0
 62
7
  6
CONTINUOUS
 10
53.5397805241
 20
139.1335501491
  0
VERTEX
  8
0
 62
7
  6
CONTINUOUS
 10
53.5797644392
 20
139.0255962541
  0
VERTEX
  8
0
 62
7
  6
CONTINUOUS
 10
53.6349061351
 20
138.9243834359
  0
VERTEX
  8
0
 62
7
  6
CONTINUOUS
 10
53.7035428825
 20
138.8326955168
  0
VERTEX
  8
0
 62
7
  6
CONTINUOUS
 10
53.7842047092
 20
138.7520617896
  0
VERTEX
  8
0
 62
7
  6
CONTINUOUS
 10
53.8808103379
 20
138.6803636041
  0
SEQEND
  0
POLYLINE
  8
0
 62
7
  6
CONTINUOUS
 66
1
 70
0
  0
VERTEX
  8
0
 62
7
  6
CONTINUOUS
 10
53.432175179
 20
148.1773003323
  0
VERTEX
  8
0
 62
7
  6
CONTINUOUS
 10
53.4301083797
 20
148.2087558072
  0
VERTEX
  8
0
 62
7
  6
CONTINUOUS
 10
53.4280193277
 20
148.2381124533
  0
VERTEX
  8
0
 62
7
  6
CONTINUOUS
 10
53.4258985518
 20
148.2654994383
  0
VERTEX
  8
0
 62
7
  6
CONTINUOUS
 10
53.4237310834
 20
148.2910803982
  0
VERTEX
  8
0
 62
7
  6
CONTINUOUS
 10
53.4214933629
 20
148.3150649679
  0
VERTEX
  8
0
 62
7
  6
CONTINUOUS
 10
53.4191483753
 20
148.3377240344
  0
VERTEX
  8
0
 62
7
  6
CONTINUOUS
 10
53.4166361231
 20
148.3594195747
  0
VERTEX
  8
0
 62
7
  6
CONTINUOUS
 10
53.4138575518
 20
148.3806412096
  0
VERTEX
  8
0
 62
7
  6
CONTINUOUS
 10
53.4106402149
 20
148.4020933371
  0
VERTEX
  8
0
 62
7
  6
CONTINUOUS
 10
53.4067094313
 20
148.4246165713
  0
VERTEX
  8
0
 62
7
  6
CONTINUOUS
 10
53.4015759864
 20
148.4494299384
  0
VERTEX
  8
0
 62
7
  6
CONTINUOUS
 10
53.3943230759
 20
148.4783611268
  0
VERTEX
  8
0
 62
7
  6
CONTINUOUS
 10
53.3833041586
 20
148.5137168152
  0
VERTEX
  8
0
 62
7
  6
CONTINUOUS
 10
53.3662723668
 20
148.5566273265
  0
VERTEX
  8
0
 62
7
  6
CONTINUOUS
 10
53.341251023
 20
148.6054185151
  0
VERTEX
  8
0
 62
7
  6
CONTINUOUS
 10
53.3069548549
 20
148.6569294336
  0
VERTEX
  8
0
 62
7
  6
CONTINUOUS
 10
53.2613010416
 20
148.7093242237
  0
VERTEX
  8
0
 62
7
  6
CONTINUOUS
 10
53.2021120173
 20
148.7599920341
  0
VERTEX
  8
0
 62
7
  6
CONTINUOUS
 10
53.1297111363
 20
148.8040104565
  0
VERTEX
  8
0
 62
7
  6
CONTINUOUS
 10
53.0469307766
 20
148.8364311256
  0
VERTEX
  8
0
 62
7
  6
CONTINUOUS
 10
52.9579332219
 20
148.8539321574
  0
VERTEX
  8
0
 62
7
  6
CONTINUOUS
 10
52.9070923895
 20
148.856625569
  0
SEQEND
  0
LINE
  8
0
 62
7
  6
CONTINUOUS
 10
53.4362704058
 20
148.1075718153
 11
53.432175179
 21
148.1773003323
  0
LINE
  8
0
 62
7
  6
CONTINUOUS
 10
53.4403426009
 20
148.027989323
 11
53.4362704058
 21
148.1075718153
  0
LINE
  8
0
 62
7
  6
CONTINUOUS
 10
53.4444077936
 20
147.9377603264
 11
53.4403426009
 21
148.027989323
  0
LINE
  8
0
 62
7
  6
CONTINUOUS
 10
53.4484695374
 20
147.836197078
 11
53.4444077936
 21
147.9377603264
  0
LINE
  8
0
 62
7
  6
CONTINUOUS
 10
53.4545468255
 20
147.6613120556
 11
53.4484695374
 21
147.836197078
  0
LINE
  8
0
 62
7
  6
CONTINUOUS
 10
53.4605793902
 20
147.4578103799
 11
53.4545468255
 21
147.6613120556
  0
LINE
  8
0
 62
7
  6
CONTINUOUS
 10
53.4685057914
 20
147.1382887766
 11
53.4605793902
 21
147.4578103799
  0
LINE
  8
0
 62
7
  6
CONTINUOUS
 10
53.4781051263
 20
146.6533699671
 11
53.4685057914
 21
147.1382887766
  0
LINE
  8
0
 62
7
  6
CONTINUOUS
 10
53.9467143253
 20
100.8501644948
 11
53.9576138992
 21
100.1548216166
  0
LINE
  8
0
 62
7
  6
CONTINUOUS
 10
53.4888256672
 20
145.9314592298
 11
53.4781051263
 21
146.6533699671
  0
LINE
  8
0
 62
7
  6
CONTINUOUS
 10
53.9371817778
 20
101.7116929635
 11
53.9467143253
 21
100.8501644948
  0
LINE
  8
0
 62
7
  6
CONTINUOUS
 10
53.4980536982
 20
145.0407935112
 11
53.4888256672
 21
145.9314592298
  0
LINE
  8
0
 62
7
  6
CONTINUOUS
 10
53.9298751995
 20
102.7538679049
 11
53.9371817778
 21
101.7116929635
  0
LINE
  8
0
 62
7
  6
CONTINUOUS
 10
53.5048850861
 20
143.9673196378
 11
53.4980536982
 21
145.0407935112
  0
LINE
  8
0
 62
7
  6
CONTINUOUS
 10
53.926334109
 20
103.7664603218
 11
53.9298751995
 21
102.7538679049
  0
LINE
  8
0
 62
7
  6
CONTINUOUS
 10
53.5078483982
 20
142.9289007381
 11
53.5048850861
 21
143.9673196378
  0
LINE
  8
0
 62
7
  6
CONTINUOUS
 10
53.926334109
 20
103.7664603218
 11
53.9257217999
 21
107.5566271552
  0
POLYLINE
  8
4_SURFACE
 62
7
  6
CONTINUOUS
 66
1
 70
0
  0
VERTEX
  8
4_SURFACE
 62
7
  6
CONTINUOUS
 10
109.707083143
 20
98.0566287213
  0
VERTEX
  8
4_SURFACE
 62
7
  6
CONTINUOUS
 10
109.7563935495
 20
98.0591643456
  0
VERTEX
  8
4_SURFACE
 62
7
  6
CONTINUOUS
 10
109.8445255545
 20
98.0761259469
  0
VERTEX
  8
4_SURFACE
 62
7
  6
CONTINUOUS
 10
109.9255360947
 20
98.1071895303
  0
VERTEX
  8
4_SURFACE
 62
7
  6
CONTINUOUS
 10
109.9963797254
 20
98.1491389244
  0
VERTEX
  8
4_SURFACE
 62
7
  6
CONTINUOUS
 10
110.0550349633
 20
98.1977732921
  0
VERTEX
  8
4_SURFACE
 62
7
  6
CONTINUOUS
 10
110.1012629523
 20
98.2489502346
  0
VERTEX
  8
4_SURFACE
 62
7
  6
CONTINUOUS
 10
110.1363362968
 20
98.2995667441
  0
VERTEX
  8
4_SURFACE
 62
7
  6
CONTINUOUS
 10
110.1617062689
 20
98.346713202
  0
VERTEX
  8
4_SURFACE
 62
7
  6
CONTINUOUS
 10
110.1793020749
 20
98.3884320885
  0
VERTEX
  8
4_SURFACE
 62
7
  6
CONTINUOUS
 10
110.1910957964
 20
98.4236660027
  0
VERTEX
  8
4_SURFACE
 62
7
  6
CONTINUOUS
 10
110.199014648
 20
98.4529233141
  0
VERTEX
  8
4_SURFACE
 62
7
  6
CONTINUOUS
 10
110.2046095977
 20
98.4779451616
  0
VERTEX
  8
4_SURFACE
 62
7
  6
CONTINUOUS
 10
110.2088086753
 20
98.50021824
  0
VERTEX
  8
4_SURFACE
 62
7
  6
CONTINUOUS
 10
110.2121359735
 20
98.5207544918
  0
VERTEX
  8
4_SURFACE
 62
7
  6
CONTINUOUS
 10
110.2149283004
 20
98.5404701921
  0
VERTEX
  8
4_SURFACE
 62
7
  6
CONTINUOUS
 10
110.2173973624
 20
98.5601426539
  0
VERTEX
  8
4_SURFACE
 62
7
  6
CONTINUOUS
 10
110.219661511
 20
98.5802818745
  0
VERTEX
  8
4_SURFACE
 62
7
  6
CONTINUOUS
 10
110.2217931575
 20
98.6012649975
  0
VERTEX
  8
4_SURFACE
 62
7
  6
CONTINUOUS
 10
110.223838278
 20
98.623383594
  0
VERTEX
  8
4_SURFACE
 62
7
  6
CONTINUOUS
 10
110.2258267408
 20
98.646868959
  0
VERTEX
  8
4_SURFACE
 62
7
  6
CONTINUOUS
 10
110.2277788072
 20
98.6719152896
  0
VERTEX
  8
4_SURFACE
 62
7
  6
CONTINUOUS
 10
110.229708363
 20
98.6986901516
  0
VERTEX
  8
4_SURFACE
 62
7
  6
CONTINUOUS
 10
110.2316258122
 20
98.7273542159
  0
VERTEX
  8
4_SURFACE
 62
7
  6
CONTINUOUS
 10
110.2354583245
 20
98.791052429
  0
SEQEND
  0
LINE
  8
0
 62
7
  6
CONTINUOUS
 10
95.5778326913
 20
98.0566271556
 11
109.7060035156
 21
98.0566271556
  0
LINE
  8
0
 62
7
  6
CONTINUOUS
 10
54.5267438174
 20
98.0566287413
 11
68.6570748142
 21
98.0566290909
  0
LINE
  8
4_SURFACE
 62
7
  6
CONTINUOUS
 10
95.5767641824
 20
98.0566290849
 11
109.707083143
 21
98.0566287213
  0
POLYLINE
  8
0
 62
7
  6
CONTINUOUS
 66
1
 70
0
  0
VERTEX
  8
0
 62
7
  6
CONTINUOUS
 10
53.5578954262
 20
108.2298157083
  0
VERTEX
  8
0
 62
7
  6
CONTINUOUS
 10
53.4566271824
 20
108.2849441453
  0
VERTEX
  8
0
 62
7
  6
CONTINUOUS
 10
53.3486318779
 20
108.3249089228
  0
VERTEX
  8
0
 62
7
  6
CONTINUOUS
 10
53.2371638488
 20
108.3488045545
  0
VERTEX
  8
0
 62
7
  6
CONTINUOUS
 10
53.1523700931
 20
108.3561768861
  0
SEQEND
  0
POLYLINE
  8
0
 62
7
  6
CONTINUOUS
 66
1
 70
0
  0
VERTEX
  8
0
 62
7
  6
CONTINUOUS
 10
44.5340907571
 20
147.5855279861
  0
VERTEX
  8
0
 62
7
  6
CONTINUOUS
 10
44.515764369
 20
147.6345599363
  0
VERTEX
  8
0
 62
7
  6
CONTINUOUS
 10
44.4933607077
 20
147.6966977867
  0
SEQEND
  0
LINE
  8
0
 62
7
  6
CONTINUOUS
 10
44.4933607077
 20
147.6966977867
 11
44.4395427632
 21
147.8500857982
  0
POLYLINE
  8
0
 62
7
  6
CONTINUOUS
 66
1
 70
0
  0
VERTEX
  8
0
 62
7
  6
CONTINUOUS
 10
68.6570747684
 20
98.0566287032
  0
VERTEX
  8
0
 62
7
  6
CONTINUOUS
 10
68.7093164127
 20
98.0594680155
  0
VERTEX
  8
0
 62
7
  6
CONTINUOUS
 10
68.797479487
 20
98.0769840716
  0
VERTEX
  8
0
 62
7
  6
CONTINUOUS
 10
68.8783449877
 20
98.108566352
  0
VERTEX
  8
0
 62
7
  6
CONTINUOUS
 10
68.9489242314
 20
98.1509541852
  0
VERTEX
  8
0
 62
7
  6
CONTINUOUS
 10
69.0072513866
 20
98.1999266289
  0
VERTEX
  8
0
 62
7
  6
CONTINUOUS
 10
69.053122722
 20
98.251329182
  0
VERTEX
  8
0
 62
7
  6
CONTINUOUS
 10
69.0878007321
 20
98.3019939931
  0
VERTEX
  8
0
 62
7
  6
CONTINUOUS
 10
69.1127499791
 20
98.3489319473
  0
VERTEX
  8
0
 62
7
  6
CONTINUOUS
 10
69.1299625046
 20
98.3902137674
  0
VERTEX
  8
0
 62
7
  6
CONTINUOUS
 10
69.1414878273
 20
98.4249856989
  0
VERTEX
  8
0
 62
7
  6
CONTINUOUS
 10
69.1492428448
 20
98.4538609754
  0
VERTEX
  8
0
 62
7
  6
CONTINUOUS
 10
69.1547454039
 20
98.4786122638
  0
VERTEX
  8
0
 62
7
  6
CONTINUOUS
 10
69.1588970836
 20
98.5007275628
  0
VERTEX
  8
0
 62
7
  6
CONTINUOUS
 10
69.1622057326
 20
98.5212174508
  0
VERTEX
  8
0
 62
7
  6
CONTINUOUS
 10
69.1649830105
 20
98.54088213
  0
VERTEX
  8
0
 62
7
  6
CONTINUOUS
 10
69.1674407324
 20
98.560508821
  0
VERTEX
  8
0
 62
7
  6
CONTINUOUS
 10
69.169695659
 20
98.5806021015
  0
VERTEX
  8
0
 62
7
  6
CONTINUOUS
 10
69.1718193738
 20
98.6015359421
  0
VERTEX
  8
0
 62
7
  6
CONTINUOUS
 10
69.1738574528
 20
98.6236005778
  0
VERTEX
  8
0
 62
7
  6
CONTINUOUS
 10
69.1758396073
 20
98.6470274924
  0
VERTEX
  8
0
 62
7
  6
CONTINUOUS
 10
69.1777860875
 20
98.6720124969
  0
VERTEX
  8
0
 62
7
  6
CONTINUOUS
 10
69.179710854
 20
98.6987260447
  0
VERTEX
  8
0
 62
7
  6
CONTINUOUS
 10
69.1816240441
 20
98.7273268189
  0
VERTEX
  8
0
 62
7
  6
CONTINUOUS
 10
69.1854490438
 20
98.7908875622
  0
SEQEND
  0
POLYLINE
  8
0
 62
7
  6
CONTINUOUS
 66
1
 70
0
  0
VERTEX
  8
0
 62
7
  6
CONTINUOUS
 10
69.4802933244
 20
138.8326955168
  0
VERTEX
  8
0
 62
7
  6
CONTINUOUS
 10
69.5489300718
 20
138.9243834359
  0
VERTEX
  8
0
 62
7
  6
CONTINUOUS
 10
69.6040717677
 20
139.0255962541
  0
VERTEX
  8
0
 62
7
  6
CONTINUOUS
 10
69.6440556828
 20
139.1335501491
  0
VERTEX
  8
0
 62
7
  6
CONTINUOUS
 10
69.6679683632
 20
139.2449947652
  0
VERTEX
  8
0
 62
7
  6
CONTINUOUS
 10
69.6757979524
 20
139.3566271552
  0
SEQEND
  0
LINE
  8
1_AXIS
 62
2
  6
CENTER
 10
51.9710288047
 20
104.4066271552
 11
116.8605032823
 21
104.4066271552
  0
POLYLINE
  8
0
 62
7
  6
CONTINUOUS
 66
1
 70
0
  0
VERTEX
  8
0
 62
7
  6
CONTINUOUS
 10
53.1523732869
 20
108.3561745251
  0
VERTEX
  8
0
 62
7
  6
CONTINUOUS
 10
53.2192449158
 20
108.351121275
  0
VERTEX
  8
0
 62
7
  6
CONTINUOUS
 10
53.3359352368
 20
108.3284747657
  0
VERTEX
  8
0
 62
7
  6
CONTINUOUS
 10
53.4480197054
 20
108.2887800397
  0
VERTEX
  8
0
 62
7
  6
CONTINUOUS
 10
53.553025869
 20
108.2328907063
  0
SEQEND
  0
LINE
  8
0
 62
7
  6
CONTINUOUS
 10
69.2562797102
 20
103.3018250225
 11
69.258114407
 21
107.5566271552
  0
LINE
  8
0
 62
7
  6
CONTINUOUS
 10
69.679223788
 20
144.0267102078
 11
69.6760101992
 21
142.9462955051
  0
LINE
  8
0
 62
7
  6
CONTINUOUS
 10
69.2500423571
 20
102.1251379982
 11
69.2562797102
 21
103.3018250225
  0
LINE
  8
0
 62
7
  6
CONTINUOUS
 10
69.6865850875
 20
145.1345066399
 11
69.679223788
 21
144.0267102078
  0
LINE
  8
0
 62
7
  6
CONTINUOUS
 10
69.2391596697
 20
101.0085244107
 11
69.2500423571
 21
102.1251379982
  0
LINE
  8
0
 62
7
  6
CONTINUOUS
 10
69.6964485888
 20
146.0430587734
 11
69.6865850875
 21
145.1345066399
  0
LINE
  8
0
 62
7
  6
CONTINUOUS
 10
69.7058749962
 20
146.661592842
 11
69.6964485888
 21
146.0430587734
  0
POLYLINE
  8
0
 62
7
  6
CONTINUOUS
 66
1
 70
0
  0
VERTEX
  8
0
 62
7
  6
CONTINUOUS
 10
69.2259827642
 20
100.1418352839
  0
VERTEX
  8
0
 62
7
  6
CONTINUOUS
 10
69.2279612107
 20
100.2516614684
  0
VERTEX
  8
0
 62
7
  6
CONTINUOUS
 10
69.2391596697
 20
101.0085244107
  0
SEQEND
  0
LINE
  8
0
 62
7
  6
CONTINUOUS
 10
69.7159725888
 20
147.166626381
 11
69.7058749962
 21
146.661592842
  0
LINE
  8
0
 62
7
  6
CONTINUOUS
 10
69.7242610254
 20
147.4939055564
 11
69.7159725888
 21
147.166626381
  0
LINE
  8
0
 62
7
  6
CONTINUOUS
 10
69.7304745344
 20
147.6976846326
 11
69.7242610254
 21
147.4939055564
  0
LINE
  8
0
 62
7
  6
CONTINUOUS
 10
69.7366019446
 20
147.8683332756
 11
69.7304745344
 21
147.6976846326
  0
LINE
  8
0
 62
7
  6
CONTINUOUS
 10
69.7406037772
 20
147.9649922588
 11
69.7366019446
 21
147.8683332756
  0
LINE
  8
0
 62
7
  6
CONTINUOUS
 10
69.7445272821
 20
148.0491899126
 11
69.7406037772
 21
147.9649922588
  0
LINE
  8
0
 62
7
  6
CONTINUOUS
 10
69.7483871631
 20
148.1223667481
 11
69.7445272821
 21
148.0491899126
  0
POLYLINE
  8
0
 62
7
  6
CONTINUOUS
 66
1
 70
0
  0
VERTEX
  8
0
 62
7
  6
CONTINUOUS
 10
69.6757203379
 20
139.3566271552
  0
VERTEX
  8
0
 62
7
  6
CONTINUOUS
 10
69.6702177485
 20
139.2629560235
  0
VERTEX
  8
0
 62
7
  6
CONTINUOUS
 10
69.6475736677
 20
139.1463092257
  0
VERTEX
  8
0
 62
7
  6
CONTINUOUS
 10
69.6078782898
 20
139.0342573909
  0
VERTEX
  8
0
 62
7
  6
CONTINUOUS
 10
69.5519841355
 20
138.9292774274
  0
VERTEX
  8
0
 62
7
  6
CONTINUOUS
 10
69.4811213317
 20
138.833718864
  0
VERTEX
  8
0
 62
7
  6
CONTINUOUS
 10
69.3968631606
 20
138.7497171666
  0
VERTEX
  8
0
 62
7
  6
CONTINUOUS
 10
69.3010832809
 20
138.6791400875
  0
VERTEX
  8
0
 62
7
  6
CONTINUOUS
 10
69.1959227198
 20
138.623554632
  0
VERTEX
  8
0
 62
7
  6
CONTINUOUS
 10
69.0837347189
 20
138.584183274
  0
VERTEX
  8
0
 62
7
  6
CONTINUOUS
 10
68.9669915122
 20
138.5618706213
  0
VERTEX
  8
0
 62
7
  6
CONTINUOUS
 10
68.9024320741
 20
138.5570817586
  0
SEQEND
  0
POLYLINE
  8
0
 62
7
  6
CONTINUOUS
 66
1
 70
0
  0
VERTEX
  8
0
 62
7
  6
CONTINUOUS
 10
70.0314073334
 20
108.3561749116
  0
VERTEX
  8
0
 62
7
  6
CONTINUOUS
 10
69.9466723581
 20
108.3488045545
  0
VERTEX
  8
0
 62
7
  6
CONTINUOUS
 10
69.835204329
 20
108.3249089228
  0
VERTEX
  8
0
 62
7
  6
CONTINUOUS
 10
69.7272090245
 20
108.2849441453
  0
VERTEX
  8
0
 62
7
  6
CONTINUOUS
 10
69.6259407807
 20
108.2298157083
  0
VERTEX
  8
0
 62
7
  6
CONTINUOUS
 10
69.5342047092
 20
108.1611925208
  0
SEQEND
  0
LINE
  8
4_SURFACE
 62
7
  6
CONTINUOUS
 10
111.0814661138
 20
108.3561768861
 11
111.1083124334
 21
108.3566271552
  0
LINE
  8
0
 62
7
  6
CONTINUOUS
 10
70.0583124334
 20
108.3566271552
 11
70.0314073334
 21
108.3561749116
  0
LINE
  8
4_SURFACE
 62
7
  6
CONTINUOUS
 10
121.8669181034
 20
108.3566271552
 11
111.1083124334
 21
108.3566271552
  0
LINE
  8
0
 62
7
  6
CONTINUOUS
 10
94.1755237735
 20
108.3566271552
 11
70.0583124334
 21
108.3566271552
  0
LINE
  8
0
 62
7
  6
CONTINUOUS
 10
42.3669181034
 20
108.3566271552
 11
53.1255237735
 21
108.3566271552
  0
LINE
  8
0
 62
7
  6
CONTINUOUS
 10
53.1523700931
 20
108.3561768861
 11
53.1255237735
 21
108.3566271552
  0
LINE
  8
4_SURFACE
 62
7
  6
CONTINUOUS
 10
94.1755237735
 20
108.3566271552
 11
94.2024288735
 21
108.3561749116
  0
POLYLINE
  8
4_SURFACE
 62
7
  6
CONTINUOUS
 66
1
 70
0
  0
VERTEX
  8
4_SURFACE
 62
7
  6
CONTINUOUS
 10
94.2024320741
 20
108.3561725517
  0
VERTEX
  8
4_SURFACE
 62
7
  6
CONTINUOUS
 10
94.2669915122
 20
108.3513836891
  0
VERTEX
  8
4_SURFACE
 62
7
  6
CONTINUOUS
 10
94.3837347189
 20
108.3290710364
  0
VERTEX
  8
4_SURFACE
 62
7
  6
CONTINUOUS
 10
94.4959227198
 20
108.2896996784
  0
VERTEX
  8
4_SURFACE
 62
7
  6
CONTINUOUS
 10
94.6010832809
 20
108.2341142229
  0
VERTEX
  8
4_SURFACE
 62
7
  6
CONTINUOUS
 10
94.6968631606
 20
108.1635371437
  0
VERTEX
  8
4_SURFACE
 62
7
  6
CONTINUOUS
 10
94.7811213317
 20
108.0795354463
  0
VERTEX
  8
4_SURFACE
 62
7
  6
CONTINUOUS
 10
94.8519841355
 20
107.9839768829
  0
VERTEX
  8
4_SURFACE
 62
7
  6
CONTINUOUS
 10
94.9078782898
 20
107.8789969194
  0
VERTEX
  8
4_SURFACE
 62
7
  6
CONTINUOUS
 10
94.9475736677
 20
107.7669450847
  0
VERTEX
  8
4_SURFACE
 62
7
  6
CONTINUOUS
 10
94.9702177485
 20
107.6502982869
  0
VERTEX
  8
4_SURFACE
 62
7
  6
CONTINUOUS
 10
94.9757203379
 20
107.5566271551
  0
SEQEND
  0
POLYLINE
  8
4_SURFACE
 62
7
  6
CONTINUOUS
 66
1
 70
0
  0
VERTEX
  8
4_SURFACE
 62
7
  6
CONTINUOUS
 10
94.2024288735
 20
108.3561749116
  0
VERTEX
  8
4_SURFACE
 62
7
  6
CONTINUOUS
 10
94.2871638488
 20
108.3488045545
  0
VERTEX
  8
4_SURFACE
 62
7
  6
CONTINUOUS
 10
94.3986318779
 20
108.3249089228
  0
VERTEX
  8
4_SURFACE
 62
7
  6
CONTINUOUS
 10
94.5066271824
 20
108.2849441453
  0
VERTEX
  8
4_SURFACE
 62
7
  6
CONTINUOUS
 10
94.6078954262
 20
108.2298157083
  0
VERTEX
  8
4_SURFACE
 62
7
  6
CONTINUOUS
 10
94.6996314977
 20
108.1611925208
  0
SEQEND
  0
LINE
  8
0
 62
7
  6
CONTINUOUS
 10
69.6760101992
 20
142.9462955051
 11
69.6757217999
 21
139.3566271552
  0
LINE
  8
0
 62
7
  6
CONTINUOUS
 10
69.2178636181
 20
99.7466279294
 11
69.2259827642
 21
100.1418352839
  0
LINE
  8
0
 62
7
  6
CONTINUOUS
 10
69.2095751815
 20
99.419348754
 11
69.2178636181
 21
99.7466279294
  0
LINE
  8
0
 62
7
  6
CONTINUOUS
 10
69.2033616725
 20
99.2155696778
 11
69.2095751815
 21
99.419348754
  0
LINE
  8
0
 62
7
  6
CONTINUOUS
 10
69.1972342623
 20
99.0449210348
 11
69.2033616725
 21
99.2155696778
  0
LINE
  8
0
 62
7
  6
CONTINUOUS
 10
69.1932324297
 20
98.9482620516
 11
69.1972342623
 21
99.0449210348
  0
LINE
  8
0
 62
7
  6
CONTINUOUS
 10
69.1893089248
 20
98.8640643977
 11
69.1932324297
 21
98.9482620516
  0
LINE
  8
0
 62
7
  6
CONTINUOUS
 10
69.1854490438
 20
98.7908875622
 11
69.1893089248
 21
98.8640643977
  0
POLYLINE
  8
0
 62
7
  6
CONTINUOUS
 66
1
 70
0
  0
VERTEX
  8
0
 62
7
  6
CONTINUOUS
 10
69.258115869
 20
107.5566271551
  0
VERTEX
  8
0
 62
7
  6
CONTINUOUS
 10
69.2636184584
 20
107.6502982869
  0
VERTEX
  8
0
 62
7
  6
CONTINUOUS
 10
69.2862625392
 20
107.7669450847
  0
VERTEX
  8
0
 62
7
  6
CONTINUOUS
 10
69.3259579171
 20
107.8789969194
  0
VERTEX
  8
0
 62
7
  6
CONTINUOUS
 10
69.3818520714
 20
107.9839768829
  0
VERTEX
  8
0
 62
7
  6
CONTINUOUS
 10
69.4527148752
 20
108.0795354463
  0
VERTEX
  8
0
 62
7
  6
CONTINUOUS
 10
69.5369730463
 20
108.1635371437
  0
VERTEX
  8
0
 62
7
  6
CONTINUOUS
 10
69.632752926
 20
108.2341142229
  0
VERTEX
  8
0
 62
7
  6
CONTINUOUS
 10
69.7379134871
 20
108.2896996784
  0
VERTEX
  8
0
 62
7
  6
CONTINUOUS
 10
69.850101488
 20
108.3290710364
  0
VERTEX
  8
0
 62
7
  6
CONTINUOUS
 10
69.9668446947
 20
108.3513836891
  0
VERTEX
  8
0
 62
7
  6
CONTINUOUS
 10
70.0314041328
 20
108.3561725517
  0
SEQEND
  0
POLYLINE
  8
0
 62
7
  6
CONTINUOUS
 66
1
 70
0
  0
VERTEX
  8
0
 62
7
  6
CONTINUOUS
 10
53.7852313015
 20
138.7512169366
  0
VERTEX
  8
0
 62
7
  6
CONTINUOUS
 10
53.7012149143
 20
138.8354601986
  0
VERTEX
  8
0
 62
7
  6
CONTINUOUS
 10
53.6306285243
 20
138.9312193729
  0
VERTEX
  8
0
 62
7
  6
CONTINUOUS
 10
53.5750383282
 20
139.0363535523
  0
VERTEX
  8
0
 62
7
  6
CONTINUOUS
 10
53.5356663264
 20
139.148508875
  0
VERTEX
  8
0
 62
7
  6
CONTINUOUS
 10
53.5133560737
 20
139.2652086065
  0
VERTEX
  8
0
 62
7
  6
CONTINUOUS
 10
53.5081158639
 20
139.3566271553
  0
SEQEND
  0
POLYLINE
  8
0
 62
7
  6
CONTINUOUS
 66
1
 70
0
  0
VERTEX
  8
0
 62
7
  6
CONTINUOUS
 10
69.4535428825
 20
108.0805587936
  0
VERTEX
  8
0
 62
7
  6
CONTINUOUS
 10
69.3849061351
 20
107.9888708744
  0
VERTEX
  8
0
 62
7
  6
CONTINUOUS
 10
69.3297644392
 20
107.8876580563
  0
VERTEX
  8
0
 62
7
  6
CONTINUOUS
 10
69.2897805241
 20
107.7797041613
  0
VERTEX
  8
0
 62
7
  6
CONTINUOUS
 10
69.2658678437
 20
107.6682595452
  0
VERTEX
  8
0
 62
7
  6
CONTINUOUS
 10
69.2580382545
 20
107.5566271552
  0
SEQEND
  0
POLYLINE
  8
4_SURFACE
 62
7
  6
CONTINUOUS
 66
1
 70
0
  0
VERTEX
  8
4_SURFACE
 62
7
  6
CONTINUOUS
 10
110.3578954262
 20
138.683438602
  0
VERTEX
  8
4_SURFACE
 62
7
  6
CONTINUOUS
 10
110.2566271824
 20
138.628310165
  0
VERTEX
  8
4_SURFACE
 62
7
  6
CONTINUOUS
 10
110.1486318779
 20
138.5883453876
  0
VERTEX
  8
4_SURFACE
 62
7
  6
CONTINUOUS
 10
110.0371638488
 20
138.5644497558
  0
VERTEX
  8
4_SURFACE
 62
7
  6
CONTINUOUS
 10
109.9523700931
 20
138.5570774243
  0
SEQEND
  0
POLYLINE
  8
0
 62
7
  6
CONTINUOUS
 66
1
 70
0
  0
VERTEX
  8
0
 62
7
  6
CONTINUOUS
 10
53.8759407807
 20
138.683438602
  0
VERTEX
  8
0
 62
7
  6
CONTINUOUS
 10
53.9772090245
 20
138.628310165
  0
VERTEX
  8
0
 62
7
  6
CONTINUOUS
 10
54.085204329
 20
138.5883453876
  0
VERTEX
  8
0
 62
7
  6
CONTINUOUS
 10
54.1966723581
 20
138.5644497558
  0
VERTEX
  8
0
 62
7
  6
CONTINUOUS
 10
54.2814661138
 20
138.5570774243
  0
SEQEND
  0
POLYLINE
  8
4_SURFACE
 62
7
  6
CONTINUOUS
 66
1
 70
0
  0
VERTEX
  8
4_SURFACE
 62
7
  6
CONTINUOUS
 10
94.7802933244
 20
108.0805587936
  0
VERTEX
  8
4_SURFACE
 62
7
  6
CONTINUOUS
 10
94.8489300718
 20
107.9888708744
  0
VERTEX
  8
4_SURFACE
 62
7
  6
CONTINUOUS
 10
94.9040717677
 20
107.8876580563
  0
VERTEX
  8
4_SURFACE
 62
7
  6
CONTINUOUS
 10
94.9440556828
 20
107.7797041613
  0
VERTEX
  8
4_SURFACE
 62
7
  6
CONTINUOUS
 10
94.9679683632
 20
107.6682595452
  0
VERTEX
  8
4_SURFACE
 62
7
  6
CONTINUOUS
 10
94.9757979524
 20
107.5566271552
  0
SEQEND
  0
POLYLINE
  8
4_SURFACE
 62
7
  6
CONTINUOUS
 66
1
 70
0
  0
VERTEX
  8
4_SURFACE
 62
7
  6
CONTINUOUS
 10
110.4496314977
 20
138.7520617896
  0
VERTEX
  8
4_SURFACE
 62
7
  6
CONTINUOUS
 10
110.353025869
 20
138.6803636041
  0
VERTEX
  8
4_SURFACE
 62
7
  6
CONTINUOUS
 10
110.2480197055
 20
138.6244742706
  0
VERTEX
  8
4_SURFACE
 62
7
  6
CONTINUOUS
 10
110.1359352368
 20
138.5847795446
  0
VERTEX
  8
4_SURFACE
 62
7
  6
CONTINUOUS
 10
110.0192449158
 20
138.5621330354
  0
VERTEX
  8
4_SURFACE
 62
7
  6
CONTINUOUS
 10
109.9523732869
 20
138.5570797852
  0
SEQEND
  0
POLYLINE
  8
4_SURFACE
 62
7
  6
CONTINUOUS
 66
1
 70
0
  0
VERTEX
  8
4_SURFACE
 62
7
  6
CONTINUOUS
 10
95.0517394096
 20
98.7347163101
  0
VERTEX
  8
4_SURFACE
 62
7
  6
CONTINUOUS
 10
95.0538090191
 20
98.7033123234
  0
VERTEX
  8
4_SURFACE
 62
7
  6
CONTINUOUS
 10
95.0559011947
 20
98.6740072126
  0
VERTEX
  8
4_SURFACE
 62
7
  6
CONTINUOUS
 10
95.0580255394
 20
98.6466710318
  0
VERTEX
  8
4_SURFACE
 62
7
  6
CONTINUOUS
 10
95.060197321
 20
98.6211380008
  0
VERTEX
  8
4_SURFACE
 62
7
  6
CONTINUOUS
 10
95.0624405526
 20
98.5971959135
  0
VERTEX
  8
4_SURFACE
 62
7
  6
CONTINUOUS
 10
95.064793036
 20
98.5745699619
  0
VERTEX
  8
4_SURFACE
 62
7
  6
CONTINUOUS
 10
95.0673160902
 20
98.5528929656
  0
VERTEX
  8
4_SURFACE
 62
7
  6
CONTINUOUS
 10
95.0701112402
 20
98.5316667073
  0
VERTEX
  8
4_SURFACE
 62
7
  6
CONTINUOUS
 10
95.0733545308
 20
98.51018006
  0
VERTEX
  8
4_SURFACE
 62
7
  6
CONTINUOUS
 10
95.0773269102
 20
98.4875823031
  0
VERTEX
  8
4_SURFACE
 62
7
  6
CONTINUOUS
 10
95.0825325841
 20
98.4626240749
  0
VERTEX
  8
4_SURFACE
 62
7
  6
CONTINUOUS
 10
95.0899179393
 20
98.433437492
  0
VERTEX
  8
4_SURFACE
 62
7
  6
CONTINUOUS
 10
95.1011697364
 20
98.3977165622
  0
VERTEX
  8
4_SURFACE
 62
7
  6
CONTINUOUS
 10
95.1185446659
 20
98.3544510721
  0
VERTEX
  8
4_SURFACE
 62
7
  6
CONTINUOUS
 10
95.1439663077
 20
98.3054761671
  0
VERTEX
  8
4_SURFACE
 62
7
  6
CONTINUOUS
 10
95.178686926
 20
98.2539550873
  0
VERTEX
  8
4_SURFACE
 62
7
  6
CONTINUOUS
 10
95.2247669176
 20
98.2017126299
  0
VERTEX
  8
4_SURFACE
 62
7
  6
CONTINUOUS
 10
95.2843373046
 20
98.151367469
  0
VERTEX
  8
4_SURFACE
 62
7
  6
CONTINUOUS
 10
95.3570127126
 20
98.1078178769
  0
VERTEX
  8
4_SURFACE
 62
7
  6
CONTINUOUS
 10
95.4399112109
 20
98.075953881
  0
VERTEX
  8
4_SURFACE
 62
7
  6
CONTINUOUS
 10
95.5288393732
 20
98.0590253398
  0
VERTEX
  8
4_SURFACE
 62
7
  6
CONTINUOUS
 10
95.5767642282
 20
98.0566286973
  0
SEQEND
  0
LINE
  8
4_SURFACE
 62
7
  6
CONTINUOUS
 10
95.0476393775
 20
98.8043403056
 11
95.0517394096
 21
98.7347163101
  0
LINE
  8
4_SURFACE
 62
7
  6
CONTINUOUS
 10
95.0435629124
 20
98.8838218538
 11
95.0476393775
 21
98.8043403056
  0
LINE
  8
4_SURFACE
 62
7
  6
CONTINUOUS
 10
95.039493625
 20
98.9739582289
 11
95.0435629124
 21
98.8838218538
  0
LINE
  8
4_SURFACE
 62
7
  6
CONTINUOUS
 10
95.0354277671
 20
99.0754415763
 11
95.039493625
 21
98.9739582289
  0
LINE
  8
4_SURFACE
 62
7
  6
CONTINUOUS
 10
94.5024675055
 20
147.7243822083
 11
94.4963760284
 21
147.8900118282
  0
LINE
  8
4_SURFACE
 62
7
  6
CONTINUOUS
 10
95.029344072
 20
99.2502387215
 11
95.0354277671
 21
99.0754415763
  0
LINE
  8
4_SURFACE
 62
7
  6
CONTINUOUS
 10
94.5085251197
 20
147.5306743665
 11
94.5024675055
 21
147.7243822083
  0
LINE
  8
4_SURFACE
 62
7
  6
CONTINUOUS
 10
95.0233047888
 20
99.4536985955
 11
95.029344072
 21
99.2502387215
  0
LINE
  8
4_SURFACE
 62
7
  6
CONTINUOUS
 10
94.5164988061
 20
147.2253416213
 11
94.5085251197
 21
147.5306743665
  0
LINE
  8
4_SURFACE
 62
7
  6
CONTINUOUS
 10
95.0153693277
 20
99.7732352402
 11
95.0233047888
 21
99.4536985955
  0
LINE
  8
4_SURFACE
 62
7
  6
CONTINUOUS
 10
94.5261925067
 20
146.7600528509
 11
94.5164988061
 21
147.2253416213
  0
LINE
  8
4_SURFACE
 62
7
  6
CONTINUOUS
 10
95.0057586151
 20
100.2583085864
 11
95.0153693277
 21
99.7732352402
  0
LINE
  8
4_SURFACE
 62
7
  6
CONTINUOUS
 10
94.537105362
 20
146.064329185
 11
94.5261925067
 21
146.7600528509
  0
LINE
  8
4_SURFACE
 62
7
  6
CONTINUOUS
 10
94.9950249601
 20
100.980648154
 11
95.0057586151
 21
100.2583085864
  0
LINE
  8
4_SURFACE
 62
7
  6
CONTINUOUS
 10
94.5466495253
 20
145.2021037219
 11
94.537105362
 21
146.064329185
  0
LINE
  8
4_SURFACE
 62
7
  6
CONTINUOUS
 10
94.9857857933
 20
101.8720685164
 11
94.9950249601
 21
100.980648154
  0
LINE
  8
4_SURFACE
 62
7
  6
CONTINUOUS
 10
94.5539636463
 20
144.1588721259
 11
94.5466495253
 21
145.2021037219
  0
LINE
  8
4_SURFACE
 62
7
  6
CONTINUOUS
 10
94.9789478499
 20
102.946662786
 11
94.9857857933
 21
101.8720685164
  0
LINE
  8
4_SURFACE
 62
7
  6
CONTINUOUS
 10
94.5575053375
 20
143.1451033201
 11
94.5539636463
 21
144.1588721259
  0
LINE
  8
4_SURFACE
 62
7
  6
CONTINUOUS
 10
94.9759853465
 20
103.986310629
 11
94.9789478499
 21
102.946662786
  0
LINE
  8
4_SURFACE
 62
7
  6
CONTINUOUS
 10
94.5575053375
 20
143.1451033201
 11
94.558114407
 21
139.3566271552
  0
LINE
  8
4_SURFACE
 62
7
  6
CONTINUOUS
 10
94.9759853465
 20
103.986310629
 11
94.9757217999
 21
107.5566271552
  0
POLYLINE
  8
0
 62
7
  6
CONTINUOUS
 66
1
 70
0
  0
VERTEX
  8
0
 62
7
  6
CONTINUOUS
 10
54.28146292
 20
138.5570797852
  0
VERTEX
  8
0
 62
7
  6
CONTINUOUS
 10
54.2145912911
 20
138.5621330354
  0
VERTEX
  8
0
 62
7
  6
CONTINUOUS
 10
54.0979009701
 20
138.5847795446
  0
VERTEX
  8
0
 62
7
  6
CONTINUOUS
 10
53.9858165014
 20
138.6244742706
  0
VERTEX
  8
0
 62
7
  6
CONTINUOUS
 10
53.8808103379
 20
138.6803636041
  0
SEQEND
  0
POLYLINE
  8
4_SURFACE
 62
7
  6
CONTINUOUS
 66
1
 70
0
  0
VERTEX
  8
4_SURFACE
 62
7
  6
CONTINUOUS
 10
94.4820967973
 20
148.1785380002
  0
VERTEX
  8
4_SURFACE
 62
7
  6
CONTINUOUS
 10
94.4800271878
 20
148.2099419869
  0
VERTEX
  8
4_SURFACE
 62
7
  6
CONTINUOUS
 10
94.4779350122
 20
148.2392470978
  0
VERTEX
  8
4_SURFACE
 62
7
  6
CONTINUOUS
 10
94.4758106674
 20
148.2665832785
  0
VERTEX
  8
4_SURFACE
 62
7
  6
CONTINUOUS
 10
94.4736388859
 20
148.2921163096
  0
VERTEX
  8
4_SURFACE
 62
7
  6
CONTINUOUS
 10
94.4713956543
 20
148.3160583969
  0
VERTEX
  8
4_SURFACE
 62
7
  6
CONTINUOUS
 10
94.4690431709
 20
148.3386843484
  0
VERTEX
  8
4_SURFACE
 62
7
  6
CONTINUOUS
 10
94.4665201167
 20
148.3603613448
  0
VERTEX
  8
4_SURFACE
 62
7
  6
CONTINUOUS
 10
94.4637249667
 20
148.381587603
  0
VERTEX
  8
4_SURFACE
 62
7
  6
CONTINUOUS
 10
94.4604816761
 20
148.4030742503
  0
VERTEX
  8
4_SURFACE
 62
7
  6
CONTINUOUS
 10
94.4565092967
 20
148.4256720072
  0
VERTEX
  8
4_SURFACE
 62
7
  6
CONTINUOUS
 10
94.4513036228
 20
148.4506302355
  0
VERTEX
  8
4_SURFACE
 62
7
  6
CONTINUOUS
 10
94.4439182676
 20
148.4798168184
  0
VERTEX
  8
4_SURFACE
 62
7
  6
CONTINUOUS
 10
94.4326664705
 20
148.5155377481
  0
VERTEX
  8
4_SURFACE
 62
7
  6
CONTINUOUS
 10
94.415291541
 20
148.5588032383
  0
VERTEX
  8
4_SURFACE
 62
7
  6
CONTINUOUS
 10
94.3898698992
 20
148.6077781432
  0
VERTEX
  8
4_SURFACE
 62
7
  6
CONTINUOUS
 10
94.3551492809
 20
148.659299223
  0
VERTEX
  8
4_SURFACE
 62
7
  6
CONTINUOUS
 10
94.3090692893
 20
148.7115416804
  0
VERTEX
  8
4_SURFACE
 62
7
  6
CONTINUOUS
 10
94.2494989023
 20
148.7618868413
  0
VERTEX
  8
4_SURFACE
 62
7
  6
CONTINUOUS
 10
94.1768234943
 20
148.8054364335
  0
VERTEX
  8
4_SURFACE
 62
7
  6
CONTINUOUS
 10
94.093924996
 20
148.8373004294
  0
VERTEX
  8
4_SURFACE
 62
7
  6
CONTINUOUS
 10
94.0049968337
 20
148.8542289706
  0
VERTEX
  8
4_SURFACE
 62
7
  6
CONTINUOUS
 10
93.9570719786
 20
148.8566256131
  0
SEQEND
  0
LINE
  8
4_SURFACE
 62
7
  6
CONTINUOUS
 10
94.4861968294
 20
148.1089140047
 11
94.4820967973
 21
148.1785380002
  0
LINE
  8
4_SURFACE
 62
7
  6
CONTINUOUS
 10
94.4902732945
 20
148.0294324566
 11
94.4861968294
 21
148.1089140047
  0
POLYLINE
  8
4_SURFACE
 62
7
  6
CONTINUOUS
 66
1
 70
0
  0
VERTEX
  8
4_SURFACE
 62
7
  6
CONTINUOUS
 10
94.4963760284
 20
147.8900118282
  0
VERTEX
  8
4_SURFACE
 62
7
  6
CONTINUOUS
 10
94.4943425819
 20
147.9392960815
  0
VERTEX
  8
4_SURFACE
 62
7
  6
CONTINUOUS
 10
94.4902732945
 20
148.0294324566
  0
SEQEND
  0
POLYLINE
  8
0
 62
7
  6
CONTINUOUS
 66
1
 70
0
  0
VERTEX
  8
0
 62
7
  6
CONTINUOUS
 10
68.9024288735
 20
138.5570793987
  0
VERTEX
  8
0
 62
7
  6
CONTINUOUS
 10
68.9871638488
 20
138.5644497558
  0
VERTEX
  8
0
 62
7
  6
CONTINUOUS
 10
69.0986318779
 20
138.5883453876
  0
VERTEX
  8
0
 62
7
  6
CONTINUOUS
 10
69.2066271824
 20
138.628310165
  0
VERTEX
  8
0
 62
7
  6
CONTINUOUS
 10
69.3078954262
 20
138.683438602
  0
VERTEX
  8
0
 62
7
  6
CONTINUOUS
 10
69.3996314977
 20
138.7520617896
  0
SEQEND
  0
LINE
  8
4_SURFACE
 62
7
  6
CONTINUOUS
 10
109.9523700931
 20
138.5570774243
 11
109.9255237735
 21
138.5566271552
  0
LINE
  8
0
 62
7
  6
CONTINUOUS
 10
68.8755237735
 20
138.5566271552
 11
68.9024288735
 21
138.5570793987
  0
LINE
  8
4_SURFACE
 62
7
  6
CONTINUOUS
 10
109.9255237735
 20
138.5566271552
 11
95.3583124334
 21
138.5566271552
  0
LINE
  8
0
 62
7
  6
CONTINUOUS
 10
54.3083124334
 20
138.5566271552
 11
68.8755237735
 21
138.5566271552
  0
LINE
  8
0
 62
7
  6
CONTINUOUS
 10
54.2814661138
 20
138.5570774243
 11
54.3083124334
 21
138.5566271552
  0
LINE
  8
4_SURFACE
 62
7
  6
CONTINUOUS
 10
95.3583124334
 20
138.5566271552
 11
95.3314073334
 21
138.5570793987
  0
POLYLINE
  8
4_SURFACE
 62
7
  6
CONTINUOUS
 66
1
 70
0
  0
VERTEX
  8
4_SURFACE
 62
7
  6
CONTINUOUS
 10
95.3314041328
 20
138.5570817586
  0
VERTEX
  8
4_SURFACE
 62
7
  6
CONTINUOUS
 10
95.2668446947
 20
138.5618706213
  0
VERTEX
  8
4_SURFACE
 62
7
  6
CONTINUOUS
 10
95.150101488
 20
138.584183274
  0
VERTEX
  8
4_SURFACE
 62
7
  6
CONTINUOUS
 10
95.0379134871
 20
138.623554632
  0
VERTEX
  8
4_SURFACE
 62
7
  6
CONTINUOUS
 10
94.932752926
 20
138.6791400875
  0
VERTEX
  8
4_SURFACE
 62
7
  6
CONTINUOUS
 10
94.8369730463
 20
138.7497171666
  0
VERTEX
  8
4_SURFACE
 62
7
  6
CONTINUOUS
 10
94.7527148752
 20
138.833718864
  0
VERTEX
  8
4_SURFACE
 62
7
  6
CONTINUOUS
 10
94.6818520714
 20
138.9292774274
  0
VERTEX
  8
4_SURFACE
 62
7
  6
CONTINUOUS
 10
94.6259579171
 20
139.0342573909
  0
VERTEX
  8
4_SURFACE
 62
7
  6
CONTINUOUS
 10
94.5862625392
 20
139.1463092257
  0
VERTEX
  8
4_SURFACE
 62
7
  6
CONTINUOUS
 10
94.5636184584
 20
139.2629560235
  0
VERTEX
  8
4_SURFACE
 62
7
  6
CONTINUOUS
 10
94.558115869
 20
139.3566271552
  0
SEQEND
  0
POLYLINE
  8
4_SURFACE
 62
7
  6
CONTINUOUS
 66
1
 70
0
  0
VERTEX
  8
4_SURFACE
 62
7
  6
CONTINUOUS
 10
95.3314073334
 20
138.5570793987
  0
VERTEX
  8
4_SURFACE
 62
7
  6
CONTINUOUS
 10
95.2466723581
 20
138.5644497558
  0
VERTEX
  8
4_SURFACE
 62
7
  6
CONTINUOUS
 10
95.135204329
 20
138.5883453876
  0
VERTEX
  8
4_SURFACE
 62
7
  6
CONTINUOUS
 10
95.0272090245
 20
138.628310165
  0
VERTEX
  8
4_SURFACE
 62
7
  6
CONTINUOUS
 10
94.9259407807
 20
138.683438602
  0
VERTEX
  8
4_SURFACE
 62
7
  6
CONTINUOUS
 10
94.8342047092
 20
138.7520617896
  0
SEQEND
  0
LINE
  8
1_AXIS
 62
2
  6
CENTER
 10
38.9669181034
 20
142.5066271552
 11
125.2669181034
 21
142.5066271552
  0
POLYLINE
  8
4_SURFACE
 62
7
  6
CONTINUOUS
 66
1
 70
0
  0
VERTEX
  8
4_SURFACE
 62
7
  6
CONTINUOUS
 10
94.7535428825
 20
138.8326955168
  0
VERTEX
  8
4_SURFACE
 62
7
  6
CONTINUOUS
 10
94.6849061351
 20
138.9243834359
  0
VERTEX
  8
4_SURFACE
 62
7
  6
CONTINUOUS
 10
94.6297644392
 20
139.0255962541
  0
VERTEX
  8
4_SURFACE
 62
7
  6
CONTINUOUS
 10
94.5897805241
 20
139.1335501491
  0
VERTEX
  8
4_SURFACE
 62
7
  6
CONTINUOUS
 10
94.5658678437
 20
139.2449947652
  0
VERTEX
  8
4_SURFACE
 62
7
  6
CONTINUOUS
 10
94.5580382545
 20
139.3566271552
  0
SEQEND
  0
POLYLINE
  8
0
 62
7
  6
CONTINUOUS
 66
1
 70
0
  0
VERTEX
  8
0
 62
7
  6
CONTINUOUS
 10
45.0452142309
 20
147.1385565693
  0
VERTEX
  8
0
 62
7
  6
CONTINUOUS
 10
45.0309219337
 20
147.1389272234
  0
VERTEX
  8
0
 62
7
  6
CONTINUOUS
 10
44.998471842
 20
147.142451764
  0
VERTEX
  8
0
 62
7
  6
CONTINUOUS
 10
44.9667935893
 20
147.1493412318
  0
VERTEX
  8
0
 62
7
  6
CONTINUOUS
 10
44.936683535
 20
147.1588786513
  0
VERTEX
  8
0
 62
7
  6
CONTINUOUS
 10
44.9079130488
 20
147.1705847717
  0
VERTEX
  8
0
 62
7
  6
CONTINUOUS
 10
44.8804419478
 20
147.1840272412
  0
VERTEX
  8
0
 62
7
  6
CONTINUOUS
 10
44.8541154364
 20
147.1989437685
  0
VERTEX
  8
0
 62
7
  6
CONTINUOUS
 10
44.8289327784
 20
147.2150483914
  0
VERTEX
  8
0
 62
7
  6
CONTINUOUS
 10
44.8046396646
 20
147.2322900681
  0
VERTEX
  8
0
 62
7
  6
CONTINUOUS
 10
44.7813022897
 20
147.2504494817
  0
VERTEX
  8
0
 62
7
  6
CONTINUOUS
 10
44.7588150124
 20
147.2694700442
  0
VERTEX
  8
0
 62
7
  6
CONTINUOUS
 10
44.7371764358
 20
147.2892311891
  0
VERTEX
  8
0
 62
7
  6
CONTINUOUS
 10
44.7163391638
 20
147.3096872501
  0
VERTEX
  8
0
 62
7
  6
CONTINUOUS
 10
44.6962641855
 20
147.3308003728
  0
VERTEX
  8
0
 62
7
  6
CONTINUOUS
 10
44.6769375345
 20
147.3525332684
  0
VERTEX
  8
0
 62
7
  6
CONTINUOUS
 10
44.6583350455
 20
147.3748797005
  0
VERTEX
  8
0
 62
7
  6
CONTINUOUS
 10
44.6404503304
 20
147.39783313
  0
VERTEX
  8
0
 62
7
  6
CONTINUOUS
 10
44.6232985182
 20
147.4213799077
  0
VERTEX
  8
0
 62
7
  6
CONTINUOUS
 10
44.606938045
 20
147.4454625766
  0
VERTEX
  8
0
 62
7
  6
CONTINUOUS
 10
44.5914038848
 20
147.4700682783
  0
VERTEX
  8
0
 62
7
  6
CONTINUOUS
 10
44.5767597981
 20
147.4951630034
  0
VERTEX
  8
0
 62
7
  6
CONTINUOUS
 10
44.5630894478
 20
147.5206968256
  0
VERTEX
  8
0
 62
7
  6
CONTINUOUS
 10
44.5505213456
 20
147.5465535542
  0
VERTEX
  8
0
 62
7
  6
CONTINUOUS
 10
44.5392001572
 20
147.5725867654
  0
VERTEX
  8
0
 62
7
  6
CONTINUOUS
 10
44.5340936487
 20
147.5855180893
  0
SEQEND
  0
POLYLINE
  8
4_SURFACE
 62
7
  6
CONTINUOUS
 66
1
 70
0
  0
VERTEX
  8
4_SURFACE
 62
7
  6
CONTINUOUS
 10
119.6997425671
 20
147.5855181126
  0
VERTEX
  8
4_SURFACE
 62
7
  6
CONTINUOUS
 10
119.6946314198
 20
147.5725754297
  0
VERTEX
  8
4_SURFACE
 62
7
  6
CONTINUOUS
 10
119.6832997702
 20
147.5465208119
  0
VERTEX
  8
4_SURFACE
 62
7
  6
CONTINUOUS
 10
119.6707156645
 20
147.5206359864
  0
VERTEX
  8
4_SURFACE
 62
7
  6
CONTINUOUS
 10
119.6570251526
 20
147.4950714319
  0
VERTEX
  8
4_SURFACE
 62
7
  6
CONTINUOUS
 10
119.6423591735
 20
147.4699478993
  0
VERTEX
  8
4_SURFACE
 62
7
  6
CONTINUOUS
 10
119.6268049609
 20
147.4453203817
  0
VERTEX
  8
4_SURFACE
 62
7
  6
CONTINUOUS
 10
119.6104307573
 20
147.4212279949
  0
VERTEX
  8
4_SURFACE
 62
7
  6
CONTINUOUS
 10
119.5932764358
 20
147.3976879295
  0
VERTEX
  8
4_SURFACE
 62
7
  6
CONTINUOUS
 10
119.5754030096
 20
147.3747578605
  0
VERTEX
  8
4_SURFACE
 62
7
  6
CONTINUOUS
 10
119.5568247814
 20
147.3524473913
  0
VERTEX
  8
4_SURFACE
 62
7
  6
CONTINUOUS
 10
119.537533987
 20
147.3307590028
  0
VERTEX
  8
4_SURFACE
 62
7
  6
CONTINUOUS
 10
119.5175044092
 20
147.3096947384
  0
VERTEX
  8
4_SURFACE
 62
7
  6
CONTINUOUS
 10
119.49671923
 20
147.2892875319
  0
VERTEX
  8
4_SURFACE
 62
7
  6
CONTINUOUS
 10
119.4751359887
 20
147.2695710433
  0
VERTEX
  8
4_SURFACE
 62
7
  6
CONTINUOUS
 10
119.4527023354
 20
147.2505863434
  0
VERTEX
  8
4_SURFACE
 62
7
  6
CONTINUOUS
 10
119.4294118668
 20
147.2324503822
  0
VERTEX
  8
4_SURFACE
 62
7
  6
CONTINUOUS
 10
119.4051529048
 20
147.2152169738
  0
VERTEX
  8
4_SURFACE
 62
7
  6
CONTINUOUS
 10
119.3799982548
 20
147.1991113762
  0
VERTEX
  8
4_SURFACE
 62
7
  6
CONTINUOUS
 10
119.3536894287
 20
147.184183611
  0
VERTEX
  8
4_SURFACE
 62
7
  6
CONTINUOUS
 10
119.3262207633
 20
147.170718633
  0
VERTEX
  8
4_SURFACE
 62
7
  6
CONTINUOUS
 10
119.2974267975
 20
147.1589783546
  0
VERTEX
  8
4_SURFACE
 62
7
  6
CONTINUOUS
 10
119.2672595484
 20
147.149399783
  0
VERTEX
  8
4_SURFACE
 62
7
  6
CONTINUOUS
 10
119.235598296
 20
147.1424903798
  0
VERTEX
  8
4_SURFACE
 62
7
  6
CONTINUOUS
 10
119.2030354319
 20
147.1389334416
  0
VERTEX
  8
4_SURFACE
 62
7
  6
CONTINUOUS
 10
119.188621976
 20
147.1385565692
  0
SEQEND
  0
POLYLINE
  8
0
 62
7
  6
CONTINUOUS
 66
1
 70
0
  0
VERTEX
  8
0
 62
7
  6
CONTINUOUS
 10
70.2767614385
 20
148.8566256071
  0
VERTEX
  8
0
 62
7
  6
CONTINUOUS
 10
70.2245197942
 20
148.8537862948
  0
VERTEX
  8
0
 62
7
  6
CONTINUOUS
 10
70.1363567199
 20
148.8362702388
  0
VERTEX
  8
0
 62
7
  6
CONTINUOUS
 10
70.0554912192
 20
148.8046879583
  0
VERTEX
  8
0
 62
7
  6
CONTINUOUS
 10
69.9849119755
 20
148.7623001252
  0
VERTEX
  8
0
 62
7
  6
CONTINUOUS
 10
69.9265848203
 20
148.7133276815
  0
VERTEX
  8
0
 62
7
  6
CONTINUOUS
 10
69.8807134849
 20
148.6619251283
  0
VERTEX
  8
0
 62
7
  6
CONTINUOUS
 10
69.8460354748
 20
148.6112603172
  0
VERTEX
  8
0
 62
7
  6
CONTINUOUS
 10
69.8210862278
 20
148.5643223631
  0
VERTEX
  8
0
 62
7
  6
CONTINUOUS
 10
69.8038737023
 20
148.523040543
  0
VERTEX
  8
0
 62
7
  6
CONTINUOUS
 10
69.7923483796
 20
148.4882686114
  0
VERTEX
  8
0
 62
7
  6
CONTINUOUS
 10
69.7845933621
 20
148.4593933349
  0
VERTEX
  8
0
 62
7
  6
CONTINUOUS
 10
69.779090803
 20
148.4346420465
  0
VERTEX
  8
0
 62
7
  6
CONTINUOUS
 10
69.7749391233
 20
148.4125267475
  0
VERTEX
  8
0
 62
7
  6
CONTINUOUS
 10
69.7716304743
 20
148.3920368595
  0
VERTEX
  8
0
 62
7
  6
CONTINUOUS
 10
69.7688531964
 20
148.3723721804
  0
VERTEX
  8
0
 62
7
  6
CONTINUOUS
 10
69.7663954745
 20
148.3527454894
  0
VERTEX
  8
0
 62
7
  6
CONTINUOUS
 10
69.7641405479
 20
148.3326522089
  0
VERTEX
  8
0
 62
7
  6
CONTINUOUS
 10
69.7620168331
 20
148.3117183683
  0
VERTEX
  8
0
 62
7
  6
CONTINUOUS
 10
69.7599787541
 20
148.2896537325
  0
VERTEX
  8
0
 62
7
  6
CONTINUOUS
 10
69.7579965996
 20
148.2662268179
  0
VERTEX
  8
0
 62
7
  6
CONTINUOUS
 10
69.7560501194
 20
148.2412418134
  0
VERTEX
  8
0
 62
7
  6
CONTINUOUS
 10
69.7541253529
 20
148.2145282657
  0
VERTEX
  8
0
 62
7
  6
CONTINUOUS
 10
69.7522121628
 20
148.1859274915
  0
VERTEX
  8
0
 62
7
  6
CONTINUOUS
 10
69.7483871631
 20
148.1223667481
  0
SEQEND
  0
POLYLINE
  8
4_SURFACE
 62
7
  6
CONTINUOUS
 66
1
 70
0
  0
VERTEX
  8
4_SURFACE
 62
7
  6
CONTINUOUS
 10
111.3267530639
 20
148.8566255891
  0
VERTEX
  8
4_SURFACE
 62
7
  6
CONTINUOUS
 10
111.2774426574
 20
148.8540899647
  0
VERTEX
  8
4_SURFACE
 62
7
  6
CONTINUOUS
 10
111.1893106524
 20
148.8371283635
  0
VERTEX
  8
4_SURFACE
 62
7
  6
CONTINUOUS
 10
111.1083001122
 20
148.80606478
  0
VERTEX
  8
4_SURFACE
 62
7
  6
CONTINUOUS
 10
111.0374564815
 20
148.7641153859
  0
VERTEX
  8
4_SURFACE
 62
7
  6
CONTINUOUS
 10
110.9788012436
 20
148.7154810183
  0
VERTEX
  8
4_SURFACE
 62
7
  6
CONTINUOUS
 10
110.9325732546
 20
148.6643040758
  0
VERTEX
  8
4_SURFACE
 62
7
  6
CONTINUOUS
 10
110.8974999101
 20
148.6136875663
  0
VERTEX
  8
4_SURFACE
 62
7
  6
CONTINUOUS
 10
110.872129938
 20
148.5665411084
  0
VERTEX
  8
4_SURFACE
 62
7
  6
CONTINUOUS
 10
110.854534132
 20
148.5248222218
  0
VERTEX
  8
4_SURFACE
 62
7
  6
CONTINUOUS
 10
110.8427404105
 20
148.4895883076
  0
VERTEX
  8
4_SURFACE
 62
7
  6
CONTINUOUS
 10
110.8348215589
 20
148.4603309963
  0
VERTEX
  8
4_SURFACE
 62
7
  6
CONTINUOUS
 10
110.8292266092
 20
148.4353091487
  0
VERTEX
  8
4_SURFACE
 62
7
  6
CONTINUOUS
 10
110.8250275316
 20
148.4130360703
  0
VERTEX
  8
4_SURFACE
 62
7
  6
CONTINUOUS
 10
110.8217002334
 20
148.3924998186
  0
VERTEX
  8
4_SURFACE
 62
7
  6
CONTINUOUS
 10
110.8189079065
 20
148.3727841183
  0
VERTEX
  8
4_SURFACE
 62
7
  6
CONTINUOUS
 10
110.8164388445
 20
148.3531116565
  0
VERTEX
  8
4_SURFACE
 62
7
  6
CONTINUOUS
 10
110.8141746959
 20
148.3329724358
  0
VERTEX
  8
4_SURFACE
 62
7
  6
CONTINUOUS
 10
110.8120430494
 20
148.3119893128
  0
VERTEX
  8
4_SURFACE
 62
7
  6
CONTINUOUS
 10
110.8099979289
 20
148.2898707163
  0
VERTEX
  8
4_SURFACE
 62
7
  6
CONTINUOUS
 10
110.8080094661
 20
148.2663853514
  0
VERTEX
  8
4_SURFACE
 62
7
  6
CONTINUOUS
 10
110.8060573997
 20
148.2413390208
  0
VERTEX
  8
4_SURFACE
 62
7
  6
CONTINUOUS
 10
110.8041278439
 20
148.2145641588
  0
VERTEX
  8
4_SURFACE
 62
7
  6
CONTINUOUS
 10
110.8022103947
 20
148.1859000945
  0
VERTEX
  8
4_SURFACE
 62
7
  6
CONTINUOUS
 10
110.7983778824
 20
148.1222018813
  0
SEQEND
  0
LINE
  8
0
 62
7
  6
CONTINUOUS
 10
45.0452142327
 20
147.1385549743
 11
49.8886207265
 21
147.1385549743
  0
LINE
  8
4_SURFACE
 62
7
  6
CONTINUOUS
 10
114.3452154804
 20
147.1385549743
 11
119.1886219742
 21
147.1385549743
  0
LINE
  8
0
 62
7
  6
CONTINUOUS
 10
122.7669181034
 20
148.8566271556
 11
120.2497624932
 21
148.8566271556
  0
LINE
  8
0
 62
7
  6
CONTINUOUS
 10
113.2840737137
 20
148.8566271556
 11
111.3278326438
 21
148.8566271556
  0
LINE
  8
0
 62
7
  6
CONTINUOUS
 10
93.9560035156
 20
148.8566271552
 11
70.2767613927
 21
148.8566251895
  0
LINE
  8
0
 62
7
  6
CONTINUOUS
 10
43.9840737137
 20
148.8566271556
 11
41.4669181034
 21
148.8566271556
  0
LINE
  8
4_SURFACE
 62
7
  6
CONTINUOUS
 10
111.3267530639
 20
148.8566255891
 11
113.284073714
 21
148.8566271547
  0
LINE
  8
4_SURFACE
 62
7
  6
CONTINUOUS
 10
120.2497624929
 20
148.8566271547
 11
122.7669181034
 21
148.8566271547
  0
LINE
  8
0
 62
7
  6
CONTINUOUS
 10
52.9070923895
 20
148.856625569
 11
50.9497624932
 21
148.8566271556
  0
LINE
  8
4_SURFACE
 62
7
  6
CONTINUOUS
 10
93.9570720245
 20
148.8566251955
 11
93.9560035393
 21
148.8566263374
  0
POLYLINE
  8
4_SURFACE
 62
7
  6
CONTINUOUS
 66
1
 70
0
  0
VERTEX
  8
4_SURFACE
 62
7
  6
CONTINUOUS
 10
114.3452154912
 20
147.1385562205
  0
VERTEX
  8
4_SURFACE
 62
7
  6
CONTINUOUS
 10
114.332421078
 20
147.1388548028
  0
VERTEX
  8
4_SURFACE
 62
7
  6
CONTINUOUS
 10
114.2998270812
 20
147.1422316125
  0
VERTEX
  8
4_SURFACE
 62
7
  6
CONTINUOUS
 10
114.2680700757
 20
147.1489998809
  0
VERTEX
  8
4_SURFACE
 62
7
  6
CONTINUOUS
 10
114.2378373264
 20
147.1584612015
  0
VERTEX
  8
4_SURFACE
 62
7
  6
CONTINUOUS
 10
114.2089779534
 20
147.1701071415
  0
VERTEX
  8
4_SURFACE
 62
7
  6
CONTINUOUS
 10
114.181452043
 20
147.1834948964
  0
VERTEX
  8
4_SURFACE
 62
7
  6
CONTINUOUS
 10
114.155088245
 20
147.1983566365
  0
VERTEX
  8
4_SURFACE
 62
7
  6
CONTINUOUS
 10
114.1298801742
 20
147.2144107419
  0
VERTEX
  8
4_SURFACE
 62
7
  6
CONTINUOUS
 10
114.1055700311
 20
147.2315979436
  0
VERTEX
  8
4_SURFACE
 62
7
  6
CONTINUOUS
 10
114.0822298604
 20
147.2496979115
  0
VERTEX
  8
4_SURFACE
 62
7
  6
CONTINUOUS
 10
114.0597392454
 20
147.2686581429
  0
VERTEX
  8
4_SURFACE
 62
7
  6
CONTINUOUS
 10
114.0381080195
 20
147.2883499222
  0
VERTEX
  8
4_SURFACE
 62
7
  6
CONTINUOUS
 10
114.0172695647
 20
147.308743123
  0
VERTEX
  8
4_SURFACE
 62
7
  6
CONTINUOUS
 10
113.9971919759
 20
147.3297925892
  0
VERTEX
  8
4_SURFACE
 62
7
  6
CONTINUOUS
 10
113.9778558946
 20
147.3514675093
  0
VERTEX
  8
4_SURFACE
 62
7
  6
CONTINUOUS
 10
113.9592343177
 20
147.3737650635
  0
VERTEX
  8
4_SURFACE
 62
7
  6
CONTINUOUS
 10
113.9413198669
 20
147.3966810829
  0
VERTEX
  8
4_SURFACE
 62
7
  6
CONTINUOUS
 10
113.9241270365
 20
147.4202046043
  0
VERTEX
  8
4_SURFACE
 62
7
  6
CONTINUOUS
 10
113.907714869
 20
147.4442792857
  0
VERTEX
  8
4_SURFACE
 62
7
  6
CONTINUOUS
 10
113.8921220589
 20
147.4688883021
  0
VERTEX
  8
4_SURFACE
 62
7
  6
CONTINUOUS
 10
113.8774142995
 20
147.4939958744
  0
VERTEX
  8
4_SURFACE
 62
7
  6
CONTINUOUS
 10
113.8636771454
 20
147.5195492341
  0
VERTEX
  8
4_SURFACE
 62
7
  6
CONTINUOUS
 10
113.8510404171
 20
147.5454299869
  0
VERTEX
  8
4_SURFACE
 62
7
  6
CONTINUOUS
 10
113.8396487734
 20
147.5714913929
  0
VERTEX
  8
4_SURFACE
 62
7
  6
CONTINUOUS
 10
113.8340942176
 20
147.5855165993
  0
SEQEND
  0
LINE
  8
4_SURFACE
 62
7
  6
CONTINUOUS
 10
110.3062745341
 20
103.300281779
 11
110.308114407
 21
107.5566271552
  0
LINE
  8
4_SURFACE
 62
7
  6
CONTINUOUS
 10
110.7275616728
 20
143.6129725313
 11
110.7257217999
 21
139.3566271552
  0
LINE
  8
4_SURFACE
 62
7
  6
CONTINUOUS
 10
110.3000379109
 20
102.1245355391
 11
110.3062745341
 21
103.300281779
  0
LINE
  8
4_SURFACE
 62
7
  6
CONTINUOUS
 10
110.733798296
 20
144.7887187713
 11
110.7275616728
 21
143.6129725313
  0
LINE
  8
4_SURFACE
 62
7
  6
CONTINUOUS
 10
110.7446746653
 20
145.9045791959
 11
110.733798296
 21
144.7887187713
  0
LINE
  8
4_SURFACE
 62
7
  6
CONTINUOUS
 10
110.2891615416
 20
101.0086751144
 11
110.3000379109
 21
102.1245355391
  0
LINE
  8
4_SURFACE
 62
7
  6
CONTINUOUS
 10
110.7558651081
 20
146.6610289112
 11
110.7446746653
 21
145.9045791959
  0
LINE
  8
4_SURFACE
 62
7
  6
CONTINUOUS
 10
110.2779710988
 20
100.2522253991
 11
110.2891615416
 21
101.0086751144
  0
LINE
  8
4_SURFACE
 62
7
  6
CONTINUOUS
 10
110.765955035
 20
147.1658579003
 11
110.7558651081
 21
146.6610289112
  0
LINE
  8
4_SURFACE
 62
7
  6
CONTINUOUS
 10
110.2678811719
 20
99.7473964101
 11
110.2779710988
 21
100.2522253991
  0
LINE
  8
4_SURFACE
 62
7
  6
CONTINUOUS
 10
110.77423851
 20
147.4931063281
 11
110.765955035
 21
147.1658579003
  0
LINE
  8
4_SURFACE
 62
7
  6
CONTINUOUS
 10
110.2595976969
 20
99.4201479822
 11
110.2678811719
 21
99.7473964101
  0
LINE
  8
4_SURFACE
 62
7
  6
CONTINUOUS
 10
110.7804500523
 20
147.6969447178
 11
110.77423851
 21
147.4931063281
  0
LINE
  8
4_SURFACE
 62
7
  6
CONTINUOUS
 10
110.2533861546
 20
99.2163095925
 11
110.2595976969
 21
99.4201479822
  0
LINE
  8
4_SURFACE
 62
7
  6
CONTINUOUS
 10
110.7865784424
 20
147.8677321868
 11
110.7804500523
 21
147.6969447178
  0
LINE
  8
4_SURFACE
 62
7
  6
CONTINUOUS
 10
110.2472577645
 20
99.0455221236
 11
110.2533861546
 21
99.2163095925
  0
LINE
  8
4_SURFACE
 62
7
  6
CONTINUOUS
 10
110.7905834226
 20
147.9645286966
 11
110.7865784424
 21
147.8677321868
  0
LINE
  8
4_SURFACE
 62
7
  6
CONTINUOUS
 10
110.2432527843
 20
98.9487256137
 11
110.2472577645
 21
99.0455221236
  0
LINE
  8
4_SURFACE
 62
7
  6
CONTINUOUS
 10
110.794511801
 20
148.0488774841
 11
110.7905834226
 21
147.9645286966
  0
LINE
  8
4_SURFACE
 62
7
  6
CONTINUOUS
 10
110.2393244059
 20
98.8643768263
 11
110.2432527843
 21
98.9487256137
  0
LINE
  8
4_SURFACE
 62
7
  6
CONTINUOUS
 10
110.7983778824
 20
148.1222018813
 11
110.794511801
 21
148.0488774841
  0
LINE
  8
4_SURFACE
 62
7
  6
CONTINUOUS
 10
110.2354583245
 20
98.791052429
 11
110.2393244059
 21
98.8643768263
  0
POLYLINE
  8
4_SURFACE
 62
7
  6
CONTINUOUS
 66
1
 70
0
  0
VERTEX
  8
4_SURFACE
 62
7
  6
CONTINUOUS
 10
110.7257203429
 20
139.3566271553
  0
VERTEX
  8
4_SURFACE
 62
7
  6
CONTINUOUS
 10
110.7204801332
 20
139.2652086065
  0
VERTEX
  8
4_SURFACE
 62
7
  6
CONTINUOUS
 10
110.6981698805
 20
139.148508875
  0
VERTEX
  8
4_SURFACE
 62
7
  6
CONTINUOUS
 10
110.6587978787
 20
139.0363535523
  0
VERTEX
  8
4_SURFACE
 62
7
  6
CONTINUOUS
 10
110.6032076826
 20
138.9312193729
  0
VERTEX
  8
4_SURFACE
 62
7
  6
CONTINUOUS
 10
110.5326212926
 20
138.8354601986
  0
VERTEX
  8
4_SURFACE
 62
7
  6
CONTINUOUS
 10
110.4486049054
 20
138.7512169366
  0
SEQEND
  0
POLYLINE
  8
4_SURFACE
 62
7
  6
CONTINUOUS
 66
1
 70
0
  0
VERTEX
  8
4_SURFACE
 62
7
  6
CONTINUOUS
 10
110.3081158639
 20
107.5566271551
  0
VERTEX
  8
4_SURFACE
 62
7
  6
CONTINUOUS
 10
110.3133560737
 20
107.6480457039
  0
VERTEX
  8
4_SURFACE
 62
7
  6
CONTINUOUS
 10
110.3356663264
 20
107.7647454354
  0
VERTEX
  8
4_SURFACE
 62
7
  6
CONTINUOUS
 10
110.3750383282
 20
107.8769007581
  0
VERTEX
  8
4_SURFACE
 62
7
  6
CONTINUOUS
 10
110.4306285243
 20
107.9820349374
  0
VERTEX
  8
4_SURFACE
 62
7
  6
CONTINUOUS
 10
110.5012149143
 20
108.0777941117
  0
VERTEX
  8
4_SURFACE
 62
7
  6
CONTINUOUS
 10
110.5852313015
 20
108.1620373737
  0
SEQEND
  0
POLYLINE
  8
4_SURFACE
 62
7
  6
CONTINUOUS
 66
1
 70
0
  0
VERTEX
  8
4_SURFACE
 62
7
  6
CONTINUOUS
 10
110.7257979524
 20
139.3566271552
  0
VERTEX
  8
4_SURFACE
 62
7
  6
CONTINUOUS
 10
110.7179683632
 20
139.2449947652
  0
VERTEX
  8
4_SURFACE
 62
7
  6
CONTINUOUS
 10
110.6940556828
 20
139.1335501491
  0
VERTEX
  8
4_SURFACE
 62
7
  6
CONTINUOUS
 10
110.6540717677
 20
139.0255962541
  0
VERTEX
  8
4_SURFACE
 62
7
  6
CONTINUOUS
 10
110.5989300718
 20
138.9243834359
  0
VERTEX
  8
4_SURFACE
 62
7
  6
CONTINUOUS
 10
110.5302933244
 20
138.8326955168
  0
SEQEND
  0
POLYLINE
  8
4_SURFACE
 62
7
  6
CONTINUOUS
 66
1
 70
0
  0
VERTEX
  8
4_SURFACE
 62
7
  6
CONTINUOUS
 10
110.3080382545
 20
107.5566271552
  0
VERTEX
  8
4_SURFACE
 62
7
  6
CONTINUOUS
 10
110.3158678437
 20
107.6682595452
  0
VERTEX
  8
4_SURFACE
 62
7
  6
CONTINUOUS
 10
110.3397805241
 20
107.7797041613
  0
VERTEX
  8
4_SURFACE
 62
7
  6
CONTINUOUS
 10
110.3797644392
 20
107.8876580563
  0
VERTEX
  8
4_SURFACE
 62
7
  6
CONTINUOUS
 10
110.4349061351
 20
107.9888708744
  0
VERTEX
  8
4_SURFACE
 62
7
  6
CONTINUOUS
 10
110.5035428825
 20
108.0805587936
  0
SEQEND
  0
POLYLINE
  8
4_SURFACE
 62
7
  6
CONTINUOUS
 66
1
 70
0
  0
VERTEX
  8
4_SURFACE
 62
7
  6
CONTINUOUS
 10
119.7942992583
 20
147.8501022518
  0
VERTEX
  8
4_SURFACE
 62
7
  6
CONTINUOUS
 10
119.7375457965
 20
147.68846188
  0
VERTEX
  8
4_SURFACE
 62
7
  6
CONTINUOUS
 10
119.7165086534
 20
147.630307191
  0
VERTEX
  8
4_SURFACE
 62
7
  6
CONTINUOUS
 10
119.6997452581
 20
147.5855274833
  0
SEQEND
  0
POLYLINE
  8
4_SURFACE
 62
7
  6
CONTINUOUS
 66
1
 70
0
  0
VERTEX
  8
4_SURFACE
 62
7
  6
CONTINUOUS
 10
110.5842047092
 20
108.1611925208
  0
VERTEX
  8
4_SURFACE
 62
7
  6
CONTINUOUS
 10
110.6808103379
 20
108.2328907063
  0
VERTEX
  8
4_SURFACE
 62
7
  6
CONTINUOUS
 10
110.7858165015
 20
108.2887800397
  0
VERTEX
  8
4_SURFACE
 62
7
  6
CONTINUOUS
 10
110.8979009701
 20
108.3284747657
  0
VERTEX
  8
4_SURFACE
 62
7
  6
CONTINUOUS
 10
111.0145912911
 20
108.351121275
  0
VERTEX
  8
4_SURFACE
 62
7
  6
CONTINUOUS
 10
111.08146292
 20
108.3561745251
  0
SEQEND
  0
POLYLINE
  8
4_SURFACE
 62
7
  6
CONTINUOUS
 66
1
 70
0
  0
VERTEX
  8
4_SURFACE
 62
7
  6
CONTINUOUS
 10
110.6759407807
 20
108.2298157083
  0
VERTEX
  8
4_SURFACE
 62
7
  6
CONTINUOUS
 10
110.7772090245
 20
108.2849441453
  0
VERTEX
  8
4_SURFACE
 62
7
  6
CONTINUOUS
 10
110.885204329
 20
108.3249089228
  0
VERTEX
  8
4_SURFACE
 62
7
  6
CONTINUOUS
 10
110.9966723581
 20
108.3488045545
  0
VERTEX
  8
4_SURFACE
 62
7
  6
CONTINUOUS
 10
111.0814661138
 20
108.3561768861
  0
SEQEND
  0
LINE
  8
4_SURFACE
 62
7
  6
CONTINUOUS
 10
113.7837691296
 20
148.3740769035
 11
113.8089314629
 21
147.6535219526
  0
LINE
  8
4_SURFACE
 62
7
  6
CONTINUOUS
 10
119.7500670773
 20
148.3740769035
 11
119.7249045598
 21
147.6535166794
  0
POLYLINE
  8
4_SURFACE
 62
7
  6
CONTINUOUS
 66
1
 70
0
  0
VERTEX
  8
4_SURFACE
 62
7
  6
CONTINUOUS
 10
113.8340913883
 20
147.5855263724
  0
VERTEX
  8
4_SURFACE
 62
7
  6
CONTINUOUS
 10
113.8163060982
 20
147.6330847436
  0
VERTEX
  8
4_SURFACE
 62
7
  6
CONTINUOUS
 10
113.7939289468
 20
147.6950981856
  0
SEQEND
  0
LINE
  8
4_SURFACE
 62
7
  6
CONTINUOUS
 10
113.7939289468
 20
147.6950981856
 11
113.7395431248
 21
147.8500846991
  0
LINE
  8
4_SURFACE
 62
7
  6
CONTINUOUS
 10
123.2669181034
 20
109.7566271552
 11
123.2669181034
 21
148.3566271552
  0
LINE
  8
0
 62
7
  6
CONTINUOUS
 10
40.9669181067
 20
195.7448705421
 11
40.969021757
 21
195.6822632928
  0
LINE
  8
0
 62
7
  6
CONTINUOUS
 10
40.9669181034
 20
184.783676748
 11
40.9669181034
 21
196.2393591088
  0
POLYLINE
  8
0
 62
7
  6
CONTINUOUS
 66
1
 70
0
  0
VERTEX
  8
0
 62
7
  6
CONTINUOUS
 10
40.9724826804
 20
195.6825570724
  0
VERTEX
  8
0
 62
7
  6
CONTINUOUS
 10
40.9805443234
 20
195.6466746294
  0
VERTEX
  8
0
 62
7
  6
CONTINUOUS
 10
41.0046838195
 20
195.5819409
  0
VERTEX
  8
0
 62
7
  6
CONTINUOUS
 10
41.0407822381
 20
195.5200123449
  0
VERTEX
  8
0
 62
7
  6
CONTINUOUS
 10
41.0884779466
 20
195.4622660608
  0
VERTEX
  8
0
 62
7
  6
CONTINUOUS
 10
41.1471271892
 20
195.4100204968
  0
VERTEX
  8
0
 62
7
  6
CONTINUOUS
 10
41.2157896451
 20
195.3644840265
  0
VERTEX
  8
0
 62
7
  6
CONTINUOUS
 10
41.2931962801
 20
195.3267353334
  0
VERTEX
  8
0
 62
7
  6
CONTINUOUS
 10
41.3776644767
 20
195.2977219109
  0
VERTEX
  8
0
 62
7
  6
CONTINUOUS
 10
41.4669181034
 20
195.2782557391
  0
SEQEND
  0
LINE
  8
0
 62
7
  6
CONTINUOUS
 10
44.3885226277
 20
192.4924029512
 11
44.2538139949
 21
184.7749505447
  0
LINE
  8
0
 62
7
  6
CONTINUOUS
 10
51.180022212
 20
184.7749505447
 11
51.0453135792
 21
192.4924029512
  0
LINE
  8
0
 62
7
  6
CONTINUOUS
 10
54.130022212
 20
184.7749505447
 11
53.9257979524
 21
196.4749505447
  0
LINE
  8
0
 62
7
  6
CONTINUOUS
 10
69.2580382545
 20
196.4749505447
 11
69.0538139949
 21
184.7749505447
  0
LINE
  8
0
 62
7
  6
CONTINUOUS
 10
71.9038139949
 20
184.7749505447
 11
72.0385226277
 21
192.4924029512
  0
LINE
  8
0
 62
7
  6
CONTINUOUS
 10
41.4669181034
 20
184.283676748
 11
89.8805451789
 21
184.283676748
  0
LINE
  8
4_SURFACE
 62
7
  6
CONTINUOUS
 10
89.8805451789
 20
184.283676748
 11
122.7669181034
 21
184.283676748
  0
LINE
  8
0
 62
7
  6
CONTINUOUS
 10
58.5329185712
 20
190.633676748
 11
64.7787176361
 21
190.633676748
  0
LINE
  8
0
 62
7
  6
CONTINUOUS
 10
99.4551185712
 20
190.633676748
 11
105.7009176361
 21
190.633676748
  0
LINE
  8
1_AXIS
 62
2
  6
CENTER
 10
38.9669181034
 20
190.633676748
 11
125.2669181034
 21
190.633676748
  0
LINE
  8
4_SURFACE
 62
7
  6
CONTINUOUS
 10
119.3462002727
 20
192.983676748
 11
113.6814452253
 21
192.983676748
  0
LINE
  8
0
 62
7
  6
CONTINUOUS
 10
91.7023909816
 20
192.983676748
 11
72.5314452253
 21
192.983676748
  0
LINE
  8
0
 62
7
  6
CONTINUOUS
 10
50.5523909816
 20
192.983676748
 11
44.8876359342
 21
192.983676748
  0
LINE
  8
0
 62
7
  6
CONTINUOUS
 10
43.0085062992
 20
196.983676748
 11
94.1755237735
 21
196.983676748
  0
LINE
  8
4_SURFACE
 62
7
  6
CONTINUOUS
 10
94.1755237735
 20
196.983676748
 11
121.2253299077
 21
196.983676748
  0
LINE
  8
4_SURFACE
 62
7
  6
CONTINUOUS
 10
92.330022212
 20
184.7749505447
 11
92.1953135792
 21
192.4924029512
  0
LINE
  8
4_SURFACE
 62
7
  6
CONTINUOUS
 10
94.9757979524
 20
196.4749505447
 11
95.180022212
 21
184.7749505447
  0
LINE
  8
0
 62
7
  6
CONTINUOUS
 10
41.3045493267
 20
196.6512029926
 11
42.9261375224
 21
196.9755206317
  0
LINE
  8
4_SURFACE
 62
7
  6
CONTINUOUS
 10
122.9292868802
 20
196.6512029926
 11
121.3076986845
 21
196.9755206317
  0
LINE
  8
4_SURFACE
 62
7
  6
CONTINUOUS
 10
110.1038139949
 20
184.7749505447
 11
110.3080382545
 21
196.4749505447
  0
LINE
  8
4_SURFACE
 62
7
  6
CONTINUOUS
 10
113.1885226277
 20
192.4924029512
 11
113.0538139949
 21
184.7749505447
  0
LINE
  8
4_SURFACE
 62
7
  6
CONTINUOUS
 10
119.8453135792
 20
192.4924029512
 11
119.980022212
 21
184.7749505447
  0
LINE
  8
4_SURFACE
 62
7
  6
CONTINUOUS
 10
123.2669181034
 20
184.783676748
 11
123.2669181034
 21
196.2393591088
  0
LINE
  8
4_SURFACE
 62
7
  6
CONTINUOUS
 10
123.2648164668
 20
195.6822934905
 11
123.2669181004
 21
195.7448770155
  0
POLYLINE
  8
4_SURFACE
 62
7
  6
CONTINUOUS
 66
1
 70
0
  0
VERTEX
  8
4_SURFACE
 62
7
  6
CONTINUOUS
 10
123.2613587061
 20
195.6825868007
  0
VERTEX
  8
4_SURFACE
 62
7
  6
CONTINUOUS
 10
123.2532918835
 20
195.6466746294
  0
VERTEX
  8
4_SURFACE
 62
7
  6
CONTINUOUS
 10
123.2291523874
 20
195.5819409
  0
VERTEX
  8
4_SURFACE
 62
7
  6
CONTINUOUS
 10
123.1930539688
 20
195.5200123449
  0
VERTEX
  8
4_SURFACE
 62
7
  6
CONTINUOUS
 10
123.1453582603
 20
195.4622660608
  0
VERTEX
  8
4_SURFACE
 62
7
  6
CONTINUOUS
 10
123.0867090177
 20
195.4100204968
  0
VERTEX
  8
4_SURFACE
 62
7
  6
CONTINUOUS
 10
123.0180465618
 20
195.3644840265
  0
VERTEX
  8
4_SURFACE
 62
7
  6
CONTINUOUS
 10
122.9406399268
 20
195.3267353334
  0
VERTEX
  8
4_SURFACE
 62
7
  6
CONTINUOUS
 10
122.8561717302
 20
195.2977219109
  0
VERTEX
  8
4_SURFACE
 62
7
  6
CONTINUOUS
 10
122.7669181034
 20
195.2782557391
  0
SEQEND
  0
LINE
  8
0
 62
7
  6
CONTINUOUS
 10
163.1958605382
 20
98.0566271552
 11
163.1959152775
 21
98.0566271556
  0
LINE
  8
0
 62
7
  6
CONTINUOUS
 10
156.8552922888
 20
103.1698327586
 11
156.8458400023
 21
103.1686271552
  0
LINE
  8
0
 62
7
  6
CONTINUOUS
 10
157.337113799
 20
103.2237315683
 11
156.8552922888
 21
103.1698327586
  0
LINE
  8
0
 62
7
  6
CONTINUOUS
 10
168.9283140914
 20
108.3566271552
 11
169.0458400023
 21
108.3566271552
  0
LINE
  8
0
 62
7
  6
CONTINUOUS
 10
165.5442718257
 20
110.9966271552
 11
157.3458400023
 21
110.9966271552
  0
LINE
  8
0
 62
7
  6
CONTINUOUS
 10
158.1608157656
 20
113.6889360318
 11
165.5442717561
 21
110.9971988802
  0
LINE
  8
0
 62
7
  6
CONTINUOUS
 10
168.2750028576
 20
109.8224401763
 11
168.3980993079
 21
109.7566271552
  0
LINE
  8
0
 62
7
  6
CONTINUOUS
 10
156.8458400023
 20
143.7446271552
 11
156.8458400023
 21
103.1686271552
  0
LINE
  8
DEFAULT_1
 62
2
  6
CENTER
 10
163.1958400023
 20
96.0566271547
 11
163.1958400023
 21
150.8566271556
  0
LINE
  8
4_SURFACE
 62
7
  6
CONTINUOUS
 10
169.5458400023
 20
108.8566271552
 11
169.5458400023
 21
107.5566271552
  0
LINE
  8
0
 62
7
  6
CONTINUOUS
 10
169.5458400023
 20
104.4066271552
 11
169.5458400023
 21
142.5066271552
  0
POLYLINE
  8
0
 62
7
  6
CONTINUOUS
 66
1
 70
0
  0
VERTEX
  8
0
 62
7
  6
CONTINUOUS
 10
168.2750028576
 20
109.8224401767
  0
VERTEX
  8
0
 62
7
  6
CONTINUOUS
 10
168.1441041543
 20
109.7383354997
  0
VERTEX
  8
0
 62
7
  6
CONTINUOUS
 10
168.0821755993
 20
109.6993785845
  0
VERTEX
  8
0
 62
7
  6
CONTINUOUS
 10
168.0244293151
 20
109.6642394832
  0
VERTEX
  8
0
 62
7
  6
CONTINUOUS
 10
167.9721837512
 20
109.6343561732
  0
VERTEX
  8
0
 62
7
  6
CONTINUOUS
 10
167.9266472809
 20
109.6112638706
  0
VERTEX
  8
0
 62
7
  6
CONTINUOUS
 10
167.8888985877
 20
109.5965821935
  0
VERTEX
  8
0
 62
7
  6
CONTINUOUS
 10
167.8598851652
 20
109.5919753424
  0
VERTEX
  8
0
 62
7
  6
CONTINUOUS
 10
167.8404189935
 20
109.599022642
  0
SEQEND
  0
LINE
  8
0
 62
7
  6
CONTINUOUS
 10
157.3458400023
 20
143.6895259792
 11
156.8458400023
 21
143.7446271552
  0
ARC
  8
4_SURFACE
 62
7
  6
CONTINUOUS
 10
121.8669181034
 20
109.7566271552
 40
1.4
 50
270.0
 51
360.0
  0
ARC
  8
0
 62
7
  6
CONTINUOUS
 10
42.3669181034
 20
109.7566271552
 40
1.4
 50
180.0
 51
270.0
  0
ARC
  8
4_SURFACE
 62
7
  6
CONTINUOUS
 10
122.7669181034
 20
148.3566271556
 40
0.5
 50
0.0
 51
90.0
  0
ARC
  8
4_SURFACE
 62
7
  6
CONTINUOUS
 10
120.2497624643
 20
148.356626394
 40
0.5
 50
89.9999969542
 51
177.9999127278
  0
ARC
  8
4_SURFACE
 62
7
  6
CONTINUOUS
 10
113.2840737279
 20
148.3566268165
 40
0.5
 50
2.0000388335
 51
90.0000013552
  0
ARC
  8
0
 62
7
  6
CONTINUOUS
 10
41.4669181034
 20
148.3566271556
 40
0.5
 50
90.0
 51
180.0000000494
  0
ARC
  8
0
 62
7
  6
CONTINUOUS
 10
43.9840737426
 20
148.356626394
 40
0.5
 50
2.0000872722
 51
90.0000030457
  0
ARC
  8
0
 62
7
  6
CONTINUOUS
 10
50.949762479
 20
148.3566268165
 40
0.5
 50
89.9999986448
 51
177.9999611665
  0
ARC
  8
0
 62
7
  6
CONTINUOUS
 10
71.4038890459
 20
184.783676748
 40
0.5
 50
270.0001262164
 51
359.0000022027
  0
ARC
  8
0
 62
7
  6
CONTINUOUS
 10
68.5538901473
 20
184.783676748
 40
0.5
 50
270.0
 51
359.0
  0
ARC
  8
0
 62
7
  6
CONTINUOUS
 10
51.6799468422
 20
184.783676748
 40
0.5
 50
180.9999984349
 51
269.9999103205
  0
ARC
  8
0
 62
7
  6
CONTINUOUS
 10
54.6299460596
 20
184.783676748
 40
0.5
 50
181.0
 51
270.0
  0
ARC
  8
0
 62
7
  6
CONTINUOUS
 10
41.4669181034
 20
184.783676748
 40
0.5
 50
180.0
 51
270.0
  0
ARC
  8
0
 62
7
  6
CONTINUOUS
 10
43.7538922185
 20
184.783676748
 40
0.4999993097
 50
269.9997626556
 51
358.9999958577
  0
ARC
  8
0
 62
7
  6
CONTINUOUS
 10
68.758114407
 20
196.483676748
 40
0.5
 50
359.0
 51
90.0
  0
ARC
  8
0
 62
7
  6
CONTINUOUS
 10
72.5384464753
 20
192.483676748
 40
0.5
 50
90.7997619845
 51
179.0
  0
ARC
  8
0
 62
7
  6
CONTINUOUS
 10
50.5453883127
 20
192.483676748
 40
0.5
 50
0.9999971623
 51
89.2000756982
  0
ARC
  8
0
 62
7
  6
CONTINUOUS
 10
44.8884464753
 20
192.483676748
 40
0.5
 50
90.0
 51
179.0
  0
ARC
  8
0
 62
7
  6
CONTINUOUS
 10
54.4257194323
 20
196.483676748
 40
0.4999990895
 50
89.9997286858
 51
181.0000047351
  0
ARC
  8
0
 62
7
  6
CONTINUOUS
 10
43.0085062992
 20
196.563676748
 40
0.42
 50
90.0
 51
101.309932474
  0
ARC
  8
0
 62
7
  6
CONTINUOUS
 10
41.3869181034
 20
196.2393591088
 40
0.42
 50
101.309932474
 51
180.0
  0
ARC
  8
4_SURFACE
 62
7
  6
CONTINUOUS
 10
122.7669181034
 20
184.783676748
 40
0.5
 50
270.0
 51
360.0
  0
ARC
  8
4_SURFACE
 62
7
  6
CONTINUOUS
 10
109.6038901473
 20
184.783676748
 40
0.5
 50
270.0
 51
359.0
  0
ARC
  8
4_SURFACE
 62
7
  6
CONTINUOUS
 10
112.5538901473
 20
184.783676748
 40
0.5
 50
270.0
 51
359.0
  0
ARC
  8
4_SURFACE
 62
7
  6
CONTINUOUS
 10
95.6799460596
 20
184.783676748
 40
0.5
 50
181.0
 51
270.0
  0
ARC
  8
4_SURFACE
 62
7
  6
CONTINUOUS
 10
92.8299460596
 20
184.783676748
 40
0.5
 50
181.0000376368
 51
269.9999927404
  0
ARC
  8
4_SURFACE
 62
7
  6
CONTINUOUS
 10
120.4799439884
 20
184.783676748
 40
0.4999993097
 50
181.0000041423
 51
270.0002373444
  0
ARC
  8
4_SURFACE
 62
7
  6
CONTINUOUS
 10
119.3453897316
 20
192.483676748
 40
0.5
 50
1.0
 51
90.0
  0
ARC
  8
4_SURFACE
 62
7
  6
CONTINUOUS
 10
113.6884464753
 20
192.483676748
 40
0.5
 50
90.7997619845
 51
179.0
  0
ARC
  8
4_SURFACE
 62
7
  6
CONTINUOUS
 10
91.695389184
 20
192.483676748
 40
0.5
 50
0.9999989049
 51
89.2002380155
  0
ARC
  8
4_SURFACE
 62
7
  6
CONTINUOUS
 10
95.4757218043
 20
196.4836764978
 40
0.5
 50
90.0000005003
 51
180.9999713344
  0
ARC
  8
4_SURFACE
 62
7
  6
CONTINUOUS
 10
109.8081167746
 20
196.483676748
 40
0.4999990895
 50
358.9999952649
 51
90.0002713142
  0
ARC
  8
4_SURFACE
 62
7
  6
CONTINUOUS
 10
122.8469147565
 20
196.2393597782
 40
0.42
 50
359.9999086862
 51
78.6896019019
  0
ARC
  8
4_SURFACE
 62
7
  6
CONTINUOUS
 10
121.2253332322
 20
196.5636760831
 40
0.42
 50
78.6905300294
 51
90.0004535201
  0
ARC
  8
0
 62
7
  6
CONTINUOUS
 10
158.8458400023
 20
115.5679628531
 40
2.0
 50
180.0
 51
249.97
  0
ARC
  8
0
 62
7
  6
CONTINUOUS
 10
157.3458400023
 20
111.4966247903
 40
0.4999990904
 50
179.9997290017
 51
270.0
  0
ARC
  8
0
 62
7
  6
CONTINUOUS
 10
163.1963512546
 20
104.5568346411
 40
6.855
 50
33.8856307322
 51
69.97
  0
ARC
  8
4_SURFACE
 62
7
  6
CONTINUOUS
 10
163.1959152775
 20
104.5566271547
 40
6.5
 50
192.3297961702
 51
264.4517416296
  0
ARC
  8
4_SURFACE
 62
7
  6
CONTINUOUS
 10
163.1959152775
 20
104.5566271547
 40
6.5
 50
264.6358990136
 51
270.0
  0
ARC
  8
0
 62
7
  6
CONTINUOUS
 10
163.1959152775
 20
104.5566271547
 40
6.5
 50
192.3297961702
 51
269.9996994122
  0
ARC
  8
0
 62
7
  6
CONTINUOUS
 10
163.1958400023
 20
104.4066271552
 40
6.35
 50
270.0006792053
 51
360.0
  0
ARC
  8
4_SURFACE
 62
7
  6
CONTINUOUS
 10
163.1958400023
 20
104.4066271552
 40
6.35
 50
354.375358752
 51
360.0
  0
ARC
  8
4_SURFACE
 62
7
  6
CONTINUOUS
 10
163.1958400023
 20
104.4066271552
 40
6.35
 50
270.0006792053
 51
275.6262268835
  0
CIRCLE
  8
1_AXIS
 62
7
  6
CONTINUOUS
 10
163.1958400023
 20
104.4066271552
 40
3.25
  0
ARC
  8
4_SURFACE
 62
7
  6
CONTINUOUS
 10
169.0458400023
 20
108.8566271552
 40
0.5
 50
280.9884413852
 51
350.0242038472
  0
ARC
  8
0
 62
7
  6
CONTINUOUS
 10
169.0458400023
 20
108.8566271552
 40
0.5
 50
270.0
 51
360.0
  0
ARC
  8
0
 62
7
  6
CONTINUOUS
 10
168.9285517569
 20
108.4066271552
 40
0.05
 50
213.8856307322
 51
270.0000000001
  0
ARC
  8
4_SURFACE
 62
7
  6
CONTINUOUS
 10
163.1959152775
 20
142.3566271556
 40
6.5
 50
90.0
 51
95.3629726792
  0
ARC
  8
4_SURFACE
 62
7
  6
CONTINUOUS
 10
163.1959152775
 20
142.3566271556
 40
6.5
 50
106.8563067138
 51
112.1149093493
  0
ARC
  8
4_SURFACE
 62
7
  6
CONTINUOUS
 10
163.1959152775
 20
142.3566271556
 40
6.5
 50
100.9868300648
 51
101.322206726
  0
ARC
  8
4_SURFACE
 62
7
  6
CONTINUOUS
 10
163.1959152775
 20
142.3566271556
 40
6.5
 50
112.121922326
 51
112.2540512941
  0
ARC
  8
4_SURFACE
 62
7
  6
CONTINUOUS
 10
163.1959152775
 20
142.3566271556
 40
6.5
 50
115.1543948523
 51
143.7914388357
  0
ARC
  8
4_SURFACE
 62
7
  6
CONTINUOUS
 10
163.1959152775
 20
142.3566271556
 40
6.5
 50
152.0186872235
 51
156.421932534
  0
ARC
  8
4_SURFACE
 62
7
  6
CONTINUOUS
 10
163.1959152775
 20
142.3566271556
 40
6.5
 50
156.6140842399
 51
167.6702038298
  0
ARC
  8
0
 62
7
  6
CONTINUOUS
 10
163.1959152775
 20
142.3566271556
 40
6.5
 50
90.0
 51
167.6702038298
  0
ARC
  8
0
 62
7
  6
CONTINUOUS
 10
163.1958400023
 20
142.5066271552
 40
6.35
 50
0.0
 51
89.9993207947
  0
ARC
  8
4_SURFACE
 62
7
  6
CONTINUOUS
 10
163.1958400023
 20
142.5066271552
 40
6.35
 50
45.7269781258
 51
46.1548586741
  0
ARC
  8
4_SURFACE
 62
7
  6
CONTINUOUS
 10
163.1958400023
 20
142.5066271552
 40
6.35
 50
80.4281498738
 51
83.1083477208
  0
ARC
  8
4_SURFACE
 62
7
  6
CONTINUOUS
 10
163.1958400023
 20
142.5066271552
 40
6.35
 50
84.7821446117
 51
89.9993207947
  0
ARC
  8
4_SURFACE
 62
7
  6
CONTINUOUS
 10
163.1958400023
 20
142.5066271552
 40
6.35
 50
74.2365845981
 51
79.536898921
  0
ARC
  8
4_SURFACE
 62
7
  6
CONTINUOUS
 10
163.1958400023
 20
142.5066271552
 40
6.35
 50
66.4416624576
 51
72.2782476518
  0
ARC
  8
4_SURFACE
 62
7
  6
CONTINUOUS
 10
163.1958400023
 20
142.5066271552
 40
6.35
 50
18.5580497091
 51
22.3980474782
  0
ARC
  8
4_SURFACE
 62
7
  6
CONTINUOUS
 10
163.1958400023
 20
142.5066271552
 40
6.35
 50
0.0
 51
5.624641248
  0
CIRCLE
  8
1_AXIS
 62
7
  6
CONTINUOUS
 10
163.1958400023
 20
142.5066271552
 40
3.25
  0
ENDSEC
  0
EOF
