  0
SECTION
  2
HEADER
  9
$EXTMAX
 10
210.0
 20
297.0
 30
0.0
  9
$EXTMIN
 10
0.0
 20
0.0
 30
0.0
  9
$LIMMIN
 10
0.0
 20
0.0
  9
$LIMMAX
 10
210.0
 20
297.0
  9
$VIEWCTR
 10
105.0
 20
148.5
  9
$VIEWSIZE
 40
297.0
  9
$CLAYER
  8
0
  9
$LTSCALE
 40
19.36
  9
$CELTYPE
  6
BYLAYER
  9
$DIMSCALE
 40
1.0
  9
$DIMASZ
 40
3.5
  9
$DIMEXO
 40
2.2
  9
$DIMDLI
 40
13.376
  9
$DIMEXE
 40
6.336
  9
$DIMCEN
 40
3.168
  9
$DIMLFAC
 40
1.0
  9
$DIMBLK
  1
_FILLED
  9
$DIMTXT
 40
3.5
  9
$PDMODE
 70
3
  9
$PDSIZE
 40
0.3125
  9
$TILEMODE
 70
1
  0
ENDSEC
  0
SECTION
  2
TABLES
  0
TABLE
  2
LTYPE
 70
6
  0
LTYPE
  2
BYBLOCK
 70
0
  3

 72
65
 73
0
 40
0.0
  0
LTYPE
  2
BYLAYER
 70
0
  3

 72
65
 73
0
 40
0.0
  0
LTYPE
  2
CONTINUOUS
 70
64
  3
Solid line
 72
65
 73
0
 40
0.0
  0
LTYPE
  2
CENTER
 70
64
  3
____ _ ____ _ ____ _ ____ _ ____ _ ____ _ ____
 72
65
 73
4
 40
0.6
 49
0.375
 49
-0.075
 49
0.075
 49
-0.075
  0
LTYPE
  2
HIDDEN
 70
64
  3
- - - - - - - - - - - - - - - - - - - -
 72
65
 73
2
 40
0.2
 49
0.1
 49
-0.1
  0
LTYPE
  2
PHANTOM
 70
64
  3
_____ _ _ _____ _ _ _____ _ _ _____
 72
65
 73
6
 40
0.8
 49
0.45
 49
-0.05
 49
0.1
 49
-0.05
 49
0.1
 49
-0.05
  0
LTYPE
  2
DOT
 70
64
  3
. . . . . . . . . . . . . . . . . . . .
 72
65
 73
2
 40
0.2
 49
0.1
 49
-0.1
  0
LTYPE
  2
DASHED
 70
64
  3
- - - - - - - - - - - - - - - - - - - -
 72
65
 73
2
 40
0.2
 49
0.1
 49
-0.1
  0
ENDTAB
  0
TABLE
  2
LAYER
 70
36
  0
LAYER
  2
0
 70
0
 62
7
  6
CONTINUOUS
  0
LAYER
  2
DEFAULT_1
 70
0
 62
7
  6
CENTER
  0
LAYER
  2
DEFAULT_2
 70
0
 62
8
  6
HIDDEN
  0
LAYER
  2
DEFAULT_3
 70
0
 62
7
  6
PHANTOM
  0
LAYER
  2
1_AXIS
 70
0
 62
7
  6
CONTINUOUS
  0
LAYER
  2
1_CSYS
 70
0
 62
7
  6
CONTINUOUS
  0
LAYER
  2
1_DATUMPLANE
 70
0
 62
7
  6
CONTINUOUS
  0
LAYER
  2
1_DATUM_PLANE
 70
0
 62
7
  6
CONTINUOUS
  0
LAYER
  2
4_QUILT
 70
0
 62
7
  6
CONTINUOUS
  0
LAYER
  2
4_SURFACE
 70
0
 62
7
  6
CONTINUOUS
  0
LAYER
  2
6_DIM
 70
0
 62
7
  6
CONTINUOUS
  0
LAYER
  2
6_NOTE
 70
0
 62
7
  6
CONTINUOUS
  0
LAYER
  2
AXES
 70
0
 62
7
  6
CONTINUOUS
  0
LAYER
  2
PLANES
 70
0
 62
7
  6
CONTINUOUS
  0
LAYER
  2
SUF
 70
0
 62
7
  6
CONTINUOUS
  0
ENDTAB
  0
TABLE
  2
STYLE
 70
1
  0
STYLE
  2
STANDARD
 70
0
 40
0.0
 41
0.8
 50
0.0
 71
0
 42
0.2
  3
txt
  4

  0
STYLE
  2
TEXTSTYLE_1
 70
0
 40
0.0
 41
0.8
 50
0.0
 71
0
 42
0.2
  3
gdt
  4

  0
STYLE
  2
TEXTSTYLE_2
 70
0
 40
0.0
 41
0.6
 50
0.0
 71
0
 42
0.2
  3
txt
  4

  0
STYLE
  2
TEXTSTYLE_3
 70
0
 40
0.0
 41
1.0
 50
0.0
 71
0
 42
0.2
  3
ftb_____.ttf
  4

  0
STYLE
  2
TEXTSTYLE_4
 70
0
 40
0.0
 41
1.0
 50
0.0
 71
0
 42
0.2
  3
fti_____.ttf
  4

  0
STYLE
  2
TEXTSTYLE_5
 70
0
 40
0.0
 41
1.0
 50
0.0
 71
0
 42
0.2
  3
frutiger light.ttf
  4

  0
STYLE
  2
TEXTSTYLE_6
 70
0
 40
0.0
 41
0.7
 50
0.0
 71
0
 42
0.2
  3
txt
  4

  0
STYLE
  2
TEXTSTYLE_7
 70
0
 40
0.0
 41
0.7
 50
0.0
 71
0
 42
0.2
  3
txt
  4

  0
ENDTAB
  0
ENDSEC
  0
SECTION
  2
BLOCKS
  0
BLOCK
  8
0
 62
2
  6
CONTINUOUS
  2
SYMBOL_8_BL1
 70
64
 10
173.5956734183
 20
35.5937998301
  0
TEXT
  8
0
 62
7
  6
CONTINUOUS
 10
164.6539584268
 20
30.6865562072
  7
TEXTSTYLE_4
 40
1.0655737705
  1
The brand for plastic modular belts and chains
 41
1.0
 72
0
  0
LINE
  8
0
 62
7
  6
CONTINUOUS
 10
149.5737418074
 20
36.1675703219
 11
149.5737418074
 21
34.0364227809
  0
LINE
  8
0
 62
7
  6
CONTINUOUS
 10
149.8628043005
 20
31.0454914852
 11
149.8628043005
 21
31.1422825445
  0
LINE
  8
0
 62
7
  6
CONTINUOUS
 10
149.5737418074
 20
31.1100188581
 11
149.6315543091
 21
30.9164367395
  0
LINE
  8
0
 62
7
  6
CONTINUOUS
 10
150.9671844304
 20
33.9544555678
 11
150.9671844304
 21
36.1675703219
  0
LINE
  8
0
 62
7
  6
CONTINUOUS
 10
151.8862417523
 20
32.1101932727
 11
151.8862417523
 21
30.5937998301
  0
LINE
  8
0
 62
7
  6
CONTINUOUS
 10
152.1753043074
 20
30.5937998301
 11
152.1753043074
 21
31.3358647082
  0
LINE
  8
0
 62
7
  6
CONTINUOUS
 10
152.1753043074
 20
31.4649194539
 11
152.1753043074
 21
32.1101932727
  0
LINE
  8
0
 62
7
  6
CONTINUOUS
 10
149.6315543091
 20
31.3036010218
 11
149.5737418074
 21
31.1100188581
  0
LINE
  8
0
 62
7
  6
CONTINUOUS
 10
149.9784292936
 20
30.8841730531
 11
149.8628043005
 21
31.0454914852
  0
LINE
  8
0
 62
7
  6
CONTINUOUS
 10
151.0768668626
 20
31.400392081
 11
151.1346793074
 21
31.3036010218
  0
LINE
  8
0
 62
7
  6
CONTINUOUS
 10
151.4237418626
 20
31.3036010218
 11
151.3659292523
 21
31.4326557675
  0
LINE
  8
0
 62
7
  6
CONTINUOUS
 10
152.852430332
 20
36.1675703219
 11
152.852430332
 21
34.3642916334
  0
LINE
  8
0
 62
7
  6
CONTINUOUS
 10
152.852430332
 20
33.0528162235
 11
152.852430332
 21
32.3970785186
  0
LINE
  8
0
 62
7
  6
CONTINUOUS
 10
153.2159293074
 20
31.2390736489
 11
153.2159293074
 21
30.5937998301
  0
LINE
  8
0
 62
7
  6
CONTINUOUS
 10
153.5049916972
 20
30.5937998301
 11
153.5049916972
 21
31.2390736489
  0
LINE
  8
0
 62
7
  6
CONTINUOUS
 10
149.8628043005
 20
31.1422825445
 11
149.9206168074
 21
31.2713373354
  0
LINE
  8
0
 62
7
  6
CONTINUOUS
 10
149.6315543091
 20
30.9164367395
 11
149.7471793074
 21
30.7873819712
  0
LINE
  8
0
 62
7
  6
CONTINUOUS
 10
153.1581166972
 20
31.3681283946
 11
153.2159293074
 21
31.2390736489
  0
LINE
  8
0
 62
7
  6
CONTINUOUS
 10
153.9674919177
 20
30.8841730531
 11
154.0253041972
 21
30.7551182848
  0
LINE
  8
0
 62
7
  6
CONTINUOUS
 10
153.5049916972
 20
31.2390736489
 11
153.4471794177
 21
31.400392081
  0
LINE
  8
0
 62
7
  6
CONTINUOUS
 10
153.9674919177
 20
31.4326557675
 11
153.9674919177
 21
31.3681283946
  0
LINE
  8
0
 62
7
  6
CONTINUOUS
 10
153.9674919177
 20
30.9809641124
 11
153.9674919177
 21
30.8841730531
  0
LINE
  8
0
 62
7
  6
CONTINUOUS
 10
154.245872955
 20
32.3970785186
 11
154.245872955
 21
36.1675703219
  0
LINE
  8
0
 62
7
  6
CONTINUOUS
 10
154.2565543074
 20
30.8519093441
 11
154.2565543074
 21
30.9164367395
  0
LINE
  8
0
 62
7
  6
CONTINUOUS
 10
154.5737418074
 20
36.1675703219
 11
154.5737418074
 21
32.3970785186
  0
LINE
  8
0
 62
7
  6
CONTINUOUS
 10
151.3659292523
 20
30.7873819712
 11
151.4237418626
 21
30.9164367395
  0
LINE
  8
0
 62
7
  6
CONTINUOUS
 10
155.759679528
 20
30.6905909007
 11
155.7018665869
 21
30.8519093441
  0
LINE
  8
0
 62
7
  6
CONTINUOUS
 10
155.412804528
 20
31.3681283946
 11
155.412804528
 21
31.2713373354
  0
LINE
  8
0
 62
7
  6
CONTINUOUS
 10
155.412804528
 20
31.1422825445
 11
155.412804528
 21
30.9487004259
  0
LINE
  8
0
 62
7
  6
CONTINUOUS
 10
155.7018665869
 20
30.8519093441
 11
155.7018665869
 21
31.3681283946
  0
LINE
  8
0
 62
7
  6
CONTINUOUS
 10
155.9671844304
 20
32.3970785186
 11
155.9671844304
 21
34.2003572071
  0
LINE
  8
0
 62
7
  6
CONTINUOUS
 10
155.9671844304
 20
35.511832617
 11
155.9671844304
 21
36.1675703219
  0
LINE
  8
0
 62
7
  6
CONTINUOUS
 10
156.279992028
 20
32.1101932727
 11
156.279992028
 21
31.9488748406
  0
LINE
  8
0
 62
7
  6
CONTINUOUS
 10
156.279992028
 20
31.626237886
 11
156.279992028
 21
30.5937998301
  0
LINE
  8
0
 62
7
  6
CONTINUOUS
 10
156.5690540869
 20
30.5937998301
 11
156.5690540869
 21
31.626237886
  0
LINE
  8
0
 62
7
  6
CONTINUOUS
 10
156.5690540869
 20
31.9488748406
 11
156.5690540869
 21
32.1101932727
  0
LINE
  8
0
 62
7
  6
CONTINUOUS
 10
151.1346793074
 20
30.9164367395
 11
151.0768668626
 21
30.8196456577
  0
LINE
  8
0
 62
7
  6
CONTINUOUS
 10
153.4471794177
 20
31.400392081
 11
153.3893668074
 21
31.4649194539
  0
LINE
  8
0
 62
7
  6
CONTINUOUS
 10
154.3143669177
 20
30.7873819712
 11
154.2565543074
 21
30.8519093441
  0
LINE
  8
0
 62
7
  6
CONTINUOUS
 10
155.4706168074
 20
30.6583272086
 11
155.5284290869
 21
30.5937998301
  0
LINE
  8
0
 62
7
  6
CONTINUOUS
 10
155.412804528
 20
30.7551182848
 11
155.4706168074
 21
30.6583272086
  0
LINE
  8
0
 62
7
  6
CONTINUOUS
 10
155.8174918074
 20
30.5937998301
 11
155.759679528
 21
30.6905909007
  0
LINE
  8
0
 62
7
  6
CONTINUOUS
 10
155.7018665869
 20
31.3681283946
 11
155.6440543074
 21
31.4649194539
  0
LINE
  8
0
 62
7
  6
CONTINUOUS
 10
157.0315543074
 20
31.626237886
 11
157.0315543074
 21
30.5937998301
  0
LINE
  8
0
 62
7
  6
CONTINUOUS
 10
157.320617028
 20
30.5937998301
 11
157.320617028
 21
31.3358647082
  0
LINE
  8
0
 62
7
  6
CONTINUOUS
 10
157.320617028
 20
31.4649194539
 11
157.320617028
 21
31.626237886
  0
LINE
  8
0
 62
7
  6
CONTINUOUS
 10
157.852430332
 20
34.6101932727
 11
157.852430332
 21
32.3970785186
  0
LINE
  8
0
 62
7
  6
CONTINUOUS
 10
149.7471793074
 20
31.4326557675
 11
149.6315543091
 21
31.3036010218
  0
LINE
  8
0
 62
7
  6
CONTINUOUS
 10
149.9206168074
 20
31.2713373354
 11
149.9784292936
 21
31.3358647082
  0
LINE
  8
0
 62
7
  6
CONTINUOUS
 10
149.7471793074
 20
30.7873819712
 11
149.8628043005
 21
30.7228545871
  0
LINE
  8
0
 62
7
  6
CONTINUOUS
 10
150.1518667936
 20
30.7873819712
 11
149.9784292936
 21
30.8841730531
  0
LINE
  8
0
 62
7
  6
CONTINUOUS
 10
155.3549915869
 20
31.4326557675
 11
155.412804528
 21
31.3681283946
  0
LINE
  8
0
 62
7
  6
CONTINUOUS
 10
158.3034290869
 20
31.3681283946
 11
158.361242028
 21
31.2068099625
  0
LINE
  8
0
 62
7
  6
CONTINUOUS
 10
158.6503040869
 20
31.2068099625
 11
158.5924918074
 21
31.3681283946
  0
LINE
  8
0
 62
7
  6
CONTINUOUS
 10
158.361242028
 20
31.2068099625
 11
158.361242028
 21
30.5937998301
  0
LINE
  8
0
 62
7
  6
CONTINUOUS
 10
158.6503040869
 20
30.5937998301
 11
158.6503040869
 21
31.2068099625
  0
LINE
  8
0
 62
7
  6
CONTINUOUS
 10
159.1128043074
 20
31.4326557675
 11
159.1128043074
 21
31.3681283946
  0
LINE
  8
0
 62
7
  6
CONTINUOUS
 10
159.245872955
 20
32.3970785186
 11
159.245872955
 21
34.5282260596
  0
LINE
  8
0
 62
7
  6
CONTINUOUS
 10
159.5737418074
 20
36.1675703219
 11
159.5737418074
 21
32.3970785186
  0
LINE
  8
0
 62
7
  6
CONTINUOUS
 10
154.2565543074
 20
30.9164367395
 11
154.3143669177
 21
31.0132277988
  0
LINE
  8
0
 62
7
  6
CONTINUOUS
 10
149.8628043005
 20
30.7228545871
 11
150.0362418212
 21
30.6583272086
  0
LINE
  8
0
 62
7
  6
CONTINUOUS
 10
151.3659292523
 20
31.4326557675
 11
151.1924917523
 21
31.5294468267
  0
LINE
  8
0
 62
7
  6
CONTINUOUS
 10
154.0253041972
 20
30.7551182848
 11
154.1987416972
 21
30.6583272086
  0
LINE
  8
0
 62
7
  6
CONTINUOUS
 10
153.0424918074
 20
31.4326557675
 11
153.1581166972
 21
31.3681283946
  0
LINE
  8
0
 62
7
  6
CONTINUOUS
 10
153.3893668074
 20
31.4649194539
 11
153.2737419177
 21
31.5294468267
  0
LINE
  8
0
 62
7
  6
CONTINUOUS
 10
159.1128043074
 20
30.8519093441
 11
159.228429528
 21
30.7228545871
  0
LINE
  8
0
 62
7
  6
CONTINUOUS
 10
159.4596793074
 20
30.7873819712
 11
159.401867028
 21
30.8519093441
  0
LINE
  8
0
 62
7
  6
CONTINUOUS
 10
159.1128043074
 20
31.3681283946
 11
159.228429528
 21
31.2390736489
  0
LINE
  8
0
 62
7
  6
CONTINUOUS
 10
158.5924918074
 20
31.3681283946
 11
158.534679528
 21
31.4649194539
  0
LINE
  8
0
 62
7
  6
CONTINUOUS
 10
160.9628038663
 20
30.7873819712
 11
160.9628038663
 21
30.8519093441
  0
LINE
  8
0
 62
7
  6
CONTINUOUS
 10
160.9671844304
 20
32.3970785186
 11
160.9671844304
 21
36.1675703219
  0
LINE
  8
0
 62
7
  6
CONTINUOUS
 10
154.0253041972
 20
31.4971831403
 11
153.9674919177
 21
31.4326557675
  0
LINE
  8
0
 62
7
  6
CONTINUOUS
 10
150.9034292799
 20
31.4649194539
 11
151.0768668626
 21
31.400392081
  0
LINE
  8
0
 62
7
  6
CONTINUOUS
 10
155.6440543074
 20
31.4649194539
 11
155.5284290869
 21
31.5294468267
  0
LINE
  8
0
 62
7
  6
CONTINUOUS
 10
159.4596793074
 20
31.3036010218
 11
159.401867028
 21
31.3681283946
  0
LINE
  8
0
 62
7
  6
CONTINUOUS
 10
160.615929528
 20
30.9164367395
 11
160.6737418074
 21
30.8519093441
  0
LINE
  8
0
 62
7
  6
CONTINUOUS
 10
160.9628038663
 20
30.8519093441
 11
160.8471793074
 21
30.9809641124
  0
LINE
  8
0
 62
7
  6
CONTINUOUS
 10
160.615929528
 20
31.4326557675
 11
160.6737418074
 21
31.3681283946
  0
LINE
  8
0
 62
7
  6
CONTINUOUS
 10
160.9628038663
 20
31.3681283946
 11
160.8471793074
 21
31.4971831403
  0
LINE
  8
0
 62
7
  6
CONTINUOUS
 10
154.2565543074
 20
31.3681283946
 11
154.3143669177
 21
31.4326557675
  0
LINE
  8
0
 62
7
  6
CONTINUOUS
 10
154.0831168074
 20
31.1100188581
 11
153.9674919177
 21
30.9809641124
  0
LINE
  8
0
 62
7
  6
CONTINUOUS
 10
155.412804528
 20
30.9487004259
 11
155.3549915869
 21
30.8841730531
  0
LINE
  8
0
 62
7
  6
CONTINUOUS
 10
155.3549915869
 20
30.6905909007
 11
155.412804528
 21
30.7551182848
  0
LINE
  8
0
 62
7
  6
CONTINUOUS
 10
154.1987416972
 20
30.6583272086
 11
154.3143669177
 21
30.6260635193
  0
LINE
  8
0
 62
7
  6
CONTINUOUS
 10
151.1924917523
 20
31.5294468267
 11
150.9612418074
 21
31.5939741996
  0
LINE
  8
0
 62
7
  6
CONTINUOUS
 10
154.5456166972
 20
30.7228545871
 11
154.3143669177
 21
30.7873819712
  0
LINE
  8
0
 62
7
  6
CONTINUOUS
 10
153.2737419177
 20
31.5294468267
 11
153.1003044177
 21
31.5939741996
  0
LINE
  8
0
 62
7
  6
CONTINUOUS
 10
155.5284290869
 20
31.5294468267
 11
155.3549915869
 21
31.5939741996
  0
LINE
  8
0
 62
7
  6
CONTINUOUS
 10
158.187804528
 20
31.4326557675
 11
158.3034290869
 21
31.3681283946
  0
LINE
  8
0
 62
7
  6
CONTINUOUS
 10
158.534679528
 20
31.4649194539
 11
158.4190543074
 21
31.5294468267
  0
LINE
  8
0
 62
7
  6
CONTINUOUS
 10
150.0362418212
 20
30.6583272086
 11
150.2096793212
 21
30.6260635193
  0
LINE
  8
0
 62
7
  6
CONTINUOUS
 10
150.498741835
 20
30.7228545871
 11
150.1518667936
 21
30.7873819712
  0
LINE
  8
0
 62
7
  6
CONTINUOUS
 10
152.9268669177
 20
31.4649194539
 11
153.0424918074
 21
31.4326557675
  0
LINE
  8
0
 62
7
  6
CONTINUOUS
 10
155.239367028
 20
31.4649194539
 11
155.3549915869
 21
31.4326557675
  0
LINE
  8
0
 62
7
  6
CONTINUOUS
 10
159.575304528
 20
30.7551182848
 11
159.4596793074
 21
30.7873819712
  0
LINE
  8
0
 62
7
  6
CONTINUOUS
 10
158.0721793074
 20
31.4649194539
 11
158.187804528
 21
31.4326557675
  0
LINE
  8
0
 62
7
  6
CONTINUOUS
 10
159.228429528
 20
30.7228545871
 11
159.401867028
 21
30.6583272086
  0
LINE
  8
0
 62
7
  6
CONTINUOUS
 10
158.4190543074
 20
31.5294468267
 11
158.2456168074
 21
31.5939741996
  0
LINE
  8
0
 62
7
  6
CONTINUOUS
 10
159.6331168074
 20
31.2390736489
 11
159.4596793074
 21
31.3036010218
  0
LINE
  8
0
 62
7
  6
CONTINUOUS
 10
160.442492028
 20
30.9809641124
 11
160.615929528
 21
30.9164367395
  0
LINE
  8
0
 62
7
  6
CONTINUOUS
 10
160.8471793074
 20
31.4971831403
 11
160.6737418074
 21
31.5617105132
  0
LINE
  8
0
 62
7
  6
CONTINUOUS
 10
159.228429528
 20
31.2390736489
 11
159.4596793074
 21
31.1422825445
  0
LINE
  8
0
 62
7
  6
CONTINUOUS
 10
160.8471793074
 20
30.9809641124
 11
160.615929528
 21
31.0777551716
  0
LINE
  8
0
 62
7
  6
CONTINUOUS
 10
159.401867028
 20
31.3681283946
 11
159.4596793074
 21
31.4326557675
  0
LINE
  8
0
 62
7
  6
CONTINUOUS
 10
149.8628043005
 20
31.4971831403
 11
149.7471793074
 21
31.4326557675
  0
LINE
  8
0
 62
7
  6
CONTINUOUS
 10
149.9784292936
 20
31.3358647082
 11
150.1518667936
 21
31.4326557675
  0
LINE
  8
0
 62
7
  6
CONTINUOUS
 10
152.2909293626
 20
31.5294468267
 11
152.1753043074
 21
31.4649194539
  0
LINE
  8
0
 62
7
  6
CONTINUOUS
 10
152.1753043074
 20
31.3358647082
 11
152.2909293626
 21
31.400392081
  0
LINE
  8
0
 62
7
  6
CONTINUOUS
 10
151.1924917523
 20
30.6905909007
 11
151.3659292523
 21
30.7873819712
  0
LINE
  8
0
 62
7
  6
CONTINUOUS
 10
150.2096793212
 20
30.6260635193
 11
150.5565542799
 21
30.5937998301
  0
LINE
  8
0
 62
7
  6
CONTINUOUS
 10
154.3143669177
 20
30.6260635193
 11
154.5456166972
 21
30.5937998301
  0
LINE
  8
0
 62
7
  6
CONTINUOUS
 10
152.6956168074
 20
31.4971831403
 11
152.9268669177
 21
31.4649194539
  0
LINE
  8
0
 62
7
  6
CONTINUOUS
 10
155.0081169177
 20
31.4971831403
 11
155.239367028
 21
31.4649194539
  0
LINE
  8
0
 62
7
  6
CONTINUOUS
 10
159.4596793074
 20
31.1422825445
 11
160.442492028
 21
30.9809641124
  0
LINE
  8
0
 62
7
  6
CONTINUOUS
 10
160.615929528
 20
31.0777551716
 11
159.6331168074
 21
31.2390736489
  0
LINE
  8
0
 62
7
  6
CONTINUOUS
 10
153.1003044177
 20
31.5939741996
 11
152.9268669177
 21
31.626237886
  0
LINE
  8
0
 62
7
  6
CONTINUOUS
 10
159.401867028
 20
30.6583272086
 11
159.575304528
 21
30.6260635193
  0
LINE
  8
0
 62
7
  6
CONTINUOUS
 10
158.2456168074
 20
31.5939741996
 11
158.0721793074
 21
31.626237886
  0
LINE
  8
0
 62
7
  6
CONTINUOUS
 10
160.5003043074
 20
31.4649194539
 11
160.615929528
 21
31.4326557675
  0
LINE
  8
0
 62
7
  6
CONTINUOUS
 10
160.6737418074
 20
30.8519093441
 11
160.615929528
 21
30.7873819712
  0
LINE
  8
0
 62
7
  6
CONTINUOUS
 10
159.228429528
 20
31.5294468267
 11
159.1128043074
 21
31.4326557675
  0
LINE
  8
0
 62
7
  6
CONTINUOUS
 10
154.1409294177
 20
31.5617105132
 11
154.0253041972
 21
31.4971831403
  0
LINE
  8
0
 62
7
  6
CONTINUOUS
 10
154.1987416972
 20
31.1745462761
 11
154.0831168074
 21
31.1100188581
  0
LINE
  8
0
 62
7
  6
CONTINUOUS
 10
154.3143669177
 20
31.0132277988
 11
154.4299918074
 21
31.0777551716
  0
LINE
  8
0
 62
7
  6
CONTINUOUS
 10
151.8862417523
 20
30.5937998301
 11
152.1753043074
 21
30.5937998301
  0
LINE
  8
0
 62
7
  6
CONTINUOUS
 10
153.2159293074
 20
30.5937998301
 11
153.5049916972
 21
30.5937998301
  0
LINE
  8
0
 62
7
  6
CONTINUOUS
 10
154.5456166972
 20
30.5937998301
 11
154.8924916972
 21
30.5937998301
  0
LINE
  8
0
 62
7
  6
CONTINUOUS
 10
155.5284290869
 20
30.5937998301
 11
155.8174918074
 21
30.5937998301
  0
LINE
  8
0
 62
7
  6
CONTINUOUS
 10
156.279992028
 20
30.5937998301
 11
156.5690540869
 21
30.5937998301
  0
LINE
  8
0
 62
7
  6
CONTINUOUS
 10
157.0315543074
 20
30.5937998301
 11
157.320617028
 21
30.5937998301
  0
LINE
  8
0
 62
7
  6
CONTINUOUS
 10
158.361242028
 20
30.5937998301
 11
158.6503040869
 21
30.5937998301
  0
LINE
  8
0
 62
7
  6
CONTINUOUS
 10
159.922179528
 20
30.5937998301
 11
160.269054528
 21
30.5937998301
  0
LINE
  8
0
 62
7
  6
CONTINUOUS
 10
160.269054528
 20
30.7228545871
 11
159.922179528
 21
30.7228545871
  0
LINE
  8
0
 62
7
  6
CONTINUOUS
 10
154.8924916972
 20
30.7228545871
 11
154.5456166972
 21
30.7228545871
  0
LINE
  8
0
 62
7
  6
CONTINUOUS
 10
159.401867028
 20
30.8519093441
 11
159.1128043074
 21
30.8519093441
  0
LINE
  8
0
 62
7
  6
CONTINUOUS
 10
151.4237418626
 20
30.9164367395
 11
151.1346793074
 21
30.9164367395
  0
LINE
  8
0
 62
7
  6
CONTINUOUS
 10
150.498741835
 20
31.4971831403
 11
150.9034292799
 21
31.4649194539
  0
LINE
  8
0
 62
7
  6
CONTINUOUS
 10
150.9612418074
 20
31.5939741996
 11
150.5565542799
 21
31.626237886
  0
LINE
  8
0
 62
7
  6
CONTINUOUS
 10
159.575304528
 20
30.6260635193
 11
159.922179528
 21
30.5937998301
  0
LINE
  8
0
 62
7
  6
CONTINUOUS
 10
159.922179528
 20
30.7228545871
 11
159.575304528
 21
30.7551182848
  0
LINE
  8
0
 62
7
  6
CONTINUOUS
 10
155.3549915869
 20
31.5939741996
 11
155.0081169177
 21
31.626237886
  0
LINE
  8
0
 62
7
  6
CONTINUOUS
 10
160.1534293074
 20
31.4971831403
 11
160.5003043074
 21
31.4649194539
  0
LINE
  8
0
 62
7
  6
CONTINUOUS
 10
160.5003043074
 20
31.5939741996
 11
160.1534293074
 21
31.626237886
  0
LINE
  8
0
 62
7
  6
CONTINUOUS
 10
157.840929528
 20
31.4971831403
 11
158.0721793074
 21
31.4649194539
  0
LINE
  8
0
 62
7
  6
CONTINUOUS
 10
160.6737418074
 20
31.5617105132
 11
160.5003043074
 21
31.5939741996
  0
LINE
  8
0
 62
7
  6
CONTINUOUS
 10
160.8471793074
 20
30.6905909007
 11
160.9628038663
 21
30.7873819712
  0
LINE
  8
0
 62
7
  6
CONTINUOUS
 10
155.3549915869
 20
30.8841730531
 11
155.1815540869
 21
30.7873819712
  0
LINE
  8
0
 62
7
  6
CONTINUOUS
 10
157.4362415869
 20
31.5294468267
 11
157.320617028
 21
31.4649194539
  0
LINE
  8
0
 62
7
  6
CONTINUOUS
 10
157.320617028
 20
31.3358647082
 11
157.4362415869
 21
31.400392081
  0
LINE
  8
0
 62
7
  6
CONTINUOUS
 10
150.0362418212
 20
31.5617105132
 11
149.8628043005
 21
31.4971831403
  0
LINE
  8
0
 62
7
  6
CONTINUOUS
 10
152.4643666972
 20
31.5939741996
 11
152.2909293626
 21
31.5294468267
  0
LINE
  8
0
 62
7
  6
CONTINUOUS
 10
152.2909293626
 20
31.400392081
 11
152.4643666972
 21
31.4649194539
  0
LINE
  8
0
 62
7
  6
CONTINUOUS
 10
151.0768668626
 20
30.8196456577
 11
150.9034292799
 21
30.7551182848
  0
LINE
  8
0
 62
7
  6
CONTINUOUS
 10
160.5003043074
 20
30.7551182848
 11
160.269054528
 21
30.7228545871
  0
LINE
  8
0
 62
7
  6
CONTINUOUS
 10
154.8924916972
 20
30.5937998301
 11
155.1815540869
 21
30.6260635193
  0
LINE
  8
0
 62
7
  6
CONTINUOUS
 10
160.269054528
 20
30.5937998301
 11
160.615929528
 21
30.6260635193
  0
LINE
  8
0
 62
7
  6
CONTINUOUS
 10
150.5565542799
 20
30.5937998301
 11
150.9612418074
 21
30.6260635193
  0
LINE
  8
0
 62
7
  6
CONTINUOUS
 10
150.9034292799
 20
30.7551182848
 11
150.498741835
 21
30.7228545871
  0
LINE
  8
0
 62
7
  6
CONTINUOUS
 10
154.7768668074
 20
31.1422825445
 11
155.412804528
 21
31.1422825445
  0
LINE
  8
0
 62
7
  6
CONTINUOUS
 10
155.412804528
 20
31.2713373354
 11
154.7768668074
 21
31.2713373354
  0
LINE
  8
0
 62
7
  6
CONTINUOUS
 10
151.1346793074
 20
31.3036010218
 11
151.4237418626
 21
31.3036010218
  0
LINE
  8
0
 62
7
  6
CONTINUOUS
 10
153.9674919177
 20
31.3681283946
 11
154.2565543074
 21
31.3681283946
  0
LINE
  8
0
 62
7
  6
CONTINUOUS
 10
160.6737418074
 20
31.3681283946
 11
160.9628038663
 21
31.3681283946
  0
LINE
  8
0
 62
7
  6
CONTINUOUS
 10
154.6612419177
 20
31.4971831403
 11
155.0081169177
 21
31.4971831403
  0
LINE
  8
0
 62
7
  6
CONTINUOUS
 10
159.8065543074
 20
31.4971831403
 11
160.1534293074
 21
31.4971831403
  0
LINE
  8
0
 62
7
  6
CONTINUOUS
 10
160.1534293074
 20
31.626237886
 11
159.8065543074
 21
31.626237886
  0
LINE
  8
0
 62
7
  6
CONTINUOUS
 10
158.0721793074
 20
31.626237886
 11
157.840929528
 21
31.626237886
  0
LINE
  8
0
 62
7
  6
CONTINUOUS
 10
157.320617028
 20
31.626237886
 11
157.0315543074
 21
31.626237886
  0
LINE
  8
0
 62
7
  6
CONTINUOUS
 10
156.5690540869
 20
31.626237886
 11
156.279992028
 21
31.626237886
  0
LINE
  8
0
 62
7
  6
CONTINUOUS
 10
155.0081169177
 20
31.626237886
 11
154.6612419177
 21
31.626237886
  0
LINE
  8
0
 62
7
  6
CONTINUOUS
 10
152.9268669177
 20
31.626237886
 11
152.6956168074
 21
31.626237886
  0
LINE
  8
0
 62
7
  6
CONTINUOUS
 10
156.279992028
 20
31.9488748406
 11
156.5690540869
 21
31.9488748406
  0
LINE
  8
0
 62
7
  6
CONTINUOUS
 10
156.5690540869
 20
32.1101932727
 11
156.279992028
 21
32.1101932727
  0
LINE
  8
0
 62
7
  6
CONTINUOUS
 10
152.1753043074
 20
32.1101932727
 11
151.8862417523
 21
32.1101932727
  0
LINE
  8
0
 62
7
  6
CONTINUOUS
 10
151.2130860697
 20
32.3970785186
 11
151.6256574183
 21
32.3970785186
  0
LINE
  8
0
 62
7
  6
CONTINUOUS
 10
152.852430332
 20
32.3970785186
 11
154.245872955
 21
32.3970785186
  0
LINE
  8
0
 62
7
  6
CONTINUOUS
 10
154.5737418074
 20
32.3970785186
 11
155.9671844304
 21
32.3970785186
  0
LINE
  8
0
 62
7
  6
CONTINUOUS
 10
157.852430332
 20
32.3970785186
 11
159.245872955
 21
32.3970785186
  0
LINE
  8
0
 62
7
  6
CONTINUOUS
 10
159.5737418074
 20
32.3970785186
 11
160.9671844304
 21
32.3970785186
  0
LINE
  8
0
 62
7
  6
CONTINUOUS
 10
157.6096790869
 20
31.5939741996
 11
157.4362415869
 21
31.5294468267
  0
LINE
  8
0
 62
7
  6
CONTINUOUS
 10
155.1815540869
 20
30.6260635193
 11
155.3549915869
 21
30.6905909007
  0
LINE
  8
0
 62
7
  6
CONTINUOUS
 10
160.615929528
 20
30.6260635193
 11
160.8471793074
 21
30.6905909007
  0
LINE
  8
0
 62
7
  6
CONTINUOUS
 10
160.615929528
 20
30.7873819712
 11
160.5003043074
 21
30.7551182848
  0
LINE
  8
0
 62
7
  6
CONTINUOUS
 10
159.575304528
 20
31.4649194539
 11
159.8065543074
 21
31.4971831403
  0
LINE
  8
0
 62
7
  6
CONTINUOUS
 10
157.6096790869
 20
31.4649194539
 11
157.840929528
 21
31.4971831403
  0
LINE
  8
0
 62
7
  6
CONTINUOUS
 10
154.5456166972
 20
31.1100188581
 11
154.7768668074
 21
31.1422825445
  0
LINE
  8
0
 62
7
  6
CONTINUOUS
 10
157.840929528
 20
31.626237886
 11
157.6096790869
 21
31.5939741996
  0
LINE
  8
0
 62
7
  6
CONTINUOUS
 10
154.4299918074
 20
31.4649194539
 11
154.6612419177
 21
31.4971831403
  0
LINE
  8
0
 62
7
  6
CONTINUOUS
 10
159.8065543074
 20
31.626237886
 11
159.4596793074
 21
31.5939741996
  0
LINE
  8
0
 62
7
  6
CONTINUOUS
 10
154.7768668074
 20
31.2713373354
 11
154.4299918074
 21
31.2390736489
  0
LINE
  8
0
 62
7
  6
CONTINUOUS
 10
150.5565542799
 20
31.626237886
 11
150.2096793212
 21
31.5939741996
  0
LINE
  8
0
 62
7
  6
CONTINUOUS
 10
154.6612419177
 20
31.626237886
 11
154.2565543074
 21
31.5939741996
  0
LINE
  8
0
 62
7
  6
CONTINUOUS
 10
152.0327582009
 20
33.5446195022
 11
151.3770204959
 21
33.5446195022
  0
LINE
  8
0
 62
7
  6
CONTINUOUS
 10
157.4362415869
 20
31.400392081
 11
157.6096790869
 21
31.4649194539
  0
LINE
  8
0
 62
7
  6
CONTINUOUS
 10
159.4596793074
 20
31.4326557675
 11
159.575304528
 21
31.4649194539
  0
LINE
  8
0
 62
7
  6
CONTINUOUS
 10
159.4596793074
 20
31.5939741996
 11
159.228429528
 21
31.5294468267
  0
LINE
  8
0
 62
7
  6
CONTINUOUS
 10
155.1815540869
 20
30.7873819712
 11
154.8924916972
 21
30.7228545871
  0
LINE
  8
0
 62
7
  6
CONTINUOUS
 10
152.4643666972
 20
31.4649194539
 11
152.6956168074
 21
31.4971831403
  0
LINE
  8
0
 62
7
  6
CONTINUOUS
 10
152.6956168074
 20
31.626237886
 11
152.4643666972
 21
31.5939741996
  0
LINE
  8
0
 62
7
  6
CONTINUOUS
 10
150.2674918074
 20
31.4649194539
 11
150.498741835
 21
31.4971831403
  0
LINE
  8
0
 62
7
  6
CONTINUOUS
 10
156.7868565615
 20
35.0200293383
 11
157.4425942664
 21
35.0200293383
  0
LINE
  8
0
 62
7
  6
CONTINUOUS
 10
154.4299918074
 20
31.0777551716
 11
154.5456166972
 21
31.1100188581
  0
LINE
  8
0
 62
7
  6
CONTINUOUS
 10
154.4299918074
 20
31.2390736489
 11
154.1987416972
 21
31.1745462761
  0
LINE
  8
0
 62
7
  6
CONTINUOUS
 10
154.3143669177
 20
31.4326557675
 11
154.4299918074
 21
31.4649194539
  0
LINE
  8
0
 62
7
  6
CONTINUOUS
 10
150.9612418074
 20
30.6260635193
 11
151.1924917523
 21
30.6905909007
  0
LINE
  8
0
 62
7
  6
CONTINUOUS
 10
154.2565543074
 20
31.5939741996
 11
154.1409294177
 21
31.5617105132
  0
LINE
  8
0
 62
7
  6
CONTINUOUS
 10
150.2096793212
 20
31.5939741996
 11
150.0362418212
 21
31.5617105132
  0
LINE
  8
0
 62
7
  6
CONTINUOUS
 10
160.9671844304
 20
36.1675703219
 11
159.5737418074
 21
36.1675703219
  0
LINE
  8
0
 62
7
  6
CONTINUOUS
 10
157.6065286927
 20
36.1675703219
 11
157.1939573441
 21
36.1675703219
  0
LINE
  8
0
 62
7
  6
CONTINUOUS
 10
155.9671844304
 20
36.1675703219
 11
154.5737418074
 21
36.1675703219
  0
LINE
  8
0
 62
7
  6
CONTINUOUS
 10
154.245872955
 20
36.1675703219
 11
152.852430332
 21
36.1675703219
  0
LINE
  8
0
 62
7
  6
CONTINUOUS
 10
150.9671844304
 20
36.1675703219
 11
149.5737418074
 21
36.1675703219
  0
LINE
  8
0
 62
7
  6
CONTINUOUS
 10
150.1518667936
 20
31.4326557675
 11
150.2674918074
 21
31.4649194539
  0
CIRCLE
  8
0
 62
7
  6
CONTINUOUS
 10
160.2704631189
 20
38.5036358957
 40
2.0901639344
  0
ARC
  8
0
 62
7
  6
CONTINUOUS
 10
151.2130860697
 20
34.0364227809
 40
1.6393442623
 50
180.0
 51
270.0
  0
ARC
  8
0
 62
7
  6
CONTINUOUS
 10
157.6065286927
 20
34.5282260596
 40
1.6393442623
 50
0.0
 51
90.0
  0
ARC
  8
0
 62
7
  6
CONTINUOUS
 10
151.6256574183
 20
33.8724883547
 40
1.4754098361
 50
270.0
 51
326.2510114041
  0
ARC
  8
0
 62
7
  6
CONTINUOUS
 10
157.1939573441
 20
34.6921604858
 40
1.4754098361
 50
90.0
 51
146.2510114041
  0
ARC
  8
0
 62
7
  6
CONTINUOUS
 10
152.0327582009
 20
34.3642916334
 40
0.8196721311
 50
270.0
 51
360.0
  0
ARC
  8
0
 62
7
  6
CONTINUOUS
 10
156.7868565615
 20
34.2003572071
 40
0.8196721311
 50
90.0
 51
180.0
  0
ARC
  8
0
 62
7
  6
CONTINUOUS
 10
151.3770204959
 20
33.9544555678
 40
0.4098360656
 50
180.0
 51
270.0
  0
ARC
  8
0
 62
7
  6
CONTINUOUS
 10
157.4425942664
 20
34.6101932727
 40
0.4098360656
 50
0.0
 51
90.0
  0
SOLID
  8
0
 62
7
  6
CONTINUOUS
 10
156.279992028
 20
31.9488752009
 11
156.279992028
 21
32.1101936845
 12
156.5690540869
 22
31.9488752009
 13
156.5690540869
 23
32.1101936845
  0
SOLID
  8
0
 62
7
  6
CONTINUOUS
 10
150.5565542799
 20
31.6262382337
 11
150.9612418074
 21
31.5939740028
 12
150.2096793212
 22
31.5939740028
 13
150.2096793212
 23
31.5939740028
  0
SOLID
  8
0
 62
7
  6
CONTINUOUS
 10
150.0362418212
 20
31.5617111435
 11
150.2096793212
 21
31.5939740028
 12
150.9612418074
 22
31.5939740028
 13
150.9612418074
 23
31.5939740028
  0
SOLID
  8
0
 62
7
  6
CONTINUOUS
 10
150.9612418074
 20
31.5939740028
 11
151.1924917523
 21
31.5294468402
 12
150.0362418212
 22
31.5617111435
 13
150.0362418212
 23
31.5617111435
  0
SOLID
  8
0
 62
7
  6
CONTINUOUS
 10
149.8628043005
 20
31.49718259
 11
150.0362418212
 21
31.5617111435
 12
151.1924917523
 22
31.5294468402
 13
151.1924917523
 23
31.5294468402
  0
SOLID
  8
0
 62
7
  6
CONTINUOUS
 10
149.8628043005
 20
31.49718259
 11
151.1924917523
 21
31.5294468402
 12
150.498741835
 22
31.49718259
 13
150.498741835
 23
31.49718259
  0
SOLID
  8
0
 62
7
  6
CONTINUOUS
 10
150.498741835
 20
31.49718259
 11
151.1924917523
 21
31.5294468402
 12
150.9034292799
 22
31.4649197501
 13
150.9034292799
 23
31.4649197501
  0
SOLID
  8
0
 62
7
  6
CONTINUOUS
 10
151.1924917523
 20
31.5294468402
 11
151.3659292523
 21
31.4326554468
 12
150.9034292799
 22
31.4649197501
 13
150.9034292799
 23
31.4649197501
  0
SOLID
  8
0
 62
7
  6
CONTINUOUS
 10
151.0768668626
 20
31.4003926599
 11
150.9034292799
 21
31.4649197501
 12
151.3659292523
 22
31.4326554468
 13
151.3659292523
 23
31.4326554468
  0
SOLID
  8
0
 62
7
  6
CONTINUOUS
 10
151.0768668626
 20
31.4003926599
 11
151.3659292523
 21
31.4326554468
 12
151.1346793074
 22
31.3036013776
 13
151.1346793074
 23
31.3036013776
  0
SOLID
  8
0
 62
7
  6
CONTINUOUS
 10
151.3659292523
 20
31.4326554468
 11
151.4237418626
 21
31.3036013776
 12
151.1346793074
 22
31.3036013776
 13
151.1346793074
 23
31.3036013776
  0
SOLID
  8
0
 62
7
  6
CONTINUOUS
 10
152.4643666972
 20
31.5939739754
 11
152.6956168074
 21
31.6262382787
 12
152.9268669177
 22
31.6262382787
 13
152.9268669177
 23
31.6262382787
  0
SOLID
  8
0
 62
7
  6
CONTINUOUS
 10
152.9268669177
 20
31.6262382787
 11
153.1003044177
 21
31.5939739754
 12
152.4643666972
 22
31.5939739754
 13
152.4643666972
 23
31.5939739754
  0
SOLID
  8
0
 62
7
  6
CONTINUOUS
 10
152.2909293626
 20
31.5294468852
 11
152.4643666972
 21
31.5939739754
 12
153.1003044177
 22
31.5939739754
 13
153.1003044177
 23
31.5939739754
  0
SOLID
  8
0
 62
7
  6
CONTINUOUS
 10
153.1003044177
 20
31.5939739754
 11
153.2737419177
 21
31.5294468852
 12
152.2909293626
 22
31.5294468852
 13
152.2909293626
 23
31.5294468852
  0
SOLID
  8
0
 62
7
  6
CONTINUOUS
 10
153.2737419177
 20
31.5294468852
 11
152.6956168074
 21
31.4971825369
 12
152.2909293626
 22
31.5294468852
 13
152.2909293626
 23
31.5294468852
  0
SOLID
  8
0
 62
7
  6
CONTINUOUS
 10
152.1753043074
 20
31.4649197951
 11
152.2909293626
 21
31.5294468852
 12
152.6956168074
 22
31.4971825369
 13
152.6956168074
 23
31.4971825369
  0
SOLID
  8
0
 62
7
  6
CONTINUOUS
 10
152.6956168074
 20
31.4971825369
 11
152.4643666972
 21
31.4649197951
 12
152.1753043074
 22
31.4649197951
 13
152.1753043074
 23
31.4649197951
  0
SOLID
  8
0
 62
7
  6
CONTINUOUS
 10
152.6956168074
 20
31.4971825369
 11
153.2737419177
 21
31.5294468852
 12
152.9268669177
 22
31.4649197951
 13
152.9268669177
 23
31.4649197951
  0
SOLID
  8
0
 62
7
  6
CONTINUOUS
 10
153.2737419177
 20
31.5294468852
 11
153.3893668074
 21
31.4649197951
 12
152.9268669177
 22
31.4649197951
 13
152.9268669177
 23
31.4649197951
  0
SOLID
  8
0
 62
7
  6
CONTINUOUS
 10
153.0424918074
 20
31.4326554468
 11
152.9268669177
 21
31.4649197951
 12
153.3893668074
 22
31.4649197951
 13
153.3893668074
 23
31.4649197951
  0
SOLID
  8
0
 62
7
  6
CONTINUOUS
 10
153.3893668074
 20
31.4649197951
 11
153.4471794177
 21
31.4003927049
 12
153.0424918074
 22
31.4326554468
 13
153.0424918074
 23
31.4326554468
  0
SOLID
  8
0
 62
7
  6
CONTINUOUS
 10
153.1581166972
 20
31.3681283566
 11
153.0424918074
 21
31.4326554468
 12
153.4471794177
 22
31.4003927049
 13
153.4471794177
 23
31.4003927049
  0
SOLID
  8
0
 62
7
  6
CONTINUOUS
 10
153.1581166972
 20
31.3681283566
 11
153.4471794177
 21
31.4003927049
 12
153.2159293074
 22
31.2390742213
 13
153.2159293074
 23
31.2390742213
  0
SOLID
  8
0
 62
7
  6
CONTINUOUS
 10
153.4471794177
 20
31.4003927049
 11
153.5049916972
 21
31.2390742213
 12
153.2159293074
 22
31.2390742213
 13
153.2159293074
 23
31.2390742213
  0
SOLID
  8
0
 62
7
  6
CONTINUOUS
 10
152.4643666972
 20
31.4649197951
 11
152.2909293626
 21
31.4003927049
 12
152.1753043074
 22
31.4649197951
 13
152.1753043074
 23
31.4649197951
  0
SOLID
  8
0
 62
7
  6
CONTINUOUS
 10
152.2909293626
 20
31.4003927049
 11
152.1753043074
 21
31.3358640533
 12
152.1753043074
 22
31.4649197951
 13
152.1753043074
 23
31.4649197951
  0
SOLID
  8
0
 62
7
  6
CONTINUOUS
 10
152.1753043074
 20
31.3358640533
 11
151.8862417523
 21
30.5938002869
 12
152.1753043074
 22
31.4649197951
 13
152.1753043074
 23
31.4649197951
  0
SOLID
  8
0
 62
7
  6
CONTINUOUS
 10
152.1753043074
 20
31.4649197951
 11
151.8862417523
 21
30.5938002869
 12
152.1753043074
 22
32.1101937295
 13
152.1753043074
 23
32.1101937295
  0
SOLID
  8
0
 62
7
  6
CONTINUOUS
 10
151.8862417523
 20
30.5938002869
 11
151.8862417523
 21
32.1101937295
 12
152.1753043074
 22
32.1101937295
 13
152.1753043074
 23
32.1101937295
  0
SOLID
  8
0
 62
7
  6
CONTINUOUS
 10
152.1753043074
 20
31.3358640533
 11
152.1753043074
 21
30.5938002869
 12
151.8862417523
 22
30.5938002869
 13
151.8862417523
 23
30.5938002869
  0
SOLID
  8
0
 62
7
  6
CONTINUOUS
 10
153.2159293074
 20
30.5938002869
 11
153.2159293074
 21
31.2390742213
 12
153.5049916972
 22
31.2390742213
 13
153.5049916972
 23
31.2390742213
  0
SOLID
  8
0
 62
7
  6
CONTINUOUS
 10
153.5049916972
 20
31.2390742213
 11
153.5049916972
 21
30.5938002869
 12
153.2159293074
 22
30.5938002869
 13
153.2159293074
 23
30.5938002869
  0
SOLID
  8
0
 62
7
  6
CONTINUOUS
 10
154.2565543074
 20
31.5939738288
 11
154.6612419177
 21
31.6262385959
 12
155.0081169177
 22
31.6262385959
 13
155.0081169177
 23
31.6262385959
  0
SOLID
  8
0
 62
7
  6
CONTINUOUS
 10
155.0081169177
 20
31.6262385959
 11
155.3549915869
 21
31.5939738288
 12
154.2565543074
 22
31.5939738288
 13
154.2565543074
 23
31.5939738288
  0
SOLID
  8
0
 62
7
  6
CONTINUOUS
 10
154.1409294177
 20
31.5617111435
 11
154.2565543074
 21
31.5939738288
 12
155.3549915869
 22
31.5939738288
 13
155.3549915869
 23
31.5939738288
  0
SOLID
  8
0
 62
7
  6
CONTINUOUS
 10
155.3549915869
 20
31.5939738288
 11
155.5284290869
 21
31.5294468402
 12
154.1409294177
 22
31.5617111435
 13
154.1409294177
 23
31.5617111435
  0
SOLID
  8
0
 62
7
  6
CONTINUOUS
 10
154.0253041972
 20
31.4971826249
 11
154.1409294177
 21
31.5617111435
 12
155.5284290869
 22
31.5294468402
 13
155.5284290869
 23
31.5294468402
  0
SOLID
  8
0
 62
7
  6
CONTINUOUS
 10
154.0253041972
 20
31.4971826249
 11
155.5284290869
 21
31.5294468402
 12
154.6612419177
 22
31.4971826249
 13
154.6612419177
 23
31.4971826249
  0
SOLID
  8
0
 62
7
  6
CONTINUOUS
 10
154.6612419177
 20
31.4971826249
 11
155.5284290869
 21
31.5294468402
 12
155.0081169177
 22
31.4971826249
 13
155.0081169177
 23
31.4971826249
  0
SOLID
  8
0
 62
7
  6
CONTINUOUS
 10
155.0081169177
 20
31.4971826249
 11
155.5284290869
 21
31.5294468402
 12
155.239367028
 22
31.4649194065
 13
155.239367028
 23
31.4649194065
  0
SOLID
  8
0
 62
7
  6
CONTINUOUS
 10
155.5284290869
 20
31.5294468402
 11
155.6440543074
 21
31.4649194065
 12
155.239367028
 22
31.4649194065
 13
155.239367028
 23
31.4649194065
  0
SOLID
  8
0
 62
7
  6
CONTINUOUS
 10
153.9674919177
 20
31.4326554138
 11
154.0253041972
 21
31.4971826249
 12
154.6612419177
 22
31.4971826249
 13
154.6612419177
 23
31.4971826249
  0
SOLID
  8
0
 62
7
  6
CONTINUOUS
 10
155.3549915869
 20
31.4326554138
 11
155.239367028
 21
31.4649194065
 12
155.6440543074
 22
31.4649194065
 13
155.6440543074
 23
31.4649194065
  0
SOLID
  8
0
 62
7
  6
CONTINUOUS
 10
155.3549915869
 20
31.4326554138
 11
155.6440543074
 21
31.4649194065
 12
155.412804528
 22
31.3681282026
 13
155.412804528
 23
31.3681282026
  0
SOLID
  8
0
 62
7
  6
CONTINUOUS
 10
155.6440543074
 20
31.4649194065
 11
155.7018665869
 21
31.3681282026
 12
155.412804528
 22
31.3681282026
 13
155.412804528
 23
31.3681282026
  0
SOLID
  8
0
 62
7
  6
CONTINUOUS
 10
155.412804528
 20
31.2713369632
 11
155.412804528
 21
31.3681282026
 12
155.7018665869
 22
31.3681282026
 13
155.7018665869
 23
31.3681282026
  0
SOLID
  8
0
 62
7
  6
CONTINUOUS
 10
155.412804528
 20
31.2713369632
 11
155.7018665869
 21
31.3681282026
 12
155.412804528
 22
31.1422827828
 13
155.412804528
 23
31.1422827828
  0
SOLID
  8
0
 62
7
  6
CONTINUOUS
 10
155.412804528
 20
31.1422827828
 11
155.7018665869
 21
31.3681282026
 12
155.412804528
 22
30.9487004259
 13
155.412804528
 23
30.9487004259
  0
SOLID
  8
0
 62
7
  6
CONTINUOUS
 10
155.7018665869
 20
31.3681282026
 11
155.7018665869
 21
30.8519086025
 12
155.412804528
 22
30.9487004259
 13
155.412804528
 23
30.9487004259
  0
SOLID
  8
0
 62
7
  6
CONTINUOUS
 10
157.6096790869
 20
31.5939736268
 11
157.840929528
 21
31.6262383465
 12
158.0721793074
 22
31.6262383465
 13
158.0721793074
 23
31.6262383465
  0
SOLID
  8
0
 62
7
  6
CONTINUOUS
 10
158.0721793074
 20
31.6262383465
 11
158.2456168074
 21
31.5939736268
 12
157.6096790869
 22
31.5939736268
 13
157.6096790869
 23
31.5939736268
  0
SOLID
  8
0
 62
7
  6
CONTINUOUS
 10
157.4362415869
 20
31.5294472848
 11
157.6096790869
 21
31.5939736268
 12
158.2456168074
 22
31.5939736268
 13
158.2456168074
 23
31.5939736268
  0
SOLID
  8
0
 62
7
  6
CONTINUOUS
 10
158.2456168074
 20
31.5939736268
 11
158.4190543074
 21
31.5294472848
 12
157.4362415869
 22
31.5294472848
 13
157.4362415869
 23
31.5294472848
  0
SOLID
  8
0
 62
7
  6
CONTINUOUS
 10
158.4190543074
 20
31.5294472848
 11
157.840929528
 21
31.4971825369
 12
157.4362415869
 22
31.5294472848
 13
157.4362415869
 23
31.5294472848
  0
SOLID
  8
0
 62
7
  6
CONTINUOUS
 10
157.320617028
 20
31.4649199103
 11
157.4362415869
 21
31.5294472848
 12
157.840929528
 22
31.4971825369
 13
157.840929528
 23
31.4971825369
  0
SOLID
  8
0
 62
7
  6
CONTINUOUS
 10
157.840929528
 20
31.4971825369
 11
157.6096790869
 21
31.4649199103
 12
157.320617028
 22
31.4649199103
 13
157.320617028
 23
31.4649199103
  0
SOLID
  8
0
 62
7
  6
CONTINUOUS
 10
157.840929528
 20
31.4971825369
 11
158.4190543074
 21
31.5294472848
 12
158.0721793074
 22
31.4649199103
 13
158.0721793074
 23
31.4649199103
  0
SOLID
  8
0
 62
7
  6
CONTINUOUS
 10
158.4190543074
 20
31.5294472848
 11
158.534679528
 21
31.4649199103
 12
158.0721793074
 22
31.4649199103
 13
158.0721793074
 23
31.4649199103
  0
SOLID
  8
0
 62
7
  6
CONTINUOUS
 10
158.187804528
 20
31.4326554468
 11
158.0721793074
 21
31.4649199103
 12
158.534679528
 22
31.4649199103
 13
158.534679528
 23
31.4649199103
  0
SOLID
  8
0
 62
7
  6
CONTINUOUS
 10
158.187804528
 20
31.4326554468
 11
158.534679528
 21
31.4649199103
 12
158.3034290869
 22
31.3681288486
 13
158.3034290869
 23
31.3681288486
  0
SOLID
  8
0
 62
7
  6
CONTINUOUS
 10
158.534679528
 20
31.4649199103
 11
158.5924918074
 21
31.3681288486
 12
158.3034290869
 22
31.3681288486
 13
158.3034290869
 23
31.3681288486
  0
SOLID
  8
0
 62
7
  6
CONTINUOUS
 10
158.361242028
 20
31.2068093799
 11
158.3034290869
 21
31.3681288486
 12
158.5924918074
 22
31.3681288486
 13
158.5924918074
 23
31.3681288486
  0
SOLID
  8
0
 62
7
  6
CONTINUOUS
 10
158.5924918074
 20
31.3681288486
 11
158.6503040869
 21
31.2068093799
 12
158.361242028
 22
31.2068093799
 13
158.361242028
 23
31.2068093799
  0
SOLID
  8
0
 62
7
  6
CONTINUOUS
 10
157.6096790869
 20
31.4649199103
 11
157.4362415869
 21
31.4003926599
 12
157.320617028
 22
31.4649199103
 13
157.320617028
 23
31.4649199103
  0
SOLID
  8
0
 62
7
  6
CONTINUOUS
 10
157.4362415869
 20
31.4003926599
 11
157.320617028
 21
31.3358640533
 12
157.320617028
 22
31.4649199103
 13
157.320617028
 23
31.4649199103
  0
SOLID
  8
0
 62
7
  6
CONTINUOUS
 10
157.320617028
 20
31.3358640533
 11
157.0315543074
 21
30.5938003547
 12
157.320617028
 22
31.4649199103
 13
157.320617028
 23
31.4649199103
  0
SOLID
  8
0
 62
7
  6
CONTINUOUS
 10
157.320617028
 20
31.4649199103
 11
157.0315543074
 21
30.5938003547
 12
157.320617028
 22
31.6262383465
 13
157.320617028
 23
31.6262383465
  0
SOLID
  8
0
 62
7
  6
CONTINUOUS
 10
157.0315543074
 20
30.5938003547
 11
157.0315543074
 21
31.6262383465
 12
157.320617028
 22
31.6262383465
 13
157.320617028
 23
31.6262383465
  0
SOLID
  8
0
 62
7
  6
CONTINUOUS
 10
157.320617028
 20
31.3358640533
 11
157.320617028
 21
30.5938003547
 12
157.0315543074
 22
30.5938003547
 13
157.0315543074
 23
30.5938003547
  0
SOLID
  8
0
 62
7
  6
CONTINUOUS
 10
158.361242028
 20
30.5938003547
 11
158.361242028
 21
31.2068093799
 12
158.6503040869
 22
31.2068093799
 13
158.6503040869
 23
31.2068093799
  0
SOLID
  8
0
 62
7
  6
CONTINUOUS
 10
158.6503040869
 20
31.2068093799
 11
158.6503040869
 21
30.5938003547
 12
158.361242028
 22
30.5938003547
 13
158.361242028
 23
30.5938003547
  0
SOLID
  8
0
 62
7
  6
CONTINUOUS
 10
159.4596793074
 20
31.5939739474
 11
159.8065543074
 21
31.6262381969
 12
160.1534293074
 22
31.6262381969
 13
160.1534293074
 23
31.6262381969
  0
SOLID
  8
0
 62
7
  6
CONTINUOUS
 10
160.1534293074
 20
31.6262381969
 11
160.5003043074
 21
31.5939739474
 12
159.4596793074
 22
31.5939739474
 13
159.4596793074
 23
31.5939739474
  0
SOLID
  8
0
 62
7
  6
CONTINUOUS
 10
159.228429528
 20
31.5294468402
 11
159.4596793074
 21
31.5939739474
 12
160.5003043074
 22
31.5939739474
 13
160.5003043074
 23
31.5939739474
  0
SOLID
  8
0
 62
7
  6
CONTINUOUS
 10
159.228429528
 20
31.5294468402
 11
160.5003043074
 21
31.5939739304
 12
160.6737418074
 22
31.5617111435
 13
160.6737418074
 23
31.5617111435
  0
SOLID
  8
0
 62
7
  6
CONTINUOUS
 10
159.228429528
 20
31.5294468402
 11
160.6737418074
 21
31.5617111435
 12
159.8065543074
 22
31.4971825592
 13
159.8065543074
 23
31.4971825592
  0
SOLID
  8
0
 62
7
  6
CONTINUOUS
 10
159.8065543074
 20
31.4971825592
 11
160.6737418074
 21
31.5617111435
 12
160.1534293074
 22
31.4971825592
 13
160.1534293074
 23
31.4971825592
  0
SOLID
  8
0
 62
7
  6
CONTINUOUS
 10
160.6737418074
 20
31.5617111435
 11
160.8471793074
 21
31.4971825592
 12
160.1534293074
 22
31.4971825592
 13
160.1534293074
 23
31.4971825592
  0
SOLID
  8
0
 62
7
  6
CONTINUOUS
 10
160.5003043074
 20
31.4649197501
 11
160.1534293074
 21
31.4971825592
 12
160.8471793074
 22
31.4971825592
 13
160.8471793074
 23
31.4971825592
  0
SOLID
  8
0
 62
7
  6
CONTINUOUS
 10
159.1128043074
 20
31.4326555427
 11
159.228429528
 21
31.5294468402
 12
159.8065543074
 22
31.4971825592
 13
159.8065543074
 23
31.4971825592
  0
SOLID
  8
0
 62
7
  6
CONTINUOUS
 10
160.5003043074
 20
31.4649197501
 11
160.8471793074
 21
31.4971825592
 12
160.615929528
 22
31.4326555427
 13
160.615929528
 23
31.4326555427
  0
SOLID
  8
0
 62
7
  6
CONTINUOUS
 10
160.615929528
 20
31.4326555427
 11
160.8471793074
 21
31.4971825592
 12
160.6737418074
 22
31.3681283005
 13
160.6737418074
 23
31.3681283005
  0
SOLID
  8
0
 62
7
  6
CONTINUOUS
 10
160.8471793074
 20
31.4971825592
 11
160.9628038663
 21
31.3681283005
 12
160.6737418074
 22
31.3681283005
 13
160.6737418074
 23
31.3681283005
  0
SOLID
  8
0
 62
7
  6
CONTINUOUS
 10
150.2674918074
 20
31.4649197501
 11
149.7471793074
 21
31.4326554237
 12
150.498741835
 22
31.4971824493
 13
150.498741835
 23
31.4971824493
  0
SOLID
  8
0
 62
7
  6
CONTINUOUS
 10
149.7471793074
 20
31.4326554237
 11
149.8628043005
 21
31.4971824493
 12
150.498741835
 22
31.4971824493
 13
150.498741835
 23
31.4971824493
  0
SOLID
  8
0
 62
7
  6
CONTINUOUS
 10
150.2674918074
 20
31.4649197501
 11
150.1518667936
 21
31.4326554237
 12
149.7471793074
 22
31.4326554237
 13
149.7471793074
 23
31.4326554237
  0
SOLID
  8
0
 62
7
  6
CONTINUOUS
 10
149.6315543091
 20
31.3036012664
 11
149.7471793074
 21
31.4326554237
 12
150.1518667936
 22
31.4326554237
 13
150.1518667936
 23
31.4326554237
  0
SOLID
  8
0
 62
7
  6
CONTINUOUS
 10
153.9674919177
 20
31.4326554237
 11
154.6612419177
 21
31.4971825369
 12
154.4299918074
 22
31.4649197501
 13
154.4299918074
 23
31.4649197501
  0
SOLID
  8
0
 62
7
  6
CONTINUOUS
 10
154.4299918074
 20
31.4649197501
 11
154.3143669177
 21
31.4326554237
 12
153.9674919177
 22
31.4326554237
 13
153.9674919177
 23
31.4326554237
  0
SOLID
  8
0
 62
7
  6
CONTINUOUS
 10
153.9674919177
 20
31.3681283335
 11
153.9674919177
 21
31.4326554237
 12
154.3143669177
 22
31.4326554237
 13
154.3143669177
 23
31.4326554237
  0
SOLID
  8
0
 62
7
  6
CONTINUOUS
 10
154.3143669177
 20
31.4326554237
 11
154.2565543074
 21
31.3681283335
 12
153.9674919177
 22
31.3681283335
 13
153.9674919177
 23
31.3681283335
  0
SOLID
  8
0
 62
7
  6
CONTINUOUS
 10
159.1128043074
 20
31.4326555528
 11
159.8065543074
 21
31.4971825369
 12
159.575304528
 22
31.4649197501
 13
159.575304528
 23
31.4649197501
  0
SOLID
  8
0
 62
7
  6
CONTINUOUS
 10
159.575304528
 20
31.4649197501
 11
159.4596793074
 21
31.4326555528
 12
159.1128043074
 22
31.4326555528
 13
159.1128043074
 23
31.4326555528
  0
SOLID
  8
0
 62
7
  6
CONTINUOUS
 10
159.1128043074
 20
31.3681284626
 11
159.1128043074
 21
31.4326555528
 12
159.4596793074
 22
31.4326555528
 13
159.4596793074
 23
31.4326555528
  0
SOLID
  8
0
 62
7
  6
CONTINUOUS
 10
159.4596793074
 20
31.4326555528
 11
159.401867028
 21
31.3681284626
 12
159.1128043074
 22
31.3681284626
 13
159.1128043074
 23
31.3681284626
  0
SOLID
  8
0
 62
7
  6
CONTINUOUS
 10
159.228429528
 20
31.2390741763
 11
159.1128043074
 21
31.3681284626
 12
159.401867028
 22
31.3681284626
 13
159.401867028
 23
31.3681284626
  0
SOLID
  8
0
 62
7
  6
CONTINUOUS
 10
149.6315543091
 20
31.3036012664
 11
150.1518667936
 21
31.4326554468
 12
149.9784292936
 22
31.3358640533
 13
149.9784292936
 23
31.3358640533
  0
SOLID
  8
0
 62
7
  6
CONTINUOUS
 10
149.9784292936
 20
31.3358640533
 11
149.9206168074
 21
31.2713369632
 12
149.6315543091
 22
31.3036012664
 13
149.6315543091
 23
31.3036012664
  0
SOLID
  8
0
 62
7
  6
CONTINUOUS
 10
149.5737418074
 20
31.1100184796
 11
149.6315543091
 21
31.3036012664
 12
149.9206168074
 22
31.2713369632
 13
149.9206168074
 23
31.2713369632
  0
SOLID
  8
0
 62
7
  6
CONTINUOUS
 10
154.4299918074
 20
31.2390741763
 11
154.7768668074
 21
31.271336924
 12
155.412804528
 22
31.271336924
 13
155.412804528
 23
31.271336924
  0
SOLID
  8
0
 62
7
  6
CONTINUOUS
 10
154.4299918074
 20
31.2390741763
 11
155.412804528
 21
31.271336924
 12
154.1987416972
 22
31.1745462761
 13
154.1987416972
 23
31.1745462761
  0
SOLID
  8
0
 62
7
  6
CONTINUOUS
 10
154.1987416972
 20
31.1745462761
 11
155.412804528
 21
31.271336924
 12
154.7768668074
 22
31.1422827436
 13
154.7768668074
 23
31.1422827436
  0
SOLID
  8
0
 62
7
  6
CONTINUOUS
 10
155.412804528
 20
31.271336924
 11
155.412804528
 21
31.1422827436
 12
154.7768668074
 22
31.1422827436
 13
154.7768668074
 23
31.1422827436
  0
SOLID
  8
0
 62
7
  6
CONTINUOUS
 10
159.228429528
 20
31.2390745501
 11
159.401867028
 21
31.3681283566
 12
159.4596793074
 22
31.3036012664
 13
159.4596793074
 23
31.3036012664
  0
SOLID
  8
0
 62
7
  6
CONTINUOUS
 10
159.4596793074
 20
31.3036012664
 11
159.6331168074
 21
31.2390745501
 12
159.228429528
 22
31.2390745501
 13
159.228429528
 23
31.2390745501
  0
SOLID
  8
0
 62
7
  6
CONTINUOUS
 10
159.4596793074
 20
31.1422827828
 11
159.228429528
 21
31.2390745501
 12
159.6331168074
 22
31.2390745501
 13
159.6331168074
 23
31.2390745501
  0
SOLID
  8
0
 62
7
  6
CONTINUOUS
 10
159.6331168074
 20
31.2390745501
 11
160.615929528
 21
31.0777556927
 12
159.4596793074
 22
31.1422827828
 13
159.4596793074
 23
31.1422827828
  0
SOLID
  8
0
 62
7
  6
CONTINUOUS
 10
160.442492028
 20
30.9809646623
 11
159.4596793074
 21
31.1422827828
 12
160.615929528
 22
31.0777556927
 13
160.615929528
 23
31.0777556927
  0
SOLID
  8
0
 62
7
  6
CONTINUOUS
 10
160.615929528
 20
31.0777556927
 11
160.8471793074
 21
30.9809646623
 12
160.442492028
 22
30.9809646623
 13
160.442492028
 23
30.9809646623
  0
SOLID
  8
0
 62
7
  6
CONTINUOUS
 10
160.615929528
 20
30.9164372091
 11
160.442492028
 21
30.9809646623
 12
160.8471793074
 22
30.9809646623
 13
160.8471793074
 23
30.9809646623
  0
SOLID
  8
0
 62
7
  6
CONTINUOUS
 10
160.615929528
 20
30.9164372091
 11
160.8471793074
 21
30.9809646623
 12
160.6737418074
 22
30.8519089441
 13
160.6737418074
 23
30.8519089441
  0
SOLID
  8
0
 62
7
  6
CONTINUOUS
 10
160.8471793074
 20
30.9809646623
 11
160.9628038663
 21
30.8519089441
 12
160.6737418074
 22
30.8519089441
 13
160.6737418074
 23
30.8519089441
  0
SOLID
  8
0
 62
7
  6
CONTINUOUS
 10
160.615929528
 20
30.7873818593
 11
160.6737418074
 21
30.8519089441
 12
160.9628038663
 22
30.8519089441
 13
160.9628038663
 23
30.8519089441
  0
SOLID
  8
0
 62
7
  6
CONTINUOUS
 10
160.9628038663
 20
30.8519089441
 11
160.9628038663
 21
30.7873818593
 12
160.615929528
 22
30.7873818593
 13
160.615929528
 23
30.7873818593
  0
SOLID
  8
0
 62
7
  6
CONTINUOUS
 10
160.5003043074
 20
30.7551187255
 11
160.615929528
 21
30.7873818593
 12
160.9628038663
 22
30.7873818593
 13
160.9628038663
 23
30.7873818593
  0
SOLID
  8
0
 62
7
  6
CONTINUOUS
 10
160.5003043074
 20
30.7551187255
 11
160.9628038663
 21
30.7873818593
 12
160.269054528
 22
30.7228547745
 13
160.269054528
 23
30.7228547745
  0
SOLID
  8
0
 62
7
  6
CONTINUOUS
 10
160.9628038663
 20
30.7873818593
 11
160.8471793074
 21
30.6905916353
 12
160.269054528
 22
30.7228547745
 13
160.269054528
 23
30.7228547745
  0
SOLID
  8
0
 62
7
  6
CONTINUOUS
 10
160.8471793074
 20
30.6905916353
 11
159.401867028
 21
30.658327332
 12
160.269054528
 22
30.7228547745
 13
160.269054528
 23
30.7228547745
  0
SOLID
  8
0
 62
7
  6
CONTINUOUS
 10
160.269054528
 20
30.7228547745
 11
159.401867028
 21
30.658327332
 12
159.922179528
 22
30.7228547745
 13
159.922179528
 23
30.7228547745
  0
SOLID
  8
0
 62
7
  6
CONTINUOUS
 10
159.401867028
 20
30.658327332
 11
159.228429528
 21
30.7228547745
 12
159.922179528
 22
30.7228547745
 13
159.922179528
 23
30.7228547745
  0
SOLID
  8
0
 62
7
  6
CONTINUOUS
 10
159.401867028
 20
30.658327332
 11
160.8471793074
 21
30.6905916353
 12
159.575304528
 22
30.6260629858
 13
159.575304528
 23
30.6260629858
  0
SOLID
  8
0
 62
7
  6
CONTINUOUS
 10
160.8471793074
 20
30.6905916353
 11
160.615929528
 21
30.6260629858
 12
159.575304528
 22
30.6260629858
 13
159.575304528
 23
30.6260629858
  0
SOLID
  8
0
 62
7
  6
CONTINUOUS
 10
159.922179528
 20
30.5938006049
 11
159.575304528
 21
30.6260629858
 12
160.615929528
 22
30.6260629858
 13
160.615929528
 23
30.6260629858
  0
SOLID
  8
0
 62
7
  6
CONTINUOUS
 10
160.615929528
 20
30.6260629858
 11
160.269054528
 21
30.5938006049
 12
159.922179528
 22
30.5938006049
 13
159.922179528
 23
30.5938006049
  0
SOLID
  8
0
 62
7
  6
CONTINUOUS
 10
149.5737418074
 20
31.1100184796
 11
149.9206168074
 21
31.2713369632
 12
149.8628043005
 22
31.1422827828
 13
149.8628043005
 23
31.1422827828
  0
SOLID
  8
0
 62
7
  6
CONTINUOUS
 10
149.8628043005
 20
31.1422827828
 11
149.8628043005
 21
31.0454914852
 12
149.5737418074
 22
31.1100184796
 13
149.5737418074
 23
31.1100184796
  0
SOLID
  8
0
 62
7
  6
CONTINUOUS
 10
149.6315543091
 20
30.9164372091
 11
149.5737418074
 21
31.1100184796
 12
149.8628043005
 22
31.0454914852
 13
149.8628043005
 23
31.0454914852
  0
SOLID
  8
0
 62
7
  6
CONTINUOUS
 10
149.8628043005
 20
31.0454914852
 11
149.9784292936
 21
30.8841729058
 12
149.6315543091
 22
30.9164372091
 13
149.6315543091
 23
30.9164372091
  0
SOLID
  8
0
 62
7
  6
CONTINUOUS
 10
149.7471793074
 20
30.7873813202
 11
149.6315543091
 21
30.9164372091
 12
149.9784292936
 22
30.8841729058
 13
149.9784292936
 23
30.8841729058
  0
SOLID
  8
0
 62
7
  6
CONTINUOUS
 10
149.9784292936
 20
30.8841729058
 11
150.1518667936
 21
30.7873813202
 12
149.7471793074
 22
30.7873813202
 13
149.7471793074
 23
30.7873813202
  0
SOLID
  8
0
 62
7
  6
CONTINUOUS
 10
149.8628043005
 20
30.7228547004
 11
149.7471793074
 21
30.7873813202
 12
150.1518667936
 22
30.7873813202
 13
150.1518667936
 23
30.7873813202
  0
SOLID
  8
0
 62
7
  6
CONTINUOUS
 10
150.1518667936
 20
30.7873813202
 11
150.498741835
 21
30.7228547004
 12
149.8628043005
 22
30.7228547004
 13
149.8628043005
 23
30.7228547004
  0
SOLID
  8
0
 62
7
  6
CONTINUOUS
 10
150.0362418212
 20
30.658327332
 11
149.8628043005
 21
30.7228547004
 12
150.498741835
 22
30.7228547004
 13
150.498741835
 23
30.7228547004
  0
SOLID
  8
0
 62
7
  6
CONTINUOUS
 10
154.0831168074
 20
31.1100184386
 11
154.1987416972
 21
31.1745462761
 12
154.7768668074
 22
31.1422827828
 13
154.7768668074
 23
31.1422827828
  0
SOLID
  8
0
 62
7
  6
CONTINUOUS
 10
154.7768668074
 20
31.1422827828
 11
154.5456166972
 21
31.1100184386
 12
154.0831168074
 22
31.1100184386
 13
154.0831168074
 23
31.1100184386
  0
SOLID
  8
0
 62
7
  6
CONTINUOUS
 10
153.9674919177
 20
30.9809642992
 11
154.0831168074
 21
31.1100184386
 12
154.5456166972
 22
31.1100184386
 13
154.5456166972
 23
31.1100184386
  0
SOLID
  8
0
 62
7
  6
CONTINUOUS
 10
154.3143669177
 20
31.0132277988
 11
153.9674919177
 21
30.9809642992
 12
154.4299918074
 22
31.0777556927
 13
154.4299918074
 23
31.0777556927
  0
SOLID
  8
0
 62
7
  6
CONTINUOUS
 10
153.9674919177
 20
30.9809642992
 11
154.5456166972
 21
31.1100184796
 12
154.4299918074
 22
31.0777556927
 13
154.4299918074
 23
31.0777556927
  0
SOLID
  8
0
 62
7
  6
CONTINUOUS
 10
154.3143669177
 20
31.0132277988
 11
154.2565543074
 21
30.9164372091
 12
153.9674919177
 22
30.9809642992
 13
153.9674919177
 23
30.9809642992
  0
SOLID
  8
0
 62
7
  6
CONTINUOUS
 10
153.9674919177
 20
30.8841729058
 11
153.9674919177
 21
30.9809642992
 12
154.2565543074
 22
30.9164372091
 13
154.2565543074
 23
30.9164372091
  0
SOLID
  8
0
 62
7
  6
CONTINUOUS
 10
154.2565543074
 20
30.9164372091
 11
154.2565543074
 21
30.8519086025
 12
153.9674919177
 22
30.8841729058
 13
153.9674919177
 23
30.8841729058
  0
SOLID
  8
0
 62
7
  6
CONTINUOUS
 10
154.0253041972
 20
30.7551187255
 11
153.9674919177
 21
30.8841729058
 12
154.2565543074
 22
30.8519086025
 13
154.2565543074
 23
30.8519086025
  0
SOLID
  8
0
 62
7
  6
CONTINUOUS
 10
155.412804528
 20
30.9487004259
 11
155.7018665869
 21
30.8519086025
 12
155.3549915869
 22
30.8841729058
 13
155.3549915869
 23
30.8841729058
  0
SOLID
  8
0
 62
7
  6
CONTINUOUS
 10
155.1815540869
 20
30.7873815123
 11
155.3549915869
 21
30.8841729058
 12
155.7018665869
 22
30.8519086025
 13
155.7018665869
 23
30.8519086025
  0
SOLID
  8
0
 62
7
  6
CONTINUOUS
 10
155.1815540869
 20
30.7873815123
 11
155.7018665869
 21
30.8519086025
 12
155.412804528
 22
30.7551187255
 13
155.412804528
 23
30.7551187255
  0
SOLID
  8
0
 62
7
  6
CONTINUOUS
 10
155.7018665869
 20
30.8519086025
 11
155.759679528
 21
30.6905916353
 12
155.412804528
 22
30.7551187255
 13
155.412804528
 23
30.7551187255
  0
SOLID
  8
0
 62
7
  6
CONTINUOUS
 10
155.4706168074
 20
30.658327332
 11
155.412804528
 21
30.7551187255
 12
155.759679528
 22
30.6905916353
 13
155.759679528
 23
30.6905916353
  0
SOLID
  8
0
 62
7
  6
CONTINUOUS
 10
155.4706168074
 20
30.658327332
 11
155.759679528
 21
30.6905916353
 12
155.5284290869
 22
30.5938002079
 13
155.5284290869
 23
30.5938002079
  0
SOLID
  8
0
 62
7
  6
CONTINUOUS
 10
155.759679528
 20
30.6905916353
 11
155.8174918074
 21
30.5938002079
 12
155.5284290869
 22
30.5938002079
 13
155.5284290869
 23
30.5938002079
  0
SOLID
  8
0
 62
7
  6
CONTINUOUS
 10
151.0768668626
 20
30.8196456577
 11
151.1346793074
 21
30.9164373395
 12
151.4237418626
 22
30.9164373395
 13
151.4237418626
 23
30.9164373395
  0
SOLID
  8
0
 62
7
  6
CONTINUOUS
 10
151.4237418626
 20
30.9164373395
 11
151.3659292523
 21
30.7873815123
 12
151.0768668626
 22
30.8196456577
 13
151.0768668626
 23
30.8196456577
  0
SOLID
  8
0
 62
7
  6
CONTINUOUS
 10
150.9034292799
 20
30.7551187255
 11
151.0768668626
 21
30.8196456577
 12
151.3659292523
 22
30.7873815123
 13
151.3659292523
 23
30.7873815123
  0
SOLID
  8
0
 62
7
  6
CONTINUOUS
 10
150.9034292799
 20
30.7551187255
 11
151.3659292523
 21
30.7873815123
 12
150.498741835
 22
30.7228544222
 13
150.498741835
 23
30.7228544222
  0
SOLID
  8
0
 62
7
  6
CONTINUOUS
 10
151.3659292523
 20
30.7873815123
 11
151.1924917523
 21
30.6905916353
 12
150.498741835
 22
30.7228544222
 13
150.498741835
 23
30.7228544222
  0
SOLID
  8
0
 62
7
  6
CONTINUOUS
 10
150.0362418212
 20
30.658327332
 11
150.498741835
 21
30.7228544222
 12
151.1924917523
 22
30.6905916353
 13
151.1924917523
 23
30.6905916353
  0
SOLID
  8
0
 62
7
  6
CONTINUOUS
 10
150.0362418212
 20
30.658327332
 11
151.1924917523
 21
30.6905916353
 12
150.2096793212
 22
30.6260631011
 13
150.2096793212
 23
30.6260631011
  0
SOLID
  8
0
 62
7
  6
CONTINUOUS
 10
151.1924917523
 20
30.6905916353
 11
150.9612418074
 21
30.6260631011
 12
150.2096793212
 22
30.6260631011
 13
150.2096793212
 23
30.6260631011
  0
SOLID
  8
0
 62
7
  6
CONTINUOUS
 10
150.5565542799
 20
30.5938002419
 11
150.2096793212
 21
30.6260631011
 12
150.9612418074
 22
30.6260631011
 13
150.9612418074
 23
30.6260631011
  0
SOLID
  8
0
 62
7
  6
CONTINUOUS
 10
154.0253041972
 20
30.7551187255
 11
154.2565543074
 21
30.8519086025
 12
154.3143669177
 22
30.7873815123
 13
154.3143669177
 23
30.7873815123
  0
SOLID
  8
0
 62
7
  6
CONTINUOUS
 10
154.3143669177
 20
30.7873815123
 11
154.5456166972
 21
30.7228544222
 12
154.0253041972
 22
30.7551187255
 13
154.0253041972
 23
30.7551187255
  0
SOLID
  8
0
 62
7
  6
CONTINUOUS
 10
154.1987416972
 20
30.658327332
 11
154.0253041972
 21
30.7551187255
 12
154.5456166972
 22
30.7228544222
 13
154.5456166972
 23
30.7228544222
  0
SOLID
  8
0
 62
7
  6
CONTINUOUS
 10
154.8924916972
 20
30.7228544637
 11
155.1815540869
 21
30.7873815123
 12
155.412804528
 22
30.7551187255
 13
155.412804528
 23
30.7551187255
  0
SOLID
  8
0
 62
7
  6
CONTINUOUS
 10
155.412804528
 20
30.7551187255
 11
155.3549915869
 21
30.6905916353
 12
154.8924916972
 22
30.7228544637
 13
154.8924916972
 23
30.7228544637
  0
SOLID
  8
0
 62
7
  6
CONTINUOUS
 10
155.3549915869
 20
30.6905916353
 11
154.1987416972
 21
30.658327332
 12
154.8924916972
 22
30.7228544637
 13
154.8924916972
 23
30.7228544637
  0
SOLID
  8
0
 62
7
  6
CONTINUOUS
 10
154.1987416972
 20
30.658327332
 11
154.5456166972
 21
30.7228544637
 12
154.8924916972
 22
30.7228544637
 13
154.8924916972
 23
30.7228544637
  0
SOLID
  8
0
 62
7
  6
CONTINUOUS
 10
154.1987416972
 20
30.658327332
 11
155.3549915869
 21
30.6905916353
 12
154.3143669177
 22
30.6260630541
 13
154.3143669177
 23
30.6260630541
  0
SOLID
  8
0
 62
7
  6
CONTINUOUS
 10
155.3549915869
 20
30.6905916353
 11
155.1815540869
 21
30.6260630541
 12
154.3143669177
 22
30.6260630541
 13
154.3143669177
 23
30.6260630541
  0
SOLID
  8
0
 62
7
  6
CONTINUOUS
 10
154.5456166972
 20
30.5938002188
 11
154.3143669177
 21
30.6260630541
 12
155.1815540869
 22
30.6260630541
 13
155.1815540869
 23
30.6260630541
  0
SOLID
  8
0
 62
7
  6
CONTINUOUS
 10
155.1815540869
 20
30.6260630541
 11
154.8924916972
 21
30.5938002188
 12
154.5456166972
 22
30.5938002188
 13
154.5456166972
 23
30.5938002188
  0
SOLID
  8
0
 62
7
  6
CONTINUOUS
 10
159.575304528
 20
30.7551187255
 11
159.228429528
 21
30.7228544637
 12
159.4596793074
 22
30.7873815123
 13
159.4596793074
 23
30.7873815123
  0
SOLID
  8
0
 62
7
  6
CONTINUOUS
 10
159.4596793074
 20
30.7873815123
 11
159.228429528
 21
30.7228544637
 12
159.401867028
 22
30.851908644
 13
159.401867028
 23
30.851908644
  0
SOLID
  8
0
 62
7
  6
CONTINUOUS
 10
159.228429528
 20
30.7228544637
 11
159.1128043074
 21
30.851908644
 12
159.401867028
 22
30.851908644
 13
159.401867028
 23
30.851908644
  0
SOLID
  8
0
 62
7
  6
CONTINUOUS
 10
159.575304528
 20
30.7551187255
 11
159.922179528
 21
30.7228544637
 12
159.228429528
 22
30.7228544637
 13
159.228429528
 23
30.7228544637
  0
SOLID
  8
0
 62
7
  6
CONTINUOUS
 10
156.279992028
 20
30.5938002419
 11
156.279992028
 21
31.6262382337
 12
156.5690540869
 22
30.5938002419
 13
156.5690540869
 23
31.6262382337
  0
ENDBLK
  8
0
  6
BYBLOCK
 62
0
  0
BLOCK
  8
0
 62
2
  6
CONTINUOUS
  2
SYMBOL_3_BL0
 70
64
 10
32.1213064866
 20
19.8534310916
  0
TEXT
  8
0
 62
7
  6
CONTINUOUS
 10
18.3860103289
 20
19.2268451992
  7
TEXTSTYLE_3
 40
2.7338706658
  1
Ammeraal Beltech
 41
1.0
 51
15.0
 72
0
  0
TEXT
  8
0
 62
7
  6
CONTINUOUS
 10
29.1868111546
 20
16.9533085264
  7
TEXTSTYLE_4
 40
1.0935482663
  1
Innovation & Service in Belting
 41
1.0
 72
0
  0
LINE
  8
0
 62
7
  6
CONTINUOUS
 10
12.3614696776
 20
19.9934385078
 11
13.1396216709
 21
23.6543558055
  0
LINE
  8
0
 62
7
  6
CONTINUOUS
 10
23.2347899607
 20
27.3177497171
 11
13.6274394139
 21
24.1961322958
  0
LINE
  8
0
 62
7
  6
CONTINUOUS
 10
12.5867530099
 20
19.3000877048
 11
20.093828271
 21
12.5406867788
  0
LINE
  8
0
 62
7
  6
CONTINUOUS
 10
12.8492874206
 20
20.5352149982
 11
23.6575567857
 21
24.0470345971
  0
LINE
  8
0
 62
7
  6
CONTINUOUS
 10
23.6533516486
 20
13.6972460334
 11
15.2078919798
 21
21.3015720751
  0
LINE
  8
0
 62
7
  6
CONTINUOUS
 10
24.1731743684
 20
26.4728246013
 11
23.1966148312
 21
21.8784731989
  0
LINE
  8
0
 62
7
  6
CONTINUOUS
 10
22.4968128835
 20
18.5861638851
 11
21.810364672
 21
15.3566789607
  0
LINE
  8
0
 62
7
  6
CONTINUOUS
 10
24.8542704669
 20
14.087448211
 11
25.8105020025
 21
18.5861638851
  0
LINE
  8
0
 62
7
  6
CONTINUOUS
 10
26.5103039502
 20
21.8784731989
 11
26.9545457526
 21
23.9684665583
  0
LINE
  8
0
 62
7
  6
CONTINUOUS
 10
20.8069293463
 20
12.3891124661
 11
24.3664527239
 21
13.5456717207
  0
LINE
  8
0
 62
7
  6
CONTINUOUS
 10
23.9478910361
 20
27.1661754044
 11
26.7292624203
 21
24.6618173613
  0
ARC
  8
0
 62
7
  6
CONTINUOUS
 10
13.8527227462
 20
23.5027814928
 40
0.7290321776
 50
108.0
 51
168.0
  0
ARC
  8
0
 62
7
  6
CONTINUOUS
 10
23.4600732931
 20
26.624398914
 40
0.7290321776
 50
348.0
 51
108.0
  0
ARC
  8
0
 62
7
  6
CONTINUOUS
 10
26.2414446773
 20
24.120040871
 40
0.7290321776
 50
348.0
 51
48.0
  0
ARC
  8
0
 62
7
  6
CONTINUOUS
 10
20.581646014
 20
13.0824632691
 40
0.7290321776
 50
228.0
 51
288.0
  0
ARC
  8
0
 62
7
  6
CONTINUOUS
 10
13.0745707529
 20
19.8418641951
 40
0.7290321776
 50
108.0
 51
228.0
  0
ARC
  8
0
 62
7
  6
CONTINUOUS
 10
24.1411693916
 20
14.2390225237
 40
0.7290321776
 50
228.0
 51
348.0
  0
ENDBLK
  8
0
  6
BYBLOCK
 62
0
  0
ENDSEC
  0
SECTION
  2
ENTITIES
  0
TEXT
  8
0
 62
5
  6
CONTINUOUS
 10
96.0
 20
25.636
  7
TEXTSTYLE_2
 40
2.8
  1
Scale :
 41
0.6
 51
0.000019
 72
0
  0
TEXT
  8
0
 62
5
  6
CONTINUOUS
 10
116.0
 20
25.636
  7
TEXTSTYLE_2
 40
2.8
  1
Belt type:
 41
0.6
 51
0.000019
 72
0
  0
INSERT
  8
0
 62
2
  6
CONTINUOUS
  2
SYMBOL_3_BL0
 10
32.1213064866
 20
19.8534310916
  0
INSERT
  8
0
 62
2
  6
CONTINUOUS
  2
SYMBOL_8_BL1
 10
173.5956734183
 20
35.5937998301
  0
LINE
  8
0
 62
2
  6
CONTINUOUS
 10
10.0
 20
30.0
 11
200.0
 21
30.0
  0
LINE
  8
0
 62
2
  6
CONTINUOUS
 10
10.0
 20
30.0
 11
10.0
 21
10.0
  0
LINE
  8
0
 62
2
  6
CONTINUOUS
 10
10.0
 20
10.0
 11
200.0
 21
10.0
  0
LINE
  8
0
 62
2
  6
CONTINUOUS
 10
95.0
 20
30.0
 11
95.0
 21
10.0
  0
LINE
  8
0
 62
2
  6
CONTINUOUS
 10
115.0
 20
30.0
 11
115.0
 21
10.0
  0
LINE
  8
0
 62
2
  6
CONTINUOUS
 10
200.0
 20
30.0
 11
200.0
 21
10.0
  0
TEXT
  8
0
 62
5
  6
CONTINUOUS
 10
13.0
 20
23.303
  7
TEXTSTYLE_5
 40
1.52
  1
                                                                     Ammeraal Beltech Modular A/S
 41
1.0
 72
0
  0
TEXT
  8
0
 62
5
  6
CONTINUOUS
 10
13.0
 20
20.595
  7
TEXTSTYLE_5
 40
1.5
  1
                                                                      Hjulmagervej 21,  7100 Vejle,  DK
 41
1.0
 72
0
  0
TEXT
  8
0
 62
5
  6
CONTINUOUS
 10
13.0
 20
17.881
  7
TEXTSTYLE_5
 40
1.495
  1
                                                                      tel: 
 41
1.0
 72
0
  0
TEXT
  8
0
 62
5
  6
CONTINUOUS
 10
57.9869465649
 20
17.881
  7
TEXTSTYLE_5
 40
1.51
  1
+45 75723100     fax: +45 75723348
 41
1.0
 72
0
  0
TEXT
  8
0
 62
5
  6
CONTINUOUS
 10
13.0
 20
15.177
  7
TEXTSTYLE_5
 40
1.5
  1
                                                                      admin@unichains.dk  www.unichains.com
 41
1.0
 72
0
  0
TEXT
  8
0
 62
5
  6
CONTINUOUS
 10
99.75
 20
13.75
  7
TEXTSTYLE_6
 40
5.0
  1
1:1
 41
0.7
 72
1
 11
105.0
 21
13.75
  0
TEXT
  8
0
 62
5
  6
CONTINUOUS
 10
118.0
 20
13.75
  7
TEXTSTYLE_7
 40
7.5
  1
uni SSB-F K300
 41
0.5822916667
 72
0
  0
LINE
  8
0
 62
7
  6
CONTINUOUS
 10
210.0
 20
0.0
 11
0.0
 21
0.0
  0
LINE
  8
0
 62
7
  6
CONTINUOUS
 10
10.0
 20
10.0
 11
200.0
 21
10.0
  0
LINE
  8
0
 62
7
  6
CONTINUOUS
 10
10.0
 20
30.0
 11
200.0
 21
30.0
  0
LINE
  8
0
 62
7
  6
CONTINUOUS
 10
0.0
 20
0.0
 11
0.0
 21
297.0
  0
LINE
  8
0
 62
7
  6
CONTINUOUS
 10
10.0
 20
10.0
 11
10.0
 21
287.0
  0
LINE
  8
0
 62
7
  6
CONTINUOUS
 10
200.0
 20
287.0
 11
200.0
 21
10.0
  0
LINE
  8
0
 62
7
  6
CONTINUOUS
 10
210.0
 20
0.0
 11
210.0
 21
297.0
  0
LINE
  8
0
 62
7
  6
CONTINUOUS
 10
10.0
 20
287.0
 11
200.0
 21
287.0
  0
LINE
  8
0
 62
7
  6
CONTINUOUS
 10
0.0
 20
297.0
 11
210.0
 21
297.0
  0
LINE
  8
0
 62
7
  6
CONTINUOUS
 10
51.4961476253
 20
96.8981681034
 11
90.0961476293
 21
96.8981681034
  0
POLYLINE
  8
0
 62
7
  6
CONTINUOUS
 66
1
 70
0
  0
VERTEX
  8
0
 62
7
  6
CONTINUOUS
 10
52.4462143057
 20
106.231126987
  0
VERTEX
  8
0
 62
7
  6
CONTINUOUS
 10
52.4974541091
 20
106.1905322525
  0
VERTEX
  8
0
 62
7
  6
CONTINUOUS
 10
52.5461376322
 20
106.1457255512
  0
VERTEX
  8
0
 62
7
  6
CONTINUOUS
 10
52.5916956598
 20
106.0965630913
  0
VERTEX
  8
0
 62
7
  6
CONTINUOUS
 10
52.6331077897
 20
106.0428856701
  0
VERTEX
  8
0
 62
7
  6
CONTINUOUS
 10
52.6687324851
 20
105.9846466671
  0
VERTEX
  8
0
 62
7
  6
CONTINUOUS
 10
52.6955468806
 20
105.9237026626
  0
VERTEX
  8
0
 62
7
  6
CONTINUOUS
 10
52.7106072661
 20
105.8647833522
  0
VERTEX
  8
0
 62
7
  6
CONTINUOUS
 10
52.7142183219
 20
105.8198786909
  0
SEQEND
  0
LINE
  8
0
 62
7
  6
CONTINUOUS
 10
52.1994999031
 20
100.4401900908
 11
51.478697881
 21
100.4150191296
  0
LINE
  8
0
 62
7
  6
CONTINUOUS
 10
52.0026365854
 20
106.4255588169
 11
52.1496177642
 21
106.374011697
  0
LINE
  8
0
 62
7
  6
CONTINUOUS
 10
52.1496177642
 20
106.374011697
 11
52.1881072726
 21
106.3602656087
  0
LINE
  8
0
 62
7
  6
CONTINUOUS
 10
52.1881072726
 20
106.3602656087
 11
52.2144707289
 21
106.3506931624
  0
LINE
  8
0
 62
7
  6
CONTINUOUS
 10
52.2144707289
 20
106.3506931624
 11
52.2413914769
 21
106.3407462198
  0
LINE
  8
0
 62
7
  6
CONTINUOUS
 10
52.2413914769
 20
106.3407462198
 11
52.2672417026
 21
106.3309976686
  0
LINE
  8
0
 62
7
  6
CONTINUOUS
 10
52.2673202506
 20
106.3309677391
 11
52.2672417026
 21
106.3309976686
  0
POLYLINE
  8
0
 62
7
  6
CONTINUOUS
 66
1
 70
0
  0
VERTEX
  8
0
 62
7
  6
CONTINUOUS
 10
52.2673202097
 20
106.3309682463
  0
VERTEX
  8
0
 62
7
  6
CONTINUOUS
 10
52.2820319823
 20
106.3251290643
  0
VERTEX
  8
0
 62
7
  6
CONTINUOUS
 10
52.3379328138
 20
106.298970986
  0
VERTEX
  8
0
 62
7
  6
CONTINUOUS
 10
52.392862071
 20
106.267411213
  0
VERTEX
  8
0
 62
7
  6
CONTINUOUS
 10
52.4462143057
 20
106.231126987
  0
SEQEND
  0
POLYLINE
  8
0
 62
7
  6
CONTINUOUS
 66
1
 70
0
  0
VERTEX
  8
0
 62
7
  6
CONTINUOUS
 10
61.1052356191
 20
160.2707211855
  0
VERTEX
  8
0
 62
7
  6
CONTINUOUS
 10
61.1691161845
 20
160.3568482063
  0
VERTEX
  8
0
 62
7
  6
CONTINUOUS
 10
61.2437277026
 20
160.5046420015
  0
SEQEND
  0
LINE
  8
0
 62
7
  6
CONTINUOUS
 10
61.1052356191
 20
160.2707211855
 11
61.0590272627
 21
160.2209538925
  0
LINE
  8
0
 62
7
  6
CONTINUOUS
 10
60.929064567
 20
160.1165890365
 11
61.061929215
 21
160.2237793486
  0
LINE
  8
0
 62
7
  6
CONTINUOUS
 10
61.0590272627
 20
160.2209538925
 11
60.865940797
 21
160.0799867905
  0
LINE
  8
0
 62
7
  6
CONTINUOUS
 10
60.865940797
 20
160.0799867905
 11
60.6398813096
 21
160.0023858711
  0
POLYLINE
  8
0
 62
7
  6
CONTINUOUS
 66
1
 70
0
  0
VERTEX
  8
0
 62
7
  6
CONTINUOUS
 10
92.159306508
 20
109.7952535956
  0
VERTEX
  8
0
 62
7
  6
CONTINUOUS
 10
92.0107017299
 20
109.7543722846
  0
VERTEX
  8
0
 62
7
  6
CONTINUOUS
 10
91.8632306917
 20
109.6797471704
  0
SEQEND
  0
LINE
  8
0
 62
7
  6
CONTINUOUS
 10
52.1994973093
 20
106.3561462067
 11
51.478697881
 21
106.3813170773
  0
POLYLINE
  8
0
 62
7
  6
CONTINUOUS
 66
1
 70
0
  0
VERTEX
  8
0
 62
7
  6
CONTINUOUS
 10
50.9961506532
 20
135.709096759
  0
VERTEX
  8
0
 62
7
  6
CONTINUOUS
 10
51.0010501284
 20
135.6391361118
  0
VERTEX
  8
0
 62
7
  6
CONTINUOUS
 10
51.0477161349
 20
135.4874991537
  0
VERTEX
  8
0
 62
7
  6
CONTINUOUS
 10
51.126885595
 20
135.3711639947
  0
VERTEX
  8
0
 62
7
  6
CONTINUOUS
 10
51.2226380987
 20
135.2891712214
  0
VERTEX
  8
0
 62
7
  6
CONTINUOUS
 10
51.3138207046
 20
135.2412790969
  0
VERTEX
  8
0
 62
7
  6
CONTINUOUS
 10
51.3801679967
 20
135.2192018726
  0
VERTEX
  8
0
 62
7
  6
CONTINUOUS
 10
51.4278768184
 20
135.2084299858
  0
VERTEX
  8
0
 62
7
  6
CONTINUOUS
 10
51.4673209938
 20
135.2019114815
  0
VERTEX
  8
0
 62
7
  6
CONTINUOUS
 10
51.5048501682
 20
135.1970828005
  0
VERTEX
  8
0
 62
7
  6
CONTINUOUS
 10
51.5442818426
 20
135.1929573069
  0
VERTEX
  8
0
 62
7
  6
CONTINUOUS
 10
51.5877668149
 20
135.1891478082
  0
VERTEX
  8
0
 62
7
  6
CONTINUOUS
 10
51.6366649651
 20
135.185485378
  0
VERTEX
  8
0
 62
7
  6
CONTINUOUS
 10
51.6919128691
 20
135.1818911574
  0
VERTEX
  8
0
 62
7
  6
CONTINUOUS
 10
51.7542151774
 20
135.1783268465
  0
VERTEX
  8
0
 62
7
  6
CONTINUOUS
 10
51.8241678229
 20
135.1747733248
  0
VERTEX
  8
0
 62
7
  6
CONTINUOUS
 10
51.9022953019
 20
135.1712223348
  0
VERTEX
  8
0
 62
7
  6
CONTINUOUS
 10
52.0845087716
 20
135.1641368492
  0
SEQEND
  0
LINE
  8
4_SURFACE
 62
7
  6
CONTINUOUS
 10
50.9961476293
 20
159.3872522771
 11
50.9961476293
 21
135.7090839298
  0
LINE
  8
0
 62
7
  6
CONTINUOUS
 10
50.9961476293
 20
108.7872522771
 11
50.9961476293
 21
106.8810124909
  0
LINE
  8
0
 62
7
  6
CONTINUOUS
 10
50.9961476293
 20
99.915323716
 11
50.9961476293
 21
97.3981680995
  0
LINE
  8
0
 62
7
  6
CONTINUOUS
 10
50.9961476293
 20
159.3872522771
 11
50.9961476293
 21
135.7090839298
  0
LINE
  8
0
 62
7
  6
CONTINUOUS
 10
100.5704481302
 20
169.3479865054
 11
100.6018159903
 21
169.3594103784
  0
LINE
  8
0
 62
7
  6
CONTINUOUS
 10
100.6018159903
 20
169.3594103784
 11
100.642508892
 21
169.3739518482
  0
LINE
  8
0
 62
7
  6
CONTINUOUS
 10
100.642508892
 20
169.3739518482
 11
100.7896565737
 21
169.4255580149
  0
LINE
  8
0
 62
7
  6
CONTINUOUS
 10
92.152413949
 20
109.7939503358
 11
92.2961476293
 21
109.8069711353
  0
LINE
  8
0
 62
7
  6
CONTINUOUS
 10
60.6398813111
 20
109.4023858713
 11
60.4961476294
 21
109.3893650717
  0
LINE
  8
0
 62
7
  6
CONTINUOUS
 10
92.2961476293
 20
109.8070479524
 11
92.159306508
 21
109.7952535956
  0
LINE
  8
0
 62
7
  6
CONTINUOUS
 10
60.4961476293
 20
109.3892882545
 11
60.6329889919
 21
109.4010826532
  0
POLYLINE
  8
0
 62
7
  6
CONTINUOUS
 66
1
 70
0
  0
VERTEX
  8
0
 62
7
  6
CONTINUOUS
 10
100.9091713636
 20
109.8720590131
  0
VERTEX
  8
0
 62
7
  6
CONTINUOUS
 10
100.9847238304
 20
109.8755804622
  0
VERTEX
  8
0
 62
7
  6
CONTINUOUS
 10
101.0524996861
 20
109.8791138284
  0
VERTEX
  8
0
 62
7
  6
CONTINUOUS
 10
101.1129293263
 20
109.8826664354
  0
VERTEX
  8
0
 62
7
  6
CONTINUOUS
 10
101.1665622225
 20
109.8862587364
  0
VERTEX
  8
0
 62
7
  6
CONTINUOUS
 10
101.214111019
 20
109.8899350758
  0
VERTEX
  8
0
 62
7
  6
CONTINUOUS
 10
101.2564813322
 20
109.8937799311
  0
VERTEX
  8
0
 62
7
  6
CONTINUOUS
 10
101.2950639769
 20
109.8979794002
  0
VERTEX
  8
0
 62
7
  6
CONTINUOUS
 10
101.3321380942
 20
109.902968137
  0
VERTEX
  8
0
 62
7
  6
CONTINUOUS
 10
101.3719084867
 20
109.9098867489
  0
VERTEX
  8
0
 62
7
  6
CONTINUOUS
 10
101.4210382946
 20
109.9216462717
  0
VERTEX
  8
0
 62
7
  6
CONTINUOUS
 10
101.4904129727
 20
109.9462861427
  0
VERTEX
  8
0
 62
7
  6
CONTINUOUS
 10
101.5814195245
 20
109.9971775713
  0
VERTEX
  8
0
 62
7
  6
CONTINUOUS
 10
101.6736561033
 20
110.0804644371
  0
VERTEX
  8
0
 62
7
  6
CONTINUOUS
 10
101.748413088
 20
110.195468791
  0
VERTEX
  8
0
 62
7
  6
CONTINUOUS
 10
101.7918645561
 20
110.3436862266
  0
VERTEX
  8
0
 62
7
  6
CONTINUOUS
 10
101.796144719
 20
110.4090959295
  0
SEQEND
  0
POLYLINE
  8
0
 62
7
  6
CONTINUOUS
 66
1
 70
0
  0
VERTEX
  8
0
 62
7
  6
CONTINUOUS
 10
51.8831238943
 20
109.3242771937
  0
VERTEX
  8
0
 62
7
  6
CONTINUOUS
 10
51.8075714279
 20
109.3207557447
  0
VERTEX
  8
0
 62
7
  6
CONTINUOUS
 10
51.7397955723
 20
109.3172223785
  0
VERTEX
  8
0
 62
7
  6
CONTINUOUS
 10
51.679365932
 20
109.3136697715
  0
VERTEX
  8
0
 62
7
  6
CONTINUOUS
 10
51.6257330357
 20
109.3100774705
  0
VERTEX
  8
0
 62
7
  6
CONTINUOUS
 10
51.5781842394
 20
109.3064011311
  0
VERTEX
  8
0
 62
7
  6
CONTINUOUS
 10
51.5358139264
 20
109.3025562758
  0
VERTEX
  8
0
 62
7
  6
CONTINUOUS
 10
51.4972312817
 20
109.2983568067
  0
VERTEX
  8
0
 62
7
  6
CONTINUOUS
 10
51.4601571643
 20
109.2933680699
  0
VERTEX
  8
0
 62
7
  6
CONTINUOUS
 10
51.4203867714
 20
109.2864494578
  0
VERTEX
  8
0
 62
7
  6
CONTINUOUS
 10
51.3712569637
 20
109.2746899351
  0
VERTEX
  8
0
 62
7
  6
CONTINUOUS
 10
51.3018822859
 20
109.2500500641
  0
VERTEX
  8
0
 62
7
  6
CONTINUOUS
 10
51.2108757343
 20
109.1991586356
  0
VERTEX
  8
0
 62
7
  6
CONTINUOUS
 10
51.1186391554
 20
109.1158717699
  0
VERTEX
  8
0
 62
7
  6
CONTINUOUS
 10
51.0438821707
 20
109.000867416
  0
VERTEX
  8
0
 62
7
  6
CONTINUOUS
 10
51.0004307025
 20
108.8526499803
  0
VERTEX
  8
0
 62
7
  6
CONTINUOUS
 10
50.9961505397
 20
108.7872402774
  0
SEQEND
  0
LINE
  8
0
 62
7
  6
CONTINUOUS
 10
100.7335235704
 20
109.8650568183
 11
100.9091713636
 21
109.8720590131
  0
LINE
  8
0
 62
7
  6
CONTINUOUS
 10
52.0587716875
 20
109.3312793886
 11
51.8831238943
 21
109.3242771937
  0
LINE
  8
0
 62
7
  6
CONTINUOUS
 10
100.5239716928
 20
109.8581495249
 11
100.7335235704
 21
109.8650568183
  0
LINE
  8
0
 62
7
  6
CONTINUOUS
 10
52.268323565
 20
109.338186682
 11
52.0587716875
 21
109.3312793886
  0
LINE
  8
0
 62
7
  6
CONTINUOUS
 10
100.2796885921
 20
109.8514011024
 11
100.5239716928
 21
109.8581495249
  0
LINE
  8
0
 62
7
  6
CONTINUOUS
 10
52.5126066654
 20
109.3449351045
 11
52.268323565
 21
109.338186682
  0
LINE
  8
0
 62
7
  6
CONTINUOUS
 10
99.8462475766
 20
109.8416946744
 11
100.2796885921
 21
109.8514011024
  0
LINE
  8
0
 62
7
  6
CONTINUOUS
 10
52.9460476809
 20
109.3546415325
 11
52.5126066654
 21
109.3449351045
  0
LINE
  8
0
 62
7
  6
CONTINUOUS
 10
99.1409841323
 20
109.829866298
 11
99.8462475766
 21
109.8416946744
  0
LINE
  8
0
 62
7
  6
CONTINUOUS
 10
53.651311125
 20
109.3664699088
 11
52.9460476809
 21
109.3546415325
  0
LINE
  8
0
 62
7
  6
CONTINUOUS
 10
98.2927360963
 20
109.8198525156
 11
99.1409841323
 21
109.829866298
  0
LINE
  8
0
 62
7
  6
CONTINUOUS
 10
54.4995591616
 20
109.3764836913
 11
53.651311125
 21
109.3664699088
  0
LINE
  8
0
 62
7
  6
CONTINUOUS
 10
55.7433040958
 20
109.3854628762
 11
54.4995591616
 21
109.3764836913
  0
LINE
  8
0
 62
7
  6
CONTINUOUS
 10
97.0489911627
 20
109.8108733307
 11
98.2927360963
 21
109.8198525156
  0
LINE
  8
0
 62
7
  6
CONTINUOUS
 10
57.3461476293
 20
109.3893643742
 11
55.7433040958
 21
109.3854628762
  0
LINE
  8
0
 62
7
  6
CONTINUOUS
 10
95.4461476293
 20
109.8069718327
 11
97.0489911627
 21
109.8108733307
  0
LINE
  8
0
 62
7
  6
CONTINUOUS
 10
57.3461476293
 20
109.389364407
 11
60.4961476293
 21
109.389364407
  0
LINE
  8
0
 62
7
  6
CONTINUOUS
 10
95.4461476293
 20
109.8069717999
 11
92.2961476293
 21
109.8069717999
  0
LINE
  8
0
 62
7
  6
CONTINUOUS
 10
52.7142198101
 20
100.9764641125
 11
52.7142198101
 21
105.8198786399
  0
POLYLINE
  8
0
 62
7
  6
CONTINUOUS
 66
1
 70
0
  0
VERTEX
  8
0
 62
7
  6
CONTINUOUS
 10
61.2437277026
 20
160.5046420015
  0
VERTEX
  8
0
 62
7
  6
CONTINUOUS
 10
61.2844589483
 20
160.6532613217
  0
VERTEX
  8
0
 62
7
  6
CONTINUOUS
 10
61.2961476293
 20
160.7895624334
  0
SEQEND
  0
LINE
  8
0
 62
7
  6
CONTINUOUS
 10
100.5250518849
 20
169.3309969199
 11
100.5383225002
 21
169.3360277685
  0
POLYLINE
  8
0
 62
7
  6
CONTINUOUS
 66
1
 70
0
  0
VERTEX
  8
0
 62
7
  6
CONTINUOUS
 10
100.5383225002
 20
169.3360277685
  0
VERTEX
  8
0
 62
7
  6
CONTINUOUS
 10
100.5598243803
 20
169.3440637707
  0
VERTEX
  8
0
 62
7
  6
CONTINUOUS
 10
100.5704481302
 20
169.3479865054
  0
SEQEND
  0
LINE
  8
1_AXIS
 62
2
  6
CENTER
 10
57.3461476293
 20
94.8981681034
 11
57.3461476293
 21
161.9440574022
  0
POLYLINE
  8
0
 62
7
  6
CONTINUOUS
 66
1
 70
0
  0
VERTEX
  8
0
 62
7
  6
CONTINUOUS
 10
52.7142180434
 20
100.9764641055
  0
VERTEX
  8
0
 62
7
  6
CONTINUOUS
 10
52.7075786727
 20
100.9152325451
  0
VERTEX
  8
0
 62
7
  6
CONTINUOUS
 10
52.688808019
 20
100.854704874
  0
VERTEX
  8
0
 62
7
  6
CONTINUOUS
 10
52.6621014413
 20
100.7995455966
  0
VERTEX
  8
0
 62
7
  6
CONTINUOUS
 10
52.6297698222
 20
100.7486878115
  0
VERTEX
  8
0
 62
7
  6
CONTINUOUS
 10
52.5930503834
 20
100.7013714698
  0
VERTEX
  8
0
 62
7
  6
CONTINUOUS
 10
52.5529748187
 20
100.6574847909
  0
VERTEX
  8
0
 62
7
  6
CONTINUOUS
 10
52.5102957518
 20
100.6169744773
  0
VERTEX
  8
0
 62
7
  6
CONTINUOUS
 10
52.4654916093
 20
100.5797765149
  0
SEQEND
  0
LINE
  8
0
 62
7
  6
CONTINUOUS
 10
91.9263544603
 20
160.3163494158
 11
92.1524139475
 21
160.3939503356
  0
POLYLINE
  8
0
 62
7
  6
CONTINUOUS
 66
1
 70
0
  0
VERTEX
  8
0
 62
7
  6
CONTINUOUS
 10
60.6329889919
 20
109.4010826532
  0
VERTEX
  8
0
 62
7
  6
CONTINUOUS
 10
60.781593786
 20
109.4419640206
  0
VERTEX
  8
0
 62
7
  6
CONTINUOUS
 10
60.9290647041
 20
109.5165891248
  0
SEQEND
  0
LINE
  8
0
 62
7
  6
CONTINUOUS
 10
61.2961476293
 20
134.3067737735
 11
61.2844589018
 21
134.4430751545
  0
LINE
  8
0
 62
7
  6
CONTINUOUS
 10
61.2961476293
 20
110.1895624334
 11
61.2961476293
 21
134.3067737735
  0
LINE
  8
0
 62
7
  6
CONTINUOUS
 10
61.2961476293
 20
160.7895624334
 11
61.2961476293
 21
171.5142138222
  0
POLYLINE
  8
0
 62
7
  6
CONTINUOUS
 66
1
 70
0
  0
VERTEX
  8
0
 62
7
  6
CONTINUOUS
 10
100.3268036494
 20
169.216559692
  0
VERTEX
  8
0
 62
7
  6
CONTINUOUS
 10
100.3734277166
 20
169.2504406246
  0
VERTEX
  8
0
 62
7
  6
CONTINUOUS
 10
100.4214401497
 20
169.2807456882
  0
VERTEX
  8
0
 62
7
  6
CONTINUOUS
 10
100.470547578
 20
169.3071721962
  0
VERTEX
  8
0
 62
7
  6
CONTINUOUS
 10
100.5250212998
 20
169.3309858075
  0
SEQEND
  0
LINE
  8
0
 62
7
  6
CONTINUOUS
 10
61.1691160718
 20
134.739488176
 11
61.1052923948
 21
134.8255483168
  0
POLYLINE
  8
0
 62
7
  6
CONTINUOUS
 66
1
 70
0
  0
VERTEX
  8
0
 62
7
  6
CONTINUOUS
 10
61.2844589018
 20
134.4430751545
  0
VERTEX
  8
0
 62
7
  6
CONTINUOUS
 10
61.2437275905
 20
134.5916944998
  0
VERTEX
  8
0
 62
7
  6
CONTINUOUS
 10
61.1691160718
 20
134.739488176
  0
SEQEND
  0
POLYLINE
  8
0
 62
7
  6
CONTINUOUS
 66
1
 70
0
  0
VERTEX
  8
0
 62
7
  6
CONTINUOUS
 10
61.2961476293
 20
171.3075701029
  0
VERTEX
  8
0
 62
7
  6
CONTINUOUS
 10
61.3044157525
 20
171.2266099542
  0
VERTEX
  8
0
 62
7
  6
CONTINUOUS
 10
61.3286307166
 20
171.1461173554
  0
VERTEX
  8
0
 62
7
  6
CONTINUOUS
 10
61.3711655643
 20
171.075005591
  0
VERTEX
  8
0
 62
7
  6
CONTINUOUS
 10
61.423419347
 20
170.9941441443
  0
VERTEX
  8
0
 62
7
  6
CONTINUOUS
 10
61.5046756862
 20
170.9546758581
  0
VERTEX
  8
0
 62
7
  6
CONTINUOUS
 10
61.5850606037
 20
170.8996292051
  0
VERTEX
  8
0
 62
7
  6
CONTINUOUS
 10
61.6830013832
 20
170.8771160814
  0
VERTEX
  8
0
 62
7
  6
CONTINUOUS
 10
61.7961476293
 20
170.8575701029
  0
SEQEND
  0
LINE
  8
0
 62
7
  6
CONTINUOUS
 10
91.8632305546
 20
160.2797470821
 11
91.73036606
 21
160.1725568748
  0
LINE
  8
0
 62
7
  6
CONTINUOUS
 10
91.7332679954
 20
160.1753823139
 11
91.9263544603
 21
160.3163494158
  0
LINE
  8
0
 62
7
  6
CONTINUOUS
 10
60.8731691476
 20
135.0125325101
 11
61.064832223
 21
134.8695739292
  0
POLYLINE
  8
0
 62
7
  6
CONTINUOUS
 66
1
 70
0
  0
VERTEX
  8
0
 62
7
  6
CONTINUOUS
 10
61.0619291986
 20
134.8725568748
  0
VERTEX
  8
0
 62
7
  6
CONTINUOUS
 10
60.929064704
 20
134.9797470821
  0
VERTEX
  8
0
 62
7
  6
CONTINUOUS
 10
60.781593786
 20
135.0543721863
  0
SEQEND
  0
LINE
  8
0
 62
7
  6
CONTINUOUS
 10
61.1052923948
 20
134.8255483168
 11
61.0619291986
 21
134.8725568748
  0
POLYLINE
  8
0
 62
7
  6
CONTINUOUS
 66
1
 70
0
  0
VERTEX
  8
0
 62
7
  6
CONTINUOUS
 10
61.2437275905
 20
109.9046417071
  0
VERTEX
  8
0
 62
7
  6
CONTINUOUS
 10
61.2844589018
 20
110.0532610524
  0
VERTEX
  8
0
 62
7
  6
CONTINUOUS
 10
61.2961476293
 20
110.1895624334
  0
SEQEND
  0
LINE
  8
0
 62
7
  6
CONTINUOUS
 10
91.6870599268
 20
160.1256153588
 11
91.7332679954
 21
160.1753823139
  0
LINE
  8
0
 62
7
  6
CONTINUOUS
 10
60.7632483444
 20
135.0594190405
 11
60.8142969864
 21
135.0334123404
  0
POLYLINE
  8
0
 62
7
  6
CONTINUOUS
 66
1
 70
0
  0
VERTEX
  8
0
 62
7
  6
CONTINUOUS
 10
91.6870599268
 20
160.1256153588
  0
VERTEX
  8
0
 62
7
  6
CONTINUOUS
 10
91.6231791868
 20
160.039488176
  0
VERTEX
  8
0
 62
7
  6
CONTINUOUS
 10
91.5485676681
 20
159.8916944998
  0
SEQEND
  0
LINE
  8
0
 62
7
  6
CONTINUOUS
 10
60.781593786
 20
135.0543721863
 11
60.6329889919
 21
135.0952535537
  0
LINE
  8
0
 62
7
  6
CONTINUOUS
 10
60.6478008157
 20
135.0924625219
 11
60.8731691476
 21
135.0125325101
  0
LINE
  8
0
 62
7
  6
CONTINUOUS
 10
96.8094558261
 20
134.6865572314
 11
92.2961476293
 21
134.689364407
  0
LINE
  8
0
 62
7
  6
CONTINUOUS
 10
55.9828394325
 20
135.1097789755
 11
60.4961476293
 21
135.1069717999
  0
LINE
  8
0
 62
7
  6
CONTINUOUS
 10
98.1258628145
 20
134.6780413601
 11
96.8094558261
 21
134.6865572314
  0
LINE
  8
0
 62
7
  6
CONTINUOUS
 10
54.6664324441
 20
135.1182948468
 11
55.9828394325
 21
135.1097789755
  0
LINE
  8
0
 62
7
  6
CONTINUOUS
 10
53.76477452
 20
135.1282982563
 11
54.6664324441
 21
135.1182948468
  0
LINE
  8
0
 62
7
  6
CONTINUOUS
 10
99.0275207386
 20
134.6680379506
 11
98.1258628145
 21
134.6780413601
  0
LINE
  8
0
 62
7
  6
CONTINUOUS
 10
53.016450187
 20
135.1403243765
 11
53.76477452
 21
135.1282982563
  0
LINE
  8
0
 62
7
  6
CONTINUOUS
 10
99.7758450716
 20
134.6560118304
 11
99.0275207386
 21
134.6680379506
  0
LINE
  8
0
 62
7
  6
CONTINUOUS
 10
52.5591272044
 20
135.1502371112
 11
53.016450187
 21
135.1403243765
  0
POLYLINE
  8
0
 62
7
  6
CONTINUOUS
 66
1
 70
0
  0
VERTEX
  8
0
 62
7
  6
CONTINUOUS
 10
100.3660308541
 20
134.6426797067
  0
VERTEX
  8
0
 62
7
  6
CONTINUOUS
 10
100.2331680542
 20
134.6460990957
  0
VERTEX
  8
0
 62
7
  6
CONTINUOUS
 10
99.7758450716
 20
134.6560118304
  0
SEQEND
  0
LINE
  8
0
 62
7
  6
CONTINUOUS
 10
52.3029827716
 20
135.1571183547
 11
52.5591272044
 21
135.1502371112
  0
LINE
  8
0
 62
7
  6
CONTINUOUS
 10
52.0845087716
 20
135.1641368492
 11
52.3029827716
 21
135.1571183547
  0
LINE
  8
0
 62
7
  6
CONTINUOUS
 10
60.6329889919
 20
135.0952535537
 11
60.4961476293
 21
135.1070479524
  0
LINE
  8
0
 62
7
  6
CONTINUOUS
 10
60.4961476293
 20
135.1069711476
 11
60.6478008157
 21
135.0924625219
  0
POLYLINE
  8
0
 62
7
  6
CONTINUOUS
 66
1
 70
0
  0
VERTEX
  8
0
 62
7
  6
CONTINUOUS
 10
61.1052353318
 20
109.670720848
  0
VERTEX
  8
0
 62
7
  6
CONTINUOUS
 10
61.1691160718
 20
109.7568480309
  0
VERTEX
  8
0
 62
7
  6
CONTINUOUS
 10
61.2437275905
 20
109.9046417071
  0
SEQEND
  0
LINE
  8
0
 62
7
  6
CONTINUOUS
 10
100.6031759495
 20
134.6357214162
 11
100.3660308541
 21
134.6426797067
  0
LINE
  8
0
 62
7
  6
CONTINUOUS
 10
92.1593062667
 20
134.7010826532
 11
92.2961476293
 21
134.6892882545
  0
LINE
  8
0
 62
7
  6
CONTINUOUS
 10
92.2961476293
 20
134.6893650593
 11
92.1444944429
 21
134.703873685
  0
LINE
  8
0
 62
7
  6
CONTINUOUS
 10
61.1052353318
 20
109.670720848
 11
61.0590272632
 21
109.620953893
  0
LINE
  8
0
 62
7
  6
CONTINUOUS
 10
92.0107014726
 20
134.7419640206
 11
92.1593062667
 21
134.7010826532
  0
LINE
  8
0
 62
7
  6
CONTINUOUS
 10
92.1444944429
 20
134.703873685
 11
91.9191261111
 21
134.7838036968
  0
POLYLINE
  8
0
 62
7
  6
CONTINUOUS
 66
1
 70
0
  0
VERTEX
  8
0
 62
7
  6
CONTINUOUS
 10
91.5485676681
 20
159.8916944998
  0
VERTEX
  8
0
 62
7
  6
CONTINUOUS
 10
91.5078363568
 20
159.7430751545
  0
VERTEX
  8
0
 62
7
  6
CONTINUOUS
 10
91.4961476293
 20
159.6067737735
  0
SEQEND
  0
LINE
  8
0
 62
7
  6
CONTINUOUS
 10
92.0289984545
 20
134.7369304977
 11
91.9779249036
 21
134.7629498877
  0
LINE
  8
0
 62
7
  6
CONTINUOUS
 10
91.9191261111
 20
134.7838036968
 11
91.7274630356
 21
134.9267622777
  0
POLYLINE
  8
0
 62
7
  6
CONTINUOUS
 66
1
 70
0
  0
VERTEX
  8
0
 62
7
  6
CONTINUOUS
 10
91.4961476293
 20
98.488766104
  0
VERTEX
  8
0
 62
7
  6
CONTINUOUS
 10
91.4878795061
 20
98.5697262527
  0
VERTEX
  8
0
 62
7
  6
CONTINUOUS
 10
91.463664542
 20
98.6502188515
  0
VERTEX
  8
0
 62
7
  6
CONTINUOUS
 10
91.4211296943
 20
98.7213306159
  0
VERTEX
  8
0
 62
7
  6
CONTINUOUS
 10
91.3688759116
 20
98.8021920626
  0
VERTEX
  8
0
 62
7
  6
CONTINUOUS
 10
91.2876195725
 20
98.8416603488
  0
VERTEX
  8
0
 62
7
  6
CONTINUOUS
 10
91.2072346549
 20
98.8967070018
  0
VERTEX
  8
0
 62
7
  6
CONTINUOUS
 10
91.1092938754
 20
98.9192201255
  0
VERTEX
  8
0
 62
7
  6
CONTINUOUS
 10
90.9961476293
 20
98.938766104
  0
SEQEND
  0
LINE
  8
0
 62
7
  6
CONTINUOUS
 10
60.9290647041
 20
109.5165891248
 11
61.0619291986
 21
109.6237793321
  0
LINE
  8
0
 62
7
  6
CONTINUOUS
 10
61.0590272632
 20
109.620953893
 11
60.8659407983
 21
109.4799867911
  0
POLYLINE
  8
0
 62
7
  6
CONTINUOUS
 66
1
 70
0
  0
VERTEX
  8
0
 62
7
  6
CONTINUOUS
 10
91.73036606
 20
134.9237793321
  0
VERTEX
  8
0
 62
7
  6
CONTINUOUS
 10
91.8632305546
 20
134.8165891248
  0
VERTEX
  8
0
 62
7
  6
CONTINUOUS
 10
92.0107014726
 20
134.7419640206
  0
SEQEND
  0
LINE
  8
0
 62
7
  6
CONTINUOUS
 10
91.6870028638
 20
134.9707878901
 11
91.73036606
 21
134.9237793321
  0
LINE
  8
0
 62
7
  6
CONTINUOUS
 10
91.6231791868
 20
135.0568480309
 11
91.6870028638
 21
134.9707878901
  0
LINE
  8
0
 62
7
  6
CONTINUOUS
 10
91.4961476293
 20
135.4895624334
 11
91.5078363569
 21
135.3532610524
  0
LINE
  8
0
 62
7
  6
CONTINUOUS
 10
91.4961476293
 20
159.6067737735
 11
91.4961476293
 21
135.4895624334
  0
LINE
  8
0
 62
7
  6
CONTINUOUS
 10
91.4961476293
 20
98.2821223847
 11
91.4961476293
 21
109.0067737735
  0
POLYLINE
  8
0
 62
7
  6
CONTINUOUS
 66
1
 70
0
  0
VERTEX
  8
0
 62
7
  6
CONTINUOUS
 10
52.4654916093
 20
100.5797765149
  0
VERTEX
  8
0
 62
7
  6
CONTINUOUS
 10
52.418867542
 20
100.5458955823
  0
VERTEX
  8
0
 62
7
  6
CONTINUOUS
 10
52.3708551089
 20
100.5155905187
  0
VERTEX
  8
0
 62
7
  6
CONTINUOUS
 10
52.3217476807
 20
100.4891640107
  0
VERTEX
  8
0
 62
7
  6
CONTINUOUS
 10
52.2672739588
 20
100.4653503994
  0
SEQEND
  0
POLYLINE
  8
0
 62
7
  6
CONTINUOUS
 66
1
 70
0
  0
VERTEX
  8
0
 62
7
  6
CONTINUOUS
 10
91.5078363569
 20
135.3532610524
  0
VERTEX
  8
0
 62
7
  6
CONTINUOUS
 10
91.5485676681
 20
135.2046417071
  0
VERTEX
  8
0
 62
7
  6
CONTINUOUS
 10
91.6231791868
 20
135.0568480309
  0
SEQEND
  0
LINE
  8
1_AXIS
 62
2
  6
CENTER
 10
95.4461476293
 20
107.8522788047
 11
95.4461476293
 21
174.8981681034
  0
POLYLINE
  8
0
 62
7
  6
CONTINUOUS
 66
1
 70
0
  0
VERTEX
  8
0
 62
7
  6
CONTINUOUS
 10
100.0780772152
 20
168.8198721014
  0
VERTEX
  8
0
 62
7
  6
CONTINUOUS
 10
100.0847165859
 20
168.8811036618
  0
VERTEX
  8
0
 62
7
  6
CONTINUOUS
 10
100.1034872396
 20
168.9416313329
  0
VERTEX
  8
0
 62
7
  6
CONTINUOUS
 10
100.1301938173
 20
168.9967906103
  0
VERTEX
  8
0
 62
7
  6
CONTINUOUS
 10
100.1625254364
 20
169.0476483954
  0
VERTEX
  8
0
 62
7
  6
CONTINUOUS
 10
100.1992448752
 20
169.0949647371
  0
VERTEX
  8
0
 62
7
  6
CONTINUOUS
 10
100.2393204399
 20
169.138851416
  0
VERTEX
  8
0
 62
7
  6
CONTINUOUS
 10
100.2819995068
 20
169.1793617296
  0
VERTEX
  8
0
 62
7
  6
CONTINUOUS
 10
100.3268036494
 20
169.216559692
  0
SEQEND
  0
POLYLINE
  8
0
 62
7
  6
CONTINUOUS
 66
1
 70
0
  0
VERTEX
  8
0
 62
7
  6
CONTINUOUS
 10
91.548567556
 20
109.2916942054
  0
VERTEX
  8
0
 62
7
  6
CONTINUOUS
 10
91.5078363103
 20
109.1430748851
  0
VERTEX
  8
0
 62
7
  6
CONTINUOUS
 10
91.4961476293
 20
109.0067737735
  0
SEQEND
  0
LINE
  8
0
 62
7
  6
CONTINUOUS
 10
60.8659407983
 20
109.4799867911
 11
60.6398813111
 21
109.4023858713
  0
POLYLINE
  8
0
 62
7
  6
CONTINUOUS
 66
1
 70
0
  0
VERTEX
  8
0
 62
7
  6
CONTINUOUS
 10
92.1593062667
 20
160.3952535537
  0
VERTEX
  8
0
 62
7
  6
CONTINUOUS
 10
92.0107014726
 20
160.3543721863
  0
VERTEX
  8
0
 62
7
  6
CONTINUOUS
 10
91.8632305546
 20
160.2797470821
  0
SEQEND
  0
LINE
  8
0
 62
7
  6
CONTINUOUS
 10
100.0780754485
 20
168.8198720944
 11
100.0780754485
 21
163.976457567
  0
LINE
  8
0
 62
7
  6
CONTINUOUS
 10
52.2672433737
 20
100.465339287
 11
52.2539727587
 21
100.4603084386
  0
LINE
  8
0
 62
7
  6
CONTINUOUS
 10
52.2539727587
 20
100.4603084386
 11
52.2324708788
 21
100.4522724364
  0
LINE
  8
0
 62
7
  6
CONTINUOUS
 10
52.2324708788
 20
100.4522724364
 11
52.2113082033
 21
100.4444865243
  0
LINE
  8
0
 62
7
  6
CONTINUOUS
 10
52.2113082033
 20
100.4444865243
 11
52.1801862192
 21
100.4332219456
  0
LINE
  8
0
 62
7
  6
CONTINUOUS
 10
52.1801862192
 20
100.4332219456
 11
52.1398193568
 21
100.4188585322
  0
LINE
  8
0
 62
7
  6
CONTINUOUS
 10
52.1398193568
 20
100.4188585322
 11
52.0026386849
 21
100.370778192
  0
LINE
  8
0
 62
7
  6
CONTINUOUS
 10
92.1524139475
 20
160.3939503356
 11
92.2961476293
 21
160.4069711352
  0
LINE
  8
0
 62
7
  6
CONTINUOUS
 10
92.2961476293
 20
160.4070479524
 11
92.1593062667
 21
160.3952535537
  0
POLYLINE
  8
0
 62
7
  6
CONTINUOUS
 66
1
 70
0
  0
VERTEX
  8
0
 62
7
  6
CONTINUOUS
 10
100.9091713643
 20
160.4720590132
  0
VERTEX
  8
0
 62
7
  6
CONTINUOUS
 10
100.9847238307
 20
160.4755804622
  0
VERTEX
  8
0
 62
7
  6
CONTINUOUS
 10
101.0524996863
 20
160.4791138284
  0
VERTEX
  8
0
 62
7
  6
CONTINUOUS
 10
101.1129293266
 20
160.4826664354
  0
VERTEX
  8
0
 62
7
  6
CONTINUOUS
 10
101.1665622229
 20
160.4862587364
  0
VERTEX
  8
0
 62
7
  6
CONTINUOUS
 10
101.2141110192
 20
160.4899350758
  0
VERTEX
  8
0
 62
7
  6
CONTINUOUS
 10
101.2564813322
 20
160.4937799311
  0
VERTEX
  8
0
 62
7
  6
CONTINUOUS
 10
101.2950639769
 20
160.4979794002
  0
VERTEX
  8
0
 62
7
  6
CONTINUOUS
 10
101.3321380943
 20
160.502968137
  0
VERTEX
  8
0
 62
7
  6
CONTINUOUS
 10
101.3719084873
 20
160.5098867491
  0
VERTEX
  8
0
 62
7
  6
CONTINUOUS
 10
101.4210382949
 20
160.5216462718
  0
VERTEX
  8
0
 62
7
  6
CONTINUOUS
 10
101.4904129727
 20
160.5462861427
  0
VERTEX
  8
0
 62
7
  6
CONTINUOUS
 10
101.5814195244
 20
160.5971775713
  0
VERTEX
  8
0
 62
7
  6
CONTINUOUS
 10
101.6736561032
 20
160.680464437
  0
VERTEX
  8
0
 62
7
  6
CONTINUOUS
 10
101.7484130879
 20
160.7954687909
  0
VERTEX
  8
0
 62
7
  6
CONTINUOUS
 10
101.7918645561
 20
160.9436862266
  0
VERTEX
  8
0
 62
7
  6
CONTINUOUS
 10
101.7961447189
 20
161.0090959295
  0
SEQEND
  0
POLYLINE
  8
0
 62
7
  6
CONTINUOUS
 66
1
 70
0
  0
VERTEX
  8
0
 62
7
  6
CONTINUOUS
 10
100.6330407671
 20
160.4615871879
  0
VERTEX
  8
0
 62
7
  6
CONTINUOUS
 10
100.7335235712
 20
160.4650568183
  0
VERTEX
  8
0
 62
7
  6
CONTINUOUS
 10
100.9091713643
 20
160.4720590132
  0
SEQEND
  0
POLYLINE
  8
0
 62
7
  6
CONTINUOUS
 66
1
 70
0
  0
VERTEX
  8
0
 62
7
  6
CONTINUOUS
 10
101.7961446054
 20
134.0872394479
  0
VERTEX
  8
0
 62
7
  6
CONTINUOUS
 10
101.7912451302
 20
134.1572000951
  0
VERTEX
  8
0
 62
7
  6
CONTINUOUS
 10
101.7445791237
 20
134.3088370532
  0
VERTEX
  8
0
 62
7
  6
CONTINUOUS
 10
101.6654096636
 20
134.4251722122
  0
VERTEX
  8
0
 62
7
  6
CONTINUOUS
 10
101.5696571599
 20
134.5071649855
  0
VERTEX
  8
0
 62
7
  6
CONTINUOUS
 10
101.478474554
 20
134.55505711
  0
VERTEX
  8
0
 62
7
  6
CONTINUOUS
 10
101.4121272619
 20
134.5771343343
  0
VERTEX
  8
0
 62
7
  6
CONTINUOUS
 10
101.3644184402
 20
134.5879062211
  0
VERTEX
  8
0
 62
7
  6
CONTINUOUS
 10
101.3249742648
 20
134.5944247254
  0
VERTEX
  8
0
 62
7
  6
CONTINUOUS
 10
101.2874450904
 20
134.5992534064
  0
VERTEX
  8
0
 62
7
  6
CONTINUOUS
 10
101.248013416
 20
134.6033789
  0
VERTEX
  8
0
 62
7
  6
CONTINUOUS
 10
101.2045284437
 20
134.6071883987
  0
VERTEX
  8
0
 62
7
  6
CONTINUOUS
 10
101.1556302935
 20
134.6108508289
  0
VERTEX
  8
0
 62
7
  6
CONTINUOUS
 10
101.1003823895
 20
134.6144450495
  0
VERTEX
  8
0
 62
7
  6
CONTINUOUS
 10
101.0380800812
 20
134.6180093604
  0
VERTEX
  8
0
 62
7
  6
CONTINUOUS
 10
100.9681274357
 20
134.6215628821
  0
VERTEX
  8
0
 62
7
  6
CONTINUOUS
 10
100.8899999567
 20
134.6251138721
  0
VERTEX
  8
0
 62
7
  6
CONTINUOUS
 10
100.8033176519
 20
134.6286610012
  0
VERTEX
  8
0
 62
7
  6
CONTINUOUS
 10
100.6031759495
 20
134.6357214162
  0
SEQEND
  0
LINE
  8
0
 62
7
  6
CONTINUOUS
 10
101.7961476293
 20
134.0872522771
 11
101.7961476293
 21
110.4090839298
  0
LINE
  8
4_SURFACE
 62
7
  6
CONTINUOUS
 10
101.7961476293
 20
161.0090839298
 11
101.7961476293
 21
162.915323716
  0
LINE
  8
0
 62
7
  6
CONTINUOUS
 10
101.7961476293
 20
161.0090839298
 11
101.7961476293
 21
162.915323716
  0
LINE
  8
4_SURFACE
 62
7
  6
CONTINUOUS
 10
101.7961476293
 20
169.8810124909
 11
101.7961476293
 21
172.3981681074
  0
LINE
  8
0
 62
7
  6
CONTINUOUS
 10
101.7961476293
 20
169.8810124909
 11
101.7961476293
 21
172.3981681074
  0
POLYLINE
  8
0
 62
7
  6
CONTINUOUS
 66
1
 70
0
  0
VERTEX
  8
0
 62
7
  6
CONTINUOUS
 10
91.6870596396
 20
109.5256150214
  0
VERTEX
  8
0
 62
7
  6
CONTINUOUS
 10
91.6231790741
 20
109.4394880006
  0
VERTEX
  8
0
 62
7
  6
CONTINUOUS
 10
91.548567556
 20
109.2916942054
  0
SEQEND
  0
LINE
  8
0
 62
7
  6
CONTINUOUS
 10
60.6398813096
 20
160.0023858711
 11
60.4961476294
 21
159.9893650716
  0
LINE
  8
0
 62
7
  6
CONTINUOUS
 10
60.4961476293
 20
159.9892882545
 11
60.6329887507
 21
160.0010826113
  0
POLYLINE
  8
0
 62
7
  6
CONTINUOUS
 66
1
 70
0
  0
VERTEX
  8
0
 62
7
  6
CONTINUOUS
 10
51.8831238951
 20
159.9242771937
  0
VERTEX
  8
0
 62
7
  6
CONTINUOUS
 10
51.8075714282
 20
159.9207557447
  0
VERTEX
  8
0
 62
7
  6
CONTINUOUS
 10
51.7397955725
 20
159.9172223785
  0
VERTEX
  8
0
 62
7
  6
CONTINUOUS
 10
51.6793659323
 20
159.9136697715
  0
VERTEX
  8
0
 62
7
  6
CONTINUOUS
 10
51.6257330361
 20
159.9100774705
  0
VERTEX
  8
0
 62
7
  6
CONTINUOUS
 10
51.5781842397
 20
159.9064011311
  0
VERTEX
  8
0
 62
7
  6
CONTINUOUS
 10
51.5358139265
 20
159.9025562758
  0
VERTEX
  8
0
 62
7
  6
CONTINUOUS
 10
51.4972312817
 20
159.8983568067
  0
VERTEX
  8
0
 62
7
  6
CONTINUOUS
 10
51.4601571645
 20
159.8933680699
  0
VERTEX
  8
0
 62
7
  6
CONTINUOUS
 10
51.420386772
 20
159.886449458
  0
VERTEX
  8
0
 62
7
  6
CONTINUOUS
 10
51.371256964
 20
159.8746899352
  0
VERTEX
  8
0
 62
7
  6
CONTINUOUS
 10
51.3018822859
 20
159.8500500642
  0
VERTEX
  8
0
 62
7
  6
CONTINUOUS
 10
51.2108757341
 20
159.7991586356
  0
VERTEX
  8
0
 62
7
  6
CONTINUOUS
 10
51.1186391553
 20
159.7158717698
  0
VERTEX
  8
0
 62
7
  6
CONTINUOUS
 10
51.0438821706
 20
159.6008674159
  0
VERTEX
  8
0
 62
7
  6
CONTINUOUS
 10
51.0004307025
 20
159.4526499803
  0
VERTEX
  8
0
 62
7
  6
CONTINUOUS
 10
50.9961505397
 20
159.3872402774
  0
SEQEND
  0
LINE
  8
0
 62
7
  6
CONTINUOUS
 10
52.0587716882
 20
159.9312793886
 11
51.8831238951
 21
159.9242771937
  0
LINE
  8
0
 62
7
  6
CONTINUOUS
 10
52.2683235658
 20
159.938186682
 11
52.0587716882
 21
159.9312793886
  0
LINE
  8
0
 62
7
  6
CONTINUOUS
 10
100.4062295531
 20
160.4547521396
 11
100.6330407671
 21
160.4615871879
  0
LINE
  8
0
 62
7
  6
CONTINUOUS
 10
52.5126066666
 20
159.9449351045
 11
52.2683235658
 21
159.938186682
  0
LINE
  8
0
 62
7
  6
CONTINUOUS
 10
99.9997847332
 20
160.4448647259
 11
100.4062295531
 21
160.4547521396
  0
LINE
  8
0
 62
7
  6
CONTINUOUS
 10
52.946047682
 20
159.9546415325
 11
52.5126066666
 21
159.9449351045
  0
LINE
  8
0
 62
7
  6
CONTINUOUS
 10
99.5118122899
 20
160.4355922675
 11
99.9997847332
 21
160.4448647259
  0
LINE
  8
0
 62
7
  6
CONTINUOUS
 10
53.6513111263
 20
159.9664699089
 11
52.946047682
 21
159.9546415325
  0
LINE
  8
0
 62
7
  6
CONTINUOUS
 10
98.7342631251
 20
160.4245932399
 11
99.5118122899
 21
160.4355922675
  0
LINE
  8
0
 62
7
  6
CONTINUOUS
 10
54.4995591623
 20
159.9764836913
 11
53.6513111263
 21
159.9664699089
  0
LINE
  8
0
 62
7
  6
CONTINUOUS
 10
97.5689585268
 20
160.4139204093
 11
98.7342631251
 21
160.4245932399
  0
LINE
  8
0
 62
7
  6
CONTINUOUS
 10
55.743304096
 20
159.9854628762
 11
54.4995591623
 21
159.9764836913
  0
LINE
  8
0
 62
7
  6
CONTINUOUS
 10
96.2211061158
 20
160.4078703998
 11
97.5689585268
 21
160.4139204093
  0
LINE
  8
0
 62
7
  6
CONTINUOUS
 10
57.3461476293
 20
159.9893643742
 11
55.743304096
 21
159.9854628762
  0
LINE
  8
0
 62
7
  6
CONTINUOUS
 10
57.3461476293
 20
159.989364407
 11
60.4961476293
 21
159.989364407
  0
LINE
  8
0
 62
7
  6
CONTINUOUS
 10
96.2211061158
 20
160.4078703998
 11
92.2961476293
 21
160.4069717999
  0
LINE
  8
0
 62
7
  6
CONTINUOUS
 10
91.6870596396
 20
109.5256150214
 11
91.7332679959
 21
109.5753823144
  0
LINE
  8
0
 62
7
  6
CONTINUOUS
 10
91.8632306917
 20
109.6797471704
 11
91.7303660436
 21
109.5725568583
  0
LINE
  8
0
 62
7
  6
CONTINUOUS
 10
91.7332679959
 20
109.5753823144
 11
91.9263544616
 21
109.7163494164
  0
LINE
  8
0
 62
7
  6
CONTINUOUS
 10
91.9263544616
 20
109.7163494164
 11
92.152413949
 21
109.7939503358
  0
POLYLINE
  8
0
 62
7
  6
CONTINUOUS
 66
1
 70
0
  0
VERTEX
  8
0
 62
7
  6
CONTINUOUS
 10
60.6329887507
 20
160.0010826113
  0
VERTEX
  8
0
 62
7
  6
CONTINUOUS
 10
60.7815935287
 20
160.0419639223
  0
VERTEX
  8
0
 62
7
  6
CONTINUOUS
 10
60.929064567
 20
160.1165890365
  0
SEQEND
  0
LINE
  8
0
 62
7
  6
CONTINUOUS
 10
101.3135973777
 20
163.4150191296
 11
100.5927979493
 21
163.4401900002
  0
LINE
  8
0
 62
7
  6
CONTINUOUS
 10
101.3135973777
 20
169.3813170773
 11
100.5927953555
 21
169.3561461161
  0
LINE
  8
0
 62
7
  6
CONTINUOUS
 10
100.7896586732
 20
163.37077739
 11
100.6426774955
 21
163.4223245095
  0
LINE
  8
0
 62
7
  6
CONTINUOUS
 10
100.6426774955
 20
163.4223245095
 11
100.6041879868
 21
163.4360705979
  0
LINE
  8
0
 62
7
  6
CONTINUOUS
 10
100.6041879868
 20
163.4360705979
 11
100.5778245304
 21
163.4456430442
  0
LINE
  8
0
 62
7
  6
CONTINUOUS
 10
100.5778245304
 20
163.4456430442
 11
100.5509037822
 21
163.4555899869
  0
LINE
  8
0
 62
7
  6
CONTINUOUS
 10
100.5509037822
 20
163.4555899869
 11
100.5250535561
 21
163.4653385383
  0
LINE
  8
0
 62
7
  6
CONTINUOUS
 10
100.524975008
 20
163.4653684678
 11
100.5250535561
 21
163.4653385383
  0
POLYLINE
  8
0
 62
7
  6
CONTINUOUS
 66
1
 70
0
  0
VERTEX
  8
0
 62
7
  6
CONTINUOUS
 10
100.524975049
 20
163.4653679606
  0
VERTEX
  8
0
 62
7
  6
CONTINUOUS
 10
100.5102632764
 20
163.4712071426
  0
VERTEX
  8
0
 62
7
  6
CONTINUOUS
 10
100.4543624448
 20
163.4973652209
  0
VERTEX
  8
0
 62
7
  6
CONTINUOUS
 10
100.3994331876
 20
163.5289249939
  0
VERTEX
  8
0
 62
7
  6
CONTINUOUS
 10
100.3460809529
 20
163.5652092199
  0
SEQEND
  0
LINE
  8
0
 62
7
  6
CONTINUOUS
 10
101.2961476333
 20
172.8981681034
 11
62.6961476293
 21
172.8981681034
  0
POLYLINE
  8
0
 62
7
  6
CONTINUOUS
 66
1
 70
0
  0
VERTEX
  8
0
 62
7
  6
CONTINUOUS
 10
100.3460809529
 20
163.5652092199
  0
VERTEX
  8
0
 62
7
  6
CONTINUOUS
 10
100.2948411496
 20
163.6058039544
  0
VERTEX
  8
0
 62
7
  6
CONTINUOUS
 10
100.2461576264
 20
163.6506106557
  0
VERTEX
  8
0
 62
7
  6
CONTINUOUS
 10
100.2005995988
 20
163.6997731156
  0
VERTEX
  8
0
 62
7
  6
CONTINUOUS
 10
100.1591874689
 20
163.7534505368
  0
VERTEX
  8
0
 62
7
  6
CONTINUOUS
 10
100.1235627735
 20
163.8116895398
  0
VERTEX
  8
0
 62
7
  6
CONTINUOUS
 10
100.0967483781
 20
163.8726335442
  0
VERTEX
  8
0
 62
7
  6
CONTINUOUS
 10
100.0816879925
 20
163.9315528547
  0
VERTEX
  8
0
 62
7
  6
CONTINUOUS
 10
100.0780769367
 20
163.976457516
  0
SEQEND
  0
LINE
  8
1_AXIS
 62
2
  6
CONTINUOUS
 10
57.3461476293
 20
209.0129217931
 11
57.3461476293
 21
207.2529217931
  0
LINE
  8
1_AXIS
 62
2
  6
CENTER
 10
57.3461476293
 20
203.7329217931
 11
57.3461476293
 21
202.8829217931
  0
LINE
  8
1_AXIS
 62
2
  6
CENTER
 10
57.3461476293
 20
212.5329217931
 11
57.3461476293
 21
213.3829217931
  0
LINE
  8
0
 62
7
  6
CONTINUOUS
 10
56.1078032916
 20
201.7829217931
 11
56.1629187855
 21
202.2829217931
  0
LINE
  8
0
 62
7
  6
CONTINUOUS
 10
56.1078032916
 20
201.7829217931
 11
96.684491967
 21
201.7829217931
  0
LINE
  8
1_AXIS
 62
2
  6
CONTINUOUS
 10
96.3261476293
 20
208.1329217931
 11
94.5661476293
 21
208.1329217931
  0
LINE
  8
1_AXIS
 62
2
  6
CENTER
 10
91.0461476293
 20
208.1329217931
 11
90.1961476293
 21
208.1329217931
  0
LINE
  8
1_AXIS
 62
2
  6
CONTINUOUS
 10
58.2261476293
 20
208.1329217931
 11
56.4661476293
 21
208.1329217931
  0
LINE
  8
1_AXIS
 62
2
  6
CENTER
 10
52.9461476293
 20
208.1329217931
 11
52.0961476293
 21
208.1329217931
  0
LINE
  8
1_AXIS
 62
2
  6
CENTER
 10
61.7461476293
 20
208.1329217931
 11
62.5961476293
 21
208.1329217931
  0
LINE
  8
1_AXIS
 62
2
  6
CENTER
 10
99.8461476293
 20
208.1329217931
 11
100.6961476293
 21
208.1329217931
  0
LINE
  8
0
 62
7
  6
CONTINUOUS
 10
95.4461476293
 20
214.4829217931
 11
57.3461476293
 21
214.4829217931
  0
LINE
  8
0
 62
7
  6
CONTINUOUS
 10
88.8557835313
 20
210.4808422317
 11
86.1642327865
 21
203.0978975565
  0
LINE
  8
0
 62
7
  6
CONTINUOUS
 10
88.8561476293
 20
210.4808422419
 11
88.8561476293
 21
202.2829217931
  0
LINE
  8
0
 62
7
  6
CONTINUOUS
 10
91.4961476293
 20
213.8649829408
 11
91.4961476293
 21
213.9829217931
  0
POLYLINE
  8
0
 62
7
  6
CONTINUOUS
 66
1
 70
0
  0
VERTEX
  8
0
 62
7
  6
CONTINUOUS
 10
91.3315827509
 20
214.3544417546
  0
VERTEX
  8
0
 62
7
  6
CONTINUOUS
 10
91.3266492247
 20
214.3588287454
  0
VERTEX
  8
0
 62
7
  6
CONTINUOUS
 10
91.31255922
 20
214.3706534449
  0
VERTEX
  8
0
 62
7
  6
CONTINUOUS
 10
91.2985330054
 20
214.3814738637
  0
VERTEX
  8
0
 62
7
  6
CONTINUOUS
 10
91.2845926943
 20
214.3913808868
  0
VERTEX
  8
0
 62
7
  6
CONTINUOUS
 10
91.2705996196
 20
214.4005543929
  0
VERTEX
  8
0
 62
7
  6
CONTINUOUS
 10
91.2573454555
 20
214.4085994472
  0
VERTEX
  8
0
 62
7
  6
CONTINUOUS
 10
91.2463072031
 20
214.4148957277
  0
VERTEX
  8
0
 62
7
  6
CONTINUOUS
 10
91.2391905223
 20
214.4188157173
  0
SEQEND
  0
LINE
  8
1_AXIS
 62
2
  6
CONTINUOUS
 10
95.4461476293
 20
209.0129217931
 11
95.4461476293
 21
207.2529217931
  0
LINE
  8
1_AXIS
 62
2
  6
CENTER
 10
95.4461476293
 20
203.7329217931
 11
95.4461476293
 21
202.8829217931
  0
LINE
  8
1_AXIS
 62
2
  6
CENTER
 10
95.4461476293
 20
212.5329217931
 11
95.4461476293
 21
213.3829217931
  0
LINE
  8
0
 62
7
  6
CONTINUOUS
 10
96.6815189884
 20
201.8070021383
 11
96.684491967
 21
201.7829217931
  0
LINE
  8
0
 62
7
  6
CONTINUOUS
 10
96.6293068846
 20
202.2741955899
 11
96.6815189884
 21
201.8070021383
  0
LINE
  8
0
 62
7
  6
CONTINUOUS
 10
131.0596655213
 20
96.8981681034
 11
142.5235459211
 21
96.8981681034
  0
LINE
  8
0
 62
7
  6
CONTINUOUS
 10
140.2799506808
 20
100.4750624123
 11
140.2523327783
 21
100.4678672114
  0
POLYLINE
  8
0
 62
7
  6
CONTINUOUS
 66
1
 70
0
  0
VERTEX
  8
0
 62
7
  6
CONTINUOUS
 10
140.2523327783
 20
100.4678672114
  0
VERTEX
  8
0
 62
7
  6
CONTINUOUS
 10
140.2179065214
 20
100.459173532
  0
VERTEX
  8
0
 62
7
  6
CONTINUOUS
 10
140.2097768744
 20
100.4571617441
  0
SEQEND
  0
POLYLINE
  8
0
 62
7
  6
CONTINUOUS
 66
1
 70
0
  0
VERTEX
  8
0
 62
7
  6
CONTINUOUS
 10
140.2097629765
 20
100.4571583966
  0
VERTEX
  8
0
 62
7
  6
CONTINUOUS
 10
140.1971866528
 20
100.4543988723
  0
VERTEX
  8
0
 62
7
  6
CONTINUOUS
 10
140.1765432237
 20
100.4512794164
  0
SEQEND
  0
LINE
  8
0
 62
7
  6
CONTINUOUS
 10
140.176427765
 20
100.4512666931
 11
140.1765432237
 21
100.4512794164
  0
POLYLINE
  8
1_AXIS
 62
7
  6
CONTINUOUS
 66
1
 70
0
  0
VERTEX
  8
1_AXIS
 62
7
  6
CONTINUOUS
 10
133.6596655213
 20
100.6199149897
  0
VERTEX
  8
1_AXIS
 62
7
  6
CONTINUOUS
 10
133.7307366676
 20
100.5963102196
  0
VERTEX
  8
1_AXIS
 62
7
  6
CONTINUOUS
 10
133.940824564
 20
100.5737391759
  0
VERTEX
  8
1_AXIS
 62
7
  6
CONTINUOUS
 10
134.2806965831
 20
100.5531896107
  0
VERTEX
  8
1_AXIS
 62
7
  6
CONTINUOUS
 10
134.7354359164
 20
100.5355596397
  0
VERTEX
  8
1_AXIS
 62
7
  6
CONTINUOUS
 10
135.2851172187
 20
100.5216184956
  0
VERTEX
  8
1_AXIS
 62
7
  6
CONTINUOUS
 10
135.9056977017
 20
100.5119733795
  0
VERTEX
  8
1_AXIS
 62
7
  6
CONTINUOUS
 10
136.5700739717
 20
100.5070437505
  0
VERTEX
  8
1_AXIS
 62
7
  6
CONTINUOUS
 10
137.2492605682
 20
100.5070437633
  0
VERTEX
  8
1_AXIS
 62
7
  6
CONTINUOUS
 10
137.9136363985
 20
100.5119734142
  0
VERTEX
  8
1_AXIS
 62
7
  6
CONTINUOUS
 10
138.5342161321
 20
100.5216185422
  0
VERTEX
  8
1_AXIS
 62
7
  6
CONTINUOUS
 10
139.083896583
 20
100.5355596855
  0
VERTEX
  8
1_AXIS
 62
7
  6
CONTINUOUS
 10
139.538635181
 20
100.5531896454
  0
VERTEX
  8
1_AXIS
 62
7
  6
CONTINUOUS
 10
139.8785067181
 20
100.5737391947
  0
VERTEX
  8
1_AXIS
 62
7
  6
CONTINUOUS
 10
140.0885944053
 20
100.5963102246
  0
VERTEX
  8
1_AXIS
 62
7
  6
CONTINUOUS
 10
140.1596655213
 20
100.6199149897
  0
SEQEND
  0
POLYLINE
  8
1_AXIS
 62
7
  6
CONTINUOUS
 66
1
 70
0
  0
VERTEX
  8
1_AXIS
 62
7
  6
CONTINUOUS
 10
140.1596655213
 20
100.6199149897
  0
VERTEX
  8
1_AXIS
 62
7
  6
CONTINUOUS
 10
140.0885943749
 20
100.6435197598
  0
VERTEX
  8
1_AXIS
 62
7
  6
CONTINUOUS
 10
139.8785064785
 20
100.6660908035
  0
VERTEX
  8
1_AXIS
 62
7
  6
CONTINUOUS
 10
139.5386344594
 20
100.6866403687
  0
VERTEX
  8
1_AXIS
 62
7
  6
CONTINUOUS
 10
139.0838951262
 20
100.7042703397
  0
VERTEX
  8
1_AXIS
 62
7
  6
CONTINUOUS
 10
138.5342138239
 20
100.7182114838
  0
VERTEX
  8
1_AXIS
 62
7
  6
CONTINUOUS
 10
137.9136333408
 20
100.7278565999
  0
VERTEX
  8
1_AXIS
 62
7
  6
CONTINUOUS
 10
137.2492570708
 20
100.732786229
  0
VERTEX
  8
1_AXIS
 62
7
  6
CONTINUOUS
 10
136.5700704743
 20
100.7327862162
  0
VERTEX
  8
1_AXIS
 62
7
  6
CONTINUOUS
 10
135.9056946441
 20
100.7278565652
  0
VERTEX
  8
1_AXIS
 62
7
  6
CONTINUOUS
 10
135.2851149104
 20
100.7182114373
  0
VERTEX
  8
1_AXIS
 62
7
  6
CONTINUOUS
 10
134.7354344595
 20
100.7042702939
  0
VERTEX
  8
1_AXIS
 62
7
  6
CONTINUOUS
 10
134.2806958616
 20
100.686640334
  0
VERTEX
  8
1_AXIS
 62
7
  6
CONTINUOUS
 10
133.9408243244
 20
100.6660907847
  0
VERTEX
  8
1_AXIS
 62
7
  6
CONTINUOUS
 10
133.7307366372
 20
100.6435197548
  0
VERTEX
  8
1_AXIS
 62
7
  6
CONTINUOUS
 10
133.6596655213
 20
100.6199149897
  0
SEQEND
  0
LINE
  8
0
 62
7
  6
CONTINUOUS
 10
140.1764278739
 20
106.3450707442
 11
140.1765375277
 21
106.3450586606
  0
LINE
  8
0
 62
7
  6
CONTINUOUS
 10
131.050939318
 20
109.1850639949
 11
142.750939318
 21
109.3892882545
  0
LINE
  8
0
 62
7
  6
CONTINUOUS
 10
140.1765370277
 20
106.3450575846
 11
140.1978185034
 21
106.3418146477
  0
LINE
  8
0
 62
7
  6
CONTINUOUS
 10
140.1978185034
 20
106.3418146477
 11
140.2097602747
 21
106.3391783936
  0
LINE
  8
0
 62
7
  6
CONTINUOUS
 10
140.2097759283
 20
106.3391746216
 11
140.2395906426
 21
106.3317207866
  0
POLYLINE
  8
0
 62
7
  6
CONTINUOUS
 66
1
 70
0
  0
VERTEX
  8
0
 62
7
  6
CONTINUOUS
 10
140.2395906426
 20
106.3317207866
  0
VERTEX
  8
0
 62
7
  6
CONTINUOUS
 10
140.2698713534
 20
106.3239239223
  0
VERTEX
  8
0
 62
7
  6
CONTINUOUS
 10
140.2799475149
 20
106.3212747419
  0
SEQEND
  0
POLYLINE
  8
0
 62
7
  6
CONTINUOUS
 66
1
 70
0
  0
VERTEX
  8
0
 62
7
  6
CONTINUOUS
 10
140.2799520174
 20
106.321274114
  0
VERTEX
  8
0
 62
7
  6
CONTINUOUS
 10
140.3574023296
 20
106.2977103221
  0
VERTEX
  8
0
 62
7
  6
CONTINUOUS
 10
140.4265942259
 20
106.2710698364
  0
VERTEX
  8
0
 62
7
  6
CONTINUOUS
 10
140.491313853
 20
106.2407478509
  0
VERTEX
  8
0
 62
7
  6
CONTINUOUS
 10
140.5514443663
 20
106.2070965589
  0
VERTEX
  8
0
 62
7
  6
CONTINUOUS
 10
140.6067890965
 20
106.1704403882
  0
VERTEX
  8
0
 62
7
  6
CONTINUOUS
 10
140.657551224
 20
106.1306959861
  0
VERTEX
  8
0
 62
7
  6
CONTINUOUS
 10
140.7036748149
 20
106.0876721558
  0
VERTEX
  8
0
 62
7
  6
CONTINUOUS
 10
140.744719719
 20
106.041181361
  0
VERTEX
  8
0
 62
7
  6
CONTINUOUS
 10
140.7797813735
 20
105.9911586324
  0
VERTEX
  8
0
 62
7
  6
CONTINUOUS
 10
140.8077964946
 20
105.9369839808
  0
VERTEX
  8
0
 62
7
  6
CONTINUOUS
 10
140.8266678939
 20
105.8780772149
  0
VERTEX
  8
0
 62
7
  6
CONTINUOUS
 10
140.8330247697
 20
105.819874852
  0
SEQEND
  0
POLYLINE
  8
0
 62
7
  6
CONTINUOUS
 66
1
 70
0
  0
VERTEX
  8
0
 62
7
  6
CONTINUOUS
 10
139.7843911748
 20
109.3375069641
  0
VERTEX
  8
0
 62
7
  6
CONTINUOUS
 10
139.6840114096
 20
109.3537133235
  0
VERTEX
  8
0
 62
7
  6
CONTINUOUS
 10
139.6105688197
 20
109.4190467953
  0
VERTEX
  8
0
 62
7
  6
CONTINUOUS
 10
139.5620148032
 20
109.5413340109
  0
VERTEX
  8
0
 62
7
  6
CONTINUOUS
 10
139.5331450433
 20
109.7102073702
  0
VERTEX
  8
0
 62
7
  6
CONTINUOUS
 10
139.5178860087
 20
109.9126382815
  0
VERTEX
  8
0
 62
7
  6
CONTINUOUS
 10
139.5130570484
 20
110.1328926717
  0
SEQEND
  0
LINE
  8
0
 62
7
  6
CONTINUOUS
 10
139.2596655213
 20
112.3283478437
 11
131.050939318
 21
112.1850639949
  0
POLYLINE
  8
0
 62
7
  6
CONTINUOUS
 66
1
 70
0
  0
VERTEX
  8
0
 62
7
  6
CONTINUOUS
 10
130.5596655213
 20
106.7199699265
  0
VERTEX
  8
0
 62
7
  6
CONTINUOUS
 10
130.5846447953
 20
106.5639058168
  0
VERTEX
  8
0
 62
7
  6
CONTINUOUS
 10
130.6561874961
 20
106.4244758391
  0
VERTEX
  8
0
 62
7
  6
CONTINUOUS
 10
130.7672163449
 20
106.3138719278
  0
VERTEX
  8
0
 62
7
  6
CONTINUOUS
 10
130.906412111
 20
106.2429975422
  0
VERTEX
  8
0
 62
7
  6
CONTINUOUS
 10
131.0596655213
 20
106.2183487989
  0
SEQEND
  0
LINE
  8
0
 62
7
  6
CONTINUOUS
 10
139.3851974772
 20
112.0362954411
 11
139.2753211352
 21
112.2656932092
  0
LINE
  8
0
 62
7
  6
CONTINUOUS
 10
130.5596655213
 20
97.3981681034
 11
130.5596655213
 21
172.3981681034
  0
LINE
  8
0
 62
7
  6
CONTINUOUS
 10
131.5606860357
 20
158.3981681354
 11
131.5606860357
 21
155.9981597654
  0
POLYLINE
  8
0
 62
7
  6
CONTINUOUS
 66
1
 70
0
  0
VERTEX
  8
0
 62
7
  6
CONTINUOUS
 10
131.5607291482
 20
155.9981595799
  0
VERTEX
  8
0
 62
7
  6
CONTINUOUS
 10
131.5562748567
 20
155.9265680911
  0
VERTEX
  8
0
 62
7
  6
CONTINUOUS
 10
131.539571933
 20
155.8432457605
  0
VERTEX
  8
0
 62
7
  6
CONTINUOUS
 10
131.5141145915
 20
155.7726489373
  0
VERTEX
  8
0
 62
7
  6
CONTINUOUS
 10
131.4861669089
 20
155.7203174987
  0
VERTEX
  8
0
 62
7
  6
CONTINUOUS
 10
131.4614369346
 20
155.6868225823
  0
VERTEX
  8
0
 62
7
  6
CONTINUOUS
 10
131.45475485
 20
155.6796619247
  0
SEQEND
  0
LINE
  8
0
 62
7
  6
CONTINUOUS
 10
139.2596655213
 20
132.3179883632
 11
131.050939318
 21
132.461272212
  0
LINE
  8
0
 62
7
  6
CONTINUOUS
 10
139.2753211352
 20
112.2656932092
 11
139.2596655213
 21
112.3169198315
  0
LINE
  8
0
 62
7
  6
CONTINUOUS
 10
136.9096655213
 20
159.2412947957
 11
136.9096655213
 21
155.0950413193
  0
LINE
  8
0
 62
7
  6
CONTINUOUS
 10
136.9096655213
 20
153.1577228686
 11
136.9096655213
 21
146.9876133465
  0
LINE
  8
1_AXIS
 62
2
  6
CENTER
 10
136.9096655213
 20
93.0097417943
 11
136.9096655213
 21
174.8981681034
  0
POLYLINE
  8
0
 62
7
  6
CONTINUOUS
 66
1
 70
0
  0
VERTEX
  8
0
 62
7
  6
CONTINUOUS
 10
130.5596655213
 20
100.0763662804
  0
VERTEX
  8
0
 62
7
  6
CONTINUOUS
 10
130.5846447953
 20
100.2324303901
  0
VERTEX
  8
0
 62
7
  6
CONTINUOUS
 10
130.6561874961
 20
100.3718603678
  0
SEQEND
  0
LINE
  8
0
 62
7
  6
CONTINUOUS
 10
142.750939318
 20
135.1070479524
 11
131.050939318
 21
135.311272212
  0
POLYLINE
  8
0
 62
7
  6
CONTINUOUS
 66
1
 70
0
  0
VERTEX
  8
0
 62
7
  6
CONTINUOUS
 10
139.5130649712
 20
111.5326490852
  0
VERTEX
  8
0
 62
7
  6
CONTINUOUS
 10
139.4972049414
 20
111.7022452567
  0
VERTEX
  8
0
 62
7
  6
CONTINUOUS
 10
139.4500268778
 20
111.8768729745
  0
VERTEX
  8
0
 62
7
  6
CONTINUOUS
 10
139.3851974772
 20
112.0362954411
  0
SEQEND
  0
LINE
  8
0
 62
7
  6
CONTINUOUS
 10
139.2596655213
 20
112.3169198315
 11
139.2596655213
 21
132.3294163754
  0
LINE
  8
0
 62
7
  6
CONTINUOUS
 10
139.2596655213
 20
163.3126484043
 11
139.2596655213
 21
168.9774523372
  0
LINE
  8
0
 62
7
  6
CONTINUOUS
 10
139.5130649712
 20
110.13289281
 11
139.5130649712
 21
111.5326490852
  0
LINE
  8
0
 62
7
  6
CONTINUOUS
 10
139.5130649712
 20
133.1136871217
 11
139.5130649712
 21
134.3634433969
  0
POLYLINE
  8
0
 62
7
  6
CONTINUOUS
 66
1
 70
0
  0
VERTEX
  8
0
 62
7
  6
CONTINUOUS
 10
139.5130563751
 20
134.3634435469
  0
VERTEX
  8
0
 62
7
  6
CONTINUOUS
 10
139.5178419742
 20
134.5827248253
  0
VERTEX
  8
0
 62
7
  6
CONTINUOUS
 10
139.533399522
 20
134.7883631883
  0
VERTEX
  8
0
 62
7
  6
CONTINUOUS
 10
139.5627695343
 20
134.9579515306
  0
VERTEX
  8
0
 62
7
  6
CONTINUOUS
 10
139.6101651866
 20
135.0766577926
  0
VERTEX
  8
0
 62
7
  6
CONTINUOUS
 10
139.682457212
 20
135.1419330148
  0
VERTEX
  8
0
 62
7
  6
CONTINUOUS
 10
139.7843912092
 20
135.1588292422
  0
SEQEND
  0
LINE
  8
0
 62
7
  6
CONTINUOUS
 10
140.8330411107
 20
100.9764641175
 11
140.8330411107
 21
105.8198747659
  0
LINE
  8
0
 62
7
  6
CONTINUOUS
 10
139.2596655213
 20
132.3294163754
 11
139.2753242012
 21
132.3806501693
  0
POLYLINE
  8
0
 62
7
  6
CONTINUOUS
 66
1
 70
0
  0
VERTEX
  8
0
 62
7
  6
CONTINUOUS
 10
139.2753242012
 20
132.3806501693
  0
VERTEX
  8
0
 62
7
  6
CONTINUOUS
 10
139.3852259903
 20
132.6101032669
  0
VERTEX
  8
0
 62
7
  6
CONTINUOUS
 10
139.4500374786
 20
132.7694936175
  0
VERTEX
  8
0
 62
7
  6
CONTINUOUS
 10
139.4972350432
 20
132.9442537913
  0
VERTEX
  8
0
 62
7
  6
CONTINUOUS
 10
139.5130649712
 20
133.1136871217
  0
SEQEND
  0
POLYLINE
  8
0
 62
7
  6
CONTINUOUS
 66
1
 70
0
  0
VERTEX
  8
0
 62
7
  6
CONTINUOUS
 10
131.5003519693
 20
158.6516791725
  0
VERTEX
  8
0
 62
7
  6
CONTINUOUS
 10
131.5301353793
 20
158.5831139932
  0
VERTEX
  8
0
 62
7
  6
CONTINUOUS
 10
131.5526576107
 20
158.49494152
  0
VERTEX
  8
0
 62
7
  6
CONTINUOUS
 10
131.5607346294
 20
158.3981682681
  0
SEQEND
  0
LINE
  8
4_SURFACE
 62
7
  6
CONTINUOUS
 10
143.2596655213
 20
159.489364407
 11
143.2596655213
 21
135.6069717999
  0
LINE
  8
0
 62
7
  6
CONTINUOUS
 10
143.2596655213
 20
98.938766104
 11
143.2596655213
 21
170.8575701029
  0
POLYLINE
  8
0
 62
7
  6
CONTINUOUS
 66
1
 70
0
  0
VERTEX
  8
0
 62
7
  6
CONTINUOUS
 10
140.833024562
 20
100.9767400822
  0
VERTEX
  8
0
 62
7
  6
CONTINUOUS
 10
140.8260985004
 20
100.9156806327
  0
VERTEX
  8
0
 62
7
  6
CONTINUOUS
 10
140.8073889046
 20
100.858393682
  0
VERTEX
  8
0
 62
7
  6
CONTINUOUS
 10
140.7796549653
 20
100.8049713047
  0
VERTEX
  8
0
 62
7
  6
CONTINUOUS
 10
140.7447105893
 20
100.7551435964
  0
VERTEX
  8
0
 62
7
  6
CONTINUOUS
 10
140.7035543856
 20
100.7085410434
  0
VERTEX
  8
0
 62
7
  6
CONTINUOUS
 10
140.6570091775
 20
100.6651786299
  0
VERTEX
  8
0
 62
7
  6
CONTINUOUS
 10
140.6055580661
 20
100.6250117179
  0
VERTEX
  8
0
 62
7
  6
CONTINUOUS
 10
140.5493297375
 20
100.5879552194
  0
VERTEX
  8
0
 62
7
  6
CONTINUOUS
 10
140.488192843
 20
100.5539942237
  0
VERTEX
  8
0
 62
7
  6
CONTINUOUS
 10
140.4224002635
 20
100.5234897623
  0
VERTEX
  8
0
 62
7
  6
CONTINUOUS
 10
140.3521697701
 20
100.4968335093
  0
VERTEX
  8
0
 62
7
  6
CONTINUOUS
 10
140.2799556002
 20
100.475063096
  0
SEQEND
  0
LINE
  8
0
 62
7
  6
CONTINUOUS
 10
142.6386946119
 20
171.5142193634
 11
142.6417266689
 21
171.4981681034
  0
LINE
  8
0
 62
7
  6
CONTINUOUS
 10
143.2517035983
 20
98.8583584886
 11
142.9255839982
 21
97.227760488
  0
POLYLINE
  8
0
 62
7
  6
CONTINUOUS
 66
1
 70
0
  0
VERTEX
  8
0
 62
7
  6
CONTINUOUS
 10
131.4486701217
 20
158.7222639094
  0
VERTEX
  8
0
 62
7
  6
CONTINUOUS
 10
131.4504841696
 20
158.7207286586
  0
VERTEX
  8
0
 62
7
  6
CONTINUOUS
 10
131.4706975733
 20
158.6982374954
  0
VERTEX
  8
0
 62
7
  6
CONTINUOUS
 10
131.5003519693
 20
158.6516791725
  0
SEQEND
  0
LINE
  8
0
 62
7
  6
CONTINUOUS
 10
142.9255839982
 20
172.5685757189
 11
143.2517035983
 21
170.9379777183
  0
POLYLINE
  8
0
 62
7
  6
CONTINUOUS
 66
1
 70
0
  0
VERTEX
  8
0
 62
7
  6
CONTINUOUS
 10
130.6561874961
 20
100.3718603678
  0
VERTEX
  8
0
 62
7
  6
CONTINUOUS
 10
130.7672163449
 20
100.4824642791
  0
VERTEX
  8
0
 62
7
  6
CONTINUOUS
 10
130.906412111
 20
100.5533386647
  0
VERTEX
  8
0
 62
7
  6
CONTINUOUS
 10
131.0596655213
 20
100.577987408
  0
SEQEND
  0
LINE
  8
0
 62
7
  6
CONTINUOUS
 10
131.4698135624
 20
155.6981681034
 11
131.3560630868
 21
155.6981681034
  0
POLYLINE
  8
0
 62
7
  6
CONTINUOUS
 66
1
 70
0
  0
VERTEX
  8
0
 62
7
  6
CONTINUOUS
 10
142.6386956576
 20
171.5142138222
  0
VERTEX
  8
0
 62
7
  6
CONTINUOUS
 10
142.6348289421
 20
171.522743181
  0
VERTEX
  8
0
 62
7
  6
CONTINUOUS
 10
142.6270898789
 20
171.5277141068
  0
VERTEX
  8
0
 62
7
  6
CONTINUOUS
 10
142.6176768685
 20
171.5300767147
  0
VERTEX
  8
0
 62
7
  6
CONTINUOUS
 10
142.608329654
 20
171.5310117823
  0
VERTEX
  8
0
 62
7
  6
CONTINUOUS
 10
142.6002200711
 20
171.5309927943
  0
SEQEND
  0
LINE
  8
0
 62
7
  6
CONTINUOUS
 10
131.050939318
 20
159.7850639949
 11
142.750939318
 21
159.9892882545
  0
LINE
  8
0
 62
7
  6
CONTINUOUS
 10
131.3560630868
 20
158.6981681034
 11
131.4707417711
 21
158.6981681034
  0
POLYLINE
  8
1_AXIS
 62
7
  6
CONTINUOUS
 66
1
 70
0
  0
VERTEX
  8
1_AXIS
 62
7
  6
CONTINUOUS
 10
133.6596655213
 20
106.1764212172
  0
VERTEX
  8
1_AXIS
 62
7
  6
CONTINUOUS
 10
133.7307366676
 20
106.2000259873
  0
VERTEX
  8
1_AXIS
 62
7
  6
CONTINUOUS
 10
133.940824564
 20
106.222597031
  0
VERTEX
  8
1_AXIS
 62
7
  6
CONTINUOUS
 10
134.2806965831
 20
106.2431465961
  0
VERTEX
  8
1_AXIS
 62
7
  6
CONTINUOUS
 10
134.7354359164
 20
106.2607765671
  0
VERTEX
  8
1_AXIS
 62
7
  6
CONTINUOUS
 10
135.2851172187
 20
106.2747177113
  0
VERTEX
  8
1_AXIS
 62
7
  6
CONTINUOUS
 10
135.9056977017
 20
106.2843628274
  0
VERTEX
  8
1_AXIS
 62
7
  6
CONTINUOUS
 10
136.5700739717
 20
106.2892924564
  0
VERTEX
  8
1_AXIS
 62
7
  6
CONTINUOUS
 10
137.2492605682
 20
106.2892924436
  0
VERTEX
  8
1_AXIS
 62
7
  6
CONTINUOUS
 10
137.9136363985
 20
106.2843627927
  0
VERTEX
  8
1_AXIS
 62
7
  6
CONTINUOUS
 10
138.5342161321
 20
106.2747176647
  0
VERTEX
  8
1_AXIS
 62
7
  6
CONTINUOUS
 10
139.083896583
 20
106.2607765214
  0
VERTEX
  8
1_AXIS
 62
7
  6
CONTINUOUS
 10
139.538635181
 20
106.2431465615
  0
VERTEX
  8
1_AXIS
 62
7
  6
CONTINUOUS
 10
139.8785067181
 20
106.2225970122
  0
VERTEX
  8
1_AXIS
 62
7
  6
CONTINUOUS
 10
140.0885944053
 20
106.2000259823
  0
VERTEX
  8
1_AXIS
 62
7
  6
CONTINUOUS
 10
140.1596655213
 20
106.1764212172
  0
SEQEND
  0
POLYLINE
  8
1_AXIS
 62
7
  6
CONTINUOUS
 66
1
 70
0
  0
VERTEX
  8
1_AXIS
 62
7
  6
CONTINUOUS
 10
140.1596655213
 20
106.1764212172
  0
VERTEX
  8
1_AXIS
 62
7
  6
CONTINUOUS
 10
140.0885943749
 20
106.1528164471
  0
VERTEX
  8
1_AXIS
 62
7
  6
CONTINUOUS
 10
139.8785064785
 20
106.1302454034
  0
VERTEX
  8
1_AXIS
 62
7
  6
CONTINUOUS
 10
139.5386344594
 20
106.1096958382
  0
VERTEX
  8
1_AXIS
 62
7
  6
CONTINUOUS
 10
139.0838951262
 20
106.0920658672
  0
VERTEX
  8
1_AXIS
 62
7
  6
CONTINUOUS
 10
138.5342138239
 20
106.0781247231
  0
VERTEX
  8
1_AXIS
 62
7
  6
CONTINUOUS
 10
137.9136333408
 20
106.068479607
  0
VERTEX
  8
1_AXIS
 62
7
  6
CONTINUOUS
 10
137.2492570708
 20
106.0635499779
  0
VERTEX
  8
1_AXIS
 62
7
  6
CONTINUOUS
 10
136.5700704743
 20
106.0635499907
  0
VERTEX
  8
1_AXIS
 62
7
  6
CONTINUOUS
 10
135.9056946441
 20
106.0684796417
  0
VERTEX
  8
1_AXIS
 62
7
  6
CONTINUOUS
 10
135.2851149104
 20
106.0781247696
  0
VERTEX
  8
1_AXIS
 62
7
  6
CONTINUOUS
 10
134.7354344595
 20
106.092065913
  0
VERTEX
  8
1_AXIS
 62
7
  6
CONTINUOUS
 10
134.2806958616
 20
106.1096958729
  0
VERTEX
  8
1_AXIS
 62
7
  6
CONTINUOUS
 10
133.9408243244
 20
106.1302454222
  0
VERTEX
  8
1_AXIS
 62
7
  6
CONTINUOUS
 10
133.7307366372
 20
106.1528164521
  0
VERTEX
  8
1_AXIS
 62
7
  6
CONTINUOUS
 10
133.6596655213
 20
106.1764212172
  0
SEQEND
  0
LINE
  8
0
 62
7
  6
CONTINUOUS
 10
138.7683917245
 20
162.8197726277
 11
131.050939318
 21
162.6850639949
  0
POLYLINE
  8
0
 62
7
  6
CONTINUOUS
 66
1
 70
0
  0
VERTEX
  8
0
 62
7
  6
CONTINUOUS
 10
143.165921729
 20
170.9546758581
  0
VERTEX
  8
0
 62
7
  6
CONTINUOUS
 10
143.2129229179
 20
170.8996292051
  0
VERTEX
  8
0
 62
7
  6
CONTINUOUS
 10
143.2466952195
 20
170.8771160814
  0
VERTEX
  8
0
 62
7
  6
CONTINUOUS
 10
143.2596655213
 20
170.8575701029
  0
SEQEND
  0
POLYLINE
  8
0
 62
7
  6
CONTINUOUS
 66
1
 70
0
  0
VERTEX
  8
0
 62
7
  6
CONTINUOUS
 10
142.7596655213
 20
171.3075701029
  0
VERTEX
  8
0
 62
7
  6
CONTINUOUS
 10
142.8502180548
 20
171.2266099542
  0
VERTEX
  8
0
 62
7
  6
CONTINUOUS
 10
142.9369447821
 20
171.1461173554
  0
VERTEX
  8
0
 62
7
  6
CONTINUOUS
 10
143.0230858022
 20
171.075005591
  0
VERTEX
  8
0
 62
7
  6
CONTINUOUS
 10
143.0929426246
 20
170.9941441443
  0
VERTEX
  8
0
 62
7
  6
CONTINUOUS
 10
143.165921729
 20
170.9546758581
  0
SEQEND
  0
LINE
  8
4_SURFACE
 62
7
  6
CONTINUOUS
 10
141.9771891098
 20
172.8981681034
 11
142.5235459211
 21
172.8981681034
  0
LINE
  8
0
 62
7
  6
CONTINUOUS
 10
131.0596655213
 20
172.8981681034
 11
142.5235459211
 21
172.8981681034
  0
LINE
  8
0
 62
7
  6
CONTINUOUS
 10
138.7683917245
 20
169.4765635792
 11
131.050939318
 21
169.611272212
  0
ARC
  8
0
 62
7
  6
CONTINUOUS
 10
90.0961476293
 20
98.2981681034
 40
1.4
 50
270.0
 51
360.0
  0
ARC
  8
0
 62
7
  6
CONTINUOUS
 10
62.6961476293
 20
171.4981681034
 40
1.4
 50
90.0
 51
180.0
  0
ARC
  8
0
 62
7
  6
CONTINUOUS
 10
101.296146979
 20
169.8810124681
 40
0.5
 50
272.0000745694
 51
0.0000026024
  0
ARC
  8
0
 62
7
  6
CONTINUOUS
 10
101.296145768
 20
162.915323781
 40
0.5
 50
359.9999925519
 51
87.9997865843
  0
ARC
  8
0
 62
7
  6
CONTINUOUS
 10
51.4961482797
 20
99.9153237388
 40
0.5
 50
92.0000745694
 51
180.0000026024
  0
ARC
  8
0
 62
7
  6
CONTINUOUS
 10
51.4961494906
 20
106.8810124259
 40
0.5
 50
179.9999925519
 51
267.9997865843
  0
ARC
  8
0
 62
7
  6
CONTINUOUS
 10
101.2961497451
 20
172.3981704818
 40
0.4999976229
 50
359.9997279224
 51
90.0002417198
  0
ARC
  8
0
 62
7
  6
CONTINUOUS
 10
51.4961455135
 20
97.3981657251
 40
0.4999976229
 50
179.9997279224
 51
270.0002417198
  0
ARC
  8
0
 62
7
  6
CONTINUOUS
 10
57.4961476293
 20
208.1329217931
 40
6.5
 50
180.0
 51
257.6670969
  0
ARC
  8
0
 62
7
  6
CONTINUOUS
 10
57.3461476293
 20
208.1329217931
 40
6.35
 50
90.0
 51
180.0
  0
CIRCLE
  8
1_AXIS
 62
7
  6
CONTINUOUS
 10
57.3461476293
 20
208.1329217931
 40
3.25
  0
ARC
  8
0
 62
7
  6
CONTINUOUS
 10
84.2852059652
 20
203.7829217931
 40
2.0
 50
270.0
 51
339.97
  0
ARC
  8
0
 62
7
  6
CONTINUOUS
 10
88.3561497899
 20
202.2829217931
 40
0.499999169
 50
269.9997524112
 51
360.0
  0
ARC
  8
0
 62
7
  6
CONTINUOUS
 10
90.99614979
 20
213.9829217931
 40
0.4999991689
 50
0.0
 51
90.0
  0
ARC
  8
0
 62
7
  6
CONTINUOUS
 10
91.4461476293
 20
213.8649829408
 40
0.05
 50
303.8877046672
 51
356.5245861515
  0
ARC
  8
0
 62
7
  6
CONTINUOUS
 10
95.2961476293
 20
208.1329217931
 40
6.855
 50
123.8877046672
 51
159.9700000902
  0
ARC
  8
0
 62
7
  6
CONTINUOUS
 10
95.2961476293
 20
208.1329217931
 40
6.5
 50
282.3329031
 51
360.0
  0
ARC
  8
0
 62
7
  6
CONTINUOUS
 10
95.4461476293
 20
208.1329217931
 40
6.35
 50
0.0
 51
90.0
  0
CIRCLE
  8
1_AXIS
 62
7
  6
CONTINUOUS
 10
95.4461476293
 20
208.1329217931
 40
3.25
  0
ARC
  8
0
 62
7
  6
CONTINUOUS
 10
131.0596655213
 20
97.3981681034
 40
0.5
 50
180.0
 51
270.0
  0
ARC
  8
0
 62
7
  6
CONTINUOUS
 10
131.0596655213
 20
108.6851401473
 40
0.5
 50
91.0
 51
180.0
  0
ARC
  8
0
 62
7
  6
CONTINUOUS
 10
131.0596655213
 20
132.9612060248
 40
0.5
 50
180.0011419341
 51
269.0000199258
  0
ARC
  8
0
 62
7
  6
CONTINUOUS
 10
131.0596655213
 20
111.6851436546
 40
0.4999993608
 50
90.9998791311
 51
180.0003953308
  0
ARC
  8
0
 62
7
  6
CONTINUOUS
 10
131.0596655213
 20
159.2851401473
 40
0.5
 50
91.0
 51
180.0
  0
ARC
  8
0
 62
7
  6
CONTINUOUS
 10
131.0596655213
 20
162.1851401473
 40
0.5
 50
91.0
 51
180.0
  0
ARC
  8
0
 62
7
  6
CONTINUOUS
 10
131.0596655213
 20
172.3981681034
 40
0.5
 50
90.0
 51
180.0
  0
ARC
  8
0
 62
7
  6
CONTINUOUS
 10
131.0596655213
 20
135.8111960596
 40
0.5
 50
180.0
 51
269.0
  0
ARC
  8
0
 62
7
  6
CONTINUOUS
 10
131.0596655213
 20
170.1111919113
 40
0.4999986174
 50
179.9995246411
 51
268.9999917037
  0
ARC
  8
0
 62
7
  6
CONTINUOUS
 10
142.7596655213
 20
108.8893654872
 40
0.4999995846
 50
359.9998762134
 51
91.0000021604
  0
ARC
  8
0
 62
7
  6
CONTINUOUS
 10
142.8496655213
 20
98.938766104
 40
0.41
 50
348.690067526
 51
360.0
  0
ARC
  8
0
 62
7
  6
CONTINUOUS
 10
142.5235459211
 20
97.3081681034
 40
0.41
 50
270.0
 51
348.690067526
  0
ARC
  8
0
 62
7
  6
CONTINUOUS
 10
138.7596655213
 20
163.3197097359
 40
0.5
 50
270.9999734808
 51
359.9984804444
  0
ARC
  8
0
 62
7
  6
CONTINUOUS
 10
138.7596655213
 20
168.9766402408
 40
0.4999997455
 50
359.9999416533
 51
88.9999989817
  0
ARC
  8
0
 62
7
  6
CONTINUOUS
 10
142.759663747
 20
135.6069718309
 40
0.5
 50
269.0002033437
 51
359.9999964512
  0
ARC
  8
0
 62
7
  6
CONTINUOUS
 10
142.7596655213
 20
159.4893654871
 40
0.4999995846
 50
359.9998762227
 51
91.0000021602
  0
ARC
  8
0
 62
7
  6
CONTINUOUS
 10
142.8496655213
 20
170.8575701029
 40
0.41
 50
0.0
 51
11.309932474
  0
ARC
  8
0
 62
7
  6
CONTINUOUS
 10
142.5235459211
 20
172.4881681034
 40
0.41
 50
11.309932474
 51
90.0
  0
ENDSEC
  0
EOF
