  0
SECTION
  2
HEADER
  9
$EXTMAX
 10
210.0
 20
297.0
 30
0.0
  9
$EXTMIN
 10
0.0
 20
0.0
 30
0.0
  9
$LIMMIN
 10
0.0
 20
0.0
  9
$LIMMAX
 10
210.0
 20
297.0
  9
$VIEWCTR
 10
105.0
 20
148.5
  9
$VIEWSIZE
 40
297.0
  9
$CLAYER
  8
0
  9
$LTSCALE
 40
19.36
  9
$CELTYPE
  6
BYLAYER
  9
$DIMSCALE
 40
1.0
  9
$DIMASZ
 40
3.5
  9
$DIMEXO
 40
2.2
  9
$DIMDLI
 40
13.376
  9
$DIMEXE
 40
6.336
  9
$DIMCEN
 40
3.168
  9
$DIMLFAC
 40
1.0
  9
$DIMBLK
  1
_FILLED
  9
$DIMTXT
 40
3.5
  9
$PDMODE
 70
3
  9
$PDSIZE
 40
0.3125
  9
$TILEMODE
 70
1
  0
ENDSEC
  0
SECTION
  2
TABLES
  0
TABLE
  2
LTYPE
 70
6
  0
LTYPE
  2
BYBLOCK
 70
0
  3

 72
65
 73
0
 40
0.0
  0
LTYPE
  2
BYLAYER
 70
0
  3

 72
65
 73
0
 40
0.0
  0
LTYPE
  2
CONTINUOUS
 70
64
  3
Solid line
 72
65
 73
0
 40
0.0
  0
LTYPE
  2
CENTER
 70
64
  3
____ _ ____ _ ____ _ ____ _ ____ _ ____ _ ____
 72
65
 73
4
 40
0.6
 49
0.375
 49
-0.075
 49
0.075
 49
-0.075
  0
LTYPE
  2
HIDDEN
 70
64
  3
- - - - - - - - - - - - - - - - - - - -
 72
65
 73
2
 40
0.2
 49
0.1
 49
-0.1
  0
LTYPE
  2
PHANTOM
 70
64
  3
_____ _ _ _____ _ _ _____ _ _ _____
 72
65
 73
6
 40
0.8
 49
0.45
 49
-0.05
 49
0.1
 49
-0.05
 49
0.1
 49
-0.05
  0
LTYPE
  2
DOT
 70
64
  3
. . . . . . . . . . . . . . . . . . . .
 72
65
 73
2
 40
0.2
 49
0.1
 49
-0.1
  0
LTYPE
  2
DASHED
 70
64
  3
- - - - - - - - - - - - - - - - - - - -
 72
65
 73
2
 40
0.2
 49
0.1
 49
-0.1
  0
ENDTAB
  0
TABLE
  2
LAYER
 70
36
  0
LAYER
  2
0
 70
0
 62
7
  6
CONTINUOUS
  0
LAYER
  2
DEFAULT_1
 70
0
 62
7
  6
CENTER
  0
LAYER
  2
DEFAULT_2
 70
0
 62
8
  6
HIDDEN
  0
LAYER
  2
DEFAULT_3
 70
0
 62
7
  6
PHANTOM
  0
LAYER
  2
1_AXIS
 70
0
 62
7
  6
CONTINUOUS
  0
LAYER
  2
1_CSYS
 70
0
 62
7
  6
CONTINUOUS
  0
LAYER
  2
1_DATUMPLANE
 70
0
 62
7
  6
CONTINUOUS
  0
LAYER
  2
4_QUILT
 70
0
 62
7
  6
CONTINUOUS
  0
LAYER
  2
4_SURFACE
 70
0
 62
7
  6
CONTINUOUS
  0
LAYER
  2
6_DIM
 70
0
 62
7
  6
CONTINUOUS
  0
LAYER
  2
CURVE
 70
0
 62
7
  6
CONTINUOUS
  0
LAYER
  2
SURFACE
 70
0
 62
7
  6
CONTINUOUS
  0
ENDTAB
  0
TABLE
  2
STYLE
 70
1
  0
STYLE
  2
STANDARD
 70
0
 40
0.0
 41
0.8
 50
0.0
 71
0
 42
0.2
  3
txt
  4

  0
STYLE
  2
TEXTSTYLE_1
 70
0
 40
0.0
 41
0.8
 50
0.0
 71
0
 42
0.2
  3
gdt
  4

  0
STYLE
  2
TEXTSTYLE_2
 70
0
 40
0.0
 41
0.6
 50
0.0
 71
0
 42
0.2
  3
txt
  4

  0
STYLE
  2
TEXTSTYLE_3
 70
0
 40
0.0
 41
1.0
 50
0.0
 71
0
 42
0.2
  3
ftb_____.ttf
  4

  0
STYLE
  2
TEXTSTYLE_4
 70
0
 40
0.0
 41
1.0
 50
0.0
 71
0
 42
0.2
  3
fti_____.ttf
  4

  0
STYLE
  2
TEXTSTYLE_5
 70
0
 40
0.0
 41
1.0
 50
0.0
 71
0
 42
0.2
  3
frutiger light.ttf
  4

  0
STYLE
  2
TEXTSTYLE_6
 70
0
 40
0.0
 41
0.7
 50
0.0
 71
0
 42
0.2
  3
txt
  4

  0
STYLE
  2
TEXTSTYLE_7
 70
0
 40
0.0
 41
0.8
 50
0.0
 71
0
 42
0.2
  3
txt
  4

  0
ENDTAB
  0
ENDSEC
  0
SECTION
  2
BLOCKS
  0
BLOCK
  8
0
 62
2
  6
CONTINUOUS
  2
SYMBOL_8_BL1
 70
64
 10
173.5956734183
 20
35.5937998301
  0
TEXT
  8
0
 62
7
  6
CONTINUOUS
 10
164.6539584268
 20
30.6865562072
  7
TEXTSTYLE_4
 40
1.0655737705
  1
The brand for plastic modular belts and chains
 41
1.0
 72
0
  0
LINE
  8
0
 62
7
  6
CONTINUOUS
 10
149.5737418074
 20
36.1675703219
 11
149.5737418074
 21
34.0364227809
  0
LINE
  8
0
 62
7
  6
CONTINUOUS
 10
149.8628043005
 20
31.0454914852
 11
149.8628043005
 21
31.1422825445
  0
LINE
  8
0
 62
7
  6
CONTINUOUS
 10
149.5737418074
 20
31.1100188581
 11
149.6315543091
 21
30.9164367395
  0
LINE
  8
0
 62
7
  6
CONTINUOUS
 10
150.9671844304
 20
33.9544555678
 11
150.9671844304
 21
36.1675703219
  0
LINE
  8
0
 62
7
  6
CONTINUOUS
 10
151.8862417523
 20
32.1101932727
 11
151.8862417523
 21
30.5937998301
  0
LINE
  8
0
 62
7
  6
CONTINUOUS
 10
152.1753043074
 20
30.5937998301
 11
152.1753043074
 21
31.3358647082
  0
LINE
  8
0
 62
7
  6
CONTINUOUS
 10
152.1753043074
 20
31.4649194539
 11
152.1753043074
 21
32.1101932727
  0
LINE
  8
0
 62
7
  6
CONTINUOUS
 10
149.6315543091
 20
31.3036010218
 11
149.5737418074
 21
31.1100188581
  0
LINE
  8
0
 62
7
  6
CONTINUOUS
 10
149.9784292936
 20
30.8841730531
 11
149.8628043005
 21
31.0454914852
  0
LINE
  8
0
 62
7
  6
CONTINUOUS
 10
151.0768668626
 20
31.400392081
 11
151.1346793074
 21
31.3036010218
  0
LINE
  8
0
 62
7
  6
CONTINUOUS
 10
151.4237418626
 20
31.3036010218
 11
151.3659292523
 21
31.4326557675
  0
LINE
  8
0
 62
7
  6
CONTINUOUS
 10
152.852430332
 20
36.1675703219
 11
152.852430332
 21
34.3642916334
  0
LINE
  8
0
 62
7
  6
CONTINUOUS
 10
152.852430332
 20
33.0528162235
 11
152.852430332
 21
32.3970785186
  0
LINE
  8
0
 62
7
  6
CONTINUOUS
 10
153.2159293074
 20
31.2390736489
 11
153.2159293074
 21
30.5937998301
  0
LINE
  8
0
 62
7
  6
CONTINUOUS
 10
153.5049916972
 20
30.5937998301
 11
153.5049916972
 21
31.2390736489
  0
LINE
  8
0
 62
7
  6
CONTINUOUS
 10
149.8628043005
 20
31.1422825445
 11
149.9206168074
 21
31.2713373354
  0
LINE
  8
0
 62
7
  6
CONTINUOUS
 10
149.6315543091
 20
30.9164367395
 11
149.7471793074
 21
30.7873819712
  0
LINE
  8
0
 62
7
  6
CONTINUOUS
 10
153.1581166972
 20
31.3681283946
 11
153.2159293074
 21
31.2390736489
  0
LINE
  8
0
 62
7
  6
CONTINUOUS
 10
153.9674919177
 20
30.8841730531
 11
154.0253041972
 21
30.7551182848
  0
LINE
  8
0
 62
7
  6
CONTINUOUS
 10
153.5049916972
 20
31.2390736489
 11
153.4471794177
 21
31.400392081
  0
LINE
  8
0
 62
7
  6
CONTINUOUS
 10
153.9674919177
 20
31.4326557675
 11
153.9674919177
 21
31.3681283946
  0
LINE
  8
0
 62
7
  6
CONTINUOUS
 10
153.9674919177
 20
30.9809641124
 11
153.9674919177
 21
30.8841730531
  0
LINE
  8
0
 62
7
  6
CONTINUOUS
 10
154.245872955
 20
32.3970785186
 11
154.245872955
 21
36.1675703219
  0
LINE
  8
0
 62
7
  6
CONTINUOUS
 10
154.2565543074
 20
30.8519093441
 11
154.2565543074
 21
30.9164367395
  0
LINE
  8
0
 62
7
  6
CONTINUOUS
 10
154.5737418074
 20
36.1675703219
 11
154.5737418074
 21
32.3970785186
  0
LINE
  8
0
 62
7
  6
CONTINUOUS
 10
151.3659292523
 20
30.7873819712
 11
151.4237418626
 21
30.9164367395
  0
LINE
  8
0
 62
7
  6
CONTINUOUS
 10
155.759679528
 20
30.6905909007
 11
155.7018665869
 21
30.8519093441
  0
LINE
  8
0
 62
7
  6
CONTINUOUS
 10
155.412804528
 20
31.3681283946
 11
155.412804528
 21
31.2713373354
  0
LINE
  8
0
 62
7
  6
CONTINUOUS
 10
155.412804528
 20
31.1422825445
 11
155.412804528
 21
30.9487004259
  0
LINE
  8
0
 62
7
  6
CONTINUOUS
 10
155.7018665869
 20
30.8519093441
 11
155.7018665869
 21
31.3681283946
  0
LINE
  8
0
 62
7
  6
CONTINUOUS
 10
155.9671844304
 20
32.3970785186
 11
155.9671844304
 21
34.2003572071
  0
LINE
  8
0
 62
7
  6
CONTINUOUS
 10
155.9671844304
 20
35.511832617
 11
155.9671844304
 21
36.1675703219
  0
LINE
  8
0
 62
7
  6
CONTINUOUS
 10
156.279992028
 20
32.1101932727
 11
156.279992028
 21
31.9488748406
  0
LINE
  8
0
 62
7
  6
CONTINUOUS
 10
156.279992028
 20
31.626237886
 11
156.279992028
 21
30.5937998301
  0
LINE
  8
0
 62
7
  6
CONTINUOUS
 10
156.5690540869
 20
30.5937998301
 11
156.5690540869
 21
31.626237886
  0
LINE
  8
0
 62
7
  6
CONTINUOUS
 10
156.5690540869
 20
31.9488748406
 11
156.5690540869
 21
32.1101932727
  0
LINE
  8
0
 62
7
  6
CONTINUOUS
 10
151.1346793074
 20
30.9164367395
 11
151.0768668626
 21
30.8196456577
  0
LINE
  8
0
 62
7
  6
CONTINUOUS
 10
153.4471794177
 20
31.400392081
 11
153.3893668074
 21
31.4649194539
  0
LINE
  8
0
 62
7
  6
CONTINUOUS
 10
154.3143669177
 20
30.7873819712
 11
154.2565543074
 21
30.8519093441
  0
LINE
  8
0
 62
7
  6
CONTINUOUS
 10
155.4706168074
 20
30.6583272086
 11
155.5284290869
 21
30.5937998301
  0
LINE
  8
0
 62
7
  6
CONTINUOUS
 10
155.412804528
 20
30.7551182848
 11
155.4706168074
 21
30.6583272086
  0
LINE
  8
0
 62
7
  6
CONTINUOUS
 10
155.8174918074
 20
30.5937998301
 11
155.759679528
 21
30.6905909007
  0
LINE
  8
0
 62
7
  6
CONTINUOUS
 10
155.7018665869
 20
31.3681283946
 11
155.6440543074
 21
31.4649194539
  0
LINE
  8
0
 62
7
  6
CONTINUOUS
 10
157.0315543074
 20
31.626237886
 11
157.0315543074
 21
30.5937998301
  0
LINE
  8
0
 62
7
  6
CONTINUOUS
 10
157.320617028
 20
30.5937998301
 11
157.320617028
 21
31.3358647082
  0
LINE
  8
0
 62
7
  6
CONTINUOUS
 10
157.320617028
 20
31.4649194539
 11
157.320617028
 21
31.626237886
  0
LINE
  8
0
 62
7
  6
CONTINUOUS
 10
157.852430332
 20
34.6101932727
 11
157.852430332
 21
32.3970785186
  0
LINE
  8
0
 62
7
  6
CONTINUOUS
 10
149.7471793074
 20
31.4326557675
 11
149.6315543091
 21
31.3036010218
  0
LINE
  8
0
 62
7
  6
CONTINUOUS
 10
149.9206168074
 20
31.2713373354
 11
149.9784292936
 21
31.3358647082
  0
LINE
  8
0
 62
7
  6
CONTINUOUS
 10
149.7471793074
 20
30.7873819712
 11
149.8628043005
 21
30.7228545871
  0
LINE
  8
0
 62
7
  6
CONTINUOUS
 10
150.1518667936
 20
30.7873819712
 11
149.9784292936
 21
30.8841730531
  0
LINE
  8
0
 62
7
  6
CONTINUOUS
 10
155.3549915869
 20
31.4326557675
 11
155.412804528
 21
31.3681283946
  0
LINE
  8
0
 62
7
  6
CONTINUOUS
 10
158.3034290869
 20
31.3681283946
 11
158.361242028
 21
31.2068099625
  0
LINE
  8
0
 62
7
  6
CONTINUOUS
 10
158.6503040869
 20
31.2068099625
 11
158.5924918074
 21
31.3681283946
  0
LINE
  8
0
 62
7
  6
CONTINUOUS
 10
158.361242028
 20
31.2068099625
 11
158.361242028
 21
30.5937998301
  0
LINE
  8
0
 62
7
  6
CONTINUOUS
 10
158.6503040869
 20
30.5937998301
 11
158.6503040869
 21
31.2068099625
  0
LINE
  8
0
 62
7
  6
CONTINUOUS
 10
159.1128043074
 20
31.4326557675
 11
159.1128043074
 21
31.3681283946
  0
LINE
  8
0
 62
7
  6
CONTINUOUS
 10
159.245872955
 20
32.3970785186
 11
159.245872955
 21
34.5282260596
  0
LINE
  8
0
 62
7
  6
CONTINUOUS
 10
159.5737418074
 20
36.1675703219
 11
159.5737418074
 21
32.3970785186
  0
LINE
  8
0
 62
7
  6
CONTINUOUS
 10
154.2565543074
 20
30.9164367395
 11
154.3143669177
 21
31.0132277988
  0
LINE
  8
0
 62
7
  6
CONTINUOUS
 10
149.8628043005
 20
30.7228545871
 11
150.0362418212
 21
30.6583272086
  0
LINE
  8
0
 62
7
  6
CONTINUOUS
 10
151.3659292523
 20
31.4326557675
 11
151.1924917523
 21
31.5294468267
  0
LINE
  8
0
 62
7
  6
CONTINUOUS
 10
154.0253041972
 20
30.7551182848
 11
154.1987416972
 21
30.6583272086
  0
LINE
  8
0
 62
7
  6
CONTINUOUS
 10
153.0424918074
 20
31.4326557675
 11
153.1581166972
 21
31.3681283946
  0
LINE
  8
0
 62
7
  6
CONTINUOUS
 10
153.3893668074
 20
31.4649194539
 11
153.2737419177
 21
31.5294468267
  0
LINE
  8
0
 62
7
  6
CONTINUOUS
 10
159.1128043074
 20
30.8519093441
 11
159.228429528
 21
30.7228545871
  0
LINE
  8
0
 62
7
  6
CONTINUOUS
 10
159.4596793074
 20
30.7873819712
 11
159.401867028
 21
30.8519093441
  0
LINE
  8
0
 62
7
  6
CONTINUOUS
 10
159.1128043074
 20
31.3681283946
 11
159.228429528
 21
31.2390736489
  0
LINE
  8
0
 62
7
  6
CONTINUOUS
 10
158.5924918074
 20
31.3681283946
 11
158.534679528
 21
31.4649194539
  0
LINE
  8
0
 62
7
  6
CONTINUOUS
 10
160.9628038663
 20
30.7873819712
 11
160.9628038663
 21
30.8519093441
  0
LINE
  8
0
 62
7
  6
CONTINUOUS
 10
160.9671844304
 20
32.3970785186
 11
160.9671844304
 21
36.1675703219
  0
LINE
  8
0
 62
7
  6
CONTINUOUS
 10
154.0253041972
 20
31.4971831403
 11
153.9674919177
 21
31.4326557675
  0
LINE
  8
0
 62
7
  6
CONTINUOUS
 10
150.9034292799
 20
31.4649194539
 11
151.0768668626
 21
31.400392081
  0
LINE
  8
0
 62
7
  6
CONTINUOUS
 10
155.6440543074
 20
31.4649194539
 11
155.5284290869
 21
31.5294468267
  0
LINE
  8
0
 62
7
  6
CONTINUOUS
 10
159.4596793074
 20
31.3036010218
 11
159.401867028
 21
31.3681283946
  0
LINE
  8
0
 62
7
  6
CONTINUOUS
 10
160.615929528
 20
30.9164367395
 11
160.6737418074
 21
30.8519093441
  0
LINE
  8
0
 62
7
  6
CONTINUOUS
 10
160.9628038663
 20
30.8519093441
 11
160.8471793074
 21
30.9809641124
  0
LINE
  8
0
 62
7
  6
CONTINUOUS
 10
160.615929528
 20
31.4326557675
 11
160.6737418074
 21
31.3681283946
  0
LINE
  8
0
 62
7
  6
CONTINUOUS
 10
160.9628038663
 20
31.3681283946
 11
160.8471793074
 21
31.4971831403
  0
LINE
  8
0
 62
7
  6
CONTINUOUS
 10
154.2565543074
 20
31.3681283946
 11
154.3143669177
 21
31.4326557675
  0
LINE
  8
0
 62
7
  6
CONTINUOUS
 10
154.0831168074
 20
31.1100188581
 11
153.9674919177
 21
30.9809641124
  0
LINE
  8
0
 62
7
  6
CONTINUOUS
 10
155.412804528
 20
30.9487004259
 11
155.3549915869
 21
30.8841730531
  0
LINE
  8
0
 62
7
  6
CONTINUOUS
 10
155.3549915869
 20
30.6905909007
 11
155.412804528
 21
30.7551182848
  0
LINE
  8
0
 62
7
  6
CONTINUOUS
 10
154.1987416972
 20
30.6583272086
 11
154.3143669177
 21
30.6260635193
  0
LINE
  8
0
 62
7
  6
CONTINUOUS
 10
151.1924917523
 20
31.5294468267
 11
150.9612418074
 21
31.5939741996
  0
LINE
  8
0
 62
7
  6
CONTINUOUS
 10
154.5456166972
 20
30.7228545871
 11
154.3143669177
 21
30.7873819712
  0
LINE
  8
0
 62
7
  6
CONTINUOUS
 10
153.2737419177
 20
31.5294468267
 11
153.1003044177
 21
31.5939741996
  0
LINE
  8
0
 62
7
  6
CONTINUOUS
 10
155.5284290869
 20
31.5294468267
 11
155.3549915869
 21
31.5939741996
  0
LINE
  8
0
 62
7
  6
CONTINUOUS
 10
158.187804528
 20
31.4326557675
 11
158.3034290869
 21
31.3681283946
  0
LINE
  8
0
 62
7
  6
CONTINUOUS
 10
158.534679528
 20
31.4649194539
 11
158.4190543074
 21
31.5294468267
  0
LINE
  8
0
 62
7
  6
CONTINUOUS
 10
150.0362418212
 20
30.6583272086
 11
150.2096793212
 21
30.6260635193
  0
LINE
  8
0
 62
7
  6
CONTINUOUS
 10
150.498741835
 20
30.7228545871
 11
150.1518667936
 21
30.7873819712
  0
LINE
  8
0
 62
7
  6
CONTINUOUS
 10
152.9268669177
 20
31.4649194539
 11
153.0424918074
 21
31.4326557675
  0
LINE
  8
0
 62
7
  6
CONTINUOUS
 10
155.239367028
 20
31.4649194539
 11
155.3549915869
 21
31.4326557675
  0
LINE
  8
0
 62
7
  6
CONTINUOUS
 10
159.575304528
 20
30.7551182848
 11
159.4596793074
 21
30.7873819712
  0
LINE
  8
0
 62
7
  6
CONTINUOUS
 10
158.0721793074
 20
31.4649194539
 11
158.187804528
 21
31.4326557675
  0
LINE
  8
0
 62
7
  6
CONTINUOUS
 10
159.228429528
 20
30.7228545871
 11
159.401867028
 21
30.6583272086
  0
LINE
  8
0
 62
7
  6
CONTINUOUS
 10
158.4190543074
 20
31.5294468267
 11
158.2456168074
 21
31.5939741996
  0
LINE
  8
0
 62
7
  6
CONTINUOUS
 10
159.6331168074
 20
31.2390736489
 11
159.4596793074
 21
31.3036010218
  0
LINE
  8
0
 62
7
  6
CONTINUOUS
 10
160.442492028
 20
30.9809641124
 11
160.615929528
 21
30.9164367395
  0
LINE
  8
0
 62
7
  6
CONTINUOUS
 10
160.8471793074
 20
31.4971831403
 11
160.6737418074
 21
31.5617105132
  0
LINE
  8
0
 62
7
  6
CONTINUOUS
 10
159.228429528
 20
31.2390736489
 11
159.4596793074
 21
31.1422825445
  0
LINE
  8
0
 62
7
  6
CONTINUOUS
 10
160.8471793074
 20
30.9809641124
 11
160.615929528
 21
31.0777551716
  0
LINE
  8
0
 62
7
  6
CONTINUOUS
 10
159.401867028
 20
31.3681283946
 11
159.4596793074
 21
31.4326557675
  0
LINE
  8
0
 62
7
  6
CONTINUOUS
 10
149.8628043005
 20
31.4971831403
 11
149.7471793074
 21
31.4326557675
  0
LINE
  8
0
 62
7
  6
CONTINUOUS
 10
149.9784292936
 20
31.3358647082
 11
150.1518667936
 21
31.4326557675
  0
LINE
  8
0
 62
7
  6
CONTINUOUS
 10
152.2909293626
 20
31.5294468267
 11
152.1753043074
 21
31.4649194539
  0
LINE
  8
0
 62
7
  6
CONTINUOUS
 10
152.1753043074
 20
31.3358647082
 11
152.2909293626
 21
31.400392081
  0
LINE
  8
0
 62
7
  6
CONTINUOUS
 10
151.1924917523
 20
30.6905909007
 11
151.3659292523
 21
30.7873819712
  0
LINE
  8
0
 62
7
  6
CONTINUOUS
 10
150.2096793212
 20
30.6260635193
 11
150.5565542799
 21
30.5937998301
  0
LINE
  8
0
 62
7
  6
CONTINUOUS
 10
154.3143669177
 20
30.6260635193
 11
154.5456166972
 21
30.5937998301
  0
LINE
  8
0
 62
7
  6
CONTINUOUS
 10
152.6956168074
 20
31.4971831403
 11
152.9268669177
 21
31.4649194539
  0
LINE
  8
0
 62
7
  6
CONTINUOUS
 10
155.0081169177
 20
31.4971831403
 11
155.239367028
 21
31.4649194539
  0
LINE
  8
0
 62
7
  6
CONTINUOUS
 10
159.4596793074
 20
31.1422825445
 11
160.442492028
 21
30.9809641124
  0
LINE
  8
0
 62
7
  6
CONTINUOUS
 10
160.615929528
 20
31.0777551716
 11
159.6331168074
 21
31.2390736489
  0
LINE
  8
0
 62
7
  6
CONTINUOUS
 10
153.1003044177
 20
31.5939741996
 11
152.9268669177
 21
31.626237886
  0
LINE
  8
0
 62
7
  6
CONTINUOUS
 10
159.401867028
 20
30.6583272086
 11
159.575304528
 21
30.6260635193
  0
LINE
  8
0
 62
7
  6
CONTINUOUS
 10
158.2456168074
 20
31.5939741996
 11
158.0721793074
 21
31.626237886
  0
LINE
  8
0
 62
7
  6
CONTINUOUS
 10
160.5003043074
 20
31.4649194539
 11
160.615929528
 21
31.4326557675
  0
LINE
  8
0
 62
7
  6
CONTINUOUS
 10
160.6737418074
 20
30.8519093441
 11
160.615929528
 21
30.7873819712
  0
LINE
  8
0
 62
7
  6
CONTINUOUS
 10
159.228429528
 20
31.5294468267
 11
159.1128043074
 21
31.4326557675
  0
LINE
  8
0
 62
7
  6
CONTINUOUS
 10
154.1409294177
 20
31.5617105132
 11
154.0253041972
 21
31.4971831403
  0
LINE
  8
0
 62
7
  6
CONTINUOUS
 10
154.1987416972
 20
31.1745462761
 11
154.0831168074
 21
31.1100188581
  0
LINE
  8
0
 62
7
  6
CONTINUOUS
 10
154.3143669177
 20
31.0132277988
 11
154.4299918074
 21
31.0777551716
  0
LINE
  8
0
 62
7
  6
CONTINUOUS
 10
151.8862417523
 20
30.5937998301
 11
152.1753043074
 21
30.5937998301
  0
LINE
  8
0
 62
7
  6
CONTINUOUS
 10
153.2159293074
 20
30.5937998301
 11
153.5049916972
 21
30.5937998301
  0
LINE
  8
0
 62
7
  6
CONTINUOUS
 10
154.5456166972
 20
30.5937998301
 11
154.8924916972
 21
30.5937998301
  0
LINE
  8
0
 62
7
  6
CONTINUOUS
 10
155.5284290869
 20
30.5937998301
 11
155.8174918074
 21
30.5937998301
  0
LINE
  8
0
 62
7
  6
CONTINUOUS
 10
156.279992028
 20
30.5937998301
 11
156.5690540869
 21
30.5937998301
  0
LINE
  8
0
 62
7
  6
CONTINUOUS
 10
157.0315543074
 20
30.5937998301
 11
157.320617028
 21
30.5937998301
  0
LINE
  8
0
 62
7
  6
CONTINUOUS
 10
158.361242028
 20
30.5937998301
 11
158.6503040869
 21
30.5937998301
  0
LINE
  8
0
 62
7
  6
CONTINUOUS
 10
159.922179528
 20
30.5937998301
 11
160.269054528
 21
30.5937998301
  0
LINE
  8
0
 62
7
  6
CONTINUOUS
 10
160.269054528
 20
30.7228545871
 11
159.922179528
 21
30.7228545871
  0
LINE
  8
0
 62
7
  6
CONTINUOUS
 10
154.8924916972
 20
30.7228545871
 11
154.5456166972
 21
30.7228545871
  0
LINE
  8
0
 62
7
  6
CONTINUOUS
 10
159.401867028
 20
30.8519093441
 11
159.1128043074
 21
30.8519093441
  0
LINE
  8
0
 62
7
  6
CONTINUOUS
 10
151.4237418626
 20
30.9164367395
 11
151.1346793074
 21
30.9164367395
  0
LINE
  8
0
 62
7
  6
CONTINUOUS
 10
150.498741835
 20
31.4971831403
 11
150.9034292799
 21
31.4649194539
  0
LINE
  8
0
 62
7
  6
CONTINUOUS
 10
150.9612418074
 20
31.5939741996
 11
150.5565542799
 21
31.626237886
  0
LINE
  8
0
 62
7
  6
CONTINUOUS
 10
159.575304528
 20
30.6260635193
 11
159.922179528
 21
30.5937998301
  0
LINE
  8
0
 62
7
  6
CONTINUOUS
 10
159.922179528
 20
30.7228545871
 11
159.575304528
 21
30.7551182848
  0
LINE
  8
0
 62
7
  6
CONTINUOUS
 10
155.3549915869
 20
31.5939741996
 11
155.0081169177
 21
31.626237886
  0
LINE
  8
0
 62
7
  6
CONTINUOUS
 10
160.1534293074
 20
31.4971831403
 11
160.5003043074
 21
31.4649194539
  0
LINE
  8
0
 62
7
  6
CONTINUOUS
 10
160.5003043074
 20
31.5939741996
 11
160.1534293074
 21
31.626237886
  0
LINE
  8
0
 62
7
  6
CONTINUOUS
 10
157.840929528
 20
31.4971831403
 11
158.0721793074
 21
31.4649194539
  0
LINE
  8
0
 62
7
  6
CONTINUOUS
 10
160.6737418074
 20
31.5617105132
 11
160.5003043074
 21
31.5939741996
  0
LINE
  8
0
 62
7
  6
CONTINUOUS
 10
160.8471793074
 20
30.6905909007
 11
160.9628038663
 21
30.7873819712
  0
LINE
  8
0
 62
7
  6
CONTINUOUS
 10
155.3549915869
 20
30.8841730531
 11
155.1815540869
 21
30.7873819712
  0
LINE
  8
0
 62
7
  6
CONTINUOUS
 10
157.4362415869
 20
31.5294468267
 11
157.320617028
 21
31.4649194539
  0
LINE
  8
0
 62
7
  6
CONTINUOUS
 10
157.320617028
 20
31.3358647082
 11
157.4362415869
 21
31.400392081
  0
LINE
  8
0
 62
7
  6
CONTINUOUS
 10
150.0362418212
 20
31.5617105132
 11
149.8628043005
 21
31.4971831403
  0
LINE
  8
0
 62
7
  6
CONTINUOUS
 10
152.4643666972
 20
31.5939741996
 11
152.2909293626
 21
31.5294468267
  0
LINE
  8
0
 62
7
  6
CONTINUOUS
 10
152.2909293626
 20
31.400392081
 11
152.4643666972
 21
31.4649194539
  0
LINE
  8
0
 62
7
  6
CONTINUOUS
 10
151.0768668626
 20
30.8196456577
 11
150.9034292799
 21
30.7551182848
  0
LINE
  8
0
 62
7
  6
CONTINUOUS
 10
160.5003043074
 20
30.7551182848
 11
160.269054528
 21
30.7228545871
  0
LINE
  8
0
 62
7
  6
CONTINUOUS
 10
154.8924916972
 20
30.5937998301
 11
155.1815540869
 21
30.6260635193
  0
LINE
  8
0
 62
7
  6
CONTINUOUS
 10
160.269054528
 20
30.5937998301
 11
160.615929528
 21
30.6260635193
  0
LINE
  8
0
 62
7
  6
CONTINUOUS
 10
150.5565542799
 20
30.5937998301
 11
150.9612418074
 21
30.6260635193
  0
LINE
  8
0
 62
7
  6
CONTINUOUS
 10
150.9034292799
 20
30.7551182848
 11
150.498741835
 21
30.7228545871
  0
LINE
  8
0
 62
7
  6
CONTINUOUS
 10
154.7768668074
 20
31.1422825445
 11
155.412804528
 21
31.1422825445
  0
LINE
  8
0
 62
7
  6
CONTINUOUS
 10
155.412804528
 20
31.2713373354
 11
154.7768668074
 21
31.2713373354
  0
LINE
  8
0
 62
7
  6
CONTINUOUS
 10
151.1346793074
 20
31.3036010218
 11
151.4237418626
 21
31.3036010218
  0
LINE
  8
0
 62
7
  6
CONTINUOUS
 10
153.9674919177
 20
31.3681283946
 11
154.2565543074
 21
31.3681283946
  0
LINE
  8
0
 62
7
  6
CONTINUOUS
 10
160.6737418074
 20
31.3681283946
 11
160.9628038663
 21
31.3681283946
  0
LINE
  8
0
 62
7
  6
CONTINUOUS
 10
154.6612419177
 20
31.4971831403
 11
155.0081169177
 21
31.4971831403
  0
LINE
  8
0
 62
7
  6
CONTINUOUS
 10
159.8065543074
 20
31.4971831403
 11
160.1534293074
 21
31.4971831403
  0
LINE
  8
0
 62
7
  6
CONTINUOUS
 10
160.1534293074
 20
31.626237886
 11
159.8065543074
 21
31.626237886
  0
LINE
  8
0
 62
7
  6
CONTINUOUS
 10
158.0721793074
 20
31.626237886
 11
157.840929528
 21
31.626237886
  0
LINE
  8
0
 62
7
  6
CONTINUOUS
 10
157.320617028
 20
31.626237886
 11
157.0315543074
 21
31.626237886
  0
LINE
  8
0
 62
7
  6
CONTINUOUS
 10
156.5690540869
 20
31.626237886
 11
156.279992028
 21
31.626237886
  0
LINE
  8
0
 62
7
  6
CONTINUOUS
 10
155.0081169177
 20
31.626237886
 11
154.6612419177
 21
31.626237886
  0
LINE
  8
0
 62
7
  6
CONTINUOUS
 10
152.9268669177
 20
31.626237886
 11
152.6956168074
 21
31.626237886
  0
LINE
  8
0
 62
7
  6
CONTINUOUS
 10
156.279992028
 20
31.9488748406
 11
156.5690540869
 21
31.9488748406
  0
LINE
  8
0
 62
7
  6
CONTINUOUS
 10
156.5690540869
 20
32.1101932727
 11
156.279992028
 21
32.1101932727
  0
LINE
  8
0
 62
7
  6
CONTINUOUS
 10
152.1753043074
 20
32.1101932727
 11
151.8862417523
 21
32.1101932727
  0
LINE
  8
0
 62
7
  6
CONTINUOUS
 10
151.2130860697
 20
32.3970785186
 11
151.6256574183
 21
32.3970785186
  0
LINE
  8
0
 62
7
  6
CONTINUOUS
 10
152.852430332
 20
32.3970785186
 11
154.245872955
 21
32.3970785186
  0
LINE
  8
0
 62
7
  6
CONTINUOUS
 10
154.5737418074
 20
32.3970785186
 11
155.9671844304
 21
32.3970785186
  0
LINE
  8
0
 62
7
  6
CONTINUOUS
 10
157.852430332
 20
32.3970785186
 11
159.245872955
 21
32.3970785186
  0
LINE
  8
0
 62
7
  6
CONTINUOUS
 10
159.5737418074
 20
32.3970785186
 11
160.9671844304
 21
32.3970785186
  0
LINE
  8
0
 62
7
  6
CONTINUOUS
 10
157.6096790869
 20
31.5939741996
 11
157.4362415869
 21
31.5294468267
  0
LINE
  8
0
 62
7
  6
CONTINUOUS
 10
155.1815540869
 20
30.6260635193
 11
155.3549915869
 21
30.6905909007
  0
LINE
  8
0
 62
7
  6
CONTINUOUS
 10
160.615929528
 20
30.6260635193
 11
160.8471793074
 21
30.6905909007
  0
LINE
  8
0
 62
7
  6
CONTINUOUS
 10
160.615929528
 20
30.7873819712
 11
160.5003043074
 21
30.7551182848
  0
LINE
  8
0
 62
7
  6
CONTINUOUS
 10
159.575304528
 20
31.4649194539
 11
159.8065543074
 21
31.4971831403
  0
LINE
  8
0
 62
7
  6
CONTINUOUS
 10
157.6096790869
 20
31.4649194539
 11
157.840929528
 21
31.4971831403
  0
LINE
  8
0
 62
7
  6
CONTINUOUS
 10
154.5456166972
 20
31.1100188581
 11
154.7768668074
 21
31.1422825445
  0
LINE
  8
0
 62
7
  6
CONTINUOUS
 10
157.840929528
 20
31.626237886
 11
157.6096790869
 21
31.5939741996
  0
LINE
  8
0
 62
7
  6
CONTINUOUS
 10
154.4299918074
 20
31.4649194539
 11
154.6612419177
 21
31.4971831403
  0
LINE
  8
0
 62
7
  6
CONTINUOUS
 10
159.8065543074
 20
31.626237886
 11
159.4596793074
 21
31.5939741996
  0
LINE
  8
0
 62
7
  6
CONTINUOUS
 10
154.7768668074
 20
31.2713373354
 11
154.4299918074
 21
31.2390736489
  0
LINE
  8
0
 62
7
  6
CONTINUOUS
 10
150.5565542799
 20
31.626237886
 11
150.2096793212
 21
31.5939741996
  0
LINE
  8
0
 62
7
  6
CONTINUOUS
 10
154.6612419177
 20
31.626237886
 11
154.2565543074
 21
31.5939741996
  0
LINE
  8
0
 62
7
  6
CONTINUOUS
 10
152.0327582009
 20
33.5446195022
 11
151.3770204959
 21
33.5446195022
  0
LINE
  8
0
 62
7
  6
CONTINUOUS
 10
157.4362415869
 20
31.400392081
 11
157.6096790869
 21
31.4649194539
  0
LINE
  8
0
 62
7
  6
CONTINUOUS
 10
159.4596793074
 20
31.4326557675
 11
159.575304528
 21
31.4649194539
  0
LINE
  8
0
 62
7
  6
CONTINUOUS
 10
159.4596793074
 20
31.5939741996
 11
159.228429528
 21
31.5294468267
  0
LINE
  8
0
 62
7
  6
CONTINUOUS
 10
155.1815540869
 20
30.7873819712
 11
154.8924916972
 21
30.7228545871
  0
LINE
  8
0
 62
7
  6
CONTINUOUS
 10
152.4643666972
 20
31.4649194539
 11
152.6956168074
 21
31.4971831403
  0
LINE
  8
0
 62
7
  6
CONTINUOUS
 10
152.6956168074
 20
31.626237886
 11
152.4643666972
 21
31.5939741996
  0
LINE
  8
0
 62
7
  6
CONTINUOUS
 10
150.2674918074
 20
31.4649194539
 11
150.498741835
 21
31.4971831403
  0
LINE
  8
0
 62
7
  6
CONTINUOUS
 10
156.7868565615
 20
35.0200293383
 11
157.4425942664
 21
35.0200293383
  0
LINE
  8
0
 62
7
  6
CONTINUOUS
 10
154.4299918074
 20
31.0777551716
 11
154.5456166972
 21
31.1100188581
  0
LINE
  8
0
 62
7
  6
CONTINUOUS
 10
154.4299918074
 20
31.2390736489
 11
154.1987416972
 21
31.1745462761
  0
LINE
  8
0
 62
7
  6
CONTINUOUS
 10
154.3143669177
 20
31.4326557675
 11
154.4299918074
 21
31.4649194539
  0
LINE
  8
0
 62
7
  6
CONTINUOUS
 10
150.9612418074
 20
30.6260635193
 11
151.1924917523
 21
30.6905909007
  0
LINE
  8
0
 62
7
  6
CONTINUOUS
 10
154.2565543074
 20
31.5939741996
 11
154.1409294177
 21
31.5617105132
  0
LINE
  8
0
 62
7
  6
CONTINUOUS
 10
150.2096793212
 20
31.5939741996
 11
150.0362418212
 21
31.5617105132
  0
LINE
  8
0
 62
7
  6
CONTINUOUS
 10
160.9671844304
 20
36.1675703219
 11
159.5737418074
 21
36.1675703219
  0
LINE
  8
0
 62
7
  6
CONTINUOUS
 10
157.6065286927
 20
36.1675703219
 11
157.1939573441
 21
36.1675703219
  0
LINE
  8
0
 62
7
  6
CONTINUOUS
 10
155.9671844304
 20
36.1675703219
 11
154.5737418074
 21
36.1675703219
  0
LINE
  8
0
 62
7
  6
CONTINUOUS
 10
154.245872955
 20
36.1675703219
 11
152.852430332
 21
36.1675703219
  0
LINE
  8
0
 62
7
  6
CONTINUOUS
 10
150.9671844304
 20
36.1675703219
 11
149.5737418074
 21
36.1675703219
  0
LINE
  8
0
 62
7
  6
CONTINUOUS
 10
150.1518667936
 20
31.4326557675
 11
150.2674918074
 21
31.4649194539
  0
CIRCLE
  8
0
 62
7
  6
CONTINUOUS
 10
160.2704631189
 20
38.5036358957
 40
2.0901639344
  0
ARC
  8
0
 62
7
  6
CONTINUOUS
 10
151.2130860697
 20
34.0364227809
 40
1.6393442623
 50
180.0
 51
270.0
  0
ARC
  8
0
 62
7
  6
CONTINUOUS
 10
157.6065286927
 20
34.5282260596
 40
1.6393442623
 50
0.0
 51
90.0
  0
ARC
  8
0
 62
7
  6
CONTINUOUS
 10
151.6256574183
 20
33.8724883547
 40
1.4754098361
 50
270.0
 51
326.2510114041
  0
ARC
  8
0
 62
7
  6
CONTINUOUS
 10
157.1939573441
 20
34.6921604858
 40
1.4754098361
 50
90.0
 51
146.2510114041
  0
ARC
  8
0
 62
7
  6
CONTINUOUS
 10
152.0327582009
 20
34.3642916334
 40
0.8196721311
 50
270.0
 51
360.0
  0
ARC
  8
0
 62
7
  6
CONTINUOUS
 10
156.7868565615
 20
34.2003572071
 40
0.8196721311
 50
90.0
 51
180.0
  0
ARC
  8
0
 62
7
  6
CONTINUOUS
 10
151.3770204959
 20
33.9544555678
 40
0.4098360656
 50
180.0
 51
270.0
  0
ARC
  8
0
 62
7
  6
CONTINUOUS
 10
157.4425942664
 20
34.6101932727
 40
0.4098360656
 50
0.0
 51
90.0
  0
SOLID
  8
0
 62
7
  6
CONTINUOUS
 10
156.279992028
 20
31.9488752009
 11
156.279992028
 21
32.1101936845
 12
156.5690540869
 22
31.9488752009
 13
156.5690540869
 23
32.1101936845
  0
SOLID
  8
0
 62
7
  6
CONTINUOUS
 10
150.5565542799
 20
31.6262382337
 11
150.9612418074
 21
31.5939740028
 12
150.2096793212
 22
31.5939740028
 13
150.2096793212
 23
31.5939740028
  0
SOLID
  8
0
 62
7
  6
CONTINUOUS
 10
150.0362418212
 20
31.5617111435
 11
150.2096793212
 21
31.5939740028
 12
150.9612418074
 22
31.5939740028
 13
150.9612418074
 23
31.5939740028
  0
SOLID
  8
0
 62
7
  6
CONTINUOUS
 10
150.9612418074
 20
31.5939740028
 11
151.1924917523
 21
31.5294468402
 12
150.0362418212
 22
31.5617111435
 13
150.0362418212
 23
31.5617111435
  0
SOLID
  8
0
 62
7
  6
CONTINUOUS
 10
149.8628043005
 20
31.49718259
 11
150.0362418212
 21
31.5617111435
 12
151.1924917523
 22
31.5294468402
 13
151.1924917523
 23
31.5294468402
  0
SOLID
  8
0
 62
7
  6
CONTINUOUS
 10
149.8628043005
 20
31.49718259
 11
151.1924917523
 21
31.5294468402
 12
150.498741835
 22
31.49718259
 13
150.498741835
 23
31.49718259
  0
SOLID
  8
0
 62
7
  6
CONTINUOUS
 10
150.498741835
 20
31.49718259
 11
151.1924917523
 21
31.5294468402
 12
150.9034292799
 22
31.4649197501
 13
150.9034292799
 23
31.4649197501
  0
SOLID
  8
0
 62
7
  6
CONTINUOUS
 10
151.1924917523
 20
31.5294468402
 11
151.3659292523
 21
31.4326554468
 12
150.9034292799
 22
31.4649197501
 13
150.9034292799
 23
31.4649197501
  0
SOLID
  8
0
 62
7
  6
CONTINUOUS
 10
151.0768668626
 20
31.4003926599
 11
150.9034292799
 21
31.4649197501
 12
151.3659292523
 22
31.4326554468
 13
151.3659292523
 23
31.4326554468
  0
SOLID
  8
0
 62
7
  6
CONTINUOUS
 10
151.0768668626
 20
31.4003926599
 11
151.3659292523
 21
31.4326554468
 12
151.1346793074
 22
31.3036013776
 13
151.1346793074
 23
31.3036013776
  0
SOLID
  8
0
 62
7
  6
CONTINUOUS
 10
151.3659292523
 20
31.4326554468
 11
151.4237418626
 21
31.3036013776
 12
151.1346793074
 22
31.3036013776
 13
151.1346793074
 23
31.3036013776
  0
SOLID
  8
0
 62
7
  6
CONTINUOUS
 10
152.4643666972
 20
31.5939739754
 11
152.6956168074
 21
31.6262382787
 12
152.9268669177
 22
31.6262382787
 13
152.9268669177
 23
31.6262382787
  0
SOLID
  8
0
 62
7
  6
CONTINUOUS
 10
152.9268669177
 20
31.6262382787
 11
153.1003044177
 21
31.5939739754
 12
152.4643666972
 22
31.5939739754
 13
152.4643666972
 23
31.5939739754
  0
SOLID
  8
0
 62
7
  6
CONTINUOUS
 10
152.2909293626
 20
31.5294468852
 11
152.4643666972
 21
31.5939739754
 12
153.1003044177
 22
31.5939739754
 13
153.1003044177
 23
31.5939739754
  0
SOLID
  8
0
 62
7
  6
CONTINUOUS
 10
153.1003044177
 20
31.5939739754
 11
153.2737419177
 21
31.5294468852
 12
152.2909293626
 22
31.5294468852
 13
152.2909293626
 23
31.5294468852
  0
SOLID
  8
0
 62
7
  6
CONTINUOUS
 10
153.2737419177
 20
31.5294468852
 11
152.6956168074
 21
31.4971825369
 12
152.2909293626
 22
31.5294468852
 13
152.2909293626
 23
31.5294468852
  0
SOLID
  8
0
 62
7
  6
CONTINUOUS
 10
152.1753043074
 20
31.4649197951
 11
152.2909293626
 21
31.5294468852
 12
152.6956168074
 22
31.4971825369
 13
152.6956168074
 23
31.4971825369
  0
SOLID
  8
0
 62
7
  6
CONTINUOUS
 10
152.6956168074
 20
31.4971825369
 11
152.4643666972
 21
31.4649197951
 12
152.1753043074
 22
31.4649197951
 13
152.1753043074
 23
31.4649197951
  0
SOLID
  8
0
 62
7
  6
CONTINUOUS
 10
152.6956168074
 20
31.4971825369
 11
153.2737419177
 21
31.5294468852
 12
152.9268669177
 22
31.4649197951
 13
152.9268669177
 23
31.4649197951
  0
SOLID
  8
0
 62
7
  6
CONTINUOUS
 10
153.2737419177
 20
31.5294468852
 11
153.3893668074
 21
31.4649197951
 12
152.9268669177
 22
31.4649197951
 13
152.9268669177
 23
31.4649197951
  0
SOLID
  8
0
 62
7
  6
CONTINUOUS
 10
153.0424918074
 20
31.4326554468
 11
152.9268669177
 21
31.4649197951
 12
153.3893668074
 22
31.4649197951
 13
153.3893668074
 23
31.4649197951
  0
SOLID
  8
0
 62
7
  6
CONTINUOUS
 10
153.3893668074
 20
31.4649197951
 11
153.4471794177
 21
31.4003927049
 12
153.0424918074
 22
31.4326554468
 13
153.0424918074
 23
31.4326554468
  0
SOLID
  8
0
 62
7
  6
CONTINUOUS
 10
153.1581166972
 20
31.3681283566
 11
153.0424918074
 21
31.4326554468
 12
153.4471794177
 22
31.4003927049
 13
153.4471794177
 23
31.4003927049
  0
SOLID
  8
0
 62
7
  6
CONTINUOUS
 10
153.1581166972
 20
31.3681283566
 11
153.4471794177
 21
31.4003927049
 12
153.2159293074
 22
31.2390742213
 13
153.2159293074
 23
31.2390742213
  0
SOLID
  8
0
 62
7
  6
CONTINUOUS
 10
153.4471794177
 20
31.4003927049
 11
153.5049916972
 21
31.2390742213
 12
153.2159293074
 22
31.2390742213
 13
153.2159293074
 23
31.2390742213
  0
SOLID
  8
0
 62
7
  6
CONTINUOUS
 10
152.4643666972
 20
31.4649197951
 11
152.2909293626
 21
31.4003927049
 12
152.1753043074
 22
31.4649197951
 13
152.1753043074
 23
31.4649197951
  0
SOLID
  8
0
 62
7
  6
CONTINUOUS
 10
152.2909293626
 20
31.4003927049
 11
152.1753043074
 21
31.3358640533
 12
152.1753043074
 22
31.4649197951
 13
152.1753043074
 23
31.4649197951
  0
SOLID
  8
0
 62
7
  6
CONTINUOUS
 10
152.1753043074
 20
31.3358640533
 11
151.8862417523
 21
30.5938002869
 12
152.1753043074
 22
31.4649197951
 13
152.1753043074
 23
31.4649197951
  0
SOLID
  8
0
 62
7
  6
CONTINUOUS
 10
152.1753043074
 20
31.4649197951
 11
151.8862417523
 21
30.5938002869
 12
152.1753043074
 22
32.1101937295
 13
152.1753043074
 23
32.1101937295
  0
SOLID
  8
0
 62
7
  6
CONTINUOUS
 10
151.8862417523
 20
30.5938002869
 11
151.8862417523
 21
32.1101937295
 12
152.1753043074
 22
32.1101937295
 13
152.1753043074
 23
32.1101937295
  0
SOLID
  8
0
 62
7
  6
CONTINUOUS
 10
152.1753043074
 20
31.3358640533
 11
152.1753043074
 21
30.5938002869
 12
151.8862417523
 22
30.5938002869
 13
151.8862417523
 23
30.5938002869
  0
SOLID
  8
0
 62
7
  6
CONTINUOUS
 10
153.2159293074
 20
30.5938002869
 11
153.2159293074
 21
31.2390742213
 12
153.5049916972
 22
31.2390742213
 13
153.5049916972
 23
31.2390742213
  0
SOLID
  8
0
 62
7
  6
CONTINUOUS
 10
153.5049916972
 20
31.2390742213
 11
153.5049916972
 21
30.5938002869
 12
153.2159293074
 22
30.5938002869
 13
153.2159293074
 23
30.5938002869
  0
SOLID
  8
0
 62
7
  6
CONTINUOUS
 10
154.2565543074
 20
31.5939738288
 11
154.6612419177
 21
31.6262385959
 12
155.0081169177
 22
31.6262385959
 13
155.0081169177
 23
31.6262385959
  0
SOLID
  8
0
 62
7
  6
CONTINUOUS
 10
155.0081169177
 20
31.6262385959
 11
155.3549915869
 21
31.5939738288
 12
154.2565543074
 22
31.5939738288
 13
154.2565543074
 23
31.5939738288
  0
SOLID
  8
0
 62
7
  6
CONTINUOUS
 10
154.1409294177
 20
31.5617111435
 11
154.2565543074
 21
31.5939738288
 12
155.3549915869
 22
31.5939738288
 13
155.3549915869
 23
31.5939738288
  0
SOLID
  8
0
 62
7
  6
CONTINUOUS
 10
155.3549915869
 20
31.5939738288
 11
155.5284290869
 21
31.5294468402
 12
154.1409294177
 22
31.5617111435
 13
154.1409294177
 23
31.5617111435
  0
SOLID
  8
0
 62
7
  6
CONTINUOUS
 10
154.0253041972
 20
31.4971826249
 11
154.1409294177
 21
31.5617111435
 12
155.5284290869
 22
31.5294468402
 13
155.5284290869
 23
31.5294468402
  0
SOLID
  8
0
 62
7
  6
CONTINUOUS
 10
154.0253041972
 20
31.4971826249
 11
155.5284290869
 21
31.5294468402
 12
154.6612419177
 22
31.4971826249
 13
154.6612419177
 23
31.4971826249
  0
SOLID
  8
0
 62
7
  6
CONTINUOUS
 10
154.6612419177
 20
31.4971826249
 11
155.5284290869
 21
31.5294468402
 12
155.0081169177
 22
31.4971826249
 13
155.0081169177
 23
31.4971826249
  0
SOLID
  8
0
 62
7
  6
CONTINUOUS
 10
155.0081169177
 20
31.4971826249
 11
155.5284290869
 21
31.5294468402
 12
155.239367028
 22
31.4649194065
 13
155.239367028
 23
31.4649194065
  0
SOLID
  8
0
 62
7
  6
CONTINUOUS
 10
155.5284290869
 20
31.5294468402
 11
155.6440543074
 21
31.4649194065
 12
155.239367028
 22
31.4649194065
 13
155.239367028
 23
31.4649194065
  0
SOLID
  8
0
 62
7
  6
CONTINUOUS
 10
153.9674919177
 20
31.4326554138
 11
154.0253041972
 21
31.4971826249
 12
154.6612419177
 22
31.4971826249
 13
154.6612419177
 23
31.4971826249
  0
SOLID
  8
0
 62
7
  6
CONTINUOUS
 10
155.3549915869
 20
31.4326554138
 11
155.239367028
 21
31.4649194065
 12
155.6440543074
 22
31.4649194065
 13
155.6440543074
 23
31.4649194065
  0
SOLID
  8
0
 62
7
  6
CONTINUOUS
 10
155.3549915869
 20
31.4326554138
 11
155.6440543074
 21
31.4649194065
 12
155.412804528
 22
31.3681282026
 13
155.412804528
 23
31.3681282026
  0
SOLID
  8
0
 62
7
  6
CONTINUOUS
 10
155.6440543074
 20
31.4649194065
 11
155.7018665869
 21
31.3681282026
 12
155.412804528
 22
31.3681282026
 13
155.412804528
 23
31.3681282026
  0
SOLID
  8
0
 62
7
  6
CONTINUOUS
 10
155.412804528
 20
31.2713369632
 11
155.412804528
 21
31.3681282026
 12
155.7018665869
 22
31.3681282026
 13
155.7018665869
 23
31.3681282026
  0
SOLID
  8
0
 62
7
  6
CONTINUOUS
 10
155.412804528
 20
31.2713369632
 11
155.7018665869
 21
31.3681282026
 12
155.412804528
 22
31.1422827828
 13
155.412804528
 23
31.1422827828
  0
SOLID
  8
0
 62
7
  6
CONTINUOUS
 10
155.412804528
 20
31.1422827828
 11
155.7018665869
 21
31.3681282026
 12
155.412804528
 22
30.9487004259
 13
155.412804528
 23
30.9487004259
  0
SOLID
  8
0
 62
7
  6
CONTINUOUS
 10
155.7018665869
 20
31.3681282026
 11
155.7018665869
 21
30.8519086025
 12
155.412804528
 22
30.9487004259
 13
155.412804528
 23
30.9487004259
  0
SOLID
  8
0
 62
7
  6
CONTINUOUS
 10
157.6096790869
 20
31.5939736268
 11
157.840929528
 21
31.6262383465
 12
158.0721793074
 22
31.6262383465
 13
158.0721793074
 23
31.6262383465
  0
SOLID
  8
0
 62
7
  6
CONTINUOUS
 10
158.0721793074
 20
31.6262383465
 11
158.2456168074
 21
31.5939736268
 12
157.6096790869
 22
31.5939736268
 13
157.6096790869
 23
31.5939736268
  0
SOLID
  8
0
 62
7
  6
CONTINUOUS
 10
157.4362415869
 20
31.5294472848
 11
157.6096790869
 21
31.5939736268
 12
158.2456168074
 22
31.5939736268
 13
158.2456168074
 23
31.5939736268
  0
SOLID
  8
0
 62
7
  6
CONTINUOUS
 10
158.2456168074
 20
31.5939736268
 11
158.4190543074
 21
31.5294472848
 12
157.4362415869
 22
31.5294472848
 13
157.4362415869
 23
31.5294472848
  0
SOLID
  8
0
 62
7
  6
CONTINUOUS
 10
158.4190543074
 20
31.5294472848
 11
157.840929528
 21
31.4971825369
 12
157.4362415869
 22
31.5294472848
 13
157.4362415869
 23
31.5294472848
  0
SOLID
  8
0
 62
7
  6
CONTINUOUS
 10
157.320617028
 20
31.4649199103
 11
157.4362415869
 21
31.5294472848
 12
157.840929528
 22
31.4971825369
 13
157.840929528
 23
31.4971825369
  0
SOLID
  8
0
 62
7
  6
CONTINUOUS
 10
157.840929528
 20
31.4971825369
 11
157.6096790869
 21
31.4649199103
 12
157.320617028
 22
31.4649199103
 13
157.320617028
 23
31.4649199103
  0
SOLID
  8
0
 62
7
  6
CONTINUOUS
 10
157.840929528
 20
31.4971825369
 11
158.4190543074
 21
31.5294472848
 12
158.0721793074
 22
31.4649199103
 13
158.0721793074
 23
31.4649199103
  0
SOLID
  8
0
 62
7
  6
CONTINUOUS
 10
158.4190543074
 20
31.5294472848
 11
158.534679528
 21
31.4649199103
 12
158.0721793074
 22
31.4649199103
 13
158.0721793074
 23
31.4649199103
  0
SOLID
  8
0
 62
7
  6
CONTINUOUS
 10
158.187804528
 20
31.4326554468
 11
158.0721793074
 21
31.4649199103
 12
158.534679528
 22
31.4649199103
 13
158.534679528
 23
31.4649199103
  0
SOLID
  8
0
 62
7
  6
CONTINUOUS
 10
158.187804528
 20
31.4326554468
 11
158.534679528
 21
31.4649199103
 12
158.3034290869
 22
31.3681288486
 13
158.3034290869
 23
31.3681288486
  0
SOLID
  8
0
 62
7
  6
CONTINUOUS
 10
158.534679528
 20
31.4649199103
 11
158.5924918074
 21
31.3681288486
 12
158.3034290869
 22
31.3681288486
 13
158.3034290869
 23
31.3681288486
  0
SOLID
  8
0
 62
7
  6
CONTINUOUS
 10
158.361242028
 20
31.2068093799
 11
158.3034290869
 21
31.3681288486
 12
158.5924918074
 22
31.3681288486
 13
158.5924918074
 23
31.3681288486
  0
SOLID
  8
0
 62
7
  6
CONTINUOUS
 10
158.5924918074
 20
31.3681288486
 11
158.6503040869
 21
31.2068093799
 12
158.361242028
 22
31.2068093799
 13
158.361242028
 23
31.2068093799
  0
SOLID
  8
0
 62
7
  6
CONTINUOUS
 10
157.6096790869
 20
31.4649199103
 11
157.4362415869
 21
31.4003926599
 12
157.320617028
 22
31.4649199103
 13
157.320617028
 23
31.4649199103
  0
SOLID
  8
0
 62
7
  6
CONTINUOUS
 10
157.4362415869
 20
31.4003926599
 11
157.320617028
 21
31.3358640533
 12
157.320617028
 22
31.4649199103
 13
157.320617028
 23
31.4649199103
  0
SOLID
  8
0
 62
7
  6
CONTINUOUS
 10
157.320617028
 20
31.3358640533
 11
157.0315543074
 21
30.5938003547
 12
157.320617028
 22
31.4649199103
 13
157.320617028
 23
31.4649199103
  0
SOLID
  8
0
 62
7
  6
CONTINUOUS
 10
157.320617028
 20
31.4649199103
 11
157.0315543074
 21
30.5938003547
 12
157.320617028
 22
31.6262383465
 13
157.320617028
 23
31.6262383465
  0
SOLID
  8
0
 62
7
  6
CONTINUOUS
 10
157.0315543074
 20
30.5938003547
 11
157.0315543074
 21
31.6262383465
 12
157.320617028
 22
31.6262383465
 13
157.320617028
 23
31.6262383465
  0
SOLID
  8
0
 62
7
  6
CONTINUOUS
 10
157.320617028
 20
31.3358640533
 11
157.320617028
 21
30.5938003547
 12
157.0315543074
 22
30.5938003547
 13
157.0315543074
 23
30.5938003547
  0
SOLID
  8
0
 62
7
  6
CONTINUOUS
 10
158.361242028
 20
30.5938003547
 11
158.361242028
 21
31.2068093799
 12
158.6503040869
 22
31.2068093799
 13
158.6503040869
 23
31.2068093799
  0
SOLID
  8
0
 62
7
  6
CONTINUOUS
 10
158.6503040869
 20
31.2068093799
 11
158.6503040869
 21
30.5938003547
 12
158.361242028
 22
30.5938003547
 13
158.361242028
 23
30.5938003547
  0
SOLID
  8
0
 62
7
  6
CONTINUOUS
 10
159.4596793074
 20
31.5939739474
 11
159.8065543074
 21
31.6262381969
 12
160.1534293074
 22
31.6262381969
 13
160.1534293074
 23
31.6262381969
  0
SOLID
  8
0
 62
7
  6
CONTINUOUS
 10
160.1534293074
 20
31.6262381969
 11
160.5003043074
 21
31.5939739474
 12
159.4596793074
 22
31.5939739474
 13
159.4596793074
 23
31.5939739474
  0
SOLID
  8
0
 62
7
  6
CONTINUOUS
 10
159.228429528
 20
31.5294468402
 11
159.4596793074
 21
31.5939739474
 12
160.5003043074
 22
31.5939739474
 13
160.5003043074
 23
31.5939739474
  0
SOLID
  8
0
 62
7
  6
CONTINUOUS
 10
159.228429528
 20
31.5294468402
 11
160.5003043074
 21
31.5939739304
 12
160.6737418074
 22
31.5617111435
 13
160.6737418074
 23
31.5617111435
  0
SOLID
  8
0
 62
7
  6
CONTINUOUS
 10
159.228429528
 20
31.5294468402
 11
160.6737418074
 21
31.5617111435
 12
159.8065543074
 22
31.4971825592
 13
159.8065543074
 23
31.4971825592
  0
SOLID
  8
0
 62
7
  6
CONTINUOUS
 10
159.8065543074
 20
31.4971825592
 11
160.6737418074
 21
31.5617111435
 12
160.1534293074
 22
31.4971825592
 13
160.1534293074
 23
31.4971825592
  0
SOLID
  8
0
 62
7
  6
CONTINUOUS
 10
160.6737418074
 20
31.5617111435
 11
160.8471793074
 21
31.4971825592
 12
160.1534293074
 22
31.4971825592
 13
160.1534293074
 23
31.4971825592
  0
SOLID
  8
0
 62
7
  6
CONTINUOUS
 10
160.5003043074
 20
31.4649197501
 11
160.1534293074
 21
31.4971825592
 12
160.8471793074
 22
31.4971825592
 13
160.8471793074
 23
31.4971825592
  0
SOLID
  8
0
 62
7
  6
CONTINUOUS
 10
159.1128043074
 20
31.4326555427
 11
159.228429528
 21
31.5294468402
 12
159.8065543074
 22
31.4971825592
 13
159.8065543074
 23
31.4971825592
  0
SOLID
  8
0
 62
7
  6
CONTINUOUS
 10
160.5003043074
 20
31.4649197501
 11
160.8471793074
 21
31.4971825592
 12
160.615929528
 22
31.4326555427
 13
160.615929528
 23
31.4326555427
  0
SOLID
  8
0
 62
7
  6
CONTINUOUS
 10
160.615929528
 20
31.4326555427
 11
160.8471793074
 21
31.4971825592
 12
160.6737418074
 22
31.3681283005
 13
160.6737418074
 23
31.3681283005
  0
SOLID
  8
0
 62
7
  6
CONTINUOUS
 10
160.8471793074
 20
31.4971825592
 11
160.9628038663
 21
31.3681283005
 12
160.6737418074
 22
31.3681283005
 13
160.6737418074
 23
31.3681283005
  0
SOLID
  8
0
 62
7
  6
CONTINUOUS
 10
150.2674918074
 20
31.4649197501
 11
149.7471793074
 21
31.4326554237
 12
150.498741835
 22
31.4971824493
 13
150.498741835
 23
31.4971824493
  0
SOLID
  8
0
 62
7
  6
CONTINUOUS
 10
149.7471793074
 20
31.4326554237
 11
149.8628043005
 21
31.4971824493
 12
150.498741835
 22
31.4971824493
 13
150.498741835
 23
31.4971824493
  0
SOLID
  8
0
 62
7
  6
CONTINUOUS
 10
150.2674918074
 20
31.4649197501
 11
150.1518667936
 21
31.4326554237
 12
149.7471793074
 22
31.4326554237
 13
149.7471793074
 23
31.4326554237
  0
SOLID
  8
0
 62
7
  6
CONTINUOUS
 10
149.6315543091
 20
31.3036012664
 11
149.7471793074
 21
31.4326554237
 12
150.1518667936
 22
31.4326554237
 13
150.1518667936
 23
31.4326554237
  0
SOLID
  8
0
 62
7
  6
CONTINUOUS
 10
153.9674919177
 20
31.4326554237
 11
154.6612419177
 21
31.4971825369
 12
154.4299918074
 22
31.4649197501
 13
154.4299918074
 23
31.4649197501
  0
SOLID
  8
0
 62
7
  6
CONTINUOUS
 10
154.4299918074
 20
31.4649197501
 11
154.3143669177
 21
31.4326554237
 12
153.9674919177
 22
31.4326554237
 13
153.9674919177
 23
31.4326554237
  0
SOLID
  8
0
 62
7
  6
CONTINUOUS
 10
153.9674919177
 20
31.3681283335
 11
153.9674919177
 21
31.4326554237
 12
154.3143669177
 22
31.4326554237
 13
154.3143669177
 23
31.4326554237
  0
SOLID
  8
0
 62
7
  6
CONTINUOUS
 10
154.3143669177
 20
31.4326554237
 11
154.2565543074
 21
31.3681283335
 12
153.9674919177
 22
31.3681283335
 13
153.9674919177
 23
31.3681283335
  0
SOLID
  8
0
 62
7
  6
CONTINUOUS
 10
159.1128043074
 20
31.4326555528
 11
159.8065543074
 21
31.4971825369
 12
159.575304528
 22
31.4649197501
 13
159.575304528
 23
31.4649197501
  0
SOLID
  8
0
 62
7
  6
CONTINUOUS
 10
159.575304528
 20
31.4649197501
 11
159.4596793074
 21
31.4326555528
 12
159.1128043074
 22
31.4326555528
 13
159.1128043074
 23
31.4326555528
  0
SOLID
  8
0
 62
7
  6
CONTINUOUS
 10
159.1128043074
 20
31.3681284626
 11
159.1128043074
 21
31.4326555528
 12
159.4596793074
 22
31.4326555528
 13
159.4596793074
 23
31.4326555528
  0
SOLID
  8
0
 62
7
  6
CONTINUOUS
 10
159.4596793074
 20
31.4326555528
 11
159.401867028
 21
31.3681284626
 12
159.1128043074
 22
31.3681284626
 13
159.1128043074
 23
31.3681284626
  0
SOLID
  8
0
 62
7
  6
CONTINUOUS
 10
159.228429528
 20
31.2390741763
 11
159.1128043074
 21
31.3681284626
 12
159.401867028
 22
31.3681284626
 13
159.401867028
 23
31.3681284626
  0
SOLID
  8
0
 62
7
  6
CONTINUOUS
 10
149.6315543091
 20
31.3036012664
 11
150.1518667936
 21
31.4326554468
 12
149.9784292936
 22
31.3358640533
 13
149.9784292936
 23
31.3358640533
  0
SOLID
  8
0
 62
7
  6
CONTINUOUS
 10
149.9784292936
 20
31.3358640533
 11
149.9206168074
 21
31.2713369632
 12
149.6315543091
 22
31.3036012664
 13
149.6315543091
 23
31.3036012664
  0
SOLID
  8
0
 62
7
  6
CONTINUOUS
 10
149.5737418074
 20
31.1100184796
 11
149.6315543091
 21
31.3036012664
 12
149.9206168074
 22
31.2713369632
 13
149.9206168074
 23
31.2713369632
  0
SOLID
  8
0
 62
7
  6
CONTINUOUS
 10
154.4299918074
 20
31.2390741763
 11
154.7768668074
 21
31.271336924
 12
155.412804528
 22
31.271336924
 13
155.412804528
 23
31.271336924
  0
SOLID
  8
0
 62
7
  6
CONTINUOUS
 10
154.4299918074
 20
31.2390741763
 11
155.412804528
 21
31.271336924
 12
154.1987416972
 22
31.1745462761
 13
154.1987416972
 23
31.1745462761
  0
SOLID
  8
0
 62
7
  6
CONTINUOUS
 10
154.1987416972
 20
31.1745462761
 11
155.412804528
 21
31.271336924
 12
154.7768668074
 22
31.1422827436
 13
154.7768668074
 23
31.1422827436
  0
SOLID
  8
0
 62
7
  6
CONTINUOUS
 10
155.412804528
 20
31.271336924
 11
155.412804528
 21
31.1422827436
 12
154.7768668074
 22
31.1422827436
 13
154.7768668074
 23
31.1422827436
  0
SOLID
  8
0
 62
7
  6
CONTINUOUS
 10
159.228429528
 20
31.2390745501
 11
159.401867028
 21
31.3681283566
 12
159.4596793074
 22
31.3036012664
 13
159.4596793074
 23
31.3036012664
  0
SOLID
  8
0
 62
7
  6
CONTINUOUS
 10
159.4596793074
 20
31.3036012664
 11
159.6331168074
 21
31.2390745501
 12
159.228429528
 22
31.2390745501
 13
159.228429528
 23
31.2390745501
  0
SOLID
  8
0
 62
7
  6
CONTINUOUS
 10
159.4596793074
 20
31.1422827828
 11
159.228429528
 21
31.2390745501
 12
159.6331168074
 22
31.2390745501
 13
159.6331168074
 23
31.2390745501
  0
SOLID
  8
0
 62
7
  6
CONTINUOUS
 10
159.6331168074
 20
31.2390745501
 11
160.615929528
 21
31.0777556927
 12
159.4596793074
 22
31.1422827828
 13
159.4596793074
 23
31.1422827828
  0
SOLID
  8
0
 62
7
  6
CONTINUOUS
 10
160.442492028
 20
30.9809646623
 11
159.4596793074
 21
31.1422827828
 12
160.615929528
 22
31.0777556927
 13
160.615929528
 23
31.0777556927
  0
SOLID
  8
0
 62
7
  6
CONTINUOUS
 10
160.615929528
 20
31.0777556927
 11
160.8471793074
 21
30.9809646623
 12
160.442492028
 22
30.9809646623
 13
160.442492028
 23
30.9809646623
  0
SOLID
  8
0
 62
7
  6
CONTINUOUS
 10
160.615929528
 20
30.9164372091
 11
160.442492028
 21
30.9809646623
 12
160.8471793074
 22
30.9809646623
 13
160.8471793074
 23
30.9809646623
  0
SOLID
  8
0
 62
7
  6
CONTINUOUS
 10
160.615929528
 20
30.9164372091
 11
160.8471793074
 21
30.9809646623
 12
160.6737418074
 22
30.8519089441
 13
160.6737418074
 23
30.8519089441
  0
SOLID
  8
0
 62
7
  6
CONTINUOUS
 10
160.8471793074
 20
30.9809646623
 11
160.9628038663
 21
30.8519089441
 12
160.6737418074
 22
30.8519089441
 13
160.6737418074
 23
30.8519089441
  0
SOLID
  8
0
 62
7
  6
CONTINUOUS
 10
160.615929528
 20
30.7873818593
 11
160.6737418074
 21
30.8519089441
 12
160.9628038663
 22
30.8519089441
 13
160.9628038663
 23
30.8519089441
  0
SOLID
  8
0
 62
7
  6
CONTINUOUS
 10
160.9628038663
 20
30.8519089441
 11
160.9628038663
 21
30.7873818593
 12
160.615929528
 22
30.7873818593
 13
160.615929528
 23
30.7873818593
  0
SOLID
  8
0
 62
7
  6
CONTINUOUS
 10
160.5003043074
 20
30.7551187255
 11
160.615929528
 21
30.7873818593
 12
160.9628038663
 22
30.7873818593
 13
160.9628038663
 23
30.7873818593
  0
SOLID
  8
0
 62
7
  6
CONTINUOUS
 10
160.5003043074
 20
30.7551187255
 11
160.9628038663
 21
30.7873818593
 12
160.269054528
 22
30.7228547745
 13
160.269054528
 23
30.7228547745
  0
SOLID
  8
0
 62
7
  6
CONTINUOUS
 10
160.9628038663
 20
30.7873818593
 11
160.8471793074
 21
30.6905916353
 12
160.269054528
 22
30.7228547745
 13
160.269054528
 23
30.7228547745
  0
SOLID
  8
0
 62
7
  6
CONTINUOUS
 10
160.8471793074
 20
30.6905916353
 11
159.401867028
 21
30.658327332
 12
160.269054528
 22
30.7228547745
 13
160.269054528
 23
30.7228547745
  0
SOLID
  8
0
 62
7
  6
CONTINUOUS
 10
160.269054528
 20
30.7228547745
 11
159.401867028
 21
30.658327332
 12
159.922179528
 22
30.7228547745
 13
159.922179528
 23
30.7228547745
  0
SOLID
  8
0
 62
7
  6
CONTINUOUS
 10
159.401867028
 20
30.658327332
 11
159.228429528
 21
30.7228547745
 12
159.922179528
 22
30.7228547745
 13
159.922179528
 23
30.7228547745
  0
SOLID
  8
0
 62
7
  6
CONTINUOUS
 10
159.401867028
 20
30.658327332
 11
160.8471793074
 21
30.6905916353
 12
159.575304528
 22
30.6260629858
 13
159.575304528
 23
30.6260629858
  0
SOLID
  8
0
 62
7
  6
CONTINUOUS
 10
160.8471793074
 20
30.6905916353
 11
160.615929528
 21
30.6260629858
 12
159.575304528
 22
30.6260629858
 13
159.575304528
 23
30.6260629858
  0
SOLID
  8
0
 62
7
  6
CONTINUOUS
 10
159.922179528
 20
30.5938006049
 11
159.575304528
 21
30.6260629858
 12
160.615929528
 22
30.6260629858
 13
160.615929528
 23
30.6260629858
  0
SOLID
  8
0
 62
7
  6
CONTINUOUS
 10
160.615929528
 20
30.6260629858
 11
160.269054528
 21
30.5938006049
 12
159.922179528
 22
30.5938006049
 13
159.922179528
 23
30.5938006049
  0
SOLID
  8
0
 62
7
  6
CONTINUOUS
 10
149.5737418074
 20
31.1100184796
 11
149.9206168074
 21
31.2713369632
 12
149.8628043005
 22
31.1422827828
 13
149.8628043005
 23
31.1422827828
  0
SOLID
  8
0
 62
7
  6
CONTINUOUS
 10
149.8628043005
 20
31.1422827828
 11
149.8628043005
 21
31.0454914852
 12
149.5737418074
 22
31.1100184796
 13
149.5737418074
 23
31.1100184796
  0
SOLID
  8
0
 62
7
  6
CONTINUOUS
 10
149.6315543091
 20
30.9164372091
 11
149.5737418074
 21
31.1100184796
 12
149.8628043005
 22
31.0454914852
 13
149.8628043005
 23
31.0454914852
  0
SOLID
  8
0
 62
7
  6
CONTINUOUS
 10
149.8628043005
 20
31.0454914852
 11
149.9784292936
 21
30.8841729058
 12
149.6315543091
 22
30.9164372091
 13
149.6315543091
 23
30.9164372091
  0
SOLID
  8
0
 62
7
  6
CONTINUOUS
 10
149.7471793074
 20
30.7873813202
 11
149.6315543091
 21
30.9164372091
 12
149.9784292936
 22
30.8841729058
 13
149.9784292936
 23
30.8841729058
  0
SOLID
  8
0
 62
7
  6
CONTINUOUS
 10
149.9784292936
 20
30.8841729058
 11
150.1518667936
 21
30.7873813202
 12
149.7471793074
 22
30.7873813202
 13
149.7471793074
 23
30.7873813202
  0
SOLID
  8
0
 62
7
  6
CONTINUOUS
 10
149.8628043005
 20
30.7228547004
 11
149.7471793074
 21
30.7873813202
 12
150.1518667936
 22
30.7873813202
 13
150.1518667936
 23
30.7873813202
  0
SOLID
  8
0
 62
7
  6
CONTINUOUS
 10
150.1518667936
 20
30.7873813202
 11
150.498741835
 21
30.7228547004
 12
149.8628043005
 22
30.7228547004
 13
149.8628043005
 23
30.7228547004
  0
SOLID
  8
0
 62
7
  6
CONTINUOUS
 10
150.0362418212
 20
30.658327332
 11
149.8628043005
 21
30.7228547004
 12
150.498741835
 22
30.7228547004
 13
150.498741835
 23
30.7228547004
  0
SOLID
  8
0
 62
7
  6
CONTINUOUS
 10
154.0831168074
 20
31.1100184386
 11
154.1987416972
 21
31.1745462761
 12
154.7768668074
 22
31.1422827828
 13
154.7768668074
 23
31.1422827828
  0
SOLID
  8
0
 62
7
  6
CONTINUOUS
 10
154.7768668074
 20
31.1422827828
 11
154.5456166972
 21
31.1100184386
 12
154.0831168074
 22
31.1100184386
 13
154.0831168074
 23
31.1100184386
  0
SOLID
  8
0
 62
7
  6
CONTINUOUS
 10
153.9674919177
 20
30.9809642992
 11
154.0831168074
 21
31.1100184386
 12
154.5456166972
 22
31.1100184386
 13
154.5456166972
 23
31.1100184386
  0
SOLID
  8
0
 62
7
  6
CONTINUOUS
 10
154.3143669177
 20
31.0132277988
 11
153.9674919177
 21
30.9809642992
 12
154.4299918074
 22
31.0777556927
 13
154.4299918074
 23
31.0777556927
  0
SOLID
  8
0
 62
7
  6
CONTINUOUS
 10
153.9674919177
 20
30.9809642992
 11
154.5456166972
 21
31.1100184796
 12
154.4299918074
 22
31.0777556927
 13
154.4299918074
 23
31.0777556927
  0
SOLID
  8
0
 62
7
  6
CONTINUOUS
 10
154.3143669177
 20
31.0132277988
 11
154.2565543074
 21
30.9164372091
 12
153.9674919177
 22
30.9809642992
 13
153.9674919177
 23
30.9809642992
  0
SOLID
  8
0
 62
7
  6
CONTINUOUS
 10
153.9674919177
 20
30.8841729058
 11
153.9674919177
 21
30.9809642992
 12
154.2565543074
 22
30.9164372091
 13
154.2565543074
 23
30.9164372091
  0
SOLID
  8
0
 62
7
  6
CONTINUOUS
 10
154.2565543074
 20
30.9164372091
 11
154.2565543074
 21
30.8519086025
 12
153.9674919177
 22
30.8841729058
 13
153.9674919177
 23
30.8841729058
  0
SOLID
  8
0
 62
7
  6
CONTINUOUS
 10
154.0253041972
 20
30.7551187255
 11
153.9674919177
 21
30.8841729058
 12
154.2565543074
 22
30.8519086025
 13
154.2565543074
 23
30.8519086025
  0
SOLID
  8
0
 62
7
  6
CONTINUOUS
 10
155.412804528
 20
30.9487004259
 11
155.7018665869
 21
30.8519086025
 12
155.3549915869
 22
30.8841729058
 13
155.3549915869
 23
30.8841729058
  0
SOLID
  8
0
 62
7
  6
CONTINUOUS
 10
155.1815540869
 20
30.7873815123
 11
155.3549915869
 21
30.8841729058
 12
155.7018665869
 22
30.8519086025
 13
155.7018665869
 23
30.8519086025
  0
SOLID
  8
0
 62
7
  6
CONTINUOUS
 10
155.1815540869
 20
30.7873815123
 11
155.7018665869
 21
30.8519086025
 12
155.412804528
 22
30.7551187255
 13
155.412804528
 23
30.7551187255
  0
SOLID
  8
0
 62
7
  6
CONTINUOUS
 10
155.7018665869
 20
30.8519086025
 11
155.759679528
 21
30.6905916353
 12
155.412804528
 22
30.7551187255
 13
155.412804528
 23
30.7551187255
  0
SOLID
  8
0
 62
7
  6
CONTINUOUS
 10
155.4706168074
 20
30.658327332
 11
155.412804528
 21
30.7551187255
 12
155.759679528
 22
30.6905916353
 13
155.759679528
 23
30.6905916353
  0
SOLID
  8
0
 62
7
  6
CONTINUOUS
 10
155.4706168074
 20
30.658327332
 11
155.759679528
 21
30.6905916353
 12
155.5284290869
 22
30.5938002079
 13
155.5284290869
 23
30.5938002079
  0
SOLID
  8
0
 62
7
  6
CONTINUOUS
 10
155.759679528
 20
30.6905916353
 11
155.8174918074
 21
30.5938002079
 12
155.5284290869
 22
30.5938002079
 13
155.5284290869
 23
30.5938002079
  0
SOLID
  8
0
 62
7
  6
CONTINUOUS
 10
151.0768668626
 20
30.8196456577
 11
151.1346793074
 21
30.9164373395
 12
151.4237418626
 22
30.9164373395
 13
151.4237418626
 23
30.9164373395
  0
SOLID
  8
0
 62
7
  6
CONTINUOUS
 10
151.4237418626
 20
30.9164373395
 11
151.3659292523
 21
30.7873815123
 12
151.0768668626
 22
30.8196456577
 13
151.0768668626
 23
30.8196456577
  0
SOLID
  8
0
 62
7
  6
CONTINUOUS
 10
150.9034292799
 20
30.7551187255
 11
151.0768668626
 21
30.8196456577
 12
151.3659292523
 22
30.7873815123
 13
151.3659292523
 23
30.7873815123
  0
SOLID
  8
0
 62
7
  6
CONTINUOUS
 10
150.9034292799
 20
30.7551187255
 11
151.3659292523
 21
30.7873815123
 12
150.498741835
 22
30.7228544222
 13
150.498741835
 23
30.7228544222
  0
SOLID
  8
0
 62
7
  6
CONTINUOUS
 10
151.3659292523
 20
30.7873815123
 11
151.1924917523
 21
30.6905916353
 12
150.498741835
 22
30.7228544222
 13
150.498741835
 23
30.7228544222
  0
SOLID
  8
0
 62
7
  6
CONTINUOUS
 10
150.0362418212
 20
30.658327332
 11
150.498741835
 21
30.7228544222
 12
151.1924917523
 22
30.6905916353
 13
151.1924917523
 23
30.6905916353
  0
SOLID
  8
0
 62
7
  6
CONTINUOUS
 10
150.0362418212
 20
30.658327332
 11
151.1924917523
 21
30.6905916353
 12
150.2096793212
 22
30.6260631011
 13
150.2096793212
 23
30.6260631011
  0
SOLID
  8
0
 62
7
  6
CONTINUOUS
 10
151.1924917523
 20
30.6905916353
 11
150.9612418074
 21
30.6260631011
 12
150.2096793212
 22
30.6260631011
 13
150.2096793212
 23
30.6260631011
  0
SOLID
  8
0
 62
7
  6
CONTINUOUS
 10
150.5565542799
 20
30.5938002419
 11
150.2096793212
 21
30.6260631011
 12
150.9612418074
 22
30.6260631011
 13
150.9612418074
 23
30.6260631011
  0
SOLID
  8
0
 62
7
  6
CONTINUOUS
 10
154.0253041972
 20
30.7551187255
 11
154.2565543074
 21
30.8519086025
 12
154.3143669177
 22
30.7873815123
 13
154.3143669177
 23
30.7873815123
  0
SOLID
  8
0
 62
7
  6
CONTINUOUS
 10
154.3143669177
 20
30.7873815123
 11
154.5456166972
 21
30.7228544222
 12
154.0253041972
 22
30.7551187255
 13
154.0253041972
 23
30.7551187255
  0
SOLID
  8
0
 62
7
  6
CONTINUOUS
 10
154.1987416972
 20
30.658327332
 11
154.0253041972
 21
30.7551187255
 12
154.5456166972
 22
30.7228544222
 13
154.5456166972
 23
30.7228544222
  0
SOLID
  8
0
 62
7
  6
CONTINUOUS
 10
154.8924916972
 20
30.7228544637
 11
155.1815540869
 21
30.7873815123
 12
155.412804528
 22
30.7551187255
 13
155.412804528
 23
30.7551187255
  0
SOLID
  8
0
 62
7
  6
CONTINUOUS
 10
155.412804528
 20
30.7551187255
 11
155.3549915869
 21
30.6905916353
 12
154.8924916972
 22
30.7228544637
 13
154.8924916972
 23
30.7228544637
  0
SOLID
  8
0
 62
7
  6
CONTINUOUS
 10
155.3549915869
 20
30.6905916353
 11
154.1987416972
 21
30.658327332
 12
154.8924916972
 22
30.7228544637
 13
154.8924916972
 23
30.7228544637
  0
SOLID
  8
0
 62
7
  6
CONTINUOUS
 10
154.1987416972
 20
30.658327332
 11
154.5456166972
 21
30.7228544637
 12
154.8924916972
 22
30.7228544637
 13
154.8924916972
 23
30.7228544637
  0
SOLID
  8
0
 62
7
  6
CONTINUOUS
 10
154.1987416972
 20
30.658327332
 11
155.3549915869
 21
30.6905916353
 12
154.3143669177
 22
30.6260630541
 13
154.3143669177
 23
30.6260630541
  0
SOLID
  8
0
 62
7
  6
CONTINUOUS
 10
155.3549915869
 20
30.6905916353
 11
155.1815540869
 21
30.6260630541
 12
154.3143669177
 22
30.6260630541
 13
154.3143669177
 23
30.6260630541
  0
SOLID
  8
0
 62
7
  6
CONTINUOUS
 10
154.5456166972
 20
30.5938002188
 11
154.3143669177
 21
30.6260630541
 12
155.1815540869
 22
30.6260630541
 13
155.1815540869
 23
30.6260630541
  0
SOLID
  8
0
 62
7
  6
CONTINUOUS
 10
155.1815540869
 20
30.6260630541
 11
154.8924916972
 21
30.5938002188
 12
154.5456166972
 22
30.5938002188
 13
154.5456166972
 23
30.5938002188
  0
SOLID
  8
0
 62
7
  6
CONTINUOUS
 10
159.575304528
 20
30.7551187255
 11
159.228429528
 21
30.7228544637
 12
159.4596793074
 22
30.7873815123
 13
159.4596793074
 23
30.7873815123
  0
SOLID
  8
0
 62
7
  6
CONTINUOUS
 10
159.4596793074
 20
30.7873815123
 11
159.228429528
 21
30.7228544637
 12
159.401867028
 22
30.851908644
 13
159.401867028
 23
30.851908644
  0
SOLID
  8
0
 62
7
  6
CONTINUOUS
 10
159.228429528
 20
30.7228544637
 11
159.1128043074
 21
30.851908644
 12
159.401867028
 22
30.851908644
 13
159.401867028
 23
30.851908644
  0
SOLID
  8
0
 62
7
  6
CONTINUOUS
 10
159.575304528
 20
30.7551187255
 11
159.922179528
 21
30.7228544637
 12
159.228429528
 22
30.7228544637
 13
159.228429528
 23
30.7228544637
  0
SOLID
  8
0
 62
7
  6
CONTINUOUS
 10
156.279992028
 20
30.5938002419
 11
156.279992028
 21
31.6262382337
 12
156.5690540869
 22
30.5938002419
 13
156.5690540869
 23
31.6262382337
  0
ENDBLK
  8
0
  6
BYBLOCK
 62
0
  0
BLOCK
  8
0
 62
2
  6
CONTINUOUS
  2
SYMBOL_3_BL0
 70
64
 10
32.1213064866
 20
19.8534310916
  0
TEXT
  8
0
 62
7
  6
CONTINUOUS
 10
18.3860103289
 20
19.2268451992
  7
TEXTSTYLE_3
 40
2.7338706658
  1
Ammeraal Beltech
 41
1.0
 51
15.0
 72
0
  0
TEXT
  8
0
 62
7
  6
CONTINUOUS
 10
29.1868111546
 20
16.9533085264
  7
TEXTSTYLE_4
 40
1.0935482663
  1
Innovation & Service in Belting
 41
1.0
 72
0
  0
LINE
  8
0
 62
7
  6
CONTINUOUS
 10
12.3614696776
 20
19.9934385078
 11
13.1396216709
 21
23.6543558055
  0
LINE
  8
0
 62
7
  6
CONTINUOUS
 10
23.2347899607
 20
27.3177497171
 11
13.6274394139
 21
24.1961322958
  0
LINE
  8
0
 62
7
  6
CONTINUOUS
 10
12.5867530099
 20
19.3000877048
 11
20.093828271
 21
12.5406867788
  0
LINE
  8
0
 62
7
  6
CONTINUOUS
 10
12.8492874206
 20
20.5352149982
 11
23.6575567857
 21
24.0470345971
  0
LINE
  8
0
 62
7
  6
CONTINUOUS
 10
23.6533516486
 20
13.6972460334
 11
15.2078919798
 21
21.3015720751
  0
LINE
  8
0
 62
7
  6
CONTINUOUS
 10
24.1731743684
 20
26.4728246013
 11
23.1966148312
 21
21.8784731989
  0
LINE
  8
0
 62
7
  6
CONTINUOUS
 10
22.4968128835
 20
18.5861638851
 11
21.810364672
 21
15.3566789607
  0
LINE
  8
0
 62
7
  6
CONTINUOUS
 10
24.8542704669
 20
14.087448211
 11
25.8105020025
 21
18.5861638851
  0
LINE
  8
0
 62
7
  6
CONTINUOUS
 10
26.5103039502
 20
21.8784731989
 11
26.9545457526
 21
23.9684665583
  0
LINE
  8
0
 62
7
  6
CONTINUOUS
 10
20.8069293463
 20
12.3891124661
 11
24.3664527239
 21
13.5456717207
  0
LINE
  8
0
 62
7
  6
CONTINUOUS
 10
23.9478910361
 20
27.1661754044
 11
26.7292624203
 21
24.6618173613
  0
ARC
  8
0
 62
7
  6
CONTINUOUS
 10
13.8527227462
 20
23.5027814928
 40
0.7290321776
 50
108.0
 51
168.0
  0
ARC
  8
0
 62
7
  6
CONTINUOUS
 10
23.4600732931
 20
26.624398914
 40
0.7290321776
 50
348.0
 51
108.0
  0
ARC
  8
0
 62
7
  6
CONTINUOUS
 10
26.2414446773
 20
24.120040871
 40
0.7290321776
 50
348.0
 51
48.0
  0
ARC
  8
0
 62
7
  6
CONTINUOUS
 10
20.581646014
 20
13.0824632691
 40
0.7290321776
 50
228.0
 51
288.0
  0
ARC
  8
0
 62
7
  6
CONTINUOUS
 10
13.0745707529
 20
19.8418641951
 40
0.7290321776
 50
108.0
 51
228.0
  0
ARC
  8
0
 62
7
  6
CONTINUOUS
 10
24.1411693916
 20
14.2390225237
 40
0.7290321776
 50
228.0
 51
348.0
  0
ENDBLK
  8
0
  6
BYBLOCK
 62
0
  0
ENDSEC
  0
SECTION
  2
ENTITIES
  0
TEXT
  8
0
 62
5
  6
CONTINUOUS
 10
96.0
 20
25.636
  7
TEXTSTYLE_2
 40
2.8
  1
Scale :
 41
0.6
 51
0.000019
 72
0
  0
TEXT
  8
0
 62
5
  6
CONTINUOUS
 10
116.0
 20
25.636
  7
TEXTSTYLE_2
 40
2.8
  1
Belt type:
 41
0.6
 51
0.000019
 72
0
  0
INSERT
  8
0
 62
2
  6
CONTINUOUS
  2
SYMBOL_3_BL0
 10
32.1213064866
 20
19.8534310916
  0
INSERT
  8
0
 62
2
  6
CONTINUOUS
  2
SYMBOL_8_BL1
 10
173.5956734183
 20
35.5937998301
  0
LINE
  8
0
 62
2
  6
CONTINUOUS
 10
10.0
 20
30.0
 11
200.0
 21
30.0
  0
LINE
  8
0
 62
2
  6
CONTINUOUS
 10
10.0
 20
30.0
 11
10.0
 21
10.0
  0
LINE
  8
0
 62
2
  6
CONTINUOUS
 10
10.0
 20
10.0
 11
200.0
 21
10.0
  0
LINE
  8
0
 62
2
  6
CONTINUOUS
 10
95.0
 20
30.0
 11
95.0
 21
10.0
  0
LINE
  8
0
 62
2
  6
CONTINUOUS
 10
115.0
 20
30.0
 11
115.0
 21
10.0
  0
LINE
  8
0
 62
2
  6
CONTINUOUS
 10
200.0
 20
30.0
 11
200.0
 21
10.0
  0
TEXT
  8
0
 62
5
  6
CONTINUOUS
 10
13.0
 20
23.303
  7
TEXTSTYLE_5
 40
1.52
  1
                                                                     Ammeraal Beltech Modular A/S
 41
1.0
 72
0
  0
TEXT
  8
0
 62
5
  6
CONTINUOUS
 10
13.0
 20
20.595
  7
TEXTSTYLE_5
 40
1.5
  1
                                                                      Hjulmagervej 21,  7100 Vejle,  DK
 41
1.0
 72
0
  0
TEXT
  8
0
 62
5
  6
CONTINUOUS
 10
13.0
 20
17.881
  7
TEXTSTYLE_5
 40
1.495
  1
                                                                      tel: 
 41
1.0
 72
0
  0
TEXT
  8
0
 62
5
  6
CONTINUOUS
 10
57.9869465649
 20
17.881
  7
TEXTSTYLE_5
 40
1.51
  1
+45 75723100     fax: +45 75723348
 41
1.0
 72
0
  0
TEXT
  8
0
 62
5
  6
CONTINUOUS
 10
13.0
 20
15.177
  7
TEXTSTYLE_5
 40
1.5
  1
                                                                      admin@unichains.dk  www.unichains.com
 41
1.0
 72
0
  0
TEXT
  8
0
 62
5
  6
CONTINUOUS
 10
99.75
 20
13.75
  7
TEXTSTYLE_6
 40
5.0
  1
1:1
 41
0.7
 72
1
 11
105.0
 21
13.75
  0
TEXT
  8
0
 62
5
  6
CONTINUOUS
 10
118.0
 20
13.75
  7
TEXTSTYLE_7
 40
7.5
  1
uni SSB 32-K600
 41
0.67
 72
0
  0
LINE
  8
0
 62
7
  6
CONTINUOUS
 10
210.0
 20
0.0
 11
0.0
 21
0.0
  0
LINE
  8
0
 62
7
  6
CONTINUOUS
 10
10.0
 20
10.0
 11
200.0
 21
10.0
  0
LINE
  8
0
 62
7
  6
CONTINUOUS
 10
10.0
 20
30.0
 11
200.0
 21
30.0
  0
LINE
  8
0
 62
7
  6
CONTINUOUS
 10
0.0
 20
0.0
 11
0.0
 21
297.0
  0
LINE
  8
0
 62
7
  6
CONTINUOUS
 10
10.0
 20
10.0
 11
10.0
 21
287.0
  0
LINE
  8
0
 62
7
  6
CONTINUOUS
 10
200.0
 20
287.0
 11
200.0
 21
10.0
  0
LINE
  8
0
 62
7
  6
CONTINUOUS
 10
210.0
 20
0.0
 11
210.0
 21
297.0
  0
LINE
  8
0
 62
7
  6
CONTINUOUS
 10
10.0
 20
287.0
 11
200.0
 21
287.0
  0
LINE
  8
0
 62
7
  6
CONTINUOUS
 10
0.0
 20
297.0
 11
210.0
 21
297.0
  0
LINE
  8
4_SURFACE
 62
7
  6
CONTINUOUS
 10
15.1381465517
 20
96.39633615
 11
15.1381465517
 21
134.9963361069
  0
LINE
  8
4_SURFACE
 62
7
  6
CONTINUOUS
 10
18.6801686816
 20
97.0996932598
 11
18.654997576
 21
96.3788871044
  0
LINE
  8
4_SURFACE
 62
7
  6
CONTINUOUS
 10
24.5709741603
 20
97.1674329392
 11
24.5766002476
 21
97.1525810231
  0
LINE
  8
4_SURFACE
 62
7
  6
CONTINUOUS
 10
24.5766002476
 20
97.1525810231
 11
24.5833915331
 21
97.1344120309
  0
LINE
  8
4_SURFACE
 62
7
  6
CONTINUOUS
 10
24.5833915331
 20
97.1344120309
 11
24.5922032877
 21
97.1104733261
  0
LINE
  8
4_SURFACE
 62
7
  6
CONTINUOUS
 10
24.5922032877
 20
97.1104733261
 11
24.6028628209
 21
97.0810275666
  0
LINE
  8
4_SURFACE
 62
7
  6
CONTINUOUS
 10
24.6028628209
 20
97.0810275666
 11
24.6152054349
 21
97.0463867308
  0
LINE
  8
4_SURFACE
 62
7
  6
CONTINUOUS
 10
24.6152054349
 20
97.0463867308
 11
24.6655328118
 21
96.9028465902
  0
LINE
  8
4_SURFACE
 62
7
  6
CONTINUOUS
 10
24.5961242363
 20
97.0996985734
 11
24.6212955275
 21
96.3788871044
  0
LINE
  8
4_SURFACE
 62
7
  6
CONTINUOUS
 10
27.6758894645
 20
100.7366587051
 11
27.6793428552
 21
105.3963361069
  0
LINE
  8
4_SURFACE
 62
7
  6
CONTINUOUS
 10
28.1331465537
 20
144.8193693279
 11
28.1232419286
 21
144.2687287626
  0
LINE
  8
4_SURFACE
 62
7
  6
CONTINUOUS
 10
28.1414059347
 20
145.1809296186
 11
28.1331465537
 21
144.8193693279
  0
LINE
  8
4_SURFACE
 62
7
  6
CONTINUOUS
 10
28.1476849899
 20
145.4093796016
 11
28.1414059347
 21
145.1809296186
  0
LINE
  8
4_SURFACE
 62
7
  6
CONTINUOUS
 10
28.1539749441
 20
145.6040015125
 11
28.1476849899
 21
145.4093796016
  0
LINE
  8
4_SURFACE
 62
7
  6
CONTINUOUS
 10
28.1581539127
 20
145.7162739371
 11
28.1539749441
 21
145.6040015125
  0
LINE
  8
4_SURFACE
 62
7
  6
CONTINUOUS
 10
28.1623126788
 20
145.815561358
 11
28.1581539127
 21
145.7162739371
  0
LINE
  8
4_SURFACE
 62
7
  6
CONTINUOUS
 10
28.166450653
 20
145.9027646166
 11
28.1623126788
 21
145.815561358
  0
POLYLINE
  8
4_SURFACE
 62
7
  6
CONTINUOUS
 66
1
 70
0
  0
VERTEX
  8
4_SURFACE
 62
7
  6
CONTINUOUS
 10
28.0969468554
 20
137.1963361071
  0
VERTEX
  8
4_SURFACE
 62
7
  6
CONTINUOUS
 10
28.0920892757
 20
137.1082882162
  0
VERTEX
  8
4_SURFACE
 62
7
  6
CONTINUOUS
 10
28.0661335866
 20
136.9764615493
  0
VERTEX
  8
4_SURFACE
 62
7
  6
CONTINUOUS
 10
28.018471693
 20
136.8508237705
  0
VERTEX
  8
4_SURFACE
 62
7
  6
CONTINUOUS
 10
27.9504452961
 20
136.7349286786
  0
VERTEX
  8
4_SURFACE
 62
7
  6
CONTINUOUS
 10
27.8639736943
 20
136.6320498139
  0
VERTEX
  8
4_SURFACE
 62
7
  6
CONTINUOUS
 10
27.7614921289
 20
136.5450883101
  0
VERTEX
  8
4_SURFACE
 62
7
  6
CONTINUOUS
 10
27.6458886553
 20
136.4764999599
  0
VERTEX
  8
4_SURFACE
 62
7
  6
CONTINUOUS
 10
27.520430341
 20
136.428226435
  0
VERTEX
  8
4_SURFACE
 62
7
  6
CONTINUOUS
 10
27.3886684365
 20
136.4016311353
  0
VERTEX
  8
4_SURFACE
 62
7
  6
CONTINUOUS
 10
27.3125598829
 20
136.3964958307
  0
SEQEND
  0
POLYLINE
  8
4_SURFACE
 62
7
  6
CONTINUOUS
 66
1
 70
0
  0
VERTEX
  8
4_SURFACE
 62
7
  6
CONTINUOUS
 10
28.0970264006
 20
137.1963361069
  0
VERTEX
  8
4_SURFACE
 62
7
  6
CONTINUOUS
 10
28.0875081748
 20
137.0733181837
  0
VERTEX
  8
4_SURFACE
 62
7
  6
CONTINUOUS
 10
28.0584711987
 20
136.9510165111
  0
VERTEX
  8
4_SURFACE
 62
7
  6
CONTINUOUS
 10
28.0101656639
 20
136.8338585936
  0
VERTEX
  8
4_SURFACE
 62
7
  6
CONTINUOUS
 10
27.9441204207
 20
136.7260154392
  0
VERTEX
  8
4_SURFACE
 62
7
  6
CONTINUOUS
 10
27.8626135711
 20
136.6306327389
  0
VERTEX
  8
4_SURFACE
 62
7
  6
CONTINUOUS
 10
27.7671791682
 20
136.5491498131
  0
VERTEX
  8
4_SURFACE
 62
7
  6
CONTINUOUS
 10
27.6592576247
 20
136.4831181464
  0
VERTEX
  8
4_SURFACE
 62
7
  6
CONTINUOUS
 10
27.5420452338
 20
136.4348424713
  0
VERTEX
  8
4_SURFACE
 62
7
  6
CONTINUOUS
 10
27.4197349693
 20
136.4058390448
  0
VERTEX
  8
4_SURFACE
 62
7
  6
CONTINUOUS
 10
27.3125579851
 20
136.396492153
  0
SEQEND
  0
LINE
  8
4_SURFACE
 62
7
  6
CONTINUOUS
 10
31.5581465517
 20
111.28114386
 11
31.5581465517
 21
131.3115283539
  0
LINE
  8
4_SURFACE
 62
7
  6
CONTINUOUS
 10
28.1004036389
 20
141.8560135088
 11
28.0969502482
 21
137.196336107
  0
LINE
  8
4_SURFACE
 62
7
  6
CONTINUOUS
 10
27.6670218448
 20
99.4582211566
 11
27.6758894645
 21
100.7366587051
  0
LINE
  8
4_SURFACE
 62
7
  6
CONTINUOUS
 10
28.1092712587
 20
143.1344510573
 11
28.1004036389
 21
141.8560135088
  0
LINE
  8
4_SURFACE
 62
7
  6
CONTINUOUS
 10
28.1194861525
 20
144.0157283096
 11
28.1092712587
 21
143.1344510573
  0
LINE
  8
4_SURFACE
 62
7
  6
CONTINUOUS
 10
27.6568069509
 20
98.5769439043
 11
27.6670218448
 21
99.4582211566
  0
LINE
  8
4_SURFACE
 62
7
  6
CONTINUOUS
 10
28.1232419286
 20
144.2687287626
 11
28.1194861525
 21
144.0157283096
  0
LINE
  8
4_SURFACE
 62
7
  6
CONTINUOUS
 10
27.6471821066
 20
97.9799736868
 11
27.6568069509
 21
98.5769439043
  0
LINE
  8
4_SURFACE
 62
7
  6
CONTINUOUS
 10
27.6390408859
 20
97.5841008072
 11
27.6471821066
 21
97.9799736868
  0
LINE
  8
4_SURFACE
 62
7
  6
CONTINUOUS
 10
27.6307047182
 20
97.2555544494
 11
27.6390408859
 21
97.5841008072
  0
LINE
  8
4_SURFACE
 62
7
  6
CONTINUOUS
 10
27.6244132596
 20
97.0499477505
 11
27.6307047182
 21
97.2555544494
  0
LINE
  8
4_SURFACE
 62
7
  6
CONTINUOUS
 10
27.6181391907
 20
96.8763982768
 11
27.6244132596
 21
97.0499477505
  0
LINE
  8
4_SURFACE
 62
7
  6
CONTINUOUS
 10
27.6139804246
 20
96.7771108559
 11
27.6181391907
 21
96.8763982768
  0
LINE
  8
4_SURFACE
 62
7
  6
CONTINUOUS
 10
27.6098424504
 20
96.6899075973
 11
27.6139804246
 21
96.7771108559
  0
POLYLINE
  8
4_SURFACE
 62
7
  6
CONTINUOUS
 66
1
 70
0
  0
VERTEX
  8
4_SURFACE
 62
7
  6
CONTINUOUS
 10
27.6793462481
 20
105.3963361068
  0
VERTEX
  8
4_SURFACE
 62
7
  6
CONTINUOUS
 10
27.6842038277
 20
105.4843839977
  0
VERTEX
  8
4_SURFACE
 62
7
  6
CONTINUOUS
 10
27.7101595168
 20
105.6162106646
  0
VERTEX
  8
4_SURFACE
 62
7
  6
CONTINUOUS
 10
27.7578214104
 20
105.7418484434
  0
VERTEX
  8
4_SURFACE
 62
7
  6
CONTINUOUS
 10
27.8258478073
 20
105.8577435352
  0
VERTEX
  8
4_SURFACE
 62
7
  6
CONTINUOUS
 10
27.9123194091
 20
105.9606223999
  0
VERTEX
  8
4_SURFACE
 62
7
  6
CONTINUOUS
 10
28.0148009745
 20
106.0475839038
  0
VERTEX
  8
4_SURFACE
 62
7
  6
CONTINUOUS
 10
28.1304044481
 20
106.116172254
  0
VERTEX
  8
4_SURFACE
 62
7
  6
CONTINUOUS
 10
28.2558627624
 20
106.1644457788
  0
VERTEX
  8
4_SURFACE
 62
7
  6
CONTINUOUS
 10
28.3876246669
 20
106.1910410785
  0
VERTEX
  8
4_SURFACE
 62
7
  6
CONTINUOUS
 10
28.4637332205
 20
106.1961763832
  0
SEQEND
  0
POLYLINE
  8
4_SURFACE
 62
7
  6
CONTINUOUS
 66
1
 70
0
  0
VERTEX
  8
4_SURFACE
 62
7
  6
CONTINUOUS
 10
27.6792667028
 20
105.3963361069
  0
VERTEX
  8
4_SURFACE
 62
7
  6
CONTINUOUS
 10
27.6887849286
 20
105.5193540302
  0
VERTEX
  8
4_SURFACE
 62
7
  6
CONTINUOUS
 10
27.7178219048
 20
105.6416557028
  0
VERTEX
  8
4_SURFACE
 62
7
  6
CONTINUOUS
 10
27.7661274396
 20
105.7588136203
  0
VERTEX
  8
4_SURFACE
 62
7
  6
CONTINUOUS
 10
27.8321726827
 20
105.8666567747
  0
VERTEX
  8
4_SURFACE
 62
7
  6
CONTINUOUS
 10
27.9136795324
 20
105.962039475
  0
SEQEND
  0
POLYLINE
  8
4_SURFACE
 62
7
  6
CONTINUOUS
 66
1
 70
0
  0
VERTEX
  8
4_SURFACE
 62
7
  6
CONTINUOUS
 10
31.5581465517
 20
131.3115283539
  0
VERTEX
  8
4_SURFACE
 62
7
  6
CONTINUOUS
 10
31.5729902816
 20
131.4839908275
  0
VERTEX
  8
4_SURFACE
 62
7
  6
CONTINUOUS
 10
31.6173718502
 20
131.6513037312
  0
VERTEX
  8
4_SURFACE
 62
7
  6
CONTINUOUS
 10
31.6891085878
 20
131.8061647499
  0
VERTEX
  8
4_SURFACE
 62
7
  6
CONTINUOUS
 10
31.7864153346
 20
131.9458157202
  0
VERTEX
  8
4_SURFACE
 62
7
  6
CONTINUOUS
 10
31.9075815277
 20
132.067158763
  0
VERTEX
  8
4_SURFACE
 62
7
  6
CONTINUOUS
 10
32.0470717062
 20
132.1646575388
  0
VERTEX
  8
4_SURFACE
 62
7
  6
CONTINUOUS
 10
32.2018188922
 20
132.2366181251
  0
VERTEX
  8
4_SURFACE
 62
7
  6
CONTINUOUS
 10
32.3695067719
 20
132.2813205935
  0
VERTEX
  8
4_SURFACE
 62
7
  6
CONTINUOUS
 10
32.5429543047
 20
132.2963361069
  0
SEQEND
  0
LINE
  8
4_SURFACE
 62
7
  6
CONTINUOUS
 10
18.6107602761
 20
96.9028465423
 11
18.6623814746
 21
97.0500406547
  0
LINE
  8
4_SURFACE
 62
7
  6
CONTINUOUS
 10
18.6623814746
 20
97.0500406547
 11
18.6751697477
 21
97.0858656731
  0
LINE
  8
4_SURFACE
 62
7
  6
CONTINUOUS
 10
18.6751697477
 20
97.0858656731
 11
18.6853055918
 21
97.1137992204
  0
LINE
  8
4_SURFACE
 62
7
  6
CONTINUOUS
 10
18.6853055918
 20
97.1137992204
 11
18.6923668604
 21
97.1329708114
  0
LINE
  8
4_SURFACE
 62
7
  6
CONTINUOUS
 10
18.6923668604
 20
97.1329708114
 11
18.6997008682
 21
97.1526023138
  0
LINE
  8
4_SURFACE
 62
7
  6
CONTINUOUS
 10
18.6997008682
 20
97.1526023138
 11
18.7053188081
 21
97.1674325918
  0
POLYLINE
  8
4_SURFACE
 62
7
  6
CONTINUOUS
 66
1
 70
0
  0
VERTEX
  8
4_SURFACE
 62
7
  6
CONTINUOUS
 10
18.7053229603
 20
97.1674480683
  0
VERTEX
  8
4_SURFACE
 62
7
  6
CONTINUOUS
 10
18.7074011562
 20
97.1728196511
  0
VERTEX
  8
4_SURFACE
 62
7
  6
CONTINUOUS
 10
18.7189738107
 20
97.2003092053
  0
VERTEX
  8
4_SURFACE
 62
7
  6
CONTINUOUS
 10
18.732016849
 20
97.2277241627
  0
VERTEX
  8
4_SURFACE
 62
7
  6
CONTINUOUS
 10
18.7463477533
 20
97.254854857
  0
VERTEX
  8
4_SURFACE
 62
7
  6
CONTINUOUS
 10
18.7618068999
 20
97.2815341937
  0
VERTEX
  8
4_SURFACE
 62
7
  6
CONTINUOUS
 10
18.7783016078
 20
97.3077058795
  0
VERTEX
  8
4_SURFACE
 62
7
  6
CONTINUOUS
 10
18.7957583991
 20
97.3333274987
  0
VERTEX
  8
4_SURFACE
 62
7
  6
CONTINUOUS
 10
18.8141063993
 20
97.3583361645
  0
VERTEX
  8
4_SURFACE
 62
7
  6
CONTINUOUS
 10
18.833289548
 20
97.3826771923
  0
VERTEX
  8
4_SURFACE
 62
7
  6
CONTINUOUS
 10
18.8533069724
 20
97.4063502966
  0
VERTEX
  8
4_SURFACE
 62
7
  6
CONTINUOUS
 10
18.8741748934
 20
97.429348531
  0
VERTEX
  8
4_SURFACE
 62
7
  6
CONTINUOUS
 10
18.8959130394
 20
97.4516399507
  0
VERTEX
  8
4_SURFACE
 62
7
  6
CONTINUOUS
 10
18.9185865014
 20
97.4732090052
  0
VERTEX
  8
4_SURFACE
 62
7
  6
CONTINUOUS
 10
18.9422349898
 20
97.4939919477
  0
VERTEX
  8
4_SURFACE
 62
7
  6
CONTINUOUS
 10
18.9668802863
 20
97.5138624124
  0
VERTEX
  8
4_SURFACE
 62
7
  6
CONTINUOUS
 10
18.99268086
 20
97.5327796638
  0
VERTEX
  8
4_SURFACE
 62
7
  6
CONTINUOUS
 10
19.0195163213
 20
97.5504504601
  0
VERTEX
  8
4_SURFACE
 62
7
  6
CONTINUOUS
 10
19.0477011282
 20
97.5668019845
  0
VERTEX
  8
4_SURFACE
 62
7
  6
CONTINUOUS
 10
19.0772151962
 20
97.5815068678
  0
VERTEX
  8
4_SURFACE
 62
7
  6
CONTINUOUS
 10
19.108386483
 20
97.5942391287
  0
VERTEX
  8
4_SURFACE
 62
7
  6
CONTINUOUS
 10
19.1411464022
 20
97.6044466485
  0
VERTEX
  8
4_SURFACE
 62
7
  6
CONTINUOUS
 10
19.1757746158
 20
97.6114475142
  0
VERTEX
  8
4_SURFACE
 62
7
  6
CONTINUOUS
 10
19.2115555349
 20
97.6143609467
  0
VERTEX
  8
4_SURFACE
 62
7
  6
CONTINUOUS
 10
19.2164426067
 20
97.6144006294
  0
SEQEND
  0
LINE
  8
4_SURFACE
 62
7
  6
CONTINUOUS
 10
53.4875081748
 20
105.5193540302
 11
53.4970264006
 21
105.3963361069
  0
LINE
  8
4_SURFACE
 62
7
  6
CONTINUOUS
 10
53.0887849286
 20
137.0733181837
 11
53.0792667028
 21
137.1963361069
  0
POLYLINE
  8
4_SURFACE
 62
7
  6
CONTINUOUS
 66
1
 70
0
  0
VERTEX
  8
4_SURFACE
 62
7
  6
CONTINUOUS
 10
53.5699579412
 20
96.6245566259
  0
VERTEX
  8
4_SURFACE
 62
7
  6
CONTINUOUS
 10
53.5722369289
 20
96.5861094189
  0
VERTEX
  8
4_SURFACE
 62
7
  6
CONTINUOUS
 10
53.5745314405
 20
96.5504749776
  0
VERTEX
  8
4_SURFACE
 62
7
  6
CONTINUOUS
 10
53.5768517929
 20
96.5174678319
  0
VERTEX
  8
4_SURFACE
 62
7
  6
CONTINUOUS
 10
53.5792111031
 20
96.4869071418
  0
VERTEX
  8
4_SURFACE
 62
7
  6
CONTINUOUS
 10
53.581629884
 20
96.4585688668
  0
VERTEX
  8
4_SURFACE
 62
7
  6
CONTINUOUS
 10
53.5841426957
 20
96.432151305
  0
VERTEX
  8
4_SURFACE
 62
7
  6
CONTINUOUS
 10
53.5868074777
 20
96.4072506648
  0
VERTEX
  8
4_SURFACE
 62
7
  6
CONTINUOUS
 10
53.5897236316
 20
96.3833117892
  0
VERTEX
  8
4_SURFACE
 62
7
  6
CONTINUOUS
 10
53.5930705121
 20
96.3595264239
  0
VERTEX
  8
4_SURFACE
 62
7
  6
CONTINUOUS
 10
53.5971685446
 20
96.334777042
  0
VERTEX
  8
4_SURFACE
 62
7
  6
CONTINUOUS
 10
53.6025735364
 20
96.3076478775
  0
VERTEX
  8
4_SURFACE
 62
7
  6
CONTINUOUS
 10
53.6103956593
 20
96.2758623574
  0
VERTEX
  8
4_SURFACE
 62
7
  6
CONTINUOUS
 10
53.6227803472
 20
96.2363485858
  0
VERTEX
  8
4_SURFACE
 62
7
  6
CONTINUOUS
 10
53.6430076921
 20
96.187168726
  0
VERTEX
  8
4_SURFACE
 62
7
  6
CONTINUOUS
 10
53.674396858
 20
96.1301590774
  0
VERTEX
  8
4_SURFACE
 62
7
  6
CONTINUOUS
 10
53.7196046122
 20
96.0695517422
  0
VERTEX
  8
4_SURFACE
 62
7
  6
CONTINUOUS
 10
53.7817342731
 20
96.0093464921
  0
VERTEX
  8
4_SURFACE
 62
7
  6
CONTINUOUS
 10
53.8617634102
 20
95.9559802219
  0
VERTEX
  8
4_SURFACE
 62
7
  6
CONTINUOUS
 10
53.9562322755
 20
95.917094182
  0
VERTEX
  8
4_SURFACE
 62
7
  6
CONTINUOUS
 10
54.0589783069
 20
95.8979414303
  0
VERTEX
  8
4_SURFACE
 62
7
  6
CONTINUOUS
 10
54.0990698221
 20
95.8963376146
  0
SEQEND
  0
LINE
  8
4_SURFACE
 62
7
  6
CONTINUOUS
 10
53.5654225185
 20
96.7105315071
 11
53.5699579412
 21
96.6245566259
  0
LINE
  8
4_SURFACE
 62
7
  6
CONTINUOUS
 10
53.0108705849
 20
145.8821407068
 11
53.0063351622
 21
145.968115588
  0
LINE
  8
4_SURFACE
 62
7
  6
CONTINUOUS
 10
53.5608980671
 20
96.809539016
 11
53.5654225185
 21
96.7105315071
  0
LINE
  8
4_SURFACE
 62
7
  6
CONTINUOUS
 10
53.0153950364
 20
145.7831331978
 11
53.0108705849
 21
145.8821407068
  0
LINE
  8
4_SURFACE
 62
7
  6
CONTINUOUS
 10
53.5563784406
 20
96.9225191631
 11
53.5608980671
 21
96.809539016
  0
LINE
  8
4_SURFACE
 62
7
  6
CONTINUOUS
 10
53.0199146628
 20
145.6701530507
 11
53.0153950364
 21
145.7831331978
  0
LINE
  8
4_SURFACE
 62
7
  6
CONTINUOUS
 10
53.549620626
 20
97.1199501354
 11
53.5563784406
 21
96.9225191631
  0
LINE
  8
4_SURFACE
 62
7
  6
CONTINUOUS
 10
53.0266724774
 20
145.4727220784
 11
53.0199146628
 21
145.6701530507
  0
LINE
  8
4_SURFACE
 62
7
  6
CONTINUOUS
 10
53.5429255983
 20
97.353070328
 11
53.549620626
 21
97.1199501354
  0
LINE
  8
4_SURFACE
 62
7
  6
CONTINUOUS
 10
53.0333675051
 20
145.2396018859
 11
53.0266724774
 21
145.4727220784
  0
LINE
  8
4_SURFACE
 62
7
  6
CONTINUOUS
 10
53.5341620143
 20
97.724638502
 11
53.5429255983
 21
97.353070328
  0
LINE
  8
4_SURFACE
 62
7
  6
CONTINUOUS
 10
53.0421310892
 20
144.8680337119
 11
53.0333675051
 21
145.2396018859
  0
LINE
  8
4_SURFACE
 62
7
  6
CONTINUOUS
 10
53.5236560696
 20
98.2977538409
 11
53.5341620143
 21
97.724638502
  0
LINE
  8
4_SURFACE
 62
7
  6
CONTINUOUS
 10
53.0526370339
 20
144.294918373
 11
53.0421310892
 21
144.8680337119
  0
LINE
  8
4_SURFACE
 62
7
  6
CONTINUOUS
 10
53.512241558
 20
99.1643232957
 11
53.5236560696
 21
98.2977538409
  0
LINE
  8
4_SURFACE
 62
7
  6
CONTINUOUS
 10
53.0640515455
 20
143.4283489181
 11
53.0526370339
 21
144.294918373
  0
LINE
  8
4_SURFACE
 62
7
  6
CONTINUOUS
 10
53.0731977071
 20
142.3466958862
 11
53.0640515455
 21
143.4283489181
  0
LINE
  8
4_SURFACE
 62
7
  6
CONTINUOUS
 10
53.5030953963
 20
100.2459763277
 11
53.512241558
 21
99.1643232957
  0
LINE
  8
4_SURFACE
 62
7
  6
CONTINUOUS
 10
53.0790437504
 20
140.7940205927
 11
53.0731977071
 21
142.3466958862
  0
LINE
  8
4_SURFACE
 62
7
  6
CONTINUOUS
 10
53.497249353
 20
101.7986516212
 11
53.5030953963
 21
100.2459763277
  0
LINE
  8
4_SURFACE
 62
7
  6
CONTINUOUS
 10
49.7181465517
 20
131.3115283539
 11
49.7181465517
 21
111.28114386
  0
LINE
  8
4_SURFACE
 62
7
  6
CONTINUOUS
 10
53.0790437504
 20
140.7940205927
 11
53.0793428552
 21
137.196336107
  0
LINE
  8
4_SURFACE
 62
7
  6
CONTINUOUS
 10
53.497249353
 20
101.7986516212
 11
53.4969502482
 21
105.3963361069
  0
POLYLINE
  8
4_SURFACE
 62
7
  6
CONTINUOUS
 66
1
 70
0
  0
VERTEX
  8
4_SURFACE
 62
7
  6
CONTINUOUS
 10
49.7181465517
 20
111.28114386
  0
VERTEX
  8
4_SURFACE
 62
7
  6
CONTINUOUS
 10
49.7033028218
 20
111.1086813864
  0
VERTEX
  8
4_SURFACE
 62
7
  6
CONTINUOUS
 10
49.6589212532
 20
110.9413684827
  0
VERTEX
  8
4_SURFACE
 62
7
  6
CONTINUOUS
 10
49.5871845157
 20
110.786507464
  0
VERTEX
  8
4_SURFACE
 62
7
  6
CONTINUOUS
 10
49.4898777689
 20
110.6468564937
  0
VERTEX
  8
4_SURFACE
 62
7
  6
CONTINUOUS
 10
49.3687115758
 20
110.5255134509
  0
VERTEX
  8
4_SURFACE
 62
7
  6
CONTINUOUS
 10
49.2292213972
 20
110.4280146751
  0
VERTEX
  8
4_SURFACE
 62
7
  6
CONTINUOUS
 10
49.0744742112
 20
110.3560540888
  0
VERTEX
  8
4_SURFACE
 62
7
  6
CONTINUOUS
 10
48.9067863316
 20
110.3113516204
  0
VERTEX
  8
4_SURFACE
 62
7
  6
CONTINUOUS
 10
48.7333387987
 20
110.2963361069
  0
SEQEND
  0
POLYLINE
  8
4_SURFACE
 62
7
  6
CONTINUOUS
 66
1
 70
0
  0
VERTEX
  8
4_SURFACE
 62
7
  6
CONTINUOUS
 10
53.3441204207
 20
105.8666567747
  0
VERTEX
  8
4_SURFACE
 62
7
  6
CONTINUOUS
 10
53.4101656639
 20
105.7588136203
  0
VERTEX
  8
4_SURFACE
 62
7
  6
CONTINUOUS
 10
53.4584711987
 20
105.6416557028
  0
VERTEX
  8
4_SURFACE
 62
7
  6
CONTINUOUS
 10
53.4875081748
 20
105.5193540302
  0
SEQEND
  0
POLYLINE
  8
4_SURFACE
 62
7
  6
CONTINUOUS
 66
1
 70
0
  0
VERTEX
  8
4_SURFACE
 62
7
  6
CONTINUOUS
 10
53.0063351622
 20
145.968115588
  0
VERTEX
  8
4_SURFACE
 62
7
  6
CONTINUOUS
 10
53.0040561745
 20
146.006562795
  0
VERTEX
  8
4_SURFACE
 62
7
  6
CONTINUOUS
 10
53.001761663
 20
146.0421972363
  0
VERTEX
  8
4_SURFACE
 62
7
  6
CONTINUOUS
 10
52.9994413105
 20
146.075204382
  0
VERTEX
  8
4_SURFACE
 62
7
  6
CONTINUOUS
 10
52.9970820004
 20
146.1057650721
  0
VERTEX
  8
4_SURFACE
 62
7
  6
CONTINUOUS
 10
52.9946632194
 20
146.134103347
  0
VERTEX
  8
4_SURFACE
 62
7
  6
CONTINUOUS
 10
52.9921504078
 20
146.1605209089
  0
VERTEX
  8
4_SURFACE
 62
7
  6
CONTINUOUS
 10
52.9894856257
 20
146.1854215491
  0
VERTEX
  8
4_SURFACE
 62
7
  6
CONTINUOUS
 10
52.9865694719
 20
146.2093604246
  0
VERTEX
  8
4_SURFACE
 62
7
  6
CONTINUOUS
 10
52.9832225913
 20
146.23314579
  0
VERTEX
  8
4_SURFACE
 62
7
  6
CONTINUOUS
 10
52.9791245589
 20
146.2578951719
  0
VERTEX
  8
4_SURFACE
 62
7
  6
CONTINUOUS
 10
52.973719567
 20
146.2850243364
  0
VERTEX
  8
4_SURFACE
 62
7
  6
CONTINUOUS
 10
52.9658974441
 20
146.3168098564
  0
VERTEX
  8
4_SURFACE
 62
7
  6
CONTINUOUS
 10
52.9535127562
 20
146.3563236281
  0
VERTEX
  8
4_SURFACE
 62
7
  6
CONTINUOUS
 10
52.9332854114
 20
146.4055034879
  0
VERTEX
  8
4_SURFACE
 62
7
  6
CONTINUOUS
 10
52.9018962455
 20
146.4625131364
  0
VERTEX
  8
4_SURFACE
 62
7
  6
CONTINUOUS
 10
52.8566884913
 20
146.5231204716
  0
VERTEX
  8
4_SURFACE
 62
7
  6
CONTINUOUS
 10
52.7945588304
 20
146.5833257217
  0
VERTEX
  8
4_SURFACE
 62
7
  6
CONTINUOUS
 10
52.7145296933
 20
146.636691992
  0
VERTEX
  8
4_SURFACE
 62
7
  6
CONTINUOUS
 10
52.6200608279
 20
146.6755780318
  0
VERTEX
  8
4_SURFACE
 62
7
  6
CONTINUOUS
 10
52.5173147966
 20
146.6947307836
  0
VERTEX
  8
4_SURFACE
 62
7
  6
CONTINUOUS
 10
52.4772232813
 20
146.6963345993
  0
SEQEND
  0
LINE
  8
4_SURFACE
 62
7
  6
CONTINUOUS
 10
56.8581465517
 20
111.28114386
 11
56.8581465517
 21
131.3115283539
  0
POLYLINE
  8
4_SURFACE
 62
7
  6
CONTINUOUS
 66
1
 70
0
  0
VERTEX
  8
4_SURFACE
 62
7
  6
CONTINUOUS
 10
56.8581465517
 20
131.3115283539
  0
VERTEX
  8
4_SURFACE
 62
7
  6
CONTINUOUS
 10
56.873021438
 20
131.4841699205
  0
VERTEX
  8
4_SURFACE
 62
7
  6
CONTINUOUS
 10
56.9174950151
 20
131.6516443084
  0
VERTEX
  8
4_SURFACE
 62
7
  6
CONTINUOUS
 10
56.9893675181
 20
131.8066155755
  0
VERTEX
  8
4_SURFACE
 62
7
  6
CONTINUOUS
 10
57.0868521889
 20
131.9463380087
  0
VERTEX
  8
4_SURFACE
 62
7
  6
CONTINUOUS
 10
57.2082291111
 20
132.0677011572
  0
VERTEX
  8
4_SURFACE
 62
7
  6
CONTINUOUS
 10
57.3479790547
 20
132.1651794808
  0
VERTEX
  8
4_SURFACE
 62
7
  6
CONTINUOUS
 10
57.5029348347
 20
132.2370225501
  0
VERTEX
  8
4_SURFACE
 62
7
  6
CONTINUOUS
 10
57.670333015
 20
132.2814647499
  0
VERTEX
  8
4_SURFACE
 62
7
  6
CONTINUOUS
 10
57.8429543047
 20
132.2963361069
  0
SEQEND
  0
POLYLINE
  8
0
 62
7
  6
CONTINUOUS
 66
1
 70
0
  0
VERTEX
  8
0
 62
7
  6
CONTINUOUS
 10
128.3772231677
 20
95.8963376147
  0
VERTEX
  8
0
 62
7
  6
CONTINUOUS
 10
128.4233379261
 20
95.8984606853
  0
VERTEX
  8
0
 62
7
  6
CONTINUOUS
 10
128.5243777277
 20
95.9183969352
  0
VERTEX
  8
0
 62
7
  6
CONTINUOUS
 10
128.6156550279
 20
95.9565856975
  0
VERTEX
  8
0
 62
7
  6
CONTINUOUS
 10
128.6928016208
 20
96.0079209271
  0
VERTEX
  8
0
 62
7
  6
CONTINUOUS
 10
128.7535189044
 20
96.0659390867
  0
VERTEX
  8
0
 62
7
  6
CONTINUOUS
 10
128.7986048385
 20
96.1250525526
  0
VERTEX
  8
0
 62
7
  6
CONTINUOUS
 10
128.8300914787
 20
96.1805148334
  0
VERTEX
  8
0
 62
7
  6
CONTINUOUS
 10
128.8506549901
 20
96.2284798989
  0
VERTEX
  8
0
 62
7
  6
CONTINUOUS
 10
128.8637565443
 20
96.2682584945
  0
VERTEX
  8
0
 62
7
  6
CONTINUOUS
 10
128.8721882032
 20
96.3008365671
  0
VERTEX
  8
0
 62
7
  6
CONTINUOUS
 10
128.8779958397
 20
96.3286566538
  0
VERTEX
  8
0
 62
7
  6
CONTINUOUS
 10
128.882330056
 20
96.3537632202
  0
VERTEX
  8
0
 62
7
  6
CONTINUOUS
 10
128.8858482939
 20
96.3778751881
  0
VERTEX
  8
0
 62
7
  6
CONTINUOUS
 10
128.8888971604
 20
96.4021544161
  0
VERTEX
  8
0
 62
7
  6
CONTINUOUS
 10
128.8916643269
 20
96.4273783314
  0
VERTEX
  8
0
 62
7
  6
CONTINUOUS
 10
128.8942629743
 20
96.4541601051
  0
VERTEX
  8
0
 62
7
  6
CONTINUOUS
 10
128.8967617235
 20
96.4829842375
  0
VERTEX
  8
0
 62
7
  6
CONTINUOUS
 10
128.8992017001
 20
96.5142282606
  0
VERTEX
  8
0
 62
7
  6
CONTINUOUS
 10
128.901607797
 20
96.548193176
  0
VERTEX
  8
0
 62
7
  6
CONTINUOUS
 10
128.9039952637
 20
96.585124053
  0
VERTEX
  8
0
 62
7
  6
CONTINUOUS
 10
128.9063734261
 20
96.6252287165
  0
VERTEX
  8
0
 62
7
  6
CONTINUOUS
 10
128.9111198564
 20
96.7156342283
  0
SEQEND
  0
LINE
  8
0
 62
7
  6
CONTINUOUS
 10
155.3991136215
 20
95.8963369065
 11
155.399066819
 21
95.8963361136
  0
LINE
  8
4_SURFACE
 62
7
  6
CONTINUOUS
 10
27.077179482
 20
95.8963369065
 11
27.0772264203
 21
95.8963361132
  0
POLYLINE
  8
4_SURFACE
 62
7
  6
CONTINUOUS
 66
1
 70
0
  0
VERTEX
  8
4_SURFACE
 62
7
  6
CONTINUOUS
 10
24.0598510745
 20
97.6144006379
  0
VERTEX
  8
4_SURFACE
 62
7
  6
CONTINUOUS
 10
24.0977460214
 20
97.6118367128
  0
VERTEX
  8
4_SURFACE
 62
7
  6
CONTINUOUS
 10
24.1325371212
 20
97.6051112955
  0
VERTEX
  8
4_SURFACE
 62
7
  6
CONTINUOUS
 10
24.1654266968
 20
97.5951288824
  0
VERTEX
  8
4_SURFACE
 62
7
  6
CONTINUOUS
 10
24.1967349847
 20
97.5825636187
  0
VERTEX
  8
4_SURFACE
 62
7
  6
CONTINUOUS
 10
24.2263499969
 20
97.5680070771
  0
VERTEX
  8
4_SURFACE
 62
7
  6
CONTINUOUS
 10
24.2546510196
 20
97.5517618494
  0
VERTEX
  8
4_SURFACE
 62
7
  6
CONTINUOUS
 10
24.2815843101
 20
97.5341866405
  0
VERTEX
  8
4_SURFACE
 62
7
  6
CONTINUOUS
 10
24.3074847324
 20
97.5153417444
  0
VERTEX
  8
4_SURFACE
 62
7
  6
CONTINUOUS
 10
24.3322330982
 20
97.4955253531
  0
VERTEX
  8
4_SURFACE
 62
7
  6
CONTINUOUS
 10
24.3559778091
 20
97.4747864681
  0
VERTEX
  8
4_SURFACE
 62
7
  6
CONTINUOUS
 10
24.3787478562
 20
97.4532485863
  0
VERTEX
  8
4_SURFACE
 62
7
  6
CONTINUOUS
 10
24.4005746329
 20
97.4309858727
  0
VERTEX
  8
4_SURFACE
 62
7
  6
CONTINUOUS
 10
24.4215267927
 20
97.4080124453
  0
VERTEX
  8
4_SURFACE
 62
7
  6
CONTINUOUS
 10
24.4416240146
 20
97.3843628899
  0
VERTEX
  8
4_SURFACE
 62
7
  6
CONTINUOUS
 10
24.4608831886
 20
97.3600457455
  0
VERTEX
  8
4_SURFACE
 62
7
  6
CONTINUOUS
 10
24.4793044751
 20
97.3350623763
  0
VERTEX
  8
4_SURFACE
 62
7
  6
CONTINUOUS
 10
24.4968315443
 20
97.3094700745
  0
VERTEX
  8
4_SURFACE
 62
7
  6
CONTINUOUS
 10
24.5133990005
 20
97.2833263007
  0
VERTEX
  8
4_SURFACE
 62
7
  6
CONTINUOUS
 10
24.5289356195
 20
97.2566716953
  0
VERTEX
  8
4_SURFACE
 62
7
  6
CONTINUOUS
 10
24.5433518422
 20
97.229557952
  0
VERTEX
  8
4_SURFACE
 62
7
  6
CONTINUOUS
 10
24.5564928007
 20
97.2021431492
  0
VERTEX
  8
4_SURFACE
 62
7
  6
CONTINUOUS
 10
24.5681758767
 20
97.1746347653
  0
VERTEX
  8
4_SURFACE
 62
7
  6
CONTINUOUS
 10
24.5709694353
 20
97.1674498728
  0
SEQEND
  0
POLYLINE
  8
4_SURFACE
 62
7
  6
CONTINUOUS
 66
1
 70
0
  0
VERTEX
  8
4_SURFACE
 62
7
  6
CONTINUOUS
 10
77.7772239526
 20
95.8963370188
  0
VERTEX
  8
4_SURFACE
 62
7
  6
CONTINUOUS
 10
77.8233514638
 20
95.898461304
  0
VERTEX
  8
4_SURFACE
 62
7
  6
CONTINUOUS
 10
77.9243969182
 20
95.9184021285
  0
VERTEX
  8
4_SURFACE
 62
7
  6
CONTINUOUS
 10
78.0156743504
 20
95.9565953953
  0
VERTEX
  8
4_SURFACE
 62
7
  6
CONTINUOUS
 10
78.0928181422
 20
96.0079335279
  0
VERTEX
  8
4_SURFACE
 62
7
  6
CONTINUOUS
 10
78.1535322745
 20
96.0659534661
  0
VERTEX
  8
4_SURFACE
 62
7
  6
CONTINUOUS
 10
78.1986158699
 20
96.1250688147
  0
VERTEX
  8
4_SURFACE
 62
7
  6
CONTINUOUS
 10
78.2301000551
 20
96.1805319164
  0
VERTEX
  8
4_SURFACE
 62
7
  6
CONTINUOUS
 10
78.2506608997
 20
96.2284955915
  0
VERTEX
  8
4_SURFACE
 62
7
  6
CONTINUOUS
 10
78.2637600435
 20
96.2682707617
  0
VERTEX
  8
4_SURFACE
 62
7
  6
CONTINUOUS
 10
78.2721899548
 20
96.3008446583
  0
VERTEX
  8
4_SURFACE
 62
7
  6
CONTINUOUS
 10
78.2779965036
 20
96.3286608235
  0
VERTEX
  8
4_SURFACE
 62
7
  6
CONTINUOUS
 10
78.2823300828
 20
96.3537638056
  0
VERTEX
  8
4_SURFACE
 62
7
  6
CONTINUOUS
 10
78.2858485828
 20
96.3778773238
  0
VERTEX
  8
4_SURFACE
 62
7
  6
CONTINUOUS
 10
78.2888975428
 20
96.4021575413
  0
VERTEX
  8
4_SURFACE
 62
7
  6
CONTINUOUS
 10
78.2916647109
 20
96.4273819784
  0
VERTEX
  8
4_SURFACE
 62
7
  6
CONTINUOUS
 10
78.2942633259
 20
96.4541639913
  0
VERTEX
  8
4_SURFACE
 62
7
  6
CONTINUOUS
 10
78.2967620326
 20
96.4829880957
  0
VERTEX
  8
4_SURFACE
 62
7
  6
CONTINUOUS
 10
78.2992019665
 20
96.514231735
  0
VERTEX
  8
4_SURFACE
 62
7
  6
CONTINUOUS
 10
78.3016080833
 20
96.5481970213
  0
VERTEX
  8
4_SURFACE
 62
7
  6
CONTINUOUS
 10
78.3039955567
 20
96.5851285077
  0
VERTEX
  8
4_SURFACE
 62
7
  6
CONTINUOUS
 10
78.3063737122
 20
96.6252337673
  0
VERTEX
  8
4_SURFACE
 62
7
  6
CONTINUOUS
 10
78.3087477362
 20
96.6686877327
  0
VERTEX
  8
4_SURFACE
 62
7
  6
CONTINUOUS
 10
78.3134932774
 20
96.7662573178
  0
SEQEND
  0
POLYLINE
  8
4_SURFACE
 62
7
  6
CONTINUOUS
 66
1
 70
0
  0
VERTEX
  8
4_SURFACE
 62
7
  6
CONTINUOUS
 10
27.0772232637
 20
95.8963376133
  0
VERTEX
  8
4_SURFACE
 62
7
  6
CONTINUOUS
 10
27.1191348425
 20
95.8980906294
  0
VERTEX
  8
4_SURFACE
 62
7
  6
CONTINUOUS
 10
27.2204888879
 20
95.9172214728
  0
VERTEX
  8
4_SURFACE
 62
7
  6
CONTINUOUS
 10
27.3121850317
 20
95.9547305075
  0
VERTEX
  8
4_SURFACE
 62
7
  6
CONTINUOUS
 10
27.3899342345
 20
96.005622597
  0
VERTEX
  8
4_SURFACE
 62
7
  6
CONTINUOUS
 10
27.4514485894
 20
96.0636162671
  0
VERTEX
  8
4_SURFACE
 62
7
  6
CONTINUOUS
 10
27.4973363077
 20
96.1231194846
  0
VERTEX
  8
4_SURFACE
 62
7
  6
CONTINUOUS
 10
27.5293352826
 20
96.1789740479
  0
VERTEX
  8
4_SURFACE
 62
7
  6
CONTINUOUS
 10
27.5501416932
 20
96.2271054682
  0
VERTEX
  8
4_SURFACE
 62
7
  6
CONTINUOUS
 10
27.5632547853
 20
96.2665312891
  0
VERTEX
  8
4_SURFACE
 62
7
  6
CONTINUOUS
 10
27.571582505
 20
96.2982315669
  0
VERTEX
  8
4_SURFACE
 62
7
  6
CONTINUOUS
 10
27.5773006365
 20
96.3250167552
  0
VERTEX
  8
4_SURFACE
 62
7
  6
CONTINUOUS
 10
27.5815775748
 20
96.3490746922
  0
VERTEX
  8
4_SURFACE
 62
7
  6
CONTINUOUS
 10
27.5850142947
 20
96.3718088161
  0
VERTEX
  8
4_SURFACE
 62
7
  6
CONTINUOUS
 10
27.5879247635
 20
96.3940337286
  0
VERTEX
  8
4_SURFACE
 62
7
  6
CONTINUOUS
 10
27.5905064289
 20
96.4164288683
  0
VERTEX
  8
4_SURFACE
 62
7
  6
CONTINUOUS
 10
27.5928925117
 20
96.4396451553
  0
VERTEX
  8
4_SURFACE
 62
7
  6
CONTINUOUS
 10
27.5951546249
 20
96.4640889018
  0
VERTEX
  8
4_SURFACE
 62
7
  6
CONTINUOUS
 10
27.5973370884
 20
96.4900696066
  0
VERTEX
  8
4_SURFACE
 62
7
  6
CONTINUOUS
 10
27.5994683948
 20
96.5178359783
  0
VERTEX
  8
4_SURFACE
 62
7
  6
CONTINUOUS
 10
27.6015672373
 20
96.5475939122
  0
VERTEX
  8
4_SURFACE
 62
7
  6
CONTINUOUS
 10
27.6036464093
 20
96.5795223672
  0
VERTEX
  8
4_SURFACE
 62
7
  6
CONTINUOUS
 10
27.6057148653
 20
96.6137847219
  0
VERTEX
  8
4_SURFACE
 62
7
  6
CONTINUOUS
 10
27.6098424504
 20
96.6899075973
  0
SEQEND
  0
LINE
  8
4_SURFACE
 62
7
  6
CONTINUOUS
 10
54.0990666628
 20
95.8963361131
 11
54.0991136215
 21
95.8963369065
  0
LINE
  8
0
 62
7
  6
CONTINUOUS
 10
104.6990662858
 20
95.8963361122
 11
104.6991136215
 21
95.8963369065
  0
LINE
  8
0
 62
7
  6
CONTINUOUS
 10
62.8152465882
 20
95.8963363068
 11
54.0991136215
 21
95.8963369065
  0
LINE
  8
0
 62
7
  6
CONTINUOUS
 10
77.777179482
 20
95.8963369065
 11
69.0610465138
 21
95.8963363068
  0
LINE
  8
4_SURFACE
 62
7
  6
CONTINUOUS
 10
27.077179482
 20
95.8963369065
 11
25.120990941
 21
95.8963369065
  0
LINE
  8
4_SURFACE
 62
7
  6
CONTINUOUS
 10
18.1553021624
 20
95.8963369065
 11
15.6381465517
 21
95.8963369065
  0
LINE
  8
4_SURFACE
 62
7
  6
CONTINUOUS
 10
54.0990625005
 20
95.8963361069
 11
77.777230603
 21
95.8963361069
  0
LINE
  8
0
 62
7
  6
CONTINUOUS
 10
104.6990625005
 20
95.8963361069
 11
128.377179482
 21
95.8963369065
  0
LINE
  8
0
 62
7
  6
CONTINUOUS
 10
155.3990625005
 20
95.8963361069
 11
157.3553063193
 21
95.8963361069
  0
LINE
  8
0
 62
7
  6
CONTINUOUS
 10
164.3209867841
 20
95.8963361069
 11
166.8381465517
 21
95.8963361069
  0
LINE
  8
0
 62
7
  6
CONTINUOUS
 10
163.2598504958
 20
97.6144082878
 11
158.4164420314
 21
97.6144082878
  0
LINE
  8
4_SURFACE
 62
7
  6
CONTINUOUS
 10
24.0598510721
 20
97.6144082878
 11
19.2164426077
 21
97.6144082878
  0
POLYLINE
  8
0
 62
7
  6
CONTINUOUS
 66
1
 70
0
  0
VERTEX
  8
0
 62
7
  6
CONTINUOUS
 10
163.2598504967
 20
97.6144006294
  0
VERTEX
  8
0
 62
7
  6
CONTINUOUS
 10
163.2659905416
 20
97.6143372938
  0
VERTEX
  8
0
 62
7
  6
CONTINUOUS
 10
163.303134692
 20
97.6110565751
  0
VERTEX
  8
0
 62
7
  6
CONTINUOUS
 10
163.3390581359
 20
97.6034088926
  0
VERTEX
  8
0
 62
7
  6
CONTINUOUS
 10
163.3729605186
 20
97.5923690852
  0
VERTEX
  8
0
 62
7
  6
CONTINUOUS
 10
163.4050971627
 20
97.578716325
  0
VERTEX
  8
0
 62
7
  6
CONTINUOUS
 10
163.4355769119
 20
97.5629569803
  0
VERTEX
  8
0
 62
7
  6
CONTINUOUS
 10
163.46456666
 20
97.5455337727
  0
VERTEX
  8
0
 62
7
  6
CONTINUOUS
 10
163.4922745549
 20
97.5266387951
  0
VERTEX
  8
0
 62
7
  6
CONTINUOUS
 10
163.5188340113
 20
97.5064788938
  0
VERTEX
  8
0
 62
7
  6
CONTINUOUS
 10
163.5442045694
 20
97.4852837418
  0
VERTEX
  8
0
 62
7
  6
CONTINUOUS
 10
163.5685246256
 20
97.463124413
  0
VERTEX
  8
0
 62
7
  6
CONTINUOUS
 10
163.591784545
 20
97.4401491906
  0
VERTEX
  8
0
 62
7
  6
CONTINUOUS
 10
163.6140587711
 20
97.4163893508
  0
VERTEX
  8
0
 62
7
  6
CONTINUOUS
 10
163.6353778269
 20
97.3918924376
  0
VERTEX
  8
0
 62
7
  6
CONTINUOUS
 10
163.655758495
 20
97.3666859508
  0
VERTEX
  8
0
 62
7
  6
CONTINUOUS
 10
163.6752058191
 20
97.3407799187
  0
VERTEX
  8
0
 62
7
  6
CONTINUOUS
 10
163.6936813243
 20
97.3142148394
  0
VERTEX
  8
0
 62
7
  6
CONTINUOUS
 10
163.7111111818
 20
97.2870646406
  0
VERTEX
  8
0
 62
7
  6
CONTINUOUS
 10
163.7274237997
 20
97.2593711898
  0
VERTEX
  8
0
 62
7
  6
CONTINUOUS
 10
163.7425295391
 20
97.2311785068
  0
VERTEX
  8
0
 62
7
  6
CONTINUOUS
 10
163.7562661821
 20
97.2026434013
  0
VERTEX
  8
0
 62
7
  6
CONTINUOUS
 10
163.7684290527
 20
97.1739950496
  0
VERTEX
  8
0
 62
7
  6
CONTINUOUS
 10
163.7709695086
 20
97.1674497332
  0
SEQEND
  0
LINE
  8
4_SURFACE
 62
7
  6
CONTINUOUS
 10
77.7772266975
 20
95.8963361125
 11
77.777179482
 21
95.8963369065
  0
LINE
  8
0
 62
7
  6
CONTINUOUS
 10
128.3772263204
 20
95.8963361135
 11
128.377179482
 21
95.8963369065
  0
POLYLINE
  8
4_SURFACE
 62
7
  6
CONTINUOUS
 66
1
 70
0
  0
VERTEX
  8
4_SURFACE
 62
7
  6
CONTINUOUS
 10
53.2321726827
 20
136.7260154392
  0
VERTEX
  8
4_SURFACE
 62
7
  6
CONTINUOUS
 10
53.1661274396
 20
136.8338585936
  0
VERTEX
  8
4_SURFACE
 62
7
  6
CONTINUOUS
 10
53.1178219048
 20
136.9510165111
  0
VERTEX
  8
4_SURFACE
 62
7
  6
CONTINUOUS
 10
53.0887849286
 20
137.0733181837
  0
SEQEND
  0
LINE
  8
4_SURFACE
 62
7
  6
CONTINUOUS
 10
75.0181465517
 20
131.3115283539
 11
75.0181465517
 21
111.28114386
  0
POLYLINE
  8
4_SURFACE
 62
7
  6
CONTINUOUS
 66
1
 70
0
  0
VERTEX
  8
4_SURFACE
 62
7
  6
CONTINUOUS
 10
28.0091139353
 20
106.0435224008
  0
VERTEX
  8
4_SURFACE
 62
7
  6
CONTINUOUS
 10
28.1170354788
 20
106.1095540675
  0
VERTEX
  8
4_SURFACE
 62
7
  6
CONTINUOUS
 10
28.2342478696
 20
106.1578297426
  0
VERTEX
  8
4_SURFACE
 62
7
  6
CONTINUOUS
 10
28.3565581342
 20
106.1868331691
  0
VERTEX
  8
4_SURFACE
 62
7
  6
CONTINUOUS
 10
28.4637351183
 20
106.1961800609
  0
SEQEND
  0
POLYLINE
  8
4_SURFACE
 62
7
  6
CONTINUOUS
 66
1
 70
0
  0
VERTEX
  8
4_SURFACE
 62
7
  6
CONTINUOUS
 10
78.4671791682
 20
136.5491498131
  0
VERTEX
  8
4_SURFACE
 62
7
  6
CONTINUOUS
 10
78.3592576247
 20
136.4831181464
  0
VERTEX
  8
4_SURFACE
 62
7
  6
CONTINUOUS
 10
78.2420452338
 20
136.4348424713
  0
VERTEX
  8
4_SURFACE
 62
7
  6
CONTINUOUS
 10
78.1197349693
 20
136.4058390448
  0
VERTEX
  8
4_SURFACE
 62
7
  6
CONTINUOUS
 10
78.0125579851
 20
136.396492153
  0
SEQEND
  0
POLYLINE
  8
0
 62
7
  6
CONTINUOUS
 66
1
 70
0
  0
VERTEX
  8
0
 62
7
  6
CONTINUOUS
 10
129.7636584757
 20
106.1961785437
  0
VERTEX
  8
0
 62
7
  6
CONTINUOUS
 10
129.6565581342
 20
106.1868331691
  0
VERTEX
  8
0
 62
7
  6
CONTINUOUS
 10
129.5342478696
 20
106.1578297426
  0
VERTEX
  8
0
 62
7
  6
CONTINUOUS
 10
129.4170354788
 20
106.1095540675
  0
VERTEX
  8
0
 62
7
  6
CONTINUOUS
 10
129.3091139353
 20
106.0435224008
  0
VERTEX
  8
0
 62
7
  6
CONTINUOUS
 10
129.2136795324
 20
105.962039475
  0
SEQEND
  0
POLYLINE
  8
0
 62
7
  6
CONTINUOUS
 66
1
 70
0
  0
VERTEX
  8
0
 62
7
  6
CONTINUOUS
 10
149.9333387987
 20
110.2963361069
  0
VERTEX
  8
0
 62
7
  6
CONTINUOUS
 10
150.1058012722
 20
110.3111798369
  0
VERTEX
  8
0
 62
7
  6
CONTINUOUS
 10
150.2731141759
 20
110.3555614054
  0
VERTEX
  8
0
 62
7
  6
CONTINUOUS
 10
150.4279751946
 20
110.427298143
  0
VERTEX
  8
0
 62
7
  6
CONTINUOUS
 10
150.567626165
 20
110.5246048898
  0
VERTEX
  8
0
 62
7
  6
CONTINUOUS
 10
150.6889692078
 20
110.6457710829
  0
VERTEX
  8
0
 62
7
  6
CONTINUOUS
 10
150.7864679836
 20
110.7852612614
  0
VERTEX
  8
0
 62
7
  6
CONTINUOUS
 10
150.8584285699
 20
110.9400084474
  0
VERTEX
  8
0
 62
7
  6
CONTINUOUS
 10
150.9031310383
 20
111.1076963271
  0
VERTEX
  8
0
 62
7
  6
CONTINUOUS
 10
150.9181465517
 20
111.28114386
  0
SEQEND
  0
LINE
  8
0
 62
7
  6
CONTINUOUS
 10
129.7795408817
 20
106.1963361069
 11
129.7636584757
 21
106.1961785437
  0
LINE
  8
1_AXIS
 62
2
  6
CENTER
 10
11.5314354486
 20
102.2463361069
 11
169.3381465517
 21
102.2463361069
  0
LINE
  8
4_SURFACE
 62
7
  6
CONTINUOUS
 10
52.6967522218
 20
106.1963361069
 11
52.7126346278
 21
106.1961785437
  0
POLYLINE
  8
4_SURFACE
 62
7
  6
CONTINUOUS
 66
1
 70
0
  0
VERTEX
  8
4_SURFACE
 62
7
  6
CONTINUOUS
 10
52.7126365345
 20
106.1961748692
  0
VERTEX
  8
4_SURFACE
 62
7
  6
CONTINUOUS
 10
52.7847977203
 20
106.1914789321
  0
VERTEX
  8
4_SURFACE
 62
7
  6
CONTINUOUS
 10
52.9166621149
 20
106.1655327023
  0
VERTEX
  8
4_SURFACE
 62
7
  6
CONTINUOUS
 10
53.0423549829
 20
106.1178746343
  0
VERTEX
  8
4_SURFACE
 62
7
  6
CONTINUOUS
 10
53.1583050754
 20
106.0498453854
  0
VERTEX
  8
4_SURFACE
 62
7
  6
CONTINUOUS
 10
53.2612220386
 20
105.963373551
  0
VERTEX
  8
4_SURFACE
 62
7
  6
CONTINUOUS
 10
53.348199005
 20
105.8609079631
  0
VERTEX
  8
4_SURFACE
 62
7
  6
CONTINUOUS
 10
53.4167894355
 20
105.7453388317
  0
VERTEX
  8
4_SURFACE
 62
7
  6
CONTINUOUS
 10
53.4650613111
 20
105.6199262846
  0
VERTEX
  8
4_SURFACE
 62
7
  6
CONTINUOUS
 10
53.49165579
 20
105.4882136364
  0
VERTEX
  8
4_SURFACE
 62
7
  6
CONTINUOUS
 10
53.4969468487
 20
105.3963361068
  0
SEQEND
  0
POLYLINE
  8
4_SURFACE
 62
7
  6
CONTINUOUS
 66
1
 70
0
  0
VERTEX
  8
4_SURFACE
 62
7
  6
CONTINUOUS
 10
32.5429543047
 20
110.2963361069
  0
VERTEX
  8
4_SURFACE
 62
7
  6
CONTINUOUS
 10
32.3704918312
 20
110.3111798369
  0
VERTEX
  8
4_SURFACE
 62
7
  6
CONTINUOUS
 10
32.2031789275
 20
110.3555614054
  0
VERTEX
  8
4_SURFACE
 62
7
  6
CONTINUOUS
 10
32.0483179088
 20
110.427298143
  0
VERTEX
  8
4_SURFACE
 62
7
  6
CONTINUOUS
 10
31.9086669385
 20
110.5246048898
  0
VERTEX
  8
4_SURFACE
 62
7
  6
CONTINUOUS
 10
31.7873238957
 20
110.6457710829
  0
VERTEX
  8
4_SURFACE
 62
7
  6
CONTINUOUS
 10
31.6898251198
 20
110.7852612614
  0
VERTEX
  8
4_SURFACE
 62
7
  6
CONTINUOUS
 10
31.6178645335
 20
110.9400084474
  0
VERTEX
  8
4_SURFACE
 62
7
  6
CONTINUOUS
 10
31.5731620652
 20
111.1076963271
  0
VERTEX
  8
4_SURFACE
 62
7
  6
CONTINUOUS
 10
31.5581465517
 20
111.28114386
  0
SEQEND
  0
POLYLINE
  8
4_SURFACE
 62
7
  6
CONTINUOUS
 66
1
 70
0
  0
VERTEX
  8
4_SURFACE
 62
7
  6
CONTINUOUS
 10
52.7126346278
 20
106.1961785437
  0
VERTEX
  8
4_SURFACE
 62
7
  6
CONTINUOUS
 10
52.8197349693
 20
106.1868331691
  0
VERTEX
  8
4_SURFACE
 62
7
  6
CONTINUOUS
 10
52.9420452338
 20
106.1578297426
  0
VERTEX
  8
4_SURFACE
 62
7
  6
CONTINUOUS
 10
53.0592576247
 20
106.1095540675
  0
VERTEX
  8
4_SURFACE
 62
7
  6
CONTINUOUS
 10
53.1671791682
 20
106.0435224008
  0
VERTEX
  8
4_SURFACE
 62
7
  6
CONTINUOUS
 10
53.2626135711
 20
105.962039475
  0
SEQEND
  0
LINE
  8
4_SURFACE
 62
7
  6
CONTINUOUS
 10
78.3760197849
 20
100.764937366
 11
78.3793428552
 21
105.3963361069
  0
LINE
  8
4_SURFACE
 62
7
  6
CONTINUOUS
 10
78.8004036389
 20
141.8560135088
 11
78.7969502482
 21
137.196336107
  0
LINE
  8
4_SURFACE
 62
7
  6
CONTINUOUS
 10
78.3674203811
 20
99.5008470066
 11
78.3760197849
 21
100.764937366
  0
LINE
  8
4_SURFACE
 62
7
  6
CONTINUOUS
 10
78.8092712587
 20
143.1344510573
 11
78.8004036389
 21
141.8560135088
  0
LINE
  8
4_SURFACE
 62
7
  6
CONTINUOUS
 10
78.3577760192
 20
98.6471862407
 11
78.3674203811
 21
99.5008470066
  0
LINE
  8
4_SURFACE
 62
7
  6
CONTINUOUS
 10
78.8194861525
 20
144.0157283096
 11
78.8092712587
 21
143.1344510573
  0
LINE
  8
4_SURFACE
 62
7
  6
CONTINUOUS
 10
78.8291109969
 20
144.6126985271
 11
78.8194861525
 21
144.0157283096
  0
LINE
  8
4_SURFACE
 62
7
  6
CONTINUOUS
 10
78.3467738259
 20
97.9580469466
 11
78.3577760192
 21
98.6471862407
  0
LINE
  8
4_SURFACE
 62
7
  6
CONTINUOUS
 10
78.8372522176
 20
145.0085714067
 11
78.8291109969
 21
144.6126985271
  0
LINE
  8
4_SURFACE
 62
7
  6
CONTINUOUS
 10
78.3373994106
 20
97.5138174716
 11
78.3467738259
 21
97.9580469466
  0
LINE
  8
4_SURFACE
 62
7
  6
CONTINUOUS
 10
78.8455883852
 20
145.3371177645
 11
78.8372522176
 21
145.0085714067
  0
LINE
  8
4_SURFACE
 62
7
  6
CONTINUOUS
 10
78.3302221825
 20
97.238578684
 11
78.3373994106
 21
97.5138174716
  0
LINE
  8
4_SURFACE
 62
7
  6
CONTINUOUS
 10
78.8518798439
 20
145.5427244634
 11
78.8455883852
 21
145.3371177645
  0
LINE
  8
4_SURFACE
 62
7
  6
CONTINUOUS
 10
78.3230280112
 20
97.0090485344
 11
78.3302221825
 21
97.238578684
  0
LINE
  8
4_SURFACE
 62
7
  6
CONTINUOUS
 10
78.318250591
 20
96.8792249451
 11
78.3230280112
 21
97.0090485344
  0
LINE
  8
4_SURFACE
 62
7
  6
CONTINUOUS
 10
78.8581539127
 20
145.7162739371
 11
78.8518798439
 21
145.5427244634
  0
LINE
  8
4_SURFACE
 62
7
  6
CONTINUOUS
 10
78.8623126788
 20
145.815561358
 11
78.8581539127
 21
145.7162739371
  0
LINE
  8
4_SURFACE
 62
7
  6
CONTINUOUS
 10
78.3134932774
 20
96.7662573178
 11
78.318250591
 21
96.8792249451
  0
LINE
  8
4_SURFACE
 62
7
  6
CONTINUOUS
 10
78.866450653
 20
145.9027646166
 11
78.8623126788
 21
145.815561358
  0
POLYLINE
  8
4_SURFACE
 62
7
  6
CONTINUOUS
 66
1
 70
0
  0
VERTEX
  8
4_SURFACE
 62
7
  6
CONTINUOUS
 10
78.7969468554
 20
137.1963361071
  0
VERTEX
  8
4_SURFACE
 62
7
  6
CONTINUOUS
 10
78.7920892757
 20
137.1082882162
  0
VERTEX
  8
4_SURFACE
 62
7
  6
CONTINUOUS
 10
78.7661335866
 20
136.9764615493
  0
VERTEX
  8
4_SURFACE
 62
7
  6
CONTINUOUS
 10
78.718471693
 20
136.8508237705
  0
VERTEX
  8
4_SURFACE
 62
7
  6
CONTINUOUS
 10
78.6504452962
 20
136.7349286787
  0
VERTEX
  8
4_SURFACE
 62
7
  6
CONTINUOUS
 10
78.5639736944
 20
136.632049814
  0
VERTEX
  8
4_SURFACE
 62
7
  6
CONTINUOUS
 10
78.4614921289
 20
136.5450883101
  0
VERTEX
  8
4_SURFACE
 62
7
  6
CONTINUOUS
 10
78.3458886554
 20
136.4764999599
  0
VERTEX
  8
4_SURFACE
 62
7
  6
CONTINUOUS
 10
78.2204303411
 20
136.4282264351
  0
VERTEX
  8
4_SURFACE
 62
7
  6
CONTINUOUS
 10
78.0886684365
 20
136.4016311354
  0
VERTEX
  8
4_SURFACE
 62
7
  6
CONTINUOUS
 10
78.0125598829
 20
136.3964958307
  0
SEQEND
  0
POLYLINE
  8
4_SURFACE
 62
7
  6
CONTINUOUS
 66
1
 70
0
  0
VERTEX
  8
4_SURFACE
 62
7
  6
CONTINUOUS
 10
78.3793463319
 20
105.3963361068
  0
VERTEX
  8
4_SURFACE
 62
7
  6
CONTINUOUS
 10
78.384628754
 20
105.4881393633
  0
VERTEX
  8
4_SURFACE
 62
7
  6
CONTINUOUS
 10
78.4112009786
 20
105.6198213927
  0
VERTEX
  8
4_SURFACE
 62
7
  6
CONTINUOUS
 10
78.459452228
 20
105.7452328567
  0
VERTEX
  8
4_SURFACE
 62
7
  6
CONTINUOUS
 10
78.5280251502
 20
105.8608113623
  0
VERTEX
  8
4_SURFACE
 62
7
  6
CONTINUOUS
 10
78.6149769322
 20
105.963279752
  0
VERTEX
  8
4_SURFACE
 62
7
  6
CONTINUOUS
 10
78.7178487452
 20
106.0497467487
  0
VERTEX
  8
4_SURFACE
 62
7
  6
CONTINUOUS
 10
78.8337502595
 20
106.1177843589
  0
VERTEX
  8
4_SURFACE
 62
7
  6
CONTINUOUS
 10
78.9493561793
 20
106.1625204848
  0
SEQEND
  0
LINE
  8
4_SURFACE
 62
7
  6
CONTINUOUS
 10
78.3887614837
 20
105.5192033363
 11
78.3792667028
 21
105.3963361069
  0
POLYLINE
  8
4_SURFACE
 62
7
  6
CONTINUOUS
 66
1
 70
0
  0
VERTEX
  8
4_SURFACE
 62
7
  6
CONTINUOUS
 10
78.7970264006
 20
137.1963361069
  0
VERTEX
  8
4_SURFACE
 62
7
  6
CONTINUOUS
 10
78.7875081748
 20
137.0733181837
  0
VERTEX
  8
4_SURFACE
 62
7
  6
CONTINUOUS
 10
78.7584711987
 20
136.9510165111
  0
VERTEX
  8
4_SURFACE
 62
7
  6
CONTINUOUS
 10
78.7101656639
 20
136.8338585936
  0
VERTEX
  8
4_SURFACE
 62
7
  6
CONTINUOUS
 10
78.6441204207
 20
136.7260154392
  0
VERTEX
  8
4_SURFACE
 62
7
  6
CONTINUOUS
 10
78.5626135711
 20
136.6306327389
  0
SEQEND
  0
POLYLINE
  8
4_SURFACE
 62
7
  6
CONTINUOUS
 66
1
 70
0
  0
VERTEX
  8
4_SURFACE
 62
7
  6
CONTINUOUS
 10
75.0181465517
 20
111.28114386
  0
VERTEX
  8
4_SURFACE
 62
7
  6
CONTINUOUS
 10
74.9992491046
 20
111.0868130525
  0
VERTEX
  8
4_SURFACE
 62
7
  6
CONTINUOUS
 10
74.9437442731
 20
110.9020318144
  0
VERTEX
  8
4_SURFACE
 62
7
  6
CONTINUOUS
 10
74.853294699
 20
110.7317375452
  0
VERTEX
  8
4_SURFACE
 62
7
  6
CONTINUOUS
 10
74.7321302064
 20
110.5836535109
  0
VERTEX
  8
4_SURFACE
 62
7
  6
CONTINUOUS
 10
74.5842689488
 20
110.4622040669
  0
VERTEX
  8
4_SURFACE
 62
7
  6
CONTINUOUS
 10
74.4141688975
 20
110.3714457975
  0
VERTEX
  8
4_SURFACE
 62
7
  6
CONTINUOUS
 10
74.2291721371
 20
110.3155306309
  0
VERTEX
  8
4_SURFACE
 62
7
  6
CONTINUOUS
 10
74.0333387987
 20
110.2963361069
  0
SEQEND
  0
POLYLINE
  8
4_SURFACE
 62
7
  6
CONTINUOUS
 66
1
 70
0
  0
VERTEX
  8
4_SURFACE
 62
7
  6
CONTINUOUS
 10
82.1581465517
 20
131.3115283539
  0
VERTEX
  8
4_SURFACE
 62
7
  6
CONTINUOUS
 10
82.1770439988
 20
131.5058591614
  0
VERTEX
  8
4_SURFACE
 62
7
  6
CONTINUOUS
 10
82.2325488303
 20
131.6906403995
  0
VERTEX
  8
4_SURFACE
 62
7
  6
CONTINUOUS
 10
82.3229984045
 20
131.8609346687
  0
VERTEX
  8
4_SURFACE
 62
7
  6
CONTINUOUS
 10
82.444162897
 20
132.009018703
  0
VERTEX
  8
4_SURFACE
 62
7
  6
CONTINUOUS
 10
82.5920241547
 20
132.130468147
  0
VERTEX
  8
4_SURFACE
 62
7
  6
CONTINUOUS
 10
82.7621242059
 20
132.2212264164
  0
VERTEX
  8
4_SURFACE
 62
7
  6
CONTINUOUS
 10
82.9471209664
 20
132.277141583
  0
VERTEX
  8
4_SURFACE
 62
7
  6
CONTINUOUS
 10
83.1429543047
 20
132.2963361069
  0
SEQEND
  0
POLYLINE
  8
0
 62
7
  6
CONTINUOUS
 66
1
 70
0
  0
VERTEX
  8
0
 62
7
  6
CONTINUOUS
 10
124.6333387987
 20
110.2963361069
  0
VERTEX
  8
0
 62
7
  6
CONTINUOUS
 10
124.8276696062
 20
110.315233554
  0
VERTEX
  8
0
 62
7
  6
CONTINUOUS
 10
125.0124508443
 20
110.3707383855
  0
VERTEX
  8
0
 62
7
  6
CONTINUOUS
 10
125.1827451135
 20
110.4611879597
  0
VERTEX
  8
0
 62
7
  6
CONTINUOUS
 10
125.3308291477
 20
110.5823524523
  0
VERTEX
  8
0
 62
7
  6
CONTINUOUS
 10
125.4522785918
 20
110.7302137099
  0
VERTEX
  8
0
 62
7
  6
CONTINUOUS
 10
125.5430368612
 20
110.9003137611
  0
VERTEX
  8
0
 62
7
  6
CONTINUOUS
 10
125.5989520278
 20
111.0853105216
  0
VERTEX
  8
0
 62
7
  6
CONTINUOUS
 10
125.6181465517
 20
111.28114386
  0
SEQEND
  0
POLYLINE
  8
0
 62
7
  6
CONTINUOUS
 66
1
 70
0
  0
VERTEX
  8
0
 62
7
  6
CONTINUOUS
 10
99.3333387987
 20
110.2963361069
  0
VERTEX
  8
0
 62
7
  6
CONTINUOUS
 10
99.5058012722
 20
110.3111798369
  0
VERTEX
  8
0
 62
7
  6
CONTINUOUS
 10
99.6731141759
 20
110.3555614054
  0
VERTEX
  8
0
 62
7
  6
CONTINUOUS
 10
99.8279751946
 20
110.427298143
  0
VERTEX
  8
0
 62
7
  6
CONTINUOUS
 10
99.967626165
 20
110.5246048898
  0
VERTEX
  8
0
 62
7
  6
CONTINUOUS
 10
100.0889692078
 20
110.6457710829
  0
VERTEX
  8
0
 62
7
  6
CONTINUOUS
 10
100.1864679836
 20
110.7852612614
  0
VERTEX
  8
0
 62
7
  6
CONTINUOUS
 10
100.2584285699
 20
110.9400084474
  0
VERTEX
  8
0
 62
7
  6
CONTINUOUS
 10
100.3031310383
 20
111.1076963271
  0
VERTEX
  8
0
 62
7
  6
CONTINUOUS
 10
100.3181465517
 20
111.28114386
  0
SEQEND
  0
POLYLINE
  8
4_SURFACE
 62
7
  6
CONTINUOUS
 66
1
 70
0
  0
VERTEX
  8
4_SURFACE
 62
7
  6
CONTINUOUS
 10
79.1795408817
 20
106.1963361069
  0
VERTEX
  8
4_SURFACE
 62
7
  6
CONTINUOUS
 10
79.0562396088
 20
106.1867835824
  0
VERTEX
  8
4_SURFACE
 62
7
  6
CONTINUOUS
 10
78.9493788858
 20
106.1625356612
  0
SEQEND
  0
LINE
  8
4_SURFACE
 62
7
  6
CONTINUOUS
 10
28.4637351183
 20
106.1961800609
 11
28.4795408817
 21
106.1963361069
  0
LINE
  8
0
 62
7
  6
CONTINUOUS
 10
153.9967522218
 20
106.1963361069
 11
129.7795408817
 21
106.1963361069
  0
LINE
  8
0
 62
7
  6
CONTINUOUS
 10
103.2967522218
 20
106.1963361069
 11
79.1795408817
 21
106.1963361069
  0
LINE
  8
4_SURFACE
 62
7
  6
CONTINUOUS
 10
52.6967522218
 20
106.1963361069
 11
28.4795408817
 21
106.1963361069
  0
LINE
  8
4_SURFACE
 62
7
  6
CONTINUOUS
 10
74.0333387987
 20
110.2963361069
 11
57.8429543047
 21
110.2963361069
  0
LINE
  8
4_SURFACE
 62
7
  6
CONTINUOUS
 10
48.7333387987
 20
110.2963361069
 11
32.5429543047
 21
110.2963361069
  0
LINE
  8
0
 62
7
  6
CONTINUOUS
 10
83.1429543047
 20
110.2963361069
 11
99.3333387987
 21
110.2963361069
  0
LINE
  8
0
 62
7
  6
CONTINUOUS
 10
108.4429543047
 20
110.2963361069
 11
124.6333387987
 21
110.2963361069
  0
LINE
  8
0
 62
7
  6
CONTINUOUS
 10
133.7429543047
 20
110.2963361069
 11
149.9333387987
 21
110.2963361069
  0
LINE
  8
0
 62
7
  6
CONTINUOUS
 10
154.0125579851
 20
106.1961800609
 11
153.9967522218
 21
106.1963361069
  0
POLYLINE
  8
0
 62
7
  6
CONTINUOUS
 66
1
 70
0
  0
VERTEX
  8
0
 62
7
  6
CONTINUOUS
 10
154.0125598829
 20
106.1961763832
  0
VERTEX
  8
0
 62
7
  6
CONTINUOUS
 10
154.0886684365
 20
106.1910410785
  0
VERTEX
  8
0
 62
7
  6
CONTINUOUS
 10
154.2204303411
 20
106.1644457788
  0
VERTEX
  8
0
 62
7
  6
CONTINUOUS
 10
154.3458886554
 20
106.116172254
  0
VERTEX
  8
0
 62
7
  6
CONTINUOUS
 10
154.4614921289
 20
106.0475839038
  0
VERTEX
  8
0
 62
7
  6
CONTINUOUS
 10
154.5639736944
 20
105.9606223999
  0
VERTEX
  8
0
 62
7
  6
CONTINUOUS
 10
154.6504452962
 20
105.8577435352
  0
VERTEX
  8
0
 62
7
  6
CONTINUOUS
 10
154.718471693
 20
105.7418484434
  0
VERTEX
  8
0
 62
7
  6
CONTINUOUS
 10
154.7661335866
 20
105.6162106646
  0
VERTEX
  8
0
 62
7
  6
CONTINUOUS
 10
154.7920892757
 20
105.4843839977
  0
VERTEX
  8
0
 62
7
  6
CONTINUOUS
 10
154.7969468554
 20
105.3963361068
  0
SEQEND
  0
POLYLINE
  8
0
 62
7
  6
CONTINUOUS
 66
1
 70
0
  0
VERTEX
  8
0
 62
7
  6
CONTINUOUS
 10
103.2967522218
 20
106.1963361069
  0
VERTEX
  8
0
 62
7
  6
CONTINUOUS
 10
103.4200534946
 20
106.1867835824
  0
VERTEX
  8
0
 62
7
  6
CONTINUOUS
 10
103.5269142176
 20
106.1625356612
  0
SEQEND
  0
POLYLINE
  8
4_SURFACE
 62
7
  6
CONTINUOUS
 66
1
 70
0
  0
VERTEX
  8
4_SURFACE
 62
7
  6
CONTINUOUS
 10
83.1429543047
 20
110.2963361069
  0
VERTEX
  8
4_SURFACE
 62
7
  6
CONTINUOUS
 10
82.9704918312
 20
110.3111798369
  0
VERTEX
  8
4_SURFACE
 62
7
  6
CONTINUOUS
 10
82.8031789275
 20
110.3555614054
  0
VERTEX
  8
4_SURFACE
 62
7
  6
CONTINUOUS
 10
82.6483179088
 20
110.427298143
  0
VERTEX
  8
4_SURFACE
 62
7
  6
CONTINUOUS
 10
82.5086669385
 20
110.5246048898
  0
VERTEX
  8
4_SURFACE
 62
7
  6
CONTINUOUS
 10
82.3873238957
 20
110.6457710829
  0
VERTEX
  8
4_SURFACE
 62
7
  6
CONTINUOUS
 10
82.2898251198
 20
110.7852612614
  0
VERTEX
  8
4_SURFACE
 62
7
  6
CONTINUOUS
 10
82.2178645335
 20
110.9400084474
  0
VERTEX
  8
4_SURFACE
 62
7
  6
CONTINUOUS
 10
82.1731620652
 20
111.1076963271
  0
VERTEX
  8
4_SURFACE
 62
7
  6
CONTINUOUS
 10
82.1581465517
 20
111.28114386
  0
SEQEND
  0
POLYLINE
  8
4_SURFACE
 62
7
  6
CONTINUOUS
 66
1
 70
0
  0
VERTEX
  8
4_SURFACE
 62
7
  6
CONTINUOUS
 10
57.8429543047
 20
110.2963361069
  0
VERTEX
  8
4_SURFACE
 62
7
  6
CONTINUOUS
 10
57.6486234973
 20
110.315233554
  0
VERTEX
  8
4_SURFACE
 62
7
  6
CONTINUOUS
 10
57.4638422592
 20
110.3707383855
  0
VERTEX
  8
4_SURFACE
 62
7
  6
CONTINUOUS
 10
57.2935479899
 20
110.4611879597
  0
VERTEX
  8
4_SURFACE
 62
7
  6
CONTINUOUS
 10
57.1454639557
 20
110.5823524523
  0
VERTEX
  8
4_SURFACE
 62
7
  6
CONTINUOUS
 10
57.0240145117
 20
110.7302137099
  0
VERTEX
  8
4_SURFACE
 62
7
  6
CONTINUOUS
 10
56.9332562423
 20
110.9003137611
  0
VERTEX
  8
4_SURFACE
 62
7
  6
CONTINUOUS
 10
56.8773410756
 20
111.0853105216
  0
VERTEX
  8
4_SURFACE
 62
7
  6
CONTINUOUS
 10
56.8581465517
 20
111.28114386
  0
SEQEND
  0
POLYLINE
  8
0
 62
7
  6
CONTINUOUS
 66
1
 70
0
  0
VERTEX
  8
0
 62
7
  6
CONTINUOUS
 10
103.5269142176
 20
106.1625356612
  0
VERTEX
  8
0
 62
7
  6
CONTINUOUS
 10
103.5420915322
 20
106.1578148381
  0
VERTEX
  8
0
 62
7
  6
CONTINUOUS
 10
103.6594106826
 20
106.1094763054
  0
VERTEX
  8
0
 62
7
  6
CONTINUOUS
 10
103.7672502538
 20
106.0434707583
  0
VERTEX
  8
0
 62
7
  6
CONTINUOUS
 10
103.862647814
 20
105.9620052416
  0
SEQEND
  0
LINE
  8
4_SURFACE
 62
7
  6
CONTINUOUS
 10
82.1581465517
 20
111.28114386
 11
82.1581465517
 21
131.3115283539
  0
LINE
  8
4_SURFACE
 62
7
  6
CONTINUOUS
 10
78.4177535815
 20
105.6414436038
 11
78.3887614837
 21
105.5192033363
  0
LINE
  8
4_SURFACE
 62
7
  6
CONTINUOUS
 10
78.466040089
 20
105.7586417665
 11
78.4177535815
 21
105.6414436038
  0
POLYLINE
  8
0
 62
7
  6
CONTINUOUS
 66
1
 70
0
  0
VERTEX
  8
0
 62
7
  6
CONTINUOUS
 10
103.5269369241
 20
106.1625204848
  0
VERTEX
  8
0
 62
7
  6
CONTINUOUS
 10
103.642542844
 20
106.1177843589
  0
VERTEX
  8
0
 62
7
  6
CONTINUOUS
 10
103.7584443582
 20
106.0497467487
  0
VERTEX
  8
0
 62
7
  6
CONTINUOUS
 10
103.8613161712
 20
105.963279752
  0
VERTEX
  8
0
 62
7
  6
CONTINUOUS
 10
103.9482679533
 20
105.8608113623
  0
VERTEX
  8
0
 62
7
  6
CONTINUOUS
 10
104.0168408754
 20
105.7452328567
  0
VERTEX
  8
0
 62
7
  6
CONTINUOUS
 10
104.0650921249
 20
105.6198213927
  0
VERTEX
  8
0
 62
7
  6
CONTINUOUS
 10
104.0916643494
 20
105.4881393633
  0
VERTEX
  8
0
 62
7
  6
CONTINUOUS
 10
104.0969467715
 20
105.3963361068
  0
SEQEND
  0
LINE
  8
4_SURFACE
 62
7
  6
CONTINUOUS
 10
78.5321186546
 20
105.8665824485
 11
78.466040089
 21
105.7586417665
  0
LINE
  8
0
 62
7
  6
CONTINUOUS
 10
103.9441744488
 20
105.8665824485
 11
104.0102530144
 21
105.7586417665
  0
LINE
  8
0
 62
7
  6
CONTINUOUS
 10
104.0102530144
 20
105.7586417665
 11
104.0585395219
 21
105.6414436038
  0
POLYLINE
  8
0
 62
7
  6
CONTINUOUS
 66
1
 70
0
  0
VERTEX
  8
0
 62
7
  6
CONTINUOUS
 10
100.3181465517
 20
131.3115283539
  0
VERTEX
  8
0
 62
7
  6
CONTINUOUS
 10
100.2992491046
 20
131.5058591614
  0
VERTEX
  8
0
 62
7
  6
CONTINUOUS
 10
100.2437442731
 20
131.6906403995
  0
VERTEX
  8
0
 62
7
  6
CONTINUOUS
 10
100.153294699
 20
131.8609346687
  0
VERTEX
  8
0
 62
7
  6
CONTINUOUS
 10
100.0321302064
 20
132.009018703
  0
VERTEX
  8
0
 62
7
  6
CONTINUOUS
 10
99.8842689488
 20
132.130468147
  0
VERTEX
  8
0
 62
7
  6
CONTINUOUS
 10
99.7141688975
 20
132.2212264164
  0
VERTEX
  8
0
 62
7
  6
CONTINUOUS
 10
99.5291721371
 20
132.277141583
  0
VERTEX
  8
0
 62
7
  6
CONTINUOUS
 10
99.3333387987
 20
132.2963361069
  0
SEQEND
  0
LINE
  8
0
 62
7
  6
CONTINUOUS
 10
100.3181465517
 20
111.28114386
 11
100.3181465517
 21
131.3115283539
  0
POLYLINE
  8
4_SURFACE
 62
7
  6
CONTINUOUS
 66
1
 70
0
  0
VERTEX
  8
4_SURFACE
 62
7
  6
CONTINUOUS
 10
78.9493788858
 20
106.1625356612
  0
VERTEX
  8
4_SURFACE
 62
7
  6
CONTINUOUS
 10
78.9342015712
 20
106.1578148381
  0
VERTEX
  8
4_SURFACE
 62
7
  6
CONTINUOUS
 10
78.8168824208
 20
106.1094763054
  0
VERTEX
  8
4_SURFACE
 62
7
  6
CONTINUOUS
 10
78.7090428496
 20
106.0434707583
  0
VERTEX
  8
4_SURFACE
 62
7
  6
CONTINUOUS
 10
78.6136452895
 20
105.9620052416
  0
SEQEND
  0
POLYLINE
  8
0
 62
7
  6
CONTINUOUS
 66
1
 70
0
  0
VERTEX
  8
0
 62
7
  6
CONTINUOUS
 10
133.7429543047
 20
132.2963361069
  0
VERTEX
  8
0
 62
7
  6
CONTINUOUS
 10
133.5486234973
 20
132.2774386599
  0
VERTEX
  8
0
 62
7
  6
CONTINUOUS
 10
133.3638422592
 20
132.2219338284
  0
VERTEX
  8
0
 62
7
  6
CONTINUOUS
 10
133.1935479899
 20
132.1314842542
  0
VERTEX
  8
0
 62
7
  6
CONTINUOUS
 10
133.0454639557
 20
132.0103197616
  0
VERTEX
  8
0
 62
7
  6
CONTINUOUS
 10
132.9240145117
 20
131.862458504
  0
VERTEX
  8
0
 62
7
  6
CONTINUOUS
 10
132.8332562423
 20
131.6923584528
  0
VERTEX
  8
0
 62
7
  6
CONTINUOUS
 10
132.7773410756
 20
131.5073616923
  0
VERTEX
  8
0
 62
7
  6
CONTINUOUS
 10
132.7581465517
 20
131.3115283539
  0
SEQEND
  0
POLYLINE
  8
0
 62
7
  6
CONTINUOUS
 66
1
 70
0
  0
VERTEX
  8
0
 62
7
  6
CONTINUOUS
 10
108.4429543047
 20
132.2963361069
  0
VERTEX
  8
0
 62
7
  6
CONTINUOUS
 10
108.2704918312
 20
132.281492377
  0
VERTEX
  8
0
 62
7
  6
CONTINUOUS
 10
108.1031789275
 20
132.2371108084
  0
VERTEX
  8
0
 62
7
  6
CONTINUOUS
 10
107.9483179088
 20
132.1653740709
  0
VERTEX
  8
0
 62
7
  6
CONTINUOUS
 10
107.8086669385
 20
132.0680673241
  0
VERTEX
  8
0
 62
7
  6
CONTINUOUS
 10
107.6873238957
 20
131.946901131
  0
VERTEX
  8
0
 62
7
  6
CONTINUOUS
 10
107.5898251198
 20
131.8074109525
  0
VERTEX
  8
0
 62
7
  6
CONTINUOUS
 10
107.5178645335
 20
131.6526637665
  0
VERTEX
  8
0
 62
7
  6
CONTINUOUS
 10
107.4731620652
 20
131.4849758868
  0
VERTEX
  8
0
 62
7
  6
CONTINUOUS
 10
107.4581465517
 20
131.3115283539
  0
SEQEND
  0
LINE
  8
0
 62
7
  6
CONTINUOUS
 10
149.9333387987
 20
132.2963361069
 11
133.7429543047
 21
132.2963361069
  0
LINE
  8
0
 62
7
  6
CONTINUOUS
 10
124.6333387987
 20
132.2963361069
 11
108.4429543047
 21
132.2963361069
  0
LINE
  8
0
 62
7
  6
CONTINUOUS
 10
99.3333387987
 20
132.2963361069
 11
83.1429543047
 21
132.2963361069
  0
LINE
  8
4_SURFACE
 62
7
  6
CONTINUOUS
 10
32.5429543047
 20
132.2963361069
 11
48.7333387987
 21
132.2963361069
  0
LINE
  8
4_SURFACE
 62
7
  6
CONTINUOUS
 10
57.8429543047
 20
132.2963361069
 11
74.0333387987
 21
132.2963361069
  0
POLYLINE
  8
4_SURFACE
 62
7
  6
CONTINUOUS
 66
1
 70
0
  0
VERTEX
  8
4_SURFACE
 62
7
  6
CONTINUOUS
 10
74.0333387987
 20
132.2963361069
  0
VERTEX
  8
4_SURFACE
 62
7
  6
CONTINUOUS
 10
74.2058012722
 20
132.281492377
  0
VERTEX
  8
4_SURFACE
 62
7
  6
CONTINUOUS
 10
74.3731141759
 20
132.2371108084
  0
VERTEX
  8
4_SURFACE
 62
7
  6
CONTINUOUS
 10
74.5279751946
 20
132.1653740709
  0
VERTEX
  8
4_SURFACE
 62
7
  6
CONTINUOUS
 10
74.667626165
 20
132.0680673241
  0
VERTEX
  8
4_SURFACE
 62
7
  6
CONTINUOUS
 10
74.7889692078
 20
131.946901131
  0
VERTEX
  8
4_SURFACE
 62
7
  6
CONTINUOUS
 10
74.8864679836
 20
131.8074109525
  0
VERTEX
  8
4_SURFACE
 62
7
  6
CONTINUOUS
 10
74.9584285699
 20
131.6526637665
  0
VERTEX
  8
4_SURFACE
 62
7
  6
CONTINUOUS
 10
75.0031310383
 20
131.4849758868
  0
VERTEX
  8
4_SURFACE
 62
7
  6
CONTINUOUS
 10
75.0181465517
 20
131.3115283539
  0
SEQEND
  0
POLYLINE
  8
4_SURFACE
 62
7
  6
CONTINUOUS
 66
1
 70
0
  0
VERTEX
  8
4_SURFACE
 62
7
  6
CONTINUOUS
 10
48.7333387987
 20
132.2963361069
  0
VERTEX
  8
4_SURFACE
 62
7
  6
CONTINUOUS
 10
48.9276696062
 20
132.2774386599
  0
VERTEX
  8
4_SURFACE
 62
7
  6
CONTINUOUS
 10
49.1124508443
 20
132.2219338284
  0
VERTEX
  8
4_SURFACE
 62
7
  6
CONTINUOUS
 10
49.2827451135
 20
132.1314842542
  0
VERTEX
  8
4_SURFACE
 62
7
  6
CONTINUOUS
 10
49.4308291477
 20
132.0103197616
  0
VERTEX
  8
4_SURFACE
 62
7
  6
CONTINUOUS
 10
49.5522785918
 20
131.862458504
  0
VERTEX
  8
4_SURFACE
 62
7
  6
CONTINUOUS
 10
49.6430368612
 20
131.6923584528
  0
VERTEX
  8
4_SURFACE
 62
7
  6
CONTINUOUS
 10
49.6989520278
 20
131.5073616923
  0
VERTEX
  8
4_SURFACE
 62
7
  6
CONTINUOUS
 10
49.7181465517
 20
131.3115283539
  0
SEQEND
  0
LINE
  8
0
 62
7
  6
CONTINUOUS
 10
104.0585395219
 20
105.6414436038
 11
104.0875316197
 21
105.5192033363
  0
POLYLINE
  8
0
 62
7
  6
CONTINUOUS
 66
1
 70
0
  0
VERTEX
  8
0
 62
7
  6
CONTINUOUS
 10
107.4581465517
 20
111.28114386
  0
VERTEX
  8
0
 62
7
  6
CONTINUOUS
 10
107.4770439988
 20
111.0868130525
  0
VERTEX
  8
0
 62
7
  6
CONTINUOUS
 10
107.5325488303
 20
110.9020318144
  0
VERTEX
  8
0
 62
7
  6
CONTINUOUS
 10
107.6229984045
 20
110.7317375452
  0
VERTEX
  8
0
 62
7
  6
CONTINUOUS
 10
107.744162897
 20
110.5836535109
  0
VERTEX
  8
0
 62
7
  6
CONTINUOUS
 10
107.8920241547
 20
110.4622040669
  0
VERTEX
  8
0
 62
7
  6
CONTINUOUS
 10
108.0621242059
 20
110.3714457975
  0
VERTEX
  8
0
 62
7
  6
CONTINUOUS
 10
108.2471209664
 20
110.3155306309
  0
VERTEX
  8
0
 62
7
  6
CONTINUOUS
 10
108.4429543047
 20
110.2963361069
  0
SEQEND
  0
LINE
  8
0
 62
7
  6
CONTINUOUS
 10
104.0875316197
 20
105.5192033363
 11
104.0970264006
 21
105.3963361069
  0
POLYLINE
  8
0
 62
7
  6
CONTINUOUS
 66
1
 70
0
  0
VERTEX
  8
0
 62
7
  6
CONTINUOUS
 10
103.6792667028
 20
137.1963361069
  0
VERTEX
  8
0
 62
7
  6
CONTINUOUS
 10
103.6887849286
 20
137.0733181837
  0
VERTEX
  8
0
 62
7
  6
CONTINUOUS
 10
103.7178219048
 20
136.9510165111
  0
VERTEX
  8
0
 62
7
  6
CONTINUOUS
 10
103.7661274396
 20
136.8338585936
  0
VERTEX
  8
0
 62
7
  6
CONTINUOUS
 10
103.8321726827
 20
136.7260154392
  0
VERTEX
  8
0
 62
7
  6
CONTINUOUS
 10
103.9136795324
 20
136.6306327389
  0
SEQEND
  0
POLYLINE
  8
0
 62
7
  6
CONTINUOUS
 66
1
 70
0
  0
VERTEX
  8
0
 62
7
  6
CONTINUOUS
 10
104.1699575488
 20
96.6245635314
  0
VERTEX
  8
0
 62
7
  6
CONTINUOUS
 10
104.1722365252
 20
96.5861156821
  0
VERTEX
  8
0
 62
7
  6
CONTINUOUS
 10
104.1745310383
 20
96.550480568
  0
VERTEX
  8
0
 62
7
  6
CONTINUOUS
 10
104.1768514113
 20
96.5174728645
  0
VERTEX
  8
0
 62
7
  6
CONTINUOUS
 10
104.1792106757
 20
96.4869125001
  0
VERTEX
  8
0
 62
7
  6
CONTINUOUS
 10
104.1816294091
 20
96.4585742105
  0
VERTEX
  8
0
 62
7
  6
CONTINUOUS
 10
104.1841421782
 20
96.4321563844
  0
VERTEX
  8
0
 62
7
  6
CONTINUOUS
 10
104.1868069407
 20
96.4072552383
  0
VERTEX
  8
0
 62
7
  6
CONTINUOUS
 10
104.1897231423
 20
96.3833154802
  0
VERTEX
  8
0
 62
7
  6
CONTINUOUS
 10
104.1930702466
 20
96.359528461
  0
VERTEX
  8
0
 62
7
  6
CONTINUOUS
 10
104.197167802
 20
96.3347817958
  0
VERTEX
  8
0
 62
7
  6
CONTINUOUS
 10
104.2025716776
 20
96.3076568991
  0
VERTEX
  8
0
 62
7
  6
CONTINUOUS
 10
104.2103918321
 20
96.2758765384
  0
VERTEX
  8
0
 62
7
  6
CONTINUOUS
 10
104.2227733484
 20
96.2363681905
  0
VERTEX
  8
0
 62
7
  6
CONTINUOUS
 10
104.2429966465
 20
96.1871917248
  0
VERTEX
  8
0
 62
7
  6
CONTINUOUS
 10
104.2743823485
 20
96.130181265
  0
VERTEX
  8
0
 62
7
  6
CONTINUOUS
 10
104.3195876238
 20
96.0695705809
  0
VERTEX
  8
0
 62
7
  6
CONTINUOUS
 10
104.381714966
 20
96.0093614867
  0
VERTEX
  8
0
 62
7
  6
CONTINUOUS
 10
104.461742739
 20
95.9559905802
  0
VERTEX
  8
0
 62
7
  6
CONTINUOUS
 10
104.5562132309
 20
95.9170991462
  0
VERTEX
  8
0
 62
7
  6
CONTINUOUS
 10
104.6589656351
 20
95.8979418196
  0
VERTEX
  8
0
 62
7
  6
CONTINUOUS
 10
104.6990690365
 20
95.8963370187
  0
SEQEND
  0
POLYLINE
  8
0
 62
7
  6
CONTINUOUS
 66
1
 70
0
  0
VERTEX
  8
0
 62
7
  6
CONTINUOUS
 10
103.6064520031
 20
145.9660605417
  0
VERTEX
  8
0
 62
7
  6
CONTINUOUS
 10
103.6041772326
 20
146.0045979599
  0
VERTEX
  8
0
 62
7
  6
CONTINUOUS
 10
103.6018874558
 20
146.0403218026
  0
VERTEX
  8
0
 62
7
  6
CONTINUOUS
 10
103.5995725573
 20
146.0734166733
  0
VERTEX
  8
0
 62
7
  6
CONTINUOUS
 10
103.59721952
 20
146.10406437
  0
VERTEX
  8
0
 62
7
  6
CONTINUOUS
 10
103.5948084709
 20
146.1324840681
  0
VERTEX
  8
0
 62
7
  6
CONTINUOUS
 10
103.5923059201
 20
146.1589713868
  0
VERTEX
  8
0
 62
7
  6
CONTINUOUS
 10
103.589655806
 20
146.1839215196
  0
VERTEX
  8
0
 62
7
  6
CONTINUOUS
 10
103.5867621553
 20
146.2078769282
  0
VERTEX
  8
0
 62
7
  6
CONTINUOUS
 10
103.5834528075
 20
146.2316221986
  0
VERTEX
  8
0
 62
7
  6
CONTINUOUS
 10
103.5794155772
 20
146.2562726784
  0
VERTEX
  8
0
 62
7
  6
CONTINUOUS
 10
103.574117521
 20
146.2831983194
  0
VERTEX
  8
0
 62
7
  6
CONTINUOUS
 10
103.5665005582
 20
146.3145949088
  0
VERTEX
  8
0
 62
7
  6
CONTINUOUS
 10
103.5545062403
 20
146.353496824
  0
VERTEX
  8
0
 62
7
  6
CONTINUOUS
 10
103.5349162464
 20
146.4020102265
  0
VERTEX
  8
0
 62
7
  6
CONTINUOUS
 10
103.5043288818
 20
146.4586513505
  0
VERTEX
  8
0
 62
7
  6
CONTINUOUS
 10
103.459980877
 20
146.5192933616
  0
VERTEX
  8
0
 62
7
  6
CONTINUOUS
 10
103.3986674444
 20
146.5799409397
  0
VERTEX
  8
0
 62
7
  6
CONTINUOUS
 10
103.3192782021
 20
146.6341119137
  0
VERTEX
  8
0
 62
7
  6
CONTINUOUS
 10
103.2251375693
 20
146.6740415889
  0
VERTEX
  8
0
 62
7
  6
CONTINUOUS
 10
103.1223247293
 20
146.694303994
  0
VERTEX
  8
0
 62
7
  6
CONTINUOUS
 10
103.077223132
 20
146.6963346005
  0
SEQEND
  0
LINE
  8
0
 62
7
  6
CONTINUOUS
 10
104.165422161
 20
96.7105390934
 11
104.1699575488
 21
96.6245635314
  0
LINE
  8
0
 62
7
  6
CONTINUOUS
 10
103.610979804
 20
145.8799098823
 11
103.6064520031
 21
145.9660605417
  0
LINE
  8
0
 62
7
  6
CONTINUOUS
 10
104.1608977164
 20
96.8095469642
 11
104.165422161
 21
96.7105390934
  0
LINE
  8
0
 62
7
  6
CONTINUOUS
 10
103.6154970266
 20
145.7807423082
 11
103.610979804
 21
145.8799098823
  0
LINE
  8
0
 62
7
  6
CONTINUOUS
 10
104.1563781092
 20
96.9225281286
 11
104.1608977164
 21
96.8095469642
  0
LINE
  8
0
 62
7
  6
CONTINUOUS
 10
103.6200093962
 20
145.6676274596
 11
103.6154970266
 21
145.7807423082
  0
LINE
  8
0
 62
7
  6
CONTINUOUS
 10
104.1496203229
 20
97.1199595214
 11
104.1563781092
 21
96.9225281286
  0
LINE
  8
0
 62
7
  6
CONTINUOUS
 10
103.6267558134
 20
145.470059904
 11
103.6200093962
 21
145.6676274596
  0
LINE
  8
0
 62
7
  6
CONTINUOUS
 10
104.1429253284
 20
97.3530807839
 11
104.1496203229
 21
97.1199595214
  0
LINE
  8
0
 62
7
  6
CONTINUOUS
 10
103.6334389234
 20
145.2368947264
 11
103.6267558134
 21
145.470059904
  0
LINE
  8
0
 62
7
  6
CONTINUOUS
 10
104.1341617844
 20
97.7246495905
 11
104.1429253284
 21
97.3530807839
  0
LINE
  8
0
 62
7
  6
CONTINUOUS
 10
103.6421864876
 20
144.8654115434
 11
103.6334389234
 21
145.2368947264
  0
LINE
  8
0
 62
7
  6
CONTINUOUS
 10
104.1236558932
 20
98.297765129
 11
104.1341617844
 21
97.7246495905
  0
LINE
  8
0
 62
7
  6
CONTINUOUS
 10
103.6526725398
 20
144.2926854267
 11
103.6421864876
 21
144.8654115434
  0
LINE
  8
0
 62
7
  6
CONTINUOUS
 10
104.1122414443
 20
99.1643336398
 11
104.1236558932
 21
98.297765129
  0
LINE
  8
0
 62
7
  6
CONTINUOUS
 10
103.6640650436
 20
143.4270979203
 11
103.6526725398
 21
144.2926854267
  0
LINE
  8
0
 62
7
  6
CONTINUOUS
 10
103.6731951235
 20
142.3471033658
 11
103.6640650436
 21
143.4270979203
  0
LINE
  8
0
 62
7
  6
CONTINUOUS
 10
104.1030953443
 20
100.2459842598
 11
104.1122414443
 21
99.1643336398
  0
LINE
  8
0
 62
7
  6
CONTINUOUS
 10
103.6790393454
 20
140.7973024975
 11
103.6731951235
 21
142.3471033658
  0
LINE
  8
0
 62
7
  6
CONTINUOUS
 10
104.0972493475
 20
101.7986540234
 11
104.1030953443
 21
100.2459842598
  0
LINE
  8
0
 62
7
  6
CONTINUOUS
 10
103.6790393454
 20
140.7973024975
 11
103.6793428552
 21
137.196336107
  0
LINE
  8
0
 62
7
  6
CONTINUOUS
 10
104.0969502482
 20
105.3963361069
 11
104.0972493475
 21
101.7986540234
  0
LINE
  8
0
 62
7
  6
CONTINUOUS
 10
107.4581465517
 20
131.3115283539
 11
107.4581465517
 21
111.28114386
  0
POLYLINE
  8
0
 62
7
  6
CONTINUOUS
 66
1
 70
0
  0
VERTEX
  8
0
 62
7
  6
CONTINUOUS
 10
128.6126346278
 20
136.3964936702
  0
VERTEX
  8
0
 62
7
  6
CONTINUOUS
 10
128.7197349693
 20
136.4058390448
  0
VERTEX
  8
0
 62
7
  6
CONTINUOUS
 10
128.8420452338
 20
136.4348424713
  0
VERTEX
  8
0
 62
7
  6
CONTINUOUS
 10
128.9592576247
 20
136.4831181464
  0
VERTEX
  8
0
 62
7
  6
CONTINUOUS
 10
129.0671791682
 20
136.5491498131
  0
VERTEX
  8
0
 62
7
  6
CONTINUOUS
 10
129.1626135711
 20
136.6306327389
  0
SEQEND
  0
LINE
  8
0
 62
7
  6
CONTINUOUS
 10
128.5967522218
 20
136.3963361069
 11
128.6126346278
 21
136.3964936702
  0
LINE
  8
4_SURFACE
 62
7
  6
CONTINUOUS
 10
78.0125579851
 20
136.396492153
 11
77.9967522218
 21
136.3963361069
  0
LINE
  8
4_SURFACE
 62
7
  6
CONTINUOUS
 10
27.3125579851
 20
136.396492153
 11
27.2967522218
 21
136.3963361069
  0
LINE
  8
4_SURFACE
 62
7
  6
CONTINUOUS
 10
77.9967522218
 20
136.3963361069
 11
53.8795408817
 21
136.3963361069
  0
LINE
  8
4_SURFACE
 62
7
  6
CONTINUOUS
 10
16.5381465517
 20
136.3963361069
 11
27.2967522218
 21
136.3963361069
  0
LINE
  8
0
 62
7
  6
CONTINUOUS
 10
104.4795408817
 20
136.3963361069
 11
128.5967522218
 21
136.3963361069
  0
LINE
  8
0
 62
7
  6
CONTINUOUS
 10
155.1795408817
 20
136.3963361069
 11
165.9381465517
 21
136.3963361069
  0
LINE
  8
4_SURFACE
 62
7
  6
CONTINUOUS
 10
53.8795408817
 20
136.3963361069
 11
53.8636584757
 21
136.3964936702
  0
LINE
  8
0
 62
7
  6
CONTINUOUS
 10
104.4637351183
 20
136.396492153
 11
104.4795408817
 21
136.3963361069
  0
LINE
  8
0
 62
7
  6
CONTINUOUS
 10
155.1637351184
 20
136.396492153
 11
155.1795408817
 21
136.3963361069
  0
POLYLINE
  8
4_SURFACE
 62
7
  6
CONTINUOUS
 66
1
 70
0
  0
VERTEX
  8
4_SURFACE
 62
7
  6
CONTINUOUS
 10
53.8636565689
 20
136.3964973447
  0
VERTEX
  8
4_SURFACE
 62
7
  6
CONTINUOUS
 10
53.7914953831
 20
136.4011932818
  0
VERTEX
  8
4_SURFACE
 62
7
  6
CONTINUOUS
 10
53.6596309885
 20
136.4271395116
  0
VERTEX
  8
4_SURFACE
 62
7
  6
CONTINUOUS
 10
53.5339381205
 20
136.4747975796
  0
VERTEX
  8
4_SURFACE
 62
7
  6
CONTINUOUS
 10
53.417988028
 20
136.5428268285
  0
VERTEX
  8
4_SURFACE
 62
7
  6
CONTINUOUS
 10
53.3150710648
 20
136.6292986629
  0
VERTEX
  8
4_SURFACE
 62
7
  6
CONTINUOUS
 10
53.2280940984
 20
136.7317642508
  0
VERTEX
  8
4_SURFACE
 62
7
  6
CONTINUOUS
 10
53.159503668
 20
136.8473333822
  0
VERTEX
  8
4_SURFACE
 62
7
  6
CONTINUOUS
 10
53.1112317923
 20
136.9727459293
  0
VERTEX
  8
4_SURFACE
 62
7
  6
CONTINUOUS
 10
53.0846373135
 20
137.1044585775
  0
VERTEX
  8
4_SURFACE
 62
7
  6
CONTINUOUS
 10
53.0793462548
 20
137.1963361071
  0
SEQEND
  0
POLYLINE
  8
0
 62
7
  6
CONTINUOUS
 66
1
 70
0
  0
VERTEX
  8
0
 62
7
  6
CONTINUOUS
 10
104.4637332205
 20
136.3964958307
  0
VERTEX
  8
0
 62
7
  6
CONTINUOUS
 10
104.3876246669
 20
136.4016311354
  0
VERTEX
  8
0
 62
7
  6
CONTINUOUS
 10
104.2558627624
 20
136.4282264351
  0
VERTEX
  8
0
 62
7
  6
CONTINUOUS
 10
104.1304044481
 20
136.4764999599
  0
VERTEX
  8
0
 62
7
  6
CONTINUOUS
 10
104.0148009745
 20
136.5450883101
  0
VERTEX
  8
0
 62
7
  6
CONTINUOUS
 10
103.9123194091
 20
136.632049814
  0
VERTEX
  8
0
 62
7
  6
CONTINUOUS
 10
103.8258478073
 20
136.7349286787
  0
VERTEX
  8
0
 62
7
  6
CONTINUOUS
 10
103.7578214104
 20
136.8508237705
  0
VERTEX
  8
0
 62
7
  6
CONTINUOUS
 10
103.7101595168
 20
136.9764615493
  0
VERTEX
  8
0
 62
7
  6
CONTINUOUS
 10
103.6842038277
 20
137.1082882162
  0
VERTEX
  8
0
 62
7
  6
CONTINUOUS
 10
103.6793462481
 20
137.1963361071
  0
SEQEND
  0
POLYLINE
  8
4_SURFACE
 62
7
  6
CONTINUOUS
 66
1
 70
0
  0
VERTEX
  8
4_SURFACE
 62
7
  6
CONTINUOUS
 10
53.8636584757
 20
136.3964936702
  0
VERTEX
  8
4_SURFACE
 62
7
  6
CONTINUOUS
 10
53.7565581342
 20
136.4058390448
  0
VERTEX
  8
4_SURFACE
 62
7
  6
CONTINUOUS
 10
53.6342478696
 20
136.4348424713
  0
VERTEX
  8
4_SURFACE
 62
7
  6
CONTINUOUS
 10
53.5170354788
 20
136.4831181464
  0
VERTEX
  8
4_SURFACE
 62
7
  6
CONTINUOUS
 10
53.4091139353
 20
136.5491498131
  0
VERTEX
  8
4_SURFACE
 62
7
  6
CONTINUOUS
 10
53.3136795324
 20
136.6306327389
  0
SEQEND
  0
LINE
  8
1_AXIS
 62
2
  6
CENTER
 10
26.142257253
 20
140.3463361069
 11
156.3340358504
 21
140.3463361069
  0
POLYLINE
  8
0
 62
7
  6
CONTINUOUS
 66
1
 70
0
  0
VERTEX
  8
0
 62
7
  6
CONTINUOUS
 10
155.1637332205
 20
136.3964958307
  0
VERTEX
  8
0
 62
7
  6
CONTINUOUS
 10
155.087624667
 20
136.4016311353
  0
VERTEX
  8
0
 62
7
  6
CONTINUOUS
 10
154.9558627624
 20
136.428226435
  0
VERTEX
  8
0
 62
7
  6
CONTINUOUS
 10
154.8304044482
 20
136.4764999599
  0
VERTEX
  8
0
 62
7
  6
CONTINUOUS
 10
154.7148009746
 20
136.5450883101
  0
VERTEX
  8
0
 62
7
  6
CONTINUOUS
 10
154.6123194091
 20
136.6320498139
  0
VERTEX
  8
0
 62
7
  6
CONTINUOUS
 10
154.5258478073
 20
136.7349286786
  0
VERTEX
  8
0
 62
7
  6
CONTINUOUS
 10
154.4578214105
 20
136.8508237705
  0
VERTEX
  8
0
 62
7
  6
CONTINUOUS
 10
154.4101595168
 20
136.9764615493
  0
VERTEX
  8
0
 62
7
  6
CONTINUOUS
 10
154.3842038277
 20
137.1082882162
  0
VERTEX
  8
0
 62
7
  6
CONTINUOUS
 10
154.3793462481
 20
137.1963361071
  0
SEQEND
  0
POLYLINE
  8
0
 62
7
  6
CONTINUOUS
 66
1
 70
0
  0
VERTEX
  8
0
 62
7
  6
CONTINUOUS
 10
104.0091139353
 20
136.5491498131
  0
VERTEX
  8
0
 62
7
  6
CONTINUOUS
 10
104.1170354788
 20
136.4831181464
  0
VERTEX
  8
0
 62
7
  6
CONTINUOUS
 10
104.2342478696
 20
136.4348424713
  0
VERTEX
  8
0
 62
7
  6
CONTINUOUS
 10
104.3565581342
 20
136.4058390448
  0
VERTEX
  8
0
 62
7
  6
CONTINUOUS
 10
104.4637351183
 20
136.396492153
  0
SEQEND
  0
POLYLINE
  8
0
 62
7
  6
CONTINUOUS
 66
1
 70
0
  0
VERTEX
  8
0
 62
7
  6
CONTINUOUS
 10
154.4671791682
 20
106.0435224008
  0
VERTEX
  8
0
 62
7
  6
CONTINUOUS
 10
154.3592576247
 20
106.1095540675
  0
VERTEX
  8
0
 62
7
  6
CONTINUOUS
 10
154.2420452338
 20
106.1578297426
  0
VERTEX
  8
0
 62
7
  6
CONTINUOUS
 10
154.1197349693
 20
106.1868331691
  0
VERTEX
  8
0
 62
7
  6
CONTINUOUS
 10
154.0125579851
 20
106.1961800609
  0
SEQEND
  0
POLYLINE
  8
0
 62
7
  6
CONTINUOUS
 66
1
 70
0
  0
VERTEX
  8
0
 62
7
  6
CONTINUOUS
 10
129.2441204207
 20
136.7260154392
  0
VERTEX
  8
0
 62
7
  6
CONTINUOUS
 10
129.3101656639
 20
136.8338585936
  0
VERTEX
  8
0
 62
7
  6
CONTINUOUS
 10
129.3584711987
 20
136.9510165111
  0
VERTEX
  8
0
 62
7
  6
CONTINUOUS
 10
129.3875081748
 20
137.0733181837
  0
SEQEND
  0
POLYLINE
  8
0
 62
7
  6
CONTINUOUS
 66
1
 70
0
  0
VERTEX
  8
0
 62
7
  6
CONTINUOUS
 10
129.9990699358
 20
146.6963345992
  0
VERTEX
  8
0
 62
7
  6
CONTINUOUS
 10
129.9529551773
 20
146.6942115286
  0
VERTEX
  8
0
 62
7
  6
CONTINUOUS
 10
129.8519153758
 20
146.6742752787
  0
VERTEX
  8
0
 62
7
  6
CONTINUOUS
 10
129.7606380756
 20
146.6360865164
  0
VERTEX
  8
0
 62
7
  6
CONTINUOUS
 10
129.6834914826
 20
146.5847512868
  0
VERTEX
  8
0
 62
7
  6
CONTINUOUS
 10
129.622774199
 20
146.5267331272
  0
VERTEX
  8
0
 62
7
  6
CONTINUOUS
 10
129.577688265
 20
146.4676196613
  0
VERTEX
  8
0
 62
7
  6
CONTINUOUS
 10
129.5462016248
 20
146.4121573805
  0
VERTEX
  8
0
 62
7
  6
CONTINUOUS
 10
129.5256381133
 20
146.364192315
  0
VERTEX
  8
0
 62
7
  6
CONTINUOUS
 10
129.5125365591
 20
146.3244137194
  0
VERTEX
  8
0
 62
7
  6
CONTINUOUS
 10
129.5041049002
 20
146.2918356468
  0
VERTEX
  8
0
 62
7
  6
CONTINUOUS
 10
129.4982972637
 20
146.2640155601
  0
VERTEX
  8
0
 62
7
  6
CONTINUOUS
 10
129.4939630475
 20
146.2389089937
  0
VERTEX
  8
0
 62
7
  6
CONTINUOUS
 10
129.4904448096
 20
146.2147970258
  0
VERTEX
  8
0
 62
7
  6
CONTINUOUS
 10
129.4873959431
 20
146.1905177978
  0
VERTEX
  8
0
 62
7
  6
CONTINUOUS
 10
129.4846287766
 20
146.1652938825
  0
VERTEX
  8
0
 62
7
  6
CONTINUOUS
 10
129.4820301292
 20
146.1385121088
  0
VERTEX
  8
0
 62
7
  6
CONTINUOUS
 10
129.47953138
 20
146.1096879764
  0
VERTEX
  8
0
 62
7
  6
CONTINUOUS
 10
129.4770914033
 20
146.0784439533
  0
VERTEX
  8
0
 62
7
  6
CONTINUOUS
 10
129.4746853065
 20
146.0444790379
  0
VERTEX
  8
0
 62
7
  6
CONTINUOUS
 10
129.4722978398
 20
146.0075481609
  0
VERTEX
  8
0
 62
7
  6
CONTINUOUS
 10
129.4699196773
 20
145.9674434974
  0
VERTEX
  8
0
 62
7
  6
CONTINUOUS
 10
129.4675456392
 20
145.9239899543
  0
VERTEX
  8
0
 62
7
  6
CONTINUOUS
 10
129.4628000783
 20
145.8264203124
  0
SEQEND
  0
POLYLINE
  8
4_SURFACE
 62
7
  6
CONTINUOUS
 66
1
 70
0
  0
VERTEX
  8
4_SURFACE
 62
7
  6
CONTINUOUS
 10
79.3990698398
 20
146.6963346006
  0
VERTEX
  8
4_SURFACE
 62
7
  6
CONTINUOUS
 10
79.3571582609
 20
146.6945815845
  0
VERTEX
  8
4_SURFACE
 62
7
  6
CONTINUOUS
 10
79.2558042156
 20
146.6754507411
  0
VERTEX
  8
4_SURFACE
 62
7
  6
CONTINUOUS
 10
79.1641080717
 20
146.6379417064
  0
VERTEX
  8
4_SURFACE
 62
7
  6
CONTINUOUS
 10
79.0863588689
 20
146.5870496169
  0
VERTEX
  8
4_SURFACE
 62
7
  6
CONTINUOUS
 10
79.0248445141
 20
146.5290559468
  0
VERTEX
  8
4_SURFACE
 62
7
  6
CONTINUOUS
 10
78.9789567958
 20
146.4695527293
  0
VERTEX
  8
4_SURFACE
 62
7
  6
CONTINUOUS
 10
78.9469578209
 20
146.413698166
  0
VERTEX
  8
4_SURFACE
 62
7
  6
CONTINUOUS
 10
78.9261514103
 20
146.3655667457
  0
VERTEX
  8
4_SURFACE
 62
7
  6
CONTINUOUS
 10
78.9130383182
 20
146.3261409248
  0
VERTEX
  8
4_SURFACE
 62
7
  6
CONTINUOUS
 10
78.9047105984
 20
146.294440647
  0
VERTEX
  8
4_SURFACE
 62
7
  6
CONTINUOUS
 10
78.8989924669
 20
146.2676554587
  0
VERTEX
  8
4_SURFACE
 62
7
  6
CONTINUOUS
 10
78.8947155286
 20
146.2435975217
  0
VERTEX
  8
4_SURFACE
 62
7
  6
CONTINUOUS
 10
78.8912788088
 20
146.2208633978
  0
VERTEX
  8
4_SURFACE
 62
7
  6
CONTINUOUS
 10
78.88836834
 20
146.1986384853
  0
VERTEX
  8
4_SURFACE
 62
7
  6
CONTINUOUS
 10
78.8857866745
 20
146.1762433456
  0
VERTEX
  8
4_SURFACE
 62
7
  6
CONTINUOUS
 10
78.8834005918
 20
146.1530270586
  0
VERTEX
  8
4_SURFACE
 62
7
  6
CONTINUOUS
 10
78.8811384786
 20
146.1285833121
  0
VERTEX
  8
4_SURFACE
 62
7
  6
CONTINUOUS
 10
78.8789560151
 20
146.1026026073
  0
VERTEX
  8
4_SURFACE
 62
7
  6
CONTINUOUS
 10
78.8768247086
 20
146.0748362356
  0
VERTEX
  8
4_SURFACE
 62
7
  6
CONTINUOUS
 10
78.8747258661
 20
146.0450783017
  0
VERTEX
  8
4_SURFACE
 62
7
  6
CONTINUOUS
 10
78.8726466941
 20
146.0131498467
  0
VERTEX
  8
4_SURFACE
 62
7
  6
CONTINUOUS
 10
78.8705782382
 20
145.978887492
  0
VERTEX
  8
4_SURFACE
 62
7
  6
CONTINUOUS
 10
78.866450653
 20
145.9027646166
  0
SEQEND
  0
LINE
  8
0
 62
7
  6
CONTINUOUS
 10
153.777179482
 20
146.6963353074
 11
153.7772262844
 21
146.6963361003
  0
LINE
  8
0
 62
7
  6
CONTINUOUS
 10
103.077179482
 20
146.6963353074
 11
103.0772262844
 21
146.6963361003
  0
LINE
  8
4_SURFACE
 62
7
  6
CONTINUOUS
 10
52.4772264406
 20
146.6963361008
 11
52.477179482
 21
146.6963353074
  0
LINE
  8
0
 62
7
  6
CONTINUOUS
 10
52.477179482
 20
146.6963353074
 11
51.6010464985
 21
146.6963359071
  0
LINE
  8
0
 62
7
  6
CONTINUOUS
 10
153.777230603
 20
146.6963361069
 11
129.9990625005
 21
146.6963361069
  0
LINE
  8
0
 62
7
  6
CONTINUOUS
 10
103.077230603
 20
146.6963361069
 11
79.3990625005
 21
146.6963361069
  0
LINE
  8
0
 62
7
  6
CONTINUOUS
 10
45.3552466065
 20
146.6963359071
 11
42.8284060707
 21
146.6963359071
  0
LINE
  8
0
 62
7
  6
CONTINUOUS
 10
38.4478870435
 20
146.6963359071
 11
35.9310464985
 21
146.6963359071
  0
LINE
  8
4_SURFACE
 62
7
  6
CONTINUOUS
 10
52.477230603
 20
146.6963361069
 11
28.6990625005
 21
146.6963361069
  0
LINE
  8
0
 62
7
  6
CONTINUOUS
 10
29.6852466065
 20
146.6963359071
 11
28.6991136215
 21
146.6963353074
  0
LINE
  8
4_SURFACE
 62
7
  6
CONTINUOUS
 10
28.6991136215
 20
146.6963353074
 11
28.6990666832
 21
146.6963361007
  0
LINE
  8
4_SURFACE
 62
7
  6
CONTINUOUS
 10
79.3991136215
 20
146.6963353074
 11
79.3990666832
 21
146.6963361007
  0
LINE
  8
0
 62
7
  6
CONTINUOUS
 10
129.9990667831
 20
146.6963361004
 11
129.9991136215
 21
146.6963353074
  0
POLYLINE
  8
4_SURFACE
 62
7
  6
CONTINUOUS
 66
1
 70
0
  0
VERTEX
  8
4_SURFACE
 62
7
  6
CONTINUOUS
 10
28.6990698398
 20
146.6963346006
  0
VERTEX
  8
4_SURFACE
 62
7
  6
CONTINUOUS
 10
28.6571582609
 20
146.6945815845
  0
VERTEX
  8
4_SURFACE
 62
7
  6
CONTINUOUS
 10
28.5558042156
 20
146.6754507411
  0
VERTEX
  8
4_SURFACE
 62
7
  6
CONTINUOUS
 10
28.4641080717
 20
146.6379417064
  0
VERTEX
  8
4_SURFACE
 62
7
  6
CONTINUOUS
 10
28.3863588689
 20
146.5870496169
  0
VERTEX
  8
4_SURFACE
 62
7
  6
CONTINUOUS
 10
28.3248445141
 20
146.5290559468
  0
VERTEX
  8
4_SURFACE
 62
7
  6
CONTINUOUS
 10
28.2789567958
 20
146.4695527293
  0
VERTEX
  8
4_SURFACE
 62
7
  6
CONTINUOUS
 10
28.2469578209
 20
146.413698166
  0
VERTEX
  8
4_SURFACE
 62
7
  6
CONTINUOUS
 10
28.2261514103
 20
146.3655667457
  0
VERTEX
  8
4_SURFACE
 62
7
  6
CONTINUOUS
 10
28.2130383182
 20
146.3261409248
  0
VERTEX
  8
4_SURFACE
 62
7
  6
CONTINUOUS
 10
28.2047105984
 20
146.294440647
  0
VERTEX
  8
4_SURFACE
 62
7
  6
CONTINUOUS
 10
28.1989924669
 20
146.2676554587
  0
VERTEX
  8
4_SURFACE
 62
7
  6
CONTINUOUS
 10
28.1947155286
 20
146.2435975217
  0
VERTEX
  8
4_SURFACE
 62
7
  6
CONTINUOUS
 10
28.1912788088
 20
146.2208633978
  0
VERTEX
  8
4_SURFACE
 62
7
  6
CONTINUOUS
 10
28.18836834
 20
146.1986384853
  0
VERTEX
  8
4_SURFACE
 62
7
  6
CONTINUOUS
 10
28.1857866745
 20
146.1762433456
  0
VERTEX
  8
4_SURFACE
 62
7
  6
CONTINUOUS
 10
28.1834005918
 20
146.1530270586
  0
VERTEX
  8
4_SURFACE
 62
7
  6
CONTINUOUS
 10
28.1811384786
 20
146.1285833121
  0
VERTEX
  8
4_SURFACE
 62
7
  6
CONTINUOUS
 10
28.1789560151
 20
146.1026026073
  0
VERTEX
  8
4_SURFACE
 62
7
  6
CONTINUOUS
 10
28.1768247086
 20
146.0748362356
  0
VERTEX
  8
4_SURFACE
 62
7
  6
CONTINUOUS
 10
28.1747258661
 20
146.0450783017
  0
VERTEX
  8
4_SURFACE
 62
7
  6
CONTINUOUS
 10
28.1726466941
 20
146.0131498467
  0
VERTEX
  8
4_SURFACE
 62
7
  6
CONTINUOUS
 10
28.1705782382
 20
145.978887492
  0
VERTEX
  8
4_SURFACE
 62
7
  6
CONTINUOUS
 10
28.166450653
 20
145.9027646166
  0
SEQEND
  0
POLYLINE
  8
0
 62
7
  6
CONTINUOUS
 66
1
 70
0
  0
VERTEX
  8
0
 62
7
  6
CONTINUOUS
 10
125.6181465517
 20
131.3115283539
  0
VERTEX
  8
0
 62
7
  6
CONTINUOUS
 10
125.6032716655
 20
131.4841699205
  0
VERTEX
  8
0
 62
7
  6
CONTINUOUS
 10
125.5587980883
 20
131.6516443084
  0
VERTEX
  8
0
 62
7
  6
CONTINUOUS
 10
125.4869255853
 20
131.8066155755
  0
VERTEX
  8
0
 62
7
  6
CONTINUOUS
 10
125.3894409145
 20
131.9463380087
  0
VERTEX
  8
0
 62
7
  6
CONTINUOUS
 10
125.2680639923
 20
132.0677011572
  0
VERTEX
  8
0
 62
7
  6
CONTINUOUS
 10
125.1283140488
 20
132.1651794808
  0
VERTEX
  8
0
 62
7
  6
CONTINUOUS
 10
124.9733582688
 20
132.2370225501
  0
VERTEX
  8
0
 62
7
  6
CONTINUOUS
 10
124.8059600884
 20
132.2814647499
  0
VERTEX
  8
0
 62
7
  6
CONTINUOUS
 10
124.6333387987
 20
132.2963361069
  0
SEQEND
  0
LINE
  8
0
 62
7
  6
CONTINUOUS
 10
125.6181465517
 20
111.28114386
 11
125.6181465517
 21
131.3115283539
  0
LINE
  8
0
 62
7
  6
CONTINUOUS
 10
128.976019764
 20
100.7649324396
 11
128.9793428552
 21
105.3963361069
  0
LINE
  8
0
 62
7
  6
CONTINUOUS
 10
129.4002733394
 20
141.8277397743
 11
129.3969502635
 21
140.346336107
  0
LINE
  8
0
 62
7
  6
CONTINUOUS
 10
128.9674203125
 20
99.5008394493
 11
128.976019764
 21
100.7649324396
  0
LINE
  8
0
 62
7
  6
CONTINUOUS
 10
129.408872791
 20
143.0918327646
 11
129.4002733394
 21
141.8277397743
  0
LINE
  8
0
 62
7
  6
CONTINUOUS
 10
129.4185171989
 20
143.9454944
 11
129.408872791
 21
143.0918327646
  0
LINE
  8
0
 62
7
  6
CONTINUOUS
 10
128.9577759045
 20
98.6471778139
 11
128.9674203125
 21
99.5008394493
  0
LINE
  8
0
 62
7
  6
CONTINUOUS
 10
129.4295194391
 20
144.6346336194
 11
129.4185171989
 21
143.9454944
  0
POLYLINE
  8
0
 62
7
  6
CONTINUOUS
 66
1
 70
0
  0
VERTEX
  8
0
 62
7
  6
CONTINUOUS
 10
128.9444637879
 20
97.8383679143
  0
VERTEX
  8
0
 62
7
  6
CONTINUOUS
 10
128.9467736644
 20
97.9580385945
  0
VERTEX
  8
0
 62
7
  6
CONTINUOUS
 10
128.9577759045
 20
98.6471778139
  0
SEQEND
  0
LINE
  8
0
 62
7
  6
CONTINUOUS
 10
129.4388938878
 20
145.0788626498
 11
129.4295194391
 21
144.6346336194
  0
LINE
  8
0
 62
7
  6
CONTINUOUS
 10
129.4460711352
 20
145.354101081
 11
129.4388938878
 21
145.0788626498
  0
LINE
  8
0
 62
7
  6
CONTINUOUS
 10
129.453265322
 20
145.5836304885
 11
129.4460711352
 21
145.354101081
  0
LINE
  8
0
 62
7
  6
CONTINUOUS
 10
129.4580427603
 20
145.7134535284
 11
129.453265322
 21
145.5836304885
  0
LINE
  8
0
 62
7
  6
CONTINUOUS
 10
129.4628000783
 20
145.8264203124
 11
129.4580427603
 21
145.7134535284
  0
POLYLINE
  8
0
 62
7
  6
CONTINUOUS
 66
1
 70
0
  0
VERTEX
  8
0
 62
7
  6
CONTINUOUS
 10
129.3969468487
 20
137.1963361071
  0
VERTEX
  8
0
 62
7
  6
CONTINUOUS
 10
129.39165579
 20
137.1044585775
  0
VERTEX
  8
0
 62
7
  6
CONTINUOUS
 10
129.3650613111
 20
136.9727459293
  0
VERTEX
  8
0
 62
7
  6
CONTINUOUS
 10
129.3167894355
 20
136.8473333822
  0
VERTEX
  8
0
 62
7
  6
CONTINUOUS
 10
129.248199005
 20
136.7317642508
  0
VERTEX
  8
0
 62
7
  6
CONTINUOUS
 10
129.1612220386
 20
136.6292986629
  0
VERTEX
  8
0
 62
7
  6
CONTINUOUS
 10
129.0583050754
 20
136.5428268285
  0
VERTEX
  8
0
 62
7
  6
CONTINUOUS
 10
128.9423549829
 20
136.4747975796
  0
VERTEX
  8
0
 62
7
  6
CONTINUOUS
 10
128.8166621149
 20
136.4271395116
  0
VERTEX
  8
0
 62
7
  6
CONTINUOUS
 10
128.6847977203
 20
136.4011932818
  0
VERTEX
  8
0
 62
7
  6
CONTINUOUS
 10
128.6126365345
 20
136.3964973447
  0
SEQEND
  0
LINE
  8
0
 62
7
  6
CONTINUOUS
 10
129.3875081748
 20
137.0733181837
 11
129.3970264006
 21
137.1963361069
  0
POLYLINE
  8
0
 62
7
  6
CONTINUOUS
 66
1
 70
0
  0
VERTEX
  8
0
 62
7
  6
CONTINUOUS
 10
132.7581465517
 20
111.28114386
  0
VERTEX
  8
0
 62
7
  6
CONTINUOUS
 10
132.7729902816
 20
111.1086813864
  0
VERTEX
  8
0
 62
7
  6
CONTINUOUS
 10
132.8173718502
 20
110.9413684827
  0
VERTEX
  8
0
 62
7
  6
CONTINUOUS
 10
132.8891085878
 20
110.786507464
  0
VERTEX
  8
0
 62
7
  6
CONTINUOUS
 10
132.9864153346
 20
110.6468564937
  0
VERTEX
  8
0
 62
7
  6
CONTINUOUS
 10
133.1075815277
 20
110.5255134509
  0
VERTEX
  8
0
 62
7
  6
CONTINUOUS
 10
133.2470717062
 20
110.4280146751
  0
VERTEX
  8
0
 62
7
  6
CONTINUOUS
 10
133.4018188922
 20
110.3560540888
  0
VERTEX
  8
0
 62
7
  6
CONTINUOUS
 10
133.5695067719
 20
110.3113516204
  0
VERTEX
  8
0
 62
7
  6
CONTINUOUS
 10
133.7429543047
 20
110.2963361069
  0
SEQEND
  0
LINE
  8
0
 62
7
  6
CONTINUOUS
 10
129.3969502482
 20
137.196336107
 11
129.3969502482
 21
140.346336107
  0
LINE
  8
0
 62
7
  6
CONTINUOUS
 10
132.7581465517
 20
131.3115283539
 11
132.7581465517
 21
111.28114386
  0
LINE
  8
0
 62
7
  6
CONTINUOUS
 10
128.9350140773
 20
97.4167451374
 11
128.9444637879
 21
97.8383679143
  0
LINE
  8
0
 62
7
  6
CONTINUOUS
 10
128.9278220031
 20
97.1571848309
 11
128.9350140773
 21
97.4167451374
  0
LINE
  8
0
 62
7
  6
CONTINUOUS
 10
128.9206365263
 20
96.9419316917
 11
128.9278220031
 21
97.1571848309
  0
LINE
  8
0
 62
7
  6
CONTINUOUS
 10
128.9158693697
 20
96.8207194462
 11
128.9206365263
 21
96.9419316917
  0
LINE
  8
0
 62
7
  6
CONTINUOUS
 10
128.9111198564
 20
96.7156342283
 11
128.9158693697
 21
96.8207194462
  0
POLYLINE
  8
0
 62
7
  6
CONTINUOUS
 66
1
 70
0
  0
VERTEX
  8
0
 62
7
  6
CONTINUOUS
 10
128.9793462548
 20
105.3963361068
  0
VERTEX
  8
0
 62
7
  6
CONTINUOUS
 10
128.9846373135
 20
105.4882136364
  0
VERTEX
  8
0
 62
7
  6
CONTINUOUS
 10
129.0112317923
 20
105.6199262846
  0
VERTEX
  8
0
 62
7
  6
CONTINUOUS
 10
129.059503668
 20
105.7453388317
  0
VERTEX
  8
0
 62
7
  6
CONTINUOUS
 10
129.1280940984
 20
105.8609079631
  0
VERTEX
  8
0
 62
7
  6
CONTINUOUS
 10
129.2150710648
 20
105.963373551
  0
VERTEX
  8
0
 62
7
  6
CONTINUOUS
 10
129.317988028
 20
106.0498453854
  0
VERTEX
  8
0
 62
7
  6
CONTINUOUS
 10
129.4339381205
 20
106.1178746343
  0
VERTEX
  8
0
 62
7
  6
CONTINUOUS
 10
129.5596309885
 20
106.1655327023
  0
VERTEX
  8
0
 62
7
  6
CONTINUOUS
 10
129.6914953831
 20
106.1914789321
  0
VERTEX
  8
0
 62
7
  6
CONTINUOUS
 10
129.7636565689
 20
106.1961748692
  0
SEQEND
  0
LINE
  8
0
 62
7
  6
CONTINUOUS
 10
128.9887849286
 20
105.5193540302
 11
128.9792667028
 21
105.3963361069
  0
POLYLINE
  8
0
 62
7
  6
CONTINUOUS
 66
1
 70
0
  0
VERTEX
  8
0
 62
7
  6
CONTINUOUS
 10
129.1321726827
 20
105.8666567747
  0
VERTEX
  8
0
 62
7
  6
CONTINUOUS
 10
129.0661274396
 20
105.7588136203
  0
VERTEX
  8
0
 62
7
  6
CONTINUOUS
 10
129.0178219048
 20
105.6416557028
  0
VERTEX
  8
0
 62
7
  6
CONTINUOUS
 10
128.9887849286
 20
105.5193540302
  0
SEQEND
  0
POLYLINE
  8
0
 62
7
  6
CONTINUOUS
 66
1
 70
0
  0
VERTEX
  8
0
 62
7
  6
CONTINUOUS
 10
154.7091139353
 20
136.5491498131
  0
VERTEX
  8
0
 62
7
  6
CONTINUOUS
 10
154.8170354788
 20
136.4831181464
  0
VERTEX
  8
0
 62
7
  6
CONTINUOUS
 10
154.9342478696
 20
136.4348424713
  0
VERTEX
  8
0
 62
7
  6
CONTINUOUS
 10
155.0565581342
 20
136.4058390448
  0
VERTEX
  8
0
 62
7
  6
CONTINUOUS
 10
155.1637351184
 20
136.396492153
  0
SEQEND
  0
LINE
  8
0
 62
7
  6
CONTINUOUS
 10
163.7709742953
 20
97.1674325917
 11
163.7774668394
 21
97.1502769929
  0
LINE
  8
0
 62
7
  6
CONTINUOUS
 10
163.7774668394
 20
97.1502769929
 11
163.7820013507
 21
97.1381519815
  0
POLYLINE
  8
0
 62
7
  6
CONTINUOUS
 66
1
 70
0
  0
VERTEX
  8
0
 62
7
  6
CONTINUOUS
 10
150.9181465517
 20
131.3115283539
  0
VERTEX
  8
0
 62
7
  6
CONTINUOUS
 10
150.9033028218
 20
131.4839908275
  0
VERTEX
  8
0
 62
7
  6
CONTINUOUS
 10
150.8589212532
 20
131.6513037312
  0
VERTEX
  8
0
 62
7
  6
CONTINUOUS
 10
150.7871845157
 20
131.8061647499
  0
VERTEX
  8
0
 62
7
  6
CONTINUOUS
 10
150.6898777689
 20
131.9458157202
  0
VERTEX
  8
0
 62
7
  6
CONTINUOUS
 10
150.5687115758
 20
132.067158763
  0
VERTEX
  8
0
 62
7
  6
CONTINUOUS
 10
150.4292213972
 20
132.1646575388
  0
VERTEX
  8
0
 62
7
  6
CONTINUOUS
 10
150.2744742112
 20
132.2366181251
  0
VERTEX
  8
0
 62
7
  6
CONTINUOUS
 10
150.1067863316
 20
132.2813205935
  0
VERTEX
  8
0
 62
7
  6
CONTINUOUS
 10
149.9333387987
 20
132.2963361069
  0
SEQEND
  0
POLYLINE
  8
0
 62
7
  6
CONTINUOUS
 66
1
 70
0
  0
VERTEX
  8
0
 62
7
  6
CONTINUOUS
 10
154.7970264006
 20
105.3963361069
  0
VERTEX
  8
0
 62
7
  6
CONTINUOUS
 10
154.7875081748
 20
105.5193540302
  0
VERTEX
  8
0
 62
7
  6
CONTINUOUS
 10
154.7584711987
 20
105.6416557028
  0
VERTEX
  8
0
 62
7
  6
CONTINUOUS
 10
154.7101656639
 20
105.7588136203
  0
VERTEX
  8
0
 62
7
  6
CONTINUOUS
 10
154.6441204207
 20
105.8666567747
  0
VERTEX
  8
0
 62
7
  6
CONTINUOUS
 10
154.5626135711
 20
105.962039475
  0
SEQEND
  0
POLYLINE
  8
0
 62
7
  6
CONTINUOUS
 66
1
 70
0
  0
VERTEX
  8
0
 62
7
  6
CONTINUOUS
 10
154.3792667028
 20
137.1963361069
  0
VERTEX
  8
0
 62
7
  6
CONTINUOUS
 10
154.3887849286
 20
137.0733181837
  0
VERTEX
  8
0
 62
7
  6
CONTINUOUS
 10
154.4178219048
 20
136.9510165111
  0
VERTEX
  8
0
 62
7
  6
CONTINUOUS
 10
154.4661274396
 20
136.8338585936
  0
VERTEX
  8
0
 62
7
  6
CONTINUOUS
 10
154.5321726827
 20
136.7260154392
  0
VERTEX
  8
0
 62
7
  6
CONTINUOUS
 10
154.6136795324
 20
136.6306327389
  0
SEQEND
  0
POLYLINE
  8
0
 62
7
  6
CONTINUOUS
 66
1
 70
0
  0
VERTEX
  8
0
 62
7
  6
CONTINUOUS
 10
154.8698411004
 20
96.6266116722
  0
VERTEX
  8
0
 62
7
  6
CONTINUOUS
 10
154.8721158709
 20
96.588074254
  0
VERTEX
  8
0
 62
7
  6
CONTINUOUS
 10
154.8744056477
 20
96.5523504113
  0
VERTEX
  8
0
 62
7
  6
CONTINUOUS
 10
154.8767205462
 20
96.5192555406
  0
VERTEX
  8
0
 62
7
  6
CONTINUOUS
 10
154.8790735835
 20
96.4886078439
  0
VERTEX
  8
0
 62
7
  6
CONTINUOUS
 10
154.8814846325
 20
96.4601881458
  0
VERTEX
  8
0
 62
7
  6
CONTINUOUS
 10
154.8839871834
 20
96.4337008271
  0
VERTEX
  8
0
 62
7
  6
CONTINUOUS
 10
154.8866372975
 20
96.4087506943
  0
VERTEX
  8
0
 62
7
  6
CONTINUOUS
 10
154.8895309481
 20
96.3847952857
  0
VERTEX
  8
0
 62
7
  6
CONTINUOUS
 10
154.8928402959
 20
96.3610500153
  0
VERTEX
  8
0
 62
7
  6
CONTINUOUS
 10
154.8968775263
 20
96.3363995355
  0
VERTEX
  8
0
 62
7
  6
CONTINUOUS
 10
154.9021755825
 20
96.3094738945
  0
VERTEX
  8
0
 62
7
  6
CONTINUOUS
 10
154.9097925452
 20
96.2780773051
  0
VERTEX
  8
0
 62
7
  6
CONTINUOUS
 10
154.9217868631
 20
96.2391753899
  0
VERTEX
  8
0
 62
7
  6
CONTINUOUS
 10
154.941376857
 20
96.1906619874
  0
VERTEX
  8
0
 62
7
  6
CONTINUOUS
 10
154.9719642217
 20
96.1340208634
  0
VERTEX
  8
0
 62
7
  6
CONTINUOUS
 10
155.0163122264
 20
96.0733788523
  0
VERTEX
  8
0
 62
7
  6
CONTINUOUS
 10
155.077625659
 20
96.0127312742
  0
VERTEX
  8
0
 62
7
  6
CONTINUOUS
 10
155.1570149014
 20
95.9585603002
  0
VERTEX
  8
0
 62
7
  6
CONTINUOUS
 10
155.2511555341
 20
95.918630625
  0
VERTEX
  8
0
 62
7
  6
CONTINUOUS
 10
155.3539683741
 20
95.8983682199
  0
VERTEX
  8
0
 62
7
  6
CONTINUOUS
 10
155.3990699714
 20
95.8963376134
  0
SEQEND
  0
POLYLINE
  8
0
 62
7
  6
CONTINUOUS
 66
1
 70
0
  0
VERTEX
  8
0
 62
7
  6
CONTINUOUS
 10
154.3064520031
 20
145.9660605417
  0
VERTEX
  8
0
 62
7
  6
CONTINUOUS
 10
154.3041772326
 20
146.0045979599
  0
VERTEX
  8
0
 62
7
  6
CONTINUOUS
 10
154.3018874558
 20
146.0403218026
  0
VERTEX
  8
0
 62
7
  6
CONTINUOUS
 10
154.2995725573
 20
146.0734166733
  0
VERTEX
  8
0
 62
7
  6
CONTINUOUS
 10
154.29721952
 20
146.10406437
  0
VERTEX
  8
0
 62
7
  6
CONTINUOUS
 10
154.2948084709
 20
146.1324840681
  0
VERTEX
  8
0
 62
7
  6
CONTINUOUS
 10
154.2923059201
 20
146.1589713868
  0
VERTEX
  8
0
 62
7
  6
CONTINUOUS
 10
154.289655806
 20
146.1839215196
  0
VERTEX
  8
0
 62
7
  6
CONTINUOUS
 10
154.2867621553
 20
146.2078769282
  0
VERTEX
  8
0
 62
7
  6
CONTINUOUS
 10
154.2834528075
 20
146.2316221986
  0
VERTEX
  8
0
 62
7
  6
CONTINUOUS
 10
154.2794155772
 20
146.2562726784
  0
VERTEX
  8
0
 62
7
  6
CONTINUOUS
 10
154.274117521
 20
146.2831983194
  0
VERTEX
  8
0
 62
7
  6
CONTINUOUS
 10
154.2665005582
 20
146.3145949088
  0
VERTEX
  8
0
 62
7
  6
CONTINUOUS
 10
154.2545062403
 20
146.353496824
  0
VERTEX
  8
0
 62
7
  6
CONTINUOUS
 10
154.2349162464
 20
146.4020102265
  0
VERTEX
  8
0
 62
7
  6
CONTINUOUS
 10
154.2043288818
 20
146.4586513505
  0
VERTEX
  8
0
 62
7
  6
CONTINUOUS
 10
154.159980877
 20
146.5192933616
  0
VERTEX
  8
0
 62
7
  6
CONTINUOUS
 10
154.0986674444
 20
146.5799409397
  0
VERTEX
  8
0
 62
7
  6
CONTINUOUS
 10
154.0192782021
 20
146.6341119137
  0
VERTEX
  8
0
 62
7
  6
CONTINUOUS
 10
153.9251375693
 20
146.6740415889
  0
VERTEX
  8
0
 62
7
  6
CONTINUOUS
 10
153.8223247293
 20
146.694303994
  0
VERTEX
  8
0
 62
7
  6
CONTINUOUS
 10
153.777223132
 20
146.6963346005
  0
SEQEND
  0
LINE
  8
0
 62
7
  6
CONTINUOUS
 10
154.8653132995
 20
96.7127623316
 11
154.8698411004
 21
96.6266116722
  0
LINE
  8
0
 62
7
  6
CONTINUOUS
 10
154.310979804
 20
145.8799098823
 11
154.3064520031
 21
145.9660605417
  0
LINE
  8
0
 62
7
  6
CONTINUOUS
 10
154.8607960769
 20
96.8119299057
 11
154.8653132995
 21
96.7127623316
  0
LINE
  8
0
 62
7
  6
CONTINUOUS
 10
154.3154970266
 20
145.7807423082
 11
154.310979804
 21
145.8799098823
  0
LINE
  8
0
 62
7
  6
CONTINUOUS
 10
154.8562837073
 20
96.9250447543
 11
154.8607960769
 21
96.8119299057
  0
LINE
  8
0
 62
7
  6
CONTINUOUS
 10
154.3200093962
 20
145.6676274596
 11
154.3154970266
 21
145.7807423082
  0
LINE
  8
0
 62
7
  6
CONTINUOUS
 10
154.8495372901
 20
97.1226123099
 11
154.8562837073
 21
96.9250447543
  0
LINE
  8
0
 62
7
  6
CONTINUOUS
 10
154.3267558134
 20
145.470059904
 11
154.3200093962
 21
145.6676274596
  0
LINE
  8
0
 62
7
  6
CONTINUOUS
 10
154.84285418
 20
97.3557774875
 11
154.8495372901
 21
97.1226123099
  0
LINE
  8
0
 62
7
  6
CONTINUOUS
 10
154.3334389234
 20
145.2368947264
 11
154.3267558134
 21
145.470059904
  0
LINE
  8
0
 62
7
  6
CONTINUOUS
 10
154.8341066158
 20
97.7272606705
 11
154.84285418
 21
97.3557774875
  0
LINE
  8
0
 62
7
  6
CONTINUOUS
 10
154.3421864876
 20
144.8654115434
 11
154.3334389234
 21
145.2368947264
  0
LINE
  8
0
 62
7
  6
CONTINUOUS
 10
154.8236205637
 20
98.2999867872
 11
154.8341066158
 21
97.7272606705
  0
LINE
  8
0
 62
7
  6
CONTINUOUS
 10
154.3526725398
 20
144.2926854267
 11
154.3421864876
 21
144.8654115434
  0
LINE
  8
0
 62
7
  6
CONTINUOUS
 10
154.8122280598
 20
99.1655742936
 11
154.8236205637
 21
98.2999867872
  0
LINE
  8
0
 62
7
  6
CONTINUOUS
 10
154.3640650436
 20
143.4270979203
 11
154.3526725398
 21
144.2926854267
  0
LINE
  8
0
 62
7
  6
CONTINUOUS
 10
154.3731951235
 20
142.3471033658
 11
154.3640650436
 21
143.4270979203
  0
LINE
  8
0
 62
7
  6
CONTINUOUS
 10
154.8030979799
 20
100.2455688481
 11
154.8122280598
 21
99.1655742936
  0
LINE
  8
0
 62
7
  6
CONTINUOUS
 10
154.3790393454
 20
140.7973024975
 11
154.3731951235
 21
142.3471033658
  0
LINE
  8
0
 62
7
  6
CONTINUOUS
 10
154.797253758
 20
101.7953697164
 11
154.8030979799
 21
100.2455688481
  0
LINE
  8
0
 62
7
  6
CONTINUOUS
 10
150.9181465517
 20
111.28114386
 11
150.9181465517
 21
131.3115283539
  0
LINE
  8
0
 62
7
  6
CONTINUOUS
 10
154.3790393454
 20
140.7973024975
 11
154.3793428552
 21
137.196336107
  0
LINE
  8
0
 62
7
  6
CONTINUOUS
 10
154.797253758
 20
101.7953697164
 11
154.7969502482
 21
105.3963361069
  0
LINE
  8
0
 62
7
  6
CONTINUOUS
 10
163.7820013507
 20
97.1381519815
 11
163.7908610371
 21
97.1141447942
  0
LINE
  8
0
 62
7
  6
CONTINUOUS
 10
163.7908610371
 20
97.1141447942
 11
163.7994627617
 21
97.0904729359
  0
LINE
  8
0
 62
7
  6
CONTINUOUS
 10
163.7994627617
 20
97.0904729359
 11
163.8119417623
 21
97.0555945928
  0
LINE
  8
0
 62
7
  6
CONTINUOUS
 10
163.8119417623
 20
97.0555945928
 11
163.8317954146
 21
96.9991948196
  0
LINE
  8
0
 62
7
  6
CONTINUOUS
 10
163.8470006831
 20
96.955661681
 11
163.8655328439
 21
96.9028464955
  0
LINE
  8
0
 62
7
  6
CONTINUOUS
 10
163.8317954146
 20
96.9991948196
 11
163.8375572179
 21
96.9827084285
  0
LINE
  8
0
 62
7
  6
CONTINUOUS
 10
163.8375572179
 20
96.9827084285
 11
163.8470006831
 21
96.955661681
  0
LINE
  8
0
 62
7
  6
CONTINUOUS
 10
157.8801687302
 20
97.0996946526
 11
157.854997576
 21
96.3788871044
  0
LINE
  8
0
 62
7
  6
CONTINUOUS
 10
163.7961242731
 20
97.0996975212
 11
163.8212955275
 21
96.3788871044
  0
LINE
  8
0
 62
7
  6
CONTINUOUS
 10
167.3381465517
 20
96.39633615
 11
167.3381465517
 21
134.9963361069
  0
LINE
  8
0
 62
7
  6
CONTINUOUS
 10
157.8107603125
 20
96.9028466493
 11
157.8600162522
 21
97.0433573419
  0
LINE
  8
0
 62
7
  6
CONTINUOUS
 10
157.8600162522
 20
97.0433573419
 11
157.8726490005
 21
97.0788506548
  0
LINE
  8
0
 62
7
  6
CONTINUOUS
 10
157.8726490005
 20
97.0788506548
 11
157.8826468297
 21
97.1065168298
  0
LINE
  8
0
 62
7
  6
CONTINUOUS
 10
157.8826468297
 20
97.1065168298
 11
157.8931811545
 21
97.1351650144
  0
LINE
  8
0
 62
7
  6
CONTINUOUS
 10
157.8931811545
 20
97.1351650144
 11
157.9005441051
 21
97.1548400723
  0
LINE
  8
0
 62
7
  6
CONTINUOUS
 10
157.9005441051
 20
97.1548400723
 11
157.9053189408
 21
97.167432933
  0
POLYLINE
  8
0
 62
7
  6
CONTINUOUS
 66
1
 70
0
  0
VERTEX
  8
0
 62
7
  6
CONTINUOUS
 10
157.9053243155
 20
97.1674515713
  0
VERTEX
  8
0
 62
7
  6
CONTINUOUS
 10
157.9085845456
 20
97.1758100116
  0
VERTEX
  8
0
 62
7
  6
CONTINUOUS
 10
157.9208612503
 20
97.2044759099
  0
VERTEX
  8
0
 62
7
  6
CONTINUOUS
 10
157.9346984363
 20
97.2330090408
  0
VERTEX
  8
0
 62
7
  6
CONTINUOUS
 10
157.9498915648
 20
97.2611825926
  0
VERTEX
  8
0
 62
7
  6
CONTINUOUS
 10
157.9662841403
 20
97.2888501881
  0
VERTEX
  8
0
 62
7
  6
CONTINUOUS
 10
157.9837897002
 20
97.3159719345
  0
VERTEX
  8
0
 62
7
  6
CONTINUOUS
 10
158.0023393022
 20
97.342507644
  0
VERTEX
  8
0
 62
7
  6
CONTINUOUS
 10
158.0218645945
 20
97.3683885618
  0
VERTEX
  8
0
 62
7
  6
CONTINUOUS
 10
158.0423262997
 20
97.39357048
  0
VERTEX
  8
0
 62
7
  6
CONTINUOUS
 10
158.0637310056
 20
97.4180426226
  0
VERTEX
  8
0
 62
7
  6
CONTINUOUS
 10
158.0860954974
 20
97.4417747541
  0
VERTEX
  8
0
 62
7
  6
CONTINUOUS
 10
158.1094529316
 20
97.4647191236
  0
VERTEX
  8
0
 62
7
  6
CONTINUOUS
 10
158.1338741022
 20
97.4868387432
  0
VERTEX
  8
0
 62
7
  6
CONTINUOUS
 10
158.1593462931
 20
97.5079787922
  0
VERTEX
  8
0
 62
7
  6
CONTINUOUS
 10
158.1860162067
 20
97.5280737486
  0
VERTEX
  8
0
 62
7
  6
CONTINUOUS
 10
158.2138187499
 20
97.5468716498
  0
VERTEX
  8
0
 62
7
  6
CONTINUOUS
 10
158.2429310377
 20
97.5641909675
  0
VERTEX
  8
0
 62
7
  6
CONTINUOUS
 10
158.2735065551
 20
97.5798005457
  0
VERTEX
  8
0
 62
7
  6
CONTINUOUS
 10
158.305788371
 20
97.5932872568
  0
VERTEX
  8
0
 62
7
  6
CONTINUOUS
 10
158.3398182556
 20
97.6040998987
  0
VERTEX
  8
0
 62
7
  6
CONTINUOUS
 10
158.3759298748
 20
97.6114699451
  0
VERTEX
  8
0
 62
7
  6
CONTINUOUS
 10
158.416442029
 20
97.614400638
  0
SEQEND
  0
LINE
  8
4_SURFACE
 62
7
  6
CONTINUOUS
 10
15.1381465517
 20
188.653947426
 11
15.1381465517
 21
177.2146611432
  0
POLYLINE
  8
4_SURFACE
 62
7
  6
CONTINUOUS
 66
1
 70
0
  0
VERTEX
  8
4_SURFACE
 62
7
  6
CONTINUOUS
 10
18.7464009092
 20
183.0646611432
  0
VERTEX
  8
4_SURFACE
 62
7
  6
CONTINUOUS
 10
18.7475552445
 20
183.5270141049
  0
VERTEX
  8
4_SURFACE
 62
7
  6
CONTINUOUS
 10
18.750994906
 20
183.979975232
  0
VERTEX
  8
4_SURFACE
 62
7
  6
CONTINUOUS
 10
18.7566503064
 20
184.4143401315
  0
VERTEX
  8
4_SURFACE
 62
7
  6
CONTINUOUS
 10
18.7644069554
 20
184.8212764073
  0
VERTEX
  8
4_SURFACE
 62
7
  6
CONTINUOUS
 10
18.7741076763
 20
185.1925015668
  0
VERTEX
  8
4_SURFACE
 62
7
  6
CONTINUOUS
 10
18.7855556674
 20
185.5204511569
  0
VERTEX
  8
4_SURFACE
 62
7
  6
CONTINUOUS
 10
18.7985184005
 20
185.7984345199
  0
VERTEX
  8
4_SURFACE
 62
7
  6
CONTINUOUS
 10
18.8127322426
 20
186.0207731273
  0
VERTEX
  8
4_SURFACE
 62
7
  6
CONTINUOUS
 10
18.8279077914
 20
186.1829200726
  0
VERTEX
  8
4_SURFACE
 62
7
  6
CONTINUOUS
 10
18.8437357696
 20
186.2815562298
  0
VERTEX
  8
4_SURFACE
 62
7
  6
CONTINUOUS
 10
18.85989341
 20
186.3146611432
  0
SEQEND
  0
POLYLINE
  8
4_SURFACE
 62
7
  6
CONTINUOUS
 66
1
 70
0
  0
VERTEX
  8
4_SURFACE
 62
7
  6
CONTINUOUS
 10
18.9733859109
 20
183.0646611432
  0
VERTEX
  8
4_SURFACE
 62
7
  6
CONTINUOUS
 10
18.9722315756
 20
182.6023081815
  0
VERTEX
  8
4_SURFACE
 62
7
  6
CONTINUOUS
 10
18.9687919141
 20
182.1493470544
  0
VERTEX
  8
4_SURFACE
 62
7
  6
CONTINUOUS
 10
18.9631365138
 20
181.7149821549
  0
VERTEX
  8
4_SURFACE
 62
7
  6
CONTINUOUS
 10
18.9553798647
 20
181.3080458791
  0
VERTEX
  8
4_SURFACE
 62
7
  6
CONTINUOUS
 10
18.9456791439
 20
180.9368207196
  0
VERTEX
  8
4_SURFACE
 62
7
  6
CONTINUOUS
 10
18.9342311527
 20
180.6088711295
  0
VERTEX
  8
4_SURFACE
 62
7
  6
CONTINUOUS
 10
18.9212684196
 20
180.3308877665
  0
VERTEX
  8
4_SURFACE
 62
7
  6
CONTINUOUS
 10
18.9070545775
 20
180.1085491591
  0
VERTEX
  8
4_SURFACE
 62
7
  6
CONTINUOUS
 10
18.8918790288
 20
179.9464022138
  0
VERTEX
  8
4_SURFACE
 62
7
  6
CONTINUOUS
 10
18.8760510506
 20
179.8477660566
  0
VERTEX
  8
4_SURFACE
 62
7
  6
CONTINUOUS
 10
18.8598934102
 20
179.8146611432
  0
SEQEND
  0
LINE
  8
4_SURFACE
 62
7
  6
CONTINUOUS
 10
18.6912464205
 20
186.3314283507
 11
18.6912508902
 21
186.3314689358
  0
POLYLINE
  8
4_SURFACE
 62
7
  6
CONTINUOUS
 66
1
 70
0
  0
VERTEX
  8
4_SURFACE
 62
7
  6
CONTINUOUS
 10
18.6912508902
 20
186.3314689358
  0
VERTEX
  8
4_SURFACE
 62
7
  6
CONTINUOUS
 10
18.6931045888
 20
186.3450268179
  0
VERTEX
  8
4_SURFACE
 62
7
  6
CONTINUOUS
 10
18.6971525961
 20
186.3648244385
  0
SEQEND
  0
LINE
  8
4_SURFACE
 62
7
  6
CONTINUOUS
 10
18.6971426239
 20
186.3647840134
 11
18.7033767579
 21
186.3897726126
  0
POLYLINE
  8
4_SURFACE
 62
7
  6
CONTINUOUS
 66
1
 70
0
  0
VERTEX
  8
4_SURFACE
 62
7
  6
CONTINUOUS
 10
18.7033767579
 20
186.3897726126
  0
VERTEX
  8
4_SURFACE
 62
7
  6
CONTINUOUS
 10
18.7116297272
 20
186.4219477314
  0
VERTEX
  8
4_SURFACE
 62
7
  6
CONTINUOUS
 10
18.715039215
 20
186.4349371649
  0
SEQEND
  0
POLYLINE
  8
4_SURFACE
 62
7
  6
CONTINUOUS
 66
1
 70
0
  0
VERTEX
  8
4_SURFACE
 62
7
  6
CONTINUOUS
 10
18.7150384002
 20
186.4349408434
  0
VERTEX
  8
4_SURFACE
 62
7
  6
CONTINUOUS
 10
18.7180444846
 20
186.4460809784
  0
VERTEX
  8
4_SURFACE
 62
7
  6
CONTINUOUS
 10
18.7325860135
 20
186.4944746535
  0
VERTEX
  8
4_SURFACE
 62
7
  6
CONTINUOUS
 10
18.7489393814
 20
186.540994364
  0
VERTEX
  8
4_SURFACE
 62
7
  6
CONTINUOUS
 10
18.7669645685
 20
186.5856086477
  0
VERTEX
  8
4_SURFACE
 62
7
  6
CONTINUOUS
 10
18.7865482266
 20
186.6282831729
  0
VERTEX
  8
4_SURFACE
 62
7
  6
CONTINUOUS
 10
18.8075981639
 20
186.6690152577
  0
VERTEX
  8
4_SURFACE
 62
7
  6
CONTINUOUS
 10
18.829992429
 20
186.7077142872
  0
VERTEX
  8
4_SURFACE
 62
7
  6
CONTINUOUS
 10
18.853636292
 20
186.7443188765
  0
VERTEX
  8
4_SURFACE
 62
7
  6
CONTINUOUS
 10
18.8785138694
 20
186.7788792549
  0
VERTEX
  8
4_SURFACE
 62
7
  6
CONTINUOUS
 10
18.9046414738
 20
186.811402236
  0
VERTEX
  8
4_SURFACE
 62
7
  6
CONTINUOUS
 10
18.9320451128
 20
186.8418742175
  0
VERTEX
  8
4_SURFACE
 62
7
  6
CONTINUOUS
 10
18.9607155168
 20
186.8701644484
  0
VERTEX
  8
4_SURFACE
 62
7
  6
CONTINUOUS
 10
18.9906740921
 20
186.8961521736
  0
VERTEX
  8
4_SURFACE
 62
7
  6
CONTINUOUS
 10
19.0218517705
 20
186.9195720318
  0
VERTEX
  8
4_SURFACE
 62
7
  6
CONTINUOUS
 10
19.054448122
 20
186.9403149002
  0
VERTEX
  8
4_SURFACE
 62
7
  6
CONTINUOUS
 10
19.0888656789
 20
186.9581779215
  0
VERTEX
  8
4_SURFACE
 62
7
  6
CONTINUOUS
 10
19.1253401407
 20
186.9726342766
  0
VERTEX
  8
4_SURFACE
 62
7
  6
CONTINUOUS
 10
19.1648716313
 20
186.9830259943
  0
VERTEX
  8
4_SURFACE
 62
7
  6
CONTINUOUS
 10
19.2056976084
 20
186.9878063869
  0
VERTEX
  8
4_SURFACE
 62
7
  6
CONTINUOUS
 10
19.2164426124
 20
186.9880287287
  0
SEQEND
  0
POLYLINE
  8
4_SURFACE
 62
7
  6
CONTINUOUS
 66
1
 70
0
  0
VERTEX
  8
4_SURFACE
 62
7
  6
CONTINUOUS
 10
24.3029071925
 20
183.0646611432
  0
VERTEX
  8
4_SURFACE
 62
7
  6
CONTINUOUS
 10
24.3040615278
 20
182.6023081815
  0
VERTEX
  8
4_SURFACE
 62
7
  6
CONTINUOUS
 10
24.3075011893
 20
182.1493470544
  0
VERTEX
  8
4_SURFACE
 62
7
  6
CONTINUOUS
 10
24.3131565897
 20
181.7149821549
  0
VERTEX
  8
4_SURFACE
 62
7
  6
CONTINUOUS
 10
24.3209132387
 20
181.3080458791
  0
VERTEX
  8
4_SURFACE
 62
7
  6
CONTINUOUS
 10
24.3306139596
 20
180.9368207196
  0
VERTEX
  8
4_SURFACE
 62
7
  6
CONTINUOUS
 10
24.3420619507
 20
180.6088711295
  0
VERTEX
  8
4_SURFACE
 62
7
  6
CONTINUOUS
 10
24.3550246838
 20
180.3308877665
  0
VERTEX
  8
4_SURFACE
 62
7
  6
CONTINUOUS
 10
24.3692385259
 20
180.1085491591
  0
VERTEX
  8
4_SURFACE
 62
7
  6
CONTINUOUS
 10
24.3844140747
 20
179.9464022138
  0
VERTEX
  8
4_SURFACE
 62
7
  6
CONTINUOUS
 10
24.4002420529
 20
179.8477660566
  0
VERTEX
  8
4_SURFACE
 62
7
  6
CONTINUOUS
 10
24.4163996933
 20
179.8146611432
  0
SEQEND
  0
POLYLINE
  8
4_SURFACE
 62
7
  6
CONTINUOUS
 66
1
 70
0
  0
VERTEX
  8
4_SURFACE
 62
7
  6
CONTINUOUS
 10
24.5298921942
 20
183.0646611432
  0
VERTEX
  8
4_SURFACE
 62
7
  6
CONTINUOUS
 10
24.5287378589
 20
183.5270141049
  0
VERTEX
  8
4_SURFACE
 62
7
  6
CONTINUOUS
 10
24.5252981974
 20
183.979975232
  0
VERTEX
  8
4_SURFACE
 62
7
  6
CONTINUOUS
 10
24.5196427971
 20
184.4143401315
  0
VERTEX
  8
4_SURFACE
 62
7
  6
CONTINUOUS
 10
24.511886148
 20
184.8212764073
  0
VERTEX
  8
4_SURFACE
 62
7
  6
CONTINUOUS
 10
24.5021854272
 20
185.1925015668
  0
VERTEX
  8
4_SURFACE
 62
7
  6
CONTINUOUS
 10
24.490737436
 20
185.5204511569
  0
VERTEX
  8
4_SURFACE
 62
7
  6
CONTINUOUS
 10
24.4777747029
 20
185.7984345199
  0
VERTEX
  8
4_SURFACE
 62
7
  6
CONTINUOUS
 10
24.4635608608
 20
186.0207731273
  0
VERTEX
  8
4_SURFACE
 62
7
  6
CONTINUOUS
 10
24.4483853121
 20
186.1829200726
  0
VERTEX
  8
4_SURFACE
 62
7
  6
CONTINUOUS
 10
24.4325573339
 20
186.2815562298
  0
VERTEX
  8
4_SURFACE
 62
7
  6
CONTINUOUS
 10
24.4163996935
 20
186.3146611432
  0
SEQEND
  0
POLYLINE
  8
4_SURFACE
 62
7
  6
CONTINUOUS
 66
1
 70
0
  0
VERTEX
  8
4_SURFACE
 62
7
  6
CONTINUOUS
 10
18.8598934102
 20
179.8146611432
  0
VERTEX
  8
4_SURFACE
 62
7
  6
CONTINUOUS
 10
18.8437358256
 20
179.8477658258
  0
VERTEX
  8
4_SURFACE
 62
7
  6
CONTINUOUS
 10
18.8279078424
 20
179.9464017845
  0
VERTEX
  8
4_SURFACE
 62
7
  6
CONTINUOUS
 10
18.8127322861
 20
180.10854859
  0
VERTEX
  8
4_SURFACE
 62
7
  6
CONTINUOUS
 10
18.7985184349
 20
180.3308871325
  0
VERTEX
  8
4_SURFACE
 62
7
  6
CONTINUOUS
 10
18.7855556924
 20
180.6088705098
  0
VERTEX
  8
4_SURFACE
 62
7
  6
CONTINUOUS
 10
18.7741076925
 20
180.9368201821
  0
VERTEX
  8
4_SURFACE
 62
7
  6
CONTINUOUS
 10
18.7644069646
 20
181.30804547
  0
VERTEX
  8
4_SURFACE
 62
7
  6
CONTINUOUS
 10
18.7566503106
 20
181.7149818932
  0
VERTEX
  8
4_SURFACE
 62
7
  6
CONTINUOUS
 10
18.7509949073
 20
182.1493469292
  0
VERTEX
  8
4_SURFACE
 62
7
  6
CONTINUOUS
 10
18.7475552447
 20
182.6023081523
  0
VERTEX
  8
4_SURFACE
 62
7
  6
CONTINUOUS
 10
18.7464009092
 20
183.0646611432
  0
SEQEND
  0
LINE
  8
4_SURFACE
 62
7
  6
CONTINUOUS
 10
24.5850489411
 20
186.3314276069
 11
24.5850444819
 21
186.3314680957
  0
LINE
  8
4_SURFACE
 62
7
  6
CONTINUOUS
 10
27.4750424432
 20
177.20593494
 11
27.6792667028
 21
188.90593494
  0
LINE
  8
4_SURFACE
 62
7
  6
CONTINUOUS
 10
30.559751076
 20
184.9233873464
 11
30.4250424432
 21
177.20593494
  0
POLYLINE
  8
4_SURFACE
 62
7
  6
CONTINUOUS
 66
1
 70
0
  0
VERTEX
  8
4_SURFACE
 62
7
  6
CONTINUOUS
 10
27.629414191
 20
185.7339810141
  0
VERTEX
  8
4_SURFACE
 62
7
  6
CONTINUOUS
 10
27.6278385603
 20
185.6972396504
  0
VERTEX
  8
4_SURFACE
 62
7
  6
CONTINUOUS
 10
27.6252635179
 20
185.6315198884
  0
SEQEND
  0
POLYLINE
  8
4_SURFACE
 62
7
  6
CONTINUOUS
 66
1
 70
0
  0
VERTEX
  8
4_SURFACE
 62
7
  6
CONTINUOUS
 10
27.6452670197
 20
185.8931746488
  0
VERTEX
  8
4_SURFACE
 62
7
  6
CONTINUOUS
 10
27.6405634215
 20
185.8633253024
  0
VERTEX
  8
4_SURFACE
 62
7
  6
CONTINUOUS
 10
27.6332813638
 20
185.7964813378
  0
VERTEX
  8
4_SURFACE
 62
7
  6
CONTINUOUS
 10
27.6294160222
 20
185.7338555121
  0
SEQEND
  0
POLYLINE
  8
4_SURFACE
 62
7
  6
CONTINUOUS
 66
1
 70
0
  0
VERTEX
  8
4_SURFACE
 62
7
  6
CONTINUOUS
 10
24.4163996935
 20
186.3146611432
  0
VERTEX
  8
4_SURFACE
 62
7
  6
CONTINUOUS
 10
24.4002421089
 20
186.2815564606
  0
VERTEX
  8
4_SURFACE
 62
7
  6
CONTINUOUS
 10
24.3844141257
 20
186.1829205019
  0
VERTEX
  8
4_SURFACE
 62
7
  6
CONTINUOUS
 10
24.3692385694
 20
186.0207736964
  0
VERTEX
  8
4_SURFACE
 62
7
  6
CONTINUOUS
 10
24.3550247182
 20
185.7984351538
  0
VERTEX
  8
4_SURFACE
 62
7
  6
CONTINUOUS
 10
24.3420619757
 20
185.5204517766
  0
VERTEX
  8
4_SURFACE
 62
7
  6
CONTINUOUS
 10
24.3306139758
 20
185.1925021043
  0
VERTEX
  8
4_SURFACE
 62
7
  6
CONTINUOUS
 10
24.3209132479
 20
184.8212768164
  0
VERTEX
  8
4_SURFACE
 62
7
  6
CONTINUOUS
 10
24.3131565939
 20
184.4143403932
  0
VERTEX
  8
4_SURFACE
 62
7
  6
CONTINUOUS
 10
24.3075011906
 20
183.9799753572
  0
VERTEX
  8
4_SURFACE
 62
7
  6
CONTINUOUS
 10
24.304061528
 20
183.5270141341
  0
VERTEX
  8
4_SURFACE
 62
7
  6
CONTINUOUS
 10
24.3029071925
 20
183.0646611432
  0
SEQEND
  0
POLYLINE
  8
4_SURFACE
 62
7
  6
CONTINUOUS
 66
1
 70
0
  0
VERTEX
  8
4_SURFACE
 62
7
  6
CONTINUOUS
 10
18.85989341
 20
186.3146611432
  0
VERTEX
  8
4_SURFACE
 62
7
  6
CONTINUOUS
 10
18.8760509945
 20
186.2815564606
  0
VERTEX
  8
4_SURFACE
 62
7
  6
CONTINUOUS
 10
18.8918789777
 20
186.1829205019
  0
VERTEX
  8
4_SURFACE
 62
7
  6
CONTINUOUS
 10
18.907054534
 20
186.0207736964
  0
VERTEX
  8
4_SURFACE
 62
7
  6
CONTINUOUS
 10
18.9212683852
 20
185.7984351538
  0
VERTEX
  8
4_SURFACE
 62
7
  6
CONTINUOUS
 10
18.9342311277
 20
185.5204517766
  0
VERTEX
  8
4_SURFACE
 62
7
  6
CONTINUOUS
 10
18.9456791276
 20
185.1925021043
  0
VERTEX
  8
4_SURFACE
 62
7
  6
CONTINUOUS
 10
18.9553798555
 20
184.8212768164
  0
VERTEX
  8
4_SURFACE
 62
7
  6
CONTINUOUS
 10
18.9631365096
 20
184.4143403932
  0
VERTEX
  8
4_SURFACE
 62
7
  6
CONTINUOUS
 10
18.9687919129
 20
183.9799753572
  0
VERTEX
  8
4_SURFACE
 62
7
  6
CONTINUOUS
 10
18.9722315755
 20
183.5270141341
  0
VERTEX
  8
4_SURFACE
 62
7
  6
CONTINUOUS
 10
18.9733859109
 20
183.0646611432
  0
SEQEND
  0
LINE
  8
4_SURFACE
 62
7
  6
CONTINUOUS
 10
24.5612537353
 20
186.4349377318
 11
24.5664161583
 21
186.4152009968
  0
LINE
  8
4_SURFACE
 62
7
  6
CONTINUOUS
 10
24.5664161583
 20
186.4152009968
 11
24.5715977313
 21
186.3949828
  0
LINE
  8
4_SURFACE
 62
7
  6
CONTINUOUS
 10
24.5715977313
 20
186.3949828
 11
24.5791575412
 21
186.3647558261
  0
POLYLINE
  8
4_SURFACE
 62
7
  6
CONTINUOUS
 66
1
 70
0
  0
VERTEX
  8
4_SURFACE
 62
7
  6
CONTINUOUS
 10
24.5791405589
 20
186.3648242337
  0
VERTEX
  8
4_SURFACE
 62
7
  6
CONTINUOUS
 10
24.5830827858
 20
186.3456681094
  0
VERTEX
  8
4_SURFACE
 62
7
  6
CONTINUOUS
 10
24.5850423382
 20
186.3314677257
  0
SEQEND
  0
POLYLINE
  8
4_SURFACE
 62
7
  6
CONTINUOUS
 66
1
 70
0
  0
VERTEX
  8
4_SURFACE
 62
7
  6
CONTINUOUS
 10
24.4163996933
 20
179.8146611432
  0
VERTEX
  8
4_SURFACE
 62
7
  6
CONTINUOUS
 10
24.4325572778
 20
179.8477658258
  0
VERTEX
  8
4_SURFACE
 62
7
  6
CONTINUOUS
 10
24.448385261
 20
179.9464017845
  0
VERTEX
  8
4_SURFACE
 62
7
  6
CONTINUOUS
 10
24.4635608173
 20
180.10854859
  0
VERTEX
  8
4_SURFACE
 62
7
  6
CONTINUOUS
 10
24.4777746685
 20
180.3308871325
  0
VERTEX
  8
4_SURFACE
 62
7
  6
CONTINUOUS
 10
24.490737411
 20
180.6088705098
  0
VERTEX
  8
4_SURFACE
 62
7
  6
CONTINUOUS
 10
24.5021854109
 20
180.9368201821
  0
VERTEX
  8
4_SURFACE
 62
7
  6
CONTINUOUS
 10
24.5118861388
 20
181.30804547
  0
VERTEX
  8
4_SURFACE
 62
7
  6
CONTINUOUS
 10
24.5196427929
 20
181.7149818932
  0
VERTEX
  8
4_SURFACE
 62
7
  6
CONTINUOUS
 10
24.5252981962
 20
182.1493469292
  0
VERTEX
  8
4_SURFACE
 62
7
  6
CONTINUOUS
 10
24.5287378588
 20
182.6023081523
  0
VERTEX
  8
4_SURFACE
 62
7
  6
CONTINUOUS
 10
24.5298921942
 20
183.0646611432
  0
SEQEND
  0
POLYLINE
  8
4_SURFACE
 62
7
  6
CONTINUOUS
 66
1
 70
0
  0
VERTEX
  8
4_SURFACE
 62
7
  6
CONTINUOUS
 10
27.7577173456
 20
186.144690614
  0
VERTEX
  8
4_SURFACE
 62
7
  6
CONTINUOUS
 10
27.7087248458
 20
186.0763746225
  0
VERTEX
  8
4_SURFACE
 62
7
  6
CONTINUOUS
 10
27.675170537
 20
186.0055673318
  0
VERTEX
  8
4_SURFACE
 62
7
  6
CONTINUOUS
 10
27.6535572462
 20
185.9338134288
  0
VERTEX
  8
4_SURFACE
 62
7
  6
CONTINUOUS
 10
27.6452670197
 20
185.8931746488
  0
SEQEND
  0
LINE
  8
4_SURFACE
 62
7
  6
CONTINUOUS
 10
50.7165420275
 20
184.9233873464
 11
50.8512506603
 21
177.20593494
  0
POLYLINE
  8
4_SURFACE
 62
7
  6
CONTINUOUS
 66
1
 70
0
  0
VERTEX
  8
4_SURFACE
 62
7
  6
CONTINUOUS
 10
53.5468771135
 20
185.7338587511
  0
VERTEX
  8
4_SURFACE
 62
7
  6
CONTINUOUS
 10
53.5430478246
 20
185.7960375715
  0
VERTEX
  8
4_SURFACE
 62
7
  6
CONTINUOUS
 10
53.5357748292
 20
185.8630034503
  0
VERTEX
  8
4_SURFACE
 62
7
  6
CONTINUOUS
 10
53.5310240953
 20
185.8931858965
  0
SEQEND
  0
LINE
  8
4_SURFACE
 62
7
  6
CONTINUOUS
 10
53.5468791294
 20
185.7339760991
 11
53.5498274585
 21
185.6631694277
  0
LINE
  8
4_SURFACE
 62
7
  6
CONTINUOUS
 10
53.5498274585
 20
185.6631694277
 11
53.5510296723
 21
185.6315175347
  0
LINE
  8
4_SURFACE
 62
7
  6
CONTINUOUS
 10
53.4970264006
 20
188.90593494
 11
53.7012506603
 21
177.20593494
  0
POLYLINE
  8
4_SURFACE
 62
7
  6
CONTINUOUS
 66
1
 70
0
  0
VERTEX
  8
4_SURFACE
 62
7
  6
CONTINUOUS
 10
53.5310240953
 20
185.8931858965
  0
VERTEX
  8
4_SURFACE
 62
7
  6
CONTINUOUS
 10
53.5228598267
 20
185.9332839524
  0
VERTEX
  8
4_SURFACE
 62
7
  6
CONTINUOUS
 10
53.5012357887
 20
186.0052668101
  0
VERTEX
  8
4_SURFACE
 62
7
  6
CONTINUOUS
 10
53.4676405619
 20
186.0762504654
  0
VERTEX
  8
4_SURFACE
 62
7
  6
CONTINUOUS
 10
53.4185757649
 20
186.1446906327
  0
SEQEND
  0
LINE
  8
4_SURFACE
 62
7
  6
CONTINUOUS
 10
78.3792667028
 20
188.90593494
 11
78.1750424432
 21
177.20593494
  0
LINE
  8
4_SURFACE
 62
7
  6
CONTINUOUS
 10
81.159751076
 20
184.9233873464
 11
81.0250424432
 21
177.20593494
  0
POLYLINE
  8
4_SURFACE
 62
7
  6
CONTINUOUS
 66
1
 70
0
  0
VERTEX
  8
4_SURFACE
 62
7
  6
CONTINUOUS
 10
78.3294142735
 20
185.7339813702
  0
VERTEX
  8
4_SURFACE
 62
7
  6
CONTINUOUS
 10
78.3278934658
 20
185.6985592234
  0
VERTEX
  8
4_SURFACE
 62
7
  6
CONTINUOUS
 10
78.3253905579
 20
185.6349516893
  0
SEQEND
  0
POLYLINE
  8
4_SURFACE
 62
7
  6
CONTINUOUS
 66
1
 70
0
  0
VERTEX
  8
4_SURFACE
 62
7
  6
CONTINUOUS
 10
78.3452669914
 20
185.8931744215
  0
VERTEX
  8
4_SURFACE
 62
7
  6
CONTINUOUS
 10
78.3405480534
 20
185.8632158554
  0
VERTEX
  8
4_SURFACE
 62
7
  6
CONTINUOUS
 10
78.3332712885
 20
185.7963577019
  0
VERTEX
  8
4_SURFACE
 62
7
  6
CONTINUOUS
 10
78.3294161034
 20
185.7338558555
  0
SEQEND
  0
POLYLINE
  8
4_SURFACE
 62
7
  6
CONTINUOUS
 66
1
 70
0
  0
VERTEX
  8
4_SURFACE
 62
7
  6
CONTINUOUS
 10
78.457717243
 20
186.1446902861
  0
VERTEX
  8
4_SURFACE
 62
7
  6
CONTINUOUS
 10
78.4086958898
 20
186.0763248006
  0
VERTEX
  8
4_SURFACE
 62
7
  6
CONTINUOUS
 10
78.3751338463
 20
186.0054698136
  0
VERTEX
  8
4_SURFACE
 62
7
  6
CONTINUOUS
 10
78.353528207
 20
185.9336894489
  0
VERTEX
  8
4_SURFACE
 62
7
  6
CONTINUOUS
 10
78.3452669914
 20
185.8931744215
  0
SEQEND
  0
POLYLINE
  8
0
 62
7
  6
CONTINUOUS
 66
1
 70
0
  0
VERTEX
  8
0
 62
7
  6
CONTINUOUS
 10
157.5200832099
 20
176.7146750291
  0
VERTEX
  8
0
 62
7
  6
CONTINUOUS
 10
157.6311093285
 20
176.7280114915
  0
VERTEX
  8
0
 62
7
  6
CONTINUOUS
 10
157.7363755874
 20
176.7656416998
  0
VERTEX
  8
0
 62
7
  6
CONTINUOUS
 10
157.8306511006
 20
176.8256057356
  0
VERTEX
  8
0
 62
7
  6
CONTINUOUS
 10
157.9092803097
 20
176.9048352053
  0
VERTEX
  8
0
 62
7
  6
CONTINUOUS
 10
157.9684209644
 20
176.9993206339
  0
VERTEX
  8
0
 62
7
  6
CONTINUOUS
 10
158.0052284125
 20
177.1043306668
  0
VERTEX
  8
0
 62
7
  6
CONTINUOUS
 10
158.0179764912
 20
177.2146611432
  0
SEQEND
  0
POLYLINE
  8
4_SURFACE
 62
7
  6
CONTINUOUS
 66
1
 70
0
  0
VERTEX
  8
4_SURFACE
 62
7
  6
CONTINUOUS
 10
24.9562098936
 20
176.7146750291
  0
VERTEX
  8
4_SURFACE
 62
7
  6
CONTINUOUS
 10
24.845183775
 20
176.7280114915
  0
VERTEX
  8
4_SURFACE
 62
7
  6
CONTINUOUS
 10
24.739917516
 20
176.7656416998
  0
VERTEX
  8
4_SURFACE
 62
7
  6
CONTINUOUS
 10
24.6456420029
 20
176.8256057356
  0
VERTEX
  8
4_SURFACE
 62
7
  6
CONTINUOUS
 10
24.5670127937
 20
176.9048352053
  0
VERTEX
  8
4_SURFACE
 62
7
  6
CONTINUOUS
 10
24.5078721391
 20
176.9993206339
  0
VERTEX
  8
4_SURFACE
 62
7
  6
CONTINUOUS
 10
24.4710646909
 20
177.1043306668
  0
VERTEX
  8
4_SURFACE
 62
7
  6
CONTINUOUS
 10
24.4583166122
 20
177.2146611432
  0
SEQEND
  0
LINE
  8
4_SURFACE
 62
7
  6
CONTINUOUS
 10
15.6381465517
 20
176.7146611432
 11
83.4745187832
 21
176.7146611432
  0
LINE
  8
0
 62
7
  6
CONTINUOUS
 10
83.4745187832
 20
176.7146611432
 11
166.8381465517
 21
176.7146611432
  0
LINE
  8
0
 62
7
  6
CONTINUOUS
 10
62.8152465269
 20
183.0646611432
 11
69.0610465751
 21
183.0646611432
  0
LINE
  8
0
 62
7
  6
CONTINUOUS
 10
113.4152465269
 20
183.0646611432
 11
119.6610465751
 21
183.0646611432
  0
LINE
  8
1_AXIS
 62
2
  6
CENTER
 10
13.0911728665
 20
183.0646611432
 11
171.1965557987
 21
183.0646611432
  0
POLYLINE
  8
4_SURFACE
 62
7
  6
CONTINUOUS
 66
1
 70
0
  0
VERTEX
  8
4_SURFACE
 62
7
  6
CONTINUOUS
 10
18.3200832099
 20
176.7146750291
  0
VERTEX
  8
4_SURFACE
 62
7
  6
CONTINUOUS
 10
18.4311093285
 20
176.7280114915
  0
VERTEX
  8
4_SURFACE
 62
7
  6
CONTINUOUS
 10
18.5363755874
 20
176.7656416998
  0
VERTEX
  8
4_SURFACE
 62
7
  6
CONTINUOUS
 10
18.6306511006
 20
176.8256057356
  0
VERTEX
  8
4_SURFACE
 62
7
  6
CONTINUOUS
 10
18.7092803097
 20
176.9048352053
  0
VERTEX
  8
4_SURFACE
 62
7
  6
CONTINUOUS
 10
18.7684209644
 20
176.9993206339
  0
VERTEX
  8
4_SURFACE
 62
7
  6
CONTINUOUS
 10
18.8052284125
 20
177.1043306668
  0
VERTEX
  8
4_SURFACE
 62
7
  6
CONTINUOUS
 10
18.8179764912
 20
177.2146611432
  0
SEQEND
  0
LINE
  8
0
 62
7
  6
CONTINUOUS
 10
151.4236194299
 20
185.4146611432
 11
132.2526736735
 21
185.4146611432
  0
LINE
  8
0
 62
7
  6
CONTINUOUS
 10
100.8236194299
 20
185.4146611432
 11
81.6526736735
 21
185.4146611432
  0
LINE
  8
4_SURFACE
 62
7
  6
CONTINUOUS
 10
50.2236194299
 20
185.4146611432
 11
31.0526736735
 21
185.4146611432
  0
LINE
  8
0
 62
7
  6
CONTINUOUS
 10
163.2598504912
 20
186.9880367327
 11
158.4164423772
 21
186.9880367327
  0
LINE
  8
4_SURFACE
 62
7
  6
CONTINUOUS
 10
24.0598507262
 20
186.9880367327
 11
19.2164426122
 21
186.9880367327
  0
POLYLINE
  8
4_SURFACE
 62
7
  6
CONTINUOUS
 66
1
 70
0
  0
VERTEX
  8
4_SURFACE
 62
7
  6
CONTINUOUS
 10
24.059850727
 20
186.9880287293
  0
VERTEX
  8
4_SURFACE
 62
7
  6
CONTINUOUS
 10
24.067927849
 20
186.9879027537
  0
VERTEX
  8
4_SURFACE
 62
7
  6
CONTINUOUS
 10
24.1088911872
 20
186.9835011406
  0
VERTEX
  8
4_SURFACE
 62
7
  6
CONTINUOUS
 10
24.1486484273
 20
186.9733916545
  0
VERTEX
  8
4_SURFACE
 62
7
  6
CONTINUOUS
 10
24.1852955879
 20
186.9591498386
  0
VERTEX
  8
4_SURFACE
 62
7
  6
CONTINUOUS
 10
24.2198477136
 20
186.9414640258
  0
VERTEX
  8
4_SURFACE
 62
7
  6
CONTINUOUS
 10
24.2525442429
 20
186.9208825056
  0
VERTEX
  8
4_SURFACE
 62
7
  6
CONTINUOUS
 10
24.2838165154
 20
186.8976048843
  0
VERTEX
  8
4_SURFACE
 62
7
  6
CONTINUOUS
 10
24.3138565173
 20
186.8717533145
  0
VERTEX
  8
4_SURFACE
 62
7
  6
CONTINUOUS
 10
24.3426023101
 20
186.8435941397
  0
VERTEX
  8
4_SURFACE
 62
7
  6
CONTINUOUS
 10
24.3700724104
 20
186.8132551842
  0
VERTEX
  8
4_SURFACE
 62
7
  6
CONTINUOUS
 10
24.3962651235
 20
186.7808645221
  0
VERTEX
  8
4_SURFACE
 62
7
  6
CONTINUOUS
 10
24.4212052918
 20
186.7464406621
  0
VERTEX
  8
4_SURFACE
 62
7
  6
CONTINUOUS
 10
24.4449166263
 20
186.7099696604
  0
VERTEX
  8
4_SURFACE
 62
7
  6
CONTINUOUS
 10
24.467382904
 20
186.6714048804
  0
VERTEX
  8
4_SURFACE
 62
7
  6
CONTINUOUS
 10
24.4885094122
 20
186.63080827
  0
VERTEX
  8
4_SURFACE
 62
7
  6
CONTINUOUS
 10
24.5081754704
 20
186.5882722912
  0
VERTEX
  8
4_SURFACE
 62
7
  6
CONTINUOUS
 10
24.5262891498
 20
186.5438012559
  0
VERTEX
  8
4_SURFACE
 62
7
  6
CONTINUOUS
 10
24.5427401089
 20
186.4974266332
  0
VERTEX
  8
4_SURFACE
 62
7
  6
CONTINUOUS
 10
24.5573892531
 20
186.4491827738
  0
VERTEX
  8
4_SURFACE
 62
7
  6
CONTINUOUS
 10
24.5612545671
 20
186.4349412781
  0
SEQEND
  0
POLYLINE
  8
0
 62
7
  6
CONTINUOUS
 66
1
 70
0
  0
VERTEX
  8
0
 62
7
  6
CONTINUOUS
 10
163.2598504911
 20
186.9880287287
  0
VERTEX
  8
0
 62
7
  6
CONTINUOUS
 10
163.2705954951
 20
186.9878063869
  0
VERTEX
  8
0
 62
7
  6
CONTINUOUS
 10
163.3114214722
 20
186.9830259943
  0
VERTEX
  8
0
 62
7
  6
CONTINUOUS
 10
163.3509529627
 20
186.9726342766
  0
VERTEX
  8
0
 62
7
  6
CONTINUOUS
 10
163.3874274246
 20
186.9581779215
  0
VERTEX
  8
0
 62
7
  6
CONTINUOUS
 10
163.4218449813
 20
186.9403149003
  0
VERTEX
  8
0
 62
7
  6
CONTINUOUS
 10
163.4544413328
 20
186.9195720319
  0
VERTEX
  8
0
 62
7
  6
CONTINUOUS
 10
163.4856190113
 20
186.8961521737
  0
VERTEX
  8
0
 62
7
  6
CONTINUOUS
 10
163.5155775865
 20
186.8701644485
  0
VERTEX
  8
0
 62
7
  6
CONTINUOUS
 10
163.5442479906
 20
186.8418742176
  0
VERTEX
  8
0
 62
7
  6
CONTINUOUS
 10
163.5716516296
 20
186.8114022361
  0
VERTEX
  8
0
 62
7
  6
CONTINUOUS
 10
163.597779234
 20
186.778879255
  0
VERTEX
  8
0
 62
7
  6
CONTINUOUS
 10
163.6226568114
 20
186.7443188766
  0
VERTEX
  8
0
 62
7
  6
CONTINUOUS
 10
163.6463006744
 20
186.7077142873
  0
VERTEX
  8
0
 62
7
  6
CONTINUOUS
 10
163.6686949395
 20
186.6690152578
  0
VERTEX
  8
0
 62
7
  6
CONTINUOUS
 10
163.6897448768
 20
186.628283173
  0
VERTEX
  8
0
 62
7
  6
CONTINUOUS
 10
163.7093285349
 20
186.5856086477
  0
VERTEX
  8
0
 62
7
  6
CONTINUOUS
 10
163.727353722
 20
186.540994364
  0
VERTEX
  8
0
 62
7
  6
CONTINUOUS
 10
163.7437070899
 20
186.4944746535
  0
VERTEX
  8
0
 62
7
  6
CONTINUOUS
 10
163.7582486188
 20
186.4460809785
  0
VERTEX
  8
0
 62
7
  6
CONTINUOUS
 10
163.7612547033
 20
186.4349408434
  0
SEQEND
  0
POLYLINE
  8
0
 62
7
  6
CONTINUOUS
 66
1
 70
0
  0
VERTEX
  8
0
 62
7
  6
CONTINUOUS
 10
164.1562098936
 20
176.7146750291
  0
VERTEX
  8
0
 62
7
  6
CONTINUOUS
 10
164.045183775
 20
176.7280114915
  0
VERTEX
  8
0
 62
7
  6
CONTINUOUS
 10
163.939917516
 20
176.7656416998
  0
VERTEX
  8
0
 62
7
  6
CONTINUOUS
 10
163.8456420029
 20
176.8256057356
  0
VERTEX
  8
0
 62
7
  6
CONTINUOUS
 10
163.7670127937
 20
176.9048352053
  0
VERTEX
  8
0
 62
7
  6
CONTINUOUS
 10
163.7078721391
 20
176.9993206339
  0
VERTEX
  8
0
 62
7
  6
CONTINUOUS
 10
163.6710646909
 20
177.1043306668
  0
VERTEX
  8
0
 62
7
  6
CONTINUOUS
 10
163.6583166122
 20
177.2146611432
  0
SEQEND
  0
LINE
  8
0
 62
7
  6
CONTINUOUS
 10
101.3165420275
 20
184.9233873464
 11
101.4512506603
 21
177.20593494
  0
LINE
  8
4_SURFACE
 62
7
  6
CONTINUOUS
 10
17.1817151377
 20
189.4146611432
 11
79.1795408817
 21
189.4146611432
  0
LINE
  8
0
 62
7
  6
CONTINUOUS
 10
79.1795408817
 20
189.4146611432
 11
165.2945779657
 21
189.4146611432
  0
LINE
  8
0
 62
7
  6
CONTINUOUS
 10
104.14687883
 20
185.7339813702
 11
104.1497310598
 21
185.6656296246
  0
LINE
  8
0
 62
7
  6
CONTINUOUS
 10
104.1497310598
 20
185.6656296246
 11
104.1509025455
 21
185.6349516893
  0
LINE
  8
0
 62
7
  6
CONTINUOUS
 10
104.0970264006
 20
188.90593494
 11
104.3012506603
 21
177.20593494
  0
POLYLINE
  8
0
 62
7
  6
CONTINUOUS
 66
1
 70
0
  0
VERTEX
  8
0
 62
7
  6
CONTINUOUS
 10
104.0185758605
 20
186.1446902861
  0
VERTEX
  8
0
 62
7
  6
CONTINUOUS
 10
104.0675972137
 20
186.0763248006
  0
VERTEX
  8
0
 62
7
  6
CONTINUOUS
 10
104.1011592571
 20
186.0054698136
  0
VERTEX
  8
0
 62
7
  6
CONTINUOUS
 10
104.1227648964
 20
185.9336894489
  0
VERTEX
  8
0
 62
7
  6
CONTINUOUS
 10
104.1309774092
 20
185.8934513032
  0
SEQEND
  0
POLYLINE
  8
0
 62
7
  6
CONTINUOUS
 66
1
 70
0
  0
VERTEX
  8
0
 62
7
  6
CONTINUOUS
 10
104.1309774092
 20
185.8934513032
  0
VERTEX
  8
0
 62
7
  6
CONTINUOUS
 10
104.1357450501
 20
185.8632158554
  0
VERTEX
  8
0
 62
7
  6
CONTINUOUS
 10
104.1430218149
 20
185.7963577019
  0
VERTEX
  8
0
 62
7
  6
CONTINUOUS
 10
104.146877
 20
185.7338558555
  0
SEQEND
  0
LINE
  8
4_SURFACE
 62
7
  6
CONTINUOUS
 10
17.0954240382
 20
189.4061166405
 11
15.4918554523
 21
189.0854029233
  0
LINE
  8
0
 62
7
  6
CONTINUOUS
 10
165.3808690652
 20
189.4061166405
 11
166.9844376512
 21
189.0854029233
  0
LINE
  8
0
 62
7
  6
CONTINUOUS
 10
128.9792667028
 20
188.90593494
 11
128.7750424432
 21
177.20593494
  0
LINE
  8
0
 62
7
  6
CONTINUOUS
 10
131.759751076
 20
184.9233873464
 11
131.6250424432
 21
177.20593494
  0
POLYLINE
  8
0
 62
7
  6
CONTINUOUS
 66
1
 70
0
  0
VERTEX
  8
0
 62
7
  6
CONTINUOUS
 10
128.929413974
 20
185.7339760991
  0
VERTEX
  8
0
 62
7
  6
CONTINUOUS
 10
128.9278384631
 20
185.697237309
  0
VERTEX
  8
0
 62
7
  6
CONTINUOUS
 10
128.9252634311
 20
185.6315175347
  0
SEQEND
  0
POLYLINE
  8
0
 62
7
  6
CONTINUOUS
 66
1
 70
0
  0
VERTEX
  8
0
 62
7
  6
CONTINUOUS
 10
128.9294159899
 20
185.7338587511
  0
VERTEX
  8
0
 62
7
  6
CONTINUOUS
 10
128.9332452789
 20
185.7960375715
  0
VERTEX
  8
0
 62
7
  6
CONTINUOUS
 10
128.9405182743
 20
185.8630034503
  0
VERTEX
  8
0
 62
7
  6
CONTINUOUS
 10
128.9453158512
 20
185.8934521998
  0
SEQEND
  0
POLYLINE
  8
0
 62
7
  6
CONTINUOUS
 66
1
 70
0
  0
VERTEX
  8
0
 62
7
  6
CONTINUOUS
 10
128.9453158512
 20
185.8934521998
  0
VERTEX
  8
0
 62
7
  6
CONTINUOUS
 10
128.9534332768
 20
185.9332839524
  0
VERTEX
  8
0
 62
7
  6
CONTINUOUS
 10
128.9750573147
 20
186.0052668101
  0
VERTEX
  8
0
 62
7
  6
CONTINUOUS
 10
129.0086525415
 20
186.0762504654
  0
VERTEX
  8
0
 62
7
  6
CONTINUOUS
 10
129.0577173386
 20
186.1446906327
  0
SEQEND
  0
POLYLINE
  8
0
 62
7
  6
CONTINUOUS
 66
1
 70
0
  0
VERTEX
  8
0
 62
7
  6
CONTINUOUS
 10
154.7185757578
 20
186.144690614
  0
VERTEX
  8
0
 62
7
  6
CONTINUOUS
 10
154.7675682577
 20
186.0763746225
  0
VERTEX
  8
0
 62
7
  6
CONTINUOUS
 10
154.8011225665
 20
186.0055673318
  0
VERTEX
  8
0
 62
7
  6
CONTINUOUS
 10
154.8227358572
 20
185.9338134288
  0
VERTEX
  8
0
 62
7
  6
CONTINUOUS
 10
154.8309773832
 20
185.8934515174
  0
SEQEND
  0
LINE
  8
0
 62
7
  6
CONTINUOUS
 10
151.9165420275
 20
184.9233873464
 11
152.0512506603
 21
177.20593494
  0
POLYLINE
  8
1_AXIS
 62
7
  6
CONTINUOUS
 66
1
 70
0
  0
VERTEX
  8
1_AXIS
 62
7
  6
CONTINUOUS
 10
158.0598934102
 20
179.8146611432
  0
VERTEX
  8
1_AXIS
 62
7
  6
CONTINUOUS
 10
158.0437358256
 20
179.8477658258
  0
VERTEX
  8
1_AXIS
 62
7
  6
CONTINUOUS
 10
158.0279078424
 20
179.9464017845
  0
VERTEX
  8
1_AXIS
 62
7
  6
CONTINUOUS
 10
158.0127322861
 20
180.10854859
  0
VERTEX
  8
1_AXIS
 62
7
  6
CONTINUOUS
 10
157.9985184349
 20
180.3308871325
  0
VERTEX
  8
1_AXIS
 62
7
  6
CONTINUOUS
 10
157.9855556924
 20
180.6088705098
  0
VERTEX
  8
1_AXIS
 62
7
  6
CONTINUOUS
 10
157.9741076925
 20
180.9368201821
  0
VERTEX
  8
1_AXIS
 62
7
  6
CONTINUOUS
 10
157.9644069646
 20
181.30804547
  0
VERTEX
  8
1_AXIS
 62
7
  6
CONTINUOUS
 10
157.9566503106
 20
181.7149818932
  0
VERTEX
  8
1_AXIS
 62
7
  6
CONTINUOUS
 10
157.9509949073
 20
182.1493469292
  0
VERTEX
  8
1_AXIS
 62
7
  6
CONTINUOUS
 10
157.9475552447
 20
182.6023081523
  0
VERTEX
  8
1_AXIS
 62
7
  6
CONTINUOUS
 10
157.9464009092
 20
183.0646611432
  0
SEQEND
  0
POLYLINE
  8
1_AXIS
 62
7
  6
CONTINUOUS
 66
1
 70
0
  0
VERTEX
  8
1_AXIS
 62
7
  6
CONTINUOUS
 10
158.05989341
 20
186.3146611432
  0
VERTEX
  8
1_AXIS
 62
7
  6
CONTINUOUS
 10
158.0760509945
 20
186.2815564606
  0
VERTEX
  8
1_AXIS
 62
7
  6
CONTINUOUS
 10
158.0918789777
 20
186.1829205019
  0
VERTEX
  8
1_AXIS
 62
7
  6
CONTINUOUS
 10
158.107054534
 20
186.0207736964
  0
VERTEX
  8
1_AXIS
 62
7
  6
CONTINUOUS
 10
158.1212683852
 20
185.7984351538
  0
VERTEX
  8
1_AXIS
 62
7
  6
CONTINUOUS
 10
158.1342311277
 20
185.5204517766
  0
VERTEX
  8
1_AXIS
 62
7
  6
CONTINUOUS
 10
158.1456791276
 20
185.1925021043
  0
VERTEX
  8
1_AXIS
 62
7
  6
CONTINUOUS
 10
158.1553798555
 20
184.8212768164
  0
VERTEX
  8
1_AXIS
 62
7
  6
CONTINUOUS
 10
158.1631365096
 20
184.4143403932
  0
VERTEX
  8
1_AXIS
 62
7
  6
CONTINUOUS
 10
158.1687919129
 20
183.9799753572
  0
VERTEX
  8
1_AXIS
 62
7
  6
CONTINUOUS
 10
158.1722315755
 20
183.5270141341
  0
VERTEX
  8
1_AXIS
 62
7
  6
CONTINUOUS
 10
158.1733859109
 20
183.0646611432
  0
SEQEND
  0
LINE
  8
0
 62
7
  6
CONTINUOUS
 10
154.8468789124
 20
185.7339810141
 11
154.8498273664
 21
185.6631717841
  0
LINE
  8
0
 62
7
  6
CONTINUOUS
 10
154.8498273664
 20
185.6631717841
 11
154.8510295855
 21
185.6315198884
  0
LINE
  8
0
 62
7
  6
CONTINUOUS
 10
155.0012506603
 20
177.20593494
 11
154.7970264006
 21
188.90593494
  0
POLYLINE
  8
1_AXIS
 62
7
  6
CONTINUOUS
 66
1
 70
0
  0
VERTEX
  8
1_AXIS
 62
7
  6
CONTINUOUS
 10
157.9464009092
 20
183.0646611432
  0
VERTEX
  8
1_AXIS
 62
7
  6
CONTINUOUS
 10
157.9475552445
 20
183.5270141049
  0
VERTEX
  8
1_AXIS
 62
7
  6
CONTINUOUS
 10
157.950994906
 20
183.979975232
  0
VERTEX
  8
1_AXIS
 62
7
  6
CONTINUOUS
 10
157.9566503064
 20
184.4143401315
  0
VERTEX
  8
1_AXIS
 62
7
  6
CONTINUOUS
 10
157.9644069554
 20
184.8212764073
  0
VERTEX
  8
1_AXIS
 62
7
  6
CONTINUOUS
 10
157.9741076763
 20
185.1925015668
  0
VERTEX
  8
1_AXIS
 62
7
  6
CONTINUOUS
 10
157.9855556674
 20
185.5204511569
  0
VERTEX
  8
1_AXIS
 62
7
  6
CONTINUOUS
 10
157.9985184005
 20
185.7984345199
  0
VERTEX
  8
1_AXIS
 62
7
  6
CONTINUOUS
 10
158.0127322426
 20
186.0207731273
  0
VERTEX
  8
1_AXIS
 62
7
  6
CONTINUOUS
 10
158.0279077914
 20
186.1829200726
  0
VERTEX
  8
1_AXIS
 62
7
  6
CONTINUOUS
 10
158.0437357696
 20
186.2815562298
  0
VERTEX
  8
1_AXIS
 62
7
  6
CONTINUOUS
 10
158.05989341
 20
186.3146611432
  0
SEQEND
  0
LINE
  8
0
 62
7
  6
CONTINUOUS
 10
157.891244273
 20
186.3314286118
 11
157.8912483536
 21
186.3314656642
  0
POLYLINE
  8
0
 62
7
  6
CONTINUOUS
 66
1
 70
0
  0
VERTEX
  8
0
 62
7
  6
CONTINUOUS
 10
157.8912504974
 20
186.3314652942
  0
VERTEX
  8
0
 62
7
  6
CONTINUOUS
 10
157.8931014788
 20
186.3450077848
  0
VERTEX
  8
0
 62
7
  6
CONTINUOUS
 10
157.8971527088
 20
186.3648248997
  0
SEQEND
  0
LINE
  8
0
 62
7
  6
CONTINUOUS
 10
157.8971426321
 20
186.3647840507
 11
157.9026374548
 21
186.3868398412
  0
LINE
  8
0
 62
7
  6
CONTINUOUS
 10
157.9026374548
 20
186.3868398412
 11
157.9090161263
 21
186.4118704279
  0
LINE
  8
0
 62
7
  6
CONTINUOUS
 10
157.9090161263
 20
186.4118704279
 11
157.9150393702
 21
186.4349377396
  0
POLYLINE
  8
0
 62
7
  6
CONTINUOUS
 66
1
 70
0
  0
VERTEX
  8
0
 62
7
  6
CONTINUOUS
 10
157.9150385363
 20
186.4349412781
  0
VERTEX
  8
0
 62
7
  6
CONTINUOUS
 10
157.9189038503
 20
186.4491827738
  0
VERTEX
  8
0
 62
7
  6
CONTINUOUS
 10
157.9335529946
 20
186.4974266332
  0
VERTEX
  8
0
 62
7
  6
CONTINUOUS
 10
157.9500039536
 20
186.5438012559
  0
VERTEX
  8
0
 62
7
  6
CONTINUOUS
 10
157.968117633
 20
186.5882722912
  0
VERTEX
  8
0
 62
7
  6
CONTINUOUS
 10
157.9877836913
 20
186.6308082699
  0
VERTEX
  8
0
 62
7
  6
CONTINUOUS
 10
158.0089101994
 20
186.6714048803
  0
VERTEX
  8
0
 62
7
  6
CONTINUOUS
 10
158.0313764771
 20
186.7099696603
  0
VERTEX
  8
0
 62
7
  6
CONTINUOUS
 10
158.0550878116
 20
186.746440662
  0
VERTEX
  8
0
 62
7
  6
CONTINUOUS
 10
158.0800279799
 20
186.780864522
  0
VERTEX
  8
0
 62
7
  6
CONTINUOUS
 10
158.106220693
 20
186.8132551842
  0
VERTEX
  8
0
 62
7
  6
CONTINUOUS
 10
158.1336907932
 20
186.8435941396
  0
VERTEX
  8
0
 62
7
  6
CONTINUOUS
 10
158.162436586
 20
186.8717533144
  0
VERTEX
  8
0
 62
7
  6
CONTINUOUS
 10
158.1924765879
 20
186.8976048842
  0
VERTEX
  8
0
 62
7
  6
CONTINUOUS
 10
158.2237488604
 20
186.9208825055
  0
VERTEX
  8
0
 62
7
  6
CONTINUOUS
 10
158.2564453897
 20
186.9414640257
  0
VERTEX
  8
0
 62
7
  6
CONTINUOUS
 10
158.2909975155
 20
186.9591498386
  0
VERTEX
  8
0
 62
7
  6
CONTINUOUS
 10
158.3276446761
 20
186.9733916545
  0
VERTEX
  8
0
 62
7
  6
CONTINUOUS
 10
158.3674019163
 20
186.9835011406
  0
VERTEX
  8
0
 62
7
  6
CONTINUOUS
 10
158.4083652544
 20
186.9879027537
  0
VERTEX
  8
0
 62
7
  6
CONTINUOUS
 10
158.4164423765
 20
186.9880287293
  0
SEQEND
  0
POLYLINE
  8
1_AXIS
 62
7
  6
CONTINUOUS
 66
1
 70
0
  0
VERTEX
  8
1_AXIS
 62
7
  6
CONTINUOUS
 10
163.6163996935
 20
186.3146611432
  0
VERTEX
  8
1_AXIS
 62
7
  6
CONTINUOUS
 10
163.6002421089
 20
186.2815564606
  0
VERTEX
  8
1_AXIS
 62
7
  6
CONTINUOUS
 10
163.5844141257
 20
186.1829205019
  0
VERTEX
  8
1_AXIS
 62
7
  6
CONTINUOUS
 10
163.5692385694
 20
186.0207736964
  0
VERTEX
  8
1_AXIS
 62
7
  6
CONTINUOUS
 10
163.5550247182
 20
185.7984351538
  0
VERTEX
  8
1_AXIS
 62
7
  6
CONTINUOUS
 10
163.5420619757
 20
185.5204517766
  0
VERTEX
  8
1_AXIS
 62
7
  6
CONTINUOUS
 10
163.5306139758
 20
185.1925021043
  0
VERTEX
  8
1_AXIS
 62
7
  6
CONTINUOUS
 10
163.5209132479
 20
184.8212768164
  0
VERTEX
  8
1_AXIS
 62
7
  6
CONTINUOUS
 10
163.5131565939
 20
184.4143403932
  0
VERTEX
  8
1_AXIS
 62
7
  6
CONTINUOUS
 10
163.5075011906
 20
183.9799753572
  0
VERTEX
  8
1_AXIS
 62
7
  6
CONTINUOUS
 10
163.504061528
 20
183.5270141341
  0
VERTEX
  8
1_AXIS
 62
7
  6
CONTINUOUS
 10
163.5029071925
 20
183.0646611432
  0
SEQEND
  0
POLYLINE
  8
1_AXIS
 62
7
  6
CONTINUOUS
 66
1
 70
0
  0
VERTEX
  8
1_AXIS
 62
7
  6
CONTINUOUS
 10
163.6163996933
 20
179.8146611432
  0
VERTEX
  8
1_AXIS
 62
7
  6
CONTINUOUS
 10
163.6325572778
 20
179.8477658258
  0
VERTEX
  8
1_AXIS
 62
7
  6
CONTINUOUS
 10
163.648385261
 20
179.9464017845
  0
VERTEX
  8
1_AXIS
 62
7
  6
CONTINUOUS
 10
163.6635608173
 20
180.10854859
  0
VERTEX
  8
1_AXIS
 62
7
  6
CONTINUOUS
 10
163.6777746685
 20
180.3308871325
  0
VERTEX
  8
1_AXIS
 62
7
  6
CONTINUOUS
 10
163.690737411
 20
180.6088705098
  0
VERTEX
  8
1_AXIS
 62
7
  6
CONTINUOUS
 10
163.7021854109
 20
180.9368201821
  0
VERTEX
  8
1_AXIS
 62
7
  6
CONTINUOUS
 10
163.7118861388
 20
181.30804547
  0
VERTEX
  8
1_AXIS
 62
7
  6
CONTINUOUS
 10
163.7196427929
 20
181.7149818932
  0
VERTEX
  8
1_AXIS
 62
7
  6
CONTINUOUS
 10
163.7252981962
 20
182.1493469292
  0
VERTEX
  8
1_AXIS
 62
7
  6
CONTINUOUS
 10
163.7287378588
 20
182.6023081523
  0
VERTEX
  8
1_AXIS
 62
7
  6
CONTINUOUS
 10
163.7298921942
 20
183.0646611432
  0
SEQEND
  0
POLYLINE
  8
0
 62
7
  6
CONTINUOUS
 66
1
 70
0
  0
VERTEX
  8
0
 62
7
  6
CONTINUOUS
 10
154.8309773832
 20
185.8934515174
  0
VERTEX
  8
0
 62
7
  6
CONTINUOUS
 10
154.8357296819
 20
185.8633253024
  0
VERTEX
  8
0
 62
7
  6
CONTINUOUS
 10
154.8430117397
 20
185.7964813378
  0
VERTEX
  8
0
 62
7
  6
CONTINUOUS
 10
154.8468770812
 20
185.7338555121
  0
SEQEND
  0
POLYLINE
  8
1_AXIS
 62
7
  6
CONTINUOUS
 66
1
 70
0
  0
VERTEX
  8
1_AXIS
 62
7
  6
CONTINUOUS
 10
163.5029071925
 20
183.0646611432
  0
VERTEX
  8
1_AXIS
 62
7
  6
CONTINUOUS
 10
163.5040615278
 20
182.6023081815
  0
VERTEX
  8
1_AXIS
 62
7
  6
CONTINUOUS
 10
163.5075011893
 20
182.1493470544
  0
VERTEX
  8
1_AXIS
 62
7
  6
CONTINUOUS
 10
163.5131565897
 20
181.7149821549
  0
VERTEX
  8
1_AXIS
 62
7
  6
CONTINUOUS
 10
163.5209132387
 20
181.3080458791
  0
VERTEX
  8
1_AXIS
 62
7
  6
CONTINUOUS
 10
163.5306139596
 20
180.9368207196
  0
VERTEX
  8
1_AXIS
 62
7
  6
CONTINUOUS
 10
163.5420619507
 20
180.6088711295
  0
VERTEX
  8
1_AXIS
 62
7
  6
CONTINUOUS
 10
163.5550246838
 20
180.3308877665
  0
VERTEX
  8
1_AXIS
 62
7
  6
CONTINUOUS
 10
163.5692385259
 20
180.1085491591
  0
VERTEX
  8
1_AXIS
 62
7
  6
CONTINUOUS
 10
163.5844140747
 20
179.9464022138
  0
VERTEX
  8
1_AXIS
 62
7
  6
CONTINUOUS
 10
163.6002420529
 20
179.8477660566
  0
VERTEX
  8
1_AXIS
 62
7
  6
CONTINUOUS
 10
163.6163996933
 20
179.8146611432
  0
SEQEND
  0
POLYLINE
  8
1_AXIS
 62
7
  6
CONTINUOUS
 66
1
 70
0
  0
VERTEX
  8
1_AXIS
 62
7
  6
CONTINUOUS
 10
163.7298921942
 20
183.0646611432
  0
VERTEX
  8
1_AXIS
 62
7
  6
CONTINUOUS
 10
163.7287378589
 20
183.5270141049
  0
VERTEX
  8
1_AXIS
 62
7
  6
CONTINUOUS
 10
163.7252981974
 20
183.979975232
  0
VERTEX
  8
1_AXIS
 62
7
  6
CONTINUOUS
 10
163.7196427971
 20
184.4143401315
  0
VERTEX
  8
1_AXIS
 62
7
  6
CONTINUOUS
 10
163.711886148
 20
184.8212764073
  0
VERTEX
  8
1_AXIS
 62
7
  6
CONTINUOUS
 10
163.7021854272
 20
185.1925015668
  0
VERTEX
  8
1_AXIS
 62
7
  6
CONTINUOUS
 10
163.690737436
 20
185.5204511569
  0
VERTEX
  8
1_AXIS
 62
7
  6
CONTINUOUS
 10
163.6777747029
 20
185.7984345199
  0
VERTEX
  8
1_AXIS
 62
7
  6
CONTINUOUS
 10
163.6635608608
 20
186.0207731273
  0
VERTEX
  8
1_AXIS
 62
7
  6
CONTINUOUS
 10
163.6483853121
 20
186.1829200726
  0
VERTEX
  8
1_AXIS
 62
7
  6
CONTINUOUS
 10
163.6325573339
 20
186.2815562298
  0
VERTEX
  8
1_AXIS
 62
7
  6
CONTINUOUS
 10
163.6163996935
 20
186.3146611432
  0
SEQEND
  0
LINE
  8
0
 62
7
  6
CONTINUOUS
 10
167.3381465517
 20
188.653947426
 11
167.3381465517
 21
177.2146611432
  0
POLYLINE
  8
1_AXIS
 62
7
  6
CONTINUOUS
 66
1
 70
0
  0
VERTEX
  8
1_AXIS
 62
7
  6
CONTINUOUS
 10
158.1733859109
 20
183.0646611432
  0
VERTEX
  8
1_AXIS
 62
7
  6
CONTINUOUS
 10
158.1722315756
 20
182.6023081815
  0
VERTEX
  8
1_AXIS
 62
7
  6
CONTINUOUS
 10
158.1687919141
 20
182.1493470544
  0
VERTEX
  8
1_AXIS
 62
7
  6
CONTINUOUS
 10
158.1631365138
 20
181.7149821549
  0
VERTEX
  8
1_AXIS
 62
7
  6
CONTINUOUS
 10
158.1553798647
 20
181.3080458791
  0
VERTEX
  8
1_AXIS
 62
7
  6
CONTINUOUS
 10
158.1456791439
 20
180.9368207196
  0
VERTEX
  8
1_AXIS
 62
7
  6
CONTINUOUS
 10
158.1342311527
 20
180.6088711295
  0
VERTEX
  8
1_AXIS
 62
7
  6
CONTINUOUS
 10
158.1212684196
 20
180.3308877665
  0
VERTEX
  8
1_AXIS
 62
7
  6
CONTINUOUS
 10
158.1070545775
 20
180.1085491591
  0
VERTEX
  8
1_AXIS
 62
7
  6
CONTINUOUS
 10
158.0918790288
 20
179.9464022138
  0
VERTEX
  8
1_AXIS
 62
7
  6
CONTINUOUS
 10
158.0760510506
 20
179.8477660566
  0
VERTEX
  8
1_AXIS
 62
7
  6
CONTINUOUS
 10
158.0598934102
 20
179.8146611432
  0
SEQEND
  0
LINE
  8
0
 62
7
  6
CONTINUOUS
 10
163.7612538973
 20
186.4349371315
 11
163.7672509532
 21
186.4119712963
  0
LINE
  8
0
 62
7
  6
CONTINUOUS
 10
163.7672509532
 20
186.4119712963
 11
163.7724065462
 21
186.3917901008
  0
LINE
  8
0
 62
7
  6
CONTINUOUS
 10
163.7724065462
 20
186.3917901008
 11
163.7791575764
 21
186.364755755
  0
POLYLINE
  8
0
 62
7
  6
CONTINUOUS
 66
1
 70
0
  0
VERTEX
  8
0
 62
7
  6
CONTINUOUS
 10
163.779140366
 20
186.3648250118
  0
VERTEX
  8
0
 62
7
  6
CONTINUOUS
 10
163.7832959313
 20
186.3443647556
  0
VERTEX
  8
0
 62
7
  6
CONTINUOUS
 10
163.7850425028
 20
186.3314663078
  0
SEQEND
  0
LINE
  8
0
 62
7
  6
CONTINUOUS
 10
163.7850466826
 20
186.3314283538
 11
163.7850425028
 21
186.3314663078
  0
LINE
  8
4_SURFACE
 62
7
  6
CONTINUOUS
 10
181.401083557
 20
101.0634372829
 11
180.901083557
 21
101.0083361069
  0
LINE
  8
1_AXIS
 62
2
  6
CONTINUOUS
 10
188.131083557
 20
102.2463361069
 11
186.371083557
 21
102.2463361069
  0
LINE
  8
1_AXIS
 62
2
  6
CENTER
 10
182.851083557
 20
102.2463361069
 11
182.001083557
 21
102.2463361069
  0
LINE
  8
1_AXIS
 62
2
  6
CENTER
 10
191.651083557
 20
102.2463361069
 11
192.501083557
 21
102.2463361069
  0
LINE
  8
4_SURFACE
 62
7
  6
CONTINUOUS
 10
189.5995153108
 20
133.7557643819
 11
182.2160593203
 21
131.0640272304
  0
LINE
  8
4_SURFACE
 62
7
  6
CONTINUOUS
 10
180.901083557
 20
101.0083361069
 11
180.901083557
 21
141.5843361069
  0
LINE
  8
1_AXIS
 62
2
  6
CONTINUOUS
 10
187.251083557
 20
141.2263361069
 11
187.251083557
 21
139.4663361069
  0
LINE
  8
1_AXIS
 62
2
  6
CENTER
 10
187.251083557
 20
135.9463361069
 11
187.251083557
 21
135.0963361069
  0
LINE
  8
1_AXIS
 62
2
  6
CONTINUOUS
 10
187.251083557
 20
103.1263361069
 11
187.251083557
 21
101.3663361069
  0
LINE
  8
1_AXIS
 62
2
  6
CENTER
 10
187.251083557
 20
97.8463361069
 11
187.251083557
 21
96.9963361069
  0
LINE
  8
1_AXIS
 62
2
  6
CENTER
 10
187.251083557
 20
106.6463361069
 11
187.251083557
 21
107.4963361069
  0
LINE
  8
1_AXIS
 62
2
  6
CENTER
 10
187.251083557
 20
144.7463361069
 11
187.251083557
 21
145.5963361069
  0
POLYLINE
  8
4_SURFACE
 62
7
  6
CONTINUOUS
 66
1
 70
0
  0
VERTEX
  8
4_SURFACE
 62
7
  6
CONTINUOUS
 10
192.4533428627
 20
134.9963361069
  0
VERTEX
  8
4_SURFACE
 62
7
  6
CONTINUOUS
 10
192.5154948319
 20
135.4234893309
  0
VERTEX
  8
4_SURFACE
 62
7
  6
CONTINUOUS
 10
192.5508054567
 20
135.6219600944
  0
VERTEX
  8
4_SURFACE
 62
7
  6
CONTINUOUS
 10
192.5951041131
 20
135.7981756567
  0
VERTEX
  8
4_SURFACE
 62
7
  6
CONTINUOUS
 10
192.6523865037
 20
135.9479474544
  0
VERTEX
  8
4_SURFACE
 62
7
  6
CONTINUOUS
 10
192.7247561727
 20
136.0687166364
  0
SEQEND
  0
LINE
  8
0
 62
7
  6
CONTINUOUS
 10
193.601083557
 20
137.1963361069
 11
193.601083557
 21
135.8963361069
  0
LINE
  8
4_SURFACE
 62
7
  6
CONTINUOUS
 10
193.601083557
 20
140.3463361069
 11
193.601083557
 21
102.2463361069
  0
LINE
  8
4_SURFACE
 62
7
  6
CONTINUOUS
 10
193.2689680335
 20
100.2194039995
 11
193.2700527211
 21
100.2226621032
  0
LINE
  8
0
 62
7
  6
CONTINUOUS
 10
193.2689680462
 20
100.2194040372
 11
193.2700526944
 21
100.2226620222
  0
LINE
  8
4_SURFACE
 62
7
  6
CONTINUOUS
 10
189.9204034102
 20
134.6500958277
 11
189.8836634207
 21
134.6418095177
  0
POLYLINE
  8
4_SURFACE
 62
7
  6
CONTINUOUS
 66
1
 70
0
  0
VERTEX
  8
4_SURFACE
 62
7
  6
CONTINUOUS
 10
190.3311130909
 20
134.4804440905
  0
VERTEX
  8
4_SURFACE
 62
7
  6
CONTINUOUS
 10
190.2627986275
 20
134.5406182249
  0
VERTEX
  8
4_SURFACE
 62
7
  6
CONTINUOUS
 10
190.1919921792
 20
134.5905926327
  0
VERTEX
  8
4_SURFACE
 62
7
  6
CONTINUOUS
 10
190.1202441079
 20
134.6274828161
  0
VERTEX
  8
4_SURFACE
 62
7
  6
CONTINUOUS
 10
190.0497707118
 20
134.6497036416
  0
VERTEX
  8
4_SURFACE
 62
7
  6
CONTINUOUS
 10
189.9829243948
 20
134.6569582805
  0
VERTEX
  8
4_SURFACE
 62
7
  6
CONTINUOUS
 10
189.9202781481
 20
134.6500709915
  0
SEQEND
  0
LINE
  8
4_SURFACE
 62
7
  6
CONTINUOUS
 10
189.8836634207
 20
134.6418095177
 11
189.8179454257
 21
134.6272762209
  0
LINE
  8
4_SURFACE
 62
7
  6
CONTINUOUS
 10
189.8179454257
 20
134.6272762209
 11
189.7611588021
 21
134.6150164503
  0
LINE
  8
4_SURFACE
 62
7
  6
CONTINUOUS
 10
189.7611588021
 20
134.6150164503
 11
189.6894978399
 21
134.5999400402
  0
LINE
  8
4_SURFACE
 62
7
  6
CONTINUOUS
 10
189.6894978399
 20
134.5999400402
 11
189.6307985146
 21
134.5879184557
  0
LINE
  8
4_SURFACE
 62
7
  6
CONTINUOUS
 10
189.6307985146
 20
134.5879184557
 11
189.5702539829
 21
134.5758283111
  0
LINE
  8
4_SURFACE
 62
7
  6
CONTINUOUS
 10
189.5702539829
 20
134.5758283111
 11
189.5069003759
 21
134.5635134894
  0
LINE
  8
4_SURFACE
 62
7
  6
CONTINUOUS
 10
189.5069003759
 20
134.5635134894
 11
189.4691361333
 21
134.5563361069
  0
LINE
  8
4_SURFACE
 62
7
  6
CONTINUOUS
 10
189.5995153804
 20
133.7563361069
 11
181.401083557
 21
133.7563361069
  0
LINE
  8
4_SURFACE
 62
7
  6
CONTINUOUS
 10
192.9837953116
 20
136.3963361069
 11
193.101083557
 21
136.3963361069
  0
LINE
  8
1_AXIS
 62
2
  6
CONTINUOUS
 10
188.131083557
 20
140.3463361069
 11
186.371083557
 21
140.3463361069
  0
LINE
  8
1_AXIS
 62
2
  6
CENTER
 10
182.851083557
 20
140.3463361069
 11
182.001083557
 21
140.3463361069
  0
LINE
  8
1_AXIS
 62
2
  6
CENTER
 10
191.651083557
 20
140.3463361069
 11
192.501083557
 21
140.3463361069
  0
POLYLINE
  8
4_SURFACE
 62
7
  6
CONTINUOUS
 66
1
 70
0
  0
VERTEX
  8
4_SURFACE
 62
7
  6
CONTINUOUS
 10
181.3923573538
 20
141.5292346275
  0
VERTEX
  8
4_SURFACE
 62
7
  6
CONTINUOUS
 10
180.9134185315
 20
141.5827942822
  0
VERTEX
  8
4_SURFACE
 62
7
  6
CONTINUOUS
 10
180.901083557
 20
141.5843361069
  0
SEQEND
  0
ARC
  8
4_SURFACE
 62
7
  6
CONTINUOUS
 10
15.6381465517
 20
96.396336862
 40
0.5
 50
180.0000010572
 51
269.9999985203
  0
ARC
  8
4_SURFACE
 62
7
  6
CONTINUOUS
 10
18.1553021969
 20
96.3963378406
 40
0.5
 50
269.9999960473
 51
357.9998869914
  0
ARC
  8
4_SURFACE
 62
7
  6
CONTINUOUS
 10
25.1209909051
 20
96.3963378806
 40
0.5
 50
182.0001175982
 51
270.0000041129
  0
ARC
  8
4_SURFACE
 62
7
  6
CONTINUOUS
 10
16.5381465517
 20
134.9963361069
 40
1.4
 50
90.0
 51
180.0
  0
ARC
  8
0
 62
7
  6
CONTINUOUS
 10
157.3553021983
 20
96.3963378806
 40
0.5
 50
269.9999958871
 51
357.9998824018
  0
ARC
  8
0
 62
7
  6
CONTINUOUS
 10
164.3209909065
 20
96.3963378406
 40
0.5
 50
182.0001130086
 51
270.0000039527
  0
ARC
  8
0
 62
7
  6
CONTINUOUS
 10
166.8381465517
 20
96.396336862
 40
0.5
 50
270.0000014797
 51
359.9999989428
  0
ARC
  8
0
 62
7
  6
CONTINUOUS
 10
165.9381465517
 20
134.9963361069
 40
1.4
 50
0.0
 51
90.0
  0
ARC
  8
4_SURFACE
 62
7
  6
CONTINUOUS
 10
15.6381465517
 20
177.2146611432
 40
0.5
 50
180.0
 51
270.0
  0
ARC
  8
4_SURFACE
 62
7
  6
CONTINUOUS
 10
77.6751185956
 20
177.2146611432
 40
0.5
 50
270.0
 51
359.0
  0
ARC
  8
4_SURFACE
 62
7
  6
CONTINUOUS
 10
51.3511765275
 20
177.2146611432
 40
0.5
 50
180.999995961
 51
269.9997685632
  0
ARC
  8
4_SURFACE
 62
7
  6
CONTINUOUS
 10
54.2011745079
 20
177.2146611432
 40
0.5
 50
181.0
 51
270.0
  0
ARC
  8
4_SURFACE
 62
7
  6
CONTINUOUS
 10
26.9751185956
 20
177.2146611432
 40
0.5
 50
270.0
 51
359.0
  0
ARC
  8
4_SURFACE
 62
7
  6
CONTINUOUS
 10
29.9251208418
 20
177.2146611432
 40
0.4999997492
 50
269.9997995795
 51
358.9998429363
  0
ARC
  8
4_SURFACE
 62
7
  6
CONTINUOUS
 10
80.5251223856
 20
177.2146611432
 40
0.4999996775
 50
269.9996707555
 51
359.0001367843
  0
ARC
  8
4_SURFACE
 62
7
  6
CONTINUOUS
 10
31.0596749236
 20
184.9146611432
 40
0.5
 50
90.7989892563
 51
179.0
  0
ARC
  8
4_SURFACE
 62
7
  6
CONTINUOUS
 10
27.1793483688
 20
188.9146611432
 40
0.4999978797
 50
358.9999889732
 51
90.0006318072
  0
ARC
  8
4_SURFACE
 62
7
  6
CONTINUOUS
 10
17.1817029797
 20
188.9746587116
 40
0.44
 50
89.9984168295
 51
101.3083179271
  0
ARC
  8
4_SURFACE
 62
7
  6
CONTINUOUS
 10
15.5781465517
 20
188.653947426
 40
0.44
 50
101.309932474
 51
180.0
  0
ARC
  8
4_SURFACE
 62
7
  6
CONTINUOUS
 10
81.6596749236
 20
184.9146611432
 40
0.5
 50
90.7989892563
 51
179.0
  0
ARC
  8
4_SURFACE
 62
7
  6
CONTINUOUS
 10
50.2166219915
 20
184.9146611432
 40
0.4999985342
 50
1.0000076229
 51
89.2014467748
  0
ARC
  8
4_SURFACE
 62
7
  6
CONTINUOUS
 10
77.8793428552
 20
188.9146611432
 40
0.5
 50
359.0
 51
90.0
  0
ARC
  8
4_SURFACE
 62
7
  6
CONTINUOUS
 10
53.9969502482
 20
188.9146611432
 40
0.5
 50
90.0
 51
181.0
  0
ARC
  8
0
 62
7
  6
CONTINUOUS
 10
131.1251185956
 20
177.2146611432
 40
0.5
 50
270.0000945483
 51
359.0000836517
  0
ARC
  8
0
 62
7
  6
CONTINUOUS
 10
128.2751185956
 20
177.2146611432
 40
0.5
 50
270.0
 51
359.0
  0
ARC
  8
0
 62
7
  6
CONTINUOUS
 10
155.5011745079
 20
177.2146611432
 40
0.5
 50
181.0
 51
270.0
  0
ARC
  8
0
 62
7
  6
CONTINUOUS
 10
104.8011745079
 20
177.2146611432
 40
0.5
 50
181.0
 51
270.0
  0
ARC
  8
0
 62
7
  6
CONTINUOUS
 10
166.8381465517
 20
177.2146611432
 40
0.5
 50
270.0
 51
360.0
  0
ARC
  8
0
 62
7
  6
CONTINUOUS
 10
152.5511722617
 20
177.2146611432
 40
0.4999997492
 50
181.0001570637
 51
270.0002004205
  0
ARC
  8
0
 62
7
  6
CONTINUOUS
 10
101.9511707179
 20
177.2146611432
 40
0.4999996775
 50
180.9998632157
 51
270.0003292445
  0
ARC
  8
0
 62
7
  6
CONTINUOUS
 10
100.8166164856
 20
184.9146611432
 40
0.5
 50
0.9999966115
 51
89.200816888
  0
ARC
  8
0
 62
7
  6
CONTINUOUS
 10
132.2596711119
 20
184.9146611432
 40
0.4999985342
 50
90.7985532252
 51
178.9999923771
  0
ARC
  8
0
 62
7
  6
CONTINUOUS
 10
128.4793428552
 20
188.9146611432
 40
0.5
 50
359.0
 51
90.0
  0
ARC
  8
0
 62
7
  6
CONTINUOUS
 10
104.5969502643
 20
188.9146602196
 40
0.5
 50
90.0000018473
 51
180.9998941517
  0
ARC
  8
0
 62
7
  6
CONTINUOUS
 10
151.4166159342
 20
184.9146611432
 40
0.5
 50
0.999995509
 51
89.2007538206
  0
ARC
  8
0
 62
7
  6
CONTINUOUS
 10
155.2969447346
 20
188.9146611432
 40
0.4999978797
 50
89.9993681928
 51
181.0000110268
  0
ARC
  8
0
 62
7
  6
CONTINUOUS
 10
165.2945901238
 20
188.9746587116
 40
0.44
 50
78.6916820729
 51
90.0015831705
  0
ARC
  8
0
 62
7
  6
CONTINUOUS
 10
166.8981465517
 20
188.653947426
 40
0.44
 50
0.0
 51
78.690067526
  0
ARC
  8
4_SURFACE
 62
7
  6
CONTINUOUS
 10
182.901083557
 20
129.185000409
 40
2.0
 50
110.03
 51
180.0
  0
ARC
  8
4_SURFACE
 62
7
  6
CONTINUOUS
 10
181.401083557
 20
133.2563422346
 40
0.4999976432
 50
90.0
 51
180.0007021665
  0
ARC
  8
0
 62
7
  6
CONTINUOUS
 10
187.2511588322
 20
102.3963361065
 40
6.5
 50
192.3297961702
 51
269.9712469788
  0
ARC
  8
4_SURFACE
 62
7
  6
CONTINUOUS
 10
187.2511588322
 20
102.3963361065
 40
6.5
 50
192.3297961702
 51
269.9712469788
  0
ARC
  8
0
 62
7
  6
CONTINUOUS
 10
187.251083557
 20
102.2463361069
 40
6.35
 50
339.2691033244
 51
341.3951033495
  0
ARC
  8
0
 62
7
  6
CONTINUOUS
 10
187.251083557
 20
102.2463361069
 40
6.35
 50
310.6969989015
 51
310.819525887
  0
ARC
  8
0
 62
7
  6
CONTINUOUS
 10
187.251083557
 20
102.2463361069
 40
6.35
 50
283.9228672653
 51
288.6998599358
  0
ARC
  8
0
 62
7
  6
CONTINUOUS
 10
187.251083557
 20
102.2463361069
 40
6.35
 50
288.8326254001
 51
290.0481716782
  0
ARC
  8
0
 62
7
  6
CONTINUOUS
 10
187.251083557
 20
102.2463361069
 40
6.35
 50
277.7141653948
 51
283.3153355476
  0
ARC
  8
0
 62
7
  6
CONTINUOUS
 10
187.251083557
 20
102.2463361069
 40
6.35
 50
313.2694006111
 51
314.272588537
  0
ARC
  8
0
 62
7
  6
CONTINUOUS
 10
187.251083557
 20
102.2463361069
 40
6.35
 50
353.135785043
 51
360.0
  0
ARC
  8
0
 62
7
  6
CONTINUOUS
 10
187.251083557
 20
102.2463361069
 40
6.35
 50
291.625133941
 51
293.5579638256
  0
ARC
  8
0
 62
7
  6
CONTINUOUS
 10
187.251083557
 20
102.2463361069
 40
6.35
 50
269.9712469788
 51
276.110009205
  0
ARC
  8
4_SURFACE
 62
7
  6
CONTINUOUS
 10
187.251083557
 20
102.2463361069
 40
6.35
 50
269.9712469788
 51
360.0
  0
CIRCLE
  8
4_SURFACE
 62
7
  6
CONTINUOUS
 10
187.251083557
 20
102.2463361069
 40
3.25
  0
ARC
  8
4_SURFACE
 62
7
  6
CONTINUOUS
 10
187.2515948093
 20
140.196128621
 40
6.855
 50
290.03
 51
326.1143692679
  0
ARC
  8
4_SURFACE
 62
7
  6
CONTINUOUS
 10
187.2511588322
 20
140.1963361074
 40
6.5
 50
90.0287530212
 51
167.6702038298
  0
ARC
  8
0
 62
7
  6
CONTINUOUS
 10
187.2511588322
 20
140.1963361074
 40
6.5
 50
90.0287530212
 51
167.6702038298
  0
ARC
  8
0
 62
7
  6
CONTINUOUS
 10
187.251083557
 20
140.3463361069
 40
6.35
 50
0.0
 51
6.9046706197
  0
ARC
  8
0
 62
7
  6
CONTINUOUS
 10
187.251083557
 20
140.3463361069
 40
6.35
 50
83.1222184071
 51
90.0287530212
  0
ARC
  8
4_SURFACE
 62
7
  6
CONTINUOUS
 10
187.251083557
 20
140.3463361069
 40
6.35
 50
0.0
 51
90.0287530212
  0
CIRCLE
  8
4_SURFACE
 62
7
  6
CONTINUOUS
 10
187.251083557
 20
140.3463361069
 40
3.25
  0
ARC
  8
4_SURFACE
 62
7
  6
CONTINUOUS
 10
193.101083557
 20
135.8963413261
 40
0.4999979926
 50
359.9994019335
 51
90.0
  0
ARC
  8
0
 62
7
  6
CONTINUOUS
 10
193.101083557
 20
135.8963413261
 40
0.4999979926
 50
58.6722334223
 51
74.5468347707
  0
ARC
  8
0
 62
7
  6
CONTINUOUS
 10
193.101083557
 20
135.8963413261
 40
0.4999979926
 50
40.0293424355
 51
49.6569276894
  0
ARC
  8
4_SURFACE
 62
7
  6
CONTINUOUS
 10
192.9837953116
 20
136.3463361069
 40
0.05
 50
89.9999999999
 51
146.1143692677
  0
ENDSEC
  0
EOF
