  0
SECTION
  2
HEADER
  9
$EXTMAX
 10
210.0
 20
297.0
 30
0.0
  9
$EXTMIN
 10
0.0
 20
0.0
 30
0.0
  9
$LIMMIN
 10
0.0
 20
0.0
  9
$LIMMAX
 10
210.0
 20
297.0
  9
$VIEWCTR
 10
105.0
 20
148.5
  9
$VIEWSIZE
 40
297.0
  9
$CLAYER
  8
0
  9
$LTSCALE
 40
19.36
  9
$CELTYPE
  6
BYLAYER
  9
$DIMSCALE
 40
1.0
  9
$DIMASZ
 40
3.5
  9
$DIMEXO
 40
2.2
  9
$DIMDLI
 40
13.376
  9
$DIMEXE
 40
6.336
  9
$DIMCEN
 40
3.168
  9
$DIMLFAC
 40
1.0
  9
$DIMBLK
  1
_FILLED
  9
$DIMTXT
 40
3.5
  9
$PDMODE
 70
3
  9
$PDSIZE
 40
0.3125
  9
$TILEMODE
 70
1
  0
ENDSEC
  0
SECTION
  2
TABLES
  0
TABLE
  2
LTYPE
 70
6
  0
LTYPE
  2
BYBLOCK
 70
0
  3

 72
65
 73
0
 40
0.0
  0
LTYPE
  2
BYLAYER
 70
0
  3

 72
65
 73
0
 40
0.0
  0
LTYPE
  2
CONTINUOUS
 70
64
  3
Solid line
 72
65
 73
0
 40
0.0
  0
LTYPE
  2
CENTER
 70
64
  3
____ _ ____ _ ____ _ ____ _ ____ _ ____ _ ____
 72
65
 73
4
 40
0.6
 49
0.375
 49
-0.075
 49
0.075
 49
-0.075
  0
LTYPE
  2
HIDDEN
 70
64
  3
- - - - - - - - - - - - - - - - - - - -
 72
65
 73
2
 40
0.2
 49
0.1
 49
-0.1
  0
LTYPE
  2
PHANTOM
 70
64
  3
_____ _ _ _____ _ _ _____ _ _ _____
 72
65
 73
6
 40
0.8
 49
0.45
 49
-0.05
 49
0.1
 49
-0.05
 49
0.1
 49
-0.05
  0
LTYPE
  2
DOT
 70
64
  3
. . . . . . . . . . . . . . . . . . . .
 72
65
 73
2
 40
0.2
 49
0.1
 49
-0.1
  0
LTYPE
  2
DASHED
 70
64
  3
- - - - - - - - - - - - - - - - - - - -
 72
65
 73
2
 40
0.2
 49
0.1
 49
-0.1
  0
ENDTAB
  0
TABLE
  2
LAYER
 70
36
  0
LAYER
  2
0
 70
0
 62
7
  6
CONTINUOUS
  0
LAYER
  2
DEFAULT_1
 70
0
 62
7
  6
CENTER
  0
LAYER
  2
DEFAULT_2
 70
0
 62
8
  6
HIDDEN
  0
LAYER
  2
DEFAULT_3
 70
0
 62
7
  6
PHANTOM
  0
LAYER
  2
1_AXIS
 70
0
 62
7
  6
CONTINUOUS
  0
LAYER
  2
1_CSYS
 70
0
 62
7
  6
CONTINUOUS
  0
LAYER
  2
1_DATUMPLANE
 70
0
 62
7
  6
CONTINUOUS
  0
LAYER
  2
1_DATUM_PLANE
 70
0
 62
7
  6
CONTINUOUS
  0
LAYER
  2
4_QUILT
 70
0
 62
7
  6
CONTINUOUS
  0
LAYER
  2
4_SURFACE
 70
0
 62
7
  6
CONTINUOUS
  0
LAYER
  2
6_DIM
 70
0
 62
7
  6
CONTINUOUS
  0
LAYER
  2
6_NOTE
 70
0
 62
7
  6
CONTINUOUS
  0
LAYER
  2
AXES
 70
0
 62
7
  6
CONTINUOUS
  0
LAYER
  2
PLANES
 70
0
 62
7
  6
CONTINUOUS
  0
LAYER
  2
SUF
 70
0
 62
7
  6
CONTINUOUS
  0
ENDTAB
  0
TABLE
  2
STYLE
 70
1
  0
STYLE
  2
STANDARD
 70
0
 40
0.0
 41
0.8
 50
0.0
 71
0
 42
0.2
  3
txt
  4

  0
STYLE
  2
TEXTSTYLE_1
 70
0
 40
0.0
 41
0.8
 50
0.0
 71
0
 42
0.2
  3
gdt
  4

  0
STYLE
  2
TEXTSTYLE_2
 70
0
 40
0.0
 41
0.6
 50
0.0
 71
0
 42
0.2
  3
txt
  4

  0
STYLE
  2
TEXTSTYLE_3
 70
0
 40
0.0
 41
1.0
 50
0.0
 71
0
 42
0.2
  3
ftb_____.ttf
  4

  0
STYLE
  2
TEXTSTYLE_4
 70
0
 40
0.0
 41
1.0
 50
0.0
 71
0
 42
0.2
  3
fti_____.ttf
  4

  0
STYLE
  2
TEXTSTYLE_5
 70
0
 40
0.0
 41
1.0
 50
0.0
 71
0
 42
0.2
  3
frutiger light.ttf
  4

  0
STYLE
  2
TEXTSTYLE_6
 70
0
 40
0.0
 41
0.7
 50
0.0
 71
0
 42
0.2
  3
txt
  4

  0
STYLE
  2
TEXTSTYLE_7
 70
0
 40
0.0
 41
0.65
 50
0.0
 71
0
 42
0.2
  3
txt
  4

  0
ENDTAB
  0
ENDSEC
  0
SECTION
  2
BLOCKS
  0
BLOCK
  8
0
 62
2
  6
CONTINUOUS
  2
SYMBOL_8_BL1
 70
64
 10
173.5956734183
 20
35.5937998301
  0
TEXT
  8
0
 62
7
  6
CONTINUOUS
 10
164.6539584268
 20
30.6865562072
  7
TEXTSTYLE_4
 40
1.0655737705
  1
The brand for plastic modular belts and chains
 41
1.0
 72
0
  0
LINE
  8
0
 62
7
  6
CONTINUOUS
 10
149.5737418074
 20
36.1675703219
 11
149.5737418074
 21
34.0364227809
  0
LINE
  8
0
 62
7
  6
CONTINUOUS
 10
149.8628043005
 20
31.0454914852
 11
149.8628043005
 21
31.1422825445
  0
LINE
  8
0
 62
7
  6
CONTINUOUS
 10
149.5737418074
 20
31.1100188581
 11
149.6315543091
 21
30.9164367395
  0
LINE
  8
0
 62
7
  6
CONTINUOUS
 10
150.9671844304
 20
33.9544555678
 11
150.9671844304
 21
36.1675703219
  0
LINE
  8
0
 62
7
  6
CONTINUOUS
 10
151.8862417523
 20
32.1101932727
 11
151.8862417523
 21
30.5937998301
  0
LINE
  8
0
 62
7
  6
CONTINUOUS
 10
152.1753043074
 20
30.5937998301
 11
152.1753043074
 21
31.3358647082
  0
LINE
  8
0
 62
7
  6
CONTINUOUS
 10
152.1753043074
 20
31.4649194539
 11
152.1753043074
 21
32.1101932727
  0
LINE
  8
0
 62
7
  6
CONTINUOUS
 10
149.6315543091
 20
31.3036010218
 11
149.5737418074
 21
31.1100188581
  0
LINE
  8
0
 62
7
  6
CONTINUOUS
 10
149.9784292936
 20
30.8841730531
 11
149.8628043005
 21
31.0454914852
  0
LINE
  8
0
 62
7
  6
CONTINUOUS
 10
151.0768668626
 20
31.400392081
 11
151.1346793074
 21
31.3036010218
  0
LINE
  8
0
 62
7
  6
CONTINUOUS
 10
151.4237418626
 20
31.3036010218
 11
151.3659292523
 21
31.4326557675
  0
LINE
  8
0
 62
7
  6
CONTINUOUS
 10
152.852430332
 20
36.1675703219
 11
152.852430332
 21
34.3642916334
  0
LINE
  8
0
 62
7
  6
CONTINUOUS
 10
152.852430332
 20
33.0528162235
 11
152.852430332
 21
32.3970785186
  0
LINE
  8
0
 62
7
  6
CONTINUOUS
 10
153.2159293074
 20
31.2390736489
 11
153.2159293074
 21
30.5937998301
  0
LINE
  8
0
 62
7
  6
CONTINUOUS
 10
153.5049916972
 20
30.5937998301
 11
153.5049916972
 21
31.2390736489
  0
LINE
  8
0
 62
7
  6
CONTINUOUS
 10
149.8628043005
 20
31.1422825445
 11
149.9206168074
 21
31.2713373354
  0
LINE
  8
0
 62
7
  6
CONTINUOUS
 10
149.6315543091
 20
30.9164367395
 11
149.7471793074
 21
30.7873819712
  0
LINE
  8
0
 62
7
  6
CONTINUOUS
 10
153.1581166972
 20
31.3681283946
 11
153.2159293074
 21
31.2390736489
  0
LINE
  8
0
 62
7
  6
CONTINUOUS
 10
153.9674919177
 20
30.8841730531
 11
154.0253041972
 21
30.7551182848
  0
LINE
  8
0
 62
7
  6
CONTINUOUS
 10
153.5049916972
 20
31.2390736489
 11
153.4471794177
 21
31.400392081
  0
LINE
  8
0
 62
7
  6
CONTINUOUS
 10
153.9674919177
 20
31.4326557675
 11
153.9674919177
 21
31.3681283946
  0
LINE
  8
0
 62
7
  6
CONTINUOUS
 10
153.9674919177
 20
30.9809641124
 11
153.9674919177
 21
30.8841730531
  0
LINE
  8
0
 62
7
  6
CONTINUOUS
 10
154.245872955
 20
32.3970785186
 11
154.245872955
 21
36.1675703219
  0
LINE
  8
0
 62
7
  6
CONTINUOUS
 10
154.2565543074
 20
30.8519093441
 11
154.2565543074
 21
30.9164367395
  0
LINE
  8
0
 62
7
  6
CONTINUOUS
 10
154.5737418074
 20
36.1675703219
 11
154.5737418074
 21
32.3970785186
  0
LINE
  8
0
 62
7
  6
CONTINUOUS
 10
151.3659292523
 20
30.7873819712
 11
151.4237418626
 21
30.9164367395
  0
LINE
  8
0
 62
7
  6
CONTINUOUS
 10
155.759679528
 20
30.6905909007
 11
155.7018665869
 21
30.8519093441
  0
LINE
  8
0
 62
7
  6
CONTINUOUS
 10
155.412804528
 20
31.3681283946
 11
155.412804528
 21
31.2713373354
  0
LINE
  8
0
 62
7
  6
CONTINUOUS
 10
155.412804528
 20
31.1422825445
 11
155.412804528
 21
30.9487004259
  0
LINE
  8
0
 62
7
  6
CONTINUOUS
 10
155.7018665869
 20
30.8519093441
 11
155.7018665869
 21
31.3681283946
  0
LINE
  8
0
 62
7
  6
CONTINUOUS
 10
155.9671844304
 20
32.3970785186
 11
155.9671844304
 21
34.2003572071
  0
LINE
  8
0
 62
7
  6
CONTINUOUS
 10
155.9671844304
 20
35.511832617
 11
155.9671844304
 21
36.1675703219
  0
LINE
  8
0
 62
7
  6
CONTINUOUS
 10
156.279992028
 20
32.1101932727
 11
156.279992028
 21
31.9488748406
  0
LINE
  8
0
 62
7
  6
CONTINUOUS
 10
156.279992028
 20
31.626237886
 11
156.279992028
 21
30.5937998301
  0
LINE
  8
0
 62
7
  6
CONTINUOUS
 10
156.5690540869
 20
30.5937998301
 11
156.5690540869
 21
31.626237886
  0
LINE
  8
0
 62
7
  6
CONTINUOUS
 10
156.5690540869
 20
31.9488748406
 11
156.5690540869
 21
32.1101932727
  0
LINE
  8
0
 62
7
  6
CONTINUOUS
 10
151.1346793074
 20
30.9164367395
 11
151.0768668626
 21
30.8196456577
  0
LINE
  8
0
 62
7
  6
CONTINUOUS
 10
153.4471794177
 20
31.400392081
 11
153.3893668074
 21
31.4649194539
  0
LINE
  8
0
 62
7
  6
CONTINUOUS
 10
154.3143669177
 20
30.7873819712
 11
154.2565543074
 21
30.8519093441
  0
LINE
  8
0
 62
7
  6
CONTINUOUS
 10
155.4706168074
 20
30.6583272086
 11
155.5284290869
 21
30.5937998301
  0
LINE
  8
0
 62
7
  6
CONTINUOUS
 10
155.412804528
 20
30.7551182848
 11
155.4706168074
 21
30.6583272086
  0
LINE
  8
0
 62
7
  6
CONTINUOUS
 10
155.8174918074
 20
30.5937998301
 11
155.759679528
 21
30.6905909007
  0
LINE
  8
0
 62
7
  6
CONTINUOUS
 10
155.7018665869
 20
31.3681283946
 11
155.6440543074
 21
31.4649194539
  0
LINE
  8
0
 62
7
  6
CONTINUOUS
 10
157.0315543074
 20
31.626237886
 11
157.0315543074
 21
30.5937998301
  0
LINE
  8
0
 62
7
  6
CONTINUOUS
 10
157.320617028
 20
30.5937998301
 11
157.320617028
 21
31.3358647082
  0
LINE
  8
0
 62
7
  6
CONTINUOUS
 10
157.320617028
 20
31.4649194539
 11
157.320617028
 21
31.626237886
  0
LINE
  8
0
 62
7
  6
CONTINUOUS
 10
157.852430332
 20
34.6101932727
 11
157.852430332
 21
32.3970785186
  0
LINE
  8
0
 62
7
  6
CONTINUOUS
 10
149.7471793074
 20
31.4326557675
 11
149.6315543091
 21
31.3036010218
  0
LINE
  8
0
 62
7
  6
CONTINUOUS
 10
149.9206168074
 20
31.2713373354
 11
149.9784292936
 21
31.3358647082
  0
LINE
  8
0
 62
7
  6
CONTINUOUS
 10
149.7471793074
 20
30.7873819712
 11
149.8628043005
 21
30.7228545871
  0
LINE
  8
0
 62
7
  6
CONTINUOUS
 10
150.1518667936
 20
30.7873819712
 11
149.9784292936
 21
30.8841730531
  0
LINE
  8
0
 62
7
  6
CONTINUOUS
 10
155.3549915869
 20
31.4326557675
 11
155.412804528
 21
31.3681283946
  0
LINE
  8
0
 62
7
  6
CONTINUOUS
 10
158.3034290869
 20
31.3681283946
 11
158.361242028
 21
31.2068099625
  0
LINE
  8
0
 62
7
  6
CONTINUOUS
 10
158.6503040869
 20
31.2068099625
 11
158.5924918074
 21
31.3681283946
  0
LINE
  8
0
 62
7
  6
CONTINUOUS
 10
158.361242028
 20
31.2068099625
 11
158.361242028
 21
30.5937998301
  0
LINE
  8
0
 62
7
  6
CONTINUOUS
 10
158.6503040869
 20
30.5937998301
 11
158.6503040869
 21
31.2068099625
  0
LINE
  8
0
 62
7
  6
CONTINUOUS
 10
159.1128043074
 20
31.4326557675
 11
159.1128043074
 21
31.3681283946
  0
LINE
  8
0
 62
7
  6
CONTINUOUS
 10
159.245872955
 20
32.3970785186
 11
159.245872955
 21
34.5282260596
  0
LINE
  8
0
 62
7
  6
CONTINUOUS
 10
159.5737418074
 20
36.1675703219
 11
159.5737418074
 21
32.3970785186
  0
LINE
  8
0
 62
7
  6
CONTINUOUS
 10
154.2565543074
 20
30.9164367395
 11
154.3143669177
 21
31.0132277988
  0
LINE
  8
0
 62
7
  6
CONTINUOUS
 10
149.8628043005
 20
30.7228545871
 11
150.0362418212
 21
30.6583272086
  0
LINE
  8
0
 62
7
  6
CONTINUOUS
 10
151.3659292523
 20
31.4326557675
 11
151.1924917523
 21
31.5294468267
  0
LINE
  8
0
 62
7
  6
CONTINUOUS
 10
154.0253041972
 20
30.7551182848
 11
154.1987416972
 21
30.6583272086
  0
LINE
  8
0
 62
7
  6
CONTINUOUS
 10
153.0424918074
 20
31.4326557675
 11
153.1581166972
 21
31.3681283946
  0
LINE
  8
0
 62
7
  6
CONTINUOUS
 10
153.3893668074
 20
31.4649194539
 11
153.2737419177
 21
31.5294468267
  0
LINE
  8
0
 62
7
  6
CONTINUOUS
 10
159.1128043074
 20
30.8519093441
 11
159.228429528
 21
30.7228545871
  0
LINE
  8
0
 62
7
  6
CONTINUOUS
 10
159.4596793074
 20
30.7873819712
 11
159.401867028
 21
30.8519093441
  0
LINE
  8
0
 62
7
  6
CONTINUOUS
 10
159.1128043074
 20
31.3681283946
 11
159.228429528
 21
31.2390736489
  0
LINE
  8
0
 62
7
  6
CONTINUOUS
 10
158.5924918074
 20
31.3681283946
 11
158.534679528
 21
31.4649194539
  0
LINE
  8
0
 62
7
  6
CONTINUOUS
 10
160.9628038663
 20
30.7873819712
 11
160.9628038663
 21
30.8519093441
  0
LINE
  8
0
 62
7
  6
CONTINUOUS
 10
160.9671844304
 20
32.3970785186
 11
160.9671844304
 21
36.1675703219
  0
LINE
  8
0
 62
7
  6
CONTINUOUS
 10
154.0253041972
 20
31.4971831403
 11
153.9674919177
 21
31.4326557675
  0
LINE
  8
0
 62
7
  6
CONTINUOUS
 10
150.9034292799
 20
31.4649194539
 11
151.0768668626
 21
31.400392081
  0
LINE
  8
0
 62
7
  6
CONTINUOUS
 10
155.6440543074
 20
31.4649194539
 11
155.5284290869
 21
31.5294468267
  0
LINE
  8
0
 62
7
  6
CONTINUOUS
 10
159.4596793074
 20
31.3036010218
 11
159.401867028
 21
31.3681283946
  0
LINE
  8
0
 62
7
  6
CONTINUOUS
 10
160.615929528
 20
30.9164367395
 11
160.6737418074
 21
30.8519093441
  0
LINE
  8
0
 62
7
  6
CONTINUOUS
 10
160.9628038663
 20
30.8519093441
 11
160.8471793074
 21
30.9809641124
  0
LINE
  8
0
 62
7
  6
CONTINUOUS
 10
160.615929528
 20
31.4326557675
 11
160.6737418074
 21
31.3681283946
  0
LINE
  8
0
 62
7
  6
CONTINUOUS
 10
160.9628038663
 20
31.3681283946
 11
160.8471793074
 21
31.4971831403
  0
LINE
  8
0
 62
7
  6
CONTINUOUS
 10
154.2565543074
 20
31.3681283946
 11
154.3143669177
 21
31.4326557675
  0
LINE
  8
0
 62
7
  6
CONTINUOUS
 10
154.0831168074
 20
31.1100188581
 11
153.9674919177
 21
30.9809641124
  0
LINE
  8
0
 62
7
  6
CONTINUOUS
 10
155.412804528
 20
30.9487004259
 11
155.3549915869
 21
30.8841730531
  0
LINE
  8
0
 62
7
  6
CONTINUOUS
 10
155.3549915869
 20
30.6905909007
 11
155.412804528
 21
30.7551182848
  0
LINE
  8
0
 62
7
  6
CONTINUOUS
 10
154.1987416972
 20
30.6583272086
 11
154.3143669177
 21
30.6260635193
  0
LINE
  8
0
 62
7
  6
CONTINUOUS
 10
151.1924917523
 20
31.5294468267
 11
150.9612418074
 21
31.5939741996
  0
LINE
  8
0
 62
7
  6
CONTINUOUS
 10
154.5456166972
 20
30.7228545871
 11
154.3143669177
 21
30.7873819712
  0
LINE
  8
0
 62
7
  6
CONTINUOUS
 10
153.2737419177
 20
31.5294468267
 11
153.1003044177
 21
31.5939741996
  0
LINE
  8
0
 62
7
  6
CONTINUOUS
 10
155.5284290869
 20
31.5294468267
 11
155.3549915869
 21
31.5939741996
  0
LINE
  8
0
 62
7
  6
CONTINUOUS
 10
158.187804528
 20
31.4326557675
 11
158.3034290869
 21
31.3681283946
  0
LINE
  8
0
 62
7
  6
CONTINUOUS
 10
158.534679528
 20
31.4649194539
 11
158.4190543074
 21
31.5294468267
  0
LINE
  8
0
 62
7
  6
CONTINUOUS
 10
150.0362418212
 20
30.6583272086
 11
150.2096793212
 21
30.6260635193
  0
LINE
  8
0
 62
7
  6
CONTINUOUS
 10
150.498741835
 20
30.7228545871
 11
150.1518667936
 21
30.7873819712
  0
LINE
  8
0
 62
7
  6
CONTINUOUS
 10
152.9268669177
 20
31.4649194539
 11
153.0424918074
 21
31.4326557675
  0
LINE
  8
0
 62
7
  6
CONTINUOUS
 10
155.239367028
 20
31.4649194539
 11
155.3549915869
 21
31.4326557675
  0
LINE
  8
0
 62
7
  6
CONTINUOUS
 10
159.575304528
 20
30.7551182848
 11
159.4596793074
 21
30.7873819712
  0
LINE
  8
0
 62
7
  6
CONTINUOUS
 10
158.0721793074
 20
31.4649194539
 11
158.187804528
 21
31.4326557675
  0
LINE
  8
0
 62
7
  6
CONTINUOUS
 10
159.228429528
 20
30.7228545871
 11
159.401867028
 21
30.6583272086
  0
LINE
  8
0
 62
7
  6
CONTINUOUS
 10
158.4190543074
 20
31.5294468267
 11
158.2456168074
 21
31.5939741996
  0
LINE
  8
0
 62
7
  6
CONTINUOUS
 10
159.6331168074
 20
31.2390736489
 11
159.4596793074
 21
31.3036010218
  0
LINE
  8
0
 62
7
  6
CONTINUOUS
 10
160.442492028
 20
30.9809641124
 11
160.615929528
 21
30.9164367395
  0
LINE
  8
0
 62
7
  6
CONTINUOUS
 10
160.8471793074
 20
31.4971831403
 11
160.6737418074
 21
31.5617105132
  0
LINE
  8
0
 62
7
  6
CONTINUOUS
 10
159.228429528
 20
31.2390736489
 11
159.4596793074
 21
31.1422825445
  0
LINE
  8
0
 62
7
  6
CONTINUOUS
 10
160.8471793074
 20
30.9809641124
 11
160.615929528
 21
31.0777551716
  0
LINE
  8
0
 62
7
  6
CONTINUOUS
 10
159.401867028
 20
31.3681283946
 11
159.4596793074
 21
31.4326557675
  0
LINE
  8
0
 62
7
  6
CONTINUOUS
 10
149.8628043005
 20
31.4971831403
 11
149.7471793074
 21
31.4326557675
  0
LINE
  8
0
 62
7
  6
CONTINUOUS
 10
149.9784292936
 20
31.3358647082
 11
150.1518667936
 21
31.4326557675
  0
LINE
  8
0
 62
7
  6
CONTINUOUS
 10
152.2909293626
 20
31.5294468267
 11
152.1753043074
 21
31.4649194539
  0
LINE
  8
0
 62
7
  6
CONTINUOUS
 10
152.1753043074
 20
31.3358647082
 11
152.2909293626
 21
31.400392081
  0
LINE
  8
0
 62
7
  6
CONTINUOUS
 10
151.1924917523
 20
30.6905909007
 11
151.3659292523
 21
30.7873819712
  0
LINE
  8
0
 62
7
  6
CONTINUOUS
 10
150.2096793212
 20
30.6260635193
 11
150.5565542799
 21
30.5937998301
  0
LINE
  8
0
 62
7
  6
CONTINUOUS
 10
154.3143669177
 20
30.6260635193
 11
154.5456166972
 21
30.5937998301
  0
LINE
  8
0
 62
7
  6
CONTINUOUS
 10
152.6956168074
 20
31.4971831403
 11
152.9268669177
 21
31.4649194539
  0
LINE
  8
0
 62
7
  6
CONTINUOUS
 10
155.0081169177
 20
31.4971831403
 11
155.239367028
 21
31.4649194539
  0
LINE
  8
0
 62
7
  6
CONTINUOUS
 10
159.4596793074
 20
31.1422825445
 11
160.442492028
 21
30.9809641124
  0
LINE
  8
0
 62
7
  6
CONTINUOUS
 10
160.615929528
 20
31.0777551716
 11
159.6331168074
 21
31.2390736489
  0
LINE
  8
0
 62
7
  6
CONTINUOUS
 10
153.1003044177
 20
31.5939741996
 11
152.9268669177
 21
31.626237886
  0
LINE
  8
0
 62
7
  6
CONTINUOUS
 10
159.401867028
 20
30.6583272086
 11
159.575304528
 21
30.6260635193
  0
LINE
  8
0
 62
7
  6
CONTINUOUS
 10
158.2456168074
 20
31.5939741996
 11
158.0721793074
 21
31.626237886
  0
LINE
  8
0
 62
7
  6
CONTINUOUS
 10
160.5003043074
 20
31.4649194539
 11
160.615929528
 21
31.4326557675
  0
LINE
  8
0
 62
7
  6
CONTINUOUS
 10
160.6737418074
 20
30.8519093441
 11
160.615929528
 21
30.7873819712
  0
LINE
  8
0
 62
7
  6
CONTINUOUS
 10
159.228429528
 20
31.5294468267
 11
159.1128043074
 21
31.4326557675
  0
LINE
  8
0
 62
7
  6
CONTINUOUS
 10
154.1409294177
 20
31.5617105132
 11
154.0253041972
 21
31.4971831403
  0
LINE
  8
0
 62
7
  6
CONTINUOUS
 10
154.1987416972
 20
31.1745462761
 11
154.0831168074
 21
31.1100188581
  0
LINE
  8
0
 62
7
  6
CONTINUOUS
 10
154.3143669177
 20
31.0132277988
 11
154.4299918074
 21
31.0777551716
  0
LINE
  8
0
 62
7
  6
CONTINUOUS
 10
151.8862417523
 20
30.5937998301
 11
152.1753043074
 21
30.5937998301
  0
LINE
  8
0
 62
7
  6
CONTINUOUS
 10
153.2159293074
 20
30.5937998301
 11
153.5049916972
 21
30.5937998301
  0
LINE
  8
0
 62
7
  6
CONTINUOUS
 10
154.5456166972
 20
30.5937998301
 11
154.8924916972
 21
30.5937998301
  0
LINE
  8
0
 62
7
  6
CONTINUOUS
 10
155.5284290869
 20
30.5937998301
 11
155.8174918074
 21
30.5937998301
  0
LINE
  8
0
 62
7
  6
CONTINUOUS
 10
156.279992028
 20
30.5937998301
 11
156.5690540869
 21
30.5937998301
  0
LINE
  8
0
 62
7
  6
CONTINUOUS
 10
157.0315543074
 20
30.5937998301
 11
157.320617028
 21
30.5937998301
  0
LINE
  8
0
 62
7
  6
CONTINUOUS
 10
158.361242028
 20
30.5937998301
 11
158.6503040869
 21
30.5937998301
  0
LINE
  8
0
 62
7
  6
CONTINUOUS
 10
159.922179528
 20
30.5937998301
 11
160.269054528
 21
30.5937998301
  0
LINE
  8
0
 62
7
  6
CONTINUOUS
 10
160.269054528
 20
30.7228545871
 11
159.922179528
 21
30.7228545871
  0
LINE
  8
0
 62
7
  6
CONTINUOUS
 10
154.8924916972
 20
30.7228545871
 11
154.5456166972
 21
30.7228545871
  0
LINE
  8
0
 62
7
  6
CONTINUOUS
 10
159.401867028
 20
30.8519093441
 11
159.1128043074
 21
30.8519093441
  0
LINE
  8
0
 62
7
  6
CONTINUOUS
 10
151.4237418626
 20
30.9164367395
 11
151.1346793074
 21
30.9164367395
  0
LINE
  8
0
 62
7
  6
CONTINUOUS
 10
150.498741835
 20
31.4971831403
 11
150.9034292799
 21
31.4649194539
  0
LINE
  8
0
 62
7
  6
CONTINUOUS
 10
150.9612418074
 20
31.5939741996
 11
150.5565542799
 21
31.626237886
  0
LINE
  8
0
 62
7
  6
CONTINUOUS
 10
159.575304528
 20
30.6260635193
 11
159.922179528
 21
30.5937998301
  0
LINE
  8
0
 62
7
  6
CONTINUOUS
 10
159.922179528
 20
30.7228545871
 11
159.575304528
 21
30.7551182848
  0
LINE
  8
0
 62
7
  6
CONTINUOUS
 10
155.3549915869
 20
31.5939741996
 11
155.0081169177
 21
31.626237886
  0
LINE
  8
0
 62
7
  6
CONTINUOUS
 10
160.1534293074
 20
31.4971831403
 11
160.5003043074
 21
31.4649194539
  0
LINE
  8
0
 62
7
  6
CONTINUOUS
 10
160.5003043074
 20
31.5939741996
 11
160.1534293074
 21
31.626237886
  0
LINE
  8
0
 62
7
  6
CONTINUOUS
 10
157.840929528
 20
31.4971831403
 11
158.0721793074
 21
31.4649194539
  0
LINE
  8
0
 62
7
  6
CONTINUOUS
 10
160.6737418074
 20
31.5617105132
 11
160.5003043074
 21
31.5939741996
  0
LINE
  8
0
 62
7
  6
CONTINUOUS
 10
160.8471793074
 20
30.6905909007
 11
160.9628038663
 21
30.7873819712
  0
LINE
  8
0
 62
7
  6
CONTINUOUS
 10
155.3549915869
 20
30.8841730531
 11
155.1815540869
 21
30.7873819712
  0
LINE
  8
0
 62
7
  6
CONTINUOUS
 10
157.4362415869
 20
31.5294468267
 11
157.320617028
 21
31.4649194539
  0
LINE
  8
0
 62
7
  6
CONTINUOUS
 10
157.320617028
 20
31.3358647082
 11
157.4362415869
 21
31.400392081
  0
LINE
  8
0
 62
7
  6
CONTINUOUS
 10
150.0362418212
 20
31.5617105132
 11
149.8628043005
 21
31.4971831403
  0
LINE
  8
0
 62
7
  6
CONTINUOUS
 10
152.4643666972
 20
31.5939741996
 11
152.2909293626
 21
31.5294468267
  0
LINE
  8
0
 62
7
  6
CONTINUOUS
 10
152.2909293626
 20
31.400392081
 11
152.4643666972
 21
31.4649194539
  0
LINE
  8
0
 62
7
  6
CONTINUOUS
 10
151.0768668626
 20
30.8196456577
 11
150.9034292799
 21
30.7551182848
  0
LINE
  8
0
 62
7
  6
CONTINUOUS
 10
160.5003043074
 20
30.7551182848
 11
160.269054528
 21
30.7228545871
  0
LINE
  8
0
 62
7
  6
CONTINUOUS
 10
154.8924916972
 20
30.5937998301
 11
155.1815540869
 21
30.6260635193
  0
LINE
  8
0
 62
7
  6
CONTINUOUS
 10
160.269054528
 20
30.5937998301
 11
160.615929528
 21
30.6260635193
  0
LINE
  8
0
 62
7
  6
CONTINUOUS
 10
150.5565542799
 20
30.5937998301
 11
150.9612418074
 21
30.6260635193
  0
LINE
  8
0
 62
7
  6
CONTINUOUS
 10
150.9034292799
 20
30.7551182848
 11
150.498741835
 21
30.7228545871
  0
LINE
  8
0
 62
7
  6
CONTINUOUS
 10
154.7768668074
 20
31.1422825445
 11
155.412804528
 21
31.1422825445
  0
LINE
  8
0
 62
7
  6
CONTINUOUS
 10
155.412804528
 20
31.2713373354
 11
154.7768668074
 21
31.2713373354
  0
LINE
  8
0
 62
7
  6
CONTINUOUS
 10
151.1346793074
 20
31.3036010218
 11
151.4237418626
 21
31.3036010218
  0
LINE
  8
0
 62
7
  6
CONTINUOUS
 10
153.9674919177
 20
31.3681283946
 11
154.2565543074
 21
31.3681283946
  0
LINE
  8
0
 62
7
  6
CONTINUOUS
 10
160.6737418074
 20
31.3681283946
 11
160.9628038663
 21
31.3681283946
  0
LINE
  8
0
 62
7
  6
CONTINUOUS
 10
154.6612419177
 20
31.4971831403
 11
155.0081169177
 21
31.4971831403
  0
LINE
  8
0
 62
7
  6
CONTINUOUS
 10
159.8065543074
 20
31.4971831403
 11
160.1534293074
 21
31.4971831403
  0
LINE
  8
0
 62
7
  6
CONTINUOUS
 10
160.1534293074
 20
31.626237886
 11
159.8065543074
 21
31.626237886
  0
LINE
  8
0
 62
7
  6
CONTINUOUS
 10
158.0721793074
 20
31.626237886
 11
157.840929528
 21
31.626237886
  0
LINE
  8
0
 62
7
  6
CONTINUOUS
 10
157.320617028
 20
31.626237886
 11
157.0315543074
 21
31.626237886
  0
LINE
  8
0
 62
7
  6
CONTINUOUS
 10
156.5690540869
 20
31.626237886
 11
156.279992028
 21
31.626237886
  0
LINE
  8
0
 62
7
  6
CONTINUOUS
 10
155.0081169177
 20
31.626237886
 11
154.6612419177
 21
31.626237886
  0
LINE
  8
0
 62
7
  6
CONTINUOUS
 10
152.9268669177
 20
31.626237886
 11
152.6956168074
 21
31.626237886
  0
LINE
  8
0
 62
7
  6
CONTINUOUS
 10
156.279992028
 20
31.9488748406
 11
156.5690540869
 21
31.9488748406
  0
LINE
  8
0
 62
7
  6
CONTINUOUS
 10
156.5690540869
 20
32.1101932727
 11
156.279992028
 21
32.1101932727
  0
LINE
  8
0
 62
7
  6
CONTINUOUS
 10
152.1753043074
 20
32.1101932727
 11
151.8862417523
 21
32.1101932727
  0
LINE
  8
0
 62
7
  6
CONTINUOUS
 10
151.2130860697
 20
32.3970785186
 11
151.6256574183
 21
32.3970785186
  0
LINE
  8
0
 62
7
  6
CONTINUOUS
 10
152.852430332
 20
32.3970785186
 11
154.245872955
 21
32.3970785186
  0
LINE
  8
0
 62
7
  6
CONTINUOUS
 10
154.5737418074
 20
32.3970785186
 11
155.9671844304
 21
32.3970785186
  0
LINE
  8
0
 62
7
  6
CONTINUOUS
 10
157.852430332
 20
32.3970785186
 11
159.245872955
 21
32.3970785186
  0
LINE
  8
0
 62
7
  6
CONTINUOUS
 10
159.5737418074
 20
32.3970785186
 11
160.9671844304
 21
32.3970785186
  0
LINE
  8
0
 62
7
  6
CONTINUOUS
 10
157.6096790869
 20
31.5939741996
 11
157.4362415869
 21
31.5294468267
  0
LINE
  8
0
 62
7
  6
CONTINUOUS
 10
155.1815540869
 20
30.6260635193
 11
155.3549915869
 21
30.6905909007
  0
LINE
  8
0
 62
7
  6
CONTINUOUS
 10
160.615929528
 20
30.6260635193
 11
160.8471793074
 21
30.6905909007
  0
LINE
  8
0
 62
7
  6
CONTINUOUS
 10
160.615929528
 20
30.7873819712
 11
160.5003043074
 21
30.7551182848
  0
LINE
  8
0
 62
7
  6
CONTINUOUS
 10
159.575304528
 20
31.4649194539
 11
159.8065543074
 21
31.4971831403
  0
LINE
  8
0
 62
7
  6
CONTINUOUS
 10
157.6096790869
 20
31.4649194539
 11
157.840929528
 21
31.4971831403
  0
LINE
  8
0
 62
7
  6
CONTINUOUS
 10
154.5456166972
 20
31.1100188581
 11
154.7768668074
 21
31.1422825445
  0
LINE
  8
0
 62
7
  6
CONTINUOUS
 10
157.840929528
 20
31.626237886
 11
157.6096790869
 21
31.5939741996
  0
LINE
  8
0
 62
7
  6
CONTINUOUS
 10
154.4299918074
 20
31.4649194539
 11
154.6612419177
 21
31.4971831403
  0
LINE
  8
0
 62
7
  6
CONTINUOUS
 10
159.8065543074
 20
31.626237886
 11
159.4596793074
 21
31.5939741996
  0
LINE
  8
0
 62
7
  6
CONTINUOUS
 10
154.7768668074
 20
31.2713373354
 11
154.4299918074
 21
31.2390736489
  0
LINE
  8
0
 62
7
  6
CONTINUOUS
 10
150.5565542799
 20
31.626237886
 11
150.2096793212
 21
31.5939741996
  0
LINE
  8
0
 62
7
  6
CONTINUOUS
 10
154.6612419177
 20
31.626237886
 11
154.2565543074
 21
31.5939741996
  0
LINE
  8
0
 62
7
  6
CONTINUOUS
 10
152.0327582009
 20
33.5446195022
 11
151.3770204959
 21
33.5446195022
  0
LINE
  8
0
 62
7
  6
CONTINUOUS
 10
157.4362415869
 20
31.400392081
 11
157.6096790869
 21
31.4649194539
  0
LINE
  8
0
 62
7
  6
CONTINUOUS
 10
159.4596793074
 20
31.4326557675
 11
159.575304528
 21
31.4649194539
  0
LINE
  8
0
 62
7
  6
CONTINUOUS
 10
159.4596793074
 20
31.5939741996
 11
159.228429528
 21
31.5294468267
  0
LINE
  8
0
 62
7
  6
CONTINUOUS
 10
155.1815540869
 20
30.7873819712
 11
154.8924916972
 21
30.7228545871
  0
LINE
  8
0
 62
7
  6
CONTINUOUS
 10
152.4643666972
 20
31.4649194539
 11
152.6956168074
 21
31.4971831403
  0
LINE
  8
0
 62
7
  6
CONTINUOUS
 10
152.6956168074
 20
31.626237886
 11
152.4643666972
 21
31.5939741996
  0
LINE
  8
0
 62
7
  6
CONTINUOUS
 10
150.2674918074
 20
31.4649194539
 11
150.498741835
 21
31.4971831403
  0
LINE
  8
0
 62
7
  6
CONTINUOUS
 10
156.7868565615
 20
35.0200293383
 11
157.4425942664
 21
35.0200293383
  0
LINE
  8
0
 62
7
  6
CONTINUOUS
 10
154.4299918074
 20
31.0777551716
 11
154.5456166972
 21
31.1100188581
  0
LINE
  8
0
 62
7
  6
CONTINUOUS
 10
154.4299918074
 20
31.2390736489
 11
154.1987416972
 21
31.1745462761
  0
LINE
  8
0
 62
7
  6
CONTINUOUS
 10
154.3143669177
 20
31.4326557675
 11
154.4299918074
 21
31.4649194539
  0
LINE
  8
0
 62
7
  6
CONTINUOUS
 10
150.9612418074
 20
30.6260635193
 11
151.1924917523
 21
30.6905909007
  0
LINE
  8
0
 62
7
  6
CONTINUOUS
 10
154.2565543074
 20
31.5939741996
 11
154.1409294177
 21
31.5617105132
  0
LINE
  8
0
 62
7
  6
CONTINUOUS
 10
150.2096793212
 20
31.5939741996
 11
150.0362418212
 21
31.5617105132
  0
LINE
  8
0
 62
7
  6
CONTINUOUS
 10
160.9671844304
 20
36.1675703219
 11
159.5737418074
 21
36.1675703219
  0
LINE
  8
0
 62
7
  6
CONTINUOUS
 10
157.6065286927
 20
36.1675703219
 11
157.1939573441
 21
36.1675703219
  0
LINE
  8
0
 62
7
  6
CONTINUOUS
 10
155.9671844304
 20
36.1675703219
 11
154.5737418074
 21
36.1675703219
  0
LINE
  8
0
 62
7
  6
CONTINUOUS
 10
154.245872955
 20
36.1675703219
 11
152.852430332
 21
36.1675703219
  0
LINE
  8
0
 62
7
  6
CONTINUOUS
 10
150.9671844304
 20
36.1675703219
 11
149.5737418074
 21
36.1675703219
  0
LINE
  8
0
 62
7
  6
CONTINUOUS
 10
150.1518667936
 20
31.4326557675
 11
150.2674918074
 21
31.4649194539
  0
CIRCLE
  8
0
 62
7
  6
CONTINUOUS
 10
160.2704631189
 20
38.5036358957
 40
2.0901639344
  0
ARC
  8
0
 62
7
  6
CONTINUOUS
 10
151.2130860697
 20
34.0364227809
 40
1.6393442623
 50
180.0
 51
270.0
  0
ARC
  8
0
 62
7
  6
CONTINUOUS
 10
157.6065286927
 20
34.5282260596
 40
1.6393442623
 50
0.0
 51
90.0
  0
ARC
  8
0
 62
7
  6
CONTINUOUS
 10
151.6256574183
 20
33.8724883547
 40
1.4754098361
 50
270.0
 51
326.2510114041
  0
ARC
  8
0
 62
7
  6
CONTINUOUS
 10
157.1939573441
 20
34.6921604858
 40
1.4754098361
 50
90.0
 51
146.2510114041
  0
ARC
  8
0
 62
7
  6
CONTINUOUS
 10
152.0327582009
 20
34.3642916334
 40
0.8196721311
 50
270.0
 51
360.0
  0
ARC
  8
0
 62
7
  6
CONTINUOUS
 10
156.7868565615
 20
34.2003572071
 40
0.8196721311
 50
90.0
 51
180.0
  0
ARC
  8
0
 62
7
  6
CONTINUOUS
 10
151.3770204959
 20
33.9544555678
 40
0.4098360656
 50
180.0
 51
270.0
  0
ARC
  8
0
 62
7
  6
CONTINUOUS
 10
157.4425942664
 20
34.6101932727
 40
0.4098360656
 50
0.0
 51
90.0
  0
SOLID
  8
0
 62
7
  6
CONTINUOUS
 10
156.279992028
 20
31.9488752009
 11
156.279992028
 21
32.1101936845
 12
156.5690540869
 22
31.9488752009
 13
156.5690540869
 23
32.1101936845
  0
SOLID
  8
0
 62
7
  6
CONTINUOUS
 10
150.5565542799
 20
31.6262382337
 11
150.9612418074
 21
31.5939740028
 12
150.2096793212
 22
31.5939740028
 13
150.2096793212
 23
31.5939740028
  0
SOLID
  8
0
 62
7
  6
CONTINUOUS
 10
150.0362418212
 20
31.5617111435
 11
150.2096793212
 21
31.5939740028
 12
150.9612418074
 22
31.5939740028
 13
150.9612418074
 23
31.5939740028
  0
SOLID
  8
0
 62
7
  6
CONTINUOUS
 10
150.9612418074
 20
31.5939740028
 11
151.1924917523
 21
31.5294468402
 12
150.0362418212
 22
31.5617111435
 13
150.0362418212
 23
31.5617111435
  0
SOLID
  8
0
 62
7
  6
CONTINUOUS
 10
149.8628043005
 20
31.49718259
 11
150.0362418212
 21
31.5617111435
 12
151.1924917523
 22
31.5294468402
 13
151.1924917523
 23
31.5294468402
  0
SOLID
  8
0
 62
7
  6
CONTINUOUS
 10
149.8628043005
 20
31.49718259
 11
151.1924917523
 21
31.5294468402
 12
150.498741835
 22
31.49718259
 13
150.498741835
 23
31.49718259
  0
SOLID
  8
0
 62
7
  6
CONTINUOUS
 10
150.498741835
 20
31.49718259
 11
151.1924917523
 21
31.5294468402
 12
150.9034292799
 22
31.4649197501
 13
150.9034292799
 23
31.4649197501
  0
SOLID
  8
0
 62
7
  6
CONTINUOUS
 10
151.1924917523
 20
31.5294468402
 11
151.3659292523
 21
31.4326554468
 12
150.9034292799
 22
31.4649197501
 13
150.9034292799
 23
31.4649197501
  0
SOLID
  8
0
 62
7
  6
CONTINUOUS
 10
151.0768668626
 20
31.4003926599
 11
150.9034292799
 21
31.4649197501
 12
151.3659292523
 22
31.4326554468
 13
151.3659292523
 23
31.4326554468
  0
SOLID
  8
0
 62
7
  6
CONTINUOUS
 10
151.0768668626
 20
31.4003926599
 11
151.3659292523
 21
31.4326554468
 12
151.1346793074
 22
31.3036013776
 13
151.1346793074
 23
31.3036013776
  0
SOLID
  8
0
 62
7
  6
CONTINUOUS
 10
151.3659292523
 20
31.4326554468
 11
151.4237418626
 21
31.3036013776
 12
151.1346793074
 22
31.3036013776
 13
151.1346793074
 23
31.3036013776
  0
SOLID
  8
0
 62
7
  6
CONTINUOUS
 10
152.4643666972
 20
31.5939739754
 11
152.6956168074
 21
31.6262382787
 12
152.9268669177
 22
31.6262382787
 13
152.9268669177
 23
31.6262382787
  0
SOLID
  8
0
 62
7
  6
CONTINUOUS
 10
152.9268669177
 20
31.6262382787
 11
153.1003044177
 21
31.5939739754
 12
152.4643666972
 22
31.5939739754
 13
152.4643666972
 23
31.5939739754
  0
SOLID
  8
0
 62
7
  6
CONTINUOUS
 10
152.2909293626
 20
31.5294468852
 11
152.4643666972
 21
31.5939739754
 12
153.1003044177
 22
31.5939739754
 13
153.1003044177
 23
31.5939739754
  0
SOLID
  8
0
 62
7
  6
CONTINUOUS
 10
153.1003044177
 20
31.5939739754
 11
153.2737419177
 21
31.5294468852
 12
152.2909293626
 22
31.5294468852
 13
152.2909293626
 23
31.5294468852
  0
SOLID
  8
0
 62
7
  6
CONTINUOUS
 10
153.2737419177
 20
31.5294468852
 11
152.6956168074
 21
31.4971825369
 12
152.2909293626
 22
31.5294468852
 13
152.2909293626
 23
31.5294468852
  0
SOLID
  8
0
 62
7
  6
CONTINUOUS
 10
152.1753043074
 20
31.4649197951
 11
152.2909293626
 21
31.5294468852
 12
152.6956168074
 22
31.4971825369
 13
152.6956168074
 23
31.4971825369
  0
SOLID
  8
0
 62
7
  6
CONTINUOUS
 10
152.6956168074
 20
31.4971825369
 11
152.4643666972
 21
31.4649197951
 12
152.1753043074
 22
31.4649197951
 13
152.1753043074
 23
31.4649197951
  0
SOLID
  8
0
 62
7
  6
CONTINUOUS
 10
152.6956168074
 20
31.4971825369
 11
153.2737419177
 21
31.5294468852
 12
152.9268669177
 22
31.4649197951
 13
152.9268669177
 23
31.4649197951
  0
SOLID
  8
0
 62
7
  6
CONTINUOUS
 10
153.2737419177
 20
31.5294468852
 11
153.3893668074
 21
31.4649197951
 12
152.9268669177
 22
31.4649197951
 13
152.9268669177
 23
31.4649197951
  0
SOLID
  8
0
 62
7
  6
CONTINUOUS
 10
153.0424918074
 20
31.4326554468
 11
152.9268669177
 21
31.4649197951
 12
153.3893668074
 22
31.4649197951
 13
153.3893668074
 23
31.4649197951
  0
SOLID
  8
0
 62
7
  6
CONTINUOUS
 10
153.3893668074
 20
31.4649197951
 11
153.4471794177
 21
31.4003927049
 12
153.0424918074
 22
31.4326554468
 13
153.0424918074
 23
31.4326554468
  0
SOLID
  8
0
 62
7
  6
CONTINUOUS
 10
153.1581166972
 20
31.3681283566
 11
153.0424918074
 21
31.4326554468
 12
153.4471794177
 22
31.4003927049
 13
153.4471794177
 23
31.4003927049
  0
SOLID
  8
0
 62
7
  6
CONTINUOUS
 10
153.1581166972
 20
31.3681283566
 11
153.4471794177
 21
31.4003927049
 12
153.2159293074
 22
31.2390742213
 13
153.2159293074
 23
31.2390742213
  0
SOLID
  8
0
 62
7
  6
CONTINUOUS
 10
153.4471794177
 20
31.4003927049
 11
153.5049916972
 21
31.2390742213
 12
153.2159293074
 22
31.2390742213
 13
153.2159293074
 23
31.2390742213
  0
SOLID
  8
0
 62
7
  6
CONTINUOUS
 10
152.4643666972
 20
31.4649197951
 11
152.2909293626
 21
31.4003927049
 12
152.1753043074
 22
31.4649197951
 13
152.1753043074
 23
31.4649197951
  0
SOLID
  8
0
 62
7
  6
CONTINUOUS
 10
152.2909293626
 20
31.4003927049
 11
152.1753043074
 21
31.3358640533
 12
152.1753043074
 22
31.4649197951
 13
152.1753043074
 23
31.4649197951
  0
SOLID
  8
0
 62
7
  6
CONTINUOUS
 10
152.1753043074
 20
31.3358640533
 11
151.8862417523
 21
30.5938002869
 12
152.1753043074
 22
31.4649197951
 13
152.1753043074
 23
31.4649197951
  0
SOLID
  8
0
 62
7
  6
CONTINUOUS
 10
152.1753043074
 20
31.4649197951
 11
151.8862417523
 21
30.5938002869
 12
152.1753043074
 22
32.1101937295
 13
152.1753043074
 23
32.1101937295
  0
SOLID
  8
0
 62
7
  6
CONTINUOUS
 10
151.8862417523
 20
30.5938002869
 11
151.8862417523
 21
32.1101937295
 12
152.1753043074
 22
32.1101937295
 13
152.1753043074
 23
32.1101937295
  0
SOLID
  8
0
 62
7
  6
CONTINUOUS
 10
152.1753043074
 20
31.3358640533
 11
152.1753043074
 21
30.5938002869
 12
151.8862417523
 22
30.5938002869
 13
151.8862417523
 23
30.5938002869
  0
SOLID
  8
0
 62
7
  6
CONTINUOUS
 10
153.2159293074
 20
30.5938002869
 11
153.2159293074
 21
31.2390742213
 12
153.5049916972
 22
31.2390742213
 13
153.5049916972
 23
31.2390742213
  0
SOLID
  8
0
 62
7
  6
CONTINUOUS
 10
153.5049916972
 20
31.2390742213
 11
153.5049916972
 21
30.5938002869
 12
153.2159293074
 22
30.5938002869
 13
153.2159293074
 23
30.5938002869
  0
SOLID
  8
0
 62
7
  6
CONTINUOUS
 10
154.2565543074
 20
31.5939738288
 11
154.6612419177
 21
31.6262385959
 12
155.0081169177
 22
31.6262385959
 13
155.0081169177
 23
31.6262385959
  0
SOLID
  8
0
 62
7
  6
CONTINUOUS
 10
155.0081169177
 20
31.6262385959
 11
155.3549915869
 21
31.5939738288
 12
154.2565543074
 22
31.5939738288
 13
154.2565543074
 23
31.5939738288
  0
SOLID
  8
0
 62
7
  6
CONTINUOUS
 10
154.1409294177
 20
31.5617111435
 11
154.2565543074
 21
31.5939738288
 12
155.3549915869
 22
31.5939738288
 13
155.3549915869
 23
31.5939738288
  0
SOLID
  8
0
 62
7
  6
CONTINUOUS
 10
155.3549915869
 20
31.5939738288
 11
155.5284290869
 21
31.5294468402
 12
154.1409294177
 22
31.5617111435
 13
154.1409294177
 23
31.5617111435
  0
SOLID
  8
0
 62
7
  6
CONTINUOUS
 10
154.0253041972
 20
31.4971826249
 11
154.1409294177
 21
31.5617111435
 12
155.5284290869
 22
31.5294468402
 13
155.5284290869
 23
31.5294468402
  0
SOLID
  8
0
 62
7
  6
CONTINUOUS
 10
154.0253041972
 20
31.4971826249
 11
155.5284290869
 21
31.5294468402
 12
154.6612419177
 22
31.4971826249
 13
154.6612419177
 23
31.4971826249
  0
SOLID
  8
0
 62
7
  6
CONTINUOUS
 10
154.6612419177
 20
31.4971826249
 11
155.5284290869
 21
31.5294468402
 12
155.0081169177
 22
31.4971826249
 13
155.0081169177
 23
31.4971826249
  0
SOLID
  8
0
 62
7
  6
CONTINUOUS
 10
155.0081169177
 20
31.4971826249
 11
155.5284290869
 21
31.5294468402
 12
155.239367028
 22
31.4649194065
 13
155.239367028
 23
31.4649194065
  0
SOLID
  8
0
 62
7
  6
CONTINUOUS
 10
155.5284290869
 20
31.5294468402
 11
155.6440543074
 21
31.4649194065
 12
155.239367028
 22
31.4649194065
 13
155.239367028
 23
31.4649194065
  0
SOLID
  8
0
 62
7
  6
CONTINUOUS
 10
153.9674919177
 20
31.4326554138
 11
154.0253041972
 21
31.4971826249
 12
154.6612419177
 22
31.4971826249
 13
154.6612419177
 23
31.4971826249
  0
SOLID
  8
0
 62
7
  6
CONTINUOUS
 10
155.3549915869
 20
31.4326554138
 11
155.239367028
 21
31.4649194065
 12
155.6440543074
 22
31.4649194065
 13
155.6440543074
 23
31.4649194065
  0
SOLID
  8
0
 62
7
  6
CONTINUOUS
 10
155.3549915869
 20
31.4326554138
 11
155.6440543074
 21
31.4649194065
 12
155.412804528
 22
31.3681282026
 13
155.412804528
 23
31.3681282026
  0
SOLID
  8
0
 62
7
  6
CONTINUOUS
 10
155.6440543074
 20
31.4649194065
 11
155.7018665869
 21
31.3681282026
 12
155.412804528
 22
31.3681282026
 13
155.412804528
 23
31.3681282026
  0
SOLID
  8
0
 62
7
  6
CONTINUOUS
 10
155.412804528
 20
31.2713369632
 11
155.412804528
 21
31.3681282026
 12
155.7018665869
 22
31.3681282026
 13
155.7018665869
 23
31.3681282026
  0
SOLID
  8
0
 62
7
  6
CONTINUOUS
 10
155.412804528
 20
31.2713369632
 11
155.7018665869
 21
31.3681282026
 12
155.412804528
 22
31.1422827828
 13
155.412804528
 23
31.1422827828
  0
SOLID
  8
0
 62
7
  6
CONTINUOUS
 10
155.412804528
 20
31.1422827828
 11
155.7018665869
 21
31.3681282026
 12
155.412804528
 22
30.9487004259
 13
155.412804528
 23
30.9487004259
  0
SOLID
  8
0
 62
7
  6
CONTINUOUS
 10
155.7018665869
 20
31.3681282026
 11
155.7018665869
 21
30.8519086025
 12
155.412804528
 22
30.9487004259
 13
155.412804528
 23
30.9487004259
  0
SOLID
  8
0
 62
7
  6
CONTINUOUS
 10
157.6096790869
 20
31.5939736268
 11
157.840929528
 21
31.6262383465
 12
158.0721793074
 22
31.6262383465
 13
158.0721793074
 23
31.6262383465
  0
SOLID
  8
0
 62
7
  6
CONTINUOUS
 10
158.0721793074
 20
31.6262383465
 11
158.2456168074
 21
31.5939736268
 12
157.6096790869
 22
31.5939736268
 13
157.6096790869
 23
31.5939736268
  0
SOLID
  8
0
 62
7
  6
CONTINUOUS
 10
157.4362415869
 20
31.5294472848
 11
157.6096790869
 21
31.5939736268
 12
158.2456168074
 22
31.5939736268
 13
158.2456168074
 23
31.5939736268
  0
SOLID
  8
0
 62
7
  6
CONTINUOUS
 10
158.2456168074
 20
31.5939736268
 11
158.4190543074
 21
31.5294472848
 12
157.4362415869
 22
31.5294472848
 13
157.4362415869
 23
31.5294472848
  0
SOLID
  8
0
 62
7
  6
CONTINUOUS
 10
158.4190543074
 20
31.5294472848
 11
157.840929528
 21
31.4971825369
 12
157.4362415869
 22
31.5294472848
 13
157.4362415869
 23
31.5294472848
  0
SOLID
  8
0
 62
7
  6
CONTINUOUS
 10
157.320617028
 20
31.4649199103
 11
157.4362415869
 21
31.5294472848
 12
157.840929528
 22
31.4971825369
 13
157.840929528
 23
31.4971825369
  0
SOLID
  8
0
 62
7
  6
CONTINUOUS
 10
157.840929528
 20
31.4971825369
 11
157.6096790869
 21
31.4649199103
 12
157.320617028
 22
31.4649199103
 13
157.320617028
 23
31.4649199103
  0
SOLID
  8
0
 62
7
  6
CONTINUOUS
 10
157.840929528
 20
31.4971825369
 11
158.4190543074
 21
31.5294472848
 12
158.0721793074
 22
31.4649199103
 13
158.0721793074
 23
31.4649199103
  0
SOLID
  8
0
 62
7
  6
CONTINUOUS
 10
158.4190543074
 20
31.5294472848
 11
158.534679528
 21
31.4649199103
 12
158.0721793074
 22
31.4649199103
 13
158.0721793074
 23
31.4649199103
  0
SOLID
  8
0
 62
7
  6
CONTINUOUS
 10
158.187804528
 20
31.4326554468
 11
158.0721793074
 21
31.4649199103
 12
158.534679528
 22
31.4649199103
 13
158.534679528
 23
31.4649199103
  0
SOLID
  8
0
 62
7
  6
CONTINUOUS
 10
158.187804528
 20
31.4326554468
 11
158.534679528
 21
31.4649199103
 12
158.3034290869
 22
31.3681288486
 13
158.3034290869
 23
31.3681288486
  0
SOLID
  8
0
 62
7
  6
CONTINUOUS
 10
158.534679528
 20
31.4649199103
 11
158.5924918074
 21
31.3681288486
 12
158.3034290869
 22
31.3681288486
 13
158.3034290869
 23
31.3681288486
  0
SOLID
  8
0
 62
7
  6
CONTINUOUS
 10
158.361242028
 20
31.2068093799
 11
158.3034290869
 21
31.3681288486
 12
158.5924918074
 22
31.3681288486
 13
158.5924918074
 23
31.3681288486
  0
SOLID
  8
0
 62
7
  6
CONTINUOUS
 10
158.5924918074
 20
31.3681288486
 11
158.6503040869
 21
31.2068093799
 12
158.361242028
 22
31.2068093799
 13
158.361242028
 23
31.2068093799
  0
SOLID
  8
0
 62
7
  6
CONTINUOUS
 10
157.6096790869
 20
31.4649199103
 11
157.4362415869
 21
31.4003926599
 12
157.320617028
 22
31.4649199103
 13
157.320617028
 23
31.4649199103
  0
SOLID
  8
0
 62
7
  6
CONTINUOUS
 10
157.4362415869
 20
31.4003926599
 11
157.320617028
 21
31.3358640533
 12
157.320617028
 22
31.4649199103
 13
157.320617028
 23
31.4649199103
  0
SOLID
  8
0
 62
7
  6
CONTINUOUS
 10
157.320617028
 20
31.3358640533
 11
157.0315543074
 21
30.5938003547
 12
157.320617028
 22
31.4649199103
 13
157.320617028
 23
31.4649199103
  0
SOLID
  8
0
 62
7
  6
CONTINUOUS
 10
157.320617028
 20
31.4649199103
 11
157.0315543074
 21
30.5938003547
 12
157.320617028
 22
31.6262383465
 13
157.320617028
 23
31.6262383465
  0
SOLID
  8
0
 62
7
  6
CONTINUOUS
 10
157.0315543074
 20
30.5938003547
 11
157.0315543074
 21
31.6262383465
 12
157.320617028
 22
31.6262383465
 13
157.320617028
 23
31.6262383465
  0
SOLID
  8
0
 62
7
  6
CONTINUOUS
 10
157.320617028
 20
31.3358640533
 11
157.320617028
 21
30.5938003547
 12
157.0315543074
 22
30.5938003547
 13
157.0315543074
 23
30.5938003547
  0
SOLID
  8
0
 62
7
  6
CONTINUOUS
 10
158.361242028
 20
30.5938003547
 11
158.361242028
 21
31.2068093799
 12
158.6503040869
 22
31.2068093799
 13
158.6503040869
 23
31.2068093799
  0
SOLID
  8
0
 62
7
  6
CONTINUOUS
 10
158.6503040869
 20
31.2068093799
 11
158.6503040869
 21
30.5938003547
 12
158.361242028
 22
30.5938003547
 13
158.361242028
 23
30.5938003547
  0
SOLID
  8
0
 62
7
  6
CONTINUOUS
 10
159.4596793074
 20
31.5939739474
 11
159.8065543074
 21
31.6262381969
 12
160.1534293074
 22
31.6262381969
 13
160.1534293074
 23
31.6262381969
  0
SOLID
  8
0
 62
7
  6
CONTINUOUS
 10
160.1534293074
 20
31.6262381969
 11
160.5003043074
 21
31.5939739474
 12
159.4596793074
 22
31.5939739474
 13
159.4596793074
 23
31.5939739474
  0
SOLID
  8
0
 62
7
  6
CONTINUOUS
 10
159.228429528
 20
31.5294468402
 11
159.4596793074
 21
31.5939739474
 12
160.5003043074
 22
31.5939739474
 13
160.5003043074
 23
31.5939739474
  0
SOLID
  8
0
 62
7
  6
CONTINUOUS
 10
159.228429528
 20
31.5294468402
 11
160.5003043074
 21
31.5939739304
 12
160.6737418074
 22
31.5617111435
 13
160.6737418074
 23
31.5617111435
  0
SOLID
  8
0
 62
7
  6
CONTINUOUS
 10
159.228429528
 20
31.5294468402
 11
160.6737418074
 21
31.5617111435
 12
159.8065543074
 22
31.4971825592
 13
159.8065543074
 23
31.4971825592
  0
SOLID
  8
0
 62
7
  6
CONTINUOUS
 10
159.8065543074
 20
31.4971825592
 11
160.6737418074
 21
31.5617111435
 12
160.1534293074
 22
31.4971825592
 13
160.1534293074
 23
31.4971825592
  0
SOLID
  8
0
 62
7
  6
CONTINUOUS
 10
160.6737418074
 20
31.5617111435
 11
160.8471793074
 21
31.4971825592
 12
160.1534293074
 22
31.4971825592
 13
160.1534293074
 23
31.4971825592
  0
SOLID
  8
0
 62
7
  6
CONTINUOUS
 10
160.5003043074
 20
31.4649197501
 11
160.1534293074
 21
31.4971825592
 12
160.8471793074
 22
31.4971825592
 13
160.8471793074
 23
31.4971825592
  0
SOLID
  8
0
 62
7
  6
CONTINUOUS
 10
159.1128043074
 20
31.4326555427
 11
159.228429528
 21
31.5294468402
 12
159.8065543074
 22
31.4971825592
 13
159.8065543074
 23
31.4971825592
  0
SOLID
  8
0
 62
7
  6
CONTINUOUS
 10
160.5003043074
 20
31.4649197501
 11
160.8471793074
 21
31.4971825592
 12
160.615929528
 22
31.4326555427
 13
160.615929528
 23
31.4326555427
  0
SOLID
  8
0
 62
7
  6
CONTINUOUS
 10
160.615929528
 20
31.4326555427
 11
160.8471793074
 21
31.4971825592
 12
160.6737418074
 22
31.3681283005
 13
160.6737418074
 23
31.3681283005
  0
SOLID
  8
0
 62
7
  6
CONTINUOUS
 10
160.8471793074
 20
31.4971825592
 11
160.9628038663
 21
31.3681283005
 12
160.6737418074
 22
31.3681283005
 13
160.6737418074
 23
31.3681283005
  0
SOLID
  8
0
 62
7
  6
CONTINUOUS
 10
150.2674918074
 20
31.4649197501
 11
149.7471793074
 21
31.4326554237
 12
150.498741835
 22
31.4971824493
 13
150.498741835
 23
31.4971824493
  0
SOLID
  8
0
 62
7
  6
CONTINUOUS
 10
149.7471793074
 20
31.4326554237
 11
149.8628043005
 21
31.4971824493
 12
150.498741835
 22
31.4971824493
 13
150.498741835
 23
31.4971824493
  0
SOLID
  8
0
 62
7
  6
CONTINUOUS
 10
150.2674918074
 20
31.4649197501
 11
150.1518667936
 21
31.4326554237
 12
149.7471793074
 22
31.4326554237
 13
149.7471793074
 23
31.4326554237
  0
SOLID
  8
0
 62
7
  6
CONTINUOUS
 10
149.6315543091
 20
31.3036012664
 11
149.7471793074
 21
31.4326554237
 12
150.1518667936
 22
31.4326554237
 13
150.1518667936
 23
31.4326554237
  0
SOLID
  8
0
 62
7
  6
CONTINUOUS
 10
153.9674919177
 20
31.4326554237
 11
154.6612419177
 21
31.4971825369
 12
154.4299918074
 22
31.4649197501
 13
154.4299918074
 23
31.4649197501
  0
SOLID
  8
0
 62
7
  6
CONTINUOUS
 10
154.4299918074
 20
31.4649197501
 11
154.3143669177
 21
31.4326554237
 12
153.9674919177
 22
31.4326554237
 13
153.9674919177
 23
31.4326554237
  0
SOLID
  8
0
 62
7
  6
CONTINUOUS
 10
153.9674919177
 20
31.3681283335
 11
153.9674919177
 21
31.4326554237
 12
154.3143669177
 22
31.4326554237
 13
154.3143669177
 23
31.4326554237
  0
SOLID
  8
0
 62
7
  6
CONTINUOUS
 10
154.3143669177
 20
31.4326554237
 11
154.2565543074
 21
31.3681283335
 12
153.9674919177
 22
31.3681283335
 13
153.9674919177
 23
31.3681283335
  0
SOLID
  8
0
 62
7
  6
CONTINUOUS
 10
159.1128043074
 20
31.4326555528
 11
159.8065543074
 21
31.4971825369
 12
159.575304528
 22
31.4649197501
 13
159.575304528
 23
31.4649197501
  0
SOLID
  8
0
 62
7
  6
CONTINUOUS
 10
159.575304528
 20
31.4649197501
 11
159.4596793074
 21
31.4326555528
 12
159.1128043074
 22
31.4326555528
 13
159.1128043074
 23
31.4326555528
  0
SOLID
  8
0
 62
7
  6
CONTINUOUS
 10
159.1128043074
 20
31.3681284626
 11
159.1128043074
 21
31.4326555528
 12
159.4596793074
 22
31.4326555528
 13
159.4596793074
 23
31.4326555528
  0
SOLID
  8
0
 62
7
  6
CONTINUOUS
 10
159.4596793074
 20
31.4326555528
 11
159.401867028
 21
31.3681284626
 12
159.1128043074
 22
31.3681284626
 13
159.1128043074
 23
31.3681284626
  0
SOLID
  8
0
 62
7
  6
CONTINUOUS
 10
159.228429528
 20
31.2390741763
 11
159.1128043074
 21
31.3681284626
 12
159.401867028
 22
31.3681284626
 13
159.401867028
 23
31.3681284626
  0
SOLID
  8
0
 62
7
  6
CONTINUOUS
 10
149.6315543091
 20
31.3036012664
 11
150.1518667936
 21
31.4326554468
 12
149.9784292936
 22
31.3358640533
 13
149.9784292936
 23
31.3358640533
  0
SOLID
  8
0
 62
7
  6
CONTINUOUS
 10
149.9784292936
 20
31.3358640533
 11
149.9206168074
 21
31.2713369632
 12
149.6315543091
 22
31.3036012664
 13
149.6315543091
 23
31.3036012664
  0
SOLID
  8
0
 62
7
  6
CONTINUOUS
 10
149.5737418074
 20
31.1100184796
 11
149.6315543091
 21
31.3036012664
 12
149.9206168074
 22
31.2713369632
 13
149.9206168074
 23
31.2713369632
  0
SOLID
  8
0
 62
7
  6
CONTINUOUS
 10
154.4299918074
 20
31.2390741763
 11
154.7768668074
 21
31.271336924
 12
155.412804528
 22
31.271336924
 13
155.412804528
 23
31.271336924
  0
SOLID
  8
0
 62
7
  6
CONTINUOUS
 10
154.4299918074
 20
31.2390741763
 11
155.412804528
 21
31.271336924
 12
154.1987416972
 22
31.1745462761
 13
154.1987416972
 23
31.1745462761
  0
SOLID
  8
0
 62
7
  6
CONTINUOUS
 10
154.1987416972
 20
31.1745462761
 11
155.412804528
 21
31.271336924
 12
154.7768668074
 22
31.1422827436
 13
154.7768668074
 23
31.1422827436
  0
SOLID
  8
0
 62
7
  6
CONTINUOUS
 10
155.412804528
 20
31.271336924
 11
155.412804528
 21
31.1422827436
 12
154.7768668074
 22
31.1422827436
 13
154.7768668074
 23
31.1422827436
  0
SOLID
  8
0
 62
7
  6
CONTINUOUS
 10
159.228429528
 20
31.2390745501
 11
159.401867028
 21
31.3681283566
 12
159.4596793074
 22
31.3036012664
 13
159.4596793074
 23
31.3036012664
  0
SOLID
  8
0
 62
7
  6
CONTINUOUS
 10
159.4596793074
 20
31.3036012664
 11
159.6331168074
 21
31.2390745501
 12
159.228429528
 22
31.2390745501
 13
159.228429528
 23
31.2390745501
  0
SOLID
  8
0
 62
7
  6
CONTINUOUS
 10
159.4596793074
 20
31.1422827828
 11
159.228429528
 21
31.2390745501
 12
159.6331168074
 22
31.2390745501
 13
159.6331168074
 23
31.2390745501
  0
SOLID
  8
0
 62
7
  6
CONTINUOUS
 10
159.6331168074
 20
31.2390745501
 11
160.615929528
 21
31.0777556927
 12
159.4596793074
 22
31.1422827828
 13
159.4596793074
 23
31.1422827828
  0
SOLID
  8
0
 62
7
  6
CONTINUOUS
 10
160.442492028
 20
30.9809646623
 11
159.4596793074
 21
31.1422827828
 12
160.615929528
 22
31.0777556927
 13
160.615929528
 23
31.0777556927
  0
SOLID
  8
0
 62
7
  6
CONTINUOUS
 10
160.615929528
 20
31.0777556927
 11
160.8471793074
 21
30.9809646623
 12
160.442492028
 22
30.9809646623
 13
160.442492028
 23
30.9809646623
  0
SOLID
  8
0
 62
7
  6
CONTINUOUS
 10
160.615929528
 20
30.9164372091
 11
160.442492028
 21
30.9809646623
 12
160.8471793074
 22
30.9809646623
 13
160.8471793074
 23
30.9809646623
  0
SOLID
  8
0
 62
7
  6
CONTINUOUS
 10
160.615929528
 20
30.9164372091
 11
160.8471793074
 21
30.9809646623
 12
160.6737418074
 22
30.8519089441
 13
160.6737418074
 23
30.8519089441
  0
SOLID
  8
0
 62
7
  6
CONTINUOUS
 10
160.8471793074
 20
30.9809646623
 11
160.9628038663
 21
30.8519089441
 12
160.6737418074
 22
30.8519089441
 13
160.6737418074
 23
30.8519089441
  0
SOLID
  8
0
 62
7
  6
CONTINUOUS
 10
160.615929528
 20
30.7873818593
 11
160.6737418074
 21
30.8519089441
 12
160.9628038663
 22
30.8519089441
 13
160.9628038663
 23
30.8519089441
  0
SOLID
  8
0
 62
7
  6
CONTINUOUS
 10
160.9628038663
 20
30.8519089441
 11
160.9628038663
 21
30.7873818593
 12
160.615929528
 22
30.7873818593
 13
160.615929528
 23
30.7873818593
  0
SOLID
  8
0
 62
7
  6
CONTINUOUS
 10
160.5003043074
 20
30.7551187255
 11
160.615929528
 21
30.7873818593
 12
160.9628038663
 22
30.7873818593
 13
160.9628038663
 23
30.7873818593
  0
SOLID
  8
0
 62
7
  6
CONTINUOUS
 10
160.5003043074
 20
30.7551187255
 11
160.9628038663
 21
30.7873818593
 12
160.269054528
 22
30.7228547745
 13
160.269054528
 23
30.7228547745
  0
SOLID
  8
0
 62
7
  6
CONTINUOUS
 10
160.9628038663
 20
30.7873818593
 11
160.8471793074
 21
30.6905916353
 12
160.269054528
 22
30.7228547745
 13
160.269054528
 23
30.7228547745
  0
SOLID
  8
0
 62
7
  6
CONTINUOUS
 10
160.8471793074
 20
30.6905916353
 11
159.401867028
 21
30.658327332
 12
160.269054528
 22
30.7228547745
 13
160.269054528
 23
30.7228547745
  0
SOLID
  8
0
 62
7
  6
CONTINUOUS
 10
160.269054528
 20
30.7228547745
 11
159.401867028
 21
30.658327332
 12
159.922179528
 22
30.7228547745
 13
159.922179528
 23
30.7228547745
  0
SOLID
  8
0
 62
7
  6
CONTINUOUS
 10
159.401867028
 20
30.658327332
 11
159.228429528
 21
30.7228547745
 12
159.922179528
 22
30.7228547745
 13
159.922179528
 23
30.7228547745
  0
SOLID
  8
0
 62
7
  6
CONTINUOUS
 10
159.401867028
 20
30.658327332
 11
160.8471793074
 21
30.6905916353
 12
159.575304528
 22
30.6260629858
 13
159.575304528
 23
30.6260629858
  0
SOLID
  8
0
 62
7
  6
CONTINUOUS
 10
160.8471793074
 20
30.6905916353
 11
160.615929528
 21
30.6260629858
 12
159.575304528
 22
30.6260629858
 13
159.575304528
 23
30.6260629858
  0
SOLID
  8
0
 62
7
  6
CONTINUOUS
 10
159.922179528
 20
30.5938006049
 11
159.575304528
 21
30.6260629858
 12
160.615929528
 22
30.6260629858
 13
160.615929528
 23
30.6260629858
  0
SOLID
  8
0
 62
7
  6
CONTINUOUS
 10
160.615929528
 20
30.6260629858
 11
160.269054528
 21
30.5938006049
 12
159.922179528
 22
30.5938006049
 13
159.922179528
 23
30.5938006049
  0
SOLID
  8
0
 62
7
  6
CONTINUOUS
 10
149.5737418074
 20
31.1100184796
 11
149.9206168074
 21
31.2713369632
 12
149.8628043005
 22
31.1422827828
 13
149.8628043005
 23
31.1422827828
  0
SOLID
  8
0
 62
7
  6
CONTINUOUS
 10
149.8628043005
 20
31.1422827828
 11
149.8628043005
 21
31.0454914852
 12
149.5737418074
 22
31.1100184796
 13
149.5737418074
 23
31.1100184796
  0
SOLID
  8
0
 62
7
  6
CONTINUOUS
 10
149.6315543091
 20
30.9164372091
 11
149.5737418074
 21
31.1100184796
 12
149.8628043005
 22
31.0454914852
 13
149.8628043005
 23
31.0454914852
  0
SOLID
  8
0
 62
7
  6
CONTINUOUS
 10
149.8628043005
 20
31.0454914852
 11
149.9784292936
 21
30.8841729058
 12
149.6315543091
 22
30.9164372091
 13
149.6315543091
 23
30.9164372091
  0
SOLID
  8
0
 62
7
  6
CONTINUOUS
 10
149.7471793074
 20
30.7873813202
 11
149.6315543091
 21
30.9164372091
 12
149.9784292936
 22
30.8841729058
 13
149.9784292936
 23
30.8841729058
  0
SOLID
  8
0
 62
7
  6
CONTINUOUS
 10
149.9784292936
 20
30.8841729058
 11
150.1518667936
 21
30.7873813202
 12
149.7471793074
 22
30.7873813202
 13
149.7471793074
 23
30.7873813202
  0
SOLID
  8
0
 62
7
  6
CONTINUOUS
 10
149.8628043005
 20
30.7228547004
 11
149.7471793074
 21
30.7873813202
 12
150.1518667936
 22
30.7873813202
 13
150.1518667936
 23
30.7873813202
  0
SOLID
  8
0
 62
7
  6
CONTINUOUS
 10
150.1518667936
 20
30.7873813202
 11
150.498741835
 21
30.7228547004
 12
149.8628043005
 22
30.7228547004
 13
149.8628043005
 23
30.7228547004
  0
SOLID
  8
0
 62
7
  6
CONTINUOUS
 10
150.0362418212
 20
30.658327332
 11
149.8628043005
 21
30.7228547004
 12
150.498741835
 22
30.7228547004
 13
150.498741835
 23
30.7228547004
  0
SOLID
  8
0
 62
7
  6
CONTINUOUS
 10
154.0831168074
 20
31.1100184386
 11
154.1987416972
 21
31.1745462761
 12
154.7768668074
 22
31.1422827828
 13
154.7768668074
 23
31.1422827828
  0
SOLID
  8
0
 62
7
  6
CONTINUOUS
 10
154.7768668074
 20
31.1422827828
 11
154.5456166972
 21
31.1100184386
 12
154.0831168074
 22
31.1100184386
 13
154.0831168074
 23
31.1100184386
  0
SOLID
  8
0
 62
7
  6
CONTINUOUS
 10
153.9674919177
 20
30.9809642992
 11
154.0831168074
 21
31.1100184386
 12
154.5456166972
 22
31.1100184386
 13
154.5456166972
 23
31.1100184386
  0
SOLID
  8
0
 62
7
  6
CONTINUOUS
 10
154.3143669177
 20
31.0132277988
 11
153.9674919177
 21
30.9809642992
 12
154.4299918074
 22
31.0777556927
 13
154.4299918074
 23
31.0777556927
  0
SOLID
  8
0
 62
7
  6
CONTINUOUS
 10
153.9674919177
 20
30.9809642992
 11
154.5456166972
 21
31.1100184796
 12
154.4299918074
 22
31.0777556927
 13
154.4299918074
 23
31.0777556927
  0
SOLID
  8
0
 62
7
  6
CONTINUOUS
 10
154.3143669177
 20
31.0132277988
 11
154.2565543074
 21
30.9164372091
 12
153.9674919177
 22
30.9809642992
 13
153.9674919177
 23
30.9809642992
  0
SOLID
  8
0
 62
7
  6
CONTINUOUS
 10
153.9674919177
 20
30.8841729058
 11
153.9674919177
 21
30.9809642992
 12
154.2565543074
 22
30.9164372091
 13
154.2565543074
 23
30.9164372091
  0
SOLID
  8
0
 62
7
  6
CONTINUOUS
 10
154.2565543074
 20
30.9164372091
 11
154.2565543074
 21
30.8519086025
 12
153.9674919177
 22
30.8841729058
 13
153.9674919177
 23
30.8841729058
  0
SOLID
  8
0
 62
7
  6
CONTINUOUS
 10
154.0253041972
 20
30.7551187255
 11
153.9674919177
 21
30.8841729058
 12
154.2565543074
 22
30.8519086025
 13
154.2565543074
 23
30.8519086025
  0
SOLID
  8
0
 62
7
  6
CONTINUOUS
 10
155.412804528
 20
30.9487004259
 11
155.7018665869
 21
30.8519086025
 12
155.3549915869
 22
30.8841729058
 13
155.3549915869
 23
30.8841729058
  0
SOLID
  8
0
 62
7
  6
CONTINUOUS
 10
155.1815540869
 20
30.7873815123
 11
155.3549915869
 21
30.8841729058
 12
155.7018665869
 22
30.8519086025
 13
155.7018665869
 23
30.8519086025
  0
SOLID
  8
0
 62
7
  6
CONTINUOUS
 10
155.1815540869
 20
30.7873815123
 11
155.7018665869
 21
30.8519086025
 12
155.412804528
 22
30.7551187255
 13
155.412804528
 23
30.7551187255
  0
SOLID
  8
0
 62
7
  6
CONTINUOUS
 10
155.7018665869
 20
30.8519086025
 11
155.759679528
 21
30.6905916353
 12
155.412804528
 22
30.7551187255
 13
155.412804528
 23
30.7551187255
  0
SOLID
  8
0
 62
7
  6
CONTINUOUS
 10
155.4706168074
 20
30.658327332
 11
155.412804528
 21
30.7551187255
 12
155.759679528
 22
30.6905916353
 13
155.759679528
 23
30.6905916353
  0
SOLID
  8
0
 62
7
  6
CONTINUOUS
 10
155.4706168074
 20
30.658327332
 11
155.759679528
 21
30.6905916353
 12
155.5284290869
 22
30.5938002079
 13
155.5284290869
 23
30.5938002079
  0
SOLID
  8
0
 62
7
  6
CONTINUOUS
 10
155.759679528
 20
30.6905916353
 11
155.8174918074
 21
30.5938002079
 12
155.5284290869
 22
30.5938002079
 13
155.5284290869
 23
30.5938002079
  0
SOLID
  8
0
 62
7
  6
CONTINUOUS
 10
151.0768668626
 20
30.8196456577
 11
151.1346793074
 21
30.9164373395
 12
151.4237418626
 22
30.9164373395
 13
151.4237418626
 23
30.9164373395
  0
SOLID
  8
0
 62
7
  6
CONTINUOUS
 10
151.4237418626
 20
30.9164373395
 11
151.3659292523
 21
30.7873815123
 12
151.0768668626
 22
30.8196456577
 13
151.0768668626
 23
30.8196456577
  0
SOLID
  8
0
 62
7
  6
CONTINUOUS
 10
150.9034292799
 20
30.7551187255
 11
151.0768668626
 21
30.8196456577
 12
151.3659292523
 22
30.7873815123
 13
151.3659292523
 23
30.7873815123
  0
SOLID
  8
0
 62
7
  6
CONTINUOUS
 10
150.9034292799
 20
30.7551187255
 11
151.3659292523
 21
30.7873815123
 12
150.498741835
 22
30.7228544222
 13
150.498741835
 23
30.7228544222
  0
SOLID
  8
0
 62
7
  6
CONTINUOUS
 10
151.3659292523
 20
30.7873815123
 11
151.1924917523
 21
30.6905916353
 12
150.498741835
 22
30.7228544222
 13
150.498741835
 23
30.7228544222
  0
SOLID
  8
0
 62
7
  6
CONTINUOUS
 10
150.0362418212
 20
30.658327332
 11
150.498741835
 21
30.7228544222
 12
151.1924917523
 22
30.6905916353
 13
151.1924917523
 23
30.6905916353
  0
SOLID
  8
0
 62
7
  6
CONTINUOUS
 10
150.0362418212
 20
30.658327332
 11
151.1924917523
 21
30.6905916353
 12
150.2096793212
 22
30.6260631011
 13
150.2096793212
 23
30.6260631011
  0
SOLID
  8
0
 62
7
  6
CONTINUOUS
 10
151.1924917523
 20
30.6905916353
 11
150.9612418074
 21
30.6260631011
 12
150.2096793212
 22
30.6260631011
 13
150.2096793212
 23
30.6260631011
  0
SOLID
  8
0
 62
7
  6
CONTINUOUS
 10
150.5565542799
 20
30.5938002419
 11
150.2096793212
 21
30.6260631011
 12
150.9612418074
 22
30.6260631011
 13
150.9612418074
 23
30.6260631011
  0
SOLID
  8
0
 62
7
  6
CONTINUOUS
 10
154.0253041972
 20
30.7551187255
 11
154.2565543074
 21
30.8519086025
 12
154.3143669177
 22
30.7873815123
 13
154.3143669177
 23
30.7873815123
  0
SOLID
  8
0
 62
7
  6
CONTINUOUS
 10
154.3143669177
 20
30.7873815123
 11
154.5456166972
 21
30.7228544222
 12
154.0253041972
 22
30.7551187255
 13
154.0253041972
 23
30.7551187255
  0
SOLID
  8
0
 62
7
  6
CONTINUOUS
 10
154.1987416972
 20
30.658327332
 11
154.0253041972
 21
30.7551187255
 12
154.5456166972
 22
30.7228544222
 13
154.5456166972
 23
30.7228544222
  0
SOLID
  8
0
 62
7
  6
CONTINUOUS
 10
154.8924916972
 20
30.7228544637
 11
155.1815540869
 21
30.7873815123
 12
155.412804528
 22
30.7551187255
 13
155.412804528
 23
30.7551187255
  0
SOLID
  8
0
 62
7
  6
CONTINUOUS
 10
155.412804528
 20
30.7551187255
 11
155.3549915869
 21
30.6905916353
 12
154.8924916972
 22
30.7228544637
 13
154.8924916972
 23
30.7228544637
  0
SOLID
  8
0
 62
7
  6
CONTINUOUS
 10
155.3549915869
 20
30.6905916353
 11
154.1987416972
 21
30.658327332
 12
154.8924916972
 22
30.7228544637
 13
154.8924916972
 23
30.7228544637
  0
SOLID
  8
0
 62
7
  6
CONTINUOUS
 10
154.1987416972
 20
30.658327332
 11
154.5456166972
 21
30.7228544637
 12
154.8924916972
 22
30.7228544637
 13
154.8924916972
 23
30.7228544637
  0
SOLID
  8
0
 62
7
  6
CONTINUOUS
 10
154.1987416972
 20
30.658327332
 11
155.3549915869
 21
30.6905916353
 12
154.3143669177
 22
30.6260630541
 13
154.3143669177
 23
30.6260630541
  0
SOLID
  8
0
 62
7
  6
CONTINUOUS
 10
155.3549915869
 20
30.6905916353
 11
155.1815540869
 21
30.6260630541
 12
154.3143669177
 22
30.6260630541
 13
154.3143669177
 23
30.6260630541
  0
SOLID
  8
0
 62
7
  6
CONTINUOUS
 10
154.5456166972
 20
30.5938002188
 11
154.3143669177
 21
30.6260630541
 12
155.1815540869
 22
30.6260630541
 13
155.1815540869
 23
30.6260630541
  0
SOLID
  8
0
 62
7
  6
CONTINUOUS
 10
155.1815540869
 20
30.6260630541
 11
154.8924916972
 21
30.5938002188
 12
154.5456166972
 22
30.5938002188
 13
154.5456166972
 23
30.5938002188
  0
SOLID
  8
0
 62
7
  6
CONTINUOUS
 10
159.575304528
 20
30.7551187255
 11
159.228429528
 21
30.7228544637
 12
159.4596793074
 22
30.7873815123
 13
159.4596793074
 23
30.7873815123
  0
SOLID
  8
0
 62
7
  6
CONTINUOUS
 10
159.4596793074
 20
30.7873815123
 11
159.228429528
 21
30.7228544637
 12
159.401867028
 22
30.851908644
 13
159.401867028
 23
30.851908644
  0
SOLID
  8
0
 62
7
  6
CONTINUOUS
 10
159.228429528
 20
30.7228544637
 11
159.1128043074
 21
30.851908644
 12
159.401867028
 22
30.851908644
 13
159.401867028
 23
30.851908644
  0
SOLID
  8
0
 62
7
  6
CONTINUOUS
 10
159.575304528
 20
30.7551187255
 11
159.922179528
 21
30.7228544637
 12
159.228429528
 22
30.7228544637
 13
159.228429528
 23
30.7228544637
  0
SOLID
  8
0
 62
7
  6
CONTINUOUS
 10
156.279992028
 20
30.5938002419
 11
156.279992028
 21
31.6262382337
 12
156.5690540869
 22
30.5938002419
 13
156.5690540869
 23
31.6262382337
  0
ENDBLK
  8
0
  6
BYBLOCK
 62
0
  0
BLOCK
  8
0
 62
2
  6
CONTINUOUS
  2
SYMBOL_3_BL0
 70
64
 10
32.1213064866
 20
19.8534310916
  0
TEXT
  8
0
 62
7
  6
CONTINUOUS
 10
18.3860103289
 20
19.2268451992
  7
TEXTSTYLE_3
 40
2.7338706658
  1
Ammeraal Beltech
 41
1.0
 51
15.0
 72
0
  0
TEXT
  8
0
 62
7
  6
CONTINUOUS
 10
29.1868111546
 20
16.9533085264
  7
TEXTSTYLE_4
 40
1.0935482663
  1
Innovation & Service in Belting
 41
1.0
 72
0
  0
LINE
  8
0
 62
7
  6
CONTINUOUS
 10
12.3614696776
 20
19.9934385078
 11
13.1396216709
 21
23.6543558055
  0
LINE
  8
0
 62
7
  6
CONTINUOUS
 10
23.2347899607
 20
27.3177497171
 11
13.6274394139
 21
24.1961322958
  0
LINE
  8
0
 62
7
  6
CONTINUOUS
 10
12.5867530099
 20
19.3000877048
 11
20.093828271
 21
12.5406867788
  0
LINE
  8
0
 62
7
  6
CONTINUOUS
 10
12.8492874206
 20
20.5352149982
 11
23.6575567857
 21
24.0470345971
  0
LINE
  8
0
 62
7
  6
CONTINUOUS
 10
23.6533516486
 20
13.6972460334
 11
15.2078919798
 21
21.3015720751
  0
LINE
  8
0
 62
7
  6
CONTINUOUS
 10
24.1731743684
 20
26.4728246013
 11
23.1966148312
 21
21.8784731989
  0
LINE
  8
0
 62
7
  6
CONTINUOUS
 10
22.4968128835
 20
18.5861638851
 11
21.810364672
 21
15.3566789607
  0
LINE
  8
0
 62
7
  6
CONTINUOUS
 10
24.8542704669
 20
14.087448211
 11
25.8105020025
 21
18.5861638851
  0
LINE
  8
0
 62
7
  6
CONTINUOUS
 10
26.5103039502
 20
21.8784731989
 11
26.9545457526
 21
23.9684665583
  0
LINE
  8
0
 62
7
  6
CONTINUOUS
 10
20.8069293463
 20
12.3891124661
 11
24.3664527239
 21
13.5456717207
  0
LINE
  8
0
 62
7
  6
CONTINUOUS
 10
23.9478910361
 20
27.1661754044
 11
26.7292624203
 21
24.6618173613
  0
ARC
  8
0
 62
7
  6
CONTINUOUS
 10
13.8527227462
 20
23.5027814928
 40
0.7290321776
 50
108.0
 51
168.0
  0
ARC
  8
0
 62
7
  6
CONTINUOUS
 10
23.4600732931
 20
26.624398914
 40
0.7290321776
 50
348.0
 51
108.0
  0
ARC
  8
0
 62
7
  6
CONTINUOUS
 10
26.2414446773
 20
24.120040871
 40
0.7290321776
 50
348.0
 51
48.0
  0
ARC
  8
0
 62
7
  6
CONTINUOUS
 10
20.581646014
 20
13.0824632691
 40
0.7290321776
 50
228.0
 51
288.0
  0
ARC
  8
0
 62
7
  6
CONTINUOUS
 10
13.0745707529
 20
19.8418641951
 40
0.7290321776
 50
108.0
 51
228.0
  0
ARC
  8
0
 62
7
  6
CONTINUOUS
 10
24.1411693916
 20
14.2390225237
 40
0.7290321776
 50
228.0
 51
348.0
  0
ENDBLK
  8
0
  6
BYBLOCK
 62
0
  0
ENDSEC
  0
SECTION
  2
ENTITIES
  0
TEXT
  8
0
 62
5
  6
CONTINUOUS
 10
96.0
 20
25.636
  7
TEXTSTYLE_2
 40
2.8
  1
Scale :
 41
0.6
 51
0.000019
 72
0
  0
TEXT
  8
0
 62
5
  6
CONTINUOUS
 10
116.0
 20
25.636
  7
TEXTSTYLE_2
 40
2.8
  1
Belt type:
 41
0.6
 51
0.000019
 72
0
  0
INSERT
  8
0
 62
2
  6
CONTINUOUS
  2
SYMBOL_3_BL0
 10
32.1213064866
 20
19.8534310916
  0
INSERT
  8
0
 62
2
  6
CONTINUOUS
  2
SYMBOL_8_BL1
 10
173.5956734183
 20
35.5937998301
  0
LINE
  8
0
 62
2
  6
CONTINUOUS
 10
10.0
 20
30.0
 11
200.0
 21
30.0
  0
LINE
  8
0
 62
2
  6
CONTINUOUS
 10
10.0
 20
30.0
 11
10.0
 21
10.0
  0
LINE
  8
0
 62
2
  6
CONTINUOUS
 10
10.0
 20
10.0
 11
200.0
 21
10.0
  0
LINE
  8
0
 62
2
  6
CONTINUOUS
 10
95.0
 20
30.0
 11
95.0
 21
10.0
  0
LINE
  8
0
 62
2
  6
CONTINUOUS
 10
115.0
 20
30.0
 11
115.0
 21
10.0
  0
LINE
  8
0
 62
2
  6
CONTINUOUS
 10
200.0
 20
30.0
 11
200.0
 21
10.0
  0
TEXT
  8
0
 62
5
  6
CONTINUOUS
 10
13.0
 20
23.303
  7
TEXTSTYLE_5
 40
1.52
  1
                                                                     Ammeraal Beltech Modular A/S
 41
1.0
 72
0
  0
TEXT
  8
0
 62
5
  6
CONTINUOUS
 10
13.0
 20
20.595
  7
TEXTSTYLE_5
 40
1.5
  1
                                                                      Hjulmagervej 21,  7100 Vejle,  DK
 41
1.0
 72
0
  0
TEXT
  8
0
 62
5
  6
CONTINUOUS
 10
13.0
 20
17.881
  7
TEXTSTYLE_5
 40
1.495
  1
                                                                      tel: 
 41
1.0
 72
0
  0
TEXT
  8
0
 62
5
  6
CONTINUOUS
 10
57.9869465649
 20
17.881
  7
TEXTSTYLE_5
 40
1.51
  1
+45 75723100     fax: +45 75723348
 41
1.0
 72
0
  0
TEXT
  8
0
 62
5
  6
CONTINUOUS
 10
13.0
 20
15.177
  7
TEXTSTYLE_5
 40
1.5
  1
                                                                      admin@unichains.dk  www.unichains.com
 41
1.0
 72
0
  0
TEXT
  8
0
 62
5
  6
CONTINUOUS
 10
99.75
 20
13.75
  7
TEXTSTYLE_6
 40
5.0
  1
1:1
 41
0.7
 72
1
 11
105.0
 21
13.75
  0
TEXT
  8
0
 62
5
  6
CONTINUOUS
 10
118.0
 20
13.75
  7
TEXTSTYLE_7
 40
7.5
  1
uni SSB 32-K300F
 41
0.5475911458
 72
0
  0
LINE
  8
0
 62
7
  6
CONTINUOUS
 10
210.0
 20
0.0
 11
0.0
 21
0.0
  0
LINE
  8
0
 62
7
  6
CONTINUOUS
 10
10.0
 20
10.0
 11
200.0
 21
10.0
  0
LINE
  8
0
 62
7
  6
CONTINUOUS
 10
10.0
 20
30.0
 11
200.0
 21
30.0
  0
LINE
  8
0
 62
7
  6
CONTINUOUS
 10
0.0
 20
0.0
 11
0.0
 21
297.0
  0
LINE
  8
0
 62
7
  6
CONTINUOUS
 10
10.0
 20
10.0
 11
10.0
 21
287.0
  0
LINE
  8
0
 62
7
  6
CONTINUOUS
 10
200.0
 20
287.0
 11
200.0
 21
10.0
  0
LINE
  8
0
 62
7
  6
CONTINUOUS
 10
210.0
 20
0.0
 11
210.0
 21
297.0
  0
LINE
  8
0
 62
7
  6
CONTINUOUS
 10
10.0
 20
287.0
 11
200.0
 21
287.0
  0
LINE
  8
0
 62
7
  6
CONTINUOUS
 10
0.0
 20
297.0
 11
210.0
 21
297.0
  0
LINE
  8
0
 62
7
  6
CONTINUOUS
 10
37.7160560345
 20
157.4378502195
 11
37.7160560345
 21
118.8378502155
  0
POLYLINE
  8
0
 62
7
  6
CONTINUOUS
 66
1
 70
0
  0
VERTEX
  8
0
 62
7
  6
CONTINUOUS
 10
47.049014918
 20
156.4877835392
  0
VERTEX
  8
0
 62
7
  6
CONTINUOUS
 10
47.0084201836
 20
156.4365437358
  0
VERTEX
  8
0
 62
7
  6
CONTINUOUS
 10
46.9636134822
 20
156.3878602126
  0
VERTEX
  8
0
 62
7
  6
CONTINUOUS
 10
46.9144510223
 20
156.342302185
  0
VERTEX
  8
0
 62
7
  6
CONTINUOUS
 10
46.8607736011
 20
156.3008900551
  0
VERTEX
  8
0
 62
7
  6
CONTINUOUS
 10
46.8025345981
 20
156.2652653597
  0
VERTEX
  8
0
 62
7
  6
CONTINUOUS
 10
46.7415905937
 20
156.2384509643
  0
VERTEX
  8
0
 62
7
  6
CONTINUOUS
 10
46.6826712833
 20
156.2233905787
  0
VERTEX
  8
0
 62
7
  6
CONTINUOUS
 10
46.6377666219
 20
156.2197795229
  0
SEQEND
  0
LINE
  8
0
 62
7
  6
CONTINUOUS
 10
41.2329070606
 20
157.4552999639
 11
41.2580780219
 21
156.7344979417
  0
LINE
  8
0
 62
7
  6
CONTINUOUS
 10
47.2434467479
 20
156.9313612594
 11
47.1918996284
 21
156.7843800817
  0
LINE
  8
0
 62
7
  6
CONTINUOUS
 10
47.1918996284
 20
156.7843800817
 11
47.17815354
 21
156.745890573
  0
LINE
  8
0
 62
7
  6
CONTINUOUS
 10
47.17815354
 20
156.745890573
 11
47.1685810937
 21
156.7195271166
  0
LINE
  8
0
 62
7
  6
CONTINUOUS
 10
47.1685810937
 20
156.7195271166
 11
47.158634151
 21
156.6926063684
  0
LINE
  8
0
 62
7
  6
CONTINUOUS
 10
47.158634151
 20
156.6926063684
 11
47.1488855997
 21
156.6667561423
  0
LINE
  8
0
 62
7
  6
CONTINUOUS
 10
47.1488556701
 20
156.6666775942
 11
47.1488855997
 21
156.6667561423
  0
POLYLINE
  8
0
 62
7
  6
CONTINUOUS
 66
1
 70
0
  0
VERTEX
  8
0
 62
7
  6
CONTINUOUS
 10
47.1488561773
 20
156.6666776352
  0
VERTEX
  8
0
 62
7
  6
CONTINUOUS
 10
47.1430169953
 20
156.6519658626
  0
VERTEX
  8
0
 62
7
  6
CONTINUOUS
 10
47.116858917
 20
156.596065031
  0
VERTEX
  8
0
 62
7
  6
CONTINUOUS
 10
47.0852991441
 20
156.5411357738
  0
VERTEX
  8
0
 62
7
  6
CONTINUOUS
 10
47.049014918
 20
156.4877835392
  0
SEQEND
  0
LINE
  8
0
 62
7
  6
CONTINUOUS
 10
47.1992050084
 20
157.4552999639
 11
47.1740341377
 21
156.7345005355
  0
POLYLINE
  8
0
 62
7
  6
CONTINUOUS
 66
1
 70
0
  0
VERTEX
  8
0
 62
7
  6
CONTINUOUS
 10
50.3435029524
 20
117.2469382053
  0
VERTEX
  8
0
 62
7
  6
CONTINUOUS
 10
50.2573759316
 20
117.3108187707
  0
VERTEX
  8
0
 62
7
  6
CONTINUOUS
 10
50.1095821364
 20
117.3854302888
  0
SEQEND
  0
LINE
  8
0
 62
7
  6
CONTINUOUS
 10
50.3435029524
 20
117.2469382053
 11
50.3932702454
 21
117.2007298489
  0
LINE
  8
0
 62
7
  6
CONTINUOUS
 10
50.4976351014
 20
117.0707671532
 11
50.3904447893
 21
117.2036318012
  0
LINE
  8
0
 62
7
  6
CONTINUOUS
 10
50.3932702454
 20
117.2007298489
 11
50.5342373475
 21
117.0076433832
  0
LINE
  8
0
 62
7
  6
CONTINUOUS
 10
50.5342373475
 20
117.0076433832
 11
50.6118382669
 21
116.7815838959
  0
POLYLINE
  8
0
 62
7
  6
CONTINUOUS
 66
1
 70
0
  0
VERTEX
  8
0
 62
7
  6
CONTINUOUS
 10
50.6131415267
 20
116.7746913369
  0
VERTEX
  8
0
 62
7
  6
CONTINUOUS
 10
50.5722602156
 20
116.9232961149
  0
VERTEX
  8
0
 62
7
  6
CONTINUOUS
 10
50.4976351014
 20
117.0707671532
  0
SEQEND
  0
LINE
  8
0
 62
7
  6
CONTINUOUS
 10
50.6118382669
 20
116.7815838959
 11
50.6248590663
 21
116.6378502156
  0
LINE
  8
0
 62
7
  6
CONTINUOUS
 10
50.2202738024
 20
148.2941165337
 11
50.2072530027
 21
148.4378502155
  0
LINE
  8
0
 62
7
  6
CONTINUOUS
 10
50.6249358834
 20
116.6378502155
 11
50.6131415267
 21
116.7746913369
  0
LINE
  8
0
 62
7
  6
CONTINUOUS
 10
50.2071761856
 20
148.4378502155
 11
50.2189705842
 21
148.3010088529
  0
POLYLINE
  8
0
 62
7
  6
CONTINUOUS
 66
1
 70
0
  0
VERTEX
  8
0
 62
7
  6
CONTINUOUS
 10
50.6899469442
 20
108.0248264813
  0
VERTEX
  8
0
 62
7
  6
CONTINUOUS
 10
50.6934683932
 20
107.9492740144
  0
VERTEX
  8
0
 62
7
  6
CONTINUOUS
 10
50.6970017594
 20
107.8814981587
  0
VERTEX
  8
0
 62
7
  6
CONTINUOUS
 10
50.7005543664
 20
107.8210685185
  0
VERTEX
  8
0
 62
7
  6
CONTINUOUS
 10
50.7041466674
 20
107.7674356223
  0
VERTEX
  8
0
 62
7
  6
CONTINUOUS
 10
50.7078230068
 20
107.7198868259
  0
VERTEX
  8
0
 62
7
  6
CONTINUOUS
 10
50.7116678621
 20
107.6775165127
  0
VERTEX
  8
0
 62
7
  6
CONTINUOUS
 10
50.7158673312
 20
107.6389338679
  0
VERTEX
  8
0
 62
7
  6
CONTINUOUS
 10
50.720856068
 20
107.6018597507
  0
VERTEX
  8
0
 62
7
  6
CONTINUOUS
 10
50.72777468
 20
107.5620893582
  0
VERTEX
  8
0
 62
7
  6
CONTINUOUS
 10
50.7395342028
 20
107.5129595502
  0
VERTEX
  8
0
 62
7
  6
CONTINUOUS
 10
50.7641740738
 20
107.4435848721
  0
VERTEX
  8
0
 62
7
  6
CONTINUOUS
 10
50.8150655024
 20
107.3525783203
  0
VERTEX
  8
0
 62
7
  6
CONTINUOUS
 10
50.8983523682
 20
107.2603417415
  0
VERTEX
  8
0
 62
7
  6
CONTINUOUS
 10
51.013356722
 20
107.1855847568
  0
VERTEX
  8
0
 62
7
  6
CONTINUOUS
 10
51.1615741576
 20
107.1421332887
  0
VERTEX
  8
0
 62
7
  6
CONTINUOUS
 10
51.2269838605
 20
107.1378531259
  0
SEQEND
  0
POLYLINE
  8
0
 62
7
  6
CONTINUOUS
 66
1
 70
0
  0
VERTEX
  8
0
 62
7
  6
CONTINUOUS
 10
50.1421651248
 20
157.0508739505
  0
VERTEX
  8
0
 62
7
  6
CONTINUOUS
 10
50.1386436757
 20
157.1264264169
  0
VERTEX
  8
0
 62
7
  6
CONTINUOUS
 10
50.1351103095
 20
157.1942022725
  0
VERTEX
  8
0
 62
7
  6
CONTINUOUS
 10
50.1315577025
 20
157.2546319128
  0
VERTEX
  8
0
 62
7
  6
CONTINUOUS
 10
50.1279654015
 20
157.3082648091
  0
VERTEX
  8
0
 62
7
  6
CONTINUOUS
 10
50.1242890621
 20
157.3558136054
  0
VERTEX
  8
0
 62
7
  6
CONTINUOUS
 10
50.1204442069
 20
157.3981839184
  0
VERTEX
  8
0
 62
7
  6
CONTINUOUS
 10
50.1162447377
 20
157.4367665631
  0
VERTEX
  8
0
 62
7
  6
CONTINUOUS
 10
50.1112560009
 20
157.4738406805
  0
VERTEX
  8
0
 62
7
  6
CONTINUOUS
 10
50.1043373889
 20
157.5136110735
  0
VERTEX
  8
0
 62
7
  6
CONTINUOUS
 10
50.0925778661
 20
157.5627408811
  0
VERTEX
  8
0
 62
7
  6
CONTINUOUS
 10
50.0679379952
 20
157.6321155589
  0
VERTEX
  8
0
 62
7
  6
CONTINUOUS
 10
50.0170465667
 20
157.7231221106
  0
VERTEX
  8
0
 62
7
  6
CONTINUOUS
 10
49.9337597009
 20
157.8153586894
  0
VERTEX
  8
0
 62
7
  6
CONTINUOUS
 10
49.818755347
 20
157.8901156741
  0
VERTEX
  8
0
 62
7
  6
CONTINUOUS
 10
49.6705379114
 20
157.9335671423
  0
VERTEX
  8
0
 62
7
  6
CONTINUOUS
 10
49.6051282084
 20
157.9378473051
  0
SEQEND
  0
LINE
  8
0
 62
7
  6
CONTINUOUS
 10
50.6829447493
 20
108.2004742744
 11
50.6899469442
 21
108.0248264813
  0
LINE
  8
0
 62
7
  6
CONTINUOUS
 10
50.1491673196
 20
156.8752261574
 11
50.1421651248
 21
157.0508739505
  0
LINE
  8
0
 62
7
  6
CONTINUOUS
 10
50.6760374559
 20
108.410026152
 11
50.6829447493
 21
108.2004742744
  0
LINE
  8
0
 62
7
  6
CONTINUOUS
 10
50.156074613
 20
156.6656742799
 11
50.1491673196
 21
156.8752261574
  0
LINE
  8
0
 62
7
  6
CONTINUOUS
 10
50.6692890334
 20
108.6543092528
 11
50.6760374559
 21
108.410026152
  0
LINE
  8
0
 62
7
  6
CONTINUOUS
 10
50.1628230356
 20
156.4213911794
 11
50.156074613
 21
156.6656742799
  0
LINE
  8
0
 62
7
  6
CONTINUOUS
 10
50.6595826054
 20
109.0877502682
 11
50.6692890334
 21
108.6543092528
  0
LINE
  8
0
 62
7
  6
CONTINUOUS
 10
50.1725294635
 20
155.9879501639
 11
50.1628230356
 21
156.4213911794
  0
LINE
  8
0
 62
7
  6
CONTINUOUS
 10
50.6477542291
 20
109.7930137125
 11
50.6595826054
 21
109.0877502682
  0
LINE
  8
0
 62
7
  6
CONTINUOUS
 10
50.1843578399
 20
155.2826867199
 11
50.1725294635
 21
155.9879501639
  0
LINE
  8
0
 62
7
  6
CONTINUOUS
 10
50.6377404466
 20
110.6412617485
 11
50.6477542291
 21
109.7930137125
  0
LINE
  8
0
 62
7
  6
CONTINUOUS
 10
50.1943716223
 20
154.4344386832
 11
50.1843578399
 21
155.2826867199
  0
LINE
  8
0
 62
7
  6
CONTINUOUS
 10
50.2033508072
 20
153.190693749
 11
50.1943716223
 21
154.4344386832
  0
LINE
  8
0
 62
7
  6
CONTINUOUS
 10
50.6287612617
 20
111.8850066822
 11
50.6377404466
 21
110.6412617485
  0
LINE
  8
0
 62
7
  6
CONTINUOUS
 10
50.2072523052
 20
151.5878502155
 11
50.2033508072
 21
153.190693749
  0
LINE
  8
0
 62
7
  6
CONTINUOUS
 10
50.6248597637
 20
113.4878502155
 11
50.6287612617
 21
111.8850066822
  0
LINE
  8
0
 62
7
  6
CONTINUOUS
 10
50.207252338
 20
151.5878502155
 11
50.207252338
 21
148.4378502155
  0
LINE
  8
0
 62
7
  6
CONTINUOUS
 10
50.624859731
 20
113.4878502155
 11
50.624859731
 21
116.6378502155
  0
POLYLINE
  8
0
 62
7
  6
CONTINUOUS
 66
1
 70
0
  0
VERTEX
  8
0
 62
7
  6
CONTINUOUS
 10
74.9051273789
 20
107.1378532394
  0
VERTEX
  8
0
 62
7
  6
CONTINUOUS
 10
74.9750880261
 20
107.1427527146
  0
VERTEX
  8
0
 62
7
  6
CONTINUOUS
 10
75.1267249842
 20
107.1894187211
  0
VERTEX
  8
0
 62
7
  6
CONTINUOUS
 10
75.2430601432
 20
107.2685881812
  0
VERTEX
  8
0
 62
7
  6
CONTINUOUS
 10
75.3250529165
 20
107.3643406849
  0
VERTEX
  8
0
 62
7
  6
CONTINUOUS
 10
75.372945041
 20
107.4555232908
  0
VERTEX
  8
0
 62
7
  6
CONTINUOUS
 10
75.3950222653
 20
107.5218705829
  0
VERTEX
  8
0
 62
7
  6
CONTINUOUS
 10
75.4057941522
 20
107.5695794046
  0
VERTEX
  8
0
 62
7
  6
CONTINUOUS
 10
75.4123126564
 20
107.60902358
  0
VERTEX
  8
0
 62
7
  6
CONTINUOUS
 10
75.4171413374
 20
107.6465527544
  0
VERTEX
  8
0
 62
7
  6
CONTINUOUS
 10
75.4212668311
 20
107.6859844288
  0
VERTEX
  8
0
 62
7
  6
CONTINUOUS
 10
75.4250763298
 20
107.7294694011
  0
VERTEX
  8
0
 62
7
  6
CONTINUOUS
 10
75.4287387599
 20
107.7783675513
  0
VERTEX
  8
0
 62
7
  6
CONTINUOUS
 10
75.4323329805
 20
107.8336154553
  0
VERTEX
  8
0
 62
7
  6
CONTINUOUS
 10
75.4358972914
 20
107.8959177636
  0
VERTEX
  8
0
 62
7
  6
CONTINUOUS
 10
75.4394508131
 20
107.9658704091
  0
VERTEX
  8
0
 62
7
  6
CONTINUOUS
 10
75.4430018032
 20
108.0439978881
  0
VERTEX
  8
0
 62
7
  6
CONTINUOUS
 10
75.4465489322
 20
108.1306801929
  0
VERTEX
  8
0
 62
7
  6
CONTINUOUS
 10
75.4536093472
 20
108.3308218953
  0
SEQEND
  0
LINE
  8
4_SURFACE
 62
7
  6
CONTINUOUS
 10
51.2269718608
 20
107.1378502155
 11
74.9051402082
 21
107.1378502155
  0
LINE
  8
0
 62
7
  6
CONTINUOUS
 10
101.8269718608
 20
107.1378502155
 11
103.7332116471
 21
107.1378502155
  0
LINE
  8
0
 62
7
  6
CONTINUOUS
 10
110.6989004219
 20
107.1378502155
 11
113.2160560385
 21
107.1378502155
  0
LINE
  8
0
 62
7
  6
CONTINUOUS
 10
51.2269718608
 20
107.1378502155
 11
74.9051402082
 21
107.1378502155
  0
LINE
  8
0
 62
7
  6
CONTINUOUS
 10
41.2662376325
 20
156.7121507164
 11
41.2548137595
 21
156.7435185765
  0
LINE
  8
0
 62
7
  6
CONTINUOUS
 10
41.2548137595
 20
156.7435185765
 11
41.2402722898
 21
156.7842114782
  0
LINE
  8
0
 62
7
  6
CONTINUOUS
 10
41.2402722898
 20
156.7842114782
 11
41.188666123
 21
156.9313591599
  0
LINE
  8
0
 62
7
  6
CONTINUOUS
 10
54.1460560345
 20
142.5530424625
 11
54.1460560345
 21
122.5226579685
  0
LINE
  8
0
 62
7
  6
CONTINUOUS
 10
109.6377600255
 20
108.8559223964
 11
104.7943454981
 21
108.8559223964
  0
POLYLINE
  8
0
 62
7
  6
CONTINUOUS
 66
1
 70
0
  0
VERTEX
  8
0
 62
7
  6
CONTINUOUS
 10
50.1095821364
 20
117.3854302888
  0
VERTEX
  8
0
 62
7
  6
CONTINUOUS
 10
49.9609628162
 20
117.4261615345
  0
VERTEX
  8
0
 62
7
  6
CONTINUOUS
 10
49.8246617045
 20
117.4378502155
  0
SEQEND
  0
LINE
  8
0
 62
7
  6
CONTINUOUS
 10
41.283227218
 20
156.6667544711
 11
41.2781963695
 21
156.6800250865
  0
POLYLINE
  8
0
 62
7
  6
CONTINUOUS
 66
1
 70
0
  0
VERTEX
  8
0
 62
7
  6
CONTINUOUS
 10
41.2781963695
 20
156.6800250865
  0
VERTEX
  8
0
 62
7
  6
CONTINUOUS
 10
41.2701603672
 20
156.7015269665
  0
VERTEX
  8
0
 62
7
  6
CONTINUOUS
 10
41.2662376325
 20
156.7121507164
  0
SEQEND
  0
POLYLINE
  8
0
 62
7
  6
CONTINUOUS
 66
1
 70
0
  0
VERTEX
  8
0
 62
7
  6
CONTINUOUS
 10
54.1460560345
 20
122.5226579685
  0
VERTEX
  8
0
 62
7
  6
CONTINUOUS
 10
54.1701879414
 20
122.3034265908
  0
VERTEX
  8
0
 62
7
  6
CONTINUOUS
 10
54.2433019069
 20
122.0921570618
  0
VERTEX
  8
0
 62
7
  6
CONTINUOUS
 10
54.3608545133
 20
121.9048504543
  0
VERTEX
  8
0
 62
7
  6
CONTINUOUS
 10
54.5135470841
 20
121.7522566676
  0
VERTEX
  8
0
 62
7
  6
CONTINUOUS
 10
54.7006121529
 20
121.6349766513
  0
VERTEX
  8
0
 62
7
  6
CONTINUOUS
 10
54.9115863542
 20
121.5619924211
  0
VERTEX
  8
0
 62
7
  6
CONTINUOUS
 10
55.1308637875
 20
121.5378502155
  0
SEQEND
  0
LINE
  8
1_AXIS
 62
2
  6
CENTER
 10
48.6701667358
 20
113.4878502155
 11
115.7160560345
 21
113.4878502155
  0
POLYLINE
  8
0
 62
7
  6
CONTINUOUS
 66
1
 70
0
  0
VERTEX
  8
0
 62
7
  6
CONTINUOUS
 10
109.6377600325
 20
108.8559206296
  0
VERTEX
  8
0
 62
7
  6
CONTINUOUS
 10
109.6989915929
 20
108.8492812589
  0
VERTEX
  8
0
 62
7
  6
CONTINUOUS
 10
109.7595192639
 20
108.8305106052
  0
VERTEX
  8
0
 62
7
  6
CONTINUOUS
 10
109.8146785413
 20
108.8038040275
  0
VERTEX
  8
0
 62
7
  6
CONTINUOUS
 10
109.8655363265
 20
108.7714724084
  0
VERTEX
  8
0
 62
7
  6
CONTINUOUS
 10
109.9128526681
 20
108.7347529696
  0
VERTEX
  8
0
 62
7
  6
CONTINUOUS
 10
109.956739347
 20
108.6946774049
  0
VERTEX
  8
0
 62
7
  6
CONTINUOUS
 10
109.9972496606
 20
108.651998338
  0
VERTEX
  8
0
 62
7
  6
CONTINUOUS
 10
110.0344476231
 20
108.6071941955
  0
SEQEND
  0
LINE
  8
0
 62
7
  6
CONTINUOUS
 10
50.2978747221
 20
148.0680570465
 11
50.2202738024
 21
148.2941165337
  0
POLYLINE
  8
0
 62
7
  6
CONTINUOUS
 66
1
 70
0
  0
VERTEX
  8
0
 62
7
  6
CONTINUOUS
 10
50.2189705842
 20
148.3010088529
  0
VERTEX
  8
0
 62
7
  6
CONTINUOUS
 10
50.2598519517
 20
148.1524040588
  0
VERTEX
  8
0
 62
7
  6
CONTINUOUS
 10
50.3344770558
 20
148.0049331408
  0
SEQEND
  0
LINE
  8
0
 62
7
  6
CONTINUOUS
 10
76.3074503645
 20
117.4378502155
 11
76.1711489834
 21
117.426161488
  0
LINE
  8
0
 62
7
  6
CONTINUOUS
 10
100.4246617045
 20
117.4378502155
 11
76.3074503645
 21
117.4378502155
  0
LINE
  8
0
 62
7
  6
CONTINUOUS
 10
39.1000103157
 20
117.4378502155
 11
49.8246617045
 21
117.4378502155
  0
LINE
  8
0
 62
7
  6
CONTINUOUS
 10
75.5573761071
 20
147.764881773
 11
75.6434362479
 21
147.82870545
  0
POLYLINE
  8
0
 62
7
  6
CONTINUOUS
 66
1
 70
0
  0
VERTEX
  8
0
 62
7
  6
CONTINUOUS
 10
76.1711489834
 20
117.426161488
  0
VERTEX
  8
0
 62
7
  6
CONTINUOUS
 10
76.0225296381
 20
117.3854301767
  0
VERTEX
  8
0
 62
7
  6
CONTINUOUS
 10
75.8747359619
 20
117.310818658
  0
SEQEND
  0
POLYLINE
  8
0
 62
7
  6
CONTINUOUS
 66
1
 70
0
  0
VERTEX
  8
0
 62
7
  6
CONTINUOUS
 10
96.3012482815
 20
121.5378502155
  0
VERTEX
  8
0
 62
7
  6
CONTINUOUS
 10
96.5144173571
 20
121.5606464865
  0
VERTEX
  8
0
 62
7
  6
CONTINUOUS
 10
96.7056186415
 20
121.6230397425
  0
VERTEX
  8
0
 62
7
  6
CONTINUOUS
 10
96.8714958129
 20
121.7169644135
  0
VERTEX
  8
0
 62
7
  6
CONTINUOUS
 10
97.0116232801
 20
121.8369727309
  0
VERTEX
  8
0
 62
7
  6
CONTINUOUS
 10
97.1283376434
 20
121.9841282034
  0
VERTEX
  8
0
 62
7
  6
CONTINUOUS
 10
97.2155151641
 20
122.153091066
  0
VERTEX
  8
0
 62
7
  6
CONTINUOUS
 10
97.2685072021
 20
122.3353068051
  0
VERTEX
  8
0
 62
7
  6
CONTINUOUS
 10
97.2860560345
 20
122.5226579685
  0
SEQEND
  0
POLYLINE
  8
0
 62
7
  6
CONTINUOUS
 66
1
 70
0
  0
VERTEX
  8
0
 62
7
  6
CONTINUOUS
 10
41.3976644459
 20
156.4685062356
  0
VERTEX
  8
0
 62
7
  6
CONTINUOUS
 10
41.3637835133
 20
156.5151303028
  0
VERTEX
  8
0
 62
7
  6
CONTINUOUS
 10
41.3334784497
 20
156.5631427359
  0
VERTEX
  8
0
 62
7
  6
CONTINUOUS
 10
41.3070519418
 20
156.6122501642
  0
VERTEX
  8
0
 62
7
  6
CONTINUOUS
 10
41.2832383304
 20
156.666723886
  0
SEQEND
  0
LINE
  8
0
 62
7
  6
CONTINUOUS
 10
75.8304204411
 20
148.0608286973
 11
75.6874618602
 21
147.8691656218
  0
POLYLINE
  8
0
 62
7
  6
CONTINUOUS
 66
1
 70
0
  0
VERTEX
  8
0
 62
7
  6
CONTINUOUS
 10
75.6904448058
 20
147.8720686462
  0
VERTEX
  8
0
 62
7
  6
CONTINUOUS
 10
75.7976350131
 20
148.0049331408
  0
VERTEX
  8
0
 62
7
  6
CONTINUOUS
 10
75.8722601173
 20
148.1524040588
  0
SEQEND
  0
LINE
  8
0
 62
7
  6
CONTINUOUS
 10
75.6434362479
 20
147.82870545
 11
75.6904448058
 21
147.8720686462
  0
POLYLINE
  8
0
 62
7
  6
CONTINUOUS
 66
1
 70
0
  0
VERTEX
  8
0
 62
7
  6
CONTINUOUS
 10
71.1612482815
 20
121.5378502155
  0
VERTEX
  8
0
 62
7
  6
CONTINUOUS
 10
71.3744173571
 20
121.5606464865
  0
VERTEX
  8
0
 62
7
  6
CONTINUOUS
 10
71.5656186415
 20
121.6230397425
  0
VERTEX
  8
0
 62
7
  6
CONTINUOUS
 10
71.7314958129
 20
121.7169644135
  0
VERTEX
  8
0
 62
7
  6
CONTINUOUS
 10
71.8716232801
 20
121.8369727309
  0
VERTEX
  8
0
 62
7
  6
CONTINUOUS
 10
71.9883376434
 20
121.9841282034
  0
VERTEX
  8
0
 62
7
  6
CONTINUOUS
 10
72.0755151641
 20
122.153091066
  0
VERTEX
  8
0
 62
7
  6
CONTINUOUS
 10
72.1285072021
 20
122.3353068051
  0
VERTEX
  8
0
 62
7
  6
CONTINUOUS
 10
72.1460560345
 20
122.5226579685
  0
SEQEND
  0
POLYLINE
  8
0
 62
7
  6
CONTINUOUS
 66
1
 70
0
  0
VERTEX
  8
0
 62
7
  6
CONTINUOUS
 10
39.3066540351
 20
117.4378502155
  0
VERTEX
  8
0
 62
7
  6
CONTINUOUS
 10
39.3876141837
 20
117.4461183387
  0
VERTEX
  8
0
 62
7
  6
CONTINUOUS
 10
39.4681067825
 20
117.4703333028
  0
VERTEX
  8
0
 62
7
  6
CONTINUOUS
 10
39.5392185469
 20
117.5128681505
  0
VERTEX
  8
0
 62
7
  6
CONTINUOUS
 10
39.6200799936
 20
117.5651219332
  0
VERTEX
  8
0
 62
7
  6
CONTINUOUS
 10
39.6595482798
 20
117.6463782724
  0
VERTEX
  8
0
 62
7
  6
CONTINUOUS
 10
39.7145949328
 20
117.7267631899
  0
VERTEX
  8
0
 62
7
  6
CONTINUOUS
 10
39.7371080565
 20
117.8247039695
  0
VERTEX
  8
0
 62
7
  6
CONTINUOUS
 10
39.7566540351
 20
117.9378502155
  0
SEQEND
  0
LINE
  8
0
 62
7
  6
CONTINUOUS
 10
55.1308637875
 20
121.5378502155
 11
71.1612482815
 21
121.5378502155
  0
LINE
  8
0
 62
7
  6
CONTINUOUS
 10
80.2708637875
 20
121.5378502155
 11
96.3012482815
 21
121.5378502155
  0
LINE
  8
0
 62
7
  6
CONTINUOUS
 10
50.3344770558
 20
148.0049331408
 11
50.4416672632
 21
147.8720686462
  0
LINE
  8
0
 62
7
  6
CONTINUOUS
 10
50.438841824
 20
147.8749705816
 11
50.2978747221
 21
148.0680570465
  0
LINE
  8
0
 62
7
  6
CONTINUOUS
 10
75.8772936403
 20
148.1707010407
 11
75.8512742502
 21
148.1196274898
  0
POLYLINE
  8
0
 62
7
  6
CONTINUOUS
 66
1
 70
0
  0
VERTEX
  8
0
 62
7
  6
CONTINUOUS
 10
100.7095824308
 20
117.3854301767
  0
VERTEX
  8
0
 62
7
  6
CONTINUOUS
 10
100.5609630855
 20
117.426161488
  0
VERTEX
  8
0
 62
7
  6
CONTINUOUS
 10
100.4246617045
 20
117.4378502155
  0
SEQEND
  0
LINE
  8
0
 62
7
  6
CONTINUOUS
 10
50.4886087791
 20
147.828762513
 11
50.438841824
 21
147.8749705816
  0
LINE
  8
0
 62
7
  6
CONTINUOUS
 10
72.1460560345
 20
122.5226579685
 11
72.1460560345
 21
142.5530424625
  0
LINE
  8
0
 62
7
  6
CONTINUOUS
 10
75.8722601173
 20
148.1524040588
 11
75.9131414847
 21
148.3010088529
  0
LINE
  8
0
 62
7
  6
CONTINUOUS
 10
75.9103504529
 20
148.2861970291
 11
75.8304204411
 21
148.0608286973
  0
POLYLINE
  8
0
 62
7
  6
CONTINUOUS
 66
1
 70
0
  0
VERTEX
  8
0
 62
7
  6
CONTINUOUS
 10
50.4886087791
 20
147.828762513
  0
VERTEX
  8
0
 62
7
  6
CONTINUOUS
 10
50.5747359619
 20
147.764881773
  0
VERTEX
  8
0
 62
7
  6
CONTINUOUS
 10
50.7225296381
 20
147.6902702543
  0
SEQEND
  0
POLYLINE
  8
0
 62
7
  6
CONTINUOUS
 66
1
 70
0
  0
VERTEX
  8
0
 62
7
  6
CONTINUOUS
 10
72.1460560345
 20
142.5530424625
  0
VERTEX
  8
0
 62
7
  6
CONTINUOUS
 10
72.1232597635
 20
142.7662115382
  0
VERTEX
  8
0
 62
7
  6
CONTINUOUS
 10
72.0608665075
 20
142.9574128225
  0
VERTEX
  8
0
 62
7
  6
CONTINUOUS
 10
71.9669418365
 20
143.1232899939
  0
VERTEX
  8
0
 62
7
  6
CONTINUOUS
 10
71.8469335191
 20
143.2634174611
  0
VERTEX
  8
0
 62
7
  6
CONTINUOUS
 10
71.6997780466
 20
143.3801318244
  0
VERTEX
  8
0
 62
7
  6
CONTINUOUS
 10
71.530815184
 20
143.4673093451
  0
VERTEX
  8
0
 62
7
  6
CONTINUOUS
 10
71.3485994449
 20
143.5203013831
  0
VERTEX
  8
0
 62
7
  6
CONTINUOUS
 10
71.1612482815
 20
143.5378502155
  0
SEQEND
  0
LINE
  8
0
 62
7
  6
CONTINUOUS
 10
75.5044451624
 20
112.1245420187
 11
75.507252338
 21
116.6378502155
  0
LINE
  8
0
 62
7
  6
CONTINUOUS
 10
75.9276669065
 20
152.9511584123
 11
75.924859731
 21
148.4378502155
  0
LINE
  8
0
 62
7
  6
CONTINUOUS
 10
75.4959292912
 20
110.8081350303
 11
75.5044451624
 21
112.1245420187
  0
LINE
  8
0
 62
7
  6
CONTINUOUS
 10
75.9361827778
 20
154.2675654007
 11
75.9276669065
 21
152.9511584123
  0
LINE
  8
0
 62
7
  6
CONTINUOUS
 10
75.9461861873
 20
155.1692233248
 11
75.9361827778
 21
154.2675654007
  0
LINE
  8
0
 62
7
  6
CONTINUOUS
 10
75.4859258816
 20
109.9064771062
 11
75.4959292912
 21
110.8081350303
  0
LINE
  8
0
 62
7
  6
CONTINUOUS
 10
75.9582123075
 20
155.9175476578
 11
75.9461861873
 21
155.1692233248
  0
LINE
  8
0
 62
7
  6
CONTINUOUS
 10
75.4738997614
 20
109.1581527732
 11
75.4859258816
 21
109.9064771062
  0
LINE
  8
0
 62
7
  6
CONTINUOUS
 10
75.9681250423
 20
156.3748706404
 11
75.9582123075
 21
155.9175476578
  0
POLYLINE
  8
0
 62
7
  6
CONTINUOUS
 66
1
 70
0
  0
VERTEX
  8
0
 62
7
  6
CONTINUOUS
 10
75.4605676377
 20
108.5679669907
  0
VERTEX
  8
0
 62
7
  6
CONTINUOUS
 10
75.4639870267
 20
108.7008297906
  0
VERTEX
  8
0
 62
7
  6
CONTINUOUS
 10
75.4738997614
 20
109.1581527732
  0
SEQEND
  0
LINE
  8
0
 62
7
  6
CONTINUOUS
 10
75.9750062857
 20
156.6310150732
 11
75.9681250423
 21
156.3748706404
  0
LINE
  8
0
 62
7
  6
CONTINUOUS
 10
75.9820247803
 20
156.8494890732
 11
75.9750062857
 21
156.6310150732
  0
LINE
  8
0
 62
7
  6
CONTINUOUS
 10
75.9131414847
 20
148.3010088529
 11
75.9249358834
 21
148.4378502155
  0
LINE
  8
0
 62
7
  6
CONTINUOUS
 10
75.9248590786
 20
148.4378502155
 11
75.9103504529
 21
148.2861970291
  0
POLYLINE
  8
0
 62
7
  6
CONTINUOUS
 66
1
 70
0
  0
VERTEX
  8
0
 62
7
  6
CONTINUOUS
 10
79.2860560345
 20
122.5226579685
  0
VERTEX
  8
0
 62
7
  6
CONTINUOUS
 10
79.3088523054
 20
122.3094888929
  0
VERTEX
  8
0
 62
7
  6
CONTINUOUS
 10
79.3712455615
 20
122.1182876085
  0
VERTEX
  8
0
 62
7
  6
CONTINUOUS
 10
79.4651702324
 20
121.9524104371
  0
VERTEX
  8
0
 62
7
  6
CONTINUOUS
 10
79.5851785498
 20
121.8122829699
  0
VERTEX
  8
0
 62
7
  6
CONTINUOUS
 10
79.7323340224
 20
121.6955686066
  0
VERTEX
  8
0
 62
7
  6
CONTINUOUS
 10
79.901296885
 20
121.6083910859
  0
VERTEX
  8
0
 62
7
  6
CONTINUOUS
 10
80.0835126241
 20
121.5553990479
  0
VERTEX
  8
0
 62
7
  6
CONTINUOUS
 10
80.2708637875
 20
121.5378502155
  0
SEQEND
  0
LINE
  8
0
 62
7
  6
CONTINUOUS
 10
75.4536093472
 20
108.3308218953
 11
75.4605676377
 21
108.5679669907
  0
LINE
  8
0
 62
7
  6
CONTINUOUS
 10
75.5189705842
 20
116.7746915781
 11
75.5071761856
 21
116.6378502155
  0
LINE
  8
0
 62
7
  6
CONTINUOUS
 10
75.5072529904
 20
116.6378502156
 11
75.5217616161
 21
116.7895034019
  0
POLYLINE
  8
0
 62
7
  6
CONTINUOUS
 66
1
 70
0
  0
VERTEX
  8
0
 62
7
  6
CONTINUOUS
 10
100.9435032899
 20
117.246937918
  0
VERTEX
  8
0
 62
7
  6
CONTINUOUS
 10
100.8573761071
 20
117.310818658
  0
VERTEX
  8
0
 62
7
  6
CONTINUOUS
 10
100.7095824308
 20
117.3854301767
  0
SEQEND
  0
LINE
  8
0
 62
7
  6
CONTINUOUS
 10
79.2860560345
 20
142.5530424625
 11
79.2860560345
 21
122.5226579685
  0
LINE
  8
0
 62
7
  6
CONTINUOUS
 10
75.5598519516
 20
116.9232963722
 11
75.5189705842
 21
116.7746915781
  0
LINE
  8
0
 62
7
  6
CONTINUOUS
 10
75.5217616161
 20
116.7895034019
 11
75.6016916278
 21
117.0148717338
  0
LINE
  8
0
 62
7
  6
CONTINUOUS
 10
100.9435032899
 20
117.246937918
 11
100.993270245
 21
117.2007298494
  0
LINE
  8
0
 62
7
  6
CONTINUOUS
 10
75.5548050974
 20
116.9049509306
 11
75.5808117975
 21
116.9559995726
  0
LINE
  8
0
 62
7
  6
CONTINUOUS
 10
75.6016916278
 20
117.0148717338
 11
75.7446502087
 21
117.2065348092
  0
POLYLINE
  8
0
 62
7
  6
CONTINUOUS
 66
1
 70
0
  0
VERTEX
  8
0
 62
7
  6
CONTINUOUS
 10
50.7225296381
 20
147.6902702543
  0
VERTEX
  8
0
 62
7
  6
CONTINUOUS
 10
50.8711489835
 20
147.649538943
  0
VERTEX
  8
0
 62
7
  6
CONTINUOUS
 10
51.0074503645
 20
147.6378502155
  0
SEQEND
  0
POLYLINE
  8
0
 62
7
  6
CONTINUOUS
 66
1
 70
0
  0
VERTEX
  8
0
 62
7
  6
CONTINUOUS
 10
75.7416672632
 20
117.2036317848
  0
VERTEX
  8
0
 62
7
  6
CONTINUOUS
 10
75.6344770558
 20
117.0707672902
  0
VERTEX
  8
0
 62
7
  6
CONTINUOUS
 10
75.5598519516
 20
116.9232963722
  0
SEQEND
  0
LINE
  8
0
 62
7
  6
CONTINUOUS
 10
75.7886758211
 20
117.246994981
 11
75.7416672632
 21
117.2036317848
  0
LINE
  8
0
 62
7
  6
CONTINUOUS
 10
75.8747359619
 20
117.310818658
 11
75.7886758211
 21
117.246994981
  0
POLYLINE
  8
0
 62
7
  6
CONTINUOUS
 66
1
 70
0
  0
VERTEX
  8
0
 62
7
  6
CONTINUOUS
 10
80.2708637875
 20
143.5378502155
  0
VERTEX
  8
0
 62
7
  6
CONTINUOUS
 10
80.0576947118
 20
143.5150539446
  0
VERTEX
  8
0
 62
7
  6
CONTINUOUS
 10
79.8664934275
 20
143.4526606885
  0
VERTEX
  8
0
 62
7
  6
CONTINUOUS
 10
79.7006162561
 20
143.3587360176
  0
VERTEX
  8
0
 62
7
  6
CONTINUOUS
 10
79.5604887889
 20
143.2387277002
  0
VERTEX
  8
0
 62
7
  6
CONTINUOUS
 10
79.4437744256
 20
143.0915722276
  0
VERTEX
  8
0
 62
7
  6
CONTINUOUS
 10
79.3565969049
 20
142.922609365
  0
VERTEX
  8
0
 62
7
  6
CONTINUOUS
 10
79.3036048669
 20
142.7403936259
  0
VERTEX
  8
0
 62
7
  6
CONTINUOUS
 10
79.2860560345
 20
142.5530424625
  0
SEQEND
  0
POLYLINE
  8
0
 62
7
  6
CONTINUOUS
 66
1
 70
0
  0
VERTEX
  8
0
 62
7
  6
CONTINUOUS
 10
112.1254580339
 20
147.6378502155
  0
VERTEX
  8
0
 62
7
  6
CONTINUOUS
 10
112.0444978853
 20
147.6295820923
  0
VERTEX
  8
0
 62
7
  6
CONTINUOUS
 10
111.9640052864
 20
147.6053671282
  0
VERTEX
  8
0
 62
7
  6
CONTINUOUS
 10
111.892893522
 20
147.5628322805
  0
VERTEX
  8
0
 62
7
  6
CONTINUOUS
 10
111.8120320754
 20
147.5105784978
  0
VERTEX
  8
0
 62
7
  6
CONTINUOUS
 10
111.7725637892
 20
147.4293221587
  0
VERTEX
  8
0
 62
7
  6
CONTINUOUS
 10
111.7175171362
 20
147.3489372411
  0
VERTEX
  8
0
 62
7
  6
CONTINUOUS
 10
111.6950040125
 20
147.2509964616
  0
VERTEX
  8
0
 62
7
  6
CONTINUOUS
 10
111.6754580339
 20
147.1378502155
  0
SEQEND
  0
LINE
  8
0
 62
7
  6
CONTINUOUS
 10
96.3012482815
 20
143.5378502155
 11
80.2708637875
 21
143.5378502155
  0
LINE
  8
0
 62
7
  6
CONTINUOUS
 10
71.1612482815
 20
143.5378502155
 11
55.1308637875
 21
143.5378502155
  0
LINE
  8
0
 62
7
  6
CONTINUOUS
 10
101.0976350131
 20
117.0707672903
 11
100.9904448058
 21
117.2036317848
  0
LINE
  8
0
 62
7
  6
CONTINUOUS
 10
100.993270245
 20
117.2007298494
 11
101.1342373468
 21
117.0076433846
  0
POLYLINE
  8
0
 62
7
  6
CONTINUOUS
 66
1
 70
0
  0
VERTEX
  8
0
 62
7
  6
CONTINUOUS
 10
75.2609630856
 20
147.6495389431
  0
VERTEX
  8
0
 62
7
  6
CONTINUOUS
 10
75.4095824308
 20
147.6902702543
  0
VERTEX
  8
0
 62
7
  6
CONTINUOUS
 10
75.5573761071
 20
147.764881773
  0
SEQEND
  0
POLYLINE
  8
0
 62
7
  6
CONTINUOUS
 66
1
 70
0
  0
VERTEX
  8
0
 62
7
  6
CONTINUOUS
 10
55.1308637875
 20
143.5378502155
  0
VERTEX
  8
0
 62
7
  6
CONTINUOUS
 10
54.9176947118
 20
143.5150539446
  0
VERTEX
  8
0
 62
7
  6
CONTINUOUS
 10
54.7264934275
 20
143.4526606885
  0
VERTEX
  8
0
 62
7
  6
CONTINUOUS
 10
54.5606162561
 20
143.3587360176
  0
VERTEX
  8
0
 62
7
  6
CONTINUOUS
 10
54.4204887889
 20
143.2387277002
  0
VERTEX
  8
0
 62
7
  6
CONTINUOUS
 10
54.3037744256
 20
143.0915722276
  0
VERTEX
  8
0
 62
7
  6
CONTINUOUS
 10
54.2165969049
 20
142.922609365
  0
VERTEX
  8
0
 62
7
  6
CONTINUOUS
 10
54.1636048669
 20
142.7403936259
  0
VERTEX
  8
0
 62
7
  6
CONTINUOUS
 10
54.1460560345
 20
142.5530424625
  0
SEQEND
  0
LINE
  8
0
 62
7
  6
CONTINUOUS
 10
75.1246617045
 20
147.6378502155
 11
75.2609630856
 21
147.6495389431
  0
LINE
  8
0
 62
7
  6
CONTINUOUS
 10
51.0074503645
 20
147.6378502155
 11
75.1246617045
 21
147.6378502155
  0
LINE
  8
0
 62
7
  6
CONTINUOUS
 10
101.6074503645
 20
147.6378502155
 11
112.3321017532
 21
147.6378502155
  0
POLYLINE
  8
0
 62
7
  6
CONTINUOUS
 66
1
 70
0
  0
VERTEX
  8
0
 62
7
  6
CONTINUOUS
 10
110.0344476231
 20
108.6071941955
  0
VERTEX
  8
0
 62
7
  6
CONTINUOUS
 10
110.0683285556
 20
108.5605701282
  0
VERTEX
  8
0
 62
7
  6
CONTINUOUS
 10
110.0986336192
 20
108.5125576952
  0
VERTEX
  8
0
 62
7
  6
CONTINUOUS
 10
110.1250601272
 20
108.4634502669
  0
VERTEX
  8
0
 62
7
  6
CONTINUOUS
 10
110.1488737385
 20
108.408976545
  0
SEQEND
  0
LINE
  8
0
 62
7
  6
CONTINUOUS
 10
97.2860560345
 20
122.5226579685
 11
97.2860560345
 21
142.5530424625
  0
LINE
  8
1_AXIS
 62
2
  6
CENTER
 10
35.7160560345
 20
151.5878502155
 11
102.7619453332
 21
151.5878502155
  0
POLYLINE
  8
0
 62
7
  6
CONTINUOUS
 66
1
 70
0
  0
VERTEX
  8
0
 62
7
  6
CONTINUOUS
 10
41.7943520365
 20
156.2197798015
  0
VERTEX
  8
0
 62
7
  6
CONTINUOUS
 10
41.7331204761
 20
156.2264191721
  0
VERTEX
  8
0
 62
7
  6
CONTINUOUS
 10
41.672592805
 20
156.2451898258
  0
VERTEX
  8
0
 62
7
  6
CONTINUOUS
 10
41.6174335277
 20
156.2718964035
  0
VERTEX
  8
0
 62
7
  6
CONTINUOUS
 10
41.5665757425
 20
156.3042280227
  0
VERTEX
  8
0
 62
7
  6
CONTINUOUS
 10
41.5192594008
 20
156.3409474614
  0
VERTEX
  8
0
 62
7
  6
CONTINUOUS
 10
41.4753727219
 20
156.3810230261
  0
VERTEX
  8
0
 62
7
  6
CONTINUOUS
 10
41.4348624084
 20
156.423702093
  0
VERTEX
  8
0
 62
7
  6
CONTINUOUS
 10
41.3976644459
 20
156.4685062356
  0
SEQEND
  0
POLYLINE
  8
0
 62
7
  6
CONTINUOUS
 66
1
 70
0
  0
VERTEX
  8
0
 62
7
  6
CONTINUOUS
 10
101.3225299326
 20
147.6902701422
  0
VERTEX
  8
0
 62
7
  6
CONTINUOUS
 10
101.4711492528
 20
147.6495388965
  0
VERTEX
  8
0
 62
7
  6
CONTINUOUS
 10
101.6074503645
 20
147.6378502155
  0
SEQEND
  0
LINE
  8
0
 62
7
  6
CONTINUOUS
 10
101.1342373468
 20
117.0076433846
 11
101.2118382666
 21
116.7815838973
  0
POLYLINE
  8
0
 62
7
  6
CONTINUOUS
 66
1
 70
0
  0
VERTEX
  8
0
 62
7
  6
CONTINUOUS
 10
101.2131414848
 20
116.7746915781
  0
VERTEX
  8
0
 62
7
  6
CONTINUOUS
 10
101.1722601173
 20
116.9232963722
  0
VERTEX
  8
0
 62
7
  6
CONTINUOUS
 10
101.0976350131
 20
117.0707672903
  0
SEQEND
  0
LINE
  8
0
 62
7
  6
CONTINUOUS
 10
101.2118382666
 20
116.7815838973
 11
101.2248590662
 21
116.6378502156
  0
LINE
  8
0
 62
7
  6
CONTINUOUS
 10
101.2249358834
 20
116.6378502155
 11
101.2131414848
 21
116.7746915781
  0
POLYLINE
  8
0
 62
7
  6
CONTINUOUS
 66
1
 70
0
  0
VERTEX
  8
0
 62
7
  6
CONTINUOUS
 10
101.2899469442
 20
108.0248264805
  0
VERTEX
  8
0
 62
7
  6
CONTINUOUS
 10
101.2934683932
 20
107.9492740141
  0
VERTEX
  8
0
 62
7
  6
CONTINUOUS
 10
101.2970017595
 20
107.8814981585
  0
VERTEX
  8
0
 62
7
  6
CONTINUOUS
 10
101.3005543664
 20
107.8210685182
  0
VERTEX
  8
0
 62
7
  6
CONTINUOUS
 10
101.3041466674
 20
107.7674356219
  0
VERTEX
  8
0
 62
7
  6
CONTINUOUS
 10
101.3078230069
 20
107.7198868256
  0
VERTEX
  8
0
 62
7
  6
CONTINUOUS
 10
101.3116678621
 20
107.6775165126
  0
VERTEX
  8
0
 62
7
  6
CONTINUOUS
 10
101.3158673312
 20
107.6389338679
  0
VERTEX
  8
0
 62
7
  6
CONTINUOUS
 10
101.320856068
 20
107.6018597505
  0
VERTEX
  8
0
 62
7
  6
CONTINUOUS
 10
101.3277746801
 20
107.5620893576
  0
VERTEX
  8
0
 62
7
  6
CONTINUOUS
 10
101.3395342029
 20
107.5129595499
  0
VERTEX
  8
0
 62
7
  6
CONTINUOUS
 10
101.3641740738
 20
107.4435848721
  0
VERTEX
  8
0
 62
7
  6
CONTINUOUS
 10
101.4150655023
 20
107.3525783205
  0
VERTEX
  8
0
 62
7
  6
CONTINUOUS
 10
101.4983523681
 20
107.2603417416
  0
VERTEX
  8
0
 62
7
  6
CONTINUOUS
 10
101.613356722
 20
107.1855847569
  0
VERTEX
  8
0
 62
7
  6
CONTINUOUS
 10
101.7615741576
 20
107.1421332887
  0
VERTEX
  8
0
 62
7
  6
CONTINUOUS
 10
101.8269838606
 20
107.1378531259
  0
SEQEND
  0
POLYLINE
  8
0
 62
7
  6
CONTINUOUS
 66
1
 70
0
  0
VERTEX
  8
0
 62
7
  6
CONTINUOUS
 10
101.279475119
 20
108.3009570778
  0
VERTEX
  8
0
 62
7
  6
CONTINUOUS
 10
101.2829447493
 20
108.2004742737
  0
VERTEX
  8
0
 62
7
  6
CONTINUOUS
 10
101.2899469442
 20
108.0248264805
  0
SEQEND
  0
LINE
  8
0
 62
7
  6
CONTINUOUS
 10
41.7943520435
 20
156.2197780347
 11
46.6377665709
 21
156.2197780347
  0
LINE
  8
0
 62
7
  6
CONTINUOUS
 10
110.148884851
 20
108.4089459599
 11
110.1539156994
 21
108.3956753449
  0
LINE
  8
0
 62
7
  6
CONTINUOUS
 10
110.1539156994
 20
108.3956753449
 11
110.1619517016
 21
108.374173465
  0
LINE
  8
0
 62
7
  6
CONTINUOUS
 10
110.1619517016
 20
108.374173465
 11
110.1697376136
 21
108.3530107895
  0
LINE
  8
0
 62
7
  6
CONTINUOUS
 10
110.1697376136
 20
108.3530107895
 11
110.1810021923
 21
108.3218888054
  0
LINE
  8
0
 62
7
  6
CONTINUOUS
 10
110.1810021923
 20
108.3218888054
 11
110.1953656057
 21
108.281521943
  0
LINE
  8
0
 62
7
  6
CONTINUOUS
 10
110.1953656057
 20
108.281521943
 11
110.243445946
 21
108.1443412711
  0
POLYLINE
  8
0
 62
7
  6
CONTINUOUS
 66
1
 70
0
  0
VERTEX
  8
0
 62
7
  6
CONTINUOUS
 10
97.2860560345
 20
142.5530424625
  0
VERTEX
  8
0
 62
7
  6
CONTINUOUS
 10
97.2619241276
 20
142.7722738402
  0
VERTEX
  8
0
 62
7
  6
CONTINUOUS
 10
97.1888101621
 20
142.9835433692
  0
VERTEX
  8
0
 62
7
  6
CONTINUOUS
 10
97.0712575557
 20
143.1708499768
  0
VERTEX
  8
0
 62
7
  6
CONTINUOUS
 10
96.9185649849
 20
143.3234437634
  0
VERTEX
  8
0
 62
7
  6
CONTINUOUS
 10
96.7314999161
 20
143.4407237797
  0
VERTEX
  8
0
 62
7
  6
CONTINUOUS
 10
96.5205257148
 20
143.5137080099
  0
VERTEX
  8
0
 62
7
  6
CONTINUOUS
 10
96.3012482815
 20
143.5378502155
  0
SEQEND
  0
LINE
  8
0
 62
7
  6
CONTINUOUS
 10
100.8202738021
 20
148.2941165352
 11
100.8072530027
 21
148.4378502155
  0
LINE
  8
0
 62
7
  6
CONTINUOUS
 10
100.8071761856
 20
148.4378502155
 11
100.8189705423
 21
148.3010090942
  0
POLYLINE
  8
0
 62
7
  6
CONTINUOUS
 66
1
 70
0
  0
VERTEX
  8
0
 62
7
  6
CONTINUOUS
 10
100.7421651248
 20
157.0508739498
  0
VERTEX
  8
0
 62
7
  6
CONTINUOUS
 10
100.7386436758
 20
157.1264264166
  0
VERTEX
  8
0
 62
7
  6
CONTINUOUS
 10
100.7351103095
 20
157.1942022723
  0
VERTEX
  8
0
 62
7
  6
CONTINUOUS
 10
100.7315577025
 20
157.2546319125
  0
VERTEX
  8
0
 62
7
  6
CONTINUOUS
 10
100.7279654016
 20
157.3082648087
  0
VERTEX
  8
0
 62
7
  6
CONTINUOUS
 10
100.7242890621
 20
157.3558136052
  0
VERTEX
  8
0
 62
7
  6
CONTINUOUS
 10
100.7204442069
 20
157.3981839184
  0
VERTEX
  8
0
 62
7
  6
CONTINUOUS
 10
100.7162447377
 20
157.4367665632
  0
VERTEX
  8
0
 62
7
  6
CONTINUOUS
 10
100.711256001
 20
157.4738406804
  0
VERTEX
  8
0
 62
7
  6
CONTINUOUS
 10
100.704337389
 20
157.5136110729
  0
VERTEX
  8
0
 62
7
  6
CONTINUOUS
 10
100.6925778662
 20
157.5627408808
  0
VERTEX
  8
0
 62
7
  6
CONTINUOUS
 10
100.6679379952
 20
157.6321155589
  0
VERTEX
  8
0
 62
7
  6
CONTINUOUS
 10
100.6170465666
 20
157.7231221107
  0
VERTEX
  8
0
 62
7
  6
CONTINUOUS
 10
100.5337597008
 20
157.8153586895
  0
VERTEX
  8
0
 62
7
  6
CONTINUOUS
 10
100.4187553469
 20
157.8901156742
  0
VERTEX
  8
0
 62
7
  6
CONTINUOUS
 10
100.2705379113
 20
157.9335671423
  0
VERTEX
  8
0
 62
7
  6
CONTINUOUS
 10
100.2051282084
 20
157.9378473052
  0
SEQEND
  0
LINE
  8
0
 62
7
  6
CONTINUOUS
 10
100.7491673197
 20
156.8752261566
 11
100.7421651248
 21
157.0508739498
  0
LINE
  8
0
 62
7
  6
CONTINUOUS
 10
100.7560746131
 20
156.665674279
 11
100.7491673197
 21
156.8752261566
  0
LINE
  8
0
 62
7
  6
CONTINUOUS
 10
101.2726400706
 20
108.5277682917
 11
101.279475119
 21
108.3009570778
  0
LINE
  8
0
 62
7
  6
CONTINUOUS
 10
100.7628230356
 20
156.4213911783
 11
100.7560746131
 21
156.665674279
  0
LINE
  8
0
 62
7
  6
CONTINUOUS
 10
101.262752657
 20
108.9342131117
 11
101.2726400706
 21
108.5277682917
  0
LINE
  8
0
 62
7
  6
CONTINUOUS
 10
100.7725294635
 20
155.9879501628
 11
100.7628230356
 21
156.4213911783
  0
LINE
  8
0
 62
7
  6
CONTINUOUS
 10
101.2534801986
 20
109.4221855549
 11
101.262752657
 21
108.9342131117
  0
LINE
  8
0
 62
7
  6
CONTINUOUS
 10
100.7843578399
 20
155.2826867185
 11
100.7725294635
 21
155.9879501628
  0
LINE
  8
0
 62
7
  6
CONTINUOUS
 10
101.2424811709
 20
110.1997347197
 11
101.2534801986
 21
109.4221855549
  0
LINE
  8
0
 62
7
  6
CONTINUOUS
 10
100.7943716223
 20
154.4344386825
 11
100.7843578399
 21
155.2826867185
  0
LINE
  8
0
 62
7
  6
CONTINUOUS
 10
101.2318083404
 20
111.365039318
 11
101.2424811709
 21
110.1997347197
  0
LINE
  8
0
 62
7
  6
CONTINUOUS
 10
100.8033508072
 20
153.1906937489
 11
100.7943716223
 21
154.4344386825
  0
LINE
  8
0
 62
7
  6
CONTINUOUS
 10
101.2257583309
 20
112.712891729
 11
101.2318083404
 21
111.365039318
  0
LINE
  8
0
 62
7
  6
CONTINUOUS
 10
100.8072523052
 20
151.5878502155
 11
100.8033508072
 21
153.1906937489
  0
LINE
  8
0
 62
7
  6
CONTINUOUS
 10
100.807252338
 20
151.5878502155
 11
100.807252338
 21
148.4378502155
  0
LINE
  8
0
 62
7
  6
CONTINUOUS
 10
101.2257583309
 20
112.712891729
 11
101.224859731
 21
116.6378502155
  0
POLYLINE
  8
0
 62
7
  6
CONTINUOUS
 66
1
 70
0
  0
VERTEX
  8
0
 62
7
  6
CONTINUOUS
 10
76.5269846901
 20
157.9378471916
  0
VERTEX
  8
0
 62
7
  6
CONTINUOUS
 10
76.4570240428
 20
157.9329477164
  0
VERTEX
  8
0
 62
7
  6
CONTINUOUS
 10
76.3053870848
 20
157.8862817099
  0
VERTEX
  8
0
 62
7
  6
CONTINUOUS
 10
76.1890519257
 20
157.8071122498
  0
VERTEX
  8
0
 62
7
  6
CONTINUOUS
 10
76.1070591524
 20
157.7113597461
  0
VERTEX
  8
0
 62
7
  6
CONTINUOUS
 10
76.059167028
 20
157.6201771402
  0
VERTEX
  8
0
 62
7
  6
CONTINUOUS
 10
76.0370898037
 20
157.5538298481
  0
VERTEX
  8
0
 62
7
  6
CONTINUOUS
 10
76.0263179168
 20
157.5061210264
  0
VERTEX
  8
0
 62
7
  6
CONTINUOUS
 10
76.0197994126
 20
157.466676851
  0
VERTEX
  8
0
 62
7
  6
CONTINUOUS
 10
76.0149707315
 20
157.4291476766
  0
VERTEX
  8
0
 62
7
  6
CONTINUOUS
 10
76.0108452379
 20
157.3897160022
  0
VERTEX
  8
0
 62
7
  6
CONTINUOUS
 10
76.0070357392
 20
157.3462310299
  0
VERTEX
  8
0
 62
7
  6
CONTINUOUS
 10
76.003373309
 20
157.2973328797
  0
VERTEX
  8
0
 62
7
  6
CONTINUOUS
 10
75.9997790884
 20
157.2420849758
  0
VERTEX
  8
0
 62
7
  6
CONTINUOUS
 10
75.9962147775
 20
157.1797826675
  0
VERTEX
  8
0
 62
7
  6
CONTINUOUS
 10
75.9926612559
 20
157.1098300219
  0
VERTEX
  8
0
 62
7
  6
CONTINUOUS
 10
75.9891102658
 20
157.0317025429
  0
VERTEX
  8
0
 62
7
  6
CONTINUOUS
 10
75.9820247803
 20
156.8494890732
  0
SEQEND
  0
LINE
  8
0
 62
7
  6
CONTINUOUS
 10
100.2051402082
 20
157.9378502155
 11
76.5269718608
 21
157.9378502155
  0
LINE
  8
4_SURFACE
 62
7
  6
CONTINUOUS
 10
49.6051402082
 20
157.9378502155
 11
47.6989004219
 21
157.9378502155
  0
LINE
  8
0
 62
7
  6
CONTINUOUS
 10
49.6051402082
 20
157.9378502155
 11
47.6989004219
 21
157.9378502155
  0
LINE
  8
4_SURFACE
 62
7
  6
CONTINUOUS
 10
40.7332116471
 20
157.9378502155
 11
38.2160560305
 21
157.9378502155
  0
LINE
  8
0
 62
7
  6
CONTINUOUS
 10
40.7332116471
 20
157.9378502155
 11
38.2160560305
 21
157.9378502155
  0
POLYLINE
  8
0
 62
7
  6
CONTINUOUS
 66
1
 70
0
  0
VERTEX
  8
0
 62
7
  6
CONTINUOUS
 10
101.0886091166
 20
147.8287622258
  0
VERTEX
  8
0
 62
7
  6
CONTINUOUS
 10
101.1747361373
 20
147.7648816603
  0
VERTEX
  8
0
 62
7
  6
CONTINUOUS
 10
101.3225299326
 20
147.6902701422
  0
SEQEND
  0
LINE
  8
0
 62
7
  6
CONTINUOUS
 10
104.2580779313
 20
108.3411998955
 11
104.2329070606
 21
107.6204004672
  0
LINE
  8
0
 62
7
  6
CONTINUOUS
 10
101.0886091166
 20
147.8287622258
 11
101.0388418236
 21
147.8749705821
  0
LINE
  8
0
 62
7
  6
CONTINUOUS
 10
100.9344769676
 20
148.0049332779
 11
101.0416672796
 21
147.8720686298
  0
LINE
  8
0
 62
7
  6
CONTINUOUS
 10
101.0388418236
 20
147.8749705821
 11
100.8978747215
 21
148.0680570478
  0
LINE
  8
0
 62
7
  6
CONTINUOUS
 10
100.8978747215
 20
148.0680570478
 11
100.8202738021
 21
148.2941165352
  0
POLYLINE
  8
0
 62
7
  6
CONTINUOUS
 66
1
 70
0
  0
VERTEX
  8
0
 62
7
  6
CONTINUOUS
 10
100.8189705423
 20
148.3010090942
  0
VERTEX
  8
0
 62
7
  6
CONTINUOUS
 10
100.8598518534
 20
148.1524043161
  0
VERTEX
  8
0
 62
7
  6
CONTINUOUS
 10
100.9344769676
 20
148.0049332779
  0
SEQEND
  0
LINE
  8
0
 62
7
  6
CONTINUOUS
 10
110.1740340471
 20
108.3412024893
 11
110.1992050084
 21
107.6204004672
  0
LINE
  8
0
 62
7
  6
CONTINUOUS
 10
104.188665321
 20
108.1443391716
 11
104.2402124409
 21
108.2913203504
  0
LINE
  8
0
 62
7
  6
CONTINUOUS
 10
104.2402124409
 20
108.2913203504
 11
104.2539585293
 21
108.3298098588
  0
LINE
  8
0
 62
7
  6
CONTINUOUS
 10
104.2539585293
 20
108.3298098588
 11
104.2635309755
 21
108.3561733151
  0
LINE
  8
0
 62
7
  6
CONTINUOUS
 10
104.2635309755
 20
108.3561733151
 11
104.2734779182
 21
108.3830940631
  0
LINE
  8
0
 62
7
  6
CONTINUOUS
 10
104.2734779182
 20
108.3830940631
 11
104.2832264693
 21
108.4089442888
  0
LINE
  8
0
 62
7
  6
CONTINUOUS
 10
104.2832563989
 20
108.4090228368
 11
104.2832264693
 21
108.4089442888
  0
POLYLINE
  8
0
 62
7
  6
CONTINUOUS
 66
1
 70
0
  0
VERTEX
  8
0
 62
7
  6
CONTINUOUS
 10
104.2832558916
 20
108.4090227959
  0
VERTEX
  8
0
 62
7
  6
CONTINUOUS
 10
104.2890950736
 20
108.4237345685
  0
VERTEX
  8
0
 62
7
  6
CONTINUOUS
 10
104.3152531519
 20
108.4796354
  0
VERTEX
  8
0
 62
7
  6
CONTINUOUS
 10
104.3468129249
 20
108.5345646572
  0
VERTEX
  8
0
 62
7
  6
CONTINUOUS
 10
104.3830971509
 20
108.5879168919
  0
SEQEND
  0
LINE
  8
0
 62
7
  6
CONTINUOUS
 10
113.7160560345
 20
107.6378502115
 11
113.7160560345
 21
146.2378502155
  0
POLYLINE
  8
0
 62
7
  6
CONTINUOUS
 66
1
 70
0
  0
VERTEX
  8
0
 62
7
  6
CONTINUOUS
 10
104.3830971509
 20
108.5879168919
  0
VERTEX
  8
0
 62
7
  6
CONTINUOUS
 10
104.4236918854
 20
108.6391566953
  0
VERTEX
  8
0
 62
7
  6
CONTINUOUS
 10
104.4684985868
 20
108.6878402184
  0
VERTEX
  8
0
 62
7
  6
CONTINUOUS
 10
104.5176610466
 20
108.733398246
  0
VERTEX
  8
0
 62
7
  6
CONTINUOUS
 10
104.5713384678
 20
108.7748103759
  0
VERTEX
  8
0
 62
7
  6
CONTINUOUS
 10
104.6295774708
 20
108.8104350713
  0
VERTEX
  8
0
 62
7
  6
CONTINUOUS
 10
104.6905214753
 20
108.8372494668
  0
VERTEX
  8
0
 62
7
  6
CONTINUOUS
 10
104.7494407857
 20
108.8523098523
  0
VERTEX
  8
0
 62
7
  6
CONTINUOUS
 10
104.7943454471
 20
108.8559209081
  0
SEQEND
  0
LINE
  8
4_SURFACE
 62
7
  6
CONTINUOUS
 10
37.7160560345
 20
209.6150750035
 11
37.7160560345
 21
210.1614318149
  0
LINE
  8
0
 62
7
  6
CONTINUOUS
 10
37.7160560345
 20
198.697551415
 11
37.7160560345
 21
210.1614318149
  0
LINE
  8
0
 62
7
  6
CONTINUOUS
 10
41.1376605587
 20
206.4062776182
 11
41.0029519259
 21
198.6888252118
  0
POLYLINE
  8
0
 62
7
  6
CONTINUOUS
 66
1
 70
0
  0
VERTEX
  8
0
 62
7
  6
CONTINUOUS
 10
39.3066540351
 20
210.397551415
  0
VERTEX
  8
0
 62
7
  6
CONTINUOUS
 10
39.3876141837
 20
210.4881039485
  0
VERTEX
  8
0
 62
7
  6
CONTINUOUS
 10
39.4681067825
 20
210.5748306758
  0
VERTEX
  8
0
 62
7
  6
CONTINUOUS
 10
39.5392185469
 20
210.6609716959
  0
VERTEX
  8
0
 62
7
  6
CONTINUOUS
 10
39.6200799936
 20
210.7308285183
  0
VERTEX
  8
0
 62
7
  6
CONTINUOUS
 10
39.6595482798
 20
210.8038076228
  0
SEQEND
  0
POLYLINE
  8
0
 62
7
  6
CONTINUOUS
 66
1
 70
0
  0
VERTEX
  8
0
 62
7
  6
CONTINUOUS
 10
39.6595482798
 20
210.8038076228
  0
VERTEX
  8
0
 62
7
  6
CONTINUOUS
 10
39.7145949328
 20
210.8508088116
  0
VERTEX
  8
0
 62
7
  6
CONTINUOUS
 10
39.7371080565
 20
210.8845811133
  0
VERTEX
  8
0
 62
7
  6
CONTINUOUS
 10
39.7566540351
 20
210.897551415
  0
SEQEND
  0
LINE
  8
0
 62
7
  6
CONTINUOUS
 10
47.7944515102
 20
206.4062776182
 11
47.9291601431
 21
198.6888252118
  0
LINE
  8
0
 62
7
  6
CONTINUOUS
 10
50.8291601431
 20
198.6888252118
 11
50.6249358834
 21
210.3888252118
  0
LINE
  8
0
 62
7
  6
CONTINUOUS
 10
51.9160560345
 20
198.9939489805
 11
51.9160560345
 21
199.1086276649
  0
LINE
  8
0
 62
7
  6
CONTINUOUS
 10
54.9160560345
 20
199.1076994561
 11
54.9160560345
 21
198.9939489805
  0
POLYLINE
  8
0
 62
7
  6
CONTINUOUS
 66
1
 70
0
  0
VERTEX
  8
0
 62
7
  6
CONTINUOUS
 10
39.1000103157
 20
210.2765815513
  0
VERTEX
  8
0
 62
7
  6
CONTINUOUS
 10
39.091480957
 20
210.2727148358
  0
VERTEX
  8
0
 62
7
  6
CONTINUOUS
 10
39.0865100311
 20
210.2649757727
  0
VERTEX
  8
0
 62
7
  6
CONTINUOUS
 10
39.0841474233
 20
210.2555627622
  0
VERTEX
  8
0
 62
7
  6
CONTINUOUS
 10
39.0832123556
 20
210.2462155478
  0
VERTEX
  8
0
 62
7
  6
CONTINUOUS
 10
39.0832313436
 20
210.2381059649
  0
SEQEND
  0
POLYLINE
  8
0
 62
7
  6
CONTINUOUS
 66
1
 70
0
  0
VERTEX
  8
0
 62
7
  6
CONTINUOUS
 10
51.8919602286
 20
199.0865560154
  0
VERTEX
  8
0
 62
7
  6
CONTINUOUS
 10
51.8934954793
 20
199.0883700634
  0
VERTEX
  8
0
 62
7
  6
CONTINUOUS
 10
51.9159866425
 20
199.108583467
  0
VERTEX
  8
0
 62
7
  6
CONTINUOUS
 10
51.9625449654
 20
199.138237863
  0
SEQEND
  0
POLYLINE
  8
0
 62
7
  6
CONTINUOUS
 66
1
 70
0
  0
VERTEX
  8
0
 62
7
  6
CONTINUOUS
 10
103.8942542114
 20
198.197551415
  0
VERTEX
  8
0
 62
7
  6
CONTINUOUS
 10
104.0503183212
 20
198.2225306891
  0
VERTEX
  8
0
 62
7
  6
CONTINUOUS
 10
104.1897482988
 20
198.2940733898
  0
VERTEX
  8
0
 62
7
  6
CONTINUOUS
 10
104.3003522102
 20
198.4051022386
  0
VERTEX
  8
0
 62
7
  6
CONTINUOUS
 10
104.3712265957
 20
198.5442980047
  0
VERTEX
  8
0
 62
7
  6
CONTINUOUS
 10
104.395875339
 20
198.697551415
  0
SEQEND
  0
LINE
  8
0
 62
7
  6
CONTINUOUS
 10
38.2160560345
 20
198.197551415
 11
113.2160560345
 21
198.197551415
  0
LINE
  8
0
 62
7
  6
CONTINUOUS
 10
52.2160560025
 20
199.1985719294
 11
54.6160643726
 21
199.1985719294
  0
POLYLINE
  8
0
 62
7
  6
CONTINUOUS
 66
1
 70
0
  0
VERTEX
  8
0
 62
7
  6
CONTINUOUS
 10
54.6160645581
 20
199.198615042
  0
VERTEX
  8
0
 62
7
  6
CONTINUOUS
 10
54.6876560469
 20
199.1941607504
  0
VERTEX
  8
0
 62
7
  6
CONTINUOUS
 10
54.7709783774
 20
199.1774578267
  0
VERTEX
  8
0
 62
7
  6
CONTINUOUS
 10
54.8415752006
 20
199.1520004852
  0
VERTEX
  8
0
 62
7
  6
CONTINUOUS
 10
54.8939066392
 20
199.1240528027
  0
VERTEX
  8
0
 62
7
  6
CONTINUOUS
 10
54.9274015556
 20
199.0993228283
  0
VERTEX
  8
0
 62
7
  6
CONTINUOUS
 10
54.9345622132
 20
199.0926407437
  0
SEQEND
  0
POLYLINE
  8
0
 62
7
  6
CONTINUOUS
 66
1
 70
0
  0
VERTEX
  8
0
 62
7
  6
CONTINUOUS
 10
51.9625449654
 20
199.138237863
  0
VERTEX
  8
0
 62
7
  6
CONTINUOUS
 10
52.0311101447
 20
199.168021273
  0
VERTEX
  8
0
 62
7
  6
CONTINUOUS
 10
52.1192826179
 20
199.1905435044
  0
VERTEX
  8
0
 62
7
  6
CONTINUOUS
 10
52.2160558698
 20
199.1986205231
  0
SEQEND
  0
LINE
  8
0
 62
7
  6
CONTINUOUS
 10
75.5071761856
 20
210.3888252118
 11
75.3029519259
 21
198.6888252118
  0
LINE
  8
0
 62
7
  6
CONTINUOUS
 10
51.3729293422
 20
204.547551415
 11
55.5191828186
 21
204.547551415
  0
LINE
  8
0
 62
7
  6
CONTINUOUS
 10
57.4565012693
 20
204.547551415
 11
63.6266107914
 21
204.547551415
  0
LINE
  8
1_AXIS
 62
2
  6
CENTER
 10
35.7160560345
 20
204.547551415
 11
116.8605032823
 21
204.547551415
  0
POLYLINE
  8
0
 62
7
  6
CONTINUOUS
 66
1
 70
0
  0
VERTEX
  8
0
 62
7
  6
CONTINUOUS
 10
110.5378578575
 20
198.197551415
  0
VERTEX
  8
0
 62
7
  6
CONTINUOUS
 10
110.3817937478
 20
198.2225306891
  0
VERTEX
  8
0
 62
7
  6
CONTINUOUS
 10
110.2423637701
 20
198.2940733898
  0
SEQEND
  0
LINE
  8
0
 62
7
  6
CONTINUOUS
 10
78.2962357748
 20
206.897551415
 11
78.1529519259
 21
198.6888252118
  0
POLYLINE
  8
0
 62
7
  6
CONTINUOUS
 66
1
 70
0
  0
VERTEX
  8
0
 62
7
  6
CONTINUOUS
 10
99.0815750528
 20
207.1509508649
  0
VERTEX
  8
0
 62
7
  6
CONTINUOUS
 10
98.9119788813
 20
207.1350908351
  0
VERTEX
  8
0
 62
7
  6
CONTINUOUS
 10
98.7373511634
 20
207.0879127715
  0
VERTEX
  8
0
 62
7
  6
CONTINUOUS
 10
98.5779286969
 20
207.0230833709
  0
SEQEND
  0
LINE
  8
0
 62
7
  6
CONTINUOUS
 10
98.2973043065
 20
206.897551415
 11
78.2848077625
 21
206.897551415
  0
LINE
  8
0
 62
7
  6
CONTINUOUS
 10
47.3015757336
 20
206.897551415
 11
41.6367718007
 21
206.897551415
  0
LINE
  8
0
 62
7
  6
CONTINUOUS
 10
100.4813313279
 20
207.1509508649
 11
99.0815750528
 21
207.1509508649
  0
LINE
  8
0
 62
7
  6
CONTINUOUS
 10
77.5005370162
 20
207.1509508649
 11
76.2507807411
 21
207.1509508649
  0
POLYLINE
  8
0
 62
7
  6
CONTINUOUS
 66
1
 70
0
  0
VERTEX
  8
0
 62
7
  6
CONTINUOUS
 10
76.250780591
 20
207.1509422688
  0
VERTEX
  8
0
 62
7
  6
CONTINUOUS
 10
76.0314993126
 20
207.1557278679
  0
VERTEX
  8
0
 62
7
  6
CONTINUOUS
 10
75.8258609497
 20
207.1712854157
  0
VERTEX
  8
0
 62
7
  6
CONTINUOUS
 10
75.6562726074
 20
207.200655428
  0
VERTEX
  8
0
 62
7
  6
CONTINUOUS
 10
75.5375663454
 20
207.2480510803
  0
VERTEX
  8
0
 62
7
  6
CONTINUOUS
 10
75.4722911231
 20
207.3203431057
  0
VERTEX
  8
0
 62
7
  6
CONTINUOUS
 10
75.4553948957
 20
207.422277103
  0
SEQEND
  0
LINE
  8
0
 62
7
  6
CONTINUOUS
 10
98.3485309287
 20
206.913207029
 11
98.2973043065
 21
206.897551415
  0
LINE
  8
0
 62
7
  6
CONTINUOUS
 10
109.6377600204
 20
208.4709270044
 11
104.7943493721
 21
208.4709270044
  0
LINE
  8
0
 62
7
  6
CONTINUOUS
 10
78.2848077625
 20
206.897551415
 11
78.2335739686
 21
206.9132100949
  0
POLYLINE
  8
0
 62
7
  6
CONTINUOUS
 66
1
 70
0
  0
VERTEX
  8
0
 62
7
  6
CONTINUOUS
 10
78.2335739686
 20
206.9132100949
  0
VERTEX
  8
0
 62
7
  6
CONTINUOUS
 10
78.0041208711
 20
207.023111884
  0
VERTEX
  8
0
 62
7
  6
CONTINUOUS
 10
77.8447305204
 20
207.0879233724
  0
VERTEX
  8
0
 62
7
  6
CONTINUOUS
 10
77.6699703466
 20
207.1351209369
  0
VERTEX
  8
0
 62
7
  6
CONTINUOUS
 10
77.5005370162
 20
207.1509508649
  0
SEQEND
  0
LINE
  8
0
 62
7
  6
CONTINUOUS
 10
98.5779286969
 20
207.0230833709
 11
98.3485309287
 21
206.913207029
  0
LINE
  8
4_SURFACE
 62
7
  6
CONTINUOUS
 10
51.124859731
 20
210.897551415
 11
75.007252338
 21
210.897551415
  0
LINE
  8
0
 62
7
  6
CONTINUOUS
 10
39.7566540351
 20
210.897551415
 11
111.6754580339
 21
210.897551415
  0
POLYLINE
  8
0
 62
7
  6
CONTINUOUS
 66
1
 70
0
  0
VERTEX
  8
0
 62
7
  6
CONTINUOUS
 10
109.6374840558
 20
208.4709104557
  0
VERTEX
  8
0
 62
7
  6
CONTINUOUS
 10
109.6985435052
 20
208.4639843941
  0
VERTEX
  8
0
 62
7
  6
CONTINUOUS
 10
109.7558304559
 20
208.4452747983
  0
VERTEX
  8
0
 62
7
  6
CONTINUOUS
 10
109.8092528332
 20
208.417540859
  0
VERTEX
  8
0
 62
7
  6
CONTINUOUS
 10
109.8590805416
 20
208.382596483
  0
VERTEX
  8
0
 62
7
  6
CONTINUOUS
 10
109.9056830945
 20
208.3414402793
  0
VERTEX
  8
0
 62
7
  6
CONTINUOUS
 10
109.9490455081
 20
208.2948950712
  0
VERTEX
  8
0
 62
7
  6
CONTINUOUS
 10
109.98921242
 20
208.2434439598
  0
VERTEX
  8
0
 62
7
  6
CONTINUOUS
 10
110.0262689185
 20
208.1872156313
  0
VERTEX
  8
0
 62
7
  6
CONTINUOUS
 10
110.0602299142
 20
208.1260787367
  0
VERTEX
  8
0
 62
7
  6
CONTINUOUS
 10
110.0907343756
 20
208.0602861572
  0
VERTEX
  8
0
 62
7
  6
CONTINUOUS
 10
110.1173906287
 20
207.9900556639
  0
VERTEX
  8
0
 62
7
  6
CONTINUOUS
 10
110.1391610419
 20
207.9178414939
  0
SEQEND
  0
LINE
  8
0
 62
7
  6
CONTINUOUS
 10
39.1000047745
 20
210.2765805056
 11
39.1160560345
 21
210.2796125626
  0
LINE
  8
0
 62
7
  6
CONTINUOUS
 10
38.0456484191
 20
210.5634698919
 11
39.6762464196
 21
210.889589492
  0
LINE
  8
0
 62
7
  6
CONTINUOUS
 10
111.7558656493
 20
210.889589492
 11
113.3864636499
 21
210.5634698919
  0
POLYLINE
  8
0
 62
7
  6
CONTINUOUS
 66
1
 70
0
  0
VERTEX
  8
0
 62
7
  6
CONTINUOUS
 10
110.2423637701
 20
198.2940733898
  0
VERTEX
  8
0
 62
7
  6
CONTINUOUS
 10
110.1317598588
 20
198.4051022386
  0
VERTEX
  8
0
 62
7
  6
CONTINUOUS
 10
110.0608854732
 20
198.5442980047
  0
VERTEX
  8
0
 62
7
  6
CONTINUOUS
 10
110.0362367299
 20
198.697551415
  0
SEQEND
  0
LINE
  8
0
 62
7
  6
CONTINUOUS
 10
98.2858762942
 20
206.897551415
 11
98.4291601431
 21
198.6888252118
  0
LINE
  8
0
 62
7
  6
CONTINUOUS
 10
101.4291601431
 20
198.6888252118
 11
101.2249358834
 21
210.3888252118
  0
POLYLINE
  8
0
 62
7
  6
CONTINUOUS
 66
1
 70
0
  0
VERTEX
  8
0
 62
7
  6
CONTINUOUS
 10
101.2767171738
 20
207.4222770686
  0
VERTEX
  8
0
 62
7
  6
CONTINUOUS
 10
101.2605108144
 20
207.3218973033
  0
VERTEX
  8
0
 62
7
  6
CONTINUOUS
 10
101.1951773426
 20
207.2484547134
  0
VERTEX
  8
0
 62
7
  6
CONTINUOUS
 10
101.0728901271
 20
207.1999006969
  0
VERTEX
  8
0
 62
7
  6
CONTINUOUS
 10
100.9040167677
 20
207.171030937
  0
VERTEX
  8
0
 62
7
  6
CONTINUOUS
 10
100.7015858564
 20
207.1557719024
  0
VERTEX
  8
0
 62
7
  6
CONTINUOUS
 10
100.4813314662
 20
207.1509429421
  0
SEQEND
  0
LINE
  8
0
 62
7
  6
CONTINUOUS
 10
104.2691533937
 20
207.8143137676
 11
104.2691654773
 21
207.8144234214
  0
LINE
  8
0
 62
7
  6
CONTINUOUS
 10
104.2691665534
 20
207.8144229214
 11
104.2724094902
 21
207.8357043972
  0
LINE
  8
0
 62
7
  6
CONTINUOUS
 10
104.2724094902
 20
207.8357043972
 11
104.2750457443
 21
207.8476461684
  0
LINE
  8
0
 62
7
  6
CONTINUOUS
 10
104.2750495164
 20
207.847661822
 11
104.2825033513
 21
207.8774765363
  0
POLYLINE
  8
0
 62
7
  6
CONTINUOUS
 66
1
 70
0
  0
VERTEX
  8
0
 62
7
  6
CONTINUOUS
 10
104.2825033513
 20
207.8774765363
  0
VERTEX
  8
0
 62
7
  6
CONTINUOUS
 10
104.2903002156
 20
207.9077572471
  0
VERTEX
  8
0
 62
7
  6
CONTINUOUS
 10
104.292949396
 20
207.9178334086
  0
SEQEND
  0
POLYLINE
  8
0
 62
7
  6
CONTINUOUS
 66
1
 70
0
  0
VERTEX
  8
0
 62
7
  6
CONTINUOUS
 10
104.292950024
 20
207.9178379111
  0
VERTEX
  8
0
 62
7
  6
CONTINUOUS
 10
104.3165138158
 20
207.9952882233
  0
VERTEX
  8
0
 62
7
  6
CONTINUOUS
 10
104.3431543015
 20
208.0644801197
  0
VERTEX
  8
0
 62
7
  6
CONTINUOUS
 10
104.3734762871
 20
208.1291997467
  0
VERTEX
  8
0
 62
7
  6
CONTINUOUS
 10
104.407127579
 20
208.1893302601
  0
VERTEX
  8
0
 62
7
  6
CONTINUOUS
 10
104.4437837497
 20
208.2446749902
  0
VERTEX
  8
0
 62
7
  6
CONTINUOUS
 10
104.4835281518
 20
208.2954371177
  0
VERTEX
  8
0
 62
7
  6
CONTINUOUS
 10
104.5265519821
 20
208.3415607086
  0
VERTEX
  8
0
 62
7
  6
CONTINUOUS
 10
104.5730427769
 20
208.3826056127
  0
VERTEX
  8
0
 62
7
  6
CONTINUOUS
 10
104.6230655056
 20
208.4176672672
  0
VERTEX
  8
0
 62
7
  6
CONTINUOUS
 10
104.6772401572
 20
208.4456823883
  0
VERTEX
  8
0
 62
7
  6
CONTINUOUS
 10
104.736146923
 20
208.4645537876
  0
VERTEX
  8
0
 62
7
  6
CONTINUOUS
 10
104.7943492859
 20
208.4709106634
  0
SEQEND
  0
POLYLINE
  8
1_AXIS
 62
7
  6
CONTINUOUS
 66
1
 70
0
  0
VERTEX
  8
1_AXIS
 62
7
  6
CONTINUOUS
 10
104.4378029208
 20
201.297551415
  0
VERTEX
  8
1_AXIS
 62
7
  6
CONTINUOUS
 10
104.4141981506
 20
201.3686225614
  0
VERTEX
  8
1_AXIS
 62
7
  6
CONTINUOUS
 10
104.391627107
 20
201.5787104578
  0
VERTEX
  8
1_AXIS
 62
7
  6
CONTINUOUS
 10
104.3710775418
 20
201.9185824768
  0
VERTEX
  8
1_AXIS
 62
7
  6
CONTINUOUS
 10
104.3534475708
 20
202.3733218101
  0
VERTEX
  8
1_AXIS
 62
7
  6
CONTINUOUS
 10
104.3395064267
 20
202.9230031124
  0
VERTEX
  8
1_AXIS
 62
7
  6
CONTINUOUS
 10
104.3298613106
 20
203.5435835954
  0
VERTEX
  8
1_AXIS
 62
7
  6
CONTINUOUS
 10
104.3249316815
 20
204.2079598654
  0
VERTEX
  8
1_AXIS
 62
7
  6
CONTINUOUS
 10
104.3249316943
 20
204.8871464619
  0
VERTEX
  8
1_AXIS
 62
7
  6
CONTINUOUS
 10
104.3298613452
 20
205.5515222922
  0
VERTEX
  8
1_AXIS
 62
7
  6
CONTINUOUS
 10
104.3395064732
 20
206.1721020258
  0
VERTEX
  8
1_AXIS
 62
7
  6
CONTINUOUS
 10
104.3534476166
 20
206.7217824767
  0
VERTEX
  8
1_AXIS
 62
7
  6
CONTINUOUS
 10
104.3710775764
 20
207.1765210747
  0
VERTEX
  8
1_AXIS
 62
7
  6
CONTINUOUS
 10
104.3916271258
 20
207.5163926118
  0
VERTEX
  8
1_AXIS
 62
7
  6
CONTINUOUS
 10
104.4141981557
 20
207.7264802991
  0
VERTEX
  8
1_AXIS
 62
7
  6
CONTINUOUS
 10
104.4378029208
 20
207.797551415
  0
SEQEND
  0
POLYLINE
  8
1_AXIS
 62
7
  6
CONTINUOUS
 66
1
 70
0
  0
VERTEX
  8
1_AXIS
 62
7
  6
CONTINUOUS
 10
104.4378029208
 20
207.797551415
  0
VERTEX
  8
1_AXIS
 62
7
  6
CONTINUOUS
 10
104.4614076909
 20
207.7264802686
  0
VERTEX
  8
1_AXIS
 62
7
  6
CONTINUOUS
 10
104.4839787345
 20
207.5163923722
  0
VERTEX
  8
1_AXIS
 62
7
  6
CONTINUOUS
 10
104.5045282997
 20
207.1765203531
  0
VERTEX
  8
1_AXIS
 62
7
  6
CONTINUOUS
 10
104.5221582707
 20
206.7217810199
  0
VERTEX
  8
1_AXIS
 62
7
  6
CONTINUOUS
 10
104.5360994148
 20
206.1720997176
  0
VERTEX
  8
1_AXIS
 62
7
  6
CONTINUOUS
 10
104.545744531
 20
205.5515192345
  0
VERTEX
  8
1_AXIS
 62
7
  6
CONTINUOUS
 10
104.55067416
 20
204.8871429645
  0
VERTEX
  8
1_AXIS
 62
7
  6
CONTINUOUS
 10
104.5506741472
 20
204.207956368
  0
VERTEX
  8
1_AXIS
 62
7
  6
CONTINUOUS
 10
104.5457444963
 20
203.5435805378
  0
VERTEX
  8
1_AXIS
 62
7
  6
CONTINUOUS
 10
104.5360993683
 20
202.9230008042
  0
VERTEX
  8
1_AXIS
 62
7
  6
CONTINUOUS
 10
104.5221582249
 20
202.3733203532
  0
VERTEX
  8
1_AXIS
 62
7
  6
CONTINUOUS
 10
104.5045282651
 20
201.9185817553
  0
VERTEX
  8
1_AXIS
 62
7
  6
CONTINUOUS
 10
104.4839787158
 20
201.5787102181
  0
VERTEX
  8
1_AXIS
 62
7
  6
CONTINUOUS
 10
104.4614076859
 20
201.3686225309
  0
VERTEX
  8
1_AXIS
 62
7
  6
CONTINUOUS
 10
104.4378029208
 20
201.297551415
  0
SEQEND
  0
POLYLINE
  8
1_AXIS
 62
7
  6
CONTINUOUS
 66
1
 70
0
  0
VERTEX
  8
1_AXIS
 62
7
  6
CONTINUOUS
 10
109.9943091482
 20
207.797551415
  0
VERTEX
  8
1_AXIS
 62
7
  6
CONTINUOUS
 10
109.9707043781
 20
207.7264802686
  0
VERTEX
  8
1_AXIS
 62
7
  6
CONTINUOUS
 10
109.9481333344
 20
207.5163923722
  0
VERTEX
  8
1_AXIS
 62
7
  6
CONTINUOUS
 10
109.9275837692
 20
207.1765203531
  0
VERTEX
  8
1_AXIS
 62
7
  6
CONTINUOUS
 10
109.9099537982
 20
206.7217810199
  0
VERTEX
  8
1_AXIS
 62
7
  6
CONTINUOUS
 10
109.8960126541
 20
206.1720997176
  0
VERTEX
  8
1_AXIS
 62
7
  6
CONTINUOUS
 10
109.886367538
 20
205.5515192345
  0
VERTEX
  8
1_AXIS
 62
7
  6
CONTINUOUS
 10
109.8814379089
 20
204.8871429645
  0
VERTEX
  8
1_AXIS
 62
7
  6
CONTINUOUS
 10
109.8814379218
 20
204.207956368
  0
VERTEX
  8
1_AXIS
 62
7
  6
CONTINUOUS
 10
109.8863675727
 20
203.5435805378
  0
VERTEX
  8
1_AXIS
 62
7
  6
CONTINUOUS
 10
109.8960127006
 20
202.9230008042
  0
VERTEX
  8
1_AXIS
 62
7
  6
CONTINUOUS
 10
109.909953844
 20
202.3733203532
  0
VERTEX
  8
1_AXIS
 62
7
  6
CONTINUOUS
 10
109.9275838039
 20
201.9185817553
  0
VERTEX
  8
1_AXIS
 62
7
  6
CONTINUOUS
 10
109.9481333532
 20
201.5787102181
  0
VERTEX
  8
1_AXIS
 62
7
  6
CONTINUOUS
 10
109.9707043831
 20
201.3686225309
  0
VERTEX
  8
1_AXIS
 62
7
  6
CONTINUOUS
 10
109.9943091482
 20
201.297551415
  0
SEQEND
  0
POLYLINE
  8
1_AXIS
 62
7
  6
CONTINUOUS
 66
1
 70
0
  0
VERTEX
  8
1_AXIS
 62
7
  6
CONTINUOUS
 10
109.9943091482
 20
201.297551415
  0
VERTEX
  8
1_AXIS
 62
7
  6
CONTINUOUS
 10
110.0179139183
 20
201.3686225614
  0
VERTEX
  8
1_AXIS
 62
7
  6
CONTINUOUS
 10
110.040484962
 20
201.5787104578
  0
VERTEX
  8
1_AXIS
 62
7
  6
CONTINUOUS
 10
110.0610345272
 20
201.9185824768
  0
VERTEX
  8
1_AXIS
 62
7
  6
CONTINUOUS
 10
110.0786644982
 20
202.3733218101
  0
VERTEX
  8
1_AXIS
 62
7
  6
CONTINUOUS
 10
110.0926056423
 20
202.9230031124
  0
VERTEX
  8
1_AXIS
 62
7
  6
CONTINUOUS
 10
110.1022507584
 20
203.5435835954
  0
VERTEX
  8
1_AXIS
 62
7
  6
CONTINUOUS
 10
110.1071803875
 20
204.2079598654
  0
VERTEX
  8
1_AXIS
 62
7
  6
CONTINUOUS
 10
110.1071803746
 20
204.8871464619
  0
VERTEX
  8
1_AXIS
 62
7
  6
CONTINUOUS
 10
110.1022507237
 20
205.5515222922
  0
VERTEX
  8
1_AXIS
 62
7
  6
CONTINUOUS
 10
110.0926055958
 20
206.1721020258
  0
VERTEX
  8
1_AXIS
 62
7
  6
CONTINUOUS
 10
110.0786644524
 20
206.7217824767
  0
VERTEX
  8
1_AXIS
 62
7
  6
CONTINUOUS
 10
110.0610344925
 20
207.1765210747
  0
VERTEX
  8
1_AXIS
 62
7
  6
CONTINUOUS
 10
110.0404849432
 20
207.5163926118
  0
VERTEX
  8
1_AXIS
 62
7
  6
CONTINUOUS
 10
110.0179139133
 20
207.7264802991
  0
VERTEX
  8
1_AXIS
 62
7
  6
CONTINUOUS
 10
109.9943091482
 20
207.797551415
  0
SEQEND
  0
LINE
  8
0
 62
7
  6
CONTINUOUS
 10
113.7160560345
 20
198.697551415
 11
113.7160560345
 21
210.1614318149
  0
LINE
  8
0
 62
7
  6
CONTINUOUS
 10
110.1391617256
 20
207.9178365745
 11
110.1463569265
 21
207.890218672
  0
POLYLINE
  8
0
 62
7
  6
CONTINUOUS
 66
1
 70
0
  0
VERTEX
  8
0
 62
7
  6
CONTINUOUS
 10
110.1463569265
 20
207.890218672
  0
VERTEX
  8
0
 62
7
  6
CONTINUOUS
 10
110.1550506059
 20
207.8557924152
  0
VERTEX
  8
0
 62
7
  6
CONTINUOUS
 10
110.1570623939
 20
207.8476627681
  0
SEQEND
  0
POLYLINE
  8
0
 62
7
  6
CONTINUOUS
 66
1
 70
0
  0
VERTEX
  8
0
 62
7
  6
CONTINUOUS
 10
110.1570657413
 20
207.8476488702
  0
VERTEX
  8
0
 62
7
  6
CONTINUOUS
 10
110.1598252656
 20
207.8350725465
  0
VERTEX
  8
0
 62
7
  6
CONTINUOUS
 10
110.1629447215
 20
207.8144291175
  0
SEQEND
  0
LINE
  8
0
 62
7
  6
CONTINUOUS
 10
110.1629574448
 20
207.8143136587
 11
110.1629447215
 21
207.8144291175
  0
LINE
  8
0
 62
7
  6
CONTINUOUS
 10
137.8993661351
 20
112.2524788564
 11
137.87528579
 21
112.2495058778
  0
LINE
  8
0
 62
7
  6
CONTINUOUS
 10
138.3665595868
 20
112.3046909603
 11
137.8993661351
 21
112.2524788564
  0
LINE
  8
1_AXIS
 62
2
  6
CONTINUOUS
 10
145.10528579
 20
113.4878502155
 11
143.34528579
 21
113.4878502155
  0
LINE
  8
1_AXIS
 62
2
  6
CENTER
 10
139.82528579
 20
113.4878502155
 11
138.97528579
 21
113.4878502155
  0
LINE
  8
1_AXIS
 62
2
  6
CENTER
 10
148.62528579
 20
113.4878502155
 11
149.47528579
 21
113.4878502155
  0
LINE
  8
0
 62
7
  6
CONTINUOUS
 10
149.9573469376
 20
117.4378502155
 11
150.0752857899
 21
117.4378502155
  0
LINE
  8
0
 62
7
  6
CONTINUOUS
 10
146.5732063611
 20
120.0778502155
 11
138.37528579
 21
120.0778502155
  0
LINE
  8
0
 62
7
  6
CONTINUOUS
 10
146.5732062286
 20
120.0782143135
 11
139.1902615533
 21
122.7697650583
  0
LINE
  8
0
 62
7
  6
CONTINUOUS
 10
137.87528579
 20
112.2495058778
 11
137.87528579
 21
152.8261945532
  0
LINE
  8
1_AXIS
 62
2
  6
CONTINUOUS
 10
144.22528579
 20
152.4678502155
 11
144.22528579
 21
150.7078502155
  0
LINE
  8
1_AXIS
 62
2
  6
CENTER
 10
144.22528579
 20
147.1878502155
 11
144.22528579
 21
146.3378502155
  0
LINE
  8
1_AXIS
 62
2
  6
CONTINUOUS
 10
144.22528579
 20
114.3678502155
 11
144.22528579
 21
112.6078502155
  0
LINE
  8
1_AXIS
 62
2
  6
CENTER
 10
144.22528579
 20
109.0878502155
 11
144.22528579
 21
108.2378502155
  0
LINE
  8
1_AXIS
 62
2
  6
CENTER
 10
144.22528579
 20
117.8878502155
 11
144.22528579
 21
118.7378502155
  0
LINE
  8
1_AXIS
 62
2
  6
CENTER
 10
144.22528579
 20
155.9878502155
 11
144.22528579
 21
156.8378502155
  0
LINE
  8
0
 62
7
  6
CONTINUOUS
 10
150.57528579
 20
113.4878502155
 11
150.57528579
 21
151.5878502155
  0
POLYLINE
  8
0
 62
7
  6
CONTINUOUS
 66
1
 70
0
  0
VERTEX
  8
0
 62
7
  6
CONTINUOUS
 10
150.4468057514
 20
117.602415094
  0
VERTEX
  8
0
 62
7
  6
CONTINUOUS
 10
150.4511927422
 20
117.6073486201
  0
VERTEX
  8
0
 62
7
  6
CONTINUOUS
 10
150.4630174417
 20
117.6214386249
  0
VERTEX
  8
0
 62
7
  6
CONTINUOUS
 10
150.4738378605
 20
117.6354648394
  0
VERTEX
  8
0
 62
7
  6
CONTINUOUS
 10
150.4837448836
 20
117.6494051506
  0
VERTEX
  8
0
 62
7
  6
CONTINUOUS
 10
150.4929183897
 20
117.6633982253
  0
VERTEX
  8
0
 62
7
  6
CONTINUOUS
 10
150.5009634441
 20
117.6766523893
  0
VERTEX
  8
0
 62
7
  6
CONTINUOUS
 10
150.5072597245
 20
117.6876906417
  0
VERTEX
  8
0
 62
7
  6
CONTINUOUS
 10
150.5111797142
 20
117.6948073226
  0
SEQEND
  0
LINE
  8
1_AXIS
 62
2
  6
CONTINUOUS
 10
145.10528579
 20
151.5878502155
 11
143.34528579
 21
151.5878502155
  0
LINE
  8
1_AXIS
 62
2
  6
CENTER
 10
139.82528579
 20
151.5878502155
 11
138.97528579
 21
151.5878502155
  0
LINE
  8
1_AXIS
 62
2
  6
CENTER
 10
148.62528579
 20
151.5878502155
 11
149.47528579
 21
151.5878502155
  0
LINE
  8
0
 62
7
  6
CONTINUOUS
 10
137.87528579
 20
152.8261945532
 11
138.37528579
 21
152.7710790593
  0
ARC
  8
0
 62
7
  6
CONTINUOUS
 10
112.3160560345
 20
146.2378502155
 40
1.4
 50
0.0
 51
90.0
  0
ARC
  8
0
 62
7
  6
CONTINUOUS
 10
39.1160560345
 20
118.8378502155
 40
1.4
 50
180.0
 51
270.0
  0
ARC
  8
0
 62
7
  6
CONTINUOUS
 10
40.7332116698
 20
157.4378495652
 40
0.5
 50
2.0000745694
 51
90.0000026024
  0
ARC
  8
0
 62
7
  6
CONTINUOUS
 10
47.6989003569
 20
157.4378483542
 40
0.5
 50
89.9999925519
 51
177.9997865843
  0
ARC
  8
0
 62
7
  6
CONTINUOUS
 10
110.6989003992
 20
107.6378508659
 40
0.5
 50
182.0000745694
 51
270.0000026024
  0
ARC
  8
0
 62
7
  6
CONTINUOUS
 10
103.7332117121
 20
107.6378520768
 40
0.5
 50
269.9999925519
 51
357.9997865843
  0
ARC
  8
0
 62
7
  6
CONTINUOUS
 10
38.2160536562
 20
157.4378523313
 40
0.4999976229
 50
89.9997279224
 51
180.0002417198
  0
ARC
  8
0
 62
7
  6
CONTINUOUS
 10
113.2160584128
 20
107.6378480997
 40
0.4999976229
 50
269.9997279224
 51
0.0002417198
  0
ARC
  8
0
 62
7
  6
CONTINUOUS
 10
51.3290839906
 20
198.697551415
 40
0.5
 50
181.0
 51
270.0
  0
ARC
  8
0
 62
7
  6
CONTINUOUS
 10
48.4290839906
 20
198.697551415
 40
0.5
 50
181.0
 51
270.0
  0
ARC
  8
0
 62
7
  6
CONTINUOUS
 10
38.2160560345
 20
198.697551415
 40
0.5
 50
180.0
 51
270.0
  0
ARC
  8
0
 62
7
  6
CONTINUOUS
 10
74.8030280783
 20
198.697551415
 40
0.5
 50
270.0
 51
359.0
  0
ARC
  8
0
 62
7
  6
CONTINUOUS
 10
40.5030322266
 20
198.697551415
 40
0.4999986174
 50
269.9995246411
 51
358.9999917037
  0
ARC
  8
0
 62
7
  6
CONTINUOUS
 10
47.294514402
 20
206.397551415
 40
0.5
 50
0.9999734808
 51
89.9984804444
  0
ARC
  8
0
 62
7
  6
CONTINUOUS
 10
41.6375838972
 20
206.397551415
 40
0.4999997455
 50
89.9999416533
 51
178.9999989817
  0
ARC
  8
0
 62
7
  6
CONTINUOUS
 10
51.1248586508
 20
210.397551415
 40
0.4999995846
 50
89.9998762227
 51
181.0000021602
  0
ARC
  8
0
 62
7
  6
CONTINUOUS
 10
39.7566540351
 20
210.487551415
 40
0.41
 50
90.0
 51
101.309932474
  0
ARC
  8
0
 62
7
  6
CONTINUOUS
 10
38.1260560345
 20
210.1614318149
 40
0.41
 50
101.309932474
 51
180.0
  0
ARC
  8
0
 62
7
  6
CONTINUOUS
 10
75.007252307
 20
210.3975496407
 40
0.5
 50
359.0002033437
 51
89.9999964512
  0
ARC
  8
0
 62
7
  6
CONTINUOUS
 10
113.2160560345
 20
198.697551415
 40
0.5
 50
270.0
 51
360.0
  0
ARC
  8
0
 62
7
  6
CONTINUOUS
 10
101.9290839906
 20
198.697551415
 40
0.5
 50
181.0
 51
270.0
  0
ARC
  8
0
 62
7
  6
CONTINUOUS
 10
77.6530181131
 20
198.697551415
 40
0.5
 50
270.0011419341
 51
359.0000199258
  0
ARC
  8
0
 62
7
  6
CONTINUOUS
 10
98.9290804833
 20
198.697551415
 40
0.4999993608
 50
180.9998791311
 51
270.0003953308
  0
ARC
  8
0
 62
7
  6
CONTINUOUS
 10
101.7248586507
 20
210.397551415
 40
0.4999995846
 50
89.9998762135
 51
181.0000021604
  0
ARC
  8
0
 62
7
  6
CONTINUOUS
 10
111.6754580339
 20
210.487551415
 40
0.41
 50
78.690067526
 51
90.0
  0
ARC
  8
0
 62
7
  6
CONTINUOUS
 10
113.3060560345
 20
210.1614318149
 40
0.41
 50
0.0
 51
78.690067526
  0
ARC
  8
0
 62
7
  6
CONTINUOUS
 10
139.87528579
 20
124.6487918796
 40
2.0
 50
180.0
 51
249.97
  0
ARC
  8
0
 62
7
  6
CONTINUOUS
 10
138.37528579
 20
120.5778480549
 40
0.499999169
 50
179.9997524112
 51
270.0
  0
ARC
  8
0
 62
7
  6
CONTINUOUS
 10
144.22528579
 20
113.6378502155
 40
6.855
 50
33.8877046672
 51
69.9700000902
  0
ARC
  8
0
 62
7
  6
CONTINUOUS
 10
144.22528579
 20
113.6378502155
 40
6.5
 50
192.3329031
 51
270.0
  0
ARC
  8
0
 62
7
  6
CONTINUOUS
 10
144.22528579
 20
113.4878502155
 40
6.35
 50
270.0
 51
360.0
  0
CIRCLE
  8
1_AXIS
 62
7
  6
CONTINUOUS
 10
144.22528579
 20
113.4878502155
 40
3.25
  0
ARC
  8
0
 62
7
  6
CONTINUOUS
 10
150.07528579
 20
117.9378480548
 40
0.4999991689
 50
270.0
 51
360.0
  0
ARC
  8
0
 62
7
  6
CONTINUOUS
 10
149.9573469376
 20
117.4878502155
 40
0.05
 50
213.8877046671
 51
270.0000000001
  0
ARC
  8
0
 62
7
  6
CONTINUOUS
 10
144.22528579
 20
151.4378502155
 40
6.5
 50
90.0
 51
167.6670969
  0
ARC
  8
0
 62
7
  6
CONTINUOUS
 10
144.22528579
 20
151.5878502155
 40
6.35
 50
0.0
 51
90.0
  0
CIRCLE
  8
1_AXIS
 62
7
  6
CONTINUOUS
 10
144.22528579
 20
151.5878502155
 40
3.25
  0
ENDSEC
  0
EOF
