  0
SECTION
  2
HEADER
  9
$EXTMAX
 10
210.0
 20
297.0
 30
0.0
  9
$EXTMIN
 10
0.0
 20
0.0
 30
0.0
  9
$LIMMIN
 10
0.0
 20
0.0
  9
$LIMMAX
 10
210.0
 20
297.0
  9
$VIEWCTR
 10
105.0
 20
148.5
  9
$VIEWSIZE
 40
297.0
  9
$CLAYER
  8
0
  9
$LTSCALE
 40
19.36
  9
$CELTYPE
  6
BYLAYER
  9
$DIMSCALE
 40
1.0
  9
$DIMASZ
 40
3.5
  9
$DIMEXO
 40
2.2
  9
$DIMDLI
 40
13.376
  9
$DIMEXE
 40
6.336
  9
$DIMCEN
 40
3.168
  9
$DIMLFAC
 40
1.0
  9
$DIMBLK
  1
_FILLED
  9
$DIMTXT
 40
3.5
  9
$PDMODE
 70
3
  9
$PDSIZE
 40
0.3125
  9
$TILEMODE
 70
1
  0
ENDSEC
  0
SECTION
  2
TABLES
  0
TABLE
  2
LTYPE
 70
6
  0
LTYPE
  2
BYBLOCK
 70
0
  3

 72
65
 73
0
 40
0.0
  0
LTYPE
  2
BYLAYER
 70
0
  3

 72
65
 73
0
 40
0.0
  0
LTYPE
  2
CONTINUOUS
 70
64
  3
Solid line
 72
65
 73
0
 40
0.0
  0
LTYPE
  2
CENTER
 70
64
  3
____ _ ____ _ ____ _ ____ _ ____ _ ____ _ ____
 72
65
 73
4
 40
0.6
 49
0.375
 49
-0.075
 49
0.075
 49
-0.075
  0
LTYPE
  2
HIDDEN
 70
64
  3
- - - - - - - - - - - - - - - - - - - -
 72
65
 73
2
 40
0.2
 49
0.1
 49
-0.1
  0
LTYPE
  2
PHANTOM
 70
64
  3
_____ _ _ _____ _ _ _____ _ _ _____
 72
65
 73
6
 40
0.8
 49
0.45
 49
-0.05
 49
0.1
 49
-0.05
 49
0.1
 49
-0.05
  0
LTYPE
  2
DOT
 70
64
  3
. . . . . . . . . . . . . . . . . . . .
 72
65
 73
2
 40
0.2
 49
0.1
 49
-0.1
  0
LTYPE
  2
DASHED
 70
64
  3
- - - - - - - - - - - - - - - - - - - -
 72
65
 73
2
 40
0.2
 49
0.1
 49
-0.1
  0
ENDTAB
  0
TABLE
  2
LAYER
 70
36
  0
LAYER
  2
0
 70
0
 62
7
  6
CONTINUOUS
  0
LAYER
  2
DEFAULT_1
 70
0
 62
7
  6
CENTER
  0
LAYER
  2
DEFAULT_2
 70
0
 62
8
  6
HIDDEN
  0
LAYER
  2
DEFAULT_3
 70
0
 62
7
  6
PHANTOM
  0
LAYER
  2
1_AXIS
 70
0
 62
7
  6
CONTINUOUS
  0
LAYER
  2
1_CSYS
 70
0
 62
7
  6
CONTINUOUS
  0
LAYER
  2
1_DATUMPLANE
 70
0
 62
7
  6
CONTINUOUS
  0
LAYER
  2
4_QUILT
 70
0
 62
7
  6
CONTINUOUS
  0
LAYER
  2
4_SURFACE
 70
0
 62
7
  6
CONTINUOUS
  0
LAYER
  2
6_DIM
 70
0
 62
7
  6
CONTINUOUS
  0
LAYER
  2
CURVE
 70
0
 62
7
  6
CONTINUOUS
  0
LAYER
  2
SURFACE
 70
0
 62
7
  6
CONTINUOUS
  0
ENDTAB
  0
TABLE
  2
STYLE
 70
1
  0
STYLE
  2
STANDARD
 70
0
 40
0.0
 41
0.8
 50
0.0
 71
0
 42
0.2
  3
txt
  4

  0
STYLE
  2
TEXTSTYLE_1
 70
0
 40
0.0
 41
0.8
 50
0.0
 71
0
 42
0.2
  3
gdt
  4

  0
STYLE
  2
TEXTSTYLE_2
 70
0
 40
0.0
 41
0.6
 50
0.0
 71
0
 42
0.2
  3
txt
  4

  0
STYLE
  2
TEXTSTYLE_3
 70
0
 40
0.0
 41
1.0
 50
0.0
 71
0
 42
0.2
  3
ftb_____.ttf
  4

  0
STYLE
  2
TEXTSTYLE_4
 70
0
 40
0.0
 41
1.0
 50
0.0
 71
0
 42
0.2
  3
fti_____.ttf
  4

  0
STYLE
  2
TEXTSTYLE_5
 70
0
 40
0.0
 41
1.0
 50
0.0
 71
0
 42
0.2
  3
frutiger light.ttf
  4

  0
STYLE
  2
TEXTSTYLE_6
 70
0
 40
0.0
 41
0.7
 50
0.0
 71
0
 42
0.2
  3
txt
  4

  0
STYLE
  2
TEXTSTYLE_7
 70
0
 40
0.0
 41
0.8
 50
0.0
 71
0
 42
0.2
  3
txt
  4

  0
ENDTAB
  0
ENDSEC
  0
SECTION
  2
BLOCKS
  0
BLOCK
  8
0
 62
2
  6
CONTINUOUS
  2
SYMBOL_8_BL1
 70
64
 10
173.5956734183
 20
35.5937998301
  0
TEXT
  8
0
 62
7
  6
CONTINUOUS
 10
164.6539584268
 20
30.6865562072
  7
TEXTSTYLE_4
 40
1.0655737705
  1
The brand for plastic modular belts and chains
 41
1.0
 72
0
  0
LINE
  8
0
 62
7
  6
CONTINUOUS
 10
149.5737418074
 20
36.1675703219
 11
149.5737418074
 21
34.0364227809
  0
LINE
  8
0
 62
7
  6
CONTINUOUS
 10
149.8628043005
 20
31.0454914852
 11
149.8628043005
 21
31.1422825445
  0
LINE
  8
0
 62
7
  6
CONTINUOUS
 10
149.5737418074
 20
31.1100188581
 11
149.6315543091
 21
30.9164367395
  0
LINE
  8
0
 62
7
  6
CONTINUOUS
 10
150.9671844304
 20
33.9544555678
 11
150.9671844304
 21
36.1675703219
  0
LINE
  8
0
 62
7
  6
CONTINUOUS
 10
151.8862417523
 20
32.1101932727
 11
151.8862417523
 21
30.5937998301
  0
LINE
  8
0
 62
7
  6
CONTINUOUS
 10
152.1753043074
 20
30.5937998301
 11
152.1753043074
 21
31.3358647082
  0
LINE
  8
0
 62
7
  6
CONTINUOUS
 10
152.1753043074
 20
31.4649194539
 11
152.1753043074
 21
32.1101932727
  0
LINE
  8
0
 62
7
  6
CONTINUOUS
 10
149.6315543091
 20
31.3036010218
 11
149.5737418074
 21
31.1100188581
  0
LINE
  8
0
 62
7
  6
CONTINUOUS
 10
149.9784292936
 20
30.8841730531
 11
149.8628043005
 21
31.0454914852
  0
LINE
  8
0
 62
7
  6
CONTINUOUS
 10
151.0768668626
 20
31.400392081
 11
151.1346793074
 21
31.3036010218
  0
LINE
  8
0
 62
7
  6
CONTINUOUS
 10
151.4237418626
 20
31.3036010218
 11
151.3659292523
 21
31.4326557675
  0
LINE
  8
0
 62
7
  6
CONTINUOUS
 10
152.852430332
 20
36.1675703219
 11
152.852430332
 21
34.3642916334
  0
LINE
  8
0
 62
7
  6
CONTINUOUS
 10
152.852430332
 20
33.0528162235
 11
152.852430332
 21
32.3970785186
  0
LINE
  8
0
 62
7
  6
CONTINUOUS
 10
153.2159293074
 20
31.2390736489
 11
153.2159293074
 21
30.5937998301
  0
LINE
  8
0
 62
7
  6
CONTINUOUS
 10
153.5049916972
 20
30.5937998301
 11
153.5049916972
 21
31.2390736489
  0
LINE
  8
0
 62
7
  6
CONTINUOUS
 10
149.8628043005
 20
31.1422825445
 11
149.9206168074
 21
31.2713373354
  0
LINE
  8
0
 62
7
  6
CONTINUOUS
 10
149.6315543091
 20
30.9164367395
 11
149.7471793074
 21
30.7873819712
  0
LINE
  8
0
 62
7
  6
CONTINUOUS
 10
153.1581166972
 20
31.3681283946
 11
153.2159293074
 21
31.2390736489
  0
LINE
  8
0
 62
7
  6
CONTINUOUS
 10
153.9674919177
 20
30.8841730531
 11
154.0253041972
 21
30.7551182848
  0
LINE
  8
0
 62
7
  6
CONTINUOUS
 10
153.5049916972
 20
31.2390736489
 11
153.4471794177
 21
31.400392081
  0
LINE
  8
0
 62
7
  6
CONTINUOUS
 10
153.9674919177
 20
31.4326557675
 11
153.9674919177
 21
31.3681283946
  0
LINE
  8
0
 62
7
  6
CONTINUOUS
 10
153.9674919177
 20
30.9809641124
 11
153.9674919177
 21
30.8841730531
  0
LINE
  8
0
 62
7
  6
CONTINUOUS
 10
154.245872955
 20
32.3970785186
 11
154.245872955
 21
36.1675703219
  0
LINE
  8
0
 62
7
  6
CONTINUOUS
 10
154.2565543074
 20
30.8519093441
 11
154.2565543074
 21
30.9164367395
  0
LINE
  8
0
 62
7
  6
CONTINUOUS
 10
154.5737418074
 20
36.1675703219
 11
154.5737418074
 21
32.3970785186
  0
LINE
  8
0
 62
7
  6
CONTINUOUS
 10
151.3659292523
 20
30.7873819712
 11
151.4237418626
 21
30.9164367395
  0
LINE
  8
0
 62
7
  6
CONTINUOUS
 10
155.759679528
 20
30.6905909007
 11
155.7018665869
 21
30.8519093441
  0
LINE
  8
0
 62
7
  6
CONTINUOUS
 10
155.412804528
 20
31.3681283946
 11
155.412804528
 21
31.2713373354
  0
LINE
  8
0
 62
7
  6
CONTINUOUS
 10
155.412804528
 20
31.1422825445
 11
155.412804528
 21
30.9487004259
  0
LINE
  8
0
 62
7
  6
CONTINUOUS
 10
155.7018665869
 20
30.8519093441
 11
155.7018665869
 21
31.3681283946
  0
LINE
  8
0
 62
7
  6
CONTINUOUS
 10
155.9671844304
 20
32.3970785186
 11
155.9671844304
 21
34.2003572071
  0
LINE
  8
0
 62
7
  6
CONTINUOUS
 10
155.9671844304
 20
35.511832617
 11
155.9671844304
 21
36.1675703219
  0
LINE
  8
0
 62
7
  6
CONTINUOUS
 10
156.279992028
 20
32.1101932727
 11
156.279992028
 21
31.9488748406
  0
LINE
  8
0
 62
7
  6
CONTINUOUS
 10
156.279992028
 20
31.626237886
 11
156.279992028
 21
30.5937998301
  0
LINE
  8
0
 62
7
  6
CONTINUOUS
 10
156.5690540869
 20
30.5937998301
 11
156.5690540869
 21
31.626237886
  0
LINE
  8
0
 62
7
  6
CONTINUOUS
 10
156.5690540869
 20
31.9488748406
 11
156.5690540869
 21
32.1101932727
  0
LINE
  8
0
 62
7
  6
CONTINUOUS
 10
151.1346793074
 20
30.9164367395
 11
151.0768668626
 21
30.8196456577
  0
LINE
  8
0
 62
7
  6
CONTINUOUS
 10
153.4471794177
 20
31.400392081
 11
153.3893668074
 21
31.4649194539
  0
LINE
  8
0
 62
7
  6
CONTINUOUS
 10
154.3143669177
 20
30.7873819712
 11
154.2565543074
 21
30.8519093441
  0
LINE
  8
0
 62
7
  6
CONTINUOUS
 10
155.4706168074
 20
30.6583272086
 11
155.5284290869
 21
30.5937998301
  0
LINE
  8
0
 62
7
  6
CONTINUOUS
 10
155.412804528
 20
30.7551182848
 11
155.4706168074
 21
30.6583272086
  0
LINE
  8
0
 62
7
  6
CONTINUOUS
 10
155.8174918074
 20
30.5937998301
 11
155.759679528
 21
30.6905909007
  0
LINE
  8
0
 62
7
  6
CONTINUOUS
 10
155.7018665869
 20
31.3681283946
 11
155.6440543074
 21
31.4649194539
  0
LINE
  8
0
 62
7
  6
CONTINUOUS
 10
157.0315543074
 20
31.626237886
 11
157.0315543074
 21
30.5937998301
  0
LINE
  8
0
 62
7
  6
CONTINUOUS
 10
157.320617028
 20
30.5937998301
 11
157.320617028
 21
31.3358647082
  0
LINE
  8
0
 62
7
  6
CONTINUOUS
 10
157.320617028
 20
31.4649194539
 11
157.320617028
 21
31.626237886
  0
LINE
  8
0
 62
7
  6
CONTINUOUS
 10
157.852430332
 20
34.6101932727
 11
157.852430332
 21
32.3970785186
  0
LINE
  8
0
 62
7
  6
CONTINUOUS
 10
149.7471793074
 20
31.4326557675
 11
149.6315543091
 21
31.3036010218
  0
LINE
  8
0
 62
7
  6
CONTINUOUS
 10
149.9206168074
 20
31.2713373354
 11
149.9784292936
 21
31.3358647082
  0
LINE
  8
0
 62
7
  6
CONTINUOUS
 10
149.7471793074
 20
30.7873819712
 11
149.8628043005
 21
30.7228545871
  0
LINE
  8
0
 62
7
  6
CONTINUOUS
 10
150.1518667936
 20
30.7873819712
 11
149.9784292936
 21
30.8841730531
  0
LINE
  8
0
 62
7
  6
CONTINUOUS
 10
155.3549915869
 20
31.4326557675
 11
155.412804528
 21
31.3681283946
  0
LINE
  8
0
 62
7
  6
CONTINUOUS
 10
158.3034290869
 20
31.3681283946
 11
158.361242028
 21
31.2068099625
  0
LINE
  8
0
 62
7
  6
CONTINUOUS
 10
158.6503040869
 20
31.2068099625
 11
158.5924918074
 21
31.3681283946
  0
LINE
  8
0
 62
7
  6
CONTINUOUS
 10
158.361242028
 20
31.2068099625
 11
158.361242028
 21
30.5937998301
  0
LINE
  8
0
 62
7
  6
CONTINUOUS
 10
158.6503040869
 20
30.5937998301
 11
158.6503040869
 21
31.2068099625
  0
LINE
  8
0
 62
7
  6
CONTINUOUS
 10
159.1128043074
 20
31.4326557675
 11
159.1128043074
 21
31.3681283946
  0
LINE
  8
0
 62
7
  6
CONTINUOUS
 10
159.245872955
 20
32.3970785186
 11
159.245872955
 21
34.5282260596
  0
LINE
  8
0
 62
7
  6
CONTINUOUS
 10
159.5737418074
 20
36.1675703219
 11
159.5737418074
 21
32.3970785186
  0
LINE
  8
0
 62
7
  6
CONTINUOUS
 10
154.2565543074
 20
30.9164367395
 11
154.3143669177
 21
31.0132277988
  0
LINE
  8
0
 62
7
  6
CONTINUOUS
 10
149.8628043005
 20
30.7228545871
 11
150.0362418212
 21
30.6583272086
  0
LINE
  8
0
 62
7
  6
CONTINUOUS
 10
151.3659292523
 20
31.4326557675
 11
151.1924917523
 21
31.5294468267
  0
LINE
  8
0
 62
7
  6
CONTINUOUS
 10
154.0253041972
 20
30.7551182848
 11
154.1987416972
 21
30.6583272086
  0
LINE
  8
0
 62
7
  6
CONTINUOUS
 10
153.0424918074
 20
31.4326557675
 11
153.1581166972
 21
31.3681283946
  0
LINE
  8
0
 62
7
  6
CONTINUOUS
 10
153.3893668074
 20
31.4649194539
 11
153.2737419177
 21
31.5294468267
  0
LINE
  8
0
 62
7
  6
CONTINUOUS
 10
159.1128043074
 20
30.8519093441
 11
159.228429528
 21
30.7228545871
  0
LINE
  8
0
 62
7
  6
CONTINUOUS
 10
159.4596793074
 20
30.7873819712
 11
159.401867028
 21
30.8519093441
  0
LINE
  8
0
 62
7
  6
CONTINUOUS
 10
159.1128043074
 20
31.3681283946
 11
159.228429528
 21
31.2390736489
  0
LINE
  8
0
 62
7
  6
CONTINUOUS
 10
158.5924918074
 20
31.3681283946
 11
158.534679528
 21
31.4649194539
  0
LINE
  8
0
 62
7
  6
CONTINUOUS
 10
160.9628038663
 20
30.7873819712
 11
160.9628038663
 21
30.8519093441
  0
LINE
  8
0
 62
7
  6
CONTINUOUS
 10
160.9671844304
 20
32.3970785186
 11
160.9671844304
 21
36.1675703219
  0
LINE
  8
0
 62
7
  6
CONTINUOUS
 10
154.0253041972
 20
31.4971831403
 11
153.9674919177
 21
31.4326557675
  0
LINE
  8
0
 62
7
  6
CONTINUOUS
 10
150.9034292799
 20
31.4649194539
 11
151.0768668626
 21
31.400392081
  0
LINE
  8
0
 62
7
  6
CONTINUOUS
 10
155.6440543074
 20
31.4649194539
 11
155.5284290869
 21
31.5294468267
  0
LINE
  8
0
 62
7
  6
CONTINUOUS
 10
159.4596793074
 20
31.3036010218
 11
159.401867028
 21
31.3681283946
  0
LINE
  8
0
 62
7
  6
CONTINUOUS
 10
160.615929528
 20
30.9164367395
 11
160.6737418074
 21
30.8519093441
  0
LINE
  8
0
 62
7
  6
CONTINUOUS
 10
160.9628038663
 20
30.8519093441
 11
160.8471793074
 21
30.9809641124
  0
LINE
  8
0
 62
7
  6
CONTINUOUS
 10
160.615929528
 20
31.4326557675
 11
160.6737418074
 21
31.3681283946
  0
LINE
  8
0
 62
7
  6
CONTINUOUS
 10
160.9628038663
 20
31.3681283946
 11
160.8471793074
 21
31.4971831403
  0
LINE
  8
0
 62
7
  6
CONTINUOUS
 10
154.2565543074
 20
31.3681283946
 11
154.3143669177
 21
31.4326557675
  0
LINE
  8
0
 62
7
  6
CONTINUOUS
 10
154.0831168074
 20
31.1100188581
 11
153.9674919177
 21
30.9809641124
  0
LINE
  8
0
 62
7
  6
CONTINUOUS
 10
155.412804528
 20
30.9487004259
 11
155.3549915869
 21
30.8841730531
  0
LINE
  8
0
 62
7
  6
CONTINUOUS
 10
155.3549915869
 20
30.6905909007
 11
155.412804528
 21
30.7551182848
  0
LINE
  8
0
 62
7
  6
CONTINUOUS
 10
154.1987416972
 20
30.6583272086
 11
154.3143669177
 21
30.6260635193
  0
LINE
  8
0
 62
7
  6
CONTINUOUS
 10
151.1924917523
 20
31.5294468267
 11
150.9612418074
 21
31.5939741996
  0
LINE
  8
0
 62
7
  6
CONTINUOUS
 10
154.5456166972
 20
30.7228545871
 11
154.3143669177
 21
30.7873819712
  0
LINE
  8
0
 62
7
  6
CONTINUOUS
 10
153.2737419177
 20
31.5294468267
 11
153.1003044177
 21
31.5939741996
  0
LINE
  8
0
 62
7
  6
CONTINUOUS
 10
155.5284290869
 20
31.5294468267
 11
155.3549915869
 21
31.5939741996
  0
LINE
  8
0
 62
7
  6
CONTINUOUS
 10
158.187804528
 20
31.4326557675
 11
158.3034290869
 21
31.3681283946
  0
LINE
  8
0
 62
7
  6
CONTINUOUS
 10
158.534679528
 20
31.4649194539
 11
158.4190543074
 21
31.5294468267
  0
LINE
  8
0
 62
7
  6
CONTINUOUS
 10
150.0362418212
 20
30.6583272086
 11
150.2096793212
 21
30.6260635193
  0
LINE
  8
0
 62
7
  6
CONTINUOUS
 10
150.498741835
 20
30.7228545871
 11
150.1518667936
 21
30.7873819712
  0
LINE
  8
0
 62
7
  6
CONTINUOUS
 10
152.9268669177
 20
31.4649194539
 11
153.0424918074
 21
31.4326557675
  0
LINE
  8
0
 62
7
  6
CONTINUOUS
 10
155.239367028
 20
31.4649194539
 11
155.3549915869
 21
31.4326557675
  0
LINE
  8
0
 62
7
  6
CONTINUOUS
 10
159.575304528
 20
30.7551182848
 11
159.4596793074
 21
30.7873819712
  0
LINE
  8
0
 62
7
  6
CONTINUOUS
 10
158.0721793074
 20
31.4649194539
 11
158.187804528
 21
31.4326557675
  0
LINE
  8
0
 62
7
  6
CONTINUOUS
 10
159.228429528
 20
30.7228545871
 11
159.401867028
 21
30.6583272086
  0
LINE
  8
0
 62
7
  6
CONTINUOUS
 10
158.4190543074
 20
31.5294468267
 11
158.2456168074
 21
31.5939741996
  0
LINE
  8
0
 62
7
  6
CONTINUOUS
 10
159.6331168074
 20
31.2390736489
 11
159.4596793074
 21
31.3036010218
  0
LINE
  8
0
 62
7
  6
CONTINUOUS
 10
160.442492028
 20
30.9809641124
 11
160.615929528
 21
30.9164367395
  0
LINE
  8
0
 62
7
  6
CONTINUOUS
 10
160.8471793074
 20
31.4971831403
 11
160.6737418074
 21
31.5617105132
  0
LINE
  8
0
 62
7
  6
CONTINUOUS
 10
159.228429528
 20
31.2390736489
 11
159.4596793074
 21
31.1422825445
  0
LINE
  8
0
 62
7
  6
CONTINUOUS
 10
160.8471793074
 20
30.9809641124
 11
160.615929528
 21
31.0777551716
  0
LINE
  8
0
 62
7
  6
CONTINUOUS
 10
159.401867028
 20
31.3681283946
 11
159.4596793074
 21
31.4326557675
  0
LINE
  8
0
 62
7
  6
CONTINUOUS
 10
149.8628043005
 20
31.4971831403
 11
149.7471793074
 21
31.4326557675
  0
LINE
  8
0
 62
7
  6
CONTINUOUS
 10
149.9784292936
 20
31.3358647082
 11
150.1518667936
 21
31.4326557675
  0
LINE
  8
0
 62
7
  6
CONTINUOUS
 10
152.2909293626
 20
31.5294468267
 11
152.1753043074
 21
31.4649194539
  0
LINE
  8
0
 62
7
  6
CONTINUOUS
 10
152.1753043074
 20
31.3358647082
 11
152.2909293626
 21
31.400392081
  0
LINE
  8
0
 62
7
  6
CONTINUOUS
 10
151.1924917523
 20
30.6905909007
 11
151.3659292523
 21
30.7873819712
  0
LINE
  8
0
 62
7
  6
CONTINUOUS
 10
150.2096793212
 20
30.6260635193
 11
150.5565542799
 21
30.5937998301
  0
LINE
  8
0
 62
7
  6
CONTINUOUS
 10
154.3143669177
 20
30.6260635193
 11
154.5456166972
 21
30.5937998301
  0
LINE
  8
0
 62
7
  6
CONTINUOUS
 10
152.6956168074
 20
31.4971831403
 11
152.9268669177
 21
31.4649194539
  0
LINE
  8
0
 62
7
  6
CONTINUOUS
 10
155.0081169177
 20
31.4971831403
 11
155.239367028
 21
31.4649194539
  0
LINE
  8
0
 62
7
  6
CONTINUOUS
 10
159.4596793074
 20
31.1422825445
 11
160.442492028
 21
30.9809641124
  0
LINE
  8
0
 62
7
  6
CONTINUOUS
 10
160.615929528
 20
31.0777551716
 11
159.6331168074
 21
31.2390736489
  0
LINE
  8
0
 62
7
  6
CONTINUOUS
 10
153.1003044177
 20
31.5939741996
 11
152.9268669177
 21
31.626237886
  0
LINE
  8
0
 62
7
  6
CONTINUOUS
 10
159.401867028
 20
30.6583272086
 11
159.575304528
 21
30.6260635193
  0
LINE
  8
0
 62
7
  6
CONTINUOUS
 10
158.2456168074
 20
31.5939741996
 11
158.0721793074
 21
31.626237886
  0
LINE
  8
0
 62
7
  6
CONTINUOUS
 10
160.5003043074
 20
31.4649194539
 11
160.615929528
 21
31.4326557675
  0
LINE
  8
0
 62
7
  6
CONTINUOUS
 10
160.6737418074
 20
30.8519093441
 11
160.615929528
 21
30.7873819712
  0
LINE
  8
0
 62
7
  6
CONTINUOUS
 10
159.228429528
 20
31.5294468267
 11
159.1128043074
 21
31.4326557675
  0
LINE
  8
0
 62
7
  6
CONTINUOUS
 10
154.1409294177
 20
31.5617105132
 11
154.0253041972
 21
31.4971831403
  0
LINE
  8
0
 62
7
  6
CONTINUOUS
 10
154.1987416972
 20
31.1745462761
 11
154.0831168074
 21
31.1100188581
  0
LINE
  8
0
 62
7
  6
CONTINUOUS
 10
154.3143669177
 20
31.0132277988
 11
154.4299918074
 21
31.0777551716
  0
LINE
  8
0
 62
7
  6
CONTINUOUS
 10
151.8862417523
 20
30.5937998301
 11
152.1753043074
 21
30.5937998301
  0
LINE
  8
0
 62
7
  6
CONTINUOUS
 10
153.2159293074
 20
30.5937998301
 11
153.5049916972
 21
30.5937998301
  0
LINE
  8
0
 62
7
  6
CONTINUOUS
 10
154.5456166972
 20
30.5937998301
 11
154.8924916972
 21
30.5937998301
  0
LINE
  8
0
 62
7
  6
CONTINUOUS
 10
155.5284290869
 20
30.5937998301
 11
155.8174918074
 21
30.5937998301
  0
LINE
  8
0
 62
7
  6
CONTINUOUS
 10
156.279992028
 20
30.5937998301
 11
156.5690540869
 21
30.5937998301
  0
LINE
  8
0
 62
7
  6
CONTINUOUS
 10
157.0315543074
 20
30.5937998301
 11
157.320617028
 21
30.5937998301
  0
LINE
  8
0
 62
7
  6
CONTINUOUS
 10
158.361242028
 20
30.5937998301
 11
158.6503040869
 21
30.5937998301
  0
LINE
  8
0
 62
7
  6
CONTINUOUS
 10
159.922179528
 20
30.5937998301
 11
160.269054528
 21
30.5937998301
  0
LINE
  8
0
 62
7
  6
CONTINUOUS
 10
160.269054528
 20
30.7228545871
 11
159.922179528
 21
30.7228545871
  0
LINE
  8
0
 62
7
  6
CONTINUOUS
 10
154.8924916972
 20
30.7228545871
 11
154.5456166972
 21
30.7228545871
  0
LINE
  8
0
 62
7
  6
CONTINUOUS
 10
159.401867028
 20
30.8519093441
 11
159.1128043074
 21
30.8519093441
  0
LINE
  8
0
 62
7
  6
CONTINUOUS
 10
151.4237418626
 20
30.9164367395
 11
151.1346793074
 21
30.9164367395
  0
LINE
  8
0
 62
7
  6
CONTINUOUS
 10
150.498741835
 20
31.4971831403
 11
150.9034292799
 21
31.4649194539
  0
LINE
  8
0
 62
7
  6
CONTINUOUS
 10
150.9612418074
 20
31.5939741996
 11
150.5565542799
 21
31.626237886
  0
LINE
  8
0
 62
7
  6
CONTINUOUS
 10
159.575304528
 20
30.6260635193
 11
159.922179528
 21
30.5937998301
  0
LINE
  8
0
 62
7
  6
CONTINUOUS
 10
159.922179528
 20
30.7228545871
 11
159.575304528
 21
30.7551182848
  0
LINE
  8
0
 62
7
  6
CONTINUOUS
 10
155.3549915869
 20
31.5939741996
 11
155.0081169177
 21
31.626237886
  0
LINE
  8
0
 62
7
  6
CONTINUOUS
 10
160.1534293074
 20
31.4971831403
 11
160.5003043074
 21
31.4649194539
  0
LINE
  8
0
 62
7
  6
CONTINUOUS
 10
160.5003043074
 20
31.5939741996
 11
160.1534293074
 21
31.626237886
  0
LINE
  8
0
 62
7
  6
CONTINUOUS
 10
157.840929528
 20
31.4971831403
 11
158.0721793074
 21
31.4649194539
  0
LINE
  8
0
 62
7
  6
CONTINUOUS
 10
160.6737418074
 20
31.5617105132
 11
160.5003043074
 21
31.5939741996
  0
LINE
  8
0
 62
7
  6
CONTINUOUS
 10
160.8471793074
 20
30.6905909007
 11
160.9628038663
 21
30.7873819712
  0
LINE
  8
0
 62
7
  6
CONTINUOUS
 10
155.3549915869
 20
30.8841730531
 11
155.1815540869
 21
30.7873819712
  0
LINE
  8
0
 62
7
  6
CONTINUOUS
 10
157.4362415869
 20
31.5294468267
 11
157.320617028
 21
31.4649194539
  0
LINE
  8
0
 62
7
  6
CONTINUOUS
 10
157.320617028
 20
31.3358647082
 11
157.4362415869
 21
31.400392081
  0
LINE
  8
0
 62
7
  6
CONTINUOUS
 10
150.0362418212
 20
31.5617105132
 11
149.8628043005
 21
31.4971831403
  0
LINE
  8
0
 62
7
  6
CONTINUOUS
 10
152.4643666972
 20
31.5939741996
 11
152.2909293626
 21
31.5294468267
  0
LINE
  8
0
 62
7
  6
CONTINUOUS
 10
152.2909293626
 20
31.400392081
 11
152.4643666972
 21
31.4649194539
  0
LINE
  8
0
 62
7
  6
CONTINUOUS
 10
151.0768668626
 20
30.8196456577
 11
150.9034292799
 21
30.7551182848
  0
LINE
  8
0
 62
7
  6
CONTINUOUS
 10
160.5003043074
 20
30.7551182848
 11
160.269054528
 21
30.7228545871
  0
LINE
  8
0
 62
7
  6
CONTINUOUS
 10
154.8924916972
 20
30.5937998301
 11
155.1815540869
 21
30.6260635193
  0
LINE
  8
0
 62
7
  6
CONTINUOUS
 10
160.269054528
 20
30.5937998301
 11
160.615929528
 21
30.6260635193
  0
LINE
  8
0
 62
7
  6
CONTINUOUS
 10
150.5565542799
 20
30.5937998301
 11
150.9612418074
 21
30.6260635193
  0
LINE
  8
0
 62
7
  6
CONTINUOUS
 10
150.9034292799
 20
30.7551182848
 11
150.498741835
 21
30.7228545871
  0
LINE
  8
0
 62
7
  6
CONTINUOUS
 10
154.7768668074
 20
31.1422825445
 11
155.412804528
 21
31.1422825445
  0
LINE
  8
0
 62
7
  6
CONTINUOUS
 10
155.412804528
 20
31.2713373354
 11
154.7768668074
 21
31.2713373354
  0
LINE
  8
0
 62
7
  6
CONTINUOUS
 10
151.1346793074
 20
31.3036010218
 11
151.4237418626
 21
31.3036010218
  0
LINE
  8
0
 62
7
  6
CONTINUOUS
 10
153.9674919177
 20
31.3681283946
 11
154.2565543074
 21
31.3681283946
  0
LINE
  8
0
 62
7
  6
CONTINUOUS
 10
160.6737418074
 20
31.3681283946
 11
160.9628038663
 21
31.3681283946
  0
LINE
  8
0
 62
7
  6
CONTINUOUS
 10
154.6612419177
 20
31.4971831403
 11
155.0081169177
 21
31.4971831403
  0
LINE
  8
0
 62
7
  6
CONTINUOUS
 10
159.8065543074
 20
31.4971831403
 11
160.1534293074
 21
31.4971831403
  0
LINE
  8
0
 62
7
  6
CONTINUOUS
 10
160.1534293074
 20
31.626237886
 11
159.8065543074
 21
31.626237886
  0
LINE
  8
0
 62
7
  6
CONTINUOUS
 10
158.0721793074
 20
31.626237886
 11
157.840929528
 21
31.626237886
  0
LINE
  8
0
 62
7
  6
CONTINUOUS
 10
157.320617028
 20
31.626237886
 11
157.0315543074
 21
31.626237886
  0
LINE
  8
0
 62
7
  6
CONTINUOUS
 10
156.5690540869
 20
31.626237886
 11
156.279992028
 21
31.626237886
  0
LINE
  8
0
 62
7
  6
CONTINUOUS
 10
155.0081169177
 20
31.626237886
 11
154.6612419177
 21
31.626237886
  0
LINE
  8
0
 62
7
  6
CONTINUOUS
 10
152.9268669177
 20
31.626237886
 11
152.6956168074
 21
31.626237886
  0
LINE
  8
0
 62
7
  6
CONTINUOUS
 10
156.279992028
 20
31.9488748406
 11
156.5690540869
 21
31.9488748406
  0
LINE
  8
0
 62
7
  6
CONTINUOUS
 10
156.5690540869
 20
32.1101932727
 11
156.279992028
 21
32.1101932727
  0
LINE
  8
0
 62
7
  6
CONTINUOUS
 10
152.1753043074
 20
32.1101932727
 11
151.8862417523
 21
32.1101932727
  0
LINE
  8
0
 62
7
  6
CONTINUOUS
 10
151.2130860697
 20
32.3970785186
 11
151.6256574183
 21
32.3970785186
  0
LINE
  8
0
 62
7
  6
CONTINUOUS
 10
152.852430332
 20
32.3970785186
 11
154.245872955
 21
32.3970785186
  0
LINE
  8
0
 62
7
  6
CONTINUOUS
 10
154.5737418074
 20
32.3970785186
 11
155.9671844304
 21
32.3970785186
  0
LINE
  8
0
 62
7
  6
CONTINUOUS
 10
157.852430332
 20
32.3970785186
 11
159.245872955
 21
32.3970785186
  0
LINE
  8
0
 62
7
  6
CONTINUOUS
 10
159.5737418074
 20
32.3970785186
 11
160.9671844304
 21
32.3970785186
  0
LINE
  8
0
 62
7
  6
CONTINUOUS
 10
157.6096790869
 20
31.5939741996
 11
157.4362415869
 21
31.5294468267
  0
LINE
  8
0
 62
7
  6
CONTINUOUS
 10
155.1815540869
 20
30.6260635193
 11
155.3549915869
 21
30.6905909007
  0
LINE
  8
0
 62
7
  6
CONTINUOUS
 10
160.615929528
 20
30.6260635193
 11
160.8471793074
 21
30.6905909007
  0
LINE
  8
0
 62
7
  6
CONTINUOUS
 10
160.615929528
 20
30.7873819712
 11
160.5003043074
 21
30.7551182848
  0
LINE
  8
0
 62
7
  6
CONTINUOUS
 10
159.575304528
 20
31.4649194539
 11
159.8065543074
 21
31.4971831403
  0
LINE
  8
0
 62
7
  6
CONTINUOUS
 10
157.6096790869
 20
31.4649194539
 11
157.840929528
 21
31.4971831403
  0
LINE
  8
0
 62
7
  6
CONTINUOUS
 10
154.5456166972
 20
31.1100188581
 11
154.7768668074
 21
31.1422825445
  0
LINE
  8
0
 62
7
  6
CONTINUOUS
 10
157.840929528
 20
31.626237886
 11
157.6096790869
 21
31.5939741996
  0
LINE
  8
0
 62
7
  6
CONTINUOUS
 10
154.4299918074
 20
31.4649194539
 11
154.6612419177
 21
31.4971831403
  0
LINE
  8
0
 62
7
  6
CONTINUOUS
 10
159.8065543074
 20
31.626237886
 11
159.4596793074
 21
31.5939741996
  0
LINE
  8
0
 62
7
  6
CONTINUOUS
 10
154.7768668074
 20
31.2713373354
 11
154.4299918074
 21
31.2390736489
  0
LINE
  8
0
 62
7
  6
CONTINUOUS
 10
150.5565542799
 20
31.626237886
 11
150.2096793212
 21
31.5939741996
  0
LINE
  8
0
 62
7
  6
CONTINUOUS
 10
154.6612419177
 20
31.626237886
 11
154.2565543074
 21
31.5939741996
  0
LINE
  8
0
 62
7
  6
CONTINUOUS
 10
152.0327582009
 20
33.5446195022
 11
151.3770204959
 21
33.5446195022
  0
LINE
  8
0
 62
7
  6
CONTINUOUS
 10
157.4362415869
 20
31.400392081
 11
157.6096790869
 21
31.4649194539
  0
LINE
  8
0
 62
7
  6
CONTINUOUS
 10
159.4596793074
 20
31.4326557675
 11
159.575304528
 21
31.4649194539
  0
LINE
  8
0
 62
7
  6
CONTINUOUS
 10
159.4596793074
 20
31.5939741996
 11
159.228429528
 21
31.5294468267
  0
LINE
  8
0
 62
7
  6
CONTINUOUS
 10
155.1815540869
 20
30.7873819712
 11
154.8924916972
 21
30.7228545871
  0
LINE
  8
0
 62
7
  6
CONTINUOUS
 10
152.4643666972
 20
31.4649194539
 11
152.6956168074
 21
31.4971831403
  0
LINE
  8
0
 62
7
  6
CONTINUOUS
 10
152.6956168074
 20
31.626237886
 11
152.4643666972
 21
31.5939741996
  0
LINE
  8
0
 62
7
  6
CONTINUOUS
 10
150.2674918074
 20
31.4649194539
 11
150.498741835
 21
31.4971831403
  0
LINE
  8
0
 62
7
  6
CONTINUOUS
 10
156.7868565615
 20
35.0200293383
 11
157.4425942664
 21
35.0200293383
  0
LINE
  8
0
 62
7
  6
CONTINUOUS
 10
154.4299918074
 20
31.0777551716
 11
154.5456166972
 21
31.1100188581
  0
LINE
  8
0
 62
7
  6
CONTINUOUS
 10
154.4299918074
 20
31.2390736489
 11
154.1987416972
 21
31.1745462761
  0
LINE
  8
0
 62
7
  6
CONTINUOUS
 10
154.3143669177
 20
31.4326557675
 11
154.4299918074
 21
31.4649194539
  0
LINE
  8
0
 62
7
  6
CONTINUOUS
 10
150.9612418074
 20
30.6260635193
 11
151.1924917523
 21
30.6905909007
  0
LINE
  8
0
 62
7
  6
CONTINUOUS
 10
154.2565543074
 20
31.5939741996
 11
154.1409294177
 21
31.5617105132
  0
LINE
  8
0
 62
7
  6
CONTINUOUS
 10
150.2096793212
 20
31.5939741996
 11
150.0362418212
 21
31.5617105132
  0
LINE
  8
0
 62
7
  6
CONTINUOUS
 10
160.9671844304
 20
36.1675703219
 11
159.5737418074
 21
36.1675703219
  0
LINE
  8
0
 62
7
  6
CONTINUOUS
 10
157.6065286927
 20
36.1675703219
 11
157.1939573441
 21
36.1675703219
  0
LINE
  8
0
 62
7
  6
CONTINUOUS
 10
155.9671844304
 20
36.1675703219
 11
154.5737418074
 21
36.1675703219
  0
LINE
  8
0
 62
7
  6
CONTINUOUS
 10
154.245872955
 20
36.1675703219
 11
152.852430332
 21
36.1675703219
  0
LINE
  8
0
 62
7
  6
CONTINUOUS
 10
150.9671844304
 20
36.1675703219
 11
149.5737418074
 21
36.1675703219
  0
LINE
  8
0
 62
7
  6
CONTINUOUS
 10
150.1518667936
 20
31.4326557675
 11
150.2674918074
 21
31.4649194539
  0
CIRCLE
  8
0
 62
7
  6
CONTINUOUS
 10
160.2704631189
 20
38.5036358957
 40
2.0901639344
  0
ARC
  8
0
 62
7
  6
CONTINUOUS
 10
151.2130860697
 20
34.0364227809
 40
1.6393442623
 50
180.0
 51
270.0
  0
ARC
  8
0
 62
7
  6
CONTINUOUS
 10
157.6065286927
 20
34.5282260596
 40
1.6393442623
 50
0.0
 51
90.0
  0
ARC
  8
0
 62
7
  6
CONTINUOUS
 10
151.6256574183
 20
33.8724883547
 40
1.4754098361
 50
270.0
 51
326.2510114041
  0
ARC
  8
0
 62
7
  6
CONTINUOUS
 10
157.1939573441
 20
34.6921604858
 40
1.4754098361
 50
90.0
 51
146.2510114041
  0
ARC
  8
0
 62
7
  6
CONTINUOUS
 10
152.0327582009
 20
34.3642916334
 40
0.8196721311
 50
270.0
 51
360.0
  0
ARC
  8
0
 62
7
  6
CONTINUOUS
 10
156.7868565615
 20
34.2003572071
 40
0.8196721311
 50
90.0
 51
180.0
  0
ARC
  8
0
 62
7
  6
CONTINUOUS
 10
151.3770204959
 20
33.9544555678
 40
0.4098360656
 50
180.0
 51
270.0
  0
ARC
  8
0
 62
7
  6
CONTINUOUS
 10
157.4425942664
 20
34.6101932727
 40
0.4098360656
 50
0.0
 51
90.0
  0
SOLID
  8
0
 62
7
  6
CONTINUOUS
 10
156.279992028
 20
31.9488752009
 11
156.279992028
 21
32.1101936845
 12
156.5690540869
 22
31.9488752009
 13
156.5690540869
 23
32.1101936845
  0
SOLID
  8
0
 62
7
  6
CONTINUOUS
 10
150.5565542799
 20
31.6262382337
 11
150.9612418074
 21
31.5939740028
 12
150.2096793212
 22
31.5939740028
 13
150.2096793212
 23
31.5939740028
  0
SOLID
  8
0
 62
7
  6
CONTINUOUS
 10
150.0362418212
 20
31.5617111435
 11
150.2096793212
 21
31.5939740028
 12
150.9612418074
 22
31.5939740028
 13
150.9612418074
 23
31.5939740028
  0
SOLID
  8
0
 62
7
  6
CONTINUOUS
 10
150.9612418074
 20
31.5939740028
 11
151.1924917523
 21
31.5294468402
 12
150.0362418212
 22
31.5617111435
 13
150.0362418212
 23
31.5617111435
  0
SOLID
  8
0
 62
7
  6
CONTINUOUS
 10
149.8628043005
 20
31.49718259
 11
150.0362418212
 21
31.5617111435
 12
151.1924917523
 22
31.5294468402
 13
151.1924917523
 23
31.5294468402
  0
SOLID
  8
0
 62
7
  6
CONTINUOUS
 10
149.8628043005
 20
31.49718259
 11
151.1924917523
 21
31.5294468402
 12
150.498741835
 22
31.49718259
 13
150.498741835
 23
31.49718259
  0
SOLID
  8
0
 62
7
  6
CONTINUOUS
 10
150.498741835
 20
31.49718259
 11
151.1924917523
 21
31.5294468402
 12
150.9034292799
 22
31.4649197501
 13
150.9034292799
 23
31.4649197501
  0
SOLID
  8
0
 62
7
  6
CONTINUOUS
 10
151.1924917523
 20
31.5294468402
 11
151.3659292523
 21
31.4326554468
 12
150.9034292799
 22
31.4649197501
 13
150.9034292799
 23
31.4649197501
  0
SOLID
  8
0
 62
7
  6
CONTINUOUS
 10
151.0768668626
 20
31.4003926599
 11
150.9034292799
 21
31.4649197501
 12
151.3659292523
 22
31.4326554468
 13
151.3659292523
 23
31.4326554468
  0
SOLID
  8
0
 62
7
  6
CONTINUOUS
 10
151.0768668626
 20
31.4003926599
 11
151.3659292523
 21
31.4326554468
 12
151.1346793074
 22
31.3036013776
 13
151.1346793074
 23
31.3036013776
  0
SOLID
  8
0
 62
7
  6
CONTINUOUS
 10
151.3659292523
 20
31.4326554468
 11
151.4237418626
 21
31.3036013776
 12
151.1346793074
 22
31.3036013776
 13
151.1346793074
 23
31.3036013776
  0
SOLID
  8
0
 62
7
  6
CONTINUOUS
 10
152.4643666972
 20
31.5939739754
 11
152.6956168074
 21
31.6262382787
 12
152.9268669177
 22
31.6262382787
 13
152.9268669177
 23
31.6262382787
  0
SOLID
  8
0
 62
7
  6
CONTINUOUS
 10
152.9268669177
 20
31.6262382787
 11
153.1003044177
 21
31.5939739754
 12
152.4643666972
 22
31.5939739754
 13
152.4643666972
 23
31.5939739754
  0
SOLID
  8
0
 62
7
  6
CONTINUOUS
 10
152.2909293626
 20
31.5294468852
 11
152.4643666972
 21
31.5939739754
 12
153.1003044177
 22
31.5939739754
 13
153.1003044177
 23
31.5939739754
  0
SOLID
  8
0
 62
7
  6
CONTINUOUS
 10
153.1003044177
 20
31.5939739754
 11
153.2737419177
 21
31.5294468852
 12
152.2909293626
 22
31.5294468852
 13
152.2909293626
 23
31.5294468852
  0
SOLID
  8
0
 62
7
  6
CONTINUOUS
 10
153.2737419177
 20
31.5294468852
 11
152.6956168074
 21
31.4971825369
 12
152.2909293626
 22
31.5294468852
 13
152.2909293626
 23
31.5294468852
  0
SOLID
  8
0
 62
7
  6
CONTINUOUS
 10
152.1753043074
 20
31.4649197951
 11
152.2909293626
 21
31.5294468852
 12
152.6956168074
 22
31.4971825369
 13
152.6956168074
 23
31.4971825369
  0
SOLID
  8
0
 62
7
  6
CONTINUOUS
 10
152.6956168074
 20
31.4971825369
 11
152.4643666972
 21
31.4649197951
 12
152.1753043074
 22
31.4649197951
 13
152.1753043074
 23
31.4649197951
  0
SOLID
  8
0
 62
7
  6
CONTINUOUS
 10
152.6956168074
 20
31.4971825369
 11
153.2737419177
 21
31.5294468852
 12
152.9268669177
 22
31.4649197951
 13
152.9268669177
 23
31.4649197951
  0
SOLID
  8
0
 62
7
  6
CONTINUOUS
 10
153.2737419177
 20
31.5294468852
 11
153.3893668074
 21
31.4649197951
 12
152.9268669177
 22
31.4649197951
 13
152.9268669177
 23
31.4649197951
  0
SOLID
  8
0
 62
7
  6
CONTINUOUS
 10
153.0424918074
 20
31.4326554468
 11
152.9268669177
 21
31.4649197951
 12
153.3893668074
 22
31.4649197951
 13
153.3893668074
 23
31.4649197951
  0
SOLID
  8
0
 62
7
  6
CONTINUOUS
 10
153.3893668074
 20
31.4649197951
 11
153.4471794177
 21
31.4003927049
 12
153.0424918074
 22
31.4326554468
 13
153.0424918074
 23
31.4326554468
  0
SOLID
  8
0
 62
7
  6
CONTINUOUS
 10
153.1581166972
 20
31.3681283566
 11
153.0424918074
 21
31.4326554468
 12
153.4471794177
 22
31.4003927049
 13
153.4471794177
 23
31.4003927049
  0
SOLID
  8
0
 62
7
  6
CONTINUOUS
 10
153.1581166972
 20
31.3681283566
 11
153.4471794177
 21
31.4003927049
 12
153.2159293074
 22
31.2390742213
 13
153.2159293074
 23
31.2390742213
  0
SOLID
  8
0
 62
7
  6
CONTINUOUS
 10
153.4471794177
 20
31.4003927049
 11
153.5049916972
 21
31.2390742213
 12
153.2159293074
 22
31.2390742213
 13
153.2159293074
 23
31.2390742213
  0
SOLID
  8
0
 62
7
  6
CONTINUOUS
 10
152.4643666972
 20
31.4649197951
 11
152.2909293626
 21
31.4003927049
 12
152.1753043074
 22
31.4649197951
 13
152.1753043074
 23
31.4649197951
  0
SOLID
  8
0
 62
7
  6
CONTINUOUS
 10
152.2909293626
 20
31.4003927049
 11
152.1753043074
 21
31.3358640533
 12
152.1753043074
 22
31.4649197951
 13
152.1753043074
 23
31.4649197951
  0
SOLID
  8
0
 62
7
  6
CONTINUOUS
 10
152.1753043074
 20
31.3358640533
 11
151.8862417523
 21
30.5938002869
 12
152.1753043074
 22
31.4649197951
 13
152.1753043074
 23
31.4649197951
  0
SOLID
  8
0
 62
7
  6
CONTINUOUS
 10
152.1753043074
 20
31.4649197951
 11
151.8862417523
 21
30.5938002869
 12
152.1753043074
 22
32.1101937295
 13
152.1753043074
 23
32.1101937295
  0
SOLID
  8
0
 62
7
  6
CONTINUOUS
 10
151.8862417523
 20
30.5938002869
 11
151.8862417523
 21
32.1101937295
 12
152.1753043074
 22
32.1101937295
 13
152.1753043074
 23
32.1101937295
  0
SOLID
  8
0
 62
7
  6
CONTINUOUS
 10
152.1753043074
 20
31.3358640533
 11
152.1753043074
 21
30.5938002869
 12
151.8862417523
 22
30.5938002869
 13
151.8862417523
 23
30.5938002869
  0
SOLID
  8
0
 62
7
  6
CONTINUOUS
 10
153.2159293074
 20
30.5938002869
 11
153.2159293074
 21
31.2390742213
 12
153.5049916972
 22
31.2390742213
 13
153.5049916972
 23
31.2390742213
  0
SOLID
  8
0
 62
7
  6
CONTINUOUS
 10
153.5049916972
 20
31.2390742213
 11
153.5049916972
 21
30.5938002869
 12
153.2159293074
 22
30.5938002869
 13
153.2159293074
 23
30.5938002869
  0
SOLID
  8
0
 62
7
  6
CONTINUOUS
 10
154.2565543074
 20
31.5939738288
 11
154.6612419177
 21
31.6262385959
 12
155.0081169177
 22
31.6262385959
 13
155.0081169177
 23
31.6262385959
  0
SOLID
  8
0
 62
7
  6
CONTINUOUS
 10
155.0081169177
 20
31.6262385959
 11
155.3549915869
 21
31.5939738288
 12
154.2565543074
 22
31.5939738288
 13
154.2565543074
 23
31.5939738288
  0
SOLID
  8
0
 62
7
  6
CONTINUOUS
 10
154.1409294177
 20
31.5617111435
 11
154.2565543074
 21
31.5939738288
 12
155.3549915869
 22
31.5939738288
 13
155.3549915869
 23
31.5939738288
  0
SOLID
  8
0
 62
7
  6
CONTINUOUS
 10
155.3549915869
 20
31.5939738288
 11
155.5284290869
 21
31.5294468402
 12
154.1409294177
 22
31.5617111435
 13
154.1409294177
 23
31.5617111435
  0
SOLID
  8
0
 62
7
  6
CONTINUOUS
 10
154.0253041972
 20
31.4971826249
 11
154.1409294177
 21
31.5617111435
 12
155.5284290869
 22
31.5294468402
 13
155.5284290869
 23
31.5294468402
  0
SOLID
  8
0
 62
7
  6
CONTINUOUS
 10
154.0253041972
 20
31.4971826249
 11
155.5284290869
 21
31.5294468402
 12
154.6612419177
 22
31.4971826249
 13
154.6612419177
 23
31.4971826249
  0
SOLID
  8
0
 62
7
  6
CONTINUOUS
 10
154.6612419177
 20
31.4971826249
 11
155.5284290869
 21
31.5294468402
 12
155.0081169177
 22
31.4971826249
 13
155.0081169177
 23
31.4971826249
  0
SOLID
  8
0
 62
7
  6
CONTINUOUS
 10
155.0081169177
 20
31.4971826249
 11
155.5284290869
 21
31.5294468402
 12
155.239367028
 22
31.4649194065
 13
155.239367028
 23
31.4649194065
  0
SOLID
  8
0
 62
7
  6
CONTINUOUS
 10
155.5284290869
 20
31.5294468402
 11
155.6440543074
 21
31.4649194065
 12
155.239367028
 22
31.4649194065
 13
155.239367028
 23
31.4649194065
  0
SOLID
  8
0
 62
7
  6
CONTINUOUS
 10
153.9674919177
 20
31.4326554138
 11
154.0253041972
 21
31.4971826249
 12
154.6612419177
 22
31.4971826249
 13
154.6612419177
 23
31.4971826249
  0
SOLID
  8
0
 62
7
  6
CONTINUOUS
 10
155.3549915869
 20
31.4326554138
 11
155.239367028
 21
31.4649194065
 12
155.6440543074
 22
31.4649194065
 13
155.6440543074
 23
31.4649194065
  0
SOLID
  8
0
 62
7
  6
CONTINUOUS
 10
155.3549915869
 20
31.4326554138
 11
155.6440543074
 21
31.4649194065
 12
155.412804528
 22
31.3681282026
 13
155.412804528
 23
31.3681282026
  0
SOLID
  8
0
 62
7
  6
CONTINUOUS
 10
155.6440543074
 20
31.4649194065
 11
155.7018665869
 21
31.3681282026
 12
155.412804528
 22
31.3681282026
 13
155.412804528
 23
31.3681282026
  0
SOLID
  8
0
 62
7
  6
CONTINUOUS
 10
155.412804528
 20
31.2713369632
 11
155.412804528
 21
31.3681282026
 12
155.7018665869
 22
31.3681282026
 13
155.7018665869
 23
31.3681282026
  0
SOLID
  8
0
 62
7
  6
CONTINUOUS
 10
155.412804528
 20
31.2713369632
 11
155.7018665869
 21
31.3681282026
 12
155.412804528
 22
31.1422827828
 13
155.412804528
 23
31.1422827828
  0
SOLID
  8
0
 62
7
  6
CONTINUOUS
 10
155.412804528
 20
31.1422827828
 11
155.7018665869
 21
31.3681282026
 12
155.412804528
 22
30.9487004259
 13
155.412804528
 23
30.9487004259
  0
SOLID
  8
0
 62
7
  6
CONTINUOUS
 10
155.7018665869
 20
31.3681282026
 11
155.7018665869
 21
30.8519086025
 12
155.412804528
 22
30.9487004259
 13
155.412804528
 23
30.9487004259
  0
SOLID
  8
0
 62
7
  6
CONTINUOUS
 10
157.6096790869
 20
31.5939736268
 11
157.840929528
 21
31.6262383465
 12
158.0721793074
 22
31.6262383465
 13
158.0721793074
 23
31.6262383465
  0
SOLID
  8
0
 62
7
  6
CONTINUOUS
 10
158.0721793074
 20
31.6262383465
 11
158.2456168074
 21
31.5939736268
 12
157.6096790869
 22
31.5939736268
 13
157.6096790869
 23
31.5939736268
  0
SOLID
  8
0
 62
7
  6
CONTINUOUS
 10
157.4362415869
 20
31.5294472848
 11
157.6096790869
 21
31.5939736268
 12
158.2456168074
 22
31.5939736268
 13
158.2456168074
 23
31.5939736268
  0
SOLID
  8
0
 62
7
  6
CONTINUOUS
 10
158.2456168074
 20
31.5939736268
 11
158.4190543074
 21
31.5294472848
 12
157.4362415869
 22
31.5294472848
 13
157.4362415869
 23
31.5294472848
  0
SOLID
  8
0
 62
7
  6
CONTINUOUS
 10
158.4190543074
 20
31.5294472848
 11
157.840929528
 21
31.4971825369
 12
157.4362415869
 22
31.5294472848
 13
157.4362415869
 23
31.5294472848
  0
SOLID
  8
0
 62
7
  6
CONTINUOUS
 10
157.320617028
 20
31.4649199103
 11
157.4362415869
 21
31.5294472848
 12
157.840929528
 22
31.4971825369
 13
157.840929528
 23
31.4971825369
  0
SOLID
  8
0
 62
7
  6
CONTINUOUS
 10
157.840929528
 20
31.4971825369
 11
157.6096790869
 21
31.4649199103
 12
157.320617028
 22
31.4649199103
 13
157.320617028
 23
31.4649199103
  0
SOLID
  8
0
 62
7
  6
CONTINUOUS
 10
157.840929528
 20
31.4971825369
 11
158.4190543074
 21
31.5294472848
 12
158.0721793074
 22
31.4649199103
 13
158.0721793074
 23
31.4649199103
  0
SOLID
  8
0
 62
7
  6
CONTINUOUS
 10
158.4190543074
 20
31.5294472848
 11
158.534679528
 21
31.4649199103
 12
158.0721793074
 22
31.4649199103
 13
158.0721793074
 23
31.4649199103
  0
SOLID
  8
0
 62
7
  6
CONTINUOUS
 10
158.187804528
 20
31.4326554468
 11
158.0721793074
 21
31.4649199103
 12
158.534679528
 22
31.4649199103
 13
158.534679528
 23
31.4649199103
  0
SOLID
  8
0
 62
7
  6
CONTINUOUS
 10
158.187804528
 20
31.4326554468
 11
158.534679528
 21
31.4649199103
 12
158.3034290869
 22
31.3681288486
 13
158.3034290869
 23
31.3681288486
  0
SOLID
  8
0
 62
7
  6
CONTINUOUS
 10
158.534679528
 20
31.4649199103
 11
158.5924918074
 21
31.3681288486
 12
158.3034290869
 22
31.3681288486
 13
158.3034290869
 23
31.3681288486
  0
SOLID
  8
0
 62
7
  6
CONTINUOUS
 10
158.361242028
 20
31.2068093799
 11
158.3034290869
 21
31.3681288486
 12
158.5924918074
 22
31.3681288486
 13
158.5924918074
 23
31.3681288486
  0
SOLID
  8
0
 62
7
  6
CONTINUOUS
 10
158.5924918074
 20
31.3681288486
 11
158.6503040869
 21
31.2068093799
 12
158.361242028
 22
31.2068093799
 13
158.361242028
 23
31.2068093799
  0
SOLID
  8
0
 62
7
  6
CONTINUOUS
 10
157.6096790869
 20
31.4649199103
 11
157.4362415869
 21
31.4003926599
 12
157.320617028
 22
31.4649199103
 13
157.320617028
 23
31.4649199103
  0
SOLID
  8
0
 62
7
  6
CONTINUOUS
 10
157.4362415869
 20
31.4003926599
 11
157.320617028
 21
31.3358640533
 12
157.320617028
 22
31.4649199103
 13
157.320617028
 23
31.4649199103
  0
SOLID
  8
0
 62
7
  6
CONTINUOUS
 10
157.320617028
 20
31.3358640533
 11
157.0315543074
 21
30.5938003547
 12
157.320617028
 22
31.4649199103
 13
157.320617028
 23
31.4649199103
  0
SOLID
  8
0
 62
7
  6
CONTINUOUS
 10
157.320617028
 20
31.4649199103
 11
157.0315543074
 21
30.5938003547
 12
157.320617028
 22
31.6262383465
 13
157.320617028
 23
31.6262383465
  0
SOLID
  8
0
 62
7
  6
CONTINUOUS
 10
157.0315543074
 20
30.5938003547
 11
157.0315543074
 21
31.6262383465
 12
157.320617028
 22
31.6262383465
 13
157.320617028
 23
31.6262383465
  0
SOLID
  8
0
 62
7
  6
CONTINUOUS
 10
157.320617028
 20
31.3358640533
 11
157.320617028
 21
30.5938003547
 12
157.0315543074
 22
30.5938003547
 13
157.0315543074
 23
30.5938003547
  0
SOLID
  8
0
 62
7
  6
CONTINUOUS
 10
158.361242028
 20
30.5938003547
 11
158.361242028
 21
31.2068093799
 12
158.6503040869
 22
31.2068093799
 13
158.6503040869
 23
31.2068093799
  0
SOLID
  8
0
 62
7
  6
CONTINUOUS
 10
158.6503040869
 20
31.2068093799
 11
158.6503040869
 21
30.5938003547
 12
158.361242028
 22
30.5938003547
 13
158.361242028
 23
30.5938003547
  0
SOLID
  8
0
 62
7
  6
CONTINUOUS
 10
159.4596793074
 20
31.5939739474
 11
159.8065543074
 21
31.6262381969
 12
160.1534293074
 22
31.6262381969
 13
160.1534293074
 23
31.6262381969
  0
SOLID
  8
0
 62
7
  6
CONTINUOUS
 10
160.1534293074
 20
31.6262381969
 11
160.5003043074
 21
31.5939739474
 12
159.4596793074
 22
31.5939739474
 13
159.4596793074
 23
31.5939739474
  0
SOLID
  8
0
 62
7
  6
CONTINUOUS
 10
159.228429528
 20
31.5294468402
 11
159.4596793074
 21
31.5939739474
 12
160.5003043074
 22
31.5939739474
 13
160.5003043074
 23
31.5939739474
  0
SOLID
  8
0
 62
7
  6
CONTINUOUS
 10
159.228429528
 20
31.5294468402
 11
160.5003043074
 21
31.5939739304
 12
160.6737418074
 22
31.5617111435
 13
160.6737418074
 23
31.5617111435
  0
SOLID
  8
0
 62
7
  6
CONTINUOUS
 10
159.228429528
 20
31.5294468402
 11
160.6737418074
 21
31.5617111435
 12
159.8065543074
 22
31.4971825592
 13
159.8065543074
 23
31.4971825592
  0
SOLID
  8
0
 62
7
  6
CONTINUOUS
 10
159.8065543074
 20
31.4971825592
 11
160.6737418074
 21
31.5617111435
 12
160.1534293074
 22
31.4971825592
 13
160.1534293074
 23
31.4971825592
  0
SOLID
  8
0
 62
7
  6
CONTINUOUS
 10
160.6737418074
 20
31.5617111435
 11
160.8471793074
 21
31.4971825592
 12
160.1534293074
 22
31.4971825592
 13
160.1534293074
 23
31.4971825592
  0
SOLID
  8
0
 62
7
  6
CONTINUOUS
 10
160.5003043074
 20
31.4649197501
 11
160.1534293074
 21
31.4971825592
 12
160.8471793074
 22
31.4971825592
 13
160.8471793074
 23
31.4971825592
  0
SOLID
  8
0
 62
7
  6
CONTINUOUS
 10
159.1128043074
 20
31.4326555427
 11
159.228429528
 21
31.5294468402
 12
159.8065543074
 22
31.4971825592
 13
159.8065543074
 23
31.4971825592
  0
SOLID
  8
0
 62
7
  6
CONTINUOUS
 10
160.5003043074
 20
31.4649197501
 11
160.8471793074
 21
31.4971825592
 12
160.615929528
 22
31.4326555427
 13
160.615929528
 23
31.4326555427
  0
SOLID
  8
0
 62
7
  6
CONTINUOUS
 10
160.615929528
 20
31.4326555427
 11
160.8471793074
 21
31.4971825592
 12
160.6737418074
 22
31.3681283005
 13
160.6737418074
 23
31.3681283005
  0
SOLID
  8
0
 62
7
  6
CONTINUOUS
 10
160.8471793074
 20
31.4971825592
 11
160.9628038663
 21
31.3681283005
 12
160.6737418074
 22
31.3681283005
 13
160.6737418074
 23
31.3681283005
  0
SOLID
  8
0
 62
7
  6
CONTINUOUS
 10
150.2674918074
 20
31.4649197501
 11
149.7471793074
 21
31.4326554237
 12
150.498741835
 22
31.4971824493
 13
150.498741835
 23
31.4971824493
  0
SOLID
  8
0
 62
7
  6
CONTINUOUS
 10
149.7471793074
 20
31.4326554237
 11
149.8628043005
 21
31.4971824493
 12
150.498741835
 22
31.4971824493
 13
150.498741835
 23
31.4971824493
  0
SOLID
  8
0
 62
7
  6
CONTINUOUS
 10
150.2674918074
 20
31.4649197501
 11
150.1518667936
 21
31.4326554237
 12
149.7471793074
 22
31.4326554237
 13
149.7471793074
 23
31.4326554237
  0
SOLID
  8
0
 62
7
  6
CONTINUOUS
 10
149.6315543091
 20
31.3036012664
 11
149.7471793074
 21
31.4326554237
 12
150.1518667936
 22
31.4326554237
 13
150.1518667936
 23
31.4326554237
  0
SOLID
  8
0
 62
7
  6
CONTINUOUS
 10
153.9674919177
 20
31.4326554237
 11
154.6612419177
 21
31.4971825369
 12
154.4299918074
 22
31.4649197501
 13
154.4299918074
 23
31.4649197501
  0
SOLID
  8
0
 62
7
  6
CONTINUOUS
 10
154.4299918074
 20
31.4649197501
 11
154.3143669177
 21
31.4326554237
 12
153.9674919177
 22
31.4326554237
 13
153.9674919177
 23
31.4326554237
  0
SOLID
  8
0
 62
7
  6
CONTINUOUS
 10
153.9674919177
 20
31.3681283335
 11
153.9674919177
 21
31.4326554237
 12
154.3143669177
 22
31.4326554237
 13
154.3143669177
 23
31.4326554237
  0
SOLID
  8
0
 62
7
  6
CONTINUOUS
 10
154.3143669177
 20
31.4326554237
 11
154.2565543074
 21
31.3681283335
 12
153.9674919177
 22
31.3681283335
 13
153.9674919177
 23
31.3681283335
  0
SOLID
  8
0
 62
7
  6
CONTINUOUS
 10
159.1128043074
 20
31.4326555528
 11
159.8065543074
 21
31.4971825369
 12
159.575304528
 22
31.4649197501
 13
159.575304528
 23
31.4649197501
  0
SOLID
  8
0
 62
7
  6
CONTINUOUS
 10
159.575304528
 20
31.4649197501
 11
159.4596793074
 21
31.4326555528
 12
159.1128043074
 22
31.4326555528
 13
159.1128043074
 23
31.4326555528
  0
SOLID
  8
0
 62
7
  6
CONTINUOUS
 10
159.1128043074
 20
31.3681284626
 11
159.1128043074
 21
31.4326555528
 12
159.4596793074
 22
31.4326555528
 13
159.4596793074
 23
31.4326555528
  0
SOLID
  8
0
 62
7
  6
CONTINUOUS
 10
159.4596793074
 20
31.4326555528
 11
159.401867028
 21
31.3681284626
 12
159.1128043074
 22
31.3681284626
 13
159.1128043074
 23
31.3681284626
  0
SOLID
  8
0
 62
7
  6
CONTINUOUS
 10
159.228429528
 20
31.2390741763
 11
159.1128043074
 21
31.3681284626
 12
159.401867028
 22
31.3681284626
 13
159.401867028
 23
31.3681284626
  0
SOLID
  8
0
 62
7
  6
CONTINUOUS
 10
149.6315543091
 20
31.3036012664
 11
150.1518667936
 21
31.4326554468
 12
149.9784292936
 22
31.3358640533
 13
149.9784292936
 23
31.3358640533
  0
SOLID
  8
0
 62
7
  6
CONTINUOUS
 10
149.9784292936
 20
31.3358640533
 11
149.9206168074
 21
31.2713369632
 12
149.6315543091
 22
31.3036012664
 13
149.6315543091
 23
31.3036012664
  0
SOLID
  8
0
 62
7
  6
CONTINUOUS
 10
149.5737418074
 20
31.1100184796
 11
149.6315543091
 21
31.3036012664
 12
149.9206168074
 22
31.2713369632
 13
149.9206168074
 23
31.2713369632
  0
SOLID
  8
0
 62
7
  6
CONTINUOUS
 10
154.4299918074
 20
31.2390741763
 11
154.7768668074
 21
31.271336924
 12
155.412804528
 22
31.271336924
 13
155.412804528
 23
31.271336924
  0
SOLID
  8
0
 62
7
  6
CONTINUOUS
 10
154.4299918074
 20
31.2390741763
 11
155.412804528
 21
31.271336924
 12
154.1987416972
 22
31.1745462761
 13
154.1987416972
 23
31.1745462761
  0
SOLID
  8
0
 62
7
  6
CONTINUOUS
 10
154.1987416972
 20
31.1745462761
 11
155.412804528
 21
31.271336924
 12
154.7768668074
 22
31.1422827436
 13
154.7768668074
 23
31.1422827436
  0
SOLID
  8
0
 62
7
  6
CONTINUOUS
 10
155.412804528
 20
31.271336924
 11
155.412804528
 21
31.1422827436
 12
154.7768668074
 22
31.1422827436
 13
154.7768668074
 23
31.1422827436
  0
SOLID
  8
0
 62
7
  6
CONTINUOUS
 10
159.228429528
 20
31.2390745501
 11
159.401867028
 21
31.3681283566
 12
159.4596793074
 22
31.3036012664
 13
159.4596793074
 23
31.3036012664
  0
SOLID
  8
0
 62
7
  6
CONTINUOUS
 10
159.4596793074
 20
31.3036012664
 11
159.6331168074
 21
31.2390745501
 12
159.228429528
 22
31.2390745501
 13
159.228429528
 23
31.2390745501
  0
SOLID
  8
0
 62
7
  6
CONTINUOUS
 10
159.4596793074
 20
31.1422827828
 11
159.228429528
 21
31.2390745501
 12
159.6331168074
 22
31.2390745501
 13
159.6331168074
 23
31.2390745501
  0
SOLID
  8
0
 62
7
  6
CONTINUOUS
 10
159.6331168074
 20
31.2390745501
 11
160.615929528
 21
31.0777556927
 12
159.4596793074
 22
31.1422827828
 13
159.4596793074
 23
31.1422827828
  0
SOLID
  8
0
 62
7
  6
CONTINUOUS
 10
160.442492028
 20
30.9809646623
 11
159.4596793074
 21
31.1422827828
 12
160.615929528
 22
31.0777556927
 13
160.615929528
 23
31.0777556927
  0
SOLID
  8
0
 62
7
  6
CONTINUOUS
 10
160.615929528
 20
31.0777556927
 11
160.8471793074
 21
30.9809646623
 12
160.442492028
 22
30.9809646623
 13
160.442492028
 23
30.9809646623
  0
SOLID
  8
0
 62
7
  6
CONTINUOUS
 10
160.615929528
 20
30.9164372091
 11
160.442492028
 21
30.9809646623
 12
160.8471793074
 22
30.9809646623
 13
160.8471793074
 23
30.9809646623
  0
SOLID
  8
0
 62
7
  6
CONTINUOUS
 10
160.615929528
 20
30.9164372091
 11
160.8471793074
 21
30.9809646623
 12
160.6737418074
 22
30.8519089441
 13
160.6737418074
 23
30.8519089441
  0
SOLID
  8
0
 62
7
  6
CONTINUOUS
 10
160.8471793074
 20
30.9809646623
 11
160.9628038663
 21
30.8519089441
 12
160.6737418074
 22
30.8519089441
 13
160.6737418074
 23
30.8519089441
  0
SOLID
  8
0
 62
7
  6
CONTINUOUS
 10
160.615929528
 20
30.7873818593
 11
160.6737418074
 21
30.8519089441
 12
160.9628038663
 22
30.8519089441
 13
160.9628038663
 23
30.8519089441
  0
SOLID
  8
0
 62
7
  6
CONTINUOUS
 10
160.9628038663
 20
30.8519089441
 11
160.9628038663
 21
30.7873818593
 12
160.615929528
 22
30.7873818593
 13
160.615929528
 23
30.7873818593
  0
SOLID
  8
0
 62
7
  6
CONTINUOUS
 10
160.5003043074
 20
30.7551187255
 11
160.615929528
 21
30.7873818593
 12
160.9628038663
 22
30.7873818593
 13
160.9628038663
 23
30.7873818593
  0
SOLID
  8
0
 62
7
  6
CONTINUOUS
 10
160.5003043074
 20
30.7551187255
 11
160.9628038663
 21
30.7873818593
 12
160.269054528
 22
30.7228547745
 13
160.269054528
 23
30.7228547745
  0
SOLID
  8
0
 62
7
  6
CONTINUOUS
 10
160.9628038663
 20
30.7873818593
 11
160.8471793074
 21
30.6905916353
 12
160.269054528
 22
30.7228547745
 13
160.269054528
 23
30.7228547745
  0
SOLID
  8
0
 62
7
  6
CONTINUOUS
 10
160.8471793074
 20
30.6905916353
 11
159.401867028
 21
30.658327332
 12
160.269054528
 22
30.7228547745
 13
160.269054528
 23
30.7228547745
  0
SOLID
  8
0
 62
7
  6
CONTINUOUS
 10
160.269054528
 20
30.7228547745
 11
159.401867028
 21
30.658327332
 12
159.922179528
 22
30.7228547745
 13
159.922179528
 23
30.7228547745
  0
SOLID
  8
0
 62
7
  6
CONTINUOUS
 10
159.401867028
 20
30.658327332
 11
159.228429528
 21
30.7228547745
 12
159.922179528
 22
30.7228547745
 13
159.922179528
 23
30.7228547745
  0
SOLID
  8
0
 62
7
  6
CONTINUOUS
 10
159.401867028
 20
30.658327332
 11
160.8471793074
 21
30.6905916353
 12
159.575304528
 22
30.6260629858
 13
159.575304528
 23
30.6260629858
  0
SOLID
  8
0
 62
7
  6
CONTINUOUS
 10
160.8471793074
 20
30.6905916353
 11
160.615929528
 21
30.6260629858
 12
159.575304528
 22
30.6260629858
 13
159.575304528
 23
30.6260629858
  0
SOLID
  8
0
 62
7
  6
CONTINUOUS
 10
159.922179528
 20
30.5938006049
 11
159.575304528
 21
30.6260629858
 12
160.615929528
 22
30.6260629858
 13
160.615929528
 23
30.6260629858
  0
SOLID
  8
0
 62
7
  6
CONTINUOUS
 10
160.615929528
 20
30.6260629858
 11
160.269054528
 21
30.5938006049
 12
159.922179528
 22
30.5938006049
 13
159.922179528
 23
30.5938006049
  0
SOLID
  8
0
 62
7
  6
CONTINUOUS
 10
149.5737418074
 20
31.1100184796
 11
149.9206168074
 21
31.2713369632
 12
149.8628043005
 22
31.1422827828
 13
149.8628043005
 23
31.1422827828
  0
SOLID
  8
0
 62
7
  6
CONTINUOUS
 10
149.8628043005
 20
31.1422827828
 11
149.8628043005
 21
31.0454914852
 12
149.5737418074
 22
31.1100184796
 13
149.5737418074
 23
31.1100184796
  0
SOLID
  8
0
 62
7
  6
CONTINUOUS
 10
149.6315543091
 20
30.9164372091
 11
149.5737418074
 21
31.1100184796
 12
149.8628043005
 22
31.0454914852
 13
149.8628043005
 23
31.0454914852
  0
SOLID
  8
0
 62
7
  6
CONTINUOUS
 10
149.8628043005
 20
31.0454914852
 11
149.9784292936
 21
30.8841729058
 12
149.6315543091
 22
30.9164372091
 13
149.6315543091
 23
30.9164372091
  0
SOLID
  8
0
 62
7
  6
CONTINUOUS
 10
149.7471793074
 20
30.7873813202
 11
149.6315543091
 21
30.9164372091
 12
149.9784292936
 22
30.8841729058
 13
149.9784292936
 23
30.8841729058
  0
SOLID
  8
0
 62
7
  6
CONTINUOUS
 10
149.9784292936
 20
30.8841729058
 11
150.1518667936
 21
30.7873813202
 12
149.7471793074
 22
30.7873813202
 13
149.7471793074
 23
30.7873813202
  0
SOLID
  8
0
 62
7
  6
CONTINUOUS
 10
149.8628043005
 20
30.7228547004
 11
149.7471793074
 21
30.7873813202
 12
150.1518667936
 22
30.7873813202
 13
150.1518667936
 23
30.7873813202
  0
SOLID
  8
0
 62
7
  6
CONTINUOUS
 10
150.1518667936
 20
30.7873813202
 11
150.498741835
 21
30.7228547004
 12
149.8628043005
 22
30.7228547004
 13
149.8628043005
 23
30.7228547004
  0
SOLID
  8
0
 62
7
  6
CONTINUOUS
 10
150.0362418212
 20
30.658327332
 11
149.8628043005
 21
30.7228547004
 12
150.498741835
 22
30.7228547004
 13
150.498741835
 23
30.7228547004
  0
SOLID
  8
0
 62
7
  6
CONTINUOUS
 10
154.0831168074
 20
31.1100184386
 11
154.1987416972
 21
31.1745462761
 12
154.7768668074
 22
31.1422827828
 13
154.7768668074
 23
31.1422827828
  0
SOLID
  8
0
 62
7
  6
CONTINUOUS
 10
154.7768668074
 20
31.1422827828
 11
154.5456166972
 21
31.1100184386
 12
154.0831168074
 22
31.1100184386
 13
154.0831168074
 23
31.1100184386
  0
SOLID
  8
0
 62
7
  6
CONTINUOUS
 10
153.9674919177
 20
30.9809642992
 11
154.0831168074
 21
31.1100184386
 12
154.5456166972
 22
31.1100184386
 13
154.5456166972
 23
31.1100184386
  0
SOLID
  8
0
 62
7
  6
CONTINUOUS
 10
154.3143669177
 20
31.0132277988
 11
153.9674919177
 21
30.9809642992
 12
154.4299918074
 22
31.0777556927
 13
154.4299918074
 23
31.0777556927
  0
SOLID
  8
0
 62
7
  6
CONTINUOUS
 10
153.9674919177
 20
30.9809642992
 11
154.5456166972
 21
31.1100184796
 12
154.4299918074
 22
31.0777556927
 13
154.4299918074
 23
31.0777556927
  0
SOLID
  8
0
 62
7
  6
CONTINUOUS
 10
154.3143669177
 20
31.0132277988
 11
154.2565543074
 21
30.9164372091
 12
153.9674919177
 22
30.9809642992
 13
153.9674919177
 23
30.9809642992
  0
SOLID
  8
0
 62
7
  6
CONTINUOUS
 10
153.9674919177
 20
30.8841729058
 11
153.9674919177
 21
30.9809642992
 12
154.2565543074
 22
30.9164372091
 13
154.2565543074
 23
30.9164372091
  0
SOLID
  8
0
 62
7
  6
CONTINUOUS
 10
154.2565543074
 20
30.9164372091
 11
154.2565543074
 21
30.8519086025
 12
153.9674919177
 22
30.8841729058
 13
153.9674919177
 23
30.8841729058
  0
SOLID
  8
0
 62
7
  6
CONTINUOUS
 10
154.0253041972
 20
30.7551187255
 11
153.9674919177
 21
30.8841729058
 12
154.2565543074
 22
30.8519086025
 13
154.2565543074
 23
30.8519086025
  0
SOLID
  8
0
 62
7
  6
CONTINUOUS
 10
155.412804528
 20
30.9487004259
 11
155.7018665869
 21
30.8519086025
 12
155.3549915869
 22
30.8841729058
 13
155.3549915869
 23
30.8841729058
  0
SOLID
  8
0
 62
7
  6
CONTINUOUS
 10
155.1815540869
 20
30.7873815123
 11
155.3549915869
 21
30.8841729058
 12
155.7018665869
 22
30.8519086025
 13
155.7018665869
 23
30.8519086025
  0
SOLID
  8
0
 62
7
  6
CONTINUOUS
 10
155.1815540869
 20
30.7873815123
 11
155.7018665869
 21
30.8519086025
 12
155.412804528
 22
30.7551187255
 13
155.412804528
 23
30.7551187255
  0
SOLID
  8
0
 62
7
  6
CONTINUOUS
 10
155.7018665869
 20
30.8519086025
 11
155.759679528
 21
30.6905916353
 12
155.412804528
 22
30.7551187255
 13
155.412804528
 23
30.7551187255
  0
SOLID
  8
0
 62
7
  6
CONTINUOUS
 10
155.4706168074
 20
30.658327332
 11
155.412804528
 21
30.7551187255
 12
155.759679528
 22
30.6905916353
 13
155.759679528
 23
30.6905916353
  0
SOLID
  8
0
 62
7
  6
CONTINUOUS
 10
155.4706168074
 20
30.658327332
 11
155.759679528
 21
30.6905916353
 12
155.5284290869
 22
30.5938002079
 13
155.5284290869
 23
30.5938002079
  0
SOLID
  8
0
 62
7
  6
CONTINUOUS
 10
155.759679528
 20
30.6905916353
 11
155.8174918074
 21
30.5938002079
 12
155.5284290869
 22
30.5938002079
 13
155.5284290869
 23
30.5938002079
  0
SOLID
  8
0
 62
7
  6
CONTINUOUS
 10
151.0768668626
 20
30.8196456577
 11
151.1346793074
 21
30.9164373395
 12
151.4237418626
 22
30.9164373395
 13
151.4237418626
 23
30.9164373395
  0
SOLID
  8
0
 62
7
  6
CONTINUOUS
 10
151.4237418626
 20
30.9164373395
 11
151.3659292523
 21
30.7873815123
 12
151.0768668626
 22
30.8196456577
 13
151.0768668626
 23
30.8196456577
  0
SOLID
  8
0
 62
7
  6
CONTINUOUS
 10
150.9034292799
 20
30.7551187255
 11
151.0768668626
 21
30.8196456577
 12
151.3659292523
 22
30.7873815123
 13
151.3659292523
 23
30.7873815123
  0
SOLID
  8
0
 62
7
  6
CONTINUOUS
 10
150.9034292799
 20
30.7551187255
 11
151.3659292523
 21
30.7873815123
 12
150.498741835
 22
30.7228544222
 13
150.498741835
 23
30.7228544222
  0
SOLID
  8
0
 62
7
  6
CONTINUOUS
 10
151.3659292523
 20
30.7873815123
 11
151.1924917523
 21
30.6905916353
 12
150.498741835
 22
30.7228544222
 13
150.498741835
 23
30.7228544222
  0
SOLID
  8
0
 62
7
  6
CONTINUOUS
 10
150.0362418212
 20
30.658327332
 11
150.498741835
 21
30.7228544222
 12
151.1924917523
 22
30.6905916353
 13
151.1924917523
 23
30.6905916353
  0
SOLID
  8
0
 62
7
  6
CONTINUOUS
 10
150.0362418212
 20
30.658327332
 11
151.1924917523
 21
30.6905916353
 12
150.2096793212
 22
30.6260631011
 13
150.2096793212
 23
30.6260631011
  0
SOLID
  8
0
 62
7
  6
CONTINUOUS
 10
151.1924917523
 20
30.6905916353
 11
150.9612418074
 21
30.6260631011
 12
150.2096793212
 22
30.6260631011
 13
150.2096793212
 23
30.6260631011
  0
SOLID
  8
0
 62
7
  6
CONTINUOUS
 10
150.5565542799
 20
30.5938002419
 11
150.2096793212
 21
30.6260631011
 12
150.9612418074
 22
30.6260631011
 13
150.9612418074
 23
30.6260631011
  0
SOLID
  8
0
 62
7
  6
CONTINUOUS
 10
154.0253041972
 20
30.7551187255
 11
154.2565543074
 21
30.8519086025
 12
154.3143669177
 22
30.7873815123
 13
154.3143669177
 23
30.7873815123
  0
SOLID
  8
0
 62
7
  6
CONTINUOUS
 10
154.3143669177
 20
30.7873815123
 11
154.5456166972
 21
30.7228544222
 12
154.0253041972
 22
30.7551187255
 13
154.0253041972
 23
30.7551187255
  0
SOLID
  8
0
 62
7
  6
CONTINUOUS
 10
154.1987416972
 20
30.658327332
 11
154.0253041972
 21
30.7551187255
 12
154.5456166972
 22
30.7228544222
 13
154.5456166972
 23
30.7228544222
  0
SOLID
  8
0
 62
7
  6
CONTINUOUS
 10
154.8924916972
 20
30.7228544637
 11
155.1815540869
 21
30.7873815123
 12
155.412804528
 22
30.7551187255
 13
155.412804528
 23
30.7551187255
  0
SOLID
  8
0
 62
7
  6
CONTINUOUS
 10
155.412804528
 20
30.7551187255
 11
155.3549915869
 21
30.6905916353
 12
154.8924916972
 22
30.7228544637
 13
154.8924916972
 23
30.7228544637
  0
SOLID
  8
0
 62
7
  6
CONTINUOUS
 10
155.3549915869
 20
30.6905916353
 11
154.1987416972
 21
30.658327332
 12
154.8924916972
 22
30.7228544637
 13
154.8924916972
 23
30.7228544637
  0
SOLID
  8
0
 62
7
  6
CONTINUOUS
 10
154.1987416972
 20
30.658327332
 11
154.5456166972
 21
30.7228544637
 12
154.8924916972
 22
30.7228544637
 13
154.8924916972
 23
30.7228544637
  0
SOLID
  8
0
 62
7
  6
CONTINUOUS
 10
154.1987416972
 20
30.658327332
 11
155.3549915869
 21
30.6905916353
 12
154.3143669177
 22
30.6260630541
 13
154.3143669177
 23
30.6260630541
  0
SOLID
  8
0
 62
7
  6
CONTINUOUS
 10
155.3549915869
 20
30.6905916353
 11
155.1815540869
 21
30.6260630541
 12
154.3143669177
 22
30.6260630541
 13
154.3143669177
 23
30.6260630541
  0
SOLID
  8
0
 62
7
  6
CONTINUOUS
 10
154.5456166972
 20
30.5938002188
 11
154.3143669177
 21
30.6260630541
 12
155.1815540869
 22
30.6260630541
 13
155.1815540869
 23
30.6260630541
  0
SOLID
  8
0
 62
7
  6
CONTINUOUS
 10
155.1815540869
 20
30.6260630541
 11
154.8924916972
 21
30.5938002188
 12
154.5456166972
 22
30.5938002188
 13
154.5456166972
 23
30.5938002188
  0
SOLID
  8
0
 62
7
  6
CONTINUOUS
 10
159.575304528
 20
30.7551187255
 11
159.228429528
 21
30.7228544637
 12
159.4596793074
 22
30.7873815123
 13
159.4596793074
 23
30.7873815123
  0
SOLID
  8
0
 62
7
  6
CONTINUOUS
 10
159.4596793074
 20
30.7873815123
 11
159.228429528
 21
30.7228544637
 12
159.401867028
 22
30.851908644
 13
159.401867028
 23
30.851908644
  0
SOLID
  8
0
 62
7
  6
CONTINUOUS
 10
159.228429528
 20
30.7228544637
 11
159.1128043074
 21
30.851908644
 12
159.401867028
 22
30.851908644
 13
159.401867028
 23
30.851908644
  0
SOLID
  8
0
 62
7
  6
CONTINUOUS
 10
159.575304528
 20
30.7551187255
 11
159.922179528
 21
30.7228544637
 12
159.228429528
 22
30.7228544637
 13
159.228429528
 23
30.7228544637
  0
SOLID
  8
0
 62
7
  6
CONTINUOUS
 10
156.279992028
 20
30.5938002419
 11
156.279992028
 21
31.6262382337
 12
156.5690540869
 22
30.5938002419
 13
156.5690540869
 23
31.6262382337
  0
ENDBLK
  8
0
  6
BYBLOCK
 62
0
  0
BLOCK
  8
0
 62
2
  6
CONTINUOUS
  2
SYMBOL_3_BL0
 70
64
 10
32.1213064866
 20
19.8534310916
  0
TEXT
  8
0
 62
7
  6
CONTINUOUS
 10
18.3860103289
 20
19.2268451992
  7
TEXTSTYLE_3
 40
2.7338706658
  1
Ammeraal Beltech
 41
1.0
 51
15.0
 72
0
  0
TEXT
  8
0
 62
7
  6
CONTINUOUS
 10
29.1868111546
 20
16.9533085264
  7
TEXTSTYLE_4
 40
1.0935482663
  1
Innovation & Service in Belting
 41
1.0
 72
0
  0
LINE
  8
0
 62
7
  6
CONTINUOUS
 10
12.3614696776
 20
19.9934385078
 11
13.1396216709
 21
23.6543558055
  0
LINE
  8
0
 62
7
  6
CONTINUOUS
 10
23.2347899607
 20
27.3177497171
 11
13.6274394139
 21
24.1961322958
  0
LINE
  8
0
 62
7
  6
CONTINUOUS
 10
12.5867530099
 20
19.3000877048
 11
20.093828271
 21
12.5406867788
  0
LINE
  8
0
 62
7
  6
CONTINUOUS
 10
12.8492874206
 20
20.5352149982
 11
23.6575567857
 21
24.0470345971
  0
LINE
  8
0
 62
7
  6
CONTINUOUS
 10
23.6533516486
 20
13.6972460334
 11
15.2078919798
 21
21.3015720751
  0
LINE
  8
0
 62
7
  6
CONTINUOUS
 10
24.1731743684
 20
26.4728246013
 11
23.1966148312
 21
21.8784731989
  0
LINE
  8
0
 62
7
  6
CONTINUOUS
 10
22.4968128835
 20
18.5861638851
 11
21.810364672
 21
15.3566789607
  0
LINE
  8
0
 62
7
  6
CONTINUOUS
 10
24.8542704669
 20
14.087448211
 11
25.8105020025
 21
18.5861638851
  0
LINE
  8
0
 62
7
  6
CONTINUOUS
 10
26.5103039502
 20
21.8784731989
 11
26.9545457526
 21
23.9684665583
  0
LINE
  8
0
 62
7
  6
CONTINUOUS
 10
20.8069293463
 20
12.3891124661
 11
24.3664527239
 21
13.5456717207
  0
LINE
  8
0
 62
7
  6
CONTINUOUS
 10
23.9478910361
 20
27.1661754044
 11
26.7292624203
 21
24.6618173613
  0
ARC
  8
0
 62
7
  6
CONTINUOUS
 10
13.8527227462
 20
23.5027814928
 40
0.7290321776
 50
108.0
 51
168.0
  0
ARC
  8
0
 62
7
  6
CONTINUOUS
 10
23.4600732931
 20
26.624398914
 40
0.7290321776
 50
348.0
 51
108.0
  0
ARC
  8
0
 62
7
  6
CONTINUOUS
 10
26.2414446773
 20
24.120040871
 40
0.7290321776
 50
348.0
 51
48.0
  0
ARC
  8
0
 62
7
  6
CONTINUOUS
 10
20.581646014
 20
13.0824632691
 40
0.7290321776
 50
228.0
 51
288.0
  0
ARC
  8
0
 62
7
  6
CONTINUOUS
 10
13.0745707529
 20
19.8418641951
 40
0.7290321776
 50
108.0
 51
228.0
  0
ARC
  8
0
 62
7
  6
CONTINUOUS
 10
24.1411693916
 20
14.2390225237
 40
0.7290321776
 50
228.0
 51
348.0
  0
ENDBLK
  8
0
  6
BYBLOCK
 62
0
  0
ENDSEC
  0
SECTION
  2
ENTITIES
  0
TEXT
  8
0
 62
5
  6
CONTINUOUS
 10
96.0
 20
25.636
  7
TEXTSTYLE_2
 40
2.8
  1
Scale :
 41
0.6
 51
0.000019
 72
0
  0
TEXT
  8
0
 62
5
  6
CONTINUOUS
 10
116.0
 20
25.636
  7
TEXTSTYLE_2
 40
2.8
  1
Belt type:
 41
0.6
 51
0.000019
 72
0
  0
INSERT
  8
0
 62
2
  6
CONTINUOUS
  2
SYMBOL_3_BL0
 10
32.1213064866
 20
19.8534310916
  0
INSERT
  8
0
 62
2
  6
CONTINUOUS
  2
SYMBOL_8_BL1
 10
173.5956734183
 20
35.5937998301
  0
LINE
  8
0
 62
2
  6
CONTINUOUS
 10
10.0
 20
30.0
 11
200.0
 21
30.0
  0
LINE
  8
0
 62
2
  6
CONTINUOUS
 10
10.0
 20
30.0
 11
10.0
 21
10.0
  0
LINE
  8
0
 62
2
  6
CONTINUOUS
 10
10.0
 20
10.0
 11
200.0
 21
10.0
  0
LINE
  8
0
 62
2
  6
CONTINUOUS
 10
95.0
 20
30.0
 11
95.0
 21
10.0
  0
LINE
  8
0
 62
2
  6
CONTINUOUS
 10
115.0
 20
30.0
 11
115.0
 21
10.0
  0
LINE
  8
0
 62
2
  6
CONTINUOUS
 10
200.0
 20
30.0
 11
200.0
 21
10.0
  0
TEXT
  8
0
 62
5
  6
CONTINUOUS
 10
13.0
 20
23.303
  7
TEXTSTYLE_5
 40
1.52
  1
                                                                     Ammeraal Beltech Modular A/S
 41
1.0
 72
0
  0
TEXT
  8
0
 62
5
  6
CONTINUOUS
 10
13.0
 20
20.595
  7
TEXTSTYLE_5
 40
1.5
  1
                                                                      Hjulmagervej 21,  7100 Vejle,  DK
 41
1.0
 72
0
  0
TEXT
  8
0
 62
5
  6
CONTINUOUS
 10
13.0
 20
17.881
  7
TEXTSTYLE_5
 40
1.495
  1
                                                                      tel: 
 41
1.0
 72
0
  0
TEXT
  8
0
 62
5
  6
CONTINUOUS
 10
57.9869465649
 20
17.881
  7
TEXTSTYLE_5
 40
1.51
  1
+45 75723100     fax: +45 75723348
 41
1.0
 72
0
  0
TEXT
  8
0
 62
5
  6
CONTINUOUS
 10
13.0
 20
15.177
  7
TEXTSTYLE_5
 40
1.5
  1
                                                                      admin@unichains.dk  www.unichains.com
 41
1.0
 72
0
  0
TEXT
  8
0
 62
5
  6
CONTINUOUS
 10
99.75
 20
13.75
  7
TEXTSTYLE_6
 40
5.0
  1
1:1
 41
0.7
 72
1
 11
105.0
 21
13.75
  0
TEXT
  8
0
 62
5
  6
CONTINUOUS
 10
118.0
 20
13.75
  7
TEXTSTYLE_7
 40
7.5
  1
uni SSB 29-K600
 41
0.67
 72
0
  0
LINE
  8
0
 62
7
  6
CONTINUOUS
 10
210.0
 20
0.0
 11
0.0
 21
0.0
  0
LINE
  8
0
 62
7
  6
CONTINUOUS
 10
10.0
 20
10.0
 11
200.0
 21
10.0
  0
LINE
  8
0
 62
7
  6
CONTINUOUS
 10
10.0
 20
30.0
 11
200.0
 21
30.0
  0
LINE
  8
0
 62
7
  6
CONTINUOUS
 10
0.0
 20
0.0
 11
0.0
 21
297.0
  0
LINE
  8
0
 62
7
  6
CONTINUOUS
 10
10.0
 20
10.0
 11
10.0
 21
287.0
  0
LINE
  8
0
 62
7
  6
CONTINUOUS
 10
200.0
 20
287.0
 11
200.0
 21
10.0
  0
LINE
  8
0
 62
7
  6
CONTINUOUS
 10
210.0
 20
0.0
 11
210.0
 21
297.0
  0
LINE
  8
0
 62
7
  6
CONTINUOUS
 10
10.0
 20
287.0
 11
200.0
 21
287.0
  0
LINE
  8
0
 62
7
  6
CONTINUOUS
 10
0.0
 20
297.0
 11
210.0
 21
297.0
  0
LINE
  8
4_SURFACE
 62
7
  6
CONTINUOUS
 10
17.0584051724
 20
89.6754309776
 11
17.0584051724
 21
128.2754309345
  0
LINE
  8
4_SURFACE
 62
7
  6
CONTINUOUS
 10
20.6004273022
 20
90.3787880874
 11
20.5752561966
 21
89.657981932
  0
LINE
  8
4_SURFACE
 62
7
  6
CONTINUOUS
 10
26.491232781
 20
90.4465277668
 11
26.4968588683
 21
90.4316758507
  0
LINE
  8
4_SURFACE
 62
7
  6
CONTINUOUS
 10
26.4968588683
 20
90.4316758507
 11
26.5036501538
 21
90.4135068585
  0
LINE
  8
4_SURFACE
 62
7
  6
CONTINUOUS
 10
26.5036501538
 20
90.4135068585
 11
26.5124619084
 21
90.3895681537
  0
LINE
  8
4_SURFACE
 62
7
  6
CONTINUOUS
 10
26.5124619084
 20
90.3895681537
 11
26.5231214416
 21
90.3601223942
  0
LINE
  8
4_SURFACE
 62
7
  6
CONTINUOUS
 10
26.5231214416
 20
90.3601223942
 11
26.5354640556
 21
90.3254815584
  0
LINE
  8
4_SURFACE
 62
7
  6
CONTINUOUS
 10
26.5354640556
 20
90.3254815584
 11
26.5857914325
 21
90.1819414178
  0
LINE
  8
4_SURFACE
 62
7
  6
CONTINUOUS
 10
26.516382857
 20
90.378793401
 11
26.5415541482
 21
89.657981932
  0
LINE
  8
4_SURFACE
 62
7
  6
CONTINUOUS
 10
29.5961480852
 20
94.0157535327
 11
29.5996014759
 21
98.6754309345
  0
LINE
  8
4_SURFACE
 62
7
  6
CONTINUOUS
 10
30.0534051744
 20
138.0984641555
 11
30.0435005493
 21
137.5478235902
  0
LINE
  8
4_SURFACE
 62
7
  6
CONTINUOUS
 10
30.0616645554
 20
138.4600244462
 11
30.0534051744
 21
138.0984641555
  0
LINE
  8
4_SURFACE
 62
7
  6
CONTINUOUS
 10
30.0679436106
 20
138.6884744292
 11
30.0616645554
 21
138.4600244462
  0
LINE
  8
4_SURFACE
 62
7
  6
CONTINUOUS
 10
30.0742335648
 20
138.8830963401
 11
30.0679436106
 21
138.6884744292
  0
LINE
  8
4_SURFACE
 62
7
  6
CONTINUOUS
 10
30.0784125334
 20
138.9953687647
 11
30.0742335648
 21
138.8830963401
  0
LINE
  8
4_SURFACE
 62
7
  6
CONTINUOUS
 10
30.0825712995
 20
139.0946561856
 11
30.0784125334
 21
138.9953687647
  0
LINE
  8
4_SURFACE
 62
7
  6
CONTINUOUS
 10
30.0867092737
 20
139.1818594442
 11
30.0825712995
 21
139.0946561856
  0
POLYLINE
  8
4_SURFACE
 62
7
  6
CONTINUOUS
 66
1
 70
0
  0
VERTEX
  8
4_SURFACE
 62
7
  6
CONTINUOUS
 10
30.0172054761
 20
130.4754309347
  0
VERTEX
  8
4_SURFACE
 62
7
  6
CONTINUOUS
 10
30.0123478964
 20
130.3873830438
  0
VERTEX
  8
4_SURFACE
 62
7
  6
CONTINUOUS
 10
29.9863922073
 20
130.2555563769
  0
VERTEX
  8
4_SURFACE
 62
7
  6
CONTINUOUS
 10
29.9387303137
 20
130.129918598
  0
VERTEX
  8
4_SURFACE
 62
7
  6
CONTINUOUS
 10
29.8707039168
 20
130.0140235062
  0
VERTEX
  8
4_SURFACE
 62
7
  6
CONTINUOUS
 10
29.784232315
 20
129.9111446415
  0
VERTEX
  8
4_SURFACE
 62
7
  6
CONTINUOUS
 10
29.6817507495
 20
129.8241831377
  0
VERTEX
  8
4_SURFACE
 62
7
  6
CONTINUOUS
 10
29.566147276
 20
129.7555947875
  0
VERTEX
  8
4_SURFACE
 62
7
  6
CONTINUOUS
 10
29.4406889617
 20
129.7073212626
  0
VERTEX
  8
4_SURFACE
 62
7
  6
CONTINUOUS
 10
29.3089270571
 20
129.6807259629
  0
VERTEX
  8
4_SURFACE
 62
7
  6
CONTINUOUS
 10
29.2328185036
 20
129.6755906583
  0
SEQEND
  0
POLYLINE
  8
4_SURFACE
 62
7
  6
CONTINUOUS
 66
1
 70
0
  0
VERTEX
  8
4_SURFACE
 62
7
  6
CONTINUOUS
 10
30.0172850213
 20
130.4754309345
  0
VERTEX
  8
4_SURFACE
 62
7
  6
CONTINUOUS
 10
30.0077667955
 20
130.3524130113
  0
VERTEX
  8
4_SURFACE
 62
7
  6
CONTINUOUS
 10
29.9787298194
 20
130.2301113387
  0
VERTEX
  8
4_SURFACE
 62
7
  6
CONTINUOUS
 10
29.9304242845
 20
130.1129534212
  0
VERTEX
  8
4_SURFACE
 62
7
  6
CONTINUOUS
 10
29.8643790414
 20
130.0051102668
  0
VERTEX
  8
4_SURFACE
 62
7
  6
CONTINUOUS
 10
29.7828721918
 20
129.9097275665
  0
VERTEX
  8
4_SURFACE
 62
7
  6
CONTINUOUS
 10
29.6874377889
 20
129.8282446406
  0
VERTEX
  8
4_SURFACE
 62
7
  6
CONTINUOUS
 10
29.5795162454
 20
129.762212974
  0
VERTEX
  8
4_SURFACE
 62
7
  6
CONTINUOUS
 10
29.4623038545
 20
129.7139372989
  0
VERTEX
  8
4_SURFACE
 62
7
  6
CONTINUOUS
 10
29.33999359
 20
129.6849338724
  0
VERTEX
  8
4_SURFACE
 62
7
  6
CONTINUOUS
 10
29.2328166058
 20
129.6755869806
  0
SEQEND
  0
LINE
  8
4_SURFACE
 62
7
  6
CONTINUOUS
 10
33.4784051724
 20
123.5754309345
 11
33.4784051724
 21
105.5754309345
  0
LINE
  8
4_SURFACE
 62
7
  6
CONTINUOUS
 10
30.0206622596
 20
135.1351083364
 11
30.0172088689
 21
130.4754309345
  0
LINE
  8
4_SURFACE
 62
7
  6
CONTINUOUS
 10
29.5872804655
 20
92.7373159842
 11
29.5961480852
 21
94.0157535327
  0
LINE
  8
4_SURFACE
 62
7
  6
CONTINUOUS
 10
30.0295298794
 20
136.4135458849
 11
30.0206622596
 21
135.1351083364
  0
LINE
  8
4_SURFACE
 62
7
  6
CONTINUOUS
 10
30.0397447732
 20
137.2948231372
 11
30.0295298794
 21
136.4135458849
  0
LINE
  8
4_SURFACE
 62
7
  6
CONTINUOUS
 10
29.5770655716
 20
91.8560387319
 11
29.5872804655
 21
92.7373159842
  0
LINE
  8
4_SURFACE
 62
7
  6
CONTINUOUS
 10
30.0435005493
 20
137.5478235902
 11
30.0397447732
 21
137.2948231372
  0
LINE
  8
4_SURFACE
 62
7
  6
CONTINUOUS
 10
29.5674407273
 20
91.2590685143
 11
29.5770655716
 21
91.8560387319
  0
LINE
  8
4_SURFACE
 62
7
  6
CONTINUOUS
 10
29.5592995065
 20
90.8631956348
 11
29.5674407273
 21
91.2590685143
  0
LINE
  8
4_SURFACE
 62
7
  6
CONTINUOUS
 10
29.5509633389
 20
90.534649277
 11
29.5592995065
 21
90.8631956348
  0
LINE
  8
4_SURFACE
 62
7
  6
CONTINUOUS
 10
29.5446718802
 20
90.3290425781
 11
29.5509633389
 21
90.534649277
  0
LINE
  8
4_SURFACE
 62
7
  6
CONTINUOUS
 10
29.5383978114
 20
90.1554931044
 11
29.5446718802
 21
90.3290425781
  0
LINE
  8
4_SURFACE
 62
7
  6
CONTINUOUS
 10
29.5342390453
 20
90.0562056834
 11
29.5383978114
 21
90.1554931044
  0
LINE
  8
4_SURFACE
 62
7
  6
CONTINUOUS
 10
29.5301010711
 20
89.9690024249
 11
29.5342390453
 21
90.0562056834
  0
POLYLINE
  8
4_SURFACE
 62
7
  6
CONTINUOUS
 66
1
 70
0
  0
VERTEX
  8
4_SURFACE
 62
7
  6
CONTINUOUS
 10
29.5996048688
 20
98.6754309344
  0
VERTEX
  8
4_SURFACE
 62
7
  6
CONTINUOUS
 10
29.6044624484
 20
98.7634788253
  0
VERTEX
  8
4_SURFACE
 62
7
  6
CONTINUOUS
 10
29.6304181375
 20
98.8953054922
  0
VERTEX
  8
4_SURFACE
 62
7
  6
CONTINUOUS
 10
29.6780800311
 20
99.020943271
  0
VERTEX
  8
4_SURFACE
 62
7
  6
CONTINUOUS
 10
29.746106428
 20
99.1368383628
  0
VERTEX
  8
4_SURFACE
 62
7
  6
CONTINUOUS
 10
29.8325780298
 20
99.2397172275
  0
VERTEX
  8
4_SURFACE
 62
7
  6
CONTINUOUS
 10
29.9350595952
 20
99.3266787314
  0
VERTEX
  8
4_SURFACE
 62
7
  6
CONTINUOUS
 10
30.0506630688
 20
99.3952670815
  0
VERTEX
  8
4_SURFACE
 62
7
  6
CONTINUOUS
 10
30.176121383
 20
99.4435406064
  0
VERTEX
  8
4_SURFACE
 62
7
  6
CONTINUOUS
 10
30.3078832876
 20
99.4701359061
  0
VERTEX
  8
4_SURFACE
 62
7
  6
CONTINUOUS
 10
30.3839918412
 20
99.4752712108
  0
SEQEND
  0
POLYLINE
  8
4_SURFACE
 62
7
  6
CONTINUOUS
 66
1
 70
0
  0
VERTEX
  8
4_SURFACE
 62
7
  6
CONTINUOUS
 10
29.5995253235
 20
98.6754309345
  0
VERTEX
  8
4_SURFACE
 62
7
  6
CONTINUOUS
 10
29.6090435493
 20
98.7984488578
  0
VERTEX
  8
4_SURFACE
 62
7
  6
CONTINUOUS
 10
29.6380805255
 20
98.9207505304
  0
VERTEX
  8
4_SURFACE
 62
7
  6
CONTINUOUS
 10
29.6863860603
 20
99.0379084478
  0
VERTEX
  8
4_SURFACE
 62
7
  6
CONTINUOUS
 10
29.7524313034
 20
99.1457516022
  0
VERTEX
  8
4_SURFACE
 62
7
  6
CONTINUOUS
 10
29.8339381531
 20
99.2411343026
  0
SEQEND
  0
LINE
  8
4_SURFACE
 62
7
  6
CONTINUOUS
 10
20.5310188968
 20
90.1819413699
 11
20.5826400953
 21
90.3291354823
  0
LINE
  8
4_SURFACE
 62
7
  6
CONTINUOUS
 10
20.5826400953
 20
90.3291354823
 11
20.5954283684
 21
90.3649605007
  0
LINE
  8
4_SURFACE
 62
7
  6
CONTINUOUS
 10
20.5954283684
 20
90.3649605007
 11
20.6055642124
 21
90.392894048
  0
LINE
  8
4_SURFACE
 62
7
  6
CONTINUOUS
 10
20.6055642124
 20
90.392894048
 11
20.6126254811
 21
90.412065639
  0
LINE
  8
4_SURFACE
 62
7
  6
CONTINUOUS
 10
20.6126254811
 20
90.412065639
 11
20.6199594889
 21
90.4316971414
  0
LINE
  8
4_SURFACE
 62
7
  6
CONTINUOUS
 10
20.6199594889
 20
90.4316971414
 11
20.6255774288
 21
90.4465274194
  0
POLYLINE
  8
4_SURFACE
 62
7
  6
CONTINUOUS
 66
1
 70
0
  0
VERTEX
  8
4_SURFACE
 62
7
  6
CONTINUOUS
 10
20.625581581
 20
90.4465428959
  0
VERTEX
  8
4_SURFACE
 62
7
  6
CONTINUOUS
 10
20.6276597769
 20
90.4519144787
  0
VERTEX
  8
4_SURFACE
 62
7
  6
CONTINUOUS
 10
20.6392324314
 20
90.4794040329
  0
VERTEX
  8
4_SURFACE
 62
7
  6
CONTINUOUS
 10
20.6522754697
 20
90.5068189903
  0
VERTEX
  8
4_SURFACE
 62
7
  6
CONTINUOUS
 10
20.666606374
 20
90.5339496846
  0
VERTEX
  8
4_SURFACE
 62
7
  6
CONTINUOUS
 10
20.6820655206
 20
90.5606290212
  0
VERTEX
  8
4_SURFACE
 62
7
  6
CONTINUOUS
 10
20.6985602285
 20
90.5868007071
  0
VERTEX
  8
4_SURFACE
 62
7
  6
CONTINUOUS
 10
20.7160170198
 20
90.6124223263
  0
VERTEX
  8
4_SURFACE
 62
7
  6
CONTINUOUS
 10
20.73436502
 20
90.637430992
  0
VERTEX
  8
4_SURFACE
 62
7
  6
CONTINUOUS
 10
20.7535481687
 20
90.6617720199
  0
VERTEX
  8
4_SURFACE
 62
7
  6
CONTINUOUS
 10
20.773565593
 20
90.6854451242
  0
VERTEX
  8
4_SURFACE
 62
7
  6
CONTINUOUS
 10
20.7944335141
 20
90.7084433586
  0
VERTEX
  8
4_SURFACE
 62
7
  6
CONTINUOUS
 10
20.8161716601
 20
90.7307347783
  0
VERTEX
  8
4_SURFACE
 62
7
  6
CONTINUOUS
 10
20.8388451221
 20
90.7523038328
  0
VERTEX
  8
4_SURFACE
 62
7
  6
CONTINUOUS
 10
20.8624936104
 20
90.7730867753
  0
VERTEX
  8
4_SURFACE
 62
7
  6
CONTINUOUS
 10
20.887138907
 20
90.79295724
  0
VERTEX
  8
4_SURFACE
 62
7
  6
CONTINUOUS
 10
20.9129394807
 20
90.8118744914
  0
VERTEX
  8
4_SURFACE
 62
7
  6
CONTINUOUS
 10
20.939774942
 20
90.8295452877
  0
VERTEX
  8
4_SURFACE
 62
7
  6
CONTINUOUS
 10
20.9679597489
 20
90.845896812
  0
VERTEX
  8
4_SURFACE
 62
7
  6
CONTINUOUS
 10
20.9974738169
 20
90.8606016954
  0
VERTEX
  8
4_SURFACE
 62
7
  6
CONTINUOUS
 10
21.0286451037
 20
90.8733339563
  0
VERTEX
  8
4_SURFACE
 62
7
  6
CONTINUOUS
 10
21.0614050229
 20
90.8835414761
  0
VERTEX
  8
4_SURFACE
 62
7
  6
CONTINUOUS
 10
21.0960332365
 20
90.8905423417
  0
VERTEX
  8
4_SURFACE
 62
7
  6
CONTINUOUS
 10
21.1318141556
 20
90.8934557743
  0
VERTEX
  8
4_SURFACE
 62
7
  6
CONTINUOUS
 10
21.1367012274
 20
90.8934954569
  0
SEQEND
  0
LINE
  8
4_SURFACE
 62
7
  6
CONTINUOUS
 10
38.9884051724
 20
105.5754309345
 11
38.9884051724
 21
123.5754309345
  0
LINE
  8
4_SURFACE
 62
7
  6
CONTINUOUS
 10
46.1284051724
 20
123.5754309345
 11
46.1284051724
 21
105.5754309345
  0
LINE
  8
4_SURFACE
 62
7
  6
CONTINUOUS
 10
55.4077667955
 20
98.7984488578
 11
55.4172850213
 21
98.6754309345
  0
LINE
  8
4_SURFACE
 62
7
  6
CONTINUOUS
 10
55.0090435493
 20
130.3524130113
 11
54.9995253235
 21
130.4754309345
  0
POLYLINE
  8
4_SURFACE
 62
7
  6
CONTINUOUS
 66
1
 70
0
  0
VERTEX
  8
4_SURFACE
 62
7
  6
CONTINUOUS
 10
55.4902165619
 20
89.9036514535
  0
VERTEX
  8
4_SURFACE
 62
7
  6
CONTINUOUS
 10
55.4924955496
 20
89.8652042465
  0
VERTEX
  8
4_SURFACE
 62
7
  6
CONTINUOUS
 10
55.4947900612
 20
89.8295698052
  0
VERTEX
  8
4_SURFACE
 62
7
  6
CONTINUOUS
 10
55.4971104136
 20
89.7965626595
  0
VERTEX
  8
4_SURFACE
 62
7
  6
CONTINUOUS
 10
55.4994697238
 20
89.7660019694
  0
VERTEX
  8
4_SURFACE
 62
7
  6
CONTINUOUS
 10
55.5018885047
 20
89.7376636944
  0
VERTEX
  8
4_SURFACE
 62
7
  6
CONTINUOUS
 10
55.5044013164
 20
89.7112461326
  0
VERTEX
  8
4_SURFACE
 62
7
  6
CONTINUOUS
 10
55.5070660984
 20
89.6863454924
  0
VERTEX
  8
4_SURFACE
 62
7
  6
CONTINUOUS
 10
55.5099822523
 20
89.6624066168
  0
VERTEX
  8
4_SURFACE
 62
7
  6
CONTINUOUS
 10
55.5133291328
 20
89.6386212514
  0
VERTEX
  8
4_SURFACE
 62
7
  6
CONTINUOUS
 10
55.5174271653
 20
89.6138718696
  0
VERTEX
  8
4_SURFACE
 62
7
  6
CONTINUOUS
 10
55.5228321571
 20
89.5867427051
  0
VERTEX
  8
4_SURFACE
 62
7
  6
CONTINUOUS
 10
55.53065428
 20
89.554957185
  0
VERTEX
  8
4_SURFACE
 62
7
  6
CONTINUOUS
 10
55.5430389679
 20
89.5154434134
  0
VERTEX
  8
4_SURFACE
 62
7
  6
CONTINUOUS
 10
55.5632663128
 20
89.4662635536
  0
VERTEX
  8
4_SURFACE
 62
7
  6
CONTINUOUS
 10
55.5946554787
 20
89.409253905
  0
VERTEX
  8
4_SURFACE
 62
7
  6
CONTINUOUS
 10
55.6398632329
 20
89.3486465698
  0
VERTEX
  8
4_SURFACE
 62
7
  6
CONTINUOUS
 10
55.7019928937
 20
89.2884413197
  0
VERTEX
  8
4_SURFACE
 62
7
  6
CONTINUOUS
 10
55.7820220309
 20
89.2350750495
  0
VERTEX
  8
4_SURFACE
 62
7
  6
CONTINUOUS
 10
55.8764908962
 20
89.1961890096
  0
VERTEX
  8
4_SURFACE
 62
7
  6
CONTINUOUS
 10
55.9792369276
 20
89.1770362579
  0
VERTEX
  8
4_SURFACE
 62
7
  6
CONTINUOUS
 10
56.0193284428
 20
89.1754324422
  0
SEQEND
  0
LINE
  8
4_SURFACE
 62
7
  6
CONTINUOUS
 10
55.4856811392
 20
89.9896263347
 11
55.4902165619
 21
89.9036514535
  0
LINE
  8
4_SURFACE
 62
7
  6
CONTINUOUS
 10
54.9311292056
 20
139.1612355343
 11
54.9265937829
 21
139.2472104156
  0
LINE
  8
4_SURFACE
 62
7
  6
CONTINUOUS
 10
55.4811566878
 20
90.0886338436
 11
55.4856811392
 21
89.9896263347
  0
LINE
  8
4_SURFACE
 62
7
  6
CONTINUOUS
 10
54.9356536571
 20
139.0622280254
 11
54.9311292056
 21
139.1612355343
  0
LINE
  8
4_SURFACE
 62
7
  6
CONTINUOUS
 10
55.4766370613
 20
90.2016139907
 11
55.4811566878
 21
90.0886338436
  0
LINE
  8
4_SURFACE
 62
7
  6
CONTINUOUS
 10
54.9401732835
 20
138.9492478783
 11
54.9356536571
 21
139.0622280254
  0
LINE
  8
4_SURFACE
 62
7
  6
CONTINUOUS
 10
55.4698792467
 20
90.399044963
 11
55.4766370613
 21
90.2016139907
  0
LINE
  8
4_SURFACE
 62
7
  6
CONTINUOUS
 10
54.9469310981
 20
138.751816906
 11
54.9401732835
 21
138.9492478783
  0
LINE
  8
4_SURFACE
 62
7
  6
CONTINUOUS
 10
55.463184219
 20
90.6321651555
 11
55.4698792467
 21
90.399044963
  0
LINE
  8
4_SURFACE
 62
7
  6
CONTINUOUS
 10
54.9536261258
 20
138.5186967135
 11
54.9469310981
 21
138.751816906
  0
LINE
  8
4_SURFACE
 62
7
  6
CONTINUOUS
 10
55.454420635
 20
91.0037333296
 11
55.463184219
 21
90.6321651555
  0
LINE
  8
4_SURFACE
 62
7
  6
CONTINUOUS
 10
54.9623897099
 20
138.1471285394
 11
54.9536261258
 21
138.5186967135
  0
LINE
  8
4_SURFACE
 62
7
  6
CONTINUOUS
 10
55.4439146903
 20
91.5768486685
 11
55.454420635
 21
91.0037333296
  0
LINE
  8
4_SURFACE
 62
7
  6
CONTINUOUS
 10
54.9728956546
 20
137.5740132006
 11
54.9623897099
 21
138.1471285394
  0
LINE
  8
4_SURFACE
 62
7
  6
CONTINUOUS
 10
55.4325001787
 20
92.4434181233
 11
55.4439146903
 21
91.5768486685
  0
LINE
  8
4_SURFACE
 62
7
  6
CONTINUOUS
 10
54.9843101662
 20
136.7074437457
 11
54.9728956546
 21
137.5740132006
  0
LINE
  8
4_SURFACE
 62
7
  6
CONTINUOUS
 10
54.9934563278
 20
135.6257907137
 11
54.9843101662
 21
136.7074437457
  0
LINE
  8
4_SURFACE
 62
7
  6
CONTINUOUS
 10
55.423354017
 20
93.5250711553
 11
55.4325001787
 21
92.4434181233
  0
LINE
  8
4_SURFACE
 62
7
  6
CONTINUOUS
 10
54.9993023711
 20
134.0731154203
 11
54.9934563278
 21
135.6257907137
  0
LINE
  8
4_SURFACE
 62
7
  6
CONTINUOUS
 10
55.4175079737
 20
95.0777464488
 11
55.423354017
 21
93.5250711553
  0
LINE
  8
4_SURFACE
 62
7
  6
CONTINUOUS
 10
51.6384051724
 20
105.5754309345
 11
51.6384051724
 21
123.5754309345
  0
LINE
  8
4_SURFACE
 62
7
  6
CONTINUOUS
 10
54.9993023711
 20
134.0731154203
 11
54.9996014759
 21
130.4754309345
  0
LINE
  8
4_SURFACE
 62
7
  6
CONTINUOUS
 10
55.4175079737
 20
95.0777464488
 11
55.4172088689
 21
98.6754309345
  0
POLYLINE
  8
4_SURFACE
 62
7
  6
CONTINUOUS
 66
1
 70
0
  0
VERTEX
  8
4_SURFACE
 62
7
  6
CONTINUOUS
 10
55.2643790414
 20
99.1457516022
  0
VERTEX
  8
4_SURFACE
 62
7
  6
CONTINUOUS
 10
55.3304242845
 20
99.0379084478
  0
VERTEX
  8
4_SURFACE
 62
7
  6
CONTINUOUS
 10
55.3787298194
 20
98.9207505304
  0
VERTEX
  8
4_SURFACE
 62
7
  6
CONTINUOUS
 10
55.4077667955
 20
98.7984488578
  0
SEQEND
  0
POLYLINE
  8
4_SURFACE
 62
7
  6
CONTINUOUS
 66
1
 70
0
  0
VERTEX
  8
4_SURFACE
 62
7
  6
CONTINUOUS
 10
54.9265937829
 20
139.2472104156
  0
VERTEX
  8
4_SURFACE
 62
7
  6
CONTINUOUS
 10
54.9243147952
 20
139.2856576225
  0
VERTEX
  8
4_SURFACE
 62
7
  6
CONTINUOUS
 10
54.9220202837
 20
139.3212920638
  0
VERTEX
  8
4_SURFACE
 62
7
  6
CONTINUOUS
 10
54.9196999312
 20
139.3542992096
  0
VERTEX
  8
4_SURFACE
 62
7
  6
CONTINUOUS
 10
54.917340621
 20
139.3848598997
  0
VERTEX
  8
4_SURFACE
 62
7
  6
CONTINUOUS
 10
54.9149218401
 20
139.4131981746
  0
VERTEX
  8
4_SURFACE
 62
7
  6
CONTINUOUS
 10
54.9124090285
 20
139.4396157365
  0
VERTEX
  8
4_SURFACE
 62
7
  6
CONTINUOUS
 10
54.9097442464
 20
139.4645163767
  0
VERTEX
  8
4_SURFACE
 62
7
  6
CONTINUOUS
 10
54.9068280926
 20
139.4884552522
  0
VERTEX
  8
4_SURFACE
 62
7
  6
CONTINUOUS
 10
54.903481212
 20
139.5122406176
  0
VERTEX
  8
4_SURFACE
 62
7
  6
CONTINUOUS
 10
54.8993831796
 20
139.5369899995
  0
VERTEX
  8
4_SURFACE
 62
7
  6
CONTINUOUS
 10
54.8939781877
 20
139.5641191639
  0
VERTEX
  8
4_SURFACE
 62
7
  6
CONTINUOUS
 10
54.8861560648
 20
139.595904684
  0
VERTEX
  8
4_SURFACE
 62
7
  6
CONTINUOUS
 10
54.8737713769
 20
139.6354184557
  0
VERTEX
  8
4_SURFACE
 62
7
  6
CONTINUOUS
 10
54.8535440321
 20
139.6845983155
  0
VERTEX
  8
4_SURFACE
 62
7
  6
CONTINUOUS
 10
54.8221548662
 20
139.741607964
  0
VERTEX
  8
4_SURFACE
 62
7
  6
CONTINUOUS
 10
54.776947112
 20
139.8022152992
  0
VERTEX
  8
4_SURFACE
 62
7
  6
CONTINUOUS
 10
54.7148174511
 20
139.8624205493
  0
VERTEX
  8
4_SURFACE
 62
7
  6
CONTINUOUS
 10
54.634788314
 20
139.9157868196
  0
VERTEX
  8
4_SURFACE
 62
7
  6
CONTINUOUS
 10
54.5403194486
 20
139.9546728594
  0
VERTEX
  8
4_SURFACE
 62
7
  6
CONTINUOUS
 10
54.4375734173
 20
139.9738256111
  0
VERTEX
  8
4_SURFACE
 62
7
  6
CONTINUOUS
 10
54.397481902
 20
139.9754294269
  0
SEQEND
  0
LINE
  8
4_SURFACE
 62
7
  6
CONTINUOUS
 10
58.7784051724
 20
123.5754309345
 11
58.7784051724
 21
105.5754309345
  0
LINE
  8
4_SURFACE
 62
7
  6
CONTINUOUS
 10
64.2884051724
 20
105.5754309345
 11
64.2884051724
 21
123.5754309345
  0
POLYLINE
  8
0
 62
7
  6
CONTINUOUS
 66
1
 70
0
  0
VERTEX
  8
0
 62
7
  6
CONTINUOUS
 10
130.2974817884
 20
89.1754324423
  0
VERTEX
  8
0
 62
7
  6
CONTINUOUS
 10
130.3435965468
 20
89.1775555129
  0
VERTEX
  8
0
 62
7
  6
CONTINUOUS
 10
130.4446363483
 20
89.1974917628
  0
VERTEX
  8
0
 62
7
  6
CONTINUOUS
 10
130.5359136486
 20
89.2356805251
  0
VERTEX
  8
0
 62
7
  6
CONTINUOUS
 10
130.6130602415
 20
89.2870157546
  0
VERTEX
  8
0
 62
7
  6
CONTINUOUS
 10
130.6737775251
 20
89.3450339142
  0
VERTEX
  8
0
 62
7
  6
CONTINUOUS
 10
130.7188634591
 20
89.4041473802
  0
VERTEX
  8
0
 62
7
  6
CONTINUOUS
 10
130.7503500994
 20
89.459609661
  0
VERTEX
  8
0
 62
7
  6
CONTINUOUS
 10
130.7709136108
 20
89.5075747265
  0
VERTEX
  8
0
 62
7
  6
CONTINUOUS
 10
130.784015165
 20
89.5473533221
  0
VERTEX
  8
0
 62
7
  6
CONTINUOUS
 10
130.7924468239
 20
89.5799313947
  0
VERTEX
  8
0
 62
7
  6
CONTINUOUS
 10
130.7982544604
 20
89.6077514813
  0
VERTEX
  8
0
 62
7
  6
CONTINUOUS
 10
130.8025886767
 20
89.6328580478
  0
VERTEX
  8
0
 62
7
  6
CONTINUOUS
 10
130.8061069146
 20
89.6569700157
  0
VERTEX
  8
0
 62
7
  6
CONTINUOUS
 10
130.8091557811
 20
89.6812492436
  0
VERTEX
  8
0
 62
7
  6
CONTINUOUS
 10
130.8119229476
 20
89.706473159
  0
VERTEX
  8
0
 62
7
  6
CONTINUOUS
 10
130.814521595
 20
89.7332549327
  0
VERTEX
  8
0
 62
7
  6
CONTINUOUS
 10
130.8170203442
 20
89.7620790651
  0
VERTEX
  8
0
 62
7
  6
CONTINUOUS
 10
130.8194603208
 20
89.7933230882
  0
VERTEX
  8
0
 62
7
  6
CONTINUOUS
 10
130.8218664176
 20
89.8272880035
  0
VERTEX
  8
0
 62
7
  6
CONTINUOUS
 10
130.8242538843
 20
89.8642188805
  0
VERTEX
  8
0
 62
7
  6
CONTINUOUS
 10
130.8266320468
 20
89.9043235441
  0
VERTEX
  8
0
 62
7
  6
CONTINUOUS
 10
130.8313784771
 20
89.9947290559
  0
SEQEND
  0
LINE
  8
0
 62
7
  6
CONTINUOUS
 10
157.3193722422
 20
89.1754317341
 11
157.3193254397
 21
89.1754309412
  0
LINE
  8
4_SURFACE
 62
7
  6
CONTINUOUS
 10
28.9974381027
 20
89.1754317341
 11
28.997485041
 21
89.1754309408
  0
POLYLINE
  8
4_SURFACE
 62
7
  6
CONTINUOUS
 66
1
 70
0
  0
VERTEX
  8
4_SURFACE
 62
7
  6
CONTINUOUS
 10
25.9801096952
 20
90.8934954654
  0
VERTEX
  8
4_SURFACE
 62
7
  6
CONTINUOUS
 10
26.0180046421
 20
90.8909315404
  0
VERTEX
  8
4_SURFACE
 62
7
  6
CONTINUOUS
 10
26.0527957419
 20
90.8842061231
  0
VERTEX
  8
4_SURFACE
 62
7
  6
CONTINUOUS
 10
26.0856853175
 20
90.8742237099
  0
VERTEX
  8
4_SURFACE
 62
7
  6
CONTINUOUS
 10
26.1169936053
 20
90.8616584463
  0
VERTEX
  8
4_SURFACE
 62
7
  6
CONTINUOUS
 10
26.1466086176
 20
90.8471019047
  0
VERTEX
  8
4_SURFACE
 62
7
  6
CONTINUOUS
 10
26.1749096402
 20
90.830856677
  0
VERTEX
  8
4_SURFACE
 62
7
  6
CONTINUOUS
 10
26.2018429308
 20
90.8132814681
  0
VERTEX
  8
4_SURFACE
 62
7
  6
CONTINUOUS
 10
26.2277433531
 20
90.794436572
  0
VERTEX
  8
4_SURFACE
 62
7
  6
CONTINUOUS
 10
26.2524917189
 20
90.7746201807
  0
VERTEX
  8
4_SURFACE
 62
7
  6
CONTINUOUS
 10
26.2762364298
 20
90.7538812957
  0
VERTEX
  8
4_SURFACE
 62
7
  6
CONTINUOUS
 10
26.2990064769
 20
90.7323434139
  0
VERTEX
  8
4_SURFACE
 62
7
  6
CONTINUOUS
 10
26.3208332536
 20
90.7100807002
  0
VERTEX
  8
4_SURFACE
 62
7
  6
CONTINUOUS
 10
26.3417854133
 20
90.6871072729
  0
VERTEX
  8
4_SURFACE
 62
7
  6
CONTINUOUS
 10
26.3618826353
 20
90.6634577175
  0
VERTEX
  8
4_SURFACE
 62
7
  6
CONTINUOUS
 10
26.3811418093
 20
90.6391405731
  0
VERTEX
  8
4_SURFACE
 62
7
  6
CONTINUOUS
 10
26.3995630958
 20
90.6141572039
  0
VERTEX
  8
4_SURFACE
 62
7
  6
CONTINUOUS
 10
26.417090165
 20
90.5885649021
  0
VERTEX
  8
4_SURFACE
 62
7
  6
CONTINUOUS
 10
26.4336576212
 20
90.5624211283
  0
VERTEX
  8
4_SURFACE
 62
7
  6
CONTINUOUS
 10
26.4491942402
 20
90.5357665229
  0
VERTEX
  8
4_SURFACE
 62
7
  6
CONTINUOUS
 10
26.4636104629
 20
90.5086527796
  0
VERTEX
  8
4_SURFACE
 62
7
  6
CONTINUOUS
 10
26.4767514214
 20
90.4812379768
  0
VERTEX
  8
4_SURFACE
 62
7
  6
CONTINUOUS
 10
26.4884344973
 20
90.4537295928
  0
VERTEX
  8
4_SURFACE
 62
7
  6
CONTINUOUS
 10
26.491228056
 20
90.4465447004
  0
SEQEND
  0
LINE
  8
4_SURFACE
 62
7
  6
CONTINUOUS
 10
71.4284051724
 20
123.5754309345
 11
71.4284051724
 21
105.5754309345
  0
POLYLINE
  8
4_SURFACE
 62
7
  6
CONTINUOUS
 66
1
 70
0
  0
VERTEX
  8
4_SURFACE
 62
7
  6
CONTINUOUS
 10
79.6974825733
 20
89.1754318464
  0
VERTEX
  8
4_SURFACE
 62
7
  6
CONTINUOUS
 10
79.7436100845
 20
89.1775561316
  0
VERTEX
  8
4_SURFACE
 62
7
  6
CONTINUOUS
 10
79.8446555389
 20
89.1974969561
  0
VERTEX
  8
4_SURFACE
 62
7
  6
CONTINUOUS
 10
79.9359329711
 20
89.2356902229
  0
VERTEX
  8
4_SURFACE
 62
7
  6
CONTINUOUS
 10
80.0130767629
 20
89.2870283555
  0
VERTEX
  8
4_SURFACE
 62
7
  6
CONTINUOUS
 10
80.0737908951
 20
89.3450482937
  0
VERTEX
  8
4_SURFACE
 62
7
  6
CONTINUOUS
 10
80.1188744906
 20
89.4041636423
  0
VERTEX
  8
4_SURFACE
 62
7
  6
CONTINUOUS
 10
80.1503586758
 20
89.459626744
  0
VERTEX
  8
4_SURFACE
 62
7
  6
CONTINUOUS
 10
80.1709195204
 20
89.5075904191
  0
VERTEX
  8
4_SURFACE
 62
7
  6
CONTINUOUS
 10
80.1840186642
 20
89.5473655893
  0
VERTEX
  8
4_SURFACE
 62
7
  6
CONTINUOUS
 10
80.1924485755
 20
89.5799394859
  0
VERTEX
  8
4_SURFACE
 62
7
  6
CONTINUOUS
 10
80.1982551243
 20
89.6077556511
  0
VERTEX
  8
4_SURFACE
 62
7
  6
CONTINUOUS
 10
80.2025887035
 20
89.6328586332
  0
VERTEX
  8
4_SURFACE
 62
7
  6
CONTINUOUS
 10
80.2061072035
 20
89.6569721514
  0
VERTEX
  8
4_SURFACE
 62
7
  6
CONTINUOUS
 10
80.2091561635
 20
89.6812523689
  0
VERTEX
  8
4_SURFACE
 62
7
  6
CONTINUOUS
 10
80.2119233315
 20
89.706476806
  0
VERTEX
  8
4_SURFACE
 62
7
  6
CONTINUOUS
 10
80.2145219465
 20
89.7332588189
  0
VERTEX
  8
4_SURFACE
 62
7
  6
CONTINUOUS
 10
80.2170206533
 20
89.7620829233
  0
VERTEX
  8
4_SURFACE
 62
7
  6
CONTINUOUS
 10
80.2194605872
 20
89.7933265626
  0
VERTEX
  8
4_SURFACE
 62
7
  6
CONTINUOUS
 10
80.2218667039
 20
89.8272918489
  0
VERTEX
  8
4_SURFACE
 62
7
  6
CONTINUOUS
 10
80.2242541774
 20
89.8642233353
  0
VERTEX
  8
4_SURFACE
 62
7
  6
CONTINUOUS
 10
80.2266323329
 20
89.9043285949
  0
VERTEX
  8
4_SURFACE
 62
7
  6
CONTINUOUS
 10
80.2290063569
 20
89.9477825603
  0
VERTEX
  8
4_SURFACE
 62
7
  6
CONTINUOUS
 10
80.2337518981
 20
90.0453521454
  0
SEQEND
  0
POLYLINE
  8
4_SURFACE
 62
7
  6
CONTINUOUS
 66
1
 70
0
  0
VERTEX
  8
4_SURFACE
 62
7
  6
CONTINUOUS
 10
28.9974818844
 20
89.1754324408
  0
VERTEX
  8
4_SURFACE
 62
7
  6
CONTINUOUS
 10
29.0393934632
 20
89.177185457
  0
VERTEX
  8
4_SURFACE
 62
7
  6
CONTINUOUS
 10
29.1407475086
 20
89.1963163004
  0
VERTEX
  8
4_SURFACE
 62
7
  6
CONTINUOUS
 10
29.2324436524
 20
89.233825335
  0
VERTEX
  8
4_SURFACE
 62
7
  6
CONTINUOUS
 10
29.3101928552
 20
89.2847174246
  0
VERTEX
  8
4_SURFACE
 62
7
  6
CONTINUOUS
 10
29.37170721
 20
89.3427110947
  0
VERTEX
  8
4_SURFACE
 62
7
  6
CONTINUOUS
 10
29.4175949283
 20
89.4022143122
  0
VERTEX
  8
4_SURFACE
 62
7
  6
CONTINUOUS
 10
29.4495939033
 20
89.4580688755
  0
VERTEX
  8
4_SURFACE
 62
7
  6
CONTINUOUS
 10
29.4704003139
 20
89.5062002957
  0
VERTEX
  8
4_SURFACE
 62
7
  6
CONTINUOUS
 10
29.4835134059
 20
89.5456261167
  0
VERTEX
  8
4_SURFACE
 62
7
  6
CONTINUOUS
 10
29.4918411257
 20
89.5773263945
  0
VERTEX
  8
4_SURFACE
 62
7
  6
CONTINUOUS
 10
29.4975592572
 20
89.6041115828
  0
VERTEX
  8
4_SURFACE
 62
7
  6
CONTINUOUS
 10
29.5018361955
 20
89.6281695198
  0
VERTEX
  8
4_SURFACE
 62
7
  6
CONTINUOUS
 10
29.5052729154
 20
89.6509036436
  0
VERTEX
  8
4_SURFACE
 62
7
  6
CONTINUOUS
 10
29.5081833842
 20
89.6731285561
  0
VERTEX
  8
4_SURFACE
 62
7
  6
CONTINUOUS
 10
29.5107650496
 20
89.6955236959
  0
VERTEX
  8
4_SURFACE
 62
7
  6
CONTINUOUS
 10
29.5131511324
 20
89.7187399828
  0
VERTEX
  8
4_SURFACE
 62
7
  6
CONTINUOUS
 10
29.5154132456
 20
89.7431837294
  0
VERTEX
  8
4_SURFACE
 62
7
  6
CONTINUOUS
 10
29.5175957091
 20
89.7691644342
  0
VERTEX
  8
4_SURFACE
 62
7
  6
CONTINUOUS
 10
29.5197270155
 20
89.7969308059
  0
VERTEX
  8
4_SURFACE
 62
7
  6
CONTINUOUS
 10
29.521825858
 20
89.8266887398
  0
VERTEX
  8
4_SURFACE
 62
7
  6
CONTINUOUS
 10
29.52390503
 20
89.8586171948
  0
VERTEX
  8
4_SURFACE
 62
7
  6
CONTINUOUS
 10
29.525973486
 20
89.8928795495
  0
VERTEX
  8
4_SURFACE
 62
7
  6
CONTINUOUS
 10
29.5301010711
 20
89.9690024249
  0
SEQEND
  0
LINE
  8
4_SURFACE
 62
7
  6
CONTINUOUS
 10
56.0193252835
 20
89.1754309407
 11
56.0193722422
 21
89.1754317341
  0
LINE
  8
0
 62
7
  6
CONTINUOUS
 10
106.6193249065
 20
89.1754309397
 11
106.6193722422
 21
89.1754317341
  0
LINE
  8
0
 62
7
  6
CONTINUOUS
 10
64.7355052088
 20
89.1754311344
 11
56.0193722422
 21
89.1754317341
  0
LINE
  8
0
 62
7
  6
CONTINUOUS
 10
79.6974381027
 20
89.1754317341
 11
70.9813051345
 21
89.1754311344
  0
LINE
  8
4_SURFACE
 62
7
  6
CONTINUOUS
 10
28.9974381027
 20
89.1754317341
 11
27.0412495617
 21
89.1754317341
  0
LINE
  8
4_SURFACE
 62
7
  6
CONTINUOUS
 10
20.0755607831
 20
89.1754317341
 11
17.5584051724
 21
89.1754317341
  0
LINE
  8
4_SURFACE
 62
7
  6
CONTINUOUS
 10
56.0193211212
 20
89.1754309345
 11
79.6974892237
 21
89.1754309345
  0
LINE
  8
0
 62
7
  6
CONTINUOUS
 10
106.6193211212
 20
89.1754309345
 11
130.2974381027
 21
89.1754317341
  0
LINE
  8
0
 62
7
  6
CONTINUOUS
 10
157.3193211212
 20
89.1754309345
 11
159.27556494
 21
89.1754309345
  0
LINE
  8
0
 62
7
  6
CONTINUOUS
 10
166.2412454048
 20
89.1754309345
 11
168.7584051724
 21
89.1754309345
  0
LINE
  8
0
 62
7
  6
CONTINUOUS
 10
165.1801091165
 20
90.8935031154
 11
160.336700652
 21
90.8935031154
  0
LINE
  8
4_SURFACE
 62
7
  6
CONTINUOUS
 10
25.9801096928
 20
90.8935031154
 11
21.1367012284
 21
90.8935031154
  0
POLYLINE
  8
0
 62
7
  6
CONTINUOUS
 66
1
 70
0
  0
VERTEX
  8
0
 62
7
  6
CONTINUOUS
 10
165.1801091174
 20
90.893495457
  0
VERTEX
  8
0
 62
7
  6
CONTINUOUS
 10
165.1862491622
 20
90.8934321214
  0
VERTEX
  8
0
 62
7
  6
CONTINUOUS
 10
165.2233933127
 20
90.8901514027
  0
VERTEX
  8
0
 62
7
  6
CONTINUOUS
 10
165.2593167566
 20
90.8825037202
  0
VERTEX
  8
0
 62
7
  6
CONTINUOUS
 10
165.2932191393
 20
90.8714639128
  0
VERTEX
  8
0
 62
7
  6
CONTINUOUS
 10
165.3253557834
 20
90.8578111526
  0
VERTEX
  8
0
 62
7
  6
CONTINUOUS
 10
165.3558355326
 20
90.8420518079
  0
VERTEX
  8
0
 62
7
  6
CONTINUOUS
 10
165.3848252807
 20
90.8246286002
  0
VERTEX
  8
0
 62
7
  6
CONTINUOUS
 10
165.4125331756
 20
90.8057336227
  0
VERTEX
  8
0
 62
7
  6
CONTINUOUS
 10
165.439092632
 20
90.7855737214
  0
VERTEX
  8
0
 62
7
  6
CONTINUOUS
 10
165.4644631901
 20
90.7643785694
  0
VERTEX
  8
0
 62
7
  6
CONTINUOUS
 10
165.4887832463
 20
90.7422192405
  0
VERTEX
  8
0
 62
7
  6
CONTINUOUS
 10
165.5120431657
 20
90.7192440182
  0
VERTEX
  8
0
 62
7
  6
CONTINUOUS
 10
165.5343173918
 20
90.6954841784
  0
VERTEX
  8
0
 62
7
  6
CONTINUOUS
 10
165.5556364476
 20
90.6709872652
  0
VERTEX
  8
0
 62
7
  6
CONTINUOUS
 10
165.5760171157
 20
90.6457807783
  0
VERTEX
  8
0
 62
7
  6
CONTINUOUS
 10
165.5954644398
 20
90.6198747462
  0
VERTEX
  8
0
 62
7
  6
CONTINUOUS
 10
165.613939945
 20
90.593309667
  0
VERTEX
  8
0
 62
7
  6
CONTINUOUS
 10
165.6313698025
 20
90.5661594682
  0
VERTEX
  8
0
 62
7
  6
CONTINUOUS
 10
165.6476824204
 20
90.5384660174
  0
VERTEX
  8
0
 62
7
  6
CONTINUOUS
 10
165.6627881598
 20
90.5102733344
  0
VERTEX
  8
0
 62
7
  6
CONTINUOUS
 10
165.6765248028
 20
90.4817382289
  0
VERTEX
  8
0
 62
7
  6
CONTINUOUS
 10
165.6886876734
 20
90.4530898772
  0
VERTEX
  8
0
 62
7
  6
CONTINUOUS
 10
165.6912281293
 20
90.4465445608
  0
SEQEND
  0
LINE
  8
4_SURFACE
 62
7
  6
CONTINUOUS
 10
79.6974853182
 20
89.17543094
 11
79.6974381027
 21
89.1754317341
  0
LINE
  8
0
 62
7
  6
CONTINUOUS
 10
130.2974849411
 20
89.1754309411
 11
130.2974381027
 21
89.1754317341
  0
POLYLINE
  8
4_SURFACE
 62
7
  6
CONTINUOUS
 66
1
 70
0
  0
VERTEX
  8
4_SURFACE
 62
7
  6
CONTINUOUS
 10
55.1524313034
 20
130.0051102668
  0
VERTEX
  8
4_SURFACE
 62
7
  6
CONTINUOUS
 10
55.0863860603
 20
130.1129534212
  0
VERTEX
  8
4_SURFACE
 62
7
  6
CONTINUOUS
 10
55.0380805255
 20
130.2301113387
  0
VERTEX
  8
4_SURFACE
 62
7
  6
CONTINUOUS
 10
55.0090435493
 20
130.3524130113
  0
SEQEND
  0
LINE
  8
4_SURFACE
 62
7
  6
CONTINUOUS
 10
76.9384051724
 20
105.5754309345
 11
76.9384051724
 21
123.5754309345
  0
POLYLINE
  8
4_SURFACE
 62
7
  6
CONTINUOUS
 66
1
 70
0
  0
VERTEX
  8
4_SURFACE
 62
7
  6
CONTINUOUS
 10
29.929372556
 20
99.3226172284
  0
VERTEX
  8
4_SURFACE
 62
7
  6
CONTINUOUS
 10
30.0372940995
 20
99.3886488951
  0
VERTEX
  8
4_SURFACE
 62
7
  6
CONTINUOUS
 10
30.1545064903
 20
99.4369245702
  0
VERTEX
  8
4_SURFACE
 62
7
  6
CONTINUOUS
 10
30.2768167549
 20
99.4659279967
  0
VERTEX
  8
4_SURFACE
 62
7
  6
CONTINUOUS
 10
30.383993739
 20
99.4752748885
  0
SEQEND
  0
POLYLINE
  8
4_SURFACE
 62
7
  6
CONTINUOUS
 66
1
 70
0
  0
VERTEX
  8
4_SURFACE
 62
7
  6
CONTINUOUS
 10
80.3874377889
 20
129.8282446406
  0
VERTEX
  8
4_SURFACE
 62
7
  6
CONTINUOUS
 10
80.2795162454
 20
129.762212974
  0
VERTEX
  8
4_SURFACE
 62
7
  6
CONTINUOUS
 10
80.1623038545
 20
129.7139372989
  0
VERTEX
  8
4_SURFACE
 62
7
  6
CONTINUOUS
 10
80.03999359
 20
129.6849338724
  0
VERTEX
  8
4_SURFACE
 62
7
  6
CONTINUOUS
 10
79.9328166058
 20
129.6755869806
  0
SEQEND
  0
POLYLINE
  8
0
 62
7
  6
CONTINUOUS
 66
1
 70
0
  0
VERTEX
  8
0
 62
7
  6
CONTINUOUS
 10
131.6839170963
 20
99.4752733713
  0
VERTEX
  8
0
 62
7
  6
CONTINUOUS
 10
131.5768167549
 20
99.4659279967
  0
VERTEX
  8
0
 62
7
  6
CONTINUOUS
 10
131.4545064903
 20
99.4369245702
  0
VERTEX
  8
0
 62
7
  6
CONTINUOUS
 10
131.3372940995
 20
99.3886488951
  0
VERTEX
  8
0
 62
7
  6
CONTINUOUS
 10
131.229372556
 20
99.3226172284
  0
VERTEX
  8
0
 62
7
  6
CONTINUOUS
 10
131.1339381531
 20
99.2411343026
  0
SEQEND
  0
LINE
  8
0
 62
7
  6
CONTINUOUS
 10
131.6997995024
 20
99.4754309345
 11
131.6839170963
 21
99.4752733713
  0
LINE
  8
1_AXIS
 62
2
  6
CENTER
 10
14.1777899344
 20
95.5254309345
 11
171.2584051724
 21
95.5254309345
  0
LINE
  8
4_SURFACE
 62
7
  6
CONTINUOUS
 10
54.6170108424
 20
99.4754309345
 11
54.6328932485
 21
99.4752733713
  0
POLYLINE
  8
4_SURFACE
 62
7
  6
CONTINUOUS
 66
1
 70
0
  0
VERTEX
  8
4_SURFACE
 62
7
  6
CONTINUOUS
 10
54.6328951552
 20
99.4752696968
  0
VERTEX
  8
4_SURFACE
 62
7
  6
CONTINUOUS
 10
54.705056341
 20
99.4705737597
  0
VERTEX
  8
4_SURFACE
 62
7
  6
CONTINUOUS
 10
54.8369207356
 20
99.4446275299
  0
VERTEX
  8
4_SURFACE
 62
7
  6
CONTINUOUS
 10
54.9626136036
 20
99.3969694619
  0
VERTEX
  8
4_SURFACE
 62
7
  6
CONTINUOUS
 10
55.0785636961
 20
99.328940213
  0
VERTEX
  8
4_SURFACE
 62
7
  6
CONTINUOUS
 10
55.1814806593
 20
99.2424683786
  0
VERTEX
  8
4_SURFACE
 62
7
  6
CONTINUOUS
 10
55.2684576257
 20
99.1400027906
  0
VERTEX
  8
4_SURFACE
 62
7
  6
CONTINUOUS
 10
55.3370480562
 20
99.0244336593
  0
VERTEX
  8
4_SURFACE
 62
7
  6
CONTINUOUS
 10
55.3853199318
 20
98.8990211122
  0
VERTEX
  8
4_SURFACE
 62
7
  6
CONTINUOUS
 10
55.4119144107
 20
98.767308464
  0
VERTEX
  8
4_SURFACE
 62
7
  6
CONTINUOUS
 10
55.4172054694
 20
98.6754309344
  0
SEQEND
  0
POLYLINE
  8
4_SURFACE
 62
7
  6
CONTINUOUS
 66
1
 70
0
  0
VERTEX
  8
4_SURFACE
 62
7
  6
CONTINUOUS
 10
54.6328932485
 20
99.4752733713
  0
VERTEX
  8
4_SURFACE
 62
7
  6
CONTINUOUS
 10
54.73999359
 20
99.4659279967
  0
VERTEX
  8
4_SURFACE
 62
7
  6
CONTINUOUS
 10
54.8623038545
 20
99.4369245702
  0
VERTEX
  8
4_SURFACE
 62
7
  6
CONTINUOUS
 10
54.9795162454
 20
99.3886488951
  0
VERTEX
  8
4_SURFACE
 62
7
  6
CONTINUOUS
 10
55.0874377889
 20
99.3226172284
  0
VERTEX
  8
4_SURFACE
 62
7
  6
CONTINUOUS
 10
55.1828721918
 20
99.2411343026
  0
SEQEND
  0
LINE
  8
4_SURFACE
 62
7
  6
CONTINUOUS
 10
80.2962784055
 20
94.0440321936
 11
80.2996014759
 21
98.6754309345
  0
LINE
  8
4_SURFACE
 62
7
  6
CONTINUOUS
 10
80.7206622596
 20
135.1351083364
 11
80.7172088689
 21
130.4754309345
  0
LINE
  8
4_SURFACE
 62
7
  6
CONTINUOUS
 10
80.2876790018
 20
92.7799418342
 11
80.2962784055
 21
94.0440321936
  0
LINE
  8
4_SURFACE
 62
7
  6
CONTINUOUS
 10
80.7295298794
 20
136.4135458849
 11
80.7206622596
 21
135.1351083364
  0
LINE
  8
4_SURFACE
 62
7
  6
CONTINUOUS
 10
80.2780346399
 20
91.9262810683
 11
80.2876790018
 21
92.7799418342
  0
LINE
  8
4_SURFACE
 62
7
  6
CONTINUOUS
 10
80.7397447732
 20
137.2948231372
 11
80.7295298794
 21
136.4135458849
  0
LINE
  8
4_SURFACE
 62
7
  6
CONTINUOUS
 10
80.7493696175
 20
137.8917933547
 11
80.7397447732
 21
137.2948231372
  0
LINE
  8
4_SURFACE
 62
7
  6
CONTINUOUS
 10
80.2670324466
 20
91.2371417741
 11
80.2780346399
 21
91.9262810683
  0
LINE
  8
4_SURFACE
 62
7
  6
CONTINUOUS
 10
80.7575108383
 20
138.2876662343
 11
80.7493696175
 21
137.8917933547
  0
LINE
  8
4_SURFACE
 62
7
  6
CONTINUOUS
 10
80.2576580313
 20
90.7929122992
 11
80.2670324466
 21
91.2371417741
  0
LINE
  8
4_SURFACE
 62
7
  6
CONTINUOUS
 10
80.7658470059
 20
138.6162125921
 11
80.7575108383
 21
138.2876662343
  0
LINE
  8
4_SURFACE
 62
7
  6
CONTINUOUS
 10
80.2504808032
 20
90.5176735116
 11
80.2576580313
 21
90.7929122992
  0
LINE
  8
4_SURFACE
 62
7
  6
CONTINUOUS
 10
80.7721384646
 20
138.821819291
 11
80.7658470059
 21
138.6162125921
  0
LINE
  8
4_SURFACE
 62
7
  6
CONTINUOUS
 10
80.2432866319
 20
90.288143362
 11
80.2504808032
 21
90.5176735116
  0
LINE
  8
4_SURFACE
 62
7
  6
CONTINUOUS
 10
80.2385092116
 20
90.1583197727
 11
80.2432866319
 21
90.288143362
  0
LINE
  8
4_SURFACE
 62
7
  6
CONTINUOUS
 10
80.7784125334
 20
138.9953687647
 11
80.7721384646
 21
138.821819291
  0
LINE
  8
4_SURFACE
 62
7
  6
CONTINUOUS
 10
80.7825712995
 20
139.0946561856
 11
80.7784125334
 21
138.9953687647
  0
LINE
  8
4_SURFACE
 62
7
  6
CONTINUOUS
 10
80.2337518981
 20
90.0453521454
 11
80.2385092116
 21
90.1583197727
  0
LINE
  8
4_SURFACE
 62
7
  6
CONTINUOUS
 10
80.7867092737
 20
139.1818594442
 11
80.7825712995
 21
139.0946561856
  0
POLYLINE
  8
4_SURFACE
 62
7
  6
CONTINUOUS
 66
1
 70
0
  0
VERTEX
  8
4_SURFACE
 62
7
  6
CONTINUOUS
 10
80.7172054761
 20
130.4754309347
  0
VERTEX
  8
4_SURFACE
 62
7
  6
CONTINUOUS
 10
80.7123478964
 20
130.3873830438
  0
VERTEX
  8
4_SURFACE
 62
7
  6
CONTINUOUS
 10
80.6863922073
 20
130.2555563769
  0
VERTEX
  8
4_SURFACE
 62
7
  6
CONTINUOUS
 10
80.6387303137
 20
130.1299185981
  0
VERTEX
  8
4_SURFACE
 62
7
  6
CONTINUOUS
 10
80.5707039169
 20
130.0140235063
  0
VERTEX
  8
4_SURFACE
 62
7
  6
CONTINUOUS
 10
80.4842323151
 20
129.9111446415
  0
VERTEX
  8
4_SURFACE
 62
7
  6
CONTINUOUS
 10
80.3817507496
 20
129.8241831377
  0
VERTEX
  8
4_SURFACE
 62
7
  6
CONTINUOUS
 10
80.266147276
 20
129.7555947875
  0
VERTEX
  8
4_SURFACE
 62
7
  6
CONTINUOUS
 10
80.1406889618
 20
129.7073212627
  0
VERTEX
  8
4_SURFACE
 62
7
  6
CONTINUOUS
 10
80.0089270572
 20
129.6807259629
  0
VERTEX
  8
4_SURFACE
 62
7
  6
CONTINUOUS
 10
79.9328185036
 20
129.6755906583
  0
SEQEND
  0
POLYLINE
  8
4_SURFACE
 62
7
  6
CONTINUOUS
 66
1
 70
0
  0
VERTEX
  8
4_SURFACE
 62
7
  6
CONTINUOUS
 10
80.2996049526
 20
98.6754309344
  0
VERTEX
  8
4_SURFACE
 62
7
  6
CONTINUOUS
 10
80.3048873747
 20
98.7672341909
  0
VERTEX
  8
4_SURFACE
 62
7
  6
CONTINUOUS
 10
80.3314595993
 20
98.8989162203
  0
VERTEX
  8
4_SURFACE
 62
7
  6
CONTINUOUS
 10
80.3797108487
 20
99.0243276843
  0
VERTEX
  8
4_SURFACE
 62
7
  6
CONTINUOUS
 10
80.4482837709
 20
99.1399061899
  0
VERTEX
  8
4_SURFACE
 62
7
  6
CONTINUOUS
 10
80.5352355529
 20
99.2423745796
  0
VERTEX
  8
4_SURFACE
 62
7
  6
CONTINUOUS
 10
80.6381073659
 20
99.3288415762
  0
VERTEX
  8
4_SURFACE
 62
7
  6
CONTINUOUS
 10
80.7540088802
 20
99.3968791864
  0
VERTEX
  8
4_SURFACE
 62
7
  6
CONTINUOUS
 10
80.8696148
 20
99.4416153124
  0
SEQEND
  0
LINE
  8
4_SURFACE
 62
7
  6
CONTINUOUS
 10
80.3090201044
 20
98.7982981639
 11
80.2995253235
 21
98.6754309345
  0
POLYLINE
  8
4_SURFACE
 62
7
  6
CONTINUOUS
 66
1
 70
0
  0
VERTEX
  8
4_SURFACE
 62
7
  6
CONTINUOUS
 10
80.7172850213
 20
130.4754309345
  0
VERTEX
  8
4_SURFACE
 62
7
  6
CONTINUOUS
 10
80.7077667955
 20
130.3524130113
  0
VERTEX
  8
4_SURFACE
 62
7
  6
CONTINUOUS
 10
80.6787298194
 20
130.2301113387
  0
VERTEX
  8
4_SURFACE
 62
7
  6
CONTINUOUS
 10
80.6304242845
 20
130.1129534212
  0
VERTEX
  8
4_SURFACE
 62
7
  6
CONTINUOUS
 10
80.5643790414
 20
130.0051102668
  0
VERTEX
  8
4_SURFACE
 62
7
  6
CONTINUOUS
 10
80.4828721918
 20
129.9097275665
  0
SEQEND
  0
POLYLINE
  8
4_SURFACE
 62
7
  6
CONTINUOUS
 66
1
 70
0
  0
VERTEX
  8
4_SURFACE
 62
7
  6
CONTINUOUS
 10
81.0997995024
 20
99.4754309345
  0
VERTEX
  8
4_SURFACE
 62
7
  6
CONTINUOUS
 10
80.9764982295
 20
99.46587841
  0
VERTEX
  8
4_SURFACE
 62
7
  6
CONTINUOUS
 10
80.8696375065
 20
99.4416304887
  0
SEQEND
  0
LINE
  8
4_SURFACE
 62
7
  6
CONTINUOUS
 10
30.383993739
 20
99.4752748885
 11
30.3997995024
 21
99.4754309345
  0
LINE
  8
0
 62
7
  6
CONTINUOUS
 10
155.9170108424
 20
99.4754309345
 11
131.6997995024
 21
99.4754309345
  0
LINE
  8
0
 62
7
  6
CONTINUOUS
 10
105.2170108424
 20
99.4754309345
 11
81.0997995024
 21
99.4754309345
  0
LINE
  8
4_SURFACE
 62
7
  6
CONTINUOUS
 10
54.6170108424
 20
99.4754309345
 11
30.3997995024
 21
99.4754309345
  0
LINE
  8
0
 62
7
  6
CONTINUOUS
 10
151.8384051724
 20
104.5754309345
 11
148.3284051724
 21
104.5754309345
  0
LINE
  8
0
 62
7
  6
CONTINUOUS
 10
139.1884051724
 20
104.5754309345
 11
135.6784051724
 21
104.5754309345
  0
LINE
  8
0
 62
7
  6
CONTINUOUS
 10
126.5384051724
 20
104.5754309345
 11
123.0284051724
 21
104.5754309345
  0
LINE
  8
0
 62
7
  6
CONTINUOUS
 10
113.8884051724
 20
104.5754309345
 11
110.3784051724
 21
104.5754309345
  0
LINE
  8
0
 62
7
  6
CONTINUOUS
 10
101.2384051724
 20
104.5754309345
 11
97.7284051724
 21
104.5754309345
  0
LINE
  8
4_SURFACE
 62
7
  6
CONTINUOUS
 10
34.4784051724
 20
104.5754309345
 11
37.9884051724
 21
104.5754309345
  0
LINE
  8
4_SURFACE
 62
7
  6
CONTINUOUS
 10
47.1284051724
 20
104.5754309345
 11
50.6384051724
 21
104.5754309345
  0
LINE
  8
4_SURFACE
 62
7
  6
CONTINUOUS
 10
59.7784051724
 20
104.5754309345
 11
63.2884051724
 21
104.5754309345
  0
LINE
  8
4_SURFACE
 62
7
  6
CONTINUOUS
 10
72.4284051724
 20
104.5754309345
 11
75.9384051724
 21
104.5754309345
  0
LINE
  8
4_SURFACE
 62
7
  6
CONTINUOUS
 10
85.0784051724
 20
104.5754309345
 11
88.5884051724
 21
104.5754309345
  0
LINE
  8
0
 62
7
  6
CONTINUOUS
 10
155.9328166058
 20
99.4752748885
 11
155.9170108424
 21
99.4754309345
  0
POLYLINE
  8
0
 62
7
  6
CONTINUOUS
 66
1
 70
0
  0
VERTEX
  8
0
 62
7
  6
CONTINUOUS
 10
155.9328185036
 20
99.4752712108
  0
VERTEX
  8
0
 62
7
  6
CONTINUOUS
 10
156.0089270572
 20
99.4701359061
  0
VERTEX
  8
0
 62
7
  6
CONTINUOUS
 10
156.1406889618
 20
99.4435406064
  0
VERTEX
  8
0
 62
7
  6
CONTINUOUS
 10
156.266147276
 20
99.3952670815
  0
VERTEX
  8
0
 62
7
  6
CONTINUOUS
 10
156.3817507496
 20
99.3266787314
  0
VERTEX
  8
0
 62
7
  6
CONTINUOUS
 10
156.4842323151
 20
99.2397172275
  0
VERTEX
  8
0
 62
7
  6
CONTINUOUS
 10
156.5707039169
 20
99.1368383628
  0
VERTEX
  8
0
 62
7
  6
CONTINUOUS
 10
156.6387303137
 20
99.020943271
  0
VERTEX
  8
0
 62
7
  6
CONTINUOUS
 10
156.6863922073
 20
98.8953054922
  0
VERTEX
  8
0
 62
7
  6
CONTINUOUS
 10
156.7123478964
 20
98.7634788253
  0
VERTEX
  8
0
 62
7
  6
CONTINUOUS
 10
156.7172054761
 20
98.6754309344
  0
SEQEND
  0
POLYLINE
  8
0
 62
7
  6
CONTINUOUS
 66
1
 70
0
  0
VERTEX
  8
0
 62
7
  6
CONTINUOUS
 10
105.2170108424
 20
99.4754309345
  0
VERTEX
  8
0
 62
7
  6
CONTINUOUS
 10
105.3403121153
 20
99.46587841
  0
VERTEX
  8
0
 62
7
  6
CONTINUOUS
 10
105.4471728383
 20
99.4416304887
  0
SEQEND
  0
POLYLINE
  8
0
 62
7
  6
CONTINUOUS
 66
1
 70
0
  0
VERTEX
  8
0
 62
7
  6
CONTINUOUS
 10
105.4471728383
 20
99.4416304887
  0
VERTEX
  8
0
 62
7
  6
CONTINUOUS
 10
105.4623501529
 20
99.4369096657
  0
VERTEX
  8
0
 62
7
  6
CONTINUOUS
 10
105.5796693033
 20
99.388571133
  0
VERTEX
  8
0
 62
7
  6
CONTINUOUS
 10
105.6875088745
 20
99.3225655859
  0
VERTEX
  8
0
 62
7
  6
CONTINUOUS
 10
105.7829064347
 20
99.2411000692
  0
SEQEND
  0
LINE
  8
4_SURFACE
 62
7
  6
CONTINUOUS
 10
84.0784051724
 20
123.5754309345
 11
84.0784051724
 21
105.5754309345
  0
LINE
  8
4_SURFACE
 62
7
  6
CONTINUOUS
 10
80.3380122022
 20
98.9205384314
 11
80.3090201044
 21
98.7982981639
  0
LINE
  8
4_SURFACE
 62
7
  6
CONTINUOUS
 10
80.3862987097
 20
99.0377365941
 11
80.3380122022
 21
98.9205384314
  0
POLYLINE
  8
0
 62
7
  6
CONTINUOUS
 66
1
 70
0
  0
VERTEX
  8
0
 62
7
  6
CONTINUOUS
 10
105.4471955448
 20
99.4416153124
  0
VERTEX
  8
0
 62
7
  6
CONTINUOUS
 10
105.5628014647
 20
99.3968791864
  0
VERTEX
  8
0
 62
7
  6
CONTINUOUS
 10
105.6787029789
 20
99.3288415762
  0
VERTEX
  8
0
 62
7
  6
CONTINUOUS
 10
105.7815747919
 20
99.2423745796
  0
VERTEX
  8
0
 62
7
  6
CONTINUOUS
 10
105.868526574
 20
99.1399061899
  0
VERTEX
  8
0
 62
7
  6
CONTINUOUS
 10
105.9370994961
 20
99.0243276843
  0
VERTEX
  8
0
 62
7
  6
CONTINUOUS
 10
105.9853507456
 20
98.8989162203
  0
VERTEX
  8
0
 62
7
  6
CONTINUOUS
 10
106.0119229701
 20
98.7672341909
  0
VERTEX
  8
0
 62
7
  6
CONTINUOUS
 10
106.0172053922
 20
98.6754309344
  0
SEQEND
  0
LINE
  8
4_SURFACE
 62
7
  6
CONTINUOUS
 10
89.5884051724
 20
105.5754309345
 11
89.5884051724
 21
123.5754309345
  0
LINE
  8
4_SURFACE
 62
7
  6
CONTINUOUS
 10
80.4523772753
 20
99.1456772761
 11
80.3862987097
 21
99.0377365941
  0
LINE
  8
0
 62
7
  6
CONTINUOUS
 10
96.7284051724
 20
105.5754309345
 11
96.7284051724
 21
123.5754309345
  0
LINE
  8
0
 62
7
  6
CONTINUOUS
 10
105.8644330695
 20
99.1456772761
 11
105.9305116351
 21
99.0377365941
  0
LINE
  8
0
 62
7
  6
CONTINUOUS
 10
105.9305116351
 20
99.0377365941
 11
105.9787981426
 21
98.9205384314
  0
LINE
  8
0
 62
7
  6
CONTINUOUS
 10
102.2384051724
 20
123.5754309345
 11
102.2384051724
 21
105.5754309345
  0
POLYLINE
  8
4_SURFACE
 62
7
  6
CONTINUOUS
 66
1
 70
0
  0
VERTEX
  8
4_SURFACE
 62
7
  6
CONTINUOUS
 10
80.8696375065
 20
99.4416304887
  0
VERTEX
  8
4_SURFACE
 62
7
  6
CONTINUOUS
 10
80.8544601919
 20
99.4369096657
  0
VERTEX
  8
4_SURFACE
 62
7
  6
CONTINUOUS
 10
80.7371410415
 20
99.388571133
  0
VERTEX
  8
4_SURFACE
 62
7
  6
CONTINUOUS
 10
80.6293014703
 20
99.3225655859
  0
VERTEX
  8
4_SURFACE
 62
7
  6
CONTINUOUS
 10
80.5339039102
 20
99.2411000692
  0
SEQEND
  0
LINE
  8
4_SURFACE
 62
7
  6
CONTINUOUS
 10
88.5884051724
 20
124.5754309345
 11
85.0784051724
 21
124.5754309345
  0
LINE
  8
4_SURFACE
 62
7
  6
CONTINUOUS
 10
75.9384051724
 20
124.5754309345
 11
72.4284051724
 21
124.5754309345
  0
LINE
  8
4_SURFACE
 62
7
  6
CONTINUOUS
 10
63.2884051724
 20
124.5754309345
 11
59.7784051724
 21
124.5754309345
  0
LINE
  8
4_SURFACE
 62
7
  6
CONTINUOUS
 10
50.6384051724
 20
124.5754309345
 11
47.1284051724
 21
124.5754309345
  0
LINE
  8
4_SURFACE
 62
7
  6
CONTINUOUS
 10
37.9884051724
 20
124.5754309345
 11
34.4784051724
 21
124.5754309345
  0
LINE
  8
0
 62
7
  6
CONTINUOUS
 10
97.7284051724
 20
124.5754309345
 11
101.2384051724
 21
124.5754309345
  0
LINE
  8
0
 62
7
  6
CONTINUOUS
 10
110.3784051724
 20
124.5754309345
 11
113.8884051724
 21
124.5754309345
  0
LINE
  8
0
 62
7
  6
CONTINUOUS
 10
123.0284051724
 20
124.5754309345
 11
126.5384051724
 21
124.5754309345
  0
LINE
  8
0
 62
7
  6
CONTINUOUS
 10
135.6784051724
 20
124.5754309345
 11
139.1884051724
 21
124.5754309345
  0
LINE
  8
0
 62
7
  6
CONTINUOUS
 10
148.3284051724
 20
124.5754309345
 11
151.8384051724
 21
124.5754309345
  0
LINE
  8
0
 62
7
  6
CONTINUOUS
 10
105.9787981426
 20
98.9205384314
 11
106.0077902404
 21
98.7982981639
  0
LINE
  8
0
 62
7
  6
CONTINUOUS
 10
106.0077902404
 20
98.7982981639
 11
106.0172850213
 21
98.6754309345
  0
POLYLINE
  8
0
 62
7
  6
CONTINUOUS
 66
1
 70
0
  0
VERTEX
  8
0
 62
7
  6
CONTINUOUS
 10
105.5995253235
 20
130.4754309345
  0
VERTEX
  8
0
 62
7
  6
CONTINUOUS
 10
105.6090435493
 20
130.3524130113
  0
VERTEX
  8
0
 62
7
  6
CONTINUOUS
 10
105.6380805255
 20
130.2301113387
  0
VERTEX
  8
0
 62
7
  6
CONTINUOUS
 10
105.6863860603
 20
130.1129534212
  0
VERTEX
  8
0
 62
7
  6
CONTINUOUS
 10
105.7524313034
 20
130.0051102668
  0
VERTEX
  8
0
 62
7
  6
CONTINUOUS
 10
105.8339381531
 20
129.9097275665
  0
SEQEND
  0
POLYLINE
  8
0
 62
7
  6
CONTINUOUS
 66
1
 70
0
  0
VERTEX
  8
0
 62
7
  6
CONTINUOUS
 10
106.0902161695
 20
89.903658359
  0
VERTEX
  8
0
 62
7
  6
CONTINUOUS
 10
106.0924951459
 20
89.8652105097
  0
VERTEX
  8
0
 62
7
  6
CONTINUOUS
 10
106.094789659
 20
89.8295753956
  0
VERTEX
  8
0
 62
7
  6
CONTINUOUS
 10
106.097110032
 20
89.7965676921
  0
VERTEX
  8
0
 62
7
  6
CONTINUOUS
 10
106.0994692964
 20
89.7660073277
  0
VERTEX
  8
0
 62
7
  6
CONTINUOUS
 10
106.1018880297
 20
89.7376690381
  0
VERTEX
  8
0
 62
7
  6
CONTINUOUS
 10
106.1044007988
 20
89.711251212
  0
VERTEX
  8
0
 62
7
  6
CONTINUOUS
 10
106.1070655614
 20
89.6863500659
  0
VERTEX
  8
0
 62
7
  6
CONTINUOUS
 10
106.109981763
 20
89.6624103078
  0
VERTEX
  8
0
 62
7
  6
CONTINUOUS
 10
106.1133288673
 20
89.6386232886
  0
VERTEX
  8
0
 62
7
  6
CONTINUOUS
 10
106.1174264227
 20
89.6138766234
  0
VERTEX
  8
0
 62
7
  6
CONTINUOUS
 10
106.1228302982
 20
89.5867517267
  0
VERTEX
  8
0
 62
7
  6
CONTINUOUS
 10
106.1306504528
 20
89.5549713659
  0
VERTEX
  8
0
 62
7
  6
CONTINUOUS
 10
106.1430319691
 20
89.5154630181
  0
VERTEX
  8
0
 62
7
  6
CONTINUOUS
 10
106.1632552672
 20
89.4662865524
  0
VERTEX
  8
0
 62
7
  6
CONTINUOUS
 10
106.1946409691
 20
89.4092760926
  0
VERTEX
  8
0
 62
7
  6
CONTINUOUS
 10
106.2398462445
 20
89.3486654085
  0
VERTEX
  8
0
 62
7
  6
CONTINUOUS
 10
106.3019735867
 20
89.2884563143
  0
VERTEX
  8
0
 62
7
  6
CONTINUOUS
 10
106.3820013597
 20
89.2350854078
  0
VERTEX
  8
0
 62
7
  6
CONTINUOUS
 10
106.4764718516
 20
89.1961939738
  0
VERTEX
  8
0
 62
7
  6
CONTINUOUS
 10
106.5792242557
 20
89.1770366472
  0
VERTEX
  8
0
 62
7
  6
CONTINUOUS
 10
106.6193276572
 20
89.1754318463
  0
SEQEND
  0
POLYLINE
  8
0
 62
7
  6
CONTINUOUS
 66
1
 70
0
  0
VERTEX
  8
0
 62
7
  6
CONTINUOUS
 10
105.5267106237
 20
139.2451553692
  0
VERTEX
  8
0
 62
7
  6
CONTINUOUS
 10
105.5244358533
 20
139.2836927875
  0
VERTEX
  8
0
 62
7
  6
CONTINUOUS
 10
105.5221460764
 20
139.3194166302
  0
VERTEX
  8
0
 62
7
  6
CONTINUOUS
 10
105.519831178
 20
139.3525115009
  0
VERTEX
  8
0
 62
7
  6
CONTINUOUS
 10
105.5174781407
 20
139.3831591976
  0
VERTEX
  8
0
 62
7
  6
CONTINUOUS
 10
105.5150670916
 20
139.4115788957
  0
VERTEX
  8
0
 62
7
  6
CONTINUOUS
 10
105.5125645408
 20
139.4380662143
  0
VERTEX
  8
0
 62
7
  6
CONTINUOUS
 10
105.5099144267
 20
139.4630163472
  0
VERTEX
  8
0
 62
7
  6
CONTINUOUS
 10
105.507020776
 20
139.4869717558
  0
VERTEX
  8
0
 62
7
  6
CONTINUOUS
 10
105.5037114282
 20
139.5107170262
  0
VERTEX
  8
0
 62
7
  6
CONTINUOUS
 10
105.4996741979
 20
139.535367506
  0
VERTEX
  8
0
 62
7
  6
CONTINUOUS
 10
105.4943761417
 20
139.562293147
  0
VERTEX
  8
0
 62
7
  6
CONTINUOUS
 10
105.4867591789
 20
139.5936897364
  0
VERTEX
  8
0
 62
7
  6
CONTINUOUS
 10
105.474764861
 20
139.6325916516
  0
VERTEX
  8
0
 62
7
  6
CONTINUOUS
 10
105.4551748671
 20
139.6811050541
  0
VERTEX
  8
0
 62
7
  6
CONTINUOUS
 10
105.4245875025
 20
139.737746178
  0
VERTEX
  8
0
 62
7
  6
CONTINUOUS
 10
105.3802394977
 20
139.7983881892
  0
VERTEX
  8
0
 62
7
  6
CONTINUOUS
 10
105.3189260651
 20
139.8590357673
  0
VERTEX
  8
0
 62
7
  6
CONTINUOUS
 10
105.2395368228
 20
139.9132067413
  0
VERTEX
  8
0
 62
7
  6
CONTINUOUS
 10
105.14539619
 20
139.9531364165
  0
VERTEX
  8
0
 62
7
  6
CONTINUOUS
 10
105.04258335
 20
139.9733988216
  0
VERTEX
  8
0
 62
7
  6
CONTINUOUS
 10
104.9974817527
 20
139.9754294281
  0
SEQEND
  0
LINE
  8
0
 62
7
  6
CONTINUOUS
 10
106.0856807817
 20
89.989633921
 11
106.0902161695
 21
89.903658359
  0
LINE
  8
0
 62
7
  6
CONTINUOUS
 10
105.5312384247
 20
139.1590047099
 11
105.5267106237
 21
139.2451553692
  0
LINE
  8
0
 62
7
  6
CONTINUOUS
 10
106.0811563371
 20
90.0886417918
 11
106.0856807817
 21
89.989633921
  0
LINE
  8
0
 62
7
  6
CONTINUOUS
 10
105.5357556472
 20
139.0598371358
 11
105.5312384247
 21
139.1590047099
  0
LINE
  8
0
 62
7
  6
CONTINUOUS
 10
106.0766367299
 20
90.2016229562
 11
106.0811563371
 21
90.0886417918
  0
LINE
  8
0
 62
7
  6
CONTINUOUS
 10
105.5402680168
 20
138.9467222872
 11
105.5357556472
 21
139.0598371358
  0
LINE
  8
0
 62
7
  6
CONTINUOUS
 10
106.0698789436
 20
90.399054349
 11
106.0766367299
 21
90.2016229562
  0
LINE
  8
0
 62
7
  6
CONTINUOUS
 10
105.5470144341
 20
138.7491547316
 11
105.5402680168
 21
138.9467222872
  0
LINE
  8
0
 62
7
  6
CONTINUOUS
 10
106.0631839491
 20
90.6321756115
 11
106.0698789436
 21
90.399054349
  0
LINE
  8
0
 62
7
  6
CONTINUOUS
 10
105.5536975441
 20
138.515989554
 11
105.5470144341
 21
138.7491547316
  0
LINE
  8
0
 62
7
  6
CONTINUOUS
 10
106.0544204051
 20
91.003744418
 11
106.0631839491
 21
90.6321756115
  0
LINE
  8
0
 62
7
  6
CONTINUOUS
 10
105.5624451083
 20
138.144506371
 11
105.5536975441
 21
138.515989554
  0
LINE
  8
0
 62
7
  6
CONTINUOUS
 10
106.0439145139
 20
91.5768599566
 11
106.0544204051
 21
91.003744418
  0
LINE
  8
0
 62
7
  6
CONTINUOUS
 10
105.5729311605
 20
137.5717802543
 11
105.5624451083
 21
138.144506371
  0
LINE
  8
0
 62
7
  6
CONTINUOUS
 10
106.032500065
 20
92.4434284674
 11
106.0439145139
 21
91.5768599566
  0
LINE
  8
0
 62
7
  6
CONTINUOUS
 10
105.5843236643
 20
136.7061927478
 11
105.5729311605
 21
137.5717802543
  0
LINE
  8
0
 62
7
  6
CONTINUOUS
 10
105.5934537442
 20
135.6261981933
 11
105.5843236643
 21
136.7061927478
  0
LINE
  8
0
 62
7
  6
CONTINUOUS
 10
106.023353965
 20
93.5250790874
 11
106.032500065
 21
92.4434284674
  0
LINE
  8
0
 62
7
  6
CONTINUOUS
 10
105.5992979661
 20
134.076397325
 11
105.5934537442
 21
135.6261981933
  0
LINE
  8
0
 62
7
  6
CONTINUOUS
 10
106.0175079682
 20
95.0777488509
 11
106.023353965
 21
93.5250790874
  0
LINE
  8
0
 62
7
  6
CONTINUOUS
 10
105.5992979661
 20
134.076397325
 11
105.5996014759
 21
130.4754309345
  0
LINE
  8
0
 62
7
  6
CONTINUOUS
 10
106.0172088689
 20
98.6754309345
 11
106.0175079682
 21
95.0777488509
  0
LINE
  8
0
 62
7
  6
CONTINUOUS
 10
109.3784051724
 20
105.5754309345
 11
109.3784051724
 21
123.5754309345
  0
POLYLINE
  8
0
 62
7
  6
CONTINUOUS
 66
1
 70
0
  0
VERTEX
  8
0
 62
7
  6
CONTINUOUS
 10
130.5328932485
 20
129.6755884977
  0
VERTEX
  8
0
 62
7
  6
CONTINUOUS
 10
130.63999359
 20
129.6849338724
  0
VERTEX
  8
0
 62
7
  6
CONTINUOUS
 10
130.7623038545
 20
129.7139372989
  0
VERTEX
  8
0
 62
7
  6
CONTINUOUS
 10
130.8795162454
 20
129.762212974
  0
VERTEX
  8
0
 62
7
  6
CONTINUOUS
 10
130.9874377889
 20
129.8282446406
  0
VERTEX
  8
0
 62
7
  6
CONTINUOUS
 10
131.0828721918
 20
129.9097275665
  0
SEQEND
  0
LINE
  8
0
 62
7
  6
CONTINUOUS
 10
130.5170108424
 20
129.6754309345
 11
130.5328932485
 21
129.6755884977
  0
LINE
  8
4_SURFACE
 62
7
  6
CONTINUOUS
 10
79.9328166058
 20
129.6755869806
 11
79.9170108424
 21
129.6754309345
  0
LINE
  8
4_SURFACE
 62
7
  6
CONTINUOUS
 10
29.2328166058
 20
129.6755869806
 11
29.2170108424
 21
129.6754309345
  0
LINE
  8
4_SURFACE
 62
7
  6
CONTINUOUS
 10
79.9170108424
 20
129.6754309345
 11
55.7997995024
 21
129.6754309345
  0
LINE
  8
4_SURFACE
 62
7
  6
CONTINUOUS
 10
18.4584051724
 20
129.6754309345
 11
29.2170108424
 21
129.6754309345
  0
LINE
  8
0
 62
7
  6
CONTINUOUS
 10
106.3997995024
 20
129.6754309345
 11
130.5170108424
 21
129.6754309345
  0
LINE
  8
0
 62
7
  6
CONTINUOUS
 10
157.0997995024
 20
129.6754309345
 11
167.8584051724
 21
129.6754309345
  0
LINE
  8
4_SURFACE
 62
7
  6
CONTINUOUS
 10
55.7997995024
 20
129.6754309345
 11
55.7839170963
 21
129.6755884977
  0
LINE
  8
0
 62
7
  6
CONTINUOUS
 10
106.383993739
 20
129.6755869806
 11
106.3997995024
 21
129.6754309345
  0
LINE
  8
0
 62
7
  6
CONTINUOUS
 10
157.083993739
 20
129.6755869806
 11
157.0997995024
 21
129.6754309345
  0
POLYLINE
  8
4_SURFACE
 62
7
  6
CONTINUOUS
 66
1
 70
0
  0
VERTEX
  8
4_SURFACE
 62
7
  6
CONTINUOUS
 10
55.7839151896
 20
129.6755921723
  0
VERTEX
  8
4_SURFACE
 62
7
  6
CONTINUOUS
 10
55.7117540038
 20
129.6802881094
  0
VERTEX
  8
4_SURFACE
 62
7
  6
CONTINUOUS
 10
55.5798896092
 20
129.7062343391
  0
VERTEX
  8
4_SURFACE
 62
7
  6
CONTINUOUS
 10
55.4541967412
 20
129.7538924072
  0
VERTEX
  8
4_SURFACE
 62
7
  6
CONTINUOUS
 10
55.3382466487
 20
129.8219216561
  0
VERTEX
  8
4_SURFACE
 62
7
  6
CONTINUOUS
 10
55.2353296855
 20
129.9083934905
  0
VERTEX
  8
4_SURFACE
 62
7
  6
CONTINUOUS
 10
55.1483527191
 20
130.0108590784
  0
VERTEX
  8
4_SURFACE
 62
7
  6
CONTINUOUS
 10
55.0797622887
 20
130.1264282098
  0
VERTEX
  8
4_SURFACE
 62
7
  6
CONTINUOUS
 10
55.031490413
 20
130.2518407569
  0
VERTEX
  8
4_SURFACE
 62
7
  6
CONTINUOUS
 10
55.0048959342
 20
130.3835534051
  0
VERTEX
  8
4_SURFACE
 62
7
  6
CONTINUOUS
 10
54.9996048755
 20
130.4754309346
  0
SEQEND
  0
POLYLINE
  8
0
 62
7
  6
CONTINUOUS
 66
1
 70
0
  0
VERTEX
  8
0
 62
7
  6
CONTINUOUS
 10
106.3839918412
 20
129.6755906583
  0
VERTEX
  8
0
 62
7
  6
CONTINUOUS
 10
106.3078832876
 20
129.6807259629
  0
VERTEX
  8
0
 62
7
  6
CONTINUOUS
 10
106.176121383
 20
129.7073212627
  0
VERTEX
  8
0
 62
7
  6
CONTINUOUS
 10
106.0506630688
 20
129.7555947875
  0
VERTEX
  8
0
 62
7
  6
CONTINUOUS
 10
105.9350595952
 20
129.8241831377
  0
VERTEX
  8
0
 62
7
  6
CONTINUOUS
 10
105.8325780298
 20
129.9111446415
  0
VERTEX
  8
0
 62
7
  6
CONTINUOUS
 10
105.746106428
 20
130.0140235063
  0
VERTEX
  8
0
 62
7
  6
CONTINUOUS
 10
105.6780800311
 20
130.1299185981
  0
VERTEX
  8
0
 62
7
  6
CONTINUOUS
 10
105.6304181375
 20
130.2555563769
  0
VERTEX
  8
0
 62
7
  6
CONTINUOUS
 10
105.6044624484
 20
130.3873830438
  0
VERTEX
  8
0
 62
7
  6
CONTINUOUS
 10
105.5996048688
 20
130.4754309347
  0
SEQEND
  0
POLYLINE
  8
4_SURFACE
 62
7
  6
CONTINUOUS
 66
1
 70
0
  0
VERTEX
  8
4_SURFACE
 62
7
  6
CONTINUOUS
 10
55.7839170963
 20
129.6755884977
  0
VERTEX
  8
4_SURFACE
 62
7
  6
CONTINUOUS
 10
55.6768167549
 20
129.6849338724
  0
VERTEX
  8
4_SURFACE
 62
7
  6
CONTINUOUS
 10
55.5545064903
 20
129.7139372989
  0
VERTEX
  8
4_SURFACE
 62
7
  6
CONTINUOUS
 10
55.4372940995
 20
129.762212974
  0
VERTEX
  8
4_SURFACE
 62
7
  6
CONTINUOUS
 10
55.329372556
 20
129.8282446406
  0
VERTEX
  8
4_SURFACE
 62
7
  6
CONTINUOUS
 10
55.2339381531
 20
129.9097275665
  0
SEQEND
  0
LINE
  8
0
 62
7
  6
CONTINUOUS
 10
114.8884051724
 20
123.5754309345
 11
114.8884051724
 21
105.5754309345
  0
LINE
  8
1_AXIS
 62
2
  6
CENTER
 10
28.0625158737
 20
133.6254309345
 11
158.2542944711
 21
133.6254309345
  0
POLYLINE
  8
0
 62
7
  6
CONTINUOUS
 66
1
 70
0
  0
VERTEX
  8
0
 62
7
  6
CONTINUOUS
 10
157.0839918412
 20
129.6755906583
  0
VERTEX
  8
0
 62
7
  6
CONTINUOUS
 10
157.0078832877
 20
129.6807259629
  0
VERTEX
  8
0
 62
7
  6
CONTINUOUS
 10
156.8761213831
 20
129.7073212626
  0
VERTEX
  8
0
 62
7
  6
CONTINUOUS
 10
156.7506630688
 20
129.7555947875
  0
VERTEX
  8
0
 62
7
  6
CONTINUOUS
 10
156.6350595953
 20
129.8241831377
  0
VERTEX
  8
0
 62
7
  6
CONTINUOUS
 10
156.5325780298
 20
129.9111446415
  0
VERTEX
  8
0
 62
7
  6
CONTINUOUS
 10
156.446106428
 20
130.0140235062
  0
VERTEX
  8
0
 62
7
  6
CONTINUOUS
 10
156.3780800311
 20
130.129918598
  0
VERTEX
  8
0
 62
7
  6
CONTINUOUS
 10
156.3304181375
 20
130.2555563769
  0
VERTEX
  8
0
 62
7
  6
CONTINUOUS
 10
156.3044624484
 20
130.3873830438
  0
VERTEX
  8
0
 62
7
  6
CONTINUOUS
 10
156.2996048688
 20
130.4754309347
  0
SEQEND
  0
POLYLINE
  8
0
 62
7
  6
CONTINUOUS
 66
1
 70
0
  0
VERTEX
  8
0
 62
7
  6
CONTINUOUS
 10
105.929372556
 20
129.8282446406
  0
VERTEX
  8
0
 62
7
  6
CONTINUOUS
 10
106.0372940995
 20
129.762212974
  0
VERTEX
  8
0
 62
7
  6
CONTINUOUS
 10
106.1545064903
 20
129.7139372989
  0
VERTEX
  8
0
 62
7
  6
CONTINUOUS
 10
106.2768167549
 20
129.6849338724
  0
VERTEX
  8
0
 62
7
  6
CONTINUOUS
 10
106.383993739
 20
129.6755869806
  0
SEQEND
  0
POLYLINE
  8
0
 62
7
  6
CONTINUOUS
 66
1
 70
0
  0
VERTEX
  8
0
 62
7
  6
CONTINUOUS
 10
156.3874377889
 20
99.3226172284
  0
VERTEX
  8
0
 62
7
  6
CONTINUOUS
 10
156.2795162454
 20
99.3886488951
  0
VERTEX
  8
0
 62
7
  6
CONTINUOUS
 10
156.1623038545
 20
99.4369245702
  0
VERTEX
  8
0
 62
7
  6
CONTINUOUS
 10
156.03999359
 20
99.4659279967
  0
VERTEX
  8
0
 62
7
  6
CONTINUOUS
 10
155.9328166058
 20
99.4752748885
  0
SEQEND
  0
POLYLINE
  8
0
 62
7
  6
CONTINUOUS
 66
1
 70
0
  0
VERTEX
  8
0
 62
7
  6
CONTINUOUS
 10
131.1643790414
 20
130.0051102668
  0
VERTEX
  8
0
 62
7
  6
CONTINUOUS
 10
131.2304242845
 20
130.1129534212
  0
VERTEX
  8
0
 62
7
  6
CONTINUOUS
 10
131.2787298194
 20
130.2301113387
  0
VERTEX
  8
0
 62
7
  6
CONTINUOUS
 10
131.3077667955
 20
130.3524130113
  0
SEQEND
  0
POLYLINE
  8
0
 62
7
  6
CONTINUOUS
 66
1
 70
0
  0
VERTEX
  8
0
 62
7
  6
CONTINUOUS
 10
131.9193285565
 20
139.9754294268
  0
VERTEX
  8
0
 62
7
  6
CONTINUOUS
 10
131.873213798
 20
139.9733063561
  0
VERTEX
  8
0
 62
7
  6
CONTINUOUS
 10
131.7721739965
 20
139.9533701063
  0
VERTEX
  8
0
 62
7
  6
CONTINUOUS
 10
131.6808966962
 20
139.915181344
  0
VERTEX
  8
0
 62
7
  6
CONTINUOUS
 10
131.6037501033
 20
139.8638461144
  0
VERTEX
  8
0
 62
7
  6
CONTINUOUS
 10
131.5430328197
 20
139.8058279548
  0
VERTEX
  8
0
 62
7
  6
CONTINUOUS
 10
131.4979468857
 20
139.7467144888
  0
VERTEX
  8
0
 62
7
  6
CONTINUOUS
 10
131.4664602454
 20
139.6912522081
  0
VERTEX
  8
0
 62
7
  6
CONTINUOUS
 10
131.445896734
 20
139.6432871426
  0
VERTEX
  8
0
 62
7
  6
CONTINUOUS
 10
131.4327951798
 20
139.603508547
  0
VERTEX
  8
0
 62
7
  6
CONTINUOUS
 10
131.4243635209
 20
139.5709304744
  0
VERTEX
  8
0
 62
7
  6
CONTINUOUS
 10
131.4185558844
 20
139.5431103877
  0
VERTEX
  8
0
 62
7
  6
CONTINUOUS
 10
131.4142216681
 20
139.5180038212
  0
VERTEX
  8
0
 62
7
  6
CONTINUOUS
 10
131.4107034302
 20
139.4938918534
  0
VERTEX
  8
0
 62
7
  6
CONTINUOUS
 10
131.4076545637
 20
139.4696126254
  0
VERTEX
  8
0
 62
7
  6
CONTINUOUS
 10
131.4048873972
 20
139.4443887101
  0
VERTEX
  8
0
 62
7
  6
CONTINUOUS
 10
131.4022887498
 20
139.4176069364
  0
VERTEX
  8
0
 62
7
  6
CONTINUOUS
 10
131.3997900007
 20
139.388782804
  0
VERTEX
  8
0
 62
7
  6
CONTINUOUS
 10
131.397350024
 20
139.3575387809
  0
VERTEX
  8
0
 62
7
  6
CONTINUOUS
 10
131.3949439272
 20
139.3235738655
  0
VERTEX
  8
0
 62
7
  6
CONTINUOUS
 10
131.3925564605
 20
139.2866429885
  0
VERTEX
  8
0
 62
7
  6
CONTINUOUS
 10
131.390178298
 20
139.2465383249
  0
VERTEX
  8
0
 62
7
  6
CONTINUOUS
 10
131.3878042599
 20
139.2030847818
  0
VERTEX
  8
0
 62
7
  6
CONTINUOUS
 10
131.383058699
 20
139.1055151399
  0
SEQEND
  0
POLYLINE
  8
4_SURFACE
 62
7
  6
CONTINUOUS
 66
1
 70
0
  0
VERTEX
  8
4_SURFACE
 62
7
  6
CONTINUOUS
 10
81.3193284605
 20
139.9754294282
  0
VERTEX
  8
4_SURFACE
 62
7
  6
CONTINUOUS
 10
81.2774168816
 20
139.9736764121
  0
VERTEX
  8
4_SURFACE
 62
7
  6
CONTINUOUS
 10
81.1760628363
 20
139.9545455687
  0
VERTEX
  8
4_SURFACE
 62
7
  6
CONTINUOUS
 10
81.0843666924
 20
139.917036534
  0
VERTEX
  8
4_SURFACE
 62
7
  6
CONTINUOUS
 10
81.0066174896
 20
139.8661444445
  0
VERTEX
  8
4_SURFACE
 62
7
  6
CONTINUOUS
 10
80.9451031348
 20
139.8081507743
  0
VERTEX
  8
4_SURFACE
 62
7
  6
CONTINUOUS
 10
80.8992154165
 20
139.7486475569
  0
VERTEX
  8
4_SURFACE
 62
7
  6
CONTINUOUS
 10
80.8672164416
 20
139.6927929936
  0
VERTEX
  8
4_SURFACE
 62
7
  6
CONTINUOUS
 10
80.846410031
 20
139.6446615733
  0
VERTEX
  8
4_SURFACE
 62
7
  6
CONTINUOUS
 10
80.8332969389
 20
139.6052357524
  0
VERTEX
  8
4_SURFACE
 62
7
  6
CONTINUOUS
 10
80.8249692191
 20
139.5735354746
  0
VERTEX
  8
4_SURFACE
 62
7
  6
CONTINUOUS
 10
80.8192510876
 20
139.5467502863
  0
VERTEX
  8
4_SURFACE
 62
7
  6
CONTINUOUS
 10
80.8149741493
 20
139.5226923493
  0
VERTEX
  8
4_SURFACE
 62
7
  6
CONTINUOUS
 10
80.8115374294
 20
139.4999582254
  0
VERTEX
  8
4_SURFACE
 62
7
  6
CONTINUOUS
 10
80.8086269606
 20
139.4777333129
  0
VERTEX
  8
4_SURFACE
 62
7
  6
CONTINUOUS
 10
80.8060452952
 20
139.4553381732
  0
VERTEX
  8
4_SURFACE
 62
7
  6
CONTINUOUS
 10
80.8036592125
 20
139.4321218862
  0
VERTEX
  8
4_SURFACE
 62
7
  6
CONTINUOUS
 10
80.8013970993
 20
139.4076781396
  0
VERTEX
  8
4_SURFACE
 62
7
  6
CONTINUOUS
 10
80.7992146358
 20
139.3816974349
  0
VERTEX
  8
4_SURFACE
 62
7
  6
CONTINUOUS
 10
80.7970833293
 20
139.3539310631
  0
VERTEX
  8
4_SURFACE
 62
7
  6
CONTINUOUS
 10
80.7949844868
 20
139.3241731292
  0
VERTEX
  8
4_SURFACE
 62
7
  6
CONTINUOUS
 10
80.7929053148
 20
139.2922446743
  0
VERTEX
  8
4_SURFACE
 62
7
  6
CONTINUOUS
 10
80.7908368588
 20
139.2579823195
  0
VERTEX
  8
4_SURFACE
 62
7
  6
CONTINUOUS
 10
80.7867092737
 20
139.1818594442
  0
SEQEND
  0
LINE
  8
0
 62
7
  6
CONTINUOUS
 10
155.6974381027
 20
139.9754301349
 11
155.6974849051
 21
139.9754309279
  0
LINE
  8
0
 62
7
  6
CONTINUOUS
 10
104.9974381027
 20
139.9754301349
 11
104.9974849051
 21
139.9754309279
  0
LINE
  8
4_SURFACE
 62
7
  6
CONTINUOUS
 10
54.3974850613
 20
139.9754309283
 11
54.3974381027
 21
139.9754301349
  0
LINE
  8
0
 62
7
  6
CONTINUOUS
 10
54.3974381027
 20
139.9754301349
 11
53.5213051192
 21
139.9754307346
  0
LINE
  8
0
 62
7
  6
CONTINUOUS
 10
155.6974892237
 20
139.9754309345
 11
131.9193211212
 21
139.9754309345
  0
LINE
  8
0
 62
7
  6
CONTINUOUS
 10
104.9974892237
 20
139.9754309345
 11
81.3193211212
 21
139.9754309345
  0
LINE
  8
0
 62
7
  6
CONTINUOUS
 10
47.2755052272
 20
139.9754307346
 11
44.7486646914
 21
139.9754307346
  0
LINE
  8
0
 62
7
  6
CONTINUOUS
 10
40.3681456642
 20
139.9754307346
 11
37.8513051192
 21
139.9754307346
  0
LINE
  8
4_SURFACE
 62
7
  6
CONTINUOUS
 10
54.3974892237
 20
139.9754309345
 11
30.6193211212
 21
139.9754309345
  0
LINE
  8
0
 62
7
  6
CONTINUOUS
 10
31.6055052272
 20
139.9754307346
 11
30.6193722422
 21
139.9754301349
  0
LINE
  8
4_SURFACE
 62
7
  6
CONTINUOUS
 10
30.6193722422
 20
139.9754301349
 11
30.6193253039
 21
139.9754309283
  0
LINE
  8
4_SURFACE
 62
7
  6
CONTINUOUS
 10
81.3193722422
 20
139.9754301349
 11
81.3193253039
 21
139.9754309283
  0
LINE
  8
0
 62
7
  6
CONTINUOUS
 10
131.9193254038
 20
139.975430928
 11
131.9193722422
 21
139.9754301349
  0
LINE
  8
0
 62
7
  6
CONTINUOUS
 10
122.0284051724
 20
105.5754309345
 11
122.0284051724
 21
123.5754309345
  0
POLYLINE
  8
4_SURFACE
 62
7
  6
CONTINUOUS
 66
1
 70
0
  0
VERTEX
  8
4_SURFACE
 62
7
  6
CONTINUOUS
 10
30.6193284605
 20
139.9754294282
  0
VERTEX
  8
4_SURFACE
 62
7
  6
CONTINUOUS
 10
30.5774168816
 20
139.9736764121
  0
VERTEX
  8
4_SURFACE
 62
7
  6
CONTINUOUS
 10
30.4760628363
 20
139.9545455687
  0
VERTEX
  8
4_SURFACE
 62
7
  6
CONTINUOUS
 10
30.3843666924
 20
139.917036534
  0
VERTEX
  8
4_SURFACE
 62
7
  6
CONTINUOUS
 10
30.3066174896
 20
139.8661444445
  0
VERTEX
  8
4_SURFACE
 62
7
  6
CONTINUOUS
 10
30.2451031348
 20
139.8081507743
  0
VERTEX
  8
4_SURFACE
 62
7
  6
CONTINUOUS
 10
30.1992154165
 20
139.7486475569
  0
VERTEX
  8
4_SURFACE
 62
7
  6
CONTINUOUS
 10
30.1672164416
 20
139.6927929936
  0
VERTEX
  8
4_SURFACE
 62
7
  6
CONTINUOUS
 10
30.146410031
 20
139.6446615733
  0
VERTEX
  8
4_SURFACE
 62
7
  6
CONTINUOUS
 10
30.1332969389
 20
139.6052357524
  0
VERTEX
  8
4_SURFACE
 62
7
  6
CONTINUOUS
 10
30.1249692191
 20
139.5735354746
  0
VERTEX
  8
4_SURFACE
 62
7
  6
CONTINUOUS
 10
30.1192510876
 20
139.5467502863
  0
VERTEX
  8
4_SURFACE
 62
7
  6
CONTINUOUS
 10
30.1149741493
 20
139.5226923493
  0
VERTEX
  8
4_SURFACE
 62
7
  6
CONTINUOUS
 10
30.1115374294
 20
139.4999582254
  0
VERTEX
  8
4_SURFACE
 62
7
  6
CONTINUOUS
 10
30.1086269606
 20
139.4777333129
  0
VERTEX
  8
4_SURFACE
 62
7
  6
CONTINUOUS
 10
30.1060452952
 20
139.4553381732
  0
VERTEX
  8
4_SURFACE
 62
7
  6
CONTINUOUS
 10
30.1036592125
 20
139.4321218862
  0
VERTEX
  8
4_SURFACE
 62
7
  6
CONTINUOUS
 10
30.1013970993
 20
139.4076781396
  0
VERTEX
  8
4_SURFACE
 62
7
  6
CONTINUOUS
 10
30.0992146358
 20
139.3816974349
  0
VERTEX
  8
4_SURFACE
 62
7
  6
CONTINUOUS
 10
30.0970833293
 20
139.3539310631
  0
VERTEX
  8
4_SURFACE
 62
7
  6
CONTINUOUS
 10
30.0949844868
 20
139.3241731292
  0
VERTEX
  8
4_SURFACE
 62
7
  6
CONTINUOUS
 10
30.0929053148
 20
139.2922446743
  0
VERTEX
  8
4_SURFACE
 62
7
  6
CONTINUOUS
 10
30.0908368588
 20
139.2579823195
  0
VERTEX
  8
4_SURFACE
 62
7
  6
CONTINUOUS
 10
30.0867092737
 20
139.1818594442
  0
SEQEND
  0
LINE
  8
0
 62
7
  6
CONTINUOUS
 10
127.5384051724
 20
123.5754309345
 11
127.5384051724
 21
105.5754309345
  0
LINE
  8
0
 62
7
  6
CONTINUOUS
 10
130.8962783847
 20
94.0440272671
 11
130.8996014759
 21
98.6754309345
  0
LINE
  8
0
 62
7
  6
CONTINUOUS
 10
131.3205319601
 20
135.1068346019
 11
131.3172088842
 21
133.6254309346
  0
LINE
  8
0
 62
7
  6
CONTINUOUS
 10
130.8876789332
 20
92.7799342769
 11
130.8962783847
 21
94.0440272671
  0
LINE
  8
0
 62
7
  6
CONTINUOUS
 10
131.3291314116
 20
136.3709275921
 11
131.3205319601
 21
135.1068346019
  0
LINE
  8
0
 62
7
  6
CONTINUOUS
 10
131.3387758196
 20
137.2245892276
 11
131.3291314116
 21
136.3709275921
  0
LINE
  8
0
 62
7
  6
CONTINUOUS
 10
130.8780345252
 20
91.9262726414
 11
130.8876789332
 21
92.7799342769
  0
LINE
  8
0
 62
7
  6
CONTINUOUS
 10
131.3497780597
 20
137.913728447
 11
131.3387758196
 21
137.2245892276
  0
POLYLINE
  8
0
 62
7
  6
CONTINUOUS
 66
1
 70
0
  0
VERTEX
  8
0
 62
7
  6
CONTINUOUS
 10
130.8647224086
 20
91.1174627419
  0
VERTEX
  8
0
 62
7
  6
CONTINUOUS
 10
130.8670322851
 20
91.2371334221
  0
VERTEX
  8
0
 62
7
  6
CONTINUOUS
 10
130.8780345252
 20
91.9262726414
  0
SEQEND
  0
LINE
  8
0
 62
7
  6
CONTINUOUS
 10
131.3591525085
 20
138.3579574774
 11
131.3497780597
 21
137.913728447
  0
LINE
  8
0
 62
7
  6
CONTINUOUS
 10
131.3663297558
 20
138.6331959086
 11
131.3591525085
 21
138.3579574774
  0
LINE
  8
0
 62
7
  6
CONTINUOUS
 10
131.3735239427
 20
138.8627253161
 11
131.3663297558
 21
138.6331959086
  0
LINE
  8
0
 62
7
  6
CONTINUOUS
 10
131.3783013809
 20
138.992548356
 11
131.3735239427
 21
138.8627253161
  0
LINE
  8
0
 62
7
  6
CONTINUOUS
 10
131.383058699
 20
139.1055151399
 11
131.3783013809
 21
138.992548356
  0
POLYLINE
  8
0
 62
7
  6
CONTINUOUS
 66
1
 70
0
  0
VERTEX
  8
0
 62
7
  6
CONTINUOUS
 10
131.3172054694
 20
130.4754309346
  0
VERTEX
  8
0
 62
7
  6
CONTINUOUS
 10
131.3119144107
 20
130.3835534051
  0
VERTEX
  8
0
 62
7
  6
CONTINUOUS
 10
131.2853199318
 20
130.2518407569
  0
VERTEX
  8
0
 62
7
  6
CONTINUOUS
 10
131.2370480562
 20
130.1264282098
  0
VERTEX
  8
0
 62
7
  6
CONTINUOUS
 10
131.1684576257
 20
130.0108590784
  0
VERTEX
  8
0
 62
7
  6
CONTINUOUS
 10
131.0814806593
 20
129.9083934905
  0
VERTEX
  8
0
 62
7
  6
CONTINUOUS
 10
130.9785636961
 20
129.8219216561
  0
VERTEX
  8
0
 62
7
  6
CONTINUOUS
 10
130.8626136036
 20
129.7538924072
  0
VERTEX
  8
0
 62
7
  6
CONTINUOUS
 10
130.7369207356
 20
129.7062343391
  0
VERTEX
  8
0
 62
7
  6
CONTINUOUS
 10
130.605056341
 20
129.6802881094
  0
VERTEX
  8
0
 62
7
  6
CONTINUOUS
 10
130.5328951552
 20
129.6755921723
  0
SEQEND
  0
LINE
  8
0
 62
7
  6
CONTINUOUS
 10
131.3077667955
 20
130.3524130113
 11
131.3172850213
 21
130.4754309345
  0
LINE
  8
0
 62
7
  6
CONTINUOUS
 10
131.3172088689
 20
130.4754309345
 11
131.3172088689
 21
133.6254309346
  0
LINE
  8
0
 62
7
  6
CONTINUOUS
 10
134.6784051724
 20
105.5754309345
 11
134.6784051724
 21
123.5754309345
  0
LINE
  8
0
 62
7
  6
CONTINUOUS
 10
130.855272698
 20
90.695839965
 11
130.8647224086
 21
91.1174627419
  0
LINE
  8
0
 62
7
  6
CONTINUOUS
 10
130.8480806238
 20
90.4362796585
 11
130.855272698
 21
90.695839965
  0
LINE
  8
0
 62
7
  6
CONTINUOUS
 10
130.840895147
 20
90.2210265192
 11
130.8480806238
 21
90.4362796585
  0
LINE
  8
0
 62
7
  6
CONTINUOUS
 10
130.8361279904
 20
90.0998142738
 11
130.840895147
 21
90.2210265192
  0
LINE
  8
0
 62
7
  6
CONTINUOUS
 10
130.8313784771
 20
89.9947290559
 11
130.8361279904
 21
90.0998142738
  0
POLYLINE
  8
0
 62
7
  6
CONTINUOUS
 66
1
 70
0
  0
VERTEX
  8
0
 62
7
  6
CONTINUOUS
 10
130.8996048755
 20
98.6754309344
  0
VERTEX
  8
0
 62
7
  6
CONTINUOUS
 10
130.9048959342
 20
98.767308464
  0
VERTEX
  8
0
 62
7
  6
CONTINUOUS
 10
130.931490413
 20
98.8990211122
  0
VERTEX
  8
0
 62
7
  6
CONTINUOUS
 10
130.9797622887
 20
99.0244336593
  0
VERTEX
  8
0
 62
7
  6
CONTINUOUS
 10
131.0483527191
 20
99.1400027906
  0
VERTEX
  8
0
 62
7
  6
CONTINUOUS
 10
131.1353296855
 20
99.2424683786
  0
VERTEX
  8
0
 62
7
  6
CONTINUOUS
 10
131.2382466487
 20
99.328940213
  0
VERTEX
  8
0
 62
7
  6
CONTINUOUS
 10
131.3541967412
 20
99.3969694619
  0
VERTEX
  8
0
 62
7
  6
CONTINUOUS
 10
131.4798896092
 20
99.4446275299
  0
VERTEX
  8
0
 62
7
  6
CONTINUOUS
 10
131.6117540038
 20
99.4705737597
  0
VERTEX
  8
0
 62
7
  6
CONTINUOUS
 10
131.6839151896
 20
99.4752696968
  0
SEQEND
  0
LINE
  8
0
 62
7
  6
CONTINUOUS
 10
130.9090435493
 20
98.7984488578
 11
130.8995253235
 21
98.6754309345
  0
POLYLINE
  8
0
 62
7
  6
CONTINUOUS
 66
1
 70
0
  0
VERTEX
  8
0
 62
7
  6
CONTINUOUS
 10
131.0524313034
 20
99.1457516022
  0
VERTEX
  8
0
 62
7
  6
CONTINUOUS
 10
130.9863860603
 20
99.0379084478
  0
VERTEX
  8
0
 62
7
  6
CONTINUOUS
 10
130.9380805255
 20
98.9207505304
  0
VERTEX
  8
0
 62
7
  6
CONTINUOUS
 10
130.9090435493
 20
98.7984488578
  0
SEQEND
  0
LINE
  8
0
 62
7
  6
CONTINUOUS
 10
140.1884051724
 20
123.5754309345
 11
140.1884051724
 21
105.5754309345
  0
POLYLINE
  8
0
 62
7
  6
CONTINUOUS
 66
1
 70
0
  0
VERTEX
  8
0
 62
7
  6
CONTINUOUS
 10
156.629372556
 20
129.8282446406
  0
VERTEX
  8
0
 62
7
  6
CONTINUOUS
 10
156.7372940995
 20
129.762212974
  0
VERTEX
  8
0
 62
7
  6
CONTINUOUS
 10
156.8545064903
 20
129.7139372989
  0
VERTEX
  8
0
 62
7
  6
CONTINUOUS
 10
156.9768167549
 20
129.6849338724
  0
VERTEX
  8
0
 62
7
  6
CONTINUOUS
 10
157.083993739
 20
129.6755869806
  0
SEQEND
  0
LINE
  8
0
 62
7
  6
CONTINUOUS
 10
147.3284051724
 20
105.5754309345
 11
147.3284051724
 21
123.5754309345
  0
LINE
  8
0
 62
7
  6
CONTINUOUS
 10
165.691232916
 20
90.4465274193
 11
165.69772546
 21
90.4293718204
  0
LINE
  8
0
 62
7
  6
CONTINUOUS
 10
165.69772546
 20
90.4293718204
 11
165.7022599713
 21
90.4172468091
  0
POLYLINE
  8
0
 62
7
  6
CONTINUOUS
 66
1
 70
0
  0
VERTEX
  8
0
 62
7
  6
CONTINUOUS
 10
156.7172850213
 20
98.6754309345
  0
VERTEX
  8
0
 62
7
  6
CONTINUOUS
 10
156.7077667955
 20
98.7984488578
  0
VERTEX
  8
0
 62
7
  6
CONTINUOUS
 10
156.6787298194
 20
98.9207505304
  0
VERTEX
  8
0
 62
7
  6
CONTINUOUS
 10
156.6304242845
 20
99.0379084478
  0
VERTEX
  8
0
 62
7
  6
CONTINUOUS
 10
156.5643790414
 20
99.1457516022
  0
VERTEX
  8
0
 62
7
  6
CONTINUOUS
 10
156.4828721918
 20
99.2411343026
  0
SEQEND
  0
POLYLINE
  8
0
 62
7
  6
CONTINUOUS
 66
1
 70
0
  0
VERTEX
  8
0
 62
7
  6
CONTINUOUS
 10
156.2995253235
 20
130.4754309345
  0
VERTEX
  8
0
 62
7
  6
CONTINUOUS
 10
156.3090435493
 20
130.3524130113
  0
VERTEX
  8
0
 62
7
  6
CONTINUOUS
 10
156.3380805255
 20
130.2301113387
  0
VERTEX
  8
0
 62
7
  6
CONTINUOUS
 10
156.3863860603
 20
130.1129534212
  0
VERTEX
  8
0
 62
7
  6
CONTINUOUS
 10
156.4524313034
 20
130.0051102668
  0
VERTEX
  8
0
 62
7
  6
CONTINUOUS
 10
156.5339381531
 20
129.9097275665
  0
SEQEND
  0
POLYLINE
  8
0
 62
7
  6
CONTINUOUS
 66
1
 70
0
  0
VERTEX
  8
0
 62
7
  6
CONTINUOUS
 10
156.7900997211
 20
89.9057064998
  0
VERTEX
  8
0
 62
7
  6
CONTINUOUS
 10
156.7923744916
 20
89.8671690816
  0
VERTEX
  8
0
 62
7
  6
CONTINUOUS
 10
156.7946642684
 20
89.8314452389
  0
VERTEX
  8
0
 62
7
  6
CONTINUOUS
 10
156.7969791669
 20
89.7983503682
  0
VERTEX
  8
0
 62
7
  6
CONTINUOUS
 10
156.7993322042
 20
89.7677026714
  0
VERTEX
  8
0
 62
7
  6
CONTINUOUS
 10
156.8017432532
 20
89.7392829734
  0
VERTEX
  8
0
 62
7
  6
CONTINUOUS
 10
156.8042458041
 20
89.7127956547
  0
VERTEX
  8
0
 62
7
  6
CONTINUOUS
 10
156.8068959182
 20
89.6878455218
  0
VERTEX
  8
0
 62
7
  6
CONTINUOUS
 10
156.8097895688
 20
89.6638901132
  0
VERTEX
  8
0
 62
7
  6
CONTINUOUS
 10
156.8130989166
 20
89.6401448429
  0
VERTEX
  8
0
 62
7
  6
CONTINUOUS
 10
156.817136147
 20
89.6154943631
  0
VERTEX
  8
0
 62
7
  6
CONTINUOUS
 10
156.8224342031
 20
89.5885687221
  0
VERTEX
  8
0
 62
7
  6
CONTINUOUS
 10
156.8300511659
 20
89.5571721327
  0
VERTEX
  8
0
 62
7
  6
CONTINUOUS
 10
156.8420454838
 20
89.5182702175
  0
VERTEX
  8
0
 62
7
  6
CONTINUOUS
 10
156.8616354777
 20
89.469756815
  0
VERTEX
  8
0
 62
7
  6
CONTINUOUS
 10
156.8922228423
 20
89.413115691
  0
VERTEX
  8
0
 62
7
  6
CONTINUOUS
 10
156.9365708471
 20
89.3524736798
  0
VERTEX
  8
0
 62
7
  6
CONTINUOUS
 10
156.9978842797
 20
89.2918261018
  0
VERTEX
  8
0
 62
7
  6
CONTINUOUS
 10
157.0772735221
 20
89.2376551278
  0
VERTEX
  8
0
 62
7
  6
CONTINUOUS
 10
157.1714141548
 20
89.1977254526
  0
VERTEX
  8
0
 62
7
  6
CONTINUOUS
 10
157.2742269948
 20
89.1774630475
  0
VERTEX
  8
0
 62
7
  6
CONTINUOUS
 10
157.3193285921
 20
89.175432441
  0
SEQEND
  0
POLYLINE
  8
0
 62
7
  6
CONTINUOUS
 66
1
 70
0
  0
VERTEX
  8
0
 62
7
  6
CONTINUOUS
 10
156.2267106237
 20
139.2451553692
  0
VERTEX
  8
0
 62
7
  6
CONTINUOUS
 10
156.2244358533
 20
139.2836927875
  0
VERTEX
  8
0
 62
7
  6
CONTINUOUS
 10
156.2221460764
 20
139.3194166302
  0
VERTEX
  8
0
 62
7
  6
CONTINUOUS
 10
156.219831178
 20
139.3525115009
  0
VERTEX
  8
0
 62
7
  6
CONTINUOUS
 10
156.2174781407
 20
139.3831591976
  0
VERTEX
  8
0
 62
7
  6
CONTINUOUS
 10
156.2150670916
 20
139.4115788957
  0
VERTEX
  8
0
 62
7
  6
CONTINUOUS
 10
156.2125645408
 20
139.4380662143
  0
VERTEX
  8
0
 62
7
  6
CONTINUOUS
 10
156.2099144267
 20
139.4630163472
  0
VERTEX
  8
0
 62
7
  6
CONTINUOUS
 10
156.207020776
 20
139.4869717558
  0
VERTEX
  8
0
 62
7
  6
CONTINUOUS
 10
156.2037114282
 20
139.5107170262
  0
VERTEX
  8
0
 62
7
  6
CONTINUOUS
 10
156.1996741979
 20
139.535367506
  0
VERTEX
  8
0
 62
7
  6
CONTINUOUS
 10
156.1943761417
 20
139.562293147
  0
VERTEX
  8
0
 62
7
  6
CONTINUOUS
 10
156.1867591789
 20
139.5936897364
  0
VERTEX
  8
0
 62
7
  6
CONTINUOUS
 10
156.174764861
 20
139.6325916516
  0
VERTEX
  8
0
 62
7
  6
CONTINUOUS
 10
156.1551748671
 20
139.6811050541
  0
VERTEX
  8
0
 62
7
  6
CONTINUOUS
 10
156.1245875025
 20
139.737746178
  0
VERTEX
  8
0
 62
7
  6
CONTINUOUS
 10
156.0802394977
 20
139.7983881892
  0
VERTEX
  8
0
 62
7
  6
CONTINUOUS
 10
156.0189260651
 20
139.8590357673
  0
VERTEX
  8
0
 62
7
  6
CONTINUOUS
 10
155.9395368228
 20
139.9132067413
  0
VERTEX
  8
0
 62
7
  6
CONTINUOUS
 10
155.84539619
 20
139.9531364165
  0
VERTEX
  8
0
 62
7
  6
CONTINUOUS
 10
155.74258335
 20
139.9733988216
  0
VERTEX
  8
0
 62
7
  6
CONTINUOUS
 10
155.6974817527
 20
139.9754294281
  0
SEQEND
  0
LINE
  8
0
 62
7
  6
CONTINUOUS
 10
156.7855719202
 20
89.9918571592
 11
156.7900997211
 21
89.9057064998
  0
LINE
  8
0
 62
7
  6
CONTINUOUS
 10
156.2312384247
 20
139.1590047099
 11
156.2267106237
 21
139.2451553692
  0
LINE
  8
0
 62
7
  6
CONTINUOUS
 10
156.7810546976
 20
90.0910247332
 11
156.7855719202
 21
89.9918571592
  0
LINE
  8
0
 62
7
  6
CONTINUOUS
 10
156.2357556472
 20
139.0598371358
 11
156.2312384247
 21
139.1590047099
  0
LINE
  8
0
 62
7
  6
CONTINUOUS
 10
156.776542328
 20
90.2041395819
 11
156.7810546976
 21
90.0910247332
  0
LINE
  8
0
 62
7
  6
CONTINUOUS
 10
156.2402680168
 20
138.9467222872
 11
156.2357556472
 21
139.0598371358
  0
LINE
  8
0
 62
7
  6
CONTINUOUS
 10
156.7697959107
 20
90.4017071375
 11
156.776542328
 21
90.2041395819
  0
LINE
  8
0
 62
7
  6
CONTINUOUS
 10
156.2470144341
 20
138.7491547316
 11
156.2402680168
 21
138.9467222872
  0
LINE
  8
0
 62
7
  6
CONTINUOUS
 10
156.7631128007
 20
90.634872315
 11
156.7697959107
 21
90.4017071375
  0
LINE
  8
0
 62
7
  6
CONTINUOUS
 10
156.2536975441
 20
138.515989554
 11
156.2470144341
 21
138.7491547316
  0
LINE
  8
0
 62
7
  6
CONTINUOUS
 10
156.7543652365
 20
91.0063554981
 11
156.7631128007
 21
90.634872315
  0
LINE
  8
0
 62
7
  6
CONTINUOUS
 10
156.2624451083
 20
138.144506371
 11
156.2536975441
 21
138.515989554
  0
LINE
  8
0
 62
7
  6
CONTINUOUS
 10
156.7438791844
 20
91.5790816147
 11
156.7543652365
 21
91.0063554981
  0
LINE
  8
0
 62
7
  6
CONTINUOUS
 10
156.2729311605
 20
137.5717802543
 11
156.2624451083
 21
138.144506371
  0
LINE
  8
0
 62
7
  6
CONTINUOUS
 10
156.7324866805
 20
92.4446691212
 11
156.7438791844
 21
91.5790816147
  0
LINE
  8
0
 62
7
  6
CONTINUOUS
 10
156.2843236643
 20
136.7061927478
 11
156.2729311605
 21
137.5717802543
  0
LINE
  8
0
 62
7
  6
CONTINUOUS
 10
156.2934537442
 20
135.6261981933
 11
156.2843236643
 21
136.7061927478
  0
LINE
  8
0
 62
7
  6
CONTINUOUS
 10
156.7233566006
 20
93.5246636757
 11
156.7324866805
 21
92.4446691212
  0
LINE
  8
0
 62
7
  6
CONTINUOUS
 10
156.2992979661
 20
134.076397325
 11
156.2934537442
 21
135.6261981933
  0
LINE
  8
0
 62
7
  6
CONTINUOUS
 10
156.7175123787
 20
95.074464544
 11
156.7233566006
 21
93.5246636757
  0
LINE
  8
0
 62
7
  6
CONTINUOUS
 10
152.8384051724
 20
123.5754309345
 11
152.8384051724
 21
105.5754309345
  0
LINE
  8
0
 62
7
  6
CONTINUOUS
 10
156.2992979661
 20
134.076397325
 11
156.2996014759
 21
130.4754309345
  0
LINE
  8
0
 62
7
  6
CONTINUOUS
 10
156.7175123787
 20
95.074464544
 11
156.7172088689
 21
98.6754309345
  0
LINE
  8
0
 62
7
  6
CONTINUOUS
 10
165.7022599713
 20
90.4172468091
 11
165.7111196578
 21
90.3932396218
  0
LINE
  8
0
 62
7
  6
CONTINUOUS
 10
165.7111196578
 20
90.3932396218
 11
165.7197213824
 21
90.3695677635
  0
LINE
  8
0
 62
7
  6
CONTINUOUS
 10
165.7197213824
 20
90.3695677635
 11
165.732200383
 21
90.3346894204
  0
LINE
  8
0
 62
7
  6
CONTINUOUS
 10
165.732200383
 20
90.3346894204
 11
165.7520540353
 21
90.2782896472
  0
LINE
  8
0
 62
7
  6
CONTINUOUS
 10
165.7672593038
 20
90.2347565086
 11
165.7857914646
 21
90.1819413231
  0
LINE
  8
0
 62
7
  6
CONTINUOUS
 10
165.7520540353
 20
90.2782896472
 11
165.7578158386
 21
90.2618032561
  0
LINE
  8
0
 62
7
  6
CONTINUOUS
 10
165.7578158386
 20
90.2618032561
 11
165.7672593038
 21
90.2347565086
  0
LINE
  8
0
 62
7
  6
CONTINUOUS
 10
159.8004273509
 20
90.3787894802
 11
159.7752561966
 21
89.657981932
  0
LINE
  8
0
 62
7
  6
CONTINUOUS
 10
165.7163828938
 20
90.3787923487
 11
165.7415541482
 21
89.657981932
  0
LINE
  8
0
 62
7
  6
CONTINUOUS
 10
169.2584051724
 20
89.6754309776
 11
169.2584051724
 21
128.2754309345
  0
LINE
  8
0
 62
7
  6
CONTINUOUS
 10
159.7310189332
 20
90.1819414769
 11
159.7802748728
 21
90.3224521695
  0
LINE
  8
0
 62
7
  6
CONTINUOUS
 10
159.7802748728
 20
90.3224521695
 11
159.7929076212
 21
90.3579454824
  0
LINE
  8
0
 62
7
  6
CONTINUOUS
 10
159.7929076212
 20
90.3579454824
 11
159.8029054503
 21
90.3856116574
  0
LINE
  8
0
 62
7
  6
CONTINUOUS
 10
159.8029054503
 20
90.3856116574
 11
159.8134397751
 21
90.414259842
  0
LINE
  8
0
 62
7
  6
CONTINUOUS
 10
159.8134397751
 20
90.414259842
 11
159.8208027258
 21
90.4339348999
  0
LINE
  8
0
 62
7
  6
CONTINUOUS
 10
159.8208027258
 20
90.4339348999
 11
159.8255775615
 21
90.4465277606
  0
POLYLINE
  8
0
 62
7
  6
CONTINUOUS
 66
1
 70
0
  0
VERTEX
  8
0
 62
7
  6
CONTINUOUS
 10
159.8255829362
 20
90.4465463989
  0
VERTEX
  8
0
 62
7
  6
CONTINUOUS
 10
159.8288431663
 20
90.4549048392
  0
VERTEX
  8
0
 62
7
  6
CONTINUOUS
 10
159.841119871
 20
90.4835707375
  0
VERTEX
  8
0
 62
7
  6
CONTINUOUS
 10
159.854957057
 20
90.5121038684
  0
VERTEX
  8
0
 62
7
  6
CONTINUOUS
 10
159.8701501855
 20
90.5402774202
  0
VERTEX
  8
0
 62
7
  6
CONTINUOUS
 10
159.886542761
 20
90.5679450157
  0
VERTEX
  8
0
 62
7
  6
CONTINUOUS
 10
159.9040483209
 20
90.5950667621
  0
VERTEX
  8
0
 62
7
  6
CONTINUOUS
 10
159.9225979229
 20
90.6216024716
  0
VERTEX
  8
0
 62
7
  6
CONTINUOUS
 10
159.9421232152
 20
90.6474833894
  0
VERTEX
  8
0
 62
7
  6
CONTINUOUS
 10
159.9625849204
 20
90.6726653076
  0
VERTEX
  8
0
 62
7
  6
CONTINUOUS
 10
159.9839896263
 20
90.6971374502
  0
VERTEX
  8
0
 62
7
  6
CONTINUOUS
 10
160.0063541181
 20
90.7208695817
  0
VERTEX
  8
0
 62
7
  6
CONTINUOUS
 10
160.0297115523
 20
90.7438139512
  0
VERTEX
  8
0
 62
7
  6
CONTINUOUS
 10
160.0541327229
 20
90.7659335708
  0
VERTEX
  8
0
 62
7
  6
CONTINUOUS
 10
160.0796049138
 20
90.7870736198
  0
VERTEX
  8
0
 62
7
  6
CONTINUOUS
 10
160.1062748274
 20
90.8071685761
  0
VERTEX
  8
0
 62
7
  6
CONTINUOUS
 10
160.1340773706
 20
90.8259664773
  0
VERTEX
  8
0
 62
7
  6
CONTINUOUS
 10
160.1631896584
 20
90.8432857951
  0
VERTEX
  8
0
 62
7
  6
CONTINUOUS
 10
160.1937651758
 20
90.8588953733
  0
VERTEX
  8
0
 62
7
  6
CONTINUOUS
 10
160.2260469917
 20
90.8723820844
  0
VERTEX
  8
0
 62
7
  6
CONTINUOUS
 10
160.2600768762
 20
90.8831947263
  0
VERTEX
  8
0
 62
7
  6
CONTINUOUS
 10
160.2961884955
 20
90.8905647727
  0
VERTEX
  8
0
 62
7
  6
CONTINUOUS
 10
160.3367006497
 20
90.8934954655
  0
SEQEND
  0
LINE
  8
4_SURFACE
 62
7
  6
CONTINUOUS
 10
17.0584051724
 20
182.5731278398
 11
17.0584051724
 21
171.133841557
  0
POLYLINE
  8
4_SURFACE
 62
7
  6
CONTINUOUS
 66
1
 70
0
  0
VERTEX
  8
4_SURFACE
 62
7
  6
CONTINUOUS
 10
20.6666595299
 20
176.983841557
  0
VERTEX
  8
4_SURFACE
 62
7
  6
CONTINUOUS
 10
20.6678138652
 20
177.4461945187
  0
VERTEX
  8
4_SURFACE
 62
7
  6
CONTINUOUS
 10
20.6712535267
 20
177.8991556459
  0
VERTEX
  8
4_SURFACE
 62
7
  6
CONTINUOUS
 10
20.6769089271
 20
178.3335205453
  0
VERTEX
  8
4_SURFACE
 62
7
  6
CONTINUOUS
 10
20.6846655761
 20
178.7404568211
  0
VERTEX
  8
4_SURFACE
 62
7
  6
CONTINUOUS
 10
20.6943662969
 20
179.1116819807
  0
VERTEX
  8
4_SURFACE
 62
7
  6
CONTINUOUS
 10
20.7058142881
 20
179.4396315707
  0
VERTEX
  8
4_SURFACE
 62
7
  6
CONTINUOUS
 10
20.7187770212
 20
179.7176149337
  0
VERTEX
  8
4_SURFACE
 62
7
  6
CONTINUOUS
 10
20.7329908633
 20
179.9399535411
  0
VERTEX
  8
4_SURFACE
 62
7
  6
CONTINUOUS
 10
20.7481664121
 20
180.1021004865
  0
VERTEX
  8
4_SURFACE
 62
7
  6
CONTINUOUS
 10
20.7639943903
 20
180.2007366436
  0
VERTEX
  8
4_SURFACE
 62
7
  6
CONTINUOUS
 10
20.7801520307
 20
180.233841557
  0
SEQEND
  0
POLYLINE
  8
4_SURFACE
 62
7
  6
CONTINUOUS
 66
1
 70
0
  0
VERTEX
  8
4_SURFACE
 62
7
  6
CONTINUOUS
 10
20.8936445316
 20
176.983841557
  0
VERTEX
  8
4_SURFACE
 62
7
  6
CONTINUOUS
 10
20.8924901963
 20
176.5214885953
  0
VERTEX
  8
4_SURFACE
 62
7
  6
CONTINUOUS
 10
20.8890505348
 20
176.0685274682
  0
VERTEX
  8
4_SURFACE
 62
7
  6
CONTINUOUS
 10
20.8833951345
 20
175.6341625687
  0
VERTEX
  8
4_SURFACE
 62
7
  6
CONTINUOUS
 10
20.8756384854
 20
175.2272262929
  0
VERTEX
  8
4_SURFACE
 62
7
  6
CONTINUOUS
 10
20.8659377646
 20
174.8560011334
  0
VERTEX
  8
4_SURFACE
 62
7
  6
CONTINUOUS
 10
20.8544897734
 20
174.5280515433
  0
VERTEX
  8
4_SURFACE
 62
7
  6
CONTINUOUS
 10
20.8415270403
 20
174.2500681803
  0
VERTEX
  8
4_SURFACE
 62
7
  6
CONTINUOUS
 10
20.8273131982
 20
174.0277295729
  0
VERTEX
  8
4_SURFACE
 62
7
  6
CONTINUOUS
 10
20.8121376495
 20
173.8655826276
  0
VERTEX
  8
4_SURFACE
 62
7
  6
CONTINUOUS
 10
20.7963096713
 20
173.7669464704
  0
VERTEX
  8
4_SURFACE
 62
7
  6
CONTINUOUS
 10
20.7801520309
 20
173.733841557
  0
SEQEND
  0
LINE
  8
4_SURFACE
 62
7
  6
CONTINUOUS
 10
20.6115050412
 20
180.2506087645
 11
20.6115095109
 21
180.2506493497
  0
POLYLINE
  8
4_SURFACE
 62
7
  6
CONTINUOUS
 66
1
 70
0
  0
VERTEX
  8
4_SURFACE
 62
7
  6
CONTINUOUS
 10
20.6115095109
 20
180.2506493497
  0
VERTEX
  8
4_SURFACE
 62
7
  6
CONTINUOUS
 10
20.6133632094
 20
180.2642072317
  0
VERTEX
  8
4_SURFACE
 62
7
  6
CONTINUOUS
 10
20.6174112168
 20
180.2840048523
  0
SEQEND
  0
LINE
  8
4_SURFACE
 62
7
  6
CONTINUOUS
 10
20.6174012446
 20
180.2839644272
 11
20.6236353786
 21
180.3089530264
  0
POLYLINE
  8
4_SURFACE
 62
7
  6
CONTINUOUS
 66
1
 70
0
  0
VERTEX
  8
4_SURFACE
 62
7
  6
CONTINUOUS
 10
20.6236353786
 20
180.3089530264
  0
VERTEX
  8
4_SURFACE
 62
7
  6
CONTINUOUS
 10
20.6318883479
 20
180.3411281452
  0
VERTEX
  8
4_SURFACE
 62
7
  6
CONTINUOUS
 10
20.6352978357
 20
180.3541175787
  0
SEQEND
  0
POLYLINE
  8
4_SURFACE
 62
7
  6
CONTINUOUS
 66
1
 70
0
  0
VERTEX
  8
4_SURFACE
 62
7
  6
CONTINUOUS
 10
20.6352970209
 20
180.3541212573
  0
VERTEX
  8
4_SURFACE
 62
7
  6
CONTINUOUS
 10
20.6383031053
 20
180.3652613923
  0
VERTEX
  8
4_SURFACE
 62
7
  6
CONTINUOUS
 10
20.6528446342
 20
180.4136550673
  0
VERTEX
  8
4_SURFACE
 62
7
  6
CONTINUOUS
 10
20.6691980021
 20
180.4601747778
  0
VERTEX
  8
4_SURFACE
 62
7
  6
CONTINUOUS
 10
20.6872231892
 20
180.5047890615
  0
VERTEX
  8
4_SURFACE
 62
7
  6
CONTINUOUS
 10
20.7068068473
 20
180.5474635868
  0
VERTEX
  8
4_SURFACE
 62
7
  6
CONTINUOUS
 10
20.7278567846
 20
180.5881956715
  0
VERTEX
  8
4_SURFACE
 62
7
  6
CONTINUOUS
 10
20.7502510497
 20
180.6268947011
  0
VERTEX
  8
4_SURFACE
 62
7
  6
CONTINUOUS
 10
20.7738949127
 20
180.6634992904
  0
VERTEX
  8
4_SURFACE
 62
7
  6
CONTINUOUS
 10
20.7987724901
 20
180.6980596687
  0
VERTEX
  8
4_SURFACE
 62
7
  6
CONTINUOUS
 10
20.8249000945
 20
180.7305826498
  0
VERTEX
  8
4_SURFACE
 62
7
  6
CONTINUOUS
 10
20.8523037335
 20
180.7610546313
  0
VERTEX
  8
4_SURFACE
 62
7
  6
CONTINUOUS
 10
20.8809741375
 20
180.7893448622
  0
VERTEX
  8
4_SURFACE
 62
7
  6
CONTINUOUS
 10
20.9109327127
 20
180.8153325875
  0
VERTEX
  8
4_SURFACE
 62
7
  6
CONTINUOUS
 10
20.9421103912
 20
180.8387524457
  0
VERTEX
  8
4_SURFACE
 62
7
  6
CONTINUOUS
 10
20.9747067427
 20
180.859495314
  0
VERTEX
  8
4_SURFACE
 62
7
  6
CONTINUOUS
 10
21.0091242996
 20
180.8773583353
  0
VERTEX
  8
4_SURFACE
 62
7
  6
CONTINUOUS
 10
21.0455987614
 20
180.8918146905
  0
VERTEX
  8
4_SURFACE
 62
7
  6
CONTINUOUS
 10
21.085130252
 20
180.9022064081
  0
VERTEX
  8
4_SURFACE
 62
7
  6
CONTINUOUS
 10
21.125956229
 20
180.9069868007
  0
VERTEX
  8
4_SURFACE
 62
7
  6
CONTINUOUS
 10
21.1367012331
 20
180.9072091425
  0
SEQEND
  0
POLYLINE
  8
4_SURFACE
 62
7
  6
CONTINUOUS
 66
1
 70
0
  0
VERTEX
  8
4_SURFACE
 62
7
  6
CONTINUOUS
 10
26.2231658132
 20
176.983841557
  0
VERTEX
  8
4_SURFACE
 62
7
  6
CONTINUOUS
 10
26.2243201485
 20
176.5214885953
  0
VERTEX
  8
4_SURFACE
 62
7
  6
CONTINUOUS
 10
26.22775981
 20
176.0685274682
  0
VERTEX
  8
4_SURFACE
 62
7
  6
CONTINUOUS
 10
26.2334152104
 20
175.6341625687
  0
VERTEX
  8
4_SURFACE
 62
7
  6
CONTINUOUS
 10
26.2411718594
 20
175.2272262929
  0
VERTEX
  8
4_SURFACE
 62
7
  6
CONTINUOUS
 10
26.2508725802
 20
174.8560011334
  0
VERTEX
  8
4_SURFACE
 62
7
  6
CONTINUOUS
 10
26.2623205714
 20
174.5280515433
  0
VERTEX
  8
4_SURFACE
 62
7
  6
CONTINUOUS
 10
26.2752833045
 20
174.2500681803
  0
VERTEX
  8
4_SURFACE
 62
7
  6
CONTINUOUS
 10
26.2894971466
 20
174.0277295729
  0
VERTEX
  8
4_SURFACE
 62
7
  6
CONTINUOUS
 10
26.3046726954
 20
173.8655826276
  0
VERTEX
  8
4_SURFACE
 62
7
  6
CONTINUOUS
 10
26.3205006736
 20
173.7669464704
  0
VERTEX
  8
4_SURFACE
 62
7
  6
CONTINUOUS
 10
26.336658314
 20
173.733841557
  0
SEQEND
  0
POLYLINE
  8
4_SURFACE
 62
7
  6
CONTINUOUS
 66
1
 70
0
  0
VERTEX
  8
4_SURFACE
 62
7
  6
CONTINUOUS
 10
26.4501508149
 20
176.983841557
  0
VERTEX
  8
4_SURFACE
 62
7
  6
CONTINUOUS
 10
26.4489964796
 20
177.4461945187
  0
VERTEX
  8
4_SURFACE
 62
7
  6
CONTINUOUS
 10
26.4455568181
 20
177.8991556459
  0
VERTEX
  8
4_SURFACE
 62
7
  6
CONTINUOUS
 10
26.4399014178
 20
178.3335205453
  0
VERTEX
  8
4_SURFACE
 62
7
  6
CONTINUOUS
 10
26.4321447687
 20
178.7404568211
  0
VERTEX
  8
4_SURFACE
 62
7
  6
CONTINUOUS
 10
26.4224440479
 20
179.1116819807
  0
VERTEX
  8
4_SURFACE
 62
7
  6
CONTINUOUS
 10
26.4109960567
 20
179.4396315707
  0
VERTEX
  8
4_SURFACE
 62
7
  6
CONTINUOUS
 10
26.3980333236
 20
179.7176149337
  0
VERTEX
  8
4_SURFACE
 62
7
  6
CONTINUOUS
 10
26.3838194815
 20
179.9399535411
  0
VERTEX
  8
4_SURFACE
 62
7
  6
CONTINUOUS
 10
26.3686439328
 20
180.1021004865
  0
VERTEX
  8
4_SURFACE
 62
7
  6
CONTINUOUS
 10
26.3528159545
 20
180.2007366436
  0
VERTEX
  8
4_SURFACE
 62
7
  6
CONTINUOUS
 10
26.3366583142
 20
180.233841557
  0
SEQEND
  0
POLYLINE
  8
4_SURFACE
 62
7
  6
CONTINUOUS
 66
1
 70
0
  0
VERTEX
  8
4_SURFACE
 62
7
  6
CONTINUOUS
 10
20.7801520309
 20
173.733841557
  0
VERTEX
  8
4_SURFACE
 62
7
  6
CONTINUOUS
 10
20.7639944463
 20
173.7669462397
  0
VERTEX
  8
4_SURFACE
 62
7
  6
CONTINUOUS
 10
20.7481664631
 20
173.8655821983
  0
VERTEX
  8
4_SURFACE
 62
7
  6
CONTINUOUS
 10
20.7329909068
 20
174.0277290038
  0
VERTEX
  8
4_SURFACE
 62
7
  6
CONTINUOUS
 10
20.7187770556
 20
174.2500675464
  0
VERTEX
  8
4_SURFACE
 62
7
  6
CONTINUOUS
 10
20.7058143131
 20
174.5280509236
  0
VERTEX
  8
4_SURFACE
 62
7
  6
CONTINUOUS
 10
20.6943663132
 20
174.8560005959
  0
VERTEX
  8
4_SURFACE
 62
7
  6
CONTINUOUS
 10
20.6846655853
 20
175.2272258838
  0
VERTEX
  8
4_SURFACE
 62
7
  6
CONTINUOUS
 10
20.6769089312
 20
175.634162307
  0
VERTEX
  8
4_SURFACE
 62
7
  6
CONTINUOUS
 10
20.671253528
 20
176.068527343
  0
VERTEX
  8
4_SURFACE
 62
7
  6
CONTINUOUS
 10
20.6678138654
 20
176.5214885661
  0
VERTEX
  8
4_SURFACE
 62
7
  6
CONTINUOUS
 10
20.6666595299
 20
176.983841557
  0
SEQEND
  0
LINE
  8
4_SURFACE
 62
7
  6
CONTINUOUS
 10
26.5053075618
 20
180.2506080207
 11
26.5053031026
 21
180.2506485095
  0
LINE
  8
4_SURFACE
 62
7
  6
CONTINUOUS
 10
29.3953010638
 20
171.1251153538
 11
29.5995253235
 21
182.8251153538
  0
LINE
  8
4_SURFACE
 62
7
  6
CONTINUOUS
 10
32.4800096967
 20
178.8425677602
 11
32.3453010638
 21
171.1251153538
  0
POLYLINE
  8
4_SURFACE
 62
7
  6
CONTINUOUS
 66
1
 70
0
  0
VERTEX
  8
4_SURFACE
 62
7
  6
CONTINUOUS
 10
29.5496728117
 20
179.6531614279
  0
VERTEX
  8
4_SURFACE
 62
7
  6
CONTINUOUS
 10
29.548097181
 20
179.6164200643
  0
VERTEX
  8
4_SURFACE
 62
7
  6
CONTINUOUS
 10
29.5455221386
 20
179.5507003022
  0
SEQEND
  0
POLYLINE
  8
4_SURFACE
 62
7
  6
CONTINUOUS
 66
1
 70
0
  0
VERTEX
  8
4_SURFACE
 62
7
  6
CONTINUOUS
 10
29.5655256404
 20
179.8123550626
  0
VERTEX
  8
4_SURFACE
 62
7
  6
CONTINUOUS
 10
29.5608220422
 20
179.7825057162
  0
VERTEX
  8
4_SURFACE
 62
7
  6
CONTINUOUS
 10
29.5535399845
 20
179.7156617516
  0
VERTEX
  8
4_SURFACE
 62
7
  6
CONTINUOUS
 10
29.5496746429
 20
179.653035926
  0
SEQEND
  0
POLYLINE
  8
4_SURFACE
 62
7
  6
CONTINUOUS
 66
1
 70
0
  0
VERTEX
  8
4_SURFACE
 62
7
  6
CONTINUOUS
 10
26.3366583142
 20
180.233841557
  0
VERTEX
  8
4_SURFACE
 62
7
  6
CONTINUOUS
 10
26.3205007296
 20
180.2007368744
  0
VERTEX
  8
4_SURFACE
 62
7
  6
CONTINUOUS
 10
26.3046727464
 20
180.1021009158
  0
VERTEX
  8
4_SURFACE
 62
7
  6
CONTINUOUS
 10
26.2894971901
 20
179.9399541103
  0
VERTEX
  8
4_SURFACE
 62
7
  6
CONTINUOUS
 10
26.2752833389
 20
179.7176155677
  0
VERTEX
  8
4_SURFACE
 62
7
  6
CONTINUOUS
 10
26.2623205964
 20
179.4396321904
  0
VERTEX
  8
4_SURFACE
 62
7
  6
CONTINUOUS
 10
26.2508725965
 20
179.1116825181
  0
VERTEX
  8
4_SURFACE
 62
7
  6
CONTINUOUS
 10
26.2411718686
 20
178.7404572302
  0
VERTEX
  8
4_SURFACE
 62
7
  6
CONTINUOUS
 10
26.2334152145
 20
178.333520807
  0
VERTEX
  8
4_SURFACE
 62
7
  6
CONTINUOUS
 10
26.2277598113
 20
177.899155771
  0
VERTEX
  8
4_SURFACE
 62
7
  6
CONTINUOUS
 10
26.2243201487
 20
177.4461945479
  0
VERTEX
  8
4_SURFACE
 62
7
  6
CONTINUOUS
 10
26.2231658132
 20
176.983841557
  0
SEQEND
  0
POLYLINE
  8
4_SURFACE
 62
7
  6
CONTINUOUS
 66
1
 70
0
  0
VERTEX
  8
4_SURFACE
 62
7
  6
CONTINUOUS
 10
20.7801520307
 20
180.233841557
  0
VERTEX
  8
4_SURFACE
 62
7
  6
CONTINUOUS
 10
20.7963096152
 20
180.2007368744
  0
VERTEX
  8
4_SURFACE
 62
7
  6
CONTINUOUS
 10
20.8121375984
 20
180.1021009158
  0
VERTEX
  8
4_SURFACE
 62
7
  6
CONTINUOUS
 10
20.8273131547
 20
179.9399541103
  0
VERTEX
  8
4_SURFACE
 62
7
  6
CONTINUOUS
 10
20.8415270059
 20
179.7176155677
  0
VERTEX
  8
4_SURFACE
 62
7
  6
CONTINUOUS
 10
20.8544897484
 20
179.4396321904
  0
VERTEX
  8
4_SURFACE
 62
7
  6
CONTINUOUS
 10
20.8659377483
 20
179.1116825181
  0
VERTEX
  8
4_SURFACE
 62
7
  6
CONTINUOUS
 10
20.8756384762
 20
178.7404572302
  0
VERTEX
  8
4_SURFACE
 62
7
  6
CONTINUOUS
 10
20.8833951303
 20
178.333520807
  0
VERTEX
  8
4_SURFACE
 62
7
  6
CONTINUOUS
 10
20.8890505335
 20
177.899155771
  0
VERTEX
  8
4_SURFACE
 62
7
  6
CONTINUOUS
 10
20.8924901962
 20
177.4461945479
  0
VERTEX
  8
4_SURFACE
 62
7
  6
CONTINUOUS
 10
20.8936445316
 20
176.983841557
  0
SEQEND
  0
LINE
  8
4_SURFACE
 62
7
  6
CONTINUOUS
 10
26.4815123559
 20
180.3541181457
 11
26.486674779
 21
180.3343814106
  0
LINE
  8
4_SURFACE
 62
7
  6
CONTINUOUS
 10
26.486674779
 20
180.3343814106
 11
26.491856352
 21
180.3141632138
  0
LINE
  8
4_SURFACE
 62
7
  6
CONTINUOUS
 10
26.491856352
 20
180.3141632138
 11
26.4994161618
 21
180.28393624
  0
POLYLINE
  8
4_SURFACE
 62
7
  6
CONTINUOUS
 66
1
 70
0
  0
VERTEX
  8
4_SURFACE
 62
7
  6
CONTINUOUS
 10
26.4993991796
 20
180.2840046475
  0
VERTEX
  8
4_SURFACE
 62
7
  6
CONTINUOUS
 10
26.5033414065
 20
180.2648485232
  0
VERTEX
  8
4_SURFACE
 62
7
  6
CONTINUOUS
 10
26.5053009589
 20
180.2506481396
  0
SEQEND
  0
POLYLINE
  8
4_SURFACE
 62
7
  6
CONTINUOUS
 66
1
 70
0
  0
VERTEX
  8
4_SURFACE
 62
7
  6
CONTINUOUS
 10
26.336658314
 20
173.733841557
  0
VERTEX
  8
4_SURFACE
 62
7
  6
CONTINUOUS
 10
26.3528158985
 20
173.7669462397
  0
VERTEX
  8
4_SURFACE
 62
7
  6
CONTINUOUS
 10
26.3686438817
 20
173.8655821983
  0
VERTEX
  8
4_SURFACE
 62
7
  6
CONTINUOUS
 10
26.383819438
 20
174.0277290038
  0
VERTEX
  8
4_SURFACE
 62
7
  6
CONTINUOUS
 10
26.3980332892
 20
174.2500675464
  0
VERTEX
  8
4_SURFACE
 62
7
  6
CONTINUOUS
 10
26.4109960317
 20
174.5280509236
  0
VERTEX
  8
4_SURFACE
 62
7
  6
CONTINUOUS
 10
26.4224440316
 20
174.8560005959
  0
VERTEX
  8
4_SURFACE
 62
7
  6
CONTINUOUS
 10
26.4321447595
 20
175.2272258838
  0
VERTEX
  8
4_SURFACE
 62
7
  6
CONTINUOUS
 10
26.4399014136
 20
175.634162307
  0
VERTEX
  8
4_SURFACE
 62
7
  6
CONTINUOUS
 10
26.4455568168
 20
176.068527343
  0
VERTEX
  8
4_SURFACE
 62
7
  6
CONTINUOUS
 10
26.4489964795
 20
176.5214885661
  0
VERTEX
  8
4_SURFACE
 62
7
  6
CONTINUOUS
 10
26.4501508149
 20
176.983841557
  0
SEQEND
  0
POLYLINE
  8
4_SURFACE
 62
7
  6
CONTINUOUS
 66
1
 70
0
  0
VERTEX
  8
4_SURFACE
 62
7
  6
CONTINUOUS
 10
29.6779759663
 20
180.0638710278
  0
VERTEX
  8
4_SURFACE
 62
7
  6
CONTINUOUS
 10
29.6289834665
 20
179.9955550364
  0
VERTEX
  8
4_SURFACE
 62
7
  6
CONTINUOUS
 10
29.5954291577
 20
179.9247477456
  0
VERTEX
  8
4_SURFACE
 62
7
  6
CONTINUOUS
 10
29.5738158669
 20
179.8529938426
  0
VERTEX
  8
4_SURFACE
 62
7
  6
CONTINUOUS
 10
29.5655256404
 20
179.8123550626
  0
SEQEND
  0
LINE
  8
4_SURFACE
 62
7
  6
CONTINUOUS
 10
52.6368006481
 20
178.8425677602
 11
52.771509281
 21
171.1251153538
  0
POLYLINE
  8
4_SURFACE
 62
7
  6
CONTINUOUS
 66
1
 70
0
  0
VERTEX
  8
4_SURFACE
 62
7
  6
CONTINUOUS
 10
55.4671357342
 20
179.6530391649
  0
VERTEX
  8
4_SURFACE
 62
7
  6
CONTINUOUS
 10
55.4633064453
 20
179.7152179854
  0
VERTEX
  8
4_SURFACE
 62
7
  6
CONTINUOUS
 10
55.4560334499
 20
179.7821838641
  0
VERTEX
  8
4_SURFACE
 62
7
  6
CONTINUOUS
 10
55.451282716
 20
179.8123663103
  0
SEQEND
  0
LINE
  8
4_SURFACE
 62
7
  6
CONTINUOUS
 10
55.4671377501
 20
179.6531565129
 11
55.4700860792
 21
179.5823498416
  0
LINE
  8
4_SURFACE
 62
7
  6
CONTINUOUS
 10
55.4700860792
 20
179.5823498416
 11
55.471288293
 21
179.5506979485
  0
LINE
  8
4_SURFACE
 62
7
  6
CONTINUOUS
 10
55.4172850213
 20
182.8251153538
 11
55.621509281
 21
171.1251153538
  0
POLYLINE
  8
4_SURFACE
 62
7
  6
CONTINUOUS
 66
1
 70
0
  0
VERTEX
  8
4_SURFACE
 62
7
  6
CONTINUOUS
 10
55.451282716
 20
179.8123663103
  0
VERTEX
  8
4_SURFACE
 62
7
  6
CONTINUOUS
 10
55.4431184474
 20
179.8524643662
  0
VERTEX
  8
4_SURFACE
 62
7
  6
CONTINUOUS
 10
55.4214944094
 20
179.9244472239
  0
VERTEX
  8
4_SURFACE
 62
7
  6
CONTINUOUS
 10
55.3878991826
 20
179.9954308792
  0
VERTEX
  8
4_SURFACE
 62
7
  6
CONTINUOUS
 10
55.3388343856
 20
180.0638710465
  0
SEQEND
  0
LINE
  8
4_SURFACE
 62
7
  6
CONTINUOUS
 10
80.2995253235
 20
182.8251153538
 11
80.0953010638
 21
171.1251153538
  0
LINE
  8
4_SURFACE
 62
7
  6
CONTINUOUS
 10
83.0800096967
 20
178.8425677602
 11
82.9453010638
 21
171.1251153538
  0
POLYLINE
  8
4_SURFACE
 62
7
  6
CONTINUOUS
 66
1
 70
0
  0
VERTEX
  8
4_SURFACE
 62
7
  6
CONTINUOUS
 10
80.2496728942
 20
179.653161784
  0
VERTEX
  8
4_SURFACE
 62
7
  6
CONTINUOUS
 10
80.2481520865
 20
179.6177396372
  0
VERTEX
  8
4_SURFACE
 62
7
  6
CONTINUOUS
 10
80.2456491786
 20
179.5541321031
  0
SEQEND
  0
POLYLINE
  8
4_SURFACE
 62
7
  6
CONTINUOUS
 66
1
 70
0
  0
VERTEX
  8
4_SURFACE
 62
7
  6
CONTINUOUS
 10
80.2655256121
 20
179.8123548354
  0
VERTEX
  8
4_SURFACE
 62
7
  6
CONTINUOUS
 10
80.2608066741
 20
179.7823962692
  0
VERTEX
  8
4_SURFACE
 62
7
  6
CONTINUOUS
 10
80.2535299092
 20
179.7155381157
  0
VERTEX
  8
4_SURFACE
 62
7
  6
CONTINUOUS
 10
80.2496747241
 20
179.6530362693
  0
SEQEND
  0
POLYLINE
  8
4_SURFACE
 62
7
  6
CONTINUOUS
 66
1
 70
0
  0
VERTEX
  8
4_SURFACE
 62
7
  6
CONTINUOUS
 10
80.3779758636
 20
180.0638706999
  0
VERTEX
  8
4_SURFACE
 62
7
  6
CONTINUOUS
 10
80.3289545105
 20
179.9955052144
  0
VERTEX
  8
4_SURFACE
 62
7
  6
CONTINUOUS
 10
80.295392467
 20
179.9246502275
  0
VERTEX
  8
4_SURFACE
 62
7
  6
CONTINUOUS
 10
80.2737868277
 20
179.8528698628
  0
VERTEX
  8
4_SURFACE
 62
7
  6
CONTINUOUS
 10
80.2655256121
 20
179.8123548354
  0
SEQEND
  0
POLYLINE
  8
0
 62
7
  6
CONTINUOUS
 66
1
 70
0
  0
VERTEX
  8
0
 62
7
  6
CONTINUOUS
 10
159.4403418306
 20
170.6338554429
  0
VERTEX
  8
0
 62
7
  6
CONTINUOUS
 10
159.5513679492
 20
170.6471919053
  0
VERTEX
  8
0
 62
7
  6
CONTINUOUS
 10
159.6566342081
 20
170.6848221136
  0
VERTEX
  8
0
 62
7
  6
CONTINUOUS
 10
159.7509097213
 20
170.7447861494
  0
VERTEX
  8
0
 62
7
  6
CONTINUOUS
 10
159.8295389304
 20
170.8240156192
  0
VERTEX
  8
0
 62
7
  6
CONTINUOUS
 10
159.8886795851
 20
170.9185010477
  0
VERTEX
  8
0
 62
7
  6
CONTINUOUS
 10
159.9254870332
 20
171.0235110806
  0
VERTEX
  8
0
 62
7
  6
CONTINUOUS
 10
159.9382351119
 20
171.133841557
  0
SEQEND
  0
POLYLINE
  8
4_SURFACE
 62
7
  6
CONTINUOUS
 66
1
 70
0
  0
VERTEX
  8
4_SURFACE
 62
7
  6
CONTINUOUS
 10
26.8764685143
 20
170.6338554429
  0
VERTEX
  8
4_SURFACE
 62
7
  6
CONTINUOUS
 10
26.7654423957
 20
170.6471919053
  0
VERTEX
  8
4_SURFACE
 62
7
  6
CONTINUOUS
 10
26.6601761367
 20
170.6848221136
  0
VERTEX
  8
4_SURFACE
 62
7
  6
CONTINUOUS
 10
26.5659006236
 20
170.7447861494
  0
VERTEX
  8
4_SURFACE
 62
7
  6
CONTINUOUS
 10
26.4872714144
 20
170.8240156192
  0
VERTEX
  8
4_SURFACE
 62
7
  6
CONTINUOUS
 10
26.4281307597
 20
170.9185010477
  0
VERTEX
  8
4_SURFACE
 62
7
  6
CONTINUOUS
 10
26.3913233116
 20
171.0235110806
  0
VERTEX
  8
4_SURFACE
 62
7
  6
CONTINUOUS
 10
26.3785752329
 20
171.133841557
  0
SEQEND
  0
LINE
  8
4_SURFACE
 62
7
  6
CONTINUOUS
 10
17.5584051724
 20
170.633841557
 11
85.3947774038
 21
170.633841557
  0
LINE
  8
0
 62
7
  6
CONTINUOUS
 10
85.3947774038
 20
170.633841557
 11
168.7584051724
 21
170.633841557
  0
LINE
  8
0
 62
7
  6
CONTINUOUS
 10
64.7355051476
 20
176.983841557
 11
70.9813051958
 21
176.983841557
  0
LINE
  8
0
 62
7
  6
CONTINUOUS
 10
115.3355051476
 20
176.983841557
 11
121.5813051958
 21
176.983841557
  0
LINE
  8
1_AXIS
 62
2
  6
CENTER
 10
12.2281181619
 20
176.983841557
 11
172.7510940919
 21
176.983841557
  0
POLYLINE
  8
4_SURFACE
 62
7
  6
CONTINUOUS
 66
1
 70
0
  0
VERTEX
  8
4_SURFACE
 62
7
  6
CONTINUOUS
 10
20.2403418306
 20
170.6338554429
  0
VERTEX
  8
4_SURFACE
 62
7
  6
CONTINUOUS
 10
20.3513679492
 20
170.6471919053
  0
VERTEX
  8
4_SURFACE
 62
7
  6
CONTINUOUS
 10
20.4566342081
 20
170.6848221136
  0
VERTEX
  8
4_SURFACE
 62
7
  6
CONTINUOUS
 10
20.5509097213
 20
170.7447861494
  0
VERTEX
  8
4_SURFACE
 62
7
  6
CONTINUOUS
 10
20.6295389304
 20
170.8240156192
  0
VERTEX
  8
4_SURFACE
 62
7
  6
CONTINUOUS
 10
20.6886795851
 20
170.9185010477
  0
VERTEX
  8
4_SURFACE
 62
7
  6
CONTINUOUS
 10
20.7254870332
 20
171.0235110806
  0
VERTEX
  8
4_SURFACE
 62
7
  6
CONTINUOUS
 10
20.7382351119
 20
171.133841557
  0
SEQEND
  0
LINE
  8
0
 62
7
  6
CONTINUOUS
 10
153.3438780506
 20
179.333841557
 11
134.1729322942
 21
179.333841557
  0
LINE
  8
0
 62
7
  6
CONTINUOUS
 10
102.7438780506
 20
179.333841557
 11
83.5729322942
 21
179.333841557
  0
LINE
  8
4_SURFACE
 62
7
  6
CONTINUOUS
 10
52.1438780506
 20
179.333841557
 11
32.9729322942
 21
179.333841557
  0
LINE
  8
0
 62
7
  6
CONTINUOUS
 10
165.1801091119
 20
180.9072171465
 11
160.3367009979
 21
180.9072171465
  0
LINE
  8
4_SURFACE
 62
7
  6
CONTINUOUS
 10
25.9801093469
 20
180.9072171465
 11
21.1367012329
 21
180.9072171465
  0
POLYLINE
  8
4_SURFACE
 62
7
  6
CONTINUOUS
 66
1
 70
0
  0
VERTEX
  8
4_SURFACE
 62
7
  6
CONTINUOUS
 10
25.9801093476
 20
180.9072091431
  0
VERTEX
  8
4_SURFACE
 62
7
  6
CONTINUOUS
 10
25.9881864697
 20
180.9070831675
  0
VERTEX
  8
4_SURFACE
 62
7
  6
CONTINUOUS
 10
26.0291498079
 20
180.9026815544
  0
VERTEX
  8
4_SURFACE
 62
7
  6
CONTINUOUS
 10
26.068907048
 20
180.8925720683
  0
VERTEX
  8
4_SURFACE
 62
7
  6
CONTINUOUS
 10
26.1055542086
 20
180.8783302525
  0
VERTEX
  8
4_SURFACE
 62
7
  6
CONTINUOUS
 10
26.1401063343
 20
180.8606444396
  0
VERTEX
  8
4_SURFACE
 62
7
  6
CONTINUOUS
 10
26.1728028636
 20
180.8400629194
  0
VERTEX
  8
4_SURFACE
 62
7
  6
CONTINUOUS
 10
26.2040751361
 20
180.8167852981
  0
VERTEX
  8
4_SURFACE
 62
7
  6
CONTINUOUS
 10
26.234115138
 20
180.7909337283
  0
VERTEX
  8
4_SURFACE
 62
7
  6
CONTINUOUS
 10
26.2628609308
 20
180.7627745535
  0
VERTEX
  8
4_SURFACE
 62
7
  6
CONTINUOUS
 10
26.2903310311
 20
180.7324355981
  0
VERTEX
  8
4_SURFACE
 62
7
  6
CONTINUOUS
 10
26.3165237442
 20
180.7000449359
  0
VERTEX
  8
4_SURFACE
 62
7
  6
CONTINUOUS
 10
26.3414639125
 20
180.6656210759
  0
VERTEX
  8
4_SURFACE
 62
7
  6
CONTINUOUS
 10
26.365175247
 20
180.6291500742
  0
VERTEX
  8
4_SURFACE
 62
7
  6
CONTINUOUS
 10
26.3876415247
 20
180.5905852942
  0
VERTEX
  8
4_SURFACE
 62
7
  6
CONTINUOUS
 10
26.4087680328
 20
180.5499886838
  0
VERTEX
  8
4_SURFACE
 62
7
  6
CONTINUOUS
 10
26.4284340911
 20
180.5074527051
  0
VERTEX
  8
4_SURFACE
 62
7
  6
CONTINUOUS
 10
26.4465477705
 20
180.4629816698
  0
VERTEX
  8
4_SURFACE
 62
7
  6
CONTINUOUS
 10
26.4629987296
 20
180.416607047
  0
VERTEX
  8
4_SURFACE
 62
7
  6
CONTINUOUS
 10
26.4776478738
 20
180.3683631877
  0
VERTEX
  8
4_SURFACE
 62
7
  6
CONTINUOUS
 10
26.4815131878
 20
180.354121692
  0
SEQEND
  0
POLYLINE
  8
0
 62
7
  6
CONTINUOUS
 66
1
 70
0
  0
VERTEX
  8
0
 62
7
  6
CONTINUOUS
 10
165.1801091118
 20
180.9072091425
  0
VERTEX
  8
0
 62
7
  6
CONTINUOUS
 10
165.1908541158
 20
180.9069868007
  0
VERTEX
  8
0
 62
7
  6
CONTINUOUS
 10
165.2316800929
 20
180.9022064081
  0
VERTEX
  8
0
 62
7
  6
CONTINUOUS
 10
165.2712115834
 20
180.8918146905
  0
VERTEX
  8
0
 62
7
  6
CONTINUOUS
 10
165.3076860452
 20
180.8773583354
  0
VERTEX
  8
0
 62
7
  6
CONTINUOUS
 10
165.342103602
 20
180.8594953141
  0
VERTEX
  8
0
 62
7
  6
CONTINUOUS
 10
165.3746999535
 20
180.8387524457
  0
VERTEX
  8
0
 62
7
  6
CONTINUOUS
 10
165.405877632
 20
180.8153325875
  0
VERTEX
  8
0
 62
7
  6
CONTINUOUS
 10
165.4358362072
 20
180.7893448623
  0
VERTEX
  8
0
 62
7
  6
CONTINUOUS
 10
165.4645066113
 20
180.7610546314
  0
VERTEX
  8
0
 62
7
  6
CONTINUOUS
 10
165.4919102503
 20
180.7305826499
  0
VERTEX
  8
0
 62
7
  6
CONTINUOUS
 10
165.5180378547
 20
180.6980596688
  0
VERTEX
  8
0
 62
7
  6
CONTINUOUS
 10
165.542915432
 20
180.6634992904
  0
VERTEX
  8
0
 62
7
  6
CONTINUOUS
 10
165.5665592951
 20
180.6268947011
  0
VERTEX
  8
0
 62
7
  6
CONTINUOUS
 10
165.5889535602
 20
180.5881956716
  0
VERTEX
  8
0
 62
7
  6
CONTINUOUS
 10
165.6100034975
 20
180.5474635868
  0
VERTEX
  8
0
 62
7
  6
CONTINUOUS
 10
165.6295871556
 20
180.5047890615
  0
VERTEX
  8
0
 62
7
  6
CONTINUOUS
 10
165.6476123427
 20
180.4601747778
  0
VERTEX
  8
0
 62
7
  6
CONTINUOUS
 10
165.6639657106
 20
180.4136550673
  0
VERTEX
  8
0
 62
7
  6
CONTINUOUS
 10
165.6785072395
 20
180.3652613923
  0
VERTEX
  8
0
 62
7
  6
CONTINUOUS
 10
165.681513324
 20
180.3541212573
  0
SEQEND
  0
POLYLINE
  8
0
 62
7
  6
CONTINUOUS
 66
1
 70
0
  0
VERTEX
  8
0
 62
7
  6
CONTINUOUS
 10
166.0764685143
 20
170.6338554429
  0
VERTEX
  8
0
 62
7
  6
CONTINUOUS
 10
165.9654423957
 20
170.6471919053
  0
VERTEX
  8
0
 62
7
  6
CONTINUOUS
 10
165.8601761367
 20
170.6848221136
  0
VERTEX
  8
0
 62
7
  6
CONTINUOUS
 10
165.7659006236
 20
170.7447861494
  0
VERTEX
  8
0
 62
7
  6
CONTINUOUS
 10
165.6872714144
 20
170.8240156192
  0
VERTEX
  8
0
 62
7
  6
CONTINUOUS
 10
165.6281307597
 20
170.9185010477
  0
VERTEX
  8
0
 62
7
  6
CONTINUOUS
 10
165.5913233116
 20
171.0235110806
  0
VERTEX
  8
0
 62
7
  6
CONTINUOUS
 10
165.5785752329
 20
171.133841557
  0
SEQEND
  0
LINE
  8
0
 62
7
  6
CONTINUOUS
 10
103.2368006481
 20
178.8425677602
 11
103.371509281
 21
171.1251153538
  0
LINE
  8
4_SURFACE
 62
7
  6
CONTINUOUS
 10
19.1019737584
 20
183.333841557
 11
81.0997995024
 21
183.333841557
  0
LINE
  8
0
 62
7
  6
CONTINUOUS
 10
81.0997995024
 20
183.333841557
 11
167.2148365864
 21
183.333841557
  0
LINE
  8
0
 62
7
  6
CONTINUOUS
 10
106.0671374507
 20
179.653161784
 11
106.0699896805
 21
179.5848100384
  0
LINE
  8
0
 62
7
  6
CONTINUOUS
 10
106.0699896805
 20
179.5848100384
 11
106.0711611662
 21
179.5541321031
  0
LINE
  8
0
 62
7
  6
CONTINUOUS
 10
106.0172850213
 20
182.8251153538
 11
106.221509281
 21
171.1251153538
  0
POLYLINE
  8
0
 62
7
  6
CONTINUOUS
 66
1
 70
0
  0
VERTEX
  8
0
 62
7
  6
CONTINUOUS
 10
105.9388344812
 20
180.0638706999
  0
VERTEX
  8
0
 62
7
  6
CONTINUOUS
 10
105.9878558343
 20
179.9955052144
  0
VERTEX
  8
0
 62
7
  6
CONTINUOUS
 10
106.0214178778
 20
179.9246502275
  0
VERTEX
  8
0
 62
7
  6
CONTINUOUS
 10
106.0430235171
 20
179.8528698628
  0
VERTEX
  8
0
 62
7
  6
CONTINUOUS
 10
106.0512360299
 20
179.8126317171
  0
SEQEND
  0
POLYLINE
  8
0
 62
7
  6
CONTINUOUS
 66
1
 70
0
  0
VERTEX
  8
0
 62
7
  6
CONTINUOUS
 10
106.0512360299
 20
179.8126317171
  0
VERTEX
  8
0
 62
7
  6
CONTINUOUS
 10
106.0560036708
 20
179.7823962692
  0
VERTEX
  8
0
 62
7
  6
CONTINUOUS
 10
106.0632804356
 20
179.7155381157
  0
VERTEX
  8
0
 62
7
  6
CONTINUOUS
 10
106.0671356207
 20
179.6530362693
  0
SEQEND
  0
LINE
  8
4_SURFACE
 62
7
  6
CONTINUOUS
 10
19.0156826589
 20
183.3252970543
 11
17.412114073
 21
183.0045833371
  0
LINE
  8
0
 62
7
  6
CONTINUOUS
 10
167.3011276859
 20
183.3252970543
 11
168.9046962719
 21
183.0045833371
  0
LINE
  8
0
 62
7
  6
CONTINUOUS
 10
130.8995253235
 20
182.8251153538
 11
130.6953010638
 21
171.1251153538
  0
LINE
  8
0
 62
7
  6
CONTINUOUS
 10
133.6800096967
 20
178.8425677602
 11
133.5453010638
 21
171.1251153538
  0
POLYLINE
  8
0
 62
7
  6
CONTINUOUS
 66
1
 70
0
  0
VERTEX
  8
0
 62
7
  6
CONTINUOUS
 10
130.8496725947
 20
179.6531565129
  0
VERTEX
  8
0
 62
7
  6
CONTINUOUS
 10
130.8480970838
 20
179.6164177228
  0
VERTEX
  8
0
 62
7
  6
CONTINUOUS
 10
130.8455220518
 20
179.5506979485
  0
SEQEND
  0
POLYLINE
  8
0
 62
7
  6
CONTINUOUS
 66
1
 70
0
  0
VERTEX
  8
0
 62
7
  6
CONTINUOUS
 10
130.8496746106
 20
179.6530391649
  0
VERTEX
  8
0
 62
7
  6
CONTINUOUS
 10
130.8535038995
 20
179.7152179854
  0
VERTEX
  8
0
 62
7
  6
CONTINUOUS
 10
130.860776895
 20
179.7821838641
  0
VERTEX
  8
0
 62
7
  6
CONTINUOUS
 10
130.8655744719
 20
179.8126326136
  0
SEQEND
  0
POLYLINE
  8
0
 62
7
  6
CONTINUOUS
 66
1
 70
0
  0
VERTEX
  8
0
 62
7
  6
CONTINUOUS
 10
130.8655744719
 20
179.8126326136
  0
VERTEX
  8
0
 62
7
  6
CONTINUOUS
 10
130.8736918975
 20
179.8524643662
  0
VERTEX
  8
0
 62
7
  6
CONTINUOUS
 10
130.8953159354
 20
179.9244472239
  0
VERTEX
  8
0
 62
7
  6
CONTINUOUS
 10
130.9289111622
 20
179.9954308792
  0
VERTEX
  8
0
 62
7
  6
CONTINUOUS
 10
130.9779759592
 20
180.0638710465
  0
SEQEND
  0
POLYLINE
  8
0
 62
7
  6
CONTINUOUS
 66
1
 70
0
  0
VERTEX
  8
0
 62
7
  6
CONTINUOUS
 10
156.6388343785
 20
180.0638710278
  0
VERTEX
  8
0
 62
7
  6
CONTINUOUS
 10
156.6878268783
 20
179.9955550364
  0
VERTEX
  8
0
 62
7
  6
CONTINUOUS
 10
156.7213811872
 20
179.9247477456
  0
VERTEX
  8
0
 62
7
  6
CONTINUOUS
 10
156.7429944779
 20
179.8529938426
  0
VERTEX
  8
0
 62
7
  6
CONTINUOUS
 10
156.7512360039
 20
179.8126319312
  0
SEQEND
  0
LINE
  8
0
 62
7
  6
CONTINUOUS
 10
153.8368006481
 20
178.8425677602
 11
153.971509281
 21
171.1251153538
  0
POLYLINE
  8
1_AXIS
 62
7
  6
CONTINUOUS
 66
1
 70
0
  0
VERTEX
  8
1_AXIS
 62
7
  6
CONTINUOUS
 10
159.9801520309
 20
173.733841557
  0
VERTEX
  8
1_AXIS
 62
7
  6
CONTINUOUS
 10
159.9639944463
 20
173.7669462397
  0
VERTEX
  8
1_AXIS
 62
7
  6
CONTINUOUS
 10
159.9481664631
 20
173.8655821983
  0
VERTEX
  8
1_AXIS
 62
7
  6
CONTINUOUS
 10
159.9329909068
 20
174.0277290038
  0
VERTEX
  8
1_AXIS
 62
7
  6
CONTINUOUS
 10
159.9187770556
 20
174.2500675464
  0
VERTEX
  8
1_AXIS
 62
7
  6
CONTINUOUS
 10
159.9058143131
 20
174.5280509236
  0
VERTEX
  8
1_AXIS
 62
7
  6
CONTINUOUS
 10
159.8943663132
 20
174.8560005959
  0
VERTEX
  8
1_AXIS
 62
7
  6
CONTINUOUS
 10
159.8846655853
 20
175.2272258838
  0
VERTEX
  8
1_AXIS
 62
7
  6
CONTINUOUS
 10
159.8769089312
 20
175.634162307
  0
VERTEX
  8
1_AXIS
 62
7
  6
CONTINUOUS
 10
159.871253528
 20
176.068527343
  0
VERTEX
  8
1_AXIS
 62
7
  6
CONTINUOUS
 10
159.8678138654
 20
176.5214885661
  0
VERTEX
  8
1_AXIS
 62
7
  6
CONTINUOUS
 10
159.8666595299
 20
176.983841557
  0
SEQEND
  0
POLYLINE
  8
1_AXIS
 62
7
  6
CONTINUOUS
 66
1
 70
0
  0
VERTEX
  8
1_AXIS
 62
7
  6
CONTINUOUS
 10
159.9801520307
 20
180.233841557
  0
VERTEX
  8
1_AXIS
 62
7
  6
CONTINUOUS
 10
159.9963096152
 20
180.2007368744
  0
VERTEX
  8
1_AXIS
 62
7
  6
CONTINUOUS
 10
160.0121375984
 20
180.1021009158
  0
VERTEX
  8
1_AXIS
 62
7
  6
CONTINUOUS
 10
160.0273131547
 20
179.9399541103
  0
VERTEX
  8
1_AXIS
 62
7
  6
CONTINUOUS
 10
160.0415270059
 20
179.7176155677
  0
VERTEX
  8
1_AXIS
 62
7
  6
CONTINUOUS
 10
160.0544897484
 20
179.4396321904
  0
VERTEX
  8
1_AXIS
 62
7
  6
CONTINUOUS
 10
160.0659377483
 20
179.1116825181
  0
VERTEX
  8
1_AXIS
 62
7
  6
CONTINUOUS
 10
160.0756384762
 20
178.7404572302
  0
VERTEX
  8
1_AXIS
 62
7
  6
CONTINUOUS
 10
160.0833951303
 20
178.333520807
  0
VERTEX
  8
1_AXIS
 62
7
  6
CONTINUOUS
 10
160.0890505335
 20
177.899155771
  0
VERTEX
  8
1_AXIS
 62
7
  6
CONTINUOUS
 10
160.0924901962
 20
177.4461945479
  0
VERTEX
  8
1_AXIS
 62
7
  6
CONTINUOUS
 10
160.0936445316
 20
176.983841557
  0
SEQEND
  0
LINE
  8
0
 62
7
  6
CONTINUOUS
 10
156.7671375331
 20
179.6531614279
 11
156.7700859871
 21
179.5823521979
  0
LINE
  8
0
 62
7
  6
CONTINUOUS
 10
156.7700859871
 20
179.5823521979
 11
156.7712882062
 21
179.5507003022
  0
LINE
  8
0
 62
7
  6
CONTINUOUS
 10
156.921509281
 20
171.1251153538
 11
156.7172850213
 21
182.8251153538
  0
POLYLINE
  8
1_AXIS
 62
7
  6
CONTINUOUS
 66
1
 70
0
  0
VERTEX
  8
1_AXIS
 62
7
  6
CONTINUOUS
 10
159.8666595299
 20
176.983841557
  0
VERTEX
  8
1_AXIS
 62
7
  6
CONTINUOUS
 10
159.8678138652
 20
177.4461945187
  0
VERTEX
  8
1_AXIS
 62
7
  6
CONTINUOUS
 10
159.8712535267
 20
177.8991556459
  0
VERTEX
  8
1_AXIS
 62
7
  6
CONTINUOUS
 10
159.8769089271
 20
178.3335205453
  0
VERTEX
  8
1_AXIS
 62
7
  6
CONTINUOUS
 10
159.8846655761
 20
178.7404568211
  0
VERTEX
  8
1_AXIS
 62
7
  6
CONTINUOUS
 10
159.8943662969
 20
179.1116819807
  0
VERTEX
  8
1_AXIS
 62
7
  6
CONTINUOUS
 10
159.9058142881
 20
179.4396315707
  0
VERTEX
  8
1_AXIS
 62
7
  6
CONTINUOUS
 10
159.9187770212
 20
179.7176149337
  0
VERTEX
  8
1_AXIS
 62
7
  6
CONTINUOUS
 10
159.9329908633
 20
179.9399535411
  0
VERTEX
  8
1_AXIS
 62
7
  6
CONTINUOUS
 10
159.9481664121
 20
180.1021004865
  0
VERTEX
  8
1_AXIS
 62
7
  6
CONTINUOUS
 10
159.9639943903
 20
180.2007366436
  0
VERTEX
  8
1_AXIS
 62
7
  6
CONTINUOUS
 10
159.9801520307
 20
180.233841557
  0
SEQEND
  0
LINE
  8
0
 62
7
  6
CONTINUOUS
 10
159.8115028937
 20
180.2506090257
 11
159.8115069743
 21
180.250646078
  0
POLYLINE
  8
0
 62
7
  6
CONTINUOUS
 66
1
 70
0
  0
VERTEX
  8
0
 62
7
  6
CONTINUOUS
 10
159.8115091181
 20
180.2506457081
  0
VERTEX
  8
0
 62
7
  6
CONTINUOUS
 10
159.8133600995
 20
180.2641881986
  0
VERTEX
  8
0
 62
7
  6
CONTINUOUS
 10
159.8174113295
 20
180.2840053135
  0
SEQEND
  0
LINE
  8
0
 62
7
  6
CONTINUOUS
 10
159.8174012528
 20
180.2839644645
 11
159.8228960755
 21
180.306020255
  0
LINE
  8
0
 62
7
  6
CONTINUOUS
 10
159.8228960755
 20
180.306020255
 11
159.829274747
 21
180.3310508417
  0
LINE
  8
0
 62
7
  6
CONTINUOUS
 10
159.829274747
 20
180.3310508417
 11
159.8352979909
 21
180.3541181534
  0
POLYLINE
  8
0
 62
7
  6
CONTINUOUS
 66
1
 70
0
  0
VERTEX
  8
0
 62
7
  6
CONTINUOUS
 10
159.835297157
 20
180.354121692
  0
VERTEX
  8
0
 62
7
  6
CONTINUOUS
 10
159.839162471
 20
180.3683631876
  0
VERTEX
  8
0
 62
7
  6
CONTINUOUS
 10
159.8538116153
 20
180.416607047
  0
VERTEX
  8
0
 62
7
  6
CONTINUOUS
 10
159.8702625743
 20
180.4629816697
  0
VERTEX
  8
0
 62
7
  6
CONTINUOUS
 10
159.8883762537
 20
180.507452705
  0
VERTEX
  8
0
 62
7
  6
CONTINUOUS
 10
159.908042312
 20
180.5499886837
  0
VERTEX
  8
0
 62
7
  6
CONTINUOUS
 10
159.9291688201
 20
180.5905852941
  0
VERTEX
  8
0
 62
7
  6
CONTINUOUS
 10
159.9516350978
 20
180.6291500741
  0
VERTEX
  8
0
 62
7
  6
CONTINUOUS
 10
159.9753464323
 20
180.6656210758
  0
VERTEX
  8
0
 62
7
  6
CONTINUOUS
 10
160.0002866005
 20
180.7000449358
  0
VERTEX
  8
0
 62
7
  6
CONTINUOUS
 10
160.0264793137
 20
180.732435598
  0
VERTEX
  8
0
 62
7
  6
CONTINUOUS
 10
160.0539494139
 20
180.7627745534
  0
VERTEX
  8
0
 62
7
  6
CONTINUOUS
 10
160.0826952067
 20
180.7909337283
  0
VERTEX
  8
0
 62
7
  6
CONTINUOUS
 10
160.1127352086
 20
180.816785298
  0
VERTEX
  8
0
 62
7
  6
CONTINUOUS
 10
160.1440074811
 20
180.8400629193
  0
VERTEX
  8
0
 62
7
  6
CONTINUOUS
 10
160.1767040104
 20
180.8606444395
  0
VERTEX
  8
0
 62
7
  6
CONTINUOUS
 10
160.2112561362
 20
180.8783302524
  0
VERTEX
  8
0
 62
7
  6
CONTINUOUS
 10
160.2479032968
 20
180.8925720683
  0
VERTEX
  8
0
 62
7
  6
CONTINUOUS
 10
160.287660537
 20
180.9026815544
  0
VERTEX
  8
0
 62
7
  6
CONTINUOUS
 10
160.3286238751
 20
180.9070831675
  0
VERTEX
  8
0
 62
7
  6
CONTINUOUS
 10
160.3367009972
 20
180.9072091431
  0
SEQEND
  0
POLYLINE
  8
1_AXIS
 62
7
  6
CONTINUOUS
 66
1
 70
0
  0
VERTEX
  8
1_AXIS
 62
7
  6
CONTINUOUS
 10
165.5366583142
 20
180.233841557
  0
VERTEX
  8
1_AXIS
 62
7
  6
CONTINUOUS
 10
165.5205007296
 20
180.2007368744
  0
VERTEX
  8
1_AXIS
 62
7
  6
CONTINUOUS
 10
165.5046727464
 20
180.1021009158
  0
VERTEX
  8
1_AXIS
 62
7
  6
CONTINUOUS
 10
165.4894971901
 20
179.9399541103
  0
VERTEX
  8
1_AXIS
 62
7
  6
CONTINUOUS
 10
165.4752833389
 20
179.7176155677
  0
VERTEX
  8
1_AXIS
 62
7
  6
CONTINUOUS
 10
165.4623205964
 20
179.4396321904
  0
VERTEX
  8
1_AXIS
 62
7
  6
CONTINUOUS
 10
165.4508725965
 20
179.1116825181
  0
VERTEX
  8
1_AXIS
 62
7
  6
CONTINUOUS
 10
165.4411718686
 20
178.7404572302
  0
VERTEX
  8
1_AXIS
 62
7
  6
CONTINUOUS
 10
165.4334152145
 20
178.333520807
  0
VERTEX
  8
1_AXIS
 62
7
  6
CONTINUOUS
 10
165.4277598113
 20
177.899155771
  0
VERTEX
  8
1_AXIS
 62
7
  6
CONTINUOUS
 10
165.4243201487
 20
177.4461945479
  0
VERTEX
  8
1_AXIS
 62
7
  6
CONTINUOUS
 10
165.4231658132
 20
176.983841557
  0
SEQEND
  0
POLYLINE
  8
1_AXIS
 62
7
  6
CONTINUOUS
 66
1
 70
0
  0
VERTEX
  8
1_AXIS
 62
7
  6
CONTINUOUS
 10
165.536658314
 20
173.733841557
  0
VERTEX
  8
1_AXIS
 62
7
  6
CONTINUOUS
 10
165.5528158985
 20
173.7669462397
  0
VERTEX
  8
1_AXIS
 62
7
  6
CONTINUOUS
 10
165.5686438817
 20
173.8655821983
  0
VERTEX
  8
1_AXIS
 62
7
  6
CONTINUOUS
 10
165.583819438
 20
174.0277290038
  0
VERTEX
  8
1_AXIS
 62
7
  6
CONTINUOUS
 10
165.5980332892
 20
174.2500675464
  0
VERTEX
  8
1_AXIS
 62
7
  6
CONTINUOUS
 10
165.6109960317
 20
174.5280509236
  0
VERTEX
  8
1_AXIS
 62
7
  6
CONTINUOUS
 10
165.6224440316
 20
174.8560005959
  0
VERTEX
  8
1_AXIS
 62
7
  6
CONTINUOUS
 10
165.6321447595
 20
175.2272258838
  0
VERTEX
  8
1_AXIS
 62
7
  6
CONTINUOUS
 10
165.6399014136
 20
175.634162307
  0
VERTEX
  8
1_AXIS
 62
7
  6
CONTINUOUS
 10
165.6455568168
 20
176.068527343
  0
VERTEX
  8
1_AXIS
 62
7
  6
CONTINUOUS
 10
165.6489964795
 20
176.5214885661
  0
VERTEX
  8
1_AXIS
 62
7
  6
CONTINUOUS
 10
165.6501508149
 20
176.983841557
  0
SEQEND
  0
POLYLINE
  8
0
 62
7
  6
CONTINUOUS
 66
1
 70
0
  0
VERTEX
  8
0
 62
7
  6
CONTINUOUS
 10
156.7512360039
 20
179.8126319312
  0
VERTEX
  8
0
 62
7
  6
CONTINUOUS
 10
156.7559883026
 20
179.7825057162
  0
VERTEX
  8
0
 62
7
  6
CONTINUOUS
 10
156.7632703604
 20
179.7156617516
  0
VERTEX
  8
0
 62
7
  6
CONTINUOUS
 10
156.7671357019
 20
179.653035926
  0
SEQEND
  0
POLYLINE
  8
1_AXIS
 62
7
  6
CONTINUOUS
 66
1
 70
0
  0
VERTEX
  8
1_AXIS
 62
7
  6
CONTINUOUS
 10
165.4231658132
 20
176.983841557
  0
VERTEX
  8
1_AXIS
 62
7
  6
CONTINUOUS
 10
165.4243201485
 20
176.5214885953
  0
VERTEX
  8
1_AXIS
 62
7
  6
CONTINUOUS
 10
165.42775981
 20
176.0685274682
  0
VERTEX
  8
1_AXIS
 62
7
  6
CONTINUOUS
 10
165.4334152104
 20
175.6341625687
  0
VERTEX
  8
1_AXIS
 62
7
  6
CONTINUOUS
 10
165.4411718594
 20
175.2272262929
  0
VERTEX
  8
1_AXIS
 62
7
  6
CONTINUOUS
 10
165.4508725802
 20
174.8560011334
  0
VERTEX
  8
1_AXIS
 62
7
  6
CONTINUOUS
 10
165.4623205714
 20
174.5280515433
  0
VERTEX
  8
1_AXIS
 62
7
  6
CONTINUOUS
 10
165.4752833045
 20
174.2500681803
  0
VERTEX
  8
1_AXIS
 62
7
  6
CONTINUOUS
 10
165.4894971466
 20
174.0277295729
  0
VERTEX
  8
1_AXIS
 62
7
  6
CONTINUOUS
 10
165.5046726954
 20
173.8655826276
  0
VERTEX
  8
1_AXIS
 62
7
  6
CONTINUOUS
 10
165.5205006736
 20
173.7669464704
  0
VERTEX
  8
1_AXIS
 62
7
  6
CONTINUOUS
 10
165.536658314
 20
173.733841557
  0
SEQEND
  0
POLYLINE
  8
1_AXIS
 62
7
  6
CONTINUOUS
 66
1
 70
0
  0
VERTEX
  8
1_AXIS
 62
7
  6
CONTINUOUS
 10
165.6501508149
 20
176.983841557
  0
VERTEX
  8
1_AXIS
 62
7
  6
CONTINUOUS
 10
165.6489964796
 20
177.4461945187
  0
VERTEX
  8
1_AXIS
 62
7
  6
CONTINUOUS
 10
165.6455568181
 20
177.8991556459
  0
VERTEX
  8
1_AXIS
 62
7
  6
CONTINUOUS
 10
165.6399014178
 20
178.3335205453
  0
VERTEX
  8
1_AXIS
 62
7
  6
CONTINUOUS
 10
165.6321447687
 20
178.7404568211
  0
VERTEX
  8
1_AXIS
 62
7
  6
CONTINUOUS
 10
165.6224440479
 20
179.1116819807
  0
VERTEX
  8
1_AXIS
 62
7
  6
CONTINUOUS
 10
165.6109960567
 20
179.4396315707
  0
VERTEX
  8
1_AXIS
 62
7
  6
CONTINUOUS
 10
165.5980333236
 20
179.7176149337
  0
VERTEX
  8
1_AXIS
 62
7
  6
CONTINUOUS
 10
165.5838194815
 20
179.9399535411
  0
VERTEX
  8
1_AXIS
 62
7
  6
CONTINUOUS
 10
165.5686439328
 20
180.1021004865
  0
VERTEX
  8
1_AXIS
 62
7
  6
CONTINUOUS
 10
165.5528159545
 20
180.2007366436
  0
VERTEX
  8
1_AXIS
 62
7
  6
CONTINUOUS
 10
165.5366583142
 20
180.233841557
  0
SEQEND
  0
LINE
  8
0
 62
7
  6
CONTINUOUS
 10
169.2584051724
 20
182.5731278398
 11
169.2584051724
 21
171.133841557
  0
POLYLINE
  8
1_AXIS
 62
7
  6
CONTINUOUS
 66
1
 70
0
  0
VERTEX
  8
1_AXIS
 62
7
  6
CONTINUOUS
 10
160.0936445316
 20
176.983841557
  0
VERTEX
  8
1_AXIS
 62
7
  6
CONTINUOUS
 10
160.0924901963
 20
176.5214885953
  0
VERTEX
  8
1_AXIS
 62
7
  6
CONTINUOUS
 10
160.0890505348
 20
176.0685274682
  0
VERTEX
  8
1_AXIS
 62
7
  6
CONTINUOUS
 10
160.0833951345
 20
175.6341625687
  0
VERTEX
  8
1_AXIS
 62
7
  6
CONTINUOUS
 10
160.0756384854
 20
175.2272262929
  0
VERTEX
  8
1_AXIS
 62
7
  6
CONTINUOUS
 10
160.0659377646
 20
174.8560011334
  0
VERTEX
  8
1_AXIS
 62
7
  6
CONTINUOUS
 10
160.0544897734
 20
174.5280515433
  0
VERTEX
  8
1_AXIS
 62
7
  6
CONTINUOUS
 10
160.0415270403
 20
174.2500681803
  0
VERTEX
  8
1_AXIS
 62
7
  6
CONTINUOUS
 10
160.0273131982
 20
174.0277295729
  0
VERTEX
  8
1_AXIS
 62
7
  6
CONTINUOUS
 10
160.0121376495
 20
173.8655826276
  0
VERTEX
  8
1_AXIS
 62
7
  6
CONTINUOUS
 10
159.9963096713
 20
173.7669464704
  0
VERTEX
  8
1_AXIS
 62
7
  6
CONTINUOUS
 10
159.9801520309
 20
173.733841557
  0
SEQEND
  0
LINE
  8
0
 62
7
  6
CONTINUOUS
 10
165.6815125179
 20
180.3541175453
 11
165.6875095739
 21
180.3311517101
  0
LINE
  8
0
 62
7
  6
CONTINUOUS
 10
165.6875095739
 20
180.3311517101
 11
165.6926651669
 21
180.3109705146
  0
LINE
  8
0
 62
7
  6
CONTINUOUS
 10
165.6926651669
 20
180.3109705146
 11
165.6994161971
 21
180.2839361688
  0
POLYLINE
  8
0
 62
7
  6
CONTINUOUS
 66
1
 70
0
  0
VERTEX
  8
0
 62
7
  6
CONTINUOUS
 10
165.6993989867
 20
180.2840054257
  0
VERTEX
  8
0
 62
7
  6
CONTINUOUS
 10
165.7035545519
 20
180.2635451694
  0
VERTEX
  8
0
 62
7
  6
CONTINUOUS
 10
165.7053011235
 20
180.2506467216
  0
SEQEND
  0
LINE
  8
0
 62
7
  6
CONTINUOUS
 10
165.7053053033
 20
180.2506087676
 11
165.7053011235
 21
180.2506467216
  0
LINE
  8
4_SURFACE
 62
7
  6
CONTINUOUS
 10
181.7211260398
 20
94.3425321105
 11
181.2211260398
 21
94.2874309345
  0
LINE
  8
1_AXIS
 62
2
  6
CONTINUOUS
 10
188.4511260398
 20
95.5254309345
 11
186.6911260398
 21
95.5254309345
  0
LINE
  8
1_AXIS
 62
2
  6
CENTER
 10
183.1711260398
 20
95.5254309345
 11
182.3211260398
 21
95.5254309345
  0
LINE
  8
1_AXIS
 62
2
  6
CENTER
 10
191.9711260398
 20
95.5254309345
 11
192.8211260398
 21
95.5254309345
  0
LINE
  8
4_SURFACE
 62
7
  6
CONTINUOUS
 10
189.9195577936
 20
127.0348592095
 11
182.5361018031
 21
124.3431220579
  0
LINE
  8
4_SURFACE
 62
7
  6
CONTINUOUS
 10
181.2211260398
 20
94.2874309345
 11
181.2211260398
 21
134.8634309345
  0
LINE
  8
1_AXIS
 62
2
  6
CONTINUOUS
 10
187.5711260398
 20
134.5054309345
 11
187.5711260398
 21
132.7454309345
  0
LINE
  8
1_AXIS
 62
2
  6
CENTER
 10
187.5711260398
 20
129.2254309345
 11
187.5711260398
 21
128.3754309345
  0
LINE
  8
1_AXIS
 62
2
  6
CONTINUOUS
 10
187.5711260398
 20
96.4054309345
 11
187.5711260398
 21
94.6454309345
  0
LINE
  8
1_AXIS
 62
2
  6
CENTER
 10
187.5711260398
 20
91.1254309345
 11
187.5711260398
 21
90.2754309345
  0
LINE
  8
1_AXIS
 62
2
  6
CENTER
 10
187.5711260398
 20
99.9254309345
 11
187.5711260398
 21
100.7754309345
  0
LINE
  8
1_AXIS
 62
2
  6
CENTER
 10
187.5711260398
 20
138.0254309345
 11
187.5711260398
 21
138.8754309345
  0
POLYLINE
  8
4_SURFACE
 62
7
  6
CONTINUOUS
 66
1
 70
0
  0
VERTEX
  8
4_SURFACE
 62
7
  6
CONTINUOUS
 10
192.7733853454
 20
128.2754309345
  0
VERTEX
  8
4_SURFACE
 62
7
  6
CONTINUOUS
 10
192.8355373147
 20
128.7025841585
  0
VERTEX
  8
4_SURFACE
 62
7
  6
CONTINUOUS
 10
192.8708479395
 20
128.901054922
  0
VERTEX
  8
4_SURFACE
 62
7
  6
CONTINUOUS
 10
192.9151465959
 20
129.0772704843
  0
VERTEX
  8
4_SURFACE
 62
7
  6
CONTINUOUS
 10
192.9724289865
 20
129.227042282
  0
VERTEX
  8
4_SURFACE
 62
7
  6
CONTINUOUS
 10
193.0447986554
 20
129.347811464
  0
SEQEND
  0
LINE
  8
0
 62
7
  6
CONTINUOUS
 10
193.9211260398
 20
130.4754309345
 11
193.9211260398
 21
129.1754309345
  0
LINE
  8
4_SURFACE
 62
7
  6
CONTINUOUS
 10
193.9211260398
 20
133.6254309345
 11
193.9211260398
 21
95.5254309345
  0
LINE
  8
4_SURFACE
 62
7
  6
CONTINUOUS
 10
193.5890105163
 20
93.4984988271
 11
193.5900952038
 21
93.5017569307
  0
LINE
  8
0
 62
7
  6
CONTINUOUS
 10
193.5890105289
 20
93.4984988647
 11
193.5900951772
 21
93.5017568498
  0
LINE
  8
4_SURFACE
 62
7
  6
CONTINUOUS
 10
190.240445893
 20
127.9291906553
 11
190.2037059066
 21
127.920904346
  0
POLYLINE
  8
4_SURFACE
 62
7
  6
CONTINUOUS
 66
1
 70
0
  0
VERTEX
  8
4_SURFACE
 62
7
  6
CONTINUOUS
 10
190.6511555737
 20
127.7595389181
  0
VERTEX
  8
4_SURFACE
 62
7
  6
CONTINUOUS
 10
190.5828411103
 20
127.8197130525
  0
VERTEX
  8
4_SURFACE
 62
7
  6
CONTINUOUS
 10
190.512034662
 20
127.8696874603
  0
VERTEX
  8
4_SURFACE
 62
7
  6
CONTINUOUS
 10
190.4402865907
 20
127.9065776437
  0
VERTEX
  8
4_SURFACE
 62
7
  6
CONTINUOUS
 10
190.3698131946
 20
127.9287984691
  0
VERTEX
  8
4_SURFACE
 62
7
  6
CONTINUOUS
 10
190.3029668776
 20
127.9360531081
  0
VERTEX
  8
4_SURFACE
 62
7
  6
CONTINUOUS
 10
190.2403206309
 20
127.9291658191
  0
SEQEND
  0
LINE
  8
4_SURFACE
 62
7
  6
CONTINUOUS
 10
190.2037059066
 20
127.920904346
 11
190.1379879164
 21
127.9063710502
  0
LINE
  8
4_SURFACE
 62
7
  6
CONTINUOUS
 10
190.1379879164
 20
127.9063710502
 11
190.0812012963
 21
127.8941112803
  0
LINE
  8
4_SURFACE
 62
7
  6
CONTINUOUS
 10
190.0812012963
 20
127.8941112803
 11
190.0095403377
 21
127.8790348709
  0
LINE
  8
4_SURFACE
 62
7
  6
CONTINUOUS
 10
190.0095403377
 20
127.8790348709
 11
189.9508410141
 21
127.8670132867
  0
LINE
  8
4_SURFACE
 62
7
  6
CONTINUOUS
 10
189.9508410141
 20
127.8670132867
 11
189.8902964824
 21
127.8549231419
  0
LINE
  8
4_SURFACE
 62
7
  6
CONTINUOUS
 10
189.8902964824
 20
127.8549231419
 11
189.8269428743
 21
127.84260832
  0
LINE
  8
4_SURFACE
 62
7
  6
CONTINUOUS
 10
189.8269428743
 20
127.84260832
 11
189.7891781816
 21
127.8354309345
  0
LINE
  8
4_SURFACE
 62
7
  6
CONTINUOUS
 10
189.9195578632
 20
127.0354309345
 11
181.7211260398
 21
127.0354309345
  0
LINE
  8
4_SURFACE
 62
7
  6
CONTINUOUS
 10
193.3038377944
 20
129.6754309345
 11
193.4211260398
 21
129.6754309345
  0
LINE
  8
1_AXIS
 62
2
  6
CONTINUOUS
 10
188.4511260398
 20
133.6254309345
 11
186.6911260398
 21
133.6254309345
  0
LINE
  8
1_AXIS
 62
2
  6
CENTER
 10
183.1711260398
 20
133.6254309345
 11
182.3211260398
 21
133.6254309345
  0
LINE
  8
1_AXIS
 62
2
  6
CENTER
 10
191.9711260398
 20
133.6254309345
 11
192.8211260398
 21
133.6254309345
  0
POLYLINE
  8
4_SURFACE
 62
7
  6
CONTINUOUS
 66
1
 70
0
  0
VERTEX
  8
4_SURFACE
 62
7
  6
CONTINUOUS
 10
181.7123998366
 20
134.8083294551
  0
VERTEX
  8
4_SURFACE
 62
7
  6
CONTINUOUS
 10
181.2334610143
 20
134.8618891098
  0
VERTEX
  8
4_SURFACE
 62
7
  6
CONTINUOUS
 10
181.2211260398
 20
134.8634309345
  0
SEQEND
  0
ARC
  8
4_SURFACE
 62
7
  6
CONTINUOUS
 10
34.4784051724
 20
105.5754309345
 40
1.0
 50
180.0
 51
270.0
  0
ARC
  8
4_SURFACE
 62
7
  6
CONTINUOUS
 10
37.9884051724
 20
105.5754309345
 40
1.0
 50
270.0
 51
360.0
  0
ARC
  8
4_SURFACE
 62
7
  6
CONTINUOUS
 10
50.6384051724
 20
105.5754309345
 40
1.0
 50
270.0
 51
360.0
  0
ARC
  8
4_SURFACE
 62
7
  6
CONTINUOUS
 10
47.1284051724
 20
105.5754309345
 40
1.0
 50
180.0
 51
270.0
  0
ARC
  8
4_SURFACE
 62
7
  6
CONTINUOUS
 10
59.7784051724
 20
105.5754309345
 40
1.0
 50
180.0
 51
270.0
  0
ARC
  8
4_SURFACE
 62
7
  6
CONTINUOUS
 10
63.2884051724
 20
105.5754309345
 40
1.0
 50
270.0
 51
360.0
  0
ARC
  8
4_SURFACE
 62
7
  6
CONTINUOUS
 10
72.4284051724
 20
105.5754309345
 40
1.0
 50
180.0
 51
270.0
  0
ARC
  8
4_SURFACE
 62
7
  6
CONTINUOUS
 10
75.9384051724
 20
105.5754309345
 40
1.0
 50
270.0
 51
360.0
  0
ARC
  8
4_SURFACE
 62
7
  6
CONTINUOUS
 10
88.5884051724
 20
105.5754309345
 40
1.0
 50
270.0
 51
360.0
  0
ARC
  8
4_SURFACE
 62
7
  6
CONTINUOUS
 10
85.0784051724
 20
105.5754309345
 40
1.0
 50
180.0
 51
270.0
  0
ARC
  8
4_SURFACE
 62
7
  6
CONTINUOUS
 10
17.5584051724
 20
89.6754316896
 40
0.5
 50
180.0000010572
 51
269.9999985203
  0
ARC
  8
4_SURFACE
 62
7
  6
CONTINUOUS
 10
20.0755608176
 20
89.6754326682
 40
0.5
 50
269.9999960473
 51
357.9998869914
  0
ARC
  8
4_SURFACE
 62
7
  6
CONTINUOUS
 10
27.0412495258
 20
89.6754327082
 40
0.5
 50
182.0001175982
 51
270.0000041129
  0
ARC
  8
4_SURFACE
 62
7
  6
CONTINUOUS
 10
18.4584051724
 20
128.2754309345
 40
1.4
 50
90.0
 51
180.0
  0
ARC
  8
4_SURFACE
 62
7
  6
CONTINUOUS
 10
34.4784051724
 20
123.5754309345
 40
1.0
 50
90.0
 51
180.0
  0
ARC
  8
4_SURFACE
 62
7
  6
CONTINUOUS
 10
47.1284051724
 20
123.5754309345
 40
1.0
 50
90.0
 51
180.0
  0
ARC
  8
4_SURFACE
 62
7
  6
CONTINUOUS
 10
59.7784051724
 20
123.5754309345
 40
1.0
 50
90.0
 51
180.0
  0
ARC
  8
4_SURFACE
 62
7
  6
CONTINUOUS
 10
72.4284051724
 20
123.5754309345
 40
1.0
 50
90.0
 51
180.0
  0
ARC
  8
4_SURFACE
 62
7
  6
CONTINUOUS
 10
85.0784051724
 20
123.5754309345
 40
1.0
 50
90.0
 51
180.0
  0
ARC
  8
4_SURFACE
 62
7
  6
CONTINUOUS
 10
37.988410293
 20
123.5754360551
 40
0.9999974397
 50
359.9997066126
 51
90.0002933875
  0
ARC
  8
4_SURFACE
 62
7
  6
CONTINUOUS
 10
50.638410293
 20
123.5754360551
 40
0.9999974397
 50
359.9997066126
 51
90.0002933875
  0
ARC
  8
4_SURFACE
 62
7
  6
CONTINUOUS
 10
63.288410293
 20
123.5754360551
 40
0.9999974397
 50
359.9997066126
 51
90.0002933875
  0
ARC
  8
4_SURFACE
 62
7
  6
CONTINUOUS
 10
75.938410293
 20
123.5754360551
 40
0.9999974397
 50
359.9997066126
 51
90.0002933875
  0
ARC
  8
4_SURFACE
 62
7
  6
CONTINUOUS
 10
88.588410293
 20
123.5754360551
 40
0.9999974397
 50
359.9997066126
 51
90.0002933875
  0
ARC
  8
0
 62
7
  6
CONTINUOUS
 10
151.8384051724
 20
105.5754309345
 40
1.0
 50
270.0
 51
360.0
  0
ARC
  8
0
 62
7
  6
CONTINUOUS
 10
101.2384051724
 20
105.5754309345
 40
1.0
 50
270.0
 51
360.0
  0
ARC
  8
0
 62
7
  6
CONTINUOUS
 10
148.3284051724
 20
105.5754309345
 40
1.0
 50
180.0
 51
270.0
  0
ARC
  8
0
 62
7
  6
CONTINUOUS
 10
97.7284051724
 20
105.5754309345
 40
1.0
 50
180.0
 51
270.0
  0
ARC
  8
0
 62
7
  6
CONTINUOUS
 10
110.3784051724
 20
105.5754309345
 40
1.0
 50
180.0
 51
270.0
  0
ARC
  8
0
 62
7
  6
CONTINUOUS
 10
113.8884051724
 20
105.5754309345
 40
1.0
 50
270.0
 51
360.0
  0
ARC
  8
0
 62
7
  6
CONTINUOUS
 10
135.6784051724
 20
105.5754309345
 40
1.0
 50
180.0
 51
270.0
  0
ARC
  8
0
 62
7
  6
CONTINUOUS
 10
139.1884051724
 20
105.5754309345
 40
1.0
 50
270.0
 51
360.0
  0
ARC
  8
0
 62
7
  6
CONTINUOUS
 10
123.0284051724
 20
105.5754309345
 40
1.0
 50
180.0
 51
270.0
  0
ARC
  8
0
 62
7
  6
CONTINUOUS
 10
126.5384051724
 20
105.5754309345
 40
1.0
 50
270.0
 51
360.0
  0
ARC
  8
0
 62
7
  6
CONTINUOUS
 10
159.275560819
 20
89.6754327082
 40
0.5
 50
269.9999958871
 51
357.9998824018
  0
ARC
  8
0
 62
7
  6
CONTINUOUS
 10
166.2412495272
 20
89.6754326682
 40
0.5
 50
182.0001130086
 51
270.0000039527
  0
ARC
  8
0
 62
7
  6
CONTINUOUS
 10
168.7584051724
 20
89.6754316896
 40
0.5
 50
270.0000014797
 51
359.9999989428
  0
ARC
  8
0
 62
7
  6
CONTINUOUS
 10
167.8584051724
 20
128.2754309345
 40
1.4
 50
0.0
 51
90.0
  0
ARC
  8
0
 62
7
  6
CONTINUOUS
 10
151.8384051724
 20
123.5754309345
 40
1.0
 50
0.0
 51
90.0
  0
ARC
  8
0
 62
7
  6
CONTINUOUS
 10
101.2384051724
 20
123.5754309345
 40
1.0
 50
0.0
 51
90.0
  0
ARC
  8
0
 62
7
  6
CONTINUOUS
 10
113.8884051724
 20
123.5754309345
 40
1.0
 50
0.0
 51
90.0
  0
ARC
  8
0
 62
7
  6
CONTINUOUS
 10
126.5384051724
 20
123.5754309345
 40
1.0
 50
0.0
 51
90.0
  0
ARC
  8
0
 62
7
  6
CONTINUOUS
 10
139.1884051724
 20
123.5754309345
 40
1.0
 50
0.0
 51
90.0
  0
ARC
  8
0
 62
7
  6
CONTINUOUS
 10
148.3284000519
 20
123.5754360551
 40
0.9999974397
 50
89.9997066125
 51
180.0002933874
  0
ARC
  8
0
 62
7
  6
CONTINUOUS
 10
97.7284000519
 20
123.5754360551
 40
0.9999974397
 50
89.9997066125
 51
180.0002933874
  0
ARC
  8
0
 62
7
  6
CONTINUOUS
 10
110.3784000519
 20
123.5754360551
 40
0.9999974397
 50
89.9997066125
 51
180.0002933874
  0
ARC
  8
0
 62
7
  6
CONTINUOUS
 10
123.0284000519
 20
123.5754360551
 40
0.9999974397
 50
89.9997066125
 51
180.0002933874
  0
ARC
  8
0
 62
7
  6
CONTINUOUS
 10
135.6784000519
 20
123.5754360551
 40
0.9999974397
 50
89.9997066125
 51
180.0002933874
  0
ARC
  8
4_SURFACE
 62
7
  6
CONTINUOUS
 10
17.5584051724
 20
171.133841557
 40
0.5
 50
180.0
 51
270.0
  0
ARC
  8
4_SURFACE
 62
7
  6
CONTINUOUS
 10
79.5953772163
 20
171.133841557
 40
0.5
 50
270.0
 51
359.0
  0
ARC
  8
4_SURFACE
 62
7
  6
CONTINUOUS
 10
53.2714351482
 20
171.133841557
 40
0.5
 50
180.999995961
 51
269.9997685632
  0
ARC
  8
4_SURFACE
 62
7
  6
CONTINUOUS
 10
56.1214331286
 20
171.133841557
 40
0.5
 50
181.0
 51
270.0
  0
ARC
  8
4_SURFACE
 62
7
  6
CONTINUOUS
 10
28.8953772163
 20
171.133841557
 40
0.5
 50
270.0
 51
359.0
  0
ARC
  8
4_SURFACE
 62
7
  6
CONTINUOUS
 10
31.8453794625
 20
171.133841557
 40
0.4999997492
 50
269.9997995795
 51
358.9998429363
  0
ARC
  8
4_SURFACE
 62
7
  6
CONTINUOUS
 10
82.4453810063
 20
171.133841557
 40
0.4999996775
 50
269.9996707555
 51
359.0001367843
  0
ARC
  8
4_SURFACE
 62
7
  6
CONTINUOUS
 10
32.9799335443
 20
178.833841557
 40
0.5
 50
90.7989892563
 51
179.0
  0
ARC
  8
4_SURFACE
 62
7
  6
CONTINUOUS
 10
29.0996069895
 20
182.833841557
 40
0.4999978797
 50
358.9999889732
 51
90.0006318072
  0
ARC
  8
4_SURFACE
 62
7
  6
CONTINUOUS
 10
19.1019616003
 20
182.8938391254
 40
0.44
 50
89.9984168295
 51
101.3083179271
  0
ARC
  8
4_SURFACE
 62
7
  6
CONTINUOUS
 10
17.4984051724
 20
182.5731278398
 40
0.44
 50
101.309932474
 51
180.0
  0
ARC
  8
4_SURFACE
 62
7
  6
CONTINUOUS
 10
83.5799335443
 20
178.833841557
 40
0.5
 50
90.7989892563
 51
179.0
  0
ARC
  8
4_SURFACE
 62
7
  6
CONTINUOUS
 10
52.1368806122
 20
178.833841557
 40
0.4999985342
 50
1.0000076229
 51
89.2014467748
  0
ARC
  8
4_SURFACE
 62
7
  6
CONTINUOUS
 10
79.7996014759
 20
182.833841557
 40
0.5
 50
359.0
 51
90.0
  0
ARC
  8
4_SURFACE
 62
7
  6
CONTINUOUS
 10
55.9172088689
 20
182.833841557
 40
0.5
 50
90.0
 51
181.0
  0
ARC
  8
0
 62
7
  6
CONTINUOUS
 10
133.0453772163
 20
171.133841557
 40
0.5
 50
270.0000945483
 51
359.0000836517
  0
ARC
  8
0
 62
7
  6
CONTINUOUS
 10
130.1953772163
 20
171.133841557
 40
0.5
 50
270.0
 51
359.0
  0
ARC
  8
0
 62
7
  6
CONTINUOUS
 10
157.4214331286
 20
171.133841557
 40
0.5
 50
181.0
 51
270.0
  0
ARC
  8
0
 62
7
  6
CONTINUOUS
 10
106.7214331286
 20
171.133841557
 40
0.5
 50
181.0
 51
270.0
  0
ARC
  8
0
 62
7
  6
CONTINUOUS
 10
168.7584051724
 20
171.133841557
 40
0.5
 50
270.0
 51
360.0
  0
ARC
  8
0
 62
7
  6
CONTINUOUS
 10
154.4714308823
 20
171.133841557
 40
0.4999997492
 50
181.0001570637
 51
270.0002004205
  0
ARC
  8
0
 62
7
  6
CONTINUOUS
 10
103.8714293386
 20
171.133841557
 40
0.4999996775
 50
180.9998632157
 51
270.0003292445
  0
ARC
  8
0
 62
7
  6
CONTINUOUS
 10
102.7368768006
 20
178.833841557
 40
0.5
 50
1.0
 51
89.2010107437
  0
ARC
  8
0
 62
7
  6
CONTINUOUS
 10
134.1799297326
 20
178.833841557
 40
0.4999985342
 50
90.7985532252
 51
178.9999923771
  0
ARC
  8
0
 62
7
  6
CONTINUOUS
 10
130.3996014759
 20
182.833841557
 40
0.5
 50
359.0
 51
90.0
  0
ARC
  8
0
 62
7
  6
CONTINUOUS
 10
106.517208885
 20
182.8338406335
 40
0.5
 50
90.0000018473
 51
180.9998941517
  0
ARC
  8
0
 62
7
  6
CONTINUOUS
 10
153.3368768006
 20
178.833841557
 40
0.5
 50
1.0
 51
89.2010107437
  0
ARC
  8
0
 62
7
  6
CONTINUOUS
 10
157.2172033553
 20
182.833841557
 40
0.4999978797
 50
89.9993681928
 51
181.0000110268
  0
ARC
  8
0
 62
7
  6
CONTINUOUS
 10
167.2148487445
 20
182.8938391254
 40
0.44
 50
78.6916820729
 51
90.0015831705
  0
ARC
  8
0
 62
7
  6
CONTINUOUS
 10
168.8184051724
 20
182.5731278398
 40
0.44
 50
0.0
 51
78.690067526
  0
ARC
  8
4_SURFACE
 62
7
  6
CONTINUOUS
 10
183.2211260398
 20
122.4640952366
 40
2.0
 50
110.03
 51
180.0
  0
ARC
  8
4_SURFACE
 62
7
  6
CONTINUOUS
 10
181.7211260398
 20
126.5354370621
 40
0.4999976432
 50
90.0
 51
180.0007021665
  0
ARC
  8
0
 62
7
  6
CONTINUOUS
 10
187.571201315
 20
95.6754309341
 40
6.5
 50
192.3297961702
 51
269.9712469788
  0
ARC
  8
4_SURFACE
 62
7
  6
CONTINUOUS
 10
187.571201315
 20
95.6754309341
 40
6.5
 50
192.3297961702
 51
269.9712469788
  0
ARC
  8
0
 62
7
  6
CONTINUOUS
 10
187.5711260398
 20
95.5254309345
 40
6.35
 50
313.2694008375
 51
314.2730001608
  0
ARC
  8
0
 62
7
  6
CONTINUOUS
 10
187.5711260398
 20
95.5254309345
 40
6.35
 50
339.269209738
 51
341.3852937102
  0
ARC
  8
0
 62
7
  6
CONTINUOUS
 10
187.5711260398
 20
95.5254309345
 40
6.35
 50
353.135785043
 51
360.0
  0
ARC
  8
0
 62
7
  6
CONTINUOUS
 10
187.5711260398
 20
95.5254309345
 40
6.35
 50
291.625133941
 51
293.5579638256
  0
ARC
  8
0
 62
7
  6
CONTINUOUS
 10
187.5711260398
 20
95.5254309345
 40
6.35
 50
277.7141653948
 51
290.0462469072
  0
ARC
  8
0
 62
7
  6
CONTINUOUS
 10
187.5711260398
 20
95.5254309345
 40
6.35
 50
269.9712469788
 51
276.7443743025
  0
ARC
  8
4_SURFACE
 62
7
  6
CONTINUOUS
 10
187.5711260398
 20
95.5254309345
 40
6.35
 50
269.9712469788
 51
360.0
  0
CIRCLE
  8
4_SURFACE
 62
7
  6
CONTINUOUS
 10
187.5711260398
 20
95.5254309345
 40
3.25
  0
ARC
  8
4_SURFACE
 62
7
  6
CONTINUOUS
 10
187.5716372921
 20
133.4752234486
 40
6.855
 50
290.03
 51
326.1143692679
  0
ARC
  8
4_SURFACE
 62
7
  6
CONTINUOUS
 10
187.571201315
 20
133.475430935
 40
6.5
 50
90.0287530212
 51
167.6702038298
  0
ARC
  8
0
 62
7
  6
CONTINUOUS
 10
187.571201315
 20
133.475430935
 40
6.5
 50
90.0287530212
 51
167.6702038298
  0
ARC
  8
0
 62
7
  6
CONTINUOUS
 10
187.5711260398
 20
133.6254309345
 40
6.35
 50
0.0
 51
6.9046706197
  0
ARC
  8
0
 62
7
  6
CONTINUOUS
 10
187.5711260398
 20
133.6254309345
 40
6.35
 50
83.1222184071
 51
90.0287530212
  0
ARC
  8
4_SURFACE
 62
7
  6
CONTINUOUS
 10
187.5711260398
 20
133.6254309345
 40
6.35
 50
0.0
 51
90.0287530212
  0
CIRCLE
  8
4_SURFACE
 62
7
  6
CONTINUOUS
 10
187.5711260398
 20
133.6254309345
 40
3.25
  0
ARC
  8
4_SURFACE
 62
7
  6
CONTINUOUS
 10
193.4211260398
 20
129.1754361537
 40
0.4999979926
 50
359.9994019335
 51
90.0
  0
ARC
  8
0
 62
7
  6
CONTINUOUS
 10
193.4211260398
 20
129.1754361537
 40
0.4999979926
 50
58.6722330569
 51
74.5468347706
  0
ARC
  8
0
 62
7
  6
CONTINUOUS
 10
193.4211260398
 20
129.1754361537
 40
0.4999979926
 50
40.0293424355
 51
49.6569276894
  0
ARC
  8
4_SURFACE
 62
7
  6
CONTINUOUS
 10
193.3038377944
 20
129.6254309345
 40
0.05
 50
89.9999999999
 51
146.1143692678
  0
ENDSEC
  0
EOF
