  0
SECTION
  2
HEADER
  9
$EXTMAX
 10
210.0
 20
297.0
 30
0.0
  9
$EXTMIN
 10
0.0
 20
0.0
 30
0.0
  9
$LIMMIN
 10
0.0
 20
0.0
  9
$LIMMAX
 10
210.0
 20
297.0
  9
$VIEWCTR
 10
105.0
 20
148.5
  9
$VIEWSIZE
 40
297.0
  9
$CLAYER
  8
0
  9
$LTSCALE
 40
19.36
  9
$CELTYPE
  6
BYLAYER
  9
$DIMSCALE
 40
1.0
  9
$DIMASZ
 40
3.5
  9
$DIMEXO
 40
2.2
  9
$DIMDLI
 40
13.376
  9
$DIMEXE
 40
6.336
  9
$DIMCEN
 40
3.168
  9
$DIMLFAC
 40
1.0
  9
$DIMBLK
  1
_FILLED
  9
$DIMTXT
 40
3.5
  9
$PDMODE
 70
3
  9
$PDSIZE
 40
0.3125
  9
$TILEMODE
 70
1
  0
ENDSEC
  0
SECTION
  2
TABLES
  0
TABLE
  2
LTYPE
 70
6
  0
LTYPE
  2
BYBLOCK
 70
0
  3

 72
65
 73
0
 40
0.0
  0
LTYPE
  2
BYLAYER
 70
0
  3

 72
65
 73
0
 40
0.0
  0
LTYPE
  2
CONTINUOUS
 70
64
  3
Solid line
 72
65
 73
0
 40
0.0
  0
LTYPE
  2
CENTER
 70
64
  3
____ _ ____ _ ____ _ ____ _ ____ _ ____ _ ____
 72
65
 73
4
 40
0.6
 49
0.375
 49
-0.075
 49
0.075
 49
-0.075
  0
LTYPE
  2
HIDDEN
 70
64
  3
- - - - - - - - - - - - - - - - - - - -
 72
65
 73
2
 40
0.2
 49
0.1
 49
-0.1
  0
LTYPE
  2
PHANTOM
 70
64
  3
_____ _ _ _____ _ _ _____ _ _ _____
 72
65
 73
6
 40
0.8
 49
0.45
 49
-0.05
 49
0.1
 49
-0.05
 49
0.1
 49
-0.05
  0
LTYPE
  2
DOT
 70
64
  3
. . . . . . . . . . . . . . . . . . . .
 72
65
 73
2
 40
0.2
 49
0.1
 49
-0.1
  0
LTYPE
  2
DASHED
 70
64
  3
- - - - - - - - - - - - - - - - - - - -
 72
65
 73
2
 40
0.2
 49
0.1
 49
-0.1
  0
ENDTAB
  0
TABLE
  2
LAYER
 70
36
  0
LAYER
  2
0
 70
0
 62
7
  6
CONTINUOUS
  0
LAYER
  2
DEFAULT_1
 70
0
 62
7
  6
CENTER
  0
LAYER
  2
DEFAULT_2
 70
0
 62
8
  6
HIDDEN
  0
LAYER
  2
DEFAULT_3
 70
0
 62
7
  6
PHANTOM
  0
LAYER
  2
1_AXIS
 70
0
 62
7
  6
CONTINUOUS
  0
LAYER
  2
1_CSYS
 70
0
 62
7
  6
CONTINUOUS
  0
LAYER
  2
1_DATUMPLANE
 70
0
 62
7
  6
CONTINUOUS
  0
LAYER
  2
1_DATUM_PLANE
 70
0
 62
7
  6
CONTINUOUS
  0
LAYER
  2
4_QUILT
 70
0
 62
7
  6
CONTINUOUS
  0
LAYER
  2
4_SURFACE
 70
0
 62
7
  6
CONTINUOUS
  0
LAYER
  2
6_DIM
 70
0
 62
7
  6
CONTINUOUS
  0
LAYER
  2
6_NOTE
 70
0
 62
7
  6
CONTINUOUS
  0
LAYER
  2
AXES
 70
0
 62
7
  6
CONTINUOUS
  0
LAYER
  2
PLANES
 70
0
 62
7
  6
CONTINUOUS
  0
LAYER
  2
SUF
 70
0
 62
7
  6
CONTINUOUS
  0
ENDTAB
  0
TABLE
  2
STYLE
 70
1
  0
STYLE
  2
STANDARD
 70
0
 40
0.0
 41
0.8
 50
0.0
 71
0
 42
0.2
  3
txt
  4

  0
STYLE
  2
TEXTSTYLE_1
 70
0
 40
0.0
 41
0.8
 50
0.0
 71
0
 42
0.2
  3
gdt
  4

  0
STYLE
  2
TEXTSTYLE_2
 70
0
 40
0.0
 41
0.6
 50
0.0
 71
0
 42
0.2
  3
txt
  4

  0
STYLE
  2
TEXTSTYLE_3
 70
0
 40
0.0
 41
1.0
 50
0.0
 71
0
 42
0.2
  3
ftb_____.ttf
  4

  0
STYLE
  2
TEXTSTYLE_4
 70
0
 40
0.0
 41
1.0
 50
0.0
 71
0
 42
0.2
  3
fti_____.ttf
  4

  0
STYLE
  2
TEXTSTYLE_5
 70
0
 40
0.0
 41
1.0
 50
0.0
 71
0
 42
0.2
  3
frutiger light.ttf
  4

  0
STYLE
  2
TEXTSTYLE_6
 70
0
 40
0.0
 41
0.7
 50
0.0
 71
0
 42
0.2
  3
txt
  4

  0
STYLE
  2
TEXTSTYLE_7
 70
0
 40
0.0
 41
0.65
 50
0.0
 71
0
 42
0.2
  3
txt
  4

  0
ENDTAB
  0
ENDSEC
  0
SECTION
  2
BLOCKS
  0
BLOCK
  8
0
 62
2
  6
CONTINUOUS
  2
SYMBOL_8_BL1
 70
64
 10
173.5956734183
 20
35.5937998301
  0
TEXT
  8
0
 62
7
  6
CONTINUOUS
 10
164.6539584268
 20
30.6865562072
  7
TEXTSTYLE_4
 40
1.0655737705
  1
The brand for plastic modular belts and chains
 41
1.0
 72
0
  0
LINE
  8
0
 62
7
  6
CONTINUOUS
 10
149.5737418074
 20
36.1675703219
 11
149.5737418074
 21
34.0364227809
  0
LINE
  8
0
 62
7
  6
CONTINUOUS
 10
149.8628043005
 20
31.0454914852
 11
149.8628043005
 21
31.1422825445
  0
LINE
  8
0
 62
7
  6
CONTINUOUS
 10
149.5737418074
 20
31.1100188581
 11
149.6315543091
 21
30.9164367395
  0
LINE
  8
0
 62
7
  6
CONTINUOUS
 10
150.9671844304
 20
33.9544555678
 11
150.9671844304
 21
36.1675703219
  0
LINE
  8
0
 62
7
  6
CONTINUOUS
 10
151.8862417523
 20
32.1101932727
 11
151.8862417523
 21
30.5937998301
  0
LINE
  8
0
 62
7
  6
CONTINUOUS
 10
152.1753043074
 20
30.5937998301
 11
152.1753043074
 21
31.3358647082
  0
LINE
  8
0
 62
7
  6
CONTINUOUS
 10
152.1753043074
 20
31.4649194539
 11
152.1753043074
 21
32.1101932727
  0
LINE
  8
0
 62
7
  6
CONTINUOUS
 10
149.6315543091
 20
31.3036010218
 11
149.5737418074
 21
31.1100188581
  0
LINE
  8
0
 62
7
  6
CONTINUOUS
 10
149.9784292936
 20
30.8841730531
 11
149.8628043005
 21
31.0454914852
  0
LINE
  8
0
 62
7
  6
CONTINUOUS
 10
151.0768668626
 20
31.400392081
 11
151.1346793074
 21
31.3036010218
  0
LINE
  8
0
 62
7
  6
CONTINUOUS
 10
151.4237418626
 20
31.3036010218
 11
151.3659292523
 21
31.4326557675
  0
LINE
  8
0
 62
7
  6
CONTINUOUS
 10
152.852430332
 20
36.1675703219
 11
152.852430332
 21
34.3642916334
  0
LINE
  8
0
 62
7
  6
CONTINUOUS
 10
152.852430332
 20
33.0528162235
 11
152.852430332
 21
32.3970785186
  0
LINE
  8
0
 62
7
  6
CONTINUOUS
 10
153.2159293074
 20
31.2390736489
 11
153.2159293074
 21
30.5937998301
  0
LINE
  8
0
 62
7
  6
CONTINUOUS
 10
153.5049916972
 20
30.5937998301
 11
153.5049916972
 21
31.2390736489
  0
LINE
  8
0
 62
7
  6
CONTINUOUS
 10
149.8628043005
 20
31.1422825445
 11
149.9206168074
 21
31.2713373354
  0
LINE
  8
0
 62
7
  6
CONTINUOUS
 10
149.6315543091
 20
30.9164367395
 11
149.7471793074
 21
30.7873819712
  0
LINE
  8
0
 62
7
  6
CONTINUOUS
 10
153.1581166972
 20
31.3681283946
 11
153.2159293074
 21
31.2390736489
  0
LINE
  8
0
 62
7
  6
CONTINUOUS
 10
153.9674919177
 20
30.8841730531
 11
154.0253041972
 21
30.7551182848
  0
LINE
  8
0
 62
7
  6
CONTINUOUS
 10
153.5049916972
 20
31.2390736489
 11
153.4471794177
 21
31.400392081
  0
LINE
  8
0
 62
7
  6
CONTINUOUS
 10
153.9674919177
 20
31.4326557675
 11
153.9674919177
 21
31.3681283946
  0
LINE
  8
0
 62
7
  6
CONTINUOUS
 10
153.9674919177
 20
30.9809641124
 11
153.9674919177
 21
30.8841730531
  0
LINE
  8
0
 62
7
  6
CONTINUOUS
 10
154.245872955
 20
32.3970785186
 11
154.245872955
 21
36.1675703219
  0
LINE
  8
0
 62
7
  6
CONTINUOUS
 10
154.2565543074
 20
30.8519093441
 11
154.2565543074
 21
30.9164367395
  0
LINE
  8
0
 62
7
  6
CONTINUOUS
 10
154.5737418074
 20
36.1675703219
 11
154.5737418074
 21
32.3970785186
  0
LINE
  8
0
 62
7
  6
CONTINUOUS
 10
151.3659292523
 20
30.7873819712
 11
151.4237418626
 21
30.9164367395
  0
LINE
  8
0
 62
7
  6
CONTINUOUS
 10
155.759679528
 20
30.6905909007
 11
155.7018665869
 21
30.8519093441
  0
LINE
  8
0
 62
7
  6
CONTINUOUS
 10
155.412804528
 20
31.3681283946
 11
155.412804528
 21
31.2713373354
  0
LINE
  8
0
 62
7
  6
CONTINUOUS
 10
155.412804528
 20
31.1422825445
 11
155.412804528
 21
30.9487004259
  0
LINE
  8
0
 62
7
  6
CONTINUOUS
 10
155.7018665869
 20
30.8519093441
 11
155.7018665869
 21
31.3681283946
  0
LINE
  8
0
 62
7
  6
CONTINUOUS
 10
155.9671844304
 20
32.3970785186
 11
155.9671844304
 21
34.2003572071
  0
LINE
  8
0
 62
7
  6
CONTINUOUS
 10
155.9671844304
 20
35.511832617
 11
155.9671844304
 21
36.1675703219
  0
LINE
  8
0
 62
7
  6
CONTINUOUS
 10
156.279992028
 20
32.1101932727
 11
156.279992028
 21
31.9488748406
  0
LINE
  8
0
 62
7
  6
CONTINUOUS
 10
156.279992028
 20
31.626237886
 11
156.279992028
 21
30.5937998301
  0
LINE
  8
0
 62
7
  6
CONTINUOUS
 10
156.5690540869
 20
30.5937998301
 11
156.5690540869
 21
31.626237886
  0
LINE
  8
0
 62
7
  6
CONTINUOUS
 10
156.5690540869
 20
31.9488748406
 11
156.5690540869
 21
32.1101932727
  0
LINE
  8
0
 62
7
  6
CONTINUOUS
 10
151.1346793074
 20
30.9164367395
 11
151.0768668626
 21
30.8196456577
  0
LINE
  8
0
 62
7
  6
CONTINUOUS
 10
153.4471794177
 20
31.400392081
 11
153.3893668074
 21
31.4649194539
  0
LINE
  8
0
 62
7
  6
CONTINUOUS
 10
154.3143669177
 20
30.7873819712
 11
154.2565543074
 21
30.8519093441
  0
LINE
  8
0
 62
7
  6
CONTINUOUS
 10
155.4706168074
 20
30.6583272086
 11
155.5284290869
 21
30.5937998301
  0
LINE
  8
0
 62
7
  6
CONTINUOUS
 10
155.412804528
 20
30.7551182848
 11
155.4706168074
 21
30.6583272086
  0
LINE
  8
0
 62
7
  6
CONTINUOUS
 10
155.8174918074
 20
30.5937998301
 11
155.759679528
 21
30.6905909007
  0
LINE
  8
0
 62
7
  6
CONTINUOUS
 10
155.7018665869
 20
31.3681283946
 11
155.6440543074
 21
31.4649194539
  0
LINE
  8
0
 62
7
  6
CONTINUOUS
 10
157.0315543074
 20
31.626237886
 11
157.0315543074
 21
30.5937998301
  0
LINE
  8
0
 62
7
  6
CONTINUOUS
 10
157.320617028
 20
30.5937998301
 11
157.320617028
 21
31.3358647082
  0
LINE
  8
0
 62
7
  6
CONTINUOUS
 10
157.320617028
 20
31.4649194539
 11
157.320617028
 21
31.626237886
  0
LINE
  8
0
 62
7
  6
CONTINUOUS
 10
157.852430332
 20
34.6101932727
 11
157.852430332
 21
32.3970785186
  0
LINE
  8
0
 62
7
  6
CONTINUOUS
 10
149.7471793074
 20
31.4326557675
 11
149.6315543091
 21
31.3036010218
  0
LINE
  8
0
 62
7
  6
CONTINUOUS
 10
149.9206168074
 20
31.2713373354
 11
149.9784292936
 21
31.3358647082
  0
LINE
  8
0
 62
7
  6
CONTINUOUS
 10
149.7471793074
 20
30.7873819712
 11
149.8628043005
 21
30.7228545871
  0
LINE
  8
0
 62
7
  6
CONTINUOUS
 10
150.1518667936
 20
30.7873819712
 11
149.9784292936
 21
30.8841730531
  0
LINE
  8
0
 62
7
  6
CONTINUOUS
 10
155.3549915869
 20
31.4326557675
 11
155.412804528
 21
31.3681283946
  0
LINE
  8
0
 62
7
  6
CONTINUOUS
 10
158.3034290869
 20
31.3681283946
 11
158.361242028
 21
31.2068099625
  0
LINE
  8
0
 62
7
  6
CONTINUOUS
 10
158.6503040869
 20
31.2068099625
 11
158.5924918074
 21
31.3681283946
  0
LINE
  8
0
 62
7
  6
CONTINUOUS
 10
158.361242028
 20
31.2068099625
 11
158.361242028
 21
30.5937998301
  0
LINE
  8
0
 62
7
  6
CONTINUOUS
 10
158.6503040869
 20
30.5937998301
 11
158.6503040869
 21
31.2068099625
  0
LINE
  8
0
 62
7
  6
CONTINUOUS
 10
159.1128043074
 20
31.4326557675
 11
159.1128043074
 21
31.3681283946
  0
LINE
  8
0
 62
7
  6
CONTINUOUS
 10
159.245872955
 20
32.3970785186
 11
159.245872955
 21
34.5282260596
  0
LINE
  8
0
 62
7
  6
CONTINUOUS
 10
159.5737418074
 20
36.1675703219
 11
159.5737418074
 21
32.3970785186
  0
LINE
  8
0
 62
7
  6
CONTINUOUS
 10
154.2565543074
 20
30.9164367395
 11
154.3143669177
 21
31.0132277988
  0
LINE
  8
0
 62
7
  6
CONTINUOUS
 10
149.8628043005
 20
30.7228545871
 11
150.0362418212
 21
30.6583272086
  0
LINE
  8
0
 62
7
  6
CONTINUOUS
 10
151.3659292523
 20
31.4326557675
 11
151.1924917523
 21
31.5294468267
  0
LINE
  8
0
 62
7
  6
CONTINUOUS
 10
154.0253041972
 20
30.7551182848
 11
154.1987416972
 21
30.6583272086
  0
LINE
  8
0
 62
7
  6
CONTINUOUS
 10
153.0424918074
 20
31.4326557675
 11
153.1581166972
 21
31.3681283946
  0
LINE
  8
0
 62
7
  6
CONTINUOUS
 10
153.3893668074
 20
31.4649194539
 11
153.2737419177
 21
31.5294468267
  0
LINE
  8
0
 62
7
  6
CONTINUOUS
 10
159.1128043074
 20
30.8519093441
 11
159.228429528
 21
30.7228545871
  0
LINE
  8
0
 62
7
  6
CONTINUOUS
 10
159.4596793074
 20
30.7873819712
 11
159.401867028
 21
30.8519093441
  0
LINE
  8
0
 62
7
  6
CONTINUOUS
 10
159.1128043074
 20
31.3681283946
 11
159.228429528
 21
31.2390736489
  0
LINE
  8
0
 62
7
  6
CONTINUOUS
 10
158.5924918074
 20
31.3681283946
 11
158.534679528
 21
31.4649194539
  0
LINE
  8
0
 62
7
  6
CONTINUOUS
 10
160.9628038663
 20
30.7873819712
 11
160.9628038663
 21
30.8519093441
  0
LINE
  8
0
 62
7
  6
CONTINUOUS
 10
160.9671844304
 20
32.3970785186
 11
160.9671844304
 21
36.1675703219
  0
LINE
  8
0
 62
7
  6
CONTINUOUS
 10
154.0253041972
 20
31.4971831403
 11
153.9674919177
 21
31.4326557675
  0
LINE
  8
0
 62
7
  6
CONTINUOUS
 10
150.9034292799
 20
31.4649194539
 11
151.0768668626
 21
31.400392081
  0
LINE
  8
0
 62
7
  6
CONTINUOUS
 10
155.6440543074
 20
31.4649194539
 11
155.5284290869
 21
31.5294468267
  0
LINE
  8
0
 62
7
  6
CONTINUOUS
 10
159.4596793074
 20
31.3036010218
 11
159.401867028
 21
31.3681283946
  0
LINE
  8
0
 62
7
  6
CONTINUOUS
 10
160.615929528
 20
30.9164367395
 11
160.6737418074
 21
30.8519093441
  0
LINE
  8
0
 62
7
  6
CONTINUOUS
 10
160.9628038663
 20
30.8519093441
 11
160.8471793074
 21
30.9809641124
  0
LINE
  8
0
 62
7
  6
CONTINUOUS
 10
160.615929528
 20
31.4326557675
 11
160.6737418074
 21
31.3681283946
  0
LINE
  8
0
 62
7
  6
CONTINUOUS
 10
160.9628038663
 20
31.3681283946
 11
160.8471793074
 21
31.4971831403
  0
LINE
  8
0
 62
7
  6
CONTINUOUS
 10
154.2565543074
 20
31.3681283946
 11
154.3143669177
 21
31.4326557675
  0
LINE
  8
0
 62
7
  6
CONTINUOUS
 10
154.0831168074
 20
31.1100188581
 11
153.9674919177
 21
30.9809641124
  0
LINE
  8
0
 62
7
  6
CONTINUOUS
 10
155.412804528
 20
30.9487004259
 11
155.3549915869
 21
30.8841730531
  0
LINE
  8
0
 62
7
  6
CONTINUOUS
 10
155.3549915869
 20
30.6905909007
 11
155.412804528
 21
30.7551182848
  0
LINE
  8
0
 62
7
  6
CONTINUOUS
 10
154.1987416972
 20
30.6583272086
 11
154.3143669177
 21
30.6260635193
  0
LINE
  8
0
 62
7
  6
CONTINUOUS
 10
151.1924917523
 20
31.5294468267
 11
150.9612418074
 21
31.5939741996
  0
LINE
  8
0
 62
7
  6
CONTINUOUS
 10
154.5456166972
 20
30.7228545871
 11
154.3143669177
 21
30.7873819712
  0
LINE
  8
0
 62
7
  6
CONTINUOUS
 10
153.2737419177
 20
31.5294468267
 11
153.1003044177
 21
31.5939741996
  0
LINE
  8
0
 62
7
  6
CONTINUOUS
 10
155.5284290869
 20
31.5294468267
 11
155.3549915869
 21
31.5939741996
  0
LINE
  8
0
 62
7
  6
CONTINUOUS
 10
158.187804528
 20
31.4326557675
 11
158.3034290869
 21
31.3681283946
  0
LINE
  8
0
 62
7
  6
CONTINUOUS
 10
158.534679528
 20
31.4649194539
 11
158.4190543074
 21
31.5294468267
  0
LINE
  8
0
 62
7
  6
CONTINUOUS
 10
150.0362418212
 20
30.6583272086
 11
150.2096793212
 21
30.6260635193
  0
LINE
  8
0
 62
7
  6
CONTINUOUS
 10
150.498741835
 20
30.7228545871
 11
150.1518667936
 21
30.7873819712
  0
LINE
  8
0
 62
7
  6
CONTINUOUS
 10
152.9268669177
 20
31.4649194539
 11
153.0424918074
 21
31.4326557675
  0
LINE
  8
0
 62
7
  6
CONTINUOUS
 10
155.239367028
 20
31.4649194539
 11
155.3549915869
 21
31.4326557675
  0
LINE
  8
0
 62
7
  6
CONTINUOUS
 10
159.575304528
 20
30.7551182848
 11
159.4596793074
 21
30.7873819712
  0
LINE
  8
0
 62
7
  6
CONTINUOUS
 10
158.0721793074
 20
31.4649194539
 11
158.187804528
 21
31.4326557675
  0
LINE
  8
0
 62
7
  6
CONTINUOUS
 10
159.228429528
 20
30.7228545871
 11
159.401867028
 21
30.6583272086
  0
LINE
  8
0
 62
7
  6
CONTINUOUS
 10
158.4190543074
 20
31.5294468267
 11
158.2456168074
 21
31.5939741996
  0
LINE
  8
0
 62
7
  6
CONTINUOUS
 10
159.6331168074
 20
31.2390736489
 11
159.4596793074
 21
31.3036010218
  0
LINE
  8
0
 62
7
  6
CONTINUOUS
 10
160.442492028
 20
30.9809641124
 11
160.615929528
 21
30.9164367395
  0
LINE
  8
0
 62
7
  6
CONTINUOUS
 10
160.8471793074
 20
31.4971831403
 11
160.6737418074
 21
31.5617105132
  0
LINE
  8
0
 62
7
  6
CONTINUOUS
 10
159.228429528
 20
31.2390736489
 11
159.4596793074
 21
31.1422825445
  0
LINE
  8
0
 62
7
  6
CONTINUOUS
 10
160.8471793074
 20
30.9809641124
 11
160.615929528
 21
31.0777551716
  0
LINE
  8
0
 62
7
  6
CONTINUOUS
 10
159.401867028
 20
31.3681283946
 11
159.4596793074
 21
31.4326557675
  0
LINE
  8
0
 62
7
  6
CONTINUOUS
 10
149.8628043005
 20
31.4971831403
 11
149.7471793074
 21
31.4326557675
  0
LINE
  8
0
 62
7
  6
CONTINUOUS
 10
149.9784292936
 20
31.3358647082
 11
150.1518667936
 21
31.4326557675
  0
LINE
  8
0
 62
7
  6
CONTINUOUS
 10
152.2909293626
 20
31.5294468267
 11
152.1753043074
 21
31.4649194539
  0
LINE
  8
0
 62
7
  6
CONTINUOUS
 10
152.1753043074
 20
31.3358647082
 11
152.2909293626
 21
31.400392081
  0
LINE
  8
0
 62
7
  6
CONTINUOUS
 10
151.1924917523
 20
30.6905909007
 11
151.3659292523
 21
30.7873819712
  0
LINE
  8
0
 62
7
  6
CONTINUOUS
 10
150.2096793212
 20
30.6260635193
 11
150.5565542799
 21
30.5937998301
  0
LINE
  8
0
 62
7
  6
CONTINUOUS
 10
154.3143669177
 20
30.6260635193
 11
154.5456166972
 21
30.5937998301
  0
LINE
  8
0
 62
7
  6
CONTINUOUS
 10
152.6956168074
 20
31.4971831403
 11
152.9268669177
 21
31.4649194539
  0
LINE
  8
0
 62
7
  6
CONTINUOUS
 10
155.0081169177
 20
31.4971831403
 11
155.239367028
 21
31.4649194539
  0
LINE
  8
0
 62
7
  6
CONTINUOUS
 10
159.4596793074
 20
31.1422825445
 11
160.442492028
 21
30.9809641124
  0
LINE
  8
0
 62
7
  6
CONTINUOUS
 10
160.615929528
 20
31.0777551716
 11
159.6331168074
 21
31.2390736489
  0
LINE
  8
0
 62
7
  6
CONTINUOUS
 10
153.1003044177
 20
31.5939741996
 11
152.9268669177
 21
31.626237886
  0
LINE
  8
0
 62
7
  6
CONTINUOUS
 10
159.401867028
 20
30.6583272086
 11
159.575304528
 21
30.6260635193
  0
LINE
  8
0
 62
7
  6
CONTINUOUS
 10
158.2456168074
 20
31.5939741996
 11
158.0721793074
 21
31.626237886
  0
LINE
  8
0
 62
7
  6
CONTINUOUS
 10
160.5003043074
 20
31.4649194539
 11
160.615929528
 21
31.4326557675
  0
LINE
  8
0
 62
7
  6
CONTINUOUS
 10
160.6737418074
 20
30.8519093441
 11
160.615929528
 21
30.7873819712
  0
LINE
  8
0
 62
7
  6
CONTINUOUS
 10
159.228429528
 20
31.5294468267
 11
159.1128043074
 21
31.4326557675
  0
LINE
  8
0
 62
7
  6
CONTINUOUS
 10
154.1409294177
 20
31.5617105132
 11
154.0253041972
 21
31.4971831403
  0
LINE
  8
0
 62
7
  6
CONTINUOUS
 10
154.1987416972
 20
31.1745462761
 11
154.0831168074
 21
31.1100188581
  0
LINE
  8
0
 62
7
  6
CONTINUOUS
 10
154.3143669177
 20
31.0132277988
 11
154.4299918074
 21
31.0777551716
  0
LINE
  8
0
 62
7
  6
CONTINUOUS
 10
151.8862417523
 20
30.5937998301
 11
152.1753043074
 21
30.5937998301
  0
LINE
  8
0
 62
7
  6
CONTINUOUS
 10
153.2159293074
 20
30.5937998301
 11
153.5049916972
 21
30.5937998301
  0
LINE
  8
0
 62
7
  6
CONTINUOUS
 10
154.5456166972
 20
30.5937998301
 11
154.8924916972
 21
30.5937998301
  0
LINE
  8
0
 62
7
  6
CONTINUOUS
 10
155.5284290869
 20
30.5937998301
 11
155.8174918074
 21
30.5937998301
  0
LINE
  8
0
 62
7
  6
CONTINUOUS
 10
156.279992028
 20
30.5937998301
 11
156.5690540869
 21
30.5937998301
  0
LINE
  8
0
 62
7
  6
CONTINUOUS
 10
157.0315543074
 20
30.5937998301
 11
157.320617028
 21
30.5937998301
  0
LINE
  8
0
 62
7
  6
CONTINUOUS
 10
158.361242028
 20
30.5937998301
 11
158.6503040869
 21
30.5937998301
  0
LINE
  8
0
 62
7
  6
CONTINUOUS
 10
159.922179528
 20
30.5937998301
 11
160.269054528
 21
30.5937998301
  0
LINE
  8
0
 62
7
  6
CONTINUOUS
 10
160.269054528
 20
30.7228545871
 11
159.922179528
 21
30.7228545871
  0
LINE
  8
0
 62
7
  6
CONTINUOUS
 10
154.8924916972
 20
30.7228545871
 11
154.5456166972
 21
30.7228545871
  0
LINE
  8
0
 62
7
  6
CONTINUOUS
 10
159.401867028
 20
30.8519093441
 11
159.1128043074
 21
30.8519093441
  0
LINE
  8
0
 62
7
  6
CONTINUOUS
 10
151.4237418626
 20
30.9164367395
 11
151.1346793074
 21
30.9164367395
  0
LINE
  8
0
 62
7
  6
CONTINUOUS
 10
150.498741835
 20
31.4971831403
 11
150.9034292799
 21
31.4649194539
  0
LINE
  8
0
 62
7
  6
CONTINUOUS
 10
150.9612418074
 20
31.5939741996
 11
150.5565542799
 21
31.626237886
  0
LINE
  8
0
 62
7
  6
CONTINUOUS
 10
159.575304528
 20
30.6260635193
 11
159.922179528
 21
30.5937998301
  0
LINE
  8
0
 62
7
  6
CONTINUOUS
 10
159.922179528
 20
30.7228545871
 11
159.575304528
 21
30.7551182848
  0
LINE
  8
0
 62
7
  6
CONTINUOUS
 10
155.3549915869
 20
31.5939741996
 11
155.0081169177
 21
31.626237886
  0
LINE
  8
0
 62
7
  6
CONTINUOUS
 10
160.1534293074
 20
31.4971831403
 11
160.5003043074
 21
31.4649194539
  0
LINE
  8
0
 62
7
  6
CONTINUOUS
 10
160.5003043074
 20
31.5939741996
 11
160.1534293074
 21
31.626237886
  0
LINE
  8
0
 62
7
  6
CONTINUOUS
 10
157.840929528
 20
31.4971831403
 11
158.0721793074
 21
31.4649194539
  0
LINE
  8
0
 62
7
  6
CONTINUOUS
 10
160.6737418074
 20
31.5617105132
 11
160.5003043074
 21
31.5939741996
  0
LINE
  8
0
 62
7
  6
CONTINUOUS
 10
160.8471793074
 20
30.6905909007
 11
160.9628038663
 21
30.7873819712
  0
LINE
  8
0
 62
7
  6
CONTINUOUS
 10
155.3549915869
 20
30.8841730531
 11
155.1815540869
 21
30.7873819712
  0
LINE
  8
0
 62
7
  6
CONTINUOUS
 10
157.4362415869
 20
31.5294468267
 11
157.320617028
 21
31.4649194539
  0
LINE
  8
0
 62
7
  6
CONTINUOUS
 10
157.320617028
 20
31.3358647082
 11
157.4362415869
 21
31.400392081
  0
LINE
  8
0
 62
7
  6
CONTINUOUS
 10
150.0362418212
 20
31.5617105132
 11
149.8628043005
 21
31.4971831403
  0
LINE
  8
0
 62
7
  6
CONTINUOUS
 10
152.4643666972
 20
31.5939741996
 11
152.2909293626
 21
31.5294468267
  0
LINE
  8
0
 62
7
  6
CONTINUOUS
 10
152.2909293626
 20
31.400392081
 11
152.4643666972
 21
31.4649194539
  0
LINE
  8
0
 62
7
  6
CONTINUOUS
 10
151.0768668626
 20
30.8196456577
 11
150.9034292799
 21
30.7551182848
  0
LINE
  8
0
 62
7
  6
CONTINUOUS
 10
160.5003043074
 20
30.7551182848
 11
160.269054528
 21
30.7228545871
  0
LINE
  8
0
 62
7
  6
CONTINUOUS
 10
154.8924916972
 20
30.5937998301
 11
155.1815540869
 21
30.6260635193
  0
LINE
  8
0
 62
7
  6
CONTINUOUS
 10
160.269054528
 20
30.5937998301
 11
160.615929528
 21
30.6260635193
  0
LINE
  8
0
 62
7
  6
CONTINUOUS
 10
150.5565542799
 20
30.5937998301
 11
150.9612418074
 21
30.6260635193
  0
LINE
  8
0
 62
7
  6
CONTINUOUS
 10
150.9034292799
 20
30.7551182848
 11
150.498741835
 21
30.7228545871
  0
LINE
  8
0
 62
7
  6
CONTINUOUS
 10
154.7768668074
 20
31.1422825445
 11
155.412804528
 21
31.1422825445
  0
LINE
  8
0
 62
7
  6
CONTINUOUS
 10
155.412804528
 20
31.2713373354
 11
154.7768668074
 21
31.2713373354
  0
LINE
  8
0
 62
7
  6
CONTINUOUS
 10
151.1346793074
 20
31.3036010218
 11
151.4237418626
 21
31.3036010218
  0
LINE
  8
0
 62
7
  6
CONTINUOUS
 10
153.9674919177
 20
31.3681283946
 11
154.2565543074
 21
31.3681283946
  0
LINE
  8
0
 62
7
  6
CONTINUOUS
 10
160.6737418074
 20
31.3681283946
 11
160.9628038663
 21
31.3681283946
  0
LINE
  8
0
 62
7
  6
CONTINUOUS
 10
154.6612419177
 20
31.4971831403
 11
155.0081169177
 21
31.4971831403
  0
LINE
  8
0
 62
7
  6
CONTINUOUS
 10
159.8065543074
 20
31.4971831403
 11
160.1534293074
 21
31.4971831403
  0
LINE
  8
0
 62
7
  6
CONTINUOUS
 10
160.1534293074
 20
31.626237886
 11
159.8065543074
 21
31.626237886
  0
LINE
  8
0
 62
7
  6
CONTINUOUS
 10
158.0721793074
 20
31.626237886
 11
157.840929528
 21
31.626237886
  0
LINE
  8
0
 62
7
  6
CONTINUOUS
 10
157.320617028
 20
31.626237886
 11
157.0315543074
 21
31.626237886
  0
LINE
  8
0
 62
7
  6
CONTINUOUS
 10
156.5690540869
 20
31.626237886
 11
156.279992028
 21
31.626237886
  0
LINE
  8
0
 62
7
  6
CONTINUOUS
 10
155.0081169177
 20
31.626237886
 11
154.6612419177
 21
31.626237886
  0
LINE
  8
0
 62
7
  6
CONTINUOUS
 10
152.9268669177
 20
31.626237886
 11
152.6956168074
 21
31.626237886
  0
LINE
  8
0
 62
7
  6
CONTINUOUS
 10
156.279992028
 20
31.9488748406
 11
156.5690540869
 21
31.9488748406
  0
LINE
  8
0
 62
7
  6
CONTINUOUS
 10
156.5690540869
 20
32.1101932727
 11
156.279992028
 21
32.1101932727
  0
LINE
  8
0
 62
7
  6
CONTINUOUS
 10
152.1753043074
 20
32.1101932727
 11
151.8862417523
 21
32.1101932727
  0
LINE
  8
0
 62
7
  6
CONTINUOUS
 10
151.2130860697
 20
32.3970785186
 11
151.6256574183
 21
32.3970785186
  0
LINE
  8
0
 62
7
  6
CONTINUOUS
 10
152.852430332
 20
32.3970785186
 11
154.245872955
 21
32.3970785186
  0
LINE
  8
0
 62
7
  6
CONTINUOUS
 10
154.5737418074
 20
32.3970785186
 11
155.9671844304
 21
32.3970785186
  0
LINE
  8
0
 62
7
  6
CONTINUOUS
 10
157.852430332
 20
32.3970785186
 11
159.245872955
 21
32.3970785186
  0
LINE
  8
0
 62
7
  6
CONTINUOUS
 10
159.5737418074
 20
32.3970785186
 11
160.9671844304
 21
32.3970785186
  0
LINE
  8
0
 62
7
  6
CONTINUOUS
 10
157.6096790869
 20
31.5939741996
 11
157.4362415869
 21
31.5294468267
  0
LINE
  8
0
 62
7
  6
CONTINUOUS
 10
155.1815540869
 20
30.6260635193
 11
155.3549915869
 21
30.6905909007
  0
LINE
  8
0
 62
7
  6
CONTINUOUS
 10
160.615929528
 20
30.6260635193
 11
160.8471793074
 21
30.6905909007
  0
LINE
  8
0
 62
7
  6
CONTINUOUS
 10
160.615929528
 20
30.7873819712
 11
160.5003043074
 21
30.7551182848
  0
LINE
  8
0
 62
7
  6
CONTINUOUS
 10
159.575304528
 20
31.4649194539
 11
159.8065543074
 21
31.4971831403
  0
LINE
  8
0
 62
7
  6
CONTINUOUS
 10
157.6096790869
 20
31.4649194539
 11
157.840929528
 21
31.4971831403
  0
LINE
  8
0
 62
7
  6
CONTINUOUS
 10
154.5456166972
 20
31.1100188581
 11
154.7768668074
 21
31.1422825445
  0
LINE
  8
0
 62
7
  6
CONTINUOUS
 10
157.840929528
 20
31.626237886
 11
157.6096790869
 21
31.5939741996
  0
LINE
  8
0
 62
7
  6
CONTINUOUS
 10
154.4299918074
 20
31.4649194539
 11
154.6612419177
 21
31.4971831403
  0
LINE
  8
0
 62
7
  6
CONTINUOUS
 10
159.8065543074
 20
31.626237886
 11
159.4596793074
 21
31.5939741996
  0
LINE
  8
0
 62
7
  6
CONTINUOUS
 10
154.7768668074
 20
31.2713373354
 11
154.4299918074
 21
31.2390736489
  0
LINE
  8
0
 62
7
  6
CONTINUOUS
 10
150.5565542799
 20
31.626237886
 11
150.2096793212
 21
31.5939741996
  0
LINE
  8
0
 62
7
  6
CONTINUOUS
 10
154.6612419177
 20
31.626237886
 11
154.2565543074
 21
31.5939741996
  0
LINE
  8
0
 62
7
  6
CONTINUOUS
 10
152.0327582009
 20
33.5446195022
 11
151.3770204959
 21
33.5446195022
  0
LINE
  8
0
 62
7
  6
CONTINUOUS
 10
157.4362415869
 20
31.400392081
 11
157.6096790869
 21
31.4649194539
  0
LINE
  8
0
 62
7
  6
CONTINUOUS
 10
159.4596793074
 20
31.4326557675
 11
159.575304528
 21
31.4649194539
  0
LINE
  8
0
 62
7
  6
CONTINUOUS
 10
159.4596793074
 20
31.5939741996
 11
159.228429528
 21
31.5294468267
  0
LINE
  8
0
 62
7
  6
CONTINUOUS
 10
155.1815540869
 20
30.7873819712
 11
154.8924916972
 21
30.7228545871
  0
LINE
  8
0
 62
7
  6
CONTINUOUS
 10
152.4643666972
 20
31.4649194539
 11
152.6956168074
 21
31.4971831403
  0
LINE
  8
0
 62
7
  6
CONTINUOUS
 10
152.6956168074
 20
31.626237886
 11
152.4643666972
 21
31.5939741996
  0
LINE
  8
0
 62
7
  6
CONTINUOUS
 10
150.2674918074
 20
31.4649194539
 11
150.498741835
 21
31.4971831403
  0
LINE
  8
0
 62
7
  6
CONTINUOUS
 10
156.7868565615
 20
35.0200293383
 11
157.4425942664
 21
35.0200293383
  0
LINE
  8
0
 62
7
  6
CONTINUOUS
 10
154.4299918074
 20
31.0777551716
 11
154.5456166972
 21
31.1100188581
  0
LINE
  8
0
 62
7
  6
CONTINUOUS
 10
154.4299918074
 20
31.2390736489
 11
154.1987416972
 21
31.1745462761
  0
LINE
  8
0
 62
7
  6
CONTINUOUS
 10
154.3143669177
 20
31.4326557675
 11
154.4299918074
 21
31.4649194539
  0
LINE
  8
0
 62
7
  6
CONTINUOUS
 10
150.9612418074
 20
30.6260635193
 11
151.1924917523
 21
30.6905909007
  0
LINE
  8
0
 62
7
  6
CONTINUOUS
 10
154.2565543074
 20
31.5939741996
 11
154.1409294177
 21
31.5617105132
  0
LINE
  8
0
 62
7
  6
CONTINUOUS
 10
150.2096793212
 20
31.5939741996
 11
150.0362418212
 21
31.5617105132
  0
LINE
  8
0
 62
7
  6
CONTINUOUS
 10
160.9671844304
 20
36.1675703219
 11
159.5737418074
 21
36.1675703219
  0
LINE
  8
0
 62
7
  6
CONTINUOUS
 10
157.6065286927
 20
36.1675703219
 11
157.1939573441
 21
36.1675703219
  0
LINE
  8
0
 62
7
  6
CONTINUOUS
 10
155.9671844304
 20
36.1675703219
 11
154.5737418074
 21
36.1675703219
  0
LINE
  8
0
 62
7
  6
CONTINUOUS
 10
154.245872955
 20
36.1675703219
 11
152.852430332
 21
36.1675703219
  0
LINE
  8
0
 62
7
  6
CONTINUOUS
 10
150.9671844304
 20
36.1675703219
 11
149.5737418074
 21
36.1675703219
  0
LINE
  8
0
 62
7
  6
CONTINUOUS
 10
150.1518667936
 20
31.4326557675
 11
150.2674918074
 21
31.4649194539
  0
CIRCLE
  8
0
 62
7
  6
CONTINUOUS
 10
160.2704631189
 20
38.5036358957
 40
2.0901639344
  0
ARC
  8
0
 62
7
  6
CONTINUOUS
 10
151.2130860697
 20
34.0364227809
 40
1.6393442623
 50
180.0
 51
270.0
  0
ARC
  8
0
 62
7
  6
CONTINUOUS
 10
157.6065286927
 20
34.5282260596
 40
1.6393442623
 50
0.0
 51
90.0
  0
ARC
  8
0
 62
7
  6
CONTINUOUS
 10
151.6256574183
 20
33.8724883547
 40
1.4754098361
 50
270.0
 51
326.2510114041
  0
ARC
  8
0
 62
7
  6
CONTINUOUS
 10
157.1939573441
 20
34.6921604858
 40
1.4754098361
 50
90.0
 51
146.2510114041
  0
ARC
  8
0
 62
7
  6
CONTINUOUS
 10
152.0327582009
 20
34.3642916334
 40
0.8196721311
 50
270.0
 51
360.0
  0
ARC
  8
0
 62
7
  6
CONTINUOUS
 10
156.7868565615
 20
34.2003572071
 40
0.8196721311
 50
90.0
 51
180.0
  0
ARC
  8
0
 62
7
  6
CONTINUOUS
 10
151.3770204959
 20
33.9544555678
 40
0.4098360656
 50
180.0
 51
270.0
  0
ARC
  8
0
 62
7
  6
CONTINUOUS
 10
157.4425942664
 20
34.6101932727
 40
0.4098360656
 50
0.0
 51
90.0
  0
SOLID
  8
0
 62
7
  6
CONTINUOUS
 10
156.279992028
 20
31.9488752009
 11
156.279992028
 21
32.1101936845
 12
156.5690540869
 22
31.9488752009
 13
156.5690540869
 23
32.1101936845
  0
SOLID
  8
0
 62
7
  6
CONTINUOUS
 10
150.5565542799
 20
31.6262382337
 11
150.9612418074
 21
31.5939740028
 12
150.2096793212
 22
31.5939740028
 13
150.2096793212
 23
31.5939740028
  0
SOLID
  8
0
 62
7
  6
CONTINUOUS
 10
150.0362418212
 20
31.5617111435
 11
150.2096793212
 21
31.5939740028
 12
150.9612418074
 22
31.5939740028
 13
150.9612418074
 23
31.5939740028
  0
SOLID
  8
0
 62
7
  6
CONTINUOUS
 10
150.9612418074
 20
31.5939740028
 11
151.1924917523
 21
31.5294468402
 12
150.0362418212
 22
31.5617111435
 13
150.0362418212
 23
31.5617111435
  0
SOLID
  8
0
 62
7
  6
CONTINUOUS
 10
149.8628043005
 20
31.49718259
 11
150.0362418212
 21
31.5617111435
 12
151.1924917523
 22
31.5294468402
 13
151.1924917523
 23
31.5294468402
  0
SOLID
  8
0
 62
7
  6
CONTINUOUS
 10
149.8628043005
 20
31.49718259
 11
151.1924917523
 21
31.5294468402
 12
150.498741835
 22
31.49718259
 13
150.498741835
 23
31.49718259
  0
SOLID
  8
0
 62
7
  6
CONTINUOUS
 10
150.498741835
 20
31.49718259
 11
151.1924917523
 21
31.5294468402
 12
150.9034292799
 22
31.4649197501
 13
150.9034292799
 23
31.4649197501
  0
SOLID
  8
0
 62
7
  6
CONTINUOUS
 10
151.1924917523
 20
31.5294468402
 11
151.3659292523
 21
31.4326554468
 12
150.9034292799
 22
31.4649197501
 13
150.9034292799
 23
31.4649197501
  0
SOLID
  8
0
 62
7
  6
CONTINUOUS
 10
151.0768668626
 20
31.4003926599
 11
150.9034292799
 21
31.4649197501
 12
151.3659292523
 22
31.4326554468
 13
151.3659292523
 23
31.4326554468
  0
SOLID
  8
0
 62
7
  6
CONTINUOUS
 10
151.0768668626
 20
31.4003926599
 11
151.3659292523
 21
31.4326554468
 12
151.1346793074
 22
31.3036013776
 13
151.1346793074
 23
31.3036013776
  0
SOLID
  8
0
 62
7
  6
CONTINUOUS
 10
151.3659292523
 20
31.4326554468
 11
151.4237418626
 21
31.3036013776
 12
151.1346793074
 22
31.3036013776
 13
151.1346793074
 23
31.3036013776
  0
SOLID
  8
0
 62
7
  6
CONTINUOUS
 10
152.4643666972
 20
31.5939739754
 11
152.6956168074
 21
31.6262382787
 12
152.9268669177
 22
31.6262382787
 13
152.9268669177
 23
31.6262382787
  0
SOLID
  8
0
 62
7
  6
CONTINUOUS
 10
152.9268669177
 20
31.6262382787
 11
153.1003044177
 21
31.5939739754
 12
152.4643666972
 22
31.5939739754
 13
152.4643666972
 23
31.5939739754
  0
SOLID
  8
0
 62
7
  6
CONTINUOUS
 10
152.2909293626
 20
31.5294468852
 11
152.4643666972
 21
31.5939739754
 12
153.1003044177
 22
31.5939739754
 13
153.1003044177
 23
31.5939739754
  0
SOLID
  8
0
 62
7
  6
CONTINUOUS
 10
153.1003044177
 20
31.5939739754
 11
153.2737419177
 21
31.5294468852
 12
152.2909293626
 22
31.5294468852
 13
152.2909293626
 23
31.5294468852
  0
SOLID
  8
0
 62
7
  6
CONTINUOUS
 10
153.2737419177
 20
31.5294468852
 11
152.6956168074
 21
31.4971825369
 12
152.2909293626
 22
31.5294468852
 13
152.2909293626
 23
31.5294468852
  0
SOLID
  8
0
 62
7
  6
CONTINUOUS
 10
152.1753043074
 20
31.4649197951
 11
152.2909293626
 21
31.5294468852
 12
152.6956168074
 22
31.4971825369
 13
152.6956168074
 23
31.4971825369
  0
SOLID
  8
0
 62
7
  6
CONTINUOUS
 10
152.6956168074
 20
31.4971825369
 11
152.4643666972
 21
31.4649197951
 12
152.1753043074
 22
31.4649197951
 13
152.1753043074
 23
31.4649197951
  0
SOLID
  8
0
 62
7
  6
CONTINUOUS
 10
152.6956168074
 20
31.4971825369
 11
153.2737419177
 21
31.5294468852
 12
152.9268669177
 22
31.4649197951
 13
152.9268669177
 23
31.4649197951
  0
SOLID
  8
0
 62
7
  6
CONTINUOUS
 10
153.2737419177
 20
31.5294468852
 11
153.3893668074
 21
31.4649197951
 12
152.9268669177
 22
31.4649197951
 13
152.9268669177
 23
31.4649197951
  0
SOLID
  8
0
 62
7
  6
CONTINUOUS
 10
153.0424918074
 20
31.4326554468
 11
152.9268669177
 21
31.4649197951
 12
153.3893668074
 22
31.4649197951
 13
153.3893668074
 23
31.4649197951
  0
SOLID
  8
0
 62
7
  6
CONTINUOUS
 10
153.3893668074
 20
31.4649197951
 11
153.4471794177
 21
31.4003927049
 12
153.0424918074
 22
31.4326554468
 13
153.0424918074
 23
31.4326554468
  0
SOLID
  8
0
 62
7
  6
CONTINUOUS
 10
153.1581166972
 20
31.3681283566
 11
153.0424918074
 21
31.4326554468
 12
153.4471794177
 22
31.4003927049
 13
153.4471794177
 23
31.4003927049
  0
SOLID
  8
0
 62
7
  6
CONTINUOUS
 10
153.1581166972
 20
31.3681283566
 11
153.4471794177
 21
31.4003927049
 12
153.2159293074
 22
31.2390742213
 13
153.2159293074
 23
31.2390742213
  0
SOLID
  8
0
 62
7
  6
CONTINUOUS
 10
153.4471794177
 20
31.4003927049
 11
153.5049916972
 21
31.2390742213
 12
153.2159293074
 22
31.2390742213
 13
153.2159293074
 23
31.2390742213
  0
SOLID
  8
0
 62
7
  6
CONTINUOUS
 10
152.4643666972
 20
31.4649197951
 11
152.2909293626
 21
31.4003927049
 12
152.1753043074
 22
31.4649197951
 13
152.1753043074
 23
31.4649197951
  0
SOLID
  8
0
 62
7
  6
CONTINUOUS
 10
152.2909293626
 20
31.4003927049
 11
152.1753043074
 21
31.3358640533
 12
152.1753043074
 22
31.4649197951
 13
152.1753043074
 23
31.4649197951
  0
SOLID
  8
0
 62
7
  6
CONTINUOUS
 10
152.1753043074
 20
31.3358640533
 11
151.8862417523
 21
30.5938002869
 12
152.1753043074
 22
31.4649197951
 13
152.1753043074
 23
31.4649197951
  0
SOLID
  8
0
 62
7
  6
CONTINUOUS
 10
152.1753043074
 20
31.4649197951
 11
151.8862417523
 21
30.5938002869
 12
152.1753043074
 22
32.1101937295
 13
152.1753043074
 23
32.1101937295
  0
SOLID
  8
0
 62
7
  6
CONTINUOUS
 10
151.8862417523
 20
30.5938002869
 11
151.8862417523
 21
32.1101937295
 12
152.1753043074
 22
32.1101937295
 13
152.1753043074
 23
32.1101937295
  0
SOLID
  8
0
 62
7
  6
CONTINUOUS
 10
152.1753043074
 20
31.3358640533
 11
152.1753043074
 21
30.5938002869
 12
151.8862417523
 22
30.5938002869
 13
151.8862417523
 23
30.5938002869
  0
SOLID
  8
0
 62
7
  6
CONTINUOUS
 10
153.2159293074
 20
30.5938002869
 11
153.2159293074
 21
31.2390742213
 12
153.5049916972
 22
31.2390742213
 13
153.5049916972
 23
31.2390742213
  0
SOLID
  8
0
 62
7
  6
CONTINUOUS
 10
153.5049916972
 20
31.2390742213
 11
153.5049916972
 21
30.5938002869
 12
153.2159293074
 22
30.5938002869
 13
153.2159293074
 23
30.5938002869
  0
SOLID
  8
0
 62
7
  6
CONTINUOUS
 10
154.2565543074
 20
31.5939738288
 11
154.6612419177
 21
31.6262385959
 12
155.0081169177
 22
31.6262385959
 13
155.0081169177
 23
31.6262385959
  0
SOLID
  8
0
 62
7
  6
CONTINUOUS
 10
155.0081169177
 20
31.6262385959
 11
155.3549915869
 21
31.5939738288
 12
154.2565543074
 22
31.5939738288
 13
154.2565543074
 23
31.5939738288
  0
SOLID
  8
0
 62
7
  6
CONTINUOUS
 10
154.1409294177
 20
31.5617111435
 11
154.2565543074
 21
31.5939738288
 12
155.3549915869
 22
31.5939738288
 13
155.3549915869
 23
31.5939738288
  0
SOLID
  8
0
 62
7
  6
CONTINUOUS
 10
155.3549915869
 20
31.5939738288
 11
155.5284290869
 21
31.5294468402
 12
154.1409294177
 22
31.5617111435
 13
154.1409294177
 23
31.5617111435
  0
SOLID
  8
0
 62
7
  6
CONTINUOUS
 10
154.0253041972
 20
31.4971826249
 11
154.1409294177
 21
31.5617111435
 12
155.5284290869
 22
31.5294468402
 13
155.5284290869
 23
31.5294468402
  0
SOLID
  8
0
 62
7
  6
CONTINUOUS
 10
154.0253041972
 20
31.4971826249
 11
155.5284290869
 21
31.5294468402
 12
154.6612419177
 22
31.4971826249
 13
154.6612419177
 23
31.4971826249
  0
SOLID
  8
0
 62
7
  6
CONTINUOUS
 10
154.6612419177
 20
31.4971826249
 11
155.5284290869
 21
31.5294468402
 12
155.0081169177
 22
31.4971826249
 13
155.0081169177
 23
31.4971826249
  0
SOLID
  8
0
 62
7
  6
CONTINUOUS
 10
155.0081169177
 20
31.4971826249
 11
155.5284290869
 21
31.5294468402
 12
155.239367028
 22
31.4649194065
 13
155.239367028
 23
31.4649194065
  0
SOLID
  8
0
 62
7
  6
CONTINUOUS
 10
155.5284290869
 20
31.5294468402
 11
155.6440543074
 21
31.4649194065
 12
155.239367028
 22
31.4649194065
 13
155.239367028
 23
31.4649194065
  0
SOLID
  8
0
 62
7
  6
CONTINUOUS
 10
153.9674919177
 20
31.4326554138
 11
154.0253041972
 21
31.4971826249
 12
154.6612419177
 22
31.4971826249
 13
154.6612419177
 23
31.4971826249
  0
SOLID
  8
0
 62
7
  6
CONTINUOUS
 10
155.3549915869
 20
31.4326554138
 11
155.239367028
 21
31.4649194065
 12
155.6440543074
 22
31.4649194065
 13
155.6440543074
 23
31.4649194065
  0
SOLID
  8
0
 62
7
  6
CONTINUOUS
 10
155.3549915869
 20
31.4326554138
 11
155.6440543074
 21
31.4649194065
 12
155.412804528
 22
31.3681282026
 13
155.412804528
 23
31.3681282026
  0
SOLID
  8
0
 62
7
  6
CONTINUOUS
 10
155.6440543074
 20
31.4649194065
 11
155.7018665869
 21
31.3681282026
 12
155.412804528
 22
31.3681282026
 13
155.412804528
 23
31.3681282026
  0
SOLID
  8
0
 62
7
  6
CONTINUOUS
 10
155.412804528
 20
31.2713369632
 11
155.412804528
 21
31.3681282026
 12
155.7018665869
 22
31.3681282026
 13
155.7018665869
 23
31.3681282026
  0
SOLID
  8
0
 62
7
  6
CONTINUOUS
 10
155.412804528
 20
31.2713369632
 11
155.7018665869
 21
31.3681282026
 12
155.412804528
 22
31.1422827828
 13
155.412804528
 23
31.1422827828
  0
SOLID
  8
0
 62
7
  6
CONTINUOUS
 10
155.412804528
 20
31.1422827828
 11
155.7018665869
 21
31.3681282026
 12
155.412804528
 22
30.9487004259
 13
155.412804528
 23
30.9487004259
  0
SOLID
  8
0
 62
7
  6
CONTINUOUS
 10
155.7018665869
 20
31.3681282026
 11
155.7018665869
 21
30.8519086025
 12
155.412804528
 22
30.9487004259
 13
155.412804528
 23
30.9487004259
  0
SOLID
  8
0
 62
7
  6
CONTINUOUS
 10
157.6096790869
 20
31.5939736268
 11
157.840929528
 21
31.6262383465
 12
158.0721793074
 22
31.6262383465
 13
158.0721793074
 23
31.6262383465
  0
SOLID
  8
0
 62
7
  6
CONTINUOUS
 10
158.0721793074
 20
31.6262383465
 11
158.2456168074
 21
31.5939736268
 12
157.6096790869
 22
31.5939736268
 13
157.6096790869
 23
31.5939736268
  0
SOLID
  8
0
 62
7
  6
CONTINUOUS
 10
157.4362415869
 20
31.5294472848
 11
157.6096790869
 21
31.5939736268
 12
158.2456168074
 22
31.5939736268
 13
158.2456168074
 23
31.5939736268
  0
SOLID
  8
0
 62
7
  6
CONTINUOUS
 10
158.2456168074
 20
31.5939736268
 11
158.4190543074
 21
31.5294472848
 12
157.4362415869
 22
31.5294472848
 13
157.4362415869
 23
31.5294472848
  0
SOLID
  8
0
 62
7
  6
CONTINUOUS
 10
158.4190543074
 20
31.5294472848
 11
157.840929528
 21
31.4971825369
 12
157.4362415869
 22
31.5294472848
 13
157.4362415869
 23
31.5294472848
  0
SOLID
  8
0
 62
7
  6
CONTINUOUS
 10
157.320617028
 20
31.4649199103
 11
157.4362415869
 21
31.5294472848
 12
157.840929528
 22
31.4971825369
 13
157.840929528
 23
31.4971825369
  0
SOLID
  8
0
 62
7
  6
CONTINUOUS
 10
157.840929528
 20
31.4971825369
 11
157.6096790869
 21
31.4649199103
 12
157.320617028
 22
31.4649199103
 13
157.320617028
 23
31.4649199103
  0
SOLID
  8
0
 62
7
  6
CONTINUOUS
 10
157.840929528
 20
31.4971825369
 11
158.4190543074
 21
31.5294472848
 12
158.0721793074
 22
31.4649199103
 13
158.0721793074
 23
31.4649199103
  0
SOLID
  8
0
 62
7
  6
CONTINUOUS
 10
158.4190543074
 20
31.5294472848
 11
158.534679528
 21
31.4649199103
 12
158.0721793074
 22
31.4649199103
 13
158.0721793074
 23
31.4649199103
  0
SOLID
  8
0
 62
7
  6
CONTINUOUS
 10
158.187804528
 20
31.4326554468
 11
158.0721793074
 21
31.4649199103
 12
158.534679528
 22
31.4649199103
 13
158.534679528
 23
31.4649199103
  0
SOLID
  8
0
 62
7
  6
CONTINUOUS
 10
158.187804528
 20
31.4326554468
 11
158.534679528
 21
31.4649199103
 12
158.3034290869
 22
31.3681288486
 13
158.3034290869
 23
31.3681288486
  0
SOLID
  8
0
 62
7
  6
CONTINUOUS
 10
158.534679528
 20
31.4649199103
 11
158.5924918074
 21
31.3681288486
 12
158.3034290869
 22
31.3681288486
 13
158.3034290869
 23
31.3681288486
  0
SOLID
  8
0
 62
7
  6
CONTINUOUS
 10
158.361242028
 20
31.2068093799
 11
158.3034290869
 21
31.3681288486
 12
158.5924918074
 22
31.3681288486
 13
158.5924918074
 23
31.3681288486
  0
SOLID
  8
0
 62
7
  6
CONTINUOUS
 10
158.5924918074
 20
31.3681288486
 11
158.6503040869
 21
31.2068093799
 12
158.361242028
 22
31.2068093799
 13
158.361242028
 23
31.2068093799
  0
SOLID
  8
0
 62
7
  6
CONTINUOUS
 10
157.6096790869
 20
31.4649199103
 11
157.4362415869
 21
31.4003926599
 12
157.320617028
 22
31.4649199103
 13
157.320617028
 23
31.4649199103
  0
SOLID
  8
0
 62
7
  6
CONTINUOUS
 10
157.4362415869
 20
31.4003926599
 11
157.320617028
 21
31.3358640533
 12
157.320617028
 22
31.4649199103
 13
157.320617028
 23
31.4649199103
  0
SOLID
  8
0
 62
7
  6
CONTINUOUS
 10
157.320617028
 20
31.3358640533
 11
157.0315543074
 21
30.5938003547
 12
157.320617028
 22
31.4649199103
 13
157.320617028
 23
31.4649199103
  0
SOLID
  8
0
 62
7
  6
CONTINUOUS
 10
157.320617028
 20
31.4649199103
 11
157.0315543074
 21
30.5938003547
 12
157.320617028
 22
31.6262383465
 13
157.320617028
 23
31.6262383465
  0
SOLID
  8
0
 62
7
  6
CONTINUOUS
 10
157.0315543074
 20
30.5938003547
 11
157.0315543074
 21
31.6262383465
 12
157.320617028
 22
31.6262383465
 13
157.320617028
 23
31.6262383465
  0
SOLID
  8
0
 62
7
  6
CONTINUOUS
 10
157.320617028
 20
31.3358640533
 11
157.320617028
 21
30.5938003547
 12
157.0315543074
 22
30.5938003547
 13
157.0315543074
 23
30.5938003547
  0
SOLID
  8
0
 62
7
  6
CONTINUOUS
 10
158.361242028
 20
30.5938003547
 11
158.361242028
 21
31.2068093799
 12
158.6503040869
 22
31.2068093799
 13
158.6503040869
 23
31.2068093799
  0
SOLID
  8
0
 62
7
  6
CONTINUOUS
 10
158.6503040869
 20
31.2068093799
 11
158.6503040869
 21
30.5938003547
 12
158.361242028
 22
30.5938003547
 13
158.361242028
 23
30.5938003547
  0
SOLID
  8
0
 62
7
  6
CONTINUOUS
 10
159.4596793074
 20
31.5939739474
 11
159.8065543074
 21
31.6262381969
 12
160.1534293074
 22
31.6262381969
 13
160.1534293074
 23
31.6262381969
  0
SOLID
  8
0
 62
7
  6
CONTINUOUS
 10
160.1534293074
 20
31.6262381969
 11
160.5003043074
 21
31.5939739474
 12
159.4596793074
 22
31.5939739474
 13
159.4596793074
 23
31.5939739474
  0
SOLID
  8
0
 62
7
  6
CONTINUOUS
 10
159.228429528
 20
31.5294468402
 11
159.4596793074
 21
31.5939739474
 12
160.5003043074
 22
31.5939739474
 13
160.5003043074
 23
31.5939739474
  0
SOLID
  8
0
 62
7
  6
CONTINUOUS
 10
159.228429528
 20
31.5294468402
 11
160.5003043074
 21
31.5939739304
 12
160.6737418074
 22
31.5617111435
 13
160.6737418074
 23
31.5617111435
  0
SOLID
  8
0
 62
7
  6
CONTINUOUS
 10
159.228429528
 20
31.5294468402
 11
160.6737418074
 21
31.5617111435
 12
159.8065543074
 22
31.4971825592
 13
159.8065543074
 23
31.4971825592
  0
SOLID
  8
0
 62
7
  6
CONTINUOUS
 10
159.8065543074
 20
31.4971825592
 11
160.6737418074
 21
31.5617111435
 12
160.1534293074
 22
31.4971825592
 13
160.1534293074
 23
31.4971825592
  0
SOLID
  8
0
 62
7
  6
CONTINUOUS
 10
160.6737418074
 20
31.5617111435
 11
160.8471793074
 21
31.4971825592
 12
160.1534293074
 22
31.4971825592
 13
160.1534293074
 23
31.4971825592
  0
SOLID
  8
0
 62
7
  6
CONTINUOUS
 10
160.5003043074
 20
31.4649197501
 11
160.1534293074
 21
31.4971825592
 12
160.8471793074
 22
31.4971825592
 13
160.8471793074
 23
31.4971825592
  0
SOLID
  8
0
 62
7
  6
CONTINUOUS
 10
159.1128043074
 20
31.4326555427
 11
159.228429528
 21
31.5294468402
 12
159.8065543074
 22
31.4971825592
 13
159.8065543074
 23
31.4971825592
  0
SOLID
  8
0
 62
7
  6
CONTINUOUS
 10
160.5003043074
 20
31.4649197501
 11
160.8471793074
 21
31.4971825592
 12
160.615929528
 22
31.4326555427
 13
160.615929528
 23
31.4326555427
  0
SOLID
  8
0
 62
7
  6
CONTINUOUS
 10
160.615929528
 20
31.4326555427
 11
160.8471793074
 21
31.4971825592
 12
160.6737418074
 22
31.3681283005
 13
160.6737418074
 23
31.3681283005
  0
SOLID
  8
0
 62
7
  6
CONTINUOUS
 10
160.8471793074
 20
31.4971825592
 11
160.9628038663
 21
31.3681283005
 12
160.6737418074
 22
31.3681283005
 13
160.6737418074
 23
31.3681283005
  0
SOLID
  8
0
 62
7
  6
CONTINUOUS
 10
150.2674918074
 20
31.4649197501
 11
149.7471793074
 21
31.4326554237
 12
150.498741835
 22
31.4971824493
 13
150.498741835
 23
31.4971824493
  0
SOLID
  8
0
 62
7
  6
CONTINUOUS
 10
149.7471793074
 20
31.4326554237
 11
149.8628043005
 21
31.4971824493
 12
150.498741835
 22
31.4971824493
 13
150.498741835
 23
31.4971824493
  0
SOLID
  8
0
 62
7
  6
CONTINUOUS
 10
150.2674918074
 20
31.4649197501
 11
150.1518667936
 21
31.4326554237
 12
149.7471793074
 22
31.4326554237
 13
149.7471793074
 23
31.4326554237
  0
SOLID
  8
0
 62
7
  6
CONTINUOUS
 10
149.6315543091
 20
31.3036012664
 11
149.7471793074
 21
31.4326554237
 12
150.1518667936
 22
31.4326554237
 13
150.1518667936
 23
31.4326554237
  0
SOLID
  8
0
 62
7
  6
CONTINUOUS
 10
153.9674919177
 20
31.4326554237
 11
154.6612419177
 21
31.4971825369
 12
154.4299918074
 22
31.4649197501
 13
154.4299918074
 23
31.4649197501
  0
SOLID
  8
0
 62
7
  6
CONTINUOUS
 10
154.4299918074
 20
31.4649197501
 11
154.3143669177
 21
31.4326554237
 12
153.9674919177
 22
31.4326554237
 13
153.9674919177
 23
31.4326554237
  0
SOLID
  8
0
 62
7
  6
CONTINUOUS
 10
153.9674919177
 20
31.3681283335
 11
153.9674919177
 21
31.4326554237
 12
154.3143669177
 22
31.4326554237
 13
154.3143669177
 23
31.4326554237
  0
SOLID
  8
0
 62
7
  6
CONTINUOUS
 10
154.3143669177
 20
31.4326554237
 11
154.2565543074
 21
31.3681283335
 12
153.9674919177
 22
31.3681283335
 13
153.9674919177
 23
31.3681283335
  0
SOLID
  8
0
 62
7
  6
CONTINUOUS
 10
159.1128043074
 20
31.4326555528
 11
159.8065543074
 21
31.4971825369
 12
159.575304528
 22
31.4649197501
 13
159.575304528
 23
31.4649197501
  0
SOLID
  8
0
 62
7
  6
CONTINUOUS
 10
159.575304528
 20
31.4649197501
 11
159.4596793074
 21
31.4326555528
 12
159.1128043074
 22
31.4326555528
 13
159.1128043074
 23
31.4326555528
  0
SOLID
  8
0
 62
7
  6
CONTINUOUS
 10
159.1128043074
 20
31.3681284626
 11
159.1128043074
 21
31.4326555528
 12
159.4596793074
 22
31.4326555528
 13
159.4596793074
 23
31.4326555528
  0
SOLID
  8
0
 62
7
  6
CONTINUOUS
 10
159.4596793074
 20
31.4326555528
 11
159.401867028
 21
31.3681284626
 12
159.1128043074
 22
31.3681284626
 13
159.1128043074
 23
31.3681284626
  0
SOLID
  8
0
 62
7
  6
CONTINUOUS
 10
159.228429528
 20
31.2390741763
 11
159.1128043074
 21
31.3681284626
 12
159.401867028
 22
31.3681284626
 13
159.401867028
 23
31.3681284626
  0
SOLID
  8
0
 62
7
  6
CONTINUOUS
 10
149.6315543091
 20
31.3036012664
 11
150.1518667936
 21
31.4326554468
 12
149.9784292936
 22
31.3358640533
 13
149.9784292936
 23
31.3358640533
  0
SOLID
  8
0
 62
7
  6
CONTINUOUS
 10
149.9784292936
 20
31.3358640533
 11
149.9206168074
 21
31.2713369632
 12
149.6315543091
 22
31.3036012664
 13
149.6315543091
 23
31.3036012664
  0
SOLID
  8
0
 62
7
  6
CONTINUOUS
 10
149.5737418074
 20
31.1100184796
 11
149.6315543091
 21
31.3036012664
 12
149.9206168074
 22
31.2713369632
 13
149.9206168074
 23
31.2713369632
  0
SOLID
  8
0
 62
7
  6
CONTINUOUS
 10
154.4299918074
 20
31.2390741763
 11
154.7768668074
 21
31.271336924
 12
155.412804528
 22
31.271336924
 13
155.412804528
 23
31.271336924
  0
SOLID
  8
0
 62
7
  6
CONTINUOUS
 10
154.4299918074
 20
31.2390741763
 11
155.412804528
 21
31.271336924
 12
154.1987416972
 22
31.1745462761
 13
154.1987416972
 23
31.1745462761
  0
SOLID
  8
0
 62
7
  6
CONTINUOUS
 10
154.1987416972
 20
31.1745462761
 11
155.412804528
 21
31.271336924
 12
154.7768668074
 22
31.1422827436
 13
154.7768668074
 23
31.1422827436
  0
SOLID
  8
0
 62
7
  6
CONTINUOUS
 10
155.412804528
 20
31.271336924
 11
155.412804528
 21
31.1422827436
 12
154.7768668074
 22
31.1422827436
 13
154.7768668074
 23
31.1422827436
  0
SOLID
  8
0
 62
7
  6
CONTINUOUS
 10
159.228429528
 20
31.2390745501
 11
159.401867028
 21
31.3681283566
 12
159.4596793074
 22
31.3036012664
 13
159.4596793074
 23
31.3036012664
  0
SOLID
  8
0
 62
7
  6
CONTINUOUS
 10
159.4596793074
 20
31.3036012664
 11
159.6331168074
 21
31.2390745501
 12
159.228429528
 22
31.2390745501
 13
159.228429528
 23
31.2390745501
  0
SOLID
  8
0
 62
7
  6
CONTINUOUS
 10
159.4596793074
 20
31.1422827828
 11
159.228429528
 21
31.2390745501
 12
159.6331168074
 22
31.2390745501
 13
159.6331168074
 23
31.2390745501
  0
SOLID
  8
0
 62
7
  6
CONTINUOUS
 10
159.6331168074
 20
31.2390745501
 11
160.615929528
 21
31.0777556927
 12
159.4596793074
 22
31.1422827828
 13
159.4596793074
 23
31.1422827828
  0
SOLID
  8
0
 62
7
  6
CONTINUOUS
 10
160.442492028
 20
30.9809646623
 11
159.4596793074
 21
31.1422827828
 12
160.615929528
 22
31.0777556927
 13
160.615929528
 23
31.0777556927
  0
SOLID
  8
0
 62
7
  6
CONTINUOUS
 10
160.615929528
 20
31.0777556927
 11
160.8471793074
 21
30.9809646623
 12
160.442492028
 22
30.9809646623
 13
160.442492028
 23
30.9809646623
  0
SOLID
  8
0
 62
7
  6
CONTINUOUS
 10
160.615929528
 20
30.9164372091
 11
160.442492028
 21
30.9809646623
 12
160.8471793074
 22
30.9809646623
 13
160.8471793074
 23
30.9809646623
  0
SOLID
  8
0
 62
7
  6
CONTINUOUS
 10
160.615929528
 20
30.9164372091
 11
160.8471793074
 21
30.9809646623
 12
160.6737418074
 22
30.8519089441
 13
160.6737418074
 23
30.8519089441
  0
SOLID
  8
0
 62
7
  6
CONTINUOUS
 10
160.8471793074
 20
30.9809646623
 11
160.9628038663
 21
30.8519089441
 12
160.6737418074
 22
30.8519089441
 13
160.6737418074
 23
30.8519089441
  0
SOLID
  8
0
 62
7
  6
CONTINUOUS
 10
160.615929528
 20
30.7873818593
 11
160.6737418074
 21
30.8519089441
 12
160.9628038663
 22
30.8519089441
 13
160.9628038663
 23
30.8519089441
  0
SOLID
  8
0
 62
7
  6
CONTINUOUS
 10
160.9628038663
 20
30.8519089441
 11
160.9628038663
 21
30.7873818593
 12
160.615929528
 22
30.7873818593
 13
160.615929528
 23
30.7873818593
  0
SOLID
  8
0
 62
7
  6
CONTINUOUS
 10
160.5003043074
 20
30.7551187255
 11
160.615929528
 21
30.7873818593
 12
160.9628038663
 22
30.7873818593
 13
160.9628038663
 23
30.7873818593
  0
SOLID
  8
0
 62
7
  6
CONTINUOUS
 10
160.5003043074
 20
30.7551187255
 11
160.9628038663
 21
30.7873818593
 12
160.269054528
 22
30.7228547745
 13
160.269054528
 23
30.7228547745
  0
SOLID
  8
0
 62
7
  6
CONTINUOUS
 10
160.9628038663
 20
30.7873818593
 11
160.8471793074
 21
30.6905916353
 12
160.269054528
 22
30.7228547745
 13
160.269054528
 23
30.7228547745
  0
SOLID
  8
0
 62
7
  6
CONTINUOUS
 10
160.8471793074
 20
30.6905916353
 11
159.401867028
 21
30.658327332
 12
160.269054528
 22
30.7228547745
 13
160.269054528
 23
30.7228547745
  0
SOLID
  8
0
 62
7
  6
CONTINUOUS
 10
160.269054528
 20
30.7228547745
 11
159.401867028
 21
30.658327332
 12
159.922179528
 22
30.7228547745
 13
159.922179528
 23
30.7228547745
  0
SOLID
  8
0
 62
7
  6
CONTINUOUS
 10
159.401867028
 20
30.658327332
 11
159.228429528
 21
30.7228547745
 12
159.922179528
 22
30.7228547745
 13
159.922179528
 23
30.7228547745
  0
SOLID
  8
0
 62
7
  6
CONTINUOUS
 10
159.401867028
 20
30.658327332
 11
160.8471793074
 21
30.6905916353
 12
159.575304528
 22
30.6260629858
 13
159.575304528
 23
30.6260629858
  0
SOLID
  8
0
 62
7
  6
CONTINUOUS
 10
160.8471793074
 20
30.6905916353
 11
160.615929528
 21
30.6260629858
 12
159.575304528
 22
30.6260629858
 13
159.575304528
 23
30.6260629858
  0
SOLID
  8
0
 62
7
  6
CONTINUOUS
 10
159.922179528
 20
30.5938006049
 11
159.575304528
 21
30.6260629858
 12
160.615929528
 22
30.6260629858
 13
160.615929528
 23
30.6260629858
  0
SOLID
  8
0
 62
7
  6
CONTINUOUS
 10
160.615929528
 20
30.6260629858
 11
160.269054528
 21
30.5938006049
 12
159.922179528
 22
30.5938006049
 13
159.922179528
 23
30.5938006049
  0
SOLID
  8
0
 62
7
  6
CONTINUOUS
 10
149.5737418074
 20
31.1100184796
 11
149.9206168074
 21
31.2713369632
 12
149.8628043005
 22
31.1422827828
 13
149.8628043005
 23
31.1422827828
  0
SOLID
  8
0
 62
7
  6
CONTINUOUS
 10
149.8628043005
 20
31.1422827828
 11
149.8628043005
 21
31.0454914852
 12
149.5737418074
 22
31.1100184796
 13
149.5737418074
 23
31.1100184796
  0
SOLID
  8
0
 62
7
  6
CONTINUOUS
 10
149.6315543091
 20
30.9164372091
 11
149.5737418074
 21
31.1100184796
 12
149.8628043005
 22
31.0454914852
 13
149.8628043005
 23
31.0454914852
  0
SOLID
  8
0
 62
7
  6
CONTINUOUS
 10
149.8628043005
 20
31.0454914852
 11
149.9784292936
 21
30.8841729058
 12
149.6315543091
 22
30.9164372091
 13
149.6315543091
 23
30.9164372091
  0
SOLID
  8
0
 62
7
  6
CONTINUOUS
 10
149.7471793074
 20
30.7873813202
 11
149.6315543091
 21
30.9164372091
 12
149.9784292936
 22
30.8841729058
 13
149.9784292936
 23
30.8841729058
  0
SOLID
  8
0
 62
7
  6
CONTINUOUS
 10
149.9784292936
 20
30.8841729058
 11
150.1518667936
 21
30.7873813202
 12
149.7471793074
 22
30.7873813202
 13
149.7471793074
 23
30.7873813202
  0
SOLID
  8
0
 62
7
  6
CONTINUOUS
 10
149.8628043005
 20
30.7228547004
 11
149.7471793074
 21
30.7873813202
 12
150.1518667936
 22
30.7873813202
 13
150.1518667936
 23
30.7873813202
  0
SOLID
  8
0
 62
7
  6
CONTINUOUS
 10
150.1518667936
 20
30.7873813202
 11
150.498741835
 21
30.7228547004
 12
149.8628043005
 22
30.7228547004
 13
149.8628043005
 23
30.7228547004
  0
SOLID
  8
0
 62
7
  6
CONTINUOUS
 10
150.0362418212
 20
30.658327332
 11
149.8628043005
 21
30.7228547004
 12
150.498741835
 22
30.7228547004
 13
150.498741835
 23
30.7228547004
  0
SOLID
  8
0
 62
7
  6
CONTINUOUS
 10
154.0831168074
 20
31.1100184386
 11
154.1987416972
 21
31.1745462761
 12
154.7768668074
 22
31.1422827828
 13
154.7768668074
 23
31.1422827828
  0
SOLID
  8
0
 62
7
  6
CONTINUOUS
 10
154.7768668074
 20
31.1422827828
 11
154.5456166972
 21
31.1100184386
 12
154.0831168074
 22
31.1100184386
 13
154.0831168074
 23
31.1100184386
  0
SOLID
  8
0
 62
7
  6
CONTINUOUS
 10
153.9674919177
 20
30.9809642992
 11
154.0831168074
 21
31.1100184386
 12
154.5456166972
 22
31.1100184386
 13
154.5456166972
 23
31.1100184386
  0
SOLID
  8
0
 62
7
  6
CONTINUOUS
 10
154.3143669177
 20
31.0132277988
 11
153.9674919177
 21
30.9809642992
 12
154.4299918074
 22
31.0777556927
 13
154.4299918074
 23
31.0777556927
  0
SOLID
  8
0
 62
7
  6
CONTINUOUS
 10
153.9674919177
 20
30.9809642992
 11
154.5456166972
 21
31.1100184796
 12
154.4299918074
 22
31.0777556927
 13
154.4299918074
 23
31.0777556927
  0
SOLID
  8
0
 62
7
  6
CONTINUOUS
 10
154.3143669177
 20
31.0132277988
 11
154.2565543074
 21
30.9164372091
 12
153.9674919177
 22
30.9809642992
 13
153.9674919177
 23
30.9809642992
  0
SOLID
  8
0
 62
7
  6
CONTINUOUS
 10
153.9674919177
 20
30.8841729058
 11
153.9674919177
 21
30.9809642992
 12
154.2565543074
 22
30.9164372091
 13
154.2565543074
 23
30.9164372091
  0
SOLID
  8
0
 62
7
  6
CONTINUOUS
 10
154.2565543074
 20
30.9164372091
 11
154.2565543074
 21
30.8519086025
 12
153.9674919177
 22
30.8841729058
 13
153.9674919177
 23
30.8841729058
  0
SOLID
  8
0
 62
7
  6
CONTINUOUS
 10
154.0253041972
 20
30.7551187255
 11
153.9674919177
 21
30.8841729058
 12
154.2565543074
 22
30.8519086025
 13
154.2565543074
 23
30.8519086025
  0
SOLID
  8
0
 62
7
  6
CONTINUOUS
 10
155.412804528
 20
30.9487004259
 11
155.7018665869
 21
30.8519086025
 12
155.3549915869
 22
30.8841729058
 13
155.3549915869
 23
30.8841729058
  0
SOLID
  8
0
 62
7
  6
CONTINUOUS
 10
155.1815540869
 20
30.7873815123
 11
155.3549915869
 21
30.8841729058
 12
155.7018665869
 22
30.8519086025
 13
155.7018665869
 23
30.8519086025
  0
SOLID
  8
0
 62
7
  6
CONTINUOUS
 10
155.1815540869
 20
30.7873815123
 11
155.7018665869
 21
30.8519086025
 12
155.412804528
 22
30.7551187255
 13
155.412804528
 23
30.7551187255
  0
SOLID
  8
0
 62
7
  6
CONTINUOUS
 10
155.7018665869
 20
30.8519086025
 11
155.759679528
 21
30.6905916353
 12
155.412804528
 22
30.7551187255
 13
155.412804528
 23
30.7551187255
  0
SOLID
  8
0
 62
7
  6
CONTINUOUS
 10
155.4706168074
 20
30.658327332
 11
155.412804528
 21
30.7551187255
 12
155.759679528
 22
30.6905916353
 13
155.759679528
 23
30.6905916353
  0
SOLID
  8
0
 62
7
  6
CONTINUOUS
 10
155.4706168074
 20
30.658327332
 11
155.759679528
 21
30.6905916353
 12
155.5284290869
 22
30.5938002079
 13
155.5284290869
 23
30.5938002079
  0
SOLID
  8
0
 62
7
  6
CONTINUOUS
 10
155.759679528
 20
30.6905916353
 11
155.8174918074
 21
30.5938002079
 12
155.5284290869
 22
30.5938002079
 13
155.5284290869
 23
30.5938002079
  0
SOLID
  8
0
 62
7
  6
CONTINUOUS
 10
151.0768668626
 20
30.8196456577
 11
151.1346793074
 21
30.9164373395
 12
151.4237418626
 22
30.9164373395
 13
151.4237418626
 23
30.9164373395
  0
SOLID
  8
0
 62
7
  6
CONTINUOUS
 10
151.4237418626
 20
30.9164373395
 11
151.3659292523
 21
30.7873815123
 12
151.0768668626
 22
30.8196456577
 13
151.0768668626
 23
30.8196456577
  0
SOLID
  8
0
 62
7
  6
CONTINUOUS
 10
150.9034292799
 20
30.7551187255
 11
151.0768668626
 21
30.8196456577
 12
151.3659292523
 22
30.7873815123
 13
151.3659292523
 23
30.7873815123
  0
SOLID
  8
0
 62
7
  6
CONTINUOUS
 10
150.9034292799
 20
30.7551187255
 11
151.3659292523
 21
30.7873815123
 12
150.498741835
 22
30.7228544222
 13
150.498741835
 23
30.7228544222
  0
SOLID
  8
0
 62
7
  6
CONTINUOUS
 10
151.3659292523
 20
30.7873815123
 11
151.1924917523
 21
30.6905916353
 12
150.498741835
 22
30.7228544222
 13
150.498741835
 23
30.7228544222
  0
SOLID
  8
0
 62
7
  6
CONTINUOUS
 10
150.0362418212
 20
30.658327332
 11
150.498741835
 21
30.7228544222
 12
151.1924917523
 22
30.6905916353
 13
151.1924917523
 23
30.6905916353
  0
SOLID
  8
0
 62
7
  6
CONTINUOUS
 10
150.0362418212
 20
30.658327332
 11
151.1924917523
 21
30.6905916353
 12
150.2096793212
 22
30.6260631011
 13
150.2096793212
 23
30.6260631011
  0
SOLID
  8
0
 62
7
  6
CONTINUOUS
 10
151.1924917523
 20
30.6905916353
 11
150.9612418074
 21
30.6260631011
 12
150.2096793212
 22
30.6260631011
 13
150.2096793212
 23
30.6260631011
  0
SOLID
  8
0
 62
7
  6
CONTINUOUS
 10
150.5565542799
 20
30.5938002419
 11
150.2096793212
 21
30.6260631011
 12
150.9612418074
 22
30.6260631011
 13
150.9612418074
 23
30.6260631011
  0
SOLID
  8
0
 62
7
  6
CONTINUOUS
 10
154.0253041972
 20
30.7551187255
 11
154.2565543074
 21
30.8519086025
 12
154.3143669177
 22
30.7873815123
 13
154.3143669177
 23
30.7873815123
  0
SOLID
  8
0
 62
7
  6
CONTINUOUS
 10
154.3143669177
 20
30.7873815123
 11
154.5456166972
 21
30.7228544222
 12
154.0253041972
 22
30.7551187255
 13
154.0253041972
 23
30.7551187255
  0
SOLID
  8
0
 62
7
  6
CONTINUOUS
 10
154.1987416972
 20
30.658327332
 11
154.0253041972
 21
30.7551187255
 12
154.5456166972
 22
30.7228544222
 13
154.5456166972
 23
30.7228544222
  0
SOLID
  8
0
 62
7
  6
CONTINUOUS
 10
154.8924916972
 20
30.7228544637
 11
155.1815540869
 21
30.7873815123
 12
155.412804528
 22
30.7551187255
 13
155.412804528
 23
30.7551187255
  0
SOLID
  8
0
 62
7
  6
CONTINUOUS
 10
155.412804528
 20
30.7551187255
 11
155.3549915869
 21
30.6905916353
 12
154.8924916972
 22
30.7228544637
 13
154.8924916972
 23
30.7228544637
  0
SOLID
  8
0
 62
7
  6
CONTINUOUS
 10
155.3549915869
 20
30.6905916353
 11
154.1987416972
 21
30.658327332
 12
154.8924916972
 22
30.7228544637
 13
154.8924916972
 23
30.7228544637
  0
SOLID
  8
0
 62
7
  6
CONTINUOUS
 10
154.1987416972
 20
30.658327332
 11
154.5456166972
 21
30.7228544637
 12
154.8924916972
 22
30.7228544637
 13
154.8924916972
 23
30.7228544637
  0
SOLID
  8
0
 62
7
  6
CONTINUOUS
 10
154.1987416972
 20
30.658327332
 11
155.3549915869
 21
30.6905916353
 12
154.3143669177
 22
30.6260630541
 13
154.3143669177
 23
30.6260630541
  0
SOLID
  8
0
 62
7
  6
CONTINUOUS
 10
155.3549915869
 20
30.6905916353
 11
155.1815540869
 21
30.6260630541
 12
154.3143669177
 22
30.6260630541
 13
154.3143669177
 23
30.6260630541
  0
SOLID
  8
0
 62
7
  6
CONTINUOUS
 10
154.5456166972
 20
30.5938002188
 11
154.3143669177
 21
30.6260630541
 12
155.1815540869
 22
30.6260630541
 13
155.1815540869
 23
30.6260630541
  0
SOLID
  8
0
 62
7
  6
CONTINUOUS
 10
155.1815540869
 20
30.6260630541
 11
154.8924916972
 21
30.5938002188
 12
154.5456166972
 22
30.5938002188
 13
154.5456166972
 23
30.5938002188
  0
SOLID
  8
0
 62
7
  6
CONTINUOUS
 10
159.575304528
 20
30.7551187255
 11
159.228429528
 21
30.7228544637
 12
159.4596793074
 22
30.7873815123
 13
159.4596793074
 23
30.7873815123
  0
SOLID
  8
0
 62
7
  6
CONTINUOUS
 10
159.4596793074
 20
30.7873815123
 11
159.228429528
 21
30.7228544637
 12
159.401867028
 22
30.851908644
 13
159.401867028
 23
30.851908644
  0
SOLID
  8
0
 62
7
  6
CONTINUOUS
 10
159.228429528
 20
30.7228544637
 11
159.1128043074
 21
30.851908644
 12
159.401867028
 22
30.851908644
 13
159.401867028
 23
30.851908644
  0
SOLID
  8
0
 62
7
  6
CONTINUOUS
 10
159.575304528
 20
30.7551187255
 11
159.922179528
 21
30.7228544637
 12
159.228429528
 22
30.7228544637
 13
159.228429528
 23
30.7228544637
  0
SOLID
  8
0
 62
7
  6
CONTINUOUS
 10
156.279992028
 20
30.5938002419
 11
156.279992028
 21
31.6262382337
 12
156.5690540869
 22
30.5938002419
 13
156.5690540869
 23
31.6262382337
  0
ENDBLK
  8
0
  6
BYBLOCK
 62
0
  0
BLOCK
  8
0
 62
2
  6
CONTINUOUS
  2
SYMBOL_3_BL0
 70
64
 10
32.1213064866
 20
19.8534310916
  0
TEXT
  8
0
 62
7
  6
CONTINUOUS
 10
18.3860103289
 20
19.2268451992
  7
TEXTSTYLE_3
 40
2.7338706658
  1
Ammeraal Beltech
 41
1.0
 51
15.0
 72
0
  0
TEXT
  8
0
 62
7
  6
CONTINUOUS
 10
29.1868111546
 20
16.9533085264
  7
TEXTSTYLE_4
 40
1.0935482663
  1
Innovation & Service in Belting
 41
1.0
 72
0
  0
LINE
  8
0
 62
7
  6
CONTINUOUS
 10
12.3614696776
 20
19.9934385078
 11
13.1396216709
 21
23.6543558055
  0
LINE
  8
0
 62
7
  6
CONTINUOUS
 10
23.2347899607
 20
27.3177497171
 11
13.6274394139
 21
24.1961322958
  0
LINE
  8
0
 62
7
  6
CONTINUOUS
 10
12.5867530099
 20
19.3000877048
 11
20.093828271
 21
12.5406867788
  0
LINE
  8
0
 62
7
  6
CONTINUOUS
 10
12.8492874206
 20
20.5352149982
 11
23.6575567857
 21
24.0470345971
  0
LINE
  8
0
 62
7
  6
CONTINUOUS
 10
23.6533516486
 20
13.6972460334
 11
15.2078919798
 21
21.3015720751
  0
LINE
  8
0
 62
7
  6
CONTINUOUS
 10
24.1731743684
 20
26.4728246013
 11
23.1966148312
 21
21.8784731989
  0
LINE
  8
0
 62
7
  6
CONTINUOUS
 10
22.4968128835
 20
18.5861638851
 11
21.810364672
 21
15.3566789607
  0
LINE
  8
0
 62
7
  6
CONTINUOUS
 10
24.8542704669
 20
14.087448211
 11
25.8105020025
 21
18.5861638851
  0
LINE
  8
0
 62
7
  6
CONTINUOUS
 10
26.5103039502
 20
21.8784731989
 11
26.9545457526
 21
23.9684665583
  0
LINE
  8
0
 62
7
  6
CONTINUOUS
 10
20.8069293463
 20
12.3891124661
 11
24.3664527239
 21
13.5456717207
  0
LINE
  8
0
 62
7
  6
CONTINUOUS
 10
23.9478910361
 20
27.1661754044
 11
26.7292624203
 21
24.6618173613
  0
ARC
  8
0
 62
7
  6
CONTINUOUS
 10
13.8527227462
 20
23.5027814928
 40
0.7290321776
 50
108.0
 51
168.0
  0
ARC
  8
0
 62
7
  6
CONTINUOUS
 10
23.4600732931
 20
26.624398914
 40
0.7290321776
 50
348.0
 51
108.0
  0
ARC
  8
0
 62
7
  6
CONTINUOUS
 10
26.2414446773
 20
24.120040871
 40
0.7290321776
 50
348.0
 51
48.0
  0
ARC
  8
0
 62
7
  6
CONTINUOUS
 10
20.581646014
 20
13.0824632691
 40
0.7290321776
 50
228.0
 51
288.0
  0
ARC
  8
0
 62
7
  6
CONTINUOUS
 10
13.0745707529
 20
19.8418641951
 40
0.7290321776
 50
108.0
 51
228.0
  0
ARC
  8
0
 62
7
  6
CONTINUOUS
 10
24.1411693916
 20
14.2390225237
 40
0.7290321776
 50
228.0
 51
348.0
  0
ENDBLK
  8
0
  6
BYBLOCK
 62
0
  0
ENDSEC
  0
SECTION
  2
ENTITIES
  0
TEXT
  8
0
 62
5
  6
CONTINUOUS
 10
96.0
 20
25.636
  7
TEXTSTYLE_2
 40
2.8
  1
Scale :
 41
0.6
 51
0.000019
 72
0
  0
TEXT
  8
0
 62
5
  6
CONTINUOUS
 10
116.0
 20
25.636
  7
TEXTSTYLE_2
 40
2.8
  1
Belt type:
 41
0.6
 51
0.000019
 72
0
  0
INSERT
  8
0
 62
2
  6
CONTINUOUS
  2
SYMBOL_3_BL0
 10
32.1213064866
 20
19.8534310916
  0
INSERT
  8
0
 62
2
  6
CONTINUOUS
  2
SYMBOL_8_BL1
 10
173.5956734183
 20
35.5937998301
  0
LINE
  8
0
 62
2
  6
CONTINUOUS
 10
10.0
 20
30.0
 11
200.0
 21
30.0
  0
LINE
  8
0
 62
2
  6
CONTINUOUS
 10
10.0
 20
30.0
 11
10.0
 21
10.0
  0
LINE
  8
0
 62
2
  6
CONTINUOUS
 10
10.0
 20
10.0
 11
200.0
 21
10.0
  0
LINE
  8
0
 62
2
  6
CONTINUOUS
 10
95.0
 20
30.0
 11
95.0
 21
10.0
  0
LINE
  8
0
 62
2
  6
CONTINUOUS
 10
115.0
 20
30.0
 11
115.0
 21
10.0
  0
LINE
  8
0
 62
2
  6
CONTINUOUS
 10
200.0
 20
30.0
 11
200.0
 21
10.0
  0
TEXT
  8
0
 62
5
  6
CONTINUOUS
 10
13.0
 20
23.303
  7
TEXTSTYLE_5
 40
1.52
  1
                                                                     Ammeraal Beltech Modular A/S
 41
1.0
 72
0
  0
TEXT
  8
0
 62
5
  6
CONTINUOUS
 10
13.0
 20
20.595
  7
TEXTSTYLE_5
 40
1.5
  1
                                                                      Hjulmagervej 21,  7100 Vejle,  DK
 41
1.0
 72
0
  0
TEXT
  8
0
 62
5
  6
CONTINUOUS
 10
13.0
 20
17.881
  7
TEXTSTYLE_5
 40
1.495
  1
                                                                      tel: 
 41
1.0
 72
0
  0
TEXT
  8
0
 62
5
  6
CONTINUOUS
 10
57.9869465649
 20
17.881
  7
TEXTSTYLE_5
 40
1.51
  1
+45 75723100     fax: +45 75723348
 41
1.0
 72
0
  0
TEXT
  8
0
 62
5
  6
CONTINUOUS
 10
13.0
 20
15.177
  7
TEXTSTYLE_5
 40
1.5
  1
                                                                      admin@unichains.dk  www.unichains.com
 41
1.0
 72
0
  0
TEXT
  8
0
 62
5
  6
CONTINUOUS
 10
99.75
 20
13.75
  7
TEXTSTYLE_6
 40
5.0
  1
1:1
 41
0.7
 72
1
 11
105.0
 21
13.75
  0
TEXT
  8
0
 62
5
  6
CONTINUOUS
 10
118.0
 20
13.75
  7
TEXTSTYLE_7
 40
7.5
  1
uni SSB 29-K300F
 41
0.5475911458
 72
0
  0
LINE
  8
0
 62
7
  6
CONTINUOUS
 10
210.0
 20
0.0
 11
0.0
 21
0.0
  0
LINE
  8
0
 62
7
  6
CONTINUOUS
 10
10.0
 20
10.0
 11
200.0
 21
10.0
  0
LINE
  8
0
 62
7
  6
CONTINUOUS
 10
10.0
 20
30.0
 11
200.0
 21
30.0
  0
LINE
  8
0
 62
7
  6
CONTINUOUS
 10
0.0
 20
0.0
 11
0.0
 21
297.0
  0
LINE
  8
0
 62
7
  6
CONTINUOUS
 10
10.0
 20
10.0
 11
10.0
 21
287.0
  0
LINE
  8
0
 62
7
  6
CONTINUOUS
 10
200.0
 20
287.0
 11
200.0
 21
10.0
  0
LINE
  8
0
 62
7
  6
CONTINUOUS
 10
210.0
 20
0.0
 11
210.0
 21
297.0
  0
LINE
  8
0
 62
7
  6
CONTINUOUS
 10
10.0
 20
287.0
 11
200.0
 21
287.0
  0
LINE
  8
0
 62
7
  6
CONTINUOUS
 10
0.0
 20
297.0
 11
210.0
 21
297.0
  0
LINE
  8
0
 62
7
  6
CONTINUOUS
 10
44.396955819
 20
160.5182650902
 11
44.396955819
 21
121.9182650862
  0
POLYLINE
  8
0
 62
7
  6
CONTINUOUS
 66
1
 70
0
  0
VERTEX
  8
0
 62
7
  6
CONTINUOUS
 10
53.7299147025
 20
159.5681984098
  0
VERTEX
  8
0
 62
7
  6
CONTINUOUS
 10
53.6893199681
 20
159.5169586064
  0
VERTEX
  8
0
 62
7
  6
CONTINUOUS
 10
53.6445132667
 20
159.4682750833
  0
VERTEX
  8
0
 62
7
  6
CONTINUOUS
 10
53.5953508068
 20
159.4227170557
  0
VERTEX
  8
0
 62
7
  6
CONTINUOUS
 10
53.5416733856
 20
159.3813049258
  0
VERTEX
  8
0
 62
7
  6
CONTINUOUS
 10
53.4834343826
 20
159.3456802304
  0
VERTEX
  8
0
 62
7
  6
CONTINUOUS
 10
53.4224903782
 20
159.318865835
  0
VERTEX
  8
0
 62
7
  6
CONTINUOUS
 10
53.3635710677
 20
159.3038054494
  0
VERTEX
  8
0
 62
7
  6
CONTINUOUS
 10
53.3186664064
 20
159.3001943936
  0
SEQEND
  0
LINE
  8
0
 62
7
  6
CONTINUOUS
 10
47.9138068451
 20
160.5357148346
 11
47.9389778063
 21
159.8149128124
  0
LINE
  8
0
 62
7
  6
CONTINUOUS
 10
53.9243465324
 20
160.0117761301
 11
53.8727994129
 21
159.8647949524
  0
LINE
  8
0
 62
7
  6
CONTINUOUS
 10
53.8727994129
 20
159.8647949524
 11
53.8590533245
 21
159.8263054437
  0
LINE
  8
0
 62
7
  6
CONTINUOUS
 10
53.8590533245
 20
159.8263054437
 11
53.8494808782
 21
159.7999419873
  0
LINE
  8
0
 62
7
  6
CONTINUOUS
 10
53.8494808782
 20
159.7999419873
 11
53.8395339355
 21
159.7730212391
  0
LINE
  8
0
 62
7
  6
CONTINUOUS
 10
53.8395339355
 20
159.7730212391
 11
53.8297853842
 21
159.747171013
  0
LINE
  8
0
 62
7
  6
CONTINUOUS
 10
53.8297554546
 20
159.7470924649
 11
53.8297853842
 21
159.747171013
  0
POLYLINE
  8
0
 62
7
  6
CONTINUOUS
 66
1
 70
0
  0
VERTEX
  8
0
 62
7
  6
CONTINUOUS
 10
53.8297559618
 20
159.7470925059
  0
VERTEX
  8
0
 62
7
  6
CONTINUOUS
 10
53.8239167798
 20
159.7323807332
  0
VERTEX
  8
0
 62
7
  6
CONTINUOUS
 10
53.7977587015
 20
159.6764799017
  0
VERTEX
  8
0
 62
7
  6
CONTINUOUS
 10
53.7661989285
 20
159.6215506445
  0
VERTEX
  8
0
 62
7
  6
CONTINUOUS
 10
53.7299147025
 20
159.5681984098
  0
SEQEND
  0
LINE
  8
0
 62
7
  6
CONTINUOUS
 10
53.8801047929
 20
160.5357148346
 11
53.8549339222
 21
159.8149154062
  0
POLYLINE
  8
0
 62
7
  6
CONTINUOUS
 66
1
 70
0
  0
VERTEX
  8
0
 62
7
  6
CONTINUOUS
 10
57.0244027369
 20
120.327353076
  0
VERTEX
  8
0
 62
7
  6
CONTINUOUS
 10
56.9382757161
 20
120.3912336414
  0
VERTEX
  8
0
 62
7
  6
CONTINUOUS
 10
56.7904819209
 20
120.4658451595
  0
SEQEND
  0
LINE
  8
0
 62
7
  6
CONTINUOUS
 10
57.0244027369
 20
120.327353076
 11
57.0741700299
 21
120.2811447196
  0
LINE
  8
0
 62
7
  6
CONTINUOUS
 10
57.1785348859
 20
120.1511820239
 11
57.0713445738
 21
120.2840466719
  0
LINE
  8
0
 62
7
  6
CONTINUOUS
 10
57.0741700299
 20
120.2811447196
 11
57.2151371319
 21
120.0880582539
  0
LINE
  8
0
 62
7
  6
CONTINUOUS
 10
57.2151371319
 20
120.0880582539
 11
57.2927380514
 21
119.8619987665
  0
POLYLINE
  8
0
 62
7
  6
CONTINUOUS
 66
1
 70
0
  0
VERTEX
  8
0
 62
7
  6
CONTINUOUS
 10
57.2940413112
 20
119.8551062076
  0
VERTEX
  8
0
 62
7
  6
CONTINUOUS
 10
57.2531600001
 20
120.0037109856
  0
VERTEX
  8
0
 62
7
  6
CONTINUOUS
 10
57.1785348859
 20
120.1511820239
  0
SEQEND
  0
LINE
  8
0
 62
7
  6
CONTINUOUS
 10
57.2927380514
 20
119.8619987665
 11
57.3057588508
 21
119.7182650862
  0
LINE
  8
0
 62
7
  6
CONTINUOUS
 10
56.9011735869
 20
151.3745314044
 11
56.8881527872
 21
151.5182650862
  0
LINE
  8
0
 62
7
  6
CONTINUOUS
 10
57.3058356679
 20
119.7182650862
 11
57.2940413112
 21
119.8551062076
  0
LINE
  8
0
 62
7
  6
CONTINUOUS
 10
56.8880759701
 20
151.5182650862
 11
56.8998703687
 21
151.3814237236
  0
POLYLINE
  8
0
 62
7
  6
CONTINUOUS
 66
1
 70
0
  0
VERTEX
  8
0
 62
7
  6
CONTINUOUS
 10
57.3708467287
 20
111.105241352
  0
VERTEX
  8
0
 62
7
  6
CONTINUOUS
 10
57.3743681777
 20
111.0296888851
  0
VERTEX
  8
0
 62
7
  6
CONTINUOUS
 10
57.3779015439
 20
110.9619130294
  0
VERTEX
  8
0
 62
7
  6
CONTINUOUS
 10
57.3814541509
 20
110.9014833892
  0
VERTEX
  8
0
 62
7
  6
CONTINUOUS
 10
57.3850464519
 20
110.847850493
  0
VERTEX
  8
0
 62
7
  6
CONTINUOUS
 10
57.3887227913
 20
110.8003016966
  0
VERTEX
  8
0
 62
7
  6
CONTINUOUS
 10
57.3925676466
 20
110.7579313834
  0
VERTEX
  8
0
 62
7
  6
CONTINUOUS
 10
57.3967671157
 20
110.7193487386
  0
VERTEX
  8
0
 62
7
  6
CONTINUOUS
 10
57.4017558525
 20
110.6822746214
  0
VERTEX
  8
0
 62
7
  6
CONTINUOUS
 10
57.4086744644
 20
110.6425042289
  0
VERTEX
  8
0
 62
7
  6
CONTINUOUS
 10
57.4204339873
 20
110.5933744209
  0
VERTEX
  8
0
 62
7
  6
CONTINUOUS
 10
57.4450738582
 20
110.5239997428
  0
VERTEX
  8
0
 62
7
  6
CONTINUOUS
 10
57.4959652869
 20
110.432993191
  0
VERTEX
  8
0
 62
7
  6
CONTINUOUS
 10
57.5792521527
 20
110.3407566122
  0
VERTEX
  8
0
 62
7
  6
CONTINUOUS
 10
57.6942565065
 20
110.2659996275
  0
VERTEX
  8
0
 62
7
  6
CONTINUOUS
 10
57.8424739421
 20
110.2225481594
  0
VERTEX
  8
0
 62
7
  6
CONTINUOUS
 10
57.907883645
 20
110.2182679966
  0
SEQEND
  0
POLYLINE
  8
0
 62
7
  6
CONTINUOUS
 66
1
 70
0
  0
VERTEX
  8
0
 62
7
  6
CONTINUOUS
 10
56.8230649092
 20
160.1312888212
  0
VERTEX
  8
0
 62
7
  6
CONTINUOUS
 10
56.8195434602
 20
160.2068412876
  0
VERTEX
  8
0
 62
7
  6
CONTINUOUS
 10
56.816010094
 20
160.2746171432
  0
VERTEX
  8
0
 62
7
  6
CONTINUOUS
 10
56.812457487
 20
160.3350467835
  0
VERTEX
  8
0
 62
7
  6
CONTINUOUS
 10
56.808865186
 20
160.3886796798
  0
VERTEX
  8
0
 62
7
  6
CONTINUOUS
 10
56.8051888466
 20
160.4362284761
  0
VERTEX
  8
0
 62
7
  6
CONTINUOUS
 10
56.8013439913
 20
160.4785987891
  0
VERTEX
  8
0
 62
7
  6
CONTINUOUS
 10
56.7971445222
 20
160.5171814338
  0
VERTEX
  8
0
 62
7
  6
CONTINUOUS
 10
56.7921557854
 20
160.5542555512
  0
VERTEX
  8
0
 62
7
  6
CONTINUOUS
 10
56.7852371734
 20
160.5940259442
  0
VERTEX
  8
0
 62
7
  6
CONTINUOUS
 10
56.7734776506
 20
160.6431557518
  0
VERTEX
  8
0
 62
7
  6
CONTINUOUS
 10
56.7488377797
 20
160.7125304296
  0
VERTEX
  8
0
 62
7
  6
CONTINUOUS
 10
56.6979463512
 20
160.8035369813
  0
VERTEX
  8
0
 62
7
  6
CONTINUOUS
 10
56.6146594854
 20
160.8957735601
  0
VERTEX
  8
0
 62
7
  6
CONTINUOUS
 10
56.4996551315
 20
160.9705305448
  0
VERTEX
  8
0
 62
7
  6
CONTINUOUS
 10
56.3514376959
 20
161.013982013
  0
VERTEX
  8
0
 62
7
  6
CONTINUOUS
 10
56.2860279929
 20
161.0182621758
  0
SEQEND
  0
LINE
  8
0
 62
7
  6
CONTINUOUS
 10
57.3638445338
 20
111.2808891451
 11
57.3708467287
 21
111.105241352
  0
LINE
  8
0
 62
7
  6
CONTINUOUS
 10
56.8300671041
 20
159.9556410281
 11
56.8230649092
 21
160.1312888212
  0
LINE
  8
0
 62
7
  6
CONTINUOUS
 10
57.3569372404
 20
111.4904410227
 11
57.3638445338
 21
111.2808891451
  0
LINE
  8
0
 62
7
  6
CONTINUOUS
 10
56.8369743975
 20
159.7460891505
 11
56.8300671041
 21
159.9556410281
  0
LINE
  8
0
 62
7
  6
CONTINUOUS
 10
57.3501888179
 20
111.7347241235
 11
57.3569372404
 21
111.4904410227
  0
LINE
  8
0
 62
7
  6
CONTINUOUS
 10
56.84372282
 20
159.5018060501
 11
56.8369743975
 21
159.7460891505
  0
LINE
  8
0
 62
7
  6
CONTINUOUS
 10
57.3404823899
 20
112.1681651389
 11
57.3501888179
 21
111.7347241235
  0
LINE
  8
0
 62
7
  6
CONTINUOUS
 10
56.853429248
 20
159.0683650346
 11
56.84372282
 21
159.5018060501
  0
LINE
  8
0
 62
7
  6
CONTINUOUS
 10
57.3286540136
 20
112.8734285832
 11
57.3404823899
 21
112.1681651389
  0
LINE
  8
0
 62
7
  6
CONTINUOUS
 10
56.8652576244
 20
158.3631015905
 11
56.853429248
 21
159.0683650346
  0
LINE
  8
0
 62
7
  6
CONTINUOUS
 10
57.3186402311
 20
113.7216766192
 11
57.3286540136
 21
112.8734285832
  0
LINE
  8
0
 62
7
  6
CONTINUOUS
 10
56.8752714068
 20
157.5148535539
 11
56.8652576244
 21
158.3631015905
  0
LINE
  8
0
 62
7
  6
CONTINUOUS
 10
56.8842505917
 20
156.2711086197
 11
56.8752714068
 21
157.5148535539
  0
LINE
  8
0
 62
7
  6
CONTINUOUS
 10
57.3096610462
 20
114.9654215528
 11
57.3186402311
 21
113.7216766192
  0
LINE
  8
0
 62
7
  6
CONTINUOUS
 10
56.8881520897
 20
154.6682650862
 11
56.8842505917
 21
156.2711086197
  0
LINE
  8
0
 62
7
  6
CONTINUOUS
 10
57.3057595482
 20
116.5682650862
 11
57.3096610462
 21
114.9654215528
  0
LINE
  8
0
 62
7
  6
CONTINUOUS
 10
56.8881521225
 20
154.6682650862
 11
56.8881521225
 21
151.5182650862
  0
LINE
  8
0
 62
7
  6
CONTINUOUS
 10
57.3057595155
 20
116.5682650862
 11
57.3057595155
 21
119.7182650862
  0
POLYLINE
  8
0
 62
7
  6
CONTINUOUS
 66
1
 70
0
  0
VERTEX
  8
0
 62
7
  6
CONTINUOUS
 10
81.5860271634
 20
110.2182681101
  0
VERTEX
  8
0
 62
7
  6
CONTINUOUS
 10
81.6559878106
 20
110.2231675853
  0
VERTEX
  8
0
 62
7
  6
CONTINUOUS
 10
81.8076247687
 20
110.2698335918
  0
VERTEX
  8
0
 62
7
  6
CONTINUOUS
 10
81.9239599277
 20
110.3490030519
  0
VERTEX
  8
0
 62
7
  6
CONTINUOUS
 10
82.005952701
 20
110.4447555556
  0
VERTEX
  8
0
 62
7
  6
CONTINUOUS
 10
82.0538448255
 20
110.5359381615
  0
VERTEX
  8
0
 62
7
  6
CONTINUOUS
 10
82.0759220498
 20
110.6022854536
  0
VERTEX
  8
0
 62
7
  6
CONTINUOUS
 10
82.0866939367
 20
110.6499942753
  0
VERTEX
  8
0
 62
7
  6
CONTINUOUS
 10
82.0932124409
 20
110.6894384507
  0
VERTEX
  8
0
 62
7
  6
CONTINUOUS
 10
82.0980411219
 20
110.7269676251
  0
VERTEX
  8
0
 62
7
  6
CONTINUOUS
 10
82.1021666156
 20
110.7663992995
  0
VERTEX
  8
0
 62
7
  6
CONTINUOUS
 10
82.1059761142
 20
110.8098842718
  0
VERTEX
  8
0
 62
7
  6
CONTINUOUS
 10
82.1096385444
 20
110.858782422
  0
VERTEX
  8
0
 62
7
  6
CONTINUOUS
 10
82.113232765
 20
110.914030326
  0
VERTEX
  8
0
 62
7
  6
CONTINUOUS
 10
82.1167970759
 20
110.9763326343
  0
VERTEX
  8
0
 62
7
  6
CONTINUOUS
 10
82.1203505976
 20
111.0462852798
  0
VERTEX
  8
0
 62
7
  6
CONTINUOUS
 10
82.1239015876
 20
111.1244127588
  0
VERTEX
  8
0
 62
7
  6
CONTINUOUS
 10
82.1274487167
 20
111.2110950636
  0
VERTEX
  8
0
 62
7
  6
CONTINUOUS
 10
82.1345091317
 20
111.411236766
  0
SEQEND
  0
LINE
  8
4_SURFACE
 62
7
  6
CONTINUOUS
 10
57.9078716453
 20
110.2182650862
 11
81.5860399926
 21
110.2182650862
  0
LINE
  8
0
 62
7
  6
CONTINUOUS
 10
108.5078716453
 20
110.2182650862
 11
110.4141114316
 21
110.2182650862
  0
LINE
  8
0
 62
7
  6
CONTINUOUS
 10
117.3798002064
 20
110.2182650862
 11
119.8969558229
 21
110.2182650862
  0
LINE
  8
0
 62
7
  6
CONTINUOUS
 10
57.9078716453
 20
110.2182650862
 11
81.5860399926
 21
110.2182650862
  0
LINE
  8
0
 62
7
  6
CONTINUOUS
 10
47.947137417
 20
159.7925655871
 11
47.935713544
 21
159.8239334472
  0
LINE
  8
0
 62
7
  6
CONTINUOUS
 10
47.935713544
 20
159.8239334472
 11
47.9211720742
 21
159.8646263489
  0
LINE
  8
0
 62
7
  6
CONTINUOUS
 10
47.9211720742
 20
159.8646263489
 11
47.8695659075
 21
160.0117740306
  0
LINE
  8
0
 62
7
  6
CONTINUOUS
 10
60.816955819
 20
126.6182650862
 11
60.816955819
 21
144.6182650862
  0
LINE
  8
0
 62
7
  6
CONTINUOUS
 10
116.3186598099
 20
111.936337267
 11
111.4752452826
 21
111.936337267
  0
POLYLINE
  8
0
 62
7
  6
CONTINUOUS
 66
1
 70
0
  0
VERTEX
  8
0
 62
7
  6
CONTINUOUS
 10
56.7904819209
 20
120.4658451595
  0
VERTEX
  8
0
 62
7
  6
CONTINUOUS
 10
56.6418626007
 20
120.5065764052
  0
VERTEX
  8
0
 62
7
  6
CONTINUOUS
 10
56.505561489
 20
120.5182650862
  0
SEQEND
  0
LINE
  8
0
 62
7
  6
CONTINUOUS
 10
47.9641270025
 20
159.7471693418
 11
47.9590961539
 21
159.7604399571
  0
POLYLINE
  8
0
 62
7
  6
CONTINUOUS
 66
1
 70
0
  0
VERTEX
  8
0
 62
7
  6
CONTINUOUS
 10
47.9590961539
 20
159.7604399571
  0
VERTEX
  8
0
 62
7
  6
CONTINUOUS
 10
47.9510601517
 20
159.7819418372
  0
VERTEX
  8
0
 62
7
  6
CONTINUOUS
 10
47.947137417
 20
159.7925655871
  0
SEQEND
  0
LINE
  8
1_AXIS
 62
2
  6
CENTER
 10
55.3510665202
 20
116.5682650862
 11
122.396955819
 21
116.5682650862
  0
POLYLINE
  8
0
 62
7
  6
CONTINUOUS
 66
1
 70
0
  0
VERTEX
  8
0
 62
7
  6
CONTINUOUS
 10
116.318659817
 20
111.9363355003
  0
VERTEX
  8
0
 62
7
  6
CONTINUOUS
 10
116.3798913773
 20
111.9296961296
  0
VERTEX
  8
0
 62
7
  6
CONTINUOUS
 10
116.4404190484
 20
111.9109254759
  0
VERTEX
  8
0
 62
7
  6
CONTINUOUS
 10
116.4955783258
 20
111.8842188982
  0
VERTEX
  8
0
 62
7
  6
CONTINUOUS
 10
116.546436111
 20
111.8518872791
  0
VERTEX
  8
0
 62
7
  6
CONTINUOUS
 10
116.5937524526
 20
111.8151678403
  0
VERTEX
  8
0
 62
7
  6
CONTINUOUS
 10
116.6376391315
 20
111.7750922756
  0
VERTEX
  8
0
 62
7
  6
CONTINUOUS
 10
116.6781494451
 20
111.7324132087
  0
VERTEX
  8
0
 62
7
  6
CONTINUOUS
 10
116.7153474076
 20
111.6876090662
  0
SEQEND
  0
LINE
  8
0
 62
7
  6
CONTINUOUS
 10
56.9787745066
 20
151.1484719172
 11
56.9011735869
 21
151.3745314044
  0
POLYLINE
  8
0
 62
7
  6
CONTINUOUS
 66
1
 70
0
  0
VERTEX
  8
0
 62
7
  6
CONTINUOUS
 10
56.8998703687
 20
151.3814237236
  0
VERTEX
  8
0
 62
7
  6
CONTINUOUS
 10
56.9407517361
 20
151.2328189295
  0
VERTEX
  8
0
 62
7
  6
CONTINUOUS
 10
57.0153768403
 20
151.0853480115
  0
SEQEND
  0
LINE
  8
0
 62
7
  6
CONTINUOUS
 10
66.326955819
 20
144.6182650862
 11
66.326955819
 21
126.6182650862
  0
LINE
  8
0
 62
7
  6
CONTINUOUS
 10
82.9883501489
 20
120.5182650862
 11
82.8520487679
 21
120.5065763587
  0
LINE
  8
0
 62
7
  6
CONTINUOUS
 10
107.105561489
 20
120.5182650862
 11
82.9883501489
 21
120.5182650862
  0
LINE
  8
0
 62
7
  6
CONTINUOUS
 10
45.7809101002
 20
120.5182650862
 11
56.505561489
 21
120.5182650862
  0
LINE
  8
0
 62
7
  6
CONTINUOUS
 10
82.2382758915
 20
150.8452966437
 11
82.3243360323
 21
150.9091203207
  0
POLYLINE
  8
0
 62
7
  6
CONTINUOUS
 66
1
 70
0
  0
VERTEX
  8
0
 62
7
  6
CONTINUOUS
 10
82.8520487679
 20
120.5065763587
  0
VERTEX
  8
0
 62
7
  6
CONTINUOUS
 10
82.7034294226
 20
120.4658450474
  0
VERTEX
  8
0
 62
7
  6
CONTINUOUS
 10
82.5556357464
 20
120.3912335287
  0
SEQEND
  0
POLYLINE
  8
0
 62
7
  6
CONTINUOUS
 66
1
 70
0
  0
VERTEX
  8
0
 62
7
  6
CONTINUOUS
 10
48.0785642304
 20
159.5489211062
  0
VERTEX
  8
0
 62
7
  6
CONTINUOUS
 10
48.0446832978
 20
159.5955451735
  0
VERTEX
  8
0
 62
7
  6
CONTINUOUS
 10
48.0143782342
 20
159.6435576066
  0
VERTEX
  8
0
 62
7
  6
CONTINUOUS
 10
47.9879517263
 20
159.6926650349
  0
VERTEX
  8
0
 62
7
  6
CONTINUOUS
 10
47.9641381149
 20
159.7471387567
  0
SEQEND
  0
LINE
  8
0
 62
7
  6
CONTINUOUS
 10
73.316955819
 20
126.6182650862
 11
73.316955819
 21
144.6182650862
  0
LINE
  8
0
 62
7
  6
CONTINUOUS
 10
82.5113202256
 20
151.141243568
 11
82.3683616447
 21
150.9495804925
  0
POLYLINE
  8
0
 62
7
  6
CONTINUOUS
 66
1
 70
0
  0
VERTEX
  8
0
 62
7
  6
CONTINUOUS
 10
82.3713445903
 20
150.9524835169
  0
VERTEX
  8
0
 62
7
  6
CONTINUOUS
 10
82.4785347976
 20
151.0853480115
  0
VERTEX
  8
0
 62
7
  6
CONTINUOUS
 10
82.5531599018
 20
151.2328189295
  0
SEQEND
  0
LINE
  8
0
 62
7
  6
CONTINUOUS
 10
82.3243360323
 20
150.9091203207
 11
82.3713445903
 21
150.9524835169
  0
POLYLINE
  8
0
 62
7
  6
CONTINUOUS
 66
1
 70
0
  0
VERTEX
  8
0
 62
7
  6
CONTINUOUS
 10
45.9875538195
 20
120.5182650862
  0
VERTEX
  8
0
 62
7
  6
CONTINUOUS
 10
46.0685139682
 20
120.5265332094
  0
VERTEX
  8
0
 62
7
  6
CONTINUOUS
 10
46.149006567
 20
120.5507481735
  0
VERTEX
  8
0
 62
7
  6
CONTINUOUS
 10
46.2201183314
 20
120.5932830212
  0
VERTEX
  8
0
 62
7
  6
CONTINUOUS
 10
46.3009797781
 20
120.6455368039
  0
VERTEX
  8
0
 62
7
  6
CONTINUOUS
 10
46.3404480643
 20
120.7267931431
  0
VERTEX
  8
0
 62
7
  6
CONTINUOUS
 10
46.3954947173
 20
120.8071780606
  0
VERTEX
  8
0
 62
7
  6
CONTINUOUS
 10
46.418007841
 20
120.9051188401
  0
VERTEX
  8
0
 62
7
  6
CONTINUOUS
 10
46.4375538195
 20
121.0182650862
  0
SEQEND
  0
LINE
  8
0
 62
7
  6
CONTINUOUS
 10
102.976955819
 20
125.6182650862
 11
99.466955819
 21
125.6182650862
  0
LINE
  8
0
 62
7
  6
CONTINUOUS
 10
90.476955819
 20
125.6182650862
 11
86.966955819
 21
125.6182650862
  0
LINE
  8
0
 62
7
  6
CONTINUOUS
 10
77.826955819
 20
125.6182650862
 11
74.316955819
 21
125.6182650862
  0
LINE
  8
0
 62
7
  6
CONTINUOUS
 10
65.326955819
 20
125.6182650862
 11
61.816955819
 21
125.6182650862
  0
LINE
  8
0
 62
7
  6
CONTINUOUS
 10
57.0153768403
 20
151.0853480115
 11
57.1225670477
 21
150.9524835169
  0
LINE
  8
0
 62
7
  6
CONTINUOUS
 10
57.1197416085
 20
150.9553854523
 11
56.9787745066
 21
151.1484719172
  0
LINE
  8
0
 62
7
  6
CONTINUOUS
 10
82.5581934247
 20
151.2511159114
 11
82.5321740347
 21
151.2000423605
  0
POLYLINE
  8
0
 62
7
  6
CONTINUOUS
 66
1
 70
0
  0
VERTEX
  8
0
 62
7
  6
CONTINUOUS
 10
107.3904822153
 20
120.4658450474
  0
VERTEX
  8
0
 62
7
  6
CONTINUOUS
 10
107.24186287
 20
120.5065763587
  0
VERTEX
  8
0
 62
7
  6
CONTINUOUS
 10
107.105561489
 20
120.5182650862
  0
SEQEND
  0
LINE
  8
0
 62
7
  6
CONTINUOUS
 10
57.1695085636
 20
150.9091773837
 11
57.1197416085
 21
150.9553854523
  0
LINE
  8
0
 62
7
  6
CONTINUOUS
 10
78.826955819
 20
144.6182650862
 11
78.826955819
 21
126.6182650862
  0
LINE
  8
0
 62
7
  6
CONTINUOUS
 10
82.5531599018
 20
151.2328189295
 11
82.5940412692
 21
151.3814237236
  0
LINE
  8
0
 62
7
  6
CONTINUOUS
 10
82.5912502374
 20
151.3666118998
 11
82.5113202256
 21
151.141243568
  0
POLYLINE
  8
0
 62
7
  6
CONTINUOUS
 66
1
 70
0
  0
VERTEX
  8
0
 62
7
  6
CONTINUOUS
 10
57.1695085636
 20
150.9091773837
  0
VERTEX
  8
0
 62
7
  6
CONTINUOUS
 10
57.2556357464
 20
150.8452966437
  0
VERTEX
  8
0
 62
7
  6
CONTINUOUS
 10
57.4034294226
 20
150.770685125
  0
SEQEND
  0
LINE
  8
0
 62
7
  6
CONTINUOUS
 10
82.1853449469
 20
115.2049568894
 11
82.1881521225
 21
119.7182650862
  0
LINE
  8
0
 62
7
  6
CONTINUOUS
 10
82.608566691
 20
156.031573283
 11
82.6057595155
 21
151.5182650862
  0
LINE
  8
0
 62
7
  6
CONTINUOUS
 10
82.1768290757
 20
113.888549901
 11
82.1853449469
 21
115.2049568894
  0
LINE
  8
0
 62
7
  6
CONTINUOUS
 10
82.6170825623
 20
157.3479802714
 11
82.608566691
 21
156.031573283
  0
LINE
  8
0
 62
7
  6
CONTINUOUS
 10
82.6270859718
 20
158.2496381955
 11
82.6170825623
 21
157.3479802714
  0
LINE
  8
0
 62
7
  6
CONTINUOUS
 10
82.1668256661
 20
112.9868919769
 11
82.1768290757
 21
113.888549901
  0
LINE
  8
0
 62
7
  6
CONTINUOUS
 10
82.639112092
 20
158.9979625285
 11
82.6270859718
 21
158.2496381955
  0
LINE
  8
0
 62
7
  6
CONTINUOUS
 10
82.1547995459
 20
112.2385676439
 11
82.1668256661
 21
112.9868919769
  0
LINE
  8
0
 62
7
  6
CONTINUOUS
 10
82.6490248268
 20
159.4552855111
 11
82.639112092
 21
158.9979625285
  0
POLYLINE
  8
0
 62
7
  6
CONTINUOUS
 66
1
 70
0
  0
VERTEX
  8
0
 62
7
  6
CONTINUOUS
 10
82.1414674222
 20
111.6483818614
  0
VERTEX
  8
0
 62
7
  6
CONTINUOUS
 10
82.1448868112
 20
111.7812446613
  0
VERTEX
  8
0
 62
7
  6
CONTINUOUS
 10
82.1547995459
 20
112.2385676439
  0
SEQEND
  0
LINE
  8
0
 62
7
  6
CONTINUOUS
 10
82.6559060702
 20
159.7114299439
 11
82.6490248268
 21
159.4552855111
  0
LINE
  8
0
 62
7
  6
CONTINUOUS
 10
82.6629245647
 20
159.9299039439
 11
82.6559060702
 21
159.7114299439
  0
LINE
  8
0
 62
7
  6
CONTINUOUS
 10
82.5940412692
 20
151.3814237236
 11
82.6058356679
 21
151.5182650862
  0
LINE
  8
0
 62
7
  6
CONTINUOUS
 10
82.6057588631
 20
151.5182650862
 11
82.5912502374
 21
151.3666118998
  0
LINE
  8
0
 62
7
  6
CONTINUOUS
 10
82.1345091317
 20
111.411236766
 11
82.1414674222
 21
111.6483818614
  0
LINE
  8
0
 62
7
  6
CONTINUOUS
 10
82.1998703687
 20
119.8551064488
 11
82.1880759701
 21
119.7182650862
  0
LINE
  8
0
 62
7
  6
CONTINUOUS
 10
82.1881527749
 20
119.7182650862
 11
82.2026614005
 21
119.8699182726
  0
POLYLINE
  8
0
 62
7
  6
CONTINUOUS
 66
1
 70
0
  0
VERTEX
  8
0
 62
7
  6
CONTINUOUS
 10
107.6244030744
 20
120.3273527887
  0
VERTEX
  8
0
 62
7
  6
CONTINUOUS
 10
107.5382758915
 20
120.3912335287
  0
VERTEX
  8
0
 62
7
  6
CONTINUOUS
 10
107.3904822153
 20
120.4658450474
  0
SEQEND
  0
LINE
  8
0
 62
7
  6
CONTINUOUS
 10
85.966955819
 20
126.6182650862
 11
85.966955819
 21
144.6182650862
  0
LINE
  8
0
 62
7
  6
CONTINUOUS
 10
82.2407517361
 20
120.0037112429
 11
82.1998703687
 21
119.8551064488
  0
LINE
  8
0
 62
7
  6
CONTINUOUS
 10
82.2026614005
 20
119.8699182726
 11
82.2825914123
 21
120.0952866045
  0
LINE
  8
0
 62
7
  6
CONTINUOUS
 10
107.6244030744
 20
120.3273527887
 11
107.6741700294
 21
120.2811447201
  0
LINE
  8
0
 62
7
  6
CONTINUOUS
 10
91.476955819
 20
144.6182650862
 11
91.476955819
 21
126.6182650862
  0
LINE
  8
0
 62
7
  6
CONTINUOUS
 10
82.2357048819
 20
119.9853658013
 11
82.261711582
 21
120.0364144433
  0
LINE
  8
0
 62
7
  6
CONTINUOUS
 10
82.2825914123
 20
120.0952866045
 11
82.4255499932
 21
120.2869496799
  0
POLYLINE
  8
0
 62
7
  6
CONTINUOUS
 66
1
 70
0
  0
VERTEX
  8
0
 62
7
  6
CONTINUOUS
 10
57.4034294226
 20
150.770685125
  0
VERTEX
  8
0
 62
7
  6
CONTINUOUS
 10
57.5520487679
 20
150.7299538137
  0
VERTEX
  8
0
 62
7
  6
CONTINUOUS
 10
57.6883501489
 20
150.7182650862
  0
SEQEND
  0
POLYLINE
  8
0
 62
7
  6
CONTINUOUS
 66
1
 70
0
  0
VERTEX
  8
0
 62
7
  6
CONTINUOUS
 10
82.4225670477
 20
120.2840466555
  0
VERTEX
  8
0
 62
7
  6
CONTINUOUS
 10
82.3153768403
 20
120.1511821609
  0
VERTEX
  8
0
 62
7
  6
CONTINUOUS
 10
82.2407517361
 20
120.0037112429
  0
SEQEND
  0
LINE
  8
0
 62
7
  6
CONTINUOUS
 10
82.4695756056
 20
120.3274098517
 11
82.4225670477
 21
120.2840466555
  0
LINE
  8
0
 62
7
  6
CONTINUOUS
 10
82.5556357464
 20
120.3912335287
 11
82.4695756056
 21
120.3274098517
  0
POLYLINE
  8
0
 62
7
  6
CONTINUOUS
 66
1
 70
0
  0
VERTEX
  8
0
 62
7
  6
CONTINUOUS
 10
118.8063578184
 20
150.7182650862
  0
VERTEX
  8
0
 62
7
  6
CONTINUOUS
 10
118.7253976698
 20
150.709996963
  0
VERTEX
  8
0
 62
7
  6
CONTINUOUS
 10
118.6449050709
 20
150.6857819989
  0
VERTEX
  8
0
 62
7
  6
CONTINUOUS
 10
118.5737933065
 20
150.6432471512
  0
VERTEX
  8
0
 62
7
  6
CONTINUOUS
 10
118.4929318599
 20
150.5909933685
  0
VERTEX
  8
0
 62
7
  6
CONTINUOUS
 10
118.4534635736
 20
150.5097370294
  0
VERTEX
  8
0
 62
7
  6
CONTINUOUS
 10
118.3984169206
 20
150.4293521118
  0
VERTEX
  8
0
 62
7
  6
CONTINUOUS
 10
118.3759037969
 20
150.3314113323
  0
VERTEX
  8
0
 62
7
  6
CONTINUOUS
 10
118.3563578184
 20
150.2182650862
  0
SEQEND
  0
LINE
  8
0
 62
7
  6
CONTINUOUS
 10
61.816955819
 20
145.6182650862
 11
65.326955819
 21
145.6182650862
  0
LINE
  8
0
 62
7
  6
CONTINUOUS
 10
74.316955819
 20
145.6182650862
 11
77.826955819
 21
145.6182650862
  0
LINE
  8
0
 62
7
  6
CONTINUOUS
 10
86.966955819
 20
145.6182650862
 11
90.476955819
 21
145.6182650862
  0
LINE
  8
0
 62
7
  6
CONTINUOUS
 10
99.466955819
 20
145.6182650862
 11
102.976955819
 21
145.6182650862
  0
LINE
  8
0
 62
7
  6
CONTINUOUS
 10
107.7785347976
 20
120.1511821609
 11
107.6713445903
 21
120.2840466555
  0
LINE
  8
0
 62
7
  6
CONTINUOUS
 10
107.6741700294
 20
120.2811447201
 11
107.8151371313
 21
120.0880582552
  0
POLYLINE
  8
0
 62
7
  6
CONTINUOUS
 66
1
 70
0
  0
VERTEX
  8
0
 62
7
  6
CONTINUOUS
 10
81.94186287
 20
150.7299538138
  0
VERTEX
  8
0
 62
7
  6
CONTINUOUS
 10
82.0904822153
 20
150.770685125
  0
VERTEX
  8
0
 62
7
  6
CONTINUOUS
 10
82.2382758915
 20
150.8452966437
  0
SEQEND
  0
LINE
  8
0
 62
7
  6
CONTINUOUS
 10
81.805561489
 20
150.7182650862
 11
81.94186287
 21
150.7299538138
  0
LINE
  8
0
 62
7
  6
CONTINUOUS
 10
57.6883501489
 20
150.7182650862
 11
81.805561489
 21
150.7182650862
  0
LINE
  8
0
 62
7
  6
CONTINUOUS
 10
108.2883501489
 20
150.7182650862
 11
119.0130015377
 21
150.7182650862
  0
POLYLINE
  8
0
 62
7
  6
CONTINUOUS
 66
1
 70
0
  0
VERTEX
  8
0
 62
7
  6
CONTINUOUS
 10
116.7153474076
 20
111.6876090662
  0
VERTEX
  8
0
 62
7
  6
CONTINUOUS
 10
116.7492283401
 20
111.6409849989
  0
VERTEX
  8
0
 62
7
  6
CONTINUOUS
 10
116.7795334037
 20
111.5929725658
  0
VERTEX
  8
0
 62
7
  6
CONTINUOUS
 10
116.8059599117
 20
111.5438651376
  0
VERTEX
  8
0
 62
7
  6
CONTINUOUS
 10
116.829773523
 20
111.4893914157
  0
SEQEND
  0
LINE
  8
0
 62
7
  6
CONTINUOUS
 10
98.466955819
 20
126.6182650862
 11
98.466955819
 21
144.6182650862
  0
LINE
  8
0
 62
7
  6
CONTINUOUS
 10
103.976955819
 20
144.6182650862
 11
103.976955819
 21
126.6182650862
  0
LINE
  8
1_AXIS
 62
2
  6
CENTER
 10
42.396955819
 20
154.6682650862
 11
109.4428451177
 21
154.6682650862
  0
POLYLINE
  8
0
 62
7
  6
CONTINUOUS
 66
1
 70
0
  0
VERTEX
  8
0
 62
7
  6
CONTINUOUS
 10
48.475251821
 20
159.3001946721
  0
VERTEX
  8
0
 62
7
  6
CONTINUOUS
 10
48.4140202606
 20
159.3068340428
  0
VERTEX
  8
0
 62
7
  6
CONTINUOUS
 10
48.3534925895
 20
159.3256046965
  0
VERTEX
  8
0
 62
7
  6
CONTINUOUS
 10
48.2983333121
 20
159.3523112742
  0
VERTEX
  8
0
 62
7
  6
CONTINUOUS
 10
48.247475527
 20
159.3846428933
  0
VERTEX
  8
0
 62
7
  6
CONTINUOUS
 10
48.2001591853
 20
159.4213623321
  0
VERTEX
  8
0
 62
7
  6
CONTINUOUS
 10
48.1562725064
 20
159.4614378968
  0
VERTEX
  8
0
 62
7
  6
CONTINUOUS
 10
48.1157621929
 20
159.5041169637
  0
VERTEX
  8
0
 62
7
  6
CONTINUOUS
 10
48.0785642304
 20
159.5489211062
  0
SEQEND
  0
POLYLINE
  8
0
 62
7
  6
CONTINUOUS
 66
1
 70
0
  0
VERTEX
  8
0
 62
7
  6
CONTINUOUS
 10
108.0034297171
 20
150.7706850129
  0
VERTEX
  8
0
 62
7
  6
CONTINUOUS
 10
108.1520490373
 20
150.7299537672
  0
VERTEX
  8
0
 62
7
  6
CONTINUOUS
 10
108.2883501489
 20
150.7182650862
  0
SEQEND
  0
LINE
  8
0
 62
7
  6
CONTINUOUS
 10
107.8151371313
 20
120.0880582552
 11
107.8927380511
 21
119.861998768
  0
POLYLINE
  8
0
 62
7
  6
CONTINUOUS
 66
1
 70
0
  0
VERTEX
  8
0
 62
7
  6
CONTINUOUS
 10
107.8940412693
 20
119.8551064488
  0
VERTEX
  8
0
 62
7
  6
CONTINUOUS
 10
107.8531599018
 20
120.0037112429
  0
VERTEX
  8
0
 62
7
  6
CONTINUOUS
 10
107.7785347976
 20
120.1511821609
  0
SEQEND
  0
LINE
  8
0
 62
7
  6
CONTINUOUS
 10
107.8927380511
 20
119.861998768
 11
107.9057588507
 21
119.7182650862
  0
LINE
  8
0
 62
7
  6
CONTINUOUS
 10
107.9058356679
 20
119.7182650862
 11
107.8940412693
 21
119.8551064488
  0
POLYLINE
  8
0
 62
7
  6
CONTINUOUS
 66
1
 70
0
  0
VERTEX
  8
0
 62
7
  6
CONTINUOUS
 10
107.9708467287
 20
111.1052413512
  0
VERTEX
  8
0
 62
7
  6
CONTINUOUS
 10
107.9743681777
 20
111.0296888848
  0
VERTEX
  8
0
 62
7
  6
CONTINUOUS
 10
107.9779015439
 20
110.9619130292
  0
VERTEX
  8
0
 62
7
  6
CONTINUOUS
 10
107.9814541509
 20
110.9014833889
  0
VERTEX
  8
0
 62
7
  6
CONTINUOUS
 10
107.9850464519
 20
110.8478504926
  0
VERTEX
  8
0
 62
7
  6
CONTINUOUS
 10
107.9887227913
 20
110.8003016963
  0
VERTEX
  8
0
 62
7
  6
CONTINUOUS
 10
107.9925676466
 20
110.7579313833
  0
VERTEX
  8
0
 62
7
  6
CONTINUOUS
 10
107.9967671157
 20
110.7193487386
  0
VERTEX
  8
0
 62
7
  6
CONTINUOUS
 10
108.0017558525
 20
110.6822746212
  0
VERTEX
  8
0
 62
7
  6
CONTINUOUS
 10
108.0086744646
 20
110.6425042283
  0
VERTEX
  8
0
 62
7
  6
CONTINUOUS
 10
108.0204339874
 20
110.5933744206
  0
VERTEX
  8
0
 62
7
  6
CONTINUOUS
 10
108.0450738583
 20
110.5239997428
  0
VERTEX
  8
0
 62
7
  6
CONTINUOUS
 10
108.0959652868
 20
110.4329931912
  0
VERTEX
  8
0
 62
7
  6
CONTINUOUS
 10
108.1792521525
 20
110.3407566123
  0
VERTEX
  8
0
 62
7
  6
CONTINUOUS
 10
108.2942565064
 20
110.2659996276
  0
VERTEX
  8
0
 62
7
  6
CONTINUOUS
 10
108.4424739421
 20
110.2225481594
  0
VERTEX
  8
0
 62
7
  6
CONTINUOUS
 10
108.5078836451
 20
110.2182679966
  0
SEQEND
  0
POLYLINE
  8
0
 62
7
  6
CONTINUOUS
 66
1
 70
0
  0
VERTEX
  8
0
 62
7
  6
CONTINUOUS
 10
107.9603749035
 20
111.3813719485
  0
VERTEX
  8
0
 62
7
  6
CONTINUOUS
 10
107.9638445338
 20
111.2808891444
  0
VERTEX
  8
0
 62
7
  6
CONTINUOUS
 10
107.9708467287
 20
111.1052413512
  0
SEQEND
  0
LINE
  8
0
 62
7
  6
CONTINUOUS
 10
48.475251828
 20
159.3001929054
 11
53.3186663554
 21
159.3001929054
  0
LINE
  8
0
 62
7
  6
CONTINUOUS
 10
116.8297846355
 20
111.4893608306
 11
116.8348154839
 21
111.4760902156
  0
LINE
  8
0
 62
7
  6
CONTINUOUS
 10
116.8348154839
 20
111.4760902156
 11
116.842851486
 21
111.4545883357
  0
LINE
  8
0
 62
7
  6
CONTINUOUS
 10
116.842851486
 20
111.4545883357
 11
116.8506373981
 21
111.4334256602
  0
LINE
  8
0
 62
7
  6
CONTINUOUS
 10
116.8506373981
 20
111.4334256602
 11
116.8619019768
 21
111.4023036761
  0
LINE
  8
0
 62
7
  6
CONTINUOUS
 10
116.8619019768
 20
111.4023036761
 11
116.8762653902
 21
111.3619368137
  0
LINE
  8
0
 62
7
  6
CONTINUOUS
 10
116.8762653902
 20
111.3619368137
 11
116.9243457304
 21
111.2247561418
  0
LINE
  8
0
 62
7
  6
CONTINUOUS
 10
107.5011735866
 20
151.3745314059
 11
107.4881527872
 21
151.5182650862
  0
LINE
  8
0
 62
7
  6
CONTINUOUS
 10
107.4880759701
 20
151.5182650862
 11
107.4998703268
 21
151.3814239649
  0
POLYLINE
  8
0
 62
7
  6
CONTINUOUS
 66
1
 70
0
  0
VERTEX
  8
0
 62
7
  6
CONTINUOUS
 10
107.4230649093
 20
160.1312888205
  0
VERTEX
  8
0
 62
7
  6
CONTINUOUS
 10
107.4195434603
 20
160.2068412873
  0
VERTEX
  8
0
 62
7
  6
CONTINUOUS
 10
107.416010094
 20
160.274617143
  0
VERTEX
  8
0
 62
7
  6
CONTINUOUS
 10
107.412457487
 20
160.3350467832
  0
VERTEX
  8
0
 62
7
  6
CONTINUOUS
 10
107.4088651861
 20
160.3886796794
  0
VERTEX
  8
0
 62
7
  6
CONTINUOUS
 10
107.4051888466
 20
160.4362284759
  0
VERTEX
  8
0
 62
7
  6
CONTINUOUS
 10
107.4013439914
 20
160.4785987891
  0
VERTEX
  8
0
 62
7
  6
CONTINUOUS
 10
107.3971445222
 20
160.5171814338
  0
VERTEX
  8
0
 62
7
  6
CONTINUOUS
 10
107.3921557854
 20
160.554255551
  0
VERTEX
  8
0
 62
7
  6
CONTINUOUS
 10
107.3852371735
 20
160.5940259435
  0
VERTEX
  8
0
 62
7
  6
CONTINUOUS
 10
107.3734776507
 20
160.6431557515
  0
VERTEX
  8
0
 62
7
  6
CONTINUOUS
 10
107.3488377797
 20
160.7125304296
  0
VERTEX
  8
0
 62
7
  6
CONTINUOUS
 10
107.2979463511
 20
160.8035369814
  0
VERTEX
  8
0
 62
7
  6
CONTINUOUS
 10
107.2146594853
 20
160.8957735602
  0
VERTEX
  8
0
 62
7
  6
CONTINUOUS
 10
107.0996551314
 20
160.9705305449
  0
VERTEX
  8
0
 62
7
  6
CONTINUOUS
 10
106.9514376958
 20
161.013982013
  0
VERTEX
  8
0
 62
7
  6
CONTINUOUS
 10
106.8860279929
 20
161.0182621759
  0
SEQEND
  0
LINE
  8
0
 62
7
  6
CONTINUOUS
 10
107.4300671041
 20
159.9556410273
 11
107.4230649093
 21
160.1312888205
  0
LINE
  8
0
 62
7
  6
CONTINUOUS
 10
107.4369743976
 20
159.7460891497
 11
107.4300671041
 21
159.9556410273
  0
LINE
  8
0
 62
7
  6
CONTINUOUS
 10
107.9535398551
 20
111.6081831624
 11
107.9603749035
 21
111.3813719485
  0
LINE
  8
0
 62
7
  6
CONTINUOUS
 10
107.4437228201
 20
159.5018060489
 11
107.4369743976
 21
159.7460891497
  0
LINE
  8
0
 62
7
  6
CONTINUOUS
 10
107.9436524415
 20
112.0146279823
 11
107.9535398551
 21
111.6081831624
  0
LINE
  8
0
 62
7
  6
CONTINUOUS
 10
107.453429248
 20
159.0683650335
 11
107.4437228201
 21
159.5018060489
  0
LINE
  8
0
 62
7
  6
CONTINUOUS
 10
107.934379983
 20
112.5026004256
 11
107.9436524415
 21
112.0146279823
  0
LINE
  8
0
 62
7
  6
CONTINUOUS
 10
107.4652576244
 20
158.3631015892
 11
107.453429248
 21
159.0683650335
  0
LINE
  8
0
 62
7
  6
CONTINUOUS
 10
107.9233809554
 20
113.2801495904
 11
107.934379983
 21
112.5026004256
  0
LINE
  8
0
 62
7
  6
CONTINUOUS
 10
107.4752714068
 20
157.5148535532
 11
107.4652576244
 21
158.3631015892
  0
LINE
  8
0
 62
7
  6
CONTINUOUS
 10
107.9127081248
 20
114.4454541887
 11
107.9233809554
 21
113.2801495904
  0
LINE
  8
0
 62
7
  6
CONTINUOUS
 10
107.4842505917
 20
156.2711086196
 11
107.4752714068
 21
157.5148535532
  0
LINE
  8
0
 62
7
  6
CONTINUOUS
 10
107.9066581154
 20
115.7933065997
 11
107.9127081248
 21
114.4454541887
  0
LINE
  8
0
 62
7
  6
CONTINUOUS
 10
107.4881520897
 20
154.6682650862
 11
107.4842505917
 21
156.2711086196
  0
LINE
  8
0
 62
7
  6
CONTINUOUS
 10
107.4881521225
 20
154.6682650862
 11
107.4881521225
 21
151.5182650862
  0
LINE
  8
0
 62
7
  6
CONTINUOUS
 10
107.9066581154
 20
115.7933065997
 11
107.9057595155
 21
119.7182650862
  0
POLYLINE
  8
0
 62
7
  6
CONTINUOUS
 66
1
 70
0
  0
VERTEX
  8
0
 62
7
  6
CONTINUOUS
 10
83.2078844745
 20
161.0182620623
  0
VERTEX
  8
0
 62
7
  6
CONTINUOUS
 10
83.1379238273
 20
161.0133625871
  0
VERTEX
  8
0
 62
7
  6
CONTINUOUS
 10
82.9862868693
 20
160.9666965806
  0
VERTEX
  8
0
 62
7
  6
CONTINUOUS
 10
82.8699517102
 20
160.8875271205
  0
VERTEX
  8
0
 62
7
  6
CONTINUOUS
 10
82.7879589369
 20
160.7917746168
  0
VERTEX
  8
0
 62
7
  6
CONTINUOUS
 10
82.7400668124
 20
160.7005920109
  0
VERTEX
  8
0
 62
7
  6
CONTINUOUS
 10
82.7179895881
 20
160.6342447188
  0
VERTEX
  8
0
 62
7
  6
CONTINUOUS
 10
82.7072177013
 20
160.5865358971
  0
VERTEX
  8
0
 62
7
  6
CONTINUOUS
 10
82.7006991971
 20
160.5470917217
  0
VERTEX
  8
0
 62
7
  6
CONTINUOUS
 10
82.695870516
 20
160.5095625473
  0
VERTEX
  8
0
 62
7
  6
CONTINUOUS
 10
82.6917450224
 20
160.4701308729
  0
VERTEX
  8
0
 62
7
  6
CONTINUOUS
 10
82.6879355237
 20
160.4266459006
  0
VERTEX
  8
0
 62
7
  6
CONTINUOUS
 10
82.6842730935
 20
160.3777477504
  0
VERTEX
  8
0
 62
7
  6
CONTINUOUS
 10
82.6806788729
 20
160.3224998464
  0
VERTEX
  8
0
 62
7
  6
CONTINUOUS
 10
82.677114562
 20
160.2601975381
  0
VERTEX
  8
0
 62
7
  6
CONTINUOUS
 10
82.6735610403
 20
160.1902448926
  0
VERTEX
  8
0
 62
7
  6
CONTINUOUS
 10
82.6700100503
 20
160.1121174136
  0
VERTEX
  8
0
 62
7
  6
CONTINUOUS
 10
82.6629245647
 20
159.9299039439
  0
SEQEND
  0
LINE
  8
0
 62
7
  6
CONTINUOUS
 10
106.8860399926
 20
161.0182650862
 11
83.2078716453
 21
161.0182650862
  0
LINE
  8
4_SURFACE
 62
7
  6
CONTINUOUS
 10
56.2860399926
 20
161.0182650862
 11
54.3798002064
 21
161.0182650862
  0
LINE
  8
0
 62
7
  6
CONTINUOUS
 10
56.2860399926
 20
161.0182650862
 11
54.3798002064
 21
161.0182650862
  0
LINE
  8
4_SURFACE
 62
7
  6
CONTINUOUS
 10
47.4141114316
 20
161.0182650862
 11
44.896955815
 21
161.0182650862
  0
LINE
  8
0
 62
7
  6
CONTINUOUS
 10
47.4141114316
 20
161.0182650862
 11
44.896955815
 21
161.0182650862
  0
POLYLINE
  8
0
 62
7
  6
CONTINUOUS
 66
1
 70
0
  0
VERTEX
  8
0
 62
7
  6
CONTINUOUS
 10
107.7695089011
 20
150.9091770965
  0
VERTEX
  8
0
 62
7
  6
CONTINUOUS
 10
107.8556359218
 20
150.845296531
  0
VERTEX
  8
0
 62
7
  6
CONTINUOUS
 10
108.0034297171
 20
150.7706850129
  0
SEQEND
  0
LINE
  8
0
 62
7
  6
CONTINUOUS
 10
110.9389777158
 20
111.4216147662
 11
110.9138068451
 21
110.7008153379
  0
LINE
  8
0
 62
7
  6
CONTINUOUS
 10
107.7695089011
 20
150.9091770965
 11
107.719741608
 21
150.9553854528
  0
LINE
  8
0
 62
7
  6
CONTINUOUS
 10
107.6153767521
 20
151.0853481486
 11
107.7225670641
 21
150.9524835005
  0
LINE
  8
0
 62
7
  6
CONTINUOUS
 10
107.719741608
 20
150.9553854528
 11
107.578774506
 21
151.1484719185
  0
LINE
  8
0
 62
7
  6
CONTINUOUS
 10
107.578774506
 20
151.1484719185
 11
107.5011735866
 21
151.3745314059
  0
POLYLINE
  8
0
 62
7
  6
CONTINUOUS
 66
1
 70
0
  0
VERTEX
  8
0
 62
7
  6
CONTINUOUS
 10
107.4998703268
 20
151.3814239649
  0
VERTEX
  8
0
 62
7
  6
CONTINUOUS
 10
107.5407516379
 20
151.2328191868
  0
VERTEX
  8
0
 62
7
  6
CONTINUOUS
 10
107.6153767521
 20
151.0853481486
  0
SEQEND
  0
LINE
  8
0
 62
7
  6
CONTINUOUS
 10
116.8549338316
 20
111.42161736
 11
116.8801047929
 21
110.7008153379
  0
LINE
  8
0
 62
7
  6
CONTINUOUS
 10
110.8695651055
 20
111.2247540423
 11
110.9211122254
 21
111.3717352211
  0
LINE
  8
0
 62
7
  6
CONTINUOUS
 10
110.9211122254
 20
111.3717352211
 11
110.9348583137
 21
111.4102247295
  0
LINE
  8
0
 62
7
  6
CONTINUOUS
 10
110.9348583137
 20
111.4102247295
 11
110.94443076
 21
111.4365881858
  0
LINE
  8
0
 62
7
  6
CONTINUOUS
 10
110.94443076
 20
111.4365881858
 11
110.9543777026
 21
111.4635089338
  0
LINE
  8
0
 62
7
  6
CONTINUOUS
 10
110.9543777026
 20
111.4635089338
 11
110.9641262538
 21
111.4893591595
  0
LINE
  8
0
 62
7
  6
CONTINUOUS
 10
110.9641561833
 20
111.4894377075
 11
110.9641262538
 21
111.4893591595
  0
POLYLINE
  8
0
 62
7
  6
CONTINUOUS
 66
1
 70
0
  0
VERTEX
  8
0
 62
7
  6
CONTINUOUS
 10
110.9641556761
 20
111.4894376665
  0
VERTEX
  8
0
 62
7
  6
CONTINUOUS
 10
110.9699948581
 20
111.5041494392
  0
VERTEX
  8
0
 62
7
  6
CONTINUOUS
 10
110.9961529364
 20
111.5600502707
  0
VERTEX
  8
0
 62
7
  6
CONTINUOUS
 10
111.0277127094
 20
111.6149795279
  0
VERTEX
  8
0
 62
7
  6
CONTINUOUS
 10
111.0639969354
 20
111.6683317626
  0
SEQEND
  0
LINE
  8
0
 62
7
  6
CONTINUOUS
 10
120.396955819
 20
110.7182650822
 11
120.396955819
 21
149.3182650862
  0
POLYLINE
  8
0
 62
7
  6
CONTINUOUS
 66
1
 70
0
  0
VERTEX
  8
0
 62
7
  6
CONTINUOUS
 10
111.0639969354
 20
111.6683317626
  0
VERTEX
  8
0
 62
7
  6
CONTINUOUS
 10
111.1045916699
 20
111.719571566
  0
VERTEX
  8
0
 62
7
  6
CONTINUOUS
 10
111.1493983712
 20
111.7682550891
  0
VERTEX
  8
0
 62
7
  6
CONTINUOUS
 10
111.1985608311
 20
111.8138131167
  0
VERTEX
  8
0
 62
7
  6
CONTINUOUS
 10
111.2522382523
 20
111.8552252466
  0
VERTEX
  8
0
 62
7
  6
CONTINUOUS
 10
111.3104772553
 20
111.890849942
  0
VERTEX
  8
0
 62
7
  6
CONTINUOUS
 10
111.3714212598
 20
111.9176643375
  0
VERTEX
  8
0
 62
7
  6
CONTINUOUS
 10
111.4303405702
 20
111.932724723
  0
VERTEX
  8
0
 62
7
  6
CONTINUOUS
 10
111.4752452316
 20
111.9363357788
  0
SEQEND
  0
LINE
  8
0
 62
7
  6
CONTINUOUS
 10
145.7204148535
 20
115.3328937271
 11
145.6963345083
 21
115.3299207485
  0
LINE
  8
0
 62
7
  6
CONTINUOUS
 10
146.1876083051
 20
115.385105831
 11
145.7204148535
 21
115.3328937271
  0
LINE
  8
1_AXIS
 62
2
  6
CONTINUOUS
 10
152.9263345083
 20
116.5682650862
 11
151.1663345083
 21
116.5682650862
  0
LINE
  8
1_AXIS
 62
2
  6
CENTER
 10
147.6463345083
 20
116.5682650862
 11
146.7963345083
 21
116.5682650862
  0
LINE
  8
1_AXIS
 62
2
  6
CENTER
 10
156.4463345083
 20
116.5682650862
 11
157.2963345083
 21
116.5682650862
  0
LINE
  8
0
 62
7
  6
CONTINUOUS
 10
157.7783956559
 20
120.5182650862
 11
157.8963345083
 21
120.5182650862
  0
LINE
  8
0
 62
7
  6
CONTINUOUS
 10
146.0796542068
 20
114.1397526895
 11
146.284360461
 21
113.7100006234
  0
LINE
  8
0
 62
7
  6
CONTINUOUS
 10
154.3942550794
 20
123.1582650862
 11
146.1963345083
 21
123.1582650862
  0
LINE
  8
0
 62
7
  6
CONTINUOUS
 10
154.3942549469
 20
123.1586291842
 11
147.0113102717
 21
125.850179929
  0
LINE
  8
0
 62
7
  6
CONTINUOUS
 10
145.6963345083
 20
115.3299207485
 11
145.6963345083
 21
155.9066094239
  0
LINE
  8
1_AXIS
 62
2
  6
CONTINUOUS
 10
152.0463345083
 20
155.5482650862
 11
152.0463345083
 21
153.7882650862
  0
LINE
  8
1_AXIS
 62
2
  6
CENTER
 10
152.0463345083
 20
150.2682650862
 11
152.0463345083
 21
149.4182650862
  0
LINE
  8
1_AXIS
 62
2
  6
CONTINUOUS
 10
152.0463345083
 20
117.4482650862
 11
152.0463345083
 21
115.6882650862
  0
LINE
  8
1_AXIS
 62
2
  6
CENTER
 10
152.0463345083
 20
112.1682650862
 11
152.0463345083
 21
111.3182650862
  0
LINE
  8
1_AXIS
 62
2
  6
CENTER
 10
152.0463345083
 20
120.9682650862
 11
152.0463345083
 21
121.8182650862
  0
LINE
  8
1_AXIS
 62
2
  6
CENTER
 10
152.0463345083
 20
159.0682650862
 11
152.0463345083
 21
159.9182650862
  0
LINE
  8
0
 62
7
  6
CONTINUOUS
 10
158.3963345083
 20
116.5682650862
 11
158.3963345083
 21
154.6682650862
  0
POLYLINE
  8
0
 62
7
  6
CONTINUOUS
 66
1
 70
0
  0
VERTEX
  8
0
 62
7
  6
CONTINUOUS
 10
158.2678544697
 20
120.6828299647
  0
VERTEX
  8
0
 62
7
  6
CONTINUOUS
 10
158.2722414605
 20
120.6877634908
  0
VERTEX
  8
0
 62
7
  6
CONTINUOUS
 10
158.28406616
 20
120.7018534955
  0
VERTEX
  8
0
 62
7
  6
CONTINUOUS
 10
158.2948865789
 20
120.7158797101
  0
VERTEX
  8
0
 62
7
  6
CONTINUOUS
 10
158.3047936019
 20
120.7298200213
  0
VERTEX
  8
0
 62
7
  6
CONTINUOUS
 10
158.313967108
 20
120.743813096
  0
VERTEX
  8
0
 62
7
  6
CONTINUOUS
 10
158.3220121624
 20
120.75706726
  0
VERTEX
  8
0
 62
7
  6
CONTINUOUS
 10
158.3283084429
 20
120.7681055124
  0
VERTEX
  8
0
 62
7
  6
CONTINUOUS
 10
158.3322284325
 20
120.7752221933
  0
SEQEND
  0
LINE
  8
1_AXIS
 62
2
  6
CONTINUOUS
 10
152.9263345083
 20
154.6682650862
 11
151.1663345083
 21
154.6682650862
  0
LINE
  8
1_AXIS
 62
2
  6
CENTER
 10
147.6463345083
 20
154.6682650862
 11
146.7963345083
 21
154.6682650862
  0
LINE
  8
1_AXIS
 62
2
  6
CENTER
 10
156.4463345083
 20
154.6682650862
 11
157.2963345083
 21
154.6682650862
  0
LINE
  8
0
 62
7
  6
CONTINUOUS
 10
145.6963345083
 20
155.9066094239
 11
146.1963345083
 21
155.85149393
  0
LINE
  8
4_SURFACE
 62
7
  6
CONTINUOUS
 10
44.396955819
 20
209.0950003382
 11
44.396955819
 21
209.6413571496
  0
LINE
  8
0
 62
7
  6
CONTINUOUS
 10
44.396955819
 20
198.1774767497
 11
44.396955819
 21
209.6413571496
  0
LINE
  8
0
 62
7
  6
CONTINUOUS
 10
47.8185603432
 20
205.8862029529
 11
47.6838517104
 21
198.1687505465
  0
POLYLINE
  8
0
 62
7
  6
CONTINUOUS
 66
1
 70
0
  0
VERTEX
  8
0
 62
7
  6
CONTINUOUS
 10
45.9875538195
 20
209.8774767497
  0
VERTEX
  8
0
 62
7
  6
CONTINUOUS
 10
46.0685139682
 20
209.9680292833
  0
VERTEX
  8
0
 62
7
  6
CONTINUOUS
 10
46.149006567
 20
210.0547560105
  0
VERTEX
  8
0
 62
7
  6
CONTINUOUS
 10
46.2201183314
 20
210.1408970306
  0
VERTEX
  8
0
 62
7
  6
CONTINUOUS
 10
46.3009797781
 20
210.210753853
  0
VERTEX
  8
0
 62
7
  6
CONTINUOUS
 10
46.3404480643
 20
210.2837329575
  0
SEQEND
  0
POLYLINE
  8
0
 62
7
  6
CONTINUOUS
 66
1
 70
0
  0
VERTEX
  8
0
 62
7
  6
CONTINUOUS
 10
46.3404480643
 20
210.2837329575
  0
VERTEX
  8
0
 62
7
  6
CONTINUOUS
 10
46.3954947173
 20
210.3307341464
  0
VERTEX
  8
0
 62
7
  6
CONTINUOUS
 10
46.418007841
 20
210.364506448
  0
VERTEX
  8
0
 62
7
  6
CONTINUOUS
 10
46.4375538195
 20
210.3774767497
  0
SEQEND
  0
LINE
  8
0
 62
7
  6
CONTINUOUS
 10
54.4753512947
 20
205.8862029529
 11
54.6100599275
 21
198.1687505465
  0
LINE
  8
0
 62
7
  6
CONTINUOUS
 10
57.5100599275
 20
198.1687505465
 11
57.3058356679
 21
209.8687505465
  0
LINE
  8
0
 62
7
  6
CONTINUOUS
 10
58.596955819
 20
198.4738743152
 11
58.596955819
 21
198.5885529996
  0
LINE
  8
0
 62
7
  6
CONTINUOUS
 10
61.596955819
 20
198.5876247908
 11
61.596955819
 21
198.4738743152
  0
POLYLINE
  8
0
 62
7
  6
CONTINUOUS
 66
1
 70
0
  0
VERTEX
  8
0
 62
7
  6
CONTINUOUS
 10
45.7809101002
 20
209.7565068861
  0
VERTEX
  8
0
 62
7
  6
CONTINUOUS
 10
45.7723807415
 20
209.7526401705
  0
VERTEX
  8
0
 62
7
  6
CONTINUOUS
 10
45.7674098156
 20
209.7449011074
  0
VERTEX
  8
0
 62
7
  6
CONTINUOUS
 10
45.7650472077
 20
209.7354880969
  0
VERTEX
  8
0
 62
7
  6
CONTINUOUS
 10
45.7641121401
 20
209.7261408825
  0
VERTEX
  8
0
 62
7
  6
CONTINUOUS
 10
45.7641311281
 20
209.7180312996
  0
SEQEND
  0
POLYLINE
  8
0
 62
7
  6
CONTINUOUS
 66
1
 70
0
  0
VERTEX
  8
0
 62
7
  6
CONTINUOUS
 10
58.5728600131
 20
198.5664813501
  0
VERTEX
  8
0
 62
7
  6
CONTINUOUS
 10
58.5743952638
 20
198.5682953981
  0
VERTEX
  8
0
 62
7
  6
CONTINUOUS
 10
58.596886427
 20
198.5885088017
  0
VERTEX
  8
0
 62
7
  6
CONTINUOUS
 10
58.6434447499
 20
198.6181631977
  0
SEQEND
  0
POLYLINE
  8
0
 62
7
  6
CONTINUOUS
 66
1
 70
0
  0
VERTEX
  8
0
 62
7
  6
CONTINUOUS
 10
110.5751539959
 20
197.6774767497
  0
VERTEX
  8
0
 62
7
  6
CONTINUOUS
 10
110.7312181056
 20
197.7024560238
  0
VERTEX
  8
0
 62
7
  6
CONTINUOUS
 10
110.8706480833
 20
197.7739987245
  0
VERTEX
  8
0
 62
7
  6
CONTINUOUS
 10
110.9812519947
 20
197.8850275734
  0
VERTEX
  8
0
 62
7
  6
CONTINUOUS
 10
111.0521263802
 20
198.0242233394
  0
VERTEX
  8
0
 62
7
  6
CONTINUOUS
 10
111.0767751235
 20
198.1774767497
  0
SEQEND
  0
LINE
  8
0
 62
7
  6
CONTINUOUS
 10
44.896955819
 20
197.6774767497
 11
119.896955819
 21
197.6774767497
  0
LINE
  8
0
 62
7
  6
CONTINUOUS
 10
58.896955787
 20
198.6784972641
 11
61.2969641571
 21
198.6784972641
  0
POLYLINE
  8
0
 62
7
  6
CONTINUOUS
 66
1
 70
0
  0
VERTEX
  8
0
 62
7
  6
CONTINUOUS
 10
61.2969643425
 20
198.6785403767
  0
VERTEX
  8
0
 62
7
  6
CONTINUOUS
 10
61.3685558314
 20
198.6740860851
  0
VERTEX
  8
0
 62
7
  6
CONTINUOUS
 10
61.4518781619
 20
198.6573831614
  0
VERTEX
  8
0
 62
7
  6
CONTINUOUS
 10
61.5224749851
 20
198.63192582
  0
VERTEX
  8
0
 62
7
  6
CONTINUOUS
 10
61.5748064237
 20
198.6039781374
  0
VERTEX
  8
0
 62
7
  6
CONTINUOUS
 10
61.6083013401
 20
198.579248163
  0
VERTEX
  8
0
 62
7
  6
CONTINUOUS
 10
61.6154619977
 20
198.5725660784
  0
SEQEND
  0
POLYLINE
  8
0
 62
7
  6
CONTINUOUS
 66
1
 70
0
  0
VERTEX
  8
0
 62
7
  6
CONTINUOUS
 10
58.6434447499
 20
198.6181631977
  0
VERTEX
  8
0
 62
7
  6
CONTINUOUS
 10
58.7120099292
 20
198.6479466078
  0
VERTEX
  8
0
 62
7
  6
CONTINUOUS
 10
58.8001824024
 20
198.6704688391
  0
VERTEX
  8
0
 62
7
  6
CONTINUOUS
 10
58.8969556543
 20
198.6785458578
  0
SEQEND
  0
LINE
  8
0
 62
7
  6
CONTINUOUS
 10
82.1880759701
 20
209.8687505465
 11
81.9838517104
 21
198.1687505465
  0
LINE
  8
0
 62
7
  6
CONTINUOUS
 10
58.0538291267
 20
204.0274767497
 11
62.2000826031
 21
204.0274767497
  0
LINE
  8
0
 62
7
  6
CONTINUOUS
 10
64.1374010538
 20
204.0274767497
 11
70.3075105759
 21
204.0274767497
  0
LINE
  8
1_AXIS
 62
2
  6
CENTER
 10
41.7981400438
 20
204.0274767497
 11
122.396955819
 21
204.0274767497
  0
POLYLINE
  8
0
 62
7
  6
CONTINUOUS
 66
1
 70
0
  0
VERTEX
  8
0
 62
7
  6
CONTINUOUS
 10
117.218757642
 20
197.6774767497
  0
VERTEX
  8
0
 62
7
  6
CONTINUOUS
 10
117.0626935323
 20
197.7024560238
  0
VERTEX
  8
0
 62
7
  6
CONTINUOUS
 10
116.9232635546
 20
197.7739987245
  0
SEQEND
  0
LINE
  8
0
 62
7
  6
CONTINUOUS
 10
84.9771355593
 20
206.3774767497
 11
84.8338517104
 21
198.1687505465
  0
POLYLINE
  8
0
 62
7
  6
CONTINUOUS
 66
1
 70
0
  0
VERTEX
  8
0
 62
7
  6
CONTINUOUS
 10
105.7624748373
 20
206.6308761996
  0
VERTEX
  8
0
 62
7
  6
CONTINUOUS
 10
105.5928786658
 20
206.6150161698
  0
VERTEX
  8
0
 62
7
  6
CONTINUOUS
 10
105.4182509479
 20
206.5678381062
  0
VERTEX
  8
0
 62
7
  6
CONTINUOUS
 10
105.2588284813
 20
206.5030087057
  0
SEQEND
  0
LINE
  8
0
 62
7
  6
CONTINUOUS
 10
104.978204091
 20
206.3774767497
 11
84.965707547
 21
206.3774767497
  0
LINE
  8
0
 62
7
  6
CONTINUOUS
 10
53.9824755181
 20
206.3774767497
 11
48.3176715852
 21
206.3774767497
  0
LINE
  8
0
 62
7
  6
CONTINUOUS
 10
107.1622311124
 20
206.6308761996
 11
105.7624748373
 21
206.6308761996
  0
LINE
  8
0
 62
7
  6
CONTINUOUS
 10
84.1814368007
 20
206.6308761996
 11
82.9316805255
 21
206.6308761996
  0
POLYLINE
  8
0
 62
7
  6
CONTINUOUS
 66
1
 70
0
  0
VERTEX
  8
0
 62
7
  6
CONTINUOUS
 10
82.9316803755
 20
206.6308676036
  0
VERTEX
  8
0
 62
7
  6
CONTINUOUS
 10
82.7123990971
 20
206.6356532026
  0
VERTEX
  8
0
 62
7
  6
CONTINUOUS
 10
82.5067607342
 20
206.6512107504
  0
VERTEX
  8
0
 62
7
  6
CONTINUOUS
 10
82.3371723918
 20
206.6805807627
  0
VERTEX
  8
0
 62
7
  6
CONTINUOUS
 10
82.2184661298
 20
206.727976415
  0
VERTEX
  8
0
 62
7
  6
CONTINUOUS
 10
82.1531909076
 20
206.8002684404
  0
VERTEX
  8
0
 62
7
  6
CONTINUOUS
 10
82.1362946802
 20
206.9022024377
  0
SEQEND
  0
LINE
  8
0
 62
7
  6
CONTINUOUS
 10
105.0294307132
 20
206.3931323637
 11
104.978204091
 21
206.3774767497
  0
LINE
  8
0
 62
7
  6
CONTINUOUS
 10
116.3186598049
 20
207.9508523391
 11
111.4752491565
 21
207.9508523391
  0
LINE
  8
0
 62
7
  6
CONTINUOUS
 10
84.965707547
 20
206.3774767497
 11
84.9144737531
 21
206.3931354296
  0
POLYLINE
  8
0
 62
7
  6
CONTINUOUS
 66
1
 70
0
  0
VERTEX
  8
0
 62
7
  6
CONTINUOUS
 10
84.9144737531
 20
206.3931354296
  0
VERTEX
  8
0
 62
7
  6
CONTINUOUS
 10
84.6850206556
 20
206.5030372187
  0
VERTEX
  8
0
 62
7
  6
CONTINUOUS
 10
84.5256303049
 20
206.5678487071
  0
VERTEX
  8
0
 62
7
  6
CONTINUOUS
 10
84.3508701311
 20
206.6150462716
  0
VERTEX
  8
0
 62
7
  6
CONTINUOUS
 10
84.1814368007
 20
206.6308761996
  0
SEQEND
  0
LINE
  8
0
 62
7
  6
CONTINUOUS
 10
105.2588284813
 20
206.5030087057
 11
105.0294307132
 21
206.3931323637
  0
LINE
  8
4_SURFACE
 62
7
  6
CONTINUOUS
 10
57.8057595155
 20
210.3774767497
 11
81.6881521225
 21
210.3774767497
  0
LINE
  8
0
 62
7
  6
CONTINUOUS
 10
46.4375538195
 20
210.3774767497
 11
118.3563578184
 21
210.3774767497
  0
POLYLINE
  8
0
 62
7
  6
CONTINUOUS
 66
1
 70
0
  0
VERTEX
  8
0
 62
7
  6
CONTINUOUS
 10
116.3183838402
 20
207.9508357904
  0
VERTEX
  8
0
 62
7
  6
CONTINUOUS
 10
116.3794432897
 20
207.9439097288
  0
VERTEX
  8
0
 62
7
  6
CONTINUOUS
 10
116.4367302404
 20
207.925200133
  0
VERTEX
  8
0
 62
7
  6
CONTINUOUS
 10
116.4901526177
 20
207.8974661938
  0
VERTEX
  8
0
 62
7
  6
CONTINUOUS
 10
116.5399803261
 20
207.8625218177
  0
VERTEX
  8
0
 62
7
  6
CONTINUOUS
 10
116.586582879
 20
207.821365614
  0
VERTEX
  8
0
 62
7
  6
CONTINUOUS
 10
116.6299452926
 20
207.7748204059
  0
VERTEX
  8
0
 62
7
  6
CONTINUOUS
 10
116.6701122045
 20
207.7233692945
  0
VERTEX
  8
0
 62
7
  6
CONTINUOUS
 10
116.707168703
 20
207.667140966
  0
VERTEX
  8
0
 62
7
  6
CONTINUOUS
 10
116.7411296987
 20
207.6060040714
  0
VERTEX
  8
0
 62
7
  6
CONTINUOUS
 10
116.7716341601
 20
207.5402114919
  0
VERTEX
  8
0
 62
7
  6
CONTINUOUS
 10
116.7982904131
 20
207.4699809986
  0
VERTEX
  8
0
 62
7
  6
CONTINUOUS
 10
116.8200608264
 20
207.3977668286
  0
SEQEND
  0
LINE
  8
0
 62
7
  6
CONTINUOUS
 10
45.780904559
 20
209.7565058403
 11
45.796955819
 21
209.7595378973
  0
LINE
  8
0
 62
7
  6
CONTINUOUS
 10
44.7265482036
 20
210.0433952266
 11
46.3571462041
 21
210.3695148267
  0
LINE
  8
0
 62
7
  6
CONTINUOUS
 10
118.4367654338
 20
210.3695148267
 11
120.0673634344
 21
210.0433952266
  0
POLYLINE
  8
0
 62
7
  6
CONTINUOUS
 66
1
 70
0
  0
VERTEX
  8
0
 62
7
  6
CONTINUOUS
 10
116.9232635546
 20
197.7739987245
  0
VERTEX
  8
0
 62
7
  6
CONTINUOUS
 10
116.8126596433
 20
197.8850275734
  0
VERTEX
  8
0
 62
7
  6
CONTINUOUS
 10
116.7417852577
 20
198.0242233394
  0
VERTEX
  8
0
 62
7
  6
CONTINUOUS
 10
116.7171365144
 20
198.1774767497
  0
SEQEND
  0
LINE
  8
0
 62
7
  6
CONTINUOUS
 10
104.9667760787
 20
206.3774767497
 11
105.1100599275
 21
198.1687505465
  0
LINE
  8
0
 62
7
  6
CONTINUOUS
 10
108.1100599275
 20
198.1687505465
 11
107.9058356679
 21
209.8687505465
  0
POLYLINE
  8
0
 62
7
  6
CONTINUOUS
 66
1
 70
0
  0
VERTEX
  8
0
 62
7
  6
CONTINUOUS
 10
107.9576169583
 20
206.9022024033
  0
VERTEX
  8
0
 62
7
  6
CONTINUOUS
 10
107.9414105989
 20
206.801822638
  0
VERTEX
  8
0
 62
7
  6
CONTINUOUS
 10
107.8760771271
 20
206.7283800482
  0
VERTEX
  8
0
 62
7
  6
CONTINUOUS
 10
107.7537899115
 20
206.6798260316
  0
VERTEX
  8
0
 62
7
  6
CONTINUOUS
 10
107.5849165522
 20
206.6509562717
  0
VERTEX
  8
0
 62
7
  6
CONTINUOUS
 10
107.3824856409
 20
206.6356972371
  0
VERTEX
  8
0
 62
7
  6
CONTINUOUS
 10
107.1622312507
 20
206.6308682769
  0
SEQEND
  0
LINE
  8
0
 62
7
  6
CONTINUOUS
 10
110.9500531782
 20
207.2942391023
 11
110.9500652618
 21
207.2943487561
  0
LINE
  8
0
 62
7
  6
CONTINUOUS
 10
110.9500663378
 20
207.2943482562
 11
110.9533092747
 21
207.3156297319
  0
LINE
  8
0
 62
7
  6
CONTINUOUS
 10
110.9533092747
 20
207.3156297319
 11
110.9559455288
 21
207.3275715031
  0
LINE
  8
0
 62
7
  6
CONTINUOUS
 10
110.9559493008
 20
207.3275871567
 11
110.9634031358
 21
207.357401871
  0
POLYLINE
  8
0
 62
7
  6
CONTINUOUS
 66
1
 70
0
  0
VERTEX
  8
0
 62
7
  6
CONTINUOUS
 10
110.9634031358
 20
207.357401871
  0
VERTEX
  8
0
 62
7
  6
CONTINUOUS
 10
110.9712000001
 20
207.3876825818
  0
VERTEX
  8
0
 62
7
  6
CONTINUOUS
 10
110.9738491805
 20
207.3977587433
  0
SEQEND
  0
POLYLINE
  8
0
 62
7
  6
CONTINUOUS
 66
1
 70
0
  0
VERTEX
  8
0
 62
7
  6
CONTINUOUS
 10
110.9738498084
 20
207.3977632458
  0
VERTEX
  8
0
 62
7
  6
CONTINUOUS
 10
110.9974136003
 20
207.475213558
  0
VERTEX
  8
0
 62
7
  6
CONTINUOUS
 10
111.024054086
 20
207.5444054544
  0
VERTEX
  8
0
 62
7
  6
CONTINUOUS
 10
111.0543760715
 20
207.6091250814
  0
VERTEX
  8
0
 62
7
  6
CONTINUOUS
 10
111.0880273635
 20
207.6692555948
  0
VERTEX
  8
0
 62
7
  6
CONTINUOUS
 10
111.1246835342
 20
207.7246003249
  0
VERTEX
  8
0
 62
7
  6
CONTINUOUS
 10
111.1644279363
 20
207.7753624524
  0
VERTEX
  8
0
 62
7
  6
CONTINUOUS
 10
111.2074517666
 20
207.8214860434
  0
VERTEX
  8
0
 62
7
  6
CONTINUOUS
 10
111.2539425614
 20
207.8625309474
  0
VERTEX
  8
0
 62
7
  6
CONTINUOUS
 10
111.3039652901
 20
207.8975926019
  0
VERTEX
  8
0
 62
7
  6
CONTINUOUS
 10
111.3581399416
 20
207.9256077231
  0
VERTEX
  8
0
 62
7
  6
CONTINUOUS
 10
111.4170467075
 20
207.9444791223
  0
VERTEX
  8
0
 62
7
  6
CONTINUOUS
 10
111.4752490704
 20
207.9508359981
  0
SEQEND
  0
POLYLINE
  8
1_AXIS
 62
7
  6
CONTINUOUS
 66
1
 70
0
  0
VERTEX
  8
1_AXIS
 62
7
  6
CONTINUOUS
 10
111.1187027052
 20
200.7774767497
  0
VERTEX
  8
1_AXIS
 62
7
  6
CONTINUOUS
 10
111.0950979351
 20
200.8485478961
  0
VERTEX
  8
1_AXIS
 62
7
  6
CONTINUOUS
 10
111.0725268914
 20
201.0586357925
  0
VERTEX
  8
1_AXIS
 62
7
  6
CONTINUOUS
 10
111.0519773263
 20
201.3985078115
  0
VERTEX
  8
1_AXIS
 62
7
  6
CONTINUOUS
 10
111.0343473553
 20
201.8532471448
  0
VERTEX
  8
1_AXIS
 62
7
  6
CONTINUOUS
 10
111.0204062111
 20
202.4029284471
  0
VERTEX
  8
1_AXIS
 62
7
  6
CONTINUOUS
 10
111.010761095
 20
203.0235089301
  0
VERTEX
  8
1_AXIS
 62
7
  6
CONTINUOUS
 10
111.005831466
 20
203.6878852001
  0
VERTEX
  8
1_AXIS
 62
7
  6
CONTINUOUS
 10
111.0058314788
 20
204.3670717967
  0
VERTEX
  8
1_AXIS
 62
7
  6
CONTINUOUS
 10
111.0107611297
 20
205.0314476269
  0
VERTEX
  8
1_AXIS
 62
7
  6
CONTINUOUS
 10
111.0204062577
 20
205.6520273605
  0
VERTEX
  8
1_AXIS
 62
7
  6
CONTINUOUS
 10
111.0343474011
 20
206.2017078115
  0
VERTEX
  8
1_AXIS
 62
7
  6
CONTINUOUS
 10
111.0519773609
 20
206.6564464094
  0
VERTEX
  8
1_AXIS
 62
7
  6
CONTINUOUS
 10
111.0725269102
 20
206.9963179465
  0
VERTEX
  8
1_AXIS
 62
7
  6
CONTINUOUS
 10
111.0950979401
 20
207.2064056338
  0
VERTEX
  8
1_AXIS
 62
7
  6
CONTINUOUS
 10
111.1187027052
 20
207.2774767497
  0
SEQEND
  0
POLYLINE
  8
1_AXIS
 62
7
  6
CONTINUOUS
 66
1
 70
0
  0
VERTEX
  8
1_AXIS
 62
7
  6
CONTINUOUS
 10
111.1187027052
 20
207.2774767497
  0
VERTEX
  8
1_AXIS
 62
7
  6
CONTINUOUS
 10
111.1423074753
 20
207.2064056033
  0
VERTEX
  8
1_AXIS
 62
7
  6
CONTINUOUS
 10
111.164878519
 20
206.9963177069
  0
VERTEX
  8
1_AXIS
 62
7
  6
CONTINUOUS
 10
111.1854280842
 20
206.6564456878
  0
VERTEX
  8
1_AXIS
 62
7
  6
CONTINUOUS
 10
111.2030580552
 20
206.2017063546
  0
VERTEX
  8
1_AXIS
 62
7
  6
CONTINUOUS
 10
111.2169991993
 20
205.6520250523
  0
VERTEX
  8
1_AXIS
 62
7
  6
CONTINUOUS
 10
111.2266443154
 20
205.0314445693
  0
VERTEX
  8
1_AXIS
 62
7
  6
CONTINUOUS
 10
111.2315739445
 20
204.3670682993
  0
VERTEX
  8
1_AXIS
 62
7
  6
CONTINUOUS
 10
111.2315739317
 20
203.6878817027
  0
VERTEX
  8
1_AXIS
 62
7
  6
CONTINUOUS
 10
111.2266442808
 20
203.0235058725
  0
VERTEX
  8
1_AXIS
 62
7
  6
CONTINUOUS
 10
111.2169991528
 20
202.4029261389
  0
VERTEX
  8
1_AXIS
 62
7
  6
CONTINUOUS
 10
111.2030580094
 20
201.8532456879
  0
VERTEX
  8
1_AXIS
 62
7
  6
CONTINUOUS
 10
111.1854280495
 20
201.39850709
  0
VERTEX
  8
1_AXIS
 62
7
  6
CONTINUOUS
 10
111.1648785002
 20
201.0586355529
  0
VERTEX
  8
1_AXIS
 62
7
  6
CONTINUOUS
 10
111.1423074703
 20
200.8485478656
  0
VERTEX
  8
1_AXIS
 62
7
  6
CONTINUOUS
 10
111.1187027052
 20
200.7774767497
  0
SEQEND
  0
POLYLINE
  8
1_AXIS
 62
7
  6
CONTINUOUS
 66
1
 70
0
  0
VERTEX
  8
1_AXIS
 62
7
  6
CONTINUOUS
 10
116.6752089327
 20
207.2774767497
  0
VERTEX
  8
1_AXIS
 62
7
  6
CONTINUOUS
 10
116.6516041626
 20
207.2064056033
  0
VERTEX
  8
1_AXIS
 62
7
  6
CONTINUOUS
 10
116.6290331189
 20
206.9963177069
  0
VERTEX
  8
1_AXIS
 62
7
  6
CONTINUOUS
 10
116.6084835537
 20
206.6564456878
  0
VERTEX
  8
1_AXIS
 62
7
  6
CONTINUOUS
 10
116.5908535827
 20
206.2017063546
  0
VERTEX
  8
1_AXIS
 62
7
  6
CONTINUOUS
 10
116.5769124386
 20
205.6520250523
  0
VERTEX
  8
1_AXIS
 62
7
  6
CONTINUOUS
 10
116.5672673225
 20
205.0314445693
  0
VERTEX
  8
1_AXIS
 62
7
  6
CONTINUOUS
 10
116.5623376934
 20
204.3670682993
  0
VERTEX
  8
1_AXIS
 62
7
  6
CONTINUOUS
 10
116.5623377063
 20
203.6878817027
  0
VERTEX
  8
1_AXIS
 62
7
  6
CONTINUOUS
 10
116.5672673572
 20
203.0235058725
  0
VERTEX
  8
1_AXIS
 62
7
  6
CONTINUOUS
 10
116.5769124851
 20
202.4029261389
  0
VERTEX
  8
1_AXIS
 62
7
  6
CONTINUOUS
 10
116.5908536285
 20
201.8532456879
  0
VERTEX
  8
1_AXIS
 62
7
  6
CONTINUOUS
 10
116.6084835884
 20
201.39850709
  0
VERTEX
  8
1_AXIS
 62
7
  6
CONTINUOUS
 10
116.6290331377
 20
201.0586355529
  0
VERTEX
  8
1_AXIS
 62
7
  6
CONTINUOUS
 10
116.6516041676
 20
200.8485478656
  0
VERTEX
  8
1_AXIS
 62
7
  6
CONTINUOUS
 10
116.6752089327
 20
200.7774767497
  0
SEQEND
  0
POLYLINE
  8
1_AXIS
 62
7
  6
CONTINUOUS
 66
1
 70
0
  0
VERTEX
  8
1_AXIS
 62
7
  6
CONTINUOUS
 10
116.6752089327
 20
200.7774767497
  0
VERTEX
  8
1_AXIS
 62
7
  6
CONTINUOUS
 10
116.6988137028
 20
200.8485478961
  0
VERTEX
  8
1_AXIS
 62
7
  6
CONTINUOUS
 10
116.7213847465
 20
201.0586357925
  0
VERTEX
  8
1_AXIS
 62
7
  6
CONTINUOUS
 10
116.7419343117
 20
201.3985078115
  0
VERTEX
  8
1_AXIS
 62
7
  6
CONTINUOUS
 10
116.7595642827
 20
201.8532471448
  0
VERTEX
  8
1_AXIS
 62
7
  6
CONTINUOUS
 10
116.7735054268
 20
202.4029284471
  0
VERTEX
  8
1_AXIS
 62
7
  6
CONTINUOUS
 10
116.7831505429
 20
203.0235089301
  0
VERTEX
  8
1_AXIS
 62
7
  6
CONTINUOUS
 10
116.788080172
 20
203.6878852001
  0
VERTEX
  8
1_AXIS
 62
7
  6
CONTINUOUS
 10
116.7880801591
 20
204.3670717967
  0
VERTEX
  8
1_AXIS
 62
7
  6
CONTINUOUS
 10
116.7831505082
 20
205.0314476269
  0
VERTEX
  8
1_AXIS
 62
7
  6
CONTINUOUS
 10
116.7735053803
 20
205.6520273605
  0
VERTEX
  8
1_AXIS
 62
7
  6
CONTINUOUS
 10
116.7595642369
 20
206.2017078115
  0
VERTEX
  8
1_AXIS
 62
7
  6
CONTINUOUS
 10
116.741934277
 20
206.6564464094
  0
VERTEX
  8
1_AXIS
 62
7
  6
CONTINUOUS
 10
116.7213847277
 20
206.9963179465
  0
VERTEX
  8
1_AXIS
 62
7
  6
CONTINUOUS
 10
116.6988136978
 20
207.2064056338
  0
VERTEX
  8
1_AXIS
 62
7
  6
CONTINUOUS
 10
116.6752089327
 20
207.2774767497
  0
SEQEND
  0
LINE
  8
0
 62
7
  6
CONTINUOUS
 10
120.396955819
 20
198.1774767497
 11
120.396955819
 21
209.6413571496
  0
LINE
  8
0
 62
7
  6
CONTINUOUS
 10
116.8200615101
 20
207.3977619092
 11
116.827256711
 21
207.3701440067
  0
POLYLINE
  8
0
 62
7
  6
CONTINUOUS
 66
1
 70
0
  0
VERTEX
  8
0
 62
7
  6
CONTINUOUS
 10
116.827256711
 20
207.3701440067
  0
VERTEX
  8
0
 62
7
  6
CONTINUOUS
 10
116.8359503904
 20
207.3357177499
  0
VERTEX
  8
0
 62
7
  6
CONTINUOUS
 10
116.8379621784
 20
207.3275881028
  0
SEQEND
  0
POLYLINE
  8
0
 62
7
  6
CONTINUOUS
 66
1
 70
0
  0
VERTEX
  8
0
 62
7
  6
CONTINUOUS
 10
116.8379655258
 20
207.3275742049
  0
VERTEX
  8
0
 62
7
  6
CONTINUOUS
 10
116.8407250501
 20
207.3149978812
  0
VERTEX
  8
0
 62
7
  6
CONTINUOUS
 10
116.843844506
 20
207.2943544522
  0
SEQEND
  0
LINE
  8
0
 62
7
  6
CONTINUOUS
 10
116.8438572293
 20
207.2942389934
 11
116.843844506
 21
207.2943544522
  0
ARC
  8
0
 62
7
  6
CONTINUOUS
 10
118.996955819
 20
149.3182650862
 40
1.4
 50
0.0
 51
90.0
  0
ARC
  8
0
 62
7
  6
CONTINUOUS
 10
45.796955819
 20
121.9182650862
 40
1.4
 50
180.0
 51
270.0
  0
ARC
  8
0
 62
7
  6
CONTINUOUS
 10
61.816955819
 20
126.6182650862
 40
1.0
 50
180.0
 51
270.0
  0
ARC
  8
0
 62
7
  6
CONTINUOUS
 10
61.816955819
 20
144.6182650862
 40
1.0
 50
90.0
 51
180.0
  0
ARC
  8
0
 62
7
  6
CONTINUOUS
 10
65.326955819
 20
144.6182650862
 40
1.0
 50
0.0
 51
90.0
  0
ARC
  8
0
 62
7
  6
CONTINUOUS
 10
77.826955819
 20
144.6182650862
 40
1.0
 50
0.0
 51
90.0
  0
ARC
  8
0
 62
7
  6
CONTINUOUS
 10
74.316955819
 20
144.6182650862
 40
1.0
 50
90.0
 51
180.0
  0
ARC
  8
0
 62
7
  6
CONTINUOUS
 10
74.316955819
 20
126.6182650862
 40
1.0
 50
180.0
 51
270.0
  0
ARC
  8
0
 62
7
  6
CONTINUOUS
 10
86.966955819
 20
126.6182650862
 40
1.0
 50
180.0
 51
270.0
  0
ARC
  8
0
 62
7
  6
CONTINUOUS
 10
90.476955819
 20
126.6182650862
 40
1.0
 50
270.0
 51
360.0
  0
ARC
  8
0
 62
7
  6
CONTINUOUS
 10
90.476955819
 20
144.6182650862
 40
1.0
 50
0.0
 51
90.0
  0
ARC
  8
0
 62
7
  6
CONTINUOUS
 10
99.466955819
 20
126.6182650862
 40
1.0
 50
180.0
 51
270.0
  0
ARC
  8
0
 62
7
  6
CONTINUOUS
 10
102.976955819
 20
126.6182650862
 40
1.0
 50
270.0
 51
360.0
  0
ARC
  8
0
 62
7
  6
CONTINUOUS
 10
102.976955819
 20
144.6182650862
 40
1.0
 50
0.0
 51
90.0
  0
ARC
  8
0
 62
7
  6
CONTINUOUS
 10
65.3269630201
 20
126.6182578851
 40
0.9999963995
 50
269.9995874015
 51
0.0004125917
  0
ARC
  8
0
 62
7
  6
CONTINUOUS
 10
77.8269630201
 20
126.6182578851
 40
0.9999963995
 50
269.9995874015
 51
0.0004125917
  0
ARC
  8
0
 62
7
  6
CONTINUOUS
 10
86.9669486179
 20
144.6182722873
 40
0.9999963995
 50
89.9995874015
 51
180.0004125917
  0
ARC
  8
0
 62
7
  6
CONTINUOUS
 10
99.4669486179
 20
144.6182722873
 40
0.9999963995
 50
89.9995874015
 51
180.0004125917
  0
ARC
  8
0
 62
7
  6
CONTINUOUS
 10
47.4141114543
 20
160.5182644359
 40
0.5
 50
2.0000745694
 51
90.0000026024
  0
ARC
  8
0
 62
7
  6
CONTINUOUS
 10
54.3798001414
 20
160.5182632249
 40
0.5
 50
89.9999925519
 51
177.9997865843
  0
ARC
  8
0
 62
7
  6
CONTINUOUS
 10
117.3798001837
 20
110.7182657366
 40
0.5
 50
182.0000745694
 51
270.0000026024
  0
ARC
  8
0
 62
7
  6
CONTINUOUS
 10
110.4141114966
 20
110.7182669475
 40
0.5
 50
269.9999925519
 51
357.9997865843
  0
ARC
  8
0
 62
7
  6
CONTINUOUS
 10
44.8969534407
 20
160.518267202
 40
0.4999976229
 50
89.9997279224
 51
180.0002417198
  0
ARC
  8
0
 62
7
  6
CONTINUOUS
 10
119.8969581973
 20
110.7182629704
 40
0.4999976229
 50
269.9997279224
 51
0.0002417198
  0
ARC
  8
0
 62
7
  6
CONTINUOUS
 10
147.6963345083
 20
127.7292067503
 40
2.0
 50
180.0
 51
249.97
  0
ARC
  8
0
 62
7
  6
CONTINUOUS
 10
146.1963345083
 20
123.6582629256
 40
0.499999169
 50
179.9997524112
 51
270.0
  0
ARC
  8
0
 62
7
  6
CONTINUOUS
 10
152.0463345083
 20
116.7182650862
 40
6.855
 50
33.8877046672
 51
69.9700000902
  0
ARC
  8
0
 62
7
  6
CONTINUOUS
 10
152.0463345083
 20
116.7182650862
 40
6.5
 50
192.3329031
 51
270.0
  0
ARC
  8
0
 62
7
  6
CONTINUOUS
 10
152.0463345083
 20
116.5682650862
 40
6.35
 50
270.0
 51
360.0
  0
CIRCLE
  8
1_AXIS
 62
7
  6
CONTINUOUS
 10
152.0463345083
 20
116.5682650862
 40
3.25
  0
ARC
  8
0
 62
7
  6
CONTINUOUS
 10
157.8963345083
 20
121.0182629255
 40
0.4999991689
 50
270.0
 51
360.0
  0
ARC
  8
0
 62
7
  6
CONTINUOUS
 10
157.7783956559
 20
120.5682650862
 40
0.05
 50
213.8877046671
 51
270.0000000001
  0
ARC
  8
0
 62
7
  6
CONTINUOUS
 10
152.0463345083
 20
154.5182650862
 40
6.5
 50
90.0
 51
167.6670969
  0
ARC
  8
0
 62
7
  6
CONTINUOUS
 10
152.0463345083
 20
154.6682650862
 40
6.35
 50
0.0
 51
90.0
  0
CIRCLE
  8
1_AXIS
 62
7
  6
CONTINUOUS
 10
152.0463345083
 20
154.6682650862
 40
3.25
  0
ARC
  8
0
 62
7
  6
CONTINUOUS
 10
58.0099837751
 20
198.1774767497
 40
0.5
 50
181.0
 51
270.0
  0
ARC
  8
0
 62
7
  6
CONTINUOUS
 10
55.1099837751
 20
198.1774767497
 40
0.5
 50
181.0
 51
270.0
  0
ARC
  8
0
 62
7
  6
CONTINUOUS
 10
44.896955819
 20
198.1774767497
 40
0.5
 50
180.0
 51
270.0
  0
ARC
  8
0
 62
7
  6
CONTINUOUS
 10
81.4839278628
 20
198.1774767497
 40
0.5
 50
270.0
 51
359.0
  0
ARC
  8
0
 62
7
  6
CONTINUOUS
 10
47.1839320111
 20
198.1774767497
 40
0.4999986174
 50
269.9995246411
 51
358.9999917037
  0
ARC
  8
0
 62
7
  6
CONTINUOUS
 10
53.9754141865
 20
205.8774767497
 40
0.5
 50
0.9999734808
 51
89.9984804444
  0
ARC
  8
0
 62
7
  6
CONTINUOUS
 10
48.3184836816
 20
205.8774767497
 40
0.4999997455
 50
89.9999416533
 51
178.9999989817
  0
ARC
  8
0
 62
7
  6
CONTINUOUS
 10
57.8057584353
 20
209.8774767497
 40
0.4999995846
 50
89.9998762227
 51
181.0000021602
  0
ARC
  8
0
 62
7
  6
CONTINUOUS
 10
46.4375538195
 20
209.9674767497
 40
0.41
 50
90.0
 51
101.309932474
  0
ARC
  8
0
 62
7
  6
CONTINUOUS
 10
44.806955819
 20
209.6413571496
 40
0.41
 50
101.309932474
 51
180.0
  0
ARC
  8
0
 62
7
  6
CONTINUOUS
 10
81.6881520915
 20
209.8774749755
 40
0.5
 50
359.0002033437
 51
89.9999964512
  0
ARC
  8
0
 62
7
  6
CONTINUOUS
 10
119.896955819
 20
198.1774767497
 40
0.5
 50
270.0
 51
360.0
  0
ARC
  8
0
 62
7
  6
CONTINUOUS
 10
108.6099837751
 20
198.1774767497
 40
0.5
 50
181.0
 51
270.0
  0
ARC
  8
0
 62
7
  6
CONTINUOUS
 10
84.3339178976
 20
198.1774767497
 40
0.5
 50
270.0011419341
 51
359.0000199258
  0
ARC
  8
0
 62
7
  6
CONTINUOUS
 10
105.6099802678
 20
198.1774767497
 40
0.4999993608
 50
180.9998791311
 51
270.0003953308
  0
ARC
  8
0
 62
7
  6
CONTINUOUS
 10
108.4057584352
 20
209.8774767497
 40
0.4999995846
 50
89.9998762135
 51
181.0000021604
  0
ARC
  8
0
 62
7
  6
CONTINUOUS
 10
118.3563578184
 20
209.9674767497
 40
0.41
 50
78.690067526
 51
90.0
  0
ARC
  8
0
 62
7
  6
CONTINUOUS
 10
119.986955819
 20
209.6413571496
 40
0.41
 50
0.0
 51
78.690067526
  0
ENDSEC
  0
EOF
