  0
SECTION
  2
HEADER
  9
$EXTMAX
 10
210.0
 20
297.0
 30
0.0
  9
$EXTMIN
 10
0.0
 20
0.0
 30
0.0
  9
$LIMMIN
 10
0.0
 20
0.0
  9
$LIMMAX
 10
210.0
 20
297.0
  9
$VIEWCTR
 10
105.0
 20
148.5
  9
$VIEWSIZE
 40
297.0
  9
$CLAYER
  8
0
  9
$LTSCALE
 40
19.36
  9
$CELTYPE
  6
BYLAYER
  9
$DIMSCALE
 40
1.0
  9
$DIMASZ
 40
3.5
  9
$DIMEXO
 40
2.2
  9
$DIMDLI
 40
13.376
  9
$DIMEXE
 40
6.336
  9
$DIMCEN
 40
3.168
  9
$DIMLFAC
 40
1.0
  9
$DIMBLK
  1
_FILLED
  9
$DIMTXT
 40
3.5
  9
$PDMODE
 70
3
  9
$PDSIZE
 40
0.3125
  9
$TILEMODE
 70
1
  0
ENDSEC
  0
SECTION
  2
TABLES
  0
TABLE
  2
LTYPE
 70
6
  0
LTYPE
  2
BYBLOCK
 70
0
  3

 72
65
 73
0
 40
0.0
  0
LTYPE
  2
BYLAYER
 70
0
  3

 72
65
 73
0
 40
0.0
  0
LTYPE
  2
CONTINUOUS
 70
64
  3
Solid line
 72
65
 73
0
 40
0.0
  0
LTYPE
  2
CENTER
 70
64
  3
____ _ ____ _ ____ _ ____ _ ____ _ ____ _ ____
 72
65
 73
4
 40
0.6
 49
0.375
 49
-0.075
 49
0.075
 49
-0.075
  0
LTYPE
  2
HIDDEN
 70
64
  3
- - - - - - - - - - - - - - - - - - - -
 72
65
 73
2
 40
0.2
 49
0.1
 49
-0.1
  0
LTYPE
  2
PHANTOM
 70
64
  3
_____ _ _ _____ _ _ _____ _ _ _____
 72
65
 73
6
 40
0.8
 49
0.45
 49
-0.05
 49
0.1
 49
-0.05
 49
0.1
 49
-0.05
  0
LTYPE
  2
DOT
 70
64
  3
. . . . . . . . . . . . . . . . . . . .
 72
65
 73
2
 40
0.2
 49
0.1
 49
-0.1
  0
LTYPE
  2
DASHED
 70
64
  3
- - - - - - - - - - - - - - - - - - - -
 72
65
 73
2
 40
0.2
 49
0.1
 49
-0.1
  0
ENDTAB
  0
TABLE
  2
LAYER
 70
36
  0
LAYER
  2
0
 70
0
 62
7
  6
CONTINUOUS
  0
LAYER
  2
DEFAULT_1
 70
0
 62
7
  6
CENTER
  0
LAYER
  2
DEFAULT_2
 70
0
 62
8
  6
HIDDEN
  0
LAYER
  2
DEFAULT_3
 70
0
 62
7
  6
PHANTOM
  0
LAYER
  2
1_AXIS
 70
0
 62
7
  6
CONTINUOUS
  0
LAYER
  2
1_DATUMPLANE
 70
0
 62
7
  6
CONTINUOUS
  0
LAYER
  2
1_DATUM_PLANES
 70
0
 62
7
  6
CONTINUOUS
  0
LAYER
  2
2_FEATURE
 70
0
 62
7
  6
CONTINUOUS
  0
LAYER
  2
4_CURVE
 70
0
 62
7
  6
CONTINUOUS
  0
LAYER
  2
4_QUILT
 70
0
 62
7
  6
CONTINUOUS
  0
LAYER
  2
6_DIM
 70
0
 62
7
  6
CONTINUOUS
  0
LAYER
  2
CSYS
 70
0
 62
7
  6
CONTINUOUS
  0
LAYER
  2
SURFACE
 70
0
 62
7
  6
CONTINUOUS
  0
ENDTAB
  0
TABLE
  2
STYLE
 70
1
  0
STYLE
  2
STANDARD
 70
0
 40
0.0
 41
0.8
 50
0.0
 71
0
 42
0.2
  3
txt
  4

  0
STYLE
  2
TEXTSTYLE_1
 70
0
 40
0.0
 41
0.8
 50
0.0
 71
0
 42
0.2
  3
gdt
  4

  0
STYLE
  2
TEXTSTYLE_2
 70
0
 40
0.0
 41
0.6
 50
0.0
 71
0
 42
0.2
  3
txt
  4

  0
STYLE
  2
TEXTSTYLE_3
 70
0
 40
0.0
 41
1.0
 50
0.0
 71
0
 42
0.2
  3
ftb_____.ttf
  4

  0
STYLE
  2
TEXTSTYLE_4
 70
0
 40
0.0
 41
1.0
 50
0.0
 71
0
 42
0.2
  3
fti_____.ttf
  4

  0
STYLE
  2
TEXTSTYLE_5
 70
0
 40
0.0
 41
1.0
 50
0.0
 71
0
 42
0.2
  3
frutiger light.ttf
  4

  0
STYLE
  2
TEXTSTYLE_6
 70
0
 40
0.0
 41
0.7
 50
0.0
 71
0
 42
0.2
  3
txt
  4

  0
STYLE
  2
TEXTSTYLE_7
 70
0
 40
0.0
 41
0.42
 50
0.0
 71
0
 42
0.2
  3
txt
  4

  0
ENDTAB
  0
ENDSEC
  0
SECTION
  2
BLOCKS
  0
BLOCK
  8
0
 62
2
  6
CONTINUOUS
  2
SYMBOL_8_BL1
 70
64
 10
173.5956734183
 20
35.5937998301
  0
TEXT
  8
0
 62
7
  6
CONTINUOUS
 10
164.6539584268
 20
30.6865562072
  7
TEXTSTYLE_4
 40
1.0655737705
  1
The brand for plastic modular belts and chains
 41
1.0
 72
0
  0
LINE
  8
0
 62
7
  6
CONTINUOUS
 10
149.5737418074
 20
36.1675703219
 11
149.5737418074
 21
34.0364227809
  0
LINE
  8
0
 62
7
  6
CONTINUOUS
 10
149.8628043005
 20
31.0454914852
 11
149.8628043005
 21
31.1422825445
  0
LINE
  8
0
 62
7
  6
CONTINUOUS
 10
149.5737418074
 20
31.1100188581
 11
149.6315543091
 21
30.9164367395
  0
LINE
  8
0
 62
7
  6
CONTINUOUS
 10
150.9671844304
 20
33.9544555678
 11
150.9671844304
 21
36.1675703219
  0
LINE
  8
0
 62
7
  6
CONTINUOUS
 10
151.8862417523
 20
32.1101932727
 11
151.8862417523
 21
30.5937998301
  0
LINE
  8
0
 62
7
  6
CONTINUOUS
 10
152.1753043074
 20
30.5937998301
 11
152.1753043074
 21
31.3358647082
  0
LINE
  8
0
 62
7
  6
CONTINUOUS
 10
152.1753043074
 20
31.4649194539
 11
152.1753043074
 21
32.1101932727
  0
LINE
  8
0
 62
7
  6
CONTINUOUS
 10
149.6315543091
 20
31.3036010218
 11
149.5737418074
 21
31.1100188581
  0
LINE
  8
0
 62
7
  6
CONTINUOUS
 10
149.9784292936
 20
30.8841730531
 11
149.8628043005
 21
31.0454914852
  0
LINE
  8
0
 62
7
  6
CONTINUOUS
 10
151.0768668626
 20
31.400392081
 11
151.1346793074
 21
31.3036010218
  0
LINE
  8
0
 62
7
  6
CONTINUOUS
 10
151.4237418626
 20
31.3036010218
 11
151.3659292523
 21
31.4326557675
  0
LINE
  8
0
 62
7
  6
CONTINUOUS
 10
152.852430332
 20
36.1675703219
 11
152.852430332
 21
34.3642916334
  0
LINE
  8
0
 62
7
  6
CONTINUOUS
 10
152.852430332
 20
33.0528162235
 11
152.852430332
 21
32.3970785186
  0
LINE
  8
0
 62
7
  6
CONTINUOUS
 10
153.2159293074
 20
31.2390736489
 11
153.2159293074
 21
30.5937998301
  0
LINE
  8
0
 62
7
  6
CONTINUOUS
 10
153.5049916972
 20
30.5937998301
 11
153.5049916972
 21
31.2390736489
  0
LINE
  8
0
 62
7
  6
CONTINUOUS
 10
149.8628043005
 20
31.1422825445
 11
149.9206168074
 21
31.2713373354
  0
LINE
  8
0
 62
7
  6
CONTINUOUS
 10
149.6315543091
 20
30.9164367395
 11
149.7471793074
 21
30.7873819712
  0
LINE
  8
0
 62
7
  6
CONTINUOUS
 10
153.1581166972
 20
31.3681283946
 11
153.2159293074
 21
31.2390736489
  0
LINE
  8
0
 62
7
  6
CONTINUOUS
 10
153.9674919177
 20
30.8841730531
 11
154.0253041972
 21
30.7551182848
  0
LINE
  8
0
 62
7
  6
CONTINUOUS
 10
153.5049916972
 20
31.2390736489
 11
153.4471794177
 21
31.400392081
  0
LINE
  8
0
 62
7
  6
CONTINUOUS
 10
153.9674919177
 20
31.4326557675
 11
153.9674919177
 21
31.3681283946
  0
LINE
  8
0
 62
7
  6
CONTINUOUS
 10
153.9674919177
 20
30.9809641124
 11
153.9674919177
 21
30.8841730531
  0
LINE
  8
0
 62
7
  6
CONTINUOUS
 10
154.245872955
 20
32.3970785186
 11
154.245872955
 21
36.1675703219
  0
LINE
  8
0
 62
7
  6
CONTINUOUS
 10
154.2565543074
 20
30.8519093441
 11
154.2565543074
 21
30.9164367395
  0
LINE
  8
0
 62
7
  6
CONTINUOUS
 10
154.5737418074
 20
36.1675703219
 11
154.5737418074
 21
32.3970785186
  0
LINE
  8
0
 62
7
  6
CONTINUOUS
 10
151.3659292523
 20
30.7873819712
 11
151.4237418626
 21
30.9164367395
  0
LINE
  8
0
 62
7
  6
CONTINUOUS
 10
155.759679528
 20
30.6905909007
 11
155.7018665869
 21
30.8519093441
  0
LINE
  8
0
 62
7
  6
CONTINUOUS
 10
155.412804528
 20
31.3681283946
 11
155.412804528
 21
31.2713373354
  0
LINE
  8
0
 62
7
  6
CONTINUOUS
 10
155.412804528
 20
31.1422825445
 11
155.412804528
 21
30.9487004259
  0
LINE
  8
0
 62
7
  6
CONTINUOUS
 10
155.7018665869
 20
30.8519093441
 11
155.7018665869
 21
31.3681283946
  0
LINE
  8
0
 62
7
  6
CONTINUOUS
 10
155.9671844304
 20
32.3970785186
 11
155.9671844304
 21
34.2003572071
  0
LINE
  8
0
 62
7
  6
CONTINUOUS
 10
155.9671844304
 20
35.511832617
 11
155.9671844304
 21
36.1675703219
  0
LINE
  8
0
 62
7
  6
CONTINUOUS
 10
156.279992028
 20
32.1101932727
 11
156.279992028
 21
31.9488748406
  0
LINE
  8
0
 62
7
  6
CONTINUOUS
 10
156.279992028
 20
31.626237886
 11
156.279992028
 21
30.5937998301
  0
LINE
  8
0
 62
7
  6
CONTINUOUS
 10
156.5690540869
 20
30.5937998301
 11
156.5690540869
 21
31.626237886
  0
LINE
  8
0
 62
7
  6
CONTINUOUS
 10
156.5690540869
 20
31.9488748406
 11
156.5690540869
 21
32.1101932727
  0
LINE
  8
0
 62
7
  6
CONTINUOUS
 10
151.1346793074
 20
30.9164367395
 11
151.0768668626
 21
30.8196456577
  0
LINE
  8
0
 62
7
  6
CONTINUOUS
 10
153.4471794177
 20
31.400392081
 11
153.3893668074
 21
31.4649194539
  0
LINE
  8
0
 62
7
  6
CONTINUOUS
 10
154.3143669177
 20
30.7873819712
 11
154.2565543074
 21
30.8519093441
  0
LINE
  8
0
 62
7
  6
CONTINUOUS
 10
155.4706168074
 20
30.6583272086
 11
155.5284290869
 21
30.5937998301
  0
LINE
  8
0
 62
7
  6
CONTINUOUS
 10
155.412804528
 20
30.7551182848
 11
155.4706168074
 21
30.6583272086
  0
LINE
  8
0
 62
7
  6
CONTINUOUS
 10
155.8174918074
 20
30.5937998301
 11
155.759679528
 21
30.6905909007
  0
LINE
  8
0
 62
7
  6
CONTINUOUS
 10
155.7018665869
 20
31.3681283946
 11
155.6440543074
 21
31.4649194539
  0
LINE
  8
0
 62
7
  6
CONTINUOUS
 10
157.0315543074
 20
31.626237886
 11
157.0315543074
 21
30.5937998301
  0
LINE
  8
0
 62
7
  6
CONTINUOUS
 10
157.320617028
 20
30.5937998301
 11
157.320617028
 21
31.3358647082
  0
LINE
  8
0
 62
7
  6
CONTINUOUS
 10
157.320617028
 20
31.4649194539
 11
157.320617028
 21
31.626237886
  0
LINE
  8
0
 62
7
  6
CONTINUOUS
 10
157.852430332
 20
34.6101932727
 11
157.852430332
 21
32.3970785186
  0
LINE
  8
0
 62
7
  6
CONTINUOUS
 10
149.7471793074
 20
31.4326557675
 11
149.6315543091
 21
31.3036010218
  0
LINE
  8
0
 62
7
  6
CONTINUOUS
 10
149.9206168074
 20
31.2713373354
 11
149.9784292936
 21
31.3358647082
  0
LINE
  8
0
 62
7
  6
CONTINUOUS
 10
149.7471793074
 20
30.7873819712
 11
149.8628043005
 21
30.7228545871
  0
LINE
  8
0
 62
7
  6
CONTINUOUS
 10
150.1518667936
 20
30.7873819712
 11
149.9784292936
 21
30.8841730531
  0
LINE
  8
0
 62
7
  6
CONTINUOUS
 10
155.3549915869
 20
31.4326557675
 11
155.412804528
 21
31.3681283946
  0
LINE
  8
0
 62
7
  6
CONTINUOUS
 10
158.3034290869
 20
31.3681283946
 11
158.361242028
 21
31.2068099625
  0
LINE
  8
0
 62
7
  6
CONTINUOUS
 10
158.6503040869
 20
31.2068099625
 11
158.5924918074
 21
31.3681283946
  0
LINE
  8
0
 62
7
  6
CONTINUOUS
 10
158.361242028
 20
31.2068099625
 11
158.361242028
 21
30.5937998301
  0
LINE
  8
0
 62
7
  6
CONTINUOUS
 10
158.6503040869
 20
30.5937998301
 11
158.6503040869
 21
31.2068099625
  0
LINE
  8
0
 62
7
  6
CONTINUOUS
 10
159.1128043074
 20
31.4326557675
 11
159.1128043074
 21
31.3681283946
  0
LINE
  8
0
 62
7
  6
CONTINUOUS
 10
159.245872955
 20
32.3970785186
 11
159.245872955
 21
34.5282260596
  0
LINE
  8
0
 62
7
  6
CONTINUOUS
 10
159.5737418074
 20
36.1675703219
 11
159.5737418074
 21
32.3970785186
  0
LINE
  8
0
 62
7
  6
CONTINUOUS
 10
154.2565543074
 20
30.9164367395
 11
154.3143669177
 21
31.0132277988
  0
LINE
  8
0
 62
7
  6
CONTINUOUS
 10
149.8628043005
 20
30.7228545871
 11
150.0362418212
 21
30.6583272086
  0
LINE
  8
0
 62
7
  6
CONTINUOUS
 10
151.3659292523
 20
31.4326557675
 11
151.1924917523
 21
31.5294468267
  0
LINE
  8
0
 62
7
  6
CONTINUOUS
 10
154.0253041972
 20
30.7551182848
 11
154.1987416972
 21
30.6583272086
  0
LINE
  8
0
 62
7
  6
CONTINUOUS
 10
153.0424918074
 20
31.4326557675
 11
153.1581166972
 21
31.3681283946
  0
LINE
  8
0
 62
7
  6
CONTINUOUS
 10
153.3893668074
 20
31.4649194539
 11
153.2737419177
 21
31.5294468267
  0
LINE
  8
0
 62
7
  6
CONTINUOUS
 10
159.1128043074
 20
30.8519093441
 11
159.228429528
 21
30.7228545871
  0
LINE
  8
0
 62
7
  6
CONTINUOUS
 10
159.4596793074
 20
30.7873819712
 11
159.401867028
 21
30.8519093441
  0
LINE
  8
0
 62
7
  6
CONTINUOUS
 10
159.1128043074
 20
31.3681283946
 11
159.228429528
 21
31.2390736489
  0
LINE
  8
0
 62
7
  6
CONTINUOUS
 10
158.5924918074
 20
31.3681283946
 11
158.534679528
 21
31.4649194539
  0
LINE
  8
0
 62
7
  6
CONTINUOUS
 10
160.9628038663
 20
30.7873819712
 11
160.9628038663
 21
30.8519093441
  0
LINE
  8
0
 62
7
  6
CONTINUOUS
 10
160.9671844304
 20
32.3970785186
 11
160.9671844304
 21
36.1675703219
  0
LINE
  8
0
 62
7
  6
CONTINUOUS
 10
154.0253041972
 20
31.4971831403
 11
153.9674919177
 21
31.4326557675
  0
LINE
  8
0
 62
7
  6
CONTINUOUS
 10
150.9034292799
 20
31.4649194539
 11
151.0768668626
 21
31.400392081
  0
LINE
  8
0
 62
7
  6
CONTINUOUS
 10
155.6440543074
 20
31.4649194539
 11
155.5284290869
 21
31.5294468267
  0
LINE
  8
0
 62
7
  6
CONTINUOUS
 10
159.4596793074
 20
31.3036010218
 11
159.401867028
 21
31.3681283946
  0
LINE
  8
0
 62
7
  6
CONTINUOUS
 10
160.615929528
 20
30.9164367395
 11
160.6737418074
 21
30.8519093441
  0
LINE
  8
0
 62
7
  6
CONTINUOUS
 10
160.9628038663
 20
30.8519093441
 11
160.8471793074
 21
30.9809641124
  0
LINE
  8
0
 62
7
  6
CONTINUOUS
 10
160.615929528
 20
31.4326557675
 11
160.6737418074
 21
31.3681283946
  0
LINE
  8
0
 62
7
  6
CONTINUOUS
 10
160.9628038663
 20
31.3681283946
 11
160.8471793074
 21
31.4971831403
  0
LINE
  8
0
 62
7
  6
CONTINUOUS
 10
154.2565543074
 20
31.3681283946
 11
154.3143669177
 21
31.4326557675
  0
LINE
  8
0
 62
7
  6
CONTINUOUS
 10
154.0831168074
 20
31.1100188581
 11
153.9674919177
 21
30.9809641124
  0
LINE
  8
0
 62
7
  6
CONTINUOUS
 10
155.412804528
 20
30.9487004259
 11
155.3549915869
 21
30.8841730531
  0
LINE
  8
0
 62
7
  6
CONTINUOUS
 10
155.3549915869
 20
30.6905909007
 11
155.412804528
 21
30.7551182848
  0
LINE
  8
0
 62
7
  6
CONTINUOUS
 10
154.1987416972
 20
30.6583272086
 11
154.3143669177
 21
30.6260635193
  0
LINE
  8
0
 62
7
  6
CONTINUOUS
 10
151.1924917523
 20
31.5294468267
 11
150.9612418074
 21
31.5939741996
  0
LINE
  8
0
 62
7
  6
CONTINUOUS
 10
154.5456166972
 20
30.7228545871
 11
154.3143669177
 21
30.7873819712
  0
LINE
  8
0
 62
7
  6
CONTINUOUS
 10
153.2737419177
 20
31.5294468267
 11
153.1003044177
 21
31.5939741996
  0
LINE
  8
0
 62
7
  6
CONTINUOUS
 10
155.5284290869
 20
31.5294468267
 11
155.3549915869
 21
31.5939741996
  0
LINE
  8
0
 62
7
  6
CONTINUOUS
 10
158.187804528
 20
31.4326557675
 11
158.3034290869
 21
31.3681283946
  0
LINE
  8
0
 62
7
  6
CONTINUOUS
 10
158.534679528
 20
31.4649194539
 11
158.4190543074
 21
31.5294468267
  0
LINE
  8
0
 62
7
  6
CONTINUOUS
 10
150.0362418212
 20
30.6583272086
 11
150.2096793212
 21
30.6260635193
  0
LINE
  8
0
 62
7
  6
CONTINUOUS
 10
150.498741835
 20
30.7228545871
 11
150.1518667936
 21
30.7873819712
  0
LINE
  8
0
 62
7
  6
CONTINUOUS
 10
152.9268669177
 20
31.4649194539
 11
153.0424918074
 21
31.4326557675
  0
LINE
  8
0
 62
7
  6
CONTINUOUS
 10
155.239367028
 20
31.4649194539
 11
155.3549915869
 21
31.4326557675
  0
LINE
  8
0
 62
7
  6
CONTINUOUS
 10
159.575304528
 20
30.7551182848
 11
159.4596793074
 21
30.7873819712
  0
LINE
  8
0
 62
7
  6
CONTINUOUS
 10
158.0721793074
 20
31.4649194539
 11
158.187804528
 21
31.4326557675
  0
LINE
  8
0
 62
7
  6
CONTINUOUS
 10
159.228429528
 20
30.7228545871
 11
159.401867028
 21
30.6583272086
  0
LINE
  8
0
 62
7
  6
CONTINUOUS
 10
158.4190543074
 20
31.5294468267
 11
158.2456168074
 21
31.5939741996
  0
LINE
  8
0
 62
7
  6
CONTINUOUS
 10
159.6331168074
 20
31.2390736489
 11
159.4596793074
 21
31.3036010218
  0
LINE
  8
0
 62
7
  6
CONTINUOUS
 10
160.442492028
 20
30.9809641124
 11
160.615929528
 21
30.9164367395
  0
LINE
  8
0
 62
7
  6
CONTINUOUS
 10
160.8471793074
 20
31.4971831403
 11
160.6737418074
 21
31.5617105132
  0
LINE
  8
0
 62
7
  6
CONTINUOUS
 10
159.228429528
 20
31.2390736489
 11
159.4596793074
 21
31.1422825445
  0
LINE
  8
0
 62
7
  6
CONTINUOUS
 10
160.8471793074
 20
30.9809641124
 11
160.615929528
 21
31.0777551716
  0
LINE
  8
0
 62
7
  6
CONTINUOUS
 10
159.401867028
 20
31.3681283946
 11
159.4596793074
 21
31.4326557675
  0
LINE
  8
0
 62
7
  6
CONTINUOUS
 10
149.8628043005
 20
31.4971831403
 11
149.7471793074
 21
31.4326557675
  0
LINE
  8
0
 62
7
  6
CONTINUOUS
 10
149.9784292936
 20
31.3358647082
 11
150.1518667936
 21
31.4326557675
  0
LINE
  8
0
 62
7
  6
CONTINUOUS
 10
152.2909293626
 20
31.5294468267
 11
152.1753043074
 21
31.4649194539
  0
LINE
  8
0
 62
7
  6
CONTINUOUS
 10
152.1753043074
 20
31.3358647082
 11
152.2909293626
 21
31.400392081
  0
LINE
  8
0
 62
7
  6
CONTINUOUS
 10
151.1924917523
 20
30.6905909007
 11
151.3659292523
 21
30.7873819712
  0
LINE
  8
0
 62
7
  6
CONTINUOUS
 10
150.2096793212
 20
30.6260635193
 11
150.5565542799
 21
30.5937998301
  0
LINE
  8
0
 62
7
  6
CONTINUOUS
 10
154.3143669177
 20
30.6260635193
 11
154.5456166972
 21
30.5937998301
  0
LINE
  8
0
 62
7
  6
CONTINUOUS
 10
152.6956168074
 20
31.4971831403
 11
152.9268669177
 21
31.4649194539
  0
LINE
  8
0
 62
7
  6
CONTINUOUS
 10
155.0081169177
 20
31.4971831403
 11
155.239367028
 21
31.4649194539
  0
LINE
  8
0
 62
7
  6
CONTINUOUS
 10
159.4596793074
 20
31.1422825445
 11
160.442492028
 21
30.9809641124
  0
LINE
  8
0
 62
7
  6
CONTINUOUS
 10
160.615929528
 20
31.0777551716
 11
159.6331168074
 21
31.2390736489
  0
LINE
  8
0
 62
7
  6
CONTINUOUS
 10
153.1003044177
 20
31.5939741996
 11
152.9268669177
 21
31.626237886
  0
LINE
  8
0
 62
7
  6
CONTINUOUS
 10
159.401867028
 20
30.6583272086
 11
159.575304528
 21
30.6260635193
  0
LINE
  8
0
 62
7
  6
CONTINUOUS
 10
158.2456168074
 20
31.5939741996
 11
158.0721793074
 21
31.626237886
  0
LINE
  8
0
 62
7
  6
CONTINUOUS
 10
160.5003043074
 20
31.4649194539
 11
160.615929528
 21
31.4326557675
  0
LINE
  8
0
 62
7
  6
CONTINUOUS
 10
160.6737418074
 20
30.8519093441
 11
160.615929528
 21
30.7873819712
  0
LINE
  8
0
 62
7
  6
CONTINUOUS
 10
159.228429528
 20
31.5294468267
 11
159.1128043074
 21
31.4326557675
  0
LINE
  8
0
 62
7
  6
CONTINUOUS
 10
154.1409294177
 20
31.5617105132
 11
154.0253041972
 21
31.4971831403
  0
LINE
  8
0
 62
7
  6
CONTINUOUS
 10
154.1987416972
 20
31.1745462761
 11
154.0831168074
 21
31.1100188581
  0
LINE
  8
0
 62
7
  6
CONTINUOUS
 10
154.3143669177
 20
31.0132277988
 11
154.4299918074
 21
31.0777551716
  0
LINE
  8
0
 62
7
  6
CONTINUOUS
 10
151.8862417523
 20
30.5937998301
 11
152.1753043074
 21
30.5937998301
  0
LINE
  8
0
 62
7
  6
CONTINUOUS
 10
153.2159293074
 20
30.5937998301
 11
153.5049916972
 21
30.5937998301
  0
LINE
  8
0
 62
7
  6
CONTINUOUS
 10
154.5456166972
 20
30.5937998301
 11
154.8924916972
 21
30.5937998301
  0
LINE
  8
0
 62
7
  6
CONTINUOUS
 10
155.5284290869
 20
30.5937998301
 11
155.8174918074
 21
30.5937998301
  0
LINE
  8
0
 62
7
  6
CONTINUOUS
 10
156.279992028
 20
30.5937998301
 11
156.5690540869
 21
30.5937998301
  0
LINE
  8
0
 62
7
  6
CONTINUOUS
 10
157.0315543074
 20
30.5937998301
 11
157.320617028
 21
30.5937998301
  0
LINE
  8
0
 62
7
  6
CONTINUOUS
 10
158.361242028
 20
30.5937998301
 11
158.6503040869
 21
30.5937998301
  0
LINE
  8
0
 62
7
  6
CONTINUOUS
 10
159.922179528
 20
30.5937998301
 11
160.269054528
 21
30.5937998301
  0
LINE
  8
0
 62
7
  6
CONTINUOUS
 10
160.269054528
 20
30.7228545871
 11
159.922179528
 21
30.7228545871
  0
LINE
  8
0
 62
7
  6
CONTINUOUS
 10
154.8924916972
 20
30.7228545871
 11
154.5456166972
 21
30.7228545871
  0
LINE
  8
0
 62
7
  6
CONTINUOUS
 10
159.401867028
 20
30.8519093441
 11
159.1128043074
 21
30.8519093441
  0
LINE
  8
0
 62
7
  6
CONTINUOUS
 10
151.4237418626
 20
30.9164367395
 11
151.1346793074
 21
30.9164367395
  0
LINE
  8
0
 62
7
  6
CONTINUOUS
 10
150.498741835
 20
31.4971831403
 11
150.9034292799
 21
31.4649194539
  0
LINE
  8
0
 62
7
  6
CONTINUOUS
 10
150.9612418074
 20
31.5939741996
 11
150.5565542799
 21
31.626237886
  0
LINE
  8
0
 62
7
  6
CONTINUOUS
 10
159.575304528
 20
30.6260635193
 11
159.922179528
 21
30.5937998301
  0
LINE
  8
0
 62
7
  6
CONTINUOUS
 10
159.922179528
 20
30.7228545871
 11
159.575304528
 21
30.7551182848
  0
LINE
  8
0
 62
7
  6
CONTINUOUS
 10
155.3549915869
 20
31.5939741996
 11
155.0081169177
 21
31.626237886
  0
LINE
  8
0
 62
7
  6
CONTINUOUS
 10
160.1534293074
 20
31.4971831403
 11
160.5003043074
 21
31.4649194539
  0
LINE
  8
0
 62
7
  6
CONTINUOUS
 10
160.5003043074
 20
31.5939741996
 11
160.1534293074
 21
31.626237886
  0
LINE
  8
0
 62
7
  6
CONTINUOUS
 10
157.840929528
 20
31.4971831403
 11
158.0721793074
 21
31.4649194539
  0
LINE
  8
0
 62
7
  6
CONTINUOUS
 10
160.6737418074
 20
31.5617105132
 11
160.5003043074
 21
31.5939741996
  0
LINE
  8
0
 62
7
  6
CONTINUOUS
 10
160.8471793074
 20
30.6905909007
 11
160.9628038663
 21
30.7873819712
  0
LINE
  8
0
 62
7
  6
CONTINUOUS
 10
155.3549915869
 20
30.8841730531
 11
155.1815540869
 21
30.7873819712
  0
LINE
  8
0
 62
7
  6
CONTINUOUS
 10
157.4362415869
 20
31.5294468267
 11
157.320617028
 21
31.4649194539
  0
LINE
  8
0
 62
7
  6
CONTINUOUS
 10
157.320617028
 20
31.3358647082
 11
157.4362415869
 21
31.400392081
  0
LINE
  8
0
 62
7
  6
CONTINUOUS
 10
150.0362418212
 20
31.5617105132
 11
149.8628043005
 21
31.4971831403
  0
LINE
  8
0
 62
7
  6
CONTINUOUS
 10
152.4643666972
 20
31.5939741996
 11
152.2909293626
 21
31.5294468267
  0
LINE
  8
0
 62
7
  6
CONTINUOUS
 10
152.2909293626
 20
31.400392081
 11
152.4643666972
 21
31.4649194539
  0
LINE
  8
0
 62
7
  6
CONTINUOUS
 10
151.0768668626
 20
30.8196456577
 11
150.9034292799
 21
30.7551182848
  0
LINE
  8
0
 62
7
  6
CONTINUOUS
 10
160.5003043074
 20
30.7551182848
 11
160.269054528
 21
30.7228545871
  0
LINE
  8
0
 62
7
  6
CONTINUOUS
 10
154.8924916972
 20
30.5937998301
 11
155.1815540869
 21
30.6260635193
  0
LINE
  8
0
 62
7
  6
CONTINUOUS
 10
160.269054528
 20
30.5937998301
 11
160.615929528
 21
30.6260635193
  0
LINE
  8
0
 62
7
  6
CONTINUOUS
 10
150.5565542799
 20
30.5937998301
 11
150.9612418074
 21
30.6260635193
  0
LINE
  8
0
 62
7
  6
CONTINUOUS
 10
150.9034292799
 20
30.7551182848
 11
150.498741835
 21
30.7228545871
  0
LINE
  8
0
 62
7
  6
CONTINUOUS
 10
154.7768668074
 20
31.1422825445
 11
155.412804528
 21
31.1422825445
  0
LINE
  8
0
 62
7
  6
CONTINUOUS
 10
155.412804528
 20
31.2713373354
 11
154.7768668074
 21
31.2713373354
  0
LINE
  8
0
 62
7
  6
CONTINUOUS
 10
151.1346793074
 20
31.3036010218
 11
151.4237418626
 21
31.3036010218
  0
LINE
  8
0
 62
7
  6
CONTINUOUS
 10
153.9674919177
 20
31.3681283946
 11
154.2565543074
 21
31.3681283946
  0
LINE
  8
0
 62
7
  6
CONTINUOUS
 10
160.6737418074
 20
31.3681283946
 11
160.9628038663
 21
31.3681283946
  0
LINE
  8
0
 62
7
  6
CONTINUOUS
 10
154.6612419177
 20
31.4971831403
 11
155.0081169177
 21
31.4971831403
  0
LINE
  8
0
 62
7
  6
CONTINUOUS
 10
159.8065543074
 20
31.4971831403
 11
160.1534293074
 21
31.4971831403
  0
LINE
  8
0
 62
7
  6
CONTINUOUS
 10
160.1534293074
 20
31.626237886
 11
159.8065543074
 21
31.626237886
  0
LINE
  8
0
 62
7
  6
CONTINUOUS
 10
158.0721793074
 20
31.626237886
 11
157.840929528
 21
31.626237886
  0
LINE
  8
0
 62
7
  6
CONTINUOUS
 10
157.320617028
 20
31.626237886
 11
157.0315543074
 21
31.626237886
  0
LINE
  8
0
 62
7
  6
CONTINUOUS
 10
156.5690540869
 20
31.626237886
 11
156.279992028
 21
31.626237886
  0
LINE
  8
0
 62
7
  6
CONTINUOUS
 10
155.0081169177
 20
31.626237886
 11
154.6612419177
 21
31.626237886
  0
LINE
  8
0
 62
7
  6
CONTINUOUS
 10
152.9268669177
 20
31.626237886
 11
152.6956168074
 21
31.626237886
  0
LINE
  8
0
 62
7
  6
CONTINUOUS
 10
156.279992028
 20
31.9488748406
 11
156.5690540869
 21
31.9488748406
  0
LINE
  8
0
 62
7
  6
CONTINUOUS
 10
156.5690540869
 20
32.1101932727
 11
156.279992028
 21
32.1101932727
  0
LINE
  8
0
 62
7
  6
CONTINUOUS
 10
152.1753043074
 20
32.1101932727
 11
151.8862417523
 21
32.1101932727
  0
LINE
  8
0
 62
7
  6
CONTINUOUS
 10
151.2130860697
 20
32.3970785186
 11
151.6256574183
 21
32.3970785186
  0
LINE
  8
0
 62
7
  6
CONTINUOUS
 10
152.852430332
 20
32.3970785186
 11
154.245872955
 21
32.3970785186
  0
LINE
  8
0
 62
7
  6
CONTINUOUS
 10
154.5737418074
 20
32.3970785186
 11
155.9671844304
 21
32.3970785186
  0
LINE
  8
0
 62
7
  6
CONTINUOUS
 10
157.852430332
 20
32.3970785186
 11
159.245872955
 21
32.3970785186
  0
LINE
  8
0
 62
7
  6
CONTINUOUS
 10
159.5737418074
 20
32.3970785186
 11
160.9671844304
 21
32.3970785186
  0
LINE
  8
0
 62
7
  6
CONTINUOUS
 10
157.6096790869
 20
31.5939741996
 11
157.4362415869
 21
31.5294468267
  0
LINE
  8
0
 62
7
  6
CONTINUOUS
 10
155.1815540869
 20
30.6260635193
 11
155.3549915869
 21
30.6905909007
  0
LINE
  8
0
 62
7
  6
CONTINUOUS
 10
160.615929528
 20
30.6260635193
 11
160.8471793074
 21
30.6905909007
  0
LINE
  8
0
 62
7
  6
CONTINUOUS
 10
160.615929528
 20
30.7873819712
 11
160.5003043074
 21
30.7551182848
  0
LINE
  8
0
 62
7
  6
CONTINUOUS
 10
159.575304528
 20
31.4649194539
 11
159.8065543074
 21
31.4971831403
  0
LINE
  8
0
 62
7
  6
CONTINUOUS
 10
157.6096790869
 20
31.4649194539
 11
157.840929528
 21
31.4971831403
  0
LINE
  8
0
 62
7
  6
CONTINUOUS
 10
154.5456166972
 20
31.1100188581
 11
154.7768668074
 21
31.1422825445
  0
LINE
  8
0
 62
7
  6
CONTINUOUS
 10
157.840929528
 20
31.626237886
 11
157.6096790869
 21
31.5939741996
  0
LINE
  8
0
 62
7
  6
CONTINUOUS
 10
154.4299918074
 20
31.4649194539
 11
154.6612419177
 21
31.4971831403
  0
LINE
  8
0
 62
7
  6
CONTINUOUS
 10
159.8065543074
 20
31.626237886
 11
159.4596793074
 21
31.5939741996
  0
LINE
  8
0
 62
7
  6
CONTINUOUS
 10
154.7768668074
 20
31.2713373354
 11
154.4299918074
 21
31.2390736489
  0
LINE
  8
0
 62
7
  6
CONTINUOUS
 10
150.5565542799
 20
31.626237886
 11
150.2096793212
 21
31.5939741996
  0
LINE
  8
0
 62
7
  6
CONTINUOUS
 10
154.6612419177
 20
31.626237886
 11
154.2565543074
 21
31.5939741996
  0
LINE
  8
0
 62
7
  6
CONTINUOUS
 10
152.0327582009
 20
33.5446195022
 11
151.3770204959
 21
33.5446195022
  0
LINE
  8
0
 62
7
  6
CONTINUOUS
 10
157.4362415869
 20
31.400392081
 11
157.6096790869
 21
31.4649194539
  0
LINE
  8
0
 62
7
  6
CONTINUOUS
 10
159.4596793074
 20
31.4326557675
 11
159.575304528
 21
31.4649194539
  0
LINE
  8
0
 62
7
  6
CONTINUOUS
 10
159.4596793074
 20
31.5939741996
 11
159.228429528
 21
31.5294468267
  0
LINE
  8
0
 62
7
  6
CONTINUOUS
 10
155.1815540869
 20
30.7873819712
 11
154.8924916972
 21
30.7228545871
  0
LINE
  8
0
 62
7
  6
CONTINUOUS
 10
152.4643666972
 20
31.4649194539
 11
152.6956168074
 21
31.4971831403
  0
LINE
  8
0
 62
7
  6
CONTINUOUS
 10
152.6956168074
 20
31.626237886
 11
152.4643666972
 21
31.5939741996
  0
LINE
  8
0
 62
7
  6
CONTINUOUS
 10
150.2674918074
 20
31.4649194539
 11
150.498741835
 21
31.4971831403
  0
LINE
  8
0
 62
7
  6
CONTINUOUS
 10
156.7868565615
 20
35.0200293383
 11
157.4425942664
 21
35.0200293383
  0
LINE
  8
0
 62
7
  6
CONTINUOUS
 10
154.4299918074
 20
31.0777551716
 11
154.5456166972
 21
31.1100188581
  0
LINE
  8
0
 62
7
  6
CONTINUOUS
 10
154.4299918074
 20
31.2390736489
 11
154.1987416972
 21
31.1745462761
  0
LINE
  8
0
 62
7
  6
CONTINUOUS
 10
154.3143669177
 20
31.4326557675
 11
154.4299918074
 21
31.4649194539
  0
LINE
  8
0
 62
7
  6
CONTINUOUS
 10
150.9612418074
 20
30.6260635193
 11
151.1924917523
 21
30.6905909007
  0
LINE
  8
0
 62
7
  6
CONTINUOUS
 10
154.2565543074
 20
31.5939741996
 11
154.1409294177
 21
31.5617105132
  0
LINE
  8
0
 62
7
  6
CONTINUOUS
 10
150.2096793212
 20
31.5939741996
 11
150.0362418212
 21
31.5617105132
  0
LINE
  8
0
 62
7
  6
CONTINUOUS
 10
160.9671844304
 20
36.1675703219
 11
159.5737418074
 21
36.1675703219
  0
LINE
  8
0
 62
7
  6
CONTINUOUS
 10
157.6065286927
 20
36.1675703219
 11
157.1939573441
 21
36.1675703219
  0
LINE
  8
0
 62
7
  6
CONTINUOUS
 10
155.9671844304
 20
36.1675703219
 11
154.5737418074
 21
36.1675703219
  0
LINE
  8
0
 62
7
  6
CONTINUOUS
 10
154.245872955
 20
36.1675703219
 11
152.852430332
 21
36.1675703219
  0
LINE
  8
0
 62
7
  6
CONTINUOUS
 10
150.9671844304
 20
36.1675703219
 11
149.5737418074
 21
36.1675703219
  0
LINE
  8
0
 62
7
  6
CONTINUOUS
 10
150.1518667936
 20
31.4326557675
 11
150.2674918074
 21
31.4649194539
  0
CIRCLE
  8
0
 62
7
  6
CONTINUOUS
 10
160.2704631189
 20
38.5036358957
 40
2.0901639344
  0
ARC
  8
0
 62
7
  6
CONTINUOUS
 10
151.2130860697
 20
34.0364227809
 40
1.6393442623
 50
180.0
 51
270.0
  0
ARC
  8
0
 62
7
  6
CONTINUOUS
 10
157.6065286927
 20
34.5282260596
 40
1.6393442623
 50
0.0
 51
90.0
  0
ARC
  8
0
 62
7
  6
CONTINUOUS
 10
151.6256574183
 20
33.8724883547
 40
1.4754098361
 50
270.0
 51
326.2510114041
  0
ARC
  8
0
 62
7
  6
CONTINUOUS
 10
157.1939573441
 20
34.6921604858
 40
1.4754098361
 50
90.0
 51
146.2510114041
  0
ARC
  8
0
 62
7
  6
CONTINUOUS
 10
152.0327582009
 20
34.3642916334
 40
0.8196721311
 50
270.0
 51
360.0
  0
ARC
  8
0
 62
7
  6
CONTINUOUS
 10
156.7868565615
 20
34.2003572071
 40
0.8196721311
 50
90.0
 51
180.0
  0
ARC
  8
0
 62
7
  6
CONTINUOUS
 10
151.3770204959
 20
33.9544555678
 40
0.4098360656
 50
180.0
 51
270.0
  0
ARC
  8
0
 62
7
  6
CONTINUOUS
 10
157.4425942664
 20
34.6101932727
 40
0.4098360656
 50
0.0
 51
90.0
  0
SOLID
  8
0
 62
7
  6
CONTINUOUS
 10
156.279992028
 20
31.9488752009
 11
156.279992028
 21
32.1101936845
 12
156.5690540869
 22
31.9488752009
 13
156.5690540869
 23
32.1101936845
  0
SOLID
  8
0
 62
7
  6
CONTINUOUS
 10
150.5565542799
 20
31.6262382337
 11
150.9612418074
 21
31.5939740028
 12
150.2096793212
 22
31.5939740028
 13
150.2096793212
 23
31.5939740028
  0
SOLID
  8
0
 62
7
  6
CONTINUOUS
 10
150.0362418212
 20
31.5617111435
 11
150.2096793212
 21
31.5939740028
 12
150.9612418074
 22
31.5939740028
 13
150.9612418074
 23
31.5939740028
  0
SOLID
  8
0
 62
7
  6
CONTINUOUS
 10
150.9612418074
 20
31.5939740028
 11
151.1924917523
 21
31.5294468402
 12
150.0362418212
 22
31.5617111435
 13
150.0362418212
 23
31.5617111435
  0
SOLID
  8
0
 62
7
  6
CONTINUOUS
 10
149.8628043005
 20
31.49718259
 11
150.0362418212
 21
31.5617111435
 12
151.1924917523
 22
31.5294468402
 13
151.1924917523
 23
31.5294468402
  0
SOLID
  8
0
 62
7
  6
CONTINUOUS
 10
149.8628043005
 20
31.49718259
 11
151.1924917523
 21
31.5294468402
 12
150.498741835
 22
31.49718259
 13
150.498741835
 23
31.49718259
  0
SOLID
  8
0
 62
7
  6
CONTINUOUS
 10
150.498741835
 20
31.49718259
 11
151.1924917523
 21
31.5294468402
 12
150.9034292799
 22
31.4649197501
 13
150.9034292799
 23
31.4649197501
  0
SOLID
  8
0
 62
7
  6
CONTINUOUS
 10
151.1924917523
 20
31.5294468402
 11
151.3659292523
 21
31.4326554468
 12
150.9034292799
 22
31.4649197501
 13
150.9034292799
 23
31.4649197501
  0
SOLID
  8
0
 62
7
  6
CONTINUOUS
 10
151.0768668626
 20
31.4003926599
 11
150.9034292799
 21
31.4649197501
 12
151.3659292523
 22
31.4326554468
 13
151.3659292523
 23
31.4326554468
  0
SOLID
  8
0
 62
7
  6
CONTINUOUS
 10
151.0768668626
 20
31.4003926599
 11
151.3659292523
 21
31.4326554468
 12
151.1346793074
 22
31.3036013776
 13
151.1346793074
 23
31.3036013776
  0
SOLID
  8
0
 62
7
  6
CONTINUOUS
 10
151.3659292523
 20
31.4326554468
 11
151.4237418626
 21
31.3036013776
 12
151.1346793074
 22
31.3036013776
 13
151.1346793074
 23
31.3036013776
  0
SOLID
  8
0
 62
7
  6
CONTINUOUS
 10
152.4643666972
 20
31.5939739754
 11
152.6956168074
 21
31.6262382787
 12
152.9268669177
 22
31.6262382787
 13
152.9268669177
 23
31.6262382787
  0
SOLID
  8
0
 62
7
  6
CONTINUOUS
 10
152.9268669177
 20
31.6262382787
 11
153.1003044177
 21
31.5939739754
 12
152.4643666972
 22
31.5939739754
 13
152.4643666972
 23
31.5939739754
  0
SOLID
  8
0
 62
7
  6
CONTINUOUS
 10
152.2909293626
 20
31.5294468852
 11
152.4643666972
 21
31.5939739754
 12
153.1003044177
 22
31.5939739754
 13
153.1003044177
 23
31.5939739754
  0
SOLID
  8
0
 62
7
  6
CONTINUOUS
 10
153.1003044177
 20
31.5939739754
 11
153.2737419177
 21
31.5294468852
 12
152.2909293626
 22
31.5294468852
 13
152.2909293626
 23
31.5294468852
  0
SOLID
  8
0
 62
7
  6
CONTINUOUS
 10
153.2737419177
 20
31.5294468852
 11
152.6956168074
 21
31.4971825369
 12
152.2909293626
 22
31.5294468852
 13
152.2909293626
 23
31.5294468852
  0
SOLID
  8
0
 62
7
  6
CONTINUOUS
 10
152.1753043074
 20
31.4649197951
 11
152.2909293626
 21
31.5294468852
 12
152.6956168074
 22
31.4971825369
 13
152.6956168074
 23
31.4971825369
  0
SOLID
  8
0
 62
7
  6
CONTINUOUS
 10
152.6956168074
 20
31.4971825369
 11
152.4643666972
 21
31.4649197951
 12
152.1753043074
 22
31.4649197951
 13
152.1753043074
 23
31.4649197951
  0
SOLID
  8
0
 62
7
  6
CONTINUOUS
 10
152.6956168074
 20
31.4971825369
 11
153.2737419177
 21
31.5294468852
 12
152.9268669177
 22
31.4649197951
 13
152.9268669177
 23
31.4649197951
  0
SOLID
  8
0
 62
7
  6
CONTINUOUS
 10
153.2737419177
 20
31.5294468852
 11
153.3893668074
 21
31.4649197951
 12
152.9268669177
 22
31.4649197951
 13
152.9268669177
 23
31.4649197951
  0
SOLID
  8
0
 62
7
  6
CONTINUOUS
 10
153.0424918074
 20
31.4326554468
 11
152.9268669177
 21
31.4649197951
 12
153.3893668074
 22
31.4649197951
 13
153.3893668074
 23
31.4649197951
  0
SOLID
  8
0
 62
7
  6
CONTINUOUS
 10
153.3893668074
 20
31.4649197951
 11
153.4471794177
 21
31.4003927049
 12
153.0424918074
 22
31.4326554468
 13
153.0424918074
 23
31.4326554468
  0
SOLID
  8
0
 62
7
  6
CONTINUOUS
 10
153.1581166972
 20
31.3681283566
 11
153.0424918074
 21
31.4326554468
 12
153.4471794177
 22
31.4003927049
 13
153.4471794177
 23
31.4003927049
  0
SOLID
  8
0
 62
7
  6
CONTINUOUS
 10
153.1581166972
 20
31.3681283566
 11
153.4471794177
 21
31.4003927049
 12
153.2159293074
 22
31.2390742213
 13
153.2159293074
 23
31.2390742213
  0
SOLID
  8
0
 62
7
  6
CONTINUOUS
 10
153.4471794177
 20
31.4003927049
 11
153.5049916972
 21
31.2390742213
 12
153.2159293074
 22
31.2390742213
 13
153.2159293074
 23
31.2390742213
  0
SOLID
  8
0
 62
7
  6
CONTINUOUS
 10
152.4643666972
 20
31.4649197951
 11
152.2909293626
 21
31.4003927049
 12
152.1753043074
 22
31.4649197951
 13
152.1753043074
 23
31.4649197951
  0
SOLID
  8
0
 62
7
  6
CONTINUOUS
 10
152.2909293626
 20
31.4003927049
 11
152.1753043074
 21
31.3358640533
 12
152.1753043074
 22
31.4649197951
 13
152.1753043074
 23
31.4649197951
  0
SOLID
  8
0
 62
7
  6
CONTINUOUS
 10
152.1753043074
 20
31.3358640533
 11
151.8862417523
 21
30.5938002869
 12
152.1753043074
 22
31.4649197951
 13
152.1753043074
 23
31.4649197951
  0
SOLID
  8
0
 62
7
  6
CONTINUOUS
 10
152.1753043074
 20
31.4649197951
 11
151.8862417523
 21
30.5938002869
 12
152.1753043074
 22
32.1101937295
 13
152.1753043074
 23
32.1101937295
  0
SOLID
  8
0
 62
7
  6
CONTINUOUS
 10
151.8862417523
 20
30.5938002869
 11
151.8862417523
 21
32.1101937295
 12
152.1753043074
 22
32.1101937295
 13
152.1753043074
 23
32.1101937295
  0
SOLID
  8
0
 62
7
  6
CONTINUOUS
 10
152.1753043074
 20
31.3358640533
 11
152.1753043074
 21
30.5938002869
 12
151.8862417523
 22
30.5938002869
 13
151.8862417523
 23
30.5938002869
  0
SOLID
  8
0
 62
7
  6
CONTINUOUS
 10
153.2159293074
 20
30.5938002869
 11
153.2159293074
 21
31.2390742213
 12
153.5049916972
 22
31.2390742213
 13
153.5049916972
 23
31.2390742213
  0
SOLID
  8
0
 62
7
  6
CONTINUOUS
 10
153.5049916972
 20
31.2390742213
 11
153.5049916972
 21
30.5938002869
 12
153.2159293074
 22
30.5938002869
 13
153.2159293074
 23
30.5938002869
  0
SOLID
  8
0
 62
7
  6
CONTINUOUS
 10
154.2565543074
 20
31.5939738288
 11
154.6612419177
 21
31.6262385959
 12
155.0081169177
 22
31.6262385959
 13
155.0081169177
 23
31.6262385959
  0
SOLID
  8
0
 62
7
  6
CONTINUOUS
 10
155.0081169177
 20
31.6262385959
 11
155.3549915869
 21
31.5939738288
 12
154.2565543074
 22
31.5939738288
 13
154.2565543074
 23
31.5939738288
  0
SOLID
  8
0
 62
7
  6
CONTINUOUS
 10
154.1409294177
 20
31.5617111435
 11
154.2565543074
 21
31.5939738288
 12
155.3549915869
 22
31.5939738288
 13
155.3549915869
 23
31.5939738288
  0
SOLID
  8
0
 62
7
  6
CONTINUOUS
 10
155.3549915869
 20
31.5939738288
 11
155.5284290869
 21
31.5294468402
 12
154.1409294177
 22
31.5617111435
 13
154.1409294177
 23
31.5617111435
  0
SOLID
  8
0
 62
7
  6
CONTINUOUS
 10
154.0253041972
 20
31.4971826249
 11
154.1409294177
 21
31.5617111435
 12
155.5284290869
 22
31.5294468402
 13
155.5284290869
 23
31.5294468402
  0
SOLID
  8
0
 62
7
  6
CONTINUOUS
 10
154.0253041972
 20
31.4971826249
 11
155.5284290869
 21
31.5294468402
 12
154.6612419177
 22
31.4971826249
 13
154.6612419177
 23
31.4971826249
  0
SOLID
  8
0
 62
7
  6
CONTINUOUS
 10
154.6612419177
 20
31.4971826249
 11
155.5284290869
 21
31.5294468402
 12
155.0081169177
 22
31.4971826249
 13
155.0081169177
 23
31.4971826249
  0
SOLID
  8
0
 62
7
  6
CONTINUOUS
 10
155.0081169177
 20
31.4971826249
 11
155.5284290869
 21
31.5294468402
 12
155.239367028
 22
31.4649194065
 13
155.239367028
 23
31.4649194065
  0
SOLID
  8
0
 62
7
  6
CONTINUOUS
 10
155.5284290869
 20
31.5294468402
 11
155.6440543074
 21
31.4649194065
 12
155.239367028
 22
31.4649194065
 13
155.239367028
 23
31.4649194065
  0
SOLID
  8
0
 62
7
  6
CONTINUOUS
 10
153.9674919177
 20
31.4326554138
 11
154.0253041972
 21
31.4971826249
 12
154.6612419177
 22
31.4971826249
 13
154.6612419177
 23
31.4971826249
  0
SOLID
  8
0
 62
7
  6
CONTINUOUS
 10
155.3549915869
 20
31.4326554138
 11
155.239367028
 21
31.4649194065
 12
155.6440543074
 22
31.4649194065
 13
155.6440543074
 23
31.4649194065
  0
SOLID
  8
0
 62
7
  6
CONTINUOUS
 10
155.3549915869
 20
31.4326554138
 11
155.6440543074
 21
31.4649194065
 12
155.412804528
 22
31.3681282026
 13
155.412804528
 23
31.3681282026
  0
SOLID
  8
0
 62
7
  6
CONTINUOUS
 10
155.6440543074
 20
31.4649194065
 11
155.7018665869
 21
31.3681282026
 12
155.412804528
 22
31.3681282026
 13
155.412804528
 23
31.3681282026
  0
SOLID
  8
0
 62
7
  6
CONTINUOUS
 10
155.412804528
 20
31.2713369632
 11
155.412804528
 21
31.3681282026
 12
155.7018665869
 22
31.3681282026
 13
155.7018665869
 23
31.3681282026
  0
SOLID
  8
0
 62
7
  6
CONTINUOUS
 10
155.412804528
 20
31.2713369632
 11
155.7018665869
 21
31.3681282026
 12
155.412804528
 22
31.1422827828
 13
155.412804528
 23
31.1422827828
  0
SOLID
  8
0
 62
7
  6
CONTINUOUS
 10
155.412804528
 20
31.1422827828
 11
155.7018665869
 21
31.3681282026
 12
155.412804528
 22
30.9487004259
 13
155.412804528
 23
30.9487004259
  0
SOLID
  8
0
 62
7
  6
CONTINUOUS
 10
155.7018665869
 20
31.3681282026
 11
155.7018665869
 21
30.8519086025
 12
155.412804528
 22
30.9487004259
 13
155.412804528
 23
30.9487004259
  0
SOLID
  8
0
 62
7
  6
CONTINUOUS
 10
157.6096790869
 20
31.5939736268
 11
157.840929528
 21
31.6262383465
 12
158.0721793074
 22
31.6262383465
 13
158.0721793074
 23
31.6262383465
  0
SOLID
  8
0
 62
7
  6
CONTINUOUS
 10
158.0721793074
 20
31.6262383465
 11
158.2456168074
 21
31.5939736268
 12
157.6096790869
 22
31.5939736268
 13
157.6096790869
 23
31.5939736268
  0
SOLID
  8
0
 62
7
  6
CONTINUOUS
 10
157.4362415869
 20
31.5294472848
 11
157.6096790869
 21
31.5939736268
 12
158.2456168074
 22
31.5939736268
 13
158.2456168074
 23
31.5939736268
  0
SOLID
  8
0
 62
7
  6
CONTINUOUS
 10
158.2456168074
 20
31.5939736268
 11
158.4190543074
 21
31.5294472848
 12
157.4362415869
 22
31.5294472848
 13
157.4362415869
 23
31.5294472848
  0
SOLID
  8
0
 62
7
  6
CONTINUOUS
 10
158.4190543074
 20
31.5294472848
 11
157.840929528
 21
31.4971825369
 12
157.4362415869
 22
31.5294472848
 13
157.4362415869
 23
31.5294472848
  0
SOLID
  8
0
 62
7
  6
CONTINUOUS
 10
157.320617028
 20
31.4649199103
 11
157.4362415869
 21
31.5294472848
 12
157.840929528
 22
31.4971825369
 13
157.840929528
 23
31.4971825369
  0
SOLID
  8
0
 62
7
  6
CONTINUOUS
 10
157.840929528
 20
31.4971825369
 11
157.6096790869
 21
31.4649199103
 12
157.320617028
 22
31.4649199103
 13
157.320617028
 23
31.4649199103
  0
SOLID
  8
0
 62
7
  6
CONTINUOUS
 10
157.840929528
 20
31.4971825369
 11
158.4190543074
 21
31.5294472848
 12
158.0721793074
 22
31.4649199103
 13
158.0721793074
 23
31.4649199103
  0
SOLID
  8
0
 62
7
  6
CONTINUOUS
 10
158.4190543074
 20
31.5294472848
 11
158.534679528
 21
31.4649199103
 12
158.0721793074
 22
31.4649199103
 13
158.0721793074
 23
31.4649199103
  0
SOLID
  8
0
 62
7
  6
CONTINUOUS
 10
158.187804528
 20
31.4326554468
 11
158.0721793074
 21
31.4649199103
 12
158.534679528
 22
31.4649199103
 13
158.534679528
 23
31.4649199103
  0
SOLID
  8
0
 62
7
  6
CONTINUOUS
 10
158.187804528
 20
31.4326554468
 11
158.534679528
 21
31.4649199103
 12
158.3034290869
 22
31.3681288486
 13
158.3034290869
 23
31.3681288486
  0
SOLID
  8
0
 62
7
  6
CONTINUOUS
 10
158.534679528
 20
31.4649199103
 11
158.5924918074
 21
31.3681288486
 12
158.3034290869
 22
31.3681288486
 13
158.3034290869
 23
31.3681288486
  0
SOLID
  8
0
 62
7
  6
CONTINUOUS
 10
158.361242028
 20
31.2068093799
 11
158.3034290869
 21
31.3681288486
 12
158.5924918074
 22
31.3681288486
 13
158.5924918074
 23
31.3681288486
  0
SOLID
  8
0
 62
7
  6
CONTINUOUS
 10
158.5924918074
 20
31.3681288486
 11
158.6503040869
 21
31.2068093799
 12
158.361242028
 22
31.2068093799
 13
158.361242028
 23
31.2068093799
  0
SOLID
  8
0
 62
7
  6
CONTINUOUS
 10
157.6096790869
 20
31.4649199103
 11
157.4362415869
 21
31.4003926599
 12
157.320617028
 22
31.4649199103
 13
157.320617028
 23
31.4649199103
  0
SOLID
  8
0
 62
7
  6
CONTINUOUS
 10
157.4362415869
 20
31.4003926599
 11
157.320617028
 21
31.3358640533
 12
157.320617028
 22
31.4649199103
 13
157.320617028
 23
31.4649199103
  0
SOLID
  8
0
 62
7
  6
CONTINUOUS
 10
157.320617028
 20
31.3358640533
 11
157.0315543074
 21
30.5938003547
 12
157.320617028
 22
31.4649199103
 13
157.320617028
 23
31.4649199103
  0
SOLID
  8
0
 62
7
  6
CONTINUOUS
 10
157.320617028
 20
31.4649199103
 11
157.0315543074
 21
30.5938003547
 12
157.320617028
 22
31.6262383465
 13
157.320617028
 23
31.6262383465
  0
SOLID
  8
0
 62
7
  6
CONTINUOUS
 10
157.0315543074
 20
30.5938003547
 11
157.0315543074
 21
31.6262383465
 12
157.320617028
 22
31.6262383465
 13
157.320617028
 23
31.6262383465
  0
SOLID
  8
0
 62
7
  6
CONTINUOUS
 10
157.320617028
 20
31.3358640533
 11
157.320617028
 21
30.5938003547
 12
157.0315543074
 22
30.5938003547
 13
157.0315543074
 23
30.5938003547
  0
SOLID
  8
0
 62
7
  6
CONTINUOUS
 10
158.361242028
 20
30.5938003547
 11
158.361242028
 21
31.2068093799
 12
158.6503040869
 22
31.2068093799
 13
158.6503040869
 23
31.2068093799
  0
SOLID
  8
0
 62
7
  6
CONTINUOUS
 10
158.6503040869
 20
31.2068093799
 11
158.6503040869
 21
30.5938003547
 12
158.361242028
 22
30.5938003547
 13
158.361242028
 23
30.5938003547
  0
SOLID
  8
0
 62
7
  6
CONTINUOUS
 10
159.4596793074
 20
31.5939739474
 11
159.8065543074
 21
31.6262381969
 12
160.1534293074
 22
31.6262381969
 13
160.1534293074
 23
31.6262381969
  0
SOLID
  8
0
 62
7
  6
CONTINUOUS
 10
160.1534293074
 20
31.6262381969
 11
160.5003043074
 21
31.5939739474
 12
159.4596793074
 22
31.5939739474
 13
159.4596793074
 23
31.5939739474
  0
SOLID
  8
0
 62
7
  6
CONTINUOUS
 10
159.228429528
 20
31.5294468402
 11
159.4596793074
 21
31.5939739474
 12
160.5003043074
 22
31.5939739474
 13
160.5003043074
 23
31.5939739474
  0
SOLID
  8
0
 62
7
  6
CONTINUOUS
 10
159.228429528
 20
31.5294468402
 11
160.5003043074
 21
31.5939739304
 12
160.6737418074
 22
31.5617111435
 13
160.6737418074
 23
31.5617111435
  0
SOLID
  8
0
 62
7
  6
CONTINUOUS
 10
159.228429528
 20
31.5294468402
 11
160.6737418074
 21
31.5617111435
 12
159.8065543074
 22
31.4971825592
 13
159.8065543074
 23
31.4971825592
  0
SOLID
  8
0
 62
7
  6
CONTINUOUS
 10
159.8065543074
 20
31.4971825592
 11
160.6737418074
 21
31.5617111435
 12
160.1534293074
 22
31.4971825592
 13
160.1534293074
 23
31.4971825592
  0
SOLID
  8
0
 62
7
  6
CONTINUOUS
 10
160.6737418074
 20
31.5617111435
 11
160.8471793074
 21
31.4971825592
 12
160.1534293074
 22
31.4971825592
 13
160.1534293074
 23
31.4971825592
  0
SOLID
  8
0
 62
7
  6
CONTINUOUS
 10
160.5003043074
 20
31.4649197501
 11
160.1534293074
 21
31.4971825592
 12
160.8471793074
 22
31.4971825592
 13
160.8471793074
 23
31.4971825592
  0
SOLID
  8
0
 62
7
  6
CONTINUOUS
 10
159.1128043074
 20
31.4326555427
 11
159.228429528
 21
31.5294468402
 12
159.8065543074
 22
31.4971825592
 13
159.8065543074
 23
31.4971825592
  0
SOLID
  8
0
 62
7
  6
CONTINUOUS
 10
160.5003043074
 20
31.4649197501
 11
160.8471793074
 21
31.4971825592
 12
160.615929528
 22
31.4326555427
 13
160.615929528
 23
31.4326555427
  0
SOLID
  8
0
 62
7
  6
CONTINUOUS
 10
160.615929528
 20
31.4326555427
 11
160.8471793074
 21
31.4971825592
 12
160.6737418074
 22
31.3681283005
 13
160.6737418074
 23
31.3681283005
  0
SOLID
  8
0
 62
7
  6
CONTINUOUS
 10
160.8471793074
 20
31.4971825592
 11
160.9628038663
 21
31.3681283005
 12
160.6737418074
 22
31.3681283005
 13
160.6737418074
 23
31.3681283005
  0
SOLID
  8
0
 62
7
  6
CONTINUOUS
 10
150.2674918074
 20
31.4649197501
 11
149.7471793074
 21
31.4326554237
 12
150.498741835
 22
31.4971824493
 13
150.498741835
 23
31.4971824493
  0
SOLID
  8
0
 62
7
  6
CONTINUOUS
 10
149.7471793074
 20
31.4326554237
 11
149.8628043005
 21
31.4971824493
 12
150.498741835
 22
31.4971824493
 13
150.498741835
 23
31.4971824493
  0
SOLID
  8
0
 62
7
  6
CONTINUOUS
 10
150.2674918074
 20
31.4649197501
 11
150.1518667936
 21
31.4326554237
 12
149.7471793074
 22
31.4326554237
 13
149.7471793074
 23
31.4326554237
  0
SOLID
  8
0
 62
7
  6
CONTINUOUS
 10
149.6315543091
 20
31.3036012664
 11
149.7471793074
 21
31.4326554237
 12
150.1518667936
 22
31.4326554237
 13
150.1518667936
 23
31.4326554237
  0
SOLID
  8
0
 62
7
  6
CONTINUOUS
 10
153.9674919177
 20
31.4326554237
 11
154.6612419177
 21
31.4971825369
 12
154.4299918074
 22
31.4649197501
 13
154.4299918074
 23
31.4649197501
  0
SOLID
  8
0
 62
7
  6
CONTINUOUS
 10
154.4299918074
 20
31.4649197501
 11
154.3143669177
 21
31.4326554237
 12
153.9674919177
 22
31.4326554237
 13
153.9674919177
 23
31.4326554237
  0
SOLID
  8
0
 62
7
  6
CONTINUOUS
 10
153.9674919177
 20
31.3681283335
 11
153.9674919177
 21
31.4326554237
 12
154.3143669177
 22
31.4326554237
 13
154.3143669177
 23
31.4326554237
  0
SOLID
  8
0
 62
7
  6
CONTINUOUS
 10
154.3143669177
 20
31.4326554237
 11
154.2565543074
 21
31.3681283335
 12
153.9674919177
 22
31.3681283335
 13
153.9674919177
 23
31.3681283335
  0
SOLID
  8
0
 62
7
  6
CONTINUOUS
 10
159.1128043074
 20
31.4326555528
 11
159.8065543074
 21
31.4971825369
 12
159.575304528
 22
31.4649197501
 13
159.575304528
 23
31.4649197501
  0
SOLID
  8
0
 62
7
  6
CONTINUOUS
 10
159.575304528
 20
31.4649197501
 11
159.4596793074
 21
31.4326555528
 12
159.1128043074
 22
31.4326555528
 13
159.1128043074
 23
31.4326555528
  0
SOLID
  8
0
 62
7
  6
CONTINUOUS
 10
159.1128043074
 20
31.3681284626
 11
159.1128043074
 21
31.4326555528
 12
159.4596793074
 22
31.4326555528
 13
159.4596793074
 23
31.4326555528
  0
SOLID
  8
0
 62
7
  6
CONTINUOUS
 10
159.4596793074
 20
31.4326555528
 11
159.401867028
 21
31.3681284626
 12
159.1128043074
 22
31.3681284626
 13
159.1128043074
 23
31.3681284626
  0
SOLID
  8
0
 62
7
  6
CONTINUOUS
 10
159.228429528
 20
31.2390741763
 11
159.1128043074
 21
31.3681284626
 12
159.401867028
 22
31.3681284626
 13
159.401867028
 23
31.3681284626
  0
SOLID
  8
0
 62
7
  6
CONTINUOUS
 10
149.6315543091
 20
31.3036012664
 11
150.1518667936
 21
31.4326554468
 12
149.9784292936
 22
31.3358640533
 13
149.9784292936
 23
31.3358640533
  0
SOLID
  8
0
 62
7
  6
CONTINUOUS
 10
149.9784292936
 20
31.3358640533
 11
149.9206168074
 21
31.2713369632
 12
149.6315543091
 22
31.3036012664
 13
149.6315543091
 23
31.3036012664
  0
SOLID
  8
0
 62
7
  6
CONTINUOUS
 10
149.5737418074
 20
31.1100184796
 11
149.6315543091
 21
31.3036012664
 12
149.9206168074
 22
31.2713369632
 13
149.9206168074
 23
31.2713369632
  0
SOLID
  8
0
 62
7
  6
CONTINUOUS
 10
154.4299918074
 20
31.2390741763
 11
154.7768668074
 21
31.271336924
 12
155.412804528
 22
31.271336924
 13
155.412804528
 23
31.271336924
  0
SOLID
  8
0
 62
7
  6
CONTINUOUS
 10
154.4299918074
 20
31.2390741763
 11
155.412804528
 21
31.271336924
 12
154.1987416972
 22
31.1745462761
 13
154.1987416972
 23
31.1745462761
  0
SOLID
  8
0
 62
7
  6
CONTINUOUS
 10
154.1987416972
 20
31.1745462761
 11
155.412804528
 21
31.271336924
 12
154.7768668074
 22
31.1422827436
 13
154.7768668074
 23
31.1422827436
  0
SOLID
  8
0
 62
7
  6
CONTINUOUS
 10
155.412804528
 20
31.271336924
 11
155.412804528
 21
31.1422827436
 12
154.7768668074
 22
31.1422827436
 13
154.7768668074
 23
31.1422827436
  0
SOLID
  8
0
 62
7
  6
CONTINUOUS
 10
159.228429528
 20
31.2390745501
 11
159.401867028
 21
31.3681283566
 12
159.4596793074
 22
31.3036012664
 13
159.4596793074
 23
31.3036012664
  0
SOLID
  8
0
 62
7
  6
CONTINUOUS
 10
159.4596793074
 20
31.3036012664
 11
159.6331168074
 21
31.2390745501
 12
159.228429528
 22
31.2390745501
 13
159.228429528
 23
31.2390745501
  0
SOLID
  8
0
 62
7
  6
CONTINUOUS
 10
159.4596793074
 20
31.1422827828
 11
159.228429528
 21
31.2390745501
 12
159.6331168074
 22
31.2390745501
 13
159.6331168074
 23
31.2390745501
  0
SOLID
  8
0
 62
7
  6
CONTINUOUS
 10
159.6331168074
 20
31.2390745501
 11
160.615929528
 21
31.0777556927
 12
159.4596793074
 22
31.1422827828
 13
159.4596793074
 23
31.1422827828
  0
SOLID
  8
0
 62
7
  6
CONTINUOUS
 10
160.442492028
 20
30.9809646623
 11
159.4596793074
 21
31.1422827828
 12
160.615929528
 22
31.0777556927
 13
160.615929528
 23
31.0777556927
  0
SOLID
  8
0
 62
7
  6
CONTINUOUS
 10
160.615929528
 20
31.0777556927
 11
160.8471793074
 21
30.9809646623
 12
160.442492028
 22
30.9809646623
 13
160.442492028
 23
30.9809646623
  0
SOLID
  8
0
 62
7
  6
CONTINUOUS
 10
160.615929528
 20
30.9164372091
 11
160.442492028
 21
30.9809646623
 12
160.8471793074
 22
30.9809646623
 13
160.8471793074
 23
30.9809646623
  0
SOLID
  8
0
 62
7
  6
CONTINUOUS
 10
160.615929528
 20
30.9164372091
 11
160.8471793074
 21
30.9809646623
 12
160.6737418074
 22
30.8519089441
 13
160.6737418074
 23
30.8519089441
  0
SOLID
  8
0
 62
7
  6
CONTINUOUS
 10
160.8471793074
 20
30.9809646623
 11
160.9628038663
 21
30.8519089441
 12
160.6737418074
 22
30.8519089441
 13
160.6737418074
 23
30.8519089441
  0
SOLID
  8
0
 62
7
  6
CONTINUOUS
 10
160.615929528
 20
30.7873818593
 11
160.6737418074
 21
30.8519089441
 12
160.9628038663
 22
30.8519089441
 13
160.9628038663
 23
30.8519089441
  0
SOLID
  8
0
 62
7
  6
CONTINUOUS
 10
160.9628038663
 20
30.8519089441
 11
160.9628038663
 21
30.7873818593
 12
160.615929528
 22
30.7873818593
 13
160.615929528
 23
30.7873818593
  0
SOLID
  8
0
 62
7
  6
CONTINUOUS
 10
160.5003043074
 20
30.7551187255
 11
160.615929528
 21
30.7873818593
 12
160.9628038663
 22
30.7873818593
 13
160.9628038663
 23
30.7873818593
  0
SOLID
  8
0
 62
7
  6
CONTINUOUS
 10
160.5003043074
 20
30.7551187255
 11
160.9628038663
 21
30.7873818593
 12
160.269054528
 22
30.7228547745
 13
160.269054528
 23
30.7228547745
  0
SOLID
  8
0
 62
7
  6
CONTINUOUS
 10
160.9628038663
 20
30.7873818593
 11
160.8471793074
 21
30.6905916353
 12
160.269054528
 22
30.7228547745
 13
160.269054528
 23
30.7228547745
  0
SOLID
  8
0
 62
7
  6
CONTINUOUS
 10
160.8471793074
 20
30.6905916353
 11
159.401867028
 21
30.658327332
 12
160.269054528
 22
30.7228547745
 13
160.269054528
 23
30.7228547745
  0
SOLID
  8
0
 62
7
  6
CONTINUOUS
 10
160.269054528
 20
30.7228547745
 11
159.401867028
 21
30.658327332
 12
159.922179528
 22
30.7228547745
 13
159.922179528
 23
30.7228547745
  0
SOLID
  8
0
 62
7
  6
CONTINUOUS
 10
159.401867028
 20
30.658327332
 11
159.228429528
 21
30.7228547745
 12
159.922179528
 22
30.7228547745
 13
159.922179528
 23
30.7228547745
  0
SOLID
  8
0
 62
7
  6
CONTINUOUS
 10
159.401867028
 20
30.658327332
 11
160.8471793074
 21
30.6905916353
 12
159.575304528
 22
30.6260629858
 13
159.575304528
 23
30.6260629858
  0
SOLID
  8
0
 62
7
  6
CONTINUOUS
 10
160.8471793074
 20
30.6905916353
 11
160.615929528
 21
30.6260629858
 12
159.575304528
 22
30.6260629858
 13
159.575304528
 23
30.6260629858
  0
SOLID
  8
0
 62
7
  6
CONTINUOUS
 10
159.922179528
 20
30.5938006049
 11
159.575304528
 21
30.6260629858
 12
160.615929528
 22
30.6260629858
 13
160.615929528
 23
30.6260629858
  0
SOLID
  8
0
 62
7
  6
CONTINUOUS
 10
160.615929528
 20
30.6260629858
 11
160.269054528
 21
30.5938006049
 12
159.922179528
 22
30.5938006049
 13
159.922179528
 23
30.5938006049
  0
SOLID
  8
0
 62
7
  6
CONTINUOUS
 10
149.5737418074
 20
31.1100184796
 11
149.9206168074
 21
31.2713369632
 12
149.8628043005
 22
31.1422827828
 13
149.8628043005
 23
31.1422827828
  0
SOLID
  8
0
 62
7
  6
CONTINUOUS
 10
149.8628043005
 20
31.1422827828
 11
149.8628043005
 21
31.0454914852
 12
149.5737418074
 22
31.1100184796
 13
149.5737418074
 23
31.1100184796
  0
SOLID
  8
0
 62
7
  6
CONTINUOUS
 10
149.6315543091
 20
30.9164372091
 11
149.5737418074
 21
31.1100184796
 12
149.8628043005
 22
31.0454914852
 13
149.8628043005
 23
31.0454914852
  0
SOLID
  8
0
 62
7
  6
CONTINUOUS
 10
149.8628043005
 20
31.0454914852
 11
149.9784292936
 21
30.8841729058
 12
149.6315543091
 22
30.9164372091
 13
149.6315543091
 23
30.9164372091
  0
SOLID
  8
0
 62
7
  6
CONTINUOUS
 10
149.7471793074
 20
30.7873813202
 11
149.6315543091
 21
30.9164372091
 12
149.9784292936
 22
30.8841729058
 13
149.9784292936
 23
30.8841729058
  0
SOLID
  8
0
 62
7
  6
CONTINUOUS
 10
149.9784292936
 20
30.8841729058
 11
150.1518667936
 21
30.7873813202
 12
149.7471793074
 22
30.7873813202
 13
149.7471793074
 23
30.7873813202
  0
SOLID
  8
0
 62
7
  6
CONTINUOUS
 10
149.8628043005
 20
30.7228547004
 11
149.7471793074
 21
30.7873813202
 12
150.1518667936
 22
30.7873813202
 13
150.1518667936
 23
30.7873813202
  0
SOLID
  8
0
 62
7
  6
CONTINUOUS
 10
150.1518667936
 20
30.7873813202
 11
150.498741835
 21
30.7228547004
 12
149.8628043005
 22
30.7228547004
 13
149.8628043005
 23
30.7228547004
  0
SOLID
  8
0
 62
7
  6
CONTINUOUS
 10
150.0362418212
 20
30.658327332
 11
149.8628043005
 21
30.7228547004
 12
150.498741835
 22
30.7228547004
 13
150.498741835
 23
30.7228547004
  0
SOLID
  8
0
 62
7
  6
CONTINUOUS
 10
154.0831168074
 20
31.1100184386
 11
154.1987416972
 21
31.1745462761
 12
154.7768668074
 22
31.1422827828
 13
154.7768668074
 23
31.1422827828
  0
SOLID
  8
0
 62
7
  6
CONTINUOUS
 10
154.7768668074
 20
31.1422827828
 11
154.5456166972
 21
31.1100184386
 12
154.0831168074
 22
31.1100184386
 13
154.0831168074
 23
31.1100184386
  0
SOLID
  8
0
 62
7
  6
CONTINUOUS
 10
153.9674919177
 20
30.9809642992
 11
154.0831168074
 21
31.1100184386
 12
154.5456166972
 22
31.1100184386
 13
154.5456166972
 23
31.1100184386
  0
SOLID
  8
0
 62
7
  6
CONTINUOUS
 10
154.3143669177
 20
31.0132277988
 11
153.9674919177
 21
30.9809642992
 12
154.4299918074
 22
31.0777556927
 13
154.4299918074
 23
31.0777556927
  0
SOLID
  8
0
 62
7
  6
CONTINUOUS
 10
153.9674919177
 20
30.9809642992
 11
154.5456166972
 21
31.1100184796
 12
154.4299918074
 22
31.0777556927
 13
154.4299918074
 23
31.0777556927
  0
SOLID
  8
0
 62
7
  6
CONTINUOUS
 10
154.3143669177
 20
31.0132277988
 11
154.2565543074
 21
30.9164372091
 12
153.9674919177
 22
30.9809642992
 13
153.9674919177
 23
30.9809642992
  0
SOLID
  8
0
 62
7
  6
CONTINUOUS
 10
153.9674919177
 20
30.8841729058
 11
153.9674919177
 21
30.9809642992
 12
154.2565543074
 22
30.9164372091
 13
154.2565543074
 23
30.9164372091
  0
SOLID
  8
0
 62
7
  6
CONTINUOUS
 10
154.2565543074
 20
30.9164372091
 11
154.2565543074
 21
30.8519086025
 12
153.9674919177
 22
30.8841729058
 13
153.9674919177
 23
30.8841729058
  0
SOLID
  8
0
 62
7
  6
CONTINUOUS
 10
154.0253041972
 20
30.7551187255
 11
153.9674919177
 21
30.8841729058
 12
154.2565543074
 22
30.8519086025
 13
154.2565543074
 23
30.8519086025
  0
SOLID
  8
0
 62
7
  6
CONTINUOUS
 10
155.412804528
 20
30.9487004259
 11
155.7018665869
 21
30.8519086025
 12
155.3549915869
 22
30.8841729058
 13
155.3549915869
 23
30.8841729058
  0
SOLID
  8
0
 62
7
  6
CONTINUOUS
 10
155.1815540869
 20
30.7873815123
 11
155.3549915869
 21
30.8841729058
 12
155.7018665869
 22
30.8519086025
 13
155.7018665869
 23
30.8519086025
  0
SOLID
  8
0
 62
7
  6
CONTINUOUS
 10
155.1815540869
 20
30.7873815123
 11
155.7018665869
 21
30.8519086025
 12
155.412804528
 22
30.7551187255
 13
155.412804528
 23
30.7551187255
  0
SOLID
  8
0
 62
7
  6
CONTINUOUS
 10
155.7018665869
 20
30.8519086025
 11
155.759679528
 21
30.6905916353
 12
155.412804528
 22
30.7551187255
 13
155.412804528
 23
30.7551187255
  0
SOLID
  8
0
 62
7
  6
CONTINUOUS
 10
155.4706168074
 20
30.658327332
 11
155.412804528
 21
30.7551187255
 12
155.759679528
 22
30.6905916353
 13
155.759679528
 23
30.6905916353
  0
SOLID
  8
0
 62
7
  6
CONTINUOUS
 10
155.4706168074
 20
30.658327332
 11
155.759679528
 21
30.6905916353
 12
155.5284290869
 22
30.5938002079
 13
155.5284290869
 23
30.5938002079
  0
SOLID
  8
0
 62
7
  6
CONTINUOUS
 10
155.759679528
 20
30.6905916353
 11
155.8174918074
 21
30.5938002079
 12
155.5284290869
 22
30.5938002079
 13
155.5284290869
 23
30.5938002079
  0
SOLID
  8
0
 62
7
  6
CONTINUOUS
 10
151.0768668626
 20
30.8196456577
 11
151.1346793074
 21
30.9164373395
 12
151.4237418626
 22
30.9164373395
 13
151.4237418626
 23
30.9164373395
  0
SOLID
  8
0
 62
7
  6
CONTINUOUS
 10
151.4237418626
 20
30.9164373395
 11
151.3659292523
 21
30.7873815123
 12
151.0768668626
 22
30.8196456577
 13
151.0768668626
 23
30.8196456577
  0
SOLID
  8
0
 62
7
  6
CONTINUOUS
 10
150.9034292799
 20
30.7551187255
 11
151.0768668626
 21
30.8196456577
 12
151.3659292523
 22
30.7873815123
 13
151.3659292523
 23
30.7873815123
  0
SOLID
  8
0
 62
7
  6
CONTINUOUS
 10
150.9034292799
 20
30.7551187255
 11
151.3659292523
 21
30.7873815123
 12
150.498741835
 22
30.7228544222
 13
150.498741835
 23
30.7228544222
  0
SOLID
  8
0
 62
7
  6
CONTINUOUS
 10
151.3659292523
 20
30.7873815123
 11
151.1924917523
 21
30.6905916353
 12
150.498741835
 22
30.7228544222
 13
150.498741835
 23
30.7228544222
  0
SOLID
  8
0
 62
7
  6
CONTINUOUS
 10
150.0362418212
 20
30.658327332
 11
150.498741835
 21
30.7228544222
 12
151.1924917523
 22
30.6905916353
 13
151.1924917523
 23
30.6905916353
  0
SOLID
  8
0
 62
7
  6
CONTINUOUS
 10
150.0362418212
 20
30.658327332
 11
151.1924917523
 21
30.6905916353
 12
150.2096793212
 22
30.6260631011
 13
150.2096793212
 23
30.6260631011
  0
SOLID
  8
0
 62
7
  6
CONTINUOUS
 10
151.1924917523
 20
30.6905916353
 11
150.9612418074
 21
30.6260631011
 12
150.2096793212
 22
30.6260631011
 13
150.2096793212
 23
30.6260631011
  0
SOLID
  8
0
 62
7
  6
CONTINUOUS
 10
150.5565542799
 20
30.5938002419
 11
150.2096793212
 21
30.6260631011
 12
150.9612418074
 22
30.6260631011
 13
150.9612418074
 23
30.6260631011
  0
SOLID
  8
0
 62
7
  6
CONTINUOUS
 10
154.0253041972
 20
30.7551187255
 11
154.2565543074
 21
30.8519086025
 12
154.3143669177
 22
30.7873815123
 13
154.3143669177
 23
30.7873815123
  0
SOLID
  8
0
 62
7
  6
CONTINUOUS
 10
154.3143669177
 20
30.7873815123
 11
154.5456166972
 21
30.7228544222
 12
154.0253041972
 22
30.7551187255
 13
154.0253041972
 23
30.7551187255
  0
SOLID
  8
0
 62
7
  6
CONTINUOUS
 10
154.1987416972
 20
30.658327332
 11
154.0253041972
 21
30.7551187255
 12
154.5456166972
 22
30.7228544222
 13
154.5456166972
 23
30.7228544222
  0
SOLID
  8
0
 62
7
  6
CONTINUOUS
 10
154.8924916972
 20
30.7228544637
 11
155.1815540869
 21
30.7873815123
 12
155.412804528
 22
30.7551187255
 13
155.412804528
 23
30.7551187255
  0
SOLID
  8
0
 62
7
  6
CONTINUOUS
 10
155.412804528
 20
30.7551187255
 11
155.3549915869
 21
30.6905916353
 12
154.8924916972
 22
30.7228544637
 13
154.8924916972
 23
30.7228544637
  0
SOLID
  8
0
 62
7
  6
CONTINUOUS
 10
155.3549915869
 20
30.6905916353
 11
154.1987416972
 21
30.658327332
 12
154.8924916972
 22
30.7228544637
 13
154.8924916972
 23
30.7228544637
  0
SOLID
  8
0
 62
7
  6
CONTINUOUS
 10
154.1987416972
 20
30.658327332
 11
154.5456166972
 21
30.7228544637
 12
154.8924916972
 22
30.7228544637
 13
154.8924916972
 23
30.7228544637
  0
SOLID
  8
0
 62
7
  6
CONTINUOUS
 10
154.1987416972
 20
30.658327332
 11
155.3549915869
 21
30.6905916353
 12
154.3143669177
 22
30.6260630541
 13
154.3143669177
 23
30.6260630541
  0
SOLID
  8
0
 62
7
  6
CONTINUOUS
 10
155.3549915869
 20
30.6905916353
 11
155.1815540869
 21
30.6260630541
 12
154.3143669177
 22
30.6260630541
 13
154.3143669177
 23
30.6260630541
  0
SOLID
  8
0
 62
7
  6
CONTINUOUS
 10
154.5456166972
 20
30.5938002188
 11
154.3143669177
 21
30.6260630541
 12
155.1815540869
 22
30.6260630541
 13
155.1815540869
 23
30.6260630541
  0
SOLID
  8
0
 62
7
  6
CONTINUOUS
 10
155.1815540869
 20
30.6260630541
 11
154.8924916972
 21
30.5938002188
 12
154.5456166972
 22
30.5938002188
 13
154.5456166972
 23
30.5938002188
  0
SOLID
  8
0
 62
7
  6
CONTINUOUS
 10
159.575304528
 20
30.7551187255
 11
159.228429528
 21
30.7228544637
 12
159.4596793074
 22
30.7873815123
 13
159.4596793074
 23
30.7873815123
  0
SOLID
  8
0
 62
7
  6
CONTINUOUS
 10
159.4596793074
 20
30.7873815123
 11
159.228429528
 21
30.7228544637
 12
159.401867028
 22
30.851908644
 13
159.401867028
 23
30.851908644
  0
SOLID
  8
0
 62
7
  6
CONTINUOUS
 10
159.228429528
 20
30.7228544637
 11
159.1128043074
 21
30.851908644
 12
159.401867028
 22
30.851908644
 13
159.401867028
 23
30.851908644
  0
SOLID
  8
0
 62
7
  6
CONTINUOUS
 10
159.575304528
 20
30.7551187255
 11
159.922179528
 21
30.7228544637
 12
159.228429528
 22
30.7228544637
 13
159.228429528
 23
30.7228544637
  0
SOLID
  8
0
 62
7
  6
CONTINUOUS
 10
156.279992028
 20
30.5938002419
 11
156.279992028
 21
31.6262382337
 12
156.5690540869
 22
30.5938002419
 13
156.5690540869
 23
31.6262382337
  0
ENDBLK
  8
0
  6
BYBLOCK
 62
0
  0
BLOCK
  8
0
 62
2
  6
CONTINUOUS
  2
SYMBOL_3_BL0
 70
64
 10
32.1213064866
 20
19.8534310916
  0
TEXT
  8
0
 62
7
  6
CONTINUOUS
 10
18.3860103289
 20
19.2268451992
  7
TEXTSTYLE_3
 40
2.7338706658
  1
Ammeraal Beltech
 41
1.0
 51
15.0
 72
0
  0
TEXT
  8
0
 62
7
  6
CONTINUOUS
 10
29.1868111546
 20
16.9533085264
  7
TEXTSTYLE_4
 40
1.0935482663
  1
Innovation & Service in Belting
 41
1.0
 72
0
  0
LINE
  8
0
 62
7
  6
CONTINUOUS
 10
12.3614696776
 20
19.9934385078
 11
13.1396216709
 21
23.6543558055
  0
LINE
  8
0
 62
7
  6
CONTINUOUS
 10
23.2347899607
 20
27.3177497171
 11
13.6274394139
 21
24.1961322958
  0
LINE
  8
0
 62
7
  6
CONTINUOUS
 10
12.5867530099
 20
19.3000877048
 11
20.093828271
 21
12.5406867788
  0
LINE
  8
0
 62
7
  6
CONTINUOUS
 10
12.8492874206
 20
20.5352149982
 11
23.6575567857
 21
24.0470345971
  0
LINE
  8
0
 62
7
  6
CONTINUOUS
 10
23.6533516486
 20
13.6972460334
 11
15.2078919798
 21
21.3015720751
  0
LINE
  8
0
 62
7
  6
CONTINUOUS
 10
24.1731743684
 20
26.4728246013
 11
23.1966148312
 21
21.8784731989
  0
LINE
  8
0
 62
7
  6
CONTINUOUS
 10
22.4968128835
 20
18.5861638851
 11
21.810364672
 21
15.3566789607
  0
LINE
  8
0
 62
7
  6
CONTINUOUS
 10
24.8542704669
 20
14.087448211
 11
25.8105020025
 21
18.5861638851
  0
LINE
  8
0
 62
7
  6
CONTINUOUS
 10
26.5103039502
 20
21.8784731989
 11
26.9545457526
 21
23.9684665583
  0
LINE
  8
0
 62
7
  6
CONTINUOUS
 10
20.8069293463
 20
12.3891124661
 11
24.3664527239
 21
13.5456717207
  0
LINE
  8
0
 62
7
  6
CONTINUOUS
 10
23.9478910361
 20
27.1661754044
 11
26.7292624203
 21
24.6618173613
  0
ARC
  8
0
 62
7
  6
CONTINUOUS
 10
13.8527227462
 20
23.5027814928
 40
0.7290321776
 50
108.0
 51
168.0
  0
ARC
  8
0
 62
7
  6
CONTINUOUS
 10
23.4600732931
 20
26.624398914
 40
0.7290321776
 50
348.0
 51
108.0
  0
ARC
  8
0
 62
7
  6
CONTINUOUS
 10
26.2414446773
 20
24.120040871
 40
0.7290321776
 50
348.0
 51
48.0
  0
ARC
  8
0
 62
7
  6
CONTINUOUS
 10
20.581646014
 20
13.0824632691
 40
0.7290321776
 50
228.0
 51
288.0
  0
ARC
  8
0
 62
7
  6
CONTINUOUS
 10
13.0745707529
 20
19.8418641951
 40
0.7290321776
 50
108.0
 51
228.0
  0
ARC
  8
0
 62
7
  6
CONTINUOUS
 10
24.1411693916
 20
14.2390225237
 40
0.7290321776
 50
228.0
 51
348.0
  0
ENDBLK
  8
0
  6
BYBLOCK
 62
0
  0
ENDSEC
  0
SECTION
  2
ENTITIES
  0
TEXT
  8
0
 62
5
  6
CONTINUOUS
 10
96.0
 20
25.636
  7
TEXTSTYLE_2
 40
2.8
  1
Scale :
 41
0.6
 51
0.000019
 72
0
  0
TEXT
  8
0
 62
5
  6
CONTINUOUS
 10
116.0
 20
25.636
  7
TEXTSTYLE_2
 40
2.8
  1
Belt type:
 41
0.6
 51
0.000019
 72
0
  0
INSERT
  8
0
 62
2
  6
CONTINUOUS
  2
SYMBOL_3_BL0
 10
32.1213064866
 20
19.8534310916
  0
INSERT
  8
0
 62
2
  6
CONTINUOUS
  2
SYMBOL_8_BL1
 10
173.5956734183
 20
35.5937998301
  0
LINE
  8
0
 62
2
  6
CONTINUOUS
 10
10.0
 20
30.0
 11
200.0
 21
30.0
  0
LINE
  8
0
 62
2
  6
CONTINUOUS
 10
10.0
 20
30.0
 11
10.0
 21
10.0
  0
LINE
  8
0
 62
2
  6
CONTINUOUS
 10
10.0
 20
10.0
 11
200.0
 21
10.0
  0
LINE
  8
0
 62
2
  6
CONTINUOUS
 10
95.0
 20
30.0
 11
95.0
 21
10.0
  0
LINE
  8
0
 62
2
  6
CONTINUOUS
 10
115.0
 20
30.0
 11
115.0
 21
10.0
  0
LINE
  8
0
 62
2
  6
CONTINUOUS
 10
200.0
 20
30.0
 11
200.0
 21
10.0
  0
TEXT
  8
0
 62
5
  6
CONTINUOUS
 10
13.0
 20
23.303
  7
TEXTSTYLE_5
 40
1.52
  1
                                                                     Ammeraal Beltech Modular A/S
 41
1.0
 72
0
  0
TEXT
  8
0
 62
5
  6
CONTINUOUS
 10
13.0
 20
20.595
  7
TEXTSTYLE_5
 40
1.5
  1
                                                                      Hjulmagervej 21,  7100 Vejle,  DK
 41
1.0
 72
0
  0
TEXT
  8
0
 62
5
  6
CONTINUOUS
 10
13.0
 20
17.881
  7
TEXTSTYLE_5
 40
1.495
  1
                                                                      tel: 
 41
1.0
 72
0
  0
TEXT
  8
0
 62
5
  6
CONTINUOUS
 10
57.9869465649
 20
17.881
  7
TEXTSTYLE_5
 40
1.51
  1
+45 75723100     fax: +45 75723348
 41
1.0
 72
0
  0
TEXT
  8
0
 62
5
  6
CONTINUOUS
 10
13.0
 20
15.177
  7
TEXTSTYLE_5
 40
1.5
  1
                                                                      admin@unichains.dk  www.unichains.com
 41
1.0
 72
0
  0
TEXT
  8
0
 62
5
  6
CONTINUOUS
 10
99.75
 20
13.75
  7
TEXTSTYLE_6
 40
5.0
  1
1:1
 41
0.7
 72
1
 11
105.0
 21
13.75
  0
TEXT
  8
0
 62
5
  6
CONTINUOUS
 10
118.0
 20
13.75
  7
TEXTSTYLE_7
 40
7.5
  1
uni SNB M2 34% TAB K750
 41
0.381576087
 72
0
  0
LINE
  8
0
 62
7
  6
CONTINUOUS
 10
210.0
 20
0.0
 11
0.0
 21
0.0
  0
LINE
  8
0
 62
7
  6
CONTINUOUS
 10
10.0
 20
10.0
 11
200.0
 21
10.0
  0
LINE
  8
0
 62
7
  6
CONTINUOUS
 10
10.0
 20
30.0
 11
200.0
 21
30.0
  0
LINE
  8
0
 62
7
  6
CONTINUOUS
 10
0.0
 20
0.0
 11
0.0
 21
297.0
  0
LINE
  8
0
 62
7
  6
CONTINUOUS
 10
10.0
 20
10.0
 11
10.0
 21
287.0
  0
LINE
  8
0
 62
7
  6
CONTINUOUS
 10
200.0
 20
287.0
 11
200.0
 21
10.0
  0
LINE
  8
0
 62
7
  6
CONTINUOUS
 10
210.0
 20
0.0
 11
210.0
 21
297.0
  0
LINE
  8
0
 62
7
  6
CONTINUOUS
 10
10.0
 20
287.0
 11
200.0
 21
287.0
  0
LINE
  8
0
 62
7
  6
CONTINUOUS
 10
0.0
 20
297.0
 11
210.0
 21
297.0
  0
LINE
  8
DEFAULT_1
 62
2
  6
CENTER
 10
43.8588947986
 20
276.7417476952
 11
43.8588947986
 21
274.9917476952
  0
LINE
  8
0
 62
2
  6
CONTINUOUS
 10
43.8588947986
 20
273.2217476952
 11
43.8588947986
 21
271.4617476952
  0
LINE
  8
DEFAULT_1
 62
2
  6
CENTER
 10
43.8588947986
 20
267.9417476952
 11
43.8588947986
 21
269.6917476952
  0
POLYLINE
  8
0
 62
7
  6
CONTINUOUS
 66
1
 70
0
  0
VERTEX
  8
0
 62
7
  6
CONTINUOUS
 10
41.8610496374
 20
268.3485699806
  0
VERTEX
  8
0
 62
7
  6
CONTINUOUS
 10
41.8556438512
 20
268.3567151384
  0
VERTEX
  8
0
 62
7
  6
CONTINUOUS
 10
41.8742099462
 20
268.3646550205
  0
VERTEX
  8
0
 62
7
  6
CONTINUOUS
 10
41.9158120718
 20
268.3722713027
  0
VERTEX
  8
0
 62
7
  6
CONTINUOUS
 10
41.9797329915
 20
268.3794689927
  0
VERTEX
  8
0
 62
7
  6
CONTINUOUS
 10
42.0640809576
 20
268.3860697993
  0
VERTEX
  8
0
 62
7
  6
CONTINUOUS
 10
42.1678675847
 20
268.3920356126
  0
VERTEX
  8
0
 62
7
  6
CONTINUOUS
 10
42.2918951972
 20
268.3973925216
  0
VERTEX
  8
0
 62
7
  6
CONTINUOUS
 10
42.4355625274
 20
268.4020741817
  0
VERTEX
  8
0
 62
7
  6
CONTINUOUS
 10
42.5972461883
 20
268.4060211983
  0
VERTEX
  8
0
 62
7
  6
CONTINUOUS
 10
42.7753666675
 20
268.4092232606
  0
SEQEND
  0
LINE
  8
0
 62
7
  6
CONTINUOUS
 10
46.5588947986
 20
268.2583617172
 11
46.5588947986
 21
267.996894489
  0
LINE
  8
0
 62
7
  6
CONTINUOUS
 10
46.9338947986
 20
267.996894489
 11
46.9338947986
 21
268.2583617172
  0
LINE
  8
0
 62
7
  6
CONTINUOUS
 10
48.0588947986
 20
268.1137202735
 11
48.0588947986
 21
268.1470990646
  0
LINE
  8
0
 62
7
  6
CONTINUOUS
 10
48.121394739
 20
268.2305460579
 11
48.121394739
 21
268.2572490921
  0
LINE
  8
0
 62
7
  6
CONTINUOUS
 10
48.308894739
 20
268.2249829261
 11
48.308894739
 21
268.2539112136
  0
LINE
  8
0
 62
7
  6
CONTINUOUS
 10
48.3713948582
 20
268.1192834053
 11
48.3713948582
 21
268.1582253362
  0
LINE
  8
0
 62
7
  6
CONTINUOUS
 10
48.4338947986
 20
268.2138566624
 11
48.4338947986
 21
268.2486262395
  0
LINE
  8
0
 62
7
  6
CONTINUOUS
 10
48.496394739
 20
268.1804778557
 11
48.496394739
 21
268.2444538935
  0
LINE
  8
0
 62
7
  6
CONTINUOUS
 10
48.6213947986
 20
268.1359728009
 11
48.6213947986
 21
268.2361091898
  0
LINE
  8
0
 62
7
  6
CONTINUOUS
 10
48.8088947986
 20
268.1582253283
 11
48.8088947986
 21
268.2138566624
  0
LINE
  8
0
 62
7
  6
CONTINUOUS
 10
48.871394739
 20
268.1749147238
 11
48.871394739
 21
268.1971672668
  0
LINE
  8
0
 62
7
  6
CONTINUOUS
 10
71.0398947986
 20
260.4417476952
 11
58.0398947986
 21
260.4417476952
  0
LINE
  8
0
 62
7
  6
CONTINUOUS
 10
49.3713947986
 20
268.2583617172
 11
49.3713947986
 21
267.996894489
  0
LINE
  8
0
 62
7
  6
CONTINUOUS
 10
49.7463947986
 20
267.996894489
 11
49.7463947986
 21
268.2583617172
  0
LINE
  8
0
 62
7
  6
CONTINUOUS
 10
50.8713947986
 20
268.1137202735
 11
50.8713947986
 21
268.1470990646
  0
LINE
  8
0
 62
7
  6
CONTINUOUS
 10
50.9338949178
 20
268.2305460579
 11
50.9338949178
 21
268.2572490883
  0
LINE
  8
0
 62
7
  6
CONTINUOUS
 10
51.1213949178
 20
268.2249829261
 11
51.1213949178
 21
268.2539112079
  0
LINE
  8
0
 62
7
  6
CONTINUOUS
 10
51.1838946794
 20
268.1192834053
 11
51.1838946794
 21
268.1582253124
  0
LINE
  8
0
 62
7
  6
CONTINUOUS
 10
51.2463947986
 20
268.2138566624
 11
51.2463947986
 21
268.2486262305
  0
LINE
  8
0
 62
7
  6
CONTINUOUS
 10
51.3088949178
 20
268.1804778557
 11
51.3088949178
 21
268.2444538756
  0
LINE
  8
0
 62
7
  6
CONTINUOUS
 10
51.4338947986
 20
268.1359728009
 11
51.4338947986
 21
268.2361091898
  0
LINE
  8
0
 62
7
  6
CONTINUOUS
 10
51.6213947986
 20
268.1582253283
 11
51.6213947986
 21
268.2138566624
  0
LINE
  8
0
 62
7
  6
CONTINUOUS
 10
51.6838949178
 20
268.1749147238
 11
51.6838949178
 21
268.1971672668
  0
LINE
  8
0
 62
7
  6
CONTINUOUS
 10
48.4338947986
 20
268.2138566624
 11
48.496394739
 21
268.1971672668
  0
LINE
  8
0
 62
7
  6
CONTINUOUS
 10
48.8088947986
 20
268.2138566624
 11
48.6213947986
 21
268.2361091898
  0
LINE
  8
0
 62
7
  6
CONTINUOUS
 10
48.871394739
 20
268.1971672668
 11
48.8088947986
 21
268.2138566624
  0
LINE
  8
0
 62
7
  6
CONTINUOUS
 10
51.2463947986
 20
268.2138566624
 11
51.3088949178
 21
268.1971672668
  0
LINE
  8
0
 62
7
  6
CONTINUOUS
 10
51.6838949178
 20
268.1971672668
 11
51.6213947986
 21
268.2138566624
  0
LINE
  8
1_AXIS
 62
2
  6
CENTER
 10
56.5588947986
 20
258.4417361922
 11
56.5588947986
 21
279.5917476952
  0
POLYLINE
  8
0
 62
7
  6
CONTINUOUS
 66
1
 70
0
  0
VERTEX
  8
0
 62
7
  6
CONTINUOUS
 10
55.2663532898
 20
267.9459345967
  0
VERTEX
  8
0
 62
7
  6
CONTINUOUS
 10
55.2568956617
 20
267.9440206698
  0
VERTEX
  8
0
 62
7
  6
CONTINUOUS
 10
55.239969885
 20
267.9426439393
  0
VERTEX
  8
0
 62
7
  6
CONTINUOUS
 10
55.2186791677
 20
267.941944744
  0
VERTEX
  8
0
 62
7
  6
CONTINUOUS
 10
55.1950900342
 20
267.9417476952
  0
SEQEND
  0
LINE
  8
0
 62
7
  6
CONTINUOUS
 10
51.4338947986
 20
268.1359728009
 11
51.6213947986
 21
268.1582253283
  0
POLYLINE
  8
0
 62
7
  6
CONTINUOUS
 66
1
 70
0
  0
VERTEX
  8
0
 62
7
  6
CONTINUOUS
 10
55.3980298536
 20
267.9658533094
  0
VERTEX
  8
0
 62
7
  6
CONTINUOUS
 10
55.3397443256
 20
267.9592726065
  0
VERTEX
  8
0
 62
7
  6
CONTINUOUS
 10
55.2945404396
 20
267.952593353
  0
VERTEX
  8
0
 62
7
  6
CONTINUOUS
 10
55.2663532898
 20
267.9459345967
  0
SEQEND
  0
LINE
  8
0
 62
7
  6
CONTINUOUS
 10
51.2463947986
 20
268.1637884601
 11
51.1213949178
 21
268.1526621964
  0
LINE
  8
0
 62
7
  6
CONTINUOUS
 10
51.1838946794
 20
268.1192834053
 11
51.4338947986
 21
268.1359728009
  0
LINE
  8
0
 62
7
  6
CONTINUOUS
 10
48.3713948582
 20
268.1192834053
 11
48.6213947986
 21
268.1359728009
  0
LINE
  8
0
 62
7
  6
CONTINUOUS
 10
51.1213949178
 20
268.1526621964
 11
50.9338949178
 21
268.1470990646
  0
LINE
  8
0
 62
7
  6
CONTINUOUS
 10
48.308894739
 20
268.1526621964
 11
48.121394739
 21
268.1470990646
  0
LINE
  8
0
 62
7
  6
CONTINUOUS
 10
50.8713947986
 20
268.1137202735
 11
51.1838946794
 21
268.1192834053
  0
LINE
  8
0
 62
7
  6
CONTINUOUS
 10
48.0588947986
 20
268.1137202735
 11
48.3713948582
 21
268.1192834053
  0
LINE
  8
0
 62
7
  6
CONTINUOUS
 10
42.7753666675
 20
268.4092232606
 11
43.1935731221
 21
268.4136263758
  0
LINE
  8
0
 62
7
  6
CONTINUOUS
 10
43.1935731221
 20
268.4136263758
 11
43.7088947969
 21
268.4152420542
  0
LINE
  8
0
 62
7
  6
CONTINUOUS
 10
43.7088947986
 20
267.9417476952
 11
69.4088947986
 21
267.9417476952
  0
LINE
  8
0
 62
7
  6
CONTINUOUS
 10
46.5588947986
 20
267.996894489
 11
46.9338947986
 21
267.996894489
  0
LINE
  8
0
 62
7
  6
CONTINUOUS
 10
49.3713947986
 20
267.996894489
 11
49.7463947986
 21
267.996894489
  0
LINE
  8
0
 62
7
  6
CONTINUOUS
 10
46.9338947986
 20
268.1137202735
 11
48.0588947986
 21
268.1137202735
  0
LINE
  8
0
 62
7
  6
CONTINUOUS
 10
49.7463947986
 20
268.1137202735
 11
50.8713947986
 21
268.1137202735
  0
LINE
  8
0
 62
7
  6
CONTINUOUS
 10
50.9338949178
 20
268.1470990646
 11
49.7463947986
 21
268.1470990646
  0
LINE
  8
0
 62
7
  6
CONTINUOUS
 10
48.121394739
 20
268.1470990646
 11
46.9338947986
 21
268.1470990646
  0
LINE
  8
0
 62
7
  6
CONTINUOUS
 10
46.5588947986
 20
268.1961334286
 11
46.9338947986
 21
268.1961334286
  0
LINE
  8
0
 62
7
  6
CONTINUOUS
 10
49.3713947986
 20
268.1961334286
 11
49.7463947986
 21
268.1961334286
  0
LINE
  8
0
 62
7
  6
CONTINUOUS
 10
46.9338947986
 20
268.2305460579
 11
48.121394739
 21
268.2305460579
  0
LINE
  8
0
 62
7
  6
CONTINUOUS
 10
49.7463947986
 20
268.2305460579
 11
50.9338949178
 21
268.2305460579
  0
LINE
  8
0
 62
7
  6
CONTINUOUS
 10
50.8713947986
 20
268.2583617172
 11
49.3713947986
 21
268.2583617172
  0
LINE
  8
0
 62
7
  6
CONTINUOUS
 10
48.0588947986
 20
268.2583617172
 11
46.5588947986
 21
268.2583617172
  0
LINE
  8
0
 62
7
  6
CONTINUOUS
 10
43.7088947969
 20
268.4152420542
 11
55.2368701618
 21
268.4147215709
  0
POLYLINE
  8
0
 62
7
  6
CONTINUOUS
 66
1
 70
0
  0
VERTEX
  8
0
 62
7
  6
CONTINUOUS
 10
55.2368701618
 20
268.4147215709
  0
VERTEX
  8
0
 62
7
  6
CONTINUOUS
 10
55.7375216435
 20
268.4110474773
  0
VERTEX
  8
0
 62
7
  6
CONTINUOUS
 10
55.9463118375
 20
268.4080176109
  0
VERTEX
  8
0
 62
7
  6
CONTINUOUS
 10
56.1315139283
 20
268.4041903877
  0
VERTEX
  8
0
 62
7
  6
CONTINUOUS
 10
56.2947671386
 20
268.3995483598
  0
VERTEX
  8
0
 62
7
  6
CONTINUOUS
 10
56.4366131482
 20
268.3940814422
  0
VERTEX
  8
0
 62
7
  6
CONTINUOUS
 10
56.5574519239
 20
268.3877517157
  0
VERTEX
  8
0
 62
7
  6
CONTINUOUS
 10
56.6544640737
 20
268.3806922963
  0
VERTEX
  8
0
 62
7
  6
CONTINUOUS
 10
56.7257085532
 20
268.3731276962
  0
VERTEX
  8
0
 62
7
  6
CONTINUOUS
 10
56.7711214248
 20
268.3652695022
  0
VERTEX
  8
0
 62
7
  6
CONTINUOUS
 10
56.7917821287
 20
268.3571144109
  0
VERTEX
  8
0
 62
7
  6
CONTINUOUS
 10
56.7867399597
 20
268.3485699806
  0
SEQEND
  0
LINE
  8
0
 62
7
  6
CONTINUOUS
 10
48.3713948582
 20
268.2527985854
 11
48.0588947986
 21
268.2583617172
  0
LINE
  8
0
 62
7
  6
CONTINUOUS
 10
51.1838946794
 20
268.2527985854
 11
50.8713947986
 21
268.2583617172
  0
LINE
  8
0
 62
7
  6
CONTINUOUS
 10
48.121394739
 20
268.2305460579
 11
48.308894739
 21
268.2249829261
  0
LINE
  8
0
 62
7
  6
CONTINUOUS
 10
50.9338949178
 20
268.2305460579
 11
51.1213949178
 21
268.2249829261
  0
LINE
  8
0
 62
7
  6
CONTINUOUS
 10
48.6213947986
 20
268.2361091898
 11
48.3713948582
 21
268.2527985854
  0
LINE
  8
0
 62
7
  6
CONTINUOUS
 10
51.4338947986
 20
268.2361091898
 11
51.1838946794
 21
268.2527985854
  0
LINE
  8
0
 62
7
  6
CONTINUOUS
 10
48.308894739
 20
268.2249829261
 11
48.4338947986
 21
268.2138566624
  0
LINE
  8
0
 62
7
  6
CONTINUOUS
 10
51.1213949178
 20
268.2249829261
 11
51.2463947986
 21
268.2138566624
  0
LINE
  8
0
 62
7
  6
CONTINUOUS
 10
51.6213947986
 20
268.2138566624
 11
51.4338947986
 21
268.2361091898
  0
LINE
  8
0
 62
7
  6
CONTINUOUS
 10
57.0398947986
 20
261.4417476952
 11
57.0398947986
 21
267.9417476952
  0
LINE
  8
0
 62
7
  6
CONTINUOUS
 10
51.6213947986
 20
268.1582253283
 11
51.6838949178
 21
268.1749147238
  0
LINE
  8
0
 62
7
  6
CONTINUOUS
 10
51.3088949178
 20
268.1804778557
 11
51.2463947986
 21
268.1637884601
  0
LINE
  8
0
 62
7
  6
CONTINUOUS
 10
48.6213947986
 20
268.1359728009
 11
48.8088947986
 21
268.1582253283
  0
LINE
  8
0
 62
7
  6
CONTINUOUS
 10
48.4338947986
 20
268.1637884601
 11
48.308894739
 21
268.1526621964
  0
LINE
  8
0
 62
7
  6
CONTINUOUS
 10
48.8088947986
 20
268.1582253283
 11
48.871394739
 21
268.1749147238
  0
LINE
  8
0
 62
7
  6
CONTINUOUS
 10
48.496394739
 20
268.1804778557
 11
48.4338947986
 21
268.1637884601
  0
LINE
  8
0
 62
2
  6
CONTINUOUS
 10
70.1388947986
 20
272.3417476952
 11
68.3788947986
 21
272.3417476952
  0
LINE
  8
DEFAULT_1
 62
2
  6
CENTER
 10
64.8588947986
 20
272.3417476952
 11
64.6588947986
 21
272.3417476952
  0
LINE
  8
DEFAULT_1
 62
2
  6
CENTER
 10
48.2588947986
 20
272.3417476952
 11
46.5088947986
 21
272.3417476952
  0
LINE
  8
0
 62
2
  6
CONTINUOUS
 10
44.7388947986
 20
272.3417476952
 11
42.9788947986
 21
272.3417476952
  0
LINE
  8
DEFAULT_1
 62
2
  6
CENTER
 10
39.4588947986
 20
272.3417476952
 11
41.2088947986
 21
272.3417476952
  0
LINE
  8
DEFAULT_1
 62
2
  6
CENTER
 10
73.6588947986
 20
272.3417476952
 11
73.8588947986
 21
272.3417476952
  0
POLYLINE
  8
0
 62
7
  6
CONTINUOUS
 66
1
 70
0
  0
VERTEX
  8
0
 62
7
  6
CONTINUOUS
 10
56.7867399597
 20
276.3349254099
  0
VERTEX
  8
0
 62
7
  6
CONTINUOUS
 10
56.7923061929
 20
276.3269809874
  0
VERTEX
  8
0
 62
7
  6
CONTINUOUS
 10
56.7755514886
 20
276.3193629537
  0
VERTEX
  8
0
 62
7
  6
CONTINUOUS
 10
56.7375411046
 20
276.3120258239
  0
VERTEX
  8
0
 62
7
  6
CONTINUOUS
 10
56.6774273262
 20
276.3049176333
  0
VERTEX
  8
0
 62
7
  6
CONTINUOUS
 10
56.5947820472
 20
276.2981785272
  0
VERTEX
  8
0
 62
7
  6
CONTINUOUS
 10
56.4908636382
 20
276.29201201
  0
VERTEX
  8
0
 62
7
  6
CONTINUOUS
 10
56.368046415
 20
276.2865649009
  0
VERTEX
  8
0
 62
7
  6
CONTINUOUS
 10
56.2277311007
 20
276.2818655726
  0
VERTEX
  8
0
 62
7
  6
CONTINUOUS
 10
56.0688172387
 20
276.2778642846
  0
VERTEX
  8
0
 62
7
  6
CONTINUOUS
 10
55.8908965763
 20
276.274558719
  0
VERTEX
  8
0
 62
7
  6
CONTINUOUS
 10
55.6920208828
 20
276.2719289512
  0
SEQEND
  0
LINE
  8
0
 62
7
  6
CONTINUOUS
 10
55.6920208828
 20
276.2719289512
 11
55.2189787014
 21
276.2687121893
  0
LINE
  8
0
 62
7
  6
CONTINUOUS
 10
55.2189787014
 20
276.2687121893
 11
43.4188204148
 21
276.2687460999
  0
POLYLINE
  8
0
 62
7
  6
CONTINUOUS
 66
1
 70
0
  0
VERTEX
  8
0
 62
7
  6
CONTINUOUS
 10
43.4188204148
 20
276.2687460999
  0
VERTEX
  8
0
 62
7
  6
CONTINUOUS
 10
42.927148156
 20
276.2722501303
  0
VERTEX
  8
0
 62
7
  6
CONTINUOUS
 10
42.719844724
 20
276.2751629861
  0
VERTEX
  8
0
 62
7
  6
CONTINUOUS
 10
42.5343947312
 20
276.2788716601
  0
VERTEX
  8
0
 62
7
  6
CONTINUOUS
 10
42.3680656652
 20
276.2834559726
  0
VERTEX
  8
0
 62
7
  6
CONTINUOUS
 10
42.2234909034
 20
276.2888694984
  0
VERTEX
  8
0
 62
7
  6
CONTINUOUS
 10
42.1022058447
 20
276.2950265077
  0
VERTEX
  8
0
 62
7
  6
CONTINUOUS
 10
42.0040890338
 20
276.3018860597
  0
VERTEX
  8
0
 62
7
  6
CONTINUOUS
 10
41.9288708717
 20
276.3094889486
  0
VERTEX
  8
0
 62
7
  6
CONTINUOUS
 10
41.8791956691
 20
276.3176303801
  0
VERTEX
  8
0
 62
7
  6
CONTINUOUS
 10
41.8562521796
 20
276.3261432003
  0
VERTEX
  8
0
 62
7
  6
CONTINUOUS
 10
41.8610496374
 20
276.3349254099
  0
SEQEND
  0
POLYLINE
  8
0
 62
7
  6
CONTINUOUS
 66
1
 70
0
  0
VERTEX
  8
0
 62
7
  6
CONTINUOUS
 10
55.2663588244
 20
276.7375601356
  0
VERTEX
  8
0
 62
7
  6
CONTINUOUS
 10
55.2944389728
 20
276.7309201823
  0
VERTEX
  8
0
 62
7
  6
CONTINUOUS
 10
55.3394462173
 20
276.7242608134
  0
VERTEX
  8
0
 62
7
  6
CONTINUOUS
 10
55.3980298536
 20
276.7176420811
  0
SEQEND
  0
LINE
  8
0
 62
7
  6
CONTINUOUS
 10
43.7088947986
 20
276.7417476952
 11
69.4088947986
 21
276.7417476952
  0
POLYLINE
  8
0
 62
7
  6
CONTINUOUS
 66
1
 70
0
  0
VERTEX
  8
0
 62
7
  6
CONTINUOUS
 10
55.1950753136
 20
276.7417478783
  0
VERTEX
  8
0
 62
7
  6
CONTINUOUS
 10
55.2196659957
 20
276.7415322378
  0
VERTEX
  8
0
 62
7
  6
CONTINUOUS
 10
55.2407374384
 20
276.7408115414
  0
VERTEX
  8
0
 62
7
  6
CONTINUOUS
 10
55.2570089358
 20
276.7394610721
  0
VERTEX
  8
0
 62
7
  6
CONTINUOUS
 10
55.2663588244
 20
276.7375601356
  0
SEQEND
  0
LINE
  8
0
 62
2
  6
CONTINUOUS
 10
69.2588947986
 20
273.2217476952
 11
69.2588947986
 21
271.4617476952
  0
LINE
  8
DEFAULT_1
 62
2
  6
CENTER
 10
69.2588947986
 20
267.9417476952
 11
69.2588947986
 21
267.7417476952
  0
LINE
  8
DEFAULT_1
 62
2
  6
CENTER
 10
69.2588947986
 20
276.7417476952
 11
69.2588947986
 21
276.9417476952
  0
LINE
  8
0
 62
7
  6
CONTINUOUS
 10
72.0398947986
 20
261.4417476952
 11
72.0398947986
 21
267.5405146244
  0
LINE
  8
0
 62
7
  6
CONTINUOUS
 10
40.1588947986
 20
51.4334862385
 11
57.3388947986
 21
51.4334862385
  0
LINE
  8
0
 62
7
  6
CONTINUOUS
 10
43.7088947986
 20
51.5214209512
 11
54.9388947998
 21
51.5214209512
  0
LINE
  8
0
 62
7
  6
CONTINUOUS
 10
55.1950982892
 20
56.9334883464
 11
43.7088947986
 21
56.9334862385
  0
POLYLINE
  8
0
 62
7
  6
CONTINUOUS
 66
1
 70
0
  0
VERTEX
  8
0
 62
7
  6
CONTINUOUS
 10
43.7088947986
 20
51.5214209512
  0
VERTEX
  8
0
 62
7
  6
CONTINUOUS
 10
43.4188204148
 20
51.5270532648
  0
VERTEX
  8
0
 62
7
  6
CONTINUOUS
 10
43.1593436563
 20
51.5425841332
  0
VERTEX
  8
0
 62
7
  6
CONTINUOUS
 10
42.927148156
 20
51.567104515
  0
VERTEX
  8
0
 62
7
  6
CONTINUOUS
 10
42.719844724
 20
51.6003986098
  0
VERTEX
  8
0
 62
7
  6
CONTINUOUS
 10
42.5343947312
 20
51.6427889475
  0
VERTEX
  8
0
 62
7
  6
CONTINUOUS
 10
42.3680656652
 20
51.6951878784
  0
VERTEX
  8
0
 62
7
  6
CONTINUOUS
 10
42.2234909034
 20
51.7570647623
  0
VERTEX
  8
0
 62
7
  6
CONTINUOUS
 10
42.1022058447
 20
51.8274397001
  0
VERTEX
  8
0
 62
7
  6
CONTINUOUS
 10
42.0040890338
 20
51.905844738
  0
VERTEX
  8
0
 62
7
  6
CONTINUOUS
 10
41.9288708717
 20
51.9927461562
  0
VERTEX
  8
0
 62
7
  6
CONTINUOUS
 10
41.8791956691
 20
52.0858031437
  0
VERTEX
  8
0
 62
7
  6
CONTINUOUS
 10
41.8562521796
 20
52.1831051245
  0
VERTEX
  8
0
 62
7
  6
CONTINUOUS
 10
41.8610496374
 20
52.2834862385
  0
SEQEND
  0
POLYLINE
  8
0
 62
7
  6
CONTINUOUS
 66
1
 70
0
  0
VERTEX
  8
0
 62
7
  6
CONTINUOUS
 10
43.7088947986
 20
56.9334862385
  0
VERTEX
  8
0
 62
7
  6
CONTINUOUS
 10
43.6128048716
 20
56.9214919895
  0
VERTEX
  8
0
 62
7
  6
CONTINUOUS
 10
43.5130748288
 20
56.8836557998
  0
VERTEX
  8
0
 62
7
  6
CONTINUOUS
 10
43.411277315
 20
56.818305455
  0
VERTEX
  8
0
 62
7
  6
CONTINUOUS
 10
43.310400037
 20
56.7268035545
  0
VERTEX
  8
0
 62
7
  6
CONTINUOUS
 10
43.2114762015
 20
56.6110796741
  0
VERTEX
  8
0
 62
7
  6
CONTINUOUS
 10
43.1145267945
 20
56.4725176915
  0
VERTEX
  8
0
 62
7
  6
CONTINUOUS
 10
43.0191390411
 20
56.311688283
  0
VERTEX
  8
0
 62
7
  6
CONTINUOUS
 10
42.9248281792
 20
56.1285510147
  0
VERTEX
  8
0
 62
7
  6
CONTINUOUS
 10
42.8311405557
 20
55.9226095702
  0
VERTEX
  8
0
 62
7
  6
CONTINUOUS
 10
42.7376453422
 20
55.6929290372
  0
VERTEX
  8
0
 62
7
  6
CONTINUOUS
 10
42.6440165422
 20
55.4383894263
  0
VERTEX
  8
0
 62
7
  6
CONTINUOUS
 10
42.5499167037
 20
55.1574454384
  0
VERTEX
  8
0
 62
7
  6
CONTINUOUS
 10
42.4551201897
 20
54.848508476
  0
VERTEX
  8
0
 62
7
  6
CONTINUOUS
 10
42.3593817365
 20
54.5095925723
  0
VERTEX
  8
0
 62
7
  6
CONTINUOUS
 10
42.2625312145
 20
54.1386350892
  0
VERTEX
  8
0
 62
7
  6
CONTINUOUS
 10
42.1643924939
 20
53.7332278286
  0
VERTEX
  8
0
 62
7
  6
CONTINUOUS
 10
42.0648427823
 20
53.2908451831
  0
VERTEX
  8
0
 62
7
  6
CONTINUOUS
 10
41.9637526131
 20
52.8085925194
  0
VERTEX
  8
0
 62
7
  6
CONTINUOUS
 10
41.8610496374
 20
52.2834862385
  0
SEQEND
  0
POLYLINE
  8
0
 62
7
  6
CONTINUOUS
 66
1
 70
0
  0
VERTEX
  8
0
 62
7
  6
CONTINUOUS
 10
62.3388947986
 20
59.5454862385
  0
VERTEX
  8
0
 62
7
  6
CONTINUOUS
 10
61.9311153951
 20
59.5174680955
  0
VERTEX
  8
0
 62
7
  6
CONTINUOUS
 10
61.5281555447
 20
59.4336798024
  0
VERTEX
  8
0
 62
7
  6
CONTINUOUS
 10
61.1430072501
 20
59.2968228176
  0
SEQEND
  0
LINE
  8
0
 62
7
  6
CONTINUOUS
 10
63.9588947986
 20
58.8454862385
 11
64.7588947986
 21
58.8454862385
  0
LINE
  8
0
 62
7
  6
CONTINUOUS
 10
53.9251238452
 20
59.1934862385
 11
40.158924045
 21
59.1934862385
  0
LINE
  8
0
 62
7
  6
CONTINUOUS
 10
60.6920494669
 20
59.5454862385
 11
72.9588947986
 21
59.5454862385
  0
LINE
  8
0
 62
7
  6
CONTINUOUS
 10
49.1588947986
 20
59.8934862385
 11
48.3588947986
 21
59.8934862385
  0
LINE
  8
0
 62
7
  6
CONTINUOUS
 10
63.6767108361
 20
63.4334862385
 11
72.9588947986
 21
63.4334862385
  0
POLYLINE
  8
0
 62
7
  6
CONTINUOUS
 66
1
 70
0
  0
VERTEX
  8
0
 62
7
  6
CONTINUOUS
 10
55.1950753136
 20
56.9334883304
  0
VERTEX
  8
0
 62
7
  6
CONTINUOUS
 10
55.2196659957
 20
56.9310235486
  0
VERTEX
  8
0
 62
7
  6
CONTINUOUS
 10
55.2407374384
 20
56.922785951
  0
VERTEX
  8
0
 62
7
  6
CONTINUOUS
 10
55.2570089358
 20
56.9073500165
  0
VERTEX
  8
0
 62
7
  6
CONTINUOUS
 10
55.2663588244
 20
56.8856222126
  0
SEQEND
  0
POLYLINE
  8
0
 62
7
  6
CONTINUOUS
 66
1
 70
0
  0
VERTEX
  8
0
 62
7
  6
CONTINUOUS
 10
53.158927164
 20
69.3634862385
  0
VERTEX
  8
0
 62
7
  6
CONTINUOUS
 10
53.3065227993
 20
69.3763983854
  0
VERTEX
  8
0
 62
7
  6
CONTINUOUS
 10
53.4496343578
 20
69.4147432414
  0
VERTEX
  8
0
 62
7
  6
CONTINUOUS
 10
53.5839133687
 20
69.4773566811
  0
VERTEX
  8
0
 62
7
  6
CONTINUOUS
 10
53.7052793825
 20
69.5623368111
  0
VERTEX
  8
0
 62
7
  6
CONTINUOUS
 10
53.810044226
 20
69.6671016546
  0
VERTEX
  8
0
 62
7
  6
CONTINUOUS
 10
53.895024356
 20
69.7884676684
  0
VERTEX
  8
0
 62
7
  6
CONTINUOUS
 10
53.9576377958
 20
69.9227466793
  0
VERTEX
  8
0
 62
7
  6
CONTINUOUS
 10
53.9959826517
 20
70.0658582378
  0
VERTEX
  8
0
 62
7
  6
CONTINUOUS
 10
54.0088947986
 20
70.2134538731
  0
SEQEND
  0
LINE
  8
0
 62
7
  6
CONTINUOUS
 10
46.0707477772
 20
69.3515597471
 11
45.613293978
 21
69.346740465
  0
LINE
  8
0
 62
7
  6
CONTINUOUS
 10
45.613293978
 20
69.346740465
 11
44.6906925609
 21
69.3419888746
  0
LINE
  8
0
 62
7
  6
CONTINUOUS
 10
44.6906925609
 20
69.3419888746
 11
43.9861997918
 21
69.3408235972
  0
LINE
  8
0
 62
7
  6
CONTINUOUS
 10
49.1588947986
 20
66.7834862385
 11
48.3588947986
 21
66.7834862385
  0
LINE
  8
0
 62
7
  6
CONTINUOUS
 10
59.1926657519
 20
67.1334862385
 11
63.3588947986
 21
67.1334862385
  0
LINE
  8
0
 62
7
  6
CONTINUOUS
 10
40.1588947986
 20
67.4834862385
 11
53.9275936395
 21
67.4834862385
  0
LINE
  8
0
 62
7
  6
CONTINUOUS
 10
53.158927164
 20
69.3634862385
 11
46.4588947986
 21
69.3634862385
  0
POLYLINE
  8
0
 62
7
  6
CONTINUOUS
 66
1
 70
0
  0
VERTEX
  8
0
 62
7
  6
CONTINUOUS
 10
43.9861997918
 20
69.3408235972
  0
VERTEX
  8
0
 62
7
  6
CONTINUOUS
 10
43.8404432203
 20
69.3533822874
  0
VERTEX
  8
0
 62
7
  6
CONTINUOUS
 10
43.6969996509
 20
69.3915566067
  0
VERTEX
  8
0
 62
7
  6
CONTINUOUS
 10
43.5631791815
 20
69.4537516239
  0
VERTEX
  8
0
 62
7
  6
CONTINUOUS
 10
43.4419467184
 20
69.5384071858
  0
VERTEX
  8
0
 62
7
  6
CONTINUOUS
 10
43.336185091
 20
69.6440819678
  0
VERTEX
  8
0
 62
7
  6
CONTINUOUS
 10
43.2512114519
 20
69.7655282156
  0
VERTEX
  8
0
 62
7
  6
CONTINUOUS
 10
43.1886020239
 20
69.8998007427
  0
VERTEX
  8
0
 62
7
  6
CONTINUOUS
 10
43.1499730001
 20
70.0440497248
  0
VERTEX
  8
0
 62
7
  6
CONTINUOUS
 10
43.1370968232
 20
70.1916558978
  0
SEQEND
  0
POLYLINE
  8
0
 62
7
  6
CONTINUOUS
 66
1
 70
0
  0
VERTEX
  8
0
 62
7
  6
CONTINUOUS
 10
46.4588947986
 20
69.3634862385
  0
VERTEX
  8
0
 62
7
  6
CONTINUOUS
 10
46.4340404618
 20
69.3603564083
  0
VERTEX
  8
0
 62
7
  6
CONTINUOUS
 10
46.3599651592
 20
69.3572868013
  0
VERTEX
  8
0
 62
7
  6
CONTINUOUS
 10
46.2380883267
 20
69.3543357602
  0
VERTEX
  8
0
 62
7
  6
CONTINUOUS
 10
46.0707477772
 20
69.3515597471
  0
SEQEND
  0
LINE
  8
0
 62
7
  6
CONTINUOUS
 10
46.4588947986
 20
71.6034862385
 11
53.158927164
 21
71.6034862385
  0
LINE
  8
0
 62
7
  6
CONTINUOUS
 10
53.9263587424
 20
73.4834862385
 11
40.158924045
 21
73.4834862385
  0
LINE
  8
0
 62
7
  6
CONTINUOUS
 10
59.1914308548
 20
73.8334862385
 11
72.9588947986
 21
73.8334862385
  0
LINE
  8
0
 62
7
  6
CONTINUOUS
 10
66.6588947986
 20
75.7134862385
 11
59.9588624332
 21
75.7134862385
  0
LINE
  8
0
 62
7
  6
CONTINUOUS
 10
69.1315898053
 20
75.6908235972
 11
68.0953668455
 21
75.6931951867
  0
LINE
  8
0
 62
7
  6
CONTINUOUS
 10
45.3319272606
 20
71.6221832862
 11
43.9861997918
 21
71.6261488799
  0
POLYLINE
  8
0
 62
7
  6
CONTINUOUS
 66
1
 70
0
  0
VERTEX
  8
0
 62
7
  6
CONTINUOUS
 10
68.0953668455
 20
75.6931951867
  0
VERTEX
  8
0
 62
7
  6
CONTINUOUS
 10
67.256642874
 20
75.6990117681
  0
VERTEX
  8
0
 62
7
  6
CONTINUOUS
 10
67.0470418222
 20
75.7015597471
  0
VERTEX
  8
0
 62
7
  6
CONTINUOUS
 10
66.8797012726
 20
75.7043357601
  0
VERTEX
  8
0
 62
7
  6
CONTINUOUS
 10
66.7578244394
 20
75.7072868013
  0
VERTEX
  8
0
 62
7
  6
CONTINUOUS
 10
66.6837491359
 20
75.7103564083
  0
VERTEX
  8
0
 62
7
  6
CONTINUOUS
 10
66.6588947986
 20
75.7134862385
  0
SEQEND
  0
POLYLINE
  8
0
 62
7
  6
CONTINUOUS
 66
1
 70
0
  0
VERTEX
  8
0
 62
7
  6
CONTINUOUS
 10
46.4588947986
 20
71.6034862385
  0
VERTEX
  8
0
 62
7
  6
CONTINUOUS
 10
46.4340404618
 20
71.6066160687
  0
VERTEX
  8
0
 62
7
  6
CONTINUOUS
 10
46.3599651592
 20
71.6096856758
  0
VERTEX
  8
0
 62
7
  6
CONTINUOUS
 10
46.2380883267
 20
71.6126367169
  0
VERTEX
  8
0
 62
7
  6
CONTINUOUS
 10
46.0707477772
 20
71.61541273
  0
VERTEX
  8
0
 62
7
  6
CONTINUOUS
 10
45.8611467247
 20
71.617960709
  0
VERTEX
  8
0
 62
7
  6
CONTINUOUS
 10
45.3319272606
 20
71.6221832862
  0
SEQEND
  0
POLYLINE
  8
0
 62
7
  6
CONTINUOUS
 66
1
 70
0
  0
VERTEX
  8
0
 62
7
  6
CONTINUOUS
 10
59.9588624332
 20
77.9534862385
  0
VERTEX
  8
0
 62
7
  6
CONTINUOUS
 10
59.8112667979
 20
77.9405740917
  0
VERTEX
  8
0
 62
7
  6
CONTINUOUS
 10
59.6681552394
 20
77.9022292357
  0
VERTEX
  8
0
 62
7
  6
CONTINUOUS
 10
59.5338762284
 20
77.839615796
  0
VERTEX
  8
0
 62
7
  6
CONTINUOUS
 10
59.4125102147
 20
77.754635666
  0
VERTEX
  8
0
 62
7
  6
CONTINUOUS
 10
59.3077453711
 20
77.6498708224
  0
VERTEX
  8
0
 62
7
  6
CONTINUOUS
 10
59.2227652412
 20
77.5285048087
  0
VERTEX
  8
0
 62
7
  6
CONTINUOUS
 10
59.1601518014
 20
77.3942257977
  0
VERTEX
  8
0
 62
7
  6
CONTINUOUS
 10
59.1218069454
 20
77.2511142392
  0
VERTEX
  8
0
 62
7
  6
CONTINUOUS
 10
59.1088947986
 20
77.1035186039
  0
SEQEND
  0
POLYLINE
  8
0
 62
7
  6
CONTINUOUS
 66
1
 70
0
  0
VERTEX
  8
0
 62
7
  6
CONTINUOUS
 10
53.158927164
 20
82.0634862385
  0
VERTEX
  8
0
 62
7
  6
CONTINUOUS
 10
53.3065227993
 20
82.0763983854
  0
VERTEX
  8
0
 62
7
  6
CONTINUOUS
 10
53.4496343578
 20
82.1147432414
  0
VERTEX
  8
0
 62
7
  6
CONTINUOUS
 10
53.5839133687
 20
82.1773566811
  0
VERTEX
  8
0
 62
7
  6
CONTINUOUS
 10
53.7052793825
 20
82.2623368111
  0
VERTEX
  8
0
 62
7
  6
CONTINUOUS
 10
53.810044226
 20
82.3671016546
  0
VERTEX
  8
0
 62
7
  6
CONTINUOUS
 10
53.895024356
 20
82.4884676684
  0
VERTEX
  8
0
 62
7
  6
CONTINUOUS
 10
53.9576377958
 20
82.6227466793
  0
VERTEX
  8
0
 62
7
  6
CONTINUOUS
 10
53.9959826517
 20
82.7658582378
  0
VERTEX
  8
0
 62
7
  6
CONTINUOUS
 10
54.0088947986
 20
82.9134538731
  0
SEQEND
  0
POLYLINE
  8
0
 62
7
  6
CONTINUOUS
 66
1
 70
0
  0
VERTEX
  8
0
 62
7
  6
CONTINUOUS
 10
67.0470418222
 20
77.96541273
  0
VERTEX
  8
0
 62
7
  6
CONTINUOUS
 10
66.8797012726
 20
77.962636717
  0
VERTEX
  8
0
 62
7
  6
CONTINUOUS
 10
66.7578244394
 20
77.9596856758
  0
VERTEX
  8
0
 62
7
  6
CONTINUOUS
 10
66.6837491359
 20
77.9566160688
  0
VERTEX
  8
0
 62
7
  6
CONTINUOUS
 10
66.6588947986
 20
77.9534862385
  0
SEQEND
  0
LINE
  8
0
 62
7
  6
CONTINUOUS
 10
67.5044956191
 20
77.9702320121
 11
67.0470418222
 21
77.96541273
  0
LINE
  8
0
 62
7
  6
CONTINUOUS
 10
46.0707477772
 20
82.0515597471
 11
45.613293978
 21
82.046740465
  0
LINE
  8
0
 62
7
  6
CONTINUOUS
 10
68.4270970322
 20
77.9749836024
 11
67.5044956191
 21
77.9702320121
  0
LINE
  8
0
 62
7
  6
CONTINUOUS
 10
45.613293978
 20
82.046740465
 11
44.6906925609
 21
82.0419888746
  0
LINE
  8
0
 62
7
  6
CONTINUOUS
 10
69.1315898053
 20
77.9761488799
 11
68.4270970322
 21
77.9749836024
  0
LINE
  8
0
 62
7
  6
CONTINUOUS
 10
44.6906925609
 20
82.0419888746
 11
43.9861997918
 21
82.0408235972
  0
LINE
  8
0
 62
7
  6
CONTINUOUS
 10
59.9588624332
 20
77.9534862385
 11
66.6588947986
 21
77.9534862385
  0
LINE
  8
0
 62
7
  6
CONTINUOUS
 10
72.9588947986
 20
79.8334862385
 11
59.1914308548
 21
79.8334862385
  0
LINE
  8
0
 62
7
  6
CONTINUOUS
 10
40.1588947986
 20
80.1834862385
 11
53.9263587424
 21
80.1834862385
  0
LINE
  8
0
 62
7
  6
CONTINUOUS
 10
53.158927164
 20
82.0634862385
 11
46.4588947986
 21
82.0634862385
  0
POLYLINE
  8
0
 62
7
  6
CONTINUOUS
 66
1
 70
0
  0
VERTEX
  8
0
 62
7
  6
CONTINUOUS
 10
69.1315898053
 20
77.9761488799
  0
VERTEX
  8
0
 62
7
  6
CONTINUOUS
 10
69.2773463769
 20
77.9635901897
  0
VERTEX
  8
0
 62
7
  6
CONTINUOUS
 10
69.4207899463
 20
77.9254158704
  0
VERTEX
  8
0
 62
7
  6
CONTINUOUS
 10
69.5546104157
 20
77.8632208531
  0
VERTEX
  8
0
 62
7
  6
CONTINUOUS
 10
69.6758428788
 20
77.7785652912
  0
VERTEX
  8
0
 62
7
  6
CONTINUOUS
 10
69.7816045061
 20
77.6728905092
  0
VERTEX
  8
0
 62
7
  6
CONTINUOUS
 10
69.8665781453
 20
77.5514442615
  0
VERTEX
  8
0
 62
7
  6
CONTINUOUS
 10
69.9291875732
 20
77.4171717343
  0
VERTEX
  8
0
 62
7
  6
CONTINUOUS
 10
69.9678165971
 20
77.2729227523
  0
VERTEX
  8
0
 62
7
  6
CONTINUOUS
 10
69.9806927739
 20
77.1253165793
  0
SEQEND
  0
POLYLINE
  8
0
 62
7
  6
CONTINUOUS
 66
1
 70
0
  0
VERTEX
  8
0
 62
7
  6
CONTINUOUS
 10
43.9861997918
 20
82.0408235972
  0
VERTEX
  8
0
 62
7
  6
CONTINUOUS
 10
43.8404432203
 20
82.0533822874
  0
VERTEX
  8
0
 62
7
  6
CONTINUOUS
 10
43.6969996509
 20
82.0915566067
  0
VERTEX
  8
0
 62
7
  6
CONTINUOUS
 10
43.5631791815
 20
82.1537516239
  0
VERTEX
  8
0
 62
7
  6
CONTINUOUS
 10
43.4419467184
 20
82.2384071858
  0
VERTEX
  8
0
 62
7
  6
CONTINUOUS
 10
43.336185091
 20
82.3440819678
  0
VERTEX
  8
0
 62
7
  6
CONTINUOUS
 10
43.2512114519
 20
82.4655282156
  0
VERTEX
  8
0
 62
7
  6
CONTINUOUS
 10
43.1886020239
 20
82.5998007427
  0
VERTEX
  8
0
 62
7
  6
CONTINUOUS
 10
43.1499730001
 20
82.7440497248
  0
VERTEX
  8
0
 62
7
  6
CONTINUOUS
 10
43.1370968232
 20
82.8916558978
  0
SEQEND
  0
LINE
  8
0
 62
7
  6
CONTINUOUS
 10
55.2875123496
 20
226.4112075646
 11
55.1862344216
 21
226.3291943156
  0
LINE
  8
0
 62
7
  6
CONTINUOUS
 10
57.8302772475
 20
225.7037649124
 11
57.9340249698
 21
225.7877781614
  0
POLYLINE
  8
0
 62
7
  6
CONTINUOUS
 66
1
 70
0
  0
VERTEX
  8
0
 62
7
  6
CONTINUOUS
 10
46.4588947986
 20
82.0634862385
  0
VERTEX
  8
0
 62
7
  6
CONTINUOUS
 10
46.4340404618
 20
82.0603564083
  0
VERTEX
  8
0
 62
7
  6
CONTINUOUS
 10
46.3599651592
 20
82.0572868013
  0
VERTEX
  8
0
 62
7
  6
CONTINUOUS
 10
46.2380883267
 20
82.0543357602
  0
VERTEX
  8
0
 62
7
  6
CONTINUOUS
 10
46.0707477772
 20
82.0515597471
  0
SEQEND
  0
LINE
  8
0
 62
7
  6
CONTINUOUS
 10
46.4588947986
 20
84.3034862385
 11
53.158927164
 21
84.3034862385
  0
LINE
  8
0
 62
7
  6
CONTINUOUS
 10
53.9263587424
 20
86.1834862385
 11
40.158924045
 21
86.1834862385
  0
LINE
  8
0
 62
7
  6
CONTINUOUS
 10
59.1914308548
 20
86.5334862385
 11
72.9588947986
 21
86.5334862385
  0
LINE
  8
0
 62
7
  6
CONTINUOUS
 10
66.6588947986
 20
88.4134862385
 11
59.9588624332
 21
88.4134862385
  0
LINE
  8
0
 62
7
  6
CONTINUOUS
 10
69.1315898053
 20
88.3908235972
 11
68.0953668455
 21
88.3931951867
  0
LINE
  8
0
 62
7
  6
CONTINUOUS
 10
45.3319272606
 20
84.3221832862
 11
43.9861997918
 21
84.3261488799
  0
POLYLINE
  8
0
 62
7
  6
CONTINUOUS
 66
1
 70
0
  0
VERTEX
  8
0
 62
7
  6
CONTINUOUS
 10
68.0953668455
 20
88.3931951867
  0
VERTEX
  8
0
 62
7
  6
CONTINUOUS
 10
67.256642874
 20
88.3990117681
  0
VERTEX
  8
0
 62
7
  6
CONTINUOUS
 10
67.0470418222
 20
88.4015597471
  0
VERTEX
  8
0
 62
7
  6
CONTINUOUS
 10
66.8797012726
 20
88.4043357601
  0
VERTEX
  8
0
 62
7
  6
CONTINUOUS
 10
66.7578244394
 20
88.4072868013
  0
VERTEX
  8
0
 62
7
  6
CONTINUOUS
 10
66.6837491359
 20
88.4103564083
  0
VERTEX
  8
0
 62
7
  6
CONTINUOUS
 10
66.6588947986
 20
88.4134862385
  0
SEQEND
  0
POLYLINE
  8
0
 62
7
  6
CONTINUOUS
 66
1
 70
0
  0
VERTEX
  8
0
 62
7
  6
CONTINUOUS
 10
46.4588947986
 20
84.3034862385
  0
VERTEX
  8
0
 62
7
  6
CONTINUOUS
 10
46.4340404618
 20
84.3066160687
  0
VERTEX
  8
0
 62
7
  6
CONTINUOUS
 10
46.3599651592
 20
84.3096856758
  0
VERTEX
  8
0
 62
7
  6
CONTINUOUS
 10
46.2380883267
 20
84.3126367169
  0
VERTEX
  8
0
 62
7
  6
CONTINUOUS
 10
46.0707477772
 20
84.31541273
  0
VERTEX
  8
0
 62
7
  6
CONTINUOUS
 10
45.8611467247
 20
84.317960709
  0
VERTEX
  8
0
 62
7
  6
CONTINUOUS
 10
45.3319272606
 20
84.3221832862
  0
SEQEND
  0
LINE
  8
0
 62
7
  6
CONTINUOUS
 10
55.1862344216
 20
67.0377781614
 11
55.2875123496
 21
66.9557649124
  0
LINE
  8
0
 62
7
  6
CONTINUOUS
 10
57.9340249698
 20
67.5791943156
 11
57.8302772475
 21
67.6632075646
  0
POLYLINE
  8
0
 62
7
  6
CONTINUOUS
 66
1
 70
0
  0
VERTEX
  8
0
 62
7
  6
CONTINUOUS
 10
55.3980298536
 20
236.7090146694
  0
VERTEX
  8
0
 62
7
  6
CONTINUOUS
 10
55.3397443258
 20
236.6337968908
  0
VERTEX
  8
0
 62
7
  6
CONTINUOUS
 10
55.2945404396
 20
236.5574526734
  0
VERTEX
  8
0
 62
7
  6
CONTINUOUS
 10
55.266352831
 20
236.4813415024
  0
SEQEND
  0
LINE
  8
0
 62
7
  6
CONTINUOUS
 10
55.2875123496
 20
213.7122075646
 11
55.1849995245
 21
213.6291943156
  0
POLYLINE
  8
0
 62
7
  6
CONTINUOUS
 66
1
 70
0
  0
VERTEX
  8
0
 62
7
  6
CONTINUOUS
 10
59.9588624332
 20
90.6534862385
  0
VERTEX
  8
0
 62
7
  6
CONTINUOUS
 10
59.8112667979
 20
90.6405740917
  0
VERTEX
  8
0
 62
7
  6
CONTINUOUS
 10
59.6681552394
 20
90.6022292357
  0
VERTEX
  8
0
 62
7
  6
CONTINUOUS
 10
59.5338762284
 20
90.539615796
  0
VERTEX
  8
0
 62
7
  6
CONTINUOUS
 10
59.4125102147
 20
90.454635666
  0
VERTEX
  8
0
 62
7
  6
CONTINUOUS
 10
59.3077453711
 20
90.3498708224
  0
VERTEX
  8
0
 62
7
  6
CONTINUOUS
 10
59.2227652412
 20
90.2285048087
  0
VERTEX
  8
0
 62
7
  6
CONTINUOUS
 10
59.1601518014
 20
90.0942257977
  0
VERTEX
  8
0
 62
7
  6
CONTINUOUS
 10
59.1218069454
 20
89.9511142392
  0
VERTEX
  8
0
 62
7
  6
CONTINUOUS
 10
59.1088947986
 20
89.8035186039
  0
SEQEND
  0
POLYLINE
  8
0
 62
7
  6
CONTINUOUS
 66
1
 70
0
  0
VERTEX
  8
0
 62
7
  6
CONTINUOUS
 10
53.158927164
 20
94.7634862385
  0
VERTEX
  8
0
 62
7
  6
CONTINUOUS
 10
53.3065227993
 20
94.7763983854
  0
VERTEX
  8
0
 62
7
  6
CONTINUOUS
 10
53.4496343578
 20
94.8147432414
  0
VERTEX
  8
0
 62
7
  6
CONTINUOUS
 10
53.5839133687
 20
94.8773566811
  0
VERTEX
  8
0
 62
7
  6
CONTINUOUS
 10
53.7052793825
 20
94.9623368111
  0
VERTEX
  8
0
 62
7
  6
CONTINUOUS
 10
53.810044226
 20
95.0671016546
  0
VERTEX
  8
0
 62
7
  6
CONTINUOUS
 10
53.895024356
 20
95.1884676684
  0
VERTEX
  8
0
 62
7
  6
CONTINUOUS
 10
53.9576377958
 20
95.3227466793
  0
VERTEX
  8
0
 62
7
  6
CONTINUOUS
 10
53.9959826517
 20
95.4658582378
  0
VERTEX
  8
0
 62
7
  6
CONTINUOUS
 10
54.0088947986
 20
95.6134538731
  0
SEQEND
  0
POLYLINE
  8
0
 62
7
  6
CONTINUOUS
 66
1
 70
0
  0
VERTEX
  8
0
 62
7
  6
CONTINUOUS
 10
67.0470418222
 20
90.66541273
  0
VERTEX
  8
0
 62
7
  6
CONTINUOUS
 10
66.8797012726
 20
90.662636717
  0
VERTEX
  8
0
 62
7
  6
CONTINUOUS
 10
66.7578244394
 20
90.6596856758
  0
VERTEX
  8
0
 62
7
  6
CONTINUOUS
 10
66.6837491359
 20
90.6566160688
  0
VERTEX
  8
0
 62
7
  6
CONTINUOUS
 10
66.6588947986
 20
90.6534862385
  0
SEQEND
  0
LINE
  8
0
 62
7
  6
CONTINUOUS
 10
67.5044956191
 20
90.6702320121
 11
67.0470418222
 21
90.66541273
  0
LINE
  8
0
 62
7
  6
CONTINUOUS
 10
46.0707477772
 20
94.7515597471
 11
45.613293978
 21
94.746740465
  0
LINE
  8
0
 62
7
  6
CONTINUOUS
 10
68.4270970322
 20
90.6749836024
 11
67.5044956191
 21
90.6702320121
  0
LINE
  8
0
 62
7
  6
CONTINUOUS
 10
45.613293978
 20
94.746740465
 11
44.6906925609
 21
94.7419888746
  0
LINE
  8
0
 62
7
  6
CONTINUOUS
 10
69.1315898053
 20
90.6761488799
 11
68.4270970322
 21
90.6749836024
  0
LINE
  8
0
 62
7
  6
CONTINUOUS
 10
44.6906925609
 20
94.7419888746
 11
43.9861997918
 21
94.7408235972
  0
LINE
  8
0
 62
7
  6
CONTINUOUS
 10
59.9588624332
 20
90.6534862385
 11
66.6588947986
 21
90.6534862385
  0
LINE
  8
0
 62
7
  6
CONTINUOUS
 10
72.9588947986
 20
92.5334862385
 11
59.1914308548
 21
92.5334862385
  0
LINE
  8
0
 62
7
  6
CONTINUOUS
 10
40.1588947986
 20
92.8834862385
 11
53.9263587424
 21
92.8834862385
  0
LINE
  8
0
 62
7
  6
CONTINUOUS
 10
53.158927164
 20
94.7634862385
 11
46.4588947986
 21
94.7634862385
  0
POLYLINE
  8
0
 62
7
  6
CONTINUOUS
 66
1
 70
0
  0
VERTEX
  8
0
 62
7
  6
CONTINUOUS
 10
69.1315898053
 20
90.6761488799
  0
VERTEX
  8
0
 62
7
  6
CONTINUOUS
 10
69.2773463769
 20
90.6635901897
  0
VERTEX
  8
0
 62
7
  6
CONTINUOUS
 10
69.4207899463
 20
90.6254158704
  0
VERTEX
  8
0
 62
7
  6
CONTINUOUS
 10
69.5546104157
 20
90.5632208531
  0
VERTEX
  8
0
 62
7
  6
CONTINUOUS
 10
69.6758428788
 20
90.4785652912
  0
VERTEX
  8
0
 62
7
  6
CONTINUOUS
 10
69.7816045061
 20
90.3728905092
  0
VERTEX
  8
0
 62
7
  6
CONTINUOUS
 10
69.8665781453
 20
90.2514442615
  0
VERTEX
  8
0
 62
7
  6
CONTINUOUS
 10
69.9291875732
 20
90.1171717343
  0
VERTEX
  8
0
 62
7
  6
CONTINUOUS
 10
69.9678165971
 20
89.9729227523
  0
VERTEX
  8
0
 62
7
  6
CONTINUOUS
 10
69.9806927739
 20
89.8253165793
  0
SEQEND
  0
POLYLINE
  8
0
 62
7
  6
CONTINUOUS
 66
1
 70
0
  0
VERTEX
  8
0
 62
7
  6
CONTINUOUS
 10
43.9861997918
 20
94.7408235972
  0
VERTEX
  8
0
 62
7
  6
CONTINUOUS
 10
43.8404432203
 20
94.7533822874
  0
VERTEX
  8
0
 62
7
  6
CONTINUOUS
 10
43.6969996509
 20
94.7915566067
  0
VERTEX
  8
0
 62
7
  6
CONTINUOUS
 10
43.5631791815
 20
94.8537516239
  0
VERTEX
  8
0
 62
7
  6
CONTINUOUS
 10
43.4419467184
 20
94.9384071858
  0
VERTEX
  8
0
 62
7
  6
CONTINUOUS
 10
43.336185091
 20
95.0440819678
  0
VERTEX
  8
0
 62
7
  6
CONTINUOUS
 10
43.2512114519
 20
95.1655282156
  0
VERTEX
  8
0
 62
7
  6
CONTINUOUS
 10
43.1886020239
 20
95.2998007427
  0
VERTEX
  8
0
 62
7
  6
CONTINUOUS
 10
43.1499730001
 20
95.4440497248
  0
VERTEX
  8
0
 62
7
  6
CONTINUOUS
 10
43.1370968232
 20
95.5916558978
  0
SEQEND
  0
LINE
  8
0
 62
7
  6
CONTINUOUS
 10
55.1849995245
 20
79.7377781614
 11
55.2875123496
 21
79.6547649124
  0
LINE
  8
0
 62
7
  6
CONTINUOUS
 10
57.8302772475
 20
213.0047649124
 11
57.9327900727
 21
213.0877781614
  0
POLYLINE
  8
0
 62
7
  6
CONTINUOUS
 66
1
 70
0
  0
VERTEX
  8
0
 62
7
  6
CONTINUOUS
 10
46.4588947986
 20
94.7634862385
  0
VERTEX
  8
0
 62
7
  6
CONTINUOUS
 10
46.4340404618
 20
94.7603564083
  0
VERTEX
  8
0
 62
7
  6
CONTINUOUS
 10
46.3599651592
 20
94.7572868013
  0
VERTEX
  8
0
 62
7
  6
CONTINUOUS
 10
46.2380883267
 20
94.7543357602
  0
VERTEX
  8
0
 62
7
  6
CONTINUOUS
 10
46.0707477772
 20
94.7515597471
  0
SEQEND
  0
LINE
  8
0
 62
7
  6
CONTINUOUS
 10
46.4588947986
 20
97.0034862385
 11
53.158927164
 21
97.0034862385
  0
LINE
  8
0
 62
7
  6
CONTINUOUS
 10
53.9263587424
 20
98.8834862385
 11
40.158924045
 21
98.8834862385
  0
LINE
  8
0
 62
7
  6
CONTINUOUS
 10
59.1914308548
 20
99.2334862385
 11
72.9588947986
 21
99.2334862385
  0
LINE
  8
0
 62
7
  6
CONTINUOUS
 10
66.6588947986
 20
101.1134862385
 11
59.9588624332
 21
101.1134862385
  0
LINE
  8
0
 62
7
  6
CONTINUOUS
 10
69.1315898053
 20
101.0908235972
 11
68.0953668455
 21
101.0931951867
  0
LINE
  8
0
 62
7
  6
CONTINUOUS
 10
45.3319272606
 20
97.0221832862
 11
43.9861997918
 21
97.0261488799
  0
POLYLINE
  8
0
 62
7
  6
CONTINUOUS
 66
1
 70
0
  0
VERTEX
  8
0
 62
7
  6
CONTINUOUS
 10
68.0953668455
 20
101.0931951867
  0
VERTEX
  8
0
 62
7
  6
CONTINUOUS
 10
67.256642874
 20
101.0990117681
  0
VERTEX
  8
0
 62
7
  6
CONTINUOUS
 10
67.0470418222
 20
101.1015597471
  0
VERTEX
  8
0
 62
7
  6
CONTINUOUS
 10
66.8797012726
 20
101.1043357601
  0
VERTEX
  8
0
 62
7
  6
CONTINUOUS
 10
66.7578244394
 20
101.1072868013
  0
VERTEX
  8
0
 62
7
  6
CONTINUOUS
 10
66.6837491359
 20
101.1103564083
  0
VERTEX
  8
0
 62
7
  6
CONTINUOUS
 10
66.6588947986
 20
101.1134862385
  0
SEQEND
  0
POLYLINE
  8
0
 62
7
  6
CONTINUOUS
 66
1
 70
0
  0
VERTEX
  8
0
 62
7
  6
CONTINUOUS
 10
46.4588947986
 20
97.0034862385
  0
VERTEX
  8
0
 62
7
  6
CONTINUOUS
 10
46.4340404618
 20
97.0066160687
  0
VERTEX
  8
0
 62
7
  6
CONTINUOUS
 10
46.3599651592
 20
97.0096856758
  0
VERTEX
  8
0
 62
7
  6
CONTINUOUS
 10
46.2380883267
 20
97.0126367169
  0
VERTEX
  8
0
 62
7
  6
CONTINUOUS
 10
46.0707477772
 20
97.01541273
  0
VERTEX
  8
0
 62
7
  6
CONTINUOUS
 10
45.8611467247
 20
97.017960709
  0
VERTEX
  8
0
 62
7
  6
CONTINUOUS
 10
45.3319272606
 20
97.0221832862
  0
SEQEND
  0
LINE
  8
0
 62
7
  6
CONTINUOUS
 10
57.9327900727
 20
80.2791943156
 11
57.8302772475
 21
80.3622075646
  0
LINE
  8
0
 62
7
  6
CONTINUOUS
 10
55.2875123496
 20
201.0122075646
 11
55.1849995245
 21
200.9291943156
  0
LINE
  8
0
 62
7
  6
CONTINUOUS
 10
57.8302772475
 20
200.3047649124
 11
57.9327900727
 21
200.3877781614
  0
POLYLINE
  8
0
 62
7
  6
CONTINUOUS
 66
1
 70
0
  0
VERTEX
  8
0
 62
7
  6
CONTINUOUS
 10
59.9588624332
 20
103.3534862385
  0
VERTEX
  8
0
 62
7
  6
CONTINUOUS
 10
59.8112667979
 20
103.3405740917
  0
VERTEX
  8
0
 62
7
  6
CONTINUOUS
 10
59.6681552394
 20
103.3022292357
  0
VERTEX
  8
0
 62
7
  6
CONTINUOUS
 10
59.5338762284
 20
103.239615796
  0
VERTEX
  8
0
 62
7
  6
CONTINUOUS
 10
59.4125102147
 20
103.154635666
  0
VERTEX
  8
0
 62
7
  6
CONTINUOUS
 10
59.3077453711
 20
103.0498708224
  0
VERTEX
  8
0
 62
7
  6
CONTINUOUS
 10
59.2227652412
 20
102.9285048087
  0
VERTEX
  8
0
 62
7
  6
CONTINUOUS
 10
59.1601518014
 20
102.7942257977
  0
VERTEX
  8
0
 62
7
  6
CONTINUOUS
 10
59.1218069454
 20
102.6511142392
  0
VERTEX
  8
0
 62
7
  6
CONTINUOUS
 10
59.1088947986
 20
102.5035186039
  0
SEQEND
  0
POLYLINE
  8
0
 62
7
  6
CONTINUOUS
 66
1
 70
0
  0
VERTEX
  8
0
 62
7
  6
CONTINUOUS
 10
53.158927164
 20
107.4634862385
  0
VERTEX
  8
0
 62
7
  6
CONTINUOUS
 10
53.3065227993
 20
107.4763983854
  0
VERTEX
  8
0
 62
7
  6
CONTINUOUS
 10
53.4496343578
 20
107.5147432414
  0
VERTEX
  8
0
 62
7
  6
CONTINUOUS
 10
53.5839133687
 20
107.5773566811
  0
VERTEX
  8
0
 62
7
  6
CONTINUOUS
 10
53.7052793825
 20
107.6623368111
  0
VERTEX
  8
0
 62
7
  6
CONTINUOUS
 10
53.810044226
 20
107.7671016546
  0
VERTEX
  8
0
 62
7
  6
CONTINUOUS
 10
53.895024356
 20
107.8884676684
  0
VERTEX
  8
0
 62
7
  6
CONTINUOUS
 10
53.9576377958
 20
108.0227466793
  0
VERTEX
  8
0
 62
7
  6
CONTINUOUS
 10
53.9959826517
 20
108.1658582378
  0
VERTEX
  8
0
 62
7
  6
CONTINUOUS
 10
54.0088947986
 20
108.3134538731
  0
SEQEND
  0
POLYLINE
  8
0
 62
7
  6
CONTINUOUS
 66
1
 70
0
  0
VERTEX
  8
0
 62
7
  6
CONTINUOUS
 10
67.0470418222
 20
103.36541273
  0
VERTEX
  8
0
 62
7
  6
CONTINUOUS
 10
66.8797012726
 20
103.362636717
  0
VERTEX
  8
0
 62
7
  6
CONTINUOUS
 10
66.7578244394
 20
103.3596856758
  0
VERTEX
  8
0
 62
7
  6
CONTINUOUS
 10
66.6837491359
 20
103.3566160688
  0
VERTEX
  8
0
 62
7
  6
CONTINUOUS
 10
66.6588947986
 20
103.3534862385
  0
SEQEND
  0
LINE
  8
0
 62
7
  6
CONTINUOUS
 10
67.5044956191
 20
103.3702320121
 11
67.0470418222
 21
103.36541273
  0
LINE
  8
0
 62
7
  6
CONTINUOUS
 10
46.0707477772
 20
107.4515597471
 11
45.613293978
 21
107.446740465
  0
LINE
  8
0
 62
7
  6
CONTINUOUS
 10
68.4270970322
 20
103.3749836024
 11
67.5044956191
 21
103.3702320121
  0
LINE
  8
0
 62
7
  6
CONTINUOUS
 10
45.613293978
 20
107.446740465
 11
44.6906925609
 21
107.4419888746
  0
LINE
  8
0
 62
7
  6
CONTINUOUS
 10
69.1315898053
 20
103.3761488799
 11
68.4270970322
 21
103.3749836024
  0
LINE
  8
0
 62
7
  6
CONTINUOUS
 10
44.6906925609
 20
107.4419888746
 11
43.9861997918
 21
107.4408235972
  0
LINE
  8
0
 62
7
  6
CONTINUOUS
 10
59.9588624332
 20
103.3534862385
 11
66.6588947986
 21
103.3534862385
  0
LINE
  8
0
 62
7
  6
CONTINUOUS
 10
72.9588947986
 20
105.2334862385
 11
59.1914308548
 21
105.2334862385
  0
LINE
  8
0
 62
7
  6
CONTINUOUS
 10
40.1588947986
 20
105.5834862385
 11
53.9263587424
 21
105.5834862385
  0
LINE
  8
0
 62
7
  6
CONTINUOUS
 10
53.158927164
 20
107.4634862385
 11
46.4588947986
 21
107.4634862385
  0
POLYLINE
  8
0
 62
7
  6
CONTINUOUS
 66
1
 70
0
  0
VERTEX
  8
0
 62
7
  6
CONTINUOUS
 10
69.1315898053
 20
103.3761488799
  0
VERTEX
  8
0
 62
7
  6
CONTINUOUS
 10
69.2773463769
 20
103.3635901897
  0
VERTEX
  8
0
 62
7
  6
CONTINUOUS
 10
69.4207899463
 20
103.3254158704
  0
VERTEX
  8
0
 62
7
  6
CONTINUOUS
 10
69.5546104157
 20
103.2632208531
  0
VERTEX
  8
0
 62
7
  6
CONTINUOUS
 10
69.6758428788
 20
103.1785652912
  0
VERTEX
  8
0
 62
7
  6
CONTINUOUS
 10
69.7816045061
 20
103.0728905092
  0
VERTEX
  8
0
 62
7
  6
CONTINUOUS
 10
69.8665781453
 20
102.9514442615
  0
VERTEX
  8
0
 62
7
  6
CONTINUOUS
 10
69.9291875732
 20
102.8171717343
  0
VERTEX
  8
0
 62
7
  6
CONTINUOUS
 10
69.9678165971
 20
102.6729227523
  0
VERTEX
  8
0
 62
7
  6
CONTINUOUS
 10
69.9806927739
 20
102.5253165793
  0
SEQEND
  0
POLYLINE
  8
0
 62
7
  6
CONTINUOUS
 66
1
 70
0
  0
VERTEX
  8
0
 62
7
  6
CONTINUOUS
 10
43.9861997918
 20
107.4408235972
  0
VERTEX
  8
0
 62
7
  6
CONTINUOUS
 10
43.8404432203
 20
107.4533822874
  0
VERTEX
  8
0
 62
7
  6
CONTINUOUS
 10
43.6969996509
 20
107.4915566067
  0
VERTEX
  8
0
 62
7
  6
CONTINUOUS
 10
43.5631791815
 20
107.5537516239
  0
VERTEX
  8
0
 62
7
  6
CONTINUOUS
 10
43.4419467184
 20
107.6384071858
  0
VERTEX
  8
0
 62
7
  6
CONTINUOUS
 10
43.336185091
 20
107.7440819678
  0
VERTEX
  8
0
 62
7
  6
CONTINUOUS
 10
43.2512114519
 20
107.8655282156
  0
VERTEX
  8
0
 62
7
  6
CONTINUOUS
 10
43.1886020239
 20
107.9998007427
  0
VERTEX
  8
0
 62
7
  6
CONTINUOUS
 10
43.1499730001
 20
108.1440497248
  0
VERTEX
  8
0
 62
7
  6
CONTINUOUS
 10
43.1370968232
 20
108.2916558978
  0
SEQEND
  0
POLYLINE
  8
0
 62
7
  6
CONTINUOUS
 66
1
 70
0
  0
VERTEX
  8
0
 62
7
  6
CONTINUOUS
 10
46.4588947986
 20
109.7034862385
  0
VERTEX
  8
0
 62
7
  6
CONTINUOUS
 10
46.4340404618
 20
109.7066160687
  0
VERTEX
  8
0
 62
7
  6
CONTINUOUS
 10
46.3599651592
 20
109.7096856758
  0
VERTEX
  8
0
 62
7
  6
CONTINUOUS
 10
46.2380883267
 20
109.7126367169
  0
VERTEX
  8
0
 62
7
  6
CONTINUOUS
 10
46.0707477772
 20
109.71541273
  0
VERTEX
  8
0
 62
7
  6
CONTINUOUS
 10
45.8611467247
 20
109.717960709
  0
VERTEX
  8
0
 62
7
  6
CONTINUOUS
 10
45.3319272606
 20
109.7221832862
  0
SEQEND
  0
LINE
  8
0
 62
7
  6
CONTINUOUS
 10
55.1849995245
 20
92.4377781614
 11
55.2875123496
 21
92.3547649124
  0
LINE
  8
0
 62
7
  6
CONTINUOUS
 10
57.9327900727
 20
92.9791943156
 11
57.8302772475
 21
93.0622075646
  0
POLYLINE
  8
0
 62
7
  6
CONTINUOUS
 66
1
 70
0
  0
VERTEX
  8
0
 62
7
  6
CONTINUOUS
 10
55.266352831
 20
236.4813415024
  0
VERTEX
  8
0
 62
7
  6
CONTINUOUS
 10
55.2572711522
 20
236.4600185993
  0
VERTEX
  8
0
 62
7
  6
CONTINUOUS
 10
55.2411901354
 20
236.4444725981
  0
VERTEX
  8
0
 62
7
  6
CONTINUOUS
 10
55.2197770386
 20
236.4359775001
  0
VERTEX
  8
0
 62
7
  6
CONTINUOUS
 10
55.1950900342
 20
236.4334862385
  0
SEQEND
  0
LINE
  8
0
 62
7
  6
CONTINUOUS
 10
55.2875123496
 20
188.3122075646
 11
55.1849995245
 21
188.2291943156
  0
POLYLINE
  8
0
 62
7
  6
CONTINUOUS
 66
1
 70
0
  0
VERTEX
  8
0
 62
7
  6
CONTINUOUS
 10
46.4588947986
 20
107.4634862385
  0
VERTEX
  8
0
 62
7
  6
CONTINUOUS
 10
46.4340404618
 20
107.4603564083
  0
VERTEX
  8
0
 62
7
  6
CONTINUOUS
 10
46.3599651592
 20
107.4572868013
  0
VERTEX
  8
0
 62
7
  6
CONTINUOUS
 10
46.2380883267
 20
107.4543357602
  0
VERTEX
  8
0
 62
7
  6
CONTINUOUS
 10
46.0707477772
 20
107.4515597471
  0
SEQEND
  0
LINE
  8
0
 62
7
  6
CONTINUOUS
 10
46.4588947986
 20
109.7034862385
 11
53.158927164
 21
109.7034862385
  0
LINE
  8
0
 62
7
  6
CONTINUOUS
 10
53.9263587424
 20
111.5834862385
 11
40.158924045
 21
111.5834862385
  0
LINE
  8
0
 62
7
  6
CONTINUOUS
 10
59.1914308548
 20
111.9334862385
 11
72.9588947986
 21
111.9334862385
  0
LINE
  8
0
 62
7
  6
CONTINUOUS
 10
66.6588947986
 20
113.8134862385
 11
59.9588624332
 21
113.8134862385
  0
LINE
  8
0
 62
7
  6
CONTINUOUS
 10
69.1315898053
 20
113.7908235972
 11
68.0953668455
 21
113.7931951867
  0
LINE
  8
0
 62
7
  6
CONTINUOUS
 10
45.3319272606
 20
109.7221832862
 11
43.9861997918
 21
109.7261488799
  0
POLYLINE
  8
0
 62
7
  6
CONTINUOUS
 66
1
 70
0
  0
VERTEX
  8
0
 62
7
  6
CONTINUOUS
 10
68.0953668455
 20
113.7931951867
  0
VERTEX
  8
0
 62
7
  6
CONTINUOUS
 10
67.256642874
 20
113.7990117681
  0
VERTEX
  8
0
 62
7
  6
CONTINUOUS
 10
67.0470418222
 20
113.8015597471
  0
VERTEX
  8
0
 62
7
  6
CONTINUOUS
 10
66.8797012726
 20
113.8043357601
  0
VERTEX
  8
0
 62
7
  6
CONTINUOUS
 10
66.7578244394
 20
113.8072868013
  0
VERTEX
  8
0
 62
7
  6
CONTINUOUS
 10
66.6837491359
 20
113.8103564083
  0
VERTEX
  8
0
 62
7
  6
CONTINUOUS
 10
66.6588947986
 20
113.8134862385
  0
SEQEND
  0
LINE
  8
0
 62
7
  6
CONTINUOUS
 10
55.1849995245
 20
105.1377781614
 11
55.2875123496
 21
105.0547649124
  0
POLYLINE
  8
0
 62
7
  6
CONTINUOUS
 66
1
 70
0
  0
VERTEX
  8
0
 62
7
  6
CONTINUOUS
 10
55.2663588244
 20
56.8856222126
  0
VERTEX
  8
0
 62
7
  6
CONTINUOUS
 10
55.2944389728
 20
56.809727199
  0
VERTEX
  8
0
 62
7
  6
CONTINUOUS
 10
55.3394462173
 20
56.7336102647
  0
VERTEX
  8
0
 62
7
  6
CONTINUOUS
 10
55.3980298536
 20
56.6579578076
  0
SEQEND
  0
LINE
  8
0
 62
7
  6
CONTINUOUS
 10
57.8302772475
 20
187.6047649124
 11
57.9327900727
 21
187.6877781614
  0
POLYLINE
  8
0
 62
7
  6
CONTINUOUS
 66
1
 70
0
  0
VERTEX
  8
0
 62
7
  6
CONTINUOUS
 10
46.4588947986
 20
120.1634862385
  0
VERTEX
  8
0
 62
7
  6
CONTINUOUS
 10
46.4340404618
 20
120.1603564083
  0
VERTEX
  8
0
 62
7
  6
CONTINUOUS
 10
46.3599651592
 20
120.1572868013
  0
VERTEX
  8
0
 62
7
  6
CONTINUOUS
 10
46.2380883267
 20
120.1543357602
  0
VERTEX
  8
0
 62
7
  6
CONTINUOUS
 10
46.0707477772
 20
120.1515597471
  0
SEQEND
  0
POLYLINE
  8
0
 62
7
  6
CONTINUOUS
 66
1
 70
0
  0
VERTEX
  8
0
 62
7
  6
CONTINUOUS
 10
59.9588624332
 20
116.0534862385
  0
VERTEX
  8
0
 62
7
  6
CONTINUOUS
 10
59.8112667979
 20
116.0405740917
  0
VERTEX
  8
0
 62
7
  6
CONTINUOUS
 10
59.6681552394
 20
116.0022292357
  0
VERTEX
  8
0
 62
7
  6
CONTINUOUS
 10
59.5338762284
 20
115.939615796
  0
VERTEX
  8
0
 62
7
  6
CONTINUOUS
 10
59.4125102147
 20
115.854635666
  0
VERTEX
  8
0
 62
7
  6
CONTINUOUS
 10
59.3077453711
 20
115.7498708224
  0
VERTEX
  8
0
 62
7
  6
CONTINUOUS
 10
59.2227652412
 20
115.6285048087
  0
VERTEX
  8
0
 62
7
  6
CONTINUOUS
 10
59.1601518014
 20
115.4942257977
  0
VERTEX
  8
0
 62
7
  6
CONTINUOUS
 10
59.1218069454
 20
115.3511142392
  0
VERTEX
  8
0
 62
7
  6
CONTINUOUS
 10
59.1088947986
 20
115.2035186039
  0
SEQEND
  0
POLYLINE
  8
0
 62
7
  6
CONTINUOUS
 66
1
 70
0
  0
VERTEX
  8
0
 62
7
  6
CONTINUOUS
 10
53.158927164
 20
120.1634862385
  0
VERTEX
  8
0
 62
7
  6
CONTINUOUS
 10
53.3065227993
 20
120.1763983854
  0
VERTEX
  8
0
 62
7
  6
CONTINUOUS
 10
53.4496343578
 20
120.2147432414
  0
VERTEX
  8
0
 62
7
  6
CONTINUOUS
 10
53.5839133687
 20
120.2773566811
  0
VERTEX
  8
0
 62
7
  6
CONTINUOUS
 10
53.7052793825
 20
120.3623368111
  0
VERTEX
  8
0
 62
7
  6
CONTINUOUS
 10
53.810044226
 20
120.4671016546
  0
VERTEX
  8
0
 62
7
  6
CONTINUOUS
 10
53.895024356
 20
120.5884676684
  0
VERTEX
  8
0
 62
7
  6
CONTINUOUS
 10
53.9576377958
 20
120.7227466793
  0
VERTEX
  8
0
 62
7
  6
CONTINUOUS
 10
53.9959826517
 20
120.8658582378
  0
VERTEX
  8
0
 62
7
  6
CONTINUOUS
 10
54.0088947986
 20
121.0134538731
  0
SEQEND
  0
POLYLINE
  8
0
 62
7
  6
CONTINUOUS
 66
1
 70
0
  0
VERTEX
  8
0
 62
7
  6
CONTINUOUS
 10
67.0470418222
 20
116.06541273
  0
VERTEX
  8
0
 62
7
  6
CONTINUOUS
 10
66.8797012726
 20
116.062636717
  0
VERTEX
  8
0
 62
7
  6
CONTINUOUS
 10
66.7578244394
 20
116.0596856758
  0
VERTEX
  8
0
 62
7
  6
CONTINUOUS
 10
66.6837491359
 20
116.0566160688
  0
VERTEX
  8
0
 62
7
  6
CONTINUOUS
 10
66.6588947986
 20
116.0534862385
  0
SEQEND
  0
LINE
  8
0
 62
7
  6
CONTINUOUS
 10
67.5044956191
 20
116.0702320121
 11
67.0470418222
 21
116.06541273
  0
LINE
  8
0
 62
7
  6
CONTINUOUS
 10
46.0707477772
 20
120.1515597471
 11
45.613293978
 21
120.146740465
  0
LINE
  8
0
 62
7
  6
CONTINUOUS
 10
68.4270970322
 20
116.0749836024
 11
67.5044956191
 21
116.0702320121
  0
LINE
  8
0
 62
7
  6
CONTINUOUS
 10
45.613293978
 20
120.146740465
 11
44.6906925609
 21
120.1419888746
  0
LINE
  8
0
 62
7
  6
CONTINUOUS
 10
69.1315898053
 20
116.0761488799
 11
68.4270970322
 21
116.0749836024
  0
LINE
  8
0
 62
7
  6
CONTINUOUS
 10
44.6906925609
 20
120.1419888746
 11
43.9861997918
 21
120.1408235972
  0
LINE
  8
0
 62
7
  6
CONTINUOUS
 10
59.9588624332
 20
116.0534862385
 11
66.6588947986
 21
116.0534862385
  0
LINE
  8
0
 62
7
  6
CONTINUOUS
 10
72.9588947986
 20
117.9334862385
 11
59.1914308548
 21
117.9334862385
  0
LINE
  8
0
 62
7
  6
CONTINUOUS
 10
40.1588947986
 20
118.2834862385
 11
53.9263587424
 21
118.2834862385
  0
LINE
  8
0
 62
7
  6
CONTINUOUS
 10
53.158927164
 20
120.1634862385
 11
46.4588947986
 21
120.1634862385
  0
POLYLINE
  8
0
 62
7
  6
CONTINUOUS
 66
1
 70
0
  0
VERTEX
  8
0
 62
7
  6
CONTINUOUS
 10
69.1315898053
 20
116.0761488799
  0
VERTEX
  8
0
 62
7
  6
CONTINUOUS
 10
69.2773463769
 20
116.0635901897
  0
VERTEX
  8
0
 62
7
  6
CONTINUOUS
 10
69.4207899463
 20
116.0254158704
  0
VERTEX
  8
0
 62
7
  6
CONTINUOUS
 10
69.5546104157
 20
115.9632208531
  0
VERTEX
  8
0
 62
7
  6
CONTINUOUS
 10
69.6758428788
 20
115.8785652912
  0
VERTEX
  8
0
 62
7
  6
CONTINUOUS
 10
69.7816045061
 20
115.7728905092
  0
VERTEX
  8
0
 62
7
  6
CONTINUOUS
 10
69.8665781453
 20
115.6514442615
  0
VERTEX
  8
0
 62
7
  6
CONTINUOUS
 10
69.9291875732
 20
115.5171717343
  0
VERTEX
  8
0
 62
7
  6
CONTINUOUS
 10
69.9678165971
 20
115.3729227523
  0
VERTEX
  8
0
 62
7
  6
CONTINUOUS
 10
69.9806927739
 20
115.2253165793
  0
SEQEND
  0
POLYLINE
  8
0
 62
7
  6
CONTINUOUS
 66
1
 70
0
  0
VERTEX
  8
0
 62
7
  6
CONTINUOUS
 10
43.9861997918
 20
120.1408235972
  0
VERTEX
  8
0
 62
7
  6
CONTINUOUS
 10
43.8404432203
 20
120.1533822874
  0
VERTEX
  8
0
 62
7
  6
CONTINUOUS
 10
43.6969996509
 20
120.1915566067
  0
VERTEX
  8
0
 62
7
  6
CONTINUOUS
 10
43.5631791815
 20
120.2537516239
  0
VERTEX
  8
0
 62
7
  6
CONTINUOUS
 10
43.4419467184
 20
120.3384071858
  0
VERTEX
  8
0
 62
7
  6
CONTINUOUS
 10
43.336185091
 20
120.4440819678
  0
VERTEX
  8
0
 62
7
  6
CONTINUOUS
 10
43.2512114519
 20
120.5655282156
  0
VERTEX
  8
0
 62
7
  6
CONTINUOUS
 10
43.1886020239
 20
120.6998007427
  0
VERTEX
  8
0
 62
7
  6
CONTINUOUS
 10
43.1499730001
 20
120.8440497248
  0
VERTEX
  8
0
 62
7
  6
CONTINUOUS
 10
43.1370968232
 20
120.9916558978
  0
SEQEND
  0
POLYLINE
  8
0
 62
7
  6
CONTINUOUS
 66
1
 70
0
  0
VERTEX
  8
0
 62
7
  6
CONTINUOUS
 10
46.4588947986
 20
122.4034862385
  0
VERTEX
  8
0
 62
7
  6
CONTINUOUS
 10
46.4340404618
 20
122.4066160687
  0
VERTEX
  8
0
 62
7
  6
CONTINUOUS
 10
46.3599651592
 20
122.4096856758
  0
VERTEX
  8
0
 62
7
  6
CONTINUOUS
 10
46.2380883267
 20
122.4126367169
  0
VERTEX
  8
0
 62
7
  6
CONTINUOUS
 10
46.0707477772
 20
122.41541273
  0
VERTEX
  8
0
 62
7
  6
CONTINUOUS
 10
45.8611467247
 20
122.417960709
  0
VERTEX
  8
0
 62
7
  6
CONTINUOUS
 10
45.3319272606
 20
122.4221832862
  0
SEQEND
  0
LINE
  8
0
 62
7
  6
CONTINUOUS
 10
57.9327900727
 20
105.6791943156
 11
57.8302772475
 21
105.7622075646
  0
POLYLINE
  8
0
 62
7
  6
CONTINUOUS
 66
1
 70
0
  0
VERTEX
  8
0
 62
7
  6
CONTINUOUS
 10
43.1370968232
 20
223.1753165793
  0
VERTEX
  8
0
 62
7
  6
CONTINUOUS
 10
43.1499531575
 20
223.3228098238
  0
VERTEX
  8
0
 62
7
  6
CONTINUOUS
 10
43.1885792745
 20
223.4671092712
  0
VERTEX
  8
0
 62
7
  6
CONTINUOUS
 10
43.2511734841
 20
223.6013784546
  0
VERTEX
  8
0
 62
7
  6
CONTINUOUS
 10
43.3360931121
 20
223.7227807838
  0
VERTEX
  8
0
 62
7
  6
CONTINUOUS
 10
43.4418263032
 20
223.8284644951
  0
VERTEX
  8
0
 62
7
  6
CONTINUOUS
 10
43.5630821931
 20
223.9131650206
  0
VERTEX
  8
0
 62
7
  6
CONTINUOUS
 10
43.6968907899
 20
223.9753763904
  0
VERTEX
  8
0
 62
7
  6
CONTINUOUS
 10
43.840281522
 20
224.013562023
  0
VERTEX
  8
0
 62
7
  6
CONTINUOUS
 10
43.9861997918
 20
224.0261488799
  0
SEQEND
  0
POLYLINE
  8
0
 62
7
  6
CONTINUOUS
 66
1
 70
0
  0
VERTEX
  8
0
 62
7
  6
CONTINUOUS
 10
43.1370968232
 20
210.4753165793
  0
VERTEX
  8
0
 62
7
  6
CONTINUOUS
 10
43.1499531575
 20
210.6228098238
  0
VERTEX
  8
0
 62
7
  6
CONTINUOUS
 10
43.1885792745
 20
210.7671092712
  0
VERTEX
  8
0
 62
7
  6
CONTINUOUS
 10
43.2511734841
 20
210.9013784546
  0
VERTEX
  8
0
 62
7
  6
CONTINUOUS
 10
43.3360931121
 20
211.0227807838
  0
VERTEX
  8
0
 62
7
  6
CONTINUOUS
 10
43.4418263032
 20
211.1284644951
  0
VERTEX
  8
0
 62
7
  6
CONTINUOUS
 10
43.5630821931
 20
211.2131650206
  0
VERTEX
  8
0
 62
7
  6
CONTINUOUS
 10
43.6968907899
 20
211.2753763904
  0
VERTEX
  8
0
 62
7
  6
CONTINUOUS
 10
43.840281522
 20
211.313562023
  0
VERTEX
  8
0
 62
7
  6
CONTINUOUS
 10
43.9861997918
 20
211.3261488799
  0
SEQEND
  0
LINE
  8
0
 62
7
  6
CONTINUOUS
 10
55.2875123496
 20
175.6122075646
 11
55.1849995245
 21
175.5291943156
  0
LINE
  8
0
 62
7
  6
CONTINUOUS
 10
57.8302772475
 20
174.9047649124
 11
57.9327900727
 21
174.9877781614
  0
POLYLINE
  8
0
 62
7
  6
CONTINUOUS
 66
1
 70
0
  0
VERTEX
  8
0
 62
7
  6
CONTINUOUS
 10
66.6588947986
 20
128.3996365118
  0
VERTEX
  8
0
 62
7
  6
CONTINUOUS
 10
66.688613356
 20
128.403057325
  0
VERTEX
  8
0
 62
7
  6
CONTINUOUS
 10
66.7770772361
 20
128.4063995899
  0
VERTEX
  8
0
 62
7
  6
CONTINUOUS
 10
66.9222605701
 20
128.4095872096
  0
SEQEND
  0
POLYLINE
  8
0
 62
7
  6
CONTINUOUS
 66
1
 70
0
  0
VERTEX
  8
0
 62
7
  6
CONTINUOUS
 10
59.9588624332
 20
128.3996365118
  0
VERTEX
  8
0
 62
7
  6
CONTINUOUS
 10
59.8489242516
 20
128.3873098569
  0
VERTEX
  8
0
 62
7
  6
CONTINUOUS
 10
59.7438022262
 20
128.3505974637
  0
VERTEX
  8
0
 62
7
  6
CONTINUOUS
 10
59.6499008473
 20
128.2916964267
  0
VERTEX
  8
0
 62
7
  6
CONTINUOUS
 10
59.5706846104
 20
128.2124801898
  0
VERTEX
  8
0
 62
7
  6
CONTINUOUS
 10
59.5117835734
 20
128.1185788109
  0
VERTEX
  8
0
 62
7
  6
CONTINUOUS
 10
59.4750711802
 20
128.0134567855
  0
VERTEX
  8
0
 62
7
  6
CONTINUOUS
 10
59.4627445253
 20
127.9035186039
  0
SEQEND
  0
POLYLINE
  8
0
 62
7
  6
CONTINUOUS
 66
1
 70
0
  0
VERTEX
  8
0
 62
7
  6
CONTINUOUS
 10
69.108927164
 20
126.8446838846
  0
VERTEX
  8
0
 62
7
  6
CONTINUOUS
 10
69.2207593283
 20
126.856838499
  0
VERTEX
  8
0
 62
7
  6
CONTINUOUS
 10
69.3301469328
 20
126.8941864405
  0
VERTEX
  8
0
 62
7
  6
CONTINUOUS
 10
69.4307748875
 20
126.9565994637
  0
VERTEX
  8
0
 62
7
  6
CONTINUOUS
 10
69.515534191
 20
127.0413922044
  0
VERTEX
  8
0
 62
7
  6
CONTINUOUS
 10
69.5779373709
 20
127.1420707277
  0
VERTEX
  8
0
 62
7
  6
CONTINUOUS
 10
69.6152892533
 20
127.2514565969
  0
VERTEX
  8
0
 62
7
  6
CONTINUOUS
 10
69.6275057409
 20
127.3634538731
  0
SEQEND
  0
LINE
  8
0
 62
7
  6
CONTINUOUS
 10
46.4588947986
 20
122.4034862385
 11
53.158927164
 21
122.4034862385
  0
LINE
  8
0
 62
7
  6
CONTINUOUS
 10
53.9263587424
 20
124.2834862385
 11
40.158924045
 21
124.2834862385
  0
LINE
  8
0
 62
7
  6
CONTINUOUS
 10
59.1914308548
 20
124.6334862385
 11
72.9588947986
 21
124.6334862385
  0
LINE
  8
0
 62
7
  6
CONTINUOUS
 10
66.6588947986
 20
126.5134862385
 11
59.9588624332
 21
126.5134862385
  0
LINE
  8
0
 62
7
  6
CONTINUOUS
 10
59.9588624332
 20
126.8673359652
 11
66.6588947986
 21
126.8673359652
  0
LINE
  8
0
 62
7
  6
CONTINUOUS
 10
69.1315898053
 20
126.4908235972
 11
68.0953668455
 21
126.4931951867
  0
LINE
  8
0
 62
7
  6
CONTINUOUS
 10
67.9860376375
 20
126.8475511057
 11
69.108927164
 21
126.8446838846
  0
LINE
  8
0
 62
7
  6
CONTINUOUS
 10
45.3319272606
 20
122.4221832862
 11
43.9861997918
 21
122.4261488799
  0
LINE
  8
0
 62
7
  6
CONTINUOUS
 10
67.3682605914
 20
126.851760273
 11
67.9860376375
 21
126.8475511057
  0
POLYLINE
  8
0
 62
7
  6
CONTINUOUS
 66
1
 70
0
  0
VERTEX
  8
0
 62
7
  6
CONTINUOUS
 10
68.0953668455
 20
126.4931951867
  0
VERTEX
  8
0
 62
7
  6
CONTINUOUS
 10
67.256642874
 20
126.4990117681
  0
VERTEX
  8
0
 62
7
  6
CONTINUOUS
 10
67.0470418222
 20
126.5015597471
  0
VERTEX
  8
0
 62
7
  6
CONTINUOUS
 10
66.8797012726
 20
126.5043357601
  0
VERTEX
  8
0
 62
7
  6
CONTINUOUS
 10
66.7578244394
 20
126.5072868013
  0
VERTEX
  8
0
 62
7
  6
CONTINUOUS
 10
66.6837491359
 20
126.5103564083
  0
VERTEX
  8
0
 62
7
  6
CONTINUOUS
 10
66.6588947986
 20
126.5134862385
  0
SEQEND
  0
POLYLINE
  8
0
 62
7
  6
CONTINUOUS
 66
1
 70
0
  0
VERTEX
  8
0
 62
7
  6
CONTINUOUS
 10
66.6588947986
 20
126.8673359652
  0
VERTEX
  8
0
 62
7
  6
CONTINUOUS
 10
66.6886133561
 20
126.8639151521
  0
VERTEX
  8
0
 62
7
  6
CONTINUOUS
 10
66.7770772362
 20
126.8605728871
  0
VERTEX
  8
0
 62
7
  6
CONTINUOUS
 10
66.9222605703
 20
126.8573852674
  0
VERTEX
  8
0
 62
7
  6
CONTINUOUS
 10
67.3682605914
 20
126.851760273
  0
SEQEND
  0
LINE
  8
0
 62
7
  6
CONTINUOUS
 10
55.1849995245
 20
117.8377781614
 11
55.2875123496
 21
117.7547649124
  0
LINE
  8
0
 62
7
  6
CONTINUOUS
 10
57.9327900727
 20
118.3791943156
 11
57.8302772475
 21
118.4622075646
  0
LINE
  8
2_FEATURE
 62
7
  6
CONTINUOUS
 10
39.3088947986
 20
241.0834862385
 11
39.3088947986
 21
235.0234862385
  0
LINE
  8
2_FEATURE
 62
7
  6
CONTINUOUS
 10
39.3088947986
 20
225.0334862385
 11
39.3088947986
 21
220.7334862385
  0
LINE
  8
2_FEATURE
 62
7
  6
CONTINUOUS
 10
39.3088947986
 20
212.3334862385
 11
39.3088947986
 21
208.0334862385
  0
LINE
  8
2_FEATURE
 62
7
  6
CONTINUOUS
 10
39.3088947986
 20
199.6334862385
 11
39.3088947986
 21
195.3334862385
  0
LINE
  8
2_FEATURE
 62
7
  6
CONTINUOUS
 10
39.3088947986
 20
186.9334862385
 11
39.3088947986
 21
182.6334862385
  0
LINE
  8
2_FEATURE
 62
7
  6
CONTINUOUS
 10
39.3088947986
 20
174.2334862385
 11
39.3088947986
 21
169.9334862385
  0
LINE
  8
2_FEATURE
 62
7
  6
CONTINUOUS
 10
39.3088947986
 20
161.5334862385
 11
39.3088947986
 21
157.2334862385
  0
LINE
  8
2_FEATURE
 62
7
  6
CONTINUOUS
 10
39.3088947986
 20
148.8334862385
 11
39.3088947986
 21
144.5334862385
  0
LINE
  8
2_FEATURE
 62
7
  6
CONTINUOUS
 10
39.3088947986
 20
136.1334862385
 11
39.3088947986
 21
131.8334862385
  0
LINE
  8
2_FEATURE
 62
7
  6
CONTINUOUS
 10
39.3088947986
 20
123.4334862385
 11
39.3088947986
 21
119.1334862385
  0
LINE
  8
2_FEATURE
 62
7
  6
CONTINUOUS
 10
39.3088947986
 20
110.7334862385
 11
39.3088947986
 21
106.4334862385
  0
LINE
  8
2_FEATURE
 62
7
  6
CONTINUOUS
 10
39.3088947986
 20
98.0334862385
 11
39.3088947986
 21
93.7334862385
  0
LINE
  8
2_FEATURE
 62
7
  6
CONTINUOUS
 10
39.3088947986
 20
85.3334862385
 11
39.3088947986
 21
81.0334862385
  0
LINE
  8
2_FEATURE
 62
7
  6
CONTINUOUS
 10
39.3088947986
 20
72.6334862385
 11
39.3088947986
 21
68.3334862385
  0
LINE
  8
2_FEATURE
 62
7
  6
CONTINUOUS
 10
39.3088947986
 20
58.3434862385
 11
39.3088947986
 21
52.2834862385
  0
LINE
  8
0
 62
7
  6
CONTINUOUS
 10
43.1370968232
 20
223.1753165793
 11
43.1370968232
 21
222.5916558978
  0
LINE
  8
0
 62
7
  6
CONTINUOUS
 10
43.1370968232
 20
210.4753165793
 11
43.1370968232
 21
209.8916558978
  0
LINE
  8
0
 62
7
  6
CONTINUOUS
 10
43.1370968232
 20
197.7753165793
 11
43.1370968232
 21
197.1916558978
  0
LINE
  8
0
 62
7
  6
CONTINUOUS
 10
43.1370968232
 20
185.0753165793
 11
43.1370968232
 21
184.4916558978
  0
LINE
  8
0
 62
7
  6
CONTINUOUS
 10
43.1370968232
 20
172.3753165793
 11
43.1370968232
 21
171.7916558978
  0
LINE
  8
0
 62
7
  6
CONTINUOUS
 10
43.1370968232
 20
159.6753165793
 11
43.1370968232
 21
159.0916558978
  0
LINE
  8
0
 62
7
  6
CONTINUOUS
 10
43.1370968232
 20
146.9753165793
 11
43.1370968232
 21
146.3916558978
  0
LINE
  8
0
 62
7
  6
CONTINUOUS
 10
43.1370968232
 20
134.2753165793
 11
43.1370968232
 21
133.6916558978
  0
LINE
  8
0
 62
7
  6
CONTINUOUS
 10
43.1370968232
 20
121.5753165793
 11
43.1370968232
 21
120.9916558978
  0
LINE
  8
0
 62
7
  6
CONTINUOUS
 10
43.1370968232
 20
108.8753165793
 11
43.1370968232
 21
108.2916558978
  0
LINE
  8
0
 62
7
  6
CONTINUOUS
 10
43.1370968232
 20
96.1753165793
 11
43.1370968232
 21
95.5916558978
  0
LINE
  8
0
 62
7
  6
CONTINUOUS
 10
43.1370968232
 20
83.4753165793
 11
43.1370968232
 21
82.8916558978
  0
LINE
  8
0
 62
7
  6
CONTINUOUS
 10
43.1370968232
 20
70.7753165793
 11
43.1370968232
 21
70.1916558978
  0
LINE
  8
DEFAULT_1
 62
2
  6
CENTER
 10
43.8588947986
 20
49.4334862385
 11
43.8588947986
 21
243.9334862385
  0
POLYLINE
  8
0
 62
7
  6
CONTINUOUS
 66
1
 70
0
  0
VERTEX
  8
0
 62
7
  6
CONTINUOUS
 10
43.1370968232
 20
197.7753165793
  0
VERTEX
  8
0
 62
7
  6
CONTINUOUS
 10
43.1499531575
 20
197.9228098238
  0
VERTEX
  8
0
 62
7
  6
CONTINUOUS
 10
43.1885792745
 20
198.0671092712
  0
VERTEX
  8
0
 62
7
  6
CONTINUOUS
 10
43.2511734841
 20
198.2013784546
  0
VERTEX
  8
0
 62
7
  6
CONTINUOUS
 10
43.3360931121
 20
198.3227807838
  0
VERTEX
  8
0
 62
7
  6
CONTINUOUS
 10
43.4418263032
 20
198.4284644951
  0
VERTEX
  8
0
 62
7
  6
CONTINUOUS
 10
43.5630821931
 20
198.5131650206
  0
VERTEX
  8
0
 62
7
  6
CONTINUOUS
 10
43.6968907899
 20
198.5753763904
  0
VERTEX
  8
0
 62
7
  6
CONTINUOUS
 10
43.840281522
 20
198.613562023
  0
VERTEX
  8
0
 62
7
  6
CONTINUOUS
 10
43.9861997918
 20
198.6261488799
  0
SEQEND
  0
POLYLINE
  8
0
 62
7
  6
CONTINUOUS
 66
1
 70
0
  0
VERTEX
  8
0
 62
7
  6
CONTINUOUS
 10
43.1370968232
 20
185.0753165793
  0
VERTEX
  8
0
 62
7
  6
CONTINUOUS
 10
43.1499531575
 20
185.2228098238
  0
VERTEX
  8
0
 62
7
  6
CONTINUOUS
 10
43.1885792745
 20
185.3671092712
  0
VERTEX
  8
0
 62
7
  6
CONTINUOUS
 10
43.2511734841
 20
185.5013784546
  0
VERTEX
  8
0
 62
7
  6
CONTINUOUS
 10
43.3360931121
 20
185.6227807838
  0
VERTEX
  8
0
 62
7
  6
CONTINUOUS
 10
43.4418263032
 20
185.7284644951
  0
VERTEX
  8
0
 62
7
  6
CONTINUOUS
 10
43.5630821931
 20
185.8131650206
  0
VERTEX
  8
0
 62
7
  6
CONTINUOUS
 10
43.6968907899
 20
185.8753763904
  0
VERTEX
  8
0
 62
7
  6
CONTINUOUS
 10
43.840281522
 20
185.913562023
  0
VERTEX
  8
0
 62
7
  6
CONTINUOUS
 10
43.9861997918
 20
185.9261488799
  0
SEQEND
  0
POLYLINE
  8
0
 62
7
  6
CONTINUOUS
 66
1
 70
0
  0
VERTEX
  8
0
 62
7
  6
CONTINUOUS
 10
43.1370968232
 20
172.3753165793
  0
VERTEX
  8
0
 62
7
  6
CONTINUOUS
 10
43.1499531575
 20
172.5228098238
  0
VERTEX
  8
0
 62
7
  6
CONTINUOUS
 10
43.1885792745
 20
172.6671092712
  0
VERTEX
  8
0
 62
7
  6
CONTINUOUS
 10
43.2511734841
 20
172.8013784546
  0
VERTEX
  8
0
 62
7
  6
CONTINUOUS
 10
43.3360931121
 20
172.9227807838
  0
VERTEX
  8
0
 62
7
  6
CONTINUOUS
 10
43.4418263032
 20
173.0284644951
  0
VERTEX
  8
0
 62
7
  6
CONTINUOUS
 10
43.5630821931
 20
173.1131650206
  0
VERTEX
  8
0
 62
7
  6
CONTINUOUS
 10
43.6968907899
 20
173.1753763904
  0
VERTEX
  8
0
 62
7
  6
CONTINUOUS
 10
43.840281522
 20
173.213562023
  0
VERTEX
  8
0
 62
7
  6
CONTINUOUS
 10
43.9861997918
 20
173.2261488799
  0
SEQEND
  0
POLYLINE
  8
0
 62
7
  6
CONTINUOUS
 66
1
 70
0
  0
VERTEX
  8
0
 62
7
  6
CONTINUOUS
 10
43.1370968232
 20
159.6753165793
  0
VERTEX
  8
0
 62
7
  6
CONTINUOUS
 10
43.1499531575
 20
159.8228098238
  0
VERTEX
  8
0
 62
7
  6
CONTINUOUS
 10
43.1885792745
 20
159.9671092712
  0
VERTEX
  8
0
 62
7
  6
CONTINUOUS
 10
43.2511734841
 20
160.1013784546
  0
VERTEX
  8
0
 62
7
  6
CONTINUOUS
 10
43.3360931121
 20
160.2227807838
  0
VERTEX
  8
0
 62
7
  6
CONTINUOUS
 10
43.4418263032
 20
160.3284644951
  0
VERTEX
  8
0
 62
7
  6
CONTINUOUS
 10
43.5630821931
 20
160.4131650206
  0
VERTEX
  8
0
 62
7
  6
CONTINUOUS
 10
43.6968907899
 20
160.4753763904
  0
VERTEX
  8
0
 62
7
  6
CONTINUOUS
 10
43.840281522
 20
160.513562023
  0
VERTEX
  8
0
 62
7
  6
CONTINUOUS
 10
43.9861997918
 20
160.5261488799
  0
SEQEND
  0
POLYLINE
  8
0
 62
7
  6
CONTINUOUS
 66
1
 70
0
  0
VERTEX
  8
0
 62
7
  6
CONTINUOUS
 10
43.1370968232
 20
146.9753165793
  0
VERTEX
  8
0
 62
7
  6
CONTINUOUS
 10
43.1499531575
 20
147.1228098238
  0
VERTEX
  8
0
 62
7
  6
CONTINUOUS
 10
43.1885792745
 20
147.2671092712
  0
VERTEX
  8
0
 62
7
  6
CONTINUOUS
 10
43.2511734841
 20
147.4013784546
  0
VERTEX
  8
0
 62
7
  6
CONTINUOUS
 10
43.3360931121
 20
147.5227807838
  0
VERTEX
  8
0
 62
7
  6
CONTINUOUS
 10
43.4418263032
 20
147.6284644951
  0
VERTEX
  8
0
 62
7
  6
CONTINUOUS
 10
43.5630821931
 20
147.7131650206
  0
VERTEX
  8
0
 62
7
  6
CONTINUOUS
 10
43.6968907899
 20
147.7753763904
  0
VERTEX
  8
0
 62
7
  6
CONTINUOUS
 10
43.840281522
 20
147.813562023
  0
VERTEX
  8
0
 62
7
  6
CONTINUOUS
 10
43.9861997918
 20
147.8261488799
  0
SEQEND
  0
POLYLINE
  8
0
 62
7
  6
CONTINUOUS
 66
1
 70
0
  0
VERTEX
  8
0
 62
7
  6
CONTINUOUS
 10
43.1370968232
 20
134.2753165793
  0
VERTEX
  8
0
 62
7
  6
CONTINUOUS
 10
43.1499531575
 20
134.4228098238
  0
VERTEX
  8
0
 62
7
  6
CONTINUOUS
 10
43.1885792745
 20
134.5671092712
  0
VERTEX
  8
0
 62
7
  6
CONTINUOUS
 10
43.2511734841
 20
134.7013784546
  0
VERTEX
  8
0
 62
7
  6
CONTINUOUS
 10
43.3360931121
 20
134.8227807838
  0
VERTEX
  8
0
 62
7
  6
CONTINUOUS
 10
43.4418263032
 20
134.9284644951
  0
VERTEX
  8
0
 62
7
  6
CONTINUOUS
 10
43.5630821931
 20
135.0131650206
  0
VERTEX
  8
0
 62
7
  6
CONTINUOUS
 10
43.6968907899
 20
135.0753763904
  0
VERTEX
  8
0
 62
7
  6
CONTINUOUS
 10
43.840281522
 20
135.113562023
  0
VERTEX
  8
0
 62
7
  6
CONTINUOUS
 10
43.9861997918
 20
135.1261488799
  0
SEQEND
  0
POLYLINE
  8
0
 62
7
  6
CONTINUOUS
 66
1
 70
0
  0
VERTEX
  8
0
 62
7
  6
CONTINUOUS
 10
56.7867399597
 20
241.0834862385
  0
VERTEX
  8
0
 62
7
  6
CONTINUOUS
 10
56.6664495912
 20
240.4720435284
  0
VERTEX
  8
0
 62
7
  6
CONTINUOUS
 10
56.5465461154
 20
239.910676143
  0
VERTEX
  8
0
 62
7
  6
CONTINUOUS
 10
56.4267703556
 20
239.3961534674
  0
VERTEX
  8
0
 62
7
  6
CONTINUOUS
 10
56.3067785462
 20
238.9255518819
  0
VERTEX
  8
0
 62
7
  6
CONTINUOUS
 10
56.1861300788
 20
238.496307415
  0
VERTEX
  8
0
 62
7
  6
CONTINUOUS
 10
56.0642508375
 20
238.1062267461
  0
VERTEX
  8
0
 62
7
  6
CONTINUOUS
 10
55.9403853132
 20
237.7535552387
  0
VERTEX
  8
0
 62
7
  6
CONTINUOUS
 10
55.8135204469
 20
237.4370963388
  0
VERTEX
  8
0
 62
7
  6
CONTINUOUS
 10
55.6822628551
 20
237.1564326055
  0
VERTEX
  8
0
 62
7
  6
CONTINUOUS
 10
55.5446770906
 20
236.9124156525
  0
VERTEX
  8
0
 62
7
  6
CONTINUOUS
 10
55.3980298536
 20
236.7090146694
  0
SEQEND
  0
LINE
  8
0
 62
7
  6
CONTINUOUS
 10
55.2875123496
 20
162.9122075646
 11
55.1849995245
 21
162.8291943156
  0
POLYLINE
  8
0
 62
7
  6
CONTINUOUS
 66
1
 70
0
  0
VERTEX
  8
0
 62
7
  6
CONTINUOUS
 10
46.4588947986
 20
132.8634862385
  0
VERTEX
  8
0
 62
7
  6
CONTINUOUS
 10
46.4340404618
 20
132.8603564083
  0
VERTEX
  8
0
 62
7
  6
CONTINUOUS
 10
46.3599651592
 20
132.8572868013
  0
VERTEX
  8
0
 62
7
  6
CONTINUOUS
 10
46.2380883267
 20
132.8543357602
  0
VERTEX
  8
0
 62
7
  6
CONTINUOUS
 10
46.0707477772
 20
132.8515597471
  0
SEQEND
  0
POLYLINE
  8
0
 62
7
  6
CONTINUOUS
 66
1
 70
0
  0
VERTEX
  8
0
 62
7
  6
CONTINUOUS
 10
59.9588624332
 20
128.7534862385
  0
VERTEX
  8
0
 62
7
  6
CONTINUOUS
 10
59.7930351619
 20
128.7371540145
  0
VERTEX
  8
0
 62
7
  6
CONTINUOUS
 10
59.633585232
 20
128.6887860059
  0
VERTEX
  8
0
 62
7
  6
CONTINUOUS
 10
59.4866386618
 20
128.6102419803
  0
VERTEX
  8
0
 62
7
  6
CONTINUOUS
 10
59.3578406175
 20
128.5045403971
  0
VERTEX
  8
0
 62
7
  6
CONTINUOUS
 10
59.2521390414
 20
128.3757423523
  0
VERTEX
  8
0
 62
7
  6
CONTINUOUS
 10
59.1735950246
 20
128.2287957893
  0
VERTEX
  8
0
 62
7
  6
CONTINUOUS
 10
59.1252270215
 20
128.0693458696
  0
VERTEX
  8
0
 62
7
  6
CONTINUOUS
 10
59.1088947986
 20
127.9035186039
  0
SEQEND
  0
POLYLINE
  8
0
 62
7
  6
CONTINUOUS
 66
1
 70
0
  0
VERTEX
  8
0
 62
7
  6
CONTINUOUS
 10
53.158927164
 20
132.8634862385
  0
VERTEX
  8
0
 62
7
  6
CONTINUOUS
 10
53.3065227993
 20
132.8763983854
  0
VERTEX
  8
0
 62
7
  6
CONTINUOUS
 10
53.4496343578
 20
132.9147432414
  0
VERTEX
  8
0
 62
7
  6
CONTINUOUS
 10
53.5839133687
 20
132.9773566811
  0
VERTEX
  8
0
 62
7
  6
CONTINUOUS
 10
53.7052793825
 20
133.0623368111
  0
VERTEX
  8
0
 62
7
  6
CONTINUOUS
 10
53.810044226
 20
133.1671016546
  0
VERTEX
  8
0
 62
7
  6
CONTINUOUS
 10
53.895024356
 20
133.2884676684
  0
VERTEX
  8
0
 62
7
  6
CONTINUOUS
 10
53.9576377958
 20
133.4227466793
  0
VERTEX
  8
0
 62
7
  6
CONTINUOUS
 10
53.9959826517
 20
133.5658582378
  0
VERTEX
  8
0
 62
7
  6
CONTINUOUS
 10
54.0088947986
 20
133.7134538731
  0
SEQEND
  0
POLYLINE
  8
0
 62
7
  6
CONTINUOUS
 66
1
 70
0
  0
VERTEX
  8
0
 62
7
  6
CONTINUOUS
 10
67.0470418222
 20
128.76541273
  0
VERTEX
  8
0
 62
7
  6
CONTINUOUS
 10
66.8797012726
 20
128.762636717
  0
VERTEX
  8
0
 62
7
  6
CONTINUOUS
 10
66.7578244394
 20
128.7596856758
  0
VERTEX
  8
0
 62
7
  6
CONTINUOUS
 10
66.6837491359
 20
128.7566160688
  0
VERTEX
  8
0
 62
7
  6
CONTINUOUS
 10
66.6588947986
 20
128.7534862385
  0
SEQEND
  0
LINE
  8
0
 62
7
  6
CONTINUOUS
 10
66.9222605701
 20
128.4095872096
 11
67.3682605912
 21
128.4152122041
  0
LINE
  8
0
 62
7
  6
CONTINUOUS
 10
67.5044956191
 20
128.7702320121
 11
67.0470418222
 21
128.76541273
  0
LINE
  8
0
 62
7
  6
CONTINUOUS
 10
46.0707477772
 20
132.8515597471
 11
45.613293978
 21
132.846740465
  0
LINE
  8
0
 62
7
  6
CONTINUOUS
 10
67.3682605912
 20
128.4152122041
 11
67.9860376373
 21
128.4194213713
  0
LINE
  8
0
 62
7
  6
CONTINUOUS
 10
68.4270970322
 20
128.7749836024
 11
67.5044956191
 21
128.7702320121
  0
LINE
  8
0
 62
7
  6
CONTINUOUS
 10
45.613293978
 20
132.846740465
 11
44.6906925609
 21
132.8419888746
  0
LINE
  8
0
 62
7
  6
CONTINUOUS
 10
67.9860376373
 20
128.4194213713
 11
69.108927164
 21
128.4222885924
  0
LINE
  8
0
 62
7
  6
CONTINUOUS
 10
69.1315898053
 20
128.7761488799
 11
68.4270970322
 21
128.7749836024
  0
LINE
  8
0
 62
7
  6
CONTINUOUS
 10
44.6906925609
 20
132.8419888746
 11
43.9861997918
 21
132.8408235972
  0
LINE
  8
0
 62
7
  6
CONTINUOUS
 10
66.6588947986
 20
128.3996365118
 11
59.9588624332
 21
128.3996365118
  0
LINE
  8
0
 62
7
  6
CONTINUOUS
 10
59.9588624332
 20
128.7534862385
 11
66.6588947986
 21
128.7534862385
  0
LINE
  8
0
 62
7
  6
CONTINUOUS
 10
72.9588947986
 20
130.6334862385
 11
59.1914308548
 21
130.6334862385
  0
LINE
  8
0
 62
7
  6
CONTINUOUS
 10
40.1588947986
 20
130.9834862385
 11
53.9263587424
 21
130.9834862385
  0
LINE
  8
0
 62
7
  6
CONTINUOUS
 10
53.158927164
 20
132.8634862385
 11
46.4588947986
 21
132.8634862385
  0
POLYLINE
  8
0
 62
7
  6
CONTINUOUS
 66
1
 70
0
  0
VERTEX
  8
0
 62
7
  6
CONTINUOUS
 10
69.1315898053
 20
128.7761488799
  0
VERTEX
  8
0
 62
7
  6
CONTINUOUS
 10
69.2773463769
 20
128.7635901897
  0
VERTEX
  8
0
 62
7
  6
CONTINUOUS
 10
69.4207899463
 20
128.7254158704
  0
VERTEX
  8
0
 62
7
  6
CONTINUOUS
 10
69.5546104157
 20
128.6632208531
  0
VERTEX
  8
0
 62
7
  6
CONTINUOUS
 10
69.6758428788
 20
128.5785652912
  0
VERTEX
  8
0
 62
7
  6
CONTINUOUS
 10
69.7816045061
 20
128.4728905092
  0
VERTEX
  8
0
 62
7
  6
CONTINUOUS
 10
69.8665781453
 20
128.3514442615
  0
VERTEX
  8
0
 62
7
  6
CONTINUOUS
 10
69.9291875732
 20
128.2171717343
  0
VERTEX
  8
0
 62
7
  6
CONTINUOUS
 10
69.9678165971
 20
128.0729227523
  0
VERTEX
  8
0
 62
7
  6
CONTINUOUS
 10
69.9806927739
 20
127.9253165793
  0
SEQEND
  0
POLYLINE
  8
0
 62
7
  6
CONTINUOUS
 66
1
 70
0
  0
VERTEX
  8
0
 62
7
  6
CONTINUOUS
 10
43.9861997918
 20
132.8408235972
  0
VERTEX
  8
0
 62
7
  6
CONTINUOUS
 10
43.8404432203
 20
132.8533822874
  0
VERTEX
  8
0
 62
7
  6
CONTINUOUS
 10
43.6969996509
 20
132.8915566067
  0
VERTEX
  8
0
 62
7
  6
CONTINUOUS
 10
43.5631791815
 20
132.9537516239
  0
VERTEX
  8
0
 62
7
  6
CONTINUOUS
 10
43.4419467184
 20
133.0384071858
  0
VERTEX
  8
0
 62
7
  6
CONTINUOUS
 10
43.336185091
 20
133.1440819678
  0
VERTEX
  8
0
 62
7
  6
CONTINUOUS
 10
43.2512114519
 20
133.2655282156
  0
VERTEX
  8
0
 62
7
  6
CONTINUOUS
 10
43.1886020239
 20
133.3998007427
  0
VERTEX
  8
0
 62
7
  6
CONTINUOUS
 10
43.1499730001
 20
133.5440497248
  0
VERTEX
  8
0
 62
7
  6
CONTINUOUS
 10
43.1370968232
 20
133.6916558978
  0
SEQEND
  0
POLYLINE
  8
0
 62
7
  6
CONTINUOUS
 66
1
 70
0
  0
VERTEX
  8
0
 62
7
  6
CONTINUOUS
 10
46.4588947986
 20
135.1034862385
  0
VERTEX
  8
0
 62
7
  6
CONTINUOUS
 10
46.4340404618
 20
135.1066160687
  0
VERTEX
  8
0
 62
7
  6
CONTINUOUS
 10
46.3599651592
 20
135.1096856758
  0
VERTEX
  8
0
 62
7
  6
CONTINUOUS
 10
46.2380883267
 20
135.1126367169
  0
VERTEX
  8
0
 62
7
  6
CONTINUOUS
 10
46.0707477772
 20
135.11541273
  0
VERTEX
  8
0
 62
7
  6
CONTINUOUS
 10
45.8611467247
 20
135.117960709
  0
VERTEX
  8
0
 62
7
  6
CONTINUOUS
 10
45.3319272606
 20
135.1221832862
  0
SEQEND
  0
LINE
  8
0
 62
7
  6
CONTINUOUS
 10
55.1849995245
 20
130.5377781614
 11
55.2875123496
 21
130.4547649124
  0
POLYLINE
  8
0
 62
7
  6
CONTINUOUS
 66
1
 70
0
  0
VERTEX
  8
0
 62
7
  6
CONTINUOUS
 10
56.7867399597
 20
52.2834862385
  0
VERTEX
  8
0
 62
7
  6
CONTINUOUS
 10
56.6664495912
 20
52.8949289486
  0
VERTEX
  8
0
 62
7
  6
CONTINUOUS
 10
56.5465461154
 20
53.4562963341
  0
VERTEX
  8
0
 62
7
  6
CONTINUOUS
 10
56.4267703556
 20
53.9708190097
  0
VERTEX
  8
0
 62
7
  6
CONTINUOUS
 10
56.3067785462
 20
54.4414205952
  0
VERTEX
  8
0
 62
7
  6
CONTINUOUS
 10
56.1861300788
 20
54.870665062
  0
VERTEX
  8
0
 62
7
  6
CONTINUOUS
 10
56.0642508375
 20
55.2607457309
  0
VERTEX
  8
0
 62
7
  6
CONTINUOUS
 10
55.9403853132
 20
55.6134172384
  0
VERTEX
  8
0
 62
7
  6
CONTINUOUS
 10
55.8135204469
 20
55.9298761383
  0
VERTEX
  8
0
 62
7
  6
CONTINUOUS
 10
55.6822628551
 20
56.2105398716
  0
VERTEX
  8
0
 62
7
  6
CONTINUOUS
 10
55.5446770906
 20
56.4545568246
  0
VERTEX
  8
0
 62
7
  6
CONTINUOUS
 10
55.3980298536
 20
56.6579578076
  0
SEQEND
  0
POLYLINE
  8
0
 62
7
  6
CONTINUOUS
 66
1
 70
0
  0
VERTEX
  8
0
 62
7
  6
CONTINUOUS
 10
54.0088947986
 20
70.7535186039
  0
VERTEX
  8
0
 62
7
  6
CONTINUOUS
 10
53.9959826517
 20
70.9011142392
  0
VERTEX
  8
0
 62
7
  6
CONTINUOUS
 10
53.9576377958
 20
71.0442257977
  0
VERTEX
  8
0
 62
7
  6
CONTINUOUS
 10
53.895024356
 20
71.1785048087
  0
VERTEX
  8
0
 62
7
  6
CONTINUOUS
 10
53.810044226
 20
71.2998708224
  0
VERTEX
  8
0
 62
7
  6
CONTINUOUS
 10
53.7052793825
 20
71.404635666
  0
VERTEX
  8
0
 62
7
  6
CONTINUOUS
 10
53.5839133687
 20
71.489615796
  0
VERTEX
  8
0
 62
7
  6
CONTINUOUS
 10
53.4496343578
 20
71.5522292357
  0
VERTEX
  8
0
 62
7
  6
CONTINUOUS
 10
53.3065227993
 20
71.5905740917
  0
VERTEX
  8
0
 62
7
  6
CONTINUOUS
 10
53.158927164
 20
71.6034862385
  0
SEQEND
  0
POLYLINE
  8
0
 62
7
  6
CONTINUOUS
 66
1
 70
0
  0
VERTEX
  8
0
 62
7
  6
CONTINUOUS
 10
54.0088947986
 20
83.4535186039
  0
VERTEX
  8
0
 62
7
  6
CONTINUOUS
 10
53.9959826517
 20
83.6011142392
  0
VERTEX
  8
0
 62
7
  6
CONTINUOUS
 10
53.9576377958
 20
83.7442257977
  0
VERTEX
  8
0
 62
7
  6
CONTINUOUS
 10
53.895024356
 20
83.8785048087
  0
VERTEX
  8
0
 62
7
  6
CONTINUOUS
 10
53.810044226
 20
83.9998708224
  0
VERTEX
  8
0
 62
7
  6
CONTINUOUS
 10
53.7052793825
 20
84.104635666
  0
VERTEX
  8
0
 62
7
  6
CONTINUOUS
 10
53.5839133687
 20
84.189615796
  0
VERTEX
  8
0
 62
7
  6
CONTINUOUS
 10
53.4496343578
 20
84.2522292357
  0
VERTEX
  8
0
 62
7
  6
CONTINUOUS
 10
53.3065227993
 20
84.2905740917
  0
VERTEX
  8
0
 62
7
  6
CONTINUOUS
 10
53.158927164
 20
84.3034862385
  0
SEQEND
  0
POLYLINE
  8
0
 62
7
  6
CONTINUOUS
 66
1
 70
0
  0
VERTEX
  8
0
 62
7
  6
CONTINUOUS
 10
54.0088947986
 20
96.1535186039
  0
VERTEX
  8
0
 62
7
  6
CONTINUOUS
 10
53.9959826517
 20
96.3011142392
  0
VERTEX
  8
0
 62
7
  6
CONTINUOUS
 10
53.9576377958
 20
96.4442257977
  0
VERTEX
  8
0
 62
7
  6
CONTINUOUS
 10
53.895024356
 20
96.5785048087
  0
VERTEX
  8
0
 62
7
  6
CONTINUOUS
 10
53.810044226
 20
96.6998708224
  0
VERTEX
  8
0
 62
7
  6
CONTINUOUS
 10
53.7052793825
 20
96.804635666
  0
VERTEX
  8
0
 62
7
  6
CONTINUOUS
 10
53.5839133687
 20
96.889615796
  0
VERTEX
  8
0
 62
7
  6
CONTINUOUS
 10
53.4496343578
 20
96.9522292357
  0
VERTEX
  8
0
 62
7
  6
CONTINUOUS
 10
53.3065227993
 20
96.9905740917
  0
VERTEX
  8
0
 62
7
  6
CONTINUOUS
 10
53.158927164
 20
97.0034862385
  0
SEQEND
  0
POLYLINE
  8
0
 62
7
  6
CONTINUOUS
 66
1
 70
0
  0
VERTEX
  8
0
 62
7
  6
CONTINUOUS
 10
54.0088947986
 20
108.8535186039
  0
VERTEX
  8
0
 62
7
  6
CONTINUOUS
 10
53.9959826517
 20
109.0011142392
  0
VERTEX
  8
0
 62
7
  6
CONTINUOUS
 10
53.9576377958
 20
109.1442257977
  0
VERTEX
  8
0
 62
7
  6
CONTINUOUS
 10
53.895024356
 20
109.2785048087
  0
VERTEX
  8
0
 62
7
  6
CONTINUOUS
 10
53.810044226
 20
109.3998708224
  0
VERTEX
  8
0
 62
7
  6
CONTINUOUS
 10
53.7052793825
 20
109.504635666
  0
VERTEX
  8
0
 62
7
  6
CONTINUOUS
 10
53.5839133687
 20
109.589615796
  0
VERTEX
  8
0
 62
7
  6
CONTINUOUS
 10
53.4496343578
 20
109.6522292357
  0
VERTEX
  8
0
 62
7
  6
CONTINUOUS
 10
53.3065227993
 20
109.6905740917
  0
VERTEX
  8
0
 62
7
  6
CONTINUOUS
 10
53.158927164
 20
109.7034862385
  0
SEQEND
  0
POLYLINE
  8
0
 62
7
  6
CONTINUOUS
 66
1
 70
0
  0
VERTEX
  8
0
 62
7
  6
CONTINUOUS
 10
41.8610496374
 20
241.0834862385
  0
VERTEX
  8
0
 62
7
  6
CONTINUOUS
 10
41.8562389805
 20
241.183726504
  0
VERTEX
  8
0
 62
7
  6
CONTINUOUS
 10
41.8790296814
 20
241.2807339063
  0
VERTEX
  8
0
 62
7
  6
CONTINUOUS
 10
41.9284532293
 20
241.3736238072
  0
VERTEX
  8
0
 62
7
  6
CONTINUOUS
 10
42.0033465346
 20
241.4604201343
  0
VERTEX
  8
0
 62
7
  6
CONTINUOUS
 10
42.1011441927
 20
241.5388110896
  0
VERTEX
  8
0
 62
7
  6
CONTINUOUS
 10
42.2222333404
 20
241.6092802535
  0
VERTEX
  8
0
 62
7
  6
CONTINUOUS
 10
42.366688608
 20
241.6712777047
  0
VERTEX
  8
0
 62
7
  6
CONTINUOUS
 10
42.5328498183
 20
241.723767553
  0
VERTEX
  8
0
 62
7
  6
CONTINUOUS
 10
42.7182208349
 20
241.7662604962
  0
VERTEX
  8
0
 62
7
  6
CONTINUOUS
 10
42.925707851
 20
241.7996778744
  0
VERTEX
  8
0
 62
7
  6
CONTINUOUS
 10
43.1582392746
 20
241.824297789
  0
VERTEX
  8
0
 62
7
  6
CONTINUOUS
 10
43.4181983131
 20
241.8398945962
  0
VERTEX
  8
0
 62
7
  6
CONTINUOUS
 10
43.7088947969
 20
241.8455515259
  0
SEQEND
  0
POLYLINE
  8
0
 62
7
  6
CONTINUOUS
 66
1
 70
0
  0
VERTEX
  8
0
 62
7
  6
CONTINUOUS
 10
43.1370968232
 20
121.5753165793
  0
VERTEX
  8
0
 62
7
  6
CONTINUOUS
 10
43.1499531575
 20
121.7228098238
  0
VERTEX
  8
0
 62
7
  6
CONTINUOUS
 10
43.1885792745
 20
121.8671092712
  0
VERTEX
  8
0
 62
7
  6
CONTINUOUS
 10
43.2511734841
 20
122.0013784546
  0
VERTEX
  8
0
 62
7
  6
CONTINUOUS
 10
43.3360931121
 20
122.1227807838
  0
VERTEX
  8
0
 62
7
  6
CONTINUOUS
 10
43.4418263032
 20
122.2284644951
  0
VERTEX
  8
0
 62
7
  6
CONTINUOUS
 10
43.5630821931
 20
122.3131650206
  0
VERTEX
  8
0
 62
7
  6
CONTINUOUS
 10
43.6968907899
 20
122.3753763904
  0
VERTEX
  8
0
 62
7
  6
CONTINUOUS
 10
43.840281522
 20
122.413562023
  0
VERTEX
  8
0
 62
7
  6
CONTINUOUS
 10
43.9861997918
 20
122.4261488799
  0
SEQEND
  0
POLYLINE
  8
0
 62
7
  6
CONTINUOUS
 66
1
 70
0
  0
VERTEX
  8
0
 62
7
  6
CONTINUOUS
 10
43.1370968232
 20
108.8753165793
  0
VERTEX
  8
0
 62
7
  6
CONTINUOUS
 10
43.1499531575
 20
109.0228098238
  0
VERTEX
  8
0
 62
7
  6
CONTINUOUS
 10
43.1885792745
 20
109.1671092712
  0
VERTEX
  8
0
 62
7
  6
CONTINUOUS
 10
43.2511734841
 20
109.3013784546
  0
VERTEX
  8
0
 62
7
  6
CONTINUOUS
 10
43.3360931121
 20
109.4227807838
  0
VERTEX
  8
0
 62
7
  6
CONTINUOUS
 10
43.4418263032
 20
109.5284644951
  0
VERTEX
  8
0
 62
7
  6
CONTINUOUS
 10
43.5630821931
 20
109.6131650206
  0
VERTEX
  8
0
 62
7
  6
CONTINUOUS
 10
43.6968907899
 20
109.6753763904
  0
VERTEX
  8
0
 62
7
  6
CONTINUOUS
 10
43.840281522
 20
109.713562023
  0
VERTEX
  8
0
 62
7
  6
CONTINUOUS
 10
43.9861997918
 20
109.7261488799
  0
SEQEND
  0
POLYLINE
  8
0
 62
7
  6
CONTINUOUS
 66
1
 70
0
  0
VERTEX
  8
0
 62
7
  6
CONTINUOUS
 10
43.1370968232
 20
96.1753165793
  0
VERTEX
  8
0
 62
7
  6
CONTINUOUS
 10
43.1499531575
 20
96.3228098238
  0
VERTEX
  8
0
 62
7
  6
CONTINUOUS
 10
43.1885792745
 20
96.4671092712
  0
VERTEX
  8
0
 62
7
  6
CONTINUOUS
 10
43.2511734841
 20
96.6013784546
  0
VERTEX
  8
0
 62
7
  6
CONTINUOUS
 10
43.3360931121
 20
96.7227807838
  0
VERTEX
  8
0
 62
7
  6
CONTINUOUS
 10
43.4418263032
 20
96.8284644951
  0
VERTEX
  8
0
 62
7
  6
CONTINUOUS
 10
43.5630821931
 20
96.9131650206
  0
VERTEX
  8
0
 62
7
  6
CONTINUOUS
 10
43.6968907899
 20
96.9753763904
  0
VERTEX
  8
0
 62
7
  6
CONTINUOUS
 10
43.840281522
 20
97.013562023
  0
VERTEX
  8
0
 62
7
  6
CONTINUOUS
 10
43.9861997918
 20
97.0261488799
  0
SEQEND
  0
POLYLINE
  8
0
 62
7
  6
CONTINUOUS
 66
1
 70
0
  0
VERTEX
  8
0
 62
7
  6
CONTINUOUS
 10
43.1370968232
 20
83.4753165793
  0
VERTEX
  8
0
 62
7
  6
CONTINUOUS
 10
43.1499531575
 20
83.6228098238
  0
VERTEX
  8
0
 62
7
  6
CONTINUOUS
 10
43.1885792745
 20
83.7671092712
  0
VERTEX
  8
0
 62
7
  6
CONTINUOUS
 10
43.2511734841
 20
83.9013784546
  0
VERTEX
  8
0
 62
7
  6
CONTINUOUS
 10
43.3360931121
 20
84.0227807838
  0
VERTEX
  8
0
 62
7
  6
CONTINUOUS
 10
43.4418263032
 20
84.1284644951
  0
VERTEX
  8
0
 62
7
  6
CONTINUOUS
 10
43.5630821931
 20
84.2131650206
  0
VERTEX
  8
0
 62
7
  6
CONTINUOUS
 10
43.6968907899
 20
84.2753763904
  0
VERTEX
  8
0
 62
7
  6
CONTINUOUS
 10
43.840281522
 20
84.313562023
  0
VERTEX
  8
0
 62
7
  6
CONTINUOUS
 10
43.9861997918
 20
84.3261488799
  0
SEQEND
  0
POLYLINE
  8
0
 62
7
  6
CONTINUOUS
 66
1
 70
0
  0
VERTEX
  8
0
 62
7
  6
CONTINUOUS
 10
43.1370968232
 20
70.7753165793
  0
VERTEX
  8
0
 62
7
  6
CONTINUOUS
 10
43.1499531575
 20
70.9228098238
  0
VERTEX
  8
0
 62
7
  6
CONTINUOUS
 10
43.1885792745
 20
71.0671092712
  0
VERTEX
  8
0
 62
7
  6
CONTINUOUS
 10
43.2511734841
 20
71.2013784546
  0
VERTEX
  8
0
 62
7
  6
CONTINUOUS
 10
43.3360931121
 20
71.3227807838
  0
VERTEX
  8
0
 62
7
  6
CONTINUOUS
 10
43.4418263032
 20
71.4284644951
  0
VERTEX
  8
0
 62
7
  6
CONTINUOUS
 10
43.5630821931
 20
71.5131650206
  0
VERTEX
  8
0
 62
7
  6
CONTINUOUS
 10
43.6968907899
 20
71.5753763904
  0
VERTEX
  8
0
 62
7
  6
CONTINUOUS
 10
43.840281522
 20
71.613562023
  0
VERTEX
  8
0
 62
7
  6
CONTINUOUS
 10
43.9861997918
 20
71.6261488799
  0
SEQEND
  0
LINE
  8
0
 62
7
  6
CONTINUOUS
 10
57.8302772475
 20
162.2047649124
 11
57.9327900727
 21
162.2877781614
  0
LINE
  8
0
 62
7
  6
CONTINUOUS
 10
46.4588947986
 20
135.1034862385
 11
53.158927164
 21
135.1034862385
  0
LINE
  8
0
 62
7
  6
CONTINUOUS
 10
53.9263587424
 20
136.9834862385
 11
40.158924045
 21
136.9834862385
  0
LINE
  8
0
 62
7
  6
CONTINUOUS
 10
59.1914308548
 20
137.3334862385
 11
72.9588947986
 21
137.3334862385
  0
LINE
  8
0
 62
7
  6
CONTINUOUS
 10
66.6588947986
 20
139.2134862385
 11
59.9588624332
 21
139.2134862385
  0
LINE
  8
0
 62
7
  6
CONTINUOUS
 10
69.1315898053
 20
139.1908235972
 11
68.0953668455
 21
139.1931951867
  0
LINE
  8
0
 62
7
  6
CONTINUOUS
 10
45.3319272606
 20
135.1221832862
 11
43.9861997918
 21
135.1261488799
  0
POLYLINE
  8
0
 62
7
  6
CONTINUOUS
 66
1
 70
0
  0
VERTEX
  8
0
 62
7
  6
CONTINUOUS
 10
68.0953668455
 20
139.1931951867
  0
VERTEX
  8
0
 62
7
  6
CONTINUOUS
 10
67.256642874
 20
139.1990117681
  0
VERTEX
  8
0
 62
7
  6
CONTINUOUS
 10
67.0470418222
 20
139.2015597471
  0
VERTEX
  8
0
 62
7
  6
CONTINUOUS
 10
66.8797012726
 20
139.2043357601
  0
VERTEX
  8
0
 62
7
  6
CONTINUOUS
 10
66.7578244394
 20
139.2072868013
  0
VERTEX
  8
0
 62
7
  6
CONTINUOUS
 10
66.6837491359
 20
139.2103564083
  0
VERTEX
  8
0
 62
7
  6
CONTINUOUS
 10
66.6588947986
 20
139.2134862385
  0
SEQEND
  0
LINE
  8
0
 62
7
  6
CONTINUOUS
 10
57.9327900727
 20
131.0791943156
 11
57.8302772475
 21
131.1622075646
  0
POLYLINE
  8
0
 62
7
  6
CONTINUOUS
 66
1
 70
0
  0
VERTEX
  8
0
 62
7
  6
CONTINUOUS
 10
59.1088947986
 20
127.3634538731
  0
VERTEX
  8
0
 62
7
  6
CONTINUOUS
 10
59.1252270226
 20
127.1976266018
  0
VERTEX
  8
0
 62
7
  6
CONTINUOUS
 10
59.1735950312
 20
127.038176672
  0
VERTEX
  8
0
 62
7
  6
CONTINUOUS
 10
59.2521390568
 20
126.8912301017
  0
VERTEX
  8
0
 62
7
  6
CONTINUOUS
 10
59.35784064
 20
126.7624320575
  0
VERTEX
  8
0
 62
7
  6
CONTINUOUS
 10
59.4866386848
 20
126.6567304814
  0
VERTEX
  8
0
 62
7
  6
CONTINUOUS
 10
59.6335852478
 20
126.5781864646
  0
VERTEX
  8
0
 62
7
  6
CONTINUOUS
 10
59.7930351675
 20
126.5298184615
  0
VERTEX
  8
0
 62
7
  6
CONTINUOUS
 10
59.9588624332
 20
126.5134862385
  0
SEQEND
  0
POLYLINE
  8
0
 62
7
  6
CONTINUOUS
 66
1
 70
0
  0
VERTEX
  8
0
 62
7
  6
CONTINUOUS
 10
54.0088947986
 20
121.5535186039
  0
VERTEX
  8
0
 62
7
  6
CONTINUOUS
 10
53.9959826517
 20
121.7011142392
  0
VERTEX
  8
0
 62
7
  6
CONTINUOUS
 10
53.9576377958
 20
121.8442257977
  0
VERTEX
  8
0
 62
7
  6
CONTINUOUS
 10
53.895024356
 20
121.9785048087
  0
VERTEX
  8
0
 62
7
  6
CONTINUOUS
 10
53.810044226
 20
122.0998708224
  0
VERTEX
  8
0
 62
7
  6
CONTINUOUS
 10
53.7052793825
 20
122.204635666
  0
VERTEX
  8
0
 62
7
  6
CONTINUOUS
 10
53.5839133687
 20
122.289615796
  0
VERTEX
  8
0
 62
7
  6
CONTINUOUS
 10
53.4496343578
 20
122.3522292357
  0
VERTEX
  8
0
 62
7
  6
CONTINUOUS
 10
53.3065227993
 20
122.3905740917
  0
VERTEX
  8
0
 62
7
  6
CONTINUOUS
 10
53.158927164
 20
122.4034862385
  0
SEQEND
  0
POLYLINE
  8
0
 62
7
  6
CONTINUOUS
 66
1
 70
0
  0
VERTEX
  8
0
 62
7
  6
CONTINUOUS
 10
54.0088947986
 20
134.2535186039
  0
VERTEX
  8
0
 62
7
  6
CONTINUOUS
 10
53.9959826517
 20
134.4011142392
  0
VERTEX
  8
0
 62
7
  6
CONTINUOUS
 10
53.9576377958
 20
134.5442257977
  0
VERTEX
  8
0
 62
7
  6
CONTINUOUS
 10
53.895024356
 20
134.6785048087
  0
VERTEX
  8
0
 62
7
  6
CONTINUOUS
 10
53.810044226
 20
134.7998708224
  0
VERTEX
  8
0
 62
7
  6
CONTINUOUS
 10
53.7052793825
 20
134.904635666
  0
VERTEX
  8
0
 62
7
  6
CONTINUOUS
 10
53.5839133687
 20
134.989615796
  0
VERTEX
  8
0
 62
7
  6
CONTINUOUS
 10
53.4496343578
 20
135.0522292357
  0
VERTEX
  8
0
 62
7
  6
CONTINUOUS
 10
53.3065227993
 20
135.0905740917
  0
VERTEX
  8
0
 62
7
  6
CONTINUOUS
 10
53.158927164
 20
135.1034862385
  0
SEQEND
  0
POLYLINE
  8
0
 62
7
  6
CONTINUOUS
 66
1
 70
0
  0
VERTEX
  8
0
 62
7
  6
CONTINUOUS
 10
59.1088947986
 20
76.5634538731
  0
VERTEX
  8
0
 62
7
  6
CONTINUOUS
 10
59.1218069454
 20
76.4158582378
  0
VERTEX
  8
0
 62
7
  6
CONTINUOUS
 10
59.1601518014
 20
76.2727466793
  0
VERTEX
  8
0
 62
7
  6
CONTINUOUS
 10
59.2227652412
 20
76.1384676684
  0
VERTEX
  8
0
 62
7
  6
CONTINUOUS
 10
59.3077453711
 20
76.0171016546
  0
VERTEX
  8
0
 62
7
  6
CONTINUOUS
 10
59.4125102147
 20
75.9123368111
  0
VERTEX
  8
0
 62
7
  6
CONTINUOUS
 10
59.5338762284
 20
75.8273566811
  0
VERTEX
  8
0
 62
7
  6
CONTINUOUS
 10
59.6681552394
 20
75.7647432414
  0
VERTEX
  8
0
 62
7
  6
CONTINUOUS
 10
59.8112667979
 20
75.7263983854
  0
VERTEX
  8
0
 62
7
  6
CONTINUOUS
 10
59.9588624332
 20
75.7134862385
  0
SEQEND
  0
POLYLINE
  8
0
 62
7
  6
CONTINUOUS
 66
1
 70
0
  0
VERTEX
  8
0
 62
7
  6
CONTINUOUS
 10
54.0088947986
 20
146.9535186039
  0
VERTEX
  8
0
 62
7
  6
CONTINUOUS
 10
53.9959826517
 20
147.1011142392
  0
VERTEX
  8
0
 62
7
  6
CONTINUOUS
 10
53.9576377958
 20
147.2442257977
  0
VERTEX
  8
0
 62
7
  6
CONTINUOUS
 10
53.895024356
 20
147.3785048087
  0
VERTEX
  8
0
 62
7
  6
CONTINUOUS
 10
53.810044226
 20
147.4998708224
  0
VERTEX
  8
0
 62
7
  6
CONTINUOUS
 10
53.7052793825
 20
147.604635666
  0
VERTEX
  8
0
 62
7
  6
CONTINUOUS
 10
53.5839133687
 20
147.689615796
  0
VERTEX
  8
0
 62
7
  6
CONTINUOUS
 10
53.4496343578
 20
147.7522292357
  0
VERTEX
  8
0
 62
7
  6
CONTINUOUS
 10
53.3065227993
 20
147.7905740917
  0
VERTEX
  8
0
 62
7
  6
CONTINUOUS
 10
53.158927164
 20
147.8034862385
  0
SEQEND
  0
POLYLINE
  8
0
 62
7
  6
CONTINUOUS
 66
1
 70
0
  0
VERTEX
  8
0
 62
7
  6
CONTINUOUS
 10
59.1088947986
 20
89.2634538731
  0
VERTEX
  8
0
 62
7
  6
CONTINUOUS
 10
59.1218069454
 20
89.1158582378
  0
VERTEX
  8
0
 62
7
  6
CONTINUOUS
 10
59.1601518014
 20
88.9727466793
  0
VERTEX
  8
0
 62
7
  6
CONTINUOUS
 10
59.2227652412
 20
88.8384676684
  0
VERTEX
  8
0
 62
7
  6
CONTINUOUS
 10
59.3077453711
 20
88.7171016546
  0
VERTEX
  8
0
 62
7
  6
CONTINUOUS
 10
59.4125102147
 20
88.6123368111
  0
VERTEX
  8
0
 62
7
  6
CONTINUOUS
 10
59.5338762284
 20
88.5273566811
  0
VERTEX
  8
0
 62
7
  6
CONTINUOUS
 10
59.6681552394
 20
88.4647432414
  0
VERTEX
  8
0
 62
7
  6
CONTINUOUS
 10
59.8112667979
 20
88.4263983854
  0
VERTEX
  8
0
 62
7
  6
CONTINUOUS
 10
59.9588624332
 20
88.4134862385
  0
SEQEND
  0
POLYLINE
  8
0
 62
7
  6
CONTINUOUS
 66
1
 70
0
  0
VERTEX
  8
0
 62
7
  6
CONTINUOUS
 10
54.0088947986
 20
159.6535186039
  0
VERTEX
  8
0
 62
7
  6
CONTINUOUS
 10
53.9959826517
 20
159.8011142392
  0
VERTEX
  8
0
 62
7
  6
CONTINUOUS
 10
53.9576377958
 20
159.9442257977
  0
VERTEX
  8
0
 62
7
  6
CONTINUOUS
 10
53.895024356
 20
160.0785048087
  0
VERTEX
  8
0
 62
7
  6
CONTINUOUS
 10
53.810044226
 20
160.1998708224
  0
VERTEX
  8
0
 62
7
  6
CONTINUOUS
 10
53.7052793825
 20
160.304635666
  0
VERTEX
  8
0
 62
7
  6
CONTINUOUS
 10
53.5839133687
 20
160.389615796
  0
VERTEX
  8
0
 62
7
  6
CONTINUOUS
 10
53.4496343578
 20
160.4522292357
  0
VERTEX
  8
0
 62
7
  6
CONTINUOUS
 10
53.3065227993
 20
160.4905740917
  0
VERTEX
  8
0
 62
7
  6
CONTINUOUS
 10
53.158927164
 20
160.5034862385
  0
SEQEND
  0
POLYLINE
  8
0
 62
7
  6
CONTINUOUS
 66
1
 70
0
  0
VERTEX
  8
0
 62
7
  6
CONTINUOUS
 10
59.1088947986
 20
101.9634538731
  0
VERTEX
  8
0
 62
7
  6
CONTINUOUS
 10
59.1218069454
 20
101.8158582378
  0
VERTEX
  8
0
 62
7
  6
CONTINUOUS
 10
59.1601518014
 20
101.6727466793
  0
VERTEX
  8
0
 62
7
  6
CONTINUOUS
 10
59.2227652412
 20
101.5384676684
  0
VERTEX
  8
0
 62
7
  6
CONTINUOUS
 10
59.3077453711
 20
101.4171016546
  0
VERTEX
  8
0
 62
7
  6
CONTINUOUS
 10
59.4125102147
 20
101.3123368111
  0
VERTEX
  8
0
 62
7
  6
CONTINUOUS
 10
59.5338762284
 20
101.2273566811
  0
VERTEX
  8
0
 62
7
  6
CONTINUOUS
 10
59.6681552394
 20
101.1647432414
  0
VERTEX
  8
0
 62
7
  6
CONTINUOUS
 10
59.8112667979
 20
101.1263983854
  0
VERTEX
  8
0
 62
7
  6
CONTINUOUS
 10
59.9588624332
 20
101.1134862385
  0
SEQEND
  0
POLYLINE
  8
0
 62
7
  6
CONTINUOUS
 66
1
 70
0
  0
VERTEX
  8
0
 62
7
  6
CONTINUOUS
 10
54.0088947986
 20
172.3535186039
  0
VERTEX
  8
0
 62
7
  6
CONTINUOUS
 10
53.9959826517
 20
172.5011142392
  0
VERTEX
  8
0
 62
7
  6
CONTINUOUS
 10
53.9576377958
 20
172.6442257977
  0
VERTEX
  8
0
 62
7
  6
CONTINUOUS
 10
53.895024356
 20
172.7785048087
  0
VERTEX
  8
0
 62
7
  6
CONTINUOUS
 10
53.810044226
 20
172.8998708224
  0
VERTEX
  8
0
 62
7
  6
CONTINUOUS
 10
53.7052793825
 20
173.004635666
  0
VERTEX
  8
0
 62
7
  6
CONTINUOUS
 10
53.5839133687
 20
173.089615796
  0
VERTEX
  8
0
 62
7
  6
CONTINUOUS
 10
53.4496343578
 20
173.1522292357
  0
VERTEX
  8
0
 62
7
  6
CONTINUOUS
 10
53.3065227993
 20
173.1905740917
  0
VERTEX
  8
0
 62
7
  6
CONTINUOUS
 10
53.158927164
 20
173.2034862385
  0
SEQEND
  0
POLYLINE
  8
0
 62
7
  6
CONTINUOUS
 66
1
 70
0
  0
VERTEX
  8
0
 62
7
  6
CONTINUOUS
 10
59.1088947986
 20
114.6634538731
  0
VERTEX
  8
0
 62
7
  6
CONTINUOUS
 10
59.1218069454
 20
114.5158582378
  0
VERTEX
  8
0
 62
7
  6
CONTINUOUS
 10
59.1601518014
 20
114.3727466793
  0
VERTEX
  8
0
 62
7
  6
CONTINUOUS
 10
59.2227652412
 20
114.2384676684
  0
VERTEX
  8
0
 62
7
  6
CONTINUOUS
 10
59.3077453711
 20
114.1171016546
  0
VERTEX
  8
0
 62
7
  6
CONTINUOUS
 10
59.4125102147
 20
114.0123368111
  0
VERTEX
  8
0
 62
7
  6
CONTINUOUS
 10
59.5338762284
 20
113.9273566811
  0
VERTEX
  8
0
 62
7
  6
CONTINUOUS
 10
59.6681552394
 20
113.8647432414
  0
VERTEX
  8
0
 62
7
  6
CONTINUOUS
 10
59.8112667979
 20
113.8263983854
  0
VERTEX
  8
0
 62
7
  6
CONTINUOUS
 10
59.9588624332
 20
113.8134862385
  0
SEQEND
  0
POLYLINE
  8
0
 62
7
  6
CONTINUOUS
 66
1
 70
0
  0
VERTEX
  8
0
 62
7
  6
CONTINUOUS
 10
54.0088947986
 20
185.0535186039
  0
VERTEX
  8
0
 62
7
  6
CONTINUOUS
 10
53.9959826517
 20
185.2011142392
  0
VERTEX
  8
0
 62
7
  6
CONTINUOUS
 10
53.9576377958
 20
185.3442257977
  0
VERTEX
  8
0
 62
7
  6
CONTINUOUS
 10
53.895024356
 20
185.4785048087
  0
VERTEX
  8
0
 62
7
  6
CONTINUOUS
 10
53.810044226
 20
185.5998708224
  0
VERTEX
  8
0
 62
7
  6
CONTINUOUS
 10
53.7052793825
 20
185.704635666
  0
VERTEX
  8
0
 62
7
  6
CONTINUOUS
 10
53.5839133687
 20
185.789615796
  0
VERTEX
  8
0
 62
7
  6
CONTINUOUS
 10
53.4496343578
 20
185.8522292357
  0
VERTEX
  8
0
 62
7
  6
CONTINUOUS
 10
53.3065227993
 20
185.8905740917
  0
VERTEX
  8
0
 62
7
  6
CONTINUOUS
 10
53.158927164
 20
185.9034862385
  0
SEQEND
  0
POLYLINE
  8
0
 62
7
  6
CONTINUOUS
 66
1
 70
0
  0
VERTEX
  8
0
 62
7
  6
CONTINUOUS
 10
56.7867399597
 20
52.2834862385
  0
VERTEX
  8
0
 62
7
  6
CONTINUOUS
 10
56.7923061929
 20
52.1926810749
  0
VERTEX
  8
0
 62
7
  6
CONTINUOUS
 10
56.7755514886
 20
52.105606551
  0
VERTEX
  8
0
 62
7
  6
CONTINUOUS
 10
56.7375411046
 20
52.0217427728
  0
VERTEX
  8
0
 62
7
  6
CONTINUOUS
 10
56.6774273262
 20
51.9404957825
  0
VERTEX
  8
0
 62
7
  6
CONTINUOUS
 10
56.5947820472
 20
51.863467448
  0
VERTEX
  8
0
 62
7
  6
CONTINUOUS
 10
56.4908636382
 20
51.792983834
  0
VERTEX
  8
0
 62
7
  6
CONTINUOUS
 10
56.368046415
 20
51.7307230923
  0
VERTEX
  8
0
 62
7
  6
CONTINUOUS
 10
56.2277311007
 20
51.6770095235
  0
VERTEX
  8
0
 62
7
  6
CONTINUOUS
 10
56.0688172387
 20
51.6312745928
  0
VERTEX
  8
0
 62
7
  6
CONTINUOUS
 10
55.8908965763
 20
51.593491805
  0
VERTEX
  8
0
 62
7
  6
CONTINUOUS
 10
55.6920208828
 20
51.5634334213
  0
VERTEX
  8
0
 62
7
  6
CONTINUOUS
 10
55.4689029223
 20
51.541018847
  0
VERTEX
  8
0
 62
7
  6
CONTINUOUS
 10
55.2189787014
 20
51.5266656649
  0
VERTEX
  8
0
 62
7
  6
CONTINUOUS
 10
54.9388947998
 20
51.5214209512
  0
SEQEND
  0
LINE
  8
0
 62
7
  6
CONTINUOUS
 10
53.7788947986
 20
233.8734862385
 11
53.7788947986
 21
226.1834862385
  0
LINE
  8
0
 62
7
  6
CONTINUOUS
 10
53.7788947986
 20
219.5834862385
 11
53.7788947986
 21
213.4834862385
  0
LINE
  8
0
 62
7
  6
CONTINUOUS
 10
53.7788947986
 20
206.8834862385
 11
53.7788947986
 21
200.7834862385
  0
LINE
  8
0
 62
7
  6
CONTINUOUS
 10
53.7788947986
 20
194.1834862385
 11
53.7788947986
 21
188.0834862385
  0
LINE
  8
0
 62
7
  6
CONTINUOUS
 10
53.7788947986
 20
181.4834862385
 11
53.7788947986
 21
175.3834862385
  0
LINE
  8
0
 62
7
  6
CONTINUOUS
 10
53.7788947986
 20
168.7834862385
 11
53.7788947986
 21
162.6834862385
  0
LINE
  8
0
 62
7
  6
CONTINUOUS
 10
53.7788947986
 20
156.0834862385
 11
53.7788947986
 21
149.9834862385
  0
LINE
  8
0
 62
7
  6
CONTINUOUS
 10
53.7788947986
 20
143.3834862385
 11
53.7788947986
 21
137.2834862385
  0
LINE
  8
0
 62
7
  6
CONTINUOUS
 10
53.7788947986
 20
130.6834862385
 11
53.7788947986
 21
124.5834862385
  0
LINE
  8
0
 62
7
  6
CONTINUOUS
 10
53.7788947986
 20
117.9834862385
 11
53.7788947986
 21
111.8834862385
  0
LINE
  8
0
 62
7
  6
CONTINUOUS
 10
53.7788947986
 20
105.2834862385
 11
53.7788947986
 21
99.1834862385
  0
LINE
  8
0
 62
7
  6
CONTINUOUS
 10
53.7788947986
 20
92.5834862385
 11
53.7788947986
 21
86.4834862385
  0
LINE
  8
0
 62
7
  6
CONTINUOUS
 10
53.7788947986
 20
79.8834862385
 11
53.7788947986
 21
73.7834862385
  0
LINE
  8
0
 62
7
  6
CONTINUOUS
 10
53.7788947986
 20
67.1834862385
 11
53.7788947986
 21
59.4934862385
  0
LINE
  8
0
 62
7
  6
CONTINUOUS
 10
54.0088947986
 20
223.1535186039
 11
54.0088947986
 21
222.6134538731
  0
LINE
  8
0
 62
7
  6
CONTINUOUS
 10
54.0088947986
 20
210.4535186039
 11
54.0088947986
 21
209.9134538731
  0
LINE
  8
0
 62
7
  6
CONTINUOUS
 10
54.0088947986
 20
197.7535186039
 11
54.0088947986
 21
197.2134538731
  0
LINE
  8
0
 62
7
  6
CONTINUOUS
 10
54.0088947986
 20
185.0535186039
 11
54.0088947986
 21
184.5134538731
  0
LINE
  8
0
 62
7
  6
CONTINUOUS
 10
54.0088947986
 20
172.3535186039
 11
54.0088947986
 21
171.8134538731
  0
LINE
  8
0
 62
7
  6
CONTINUOUS
 10
54.0088947986
 20
159.6535186039
 11
54.0088947986
 21
159.1134538731
  0
LINE
  8
0
 62
7
  6
CONTINUOUS
 10
54.0088947986
 20
146.9535186039
 11
54.0088947986
 21
146.4134538731
  0
LINE
  8
0
 62
7
  6
CONTINUOUS
 10
54.0088947986
 20
134.2535186039
 11
54.0088947986
 21
133.7134538731
  0
LINE
  8
0
 62
7
  6
CONTINUOUS
 10
54.0088947986
 20
121.5535186039
 11
54.0088947986
 21
121.0134538731
  0
LINE
  8
0
 62
7
  6
CONTINUOUS
 10
54.0088947986
 20
108.8535186039
 11
54.0088947986
 21
108.3134538731
  0
LINE
  8
0
 62
7
  6
CONTINUOUS
 10
54.0088947986
 20
96.1535186039
 11
54.0088947986
 21
95.6134538731
  0
LINE
  8
0
 62
7
  6
CONTINUOUS
 10
54.0088947986
 20
83.4535186039
 11
54.0088947986
 21
82.9134538731
  0
LINE
  8
0
 62
7
  6
CONTINUOUS
 10
54.0088947986
 20
70.7535186039
 11
54.0088947986
 21
70.2134538731
  0
LINE
  8
1_AXIS
 62
2
  6
CENTER
 10
56.5588947986
 20
151.0834862385
 11
56.5588947986
 21
148.6835862385
  0
LINE
  8
1_AXIS
 62
2
  6
CONTINUOUS
 10
56.5588947986
 20
147.5634862385
 11
56.5588947986
 21
145.8034862385
  0
LINE
  8
1_AXIS
 62
2
  6
CENTER
 10
56.5588947986
 20
142.2834862385
 11
56.5588947986
 21
144.6833862385
  0
LINE
  8
0
 62
7
  6
CONTINUOUS
 10
55.2875123496
 20
150.2122075646
 11
55.1849995245
 21
150.1291943156
  0
LINE
  8
0
 62
7
  6
CONTINUOUS
 10
57.8302772475
 20
149.5047649124
 11
57.9327900727
 21
149.5877781614
  0
POLYLINE
  8
0
 62
7
  6
CONTINUOUS
 66
1
 70
0
  0
VERTEX
  8
0
 62
7
  6
CONTINUOUS
 10
46.4588947986
 20
145.5634862385
  0
VERTEX
  8
0
 62
7
  6
CONTINUOUS
 10
46.4340404618
 20
145.5603564083
  0
VERTEX
  8
0
 62
7
  6
CONTINUOUS
 10
46.3599651592
 20
145.5572868013
  0
VERTEX
  8
0
 62
7
  6
CONTINUOUS
 10
46.2380883267
 20
145.5543357602
  0
VERTEX
  8
0
 62
7
  6
CONTINUOUS
 10
46.0707477772
 20
145.5515597471
  0
SEQEND
  0
POLYLINE
  8
0
 62
7
  6
CONTINUOUS
 66
1
 70
0
  0
VERTEX
  8
0
 62
7
  6
CONTINUOUS
 10
59.9588624332
 20
141.4534862385
  0
VERTEX
  8
0
 62
7
  6
CONTINUOUS
 10
59.8112667979
 20
141.4405740917
  0
VERTEX
  8
0
 62
7
  6
CONTINUOUS
 10
59.6681552394
 20
141.4022292357
  0
VERTEX
  8
0
 62
7
  6
CONTINUOUS
 10
59.5338762284
 20
141.339615796
  0
VERTEX
  8
0
 62
7
  6
CONTINUOUS
 10
59.4125102147
 20
141.254635666
  0
VERTEX
  8
0
 62
7
  6
CONTINUOUS
 10
59.3077453711
 20
141.1498708224
  0
VERTEX
  8
0
 62
7
  6
CONTINUOUS
 10
59.2227652412
 20
141.0285048087
  0
VERTEX
  8
0
 62
7
  6
CONTINUOUS
 10
59.1601518014
 20
140.8942257977
  0
VERTEX
  8
0
 62
7
  6
CONTINUOUS
 10
59.1218069454
 20
140.7511142392
  0
VERTEX
  8
0
 62
7
  6
CONTINUOUS
 10
59.1088947986
 20
140.6035186039
  0
SEQEND
  0
POLYLINE
  8
0
 62
7
  6
CONTINUOUS
 66
1
 70
0
  0
VERTEX
  8
0
 62
7
  6
CONTINUOUS
 10
53.158927164
 20
145.5634862385
  0
VERTEX
  8
0
 62
7
  6
CONTINUOUS
 10
53.3065227993
 20
145.5763983854
  0
VERTEX
  8
0
 62
7
  6
CONTINUOUS
 10
53.4496343578
 20
145.6147432414
  0
VERTEX
  8
0
 62
7
  6
CONTINUOUS
 10
53.5839133687
 20
145.6773566811
  0
VERTEX
  8
0
 62
7
  6
CONTINUOUS
 10
53.7052793825
 20
145.7623368111
  0
VERTEX
  8
0
 62
7
  6
CONTINUOUS
 10
53.810044226
 20
145.8671016546
  0
VERTEX
  8
0
 62
7
  6
CONTINUOUS
 10
53.895024356
 20
145.9884676684
  0
VERTEX
  8
0
 62
7
  6
CONTINUOUS
 10
53.9576377958
 20
146.1227466793
  0
VERTEX
  8
0
 62
7
  6
CONTINUOUS
 10
53.9959826517
 20
146.2658582378
  0
VERTEX
  8
0
 62
7
  6
CONTINUOUS
 10
54.0088947986
 20
146.4134538731
  0
SEQEND
  0
POLYLINE
  8
0
 62
7
  6
CONTINUOUS
 66
1
 70
0
  0
VERTEX
  8
0
 62
7
  6
CONTINUOUS
 10
67.0470418222
 20
141.46541273
  0
VERTEX
  8
0
 62
7
  6
CONTINUOUS
 10
66.8797012726
 20
141.462636717
  0
VERTEX
  8
0
 62
7
  6
CONTINUOUS
 10
66.7578244394
 20
141.4596856758
  0
VERTEX
  8
0
 62
7
  6
CONTINUOUS
 10
66.6837491359
 20
141.4566160688
  0
VERTEX
  8
0
 62
7
  6
CONTINUOUS
 10
66.6588947986
 20
141.4534862385
  0
SEQEND
  0
LINE
  8
0
 62
7
  6
CONTINUOUS
 10
67.5044956191
 20
141.4702320121
 11
67.0470418222
 21
141.46541273
  0
LINE
  8
0
 62
7
  6
CONTINUOUS
 10
46.0707477772
 20
145.5515597471
 11
45.613293978
 21
145.546740465
  0
LINE
  8
0
 62
7
  6
CONTINUOUS
 10
68.4270970322
 20
141.4749836024
 11
67.5044956191
 21
141.4702320121
  0
LINE
  8
0
 62
7
  6
CONTINUOUS
 10
45.613293978
 20
145.546740465
 11
44.6906925609
 21
145.5419888746
  0
LINE
  8
0
 62
7
  6
CONTINUOUS
 10
69.1315898053
 20
141.4761488799
 11
68.4270970322
 21
141.4749836024
  0
LINE
  8
0
 62
7
  6
CONTINUOUS
 10
44.6906925609
 20
145.5419888746
 11
43.9861997918
 21
145.5408235972
  0
LINE
  8
0
 62
7
  6
CONTINUOUS
 10
59.9588624332
 20
141.4534862385
 11
66.6588947986
 21
141.4534862385
  0
LINE
  8
0
 62
7
  6
CONTINUOUS
 10
49.1588947986
 20
142.9834862385
 11
48.3588947986
 21
142.9834862385
  0
LINE
  8
0
 62
7
  6
CONTINUOUS
 10
72.9588947986
 20
143.3334862385
 11
59.1914308548
 21
143.3334862385
  0
LINE
  8
0
 62
7
  6
CONTINUOUS
 10
40.1588947986
 20
143.6834862385
 11
53.9263587424
 21
143.6834862385
  0
LINE
  8
0
 62
7
  6
CONTINUOUS
 10
63.9588947986
 20
144.0334862385
 11
64.7588947986
 21
144.0334862385
  0
LINE
  8
0
 62
7
  6
CONTINUOUS
 10
53.158927164
 20
145.5634862385
 11
46.4588947986
 21
145.5634862385
  0
LINE
  8
1_AXIS
 62
2
  6
CENTER
 10
60.9588947986
 20
146.6834862385
 11
58.5589947986
 21
146.6834862385
  0
LINE
  8
1_AXIS
 62
2
  6
CONTINUOUS
 10
57.4388947986
 20
146.6834862385
 11
55.6788947986
 21
146.6834862385
  0
LINE
  8
1_AXIS
 62
2
  6
CENTER
 10
52.1588947986
 20
146.6834862385
 11
54.5587947986
 21
146.6834862385
  0
POLYLINE
  8
0
 62
7
  6
CONTINUOUS
 66
1
 70
0
  0
VERTEX
  8
0
 62
7
  6
CONTINUOUS
 10
69.1315898053
 20
141.4761488799
  0
VERTEX
  8
0
 62
7
  6
CONTINUOUS
 10
69.2773463769
 20
141.4635901897
  0
VERTEX
  8
0
 62
7
  6
CONTINUOUS
 10
69.4207899463
 20
141.4254158704
  0
VERTEX
  8
0
 62
7
  6
CONTINUOUS
 10
69.5546104157
 20
141.3632208531
  0
VERTEX
  8
0
 62
7
  6
CONTINUOUS
 10
69.6758428788
 20
141.2785652912
  0
VERTEX
  8
0
 62
7
  6
CONTINUOUS
 10
69.7816045061
 20
141.1728905092
  0
VERTEX
  8
0
 62
7
  6
CONTINUOUS
 10
69.8665781453
 20
141.0514442615
  0
VERTEX
  8
0
 62
7
  6
CONTINUOUS
 10
69.9291875732
 20
140.9171717343
  0
VERTEX
  8
0
 62
7
  6
CONTINUOUS
 10
69.9678165971
 20
140.7729227523
  0
VERTEX
  8
0
 62
7
  6
CONTINUOUS
 10
69.9806927739
 20
140.6253165793
  0
SEQEND
  0
POLYLINE
  8
0
 62
7
  6
CONTINUOUS
 66
1
 70
0
  0
VERTEX
  8
0
 62
7
  6
CONTINUOUS
 10
43.9861997918
 20
145.5408235972
  0
VERTEX
  8
0
 62
7
  6
CONTINUOUS
 10
43.8404432203
 20
145.5533822874
  0
VERTEX
  8
0
 62
7
  6
CONTINUOUS
 10
43.6969996509
 20
145.5915566067
  0
VERTEX
  8
0
 62
7
  6
CONTINUOUS
 10
43.5631791815
 20
145.6537516239
  0
VERTEX
  8
0
 62
7
  6
CONTINUOUS
 10
43.4419467184
 20
145.7384071858
  0
VERTEX
  8
0
 62
7
  6
CONTINUOUS
 10
43.336185091
 20
145.8440819678
  0
VERTEX
  8
0
 62
7
  6
CONTINUOUS
 10
43.2512114519
 20
145.9655282156
  0
VERTEX
  8
0
 62
7
  6
CONTINUOUS
 10
43.1886020239
 20
146.0998007427
  0
VERTEX
  8
0
 62
7
  6
CONTINUOUS
 10
43.1499730001
 20
146.2440497248
  0
VERTEX
  8
0
 62
7
  6
CONTINUOUS
 10
43.1370968232
 20
146.3916558978
  0
SEQEND
  0
POLYLINE
  8
0
 62
7
  6
CONTINUOUS
 66
1
 70
0
  0
VERTEX
  8
0
 62
7
  6
CONTINUOUS
 10
46.4588947986
 20
147.8034862385
  0
VERTEX
  8
0
 62
7
  6
CONTINUOUS
 10
46.4340404618
 20
147.8066160687
  0
VERTEX
  8
0
 62
7
  6
CONTINUOUS
 10
46.3599651592
 20
147.8096856758
  0
VERTEX
  8
0
 62
7
  6
CONTINUOUS
 10
46.2380883267
 20
147.8126367169
  0
VERTEX
  8
0
 62
7
  6
CONTINUOUS
 10
46.0707477772
 20
147.81541273
  0
VERTEX
  8
0
 62
7
  6
CONTINUOUS
 10
45.8611467247
 20
147.817960709
  0
VERTEX
  8
0
 62
7
  6
CONTINUOUS
 10
45.3319272606
 20
147.8221832862
  0
SEQEND
  0
LINE
  8
0
 62
7
  6
CONTINUOUS
 10
55.1849995245
 20
143.2377781614
 11
55.2875123496
 21
143.1547649124
  0
LINE
  8
0
 62
7
  6
CONTINUOUS
 10
57.9327900727
 20
143.7791943156
 11
57.8302772475
 21
143.8622075646
  0
POLYLINE
  8
0
 62
7
  6
CONTINUOUS
 66
1
 70
0
  0
VERTEX
  8
0
 62
7
  6
CONTINUOUS
 10
59.4627445253
 20
127.3634538731
  0
VERTEX
  8
0
 62
7
  6
CONTINUOUS
 10
59.4750711802
 20
127.2535156916
  0
VERTEX
  8
0
 62
7
  6
CONTINUOUS
 10
59.5117835734
 20
127.1483936661
  0
VERTEX
  8
0
 62
7
  6
CONTINUOUS
 10
59.5706846104
 20
127.0544922873
  0
VERTEX
  8
0
 62
7
  6
CONTINUOUS
 10
59.6499008473
 20
126.9752760503
  0
VERTEX
  8
0
 62
7
  6
CONTINUOUS
 10
59.7438022262
 20
126.9163750134
  0
VERTEX
  8
0
 62
7
  6
CONTINUOUS
 10
59.8489242516
 20
126.8796626201
  0
VERTEX
  8
0
 62
7
  6
CONTINUOUS
 10
59.9588624332
 20
126.8673359652
  0
SEQEND
  0
POLYLINE
  8
0
 62
7
  6
CONTINUOUS
 66
1
 70
0
  0
VERTEX
  8
0
 62
7
  6
CONTINUOUS
 10
59.1088947986
 20
165.4634538731
  0
VERTEX
  8
0
 62
7
  6
CONTINUOUS
 10
59.1252270226
 20
165.2976266018
  0
VERTEX
  8
0
 62
7
  6
CONTINUOUS
 10
59.1735950312
 20
165.138176672
  0
VERTEX
  8
0
 62
7
  6
CONTINUOUS
 10
59.2521390568
 20
164.9912301017
  0
VERTEX
  8
0
 62
7
  6
CONTINUOUS
 10
59.35784064
 20
164.8624320575
  0
VERTEX
  8
0
 62
7
  6
CONTINUOUS
 10
59.4866386848
 20
164.7567304814
  0
VERTEX
  8
0
 62
7
  6
CONTINUOUS
 10
59.6335852478
 20
164.6781864646
  0
VERTEX
  8
0
 62
7
  6
CONTINUOUS
 10
59.7930351675
 20
164.6298184615
  0
VERTEX
  8
0
 62
7
  6
CONTINUOUS
 10
59.9588624332
 20
164.6134862385
  0
SEQEND
  0
POLYLINE
  8
0
 62
7
  6
CONTINUOUS
 66
1
 70
0
  0
VERTEX
  8
0
 62
7
  6
CONTINUOUS
 10
54.0088947986
 20
197.7535186039
  0
VERTEX
  8
0
 62
7
  6
CONTINUOUS
 10
53.9959826517
 20
197.9011142392
  0
VERTEX
  8
0
 62
7
  6
CONTINUOUS
 10
53.9576377958
 20
198.0442257977
  0
VERTEX
  8
0
 62
7
  6
CONTINUOUS
 10
53.895024356
 20
198.1785048087
  0
VERTEX
  8
0
 62
7
  6
CONTINUOUS
 10
53.810044226
 20
198.2998708224
  0
VERTEX
  8
0
 62
7
  6
CONTINUOUS
 10
53.7052793825
 20
198.404635666
  0
VERTEX
  8
0
 62
7
  6
CONTINUOUS
 10
53.5839133687
 20
198.489615796
  0
VERTEX
  8
0
 62
7
  6
CONTINUOUS
 10
53.4496343578
 20
198.5522292357
  0
VERTEX
  8
0
 62
7
  6
CONTINUOUS
 10
53.3065227993
 20
198.5905740917
  0
VERTEX
  8
0
 62
7
  6
CONTINUOUS
 10
53.158927164
 20
198.6034862385
  0
SEQEND
  0
POLYLINE
  8
0
 62
7
  6
CONTINUOUS
 66
1
 70
0
  0
VERTEX
  8
0
 62
7
  6
CONTINUOUS
 10
59.1088947986
 20
140.0634538731
  0
VERTEX
  8
0
 62
7
  6
CONTINUOUS
 10
59.1218069454
 20
139.9158582378
  0
VERTEX
  8
0
 62
7
  6
CONTINUOUS
 10
59.1601518014
 20
139.7727466793
  0
VERTEX
  8
0
 62
7
  6
CONTINUOUS
 10
59.2227652412
 20
139.6384676684
  0
VERTEX
  8
0
 62
7
  6
CONTINUOUS
 10
59.3077453711
 20
139.5171016546
  0
VERTEX
  8
0
 62
7
  6
CONTINUOUS
 10
59.4125102147
 20
139.4123368111
  0
VERTEX
  8
0
 62
7
  6
CONTINUOUS
 10
59.5338762284
 20
139.3273566811
  0
VERTEX
  8
0
 62
7
  6
CONTINUOUS
 10
59.6681552394
 20
139.2647432414
  0
VERTEX
  8
0
 62
7
  6
CONTINUOUS
 10
59.8112667979
 20
139.2263983854
  0
VERTEX
  8
0
 62
7
  6
CONTINUOUS
 10
59.9588624332
 20
139.2134862385
  0
SEQEND
  0
POLYLINE
  8
0
 62
7
  6
CONTINUOUS
 66
1
 70
0
  0
VERTEX
  8
0
 62
7
  6
CONTINUOUS
 10
54.0088947986
 20
210.4535186039
  0
VERTEX
  8
0
 62
7
  6
CONTINUOUS
 10
53.9959826517
 20
210.6011142392
  0
VERTEX
  8
0
 62
7
  6
CONTINUOUS
 10
53.9576377958
 20
210.7442257977
  0
VERTEX
  8
0
 62
7
  6
CONTINUOUS
 10
53.895024356
 20
210.8785048087
  0
VERTEX
  8
0
 62
7
  6
CONTINUOUS
 10
53.810044226
 20
210.9998708224
  0
VERTEX
  8
0
 62
7
  6
CONTINUOUS
 10
53.7052793825
 20
211.104635666
  0
VERTEX
  8
0
 62
7
  6
CONTINUOUS
 10
53.5839133687
 20
211.189615796
  0
VERTEX
  8
0
 62
7
  6
CONTINUOUS
 10
53.4496343578
 20
211.2522292357
  0
VERTEX
  8
0
 62
7
  6
CONTINUOUS
 10
53.3065227993
 20
211.2905740917
  0
VERTEX
  8
0
 62
7
  6
CONTINUOUS
 10
53.158927164
 20
211.3034862385
  0
SEQEND
  0
POLYLINE
  8
0
 62
7
  6
CONTINUOUS
 66
1
 70
0
  0
VERTEX
  8
0
 62
7
  6
CONTINUOUS
 10
59.1088947986
 20
152.7634538731
  0
VERTEX
  8
0
 62
7
  6
CONTINUOUS
 10
59.1218069454
 20
152.6158582378
  0
VERTEX
  8
0
 62
7
  6
CONTINUOUS
 10
59.1601518014
 20
152.4727466793
  0
VERTEX
  8
0
 62
7
  6
CONTINUOUS
 10
59.2227652412
 20
152.3384676684
  0
VERTEX
  8
0
 62
7
  6
CONTINUOUS
 10
59.3077453711
 20
152.2171016546
  0
VERTEX
  8
0
 62
7
  6
CONTINUOUS
 10
59.4125102147
 20
152.1123368111
  0
VERTEX
  8
0
 62
7
  6
CONTINUOUS
 10
59.5338762284
 20
152.0273566811
  0
VERTEX
  8
0
 62
7
  6
CONTINUOUS
 10
59.6681552394
 20
151.9647432414
  0
VERTEX
  8
0
 62
7
  6
CONTINUOUS
 10
59.8112667979
 20
151.9263983854
  0
VERTEX
  8
0
 62
7
  6
CONTINUOUS
 10
59.9588624332
 20
151.9134862385
  0
SEQEND
  0
POLYLINE
  8
0
 62
7
  6
CONTINUOUS
 66
1
 70
0
  0
VERTEX
  8
0
 62
7
  6
CONTINUOUS
 10
54.0088947986
 20
223.1535186039
  0
VERTEX
  8
0
 62
7
  6
CONTINUOUS
 10
53.9959826517
 20
223.3011142392
  0
VERTEX
  8
0
 62
7
  6
CONTINUOUS
 10
53.9576377958
 20
223.4442257977
  0
VERTEX
  8
0
 62
7
  6
CONTINUOUS
 10
53.895024356
 20
223.5785048087
  0
VERTEX
  8
0
 62
7
  6
CONTINUOUS
 10
53.810044226
 20
223.6998708224
  0
VERTEX
  8
0
 62
7
  6
CONTINUOUS
 10
53.7052793825
 20
223.804635666
  0
VERTEX
  8
0
 62
7
  6
CONTINUOUS
 10
53.5839133687
 20
223.889615796
  0
VERTEX
  8
0
 62
7
  6
CONTINUOUS
 10
53.4496343578
 20
223.9522292357
  0
VERTEX
  8
0
 62
7
  6
CONTINUOUS
 10
53.3065227993
 20
223.9905740917
  0
VERTEX
  8
0
 62
7
  6
CONTINUOUS
 10
53.158927164
 20
224.0034862385
  0
SEQEND
  0
POLYLINE
  8
0
 62
7
  6
CONTINUOUS
 66
1
 70
0
  0
VERTEX
  8
0
 62
7
  6
CONTINUOUS
 10
59.1088947986
 20
178.1634538731
  0
VERTEX
  8
0
 62
7
  6
CONTINUOUS
 10
59.1218069454
 20
178.0158582378
  0
VERTEX
  8
0
 62
7
  6
CONTINUOUS
 10
59.1601518014
 20
177.8727466793
  0
VERTEX
  8
0
 62
7
  6
CONTINUOUS
 10
59.2227652412
 20
177.7384676684
  0
VERTEX
  8
0
 62
7
  6
CONTINUOUS
 10
59.3077453711
 20
177.6171016546
  0
VERTEX
  8
0
 62
7
  6
CONTINUOUS
 10
59.4125102147
 20
177.5123368111
  0
VERTEX
  8
0
 62
7
  6
CONTINUOUS
 10
59.5338762284
 20
177.4273566811
  0
VERTEX
  8
0
 62
7
  6
CONTINUOUS
 10
59.6681552394
 20
177.3647432414
  0
VERTEX
  8
0
 62
7
  6
CONTINUOUS
 10
59.8112667979
 20
177.3263983854
  0
VERTEX
  8
0
 62
7
  6
CONTINUOUS
 10
59.9588624332
 20
177.3134862385
  0
SEQEND
  0
POLYLINE
  8
0
 62
7
  6
CONTINUOUS
 66
1
 70
0
  0
VERTEX
  8
0
 62
7
  6
CONTINUOUS
 10
59.1088947986
 20
190.8634538731
  0
VERTEX
  8
0
 62
7
  6
CONTINUOUS
 10
59.1218069454
 20
190.7158582378
  0
VERTEX
  8
0
 62
7
  6
CONTINUOUS
 10
59.1601518014
 20
190.5727466793
  0
VERTEX
  8
0
 62
7
  6
CONTINUOUS
 10
59.2227652412
 20
190.4384676684
  0
VERTEX
  8
0
 62
7
  6
CONTINUOUS
 10
59.3077453711
 20
190.3171016546
  0
VERTEX
  8
0
 62
7
  6
CONTINUOUS
 10
59.4125102147
 20
190.2123368111
  0
VERTEX
  8
0
 62
7
  6
CONTINUOUS
 10
59.5338762284
 20
190.1273566811
  0
VERTEX
  8
0
 62
7
  6
CONTINUOUS
 10
59.6681552394
 20
190.0647432414
  0
VERTEX
  8
0
 62
7
  6
CONTINUOUS
 10
59.8112667979
 20
190.0263983854
  0
VERTEX
  8
0
 62
7
  6
CONTINUOUS
 10
59.9588624332
 20
190.0134862385
  0
SEQEND
  0
LINE
  8
0
 62
7
  6
CONTINUOUS
 10
59.1088947986
 20
76.5634538731
 11
59.1088947986
 21
77.1035186039
  0
LINE
  8
0
 62
7
  6
CONTINUOUS
 10
59.1088947986
 20
89.2634538731
 11
59.1088947986
 21
89.8035186039
  0
LINE
  8
0
 62
7
  6
CONTINUOUS
 10
59.1088947986
 20
101.9634538731
 11
59.1088947986
 21
102.5035186039
  0
LINE
  8
0
 62
7
  6
CONTINUOUS
 10
59.1088947986
 20
114.6634538731
 11
59.1088947986
 21
115.2035186039
  0
LINE
  8
0
 62
7
  6
CONTINUOUS
 10
59.1088947986
 20
127.3634538731
 11
59.1088947986
 21
127.9035186039
  0
LINE
  8
0
 62
7
  6
CONTINUOUS
 10
59.1088947986
 20
140.0634538731
 11
59.1088947986
 21
140.6035186039
  0
LINE
  8
0
 62
7
  6
CONTINUOUS
 10
59.1088947986
 20
152.7634538731
 11
59.1088947986
 21
153.3035186039
  0
LINE
  8
0
 62
7
  6
CONTINUOUS
 10
59.1088947986
 20
165.4634538731
 11
59.1088947986
 21
166.0035186039
  0
LINE
  8
0
 62
7
  6
CONTINUOUS
 10
59.1088947986
 20
178.1634538731
 11
59.1088947986
 21
178.7035186039
  0
LINE
  8
0
 62
7
  6
CONTINUOUS
 10
59.1088947986
 20
190.8634538731
 11
59.1088947986
 21
191.4035186039
  0
LINE
  8
0
 62
7
  6
CONTINUOUS
 10
59.1088947986
 20
203.5634538731
 11
59.1088947986
 21
204.1035186039
  0
LINE
  8
0
 62
7
  6
CONTINUOUS
 10
59.1088947986
 20
216.2634538731
 11
59.1088947986
 21
216.8035186039
  0
LINE
  8
0
 62
7
  6
CONTINUOUS
 10
59.3388947986
 20
239.9334862385
 11
59.3388947986
 21
236.8214862385
  0
LINE
  8
0
 62
7
  6
CONTINUOUS
 10
59.3388947986
 20
225.9334862385
 11
59.3388947986
 21
219.8334862385
  0
LINE
  8
0
 62
7
  6
CONTINUOUS
 10
59.3388947986
 20
213.2334862385
 11
59.3388947986
 21
207.1334862385
  0
LINE
  8
0
 62
7
  6
CONTINUOUS
 10
59.3388947986
 20
200.5334862385
 11
59.3388947986
 21
194.4334862385
  0
LINE
  8
0
 62
7
  6
CONTINUOUS
 10
59.3388947986
 20
187.8334862385
 11
59.3388947986
 21
181.7334862385
  0
LINE
  8
0
 62
7
  6
CONTINUOUS
 10
59.3388947986
 20
175.1334862385
 11
59.3388947986
 21
169.0334862385
  0
LINE
  8
0
 62
7
  6
CONTINUOUS
 10
59.3388947986
 20
162.4334862385
 11
59.3388947986
 21
156.3334862385
  0
LINE
  8
0
 62
7
  6
CONTINUOUS
 10
59.3388947986
 20
149.7334862385
 11
59.3388947986
 21
143.6334862385
  0
LINE
  8
0
 62
7
  6
CONTINUOUS
 10
59.3388947986
 20
137.0334862385
 11
59.3388947986
 21
130.9334862385
  0
LINE
  8
0
 62
7
  6
CONTINUOUS
 10
59.3388947986
 20
124.3334862385
 11
59.3388947986
 21
118.2334862385
  0
LINE
  8
0
 62
7
  6
CONTINUOUS
 10
59.3388947986
 20
111.6334862385
 11
59.3388947986
 21
105.5334862385
  0
LINE
  8
0
 62
7
  6
CONTINUOUS
 10
59.3388947986
 20
98.9334862385
 11
59.3388947986
 21
92.8334862385
  0
LINE
  8
0
 62
7
  6
CONTINUOUS
 10
59.3388947986
 20
86.2334862385
 11
59.3388947986
 21
80.1334862385
  0
LINE
  8
0
 62
7
  6
CONTINUOUS
 10
59.3388947986
 20
73.5334862385
 11
59.3388947986
 21
67.4334862385
  0
LINE
  8
0
 62
7
  6
CONTINUOUS
 10
59.3388947986
 20
56.5454862385
 11
59.3388947986
 21
53.4334862385
  0
LINE
  8
0
 62
7
  6
CONTINUOUS
 10
59.4627445253
 20
166.0035186039
 11
59.4627445253
 21
165.4634538731
  0
LINE
  8
0
 62
7
  6
CONTINUOUS
 10
59.4627445253
 20
127.9035186039
 11
59.4627445253
 21
127.3634538731
  0
LINE
  8
0
 62
7
  6
CONTINUOUS
 10
55.2875123496
 20
137.5122075646
 11
55.1849995245
 21
137.4291943156
  0
POLYLINE
  8
0
 62
7
  6
CONTINUOUS
 66
1
 70
0
  0
VERTEX
  8
0
 62
7
  6
CONTINUOUS
 10
59.9588624332
 20
154.1534862385
  0
VERTEX
  8
0
 62
7
  6
CONTINUOUS
 10
59.8112667979
 20
154.1405740917
  0
VERTEX
  8
0
 62
7
  6
CONTINUOUS
 10
59.6681552394
 20
154.1022292357
  0
VERTEX
  8
0
 62
7
  6
CONTINUOUS
 10
59.5338762284
 20
154.039615796
  0
VERTEX
  8
0
 62
7
  6
CONTINUOUS
 10
59.4125102147
 20
153.954635666
  0
VERTEX
  8
0
 62
7
  6
CONTINUOUS
 10
59.3077453711
 20
153.8498708224
  0
VERTEX
  8
0
 62
7
  6
CONTINUOUS
 10
59.2227652412
 20
153.7285048087
  0
VERTEX
  8
0
 62
7
  6
CONTINUOUS
 10
59.1601518014
 20
153.5942257977
  0
VERTEX
  8
0
 62
7
  6
CONTINUOUS
 10
59.1218069454
 20
153.4511142392
  0
VERTEX
  8
0
 62
7
  6
CONTINUOUS
 10
59.1088947986
 20
153.3035186039
  0
SEQEND
  0
POLYLINE
  8
0
 62
7
  6
CONTINUOUS
 66
1
 70
0
  0
VERTEX
  8
0
 62
7
  6
CONTINUOUS
 10
67.0470418222
 20
154.16541273
  0
VERTEX
  8
0
 62
7
  6
CONTINUOUS
 10
66.8797012726
 20
154.162636717
  0
VERTEX
  8
0
 62
7
  6
CONTINUOUS
 10
66.7578244394
 20
154.1596856758
  0
VERTEX
  8
0
 62
7
  6
CONTINUOUS
 10
66.6837491359
 20
154.1566160688
  0
VERTEX
  8
0
 62
7
  6
CONTINUOUS
 10
66.6588947986
 20
154.1534862385
  0
SEQEND
  0
LINE
  8
0
 62
7
  6
CONTINUOUS
 10
46.4588947986
 20
147.8034862385
 11
53.158927164
 21
147.8034862385
  0
LINE
  8
0
 62
7
  6
CONTINUOUS
 10
63.9588947986
 20
149.3334862385
 11
64.7588947986
 21
149.3334862385
  0
LINE
  8
0
 62
7
  6
CONTINUOUS
 10
53.9263587424
 20
149.6834862385
 11
40.158924045
 21
149.6834862385
  0
LINE
  8
0
 62
7
  6
CONTINUOUS
 10
59.1914308548
 20
150.0334862385
 11
72.9588947986
 21
150.0334862385
  0
LINE
  8
0
 62
7
  6
CONTINUOUS
 10
49.1588947986
 20
150.3834862385
 11
48.3588947986
 21
150.3834862385
  0
LINE
  8
0
 62
7
  6
CONTINUOUS
 10
66.6588947986
 20
151.9134862385
 11
59.9588624332
 21
151.9134862385
  0
LINE
  8
0
 62
7
  6
CONTINUOUS
 10
69.1315898053
 20
151.8908235972
 11
68.0953668455
 21
151.8931951867
  0
LINE
  8
0
 62
7
  6
CONTINUOUS
 10
45.3319272606
 20
147.8221832862
 11
43.9861997918
 21
147.8261488799
  0
POLYLINE
  8
0
 62
7
  6
CONTINUOUS
 66
1
 70
0
  0
VERTEX
  8
0
 62
7
  6
CONTINUOUS
 10
68.0953668455
 20
151.8931951867
  0
VERTEX
  8
0
 62
7
  6
CONTINUOUS
 10
67.256642874
 20
151.8990117681
  0
VERTEX
  8
0
 62
7
  6
CONTINUOUS
 10
67.0470418222
 20
151.9015597471
  0
VERTEX
  8
0
 62
7
  6
CONTINUOUS
 10
66.8797012726
 20
151.9043357601
  0
VERTEX
  8
0
 62
7
  6
CONTINUOUS
 10
66.7578244394
 20
151.9072868013
  0
VERTEX
  8
0
 62
7
  6
CONTINUOUS
 10
66.6837491359
 20
151.9103564083
  0
VERTEX
  8
0
 62
7
  6
CONTINUOUS
 10
66.6588947986
 20
151.9134862385
  0
SEQEND
  0
LINE
  8
0
 62
7
  6
CONTINUOUS
 10
55.1849995245
 20
155.9377781614
 11
55.2875123496
 21
155.8547649124
  0
POLYLINE
  8
0
 62
7
  6
CONTINUOUS
 66
1
 70
0
  0
VERTEX
  8
0
 62
7
  6
CONTINUOUS
 10
59.4627445253
 20
165.4634538731
  0
VERTEX
  8
0
 62
7
  6
CONTINUOUS
 10
59.4750711802
 20
165.3535156916
  0
VERTEX
  8
0
 62
7
  6
CONTINUOUS
 10
59.5117835734
 20
165.2483936661
  0
VERTEX
  8
0
 62
7
  6
CONTINUOUS
 10
59.5706846104
 20
165.1544922873
  0
VERTEX
  8
0
 62
7
  6
CONTINUOUS
 10
59.6499008473
 20
165.0752760503
  0
VERTEX
  8
0
 62
7
  6
CONTINUOUS
 10
59.7438022262
 20
165.0163750134
  0
VERTEX
  8
0
 62
7
  6
CONTINUOUS
 10
59.8489242516
 20
164.9796626201
  0
VERTEX
  8
0
 62
7
  6
CONTINUOUS
 10
59.9588624332
 20
164.9673359652
  0
SEQEND
  0
POLYLINE
  8
0
 62
7
  6
CONTINUOUS
 66
1
 70
0
  0
VERTEX
  8
0
 62
7
  6
CONTINUOUS
 10
69.6275057409
 20
127.9035186039
  0
VERTEX
  8
0
 62
7
  6
CONTINUOUS
 10
69.6152260928
 20
128.0158016325
  0
VERTEX
  8
0
 62
7
  6
CONTINUOUS
 10
69.577755831
 20
128.1252864629
  0
VERTEX
  8
0
 62
7
  6
CONTINUOUS
 10
69.515266692
 20
128.2259180535
  0
VERTEX
  8
0
 62
7
  6
CONTINUOUS
 10
69.4304462765
 20
128.3106330099
  0
VERTEX
  8
0
 62
7
  6
CONTINUOUS
 10
69.3297955594
 20
128.3729515864
  0
VERTEX
  8
0
 62
7
  6
CONTINUOUS
 10
69.2205221276
 20
128.410186208
  0
VERTEX
  8
0
 62
7
  6
CONTINUOUS
 10
69.108927164
 20
128.4222885924
  0
SEQEND
  0
POLYLINE
  8
0
 62
7
  6
CONTINUOUS
 66
1
 70
0
  0
VERTEX
  8
0
 62
7
  6
CONTINUOUS
 10
59.1088947986
 20
203.5634538731
  0
VERTEX
  8
0
 62
7
  6
CONTINUOUS
 10
59.1218069454
 20
203.4158582378
  0
VERTEX
  8
0
 62
7
  6
CONTINUOUS
 10
59.1601518014
 20
203.2727466793
  0
VERTEX
  8
0
 62
7
  6
CONTINUOUS
 10
59.2227652412
 20
203.1384676684
  0
VERTEX
  8
0
 62
7
  6
CONTINUOUS
 10
59.3077453711
 20
203.0171016546
  0
VERTEX
  8
0
 62
7
  6
CONTINUOUS
 10
59.4125102147
 20
202.9123368111
  0
VERTEX
  8
0
 62
7
  6
CONTINUOUS
 10
59.5338762284
 20
202.8273566811
  0
VERTEX
  8
0
 62
7
  6
CONTINUOUS
 10
59.6681552394
 20
202.7647432414
  0
VERTEX
  8
0
 62
7
  6
CONTINUOUS
 10
59.8112667979
 20
202.7263983854
  0
VERTEX
  8
0
 62
7
  6
CONTINUOUS
 10
59.9588624332
 20
202.7134862385
  0
SEQEND
  0
POLYLINE
  8
0
 62
7
  6
CONTINUOUS
 66
1
 70
0
  0
VERTEX
  8
0
 62
7
  6
CONTINUOUS
 10
59.1088947986
 20
216.2634538731
  0
VERTEX
  8
0
 62
7
  6
CONTINUOUS
 10
59.1218069454
 20
216.1158582378
  0
VERTEX
  8
0
 62
7
  6
CONTINUOUS
 10
59.1601518014
 20
215.9727466793
  0
VERTEX
  8
0
 62
7
  6
CONTINUOUS
 10
59.2227652412
 20
215.8384676684
  0
VERTEX
  8
0
 62
7
  6
CONTINUOUS
 10
59.3077453711
 20
215.7171016546
  0
VERTEX
  8
0
 62
7
  6
CONTINUOUS
 10
59.4125102147
 20
215.6123368111
  0
VERTEX
  8
0
 62
7
  6
CONTINUOUS
 10
59.5338762284
 20
215.5273566811
  0
VERTEX
  8
0
 62
7
  6
CONTINUOUS
 10
59.6681552394
 20
215.4647432414
  0
VERTEX
  8
0
 62
7
  6
CONTINUOUS
 10
59.8112667979
 20
215.4263983854
  0
VERTEX
  8
0
 62
7
  6
CONTINUOUS
 10
59.9588624332
 20
215.4134862385
  0
SEQEND
  0
LINE
  8
0
 62
7
  6
CONTINUOUS
 10
64.2088947986
 20
64.2834862385
 11
64.2088947986
 21
66.2834862385
  0
LINE
  8
0
 62
7
  6
CONTINUOUS
 10
64.2088947986
 20
227.0834862385
 11
64.2088947986
 21
229.0834862385
  0
LINE
  8
0
 62
7
  6
CONTINUOUS
 10
66.6588947986
 20
166.8534862385
 11
66.6588947986
 21
166.4996365118
  0
LINE
  8
0
 62
7
  6
CONTINUOUS
 10
66.6588947986
 20
164.9673359652
 11
66.6588947986
 21
164.6134862385
  0
LINE
  8
0
 62
7
  6
CONTINUOUS
 10
66.6588947986
 20
128.7534862385
 11
66.6588947986
 21
128.3996365118
  0
LINE
  8
0
 62
7
  6
CONTINUOUS
 10
66.6588947986
 20
126.8673359652
 11
66.6588947986
 21
126.5134862385
  0
LINE
  8
DEFAULT_1
 62
2
  6
CENTER
 10
69.2588947986
 20
57.5454862385
 11
69.2588947986
 21
235.8214862385
  0
LINE
  8
0
 62
7
  6
CONTINUOUS
 10
69.6275057409
 20
166.0035186039
 11
69.6275057409
 21
165.4634538731
  0
LINE
  8
0
 62
7
  6
CONTINUOUS
 10
69.6275057409
 20
127.9035186039
 11
69.6275057409
 21
127.3634538731
  0
LINE
  8
0
 62
7
  6
CONTINUOUS
 10
69.9806927739
 20
216.8253165793
 11
69.9806927739
 21
216.2416558978
  0
LINE
  8
0
 62
7
  6
CONTINUOUS
 10
69.9806927739
 20
204.1253165793
 11
69.9806927739
 21
203.5416558978
  0
LINE
  8
0
 62
7
  6
CONTINUOUS
 10
69.9806927739
 20
191.4253165793
 11
69.9806927739
 21
190.8416558978
  0
LINE
  8
0
 62
7
  6
CONTINUOUS
 10
69.9806927739
 20
178.7253165793
 11
69.9806927739
 21
178.1416558978
  0
LINE
  8
0
 62
7
  6
CONTINUOUS
 10
69.9806927739
 20
166.0253165793
 11
69.9806927739
 21
165.4416558978
  0
LINE
  8
0
 62
7
  6
CONTINUOUS
 10
69.9806927739
 20
153.3253165793
 11
69.9806927739
 21
152.7416558978
  0
LINE
  8
0
 62
7
  6
CONTINUOUS
 10
69.9806927739
 20
140.6253165793
 11
69.9806927739
 21
140.0416558978
  0
LINE
  8
0
 62
7
  6
CONTINUOUS
 10
69.9806927739
 20
127.9253165793
 11
69.9806927739
 21
127.3416558978
  0
LINE
  8
0
 62
7
  6
CONTINUOUS
 10
69.9806927739
 20
115.2253165793
 11
69.9806927739
 21
114.6416558978
  0
LINE
  8
0
 62
7
  6
CONTINUOUS
 10
69.9806927739
 20
102.5253165793
 11
69.9806927739
 21
101.9416558978
  0
LINE
  8
0
 62
7
  6
CONTINUOUS
 10
69.9806927739
 20
89.8253165793
 11
69.9806927739
 21
89.2416558978
  0
LINE
  8
0
 62
7
  6
CONTINUOUS
 10
69.9806927739
 20
77.1253165793
 11
69.9806927739
 21
76.5416558978
  0
POLYLINE
  8
0
 62
7
  6
CONTINUOUS
 66
1
 70
0
  0
VERTEX
  8
0
 62
7
  6
CONTINUOUS
 10
69.9806927739
 20
216.2416558978
  0
VERTEX
  8
0
 62
7
  6
CONTINUOUS
 10
69.9678364397
 20
216.0941626533
  0
VERTEX
  8
0
 62
7
  6
CONTINUOUS
 10
69.9292103227
 20
215.9498632059
  0
VERTEX
  8
0
 62
7
  6
CONTINUOUS
 10
69.8666161131
 20
215.8155940224
  0
VERTEX
  8
0
 62
7
  6
CONTINUOUS
 10
69.781696485
 20
215.6941916933
  0
VERTEX
  8
0
 62
7
  6
CONTINUOUS
 10
69.675963294
 20
215.588507982
  0
VERTEX
  8
0
 62
7
  6
CONTINUOUS
 10
69.5547074041
 20
215.5038074564
  0
VERTEX
  8
0
 62
7
  6
CONTINUOUS
 10
69.4208988072
 20
215.4415960867
  0
VERTEX
  8
0
 62
7
  6
CONTINUOUS
 10
69.2775080752
 20
215.4034104541
  0
VERTEX
  8
0
 62
7
  6
CONTINUOUS
 10
69.1315898053
 20
215.3908235972
  0
SEQEND
  0
POLYLINE
  8
0
 62
7
  6
CONTINUOUS
 66
1
 70
0
  0
VERTEX
  8
0
 62
7
  6
CONTINUOUS
 10
69.9806927739
 20
203.5416558978
  0
VERTEX
  8
0
 62
7
  6
CONTINUOUS
 10
69.9678364397
 20
203.3941626533
  0
VERTEX
  8
0
 62
7
  6
CONTINUOUS
 10
69.9292103227
 20
203.2498632059
  0
VERTEX
  8
0
 62
7
  6
CONTINUOUS
 10
69.8666161131
 20
203.1155940224
  0
VERTEX
  8
0
 62
7
  6
CONTINUOUS
 10
69.781696485
 20
202.9941916933
  0
VERTEX
  8
0
 62
7
  6
CONTINUOUS
 10
69.675963294
 20
202.888507982
  0
VERTEX
  8
0
 62
7
  6
CONTINUOUS
 10
69.5547074041
 20
202.8038074564
  0
VERTEX
  8
0
 62
7
  6
CONTINUOUS
 10
69.4208988072
 20
202.7415960867
  0
VERTEX
  8
0
 62
7
  6
CONTINUOUS
 10
69.2775080752
 20
202.7034104541
  0
VERTEX
  8
0
 62
7
  6
CONTINUOUS
 10
69.1315898053
 20
202.6908235972
  0
SEQEND
  0
POLYLINE
  8
0
 62
7
  6
CONTINUOUS
 66
1
 70
0
  0
VERTEX
  8
0
 62
7
  6
CONTINUOUS
 10
69.9806927739
 20
190.8416558978
  0
VERTEX
  8
0
 62
7
  6
CONTINUOUS
 10
69.9678364397
 20
190.6941626533
  0
VERTEX
  8
0
 62
7
  6
CONTINUOUS
 10
69.9292103227
 20
190.5498632059
  0
VERTEX
  8
0
 62
7
  6
CONTINUOUS
 10
69.8666161131
 20
190.4155940224
  0
VERTEX
  8
0
 62
7
  6
CONTINUOUS
 10
69.781696485
 20
190.2941916933
  0
VERTEX
  8
0
 62
7
  6
CONTINUOUS
 10
69.675963294
 20
190.188507982
  0
VERTEX
  8
0
 62
7
  6
CONTINUOUS
 10
69.5547074041
 20
190.1038074564
  0
VERTEX
  8
0
 62
7
  6
CONTINUOUS
 10
69.4208988072
 20
190.0415960867
  0
VERTEX
  8
0
 62
7
  6
CONTINUOUS
 10
69.2775080752
 20
190.0034104541
  0
VERTEX
  8
0
 62
7
  6
CONTINUOUS
 10
69.1315898053
 20
189.9908235972
  0
SEQEND
  0
POLYLINE
  8
0
 62
7
  6
CONTINUOUS
 66
1
 70
0
  0
VERTEX
  8
0
 62
7
  6
CONTINUOUS
 10
69.9806927739
 20
178.1416558978
  0
VERTEX
  8
0
 62
7
  6
CONTINUOUS
 10
69.9678364397
 20
177.9941626533
  0
VERTEX
  8
0
 62
7
  6
CONTINUOUS
 10
69.9292103227
 20
177.8498632059
  0
VERTEX
  8
0
 62
7
  6
CONTINUOUS
 10
69.8666161131
 20
177.7155940224
  0
VERTEX
  8
0
 62
7
  6
CONTINUOUS
 10
69.781696485
 20
177.5941916933
  0
VERTEX
  8
0
 62
7
  6
CONTINUOUS
 10
69.675963294
 20
177.488507982
  0
VERTEX
  8
0
 62
7
  6
CONTINUOUS
 10
69.5547074041
 20
177.4038074564
  0
VERTEX
  8
0
 62
7
  6
CONTINUOUS
 10
69.4208988072
 20
177.3415960867
  0
VERTEX
  8
0
 62
7
  6
CONTINUOUS
 10
69.2775080752
 20
177.3034104541
  0
VERTEX
  8
0
 62
7
  6
CONTINUOUS
 10
69.1315898053
 20
177.2908235972
  0
SEQEND
  0
POLYLINE
  8
0
 62
7
  6
CONTINUOUS
 66
1
 70
0
  0
VERTEX
  8
0
 62
7
  6
CONTINUOUS
 10
69.9806927739
 20
165.4416558978
  0
VERTEX
  8
0
 62
7
  6
CONTINUOUS
 10
69.9678364397
 20
165.2941626533
  0
VERTEX
  8
0
 62
7
  6
CONTINUOUS
 10
69.9292103227
 20
165.1498632059
  0
VERTEX
  8
0
 62
7
  6
CONTINUOUS
 10
69.8666161131
 20
165.0155940224
  0
VERTEX
  8
0
 62
7
  6
CONTINUOUS
 10
69.781696485
 20
164.8941916933
  0
VERTEX
  8
0
 62
7
  6
CONTINUOUS
 10
69.675963294
 20
164.788507982
  0
VERTEX
  8
0
 62
7
  6
CONTINUOUS
 10
69.5547074041
 20
164.7038074564
  0
VERTEX
  8
0
 62
7
  6
CONTINUOUS
 10
69.4208988072
 20
164.6415960867
  0
VERTEX
  8
0
 62
7
  6
CONTINUOUS
 10
69.2775080752
 20
164.6034104541
  0
VERTEX
  8
0
 62
7
  6
CONTINUOUS
 10
69.1315898053
 20
164.5908235972
  0
SEQEND
  0
POLYLINE
  8
0
 62
7
  6
CONTINUOUS
 66
1
 70
0
  0
VERTEX
  8
0
 62
7
  6
CONTINUOUS
 10
69.9806927739
 20
152.7416558978
  0
VERTEX
  8
0
 62
7
  6
CONTINUOUS
 10
69.9678364397
 20
152.5941626533
  0
VERTEX
  8
0
 62
7
  6
CONTINUOUS
 10
69.9292103227
 20
152.4498632059
  0
VERTEX
  8
0
 62
7
  6
CONTINUOUS
 10
69.8666161131
 20
152.3155940224
  0
VERTEX
  8
0
 62
7
  6
CONTINUOUS
 10
69.781696485
 20
152.1941916933
  0
VERTEX
  8
0
 62
7
  6
CONTINUOUS
 10
69.675963294
 20
152.088507982
  0
VERTEX
  8
0
 62
7
  6
CONTINUOUS
 10
69.5547074041
 20
152.0038074564
  0
VERTEX
  8
0
 62
7
  6
CONTINUOUS
 10
69.4208988072
 20
151.9415960867
  0
VERTEX
  8
0
 62
7
  6
CONTINUOUS
 10
69.2775080752
 20
151.9034104541
  0
VERTEX
  8
0
 62
7
  6
CONTINUOUS
 10
69.1315898053
 20
151.8908235972
  0
SEQEND
  0
LINE
  8
0
 62
7
  6
CONTINUOUS
 10
57.8302772475
 20
136.8047649124
 11
57.9327900727
 21
136.8877781614
  0
POLYLINE
  8
0
 62
7
  6
CONTINUOUS
 66
1
 70
0
  0
VERTEX
  8
0
 62
7
  6
CONTINUOUS
 10
46.4588947986
 20
158.2634862385
  0
VERTEX
  8
0
 62
7
  6
CONTINUOUS
 10
46.4340404618
 20
158.2603564083
  0
VERTEX
  8
0
 62
7
  6
CONTINUOUS
 10
46.3599651592
 20
158.2572868013
  0
VERTEX
  8
0
 62
7
  6
CONTINUOUS
 10
46.2380883267
 20
158.2543357602
  0
VERTEX
  8
0
 62
7
  6
CONTINUOUS
 10
46.0707477772
 20
158.2515597471
  0
SEQEND
  0
POLYLINE
  8
0
 62
7
  6
CONTINUOUS
 66
1
 70
0
  0
VERTEX
  8
0
 62
7
  6
CONTINUOUS
 10
53.158927164
 20
158.2634862385
  0
VERTEX
  8
0
 62
7
  6
CONTINUOUS
 10
53.3065227993
 20
158.2763983854
  0
VERTEX
  8
0
 62
7
  6
CONTINUOUS
 10
53.4496343578
 20
158.3147432414
  0
VERTEX
  8
0
 62
7
  6
CONTINUOUS
 10
53.5839133687
 20
158.3773566811
  0
VERTEX
  8
0
 62
7
  6
CONTINUOUS
 10
53.7052793825
 20
158.4623368111
  0
VERTEX
  8
0
 62
7
  6
CONTINUOUS
 10
53.810044226
 20
158.5671016546
  0
VERTEX
  8
0
 62
7
  6
CONTINUOUS
 10
53.895024356
 20
158.6884676684
  0
VERTEX
  8
0
 62
7
  6
CONTINUOUS
 10
53.9576377958
 20
158.8227466793
  0
VERTEX
  8
0
 62
7
  6
CONTINUOUS
 10
53.9959826517
 20
158.9658582378
  0
VERTEX
  8
0
 62
7
  6
CONTINUOUS
 10
54.0088947986
 20
159.1134538731
  0
SEQEND
  0
LINE
  8
0
 62
7
  6
CONTINUOUS
 10
67.5044956191
 20
154.1702320121
 11
67.0470418222
 21
154.16541273
  0
LINE
  8
0
 62
7
  6
CONTINUOUS
 10
46.0707477772
 20
158.2515597471
 11
45.613293978
 21
158.246740465
  0
LINE
  8
0
 62
7
  6
CONTINUOUS
 10
68.4270970322
 20
154.1749836024
 11
67.5044956191
 21
154.1702320121
  0
LINE
  8
0
 62
7
  6
CONTINUOUS
 10
45.613293978
 20
158.246740465
 11
44.6906925609
 21
158.2419888746
  0
LINE
  8
0
 62
7
  6
CONTINUOUS
 10
69.1315898053
 20
154.1761488799
 11
68.4270970322
 21
154.1749836024
  0
LINE
  8
0
 62
7
  6
CONTINUOUS
 10
44.6906925609
 20
158.2419888746
 11
43.9861997918
 21
158.2408235972
  0
LINE
  8
0
 62
7
  6
CONTINUOUS
 10
59.9588624332
 20
154.1534862385
 11
66.6588947986
 21
154.1534862385
  0
LINE
  8
0
 62
7
  6
CONTINUOUS
 10
72.9588947986
 20
156.0334862385
 11
59.1914308548
 21
156.0334862385
  0
LINE
  8
0
 62
7
  6
CONTINUOUS
 10
40.1588947986
 20
156.3834862385
 11
53.9263587424
 21
156.3834862385
  0
LINE
  8
0
 62
7
  6
CONTINUOUS
 10
53.158927164
 20
158.2634862385
 11
46.4588947986
 21
158.2634862385
  0
POLYLINE
  8
0
 62
7
  6
CONTINUOUS
 66
1
 70
0
  0
VERTEX
  8
0
 62
7
  6
CONTINUOUS
 10
69.1315898053
 20
154.1761488799
  0
VERTEX
  8
0
 62
7
  6
CONTINUOUS
 10
69.2773463769
 20
154.1635901897
  0
VERTEX
  8
0
 62
7
  6
CONTINUOUS
 10
69.4207899463
 20
154.1254158704
  0
VERTEX
  8
0
 62
7
  6
CONTINUOUS
 10
69.5546104157
 20
154.0632208531
  0
VERTEX
  8
0
 62
7
  6
CONTINUOUS
 10
69.6758428788
 20
153.9785652912
  0
VERTEX
  8
0
 62
7
  6
CONTINUOUS
 10
69.7816045061
 20
153.8728905092
  0
VERTEX
  8
0
 62
7
  6
CONTINUOUS
 10
69.8665781453
 20
153.7514442615
  0
VERTEX
  8
0
 62
7
  6
CONTINUOUS
 10
69.9291875732
 20
153.6171717343
  0
VERTEX
  8
0
 62
7
  6
CONTINUOUS
 10
69.9678165971
 20
153.4729227523
  0
VERTEX
  8
0
 62
7
  6
CONTINUOUS
 10
69.9806927739
 20
153.3253165793
  0
SEQEND
  0
POLYLINE
  8
0
 62
7
  6
CONTINUOUS
 66
1
 70
0
  0
VERTEX
  8
0
 62
7
  6
CONTINUOUS
 10
43.9861997918
 20
158.2408235972
  0
VERTEX
  8
0
 62
7
  6
CONTINUOUS
 10
43.8404432203
 20
158.2533822874
  0
VERTEX
  8
0
 62
7
  6
CONTINUOUS
 10
43.6969996509
 20
158.2915566067
  0
VERTEX
  8
0
 62
7
  6
CONTINUOUS
 10
43.5631791815
 20
158.3537516239
  0
VERTEX
  8
0
 62
7
  6
CONTINUOUS
 10
43.4419467184
 20
158.4384071858
  0
VERTEX
  8
0
 62
7
  6
CONTINUOUS
 10
43.336185091
 20
158.5440819678
  0
VERTEX
  8
0
 62
7
  6
CONTINUOUS
 10
43.2512114519
 20
158.6655282156
  0
VERTEX
  8
0
 62
7
  6
CONTINUOUS
 10
43.1886020239
 20
158.7998007427
  0
VERTEX
  8
0
 62
7
  6
CONTINUOUS
 10
43.1499730001
 20
158.9440497248
  0
VERTEX
  8
0
 62
7
  6
CONTINUOUS
 10
43.1370968232
 20
159.0916558978
  0
SEQEND
  0
POLYLINE
  8
0
 62
7
  6
CONTINUOUS
 66
1
 70
0
  0
VERTEX
  8
0
 62
7
  6
CONTINUOUS
 10
46.4588947986
 20
160.5034862385
  0
VERTEX
  8
0
 62
7
  6
CONTINUOUS
 10
46.4340404618
 20
160.5066160687
  0
VERTEX
  8
0
 62
7
  6
CONTINUOUS
 10
46.3599651592
 20
160.5096856758
  0
VERTEX
  8
0
 62
7
  6
CONTINUOUS
 10
46.2380883267
 20
160.5126367169
  0
VERTEX
  8
0
 62
7
  6
CONTINUOUS
 10
46.0707477772
 20
160.51541273
  0
VERTEX
  8
0
 62
7
  6
CONTINUOUS
 10
45.8611467247
 20
160.517960709
  0
VERTEX
  8
0
 62
7
  6
CONTINUOUS
 10
45.3319272606
 20
160.5221832862
  0
SEQEND
  0
LINE
  8
0
 62
7
  6
CONTINUOUS
 10
57.9327900727
 20
156.4791943156
 11
57.8302772475
 21
156.5622075646
  0
POLYLINE
  8
0
 62
7
  6
CONTINUOUS
 66
1
 70
0
  0
VERTEX
  8
0
 62
7
  6
CONTINUOUS
 10
69.6275057409
 20
166.0035186039
  0
VERTEX
  8
0
 62
7
  6
CONTINUOUS
 10
69.6152892537
 20
166.1155158787
  0
VERTEX
  8
0
 62
7
  6
CONTINUOUS
 10
69.5779373718
 20
166.2249017476
  0
VERTEX
  8
0
 62
7
  6
CONTINUOUS
 10
69.515534192
 20
166.3255802713
  0
VERTEX
  8
0
 62
7
  6
CONTINUOUS
 10
69.4307748883
 20
166.4103730127
  0
VERTEX
  8
0
 62
7
  6
CONTINUOUS
 10
69.3301469332
 20
166.4727860364
  0
VERTEX
  8
0
 62
7
  6
CONTINUOUS
 10
69.2207593283
 20
166.5101339781
  0
VERTEX
  8
0
 62
7
  6
CONTINUOUS
 10
69.108927164
 20
166.5222885924
  0
SEQEND
  0
LINE
  8
2_FEATURE
 62
7
  6
CONTINUOUS
 10
73.8088947986
 20
232.9714862385
 11
73.8088947986
 21
230.7834862385
  0
LINE
  8
2_FEATURE
 62
7
  6
CONTINUOUS
 10
73.8088947986
 20
218.6834862385
 11
73.8088947986
 21
214.3834862385
  0
LINE
  8
2_FEATURE
 62
7
  6
CONTINUOUS
 10
73.8088947986
 20
205.9834862385
 11
73.8088947986
 21
201.6834862385
  0
LINE
  8
2_FEATURE
 62
7
  6
CONTINUOUS
 10
73.8088947986
 20
193.2834862385
 11
73.8088947986
 21
188.9834862385
  0
LINE
  8
2_FEATURE
 62
7
  6
CONTINUOUS
 10
73.8088947986
 20
180.5834862385
 11
73.8088947986
 21
176.2834862385
  0
LINE
  8
2_FEATURE
 62
7
  6
CONTINUOUS
 10
73.8088947986
 20
167.8834862385
 11
73.8088947986
 21
163.5834862385
  0
LINE
  8
2_FEATURE
 62
7
  6
CONTINUOUS
 10
73.8088947986
 20
155.1834862385
 11
73.8088947986
 21
150.8834862385
  0
LINE
  8
2_FEATURE
 62
7
  6
CONTINUOUS
 10
73.8088947986
 20
142.4834862385
 11
73.8088947986
 21
138.1834862385
  0
LINE
  8
2_FEATURE
 62
7
  6
CONTINUOUS
 10
73.8088947986
 20
129.7834862385
 11
73.8088947986
 21
125.4834862385
  0
LINE
  8
2_FEATURE
 62
7
  6
CONTINUOUS
 10
73.8088947986
 20
117.0834862385
 11
73.8088947986
 21
112.7834862385
  0
LINE
  8
2_FEATURE
 62
7
  6
CONTINUOUS
 10
73.8088947986
 20
104.3834862385
 11
73.8088947986
 21
100.0834862385
  0
LINE
  8
2_FEATURE
 62
7
  6
CONTINUOUS
 10
73.8088947986
 20
91.6834862385
 11
73.8088947986
 21
87.3834862385
  0
LINE
  8
2_FEATURE
 62
7
  6
CONTINUOUS
 10
73.8088947986
 20
78.9834862385
 11
73.8088947986
 21
74.6834862385
  0
LINE
  8
2_FEATURE
 62
7
  6
CONTINUOUS
 10
73.8088947986
 20
62.5834862385
 11
73.8088947986
 21
60.3954862385
  0
POLYLINE
  8
0
 62
7
  6
CONTINUOUS
 66
1
 70
0
  0
VERTEX
  8
0
 62
7
  6
CONTINUOUS
 10
69.9806927739
 20
140.0416558978
  0
VERTEX
  8
0
 62
7
  6
CONTINUOUS
 10
69.9678364397
 20
139.8941626533
  0
VERTEX
  8
0
 62
7
  6
CONTINUOUS
 10
69.9292103227
 20
139.7498632059
  0
VERTEX
  8
0
 62
7
  6
CONTINUOUS
 10
69.8666161131
 20
139.6155940224
  0
VERTEX
  8
0
 62
7
  6
CONTINUOUS
 10
69.781696485
 20
139.4941916933
  0
VERTEX
  8
0
 62
7
  6
CONTINUOUS
 10
69.675963294
 20
139.388507982
  0
VERTEX
  8
0
 62
7
  6
CONTINUOUS
 10
69.5547074041
 20
139.3038074564
  0
VERTEX
  8
0
 62
7
  6
CONTINUOUS
 10
69.4208988072
 20
139.2415960867
  0
VERTEX
  8
0
 62
7
  6
CONTINUOUS
 10
69.2775080752
 20
139.2034104541
  0
VERTEX
  8
0
 62
7
  6
CONTINUOUS
 10
69.1315898053
 20
139.1908235972
  0
SEQEND
  0
POLYLINE
  8
0
 62
7
  6
CONTINUOUS
 66
1
 70
0
  0
VERTEX
  8
0
 62
7
  6
CONTINUOUS
 10
69.9806927739
 20
127.3416558978
  0
VERTEX
  8
0
 62
7
  6
CONTINUOUS
 10
69.9678364397
 20
127.1941626533
  0
VERTEX
  8
0
 62
7
  6
CONTINUOUS
 10
69.9292103227
 20
127.0498632059
  0
VERTEX
  8
0
 62
7
  6
CONTINUOUS
 10
69.8666161131
 20
126.9155940224
  0
VERTEX
  8
0
 62
7
  6
CONTINUOUS
 10
69.781696485
 20
126.7941916933
  0
VERTEX
  8
0
 62
7
  6
CONTINUOUS
 10
69.675963294
 20
126.688507982
  0
VERTEX
  8
0
 62
7
  6
CONTINUOUS
 10
69.5547074041
 20
126.6038074564
  0
VERTEX
  8
0
 62
7
  6
CONTINUOUS
 10
69.4208988072
 20
126.5415960867
  0
VERTEX
  8
0
 62
7
  6
CONTINUOUS
 10
69.2775080752
 20
126.5034104541
  0
VERTEX
  8
0
 62
7
  6
CONTINUOUS
 10
69.1315898053
 20
126.4908235972
  0
SEQEND
  0
POLYLINE
  8
0
 62
7
  6
CONTINUOUS
 66
1
 70
0
  0
VERTEX
  8
0
 62
7
  6
CONTINUOUS
 10
69.9806927739
 20
114.6416558978
  0
VERTEX
  8
0
 62
7
  6
CONTINUOUS
 10
69.9678364397
 20
114.4941626533
  0
VERTEX
  8
0
 62
7
  6
CONTINUOUS
 10
69.9292103227
 20
114.3498632059
  0
VERTEX
  8
0
 62
7
  6
CONTINUOUS
 10
69.8666161131
 20
114.2155940224
  0
VERTEX
  8
0
 62
7
  6
CONTINUOUS
 10
69.781696485
 20
114.0941916933
  0
VERTEX
  8
0
 62
7
  6
CONTINUOUS
 10
69.675963294
 20
113.988507982
  0
VERTEX
  8
0
 62
7
  6
CONTINUOUS
 10
69.5547074041
 20
113.9038074564
  0
VERTEX
  8
0
 62
7
  6
CONTINUOUS
 10
69.4208988072
 20
113.8415960867
  0
VERTEX
  8
0
 62
7
  6
CONTINUOUS
 10
69.2775080752
 20
113.8034104541
  0
VERTEX
  8
0
 62
7
  6
CONTINUOUS
 10
69.1315898053
 20
113.7908235972
  0
SEQEND
  0
POLYLINE
  8
0
 62
7
  6
CONTINUOUS
 66
1
 70
0
  0
VERTEX
  8
0
 62
7
  6
CONTINUOUS
 10
69.9806927739
 20
101.9416558978
  0
VERTEX
  8
0
 62
7
  6
CONTINUOUS
 10
69.9678364397
 20
101.7941626533
  0
VERTEX
  8
0
 62
7
  6
CONTINUOUS
 10
69.9292103227
 20
101.6498632059
  0
VERTEX
  8
0
 62
7
  6
CONTINUOUS
 10
69.8666161131
 20
101.5155940224
  0
VERTEX
  8
0
 62
7
  6
CONTINUOUS
 10
69.781696485
 20
101.3941916933
  0
VERTEX
  8
0
 62
7
  6
CONTINUOUS
 10
69.675963294
 20
101.288507982
  0
VERTEX
  8
0
 62
7
  6
CONTINUOUS
 10
69.5547074041
 20
101.2038074564
  0
VERTEX
  8
0
 62
7
  6
CONTINUOUS
 10
69.4208988072
 20
101.1415960867
  0
VERTEX
  8
0
 62
7
  6
CONTINUOUS
 10
69.2775080752
 20
101.1034104541
  0
VERTEX
  8
0
 62
7
  6
CONTINUOUS
 10
69.1315898053
 20
101.0908235972
  0
SEQEND
  0
POLYLINE
  8
0
 62
7
  6
CONTINUOUS
 66
1
 70
0
  0
VERTEX
  8
0
 62
7
  6
CONTINUOUS
 10
69.9806927739
 20
89.2416558978
  0
VERTEX
  8
0
 62
7
  6
CONTINUOUS
 10
69.9678364397
 20
89.0941626533
  0
VERTEX
  8
0
 62
7
  6
CONTINUOUS
 10
69.9292103227
 20
88.9498632059
  0
VERTEX
  8
0
 62
7
  6
CONTINUOUS
 10
69.8666161131
 20
88.8155940224
  0
VERTEX
  8
0
 62
7
  6
CONTINUOUS
 10
69.781696485
 20
88.6941916933
  0
VERTEX
  8
0
 62
7
  6
CONTINUOUS
 10
69.675963294
 20
88.588507982
  0
VERTEX
  8
0
 62
7
  6
CONTINUOUS
 10
69.5547074041
 20
88.5038074564
  0
VERTEX
  8
0
 62
7
  6
CONTINUOUS
 10
69.4208988072
 20
88.4415960867
  0
VERTEX
  8
0
 62
7
  6
CONTINUOUS
 10
69.2775080752
 20
88.4034104541
  0
VERTEX
  8
0
 62
7
  6
CONTINUOUS
 10
69.1315898053
 20
88.3908235972
  0
SEQEND
  0
POLYLINE
  8
0
 62
7
  6
CONTINUOUS
 66
1
 70
0
  0
VERTEX
  8
0
 62
7
  6
CONTINUOUS
 10
69.9806927739
 20
76.5416558978
  0
VERTEX
  8
0
 62
7
  6
CONTINUOUS
 10
69.9678364397
 20
76.3941626533
  0
VERTEX
  8
0
 62
7
  6
CONTINUOUS
 10
69.9292103227
 20
76.2498632059
  0
VERTEX
  8
0
 62
7
  6
CONTINUOUS
 10
69.8666161131
 20
76.1155940224
  0
VERTEX
  8
0
 62
7
  6
CONTINUOUS
 10
69.781696485
 20
75.9941916933
  0
VERTEX
  8
0
 62
7
  6
CONTINUOUS
 10
69.675963294
 20
75.888507982
  0
VERTEX
  8
0
 62
7
  6
CONTINUOUS
 10
69.5547074041
 20
75.8038074564
  0
VERTEX
  8
0
 62
7
  6
CONTINUOUS
 10
69.4208988072
 20
75.7415960867
  0
VERTEX
  8
0
 62
7
  6
CONTINUOUS
 10
69.2775080752
 20
75.7034104541
  0
VERTEX
  8
0
 62
7
  6
CONTINUOUS
 10
69.1315898053
 20
75.6908235972
  0
SEQEND
  0
LINE
  8
0
 62
7
  6
CONTINUOUS
 10
55.2875123496
 20
124.8122075646
 11
55.1849995245
 21
124.7291943156
  0
LINE
  8
0
 62
7
  6
CONTINUOUS
 10
57.8302772475
 20
124.1047649124
 11
57.9327900727
 21
124.1877781614
  0
POLYLINE
  8
0
 62
7
  6
CONTINUOUS
 66
1
 70
0
  0
VERTEX
  8
0
 62
7
  6
CONTINUOUS
 10
66.6588947986
 20
166.4996365118
  0
VERTEX
  8
0
 62
7
  6
CONTINUOUS
 10
66.6886133561
 20
166.503057325
  0
VERTEX
  8
0
 62
7
  6
CONTINUOUS
 10
66.7770772362
 20
166.5063995899
  0
VERTEX
  8
0
 62
7
  6
CONTINUOUS
 10
66.9222605703
 20
166.5095872096
  0
SEQEND
  0
POLYLINE
  8
0
 62
7
  6
CONTINUOUS
 66
1
 70
0
  0
VERTEX
  8
0
 62
7
  6
CONTINUOUS
 10
59.9588624332
 20
166.4996365118
  0
VERTEX
  8
0
 62
7
  6
CONTINUOUS
 10
59.8489242516
 20
166.4873098569
  0
VERTEX
  8
0
 62
7
  6
CONTINUOUS
 10
59.7438022262
 20
166.4505974637
  0
VERTEX
  8
0
 62
7
  6
CONTINUOUS
 10
59.6499008473
 20
166.3916964267
  0
VERTEX
  8
0
 62
7
  6
CONTINUOUS
 10
59.5706846104
 20
166.3124801898
  0
VERTEX
  8
0
 62
7
  6
CONTINUOUS
 10
59.5117835734
 20
166.2185788109
  0
VERTEX
  8
0
 62
7
  6
CONTINUOUS
 10
59.4750711802
 20
166.1134567855
  0
VERTEX
  8
0
 62
7
  6
CONTINUOUS
 10
59.4627445253
 20
166.0035186039
  0
SEQEND
  0
POLYLINE
  8
0
 62
7
  6
CONTINUOUS
 66
1
 70
0
  0
VERTEX
  8
0
 62
7
  6
CONTINUOUS
 10
69.108927164
 20
164.9446838846
  0
VERTEX
  8
0
 62
7
  6
CONTINUOUS
 10
69.2205221263
 20
164.9567862688
  0
VERTEX
  8
0
 62
7
  6
CONTINUOUS
 10
69.3297955579
 20
164.9940208899
  0
VERTEX
  8
0
 62
7
  6
CONTINUOUS
 10
69.4304462755
 20
165.0563394664
  0
VERTEX
  8
0
 62
7
  6
CONTINUOUS
 10
69.5152666915
 20
165.141054423
  0
VERTEX
  8
0
 62
7
  6
CONTINUOUS
 10
69.5777558308
 20
165.2416860138
  0
VERTEX
  8
0
 62
7
  6
CONTINUOUS
 10
69.6152260928
 20
165.3511708446
  0
VERTEX
  8
0
 62
7
  6
CONTINUOUS
 10
69.6275057409
 20
165.4634538731
  0
SEQEND
  0
POLYLINE
  8
0
 62
7
  6
CONTINUOUS
 66
1
 70
0
  0
VERTEX
  8
0
 62
7
  6
CONTINUOUS
 10
59.9588624332
 20
166.8534862385
  0
VERTEX
  8
0
 62
7
  6
CONTINUOUS
 10
59.7930351619
 20
166.8371540145
  0
VERTEX
  8
0
 62
7
  6
CONTINUOUS
 10
59.633585232
 20
166.7887860059
  0
VERTEX
  8
0
 62
7
  6
CONTINUOUS
 10
59.4866386618
 20
166.7102419803
  0
VERTEX
  8
0
 62
7
  6
CONTINUOUS
 10
59.3578406175
 20
166.6045403971
  0
VERTEX
  8
0
 62
7
  6
CONTINUOUS
 10
59.2521390414
 20
166.4757423523
  0
VERTEX
  8
0
 62
7
  6
CONTINUOUS
 10
59.1735950246
 20
166.3287957893
  0
VERTEX
  8
0
 62
7
  6
CONTINUOUS
 10
59.1252270215
 20
166.1693458696
  0
VERTEX
  8
0
 62
7
  6
CONTINUOUS
 10
59.1088947986
 20
166.0035186039
  0
SEQEND
  0
POLYLINE
  8
0
 62
7
  6
CONTINUOUS
 66
1
 70
0
  0
VERTEX
  8
0
 62
7
  6
CONTINUOUS
 10
67.0470418222
 20
166.86541273
  0
VERTEX
  8
0
 62
7
  6
CONTINUOUS
 10
66.8797012726
 20
166.862636717
  0
VERTEX
  8
0
 62
7
  6
CONTINUOUS
 10
66.7578244394
 20
166.8596856758
  0
VERTEX
  8
0
 62
7
  6
CONTINUOUS
 10
66.6837491359
 20
166.8566160688
  0
VERTEX
  8
0
 62
7
  6
CONTINUOUS
 10
66.6588947986
 20
166.8534862385
  0
SEQEND
  0
LINE
  8
0
 62
7
  6
CONTINUOUS
 10
66.9222605703
 20
166.5095872096
 11
67.3682605914
 21
166.5152122041
  0
LINE
  8
0
 62
7
  6
CONTINUOUS
 10
67.5044956191
 20
166.8702320121
 11
67.0470418222
 21
166.86541273
  0
LINE
  8
0
 62
7
  6
CONTINUOUS
 10
67.3682605914
 20
166.5152122041
 11
67.9860376375
 21
166.5194213713
  0
LINE
  8
0
 62
7
  6
CONTINUOUS
 10
68.4270970322
 20
166.8749836024
 11
67.5044956191
 21
166.8702320121
  0
LINE
  8
0
 62
7
  6
CONTINUOUS
 10
67.9860376375
 20
166.5194213713
 11
69.108927164
 21
166.5222885924
  0
LINE
  8
0
 62
7
  6
CONTINUOUS
 10
69.1315898053
 20
166.8761488799
 11
68.4270970322
 21
166.8749836024
  0
LINE
  8
0
 62
7
  6
CONTINUOUS
 10
46.4588947986
 20
160.5034862385
 11
53.158927164
 21
160.5034862385
  0
LINE
  8
0
 62
7
  6
CONTINUOUS
 10
53.9263587424
 20
162.3834862385
 11
40.158924045
 21
162.3834862385
  0
LINE
  8
0
 62
7
  6
CONTINUOUS
 10
59.1914308548
 20
162.7334862385
 11
72.9588947986
 21
162.7334862385
  0
LINE
  8
0
 62
7
  6
CONTINUOUS
 10
66.6588947986
 20
164.6134862385
 11
59.9588624332
 21
164.6134862385
  0
LINE
  8
0
 62
7
  6
CONTINUOUS
 10
59.9588624332
 20
164.9673359652
 11
66.6588947986
 21
164.9673359652
  0
LINE
  8
0
 62
7
  6
CONTINUOUS
 10
66.6588947986
 20
166.4996365118
 11
59.9588624332
 21
166.4996365118
  0
LINE
  8
0
 62
7
  6
CONTINUOUS
 10
59.9588624332
 20
166.8534862385
 11
66.6588947986
 21
166.8534862385
  0
LINE
  8
0
 62
7
  6
CONTINUOUS
 10
69.1315898053
 20
164.5908235972
 11
68.0953668455
 21
164.5931951867
  0
LINE
  8
0
 62
7
  6
CONTINUOUS
 10
67.9860376373
 20
164.9475511057
 11
69.108927164
 21
164.9446838846
  0
LINE
  8
0
 62
7
  6
CONTINUOUS
 10
45.3319272606
 20
160.5221832862
 11
43.9861997918
 21
160.5261488799
  0
LINE
  8
0
 62
7
  6
CONTINUOUS
 10
67.3682605912
 20
164.951760273
 11
67.9860376373
 21
164.9475511057
  0
POLYLINE
  8
0
 62
7
  6
CONTINUOUS
 66
1
 70
0
  0
VERTEX
  8
0
 62
7
  6
CONTINUOUS
 10
68.0953668455
 20
164.5931951867
  0
VERTEX
  8
0
 62
7
  6
CONTINUOUS
 10
67.256642874
 20
164.5990117681
  0
VERTEX
  8
0
 62
7
  6
CONTINUOUS
 10
67.0470418222
 20
164.6015597471
  0
VERTEX
  8
0
 62
7
  6
CONTINUOUS
 10
66.8797012726
 20
164.6043357601
  0
VERTEX
  8
0
 62
7
  6
CONTINUOUS
 10
66.7578244394
 20
164.6072868013
  0
VERTEX
  8
0
 62
7
  6
CONTINUOUS
 10
66.6837491359
 20
164.6103564083
  0
VERTEX
  8
0
 62
7
  6
CONTINUOUS
 10
66.6588947986
 20
164.6134862385
  0
SEQEND
  0
POLYLINE
  8
0
 62
7
  6
CONTINUOUS
 66
1
 70
0
  0
VERTEX
  8
0
 62
7
  6
CONTINUOUS
 10
66.6588947986
 20
164.9673359652
  0
VERTEX
  8
0
 62
7
  6
CONTINUOUS
 10
66.688613356
 20
164.9639151521
  0
VERTEX
  8
0
 62
7
  6
CONTINUOUS
 10
66.7770772361
 20
164.9605728871
  0
VERTEX
  8
0
 62
7
  6
CONTINUOUS
 10
66.9222605701
 20
164.9573852674
  0
VERTEX
  8
0
 62
7
  6
CONTINUOUS
 10
67.3682605912
 20
164.951760273
  0
SEQEND
  0
LINE
  8
0
 62
7
  6
CONTINUOUS
 10
55.1849995245
 20
168.6377781614
 11
55.2875123496
 21
168.5547649124
  0
LINE
  8
0
 62
7
  6
CONTINUOUS
 10
57.9327900727
 20
169.1791943156
 11
57.8302772475
 21
169.2622075646
  0
POLYLINE
  8
0
 62
7
  6
CONTINUOUS
 66
1
 70
0
  0
VERTEX
  8
0
 62
7
  6
CONTINUOUS
 10
59.4642638731
 20
57.4036802988
  0
VERTEX
  8
0
 62
7
  6
CONTINUOUS
 10
59.3704584045
 20
56.9791338763
  0
VERTEX
  8
0
 62
7
  6
CONTINUOUS
 10
59.3388947986
 20
56.5454862385
  0
SEQEND
  0
LINE
  8
0
 62
7
  6
CONTINUOUS
 10
55.2875123496
 20
112.1122075646
 11
55.1849995245
 21
112.0291943156
  0
POLYLINE
  8
0
 62
7
  6
CONTINUOUS
 66
1
 70
0
  0
VERTEX
  8
0
 62
7
  6
CONTINUOUS
 10
46.4588947986
 20
170.9634862385
  0
VERTEX
  8
0
 62
7
  6
CONTINUOUS
 10
46.4340404618
 20
170.9603564083
  0
VERTEX
  8
0
 62
7
  6
CONTINUOUS
 10
46.3599651592
 20
170.9572868013
  0
VERTEX
  8
0
 62
7
  6
CONTINUOUS
 10
46.2380883267
 20
170.9543357602
  0
VERTEX
  8
0
 62
7
  6
CONTINUOUS
 10
46.0707477772
 20
170.9515597471
  0
SEQEND
  0
POLYLINE
  8
0
 62
7
  6
CONTINUOUS
 66
1
 70
0
  0
VERTEX
  8
0
 62
7
  6
CONTINUOUS
 10
53.158927164
 20
170.9634862385
  0
VERTEX
  8
0
 62
7
  6
CONTINUOUS
 10
53.3065227993
 20
170.9763983854
  0
VERTEX
  8
0
 62
7
  6
CONTINUOUS
 10
53.4496343578
 20
171.0147432414
  0
VERTEX
  8
0
 62
7
  6
CONTINUOUS
 10
53.5839133687
 20
171.0773566811
  0
VERTEX
  8
0
 62
7
  6
CONTINUOUS
 10
53.7052793825
 20
171.1623368111
  0
VERTEX
  8
0
 62
7
  6
CONTINUOUS
 10
53.810044226
 20
171.2671016546
  0
VERTEX
  8
0
 62
7
  6
CONTINUOUS
 10
53.895024356
 20
171.3884676684
  0
VERTEX
  8
0
 62
7
  6
CONTINUOUS
 10
53.9576377958
 20
171.5227466793
  0
VERTEX
  8
0
 62
7
  6
CONTINUOUS
 10
53.9959826517
 20
171.6658582378
  0
VERTEX
  8
0
 62
7
  6
CONTINUOUS
 10
54.0088947986
 20
171.8134538731
  0
SEQEND
  0
LINE
  8
0
 62
7
  6
CONTINUOUS
 10
46.0707477772
 20
170.9515597471
 11
45.613293978
 21
170.946740465
  0
LINE
  8
0
 62
7
  6
CONTINUOUS
 10
45.613293978
 20
170.946740465
 11
44.6906925609
 21
170.9419888746
  0
LINE
  8
0
 62
7
  6
CONTINUOUS
 10
44.6906925609
 20
170.9419888746
 11
43.9861997918
 21
170.9408235972
  0
LINE
  8
0
 62
7
  6
CONTINUOUS
 10
72.9588947986
 20
168.7334862385
 11
59.1914308548
 21
168.7334862385
  0
LINE
  8
0
 62
7
  6
CONTINUOUS
 10
40.1588947986
 20
169.0834862385
 11
53.9263587424
 21
169.0834862385
  0
LINE
  8
0
 62
7
  6
CONTINUOUS
 10
53.158927164
 20
170.9634862385
 11
46.4588947986
 21
170.9634862385
  0
LINE
  8
0
 62
7
  6
CONTINUOUS
 10
46.4588947986
 20
173.2034862385
 11
53.158927164
 21
173.2034862385
  0
LINE
  8
0
 62
7
  6
CONTINUOUS
 10
45.3319272606
 20
173.2221832862
 11
43.9861997918
 21
173.2261488799
  0
POLYLINE
  8
0
 62
7
  6
CONTINUOUS
 66
1
 70
0
  0
VERTEX
  8
0
 62
7
  6
CONTINUOUS
 10
69.1315898053
 20
166.8761488799
  0
VERTEX
  8
0
 62
7
  6
CONTINUOUS
 10
69.2773463769
 20
166.8635901897
  0
VERTEX
  8
0
 62
7
  6
CONTINUOUS
 10
69.4207899463
 20
166.8254158704
  0
VERTEX
  8
0
 62
7
  6
CONTINUOUS
 10
69.5546104157
 20
166.7632208531
  0
VERTEX
  8
0
 62
7
  6
CONTINUOUS
 10
69.6758428788
 20
166.6785652912
  0
VERTEX
  8
0
 62
7
  6
CONTINUOUS
 10
69.7816045061
 20
166.5728905092
  0
VERTEX
  8
0
 62
7
  6
CONTINUOUS
 10
69.8665781453
 20
166.4514442615
  0
VERTEX
  8
0
 62
7
  6
CONTINUOUS
 10
69.9291875732
 20
166.3171717343
  0
VERTEX
  8
0
 62
7
  6
CONTINUOUS
 10
69.9678165971
 20
166.1729227523
  0
VERTEX
  8
0
 62
7
  6
CONTINUOUS
 10
69.9806927739
 20
166.0253165793
  0
SEQEND
  0
POLYLINE
  8
0
 62
7
  6
CONTINUOUS
 66
1
 70
0
  0
VERTEX
  8
0
 62
7
  6
CONTINUOUS
 10
43.9861997918
 20
170.9408235972
  0
VERTEX
  8
0
 62
7
  6
CONTINUOUS
 10
43.8404432203
 20
170.9533822874
  0
VERTEX
  8
0
 62
7
  6
CONTINUOUS
 10
43.6969996509
 20
170.9915566067
  0
VERTEX
  8
0
 62
7
  6
CONTINUOUS
 10
43.5631791815
 20
171.0537516239
  0
VERTEX
  8
0
 62
7
  6
CONTINUOUS
 10
43.4419467184
 20
171.1384071858
  0
VERTEX
  8
0
 62
7
  6
CONTINUOUS
 10
43.336185091
 20
171.2440819678
  0
VERTEX
  8
0
 62
7
  6
CONTINUOUS
 10
43.2512114519
 20
171.3655282156
  0
VERTEX
  8
0
 62
7
  6
CONTINUOUS
 10
43.1886020239
 20
171.4998007427
  0
VERTEX
  8
0
 62
7
  6
CONTINUOUS
 10
43.1499730001
 20
171.6440497248
  0
VERTEX
  8
0
 62
7
  6
CONTINUOUS
 10
43.1370968232
 20
171.7916558978
  0
SEQEND
  0
POLYLINE
  8
0
 62
7
  6
CONTINUOUS
 66
1
 70
0
  0
VERTEX
  8
0
 62
7
  6
CONTINUOUS
 10
46.4588947986
 20
173.2034862385
  0
VERTEX
  8
0
 62
7
  6
CONTINUOUS
 10
46.4340404618
 20
173.2066160687
  0
VERTEX
  8
0
 62
7
  6
CONTINUOUS
 10
46.3599651592
 20
173.2096856758
  0
VERTEX
  8
0
 62
7
  6
CONTINUOUS
 10
46.2380883267
 20
173.2126367169
  0
VERTEX
  8
0
 62
7
  6
CONTINUOUS
 10
46.0707477772
 20
173.21541273
  0
VERTEX
  8
0
 62
7
  6
CONTINUOUS
 10
45.8611467247
 20
173.217960709
  0
VERTEX
  8
0
 62
7
  6
CONTINUOUS
 10
45.3319272606
 20
173.2221832862
  0
SEQEND
  0
LINE
  8
0
 62
7
  6
CONTINUOUS
 10
55.1849995245
 20
181.3377781614
 11
55.2875123496
 21
181.2547649124
  0
POLYLINE
  8
0
 62
7
  6
CONTINUOUS
 66
1
 70
0
  0
VERTEX
  8
0
 62
7
  6
CONTINUOUS
 10
59.4642638731
 20
235.9632921782
  0
VERTEX
  8
0
 62
7
  6
CONTINUOUS
 10
59.3704584045
 20
236.3878386008
  0
VERTEX
  8
0
 62
7
  6
CONTINUOUS
 10
59.3388947986
 20
236.8214862385
  0
SEQEND
  0
LINE
  8
0
 62
7
  6
CONTINUOUS
 10
57.8302772475
 20
111.4047649124
 11
57.9327900727
 21
111.4877781614
  0
POLYLINE
  8
0
 62
7
  6
CONTINUOUS
 66
1
 70
0
  0
VERTEX
  8
0
 62
7
  6
CONTINUOUS
 10
59.9588624332
 20
179.5534862385
  0
VERTEX
  8
0
 62
7
  6
CONTINUOUS
 10
59.8112667979
 20
179.5405740917
  0
VERTEX
  8
0
 62
7
  6
CONTINUOUS
 10
59.6681552394
 20
179.5022292357
  0
VERTEX
  8
0
 62
7
  6
CONTINUOUS
 10
59.5338762284
 20
179.439615796
  0
VERTEX
  8
0
 62
7
  6
CONTINUOUS
 10
59.4125102147
 20
179.354635666
  0
VERTEX
  8
0
 62
7
  6
CONTINUOUS
 10
59.3077453711
 20
179.2498708224
  0
VERTEX
  8
0
 62
7
  6
CONTINUOUS
 10
59.2227652412
 20
179.1285048087
  0
VERTEX
  8
0
 62
7
  6
CONTINUOUS
 10
59.1601518014
 20
178.9942257977
  0
VERTEX
  8
0
 62
7
  6
CONTINUOUS
 10
59.1218069454
 20
178.8511142392
  0
VERTEX
  8
0
 62
7
  6
CONTINUOUS
 10
59.1088947986
 20
178.7035186039
  0
SEQEND
  0
POLYLINE
  8
0
 62
7
  6
CONTINUOUS
 66
1
 70
0
  0
VERTEX
  8
0
 62
7
  6
CONTINUOUS
 10
67.0470418222
 20
179.56541273
  0
VERTEX
  8
0
 62
7
  6
CONTINUOUS
 10
66.8797012726
 20
179.562636717
  0
VERTEX
  8
0
 62
7
  6
CONTINUOUS
 10
66.7578244394
 20
179.5596856758
  0
VERTEX
  8
0
 62
7
  6
CONTINUOUS
 10
66.6837491359
 20
179.5566160688
  0
VERTEX
  8
0
 62
7
  6
CONTINUOUS
 10
66.6588947986
 20
179.5534862385
  0
SEQEND
  0
LINE
  8
0
 62
7
  6
CONTINUOUS
 10
67.5044956191
 20
179.5702320121
 11
67.0470418222
 21
179.56541273
  0
LINE
  8
0
 62
7
  6
CONTINUOUS
 10
68.4270970322
 20
179.5749836024
 11
67.5044956191
 21
179.5702320121
  0
LINE
  8
0
 62
7
  6
CONTINUOUS
 10
69.1315898053
 20
179.5761488799
 11
68.4270970322
 21
179.5749836024
  0
LINE
  8
0
 62
7
  6
CONTINUOUS
 10
53.9263587424
 20
175.0834862385
 11
40.158924045
 21
175.0834862385
  0
LINE
  8
0
 62
7
  6
CONTINUOUS
 10
59.1914308548
 20
175.4334862385
 11
72.9588947986
 21
175.4334862385
  0
LINE
  8
0
 62
7
  6
CONTINUOUS
 10
66.6588947986
 20
177.3134862385
 11
59.9588624332
 21
177.3134862385
  0
LINE
  8
0
 62
7
  6
CONTINUOUS
 10
59.9588624332
 20
179.5534862385
 11
66.6588947986
 21
179.5534862385
  0
LINE
  8
0
 62
7
  6
CONTINUOUS
 10
69.1315898053
 20
177.2908235972
 11
68.0953668455
 21
177.2931951867
  0
POLYLINE
  8
0
 62
7
  6
CONTINUOUS
 66
1
 70
0
  0
VERTEX
  8
0
 62
7
  6
CONTINUOUS
 10
68.0953668455
 20
177.2931951867
  0
VERTEX
  8
0
 62
7
  6
CONTINUOUS
 10
67.256642874
 20
177.2990117681
  0
VERTEX
  8
0
 62
7
  6
CONTINUOUS
 10
67.0470418222
 20
177.3015597471
  0
VERTEX
  8
0
 62
7
  6
CONTINUOUS
 10
66.8797012726
 20
177.3043357601
  0
VERTEX
  8
0
 62
7
  6
CONTINUOUS
 10
66.7578244394
 20
177.3072868013
  0
VERTEX
  8
0
 62
7
  6
CONTINUOUS
 10
66.6837491359
 20
177.3103564083
  0
VERTEX
  8
0
 62
7
  6
CONTINUOUS
 10
66.6588947986
 20
177.3134862385
  0
SEQEND
  0
LINE
  8
0
 62
7
  6
CONTINUOUS
 10
57.9327900727
 20
181.8791943156
 11
57.8302772475
 21
181.9622075646
  0
LINE
  8
0
 62
7
  6
CONTINUOUS
 10
55.2875123496
 20
99.4122075646
 11
55.1849995245
 21
99.3291943156
  0
LINE
  8
0
 62
7
  6
CONTINUOUS
 10
57.8302772475
 20
98.7047649124
 11
57.9327900727
 21
98.7877781614
  0
POLYLINE
  8
0
 62
7
  6
CONTINUOUS
 66
1
 70
0
  0
VERTEX
  8
0
 62
7
  6
CONTINUOUS
 10
46.4588947986
 20
183.6634862385
  0
VERTEX
  8
0
 62
7
  6
CONTINUOUS
 10
46.4340404618
 20
183.6603564083
  0
VERTEX
  8
0
 62
7
  6
CONTINUOUS
 10
46.3599651592
 20
183.6572868013
  0
VERTEX
  8
0
 62
7
  6
CONTINUOUS
 10
46.2380883267
 20
183.6543357602
  0
VERTEX
  8
0
 62
7
  6
CONTINUOUS
 10
46.0707477772
 20
183.6515597471
  0
SEQEND
  0
POLYLINE
  8
0
 62
7
  6
CONTINUOUS
 66
1
 70
0
  0
VERTEX
  8
0
 62
7
  6
CONTINUOUS
 10
53.158927164
 20
183.6634862385
  0
VERTEX
  8
0
 62
7
  6
CONTINUOUS
 10
53.3065227993
 20
183.6763983854
  0
VERTEX
  8
0
 62
7
  6
CONTINUOUS
 10
53.4496343578
 20
183.7147432414
  0
VERTEX
  8
0
 62
7
  6
CONTINUOUS
 10
53.5839133687
 20
183.7773566811
  0
VERTEX
  8
0
 62
7
  6
CONTINUOUS
 10
53.7052793825
 20
183.8623368111
  0
VERTEX
  8
0
 62
7
  6
CONTINUOUS
 10
53.810044226
 20
183.9671016546
  0
VERTEX
  8
0
 62
7
  6
CONTINUOUS
 10
53.895024356
 20
184.0884676684
  0
VERTEX
  8
0
 62
7
  6
CONTINUOUS
 10
53.9576377958
 20
184.2227466793
  0
VERTEX
  8
0
 62
7
  6
CONTINUOUS
 10
53.9959826517
 20
184.3658582378
  0
VERTEX
  8
0
 62
7
  6
CONTINUOUS
 10
54.0088947986
 20
184.5134538731
  0
SEQEND
  0
LINE
  8
0
 62
7
  6
CONTINUOUS
 10
46.0707477772
 20
183.6515597471
 11
45.613293978
 21
183.646740465
  0
LINE
  8
0
 62
7
  6
CONTINUOUS
 10
45.613293978
 20
183.646740465
 11
44.6906925609
 21
183.6419888746
  0
LINE
  8
0
 62
7
  6
CONTINUOUS
 10
44.6906925609
 20
183.6419888746
 11
43.9861997918
 21
183.6408235972
  0
LINE
  8
0
 62
7
  6
CONTINUOUS
 10
72.9588947986
 20
181.4334862385
 11
59.1914308548
 21
181.4334862385
  0
LINE
  8
0
 62
7
  6
CONTINUOUS
 10
40.1588947986
 20
181.7834862385
 11
53.9263587424
 21
181.7834862385
  0
LINE
  8
0
 62
7
  6
CONTINUOUS
 10
53.158927164
 20
183.6634862385
 11
46.4588947986
 21
183.6634862385
  0
LINE
  8
0
 62
7
  6
CONTINUOUS
 10
46.4588947986
 20
185.9034862385
 11
53.158927164
 21
185.9034862385
  0
LINE
  8
0
 62
7
  6
CONTINUOUS
 10
45.3319272606
 20
185.9221832862
 11
43.9861997918
 21
185.9261488799
  0
POLYLINE
  8
0
 62
7
  6
CONTINUOUS
 66
1
 70
0
  0
VERTEX
  8
0
 62
7
  6
CONTINUOUS
 10
69.1315898053
 20
179.5761488799
  0
VERTEX
  8
0
 62
7
  6
CONTINUOUS
 10
69.2773463769
 20
179.5635901897
  0
VERTEX
  8
0
 62
7
  6
CONTINUOUS
 10
69.4207899463
 20
179.5254158704
  0
VERTEX
  8
0
 62
7
  6
CONTINUOUS
 10
69.5546104157
 20
179.4632208531
  0
VERTEX
  8
0
 62
7
  6
CONTINUOUS
 10
69.6758428788
 20
179.3785652912
  0
VERTEX
  8
0
 62
7
  6
CONTINUOUS
 10
69.7816045061
 20
179.2728905092
  0
VERTEX
  8
0
 62
7
  6
CONTINUOUS
 10
69.8665781453
 20
179.1514442615
  0
VERTEX
  8
0
 62
7
  6
CONTINUOUS
 10
69.9291875732
 20
179.0171717343
  0
VERTEX
  8
0
 62
7
  6
CONTINUOUS
 10
69.9678165971
 20
178.8729227523
  0
VERTEX
  8
0
 62
7
  6
CONTINUOUS
 10
69.9806927739
 20
178.7253165793
  0
SEQEND
  0
POLYLINE
  8
0
 62
7
  6
CONTINUOUS
 66
1
 70
0
  0
VERTEX
  8
0
 62
7
  6
CONTINUOUS
 10
43.9861997918
 20
183.6408235972
  0
VERTEX
  8
0
 62
7
  6
CONTINUOUS
 10
43.8404432203
 20
183.6533822874
  0
VERTEX
  8
0
 62
7
  6
CONTINUOUS
 10
43.6969996509
 20
183.6915566067
  0
VERTEX
  8
0
 62
7
  6
CONTINUOUS
 10
43.5631791815
 20
183.7537516239
  0
VERTEX
  8
0
 62
7
  6
CONTINUOUS
 10
43.4419467184
 20
183.8384071858
  0
VERTEX
  8
0
 62
7
  6
CONTINUOUS
 10
43.336185091
 20
183.9440819678
  0
VERTEX
  8
0
 62
7
  6
CONTINUOUS
 10
43.2512114519
 20
184.0655282156
  0
VERTEX
  8
0
 62
7
  6
CONTINUOUS
 10
43.1886020239
 20
184.1998007427
  0
VERTEX
  8
0
 62
7
  6
CONTINUOUS
 10
43.1499730001
 20
184.3440497248
  0
VERTEX
  8
0
 62
7
  6
CONTINUOUS
 10
43.1370968232
 20
184.4916558978
  0
SEQEND
  0
POLYLINE
  8
0
 62
7
  6
CONTINUOUS
 66
1
 70
0
  0
VERTEX
  8
0
 62
7
  6
CONTINUOUS
 10
46.4588947986
 20
185.9034862385
  0
VERTEX
  8
0
 62
7
  6
CONTINUOUS
 10
46.4340404618
 20
185.9066160687
  0
VERTEX
  8
0
 62
7
  6
CONTINUOUS
 10
46.3599651592
 20
185.9096856758
  0
VERTEX
  8
0
 62
7
  6
CONTINUOUS
 10
46.2380883267
 20
185.9126367169
  0
VERTEX
  8
0
 62
7
  6
CONTINUOUS
 10
46.0707477772
 20
185.91541273
  0
VERTEX
  8
0
 62
7
  6
CONTINUOUS
 10
45.8611467247
 20
185.917960709
  0
VERTEX
  8
0
 62
7
  6
CONTINUOUS
 10
45.3319272606
 20
185.9221832862
  0
SEQEND
  0
LINE
  8
0
 62
7
  6
CONTINUOUS
 10
55.1849995245
 20
194.0377781614
 11
55.2875123496
 21
193.9547649124
  0
LINE
  8
0
 62
7
  6
CONTINUOUS
 10
57.9327900727
 20
194.5791943156
 11
57.8302772475
 21
194.6622075646
  0
LINE
  8
0
 62
7
  6
CONTINUOUS
 10
55.2875123496
 20
86.7122075646
 11
55.1849995245
 21
86.6291943156
  0
POLYLINE
  8
0
 62
7
  6
CONTINUOUS
 66
1
 70
0
  0
VERTEX
  8
0
 62
7
  6
CONTINUOUS
 10
59.9588624332
 20
192.2534862385
  0
VERTEX
  8
0
 62
7
  6
CONTINUOUS
 10
59.8112667979
 20
192.2405740917
  0
VERTEX
  8
0
 62
7
  6
CONTINUOUS
 10
59.6681552394
 20
192.2022292357
  0
VERTEX
  8
0
 62
7
  6
CONTINUOUS
 10
59.5338762284
 20
192.139615796
  0
VERTEX
  8
0
 62
7
  6
CONTINUOUS
 10
59.4125102147
 20
192.054635666
  0
VERTEX
  8
0
 62
7
  6
CONTINUOUS
 10
59.3077453711
 20
191.9498708224
  0
VERTEX
  8
0
 62
7
  6
CONTINUOUS
 10
59.2227652412
 20
191.8285048087
  0
VERTEX
  8
0
 62
7
  6
CONTINUOUS
 10
59.1601518014
 20
191.6942257977
  0
VERTEX
  8
0
 62
7
  6
CONTINUOUS
 10
59.1218069454
 20
191.5511142392
  0
VERTEX
  8
0
 62
7
  6
CONTINUOUS
 10
59.1088947986
 20
191.4035186039
  0
SEQEND
  0
POLYLINE
  8
0
 62
7
  6
CONTINUOUS
 66
1
 70
0
  0
VERTEX
  8
0
 62
7
  6
CONTINUOUS
 10
67.0470418222
 20
192.26541273
  0
VERTEX
  8
0
 62
7
  6
CONTINUOUS
 10
66.8797012726
 20
192.262636717
  0
VERTEX
  8
0
 62
7
  6
CONTINUOUS
 10
66.7578244394
 20
192.2596856758
  0
VERTEX
  8
0
 62
7
  6
CONTINUOUS
 10
66.6837491359
 20
192.2566160688
  0
VERTEX
  8
0
 62
7
  6
CONTINUOUS
 10
66.6588947986
 20
192.2534862385
  0
SEQEND
  0
LINE
  8
0
 62
7
  6
CONTINUOUS
 10
67.5044956191
 20
192.2702320121
 11
67.0470418222
 21
192.26541273
  0
LINE
  8
0
 62
7
  6
CONTINUOUS
 10
68.4270970322
 20
192.2749836024
 11
67.5044956191
 21
192.2702320121
  0
LINE
  8
0
 62
7
  6
CONTINUOUS
 10
69.1315898053
 20
192.2761488799
 11
68.4270970322
 21
192.2749836024
  0
LINE
  8
0
 62
7
  6
CONTINUOUS
 10
53.9263587424
 20
187.7834862385
 11
40.158924045
 21
187.7834862385
  0
LINE
  8
0
 62
7
  6
CONTINUOUS
 10
59.1914308548
 20
188.1334862385
 11
72.9588947986
 21
188.1334862385
  0
LINE
  8
0
 62
7
  6
CONTINUOUS
 10
66.6588947986
 20
190.0134862385
 11
59.9588624332
 21
190.0134862385
  0
LINE
  8
0
 62
7
  6
CONTINUOUS
 10
59.9588624332
 20
192.2534862385
 11
66.6588947986
 21
192.2534862385
  0
LINE
  8
0
 62
7
  6
CONTINUOUS
 10
69.1315898053
 20
189.9908235972
 11
68.0953668455
 21
189.9931951867
  0
POLYLINE
  8
0
 62
7
  6
CONTINUOUS
 66
1
 70
0
  0
VERTEX
  8
0
 62
7
  6
CONTINUOUS
 10
68.0953668455
 20
189.9931951867
  0
VERTEX
  8
0
 62
7
  6
CONTINUOUS
 10
67.256642874
 20
189.9990117681
  0
VERTEX
  8
0
 62
7
  6
CONTINUOUS
 10
67.0470418222
 20
190.0015597471
  0
VERTEX
  8
0
 62
7
  6
CONTINUOUS
 10
66.8797012726
 20
190.0043357601
  0
VERTEX
  8
0
 62
7
  6
CONTINUOUS
 10
66.7578244394
 20
190.0072868013
  0
VERTEX
  8
0
 62
7
  6
CONTINUOUS
 10
66.6837491359
 20
190.0103564083
  0
VERTEX
  8
0
 62
7
  6
CONTINUOUS
 10
66.6588947986
 20
190.0134862385
  0
SEQEND
  0
LINE
  8
0
 62
7
  6
CONTINUOUS
 10
55.1849995245
 20
206.7377781614
 11
55.2875123496
 21
206.6547649124
  0
LINE
  8
0
 62
7
  6
CONTINUOUS
 10
57.8302772475
 20
86.0047649124
 11
57.9327900727
 21
86.0877781614
  0
POLYLINE
  8
0
 62
7
  6
CONTINUOUS
 66
1
 70
0
  0
VERTEX
  8
0
 62
7
  6
CONTINUOUS
 10
46.4588947986
 20
196.3634862385
  0
VERTEX
  8
0
 62
7
  6
CONTINUOUS
 10
46.4340404618
 20
196.3603564083
  0
VERTEX
  8
0
 62
7
  6
CONTINUOUS
 10
46.3599651592
 20
196.3572868013
  0
VERTEX
  8
0
 62
7
  6
CONTINUOUS
 10
46.2380883267
 20
196.3543357602
  0
VERTEX
  8
0
 62
7
  6
CONTINUOUS
 10
46.0707477772
 20
196.3515597471
  0
SEQEND
  0
POLYLINE
  8
0
 62
7
  6
CONTINUOUS
 66
1
 70
0
  0
VERTEX
  8
0
 62
7
  6
CONTINUOUS
 10
53.158927164
 20
196.3634862385
  0
VERTEX
  8
0
 62
7
  6
CONTINUOUS
 10
53.3065227993
 20
196.3763983854
  0
VERTEX
  8
0
 62
7
  6
CONTINUOUS
 10
53.4496343578
 20
196.4147432414
  0
VERTEX
  8
0
 62
7
  6
CONTINUOUS
 10
53.5839133687
 20
196.4773566811
  0
VERTEX
  8
0
 62
7
  6
CONTINUOUS
 10
53.7052793825
 20
196.5623368111
  0
VERTEX
  8
0
 62
7
  6
CONTINUOUS
 10
53.810044226
 20
196.6671016546
  0
VERTEX
  8
0
 62
7
  6
CONTINUOUS
 10
53.895024356
 20
196.7884676684
  0
VERTEX
  8
0
 62
7
  6
CONTINUOUS
 10
53.9576377958
 20
196.9227466793
  0
VERTEX
  8
0
 62
7
  6
CONTINUOUS
 10
53.9959826517
 20
197.0658582378
  0
VERTEX
  8
0
 62
7
  6
CONTINUOUS
 10
54.0088947986
 20
197.2134538731
  0
SEQEND
  0
LINE
  8
0
 62
7
  6
CONTINUOUS
 10
46.0707477772
 20
196.3515597471
 11
45.613293978
 21
196.346740465
  0
LINE
  8
0
 62
7
  6
CONTINUOUS
 10
45.613293978
 20
196.346740465
 11
44.6906925609
 21
196.3419888746
  0
LINE
  8
0
 62
7
  6
CONTINUOUS
 10
44.6906925609
 20
196.3419888746
 11
43.9861997918
 21
196.3408235972
  0
LINE
  8
0
 62
7
  6
CONTINUOUS
 10
72.9588947986
 20
194.1334862385
 11
59.1914308548
 21
194.1334862385
  0
LINE
  8
0
 62
7
  6
CONTINUOUS
 10
40.1588947986
 20
194.4834862385
 11
53.9263587424
 21
194.4834862385
  0
LINE
  8
0
 62
7
  6
CONTINUOUS
 10
53.158927164
 20
196.3634862385
 11
46.4588947986
 21
196.3634862385
  0
LINE
  8
0
 62
7
  6
CONTINUOUS
 10
46.4588947986
 20
198.6034862385
 11
53.158927164
 21
198.6034862385
  0
LINE
  8
0
 62
7
  6
CONTINUOUS
 10
45.3319272606
 20
198.6221832862
 11
43.9861997918
 21
198.6261488799
  0
POLYLINE
  8
0
 62
7
  6
CONTINUOUS
 66
1
 70
0
  0
VERTEX
  8
0
 62
7
  6
CONTINUOUS
 10
69.1315898053
 20
192.2761488799
  0
VERTEX
  8
0
 62
7
  6
CONTINUOUS
 10
69.2773463769
 20
192.2635901897
  0
VERTEX
  8
0
 62
7
  6
CONTINUOUS
 10
69.4207899463
 20
192.2254158704
  0
VERTEX
  8
0
 62
7
  6
CONTINUOUS
 10
69.5546104157
 20
192.1632208531
  0
VERTEX
  8
0
 62
7
  6
CONTINUOUS
 10
69.6758428788
 20
192.0785652912
  0
VERTEX
  8
0
 62
7
  6
CONTINUOUS
 10
69.7816045061
 20
191.9728905092
  0
VERTEX
  8
0
 62
7
  6
CONTINUOUS
 10
69.8665781453
 20
191.8514442615
  0
VERTEX
  8
0
 62
7
  6
CONTINUOUS
 10
69.9291875732
 20
191.7171717343
  0
VERTEX
  8
0
 62
7
  6
CONTINUOUS
 10
69.9678165971
 20
191.5729227523
  0
VERTEX
  8
0
 62
7
  6
CONTINUOUS
 10
69.9806927739
 20
191.4253165793
  0
SEQEND
  0
POLYLINE
  8
0
 62
7
  6
CONTINUOUS
 66
1
 70
0
  0
VERTEX
  8
0
 62
7
  6
CONTINUOUS
 10
43.9861997918
 20
196.3408235972
  0
VERTEX
  8
0
 62
7
  6
CONTINUOUS
 10
43.8404432203
 20
196.3533822874
  0
VERTEX
  8
0
 62
7
  6
CONTINUOUS
 10
43.6969996509
 20
196.3915566067
  0
VERTEX
  8
0
 62
7
  6
CONTINUOUS
 10
43.5631791815
 20
196.4537516239
  0
VERTEX
  8
0
 62
7
  6
CONTINUOUS
 10
43.4419467184
 20
196.5384071858
  0
VERTEX
  8
0
 62
7
  6
CONTINUOUS
 10
43.336185091
 20
196.6440819678
  0
VERTEX
  8
0
 62
7
  6
CONTINUOUS
 10
43.2512114519
 20
196.7655282156
  0
VERTEX
  8
0
 62
7
  6
CONTINUOUS
 10
43.1886020239
 20
196.8998007427
  0
VERTEX
  8
0
 62
7
  6
CONTINUOUS
 10
43.1499730001
 20
197.0440497248
  0
VERTEX
  8
0
 62
7
  6
CONTINUOUS
 10
43.1370968232
 20
197.1916558978
  0
SEQEND
  0
POLYLINE
  8
0
 62
7
  6
CONTINUOUS
 66
1
 70
0
  0
VERTEX
  8
0
 62
7
  6
CONTINUOUS
 10
46.4588947986
 20
198.6034862385
  0
VERTEX
  8
0
 62
7
  6
CONTINUOUS
 10
46.4340404618
 20
198.6066160687
  0
VERTEX
  8
0
 62
7
  6
CONTINUOUS
 10
46.3599651592
 20
198.6096856758
  0
VERTEX
  8
0
 62
7
  6
CONTINUOUS
 10
46.2380883267
 20
198.6126367169
  0
VERTEX
  8
0
 62
7
  6
CONTINUOUS
 10
46.0707477772
 20
198.61541273
  0
VERTEX
  8
0
 62
7
  6
CONTINUOUS
 10
45.8611467247
 20
198.617960709
  0
VERTEX
  8
0
 62
7
  6
CONTINUOUS
 10
45.3319272606
 20
198.6221832862
  0
SEQEND
  0
LINE
  8
0
 62
7
  6
CONTINUOUS
 10
57.9327900727
 20
207.2791943156
 11
57.8302772475
 21
207.3622075646
  0
LINE
  8
0
 62
7
  6
CONTINUOUS
 10
55.2875123496
 20
74.0122075646
 11
55.1849995245
 21
73.9291943156
  0
LINE
  8
0
 62
7
  6
CONTINUOUS
 10
57.8302772475
 20
73.3047649124
 11
57.9327900727
 21
73.3877781614
  0
POLYLINE
  8
0
 62
7
  6
CONTINUOUS
 66
1
 70
0
  0
VERTEX
  8
0
 62
7
  6
CONTINUOUS
 10
59.9588624332
 20
204.9534862385
  0
VERTEX
  8
0
 62
7
  6
CONTINUOUS
 10
59.8112667979
 20
204.9405740917
  0
VERTEX
  8
0
 62
7
  6
CONTINUOUS
 10
59.6681552394
 20
204.9022292357
  0
VERTEX
  8
0
 62
7
  6
CONTINUOUS
 10
59.5338762284
 20
204.839615796
  0
VERTEX
  8
0
 62
7
  6
CONTINUOUS
 10
59.4125102147
 20
204.754635666
  0
VERTEX
  8
0
 62
7
  6
CONTINUOUS
 10
59.3077453711
 20
204.6498708224
  0
VERTEX
  8
0
 62
7
  6
CONTINUOUS
 10
59.2227652412
 20
204.5285048087
  0
VERTEX
  8
0
 62
7
  6
CONTINUOUS
 10
59.1601518014
 20
204.3942257977
  0
VERTEX
  8
0
 62
7
  6
CONTINUOUS
 10
59.1218069454
 20
204.2511142392
  0
VERTEX
  8
0
 62
7
  6
CONTINUOUS
 10
59.1088947986
 20
204.1035186039
  0
SEQEND
  0
POLYLINE
  8
0
 62
7
  6
CONTINUOUS
 66
1
 70
0
  0
VERTEX
  8
0
 62
7
  6
CONTINUOUS
 10
67.0470418222
 20
204.96541273
  0
VERTEX
  8
0
 62
7
  6
CONTINUOUS
 10
66.8797012726
 20
204.962636717
  0
VERTEX
  8
0
 62
7
  6
CONTINUOUS
 10
66.7578244394
 20
204.9596856758
  0
VERTEX
  8
0
 62
7
  6
CONTINUOUS
 10
66.6837491359
 20
204.9566160688
  0
VERTEX
  8
0
 62
7
  6
CONTINUOUS
 10
66.6588947986
 20
204.9534862385
  0
SEQEND
  0
LINE
  8
0
 62
7
  6
CONTINUOUS
 10
67.5044956191
 20
204.9702320121
 11
67.0470418222
 21
204.96541273
  0
LINE
  8
0
 62
7
  6
CONTINUOUS
 10
68.4270970322
 20
204.9749836024
 11
67.5044956191
 21
204.9702320121
  0
LINE
  8
0
 62
7
  6
CONTINUOUS
 10
69.1315898053
 20
204.9761488799
 11
68.4270970322
 21
204.9749836024
  0
LINE
  8
0
 62
7
  6
CONTINUOUS
 10
53.9263587424
 20
200.4834862385
 11
40.158924045
 21
200.4834862385
  0
LINE
  8
0
 62
7
  6
CONTINUOUS
 10
59.1914308548
 20
200.8334862385
 11
72.9588947986
 21
200.8334862385
  0
LINE
  8
0
 62
7
  6
CONTINUOUS
 10
66.6588947986
 20
202.7134862385
 11
59.9588624332
 21
202.7134862385
  0
LINE
  8
0
 62
7
  6
CONTINUOUS
 10
59.9588624332
 20
204.9534862385
 11
66.6588947986
 21
204.9534862385
  0
LINE
  8
0
 62
7
  6
CONTINUOUS
 10
69.1315898053
 20
202.6908235972
 11
68.0953668455
 21
202.6931951867
  0
POLYLINE
  8
0
 62
7
  6
CONTINUOUS
 66
1
 70
0
  0
VERTEX
  8
0
 62
7
  6
CONTINUOUS
 10
68.0953668455
 20
202.6931951867
  0
VERTEX
  8
0
 62
7
  6
CONTINUOUS
 10
67.256642874
 20
202.6990117681
  0
VERTEX
  8
0
 62
7
  6
CONTINUOUS
 10
67.0470418222
 20
202.7015597471
  0
VERTEX
  8
0
 62
7
  6
CONTINUOUS
 10
66.8797012726
 20
202.7043357601
  0
VERTEX
  8
0
 62
7
  6
CONTINUOUS
 10
66.7578244394
 20
202.7072868013
  0
VERTEX
  8
0
 62
7
  6
CONTINUOUS
 10
66.6837491359
 20
202.7103564083
  0
VERTEX
  8
0
 62
7
  6
CONTINUOUS
 10
66.6588947986
 20
202.7134862385
  0
SEQEND
  0
LINE
  8
0
 62
7
  6
CONTINUOUS
 10
55.1849995245
 20
219.4377781614
 11
55.2875123496
 21
219.3547649124
  0
LINE
  8
0
 62
7
  6
CONTINUOUS
 10
57.9327900727
 20
219.9791943156
 11
57.8302772475
 21
220.0622075646
  0
POLYLINE
  8
0
 62
7
  6
CONTINUOUS
 66
1
 70
0
  0
VERTEX
  8
0
 62
7
  6
CONTINUOUS
 10
46.4588947986
 20
209.0634862385
  0
VERTEX
  8
0
 62
7
  6
CONTINUOUS
 10
46.4340404618
 20
209.0603564083
  0
VERTEX
  8
0
 62
7
  6
CONTINUOUS
 10
46.3599651592
 20
209.0572868013
  0
VERTEX
  8
0
 62
7
  6
CONTINUOUS
 10
46.2380883267
 20
209.0543357602
  0
VERTEX
  8
0
 62
7
  6
CONTINUOUS
 10
46.0707477772
 20
209.0515597471
  0
SEQEND
  0
POLYLINE
  8
0
 62
7
  6
CONTINUOUS
 66
1
 70
0
  0
VERTEX
  8
0
 62
7
  6
CONTINUOUS
 10
53.158927164
 20
209.0634862385
  0
VERTEX
  8
0
 62
7
  6
CONTINUOUS
 10
53.3065227993
 20
209.0763983854
  0
VERTEX
  8
0
 62
7
  6
CONTINUOUS
 10
53.4496343578
 20
209.1147432414
  0
VERTEX
  8
0
 62
7
  6
CONTINUOUS
 10
53.5839133687
 20
209.1773566811
  0
VERTEX
  8
0
 62
7
  6
CONTINUOUS
 10
53.7052793825
 20
209.2623368111
  0
VERTEX
  8
0
 62
7
  6
CONTINUOUS
 10
53.810044226
 20
209.3671016546
  0
VERTEX
  8
0
 62
7
  6
CONTINUOUS
 10
53.895024356
 20
209.4884676684
  0
VERTEX
  8
0
 62
7
  6
CONTINUOUS
 10
53.9576377958
 20
209.6227466793
  0
VERTEX
  8
0
 62
7
  6
CONTINUOUS
 10
53.9959826517
 20
209.7658582378
  0
VERTEX
  8
0
 62
7
  6
CONTINUOUS
 10
54.0088947986
 20
209.9134538731
  0
SEQEND
  0
LINE
  8
0
 62
7
  6
CONTINUOUS
 10
46.0707477772
 20
209.0515597471
 11
45.613293978
 21
209.046740465
  0
LINE
  8
0
 62
7
  6
CONTINUOUS
 10
45.613293978
 20
209.046740465
 11
44.6906925609
 21
209.0419888746
  0
LINE
  8
0
 62
7
  6
CONTINUOUS
 10
44.6906925609
 20
209.0419888746
 11
43.9861997918
 21
209.0408235972
  0
LINE
  8
0
 62
7
  6
CONTINUOUS
 10
72.9588947986
 20
206.8334862385
 11
59.1914308548
 21
206.8334862385
  0
LINE
  8
0
 62
7
  6
CONTINUOUS
 10
40.1588947986
 20
207.1834862385
 11
53.9263587424
 21
207.1834862385
  0
LINE
  8
0
 62
7
  6
CONTINUOUS
 10
53.158927164
 20
209.0634862385
 11
46.4588947986
 21
209.0634862385
  0
LINE
  8
0
 62
7
  6
CONTINUOUS
 10
46.4588947986
 20
211.3034862385
 11
53.158927164
 21
211.3034862385
  0
LINE
  8
0
 62
7
  6
CONTINUOUS
 10
45.3319272606
 20
211.3221832862
 11
43.9861997918
 21
211.3261488799
  0
POLYLINE
  8
0
 62
7
  6
CONTINUOUS
 66
1
 70
0
  0
VERTEX
  8
0
 62
7
  6
CONTINUOUS
 10
69.1315898053
 20
204.9761488799
  0
VERTEX
  8
0
 62
7
  6
CONTINUOUS
 10
69.2773463769
 20
204.9635901897
  0
VERTEX
  8
0
 62
7
  6
CONTINUOUS
 10
69.4207899463
 20
204.9254158704
  0
VERTEX
  8
0
 62
7
  6
CONTINUOUS
 10
69.5546104157
 20
204.8632208531
  0
VERTEX
  8
0
 62
7
  6
CONTINUOUS
 10
69.6758428788
 20
204.7785652912
  0
VERTEX
  8
0
 62
7
  6
CONTINUOUS
 10
69.7816045061
 20
204.6728905092
  0
VERTEX
  8
0
 62
7
  6
CONTINUOUS
 10
69.8665781453
 20
204.5514442615
  0
VERTEX
  8
0
 62
7
  6
CONTINUOUS
 10
69.9291875732
 20
204.4171717343
  0
VERTEX
  8
0
 62
7
  6
CONTINUOUS
 10
69.9678165971
 20
204.2729227523
  0
VERTEX
  8
0
 62
7
  6
CONTINUOUS
 10
69.9806927739
 20
204.1253165793
  0
SEQEND
  0
POLYLINE
  8
0
 62
7
  6
CONTINUOUS
 66
1
 70
0
  0
VERTEX
  8
0
 62
7
  6
CONTINUOUS
 10
43.9861997918
 20
209.0408235972
  0
VERTEX
  8
0
 62
7
  6
CONTINUOUS
 10
43.8404432203
 20
209.0533822874
  0
VERTEX
  8
0
 62
7
  6
CONTINUOUS
 10
43.6969996509
 20
209.0915566067
  0
VERTEX
  8
0
 62
7
  6
CONTINUOUS
 10
43.5631791815
 20
209.1537516239
  0
VERTEX
  8
0
 62
7
  6
CONTINUOUS
 10
43.4419467184
 20
209.2384071858
  0
VERTEX
  8
0
 62
7
  6
CONTINUOUS
 10
43.336185091
 20
209.3440819678
  0
VERTEX
  8
0
 62
7
  6
CONTINUOUS
 10
43.2512114519
 20
209.4655282156
  0
VERTEX
  8
0
 62
7
  6
CONTINUOUS
 10
43.1886020239
 20
209.5998007427
  0
VERTEX
  8
0
 62
7
  6
CONTINUOUS
 10
43.1499730001
 20
209.7440497248
  0
VERTEX
  8
0
 62
7
  6
CONTINUOUS
 10
43.1370968232
 20
209.8916558978
  0
SEQEND
  0
POLYLINE
  8
0
 62
7
  6
CONTINUOUS
 66
1
 70
0
  0
VERTEX
  8
0
 62
7
  6
CONTINUOUS
 10
46.4588947986
 20
211.3034862385
  0
VERTEX
  8
0
 62
7
  6
CONTINUOUS
 10
46.4340404618
 20
211.3066160687
  0
VERTEX
  8
0
 62
7
  6
CONTINUOUS
 10
46.3599651592
 20
211.3096856758
  0
VERTEX
  8
0
 62
7
  6
CONTINUOUS
 10
46.2380883267
 20
211.3126367169
  0
VERTEX
  8
0
 62
7
  6
CONTINUOUS
 10
46.0707477772
 20
211.31541273
  0
VERTEX
  8
0
 62
7
  6
CONTINUOUS
 10
45.8611467247
 20
211.317960709
  0
VERTEX
  8
0
 62
7
  6
CONTINUOUS
 10
45.3319272606
 20
211.3221832862
  0
SEQEND
  0
LINE
  8
0
 62
7
  6
CONTINUOUS
 10
55.2875123496
 20
59.7232075646
 11
55.1837646273
 21
59.6391943156
  0
POLYLINE
  8
0
 62
7
  6
CONTINUOUS
 66
1
 70
0
  0
VERTEX
  8
0
 62
7
  6
CONTINUOUS
 10
59.9588624332
 20
217.6534862385
  0
VERTEX
  8
0
 62
7
  6
CONTINUOUS
 10
59.8112667979
 20
217.6405740917
  0
VERTEX
  8
0
 62
7
  6
CONTINUOUS
 10
59.6681552394
 20
217.6022292357
  0
VERTEX
  8
0
 62
7
  6
CONTINUOUS
 10
59.5338762284
 20
217.539615796
  0
VERTEX
  8
0
 62
7
  6
CONTINUOUS
 10
59.4125102147
 20
217.454635666
  0
VERTEX
  8
0
 62
7
  6
CONTINUOUS
 10
59.3077453711
 20
217.3498708224
  0
VERTEX
  8
0
 62
7
  6
CONTINUOUS
 10
59.2227652412
 20
217.2285048087
  0
VERTEX
  8
0
 62
7
  6
CONTINUOUS
 10
59.1601518014
 20
217.0942257977
  0
VERTEX
  8
0
 62
7
  6
CONTINUOUS
 10
59.1218069454
 20
216.9511142392
  0
VERTEX
  8
0
 62
7
  6
CONTINUOUS
 10
59.1088947986
 20
216.8035186039
  0
SEQEND
  0
POLYLINE
  8
0
 62
7
  6
CONTINUOUS
 66
1
 70
0
  0
VERTEX
  8
0
 62
7
  6
CONTINUOUS
 10
67.0470418222
 20
217.66541273
  0
VERTEX
  8
0
 62
7
  6
CONTINUOUS
 10
66.8797012726
 20
217.662636717
  0
VERTEX
  8
0
 62
7
  6
CONTINUOUS
 10
66.7578244394
 20
217.6596856758
  0
VERTEX
  8
0
 62
7
  6
CONTINUOUS
 10
66.6837491359
 20
217.6566160688
  0
VERTEX
  8
0
 62
7
  6
CONTINUOUS
 10
66.6588947986
 20
217.6534862385
  0
SEQEND
  0
LINE
  8
0
 62
7
  6
CONTINUOUS
 10
67.5044956191
 20
217.6702320121
 11
67.0470418222
 21
217.66541273
  0
LINE
  8
0
 62
7
  6
CONTINUOUS
 10
68.4270970322
 20
217.6749836024
 11
67.5044956191
 21
217.6702320121
  0
LINE
  8
0
 62
7
  6
CONTINUOUS
 10
69.1315898053
 20
217.6761488799
 11
68.4270970322
 21
217.6749836024
  0
LINE
  8
0
 62
7
  6
CONTINUOUS
 10
53.9263587424
 20
213.1834862385
 11
40.158924045
 21
213.1834862385
  0
LINE
  8
0
 62
7
  6
CONTINUOUS
 10
59.1914308548
 20
213.5334862385
 11
72.9588947986
 21
213.5334862385
  0
LINE
  8
0
 62
7
  6
CONTINUOUS
 10
66.6588947986
 20
215.4134862385
 11
59.9588624332
 21
215.4134862385
  0
LINE
  8
0
 62
7
  6
CONTINUOUS
 10
59.9588624332
 20
217.6534862385
 11
66.6588947986
 21
217.6534862385
  0
LINE
  8
0
 62
7
  6
CONTINUOUS
 10
69.1315898053
 20
215.3908235972
 11
68.0953668455
 21
215.3931951867
  0
POLYLINE
  8
0
 62
7
  6
CONTINUOUS
 66
1
 70
0
  0
VERTEX
  8
0
 62
7
  6
CONTINUOUS
 10
68.0953668455
 20
215.3931951867
  0
VERTEX
  8
0
 62
7
  6
CONTINUOUS
 10
67.256642874
 20
215.3990117681
  0
VERTEX
  8
0
 62
7
  6
CONTINUOUS
 10
67.0470418222
 20
215.4015597471
  0
VERTEX
  8
0
 62
7
  6
CONTINUOUS
 10
66.8797012726
 20
215.4043357601
  0
VERTEX
  8
0
 62
7
  6
CONTINUOUS
 10
66.7578244394
 20
215.4072868013
  0
VERTEX
  8
0
 62
7
  6
CONTINUOUS
 10
66.6837491359
 20
215.4103564083
  0
VERTEX
  8
0
 62
7
  6
CONTINUOUS
 10
66.6588947986
 20
215.4134862385
  0
SEQEND
  0
POLYLINE
  8
0
 62
7
  6
CONTINUOUS
 66
1
 70
0
  0
VERTEX
  8
0
 62
7
  6
CONTINUOUS
 10
69.1315898053
 20
217.6761488799
  0
VERTEX
  8
0
 62
7
  6
CONTINUOUS
 10
69.2773463769
 20
217.6635901897
  0
VERTEX
  8
0
 62
7
  6
CONTINUOUS
 10
69.4207899463
 20
217.6254158704
  0
VERTEX
  8
0
 62
7
  6
CONTINUOUS
 10
69.5546104157
 20
217.5632208531
  0
VERTEX
  8
0
 62
7
  6
CONTINUOUS
 10
69.6758428788
 20
217.4785652912
  0
VERTEX
  8
0
 62
7
  6
CONTINUOUS
 10
69.7816045061
 20
217.3728905092
  0
VERTEX
  8
0
 62
7
  6
CONTINUOUS
 10
69.8665781453
 20
217.2514442615
  0
VERTEX
  8
0
 62
7
  6
CONTINUOUS
 10
69.9291875732
 20
217.1171717343
  0
VERTEX
  8
0
 62
7
  6
CONTINUOUS
 10
69.9678165971
 20
216.9729227523
  0
VERTEX
  8
0
 62
7
  6
CONTINUOUS
 10
69.9806927739
 20
216.8253165793
  0
SEQEND
  0
LINE
  8
0
 62
7
  6
CONTINUOUS
 10
55.1837646273
 20
233.7277781614
 11
55.2875123496
 21
233.6437649124
  0
POLYLINE
  8
0
 62
7
  6
CONTINUOUS
 66
1
 70
0
  0
VERTEX
  8
0
 62
7
  6
CONTINUOUS
 10
46.4588947986
 20
221.7634862385
  0
VERTEX
  8
0
 62
7
  6
CONTINUOUS
 10
46.4340404618
 20
221.7603564083
  0
VERTEX
  8
0
 62
7
  6
CONTINUOUS
 10
46.3599651592
 20
221.7572868013
  0
VERTEX
  8
0
 62
7
  6
CONTINUOUS
 10
46.2380883267
 20
221.7543357602
  0
VERTEX
  8
0
 62
7
  6
CONTINUOUS
 10
46.0707477772
 20
221.7515597471
  0
SEQEND
  0
POLYLINE
  8
0
 62
7
  6
CONTINUOUS
 66
1
 70
0
  0
VERTEX
  8
0
 62
7
  6
CONTINUOUS
 10
53.158927164
 20
221.7634862385
  0
VERTEX
  8
0
 62
7
  6
CONTINUOUS
 10
53.3065227993
 20
221.7763983854
  0
VERTEX
  8
0
 62
7
  6
CONTINUOUS
 10
53.4496343578
 20
221.8147432414
  0
VERTEX
  8
0
 62
7
  6
CONTINUOUS
 10
53.5839133687
 20
221.8773566811
  0
VERTEX
  8
0
 62
7
  6
CONTINUOUS
 10
53.7052793825
 20
221.9623368111
  0
VERTEX
  8
0
 62
7
  6
CONTINUOUS
 10
53.810044226
 20
222.0671016546
  0
VERTEX
  8
0
 62
7
  6
CONTINUOUS
 10
53.895024356
 20
222.1884676684
  0
VERTEX
  8
0
 62
7
  6
CONTINUOUS
 10
53.9576377958
 20
222.3227466793
  0
VERTEX
  8
0
 62
7
  6
CONTINUOUS
 10
53.9959826517
 20
222.4658582378
  0
VERTEX
  8
0
 62
7
  6
CONTINUOUS
 10
54.0088947986
 20
222.6134538731
  0
SEQEND
  0
LINE
  8
0
 62
7
  6
CONTINUOUS
 10
46.0707477772
 20
221.7515597471
 11
45.613293978
 21
221.746740465
  0
LINE
  8
0
 62
7
  6
CONTINUOUS
 10
45.613293978
 20
221.746740465
 11
44.6906925609
 21
221.7419888746
  0
LINE
  8
0
 62
7
  6
CONTINUOUS
 10
44.6906925609
 20
221.7419888746
 11
43.9861997918
 21
221.7408235972
  0
LINE
  8
0
 62
7
  6
CONTINUOUS
 10
72.9588947986
 20
219.5334862385
 11
59.1914308548
 21
219.5334862385
  0
LINE
  8
0
 62
7
  6
CONTINUOUS
 10
40.1588947986
 20
219.8834862385
 11
53.9263587424
 21
219.8834862385
  0
LINE
  8
0
 62
7
  6
CONTINUOUS
 10
53.158927164
 20
221.7634862385
 11
46.4588947986
 21
221.7634862385
  0
LINE
  8
0
 62
7
  6
CONTINUOUS
 10
46.4588947986
 20
224.0034862385
 11
53.158927164
 21
224.0034862385
  0
LINE
  8
0
 62
7
  6
CONTINUOUS
 10
45.3319272606
 20
224.0221832862
 11
43.9861997918
 21
224.0261488799
  0
POLYLINE
  8
0
 62
7
  6
CONTINUOUS
 66
1
 70
0
  0
VERTEX
  8
0
 62
7
  6
CONTINUOUS
 10
43.9861997918
 20
221.7408235972
  0
VERTEX
  8
0
 62
7
  6
CONTINUOUS
 10
43.8404432203
 20
221.7533822874
  0
VERTEX
  8
0
 62
7
  6
CONTINUOUS
 10
43.6969996509
 20
221.7915566067
  0
VERTEX
  8
0
 62
7
  6
CONTINUOUS
 10
43.5631791815
 20
221.8537516239
  0
VERTEX
  8
0
 62
7
  6
CONTINUOUS
 10
43.4419467184
 20
221.9384071858
  0
VERTEX
  8
0
 62
7
  6
CONTINUOUS
 10
43.336185091
 20
222.0440819678
  0
VERTEX
  8
0
 62
7
  6
CONTINUOUS
 10
43.2512114519
 20
222.1655282156
  0
VERTEX
  8
0
 62
7
  6
CONTINUOUS
 10
43.1886020239
 20
222.2998007427
  0
VERTEX
  8
0
 62
7
  6
CONTINUOUS
 10
43.1499730001
 20
222.4440497248
  0
VERTEX
  8
0
 62
7
  6
CONTINUOUS
 10
43.1370968232
 20
222.5916558978
  0
SEQEND
  0
POLYLINE
  8
0
 62
7
  6
CONTINUOUS
 66
1
 70
0
  0
VERTEX
  8
0
 62
7
  6
CONTINUOUS
 10
46.4588947986
 20
224.0034862385
  0
VERTEX
  8
0
 62
7
  6
CONTINUOUS
 10
46.4340404618
 20
224.0066160687
  0
VERTEX
  8
0
 62
7
  6
CONTINUOUS
 10
46.3599651592
 20
224.0096856758
  0
VERTEX
  8
0
 62
7
  6
CONTINUOUS
 10
46.2380883267
 20
224.0126367169
  0
VERTEX
  8
0
 62
7
  6
CONTINUOUS
 10
46.0707477772
 20
224.01541273
  0
VERTEX
  8
0
 62
7
  6
CONTINUOUS
 10
45.8611467247
 20
224.017960709
  0
VERTEX
  8
0
 62
7
  6
CONTINUOUS
 10
45.3319272606
 20
224.0221832862
  0
SEQEND
  0
POLYLINE
  8
0
 62
7
  6
CONTINUOUS
 66
1
 70
0
  0
VERTEX
  8
0
 62
7
  6
CONTINUOUS
 10
61.1430072501
 20
59.2968228176
  0
VERTEX
  8
0
 62
7
  6
CONTINUOUS
 10
60.810942331
 20
59.1271600237
  0
VERTEX
  8
0
 62
7
  6
CONTINUOUS
 10
60.5024390828
 20
58.9176901396
  0
VERTEX
  8
0
 62
7
  6
CONTINUOUS
 10
60.222355304
 20
58.6715229853
  0
VERTEX
  8
0
 62
7
  6
CONTINUOUS
 10
59.9749449559
 20
58.3925147285
  0
VERTEX
  8
0
 62
7
  6
CONTINUOUS
 10
59.7640521766
 20
58.0850003795
  0
VERTEX
  8
0
 62
7
  6
CONTINUOUS
 10
59.5929884686
 20
57.753654458
  0
VERTEX
  8
0
 62
7
  6
CONTINUOUS
 10
59.4642638731
 20
57.4036802988
  0
SEQEND
  0
LINE
  8
0
 62
7
  6
CONTINUOUS
 10
53.9275936395
 20
225.8834862385
 11
40.158924045
 21
225.8834862385
  0
LINE
  8
0
 62
7
  6
CONTINUOUS
 10
59.1926657519
 20
226.2334862385
 11
63.3588947986
 21
226.2334862385
  0
LINE
  8
0
 62
7
  6
CONTINUOUS
 10
49.1588947986
 20
226.5834862385
 11
48.3588947986
 21
226.5834862385
  0
LINE
  8
0
 62
7
  6
CONTINUOUS
 10
72.9588947606
 20
229.9334862385
 11
63.6767107197
 21
229.9334862385
  0
POLYLINE
  8
0
 62
7
  6
CONTINUOUS
 66
1
 70
0
  0
VERTEX
  8
0
 62
7
  6
CONTINUOUS
 10
61.1430072501
 20
234.0701496594
  0
VERTEX
  8
0
 62
7
  6
CONTINUOUS
 10
60.810942331
 20
234.2398124534
  0
VERTEX
  8
0
 62
7
  6
CONTINUOUS
 10
60.5024390828
 20
234.4492823375
  0
VERTEX
  8
0
 62
7
  6
CONTINUOUS
 10
60.222355304
 20
234.6954494918
  0
VERTEX
  8
0
 62
7
  6
CONTINUOUS
 10
59.9749449559
 20
234.9744577486
  0
VERTEX
  8
0
 62
7
  6
CONTINUOUS
 10
59.7640521766
 20
235.2819720976
  0
VERTEX
  8
0
 62
7
  6
CONTINUOUS
 10
59.5929884686
 20
235.6133180191
  0
VERTEX
  8
0
 62
7
  6
CONTINUOUS
 10
59.4642638731
 20
235.9632921782
  0
SEQEND
  0
LINE
  8
0
 62
40
  6
CONTINUOUS
 10
59.3388947986
 20
236.8214862385
 11
54.9388947986
 21
236.6926029056
  0
LINE
  8
0
 62
7
  6
CONTINUOUS
 10
49.1588947986
 20
233.4734862385
 11
48.3588947986
 21
233.4734862385
  0
LINE
  8
0
 62
7
  6
CONTINUOUS
 10
72.9588947986
 20
233.8214862385
 11
60.6920494659
 21
233.8214862385
  0
LINE
  8
0
 62
7
  6
CONTINUOUS
 10
40.1588947986
 20
234.1734862385
 11
53.9251238452
 21
234.1734862385
  0
LINE
  8
0
 62
7
  6
CONTINUOUS
 10
63.9588947986
 20
234.5214862385
 11
64.7588947986
 21
234.5214862385
  0
LINE
  8
0
 62
7
  6
CONTINUOUS
 10
55.1950900342
 20
236.4334862385
 11
43.7088947986
 21
236.4334862385
  0
LINE
  8
0
 62
7
  6
CONTINUOUS
 10
54.9388947986
 20
241.8455515259
 11
43.7088947969
 21
241.8455515259
  0
LINE
  8
0
 62
7
  6
CONTINUOUS
 10
57.3388947986
 20
241.9334862385
 11
40.158924045
 21
241.9334862385
  0
POLYLINE
  8
0
 62
7
  6
CONTINUOUS
 66
1
 70
0
  0
VERTEX
  8
0
 62
7
  6
CONTINUOUS
 10
54.9388947986
 20
241.8455515259
  0
VERTEX
  8
0
 62
7
  6
CONTINUOUS
 10
55.2359494592
 20
241.8396397669
  0
VERTEX
  8
0
 62
7
  6
CONTINUOUS
 10
55.5007521391
 20
241.8233664356
  0
VERTEX
  8
0
 62
7
  6
CONTINUOUS
 10
55.7364362911
 20
241.797754825
  0
VERTEX
  8
0
 62
7
  6
CONTINUOUS
 10
55.9455144549
 20
241.7631344402
  0
VERTEX
  8
0
 62
7
  6
CONTINUOUS
 10
56.1309542377
 20
241.7193858652
  0
VERTEX
  8
0
 62
7
  6
CONTINUOUS
 10
56.2944935237
 20
241.666275369
  0
VERTEX
  8
0
 62
7
  6
CONTINUOUS
 10
56.4365008776
 20
241.6037421643
  0
VERTEX
  8
0
 62
7
  6
CONTINUOUS
 10
56.5574260168
 20
241.5313537296
  0
VERTEX
  8
0
 62
7
  6
CONTINUOUS
 10
56.6545459485
 20
241.450564348
  0
VERTEX
  8
0
 62
7
  6
CONTINUOUS
 10
56.7258171476
 20
241.3640170664
  0
VERTEX
  8
0
 62
7
  6
CONTINUOUS
 10
56.7711865688
 20
241.2741819485
  0
VERTEX
  8
0
 62
7
  6
CONTINUOUS
 10
56.791785413
 20
241.1811113837
  0
VERTEX
  8
0
 62
7
  6
CONTINUOUS
 10
56.7867399597
 20
241.0834862385
  0
SEQEND
  0
POLYLINE
  8
0
 62
7
  6
CONTINUOUS
 66
1
 70
0
  0
VERTEX
  8
0
 62
7
  6
CONTINUOUS
 10
62.3388947986
 20
233.8214862385
  0
VERTEX
  8
0
 62
7
  6
CONTINUOUS
 10
61.9311153951
 20
233.8495043816
  0
VERTEX
  8
0
 62
7
  6
CONTINUOUS
 10
61.5281555447
 20
233.9332926747
  0
VERTEX
  8
0
 62
7
  6
CONTINUOUS
 10
61.1430072501
 20
234.0701496594
  0
SEQEND
  0
POLYLINE
  8
0
 62
7
  6
CONTINUOUS
 66
1
 70
0
  0
VERTEX
  8
0
 62
7
  6
CONTINUOUS
 10
43.7088947986
 20
236.4334862385
  0
VERTEX
  8
0
 62
7
  6
CONTINUOUS
 10
43.6128048716
 20
236.4454804876
  0
VERTEX
  8
0
 62
7
  6
CONTINUOUS
 10
43.5130748288
 20
236.4833166772
  0
VERTEX
  8
0
 62
7
  6
CONTINUOUS
 10
43.411277315
 20
236.548667022
  0
VERTEX
  8
0
 62
7
  6
CONTINUOUS
 10
43.310400037
 20
236.6401689226
  0
VERTEX
  8
0
 62
7
  6
CONTINUOUS
 10
43.2114762015
 20
236.7558928029
  0
VERTEX
  8
0
 62
7
  6
CONTINUOUS
 10
43.1145267945
 20
236.8944547856
  0
VERTEX
  8
0
 62
7
  6
CONTINUOUS
 10
43.0191390411
 20
237.055284194
  0
VERTEX
  8
0
 62
7
  6
CONTINUOUS
 10
42.9248281792
 20
237.2384214623
  0
VERTEX
  8
0
 62
7
  6
CONTINUOUS
 10
42.8311405557
 20
237.4443629068
  0
VERTEX
  8
0
 62
7
  6
CONTINUOUS
 10
42.7376453422
 20
237.6740434398
  0
VERTEX
  8
0
 62
7
  6
CONTINUOUS
 10
42.6440165422
 20
237.9285830508
  0
VERTEX
  8
0
 62
7
  6
CONTINUOUS
 10
42.5499167037
 20
238.2095270387
  0
VERTEX
  8
0
 62
7
  6
CONTINUOUS
 10
42.4551201897
 20
238.518464001
  0
VERTEX
  8
0
 62
7
  6
CONTINUOUS
 10
42.3593817365
 20
238.8573799047
  0
VERTEX
  8
0
 62
7
  6
CONTINUOUS
 10
42.2625312145
 20
239.2283373878
  0
VERTEX
  8
0
 62
7
  6
CONTINUOUS
 10
42.1643924939
 20
239.6337446485
  0
VERTEX
  8
0
 62
7
  6
CONTINUOUS
 10
42.0648427823
 20
240.076127294
  0
VERTEX
  8
0
 62
7
  6
CONTINUOUS
 10
41.9637526131
 20
240.5583799576
  0
VERTEX
  8
0
 62
7
  6
CONTINUOUS
 10
41.8610496374
 20
241.0834862385
  0
SEQEND
  0
LINE
  8
0
 62
7
  6
CONTINUOUS
 10
145.566977053
 20
51.4334862385
 11
152.666977053
 21
51.4334862385
  0
LINE
  8
0
 62
7
  6
CONTINUOUS
 10
152.666977053
 20
59.1934862385
 11
145.566977053
 21
59.1934862385
  0
LINE
  8
0
 62
7
  6
CONTINUOUS
 10
148.716977053
 20
59.8934862385
 11
149.516977053
 21
59.8934862385
  0
LINE
  8
0
 62
7
  6
CONTINUOUS
 10
148.716977053
 20
66.7834862385
 11
149.516977053
 21
66.7834862385
  0
LINE
  8
0
 62
7
  6
CONTINUOUS
 10
145.566977053
 20
67.4834862385
 11
152.666977053
 21
67.4834862385
  0
LINE
  8
0
 62
7
  6
CONTINUOUS
 10
152.666977053
 20
73.4834862385
 11
145.566977053
 21
73.4834862385
  0
LINE
  8
0
 62
7
  6
CONTINUOUS
 10
145.566977053
 20
80.1834862385
 11
152.666977053
 21
80.1834862385
  0
LINE
  8
0
 62
7
  6
CONTINUOUS
 10
152.666977053
 20
86.1834862385
 11
145.566977053
 21
86.1834862385
  0
LINE
  8
0
 62
7
  6
CONTINUOUS
 10
145.566977053
 20
92.8834862385
 11
152.666977053
 21
92.8834862385
  0
LINE
  8
0
 62
7
  6
CONTINUOUS
 10
152.666977053
 20
98.8834862385
 11
145.566977053
 21
98.8834862385
  0
LINE
  8
0
 62
7
  6
CONTINUOUS
 10
145.566977053
 20
105.5834862385
 11
152.666977053
 21
105.5834862385
  0
LINE
  8
0
 62
7
  6
CONTINUOUS
 10
152.666977053
 20
111.5834862385
 11
145.566977053
 21
111.5834862385
  0
POLYLINE
  8
0
 62
40
  6
CONTINUOUS
 66
1
 70
0
  0
VERTEX
  8
0
 62
40
  6
CONTINUOUS
 10
144.716977053
 20
236.6926029056
  0
VERTEX
  8
0
 62
40
  6
CONTINUOUS
 10
144.7178927768
 20
236.6952322354
  0
VERTEX
  8
0
 62
40
  6
CONTINUOUS
 10
144.7206395669
 20
236.6978604708
  0
VERTEX
  8
0
 62
40
  6
CONTINUOUS
 10
144.72521628
 20
236.7004865177
  0
VERTEX
  8
0
 62
40
  6
CONTINUOUS
 10
144.7316210111
 20
236.7031092832
  0
VERTEX
  8
0
 62
40
  6
CONTINUOUS
 10
144.7398510944
 20
236.7057276755
  0
SEQEND
  0
LINE
  8
0
 62
7
  6
CONTINUOUS
 10
145.566977053
 20
118.2834862385
 11
152.666977053
 21
118.2834862385
  0
POLYLINE
  8
0
 62
7
  6
CONTINUOUS
 66
1
 70
0
  0
VERTEX
  8
0
 62
7
  6
CONTINUOUS
 10
144.7885783781
 20
221.312802067
  0
VERTEX
  8
0
 62
7
  6
CONTINUOUS
 10
144.7685576787
 20
221.2399222314
  0
VERTEX
  8
0
 62
7
  6
CONTINUOUS
 10
144.751305217
 20
221.1712179939
  0
VERTEX
  8
0
 62
7
  6
CONTINUOUS
 10
144.7360510154
 20
221.0992308843
  0
VERTEX
  8
0
 62
7
  6
CONTINUOUS
 10
144.7237396541
 20
221.018241574
  0
VERTEX
  8
0
 62
7
  6
CONTINUOUS
 10
144.7171638406
 20
220.922055228
  0
SEQEND
  0
LINE
  8
0
 62
7
  6
CONTINUOUS
 10
152.666977053
 20
124.2834862385
 11
145.566977053
 21
124.2834862385
  0
LINE
  8
0
 62
7
  6
CONTINUOUS
 10
138.216977053
 20
125.3334862385
 11
144.716977053
 21
125.3334862385
  0
POLYLINE
  8
0
 62
7
  6
CONTINUOUS
 66
1
 70
0
  0
VERTEX
  8
0
 62
7
  6
CONTINUOUS
 10
144.7975257844
 20
72.0227061459
  0
VERTEX
  8
0
 62
7
  6
CONTINUOUS
 10
144.8470980373
 20
71.8498803197
  0
VERTEX
  8
0
 62
7
  6
CONTINUOUS
 10
144.8767543575
 20
71.7421923222
  0
VERTEX
  8
0
 62
7
  6
CONTINUOUS
 10
144.9088700224
 20
71.6166649906
  0
VERTEX
  8
0
 62
7
  6
CONTINUOUS
 10
144.9417397532
 20
71.4717804799
  0
VERTEX
  8
0
 62
7
  6
CONTINUOUS
 10
144.9728101384
 20
71.3061359762
  0
VERTEX
  8
0
 62
7
  6
CONTINUOUS
 10
144.9984328407
 20
71.1195587873
  0
VERTEX
  8
0
 62
7
  6
CONTINUOUS
 10
145.0140918715
 20
70.9155361238
  0
VERTEX
  8
0
 62
7
  6
CONTINUOUS
 10
145.0170249981
 20
70.7819452399
  0
SEQEND
  0
POLYLINE
  8
0
 62
7
  6
CONTINUOUS
 66
1
 70
0
  0
VERTEX
  8
0
 62
7
  6
CONTINUOUS
 10
144.7885783781
 20
208.612802067
  0
VERTEX
  8
0
 62
7
  6
CONTINUOUS
 10
144.7685576787
 20
208.5399222314
  0
VERTEX
  8
0
 62
7
  6
CONTINUOUS
 10
144.751305217
 20
208.4712179939
  0
VERTEX
  8
0
 62
7
  6
CONTINUOUS
 10
144.7360510154
 20
208.3992308843
  0
VERTEX
  8
0
 62
7
  6
CONTINUOUS
 10
144.7237396541
 20
208.318241574
  0
VERTEX
  8
0
 62
7
  6
CONTINUOUS
 10
144.7171638406
 20
208.222055228
  0
SEQEND
  0
POLYLINE
  8
0
 62
7
  6
CONTINUOUS
 66
1
 70
0
  0
VERTEX
  8
0
 62
7
  6
CONTINUOUS
 10
144.7885783781
 20
195.912802067
  0
VERTEX
  8
0
 62
7
  6
CONTINUOUS
 10
144.7685576787
 20
195.8399222314
  0
VERTEX
  8
0
 62
7
  6
CONTINUOUS
 10
144.751305217
 20
195.7712179939
  0
VERTEX
  8
0
 62
7
  6
CONTINUOUS
 10
144.7360510154
 20
195.6992308843
  0
VERTEX
  8
0
 62
7
  6
CONTINUOUS
 10
144.7237396541
 20
195.618241574
  0
VERTEX
  8
0
 62
7
  6
CONTINUOUS
 10
144.7171638406
 20
195.522055228
  0
SEQEND
  0
POLYLINE
  8
0
 62
7
  6
CONTINUOUS
 66
1
 70
0
  0
VERTEX
  8
0
 62
7
  6
CONTINUOUS
 10
153.4454156703
 20
224.4543085062
  0
VERTEX
  8
0
 62
7
  6
CONTINUOUS
 10
153.4654278373
 20
224.52717541
  0
VERTEX
  8
0
 62
7
  6
CONTINUOUS
 10
153.4826750252
 20
224.5958662717
  0
VERTEX
  8
0
 62
7
  6
CONTINUOUS
 10
153.4979416834
 20
224.6679524621
  0
VERTEX
  8
0
 62
7
  6
CONTINUOUS
 10
153.5102399859
 20
224.7489712793
  0
VERTEX
  8
0
 62
7
  6
CONTINUOUS
 10
153.5167919049
 20
224.8451181558
  0
SEQEND
  0
LINE
  8
0
 62
7
  6
CONTINUOUS
 10
138.216977053
 20
129.9334862385
 11
144.716977053
 21
129.9334862385
  0
LINE
  8
0
 62
7
  6
CONTINUOUS
 10
145.566977053
 20
130.9834862385
 11
152.666977053
 21
130.9834862385
  0
POLYLINE
  8
0
 62
7
  6
CONTINUOUS
 66
1
 70
0
  0
VERTEX
  8
0
 62
7
  6
CONTINUOUS
 10
144.7975257844
 20
84.7227061459
  0
VERTEX
  8
0
 62
7
  6
CONTINUOUS
 10
144.8470980373
 20
84.5498803197
  0
VERTEX
  8
0
 62
7
  6
CONTINUOUS
 10
144.8767543575
 20
84.4421923222
  0
VERTEX
  8
0
 62
7
  6
CONTINUOUS
 10
144.9088700224
 20
84.3166649906
  0
VERTEX
  8
0
 62
7
  6
CONTINUOUS
 10
144.9417397532
 20
84.1717804799
  0
VERTEX
  8
0
 62
7
  6
CONTINUOUS
 10
144.9728101384
 20
84.0061359762
  0
VERTEX
  8
0
 62
7
  6
CONTINUOUS
 10
144.9984328407
 20
83.8195587873
  0
VERTEX
  8
0
 62
7
  6
CONTINUOUS
 10
145.0140918715
 20
83.6155361238
  0
VERTEX
  8
0
 62
7
  6
CONTINUOUS
 10
145.0170249981
 20
83.4819452399
  0
SEQEND
  0
POLYLINE
  8
0
 62
7
  6
CONTINUOUS
 66
1
 70
0
  0
VERTEX
  8
0
 62
7
  6
CONTINUOUS
 10
144.7975257844
 20
97.4227061459
  0
VERTEX
  8
0
 62
7
  6
CONTINUOUS
 10
144.8470980373
 20
97.2498803197
  0
VERTEX
  8
0
 62
7
  6
CONTINUOUS
 10
144.8767543575
 20
97.1421923222
  0
VERTEX
  8
0
 62
7
  6
CONTINUOUS
 10
144.9088700224
 20
97.0166649906
  0
VERTEX
  8
0
 62
7
  6
CONTINUOUS
 10
144.9417397532
 20
96.8717804799
  0
VERTEX
  8
0
 62
7
  6
CONTINUOUS
 10
144.9728101384
 20
96.7061359762
  0
VERTEX
  8
0
 62
7
  6
CONTINUOUS
 10
144.9984328407
 20
96.5195587873
  0
VERTEX
  8
0
 62
7
  6
CONTINUOUS
 10
145.0140918715
 20
96.3155361238
  0
VERTEX
  8
0
 62
7
  6
CONTINUOUS
 10
145.0170249981
 20
96.1819452399
  0
SEQEND
  0
POLYLINE
  8
0
 62
7
  6
CONTINUOUS
 66
1
 70
0
  0
VERTEX
  8
0
 62
7
  6
CONTINUOUS
 10
153.4362872833
 20
68.9447548801
  0
VERTEX
  8
0
 62
7
  6
CONTINUOUS
 10
153.3867045417
 20
69.1176234925
  0
VERTEX
  8
0
 62
7
  6
CONTINUOUS
 10
153.3570673425
 20
69.225281623
  0
VERTEX
  8
0
 62
7
  6
CONTINUOUS
 10
153.3249601801
 20
69.3508054105
  0
VERTEX
  8
0
 62
7
  6
CONTINUOUS
 10
153.2921154066
 20
69.4956654278
  0
VERTEX
  8
0
 62
7
  6
CONTINUOUS
 10
153.261080118
 20
69.6612355301
  0
VERTEX
  8
0
 62
7
  6
CONTINUOUS
 10
153.2354926911
 20
69.8476769498
  0
VERTEX
  8
0
 62
7
  6
CONTINUOUS
 10
153.2198583354
 20
70.051536644
  0
VERTEX
  8
0
 62
7
  6
CONTINUOUS
 10
153.2169253322
 20
70.1850272365
  0
SEQEND
  0
LINE
  8
0
 62
7
  6
CONTINUOUS
 10
145.190471412
 20
51.5214209512
 11
144.716977053
 21
56.9334862385
  0
LINE
  8
0
 62
7
  6
CONTINUOUS
 10
137.216977053
 20
126.3334862385
 11
137.216977053
 21
128.9334862385
  0
LINE
  8
0
 62
7
  6
CONTINUOUS
 10
137.216977053
 20
164.4334862385
 11
137.216977053
 21
167.0334862385
  0
LINE
  8
0
 62
7
  6
CONTINUOUS
 10
145.190471412
 20
241.8455515259
 11
144.716977053
 21
236.4334862385
  0
POLYLINE
  8
0
 62
7
  6
CONTINUOUS
 66
1
 70
0
  0
VERTEX
  8
0
 62
7
  6
CONTINUOUS
 10
144.7885783781
 20
183.212802067
  0
VERTEX
  8
0
 62
7
  6
CONTINUOUS
 10
144.7685576787
 20
183.1399222314
  0
VERTEX
  8
0
 62
7
  6
CONTINUOUS
 10
144.751305217
 20
183.0712179939
  0
VERTEX
  8
0
 62
7
  6
CONTINUOUS
 10
144.7360510154
 20
182.9992308843
  0
VERTEX
  8
0
 62
7
  6
CONTINUOUS
 10
144.7237396541
 20
182.918241574
  0
VERTEX
  8
0
 62
7
  6
CONTINUOUS
 10
144.7171638406
 20
182.822055228
  0
SEQEND
  0
POLYLINE
  8
0
 62
7
  6
CONTINUOUS
 66
1
 70
0
  0
VERTEX
  8
0
 62
7
  6
CONTINUOUS
 10
153.4454156703
 20
211.7543085062
  0
VERTEX
  8
0
 62
7
  6
CONTINUOUS
 10
153.4654278373
 20
211.82717541
  0
VERTEX
  8
0
 62
7
  6
CONTINUOUS
 10
153.4826750252
 20
211.8958662717
  0
VERTEX
  8
0
 62
7
  6
CONTINUOUS
 10
153.4979416834
 20
211.9679524621
  0
VERTEX
  8
0
 62
7
  6
CONTINUOUS
 10
153.5102399859
 20
212.0489712793
  0
VERTEX
  8
0
 62
7
  6
CONTINUOUS
 10
153.5167919049
 20
212.1451181557
  0
SEQEND
  0
POLYLINE
  8
0
 62
7
  6
CONTINUOUS
 66
1
 70
0
  0
VERTEX
  8
0
 62
7
  6
CONTINUOUS
 10
144.7885783781
 20
170.512802067
  0
VERTEX
  8
0
 62
7
  6
CONTINUOUS
 10
144.7685576787
 20
170.4399222314
  0
VERTEX
  8
0
 62
7
  6
CONTINUOUS
 10
144.751305217
 20
170.3712179939
  0
VERTEX
  8
0
 62
7
  6
CONTINUOUS
 10
144.7360510154
 20
170.2992308843
  0
VERTEX
  8
0
 62
7
  6
CONTINUOUS
 10
144.7237396541
 20
170.218241574
  0
VERTEX
  8
0
 62
7
  6
CONTINUOUS
 10
144.7171638406
 20
170.122055228
  0
SEQEND
  0
POLYLINE
  8
0
 62
7
  6
CONTINUOUS
 66
1
 70
0
  0
VERTEX
  8
0
 62
7
  6
CONTINUOUS
 10
153.4454156703
 20
199.0543085062
  0
VERTEX
  8
0
 62
7
  6
CONTINUOUS
 10
153.4654278373
 20
199.12717541
  0
VERTEX
  8
0
 62
7
  6
CONTINUOUS
 10
153.4826750252
 20
199.1958662717
  0
VERTEX
  8
0
 62
7
  6
CONTINUOUS
 10
153.4979416834
 20
199.2679524621
  0
VERTEX
  8
0
 62
7
  6
CONTINUOUS
 10
153.5102399859
 20
199.3489712793
  0
VERTEX
  8
0
 62
7
  6
CONTINUOUS
 10
153.5167919049
 20
199.4451181557
  0
SEQEND
  0
POLYLINE
  8
0
 62
7
  6
CONTINUOUS
 66
1
 70
0
  0
VERTEX
  8
0
 62
7
  6
CONTINUOUS
 10
144.8036980929
 20
163.863329159
  0
VERTEX
  8
0
 62
7
  6
CONTINUOUS
 10
144.7551321226
 20
163.7673521671
  0
VERTEX
  8
0
 62
7
  6
CONTINUOUS
 10
144.726421273
 20
163.6786964289
  0
VERTEX
  8
0
 62
7
  6
CONTINUOUS
 10
144.716977053
 20
163.5999365568
  0
SEQEND
  0
LINE
  8
0
 62
7
  6
CONTINUOUS
 10
152.666977053
 20
136.9834862385
 11
145.566977053
 21
136.9834862385
  0
POLYLINE
  8
0
 62
7
  6
CONTINUOUS
 66
1
 70
0
  0
VERTEX
  8
0
 62
7
  6
CONTINUOUS
 10
144.8036980926
 20
129.5036433186
  0
VERTEX
  8
0
 62
7
  6
CONTINUOUS
 10
144.8252818295
 20
129.457362141
  0
VERTEX
  8
0
 62
7
  6
CONTINUOUS
 10
144.83634995
 20
129.4103916584
  0
SEQEND
  0
POLYLINE
  8
0
 62
7
  6
CONTINUOUS
 66
1
 70
0
  0
VERTEX
  8
0
 62
7
  6
CONTINUOUS
 10
144.7975257844
 20
110.1227061459
  0
VERTEX
  8
0
 62
7
  6
CONTINUOUS
 10
144.8470980373
 20
109.9498803197
  0
VERTEX
  8
0
 62
7
  6
CONTINUOUS
 10
144.8767543575
 20
109.8421923222
  0
VERTEX
  8
0
 62
7
  6
CONTINUOUS
 10
144.9088700224
 20
109.7166649906
  0
VERTEX
  8
0
 62
7
  6
CONTINUOUS
 10
144.9417397532
 20
109.5717804799
  0
VERTEX
  8
0
 62
7
  6
CONTINUOUS
 10
144.9728101384
 20
109.4061359762
  0
VERTEX
  8
0
 62
7
  6
CONTINUOUS
 10
144.9984328407
 20
109.2195587873
  0
VERTEX
  8
0
 62
7
  6
CONTINUOUS
 10
145.0140918715
 20
109.0155361238
  0
VERTEX
  8
0
 62
7
  6
CONTINUOUS
 10
145.0170249981
 20
108.8819452399
  0
SEQEND
  0
POLYLINE
  8
0
 62
7
  6
CONTINUOUS
 66
1
 70
0
  0
VERTEX
  8
0
 62
7
  6
CONTINUOUS
 10
153.4362872833
 20
81.6447548801
  0
VERTEX
  8
0
 62
7
  6
CONTINUOUS
 10
153.3867045417
 20
81.8176234925
  0
VERTEX
  8
0
 62
7
  6
CONTINUOUS
 10
153.3570673425
 20
81.925281623
  0
VERTEX
  8
0
 62
7
  6
CONTINUOUS
 10
153.3249601801
 20
82.0508054105
  0
VERTEX
  8
0
 62
7
  6
CONTINUOUS
 10
153.2921154066
 20
82.1956654278
  0
VERTEX
  8
0
 62
7
  6
CONTINUOUS
 10
153.261080118
 20
82.3612355301
  0
VERTEX
  8
0
 62
7
  6
CONTINUOUS
 10
153.2354926911
 20
82.5476769498
  0
VERTEX
  8
0
 62
7
  6
CONTINUOUS
 10
153.2198583354
 20
82.751536644
  0
VERTEX
  8
0
 62
7
  6
CONTINUOUS
 10
153.2169253322
 20
82.8850272365
  0
SEQEND
  0
POLYLINE
  8
0
 62
7
  6
CONTINUOUS
 66
1
 70
0
  0
VERTEX
  8
0
 62
7
  6
CONTINUOUS
 10
144.7975257844
 20
122.8227061459
  0
VERTEX
  8
0
 62
7
  6
CONTINUOUS
 10
144.8470980373
 20
122.6498803197
  0
VERTEX
  8
0
 62
7
  6
CONTINUOUS
 10
144.8767543575
 20
122.5421923222
  0
VERTEX
  8
0
 62
7
  6
CONTINUOUS
 10
144.9088700224
 20
122.4166649906
  0
VERTEX
  8
0
 62
7
  6
CONTINUOUS
 10
144.9417397532
 20
122.2717804799
  0
VERTEX
  8
0
 62
7
  6
CONTINUOUS
 10
144.9728101384
 20
122.1061359762
  0
VERTEX
  8
0
 62
7
  6
CONTINUOUS
 10
144.9984328407
 20
121.9195587873
  0
VERTEX
  8
0
 62
7
  6
CONTINUOUS
 10
145.0140918715
 20
121.7155361238
  0
VERTEX
  8
0
 62
7
  6
CONTINUOUS
 10
145.0170249981
 20
121.5819452399
  0
SEQEND
  0
POLYLINE
  8
0
 62
7
  6
CONTINUOUS
 66
1
 70
0
  0
VERTEX
  8
0
 62
7
  6
CONTINUOUS
 10
153.4362872833
 20
94.3447548801
  0
VERTEX
  8
0
 62
7
  6
CONTINUOUS
 10
153.3867045417
 20
94.5176234925
  0
VERTEX
  8
0
 62
7
  6
CONTINUOUS
 10
153.3570673425
 20
94.625281623
  0
VERTEX
  8
0
 62
7
  6
CONTINUOUS
 10
153.3249601801
 20
94.7508054105
  0
VERTEX
  8
0
 62
7
  6
CONTINUOUS
 10
153.2921154066
 20
94.8956654278
  0
VERTEX
  8
0
 62
7
  6
CONTINUOUS
 10
153.261080118
 20
95.0612355301
  0
VERTEX
  8
0
 62
7
  6
CONTINUOUS
 10
153.2354926911
 20
95.2476769498
  0
VERTEX
  8
0
 62
7
  6
CONTINUOUS
 10
153.2198583354
 20
95.451536644
  0
VERTEX
  8
0
 62
7
  6
CONTINUOUS
 10
153.2169253322
 20
95.5850272365
  0
SEQEND
  0
POLYLINE
  8
0
 62
7
  6
CONTINUOUS
 66
1
 70
0
  0
VERTEX
  8
0
 62
7
  6
CONTINUOUS
 10
144.83634995
 20
129.4103916584
  0
VERTEX
  8
0
 62
7
  6
CONTINUOUS
 10
144.8528098396
 20
129.2581192059
  0
VERTEX
  8
0
 62
7
  6
CONTINUOUS
 10
144.8633485816
 20
129.0975293817
  0
VERTEX
  8
0
 62
7
  6
CONTINUOUS
 10
144.8669559943
 20
128.9334862385
  0
SEQEND
  0
POLYLINE
  8
0
 62
7
  6
CONTINUOUS
 66
1
 70
0
  0
VERTEX
  8
0
 62
7
  6
CONTINUOUS
 10
144.7169878278
 20
72.4621938674
  0
VERTEX
  8
0
 62
7
  6
CONTINUOUS
 10
144.720725396
 20
72.3784479804
  0
VERTEX
  8
0
 62
7
  6
CONTINUOUS
 10
144.7308845208
 20
72.2974206545
  0
VERTEX
  8
0
 62
7
  6
CONTINUOUS
 10
144.7443697391
 20
72.2264702636
  0
VERTEX
  8
0
 62
7
  6
CONTINUOUS
 10
144.7597806955
 20
72.160983368
  0
VERTEX
  8
0
 62
7
  6
CONTINUOUS
 10
144.7772725891
 20
72.0947468999
  0
VERTEX
  8
0
 62
7
  6
CONTINUOUS
 10
144.7975257844
 20
72.0227061459
  0
SEQEND
  0
POLYLINE
  8
0
 62
7
  6
CONTINUOUS
 66
1
 70
0
  0
VERTEX
  8
0
 62
7
  6
CONTINUOUS
 10
144.7169878278
 20
85.1621938674
  0
VERTEX
  8
0
 62
7
  6
CONTINUOUS
 10
144.720725396
 20
85.0784479804
  0
VERTEX
  8
0
 62
7
  6
CONTINUOUS
 10
144.7308845208
 20
84.9974206545
  0
VERTEX
  8
0
 62
7
  6
CONTINUOUS
 10
144.7443697391
 20
84.9264702636
  0
VERTEX
  8
0
 62
7
  6
CONTINUOUS
 10
144.7597806955
 20
84.860983368
  0
VERTEX
  8
0
 62
7
  6
CONTINUOUS
 10
144.7772725891
 20
84.7947468999
  0
VERTEX
  8
0
 62
7
  6
CONTINUOUS
 10
144.7975257844
 20
84.7227061459
  0
SEQEND
  0
POLYLINE
  8
0
 62
7
  6
CONTINUOUS
 66
1
 70
0
  0
VERTEX
  8
0
 62
7
  6
CONTINUOUS
 10
144.7169878278
 20
97.8621938674
  0
VERTEX
  8
0
 62
7
  6
CONTINUOUS
 10
144.720725396
 20
97.7784479804
  0
VERTEX
  8
0
 62
7
  6
CONTINUOUS
 10
144.7308845208
 20
97.6974206545
  0
VERTEX
  8
0
 62
7
  6
CONTINUOUS
 10
144.7443697391
 20
97.6264702636
  0
VERTEX
  8
0
 62
7
  6
CONTINUOUS
 10
144.7597806955
 20
97.560983368
  0
VERTEX
  8
0
 62
7
  6
CONTINUOUS
 10
144.7772725891
 20
97.4947468999
  0
VERTEX
  8
0
 62
7
  6
CONTINUOUS
 10
144.7975257844
 20
97.4227061459
  0
SEQEND
  0
POLYLINE
  8
0
 62
7
  6
CONTINUOUS
 66
1
 70
0
  0
VERTEX
  8
0
 62
7
  6
CONTINUOUS
 10
144.7169878278
 20
110.5621938674
  0
VERTEX
  8
0
 62
7
  6
CONTINUOUS
 10
144.720725396
 20
110.4784479804
  0
VERTEX
  8
0
 62
7
  6
CONTINUOUS
 10
144.7308845208
 20
110.3974206545
  0
VERTEX
  8
0
 62
7
  6
CONTINUOUS
 10
144.7443697391
 20
110.3264702636
  0
VERTEX
  8
0
 62
7
  6
CONTINUOUS
 10
144.7597806955
 20
110.260983368
  0
VERTEX
  8
0
 62
7
  6
CONTINUOUS
 10
144.7772725891
 20
110.1947468999
  0
VERTEX
  8
0
 62
7
  6
CONTINUOUS
 10
144.7975257844
 20
110.1227061459
  0
SEQEND
  0
POLYLINE
  8
0
 62
7
  6
CONTINUOUS
 66
1
 70
0
  0
VERTEX
  8
0
 62
7
  6
CONTINUOUS
 10
144.7169878278
 20
123.2621938674
  0
VERTEX
  8
0
 62
7
  6
CONTINUOUS
 10
144.720725396
 20
123.1784479804
  0
VERTEX
  8
0
 62
7
  6
CONTINUOUS
 10
144.7308845208
 20
123.0974206545
  0
VERTEX
  8
0
 62
7
  6
CONTINUOUS
 10
144.7443697391
 20
123.0264702636
  0
VERTEX
  8
0
 62
7
  6
CONTINUOUS
 10
144.7597806955
 20
122.960983368
  0
VERTEX
  8
0
 62
7
  6
CONTINUOUS
 10
144.7772725891
 20
122.8947468999
  0
VERTEX
  8
0
 62
7
  6
CONTINUOUS
 10
144.7975257844
 20
122.8227061459
  0
SEQEND
  0
POLYLINE
  8
0
 62
7
  6
CONTINUOUS
 66
1
 70
0
  0
VERTEX
  8
0
 62
7
  6
CONTINUOUS
 10
144.7169878278
 20
135.9621938674
  0
VERTEX
  8
0
 62
7
  6
CONTINUOUS
 10
144.720725396
 20
135.8784479804
  0
VERTEX
  8
0
 62
7
  6
CONTINUOUS
 10
144.7308845208
 20
135.7974206545
  0
VERTEX
  8
0
 62
7
  6
CONTINUOUS
 10
144.7443697391
 20
135.7264702636
  0
VERTEX
  8
0
 62
7
  6
CONTINUOUS
 10
144.7597806955
 20
135.660983368
  0
VERTEX
  8
0
 62
7
  6
CONTINUOUS
 10
144.7772725891
 20
135.5947468999
  0
VERTEX
  8
0
 62
7
  6
CONTINUOUS
 10
144.7975257844
 20
135.5227061459
  0
SEQEND
  0
POLYLINE
  8
0
 62
7
  6
CONTINUOUS
 66
1
 70
0
  0
VERTEX
  8
0
 62
7
  6
CONTINUOUS
 10
144.7169878278
 20
148.6621938674
  0
VERTEX
  8
0
 62
7
  6
CONTINUOUS
 10
144.720725396
 20
148.5784479804
  0
VERTEX
  8
0
 62
7
  6
CONTINUOUS
 10
144.7308845208
 20
148.4974206545
  0
VERTEX
  8
0
 62
7
  6
CONTINUOUS
 10
144.7443697391
 20
148.4264702636
  0
VERTEX
  8
0
 62
7
  6
CONTINUOUS
 10
144.7597806955
 20
148.360983368
  0
VERTEX
  8
0
 62
7
  6
CONTINUOUS
 10
144.7772725891
 20
148.2947468999
  0
VERTEX
  8
0
 62
7
  6
CONTINUOUS
 10
144.7975257844
 20
148.2227061459
  0
SEQEND
  0
POLYLINE
  8
0
 62
7
  6
CONTINUOUS
 66
1
 70
0
  0
VERTEX
  8
0
 62
7
  6
CONTINUOUS
 10
144.7169878278
 20
161.3621938674
  0
VERTEX
  8
0
 62
7
  6
CONTINUOUS
 10
144.720725396
 20
161.2784479804
  0
VERTEX
  8
0
 62
7
  6
CONTINUOUS
 10
144.7308845208
 20
161.1974206545
  0
VERTEX
  8
0
 62
7
  6
CONTINUOUS
 10
144.7443697391
 20
161.1264702636
  0
VERTEX
  8
0
 62
7
  6
CONTINUOUS
 10
144.7597806955
 20
161.060983368
  0
VERTEX
  8
0
 62
7
  6
CONTINUOUS
 10
144.7772725891
 20
160.9947468999
  0
VERTEX
  8
0
 62
7
  6
CONTINUOUS
 10
144.7975257844
 20
160.9227061459
  0
SEQEND
  0
POLYLINE
  8
0
 62
7
  6
CONTINUOUS
 66
1
 70
0
  0
VERTEX
  8
0
 62
7
  6
CONTINUOUS
 10
144.7169878278
 20
174.0621938674
  0
VERTEX
  8
0
 62
7
  6
CONTINUOUS
 10
144.720725396
 20
173.9784479804
  0
VERTEX
  8
0
 62
7
  6
CONTINUOUS
 10
144.7308845208
 20
173.8974206545
  0
VERTEX
  8
0
 62
7
  6
CONTINUOUS
 10
144.7443697391
 20
173.8264702636
  0
VERTEX
  8
0
 62
7
  6
CONTINUOUS
 10
144.7597806955
 20
173.760983368
  0
VERTEX
  8
0
 62
7
  6
CONTINUOUS
 10
144.7772725891
 20
173.6947468999
  0
VERTEX
  8
0
 62
7
  6
CONTINUOUS
 10
144.7975257844
 20
173.6227061459
  0
SEQEND
  0
LINE
  8
0
 62
7
  6
CONTINUOUS
 10
144.716977053
 20
56.9334862385
 11
144.716977053
 21
125.4999365568
  0
LINE
  8
0
 62
7
  6
CONTINUOUS
 10
144.716977053
 20
129.7670359202
 11
144.716977053
 21
163.5999365568
  0
LINE
  8
0
 62
7
  6
CONTINUOUS
 10
144.716977053
 20
167.8670359202
 11
144.716977053
 21
236.4334862385
  0
LINE
  8
0
 62
4
  6
CONTINUOUS
 10
144.7836124206
 20
61.4334862385
 11
144.7836124206
 21
64.4334862385
  0
LINE
  8
0
 62
7
  6
CONTINUOUS
 10
144.8669559943
 20
167.0334862385
 11
144.8669559943
 21
164.4334862385
  0
LINE
  8
0
 62
7
  6
CONTINUOUS
 10
144.8669559943
 20
128.9334862385
 11
144.8669559943
 21
126.3334862385
  0
LINE
  8
0
 62
7
  6
CONTINUOUS
 10
145.0170247752
 20
223.1819452398
 11
145.0170247752
 21
222.5850278268
  0
LINE
  8
0
 62
7
  6
CONTINUOUS
 10
145.0170247752
 20
210.4819452398
 11
145.0170247752
 21
209.8850278268
  0
LINE
  8
0
 62
7
  6
CONTINUOUS
 10
145.0170247752
 20
197.7819452398
 11
145.0170247752
 21
197.1850278268
  0
LINE
  8
0
 62
7
  6
CONTINUOUS
 10
145.0170247752
 20
185.0819452398
 11
145.0170247752
 21
184.4850278268
  0
LINE
  8
0
 62
7
  6
CONTINUOUS
 10
145.0170247752
 20
172.3819452398
 11
145.0170247752
 21
171.7850278268
  0
LINE
  8
0
 62
7
  6
CONTINUOUS
 10
145.0170247752
 20
159.6819452398
 11
145.0170247752
 21
159.0850278268
  0
LINE
  8
0
 62
7
  6
CONTINUOUS
 10
145.0170247752
 20
146.9819452398
 11
145.0170247752
 21
146.3850278268
  0
LINE
  8
0
 62
7
  6
CONTINUOUS
 10
145.0170247752
 20
134.2819452398
 11
145.0170247752
 21
133.6850278268
  0
LINE
  8
0
 62
7
  6
CONTINUOUS
 10
145.0170247752
 20
121.5819452398
 11
145.0170247752
 21
120.9850278268
  0
LINE
  8
0
 62
7
  6
CONTINUOUS
 10
145.0170247752
 20
108.8819452398
 11
145.0170247752
 21
108.2850278268
  0
LINE
  8
0
 62
7
  6
CONTINUOUS
 10
145.0170247752
 20
96.1819452398
 11
145.0170247752
 21
95.5850278268
  0
LINE
  8
0
 62
7
  6
CONTINUOUS
 10
145.0170247752
 20
83.4819452398
 11
145.0170247752
 21
82.8850278268
  0
LINE
  8
0
 62
7
  6
CONTINUOUS
 10
145.0170247752
 20
70.7819452398
 11
145.0170247752
 21
70.1850278268
  0
LINE
  8
0
 62
7
  6
CONTINUOUS
 10
144.7171638406
 20
220.922055228
 11
144.716987284
 21
220.9048984945
  0
LINE
  8
0
 62
7
  6
CONTINUOUS
 10
144.7171638406
 20
208.222055228
 11
144.716987284
 21
208.2048984945
  0
LINE
  8
0
 62
7
  6
CONTINUOUS
 10
144.7171638406
 20
195.522055228
 11
144.716987284
 21
195.5048984945
  0
LINE
  8
0
 62
7
  6
CONTINUOUS
 10
144.7171638406
 20
182.822055228
 11
144.716987284
 21
182.8048984945
  0
LINE
  8
0
 62
7
  6
CONTINUOUS
 10
144.7171638406
 20
170.122055228
 11
144.716987284
 21
170.1048984945
  0
LINE
  8
0
 62
7
  6
CONTINUOUS
 10
144.7171638406
 20
157.422055228
 11
144.716987284
 21
157.4048984945
  0
LINE
  8
0
 62
7
  6
CONTINUOUS
 10
144.7171638406
 20
144.722055228
 11
144.716987284
 21
144.7048984945
  0
LINE
  8
0
 62
7
  6
CONTINUOUS
 10
144.7171638406
 20
132.022055228
 11
144.716987284
 21
132.0048984945
  0
LINE
  8
0
 62
7
  6
CONTINUOUS
 10
144.7171638406
 20
119.322055228
 11
144.716987284
 21
119.3048984945
  0
LINE
  8
0
 62
7
  6
CONTINUOUS
 10
144.7171638406
 20
106.622055228
 11
144.716987284
 21
106.6048984945
  0
LINE
  8
0
 62
7
  6
CONTINUOUS
 10
144.7171638406
 20
93.922055228
 11
144.716987284
 21
93.9048984945
  0
LINE
  8
0
 62
7
  6
CONTINUOUS
 10
144.7171638406
 20
81.222055228
 11
144.716987284
 21
81.2048984945
  0
LINE
  8
0
 62
7
  6
CONTINUOUS
 10
144.7171638406
 20
68.522055228
 11
144.716987284
 21
68.5048984945
  0
POLYLINE
  8
0
 62
7
  6
CONTINUOUS
 66
1
 70
0
  0
VERTEX
  8
0
 62
7
  6
CONTINUOUS
 10
144.8669559943
 20
164.4334862385
  0
VERTEX
  8
0
 62
7
  6
CONTINUOUS
 10
144.863348585
 20
164.2694431719
  0
VERTEX
  8
0
 62
7
  6
CONTINUOUS
 10
144.8528127217
 20
164.10888628
  0
VERTEX
  8
0
 62
7
  6
CONTINUOUS
 10
144.8363499501
 20
163.9565808199
  0
SEQEND
  0
POLYLINE
  8
0
 62
7
  6
CONTINUOUS
 66
1
 70
0
  0
VERTEX
  8
0
 62
7
  6
CONTINUOUS
 10
144.8669559943
 20
126.3334862385
  0
VERTEX
  8
0
 62
7
  6
CONTINUOUS
 10
144.863348585
 20
126.1694431719
  0
VERTEX
  8
0
 62
7
  6
CONTINUOUS
 10
144.8528127217
 20
126.00888628
  0
VERTEX
  8
0
 62
7
  6
CONTINUOUS
 10
144.8363499501
 20
125.8565808199
  0
SEQEND
  0
POLYLINE
  8
0
 62
7
  6
CONTINUOUS
 66
1
 70
0
  0
VERTEX
  8
0
 62
7
  6
CONTINUOUS
 10
145.0170287303
 20
222.585027831
  0
VERTEX
  8
0
 62
7
  6
CONTINUOUS
 10
145.0140661268
 20
222.4508622362
  0
VERTEX
  8
0
 62
7
  6
CONTINUOUS
 10
144.9974437305
 20
222.2384594206
  0
VERTEX
  8
0
 62
7
  6
CONTINUOUS
 10
144.970047436
 20
222.0443121172
  0
VERTEX
  8
0
 62
7
  6
CONTINUOUS
 10
144.9369457395
 20
221.8726069189
  0
VERTEX
  8
0
 62
7
  6
CONTINUOUS
 10
144.9022268014
 20
221.7233239184
  0
VERTEX
  8
0
 62
7
  6
CONTINUOUS
 10
144.8687665861
 20
221.5951714283
  0
VERTEX
  8
0
 62
7
  6
CONTINUOUS
 10
144.8383892576
 20
221.4863931693
  0
VERTEX
  8
0
 62
7
  6
CONTINUOUS
 10
144.7885783781
 20
221.312802067
  0
SEQEND
  0
POLYLINE
  8
0
 62
7
  6
CONTINUOUS
 66
1
 70
0
  0
VERTEX
  8
0
 62
7
  6
CONTINUOUS
 10
145.0170287303
 20
209.885027831
  0
VERTEX
  8
0
 62
7
  6
CONTINUOUS
 10
145.0140661268
 20
209.7508622362
  0
VERTEX
  8
0
 62
7
  6
CONTINUOUS
 10
144.9974437305
 20
209.5384594206
  0
VERTEX
  8
0
 62
7
  6
CONTINUOUS
 10
144.970047436
 20
209.3443121172
  0
VERTEX
  8
0
 62
7
  6
CONTINUOUS
 10
144.9369457395
 20
209.1726069189
  0
VERTEX
  8
0
 62
7
  6
CONTINUOUS
 10
144.9022268014
 20
209.0233239184
  0
VERTEX
  8
0
 62
7
  6
CONTINUOUS
 10
144.8687665861
 20
208.8951714283
  0
VERTEX
  8
0
 62
7
  6
CONTINUOUS
 10
144.8383892576
 20
208.7863931693
  0
VERTEX
  8
0
 62
7
  6
CONTINUOUS
 10
144.7885783781
 20
208.612802067
  0
SEQEND
  0
POLYLINE
  8
0
 62
7
  6
CONTINUOUS
 66
1
 70
0
  0
VERTEX
  8
0
 62
7
  6
CONTINUOUS
 10
145.0170287303
 20
197.185027831
  0
VERTEX
  8
0
 62
7
  6
CONTINUOUS
 10
145.0140661268
 20
197.0508622362
  0
VERTEX
  8
0
 62
7
  6
CONTINUOUS
 10
144.9974437305
 20
196.8384594206
  0
VERTEX
  8
0
 62
7
  6
CONTINUOUS
 10
144.970047436
 20
196.6443121172
  0
VERTEX
  8
0
 62
7
  6
CONTINUOUS
 10
144.9369457395
 20
196.4726069189
  0
VERTEX
  8
0
 62
7
  6
CONTINUOUS
 10
144.9022268014
 20
196.3233239184
  0
VERTEX
  8
0
 62
7
  6
CONTINUOUS
 10
144.8687665861
 20
196.1951714283
  0
VERTEX
  8
0
 62
7
  6
CONTINUOUS
 10
144.8383892576
 20
196.0863931693
  0
VERTEX
  8
0
 62
7
  6
CONTINUOUS
 10
144.7885783781
 20
195.912802067
  0
SEQEND
  0
POLYLINE
  8
0
 62
7
  6
CONTINUOUS
 66
1
 70
0
  0
VERTEX
  8
0
 62
7
  6
CONTINUOUS
 10
145.0170287303
 20
184.485027831
  0
VERTEX
  8
0
 62
7
  6
CONTINUOUS
 10
145.0140661268
 20
184.3508622362
  0
VERTEX
  8
0
 62
7
  6
CONTINUOUS
 10
144.9974437305
 20
184.1384594206
  0
VERTEX
  8
0
 62
7
  6
CONTINUOUS
 10
144.970047436
 20
183.9443121172
  0
VERTEX
  8
0
 62
7
  6
CONTINUOUS
 10
144.9369457395
 20
183.7726069189
  0
VERTEX
  8
0
 62
7
  6
CONTINUOUS
 10
144.9022268014
 20
183.6233239184
  0
VERTEX
  8
0
 62
7
  6
CONTINUOUS
 10
144.8687665861
 20
183.4951714283
  0
VERTEX
  8
0
 62
7
  6
CONTINUOUS
 10
144.8383892576
 20
183.3863931693
  0
VERTEX
  8
0
 62
7
  6
CONTINUOUS
 10
144.7885783781
 20
183.212802067
  0
SEQEND
  0
POLYLINE
  8
0
 62
7
  6
CONTINUOUS
 66
1
 70
0
  0
VERTEX
  8
0
 62
7
  6
CONTINUOUS
 10
145.0170287303
 20
171.785027831
  0
VERTEX
  8
0
 62
7
  6
CONTINUOUS
 10
145.0140661268
 20
171.6508622362
  0
VERTEX
  8
0
 62
7
  6
CONTINUOUS
 10
144.9974437305
 20
171.4384594206
  0
VERTEX
  8
0
 62
7
  6
CONTINUOUS
 10
144.970047436
 20
171.2443121172
  0
VERTEX
  8
0
 62
7
  6
CONTINUOUS
 10
144.9369457395
 20
171.0726069189
  0
VERTEX
  8
0
 62
7
  6
CONTINUOUS
 10
144.9022268014
 20
170.9233239184
  0
VERTEX
  8
0
 62
7
  6
CONTINUOUS
 10
144.8687665861
 20
170.7951714283
  0
VERTEX
  8
0
 62
7
  6
CONTINUOUS
 10
144.8383892576
 20
170.6863931693
  0
VERTEX
  8
0
 62
7
  6
CONTINUOUS
 10
144.7885783781
 20
170.512802067
  0
SEQEND
  0
POLYLINE
  8
0
 62
7
  6
CONTINUOUS
 66
1
 70
0
  0
VERTEX
  8
0
 62
7
  6
CONTINUOUS
 10
145.0170287303
 20
159.085027831
  0
VERTEX
  8
0
 62
7
  6
CONTINUOUS
 10
145.0140661268
 20
158.9508622362
  0
VERTEX
  8
0
 62
7
  6
CONTINUOUS
 10
144.9974437305
 20
158.7384594206
  0
VERTEX
  8
0
 62
7
  6
CONTINUOUS
 10
144.970047436
 20
158.5443121172
  0
VERTEX
  8
0
 62
7
  6
CONTINUOUS
 10
144.9369457395
 20
158.3726069189
  0
VERTEX
  8
0
 62
7
  6
CONTINUOUS
 10
144.9022268014
 20
158.2233239184
  0
VERTEX
  8
0
 62
7
  6
CONTINUOUS
 10
144.8687665861
 20
158.0951714283
  0
VERTEX
  8
0
 62
7
  6
CONTINUOUS
 10
144.8383892576
 20
157.9863931693
  0
VERTEX
  8
0
 62
7
  6
CONTINUOUS
 10
144.7885783781
 20
157.812802067
  0
SEQEND
  0
POLYLINE
  8
0
 62
7
  6
CONTINUOUS
 66
1
 70
0
  0
VERTEX
  8
0
 62
7
  6
CONTINUOUS
 10
145.0170287303
 20
146.385027831
  0
VERTEX
  8
0
 62
7
  6
CONTINUOUS
 10
145.0140661268
 20
146.2508622362
  0
VERTEX
  8
0
 62
7
  6
CONTINUOUS
 10
144.9974437305
 20
146.0384594206
  0
VERTEX
  8
0
 62
7
  6
CONTINUOUS
 10
144.970047436
 20
145.8443121172
  0
VERTEX
  8
0
 62
7
  6
CONTINUOUS
 10
144.9369457395
 20
145.6726069189
  0
VERTEX
  8
0
 62
7
  6
CONTINUOUS
 10
144.9022268014
 20
145.5233239184
  0
VERTEX
  8
0
 62
7
  6
CONTINUOUS
 10
144.8687665861
 20
145.3951714283
  0
VERTEX
  8
0
 62
7
  6
CONTINUOUS
 10
144.8383892576
 20
145.2863931693
  0
VERTEX
  8
0
 62
7
  6
CONTINUOUS
 10
144.7885783781
 20
145.112802067
  0
SEQEND
  0
POLYLINE
  8
0
 62
7
  6
CONTINUOUS
 66
1
 70
0
  0
VERTEX
  8
0
 62
7
  6
CONTINUOUS
 10
145.0170287303
 20
133.685027831
  0
VERTEX
  8
0
 62
7
  6
CONTINUOUS
 10
145.0140661268
 20
133.5508622362
  0
VERTEX
  8
0
 62
7
  6
CONTINUOUS
 10
144.9974437305
 20
133.3384594206
  0
VERTEX
  8
0
 62
7
  6
CONTINUOUS
 10
144.970047436
 20
133.1443121172
  0
VERTEX
  8
0
 62
7
  6
CONTINUOUS
 10
144.9369457395
 20
132.9726069189
  0
VERTEX
  8
0
 62
7
  6
CONTINUOUS
 10
144.9022268014
 20
132.8233239184
  0
VERTEX
  8
0
 62
7
  6
CONTINUOUS
 10
144.8687665861
 20
132.6951714283
  0
VERTEX
  8
0
 62
7
  6
CONTINUOUS
 10
144.8383892576
 20
132.5863931693
  0
VERTEX
  8
0
 62
7
  6
CONTINUOUS
 10
144.7885783781
 20
132.412802067
  0
SEQEND
  0
POLYLINE
  8
0
 62
7
  6
CONTINUOUS
 66
1
 70
0
  0
VERTEX
  8
0
 62
7
  6
CONTINUOUS
 10
145.0170287303
 20
120.985027831
  0
VERTEX
  8
0
 62
7
  6
CONTINUOUS
 10
145.0140661268
 20
120.8508622362
  0
VERTEX
  8
0
 62
7
  6
CONTINUOUS
 10
144.9974437305
 20
120.6384594206
  0
VERTEX
  8
0
 62
7
  6
CONTINUOUS
 10
144.970047436
 20
120.4443121172
  0
VERTEX
  8
0
 62
7
  6
CONTINUOUS
 10
144.9369457395
 20
120.2726069189
  0
VERTEX
  8
0
 62
7
  6
CONTINUOUS
 10
144.9022268014
 20
120.1233239184
  0
VERTEX
  8
0
 62
7
  6
CONTINUOUS
 10
144.8687665861
 20
119.9951714283
  0
VERTEX
  8
0
 62
7
  6
CONTINUOUS
 10
144.8383892576
 20
119.8863931693
  0
VERTEX
  8
0
 62
7
  6
CONTINUOUS
 10
144.7885783781
 20
119.712802067
  0
SEQEND
  0
POLYLINE
  8
0
 62
7
  6
CONTINUOUS
 66
1
 70
0
  0
VERTEX
  8
0
 62
7
  6
CONTINUOUS
 10
145.0170287303
 20
108.285027831
  0
VERTEX
  8
0
 62
7
  6
CONTINUOUS
 10
145.0140661268
 20
108.1508622362
  0
VERTEX
  8
0
 62
7
  6
CONTINUOUS
 10
144.9974437305
 20
107.9384594206
  0
VERTEX
  8
0
 62
7
  6
CONTINUOUS
 10
144.970047436
 20
107.7443121172
  0
VERTEX
  8
0
 62
7
  6
CONTINUOUS
 10
144.9369457395
 20
107.5726069189
  0
VERTEX
  8
0
 62
7
  6
CONTINUOUS
 10
144.9022268014
 20
107.4233239184
  0
VERTEX
  8
0
 62
7
  6
CONTINUOUS
 10
144.8687665861
 20
107.2951714283
  0
VERTEX
  8
0
 62
7
  6
CONTINUOUS
 10
144.8383892576
 20
107.1863931693
  0
VERTEX
  8
0
 62
7
  6
CONTINUOUS
 10
144.7885783781
 20
107.012802067
  0
SEQEND
  0
POLYLINE
  8
0
 62
7
  6
CONTINUOUS
 66
1
 70
0
  0
VERTEX
  8
0
 62
7
  6
CONTINUOUS
 10
145.0170287303
 20
95.585027831
  0
VERTEX
  8
0
 62
7
  6
CONTINUOUS
 10
145.0140661268
 20
95.4508622362
  0
VERTEX
  8
0
 62
7
  6
CONTINUOUS
 10
144.9974437305
 20
95.2384594206
  0
VERTEX
  8
0
 62
7
  6
CONTINUOUS
 10
144.970047436
 20
95.0443121172
  0
VERTEX
  8
0
 62
7
  6
CONTINUOUS
 10
144.9369457395
 20
94.8726069189
  0
VERTEX
  8
0
 62
7
  6
CONTINUOUS
 10
144.9022268014
 20
94.7233239184
  0
VERTEX
  8
0
 62
7
  6
CONTINUOUS
 10
144.8687665861
 20
94.5951714283
  0
VERTEX
  8
0
 62
7
  6
CONTINUOUS
 10
144.8383892576
 20
94.4863931693
  0
VERTEX
  8
0
 62
7
  6
CONTINUOUS
 10
144.7885783781
 20
94.312802067
  0
SEQEND
  0
POLYLINE
  8
0
 62
7
  6
CONTINUOUS
 66
1
 70
0
  0
VERTEX
  8
0
 62
7
  6
CONTINUOUS
 10
144.8363499501
 20
163.9565808199
  0
VERTEX
  8
0
 62
7
  6
CONTINUOUS
 10
144.8252872376
 20
163.9096259687
  0
VERTEX
  8
0
 62
7
  6
CONTINUOUS
 10
144.8036980929
 20
163.863329159
  0
SEQEND
  0
POLYLINE
  8
0
 62
7
  6
CONTINUOUS
 66
1
 70
0
  0
VERTEX
  8
0
 62
7
  6
CONTINUOUS
 10
144.7885783781
 20
157.812802067
  0
VERTEX
  8
0
 62
7
  6
CONTINUOUS
 10
144.7685576787
 20
157.7399222314
  0
VERTEX
  8
0
 62
7
  6
CONTINUOUS
 10
144.751305217
 20
157.6712179939
  0
VERTEX
  8
0
 62
7
  6
CONTINUOUS
 10
144.7360510154
 20
157.5992308843
  0
VERTEX
  8
0
 62
7
  6
CONTINUOUS
 10
144.7237396541
 20
157.518241574
  0
VERTEX
  8
0
 62
7
  6
CONTINUOUS
 10
144.7171638406
 20
157.422055228
  0
SEQEND
  0
POLYLINE
  8
0
 62
7
  6
CONTINUOUS
 66
1
 70
0
  0
VERTEX
  8
0
 62
7
  6
CONTINUOUS
 10
153.4454156703
 20
186.3543085062
  0
VERTEX
  8
0
 62
7
  6
CONTINUOUS
 10
153.4654278373
 20
186.42717541
  0
VERTEX
  8
0
 62
7
  6
CONTINUOUS
 10
153.4826750252
 20
186.4958662717
  0
VERTEX
  8
0
 62
7
  6
CONTINUOUS
 10
153.4979416834
 20
186.5679524621
  0
VERTEX
  8
0
 62
7
  6
CONTINUOUS
 10
153.5102399859
 20
186.6489712793
  0
VERTEX
  8
0
 62
7
  6
CONTINUOUS
 10
153.5167919049
 20
186.7451181558
  0
SEQEND
  0
POLYLINE
  8
0
 62
7
  6
CONTINUOUS
 66
1
 70
0
  0
VERTEX
  8
0
 62
7
  6
CONTINUOUS
 10
144.7885783781
 20
145.112802067
  0
VERTEX
  8
0
 62
7
  6
CONTINUOUS
 10
144.7685576787
 20
145.0399222314
  0
VERTEX
  8
0
 62
7
  6
CONTINUOUS
 10
144.751305217
 20
144.9712179939
  0
VERTEX
  8
0
 62
7
  6
CONTINUOUS
 10
144.7360510154
 20
144.8992308843
  0
VERTEX
  8
0
 62
7
  6
CONTINUOUS
 10
144.7237396541
 20
144.818241574
  0
VERTEX
  8
0
 62
7
  6
CONTINUOUS
 10
144.7171638406
 20
144.722055228
  0
SEQEND
  0
POLYLINE
  8
0
 62
7
  6
CONTINUOUS
 66
1
 70
0
  0
VERTEX
  8
0
 62
7
  6
CONTINUOUS
 10
153.4454156703
 20
173.6543085062
  0
VERTEX
  8
0
 62
7
  6
CONTINUOUS
 10
153.4654278373
 20
173.72717541
  0
VERTEX
  8
0
 62
7
  6
CONTINUOUS
 10
153.4826750252
 20
173.7958662717
  0
VERTEX
  8
0
 62
7
  6
CONTINUOUS
 10
153.4979416834
 20
173.8679524621
  0
VERTEX
  8
0
 62
7
  6
CONTINUOUS
 10
153.5102399859
 20
173.9489712793
  0
VERTEX
  8
0
 62
7
  6
CONTINUOUS
 10
153.5167919049
 20
174.0451181557
  0
SEQEND
  0
LINE
  8
0
 62
7
  6
CONTINUOUS
 10
148.716977053
 20
142.9834862385
 11
149.516977053
 21
142.9834862385
  0
LINE
  8
0
 62
7
  6
CONTINUOUS
 10
145.566977053
 20
143.6834862385
 11
152.666977053
 21
143.6834862385
  0
POLYLINE
  8
0
 62
7
  6
CONTINUOUS
 66
1
 70
0
  0
VERTEX
  8
0
 62
7
  6
CONTINUOUS
 10
144.7975257844
 20
135.5227061459
  0
VERTEX
  8
0
 62
7
  6
CONTINUOUS
 10
144.8470980373
 20
135.3498803197
  0
VERTEX
  8
0
 62
7
  6
CONTINUOUS
 10
144.8767543575
 20
135.2421923222
  0
VERTEX
  8
0
 62
7
  6
CONTINUOUS
 10
144.9088700224
 20
135.1166649906
  0
VERTEX
  8
0
 62
7
  6
CONTINUOUS
 10
144.9417397532
 20
134.9717804799
  0
VERTEX
  8
0
 62
7
  6
CONTINUOUS
 10
144.9728101384
 20
134.8061359762
  0
VERTEX
  8
0
 62
7
  6
CONTINUOUS
 10
144.9984328407
 20
134.6195587873
  0
VERTEX
  8
0
 62
7
  6
CONTINUOUS
 10
145.0140918715
 20
134.4155361238
  0
VERTEX
  8
0
 62
7
  6
CONTINUOUS
 10
145.0170249981
 20
134.2819452399
  0
SEQEND
  0
POLYLINE
  8
0
 62
7
  6
CONTINUOUS
 66
1
 70
0
  0
VERTEX
  8
0
 62
7
  6
CONTINUOUS
 10
153.4362872833
 20
107.0447548801
  0
VERTEX
  8
0
 62
7
  6
CONTINUOUS
 10
153.3867045417
 20
107.2176234925
  0
VERTEX
  8
0
 62
7
  6
CONTINUOUS
 10
153.3570673425
 20
107.325281623
  0
VERTEX
  8
0
 62
7
  6
CONTINUOUS
 10
153.3249601801
 20
107.4508054105
  0
VERTEX
  8
0
 62
7
  6
CONTINUOUS
 10
153.2921154066
 20
107.5956654278
  0
VERTEX
  8
0
 62
7
  6
CONTINUOUS
 10
153.261080118
 20
107.7612355301
  0
VERTEX
  8
0
 62
7
  6
CONTINUOUS
 10
153.2354926911
 20
107.9476769498
  0
VERTEX
  8
0
 62
7
  6
CONTINUOUS
 10
153.2198583354
 20
108.151536644
  0
VERTEX
  8
0
 62
7
  6
CONTINUOUS
 10
153.2169253322
 20
108.2850272365
  0
SEQEND
  0
POLYLINE
  8
0
 62
7
  6
CONTINUOUS
 66
1
 70
0
  0
VERTEX
  8
0
 62
7
  6
CONTINUOUS
 10
144.7975257844
 20
148.2227061459
  0
VERTEX
  8
0
 62
7
  6
CONTINUOUS
 10
144.8470980373
 20
148.0498803197
  0
VERTEX
  8
0
 62
7
  6
CONTINUOUS
 10
144.8767543575
 20
147.9421923222
  0
VERTEX
  8
0
 62
7
  6
CONTINUOUS
 10
144.9088700224
 20
147.8166649906
  0
VERTEX
  8
0
 62
7
  6
CONTINUOUS
 10
144.9417397532
 20
147.6717804799
  0
VERTEX
  8
0
 62
7
  6
CONTINUOUS
 10
144.9728101384
 20
147.5061359762
  0
VERTEX
  8
0
 62
7
  6
CONTINUOUS
 10
144.9984328407
 20
147.3195587873
  0
VERTEX
  8
0
 62
7
  6
CONTINUOUS
 10
145.0140918715
 20
147.1155361238
  0
VERTEX
  8
0
 62
7
  6
CONTINUOUS
 10
145.0170249981
 20
146.9819452399
  0
SEQEND
  0
POLYLINE
  8
0
 62
7
  6
CONTINUOUS
 66
1
 70
0
  0
VERTEX
  8
0
 62
7
  6
CONTINUOUS
 10
153.4362872833
 20
119.7447548801
  0
VERTEX
  8
0
 62
7
  6
CONTINUOUS
 10
153.3867045417
 20
119.9176234925
  0
VERTEX
  8
0
 62
7
  6
CONTINUOUS
 10
153.3570673425
 20
120.025281623
  0
VERTEX
  8
0
 62
7
  6
CONTINUOUS
 10
153.3249601801
 20
120.1508054105
  0
VERTEX
  8
0
 62
7
  6
CONTINUOUS
 10
153.2921154066
 20
120.2956654278
  0
VERTEX
  8
0
 62
7
  6
CONTINUOUS
 10
153.261080118
 20
120.4612355301
  0
VERTEX
  8
0
 62
7
  6
CONTINUOUS
 10
153.2354926911
 20
120.6476769498
  0
VERTEX
  8
0
 62
7
  6
CONTINUOUS
 10
153.2198583354
 20
120.851536644
  0
VERTEX
  8
0
 62
7
  6
CONTINUOUS
 10
153.2169253322
 20
120.9850272365
  0
SEQEND
  0
POLYLINE
  8
0
 62
7
  6
CONTINUOUS
 66
1
 70
0
  0
VERTEX
  8
0
 62
7
  6
CONTINUOUS
 10
144.716977053
 20
129.7670359202
  0
VERTEX
  8
0
 62
7
  6
CONTINUOUS
 10
144.7264468209
 20
129.6881629122
  0
VERTEX
  8
0
 62
7
  6
CONTINUOUS
 10
144.7550011126
 20
129.5999359389
  0
VERTEX
  8
0
 62
7
  6
CONTINUOUS
 10
144.8036980926
 20
129.5036433186
  0
SEQEND
  0
POLYLINE
  8
0
 62
7
  6
CONTINUOUS
 66
1
 70
0
  0
VERTEX
  8
0
 62
7
  6
CONTINUOUS
 10
144.83634995
 20
167.5103916584
  0
VERTEX
  8
0
 62
7
  6
CONTINUOUS
 10
144.8528098396
 20
167.3581192059
  0
VERTEX
  8
0
 62
7
  6
CONTINUOUS
 10
144.8633485816
 20
167.1975293817
  0
VERTEX
  8
0
 62
7
  6
CONTINUOUS
 10
144.8669559943
 20
167.0334862385
  0
SEQEND
  0
POLYLINE
  8
0
 62
7
  6
CONTINUOUS
 66
1
 70
0
  0
VERTEX
  8
0
 62
7
  6
CONTINUOUS
 10
153.5169657676
 20
68.5047069964
  0
VERTEX
  8
0
 62
7
  6
CONTINUOUS
 10
153.513151889
 20
68.5894197922
  0
VERTEX
  8
0
 62
7
  6
CONTINUOUS
 10
153.5029447301
 20
68.6703433655
  0
VERTEX
  8
0
 62
7
  6
CONTINUOUS
 10
153.489442589
 20
68.7411524362
  0
VERTEX
  8
0
 62
7
  6
CONTINUOUS
 10
153.4740578422
 20
68.8064499859
  0
VERTEX
  8
0
 62
7
  6
CONTINUOUS
 10
153.4565233272
 20
68.8728071444
  0
VERTEX
  8
0
 62
7
  6
CONTINUOUS
 10
153.4362872833
 20
68.9447548801
  0
SEQEND
  0
POLYLINE
  8
0
 62
7
  6
CONTINUOUS
 66
1
 70
0
  0
VERTEX
  8
0
 62
7
  6
CONTINUOUS
 10
153.5169657676
 20
81.2047069964
  0
VERTEX
  8
0
 62
7
  6
CONTINUOUS
 10
153.513151889
 20
81.2894197922
  0
VERTEX
  8
0
 62
7
  6
CONTINUOUS
 10
153.5029447301
 20
81.3703433655
  0
VERTEX
  8
0
 62
7
  6
CONTINUOUS
 10
153.489442589
 20
81.4411524362
  0
VERTEX
  8
0
 62
7
  6
CONTINUOUS
 10
153.4740578422
 20
81.5064499859
  0
VERTEX
  8
0
 62
7
  6
CONTINUOUS
 10
153.4565233272
 20
81.5728071444
  0
VERTEX
  8
0
 62
7
  6
CONTINUOUS
 10
153.4362872833
 20
81.6447548801
  0
SEQEND
  0
POLYLINE
  8
0
 62
7
  6
CONTINUOUS
 66
1
 70
0
  0
VERTEX
  8
0
 62
7
  6
CONTINUOUS
 10
153.5169657676
 20
93.9047069964
  0
VERTEX
  8
0
 62
7
  6
CONTINUOUS
 10
153.513151889
 20
93.9894197922
  0
VERTEX
  8
0
 62
7
  6
CONTINUOUS
 10
153.5029447301
 20
94.0703433655
  0
VERTEX
  8
0
 62
7
  6
CONTINUOUS
 10
153.489442589
 20
94.1411524362
  0
VERTEX
  8
0
 62
7
  6
CONTINUOUS
 10
153.4740578422
 20
94.2064499859
  0
VERTEX
  8
0
 62
7
  6
CONTINUOUS
 10
153.4565233272
 20
94.2728071444
  0
VERTEX
  8
0
 62
7
  6
CONTINUOUS
 10
153.4362872833
 20
94.3447548801
  0
SEQEND
  0
POLYLINE
  8
0
 62
7
  6
CONTINUOUS
 66
1
 70
0
  0
VERTEX
  8
0
 62
7
  6
CONTINUOUS
 10
153.5169657676
 20
106.6047069964
  0
VERTEX
  8
0
 62
7
  6
CONTINUOUS
 10
153.513151889
 20
106.6894197922
  0
VERTEX
  8
0
 62
7
  6
CONTINUOUS
 10
153.5029447301
 20
106.7703433655
  0
VERTEX
  8
0
 62
7
  6
CONTINUOUS
 10
153.489442589
 20
106.8411524362
  0
VERTEX
  8
0
 62
7
  6
CONTINUOUS
 10
153.4740578422
 20
106.9064499859
  0
VERTEX
  8
0
 62
7
  6
CONTINUOUS
 10
153.4565233272
 20
106.9728071444
  0
VERTEX
  8
0
 62
7
  6
CONTINUOUS
 10
153.4362872833
 20
107.0447548801
  0
SEQEND
  0
POLYLINE
  8
0
 62
7
  6
CONTINUOUS
 66
1
 70
0
  0
VERTEX
  8
0
 62
7
  6
CONTINUOUS
 10
153.5169657676
 20
119.3047069964
  0
VERTEX
  8
0
 62
7
  6
CONTINUOUS
 10
153.513151889
 20
119.3894197922
  0
VERTEX
  8
0
 62
7
  6
CONTINUOUS
 10
153.5029447301
 20
119.4703433655
  0
VERTEX
  8
0
 62
7
  6
CONTINUOUS
 10
153.489442589
 20
119.5411524362
  0
VERTEX
  8
0
 62
7
  6
CONTINUOUS
 10
153.4740578422
 20
119.6064499859
  0
VERTEX
  8
0
 62
7
  6
CONTINUOUS
 10
153.4565233272
 20
119.6728071444
  0
VERTEX
  8
0
 62
7
  6
CONTINUOUS
 10
153.4362872833
 20
119.7447548801
  0
SEQEND
  0
POLYLINE
  8
0
 62
7
  6
CONTINUOUS
 66
1
 70
0
  0
VERTEX
  8
0
 62
7
  6
CONTINUOUS
 10
144.7169878278
 20
186.7621938674
  0
VERTEX
  8
0
 62
7
  6
CONTINUOUS
 10
144.720725396
 20
186.6784479804
  0
VERTEX
  8
0
 62
7
  6
CONTINUOUS
 10
144.7308845208
 20
186.5974206545
  0
VERTEX
  8
0
 62
7
  6
CONTINUOUS
 10
144.7443697391
 20
186.5264702636
  0
VERTEX
  8
0
 62
7
  6
CONTINUOUS
 10
144.7597806955
 20
186.460983368
  0
VERTEX
  8
0
 62
7
  6
CONTINUOUS
 10
144.7772725891
 20
186.3947468999
  0
VERTEX
  8
0
 62
7
  6
CONTINUOUS
 10
144.7975257844
 20
186.3227061459
  0
SEQEND
  0
POLYLINE
  8
0
 62
7
  6
CONTINUOUS
 66
1
 70
0
  0
VERTEX
  8
0
 62
7
  6
CONTINUOUS
 10
144.7169878278
 20
199.4621938674
  0
VERTEX
  8
0
 62
7
  6
CONTINUOUS
 10
144.720725396
 20
199.3784479804
  0
VERTEX
  8
0
 62
7
  6
CONTINUOUS
 10
144.7308845208
 20
199.2974206545
  0
VERTEX
  8
0
 62
7
  6
CONTINUOUS
 10
144.7443697391
 20
199.2264702636
  0
VERTEX
  8
0
 62
7
  6
CONTINUOUS
 10
144.7597806955
 20
199.160983368
  0
VERTEX
  8
0
 62
7
  6
CONTINUOUS
 10
144.7772725891
 20
199.0947468999
  0
VERTEX
  8
0
 62
7
  6
CONTINUOUS
 10
144.7975257844
 20
199.0227061459
  0
SEQEND
  0
POLYLINE
  8
0
 62
7
  6
CONTINUOUS
 66
1
 70
0
  0
VERTEX
  8
0
 62
7
  6
CONTINUOUS
 10
144.7169878278
 20
212.1621938674
  0
VERTEX
  8
0
 62
7
  6
CONTINUOUS
 10
144.720725396
 20
212.0784479804
  0
VERTEX
  8
0
 62
7
  6
CONTINUOUS
 10
144.7308845208
 20
211.9974206545
  0
VERTEX
  8
0
 62
7
  6
CONTINUOUS
 10
144.7443697391
 20
211.9264702636
  0
VERTEX
  8
0
 62
7
  6
CONTINUOUS
 10
144.7597806955
 20
211.860983368
  0
VERTEX
  8
0
 62
7
  6
CONTINUOUS
 10
144.7772725891
 20
211.7947468999
  0
VERTEX
  8
0
 62
7
  6
CONTINUOUS
 10
144.7975257844
 20
211.7227061459
  0
SEQEND
  0
POLYLINE
  8
0
 62
7
  6
CONTINUOUS
 66
1
 70
0
  0
VERTEX
  8
0
 62
7
  6
CONTINUOUS
 10
144.7169878278
 20
224.8621938674
  0
VERTEX
  8
0
 62
7
  6
CONTINUOUS
 10
144.720725396
 20
224.7784479804
  0
VERTEX
  8
0
 62
7
  6
CONTINUOUS
 10
144.7308845208
 20
224.6974206545
  0
VERTEX
  8
0
 62
7
  6
CONTINUOUS
 10
144.7443697391
 20
224.6264702636
  0
VERTEX
  8
0
 62
7
  6
CONTINUOUS
 10
144.7597806955
 20
224.560983368
  0
VERTEX
  8
0
 62
7
  6
CONTINUOUS
 10
144.7772725891
 20
224.4947468999
  0
VERTEX
  8
0
 62
7
  6
CONTINUOUS
 10
144.7975257844
 20
224.4227061459
  0
SEQEND
  0
LINE
  8
DEFAULT_1
 62
2
  6
CENTER
 10
149.116977053
 20
48.4641029449
 11
149.116977053
 21
243.8335884591
  0
POLYLINE
  8
0
 62
7
  6
CONTINUOUS
 66
1
 70
0
  0
VERTEX
  8
0
 62
7
  6
CONTINUOUS
 10
145.0170287303
 20
82.885027831
  0
VERTEX
  8
0
 62
7
  6
CONTINUOUS
 10
145.0140661268
 20
82.7508622362
  0
VERTEX
  8
0
 62
7
  6
CONTINUOUS
 10
144.9974437305
 20
82.5384594206
  0
VERTEX
  8
0
 62
7
  6
CONTINUOUS
 10
144.970047436
 20
82.3443121172
  0
VERTEX
  8
0
 62
7
  6
CONTINUOUS
 10
144.9369457395
 20
82.1726069189
  0
VERTEX
  8
0
 62
7
  6
CONTINUOUS
 10
144.9022268014
 20
82.0233239184
  0
VERTEX
  8
0
 62
7
  6
CONTINUOUS
 10
144.8687665861
 20
81.8951714283
  0
VERTEX
  8
0
 62
7
  6
CONTINUOUS
 10
144.8383892576
 20
81.7863931693
  0
VERTEX
  8
0
 62
7
  6
CONTINUOUS
 10
144.7885783781
 20
81.612802067
  0
SEQEND
  0
POLYLINE
  8
0
 62
7
  6
CONTINUOUS
 66
1
 70
0
  0
VERTEX
  8
0
 62
7
  6
CONTINUOUS
 10
145.0170287303
 20
70.185027831
  0
VERTEX
  8
0
 62
7
  6
CONTINUOUS
 10
145.0140661268
 20
70.0508622362
  0
VERTEX
  8
0
 62
7
  6
CONTINUOUS
 10
144.9974437305
 20
69.8384594206
  0
VERTEX
  8
0
 62
7
  6
CONTINUOUS
 10
144.970047436
 20
69.6443121172
  0
VERTEX
  8
0
 62
7
  6
CONTINUOUS
 10
144.9369457395
 20
69.4726069189
  0
VERTEX
  8
0
 62
7
  6
CONTINUOUS
 10
144.9022268014
 20
69.3233239184
  0
VERTEX
  8
0
 62
7
  6
CONTINUOUS
 10
144.8687665861
 20
69.1951714283
  0
VERTEX
  8
0
 62
7
  6
CONTINUOUS
 10
144.8383892576
 20
69.0863931693
  0
VERTEX
  8
0
 62
7
  6
CONTINUOUS
 10
144.7885783781
 20
68.912802067
  0
SEQEND
  0
POLYLINE
  8
0
 62
7
  6
CONTINUOUS
 66
1
 70
0
  0
VERTEX
  8
0
 62
7
  6
CONTINUOUS
 10
153.2169290868
 20
223.1819450748
  0
VERTEX
  8
0
 62
7
  6
CONTINUOUS
 10
153.219889067
 20
223.3161468299
  0
VERTEX
  8
0
 62
7
  6
CONTINUOUS
 10
153.2365251535
 20
223.5286420442
  0
VERTEX
  8
0
 62
7
  6
CONTINUOUS
 10
153.2639369805
 20
223.7228480598
  0
VERTEX
  8
0
 62
7
  6
CONTINUOUS
 10
153.2970493059
 20
223.8945611953
  0
VERTEX
  8
0
 62
7
  6
CONTINUOUS
 10
153.3317761918
 20
224.0438375384
  0
VERTEX
  8
0
 62
7
  6
CONTINUOUS
 10
153.3652263768
 20
224.1719429684
  0
VERTEX
  8
0
 62
7
  6
CONTINUOUS
 10
153.3956128812
 20
224.2807460309
  0
VERTEX
  8
0
 62
7
  6
CONTINUOUS
 10
153.4454156703
 20
224.4543085062
  0
SEQEND
  0
POLYLINE
  8
0
 62
7
  6
CONTINUOUS
 66
1
 70
0
  0
VERTEX
  8
0
 62
7
  6
CONTINUOUS
 10
153.2169290868
 20
210.4819450748
  0
VERTEX
  8
0
 62
7
  6
CONTINUOUS
 10
153.219889067
 20
210.6161468299
  0
VERTEX
  8
0
 62
7
  6
CONTINUOUS
 10
153.2365251535
 20
210.8286420442
  0
VERTEX
  8
0
 62
7
  6
CONTINUOUS
 10
153.2639369805
 20
211.0228480598
  0
VERTEX
  8
0
 62
7
  6
CONTINUOUS
 10
153.2970493059
 20
211.1945611953
  0
VERTEX
  8
0
 62
7
  6
CONTINUOUS
 10
153.3317761918
 20
211.3438375384
  0
VERTEX
  8
0
 62
7
  6
CONTINUOUS
 10
153.3652263768
 20
211.4719429684
  0
VERTEX
  8
0
 62
7
  6
CONTINUOUS
 10
153.3956128812
 20
211.5807460309
  0
VERTEX
  8
0
 62
7
  6
CONTINUOUS
 10
153.4454156703
 20
211.7543085062
  0
SEQEND
  0
POLYLINE
  8
0
 62
7
  6
CONTINUOUS
 66
1
 70
0
  0
VERTEX
  8
0
 62
7
  6
CONTINUOUS
 10
153.2169290868
 20
197.7819450748
  0
VERTEX
  8
0
 62
7
  6
CONTINUOUS
 10
153.219889067
 20
197.9161468299
  0
VERTEX
  8
0
 62
7
  6
CONTINUOUS
 10
153.2365251535
 20
198.1286420442
  0
VERTEX
  8
0
 62
7
  6
CONTINUOUS
 10
153.2639369805
 20
198.3228480598
  0
VERTEX
  8
0
 62
7
  6
CONTINUOUS
 10
153.2970493059
 20
198.4945611953
  0
VERTEX
  8
0
 62
7
  6
CONTINUOUS
 10
153.3317761918
 20
198.6438375384
  0
VERTEX
  8
0
 62
7
  6
CONTINUOUS
 10
153.3652263768
 20
198.7719429684
  0
VERTEX
  8
0
 62
7
  6
CONTINUOUS
 10
153.3956128812
 20
198.8807460309
  0
VERTEX
  8
0
 62
7
  6
CONTINUOUS
 10
153.4454156703
 20
199.0543085062
  0
SEQEND
  0
POLYLINE
  8
0
 62
7
  6
CONTINUOUS
 66
1
 70
0
  0
VERTEX
  8
0
 62
7
  6
CONTINUOUS
 10
153.2169290868
 20
185.0819450748
  0
VERTEX
  8
0
 62
7
  6
CONTINUOUS
 10
153.219889067
 20
185.2161468299
  0
VERTEX
  8
0
 62
7
  6
CONTINUOUS
 10
153.2365251535
 20
185.4286420442
  0
VERTEX
  8
0
 62
7
  6
CONTINUOUS
 10
153.2639369805
 20
185.6228480598
  0
VERTEX
  8
0
 62
7
  6
CONTINUOUS
 10
153.2970493059
 20
185.7945611953
  0
VERTEX
  8
0
 62
7
  6
CONTINUOUS
 10
153.3317761918
 20
185.9438375384
  0
VERTEX
  8
0
 62
7
  6
CONTINUOUS
 10
153.3652263768
 20
186.0719429684
  0
VERTEX
  8
0
 62
7
  6
CONTINUOUS
 10
153.3956128812
 20
186.1807460309
  0
VERTEX
  8
0
 62
7
  6
CONTINUOUS
 10
153.4454156703
 20
186.3543085062
  0
SEQEND
  0
POLYLINE
  8
0
 62
7
  6
CONTINUOUS
 66
1
 70
0
  0
VERTEX
  8
0
 62
7
  6
CONTINUOUS
 10
144.8363499501
 20
125.8565808199
  0
VERTEX
  8
0
 62
7
  6
CONTINUOUS
 10
144.8252872376
 20
125.8096259687
  0
VERTEX
  8
0
 62
7
  6
CONTINUOUS
 10
144.8036980929
 20
125.763329159
  0
SEQEND
  0
POLYLINE
  8
0
 62
7
  6
CONTINUOUS
 66
1
 70
0
  0
VERTEX
  8
0
 62
7
  6
CONTINUOUS
 10
144.7885783781
 20
132.412802067
  0
VERTEX
  8
0
 62
7
  6
CONTINUOUS
 10
144.7685576787
 20
132.3399222314
  0
VERTEX
  8
0
 62
7
  6
CONTINUOUS
 10
144.751305217
 20
132.2712179939
  0
VERTEX
  8
0
 62
7
  6
CONTINUOUS
 10
144.7360510154
 20
132.1992308843
  0
VERTEX
  8
0
 62
7
  6
CONTINUOUS
 10
144.7237396541
 20
132.118241574
  0
VERTEX
  8
0
 62
7
  6
CONTINUOUS
 10
144.7171638406
 20
132.022055228
  0
SEQEND
  0
POLYLINE
  8
0
 62
7
  6
CONTINUOUS
 66
1
 70
0
  0
VERTEX
  8
0
 62
7
  6
CONTINUOUS
 10
153.4454156703
 20
160.9543085062
  0
VERTEX
  8
0
 62
7
  6
CONTINUOUS
 10
153.4654278373
 20
161.02717541
  0
VERTEX
  8
0
 62
7
  6
CONTINUOUS
 10
153.4826750252
 20
161.0958662717
  0
VERTEX
  8
0
 62
7
  6
CONTINUOUS
 10
153.4979416834
 20
161.1679524621
  0
VERTEX
  8
0
 62
7
  6
CONTINUOUS
 10
153.5102399859
 20
161.2489712793
  0
VERTEX
  8
0
 62
7
  6
CONTINUOUS
 10
153.5167919049
 20
161.3451181557
  0
SEQEND
  0
POLYLINE
  8
0
 62
7
  6
CONTINUOUS
 66
1
 70
0
  0
VERTEX
  8
0
 62
7
  6
CONTINUOUS
 10
144.7885783781
 20
119.712802067
  0
VERTEX
  8
0
 62
7
  6
CONTINUOUS
 10
144.7685576787
 20
119.6399222314
  0
VERTEX
  8
0
 62
7
  6
CONTINUOUS
 10
144.751305217
 20
119.5712179939
  0
VERTEX
  8
0
 62
7
  6
CONTINUOUS
 10
144.7360510154
 20
119.4992308843
  0
VERTEX
  8
0
 62
7
  6
CONTINUOUS
 10
144.7237396541
 20
119.418241574
  0
VERTEX
  8
0
 62
7
  6
CONTINUOUS
 10
144.7171638406
 20
119.322055228
  0
SEQEND
  0
LINE
  8
0
 62
7
  6
CONTINUOUS
 10
152.666977053
 20
149.6834862385
 11
145.566977053
 21
149.6834862385
  0
LINE
  8
0
 62
7
  6
CONTINUOUS
 10
148.716977053
 20
150.3834862385
 11
149.516977053
 21
150.3834862385
  0
POLYLINE
  8
0
 62
7
  6
CONTINUOUS
 66
1
 70
0
  0
VERTEX
  8
0
 62
7
  6
CONTINUOUS
 10
144.7975257844
 20
160.9227061459
  0
VERTEX
  8
0
 62
7
  6
CONTINUOUS
 10
144.8470980373
 20
160.7498803197
  0
VERTEX
  8
0
 62
7
  6
CONTINUOUS
 10
144.8767543575
 20
160.6421923222
  0
VERTEX
  8
0
 62
7
  6
CONTINUOUS
 10
144.9088700224
 20
160.5166649906
  0
VERTEX
  8
0
 62
7
  6
CONTINUOUS
 10
144.9417397532
 20
160.3717804799
  0
VERTEX
  8
0
 62
7
  6
CONTINUOUS
 10
144.9728101384
 20
160.2061359762
  0
VERTEX
  8
0
 62
7
  6
CONTINUOUS
 10
144.9984328407
 20
160.0195587873
  0
VERTEX
  8
0
 62
7
  6
CONTINUOUS
 10
145.0140918715
 20
159.8155361238
  0
VERTEX
  8
0
 62
7
  6
CONTINUOUS
 10
145.0170249981
 20
159.6819452399
  0
SEQEND
  0
POLYLINE
  8
0
 62
7
  6
CONTINUOUS
 66
1
 70
0
  0
VERTEX
  8
0
 62
7
  6
CONTINUOUS
 10
153.4362872833
 20
132.4447548801
  0
VERTEX
  8
0
 62
7
  6
CONTINUOUS
 10
153.3867045417
 20
132.6176234925
  0
VERTEX
  8
0
 62
7
  6
CONTINUOUS
 10
153.3570673425
 20
132.725281623
  0
VERTEX
  8
0
 62
7
  6
CONTINUOUS
 10
153.3249601801
 20
132.8508054105
  0
VERTEX
  8
0
 62
7
  6
CONTINUOUS
 10
153.2921154066
 20
132.9956654278
  0
VERTEX
  8
0
 62
7
  6
CONTINUOUS
 10
153.261080118
 20
133.1612355301
  0
VERTEX
  8
0
 62
7
  6
CONTINUOUS
 10
153.2354926911
 20
133.3476769498
  0
VERTEX
  8
0
 62
7
  6
CONTINUOUS
 10
153.2198583354
 20
133.551536644
  0
VERTEX
  8
0
 62
7
  6
CONTINUOUS
 10
153.2169253322
 20
133.6850272365
  0
SEQEND
  0
POLYLINE
  8
0
 62
7
  6
CONTINUOUS
 66
1
 70
0
  0
VERTEX
  8
0
 62
7
  6
CONTINUOUS
 10
144.7975257844
 20
173.6227061459
  0
VERTEX
  8
0
 62
7
  6
CONTINUOUS
 10
144.8470980373
 20
173.4498803197
  0
VERTEX
  8
0
 62
7
  6
CONTINUOUS
 10
144.8767543575
 20
173.3421923222
  0
VERTEX
  8
0
 62
7
  6
CONTINUOUS
 10
144.9088700224
 20
173.2166649906
  0
VERTEX
  8
0
 62
7
  6
CONTINUOUS
 10
144.9417397532
 20
173.0717804799
  0
VERTEX
  8
0
 62
7
  6
CONTINUOUS
 10
144.9728101384
 20
172.9061359762
  0
VERTEX
  8
0
 62
7
  6
CONTINUOUS
 10
144.9984328407
 20
172.7195587873
  0
VERTEX
  8
0
 62
7
  6
CONTINUOUS
 10
145.0140918715
 20
172.5155361238
  0
VERTEX
  8
0
 62
7
  6
CONTINUOUS
 10
145.0170249981
 20
172.3819452399
  0
SEQEND
  0
POLYLINE
  8
0
 62
7
  6
CONTINUOUS
 66
1
 70
0
  0
VERTEX
  8
0
 62
7
  6
CONTINUOUS
 10
144.716977053
 20
167.8670359202
  0
VERTEX
  8
0
 62
7
  6
CONTINUOUS
 10
144.7264468209
 20
167.7881629122
  0
VERTEX
  8
0
 62
7
  6
CONTINUOUS
 10
144.7550011126
 20
167.6999359389
  0
VERTEX
  8
0
 62
7
  6
CONTINUOUS
 10
144.8036980926
 20
167.6036433186
  0
SEQEND
  0
POLYLINE
  8
0
 62
7
  6
CONTINUOUS
 66
1
 70
0
  0
VERTEX
  8
0
 62
7
  6
CONTINUOUS
 10
153.5169657676
 20
132.0047069964
  0
VERTEX
  8
0
 62
7
  6
CONTINUOUS
 10
153.513151889
 20
132.0894197922
  0
VERTEX
  8
0
 62
7
  6
CONTINUOUS
 10
153.5029447301
 20
132.1703433655
  0
VERTEX
  8
0
 62
7
  6
CONTINUOUS
 10
153.489442589
 20
132.2411524362
  0
VERTEX
  8
0
 62
7
  6
CONTINUOUS
 10
153.4740578422
 20
132.3064499859
  0
VERTEX
  8
0
 62
7
  6
CONTINUOUS
 10
153.4565233272
 20
132.3728071444
  0
VERTEX
  8
0
 62
7
  6
CONTINUOUS
 10
153.4362872833
 20
132.4447548801
  0
SEQEND
  0
POLYLINE
  8
0
 62
7
  6
CONTINUOUS
 66
1
 70
0
  0
VERTEX
  8
0
 62
7
  6
CONTINUOUS
 10
153.5169657676
 20
144.7047069964
  0
VERTEX
  8
0
 62
7
  6
CONTINUOUS
 10
153.513151889
 20
144.7894197922
  0
VERTEX
  8
0
 62
7
  6
CONTINUOUS
 10
153.5029447301
 20
144.8703433655
  0
VERTEX
  8
0
 62
7
  6
CONTINUOUS
 10
153.489442589
 20
144.9411524362
  0
VERTEX
  8
0
 62
7
  6
CONTINUOUS
 10
153.4740578422
 20
145.0064499859
  0
VERTEX
  8
0
 62
7
  6
CONTINUOUS
 10
153.4565233272
 20
145.0728071444
  0
VERTEX
  8
0
 62
7
  6
CONTINUOUS
 10
153.4362872833
 20
145.1447548801
  0
SEQEND
  0
POLYLINE
  8
0
 62
7
  6
CONTINUOUS
 66
1
 70
0
  0
VERTEX
  8
0
 62
7
  6
CONTINUOUS
 10
153.5169657676
 20
157.4047069964
  0
VERTEX
  8
0
 62
7
  6
CONTINUOUS
 10
153.513151889
 20
157.4894197922
  0
VERTEX
  8
0
 62
7
  6
CONTINUOUS
 10
153.5029447301
 20
157.5703433655
  0
VERTEX
  8
0
 62
7
  6
CONTINUOUS
 10
153.489442589
 20
157.6411524362
  0
VERTEX
  8
0
 62
7
  6
CONTINUOUS
 10
153.4740578422
 20
157.7064499859
  0
VERTEX
  8
0
 62
7
  6
CONTINUOUS
 10
153.4565233272
 20
157.7728071444
  0
VERTEX
  8
0
 62
7
  6
CONTINUOUS
 10
153.4362872833
 20
157.8447548801
  0
SEQEND
  0
POLYLINE
  8
0
 62
7
  6
CONTINUOUS
 66
1
 70
0
  0
VERTEX
  8
0
 62
7
  6
CONTINUOUS
 10
153.5169657676
 20
170.1047069964
  0
VERTEX
  8
0
 62
7
  6
CONTINUOUS
 10
153.513151889
 20
170.1894197922
  0
VERTEX
  8
0
 62
7
  6
CONTINUOUS
 10
153.5029447301
 20
170.2703433655
  0
VERTEX
  8
0
 62
7
  6
CONTINUOUS
 10
153.489442589
 20
170.3411524362
  0
VERTEX
  8
0
 62
7
  6
CONTINUOUS
 10
153.4740578422
 20
170.4064499859
  0
VERTEX
  8
0
 62
7
  6
CONTINUOUS
 10
153.4565233272
 20
170.4728071444
  0
VERTEX
  8
0
 62
7
  6
CONTINUOUS
 10
153.4362872833
 20
170.5447548801
  0
SEQEND
  0
POLYLINE
  8
0
 62
7
  6
CONTINUOUS
 66
1
 70
0
  0
VERTEX
  8
0
 62
7
  6
CONTINUOUS
 10
153.5169657676
 20
182.8047069964
  0
VERTEX
  8
0
 62
7
  6
CONTINUOUS
 10
153.513151889
 20
182.8894197922
  0
VERTEX
  8
0
 62
7
  6
CONTINUOUS
 10
153.5029447301
 20
182.9703433655
  0
VERTEX
  8
0
 62
7
  6
CONTINUOUS
 10
153.489442589
 20
183.0411524362
  0
VERTEX
  8
0
 62
7
  6
CONTINUOUS
 10
153.4740578422
 20
183.1064499859
  0
VERTEX
  8
0
 62
7
  6
CONTINUOUS
 10
153.4565233272
 20
183.1728071444
  0
VERTEX
  8
0
 62
7
  6
CONTINUOUS
 10
153.4362872833
 20
183.2447548801
  0
SEQEND
  0
POLYLINE
  8
0
 62
7
  6
CONTINUOUS
 66
1
 70
0
  0
VERTEX
  8
0
 62
7
  6
CONTINUOUS
 10
153.5169657676
 20
195.5047069964
  0
VERTEX
  8
0
 62
7
  6
CONTINUOUS
 10
153.513151889
 20
195.5894197922
  0
VERTEX
  8
0
 62
7
  6
CONTINUOUS
 10
153.5029447301
 20
195.6703433655
  0
VERTEX
  8
0
 62
7
  6
CONTINUOUS
 10
153.489442589
 20
195.7411524362
  0
VERTEX
  8
0
 62
7
  6
CONTINUOUS
 10
153.4740578422
 20
195.8064499859
  0
VERTEX
  8
0
 62
7
  6
CONTINUOUS
 10
153.4565233272
 20
195.8728071444
  0
VERTEX
  8
0
 62
7
  6
CONTINUOUS
 10
153.4362872833
 20
195.9447548801
  0
SEQEND
  0
POLYLINE
  8
0
 62
7
  6
CONTINUOUS
 66
1
 70
0
  0
VERTEX
  8
0
 62
7
  6
CONTINUOUS
 10
153.5169657676
 20
208.2047069964
  0
VERTEX
  8
0
 62
7
  6
CONTINUOUS
 10
153.513151889
 20
208.2894197922
  0
VERTEX
  8
0
 62
7
  6
CONTINUOUS
 10
153.5029447301
 20
208.3703433655
  0
VERTEX
  8
0
 62
7
  6
CONTINUOUS
 10
153.489442589
 20
208.4411524362
  0
VERTEX
  8
0
 62
7
  6
CONTINUOUS
 10
153.4740578422
 20
208.5064499859
  0
VERTEX
  8
0
 62
7
  6
CONTINUOUS
 10
153.4565233272
 20
208.5728071444
  0
VERTEX
  8
0
 62
7
  6
CONTINUOUS
 10
153.4362872833
 20
208.6447548801
  0
SEQEND
  0
POLYLINE
  8
0
 62
7
  6
CONTINUOUS
 66
1
 70
0
  0
VERTEX
  8
0
 62
7
  6
CONTINUOUS
 10
153.5169657676
 20
220.9047069964
  0
VERTEX
  8
0
 62
7
  6
CONTINUOUS
 10
153.513151889
 20
220.9894197922
  0
VERTEX
  8
0
 62
7
  6
CONTINUOUS
 10
153.5029447301
 20
221.0703433655
  0
VERTEX
  8
0
 62
7
  6
CONTINUOUS
 10
153.489442589
 20
221.1411524362
  0
VERTEX
  8
0
 62
7
  6
CONTINUOUS
 10
153.4740578422
 20
221.2064499859
  0
VERTEX
  8
0
 62
7
  6
CONTINUOUS
 10
153.4565233272
 20
221.2728071444
  0
VERTEX
  8
0
 62
7
  6
CONTINUOUS
 10
153.4362872833
 20
221.3447548801
  0
SEQEND
  0
LINE
  8
0
 62
7
  6
CONTINUOUS
 10
153.2169293309
 20
70.1850272371
 11
153.2169293309
 21
70.781945076
  0
LINE
  8
0
 62
7
  6
CONTINUOUS
 10
153.2169293309
 20
82.8850272371
 11
153.2169293309
 21
83.481945076
  0
LINE
  8
0
 62
7
  6
CONTINUOUS
 10
153.2169293309
 20
95.5850272371
 11
153.2169293309
 21
96.181945076
  0
LINE
  8
0
 62
7
  6
CONTINUOUS
 10
153.2169293309
 20
108.2850272371
 11
153.2169293309
 21
108.881945076
  0
LINE
  8
0
 62
7
  6
CONTINUOUS
 10
153.2169293309
 20
120.9850272371
 11
153.2169293309
 21
121.581945076
  0
LINE
  8
0
 62
7
  6
CONTINUOUS
 10
153.2169293309
 20
133.6850272371
 11
153.2169293309
 21
134.281945076
  0
LINE
  8
0
 62
7
  6
CONTINUOUS
 10
153.2169293309
 20
146.3850272371
 11
153.2169293309
 21
146.981945076
  0
LINE
  8
0
 62
7
  6
CONTINUOUS
 10
153.2169293309
 20
159.0850272371
 11
153.2169293309
 21
159.681945076
  0
LINE
  8
0
 62
7
  6
CONTINUOUS
 10
153.2169293309
 20
171.7850272371
 11
153.2169293309
 21
172.381945076
  0
LINE
  8
0
 62
7
  6
CONTINUOUS
 10
153.2169293309
 20
184.4850272371
 11
153.2169293309
 21
185.081945076
  0
LINE
  8
0
 62
7
  6
CONTINUOUS
 10
153.2169293309
 20
197.1850272371
 11
153.2169293309
 21
197.781945076
  0
LINE
  8
0
 62
7
  6
CONTINUOUS
 10
153.2169293309
 20
209.8850272371
 11
153.2169293309
 21
210.481945076
  0
LINE
  8
0
 62
7
  6
CONTINUOUS
 10
153.2169293309
 20
222.5850272371
 11
153.2169293309
 21
223.181945076
  0
LINE
  8
0
 62
7
  6
CONTINUOUS
 10
153.516977053
 20
236.4334862385
 11
153.516977053
 21
208.2025823424
  0
LINE
  8
0
 62
7
  6
CONTINUOUS
 10
153.5169657676
 20
208.2047069964
 11
153.516977053
 21
195.5025823424
  0
LINE
  8
0
 62
7
  6
CONTINUOUS
 10
153.5169657676
 20
195.5047069964
 11
153.516977053
 21
182.8025823424
  0
LINE
  8
0
 62
7
  6
CONTINUOUS
 10
153.5169657676
 20
182.8047069964
 11
153.516977053
 21
170.1025823424
  0
LINE
  8
0
 62
7
  6
CONTINUOUS
 10
153.5169657676
 20
170.1047069964
 11
153.516977053
 21
157.4025823424
  0
LINE
  8
0
 62
7
  6
CONTINUOUS
 10
153.5169657676
 20
157.4047069964
 11
153.516977053
 21
144.7025823424
  0
LINE
  8
0
 62
7
  6
CONTINUOUS
 10
153.5169657676
 20
144.7047069964
 11
153.516977053
 21
132.0025823424
  0
LINE
  8
0
 62
7
  6
CONTINUOUS
 10
153.5169657676
 20
132.0047069964
 11
153.516977053
 21
93.9025823424
  0
LINE
  8
0
 62
7
  6
CONTINUOUS
 10
153.5169657676
 20
93.9047069964
 11
153.516977053
 21
81.2025823424
  0
LINE
  8
0
 62
7
  6
CONTINUOUS
 10
153.5169657676
 20
81.2047069964
 11
153.516977053
 21
68.5025823424
  0
LINE
  8
0
 62
7
  6
CONTINUOUS
 10
153.5169657676
 20
68.5047069964
 11
153.516977053
 21
56.9334862385
  0
LINE
  8
0
 62
7
  6
CONTINUOUS
 10
153.5169762027
 20
224.863094402
 11
153.5169754729
 21
224.8619936096
  0
LINE
  8
0
 62
7
  6
CONTINUOUS
 10
153.5169762027
 20
212.163094402
 11
153.5169754729
 21
212.1619936096
  0
LINE
  8
0
 62
7
  6
CONTINUOUS
 10
153.5169762027
 20
199.463094402
 11
153.5169754729
 21
199.4619936096
  0
LINE
  8
0
 62
7
  6
CONTINUOUS
 10
153.5169762027
 20
186.763094402
 11
153.5169754729
 21
186.7619936096
  0
LINE
  8
0
 62
7
  6
CONTINUOUS
 10
153.5169762027
 20
174.063094402
 11
153.5169754729
 21
174.0619936096
  0
LINE
  8
0
 62
7
  6
CONTINUOUS
 10
153.5169762027
 20
161.363094402
 11
153.5169754729
 21
161.3619936096
  0
LINE
  8
0
 62
7
  6
CONTINUOUS
 10
153.5169762027
 20
148.663094402
 11
153.5169754729
 21
148.6619936096
  0
LINE
  8
0
 62
7
  6
CONTINUOUS
 10
153.5169762027
 20
135.963094402
 11
153.5169754729
 21
135.9619936096
  0
LINE
  8
0
 62
7
  6
CONTINUOUS
 10
153.5169762027
 20
123.263094402
 11
153.5169754729
 21
123.2619936096
  0
LINE
  8
0
 62
7
  6
CONTINUOUS
 10
153.5169762027
 20
110.563094402
 11
153.5169754729
 21
110.5619936096
  0
LINE
  8
0
 62
7
  6
CONTINUOUS
 10
153.5169762027
 20
97.863094402
 11
153.5169754729
 21
97.8619936096
  0
LINE
  8
0
 62
7
  6
CONTINUOUS
 10
153.5169762027
 20
85.163094402
 11
153.5169754729
 21
85.1619936096
  0
LINE
  8
0
 62
7
  6
CONTINUOUS
 10
153.5169762027
 20
72.463094402
 11
153.5169754729
 21
72.4619936096
  0
POLYLINE
  8
0
 62
7
  6
CONTINUOUS
 66
1
 70
0
  0
VERTEX
  8
0
 62
7
  6
CONTINUOUS
 10
153.2169290868
 20
172.3819450748
  0
VERTEX
  8
0
 62
7
  6
CONTINUOUS
 10
153.219889067
 20
172.5161468299
  0
VERTEX
  8
0
 62
7
  6
CONTINUOUS
 10
153.2365251535
 20
172.7286420442
  0
VERTEX
  8
0
 62
7
  6
CONTINUOUS
 10
153.2639369805
 20
172.9228480598
  0
VERTEX
  8
0
 62
7
  6
CONTINUOUS
 10
153.2970493059
 20
173.0945611953
  0
VERTEX
  8
0
 62
7
  6
CONTINUOUS
 10
153.3317761918
 20
173.2438375384
  0
VERTEX
  8
0
 62
7
  6
CONTINUOUS
 10
153.3652263768
 20
173.3719429684
  0
VERTEX
  8
0
 62
7
  6
CONTINUOUS
 10
153.3956128812
 20
173.4807460309
  0
VERTEX
  8
0
 62
7
  6
CONTINUOUS
 10
153.4454156703
 20
173.6543085062
  0
SEQEND
  0
POLYLINE
  8
0
 62
7
  6
CONTINUOUS
 66
1
 70
0
  0
VERTEX
  8
0
 62
7
  6
CONTINUOUS
 10
153.2169290868
 20
159.6819450748
  0
VERTEX
  8
0
 62
7
  6
CONTINUOUS
 10
153.219889067
 20
159.8161468299
  0
VERTEX
  8
0
 62
7
  6
CONTINUOUS
 10
153.2365251535
 20
160.0286420442
  0
VERTEX
  8
0
 62
7
  6
CONTINUOUS
 10
153.2639369805
 20
160.2228480598
  0
VERTEX
  8
0
 62
7
  6
CONTINUOUS
 10
153.2970493059
 20
160.3945611953
  0
VERTEX
  8
0
 62
7
  6
CONTINUOUS
 10
153.3317761918
 20
160.5438375384
  0
VERTEX
  8
0
 62
7
  6
CONTINUOUS
 10
153.3652263768
 20
160.6719429684
  0
VERTEX
  8
0
 62
7
  6
CONTINUOUS
 10
153.3956128812
 20
160.7807460309
  0
VERTEX
  8
0
 62
7
  6
CONTINUOUS
 10
153.4454156703
 20
160.9543085062
  0
SEQEND
  0
POLYLINE
  8
0
 62
7
  6
CONTINUOUS
 66
1
 70
0
  0
VERTEX
  8
0
 62
7
  6
CONTINUOUS
 10
153.2169290868
 20
146.9819450748
  0
VERTEX
  8
0
 62
7
  6
CONTINUOUS
 10
153.219889067
 20
147.1161468299
  0
VERTEX
  8
0
 62
7
  6
CONTINUOUS
 10
153.2365251535
 20
147.3286420442
  0
VERTEX
  8
0
 62
7
  6
CONTINUOUS
 10
153.2639369805
 20
147.5228480598
  0
VERTEX
  8
0
 62
7
  6
CONTINUOUS
 10
153.2970493059
 20
147.6945611953
  0
VERTEX
  8
0
 62
7
  6
CONTINUOUS
 10
153.3317761918
 20
147.8438375384
  0
VERTEX
  8
0
 62
7
  6
CONTINUOUS
 10
153.3652263768
 20
147.9719429684
  0
VERTEX
  8
0
 62
7
  6
CONTINUOUS
 10
153.3956128812
 20
148.0807460309
  0
VERTEX
  8
0
 62
7
  6
CONTINUOUS
 10
153.4454156703
 20
148.2543085062
  0
SEQEND
  0
POLYLINE
  8
0
 62
7
  6
CONTINUOUS
 66
1
 70
0
  0
VERTEX
  8
0
 62
7
  6
CONTINUOUS
 10
153.2169290868
 20
134.2819450748
  0
VERTEX
  8
0
 62
7
  6
CONTINUOUS
 10
153.219889067
 20
134.4161468299
  0
VERTEX
  8
0
 62
7
  6
CONTINUOUS
 10
153.2365251535
 20
134.6286420442
  0
VERTEX
  8
0
 62
7
  6
CONTINUOUS
 10
153.2639369805
 20
134.8228480598
  0
VERTEX
  8
0
 62
7
  6
CONTINUOUS
 10
153.2970493059
 20
134.9945611953
  0
VERTEX
  8
0
 62
7
  6
CONTINUOUS
 10
153.3317761918
 20
135.1438375384
  0
VERTEX
  8
0
 62
7
  6
CONTINUOUS
 10
153.3652263768
 20
135.2719429684
  0
VERTEX
  8
0
 62
7
  6
CONTINUOUS
 10
153.3956128812
 20
135.3807460309
  0
VERTEX
  8
0
 62
7
  6
CONTINUOUS
 10
153.4454156703
 20
135.5543085062
  0
SEQEND
  0
POLYLINE
  8
0
 62
7
  6
CONTINUOUS
 66
1
 70
0
  0
VERTEX
  8
0
 62
7
  6
CONTINUOUS
 10
153.2169290868
 20
121.5819450748
  0
VERTEX
  8
0
 62
7
  6
CONTINUOUS
 10
153.219889067
 20
121.7161468299
  0
VERTEX
  8
0
 62
7
  6
CONTINUOUS
 10
153.2365251535
 20
121.9286420442
  0
VERTEX
  8
0
 62
7
  6
CONTINUOUS
 10
153.2639369805
 20
122.1228480598
  0
VERTEX
  8
0
 62
7
  6
CONTINUOUS
 10
153.2970493059
 20
122.2945611953
  0
VERTEX
  8
0
 62
7
  6
CONTINUOUS
 10
153.3317761918
 20
122.4438375384
  0
VERTEX
  8
0
 62
7
  6
CONTINUOUS
 10
153.3652263768
 20
122.5719429684
  0
VERTEX
  8
0
 62
7
  6
CONTINUOUS
 10
153.3956128812
 20
122.6807460309
  0
VERTEX
  8
0
 62
7
  6
CONTINUOUS
 10
153.4454156703
 20
122.8543085062
  0
SEQEND
  0
POLYLINE
  8
0
 62
7
  6
CONTINUOUS
 66
1
 70
0
  0
VERTEX
  8
0
 62
7
  6
CONTINUOUS
 10
153.2169290868
 20
108.8819450748
  0
VERTEX
  8
0
 62
7
  6
CONTINUOUS
 10
153.219889067
 20
109.0161468299
  0
VERTEX
  8
0
 62
7
  6
CONTINUOUS
 10
153.2365251535
 20
109.2286420442
  0
VERTEX
  8
0
 62
7
  6
CONTINUOUS
 10
153.2639369805
 20
109.4228480598
  0
VERTEX
  8
0
 62
7
  6
CONTINUOUS
 10
153.2970493059
 20
109.5945611953
  0
VERTEX
  8
0
 62
7
  6
CONTINUOUS
 10
153.3317761918
 20
109.7438375384
  0
VERTEX
  8
0
 62
7
  6
CONTINUOUS
 10
153.3652263768
 20
109.8719429684
  0
VERTEX
  8
0
 62
7
  6
CONTINUOUS
 10
153.3956128812
 20
109.9807460309
  0
VERTEX
  8
0
 62
7
  6
CONTINUOUS
 10
153.4454156703
 20
110.1543085062
  0
SEQEND
  0
POLYLINE
  8
0
 62
7
  6
CONTINUOUS
 66
1
 70
0
  0
VERTEX
  8
0
 62
7
  6
CONTINUOUS
 10
153.2169290868
 20
96.1819450748
  0
VERTEX
  8
0
 62
7
  6
CONTINUOUS
 10
153.219889067
 20
96.3161468299
  0
VERTEX
  8
0
 62
7
  6
CONTINUOUS
 10
153.2365251535
 20
96.5286420442
  0
VERTEX
  8
0
 62
7
  6
CONTINUOUS
 10
153.2639369805
 20
96.7228480598
  0
VERTEX
  8
0
 62
7
  6
CONTINUOUS
 10
153.2970493059
 20
96.8945611953
  0
VERTEX
  8
0
 62
7
  6
CONTINUOUS
 10
153.3317761918
 20
97.0438375384
  0
VERTEX
  8
0
 62
7
  6
CONTINUOUS
 10
153.3652263768
 20
97.1719429684
  0
VERTEX
  8
0
 62
7
  6
CONTINUOUS
 10
153.3956128812
 20
97.2807460309
  0
VERTEX
  8
0
 62
7
  6
CONTINUOUS
 10
153.4454156703
 20
97.4543085062
  0
SEQEND
  0
POLYLINE
  8
0
 62
7
  6
CONTINUOUS
 66
1
 70
0
  0
VERTEX
  8
0
 62
7
  6
CONTINUOUS
 10
153.2169290868
 20
83.4819450748
  0
VERTEX
  8
0
 62
7
  6
CONTINUOUS
 10
153.219889067
 20
83.6161468299
  0
VERTEX
  8
0
 62
7
  6
CONTINUOUS
 10
153.2365251535
 20
83.8286420442
  0
VERTEX
  8
0
 62
7
  6
CONTINUOUS
 10
153.2639369805
 20
84.0228480598
  0
VERTEX
  8
0
 62
7
  6
CONTINUOUS
 10
153.2970493059
 20
84.1945611953
  0
VERTEX
  8
0
 62
7
  6
CONTINUOUS
 10
153.3317761918
 20
84.3438375384
  0
VERTEX
  8
0
 62
7
  6
CONTINUOUS
 10
153.3652263768
 20
84.4719429684
  0
VERTEX
  8
0
 62
7
  6
CONTINUOUS
 10
153.3956128812
 20
84.5807460309
  0
VERTEX
  8
0
 62
7
  6
CONTINUOUS
 10
153.4454156703
 20
84.7543085062
  0
SEQEND
  0
POLYLINE
  8
0
 62
7
  6
CONTINUOUS
 66
1
 70
0
  0
VERTEX
  8
0
 62
7
  6
CONTINUOUS
 10
153.2169290868
 20
70.7819450748
  0
VERTEX
  8
0
 62
7
  6
CONTINUOUS
 10
153.219889067
 20
70.9161468299
  0
VERTEX
  8
0
 62
7
  6
CONTINUOUS
 10
153.2365251535
 20
71.1286420442
  0
VERTEX
  8
0
 62
7
  6
CONTINUOUS
 10
153.2639369805
 20
71.3228480598
  0
VERTEX
  8
0
 62
7
  6
CONTINUOUS
 10
153.2970493059
 20
71.4945611953
  0
VERTEX
  8
0
 62
7
  6
CONTINUOUS
 10
153.3317761918
 20
71.6438375384
  0
VERTEX
  8
0
 62
7
  6
CONTINUOUS
 10
153.3652263768
 20
71.7719429684
  0
VERTEX
  8
0
 62
7
  6
CONTINUOUS
 10
153.3956128812
 20
71.8807460309
  0
VERTEX
  8
0
 62
7
  6
CONTINUOUS
 10
153.4454156703
 20
72.0543085062
  0
SEQEND
  0
POLYLINE
  8
0
 62
7
  6
CONTINUOUS
 66
1
 70
0
  0
VERTEX
  8
0
 62
7
  6
CONTINUOUS
 10
153.4454156703
 20
148.2543085062
  0
VERTEX
  8
0
 62
7
  6
CONTINUOUS
 10
153.4654278373
 20
148.32717541
  0
VERTEX
  8
0
 62
7
  6
CONTINUOUS
 10
153.4826750252
 20
148.3958662717
  0
VERTEX
  8
0
 62
7
  6
CONTINUOUS
 10
153.4979416834
 20
148.4679524621
  0
VERTEX
  8
0
 62
7
  6
CONTINUOUS
 10
153.5102399859
 20
148.5489712793
  0
VERTEX
  8
0
 62
7
  6
CONTINUOUS
 10
153.5167919049
 20
148.6451181557
  0
SEQEND
  0
POLYLINE
  8
0
 62
7
  6
CONTINUOUS
 66
1
 70
0
  0
VERTEX
  8
0
 62
7
  6
CONTINUOUS
 10
144.7885783781
 20
107.012802067
  0
VERTEX
  8
0
 62
7
  6
CONTINUOUS
 10
144.7685576787
 20
106.9399222314
  0
VERTEX
  8
0
 62
7
  6
CONTINUOUS
 10
144.751305217
 20
106.8712179939
  0
VERTEX
  8
0
 62
7
  6
CONTINUOUS
 10
144.7360510154
 20
106.7992308843
  0
VERTEX
  8
0
 62
7
  6
CONTINUOUS
 10
144.7237396541
 20
106.718241574
  0
VERTEX
  8
0
 62
7
  6
CONTINUOUS
 10
144.7171638406
 20
106.622055228
  0
SEQEND
  0
POLYLINE
  8
0
 62
7
  6
CONTINUOUS
 66
1
 70
0
  0
VERTEX
  8
0
 62
7
  6
CONTINUOUS
 10
153.4454156703
 20
135.5543085062
  0
VERTEX
  8
0
 62
7
  6
CONTINUOUS
 10
153.4654278373
 20
135.62717541
  0
VERTEX
  8
0
 62
7
  6
CONTINUOUS
 10
153.4826750252
 20
135.6958662717
  0
VERTEX
  8
0
 62
7
  6
CONTINUOUS
 10
153.4979416834
 20
135.7679524621
  0
VERTEX
  8
0
 62
7
  6
CONTINUOUS
 10
153.5102399859
 20
135.8489712793
  0
VERTEX
  8
0
 62
7
  6
CONTINUOUS
 10
153.5167919049
 20
135.9451181557
  0
SEQEND
  0
POLYLINE
  8
0
 62
7
  6
CONTINUOUS
 66
1
 70
0
  0
VERTEX
  8
0
 62
7
  6
CONTINUOUS
 10
144.7885783781
 20
94.312802067
  0
VERTEX
  8
0
 62
7
  6
CONTINUOUS
 10
144.7685576787
 20
94.2399222314
  0
VERTEX
  8
0
 62
7
  6
CONTINUOUS
 10
144.751305217
 20
94.1712179939
  0
VERTEX
  8
0
 62
7
  6
CONTINUOUS
 10
144.7360510154
 20
94.0992308843
  0
VERTEX
  8
0
 62
7
  6
CONTINUOUS
 10
144.7237396541
 20
94.018241574
  0
VERTEX
  8
0
 62
7
  6
CONTINUOUS
 10
144.7171638406
 20
93.922055228
  0
SEQEND
  0
POLYLINE
  8
0
 62
7
  6
CONTINUOUS
 66
1
 70
0
  0
VERTEX
  8
0
 62
7
  6
CONTINUOUS
 10
144.8036980929
 20
125.763329159
  0
VERTEX
  8
0
 62
7
  6
CONTINUOUS
 10
144.7551321226
 20
125.6673521671
  0
VERTEX
  8
0
 62
7
  6
CONTINUOUS
 10
144.726421273
 20
125.5786964289
  0
VERTEX
  8
0
 62
7
  6
CONTINUOUS
 10
144.716977053
 20
125.4999365568
  0
SEQEND
  0
LINE
  8
0
 62
7
  6
CONTINUOUS
 10
145.566977053
 20
156.3834862385
 11
152.666977053
 21
156.3834862385
  0
POLYLINE
  8
0
 62
7
  6
CONTINUOUS
 66
1
 70
0
  0
VERTEX
  8
0
 62
7
  6
CONTINUOUS
 10
144.8036980926
 20
167.6036433186
  0
VERTEX
  8
0
 62
7
  6
CONTINUOUS
 10
144.8252818295
 20
167.557362141
  0
VERTEX
  8
0
 62
7
  6
CONTINUOUS
 10
144.83634995
 20
167.5103916584
  0
SEQEND
  0
POLYLINE
  8
0
 62
7
  6
CONTINUOUS
 66
1
 70
0
  0
VERTEX
  8
0
 62
7
  6
CONTINUOUS
 10
153.4362872833
 20
145.1447548801
  0
VERTEX
  8
0
 62
7
  6
CONTINUOUS
 10
153.3867045417
 20
145.3176234925
  0
VERTEX
  8
0
 62
7
  6
CONTINUOUS
 10
153.3570673425
 20
145.425281623
  0
VERTEX
  8
0
 62
7
  6
CONTINUOUS
 10
153.3249601801
 20
145.5508054105
  0
VERTEX
  8
0
 62
7
  6
CONTINUOUS
 10
153.2921154066
 20
145.6956654278
  0
VERTEX
  8
0
 62
7
  6
CONTINUOUS
 10
153.261080118
 20
145.8612355301
  0
VERTEX
  8
0
 62
7
  6
CONTINUOUS
 10
153.2354926911
 20
146.0476769498
  0
VERTEX
  8
0
 62
7
  6
CONTINUOUS
 10
153.2198583354
 20
146.251536644
  0
VERTEX
  8
0
 62
7
  6
CONTINUOUS
 10
153.2169253322
 20
146.3850272365
  0
SEQEND
  0
POLYLINE
  8
0
 62
7
  6
CONTINUOUS
 66
1
 70
0
  0
VERTEX
  8
0
 62
7
  6
CONTINUOUS
 10
144.7975257844
 20
186.3227061459
  0
VERTEX
  8
0
 62
7
  6
CONTINUOUS
 10
144.8470980373
 20
186.1498803197
  0
VERTEX
  8
0
 62
7
  6
CONTINUOUS
 10
144.8767543575
 20
186.0421923222
  0
VERTEX
  8
0
 62
7
  6
CONTINUOUS
 10
144.9088700224
 20
185.9166649906
  0
VERTEX
  8
0
 62
7
  6
CONTINUOUS
 10
144.9417397532
 20
185.7717804799
  0
VERTEX
  8
0
 62
7
  6
CONTINUOUS
 10
144.9728101384
 20
185.6061359762
  0
VERTEX
  8
0
 62
7
  6
CONTINUOUS
 10
144.9984328407
 20
185.4195587873
  0
VERTEX
  8
0
 62
7
  6
CONTINUOUS
 10
145.0140918715
 20
185.2155361238
  0
VERTEX
  8
0
 62
7
  6
CONTINUOUS
 10
145.0170249981
 20
185.0819452399
  0
SEQEND
  0
POLYLINE
  8
0
 62
7
  6
CONTINUOUS
 66
1
 70
0
  0
VERTEX
  8
0
 62
7
  6
CONTINUOUS
 10
153.4362872833
 20
157.8447548801
  0
VERTEX
  8
0
 62
7
  6
CONTINUOUS
 10
153.3867045417
 20
158.0176234925
  0
VERTEX
  8
0
 62
7
  6
CONTINUOUS
 10
153.3570673425
 20
158.125281623
  0
VERTEX
  8
0
 62
7
  6
CONTINUOUS
 10
153.3249601801
 20
158.2508054105
  0
VERTEX
  8
0
 62
7
  6
CONTINUOUS
 10
153.2921154066
 20
158.3956654278
  0
VERTEX
  8
0
 62
7
  6
CONTINUOUS
 10
153.261080118
 20
158.5612355301
  0
VERTEX
  8
0
 62
7
  6
CONTINUOUS
 10
153.2354926911
 20
158.7476769498
  0
VERTEX
  8
0
 62
7
  6
CONTINUOUS
 10
153.2198583354
 20
158.951536644
  0
VERTEX
  8
0
 62
7
  6
CONTINUOUS
 10
153.2169253322
 20
159.0850272365
  0
SEQEND
  0
LINE
  8
0
 62
7
  6
CONTINUOUS
 10
153.516977053
 20
236.4334862385
 11
153.0434826941
 21
241.8455515259
  0
LINE
  8
0
 62
7
  6
CONTINUOUS
 10
153.0434826941
 20
51.5214209512
 11
153.516977053
 21
56.9334862385
  0
POLYLINE
  8
0
 62
7
  6
CONTINUOUS
 66
1
 70
0
  0
VERTEX
  8
0
 62
7
  6
CONTINUOUS
 10
153.4454156703
 20
122.8543085062
  0
VERTEX
  8
0
 62
7
  6
CONTINUOUS
 10
153.4654278373
 20
122.92717541
  0
VERTEX
  8
0
 62
7
  6
CONTINUOUS
 10
153.4826750252
 20
122.9958662717
  0
VERTEX
  8
0
 62
7
  6
CONTINUOUS
 10
153.4979416834
 20
123.0679524621
  0
VERTEX
  8
0
 62
7
  6
CONTINUOUS
 10
153.5102399859
 20
123.1489712793
  0
VERTEX
  8
0
 62
7
  6
CONTINUOUS
 10
153.5167919049
 20
123.2451181558
  0
SEQEND
  0
POLYLINE
  8
0
 62
7
  6
CONTINUOUS
 66
1
 70
0
  0
VERTEX
  8
0
 62
7
  6
CONTINUOUS
 10
144.7885783781
 20
81.612802067
  0
VERTEX
  8
0
 62
7
  6
CONTINUOUS
 10
144.7685576787
 20
81.5399222314
  0
VERTEX
  8
0
 62
7
  6
CONTINUOUS
 10
144.751305217
 20
81.4712179939
  0
VERTEX
  8
0
 62
7
  6
CONTINUOUS
 10
144.7360510154
 20
81.3992308843
  0
VERTEX
  8
0
 62
7
  6
CONTINUOUS
 10
144.7237396541
 20
81.318241574
  0
VERTEX
  8
0
 62
7
  6
CONTINUOUS
 10
144.7171638406
 20
81.222055228
  0
SEQEND
  0
POLYLINE
  8
0
 62
7
  6
CONTINUOUS
 66
1
 70
0
  0
VERTEX
  8
0
 62
7
  6
CONTINUOUS
 10
153.4454156703
 20
110.1543085062
  0
VERTEX
  8
0
 62
7
  6
CONTINUOUS
 10
153.4654278373
 20
110.22717541
  0
VERTEX
  8
0
 62
7
  6
CONTINUOUS
 10
153.4826750252
 20
110.2958662717
  0
VERTEX
  8
0
 62
7
  6
CONTINUOUS
 10
153.4979416834
 20
110.3679524621
  0
VERTEX
  8
0
 62
7
  6
CONTINUOUS
 10
153.5102399859
 20
110.4489712793
  0
VERTEX
  8
0
 62
7
  6
CONTINUOUS
 10
153.5167919049
 20
110.5451181558
  0
SEQEND
  0
LINE
  8
0
 62
7
  6
CONTINUOUS
 10
152.666977053
 20
162.3834862385
 11
145.566977053
 21
162.3834862385
  0
LINE
  8
0
 62
7
  6
CONTINUOUS
 10
138.216977053
 20
163.4334862385
 11
144.716977053
 21
163.4334862385
  0
POLYLINE
  8
0
 62
7
  6
CONTINUOUS
 66
1
 70
0
  0
VERTEX
  8
0
 62
7
  6
CONTINUOUS
 10
144.7975257844
 20
199.0227061459
  0
VERTEX
  8
0
 62
7
  6
CONTINUOUS
 10
144.8470980373
 20
198.8498803197
  0
VERTEX
  8
0
 62
7
  6
CONTINUOUS
 10
144.8767543575
 20
198.7421923222
  0
VERTEX
  8
0
 62
7
  6
CONTINUOUS
 10
144.9088700224
 20
198.6166649906
  0
VERTEX
  8
0
 62
7
  6
CONTINUOUS
 10
144.9417397532
 20
198.4717804799
  0
VERTEX
  8
0
 62
7
  6
CONTINUOUS
 10
144.9728101384
 20
198.3061359762
  0
VERTEX
  8
0
 62
7
  6
CONTINUOUS
 10
144.9984328407
 20
198.1195587874
  0
VERTEX
  8
0
 62
7
  6
CONTINUOUS
 10
145.0140918715
 20
197.9155361238
  0
VERTEX
  8
0
 62
7
  6
CONTINUOUS
 10
145.0170249981
 20
197.7819452399
  0
SEQEND
  0
POLYLINE
  8
0
 62
7
  6
CONTINUOUS
 66
1
 70
0
  0
VERTEX
  8
0
 62
7
  6
CONTINUOUS
 10
153.4362872833
 20
170.5447548801
  0
VERTEX
  8
0
 62
7
  6
CONTINUOUS
 10
153.3867045417
 20
170.7176234925
  0
VERTEX
  8
0
 62
7
  6
CONTINUOUS
 10
153.3570673425
 20
170.825281623
  0
VERTEX
  8
0
 62
7
  6
CONTINUOUS
 10
153.3249601801
 20
170.9508054105
  0
VERTEX
  8
0
 62
7
  6
CONTINUOUS
 10
153.2921154066
 20
171.0956654278
  0
VERTEX
  8
0
 62
7
  6
CONTINUOUS
 10
153.261080118
 20
171.2612355301
  0
VERTEX
  8
0
 62
7
  6
CONTINUOUS
 10
153.2354926911
 20
171.4476769498
  0
VERTEX
  8
0
 62
7
  6
CONTINUOUS
 10
153.2198583354
 20
171.651536644
  0
VERTEX
  8
0
 62
7
  6
CONTINUOUS
 10
153.2169253322
 20
171.7850272365
  0
SEQEND
  0
POLYLINE
  8
0
 62
7
  6
CONTINUOUS
 66
1
 70
0
  0
VERTEX
  8
0
 62
7
  6
CONTINUOUS
 10
144.7975257844
 20
211.7227061459
  0
VERTEX
  8
0
 62
7
  6
CONTINUOUS
 10
144.8470980373
 20
211.5498803197
  0
VERTEX
  8
0
 62
7
  6
CONTINUOUS
 10
144.8767543575
 20
211.4421923222
  0
VERTEX
  8
0
 62
7
  6
CONTINUOUS
 10
144.9088700224
 20
211.3166649906
  0
VERTEX
  8
0
 62
7
  6
CONTINUOUS
 10
144.9417397532
 20
211.1717804799
  0
VERTEX
  8
0
 62
7
  6
CONTINUOUS
 10
144.9728101384
 20
211.0061359762
  0
VERTEX
  8
0
 62
7
  6
CONTINUOUS
 10
144.9984328407
 20
210.8195587873
  0
VERTEX
  8
0
 62
7
  6
CONTINUOUS
 10
145.0140918715
 20
210.6155361238
  0
VERTEX
  8
0
 62
7
  6
CONTINUOUS
 10
145.0170249981
 20
210.4819452399
  0
SEQEND
  0
POLYLINE
  8
0
 62
7
  6
CONTINUOUS
 66
1
 70
0
  0
VERTEX
  8
0
 62
7
  6
CONTINUOUS
 10
153.4362872833
 20
183.2447548801
  0
VERTEX
  8
0
 62
7
  6
CONTINUOUS
 10
153.3867045417
 20
183.4176234925
  0
VERTEX
  8
0
 62
7
  6
CONTINUOUS
 10
153.3570673425
 20
183.525281623
  0
VERTEX
  8
0
 62
7
  6
CONTINUOUS
 10
153.3249601801
 20
183.6508054105
  0
VERTEX
  8
0
 62
7
  6
CONTINUOUS
 10
153.2921154066
 20
183.7956654278
  0
VERTEX
  8
0
 62
7
  6
CONTINUOUS
 10
153.261080118
 20
183.9612355301
  0
VERTEX
  8
0
 62
7
  6
CONTINUOUS
 10
153.2354926911
 20
184.1476769498
  0
VERTEX
  8
0
 62
7
  6
CONTINUOUS
 10
153.2198583354
 20
184.351536644
  0
VERTEX
  8
0
 62
7
  6
CONTINUOUS
 10
153.2169253322
 20
184.4850272365
  0
SEQEND
  0
POLYLINE
  8
0
 62
7
  6
CONTINUOUS
 66
1
 70
0
  0
VERTEX
  8
0
 62
7
  6
CONTINUOUS
 10
144.7885783781
 20
68.912802067
  0
VERTEX
  8
0
 62
7
  6
CONTINUOUS
 10
144.7685576787
 20
68.8399222314
  0
VERTEX
  8
0
 62
7
  6
CONTINUOUS
 10
144.751305217
 20
68.7712179939
  0
VERTEX
  8
0
 62
7
  6
CONTINUOUS
 10
144.7360510154
 20
68.6992308843
  0
VERTEX
  8
0
 62
7
  6
CONTINUOUS
 10
144.7237396541
 20
68.618241574
  0
VERTEX
  8
0
 62
7
  6
CONTINUOUS
 10
144.7171638406
 20
68.522055228
  0
SEQEND
  0
POLYLINE
  8
0
 62
7
  6
CONTINUOUS
 66
1
 70
0
  0
VERTEX
  8
0
 62
7
  6
CONTINUOUS
 10
153.4454156703
 20
97.4543085062
  0
VERTEX
  8
0
 62
7
  6
CONTINUOUS
 10
153.4654278373
 20
97.52717541
  0
VERTEX
  8
0
 62
7
  6
CONTINUOUS
 10
153.4826750252
 20
97.5958662717
  0
VERTEX
  8
0
 62
7
  6
CONTINUOUS
 10
153.4979416834
 20
97.6679524621
  0
VERTEX
  8
0
 62
7
  6
CONTINUOUS
 10
153.5102399859
 20
97.7489712793
  0
VERTEX
  8
0
 62
7
  6
CONTINUOUS
 10
153.5167919049
 20
97.8451181557
  0
SEQEND
  0
POLYLINE
  8
0
 62
7
  6
CONTINUOUS
 66
1
 70
0
  0
VERTEX
  8
0
 62
7
  6
CONTINUOUS
 10
153.4454156703
 20
84.7543085062
  0
VERTEX
  8
0
 62
7
  6
CONTINUOUS
 10
153.4654278373
 20
84.82717541
  0
VERTEX
  8
0
 62
7
  6
CONTINUOUS
 10
153.4826750252
 20
84.8958662717
  0
VERTEX
  8
0
 62
7
  6
CONTINUOUS
 10
153.4979416834
 20
84.9679524621
  0
VERTEX
  8
0
 62
7
  6
CONTINUOUS
 10
153.5102399859
 20
85.0489712793
  0
VERTEX
  8
0
 62
7
  6
CONTINUOUS
 10
153.5167919049
 20
85.1451181558
  0
SEQEND
  0
LINE
  8
0
 62
7
  6
CONTINUOUS
 10
138.216977053
 20
168.0334862385
 11
144.716977053
 21
168.0334862385
  0
LINE
  8
0
 62
7
  6
CONTINUOUS
 10
145.566977053
 20
169.0834862385
 11
152.666977053
 21
169.0834862385
  0
POLYLINE
  8
0
 62
7
  6
CONTINUOUS
 66
1
 70
0
  0
VERTEX
  8
0
 62
7
  6
CONTINUOUS
 10
144.7975257844
 20
224.4227061459
  0
VERTEX
  8
0
 62
7
  6
CONTINUOUS
 10
144.8470980373
 20
224.2498803197
  0
VERTEX
  8
0
 62
7
  6
CONTINUOUS
 10
144.8767543575
 20
224.1421923222
  0
VERTEX
  8
0
 62
7
  6
CONTINUOUS
 10
144.9088700224
 20
224.0166649906
  0
VERTEX
  8
0
 62
7
  6
CONTINUOUS
 10
144.9417397532
 20
223.8717804799
  0
VERTEX
  8
0
 62
7
  6
CONTINUOUS
 10
144.9728101384
 20
223.7061359762
  0
VERTEX
  8
0
 62
7
  6
CONTINUOUS
 10
144.9984328407
 20
223.5195587873
  0
VERTEX
  8
0
 62
7
  6
CONTINUOUS
 10
145.0140918715
 20
223.3155361238
  0
VERTEX
  8
0
 62
7
  6
CONTINUOUS
 10
145.0170249981
 20
223.1819452399
  0
SEQEND
  0
POLYLINE
  8
0
 62
7
  6
CONTINUOUS
 66
1
 70
0
  0
VERTEX
  8
0
 62
7
  6
CONTINUOUS
 10
153.4362872833
 20
195.9447548801
  0
VERTEX
  8
0
 62
7
  6
CONTINUOUS
 10
153.3867045417
 20
196.1176234925
  0
VERTEX
  8
0
 62
7
  6
CONTINUOUS
 10
153.3570673425
 20
196.225281623
  0
VERTEX
  8
0
 62
7
  6
CONTINUOUS
 10
153.3249601801
 20
196.3508054105
  0
VERTEX
  8
0
 62
7
  6
CONTINUOUS
 10
153.2921154066
 20
196.4956654278
  0
VERTEX
  8
0
 62
7
  6
CONTINUOUS
 10
153.261080118
 20
196.6612355301
  0
VERTEX
  8
0
 62
7
  6
CONTINUOUS
 10
153.2354926911
 20
196.8476769498
  0
VERTEX
  8
0
 62
7
  6
CONTINUOUS
 10
153.2198583354
 20
197.051536644
  0
VERTEX
  8
0
 62
7
  6
CONTINUOUS
 10
153.2169253322
 20
197.1850272365
  0
SEQEND
  0
POLYLINE
  8
0
 62
7
  6
CONTINUOUS
 66
1
 70
0
  0
VERTEX
  8
0
 62
7
  6
CONTINUOUS
 10
153.4362872833
 20
208.6447548801
  0
VERTEX
  8
0
 62
7
  6
CONTINUOUS
 10
153.3867045417
 20
208.8176234925
  0
VERTEX
  8
0
 62
7
  6
CONTINUOUS
 10
153.3570673425
 20
208.925281623
  0
VERTEX
  8
0
 62
7
  6
CONTINUOUS
 10
153.3249601801
 20
209.0508054105
  0
VERTEX
  8
0
 62
7
  6
CONTINUOUS
 10
153.2921154066
 20
209.1956654278
  0
VERTEX
  8
0
 62
7
  6
CONTINUOUS
 10
153.261080118
 20
209.3612355301
  0
VERTEX
  8
0
 62
7
  6
CONTINUOUS
 10
153.2354926911
 20
209.5476769498
  0
VERTEX
  8
0
 62
7
  6
CONTINUOUS
 10
153.2198583354
 20
209.751536644
  0
VERTEX
  8
0
 62
7
  6
CONTINUOUS
 10
153.2169253322
 20
209.8850272365
  0
SEQEND
  0
POLYLINE
  8
0
 62
7
  6
CONTINUOUS
 66
1
 70
0
  0
VERTEX
  8
0
 62
7
  6
CONTINUOUS
 10
153.4454156703
 20
72.0543085062
  0
VERTEX
  8
0
 62
7
  6
CONTINUOUS
 10
153.4654278373
 20
72.12717541
  0
VERTEX
  8
0
 62
7
  6
CONTINUOUS
 10
153.4826750252
 20
72.1958662717
  0
VERTEX
  8
0
 62
7
  6
CONTINUOUS
 10
153.4979416834
 20
72.2679524621
  0
VERTEX
  8
0
 62
7
  6
CONTINUOUS
 10
153.5102399859
 20
72.3489712793
  0
VERTEX
  8
0
 62
7
  6
CONTINUOUS
 10
153.5167919049
 20
72.4451181558
  0
SEQEND
  0
POLYLINE
  8
0
 62
4
  6
CONTINUOUS
 66
1
 70
0
  0
VERTEX
  8
0
 62
4
  6
CONTINUOUS
 10
145.0260602854
 20
62.2906290446
  0
VERTEX
  8
0
 62
4
  6
CONTINUOUS
 10
144.9637369487
 20
62.1234183226
  0
VERTEX
  8
0
 62
4
  6
CONTINUOUS
 10
144.9082449261
 20
61.9538180305
  0
VERTEX
  8
0
 62
4
  6
CONTINUOUS
 10
144.8596754916
 20
61.7821071295
  0
VERTEX
  8
0
 62
4
  6
CONTINUOUS
 10
144.8181085331
 20
61.6085680522
  0
VERTEX
  8
0
 62
4
  6
CONTINUOUS
 10
144.7836124206
 20
61.4334862385
  0
SEQEND
  0
LINE
  8
0
 62
7
  6
CONTINUOUS
 10
152.666977053
 20
175.0834862385
 11
145.566977053
 21
175.0834862385
  0
POLYLINE
  8
0
 62
7
  6
CONTINUOUS
 66
1
 70
0
  0
VERTEX
  8
0
 62
7
  6
CONTINUOUS
 10
153.4362872833
 20
221.3447548801
  0
VERTEX
  8
0
 62
7
  6
CONTINUOUS
 10
153.3867045417
 20
221.5176234925
  0
VERTEX
  8
0
 62
7
  6
CONTINUOUS
 10
153.3570673425
 20
221.625281623
  0
VERTEX
  8
0
 62
7
  6
CONTINUOUS
 10
153.3249601801
 20
221.7508054105
  0
VERTEX
  8
0
 62
7
  6
CONTINUOUS
 10
153.2921154066
 20
221.8956654278
  0
VERTEX
  8
0
 62
7
  6
CONTINUOUS
 10
153.261080118
 20
222.0612355301
  0
VERTEX
  8
0
 62
7
  6
CONTINUOUS
 10
153.2354926911
 20
222.2476769498
  0
VERTEX
  8
0
 62
7
  6
CONTINUOUS
 10
153.2198583354
 20
222.451536644
  0
VERTEX
  8
0
 62
7
  6
CONTINUOUS
 10
153.2169253322
 20
222.5850272365
  0
SEQEND
  0
LINE
  8
0
 62
7
  6
CONTINUOUS
 10
145.566977053
 20
181.7834862385
 11
152.666977053
 21
181.7834862385
  0
LINE
  8
0
 62
7
  6
CONTINUOUS
 10
152.666977053
 20
187.7834862385
 11
145.566977053
 21
187.7834862385
  0
LINE
  8
0
 62
7
  6
CONTINUOUS
 10
145.566977053
 20
194.4834862385
 11
152.666977053
 21
194.4834862385
  0
LINE
  8
0
 62
7
  6
CONTINUOUS
 10
152.666977053
 20
200.4834862385
 11
145.566977053
 21
200.4834862385
  0
LINE
  8
0
 62
7
  6
CONTINUOUS
 10
145.566977053
 20
207.1834862385
 11
152.666977053
 21
207.1834862385
  0
LINE
  8
0
 62
7
  6
CONTINUOUS
 10
152.666977053
 20
213.1834862385
 11
145.566977053
 21
213.1834862385
  0
LINE
  8
0
 62
7
  6
CONTINUOUS
 10
145.566977053
 20
219.8834862385
 11
152.666977053
 21
219.8834862385
  0
LINE
  8
0
 62
7
  6
CONTINUOUS
 10
152.666977053
 20
225.8834862385
 11
145.566977053
 21
225.8834862385
  0
LINE
  8
0
 62
7
  6
CONTINUOUS
 10
148.716977053
 20
226.5834862385
 11
149.516977053
 21
226.5834862385
  0
LINE
  8
0
 62
7
  6
CONTINUOUS
 10
148.716977053
 20
233.4734862385
 11
149.516977053
 21
233.4734862385
  0
LINE
  8
0
 62
7
  6
CONTINUOUS
 10
145.566977053
 20
234.1734862385
 11
152.666977053
 21
234.1734862385
  0
LINE
  8
0
 62
7
  6
CONTINUOUS
 10
152.666977053
 20
241.9334862385
 11
145.566977053
 21
241.9334862385
  0
POLYLINE
  8
0
 62
40
  6
CONTINUOUS
 66
1
 70
0
  0
VERTEX
  8
0
 62
40
  6
CONTINUOUS
 10
153.4941030117
 20
236.7057276755
  0
VERTEX
  8
0
 62
40
  6
CONTINUOUS
 10
153.502333095
 20
236.7031092832
  0
VERTEX
  8
0
 62
40
  6
CONTINUOUS
 10
153.5087378261
 20
236.7004865177
  0
VERTEX
  8
0
 62
40
  6
CONTINUOUS
 10
153.5133145392
 20
236.6978604708
  0
VERTEX
  8
0
 62
40
  6
CONTINUOUS
 10
153.5160613293
 20
236.6952322354
  0
VERTEX
  8
0
 62
40
  6
CONTINUOUS
 10
153.516977053
 20
236.6926029056
  0
SEQEND
  0
ARC
  8
0
 62
7
  6
CONTINUOUS
 10
58.0398947986
 20
261.4417476952
 40
1.0
 50
180.0
 51
270.0
  0
ARC
  8
0
 62
7
  6
CONTINUOUS
 10
43.7088947986
 20
272.3417476952
 40
4.4
 50
90.0
 51
270.0
  0
ARC
  8
0
 62
7
  6
CONTINUOUS
 10
54.9388947986
 20
272.3417476952
 40
4.4
 50
275.9790790722
 51
84.0209209278
  0
CIRCLE
  8
0
 62
7
  6
CONTINUOUS
 10
43.8588947986
 20
272.3417476952
 40
2.6
  0
ARC
  8
0
 62
7
  6
CONTINUOUS
 10
71.0398947986
 20
261.4417476952
 40
1.0
 50
270.0
 51
360.0
  0
ARC
  8
0
 62
7
  6
CONTINUOUS
 10
59.8088947986
 20
272.3417476952
 40
4.4
 50
78.645269054
 51
90.0
  0
CIRCLE
  8
0
 62
7
  6
CONTINUOUS
 10
64.3588947986
 20
272.3417476952
 40
1.7
  0
CIRCLE
  8
0
 62
7
  6
CONTINUOUS
 10
64.3588947986
 20
272.3417476952
 40
0.4
  0
ARC
  8
0
 62
7
  6
CONTINUOUS
 10
75.0398947986
 20
267.5405146245
 40
3.0
 50
139.5476615065
 51
180.0
  0
ARC
  8
0
 62
7
  6
CONTINUOUS
 10
69.4088947986
 20
272.3417476952
 40
4.4
 50
269.9999999988
 51
90.0000000011
  0
CIRCLE
  8
0
 62
7
  6
CONTINUOUS
 10
69.2588947986
 20
272.3417476952
 40
2.6
  0
ARC
  8
0
 62
7
  6
CONTINUOUS
 10
46.5765006473
 20
65.0304685291
 40
2.5
 50
44.5239289046
 51
78.8745595634
  0
ARC
  8
0
 62
7
  6
CONTINUOUS
 10
46.5765006473
 20
61.646503948
 40
2.5
 50
281.1254404366
 51
315.4760710954
  0
ARC
  8
0
 62
7
  6
CONTINUOUS
 10
40.1588947986
 20
98.0334862385
 40
0.85
 50
89.9999997861
 51
180.0
  0
ARC
  8
0
 62
7
  6
CONTINUOUS
 10
40.1588947986
 20
93.7334862385
 40
0.85
 50
180.0
 51
270.0000002139
  0
ARC
  8
0
 62
7
  6
CONTINUOUS
 10
40.1588947986
 20
85.3334862385
 40
0.85
 50
89.9999997861
 51
180.0
  0
ARC
  8
0
 62
7
  6
CONTINUOUS
 10
40.1588947986
 20
81.0334862385
 40
0.85
 50
180.0
 51
270.0000002139
  0
ARC
  8
0
 62
7
  6
CONTINUOUS
 10
40.1588947986
 20
72.6334862385
 40
0.85
 50
89.9999997861
 51
180.0
  0
ARC
  8
0
 62
7
  6
CONTINUOUS
 10
40.1588947986
 20
68.3334862385
 40
0.85
 50
180.0
 51
270.0000002139
  0
ARC
  8
0
 62
7
  6
CONTINUOUS
 10
40.1588947986
 20
58.3434862385
 40
0.85
 50
89.9999997861
 51
180.0
  0
ARC
  8
0
 62
7
  6
CONTINUOUS
 10
40.1588947986
 20
52.2834862385
 40
0.85
 50
180.0
 51
270.0000002139
  0
ARC
  8
0
 62
7
  6
CONTINUOUS
 10
46.5765006473
 20
141.2304685291
 40
2.5
 50
44.5239289046
 51
78.8745595634
  0
ARC
  8
0
 62
7
  6
CONTINUOUS
 10
40.1588947986
 20
136.1334862385
 40
0.85
 50
89.9999997861
 51
180.0
  0
ARC
  8
0
 62
7
  6
CONTINUOUS
 10
40.1588947986
 20
144.5334862385
 40
0.85
 50
180.0
 51
270.0000002139
  0
ARC
  8
0
 62
7
  6
CONTINUOUS
 10
40.1588947986
 20
131.8334862385
 40
0.85
 50
180.0
 51
270.0000002139
  0
ARC
  8
0
 62
7
  6
CONTINUOUS
 10
40.1588947986
 20
123.4334862385
 40
0.85
 50
89.9999997861
 51
180.0
  0
ARC
  8
0
 62
7
  6
CONTINUOUS
 10
40.1588947986
 20
119.1334862385
 40
0.85
 50
180.0
 51
270.0000002139
  0
ARC
  8
0
 62
7
  6
CONTINUOUS
 10
40.1588947986
 20
110.7334862385
 40
0.85
 50
89.9999997861
 51
180.0
  0
ARC
  8
0
 62
7
  6
CONTINUOUS
 10
40.1588947986
 20
106.4334862385
 40
0.85
 50
180.0
 51
270.0000002139
  0
ARC
  8
0
 62
7
  6
CONTINUOUS
 10
50.9412889498
 20
65.0304685291
 40
2.5
 50
101.1254404366
 51
135.4760710954
  0
ARC
  8
0
 62
7
  6
CONTINUOUS
 10
50.9412889498
 20
61.646503948
 40
2.5
 50
224.5239289046
 51
258.8745595634
  0
ARC
  8
0
 62
7
  6
CONTINUOUS
 10
53.9251238452
 20
61.1934862385
 40
2.0
 50
270.0
 51
309.0
  0
ARC
  8
0
 62
7
  6
CONTINUOUS
 10
53.9275936395
 20
65.4834862385
 40
2.0
 50
51.0
 51
90.0
  0
ARC
  8
0
 62
7
  6
CONTINUOUS
 10
53.9263587424
 20
75.4834862385
 40
2.0
 50
270.0
 51
309.0
  0
ARC
  8
0
 62
7
  6
CONTINUOUS
 10
53.4788947986
 20
73.7834862385
 40
0.3
 50
269.999989208
 51
360.0
  0
ARC
  8
0
 62
7
  6
CONTINUOUS
 10
53.4788947986
 20
67.1834862385
 40
0.3
 50
0.0
 51
90.0000108595
  0
ARC
  8
0
 62
7
  6
CONTINUOUS
 10
53.4788947986
 20
59.4934862385
 40
0.3
 50
269.9999892741
 51
360.0
  0
ARC
  8
0
 62
7
  6
CONTINUOUS
 10
53.4788947986
 20
79.8834862385
 40
0.3
 50
0.0
 51
90.0000107934
  0
ARC
  8
0
 62
7
  6
CONTINUOUS
 10
53.4788947986
 20
92.5834862385
 40
0.3
 50
0.0
 51
90.0000107934
  0
ARC
  8
0
 62
7
  6
CONTINUOUS
 10
53.4788947986
 20
86.4834862385
 40
0.3
 50
269.999989208
 51
360.0
  0
ARC
  8
0
 62
7
  6
CONTINUOUS
 10
53.9263587424
 20
78.1834862385
 40
2.0
 50
51.0
 51
90.0
  0
ARC
  8
0
 62
7
  6
CONTINUOUS
 10
53.9263587424
 20
88.1834862385
 40
2.0
 50
270.0
 51
309.0
  0
ARC
  8
0
 62
7
  6
CONTINUOUS
 10
53.9263587424
 20
90.8834862385
 40
2.0
 50
51.0
 51
90.0
  0
ARC
  8
0
 62
7
  6
CONTINUOUS
 10
50.9412889498
 20
141.2304685291
 40
2.5
 50
101.1254404366
 51
135.4760710954
  0
ARC
  8
0
 62
7
  6
CONTINUOUS
 10
53.4788947986
 20
105.2834862385
 40
0.3
 50
0.0
 51
90.0000107934
  0
ARC
  8
0
 62
7
  6
CONTINUOUS
 10
53.4788947986
 20
99.1834862385
 40
0.3
 50
269.999989208
 51
360.0
  0
ARC
  8
0
 62
7
  6
CONTINUOUS
 10
53.4788947986
 20
117.9834862385
 40
0.3
 50
0.0
 51
90.0000107934
  0
ARC
  8
0
 62
7
  6
CONTINUOUS
 10
53.4788947986
 20
111.8834862385
 40
0.3
 50
269.999989208
 51
360.0
  0
ARC
  8
0
 62
7
  6
CONTINUOUS
 10
53.9263587424
 20
100.8834862385
 40
2.0
 50
270.0
 51
309.0
  0
ARC
  8
0
 62
7
  6
CONTINUOUS
 10
53.9263587424
 20
103.5834862385
 40
2.0
 50
51.0
 51
90.0
  0
ARC
  8
0
 62
7
  6
CONTINUOUS
 10
53.9263587424
 20
113.5834862385
 40
2.0
 50
270.0
 51
309.0
  0
ARC
  8
0
 62
7
  6
CONTINUOUS
 10
53.9263587424
 20
116.2834862385
 40
2.0
 50
51.0
 51
90.0
  0
ARC
  8
0
 62
7
  6
CONTINUOUS
 10
53.4788947986
 20
130.6834862385
 40
0.3
 50
0.0
 51
90.0000107934
  0
ARC
  8
0
 62
7
  6
CONTINUOUS
 10
53.4788947986
 20
124.5834862385
 40
0.3
 50
269.999989208
 51
360.0
  0
ARC
  8
0
 62
7
  6
CONTINUOUS
 10
53.4788947986
 20
143.3834862385
 40
0.3
 50
0.0
 51
90.0000107934
  0
ARC
  8
0
 62
7
  6
CONTINUOUS
 10
53.4788947986
 20
137.2834862385
 40
0.3
 50
269.999989208
 51
360.0
  0
ARC
  8
0
 62
7
  6
CONTINUOUS
 10
53.9263587424
 20
126.2834862385
 40
2.0
 50
270.0
 51
309.0
  0
ARC
  8
0
 62
7
  6
CONTINUOUS
 10
53.9263587424
 20
128.9834862385
 40
2.0
 50
51.0
 51
90.0
  0
ARC
  8
0
 62
7
  6
CONTINUOUS
 10
53.9263587424
 20
138.9834862385
 40
2.0
 50
270.0
 51
309.0
  0
ARC
  8
0
 62
7
  6
CONTINUOUS
 10
53.9263587424
 20
141.6834862385
 40
2.0
 50
51.0
 51
90.0
  0
ARC
  8
0
 62
7
  6
CONTINUOUS
 10
46.5765006473
 20
152.136503948
 40
2.5
 50
281.1254404366
 51
315.4760710954
  0
ARC
  8
0
 62
7
  6
CONTINUOUS
 10
40.1588947986
 20
186.9334862385
 40
0.85
 50
89.9999997861
 51
180.0
  0
ARC
  8
0
 62
7
  6
CONTINUOUS
 10
40.1588947986
 20
182.6334862385
 40
0.85
 50
180.0
 51
270.0000002139
  0
ARC
  8
0
 62
7
  6
CONTINUOUS
 10
40.1588947986
 20
174.2334862385
 40
0.85
 50
89.9999997861
 51
180.0
  0
ARC
  8
0
 62
7
  6
CONTINUOUS
 10
40.1588947986
 20
169.9334862385
 40
0.85
 50
180.0
 51
270.0000002139
  0
ARC
  8
0
 62
7
  6
CONTINUOUS
 10
40.1588947986
 20
161.5334862385
 40
0.85
 50
89.9999997861
 51
180.0
  0
ARC
  8
0
 62
7
  6
CONTINUOUS
 10
40.1588947986
 20
157.2334862385
 40
0.85
 50
180.0
 51
270.0000002139
  0
ARC
  8
0
 62
7
  6
CONTINUOUS
 10
40.1588947986
 20
148.8334862385
 40
0.85
 50
89.9999997861
 51
180.0
  0
ARC
  8
0
 62
7
  6
CONTINUOUS
 10
46.5765006473
 20
228.336503948
 40
2.5
 50
281.1254404366
 51
315.4760710954
  0
ARC
  8
0
 62
7
  6
CONTINUOUS
 10
46.5765006473
 20
231.7204685291
 40
2.5
 50
44.5239289046
 51
78.8745595634
  0
ARC
  8
0
 62
7
  6
CONTINUOUS
 10
40.1588947986
 20
241.0834862385
 40
0.85
 50
89.9999997861
 51
180.0
  0
ARC
  8
0
 62
7
  6
CONTINUOUS
 10
40.1588947986
 20
235.0234862385
 40
0.85
 50
180.0
 51
270.0000002139
  0
ARC
  8
0
 62
7
  6
CONTINUOUS
 10
40.1588947986
 20
225.0334862385
 40
0.85
 50
89.9999997861
 51
180.0
  0
ARC
  8
0
 62
7
  6
CONTINUOUS
 10
40.1588947986
 20
220.7334862385
 40
0.85
 50
180.0
 51
270.0000002139
  0
ARC
  8
0
 62
7
  6
CONTINUOUS
 10
40.1588947986
 20
212.3334862385
 40
0.85
 50
89.9999997861
 51
180.0
  0
ARC
  8
0
 62
7
  6
CONTINUOUS
 10
40.1588947986
 20
208.0334862385
 40
0.85
 50
180.0
 51
270.0000002139
  0
ARC
  8
0
 62
7
  6
CONTINUOUS
 10
40.1588947986
 20
199.6334862385
 40
0.85
 50
89.9999997861
 51
180.0
  0
ARC
  8
0
 62
7
  6
CONTINUOUS
 10
40.1588947986
 20
195.3334862385
 40
0.85
 50
180.0
 51
270.0000002139
  0
ARC
  8
0
 62
7
  6
CONTINUOUS
 10
50.9412889498
 20
152.136503948
 40
2.5
 50
224.5239289046
 51
258.8745595634
  0
ARC
  8
0
 62
7
  6
CONTINUOUS
 10
53.4788947986
 20
156.0834862385
 40
0.3
 50
0.0
 51
90.0000107934
  0
ARC
  8
0
 62
7
  6
CONTINUOUS
 10
53.4788947986
 20
149.9834862385
 40
0.3
 50
269.999989208
 51
360.0
  0
ARC
  8
0
 62
7
  6
CONTINUOUS
 10
53.4788947986
 20
168.7834862385
 40
0.3
 50
0.0
 51
90.0000107934
  0
ARC
  8
0
 62
7
  6
CONTINUOUS
 10
53.4788947986
 20
162.6834862385
 40
0.3
 50
269.999989208
 51
360.0
  0
ARC
  8
0
 62
7
  6
CONTINUOUS
 10
53.9263587424
 20
151.6834862385
 40
2.0
 50
270.0
 51
309.0
  0
ARC
  8
0
 62
7
  6
CONTINUOUS
 10
53.9263587424
 20
154.3834862385
 40
2.0
 50
51.0
 51
90.0
  0
ARC
  8
0
 62
7
  6
CONTINUOUS
 10
53.9263587424
 20
164.3834862385
 40
2.0
 50
270.0
 51
309.0
  0
ARC
  8
0
 62
7
  6
CONTINUOUS
 10
53.9263587424
 20
167.0834862385
 40
2.0
 50
51.0
 51
90.0
  0
ARC
  8
0
 62
7
  6
CONTINUOUS
 10
53.4788947986
 20
181.4834862385
 40
0.3
 50
0.0
 51
90.0000107934
  0
ARC
  8
0
 62
7
  6
CONTINUOUS
 10
53.4788947986
 20
175.3834862385
 40
0.3
 50
269.999989208
 51
360.0
  0
ARC
  8
0
 62
7
  6
CONTINUOUS
 10
53.4788947986
 20
194.1834862385
 40
0.3
 50
0.0
 51
90.0000107934
  0
ARC
  8
0
 62
7
  6
CONTINUOUS
 10
53.4788947986
 20
188.0834862385
 40
0.3
 50
269.999989208
 51
360.0
  0
ARC
  8
0
 62
7
  6
CONTINUOUS
 10
53.9263587424
 20
177.0834862385
 40
2.0
 50
270.0
 51
309.0
  0
ARC
  8
0
 62
7
  6
CONTINUOUS
 10
53.9263587424
 20
179.7834862385
 40
2.0
 50
51.0
 51
90.0
  0
ARC
  8
0
 62
7
  6
CONTINUOUS
 10
53.9263587424
 20
189.7834862385
 40
2.0
 50
270.0
 51
309.0
  0
ARC
  8
0
 62
7
  6
CONTINUOUS
 10
53.9263587424
 20
192.4834862385
 40
2.0
 50
51.0
 51
90.0
  0
ARC
  8
0
 62
7
  6
CONTINUOUS
 10
50.9412889498
 20
228.336503948
 40
2.5
 50
224.5239289046
 51
258.8745595634
  0
ARC
  8
0
 62
7
  6
CONTINUOUS
 10
50.9412889498
 20
231.7204685291
 40
2.5
 50
101.1254404366
 51
135.4760710954
  0
ARC
  8
0
 62
7
  6
CONTINUOUS
 10
53.9263587424
 20
202.4834862385
 40
2.0
 50
270.0
 51
309.0
  0
ARC
  8
0
 62
7
  6
CONTINUOUS
 10
53.9263587424
 20
205.1834862385
 40
2.0
 50
51.0
 51
90.0
  0
ARC
  8
0
 62
7
  6
CONTINUOUS
 10
53.9263587424
 20
215.1834862385
 40
2.0
 50
270.0
 51
309.0
  0
ARC
  8
0
 62
7
  6
CONTINUOUS
 10
53.4788947986
 20
213.4834862385
 40
0.3
 50
269.999989208
 51
360.0
  0
ARC
  8
0
 62
7
  6
CONTINUOUS
 10
53.4788947986
 20
206.8834862385
 40
0.3
 50
0.0
 51
90.0000107934
  0
ARC
  8
0
 62
7
  6
CONTINUOUS
 10
53.4788947986
 20
200.7834862385
 40
0.3
 50
269.999989208
 51
360.0
  0
ARC
  8
0
 62
7
  6
CONTINUOUS
 10
53.4788947986
 20
219.5834862385
 40
0.3
 50
0.0
 51
90.0000107934
  0
ARC
  8
0
 62
7
  6
CONTINUOUS
 10
53.4788947986
 20
233.8734862385
 40
0.3
 50
0.0
 51
90.0000107273
  0
ARC
  8
0
 62
7
  6
CONTINUOUS
 10
53.4788947986
 20
226.1834862385
 40
0.3
 50
269.9999891419
 51
360.0
  0
ARC
  8
0
 62
7
  6
CONTINUOUS
 10
53.9263587424
 20
217.8834862385
 40
2.0
 50
51.0
 51
90.0
  0
ARC
  8
0
 62
7
  6
CONTINUOUS
 10
53.9275936395
 20
227.8834862385
 40
2.0
 50
270.0
 51
309.0
  0
ARC
  8
0
 62
7
  6
CONTINUOUS
 10
53.9251238452
 20
232.1734862385
 40
2.0
 50
51.0
 51
90.0
  0
ARC
  8
0
 62
7
  6
CONTINUOUS
 10
57.3388947986
 20
53.4334862385
 40
2.0
 50
270.0
 51
0.0000027254
  0
ARC
  8
0
 62
7
  6
CONTINUOUS
 10
59.1926657519
 20
69.1334862385
 40
2.0
 50
231.0
 51
270.0
  0
ARC
  8
0
 62
7
  6
CONTINUOUS
 10
59.1914308548
 20
71.8334862385
 40
2.0
 50
90.0
 51
129.0
  0
ARC
  8
0
 62
7
  6
CONTINUOUS
 10
59.6388947986
 20
73.5334862385
 40
0.3
 50
90.0000000041
 51
180.0
  0
ARC
  8
0
 62
7
  6
CONTINUOUS
 10
59.6388947986
 20
67.4334862385
 40
0.3
 50
180.0
 51
269.9999999959
  0
ARC
  8
0
 62
7
  6
CONTINUOUS
 10
59.1914308548
 20
84.5334862385
 40
2.0
 50
90.0
 51
129.0
  0
ARC
  8
0
 62
7
  6
CONTINUOUS
 10
59.1914308548
 20
81.8334862385
 40
2.0
 50
231.0
 51
270.0
  0
ARC
  8
0
 62
7
  6
CONTINUOUS
 10
59.1914308548
 20
94.5334862385
 40
2.0
 50
231.0
 51
270.0
  0
ARC
  8
0
 62
7
  6
CONTINUOUS
 10
59.1914308548
 20
97.2334862385
 40
2.0
 50
90.0
 51
129.0
  0
ARC
  8
0
 62
7
  6
CONTINUOUS
 10
59.6388947986
 20
86.2334862385
 40
0.3
 50
90.0000000041
 51
180.0
  0
ARC
  8
0
 62
7
  6
CONTINUOUS
 10
59.6388947986
 20
80.1334862385
 40
0.3
 50
180.0
 51
269.9999999959
  0
ARC
  8
0
 62
7
  6
CONTINUOUS
 10
59.6388947986
 20
98.9334862385
 40
0.3
 50
90.0000000041
 51
180.0
  0
ARC
  8
0
 62
7
  6
CONTINUOUS
 10
59.6388947986
 20
92.8334862385
 40
0.3
 50
180.0
 51
269.9999999959
  0
ARC
  8
0
 62
7
  6
CONTINUOUS
 10
62.1765006473
 20
57.0924685291
 40
2.5
 50
44.5239289046
 51
78.8745595634
  0
ARC
  8
0
 62
7
  6
CONTINUOUS
 10
63.3588947986
 20
66.2834862385
 40
0.85
 50
0.0
 51
90.0
  0
ARC
  8
0
 62
7
  6
CONTINUOUS
 10
65.0588947986
 20
64.2834862385
 40
0.85
 50
180.0
 51
270.0
  0
ARC
  8
0
 62
7
  6
CONTINUOUS
 10
59.1914308548
 20
107.2334862385
 40
2.0
 50
231.0
 51
270.0
  0
ARC
  8
0
 62
7
  6
CONTINUOUS
 10
59.1914308548
 20
109.9334862385
 40
2.0
 50
90.0
 51
129.0
  0
ARC
  8
0
 62
7
  6
CONTINUOUS
 10
59.1914308548
 20
119.9334862385
 40
2.0
 50
231.0
 51
270.0
  0
ARC
  8
0
 62
7
  6
CONTINUOUS
 10
59.1914308548
 20
122.6334862385
 40
2.0
 50
90.0
 51
129.0
  0
ARC
  8
0
 62
7
  6
CONTINUOUS
 10
59.6388947986
 20
111.6334862385
 40
0.3
 50
90.0000000041
 51
180.0
  0
ARC
  8
0
 62
7
  6
CONTINUOUS
 10
59.6388947986
 20
105.5334862385
 40
0.3
 50
180.0
 51
269.9999999959
  0
ARC
  8
0
 62
7
  6
CONTINUOUS
 10
59.6388947986
 20
124.3334862385
 40
0.3
 50
90.0000000041
 51
180.0
  0
ARC
  8
0
 62
7
  6
CONTINUOUS
 10
59.6388947986
 20
118.2334862385
 40
0.3
 50
180.0
 51
269.9999999959
  0
ARC
  8
0
 62
7
  6
CONTINUOUS
 10
59.1914308548
 20
132.6334862385
 40
2.0
 50
231.0
 51
270.0
  0
ARC
  8
0
 62
7
  6
CONTINUOUS
 10
59.1914308548
 20
135.3334862385
 40
2.0
 50
90.0
 51
129.0
  0
ARC
  8
0
 62
7
  6
CONTINUOUS
 10
59.1914308548
 20
145.3334862385
 40
2.0
 50
231.0
 51
270.0
  0
ARC
  8
0
 62
7
  6
CONTINUOUS
 10
59.6388947986
 20
137.0334862385
 40
0.3
 50
90.0000000041
 51
180.0
  0
ARC
  8
0
 62
7
  6
CONTINUOUS
 10
59.6388947986
 20
130.9334862385
 40
0.3
 50
180.0
 51
269.9999999959
  0
ARC
  8
0
 62
7
  6
CONTINUOUS
 10
59.6388947986
 20
143.6334862385
 40
0.3
 50
180.0
 51
269.9999999959
  0
ARC
  8
0
 62
7
  6
CONTINUOUS
 10
62.1765006473
 20
145.786503948
 40
2.5
 50
281.1254404366
 51
315.4760710954
  0
ARC
  8
0
 62
7
  6
CONTINUOUS
 10
66.5412889498
 20
57.0924685291
 40
2.5
 50
101.1254404366
 51
135.4760710954
  0
ARC
  8
0
 62
7
  6
CONTINUOUS
 10
72.9588947986
 20
62.5834862385
 40
0.85
 50
0.0
 51
90.0000025566
  0
ARC
  8
0
 62
7
  6
CONTINUOUS
 10
72.9588947986
 20
91.6834862385
 40
0.85
 50
0.0
 51
90.0000002139
  0
ARC
  8
0
 62
7
  6
CONTINUOUS
 10
72.9588947986
 20
87.3834862385
 40
0.85
 50
269.9999997861
 51
360.0
  0
ARC
  8
0
 62
7
  6
CONTINUOUS
 10
72.9588947986
 20
78.9834862385
 40
0.85
 50
0.0
 51
90.0000002139
  0
ARC
  8
0
 62
7
  6
CONTINUOUS
 10
72.9588947986
 20
74.6834862385
 40
0.85
 50
269.9999997861
 51
360.0
  0
ARC
  8
0
 62
7
  6
CONTINUOUS
 10
72.9588947986
 20
60.3954862385
 40
0.85
 50
269.9999997861
 51
360.0
  0
ARC
  8
0
 62
7
  6
CONTINUOUS
 10
66.5412889498
 20
145.786503948
 40
2.5
 50
224.5239289046
 51
258.8745595634
  0
ARC
  8
0
 62
7
  6
CONTINUOUS
 10
72.9588947986
 20
142.4834862385
 40
0.85
 50
0.0
 51
90.0000002139
  0
ARC
  8
0
 62
7
  6
CONTINUOUS
 10
72.9588947986
 20
138.1834862385
 40
0.85
 50
269.9999997861
 51
360.0
  0
ARC
  8
0
 62
7
  6
CONTINUOUS
 10
72.9588947986
 20
129.7834862385
 40
0.85
 50
0.0
 51
90.0000002139
  0
ARC
  8
0
 62
7
  6
CONTINUOUS
 10
72.9588947986
 20
125.4834862385
 40
0.85
 50
269.9999997861
 51
360.0
  0
ARC
  8
0
 62
7
  6
CONTINUOUS
 10
72.9588947986
 20
117.0834862385
 40
0.85
 50
0.0
 51
90.0000002139
  0
ARC
  8
0
 62
7
  6
CONTINUOUS
 10
72.9588947986
 20
112.7834862385
 40
0.85
 50
269.9999997861
 51
360.0
  0
ARC
  8
0
 62
7
  6
CONTINUOUS
 10
72.9588947986
 20
104.3834862385
 40
0.85
 50
0.0
 51
90.0000002139
  0
ARC
  8
0
 62
7
  6
CONTINUOUS
 10
72.9588947986
 20
100.0834862385
 40
0.85
 50
269.9999997861
 51
360.0
  0
ARC
  8
0
 62
7
  6
CONTINUOUS
 10
59.1914308548
 20
148.0334862385
 40
2.0
 50
90.0
 51
129.0
  0
ARC
  8
0
 62
7
  6
CONTINUOUS
 10
59.1914308548
 20
158.0334862385
 40
2.0
 50
231.0
 51
270.0
  0
ARC
  8
0
 62
7
  6
CONTINUOUS
 10
59.1914308548
 20
160.7334862385
 40
2.0
 50
90.0
 51
129.0
  0
ARC
  8
0
 62
7
  6
CONTINUOUS
 10
59.6388947986
 20
162.4334862385
 40
0.3
 50
90.0000000041
 51
180.0
  0
ARC
  8
0
 62
7
  6
CONTINUOUS
 10
59.6388947986
 20
156.3334862385
 40
0.3
 50
180.0
 51
269.9999999959
  0
ARC
  8
0
 62
7
  6
CONTINUOUS
 10
59.6388947986
 20
149.7334862385
 40
0.3
 50
90.0000000041
 51
180.0
  0
ARC
  8
0
 62
7
  6
CONTINUOUS
 10
59.1914308548
 20
170.7334862385
 40
2.0
 50
231.0
 51
270.0
  0
ARC
  8
0
 62
7
  6
CONTINUOUS
 10
59.1914308548
 20
173.4334862385
 40
2.0
 50
90.0
 51
129.0
  0
ARC
  8
0
 62
7
  6
CONTINUOUS
 10
59.1914308548
 20
183.4334862385
 40
2.0
 50
231.0
 51
270.0
  0
ARC
  8
0
 62
7
  6
CONTINUOUS
 10
59.1914308548
 20
186.1334862385
 40
2.0
 50
90.0
 51
129.0
  0
ARC
  8
0
 62
7
  6
CONTINUOUS
 10
59.6388947986
 20
175.1334862385
 40
0.3
 50
90.0000000041
 51
180.0
  0
ARC
  8
0
 62
7
  6
CONTINUOUS
 10
59.6388947986
 20
169.0334862385
 40
0.3
 50
180.0
 51
269.9999999959
  0
ARC
  8
0
 62
7
  6
CONTINUOUS
 10
59.6388947986
 20
187.8334862385
 40
0.3
 50
90.0000000041
 51
180.0
  0
ARC
  8
0
 62
7
  6
CONTINUOUS
 10
59.6388947986
 20
181.7334862385
 40
0.3
 50
180.0
 51
269.9999999959
  0
ARC
  8
0
 62
7
  6
CONTINUOUS
 10
62.1765006473
 20
147.5804685291
 40
2.5
 50
44.5239289046
 51
78.8745595634
  0
ARC
  8
0
 62
7
  6
CONTINUOUS
 10
59.1914308548
 20
196.1334862385
 40
2.0
 50
231.0
 51
270.0
  0
ARC
  8
0
 62
7
  6
CONTINUOUS
 10
59.1914308548
 20
198.8334862385
 40
2.0
 50
90.0
 51
129.0
  0
ARC
  8
0
 62
7
  6
CONTINUOUS
 10
59.1914308548
 20
208.8334862385
 40
2.0
 50
231.0
 51
270.0
  0
ARC
  8
0
 62
7
  6
CONTINUOUS
 10
59.1914308548
 20
211.5334862385
 40
2.0
 50
90.0
 51
129.0
  0
ARC
  8
0
 62
7
  6
CONTINUOUS
 10
59.6388947986
 20
200.5334862385
 40
0.3
 50
90.0000000041
 51
180.0
  0
ARC
  8
0
 62
7
  6
CONTINUOUS
 10
59.6388947986
 20
194.4334862385
 40
0.3
 50
180.0
 51
269.9999999959
  0
ARC
  8
0
 62
7
  6
CONTINUOUS
 10
59.6388947986
 20
213.2334862385
 40
0.3
 50
90.0000000041
 51
180.0
  0
ARC
  8
0
 62
7
  6
CONTINUOUS
 10
59.6388947986
 20
207.1334862385
 40
0.3
 50
180.0
 51
269.9999999959
  0
ARC
  8
0
 62
7
  6
CONTINUOUS
 10
57.3388947986
 20
239.9334862385
 40
2.0
 50
359.9999971739
 51
90.0
  0
ARC
  8
0
 62
7
  6
CONTINUOUS
 10
59.1914308548
 20
221.5334862385
 40
2.0
 50
231.0
 51
270.0
  0
ARC
  8
0
 62
7
  6
CONTINUOUS
 10
59.1926657519
 20
224.2334862385
 40
2.0
 50
90.0
 51
129.0
  0
ARC
  8
0
 62
7
  6
CONTINUOUS
 10
59.6388947986
 20
225.9334862385
 40
0.3
 50
90.0000000042
 51
180.0
  0
ARC
  8
0
 62
7
  6
CONTINUOUS
 10
59.6388947986
 20
219.8334862385
 40
0.3
 50
180.0
 51
269.9999999959
  0
ARC
  8
0
 62
7
  6
CONTINUOUS
 10
62.1765006473
 20
236.274503948
 40
2.5
 50
281.1254404366
 51
315.4760710954
  0
ARC
  8
0
 62
7
  6
CONTINUOUS
 10
65.0588947986
 20
229.0834862385
 40
0.85
 50
90.0
 51
180.0
  0
ARC
  8
0
 62
7
  6
CONTINUOUS
 10
63.3588947986
 20
227.0834862385
 40
0.85
 50
270.0
 51
360.0
  0
ARC
  8
0
 62
7
  6
CONTINUOUS
 10
66.5412889498
 20
147.5804685291
 40
2.5
 50
101.1254404366
 51
135.4760710954
  0
ARC
  8
0
 62
7
  6
CONTINUOUS
 10
72.9588947986
 20
193.2834862385
 40
0.85
 50
0.0
 51
90.0000002139
  0
ARC
  8
0
 62
7
  6
CONTINUOUS
 10
72.9588947986
 20
188.9834862385
 40
0.85
 50
269.9999997861
 51
360.0
  0
ARC
  8
0
 62
7
  6
CONTINUOUS
 10
72.9588947986
 20
180.5834862385
 40
0.85
 50
0.0
 51
90.0000002139
  0
ARC
  8
0
 62
7
  6
CONTINUOUS
 10
72.9588947986
 20
176.2834862385
 40
0.85
 50
269.9999997861
 51
360.0
  0
ARC
  8
0
 62
7
  6
CONTINUOUS
 10
72.9588947986
 20
167.8834862385
 40
0.85
 50
0.0
 51
90.0000002139
  0
ARC
  8
0
 62
7
  6
CONTINUOUS
 10
72.9588947986
 20
163.5834862385
 40
0.85
 50
269.9999997861
 51
360.0
  0
ARC
  8
0
 62
7
  6
CONTINUOUS
 10
72.9588947986
 20
155.1834862385
 40
0.85
 50
0.0
 51
90.0000002139
  0
ARC
  8
0
 62
7
  6
CONTINUOUS
 10
72.9588947986
 20
150.8834862385
 40
0.85
 50
269.9999997861
 51
360.0
  0
ARC
  8
0
 62
7
  6
CONTINUOUS
 10
66.5412889498
 20
236.274503948
 40
2.5
 50
224.5239289046
 51
258.8745595634
  0
ARC
  8
0
 62
7
  6
CONTINUOUS
 10
72.9588947986
 20
230.7834862385
 40
0.85
 50
269.9999974434
 51
360.0
  0
ARC
  8
0
 62
7
  6
CONTINUOUS
 10
72.9588947986
 20
232.9714862385
 40
0.85
 50
0.0
 51
90.0000002139
  0
ARC
  8
0
 62
7
  6
CONTINUOUS
 10
72.9588947986
 20
218.6834862385
 40
0.85
 50
0.0
 51
90.0000002139
  0
ARC
  8
0
 62
7
  6
CONTINUOUS
 10
72.9588947986
 20
214.3834862385
 40
0.85
 50
269.9999997861
 51
360.0
  0
ARC
  8
0
 62
7
  6
CONTINUOUS
 10
72.9588947986
 20
205.9834862385
 40
0.85
 50
0.0
 51
90.0000002139
  0
ARC
  8
0
 62
7
  6
CONTINUOUS
 10
72.9588947986
 20
201.6834862385
 40
0.85
 50
269.9999997861
 51
360.0
  0
ARC
  8
0
 62
7
  6
CONTINUOUS
 10
138.216977053
 20
126.3334862385
 40
1.0
 50
180.0
 51
270.0
  0
ARC
  8
0
 62
7
  6
CONTINUOUS
 10
138.216977053
 20
128.9334862385
 40
1.0
 50
90.0
 51
180.0
  0
ARC
  8
0
 62
7
  6
CONTINUOUS
 10
138.216977053
 20
167.0334862385
 40
1.0
 50
90.0
 51
180.0
  0
ARC
  8
0
 62
7
  6
CONTINUOUS
 10
138.216977053
 20
164.4334862385
 40
1.0
 50
180.0
 51
270.0
  0
ARC
  8
0
 62
7
  6
CONTINUOUS
 10
145.566977053
 20
52.2834862385
 40
0.85
 50
243.7078849887
 51
270.0
  0
ARC
  8
0
 62
7
  6
CONTINUOUS
 10
145.566977053
 20
58.3434862385
 40
0.85
 50
90.0
 51
180.0
  0
ARC
  8
0
 62
7
  6
CONTINUOUS
 10
145.566977053
 20
68.3334862385
 40
0.85
 50
180.0
 51
270.0
  0
ARC
  8
0
 62
7
  6
CONTINUOUS
 10
145.566977053
 20
72.6334862385
 40
0.85
 50
90.0
 51
180.0
  0
ARC
  8
0
 62
7
  6
CONTINUOUS
 10
145.566977053
 20
68.4824799247
 40
0.8499967834
 50
148.4794456401
 51
162.3207869333
  0
ARC
  8
0
 62
7
  6
CONTINUOUS
 10
145.566977053
 20
81.0334862385
 40
0.85
 50
180.0
 51
270.0
  0
ARC
  8
0
 62
7
  6
CONTINUOUS
 10
145.566977053
 20
85.3334862385
 40
0.85
 50
90.0
 51
180.0
  0
ARC
  8
0
 62
7
  6
CONTINUOUS
 10
145.566977053
 20
93.7334862385
 40
0.85
 50
180.0
 51
270.0
  0
ARC
  8
0
 62
7
  6
CONTINUOUS
 10
145.566977053
 20
98.0334862385
 40
0.85
 50
90.0
 51
180.0
  0
ARC
  8
0
 62
7
  6
CONTINUOUS
 10
145.566977053
 20
93.8824799247
 40
0.8499967834
 50
148.4794452268
 51
162.3207863198
  0
ARC
  8
0
 62
7
  6
CONTINUOUS
 10
145.566977053
 20
81.1824799247
 40
0.8499967834
 50
148.4794453082
 51
162.3207866759
  0
ARC
  8
0
 62
7
  6
CONTINUOUS
 10
146.9345829018
 20
65.0304685291
 40
2.5
 50
44.5239289046
 51
78.8745595634
  0
ARC
  8
0
 62
7
  6
CONTINUOUS
 10
146.9345829018
 20
61.646503948
 40
2.5
 50
281.1254404366
 51
315.4760710954
  0
ARC
  8
0
 62
7
  6
CONTINUOUS
 10
145.566977053
 20
106.4334862385
 40
0.85
 50
180.0
 51
270.0
  0
ARC
  8
0
 62
7
  6
CONTINUOUS
 10
145.566977053
 20
110.7334862385
 40
0.85
 50
90.0
 51
180.0
  0
ARC
  8
0
 62
7
  6
CONTINUOUS
 10
145.566977053
 20
119.1334862385
 40
0.85
 50
180.0
 51
270.0
  0
ARC
  8
0
 62
7
  6
CONTINUOUS
 10
145.566977053
 20
123.4334862385
 40
0.85
 50
90.0
 51
180.0
  0
ARC
  8
0
 62
7
  6
CONTINUOUS
 10
145.566977053
 20
119.2824799247
 40
0.8499967834
 50
148.4794459368
 51
162.3207866083
  0
ARC
  8
0
 62
7
  6
CONTINUOUS
 10
145.566977053
 20
106.5824799247
 40
0.8499967834
 50
148.4794458275
 51
162.3207871328
  0
ARC
  8
0
 62
7
  6
CONTINUOUS
 10
145.566977053
 20
131.8334862385
 40
0.85
 50
180.0
 51
270.0
  0
ARC
  8
0
 62
7
  6
CONTINUOUS
 10
145.566977053
 20
144.5334862385
 40
0.85
 50
180.0
 51
270.0
  0
ARC
  8
0
 62
7
  6
CONTINUOUS
 10
145.566977053
 20
136.1334862385
 40
0.85
 50
90.0
 51
180.0
  0
ARC
  8
0
 62
7
  6
CONTINUOUS
 10
145.566977053
 20
144.6824799247
 40
0.8499967834
 50
148.4794463503
 51
162.3207871328
  0
ARC
  8
0
 62
7
  6
CONTINUOUS
 10
145.566977053
 20
131.9824799247
 40
0.8499967834
 50
148.4794460998
 51
162.3207864303
  0
ARC
  8
0
 62
7
  6
CONTINUOUS
 10
146.9345829018
 20
141.2304685291
 40
2.5
 50
44.5239289046
 51
78.8745595634
  0
ARC
  8
0
 62
7
  6
CONTINUOUS
 10
151.2993712043
 20
65.0304685291
 40
2.5
 50
101.1254404366
 51
135.4760710954
  0
ARC
  8
0
 62
7
  6
CONTINUOUS
 10
151.2993712043
 20
61.646503948
 40
2.5
 50
224.5239289046
 51
258.8745595634
  0
ARC
  8
0
 62
7
  6
CONTINUOUS
 10
152.666977053
 20
52.2834862385
 40
0.85
 50
270.0
 51
296.2921150113
  0
ARC
  8
0
 62
7
  6
CONTINUOUS
 10
152.666977053
 20
58.3434862385
 40
0.85
 50
0.0
 51
90.0
  0
ARC
  8
0
 62
7
  6
CONTINUOUS
 10
152.666977053
 20
68.3334862385
 40
0.85
 50
270.0
 51
360.0
  0
ARC
  8
0
 62
7
  6
CONTINUOUS
 10
152.666977053
 20
72.6334862385
 40
0.85
 50
0.0
 51
90.0
  0
ARC
  8
0
 62
7
  6
CONTINUOUS
 10
152.666977053
 20
68.4824734912
 40
0.85
 50
17.6792621022
 51
25.5714256518
  0
ARC
  8
0
 62
7
  6
CONTINUOUS
 10
152.666977053
 20
72.4844958829
 40
0.8499984486
 50
328.4804725323
 51
342.3216589859
  0
ARC
  8
0
 62
7
  6
CONTINUOUS
 10
152.666977053
 20
81.0334862385
 40
0.85
 50
270.0
 51
360.0
  0
ARC
  8
0
 62
7
  6
CONTINUOUS
 10
152.666977053
 20
85.3334862385
 40
0.85
 50
0.0
 51
90.0
  0
ARC
  8
0
 62
7
  6
CONTINUOUS
 10
152.666977053
 20
93.7334862385
 40
0.85
 50
270.0
 51
360.0
  0
ARC
  8
0
 62
7
  6
CONTINUOUS
 10
152.666977053
 20
98.0334862385
 40
0.85
 50
0.0
 51
90.0
  0
ARC
  8
0
 62
7
  6
CONTINUOUS
 10
152.666977053
 20
93.8824734912
 40
0.85
 50
17.6792551767
 51
25.5714256518
  0
ARC
  8
0
 62
7
  6
CONTINUOUS
 10
152.666977053
 20
81.1824734912
 40
0.85
 50
17.6792750734
 51
25.5714256518
  0
ARC
  8
0
 62
7
  6
CONTINUOUS
 10
152.666977053
 20
97.8844958829
 40
0.8499984486
 50
328.4804729175
 51
342.321659213
  0
ARC
  8
0
 62
7
  6
CONTINUOUS
 10
152.666977053
 20
85.1844958829
 40
0.8499984486
 50
328.4804730856
 51
342.3216609548
  0
ARC
  8
0
 62
7
  6
CONTINUOUS
 10
151.2993712043
 20
141.2304685291
 40
2.5
 50
101.1254404366
 51
135.4760710954
  0
ARC
  8
0
 62
7
  6
CONTINUOUS
 10
152.666977053
 20
106.4334862385
 40
0.85
 50
270.0
 51
360.0
  0
ARC
  8
0
 62
7
  6
CONTINUOUS
 10
152.666977053
 20
110.7334862385
 40
0.85
 50
0.0
 51
90.0
  0
ARC
  8
0
 62
7
  6
CONTINUOUS
 10
152.666977053
 20
119.1334862385
 40
0.85
 50
270.0
 51
360.0
  0
ARC
  8
0
 62
7
  6
CONTINUOUS
 10
152.666977053
 20
123.4334862385
 40
0.85
 50
0.0
 51
90.0
  0
ARC
  8
0
 62
7
  6
CONTINUOUS
 10
152.666977053
 20
119.2824734912
 40
0.85
 50
17.67926187
 51
25.5714256518
  0
ARC
  8
0
 62
7
  6
CONTINUOUS
 10
152.666977053
 20
106.5824734912
 40
0.85
 50
17.67926187
 51
25.5714256518
  0
ARC
  8
0
 62
7
  6
CONTINUOUS
 10
152.666977053
 20
123.2844958829
 40
0.8499984486
 50
328.4804732531
 51
342.321659213
  0
ARC
  8
0
 62
7
  6
CONTINUOUS
 10
152.666977053
 20
110.5844958829
 40
0.8499984486
 50
328.4804729175
 51
342.3216592133
  0
ARC
  8
0
 62
7
  6
CONTINUOUS
 10
152.666977053
 20
131.8334862385
 40
0.85
 50
270.0
 51
360.0
  0
ARC
  8
0
 62
7
  6
CONTINUOUS
 10
152.666977053
 20
144.5334862385
 40
0.85
 50
270.0
 51
360.0
  0
ARC
  8
0
 62
7
  6
CONTINUOUS
 10
152.666977053
 20
144.6824734912
 40
0.85
 50
17.6792597937
 51
25.5714256518
  0
ARC
  8
0
 62
7
  6
CONTINUOUS
 10
152.666977053
 20
131.9824734912
 40
0.85
 50
17.679273803
 51
25.5714256518
  0
ARC
  8
0
 62
7
  6
CONTINUOUS
 10
152.666977053
 20
136.1334862385
 40
0.85
 50
0.0
 51
90.0
  0
ARC
  8
0
 62
7
  6
CONTINUOUS
 10
152.666977053
 20
135.9844958829
 40
0.8499984486
 50
328.4804729175
 51
342.321659213
  0
ARC
  8
0
 62
7
  6
CONTINUOUS
 10
145.566977053
 20
148.8334862385
 40
0.85
 50
90.0
 51
180.0
  0
ARC
  8
0
 62
7
  6
CONTINUOUS
 10
145.566977053
 20
157.2334862385
 40
0.85
 50
180.0
 51
270.0
  0
ARC
  8
0
 62
7
  6
CONTINUOUS
 10
145.566977053
 20
161.5334862385
 40
0.85
 50
90.0
 51
180.0
  0
ARC
  8
0
 62
7
  6
CONTINUOUS
 10
145.566977053
 20
157.3824799247
 40
0.8499967834
 50
148.4794465377
 51
162.3207872433
  0
ARC
  8
0
 62
7
  6
CONTINUOUS
 10
145.566977053
 20
169.9334862385
 40
0.85
 50
180.0
 51
270.0
  0
ARC
  8
0
 62
7
  6
CONTINUOUS
 10
145.566977053
 20
174.2334862385
 40
0.85
 50
90.0
 51
180.0
  0
ARC
  8
0
 62
7
  6
CONTINUOUS
 10
145.566977053
 20
182.6334862385
 40
0.85
 50
180.0
 51
270.0
  0
ARC
  8
0
 62
7
  6
CONTINUOUS
 10
145.566977053
 20
186.9334862385
 40
0.85
 50
90.0
 51
180.0
  0
ARC
  8
0
 62
7
  6
CONTINUOUS
 10
145.566977053
 20
182.7824799247
 40
0.8499967834
 50
148.4794468638
 51
162.3207874212
  0
ARC
  8
0
 62
7
  6
CONTINUOUS
 10
145.566977053
 20
170.0824799247
 40
0.8499967834
 50
148.4794465377
 51
162.3207870653
  0
ARC
  8
0
 62
7
  6
CONTINUOUS
 10
146.9345829018
 20
152.136503948
 40
2.5
 50
281.1254404366
 51
315.4760710954
  0
ARC
  8
0
 62
7
  6
CONTINUOUS
 10
145.566977053
 20
195.3334862385
 40
0.85
 50
180.0
 51
270.0
  0
ARC
  8
0
 62
7
  6
CONTINUOUS
 10
145.566977053
 20
199.6334862385
 40
0.85
 50
90.0
 51
180.0
  0
ARC
  8
0
 62
7
  6
CONTINUOUS
 10
145.566977053
 20
208.0334862385
 40
0.85
 50
180.0
 51
270.0
  0
ARC
  8
0
 62
7
  6
CONTINUOUS
 10
145.566977053
 20
212.3334862385
 40
0.85
 50
90.0
 51
180.0
  0
ARC
  8
0
 62
7
  6
CONTINUOUS
 10
145.566977053
 20
208.1824799247
 40
0.8499967834
 50
148.4794465377
 51
162.3207870651
  0
ARC
  8
0
 62
7
  6
CONTINUOUS
 10
145.566977053
 20
195.4824799247
 40
0.8499967834
 50
148.4794465377
 51
162.3207870651
  0
ARC
  8
0
 62
7
  6
CONTINUOUS
 10
145.566977053
 20
220.7334862385
 40
0.85
 50
180.0
 51
270.0
  0
ARC
  8
0
 62
7
  6
CONTINUOUS
 10
145.566977053
 20
225.0334862385
 40
0.85
 50
90.0
 51
180.0
  0
ARC
  8
0
 62
7
  6
CONTINUOUS
 10
145.566977053
 20
235.0234862385
 40
0.85
 50
180.0
 51
270.0
  0
ARC
  8
0
 62
7
  6
CONTINUOUS
 10
145.566977053
 20
241.0834862385
 40
0.85
 50
90.0
 51
116.2921150113
  0
ARC
  8
0
 62
7
  6
CONTINUOUS
 10
145.566977053
 20
220.8824799247
 40
0.8499967834
 50
148.4794465377
 51
162.320786709
  0
ARC
  8
0
 62
7
  6
CONTINUOUS
 10
146.9345829018
 20
228.336503948
 40
2.5
 50
281.1254404366
 51
315.4760710954
  0
ARC
  8
0
 62
7
  6
CONTINUOUS
 10
146.9345829018
 20
231.7204685291
 40
2.5
 50
44.5239289046
 51
78.8745595634
  0
ARC
  8
0
 62
7
  6
CONTINUOUS
 10
151.2993712043
 20
152.136503948
 40
2.5
 50
224.5239289046
 51
258.8745595634
  0
ARC
  8
0
 62
7
  6
CONTINUOUS
 10
152.666977053
 20
148.8334862385
 40
0.85
 50
0.0
 51
90.0
  0
ARC
  8
0
 62
7
  6
CONTINUOUS
 10
152.666977053
 20
157.3824734912
 40
0.85
 50
17.679273803
 51
25.5714256518
  0
ARC
  8
0
 62
7
  6
CONTINUOUS
 10
152.666977053
 20
157.2334862385
 40
0.85
 50
270.0
 51
360.0
  0
ARC
  8
0
 62
7
  6
CONTINUOUS
 10
152.666977053
 20
161.5334862385
 40
0.85
 50
0.0
 51
90.0
  0
ARC
  8
0
 62
7
  6
CONTINUOUS
 10
152.666977053
 20
161.3844958829
 40
0.8499984486
 50
328.4804729175
 51
342.3216588464
  0
ARC
  8
0
 62
7
  6
CONTINUOUS
 10
152.666977053
 20
148.6844958829
 40
0.8499984486
 50
328.4804732531
 51
342.321659213
  0
ARC
  8
0
 62
7
  6
CONTINUOUS
 10
152.666977053
 20
182.7824734912
 40
0.85
 50
17.6792671097
 51
25.5714256518
  0
ARC
  8
0
 62
7
  6
CONTINUOUS
 10
152.666977053
 20
170.0824734912
 40
0.85
 50
17.6792717267
 51
25.5714256518
  0
ARC
  8
0
 62
7
  6
CONTINUOUS
 10
152.666977053
 20
169.9334862385
 40
0.85
 50
270.0
 51
360.0
  0
ARC
  8
0
 62
7
  6
CONTINUOUS
 10
152.666977053
 20
174.2334862385
 40
0.85
 50
0.0
 51
90.0
  0
ARC
  8
0
 62
7
  6
CONTINUOUS
 10
152.666977053
 20
182.6334862385
 40
0.85
 50
270.0
 51
360.0
  0
ARC
  8
0
 62
7
  6
CONTINUOUS
 10
152.666977053
 20
186.9334862385
 40
0.85
 50
0.0
 51
90.0
  0
ARC
  8
0
 62
7
  6
CONTINUOUS
 10
152.666977053
 20
186.7844958829
 40
0.8499984486
 50
328.4804729175
 51
342.321659213
  0
ARC
  8
0
 62
7
  6
CONTINUOUS
 10
152.666977053
 20
174.0844958829
 40
0.8499984486
 50
328.4804733033
 51
342.3216594405
  0
ARC
  8
0
 62
7
  6
CONTINUOUS
 10
151.2993712043
 20
228.336503948
 40
2.5
 50
224.5239289046
 51
258.8745595634
  0
ARC
  8
0
 62
7
  6
CONTINUOUS
 10
151.2993712043
 20
231.7204685291
 40
2.5
 50
101.1254404366
 51
135.4760710954
  0
ARC
  8
0
 62
7
  6
CONTINUOUS
 10
152.666977053
 20
208.1824734912
 40
0.85
 50
17.679273803
 51
25.5714256518
  0
ARC
  8
0
 62
7
  6
CONTINUOUS
 10
152.666977053
 20
195.4824734912
 40
0.85
 50
17.6792696533
 51
25.5714256518
  0
ARC
  8
0
 62
7
  6
CONTINUOUS
 10
152.666977053
 20
195.3334862385
 40
0.85
 50
270.0
 51
360.0
  0
ARC
  8
0
 62
7
  6
CONTINUOUS
 10
152.666977053
 20
199.6334862385
 40
0.85
 50
0.0
 51
90.0
  0
ARC
  8
0
 62
7
  6
CONTINUOUS
 10
152.666977053
 20
208.0334862385
 40
0.85
 50
270.0
 51
360.0
  0
ARC
  8
0
 62
7
  6
CONTINUOUS
 10
152.666977053
 20
212.3334862385
 40
0.85
 50
0.0
 51
90.0
  0
ARC
  8
0
 62
7
  6
CONTINUOUS
 10
152.666977053
 20
212.1844958829
 40
0.8499984486
 50
328.4804726138
 51
342.3216596679
  0
ARC
  8
0
 62
7
  6
CONTINUOUS
 10
152.666977053
 20
199.4844958829
 40
0.8499984486
 50
328.4804729175
 51
342.3216592133
  0
ARC
  8
0
 62
7
  6
CONTINUOUS
 10
152.666977053
 20
220.8824734912
 40
0.85
 50
17.6792804964
 51
25.5714256518
  0
ARC
  8
0
 62
7
  6
CONTINUOUS
 10
152.666977053
 20
220.7334862385
 40
0.85
 50
270.0
 51
360.0
  0
ARC
  8
0
 62
7
  6
CONTINUOUS
 10
152.666977053
 20
225.0334862385
 40
0.85
 50
0.0
 51
90.0
  0
ARC
  8
0
 62
7
  6
CONTINUOUS
 10
152.666977053
 20
235.0234862385
 40
0.85
 50
270.0
 51
360.0
  0
ARC
  8
0
 62
7
  6
CONTINUOUS
 10
152.666977053
 20
241.0834862385
 40
0.85
 50
63.7078849887
 51
90.0
  0
ARC
  8
0
 62
7
  6
CONTINUOUS
 10
152.666977053
 20
224.8844958829
 40
0.8499984486
 50
328.4804725134
 51
342.3216605881
  0
ENDSEC
  0
EOF
