  0
SECTION
  2
HEADER
  9
$EXTMAX
 10
210.0
 20
297.0
 30
0.0
  9
$EXTMIN
 10
0.0
 20
0.0
 30
0.0
  9
$LIMMIN
 10
0.0
 20
0.0
  9
$LIMMAX
 10
210.0
 20
297.0
  9
$VIEWCTR
 10
105.0
 20
148.5
  9
$VIEWSIZE
 40
297.0
  9
$CLAYER
  8
0
  9
$LTSCALE
 40
19.36
  9
$CELTYPE
  6
BYLAYER
  9
$DIMSCALE
 40
1.0
  9
$DIMASZ
 40
3.5
  9
$DIMEXO
 40
2.2
  9
$DIMDLI
 40
13.376
  9
$DIMEXE
 40
6.336
  9
$DIMCEN
 40
3.168
  9
$DIMLFAC
 40
1.0
  9
$DIMBLK
  1
_FILLED
  9
$DIMTXT
 40
3.5
  9
$PDMODE
 70
3
  9
$PDSIZE
 40
0.3125
  9
$TILEMODE
 70
1
  0
ENDSEC
  0
SECTION
  2
TABLES
  0
TABLE
  2
LTYPE
 70
6
  0
LTYPE
  2
BYBLOCK
 70
0
  3

 72
65
 73
0
 40
0.0
  0
LTYPE
  2
BYLAYER
 70
0
  3

 72
65
 73
0
 40
0.0
  0
LTYPE
  2
CONTINUOUS
 70
64
  3
Solid line
 72
65
 73
0
 40
0.0
  0
LTYPE
  2
CENTER
 70
64
  3
____ _ ____ _ ____ _ ____ _ ____ _ ____ _ ____
 72
65
 73
4
 40
0.6
 49
0.375
 49
-0.075
 49
0.075
 49
-0.075
  0
LTYPE
  2
HIDDEN
 70
64
  3
- - - - - - - - - - - - - - - - - - - -
 72
65
 73
2
 40
0.2
 49
0.1
 49
-0.1
  0
LTYPE
  2
PHANTOM
 70
64
  3
_____ _ _ _____ _ _ _____ _ _ _____
 72
65
 73
6
 40
0.8
 49
0.45
 49
-0.05
 49
0.1
 49
-0.05
 49
0.1
 49
-0.05
  0
LTYPE
  2
DOT
 70
64
  3
. . . . . . . . . . . . . . . . . . . .
 72
65
 73
2
 40
0.2
 49
0.1
 49
-0.1
  0
LTYPE
  2
DASHED
 70
64
  3
- - - - - - - - - - - - - - - - - - - -
 72
65
 73
2
 40
0.2
 49
0.1
 49
-0.1
  0
ENDTAB
  0
TABLE
  2
LAYER
 70
36
  0
LAYER
  2
0
 70
0
 62
7
  6
CONTINUOUS
  0
LAYER
  2
DEFAULT_1
 70
0
 62
7
  6
CENTER
  0
LAYER
  2
DEFAULT_2
 70
0
 62
8
  6
HIDDEN
  0
LAYER
  2
DEFAULT_3
 70
0
 62
7
  6
PHANTOM
  0
LAYER
  2
1_AXIS
 70
0
 62
7
  6
CONTINUOUS
  0
LAYER
  2
1_DATUMPLANE
 70
0
 62
7
  6
CONTINUOUS
  0
LAYER
  2
4_QUILT
 70
0
 62
7
  6
CONTINUOUS
  0
LAYER
  2
CURVE
 70
0
 62
7
  6
CONTINUOUS
  0
LAYER
  2
SURFACE
 70
0
 62
7
  6
CONTINUOUS
  0
LAYER
  2
XSEC_DATUMS
 70
0
 62
7
  6
CONTINUOUS
  0
ENDTAB
  0
TABLE
  2
STYLE
 70
1
  0
STYLE
  2
STANDARD
 70
0
 40
0.0
 41
0.8
 50
0.0
 71
0
 42
0.2
  3
txt
  4

  0
STYLE
  2
TEXTSTYLE_1
 70
0
 40
0.0
 41
0.8
 50
0.0
 71
0
 42
0.2
  3
gdt
  4

  0
STYLE
  2
TEXTSTYLE_2
 70
0
 40
0.0
 41
0.6
 50
0.0
 71
0
 42
0.2
  3
txt
  4

  0
STYLE
  2
TEXTSTYLE_3
 70
0
 40
0.0
 41
1.0
 50
0.0
 71
0
 42
0.2
  3
ftb_____.ttf
  4

  0
STYLE
  2
TEXTSTYLE_4
 70
0
 40
0.0
 41
1.0
 50
0.0
 71
0
 42
0.2
  3
fti_____.ttf
  4

  0
STYLE
  2
TEXTSTYLE_5
 70
0
 40
0.0
 41
1.0
 50
0.0
 71
0
 42
0.2
  3
frutiger light.ttf
  4

  0
STYLE
  2
TEXTSTYLE_6
 70
0
 40
0.0
 41
0.7
 50
0.0
 71
0
 42
0.2
  3
txt
  4

  0
STYLE
  2
TEXTSTYLE_7
 70
0
 40
0.0
 41
0.45
 50
0.0
 71
0
 42
0.2
  3
txt
  4

  0
ENDTAB
  0
ENDSEC
  0
SECTION
  2
BLOCKS
  0
BLOCK
  8
0
 62
2
  6
CONTINUOUS
  2
SYMBOL_8_BL1
 70
64
 10
173.5956734183
 20
35.5937998301
  0
TEXT
  8
0
 62
7
  6
CONTINUOUS
 10
164.6539584268
 20
30.6865562072
  7
TEXTSTYLE_4
 40
1.0655737705
  1
The brand for plastic modular belts and chains
 41
1.0
 72
0
  0
LINE
  8
0
 62
7
  6
CONTINUOUS
 10
149.5737418074
 20
36.1675703219
 11
149.5737418074
 21
34.0364227809
  0
LINE
  8
0
 62
7
  6
CONTINUOUS
 10
149.8628043005
 20
31.0454914852
 11
149.8628043005
 21
31.1422825445
  0
LINE
  8
0
 62
7
  6
CONTINUOUS
 10
149.5737418074
 20
31.1100188581
 11
149.6315543091
 21
30.9164367395
  0
LINE
  8
0
 62
7
  6
CONTINUOUS
 10
150.9671844304
 20
33.9544555678
 11
150.9671844304
 21
36.1675703219
  0
LINE
  8
0
 62
7
  6
CONTINUOUS
 10
151.8862417523
 20
32.1101932727
 11
151.8862417523
 21
30.5937998301
  0
LINE
  8
0
 62
7
  6
CONTINUOUS
 10
152.1753043074
 20
30.5937998301
 11
152.1753043074
 21
31.3358647082
  0
LINE
  8
0
 62
7
  6
CONTINUOUS
 10
152.1753043074
 20
31.4649194539
 11
152.1753043074
 21
32.1101932727
  0
LINE
  8
0
 62
7
  6
CONTINUOUS
 10
149.6315543091
 20
31.3036010218
 11
149.5737418074
 21
31.1100188581
  0
LINE
  8
0
 62
7
  6
CONTINUOUS
 10
149.9784292936
 20
30.8841730531
 11
149.8628043005
 21
31.0454914852
  0
LINE
  8
0
 62
7
  6
CONTINUOUS
 10
151.0768668626
 20
31.400392081
 11
151.1346793074
 21
31.3036010218
  0
LINE
  8
0
 62
7
  6
CONTINUOUS
 10
151.4237418626
 20
31.3036010218
 11
151.3659292523
 21
31.4326557675
  0
LINE
  8
0
 62
7
  6
CONTINUOUS
 10
152.852430332
 20
36.1675703219
 11
152.852430332
 21
34.3642916334
  0
LINE
  8
0
 62
7
  6
CONTINUOUS
 10
152.852430332
 20
33.0528162235
 11
152.852430332
 21
32.3970785186
  0
LINE
  8
0
 62
7
  6
CONTINUOUS
 10
153.2159293074
 20
31.2390736489
 11
153.2159293074
 21
30.5937998301
  0
LINE
  8
0
 62
7
  6
CONTINUOUS
 10
153.5049916972
 20
30.5937998301
 11
153.5049916972
 21
31.2390736489
  0
LINE
  8
0
 62
7
  6
CONTINUOUS
 10
149.8628043005
 20
31.1422825445
 11
149.9206168074
 21
31.2713373354
  0
LINE
  8
0
 62
7
  6
CONTINUOUS
 10
149.6315543091
 20
30.9164367395
 11
149.7471793074
 21
30.7873819712
  0
LINE
  8
0
 62
7
  6
CONTINUOUS
 10
153.1581166972
 20
31.3681283946
 11
153.2159293074
 21
31.2390736489
  0
LINE
  8
0
 62
7
  6
CONTINUOUS
 10
153.9674919177
 20
30.8841730531
 11
154.0253041972
 21
30.7551182848
  0
LINE
  8
0
 62
7
  6
CONTINUOUS
 10
153.5049916972
 20
31.2390736489
 11
153.4471794177
 21
31.400392081
  0
LINE
  8
0
 62
7
  6
CONTINUOUS
 10
153.9674919177
 20
31.4326557675
 11
153.9674919177
 21
31.3681283946
  0
LINE
  8
0
 62
7
  6
CONTINUOUS
 10
153.9674919177
 20
30.9809641124
 11
153.9674919177
 21
30.8841730531
  0
LINE
  8
0
 62
7
  6
CONTINUOUS
 10
154.245872955
 20
32.3970785186
 11
154.245872955
 21
36.1675703219
  0
LINE
  8
0
 62
7
  6
CONTINUOUS
 10
154.2565543074
 20
30.8519093441
 11
154.2565543074
 21
30.9164367395
  0
LINE
  8
0
 62
7
  6
CONTINUOUS
 10
154.5737418074
 20
36.1675703219
 11
154.5737418074
 21
32.3970785186
  0
LINE
  8
0
 62
7
  6
CONTINUOUS
 10
151.3659292523
 20
30.7873819712
 11
151.4237418626
 21
30.9164367395
  0
LINE
  8
0
 62
7
  6
CONTINUOUS
 10
155.759679528
 20
30.6905909007
 11
155.7018665869
 21
30.8519093441
  0
LINE
  8
0
 62
7
  6
CONTINUOUS
 10
155.412804528
 20
31.3681283946
 11
155.412804528
 21
31.2713373354
  0
LINE
  8
0
 62
7
  6
CONTINUOUS
 10
155.412804528
 20
31.1422825445
 11
155.412804528
 21
30.9487004259
  0
LINE
  8
0
 62
7
  6
CONTINUOUS
 10
155.7018665869
 20
30.8519093441
 11
155.7018665869
 21
31.3681283946
  0
LINE
  8
0
 62
7
  6
CONTINUOUS
 10
155.9671844304
 20
32.3970785186
 11
155.9671844304
 21
34.2003572071
  0
LINE
  8
0
 62
7
  6
CONTINUOUS
 10
155.9671844304
 20
35.511832617
 11
155.9671844304
 21
36.1675703219
  0
LINE
  8
0
 62
7
  6
CONTINUOUS
 10
156.279992028
 20
32.1101932727
 11
156.279992028
 21
31.9488748406
  0
LINE
  8
0
 62
7
  6
CONTINUOUS
 10
156.279992028
 20
31.626237886
 11
156.279992028
 21
30.5937998301
  0
LINE
  8
0
 62
7
  6
CONTINUOUS
 10
156.5690540869
 20
30.5937998301
 11
156.5690540869
 21
31.626237886
  0
LINE
  8
0
 62
7
  6
CONTINUOUS
 10
156.5690540869
 20
31.9488748406
 11
156.5690540869
 21
32.1101932727
  0
LINE
  8
0
 62
7
  6
CONTINUOUS
 10
151.1346793074
 20
30.9164367395
 11
151.0768668626
 21
30.8196456577
  0
LINE
  8
0
 62
7
  6
CONTINUOUS
 10
153.4471794177
 20
31.400392081
 11
153.3893668074
 21
31.4649194539
  0
LINE
  8
0
 62
7
  6
CONTINUOUS
 10
154.3143669177
 20
30.7873819712
 11
154.2565543074
 21
30.8519093441
  0
LINE
  8
0
 62
7
  6
CONTINUOUS
 10
155.4706168074
 20
30.6583272086
 11
155.5284290869
 21
30.5937998301
  0
LINE
  8
0
 62
7
  6
CONTINUOUS
 10
155.412804528
 20
30.7551182848
 11
155.4706168074
 21
30.6583272086
  0
LINE
  8
0
 62
7
  6
CONTINUOUS
 10
155.8174918074
 20
30.5937998301
 11
155.759679528
 21
30.6905909007
  0
LINE
  8
0
 62
7
  6
CONTINUOUS
 10
155.7018665869
 20
31.3681283946
 11
155.6440543074
 21
31.4649194539
  0
LINE
  8
0
 62
7
  6
CONTINUOUS
 10
157.0315543074
 20
31.626237886
 11
157.0315543074
 21
30.5937998301
  0
LINE
  8
0
 62
7
  6
CONTINUOUS
 10
157.320617028
 20
30.5937998301
 11
157.320617028
 21
31.3358647082
  0
LINE
  8
0
 62
7
  6
CONTINUOUS
 10
157.320617028
 20
31.4649194539
 11
157.320617028
 21
31.626237886
  0
LINE
  8
0
 62
7
  6
CONTINUOUS
 10
157.852430332
 20
34.6101932727
 11
157.852430332
 21
32.3970785186
  0
LINE
  8
0
 62
7
  6
CONTINUOUS
 10
149.7471793074
 20
31.4326557675
 11
149.6315543091
 21
31.3036010218
  0
LINE
  8
0
 62
7
  6
CONTINUOUS
 10
149.9206168074
 20
31.2713373354
 11
149.9784292936
 21
31.3358647082
  0
LINE
  8
0
 62
7
  6
CONTINUOUS
 10
149.7471793074
 20
30.7873819712
 11
149.8628043005
 21
30.7228545871
  0
LINE
  8
0
 62
7
  6
CONTINUOUS
 10
150.1518667936
 20
30.7873819712
 11
149.9784292936
 21
30.8841730531
  0
LINE
  8
0
 62
7
  6
CONTINUOUS
 10
155.3549915869
 20
31.4326557675
 11
155.412804528
 21
31.3681283946
  0
LINE
  8
0
 62
7
  6
CONTINUOUS
 10
158.3034290869
 20
31.3681283946
 11
158.361242028
 21
31.2068099625
  0
LINE
  8
0
 62
7
  6
CONTINUOUS
 10
158.6503040869
 20
31.2068099625
 11
158.5924918074
 21
31.3681283946
  0
LINE
  8
0
 62
7
  6
CONTINUOUS
 10
158.361242028
 20
31.2068099625
 11
158.361242028
 21
30.5937998301
  0
LINE
  8
0
 62
7
  6
CONTINUOUS
 10
158.6503040869
 20
30.5937998301
 11
158.6503040869
 21
31.2068099625
  0
LINE
  8
0
 62
7
  6
CONTINUOUS
 10
159.1128043074
 20
31.4326557675
 11
159.1128043074
 21
31.3681283946
  0
LINE
  8
0
 62
7
  6
CONTINUOUS
 10
159.245872955
 20
32.3970785186
 11
159.245872955
 21
34.5282260596
  0
LINE
  8
0
 62
7
  6
CONTINUOUS
 10
159.5737418074
 20
36.1675703219
 11
159.5737418074
 21
32.3970785186
  0
LINE
  8
0
 62
7
  6
CONTINUOUS
 10
154.2565543074
 20
30.9164367395
 11
154.3143669177
 21
31.0132277988
  0
LINE
  8
0
 62
7
  6
CONTINUOUS
 10
149.8628043005
 20
30.7228545871
 11
150.0362418212
 21
30.6583272086
  0
LINE
  8
0
 62
7
  6
CONTINUOUS
 10
151.3659292523
 20
31.4326557675
 11
151.1924917523
 21
31.5294468267
  0
LINE
  8
0
 62
7
  6
CONTINUOUS
 10
154.0253041972
 20
30.7551182848
 11
154.1987416972
 21
30.6583272086
  0
LINE
  8
0
 62
7
  6
CONTINUOUS
 10
153.0424918074
 20
31.4326557675
 11
153.1581166972
 21
31.3681283946
  0
LINE
  8
0
 62
7
  6
CONTINUOUS
 10
153.3893668074
 20
31.4649194539
 11
153.2737419177
 21
31.5294468267
  0
LINE
  8
0
 62
7
  6
CONTINUOUS
 10
159.1128043074
 20
30.8519093441
 11
159.228429528
 21
30.7228545871
  0
LINE
  8
0
 62
7
  6
CONTINUOUS
 10
159.4596793074
 20
30.7873819712
 11
159.401867028
 21
30.8519093441
  0
LINE
  8
0
 62
7
  6
CONTINUOUS
 10
159.1128043074
 20
31.3681283946
 11
159.228429528
 21
31.2390736489
  0
LINE
  8
0
 62
7
  6
CONTINUOUS
 10
158.5924918074
 20
31.3681283946
 11
158.534679528
 21
31.4649194539
  0
LINE
  8
0
 62
7
  6
CONTINUOUS
 10
160.9628038663
 20
30.7873819712
 11
160.9628038663
 21
30.8519093441
  0
LINE
  8
0
 62
7
  6
CONTINUOUS
 10
160.9671844304
 20
32.3970785186
 11
160.9671844304
 21
36.1675703219
  0
LINE
  8
0
 62
7
  6
CONTINUOUS
 10
154.0253041972
 20
31.4971831403
 11
153.9674919177
 21
31.4326557675
  0
LINE
  8
0
 62
7
  6
CONTINUOUS
 10
150.9034292799
 20
31.4649194539
 11
151.0768668626
 21
31.400392081
  0
LINE
  8
0
 62
7
  6
CONTINUOUS
 10
155.6440543074
 20
31.4649194539
 11
155.5284290869
 21
31.5294468267
  0
LINE
  8
0
 62
7
  6
CONTINUOUS
 10
159.4596793074
 20
31.3036010218
 11
159.401867028
 21
31.3681283946
  0
LINE
  8
0
 62
7
  6
CONTINUOUS
 10
160.615929528
 20
30.9164367395
 11
160.6737418074
 21
30.8519093441
  0
LINE
  8
0
 62
7
  6
CONTINUOUS
 10
160.9628038663
 20
30.8519093441
 11
160.8471793074
 21
30.9809641124
  0
LINE
  8
0
 62
7
  6
CONTINUOUS
 10
160.615929528
 20
31.4326557675
 11
160.6737418074
 21
31.3681283946
  0
LINE
  8
0
 62
7
  6
CONTINUOUS
 10
160.9628038663
 20
31.3681283946
 11
160.8471793074
 21
31.4971831403
  0
LINE
  8
0
 62
7
  6
CONTINUOUS
 10
154.2565543074
 20
31.3681283946
 11
154.3143669177
 21
31.4326557675
  0
LINE
  8
0
 62
7
  6
CONTINUOUS
 10
154.0831168074
 20
31.1100188581
 11
153.9674919177
 21
30.9809641124
  0
LINE
  8
0
 62
7
  6
CONTINUOUS
 10
155.412804528
 20
30.9487004259
 11
155.3549915869
 21
30.8841730531
  0
LINE
  8
0
 62
7
  6
CONTINUOUS
 10
155.3549915869
 20
30.6905909007
 11
155.412804528
 21
30.7551182848
  0
LINE
  8
0
 62
7
  6
CONTINUOUS
 10
154.1987416972
 20
30.6583272086
 11
154.3143669177
 21
30.6260635193
  0
LINE
  8
0
 62
7
  6
CONTINUOUS
 10
151.1924917523
 20
31.5294468267
 11
150.9612418074
 21
31.5939741996
  0
LINE
  8
0
 62
7
  6
CONTINUOUS
 10
154.5456166972
 20
30.7228545871
 11
154.3143669177
 21
30.7873819712
  0
LINE
  8
0
 62
7
  6
CONTINUOUS
 10
153.2737419177
 20
31.5294468267
 11
153.1003044177
 21
31.5939741996
  0
LINE
  8
0
 62
7
  6
CONTINUOUS
 10
155.5284290869
 20
31.5294468267
 11
155.3549915869
 21
31.5939741996
  0
LINE
  8
0
 62
7
  6
CONTINUOUS
 10
158.187804528
 20
31.4326557675
 11
158.3034290869
 21
31.3681283946
  0
LINE
  8
0
 62
7
  6
CONTINUOUS
 10
158.534679528
 20
31.4649194539
 11
158.4190543074
 21
31.5294468267
  0
LINE
  8
0
 62
7
  6
CONTINUOUS
 10
150.0362418212
 20
30.6583272086
 11
150.2096793212
 21
30.6260635193
  0
LINE
  8
0
 62
7
  6
CONTINUOUS
 10
150.498741835
 20
30.7228545871
 11
150.1518667936
 21
30.7873819712
  0
LINE
  8
0
 62
7
  6
CONTINUOUS
 10
152.9268669177
 20
31.4649194539
 11
153.0424918074
 21
31.4326557675
  0
LINE
  8
0
 62
7
  6
CONTINUOUS
 10
155.239367028
 20
31.4649194539
 11
155.3549915869
 21
31.4326557675
  0
LINE
  8
0
 62
7
  6
CONTINUOUS
 10
159.575304528
 20
30.7551182848
 11
159.4596793074
 21
30.7873819712
  0
LINE
  8
0
 62
7
  6
CONTINUOUS
 10
158.0721793074
 20
31.4649194539
 11
158.187804528
 21
31.4326557675
  0
LINE
  8
0
 62
7
  6
CONTINUOUS
 10
159.228429528
 20
30.7228545871
 11
159.401867028
 21
30.6583272086
  0
LINE
  8
0
 62
7
  6
CONTINUOUS
 10
158.4190543074
 20
31.5294468267
 11
158.2456168074
 21
31.5939741996
  0
LINE
  8
0
 62
7
  6
CONTINUOUS
 10
159.6331168074
 20
31.2390736489
 11
159.4596793074
 21
31.3036010218
  0
LINE
  8
0
 62
7
  6
CONTINUOUS
 10
160.442492028
 20
30.9809641124
 11
160.615929528
 21
30.9164367395
  0
LINE
  8
0
 62
7
  6
CONTINUOUS
 10
160.8471793074
 20
31.4971831403
 11
160.6737418074
 21
31.5617105132
  0
LINE
  8
0
 62
7
  6
CONTINUOUS
 10
159.228429528
 20
31.2390736489
 11
159.4596793074
 21
31.1422825445
  0
LINE
  8
0
 62
7
  6
CONTINUOUS
 10
160.8471793074
 20
30.9809641124
 11
160.615929528
 21
31.0777551716
  0
LINE
  8
0
 62
7
  6
CONTINUOUS
 10
159.401867028
 20
31.3681283946
 11
159.4596793074
 21
31.4326557675
  0
LINE
  8
0
 62
7
  6
CONTINUOUS
 10
149.8628043005
 20
31.4971831403
 11
149.7471793074
 21
31.4326557675
  0
LINE
  8
0
 62
7
  6
CONTINUOUS
 10
149.9784292936
 20
31.3358647082
 11
150.1518667936
 21
31.4326557675
  0
LINE
  8
0
 62
7
  6
CONTINUOUS
 10
152.2909293626
 20
31.5294468267
 11
152.1753043074
 21
31.4649194539
  0
LINE
  8
0
 62
7
  6
CONTINUOUS
 10
152.1753043074
 20
31.3358647082
 11
152.2909293626
 21
31.400392081
  0
LINE
  8
0
 62
7
  6
CONTINUOUS
 10
151.1924917523
 20
30.6905909007
 11
151.3659292523
 21
30.7873819712
  0
LINE
  8
0
 62
7
  6
CONTINUOUS
 10
150.2096793212
 20
30.6260635193
 11
150.5565542799
 21
30.5937998301
  0
LINE
  8
0
 62
7
  6
CONTINUOUS
 10
154.3143669177
 20
30.6260635193
 11
154.5456166972
 21
30.5937998301
  0
LINE
  8
0
 62
7
  6
CONTINUOUS
 10
152.6956168074
 20
31.4971831403
 11
152.9268669177
 21
31.4649194539
  0
LINE
  8
0
 62
7
  6
CONTINUOUS
 10
155.0081169177
 20
31.4971831403
 11
155.239367028
 21
31.4649194539
  0
LINE
  8
0
 62
7
  6
CONTINUOUS
 10
159.4596793074
 20
31.1422825445
 11
160.442492028
 21
30.9809641124
  0
LINE
  8
0
 62
7
  6
CONTINUOUS
 10
160.615929528
 20
31.0777551716
 11
159.6331168074
 21
31.2390736489
  0
LINE
  8
0
 62
7
  6
CONTINUOUS
 10
153.1003044177
 20
31.5939741996
 11
152.9268669177
 21
31.626237886
  0
LINE
  8
0
 62
7
  6
CONTINUOUS
 10
159.401867028
 20
30.6583272086
 11
159.575304528
 21
30.6260635193
  0
LINE
  8
0
 62
7
  6
CONTINUOUS
 10
158.2456168074
 20
31.5939741996
 11
158.0721793074
 21
31.626237886
  0
LINE
  8
0
 62
7
  6
CONTINUOUS
 10
160.5003043074
 20
31.4649194539
 11
160.615929528
 21
31.4326557675
  0
LINE
  8
0
 62
7
  6
CONTINUOUS
 10
160.6737418074
 20
30.8519093441
 11
160.615929528
 21
30.7873819712
  0
LINE
  8
0
 62
7
  6
CONTINUOUS
 10
159.228429528
 20
31.5294468267
 11
159.1128043074
 21
31.4326557675
  0
LINE
  8
0
 62
7
  6
CONTINUOUS
 10
154.1409294177
 20
31.5617105132
 11
154.0253041972
 21
31.4971831403
  0
LINE
  8
0
 62
7
  6
CONTINUOUS
 10
154.1987416972
 20
31.1745462761
 11
154.0831168074
 21
31.1100188581
  0
LINE
  8
0
 62
7
  6
CONTINUOUS
 10
154.3143669177
 20
31.0132277988
 11
154.4299918074
 21
31.0777551716
  0
LINE
  8
0
 62
7
  6
CONTINUOUS
 10
151.8862417523
 20
30.5937998301
 11
152.1753043074
 21
30.5937998301
  0
LINE
  8
0
 62
7
  6
CONTINUOUS
 10
153.2159293074
 20
30.5937998301
 11
153.5049916972
 21
30.5937998301
  0
LINE
  8
0
 62
7
  6
CONTINUOUS
 10
154.5456166972
 20
30.5937998301
 11
154.8924916972
 21
30.5937998301
  0
LINE
  8
0
 62
7
  6
CONTINUOUS
 10
155.5284290869
 20
30.5937998301
 11
155.8174918074
 21
30.5937998301
  0
LINE
  8
0
 62
7
  6
CONTINUOUS
 10
156.279992028
 20
30.5937998301
 11
156.5690540869
 21
30.5937998301
  0
LINE
  8
0
 62
7
  6
CONTINUOUS
 10
157.0315543074
 20
30.5937998301
 11
157.320617028
 21
30.5937998301
  0
LINE
  8
0
 62
7
  6
CONTINUOUS
 10
158.361242028
 20
30.5937998301
 11
158.6503040869
 21
30.5937998301
  0
LINE
  8
0
 62
7
  6
CONTINUOUS
 10
159.922179528
 20
30.5937998301
 11
160.269054528
 21
30.5937998301
  0
LINE
  8
0
 62
7
  6
CONTINUOUS
 10
160.269054528
 20
30.7228545871
 11
159.922179528
 21
30.7228545871
  0
LINE
  8
0
 62
7
  6
CONTINUOUS
 10
154.8924916972
 20
30.7228545871
 11
154.5456166972
 21
30.7228545871
  0
LINE
  8
0
 62
7
  6
CONTINUOUS
 10
159.401867028
 20
30.8519093441
 11
159.1128043074
 21
30.8519093441
  0
LINE
  8
0
 62
7
  6
CONTINUOUS
 10
151.4237418626
 20
30.9164367395
 11
151.1346793074
 21
30.9164367395
  0
LINE
  8
0
 62
7
  6
CONTINUOUS
 10
150.498741835
 20
31.4971831403
 11
150.9034292799
 21
31.4649194539
  0
LINE
  8
0
 62
7
  6
CONTINUOUS
 10
150.9612418074
 20
31.5939741996
 11
150.5565542799
 21
31.626237886
  0
LINE
  8
0
 62
7
  6
CONTINUOUS
 10
159.575304528
 20
30.6260635193
 11
159.922179528
 21
30.5937998301
  0
LINE
  8
0
 62
7
  6
CONTINUOUS
 10
159.922179528
 20
30.7228545871
 11
159.575304528
 21
30.7551182848
  0
LINE
  8
0
 62
7
  6
CONTINUOUS
 10
155.3549915869
 20
31.5939741996
 11
155.0081169177
 21
31.626237886
  0
LINE
  8
0
 62
7
  6
CONTINUOUS
 10
160.1534293074
 20
31.4971831403
 11
160.5003043074
 21
31.4649194539
  0
LINE
  8
0
 62
7
  6
CONTINUOUS
 10
160.5003043074
 20
31.5939741996
 11
160.1534293074
 21
31.626237886
  0
LINE
  8
0
 62
7
  6
CONTINUOUS
 10
157.840929528
 20
31.4971831403
 11
158.0721793074
 21
31.4649194539
  0
LINE
  8
0
 62
7
  6
CONTINUOUS
 10
160.6737418074
 20
31.5617105132
 11
160.5003043074
 21
31.5939741996
  0
LINE
  8
0
 62
7
  6
CONTINUOUS
 10
160.8471793074
 20
30.6905909007
 11
160.9628038663
 21
30.7873819712
  0
LINE
  8
0
 62
7
  6
CONTINUOUS
 10
155.3549915869
 20
30.8841730531
 11
155.1815540869
 21
30.7873819712
  0
LINE
  8
0
 62
7
  6
CONTINUOUS
 10
157.4362415869
 20
31.5294468267
 11
157.320617028
 21
31.4649194539
  0
LINE
  8
0
 62
7
  6
CONTINUOUS
 10
157.320617028
 20
31.3358647082
 11
157.4362415869
 21
31.400392081
  0
LINE
  8
0
 62
7
  6
CONTINUOUS
 10
150.0362418212
 20
31.5617105132
 11
149.8628043005
 21
31.4971831403
  0
LINE
  8
0
 62
7
  6
CONTINUOUS
 10
152.4643666972
 20
31.5939741996
 11
152.2909293626
 21
31.5294468267
  0
LINE
  8
0
 62
7
  6
CONTINUOUS
 10
152.2909293626
 20
31.400392081
 11
152.4643666972
 21
31.4649194539
  0
LINE
  8
0
 62
7
  6
CONTINUOUS
 10
151.0768668626
 20
30.8196456577
 11
150.9034292799
 21
30.7551182848
  0
LINE
  8
0
 62
7
  6
CONTINUOUS
 10
160.5003043074
 20
30.7551182848
 11
160.269054528
 21
30.7228545871
  0
LINE
  8
0
 62
7
  6
CONTINUOUS
 10
154.8924916972
 20
30.5937998301
 11
155.1815540869
 21
30.6260635193
  0
LINE
  8
0
 62
7
  6
CONTINUOUS
 10
160.269054528
 20
30.5937998301
 11
160.615929528
 21
30.6260635193
  0
LINE
  8
0
 62
7
  6
CONTINUOUS
 10
150.5565542799
 20
30.5937998301
 11
150.9612418074
 21
30.6260635193
  0
LINE
  8
0
 62
7
  6
CONTINUOUS
 10
150.9034292799
 20
30.7551182848
 11
150.498741835
 21
30.7228545871
  0
LINE
  8
0
 62
7
  6
CONTINUOUS
 10
154.7768668074
 20
31.1422825445
 11
155.412804528
 21
31.1422825445
  0
LINE
  8
0
 62
7
  6
CONTINUOUS
 10
155.412804528
 20
31.2713373354
 11
154.7768668074
 21
31.2713373354
  0
LINE
  8
0
 62
7
  6
CONTINUOUS
 10
151.1346793074
 20
31.3036010218
 11
151.4237418626
 21
31.3036010218
  0
LINE
  8
0
 62
7
  6
CONTINUOUS
 10
153.9674919177
 20
31.3681283946
 11
154.2565543074
 21
31.3681283946
  0
LINE
  8
0
 62
7
  6
CONTINUOUS
 10
160.6737418074
 20
31.3681283946
 11
160.9628038663
 21
31.3681283946
  0
LINE
  8
0
 62
7
  6
CONTINUOUS
 10
154.6612419177
 20
31.4971831403
 11
155.0081169177
 21
31.4971831403
  0
LINE
  8
0
 62
7
  6
CONTINUOUS
 10
159.8065543074
 20
31.4971831403
 11
160.1534293074
 21
31.4971831403
  0
LINE
  8
0
 62
7
  6
CONTINUOUS
 10
160.1534293074
 20
31.626237886
 11
159.8065543074
 21
31.626237886
  0
LINE
  8
0
 62
7
  6
CONTINUOUS
 10
158.0721793074
 20
31.626237886
 11
157.840929528
 21
31.626237886
  0
LINE
  8
0
 62
7
  6
CONTINUOUS
 10
157.320617028
 20
31.626237886
 11
157.0315543074
 21
31.626237886
  0
LINE
  8
0
 62
7
  6
CONTINUOUS
 10
156.5690540869
 20
31.626237886
 11
156.279992028
 21
31.626237886
  0
LINE
  8
0
 62
7
  6
CONTINUOUS
 10
155.0081169177
 20
31.626237886
 11
154.6612419177
 21
31.626237886
  0
LINE
  8
0
 62
7
  6
CONTINUOUS
 10
152.9268669177
 20
31.626237886
 11
152.6956168074
 21
31.626237886
  0
LINE
  8
0
 62
7
  6
CONTINUOUS
 10
156.279992028
 20
31.9488748406
 11
156.5690540869
 21
31.9488748406
  0
LINE
  8
0
 62
7
  6
CONTINUOUS
 10
156.5690540869
 20
32.1101932727
 11
156.279992028
 21
32.1101932727
  0
LINE
  8
0
 62
7
  6
CONTINUOUS
 10
152.1753043074
 20
32.1101932727
 11
151.8862417523
 21
32.1101932727
  0
LINE
  8
0
 62
7
  6
CONTINUOUS
 10
151.2130860697
 20
32.3970785186
 11
151.6256574183
 21
32.3970785186
  0
LINE
  8
0
 62
7
  6
CONTINUOUS
 10
152.852430332
 20
32.3970785186
 11
154.245872955
 21
32.3970785186
  0
LINE
  8
0
 62
7
  6
CONTINUOUS
 10
154.5737418074
 20
32.3970785186
 11
155.9671844304
 21
32.3970785186
  0
LINE
  8
0
 62
7
  6
CONTINUOUS
 10
157.852430332
 20
32.3970785186
 11
159.245872955
 21
32.3970785186
  0
LINE
  8
0
 62
7
  6
CONTINUOUS
 10
159.5737418074
 20
32.3970785186
 11
160.9671844304
 21
32.3970785186
  0
LINE
  8
0
 62
7
  6
CONTINUOUS
 10
157.6096790869
 20
31.5939741996
 11
157.4362415869
 21
31.5294468267
  0
LINE
  8
0
 62
7
  6
CONTINUOUS
 10
155.1815540869
 20
30.6260635193
 11
155.3549915869
 21
30.6905909007
  0
LINE
  8
0
 62
7
  6
CONTINUOUS
 10
160.615929528
 20
30.6260635193
 11
160.8471793074
 21
30.6905909007
  0
LINE
  8
0
 62
7
  6
CONTINUOUS
 10
160.615929528
 20
30.7873819712
 11
160.5003043074
 21
30.7551182848
  0
LINE
  8
0
 62
7
  6
CONTINUOUS
 10
159.575304528
 20
31.4649194539
 11
159.8065543074
 21
31.4971831403
  0
LINE
  8
0
 62
7
  6
CONTINUOUS
 10
157.6096790869
 20
31.4649194539
 11
157.840929528
 21
31.4971831403
  0
LINE
  8
0
 62
7
  6
CONTINUOUS
 10
154.5456166972
 20
31.1100188581
 11
154.7768668074
 21
31.1422825445
  0
LINE
  8
0
 62
7
  6
CONTINUOUS
 10
157.840929528
 20
31.626237886
 11
157.6096790869
 21
31.5939741996
  0
LINE
  8
0
 62
7
  6
CONTINUOUS
 10
154.4299918074
 20
31.4649194539
 11
154.6612419177
 21
31.4971831403
  0
LINE
  8
0
 62
7
  6
CONTINUOUS
 10
159.8065543074
 20
31.626237886
 11
159.4596793074
 21
31.5939741996
  0
LINE
  8
0
 62
7
  6
CONTINUOUS
 10
154.7768668074
 20
31.2713373354
 11
154.4299918074
 21
31.2390736489
  0
LINE
  8
0
 62
7
  6
CONTINUOUS
 10
150.5565542799
 20
31.626237886
 11
150.2096793212
 21
31.5939741996
  0
LINE
  8
0
 62
7
  6
CONTINUOUS
 10
154.6612419177
 20
31.626237886
 11
154.2565543074
 21
31.5939741996
  0
LINE
  8
0
 62
7
  6
CONTINUOUS
 10
152.0327582009
 20
33.5446195022
 11
151.3770204959
 21
33.5446195022
  0
LINE
  8
0
 62
7
  6
CONTINUOUS
 10
157.4362415869
 20
31.400392081
 11
157.6096790869
 21
31.4649194539
  0
LINE
  8
0
 62
7
  6
CONTINUOUS
 10
159.4596793074
 20
31.4326557675
 11
159.575304528
 21
31.4649194539
  0
LINE
  8
0
 62
7
  6
CONTINUOUS
 10
159.4596793074
 20
31.5939741996
 11
159.228429528
 21
31.5294468267
  0
LINE
  8
0
 62
7
  6
CONTINUOUS
 10
155.1815540869
 20
30.7873819712
 11
154.8924916972
 21
30.7228545871
  0
LINE
  8
0
 62
7
  6
CONTINUOUS
 10
152.4643666972
 20
31.4649194539
 11
152.6956168074
 21
31.4971831403
  0
LINE
  8
0
 62
7
  6
CONTINUOUS
 10
152.6956168074
 20
31.626237886
 11
152.4643666972
 21
31.5939741996
  0
LINE
  8
0
 62
7
  6
CONTINUOUS
 10
150.2674918074
 20
31.4649194539
 11
150.498741835
 21
31.4971831403
  0
LINE
  8
0
 62
7
  6
CONTINUOUS
 10
156.7868565615
 20
35.0200293383
 11
157.4425942664
 21
35.0200293383
  0
LINE
  8
0
 62
7
  6
CONTINUOUS
 10
154.4299918074
 20
31.0777551716
 11
154.5456166972
 21
31.1100188581
  0
LINE
  8
0
 62
7
  6
CONTINUOUS
 10
154.4299918074
 20
31.2390736489
 11
154.1987416972
 21
31.1745462761
  0
LINE
  8
0
 62
7
  6
CONTINUOUS
 10
154.3143669177
 20
31.4326557675
 11
154.4299918074
 21
31.4649194539
  0
LINE
  8
0
 62
7
  6
CONTINUOUS
 10
150.9612418074
 20
30.6260635193
 11
151.1924917523
 21
30.6905909007
  0
LINE
  8
0
 62
7
  6
CONTINUOUS
 10
154.2565543074
 20
31.5939741996
 11
154.1409294177
 21
31.5617105132
  0
LINE
  8
0
 62
7
  6
CONTINUOUS
 10
150.2096793212
 20
31.5939741996
 11
150.0362418212
 21
31.5617105132
  0
LINE
  8
0
 62
7
  6
CONTINUOUS
 10
160.9671844304
 20
36.1675703219
 11
159.5737418074
 21
36.1675703219
  0
LINE
  8
0
 62
7
  6
CONTINUOUS
 10
157.6065286927
 20
36.1675703219
 11
157.1939573441
 21
36.1675703219
  0
LINE
  8
0
 62
7
  6
CONTINUOUS
 10
155.9671844304
 20
36.1675703219
 11
154.5737418074
 21
36.1675703219
  0
LINE
  8
0
 62
7
  6
CONTINUOUS
 10
154.245872955
 20
36.1675703219
 11
152.852430332
 21
36.1675703219
  0
LINE
  8
0
 62
7
  6
CONTINUOUS
 10
150.9671844304
 20
36.1675703219
 11
149.5737418074
 21
36.1675703219
  0
LINE
  8
0
 62
7
  6
CONTINUOUS
 10
150.1518667936
 20
31.4326557675
 11
150.2674918074
 21
31.4649194539
  0
CIRCLE
  8
0
 62
7
  6
CONTINUOUS
 10
160.2704631189
 20
38.5036358957
 40
2.0901639344
  0
ARC
  8
0
 62
7
  6
CONTINUOUS
 10
151.2130860697
 20
34.0364227809
 40
1.6393442623
 50
180.0
 51
270.0
  0
ARC
  8
0
 62
7
  6
CONTINUOUS
 10
157.6065286927
 20
34.5282260596
 40
1.6393442623
 50
0.0
 51
90.0
  0
ARC
  8
0
 62
7
  6
CONTINUOUS
 10
151.6256574183
 20
33.8724883547
 40
1.4754098361
 50
270.0
 51
326.2510114041
  0
ARC
  8
0
 62
7
  6
CONTINUOUS
 10
157.1939573441
 20
34.6921604858
 40
1.4754098361
 50
90.0
 51
146.2510114041
  0
ARC
  8
0
 62
7
  6
CONTINUOUS
 10
152.0327582009
 20
34.3642916334
 40
0.8196721311
 50
270.0
 51
360.0
  0
ARC
  8
0
 62
7
  6
CONTINUOUS
 10
156.7868565615
 20
34.2003572071
 40
0.8196721311
 50
90.0
 51
180.0
  0
ARC
  8
0
 62
7
  6
CONTINUOUS
 10
151.3770204959
 20
33.9544555678
 40
0.4098360656
 50
180.0
 51
270.0
  0
ARC
  8
0
 62
7
  6
CONTINUOUS
 10
157.4425942664
 20
34.6101932727
 40
0.4098360656
 50
0.0
 51
90.0
  0
SOLID
  8
0
 62
7
  6
CONTINUOUS
 10
156.279992028
 20
31.9488752009
 11
156.279992028
 21
32.1101936845
 12
156.5690540869
 22
31.9488752009
 13
156.5690540869
 23
32.1101936845
  0
SOLID
  8
0
 62
7
  6
CONTINUOUS
 10
150.5565542799
 20
31.6262382337
 11
150.9612418074
 21
31.5939740028
 12
150.2096793212
 22
31.5939740028
 13
150.2096793212
 23
31.5939740028
  0
SOLID
  8
0
 62
7
  6
CONTINUOUS
 10
150.0362418212
 20
31.5617111435
 11
150.2096793212
 21
31.5939740028
 12
150.9612418074
 22
31.5939740028
 13
150.9612418074
 23
31.5939740028
  0
SOLID
  8
0
 62
7
  6
CONTINUOUS
 10
150.9612418074
 20
31.5939740028
 11
151.1924917523
 21
31.5294468402
 12
150.0362418212
 22
31.5617111435
 13
150.0362418212
 23
31.5617111435
  0
SOLID
  8
0
 62
7
  6
CONTINUOUS
 10
149.8628043005
 20
31.49718259
 11
150.0362418212
 21
31.5617111435
 12
151.1924917523
 22
31.5294468402
 13
151.1924917523
 23
31.5294468402
  0
SOLID
  8
0
 62
7
  6
CONTINUOUS
 10
149.8628043005
 20
31.49718259
 11
151.1924917523
 21
31.5294468402
 12
150.498741835
 22
31.49718259
 13
150.498741835
 23
31.49718259
  0
SOLID
  8
0
 62
7
  6
CONTINUOUS
 10
150.498741835
 20
31.49718259
 11
151.1924917523
 21
31.5294468402
 12
150.9034292799
 22
31.4649197501
 13
150.9034292799
 23
31.4649197501
  0
SOLID
  8
0
 62
7
  6
CONTINUOUS
 10
151.1924917523
 20
31.5294468402
 11
151.3659292523
 21
31.4326554468
 12
150.9034292799
 22
31.4649197501
 13
150.9034292799
 23
31.4649197501
  0
SOLID
  8
0
 62
7
  6
CONTINUOUS
 10
151.0768668626
 20
31.4003926599
 11
150.9034292799
 21
31.4649197501
 12
151.3659292523
 22
31.4326554468
 13
151.3659292523
 23
31.4326554468
  0
SOLID
  8
0
 62
7
  6
CONTINUOUS
 10
151.0768668626
 20
31.4003926599
 11
151.3659292523
 21
31.4326554468
 12
151.1346793074
 22
31.3036013776
 13
151.1346793074
 23
31.3036013776
  0
SOLID
  8
0
 62
7
  6
CONTINUOUS
 10
151.3659292523
 20
31.4326554468
 11
151.4237418626
 21
31.3036013776
 12
151.1346793074
 22
31.3036013776
 13
151.1346793074
 23
31.3036013776
  0
SOLID
  8
0
 62
7
  6
CONTINUOUS
 10
152.4643666972
 20
31.5939739754
 11
152.6956168074
 21
31.6262382787
 12
152.9268669177
 22
31.6262382787
 13
152.9268669177
 23
31.6262382787
  0
SOLID
  8
0
 62
7
  6
CONTINUOUS
 10
152.9268669177
 20
31.6262382787
 11
153.1003044177
 21
31.5939739754
 12
152.4643666972
 22
31.5939739754
 13
152.4643666972
 23
31.5939739754
  0
SOLID
  8
0
 62
7
  6
CONTINUOUS
 10
152.2909293626
 20
31.5294468852
 11
152.4643666972
 21
31.5939739754
 12
153.1003044177
 22
31.5939739754
 13
153.1003044177
 23
31.5939739754
  0
SOLID
  8
0
 62
7
  6
CONTINUOUS
 10
153.1003044177
 20
31.5939739754
 11
153.2737419177
 21
31.5294468852
 12
152.2909293626
 22
31.5294468852
 13
152.2909293626
 23
31.5294468852
  0
SOLID
  8
0
 62
7
  6
CONTINUOUS
 10
153.2737419177
 20
31.5294468852
 11
152.6956168074
 21
31.4971825369
 12
152.2909293626
 22
31.5294468852
 13
152.2909293626
 23
31.5294468852
  0
SOLID
  8
0
 62
7
  6
CONTINUOUS
 10
152.1753043074
 20
31.4649197951
 11
152.2909293626
 21
31.5294468852
 12
152.6956168074
 22
31.4971825369
 13
152.6956168074
 23
31.4971825369
  0
SOLID
  8
0
 62
7
  6
CONTINUOUS
 10
152.6956168074
 20
31.4971825369
 11
152.4643666972
 21
31.4649197951
 12
152.1753043074
 22
31.4649197951
 13
152.1753043074
 23
31.4649197951
  0
SOLID
  8
0
 62
7
  6
CONTINUOUS
 10
152.6956168074
 20
31.4971825369
 11
153.2737419177
 21
31.5294468852
 12
152.9268669177
 22
31.4649197951
 13
152.9268669177
 23
31.4649197951
  0
SOLID
  8
0
 62
7
  6
CONTINUOUS
 10
153.2737419177
 20
31.5294468852
 11
153.3893668074
 21
31.4649197951
 12
152.9268669177
 22
31.4649197951
 13
152.9268669177
 23
31.4649197951
  0
SOLID
  8
0
 62
7
  6
CONTINUOUS
 10
153.0424918074
 20
31.4326554468
 11
152.9268669177
 21
31.4649197951
 12
153.3893668074
 22
31.4649197951
 13
153.3893668074
 23
31.4649197951
  0
SOLID
  8
0
 62
7
  6
CONTINUOUS
 10
153.3893668074
 20
31.4649197951
 11
153.4471794177
 21
31.4003927049
 12
153.0424918074
 22
31.4326554468
 13
153.0424918074
 23
31.4326554468
  0
SOLID
  8
0
 62
7
  6
CONTINUOUS
 10
153.1581166972
 20
31.3681283566
 11
153.0424918074
 21
31.4326554468
 12
153.4471794177
 22
31.4003927049
 13
153.4471794177
 23
31.4003927049
  0
SOLID
  8
0
 62
7
  6
CONTINUOUS
 10
153.1581166972
 20
31.3681283566
 11
153.4471794177
 21
31.4003927049
 12
153.2159293074
 22
31.2390742213
 13
153.2159293074
 23
31.2390742213
  0
SOLID
  8
0
 62
7
  6
CONTINUOUS
 10
153.4471794177
 20
31.4003927049
 11
153.5049916972
 21
31.2390742213
 12
153.2159293074
 22
31.2390742213
 13
153.2159293074
 23
31.2390742213
  0
SOLID
  8
0
 62
7
  6
CONTINUOUS
 10
152.4643666972
 20
31.4649197951
 11
152.2909293626
 21
31.4003927049
 12
152.1753043074
 22
31.4649197951
 13
152.1753043074
 23
31.4649197951
  0
SOLID
  8
0
 62
7
  6
CONTINUOUS
 10
152.2909293626
 20
31.4003927049
 11
152.1753043074
 21
31.3358640533
 12
152.1753043074
 22
31.4649197951
 13
152.1753043074
 23
31.4649197951
  0
SOLID
  8
0
 62
7
  6
CONTINUOUS
 10
152.1753043074
 20
31.3358640533
 11
151.8862417523
 21
30.5938002869
 12
152.1753043074
 22
31.4649197951
 13
152.1753043074
 23
31.4649197951
  0
SOLID
  8
0
 62
7
  6
CONTINUOUS
 10
152.1753043074
 20
31.4649197951
 11
151.8862417523
 21
30.5938002869
 12
152.1753043074
 22
32.1101937295
 13
152.1753043074
 23
32.1101937295
  0
SOLID
  8
0
 62
7
  6
CONTINUOUS
 10
151.8862417523
 20
30.5938002869
 11
151.8862417523
 21
32.1101937295
 12
152.1753043074
 22
32.1101937295
 13
152.1753043074
 23
32.1101937295
  0
SOLID
  8
0
 62
7
  6
CONTINUOUS
 10
152.1753043074
 20
31.3358640533
 11
152.1753043074
 21
30.5938002869
 12
151.8862417523
 22
30.5938002869
 13
151.8862417523
 23
30.5938002869
  0
SOLID
  8
0
 62
7
  6
CONTINUOUS
 10
153.2159293074
 20
30.5938002869
 11
153.2159293074
 21
31.2390742213
 12
153.5049916972
 22
31.2390742213
 13
153.5049916972
 23
31.2390742213
  0
SOLID
  8
0
 62
7
  6
CONTINUOUS
 10
153.5049916972
 20
31.2390742213
 11
153.5049916972
 21
30.5938002869
 12
153.2159293074
 22
30.5938002869
 13
153.2159293074
 23
30.5938002869
  0
SOLID
  8
0
 62
7
  6
CONTINUOUS
 10
154.2565543074
 20
31.5939738288
 11
154.6612419177
 21
31.6262385959
 12
155.0081169177
 22
31.6262385959
 13
155.0081169177
 23
31.6262385959
  0
SOLID
  8
0
 62
7
  6
CONTINUOUS
 10
155.0081169177
 20
31.6262385959
 11
155.3549915869
 21
31.5939738288
 12
154.2565543074
 22
31.5939738288
 13
154.2565543074
 23
31.5939738288
  0
SOLID
  8
0
 62
7
  6
CONTINUOUS
 10
154.1409294177
 20
31.5617111435
 11
154.2565543074
 21
31.5939738288
 12
155.3549915869
 22
31.5939738288
 13
155.3549915869
 23
31.5939738288
  0
SOLID
  8
0
 62
7
  6
CONTINUOUS
 10
155.3549915869
 20
31.5939738288
 11
155.5284290869
 21
31.5294468402
 12
154.1409294177
 22
31.5617111435
 13
154.1409294177
 23
31.5617111435
  0
SOLID
  8
0
 62
7
  6
CONTINUOUS
 10
154.0253041972
 20
31.4971826249
 11
154.1409294177
 21
31.5617111435
 12
155.5284290869
 22
31.5294468402
 13
155.5284290869
 23
31.5294468402
  0
SOLID
  8
0
 62
7
  6
CONTINUOUS
 10
154.0253041972
 20
31.4971826249
 11
155.5284290869
 21
31.5294468402
 12
154.6612419177
 22
31.4971826249
 13
154.6612419177
 23
31.4971826249
  0
SOLID
  8
0
 62
7
  6
CONTINUOUS
 10
154.6612419177
 20
31.4971826249
 11
155.5284290869
 21
31.5294468402
 12
155.0081169177
 22
31.4971826249
 13
155.0081169177
 23
31.4971826249
  0
SOLID
  8
0
 62
7
  6
CONTINUOUS
 10
155.0081169177
 20
31.4971826249
 11
155.5284290869
 21
31.5294468402
 12
155.239367028
 22
31.4649194065
 13
155.239367028
 23
31.4649194065
  0
SOLID
  8
0
 62
7
  6
CONTINUOUS
 10
155.5284290869
 20
31.5294468402
 11
155.6440543074
 21
31.4649194065
 12
155.239367028
 22
31.4649194065
 13
155.239367028
 23
31.4649194065
  0
SOLID
  8
0
 62
7
  6
CONTINUOUS
 10
153.9674919177
 20
31.4326554138
 11
154.0253041972
 21
31.4971826249
 12
154.6612419177
 22
31.4971826249
 13
154.6612419177
 23
31.4971826249
  0
SOLID
  8
0
 62
7
  6
CONTINUOUS
 10
155.3549915869
 20
31.4326554138
 11
155.239367028
 21
31.4649194065
 12
155.6440543074
 22
31.4649194065
 13
155.6440543074
 23
31.4649194065
  0
SOLID
  8
0
 62
7
  6
CONTINUOUS
 10
155.3549915869
 20
31.4326554138
 11
155.6440543074
 21
31.4649194065
 12
155.412804528
 22
31.3681282026
 13
155.412804528
 23
31.3681282026
  0
SOLID
  8
0
 62
7
  6
CONTINUOUS
 10
155.6440543074
 20
31.4649194065
 11
155.7018665869
 21
31.3681282026
 12
155.412804528
 22
31.3681282026
 13
155.412804528
 23
31.3681282026
  0
SOLID
  8
0
 62
7
  6
CONTINUOUS
 10
155.412804528
 20
31.2713369632
 11
155.412804528
 21
31.3681282026
 12
155.7018665869
 22
31.3681282026
 13
155.7018665869
 23
31.3681282026
  0
SOLID
  8
0
 62
7
  6
CONTINUOUS
 10
155.412804528
 20
31.2713369632
 11
155.7018665869
 21
31.3681282026
 12
155.412804528
 22
31.1422827828
 13
155.412804528
 23
31.1422827828
  0
SOLID
  8
0
 62
7
  6
CONTINUOUS
 10
155.412804528
 20
31.1422827828
 11
155.7018665869
 21
31.3681282026
 12
155.412804528
 22
30.9487004259
 13
155.412804528
 23
30.9487004259
  0
SOLID
  8
0
 62
7
  6
CONTINUOUS
 10
155.7018665869
 20
31.3681282026
 11
155.7018665869
 21
30.8519086025
 12
155.412804528
 22
30.9487004259
 13
155.412804528
 23
30.9487004259
  0
SOLID
  8
0
 62
7
  6
CONTINUOUS
 10
157.6096790869
 20
31.5939736268
 11
157.840929528
 21
31.6262383465
 12
158.0721793074
 22
31.6262383465
 13
158.0721793074
 23
31.6262383465
  0
SOLID
  8
0
 62
7
  6
CONTINUOUS
 10
158.0721793074
 20
31.6262383465
 11
158.2456168074
 21
31.5939736268
 12
157.6096790869
 22
31.5939736268
 13
157.6096790869
 23
31.5939736268
  0
SOLID
  8
0
 62
7
  6
CONTINUOUS
 10
157.4362415869
 20
31.5294472848
 11
157.6096790869
 21
31.5939736268
 12
158.2456168074
 22
31.5939736268
 13
158.2456168074
 23
31.5939736268
  0
SOLID
  8
0
 62
7
  6
CONTINUOUS
 10
158.2456168074
 20
31.5939736268
 11
158.4190543074
 21
31.5294472848
 12
157.4362415869
 22
31.5294472848
 13
157.4362415869
 23
31.5294472848
  0
SOLID
  8
0
 62
7
  6
CONTINUOUS
 10
158.4190543074
 20
31.5294472848
 11
157.840929528
 21
31.4971825369
 12
157.4362415869
 22
31.5294472848
 13
157.4362415869
 23
31.5294472848
  0
SOLID
  8
0
 62
7
  6
CONTINUOUS
 10
157.320617028
 20
31.4649199103
 11
157.4362415869
 21
31.5294472848
 12
157.840929528
 22
31.4971825369
 13
157.840929528
 23
31.4971825369
  0
SOLID
  8
0
 62
7
  6
CONTINUOUS
 10
157.840929528
 20
31.4971825369
 11
157.6096790869
 21
31.4649199103
 12
157.320617028
 22
31.4649199103
 13
157.320617028
 23
31.4649199103
  0
SOLID
  8
0
 62
7
  6
CONTINUOUS
 10
157.840929528
 20
31.4971825369
 11
158.4190543074
 21
31.5294472848
 12
158.0721793074
 22
31.4649199103
 13
158.0721793074
 23
31.4649199103
  0
SOLID
  8
0
 62
7
  6
CONTINUOUS
 10
158.4190543074
 20
31.5294472848
 11
158.534679528
 21
31.4649199103
 12
158.0721793074
 22
31.4649199103
 13
158.0721793074
 23
31.4649199103
  0
SOLID
  8
0
 62
7
  6
CONTINUOUS
 10
158.187804528
 20
31.4326554468
 11
158.0721793074
 21
31.4649199103
 12
158.534679528
 22
31.4649199103
 13
158.534679528
 23
31.4649199103
  0
SOLID
  8
0
 62
7
  6
CONTINUOUS
 10
158.187804528
 20
31.4326554468
 11
158.534679528
 21
31.4649199103
 12
158.3034290869
 22
31.3681288486
 13
158.3034290869
 23
31.3681288486
  0
SOLID
  8
0
 62
7
  6
CONTINUOUS
 10
158.534679528
 20
31.4649199103
 11
158.5924918074
 21
31.3681288486
 12
158.3034290869
 22
31.3681288486
 13
158.3034290869
 23
31.3681288486
  0
SOLID
  8
0
 62
7
  6
CONTINUOUS
 10
158.361242028
 20
31.2068093799
 11
158.3034290869
 21
31.3681288486
 12
158.5924918074
 22
31.3681288486
 13
158.5924918074
 23
31.3681288486
  0
SOLID
  8
0
 62
7
  6
CONTINUOUS
 10
158.5924918074
 20
31.3681288486
 11
158.6503040869
 21
31.2068093799
 12
158.361242028
 22
31.2068093799
 13
158.361242028
 23
31.2068093799
  0
SOLID
  8
0
 62
7
  6
CONTINUOUS
 10
157.6096790869
 20
31.4649199103
 11
157.4362415869
 21
31.4003926599
 12
157.320617028
 22
31.4649199103
 13
157.320617028
 23
31.4649199103
  0
SOLID
  8
0
 62
7
  6
CONTINUOUS
 10
157.4362415869
 20
31.4003926599
 11
157.320617028
 21
31.3358640533
 12
157.320617028
 22
31.4649199103
 13
157.320617028
 23
31.4649199103
  0
SOLID
  8
0
 62
7
  6
CONTINUOUS
 10
157.320617028
 20
31.3358640533
 11
157.0315543074
 21
30.5938003547
 12
157.320617028
 22
31.4649199103
 13
157.320617028
 23
31.4649199103
  0
SOLID
  8
0
 62
7
  6
CONTINUOUS
 10
157.320617028
 20
31.4649199103
 11
157.0315543074
 21
30.5938003547
 12
157.320617028
 22
31.6262383465
 13
157.320617028
 23
31.6262383465
  0
SOLID
  8
0
 62
7
  6
CONTINUOUS
 10
157.0315543074
 20
30.5938003547
 11
157.0315543074
 21
31.6262383465
 12
157.320617028
 22
31.6262383465
 13
157.320617028
 23
31.6262383465
  0
SOLID
  8
0
 62
7
  6
CONTINUOUS
 10
157.320617028
 20
31.3358640533
 11
157.320617028
 21
30.5938003547
 12
157.0315543074
 22
30.5938003547
 13
157.0315543074
 23
30.5938003547
  0
SOLID
  8
0
 62
7
  6
CONTINUOUS
 10
158.361242028
 20
30.5938003547
 11
158.361242028
 21
31.2068093799
 12
158.6503040869
 22
31.2068093799
 13
158.6503040869
 23
31.2068093799
  0
SOLID
  8
0
 62
7
  6
CONTINUOUS
 10
158.6503040869
 20
31.2068093799
 11
158.6503040869
 21
30.5938003547
 12
158.361242028
 22
30.5938003547
 13
158.361242028
 23
30.5938003547
  0
SOLID
  8
0
 62
7
  6
CONTINUOUS
 10
159.4596793074
 20
31.5939739474
 11
159.8065543074
 21
31.6262381969
 12
160.1534293074
 22
31.6262381969
 13
160.1534293074
 23
31.6262381969
  0
SOLID
  8
0
 62
7
  6
CONTINUOUS
 10
160.1534293074
 20
31.6262381969
 11
160.5003043074
 21
31.5939739474
 12
159.4596793074
 22
31.5939739474
 13
159.4596793074
 23
31.5939739474
  0
SOLID
  8
0
 62
7
  6
CONTINUOUS
 10
159.228429528
 20
31.5294468402
 11
159.4596793074
 21
31.5939739474
 12
160.5003043074
 22
31.5939739474
 13
160.5003043074
 23
31.5939739474
  0
SOLID
  8
0
 62
7
  6
CONTINUOUS
 10
159.228429528
 20
31.5294468402
 11
160.5003043074
 21
31.5939739304
 12
160.6737418074
 22
31.5617111435
 13
160.6737418074
 23
31.5617111435
  0
SOLID
  8
0
 62
7
  6
CONTINUOUS
 10
159.228429528
 20
31.5294468402
 11
160.6737418074
 21
31.5617111435
 12
159.8065543074
 22
31.4971825592
 13
159.8065543074
 23
31.4971825592
  0
SOLID
  8
0
 62
7
  6
CONTINUOUS
 10
159.8065543074
 20
31.4971825592
 11
160.6737418074
 21
31.5617111435
 12
160.1534293074
 22
31.4971825592
 13
160.1534293074
 23
31.4971825592
  0
SOLID
  8
0
 62
7
  6
CONTINUOUS
 10
160.6737418074
 20
31.5617111435
 11
160.8471793074
 21
31.4971825592
 12
160.1534293074
 22
31.4971825592
 13
160.1534293074
 23
31.4971825592
  0
SOLID
  8
0
 62
7
  6
CONTINUOUS
 10
160.5003043074
 20
31.4649197501
 11
160.1534293074
 21
31.4971825592
 12
160.8471793074
 22
31.4971825592
 13
160.8471793074
 23
31.4971825592
  0
SOLID
  8
0
 62
7
  6
CONTINUOUS
 10
159.1128043074
 20
31.4326555427
 11
159.228429528
 21
31.5294468402
 12
159.8065543074
 22
31.4971825592
 13
159.8065543074
 23
31.4971825592
  0
SOLID
  8
0
 62
7
  6
CONTINUOUS
 10
160.5003043074
 20
31.4649197501
 11
160.8471793074
 21
31.4971825592
 12
160.615929528
 22
31.4326555427
 13
160.615929528
 23
31.4326555427
  0
SOLID
  8
0
 62
7
  6
CONTINUOUS
 10
160.615929528
 20
31.4326555427
 11
160.8471793074
 21
31.4971825592
 12
160.6737418074
 22
31.3681283005
 13
160.6737418074
 23
31.3681283005
  0
SOLID
  8
0
 62
7
  6
CONTINUOUS
 10
160.8471793074
 20
31.4971825592
 11
160.9628038663
 21
31.3681283005
 12
160.6737418074
 22
31.3681283005
 13
160.6737418074
 23
31.3681283005
  0
SOLID
  8
0
 62
7
  6
CONTINUOUS
 10
150.2674918074
 20
31.4649197501
 11
149.7471793074
 21
31.4326554237
 12
150.498741835
 22
31.4971824493
 13
150.498741835
 23
31.4971824493
  0
SOLID
  8
0
 62
7
  6
CONTINUOUS
 10
149.7471793074
 20
31.4326554237
 11
149.8628043005
 21
31.4971824493
 12
150.498741835
 22
31.4971824493
 13
150.498741835
 23
31.4971824493
  0
SOLID
  8
0
 62
7
  6
CONTINUOUS
 10
150.2674918074
 20
31.4649197501
 11
150.1518667936
 21
31.4326554237
 12
149.7471793074
 22
31.4326554237
 13
149.7471793074
 23
31.4326554237
  0
SOLID
  8
0
 62
7
  6
CONTINUOUS
 10
149.6315543091
 20
31.3036012664
 11
149.7471793074
 21
31.4326554237
 12
150.1518667936
 22
31.4326554237
 13
150.1518667936
 23
31.4326554237
  0
SOLID
  8
0
 62
7
  6
CONTINUOUS
 10
153.9674919177
 20
31.4326554237
 11
154.6612419177
 21
31.4971825369
 12
154.4299918074
 22
31.4649197501
 13
154.4299918074
 23
31.4649197501
  0
SOLID
  8
0
 62
7
  6
CONTINUOUS
 10
154.4299918074
 20
31.4649197501
 11
154.3143669177
 21
31.4326554237
 12
153.9674919177
 22
31.4326554237
 13
153.9674919177
 23
31.4326554237
  0
SOLID
  8
0
 62
7
  6
CONTINUOUS
 10
153.9674919177
 20
31.3681283335
 11
153.9674919177
 21
31.4326554237
 12
154.3143669177
 22
31.4326554237
 13
154.3143669177
 23
31.4326554237
  0
SOLID
  8
0
 62
7
  6
CONTINUOUS
 10
154.3143669177
 20
31.4326554237
 11
154.2565543074
 21
31.3681283335
 12
153.9674919177
 22
31.3681283335
 13
153.9674919177
 23
31.3681283335
  0
SOLID
  8
0
 62
7
  6
CONTINUOUS
 10
159.1128043074
 20
31.4326555528
 11
159.8065543074
 21
31.4971825369
 12
159.575304528
 22
31.4649197501
 13
159.575304528
 23
31.4649197501
  0
SOLID
  8
0
 62
7
  6
CONTINUOUS
 10
159.575304528
 20
31.4649197501
 11
159.4596793074
 21
31.4326555528
 12
159.1128043074
 22
31.4326555528
 13
159.1128043074
 23
31.4326555528
  0
SOLID
  8
0
 62
7
  6
CONTINUOUS
 10
159.1128043074
 20
31.3681284626
 11
159.1128043074
 21
31.4326555528
 12
159.4596793074
 22
31.4326555528
 13
159.4596793074
 23
31.4326555528
  0
SOLID
  8
0
 62
7
  6
CONTINUOUS
 10
159.4596793074
 20
31.4326555528
 11
159.401867028
 21
31.3681284626
 12
159.1128043074
 22
31.3681284626
 13
159.1128043074
 23
31.3681284626
  0
SOLID
  8
0
 62
7
  6
CONTINUOUS
 10
159.228429528
 20
31.2390741763
 11
159.1128043074
 21
31.3681284626
 12
159.401867028
 22
31.3681284626
 13
159.401867028
 23
31.3681284626
  0
SOLID
  8
0
 62
7
  6
CONTINUOUS
 10
149.6315543091
 20
31.3036012664
 11
150.1518667936
 21
31.4326554468
 12
149.9784292936
 22
31.3358640533
 13
149.9784292936
 23
31.3358640533
  0
SOLID
  8
0
 62
7
  6
CONTINUOUS
 10
149.9784292936
 20
31.3358640533
 11
149.9206168074
 21
31.2713369632
 12
149.6315543091
 22
31.3036012664
 13
149.6315543091
 23
31.3036012664
  0
SOLID
  8
0
 62
7
  6
CONTINUOUS
 10
149.5737418074
 20
31.1100184796
 11
149.6315543091
 21
31.3036012664
 12
149.9206168074
 22
31.2713369632
 13
149.9206168074
 23
31.2713369632
  0
SOLID
  8
0
 62
7
  6
CONTINUOUS
 10
154.4299918074
 20
31.2390741763
 11
154.7768668074
 21
31.271336924
 12
155.412804528
 22
31.271336924
 13
155.412804528
 23
31.271336924
  0
SOLID
  8
0
 62
7
  6
CONTINUOUS
 10
154.4299918074
 20
31.2390741763
 11
155.412804528
 21
31.271336924
 12
154.1987416972
 22
31.1745462761
 13
154.1987416972
 23
31.1745462761
  0
SOLID
  8
0
 62
7
  6
CONTINUOUS
 10
154.1987416972
 20
31.1745462761
 11
155.412804528
 21
31.271336924
 12
154.7768668074
 22
31.1422827436
 13
154.7768668074
 23
31.1422827436
  0
SOLID
  8
0
 62
7
  6
CONTINUOUS
 10
155.412804528
 20
31.271336924
 11
155.412804528
 21
31.1422827436
 12
154.7768668074
 22
31.1422827436
 13
154.7768668074
 23
31.1422827436
  0
SOLID
  8
0
 62
7
  6
CONTINUOUS
 10
159.228429528
 20
31.2390745501
 11
159.401867028
 21
31.3681283566
 12
159.4596793074
 22
31.3036012664
 13
159.4596793074
 23
31.3036012664
  0
SOLID
  8
0
 62
7
  6
CONTINUOUS
 10
159.4596793074
 20
31.3036012664
 11
159.6331168074
 21
31.2390745501
 12
159.228429528
 22
31.2390745501
 13
159.228429528
 23
31.2390745501
  0
SOLID
  8
0
 62
7
  6
CONTINUOUS
 10
159.4596793074
 20
31.1422827828
 11
159.228429528
 21
31.2390745501
 12
159.6331168074
 22
31.2390745501
 13
159.6331168074
 23
31.2390745501
  0
SOLID
  8
0
 62
7
  6
CONTINUOUS
 10
159.6331168074
 20
31.2390745501
 11
160.615929528
 21
31.0777556927
 12
159.4596793074
 22
31.1422827828
 13
159.4596793074
 23
31.1422827828
  0
SOLID
  8
0
 62
7
  6
CONTINUOUS
 10
160.442492028
 20
30.9809646623
 11
159.4596793074
 21
31.1422827828
 12
160.615929528
 22
31.0777556927
 13
160.615929528
 23
31.0777556927
  0
SOLID
  8
0
 62
7
  6
CONTINUOUS
 10
160.615929528
 20
31.0777556927
 11
160.8471793074
 21
30.9809646623
 12
160.442492028
 22
30.9809646623
 13
160.442492028
 23
30.9809646623
  0
SOLID
  8
0
 62
7
  6
CONTINUOUS
 10
160.615929528
 20
30.9164372091
 11
160.442492028
 21
30.9809646623
 12
160.8471793074
 22
30.9809646623
 13
160.8471793074
 23
30.9809646623
  0
SOLID
  8
0
 62
7
  6
CONTINUOUS
 10
160.615929528
 20
30.9164372091
 11
160.8471793074
 21
30.9809646623
 12
160.6737418074
 22
30.8519089441
 13
160.6737418074
 23
30.8519089441
  0
SOLID
  8
0
 62
7
  6
CONTINUOUS
 10
160.8471793074
 20
30.9809646623
 11
160.9628038663
 21
30.8519089441
 12
160.6737418074
 22
30.8519089441
 13
160.6737418074
 23
30.8519089441
  0
SOLID
  8
0
 62
7
  6
CONTINUOUS
 10
160.615929528
 20
30.7873818593
 11
160.6737418074
 21
30.8519089441
 12
160.9628038663
 22
30.8519089441
 13
160.9628038663
 23
30.8519089441
  0
SOLID
  8
0
 62
7
  6
CONTINUOUS
 10
160.9628038663
 20
30.8519089441
 11
160.9628038663
 21
30.7873818593
 12
160.615929528
 22
30.7873818593
 13
160.615929528
 23
30.7873818593
  0
SOLID
  8
0
 62
7
  6
CONTINUOUS
 10
160.5003043074
 20
30.7551187255
 11
160.615929528
 21
30.7873818593
 12
160.9628038663
 22
30.7873818593
 13
160.9628038663
 23
30.7873818593
  0
SOLID
  8
0
 62
7
  6
CONTINUOUS
 10
160.5003043074
 20
30.7551187255
 11
160.9628038663
 21
30.7873818593
 12
160.269054528
 22
30.7228547745
 13
160.269054528
 23
30.7228547745
  0
SOLID
  8
0
 62
7
  6
CONTINUOUS
 10
160.9628038663
 20
30.7873818593
 11
160.8471793074
 21
30.6905916353
 12
160.269054528
 22
30.7228547745
 13
160.269054528
 23
30.7228547745
  0
SOLID
  8
0
 62
7
  6
CONTINUOUS
 10
160.8471793074
 20
30.6905916353
 11
159.401867028
 21
30.658327332
 12
160.269054528
 22
30.7228547745
 13
160.269054528
 23
30.7228547745
  0
SOLID
  8
0
 62
7
  6
CONTINUOUS
 10
160.269054528
 20
30.7228547745
 11
159.401867028
 21
30.658327332
 12
159.922179528
 22
30.7228547745
 13
159.922179528
 23
30.7228547745
  0
SOLID
  8
0
 62
7
  6
CONTINUOUS
 10
159.401867028
 20
30.658327332
 11
159.228429528
 21
30.7228547745
 12
159.922179528
 22
30.7228547745
 13
159.922179528
 23
30.7228547745
  0
SOLID
  8
0
 62
7
  6
CONTINUOUS
 10
159.401867028
 20
30.658327332
 11
160.8471793074
 21
30.6905916353
 12
159.575304528
 22
30.6260629858
 13
159.575304528
 23
30.6260629858
  0
SOLID
  8
0
 62
7
  6
CONTINUOUS
 10
160.8471793074
 20
30.6905916353
 11
160.615929528
 21
30.6260629858
 12
159.575304528
 22
30.6260629858
 13
159.575304528
 23
30.6260629858
  0
SOLID
  8
0
 62
7
  6
CONTINUOUS
 10
159.922179528
 20
30.5938006049
 11
159.575304528
 21
30.6260629858
 12
160.615929528
 22
30.6260629858
 13
160.615929528
 23
30.6260629858
  0
SOLID
  8
0
 62
7
  6
CONTINUOUS
 10
160.615929528
 20
30.6260629858
 11
160.269054528
 21
30.5938006049
 12
159.922179528
 22
30.5938006049
 13
159.922179528
 23
30.5938006049
  0
SOLID
  8
0
 62
7
  6
CONTINUOUS
 10
149.5737418074
 20
31.1100184796
 11
149.9206168074
 21
31.2713369632
 12
149.8628043005
 22
31.1422827828
 13
149.8628043005
 23
31.1422827828
  0
SOLID
  8
0
 62
7
  6
CONTINUOUS
 10
149.8628043005
 20
31.1422827828
 11
149.8628043005
 21
31.0454914852
 12
149.5737418074
 22
31.1100184796
 13
149.5737418074
 23
31.1100184796
  0
SOLID
  8
0
 62
7
  6
CONTINUOUS
 10
149.6315543091
 20
30.9164372091
 11
149.5737418074
 21
31.1100184796
 12
149.8628043005
 22
31.0454914852
 13
149.8628043005
 23
31.0454914852
  0
SOLID
  8
0
 62
7
  6
CONTINUOUS
 10
149.8628043005
 20
31.0454914852
 11
149.9784292936
 21
30.8841729058
 12
149.6315543091
 22
30.9164372091
 13
149.6315543091
 23
30.9164372091
  0
SOLID
  8
0
 62
7
  6
CONTINUOUS
 10
149.7471793074
 20
30.7873813202
 11
149.6315543091
 21
30.9164372091
 12
149.9784292936
 22
30.8841729058
 13
149.9784292936
 23
30.8841729058
  0
SOLID
  8
0
 62
7
  6
CONTINUOUS
 10
149.9784292936
 20
30.8841729058
 11
150.1518667936
 21
30.7873813202
 12
149.7471793074
 22
30.7873813202
 13
149.7471793074
 23
30.7873813202
  0
SOLID
  8
0
 62
7
  6
CONTINUOUS
 10
149.8628043005
 20
30.7228547004
 11
149.7471793074
 21
30.7873813202
 12
150.1518667936
 22
30.7873813202
 13
150.1518667936
 23
30.7873813202
  0
SOLID
  8
0
 62
7
  6
CONTINUOUS
 10
150.1518667936
 20
30.7873813202
 11
150.498741835
 21
30.7228547004
 12
149.8628043005
 22
30.7228547004
 13
149.8628043005
 23
30.7228547004
  0
SOLID
  8
0
 62
7
  6
CONTINUOUS
 10
150.0362418212
 20
30.658327332
 11
149.8628043005
 21
30.7228547004
 12
150.498741835
 22
30.7228547004
 13
150.498741835
 23
30.7228547004
  0
SOLID
  8
0
 62
7
  6
CONTINUOUS
 10
154.0831168074
 20
31.1100184386
 11
154.1987416972
 21
31.1745462761
 12
154.7768668074
 22
31.1422827828
 13
154.7768668074
 23
31.1422827828
  0
SOLID
  8
0
 62
7
  6
CONTINUOUS
 10
154.7768668074
 20
31.1422827828
 11
154.5456166972
 21
31.1100184386
 12
154.0831168074
 22
31.1100184386
 13
154.0831168074
 23
31.1100184386
  0
SOLID
  8
0
 62
7
  6
CONTINUOUS
 10
153.9674919177
 20
30.9809642992
 11
154.0831168074
 21
31.1100184386
 12
154.5456166972
 22
31.1100184386
 13
154.5456166972
 23
31.1100184386
  0
SOLID
  8
0
 62
7
  6
CONTINUOUS
 10
154.3143669177
 20
31.0132277988
 11
153.9674919177
 21
30.9809642992
 12
154.4299918074
 22
31.0777556927
 13
154.4299918074
 23
31.0777556927
  0
SOLID
  8
0
 62
7
  6
CONTINUOUS
 10
153.9674919177
 20
30.9809642992
 11
154.5456166972
 21
31.1100184796
 12
154.4299918074
 22
31.0777556927
 13
154.4299918074
 23
31.0777556927
  0
SOLID
  8
0
 62
7
  6
CONTINUOUS
 10
154.3143669177
 20
31.0132277988
 11
154.2565543074
 21
30.9164372091
 12
153.9674919177
 22
30.9809642992
 13
153.9674919177
 23
30.9809642992
  0
SOLID
  8
0
 62
7
  6
CONTINUOUS
 10
153.9674919177
 20
30.8841729058
 11
153.9674919177
 21
30.9809642992
 12
154.2565543074
 22
30.9164372091
 13
154.2565543074
 23
30.9164372091
  0
SOLID
  8
0
 62
7
  6
CONTINUOUS
 10
154.2565543074
 20
30.9164372091
 11
154.2565543074
 21
30.8519086025
 12
153.9674919177
 22
30.8841729058
 13
153.9674919177
 23
30.8841729058
  0
SOLID
  8
0
 62
7
  6
CONTINUOUS
 10
154.0253041972
 20
30.7551187255
 11
153.9674919177
 21
30.8841729058
 12
154.2565543074
 22
30.8519086025
 13
154.2565543074
 23
30.8519086025
  0
SOLID
  8
0
 62
7
  6
CONTINUOUS
 10
155.412804528
 20
30.9487004259
 11
155.7018665869
 21
30.8519086025
 12
155.3549915869
 22
30.8841729058
 13
155.3549915869
 23
30.8841729058
  0
SOLID
  8
0
 62
7
  6
CONTINUOUS
 10
155.1815540869
 20
30.7873815123
 11
155.3549915869
 21
30.8841729058
 12
155.7018665869
 22
30.8519086025
 13
155.7018665869
 23
30.8519086025
  0
SOLID
  8
0
 62
7
  6
CONTINUOUS
 10
155.1815540869
 20
30.7873815123
 11
155.7018665869
 21
30.8519086025
 12
155.412804528
 22
30.7551187255
 13
155.412804528
 23
30.7551187255
  0
SOLID
  8
0
 62
7
  6
CONTINUOUS
 10
155.7018665869
 20
30.8519086025
 11
155.759679528
 21
30.6905916353
 12
155.412804528
 22
30.7551187255
 13
155.412804528
 23
30.7551187255
  0
SOLID
  8
0
 62
7
  6
CONTINUOUS
 10
155.4706168074
 20
30.658327332
 11
155.412804528
 21
30.7551187255
 12
155.759679528
 22
30.6905916353
 13
155.759679528
 23
30.6905916353
  0
SOLID
  8
0
 62
7
  6
CONTINUOUS
 10
155.4706168074
 20
30.658327332
 11
155.759679528
 21
30.6905916353
 12
155.5284290869
 22
30.5938002079
 13
155.5284290869
 23
30.5938002079
  0
SOLID
  8
0
 62
7
  6
CONTINUOUS
 10
155.759679528
 20
30.6905916353
 11
155.8174918074
 21
30.5938002079
 12
155.5284290869
 22
30.5938002079
 13
155.5284290869
 23
30.5938002079
  0
SOLID
  8
0
 62
7
  6
CONTINUOUS
 10
151.0768668626
 20
30.8196456577
 11
151.1346793074
 21
30.9164373395
 12
151.4237418626
 22
30.9164373395
 13
151.4237418626
 23
30.9164373395
  0
SOLID
  8
0
 62
7
  6
CONTINUOUS
 10
151.4237418626
 20
30.9164373395
 11
151.3659292523
 21
30.7873815123
 12
151.0768668626
 22
30.8196456577
 13
151.0768668626
 23
30.8196456577
  0
SOLID
  8
0
 62
7
  6
CONTINUOUS
 10
150.9034292799
 20
30.7551187255
 11
151.0768668626
 21
30.8196456577
 12
151.3659292523
 22
30.7873815123
 13
151.3659292523
 23
30.7873815123
  0
SOLID
  8
0
 62
7
  6
CONTINUOUS
 10
150.9034292799
 20
30.7551187255
 11
151.3659292523
 21
30.7873815123
 12
150.498741835
 22
30.7228544222
 13
150.498741835
 23
30.7228544222
  0
SOLID
  8
0
 62
7
  6
CONTINUOUS
 10
151.3659292523
 20
30.7873815123
 11
151.1924917523
 21
30.6905916353
 12
150.498741835
 22
30.7228544222
 13
150.498741835
 23
30.7228544222
  0
SOLID
  8
0
 62
7
  6
CONTINUOUS
 10
150.0362418212
 20
30.658327332
 11
150.498741835
 21
30.7228544222
 12
151.1924917523
 22
30.6905916353
 13
151.1924917523
 23
30.6905916353
  0
SOLID
  8
0
 62
7
  6
CONTINUOUS
 10
150.0362418212
 20
30.658327332
 11
151.1924917523
 21
30.6905916353
 12
150.2096793212
 22
30.6260631011
 13
150.2096793212
 23
30.6260631011
  0
SOLID
  8
0
 62
7
  6
CONTINUOUS
 10
151.1924917523
 20
30.6905916353
 11
150.9612418074
 21
30.6260631011
 12
150.2096793212
 22
30.6260631011
 13
150.2096793212
 23
30.6260631011
  0
SOLID
  8
0
 62
7
  6
CONTINUOUS
 10
150.5565542799
 20
30.5938002419
 11
150.2096793212
 21
30.6260631011
 12
150.9612418074
 22
30.6260631011
 13
150.9612418074
 23
30.6260631011
  0
SOLID
  8
0
 62
7
  6
CONTINUOUS
 10
154.0253041972
 20
30.7551187255
 11
154.2565543074
 21
30.8519086025
 12
154.3143669177
 22
30.7873815123
 13
154.3143669177
 23
30.7873815123
  0
SOLID
  8
0
 62
7
  6
CONTINUOUS
 10
154.3143669177
 20
30.7873815123
 11
154.5456166972
 21
30.7228544222
 12
154.0253041972
 22
30.7551187255
 13
154.0253041972
 23
30.7551187255
  0
SOLID
  8
0
 62
7
  6
CONTINUOUS
 10
154.1987416972
 20
30.658327332
 11
154.0253041972
 21
30.7551187255
 12
154.5456166972
 22
30.7228544222
 13
154.5456166972
 23
30.7228544222
  0
SOLID
  8
0
 62
7
  6
CONTINUOUS
 10
154.8924916972
 20
30.7228544637
 11
155.1815540869
 21
30.7873815123
 12
155.412804528
 22
30.7551187255
 13
155.412804528
 23
30.7551187255
  0
SOLID
  8
0
 62
7
  6
CONTINUOUS
 10
155.412804528
 20
30.7551187255
 11
155.3549915869
 21
30.6905916353
 12
154.8924916972
 22
30.7228544637
 13
154.8924916972
 23
30.7228544637
  0
SOLID
  8
0
 62
7
  6
CONTINUOUS
 10
155.3549915869
 20
30.6905916353
 11
154.1987416972
 21
30.658327332
 12
154.8924916972
 22
30.7228544637
 13
154.8924916972
 23
30.7228544637
  0
SOLID
  8
0
 62
7
  6
CONTINUOUS
 10
154.1987416972
 20
30.658327332
 11
154.5456166972
 21
30.7228544637
 12
154.8924916972
 22
30.7228544637
 13
154.8924916972
 23
30.7228544637
  0
SOLID
  8
0
 62
7
  6
CONTINUOUS
 10
154.1987416972
 20
30.658327332
 11
155.3549915869
 21
30.6905916353
 12
154.3143669177
 22
30.6260630541
 13
154.3143669177
 23
30.6260630541
  0
SOLID
  8
0
 62
7
  6
CONTINUOUS
 10
155.3549915869
 20
30.6905916353
 11
155.1815540869
 21
30.6260630541
 12
154.3143669177
 22
30.6260630541
 13
154.3143669177
 23
30.6260630541
  0
SOLID
  8
0
 62
7
  6
CONTINUOUS
 10
154.5456166972
 20
30.5938002188
 11
154.3143669177
 21
30.6260630541
 12
155.1815540869
 22
30.6260630541
 13
155.1815540869
 23
30.6260630541
  0
SOLID
  8
0
 62
7
  6
CONTINUOUS
 10
155.1815540869
 20
30.6260630541
 11
154.8924916972
 21
30.5938002188
 12
154.5456166972
 22
30.5938002188
 13
154.5456166972
 23
30.5938002188
  0
SOLID
  8
0
 62
7
  6
CONTINUOUS
 10
159.575304528
 20
30.7551187255
 11
159.228429528
 21
30.7228544637
 12
159.4596793074
 22
30.7873815123
 13
159.4596793074
 23
30.7873815123
  0
SOLID
  8
0
 62
7
  6
CONTINUOUS
 10
159.4596793074
 20
30.7873815123
 11
159.228429528
 21
30.7228544637
 12
159.401867028
 22
30.851908644
 13
159.401867028
 23
30.851908644
  0
SOLID
  8
0
 62
7
  6
CONTINUOUS
 10
159.228429528
 20
30.7228544637
 11
159.1128043074
 21
30.851908644
 12
159.401867028
 22
30.851908644
 13
159.401867028
 23
30.851908644
  0
SOLID
  8
0
 62
7
  6
CONTINUOUS
 10
159.575304528
 20
30.7551187255
 11
159.922179528
 21
30.7228544637
 12
159.228429528
 22
30.7228544637
 13
159.228429528
 23
30.7228544637
  0
SOLID
  8
0
 62
7
  6
CONTINUOUS
 10
156.279992028
 20
30.5938002419
 11
156.279992028
 21
31.6262382337
 12
156.5690540869
 22
30.5938002419
 13
156.5690540869
 23
31.6262382337
  0
ENDBLK
  8
0
  6
BYBLOCK
 62
0
  0
BLOCK
  8
0
 62
2
  6
CONTINUOUS
  2
SYMBOL_3_BL0
 70
64
 10
32.1213064866
 20
19.8534310916
  0
TEXT
  8
0
 62
7
  6
CONTINUOUS
 10
18.3860103289
 20
19.2268451992
  7
TEXTSTYLE_3
 40
2.7338706658
  1
Ammeraal Beltech
 41
1.0
 51
15.0
 72
0
  0
TEXT
  8
0
 62
7
  6
CONTINUOUS
 10
29.1868111546
 20
16.9533085264
  7
TEXTSTYLE_4
 40
1.0935482663
  1
Innovation & Service in Belting
 41
1.0
 72
0
  0
LINE
  8
0
 62
7
  6
CONTINUOUS
 10
12.3614696776
 20
19.9934385078
 11
13.1396216709
 21
23.6543558055
  0
LINE
  8
0
 62
7
  6
CONTINUOUS
 10
23.2347899607
 20
27.3177497171
 11
13.6274394139
 21
24.1961322958
  0
LINE
  8
0
 62
7
  6
CONTINUOUS
 10
12.5867530099
 20
19.3000877048
 11
20.093828271
 21
12.5406867788
  0
LINE
  8
0
 62
7
  6
CONTINUOUS
 10
12.8492874206
 20
20.5352149982
 11
23.6575567857
 21
24.0470345971
  0
LINE
  8
0
 62
7
  6
CONTINUOUS
 10
23.6533516486
 20
13.6972460334
 11
15.2078919798
 21
21.3015720751
  0
LINE
  8
0
 62
7
  6
CONTINUOUS
 10
24.1731743684
 20
26.4728246013
 11
23.1966148312
 21
21.8784731989
  0
LINE
  8
0
 62
7
  6
CONTINUOUS
 10
22.4968128835
 20
18.5861638851
 11
21.810364672
 21
15.3566789607
  0
LINE
  8
0
 62
7
  6
CONTINUOUS
 10
24.8542704669
 20
14.087448211
 11
25.8105020025
 21
18.5861638851
  0
LINE
  8
0
 62
7
  6
CONTINUOUS
 10
26.5103039502
 20
21.8784731989
 11
26.9545457526
 21
23.9684665583
  0
LINE
  8
0
 62
7
  6
CONTINUOUS
 10
20.8069293463
 20
12.3891124661
 11
24.3664527239
 21
13.5456717207
  0
LINE
  8
0
 62
7
  6
CONTINUOUS
 10
23.9478910361
 20
27.1661754044
 11
26.7292624203
 21
24.6618173613
  0
ARC
  8
0
 62
7
  6
CONTINUOUS
 10
13.8527227462
 20
23.5027814928
 40
0.7290321776
 50
108.0
 51
168.0
  0
ARC
  8
0
 62
7
  6
CONTINUOUS
 10
23.4600732931
 20
26.624398914
 40
0.7290321776
 50
348.0
 51
108.0
  0
ARC
  8
0
 62
7
  6
CONTINUOUS
 10
26.2414446773
 20
24.120040871
 40
0.7290321776
 50
348.0
 51
48.0
  0
ARC
  8
0
 62
7
  6
CONTINUOUS
 10
20.581646014
 20
13.0824632691
 40
0.7290321776
 50
228.0
 51
288.0
  0
ARC
  8
0
 62
7
  6
CONTINUOUS
 10
13.0745707529
 20
19.8418641951
 40
0.7290321776
 50
108.0
 51
228.0
  0
ARC
  8
0
 62
7
  6
CONTINUOUS
 10
24.1411693916
 20
14.2390225237
 40
0.7290321776
 50
228.0
 51
348.0
  0
ENDBLK
  8
0
  6
BYBLOCK
 62
0
  0
ENDSEC
  0
SECTION
  2
ENTITIES
  0
TEXT
  8
0
 62
5
  6
CONTINUOUS
 10
96.0
 20
25.636
  7
TEXTSTYLE_2
 40
2.8
  1
Scale :
 41
0.6
 51
0.000019
 72
0
  0
TEXT
  8
0
 62
5
  6
CONTINUOUS
 10
116.0
 20
25.636
  7
TEXTSTYLE_2
 40
2.8
  1
Belt type:
 41
0.6
 51
0.000019
 72
0
  0
INSERT
  8
0
 62
2
  6
CONTINUOUS
  2
SYMBOL_3_BL0
 10
32.1213064866
 20
19.8534310916
  0
INSERT
  8
0
 62
2
  6
CONTINUOUS
  2
SYMBOL_8_BL1
 10
173.5956734183
 20
35.5937998301
  0
LINE
  8
0
 62
2
  6
CONTINUOUS
 10
10.0
 20
30.0
 11
200.0
 21
30.0
  0
LINE
  8
0
 62
2
  6
CONTINUOUS
 10
10.0
 20
30.0
 11
10.0
 21
10.0
  0
LINE
  8
0
 62
2
  6
CONTINUOUS
 10
10.0
 20
10.0
 11
200.0
 21
10.0
  0
LINE
  8
0
 62
2
  6
CONTINUOUS
 10
95.0
 20
30.0
 11
95.0
 21
10.0
  0
LINE
  8
0
 62
2
  6
CONTINUOUS
 10
115.0
 20
30.0
 11
115.0
 21
10.0
  0
LINE
  8
0
 62
2
  6
CONTINUOUS
 10
200.0
 20
30.0
 11
200.0
 21
10.0
  0
TEXT
  8
0
 62
5
  6
CONTINUOUS
 10
13.0
 20
23.303
  7
TEXTSTYLE_5
 40
1.52
  1
                                                                     Ammeraal Beltech Modular A/S
 41
1.0
 72
0
  0
TEXT
  8
0
 62
5
  6
CONTINUOUS
 10
13.0
 20
20.595
  7
TEXTSTYLE_5
 40
1.5
  1
                                                                      Hjulmagervej 21,  7100 Vejle,  DK
 41
1.0
 72
0
  0
TEXT
  8
0
 62
5
  6
CONTINUOUS
 10
13.0
 20
17.881
  7
TEXTSTYLE_5
 40
1.495
  1
                                                                      tel: 
 41
1.0
 72
0
  0
TEXT
  8
0
 62
5
  6
CONTINUOUS
 10
57.9869465649
 20
17.881
  7
TEXTSTYLE_5
 40
1.51
  1
+45 75723100     fax: +45 75723348
 41
1.0
 72
0
  0
TEXT
  8
0
 62
5
  6
CONTINUOUS
 10
13.0
 20
15.177
  7
TEXTSTYLE_5
 40
1.5
  1
                                                                      admin@unichains.dk  www.unichains.com
 41
1.0
 72
0
  0
TEXT
  8
0
 62
5
  6
CONTINUOUS
 10
99.75
 20
13.75
  7
TEXTSTYLE_6
 40
5.0
  1
1:1
 41
0.7
 72
1
 11
105.0
 21
13.75
  0
TEXT
  8
0
 62
5
  6
CONTINUOUS
 10
118.0
 20
13.75
  7
TEXTSTYLE_7
 40
7.5
  1
uni SNB M2 34% TAB K450
 41
0.4104619565
 72
0
  0
LINE
  8
0
 62
7
  6
CONTINUOUS
 10
210.0
 20
0.0
 11
0.0
 21
0.0
  0
LINE
  8
0
 62
7
  6
CONTINUOUS
 10
10.0
 20
10.0
 11
200.0
 21
10.0
  0
LINE
  8
0
 62
7
  6
CONTINUOUS
 10
10.0
 20
30.0
 11
200.0
 21
30.0
  0
LINE
  8
0
 62
7
  6
CONTINUOUS
 10
0.0
 20
0.0
 11
0.0
 21
297.0
  0
LINE
  8
0
 62
7
  6
CONTINUOUS
 10
10.0
 20
10.0
 11
10.0
 21
287.0
  0
LINE
  8
0
 62
7
  6
CONTINUOUS
 10
200.0
 20
287.0
 11
200.0
 21
10.0
  0
LINE
  8
0
 62
7
  6
CONTINUOUS
 10
210.0
 20
0.0
 11
210.0
 21
297.0
  0
LINE
  8
0
 62
7
  6
CONTINUOUS
 10
10.0
 20
287.0
 11
200.0
 21
287.0
  0
LINE
  8
0
 62
7
  6
CONTINUOUS
 10
0.0
 20
297.0
 11
210.0
 21
297.0
  0
LINE
  8
CURVE
 62
7
  6
CONTINUOUS
 10
23.8266056021
 20
208.9813099649
 11
23.8266056021
 21
201.8813099649
  0
LINE
  8
CURVE
 62
7
  6
CONTINUOUS
 10
31.236605797
 20
205.0313132232
 11
31.236605797
 21
205.8313067067
  0
LINE
  8
CURVE
 62
7
  6
CONTINUOUS
 10
31.9366056021
 20
201.8813099649
 11
31.9366056021
 21
208.9813099649
  0
LINE
  8
0
 62
7
  6
CONTINUOUS
 10
35.9166056021
 20
201.8813099649
 11
35.9166056021
 21
208.9813099649
  0
LINE
  8
0
 62
7
  6
CONTINUOUS
 10
39.5266056021
 20
208.9813099649
 11
39.5266056021
 21
201.8813099649
  0
LINE
  8
CURVE
 62
7
  6
CONTINUOUS
 10
46.2266056021
 20
208.9813099649
 11
46.2266056021
 21
201.8813099649
  0
LINE
  8
CURVE
 62
7
  6
CONTINUOUS
 10
52.2266056021
 20
201.8813099649
 11
52.2266056021
 21
208.9813099649
  0
LINE
  8
CURVE
 62
7
  6
CONTINUOUS
 10
58.9266056021
 20
208.9813099649
 11
58.9266056021
 21
201.8813099649
  0
LINE
  8
CURVE
 62
7
  6
CONTINUOUS
 10
59.6266056021
 20
201.1209116395
 11
59.6266056021
 21
194.5313099649
  0
LINE
  8
CURVE
 62
7
  6
CONTINUOUS
 10
59.6125633284
 20
200.8365416705
 11
59.6166626904
 21
200.8204728727
  0
LINE
  8
CURVE
 62
7
  6
CONTINUOUS
 10
64.2266056021
 20
201.1209116395
 11
64.2266056021
 21
194.5313099649
  0
LINE
  8
CURVE
 62
7
  6
CONTINUOUS
 10
64.9266056021
 20
201.8813099649
 11
64.9266056021
 21
208.9813099649
  0
LINE
  8
CURVE
 62
7
  6
CONTINUOUS
 10
64.2365466972
 20
200.8204806225
 11
64.2405727523
 21
200.8363075414
  0
POLYLINE
  8
CURVE
 62
7
  6
CONTINUOUS
 66
1
 70
0
  0
VERTEX
  8
CURVE
 62
7
  6
CONTINUOUS
 10
64.2405727523
 20
200.8363075414
  0
VERTEX
  8
CURVE
 62
7
  6
CONTINUOUS
 10
64.2534047405
 20
200.8693223923
  0
VERTEX
  8
CURVE
 62
7
  6
CONTINUOUS
 10
64.2698400951
 20
200.900042889
  0
VERTEX
  8
CURVE
 62
7
  6
CONTINUOUS
 10
64.2892291626
 20
200.9278053152
  0
VERTEX
  8
CURVE
 62
7
  6
CONTINUOUS
 10
64.3107617595
 20
200.9521239588
  0
VERTEX
  8
CURVE
 62
7
  6
CONTINUOUS
 10
64.3335827884
 20
200.9727689066
  0
VERTEX
  8
CURVE
 62
7
  6
CONTINUOUS
 10
64.3569966384
 20
200.9898211365
  0
VERTEX
  8
CURVE
 62
7
  6
CONTINUOUS
 10
64.3803788439
 20
201.003467841
  0
VERTEX
  8
CURVE
 62
7
  6
CONTINUOUS
 10
64.4031457702
 20
201.0139573577
  0
VERTEX
  8
CURVE
 62
7
  6
CONTINUOUS
 10
64.4247562759
 20
201.0215932003
  0
VERTEX
  8
CURVE
 62
7
  6
CONTINUOUS
 10
64.4447786884
 20
201.0267415353
  0
VERTEX
  8
CURVE
 62
7
  6
CONTINUOUS
 10
64.4627903999
 20
201.0297843756
  0
VERTEX
  8
CURVE
 62
7
  6
CONTINUOUS
 10
64.4783978385
 20
201.0311323928
  0
VERTEX
  8
CURVE
 62
7
  6
CONTINUOUS
 10
64.4861164461
 20
201.0313099651
  0
SEQEND
  0
LINE
  8
CURVE
 62
7
  6
CONTINUOUS
 10
71.6266056021
 20
208.9813099649
 11
71.6266056021
 21
201.8813099649
  0
LINE
  8
CURVE
 62
7
  6
CONTINUOUS
 10
77.6266056021
 20
201.8813099649
 11
77.6266056021
 21
208.9813099649
  0
LINE
  8
CURVE
 62
7
  6
CONTINUOUS
 10
78.3266054071
 20
205.0313132232
 11
78.3266054071
 21
205.8313067067
  0
LINE
  8
DEFAULT_1
 62
2
  6
CENTER
 10
80.9766056021
 20
191.5313095803
 11
80.9766056021
 21
212.6813107697
  0
POLYLINE
  8
CURVE
 62
7
  6
CONTINUOUS
 66
1
 70
0
  0
VERTEX
  8
CURVE
 62
7
  6
CONTINUOUS
 10
63.4875478525
 20
209.7569536834
  0
VERTEX
  8
CURVE
 62
7
  6
CONTINUOUS
 10
63.3010247134
 20
209.703453081
  0
VERTEX
  8
CURVE
 62
7
  6
CONTINUOUS
 10
63.243830281
 20
209.6874483666
  0
VERTEX
  8
CURVE
 62
7
  6
CONTINUOUS
 10
63.1818181016
 20
209.6705995277
  0
VERTEX
  8
CURVE
 62
7
  6
CONTINUOUS
 10
63.114825185
 20
209.653122769
  0
VERTEX
  8
CURVE
 62
7
  6
CONTINUOUS
 10
63.0419304327
 20
209.6351018733
  0
VERTEX
  8
CURVE
 62
7
  6
CONTINUOUS
 10
62.9612967041
 20
209.6165279281
  0
VERTEX
  8
CURVE
 62
7
  6
CONTINUOUS
 10
62.8707747473
 20
209.5975510104
  0
VERTEX
  8
CURVE
 62
7
  6
CONTINUOUS
 10
62.7703306072
 20
209.5790126483
  0
VERTEX
  8
CURVE
 62
7
  6
CONTINUOUS
 10
62.6706004315
 20
209.5634111671
  0
VERTEX
  8
CURVE
 62
7
  6
CONTINUOUS
 10
62.5743098592
 20
209.5511465555
  0
VERTEX
  8
CURVE
 62
7
  6
CONTINUOUS
 10
62.480809445
 20
209.5419776087
  0
VERTEX
  8
CURVE
 62
7
  6
CONTINUOUS
 10
62.3891936575
 20
209.5356908464
  0
VERTEX
  8
CURVE
 62
7
  6
CONTINUOUS
 10
62.2984333034
 20
209.5321490426
  0
VERTEX
  8
CURVE
 62
7
  6
CONTINUOUS
 10
62.2250646077
 20
209.5312620514
  0
SEQEND
  0
LINE
  8
0
 62
7
  6
CONTINUOUS
 10
83.626605797
 20
205.0313132232
 11
83.626605797
 21
205.8313067067
  0
LINE
  8
0
 62
7
  6
CONTINUOUS
 10
84.3266056021
 20
208.9813099649
 11
84.3266056021
 21
201.8813099649
  0
POLYLINE
  8
CURVE
 62
7
  6
CONTINUOUS
 66
1
 70
0
  0
VERTEX
  8
CURVE
 62
7
  6
CONTINUOUS
 10
50.7187768744
 20
201.0828849333
  0
VERTEX
  8
CURVE
 62
7
  6
CONTINUOUS
 10
50.7566628854
 20
201.0739980802
  0
VERTEX
  8
CURVE
 62
7
  6
CONTINUOUS
 10
50.7917224747
 20
201.0660577392
  0
VERTEX
  8
CURVE
 62
7
  6
CONTINUOUS
 10
50.8246027388
 20
201.0589799984
  0
VERTEX
  8
CURVE
 62
7
  6
CONTINUOUS
 10
50.8561734879
 20
201.0526426412
  0
VERTEX
  8
CURVE
 62
7
  6
CONTINUOUS
 10
50.8871139814
 20
201.0469985635
  0
VERTEX
  8
CURVE
 62
7
  6
CONTINUOUS
 10
50.9179653364
 20
201.0420578328
  0
VERTEX
  8
CURVE
 62
7
  6
CONTINUOUS
 10
50.9494294801
 20
201.0378564307
  0
VERTEX
  8
CURVE
 62
7
  6
CONTINUOUS
 10
50.9816801399
 20
201.0345509083
  0
VERTEX
  8
CURVE
 62
7
  6
CONTINUOUS
 10
51.0148074032
 20
201.0323165578
  0
VERTEX
  8
CURVE
 62
7
  6
CONTINUOUS
 10
51.0486596866
 20
201.0313401559
  0
VERTEX
  8
CURVE
 62
7
  6
CONTINUOUS
 10
51.055526049
 20
201.0313101469
  0
SEQEND
  0
LINE
  8
CURVE
 62
7
  6
CONTINUOUS
 10
50.5294298759
 20
201.1283981415
 11
50.7187768744
 21
201.0828849333
  0
LINE
  8
0
 62
7
  6
CONTINUOUS
 10
90.3266056021
 20
208.9813099649
 11
90.3266056021
 21
201.8813099649
  0
POLYLINE
  8
0
 62
7
  6
CONTINUOUS
 66
1
 70
0
  0
VERTEX
  8
0
 62
7
  6
CONTINUOUS
 10
101.5891395549
 20
209.7574049978
  0
VERTEX
  8
0
 62
7
  6
CONTINUOUS
 10
101.4029749054
 20
209.7040052379
  0
VERTEX
  8
0
 62
7
  6
CONTINUOUS
 10
101.3458840306
 20
209.6880160295
  0
VERTEX
  8
0
 62
7
  6
CONTINUOUS
 10
101.2839775948
 20
209.6711761506
  0
VERTEX
  8
0
 62
7
  6
CONTINUOUS
 10
101.217085941
 20
209.6536988914
  0
VERTEX
  8
0
 62
7
  6
CONTINUOUS
 10
101.1443103397
 20
209.635672435
  0
VERTEX
  8
0
 62
7
  6
CONTINUOUS
 10
101.0638358562
 20
209.617089653
  0
VERTEX
  8
0
 62
7
  6
CONTINUOUS
 10
100.9735293184
 20
209.5980976715
  0
VERTEX
  8
0
 62
7
  6
CONTINUOUS
 10
100.8730826837
 20
209.5794836522
  0
VERTEX
  8
0
 62
7
  6
CONTINUOUS
 10
100.7729125895
 20
209.5637400298
  0
VERTEX
  8
0
 62
7
  6
CONTINUOUS
 10
100.6763795815
 20
209.5513804167
  0
VERTEX
  8
0
 62
7
  6
CONTINUOUS
 10
100.5827703585
 20
209.542141564
  0
VERTEX
  8
0
 62
7
  6
CONTINUOUS
 10
100.49108485
 20
209.5357931526
  0
VERTEX
  8
0
 62
7
  6
CONTINUOUS
 10
100.4001935218
 20
209.5321920118
  0
VERTEX
  8
0
 62
7
  6
CONTINUOUS
 10
100.3250646033
 20
209.5312619546
  0
SEQEND
  0
LINE
  8
CURVE
 62
7
  6
CONTINUOUS
 10
63.2266056021
 20
193.5313099649
 11
60.6266056021
 21
193.5313099649
  0
LINE
  8
0
 62
7
  6
CONTINUOUS
 10
98.7266056021
 20
193.5313099649
 11
101.3266056021
 21
193.5313099649
  0
LINE
  8
CURVE
 62
7
  6
CONTINUOUS
 10
23.9711724156
 20
201.4071116737
 11
28.2666056021
 21
201.0313099649
  0
POLYLINE
  8
CURVE
 62
7
  6
CONTINUOUS
 66
1
 70
0
  0
VERTEX
  8
CURVE
 62
7
  6
CONTINUOUS
 10
76.1187768744
 20
201.0828849333
  0
VERTEX
  8
CURVE
 62
7
  6
CONTINUOUS
 10
76.1566628854
 20
201.0739980802
  0
VERTEX
  8
CURVE
 62
7
  6
CONTINUOUS
 10
76.1917224747
 20
201.0660577392
  0
VERTEX
  8
CURVE
 62
7
  6
CONTINUOUS
 10
76.2246027388
 20
201.0589799984
  0
VERTEX
  8
CURVE
 62
7
  6
CONTINUOUS
 10
76.2561734879
 20
201.0526426412
  0
VERTEX
  8
CURVE
 62
7
  6
CONTINUOUS
 10
76.2871139814
 20
201.0469985635
  0
VERTEX
  8
CURVE
 62
7
  6
CONTINUOUS
 10
76.3179653364
 20
201.0420578328
  0
VERTEX
  8
CURVE
 62
7
  6
CONTINUOUS
 10
76.3494294801
 20
201.0378564307
  0
VERTEX
  8
CURVE
 62
7
  6
CONTINUOUS
 10
76.3816801399
 20
201.0345509083
  0
VERTEX
  8
CURVE
 62
7
  6
CONTINUOUS
 10
76.4148074032
 20
201.0323165578
  0
VERTEX
  8
CURVE
 62
7
  6
CONTINUOUS
 10
76.4486596866
 20
201.0313401559
  0
VERTEX
  8
CURVE
 62
7
  6
CONTINUOUS
 10
76.455526049
 20
201.0313101469
  0
SEQEND
  0
LINE
  8
CURVE
 62
7
  6
CONTINUOUS
 10
75.9294298759
 20
201.1283981415
 11
76.1187768744
 21
201.0828849333
  0
LINE
  8
0
 62
7
  6
CONTINUOUS
 10
97.0266056021
 20
201.8813099649
 11
97.0266056021
 21
208.9813099649
  0
POLYLINE
  8
0
 62
7
  6
CONTINUOUS
 66
1
 70
0
  0
VERTEX
  8
0
 62
7
  6
CONTINUOUS
 10
111.2344343297
 20
201.0828849333
  0
VERTEX
  8
0
 62
7
  6
CONTINUOUS
 10
111.4237813282
 20
201.1283981415
  0
VERTEX
  8
0
 62
7
  6
CONTINUOUS
 10
111.4832000237
 20
201.142217473
  0
VERTEX
  8
0
 62
7
  6
CONTINUOUS
 10
111.5490098601
 20
201.1569550281
  0
VERTEX
  8
0
 62
7
  6
CONTINUOUS
 10
111.621917987
 20
201.1724375932
  0
VERTEX
  8
0
 62
7
  6
CONTINUOUS
 10
111.7016943866
 20
201.1882109649
  0
VERTEX
  8
0
 62
7
  6
CONTINUOUS
 10
111.7875815726
 20
201.2036786806
  0
VERTEX
  8
0
 62
7
  6
CONTINUOUS
 10
111.8785295156
 20
201.218202879
  0
VERTEX
  8
0
 62
7
  6
CONTINUOUS
 10
111.9732567593
 20
201.2311697531
  0
VERTEX
  8
0
 62
7
  6
CONTINUOUS
 10
112.0702375781
 20
201.2420453651
  0
VERTEX
  8
0
 62
7
  6
CONTINUOUS
 10
112.1677203837
 20
201.2504363431
  0
VERTEX
  8
0
 62
7
  6
CONTINUOUS
 10
112.2637323968
 20
201.256141196
  0
VERTEX
  8
0
 62
7
  6
CONTINUOUS
 10
112.3562135409
 20
201.2591904017
  0
VERTEX
  8
0
 62
7
  6
CONTINUOUS
 10
112.4262252787
 20
201.2598871378
  0
SEQEND
  0
LINE
  8
0
 62
7
  6
CONTINUOUS
 10
133.6866056021
 20
201.0313099649
 11
137.9820387885
 21
201.4071116737
  0
POLYLINE
  8
CURVE
 62
7
  6
CONTINUOUS
 66
1
 70
0
  0
VERTEX
  8
CURVE
 62
7
  6
CONTINUOUS
 10
72.7976968283
 20
201.0313101515
  0
VERTEX
  8
CURVE
 62
7
  6
CONTINUOUS
 10
72.8067910459
 20
201.0313623964
  0
VERTEX
  8
CURVE
 62
7
  6
CONTINUOUS
 10
72.840452497
 20
201.0324188856
  0
VERTEX
  8
CURVE
 62
7
  6
CONTINUOUS
 10
72.8733780448
 20
201.0347110439
  0
VERTEX
  8
CURVE
 62
7
  6
CONTINUOUS
 10
72.9054434612
 20
201.0380551634
  0
VERTEX
  8
CURVE
 62
7
  6
CONTINUOUS
 10
72.9367464488
 20
201.042280338
  0
VERTEX
  8
CURVE
 62
7
  6
CONTINUOUS
 10
72.9674789932
 20
201.04723688
  0
VERTEX
  8
CURVE
 62
7
  6
CONTINUOUS
 10
72.9983482699
 20
201.0528950218
  0
VERTEX
  8
CURVE
 62
7
  6
CONTINUOUS
 10
73.0298904644
 20
201.0592477256
  0
VERTEX
  8
CURVE
 62
7
  6
CONTINUOUS
 10
73.0627864547
 20
201.066345267
  0
VERTEX
  8
CURVE
 62
7
  6
CONTINUOUS
 10
73.0978965118
 20
201.0743096832
  0
VERTEX
  8
CURVE
 62
7
  6
CONTINUOUS
 10
73.1358574378
 20
201.0832231887
  0
SEQEND
  0
POLYLINE
  8
CURVE
 62
7
  6
CONTINUOUS
 66
1
 70
0
  0
VERTEX
  8
CURVE
 62
7
  6
CONTINUOUS
 10
47.3976968283
 20
201.0313101515
  0
VERTEX
  8
CURVE
 62
7
  6
CONTINUOUS
 10
47.4067910459
 20
201.0313623964
  0
VERTEX
  8
CURVE
 62
7
  6
CONTINUOUS
 10
47.440452497
 20
201.0324188856
  0
VERTEX
  8
CURVE
 62
7
  6
CONTINUOUS
 10
47.4733780448
 20
201.0347110439
  0
VERTEX
  8
CURVE
 62
7
  6
CONTINUOUS
 10
47.5054434612
 20
201.0380551634
  0
VERTEX
  8
CURVE
 62
7
  6
CONTINUOUS
 10
47.5367464488
 20
201.042280338
  0
VERTEX
  8
CURVE
 62
7
  6
CONTINUOUS
 10
47.5674789932
 20
201.04723688
  0
VERTEX
  8
CURVE
 62
7
  6
CONTINUOUS
 10
47.5983482699
 20
201.0528950218
  0
VERTEX
  8
CURVE
 62
7
  6
CONTINUOUS
 10
47.6298904644
 20
201.0592477256
  0
VERTEX
  8
CURVE
 62
7
  6
CONTINUOUS
 10
47.6627864547
 20
201.066345267
  0
VERTEX
  8
CURVE
 62
7
  6
CONTINUOUS
 10
47.6978965118
 20
201.0743096832
  0
VERTEX
  8
CURVE
 62
7
  6
CONTINUOUS
 10
47.7358574378
 20
201.0832231887
  0
SEQEND
  0
POLYLINE
  8
0
 62
7
  6
CONTINUOUS
 66
1
 70
0
  0
VERTEX
  8
0
 62
7
  6
CONTINUOUS
 10
110.8976851552
 20
201.0313101469
  0
VERTEX
  8
0
 62
7
  6
CONTINUOUS
 10
110.9045515175
 20
201.0313401559
  0
VERTEX
  8
0
 62
7
  6
CONTINUOUS
 10
110.9384038009
 20
201.0323165578
  0
VERTEX
  8
0
 62
7
  6
CONTINUOUS
 10
110.9715310642
 20
201.0345509083
  0
VERTEX
  8
0
 62
7
  6
CONTINUOUS
 10
111.003781724
 20
201.0378564307
  0
VERTEX
  8
0
 62
7
  6
CONTINUOUS
 10
111.0352458677
 20
201.0420578328
  0
VERTEX
  8
0
 62
7
  6
CONTINUOUS
 10
111.0660972227
 20
201.0469985635
  0
VERTEX
  8
0
 62
7
  6
CONTINUOUS
 10
111.0970377162
 20
201.0526426412
  0
VERTEX
  8
0
 62
7
  6
CONTINUOUS
 10
111.1286084653
 20
201.0589799984
  0
VERTEX
  8
0
 62
7
  6
CONTINUOUS
 10
111.1614887294
 20
201.0660577392
  0
VERTEX
  8
0
 62
7
  6
CONTINUOUS
 10
111.1965483188
 20
201.0739980802
  0
VERTEX
  8
0
 62
7
  6
CONTINUOUS
 10
111.2344343297
 20
201.0828849333
  0
SEQEND
  0
POLYLINE
  8
0
 62
7
  6
CONTINUOUS
 66
1
 70
0
  0
VERTEX
  8
0
 62
7
  6
CONTINUOUS
 10
85.4976851552
 20
201.0313101469
  0
VERTEX
  8
0
 62
7
  6
CONTINUOUS
 10
85.5045515175
 20
201.0313401559
  0
VERTEX
  8
0
 62
7
  6
CONTINUOUS
 10
85.5384038009
 20
201.0323165578
  0
VERTEX
  8
0
 62
7
  6
CONTINUOUS
 10
85.5715310642
 20
201.0345509083
  0
VERTEX
  8
0
 62
7
  6
CONTINUOUS
 10
85.603781724
 20
201.0378564307
  0
VERTEX
  8
0
 62
7
  6
CONTINUOUS
 10
85.6352458677
 20
201.0420578328
  0
VERTEX
  8
0
 62
7
  6
CONTINUOUS
 10
85.6660972227
 20
201.0469985635
  0
VERTEX
  8
0
 62
7
  6
CONTINUOUS
 10
85.6970377162
 20
201.0526426412
  0
VERTEX
  8
0
 62
7
  6
CONTINUOUS
 10
85.7286084653
 20
201.0589799984
  0
VERTEX
  8
0
 62
7
  6
CONTINUOUS
 10
85.7614887294
 20
201.0660577392
  0
VERTEX
  8
0
 62
7
  6
CONTINUOUS
 10
85.7965483188
 20
201.0739980802
  0
VERTEX
  8
0
 62
7
  6
CONTINUOUS
 10
85.8344343297
 20
201.0828849333
  0
SEQEND
  0
LINE
  8
CURVE
 62
7
  6
CONTINUOUS
 10
28.2666056021
 20
201.0313099649
 11
32.7866056021
 21
201.0313099649
  0
LINE
  8
0
 62
7
  6
CONTINUOUS
 10
32.7866056021
 20
201.0313099649
 11
38.6766056021
 21
201.0313099649
  0
LINE
  8
CURVE
 62
7
  6
CONTINUOUS
 10
35.9166056021
 20
201.0313099649
 11
36.7666056021
 21
201.0313099649
  0
LINE
  8
CURVE
 62
7
  6
CONTINUOUS
 10
38.6766056021
 20
201.0313099649
 11
59.3670925892
 21
201.0313099649
  0
LINE
  8
CURVE
 62
7
  6
CONTINUOUS
 10
64.4861186149
 20
201.0313099649
 11
81.2776830801
 21
201.0313099649
  0
LINE
  8
0
 62
7
  6
CONTINUOUS
 10
81.0725147232
 20
201.0313099649
 11
97.4670925893
 21
201.0313099649
  0
LINE
  8
0
 62
7
  6
CONTINUOUS
 10
102.5861186149
 20
201.0313099649
 11
133.6866056021
 21
201.0313099649
  0
LINE
  8
CURVE
 62
7
  6
CONTINUOUS
 10
72.7975679824
 20
201.0313100034
 11
72.7976968283
 21
201.0313100156
  0
LINE
  8
CURVE
 62
7
  6
CONTINUOUS
 10
47.3975679824
 20
201.0313100034
 11
47.3976968283
 21
201.0313100156
  0
LINE
  8
CURVE
 62
7
  6
CONTINUOUS
 10
48.9262252782
 20
201.2598870062
 11
49.5269859254
 21
201.2598870062
  0
LINE
  8
CURVE
 62
7
  6
CONTINUOUS
 10
74.3262252782
 20
201.2598870062
 11
74.9269859254
 21
201.2598870062
  0
LINE
  8
0
 62
7
  6
CONTINUOUS
 10
87.0262252787
 20
201.2598870062
 11
87.626985926
 21
201.2598870062
  0
LINE
  8
0
 62
7
  6
CONTINUOUS
 10
112.4262252787
 20
201.2598870062
 11
113.026985926
 21
201.2598870062
  0
POLYLINE
  8
0
 62
7
  6
CONTINUOUS
 66
1
 70
0
  0
VERTEX
  8
0
 62
7
  6
CONTINUOUS
 10
87.626985926
 20
201.2598872136
  0
VERTEX
  8
0
 62
7
  6
CONTINUOUS
 10
87.6954188251
 20
201.2592214423
  0
VERTEX
  8
0
 62
7
  6
CONTINUOUS
 10
87.7877388258
 20
201.2562208251
  0
VERTEX
  8
0
 62
7
  6
CONTINUOUS
 10
87.8835296821
 20
201.2505784589
  0
VERTEX
  8
0
 62
7
  6
CONTINUOUS
 10
87.9807816744
 20
201.2422623331
  0
VERTEX
  8
0
 62
7
  6
CONTINUOUS
 10
88.077570451
 20
201.2314666242
  0
VERTEX
  8
0
 62
7
  6
CONTINUOUS
 10
88.172184965
 20
201.2185734691
  0
VERTEX
  8
0
 62
7
  6
CONTINUOUS
 10
88.2631298733
 20
201.2041040036
  0
VERTEX
  8
0
 62
7
  6
CONTINUOUS
 10
88.3491161332
 20
201.1886652927
  0
VERTEX
  8
0
 62
7
  6
CONTINUOUS
 10
88.4290474667
 20
201.1728989658
  0
VERTEX
  8
0
 62
7
  6
CONTINUOUS
 10
88.5021239802
 20
201.1574090914
  0
VERTEX
  8
0
 62
7
  6
CONTINUOUS
 10
88.5680797866
 20
201.1426591374
  0
VERTEX
  8
0
 62
7
  6
CONTINUOUS
 10
88.6276203031
 20
201.1288250219
  0
SEQEND
  0
POLYLINE
  8
0
 62
7
  6
CONTINUOUS
 66
1
 70
0
  0
VERTEX
  8
0
 62
7
  6
CONTINUOUS
 10
113.026985926
 20
201.2598872136
  0
VERTEX
  8
0
 62
7
  6
CONTINUOUS
 10
113.0954188251
 20
201.2592214423
  0
VERTEX
  8
0
 62
7
  6
CONTINUOUS
 10
113.1877388258
 20
201.2562208251
  0
VERTEX
  8
0
 62
7
  6
CONTINUOUS
 10
113.2835296821
 20
201.2505784589
  0
VERTEX
  8
0
 62
7
  6
CONTINUOUS
 10
113.3807816744
 20
201.2422623331
  0
VERTEX
  8
0
 62
7
  6
CONTINUOUS
 10
113.477570451
 20
201.2314666242
  0
VERTEX
  8
0
 62
7
  6
CONTINUOUS
 10
113.572184965
 20
201.2185734691
  0
VERTEX
  8
0
 62
7
  6
CONTINUOUS
 10
113.6631298733
 20
201.2041040036
  0
VERTEX
  8
0
 62
7
  6
CONTINUOUS
 10
113.7491161332
 20
201.1886652927
  0
VERTEX
  8
0
 62
7
  6
CONTINUOUS
 10
113.8290474667
 20
201.1728989658
  0
VERTEX
  8
0
 62
7
  6
CONTINUOUS
 10
113.9021239802
 20
201.1574090914
  0
VERTEX
  8
0
 62
7
  6
CONTINUOUS
 10
113.9680797866
 20
201.1426591374
  0
VERTEX
  8
0
 62
7
  6
CONTINUOUS
 10
114.0276203031
 20
201.1288250219
  0
SEQEND
  0
POLYLINE
  8
CURVE
 62
7
  6
CONTINUOUS
 66
1
 70
0
  0
VERTEX
  8
CURVE
 62
7
  6
CONTINUOUS
 10
49.5269859254
 20
201.2598871378
  0
VERTEX
  8
CURVE
 62
7
  6
CONTINUOUS
 10
49.5969976633
 20
201.2591904017
  0
VERTEX
  8
CURVE
 62
7
  6
CONTINUOUS
 10
49.6894788074
 20
201.256141196
  0
VERTEX
  8
CURVE
 62
7
  6
CONTINUOUS
 10
49.7854908204
 20
201.2504363431
  0
VERTEX
  8
CURVE
 62
7
  6
CONTINUOUS
 10
49.882973626
 20
201.2420453651
  0
VERTEX
  8
CURVE
 62
7
  6
CONTINUOUS
 10
49.9799544448
 20
201.2311697531
  0
VERTEX
  8
CURVE
 62
7
  6
CONTINUOUS
 10
50.0746816885
 20
201.218202879
  0
VERTEX
  8
CURVE
 62
7
  6
CONTINUOUS
 10
50.1656296315
 20
201.2036786806
  0
VERTEX
  8
CURVE
 62
7
  6
CONTINUOUS
 10
50.2515168175
 20
201.1882109649
  0
VERTEX
  8
CURVE
 62
7
  6
CONTINUOUS
 10
50.3312932171
 20
201.1724375932
  0
VERTEX
  8
CURVE
 62
7
  6
CONTINUOUS
 10
50.4042013441
 20
201.1569550281
  0
VERTEX
  8
CURVE
 62
7
  6
CONTINUOUS
 10
50.4700111804
 20
201.142217473
  0
VERTEX
  8
CURVE
 62
7
  6
CONTINUOUS
 10
50.5294298759
 20
201.1283981415
  0
SEQEND
  0
POLYLINE
  8
CURVE
 62
7
  6
CONTINUOUS
 66
1
 70
0
  0
VERTEX
  8
CURVE
 62
7
  6
CONTINUOUS
 10
74.9269859254
 20
201.2598871378
  0
VERTEX
  8
CURVE
 62
7
  6
CONTINUOUS
 10
74.9969976633
 20
201.2591904017
  0
VERTEX
  8
CURVE
 62
7
  6
CONTINUOUS
 10
75.0894788074
 20
201.256141196
  0
VERTEX
  8
CURVE
 62
7
  6
CONTINUOUS
 10
75.1854908204
 20
201.2504363431
  0
VERTEX
  8
CURVE
 62
7
  6
CONTINUOUS
 10
75.282973626
 20
201.2420453651
  0
VERTEX
  8
CURVE
 62
7
  6
CONTINUOUS
 10
75.3799544448
 20
201.2311697531
  0
VERTEX
  8
CURVE
 62
7
  6
CONTINUOUS
 10
75.4746816885
 20
201.218202879
  0
VERTEX
  8
CURVE
 62
7
  6
CONTINUOUS
 10
75.5656296315
 20
201.2036786806
  0
VERTEX
  8
CURVE
 62
7
  6
CONTINUOUS
 10
75.6515168175
 20
201.1882109649
  0
VERTEX
  8
CURVE
 62
7
  6
CONTINUOUS
 10
75.7312932172
 20
201.1724375932
  0
VERTEX
  8
CURVE
 62
7
  6
CONTINUOUS
 10
75.8042013441
 20
201.1569550281
  0
VERTEX
  8
CURVE
 62
7
  6
CONTINUOUS
 10
75.8700111804
 20
201.142217473
  0
VERTEX
  8
CURVE
 62
7
  6
CONTINUOUS
 10
75.9294298759
 20
201.1283981415
  0
SEQEND
  0
POLYLINE
  8
CURVE
 62
7
  6
CONTINUOUS
 66
1
 70
0
  0
VERTEX
  8
CURVE
 62
7
  6
CONTINUOUS
 10
59.3670946948
 20
201.0313099664
  0
VERTEX
  8
CURVE
 62
7
  6
CONTINUOUS
 10
59.3743052381
 20
201.0311546212
  0
VERTEX
  8
CURVE
 62
7
  6
CONTINUOUS
 10
59.3898584087
 20
201.0298544144
  0
VERTEX
  8
CURVE
 62
7
  6
CONTINUOUS
 10
59.4078517466
 20
201.0268633772
  0
VERTEX
  8
CURVE
 62
7
  6
CONTINUOUS
 10
59.4278844641
 20
201.0217653358
  0
VERTEX
  8
CURVE
 62
7
  6
CONTINUOUS
 10
59.4495252954
 20
201.0141750797
  0
VERTEX
  8
CURVE
 62
7
  6
CONTINUOUS
 10
59.4723299101
 20
201.0037278918
  0
VERTEX
  8
CURVE
 62
7
  6
CONTINUOUS
 10
59.4957509885
 20
200.9901225689
  0
VERTEX
  8
CURVE
 62
7
  6
CONTINUOUS
 10
59.5192090431
 20
200.9731081269
  0
VERTEX
  8
CURVE
 62
7
  6
CONTINUOUS
 10
59.5420848874
 20
200.9524908069
  0
VERTEX
  8
CURVE
 62
7
  6
CONTINUOUS
 10
59.5636871698
 20
200.9281782323
  0
VERTEX
  8
CURVE
 62
7
  6
CONTINUOUS
 10
59.5831551314
 20
200.9003936627
  0
VERTEX
  8
CURVE
 62
7
  6
CONTINUOUS
 10
59.5996669508
 20
200.8696250146
  0
VERTEX
  8
CURVE
 62
7
  6
CONTINUOUS
 10
59.6125633284
 20
200.8365416705
  0
SEQEND
  0
POLYLINE
  8
0
 62
7
  6
CONTINUOUS
 66
1
 70
0
  0
VERTEX
  8
0
 62
7
  6
CONTINUOUS
 10
97.4670947346
 20
201.0313099651
  0
VERTEX
  8
0
 62
7
  6
CONTINUOUS
 10
97.4747798791
 20
201.0311339018
  0
VERTEX
  8
0
 62
7
  6
CONTINUOUS
 10
97.4903427872
 20
201.0297941841
  0
VERTEX
  8
0
 62
7
  6
CONTINUOUS
 10
97.5083014051
 20
201.026769178
  0
VERTEX
  8
0
 62
7
  6
CONTINUOUS
 10
97.5282642707
 20
201.0216508974
  0
VERTEX
  8
0
 62
7
  6
CONTINUOUS
 10
97.5498103291
 20
201.0140603619
  0
VERTEX
  8
0
 62
7
  6
CONTINUOUS
 10
97.572510434
 20
201.0036346123
  0
VERTEX
  8
0
 62
7
  6
CONTINUOUS
 10
97.5958303991
 20
200.9900710267
  0
VERTEX
  8
0
 62
7
  6
CONTINUOUS
 10
97.6191946131
 20
200.9731197755
  0
VERTEX
  8
0
 62
7
  6
CONTINUOUS
 10
97.6419865891
 20
200.9525894959
  0
VERTEX
  8
0
 62
7
  6
CONTINUOUS
 10
97.6635144503
 20
200.9283960814
  0
VERTEX
  8
0
 62
7
  6
CONTINUOUS
 10
97.6829240362
 20
200.9007677595
  0
VERTEX
  8
0
 62
7
  6
CONTINUOUS
 10
97.6994079794
 20
200.8701843617
  0
VERTEX
  8
0
 62
7
  6
CONTINUOUS
 10
97.712317579
 20
200.8373028968
  0
SEQEND
  0
POLYLINE
  8
CURVE
 62
7
  6
CONTINUOUS
 66
1
 70
0
  0
VERTEX
  8
CURVE
 62
7
  6
CONTINUOUS
 10
47.734450913
 20
209.7797310346
  0
VERTEX
  8
CURVE
 62
7
  6
CONTINUOUS
 10
47.6965625072
 20
209.7886185804
  0
VERTEX
  8
CURVE
 62
7
  6
CONTINUOUS
 10
47.6614987667
 20
209.7965599445
  0
VERTEX
  8
CURVE
 62
7
  6
CONTINUOUS
 10
47.6286181948
 20
209.803637891
  0
VERTEX
  8
CURVE
 62
7
  6
CONTINUOUS
 10
47.5970445468
 20
209.8099759777
  0
VERTEX
  8
CURVE
 62
7
  6
CONTINUOUS
 10
47.5661041785
 20
209.8156201532
  0
VERTEX
  8
CURVE
 62
7
  6
CONTINUOUS
 10
47.5352531839
 20
209.8205610085
  0
VERTEX
  8
CURVE
 62
7
  6
CONTINUOUS
 10
47.5037885869
 20
209.824762688
  0
VERTEX
  8
CURVE
 62
7
  6
CONTINUOUS
 10
47.4715367369
 20
209.8280685144
  0
VERTEX
  8
CURVE
 62
7
  6
CONTINUOUS
 10
47.4384104944
 20
209.8303029992
  0
VERTEX
  8
CURVE
 62
7
  6
CONTINUOUS
 10
47.4045604415
 20
209.8312796608
  0
VERTEX
  8
CURVE
 62
7
  6
CONTINUOUS
 10
47.3976902014
 20
209.8313097529
  0
SEQEND
  0
POLYLINE
  8
0
 62
7
  6
CONTINUOUS
 66
1
 70
0
  0
VERTEX
  8
0
 62
7
  6
CONTINUOUS
 10
88.8173537663
 20
201.0832231887
  0
VERTEX
  8
0
 62
7
  6
CONTINUOUS
 10
88.8553146923
 20
201.0743096832
  0
VERTEX
  8
0
 62
7
  6
CONTINUOUS
 10
88.8904247494
 20
201.066345267
  0
VERTEX
  8
0
 62
7
  6
CONTINUOUS
 10
88.9233207397
 20
201.0592477256
  0
VERTEX
  8
0
 62
7
  6
CONTINUOUS
 10
88.9548629342
 20
201.0528950218
  0
VERTEX
  8
0
 62
7
  6
CONTINUOUS
 10
88.985732211
 20
201.04723688
  0
VERTEX
  8
0
 62
7
  6
CONTINUOUS
 10
89.0164647553
 20
201.042280338
  0
VERTEX
  8
0
 62
7
  6
CONTINUOUS
 10
89.0477677429
 20
201.0380551634
  0
VERTEX
  8
0
 62
7
  6
CONTINUOUS
 10
89.0798331593
 20
201.0347110439
  0
VERTEX
  8
0
 62
7
  6
CONTINUOUS
 10
89.1127587072
 20
201.0324188856
  0
VERTEX
  8
0
 62
7
  6
CONTINUOUS
 10
89.1464201582
 20
201.0313623964
  0
VERTEX
  8
0
 62
7
  6
CONTINUOUS
 10
89.1555143758
 20
201.0313101515
  0
SEQEND
  0
LINE
  8
CURVE
 62
7
  6
CONTINUOUS
 10
47.9238137201
 20
209.7342141419
 11
47.734450913
 21
209.7797310346
  0
LINE
  8
0
 62
7
  6
CONTINUOUS
 10
88.6276203031
 20
201.1288250219
 11
88.8173537663
 21
201.0832231887
  0
POLYLINE
  8
CURVE
 62
7
  6
CONTINUOUS
 66
1
 70
0
  0
VERTEX
  8
CURVE
 62
7
  6
CONTINUOUS
 10
60.3638231864
 20
209.7574754151
  0
VERTEX
  8
CURVE
 62
7
  6
CONTINUOUS
 10
60.3252131701
 20
209.7682964892
  0
VERTEX
  8
CURVE
 62
7
  6
CONTINUOUS
 10
60.2884806717
 20
209.7782884022
  0
VERTEX
  8
CURVE
 62
7
  6
CONTINUOUS
 10
60.2530148939
 20
209.7875275813
  0
VERTEX
  8
CURVE
 62
7
  6
CONTINUOUS
 10
60.2183298669
 20
209.7960453095
  0
VERTEX
  8
CURVE
 62
7
  6
CONTINUOUS
 10
60.1835452803
 20
209.8039332327
  0
VERTEX
  8
CURVE
 62
7
  6
CONTINUOUS
 10
60.1482460766
 20
209.8111256051
  0
VERTEX
  8
CURVE
 62
7
  6
CONTINUOUS
 10
60.1122987575
 20
209.8174757557
  0
VERTEX
  8
CURVE
 62
7
  6
CONTINUOUS
 10
60.0758598922
 20
209.8227882715
  0
VERTEX
  8
CURVE
 62
7
  6
CONTINUOUS
 10
60.0386429436
 20
209.8269480799
  0
VERTEX
  8
CURVE
 62
7
  6
CONTINUOUS
 10
59.9995915607
 20
209.8298574059
  0
VERTEX
  8
CURVE
 62
7
  6
CONTINUOUS
 10
59.9575155284
 20
209.8312509771
  0
VERTEX
  8
CURVE
 62
7
  6
CONTINUOUS
 10
59.9469738134
 20
209.8313097819
  0
SEQEND
  0
POLYLINE
  8
CURVE
 62
7
  6
CONTINUOUS
 66
1
 70
0
  0
VERTEX
  8
CURVE
 62
7
  6
CONTINUOUS
 10
60.5501267955
 20
209.7040362524
  0
VERTEX
  8
CURVE
 62
7
  6
CONTINUOUS
 10
60.4493555388
 20
209.7329305777
  0
VERTEX
  8
CURVE
 62
7
  6
CONTINUOUS
 10
60.3638231864
 20
209.7574754151
  0
SEQEND
  0
LINE
  8
0
 62
7
  6
CONTINUOUS
 10
97.712317579
 20
200.8373028968
 11
97.7166733059
 21
200.8204433888
  0
LINE
  8
0
 62
7
  6
CONTINUOUS
 10
97.7266056021
 20
194.5313099649
 11
97.7266056021
 21
201.1209116395
  0
LINE
  8
0
 62
7
  6
CONTINUOUS
 10
102.3266056021
 20
201.1209116395
 11
102.3266056021
 21
194.5313099649
  0
LINE
  8
0
 62
7
  6
CONTINUOUS
 10
102.3320249945
 20
200.8030134644
 11
102.3409695145
 21
200.8375365386
  0
POLYLINE
  8
0
 62
7
  6
CONTINUOUS
 66
1
 70
0
  0
VERTEX
  8
0
 62
7
  6
CONTINUOUS
 10
102.3409695145
 20
200.8375365386
  0
VERTEX
  8
0
 62
7
  6
CONTINUOUS
 10
102.3539435631
 20
200.8704861861
  0
VERTEX
  8
0
 62
7
  6
CONTINUOUS
 10
102.3705039349
 20
200.9011175138
  0
VERTEX
  8
0
 62
7
  6
CONTINUOUS
 10
102.3899923405
 20
200.9287679031
  0
VERTEX
  8
0
 62
7
  6
CONTINUOUS
 10
102.4115898546
 20
200.9529553465
  0
VERTEX
  8
0
 62
7
  6
CONTINUOUS
 10
102.4344365072
 20
200.973458064
  0
VERTEX
  8
0
 62
7
  6
CONTINUOUS
 10
102.4578447469
 20
200.9903716056
  0
VERTEX
  8
0
 62
7
  6
CONTINUOUS
 10
102.4812034005
 20
201.0038939018
  0
VERTEX
  8
0
 62
7
  6
CONTINUOUS
 10
102.5039410266
 20
201.0142774267
  0
VERTEX
  8
0
 62
7
  6
CONTINUOUS
 10
102.525517208
 20
201.0218224759
  0
VERTEX
  8
0
 62
7
  6
CONTINUOUS
 10
102.5454902726
 20
201.0268906066
  0
VERTEX
  8
0
 62
7
  6
CONTINUOUS
 10
102.563430498
 20
201.0298639691
  0
VERTEX
  8
0
 62
7
  6
CONTINUOUS
 10
102.5789392287
 20
201.031156026
  0
VERTEX
  8
0
 62
7
  6
CONTINUOUS
 10
102.5861165321
 20
201.0313099664
  0
SEQEND
  0
POLYLINE
  8
0
 62
7
  6
CONTINUOUS
 66
1
 70
0
  0
VERTEX
  8
0
 62
7
  6
CONTINUOUS
 10
85.8344343297
 20
201.0828849333
  0
VERTEX
  8
0
 62
7
  6
CONTINUOUS
 10
86.0237813282
 20
201.1283981415
  0
VERTEX
  8
0
 62
7
  6
CONTINUOUS
 10
86.0832000237
 20
201.142217473
  0
VERTEX
  8
0
 62
7
  6
CONTINUOUS
 10
86.1490098601
 20
201.1569550281
  0
VERTEX
  8
0
 62
7
  6
CONTINUOUS
 10
86.221917987
 20
201.1724375932
  0
VERTEX
  8
0
 62
7
  6
CONTINUOUS
 10
86.3016943866
 20
201.1882109649
  0
VERTEX
  8
0
 62
7
  6
CONTINUOUS
 10
86.3875815726
 20
201.2036786806
  0
VERTEX
  8
0
 62
7
  6
CONTINUOUS
 10
86.4785295156
 20
201.218202879
  0
VERTEX
  8
0
 62
7
  6
CONTINUOUS
 10
86.5732567593
 20
201.2311697531
  0
VERTEX
  8
0
 62
7
  6
CONTINUOUS
 10
86.6702375781
 20
201.2420453651
  0
VERTEX
  8
0
 62
7
  6
CONTINUOUS
 10
86.7677203837
 20
201.2504363431
  0
VERTEX
  8
0
 62
7
  6
CONTINUOUS
 10
86.8637323968
 20
201.256141196
  0
VERTEX
  8
0
 62
7
  6
CONTINUOUS
 10
86.9562135409
 20
201.2591904017
  0
VERTEX
  8
0
 62
7
  6
CONTINUOUS
 10
87.0262252787
 20
201.2598871378
  0
SEQEND
  0
POLYLINE
  8
0
 62
7
  6
CONTINUOUS
 66
1
 70
0
  0
VERTEX
  8
0
 62
7
  6
CONTINUOUS
 10
114.2187602912
 20
209.7797310346
  0
VERTEX
  8
0
 62
7
  6
CONTINUOUS
 10
114.029397484
 20
209.7342141419
  0
VERTEX
  8
0
 62
7
  6
CONTINUOUS
 10
113.9699724591
 20
209.7203935982
  0
VERTEX
  8
0
 62
7
  6
CONTINUOUS
 10
113.9041550539
 20
209.7056547958
  0
VERTEX
  8
0
 62
7
  6
CONTINUOUS
 10
113.8312364308
 20
209.6901706553
  0
VERTEX
  8
0
 62
7
  6
CONTINUOUS
 10
113.7514494518
 20
209.6743961754
  0
VERTEX
  8
0
 62
7
  6
CONTINUOUS
 10
113.665556508
 20
209.6589287693
  0
VERTEX
  8
0
 62
7
  6
CONTINUOUS
 10
113.5746129404
 20
209.6444068254
  0
VERTEX
  8
0
 62
7
  6
CONTINUOUS
 10
113.4799005926
 20
209.631443468
  0
VERTEX
  8
0
 62
7
  6
CONTINUOUS
 10
113.3829406815
 20
209.6205713111
  0
VERTEX
  8
0
 62
7
  6
CONTINUOUS
 10
113.2854792058
 20
209.6121827661
  0
VERTEX
  8
0
 62
7
  6
CONTINUOUS
 10
113.1894822445
 20
209.606478888
  0
VERTEX
  8
0
 62
7
  6
CONTINUOUS
 10
113.0970070329
 20
209.6034297232
  0
VERTEX
  8
0
 62
7
  6
CONTINUOUS
 10
113.0269859254
 20
209.6027327164
  0
SEQEND
  0
POLYLINE
  8
CURVE
 62
7
  6
CONTINUOUS
 66
1
 70
0
  0
VERTEX
  8
CURVE
 62
7
  6
CONTINUOUS
 10
73.1358574378
 20
201.0832231887
  0
VERTEX
  8
CURVE
 62
7
  6
CONTINUOUS
 10
73.325590901
 20
201.1288250219
  0
VERTEX
  8
CURVE
 62
7
  6
CONTINUOUS
 10
73.3851314176
 20
201.1426591374
  0
VERTEX
  8
CURVE
 62
7
  6
CONTINUOUS
 10
73.4510872239
 20
201.1574090914
  0
VERTEX
  8
CURVE
 62
7
  6
CONTINUOUS
 10
73.5241637374
 20
201.1728989658
  0
VERTEX
  8
CURVE
 62
7
  6
CONTINUOUS
 10
73.6040950709
 20
201.1886652927
  0
VERTEX
  8
CURVE
 62
7
  6
CONTINUOUS
 10
73.6900813308
 20
201.2041040036
  0
VERTEX
  8
CURVE
 62
7
  6
CONTINUOUS
 10
73.7810262391
 20
201.2185734691
  0
VERTEX
  8
CURVE
 62
7
  6
CONTINUOUS
 10
73.8756407531
 20
201.2314666242
  0
VERTEX
  8
CURVE
 62
7
  6
CONTINUOUS
 10
73.9724295297
 20
201.2422623331
  0
VERTEX
  8
CURVE
 62
7
  6
CONTINUOUS
 10
74.069681522
 20
201.2505784589
  0
VERTEX
  8
CURVE
 62
7
  6
CONTINUOUS
 10
74.1654723783
 20
201.2562208251
  0
VERTEX
  8
CURVE
 62
7
  6
CONTINUOUS
 10
74.257792379
 20
201.2592214423
  0
VERTEX
  8
CURVE
 62
7
  6
CONTINUOUS
 10
74.3262252782
 20
201.2598872136
  0
SEQEND
  0
LINE
  8
DEFAULT_1
 62
2
  6
CENTER
 10
20.454459493
 20
205.4313099649
 11
141.8329511847
 21
205.4313099649
  0
POLYLINE
  8
CURVE
 62
7
  6
CONTINUOUS
 66
1
 70
0
  0
VERTEX
  8
CURVE
 62
7
  6
CONTINUOUS
 10
73.134450913
 20
209.7797310346
  0
VERTEX
  8
CURVE
 62
7
  6
CONTINUOUS
 10
73.0965625072
 20
209.7886185804
  0
VERTEX
  8
CURVE
 62
7
  6
CONTINUOUS
 10
73.0614987667
 20
209.7965599445
  0
VERTEX
  8
CURVE
 62
7
  6
CONTINUOUS
 10
73.0286181948
 20
209.803637891
  0
VERTEX
  8
CURVE
 62
7
  6
CONTINUOUS
 10
72.9970445468
 20
209.8099759777
  0
VERTEX
  8
CURVE
 62
7
  6
CONTINUOUS
 10
72.9661041785
 20
209.8156201532
  0
VERTEX
  8
CURVE
 62
7
  6
CONTINUOUS
 10
72.9352531839
 20
209.8205610085
  0
VERTEX
  8
CURVE
 62
7
  6
CONTINUOUS
 10
72.9037885869
 20
209.824762688
  0
VERTEX
  8
CURVE
 62
7
  6
CONTINUOUS
 10
72.8715367369
 20
209.8280685144
  0
VERTEX
  8
CURVE
 62
7
  6
CONTINUOUS
 10
72.8384104944
 20
209.8303029992
  0
VERTEX
  8
CURVE
 62
7
  6
CONTINUOUS
 10
72.8045604415
 20
209.8312796608
  0
VERTEX
  8
CURVE
 62
7
  6
CONTINUOUS
 10
72.7976902014
 20
209.8313097529
  0
SEQEND
  0
POLYLINE
  8
0
 62
7
  6
CONTINUOUS
 66
1
 70
0
  0
VERTEX
  8
0
 62
7
  6
CONTINUOUS
 10
114.2173537663
 20
201.0832231887
  0
VERTEX
  8
0
 62
7
  6
CONTINUOUS
 10
114.2553146923
 20
201.0743096832
  0
VERTEX
  8
0
 62
7
  6
CONTINUOUS
 10
114.2904247494
 20
201.066345267
  0
VERTEX
  8
0
 62
7
  6
CONTINUOUS
 10
114.3233207397
 20
201.0592477256
  0
VERTEX
  8
0
 62
7
  6
CONTINUOUS
 10
114.3548629342
 20
201.0528950218
  0
VERTEX
  8
0
 62
7
  6
CONTINUOUS
 10
114.385732211
 20
201.04723688
  0
VERTEX
  8
0
 62
7
  6
CONTINUOUS
 10
114.4164647553
 20
201.042280338
  0
VERTEX
  8
0
 62
7
  6
CONTINUOUS
 10
114.4477677429
 20
201.0380551634
  0
VERTEX
  8
0
 62
7
  6
CONTINUOUS
 10
114.4798331593
 20
201.0347110439
  0
VERTEX
  8
0
 62
7
  6
CONTINUOUS
 10
114.5127587072
 20
201.0324188856
  0
VERTEX
  8
0
 62
7
  6
CONTINUOUS
 10
114.5464201582
 20
201.0313623964
  0
VERTEX
  8
0
 62
7
  6
CONTINUOUS
 10
114.5555143758
 20
201.0313101515
  0
SEQEND
  0
POLYLINE
  8
0
 62
7
  6
CONTINUOUS
 66
1
 70
0
  0
VERTEX
  8
0
 62
7
  6
CONTINUOUS
 10
85.8359350436
 20
209.7793783237
  0
VERTEX
  8
0
 62
7
  6
CONTINUOUS
 10
85.7979579306
 20
209.7882960176
  0
VERTEX
  8
0
 62
7
  6
CONTINUOUS
 10
85.7628392301
 20
209.7962630077
  0
VERTEX
  8
0
 62
7
  6
CONTINUOUS
 10
85.7299299778
 20
209.8033639387
  0
VERTEX
  8
0
 62
7
  6
CONTINUOUS
 10
85.6983868833
 20
209.8097174418
  0
VERTEX
  8
0
 62
7
  6
CONTINUOUS
 10
85.6675076243
 20
209.8153781285
  0
VERTEX
  8
0
 62
7
  6
CONTINUOUS
 10
85.6367720395
 20
209.8203357539
  0
VERTEX
  8
0
 62
7
  6
CONTINUOUS
 10
85.605470446
 20
209.8245615575
  0
VERTEX
  8
0
 62
7
  6
CONTINUOUS
 10
85.5733962051
 20
209.827907348
  0
VERTEX
  8
0
 62
7
  6
CONTINUOUS
 10
85.5404661952
 20
209.8302003426
  0
VERTEX
  8
0
 62
7
  6
CONTINUOUS
 10
85.5068032043
 20
209.831257368
  0
VERTEX
  8
0
 62
7
  6
CONTINUOUS
 10
85.4976996984
 20
209.8313097535
  0
SEQEND
  0
LINE
  8
CURVE
 62
7
  6
CONTINUOUS
 10
73.3238137201
 20
209.7342141419
 11
73.134450913
 21
209.7797310346
  0
LINE
  8
0
 62
7
  6
CONTINUOUS
 10
114.0276203031
 20
201.1288250219
 11
114.2173537663
 21
201.0832231887
  0
LINE
  8
0
 62
7
  6
CONTINUOUS
 10
86.0257403716
 20
209.7337596657
 11
85.8359350436
 21
209.7793783237
  0
LINE
  8
0
 62
7
  6
CONTINUOUS
 10
103.0266056021
 20
208.9813099649
 11
103.0266056021
 21
201.8813099649
  0
POLYLINE
  8
0
 62
7
  6
CONTINUOUS
 66
1
 70
0
  0
VERTEX
  8
0
 62
7
  6
CONTINUOUS
 10
88.8187602912
 20
209.7797310346
  0
VERTEX
  8
0
 62
7
  6
CONTINUOUS
 10
88.629397484
 20
209.7342141419
  0
VERTEX
  8
0
 62
7
  6
CONTINUOUS
 10
88.5699724591
 20
209.7203935982
  0
VERTEX
  8
0
 62
7
  6
CONTINUOUS
 10
88.5041550539
 20
209.7056547958
  0
VERTEX
  8
0
 62
7
  6
CONTINUOUS
 10
88.4312364308
 20
209.6901706553
  0
VERTEX
  8
0
 62
7
  6
CONTINUOUS
 10
88.3514494518
 20
209.6743961754
  0
VERTEX
  8
0
 62
7
  6
CONTINUOUS
 10
88.265556508
 20
209.6589287693
  0
VERTEX
  8
0
 62
7
  6
CONTINUOUS
 10
88.1746129403
 20
209.6444068254
  0
VERTEX
  8
0
 62
7
  6
CONTINUOUS
 10
88.0799005926
 20
209.631443468
  0
VERTEX
  8
0
 62
7
  6
CONTINUOUS
 10
87.9829406815
 20
209.6205713111
  0
VERTEX
  8
0
 62
7
  6
CONTINUOUS
 10
87.8854792058
 20
209.6121827661
  0
VERTEX
  8
0
 62
7
  6
CONTINUOUS
 10
87.7894822445
 20
209.606478888
  0
VERTEX
  8
0
 62
7
  6
CONTINUOUS
 10
87.6970070329
 20
209.6034297232
  0
VERTEX
  8
0
 62
7
  6
CONTINUOUS
 10
87.6269859254
 20
209.6027327164
  0
SEQEND
  0
POLYLINE
  8
CURVE
 62
7
  6
CONTINUOUS
 66
1
 70
0
  0
VERTEX
  8
CURVE
 62
7
  6
CONTINUOUS
 10
63.9062369976
 20
209.8313097835
  0
VERTEX
  8
CURVE
 62
7
  6
CONTINUOUS
 10
63.8929057115
 20
209.8312157582
  0
VERTEX
  8
CURVE
 62
7
  6
CONTINUOUS
 10
63.8511155602
 20
209.8297169067
  0
VERTEX
  8
CURVE
 62
7
  6
CONTINUOUS
 10
63.8122637827
 20
209.8267291653
  0
VERTEX
  8
CURVE
 62
7
  6
CONTINUOUS
 10
63.7751691921
 20
209.8225038859
  0
VERTEX
  8
CURVE
 62
7
  6
CONTINUOUS
 10
63.7388073374
 20
209.8171331888
  0
VERTEX
  8
CURVE
 62
7
  6
CONTINUOUS
 10
63.7029473139
 20
209.8107388312
  0
VERTEX
  8
CURVE
 62
7
  6
CONTINUOUS
 10
63.6677316437
 20
209.8035142737
  0
VERTEX
  8
CURVE
 62
7
  6
CONTINUOUS
 10
63.6330267285
 20
209.7956050492
  0
VERTEX
  8
CURVE
 62
7
  6
CONTINUOUS
 10
63.5983836962
 20
209.7870672531
  0
VERTEX
  8
CURVE
 62
7
  6
CONTINUOUS
 10
63.5629245538
 20
209.7778060173
  0
VERTEX
  8
CURVE
 62
7
  6
CONTINUOUS
 10
63.5261898576
 20
209.7677959926
  0
VERTEX
  8
CURVE
 62
7
  6
CONTINUOUS
 10
63.4875478525
 20
209.7569536834
  0
SEQEND
  0
POLYLINE
  8
CURVE
 62
7
  6
CONTINUOUS
 66
1
 70
0
  0
VERTEX
  8
CURVE
 62
7
  6
CONTINUOUS
 10
76.4555115058
 20
209.8313097535
  0
VERTEX
  8
CURVE
 62
7
  6
CONTINUOUS
 10
76.4464079998
 20
209.831257368
  0
VERTEX
  8
CURVE
 62
7
  6
CONTINUOUS
 10
76.4127450089
 20
209.8302003426
  0
VERTEX
  8
CURVE
 62
7
  6
CONTINUOUS
 10
76.379814999
 20
209.827907348
  0
VERTEX
  8
CURVE
 62
7
  6
CONTINUOUS
 10
76.3477407581
 20
209.8245615575
  0
VERTEX
  8
CURVE
 62
7
  6
CONTINUOUS
 10
76.3164391646
 20
209.8203357539
  0
VERTEX
  8
CURVE
 62
7
  6
CONTINUOUS
 10
76.2857035798
 20
209.8153781285
  0
VERTEX
  8
CURVE
 62
7
  6
CONTINUOUS
 10
76.2548243208
 20
209.8097174418
  0
VERTEX
  8
CURVE
 62
7
  6
CONTINUOUS
 10
76.2232812263
 20
209.8033639387
  0
VERTEX
  8
CURVE
 62
7
  6
CONTINUOUS
 10
76.190371974
 20
209.7962630077
  0
VERTEX
  8
CURVE
 62
7
  6
CONTINUOUS
 10
76.1552532735
 20
209.7882960176
  0
VERTEX
  8
CURVE
 62
7
  6
CONTINUOUS
 10
76.1172761605
 20
209.7793783237
  0
SEQEND
  0
POLYLINE
  8
CURVE
 62
7
  6
CONTINUOUS
 66
1
 70
0
  0
VERTEX
  8
CURVE
 62
7
  6
CONTINUOUS
 10
51.0555115058
 20
209.8313097535
  0
VERTEX
  8
CURVE
 62
7
  6
CONTINUOUS
 10
51.0464079998
 20
209.831257368
  0
VERTEX
  8
CURVE
 62
7
  6
CONTINUOUS
 10
51.0127450089
 20
209.8302003426
  0
VERTEX
  8
CURVE
 62
7
  6
CONTINUOUS
 10
50.979814999
 20
209.827907348
  0
VERTEX
  8
CURVE
 62
7
  6
CONTINUOUS
 10
50.9477407581
 20
209.8245615575
  0
VERTEX
  8
CURVE
 62
7
  6
CONTINUOUS
 10
50.9164391646
 20
209.8203357539
  0
VERTEX
  8
CURVE
 62
7
  6
CONTINUOUS
 10
50.8857035798
 20
209.8153781285
  0
VERTEX
  8
CURVE
 62
7
  6
CONTINUOUS
 10
50.8548243208
 20
209.8097174418
  0
VERTEX
  8
CURVE
 62
7
  6
CONTINUOUS
 10
50.8232812263
 20
209.8033639387
  0
VERTEX
  8
CURVE
 62
7
  6
CONTINUOUS
 10
50.790371974
 20
209.7962630077
  0
VERTEX
  8
CURVE
 62
7
  6
CONTINUOUS
 10
50.7552532735
 20
209.7882960176
  0
VERTEX
  8
CURVE
 62
7
  6
CONTINUOUS
 10
50.7172761605
 20
209.7793783237
  0
SEQEND
  0
POLYLINE
  8
0
 62
7
  6
CONTINUOUS
 66
1
 70
0
  0
VERTEX
  8
0
 62
7
  6
CONTINUOUS
 10
102.0062372794
 20
209.8313097819
  0
VERTEX
  8
0
 62
7
  6
CONTINUOUS
 10
101.9956322587
 20
209.8312502677
  0
VERTEX
  8
0
 62
7
  6
CONTINUOUS
 10
101.9535436261
 20
209.8298532342
  0
VERTEX
  8
0
 62
7
  6
CONTINUOUS
 10
101.9144899055
 20
209.8269407205
  0
VERTEX
  8
0
 62
7
  6
CONTINUOUS
 10
101.8772461382
 20
209.8227746643
  0
VERTEX
  8
0
 62
7
  6
CONTINUOUS
 10
101.8407358789
 20
209.8174471687
  0
VERTEX
  8
0
 62
7
  6
CONTINUOUS
 10
101.8047191722
 20
209.8110786246
  0
VERTEX
  8
0
 62
7
  6
CONTINUOUS
 10
101.7693854008
 20
209.8038726209
  0
VERTEX
  8
0
 62
7
  6
CONTINUOUS
 10
101.7345936723
 20
209.7959771459
  0
VERTEX
  8
0
 62
7
  6
CONTINUOUS
 10
101.6999089898
 20
209.7874546996
  0
VERTEX
  8
0
 62
7
  6
CONTINUOUS
 10
101.6644487807
 20
209.7782132165
  0
VERTEX
  8
0
 62
7
  6
CONTINUOUS
 10
101.6277297962
 20
209.7682222835
  0
VERTEX
  8
0
 62
7
  6
CONTINUOUS
 10
101.5891395549
 20
209.7574049978
  0
SEQEND
  0
POLYLINE
  8
0
 62
7
  6
CONTINUOUS
 66
1
 70
0
  0
VERTEX
  8
0
 62
7
  6
CONTINUOUS
 10
114.5555210027
 20
209.8313097529
  0
VERTEX
  8
0
 62
7
  6
CONTINUOUS
 10
114.5486507627
 20
209.8312796608
  0
VERTEX
  8
0
 62
7
  6
CONTINUOUS
 10
114.5148007097
 20
209.8303029992
  0
VERTEX
  8
0
 62
7
  6
CONTINUOUS
 10
114.4816744672
 20
209.8280685144
  0
VERTEX
  8
0
 62
7
  6
CONTINUOUS
 10
114.4494226172
 20
209.824762688
  0
VERTEX
  8
0
 62
7
  6
CONTINUOUS
 10
114.4179580203
 20
209.8205610085
  0
VERTEX
  8
0
 62
7
  6
CONTINUOUS
 10
114.3871070256
 20
209.8156201532
  0
VERTEX
  8
0
 62
7
  6
CONTINUOUS
 10
114.3561666573
 20
209.8099759777
  0
VERTEX
  8
0
 62
7
  6
CONTINUOUS
 10
114.3245930093
 20
209.803637891
  0
VERTEX
  8
0
 62
7
  6
CONTINUOUS
 10
114.2917124374
 20
209.7965599445
  0
VERTEX
  8
0
 62
7
  6
CONTINUOUS
 10
114.2566486969
 20
209.7886185804
  0
VERTEX
  8
0
 62
7
  6
CONTINUOUS
 10
114.2187602912
 20
209.7797310346
  0
SEQEND
  0
POLYLINE
  8
0
 62
7
  6
CONTINUOUS
 66
1
 70
0
  0
VERTEX
  8
0
 62
7
  6
CONTINUOUS
 10
89.1555210027
 20
209.8313097529
  0
VERTEX
  8
0
 62
7
  6
CONTINUOUS
 10
89.1486507627
 20
209.8312796608
  0
VERTEX
  8
0
 62
7
  6
CONTINUOUS
 10
89.1148007097
 20
209.8303029992
  0
VERTEX
  8
0
 62
7
  6
CONTINUOUS
 10
89.0816744672
 20
209.8280685144
  0
VERTEX
  8
0
 62
7
  6
CONTINUOUS
 10
89.0494226172
 20
209.824762688
  0
VERTEX
  8
0
 62
7
  6
CONTINUOUS
 10
89.0179580203
 20
209.8205610085
  0
VERTEX
  8
0
 62
7
  6
CONTINUOUS
 10
88.9871070256
 20
209.8156201532
  0
VERTEX
  8
0
 62
7
  6
CONTINUOUS
 10
88.9561666573
 20
209.8099759777
  0
VERTEX
  8
0
 62
7
  6
CONTINUOUS
 10
88.9245930093
 20
209.803637891
  0
VERTEX
  8
0
 62
7
  6
CONTINUOUS
 10
88.8917124374
 20
209.7965599445
  0
VERTEX
  8
0
 62
7
  6
CONTINUOUS
 10
88.8566486969
 20
209.7886185804
  0
VERTEX
  8
0
 62
7
  6
CONTINUOUS
 10
88.8187602912
 20
209.7797310346
  0
SEQEND
  0
LINE
  8
0
 62
7
  6
CONTINUOUS
 10
100.3250646033
 20
209.5312622427
 11
99.7281465964
 21
209.5312622427
  0
LINE
  8
CURVE
 62
7
  6
CONTINUOUS
 10
62.2250646077
 20
209.5312622427
 11
61.6281466008
 21
209.5312622427
  0
LINE
  8
0
 62
7
  6
CONTINUOUS
 10
113.0269859254
 20
209.6027329236
 11
112.4262252758
 21
209.6027329236
  0
LINE
  8
0
 62
7
  6
CONTINUOUS
 10
87.6269859254
 20
209.6027329236
 11
87.0262252758
 21
209.6027329236
  0
LINE
  8
CURVE
 62
7
  6
CONTINUOUS
 10
74.9269859284
 20
209.6027329236
 11
74.3262252787
 21
209.6027329236
  0
LINE
  8
CURVE
 62
7
  6
CONTINUOUS
 10
49.5269859284
 20
209.6027329236
 11
48.9262252787
 21
209.6027329236
  0
LINE
  8
CURVE
 62
7
  6
CONTINUOUS
 10
28.2666056021
 20
209.8313099649
 11
35.0666056021
 21
209.8313099649
  0
LINE
  8
0
 62
7
  6
CONTINUOUS
 10
32.7866056021
 20
209.8313099649
 11
38.6766056021
 21
209.8313099649
  0
LINE
  8
CURVE
 62
7
  6
CONTINUOUS
 10
35.9166056021
 20
209.8313099649
 11
81.2776830801
 21
209.8313099649
  0
LINE
  8
0
 62
7
  6
CONTINUOUS
 10
81.0725124749
 20
209.8313099649
 11
133.6866056021
 21
209.8313099649
  0
LINE
  8
CURVE
 62
7
  6
CONTINUOUS
 10
76.4556432218
 20
209.8313099305
 11
76.4555115057
 21
209.8313099178
  0
LINE
  8
CURVE
 62
7
  6
CONTINUOUS
 10
51.0556432218
 20
209.8313099305
 11
51.0555115057
 21
209.8313099178
  0
POLYLINE
  8
0
 62
7
  6
CONTINUOUS
 66
1
 70
0
  0
VERTEX
  8
0
 62
7
  6
CONTINUOUS
 10
87.0262252757
 20
209.6027327914
  0
VERTEX
  8
0
 62
7
  6
CONTINUOUS
 10
86.9578287341
 20
209.6033977635
  0
VERTEX
  8
0
 62
7
  6
CONTINUOUS
 10
86.865570505
 20
209.6063946365
  0
VERTEX
  8
0
 62
7
  6
CONTINUOUS
 10
86.7698539688
 20
209.612028992
  0
VERTEX
  8
0
 62
7
  6
CONTINUOUS
 10
86.6726721395
 20
209.6203336395
  0
VERTEX
  8
0
 62
7
  6
CONTINUOUS
 10
86.5759384491
 20
209.6311163227
  0
VERTEX
  8
0
 62
7
  6
CONTINUOUS
 10
86.4813545842
 20
209.643997843
  0
VERTEX
  8
0
 62
7
  6
CONTINUOUS
 10
86.390409206
 20
209.6584602725
  0
VERTEX
  8
0
 62
7
  6
CONTINUOUS
 10
86.3043946201
 20
209.6738980645
  0
VERTEX
  8
0
 62
7
  6
CONTINUOUS
 10
86.2244206854
 20
209.6896682395
  0
VERTEX
  8
0
 62
7
  6
CONTINUOUS
 10
86.1512993205
 20
209.7051644921
  0
VERTEX
  8
0
 62
7
  6
CONTINUOUS
 10
86.0853069496
 20
209.7199206793
  0
VERTEX
  8
0
 62
7
  6
CONTINUOUS
 10
86.0257403716
 20
209.7337596657
  0
SEQEND
  0
POLYLINE
  8
0
 62
7
  6
CONTINUOUS
 66
1
 70
0
  0
VERTEX
  8
0
 62
7
  6
CONTINUOUS
 10
112.4262252757
 20
209.6027327914
  0
VERTEX
  8
0
 62
7
  6
CONTINUOUS
 10
112.3578287341
 20
209.6033977635
  0
VERTEX
  8
0
 62
7
  6
CONTINUOUS
 10
112.265570505
 20
209.6063946365
  0
VERTEX
  8
0
 62
7
  6
CONTINUOUS
 10
112.1698539688
 20
209.612028992
  0
VERTEX
  8
0
 62
7
  6
CONTINUOUS
 10
112.0726721395
 20
209.6203336395
  0
VERTEX
  8
0
 62
7
  6
CONTINUOUS
 10
111.9759384491
 20
209.6311163227
  0
VERTEX
  8
0
 62
7
  6
CONTINUOUS
 10
111.8813545842
 20
209.643997843
  0
VERTEX
  8
0
 62
7
  6
CONTINUOUS
 10
111.790409206
 20
209.6584602725
  0
VERTEX
  8
0
 62
7
  6
CONTINUOUS
 10
111.7043946201
 20
209.6738980645
  0
VERTEX
  8
0
 62
7
  6
CONTINUOUS
 10
111.6244206854
 20
209.6896682395
  0
VERTEX
  8
0
 62
7
  6
CONTINUOUS
 10
111.5512993205
 20
209.7051644921
  0
VERTEX
  8
0
 62
7
  6
CONTINUOUS
 10
111.4853069496
 20
209.7199206793
  0
VERTEX
  8
0
 62
7
  6
CONTINUOUS
 10
111.4257403716
 20
209.7337596657
  0
SEQEND
  0
POLYLINE
  8
CURVE
 62
7
  6
CONTINUOUS
 66
1
 70
0
  0
VERTEX
  8
CURVE
 62
7
  6
CONTINUOUS
 10
48.9262252787
 20
209.6027327164
  0
VERTEX
  8
CURVE
 62
7
  6
CONTINUOUS
 10
48.8562041712
 20
209.6034297232
  0
VERTEX
  8
CURVE
 62
7
  6
CONTINUOUS
 10
48.7637289596
 20
209.606478888
  0
VERTEX
  8
CURVE
 62
7
  6
CONTINUOUS
 10
48.6677319983
 20
209.6121827661
  0
VERTEX
  8
CURVE
 62
7
  6
CONTINUOUS
 10
48.5702705226
 20
209.6205713111
  0
VERTEX
  8
CURVE
 62
7
  6
CONTINUOUS
 10
48.4733106115
 20
209.631443468
  0
VERTEX
  8
CURVE
 62
7
  6
CONTINUOUS
 10
48.3785982638
 20
209.6444068254
  0
VERTEX
  8
CURVE
 62
7
  6
CONTINUOUS
 10
48.2876546961
 20
209.6589287693
  0
VERTEX
  8
CURVE
 62
7
  6
CONTINUOUS
 10
48.2017617523
 20
209.6743961754
  0
VERTEX
  8
CURVE
 62
7
  6
CONTINUOUS
 10
48.1219747734
 20
209.6901706553
  0
VERTEX
  8
CURVE
 62
7
  6
CONTINUOUS
 10
48.0490561502
 20
209.7056547958
  0
VERTEX
  8
CURVE
 62
7
  6
CONTINUOUS
 10
47.983238745
 20
209.7203935982
  0
VERTEX
  8
CURVE
 62
7
  6
CONTINUOUS
 10
47.9238137201
 20
209.7342141419
  0
SEQEND
  0
POLYLINE
  8
CURVE
 62
7
  6
CONTINUOUS
 66
1
 70
0
  0
VERTEX
  8
CURVE
 62
7
  6
CONTINUOUS
 10
74.3262252787
 20
209.6027327164
  0
VERTEX
  8
CURVE
 62
7
  6
CONTINUOUS
 10
74.2562041712
 20
209.6034297232
  0
VERTEX
  8
CURVE
 62
7
  6
CONTINUOUS
 10
74.1637289596
 20
209.606478888
  0
VERTEX
  8
CURVE
 62
7
  6
CONTINUOUS
 10
74.0677319983
 20
209.6121827661
  0
VERTEX
  8
CURVE
 62
7
  6
CONTINUOUS
 10
73.9702705226
 20
209.6205713111
  0
VERTEX
  8
CURVE
 62
7
  6
CONTINUOUS
 10
73.8733106115
 20
209.631443468
  0
VERTEX
  8
CURVE
 62
7
  6
CONTINUOUS
 10
73.7785982638
 20
209.6444068254
  0
VERTEX
  8
CURVE
 62
7
  6
CONTINUOUS
 10
73.6876546961
 20
209.6589287693
  0
VERTEX
  8
CURVE
 62
7
  6
CONTINUOUS
 10
73.6017617524
 20
209.6743961754
  0
VERTEX
  8
CURVE
 62
7
  6
CONTINUOUS
 10
73.5219747734
 20
209.6901706553
  0
VERTEX
  8
CURVE
 62
7
  6
CONTINUOUS
 10
73.4490561502
 20
209.7056547958
  0
VERTEX
  8
CURVE
 62
7
  6
CONTINUOUS
 10
73.383238745
 20
209.7203935982
  0
VERTEX
  8
CURVE
 62
7
  6
CONTINUOUS
 10
73.3238137201
 20
209.7342141419
  0
SEQEND
  0
POLYLINE
  8
0
 62
7
  6
CONTINUOUS
 66
1
 70
0
  0
VERTEX
  8
0
 62
7
  6
CONTINUOUS
 10
99.7281465964
 20
209.5312620514
  0
VERTEX
  8
0
 62
7
  6
CONTINUOUS
 10
99.6545953295
 20
209.5321534585
  0
VERTEX
  8
0
 62
7
  6
CONTINUOUS
 10
99.5638175571
 20
209.5357016174
  0
VERTEX
  8
0
 62
7
  6
CONTINUOUS
 10
99.4722608097
 20
209.5419893547
  0
VERTEX
  8
0
 62
7
  6
CONTINUOUS
 10
99.378807307
 20
209.5511571523
  0
VERTEX
  8
0
 62
7
  6
CONTINUOUS
 10
99.2824695633
 20
209.5634312046
  0
VERTEX
  8
0
 62
7
  6
CONTINUOUS
 10
99.1825373571
 20
209.5790712709
  0
VERTEX
  8
0
 62
7
  6
CONTINUOUS
 10
99.0821547325
 20
209.5976068236
  0
VERTEX
  8
0
 62
7
  6
CONTINUOUS
 10
98.9917754396
 20
209.616558649
  0
VERTEX
  8
0
 62
7
  6
CONTINUOUS
 10
98.9112191934
 20
209.6351166213
  0
VERTEX
  8
0
 62
7
  6
CONTINUOUS
 10
98.8383696176
 20
209.6531269454
  0
VERTEX
  8
0
 62
7
  6
CONTINUOUS
 10
98.7714159912
 20
209.6705934206
  0
VERTEX
  8
0
 62
7
  6
CONTINUOUS
 10
98.7094467647
 20
209.6874301771
  0
VERTEX
  8
0
 62
7
  6
CONTINUOUS
 10
98.6522958422
 20
209.7034221314
  0
SEQEND
  0
POLYLINE
  8
CURVE
 62
7
  6
CONTINUOUS
 66
1
 70
0
  0
VERTEX
  8
CURVE
 62
7
  6
CONTINUOUS
 10
61.6281466008
 20
209.5312619546
  0
VERTEX
  8
CURVE
 62
7
  6
CONTINUOUS
 10
61.5531825077
 20
209.5321879399
  0
VERTEX
  8
CURVE
 62
7
  6
CONTINUOUS
 10
61.4623087332
 20
209.5357832299
  0
VERTEX
  8
CURVE
 62
7
  6
CONTINUOUS
 10
61.3705750098
 20
209.5421303061
  0
VERTEX
  8
CURVE
 62
7
  6
CONTINUOUS
 10
61.2769333631
 20
209.5513688902
  0
VERTEX
  8
CURVE
 62
7
  6
CONTINUOUS
 10
61.1804587786
 20
209.5637172
  0
VERTEX
  8
CURVE
 62
7
  6
CONTINUOUS
 10
61.0804919332
 20
209.579421339
  0
VERTEX
  8
CURVE
 62
7
  6
CONTINUOUS
 10
60.9799604381
 20
209.5980423059
  0
VERTEX
  8
CURVE
 62
7
  6
CONTINUOUS
 10
60.889506164
 20
209.6170606769
  0
VERTEX
  8
CURVE
 62
7
  6
CONTINUOUS
 10
60.8089559311
 20
209.6356592183
  0
VERTEX
  8
CURVE
 62
7
  6
CONTINUOUS
 10
60.7361391263
 20
209.6536953554
  0
VERTEX
  8
CURVE
 62
7
  6
CONTINUOUS
 10
60.6692107529
 20
209.6711822574
  0
VERTEX
  8
CURVE
 62
7
  6
CONTINUOUS
 10
60.6072618365
 20
209.6880340985
  0
VERTEX
  8
CURVE
 62
7
  6
CONTINUOUS
 10
60.5501267955
 20
209.7040362524
  0
SEQEND
  0
POLYLINE
  8
0
 62
7
  6
CONTINUOUS
 66
1
 70
0
  0
VERTEX
  8
0
 62
7
  6
CONTINUOUS
 10
98.4659099372
 20
209.7568837373
  0
VERTEX
  8
0
 62
7
  6
CONTINUOUS
 10
98.427288045
 20
209.7677221093
  0
VERTEX
  8
0
 62
7
  6
CONTINUOUS
 10
98.3905669453
 20
209.77773106
  0
VERTEX
  8
0
 62
7
  6
CONTINUOUS
 10
98.3551137047
 20
209.786994438
  0
VERTEX
  8
0
 62
7
  6
CONTINUOUS
 10
98.3204710248
 20
209.7955368648
  0
VERTEX
  8
0
 62
7
  6
CONTINUOUS
 10
98.2857596556
 20
209.8034534
  0
VERTEX
  8
0
 62
7
  6
CONTINUOUS
 10
98.250511588
 20
209.810691139
  0
VERTEX
  8
0
 62
7
  6
CONTINUOUS
 10
98.2145838134
 20
209.8171037319
  0
VERTEX
  8
0
 62
7
  6
CONTINUOUS
 10
98.1781489364
 20
209.8224898366
  0
VERTEX
  8
0
 62
7
  6
CONTINUOUS
 10
98.1410250999
 20
209.8267216948
  0
VERTEX
  8
0
 62
7
  6
CONTINUOUS
 10
98.1021697166
 20
209.8297126528
  0
VERTEX
  8
0
 62
7
  6
CONTINUOUS
 10
98.0603671498
 20
209.8312148871
  0
VERTEX
  8
0
 62
7
  6
CONTINUOUS
 10
98.0469743364
 20
209.8313097835
  0
SEQEND
  0
LINE
  8
0
 62
7
  6
CONTINUOUS
 10
98.6522958422
 20
209.7034221314
 11
98.4659099372
 21
209.7568837373
  0
LINE
  8
0
 62
7
  6
CONTINUOUS
 10
109.7266056021
 20
201.8813099649
 11
109.7266056021
 21
208.9813099649
  0
POLYLINE
  8
CURVE
 62
7
  6
CONTINUOUS
 66
1
 70
0
  0
VERTEX
  8
CURVE
 62
7
  6
CONTINUOUS
 10
47.7358574378
 20
201.0832231887
  0
VERTEX
  8
CURVE
 62
7
  6
CONTINUOUS
 10
47.925590901
 20
201.1288250219
  0
VERTEX
  8
CURVE
 62
7
  6
CONTINUOUS
 10
47.9851314176
 20
201.1426591374
  0
VERTEX
  8
CURVE
 62
7
  6
CONTINUOUS
 10
48.0510872239
 20
201.1574090914
  0
VERTEX
  8
CURVE
 62
7
  6
CONTINUOUS
 10
48.1241637374
 20
201.1728989658
  0
VERTEX
  8
CURVE
 62
7
  6
CONTINUOUS
 10
48.2040950709
 20
201.1886652927
  0
VERTEX
  8
CURVE
 62
7
  6
CONTINUOUS
 10
48.2900813308
 20
201.2041040036
  0
VERTEX
  8
CURVE
 62
7
  6
CONTINUOUS
 10
48.3810262391
 20
201.2185734691
  0
VERTEX
  8
CURVE
 62
7
  6
CONTINUOUS
 10
48.4756407531
 20
201.2314666242
  0
VERTEX
  8
CURVE
 62
7
  6
CONTINUOUS
 10
48.5724295297
 20
201.2422623331
  0
VERTEX
  8
CURVE
 62
7
  6
CONTINUOUS
 10
48.669681522
 20
201.2505784589
  0
VERTEX
  8
CURVE
 62
7
  6
CONTINUOUS
 10
48.7654723783
 20
201.2562208251
  0
VERTEX
  8
CURVE
 62
7
  6
CONTINUOUS
 10
48.857792379
 20
201.2592214423
  0
VERTEX
  8
CURVE
 62
7
  6
CONTINUOUS
 10
48.9262252782
 20
201.2598872136
  0
SEQEND
  0
POLYLINE
  8
CURVE
 62
7
  6
CONTINUOUS
 66
1
 70
0
  0
VERTEX
  8
CURVE
 62
7
  6
CONTINUOUS
 10
76.1172761605
 20
209.7793783237
  0
VERTEX
  8
CURVE
 62
7
  6
CONTINUOUS
 10
75.9274708326
 20
209.7337596657
  0
VERTEX
  8
CURVE
 62
7
  6
CONTINUOUS
 10
75.8679042545
 20
209.7199206793
  0
VERTEX
  8
CURVE
 62
7
  6
CONTINUOUS
 10
75.8019118836
 20
209.7051644921
  0
VERTEX
  8
CURVE
 62
7
  6
CONTINUOUS
 10
75.7287905187
 20
209.6896682395
  0
VERTEX
  8
CURVE
 62
7
  6
CONTINUOUS
 10
75.6488165841
 20
209.6738980645
  0
VERTEX
  8
CURVE
 62
7
  6
CONTINUOUS
 10
75.5628019981
 20
209.6584602725
  0
VERTEX
  8
CURVE
 62
7
  6
CONTINUOUS
 10
75.4718566199
 20
209.643997843
  0
VERTEX
  8
CURVE
 62
7
  6
CONTINUOUS
 10
75.377272755
 20
209.6311163227
  0
VERTEX
  8
CURVE
 62
7
  6
CONTINUOUS
 10
75.2805390646
 20
209.6203336395
  0
VERTEX
  8
CURVE
 62
7
  6
CONTINUOUS
 10
75.1833572354
 20
209.612028992
  0
VERTEX
  8
CURVE
 62
7
  6
CONTINUOUS
 10
75.0876406991
 20
209.6063946365
  0
VERTEX
  8
CURVE
 62
7
  6
CONTINUOUS
 10
74.9953824701
 20
209.6033977635
  0
VERTEX
  8
CURVE
 62
7
  6
CONTINUOUS
 10
74.9269859284
 20
209.6027327914
  0
SEQEND
  0
LINE
  8
CURVE
 62
7
  6
CONTINUOUS
 10
23.9711724156
 20
209.4555082562
 11
28.2666056021
 21
209.8313099649
  0
LINE
  8
0
 62
7
  6
CONTINUOUS
 10
133.6866056021
 20
209.8313099649
 11
137.9820387885
 21
209.4555082562
  0
POLYLINE
  8
0
 62
7
  6
CONTINUOUS
 66
1
 70
0
  0
VERTEX
  8
0
 62
7
  6
CONTINUOUS
 10
111.2359350436
 20
209.7793783237
  0
VERTEX
  8
0
 62
7
  6
CONTINUOUS
 10
111.1979579306
 20
209.7882960176
  0
VERTEX
  8
0
 62
7
  6
CONTINUOUS
 10
111.1628392301
 20
209.7962630077
  0
VERTEX
  8
0
 62
7
  6
CONTINUOUS
 10
111.1299299778
 20
209.8033639387
  0
VERTEX
  8
0
 62
7
  6
CONTINUOUS
 10
111.0983868833
 20
209.8097174418
  0
VERTEX
  8
0
 62
7
  6
CONTINUOUS
 10
111.0675076243
 20
209.8153781285
  0
VERTEX
  8
0
 62
7
  6
CONTINUOUS
 10
111.0367720395
 20
209.8203357539
  0
VERTEX
  8
0
 62
7
  6
CONTINUOUS
 10
111.005470446
 20
209.8245615575
  0
VERTEX
  8
0
 62
7
  6
CONTINUOUS
 10
110.9733962051
 20
209.827907348
  0
VERTEX
  8
0
 62
7
  6
CONTINUOUS
 10
110.9404661952
 20
209.8302003426
  0
VERTEX
  8
0
 62
7
  6
CONTINUOUS
 10
110.9068032043
 20
209.831257368
  0
VERTEX
  8
0
 62
7
  6
CONTINUOUS
 10
110.8976996984
 20
209.8313097535
  0
SEQEND
  0
LINE
  8
0
 62
7
  6
CONTINUOUS
 10
111.4257403716
 20
209.7337596657
 11
111.2359350436
 21
209.7793783237
  0
LINE
  8
0
 62
7
  6
CONTINUOUS
 10
115.7266056021
 20
208.9813099649
 11
115.7266056021
 21
201.8813099649
  0
POLYLINE
  8
CURVE
 62
7
  6
CONTINUOUS
 66
1
 70
0
  0
VERTEX
  8
CURVE
 62
7
  6
CONTINUOUS
 10
50.7172761605
 20
209.7793783237
  0
VERTEX
  8
CURVE
 62
7
  6
CONTINUOUS
 10
50.5274708326
 20
209.7337596657
  0
VERTEX
  8
CURVE
 62
7
  6
CONTINUOUS
 10
50.4679042545
 20
209.7199206793
  0
VERTEX
  8
CURVE
 62
7
  6
CONTINUOUS
 10
50.4019118836
 20
209.7051644921
  0
VERTEX
  8
CURVE
 62
7
  6
CONTINUOUS
 10
50.3287905187
 20
209.6896682395
  0
VERTEX
  8
CURVE
 62
7
  6
CONTINUOUS
 10
50.248816584
 20
209.6738980645
  0
VERTEX
  8
CURVE
 62
7
  6
CONTINUOUS
 10
50.1628019981
 20
209.6584602725
  0
VERTEX
  8
CURVE
 62
7
  6
CONTINUOUS
 10
50.0718566199
 20
209.643997843
  0
VERTEX
  8
CURVE
 62
7
  6
CONTINUOUS
 10
49.977272755
 20
209.6311163227
  0
VERTEX
  8
CURVE
 62
7
  6
CONTINUOUS
 10
49.8805390646
 20
209.6203336395
  0
VERTEX
  8
CURVE
 62
7
  6
CONTINUOUS
 10
49.7833572354
 20
209.612028992
  0
VERTEX
  8
CURVE
 62
7
  6
CONTINUOUS
 10
49.6876406991
 20
209.6063946365
  0
VERTEX
  8
CURVE
 62
7
  6
CONTINUOUS
 10
49.5953824701
 20
209.6033977635
  0
VERTEX
  8
CURVE
 62
7
  6
CONTINUOUS
 10
49.5269859284
 20
209.6027327914
  0
SEQEND
  0
LINE
  8
0
 62
7
  6
CONTINUOUS
 10
122.4266056021
 20
201.8813099649
 11
122.4266056021
 21
208.9813099649
  0
LINE
  8
0
 62
7
  6
CONTINUOUS
 10
126.0366056021
 20
208.9813099649
 11
126.0366056021
 21
201.8813099649
  0
LINE
  8
0
 62
7
  6
CONTINUOUS
 10
130.0166056021
 20
201.8813099649
 11
130.0166056021
 21
208.9813099649
  0
LINE
  8
0
 62
7
  6
CONTINUOUS
 10
130.7166054071
 20
205.0313132232
 11
130.7166054071
 21
205.8313067067
  0
LINE
  8
0
 62
7
  6
CONTINUOUS
 10
138.1266056021
 20
201.8813110454
 11
138.1266056021
 21
208.9813099649
  0
POLYLINE
  8
CURVE
 62
7
  6
CONTINUOUS
 66
1
 70
0
  0
VERTEX
  8
CURVE
 62
7
  6
CONTINUOUS
 10
23.9711724156
 20
133.5427586205
  0
VERTEX
  8
CURVE
 62
7
  6
CONTINUOUS
 10
23.9764135597
 20
133.3011303383
  0
VERTEX
  8
CURVE
 62
7
  6
CONTINUOUS
 10
23.990318943
 20
133.0877165496
  0
VERTEX
  8
CURVE
 62
7
  6
CONTINUOUS
 10
24.0110829166
 20
132.899378601
  0
VERTEX
  8
CURVE
 62
7
  6
CONTINUOUS
 10
24.0376267552
 20
132.733100101
  0
VERTEX
  8
CURVE
 62
7
  6
CONTINUOUS
 10
24.0692746716
 20
132.5861592217
  0
VERTEX
  8
CURVE
 62
7
  6
CONTINUOUS
 10
24.1057641847
 20
132.4557477061
  0
VERTEX
  8
CURVE
 62
7
  6
CONTINUOUS
 10
24.1464889136
 20
132.3412501303
  0
VERTEX
  8
CURVE
 62
7
  6
CONTINUOUS
 10
24.1905376114
 20
132.2425212652
  0
VERTEX
  8
CURVE
 62
7
  6
CONTINUOUS
 10
24.2372256892
 20
132.1585388689
  0
VERTEX
  8
CURVE
 62
7
  6
CONTINUOUS
 10
24.285933562
 20
132.0882468611
  0
VERTEX
  8
CURVE
 62
7
  6
CONTINUOUS
 10
24.3362870676
 20
132.0304493913
  0
VERTEX
  8
CURVE
 62
7
  6
CONTINUOUS
 10
24.3867716299
 20
131.9851373206
  0
VERTEX
  8
CURVE
 62
7
  6
CONTINUOUS
 10
24.4364550131
 20
131.9512192112
  0
VERTEX
  8
CURVE
 62
7
  6
CONTINUOUS
 10
24.4846638684
 20
131.9273591469
  0
VERTEX
  8
CURVE
 62
7
  6
CONTINUOUS
 10
24.5313245627
 20
131.9120875954
  0
VERTEX
  8
CURVE
 62
7
  6
CONTINUOUS
 10
24.5783825148
 20
131.9040499551
  0
VERTEX
  8
CURVE
 62
7
  6
CONTINUOUS
 10
24.6269042963
 20
131.9032429211
  0
VERTEX
  8
CURVE
 62
7
  6
CONTINUOUS
 10
24.6766056021
 20
131.9101861386
  0
SEQEND
  0
LINE
  8
CURVE
 62
7
  6
CONTINUOUS
 10
23.8266056021
 20
129.9927586207
 11
23.8266056021
 21
148.3227586207
  0
LINE
  8
CURVE
 62
7
  6
CONTINUOUS
 10
23.9711724156
 20
133.5427586205
 11
23.9711724156
 21
144.7727586207
  0
POLYLINE
  8
CURVE
 62
7
  6
CONTINUOUS
 66
1
 70
0
  0
VERTEX
  8
CURVE
 62
7
  6
CONTINUOUS
 10
31.9366056021
 20
126.1427586207
  0
VERTEX
  8
CURVE
 62
7
  6
CONTINUOUS
 10
31.9275243983
 20
126.375272347
  0
VERTEX
  8
CURVE
 62
7
  6
CONTINUOUS
 10
31.9002382157
 20
126.6077081862
  0
VERTEX
  8
CURVE
 62
7
  6
CONTINUOUS
 10
31.8549275156
 20
126.8376173416
  0
VERTEX
  8
CURVE
 62
7
  6
CONTINUOUS
 10
31.792149829
 20
127.0624086099
  0
VERTEX
  8
CURVE
 62
7
  6
CONTINUOUS
 10
31.7123958332
 20
127.2806854757
  0
VERTEX
  8
CURVE
 62
7
  6
CONTINUOUS
 10
31.6154646833
 20
127.4929976574
  0
VERTEX
  8
CURVE
 62
7
  6
CONTINUOUS
 10
31.5018815196
 20
127.697961448
  0
VERTEX
  8
CURVE
 62
7
  6
CONTINUOUS
 10
31.3728907245
 20
127.8932364642
  0
VERTEX
  8
CURVE
 62
7
  6
CONTINUOUS
 10
31.2299330518
 20
128.0768344228
  0
SEQEND
  0
LINE
  8
CURVE
 62
7
  6
CONTINUOUS
 10
28.2666056021
 20
144.7727586207
 11
28.2666056021
 21
133.5427586207
  0
LINE
  8
CURVE
 62
7
  6
CONTINUOUS
 10
31.236605797
 20
124.5227586207
 11
31.236605797
 21
123.7227586207
  0
LINE
  8
CURVE
 62
7
  6
CONTINUOUS
 10
31.5866056021
 20
134.5527586207
 11
31.5866056021
 21
148.3227586207
  0
LINE
  8
CURVE
 62
7
  6
CONTINUOUS
 10
31.9366056021
 20
115.5227586207
 11
31.9366056021
 21
127.7905220159
  0
LINE
  8
CURVE
 62
7
  6
CONTINUOUS
 10
32.2866056021
 20
140.1227586207
 11
32.2866056021
 21
139.3227586207
  0
POLYLINE
  8
CURVE
 62
7
  6
CONTINUOUS
 66
1
 70
0
  0
VERTEX
  8
CURVE
 62
7
  6
CONTINUOUS
 10
28.2666056021
 20
133.5427586207
  0
VERTEX
  8
CURVE
 62
7
  6
CONTINUOUS
 10
28.2627913897
 20
133.4885695842
  0
VERTEX
  8
CURVE
 62
7
  6
CONTINUOUS
 10
28.2509830601
 20
133.4330958163
  0
VERTEX
  8
CURVE
 62
7
  6
CONTINUOUS
 10
28.2300268079
 20
133.3749736962
  0
VERTEX
  8
CURVE
 62
7
  6
CONTINUOUS
 10
28.1980049114
 20
133.3130203636
  0
VERTEX
  8
CURVE
 62
7
  6
CONTINUOUS
 10
28.1529765442
 20
133.2471504167
  0
VERTEX
  8
CURVE
 62
7
  6
CONTINUOUS
 10
28.0936782829
 20
133.1781932737
  0
VERTEX
  8
CURVE
 62
7
  6
CONTINUOUS
 10
28.0190555478
 20
133.1067313456
  0
VERTEX
  8
CURVE
 62
7
  6
CONTINUOUS
 10
27.9282629843
 20
133.0332354764
  0
VERTEX
  8
CURVE
 62
7
  6
CONTINUOUS
 10
27.820400527
 20
132.9579428912
  0
VERTEX
  8
CURVE
 62
7
  6
CONTINUOUS
 10
27.6944670929
 20
132.880955018
  0
VERTEX
  8
CURVE
 62
7
  6
CONTINUOUS
 10
27.5494277056
 20
132.8023408285
  0
VERTEX
  8
CURVE
 62
7
  6
CONTINUOUS
 10
27.3839350673
 20
132.722024339
  0
VERTEX
  8
CURVE
 62
7
  6
CONTINUOUS
 10
27.1966341423
 20
132.6399804748
  0
VERTEX
  8
CURVE
 62
7
  6
CONTINUOUS
 10
26.9858631049
 20
132.5561033356
  0
VERTEX
  8
CURVE
 62
7
  6
CONTINUOUS
 10
26.7498591163
 20
132.4703152935
  0
VERTEX
  8
CURVE
 62
7
  6
CONTINUOUS
 10
26.4866181892
 20
132.3825167061
  0
VERTEX
  8
CURVE
 62
7
  6
CONTINUOUS
 10
26.1939302992
 20
132.2926103838
  0
VERTEX
  8
CURVE
 62
7
  6
CONTINUOUS
 10
25.8693867641
 20
132.2005094245
  0
VERTEX
  8
CURVE
 62
7
  6
CONTINUOUS
 10
25.5103090569
 20
132.1061227579
  0
VERTEX
  8
CURVE
 62
7
  6
CONTINUOUS
 10
25.1137630008
 20
132.0093677122
  0
VERTEX
  8
CURVE
 62
7
  6
CONTINUOUS
 10
24.6766056021
 20
131.9101861386
  0
SEQEND
  0
LINE
  8
0
 62
7
  6
CONTINUOUS
 10
35.9166056021
 20
115.5227586207
 11
35.9166056021
 21
124.8049445554
  0
POLYLINE
  8
CURVE
 62
7
  6
CONTINUOUS
 66
1
 70
0
  0
VERTEX
  8
CURVE
 62
7
  6
CONTINUOUS
 10
41.7566056021
 20
135.3227262553
  0
VERTEX
  8
CURVE
 62
7
  6
CONTINUOUS
 10
41.7612615079
 20
135.2338803168
  0
VERTEX
  8
CURVE
 62
7
  6
CONTINUOUS
 10
41.775178379
 20
135.1460076229
  0
VERTEX
  8
CURVE
 62
7
  6
CONTINUOUS
 10
41.7982039796
 20
135.060070882
  0
VERTEX
  8
CURVE
 62
7
  6
CONTINUOUS
 10
41.8300862491
 20
134.97701166
  0
VERTEX
  8
CURVE
 62
7
  6
CONTINUOUS
 10
41.8704760451
 20
134.8977400498
  0
VERTEX
  8
CURVE
 62
7
  6
CONTINUOUS
 10
41.9189309556
 20
134.8231246788
  0
VERTEX
  8
CURVE
 62
7
  6
CONTINUOUS
 10
41.9749201407
 20
134.75398317
  0
VERTEX
  8
CURVE
 62
7
  6
CONTINUOUS
 10
42.0378301514
 20
134.6910731594
  0
VERTEX
  8
CURVE
 62
7
  6
CONTINUOUS
 10
42.1069716602
 20
134.6350839742
  0
VERTEX
  8
CURVE
 62
7
  6
CONTINUOUS
 10
42.1815870312
 20
134.5866290637
  0
VERTEX
  8
CURVE
 62
7
  6
CONTINUOUS
 10
42.2608586414
 20
134.5462392678
  0
VERTEX
  8
CURVE
 62
7
  6
CONTINUOUS
 10
42.3439178634
 20
134.5143569982
  0
VERTEX
  8
CURVE
 62
7
  6
CONTINUOUS
 10
42.4298546043
 20
134.4913313977
  0
VERTEX
  8
CURVE
 62
7
  6
CONTINUOUS
 10
42.5177272982
 20
134.4774145265
  0
VERTEX
  8
CURVE
 62
7
  6
CONTINUOUS
 10
42.6065732367
 20
134.4727586207
  0
SEQEND
  0
LINE
  8
CURVE
 62
7
  6
CONTINUOUS
 10
41.7472972984
 20
142.2516177382
 11
41.7439475986
 21
142.4649459451
  0
LINE
  8
CURVE
 62
7
  6
CONTINUOUS
 10
41.7439475986
 20
142.4649459451
 11
41.7409590097
 21
142.7398271123
  0
LINE
  8
CURVE
 62
7
  6
CONTINUOUS
 10
41.7409590097
 20
142.7398271123
 11
41.7384167774
 21
143.0684184519
  0
LINE
  8
CURVE
 62
7
  6
CONTINUOUS
 10
41.7384167774
 20
143.0684184519
 11
41.7363934089
 21
143.4413456106
  0
LINE
  8
CURVE
 62
7
  6
CONTINUOUS
 10
41.7363934089
 20
143.4413456106
 11
41.7349466078
 21
143.8479703277
  0
POLYLINE
  8
CURVE
 62
7
  6
CONTINUOUS
 66
1
 70
0
  0
VERTEX
  8
CURVE
 62
7
  6
CONTINUOUS
 10
41.7349466078
 20
143.8479703277
  0
VERTEX
  8
CURVE
 62
7
  6
CONTINUOUS
 10
41.7341176317
 20
144.2766939421
  0
VERTEX
  8
CURVE
 62
7
  6
CONTINUOUS
 10
41.7339429607
 20
144.4954536275
  0
SEQEND
  0
LINE
  8
0
 62
7
  6
CONTINUOUS
 10
39.5266056021
 20
125.1227586207
 11
39.5266056021
 21
129.2927586207
  0
LINE
  8
CURVE
 62
7
  6
CONTINUOUS
 10
39.8766056021
 20
148.3227566382
 11
39.8766056021
 21
134.5527586207
  0
LINE
  8
CURVE
 62
7
  6
CONTINUOUS
 10
41.7566056021
 20
135.3227262553
 11
41.7566056021
 21
142.0227586207
  0
POLYLINE
  8
CURVE
 62
7
  6
CONTINUOUS
 66
1
 70
0
  0
VERTEX
  8
CURVE
 62
7
  6
CONTINUOUS
 10
41.7434987055
 20
144.6227586207
  0
VERTEX
  8
CURVE
 62
7
  6
CONTINUOUS
 10
41.7381809595
 20
144.5804944366
  0
VERTEX
  8
CURVE
 62
7
  6
CONTINUOUS
 10
41.7349935784
 20
144.5380217035
  0
VERTEX
  8
CURVE
 62
7
  6
CONTINUOUS
 10
41.7339429607
 20
144.4954536275
  0
SEQEND
  0
POLYLINE
  8
CURVE
 62
7
  6
CONTINUOUS
 66
1
 70
0
  0
VERTEX
  8
CURVE
 62
7
  6
CONTINUOUS
 10
44.0192682434
 20
144.4954536275
  0
VERTEX
  8
CURVE
 62
7
  6
CONTINUOUS
 10
44.0182175962
 20
144.5380222954
  0
VERTEX
  8
CURVE
 62
7
  6
CONTINUOUS
 10
44.0150301815
 20
144.5804950652
  0
VERTEX
  8
CURVE
 62
7
  6
CONTINUOUS
 10
44.0097124986
 20
144.6227586207
  0
SEQEND
  0
LINE
  8
CURVE
 62
7
  6
CONTINUOUS
 10
43.9966056021
 20
142.0227586207
 11
43.9966056021
 21
135.3227262553
  0
LINE
  8
CURVE
 62
7
  6
CONTINUOUS
 10
45.8766056021
 20
134.5527586207
 11
45.8766056021
 21
148.3227586207
  0
LINE
  8
CURVE
 62
7
  6
CONTINUOUS
 10
46.2266056021
 20
129.2927586207
 11
46.2266056021
 21
115.5227586207
  0
LINE
  8
CURVE
 62
7
  6
CONTINUOUS
 10
44.0182645963
 20
143.8479703277
 11
44.0192682434
 21
144.4954536275
  0
LINE
  8
CURVE
 62
7
  6
CONTINUOUS
 10
44.0168177952
 20
143.4413456106
 11
44.0182645963
 21
143.8479703277
  0
LINE
  8
CURVE
 62
7
  6
CONTINUOUS
 10
44.0147944267
 20
143.0684184519
 11
44.0168177952
 21
143.4413456106
  0
LINE
  8
CURVE
 62
7
  6
CONTINUOUS
 10
44.0122521944
 20
142.7398271123
 11
44.0147944267
 21
143.0684184519
  0
LINE
  8
CURVE
 62
7
  6
CONTINUOUS
 10
44.0092636055
 20
142.4649459451
 11
44.0122521944
 21
142.7398271123
  0
POLYLINE
  8
CURVE
 62
7
  6
CONTINUOUS
 66
1
 70
0
  0
VERTEX
  8
CURVE
 62
7
  6
CONTINUOUS
 10
43.9966056021
 20
142.0227586207
  0
VERTEX
  8
CURVE
 62
7
  6
CONTINUOUS
 10
43.9985209719
 20
142.0320388969
  0
VERTEX
  8
CURVE
 62
7
  6
CONTINUOUS
 10
44.0004234501
 20
142.0598287638
  0
VERTEX
  8
CURVE
 62
7
  6
CONTINUOUS
 10
44.002298649
 20
142.1059296022
  0
VERTEX
  8
CURVE
 62
7
  6
CONTINUOUS
 10
44.00413317
 20
142.1700119243
  0
VERTEX
  8
CURVE
 62
7
  6
CONTINUOUS
 10
44.0059139057
 20
142.2516177382
  0
VERTEX
  8
CURVE
 62
7
  6
CONTINUOUS
 10
44.0092636055
 20
142.4649459451
  0
SEQEND
  0
POLYLINE
  8
CURVE
 62
7
  6
CONTINUOUS
 66
1
 70
0
  0
VERTEX
  8
CURVE
 62
7
  6
CONTINUOUS
 10
31.2299330518
 20
128.0768344228
  0
VERTEX
  8
CURVE
 62
7
  6
CONTINUOUS
 10
31.0838706393
 20
128.2377931227
  0
VERTEX
  8
CURVE
 62
7
  6
CONTINUOUS
 10
30.9262248941
 20
128.3880496812
  0
VERTEX
  8
CURVE
 62
7
  6
CONTINUOUS
 10
30.7584455012
 20
128.5262223569
  0
VERTEX
  8
CURVE
 62
7
  6
CONTINUOUS
 10
30.5810849336
 20
128.6518627369
  0
VERTEX
  8
CURVE
 62
7
  6
CONTINUOUS
 10
30.394723133
 20
128.7645536502
  0
VERTEX
  8
CURVE
 62
7
  6
CONTINUOUS
 10
30.2010763597
 20
128.8632574175
  0
VERTEX
  8
CURVE
 62
7
  6
CONTINUOUS
 10
30.0007804939
 20
128.9476557151
  0
VERTEX
  8
CURVE
 62
7
  6
CONTINUOUS
 10
29.7944888226
 20
129.0174676699
  0
VERTEX
  8
CURVE
 62
7
  6
CONTINUOUS
 10
29.5841010511
 20
129.0720502831
  0
VERTEX
  8
CURVE
 62
7
  6
CONTINUOUS
 10
29.3703099665
 20
129.1112291693
  0
VERTEX
  8
CURVE
 62
7
  6
CONTINUOUS
 10
29.1538145295
 20
129.134871083
  0
VERTEX
  8
CURVE
 62
7
  6
CONTINUOUS
 10
28.9366056021
 20
129.1427586207
  0
SEQEND
  0
POLYLINE
  8
CURVE
 62
7
  6
CONTINUOUS
 66
1
 70
0
  0
VERTEX
  8
CURVE
 62
7
  6
CONTINUOUS
 10
48.0934987055
 20
119.2227586207
  0
VERTEX
  8
CURVE
 62
7
  6
CONTINUOUS
 10
48.1118056175
 20
119.1341464751
  0
VERTEX
  8
CURVE
 62
7
  6
CONTINUOUS
 10
48.1398149521
 20
119.0470658297
  0
VERTEX
  8
CURVE
 62
7
  6
CONTINUOUS
 10
48.1773414935
 20
118.9629496547
  0
VERTEX
  8
CURVE
 62
7
  6
CONTINUOUS
 10
48.2243673838
 20
118.8825101722
  0
VERTEX
  8
CURVE
 62
7
  6
CONTINUOUS
 10
48.2801936699
 20
118.8074071229
  0
VERTEX
  8
CURVE
 62
7
  6
CONTINUOUS
 10
48.3437820413
 20
118.7390674714
  0
VERTEX
  8
CURVE
 62
7
  6
CONTINUOUS
 10
48.4147721817
 20
118.6778931238
  0
VERTEX
  8
CURVE
 62
7
  6
CONTINUOUS
 10
48.492467824
 20
118.6246508479
  0
VERTEX
  8
CURVE
 62
7
  6
CONTINUOUS
 10
48.5753206587
 20
118.5804288483
  0
VERTEX
  8
CURVE
 62
7
  6
CONTINUOUS
 10
48.661898146
 20
118.5458055269
  0
VERTEX
  8
CURVE
 62
7
  6
CONTINUOUS
 10
48.7518567724
 20
118.5208151792
  0
VERTEX
  8
CURVE
 62
7
  6
CONTINUOUS
 10
48.8434905125
 20
118.5058627748
  0
VERTEX
  8
CURVE
 62
7
  6
CONTINUOUS
 10
48.9347752613
 20
118.5009606454
  0
SEQEND
  0
POLYLINE
  8
CURVE
 62
7
  6
CONTINUOUS
 66
1
 70
0
  0
VERTEX
  8
CURVE
 62
7
  6
CONTINUOUS
 10
41.7566056021
 20
142.0227586207
  0
VERTEX
  8
CURVE
 62
7
  6
CONTINUOUS
 10
41.7546902323
 20
142.0320388969
  0
VERTEX
  8
CURVE
 62
7
  6
CONTINUOUS
 10
41.752787754
 20
142.0598287638
  0
VERTEX
  8
CURVE
 62
7
  6
CONTINUOUS
 10
41.7509125552
 20
142.1059296022
  0
VERTEX
  8
CURVE
 62
7
  6
CONTINUOUS
 10
41.7490780341
 20
142.1700119243
  0
VERTEX
  8
CURVE
 62
7
  6
CONTINUOUS
 10
41.7472972984
 20
142.2516177382
  0
SEQEND
  0
POLYLINE
  8
CURVE
 62
7
  6
CONTINUOUS
 66
1
 70
0
  0
VERTEX
  8
CURVE
 62
7
  6
CONTINUOUS
 10
48.0839429607
 20
119.3500636139
  0
VERTEX
  8
CURVE
 62
7
  6
CONTINUOUS
 10
48.0849937704
 20
119.3074916854
  0
VERTEX
  8
CURVE
 62
7
  6
CONTINUOUS
 10
48.08818134
 20
119.2650190135
  0
VERTEX
  8
CURVE
 62
7
  6
CONTINUOUS
 10
48.0934987055
 20
119.2227586207
  0
SEQEND
  0
POLYLINE
  8
CURVE
 62
7
  6
CONTINUOUS
 66
1
 70
0
  0
VERTEX
  8
CURVE
 62
7
  6
CONTINUOUS
 10
50.3559139057
 20
121.5938995025
  0
VERTEX
  8
CURVE
 62
7
  6
CONTINUOUS
 10
50.35413317
 20
121.6755053165
  0
VERTEX
  8
CURVE
 62
7
  6
CONTINUOUS
 10
50.352298649
 20
121.7395876388
  0
VERTEX
  8
CURVE
 62
7
  6
CONTINUOUS
 10
50.3504234501
 20
121.7856884774
  0
VERTEX
  8
CURVE
 62
7
  6
CONTINUOUS
 10
50.3485209719
 20
121.8134783444
  0
VERTEX
  8
CURVE
 62
7
  6
CONTINUOUS
 10
50.3466056021
 20
121.8227586207
  0
SEQEND
  0
LINE
  8
CURVE
 62
7
  6
CONTINUOUS
 10
50.3592636055
 20
121.3805712956
 11
50.3559139057
 21
121.5938995025
  0
LINE
  8
CURVE
 62
7
  6
CONTINUOUS
 10
50.3622521944
 20
121.1056901289
 11
50.3592636055
 21
121.3805712956
  0
LINE
  8
CURVE
 62
7
  6
CONTINUOUS
 10
50.3647944267
 20
120.77709879
 11
50.3622521944
 21
121.1056901289
  0
LINE
  8
CURVE
 62
7
  6
CONTINUOUS
 10
50.3668177952
 20
120.4041716318
 11
50.3647944267
 21
120.77709879
  0
LINE
  8
CURVE
 62
7
  6
CONTINUOUS
 10
50.3682645963
 20
119.9975469149
 11
50.3668177952
 21
120.4041716318
  0
POLYLINE
  8
CURVE
 62
7
  6
CONTINUOUS
 66
1
 70
0
  0
VERTEX
  8
CURVE
 62
7
  6
CONTINUOUS
 10
50.3692682434
 20
119.3500636139
  0
VERTEX
  8
CURVE
 62
7
  6
CONTINUOUS
 10
50.3690935724
 20
119.5688233
  0
VERTEX
  8
CURVE
 62
7
  6
CONTINUOUS
 10
50.3682645963
 20
119.9975469149
  0
SEQEND
  0
LINE
  8
CURVE
 62
7
  6
CONTINUOUS
 10
48.1066056021
 20
121.8227586207
 11
48.1066056021
 21
128.5227909861
  0
LINE
  8
CURVE
 62
7
  6
CONTINUOUS
 10
50.3466056021
 20
128.5227909861
 11
50.3466056021
 21
121.8227586207
  0
LINE
  8
CURVE
 62
7
  6
CONTINUOUS
 10
52.2266056021
 20
115.5227586207
 11
52.2266056021
 21
129.2927586207
  0
LINE
  8
CURVE
 62
7
  6
CONTINUOUS
 10
48.0839429607
 20
119.3500636139
 11
48.0844529909
 21
119.7851939346
  0
LINE
  8
CURVE
 62
7
  6
CONTINUOUS
 10
48.0844529909
 20
119.7851939346
 11
48.0855949572
 21
120.2043652964
  0
LINE
  8
CURVE
 62
7
  6
CONTINUOUS
 10
48.0855949572
 20
120.2043652964
 11
48.0873362603
 21
120.5955385179
  0
LINE
  8
CURVE
 62
7
  6
CONTINUOUS
 10
48.0873362603
 20
120.5955385179
 11
48.0896272426
 21
120.9475552884
  0
LINE
  8
CURVE
 62
7
  6
CONTINUOUS
 10
48.0896272426
 20
120.9475552884
 11
48.0924025657
 21
121.2503734103
  0
POLYLINE
  8
CURVE
 62
7
  6
CONTINUOUS
 66
1
 70
0
  0
VERTEX
  8
CURVE
 62
7
  6
CONTINUOUS
 10
48.0924025657
 20
121.2503734103
  0
VERTEX
  8
CURVE
 62
7
  6
CONTINUOUS
 10
48.0955830708
 20
121.4953534104
  0
VERTEX
  8
CURVE
 62
7
  6
CONTINUOUS
 10
48.0972972984
 20
121.5938995025
  0
VERTEX
  8
CURVE
 62
7
  6
CONTINUOUS
 10
48.0990780341
 20
121.6755053165
  0
VERTEX
  8
CURVE
 62
7
  6
CONTINUOUS
 10
48.1009125551
 20
121.7395876388
  0
VERTEX
  8
CURVE
 62
7
  6
CONTINUOUS
 10
48.102787754
 20
121.7856884774
  0
VERTEX
  8
CURVE
 62
7
  6
CONTINUOUS
 10
48.1046902322
 20
121.8134783444
  0
VERTEX
  8
CURVE
 62
7
  6
CONTINUOUS
 10
48.1066056021
 20
121.8227586207
  0
SEQEND
  0
POLYLINE
  8
CURVE
 62
7
  6
CONTINUOUS
 66
1
 70
0
  0
VERTEX
  8
CURVE
 62
7
  6
CONTINUOUS
 10
50.3597124986
 20
119.2227586207
  0
VERTEX
  8
CURVE
 62
7
  6
CONTINUOUS
 10
50.3650299266
 20
119.2650196362
  0
VERTEX
  8
CURVE
 62
7
  6
CONTINUOUS
 10
50.3682174637
 20
119.3074922867
  0
VERTEX
  8
CURVE
 62
7
  6
CONTINUOUS
 10
50.3692682434
 20
119.3500636139
  0
SEQEND
  0
LINE
  8
CURVE
 62
7
  6
CONTINUOUS
 10
39.430897525
 20
133.2941178386
 11
39.3499379171
 21
133.194141049
  0
LINE
  8
CURVE
 62
7
  6
CONTINUOUS
 10
32.1132732881
 20
133.1941410477
 11
32.0323136791
 21
133.2941178386
  0
POLYLINE
  8
CURVE
 62
7
  6
CONTINUOUS
 66
1
 70
0
  0
VERTEX
  8
CURVE
 62
7
  6
CONTINUOUS
 10
44.0097124986
 20
144.6227586207
  0
VERTEX
  8
CURVE
 62
7
  6
CONTINUOUS
 10
43.9914204379
 20
144.7113142874
  0
VERTEX
  8
CURVE
 62
7
  6
CONTINUOUS
 10
43.9634298036
 20
144.7983636542
  0
VERTEX
  8
CURVE
 62
7
  6
CONTINUOUS
 10
43.9259145674
 20
144.8824801402
  0
VERTEX
  8
CURVE
 62
7
  6
CONTINUOUS
 10
43.8788914965
 20
144.9629349262
  0
VERTEX
  8
CURVE
 62
7
  6
CONTINUOUS
 10
43.823061821
 20
145.038056933
  0
VERTEX
  8
CURVE
 62
7
  6
CONTINUOUS
 10
43.7594830832
 20
145.1063978542
  0
VERTEX
  8
CURVE
 62
7
  6
CONTINUOUS
 10
43.6884764208
 20
145.1675953217
  0
VERTEX
  8
CURVE
 62
7
  6
CONTINUOUS
 10
43.6107771299
 20
145.2208459121
  0
VERTEX
  8
CURVE
 62
7
  6
CONTINUOUS
 10
43.527924417
 20
145.2650726466
  0
VERTEX
  8
CURVE
 62
7
  6
CONTINUOUS
 10
43.4413374956
 20
145.2997034601
  0
VERTEX
  8
CURVE
 62
7
  6
CONTINUOUS
 10
43.3513738888
 20
145.3246977884
  0
VERTEX
  8
CURVE
 62
7
  6
CONTINUOUS
 10
43.2597322699
 20
145.3396532194
  0
VERTEX
  8
CURVE
 62
7
  6
CONTINUOUS
 10
43.1684359428
 20
145.344556596
  0
SEQEND
  0
POLYLINE
  8
CURVE
 62
7
  6
CONTINUOUS
 66
1
 70
0
  0
VERTEX
  8
CURVE
 62
7
  6
CONTINUOUS
 10
54.4566056021
 20
135.3227262553
  0
VERTEX
  8
CURVE
 62
7
  6
CONTINUOUS
 10
54.4612615079
 20
135.2338803168
  0
VERTEX
  8
CURVE
 62
7
  6
CONTINUOUS
 10
54.475178379
 20
135.1460076229
  0
VERTEX
  8
CURVE
 62
7
  6
CONTINUOUS
 10
54.4982039796
 20
135.060070882
  0
VERTEX
  8
CURVE
 62
7
  6
CONTINUOUS
 10
54.5300862491
 20
134.97701166
  0
VERTEX
  8
CURVE
 62
7
  6
CONTINUOUS
 10
54.5704760451
 20
134.8977400498
  0
VERTEX
  8
CURVE
 62
7
  6
CONTINUOUS
 10
54.6189309556
 20
134.8231246788
  0
VERTEX
  8
CURVE
 62
7
  6
CONTINUOUS
 10
54.6749201407
 20
134.75398317
  0
VERTEX
  8
CURVE
 62
7
  6
CONTINUOUS
 10
54.7378301514
 20
134.6910731594
  0
VERTEX
  8
CURVE
 62
7
  6
CONTINUOUS
 10
54.8069716602
 20
134.6350839742
  0
VERTEX
  8
CURVE
 62
7
  6
CONTINUOUS
 10
54.8815870312
 20
134.5866290637
  0
VERTEX
  8
CURVE
 62
7
  6
CONTINUOUS
 10
54.9608586414
 20
134.5462392678
  0
VERTEX
  8
CURVE
 62
7
  6
CONTINUOUS
 10
55.0439178634
 20
134.5143569982
  0
VERTEX
  8
CURVE
 62
7
  6
CONTINUOUS
 10
55.1298546043
 20
134.4913313977
  0
VERTEX
  8
CURVE
 62
7
  6
CONTINUOUS
 10
55.2177272982
 20
134.4774145265
  0
VERTEX
  8
CURVE
 62
7
  6
CONTINUOUS
 10
55.3065732367
 20
134.4727586207
  0
SEQEND
  0
POLYLINE
  8
CURVE
 62
7
  6
CONTINUOUS
 66
1
 70
0
  0
VERTEX
  8
CURVE
 62
7
  6
CONTINUOUS
 10
56.7192682434
 20
144.4954536275
  0
VERTEX
  8
CURVE
 62
7
  6
CONTINUOUS
 10
56.7182175962
 20
144.5380222954
  0
VERTEX
  8
CURVE
 62
7
  6
CONTINUOUS
 10
56.7150301815
 20
144.5804950652
  0
VERTEX
  8
CURVE
 62
7
  6
CONTINUOUS
 10
56.7097124986
 20
144.6227586207
  0
SEQEND
  0
LINE
  8
CURVE
 62
7
  6
CONTINUOUS
 10
54.4472972984
 20
142.2516177382
 11
54.4439475986
 21
142.4649459451
  0
LINE
  8
CURVE
 62
7
  6
CONTINUOUS
 10
54.4439475986
 20
142.4649459451
 11
54.4409590097
 21
142.7398271123
  0
LINE
  8
CURVE
 62
7
  6
CONTINUOUS
 10
54.4409590097
 20
142.7398271123
 11
54.4384167774
 21
143.0684184519
  0
LINE
  8
CURVE
 62
7
  6
CONTINUOUS
 10
54.4384167774
 20
143.0684184519
 11
54.4363934089
 21
143.4413456106
  0
LINE
  8
CURVE
 62
7
  6
CONTINUOUS
 10
54.4363934089
 20
143.4413456106
 11
54.4349466078
 21
143.8479703277
  0
POLYLINE
  8
CURVE
 62
7
  6
CONTINUOUS
 66
1
 70
0
  0
VERTEX
  8
CURVE
 62
7
  6
CONTINUOUS
 10
54.4349466078
 20
143.8479703277
  0
VERTEX
  8
CURVE
 62
7
  6
CONTINUOUS
 10
54.4341176317
 20
144.2766939421
  0
VERTEX
  8
CURVE
 62
7
  6
CONTINUOUS
 10
54.4339429607
 20
144.4954536275
  0
SEQEND
  0
LINE
  8
CURVE
 62
7
  6
CONTINUOUS
 10
52.5766056021
 20
148.3227566382
 11
52.5766056021
 21
134.5527586207
  0
LINE
  8
CURVE
 62
7
  6
CONTINUOUS
 10
54.4566056021
 20
135.3227262553
 11
54.4566056021
 21
142.0227586207
  0
LINE
  8
CURVE
 62
7
  6
CONTINUOUS
 10
56.6966056021
 20
142.0227586207
 11
56.6966056021
 21
135.3227262553
  0
LINE
  8
CURVE
 62
7
  6
CONTINUOUS
 10
56.7182645963
 20
143.8479703277
 11
56.7192682434
 21
144.4954536275
  0
LINE
  8
CURVE
 62
7
  6
CONTINUOUS
 10
56.7168177952
 20
143.4413456106
 11
56.7182645963
 21
143.8479703277
  0
LINE
  8
CURVE
 62
7
  6
CONTINUOUS
 10
56.7147944267
 20
143.0684184519
 11
56.7168177952
 21
143.4413456106
  0
LINE
  8
CURVE
 62
7
  6
CONTINUOUS
 10
56.7122521944
 20
142.7398271123
 11
56.7147944267
 21
143.0684184519
  0
LINE
  8
CURVE
 62
7
  6
CONTINUOUS
 10
56.7092636055
 20
142.4649459451
 11
56.7122521944
 21
142.7398271123
  0
POLYLINE
  8
CURVE
 62
7
  6
CONTINUOUS
 66
1
 70
0
  0
VERTEX
  8
CURVE
 62
7
  6
CONTINUOUS
 10
54.4434987055
 20
144.6227586207
  0
VERTEX
  8
CURVE
 62
7
  6
CONTINUOUS
 10
54.4381809595
 20
144.5804944366
  0
VERTEX
  8
CURVE
 62
7
  6
CONTINUOUS
 10
54.4349935784
 20
144.5380217035
  0
VERTEX
  8
CURVE
 62
7
  6
CONTINUOUS
 10
54.4339429607
 20
144.4954536275
  0
SEQEND
  0
POLYLINE
  8
CURVE
 62
7
  6
CONTINUOUS
 66
1
 70
0
  0
VERTEX
  8
CURVE
 62
7
  6
CONTINUOUS
 10
56.6966056021
 20
142.0227586207
  0
VERTEX
  8
CURVE
 62
7
  6
CONTINUOUS
 10
56.6985209719
 20
142.0320388969
  0
VERTEX
  8
CURVE
 62
7
  6
CONTINUOUS
 10
56.7004234501
 20
142.0598287638
  0
VERTEX
  8
CURVE
 62
7
  6
CONTINUOUS
 10
56.702298649
 20
142.1059296022
  0
VERTEX
  8
CURVE
 62
7
  6
CONTINUOUS
 10
56.70413317
 20
142.1700119243
  0
VERTEX
  8
CURVE
 62
7
  6
CONTINUOUS
 10
56.7059139057
 20
142.2516177382
  0
VERTEX
  8
CURVE
 62
7
  6
CONTINUOUS
 10
56.7092636055
 20
142.4649459451
  0
SEQEND
  0
LINE
  8
CURVE
 62
7
  6
CONTINUOUS
 10
39.9723136791
 20
130.5513994028
 11
40.0532732875
 21
130.651376193
  0
LINE
  8
CURVE
 62
7
  6
CONTINUOUS
 10
45.6999379174
 20
130.6513761919
 11
45.780897525
 21
130.5513994028
  0
POLYLINE
  8
CURVE
 62
7
  6
CONTINUOUS
 66
1
 70
0
  0
VERTEX
  8
CURVE
 62
7
  6
CONTINUOUS
 10
54.4566056021
 20
142.0227586207
  0
VERTEX
  8
CURVE
 62
7
  6
CONTINUOUS
 10
54.4546902323
 20
142.0320388969
  0
VERTEX
  8
CURVE
 62
7
  6
CONTINUOUS
 10
54.452787754
 20
142.0598287638
  0
VERTEX
  8
CURVE
 62
7
  6
CONTINUOUS
 10
54.4509125552
 20
142.1059296022
  0
VERTEX
  8
CURVE
 62
7
  6
CONTINUOUS
 10
54.4490780341
 20
142.1700119243
  0
VERTEX
  8
CURVE
 62
7
  6
CONTINUOUS
 10
54.4472972984
 20
142.2516177382
  0
SEQEND
  0
POLYLINE
  8
CURVE
 62
7
  6
CONTINUOUS
 66
1
 70
0
  0
VERTEX
  8
CURVE
 62
7
  6
CONTINUOUS
 10
60.7839429607
 20
119.3500636139
  0
VERTEX
  8
CURVE
 62
7
  6
CONTINUOUS
 10
60.7849937704
 20
119.3074916854
  0
VERTEX
  8
CURVE
 62
7
  6
CONTINUOUS
 10
60.78818134
 20
119.2650190135
  0
VERTEX
  8
CURVE
 62
7
  6
CONTINUOUS
 10
60.7934987055
 20
119.2227586207
  0
SEQEND
  0
LINE
  8
CURVE
 62
7
  6
CONTINUOUS
 10
58.5766056021
 20
134.5527586207
 11
58.5766056021
 21
148.3227586207
  0
LINE
  8
CURVE
 62
7
  6
CONTINUOUS
 10
58.9266056021
 20
129.2927586207
 11
58.9266056021
 21
115.5227586207
  0
LINE
  8
CURVE
 62
7
  6
CONTINUOUS
 10
60.8066056021
 20
128.5227909861
 11
60.8066056021
 21
121.8227586207
  0
LINE
  8
CURVE
 62
7
  6
CONTINUOUS
 10
61.1604553288
 20
121.8227586207
 11
61.1604553288
 21
128.5227909861
  0
LINE
  8
CURVE
 62
7
  6
CONTINUOUS
 10
60.7839429607
 20
119.3500636139
 11
60.7844529909
 21
119.7851939346
  0
LINE
  8
CURVE
 62
7
  6
CONTINUOUS
 10
61.1383927423
 20
119.8298822882
 11
61.1378032482
 21
119.3727262553
  0
LINE
  8
CURVE
 62
7
  6
CONTINUOUS
 10
60.7844529909
 20
119.7851939346
 11
60.7855949572
 21
120.2043652964
  0
LINE
  8
CURVE
 62
7
  6
CONTINUOUS
 10
61.1396796093
 20
120.2679619998
 11
61.1383927423
 21
119.8298822882
  0
LINE
  8
CURVE
 62
7
  6
CONTINUOUS
 10
60.7855949572
 20
120.2043652964
 11
60.7873362603
 21
120.5955385179
  0
LINE
  8
CURVE
 62
7
  6
CONTINUOUS
 10
61.1416231331
 20
120.6730090892
 11
61.1396796093
 21
120.2679619998
  0
LINE
  8
CURVE
 62
7
  6
CONTINUOUS
 10
60.7873362603
 20
120.5955385179
 11
60.7896272426
 21
120.9475552884
  0
LINE
  8
CURVE
 62
7
  6
CONTINUOUS
 10
61.1441619014
 20
121.032221175
 11
61.1416231331
 21
120.6730090892
  0
LINE
  8
CURVE
 62
7
  6
CONTINUOUS
 10
60.7896272426
 20
120.9475552884
 11
60.7924025657
 21
121.2503734103
  0
LINE
  8
CURVE
 62
7
  6
CONTINUOUS
 10
61.1472156857
 20
121.3342435679
 11
61.1441619014
 21
121.032221175
  0
POLYLINE
  8
CURVE
 62
7
  6
CONTINUOUS
 66
1
 70
0
  0
VERTEX
  8
CURVE
 62
7
  6
CONTINUOUS
 10
60.7924025657
 20
121.2503734103
  0
VERTEX
  8
CURVE
 62
7
  6
CONTINUOUS
 10
60.7955830708
 20
121.4953534104
  0
VERTEX
  8
CURVE
 62
7
  6
CONTINUOUS
 10
60.7972972984
 20
121.5938995025
  0
VERTEX
  8
CURVE
 62
7
  6
CONTINUOUS
 10
60.7990780341
 20
121.6755053165
  0
VERTEX
  8
CURVE
 62
7
  6
CONTINUOUS
 10
60.8009125551
 20
121.7395876388
  0
VERTEX
  8
CURVE
 62
7
  6
CONTINUOUS
 10
60.802787754
 20
121.7856884774
  0
VERTEX
  8
CURVE
 62
7
  6
CONTINUOUS
 10
60.8046902322
 20
121.8134783444
  0
VERTEX
  8
CURVE
 62
7
  6
CONTINUOUS
 10
60.8066056021
 20
121.8227586207
  0
SEQEND
  0
POLYLINE
  8
CURVE
 62
7
  6
CONTINUOUS
 66
1
 70
0
  0
VERTEX
  8
CURVE
 62
7
  6
CONTINUOUS
 10
61.1604553288
 20
128.5227909861
  0
VERTEX
  8
CURVE
 62
7
  6
CONTINUOUS
 10
61.1640599546
 20
128.582495032
  0
VERTEX
  8
CURVE
 62
7
  6
CONTINUOUS
 10
61.1748439778
 20
128.6414105736
  0
VERTEX
  8
CURVE
 62
7
  6
CONTINUOUS
 10
61.1926492878
 20
128.6986046626
  0
VERTEX
  8
CURVE
 62
7
  6
CONTINUOUS
 10
61.2172722332
 20
128.7533365318
  0
VERTEX
  8
CURVE
 62
7
  6
CONTINUOUS
 10
61.248246491
 20
128.8045836903
  0
VERTEX
  8
CURVE
 62
7
  6
CONTINUOUS
 10
61.2852416629
 20
128.8518065797
  0
VERTEX
  8
CURVE
 62
7
  6
CONTINUOUS
 10
61.3275576431
 20
128.8941225598
  0
VERTEX
  8
CURVE
 62
7
  6
CONTINUOUS
 10
61.3747805324
 20
128.9311177318
  0
VERTEX
  8
CURVE
 62
7
  6
CONTINUOUS
 10
61.4260276909
 20
128.9620919895
  0
VERTEX
  8
CURVE
 62
7
  6
CONTINUOUS
 10
61.4807595601
 20
128.9867149349
  0
VERTEX
  8
CURVE
 62
7
  6
CONTINUOUS
 10
61.5379536492
 20
129.0045202449
  0
VERTEX
  8
CURVE
 62
7
  6
CONTINUOUS
 10
61.5968691907
 20
129.0153042681
  0
VERTEX
  8
CURVE
 62
7
  6
CONTINUOUS
 10
61.6565732367
 20
129.018908894
  0
SEQEND
  0
LINE
  8
CURVE
 62
7
  6
CONTINUOUS
 10
52.130897525
 20
133.2941178386
 11
52.04993792
 21
133.1941410526
  0
LINE
  8
CURVE
 62
7
  6
CONTINUOUS
 10
46.4032732888
 20
133.1941410468
 11
46.3223136791
 21
133.2941178386
  0
POLYLINE
  8
CURVE
 62
7
  6
CONTINUOUS
 66
1
 70
0
  0
VERTEX
  8
CURVE
 62
7
  6
CONTINUOUS
 10
61.1599115268
 20
119.2227586207
  0
VERTEX
  8
CURVE
 62
7
  6
CONTINUOUS
 10
61.147625251
 20
119.272075464
  0
VERTEX
  8
CURVE
 62
7
  6
CONTINUOUS
 10
61.1402418005
 20
119.3222673968
  0
VERTEX
  8
CURVE
 62
7
  6
CONTINUOUS
 10
61.1378032482
 20
119.3727262553
  0
SEQEND
  0
POLYLINE
  8
CURVE
 62
7
  6
CONTINUOUS
 66
1
 70
0
  0
VERTEX
  8
CURVE
 62
7
  6
CONTINUOUS
 10
60.7934987055
 20
119.2227586207
  0
VERTEX
  8
CURVE
 62
7
  6
CONTINUOUS
 10
60.8118056175
 20
119.1341464751
  0
VERTEX
  8
CURVE
 62
7
  6
CONTINUOUS
 10
60.8398149521
 20
119.0470658297
  0
VERTEX
  8
CURVE
 62
7
  6
CONTINUOUS
 10
60.8773414935
 20
118.9629496547
  0
VERTEX
  8
CURVE
 62
7
  6
CONTINUOUS
 10
60.9243673838
 20
118.8825101722
  0
VERTEX
  8
CURVE
 62
7
  6
CONTINUOUS
 10
60.9801936699
 20
118.8074071229
  0
VERTEX
  8
CURVE
 62
7
  6
CONTINUOUS
 10
61.0437820413
 20
118.7390674714
  0
VERTEX
  8
CURVE
 62
7
  6
CONTINUOUS
 10
61.1147721817
 20
118.6778931238
  0
VERTEX
  8
CURVE
 62
7
  6
CONTINUOUS
 10
61.192467824
 20
118.6246508479
  0
VERTEX
  8
CURVE
 62
7
  6
CONTINUOUS
 10
61.2753206587
 20
118.5804288483
  0
VERTEX
  8
CURVE
 62
7
  6
CONTINUOUS
 10
61.361898146
 20
118.5458055269
  0
VERTEX
  8
CURVE
 62
7
  6
CONTINUOUS
 10
61.4518567724
 20
118.5208151792
  0
VERTEX
  8
CURVE
 62
7
  6
CONTINUOUS
 10
61.5434905125
 20
118.5058627748
  0
VERTEX
  8
CURVE
 62
7
  6
CONTINUOUS
 10
61.6347752613
 20
118.5009606454
  0
SEQEND
  0
POLYLINE
  8
CURVE
 62
7
  6
CONTINUOUS
 66
1
 70
0
  0
VERTEX
  8
CURVE
 62
7
  6
CONTINUOUS
 10
56.7097124986
 20
144.6227586207
  0
VERTEX
  8
CURVE
 62
7
  6
CONTINUOUS
 10
56.6914204379
 20
144.7113142874
  0
VERTEX
  8
CURVE
 62
7
  6
CONTINUOUS
 10
56.6634298036
 20
144.7983636542
  0
VERTEX
  8
CURVE
 62
7
  6
CONTINUOUS
 10
56.6259145674
 20
144.8824801402
  0
VERTEX
  8
CURVE
 62
7
  6
CONTINUOUS
 10
56.5788914965
 20
144.9629349262
  0
VERTEX
  8
CURVE
 62
7
  6
CONTINUOUS
 10
56.523061821
 20
145.038056933
  0
VERTEX
  8
CURVE
 62
7
  6
CONTINUOUS
 10
56.4594830832
 20
145.1063978542
  0
VERTEX
  8
CURVE
 62
7
  6
CONTINUOUS
 10
56.3884764208
 20
145.1675953217
  0
VERTEX
  8
CURVE
 62
7
  6
CONTINUOUS
 10
56.3107771299
 20
145.2208459121
  0
VERTEX
  8
CURVE
 62
7
  6
CONTINUOUS
 10
56.227924417
 20
145.2650726466
  0
VERTEX
  8
CURVE
 62
7
  6
CONTINUOUS
 10
56.1413374956
 20
145.2997034601
  0
VERTEX
  8
CURVE
 62
7
  6
CONTINUOUS
 10
56.0513738888
 20
145.3246977884
  0
VERTEX
  8
CURVE
 62
7
  6
CONTINUOUS
 10
55.9597322699
 20
145.3396532194
  0
VERTEX
  8
CURVE
 62
7
  6
CONTINUOUS
 10
55.8684359428
 20
145.344556596
  0
SEQEND
  0
POLYLINE
  8
CURVE
 62
7
  6
CONTINUOUS
 66
1
 70
0
  0
VERTEX
  8
CURVE
 62
7
  6
CONTINUOUS
 10
62.6927558754
 20
121.8227586207
  0
VERTEX
  8
CURVE
 62
7
  6
CONTINUOUS
 10
62.6947719132
 20
121.8124752161
  0
VERTEX
  8
CURVE
 62
7
  6
CONTINUOUS
 10
62.6967729565
 20
121.7816867073
  0
VERTEX
  8
CURVE
 62
7
  6
CONTINUOUS
 10
62.6987421901
 20
121.7306369616
  0
VERTEX
  8
CURVE
 62
7
  6
CONTINUOUS
 10
62.7006640207
 20
121.6597303269
  0
VERTEX
  8
CURVE
 62
7
  6
CONTINUOUS
 10
62.702523231
 20
121.5695284163
  0
SEQEND
  0
POLYLINE
  8
CURVE
 62
7
  6
CONTINUOUS
 66
1
 70
0
  0
VERTEX
  8
CURVE
 62
7
  6
CONTINUOUS
 10
63.0466056021
 20
128.5227909861
  0
VERTEX
  8
CURVE
 62
7
  6
CONTINUOUS
 10
63.0419492529
 20
128.6116411432
  0
VERTEX
  8
CURVE
 62
7
  6
CONTINUOUS
 10
63.0280313974
 20
128.6995163356
  0
VERTEX
  8
CURVE
 62
7
  6
CONTINUOUS
 10
63.0050047603
 20
128.7854539436
  0
VERTEX
  8
CURVE
 62
7
  6
CONTINUOUS
 10
62.9731218094
 20
128.8685126467
  0
VERTEX
  8
CURVE
 62
7
  6
CONTINUOUS
 10
62.9327319726
 20
128.9477827108
  0
VERTEX
  8
CURVE
 62
7
  6
CONTINUOUS
 10
62.8842777961
 20
129.0223959381
  0
VERTEX
  8
CURVE
 62
7
  6
CONTINUOUS
 10
62.8282900914
 20
129.0915351509
  0
VERTEX
  8
CURVE
 62
7
  6
CONTINUOUS
 10
62.7653821256
 20
129.1544431161
  0
VERTEX
  8
CURVE
 62
7
  6
CONTINUOUS
 10
62.6962429127
 20
129.2104308196
  0
VERTEX
  8
CURVE
 62
7
  6
CONTINUOUS
 10
62.6216296861
 20
129.2588849947
  0
VERTEX
  8
CURVE
 62
7
  6
CONTINUOUS
 10
62.5423596232
 20
129.2992748301
  0
VERTEX
  8
CURVE
 62
7
  6
CONTINUOUS
 10
62.4593009217
 20
129.33115778
  0
VERTEX
  8
CURVE
 62
7
  6
CONTINUOUS
 10
62.3733633152
 20
129.3541844164
  0
VERTEX
  8
CURVE
 62
7
  6
CONTINUOUS
 10
62.285488124
 20
129.3681022715
  0
VERTEX
  8
CURVE
 62
7
  6
CONTINUOUS
 10
62.1966379675
 20
129.3727586207
  0
SEQEND
  0
POLYLINE
  8
CURVE
 62
7
  6
CONTINUOUS
 66
1
 70
0
  0
VERTEX
  8
CURVE
 62
7
  6
CONTINUOUS
 10
67.1566056021
 20
135.3227262553
  0
VERTEX
  8
CURVE
 62
7
  6
CONTINUOUS
 10
67.1612615079
 20
135.2338803168
  0
VERTEX
  8
CURVE
 62
7
  6
CONTINUOUS
 10
67.175178379
 20
135.1460076229
  0
VERTEX
  8
CURVE
 62
7
  6
CONTINUOUS
 10
67.1982039796
 20
135.060070882
  0
VERTEX
  8
CURVE
 62
7
  6
CONTINUOUS
 10
67.2300862491
 20
134.97701166
  0
VERTEX
  8
CURVE
 62
7
  6
CONTINUOUS
 10
67.2704760451
 20
134.8977400498
  0
VERTEX
  8
CURVE
 62
7
  6
CONTINUOUS
 10
67.3189309556
 20
134.8231246788
  0
VERTEX
  8
CURVE
 62
7
  6
CONTINUOUS
 10
67.3749201407
 20
134.75398317
  0
VERTEX
  8
CURVE
 62
7
  6
CONTINUOUS
 10
67.4378301514
 20
134.6910731594
  0
VERTEX
  8
CURVE
 62
7
  6
CONTINUOUS
 10
67.5069716602
 20
134.6350839742
  0
VERTEX
  8
CURVE
 62
7
  6
CONTINUOUS
 10
67.5815870312
 20
134.5866290637
  0
VERTEX
  8
CURVE
 62
7
  6
CONTINUOUS
 10
67.6608586414
 20
134.5462392678
  0
VERTEX
  8
CURVE
 62
7
  6
CONTINUOUS
 10
67.7439178634
 20
134.5143569982
  0
VERTEX
  8
CURVE
 62
7
  6
CONTINUOUS
 10
67.8298546043
 20
134.4913313977
  0
VERTEX
  8
CURVE
 62
7
  6
CONTINUOUS
 10
67.9177272982
 20
134.4774145265
  0
VERTEX
  8
CURVE
 62
7
  6
CONTINUOUS
 10
68.0065732367
 20
134.4727586207
  0
SEQEND
  0
POLYLINE
  8
CURVE
 62
7
  6
CONTINUOUS
 66
1
 70
0
  0
VERTEX
  8
CURVE
 62
7
  6
CONTINUOUS
 10
63.0559139057
 20
121.5938995025
  0
VERTEX
  8
CURVE
 62
7
  6
CONTINUOUS
 10
63.05413317
 20
121.6755053165
  0
VERTEX
  8
CURVE
 62
7
  6
CONTINUOUS
 10
63.052298649
 20
121.7395876388
  0
VERTEX
  8
CURVE
 62
7
  6
CONTINUOUS
 10
63.0504234501
 20
121.7856884774
  0
VERTEX
  8
CURVE
 62
7
  6
CONTINUOUS
 10
63.0485209719
 20
121.8134783444
  0
VERTEX
  8
CURVE
 62
7
  6
CONTINUOUS
 10
63.0466056021
 20
121.8227586207
  0
SEQEND
  0
LINE
  8
CURVE
 62
7
  6
CONTINUOUS
 10
63.0592636055
 20
121.3805712956
 11
63.0559139057
 21
121.5938995025
  0
LINE
  8
CURVE
 62
7
  6
CONTINUOUS
 10
67.1472972984
 20
142.2516177382
 11
67.1439475986
 21
142.4649459451
  0
LINE
  8
CURVE
 62
7
  6
CONTINUOUS
 10
62.702523231
 20
121.5695284163
 11
62.7059955184
 21
121.3342435679
  0
LINE
  8
CURVE
 62
7
  6
CONTINUOUS
 10
63.0622521944
 20
121.1056901289
 11
63.0592636055
 21
121.3805712956
  0
LINE
  8
CURVE
 62
7
  6
CONTINUOUS
 10
67.1439475986
 20
142.4649459451
 11
67.1409590097
 21
142.7398271123
  0
LINE
  8
CURVE
 62
7
  6
CONTINUOUS
 10
62.7059955184
 20
121.3342435679
 11
62.7090493027
 21
121.032221175
  0
LINE
  8
CURVE
 62
7
  6
CONTINUOUS
 10
63.0647944267
 20
120.77709879
 11
63.0622521944
 21
121.1056901289
  0
LINE
  8
CURVE
 62
7
  6
CONTINUOUS
 10
67.1409590097
 20
142.7398271123
 11
67.1384167774
 21
143.0684184519
  0
LINE
  8
CURVE
 62
7
  6
CONTINUOUS
 10
62.7090493027
 20
121.032221175
 11
62.711588071
 21
120.6730090892
  0
LINE
  8
CURVE
 62
7
  6
CONTINUOUS
 10
63.0668177952
 20
120.4041716318
 11
63.0647944267
 21
120.77709879
  0
LINE
  8
CURVE
 62
7
  6
CONTINUOUS
 10
67.1384167774
 20
143.0684184519
 11
67.1363934089
 21
143.4413456106
  0
LINE
  8
CURVE
 62
7
  6
CONTINUOUS
 10
62.711588071
 20
120.6730090892
 11
62.7135315948
 21
120.2679619998
  0
LINE
  8
CURVE
 62
7
  6
CONTINUOUS
 10
63.0682645963
 20
119.9975469149
 11
63.0668177952
 21
120.4041716318
  0
LINE
  8
CURVE
 62
7
  6
CONTINUOUS
 10
67.1363934089
 20
143.4413456106
 11
67.1349466078
 21
143.8479703277
  0
LINE
  8
CURVE
 62
7
  6
CONTINUOUS
 10
62.7135315948
 20
120.2679619998
 11
62.7148184618
 21
119.8298822882
  0
POLYLINE
  8
CURVE
 62
7
  6
CONTINUOUS
 66
1
 70
0
  0
VERTEX
  8
CURVE
 62
7
  6
CONTINUOUS
 10
67.1349466078
 20
143.8479703277
  0
VERTEX
  8
CURVE
 62
7
  6
CONTINUOUS
 10
67.1341176317
 20
144.2766939421
  0
VERTEX
  8
CURVE
 62
7
  6
CONTINUOUS
 10
67.1339429607
 20
144.4954536275
  0
SEQEND
  0
LINE
  8
CURVE
 62
7
  6
CONTINUOUS
 10
62.7148184618
 20
119.8298822882
 11
62.715407956
 21
119.3727262553
  0
POLYLINE
  8
CURVE
 62
7
  6
CONTINUOUS
 66
1
 70
0
  0
VERTEX
  8
CURVE
 62
7
  6
CONTINUOUS
 10
63.0692682434
 20
119.3500636139
  0
VERTEX
  8
CURVE
 62
7
  6
CONTINUOUS
 10
63.0690935724
 20
119.5688233
  0
VERTEX
  8
CURVE
 62
7
  6
CONTINUOUS
 10
63.0682645963
 20
119.9975469149
  0
SEQEND
  0
LINE
  8
CURVE
 62
7
  6
CONTINUOUS
 10
62.6927558754
 20
128.5227909861
 11
62.6927558754
 21
121.8227586207
  0
LINE
  8
CURVE
 62
7
  6
CONTINUOUS
 10
63.0466056021
 20
121.8227586207
 11
63.0466056021
 21
128.5227909861
  0
LINE
  8
CURVE
 62
7
  6
CONTINUOUS
 10
64.9266056021
 20
115.5227586207
 11
64.9266056021
 21
129.2927586207
  0
LINE
  8
CURVE
 62
7
  6
CONTINUOUS
 10
65.2766056021
 20
148.3227566382
 11
65.2766056021
 21
134.5527586207
  0
LINE
  8
CURVE
 62
7
  6
CONTINUOUS
 10
67.1566056021
 20
135.3227262553
 11
67.1566056021
 21
142.0227586207
  0
POLYLINE
  8
CURVE
 62
7
  6
CONTINUOUS
 66
1
 70
0
  0
VERTEX
  8
CURVE
 62
7
  6
CONTINUOUS
 10
62.715407956
 20
119.3727262553
  0
VERTEX
  8
CURVE
 62
7
  6
CONTINUOUS
 10
62.7129705105
 20
119.3222787741
  0
VERTEX
  8
CURVE
 62
7
  6
CONTINUOUS
 10
62.7055875768
 20
119.272083681
  0
VERTEX
  8
CURVE
 62
7
  6
CONTINUOUS
 10
62.6932996773
 20
119.2227586207
  0
SEQEND
  0
POLYLINE
  8
CURVE
 62
7
  6
CONTINUOUS
 66
1
 70
0
  0
VERTEX
  8
CURVE
 62
7
  6
CONTINUOUS
 10
63.0597124986
 20
119.2227586207
  0
VERTEX
  8
CURVE
 62
7
  6
CONTINUOUS
 10
63.0650299266
 20
119.2650196362
  0
VERTEX
  8
CURVE
 62
7
  6
CONTINUOUS
 10
63.0682174637
 20
119.3074922867
  0
VERTEX
  8
CURVE
 62
7
  6
CONTINUOUS
 10
63.0692682434
 20
119.3500636139
  0
SEQEND
  0
POLYLINE
  8
CURVE
 62
7
  6
CONTINUOUS
 66
1
 70
0
  0
VERTEX
  8
CURVE
 62
7
  6
CONTINUOUS
 10
67.1434987055
 20
144.6227586207
  0
VERTEX
  8
CURVE
 62
7
  6
CONTINUOUS
 10
67.1381809595
 20
144.5804944366
  0
VERTEX
  8
CURVE
 62
7
  6
CONTINUOUS
 10
67.1349935784
 20
144.5380217035
  0
VERTEX
  8
CURVE
 62
7
  6
CONTINUOUS
 10
67.1339429607
 20
144.4954536275
  0
SEQEND
  0
POLYLINE
  8
CURVE
 62
7
  6
CONTINUOUS
 66
1
 70
0
  0
VERTEX
  8
CURVE
 62
7
  6
CONTINUOUS
 10
61.1604553288
 20
121.8227586207
  0
VERTEX
  8
CURVE
 62
7
  6
CONTINUOUS
 10
61.1584392909
 20
121.8124752161
  0
VERTEX
  8
CURVE
 62
7
  6
CONTINUOUS
 10
61.1564382477
 20
121.7816867073
  0
VERTEX
  8
CURVE
 62
7
  6
CONTINUOUS
 10
61.1544690141
 20
121.7306369616
  0
VERTEX
  8
CURVE
 62
7
  6
CONTINUOUS
 10
61.1525471834
 20
121.6597303269
  0
VERTEX
  8
CURVE
 62
7
  6
CONTINUOUS
 10
61.1506879732
 20
121.5695284163
  0
VERTEX
  8
CURVE
 62
7
  6
CONTINUOUS
 10
61.1472156857
 20
121.3342435679
  0
SEQEND
  0
LINE
  8
CURVE
 62
7
  6
CONTINUOUS
 10
52.6723136791
 20
130.5513994028
 11
52.7532732875
 21
130.651376193
  0
LINE
  8
CURVE
 62
7
  6
CONTINUOUS
 10
58.3999379174
 20
130.6513761919
 11
58.480897525
 21
130.5513994028
  0
POLYLINE
  8
CURVE
 62
7
  6
CONTINUOUS
 66
1
 70
0
  0
VERTEX
  8
CURVE
 62
7
  6
CONTINUOUS
 10
69.4192682434
 20
144.4954536275
  0
VERTEX
  8
CURVE
 62
7
  6
CONTINUOUS
 10
69.4182175962
 20
144.5380222954
  0
VERTEX
  8
CURVE
 62
7
  6
CONTINUOUS
 10
69.4150301815
 20
144.5804950652
  0
VERTEX
  8
CURVE
 62
7
  6
CONTINUOUS
 10
69.4097124986
 20
144.6227586207
  0
SEQEND
  0
LINE
  8
CURVE
 62
7
  6
CONTINUOUS
 10
69.3966056021
 20
142.0227586207
 11
69.3966056021
 21
135.3227262553
  0
LINE
  8
CURVE
 62
7
  6
CONTINUOUS
 10
71.2766056021
 20
134.5527586207
 11
71.2766056021
 21
148.3227586207
  0
LINE
  8
CURVE
 62
7
  6
CONTINUOUS
 10
71.6266056021
 20
129.2927586207
 11
71.6266056021
 21
115.5227586207
  0
LINE
  8
CURVE
 62
7
  6
CONTINUOUS
 10
69.4182645963
 20
143.8479703277
 11
69.4192682434
 21
144.4954536275
  0
LINE
  8
CURVE
 62
7
  6
CONTINUOUS
 10
69.4168177952
 20
143.4413456106
 11
69.4182645963
 21
143.8479703277
  0
LINE
  8
CURVE
 62
7
  6
CONTINUOUS
 10
69.4147944267
 20
143.0684184519
 11
69.4168177952
 21
143.4413456106
  0
LINE
  8
CURVE
 62
7
  6
CONTINUOUS
 10
69.4122521944
 20
142.7398271123
 11
69.4147944267
 21
143.0684184519
  0
LINE
  8
CURVE
 62
7
  6
CONTINUOUS
 10
69.4092636055
 20
142.4649459451
 11
69.4122521944
 21
142.7398271123
  0
POLYLINE
  8
CURVE
 62
7
  6
CONTINUOUS
 66
1
 70
0
  0
VERTEX
  8
CURVE
 62
7
  6
CONTINUOUS
 10
69.3966056021
 20
142.0227586207
  0
VERTEX
  8
CURVE
 62
7
  6
CONTINUOUS
 10
69.3985209719
 20
142.0320388969
  0
VERTEX
  8
CURVE
 62
7
  6
CONTINUOUS
 10
69.4004234501
 20
142.0598287638
  0
VERTEX
  8
CURVE
 62
7
  6
CONTINUOUS
 10
69.402298649
 20
142.1059296022
  0
VERTEX
  8
CURVE
 62
7
  6
CONTINUOUS
 10
69.40413317
 20
142.1700119243
  0
VERTEX
  8
CURVE
 62
7
  6
CONTINUOUS
 10
69.4059139057
 20
142.2516177382
  0
VERTEX
  8
CURVE
 62
7
  6
CONTINUOUS
 10
69.4092636055
 20
142.4649459451
  0
SEQEND
  0
POLYLINE
  8
CURVE
 62
7
  6
CONTINUOUS
 66
1
 70
0
  0
VERTEX
  8
CURVE
 62
7
  6
CONTINUOUS
 10
62.6932996773
 20
119.2227586207
  0
VERTEX
  8
CURVE
 62
7
  6
CONTINUOUS
 10
62.670447147
 20
119.1613894501
  0
VERTEX
  8
CURVE
 62
7
  6
CONTINUOUS
 10
62.6396836672
 20
119.1028158581
  0
VERTEX
  8
CURVE
 62
7
  6
CONTINUOUS
 10
62.6014875494
 20
119.0483643984
  0
VERTEX
  8
CURVE
 62
7
  6
CONTINUOUS
 10
62.5567915493
 20
118.9994039883
  0
VERTEX
  8
CURVE
 62
7
  6
CONTINUOUS
 10
62.5060397034
 20
118.9564168399
  0
VERTEX
  8
CURVE
 62
7
  6
CONTINUOUS
 10
62.4499574118
 20
118.9201391874
  0
VERTEX
  8
CURVE
 62
7
  6
CONTINUOUS
 10
62.390064174
 20
118.8915203106
  0
VERTEX
  8
CURVE
 62
7
  6
CONTINUOUS
 10
62.3271394454
 20
118.8708148751
  0
VERTEX
  8
CURVE
 62
7
  6
CONTINUOUS
 10
62.2620831708
 20
118.8582876334
  0
VERTEX
  8
CURVE
 62
7
  6
CONTINUOUS
 10
62.1966379675
 20
118.8541476784
  0
SEQEND
  0
LINE
  8
CURVE
 62
7
  6
CONTINUOUS
 10
64.830897525
 20
133.2941178386
 11
64.74993792
 21
133.1941410526
  0
LINE
  8
CURVE
 62
7
  6
CONTINUOUS
 10
59.1032732888
 20
133.1941410468
 11
59.0223136791
 21
133.2941178386
  0
POLYLINE
  8
CURVE
 62
7
  6
CONTINUOUS
 66
1
 70
0
  0
VERTEX
  8
CURVE
 62
7
  6
CONTINUOUS
 10
73.4934987055
 20
119.2227586207
  0
VERTEX
  8
CURVE
 62
7
  6
CONTINUOUS
 10
73.5118056175
 20
119.1341464751
  0
VERTEX
  8
CURVE
 62
7
  6
CONTINUOUS
 10
73.5398149521
 20
119.0470658297
  0
VERTEX
  8
CURVE
 62
7
  6
CONTINUOUS
 10
73.5773414935
 20
118.9629496547
  0
VERTEX
  8
CURVE
 62
7
  6
CONTINUOUS
 10
73.6243673838
 20
118.8825101722
  0
VERTEX
  8
CURVE
 62
7
  6
CONTINUOUS
 10
73.6801936699
 20
118.8074071229
  0
VERTEX
  8
CURVE
 62
7
  6
CONTINUOUS
 10
73.7437820413
 20
118.7390674714
  0
VERTEX
  8
CURVE
 62
7
  6
CONTINUOUS
 10
73.8147721817
 20
118.6778931238
  0
VERTEX
  8
CURVE
 62
7
  6
CONTINUOUS
 10
73.892467824
 20
118.6246508479
  0
VERTEX
  8
CURVE
 62
7
  6
CONTINUOUS
 10
73.9753206587
 20
118.5804288483
  0
VERTEX
  8
CURVE
 62
7
  6
CONTINUOUS
 10
74.061898146
 20
118.5458055269
  0
VERTEX
  8
CURVE
 62
7
  6
CONTINUOUS
 10
74.1518567724
 20
118.5208151792
  0
VERTEX
  8
CURVE
 62
7
  6
CONTINUOUS
 10
74.2434905125
 20
118.5058627748
  0
VERTEX
  8
CURVE
 62
7
  6
CONTINUOUS
 10
74.3347752613
 20
118.5009606454
  0
SEQEND
  0
POLYLINE
  8
CURVE
 62
7
  6
CONTINUOUS
 66
1
 70
0
  0
VERTEX
  8
CURVE
 62
7
  6
CONTINUOUS
 10
67.1566056021
 20
142.0227586207
  0
VERTEX
  8
CURVE
 62
7
  6
CONTINUOUS
 10
67.1546902323
 20
142.0320388969
  0
VERTEX
  8
CURVE
 62
7
  6
CONTINUOUS
 10
67.152787754
 20
142.0598287638
  0
VERTEX
  8
CURVE
 62
7
  6
CONTINUOUS
 10
67.1509125552
 20
142.1059296022
  0
VERTEX
  8
CURVE
 62
7
  6
CONTINUOUS
 10
67.1490780341
 20
142.1700119243
  0
VERTEX
  8
CURVE
 62
7
  6
CONTINUOUS
 10
67.1472972984
 20
142.2516177382
  0
SEQEND
  0
POLYLINE
  8
CURVE
 62
7
  6
CONTINUOUS
 66
1
 70
0
  0
VERTEX
  8
CURVE
 62
7
  6
CONTINUOUS
 10
73.4839429607
 20
119.3500636139
  0
VERTEX
  8
CURVE
 62
7
  6
CONTINUOUS
 10
73.4849937704
 20
119.3074916854
  0
VERTEX
  8
CURVE
 62
7
  6
CONTINUOUS
 10
73.48818134
 20
119.2650190135
  0
VERTEX
  8
CURVE
 62
7
  6
CONTINUOUS
 10
73.4934987055
 20
119.2227586207
  0
SEQEND
  0
POLYLINE
  8
CURVE
 62
7
  6
CONTINUOUS
 66
1
 70
0
  0
VERTEX
  8
CURVE
 62
7
  6
CONTINUOUS
 10
75.7559139057
 20
121.5938995025
  0
VERTEX
  8
CURVE
 62
7
  6
CONTINUOUS
 10
75.75413317
 20
121.6755053165
  0
VERTEX
  8
CURVE
 62
7
  6
CONTINUOUS
 10
75.752298649
 20
121.7395876388
  0
VERTEX
  8
CURVE
 62
7
  6
CONTINUOUS
 10
75.7504234501
 20
121.7856884774
  0
VERTEX
  8
CURVE
 62
7
  6
CONTINUOUS
 10
75.7485209719
 20
121.8134783444
  0
VERTEX
  8
CURVE
 62
7
  6
CONTINUOUS
 10
75.7466056021
 20
121.8227586207
  0
SEQEND
  0
LINE
  8
CURVE
 62
7
  6
CONTINUOUS
 10
75.7592636055
 20
121.3805712956
 11
75.7559139057
 21
121.5938995025
  0
LINE
  8
CURVE
 62
7
  6
CONTINUOUS
 10
75.7622521944
 20
121.1056901289
 11
75.7592636055
 21
121.3805712956
  0
LINE
  8
CURVE
 62
7
  6
CONTINUOUS
 10
75.7647944267
 20
120.77709879
 11
75.7622521944
 21
121.1056901289
  0
LINE
  8
CURVE
 62
7
  6
CONTINUOUS
 10
75.7668177952
 20
120.4041716318
 11
75.7647944267
 21
120.77709879
  0
LINE
  8
CURVE
 62
7
  6
CONTINUOUS
 10
75.7682645963
 20
119.9975469149
 11
75.7668177952
 21
120.4041716318
  0
POLYLINE
  8
CURVE
 62
7
  6
CONTINUOUS
 66
1
 70
0
  0
VERTEX
  8
CURVE
 62
7
  6
CONTINUOUS
 10
75.7692682434
 20
119.3500636139
  0
VERTEX
  8
CURVE
 62
7
  6
CONTINUOUS
 10
75.7690935724
 20
119.5688233
  0
VERTEX
  8
CURVE
 62
7
  6
CONTINUOUS
 10
75.7682645963
 20
119.9975469149
  0
SEQEND
  0
LINE
  8
CURVE
 62
7
  6
CONTINUOUS
 10
73.5066056021
 20
121.8227586207
 11
73.5066056021
 21
128.5227909861
  0
LINE
  8
CURVE
 62
7
  6
CONTINUOUS
 10
75.7466056021
 20
128.5227909861
 11
75.7466056021
 21
121.8227586207
  0
LINE
  8
CURVE
 62
7
  6
CONTINUOUS
 10
77.2766056021
 20
140.1227586207
 11
77.2766056021
 21
139.3227586207
  0
LINE
  8
CURVE
 62
7
  6
CONTINUOUS
 10
73.4839429607
 20
119.3500636139
 11
73.4844529909
 21
119.7851939346
  0
LINE
  8
CURVE
 62
7
  6
CONTINUOUS
 10
73.4844529909
 20
119.7851939346
 11
73.4855949572
 21
120.2043652964
  0
LINE
  8
CURVE
 62
7
  6
CONTINUOUS
 10
73.4855949572
 20
120.2043652964
 11
73.4873362603
 21
120.5955385179
  0
LINE
  8
CURVE
 62
7
  6
CONTINUOUS
 10
73.4873362603
 20
120.5955385179
 11
73.4896272426
 21
120.9475552884
  0
LINE
  8
CURVE
 62
7
  6
CONTINUOUS
 10
73.4896272426
 20
120.9475552884
 11
73.4924025657
 21
121.2503734103
  0
POLYLINE
  8
CURVE
 62
7
  6
CONTINUOUS
 66
1
 70
0
  0
VERTEX
  8
CURVE
 62
7
  6
CONTINUOUS
 10
73.4924025657
 20
121.2503734103
  0
VERTEX
  8
CURVE
 62
7
  6
CONTINUOUS
 10
73.4955830708
 20
121.4953534104
  0
VERTEX
  8
CURVE
 62
7
  6
CONTINUOUS
 10
73.4972972984
 20
121.5938995025
  0
VERTEX
  8
CURVE
 62
7
  6
CONTINUOUS
 10
73.4990780341
 20
121.6755053165
  0
VERTEX
  8
CURVE
 62
7
  6
CONTINUOUS
 10
73.5009125551
 20
121.7395876388
  0
VERTEX
  8
CURVE
 62
7
  6
CONTINUOUS
 10
73.502787754
 20
121.7856884774
  0
VERTEX
  8
CURVE
 62
7
  6
CONTINUOUS
 10
73.5046902322
 20
121.8134783444
  0
VERTEX
  8
CURVE
 62
7
  6
CONTINUOUS
 10
73.5066056021
 20
121.8227586207
  0
SEQEND
  0
POLYLINE
  8
CURVE
 62
7
  6
CONTINUOUS
 66
1
 70
0
  0
VERTEX
  8
CURVE
 62
7
  6
CONTINUOUS
 10
73.5066056021
 20
128.5227909861
  0
VERTEX
  8
CURVE
 62
7
  6
CONTINUOUS
 10
73.5112615079
 20
128.6116369245
  0
VERTEX
  8
CURVE
 62
7
  6
CONTINUOUS
 10
73.525178379
 20
128.6995096184
  0
VERTEX
  8
CURVE
 62
7
  6
CONTINUOUS
 10
73.5482039796
 20
128.7854463594
  0
VERTEX
  8
CURVE
 62
7
  6
CONTINUOUS
 10
73.5800862491
 20
128.8685055814
  0
VERTEX
  8
CURVE
 62
7
  6
CONTINUOUS
 10
73.6204760451
 20
128.9477771916
  0
VERTEX
  8
CURVE
 62
7
  6
CONTINUOUS
 10
73.6689309556
 20
129.0223925625
  0
VERTEX
  8
CURVE
 62
7
  6
CONTINUOUS
 10
73.7249201407
 20
129.0915340714
  0
VERTEX
  8
CURVE
 62
7
  6
CONTINUOUS
 10
73.7878301514
 20
129.154444082
  0
VERTEX
  8
CURVE
 62
7
  6
CONTINUOUS
 10
73.8569716602
 20
129.2104332672
  0
VERTEX
  8
CURVE
 62
7
  6
CONTINUOUS
 10
73.9315870312
 20
129.2588881777
  0
VERTEX
  8
CURVE
 62
7
  6
CONTINUOUS
 10
74.0108586414
 20
129.2992779736
  0
VERTEX
  8
CURVE
 62
7
  6
CONTINUOUS
 10
74.0939178634
 20
129.3311602431
  0
VERTEX
  8
CURVE
 62
7
  6
CONTINUOUS
 10
74.1798546043
 20
129.3541858437
  0
VERTEX
  8
CURVE
 62
7
  6
CONTINUOUS
 10
74.2677272982
 20
129.3681027149
  0
VERTEX
  8
CURVE
 62
7
  6
CONTINUOUS
 10
74.3565732367
 20
129.3727586207
  0
SEQEND
  0
POLYLINE
  8
CURVE
 62
7
  6
CONTINUOUS
 66
1
 70
0
  0
VERTEX
  8
CURVE
 62
7
  6
CONTINUOUS
 10
75.7597124986
 20
119.2227586207
  0
VERTEX
  8
CURVE
 62
7
  6
CONTINUOUS
 10
75.7650299266
 20
119.2650196362
  0
VERTEX
  8
CURVE
 62
7
  6
CONTINUOUS
 10
75.7682174637
 20
119.3074922867
  0
VERTEX
  8
CURVE
 62
7
  6
CONTINUOUS
 10
75.7692682434
 20
119.3500636139
  0
SEQEND
  0
LINE
  8
CURVE
 62
7
  6
CONTINUOUS
 10
65.3723136791
 20
130.5513994028
 11
65.4532732875
 21
130.651376193
  0
LINE
  8
CURVE
 62
7
  6
CONTINUOUS
 10
71.0999379174
 20
130.6513761919
 11
71.180897525
 21
130.5513994028
  0
POLYLINE
  8
CURVE
 62
7
  6
CONTINUOUS
 66
1
 70
0
  0
VERTEX
  8
CURVE
 62
7
  6
CONTINUOUS
 10
69.4097124986
 20
144.6227586207
  0
VERTEX
  8
CURVE
 62
7
  6
CONTINUOUS
 10
69.3914204379
 20
144.7113142874
  0
VERTEX
  8
CURVE
 62
7
  6
CONTINUOUS
 10
69.3634298036
 20
144.7983636542
  0
VERTEX
  8
CURVE
 62
7
  6
CONTINUOUS
 10
69.3259145674
 20
144.8824801402
  0
VERTEX
  8
CURVE
 62
7
  6
CONTINUOUS
 10
69.2788914965
 20
144.9629349262
  0
VERTEX
  8
CURVE
 62
7
  6
CONTINUOUS
 10
69.223061821
 20
145.038056933
  0
VERTEX
  8
CURVE
 62
7
  6
CONTINUOUS
 10
69.1594830832
 20
145.1063978542
  0
VERTEX
  8
CURVE
 62
7
  6
CONTINUOUS
 10
69.0884764208
 20
145.1675953217
  0
VERTEX
  8
CURVE
 62
7
  6
CONTINUOUS
 10
69.0107771299
 20
145.2208459121
  0
VERTEX
  8
CURVE
 62
7
  6
CONTINUOUS
 10
68.927924417
 20
145.2650726466
  0
VERTEX
  8
CURVE
 62
7
  6
CONTINUOUS
 10
68.8413374956
 20
145.2997034601
  0
VERTEX
  8
CURVE
 62
7
  6
CONTINUOUS
 10
68.7513738888
 20
145.3246977884
  0
VERTEX
  8
CURVE
 62
7
  6
CONTINUOUS
 10
68.6597322699
 20
145.3396532194
  0
VERTEX
  8
CURVE
 62
7
  6
CONTINUOUS
 10
68.5684359428
 20
145.344556596
  0
SEQEND
  0
POLYLINE
  8
CURVE
 62
7
  6
CONTINUOUS
 66
1
 70
0
  0
VERTEX
  8
CURVE
 62
7
  6
CONTINUOUS
 10
79.8566056021
 20
135.3227262553
  0
VERTEX
  8
CURVE
 62
7
  6
CONTINUOUS
 10
79.8612615079
 20
135.2338803168
  0
VERTEX
  8
CURVE
 62
7
  6
CONTINUOUS
 10
79.875178379
 20
135.1460076229
  0
VERTEX
  8
CURVE
 62
7
  6
CONTINUOUS
 10
79.8982039796
 20
135.060070882
  0
VERTEX
  8
CURVE
 62
7
  6
CONTINUOUS
 10
79.9300862491
 20
134.97701166
  0
VERTEX
  8
CURVE
 62
7
  6
CONTINUOUS
 10
79.9704760451
 20
134.8977400498
  0
VERTEX
  8
CURVE
 62
7
  6
CONTINUOUS
 10
80.0189309556
 20
134.8231246788
  0
VERTEX
  8
CURVE
 62
7
  6
CONTINUOUS
 10
80.0749201407
 20
134.75398317
  0
VERTEX
  8
CURVE
 62
7
  6
CONTINUOUS
 10
80.1378301514
 20
134.6910731594
  0
VERTEX
  8
CURVE
 62
7
  6
CONTINUOUS
 10
80.2069716602
 20
134.6350839742
  0
VERTEX
  8
CURVE
 62
7
  6
CONTINUOUS
 10
80.2815870312
 20
134.5866290637
  0
VERTEX
  8
CURVE
 62
7
  6
CONTINUOUS
 10
80.3608586414
 20
134.5462392678
  0
VERTEX
  8
CURVE
 62
7
  6
CONTINUOUS
 10
80.4439178634
 20
134.5143569982
  0
VERTEX
  8
CURVE
 62
7
  6
CONTINUOUS
 10
80.5298546043
 20
134.4913313977
  0
VERTEX
  8
CURVE
 62
7
  6
CONTINUOUS
 10
80.6177272982
 20
134.4774145265
  0
VERTEX
  8
CURVE
 62
7
  6
CONTINUOUS
 10
80.7065732367
 20
134.4727586207
  0
SEQEND
  0
LINE
  8
CURVE
 62
7
  6
CONTINUOUS
 10
79.8472972984
 20
142.2516177382
 11
79.8439475986
 21
142.4649459451
  0
LINE
  8
CURVE
 62
7
  6
CONTINUOUS
 10
79.8439475986
 20
142.4649459451
 11
79.8409590097
 21
142.7398271123
  0
LINE
  8
CURVE
 62
7
  6
CONTINUOUS
 10
79.8409590097
 20
142.7398271123
 11
79.8384167774
 21
143.0684184519
  0
LINE
  8
CURVE
 62
7
  6
CONTINUOUS
 10
79.8384167774
 20
143.0684184519
 11
79.8363934089
 21
143.4413456106
  0
LINE
  8
CURVE
 62
7
  6
CONTINUOUS
 10
79.8363934089
 20
143.4413456106
 11
79.8349466078
 21
143.8479703277
  0
POLYLINE
  8
CURVE
 62
7
  6
CONTINUOUS
 66
1
 70
0
  0
VERTEX
  8
CURVE
 62
7
  6
CONTINUOUS
 10
79.8349466078
 20
143.8479703277
  0
VERTEX
  8
CURVE
 62
7
  6
CONTINUOUS
 10
79.8341176317
 20
144.2766939421
  0
VERTEX
  8
CURVE
 62
7
  6
CONTINUOUS
 10
79.8339429607
 20
144.4954536275
  0
SEQEND
  0
LINE
  8
CURVE
 62
7
  6
CONTINUOUS
 10
77.6266056021
 20
115.5227586207
 11
77.6266056021
 21
129.2927586207
  0
LINE
  8
CURVE
 62
7
  6
CONTINUOUS
 10
77.9766056021
 20
148.3227566382
 11
77.9766056021
 21
134.5527586207
  0
LINE
  8
CURVE
 62
7
  6
CONTINUOUS
 10
78.3266054071
 20
124.5227586207
 11
78.3266054071
 21
123.7227586207
  0
LINE
  8
CURVE
 62
7
  6
CONTINUOUS
 10
79.8566056021
 20
135.3227262553
 11
79.8566056021
 21
142.0227586207
  0
LINE
  8
0
 62
7
  6
CONTINUOUS
 10
82.0966056021
 20
135.3227262553
 11
82.0966056021
 21
142.0227586207
  0
LINE
  8
0
 62
7
  6
CONTINUOUS
 10
82.1182645963
 20
143.8479703277
 11
82.1192682434
 21
144.4954536275
  0
LINE
  8
0
 62
7
  6
CONTINUOUS
 10
82.1168177952
 20
143.4413456106
 11
82.1182645963
 21
143.8479703277
  0
LINE
  8
0
 62
7
  6
CONTINUOUS
 10
82.1147944267
 20
143.0684184519
 11
82.1168177952
 21
143.4413456106
  0
LINE
  8
0
 62
7
  6
CONTINUOUS
 10
82.1122521944
 20
142.7398271123
 11
82.1147944267
 21
143.0684184519
  0
LINE
  8
0
 62
7
  6
CONTINUOUS
 10
82.1092636055
 20
142.4649459451
 11
82.1122521944
 21
142.7398271123
  0
POLYLINE
  8
0
 62
7
  6
CONTINUOUS
 66
1
 70
0
  0
VERTEX
  8
0
 62
7
  6
CONTINUOUS
 10
82.0966056021
 20
135.3227262553
  0
VERTEX
  8
0
 62
7
  6
CONTINUOUS
 10
82.0919496962
 20
135.2338803168
  0
VERTEX
  8
0
 62
7
  6
CONTINUOUS
 10
82.0780328251
 20
135.1460076229
  0
VERTEX
  8
0
 62
7
  6
CONTINUOUS
 10
82.0550072245
 20
135.060070882
  0
VERTEX
  8
0
 62
7
  6
CONTINUOUS
 10
82.023124955
 20
134.97701166
  0
VERTEX
  8
0
 62
7
  6
CONTINUOUS
 10
81.982735159
 20
134.8977400498
  0
VERTEX
  8
0
 62
7
  6
CONTINUOUS
 10
81.9342802486
 20
134.8231246788
  0
VERTEX
  8
0
 62
7
  6
CONTINUOUS
 10
81.8782910634
 20
134.75398317
  0
VERTEX
  8
0
 62
7
  6
CONTINUOUS
 10
81.8153810528
 20
134.6910731594
  0
VERTEX
  8
0
 62
7
  6
CONTINUOUS
 10
81.7462395439
 20
134.6350839742
  0
VERTEX
  8
0
 62
7
  6
CONTINUOUS
 10
81.671624173
 20
134.5866290637
  0
VERTEX
  8
0
 62
7
  6
CONTINUOUS
 10
81.5923525627
 20
134.5462392678
  0
VERTEX
  8
0
 62
7
  6
CONTINUOUS
 10
81.5092933408
 20
134.5143569982
  0
VERTEX
  8
0
 62
7
  6
CONTINUOUS
 10
81.4233565998
 20
134.4913313977
  0
VERTEX
  8
0
 62
7
  6
CONTINUOUS
 10
81.3354839059
 20
134.4774145265
  0
VERTEX
  8
0
 62
7
  6
CONTINUOUS
 10
81.2466379675
 20
134.4727586207
  0
SEQEND
  0
POLYLINE
  8
CURVE
 62
7
  6
CONTINUOUS
 66
1
 70
0
  0
VERTEX
  8
CURVE
 62
7
  6
CONTINUOUS
 10
79.8434987055
 20
144.6227586207
  0
VERTEX
  8
CURVE
 62
7
  6
CONTINUOUS
 10
79.8381809595
 20
144.5804944366
  0
VERTEX
  8
CURVE
 62
7
  6
CONTINUOUS
 10
79.8349935784
 20
144.5380217035
  0
VERTEX
  8
CURVE
 62
7
  6
CONTINUOUS
 10
79.8339429607
 20
144.4954536275
  0
SEQEND
  0
POLYLINE
  8
0
 62
7
  6
CONTINUOUS
 66
1
 70
0
  0
VERTEX
  8
0
 62
7
  6
CONTINUOUS
 10
82.0966056021
 20
142.0227586207
  0
VERTEX
  8
0
 62
7
  6
CONTINUOUS
 10
82.0985209719
 20
142.0320388969
  0
VERTEX
  8
0
 62
7
  6
CONTINUOUS
 10
82.1004234501
 20
142.0598287638
  0
VERTEX
  8
0
 62
7
  6
CONTINUOUS
 10
82.102298649
 20
142.1059296022
  0
VERTEX
  8
0
 62
7
  6
CONTINUOUS
 10
82.10413317
 20
142.1700119243
  0
VERTEX
  8
0
 62
7
  6
CONTINUOUS
 10
82.1059139057
 20
142.2516177382
  0
VERTEX
  8
0
 62
7
  6
CONTINUOUS
 10
82.1092636055
 20
142.4649459451
  0
SEQEND
  0
LINE
  8
CURVE
 62
7
  6
CONTINUOUS
 10
77.530897525
 20
133.2941178386
 11
77.44993792
 21
133.1941410526
  0
LINE
  8
CURVE
 62
7
  6
CONTINUOUS
 10
32.7866056021
 20
114.6727586207
 11
35.0666056021
 21
114.6727586207
  0
LINE
  8
CURVE
 62
7
  6
CONTINUOUS
 10
47.0766056021
 20
114.6727586207
 11
51.3766056021
 21
114.6727586207
  0
LINE
  8
CURVE
 62
7
  6
CONTINUOUS
 10
59.7766056021
 20
114.6727586207
 11
64.0766056021
 21
114.6727586207
  0
LINE
  8
CURVE
 62
7
  6
CONTINUOUS
 10
72.4766056021
 20
114.6727586207
 11
76.7766056021
 21
114.6727586207
  0
LINE
  8
0
 62
7
  6
CONTINUOUS
 10
85.1766056021
 20
114.6727586207
 11
89.4766056021
 21
114.6727586207
  0
LINE
  8
0
 62
7
  6
CONTINUOUS
 10
97.8766056021
 20
114.6727586207
 11
102.1766056021
 21
114.6727586207
  0
LINE
  8
0
 62
7
  6
CONTINUOUS
 10
110.5766056021
 20
114.6727586207
 11
114.8766056021
 21
114.6727586207
  0
LINE
  8
0
 62
7
  6
CONTINUOUS
 10
126.8866056021
 20
114.6727586207
 11
129.1666056021
 21
114.6727586207
  0
POLYLINE
  8
CURVE
 62
7
  6
CONTINUOUS
 66
1
 70
0
  0
VERTEX
  8
CURVE
 62
7
  6
CONTINUOUS
 10
61.6565732367
 20
118.8541476784
  0
VERTEX
  8
CURVE
 62
7
  6
CONTINUOUS
 10
61.5911469125
 20
118.858285236
  0
VERTEX
  8
CURVE
 62
7
  6
CONTINUOUS
 10
61.5261038761
 20
118.8708065362
  0
VERTEX
  8
CURVE
 62
7
  6
CONTINUOUS
 10
61.4631844818
 20
118.891505277
  0
VERTEX
  8
CURVE
 62
7
  6
CONTINUOUS
 10
61.4032809264
 20
118.9201240201
  0
VERTEX
  8
CURVE
 62
7
  6
CONTINUOUS
 10
61.3471901901
 20
118.9564029661
  0
VERTEX
  8
CURVE
 62
7
  6
CONTINUOUS
 10
61.2964354339
 20
118.9993887823
  0
VERTEX
  8
CURVE
 62
7
  6
CONTINUOUS
 10
61.251729103
 20
119.0483576045
  0
VERTEX
  8
CURVE
 62
7
  6
CONTINUOUS
 10
61.2135273342
 20
119.1028161906
  0
VERTEX
  8
CURVE
 62
7
  6
CONTINUOUS
 10
61.1827652648
 20
119.1613867436
  0
VERTEX
  8
CURVE
 62
7
  6
CONTINUOUS
 10
61.1599115268
 20
119.2227586207
  0
SEQEND
  0
LINE
  8
CURVE
 62
7
  6
CONTINUOUS
 10
71.8032732888
 20
133.1941410468
 11
71.7223136791
 21
133.2941178386
  0
POLYLINE
  8
CURVE
 62
7
  6
CONTINUOUS
 66
1
 70
0
  0
VERTEX
  8
CURVE
 62
7
  6
CONTINUOUS
 10
79.8566056021
 20
142.0227586207
  0
VERTEX
  8
CURVE
 62
7
  6
CONTINUOUS
 10
79.8546902323
 20
142.0320388969
  0
VERTEX
  8
CURVE
 62
7
  6
CONTINUOUS
 10
79.852787754
 20
142.0598287638
  0
VERTEX
  8
CURVE
 62
7
  6
CONTINUOUS
 10
79.8509125552
 20
142.1059296022
  0
VERTEX
  8
CURVE
 62
7
  6
CONTINUOUS
 10
79.8490780341
 20
142.1700119243
  0
VERTEX
  8
CURVE
 62
7
  6
CONTINUOUS
 10
79.8472972984
 20
142.2516177382
  0
SEQEND
  0
LINE
  8
0
 62
7
  6
CONTINUOUS
 10
83.626605797
 20
124.5227586207
 11
83.626605797
 21
123.7227586207
  0
LINE
  8
0
 62
7
  6
CONTINUOUS
 10
83.9766056021
 20
148.3227566382
 11
83.9766056021
 21
134.5527586207
  0
LINE
  8
0
 62
7
  6
CONTINUOUS
 10
84.3266056021
 20
115.5227586207
 11
84.3266056021
 21
129.2927586207
  0
LINE
  8
0
 62
7
  6
CONTINUOUS
 10
84.6766056021
 20
140.1227586207
 11
84.6766056021
 21
139.3227586207
  0
LINE
  8
0
 62
7
  6
CONTINUOUS
 10
86.2066056021
 20
128.5227909861
 11
86.2066056021
 21
121.8227586207
  0
LINE
  8
0
 62
7
  6
CONTINUOUS
 10
86.1839429607
 20
119.3500636139
 11
86.1844529909
 21
119.7851939346
  0
LINE
  8
0
 62
7
  6
CONTINUOUS
 10
86.1844529909
 20
119.7851939346
 11
86.1855949572
 21
120.2043652964
  0
LINE
  8
0
 62
7
  6
CONTINUOUS
 10
86.1855949572
 20
120.2043652964
 11
86.1873362603
 21
120.5955385179
  0
LINE
  8
0
 62
7
  6
CONTINUOUS
 10
86.1873362603
 20
120.5955385179
 11
86.1896272426
 21
120.9475552884
  0
LINE
  8
0
 62
7
  6
CONTINUOUS
 10
86.1896272426
 20
120.9475552884
 11
86.1924025657
 21
121.2503734103
  0
POLYLINE
  8
0
 62
7
  6
CONTINUOUS
 66
1
 70
0
  0
VERTEX
  8
0
 62
7
  6
CONTINUOUS
 10
86.1924025657
 20
121.2503734103
  0
VERTEX
  8
0
 62
7
  6
CONTINUOUS
 10
86.1955830708
 20
121.4953534104
  0
VERTEX
  8
0
 62
7
  6
CONTINUOUS
 10
86.1972972984
 20
121.5938995025
  0
VERTEX
  8
0
 62
7
  6
CONTINUOUS
 10
86.1990780341
 20
121.6755053165
  0
VERTEX
  8
0
 62
7
  6
CONTINUOUS
 10
86.2009125551
 20
121.7395876388
  0
VERTEX
  8
0
 62
7
  6
CONTINUOUS
 10
86.202787754
 20
121.7856884774
  0
VERTEX
  8
0
 62
7
  6
CONTINUOUS
 10
86.2046902322
 20
121.8134783444
  0
VERTEX
  8
0
 62
7
  6
CONTINUOUS
 10
86.2066056021
 20
121.8227586207
  0
SEQEND
  0
LINE
  8
CURVE
 62
7
  6
CONTINUOUS
 10
78.0723136791
 20
130.5513994028
 11
78.1532732887
 21
130.6513761945
  0
POLYLINE
  8
0
 62
7
  6
CONTINUOUS
 66
1
 70
0
  0
VERTEX
  8
0
 62
7
  6
CONTINUOUS
 10
100.2966379675
 20
118.8541476784
  0
VERTEX
  8
0
 62
7
  6
CONTINUOUS
 10
100.3620642917
 20
118.858285236
  0
VERTEX
  8
0
 62
7
  6
CONTINUOUS
 10
100.427107328
 20
118.8708065362
  0
VERTEX
  8
0
 62
7
  6
CONTINUOUS
 10
100.4900267223
 20
118.891505277
  0
VERTEX
  8
0
 62
7
  6
CONTINUOUS
 10
100.5499302777
 20
118.9201240201
  0
VERTEX
  8
0
 62
7
  6
CONTINUOUS
 10
100.606021014
 20
118.9564029661
  0
VERTEX
  8
0
 62
7
  6
CONTINUOUS
 10
100.6567757703
 20
118.9993887823
  0
VERTEX
  8
0
 62
7
  6
CONTINUOUS
 10
100.7014821011
 20
119.0483576045
  0
VERTEX
  8
0
 62
7
  6
CONTINUOUS
 10
100.73968387
 20
119.1028161906
  0
VERTEX
  8
0
 62
7
  6
CONTINUOUS
 10
100.7704459393
 20
119.1613867436
  0
VERTEX
  8
0
 62
7
  6
CONTINUOUS
 10
100.7932996773
 20
119.2227586207
  0
SEQEND
  0
POLYLINE
  8
CURVE
 62
7
  6
CONTINUOUS
 66
1
 70
0
  0
VERTEX
  8
CURVE
 62
7
  6
CONTINUOUS
 10
74.9184359428
 20
118.5009606454
  0
VERTEX
  8
CURVE
 62
7
  6
CONTINUOUS
 10
75.0097385271
 20
118.505864696
  0
VERTEX
  8
CURVE
 62
7
  6
CONTINUOUS
 10
75.1013782429
 20
118.5208204095
  0
VERTEX
  8
CURVE
 62
7
  6
CONTINUOUS
 10
75.19133013
 20
118.5458112933
  0
VERTEX
  8
CURVE
 62
7
  6
CONTINUOUS
 10
75.2779044088
 20
118.580435293
  0
VERTEX
  8
CURVE
 62
7
  6
CONTINUOUS
 10
75.360756974
 20
118.6246590972
  0
VERTEX
  8
CURVE
 62
7
  6
CONTINUOUS
 10
75.4384466926
 20
118.6778990295
  0
VERTEX
  8
CURVE
 62
7
  6
CONTINUOUS
 10
75.5094277324
 20
118.7390660943
  0
VERTEX
  8
CURVE
 62
7
  6
CONTINUOUS
 10
75.5730179852
 20
118.8074076645
  0
VERTEX
  8
CURVE
 62
7
  6
CONTINUOUS
 10
75.6288462966
 20
118.8825139189
  0
VERTEX
  8
CURVE
 62
7
  6
CONTINUOUS
 10
75.6758698321
 20
118.9629498916
  0
VERTEX
  8
CURVE
 62
7
  6
CONTINUOUS
 10
75.7133945329
 20
119.0470613339
  0
VERTEX
  8
CURVE
 62
7
  6
CONTINUOUS
 10
75.7414055875
 20
119.1341464784
  0
VERTEX
  8
CURVE
 62
7
  6
CONTINUOUS
 10
75.7597124986
 20
119.2227586207
  0
SEQEND
  0
POLYLINE
  8
CURVE
 62
7
  6
CONTINUOUS
 66
1
 70
0
  0
VERTEX
  8
CURVE
 62
7
  6
CONTINUOUS
 10
62.2184359428
 20
118.5009606454
  0
VERTEX
  8
CURVE
 62
7
  6
CONTINUOUS
 10
62.3097385271
 20
118.505864696
  0
VERTEX
  8
CURVE
 62
7
  6
CONTINUOUS
 10
62.4013782429
 20
118.5208204095
  0
VERTEX
  8
CURVE
 62
7
  6
CONTINUOUS
 10
62.49133013
 20
118.5458112933
  0
VERTEX
  8
CURVE
 62
7
  6
CONTINUOUS
 10
62.5779044088
 20
118.580435293
  0
VERTEX
  8
CURVE
 62
7
  6
CONTINUOUS
 10
62.660756974
 20
118.6246590972
  0
VERTEX
  8
CURVE
 62
7
  6
CONTINUOUS
 10
62.7384466926
 20
118.6778990295
  0
VERTEX
  8
CURVE
 62
7
  6
CONTINUOUS
 10
62.8094277324
 20
118.7390660943
  0
VERTEX
  8
CURVE
 62
7
  6
CONTINUOUS
 10
62.8730179852
 20
118.8074076645
  0
VERTEX
  8
CURVE
 62
7
  6
CONTINUOUS
 10
62.9288462966
 20
118.8825139189
  0
VERTEX
  8
CURVE
 62
7
  6
CONTINUOUS
 10
62.9758698321
 20
118.9629498916
  0
VERTEX
  8
CURVE
 62
7
  6
CONTINUOUS
 10
63.0133945329
 20
119.0470613339
  0
VERTEX
  8
CURVE
 62
7
  6
CONTINUOUS
 10
63.0414055875
 20
119.1341464784
  0
VERTEX
  8
CURVE
 62
7
  6
CONTINUOUS
 10
63.0597124986
 20
119.2227586207
  0
SEQEND
  0
POLYLINE
  8
CURVE
 62
7
  6
CONTINUOUS
 66
1
 70
0
  0
VERTEX
  8
CURVE
 62
7
  6
CONTINUOUS
 10
49.5184359428
 20
118.5009606454
  0
VERTEX
  8
CURVE
 62
7
  6
CONTINUOUS
 10
49.6097385271
 20
118.505864696
  0
VERTEX
  8
CURVE
 62
7
  6
CONTINUOUS
 10
49.7013782429
 20
118.5208204095
  0
VERTEX
  8
CURVE
 62
7
  6
CONTINUOUS
 10
49.79133013
 20
118.5458112933
  0
VERTEX
  8
CURVE
 62
7
  6
CONTINUOUS
 10
49.8779044088
 20
118.580435293
  0
VERTEX
  8
CURVE
 62
7
  6
CONTINUOUS
 10
49.960756974
 20
118.6246590972
  0
VERTEX
  8
CURVE
 62
7
  6
CONTINUOUS
 10
50.0384466926
 20
118.6778990295
  0
VERTEX
  8
CURVE
 62
7
  6
CONTINUOUS
 10
50.1094277324
 20
118.7390660943
  0
VERTEX
  8
CURVE
 62
7
  6
CONTINUOUS
 10
50.1730179852
 20
118.8074076645
  0
VERTEX
  8
CURVE
 62
7
  6
CONTINUOUS
 10
50.2288462966
 20
118.8825139189
  0
VERTEX
  8
CURVE
 62
7
  6
CONTINUOUS
 10
50.2758698321
 20
118.9629498916
  0
VERTEX
  8
CURVE
 62
7
  6
CONTINUOUS
 10
50.3133945329
 20
119.0470613339
  0
VERTEX
  8
CURVE
 62
7
  6
CONTINUOUS
 10
50.3414055875
 20
119.1341464784
  0
VERTEX
  8
CURVE
 62
7
  6
CONTINUOUS
 10
50.3597124986
 20
119.2227586207
  0
SEQEND
  0
LINE
  8
0
 62
7
  6
CONTINUOUS
 10
113.0184359428
 20
118.5009606454
 11
112.4347752613
 21
118.5009606454
  0
LINE
  8
0
 62
7
  6
CONTINUOUS
 10
100.3184359428
 20
118.5009606454
 11
99.7347752613
 21
118.5009606454
  0
LINE
  8
0
 62
7
  6
CONTINUOUS
 10
87.6184359428
 20
118.5009606454
 11
87.0347752613
 21
118.5009606454
  0
LINE
  8
CURVE
 62
7
  6
CONTINUOUS
 10
48.9347752613
 20
118.5009606454
 11
49.5184359428
 21
118.5009606454
  0
LINE
  8
CURVE
 62
7
  6
CONTINUOUS
 10
61.6347752613
 20
118.5009606454
 11
62.2184359428
 21
118.5009606454
  0
LINE
  8
CURVE
 62
7
  6
CONTINUOUS
 10
74.3347752613
 20
118.5009606454
 11
74.9184359428
 21
118.5009606454
  0
LINE
  8
0
 62
7
  6
CONTINUOUS
 10
100.2966379675
 20
118.8541476784
 11
99.7565732367
 21
118.8541476784
  0
LINE
  8
CURVE
 62
7
  6
CONTINUOUS
 10
61.6565732367
 20
118.8541476784
 11
62.1966379675
 21
118.8541476784
  0
LINE
  8
DEFAULT_1
 62
2
  6
CENTER
 10
27.2099516776
 20
119.2227586207
 11
132.0166056021
 21
119.2227586207
  0
LINE
  8
0
 62
7
  6
CONTINUOUS
 10
101.1466056021
 20
121.8227586207
 11
100.7927558754
 21
121.8227586207
  0
LINE
  8
0
 62
7
  6
CONTINUOUS
 10
99.2604553288
 20
121.8227586207
 11
98.9066056021
 21
121.8227586207
  0
LINE
  8
CURVE
 62
7
  6
CONTINUOUS
 10
60.8066056021
 20
121.8227586207
 11
61.1604553288
 21
121.8227586207
  0
LINE
  8
CURVE
 62
7
  6
CONTINUOUS
 10
62.6927558754
 20
121.8227586207
 11
63.0466056021
 21
121.8227586207
  0
POLYLINE
  8
0
 62
7
  6
CONTINUOUS
 66
1
 70
0
  0
VERTEX
  8
0
 62
7
  6
CONTINUOUS
 10
87.0347752613
 20
118.5009606454
  0
VERTEX
  8
0
 62
7
  6
CONTINUOUS
 10
86.943472677
 20
118.505864696
  0
VERTEX
  8
0
 62
7
  6
CONTINUOUS
 10
86.8518329612
 20
118.5208204095
  0
VERTEX
  8
0
 62
7
  6
CONTINUOUS
 10
86.7618810741
 20
118.5458112933
  0
VERTEX
  8
0
 62
7
  6
CONTINUOUS
 10
86.6753067953
 20
118.580435293
  0
VERTEX
  8
0
 62
7
  6
CONTINUOUS
 10
86.5924542302
 20
118.6246590972
  0
VERTEX
  8
0
 62
7
  6
CONTINUOUS
 10
86.5147645115
 20
118.6778990295
  0
VERTEX
  8
0
 62
7
  6
CONTINUOUS
 10
86.4437834718
 20
118.7390660943
  0
VERTEX
  8
0
 62
7
  6
CONTINUOUS
 10
86.3801932189
 20
118.8074076645
  0
VERTEX
  8
0
 62
7
  6
CONTINUOUS
 10
86.3243649075
 20
118.8825139189
  0
VERTEX
  8
0
 62
7
  6
CONTINUOUS
 10
86.277341372
 20
118.9629498916
  0
VERTEX
  8
0
 62
7
  6
CONTINUOUS
 10
86.2398166712
 20
119.0470613339
  0
VERTEX
  8
0
 62
7
  6
CONTINUOUS
 10
86.2118056166
 20
119.1341464784
  0
VERTEX
  8
0
 62
7
  6
CONTINUOUS
 10
86.1934987055
 20
119.2227586207
  0
SEQEND
  0
POLYLINE
  8
0
 62
7
  6
CONTINUOUS
 66
1
 70
0
  0
VERTEX
  8
0
 62
7
  6
CONTINUOUS
 10
99.7347752613
 20
118.5009606454
  0
VERTEX
  8
0
 62
7
  6
CONTINUOUS
 10
99.643472677
 20
118.505864696
  0
VERTEX
  8
0
 62
7
  6
CONTINUOUS
 10
99.5518329612
 20
118.5208204095
  0
VERTEX
  8
0
 62
7
  6
CONTINUOUS
 10
99.4618810741
 20
118.5458112933
  0
VERTEX
  8
0
 62
7
  6
CONTINUOUS
 10
99.3753067953
 20
118.580435293
  0
VERTEX
  8
0
 62
7
  6
CONTINUOUS
 10
99.2924542302
 20
118.6246590972
  0
VERTEX
  8
0
 62
7
  6
CONTINUOUS
 10
99.2147645115
 20
118.6778990295
  0
VERTEX
  8
0
 62
7
  6
CONTINUOUS
 10
99.1437834718
 20
118.7390660943
  0
VERTEX
  8
0
 62
7
  6
CONTINUOUS
 10
99.0801932189
 20
118.8074076645
  0
VERTEX
  8
0
 62
7
  6
CONTINUOUS
 10
99.0243649075
 20
118.8825139189
  0
VERTEX
  8
0
 62
7
  6
CONTINUOUS
 10
98.977341372
 20
118.9629498916
  0
VERTEX
  8
0
 62
7
  6
CONTINUOUS
 10
98.9398166712
 20
119.0470613339
  0
VERTEX
  8
0
 62
7
  6
CONTINUOUS
 10
98.9118056166
 20
119.1341464784
  0
VERTEX
  8
0
 62
7
  6
CONTINUOUS
 10
98.8934987055
 20
119.2227586207
  0
SEQEND
  0
POLYLINE
  8
0
 62
7
  6
CONTINUOUS
 66
1
 70
0
  0
VERTEX
  8
0
 62
7
  6
CONTINUOUS
 10
112.4347752613
 20
118.5009606454
  0
VERTEX
  8
0
 62
7
  6
CONTINUOUS
 10
112.343472677
 20
118.505864696
  0
VERTEX
  8
0
 62
7
  6
CONTINUOUS
 10
112.2518329612
 20
118.5208204095
  0
VERTEX
  8
0
 62
7
  6
CONTINUOUS
 10
112.1618810741
 20
118.5458112933
  0
VERTEX
  8
0
 62
7
  6
CONTINUOUS
 10
112.0753067953
 20
118.580435293
  0
VERTEX
  8
0
 62
7
  6
CONTINUOUS
 10
111.9924542302
 20
118.6246590972
  0
VERTEX
  8
0
 62
7
  6
CONTINUOUS
 10
111.9147645115
 20
118.6778990295
  0
VERTEX
  8
0
 62
7
  6
CONTINUOUS
 10
111.8437834718
 20
118.7390660943
  0
VERTEX
  8
0
 62
7
  6
CONTINUOUS
 10
111.7801932189
 20
118.8074076645
  0
VERTEX
  8
0
 62
7
  6
CONTINUOUS
 10
111.7243649075
 20
118.8825139189
  0
VERTEX
  8
0
 62
7
  6
CONTINUOUS
 10
111.677341372
 20
118.9629498916
  0
VERTEX
  8
0
 62
7
  6
CONTINUOUS
 10
111.6398166712
 20
119.0470613339
  0
VERTEX
  8
0
 62
7
  6
CONTINUOUS
 10
111.6118056166
 20
119.1341464784
  0
VERTEX
  8
0
 62
7
  6
CONTINUOUS
 10
111.5934987055
 20
119.2227586207
  0
SEQEND
  0
LINE
  8
0
 62
7
  6
CONTINUOUS
 10
83.880897525
 20
130.5513994028
 11
83.7999379154
 21
130.6513761945
  0
POLYLINE
  8
0
 62
7
  6
CONTINUOUS
 66
1
 70
0
  0
VERTEX
  8
0
 62
7
  6
CONTINUOUS
 10
82.1097124986
 20
144.6227586207
  0
VERTEX
  8
0
 62
7
  6
CONTINUOUS
 10
82.1150302446
 20
144.5804944366
  0
VERTEX
  8
0
 62
7
  6
CONTINUOUS
 10
82.1182176257
 20
144.5380217035
  0
VERTEX
  8
0
 62
7
  6
CONTINUOUS
 10
82.1192682434
 20
144.4954536275
  0
SEQEND
  0
POLYLINE
  8
0
 62
7
  6
CONTINUOUS
 66
1
 70
0
  0
VERTEX
  8
0
 62
7
  6
CONTINUOUS
 10
86.1934987055
 20
119.2227586207
  0
VERTEX
  8
0
 62
7
  6
CONTINUOUS
 10
86.1881812775
 20
119.2650196362
  0
VERTEX
  8
0
 62
7
  6
CONTINUOUS
 10
86.1849937404
 20
119.3074922867
  0
VERTEX
  8
0
 62
7
  6
CONTINUOUS
 10
86.1839429607
 20
119.3500636139
  0
SEQEND
  0
POLYLINE
  8
0
 62
7
  6
CONTINUOUS
 66
1
 70
0
  0
VERTEX
  8
0
 62
7
  6
CONTINUOUS
 10
88.4466056021
 20
128.5227909861
  0
VERTEX
  8
0
 62
7
  6
CONTINUOUS
 10
88.4419496962
 20
128.6116369245
  0
VERTEX
  8
0
 62
7
  6
CONTINUOUS
 10
88.4280328251
 20
128.6995096184
  0
VERTEX
  8
0
 62
7
  6
CONTINUOUS
 10
88.4050072245
 20
128.7854463594
  0
VERTEX
  8
0
 62
7
  6
CONTINUOUS
 10
88.373124955
 20
128.8685055814
  0
VERTEX
  8
0
 62
7
  6
CONTINUOUS
 10
88.332735159
 20
128.9477771916
  0
VERTEX
  8
0
 62
7
  6
CONTINUOUS
 10
88.2842802486
 20
129.0223925625
  0
VERTEX
  8
0
 62
7
  6
CONTINUOUS
 10
88.2282910634
 20
129.0915340714
  0
VERTEX
  8
0
 62
7
  6
CONTINUOUS
 10
88.1653810528
 20
129.154444082
  0
VERTEX
  8
0
 62
7
  6
CONTINUOUS
 10
88.0962395439
 20
129.2104332672
  0
VERTEX
  8
0
 62
7
  6
CONTINUOUS
 10
88.021624173
 20
129.2588881777
  0
VERTEX
  8
0
 62
7
  6
CONTINUOUS
 10
87.9423525627
 20
129.2992779736
  0
VERTEX
  8
0
 62
7
  6
CONTINUOUS
 10
87.8592933408
 20
129.3311602431
  0
VERTEX
  8
0
 62
7
  6
CONTINUOUS
 10
87.7733565998
 20
129.3541858437
  0
VERTEX
  8
0
 62
7
  6
CONTINUOUS
 10
87.6854839059
 20
129.3681027149
  0
VERTEX
  8
0
 62
7
  6
CONTINUOUS
 10
87.5966379675
 20
129.3727586207
  0
SEQEND
  0
POLYLINE
  8
0
 62
7
  6
CONTINUOUS
 66
1
 70
0
  0
VERTEX
  8
0
 62
7
  6
CONTINUOUS
 10
88.4559139057
 20
121.5938995025
  0
VERTEX
  8
0
 62
7
  6
CONTINUOUS
 10
88.45413317
 20
121.6755053165
  0
VERTEX
  8
0
 62
7
  6
CONTINUOUS
 10
88.452298649
 20
121.7395876388
  0
VERTEX
  8
0
 62
7
  6
CONTINUOUS
 10
88.4504234501
 20
121.7856884774
  0
VERTEX
  8
0
 62
7
  6
CONTINUOUS
 10
88.4485209719
 20
121.8134783444
  0
VERTEX
  8
0
 62
7
  6
CONTINUOUS
 10
88.4466056021
 20
121.8227586207
  0
SEQEND
  0
LINE
  8
0
 62
7
  6
CONTINUOUS
 10
88.4592636055
 20
121.3805712956
 11
88.4559139057
 21
121.5938995025
  0
LINE
  8
0
 62
7
  6
CONTINUOUS
 10
88.4622521944
 20
121.1056901289
 11
88.4592636055
 21
121.3805712956
  0
LINE
  8
0
 62
7
  6
CONTINUOUS
 10
88.4647944267
 20
120.77709879
 11
88.4622521944
 21
121.1056901289
  0
LINE
  8
0
 62
7
  6
CONTINUOUS
 10
88.4668177952
 20
120.4041716318
 11
88.4647944267
 21
120.77709879
  0
LINE
  8
0
 62
7
  6
CONTINUOUS
 10
88.4682645963
 20
119.9975469149
 11
88.4668177952
 21
120.4041716318
  0
LINE
  8
0
 62
7
  6
CONTINUOUS
 10
92.5355949572
 20
143.6411519462
 11
92.5344529909
 21
144.0603233078
  0
POLYLINE
  8
0
 62
7
  6
CONTINUOUS
 66
1
 70
0
  0
VERTEX
  8
0
 62
7
  6
CONTINUOUS
 10
88.4692682434
 20
119.3500636139
  0
VERTEX
  8
0
 62
7
  6
CONTINUOUS
 10
88.4690935724
 20
119.5688233
  0
VERTEX
  8
0
 62
7
  6
CONTINUOUS
 10
88.4682645963
 20
119.9975469149
  0
SEQEND
  0
LINE
  8
0
 62
7
  6
CONTINUOUS
 10
92.5344529909
 20
144.0603233078
 11
92.5339429607
 21
144.4954536275
  0
LINE
  8
0
 62
7
  6
CONTINUOUS
 10
88.4466056021
 20
121.8227586207
 11
88.4466056021
 21
128.5227909861
  0
LINE
  8
0
 62
7
  6
CONTINUOUS
 10
90.3266056021
 20
129.2927586207
 11
90.3266056021
 21
115.5227606032
  0
LINE
  8
0
 62
7
  6
CONTINUOUS
 10
90.6766056021
 20
134.5527586207
 11
90.6766056021
 21
148.3227586207
  0
LINE
  8
0
 62
7
  6
CONTINUOUS
 10
92.5566056021
 20
142.0227586207
 11
92.5566056021
 21
135.3227262553
  0
POLYLINE
  8
0
 62
7
  6
CONTINUOUS
 66
1
 70
0
  0
VERTEX
  8
0
 62
7
  6
CONTINUOUS
 10
88.4692682434
 20
119.3500636139
  0
VERTEX
  8
0
 62
7
  6
CONTINUOUS
 10
88.4682174338
 20
119.3074916854
  0
VERTEX
  8
0
 62
7
  6
CONTINUOUS
 10
88.4650298641
 20
119.2650190135
  0
VERTEX
  8
0
 62
7
  6
CONTINUOUS
 10
88.4597124986
 20
119.2227586207
  0
SEQEND
  0
POLYLINE
  8
0
 62
7
  6
CONTINUOUS
 66
1
 70
0
  0
VERTEX
  8
0
 62
7
  6
CONTINUOUS
 10
92.5339429607
 20
144.4954536275
  0
VERTEX
  8
0
 62
7
  6
CONTINUOUS
 10
92.5349936079
 20
144.5380222954
  0
VERTEX
  8
0
 62
7
  6
CONTINUOUS
 10
92.5381810226
 20
144.5804950652
  0
VERTEX
  8
0
 62
7
  6
CONTINUOUS
 10
92.5434987055
 20
144.6227586207
  0
SEQEND
  0
POLYLINE
  8
0
 62
7
  6
CONTINUOUS
 66
1
 70
0
  0
VERTEX
  8
0
 62
7
  6
CONTINUOUS
 10
92.5434987055
 20
144.6227586207
  0
VERTEX
  8
0
 62
7
  6
CONTINUOUS
 10
92.5617907662
 20
144.7113142874
  0
VERTEX
  8
0
 62
7
  6
CONTINUOUS
 10
92.5897814006
 20
144.7983636542
  0
VERTEX
  8
0
 62
7
  6
CONTINUOUS
 10
92.6272966367
 20
144.8824801402
  0
VERTEX
  8
0
 62
7
  6
CONTINUOUS
 10
92.6743197076
 20
144.9629349262
  0
VERTEX
  8
0
 62
7
  6
CONTINUOUS
 10
92.7301493831
 20
145.038056933
  0
VERTEX
  8
0
 62
7
  6
CONTINUOUS
 10
92.7937281209
 20
145.1063978542
  0
VERTEX
  8
0
 62
7
  6
CONTINUOUS
 10
92.8647347833
 20
145.1675953217
  0
VERTEX
  8
0
 62
7
  6
CONTINUOUS
 10
92.9424340742
 20
145.2208459121
  0
VERTEX
  8
0
 62
7
  6
CONTINUOUS
 10
93.0252867871
 20
145.2650726466
  0
VERTEX
  8
0
 62
7
  6
CONTINUOUS
 10
93.1118737085
 20
145.2997034601
  0
VERTEX
  8
0
 62
7
  6
CONTINUOUS
 10
93.2018373153
 20
145.3246977884
  0
VERTEX
  8
0
 62
7
  6
CONTINUOUS
 10
93.2934789342
 20
145.3396532194
  0
VERTEX
  8
0
 62
7
  6
CONTINUOUS
 10
93.3847752613
 20
145.344556596
  0
SEQEND
  0
POLYLINE
  8
0
 62
7
  6
CONTINUOUS
 66
1
 70
0
  0
VERTEX
  8
0
 62
7
  6
CONTINUOUS
 10
88.4597124986
 20
119.2227586207
  0
VERTEX
  8
0
 62
7
  6
CONTINUOUS
 10
88.4414055866
 20
119.1341464751
  0
VERTEX
  8
0
 62
7
  6
CONTINUOUS
 10
88.413396252
 20
119.0470658297
  0
VERTEX
  8
0
 62
7
  6
CONTINUOUS
 10
88.3758697106
 20
118.9629496547
  0
VERTEX
  8
0
 62
7
  6
CONTINUOUS
 10
88.3288438203
 20
118.8825101722
  0
VERTEX
  8
0
 62
7
  6
CONTINUOUS
 10
88.2730175343
 20
118.8074071229
  0
VERTEX
  8
0
 62
7
  6
CONTINUOUS
 10
88.2094291628
 20
118.7390674714
  0
VERTEX
  8
0
 62
7
  6
CONTINUOUS
 10
88.1384390224
 20
118.6778931238
  0
VERTEX
  8
0
 62
7
  6
CONTINUOUS
 10
88.0607433801
 20
118.6246508479
  0
VERTEX
  8
0
 62
7
  6
CONTINUOUS
 10
87.9778905454
 20
118.5804288483
  0
VERTEX
  8
0
 62
7
  6
CONTINUOUS
 10
87.8913130581
 20
118.5458055269
  0
VERTEX
  8
0
 62
7
  6
CONTINUOUS
 10
87.8013544317
 20
118.5208151792
  0
VERTEX
  8
0
 62
7
  6
CONTINUOUS
 10
87.7097206916
 20
118.5058627748
  0
VERTEX
  8
0
 62
7
  6
CONTINUOUS
 10
87.6184359428
 20
118.5009606454
  0
SEQEND
  0
LINE
  8
0
 62
7
  6
CONTINUOUS
 10
90.1499379153
 20
133.1941410468
 11
90.230897525
 21
133.2941178386
  0
LINE
  8
CURVE
 62
7
  6
CONTINUOUS
 10
36.7666056021
 20
124.2727586207
 11
38.6766056021
 21
124.2727586207
  0
LINE
  8
0
 62
7
  6
CONTINUOUS
 10
123.2766056021
 20
124.2727586207
 11
125.1866056021
 21
124.2727586207
  0
POLYLINE
  8
CURVE
 62
7
  6
CONTINUOUS
 66
1
 70
0
  0
VERTEX
  8
CURVE
 62
7
  6
CONTINUOUS
 10
49.4966379675
 20
129.3727586207
  0
VERTEX
  8
CURVE
 62
7
  6
CONTINUOUS
 10
49.5854839059
 20
129.3681027149
  0
VERTEX
  8
CURVE
 62
7
  6
CONTINUOUS
 10
49.6733565998
 20
129.3541858437
  0
VERTEX
  8
CURVE
 62
7
  6
CONTINUOUS
 10
49.7592933408
 20
129.3311602431
  0
VERTEX
  8
CURVE
 62
7
  6
CONTINUOUS
 10
49.8423525627
 20
129.2992779736
  0
VERTEX
  8
CURVE
 62
7
  6
CONTINUOUS
 10
49.921624173
 20
129.2588881777
  0
VERTEX
  8
CURVE
 62
7
  6
CONTINUOUS
 10
49.9962395439
 20
129.2104332672
  0
VERTEX
  8
CURVE
 62
7
  6
CONTINUOUS
 10
50.0653810528
 20
129.154444082
  0
VERTEX
  8
CURVE
 62
7
  6
CONTINUOUS
 10
50.1282910634
 20
129.0915340714
  0
VERTEX
  8
CURVE
 62
7
  6
CONTINUOUS
 10
50.1842802486
 20
129.0223925625
  0
VERTEX
  8
CURVE
 62
7
  6
CONTINUOUS
 10
50.232735159
 20
128.9477771916
  0
VERTEX
  8
CURVE
 62
7
  6
CONTINUOUS
 10
50.273124955
 20
128.8685055814
  0
VERTEX
  8
CURVE
 62
7
  6
CONTINUOUS
 10
50.3050072245
 20
128.7854463594
  0
VERTEX
  8
CURVE
 62
7
  6
CONTINUOUS
 10
50.3280328251
 20
128.6995096184
  0
VERTEX
  8
CURVE
 62
7
  6
CONTINUOUS
 10
50.3419496962
 20
128.6116369245
  0
VERTEX
  8
CURVE
 62
7
  6
CONTINUOUS
 10
50.3466056021
 20
128.5227909861
  0
SEQEND
  0
POLYLINE
  8
CURVE
 62
7
  6
CONTINUOUS
 66
1
 70
0
  0
VERTEX
  8
CURVE
 62
7
  6
CONTINUOUS
 10
62.1966379675
 20
129.018908894
  0
VERTEX
  8
CURVE
 62
7
  6
CONTINUOUS
 10
62.2563420134
 20
129.0153042681
  0
VERTEX
  8
CURVE
 62
7
  6
CONTINUOUS
 10
62.3152575549
 20
129.0045202449
  0
VERTEX
  8
CURVE
 62
7
  6
CONTINUOUS
 10
62.372451644
 20
128.9867149349
  0
VERTEX
  8
CURVE
 62
7
  6
CONTINUOUS
 10
62.4271835132
 20
128.9620919895
  0
VERTEX
  8
CURVE
 62
7
  6
CONTINUOUS
 10
62.4784306717
 20
128.9311177318
  0
VERTEX
  8
CURVE
 62
7
  6
CONTINUOUS
 10
62.525653561
 20
128.8941225598
  0
VERTEX
  8
CURVE
 62
7
  6
CONTINUOUS
 10
62.5679695412
 20
128.8518065797
  0
VERTEX
  8
CURVE
 62
7
  6
CONTINUOUS
 10
62.6049647132
 20
128.8045836903
  0
VERTEX
  8
CURVE
 62
7
  6
CONTINUOUS
 10
62.6359389709
 20
128.7533365318
  0
VERTEX
  8
CURVE
 62
7
  6
CONTINUOUS
 10
62.6605619163
 20
128.6986046626
  0
VERTEX
  8
CURVE
 62
7
  6
CONTINUOUS
 10
62.6783672263
 20
128.6414105736
  0
VERTEX
  8
CURVE
 62
7
  6
CONTINUOUS
 10
62.6891512495
 20
128.582495032
  0
VERTEX
  8
CURVE
 62
7
  6
CONTINUOUS
 10
62.6927558754
 20
128.5227909861
  0
SEQEND
  0
LINE
  8
0
 62
7
  6
CONTINUOUS
 10
84.4223136791
 20
133.2941178386
 11
84.5032732842
 21
133.1941410526
  0
LINE
  8
0
 62
7
  6
CONTINUOUS
 10
92.5472972984
 20
142.2516177382
 11
92.5439475986
 21
142.4649459451
  0
LINE
  8
0
 62
7
  6
CONTINUOUS
 10
92.5439475986
 20
142.4649459451
 11
92.5409590097
 21
142.7398271123
  0
LINE
  8
0
 62
7
  6
CONTINUOUS
 10
92.5409590097
 20
142.7398271123
 11
92.5384167774
 21
143.0684184519
  0
POLYLINE
  8
0
 62
7
  6
CONTINUOUS
 66
1
 70
0
  0
VERTEX
  8
0
 62
7
  6
CONTINUOUS
 10
92.5384167774
 20
143.0684184519
  0
VERTEX
  8
0
 62
7
  6
CONTINUOUS
 10
92.5363934089
 20
143.4413456106
  0
VERTEX
  8
0
 62
7
  6
CONTINUOUS
 10
92.5355949572
 20
143.6411519462
  0
SEQEND
  0
LINE
  8
0
 62
7
  6
CONTINUOUS
 10
94.7966056021
 20
135.3227262553
 11
94.7966056021
 21
142.0227586207
  0
LINE
  8
0
 62
7
  6
CONTINUOUS
 10
96.6766056021
 20
148.3227566382
 11
96.6766056021
 21
134.5527586207
  0
LINE
  8
0
 62
7
  6
CONTINUOUS
 10
97.0266056021
 20
115.5227586207
 11
97.0266056021
 21
129.2927586207
  0
LINE
  8
0
 62
7
  6
CONTINUOUS
 10
94.8182645963
 20
143.8479703277
 11
94.8192682434
 21
144.4954536275
  0
LINE
  8
0
 62
7
  6
CONTINUOUS
 10
94.8168177952
 20
143.4413456106
 11
94.8182645963
 21
143.8479703277
  0
LINE
  8
0
 62
7
  6
CONTINUOUS
 10
94.8147944267
 20
143.0684184519
 11
94.8168177952
 21
143.4413456106
  0
LINE
  8
0
 62
7
  6
CONTINUOUS
 10
94.8122521944
 20
142.7398271123
 11
94.8147944267
 21
143.0684184519
  0
LINE
  8
0
 62
7
  6
CONTINUOUS
 10
94.8092636055
 20
142.4649459451
 11
94.8122521944
 21
142.7398271123
  0
POLYLINE
  8
0
 62
7
  6
CONTINUOUS
 66
1
 70
0
  0
VERTEX
  8
0
 62
7
  6
CONTINUOUS
 10
94.7966056021
 20
135.3227262553
  0
VERTEX
  8
0
 62
7
  6
CONTINUOUS
 10
94.7919496962
 20
135.2338803168
  0
VERTEX
  8
0
 62
7
  6
CONTINUOUS
 10
94.7780328251
 20
135.1460076229
  0
VERTEX
  8
0
 62
7
  6
CONTINUOUS
 10
94.7550072245
 20
135.060070882
  0
VERTEX
  8
0
 62
7
  6
CONTINUOUS
 10
94.723124955
 20
134.97701166
  0
VERTEX
  8
0
 62
7
  6
CONTINUOUS
 10
94.682735159
 20
134.8977400498
  0
VERTEX
  8
0
 62
7
  6
CONTINUOUS
 10
94.6342802486
 20
134.8231246788
  0
VERTEX
  8
0
 62
7
  6
CONTINUOUS
 10
94.5782910634
 20
134.75398317
  0
VERTEX
  8
0
 62
7
  6
CONTINUOUS
 10
94.5153810528
 20
134.6910731594
  0
VERTEX
  8
0
 62
7
  6
CONTINUOUS
 10
94.4462395439
 20
134.6350839742
  0
VERTEX
  8
0
 62
7
  6
CONTINUOUS
 10
94.371624173
 20
134.5866290637
  0
VERTEX
  8
0
 62
7
  6
CONTINUOUS
 10
94.2923525627
 20
134.5462392678
  0
VERTEX
  8
0
 62
7
  6
CONTINUOUS
 10
94.2092933408
 20
134.5143569982
  0
VERTEX
  8
0
 62
7
  6
CONTINUOUS
 10
94.1233565998
 20
134.4913313977
  0
VERTEX
  8
0
 62
7
  6
CONTINUOUS
 10
94.0354839059
 20
134.4774145265
  0
VERTEX
  8
0
 62
7
  6
CONTINUOUS
 10
93.9466379675
 20
134.4727586207
  0
SEQEND
  0
POLYLINE
  8
0
 62
7
  6
CONTINUOUS
 66
1
 70
0
  0
VERTEX
  8
0
 62
7
  6
CONTINUOUS
 10
94.7966056021
 20
142.0227586207
  0
VERTEX
  8
0
 62
7
  6
CONTINUOUS
 10
94.7985209719
 20
142.0320388969
  0
VERTEX
  8
0
 62
7
  6
CONTINUOUS
 10
94.8004234501
 20
142.0598287638
  0
VERTEX
  8
0
 62
7
  6
CONTINUOUS
 10
94.802298649
 20
142.1059296022
  0
VERTEX
  8
0
 62
7
  6
CONTINUOUS
 10
94.80413317
 20
142.1700119243
  0
VERTEX
  8
0
 62
7
  6
CONTINUOUS
 10
94.8059139057
 20
142.2516177382
  0
VERTEX
  8
0
 62
7
  6
CONTINUOUS
 10
94.8092636055
 20
142.4649459451
  0
SEQEND
  0
LINE
  8
0
 62
7
  6
CONTINUOUS
 10
90.8532732867
 20
130.6513761919
 11
90.7723136791
 21
130.5513994028
  0
POLYLINE
  8
0
 62
7
  6
CONTINUOUS
 66
1
 70
0
  0
VERTEX
  8
0
 62
7
  6
CONTINUOUS
 10
99.7565732367
 20
129.018908894
  0
VERTEX
  8
0
 62
7
  6
CONTINUOUS
 10
99.6968691907
 20
129.0153042681
  0
VERTEX
  8
0
 62
7
  6
CONTINUOUS
 10
99.6379536492
 20
129.0045202449
  0
VERTEX
  8
0
 62
7
  6
CONTINUOUS
 10
99.5807595601
 20
128.9867149349
  0
VERTEX
  8
0
 62
7
  6
CONTINUOUS
 10
99.5260276909
 20
128.9620919895
  0
VERTEX
  8
0
 62
7
  6
CONTINUOUS
 10
99.4747805324
 20
128.9311177318
  0
VERTEX
  8
0
 62
7
  6
CONTINUOUS
 10
99.4275576431
 20
128.8941225598
  0
VERTEX
  8
0
 62
7
  6
CONTINUOUS
 10
99.3852416629
 20
128.8518065797
  0
VERTEX
  8
0
 62
7
  6
CONTINUOUS
 10
99.348246491
 20
128.8045836903
  0
VERTEX
  8
0
 62
7
  6
CONTINUOUS
 10
99.3172722332
 20
128.7533365318
  0
VERTEX
  8
0
 62
7
  6
CONTINUOUS
 10
99.2926492878
 20
128.6986046626
  0
VERTEX
  8
0
 62
7
  6
CONTINUOUS
 10
99.2748439778
 20
128.6414105736
  0
VERTEX
  8
0
 62
7
  6
CONTINUOUS
 10
99.2640599546
 20
128.582495032
  0
VERTEX
  8
0
 62
7
  6
CONTINUOUS
 10
99.2604553288
 20
128.5227909861
  0
SEQEND
  0
POLYLINE
  8
0
 62
7
  6
CONTINUOUS
 66
1
 70
0
  0
VERTEX
  8
0
 62
7
  6
CONTINUOUS
 10
112.4565732367
 20
129.3727586207
  0
VERTEX
  8
0
 62
7
  6
CONTINUOUS
 10
112.3677272982
 20
129.3681027149
  0
VERTEX
  8
0
 62
7
  6
CONTINUOUS
 10
112.2798546043
 20
129.3541858437
  0
VERTEX
  8
0
 62
7
  6
CONTINUOUS
 10
112.1939178634
 20
129.3311602431
  0
VERTEX
  8
0
 62
7
  6
CONTINUOUS
 10
112.1108586414
 20
129.2992779736
  0
VERTEX
  8
0
 62
7
  6
CONTINUOUS
 10
112.0315870312
 20
129.2588881777
  0
VERTEX
  8
0
 62
7
  6
CONTINUOUS
 10
111.9569716602
 20
129.2104332672
  0
VERTEX
  8
0
 62
7
  6
CONTINUOUS
 10
111.8878301514
 20
129.154444082
  0
VERTEX
  8
0
 62
7
  6
CONTINUOUS
 10
111.8249201407
 20
129.0915340714
  0
VERTEX
  8
0
 62
7
  6
CONTINUOUS
 10
111.7689309556
 20
129.0223925625
  0
VERTEX
  8
0
 62
7
  6
CONTINUOUS
 10
111.7204760451
 20
128.9477771916
  0
VERTEX
  8
0
 62
7
  6
CONTINUOUS
 10
111.6800862491
 20
128.8685055814
  0
VERTEX
  8
0
 62
7
  6
CONTINUOUS
 10
111.6482039796
 20
128.7854463594
  0
VERTEX
  8
0
 62
7
  6
CONTINUOUS
 10
111.625178379
 20
128.6995096184
  0
VERTEX
  8
0
 62
7
  6
CONTINUOUS
 10
111.6112615079
 20
128.6116369245
  0
VERTEX
  8
0
 62
7
  6
CONTINUOUS
 10
111.6066056021
 20
128.5227909861
  0
SEQEND
  0
POLYLINE
  8
0
 62
7
  6
CONTINUOUS
 66
1
 70
0
  0
VERTEX
  8
0
 62
7
  6
CONTINUOUS
 10
87.0565732367
 20
129.3727586207
  0
VERTEX
  8
0
 62
7
  6
CONTINUOUS
 10
86.9677272982
 20
129.3681027149
  0
VERTEX
  8
0
 62
7
  6
CONTINUOUS
 10
86.8798546043
 20
129.3541858437
  0
VERTEX
  8
0
 62
7
  6
CONTINUOUS
 10
86.7939178634
 20
129.3311602431
  0
VERTEX
  8
0
 62
7
  6
CONTINUOUS
 10
86.7108586414
 20
129.2992779736
  0
VERTEX
  8
0
 62
7
  6
CONTINUOUS
 10
86.6315870312
 20
129.2588881777
  0
VERTEX
  8
0
 62
7
  6
CONTINUOUS
 10
86.5569716602
 20
129.2104332672
  0
VERTEX
  8
0
 62
7
  6
CONTINUOUS
 10
86.4878301514
 20
129.154444082
  0
VERTEX
  8
0
 62
7
  6
CONTINUOUS
 10
86.4249201407
 20
129.0915340714
  0
VERTEX
  8
0
 62
7
  6
CONTINUOUS
 10
86.3689309556
 20
129.0223925625
  0
VERTEX
  8
0
 62
7
  6
CONTINUOUS
 10
86.3204760451
 20
128.9477771916
  0
VERTEX
  8
0
 62
7
  6
CONTINUOUS
 10
86.2800862491
 20
128.8685055814
  0
VERTEX
  8
0
 62
7
  6
CONTINUOUS
 10
86.2482039796
 20
128.7854463594
  0
VERTEX
  8
0
 62
7
  6
CONTINUOUS
 10
86.225178379
 20
128.6995096184
  0
VERTEX
  8
0
 62
7
  6
CONTINUOUS
 10
86.2112615079
 20
128.6116369245
  0
VERTEX
  8
0
 62
7
  6
CONTINUOUS
 10
86.2066056021
 20
128.5227909861
  0
SEQEND
  0
POLYLINE
  8
CURVE
 62
7
  6
CONTINUOUS
 66
1
 70
0
  0
VERTEX
  8
CURVE
 62
7
  6
CONTINUOUS
 10
61.6565732367
 20
129.3727586207
  0
VERTEX
  8
CURVE
 62
7
  6
CONTINUOUS
 10
61.5677230795
 20
129.3681022715
  0
VERTEX
  8
CURVE
 62
7
  6
CONTINUOUS
 10
61.4798478872
 20
129.354184416
  0
VERTEX
  8
CURVE
 62
7
  6
CONTINUOUS
 10
61.3939102791
 20
129.3311577789
  0
VERTEX
  8
CURVE
 62
7
  6
CONTINUOUS
 10
61.310851576
 20
129.299274828
  0
VERTEX
  8
CURVE
 62
7
  6
CONTINUOUS
 10
61.2315815119
 20
129.2588849912
  0
VERTEX
  8
CURVE
 62
7
  6
CONTINUOUS
 10
61.1569682847
 20
129.2104308147
  0
VERTEX
  8
CURVE
 62
7
  6
CONTINUOUS
 10
61.0878290719
 20
129.1544431101
  0
VERTEX
  8
CURVE
 62
7
  6
CONTINUOUS
 10
61.0249211067
 20
129.0915351442
  0
VERTEX
  8
CURVE
 62
7
  6
CONTINUOUS
 10
60.9689334031
 20
129.0223959314
  0
VERTEX
  8
CURVE
 62
7
  6
CONTINUOUS
 10
60.9204792281
 20
128.9477827048
  0
VERTEX
  8
CURVE
 62
7
  6
CONTINUOUS
 10
60.8800893926
 20
128.8685126419
  0
VERTEX
  8
CURVE
 62
7
  6
CONTINUOUS
 10
60.8482064427
 20
128.7854539403
  0
VERTEX
  8
CURVE
 62
7
  6
CONTINUOUS
 10
60.8251798064
 20
128.6995163338
  0
VERTEX
  8
CURVE
 62
7
  6
CONTINUOUS
 10
60.8112619512
 20
128.6116411427
  0
VERTEX
  8
CURVE
 62
7
  6
CONTINUOUS
 10
60.8066056021
 20
128.5227909861
  0
SEQEND
  0
POLYLINE
  8
CURVE
 62
7
  6
CONTINUOUS
 66
1
 70
0
  0
VERTEX
  8
CURVE
 62
7
  6
CONTINUOUS
 10
48.9565732367
 20
129.3727586207
  0
VERTEX
  8
CURVE
 62
7
  6
CONTINUOUS
 10
48.8677272982
 20
129.3681027149
  0
VERTEX
  8
CURVE
 62
7
  6
CONTINUOUS
 10
48.7798546043
 20
129.3541858437
  0
VERTEX
  8
CURVE
 62
7
  6
CONTINUOUS
 10
48.6939178634
 20
129.3311602431
  0
VERTEX
  8
CURVE
 62
7
  6
CONTINUOUS
 10
48.6108586414
 20
129.2992779736
  0
VERTEX
  8
CURVE
 62
7
  6
CONTINUOUS
 10
48.5315870312
 20
129.2588881777
  0
VERTEX
  8
CURVE
 62
7
  6
CONTINUOUS
 10
48.4569716602
 20
129.2104332672
  0
VERTEX
  8
CURVE
 62
7
  6
CONTINUOUS
 10
48.3878301514
 20
129.154444082
  0
VERTEX
  8
CURVE
 62
7
  6
CONTINUOUS
 10
48.3249201407
 20
129.0915340714
  0
VERTEX
  8
CURVE
 62
7
  6
CONTINUOUS
 10
48.2689309556
 20
129.0223925625
  0
VERTEX
  8
CURVE
 62
7
  6
CONTINUOUS
 10
48.2204760451
 20
128.9477771916
  0
VERTEX
  8
CURVE
 62
7
  6
CONTINUOUS
 10
48.1800862491
 20
128.8685055814
  0
VERTEX
  8
CURVE
 62
7
  6
CONTINUOUS
 10
48.1482039796
 20
128.7854463594
  0
VERTEX
  8
CURVE
 62
7
  6
CONTINUOUS
 10
48.125178379
 20
128.6995096184
  0
VERTEX
  8
CURVE
 62
7
  6
CONTINUOUS
 10
48.1112615079
 20
128.6116369245
  0
VERTEX
  8
CURVE
 62
7
  6
CONTINUOUS
 10
48.1066056021
 20
128.5227909861
  0
SEQEND
  0
LINE
  8
0
 62
7
  6
CONTINUOUS
 10
100.2966379675
 20
129.018908894
 11
99.7565732367
 21
129.018908894
  0
LINE
  8
CURVE
 62
7
  6
CONTINUOUS
 10
61.6565732367
 20
129.018908894
 11
62.1966379675
 21
129.018908894
  0
LINE
  8
CURVE
 62
7
  6
CONTINUOUS
 10
24.6766056021
 20
129.1427586207
 11
28.9366056021
 21
129.1427586207
  0
LINE
  8
CURVE
 62
7
  6
CONTINUOUS
 10
39.8266056021
 20
129.1427586207
 11
45.9266056021
 21
129.1427586207
  0
LINE
  8
CURVE
 62
7
  6
CONTINUOUS
 10
52.5266056021
 20
129.1427586207
 11
58.6266056021
 21
129.1427586207
  0
LINE
  8
CURVE
 62
7
  6
CONTINUOUS
 10
65.2266056021
 20
129.1427586207
 11
71.3266056021
 21
129.1427586207
  0
LINE
  8
CURVE
 62
7
  6
CONTINUOUS
 10
77.9266056021
 20
129.1427586207
 11
84.0266056021
 21
129.1427586207
  0
LINE
  8
0
 62
7
  6
CONTINUOUS
 10
90.6266056021
 20
129.1427586207
 11
96.7266056021
 21
129.1427586207
  0
LINE
  8
0
 62
7
  6
CONTINUOUS
 10
103.3266056021
 20
129.1427586207
 11
109.4266056021
 21
129.1427586207
  0
LINE
  8
0
 62
7
  6
CONTINUOUS
 10
116.0266056021
 20
129.1427586207
 11
122.1266056021
 21
129.1427586207
  0
LINE
  8
0
 62
7
  6
CONTINUOUS
 10
133.0166056021
 20
129.1427586207
 11
137.2766056021
 21
129.1427586207
  0
LINE
  8
0
 62
7
  6
CONTINUOUS
 10
112.9966379675
 20
129.3727586207
 11
112.4565732367
 21
129.3727586207
  0
LINE
  8
0
 62
7
  6
CONTINUOUS
 10
87.5966379675
 20
129.3727586207
 11
87.0565732367
 21
129.3727586207
  0
LINE
  8
CURVE
 62
7
  6
CONTINUOUS
 10
62.1966379675
 20
129.3727586207
 11
61.6565732367
 21
129.3727586207
  0
LINE
  8
CURVE
 62
7
  6
CONTINUOUS
 10
48.9565732367
 20
129.3727586207
 11
49.4966379675
 21
129.3727586207
  0
LINE
  8
CURVE
 62
7
  6
CONTINUOUS
 10
74.3565732367
 20
129.3727586207
 11
74.8966379675
 21
129.3727586207
  0
LINE
  8
0
 62
7
  6
CONTINUOUS
 10
99.7565732367
 20
129.3727586207
 11
100.2966379675
 21
129.3727586207
  0
POLYLINE
  8
CURVE
 62
7
  6
CONTINUOUS
 66
1
 70
0
  0
VERTEX
  8
CURVE
 62
7
  6
CONTINUOUS
 10
74.8966379675
 20
129.3727586207
  0
VERTEX
  8
CURVE
 62
7
  6
CONTINUOUS
 10
74.9854839059
 20
129.3681027149
  0
VERTEX
  8
CURVE
 62
7
  6
CONTINUOUS
 10
75.0733565998
 20
129.3541858437
  0
VERTEX
  8
CURVE
 62
7
  6
CONTINUOUS
 10
75.1592933408
 20
129.3311602431
  0
VERTEX
  8
CURVE
 62
7
  6
CONTINUOUS
 10
75.2423525627
 20
129.2992779736
  0
VERTEX
  8
CURVE
 62
7
  6
CONTINUOUS
 10
75.321624173
 20
129.2588881777
  0
VERTEX
  8
CURVE
 62
7
  6
CONTINUOUS
 10
75.3962395439
 20
129.2104332672
  0
VERTEX
  8
CURVE
 62
7
  6
CONTINUOUS
 10
75.4653810528
 20
129.154444082
  0
VERTEX
  8
CURVE
 62
7
  6
CONTINUOUS
 10
75.5282910634
 20
129.0915340714
  0
VERTEX
  8
CURVE
 62
7
  6
CONTINUOUS
 10
75.5842802486
 20
129.0223925625
  0
VERTEX
  8
CURVE
 62
7
  6
CONTINUOUS
 10
75.632735159
 20
128.9477771916
  0
VERTEX
  8
CURVE
 62
7
  6
CONTINUOUS
 10
75.673124955
 20
128.8685055814
  0
VERTEX
  8
CURVE
 62
7
  6
CONTINUOUS
 10
75.7050072245
 20
128.7854463594
  0
VERTEX
  8
CURVE
 62
7
  6
CONTINUOUS
 10
75.7280328251
 20
128.6995096184
  0
VERTEX
  8
CURVE
 62
7
  6
CONTINUOUS
 10
75.7419496962
 20
128.6116369245
  0
VERTEX
  8
CURVE
 62
7
  6
CONTINUOUS
 10
75.7466056021
 20
128.5227909861
  0
SEQEND
  0
POLYLINE
  8
0
 62
7
  6
CONTINUOUS
 66
1
 70
0
  0
VERTEX
  8
0
 62
7
  6
CONTINUOUS
 10
100.2966379675
 20
129.3727586207
  0
VERTEX
  8
0
 62
7
  6
CONTINUOUS
 10
100.3854881246
 20
129.3681022715
  0
VERTEX
  8
0
 62
7
  6
CONTINUOUS
 10
100.473363317
 20
129.354184416
  0
VERTEX
  8
0
 62
7
  6
CONTINUOUS
 10
100.559300925
 20
129.3311577789
  0
VERTEX
  8
0
 62
7
  6
CONTINUOUS
 10
100.6423596281
 20
129.299274828
  0
VERTEX
  8
0
 62
7
  6
CONTINUOUS
 10
100.7216296922
 20
129.2588849912
  0
VERTEX
  8
0
 62
7
  6
CONTINUOUS
 10
100.7962429195
 20
129.2104308147
  0
VERTEX
  8
0
 62
7
  6
CONTINUOUS
 10
100.8653821322
 20
129.1544431101
  0
VERTEX
  8
0
 62
7
  6
CONTINUOUS
 10
100.9282900974
 20
129.0915351442
  0
VERTEX
  8
0
 62
7
  6
CONTINUOUS
 10
100.984277801
 20
129.0223959314
  0
VERTEX
  8
0
 62
7
  6
CONTINUOUS
 10
101.0327319761
 20
128.9477827048
  0
VERTEX
  8
0
 62
7
  6
CONTINUOUS
 10
101.0731218115
 20
128.8685126419
  0
VERTEX
  8
0
 62
7
  6
CONTINUOUS
 10
101.1050047614
 20
128.7854539403
  0
VERTEX
  8
0
 62
7
  6
CONTINUOUS
 10
101.1280313977
 20
128.6995163338
  0
VERTEX
  8
0
 62
7
  6
CONTINUOUS
 10
101.1419492529
 20
128.6116411427
  0
VERTEX
  8
0
 62
7
  6
CONTINUOUS
 10
101.1466056021
 20
128.5227909861
  0
SEQEND
  0
POLYLINE
  8
0
 62
7
  6
CONTINUOUS
 66
1
 70
0
  0
VERTEX
  8
0
 62
7
  6
CONTINUOUS
 10
112.9966379675
 20
129.3727586207
  0
VERTEX
  8
0
 62
7
  6
CONTINUOUS
 10
113.0854839059
 20
129.3681027149
  0
VERTEX
  8
0
 62
7
  6
CONTINUOUS
 10
113.1733565998
 20
129.3541858437
  0
VERTEX
  8
0
 62
7
  6
CONTINUOUS
 10
113.2592933408
 20
129.3311602431
  0
VERTEX
  8
0
 62
7
  6
CONTINUOUS
 10
113.3423525627
 20
129.2992779736
  0
VERTEX
  8
0
 62
7
  6
CONTINUOUS
 10
113.421624173
 20
129.2588881777
  0
VERTEX
  8
0
 62
7
  6
CONTINUOUS
 10
113.4962395439
 20
129.2104332672
  0
VERTEX
  8
0
 62
7
  6
CONTINUOUS
 10
113.5653810528
 20
129.154444082
  0
VERTEX
  8
0
 62
7
  6
CONTINUOUS
 10
113.6282910634
 20
129.0915340714
  0
VERTEX
  8
0
 62
7
  6
CONTINUOUS
 10
113.6842802486
 20
129.0223925625
  0
VERTEX
  8
0
 62
7
  6
CONTINUOUS
 10
113.732735159
 20
128.9477771916
  0
VERTEX
  8
0
 62
7
  6
CONTINUOUS
 10
113.773124955
 20
128.8685055814
  0
VERTEX
  8
0
 62
7
  6
CONTINUOUS
 10
113.8050072245
 20
128.7854463594
  0
VERTEX
  8
0
 62
7
  6
CONTINUOUS
 10
113.8280328251
 20
128.6995096184
  0
VERTEX
  8
0
 62
7
  6
CONTINUOUS
 10
113.8419496962
 20
128.6116369245
  0
VERTEX
  8
0
 62
7
  6
CONTINUOUS
 10
113.8466056021
 20
128.5227909861
  0
SEQEND
  0
POLYLINE
  8
CURVE
 62
7
  6
CONTINUOUS
 66
1
 70
0
  0
VERTEX
  8
CURVE
 62
7
  6
CONTINUOUS
 10
24.6766056021
 20
146.4053311028
  0
VERTEX
  8
CURVE
 62
7
  6
CONTINUOUS
 10
25.1137375497
 20
146.3061555179
  0
VERTEX
  8
CURVE
 62
7
  6
CONTINUOUS
 10
25.510167265
 20
146.2094303942
  0
VERTEX
  8
CURVE
 62
7
  6
CONTINUOUS
 10
25.8690686578
 20
146.1150946965
  0
VERTEX
  8
CURVE
 62
7
  6
CONTINUOUS
 10
26.193375129
 20
146.0230707506
  0
VERTEX
  8
CURVE
 62
7
  6
CONTINUOUS
 10
26.485808803
 20
145.9332595415
  0
VERTEX
  8
CURVE
 62
7
  6
CONTINUOUS
 10
26.7487785135
 20
145.8455780588
  0
VERTEX
  8
CURVE
 62
7
  6
CONTINUOUS
 10
26.9845301007
 20
145.7599206048
  0
VERTEX
  8
CURVE
 62
7
  6
CONTINUOUS
 10
27.1950663179
 20
145.6761908261
  0
VERTEX
  8
CURVE
 62
7
  6
CONTINUOUS
 10
27.382190455
 20
145.5942964113
  0
VERTEX
  8
CURVE
 62
7
  6
CONTINUOUS
 10
27.5475450687
 20
145.5141406093
  0
VERTEX
  8
CURVE
 62
7
  6
CONTINUOUS
 10
27.6925323509
 20
145.4356738434
  0
VERTEX
  8
CURVE
 62
7
  6
CONTINUOUS
 10
27.8184690343
 20
145.3588330801
  0
VERTEX
  8
CURVE
 62
7
  6
CONTINUOUS
 10
27.9264089067
 20
145.2836711962
  0
VERTEX
  8
CURVE
 62
7
  6
CONTINUOUS
 10
28.0173693926
 20
145.2102646713
  0
VERTEX
  8
CURVE
 62
7
  6
CONTINUOUS
 10
28.0922505757
 20
145.1388232178
  0
VERTEX
  8
CURVE
 62
7
  6
CONTINUOUS
 10
28.1518705016
 20
145.0698004012
  0
VERTEX
  8
CURVE
 62
7
  6
CONTINUOUS
 10
28.1972348981
 20
145.0037817515
  0
VERTEX
  8
CURVE
 62
7
  6
CONTINUOUS
 10
28.2296108607
 20
144.9414944631
  0
VERTEX
  8
CURVE
 62
7
  6
CONTINUOUS
 10
28.2508197225
 20
144.8829931211
  0
VERTEX
  8
CURVE
 62
7
  6
CONTINUOUS
 10
28.2627545335
 20
144.8272088278
  0
VERTEX
  8
CURVE
 62
7
  6
CONTINUOUS
 10
28.2666056021
 20
144.7727586207
  0
SEQEND
  0
LINE
  8
0
 62
7
  6
CONTINUOUS
 10
96.580897525
 20
130.5513994028
 11
96.4999379166
 21
130.651376193
  0
POLYLINE
  8
0
 62
7
  6
CONTINUOUS
 66
1
 70
0
  0
VERTEX
  8
0
 62
7
  6
CONTINUOUS
 10
99.2599115268
 20
119.2227586207
  0
VERTEX
  8
0
 62
7
  6
CONTINUOUS
 10
99.2827640571
 20
119.1613894501
  0
VERTEX
  8
0
 62
7
  6
CONTINUOUS
 10
99.3135275369
 20
119.1028158581
  0
VERTEX
  8
0
 62
7
  6
CONTINUOUS
 10
99.3517236547
 20
119.0483643984
  0
VERTEX
  8
0
 62
7
  6
CONTINUOUS
 10
99.3964196549
 20
118.9994039883
  0
VERTEX
  8
0
 62
7
  6
CONTINUOUS
 10
99.4471715007
 20
118.9564168399
  0
VERTEX
  8
0
 62
7
  6
CONTINUOUS
 10
99.5032537923
 20
118.9201391874
  0
VERTEX
  8
0
 62
7
  6
CONTINUOUS
 10
99.5631470301
 20
118.8915203106
  0
VERTEX
  8
0
 62
7
  6
CONTINUOUS
 10
99.6260717587
 20
118.8708148751
  0
VERTEX
  8
0
 62
7
  6
CONTINUOUS
 10
99.6911280333
 20
118.8582876334
  0
VERTEX
  8
0
 62
7
  6
CONTINUOUS
 10
99.7565732367
 20
118.8541476784
  0
SEQEND
  0
POLYLINE
  8
0
 62
7
  6
CONTINUOUS
 66
1
 70
0
  0
VERTEX
  8
0
 62
7
  6
CONTINUOUS
 10
92.5566056021
 20
142.0227586207
  0
VERTEX
  8
0
 62
7
  6
CONTINUOUS
 10
92.5546902323
 20
142.0320388969
  0
VERTEX
  8
0
 62
7
  6
CONTINUOUS
 10
92.552787754
 20
142.0598287638
  0
VERTEX
  8
0
 62
7
  6
CONTINUOUS
 10
92.5509125552
 20
142.1059296022
  0
VERTEX
  8
0
 62
7
  6
CONTINUOUS
 10
92.5490780341
 20
142.1700119243
  0
VERTEX
  8
0
 62
7
  6
CONTINUOUS
 10
92.5472972984
 20
142.2516177382
  0
SEQEND
  0
POLYLINE
  8
0
 62
7
  6
CONTINUOUS
 66
1
 70
0
  0
VERTEX
  8
0
 62
7
  6
CONTINUOUS
 10
94.8097124986
 20
144.6227586207
  0
VERTEX
  8
0
 62
7
  6
CONTINUOUS
 10
94.8150302446
 20
144.5804944366
  0
VERTEX
  8
0
 62
7
  6
CONTINUOUS
 10
94.8182176257
 20
144.5380217035
  0
VERTEX
  8
0
 62
7
  6
CONTINUOUS
 10
94.8192682434
 20
144.4954536275
  0
SEQEND
  0
POLYLINE
  8
0
 62
7
  6
CONTINUOUS
 66
1
 70
0
  0
VERTEX
  8
0
 62
7
  6
CONTINUOUS
 10
98.8934987055
 20
119.2227586207
  0
VERTEX
  8
0
 62
7
  6
CONTINUOUS
 10
98.8881812775
 20
119.2650196362
  0
VERTEX
  8
0
 62
7
  6
CONTINUOUS
 10
98.8849937404
 20
119.3074922867
  0
VERTEX
  8
0
 62
7
  6
CONTINUOUS
 10
98.8839429607
 20
119.3500636139
  0
SEQEND
  0
POLYLINE
  8
0
 62
7
  6
CONTINUOUS
 66
1
 70
0
  0
VERTEX
  8
0
 62
7
  6
CONTINUOUS
 10
100.7927558754
 20
128.5227909861
  0
VERTEX
  8
0
 62
7
  6
CONTINUOUS
 10
100.7891512495
 20
128.582495032
  0
VERTEX
  8
0
 62
7
  6
CONTINUOUS
 10
100.7783672263
 20
128.6414105736
  0
VERTEX
  8
0
 62
7
  6
CONTINUOUS
 10
100.7605619163
 20
128.6986046626
  0
VERTEX
  8
0
 62
7
  6
CONTINUOUS
 10
100.7359389709
 20
128.7533365318
  0
VERTEX
  8
0
 62
7
  6
CONTINUOUS
 10
100.7049647132
 20
128.8045836903
  0
VERTEX
  8
0
 62
7
  6
CONTINUOUS
 10
100.6679695412
 20
128.8518065797
  0
VERTEX
  8
0
 62
7
  6
CONTINUOUS
 10
100.625653561
 20
128.8941225598
  0
VERTEX
  8
0
 62
7
  6
CONTINUOUS
 10
100.5784306717
 20
128.9311177318
  0
VERTEX
  8
0
 62
7
  6
CONTINUOUS
 10
100.5271835132
 20
128.9620919895
  0
VERTEX
  8
0
 62
7
  6
CONTINUOUS
 10
100.472451644
 20
128.9867149349
  0
VERTEX
  8
0
 62
7
  6
CONTINUOUS
 10
100.4152575549
 20
129.0045202449
  0
VERTEX
  8
0
 62
7
  6
CONTINUOUS
 10
100.3563420134
 20
129.0153042681
  0
VERTEX
  8
0
 62
7
  6
CONTINUOUS
 10
100.2966379675
 20
129.018908894
  0
SEQEND
  0
POLYLINE
  8
0
 62
7
  6
CONTINUOUS
 66
1
 70
0
  0
VERTEX
  8
0
 62
7
  6
CONTINUOUS
 10
99.2378032482
 20
119.3727262553
  0
VERTEX
  8
0
 62
7
  6
CONTINUOUS
 10
99.2402406936
 20
119.3222787741
  0
VERTEX
  8
0
 62
7
  6
CONTINUOUS
 10
99.2476236273
 20
119.272083681
  0
VERTEX
  8
0
 62
7
  6
CONTINUOUS
 10
99.2599115268
 20
119.2227586207
  0
SEQEND
  0
POLYLINE
  8
0
 62
7
  6
CONTINUOUS
 66
1
 70
0
  0
VERTEX
  8
0
 62
7
  6
CONTINUOUS
 10
101.1559139057
 20
121.5938995025
  0
VERTEX
  8
0
 62
7
  6
CONTINUOUS
 10
101.15413317
 20
121.6755053165
  0
VERTEX
  8
0
 62
7
  6
CONTINUOUS
 10
101.152298649
 20
121.7395876388
  0
VERTEX
  8
0
 62
7
  6
CONTINUOUS
 10
101.1504234501
 20
121.7856884774
  0
VERTEX
  8
0
 62
7
  6
CONTINUOUS
 10
101.1485209719
 20
121.8134783444
  0
VERTEX
  8
0
 62
7
  6
CONTINUOUS
 10
101.1466056021
 20
121.8227586207
  0
SEQEND
  0
LINE
  8
0
 62
7
  6
CONTINUOUS
 10
101.1592636055
 20
121.3805712956
 11
101.1559139057
 21
121.5938995025
  0
LINE
  8
0
 62
7
  6
CONTINUOUS
 10
100.802523231
 20
121.5695284163
 11
100.8059955184
 21
121.3342435679
  0
LINE
  8
0
 62
7
  6
CONTINUOUS
 10
101.1622521944
 20
121.1056901289
 11
101.1592636055
 21
121.3805712956
  0
LINE
  8
0
 62
7
  6
CONTINUOUS
 10
100.8059955184
 20
121.3342435679
 11
100.8090493027
 21
121.032221175
  0
LINE
  8
0
 62
7
  6
CONTINUOUS
 10
101.1647944267
 20
120.77709879
 11
101.1622521944
 21
121.1056901289
  0
LINE
  8
0
 62
7
  6
CONTINUOUS
 10
100.8090493027
 20
121.032221175
 11
100.811588071
 21
120.6730090892
  0
LINE
  8
0
 62
7
  6
CONTINUOUS
 10
101.1668177952
 20
120.4041716318
 11
101.1647944267
 21
120.77709879
  0
LINE
  8
0
 62
7
  6
CONTINUOUS
 10
100.811588071
 20
120.6730090892
 11
100.8135315948
 21
120.2679619998
  0
LINE
  8
0
 62
7
  6
CONTINUOUS
 10
101.1682645963
 20
119.9975469149
 11
101.1668177952
 21
120.4041716318
  0
LINE
  8
0
 62
7
  6
CONTINUOUS
 10
100.8135315948
 20
120.2679619998
 11
100.8148184618
 21
119.8298822882
  0
LINE
  8
0
 62
7
  6
CONTINUOUS
 10
100.8148184618
 20
119.8298822882
 11
100.815407956
 21
119.3727262553
  0
POLYLINE
  8
0
 62
7
  6
CONTINUOUS
 66
1
 70
0
  0
VERTEX
  8
0
 62
7
  6
CONTINUOUS
 10
101.1692682434
 20
119.3500636139
  0
VERTEX
  8
0
 62
7
  6
CONTINUOUS
 10
101.1690935724
 20
119.5688233
  0
VERTEX
  8
0
 62
7
  6
CONTINUOUS
 10
101.1682645963
 20
119.9975469149
  0
SEQEND
  0
LINE
  8
0
 62
7
  6
CONTINUOUS
 10
98.9066056021
 20
121.8227586207
 11
98.9066056021
 21
128.5227909861
  0
LINE
  8
0
 62
7
  6
CONTINUOUS
 10
99.2604553288
 20
128.5227909861
 11
99.2604553288
 21
121.8227586207
  0
LINE
  8
0
 62
7
  6
CONTINUOUS
 10
100.7927558754
 20
121.8227586207
 11
100.7927558754
 21
128.5227909861
  0
LINE
  8
0
 62
7
  6
CONTINUOUS
 10
101.1466056021
 20
128.5227909861
 11
101.1466056021
 21
121.8227586207
  0
LINE
  8
0
 62
7
  6
CONTINUOUS
 10
98.8839429607
 20
119.3500636139
 11
98.8844529909
 21
119.7851939346
  0
LINE
  8
0
 62
7
  6
CONTINUOUS
 10
99.2383927423
 20
119.8298822882
 11
99.2378032482
 21
119.3727262553
  0
LINE
  8
0
 62
7
  6
CONTINUOUS
 10
98.8844529909
 20
119.7851939346
 11
98.8855949572
 21
120.2043652964
  0
LINE
  8
0
 62
7
  6
CONTINUOUS
 10
99.2396796093
 20
120.2679619998
 11
99.2383927423
 21
119.8298822882
  0
LINE
  8
0
 62
7
  6
CONTINUOUS
 10
98.8855949572
 20
120.2043652964
 11
98.8873362603
 21
120.5955385179
  0
LINE
  8
0
 62
7
  6
CONTINUOUS
 10
99.2416231331
 20
120.6730090892
 11
99.2396796093
 21
120.2679619998
  0
LINE
  8
0
 62
7
  6
CONTINUOUS
 10
98.8873362603
 20
120.5955385179
 11
98.8896272426
 21
120.9475552884
  0
LINE
  8
0
 62
7
  6
CONTINUOUS
 10
99.2441619014
 20
121.032221175
 11
99.2416231331
 21
120.6730090892
  0
LINE
  8
0
 62
7
  6
CONTINUOUS
 10
98.8896272426
 20
120.9475552884
 11
98.8924025657
 21
121.2503734103
  0
LINE
  8
0
 62
7
  6
CONTINUOUS
 10
99.2472156857
 20
121.3342435679
 11
99.2441619014
 21
121.032221175
  0
POLYLINE
  8
0
 62
7
  6
CONTINUOUS
 66
1
 70
0
  0
VERTEX
  8
0
 62
7
  6
CONTINUOUS
 10
98.8924025657
 20
121.2503734103
  0
VERTEX
  8
0
 62
7
  6
CONTINUOUS
 10
98.8955830708
 20
121.4953534104
  0
VERTEX
  8
0
 62
7
  6
CONTINUOUS
 10
98.8972972984
 20
121.5938995025
  0
VERTEX
  8
0
 62
7
  6
CONTINUOUS
 10
98.8990780341
 20
121.6755053165
  0
VERTEX
  8
0
 62
7
  6
CONTINUOUS
 10
98.9009125551
 20
121.7395876388
  0
VERTEX
  8
0
 62
7
  6
CONTINUOUS
 10
98.902787754
 20
121.7856884774
  0
VERTEX
  8
0
 62
7
  6
CONTINUOUS
 10
98.9046902322
 20
121.8134783444
  0
VERTEX
  8
0
 62
7
  6
CONTINUOUS
 10
98.9066056021
 20
121.8227586207
  0
SEQEND
  0
POLYLINE
  8
0
 62
7
  6
CONTINUOUS
 66
1
 70
0
  0
VERTEX
  8
0
 62
7
  6
CONTINUOUS
 10
101.1692682434
 20
119.3500636139
  0
VERTEX
  8
0
 62
7
  6
CONTINUOUS
 10
101.1682174338
 20
119.3074916854
  0
VERTEX
  8
0
 62
7
  6
CONTINUOUS
 10
101.1650298641
 20
119.2650190135
  0
VERTEX
  8
0
 62
7
  6
CONTINUOUS
 10
101.1597124986
 20
119.2227586207
  0
SEQEND
  0
POLYLINE
  8
0
 62
7
  6
CONTINUOUS
 66
1
 70
0
  0
VERTEX
  8
0
 62
7
  6
CONTINUOUS
 10
98.9066056021
 20
128.5227909861
  0
VERTEX
  8
0
 62
7
  6
CONTINUOUS
 10
98.9112619513
 20
128.6116411432
  0
VERTEX
  8
0
 62
7
  6
CONTINUOUS
 10
98.9251798068
 20
128.6995163356
  0
VERTEX
  8
0
 62
7
  6
CONTINUOUS
 10
98.9482064438
 20
128.7854539436
  0
VERTEX
  8
0
 62
7
  6
CONTINUOUS
 10
98.9800893948
 20
128.8685126467
  0
VERTEX
  8
0
 62
7
  6
CONTINUOUS
 10
99.0204792316
 20
128.9477827108
  0
VERTEX
  8
0
 62
7
  6
CONTINUOUS
 10
99.068933408
 20
129.0223959381
  0
VERTEX
  8
0
 62
7
  6
CONTINUOUS
 10
99.1249211127
 20
129.0915351509
  0
VERTEX
  8
0
 62
7
  6
CONTINUOUS
 10
99.1878290786
 20
129.1544431161
  0
VERTEX
  8
0
 62
7
  6
CONTINUOUS
 10
99.2569682914
 20
129.2104308196
  0
VERTEX
  8
0
 62
7
  6
CONTINUOUS
 10
99.331581518
 20
129.2588849947
  0
VERTEX
  8
0
 62
7
  6
CONTINUOUS
 10
99.4108515809
 20
129.2992748301
  0
VERTEX
  8
0
 62
7
  6
CONTINUOUS
 10
99.4939102825
 20
129.33115778
  0
VERTEX
  8
0
 62
7
  6
CONTINUOUS
 10
99.5798478889
 20
129.3541844164
  0
VERTEX
  8
0
 62
7
  6
CONTINUOUS
 10
99.6677230801
 20
129.3681022715
  0
VERTEX
  8
0
 62
7
  6
CONTINUOUS
 10
99.7565732367
 20
129.3727586207
  0
SEQEND
  0
POLYLINE
  8
0
 62
7
  6
CONTINUOUS
 66
1
 70
0
  0
VERTEX
  8
0
 62
7
  6
CONTINUOUS
 10
99.2604553288
 20
121.8227586207
  0
VERTEX
  8
0
 62
7
  6
CONTINUOUS
 10
99.2584392909
 20
121.8124752161
  0
VERTEX
  8
0
 62
7
  6
CONTINUOUS
 10
99.2564382477
 20
121.7816867073
  0
VERTEX
  8
0
 62
7
  6
CONTINUOUS
 10
99.2544690141
 20
121.7306369616
  0
VERTEX
  8
0
 62
7
  6
CONTINUOUS
 10
99.2525471834
 20
121.6597303269
  0
VERTEX
  8
0
 62
7
  6
CONTINUOUS
 10
99.2506879732
 20
121.5695284163
  0
VERTEX
  8
0
 62
7
  6
CONTINUOUS
 10
99.2472156857
 20
121.3342435679
  0
SEQEND
  0
POLYLINE
  8
0
 62
7
  6
CONTINUOUS
 66
1
 70
0
  0
VERTEX
  8
0
 62
7
  6
CONTINUOUS
 10
105.2434987055
 20
144.6227586207
  0
VERTEX
  8
0
 62
7
  6
CONTINUOUS
 10
105.2617907662
 20
144.7113142874
  0
VERTEX
  8
0
 62
7
  6
CONTINUOUS
 10
105.2897814006
 20
144.7983636542
  0
VERTEX
  8
0
 62
7
  6
CONTINUOUS
 10
105.3272966367
 20
144.8824801402
  0
VERTEX
  8
0
 62
7
  6
CONTINUOUS
 10
105.3743197076
 20
144.9629349262
  0
VERTEX
  8
0
 62
7
  6
CONTINUOUS
 10
105.4301493831
 20
145.038056933
  0
VERTEX
  8
0
 62
7
  6
CONTINUOUS
 10
105.4937281209
 20
145.1063978542
  0
VERTEX
  8
0
 62
7
  6
CONTINUOUS
 10
105.5647347833
 20
145.1675953217
  0
VERTEX
  8
0
 62
7
  6
CONTINUOUS
 10
105.6424340742
 20
145.2208459121
  0
VERTEX
  8
0
 62
7
  6
CONTINUOUS
 10
105.7252867871
 20
145.2650726466
  0
VERTEX
  8
0
 62
7
  6
CONTINUOUS
 10
105.8118737085
 20
145.2997034601
  0
VERTEX
  8
0
 62
7
  6
CONTINUOUS
 10
105.9018373153
 20
145.3246977884
  0
VERTEX
  8
0
 62
7
  6
CONTINUOUS
 10
105.9934789342
 20
145.3396532194
  0
VERTEX
  8
0
 62
7
  6
CONTINUOUS
 10
106.0847752613
 20
145.344556596
  0
SEQEND
  0
LINE
  8
0
 62
7
  6
CONTINUOUS
 10
102.8499379153
 20
133.1941410468
 11
102.930897525
 21
133.2941178386
  0
POLYLINE
  8
0
 62
7
  6
CONTINUOUS
 66
1
 70
0
  0
VERTEX
  8
0
 62
7
  6
CONTINUOUS
 10
137.2766056021
 20
146.4053311028
  0
VERTEX
  8
0
 62
7
  6
CONTINUOUS
 10
136.8394736545
 20
146.3061555179
  0
VERTEX
  8
0
 62
7
  6
CONTINUOUS
 10
136.4430439391
 20
146.2094303942
  0
VERTEX
  8
0
 62
7
  6
CONTINUOUS
 10
136.0841425463
 20
146.1150946965
  0
VERTEX
  8
0
 62
7
  6
CONTINUOUS
 10
135.7598360751
 20
146.0230707506
  0
VERTEX
  8
0
 62
7
  6
CONTINUOUS
 10
135.4674024011
 20
145.9332595415
  0
VERTEX
  8
0
 62
7
  6
CONTINUOUS
 10
135.2044326906
 20
145.8455780588
  0
VERTEX
  8
0
 62
7
  6
CONTINUOUS
 10
134.9686811034
 20
145.7599206048
  0
VERTEX
  8
0
 62
7
  6
CONTINUOUS
 10
134.7581448862
 20
145.6761908261
  0
VERTEX
  8
0
 62
7
  6
CONTINUOUS
 10
134.5710207492
 20
145.5942964113
  0
VERTEX
  8
0
 62
7
  6
CONTINUOUS
 10
134.4056661354
 20
145.5141406093
  0
VERTEX
  8
0
 62
7
  6
CONTINUOUS
 10
134.2606788532
 20
145.4356738434
  0
VERTEX
  8
0
 62
7
  6
CONTINUOUS
 10
134.1347421698
 20
145.3588330801
  0
VERTEX
  8
0
 62
7
  6
CONTINUOUS
 10
134.0268022974
 20
145.2836711962
  0
VERTEX
  8
0
 62
7
  6
CONTINUOUS
 10
133.9358418115
 20
145.2102646713
  0
VERTEX
  8
0
 62
7
  6
CONTINUOUS
 10
133.8609606284
 20
145.1388232178
  0
VERTEX
  8
0
 62
7
  6
CONTINUOUS
 10
133.8013407025
 20
145.0698004012
  0
VERTEX
  8
0
 62
7
  6
CONTINUOUS
 10
133.755976306
 20
145.0037817515
  0
VERTEX
  8
0
 62
7
  6
CONTINUOUS
 10
133.7236003434
 20
144.9414944631
  0
VERTEX
  8
0
 62
7
  6
CONTINUOUS
 10
133.7023914817
 20
144.8829931211
  0
VERTEX
  8
0
 62
7
  6
CONTINUOUS
 10
133.6904566706
 20
144.8272088278
  0
VERTEX
  8
0
 62
7
  6
CONTINUOUS
 10
133.6866056021
 20
144.7727586207
  0
SEQEND
  0
POLYLINE
  8
CURVE
 62
7
  6
CONTINUOUS
 66
1
 70
0
  0
VERTEX
  8
CURVE
 62
7
  6
CONTINUOUS
 10
68.5466379675
 20
134.4727586207
  0
VERTEX
  8
CURVE
 62
7
  6
CONTINUOUS
 10
68.6354839059
 20
134.4774145265
  0
VERTEX
  8
CURVE
 62
7
  6
CONTINUOUS
 10
68.7233565998
 20
134.4913313977
  0
VERTEX
  8
CURVE
 62
7
  6
CONTINUOUS
 10
68.8092933408
 20
134.5143569982
  0
VERTEX
  8
CURVE
 62
7
  6
CONTINUOUS
 10
68.8923525627
 20
134.5462392678
  0
VERTEX
  8
CURVE
 62
7
  6
CONTINUOUS
 10
68.971624173
 20
134.5866290637
  0
VERTEX
  8
CURVE
 62
7
  6
CONTINUOUS
 10
69.0462395439
 20
134.6350839742
  0
VERTEX
  8
CURVE
 62
7
  6
CONTINUOUS
 10
69.1153810528
 20
134.6910731594
  0
VERTEX
  8
CURVE
 62
7
  6
CONTINUOUS
 10
69.1782910634
 20
134.75398317
  0
VERTEX
  8
CURVE
 62
7
  6
CONTINUOUS
 10
69.2342802486
 20
134.8231246788
  0
VERTEX
  8
CURVE
 62
7
  6
CONTINUOUS
 10
69.282735159
 20
134.8977400498
  0
VERTEX
  8
CURVE
 62
7
  6
CONTINUOUS
 10
69.323124955
 20
134.97701166
  0
VERTEX
  8
CURVE
 62
7
  6
CONTINUOUS
 10
69.3550072245
 20
135.060070882
  0
VERTEX
  8
CURVE
 62
7
  6
CONTINUOUS
 10
69.3780328251
 20
135.1460076229
  0
VERTEX
  8
CURVE
 62
7
  6
CONTINUOUS
 10
69.3919496962
 20
135.2338803168
  0
VERTEX
  8
CURVE
 62
7
  6
CONTINUOUS
 10
69.3966056021
 20
135.3227262553
  0
SEQEND
  0
POLYLINE
  8
CURVE
 62
7
  6
CONTINUOUS
 66
1
 70
0
  0
VERTEX
  8
CURVE
 62
7
  6
CONTINUOUS
 10
55.8466379675
 20
134.4727586207
  0
VERTEX
  8
CURVE
 62
7
  6
CONTINUOUS
 10
55.9354839059
 20
134.4774145265
  0
VERTEX
  8
CURVE
 62
7
  6
CONTINUOUS
 10
56.0233565998
 20
134.4913313977
  0
VERTEX
  8
CURVE
 62
7
  6
CONTINUOUS
 10
56.1092933408
 20
134.5143569982
  0
VERTEX
  8
CURVE
 62
7
  6
CONTINUOUS
 10
56.1923525627
 20
134.5462392678
  0
VERTEX
  8
CURVE
 62
7
  6
CONTINUOUS
 10
56.271624173
 20
134.5866290637
  0
VERTEX
  8
CURVE
 62
7
  6
CONTINUOUS
 10
56.3462395439
 20
134.6350839742
  0
VERTEX
  8
CURVE
 62
7
  6
CONTINUOUS
 10
56.4153810528
 20
134.6910731594
  0
VERTEX
  8
CURVE
 62
7
  6
CONTINUOUS
 10
56.4782910634
 20
134.75398317
  0
VERTEX
  8
CURVE
 62
7
  6
CONTINUOUS
 10
56.5342802486
 20
134.8231246788
  0
VERTEX
  8
CURVE
 62
7
  6
CONTINUOUS
 10
56.582735159
 20
134.8977400498
  0
VERTEX
  8
CURVE
 62
7
  6
CONTINUOUS
 10
56.623124955
 20
134.97701166
  0
VERTEX
  8
CURVE
 62
7
  6
CONTINUOUS
 10
56.6550072245
 20
135.060070882
  0
VERTEX
  8
CURVE
 62
7
  6
CONTINUOUS
 10
56.6780328251
 20
135.1460076229
  0
VERTEX
  8
CURVE
 62
7
  6
CONTINUOUS
 10
56.6919496962
 20
135.2338803168
  0
VERTEX
  8
CURVE
 62
7
  6
CONTINUOUS
 10
56.6966056021
 20
135.3227262553
  0
SEQEND
  0
POLYLINE
  8
CURVE
 62
7
  6
CONTINUOUS
 66
1
 70
0
  0
VERTEX
  8
CURVE
 62
7
  6
CONTINUOUS
 10
43.1466379675
 20
134.4727586207
  0
VERTEX
  8
CURVE
 62
7
  6
CONTINUOUS
 10
43.2354839059
 20
134.4774145265
  0
VERTEX
  8
CURVE
 62
7
  6
CONTINUOUS
 10
43.3233565998
 20
134.4913313977
  0
VERTEX
  8
CURVE
 62
7
  6
CONTINUOUS
 10
43.4092933408
 20
134.5143569982
  0
VERTEX
  8
CURVE
 62
7
  6
CONTINUOUS
 10
43.4923525627
 20
134.5462392678
  0
VERTEX
  8
CURVE
 62
7
  6
CONTINUOUS
 10
43.571624173
 20
134.5866290637
  0
VERTEX
  8
CURVE
 62
7
  6
CONTINUOUS
 10
43.6462395439
 20
134.6350839742
  0
VERTEX
  8
CURVE
 62
7
  6
CONTINUOUS
 10
43.7153810528
 20
134.6910731594
  0
VERTEX
  8
CURVE
 62
7
  6
CONTINUOUS
 10
43.7782910634
 20
134.75398317
  0
VERTEX
  8
CURVE
 62
7
  6
CONTINUOUS
 10
43.8342802486
 20
134.8231246788
  0
VERTEX
  8
CURVE
 62
7
  6
CONTINUOUS
 10
43.882735159
 20
134.8977400498
  0
VERTEX
  8
CURVE
 62
7
  6
CONTINUOUS
 10
43.923124955
 20
134.97701166
  0
VERTEX
  8
CURVE
 62
7
  6
CONTINUOUS
 10
43.9550072245
 20
135.060070882
  0
VERTEX
  8
CURVE
 62
7
  6
CONTINUOUS
 10
43.9780328251
 20
135.1460076229
  0
VERTEX
  8
CURVE
 62
7
  6
CONTINUOUS
 10
43.9919496962
 20
135.2338803168
  0
VERTEX
  8
CURVE
 62
7
  6
CONTINUOUS
 10
43.9966056021
 20
135.3227262553
  0
SEQEND
  0
LINE
  8
CURVE
 62
7
  6
CONTINUOUS
 10
68.5466379675
 20
134.4727586207
 11
68.0065732367
 21
134.4727586207
  0
LINE
  8
CURVE
 62
7
  6
CONTINUOUS
 10
55.8466379675
 20
134.4727586207
 11
55.3065732367
 21
134.4727586207
  0
LINE
  8
CURVE
 62
7
  6
CONTINUOUS
 10
43.1466379675
 20
134.4727586207
 11
42.6065732367
 21
134.4727586207
  0
LINE
  8
CURVE
 62
7
  6
CONTINUOUS
 10
80.7065732367
 20
134.4727586207
 11
81.2466379675
 21
134.4727586207
  0
LINE
  8
0
 62
7
  6
CONTINUOUS
 10
93.4065732367
 20
134.4727586207
 11
93.9466379675
 21
134.4727586207
  0
LINE
  8
0
 62
7
  6
CONTINUOUS
 10
106.1065732367
 20
134.4727586207
 11
106.6466379675
 21
134.4727586207
  0
LINE
  8
0
 62
7
  6
CONTINUOUS
 10
118.8065732367
 20
134.4727586207
 11
119.3466379675
 21
134.4727586207
  0
LINE
  8
CURVE
 62
7
  6
CONTINUOUS
 10
31.8866056021
 20
134.7027586207
 11
39.5766056021
 21
134.7027586207
  0
LINE
  8
CURVE
 62
7
  6
CONTINUOUS
 10
46.1766056021
 20
134.7027586207
 11
52.2766056021
 21
134.7027586207
  0
LINE
  8
CURVE
 62
7
  6
CONTINUOUS
 10
58.8766056021
 20
134.7027586207
 11
64.9766056021
 21
134.7027586207
  0
LINE
  8
CURVE
 62
7
  6
CONTINUOUS
 10
71.5766056021
 20
134.7027586207
 11
77.6766056021
 21
134.7027586207
  0
LINE
  8
0
 62
7
  6
CONTINUOUS
 10
84.2766056021
 20
134.7027586207
 11
90.3766056021
 21
134.7027586207
  0
LINE
  8
0
 62
7
  6
CONTINUOUS
 10
96.9766056021
 20
134.7027586207
 11
103.0766056021
 21
134.7027586207
  0
LINE
  8
0
 62
7
  6
CONTINUOUS
 10
109.6766056021
 20
134.7027586207
 11
115.7766056021
 21
134.7027586207
  0
LINE
  8
0
 62
7
  6
CONTINUOUS
 10
122.3766056021
 20
134.7027586207
 11
130.0666056021
 21
134.7027586207
  0
POLYLINE
  8
0
 62
7
  6
CONTINUOUS
 66
1
 70
0
  0
VERTEX
  8
0
 62
7
  6
CONTINUOUS
 10
93.4065732367
 20
134.4727586207
  0
VERTEX
  8
0
 62
7
  6
CONTINUOUS
 10
93.3177272982
 20
134.4774145265
  0
VERTEX
  8
0
 62
7
  6
CONTINUOUS
 10
93.2298546043
 20
134.4913313977
  0
VERTEX
  8
0
 62
7
  6
CONTINUOUS
 10
93.1439178634
 20
134.5143569982
  0
VERTEX
  8
0
 62
7
  6
CONTINUOUS
 10
93.0608586414
 20
134.5462392678
  0
VERTEX
  8
0
 62
7
  6
CONTINUOUS
 10
92.9815870312
 20
134.5866290637
  0
VERTEX
  8
0
 62
7
  6
CONTINUOUS
 10
92.9069716602
 20
134.6350839742
  0
VERTEX
  8
0
 62
7
  6
CONTINUOUS
 10
92.8378301514
 20
134.6910731594
  0
VERTEX
  8
0
 62
7
  6
CONTINUOUS
 10
92.7749201407
 20
134.75398317
  0
VERTEX
  8
0
 62
7
  6
CONTINUOUS
 10
92.7189309556
 20
134.8231246788
  0
VERTEX
  8
0
 62
7
  6
CONTINUOUS
 10
92.6704760451
 20
134.8977400498
  0
VERTEX
  8
0
 62
7
  6
CONTINUOUS
 10
92.6300862491
 20
134.97701166
  0
VERTEX
  8
0
 62
7
  6
CONTINUOUS
 10
92.5982039796
 20
135.060070882
  0
VERTEX
  8
0
 62
7
  6
CONTINUOUS
 10
92.575178379
 20
135.1460076229
  0
VERTEX
  8
0
 62
7
  6
CONTINUOUS
 10
92.5612615079
 20
135.2338803168
  0
VERTEX
  8
0
 62
7
  6
CONTINUOUS
 10
92.5566056021
 20
135.3227262553
  0
SEQEND
  0
POLYLINE
  8
0
 62
7
  6
CONTINUOUS
 66
1
 70
0
  0
VERTEX
  8
0
 62
7
  6
CONTINUOUS
 10
106.1065732367
 20
134.4727586207
  0
VERTEX
  8
0
 62
7
  6
CONTINUOUS
 10
106.0177272982
 20
134.4774145265
  0
VERTEX
  8
0
 62
7
  6
CONTINUOUS
 10
105.9298546043
 20
134.4913313977
  0
VERTEX
  8
0
 62
7
  6
CONTINUOUS
 10
105.8439178634
 20
134.5143569982
  0
VERTEX
  8
0
 62
7
  6
CONTINUOUS
 10
105.7608586414
 20
134.5462392678
  0
VERTEX
  8
0
 62
7
  6
CONTINUOUS
 10
105.6815870312
 20
134.5866290637
  0
VERTEX
  8
0
 62
7
  6
CONTINUOUS
 10
105.6069716602
 20
134.6350839742
  0
VERTEX
  8
0
 62
7
  6
CONTINUOUS
 10
105.5378301514
 20
134.6910731594
  0
VERTEX
  8
0
 62
7
  6
CONTINUOUS
 10
105.4749201407
 20
134.75398317
  0
VERTEX
  8
0
 62
7
  6
CONTINUOUS
 10
105.4189309556
 20
134.8231246788
  0
VERTEX
  8
0
 62
7
  6
CONTINUOUS
 10
105.3704760451
 20
134.8977400498
  0
VERTEX
  8
0
 62
7
  6
CONTINUOUS
 10
105.3300862491
 20
134.97701166
  0
VERTEX
  8
0
 62
7
  6
CONTINUOUS
 10
105.2982039796
 20
135.060070882
  0
VERTEX
  8
0
 62
7
  6
CONTINUOUS
 10
105.275178379
 20
135.1460076229
  0
VERTEX
  8
0
 62
7
  6
CONTINUOUS
 10
105.2612615079
 20
135.2338803168
  0
VERTEX
  8
0
 62
7
  6
CONTINUOUS
 10
105.2566056021
 20
135.3227262553
  0
SEQEND
  0
POLYLINE
  8
0
 62
7
  6
CONTINUOUS
 66
1
 70
0
  0
VERTEX
  8
0
 62
7
  6
CONTINUOUS
 10
118.8065732367
 20
134.4727586207
  0
VERTEX
  8
0
 62
7
  6
CONTINUOUS
 10
118.7177272982
 20
134.4774145265
  0
VERTEX
  8
0
 62
7
  6
CONTINUOUS
 10
118.6298546043
 20
134.4913313977
  0
VERTEX
  8
0
 62
7
  6
CONTINUOUS
 10
118.5439178634
 20
134.5143569982
  0
VERTEX
  8
0
 62
7
  6
CONTINUOUS
 10
118.4608586414
 20
134.5462392678
  0
VERTEX
  8
0
 62
7
  6
CONTINUOUS
 10
118.3815870312
 20
134.5866290637
  0
VERTEX
  8
0
 62
7
  6
CONTINUOUS
 10
118.3069716602
 20
134.6350839742
  0
VERTEX
  8
0
 62
7
  6
CONTINUOUS
 10
118.2378301514
 20
134.6910731594
  0
VERTEX
  8
0
 62
7
  6
CONTINUOUS
 10
118.1749201407
 20
134.75398317
  0
VERTEX
  8
0
 62
7
  6
CONTINUOUS
 10
118.1189309556
 20
134.8231246788
  0
VERTEX
  8
0
 62
7
  6
CONTINUOUS
 10
118.0704760451
 20
134.8977400498
  0
VERTEX
  8
0
 62
7
  6
CONTINUOUS
 10
118.0300862491
 20
134.97701166
  0
VERTEX
  8
0
 62
7
  6
CONTINUOUS
 10
117.9982039796
 20
135.060070882
  0
VERTEX
  8
0
 62
7
  6
CONTINUOUS
 10
117.975178379
 20
135.1460076229
  0
VERTEX
  8
0
 62
7
  6
CONTINUOUS
 10
117.9612615079
 20
135.2338803168
  0
VERTEX
  8
0
 62
7
  6
CONTINUOUS
 10
117.9566056021
 20
135.3227262553
  0
SEQEND
  0
POLYLINE
  8
CURVE
 62
7
  6
CONTINUOUS
 66
1
 70
0
  0
VERTEX
  8
CURVE
 62
7
  6
CONTINUOUS
 10
24.6766056021
 20
146.4053311028
  0
VERTEX
  8
CURVE
 62
7
  6
CONTINUOUS
 10
24.6269165137
 20
146.4122735789
  0
VERTEX
  8
CURVE
 62
7
  6
CONTINUOUS
 10
24.5784167005
 20
146.4114705074
  0
VERTEX
  8
CURVE
 62
7
  6
CONTINUOUS
 10
24.5313858912
 20
146.4034448619
  0
VERTEX
  8
CURVE
 62
7
  6
CONTINUOUS
 10
24.4847546305
 20
146.3881950969
  0
VERTEX
  8
CURVE
 62
7
  6
CONTINUOUS
 10
24.4365730616
 20
146.3643669913
  0
VERTEX
  8
CURVE
 62
7
  6
CONTINUOUS
 10
24.3869095662
 20
146.3304881159
  0
VERTEX
  8
CURVE
 62
7
  6
CONTINUOUS
 10
24.3364363531
 20
146.2852194713
  0
VERTEX
  8
CURVE
 62
7
  6
CONTINUOUS
 10
24.2861018588
 20
146.2274870574
  0
VERTEX
  8
CURVE
 62
7
  6
CONTINUOUS
 10
24.2374159035
 20
146.1572845313
  0
VERTEX
  8
CURVE
 62
7
  6
CONTINUOUS
 10
24.1907404376
 20
146.0734024307
  0
VERTEX
  8
CURVE
 62
7
  6
CONTINUOUS
 10
24.1466939477
 20
145.9747803167
  0
VERTEX
  8
CURVE
 62
7
  6
CONTINUOUS
 10
24.1059582266
 20
145.8603824262
  0
VERTEX
  8
CURVE
 62
7
  6
CONTINUOUS
 10
24.0694433309
 20
145.7300416679
  0
VERTEX
  8
CURVE
 62
7
  6
CONTINUOUS
 10
24.0377611939
 20
145.5831361413
  0
VERTEX
  8
CURVE
 62
7
  6
CONTINUOUS
 10
24.0111764996
 20
145.416833621
  0
VERTEX
  8
CURVE
 62
7
  6
CONTINUOUS
 10
23.9903700733
 20
145.2283836553
  0
VERTEX
  8
CURVE
 62
7
  6
CONTINUOUS
 10
23.9764293198
 20
145.0147457584
  0
VERTEX
  8
CURVE
 62
7
  6
CONTINUOUS
 10
23.9711724156
 20
144.7727586207
  0
SEQEND
  0
LINE
  8
0
 62
7
  6
CONTINUOUS
 10
97.1223136791
 20
133.2941178386
 11
97.2032732842
 21
133.1941410526
  0
POLYLINE
  8
0
 62
7
  6
CONTINUOUS
 66
1
 70
0
  0
VERTEX
  8
0
 62
7
  6
CONTINUOUS
 10
100.7927558754
 20
121.8227586207
  0
VERTEX
  8
0
 62
7
  6
CONTINUOUS
 10
100.7947719132
 20
121.8124752161
  0
VERTEX
  8
0
 62
7
  6
CONTINUOUS
 10
100.7967729565
 20
121.7816867073
  0
VERTEX
  8
0
 62
7
  6
CONTINUOUS
 10
100.7987421901
 20
121.7306369616
  0
VERTEX
  8
0
 62
7
  6
CONTINUOUS
 10
100.8006640207
 20
121.6597303269
  0
VERTEX
  8
0
 62
7
  6
CONTINUOUS
 10
100.802523231
 20
121.5695284163
  0
SEQEND
  0
LINE
  8
0
 62
7
  6
CONTINUOUS
 10
105.2472972984
 20
142.2516177382
 11
105.2439475986
 21
142.4649459451
  0
LINE
  8
0
 62
7
  6
CONTINUOUS
 10
105.2439475986
 20
142.4649459451
 11
105.2409590097
 21
142.7398271123
  0
LINE
  8
0
 62
7
  6
CONTINUOUS
 10
105.2409590097
 20
142.7398271123
 11
105.2384167774
 21
143.0684184519
  0
LINE
  8
0
 62
7
  6
CONTINUOUS
 10
105.2384167774
 20
143.0684184519
 11
105.2363934089
 21
143.4413456106
  0
LINE
  8
0
 62
7
  6
CONTINUOUS
 10
105.2363934089
 20
143.4413456106
 11
105.2349466078
 21
143.8479703277
  0
POLYLINE
  8
0
 62
7
  6
CONTINUOUS
 66
1
 70
0
  0
VERTEX
  8
0
 62
7
  6
CONTINUOUS
 10
105.2349466078
 20
143.8479703277
  0
VERTEX
  8
0
 62
7
  6
CONTINUOUS
 10
105.2341176317
 20
144.2766939421
  0
VERTEX
  8
0
 62
7
  6
CONTINUOUS
 10
105.2339429607
 20
144.4954536275
  0
SEQEND
  0
LINE
  8
0
 62
7
  6
CONTINUOUS
 10
103.0266056021
 20
129.2927586207
 11
103.0266056021
 21
115.5227606032
  0
LINE
  8
0
 62
7
  6
CONTINUOUS
 10
103.3766056021
 20
134.5527586207
 11
103.3766056021
 21
148.3227586207
  0
LINE
  8
0
 62
7
  6
CONTINUOUS
 10
105.2566056021
 20
142.0227586207
 11
105.2566056021
 21
135.3227262553
  0
LINE
  8
0
 62
7
  6
CONTINUOUS
 10
107.4966056021
 20
135.3227262553
 11
107.4966056021
 21
142.0227586207
  0
LINE
  8
0
 62
7
  6
CONTINUOUS
 10
107.5182645963
 20
143.8479703277
 11
107.5192682434
 21
144.4954536275
  0
LINE
  8
0
 62
7
  6
CONTINUOUS
 10
107.5168177952
 20
143.4413456106
 11
107.5182645963
 21
143.8479703277
  0
LINE
  8
0
 62
7
  6
CONTINUOUS
 10
107.5147944267
 20
143.0684184519
 11
107.5168177952
 21
143.4413456106
  0
LINE
  8
0
 62
7
  6
CONTINUOUS
 10
107.5122521944
 20
142.7398271123
 11
107.5147944267
 21
143.0684184519
  0
LINE
  8
0
 62
7
  6
CONTINUOUS
 10
107.5092636055
 20
142.4649459451
 11
107.5122521944
 21
142.7398271123
  0
POLYLINE
  8
0
 62
7
  6
CONTINUOUS
 66
1
 70
0
  0
VERTEX
  8
0
 62
7
  6
CONTINUOUS
 10
105.2339429607
 20
144.4954536275
  0
VERTEX
  8
0
 62
7
  6
CONTINUOUS
 10
105.2349936079
 20
144.5380222954
  0
VERTEX
  8
0
 62
7
  6
CONTINUOUS
 10
105.2381810226
 20
144.5804950652
  0
VERTEX
  8
0
 62
7
  6
CONTINUOUS
 10
105.2434987055
 20
144.6227586207
  0
SEQEND
  0
POLYLINE
  8
0
 62
7
  6
CONTINUOUS
 66
1
 70
0
  0
VERTEX
  8
0
 62
7
  6
CONTINUOUS
 10
107.4966056021
 20
135.3227262553
  0
VERTEX
  8
0
 62
7
  6
CONTINUOUS
 10
107.4919496962
 20
135.2338803168
  0
VERTEX
  8
0
 62
7
  6
CONTINUOUS
 10
107.4780328251
 20
135.1460076229
  0
VERTEX
  8
0
 62
7
  6
CONTINUOUS
 10
107.4550072245
 20
135.060070882
  0
VERTEX
  8
0
 62
7
  6
CONTINUOUS
 10
107.423124955
 20
134.97701166
  0
VERTEX
  8
0
 62
7
  6
CONTINUOUS
 10
107.382735159
 20
134.8977400498
  0
VERTEX
  8
0
 62
7
  6
CONTINUOUS
 10
107.3342802486
 20
134.8231246788
  0
VERTEX
  8
0
 62
7
  6
CONTINUOUS
 10
107.2782910634
 20
134.75398317
  0
VERTEX
  8
0
 62
7
  6
CONTINUOUS
 10
107.2153810528
 20
134.6910731594
  0
VERTEX
  8
0
 62
7
  6
CONTINUOUS
 10
107.1462395439
 20
134.6350839742
  0
VERTEX
  8
0
 62
7
  6
CONTINUOUS
 10
107.071624173
 20
134.5866290637
  0
VERTEX
  8
0
 62
7
  6
CONTINUOUS
 10
106.9923525627
 20
134.5462392678
  0
VERTEX
  8
0
 62
7
  6
CONTINUOUS
 10
106.9092933408
 20
134.5143569982
  0
VERTEX
  8
0
 62
7
  6
CONTINUOUS
 10
106.8233565998
 20
134.4913313977
  0
VERTEX
  8
0
 62
7
  6
CONTINUOUS
 10
106.7354839059
 20
134.4774145265
  0
VERTEX
  8
0
 62
7
  6
CONTINUOUS
 10
106.6466379675
 20
134.4727586207
  0
SEQEND
  0
POLYLINE
  8
0
 62
7
  6
CONTINUOUS
 66
1
 70
0
  0
VERTEX
  8
0
 62
7
  6
CONTINUOUS
 10
107.4966056021
 20
142.0227586207
  0
VERTEX
  8
0
 62
7
  6
CONTINUOUS
 10
107.4985209719
 20
142.0320388969
  0
VERTEX
  8
0
 62
7
  6
CONTINUOUS
 10
107.5004234501
 20
142.0598287638
  0
VERTEX
  8
0
 62
7
  6
CONTINUOUS
 10
107.502298649
 20
142.1059296022
  0
VERTEX
  8
0
 62
7
  6
CONTINUOUS
 10
107.50413317
 20
142.1700119243
  0
VERTEX
  8
0
 62
7
  6
CONTINUOUS
 10
107.5059139057
 20
142.2516177382
  0
VERTEX
  8
0
 62
7
  6
CONTINUOUS
 10
107.5092636055
 20
142.4649459451
  0
SEQEND
  0
POLYLINE
  8
0
 62
7
  6
CONTINUOUS
 66
1
 70
0
  0
VERTEX
  8
0
 62
7
  6
CONTINUOUS
 10
101.1597124986
 20
119.2227586207
  0
VERTEX
  8
0
 62
7
  6
CONTINUOUS
 10
101.1414055866
 20
119.1341464751
  0
VERTEX
  8
0
 62
7
  6
CONTINUOUS
 10
101.113396252
 20
119.0470658297
  0
VERTEX
  8
0
 62
7
  6
CONTINUOUS
 10
101.0758697106
 20
118.9629496547
  0
VERTEX
  8
0
 62
7
  6
CONTINUOUS
 10
101.0288438203
 20
118.8825101722
  0
VERTEX
  8
0
 62
7
  6
CONTINUOUS
 10
100.9730175343
 20
118.8074071229
  0
VERTEX
  8
0
 62
7
  6
CONTINUOUS
 10
100.9094291628
 20
118.7390674714
  0
VERTEX
  8
0
 62
7
  6
CONTINUOUS
 10
100.8384390224
 20
118.6778931238
  0
VERTEX
  8
0
 62
7
  6
CONTINUOUS
 10
100.7607433801
 20
118.6246508479
  0
VERTEX
  8
0
 62
7
  6
CONTINUOUS
 10
100.6778905454
 20
118.5804288483
  0
VERTEX
  8
0
 62
7
  6
CONTINUOUS
 10
100.5913130581
 20
118.5458055269
  0
VERTEX
  8
0
 62
7
  6
CONTINUOUS
 10
100.5013544317
 20
118.5208151792
  0
VERTEX
  8
0
 62
7
  6
CONTINUOUS
 10
100.4097206916
 20
118.5058627748
  0
VERTEX
  8
0
 62
7
  6
CONTINUOUS
 10
100.3184359428
 20
118.5009606454
  0
SEQEND
  0
POLYLINE
  8
0
 62
7
  6
CONTINUOUS
 66
1
 70
0
  0
VERTEX
  8
0
 62
7
  6
CONTINUOUS
 10
100.7932996773
 20
119.2227586207
  0
VERTEX
  8
0
 62
7
  6
CONTINUOUS
 10
100.8055859531
 20
119.272075464
  0
VERTEX
  8
0
 62
7
  6
CONTINUOUS
 10
100.8129694036
 20
119.3222673968
  0
VERTEX
  8
0
 62
7
  6
CONTINUOUS
 10
100.815407956
 20
119.3727262553
  0
SEQEND
  0
LINE
  8
0
 62
7
  6
CONTINUOUS
 10
103.5532732867
 20
130.6513761919
 11
103.4723136791
 21
130.5513994028
  0
POLYLINE
  8
0
 62
7
  6
CONTINUOUS
 66
1
 70
0
  0
VERTEX
  8
0
 62
7
  6
CONTINUOUS
 10
137.2766056021
 20
146.4053311028
  0
VERTEX
  8
0
 62
7
  6
CONTINUOUS
 10
137.3262946905
 20
146.4122735789
  0
VERTEX
  8
0
 62
7
  6
CONTINUOUS
 10
137.3747945036
 20
146.4114705074
  0
VERTEX
  8
0
 62
7
  6
CONTINUOUS
 10
137.421825313
 20
146.4034448619
  0
VERTEX
  8
0
 62
7
  6
CONTINUOUS
 10
137.4684565737
 20
146.3881950969
  0
VERTEX
  8
0
 62
7
  6
CONTINUOUS
 10
137.5166381425
 20
146.3643669913
  0
VERTEX
  8
0
 62
7
  6
CONTINUOUS
 10
137.5663016379
 20
146.3304881159
  0
VERTEX
  8
0
 62
7
  6
CONTINUOUS
 10
137.616774851
 20
146.2852194713
  0
VERTEX
  8
0
 62
7
  6
CONTINUOUS
 10
137.6671093453
 20
146.2274870574
  0
VERTEX
  8
0
 62
7
  6
CONTINUOUS
 10
137.7157953006
 20
146.1572845313
  0
VERTEX
  8
0
 62
7
  6
CONTINUOUS
 10
137.7624707665
 20
146.0734024307
  0
VERTEX
  8
0
 62
7
  6
CONTINUOUS
 10
137.8065172564
 20
145.9747803167
  0
VERTEX
  8
0
 62
7
  6
CONTINUOUS
 10
137.8472529776
 20
145.8603824262
  0
VERTEX
  8
0
 62
7
  6
CONTINUOUS
 10
137.8837678732
 20
145.7300416679
  0
VERTEX
  8
0
 62
7
  6
CONTINUOUS
 10
137.9154500102
 20
145.5831361413
  0
VERTEX
  8
0
 62
7
  6
CONTINUOUS
 10
137.9420347045
 20
145.416833621
  0
VERTEX
  8
0
 62
7
  6
CONTINUOUS
 10
137.9628411309
 20
145.2283836553
  0
VERTEX
  8
0
 62
7
  6
CONTINUOUS
 10
137.9767818843
 20
145.0147457584
  0
VERTEX
  8
0
 62
7
  6
CONTINUOUS
 10
137.9820387885
 20
144.7727586207
  0
SEQEND
  0
LINE
  8
0
 62
7
  6
CONTINUOUS
 10
109.280897525
 20
130.5513994028
 11
109.1999379166
 21
130.651376193
  0
POLYLINE
  8
0
 62
7
  6
CONTINUOUS
 66
1
 70
0
  0
VERTEX
  8
0
 62
7
  6
CONTINUOUS
 10
105.2566056021
 20
142.0227586207
  0
VERTEX
  8
0
 62
7
  6
CONTINUOUS
 10
105.2546902323
 20
142.0320388969
  0
VERTEX
  8
0
 62
7
  6
CONTINUOUS
 10
105.252787754
 20
142.0598287638
  0
VERTEX
  8
0
 62
7
  6
CONTINUOUS
 10
105.2509125552
 20
142.1059296022
  0
VERTEX
  8
0
 62
7
  6
CONTINUOUS
 10
105.2490780341
 20
142.1700119243
  0
VERTEX
  8
0
 62
7
  6
CONTINUOUS
 10
105.2472972984
 20
142.2516177382
  0
SEQEND
  0
LINE
  8
0
 62
7
  6
CONTINUOUS
 10
109.3766056021
 20
148.3227566382
 11
109.3766056021
 21
134.5527586207
  0
LINE
  8
0
 62
7
  6
CONTINUOUS
 10
109.7266056021
 20
115.5227586207
 11
109.7266056021
 21
129.2927586207
  0
LINE
  8
0
 62
7
  6
CONTINUOUS
 10
111.6066056021
 20
128.5227909861
 11
111.6066056021
 21
121.8227586207
  0
LINE
  8
0
 62
7
  6
CONTINUOUS
 10
111.5839429607
 20
119.3500636139
 11
111.5844529909
 21
119.7851939346
  0
LINE
  8
0
 62
7
  6
CONTINUOUS
 10
111.5844529909
 20
119.7851939346
 11
111.5855949572
 21
120.2043652964
  0
LINE
  8
0
 62
7
  6
CONTINUOUS
 10
111.5855949572
 20
120.2043652964
 11
111.5873362603
 21
120.5955385179
  0
LINE
  8
0
 62
7
  6
CONTINUOUS
 10
111.5873362603
 20
120.5955385179
 11
111.5896272426
 21
120.9475552884
  0
LINE
  8
0
 62
7
  6
CONTINUOUS
 10
111.5896272426
 20
120.9475552884
 11
111.5924025657
 21
121.2503734103
  0
POLYLINE
  8
0
 62
7
  6
CONTINUOUS
 66
1
 70
0
  0
VERTEX
  8
0
 62
7
  6
CONTINUOUS
 10
111.5924025657
 20
121.2503734103
  0
VERTEX
  8
0
 62
7
  6
CONTINUOUS
 10
111.5955830708
 20
121.4953534104
  0
VERTEX
  8
0
 62
7
  6
CONTINUOUS
 10
111.5972972984
 20
121.5938995025
  0
VERTEX
  8
0
 62
7
  6
CONTINUOUS
 10
111.5990780341
 20
121.6755053165
  0
VERTEX
  8
0
 62
7
  6
CONTINUOUS
 10
111.6009125551
 20
121.7395876388
  0
VERTEX
  8
0
 62
7
  6
CONTINUOUS
 10
111.602787754
 20
121.7856884774
  0
VERTEX
  8
0
 62
7
  6
CONTINUOUS
 10
111.6046902322
 20
121.8134783444
  0
VERTEX
  8
0
 62
7
  6
CONTINUOUS
 10
111.6066056021
 20
121.8227586207
  0
SEQEND
  0
LINE
  8
0
 62
7
  6
CONTINUOUS
 10
115.5499379153
 20
133.1941410468
 11
115.630897525
 21
133.2941178386
  0
POLYLINE
  8
CURVE
 62
7
  6
CONTINUOUS
 66
1
 70
0
  0
VERTEX
  8
CURVE
 62
7
  6
CONTINUOUS
 10
80.6847752613
 20
145.344556596
  0
VERTEX
  8
CURVE
 62
7
  6
CONTINUOUS
 10
80.5934609332
 20
145.3396512802
  0
VERTEX
  8
CURVE
 62
7
  6
CONTINUOUS
 10
80.5018132084
 20
145.3246924926
  0
VERTEX
  8
CURVE
 62
7
  6
CONTINUOUS
 10
80.4118565132
 20
145.2996976514
  0
VERTEX
  8
CURVE
 62
7
  6
CONTINUOUS
 10
80.3252725043
 20
145.2650660062
  0
VERTEX
  8
CURVE
 62
7
  6
CONTINUOUS
 10
80.2424198493
 20
145.2208372789
  0
VERTEX
  8
CURVE
 62
7
  6
CONTINUOUS
 10
80.1647267052
 20
145.1675891013
  0
VERTEX
  8
CURVE
 62
7
  6
CONTINUOUS
 10
80.0937288026
 20
145.1063985105
  0
VERTEX
  8
CURVE
 62
7
  6
CONTINUOUS
 10
80.0301482869
 20
145.0380556165
  0
VERTEX
  8
CURVE
 62
7
  6
CONTINUOUS
 10
79.9743167945
 20
144.9629305175
  0
VERTEX
  8
CURVE
 62
7
  6
CONTINUOUS
 10
79.9272960634
 20
144.8824790225
  0
VERTEX
  8
CURVE
 62
7
  6
CONTINUOUS
 10
79.889782981
 20
144.7983677886
  0
VERTEX
  8
CURVE
 62
7
  6
CONTINUOUS
 10
79.8617906479
 20
144.7113138373
  0
VERTEX
  8
CURVE
 62
7
  6
CONTINUOUS
 10
79.8434987055
 20
144.6227586207
  0
SEQEND
  0
POLYLINE
  8
CURVE
 62
7
  6
CONTINUOUS
 66
1
 70
0
  0
VERTEX
  8
CURVE
 62
7
  6
CONTINUOUS
 10
67.9847752613
 20
145.344556596
  0
VERTEX
  8
CURVE
 62
7
  6
CONTINUOUS
 10
67.8934609332
 20
145.3396512802
  0
VERTEX
  8
CURVE
 62
7
  6
CONTINUOUS
 10
67.8018132084
 20
145.3246924926
  0
VERTEX
  8
CURVE
 62
7
  6
CONTINUOUS
 10
67.7118565132
 20
145.2996976514
  0
VERTEX
  8
CURVE
 62
7
  6
CONTINUOUS
 10
67.6252725043
 20
145.2650660062
  0
VERTEX
  8
CURVE
 62
7
  6
CONTINUOUS
 10
67.5424198493
 20
145.2208372789
  0
VERTEX
  8
CURVE
 62
7
  6
CONTINUOUS
 10
67.4647267052
 20
145.1675891013
  0
VERTEX
  8
CURVE
 62
7
  6
CONTINUOUS
 10
67.3937288026
 20
145.1063985105
  0
VERTEX
  8
CURVE
 62
7
  6
CONTINUOUS
 10
67.3301482869
 20
145.0380556165
  0
VERTEX
  8
CURVE
 62
7
  6
CONTINUOUS
 10
67.2743167945
 20
144.9629305175
  0
VERTEX
  8
CURVE
 62
7
  6
CONTINUOUS
 10
67.2272960634
 20
144.8824790225
  0
VERTEX
  8
CURVE
 62
7
  6
CONTINUOUS
 10
67.189782981
 20
144.7983677886
  0
VERTEX
  8
CURVE
 62
7
  6
CONTINUOUS
 10
67.1617906479
 20
144.7113138373
  0
VERTEX
  8
CURVE
 62
7
  6
CONTINUOUS
 10
67.1434987055
 20
144.6227586207
  0
SEQEND
  0
POLYLINE
  8
CURVE
 62
7
  6
CONTINUOUS
 66
1
 70
0
  0
VERTEX
  8
CURVE
 62
7
  6
CONTINUOUS
 10
55.2847752613
 20
145.344556596
  0
VERTEX
  8
CURVE
 62
7
  6
CONTINUOUS
 10
55.1934609332
 20
145.3396512802
  0
VERTEX
  8
CURVE
 62
7
  6
CONTINUOUS
 10
55.1018132084
 20
145.3246924926
  0
VERTEX
  8
CURVE
 62
7
  6
CONTINUOUS
 10
55.0118565132
 20
145.2996976514
  0
VERTEX
  8
CURVE
 62
7
  6
CONTINUOUS
 10
54.9252725043
 20
145.2650660062
  0
VERTEX
  8
CURVE
 62
7
  6
CONTINUOUS
 10
54.8424198493
 20
145.2208372789
  0
VERTEX
  8
CURVE
 62
7
  6
CONTINUOUS
 10
54.7647267052
 20
145.1675891013
  0
VERTEX
  8
CURVE
 62
7
  6
CONTINUOUS
 10
54.6937288026
 20
145.1063985105
  0
VERTEX
  8
CURVE
 62
7
  6
CONTINUOUS
 10
54.6301482869
 20
145.0380556165
  0
VERTEX
  8
CURVE
 62
7
  6
CONTINUOUS
 10
54.5743167945
 20
144.9629305175
  0
VERTEX
  8
CURVE
 62
7
  6
CONTINUOUS
 10
54.5272960634
 20
144.8824790225
  0
VERTEX
  8
CURVE
 62
7
  6
CONTINUOUS
 10
54.489782981
 20
144.7983677886
  0
VERTEX
  8
CURVE
 62
7
  6
CONTINUOUS
 10
54.4617906479
 20
144.7113138373
  0
VERTEX
  8
CURVE
 62
7
  6
CONTINUOUS
 10
54.4434987055
 20
144.6227586207
  0
SEQEND
  0
LINE
  8
CURVE
 62
2
  6
CENTER
 10
21.8266056021
 20
144.6227586207
 11
140.1266056021
 21
144.6227586207
  0
LINE
  8
0
 62
7
  6
CONTINUOUS
 10
119.3684359428
 20
145.344556596
 11
118.7847752613
 21
145.344556596
  0
LINE
  8
0
 62
7
  6
CONTINUOUS
 10
106.6684359428
 20
145.344556596
 11
106.0847752613
 21
145.344556596
  0
LINE
  8
0
 62
7
  6
CONTINUOUS
 10
93.9684359428
 20
145.344556596
 11
93.3847752613
 21
145.344556596
  0
LINE
  8
CURVE
 62
7
  6
CONTINUOUS
 10
42.5847752613
 20
145.344556596
 11
43.1684359428
 21
145.344556596
  0
LINE
  8
CURVE
 62
7
  6
CONTINUOUS
 10
55.2847752613
 20
145.344556596
 11
55.8684359428
 21
145.344556596
  0
LINE
  8
CURVE
 62
7
  6
CONTINUOUS
 10
67.9847752613
 20
145.344556596
 11
68.5684359428
 21
145.344556596
  0
LINE
  8
CURVE
 62
7
  6
CONTINUOUS
 10
80.6847752613
 20
145.344556596
 11
81.2684359428
 21
145.344556596
  0
POLYLINE
  8
0
 62
7
  6
CONTINUOUS
 66
1
 70
0
  0
VERTEX
  8
0
 62
7
  6
CONTINUOUS
 10
81.2684359428
 20
145.344556596
  0
VERTEX
  8
0
 62
7
  6
CONTINUOUS
 10
81.359750271
 20
145.3396512802
  0
VERTEX
  8
0
 62
7
  6
CONTINUOUS
 10
81.4513979957
 20
145.3246924926
  0
VERTEX
  8
0
 62
7
  6
CONTINUOUS
 10
81.541354691
 20
145.2996976514
  0
VERTEX
  8
0
 62
7
  6
CONTINUOUS
 10
81.6279386998
 20
145.2650660062
  0
VERTEX
  8
0
 62
7
  6
CONTINUOUS
 10
81.7107913548
 20
145.2208372789
  0
VERTEX
  8
0
 62
7
  6
CONTINUOUS
 10
81.7884844989
 20
145.1675891013
  0
VERTEX
  8
0
 62
7
  6
CONTINUOUS
 10
81.8594824015
 20
145.1063985105
  0
VERTEX
  8
0
 62
7
  6
CONTINUOUS
 10
81.9230629172
 20
145.0380556165
  0
VERTEX
  8
0
 62
7
  6
CONTINUOUS
 10
81.9788944097
 20
144.9629305175
  0
VERTEX
  8
0
 62
7
  6
CONTINUOUS
 10
82.0259151407
 20
144.8824790225
  0
VERTEX
  8
0
 62
7
  6
CONTINUOUS
 10
82.0634282231
 20
144.7983677886
  0
VERTEX
  8
0
 62
7
  6
CONTINUOUS
 10
82.0914205562
 20
144.7113138373
  0
VERTEX
  8
0
 62
7
  6
CONTINUOUS
 10
82.1097124986
 20
144.6227586207
  0
SEQEND
  0
POLYLINE
  8
0
 62
7
  6
CONTINUOUS
 66
1
 70
0
  0
VERTEX
  8
0
 62
7
  6
CONTINUOUS
 10
93.9684359428
 20
145.344556596
  0
VERTEX
  8
0
 62
7
  6
CONTINUOUS
 10
94.059750271
 20
145.3396512802
  0
VERTEX
  8
0
 62
7
  6
CONTINUOUS
 10
94.1513979957
 20
145.3246924926
  0
VERTEX
  8
0
 62
7
  6
CONTINUOUS
 10
94.241354691
 20
145.2996976514
  0
VERTEX
  8
0
 62
7
  6
CONTINUOUS
 10
94.3279386998
 20
145.2650660062
  0
VERTEX
  8
0
 62
7
  6
CONTINUOUS
 10
94.4107913548
 20
145.2208372789
  0
VERTEX
  8
0
 62
7
  6
CONTINUOUS
 10
94.4884844989
 20
145.1675891013
  0
VERTEX
  8
0
 62
7
  6
CONTINUOUS
 10
94.5594824015
 20
145.1063985105
  0
VERTEX
  8
0
 62
7
  6
CONTINUOUS
 10
94.6230629172
 20
145.0380556165
  0
VERTEX
  8
0
 62
7
  6
CONTINUOUS
 10
94.6788944097
 20
144.9629305175
  0
VERTEX
  8
0
 62
7
  6
CONTINUOUS
 10
94.7259151407
 20
144.8824790225
  0
VERTEX
  8
0
 62
7
  6
CONTINUOUS
 10
94.7634282231
 20
144.7983677886
  0
VERTEX
  8
0
 62
7
  6
CONTINUOUS
 10
94.7914205562
 20
144.7113138373
  0
VERTEX
  8
0
 62
7
  6
CONTINUOUS
 10
94.8097124986
 20
144.6227586207
  0
SEQEND
  0
POLYLINE
  8
0
 62
7
  6
CONTINUOUS
 66
1
 70
0
  0
VERTEX
  8
0
 62
7
  6
CONTINUOUS
 10
106.6684359428
 20
145.344556596
  0
VERTEX
  8
0
 62
7
  6
CONTINUOUS
 10
106.759750271
 20
145.3396512802
  0
VERTEX
  8
0
 62
7
  6
CONTINUOUS
 10
106.8513979957
 20
145.3246924926
  0
VERTEX
  8
0
 62
7
  6
CONTINUOUS
 10
106.941354691
 20
145.2996976514
  0
VERTEX
  8
0
 62
7
  6
CONTINUOUS
 10
107.0279386998
 20
145.2650660062
  0
VERTEX
  8
0
 62
7
  6
CONTINUOUS
 10
107.1107913548
 20
145.2208372789
  0
VERTEX
  8
0
 62
7
  6
CONTINUOUS
 10
107.1884844989
 20
145.1675891013
  0
VERTEX
  8
0
 62
7
  6
CONTINUOUS
 10
107.2594824015
 20
145.1063985105
  0
VERTEX
  8
0
 62
7
  6
CONTINUOUS
 10
107.3230629172
 20
145.0380556165
  0
VERTEX
  8
0
 62
7
  6
CONTINUOUS
 10
107.3788944097
 20
144.9629305175
  0
VERTEX
  8
0
 62
7
  6
CONTINUOUS
 10
107.4259151407
 20
144.8824790225
  0
VERTEX
  8
0
 62
7
  6
CONTINUOUS
 10
107.4634282231
 20
144.7983677886
  0
VERTEX
  8
0
 62
7
  6
CONTINUOUS
 10
107.4914205562
 20
144.7113138373
  0
VERTEX
  8
0
 62
7
  6
CONTINUOUS
 10
107.5097124986
 20
144.6227586207
  0
SEQEND
  0
POLYLINE
  8
0
 62
7
  6
CONTINUOUS
 66
1
 70
0
  0
VERTEX
  8
0
 62
7
  6
CONTINUOUS
 10
119.3684359428
 20
145.344556596
  0
VERTEX
  8
0
 62
7
  6
CONTINUOUS
 10
119.459750271
 20
145.3396512802
  0
VERTEX
  8
0
 62
7
  6
CONTINUOUS
 10
119.5513979957
 20
145.3246924926
  0
VERTEX
  8
0
 62
7
  6
CONTINUOUS
 10
119.641354691
 20
145.2996976514
  0
VERTEX
  8
0
 62
7
  6
CONTINUOUS
 10
119.7279386998
 20
145.2650660062
  0
VERTEX
  8
0
 62
7
  6
CONTINUOUS
 10
119.8107913548
 20
145.2208372789
  0
VERTEX
  8
0
 62
7
  6
CONTINUOUS
 10
119.8884844989
 20
145.1675891013
  0
VERTEX
  8
0
 62
7
  6
CONTINUOUS
 10
119.9594824015
 20
145.1063985105
  0
VERTEX
  8
0
 62
7
  6
CONTINUOUS
 10
120.0230629172
 20
145.0380556165
  0
VERTEX
  8
0
 62
7
  6
CONTINUOUS
 10
120.0788944097
 20
144.9629305175
  0
VERTEX
  8
0
 62
7
  6
CONTINUOUS
 10
120.1259151407
 20
144.8824790225
  0
VERTEX
  8
0
 62
7
  6
CONTINUOUS
 10
120.1634282231
 20
144.7983677886
  0
VERTEX
  8
0
 62
7
  6
CONTINUOUS
 10
120.1914205562
 20
144.7113138373
  0
VERTEX
  8
0
 62
7
  6
CONTINUOUS
 10
120.2097124986
 20
144.6227586207
  0
SEQEND
  0
LINE
  8
0
 62
7
  6
CONTINUOUS
 10
109.8223136791
 20
133.2941178386
 11
109.9032732842
 21
133.1941410526
  0
POLYLINE
  8
0
 62
7
  6
CONTINUOUS
 66
1
 70
0
  0
VERTEX
  8
0
 62
7
  6
CONTINUOUS
 10
107.5097124986
 20
144.6227586207
  0
VERTEX
  8
0
 62
7
  6
CONTINUOUS
 10
107.5150302446
 20
144.5804944366
  0
VERTEX
  8
0
 62
7
  6
CONTINUOUS
 10
107.5182176257
 20
144.5380217035
  0
VERTEX
  8
0
 62
7
  6
CONTINUOUS
 10
107.5192682434
 20
144.4954536275
  0
SEQEND
  0
POLYLINE
  8
0
 62
7
  6
CONTINUOUS
 66
1
 70
0
  0
VERTEX
  8
0
 62
7
  6
CONTINUOUS
 10
111.5934987055
 20
119.2227586207
  0
VERTEX
  8
0
 62
7
  6
CONTINUOUS
 10
111.5881812775
 20
119.2650196362
  0
VERTEX
  8
0
 62
7
  6
CONTINUOUS
 10
111.5849937404
 20
119.3074922867
  0
VERTEX
  8
0
 62
7
  6
CONTINUOUS
 10
111.5839429607
 20
119.3500636139
  0
SEQEND
  0
POLYLINE
  8
0
 62
7
  6
CONTINUOUS
 66
1
 70
0
  0
VERTEX
  8
0
 62
7
  6
CONTINUOUS
 10
113.8559139057
 20
121.5938995025
  0
VERTEX
  8
0
 62
7
  6
CONTINUOUS
 10
113.85413317
 20
121.6755053165
  0
VERTEX
  8
0
 62
7
  6
CONTINUOUS
 10
113.852298649
 20
121.7395876388
  0
VERTEX
  8
0
 62
7
  6
CONTINUOUS
 10
113.8504234501
 20
121.7856884774
  0
VERTEX
  8
0
 62
7
  6
CONTINUOUS
 10
113.8485209719
 20
121.8134783444
  0
VERTEX
  8
0
 62
7
  6
CONTINUOUS
 10
113.8466056021
 20
121.8227586207
  0
SEQEND
  0
LINE
  8
0
 62
7
  6
CONTINUOUS
 10
113.8592636055
 20
121.3805712956
 11
113.8559139057
 21
121.5938995025
  0
LINE
  8
0
 62
7
  6
CONTINUOUS
 10
113.8622521944
 20
121.1056901289
 11
113.8592636055
 21
121.3805712956
  0
LINE
  8
0
 62
7
  6
CONTINUOUS
 10
113.8647944267
 20
120.77709879
 11
113.8622521944
 21
121.1056901289
  0
LINE
  8
0
 62
7
  6
CONTINUOUS
 10
113.8668177952
 20
120.4041716318
 11
113.8647944267
 21
120.77709879
  0
LINE
  8
0
 62
7
  6
CONTINUOUS
 10
113.8682645963
 20
119.9975469149
 11
113.8668177952
 21
120.4041716318
  0
POLYLINE
  8
0
 62
7
  6
CONTINUOUS
 66
1
 70
0
  0
VERTEX
  8
0
 62
7
  6
CONTINUOUS
 10
113.8692682434
 20
119.3500636139
  0
VERTEX
  8
0
 62
7
  6
CONTINUOUS
 10
113.8690935724
 20
119.5688233
  0
VERTEX
  8
0
 62
7
  6
CONTINUOUS
 10
113.8682645963
 20
119.9975469149
  0
SEQEND
  0
LINE
  8
0
 62
7
  6
CONTINUOUS
 10
113.8466056021
 20
121.8227586207
 11
113.8466056021
 21
128.5227909861
  0
LINE
  8
0
 62
7
  6
CONTINUOUS
 10
115.7266056021
 20
129.2927586207
 11
115.7266056021
 21
115.5227606032
  0
LINE
  8
0
 62
7
  6
CONTINUOUS
 10
116.0766056021
 20
134.5527586207
 11
116.0766056021
 21
148.3227586207
  0
POLYLINE
  8
0
 62
7
  6
CONTINUOUS
 66
1
 70
0
  0
VERTEX
  8
0
 62
7
  6
CONTINUOUS
 10
113.8692682434
 20
119.3500636139
  0
VERTEX
  8
0
 62
7
  6
CONTINUOUS
 10
113.8682174338
 20
119.3074916854
  0
VERTEX
  8
0
 62
7
  6
CONTINUOUS
 10
113.8650298641
 20
119.2650190135
  0
VERTEX
  8
0
 62
7
  6
CONTINUOUS
 10
113.8597124986
 20
119.2227586207
  0
SEQEND
  0
POLYLINE
  8
0
 62
7
  6
CONTINUOUS
 66
1
 70
0
  0
VERTEX
  8
0
 62
7
  6
CONTINUOUS
 10
117.9339429607
 20
144.4954536275
  0
VERTEX
  8
0
 62
7
  6
CONTINUOUS
 10
117.9349936079
 20
144.5380222954
  0
VERTEX
  8
0
 62
7
  6
CONTINUOUS
 10
117.9381810226
 20
144.5804950652
  0
VERTEX
  8
0
 62
7
  6
CONTINUOUS
 10
117.9434987055
 20
144.6227586207
  0
SEQEND
  0
POLYLINE
  8
0
 62
7
  6
CONTINUOUS
 66
1
 70
0
  0
VERTEX
  8
0
 62
7
  6
CONTINUOUS
 10
120.1966056021
 20
142.0227586207
  0
VERTEX
  8
0
 62
7
  6
CONTINUOUS
 10
120.1985209719
 20
142.0320388969
  0
VERTEX
  8
0
 62
7
  6
CONTINUOUS
 10
120.2004234501
 20
142.0598287638
  0
VERTEX
  8
0
 62
7
  6
CONTINUOUS
 10
120.202298649
 20
142.1059296022
  0
VERTEX
  8
0
 62
7
  6
CONTINUOUS
 10
120.20413317
 20
142.1700119243
  0
VERTEX
  8
0
 62
7
  6
CONTINUOUS
 10
120.2059139057
 20
142.2516177382
  0
VERTEX
  8
0
 62
7
  6
CONTINUOUS
 10
120.2092636055
 20
142.4649459451
  0
SEQEND
  0
POLYLINE
  8
0
 62
7
  6
CONTINUOUS
 66
1
 70
0
  0
VERTEX
  8
0
 62
7
  6
CONTINUOUS
 10
117.9434987055
 20
144.6227586207
  0
VERTEX
  8
0
 62
7
  6
CONTINUOUS
 10
117.9617907662
 20
144.7113142874
  0
VERTEX
  8
0
 62
7
  6
CONTINUOUS
 10
117.9897814006
 20
144.7983636542
  0
VERTEX
  8
0
 62
7
  6
CONTINUOUS
 10
118.0272966367
 20
144.8824801402
  0
VERTEX
  8
0
 62
7
  6
CONTINUOUS
 10
118.0743197076
 20
144.9629349262
  0
VERTEX
  8
0
 62
7
  6
CONTINUOUS
 10
118.1301493831
 20
145.038056933
  0
VERTEX
  8
0
 62
7
  6
CONTINUOUS
 10
118.1937281209
 20
145.1063978542
  0
VERTEX
  8
0
 62
7
  6
CONTINUOUS
 10
118.2647347833
 20
145.1675953217
  0
VERTEX
  8
0
 62
7
  6
CONTINUOUS
 10
118.3424340742
 20
145.2208459121
  0
VERTEX
  8
0
 62
7
  6
CONTINUOUS
 10
118.4252867871
 20
145.2650726466
  0
VERTEX
  8
0
 62
7
  6
CONTINUOUS
 10
118.5118737085
 20
145.2997034601
  0
VERTEX
  8
0
 62
7
  6
CONTINUOUS
 10
118.6018373153
 20
145.3246977884
  0
VERTEX
  8
0
 62
7
  6
CONTINUOUS
 10
118.6934789342
 20
145.3396532194
  0
VERTEX
  8
0
 62
7
  6
CONTINUOUS
 10
118.7847752613
 20
145.344556596
  0
SEQEND
  0
POLYLINE
  8
0
 62
7
  6
CONTINUOUS
 66
1
 70
0
  0
VERTEX
  8
0
 62
7
  6
CONTINUOUS
 10
113.8597124986
 20
119.2227586207
  0
VERTEX
  8
0
 62
7
  6
CONTINUOUS
 10
113.8414055866
 20
119.1341464751
  0
VERTEX
  8
0
 62
7
  6
CONTINUOUS
 10
113.813396252
 20
119.0470658297
  0
VERTEX
  8
0
 62
7
  6
CONTINUOUS
 10
113.7758697106
 20
118.9629496547
  0
VERTEX
  8
0
 62
7
  6
CONTINUOUS
 10
113.7288438203
 20
118.8825101722
  0
VERTEX
  8
0
 62
7
  6
CONTINUOUS
 10
113.6730175343
 20
118.8074071229
  0
VERTEX
  8
0
 62
7
  6
CONTINUOUS
 10
113.6094291628
 20
118.7390674714
  0
VERTEX
  8
0
 62
7
  6
CONTINUOUS
 10
113.5384390224
 20
118.6778931238
  0
VERTEX
  8
0
 62
7
  6
CONTINUOUS
 10
113.4607433801
 20
118.6246508479
  0
VERTEX
  8
0
 62
7
  6
CONTINUOUS
 10
113.3778905454
 20
118.5804288483
  0
VERTEX
  8
0
 62
7
  6
CONTINUOUS
 10
113.2913130581
 20
118.5458055269
  0
VERTEX
  8
0
 62
7
  6
CONTINUOUS
 10
113.2013544317
 20
118.5208151792
  0
VERTEX
  8
0
 62
7
  6
CONTINUOUS
 10
113.1097206916
 20
118.5058627748
  0
VERTEX
  8
0
 62
7
  6
CONTINUOUS
 10
113.0184359428
 20
118.5009606454
  0
SEQEND
  0
LINE
  8
0
 62
7
  6
CONTINUOUS
 10
116.2532732867
 20
130.6513761919
 11
116.1723136791
 21
130.5513994028
  0
POLYLINE
  8
CURVE
 62
7
  6
CONTINUOUS
 66
1
 70
0
  0
VERTEX
  8
CURVE
 62
7
  6
CONTINUOUS
 10
42.5847752613
 20
145.344556596
  0
VERTEX
  8
CURVE
 62
7
  6
CONTINUOUS
 10
42.4934609332
 20
145.3396512802
  0
VERTEX
  8
CURVE
 62
7
  6
CONTINUOUS
 10
42.4018132084
 20
145.3246924926
  0
VERTEX
  8
CURVE
 62
7
  6
CONTINUOUS
 10
42.3118565132
 20
145.2996976514
  0
VERTEX
  8
CURVE
 62
7
  6
CONTINUOUS
 10
42.2252725043
 20
145.2650660062
  0
VERTEX
  8
CURVE
 62
7
  6
CONTINUOUS
 10
42.1424198493
 20
145.2208372789
  0
VERTEX
  8
CURVE
 62
7
  6
CONTINUOUS
 10
42.0647267052
 20
145.1675891013
  0
VERTEX
  8
CURVE
 62
7
  6
CONTINUOUS
 10
41.9937288026
 20
145.1063985105
  0
VERTEX
  8
CURVE
 62
7
  6
CONTINUOUS
 10
41.9301482869
 20
145.0380556165
  0
VERTEX
  8
CURVE
 62
7
  6
CONTINUOUS
 10
41.8743167945
 20
144.9629305175
  0
VERTEX
  8
CURVE
 62
7
  6
CONTINUOUS
 10
41.8272960634
 20
144.8824790225
  0
VERTEX
  8
CURVE
 62
7
  6
CONTINUOUS
 10
41.789782981
 20
144.7983677886
  0
VERTEX
  8
CURVE
 62
7
  6
CONTINUOUS
 10
41.7617906479
 20
144.7113138373
  0
VERTEX
  8
CURVE
 62
7
  6
CONTINUOUS
 10
41.7434987055
 20
144.6227586207
  0
SEQEND
  0
LINE
  8
0
 62
7
  6
CONTINUOUS
 10
24.6766056021
 20
149.1727586207
 11
30.7366056021
 21
149.1727586207
  0
LINE
  8
0
 62
7
  6
CONTINUOUS
 10
40.7266056021
 20
149.1727586207
 11
45.0266056021
 21
149.1727586207
  0
LINE
  8
0
 62
7
  6
CONTINUOUS
 10
53.4266056021
 20
149.1727586207
 11
57.7266056021
 21
149.1727586207
  0
LINE
  8
0
 62
7
  6
CONTINUOUS
 10
66.1266056021
 20
149.1727586207
 11
70.4266056021
 21
149.1727586207
  0
LINE
  8
0
 62
7
  6
CONTINUOUS
 10
78.8266056021
 20
149.1727586207
 11
83.1266056021
 21
149.1727586207
  0
LINE
  8
0
 62
7
  6
CONTINUOUS
 10
91.5266056021
 20
149.1727586207
 11
95.8266056021
 21
149.1727586207
  0
LINE
  8
0
 62
7
  6
CONTINUOUS
 10
104.2266056021
 20
149.1727586207
 11
108.5266056021
 21
149.1727586207
  0
LINE
  8
0
 62
7
  6
CONTINUOUS
 10
116.9266056021
 20
149.1727586207
 11
121.2266056021
 21
149.1727586207
  0
LINE
  8
0
 62
7
  6
CONTINUOUS
 10
131.2166056021
 20
149.1727586207
 11
137.2766056021
 21
149.1727586207
  0
LINE
  8
0
 62
7
  6
CONTINUOUS
 10
121.980897525
 20
130.5513994028
 11
121.8999379166
 21
130.651376193
  0
LINE
  8
0
 62
7
  6
CONTINUOUS
 10
117.9472972984
 20
142.2516177382
 11
117.9439475986
 21
142.4649459451
  0
LINE
  8
0
 62
7
  6
CONTINUOUS
 10
117.9439475986
 20
142.4649459451
 11
117.9409590097
 21
142.7398271123
  0
LINE
  8
0
 62
7
  6
CONTINUOUS
 10
117.9409590097
 20
142.7398271123
 11
117.9384167774
 21
143.0684184519
  0
LINE
  8
0
 62
7
  6
CONTINUOUS
 10
117.9384167774
 20
143.0684184519
 11
117.9363934089
 21
143.4413456106
  0
LINE
  8
0
 62
7
  6
CONTINUOUS
 10
117.9363934089
 20
143.4413456106
 11
117.9349466078
 21
143.8479703277
  0
POLYLINE
  8
0
 62
7
  6
CONTINUOUS
 66
1
 70
0
  0
VERTEX
  8
0
 62
7
  6
CONTINUOUS
 10
117.9349466078
 20
143.8479703277
  0
VERTEX
  8
0
 62
7
  6
CONTINUOUS
 10
117.9341176317
 20
144.2766939421
  0
VERTEX
  8
0
 62
7
  6
CONTINUOUS
 10
117.9339429607
 20
144.4954536275
  0
SEQEND
  0
LINE
  8
0
 62
7
  6
CONTINUOUS
 10
117.9566056021
 20
142.0227586207
 11
117.9566056021
 21
135.3227262553
  0
LINE
  8
0
 62
7
  6
CONTINUOUS
 10
120.1966056021
 20
135.3227262553
 11
120.1966056021
 21
142.0227586207
  0
LINE
  8
0
 62
7
  6
CONTINUOUS
 10
122.0766056021
 20
148.3227566382
 11
122.0766056021
 21
134.5527586207
  0
LINE
  8
0
 62
7
  6
CONTINUOUS
 10
122.4266056021
 20
125.1227586207
 11
122.4266056021
 21
129.2927586207
  0
LINE
  8
0
 62
7
  6
CONTINUOUS
 10
120.2182645963
 20
143.8479703277
 11
120.2192682434
 21
144.4954536275
  0
LINE
  8
0
 62
7
  6
CONTINUOUS
 10
120.2168177952
 20
143.4413456106
 11
120.2182645963
 21
143.8479703277
  0
LINE
  8
0
 62
7
  6
CONTINUOUS
 10
120.2147944267
 20
143.0684184519
 11
120.2168177952
 21
143.4413456106
  0
LINE
  8
0
 62
7
  6
CONTINUOUS
 10
120.2122521944
 20
142.7398271123
 11
120.2147944267
 21
143.0684184519
  0
LINE
  8
0
 62
7
  6
CONTINUOUS
 10
120.2092636055
 20
142.4649459451
 11
120.2122521944
 21
142.7398271123
  0
POLYLINE
  8
0
 62
7
  6
CONTINUOUS
 66
1
 70
0
  0
VERTEX
  8
0
 62
7
  6
CONTINUOUS
 10
120.1966056021
 20
135.3227262553
  0
VERTEX
  8
0
 62
7
  6
CONTINUOUS
 10
120.1919496962
 20
135.2338803168
  0
VERTEX
  8
0
 62
7
  6
CONTINUOUS
 10
120.1780328251
 20
135.1460076229
  0
VERTEX
  8
0
 62
7
  6
CONTINUOUS
 10
120.1550072245
 20
135.060070882
  0
VERTEX
  8
0
 62
7
  6
CONTINUOUS
 10
120.123124955
 20
134.97701166
  0
VERTEX
  8
0
 62
7
  6
CONTINUOUS
 10
120.082735159
 20
134.8977400498
  0
VERTEX
  8
0
 62
7
  6
CONTINUOUS
 10
120.0342802486
 20
134.8231246788
  0
VERTEX
  8
0
 62
7
  6
CONTINUOUS
 10
119.9782910634
 20
134.75398317
  0
VERTEX
  8
0
 62
7
  6
CONTINUOUS
 10
119.9153810528
 20
134.6910731594
  0
VERTEX
  8
0
 62
7
  6
CONTINUOUS
 10
119.8462395439
 20
134.6350839742
  0
VERTEX
  8
0
 62
7
  6
CONTINUOUS
 10
119.771624173
 20
134.5866290637
  0
VERTEX
  8
0
 62
7
  6
CONTINUOUS
 10
119.6923525627
 20
134.5462392678
  0
VERTEX
  8
0
 62
7
  6
CONTINUOUS
 10
119.6092933408
 20
134.5143569982
  0
VERTEX
  8
0
 62
7
  6
CONTINUOUS
 10
119.5233565998
 20
134.4913313977
  0
VERTEX
  8
0
 62
7
  6
CONTINUOUS
 10
119.4354839059
 20
134.4774145265
  0
VERTEX
  8
0
 62
7
  6
CONTINUOUS
 10
119.3466379675
 20
134.4727586207
  0
SEQEND
  0
LINE
  8
0
 62
7
  6
CONTINUOUS
 10
129.8399379161
 20
133.1941410477
 11
129.920897525
 21
133.2941178386
  0
LINE
  8
0
 62
7
  6
CONTINUOUS
 10
122.5223136791
 20
133.2941178386
 11
122.6032732871
 21
133.194141049
  0
POLYLINE
  8
0
 62
7
  6
CONTINUOUS
 66
1
 70
0
  0
VERTEX
  8
0
 62
7
  6
CONTINUOUS
 10
117.9566056021
 20
142.0227586207
  0
VERTEX
  8
0
 62
7
  6
CONTINUOUS
 10
117.9546902323
 20
142.0320388969
  0
VERTEX
  8
0
 62
7
  6
CONTINUOUS
 10
117.952787754
 20
142.0598287638
  0
VERTEX
  8
0
 62
7
  6
CONTINUOUS
 10
117.9509125552
 20
142.1059296022
  0
VERTEX
  8
0
 62
7
  6
CONTINUOUS
 10
117.9490780341
 20
142.1700119243
  0
VERTEX
  8
0
 62
7
  6
CONTINUOUS
 10
117.9472972984
 20
142.2516177382
  0
SEQEND
  0
POLYLINE
  8
0
 62
7
  6
CONTINUOUS
 66
1
 70
0
  0
VERTEX
  8
0
 62
7
  6
CONTINUOUS
 10
120.2097124986
 20
144.6227586207
  0
VERTEX
  8
0
 62
7
  6
CONTINUOUS
 10
120.2150302446
 20
144.5804944366
  0
VERTEX
  8
0
 62
7
  6
CONTINUOUS
 10
120.2182176257
 20
144.5380217035
  0
VERTEX
  8
0
 62
7
  6
CONTINUOUS
 10
120.2192682434
 20
144.4954536275
  0
SEQEND
  0
LINE
  8
0
 62
7
  6
CONTINUOUS
 10
126.0366056021
 20
124.8049445551
 11
126.0366056021
 21
115.5227586207
  0
POLYLINE
  8
0
 62
7
  6
CONTINUOUS
 66
1
 70
0
  0
VERTEX
  8
0
 62
7
  6
CONTINUOUS
 10
130.7232781523
 20
128.0768344228
  0
VERTEX
  8
0
 62
7
  6
CONTINUOUS
 10
130.8693405648
 20
128.2377931227
  0
VERTEX
  8
0
 62
7
  6
CONTINUOUS
 10
131.02698631
 20
128.3880496812
  0
VERTEX
  8
0
 62
7
  6
CONTINUOUS
 10
131.1947657029
 20
128.5262223569
  0
VERTEX
  8
0
 62
7
  6
CONTINUOUS
 10
131.3721262705
 20
128.6518627369
  0
VERTEX
  8
0
 62
7
  6
CONTINUOUS
 10
131.5584880712
 20
128.7645536502
  0
VERTEX
  8
0
 62
7
  6
CONTINUOUS
 10
131.7521348445
 20
128.8632574175
  0
VERTEX
  8
0
 62
7
  6
CONTINUOUS
 10
131.9524307102
 20
128.9476557151
  0
VERTEX
  8
0
 62
7
  6
CONTINUOUS
 10
132.1587223815
 20
129.0174676699
  0
VERTEX
  8
0
 62
7
  6
CONTINUOUS
 10
132.369110153
 20
129.0720502831
  0
VERTEX
  8
0
 62
7
  6
CONTINUOUS
 10
132.5829012376
 20
129.1112291693
  0
VERTEX
  8
0
 62
7
  6
CONTINUOUS
 10
132.7993966746
 20
129.134871083
  0
VERTEX
  8
0
 62
7
  6
CONTINUOUS
 10
133.0166056021
 20
129.1427586207
  0
SEQEND
  0
LINE
  8
0
 62
7
  6
CONTINUOUS
 10
129.6666056021
 20
140.1227586207
 11
129.6666056021
 21
139.3227586207
  0
LINE
  8
0
 62
7
  6
CONTINUOUS
 10
130.0166056021
 20
115.5227586207
 11
130.0166056021
 21
127.7905220159
  0
LINE
  8
0
 62
7
  6
CONTINUOUS
 10
130.3666056021
 20
134.5527586207
 11
130.3666056021
 21
148.3227586207
  0
LINE
  8
0
 62
7
  6
CONTINUOUS
 10
130.7166054071
 20
124.5227586207
 11
130.7166054071
 21
123.7227586207
  0
POLYLINE
  8
0
 62
7
  6
CONTINUOUS
 66
1
 70
0
  0
VERTEX
  8
0
 62
7
  6
CONTINUOUS
 10
130.0166056021
 20
126.1427586207
  0
VERTEX
  8
0
 62
7
  6
CONTINUOUS
 10
130.0256868058
 20
126.375272347
  0
VERTEX
  8
0
 62
7
  6
CONTINUOUS
 10
130.0529729884
 20
126.6077081862
  0
VERTEX
  8
0
 62
7
  6
CONTINUOUS
 10
130.0982836885
 20
126.8376173416
  0
VERTEX
  8
0
 62
7
  6
CONTINUOUS
 10
130.1610613751
 20
127.0624086099
  0
VERTEX
  8
0
 62
7
  6
CONTINUOUS
 10
130.2408153709
 20
127.2806854757
  0
VERTEX
  8
0
 62
7
  6
CONTINUOUS
 10
130.3377465208
 20
127.4929976574
  0
VERTEX
  8
0
 62
7
  6
CONTINUOUS
 10
130.4513296845
 20
127.697961448
  0
VERTEX
  8
0
 62
7
  6
CONTINUOUS
 10
130.5803204796
 20
127.8932364642
  0
VERTEX
  8
0
 62
7
  6
CONTINUOUS
 10
130.7232781523
 20
128.0768344228
  0
SEQEND
  0
POLYLINE
  8
0
 62
7
  6
CONTINUOUS
 66
1
 70
0
  0
VERTEX
  8
0
 62
7
  6
CONTINUOUS
 10
133.6866056021
 20
133.5427586207
  0
VERTEX
  8
0
 62
7
  6
CONTINUOUS
 10
133.6904198144
 20
133.4885695842
  0
VERTEX
  8
0
 62
7
  6
CONTINUOUS
 10
133.702228144
 20
133.4330958163
  0
VERTEX
  8
0
 62
7
  6
CONTINUOUS
 10
133.7231843962
 20
133.3749736962
  0
VERTEX
  8
0
 62
7
  6
CONTINUOUS
 10
133.7552062927
 20
133.3130203636
  0
VERTEX
  8
0
 62
7
  6
CONTINUOUS
 10
133.8002346599
 20
133.2471504167
  0
VERTEX
  8
0
 62
7
  6
CONTINUOUS
 10
133.8595329212
 20
133.1781932737
  0
VERTEX
  8
0
 62
7
  6
CONTINUOUS
 10
133.9341556563
 20
133.1067313456
  0
VERTEX
  8
0
 62
7
  6
CONTINUOUS
 10
134.0249482198
 20
133.0332354764
  0
VERTEX
  8
0
 62
7
  6
CONTINUOUS
 10
134.1328106771
 20
132.9579428912
  0
VERTEX
  8
0
 62
7
  6
CONTINUOUS
 10
134.2587441112
 20
132.880955018
  0
VERTEX
  8
0
 62
7
  6
CONTINUOUS
 10
134.4037834986
 20
132.8023408285
  0
VERTEX
  8
0
 62
7
  6
CONTINUOUS
 10
134.5692761368
 20
132.722024339
  0
VERTEX
  8
0
 62
7
  6
CONTINUOUS
 10
134.7565770618
 20
132.6399804748
  0
VERTEX
  8
0
 62
7
  6
CONTINUOUS
 10
134.9673480992
 20
132.5561033356
  0
VERTEX
  8
0
 62
7
  6
CONTINUOUS
 10
135.2033520878
 20
132.4703152935
  0
VERTEX
  8
0
 62
7
  6
CONTINUOUS
 10
135.4665930149
 20
132.3825167061
  0
VERTEX
  8
0
 62
7
  6
CONTINUOUS
 10
135.7592809049
 20
132.2926103838
  0
VERTEX
  8
0
 62
7
  6
CONTINUOUS
 10
136.08382444
 20
132.2005094245
  0
VERTEX
  8
0
 62
7
  6
CONTINUOUS
 10
136.4429021473
 20
132.1061227579
  0
VERTEX
  8
0
 62
7
  6
CONTINUOUS
 10
136.8394482033
 20
132.0093677122
  0
VERTEX
  8
0
 62
7
  6
CONTINUOUS
 10
137.2766056021
 20
131.9101861386
  0
SEQEND
  0
LINE
  8
0
 62
7
  6
CONTINUOUS
 10
133.6866056021
 20
144.7727586207
 11
133.6866056021
 21
133.5427586207
  0
LINE
  8
0
 62
7
  6
CONTINUOUS
 10
137.9820387885
 20
133.5427586205
 11
137.9820387885
 21
144.7727586207
  0
LINE
  8
0
 62
7
  6
CONTINUOUS
 10
138.1266056021
 20
129.9927586207
 11
138.1266056021
 21
148.3227586207
  0
POLYLINE
  8
0
 62
7
  6
CONTINUOUS
 66
1
 70
0
  0
VERTEX
  8
0
 62
7
  6
CONTINUOUS
 10
137.9820387885
 20
133.5427586205
  0
VERTEX
  8
0
 62
7
  6
CONTINUOUS
 10
137.9767976444
 20
133.3011303383
  0
VERTEX
  8
0
 62
7
  6
CONTINUOUS
 10
137.9628922611
 20
133.0877165496
  0
VERTEX
  8
0
 62
7
  6
CONTINUOUS
 10
137.9421282875
 20
132.899378601
  0
VERTEX
  8
0
 62
7
  6
CONTINUOUS
 10
137.9155844489
 20
132.733100101
  0
VERTEX
  8
0
 62
7
  6
CONTINUOUS
 10
137.8839365326
 20
132.5861592217
  0
VERTEX
  8
0
 62
7
  6
CONTINUOUS
 10
137.8474470194
 20
132.4557477061
  0
VERTEX
  8
0
 62
7
  6
CONTINUOUS
 10
137.8067222905
 20
132.3412501303
  0
VERTEX
  8
0
 62
7
  6
CONTINUOUS
 10
137.7626735927
 20
132.2425212652
  0
VERTEX
  8
0
 62
7
  6
CONTINUOUS
 10
137.7159855149
 20
132.1585388689
  0
VERTEX
  8
0
 62
7
  6
CONTINUOUS
 10
137.6672776421
 20
132.0882468611
  0
VERTEX
  8
0
 62
7
  6
CONTINUOUS
 10
137.6169241365
 20
132.0304493913
  0
VERTEX
  8
0
 62
7
  6
CONTINUOUS
 10
137.5664395742
 20
131.9851373206
  0
VERTEX
  8
0
 62
7
  6
CONTINUOUS
 10
137.5167561911
 20
131.9512192112
  0
VERTEX
  8
0
 62
7
  6
CONTINUOUS
 10
137.4685473357
 20
131.9273591469
  0
VERTEX
  8
0
 62
7
  6
CONTINUOUS
 10
137.4218866414
 20
131.9120875954
  0
VERTEX
  8
0
 62
7
  6
CONTINUOUS
 10
137.3748286893
 20
131.9040499551
  0
VERTEX
  8
0
 62
7
  6
CONTINUOUS
 10
137.3263069078
 20
131.9032429211
  0
VERTEX
  8
0
 62
7
  6
CONTINUOUS
 10
137.2766056021
 20
131.9101861386
  0
SEQEND
  0
LINE
  8
CURVE
 62
7
  6
CONTINUOUS
 10
164.89890072
 20
116.4427586207
 11
157.9967876618
 21
116.4427586207
  0
LINE
  8
0
 62
2
  6
CONTINUOUS
 10
169.7767876618
 20
119.2227586207
 11
168.0167876618
 21
119.2227586207
  0
LINE
  8
DEFAULT_1
 62
2
  6
CENTER
 10
164.4967876618
 20
119.2227586207
 11
164.2967876618
 21
119.2227586207
  0
LINE
  8
DEFAULT_1
 62
2
  6
CENTER
 10
173.2967876618
 20
119.2227586207
 11
173.4967876618
 21
119.2227586207
  0
LINE
  8
CURVE
 62
7
  6
CONTINUOUS
 10
156.9967876618
 20
117.4427586207
 11
156.9967876618
 21
130.4427586207
  0
LINE
  8
0
 62
7
  6
CONTINUOUS
 10
164.6229574761
 20
141.4482177161
 11
164.6062043297
 21
141.3982176207
  0
LINE
  8
0
 62
7
  6
CONTINUOUS
 10
164.6062043297
 20
141.0982176207
 11
164.6229574761
 21
141.1482177161
  0
LINE
  8
0
 62
7
  6
CONTINUOUS
 10
164.6229574761
 20
139.198217573
 11
164.6062043297
 21
139.1482176207
  0
LINE
  8
0
 62
7
  6
CONTINUOUS
 10
164.6062043297
 20
138.8482176207
 11
164.6229574761
 21
138.898217573
  0
LINE
  8
0
 62
7
  6
CONTINUOUS
 10
164.5838668013
 20
141.2482176207
 11
164.567113655
 21
141.0482175253
  0
LINE
  8
0
 62
7
  6
CONTINUOUS
 10
164.5950355655
 20
140.9982177161
 11
164.6062043297
 21
141.0982176207
  0
LINE
  8
0
 62
7
  6
CONTINUOUS
 10
164.5950355655
 20
138.748217573
 11
164.6062043297
 21
138.8482176207
  0
LINE
  8
0
 62
7
  6
CONTINUOUS
 10
164.6062043297
 20
141.3982176207
 11
164.5838668013
 21
141.2482176207
  0
LINE
  8
0
 62
7
  6
CONTINUOUS
 10
164.6062043297
 20
139.1482176207
 11
164.5838668013
 21
138.9982176207
  0
LINE
  8
0
 62
7
  6
CONTINUOUS
 10
164.7011388413
 20
138.7982176684
 11
164.684385695
 21
138.9982176207
  0
LINE
  8
0
 62
7
  6
CONTINUOUS
 10
164.6676325486
 20
138.748217573
 11
164.6732169307
 21
138.598217573
  0
LINE
  8
0
 62
7
  6
CONTINUOUS
 10
164.6676325486
 20
140.9982177161
 11
164.6732169307
 21
140.8482177161
  0
LINE
  8
0
 62
7
  6
CONTINUOUS
 10
164.7067232234
 20
138.5482176207
 11
164.7011388413
 21
138.7982176684
  0
LINE
  8
0
 62
7
  6
CONTINUOUS
 10
164.7067232234
 20
140.7982176207
 11
164.7011388413
 21
141.0482175253
  0
POLYLINE
  8
CURVE
 62
7
  6
CONTINUOUS
 66
1
 70
0
  0
VERTEX
  8
CURVE
 62
7
  6
CONTINUOUS
 10
164.8725893706
 20
144.7727586207
  0
VERTEX
  8
CURVE
 62
7
  6
CONTINUOUS
 10
164.8721308299
 20
145.0143869034
  0
VERTEX
  8
CURVE
 62
7
  6
CONTINUOUS
 10
164.8709142665
 20
145.2278006924
  0
VERTEX
  8
CURVE
 62
7
  6
CONTINUOUS
 10
164.8690976542
 20
145.4161386413
  0
VERTEX
  8
CURVE
 62
7
  6
CONTINUOUS
 10
164.8667753692
 20
145.5824171414
  0
VERTEX
  8
CURVE
 62
7
  6
CONTINUOUS
 10
164.8640065353
 20
145.7293580208
  0
VERTEX
  8
CURVE
 62
7
  6
CONTINUOUS
 10
164.8608141166
 20
145.8597695365
  0
VERTEX
  8
CURVE
 62
7
  6
CONTINUOUS
 10
164.8572511645
 20
145.9742671117
  0
VERTEX
  8
CURVE
 62
7
  6
CONTINUOUS
 10
164.8533974028
 20
146.0729959762
  0
VERTEX
  8
CURVE
 62
7
  6
CONTINUOUS
 10
164.8493127253
 20
146.1569783723
  0
VERTEX
  8
CURVE
 62
7
  6
CONTINUOUS
 10
164.8450513386
 20
146.2272703801
  0
VERTEX
  8
CURVE
 62
7
  6
CONTINUOUS
 10
164.8406459776
 20
146.2850678502
  0
VERTEX
  8
CURVE
 62
7
  6
CONTINUOUS
 10
164.8362291507
 20
146.330379921
  0
VERTEX
  8
CURVE
 62
7
  6
CONTINUOUS
 10
164.831882418
 20
146.3642980303
  0
VERTEX
  8
CURVE
 62
7
  6
CONTINUOUS
 10
164.8276646897
 20
146.3881580945
  0
VERTEX
  8
CURVE
 62
7
  6
CONTINUOUS
 10
164.8235824079
 20
146.4034296459
  0
VERTEX
  8
CURVE
 62
7
  6
CONTINUOUS
 10
164.8194653706
 20
146.4114672863
  0
VERTEX
  8
CURVE
 62
7
  6
CONTINUOUS
 10
164.8152202647
 20
146.4122743203
  0
VERTEX
  8
CURVE
 62
7
  6
CONTINUOUS
 10
164.8108719639
 20
146.4053311028
  0
SEQEND
  0
LINE
  8
0
 62
7
  6
CONTINUOUS
 10
164.4967876618
 20
128.6727586207
 11
164.4967876618
 21
127.790526094
  0
LINE
  8
CURVE
 62
7
  6
CONTINUOUS
 10
164.4967876618
 20
119.0727586207
 11
164.4967876618
 21
144.7727586207
  0
LINE
  8
0
 62
7
  6
CONTINUOUS
 10
164.5615292728
 20
140.7982176207
 11
164.5615292728
 21
139.5982176207
  0
LINE
  8
0
 62
7
  6
CONTINUOUS
 10
164.5615292728
 20
138.5482176207
 11
164.5615292728
 21
137.3482176207
  0
LINE
  8
0
 62
7
  6
CONTINUOUS
 10
164.5894511834
 20
137.6482176207
 11
164.5894511834
 21
138.598217573
  0
LINE
  8
0
 62
7
  6
CONTINUOUS
 10
164.5894511834
 20
139.8982176207
 11
164.5894511834
 21
140.8482177161
  0
LINE
  8
0
 62
7
  6
CONTINUOUS
 10
164.6732169307
 20
140.8482177161
 11
164.6732169307
 21
139.8982176207
  0
LINE
  8
0
 62
7
  6
CONTINUOUS
 10
164.6732169307
 20
138.598217573
 11
164.6732169307
 21
137.6482176207
  0
LINE
  8
0
 62
7
  6
CONTINUOUS
 10
164.7067232234
 20
137.6482176207
 11
164.7067232234
 21
138.5482176207
  0
LINE
  8
0
 62
7
  6
CONTINUOUS
 10
164.7067232234
 20
139.8982176207
 11
164.7067232234
 21
140.7982176207
  0
LINE
  8
0
 62
7
  6
CONTINUOUS
 10
164.7622932404
 20
139.8982176207
 11
164.7622932404
 21
139.5982176207
  0
LINE
  8
0
 62
7
  6
CONTINUOUS
 10
164.7622932404
 20
137.6482176207
 11
164.7622932404
 21
137.3482176207
  0
LINE
  8
0
 62
7
  6
CONTINUOUS
 10
164.8239952634
 20
137.3482176207
 11
164.8239952634
 21
137.6482176207
  0
LINE
  8
0
 62
7
  6
CONTINUOUS
 10
164.8239952634
 20
139.5982176207
 11
164.8239952634
 21
139.8982176207
  0
LINE
  8
CURVE
 62
7
  6
CONTINUOUS
 10
164.8725893706
 20
144.7727586207
 11
164.8725893706
 21
133.5427586204
  0
LINE
  8
0
 62
7
  6
CONTINUOUS
 10
164.567113655
 20
141.0482175253
 11
164.5615292728
 21
140.7982176207
  0
LINE
  8
0
 62
7
  6
CONTINUOUS
 10
164.567113655
 20
138.7982176684
 11
164.5615292728
 21
138.5482176207
  0
LINE
  8
0
 62
7
  6
CONTINUOUS
 10
164.5894511834
 20
140.8482177161
 11
164.5950355655
 21
140.9982177161
  0
LINE
  8
0
 62
7
  6
CONTINUOUS
 10
164.5894511834
 20
138.598217573
 11
164.5950355655
 21
138.748217573
  0
LINE
  8
0
 62
7
  6
CONTINUOUS
 10
164.5838668013
 20
138.9982176207
 11
164.567113655
 21
138.7982176684
  0
LINE
  8
CURVE
 62
7
  6
CONTINUOUS
 10
164.4967876618
 20
131.4868120871
 11
164.4913236194
 21
131.479122669
  0
LINE
  8
0
 62
7
  6
CONTINUOUS
 10
164.4967876618
 20
131.4868140522
 11
164.4913315056
 21
131.479133767
  0
LINE
  8
CURVE
 62
7
  6
CONTINUOUS
 10
164.4911833661
 20
131.4789523813
 11
164.4815032534
 21
131.4690386158
  0
LINE
  8
CURVE
 62
7
  6
CONTINUOUS
 10
164.4815032534
 20
131.4690386158
 11
164.4672914764
 21
131.4586872013
  0
LINE
  8
0
 62
7
  6
CONTINUOUS
 10
164.481511465
 20
131.4690470479
 11
164.4672948799
 21
131.4586896802
  0
LINE
  8
CURVE
 62
7
  6
CONTINUOUS
 10
164.4672914764
 20
131.4586872013
 11
164.4488835093
 21
131.4498564758
  0
LINE
  8
0
 62
7
  6
CONTINUOUS
 10
164.4672948799
 20
131.4586896802
 11
164.4488793342
 21
131.4498553813
  0
LINE
  8
CURVE
 62
7
  6
CONTINUOUS
 10
164.4492198928
 20
131.4499812998
 11
164.4276301445
 21
131.4442849289
  0
LINE
  8
0
 62
7
  6
CONTINUOUS
 10
164.4488793342
 20
131.4498553813
 11
164.4411478374
 21
131.4478285777
  0
LINE
  8
CURVE
 62
7
  6
CONTINUOUS
 10
164.4276301445
 20
131.4442849289
 11
164.4084665947
 21
131.442758621
  0
LINE
  8
CURVE
 62
7
  6
CONTINUOUS
 10
157.9967876618
 20
131.4427586207
 11
164.4084994754
 21
131.4427586207
  0
LINE
  8
DEFAULT_1
 62
2
  6
CENTER
 10
154.9967872773
 20
131.9227586207
 11
176.1467884666
 21
131.9227586207
  0
POLYLINE
  8
CURVE
 62
7
  6
CONTINUOUS
 66
1
 70
0
  0
VERTEX
  8
CURVE
 62
7
  6
CONTINUOUS
 10
164.8108719639
 20
131.9101861386
  0
VERTEX
  8
CURVE
 62
7
  6
CONTINUOUS
 10
164.8152191958
 20
131.9032436625
  0
VERTEX
  8
CURVE
 62
7
  6
CONTINUOUS
 10
164.8194623796
 20
131.9040467339
  0
VERTEX
  8
CURVE
 62
7
  6
CONTINUOUS
 10
164.8235770423
 20
131.9120723793
  0
VERTEX
  8
CURVE
 62
7
  6
CONTINUOUS
 10
164.827656749
 20
131.9273221444
  0
VERTEX
  8
CURVE
 62
7
  6
CONTINUOUS
 10
164.8318720901
 20
131.9511502502
  0
VERTEX
  8
CURVE
 62
7
  6
CONTINUOUS
 10
164.8362170829
 20
131.9850291257
  0
VERTEX
  8
CURVE
 62
7
  6
CONTINUOUS
 10
164.8406329169
 20
132.0302977702
  0
VERTEX
  8
CURVE
 62
7
  6
CONTINUOUS
 10
164.8450366145
 20
132.0880301839
  0
VERTEX
  8
CURVE
 62
7
  6
CONTINUOUS
 10
164.8492960836
 20
132.1582327098
  0
VERTEX
  8
CURVE
 62
7
  6
CONTINUOUS
 10
164.8533796578
 20
132.2421148107
  0
VERTEX
  8
CURVE
 62
7
  6
CONTINUOUS
 10
164.8572332263
 20
132.3407369253
  0
VERTEX
  8
CURVE
 62
7
  6
CONTINUOUS
 10
164.8607971402
 20
132.4551348165
  0
VERTEX
  8
CURVE
 62
7
  6
CONTINUOUS
 10
164.8639917796
 20
132.5854755748
  0
VERTEX
  8
CURVE
 62
7
  6
CONTINUOUS
 10
164.8667636074
 20
132.7323811011
  0
VERTEX
  8
CURVE
 62
7
  6
CONTINUOUS
 10
164.8690894668
 20
132.8986836213
  0
VERTEX
  8
CURVE
 62
7
  6
CONTINUOUS
 10
164.8709097932
 20
133.0871335869
  0
VERTEX
  8
CURVE
 62
7
  6
CONTINUOUS
 10
164.8721294511
 20
133.3007714834
  0
VERTEX
  8
CURVE
 62
7
  6
CONTINUOUS
 10
164.8725893706
 20
133.5427586204
  0
SEQEND
  0
LINE
  8
0
 62
7
  6
CONTINUOUS
 10
164.7011388413
 20
141.0482175253
 11
164.684385695
 21
141.2482176207
  0
LINE
  8
0
 62
7
  6
CONTINUOUS
 10
164.684385695
 20
138.9982176207
 11
164.6620481665
 21
139.1482176207
  0
LINE
  8
0
 62
7
  6
CONTINUOUS
 10
164.684385695
 20
141.2482176207
 11
164.6620481665
 21
141.3982176207
  0
LINE
  8
0
 62
7
  6
CONTINUOUS
 10
164.6564637844
 20
138.8482176207
 11
164.6676325486
 21
138.748217573
  0
LINE
  8
0
 62
7
  6
CONTINUOUS
 10
164.6564637844
 20
141.0982176207
 11
164.6676325486
 21
140.9982177161
  0
LINE
  8
0
 62
7
  6
CONTINUOUS
 10
164.6397106381
 20
138.898217573
 11
164.6564637844
 21
138.8482176207
  0
LINE
  8
0
 62
7
  6
CONTINUOUS
 10
164.6620481665
 20
139.1482176207
 11
164.6452950202
 21
139.198217573
  0
LINE
  8
0
 62
7
  6
CONTINUOUS
 10
164.6397106381
 20
141.1482177161
 11
164.6564637844
 21
141.0982176207
  0
LINE
  8
0
 62
7
  6
CONTINUOUS
 10
164.6620481665
 20
141.3982176207
 11
164.6452950202
 21
141.4482177161
  0
LINE
  8
0
 62
2
  6
CONTINUOUS
 10
168.8967876618
 20
145.5027586207
 11
168.8967876618
 21
143.7427586207
  0
LINE
  8
DEFAULT_1
 62
2
  6
CENTER
 10
168.8967876618
 20
140.2227586207
 11
168.8967876618
 21
140.0227586207
  0
LINE
  8
0
 62
2
  6
CONTINUOUS
 10
168.8967876618
 20
120.1027586207
 11
168.8967876618
 21
118.3427586207
  0
LINE
  8
DEFAULT_1
 62
2
  6
CENTER
 10
168.8967876618
 20
114.8227586207
 11
168.8967876618
 21
114.6227586207
  0
LINE
  8
DEFAULT_1
 62
2
  6
CENTER
 10
168.8967876618
 20
123.6227586207
 11
168.8967876618
 21
123.8227586207
  0
LINE
  8
DEFAULT_1
 62
2
  6
CENTER
 10
168.8967876618
 20
149.0227586207
 11
168.8967876618
 21
149.2227586207
  0
LINE
  8
0
 62
7
  6
CONTINUOUS
 10
164.5615292728
 20
137.3482176207
 11
164.8239952634
 21
137.3482176207
  0
LINE
  8
0
 62
7
  6
CONTINUOUS
 10
164.5894511834
 20
137.6482176207
 11
164.8239952634
 21
137.6482176207
  0
LINE
  8
0
 62
7
  6
CONTINUOUS
 10
164.5615292728
 20
138.5482176207
 11
164.5894511834
 21
138.5482176207
  0
LINE
  8
0
 62
7
  6
CONTINUOUS
 10
164.6732169307
 20
138.598217573
 11
164.7056063483
 21
138.598217573
  0
POLYLINE
  8
CURVE
 62
7
  6
CONTINUOUS
 66
1
 70
0
  0
VERTEX
  8
CURVE
 62
7
  6
CONTINUOUS
 10
172.9209859531
 20
133.5427586205
  0
VERTEX
  8
CURVE
 62
7
  6
CONTINUOUS
 10
172.9214444938
 20
133.3011303383
  0
VERTEX
  8
CURVE
 62
7
  6
CONTINUOUS
 10
172.9226610572
 20
133.0877165496
  0
VERTEX
  8
CURVE
 62
7
  6
CONTINUOUS
 10
172.9244776695
 20
132.899378601
  0
VERTEX
  8
CURVE
 62
7
  6
CONTINUOUS
 10
172.9267999544
 20
132.733100101
  0
VERTEX
  8
CURVE
 62
7
  6
CONTINUOUS
 10
172.9295687884
 20
132.5861592217
  0
VERTEX
  8
CURVE
 62
7
  6
CONTINUOUS
 10
172.9327612071
 20
132.4557477061
  0
VERTEX
  8
CURVE
 62
7
  6
CONTINUOUS
 10
172.9363241592
 20
132.3412501303
  0
VERTEX
  8
CURVE
 62
7
  6
CONTINUOUS
 10
172.9401779209
 20
132.2425212652
  0
VERTEX
  8
CURVE
 62
7
  6
CONTINUOUS
 10
172.9442625984
 20
132.1585388689
  0
VERTEX
  8
CURVE
 62
7
  6
CONTINUOUS
 10
172.9485239851
 20
132.0882468611
  0
VERTEX
  8
CURVE
 62
7
  6
CONTINUOUS
 10
172.952929346
 20
132.0304493913
  0
VERTEX
  8
CURVE
 62
7
  6
CONTINUOUS
 10
172.9573461729
 20
131.9851373206
  0
VERTEX
  8
CURVE
 62
7
  6
CONTINUOUS
 10
172.9616929057
 20
131.9512192112
  0
VERTEX
  8
CURVE
 62
7
  6
CONTINUOUS
 10
172.965910634
 20
131.9273591469
  0
VERTEX
  8
CURVE
 62
7
  6
CONTINUOUS
 10
172.9699929158
 20
131.9120875954
  0
VERTEX
  8
CURVE
 62
7
  6
CONTINUOUS
 10
172.9741099531
 20
131.9040499551
  0
VERTEX
  8
CURVE
 62
7
  6
CONTINUOUS
 10
172.978355059
 20
131.9032429211
  0
VERTEX
  8
CURVE
 62
7
  6
CONTINUOUS
 10
172.9827033598
 20
131.9101861386
  0
SEQEND
  0
LINE
  8
CURVE
 62
7
  6
CONTINUOUS
 10
172.9209859531
 20
133.5427586205
 11
172.9209859531
 21
144.7727586207
  0
LINE
  8
0
 62
7
  6
CONTINUOUS
 10
173.2967876618
 20
127.790526094
 11
173.2967876618
 21
128.6727586207
  0
LINE
  8
CURVE
 62
7
  6
CONTINUOUS
 10
173.2967876618
 20
119.0727586207
 11
173.2967876618
 21
144.7727586207
  0
LINE
  8
0
 62
7
  6
CONTINUOUS
 10
164.6676325486
 20
138.748217573
 11
164.7022557196
 21
138.748217573
  0
LINE
  8
0
 62
7
  6
CONTINUOUS
 10
164.567113655
 20
138.7982176684
 11
164.6006199556
 21
138.7982176684
  0
LINE
  8
0
 62
7
  6
CONTINUOUS
 10
164.6564637844
 20
138.8482176207
 11
164.6969505577
 21
138.8482176207
  0
LINE
  8
0
 62
7
  6
CONTINUOUS
 10
164.6229574761
 20
138.898217573
 11
164.6927622741
 21
138.898217573
  0
LINE
  8
0
 62
7
  6
CONTINUOUS
 10
164.5838668013
 20
138.9982176207
 11
164.684385695
 21
138.9982176207
  0
LINE
  8
0
 62
7
  6
CONTINUOUS
 10
164.6062043297
 20
139.1482176207
 11
164.6620481665
 21
139.1482176207
  0
LINE
  8
0
 62
7
  6
CONTINUOUS
 10
164.6452950202
 20
139.198217573
 11
164.6229574761
 21
139.198217573
  0
LINE
  8
0
 62
7
  6
CONTINUOUS
 10
164.5615292728
 20
139.5982176207
 11
164.8239952634
 21
139.5982176207
  0
LINE
  8
0
 62
7
  6
CONTINUOUS
 10
164.5894511834
 20
139.8982176207
 11
164.8239952634
 21
139.8982176207
  0
LINE
  8
0
 62
7
  6
CONTINUOUS
 10
164.5615292728
 20
140.7982176207
 11
164.5894511834
 21
140.7982176207
  0
LINE
  8
0
 62
7
  6
CONTINUOUS
 10
164.6732169307
 20
140.8482177161
 11
164.7056063444
 21
140.8482177161
  0
LINE
  8
0
 62
7
  6
CONTINUOUS
 10
164.6676325486
 20
140.9982177161
 11
164.7022557139
 21
140.9982177161
  0
LINE
  8
0
 62
7
  6
CONTINUOUS
 10
164.567113655
 20
141.0482175253
 11
164.6006199317
 21
141.0482175253
  0
LINE
  8
0
 62
7
  6
CONTINUOUS
 10
164.6564637844
 20
141.0982176207
 11
164.6969505487
 21
141.0982176207
  0
LINE
  8
0
 62
7
  6
CONTINUOUS
 10
164.6229574761
 20
141.1482177161
 11
164.6927622562
 21
141.1482177161
  0
LINE
  8
0
 62
7
  6
CONTINUOUS
 10
164.5838668013
 20
141.2482176207
 11
164.684385695
 21
141.2482176207
  0
LINE
  8
0
 62
7
  6
CONTINUOUS
 10
164.6062043297
 20
141.3982176207
 11
164.6620481665
 21
141.3982176207
  0
LINE
  8
0
 62
7
  6
CONTINUOUS
 10
164.6452950202
 20
141.4482177161
 11
164.6229574761
 21
141.4482177161
  0
LINE
  8
0
 62
2
  6
CONTINUOUS
 10
169.7767876618
 20
144.6227586207
 11
168.0167876618
 21
144.6227586207
  0
LINE
  8
DEFAULT_1
 62
2
  6
CENTER
 10
164.4967876618
 20
144.6227586207
 11
164.2967876618
 21
144.6227586207
  0
LINE
  8
DEFAULT_1
 62
2
  6
CENTER
 10
173.2967876618
 20
144.6227586207
 11
173.4967876618
 21
144.6227586207
  0
POLYLINE
  8
CURVE
 62
7
  6
CONTINUOUS
 66
1
 70
0
  0
VERTEX
  8
CURVE
 62
7
  6
CONTINUOUS
 10
172.9827033598
 20
146.4053311028
  0
VERTEX
  8
CURVE
 62
7
  6
CONTINUOUS
 10
172.9783561278
 20
146.4122735789
  0
VERTEX
  8
CURVE
 62
7
  6
CONTINUOUS
 10
172.974112944
 20
146.4114705074
  0
VERTEX
  8
CURVE
 62
7
  6
CONTINUOUS
 10
172.9699982814
 20
146.4034448619
  0
VERTEX
  8
CURVE
 62
7
  6
CONTINUOUS
 10
172.9659185747
 20
146.3881950969
  0
VERTEX
  8
CURVE
 62
7
  6
CONTINUOUS
 10
172.9617032336
 20
146.3643669913
  0
VERTEX
  8
CURVE
 62
7
  6
CONTINUOUS
 10
172.9573582408
 20
146.3304881159
  0
VERTEX
  8
CURVE
 62
7
  6
CONTINUOUS
 10
172.9529424068
 20
146.2852194713
  0
VERTEX
  8
CURVE
 62
7
  6
CONTINUOUS
 10
172.9485387092
 20
146.2274870574
  0
VERTEX
  8
CURVE
 62
7
  6
CONTINUOUS
 10
172.94427924
 20
146.1572845313
  0
VERTEX
  8
CURVE
 62
7
  6
CONTINUOUS
 10
172.9401956659
 20
146.0734024307
  0
VERTEX
  8
CURVE
 62
7
  6
CONTINUOUS
 10
172.9363420974
 20
145.9747803167
  0
VERTEX
  8
CURVE
 62
7
  6
CONTINUOUS
 10
172.9327781836
 20
145.8603824262
  0
VERTEX
  8
CURVE
 62
7
  6
CONTINUOUS
 10
172.9295835441
 20
145.7300416679
  0
VERTEX
  8
CURVE
 62
7
  6
CONTINUOUS
 10
172.9268117163
 20
145.5831361413
  0
VERTEX
  8
CURVE
 62
7
  6
CONTINUOUS
 10
172.9244858569
 20
145.416833621
  0
VERTEX
  8
CURVE
 62
7
  6
CONTINUOUS
 10
172.9226655305
 20
145.2283836553
  0
VERTEX
  8
CURVE
 62
7
  6
CONTINUOUS
 10
172.9214458726
 20
145.0147457584
  0
VERTEX
  8
CURVE
 62
7
  6
CONTINUOUS
 10
172.9209859531
 20
144.7727586207
  0
SEQEND
  0
ARC
  8
CURVE
 62
7
  6
CONTINUOUS
 10
63.2266056021
 20
194.5313099649
 40
1.0
 50
270.0
 51
360.0
  0
ARC
  8
CURVE
 62
7
  6
CONTINUOUS
 10
60.6266056021
 20
194.5313099649
 40
1.0
 50
180.0
 51
270.0
  0
ARC
  8
CURVE
 62
7
  6
CONTINUOUS
 10
64.5266056021
 20
200.8230094405
 40
0.3
 50
113.0356841059
 51
180.0
  0
ARC
  8
CURVE
 62
7
  6
CONTINUOUS
 10
59.3266056021
 20
200.8230094405
 40
0.3
 50
7.089540945
 51
66.9643158941
  0
ARC
  8
CURVE
 62
7
  6
CONTINUOUS
 10
29.4835876021
 20
203.2489162912
 40
2.5
 50
11.1254059262
 51
45.4760554887
  0
ARC
  8
CURVE
 62
7
  6
CONTINUOUS
 10
47.0766056021
 20
201.8813099649
 40
0.85
 50
180.0
 51
270.0
  0
ARC
  8
0
 62
7
  6
CONTINUOUS
 10
35.0666056021
 20
201.8813099649
 40
0.85
 50
270.0
 51
360.0
  0
ARC
  8
CURVE
 62
7
  6
CONTINUOUS
 10
24.6766056021
 20
201.8813099649
 40
0.85
 50
180.0
 51
213.9093356964
  0
ARC
  8
0
 62
7
  6
CONTINUOUS
 10
38.6766056021
 20
201.8813099649
 40
0.85
 50
270.0
 51
360.0
  0
ARC
  8
CURVE
 62
7
  6
CONTINUOUS
 10
51.3766056021
 20
201.8813099649
 40
0.85
 50
270.0
 51
360.0
  0
ARC
  8
CURVE
 62
7
  6
CONTINUOUS
 10
32.7866056021
 20
201.8813099649
 40
0.85
 50
180.0
 51
270.0
  0
ARC
  8
CURVE
 62
7
  6
CONTINUOUS
 10
29.4835876021
 20
207.6137036386
 40
2.5
 50
314.5239445113
 51
348.8745940738
  0
ARC
  8
CURVE
 62
7
  6
CONTINUOUS
 10
47.0766056021
 20
208.9813099649
 40
0.85
 50
90.0
 51
180.0
  0
ARC
  8
0
 62
7
  6
CONTINUOUS
 10
35.0666056021
 20
208.9813099649
 40
0.85
 50
0.0
 51
90.0
  0
ARC
  8
CURVE
 62
7
  6
CONTINUOUS
 10
24.6766056021
 20
208.9813099649
 40
0.85
 50
146.0906643036
 51
180.0
  0
ARC
  8
0
 62
7
  6
CONTINUOUS
 10
38.6766056021
 20
208.9813099649
 40
0.85
 50
0.0
 51
90.0
  0
ARC
  8
CURVE
 62
7
  6
CONTINUOUS
 10
51.3766056021
 20
208.9813099649
 40
0.85
 50
0.0
 51
90.0
  0
ARC
  8
CURVE
 62
7
  6
CONTINUOUS
 10
32.7866056021
 20
208.9813099649
 40
0.85
 50
90.0
 51
180.0
  0
ARC
  8
CURVE
 62
7
  6
CONTINUOUS
 10
80.0796236021
 20
203.2489162912
 40
2.5
 50
134.5239445113
 51
168.8745940738
  0
ARC
  8
CURVE
 62
7
  6
CONTINUOUS
 10
72.4766056021
 20
201.8813099649
 40
0.85
 50
180.0
 51
270.0
  0
ARC
  8
CURVE
 62
7
  6
CONTINUOUS
 10
59.7766056021
 20
201.8813099649
 40
0.85
 50
180.0
 51
246.9643158941
  0
ARC
  8
CURVE
 62
7
  6
CONTINUOUS
 10
64.0766056021
 20
201.8813099649
 40
0.85
 50
293.0356841059
 51
360.0
  0
ARC
  8
CURVE
 62
7
  6
CONTINUOUS
 10
76.7766056021
 20
201.8813099649
 40
0.85
 50
270.0
 51
360.0
  0
ARC
  8
CURVE
 62
7
  6
CONTINUOUS
 10
80.0796236021
 20
207.6137036386
 40
2.5
 50
191.1254059262
 51
225.4760554887
  0
ARC
  8
CURVE
 62
7
  6
CONTINUOUS
 10
72.4766056021
 20
208.9813099649
 40
0.85
 50
90.0
 51
180.0
  0
ARC
  8
CURVE
 62
7
  6
CONTINUOUS
 10
59.7766056021
 20
208.9813099649
 40
0.85
 50
90.0
 51
180.0
  0
ARC
  8
CURVE
 62
7
  6
CONTINUOUS
 10
59.9255928548
 20
208.9813099649
 40
0.85
 50
60.1666666667
 51
88.558489658
  0
ARC
  8
CURVE
 62
7
  6
CONTINUOUS
 10
64.0766056021
 20
208.9813099649
 40
0.85
 50
0.0
 51
90.0
  0
ARC
  8
CURVE
 62
7
  6
CONTINUOUS
 10
76.7766056021
 20
208.9813099649
 40
0.85
 50
0.0
 51
90.0
  0
ARC
  8
0
 62
7
  6
CONTINUOUS
 10
101.3266056021
 20
194.5313099649
 40
1.0
 50
270.0
 51
360.0
  0
ARC
  8
0
 62
7
  6
CONTINUOUS
 10
98.7266056021
 20
194.5313099649
 40
1.0
 50
180.0
 51
270.0
  0
ARC
  8
0
 62
7
  6
CONTINUOUS
 10
102.6266056021
 20
200.8230094405
 40
0.3
 50
113.0356841059
 51
180.0
  0
ARC
  8
0
 62
7
  6
CONTINUOUS
 10
97.4266056021
 20
200.8230094405
 40
0.3
 50
0.0
 51
66.9643158941
  0
ARC
  8
0
 62
7
  6
CONTINUOUS
 10
81.8735876021
 20
203.2489162912
 40
2.5
 50
11.1254059262
 51
45.4760554887
  0
ARC
  8
0
 62
7
  6
CONTINUOUS
 10
97.8766056021
 20
201.8813099649
 40
0.85
 50
180.0
 51
246.9643158941
  0
ARC
  8
0
 62
7
  6
CONTINUOUS
 10
85.1766056021
 20
201.8813099649
 40
0.85
 50
180.0
 51
270.0
  0
ARC
  8
0
 62
7
  6
CONTINUOUS
 10
89.4766056021
 20
201.8813099649
 40
0.85
 50
270.0
 51
360.0
  0
ARC
  8
0
 62
7
  6
CONTINUOUS
 10
102.1766056021
 20
201.8813099649
 40
0.85
 50
293.0356841059
 51
360.0
  0
ARC
  8
0
 62
7
  6
CONTINUOUS
 10
81.8735876021
 20
207.6137036386
 40
2.5
 50
314.5239445113
 51
348.8745940738
  0
ARC
  8
0
 62
7
  6
CONTINUOUS
 10
85.1766056021
 20
208.9813099649
 40
0.85
 50
90.0
 51
180.0
  0
ARC
  8
0
 62
7
  6
CONTINUOUS
 10
97.8766056021
 20
208.9813099649
 40
0.85
 50
90.0
 51
180.0
  0
ARC
  8
0
 62
7
  6
CONTINUOUS
 10
89.4766056021
 20
208.9813099649
 40
0.85
 50
0.0
 51
90.0
  0
ARC
  8
0
 62
7
  6
CONTINUOUS
 10
102.1766056021
 20
208.9813099649
 40
0.85
 50
0.0
 51
90.0
  0
ARC
  8
0
 62
7
  6
CONTINUOUS
 10
132.4696236021
 20
203.2489162912
 40
2.5
 50
134.5239445113
 51
168.8745940738
  0
ARC
  8
0
 62
7
  6
CONTINUOUS
 10
123.2766056021
 20
201.8813099649
 40
0.85
 50
180.0
 51
270.0
  0
ARC
  8
0
 62
7
  6
CONTINUOUS
 10
129.1666056021
 20
201.8813099649
 40
0.85
 50
270.0
 51
360.0
  0
ARC
  8
0
 62
7
  6
CONTINUOUS
 10
110.5766056021
 20
201.8813099649
 40
0.85
 50
180.0
 51
270.0
  0
ARC
  8
0
 62
7
  6
CONTINUOUS
 10
114.8766056021
 20
201.8813099649
 40
0.85
 50
270.0
 51
360.0
  0
ARC
  8
0
 62
7
  6
CONTINUOUS
 10
126.8866056021
 20
201.8813099649
 40
0.85
 50
180.0
 51
270.0
  0
ARC
  8
0
 62
7
  6
CONTINUOUS
 10
137.2766056021
 20
201.8813099649
 40
0.85
 50
326.0906643036
 51
360.0
  0
ARC
  8
0
 62
7
  6
CONTINUOUS
 10
132.4696236021
 20
207.6137036386
 40
2.5
 50
191.1254059262
 51
225.4760554887
  0
ARC
  8
0
 62
7
  6
CONTINUOUS
 10
123.2766056021
 20
208.9813099649
 40
0.85
 50
90.0
 51
180.0
  0
ARC
  8
0
 62
7
  6
CONTINUOUS
 10
129.1666056021
 20
208.9813099649
 40
0.85
 50
0.0
 51
90.0
  0
ARC
  8
0
 62
7
  6
CONTINUOUS
 10
110.5766056021
 20
208.9813099649
 40
0.85
 50
90.0
 51
180.0
  0
ARC
  8
0
 62
7
  6
CONTINUOUS
 10
114.8766056021
 20
208.9813099649
 40
0.85
 50
0.0
 51
90.0
  0
ARC
  8
0
 62
7
  6
CONTINUOUS
 10
126.8866056021
 20
208.9813099649
 40
0.85
 50
90.0
 51
180.0
  0
ARC
  8
0
 62
7
  6
CONTINUOUS
 10
137.2766056021
 20
208.9813099649
 40
0.85
 50
0.0
 51
33.9093356964
  0
ARC
  8
CURVE
 62
7
  6
CONTINUOUS
 10
29.4835876021
 20
126.3051522944
 40
2.5
 50
314.5239445113
 51
348.8745940738
  0
ARC
  8
CURVE
 62
7
  6
CONTINUOUS
 10
29.4835876021
 20
121.940364947
 40
2.5
 50
11.1254059262
 51
45.4760554887
  0
ARC
  8
CURVE
 62
7
  6
CONTINUOUS
 10
80.0796236021
 20
126.3051522944
 40
2.5
 50
191.1254059262
 51
225.4760554887
  0
ARC
  8
CURVE
 62
7
  6
CONTINUOUS
 10
80.0796236021
 20
121.940364947
 40
2.5
 50
134.5239445113
 51
168.8745940738
  0
ARC
  8
CURVE
 62
7
  6
CONTINUOUS
 10
79.6266056021
 20
129.2927586207
 40
2.0
 50
141.0
 51
180.0
  0
ARC
  8
CURVE
 62
7
  6
CONTINUOUS
 10
41.5266056021
 20
129.2927586207
 40
2.0
 50
141.0
 51
180.0
  0
ARC
  8
CURVE
 62
7
  6
CONTINUOUS
 10
44.2266056021
 20
129.2927586207
 40
2.0
 50
0.0
 51
39.0
  0
ARC
  8
CURVE
 62
7
  6
CONTINUOUS
 10
69.6266056021
 20
129.2927586207
 40
2.0
 50
0.0
 51
39.0
  0
ARC
  8
CURVE
 62
7
  6
CONTINUOUS
 10
66.9266056021
 20
129.2927586207
 40
2.0
 50
141.0
 51
180.0
  0
ARC
  8
CURVE
 62
7
  6
CONTINUOUS
 10
54.2266056021
 20
129.2927586207
 40
2.0
 50
141.0
 51
180.0
  0
ARC
  8
CURVE
 62
7
  6
CONTINUOUS
 10
56.9266056021
 20
129.2927586207
 40
2.0
 50
0.0
 51
39.0
  0
ARC
  8
0
 62
7
  6
CONTINUOUS
 10
36.7666056021
 20
123.4227586207
 40
0.85
 50
90.0
 51
180.0
  0
ARC
  8
0
 62
7
  6
CONTINUOUS
 10
35.0666056021
 20
115.5227586207
 40
0.85
 50
270.0
 51
360.0
  0
ARC
  8
0
 62
7
  6
CONTINUOUS
 10
38.6766056021
 20
125.1227586207
 40
0.85
 50
270.0
 51
360.0
  0
ARC
  8
CURVE
 62
7
  6
CONTINUOUS
 10
24.6766056021
 20
129.9927586207
 40
0.85
 50
180.0
 51
270.0
  0
ARC
  8
CURVE
 62
7
  6
CONTINUOUS
 10
76.7766056021
 20
115.5227586207
 40
0.85
 50
270.0
 51
360.0
  0
ARC
  8
CURVE
 62
7
  6
CONTINUOUS
 10
32.7866056021
 20
115.5227586207
 40
0.85
 50
179.9999999986
 51
270.0
  0
ARC
  8
CURVE
 62
7
  6
CONTINUOUS
 10
64.0766056021
 20
115.5227586207
 40
0.85
 50
270.0
 51
360.0
  0
ARC
  8
CURVE
 62
7
  6
CONTINUOUS
 10
72.4766056021
 20
115.5227586207
 40
0.85
 50
179.9999999739
 51
270.0
  0
ARC
  8
CURVE
 62
7
  6
CONTINUOUS
 10
51.3766056021
 20
115.5227586207
 40
0.85
 50
270.0
 51
360.0
  0
ARC
  8
CURVE
 62
7
  6
CONTINUOUS
 10
59.7766056021
 20
115.5227586207
 40
0.85
 50
179.9999999739
 51
270.0
  0
ARC
  8
CURVE
 62
7
  6
CONTINUOUS
 10
47.0766056021
 20
115.5227586207
 40
0.85
 50
179.9999999739
 51
270.0
  0
ARC
  8
CURVE
 62
7
  6
CONTINUOUS
 10
77.9266056021
 20
128.8427586207
 40
0.3
 50
90.0
 51
179.9999999281
  0
ARC
  8
CURVE
 62
7
  6
CONTINUOUS
 10
65.2266056021
 20
128.8427586207
 40
0.3
 50
90.0
 51
179.9999999281
  0
ARC
  8
CURVE
 62
7
  6
CONTINUOUS
 10
71.3266056021
 20
128.8427586207
 40
0.3
 50
0.0000000839
 51
90.0
  0
ARC
  8
CURVE
 62
7
  6
CONTINUOUS
 10
52.5266056021
 20
128.8427586207
 40
0.3
 50
90.0
 51
179.9999999281
  0
ARC
  8
CURVE
 62
7
  6
CONTINUOUS
 10
58.6266056021
 20
128.8427586207
 40
0.3
 50
0.0000000839
 51
90.0
  0
ARC
  8
CURVE
 62
7
  6
CONTINUOUS
 10
39.8266056021
 20
128.8427586207
 40
0.3
 50
90.0
 51
179.9999999281
  0
ARC
  8
CURVE
 62
7
  6
CONTINUOUS
 10
45.9266056021
 20
128.8427586207
 40
0.3
 50
0.0000000839
 51
90.0
  0
ARC
  8
CURVE
 62
7
  6
CONTINUOUS
 10
34.0396236021
 20
141.9051524862
 40
2.5
 50
191.1254059262
 51
225.4760617554
  0
ARC
  8
CURVE
 62
7
  6
CONTINUOUS
 10
34.0396236021
 20
137.5403647552
 40
2.5
 50
134.5239382446
 51
168.8745940738
  0
ARC
  8
CURVE
 62
7
  6
CONTINUOUS
 10
75.5235876021
 20
141.9051524862
 40
2.5
 50
314.5239382446
 51
348.8745940738
  0
ARC
  8
CURVE
 62
7
  6
CONTINUOUS
 10
75.5235876021
 20
137.5403647552
 40
2.5
 50
11.1254059262
 51
45.4760617554
  0
ARC
  8
CURVE
 62
7
  6
CONTINUOUS
 10
73.2766056021
 20
134.5527586207
 40
2.0
 50
180.0
 51
219.0
  0
ARC
  8
CURVE
 62
7
  6
CONTINUOUS
 10
75.9766056021
 20
134.5527586207
 40
2.0
 50
321.0
 51
360.0
  0
ARC
  8
CURVE
 62
7
  6
CONTINUOUS
 10
60.5766056021
 20
134.5527586207
 40
2.0
 50
180.0
 51
219.0
  0
ARC
  8
CURVE
 62
7
  6
CONTINUOUS
 10
63.2766056021
 20
134.5527586207
 40
2.0
 50
321.0
 51
360.0
  0
ARC
  8
CURVE
 62
7
  6
CONTINUOUS
 10
47.8766056021
 20
134.5527586207
 40
2.0
 50
180.0
 51
219.0
  0
ARC
  8
CURVE
 62
7
  6
CONTINUOUS
 10
50.5766056021
 20
134.5527586207
 40
2.0
 50
321.0
 51
360.0
  0
ARC
  8
CURVE
 62
7
  6
CONTINUOUS
 10
33.5866056021
 20
134.5527586207
 40
2.0
 50
180.0
 51
219.0
  0
ARC
  8
CURVE
 62
7
  6
CONTINUOUS
 10
37.8766056021
 20
134.5527586207
 40
2.0
 50
321.0
 51
360.0
  0
ARC
  8
CURVE
 62
7
  6
CONTINUOUS
 10
24.6766056021
 20
148.3227586207
 40
0.85
 50
90.0
 51
180.0000000018
  0
ARC
  8
CURVE
 62
7
  6
CONTINUOUS
 10
70.4266056021
 20
148.3227586207
 40
0.85
 50
0.0
 51
90.0
  0
ARC
  8
CURVE
 62
7
  6
CONTINUOUS
 10
78.8266056021
 20
148.3227586207
 40
0.85
 50
90.0
 51
180.0000000261
  0
ARC
  8
CURVE
 62
7
  6
CONTINUOUS
 10
57.7266056021
 20
148.3227586207
 40
0.85
 50
0.0
 51
90.0
  0
ARC
  8
CURVE
 62
7
  6
CONTINUOUS
 10
66.1266056021
 20
148.3227586207
 40
0.85
 50
90.0
 51
180.0000000261
  0
ARC
  8
CURVE
 62
7
  6
CONTINUOUS
 10
45.0266056021
 20
148.3227586207
 40
0.85
 50
0.0
 51
90.0
  0
ARC
  8
CURVE
 62
7
  6
CONTINUOUS
 10
53.4266056021
 20
148.3227586207
 40
0.85
 50
90.0
 51
180.0000000261
  0
ARC
  8
CURVE
 62
7
  6
CONTINUOUS
 10
30.7366056021
 20
148.3227586207
 40
0.85
 50
0.0
 51
90.0
  0
ARC
  8
CURVE
 62
7
  6
CONTINUOUS
 10
40.7266056021
 20
148.3227586207
 40
0.85
 50
90.0
 51
180.0000000261
  0
ARC
  8
CURVE
 62
7
  6
CONTINUOUS
 10
77.6766056021
 20
135.0027586207
 40
0.3
 50
270.0
 51
359.9999999281
  0
ARC
  8
CURVE
 62
7
  6
CONTINUOUS
 10
71.5766056021
 20
135.0027586207
 40
0.3
 50
180.0000000839
 51
270.0
  0
ARC
  8
CURVE
 62
7
  6
CONTINUOUS
 10
64.9766056021
 20
135.0027586207
 40
0.3
 50
270.0
 51
359.9999999281
  0
ARC
  8
CURVE
 62
7
  6
CONTINUOUS
 10
58.8766056021
 20
135.0027586207
 40
0.3
 50
180.0000000839
 51
270.0
  0
ARC
  8
CURVE
 62
7
  6
CONTINUOUS
 10
52.2766056021
 20
135.0027586207
 40
0.3
 50
270.0
 51
359.9999999281
  0
ARC
  8
CURVE
 62
7
  6
CONTINUOUS
 10
46.1766056021
 20
135.0027586207
 40
0.3
 50
180.0000000839
 51
270.0
  0
ARC
  8
CURVE
 62
7
  6
CONTINUOUS
 10
39.5766056021
 20
135.0027586207
 40
0.3
 50
270.0
 51
359.9999999281
  0
ARC
  8
CURVE
 62
7
  6
CONTINUOUS
 10
31.8866056021
 20
135.0027586207
 40
0.3
 50
180.0000000839
 51
270.0
  0
ARC
  8
0
 62
7
  6
CONTINUOUS
 10
132.4696236021
 20
126.3051522944
 40
2.5
 50
191.1254059262
 51
225.4760554887
  0
ARC
  8
0
 62
7
  6
CONTINUOUS
 10
132.4696236021
 20
121.940364947
 40
2.5
 50
134.5239445113
 51
168.8745940738
  0
ARC
  8
0
 62
7
  6
CONTINUOUS
 10
81.8735876021
 20
126.3051522944
 40
2.5
 50
314.5239445113
 51
348.8745940738
  0
ARC
  8
0
 62
7
  6
CONTINUOUS
 10
81.8735876021
 20
121.940364947
 40
2.5
 50
11.1254059262
 51
45.4760554887
  0
ARC
  8
0
 62
7
  6
CONTINUOUS
 10
120.4266056021
 20
129.2927586207
 40
2.0
 50
0.0
 51
39.0
  0
ARC
  8
0
 62
7
  6
CONTINUOUS
 10
117.7266056021
 20
129.2927586207
 40
2.0
 50
141.0
 51
180.0
  0
ARC
  8
0
 62
7
  6
CONTINUOUS
 10
107.7266056021
 20
129.2927586207
 40
2.0
 50
0.0
 51
39.0
  0
ARC
  8
0
 62
7
  6
CONTINUOUS
 10
105.0266056021
 20
129.2927586207
 40
2.0
 50
141.0
 51
180.0
  0
ARC
  8
0
 62
7
  6
CONTINUOUS
 10
95.0266056021
 20
129.2927586207
 40
2.0
 50
0.0
 51
39.0
  0
ARC
  8
0
 62
7
  6
CONTINUOUS
 10
92.3266056021
 20
129.2927586207
 40
2.0
 50
141.0
 51
180.0
  0
ARC
  8
0
 62
7
  6
CONTINUOUS
 10
82.3266056021
 20
129.2927586207
 40
2.0
 50
0.0
 51
39.0
  0
ARC
  8
0
 62
7
  6
CONTINUOUS
 10
125.1866056021
 20
123.4227586207
 40
0.85
 50
0.0
 51
90.0
  0
ARC
  8
0
 62
7
  6
CONTINUOUS
 10
126.8866056021
 20
115.5227586207
 40
0.85
 50
179.9999999991
 51
270.0
  0
ARC
  8
0
 62
7
  6
CONTINUOUS
 10
123.2766056021
 20
125.1227586207
 40
0.85
 50
180.0
 51
270.0
  0
ARC
  8
0
 62
7
  6
CONTINUOUS
 10
137.2766056021
 20
129.9927586207
 40
0.85
 50
270.0
 51
360.0
  0
ARC
  8
0
 62
7
  6
CONTINUOUS
 10
85.1766056021
 20
115.5227586207
 40
0.85
 50
179.9999999739
 51
270.0
  0
ARC
  8
0
 62
7
  6
CONTINUOUS
 10
129.1666056021
 20
115.5227586207
 40
0.85
 50
270.0
 51
360.0
  0
ARC
  8
0
 62
7
  6
CONTINUOUS
 10
97.8766056021
 20
115.5227586207
 40
0.85
 50
179.9999999739
 51
270.0
  0
ARC
  8
0
 62
7
  6
CONTINUOUS
 10
89.4766056021
 20
115.5227586207
 40
0.85
 50
270.0
 51
360.0
  0
ARC
  8
0
 62
7
  6
CONTINUOUS
 10
110.5766056021
 20
115.5227586207
 40
0.85
 50
179.9999999739
 51
270.0
  0
ARC
  8
0
 62
7
  6
CONTINUOUS
 10
102.1766056021
 20
115.5227586207
 40
0.85
 50
270.0
 51
360.0
  0
ARC
  8
0
 62
7
  6
CONTINUOUS
 10
114.8766056021
 20
115.5227586207
 40
0.85
 50
270.0
 51
360.0
  0
ARC
  8
0
 62
7
  6
CONTINUOUS
 10
84.0266056021
 20
128.8427586207
 40
0.3
 50
0.0000000719
 51
90.0
  0
ARC
  8
0
 62
7
  6
CONTINUOUS
 10
96.7266056021
 20
128.8427586207
 40
0.3
 50
0.0000000719
 51
90.0
  0
ARC
  8
0
 62
7
  6
CONTINUOUS
 10
90.6266056021
 20
128.8427586207
 40
0.3
 50
90.0
 51
179.9999999161
  0
ARC
  8
0
 62
7
  6
CONTINUOUS
 10
109.4266056021
 20
128.8427586207
 40
0.3
 50
0.0000000719
 51
90.0
  0
ARC
  8
0
 62
7
  6
CONTINUOUS
 10
103.3266056021
 20
128.8427586207
 40
0.3
 50
90.0
 51
179.9999999161
  0
ARC
  8
0
 62
7
  6
CONTINUOUS
 10
122.1266056021
 20
128.8427586207
 40
0.3
 50
0.0000000719
 51
90.0
  0
ARC
  8
0
 62
7
  6
CONTINUOUS
 10
116.0266056021
 20
128.8427586207
 40
0.3
 50
90.0
 51
179.9999999161
  0
ARC
  8
0
 62
7
  6
CONTINUOUS
 10
127.9135876021
 20
141.9051524862
 40
2.5
 50
314.5239382446
 51
348.8745940738
  0
ARC
  8
0
 62
7
  6
CONTINUOUS
 10
127.9135876021
 20
137.5403647552
 40
2.5
 50
11.1254059262
 51
45.4760617554
  0
ARC
  8
0
 62
7
  6
CONTINUOUS
 10
86.4296236021
 20
141.9051524862
 40
2.5
 50
191.1254059262
 51
225.4760617554
  0
ARC
  8
0
 62
7
  6
CONTINUOUS
 10
86.4296236021
 20
137.5403647552
 40
2.5
 50
134.5239382446
 51
168.8745940738
  0
ARC
  8
0
 62
7
  6
CONTINUOUS
 10
124.0766056021
 20
134.5527586207
 40
2.0
 50
180.0
 51
219.0
  0
ARC
  8
0
 62
7
  6
CONTINUOUS
 10
128.3666056021
 20
134.5527586207
 40
2.0
 50
321.0
 51
360.0
  0
ARC
  8
0
 62
7
  6
CONTINUOUS
 10
111.3766056021
 20
134.5527586207
 40
2.0
 50
180.0
 51
219.0
  0
ARC
  8
0
 62
7
  6
CONTINUOUS
 10
114.0766056021
 20
134.5527586207
 40
2.0
 50
321.0
 51
360.0
  0
ARC
  8
0
 62
7
  6
CONTINUOUS
 10
98.6766056021
 20
134.5527586207
 40
2.0
 50
180.0
 51
219.0
  0
ARC
  8
0
 62
7
  6
CONTINUOUS
 10
101.3766056021
 20
134.5527586207
 40
2.0
 50
321.0
 51
360.0
  0
ARC
  8
0
 62
7
  6
CONTINUOUS
 10
85.9766056021
 20
134.5527586207
 40
2.0
 50
180.0
 51
219.0
  0
ARC
  8
0
 62
7
  6
CONTINUOUS
 10
88.6766056021
 20
134.5527586207
 40
2.0
 50
321.0
 51
360.0
  0
ARC
  8
0
 62
7
  6
CONTINUOUS
 10
137.2766056021
 20
148.3227586207
 40
0.85
 50
0.0
 51
90.0
  0
ARC
  8
0
 62
7
  6
CONTINUOUS
 10
91.5266056021
 20
148.3227586207
 40
0.85
 50
90.0
 51
180.0000000261
  0
ARC
  8
0
 62
7
  6
CONTINUOUS
 10
83.1266056021
 20
148.3227586207
 40
0.85
 50
0.0
 51
90.0
  0
ARC
  8
0
 62
7
  6
CONTINUOUS
 10
104.2266056021
 20
148.3227586207
 40
0.85
 50
90.0
 51
180.0000000261
  0
ARC
  8
0
 62
7
  6
CONTINUOUS
 10
95.8266056021
 20
148.3227586207
 40
0.85
 50
0.0
 51
90.0
  0
ARC
  8
0
 62
7
  6
CONTINUOUS
 10
116.9266056021
 20
148.3227586207
 40
0.85
 50
90.0
 51
180.0000000261
  0
ARC
  8
0
 62
7
  6
CONTINUOUS
 10
108.5266056021
 20
148.3227586207
 40
0.85
 50
0.0
 51
90.0
  0
ARC
  8
0
 62
7
  6
CONTINUOUS
 10
131.2166056021
 20
148.3227586207
 40
0.85
 50
90.0
 51
180.0000000261
  0
ARC
  8
0
 62
7
  6
CONTINUOUS
 10
121.2266056021
 20
148.3227586207
 40
0.85
 50
0.0
 51
90.0
  0
ARC
  8
0
 62
7
  6
CONTINUOUS
 10
84.2766056021
 20
135.0027586207
 40
0.3
 50
180.0000000719
 51
270.0
  0
ARC
  8
0
 62
7
  6
CONTINUOUS
 10
90.3766056021
 20
135.0027586207
 40
0.3
 50
270.0
 51
359.9999999161
  0
ARC
  8
0
 62
7
  6
CONTINUOUS
 10
96.9766056021
 20
135.0027586207
 40
0.3
 50
180.0000000719
 51
270.0
  0
ARC
  8
0
 62
7
  6
CONTINUOUS
 10
103.0766056021
 20
135.0027586207
 40
0.3
 50
270.0
 51
359.9999999161
  0
ARC
  8
0
 62
7
  6
CONTINUOUS
 10
109.6766056021
 20
135.0027586207
 40
0.3
 50
180.0000000719
 51
270.0
  0
ARC
  8
0
 62
7
  6
CONTINUOUS
 10
115.7766056021
 20
135.0027586207
 40
0.3
 50
270.0
 51
359.9999999161
  0
ARC
  8
0
 62
7
  6
CONTINUOUS
 10
122.3766056021
 20
135.0027586207
 40
0.3
 50
180.0000000719
 51
270.0
  0
ARC
  8
0
 62
7
  6
CONTINUOUS
 10
130.0666056021
 20
135.0027586207
 40
0.3
 50
270.0
 51
359.9999999161
  0
ARC
  8
0
 62
7
  6
CONTINUOUS
 10
157.9967876618
 20
117.4427586207
 40
1.0
 50
180.0
 51
270.0
  0
ARC
  8
CURVE
 62
7
  6
CONTINUOUS
 10
157.9967876618
 20
117.4427586207
 40
1.0
 50
180.0
 51
270.0
  0
ARC
  8
0
 62
7
  6
CONTINUOUS
 10
157.9967876618
 20
130.4427586207
 40
1.0
 50
90.0
 51
180.0
  0
ARC
  8
CURVE
 62
7
  6
CONTINUOUS
 10
157.9967876618
 20
130.4427586207
 40
1.0
 50
90.0
 51
180.0
  0
ARC
  8
0
 62
7
  6
CONTINUOUS
 10
164.8988869646
 20
115.4427275514
 40
1.0000310693
 50
53.4514649344
 51
90.0
  0
ARC
  8
CURVE
 62
7
  6
CONTINUOUS
 10
164.89890072
 20
115.4427586207
 40
1.0
 50
42.2388095314
 51
90.0
  0
ARC
  8
0
 62
7
  6
CONTINUOUS
 10
168.8967876618
 20
119.0727586207
 40
4.4
 50
180.0
 51
183.8118029505
  0
ARC
  8
0
 62
7
  6
CONTINUOUS
 10
168.8967876618
 20
119.0727586207
 40
4.4
 50
356.244171955
 51
356.2656720445
  0
ARC
  8
0
 62
7
  6
CONTINUOUS
 10
168.8967876618
 20
119.0727586207
 40
4.4
 50
219.6
 51
219.6332629593
  0
ARC
  8
0
 62
7
  6
CONTINUOUS
 10
168.8967876618
 20
119.0727586207
 40
4.4
 50
356.1011860353
 51
356.1948840909
  0
ARC
  8
0
 62
7
  6
CONTINUOUS
 10
168.8967876618
 20
119.0727586207
 40
4.4
 50
222.1671841288
 51
223.3735608544
  0
ARC
  8
0
 62
7
  6
CONTINUOUS
 10
168.8967876618
 20
119.0727586207
 40
4.4
 50
355.9990115677
 51
356.0659828995
  0
ARC
  8
CURVE
 62
7
  6
CONTINUOUS
 10
168.8967876618
 20
119.0727586207
 40
4.4
 50
180.0
 51
360.0
  0
CIRCLE
  8
CURVE
 62
7
  6
CONTINUOUS
 10
168.8967876618
 20
119.2227586207
 40
2.6
  0
CIRCLE
  8
CURVE
 62
7
  6
CONTINUOUS
 10
168.8967876618
 20
124.1227586207
 40
1.700001
  0
CIRCLE
  8
CURVE
 62
7
  6
CONTINUOUS
 10
168.8967876618
 20
124.1227586207
 40
0.4
  0
ARC
  8
CURVE
 62
7
  6
CONTINUOUS
 10
168.8967876618
 20
144.7727586207
 40
4.4
 50
0.0
 51
180.0
  0
ARC
  8
0
 62
7
  6
CONTINUOUS
 10
168.8967876618
 20
144.7727586207
 40
4.4
 50
23.1360434894
 51
158.2203288223
  0
ARC
  8
CURVE
 62
7
  6
CONTINUOUS
 10
168.8967876618
 20
130.3027586207
 40
4.4
 50
0.0
 51
21.4748118529
  0
ARC
  8
CURVE
 62
7
  6
CONTINUOUS
 10
168.8967876618
 20
133.5427586207
 40
4.4
 50
180.0
 51
360.0
  0
CIRCLE
  8
CURVE
 62
7
  6
CONTINUOUS
 10
168.8967876618
 20
144.6227586207
 40
2.6
  0
ENDSEC
  0
EOF
