  0
SECTION
  2
HEADER
  9
$EXTMAX
 10
210.0
 20
297.0
 30
0.0
  9
$EXTMIN
 10
0.0
 20
0.0
 30
0.0
  9
$LIMMIN
 10
0.0
 20
0.0
  9
$LIMMAX
 10
210.0
 20
297.0
  9
$VIEWCTR
 10
105.0
 20
148.5
  9
$VIEWSIZE
 40
297.0
  9
$CLAYER
  8
0
  9
$LTSCALE
 40
19.36
  9
$CELTYPE
  6
BYLAYER
  9
$DIMSCALE
 40
1.0
  9
$DIMASZ
 40
3.5
  9
$DIMEXO
 40
2.2
  9
$DIMDLI
 40
13.376
  9
$DIMEXE
 40
6.336
  9
$DIMCEN
 40
3.168
  9
$DIMLFAC
 40
1.0
  9
$DIMBLK
  1
_FILLED
  9
$DIMTXT
 40
3.5
  9
$PDMODE
 70
3
  9
$PDSIZE
 40
0.3125
  9
$TILEMODE
 70
1
  0
ENDSEC
  0
SECTION
  2
TABLES
  0
TABLE
  2
LTYPE
 70
6
  0
LTYPE
  2
BYBLOCK
 70
0
  3

 72
65
 73
0
 40
0.0
  0
LTYPE
  2
BYLAYER
 70
0
  3

 72
65
 73
0
 40
0.0
  0
LTYPE
  2
CONTINUOUS
 70
64
  3
Solid line
 72
65
 73
0
 40
0.0
  0
LTYPE
  2
CENTER
 70
64
  3
____ _ ____ _ ____ _ ____ _ ____ _ ____ _ ____
 72
65
 73
4
 40
0.6
 49
0.375
 49
-0.075
 49
0.075
 49
-0.075
  0
LTYPE
  2
HIDDEN
 70
64
  3
- - - - - - - - - - - - - - - - - - - -
 72
65
 73
2
 40
0.2
 49
0.1
 49
-0.1
  0
LTYPE
  2
PHANTOM
 70
64
  3
_____ _ _ _____ _ _ _____ _ _ _____
 72
65
 73
6
 40
0.8
 49
0.45
 49
-0.05
 49
0.1
 49
-0.05
 49
0.1
 49
-0.05
  0
LTYPE
  2
DOT
 70
64
  3
. . . . . . . . . . . . . . . . . . . .
 72
65
 73
2
 40
0.2
 49
0.1
 49
-0.1
  0
LTYPE
  2
DASHED
 70
64
  3
- - - - - - - - - - - - - - - - - - - -
 72
65
 73
2
 40
0.2
 49
0.1
 49
-0.1
  0
ENDTAB
  0
TABLE
  2
LAYER
 70
36
  0
LAYER
  2
0
 70
0
 62
7
  6
CONTINUOUS
  0
LAYER
  2
DEFAULT_1
 70
0
 62
7
  6
CENTER
  0
LAYER
  2
DEFAULT_2
 70
0
 62
8
  6
HIDDEN
  0
LAYER
  2
DEFAULT_3
 70
0
 62
7
  6
PHANTOM
  0
LAYER
  2
1_AXIS
 70
0
 62
7
  6
CONTINUOUS
  0
LAYER
  2
1_DATUMPLANE
 70
0
 62
7
  6
CONTINUOUS
  0
LAYER
  2
4_QUILT
 70
0
 62
7
  6
CONTINUOUS
  0
LAYER
  2
CURVE
 70
0
 62
7
  6
CONTINUOUS
  0
LAYER
  2
SURFACE
 70
0
 62
7
  6
CONTINUOUS
  0
LAYER
  2
XSEC_DATUMS
 70
0
 62
7
  6
CONTINUOUS
  0
ENDTAB
  0
TABLE
  2
STYLE
 70
1
  0
STYLE
  2
STANDARD
 70
0
 40
0.0
 41
0.8
 50
0.0
 71
0
 42
0.2
  3
txt
  4

  0
STYLE
  2
TEXTSTYLE_1
 70
0
 40
0.0
 41
0.8
 50
0.0
 71
0
 42
0.2
  3
gdt
  4

  0
STYLE
  2
TEXTSTYLE_2
 70
0
 40
0.0
 41
0.6
 50
0.0
 71
0
 42
0.2
  3
txt
  4

  0
STYLE
  2
TEXTSTYLE_3
 70
0
 40
0.0
 41
1.0
 50
0.0
 71
0
 42
0.2
  3
ftb_____.ttf
  4

  0
STYLE
  2
TEXTSTYLE_4
 70
0
 40
0.0
 41
1.0
 50
0.0
 71
0
 42
0.2
  3
fti_____.ttf
  4

  0
STYLE
  2
TEXTSTYLE_5
 70
0
 40
0.0
 41
1.0
 50
0.0
 71
0
 42
0.2
  3
frutiger light.ttf
  4

  0
STYLE
  2
TEXTSTYLE_6
 70
0
 40
0.0
 41
0.7
 50
0.0
 71
0
 42
0.2
  3
txt
  4

  0
STYLE
  2
TEXTSTYLE_7
 70
0
 40
0.0
 41
0.5
 50
0.0
 71
0
 42
0.2
  3
txt
  4

  0
ENDTAB
  0
ENDSEC
  0
SECTION
  2
BLOCKS
  0
BLOCK
  8
0
 62
2
  6
CONTINUOUS
  2
SYMBOL_8_BL1
 70
64
 10
173.5956734183
 20
35.5937998301
  0
TEXT
  8
0
 62
7
  6
CONTINUOUS
 10
164.6539584268
 20
30.6865562072
  7
TEXTSTYLE_4
 40
1.0655737705
  1
The brand for plastic modular belts and chains
 41
1.0
 72
0
  0
LINE
  8
0
 62
7
  6
CONTINUOUS
 10
149.5737418074
 20
36.1675703219
 11
149.5737418074
 21
34.0364227809
  0
LINE
  8
0
 62
7
  6
CONTINUOUS
 10
149.8628043005
 20
31.0454914852
 11
149.8628043005
 21
31.1422825445
  0
LINE
  8
0
 62
7
  6
CONTINUOUS
 10
149.5737418074
 20
31.1100188581
 11
149.6315543091
 21
30.9164367395
  0
LINE
  8
0
 62
7
  6
CONTINUOUS
 10
150.9671844304
 20
33.9544555678
 11
150.9671844304
 21
36.1675703219
  0
LINE
  8
0
 62
7
  6
CONTINUOUS
 10
151.8862417523
 20
32.1101932727
 11
151.8862417523
 21
30.5937998301
  0
LINE
  8
0
 62
7
  6
CONTINUOUS
 10
152.1753043074
 20
30.5937998301
 11
152.1753043074
 21
31.3358647082
  0
LINE
  8
0
 62
7
  6
CONTINUOUS
 10
152.1753043074
 20
31.4649194539
 11
152.1753043074
 21
32.1101932727
  0
LINE
  8
0
 62
7
  6
CONTINUOUS
 10
149.6315543091
 20
31.3036010218
 11
149.5737418074
 21
31.1100188581
  0
LINE
  8
0
 62
7
  6
CONTINUOUS
 10
149.9784292936
 20
30.8841730531
 11
149.8628043005
 21
31.0454914852
  0
LINE
  8
0
 62
7
  6
CONTINUOUS
 10
151.0768668626
 20
31.400392081
 11
151.1346793074
 21
31.3036010218
  0
LINE
  8
0
 62
7
  6
CONTINUOUS
 10
151.4237418626
 20
31.3036010218
 11
151.3659292523
 21
31.4326557675
  0
LINE
  8
0
 62
7
  6
CONTINUOUS
 10
152.852430332
 20
36.1675703219
 11
152.852430332
 21
34.3642916334
  0
LINE
  8
0
 62
7
  6
CONTINUOUS
 10
152.852430332
 20
33.0528162235
 11
152.852430332
 21
32.3970785186
  0
LINE
  8
0
 62
7
  6
CONTINUOUS
 10
153.2159293074
 20
31.2390736489
 11
153.2159293074
 21
30.5937998301
  0
LINE
  8
0
 62
7
  6
CONTINUOUS
 10
153.5049916972
 20
30.5937998301
 11
153.5049916972
 21
31.2390736489
  0
LINE
  8
0
 62
7
  6
CONTINUOUS
 10
149.8628043005
 20
31.1422825445
 11
149.9206168074
 21
31.2713373354
  0
LINE
  8
0
 62
7
  6
CONTINUOUS
 10
149.6315543091
 20
30.9164367395
 11
149.7471793074
 21
30.7873819712
  0
LINE
  8
0
 62
7
  6
CONTINUOUS
 10
153.1581166972
 20
31.3681283946
 11
153.2159293074
 21
31.2390736489
  0
LINE
  8
0
 62
7
  6
CONTINUOUS
 10
153.9674919177
 20
30.8841730531
 11
154.0253041972
 21
30.7551182848
  0
LINE
  8
0
 62
7
  6
CONTINUOUS
 10
153.5049916972
 20
31.2390736489
 11
153.4471794177
 21
31.400392081
  0
LINE
  8
0
 62
7
  6
CONTINUOUS
 10
153.9674919177
 20
31.4326557675
 11
153.9674919177
 21
31.3681283946
  0
LINE
  8
0
 62
7
  6
CONTINUOUS
 10
153.9674919177
 20
30.9809641124
 11
153.9674919177
 21
30.8841730531
  0
LINE
  8
0
 62
7
  6
CONTINUOUS
 10
154.245872955
 20
32.3970785186
 11
154.245872955
 21
36.1675703219
  0
LINE
  8
0
 62
7
  6
CONTINUOUS
 10
154.2565543074
 20
30.8519093441
 11
154.2565543074
 21
30.9164367395
  0
LINE
  8
0
 62
7
  6
CONTINUOUS
 10
154.5737418074
 20
36.1675703219
 11
154.5737418074
 21
32.3970785186
  0
LINE
  8
0
 62
7
  6
CONTINUOUS
 10
151.3659292523
 20
30.7873819712
 11
151.4237418626
 21
30.9164367395
  0
LINE
  8
0
 62
7
  6
CONTINUOUS
 10
155.759679528
 20
30.6905909007
 11
155.7018665869
 21
30.8519093441
  0
LINE
  8
0
 62
7
  6
CONTINUOUS
 10
155.412804528
 20
31.3681283946
 11
155.412804528
 21
31.2713373354
  0
LINE
  8
0
 62
7
  6
CONTINUOUS
 10
155.412804528
 20
31.1422825445
 11
155.412804528
 21
30.9487004259
  0
LINE
  8
0
 62
7
  6
CONTINUOUS
 10
155.7018665869
 20
30.8519093441
 11
155.7018665869
 21
31.3681283946
  0
LINE
  8
0
 62
7
  6
CONTINUOUS
 10
155.9671844304
 20
32.3970785186
 11
155.9671844304
 21
34.2003572071
  0
LINE
  8
0
 62
7
  6
CONTINUOUS
 10
155.9671844304
 20
35.511832617
 11
155.9671844304
 21
36.1675703219
  0
LINE
  8
0
 62
7
  6
CONTINUOUS
 10
156.279992028
 20
32.1101932727
 11
156.279992028
 21
31.9488748406
  0
LINE
  8
0
 62
7
  6
CONTINUOUS
 10
156.279992028
 20
31.626237886
 11
156.279992028
 21
30.5937998301
  0
LINE
  8
0
 62
7
  6
CONTINUOUS
 10
156.5690540869
 20
30.5937998301
 11
156.5690540869
 21
31.626237886
  0
LINE
  8
0
 62
7
  6
CONTINUOUS
 10
156.5690540869
 20
31.9488748406
 11
156.5690540869
 21
32.1101932727
  0
LINE
  8
0
 62
7
  6
CONTINUOUS
 10
151.1346793074
 20
30.9164367395
 11
151.0768668626
 21
30.8196456577
  0
LINE
  8
0
 62
7
  6
CONTINUOUS
 10
153.4471794177
 20
31.400392081
 11
153.3893668074
 21
31.4649194539
  0
LINE
  8
0
 62
7
  6
CONTINUOUS
 10
154.3143669177
 20
30.7873819712
 11
154.2565543074
 21
30.8519093441
  0
LINE
  8
0
 62
7
  6
CONTINUOUS
 10
155.4706168074
 20
30.6583272086
 11
155.5284290869
 21
30.5937998301
  0
LINE
  8
0
 62
7
  6
CONTINUOUS
 10
155.412804528
 20
30.7551182848
 11
155.4706168074
 21
30.6583272086
  0
LINE
  8
0
 62
7
  6
CONTINUOUS
 10
155.8174918074
 20
30.5937998301
 11
155.759679528
 21
30.6905909007
  0
LINE
  8
0
 62
7
  6
CONTINUOUS
 10
155.7018665869
 20
31.3681283946
 11
155.6440543074
 21
31.4649194539
  0
LINE
  8
0
 62
7
  6
CONTINUOUS
 10
157.0315543074
 20
31.626237886
 11
157.0315543074
 21
30.5937998301
  0
LINE
  8
0
 62
7
  6
CONTINUOUS
 10
157.320617028
 20
30.5937998301
 11
157.320617028
 21
31.3358647082
  0
LINE
  8
0
 62
7
  6
CONTINUOUS
 10
157.320617028
 20
31.4649194539
 11
157.320617028
 21
31.626237886
  0
LINE
  8
0
 62
7
  6
CONTINUOUS
 10
157.852430332
 20
34.6101932727
 11
157.852430332
 21
32.3970785186
  0
LINE
  8
0
 62
7
  6
CONTINUOUS
 10
149.7471793074
 20
31.4326557675
 11
149.6315543091
 21
31.3036010218
  0
LINE
  8
0
 62
7
  6
CONTINUOUS
 10
149.9206168074
 20
31.2713373354
 11
149.9784292936
 21
31.3358647082
  0
LINE
  8
0
 62
7
  6
CONTINUOUS
 10
149.7471793074
 20
30.7873819712
 11
149.8628043005
 21
30.7228545871
  0
LINE
  8
0
 62
7
  6
CONTINUOUS
 10
150.1518667936
 20
30.7873819712
 11
149.9784292936
 21
30.8841730531
  0
LINE
  8
0
 62
7
  6
CONTINUOUS
 10
155.3549915869
 20
31.4326557675
 11
155.412804528
 21
31.3681283946
  0
LINE
  8
0
 62
7
  6
CONTINUOUS
 10
158.3034290869
 20
31.3681283946
 11
158.361242028
 21
31.2068099625
  0
LINE
  8
0
 62
7
  6
CONTINUOUS
 10
158.6503040869
 20
31.2068099625
 11
158.5924918074
 21
31.3681283946
  0
LINE
  8
0
 62
7
  6
CONTINUOUS
 10
158.361242028
 20
31.2068099625
 11
158.361242028
 21
30.5937998301
  0
LINE
  8
0
 62
7
  6
CONTINUOUS
 10
158.6503040869
 20
30.5937998301
 11
158.6503040869
 21
31.2068099625
  0
LINE
  8
0
 62
7
  6
CONTINUOUS
 10
159.1128043074
 20
31.4326557675
 11
159.1128043074
 21
31.3681283946
  0
LINE
  8
0
 62
7
  6
CONTINUOUS
 10
159.245872955
 20
32.3970785186
 11
159.245872955
 21
34.5282260596
  0
LINE
  8
0
 62
7
  6
CONTINUOUS
 10
159.5737418074
 20
36.1675703219
 11
159.5737418074
 21
32.3970785186
  0
LINE
  8
0
 62
7
  6
CONTINUOUS
 10
154.2565543074
 20
30.9164367395
 11
154.3143669177
 21
31.0132277988
  0
LINE
  8
0
 62
7
  6
CONTINUOUS
 10
149.8628043005
 20
30.7228545871
 11
150.0362418212
 21
30.6583272086
  0
LINE
  8
0
 62
7
  6
CONTINUOUS
 10
151.3659292523
 20
31.4326557675
 11
151.1924917523
 21
31.5294468267
  0
LINE
  8
0
 62
7
  6
CONTINUOUS
 10
154.0253041972
 20
30.7551182848
 11
154.1987416972
 21
30.6583272086
  0
LINE
  8
0
 62
7
  6
CONTINUOUS
 10
153.0424918074
 20
31.4326557675
 11
153.1581166972
 21
31.3681283946
  0
LINE
  8
0
 62
7
  6
CONTINUOUS
 10
153.3893668074
 20
31.4649194539
 11
153.2737419177
 21
31.5294468267
  0
LINE
  8
0
 62
7
  6
CONTINUOUS
 10
159.1128043074
 20
30.8519093441
 11
159.228429528
 21
30.7228545871
  0
LINE
  8
0
 62
7
  6
CONTINUOUS
 10
159.4596793074
 20
30.7873819712
 11
159.401867028
 21
30.8519093441
  0
LINE
  8
0
 62
7
  6
CONTINUOUS
 10
159.1128043074
 20
31.3681283946
 11
159.228429528
 21
31.2390736489
  0
LINE
  8
0
 62
7
  6
CONTINUOUS
 10
158.5924918074
 20
31.3681283946
 11
158.534679528
 21
31.4649194539
  0
LINE
  8
0
 62
7
  6
CONTINUOUS
 10
160.9628038663
 20
30.7873819712
 11
160.9628038663
 21
30.8519093441
  0
LINE
  8
0
 62
7
  6
CONTINUOUS
 10
160.9671844304
 20
32.3970785186
 11
160.9671844304
 21
36.1675703219
  0
LINE
  8
0
 62
7
  6
CONTINUOUS
 10
154.0253041972
 20
31.4971831403
 11
153.9674919177
 21
31.4326557675
  0
LINE
  8
0
 62
7
  6
CONTINUOUS
 10
150.9034292799
 20
31.4649194539
 11
151.0768668626
 21
31.400392081
  0
LINE
  8
0
 62
7
  6
CONTINUOUS
 10
155.6440543074
 20
31.4649194539
 11
155.5284290869
 21
31.5294468267
  0
LINE
  8
0
 62
7
  6
CONTINUOUS
 10
159.4596793074
 20
31.3036010218
 11
159.401867028
 21
31.3681283946
  0
LINE
  8
0
 62
7
  6
CONTINUOUS
 10
160.615929528
 20
30.9164367395
 11
160.6737418074
 21
30.8519093441
  0
LINE
  8
0
 62
7
  6
CONTINUOUS
 10
160.9628038663
 20
30.8519093441
 11
160.8471793074
 21
30.9809641124
  0
LINE
  8
0
 62
7
  6
CONTINUOUS
 10
160.615929528
 20
31.4326557675
 11
160.6737418074
 21
31.3681283946
  0
LINE
  8
0
 62
7
  6
CONTINUOUS
 10
160.9628038663
 20
31.3681283946
 11
160.8471793074
 21
31.4971831403
  0
LINE
  8
0
 62
7
  6
CONTINUOUS
 10
154.2565543074
 20
31.3681283946
 11
154.3143669177
 21
31.4326557675
  0
LINE
  8
0
 62
7
  6
CONTINUOUS
 10
154.0831168074
 20
31.1100188581
 11
153.9674919177
 21
30.9809641124
  0
LINE
  8
0
 62
7
  6
CONTINUOUS
 10
155.412804528
 20
30.9487004259
 11
155.3549915869
 21
30.8841730531
  0
LINE
  8
0
 62
7
  6
CONTINUOUS
 10
155.3549915869
 20
30.6905909007
 11
155.412804528
 21
30.7551182848
  0
LINE
  8
0
 62
7
  6
CONTINUOUS
 10
154.1987416972
 20
30.6583272086
 11
154.3143669177
 21
30.6260635193
  0
LINE
  8
0
 62
7
  6
CONTINUOUS
 10
151.1924917523
 20
31.5294468267
 11
150.9612418074
 21
31.5939741996
  0
LINE
  8
0
 62
7
  6
CONTINUOUS
 10
154.5456166972
 20
30.7228545871
 11
154.3143669177
 21
30.7873819712
  0
LINE
  8
0
 62
7
  6
CONTINUOUS
 10
153.2737419177
 20
31.5294468267
 11
153.1003044177
 21
31.5939741996
  0
LINE
  8
0
 62
7
  6
CONTINUOUS
 10
155.5284290869
 20
31.5294468267
 11
155.3549915869
 21
31.5939741996
  0
LINE
  8
0
 62
7
  6
CONTINUOUS
 10
158.187804528
 20
31.4326557675
 11
158.3034290869
 21
31.3681283946
  0
LINE
  8
0
 62
7
  6
CONTINUOUS
 10
158.534679528
 20
31.4649194539
 11
158.4190543074
 21
31.5294468267
  0
LINE
  8
0
 62
7
  6
CONTINUOUS
 10
150.0362418212
 20
30.6583272086
 11
150.2096793212
 21
30.6260635193
  0
LINE
  8
0
 62
7
  6
CONTINUOUS
 10
150.498741835
 20
30.7228545871
 11
150.1518667936
 21
30.7873819712
  0
LINE
  8
0
 62
7
  6
CONTINUOUS
 10
152.9268669177
 20
31.4649194539
 11
153.0424918074
 21
31.4326557675
  0
LINE
  8
0
 62
7
  6
CONTINUOUS
 10
155.239367028
 20
31.4649194539
 11
155.3549915869
 21
31.4326557675
  0
LINE
  8
0
 62
7
  6
CONTINUOUS
 10
159.575304528
 20
30.7551182848
 11
159.4596793074
 21
30.7873819712
  0
LINE
  8
0
 62
7
  6
CONTINUOUS
 10
158.0721793074
 20
31.4649194539
 11
158.187804528
 21
31.4326557675
  0
LINE
  8
0
 62
7
  6
CONTINUOUS
 10
159.228429528
 20
30.7228545871
 11
159.401867028
 21
30.6583272086
  0
LINE
  8
0
 62
7
  6
CONTINUOUS
 10
158.4190543074
 20
31.5294468267
 11
158.2456168074
 21
31.5939741996
  0
LINE
  8
0
 62
7
  6
CONTINUOUS
 10
159.6331168074
 20
31.2390736489
 11
159.4596793074
 21
31.3036010218
  0
LINE
  8
0
 62
7
  6
CONTINUOUS
 10
160.442492028
 20
30.9809641124
 11
160.615929528
 21
30.9164367395
  0
LINE
  8
0
 62
7
  6
CONTINUOUS
 10
160.8471793074
 20
31.4971831403
 11
160.6737418074
 21
31.5617105132
  0
LINE
  8
0
 62
7
  6
CONTINUOUS
 10
159.228429528
 20
31.2390736489
 11
159.4596793074
 21
31.1422825445
  0
LINE
  8
0
 62
7
  6
CONTINUOUS
 10
160.8471793074
 20
30.9809641124
 11
160.615929528
 21
31.0777551716
  0
LINE
  8
0
 62
7
  6
CONTINUOUS
 10
159.401867028
 20
31.3681283946
 11
159.4596793074
 21
31.4326557675
  0
LINE
  8
0
 62
7
  6
CONTINUOUS
 10
149.8628043005
 20
31.4971831403
 11
149.7471793074
 21
31.4326557675
  0
LINE
  8
0
 62
7
  6
CONTINUOUS
 10
149.9784292936
 20
31.3358647082
 11
150.1518667936
 21
31.4326557675
  0
LINE
  8
0
 62
7
  6
CONTINUOUS
 10
152.2909293626
 20
31.5294468267
 11
152.1753043074
 21
31.4649194539
  0
LINE
  8
0
 62
7
  6
CONTINUOUS
 10
152.1753043074
 20
31.3358647082
 11
152.2909293626
 21
31.400392081
  0
LINE
  8
0
 62
7
  6
CONTINUOUS
 10
151.1924917523
 20
30.6905909007
 11
151.3659292523
 21
30.7873819712
  0
LINE
  8
0
 62
7
  6
CONTINUOUS
 10
150.2096793212
 20
30.6260635193
 11
150.5565542799
 21
30.5937998301
  0
LINE
  8
0
 62
7
  6
CONTINUOUS
 10
154.3143669177
 20
30.6260635193
 11
154.5456166972
 21
30.5937998301
  0
LINE
  8
0
 62
7
  6
CONTINUOUS
 10
152.6956168074
 20
31.4971831403
 11
152.9268669177
 21
31.4649194539
  0
LINE
  8
0
 62
7
  6
CONTINUOUS
 10
155.0081169177
 20
31.4971831403
 11
155.239367028
 21
31.4649194539
  0
LINE
  8
0
 62
7
  6
CONTINUOUS
 10
159.4596793074
 20
31.1422825445
 11
160.442492028
 21
30.9809641124
  0
LINE
  8
0
 62
7
  6
CONTINUOUS
 10
160.615929528
 20
31.0777551716
 11
159.6331168074
 21
31.2390736489
  0
LINE
  8
0
 62
7
  6
CONTINUOUS
 10
153.1003044177
 20
31.5939741996
 11
152.9268669177
 21
31.626237886
  0
LINE
  8
0
 62
7
  6
CONTINUOUS
 10
159.401867028
 20
30.6583272086
 11
159.575304528
 21
30.6260635193
  0
LINE
  8
0
 62
7
  6
CONTINUOUS
 10
158.2456168074
 20
31.5939741996
 11
158.0721793074
 21
31.626237886
  0
LINE
  8
0
 62
7
  6
CONTINUOUS
 10
160.5003043074
 20
31.4649194539
 11
160.615929528
 21
31.4326557675
  0
LINE
  8
0
 62
7
  6
CONTINUOUS
 10
160.6737418074
 20
30.8519093441
 11
160.615929528
 21
30.7873819712
  0
LINE
  8
0
 62
7
  6
CONTINUOUS
 10
159.228429528
 20
31.5294468267
 11
159.1128043074
 21
31.4326557675
  0
LINE
  8
0
 62
7
  6
CONTINUOUS
 10
154.1409294177
 20
31.5617105132
 11
154.0253041972
 21
31.4971831403
  0
LINE
  8
0
 62
7
  6
CONTINUOUS
 10
154.1987416972
 20
31.1745462761
 11
154.0831168074
 21
31.1100188581
  0
LINE
  8
0
 62
7
  6
CONTINUOUS
 10
154.3143669177
 20
31.0132277988
 11
154.4299918074
 21
31.0777551716
  0
LINE
  8
0
 62
7
  6
CONTINUOUS
 10
151.8862417523
 20
30.5937998301
 11
152.1753043074
 21
30.5937998301
  0
LINE
  8
0
 62
7
  6
CONTINUOUS
 10
153.2159293074
 20
30.5937998301
 11
153.5049916972
 21
30.5937998301
  0
LINE
  8
0
 62
7
  6
CONTINUOUS
 10
154.5456166972
 20
30.5937998301
 11
154.8924916972
 21
30.5937998301
  0
LINE
  8
0
 62
7
  6
CONTINUOUS
 10
155.5284290869
 20
30.5937998301
 11
155.8174918074
 21
30.5937998301
  0
LINE
  8
0
 62
7
  6
CONTINUOUS
 10
156.279992028
 20
30.5937998301
 11
156.5690540869
 21
30.5937998301
  0
LINE
  8
0
 62
7
  6
CONTINUOUS
 10
157.0315543074
 20
30.5937998301
 11
157.320617028
 21
30.5937998301
  0
LINE
  8
0
 62
7
  6
CONTINUOUS
 10
158.361242028
 20
30.5937998301
 11
158.6503040869
 21
30.5937998301
  0
LINE
  8
0
 62
7
  6
CONTINUOUS
 10
159.922179528
 20
30.5937998301
 11
160.269054528
 21
30.5937998301
  0
LINE
  8
0
 62
7
  6
CONTINUOUS
 10
160.269054528
 20
30.7228545871
 11
159.922179528
 21
30.7228545871
  0
LINE
  8
0
 62
7
  6
CONTINUOUS
 10
154.8924916972
 20
30.7228545871
 11
154.5456166972
 21
30.7228545871
  0
LINE
  8
0
 62
7
  6
CONTINUOUS
 10
159.401867028
 20
30.8519093441
 11
159.1128043074
 21
30.8519093441
  0
LINE
  8
0
 62
7
  6
CONTINUOUS
 10
151.4237418626
 20
30.9164367395
 11
151.1346793074
 21
30.9164367395
  0
LINE
  8
0
 62
7
  6
CONTINUOUS
 10
150.498741835
 20
31.4971831403
 11
150.9034292799
 21
31.4649194539
  0
LINE
  8
0
 62
7
  6
CONTINUOUS
 10
150.9612418074
 20
31.5939741996
 11
150.5565542799
 21
31.626237886
  0
LINE
  8
0
 62
7
  6
CONTINUOUS
 10
159.575304528
 20
30.6260635193
 11
159.922179528
 21
30.5937998301
  0
LINE
  8
0
 62
7
  6
CONTINUOUS
 10
159.922179528
 20
30.7228545871
 11
159.575304528
 21
30.7551182848
  0
LINE
  8
0
 62
7
  6
CONTINUOUS
 10
155.3549915869
 20
31.5939741996
 11
155.0081169177
 21
31.626237886
  0
LINE
  8
0
 62
7
  6
CONTINUOUS
 10
160.1534293074
 20
31.4971831403
 11
160.5003043074
 21
31.4649194539
  0
LINE
  8
0
 62
7
  6
CONTINUOUS
 10
160.5003043074
 20
31.5939741996
 11
160.1534293074
 21
31.626237886
  0
LINE
  8
0
 62
7
  6
CONTINUOUS
 10
157.840929528
 20
31.4971831403
 11
158.0721793074
 21
31.4649194539
  0
LINE
  8
0
 62
7
  6
CONTINUOUS
 10
160.6737418074
 20
31.5617105132
 11
160.5003043074
 21
31.5939741996
  0
LINE
  8
0
 62
7
  6
CONTINUOUS
 10
160.8471793074
 20
30.6905909007
 11
160.9628038663
 21
30.7873819712
  0
LINE
  8
0
 62
7
  6
CONTINUOUS
 10
155.3549915869
 20
30.8841730531
 11
155.1815540869
 21
30.7873819712
  0
LINE
  8
0
 62
7
  6
CONTINUOUS
 10
157.4362415869
 20
31.5294468267
 11
157.320617028
 21
31.4649194539
  0
LINE
  8
0
 62
7
  6
CONTINUOUS
 10
157.320617028
 20
31.3358647082
 11
157.4362415869
 21
31.400392081
  0
LINE
  8
0
 62
7
  6
CONTINUOUS
 10
150.0362418212
 20
31.5617105132
 11
149.8628043005
 21
31.4971831403
  0
LINE
  8
0
 62
7
  6
CONTINUOUS
 10
152.4643666972
 20
31.5939741996
 11
152.2909293626
 21
31.5294468267
  0
LINE
  8
0
 62
7
  6
CONTINUOUS
 10
152.2909293626
 20
31.400392081
 11
152.4643666972
 21
31.4649194539
  0
LINE
  8
0
 62
7
  6
CONTINUOUS
 10
151.0768668626
 20
30.8196456577
 11
150.9034292799
 21
30.7551182848
  0
LINE
  8
0
 62
7
  6
CONTINUOUS
 10
160.5003043074
 20
30.7551182848
 11
160.269054528
 21
30.7228545871
  0
LINE
  8
0
 62
7
  6
CONTINUOUS
 10
154.8924916972
 20
30.5937998301
 11
155.1815540869
 21
30.6260635193
  0
LINE
  8
0
 62
7
  6
CONTINUOUS
 10
160.269054528
 20
30.5937998301
 11
160.615929528
 21
30.6260635193
  0
LINE
  8
0
 62
7
  6
CONTINUOUS
 10
150.5565542799
 20
30.5937998301
 11
150.9612418074
 21
30.6260635193
  0
LINE
  8
0
 62
7
  6
CONTINUOUS
 10
150.9034292799
 20
30.7551182848
 11
150.498741835
 21
30.7228545871
  0
LINE
  8
0
 62
7
  6
CONTINUOUS
 10
154.7768668074
 20
31.1422825445
 11
155.412804528
 21
31.1422825445
  0
LINE
  8
0
 62
7
  6
CONTINUOUS
 10
155.412804528
 20
31.2713373354
 11
154.7768668074
 21
31.2713373354
  0
LINE
  8
0
 62
7
  6
CONTINUOUS
 10
151.1346793074
 20
31.3036010218
 11
151.4237418626
 21
31.3036010218
  0
LINE
  8
0
 62
7
  6
CONTINUOUS
 10
153.9674919177
 20
31.3681283946
 11
154.2565543074
 21
31.3681283946
  0
LINE
  8
0
 62
7
  6
CONTINUOUS
 10
160.6737418074
 20
31.3681283946
 11
160.9628038663
 21
31.3681283946
  0
LINE
  8
0
 62
7
  6
CONTINUOUS
 10
154.6612419177
 20
31.4971831403
 11
155.0081169177
 21
31.4971831403
  0
LINE
  8
0
 62
7
  6
CONTINUOUS
 10
159.8065543074
 20
31.4971831403
 11
160.1534293074
 21
31.4971831403
  0
LINE
  8
0
 62
7
  6
CONTINUOUS
 10
160.1534293074
 20
31.626237886
 11
159.8065543074
 21
31.626237886
  0
LINE
  8
0
 62
7
  6
CONTINUOUS
 10
158.0721793074
 20
31.626237886
 11
157.840929528
 21
31.626237886
  0
LINE
  8
0
 62
7
  6
CONTINUOUS
 10
157.320617028
 20
31.626237886
 11
157.0315543074
 21
31.626237886
  0
LINE
  8
0
 62
7
  6
CONTINUOUS
 10
156.5690540869
 20
31.626237886
 11
156.279992028
 21
31.626237886
  0
LINE
  8
0
 62
7
  6
CONTINUOUS
 10
155.0081169177
 20
31.626237886
 11
154.6612419177
 21
31.626237886
  0
LINE
  8
0
 62
7
  6
CONTINUOUS
 10
152.9268669177
 20
31.626237886
 11
152.6956168074
 21
31.626237886
  0
LINE
  8
0
 62
7
  6
CONTINUOUS
 10
156.279992028
 20
31.9488748406
 11
156.5690540869
 21
31.9488748406
  0
LINE
  8
0
 62
7
  6
CONTINUOUS
 10
156.5690540869
 20
32.1101932727
 11
156.279992028
 21
32.1101932727
  0
LINE
  8
0
 62
7
  6
CONTINUOUS
 10
152.1753043074
 20
32.1101932727
 11
151.8862417523
 21
32.1101932727
  0
LINE
  8
0
 62
7
  6
CONTINUOUS
 10
151.2130860697
 20
32.3970785186
 11
151.6256574183
 21
32.3970785186
  0
LINE
  8
0
 62
7
  6
CONTINUOUS
 10
152.852430332
 20
32.3970785186
 11
154.245872955
 21
32.3970785186
  0
LINE
  8
0
 62
7
  6
CONTINUOUS
 10
154.5737418074
 20
32.3970785186
 11
155.9671844304
 21
32.3970785186
  0
LINE
  8
0
 62
7
  6
CONTINUOUS
 10
157.852430332
 20
32.3970785186
 11
159.245872955
 21
32.3970785186
  0
LINE
  8
0
 62
7
  6
CONTINUOUS
 10
159.5737418074
 20
32.3970785186
 11
160.9671844304
 21
32.3970785186
  0
LINE
  8
0
 62
7
  6
CONTINUOUS
 10
157.6096790869
 20
31.5939741996
 11
157.4362415869
 21
31.5294468267
  0
LINE
  8
0
 62
7
  6
CONTINUOUS
 10
155.1815540869
 20
30.6260635193
 11
155.3549915869
 21
30.6905909007
  0
LINE
  8
0
 62
7
  6
CONTINUOUS
 10
160.615929528
 20
30.6260635193
 11
160.8471793074
 21
30.6905909007
  0
LINE
  8
0
 62
7
  6
CONTINUOUS
 10
160.615929528
 20
30.7873819712
 11
160.5003043074
 21
30.7551182848
  0
LINE
  8
0
 62
7
  6
CONTINUOUS
 10
159.575304528
 20
31.4649194539
 11
159.8065543074
 21
31.4971831403
  0
LINE
  8
0
 62
7
  6
CONTINUOUS
 10
157.6096790869
 20
31.4649194539
 11
157.840929528
 21
31.4971831403
  0
LINE
  8
0
 62
7
  6
CONTINUOUS
 10
154.5456166972
 20
31.1100188581
 11
154.7768668074
 21
31.1422825445
  0
LINE
  8
0
 62
7
  6
CONTINUOUS
 10
157.840929528
 20
31.626237886
 11
157.6096790869
 21
31.5939741996
  0
LINE
  8
0
 62
7
  6
CONTINUOUS
 10
154.4299918074
 20
31.4649194539
 11
154.6612419177
 21
31.4971831403
  0
LINE
  8
0
 62
7
  6
CONTINUOUS
 10
159.8065543074
 20
31.626237886
 11
159.4596793074
 21
31.5939741996
  0
LINE
  8
0
 62
7
  6
CONTINUOUS
 10
154.7768668074
 20
31.2713373354
 11
154.4299918074
 21
31.2390736489
  0
LINE
  8
0
 62
7
  6
CONTINUOUS
 10
150.5565542799
 20
31.626237886
 11
150.2096793212
 21
31.5939741996
  0
LINE
  8
0
 62
7
  6
CONTINUOUS
 10
154.6612419177
 20
31.626237886
 11
154.2565543074
 21
31.5939741996
  0
LINE
  8
0
 62
7
  6
CONTINUOUS
 10
152.0327582009
 20
33.5446195022
 11
151.3770204959
 21
33.5446195022
  0
LINE
  8
0
 62
7
  6
CONTINUOUS
 10
157.4362415869
 20
31.400392081
 11
157.6096790869
 21
31.4649194539
  0
LINE
  8
0
 62
7
  6
CONTINUOUS
 10
159.4596793074
 20
31.4326557675
 11
159.575304528
 21
31.4649194539
  0
LINE
  8
0
 62
7
  6
CONTINUOUS
 10
159.4596793074
 20
31.5939741996
 11
159.228429528
 21
31.5294468267
  0
LINE
  8
0
 62
7
  6
CONTINUOUS
 10
155.1815540869
 20
30.7873819712
 11
154.8924916972
 21
30.7228545871
  0
LINE
  8
0
 62
7
  6
CONTINUOUS
 10
152.4643666972
 20
31.4649194539
 11
152.6956168074
 21
31.4971831403
  0
LINE
  8
0
 62
7
  6
CONTINUOUS
 10
152.6956168074
 20
31.626237886
 11
152.4643666972
 21
31.5939741996
  0
LINE
  8
0
 62
7
  6
CONTINUOUS
 10
150.2674918074
 20
31.4649194539
 11
150.498741835
 21
31.4971831403
  0
LINE
  8
0
 62
7
  6
CONTINUOUS
 10
156.7868565615
 20
35.0200293383
 11
157.4425942664
 21
35.0200293383
  0
LINE
  8
0
 62
7
  6
CONTINUOUS
 10
154.4299918074
 20
31.0777551716
 11
154.5456166972
 21
31.1100188581
  0
LINE
  8
0
 62
7
  6
CONTINUOUS
 10
154.4299918074
 20
31.2390736489
 11
154.1987416972
 21
31.1745462761
  0
LINE
  8
0
 62
7
  6
CONTINUOUS
 10
154.3143669177
 20
31.4326557675
 11
154.4299918074
 21
31.4649194539
  0
LINE
  8
0
 62
7
  6
CONTINUOUS
 10
150.9612418074
 20
30.6260635193
 11
151.1924917523
 21
30.6905909007
  0
LINE
  8
0
 62
7
  6
CONTINUOUS
 10
154.2565543074
 20
31.5939741996
 11
154.1409294177
 21
31.5617105132
  0
LINE
  8
0
 62
7
  6
CONTINUOUS
 10
150.2096793212
 20
31.5939741996
 11
150.0362418212
 21
31.5617105132
  0
LINE
  8
0
 62
7
  6
CONTINUOUS
 10
160.9671844304
 20
36.1675703219
 11
159.5737418074
 21
36.1675703219
  0
LINE
  8
0
 62
7
  6
CONTINUOUS
 10
157.6065286927
 20
36.1675703219
 11
157.1939573441
 21
36.1675703219
  0
LINE
  8
0
 62
7
  6
CONTINUOUS
 10
155.9671844304
 20
36.1675703219
 11
154.5737418074
 21
36.1675703219
  0
LINE
  8
0
 62
7
  6
CONTINUOUS
 10
154.245872955
 20
36.1675703219
 11
152.852430332
 21
36.1675703219
  0
LINE
  8
0
 62
7
  6
CONTINUOUS
 10
150.9671844304
 20
36.1675703219
 11
149.5737418074
 21
36.1675703219
  0
LINE
  8
0
 62
7
  6
CONTINUOUS
 10
150.1518667936
 20
31.4326557675
 11
150.2674918074
 21
31.4649194539
  0
CIRCLE
  8
0
 62
7
  6
CONTINUOUS
 10
160.2704631189
 20
38.5036358957
 40
2.0901639344
  0
ARC
  8
0
 62
7
  6
CONTINUOUS
 10
151.2130860697
 20
34.0364227809
 40
1.6393442623
 50
180.0
 51
270.0
  0
ARC
  8
0
 62
7
  6
CONTINUOUS
 10
157.6065286927
 20
34.5282260596
 40
1.6393442623
 50
0.0
 51
90.0
  0
ARC
  8
0
 62
7
  6
CONTINUOUS
 10
151.6256574183
 20
33.8724883547
 40
1.4754098361
 50
270.0
 51
326.2510114041
  0
ARC
  8
0
 62
7
  6
CONTINUOUS
 10
157.1939573441
 20
34.6921604858
 40
1.4754098361
 50
90.0
 51
146.2510114041
  0
ARC
  8
0
 62
7
  6
CONTINUOUS
 10
152.0327582009
 20
34.3642916334
 40
0.8196721311
 50
270.0
 51
360.0
  0
ARC
  8
0
 62
7
  6
CONTINUOUS
 10
156.7868565615
 20
34.2003572071
 40
0.8196721311
 50
90.0
 51
180.0
  0
ARC
  8
0
 62
7
  6
CONTINUOUS
 10
151.3770204959
 20
33.9544555678
 40
0.4098360656
 50
180.0
 51
270.0
  0
ARC
  8
0
 62
7
  6
CONTINUOUS
 10
157.4425942664
 20
34.6101932727
 40
0.4098360656
 50
0.0
 51
90.0
  0
SOLID
  8
0
 62
7
  6
CONTINUOUS
 10
156.279992028
 20
31.9488752009
 11
156.279992028
 21
32.1101936845
 12
156.5690540869
 22
31.9488752009
 13
156.5690540869
 23
32.1101936845
  0
SOLID
  8
0
 62
7
  6
CONTINUOUS
 10
150.5565542799
 20
31.6262382337
 11
150.9612418074
 21
31.5939740028
 12
150.2096793212
 22
31.5939740028
 13
150.2096793212
 23
31.5939740028
  0
SOLID
  8
0
 62
7
  6
CONTINUOUS
 10
150.0362418212
 20
31.5617111435
 11
150.2096793212
 21
31.5939740028
 12
150.9612418074
 22
31.5939740028
 13
150.9612418074
 23
31.5939740028
  0
SOLID
  8
0
 62
7
  6
CONTINUOUS
 10
150.9612418074
 20
31.5939740028
 11
151.1924917523
 21
31.5294468402
 12
150.0362418212
 22
31.5617111435
 13
150.0362418212
 23
31.5617111435
  0
SOLID
  8
0
 62
7
  6
CONTINUOUS
 10
149.8628043005
 20
31.49718259
 11
150.0362418212
 21
31.5617111435
 12
151.1924917523
 22
31.5294468402
 13
151.1924917523
 23
31.5294468402
  0
SOLID
  8
0
 62
7
  6
CONTINUOUS
 10
149.8628043005
 20
31.49718259
 11
151.1924917523
 21
31.5294468402
 12
150.498741835
 22
31.49718259
 13
150.498741835
 23
31.49718259
  0
SOLID
  8
0
 62
7
  6
CONTINUOUS
 10
150.498741835
 20
31.49718259
 11
151.1924917523
 21
31.5294468402
 12
150.9034292799
 22
31.4649197501
 13
150.9034292799
 23
31.4649197501
  0
SOLID
  8
0
 62
7
  6
CONTINUOUS
 10
151.1924917523
 20
31.5294468402
 11
151.3659292523
 21
31.4326554468
 12
150.9034292799
 22
31.4649197501
 13
150.9034292799
 23
31.4649197501
  0
SOLID
  8
0
 62
7
  6
CONTINUOUS
 10
151.0768668626
 20
31.4003926599
 11
150.9034292799
 21
31.4649197501
 12
151.3659292523
 22
31.4326554468
 13
151.3659292523
 23
31.4326554468
  0
SOLID
  8
0
 62
7
  6
CONTINUOUS
 10
151.0768668626
 20
31.4003926599
 11
151.3659292523
 21
31.4326554468
 12
151.1346793074
 22
31.3036013776
 13
151.1346793074
 23
31.3036013776
  0
SOLID
  8
0
 62
7
  6
CONTINUOUS
 10
151.3659292523
 20
31.4326554468
 11
151.4237418626
 21
31.3036013776
 12
151.1346793074
 22
31.3036013776
 13
151.1346793074
 23
31.3036013776
  0
SOLID
  8
0
 62
7
  6
CONTINUOUS
 10
152.4643666972
 20
31.5939739754
 11
152.6956168074
 21
31.6262382787
 12
152.9268669177
 22
31.6262382787
 13
152.9268669177
 23
31.6262382787
  0
SOLID
  8
0
 62
7
  6
CONTINUOUS
 10
152.9268669177
 20
31.6262382787
 11
153.1003044177
 21
31.5939739754
 12
152.4643666972
 22
31.5939739754
 13
152.4643666972
 23
31.5939739754
  0
SOLID
  8
0
 62
7
  6
CONTINUOUS
 10
152.2909293626
 20
31.5294468852
 11
152.4643666972
 21
31.5939739754
 12
153.1003044177
 22
31.5939739754
 13
153.1003044177
 23
31.5939739754
  0
SOLID
  8
0
 62
7
  6
CONTINUOUS
 10
153.1003044177
 20
31.5939739754
 11
153.2737419177
 21
31.5294468852
 12
152.2909293626
 22
31.5294468852
 13
152.2909293626
 23
31.5294468852
  0
SOLID
  8
0
 62
7
  6
CONTINUOUS
 10
153.2737419177
 20
31.5294468852
 11
152.6956168074
 21
31.4971825369
 12
152.2909293626
 22
31.5294468852
 13
152.2909293626
 23
31.5294468852
  0
SOLID
  8
0
 62
7
  6
CONTINUOUS
 10
152.1753043074
 20
31.4649197951
 11
152.2909293626
 21
31.5294468852
 12
152.6956168074
 22
31.4971825369
 13
152.6956168074
 23
31.4971825369
  0
SOLID
  8
0
 62
7
  6
CONTINUOUS
 10
152.6956168074
 20
31.4971825369
 11
152.4643666972
 21
31.4649197951
 12
152.1753043074
 22
31.4649197951
 13
152.1753043074
 23
31.4649197951
  0
SOLID
  8
0
 62
7
  6
CONTINUOUS
 10
152.6956168074
 20
31.4971825369
 11
153.2737419177
 21
31.5294468852
 12
152.9268669177
 22
31.4649197951
 13
152.9268669177
 23
31.4649197951
  0
SOLID
  8
0
 62
7
  6
CONTINUOUS
 10
153.2737419177
 20
31.5294468852
 11
153.3893668074
 21
31.4649197951
 12
152.9268669177
 22
31.4649197951
 13
152.9268669177
 23
31.4649197951
  0
SOLID
  8
0
 62
7
  6
CONTINUOUS
 10
153.0424918074
 20
31.4326554468
 11
152.9268669177
 21
31.4649197951
 12
153.3893668074
 22
31.4649197951
 13
153.3893668074
 23
31.4649197951
  0
SOLID
  8
0
 62
7
  6
CONTINUOUS
 10
153.3893668074
 20
31.4649197951
 11
153.4471794177
 21
31.4003927049
 12
153.0424918074
 22
31.4326554468
 13
153.0424918074
 23
31.4326554468
  0
SOLID
  8
0
 62
7
  6
CONTINUOUS
 10
153.1581166972
 20
31.3681283566
 11
153.0424918074
 21
31.4326554468
 12
153.4471794177
 22
31.4003927049
 13
153.4471794177
 23
31.4003927049
  0
SOLID
  8
0
 62
7
  6
CONTINUOUS
 10
153.1581166972
 20
31.3681283566
 11
153.4471794177
 21
31.4003927049
 12
153.2159293074
 22
31.2390742213
 13
153.2159293074
 23
31.2390742213
  0
SOLID
  8
0
 62
7
  6
CONTINUOUS
 10
153.4471794177
 20
31.4003927049
 11
153.5049916972
 21
31.2390742213
 12
153.2159293074
 22
31.2390742213
 13
153.2159293074
 23
31.2390742213
  0
SOLID
  8
0
 62
7
  6
CONTINUOUS
 10
152.4643666972
 20
31.4649197951
 11
152.2909293626
 21
31.4003927049
 12
152.1753043074
 22
31.4649197951
 13
152.1753043074
 23
31.4649197951
  0
SOLID
  8
0
 62
7
  6
CONTINUOUS
 10
152.2909293626
 20
31.4003927049
 11
152.1753043074
 21
31.3358640533
 12
152.1753043074
 22
31.4649197951
 13
152.1753043074
 23
31.4649197951
  0
SOLID
  8
0
 62
7
  6
CONTINUOUS
 10
152.1753043074
 20
31.3358640533
 11
151.8862417523
 21
30.5938002869
 12
152.1753043074
 22
31.4649197951
 13
152.1753043074
 23
31.4649197951
  0
SOLID
  8
0
 62
7
  6
CONTINUOUS
 10
152.1753043074
 20
31.4649197951
 11
151.8862417523
 21
30.5938002869
 12
152.1753043074
 22
32.1101937295
 13
152.1753043074
 23
32.1101937295
  0
SOLID
  8
0
 62
7
  6
CONTINUOUS
 10
151.8862417523
 20
30.5938002869
 11
151.8862417523
 21
32.1101937295
 12
152.1753043074
 22
32.1101937295
 13
152.1753043074
 23
32.1101937295
  0
SOLID
  8
0
 62
7
  6
CONTINUOUS
 10
152.1753043074
 20
31.3358640533
 11
152.1753043074
 21
30.5938002869
 12
151.8862417523
 22
30.5938002869
 13
151.8862417523
 23
30.5938002869
  0
SOLID
  8
0
 62
7
  6
CONTINUOUS
 10
153.2159293074
 20
30.5938002869
 11
153.2159293074
 21
31.2390742213
 12
153.5049916972
 22
31.2390742213
 13
153.5049916972
 23
31.2390742213
  0
SOLID
  8
0
 62
7
  6
CONTINUOUS
 10
153.5049916972
 20
31.2390742213
 11
153.5049916972
 21
30.5938002869
 12
153.2159293074
 22
30.5938002869
 13
153.2159293074
 23
30.5938002869
  0
SOLID
  8
0
 62
7
  6
CONTINUOUS
 10
154.2565543074
 20
31.5939738288
 11
154.6612419177
 21
31.6262385959
 12
155.0081169177
 22
31.6262385959
 13
155.0081169177
 23
31.6262385959
  0
SOLID
  8
0
 62
7
  6
CONTINUOUS
 10
155.0081169177
 20
31.6262385959
 11
155.3549915869
 21
31.5939738288
 12
154.2565543074
 22
31.5939738288
 13
154.2565543074
 23
31.5939738288
  0
SOLID
  8
0
 62
7
  6
CONTINUOUS
 10
154.1409294177
 20
31.5617111435
 11
154.2565543074
 21
31.5939738288
 12
155.3549915869
 22
31.5939738288
 13
155.3549915869
 23
31.5939738288
  0
SOLID
  8
0
 62
7
  6
CONTINUOUS
 10
155.3549915869
 20
31.5939738288
 11
155.5284290869
 21
31.5294468402
 12
154.1409294177
 22
31.5617111435
 13
154.1409294177
 23
31.5617111435
  0
SOLID
  8
0
 62
7
  6
CONTINUOUS
 10
154.0253041972
 20
31.4971826249
 11
154.1409294177
 21
31.5617111435
 12
155.5284290869
 22
31.5294468402
 13
155.5284290869
 23
31.5294468402
  0
SOLID
  8
0
 62
7
  6
CONTINUOUS
 10
154.0253041972
 20
31.4971826249
 11
155.5284290869
 21
31.5294468402
 12
154.6612419177
 22
31.4971826249
 13
154.6612419177
 23
31.4971826249
  0
SOLID
  8
0
 62
7
  6
CONTINUOUS
 10
154.6612419177
 20
31.4971826249
 11
155.5284290869
 21
31.5294468402
 12
155.0081169177
 22
31.4971826249
 13
155.0081169177
 23
31.4971826249
  0
SOLID
  8
0
 62
7
  6
CONTINUOUS
 10
155.0081169177
 20
31.4971826249
 11
155.5284290869
 21
31.5294468402
 12
155.239367028
 22
31.4649194065
 13
155.239367028
 23
31.4649194065
  0
SOLID
  8
0
 62
7
  6
CONTINUOUS
 10
155.5284290869
 20
31.5294468402
 11
155.6440543074
 21
31.4649194065
 12
155.239367028
 22
31.4649194065
 13
155.239367028
 23
31.4649194065
  0
SOLID
  8
0
 62
7
  6
CONTINUOUS
 10
153.9674919177
 20
31.4326554138
 11
154.0253041972
 21
31.4971826249
 12
154.6612419177
 22
31.4971826249
 13
154.6612419177
 23
31.4971826249
  0
SOLID
  8
0
 62
7
  6
CONTINUOUS
 10
155.3549915869
 20
31.4326554138
 11
155.239367028
 21
31.4649194065
 12
155.6440543074
 22
31.4649194065
 13
155.6440543074
 23
31.4649194065
  0
SOLID
  8
0
 62
7
  6
CONTINUOUS
 10
155.3549915869
 20
31.4326554138
 11
155.6440543074
 21
31.4649194065
 12
155.412804528
 22
31.3681282026
 13
155.412804528
 23
31.3681282026
  0
SOLID
  8
0
 62
7
  6
CONTINUOUS
 10
155.6440543074
 20
31.4649194065
 11
155.7018665869
 21
31.3681282026
 12
155.412804528
 22
31.3681282026
 13
155.412804528
 23
31.3681282026
  0
SOLID
  8
0
 62
7
  6
CONTINUOUS
 10
155.412804528
 20
31.2713369632
 11
155.412804528
 21
31.3681282026
 12
155.7018665869
 22
31.3681282026
 13
155.7018665869
 23
31.3681282026
  0
SOLID
  8
0
 62
7
  6
CONTINUOUS
 10
155.412804528
 20
31.2713369632
 11
155.7018665869
 21
31.3681282026
 12
155.412804528
 22
31.1422827828
 13
155.412804528
 23
31.1422827828
  0
SOLID
  8
0
 62
7
  6
CONTINUOUS
 10
155.412804528
 20
31.1422827828
 11
155.7018665869
 21
31.3681282026
 12
155.412804528
 22
30.9487004259
 13
155.412804528
 23
30.9487004259
  0
SOLID
  8
0
 62
7
  6
CONTINUOUS
 10
155.7018665869
 20
31.3681282026
 11
155.7018665869
 21
30.8519086025
 12
155.412804528
 22
30.9487004259
 13
155.412804528
 23
30.9487004259
  0
SOLID
  8
0
 62
7
  6
CONTINUOUS
 10
157.6096790869
 20
31.5939736268
 11
157.840929528
 21
31.6262383465
 12
158.0721793074
 22
31.6262383465
 13
158.0721793074
 23
31.6262383465
  0
SOLID
  8
0
 62
7
  6
CONTINUOUS
 10
158.0721793074
 20
31.6262383465
 11
158.2456168074
 21
31.5939736268
 12
157.6096790869
 22
31.5939736268
 13
157.6096790869
 23
31.5939736268
  0
SOLID
  8
0
 62
7
  6
CONTINUOUS
 10
157.4362415869
 20
31.5294472848
 11
157.6096790869
 21
31.5939736268
 12
158.2456168074
 22
31.5939736268
 13
158.2456168074
 23
31.5939736268
  0
SOLID
  8
0
 62
7
  6
CONTINUOUS
 10
158.2456168074
 20
31.5939736268
 11
158.4190543074
 21
31.5294472848
 12
157.4362415869
 22
31.5294472848
 13
157.4362415869
 23
31.5294472848
  0
SOLID
  8
0
 62
7
  6
CONTINUOUS
 10
158.4190543074
 20
31.5294472848
 11
157.840929528
 21
31.4971825369
 12
157.4362415869
 22
31.5294472848
 13
157.4362415869
 23
31.5294472848
  0
SOLID
  8
0
 62
7
  6
CONTINUOUS
 10
157.320617028
 20
31.4649199103
 11
157.4362415869
 21
31.5294472848
 12
157.840929528
 22
31.4971825369
 13
157.840929528
 23
31.4971825369
  0
SOLID
  8
0
 62
7
  6
CONTINUOUS
 10
157.840929528
 20
31.4971825369
 11
157.6096790869
 21
31.4649199103
 12
157.320617028
 22
31.4649199103
 13
157.320617028
 23
31.4649199103
  0
SOLID
  8
0
 62
7
  6
CONTINUOUS
 10
157.840929528
 20
31.4971825369
 11
158.4190543074
 21
31.5294472848
 12
158.0721793074
 22
31.4649199103
 13
158.0721793074
 23
31.4649199103
  0
SOLID
  8
0
 62
7
  6
CONTINUOUS
 10
158.4190543074
 20
31.5294472848
 11
158.534679528
 21
31.4649199103
 12
158.0721793074
 22
31.4649199103
 13
158.0721793074
 23
31.4649199103
  0
SOLID
  8
0
 62
7
  6
CONTINUOUS
 10
158.187804528
 20
31.4326554468
 11
158.0721793074
 21
31.4649199103
 12
158.534679528
 22
31.4649199103
 13
158.534679528
 23
31.4649199103
  0
SOLID
  8
0
 62
7
  6
CONTINUOUS
 10
158.187804528
 20
31.4326554468
 11
158.534679528
 21
31.4649199103
 12
158.3034290869
 22
31.3681288486
 13
158.3034290869
 23
31.3681288486
  0
SOLID
  8
0
 62
7
  6
CONTINUOUS
 10
158.534679528
 20
31.4649199103
 11
158.5924918074
 21
31.3681288486
 12
158.3034290869
 22
31.3681288486
 13
158.3034290869
 23
31.3681288486
  0
SOLID
  8
0
 62
7
  6
CONTINUOUS
 10
158.361242028
 20
31.2068093799
 11
158.3034290869
 21
31.3681288486
 12
158.5924918074
 22
31.3681288486
 13
158.5924918074
 23
31.3681288486
  0
SOLID
  8
0
 62
7
  6
CONTINUOUS
 10
158.5924918074
 20
31.3681288486
 11
158.6503040869
 21
31.2068093799
 12
158.361242028
 22
31.2068093799
 13
158.361242028
 23
31.2068093799
  0
SOLID
  8
0
 62
7
  6
CONTINUOUS
 10
157.6096790869
 20
31.4649199103
 11
157.4362415869
 21
31.4003926599
 12
157.320617028
 22
31.4649199103
 13
157.320617028
 23
31.4649199103
  0
SOLID
  8
0
 62
7
  6
CONTINUOUS
 10
157.4362415869
 20
31.4003926599
 11
157.320617028
 21
31.3358640533
 12
157.320617028
 22
31.4649199103
 13
157.320617028
 23
31.4649199103
  0
SOLID
  8
0
 62
7
  6
CONTINUOUS
 10
157.320617028
 20
31.3358640533
 11
157.0315543074
 21
30.5938003547
 12
157.320617028
 22
31.4649199103
 13
157.320617028
 23
31.4649199103
  0
SOLID
  8
0
 62
7
  6
CONTINUOUS
 10
157.320617028
 20
31.4649199103
 11
157.0315543074
 21
30.5938003547
 12
157.320617028
 22
31.6262383465
 13
157.320617028
 23
31.6262383465
  0
SOLID
  8
0
 62
7
  6
CONTINUOUS
 10
157.0315543074
 20
30.5938003547
 11
157.0315543074
 21
31.6262383465
 12
157.320617028
 22
31.6262383465
 13
157.320617028
 23
31.6262383465
  0
SOLID
  8
0
 62
7
  6
CONTINUOUS
 10
157.320617028
 20
31.3358640533
 11
157.320617028
 21
30.5938003547
 12
157.0315543074
 22
30.5938003547
 13
157.0315543074
 23
30.5938003547
  0
SOLID
  8
0
 62
7
  6
CONTINUOUS
 10
158.361242028
 20
30.5938003547
 11
158.361242028
 21
31.2068093799
 12
158.6503040869
 22
31.2068093799
 13
158.6503040869
 23
31.2068093799
  0
SOLID
  8
0
 62
7
  6
CONTINUOUS
 10
158.6503040869
 20
31.2068093799
 11
158.6503040869
 21
30.5938003547
 12
158.361242028
 22
30.5938003547
 13
158.361242028
 23
30.5938003547
  0
SOLID
  8
0
 62
7
  6
CONTINUOUS
 10
159.4596793074
 20
31.5939739474
 11
159.8065543074
 21
31.6262381969
 12
160.1534293074
 22
31.6262381969
 13
160.1534293074
 23
31.6262381969
  0
SOLID
  8
0
 62
7
  6
CONTINUOUS
 10
160.1534293074
 20
31.6262381969
 11
160.5003043074
 21
31.5939739474
 12
159.4596793074
 22
31.5939739474
 13
159.4596793074
 23
31.5939739474
  0
SOLID
  8
0
 62
7
  6
CONTINUOUS
 10
159.228429528
 20
31.5294468402
 11
159.4596793074
 21
31.5939739474
 12
160.5003043074
 22
31.5939739474
 13
160.5003043074
 23
31.5939739474
  0
SOLID
  8
0
 62
7
  6
CONTINUOUS
 10
159.228429528
 20
31.5294468402
 11
160.5003043074
 21
31.5939739304
 12
160.6737418074
 22
31.5617111435
 13
160.6737418074
 23
31.5617111435
  0
SOLID
  8
0
 62
7
  6
CONTINUOUS
 10
159.228429528
 20
31.5294468402
 11
160.6737418074
 21
31.5617111435
 12
159.8065543074
 22
31.4971825592
 13
159.8065543074
 23
31.4971825592
  0
SOLID
  8
0
 62
7
  6
CONTINUOUS
 10
159.8065543074
 20
31.4971825592
 11
160.6737418074
 21
31.5617111435
 12
160.1534293074
 22
31.4971825592
 13
160.1534293074
 23
31.4971825592
  0
SOLID
  8
0
 62
7
  6
CONTINUOUS
 10
160.6737418074
 20
31.5617111435
 11
160.8471793074
 21
31.4971825592
 12
160.1534293074
 22
31.4971825592
 13
160.1534293074
 23
31.4971825592
  0
SOLID
  8
0
 62
7
  6
CONTINUOUS
 10
160.5003043074
 20
31.4649197501
 11
160.1534293074
 21
31.4971825592
 12
160.8471793074
 22
31.4971825592
 13
160.8471793074
 23
31.4971825592
  0
SOLID
  8
0
 62
7
  6
CONTINUOUS
 10
159.1128043074
 20
31.4326555427
 11
159.228429528
 21
31.5294468402
 12
159.8065543074
 22
31.4971825592
 13
159.8065543074
 23
31.4971825592
  0
SOLID
  8
0
 62
7
  6
CONTINUOUS
 10
160.5003043074
 20
31.4649197501
 11
160.8471793074
 21
31.4971825592
 12
160.615929528
 22
31.4326555427
 13
160.615929528
 23
31.4326555427
  0
SOLID
  8
0
 62
7
  6
CONTINUOUS
 10
160.615929528
 20
31.4326555427
 11
160.8471793074
 21
31.4971825592
 12
160.6737418074
 22
31.3681283005
 13
160.6737418074
 23
31.3681283005
  0
SOLID
  8
0
 62
7
  6
CONTINUOUS
 10
160.8471793074
 20
31.4971825592
 11
160.9628038663
 21
31.3681283005
 12
160.6737418074
 22
31.3681283005
 13
160.6737418074
 23
31.3681283005
  0
SOLID
  8
0
 62
7
  6
CONTINUOUS
 10
150.2674918074
 20
31.4649197501
 11
149.7471793074
 21
31.4326554237
 12
150.498741835
 22
31.4971824493
 13
150.498741835
 23
31.4971824493
  0
SOLID
  8
0
 62
7
  6
CONTINUOUS
 10
149.7471793074
 20
31.4326554237
 11
149.8628043005
 21
31.4971824493
 12
150.498741835
 22
31.4971824493
 13
150.498741835
 23
31.4971824493
  0
SOLID
  8
0
 62
7
  6
CONTINUOUS
 10
150.2674918074
 20
31.4649197501
 11
150.1518667936
 21
31.4326554237
 12
149.7471793074
 22
31.4326554237
 13
149.7471793074
 23
31.4326554237
  0
SOLID
  8
0
 62
7
  6
CONTINUOUS
 10
149.6315543091
 20
31.3036012664
 11
149.7471793074
 21
31.4326554237
 12
150.1518667936
 22
31.4326554237
 13
150.1518667936
 23
31.4326554237
  0
SOLID
  8
0
 62
7
  6
CONTINUOUS
 10
153.9674919177
 20
31.4326554237
 11
154.6612419177
 21
31.4971825369
 12
154.4299918074
 22
31.4649197501
 13
154.4299918074
 23
31.4649197501
  0
SOLID
  8
0
 62
7
  6
CONTINUOUS
 10
154.4299918074
 20
31.4649197501
 11
154.3143669177
 21
31.4326554237
 12
153.9674919177
 22
31.4326554237
 13
153.9674919177
 23
31.4326554237
  0
SOLID
  8
0
 62
7
  6
CONTINUOUS
 10
153.9674919177
 20
31.3681283335
 11
153.9674919177
 21
31.4326554237
 12
154.3143669177
 22
31.4326554237
 13
154.3143669177
 23
31.4326554237
  0
SOLID
  8
0
 62
7
  6
CONTINUOUS
 10
154.3143669177
 20
31.4326554237
 11
154.2565543074
 21
31.3681283335
 12
153.9674919177
 22
31.3681283335
 13
153.9674919177
 23
31.3681283335
  0
SOLID
  8
0
 62
7
  6
CONTINUOUS
 10
159.1128043074
 20
31.4326555528
 11
159.8065543074
 21
31.4971825369
 12
159.575304528
 22
31.4649197501
 13
159.575304528
 23
31.4649197501
  0
SOLID
  8
0
 62
7
  6
CONTINUOUS
 10
159.575304528
 20
31.4649197501
 11
159.4596793074
 21
31.4326555528
 12
159.1128043074
 22
31.4326555528
 13
159.1128043074
 23
31.4326555528
  0
SOLID
  8
0
 62
7
  6
CONTINUOUS
 10
159.1128043074
 20
31.3681284626
 11
159.1128043074
 21
31.4326555528
 12
159.4596793074
 22
31.4326555528
 13
159.4596793074
 23
31.4326555528
  0
SOLID
  8
0
 62
7
  6
CONTINUOUS
 10
159.4596793074
 20
31.4326555528
 11
159.401867028
 21
31.3681284626
 12
159.1128043074
 22
31.3681284626
 13
159.1128043074
 23
31.3681284626
  0
SOLID
  8
0
 62
7
  6
CONTINUOUS
 10
159.228429528
 20
31.2390741763
 11
159.1128043074
 21
31.3681284626
 12
159.401867028
 22
31.3681284626
 13
159.401867028
 23
31.3681284626
  0
SOLID
  8
0
 62
7
  6
CONTINUOUS
 10
149.6315543091
 20
31.3036012664
 11
150.1518667936
 21
31.4326554468
 12
149.9784292936
 22
31.3358640533
 13
149.9784292936
 23
31.3358640533
  0
SOLID
  8
0
 62
7
  6
CONTINUOUS
 10
149.9784292936
 20
31.3358640533
 11
149.9206168074
 21
31.2713369632
 12
149.6315543091
 22
31.3036012664
 13
149.6315543091
 23
31.3036012664
  0
SOLID
  8
0
 62
7
  6
CONTINUOUS
 10
149.5737418074
 20
31.1100184796
 11
149.6315543091
 21
31.3036012664
 12
149.9206168074
 22
31.2713369632
 13
149.9206168074
 23
31.2713369632
  0
SOLID
  8
0
 62
7
  6
CONTINUOUS
 10
154.4299918074
 20
31.2390741763
 11
154.7768668074
 21
31.271336924
 12
155.412804528
 22
31.271336924
 13
155.412804528
 23
31.271336924
  0
SOLID
  8
0
 62
7
  6
CONTINUOUS
 10
154.4299918074
 20
31.2390741763
 11
155.412804528
 21
31.271336924
 12
154.1987416972
 22
31.1745462761
 13
154.1987416972
 23
31.1745462761
  0
SOLID
  8
0
 62
7
  6
CONTINUOUS
 10
154.1987416972
 20
31.1745462761
 11
155.412804528
 21
31.271336924
 12
154.7768668074
 22
31.1422827436
 13
154.7768668074
 23
31.1422827436
  0
SOLID
  8
0
 62
7
  6
CONTINUOUS
 10
155.412804528
 20
31.271336924
 11
155.412804528
 21
31.1422827436
 12
154.7768668074
 22
31.1422827436
 13
154.7768668074
 23
31.1422827436
  0
SOLID
  8
0
 62
7
  6
CONTINUOUS
 10
159.228429528
 20
31.2390745501
 11
159.401867028
 21
31.3681283566
 12
159.4596793074
 22
31.3036012664
 13
159.4596793074
 23
31.3036012664
  0
SOLID
  8
0
 62
7
  6
CONTINUOUS
 10
159.4596793074
 20
31.3036012664
 11
159.6331168074
 21
31.2390745501
 12
159.228429528
 22
31.2390745501
 13
159.228429528
 23
31.2390745501
  0
SOLID
  8
0
 62
7
  6
CONTINUOUS
 10
159.4596793074
 20
31.1422827828
 11
159.228429528
 21
31.2390745501
 12
159.6331168074
 22
31.2390745501
 13
159.6331168074
 23
31.2390745501
  0
SOLID
  8
0
 62
7
  6
CONTINUOUS
 10
159.6331168074
 20
31.2390745501
 11
160.615929528
 21
31.0777556927
 12
159.4596793074
 22
31.1422827828
 13
159.4596793074
 23
31.1422827828
  0
SOLID
  8
0
 62
7
  6
CONTINUOUS
 10
160.442492028
 20
30.9809646623
 11
159.4596793074
 21
31.1422827828
 12
160.615929528
 22
31.0777556927
 13
160.615929528
 23
31.0777556927
  0
SOLID
  8
0
 62
7
  6
CONTINUOUS
 10
160.615929528
 20
31.0777556927
 11
160.8471793074
 21
30.9809646623
 12
160.442492028
 22
30.9809646623
 13
160.442492028
 23
30.9809646623
  0
SOLID
  8
0
 62
7
  6
CONTINUOUS
 10
160.615929528
 20
30.9164372091
 11
160.442492028
 21
30.9809646623
 12
160.8471793074
 22
30.9809646623
 13
160.8471793074
 23
30.9809646623
  0
SOLID
  8
0
 62
7
  6
CONTINUOUS
 10
160.615929528
 20
30.9164372091
 11
160.8471793074
 21
30.9809646623
 12
160.6737418074
 22
30.8519089441
 13
160.6737418074
 23
30.8519089441
  0
SOLID
  8
0
 62
7
  6
CONTINUOUS
 10
160.8471793074
 20
30.9809646623
 11
160.9628038663
 21
30.8519089441
 12
160.6737418074
 22
30.8519089441
 13
160.6737418074
 23
30.8519089441
  0
SOLID
  8
0
 62
7
  6
CONTINUOUS
 10
160.615929528
 20
30.7873818593
 11
160.6737418074
 21
30.8519089441
 12
160.9628038663
 22
30.8519089441
 13
160.9628038663
 23
30.8519089441
  0
SOLID
  8
0
 62
7
  6
CONTINUOUS
 10
160.9628038663
 20
30.8519089441
 11
160.9628038663
 21
30.7873818593
 12
160.615929528
 22
30.7873818593
 13
160.615929528
 23
30.7873818593
  0
SOLID
  8
0
 62
7
  6
CONTINUOUS
 10
160.5003043074
 20
30.7551187255
 11
160.615929528
 21
30.7873818593
 12
160.9628038663
 22
30.7873818593
 13
160.9628038663
 23
30.7873818593
  0
SOLID
  8
0
 62
7
  6
CONTINUOUS
 10
160.5003043074
 20
30.7551187255
 11
160.9628038663
 21
30.7873818593
 12
160.269054528
 22
30.7228547745
 13
160.269054528
 23
30.7228547745
  0
SOLID
  8
0
 62
7
  6
CONTINUOUS
 10
160.9628038663
 20
30.7873818593
 11
160.8471793074
 21
30.6905916353
 12
160.269054528
 22
30.7228547745
 13
160.269054528
 23
30.7228547745
  0
SOLID
  8
0
 62
7
  6
CONTINUOUS
 10
160.8471793074
 20
30.6905916353
 11
159.401867028
 21
30.658327332
 12
160.269054528
 22
30.7228547745
 13
160.269054528
 23
30.7228547745
  0
SOLID
  8
0
 62
7
  6
CONTINUOUS
 10
160.269054528
 20
30.7228547745
 11
159.401867028
 21
30.658327332
 12
159.922179528
 22
30.7228547745
 13
159.922179528
 23
30.7228547745
  0
SOLID
  8
0
 62
7
  6
CONTINUOUS
 10
159.401867028
 20
30.658327332
 11
159.228429528
 21
30.7228547745
 12
159.922179528
 22
30.7228547745
 13
159.922179528
 23
30.7228547745
  0
SOLID
  8
0
 62
7
  6
CONTINUOUS
 10
159.401867028
 20
30.658327332
 11
160.8471793074
 21
30.6905916353
 12
159.575304528
 22
30.6260629858
 13
159.575304528
 23
30.6260629858
  0
SOLID
  8
0
 62
7
  6
CONTINUOUS
 10
160.8471793074
 20
30.6905916353
 11
160.615929528
 21
30.6260629858
 12
159.575304528
 22
30.6260629858
 13
159.575304528
 23
30.6260629858
  0
SOLID
  8
0
 62
7
  6
CONTINUOUS
 10
159.922179528
 20
30.5938006049
 11
159.575304528
 21
30.6260629858
 12
160.615929528
 22
30.6260629858
 13
160.615929528
 23
30.6260629858
  0
SOLID
  8
0
 62
7
  6
CONTINUOUS
 10
160.615929528
 20
30.6260629858
 11
160.269054528
 21
30.5938006049
 12
159.922179528
 22
30.5938006049
 13
159.922179528
 23
30.5938006049
  0
SOLID
  8
0
 62
7
  6
CONTINUOUS
 10
149.5737418074
 20
31.1100184796
 11
149.9206168074
 21
31.2713369632
 12
149.8628043005
 22
31.1422827828
 13
149.8628043005
 23
31.1422827828
  0
SOLID
  8
0
 62
7
  6
CONTINUOUS
 10
149.8628043005
 20
31.1422827828
 11
149.8628043005
 21
31.0454914852
 12
149.5737418074
 22
31.1100184796
 13
149.5737418074
 23
31.1100184796
  0
SOLID
  8
0
 62
7
  6
CONTINUOUS
 10
149.6315543091
 20
30.9164372091
 11
149.5737418074
 21
31.1100184796
 12
149.8628043005
 22
31.0454914852
 13
149.8628043005
 23
31.0454914852
  0
SOLID
  8
0
 62
7
  6
CONTINUOUS
 10
149.8628043005
 20
31.0454914852
 11
149.9784292936
 21
30.8841729058
 12
149.6315543091
 22
30.9164372091
 13
149.6315543091
 23
30.9164372091
  0
SOLID
  8
0
 62
7
  6
CONTINUOUS
 10
149.7471793074
 20
30.7873813202
 11
149.6315543091
 21
30.9164372091
 12
149.9784292936
 22
30.8841729058
 13
149.9784292936
 23
30.8841729058
  0
SOLID
  8
0
 62
7
  6
CONTINUOUS
 10
149.9784292936
 20
30.8841729058
 11
150.1518667936
 21
30.7873813202
 12
149.7471793074
 22
30.7873813202
 13
149.7471793074
 23
30.7873813202
  0
SOLID
  8
0
 62
7
  6
CONTINUOUS
 10
149.8628043005
 20
30.7228547004
 11
149.7471793074
 21
30.7873813202
 12
150.1518667936
 22
30.7873813202
 13
150.1518667936
 23
30.7873813202
  0
SOLID
  8
0
 62
7
  6
CONTINUOUS
 10
150.1518667936
 20
30.7873813202
 11
150.498741835
 21
30.7228547004
 12
149.8628043005
 22
30.7228547004
 13
149.8628043005
 23
30.7228547004
  0
SOLID
  8
0
 62
7
  6
CONTINUOUS
 10
150.0362418212
 20
30.658327332
 11
149.8628043005
 21
30.7228547004
 12
150.498741835
 22
30.7228547004
 13
150.498741835
 23
30.7228547004
  0
SOLID
  8
0
 62
7
  6
CONTINUOUS
 10
154.0831168074
 20
31.1100184386
 11
154.1987416972
 21
31.1745462761
 12
154.7768668074
 22
31.1422827828
 13
154.7768668074
 23
31.1422827828
  0
SOLID
  8
0
 62
7
  6
CONTINUOUS
 10
154.7768668074
 20
31.1422827828
 11
154.5456166972
 21
31.1100184386
 12
154.0831168074
 22
31.1100184386
 13
154.0831168074
 23
31.1100184386
  0
SOLID
  8
0
 62
7
  6
CONTINUOUS
 10
153.9674919177
 20
30.9809642992
 11
154.0831168074
 21
31.1100184386
 12
154.5456166972
 22
31.1100184386
 13
154.5456166972
 23
31.1100184386
  0
SOLID
  8
0
 62
7
  6
CONTINUOUS
 10
154.3143669177
 20
31.0132277988
 11
153.9674919177
 21
30.9809642992
 12
154.4299918074
 22
31.0777556927
 13
154.4299918074
 23
31.0777556927
  0
SOLID
  8
0
 62
7
  6
CONTINUOUS
 10
153.9674919177
 20
30.9809642992
 11
154.5456166972
 21
31.1100184796
 12
154.4299918074
 22
31.0777556927
 13
154.4299918074
 23
31.0777556927
  0
SOLID
  8
0
 62
7
  6
CONTINUOUS
 10
154.3143669177
 20
31.0132277988
 11
154.2565543074
 21
30.9164372091
 12
153.9674919177
 22
30.9809642992
 13
153.9674919177
 23
30.9809642992
  0
SOLID
  8
0
 62
7
  6
CONTINUOUS
 10
153.9674919177
 20
30.8841729058
 11
153.9674919177
 21
30.9809642992
 12
154.2565543074
 22
30.9164372091
 13
154.2565543074
 23
30.9164372091
  0
SOLID
  8
0
 62
7
  6
CONTINUOUS
 10
154.2565543074
 20
30.9164372091
 11
154.2565543074
 21
30.8519086025
 12
153.9674919177
 22
30.8841729058
 13
153.9674919177
 23
30.8841729058
  0
SOLID
  8
0
 62
7
  6
CONTINUOUS
 10
154.0253041972
 20
30.7551187255
 11
153.9674919177
 21
30.8841729058
 12
154.2565543074
 22
30.8519086025
 13
154.2565543074
 23
30.8519086025
  0
SOLID
  8
0
 62
7
  6
CONTINUOUS
 10
155.412804528
 20
30.9487004259
 11
155.7018665869
 21
30.8519086025
 12
155.3549915869
 22
30.8841729058
 13
155.3549915869
 23
30.8841729058
  0
SOLID
  8
0
 62
7
  6
CONTINUOUS
 10
155.1815540869
 20
30.7873815123
 11
155.3549915869
 21
30.8841729058
 12
155.7018665869
 22
30.8519086025
 13
155.7018665869
 23
30.8519086025
  0
SOLID
  8
0
 62
7
  6
CONTINUOUS
 10
155.1815540869
 20
30.7873815123
 11
155.7018665869
 21
30.8519086025
 12
155.412804528
 22
30.7551187255
 13
155.412804528
 23
30.7551187255
  0
SOLID
  8
0
 62
7
  6
CONTINUOUS
 10
155.7018665869
 20
30.8519086025
 11
155.759679528
 21
30.6905916353
 12
155.412804528
 22
30.7551187255
 13
155.412804528
 23
30.7551187255
  0
SOLID
  8
0
 62
7
  6
CONTINUOUS
 10
155.4706168074
 20
30.658327332
 11
155.412804528
 21
30.7551187255
 12
155.759679528
 22
30.6905916353
 13
155.759679528
 23
30.6905916353
  0
SOLID
  8
0
 62
7
  6
CONTINUOUS
 10
155.4706168074
 20
30.658327332
 11
155.759679528
 21
30.6905916353
 12
155.5284290869
 22
30.5938002079
 13
155.5284290869
 23
30.5938002079
  0
SOLID
  8
0
 62
7
  6
CONTINUOUS
 10
155.759679528
 20
30.6905916353
 11
155.8174918074
 21
30.5938002079
 12
155.5284290869
 22
30.5938002079
 13
155.5284290869
 23
30.5938002079
  0
SOLID
  8
0
 62
7
  6
CONTINUOUS
 10
151.0768668626
 20
30.8196456577
 11
151.1346793074
 21
30.9164373395
 12
151.4237418626
 22
30.9164373395
 13
151.4237418626
 23
30.9164373395
  0
SOLID
  8
0
 62
7
  6
CONTINUOUS
 10
151.4237418626
 20
30.9164373395
 11
151.3659292523
 21
30.7873815123
 12
151.0768668626
 22
30.8196456577
 13
151.0768668626
 23
30.8196456577
  0
SOLID
  8
0
 62
7
  6
CONTINUOUS
 10
150.9034292799
 20
30.7551187255
 11
151.0768668626
 21
30.8196456577
 12
151.3659292523
 22
30.7873815123
 13
151.3659292523
 23
30.7873815123
  0
SOLID
  8
0
 62
7
  6
CONTINUOUS
 10
150.9034292799
 20
30.7551187255
 11
151.3659292523
 21
30.7873815123
 12
150.498741835
 22
30.7228544222
 13
150.498741835
 23
30.7228544222
  0
SOLID
  8
0
 62
7
  6
CONTINUOUS
 10
151.3659292523
 20
30.7873815123
 11
151.1924917523
 21
30.6905916353
 12
150.498741835
 22
30.7228544222
 13
150.498741835
 23
30.7228544222
  0
SOLID
  8
0
 62
7
  6
CONTINUOUS
 10
150.0362418212
 20
30.658327332
 11
150.498741835
 21
30.7228544222
 12
151.1924917523
 22
30.6905916353
 13
151.1924917523
 23
30.6905916353
  0
SOLID
  8
0
 62
7
  6
CONTINUOUS
 10
150.0362418212
 20
30.658327332
 11
151.1924917523
 21
30.6905916353
 12
150.2096793212
 22
30.6260631011
 13
150.2096793212
 23
30.6260631011
  0
SOLID
  8
0
 62
7
  6
CONTINUOUS
 10
151.1924917523
 20
30.6905916353
 11
150.9612418074
 21
30.6260631011
 12
150.2096793212
 22
30.6260631011
 13
150.2096793212
 23
30.6260631011
  0
SOLID
  8
0
 62
7
  6
CONTINUOUS
 10
150.5565542799
 20
30.5938002419
 11
150.2096793212
 21
30.6260631011
 12
150.9612418074
 22
30.6260631011
 13
150.9612418074
 23
30.6260631011
  0
SOLID
  8
0
 62
7
  6
CONTINUOUS
 10
154.0253041972
 20
30.7551187255
 11
154.2565543074
 21
30.8519086025
 12
154.3143669177
 22
30.7873815123
 13
154.3143669177
 23
30.7873815123
  0
SOLID
  8
0
 62
7
  6
CONTINUOUS
 10
154.3143669177
 20
30.7873815123
 11
154.5456166972
 21
30.7228544222
 12
154.0253041972
 22
30.7551187255
 13
154.0253041972
 23
30.7551187255
  0
SOLID
  8
0
 62
7
  6
CONTINUOUS
 10
154.1987416972
 20
30.658327332
 11
154.0253041972
 21
30.7551187255
 12
154.5456166972
 22
30.7228544222
 13
154.5456166972
 23
30.7228544222
  0
SOLID
  8
0
 62
7
  6
CONTINUOUS
 10
154.8924916972
 20
30.7228544637
 11
155.1815540869
 21
30.7873815123
 12
155.412804528
 22
30.7551187255
 13
155.412804528
 23
30.7551187255
  0
SOLID
  8
0
 62
7
  6
CONTINUOUS
 10
155.412804528
 20
30.7551187255
 11
155.3549915869
 21
30.6905916353
 12
154.8924916972
 22
30.7228544637
 13
154.8924916972
 23
30.7228544637
  0
SOLID
  8
0
 62
7
  6
CONTINUOUS
 10
155.3549915869
 20
30.6905916353
 11
154.1987416972
 21
30.658327332
 12
154.8924916972
 22
30.7228544637
 13
154.8924916972
 23
30.7228544637
  0
SOLID
  8
0
 62
7
  6
CONTINUOUS
 10
154.1987416972
 20
30.658327332
 11
154.5456166972
 21
30.7228544637
 12
154.8924916972
 22
30.7228544637
 13
154.8924916972
 23
30.7228544637
  0
SOLID
  8
0
 62
7
  6
CONTINUOUS
 10
154.1987416972
 20
30.658327332
 11
155.3549915869
 21
30.6905916353
 12
154.3143669177
 22
30.6260630541
 13
154.3143669177
 23
30.6260630541
  0
SOLID
  8
0
 62
7
  6
CONTINUOUS
 10
155.3549915869
 20
30.6905916353
 11
155.1815540869
 21
30.6260630541
 12
154.3143669177
 22
30.6260630541
 13
154.3143669177
 23
30.6260630541
  0
SOLID
  8
0
 62
7
  6
CONTINUOUS
 10
154.5456166972
 20
30.5938002188
 11
154.3143669177
 21
30.6260630541
 12
155.1815540869
 22
30.6260630541
 13
155.1815540869
 23
30.6260630541
  0
SOLID
  8
0
 62
7
  6
CONTINUOUS
 10
155.1815540869
 20
30.6260630541
 11
154.8924916972
 21
30.5938002188
 12
154.5456166972
 22
30.5938002188
 13
154.5456166972
 23
30.5938002188
  0
SOLID
  8
0
 62
7
  6
CONTINUOUS
 10
159.575304528
 20
30.7551187255
 11
159.228429528
 21
30.7228544637
 12
159.4596793074
 22
30.7873815123
 13
159.4596793074
 23
30.7873815123
  0
SOLID
  8
0
 62
7
  6
CONTINUOUS
 10
159.4596793074
 20
30.7873815123
 11
159.228429528
 21
30.7228544637
 12
159.401867028
 22
30.851908644
 13
159.401867028
 23
30.851908644
  0
SOLID
  8
0
 62
7
  6
CONTINUOUS
 10
159.228429528
 20
30.7228544637
 11
159.1128043074
 21
30.851908644
 12
159.401867028
 22
30.851908644
 13
159.401867028
 23
30.851908644
  0
SOLID
  8
0
 62
7
  6
CONTINUOUS
 10
159.575304528
 20
30.7551187255
 11
159.922179528
 21
30.7228544637
 12
159.228429528
 22
30.7228544637
 13
159.228429528
 23
30.7228544637
  0
SOLID
  8
0
 62
7
  6
CONTINUOUS
 10
156.279992028
 20
30.5938002419
 11
156.279992028
 21
31.6262382337
 12
156.5690540869
 22
30.5938002419
 13
156.5690540869
 23
31.6262382337
  0
ENDBLK
  8
0
  6
BYBLOCK
 62
0
  0
BLOCK
  8
0
 62
2
  6
CONTINUOUS
  2
SYMBOL_3_BL0
 70
64
 10
32.1213064866
 20
19.8534310916
  0
TEXT
  8
0
 62
7
  6
CONTINUOUS
 10
18.3860103289
 20
19.2268451992
  7
TEXTSTYLE_3
 40
2.7338706658
  1
Ammeraal Beltech
 41
1.0
 51
15.0
 72
0
  0
TEXT
  8
0
 62
7
  6
CONTINUOUS
 10
29.1868111546
 20
16.9533085264
  7
TEXTSTYLE_4
 40
1.0935482663
  1
Innovation & Service in Belting
 41
1.0
 72
0
  0
LINE
  8
0
 62
7
  6
CONTINUOUS
 10
12.3614696776
 20
19.9934385078
 11
13.1396216709
 21
23.6543558055
  0
LINE
  8
0
 62
7
  6
CONTINUOUS
 10
23.2347899607
 20
27.3177497171
 11
13.6274394139
 21
24.1961322958
  0
LINE
  8
0
 62
7
  6
CONTINUOUS
 10
12.5867530099
 20
19.3000877048
 11
20.093828271
 21
12.5406867788
  0
LINE
  8
0
 62
7
  6
CONTINUOUS
 10
12.8492874206
 20
20.5352149982
 11
23.6575567857
 21
24.0470345971
  0
LINE
  8
0
 62
7
  6
CONTINUOUS
 10
23.6533516486
 20
13.6972460334
 11
15.2078919798
 21
21.3015720751
  0
LINE
  8
0
 62
7
  6
CONTINUOUS
 10
24.1731743684
 20
26.4728246013
 11
23.1966148312
 21
21.8784731989
  0
LINE
  8
0
 62
7
  6
CONTINUOUS
 10
22.4968128835
 20
18.5861638851
 11
21.810364672
 21
15.3566789607
  0
LINE
  8
0
 62
7
  6
CONTINUOUS
 10
24.8542704669
 20
14.087448211
 11
25.8105020025
 21
18.5861638851
  0
LINE
  8
0
 62
7
  6
CONTINUOUS
 10
26.5103039502
 20
21.8784731989
 11
26.9545457526
 21
23.9684665583
  0
LINE
  8
0
 62
7
  6
CONTINUOUS
 10
20.8069293463
 20
12.3891124661
 11
24.3664527239
 21
13.5456717207
  0
LINE
  8
0
 62
7
  6
CONTINUOUS
 10
23.9478910361
 20
27.1661754044
 11
26.7292624203
 21
24.6618173613
  0
ARC
  8
0
 62
7
  6
CONTINUOUS
 10
13.8527227462
 20
23.5027814928
 40
0.7290321776
 50
108.0
 51
168.0
  0
ARC
  8
0
 62
7
  6
CONTINUOUS
 10
23.4600732931
 20
26.624398914
 40
0.7290321776
 50
348.0
 51
108.0
  0
ARC
  8
0
 62
7
  6
CONTINUOUS
 10
26.2414446773
 20
24.120040871
 40
0.7290321776
 50
348.0
 51
48.0
  0
ARC
  8
0
 62
7
  6
CONTINUOUS
 10
20.581646014
 20
13.0824632691
 40
0.7290321776
 50
228.0
 51
288.0
  0
ARC
  8
0
 62
7
  6
CONTINUOUS
 10
13.0745707529
 20
19.8418641951
 40
0.7290321776
 50
108.0
 51
228.0
  0
ARC
  8
0
 62
7
  6
CONTINUOUS
 10
24.1411693916
 20
14.2390225237
 40
0.7290321776
 50
228.0
 51
348.0
  0
ENDBLK
  8
0
  6
BYBLOCK
 62
0
  0
ENDSEC
  0
SECTION
  2
ENTITIES
  0
TEXT
  8
0
 62
5
  6
CONTINUOUS
 10
96.0
 20
25.636
  7
TEXTSTYLE_2
 40
2.8
  1
Scale :
 41
0.6
 51
0.000019
 72
0
  0
TEXT
  8
0
 62
5
  6
CONTINUOUS
 10
116.0
 20
25.636
  7
TEXTSTYLE_2
 40
2.8
  1
Belt type:
 41
0.6
 51
0.000019
 72
0
  0
INSERT
  8
0
 62
2
  6
CONTINUOUS
  2
SYMBOL_3_BL0
 10
32.1213064866
 20
19.8534310916
  0
INSERT
  8
0
 62
2
  6
CONTINUOUS
  2
SYMBOL_8_BL1
 10
173.5956734183
 20
35.5937998301
  0
LINE
  8
0
 62
2
  6
CONTINUOUS
 10
10.0
 20
30.0
 11
200.0
 21
30.0
  0
LINE
  8
0
 62
2
  6
CONTINUOUS
 10
10.0
 20
30.0
 11
10.0
 21
10.0
  0
LINE
  8
0
 62
2
  6
CONTINUOUS
 10
10.0
 20
10.0
 11
200.0
 21
10.0
  0
LINE
  8
0
 62
2
  6
CONTINUOUS
 10
95.0
 20
30.0
 11
95.0
 21
10.0
  0
LINE
  8
0
 62
2
  6
CONTINUOUS
 10
115.0
 20
30.0
 11
115.0
 21
10.0
  0
LINE
  8
0
 62
2
  6
CONTINUOUS
 10
200.0
 20
30.0
 11
200.0
 21
10.0
  0
TEXT
  8
0
 62
5
  6
CONTINUOUS
 10
13.0
 20
23.303
  7
TEXTSTYLE_5
 40
1.52
  1
                                                                     Ammeraal Beltech Modular A/S
 41
1.0
 72
0
  0
TEXT
  8
0
 62
5
  6
CONTINUOUS
 10
13.0
 20
20.595
  7
TEXTSTYLE_5
 40
1.5
  1
                                                                      Hjulmagervej 21,  7100 Vejle,  DK
 41
1.0
 72
0
  0
TEXT
  8
0
 62
5
  6
CONTINUOUS
 10
13.0
 20
17.881
  7
TEXTSTYLE_5
 40
1.495
  1
                                                                      tel: 
 41
1.0
 72
0
  0
TEXT
  8
0
 62
5
  6
CONTINUOUS
 10
57.9869465649
 20
17.881
  7
TEXTSTYLE_5
 40
1.51
  1
+45 75723100     fax: +45 75723348
 41
1.0
 72
0
  0
TEXT
  8
0
 62
5
  6
CONTINUOUS
 10
13.0
 20
15.177
  7
TEXTSTYLE_5
 40
1.5
  1
                                                                      admin@unichains.dk  www.unichains.com
 41
1.0
 72
0
  0
TEXT
  8
0
 62
5
  6
CONTINUOUS
 10
99.75
 20
13.75
  7
TEXTSTYLE_6
 40
5.0
  1
1:1
 41
0.7
 72
1
 11
105.0
 21
13.75
  0
TEXT
  8
0
 62
5
  6
CONTINUOUS
 10
118.0
 20
13.75
  7
TEXTSTYLE_7
 40
7.5
  1
uni SNB M2 34% TAB K325
 41
0.4542572464
 72
0
  0
LINE
  8
0
 62
7
  6
CONTINUOUS
 10
210.0
 20
0.0
 11
0.0
 21
0.0
  0
LINE
  8
0
 62
7
  6
CONTINUOUS
 10
10.0
 20
10.0
 11
200.0
 21
10.0
  0
LINE
  8
0
 62
7
  6
CONTINUOUS
 10
10.0
 20
30.0
 11
200.0
 21
30.0
  0
LINE
  8
0
 62
7
  6
CONTINUOUS
 10
0.0
 20
0.0
 11
0.0
 21
297.0
  0
LINE
  8
0
 62
7
  6
CONTINUOUS
 10
10.0
 20
10.0
 11
10.0
 21
287.0
  0
LINE
  8
0
 62
7
  6
CONTINUOUS
 10
200.0
 20
287.0
 11
200.0
 21
10.0
  0
LINE
  8
0
 62
7
  6
CONTINUOUS
 10
210.0
 20
0.0
 11
210.0
 21
297.0
  0
LINE
  8
0
 62
7
  6
CONTINUOUS
 10
10.0
 20
287.0
 11
200.0
 21
287.0
  0
LINE
  8
0
 62
7
  6
CONTINUOUS
 10
0.0
 20
297.0
 11
210.0
 21
297.0
  0
LINE
  8
CURVE
 62
7
  6
CONTINUOUS
 10
33.9377440867
 20
228.2304398795
 11
33.9377440867
 21
221.1304398795
  0
LINE
  8
CURVE
 62
7
  6
CONTINUOUS
 10
39.7577442817
 20
224.2804431377
 11
39.7577442817
 21
225.0804366212
  0
LINE
  8
CURVE
 62
7
  6
CONTINUOUS
 10
40.4577440867
 20
221.1304398795
 11
40.4577440867
 21
228.2304398795
  0
LINE
  8
CURVE
 62
7
  6
CONTINUOUS
 10
45.6027440867
 20
220.8804398795
 11
45.6027440867
 21
228.4804398795
  0
LINE
  8
CURVE
 62
7
  6
CONTINUOUS
 10
46.4577440867
 20
221.1304398795
 11
46.4577440867
 21
228.2304398795
  0
LINE
  8
CURVE
 62
7
  6
CONTINUOUS
 10
53.1577440867
 20
228.2304398795
 11
53.1577440867
 21
221.1304398795
  0
LINE
  8
CURVE
 62
7
  6
CONTINUOUS
 10
53.8577440867
 20
220.3700415541
 11
53.8577440867
 21
213.7804398795
  0
LINE
  8
CURVE
 62
7
  6
CONTINUOUS
 10
53.8437018131
 20
220.085671585
 11
53.847801175
 21
220.0696027873
  0
LINE
  8
CURVE
 62
7
  6
CONTINUOUS
 10
58.4577440867
 20
220.3700415541
 11
58.4577440867
 21
213.7804398795
  0
LINE
  8
CURVE
 62
7
  6
CONTINUOUS
 10
59.1577440867
 20
221.1304398795
 11
59.1577440867
 21
228.2304398795
  0
LINE
  8
CURVE
 62
7
  6
CONTINUOUS
 10
58.4676851819
 20
220.0696105371
 11
58.471711237
 21
220.085437456
  0
POLYLINE
  8
CURVE
 62
7
  6
CONTINUOUS
 66
1
 70
0
  0
VERTEX
  8
CURVE
 62
7
  6
CONTINUOUS
 10
58.471711237
 20
220.085437456
  0
VERTEX
  8
CURVE
 62
7
  6
CONTINUOUS
 10
58.4845432251
 20
220.1184523069
  0
VERTEX
  8
CURVE
 62
7
  6
CONTINUOUS
 10
58.5009785798
 20
220.1491728036
  0
VERTEX
  8
CURVE
 62
7
  6
CONTINUOUS
 10
58.5203676472
 20
220.1769352298
  0
VERTEX
  8
CURVE
 62
7
  6
CONTINUOUS
 10
58.5419002441
 20
220.2012538734
  0
VERTEX
  8
CURVE
 62
7
  6
CONTINUOUS
 10
58.564721273
 20
220.2218988212
  0
VERTEX
  8
CURVE
 62
7
  6
CONTINUOUS
 10
58.588135123
 20
220.2389510511
  0
VERTEX
  8
CURVE
 62
7
  6
CONTINUOUS
 10
58.6115173286
 20
220.2525977555
  0
VERTEX
  8
CURVE
 62
7
  6
CONTINUOUS
 10
58.6342842549
 20
220.2630872723
  0
VERTEX
  8
CURVE
 62
7
  6
CONTINUOUS
 10
58.6558947605
 20
220.2707231149
  0
VERTEX
  8
CURVE
 62
7
  6
CONTINUOUS
 10
58.6759171731
 20
220.2758714499
  0
VERTEX
  8
CURVE
 62
7
  6
CONTINUOUS
 10
58.6939288845
 20
220.2789142902
  0
VERTEX
  8
CURVE
 62
7
  6
CONTINUOUS
 10
58.7095363231
 20
220.2802623074
  0
VERTEX
  8
CURVE
 62
7
  6
CONTINUOUS
 10
58.7172549307
 20
220.2804398797
  0
SEQEND
  0
LINE
  8
CURVE
 62
7
  6
CONTINUOUS
 10
65.8577440867
 20
228.2304398795
 11
65.8577440867
 21
221.1304398795
  0
LINE
  8
CURVE
 62
7
  6
CONTINUOUS
 10
71.8577440867
 20
221.1304398795
 11
71.8577440867
 21
228.2304398795
  0
LINE
  8
CURVE
 62
7
  6
CONTINUOUS
 10
72.5577438918
 20
224.2804431377
 11
72.5577438918
 21
225.0804366212
  0
LINE
  8
CURVE
 62
2
  6
CENTER
 10
75.2077440867
 20
210.7804394949
 11
75.2077440867
 21
231.7055674734
  0
LINE
  8
0
 62
7
  6
CONTINUOUS
 10
77.8577442817
 20
224.2804431377
 11
77.8577442817
 21
225.0804366212
  0
LINE
  8
0
 62
7
  6
CONTINUOUS
 10
78.5577440867
 20
221.1304398795
 11
78.5577440867
 21
228.2304398795
  0
POLYLINE
  8
CURVE
 62
7
  6
CONTINUOUS
 66
1
 70
0
  0
VERTEX
  8
CURVE
 62
7
  6
CONTINUOUS
 10
57.7186867153
 20
229.0060837053
  0
VERTEX
  8
CURVE
 62
7
  6
CONTINUOUS
 10
57.5321633137
 20
228.9525830283
  0
VERTEX
  8
CURVE
 62
7
  6
CONTINUOUS
 10
57.474968871
 20
228.9365783103
  0
VERTEX
  8
CURVE
 62
7
  6
CONTINUOUS
 10
57.4129566808
 20
228.9197294675
  0
VERTEX
  8
CURVE
 62
7
  6
CONTINUOUS
 10
57.3459637328
 20
228.9022526997
  0
VERTEX
  8
CURVE
 62
7
  6
CONTINUOUS
 10
57.2730689265
 20
228.8842317901
  0
VERTEX
  8
CURVE
 62
7
  6
CONTINUOUS
 10
57.19243514
 20
228.8656578319
  0
VERTEX
  8
CURVE
 62
7
  6
CONTINUOUS
 10
57.1019131452
 20
228.8466809078
  0
VERTEX
  8
CURVE
 62
7
  6
CONTINUOUS
 10
57.0014690118
 20
228.8281425492
  0
VERTEX
  8
CURVE
 62
7
  6
CONTINUOUS
 10
56.9017388551
 20
228.812541073
  0
VERTEX
  8
CURVE
 62
7
  6
CONTINUOUS
 10
56.8054482964
 20
228.8002764647
  0
VERTEX
  8
CURVE
 62
7
  6
CONTINUOUS
 10
56.7119478924
 20
228.7911075202
  0
VERTEX
  8
CURVE
 62
7
  6
CONTINUOUS
 10
56.6203321142
 20
228.7848207595
  0
VERTEX
  8
CURVE
 62
7
  6
CONTINUOUS
 10
56.5295717716
 20
228.7812789568
  0
VERTEX
  8
CURVE
 62
7
  6
CONTINUOUS
 10
56.4562030924
 20
228.780391966
  0
SEQEND
  0
LINE
  8
CURVE
 62
7
  6
CONTINUOUS
 10
46.0302440867
 20
228.9679991991
 11
45.9980710739
 21
228.9873855233
  0
LINE
  8
0
 62
7
  6
CONTINUOUS
 10
84.5577440867
 20
228.2304398795
 11
84.5577440867
 21
221.1304398795
  0
POLYLINE
  8
0
 62
7
  6
CONTINUOUS
 66
1
 70
0
  0
VERTEX
  8
0
 62
7
  6
CONTINUOUS
 10
95.8202784253
 20
229.0065350218
  0
VERTEX
  8
0
 62
7
  6
CONTINUOUS
 10
95.6341135231
 20
228.9531351902
  0
VERTEX
  8
0
 62
7
  6
CONTINUOUS
 10
95.5770226415
 20
228.937145979
  0
VERTEX
  8
0
 62
7
  6
CONTINUOUS
 10
95.5151162003
 20
228.9203060974
  0
VERTEX
  8
0
 62
7
  6
CONTINUOUS
 10
95.4482245233
 20
228.9028288308
  0
VERTEX
  8
0
 62
7
  6
CONTINUOUS
 10
95.3754488781
 20
228.8848023625
  0
VERTEX
  8
0
 62
7
  6
CONTINUOUS
 10
95.294974346
 20
228.8662195687
  0
VERTEX
  8
0
 62
7
  6
CONTINUOUS
 10
95.2046677749
 20
228.8472275805
  0
VERTEX
  8
0
 62
7
  6
CONTINUOUS
 10
95.1042211404
 20
228.828613562
  0
VERTEX
  8
0
 62
7
  6
CONTINUOUS
 10
95.0040510549
 20
228.8128699417
  0
VERTEX
  8
0
 62
7
  6
CONTINUOUS
 10
94.9075180514
 20
228.8005103297
  0
VERTEX
  8
0
 62
7
  6
CONTINUOUS
 10
94.8139088301
 20
228.7912714775
  0
VERTEX
  8
0
 62
7
  6
CONTINUOUS
 10
94.7222233231
 20
228.7849230665
  0
VERTEX
  8
0
 62
7
  6
CONTINUOUS
 10
94.6313319984
 20
228.7813219262
  0
VERTEX
  8
0
 62
7
  6
CONTINUOUS
 10
94.556203088
 20
228.7803918691
  0
SEQEND
  0
LINE
  8
0
 62
7
  6
CONTINUOUS
 10
91.2577440867
 20
221.1304398795
 11
91.2577440867
 21
228.2304398795
  0
LINE
  8
0
 62
7
  6
CONTINUOUS
 10
91.9577440867
 20
213.7804398795
 11
91.9577440867
 21
220.3700415541
  0
LINE
  8
0
 62
7
  6
CONTINUOUS
 10
104.4174170996
 20
228.9873855233
 11
104.3852440867
 21
228.9679991991
  0
LINE
  8
CURVE
 62
7
  6
CONTINUOUS
 10
57.4577440867
 20
212.7804398795
 11
54.8577440867
 21
212.7804398795
  0
LINE
  8
0
 62
7
  6
CONTINUOUS
 10
92.9577440867
 20
212.7804398795
 11
95.5577440867
 21
212.7804398795
  0
LINE
  8
CURVE
 62
7
  6
CONTINUOUS
 10
34.0823109002
 20
220.6562415882
 11
38.3777454063
 21
220.280439764
  0
POLYLINE
  8
CURVE
 62
7
  6
CONTINUOUS
 66
1
 70
0
  0
VERTEX
  8
CURVE
 62
7
  6
CONTINUOUS
 10
70.3499156712
 20
220.3320147737
  0
VERTEX
  8
CURVE
 62
7
  6
CONTINUOUS
 10
70.3878018019
 20
220.323127895
  0
VERTEX
  8
CURVE
 62
7
  6
CONTINUOUS
 10
70.4228615029
 20
220.3151875335
  0
VERTEX
  8
CURVE
 62
7
  6
CONTINUOUS
 10
70.4557418365
 20
220.3081097852
  0
VERTEX
  8
CURVE
 62
7
  6
CONTINUOUS
 10
70.4873125928
 20
220.3017724366
  0
VERTEX
  8
CURVE
 62
7
  6
CONTINUOUS
 10
70.5182530226
 20
220.2961283824
  0
VERTEX
  8
CURVE
 62
7
  6
CONTINUOUS
 10
70.5491042747
 20
220.2911876804
  0
VERTEX
  8
CURVE
 62
7
  6
CONTINUOUS
 10
70.5805682874
 20
220.286986307
  0
VERTEX
  8
CURVE
 62
7
  6
CONTINUOUS
 10
70.6128188033
 20
220.2836808076
  0
VERTEX
  8
CURVE
 62
7
  6
CONTINUOUS
 10
70.6459459407
 20
220.2814464698
  0
VERTEX
  8
CURVE
 62
7
  6
CONTINUOUS
 10
70.6797981481
 20
220.2804700707
  0
VERTEX
  8
CURVE
 62
7
  6
CONTINUOUS
 10
70.6866645354
 20
220.2804400615
  0
SEQEND
  0
POLYLINE
  8
0
 62
7
  6
CONTINUOUS
 66
1
 70
0
  0
VERTEX
  8
0
 62
7
  6
CONTINUOUS
 10
83.0484925492
 20
220.3323530323
  0
VERTEX
  8
0
 62
7
  6
CONTINUOUS
 10
83.0864535976
 20
220.3234395005
  0
VERTEX
  8
0
 62
7
  6
CONTINUOUS
 10
83.1215637694
 20
220.3154750629
  0
VERTEX
  8
0
 62
7
  6
CONTINUOUS
 10
83.1544598313
 20
220.3083775133
  0
VERTEX
  8
0
 62
7
  6
CONTINUOUS
 10
83.1860020335
 20
220.3020248178
  0
VERTEX
  8
0
 62
7
  6
CONTINUOUS
 10
83.2168712459
 20
220.2963666994
  0
VERTEX
  8
0
 62
7
  6
CONTINUOUS
 10
83.2476036863
 20
220.2914101861
  0
VERTEX
  8
0
 62
7
  6
CONTINUOUS
 10
83.2789065433
 20
220.28718504
  0
VERTEX
  8
0
 62
7
  6
CONTINUOUS
 10
83.3109718169
 20
220.2838409433
  0
VERTEX
  8
0
 62
7
  6
CONTINUOUS
 10
83.3438972409
 20
220.2815487977
  0
VERTEX
  8
0
 62
7
  6
CONTINUOUS
 10
83.377558618
 20
220.2804923113
  0
VERTEX
  8
0
 62
7
  6
CONTINUOUS
 10
83.3866528628
 20
220.2804400661
  0
SEQEND
  0
LINE
  8
CURVE
 62
7
  6
CONTINUOUS
 10
70.1605683945
 20
220.377528048
 11
70.3499156712
 21
220.3320147737
  0
LINE
  8
0
 62
7
  6
CONTINUOUS
 10
82.8587587961
 20
220.3779549345
 11
83.0484925492
 21
220.3323530323
  0
POLYLINE
  8
CURVE
 62
7
  6
CONTINUOUS
 66
1
 70
0
  0
VERTEX
  8
CURVE
 62
7
  6
CONTINUOUS
 10
54.5949612884
 20
229.0066054381
  0
VERTEX
  8
CURVE
 62
7
  6
CONTINUOUS
 10
54.5563512027
 20
229.0174265288
  0
VERTEX
  8
CURVE
 62
7
  6
CONTINUOUS
 10
54.5196186631
 20
229.0274184484
  0
VERTEX
  8
CURVE
 62
7
  6
CONTINUOUS
 10
54.4841528663
 20
229.0366576258
  0
VERTEX
  8
CURVE
 62
7
  6
CONTINUOUS
 10
54.4494678438
 20
229.0451753444
  0
VERTEX
  8
CURVE
 62
7
  6
CONTINUOUS
 10
54.4146832963
 20
229.0530632485
  0
VERTEX
  8
CURVE
 62
7
  6
CONTINUOUS
 10
54.3793842146
 20
229.0602555859
  0
VERTEX
  8
CURVE
 62
7
  6
CONTINUOUS
 10
54.343437084
 20
229.0666056959
  0
VERTEX
  8
CURVE
 62
7
  6
CONTINUOUS
 10
54.3069983629
 20
229.0719181879
  0
VERTEX
  8
CURVE
 62
7
  6
CONTINUOUS
 10
54.2697814393
 20
229.0760779934
  0
VERTEX
  8
CURVE
 62
7
  6
CONTINUOUS
 10
54.2307300131
 20
229.0789873223
  0
VERTEX
  8
CURVE
 62
7
  6
CONTINUOUS
 10
54.1886539451
 20
229.0803808925
  0
VERTEX
  8
CURVE
 62
7
  6
CONTINUOUS
 10
54.1781122978
 20
229.0804396965
  0
SEQEND
  0
POLYLINE
  8
CURVE
 62
7
  6
CONTINUOUS
 66
1
 70
0
  0
VERTEX
  8
CURVE
 62
7
  6
CONTINUOUS
 10
54.7812651596
 20
228.9531662011
  0
VERTEX
  8
CURVE
 62
7
  6
CONTINUOUS
 10
54.6804938176
 20
228.9820605516
  0
VERTEX
  8
CURVE
 62
7
  6
CONTINUOUS
 10
54.5949612884
 20
229.0066054381
  0
SEQEND
  0
LINE
  8
0
 62
7
  6
CONTINUOUS
 10
91.9434560637
 20
220.0864328114
 11
91.9478117906
 21
220.0695733034
  0
LINE
  8
0
 62
7
  6
CONTINUOUS
 10
96.5577440867
 20
220.3700415541
 11
96.5577440867
 21
213.7804398795
  0
LINE
  8
0
 62
7
  6
CONTINUOUS
 10
97.2577440867
 20
228.2304398795
 11
97.2577440867
 21
221.1304398795
  0
LINE
  8
0
 62
7
  6
CONTINUOUS
 10
96.5631634791
 20
220.052143379
 11
96.5721079992
 21
220.0866664532
  0
POLYLINE
  8
0
 62
7
  6
CONTINUOUS
 66
1
 70
0
  0
VERTEX
  8
0
 62
7
  6
CONTINUOUS
 10
96.5721079992
 20
220.0866664532
  0
VERTEX
  8
0
 62
7
  6
CONTINUOUS
 10
96.5850820478
 20
220.1196161007
  0
VERTEX
  8
0
 62
7
  6
CONTINUOUS
 10
96.6016424196
 20
220.1502474284
  0
VERTEX
  8
0
 62
7
  6
CONTINUOUS
 10
96.6211308252
 20
220.1778978176
  0
VERTEX
  8
0
 62
7
  6
CONTINUOUS
 10
96.6427283392
 20
220.2020852611
  0
VERTEX
  8
0
 62
7
  6
CONTINUOUS
 10
96.6655749918
 20
220.2225879786
  0
VERTEX
  8
0
 62
7
  6
CONTINUOUS
 10
96.6889832315
 20
220.2395015202
  0
VERTEX
  8
0
 62
7
  6
CONTINUOUS
 10
96.7123418852
 20
220.2530238164
  0
VERTEX
  8
0
 62
7
  6
CONTINUOUS
 10
96.7350795112
 20
220.2634073413
  0
VERTEX
  8
0
 62
7
  6
CONTINUOUS
 10
96.7566556926
 20
220.2709523905
  0
VERTEX
  8
0
 62
7
  6
CONTINUOUS
 10
96.7766287573
 20
220.2760205212
  0
VERTEX
  8
0
 62
7
  6
CONTINUOUS
 10
96.7945689827
 20
220.2789938837
  0
VERTEX
  8
0
 62
7
  6
CONTINUOUS
 10
96.8100777134
 20
220.2802859406
  0
VERTEX
  8
0
 62
7
  6
CONTINUOUS
 10
96.8172550167
 20
220.2804398809
  0
SEQEND
  0
LINE
  8
0
 62
7
  6
CONTINUOUS
 10
112.0377427671
 20
220.280439764
 11
116.3331772732
 21
220.6562415882
  0
POLYLINE
  8
CURVE
 62
7
  6
CONTINUOUS
 66
1
 70
0
  0
VERTEX
  8
CURVE
 62
7
  6
CONTINUOUS
 10
67.0288353106
 20
220.2804400661
  0
VERTEX
  8
CURVE
 62
7
  6
CONTINUOUS
 10
67.0379295554
 20
220.2804923113
  0
VERTEX
  8
CURVE
 62
7
  6
CONTINUOUS
 10
67.0715909326
 20
220.2815487977
  0
VERTEX
  8
CURVE
 62
7
  6
CONTINUOUS
 10
67.1045163565
 20
220.2838409433
  0
VERTEX
  8
CURVE
 62
7
  6
CONTINUOUS
 10
67.1365816301
 20
220.28718504
  0
VERTEX
  8
CURVE
 62
7
  6
CONTINUOUS
 10
67.1678844871
 20
220.2914101861
  0
VERTEX
  8
CURVE
 62
7
  6
CONTINUOUS
 10
67.1986169275
 20
220.2963666994
  0
VERTEX
  8
CURVE
 62
7
  6
CONTINUOUS
 10
67.2294861399
 20
220.3020248178
  0
VERTEX
  8
CURVE
 62
7
  6
CONTINUOUS
 10
67.2610283421
 20
220.3083775133
  0
VERTEX
  8
CURVE
 62
7
  6
CONTINUOUS
 10
67.2939244041
 20
220.3154750629
  0
VERTEX
  8
CURVE
 62
7
  6
CONTINUOUS
 10
67.3290345759
 20
220.3234395005
  0
VERTEX
  8
CURVE
 62
7
  6
CONTINUOUS
 10
67.3669956242
 20
220.3323530323
  0
SEQEND
  0
POLYLINE
  8
0
 62
7
  6
CONTINUOUS
 66
1
 70
0
  0
VERTEX
  8
0
 62
7
  6
CONTINUOUS
 10
79.728823638
 20
220.2804400615
  0
VERTEX
  8
0
 62
7
  6
CONTINUOUS
 10
79.7356900254
 20
220.2804700707
  0
VERTEX
  8
0
 62
7
  6
CONTINUOUS
 10
79.7695422328
 20
220.2814464698
  0
VERTEX
  8
0
 62
7
  6
CONTINUOUS
 10
79.8026693702
 20
220.2836808076
  0
VERTEX
  8
0
 62
7
  6
CONTINUOUS
 10
79.834919886
 20
220.286986307
  0
VERTEX
  8
0
 62
7
  6
CONTINUOUS
 10
79.8663838987
 20
220.2911876804
  0
VERTEX
  8
0
 62
7
  6
CONTINUOUS
 10
79.8972351509
 20
220.2961283824
  0
VERTEX
  8
0
 62
7
  6
CONTINUOUS
 10
79.9281755807
 20
220.3017724366
  0
VERTEX
  8
0
 62
7
  6
CONTINUOUS
 10
79.959746337
 20
220.3081097852
  0
VERTEX
  8
0
 62
7
  6
CONTINUOUS
 10
79.9926266705
 20
220.3151875335
  0
VERTEX
  8
0
 62
7
  6
CONTINUOUS
 10
80.0276863715
 20
220.323127895
  0
VERTEX
  8
0
 62
7
  6
CONTINUOUS
 10
80.0655725022
 20
220.3320147737
  0
SEQEND
  0
LINE
  8
0
 62
7
  6
CONTINUOUS
 10
38.3777440867
 20
220.2804398795
 11
39.2577440867
 21
220.2804398795
  0
LINE
  8
CURVE
 62
7
  6
CONTINUOUS
 10
38.3777454164
 20
220.2804398795
 11
53.5982310739
 21
220.2804398795
  0
LINE
  8
CURVE
 62
7
  6
CONTINUOUS
 10
58.7172570995
 20
220.2804398795
 11
75.5088215648
 21
220.2804398795
  0
LINE
  8
0
 62
7
  6
CONTINUOUS
 10
75.3036532078
 20
220.2804398795
 11
91.6982310739
 21
220.2804398795
  0
LINE
  8
0
 62
7
  6
CONTINUOUS
 10
96.8172570996
 20
220.2804398795
 11
112.037742757
 21
220.2804398795
  0
LINE
  8
CURVE
 62
7
  6
CONTINUOUS
 10
67.028706467
 20
220.280439918
 11
67.0288353106
 21
220.2804399302
  0
LINE
  8
CURVE
 62
7
  6
CONTINUOUS
 10
68.5573637628
 20
220.5090169208
 11
69.15812441
 21
220.5090169208
  0
LINE
  8
0
 62
7
  6
CONTINUOUS
 10
81.2573637634
 20
220.5090169208
 11
81.8581244106
 21
220.5090169208
  0
POLYLINE
  8
0
 62
7
  6
CONTINUOUS
 66
1
 70
0
  0
VERTEX
  8
0
 62
7
  6
CONTINUOUS
 10
81.8581244106
 20
220.5090171282
  0
VERTEX
  8
0
 62
7
  6
CONTINUOUS
 10
81.9265573128
 20
220.5083513568
  0
VERTEX
  8
0
 62
7
  6
CONTINUOUS
 10
82.018877257
 20
220.5053507421
  0
VERTEX
  8
0
 62
7
  6
CONTINUOUS
 10
82.1146680244
 20
220.4997083837
  0
VERTEX
  8
0
 62
7
  6
CONTINUOUS
 10
82.2119199231
 20
220.491392271
  0
VERTEX
  8
0
 62
7
  6
CONTINUOUS
 10
82.3087086264
 20
220.4805965772
  0
VERTEX
  8
0
 62
7
  6
CONTINUOUS
 10
82.403323109
 20
220.4677034341
  0
VERTEX
  8
0
 62
7
  6
CONTINUOUS
 10
82.4942680434
 20
220.4532339716
  0
VERTEX
  8
0
 62
7
  6
CONTINUOUS
 10
82.5802543787
 20
220.4377952524
  0
VERTEX
  8
0
 62
7
  6
CONTINUOUS
 10
82.6601858029
 20
220.4220289108
  0
VERTEX
  8
0
 62
7
  6
CONTINUOUS
 10
82.7332623931
 20
220.4065390217
  0
VERTEX
  8
0
 62
7
  6
CONTINUOUS
 10
82.7992182466
 20
220.3917890577
  0
VERTEX
  8
0
 62
7
  6
CONTINUOUS
 10
82.8587587961
 20
220.3779549345
  0
SEQEND
  0
POLYLINE
  8
CURVE
 62
7
  6
CONTINUOUS
 66
1
 70
0
  0
VERTEX
  8
CURVE
 62
7
  6
CONTINUOUS
 10
69.15812441
 20
220.5090170524
  0
VERTEX
  8
CURVE
 62
7
  6
CONTINUOUS
 10
69.2281361545
 20
220.5083203161
  0
VERTEX
  8
CURVE
 62
7
  6
CONTINUOUS
 10
69.3206172516
 20
220.5052711125
  0
VERTEX
  8
CURVE
 62
7
  6
CONTINUOUS
 10
69.4166291886
 20
220.4995662662
  0
VERTEX
  8
CURVE
 62
7
  6
CONTINUOUS
 10
69.5141119137
 20
220.4911752993
  0
VERTEX
  8
CURVE
 62
7
  6
CONTINUOUS
 10
69.6110926704
 20
220.4802997
  0
VERTEX
  8
CURVE
 62
7
  6
CONTINUOUS
 10
69.7058198897
 20
220.4673328357
  0
VERTEX
  8
CURVE
 62
7
  6
CONTINUOUS
 10
69.7967678601
 20
220.4528086388
  0
VERTEX
  8
CURVE
 62
7
  6
CONTINUOUS
 10
69.8826551167
 20
220.4373409146
  0
VERTEX
  8
CURVE
 62
7
  6
CONTINUOUS
 10
69.9624315992
 20
220.4215675289
  0
VERTEX
  8
CURVE
 62
7
  6
CONTINUOUS
 10
70.0353397943
 20
220.4060849503
  0
VERTEX
  8
CURVE
 62
7
  6
CONTINUOUS
 10
70.1011496709
 20
220.3913473862
  0
VERTEX
  8
CURVE
 62
7
  6
CONTINUOUS
 10
70.1605683945
 20
220.377528048
  0
SEQEND
  0
POLYLINE
  8
CURVE
 62
7
  6
CONTINUOUS
 66
1
 70
0
  0
VERTEX
  8
CURVE
 62
7
  6
CONTINUOUS
 10
53.5982331794
 20
220.2804398809
  0
VERTEX
  8
CURVE
 62
7
  6
CONTINUOUS
 10
53.6054437228
 20
220.2802845358
  0
VERTEX
  8
CURVE
 62
7
  6
CONTINUOUS
 10
53.6209968934
 20
220.2789843289
  0
VERTEX
  8
CURVE
 62
7
  6
CONTINUOUS
 10
53.6389902313
 20
220.2759932918
  0
VERTEX
  8
CURVE
 62
7
  6
CONTINUOUS
 10
53.6590229487
 20
220.2708952504
  0
VERTEX
  8
CURVE
 62
7
  6
CONTINUOUS
 10
53.68066378
 20
220.2633049943
  0
VERTEX
  8
CURVE
 62
7
  6
CONTINUOUS
 10
53.7034683947
 20
220.2528578064
  0
VERTEX
  8
CURVE
 62
7
  6
CONTINUOUS
 10
53.7268894731
 20
220.2392524835
  0
VERTEX
  8
CURVE
 62
7
  6
CONTINUOUS
 10
53.7503475277
 20
220.2222380415
  0
VERTEX
  8
CURVE
 62
7
  6
CONTINUOUS
 10
53.7732233721
 20
220.2016207215
  0
VERTEX
  8
CURVE
 62
7
  6
CONTINUOUS
 10
53.7948256544
 20
220.1773081469
  0
VERTEX
  8
CURVE
 62
7
  6
CONTINUOUS
 10
53.8142936161
 20
220.1495235773
  0
VERTEX
  8
CURVE
 62
7
  6
CONTINUOUS
 10
53.8308054354
 20
220.1187549292
  0
VERTEX
  8
CURVE
 62
7
  6
CONTINUOUS
 10
53.8437018131
 20
220.085671585
  0
SEQEND
  0
POLYLINE
  8
0
 62
7
  6
CONTINUOUS
 66
1
 70
0
  0
VERTEX
  8
0
 62
7
  6
CONTINUOUS
 10
91.6982332192
 20
220.2804398797
  0
VERTEX
  8
0
 62
7
  6
CONTINUOUS
 10
91.7059183638
 20
220.2802638164
  0
VERTEX
  8
0
 62
7
  6
CONTINUOUS
 10
91.7214812719
 20
220.2789240987
  0
VERTEX
  8
0
 62
7
  6
CONTINUOUS
 10
91.7394398898
 20
220.2758990926
  0
VERTEX
  8
0
 62
7
  6
CONTINUOUS
 10
91.7594027553
 20
220.270780812
  0
VERTEX
  8
0
 62
7
  6
CONTINUOUS
 10
91.7809488138
 20
220.2631902765
  0
VERTEX
  8
0
 62
7
  6
CONTINUOUS
 10
91.8036489187
 20
220.2527645269
  0
VERTEX
  8
0
 62
7
  6
CONTINUOUS
 10
91.8269688838
 20
220.2392009413
  0
VERTEX
  8
0
 62
7
  6
CONTINUOUS
 10
91.8503330977
 20
220.2222496901
  0
VERTEX
  8
0
 62
7
  6
CONTINUOUS
 10
91.8731250738
 20
220.2017194105
  0
VERTEX
  8
0
 62
7
  6
CONTINUOUS
 10
91.894652935
 20
220.177525996
  0
VERTEX
  8
0
 62
7
  6
CONTINUOUS
 10
91.9140625209
 20
220.1498976741
  0
VERTEX
  8
0
 62
7
  6
CONTINUOUS
 10
91.930546464
 20
220.1193142763
  0
VERTEX
  8
0
 62
7
  6
CONTINUOUS
 10
91.9434560637
 20
220.0864328114
  0
SEQEND
  0
LINE
  8
CURVE
 62
7
  6
CONTINUOUS
 10
67.5549521719
 20
228.9833440642
 11
67.365589086
 21
229.0288610232
  0
LINE
  8
0
 62
7
  6
CONTINUOUS
 10
103.9577440867
 20
221.1304398795
 11
103.9577440867
 21
228.2304398795
  0
POLYLINE
  8
0
 62
7
  6
CONTINUOUS
 66
1
 70
0
  0
VERTEX
  8
0
 62
7
  6
CONTINUOUS
 10
80.0655725022
 20
220.3320147737
  0
VERTEX
  8
0
 62
7
  6
CONTINUOUS
 10
80.254919779
 20
220.377528048
  0
VERTEX
  8
0
 62
7
  6
CONTINUOUS
 10
80.3143385026
 20
220.3913473862
  0
VERTEX
  8
0
 62
7
  6
CONTINUOUS
 10
80.3801483791
 20
220.4060849503
  0
VERTEX
  8
0
 62
7
  6
CONTINUOUS
 10
80.4530565742
 20
220.4215675289
  0
VERTEX
  8
0
 62
7
  6
CONTINUOUS
 10
80.5328330567
 20
220.4373409146
  0
VERTEX
  8
0
 62
7
  6
CONTINUOUS
 10
80.6187203133
 20
220.4528086388
  0
VERTEX
  8
0
 62
7
  6
CONTINUOUS
 10
80.7096682838
 20
220.4673328357
  0
VERTEX
  8
0
 62
7
  6
CONTINUOUS
 10
80.804395503
 20
220.4802997
  0
VERTEX
  8
0
 62
7
  6
CONTINUOUS
 10
80.9013762598
 20
220.4911752993
  0
VERTEX
  8
0
 62
7
  6
CONTINUOUS
 10
80.9988589848
 20
220.4995662662
  0
VERTEX
  8
0
 62
7
  6
CONTINUOUS
 10
81.0948709218
 20
220.5052711125
  0
VERTEX
  8
0
 62
7
  6
CONTINUOUS
 10
81.1873520189
 20
220.5083203161
  0
VERTEX
  8
0
 62
7
  6
CONTINUOUS
 10
81.2573637634
 20
220.5090170524
  0
SEQEND
  0
LINE
  8
DEFAULT_1
 62
2
  6
CENTER
 10
121.4097374179
 20
224.6804398795
 11
30.75
 21
224.6804398795
  0
POLYLINE
  8
CURVE
 62
7
  6
CONTINUOUS
 66
1
 70
0
  0
VERTEX
  8
CURVE
 62
7
  6
CONTINUOUS
 10
67.365589086
 20
229.0288610232
  0
VERTEX
  8
CURVE
 62
7
  6
CONTINUOUS
 10
67.3277005604
 20
229.0377485947
  0
VERTEX
  8
CURVE
 62
7
  6
CONTINUOUS
 10
67.2926367082
 20
229.0456899793
  0
VERTEX
  8
CURVE
 62
7
  6
CONTINUOUS
 10
67.2597560667
 20
229.0527679334
  0
VERTEX
  8
CURVE
 62
7
  6
CONTINUOUS
 10
67.2281824114
 20
229.0591060114
  0
VERTEX
  8
CURVE
 62
7
  6
CONTINUOUS
 10
67.1972421069
 20
229.0647501635
  0
VERTEX
  8
CURVE
 62
7
  6
CONTINUOUS
 10
67.1663912151
 20
229.06969099
  0
VERTEX
  8
CURVE
 62
7
  6
CONTINUOUS
 10
67.1349267491
 20
229.0738926409
  0
VERTEX
  8
CURVE
 62
7
  6
CONTINUOUS
 10
67.1026750431
 20
229.0771984443
  0
VERTEX
  8
CURVE
 62
7
  6
CONTINUOUS
 10
67.0695489263
 20
229.0794329163
  0
VERTEX
  8
CURVE
 62
7
  6
CONTINUOUS
 10
67.0356989493
 20
229.0804095752
  0
VERTEX
  8
CURVE
 62
7
  6
CONTINUOUS
 10
67.0288286843
 20
229.0804396675
  0
SEQEND
  0
POLYLINE
  8
0
 62
7
  6
CONTINUOUS
 66
1
 70
0
  0
VERTEX
  8
0
 62
7
  6
CONTINUOUS
 10
80.0670732312
 20
229.0285083089
  0
VERTEX
  8
0
 62
7
  6
CONTINUOUS
 10
80.0290959957
 20
229.0374260292
  0
VERTEX
  8
0
 62
7
  6
CONTINUOUS
 10
79.9939771801
 20
229.0453930409
  0
VERTEX
  8
0
 62
7
  6
CONTINUOUS
 10
79.961067856
 20
229.0524939801
  0
VERTEX
  8
0
 62
7
  6
CONTINUOUS
 10
79.9295247539
 20
229.0588474749
  0
VERTEX
  8
0
 62
7
  6
CONTINUOUS
 10
79.8986455589
 20
229.0645081382
  0
VERTEX
  8
0
 62
7
  6
CONTINUOUS
 10
79.8679100782
 20
229.0694657349
  0
VERTEX
  8
0
 62
7
  6
CONTINUOUS
 10
79.836608615
 20
229.0736915101
  0
VERTEX
  8
0
 62
7
  6
CONTINUOUS
 10
79.8045345169
 20
229.0770372778
  0
VERTEX
  8
0
 62
7
  6
CONTINUOUS
 10
79.7716046311
 20
229.0793302597
  0
VERTEX
  8
0
 62
7
  6
CONTINUOUS
 10
79.7379417139
 20
229.0803872823
  0
VERTEX
  8
0
 62
7
  6
CONTINUOUS
 10
79.7288381807
 20
229.0804396681
  0
SEQEND
  0
LINE
  8
0
 62
7
  6
CONTINUOUS
 10
80.2568788499
 20
228.9828895818
 11
80.0670732312
 21
229.0285083089
  0
LINE
  8
0
 62
7
  6
CONTINUOUS
 10
104.8127440867
 20
220.8804398795
 11
104.8127440867
 21
228.4804398795
  0
POLYLINE
  8
CURVE
 62
7
  6
CONTINUOUS
 66
1
 70
0
  0
VERTEX
  8
CURVE
 62
7
  6
CONTINUOUS
 10
67.3669956242
 20
220.3323530323
  0
VERTEX
  8
CURVE
 62
7
  6
CONTINUOUS
 10
67.5567293774
 20
220.3779549345
  0
VERTEX
  8
CURVE
 62
7
  6
CONTINUOUS
 10
67.6162699269
 20
220.3917890577
  0
VERTEX
  8
CURVE
 62
7
  6
CONTINUOUS
 10
67.6822257803
 20
220.4065390217
  0
VERTEX
  8
CURVE
 62
7
  6
CONTINUOUS
 10
67.7553023705
 20
220.4220289108
  0
VERTEX
  8
CURVE
 62
7
  6
CONTINUOUS
 10
67.8352337947
 20
220.4377952524
  0
VERTEX
  8
CURVE
 62
7
  6
CONTINUOUS
 10
67.92122013
 20
220.4532339716
  0
VERTEX
  8
CURVE
 62
7
  6
CONTINUOUS
 10
68.0121650645
 20
220.4677034341
  0
VERTEX
  8
CURVE
 62
7
  6
CONTINUOUS
 10
68.106779547
 20
220.4805965772
  0
VERTEX
  8
CURVE
 62
7
  6
CONTINUOUS
 10
68.2035682503
 20
220.491392271
  0
VERTEX
  8
CURVE
 62
7
  6
CONTINUOUS
 10
68.300820149
 20
220.4997083837
  0
VERTEX
  8
CURVE
 62
7
  6
CONTINUOUS
 10
68.3966109165
 20
220.5053507421
  0
VERTEX
  8
CURVE
 62
7
  6
CONTINUOUS
 10
68.4889308607
 20
220.5083513568
  0
VERTEX
  8
CURVE
 62
7
  6
CONTINUOUS
 10
68.5573637628
 20
220.5090171282
  0
SEQEND
  0
POLYLINE
  8
CURVE
 62
7
  6
CONTINUOUS
 66
1
 70
0
  0
VERTEX
  8
CURVE
 62
7
  6
CONTINUOUS
 10
58.1373754825
 20
229.0804396981
  0
VERTEX
  8
CURVE
 62
7
  6
CONTINUOUS
 10
58.1240442616
 20
229.0803456737
  0
VERTEX
  8
CURVE
 62
7
  6
CONTINUOUS
 10
58.082254075
 20
229.078846823
  0
VERTEX
  8
CURVE
 62
7
  6
CONTINUOUS
 10
58.0434022573
 20
229.075859079
  0
VERTEX
  8
CURVE
 62
7
  6
CONTINUOUS
 10
58.0063076971
 20
229.0716338031
  0
VERTEX
  8
CURVE
 62
7
  6
CONTINUOUS
 10
57.9699459919
 20
229.0662631312
  0
VERTEX
  8
CURVE
 62
7
  6
CONTINUOUS
 10
57.9340861546
 20
229.0598688143
  0
VERTEX
  8
CURVE
 62
7
  6
CONTINUOUS
 10
57.8988706001
 20
229.0526442908
  0
VERTEX
  8
CURVE
 62
7
  6
CONTINUOUS
 10
57.8641657209
 20
229.0447350846
  0
VERTEX
  8
CURVE
 62
7
  6
CONTINUOUS
 10
57.8295226919
 20
229.0361972977
  0
VERTEX
  8
CURVE
 62
7
  6
CONTINUOUS
 10
57.794063529
 20
229.026936063
  0
VERTEX
  8
CURVE
 62
7
  6
CONTINUOUS
 10
57.7573287912
 20
229.0169260315
  0
VERTEX
  8
CURVE
 62
7
  6
CONTINUOUS
 10
57.7186867153
 20
229.0060837053
  0
SEQEND
  0
POLYLINE
  8
CURVE
 62
7
  6
CONTINUOUS
 66
1
 70
0
  0
VERTEX
  8
CURVE
 62
7
  6
CONTINUOUS
 10
70.6866499928
 20
229.0804396681
  0
VERTEX
  8
CURVE
 62
7
  6
CONTINUOUS
 10
70.6775464596
 20
229.0803872823
  0
VERTEX
  8
CURVE
 62
7
  6
CONTINUOUS
 10
70.6438835424
 20
229.0793302597
  0
VERTEX
  8
CURVE
 62
7
  6
CONTINUOUS
 10
70.6109536565
 20
229.0770372778
  0
VERTEX
  8
CURVE
 62
7
  6
CONTINUOUS
 10
70.5788795584
 20
229.0736915101
  0
VERTEX
  8
CURVE
 62
7
  6
CONTINUOUS
 10
70.5475780953
 20
229.0694657349
  0
VERTEX
  8
CURVE
 62
7
  6
CONTINUOUS
 10
70.5168426145
 20
229.0645081382
  0
VERTEX
  8
CURVE
 62
7
  6
CONTINUOUS
 10
70.4859634195
 20
229.0588474749
  0
VERTEX
  8
CURVE
 62
7
  6
CONTINUOUS
 10
70.4544203174
 20
229.0524939801
  0
VERTEX
  8
CURVE
 62
7
  6
CONTINUOUS
 10
70.4215109934
 20
229.0453930409
  0
VERTEX
  8
CURVE
 62
7
  6
CONTINUOUS
 10
70.3863921778
 20
229.0374260292
  0
VERTEX
  8
CURVE
 62
7
  6
CONTINUOUS
 10
70.3484149422
 20
229.0285083089
  0
SEQEND
  0
POLYLINE
  8
0
 62
7
  6
CONTINUOUS
 66
1
 70
0
  0
VERTEX
  8
0
 62
7
  6
CONTINUOUS
 10
96.2373757643
 20
229.0804396965
  0
VERTEX
  8
0
 62
7
  6
CONTINUOUS
 10
96.226770805
 20
229.0803801829
  0
VERTEX
  8
0
 62
7
  6
CONTINUOUS
 10
96.1846821344
 20
229.0789831501
  0
VERTEX
  8
0
 62
7
  6
CONTINUOUS
 10
96.1456283723
 20
229.0760706334
  0
VERTEX
  8
0
 62
7
  6
CONTINUOUS
 10
96.1083846357
 20
229.0719045805
  0
VERTEX
  8
0
 62
7
  6
CONTINUOUS
 10
96.0718745285
 20
229.06657711
  0
VERTEX
  8
0
 62
7
  6
CONTINUOUS
 10
96.0358580106
 20
229.0602086068
  0
VERTEX
  8
0
 62
7
  6
CONTINUOUS
 10
96.0005243558
 20
229.0530026372
  0
VERTEX
  8
0
 62
7
  6
CONTINUOUS
 10
95.9657326643
 20
229.0451071807
  0
VERTEX
  8
0
 62
7
  6
CONTINUOUS
 10
95.9310479856
 20
229.0365847439
  0
VERTEX
  8
0
 62
7
  6
CONTINUOUS
 10
95.8955877581
 20
229.0273432627
  0
VERTEX
  8
0
 62
7
  6
CONTINUOUS
 10
95.858868734
 20
229.0173523235
  0
VERTEX
  8
0
 62
7
  6
CONTINUOUS
 10
95.8202784253
 20
229.0065350218
  0
SEQEND
  0
POLYLINE
  8
0
 62
7
  6
CONTINUOUS
 66
1
 70
0
  0
VERTEX
  8
0
 62
7
  6
CONTINUOUS
 10
83.3866594892
 20
229.0804396675
  0
VERTEX
  8
0
 62
7
  6
CONTINUOUS
 10
83.3797892241
 20
229.0804095752
  0
VERTEX
  8
0
 62
7
  6
CONTINUOUS
 10
83.3459392471
 20
229.0794329163
  0
VERTEX
  8
0
 62
7
  6
CONTINUOUS
 10
83.3128131304
 20
229.0771984443
  0
VERTEX
  8
0
 62
7
  6
CONTINUOUS
 10
83.2805614243
 20
229.0738926409
  0
VERTEX
  8
0
 62
7
  6
CONTINUOUS
 10
83.2490969583
 20
229.06969099
  0
VERTEX
  8
0
 62
7
  6
CONTINUOUS
 10
83.2182460665
 20
229.0647501635
  0
VERTEX
  8
0
 62
7
  6
CONTINUOUS
 10
83.187305762
 20
229.0591060114
  0
VERTEX
  8
0
 62
7
  6
CONTINUOUS
 10
83.1557321067
 20
229.0527679334
  0
VERTEX
  8
0
 62
7
  6
CONTINUOUS
 10
83.1228514652
 20
229.0456899793
  0
VERTEX
  8
0
 62
7
  6
CONTINUOUS
 10
83.087787613
 20
229.0377485947
  0
VERTEX
  8
0
 62
7
  6
CONTINUOUS
 10
83.0498990874
 20
229.0288610232
  0
SEQEND
  0
LINE
  8
0
 62
7
  6
CONTINUOUS
 10
94.556203088
 20
228.7803921573
 11
93.959285081
 21
228.7803921573
  0
LINE
  8
CURVE
 62
7
  6
CONTINUOUS
 10
56.4562030924
 20
228.7803921573
 11
55.8592850854
 21
228.7803921573
  0
LINE
  8
0
 62
7
  6
CONTINUOUS
 10
81.85812441
 20
228.8518628382
 11
81.2573637604
 21
228.8518628382
  0
LINE
  8
CURVE
 62
7
  6
CONTINUOUS
 10
69.158124413
 20
228.8518628382
 11
68.5573637634
 21
228.8518628382
  0
LINE
  8
CURVE
 62
7
  6
CONTINUOUS
 10
38.3777458831
 20
229.0804398795
 11
75.5088215648
 21
229.0804398795
  0
LINE
  8
0
 62
7
  6
CONTINUOUS
 10
75.3036509595
 20
229.0804398795
 11
112.0377422903
 21
229.0804398795
  0
LINE
  8
CURVE
 62
7
  6
CONTINUOUS
 10
70.6867817064
 20
229.0804398451
 11
70.6866499927
 21
229.0804398323
  0
POLYLINE
  8
0
 62
7
  6
CONTINUOUS
 66
1
 70
0
  0
VERTEX
  8
0
 62
7
  6
CONTINUOUS
 10
81.2573637604
 20
228.851862706
  0
VERTEX
  8
0
 62
7
  6
CONTINUOUS
 10
81.1889672159
 20
228.8525276781
  0
VERTEX
  8
0
 62
7
  6
CONTINUOUS
 10
81.096709044
 20
228.8555245486
  0
VERTEX
  8
0
 62
7
  6
CONTINUOUS
 10
81.0009925974
 20
228.8611588962
  0
VERTEX
  8
0
 62
7
  6
CONTINUOUS
 10
80.9038108626
 20
228.8694635306
  0
VERTEX
  8
0
 62
7
  6
CONTINUOUS
 10
80.8070772464
 20
228.8802461985
  0
VERTEX
  8
0
 62
7
  6
CONTINUOUS
 10
80.7124934137
 20
228.8931277066
  0
VERTEX
  8
0
 62
7
  6
CONTINUOUS
 10
80.6215480095
 20
228.9075901329
  0
VERTEX
  8
0
 62
7
  6
CONTINUOUS
 10
80.535533348
 20
228.9230279331
  0
VERTEX
  8
0
 62
7
  6
CONTINUOUS
 10
80.4555593221
 20
228.9387981229
  0
VERTEX
  8
0
 62
7
  6
CONTINUOUS
 10
80.3824378798
 20
228.9542943904
  0
VERTEX
  8
0
 62
7
  6
CONTINUOUS
 10
80.3164454613
 20
228.9690505877
  0
VERTEX
  8
0
 62
7
  6
CONTINUOUS
 10
80.2568788499
 20
228.9828895818
  0
SEQEND
  0
POLYLINE
  8
CURVE
 62
7
  6
CONTINUOUS
 66
1
 70
0
  0
VERTEX
  8
CURVE
 62
7
  6
CONTINUOUS
 10
68.5573637634
 20
228.851862631
  0
VERTEX
  8
CURVE
 62
7
  6
CONTINUOUS
 10
68.4873426494
 20
228.8525596379
  0
VERTEX
  8
CURVE
 62
7
  6
CONTINUOUS
 10
68.3948674851
 20
228.8556088007
  0
VERTEX
  8
CURVE
 62
7
  6
CONTINUOUS
 10
68.2988706005
 20
228.8613126721
  0
VERTEX
  8
CURVE
 62
7
  6
CONTINUOUS
 10
68.2014092058
 20
228.869701206
  0
VERTEX
  8
CURVE
 62
7
  6
CONTINUOUS
 10
68.1044493572
 20
228.88057335
  0
VERTEX
  8
CURVE
 62
7
  6
CONTINUOUS
 10
68.0097370342
 20
228.8935366975
  0
VERTEX
  8
CURVE
 62
7
  6
CONTINUOUS
 10
67.9187934392
 20
228.9080586399
  0
VERTEX
  8
CURVE
 62
7
  6
CONTINUOUS
 10
67.8329004246
 20
228.9235260544
  0
VERTEX
  8
CURVE
 62
7
  6
CONTINUOUS
 10
67.7531133625
 20
228.9393005484
  0
VERTEX
  8
CURVE
 62
7
  6
CONTINUOUS
 10
67.6801946708
 20
228.9547847026
  0
VERTEX
  8
CURVE
 62
7
  6
CONTINUOUS
 10
67.614377225
 20
228.9695235139
  0
VERTEX
  8
CURVE
 62
7
  6
CONTINUOUS
 10
67.5549521719
 20
228.9833440642
  0
SEQEND
  0
POLYLINE
  8
0
 62
7
  6
CONTINUOUS
 66
1
 70
0
  0
VERTEX
  8
0
 62
7
  6
CONTINUOUS
 10
93.959285081
 20
228.780391966
  0
VERTEX
  8
0
 62
7
  6
CONTINUOUS
 10
93.8857338243
 20
228.7812833728
  0
VERTEX
  8
0
 62
7
  6
CONTINUOUS
 10
93.7949560573
 20
228.7848315312
  0
VERTEX
  8
0
 62
7
  6
CONTINUOUS
 10
93.7033993134
 20
228.7911192677
  0
VERTEX
  8
0
 62
7
  6
CONTINUOUS
 10
93.6099458145
 20
228.8002870643
  0
VERTEX
  8
0
 62
7
  6
CONTINUOUS
 10
93.5136080774
 20
228.812561115
  0
VERTEX
  8
0
 62
7
  6
CONTINUOUS
 10
93.4136758826
 20
228.8282011785
  0
VERTEX
  8
0
 62
7
  6
CONTINUOUS
 10
93.31329326
 20
228.8467367297
  0
VERTEX
  8
0
 62
7
  6
CONTINUOUS
 10
93.2229139329
 20
228.8656885617
  0
VERTEX
  8
0
 62
7
  6
CONTINUOUS
 10
93.142357636
 20
228.8842465459
  0
VERTEX
  8
0
 62
7
  6
CONTINUOUS
 10
93.0695080137
 20
228.9022568825
  0
VERTEX
  8
0
 62
7
  6
CONTINUOUS
 10
93.0025543619
 20
228.9197233656
  0
VERTEX
  8
0
 62
7
  6
CONTINUOUS
 10
92.9405851287
 20
228.9365601251
  0
VERTEX
  8
0
 62
7
  6
CONTINUOUS
 10
92.8834341986
 20
228.9525520823
  0
SEQEND
  0
POLYLINE
  8
CURVE
 62
7
  6
CONTINUOUS
 66
1
 70
0
  0
VERTEX
  8
CURVE
 62
7
  6
CONTINUOUS
 10
55.8592850854
 20
228.7803918692
  0
VERTEX
  8
CURVE
 62
7
  6
CONTINUOUS
 10
55.7843210068
 20
228.7813178542
  0
VERTEX
  8
CURVE
 62
7
  6
CONTINUOUS
 10
55.6934472418
 20
228.7849131432
  0
VERTEX
  8
CURVE
 62
7
  6
CONTINUOUS
 10
55.6017135258
 20
228.7912602181
  0
VERTEX
  8
CURVE
 62
7
  6
CONTINUOUS
 10
55.5080718873
 20
228.8004988003
  0
VERTEX
  8
CURVE
 62
7
  6
CONTINUOUS
 10
55.4115973141
 20
228.8128471073
  0
VERTEX
  8
CURVE
 62
7
  6
CONTINUOUS
 10
55.3116304853
 20
228.828551242
  0
VERTEX
  8
CURVE
 62
7
  6
CONTINUOUS
 10
55.2110989949
 20
228.8471722062
  0
VERTEX
  8
CURVE
 62
7
  6
CONTINUOUS
 10
55.1206446836
 20
228.8661905838
  0
VERTEX
  8
CURVE
 62
7
  6
CONTINUOUS
 10
55.0400943948
 20
228.8847891379
  0
VERTEX
  8
CURVE
 62
7
  6
CONTINUOUS
 10
54.9672775385
 20
228.9028252884
  0
VERTEX
  8
CURVE
 62
7
  6
CONTINUOUS
 10
54.900349136
 20
228.9203121991
  0
VERTEX
  8
CURVE
 62
7
  6
CONTINUOUS
 10
54.8384002103
 20
228.9371640438
  0
VERTEX
  8
CURVE
 62
7
  6
CONTINUOUS
 10
54.7812651596
 20
228.9531662011
  0
SEQEND
  0
LINE
  8
0
 62
7
  6
CONTINUOUS
 10
112.0377423039
 20
229.0804400355
 11
116.3331772732
 21
228.7046381707
  0
POLYLINE
  8
0
 62
7
  6
CONTINUOUS
 66
1
 70
0
  0
VERTEX
  8
0
 62
7
  6
CONTINUOUS
 10
92.6970480405
 20
229.00601376
  0
VERTEX
  8
0
 62
7
  6
CONTINUOUS
 10
92.6584260795
 20
229.0168521486
  0
VERTEX
  8
0
 62
7
  6
CONTINUOUS
 10
92.6217049397
 20
229.0268611057
  0
VERTEX
  8
0
 62
7
  6
CONTINUOUS
 10
92.5862516793
 20
229.0361244824
  0
VERTEX
  8
0
 62
7
  6
CONTINUOUS
 10
92.5516090021
 20
229.0446669001
  0
VERTEX
  8
0
 62
7
  6
CONTINUOUS
 10
92.5168976669
 20
229.0525834175
  0
VERTEX
  8
0
 62
7
  6
CONTINUOUS
 10
92.4816497096
 20
229.0598211235
  0
VERTEX
  8
0
 62
7
  6
CONTINUOUS
 10
92.4457221212
 20
229.0662336755
  0
VERTEX
  8
0
 62
7
  6
CONTINUOUS
 10
92.4092874013
 20
229.0716197538
  0
VERTEX
  8
0
 62
7
  6
CONTINUOUS
 10
92.3721636012
 20
229.0758516078
  0
VERTEX
  8
0
 62
7
  6
CONTINUOUS
 10
92.3333081795
 20
229.0788425687
  0
VERTEX
  8
0
 62
7
  6
CONTINUOUS
 10
92.2915055752
 20
229.0803448026
  0
VERTEX
  8
0
 62
7
  6
CONTINUOUS
 10
92.2781128208
 20
229.0804396981
  0
SEQEND
  0
LINE
  8
0
 62
7
  6
CONTINUOUS
 10
92.8834341986
 20
228.9525520823
 11
92.6970480405
 21
229.00601376
  0
LINE
  8
0
 62
7
  6
CONTINUOUS
 10
109.9577440867
 20
221.1304398795
 11
109.9577440867
 21
228.2304398795
  0
LINE
  8
0
 62
7
  6
CONTINUOUS
 10
110.6577438918
 20
224.2804431377
 11
110.6577438918
 21
225.0804366212
  0
POLYLINE
  8
0
 62
7
  6
CONTINUOUS
 66
1
 70
0
  0
VERTEX
  8
0
 62
7
  6
CONTINUOUS
 10
83.0498990874
 20
229.0288610232
  0
VERTEX
  8
0
 62
7
  6
CONTINUOUS
 10
82.8605360015
 20
228.9833440642
  0
VERTEX
  8
0
 62
7
  6
CONTINUOUS
 10
82.8011109484
 20
228.9695235139
  0
VERTEX
  8
0
 62
7
  6
CONTINUOUS
 10
82.7352935027
 20
228.9547847026
  0
VERTEX
  8
0
 62
7
  6
CONTINUOUS
 10
82.662374811
 20
228.9393005484
  0
VERTEX
  8
0
 62
7
  6
CONTINUOUS
 10
82.5825877488
 20
228.9235260544
  0
VERTEX
  8
0
 62
7
  6
CONTINUOUS
 10
82.4966947342
 20
228.9080586399
  0
VERTEX
  8
0
 62
7
  6
CONTINUOUS
 10
82.4057511392
 20
228.8935366975
  0
VERTEX
  8
0
 62
7
  6
CONTINUOUS
 10
82.3110388162
 20
228.88057335
  0
VERTEX
  8
0
 62
7
  6
CONTINUOUS
 10
82.2140789677
 20
228.869701206
  0
VERTEX
  8
0
 62
7
  6
CONTINUOUS
 10
82.116617573
 20
228.8613126721
  0
VERTEX
  8
0
 62
7
  6
CONTINUOUS
 10
82.0206206883
 20
228.8556088007
  0
VERTEX
  8
0
 62
7
  6
CONTINUOUS
 10
81.9281455241
 20
228.8525596379
  0
VERTEX
  8
0
 62
7
  6
CONTINUOUS
 10
81.85812441
 20
228.851862631
  0
SEQEND
  0
LINE
  8
CURVE
 62
7
  6
CONTINUOUS
 10
34.0823109002
 20
228.7046381707
 11
38.3777458695
 21
229.0804400355
  0
LINE
  8
0
 62
7
  6
CONTINUOUS
 10
116.4777440867
 20
221.1304412031
 11
116.4777440867
 21
228.2304398795
  0
POLYLINE
  8
CURVE
 62
7
  6
CONTINUOUS
 66
1
 70
0
  0
VERTEX
  8
CURVE
 62
7
  6
CONTINUOUS
 10
70.3484149422
 20
229.0285083089
  0
VERTEX
  8
CURVE
 62
7
  6
CONTINUOUS
 10
70.1586093236
 20
228.9828895818
  0
VERTEX
  8
CURVE
 62
7
  6
CONTINUOUS
 10
70.0990427121
 20
228.9690505877
  0
VERTEX
  8
CURVE
 62
7
  6
CONTINUOUS
 10
70.0330502937
 20
228.9542943904
  0
VERTEX
  8
CURVE
 62
7
  6
CONTINUOUS
 10
69.9599288513
 20
228.9387981229
  0
VERTEX
  8
CURVE
 62
7
  6
CONTINUOUS
 10
69.8799548254
 20
228.9230279331
  0
VERTEX
  8
CURVE
 62
7
  6
CONTINUOUS
 10
69.7939401639
 20
228.9075901329
  0
VERTEX
  8
CURVE
 62
7
  6
CONTINUOUS
 10
69.7029947597
 20
228.8931277066
  0
VERTEX
  8
CURVE
 62
7
  6
CONTINUOUS
 10
69.608410927
 20
228.8802461985
  0
VERTEX
  8
CURVE
 62
7
  6
CONTINUOUS
 10
69.5116773108
 20
228.8694635306
  0
VERTEX
  8
CURVE
 62
7
  6
CONTINUOUS
 10
69.4144955761
 20
228.8611588962
  0
VERTEX
  8
CURVE
 62
7
  6
CONTINUOUS
 10
69.3187791295
 20
228.8555245486
  0
VERTEX
  8
CURVE
 62
7
  6
CONTINUOUS
 10
69.2265209575
 20
228.8525276781
  0
VERTEX
  8
CURVE
 62
7
  6
CONTINUOUS
 10
69.158124413
 20
228.851862706
  0
SEQEND
  0
POLYLINE
  8
CURVE
 62
7
  6
CONTINUOUS
 66
1
 70
0
  0
VERTEX
  8
CURVE
 62
7
  6
CONTINUOUS
 10
34.0823109002
 20
139.3903147732
  0
VERTEX
  8
CURVE
 62
7
  6
CONTINUOUS
 10
34.0871915736
 20
139.1570520059
  0
VERTEX
  8
CURVE
 62
7
  6
CONTINUOUS
 10
34.1002550254
 20
138.9492405489
  0
VERTEX
  8
CURVE
 62
7
  6
CONTINUOUS
 10
34.119880542
 20
138.7646539048
  0
VERTEX
  8
CURVE
 62
7
  6
CONTINUOUS
 10
34.1450245337
 20
138.6010687274
  0
VERTEX
  8
CURVE
 62
7
  6
CONTINUOUS
 10
34.1748874093
 20
138.4566146986
  0
VERTEX
  8
CURVE
 62
7
  6
CONTINUOUS
 10
34.2090577929
 20
138.3287167493
  0
VERTEX
  8
CURVE
 62
7
  6
CONTINUOUS
 10
34.2473690544
 20
138.2152193753
  0
VERTEX
  8
CURVE
 62
7
  6
CONTINUOUS
 10
34.2891714614
 20
138.1159266403
  0
VERTEX
  8
CURVE
 62
7
  6
CONTINUOUS
 10
34.3340444653
 20
138.0299323762
  0
VERTEX
  8
CURVE
 62
7
  6
CONTINUOUS
 10
34.3819508334
 20
137.9559712987
  0
VERTEX
  8
CURVE
 62
7
  6
CONTINUOUS
 10
34.4331757065
 20
137.8929928715
  0
VERTEX
  8
CURVE
 62
7
  6
CONTINUOUS
 10
34.485819586
 20
137.8424960053
  0
VERTEX
  8
CURVE
 62
7
  6
CONTINUOUS
 10
34.5378563519
 20
137.8046480534
  0
VERTEX
  8
CURVE
 62
7
  6
CONTINUOUS
 10
34.5882716808
 20
137.7780869199
  0
VERTEX
  8
CURVE
 62
7
  6
CONTINUOUS
 10
34.6368841761
 20
137.7610804363
  0
VERTEX
  8
CURVE
 62
7
  6
CONTINUOUS
 10
34.6856246544
 20
137.7519979177
  0
VERTEX
  8
CURVE
 62
7
  6
CONTINUOUS
 10
34.7359660234
 20
137.7506799442
  0
VERTEX
  8
CURVE
 62
7
  6
CONTINUOUS
 10
34.7877440867
 20
137.7577422917
  0
SEQEND
  0
LINE
  8
CURVE
 62
7
  6
CONTINUOUS
 10
33.9377440867
 20
135.8403147738
 11
33.9377440867
 21
154.1703147738
  0
LINE
  8
CURVE
 62
7
  6
CONTINUOUS
 10
34.0823109002
 20
139.3903147732
 11
34.0823109002
 21
150.6203147739
  0
POLYLINE
  8
CURVE
 62
7
  6
CONTINUOUS
 66
1
 70
0
  0
VERTEX
  8
CURVE
 62
7
  6
CONTINUOUS
 10
40.4577440867
 20
131.9903147738
  0
VERTEX
  8
CURVE
 62
7
  6
CONTINUOUS
 10
40.4486628829
 20
132.2228285001
  0
VERTEX
  8
CURVE
 62
7
  6
CONTINUOUS
 10
40.4213767004
 20
132.4552643393
  0
VERTEX
  8
CURVE
 62
7
  6
CONTINUOUS
 10
40.3760660003
 20
132.6851734947
  0
VERTEX
  8
CURVE
 62
7
  6
CONTINUOUS
 10
40.3132883137
 20
132.909964763
  0
VERTEX
  8
CURVE
 62
7
  6
CONTINUOUS
 10
40.2335343179
 20
133.1282416288
  0
VERTEX
  8
CURVE
 62
7
  6
CONTINUOUS
 10
40.136603168
 20
133.3405538105
  0
VERTEX
  8
CURVE
 62
7
  6
CONTINUOUS
 10
40.0230200043
 20
133.5455176011
  0
VERTEX
  8
CURVE
 62
7
  6
CONTINUOUS
 10
39.8940292091
 20
133.7407926174
  0
VERTEX
  8
CURVE
 62
7
  6
CONTINUOUS
 10
39.7510715364
 20
133.9243905759
  0
SEQEND
  0
LINE
  8
CURVE
 62
7
  6
CONTINUOUS
 10
38.3777440867
 20
150.6203147738
 11
38.3777458831
 21
138.9707749612
  0
LINE
  8
CURVE
 62
7
  6
CONTINUOUS
 10
39.7577442817
 20
130.3703147738
 11
39.7577442817
 21
129.5703147738
  0
LINE
  8
CURVE
 62
7
  6
CONTINUOUS
 10
40.1077440867
 20
140.4003147738
 11
40.1077440867
 21
154.1703147738
  0
LINE
  8
CURVE
 62
7
  6
CONTINUOUS
 10
40.4577440867
 20
121.3703147738
 11
40.4577440867
 21
133.638078169
  0
LINE
  8
CURVE
 62
7
  6
CONTINUOUS
 10
40.8077440867
 20
145.9703147738
 11
40.8077440867
 21
145.1703147738
  0
POLYLINE
  8
CURVE
 62
7
  6
CONTINUOUS
 66
1
 70
0
  0
VERTEX
  8
CURVE
 62
7
  6
CONTINUOUS
 10
48.9877440867
 20
141.1702824084
  0
VERTEX
  8
CURVE
 62
7
  6
CONTINUOUS
 10
48.9923999925
 20
141.0814364699
  0
VERTEX
  8
CURVE
 62
7
  6
CONTINUOUS
 10
49.0063168637
 20
140.9935637761
  0
VERTEX
  8
CURVE
 62
7
  6
CONTINUOUS
 10
49.0293424643
 20
140.9076270351
  0
VERTEX
  8
CURVE
 62
7
  6
CONTINUOUS
 10
49.0612247338
 20
140.8245678131
  0
VERTEX
  8
CURVE
 62
7
  6
CONTINUOUS
 10
49.1016145297
 20
140.7452962029
  0
VERTEX
  8
CURVE
 62
7
  6
CONTINUOUS
 10
49.1500694402
 20
140.670680832
  0
VERTEX
  8
CURVE
 62
7
  6
CONTINUOUS
 10
49.2060586254
 20
140.6015393231
  0
VERTEX
  8
CURVE
 62
7
  6
CONTINUOUS
 10
49.268968636
 20
140.5386293125
  0
VERTEX
  8
CURVE
 62
7
  6
CONTINUOUS
 10
49.3381101449
 20
140.4826401273
  0
VERTEX
  8
CURVE
 62
7
  6
CONTINUOUS
 10
49.4127255158
 20
140.4341852168
  0
VERTEX
  8
CURVE
 62
7
  6
CONTINUOUS
 10
49.491997126
 20
140.3937954209
  0
VERTEX
  8
CURVE
 62
7
  6
CONTINUOUS
 10
49.575056348
 20
140.3619131514
  0
VERTEX
  8
CURVE
 62
7
  6
CONTINUOUS
 10
49.660993089
 20
140.3388875508
  0
VERTEX
  8
CURVE
 62
7
  6
CONTINUOUS
 10
49.7488657829
 20
140.3249706796
  0
VERTEX
  8
CURVE
 62
7
  6
CONTINUOUS
 10
49.8377117213
 20
140.3203147738
  0
SEQEND
  0
LINE
  8
CURVE
 62
7
  6
CONTINUOUS
 10
48.9779242127
 20
148.1264245897
 11
48.9744383256
 21
148.3642941613
  0
LINE
  8
CURVE
 62
7
  6
CONTINUOUS
 10
48.9744383256
 20
148.3642941613
 11
48.9713778845
 21
148.6694966202
  0
LINE
  8
CURVE
 62
7
  6
CONTINUOUS
 10
48.9713778845
 20
148.6694966202
 11
48.9688407286
 21
149.0322722744
  0
LINE
  8
CURVE
 62
7
  6
CONTINUOUS
 10
48.9688407286
 20
149.0322722744
 11
48.9669079605
 21
149.4410215021
  0
LINE
  8
CURVE
 62
7
  6
CONTINUOUS
 10
48.9669079605
 20
149.4410215021
 11
48.965641357
 21
149.8826758691
  0
LINE
  8
CURVE
 62
7
  6
CONTINUOUS
 10
48.965641357
 20
149.8826758691
 11
48.9650814453
 21
150.3430097806
  0
LINE
  8
CURVE
 62
7
  6
CONTINUOUS
 10
45.6027440867
 20
131.2321819695
 11
45.6027440867
 21
121.1203147738
  0
LINE
  8
CURVE
 62
7
  6
CONTINUOUS
 10
46.4577440867
 20
130.9703147738
 11
46.4577440867
 21
135.1403147738
  0
LINE
  8
CURVE
 62
7
  6
CONTINUOUS
 10
46.8077440867
 20
144.5703147738
 11
46.8077440867
 21
140.4003147738
  0
LINE
  8
CURVE
 62
7
  6
CONTINUOUS
 10
47.6577440867
 20
154.4203122465
 11
47.6577440867
 21
144.3040792706
  0
LINE
  8
CURVE
 62
7
  6
CONTINUOUS
 10
48.9877440867
 20
141.1702824084
 11
48.9877440867
 21
147.8703147738
  0
POLYLINE
  8
CURVE
 62
7
  6
CONTINUOUS
 66
1
 70
0
  0
VERTEX
  8
CURVE
 62
7
  6
CONTINUOUS
 10
48.9746371902
 20
150.4703147738
  0
VERTEX
  8
CURVE
 62
7
  6
CONTINUOUS
 10
48.9693194442
 20
150.4280505897
  0
VERTEX
  8
CURVE
 62
7
  6
CONTINUOUS
 10
48.9661320631
 20
150.3855778566
  0
VERTEX
  8
CURVE
 62
7
  6
CONTINUOUS
 10
48.9650814453
 20
150.3430097806
  0
SEQEND
  0
POLYLINE
  8
CURVE
 62
7
  6
CONTINUOUS
 66
1
 70
0
  0
VERTEX
  8
CURVE
 62
7
  6
CONTINUOUS
 10
51.2504067281
 20
150.3430097806
  0
VERTEX
  8
CURVE
 62
7
  6
CONTINUOUS
 10
51.2493560809
 20
150.3855784485
  0
VERTEX
  8
CURVE
 62
7
  6
CONTINUOUS
 10
51.2461686662
 20
150.4280512183
  0
VERTEX
  8
CURVE
 62
7
  6
CONTINUOUS
 10
51.2408509833
 20
150.4703147738
  0
SEQEND
  0
LINE
  8
CURVE
 62
7
  6
CONTINUOUS
 10
51.2277440867
 20
147.8703147738
 11
51.2277440867
 21
141.1702824084
  0
LINE
  8
CURVE
 62
7
  6
CONTINUOUS
 10
52.8077440867
 20
140.4003147738
 11
52.8077440867
 21
154.1703147738
  0
LINE
  8
CURVE
 62
7
  6
CONTINUOUS
 10
53.1577440867
 20
135.1403147738
 11
53.1577440867
 21
121.3703147738
  0
LINE
  8
CURVE
 62
7
  6
CONTINUOUS
 10
51.2498468164
 20
149.8826758691
 11
51.2504067281
 21
150.3430097806
  0
LINE
  8
CURVE
 62
7
  6
CONTINUOUS
 10
51.248580213
 20
149.4410215021
 11
51.2498468164
 21
149.8826758691
  0
LINE
  8
CURVE
 62
7
  6
CONTINUOUS
 10
51.2466474448
 20
149.0322722744
 11
51.248580213
 21
149.4410215021
  0
LINE
  8
CURVE
 62
7
  6
CONTINUOUS
 10
51.244110289
 20
148.6694966202
 11
51.2466474448
 21
149.0322722744
  0
LINE
  8
CURVE
 62
7
  6
CONTINUOUS
 10
51.2410498479
 20
148.3642941613
 11
51.244110289
 21
148.6694966202
  0
POLYLINE
  8
CURVE
 62
7
  6
CONTINUOUS
 66
1
 70
0
  0
VERTEX
  8
CURVE
 62
7
  6
CONTINUOUS
 10
51.2277440867
 20
147.8703147738
  0
VERTEX
  8
CURVE
 62
7
  6
CONTINUOUS
 10
51.2297716994
 20
147.8807168372
  0
VERTEX
  8
CURVE
 62
7
  6
CONTINUOUS
 10
51.2317840693
 20
147.9118601386
  0
VERTEX
  8
CURVE
 62
7
  6
CONTINUOUS
 10
51.2337640783
 20
147.9634951483
  0
VERTEX
  8
CURVE
 62
7
  6
CONTINUOUS
 10
51.2356958665
 20
148.0352081544
  0
VERTEX
  8
CURVE
 62
7
  6
CONTINUOUS
 10
51.2375639607
 20
148.1264245897
  0
VERTEX
  8
CURVE
 62
7
  6
CONTINUOUS
 10
51.2410498479
 20
148.3642941613
  0
SEQEND
  0
POLYLINE
  8
CURVE
 62
7
  6
CONTINUOUS
 66
1
 70
0
  0
VERTEX
  8
CURVE
 62
7
  6
CONTINUOUS
 10
39.7510715364
 20
133.9243905759
  0
VERTEX
  8
CURVE
 62
7
  6
CONTINUOUS
 10
39.605009124
 20
134.0853492759
  0
VERTEX
  8
CURVE
 62
7
  6
CONTINUOUS
 10
39.4473633788
 20
134.2356058343
  0
VERTEX
  8
CURVE
 62
7
  6
CONTINUOUS
 10
39.2795839859
 20
134.37377851
  0
VERTEX
  8
CURVE
 62
7
  6
CONTINUOUS
 10
39.1022234183
 20
134.49941889
  0
VERTEX
  8
CURVE
 62
7
  6
CONTINUOUS
 10
38.9158616176
 20
134.6121098033
  0
VERTEX
  8
CURVE
 62
7
  6
CONTINUOUS
 10
38.7222148443
 20
134.7108135706
  0
VERTEX
  8
CURVE
 62
7
  6
CONTINUOUS
 10
38.5219189785
 20
134.7952118682
  0
VERTEX
  8
CURVE
 62
7
  6
CONTINUOUS
 10
38.3156273073
 20
134.8650238231
  0
VERTEX
  8
CURVE
 62
7
  6
CONTINUOUS
 10
38.1052395358
 20
134.9196064362
  0
VERTEX
  8
CURVE
 62
7
  6
CONTINUOUS
 10
37.8914484512
 20
134.9587853224
  0
VERTEX
  8
CURVE
 62
7
  6
CONTINUOUS
 10
37.6749530142
 20
134.9824272361
  0
VERTEX
  8
CURVE
 62
7
  6
CONTINUOUS
 10
37.4577440867
 20
134.9903147738
  0
SEQEND
  0
LINE
  8
CURVE
 62
7
  6
CONTINUOUS
 10
40.6344117735
 20
139.0416971999
 11
40.5534521638
 21
139.1416739917
  0
POLYLINE
  8
CURVE
 62
7
  6
CONTINUOUS
 66
1
 70
0
  0
VERTEX
  8
CURVE
 62
7
  6
CONTINUOUS
 10
55.3910500115
 20
125.0703147738
  0
VERTEX
  8
CURVE
 62
7
  6
CONTINUOUS
 10
55.3787637357
 20
125.1196316172
  0
VERTEX
  8
CURVE
 62
7
  6
CONTINUOUS
 10
55.3713802852
 20
125.16982355
  0
VERTEX
  8
CURVE
 62
7
  6
CONTINUOUS
 10
55.3689417328
 20
125.2202824084
  0
SEQEND
  0
POLYLINE
  8
CURVE
 62
7
  6
CONTINUOUS
 66
1
 70
0
  0
VERTEX
  8
CURVE
 62
7
  6
CONTINUOUS
 10
55.0246371902
 20
125.0703147738
  0
VERTEX
  8
CURVE
 62
7
  6
CONTINUOUS
 10
55.0449058741
 20
124.9743766353
  0
VERTEX
  8
CURVE
 62
7
  6
CONTINUOUS
 10
55.0765461748
 20
124.8803828669
  0
VERTEX
  8
CURVE
 62
7
  6
CONTINUOUS
 10
55.1193604197
 20
124.7899948231
  0
VERTEX
  8
CURVE
 62
7
  6
CONTINUOUS
 10
55.1731791444
 20
124.7043666855
  0
VERTEX
  8
CURVE
 62
7
  6
CONTINUOUS
 10
55.2369521434
 20
124.6255960503
  0
VERTEX
  8
CURVE
 62
7
  6
CONTINUOUS
 10
55.3094887032
 20
124.5551294698
  0
VERTEX
  8
CURVE
 62
7
  6
CONTINUOUS
 10
55.390512062
 20
124.4933487172
  0
VERTEX
  8
CURVE
 62
7
  6
CONTINUOUS
 10
55.4783760314
 20
124.441671088
  0
VERTEX
  8
CURVE
 62
7
  6
CONTINUOUS
 10
55.5710320586
 20
124.4011308955
  0
VERTEX
  8
CURVE
 62
7
  6
CONTINUOUS
 10
55.667840474
 20
124.3718450097
  0
VERTEX
  8
CURVE
 62
7
  6
CONTINUOUS
 10
55.7669860812
 20
124.354276971
  0
VERTEX
  8
CURVE
 62
7
  6
CONTINUOUS
 10
55.865913746
 20
124.3485167985
  0
SEQEND
  0
POLYLINE
  8
CURVE
 62
7
  6
CONTINUOUS
 66
1
 70
0
  0
VERTEX
  8
CURVE
 62
7
  6
CONTINUOUS
 10
48.9877440867
 20
147.8703147738
  0
VERTEX
  8
CURVE
 62
7
  6
CONTINUOUS
 10
48.985716474
 20
147.8807168372
  0
VERTEX
  8
CURVE
 62
7
  6
CONTINUOUS
 10
48.9837041041
 20
147.9118601386
  0
VERTEX
  8
CURVE
 62
7
  6
CONTINUOUS
 10
48.9817240952
 20
147.9634951483
  0
VERTEX
  8
CURVE
 62
7
  6
CONTINUOUS
 10
48.979792307
 20
148.0352081544
  0
VERTEX
  8
CURVE
 62
7
  6
CONTINUOUS
 10
48.9779242127
 20
148.1264245897
  0
SEQEND
  0
POLYLINE
  8
CURVE
 62
7
  6
CONTINUOUS
 66
1
 70
0
  0
VERTEX
  8
CURVE
 62
7
  6
CONTINUOUS
 10
57.2777440867
 20
134.3703471392
  0
VERTEX
  8
CURVE
 62
7
  6
CONTINUOUS
 10
57.2730877375
 20
134.4591972963
  0
VERTEX
  8
CURVE
 62
7
  6
CONTINUOUS
 10
57.259169882
 20
134.5470724887
  0
VERTEX
  8
CURVE
 62
7
  6
CONTINUOUS
 10
57.236143245
 20
134.6330100967
  0
VERTEX
  8
CURVE
 62
7
  6
CONTINUOUS
 10
57.204260294
 20
134.7160687998
  0
VERTEX
  8
CURVE
 62
7
  6
CONTINUOUS
 10
57.1638704572
 20
134.7953388639
  0
VERTEX
  8
CURVE
 62
7
  6
CONTINUOUS
 10
57.1154162808
 20
134.8699520912
  0
VERTEX
  8
CURVE
 62
7
  6
CONTINUOUS
 10
57.0594285761
 20
134.939091304
  0
VERTEX
  8
CURVE
 62
7
  6
CONTINUOUS
 10
56.9965206102
 20
135.0019992692
  0
VERTEX
  8
CURVE
 62
7
  6
CONTINUOUS
 10
56.9273813974
 20
135.0579869727
  0
VERTEX
  8
CURVE
 62
7
  6
CONTINUOUS
 10
56.8527681708
 20
135.1064411478
  0
VERTEX
  8
CURVE
 62
7
  6
CONTINUOUS
 10
56.7734981079
 20
135.1468309833
  0
VERTEX
  8
CURVE
 62
7
  6
CONTINUOUS
 10
56.6904394063
 20
135.1787139331
  0
VERTEX
  8
CURVE
 62
7
  6
CONTINUOUS
 10
56.6045017998
 20
135.2017405695
  0
VERTEX
  8
CURVE
 62
7
  6
CONTINUOUS
 10
56.5166266087
 20
135.2156584247
  0
VERTEX
  8
CURVE
 62
7
  6
CONTINUOUS
 10
56.4277764521
 20
135.2203147738
  0
SEQEND
  0
POLYLINE
  8
CURVE
 62
7
  6
CONTINUOUS
 66
1
 70
0
  0
VERTEX
  8
CURVE
 62
7
  6
CONTINUOUS
 10
55.0150814453
 20
125.197619767
  0
VERTEX
  8
CURVE
 62
7
  6
CONTINUOUS
 10
55.016132255
 20
125.1550478385
  0
VERTEX
  8
CURVE
 62
7
  6
CONTINUOUS
 10
55.0193198247
 20
125.1125751667
  0
VERTEX
  8
CURVE
 62
7
  6
CONTINUOUS
 10
55.0246371902
 20
125.0703147738
  0
SEQEND
  0
POLYLINE
  8
CURVE
 62
7
  6
CONTINUOUS
 66
1
 70
0
  0
VERTEX
  8
CURVE
 62
7
  6
CONTINUOUS
 10
57.2875639608
 20
127.4142049571
  0
VERTEX
  8
CURVE
 62
7
  6
CONTINUOUS
 10
57.2856958665
 20
127.5054213926
  0
VERTEX
  8
CURVE
 62
7
  6
CONTINUOUS
 10
57.2837640783
 20
127.5771343988
  0
VERTEX
  8
CURVE
 62
7
  6
CONTINUOUS
 10
57.2817840693
 20
127.6287694087
  0
VERTEX
  8
CURVE
 62
7
  6
CONTINUOUS
 10
57.2797716994
 20
127.6599127103
  0
VERTEX
  8
CURVE
 62
7
  6
CONTINUOUS
 10
57.2777440867
 20
127.6703147738
  0
SEQEND
  0
LINE
  8
CURVE
 62
7
  6
CONTINUOUS
 10
56.933661353
 20
127.417104383
 11
56.9371338013
 21
127.1818163331
  0
LINE
  8
CURVE
 62
7
  6
CONTINUOUS
 10
57.2910498479
 20
127.1763353857
 11
57.2875639608
 21
127.4142049571
  0
LINE
  8
CURVE
 62
7
  6
CONTINUOUS
 10
56.9371338013
 20
127.1818163331
 11
56.9401878554
 21
126.8797692908
  0
LINE
  8
CURVE
 62
7
  6
CONTINUOUS
 10
57.294110289
 20
126.8711329274
 11
57.2910498479
 21
127.1763353857
  0
LINE
  8
CURVE
 62
7
  6
CONTINUOUS
 10
56.9401878554
 20
126.8797692908
 11
56.9427267496
 21
126.5205321741
  0
LINE
  8
CURVE
 62
7
  6
CONTINUOUS
 10
57.2966474448
 20
126.5083572739
 11
57.294110289
 21
126.8711329274
  0
LINE
  8
CURVE
 62
7
  6
CONTINUOUS
 10
56.9427267496
 20
126.5205321741
 11
56.9446702475
 21
126.1154743035
  0
LINE
  8
CURVE
 62
7
  6
CONTINUOUS
 10
57.298580213
 20
126.0996080468
 11
57.2966474448
 21
126.5083572739
  0
LINE
  8
CURVE
 62
7
  6
CONTINUOUS
 10
56.9446702475
 20
126.1154743035
 11
56.945957032
 21
125.6773976347
  0
LINE
  8
CURVE
 62
7
  6
CONTINUOUS
 10
57.2998468164
 20
125.6579536797
 11
57.298580213
 21
126.0996080468
  0
LINE
  8
CURVE
 62
7
  6
CONTINUOUS
 10
56.945957032
 20
125.6773976347
 11
56.9465464406
 21
125.2202824084
  0
LINE
  8
CURVE
 62
7
  6
CONTINUOUS
 10
57.3004067281
 20
125.197619767
 11
57.2998468164
 21
125.6579536797
  0
LINE
  8
CURVE
 62
7
  6
CONTINUOUS
 10
55.0377440867
 20
134.3703471392
 11
55.0377440867
 21
127.6703147738
  0
LINE
  8
CURVE
 62
7
  6
CONTINUOUS
 10
55.3915938134
 20
127.6703147738
 11
55.3915938134
 21
134.3703471392
  0
LINE
  8
CURVE
 62
7
  6
CONTINUOUS
 10
56.92389436
 20
134.3703471392
 11
56.92389436
 21
127.6703147738
  0
LINE
  8
CURVE
 62
7
  6
CONTINUOUS
 10
57.2777440867
 20
127.6703147738
 11
57.2777440867
 21
134.3703471392
  0
LINE
  8
CURVE
 62
7
  6
CONTINUOUS
 10
55.0150814453
 20
125.197619767
 11
55.015641357
 21
125.6579536797
  0
LINE
  8
CURVE
 62
7
  6
CONTINUOUS
 10
55.3695311414
 20
125.6773976347
 11
55.3689417328
 21
125.2202824084
  0
LINE
  8
CURVE
 62
7
  6
CONTINUOUS
 10
55.015641357
 20
125.6579536797
 11
55.0169079605
 21
126.0996080468
  0
LINE
  8
CURVE
 62
7
  6
CONTINUOUS
 10
55.3708179259
 20
126.1154743035
 11
55.3695311414
 21
125.6773976347
  0
LINE
  8
CURVE
 62
7
  6
CONTINUOUS
 10
55.0169079605
 20
126.0996080468
 11
55.0188407286
 21
126.5083572739
  0
LINE
  8
CURVE
 62
7
  6
CONTINUOUS
 10
55.3727614238
 20
126.5205321741
 11
55.3708179259
 21
126.1154743035
  0
LINE
  8
CURVE
 62
7
  6
CONTINUOUS
 10
55.0188407286
 20
126.5083572739
 11
55.0213778845
 21
126.8711329274
  0
LINE
  8
CURVE
 62
7
  6
CONTINUOUS
 10
55.3753003181
 20
126.8797692908
 11
55.3727614238
 21
126.5205321741
  0
LINE
  8
CURVE
 62
7
  6
CONTINUOUS
 10
55.0213778845
 20
126.8711329274
 11
55.0244383256
 21
127.1763353857
  0
LINE
  8
CURVE
 62
7
  6
CONTINUOUS
 10
55.3783543722
 20
127.1818163331
 11
55.3753003181
 21
126.8797692908
  0
POLYLINE
  8
CURVE
 62
7
  6
CONTINUOUS
 66
1
 70
0
  0
VERTEX
  8
CURVE
 62
7
  6
CONTINUOUS
 10
55.0244383256
 20
127.1763353857
  0
VERTEX
  8
CURVE
 62
7
  6
CONTINUOUS
 10
55.0279242127
 20
127.4142049571
  0
VERTEX
  8
CURVE
 62
7
  6
CONTINUOUS
 10
55.0297923069
 20
127.5054213926
  0
VERTEX
  8
CURVE
 62
7
  6
CONTINUOUS
 10
55.0317240952
 20
127.5771343988
  0
VERTEX
  8
CURVE
 62
7
  6
CONTINUOUS
 10
55.0337041041
 20
127.6287694087
  0
VERTEX
  8
CURVE
 62
7
  6
CONTINUOUS
 10
55.035716474
 20
127.6599127103
  0
VERTEX
  8
CURVE
 62
7
  6
CONTINUOUS
 10
55.0377440867
 20
127.6703147738
  0
SEQEND
  0
POLYLINE
  8
CURVE
 62
7
  6
CONTINUOUS
 66
1
 70
0
  0
VERTEX
  8
CURVE
 62
7
  6
CONTINUOUS
 10
56.9465464406
 20
125.2202824084
  0
VERTEX
  8
CURVE
 62
7
  6
CONTINUOUS
 10
56.9441089952
 20
125.1698349272
  0
VERTEX
  8
CURVE
 62
7
  6
CONTINUOUS
 10
56.9367260615
 20
125.1196398341
  0
VERTEX
  8
CURVE
 62
7
  6
CONTINUOUS
 10
56.924438162
 20
125.0703147738
  0
SEQEND
  0
POLYLINE
  8
CURVE
 62
7
  6
CONTINUOUS
 66
1
 70
0
  0
VERTEX
  8
CURVE
 62
7
  6
CONTINUOUS
 10
55.3915938134
 20
134.3703471392
  0
VERTEX
  8
CURVE
 62
7
  6
CONTINUOUS
 10
55.3951984393
 20
134.4300511852
  0
VERTEX
  8
CURVE
 62
7
  6
CONTINUOUS
 10
55.4059824625
 20
134.4889667267
  0
VERTEX
  8
CURVE
 62
7
  6
CONTINUOUS
 10
55.4237877725
 20
134.5461608158
  0
VERTEX
  8
CURVE
 62
7
  6
CONTINUOUS
 10
55.4484107179
 20
134.600892685
  0
VERTEX
  8
CURVE
 62
7
  6
CONTINUOUS
 10
55.4793849756
 20
134.6521398434
  0
VERTEX
  8
CURVE
 62
7
  6
CONTINUOUS
 10
55.5163801476
 20
134.6993627328
  0
VERTEX
  8
CURVE
 62
7
  6
CONTINUOUS
 10
55.5586961277
 20
134.7416787129
  0
VERTEX
  8
CURVE
 62
7
  6
CONTINUOUS
 10
55.6059190171
 20
134.7786738849
  0
VERTEX
  8
CURVE
 62
7
  6
CONTINUOUS
 10
55.6571661756
 20
134.8096481426
  0
VERTEX
  8
CURVE
 62
7
  6
CONTINUOUS
 10
55.7118980448
 20
134.834271088
  0
VERTEX
  8
CURVE
 62
7
  6
CONTINUOUS
 10
55.7690921338
 20
134.852076398
  0
VERTEX
  8
CURVE
 62
7
  6
CONTINUOUS
 10
55.8280076754
 20
134.8628604212
  0
VERTEX
  8
CURVE
 62
7
  6
CONTINUOUS
 10
55.8877117213
 20
134.8664650471
  0
SEQEND
  0
POLYLINE
  8
CURVE
 62
7
  6
CONTINUOUS
 66
1
 70
0
  0
VERTEX
  8
CURVE
 62
7
  6
CONTINUOUS
 10
55.3915938134
 20
127.6703147738
  0
VERTEX
  8
CURVE
 62
7
  6
CONTINUOUS
 10
55.3895780873
 20
127.6600345553
  0
VERTEX
  8
CURVE
 62
7
  6
CONTINUOUS
 10
55.3875770929
 20
127.6292502937
  0
VERTEX
  8
CURVE
 62
7
  6
CONTINUOUS
 10
55.3856078883
 20
127.5782053242
  0
VERTEX
  8
CURVE
 62
7
  6
CONTINUOUS
 10
55.3836860599
 20
127.5073031752
  0
VERTEX
  8
CURVE
 62
7
  6
CONTINUOUS
 10
55.3818268204
 20
127.417104383
  0
VERTEX
  8
CURVE
 62
7
  6
CONTINUOUS
 10
55.3783543722
 20
127.1818163331
  0
SEQEND
  0
LINE
  8
CURVE
 62
7
  6
CONTINUOUS
 10
46.3620360096
 20
139.1416739917
 11
46.2810764046
 21
139.0416972057
  0
POLYLINE
  8
CURVE
 62
7
  6
CONTINUOUS
 66
1
 70
0
  0
VERTEX
  8
CURVE
 62
7
  6
CONTINUOUS
 10
51.2408509833
 20
150.4703147738
  0
VERTEX
  8
CURVE
 62
7
  6
CONTINUOUS
 10
51.2205971898
 20
150.5661982785
  0
VERTEX
  8
CURVE
 62
7
  6
CONTINUOUS
 10
51.1889808002
 20
150.6601504378
  0
VERTEX
  8
CURVE
 62
7
  6
CONTINUOUS
 10
51.1461718306
 20
150.7505543049
  0
VERTEX
  8
CURVE
 62
7
  6
CONTINUOUS
 10
51.0923544157
 20
150.8361993891
  0
VERTEX
  8
CURVE
 62
7
  6
CONTINUOUS
 10
51.0285824345
 20
150.9149827036
  0
VERTEX
  8
CURVE
 62
7
  6
CONTINUOUS
 10
50.9560405762
 20
150.9854646445
  0
VERTEX
  8
CURVE
 62
7
  6
CONTINUOUS
 10
50.875009573
 20
151.0472583497
  0
VERTEX
  8
CURVE
 62
7
  6
CONTINUOUS
 10
50.7871436153
 20
151.0989424001
  0
VERTEX
  8
CURVE
 62
7
  6
CONTINUOUS
 10
50.6944842893
 20
151.1394882682
  0
VERTEX
  8
CURVE
 62
7
  6
CONTINUOUS
 10
50.5976672866
 20
151.1687798597
  0
VERTEX
  8
CURVE
 62
7
  6
CONTINUOUS
 10
50.4985142301
 20
151.1863511584
  0
VERTEX
  8
CURVE
 62
7
  6
CONTINUOUS
 10
50.3995744274
 20
151.1921127491
  0
SEQEND
  0
POLYLINE
  8
CURVE
 62
7
  6
CONTINUOUS
 66
1
 70
0
  0
VERTEX
  8
CURVE
 62
7
  6
CONTINUOUS
 10
56.92389436
 20
127.6703147738
  0
VERTEX
  8
CURVE
 62
7
  6
CONTINUOUS
 10
56.9259100861
 20
127.6600345553
  0
VERTEX
  8
CURVE
 62
7
  6
CONTINUOUS
 10
56.9279110805
 20
127.6292502937
  0
VERTEX
  8
CURVE
 62
7
  6
CONTINUOUS
 10
56.9298802852
 20
127.5782053242
  0
VERTEX
  8
CURVE
 62
7
  6
CONTINUOUS
 10
56.9318021135
 20
127.5073031752
  0
VERTEX
  8
CURVE
 62
7
  6
CONTINUOUS
 10
56.933661353
 20
127.417104383
  0
SEQEND
  0
POLYLINE
  8
CURVE
 62
7
  6
CONTINUOUS
 66
1
 70
0
  0
VERTEX
  8
CURVE
 62
7
  6
CONTINUOUS
 10
61.3877440867
 20
141.1702824084
  0
VERTEX
  8
CURVE
 62
7
  6
CONTINUOUS
 10
61.3923999925
 20
141.0814364699
  0
VERTEX
  8
CURVE
 62
7
  6
CONTINUOUS
 10
61.4063168637
 20
140.9935637761
  0
VERTEX
  8
CURVE
 62
7
  6
CONTINUOUS
 10
61.4293424643
 20
140.9076270351
  0
VERTEX
  8
CURVE
 62
7
  6
CONTINUOUS
 10
61.4612247338
 20
140.8245678131
  0
VERTEX
  8
CURVE
 62
7
  6
CONTINUOUS
 10
61.5016145297
 20
140.7452962029
  0
VERTEX
  8
CURVE
 62
7
  6
CONTINUOUS
 10
61.5500694402
 20
140.670680832
  0
VERTEX
  8
CURVE
 62
7
  6
CONTINUOUS
 10
61.6060586254
 20
140.6015393231
  0
VERTEX
  8
CURVE
 62
7
  6
CONTINUOUS
 10
61.668968636
 20
140.5386293125
  0
VERTEX
  8
CURVE
 62
7
  6
CONTINUOUS
 10
61.7381101449
 20
140.4826401273
  0
VERTEX
  8
CURVE
 62
7
  6
CONTINUOUS
 10
61.8127255158
 20
140.4341852168
  0
VERTEX
  8
CURVE
 62
7
  6
CONTINUOUS
 10
61.891997126
 20
140.3937954209
  0
VERTEX
  8
CURVE
 62
7
  6
CONTINUOUS
 10
61.975056348
 20
140.3619131514
  0
VERTEX
  8
CURVE
 62
7
  6
CONTINUOUS
 10
62.060993089
 20
140.3388875508
  0
VERTEX
  8
CURVE
 62
7
  6
CONTINUOUS
 10
62.1488657829
 20
140.3249706796
  0
VERTEX
  8
CURVE
 62
7
  6
CONTINUOUS
 10
62.2377117213
 20
140.3203147738
  0
SEQEND
  0
LINE
  8
CURVE
 62
7
  6
CONTINUOUS
 10
61.3779242127
 20
148.1264245897
 11
61.3744383256
 21
148.3642941613
  0
LINE
  8
CURVE
 62
7
  6
CONTINUOUS
 10
61.3744383256
 20
148.3642941613
 11
61.3713778845
 21
148.6694966202
  0
LINE
  8
CURVE
 62
7
  6
CONTINUOUS
 10
61.3713778845
 20
148.6694966202
 11
61.3688407286
 21
149.0322722744
  0
LINE
  8
CURVE
 62
7
  6
CONTINUOUS
 10
61.3688407286
 20
149.0322722744
 11
61.3669079605
 21
149.4410215021
  0
LINE
  8
CURVE
 62
7
  6
CONTINUOUS
 10
61.3669079605
 20
149.4410215021
 11
61.365641357
 21
149.8826758691
  0
LINE
  8
CURVE
 62
7
  6
CONTINUOUS
 10
61.365641357
 20
149.8826758691
 11
61.3650814453
 21
150.3430097806
  0
LINE
  8
CURVE
 62
7
  6
CONTINUOUS
 10
59.1577440867
 20
121.3703147738
 11
59.1577440867
 21
135.1403147738
  0
LINE
  8
CURVE
 62
7
  6
CONTINUOUS
 10
59.5077440867
 20
154.1703127913
 11
59.5077440867
 21
140.4003147738
  0
LINE
  8
CURVE
 62
7
  6
CONTINUOUS
 10
61.3877440867
 20
141.1702824084
 11
61.3877440867
 21
147.8703147738
  0
LINE
  8
CURVE
 62
7
  6
CONTINUOUS
 10
63.6466474448
 20
149.0322722744
 11
63.648580213
 21
149.4410215021
  0
LINE
  8
CURVE
 62
7
  6
CONTINUOUS
 10
63.644110289
 20
148.6694966202
 11
63.6466474448
 21
149.0322722744
  0
LINE
  8
CURVE
 62
7
  6
CONTINUOUS
 10
63.6410498479
 20
148.3642941613
 11
63.644110289
 21
148.6694966202
  0
POLYLINE
  8
CURVE
 62
7
  6
CONTINUOUS
 66
1
 70
0
  0
VERTEX
  8
CURVE
 62
7
  6
CONTINUOUS
 10
57.2908509833
 20
125.0703147738
  0
VERTEX
  8
CURVE
 62
7
  6
CONTINUOUS
 10
57.2961684112
 20
125.1125757893
  0
VERTEX
  8
CURVE
 62
7
  6
CONTINUOUS
 10
57.2993559484
 20
125.1550484398
  0
VERTEX
  8
CURVE
 62
7
  6
CONTINUOUS
 10
57.3004067281
 20
125.197619767
  0
SEQEND
  0
POLYLINE
  8
CURVE
 62
7
  6
CONTINUOUS
 66
1
 70
0
  0
VERTEX
  8
CURVE
 62
7
  6
CONTINUOUS
 10
61.3746371902
 20
150.4703147738
  0
VERTEX
  8
CURVE
 62
7
  6
CONTINUOUS
 10
61.3693194442
 20
150.4280505897
  0
VERTEX
  8
CURVE
 62
7
  6
CONTINUOUS
 10
61.3661320631
 20
150.3855778566
  0
VERTEX
  8
CURVE
 62
7
  6
CONTINUOUS
 10
61.3650814453
 20
150.3430097806
  0
SEQEND
  0
POLYLINE
  8
CURVE
 62
7
  6
CONTINUOUS
 66
1
 70
0
  0
VERTEX
  8
CURVE
 62
7
  6
CONTINUOUS
 10
63.6277440867
 20
147.8703147738
  0
VERTEX
  8
CURVE
 62
7
  6
CONTINUOUS
 10
63.6297716994
 20
147.8807168372
  0
VERTEX
  8
CURVE
 62
7
  6
CONTINUOUS
 10
63.6317840693
 20
147.9118601386
  0
VERTEX
  8
CURVE
 62
7
  6
CONTINUOUS
 10
63.6337640783
 20
147.9634951483
  0
VERTEX
  8
CURVE
 62
7
  6
CONTINUOUS
 10
63.6356958665
 20
148.0352081544
  0
VERTEX
  8
CURVE
 62
7
  6
CONTINUOUS
 10
63.6375639607
 20
148.1264245897
  0
VERTEX
  8
CURVE
 62
7
  6
CONTINUOUS
 10
63.6410498479
 20
148.3642941613
  0
SEQEND
  0
LINE
  8
CURVE
 62
7
  6
CONTINUOUS
 10
46.9034521638
 20
136.3989555559
 11
46.9844117722
 21
136.4989323461
  0
LINE
  8
CURVE
 62
7
  6
CONTINUOUS
 10
52.6310764021
 20
136.498932345
 11
52.7120360096
 21
136.3989555559
  0
POLYLINE
  8
CURVE
 62
7
  6
CONTINUOUS
 66
1
 70
0
  0
VERTEX
  8
CURVE
 62
7
  6
CONTINUOUS
 10
63.6504067281
 20
150.3430097806
  0
VERTEX
  8
CURVE
 62
7
  6
CONTINUOUS
 10
63.6493560809
 20
150.3855784485
  0
VERTEX
  8
CURVE
 62
7
  6
CONTINUOUS
 10
63.6461686662
 20
150.4280512183
  0
VERTEX
  8
CURVE
 62
7
  6
CONTINUOUS
 10
63.6408509833
 20
150.4703147738
  0
SEQEND
  0
POLYLINE
  8
CURVE
 62
7
  6
CONTINUOUS
 66
1
 70
0
  0
VERTEX
  8
CURVE
 62
7
  6
CONTINUOUS
 10
67.7150814453
 20
125.197619767
  0
VERTEX
  8
CURVE
 62
7
  6
CONTINUOUS
 10
67.716132255
 20
125.1550478385
  0
VERTEX
  8
CURVE
 62
7
  6
CONTINUOUS
 10
67.7193198247
 20
125.1125751667
  0
VERTEX
  8
CURVE
 62
7
  6
CONTINUOUS
 10
67.7246371902
 20
125.0703147738
  0
SEQEND
  0
LINE
  8
CURVE
 62
7
  6
CONTINUOUS
 10
63.6277440867
 20
147.8703147738
 11
63.6277440867
 21
141.1702824084
  0
LINE
  8
CURVE
 62
7
  6
CONTINUOUS
 10
65.5077440867
 20
140.4003147738
 11
65.5077440867
 21
154.1703147738
  0
LINE
  8
CURVE
 62
7
  6
CONTINUOUS
 10
65.8577440867
 20
135.1403147738
 11
65.8577440867
 21
121.3703147738
  0
LINE
  8
CURVE
 62
7
  6
CONTINUOUS
 10
67.7377440867
 20
127.6703147738
 11
67.7377440867
 21
134.3703471392
  0
LINE
  8
CURVE
 62
7
  6
CONTINUOUS
 10
63.6498468164
 20
149.8826758691
 11
63.6504067281
 21
150.3430097806
  0
LINE
  8
CURVE
 62
7
  6
CONTINUOUS
 10
67.7150814453
 20
125.197619767
 11
67.715641357
 21
125.6579536797
  0
LINE
  8
CURVE
 62
7
  6
CONTINUOUS
 10
63.648580213
 20
149.4410215021
 11
63.6498468164
 21
149.8826758691
  0
LINE
  8
CURVE
 62
7
  6
CONTINUOUS
 10
67.715641357
 20
125.6579536797
 11
67.7169079605
 21
126.0996080468
  0
LINE
  8
CURVE
 62
7
  6
CONTINUOUS
 10
67.7169079605
 20
126.0996080468
 11
67.7188407286
 21
126.5083572739
  0
LINE
  8
CURVE
 62
7
  6
CONTINUOUS
 10
67.7188407286
 20
126.5083572739
 11
67.7213778845
 21
126.8711329274
  0
LINE
  8
CURVE
 62
7
  6
CONTINUOUS
 10
67.7213778845
 20
126.8711329274
 11
67.7244383256
 21
127.1763353857
  0
POLYLINE
  8
CURVE
 62
7
  6
CONTINUOUS
 66
1
 70
0
  0
VERTEX
  8
CURVE
 62
7
  6
CONTINUOUS
 10
67.7244383256
 20
127.1763353857
  0
VERTEX
  8
CURVE
 62
7
  6
CONTINUOUS
 10
67.7279242127
 20
127.4142049571
  0
VERTEX
  8
CURVE
 62
7
  6
CONTINUOUS
 10
67.7297923069
 20
127.5054213926
  0
VERTEX
  8
CURVE
 62
7
  6
CONTINUOUS
 10
67.7317240952
 20
127.5771343988
  0
VERTEX
  8
CURVE
 62
7
  6
CONTINUOUS
 10
67.7337041041
 20
127.6287694087
  0
VERTEX
  8
CURVE
 62
7
  6
CONTINUOUS
 10
67.735716474
 20
127.6599127103
  0
VERTEX
  8
CURVE
 62
7
  6
CONTINUOUS
 10
67.7377440867
 20
127.6703147738
  0
SEQEND
  0
POLYLINE
  8
CURVE
 62
7
  6
CONTINUOUS
 66
1
 70
0
  0
VERTEX
  8
CURVE
 62
7
  6
CONTINUOUS
 10
56.924438162
 20
125.0703147738
  0
VERTEX
  8
CURVE
 62
7
  6
CONTINUOUS
 10
56.9008555709
 20
125.0073171803
  0
VERTEX
  8
CURVE
 62
7
  6
CONTINUOUS
 10
56.8696792048
 20
124.9485062017
  0
VERTEX
  8
CURVE
 62
7
  6
CONTINUOUS
 10
56.8312904988
 20
124.8942621448
  0
VERTEX
  8
CURVE
 62
7
  6
CONTINUOUS
 10
56.786202447
 20
124.8453028904
  0
VERTEX
  8
CURVE
 62
7
  6
CONTINUOUS
 10
56.7354248275
 20
124.8026770618
  0
VERTEX
  8
CURVE
 62
7
  6
CONTINUOUS
 10
56.6801351933
 20
124.767159628
  0
VERTEX
  8
CURVE
 62
7
  6
CONTINUOUS
 10
56.6207554374
 20
124.7388971648
  0
VERTEX
  8
CURVE
 62
7
  6
CONTINUOUS
 10
56.5581575679
 20
124.7183397887
  0
VERTEX
  8
CURVE
 62
7
  6
CONTINUOUS
 10
56.4934227875
 20
124.7058693718
  0
VERTEX
  8
CURVE
 62
7
  6
CONTINUOUS
 10
56.4277764521
 20
124.7017038315
  0
SEQEND
  0
LINE
  8
CURVE
 62
7
  6
CONTINUOUS
 10
59.0620360096
 20
139.1416739917
 11
58.9810764046
 21
139.0416972057
  0
POLYLINE
  8
CURVE
 62
7
  6
CONTINUOUS
 66
1
 70
0
  0
VERTEX
  8
CURVE
 62
7
  6
CONTINUOUS
 10
37.8940444324
 20
138.7815799606
  0
VERTEX
  8
CURVE
 62
7
  6
CONTINUOUS
 10
37.9588814593
 20
138.8194561476
  0
VERTEX
  8
CURVE
 62
7
  6
CONTINUOUS
 10
38.0245131102
 20
138.8514757685
  0
VERTEX
  8
CURVE
 62
7
  6
CONTINUOUS
 10
38.0904371326
 20
138.8762905692
  0
VERTEX
  8
CURVE
 62
7
  6
CONTINUOUS
 10
38.1566976634
 20
138.8928239119
  0
VERTEX
  8
CURVE
 62
7
  6
CONTINUOUS
 10
38.2230599438
 20
138.9000921834
  0
VERTEX
  8
CURVE
 62
7
  6
CONTINUOUS
 10
38.2879232174
 20
138.8977104904
  0
SEQEND
  0
POLYLINE
  8
CURVE
 62
7
  6
CONTINUOUS
 66
1
 70
0
  0
VERTEX
  8
CURVE
 62
7
  6
CONTINUOUS
 10
37.8940444324
 20
138.7815799606
  0
VERTEX
  8
CURVE
 62
7
  6
CONTINUOUS
 10
37.7178401101
 20
138.679873361
  0
VERTEX
  8
CURVE
 62
7
  6
CONTINUOUS
 10
37.5150690791
 20
138.5788486149
  0
VERTEX
  8
CURVE
 62
7
  6
CONTINUOUS
 10
37.2851016683
 20
138.478126482
  0
VERTEX
  8
CURVE
 62
7
  6
CONTINUOUS
 10
37.0268921235
 20
138.3773716676
  0
VERTEX
  8
CURVE
 62
7
  6
CONTINUOUS
 10
36.7390555117
 20
138.2762803387
  0
VERTEX
  8
CURVE
 62
7
  6
CONTINUOUS
 10
36.4199215542
 20
138.1745891861
  0
VERTEX
  8
CURVE
 62
7
  6
CONTINUOUS
 10
36.0675499779
 20
138.0720704103
  0
VERTEX
  8
CURVE
 62
7
  6
CONTINUOUS
 10
35.6797473637
 20
137.9685301587
  0
VERTEX
  8
CURVE
 62
7
  6
CONTINUOUS
 10
35.2540541334
 20
137.8638012277
  0
VERTEX
  8
CURVE
 62
7
  6
CONTINUOUS
 10
34.7877440867
 20
137.7577422917
  0
SEQEND
  0
LINE
  8
CURVE
 62
7
  6
CONTINUOUS
 10
53.3344117735
 20
139.0416971999
 11
53.2534521638
 21
139.1416739917
  0
POLYLINE
  8
CURVE
 62
7
  6
CONTINUOUS
 66
1
 70
0
  0
VERTEX
  8
CURVE
 62
7
  6
CONTINUOUS
 10
67.7246371902
 20
125.0703147738
  0
VERTEX
  8
CURVE
 62
7
  6
CONTINUOUS
 10
67.7449058741
 20
124.9743766353
  0
VERTEX
  8
CURVE
 62
7
  6
CONTINUOUS
 10
67.7765461748
 20
124.8803828669
  0
VERTEX
  8
CURVE
 62
7
  6
CONTINUOUS
 10
67.8193604197
 20
124.7899948231
  0
VERTEX
  8
CURVE
 62
7
  6
CONTINUOUS
 10
67.8731791444
 20
124.7043666855
  0
VERTEX
  8
CURVE
 62
7
  6
CONTINUOUS
 10
67.9369521434
 20
124.6255960503
  0
VERTEX
  8
CURVE
 62
7
  6
CONTINUOUS
 10
68.0094887032
 20
124.5551294698
  0
VERTEX
  8
CURVE
 62
7
  6
CONTINUOUS
 10
68.090512062
 20
124.4933487172
  0
VERTEX
  8
CURVE
 62
7
  6
CONTINUOUS
 10
68.1783760314
 20
124.441671088
  0
VERTEX
  8
CURVE
 62
7
  6
CONTINUOUS
 10
68.2710320586
 20
124.4011308955
  0
VERTEX
  8
CURVE
 62
7
  6
CONTINUOUS
 10
68.367840474
 20
124.3718450097
  0
VERTEX
  8
CURVE
 62
7
  6
CONTINUOUS
 10
68.4669860812
 20
124.354276971
  0
VERTEX
  8
CURVE
 62
7
  6
CONTINUOUS
 10
68.565913746
 20
124.3485167985
  0
SEQEND
  0
POLYLINE
  8
CURVE
 62
7
  6
CONTINUOUS
 66
1
 70
0
  0
VERTEX
  8
CURVE
 62
7
  6
CONTINUOUS
 10
63.6408509833
 20
150.4703147738
  0
VERTEX
  8
CURVE
 62
7
  6
CONTINUOUS
 10
63.6205971898
 20
150.5661982785
  0
VERTEX
  8
CURVE
 62
7
  6
CONTINUOUS
 10
63.5889808002
 20
150.6601504378
  0
VERTEX
  8
CURVE
 62
7
  6
CONTINUOUS
 10
63.5461718306
 20
150.7505543049
  0
VERTEX
  8
CURVE
 62
7
  6
CONTINUOUS
 10
63.4923544157
 20
150.8361993891
  0
VERTEX
  8
CURVE
 62
7
  6
CONTINUOUS
 10
63.4285824345
 20
150.9149827036
  0
VERTEX
  8
CURVE
 62
7
  6
CONTINUOUS
 10
63.3560405762
 20
150.9854646445
  0
VERTEX
  8
CURVE
 62
7
  6
CONTINUOUS
 10
63.275009573
 20
151.0472583497
  0
VERTEX
  8
CURVE
 62
7
  6
CONTINUOUS
 10
63.1871436153
 20
151.0989424001
  0
VERTEX
  8
CURVE
 62
7
  6
CONTINUOUS
 10
63.0944842893
 20
151.1394882682
  0
VERTEX
  8
CURVE
 62
7
  6
CONTINUOUS
 10
62.9976672866
 20
151.1687798597
  0
VERTEX
  8
CURVE
 62
7
  6
CONTINUOUS
 10
62.8985142301
 20
151.1863511584
  0
VERTEX
  8
CURVE
 62
7
  6
CONTINUOUS
 10
62.7995744274
 20
151.1921127491
  0
SEQEND
  0
POLYLINE
  8
CURVE
 62
7
  6
CONTINUOUS
 66
1
 70
0
  0
VERTEX
  8
CURVE
 62
7
  6
CONTINUOUS
 10
61.3877440867
 20
147.8703147738
  0
VERTEX
  8
CURVE
 62
7
  6
CONTINUOUS
 10
61.385716474
 20
147.8807168372
  0
VERTEX
  8
CURVE
 62
7
  6
CONTINUOUS
 10
61.3837041041
 20
147.9118601386
  0
VERTEX
  8
CURVE
 62
7
  6
CONTINUOUS
 10
61.3817240952
 20
147.9634951483
  0
VERTEX
  8
CURVE
 62
7
  6
CONTINUOUS
 10
61.379792307
 20
148.0352081544
  0
VERTEX
  8
CURVE
 62
7
  6
CONTINUOUS
 10
61.3779242127
 20
148.1264245897
  0
SEQEND
  0
POLYLINE
  8
CURVE
 62
7
  6
CONTINUOUS
 66
1
 70
0
  0
VERTEX
  8
CURVE
 62
7
  6
CONTINUOUS
 10
69.9875639608
 20
127.4142049571
  0
VERTEX
  8
CURVE
 62
7
  6
CONTINUOUS
 10
69.9856958665
 20
127.5054213926
  0
VERTEX
  8
CURVE
 62
7
  6
CONTINUOUS
 10
69.9837640783
 20
127.5771343988
  0
VERTEX
  8
CURVE
 62
7
  6
CONTINUOUS
 10
69.9817840693
 20
127.6287694087
  0
VERTEX
  8
CURVE
 62
7
  6
CONTINUOUS
 10
69.9797716994
 20
127.6599127103
  0
VERTEX
  8
CURVE
 62
7
  6
CONTINUOUS
 10
69.9777440867
 20
127.6703147738
  0
SEQEND
  0
LINE
  8
CURVE
 62
7
  6
CONTINUOUS
 10
69.9910498479
 20
127.1763353857
 11
69.9875639608
 21
127.4142049571
  0
LINE
  8
CURVE
 62
7
  6
CONTINUOUS
 10
69.994110289
 20
126.8711329274
 11
69.9910498479
 21
127.1763353857
  0
LINE
  8
CURVE
 62
7
  6
CONTINUOUS
 10
69.9966474448
 20
126.5083572739
 11
69.994110289
 21
126.8711329274
  0
LINE
  8
CURVE
 62
7
  6
CONTINUOUS
 10
69.998580213
 20
126.0996080468
 11
69.9966474448
 21
126.5083572739
  0
LINE
  8
CURVE
 62
7
  6
CONTINUOUS
 10
69.9998468164
 20
125.6579536797
 11
69.998580213
 21
126.0996080468
  0
LINE
  8
CURVE
 62
7
  6
CONTINUOUS
 10
70.0004067281
 20
125.197619767
 11
69.9998468164
 21
125.6579536797
  0
LINE
  8
CURVE
 62
7
  6
CONTINUOUS
 10
69.9777440867
 20
134.3703471392
 11
69.9777440867
 21
127.6703147738
  0
LINE
  8
CURVE
 62
7
  6
CONTINUOUS
 10
71.5077440867
 20
145.9703147738
 11
71.5077440867
 21
145.1703147738
  0
LINE
  8
CURVE
 62
7
  6
CONTINUOUS
 10
71.8577440867
 20
121.3703147738
 11
71.8577440867
 21
135.1403147738
  0
LINE
  8
CURVE
 62
7
  6
CONTINUOUS
 10
72.2077440867
 20
154.1703127913
 11
72.2077440867
 21
140.4003147738
  0
LINE
  8
CURVE
 62
7
  6
CONTINUOUS
 10
72.5577438918
 20
130.3703147738
 11
72.5577438918
 21
129.5703147738
  0
POLYLINE
  8
CURVE
 62
7
  6
CONTINUOUS
 66
1
 70
0
  0
VERTEX
  8
CURVE
 62
7
  6
CONTINUOUS
 10
69.9908509833
 20
125.0703147738
  0
VERTEX
  8
CURVE
 62
7
  6
CONTINUOUS
 10
69.9961684112
 20
125.1125757893
  0
VERTEX
  8
CURVE
 62
7
  6
CONTINUOUS
 10
69.9993559484
 20
125.1550484398
  0
VERTEX
  8
CURVE
 62
7
  6
CONTINUOUS
 10
70.0004067281
 20
125.197619767
  0
SEQEND
  0
LINE
  8
CURVE
 62
7
  6
CONTINUOUS
 10
59.6034521638
 20
136.3989555559
 11
59.6844117722
 21
136.4989323461
  0
LINE
  8
CURVE
 62
7
  6
CONTINUOUS
 10
65.3310764021
 20
136.498932345
 11
65.4120360096
 21
136.3989555559
  0
POLYLINE
  8
CURVE
 62
7
  6
CONTINUOUS
 66
1
 70
0
  0
VERTEX
  8
CURVE
 62
7
  6
CONTINUOUS
 10
74.0877440867
 20
141.1702824084
  0
VERTEX
  8
CURVE
 62
7
  6
CONTINUOUS
 10
74.0923999925
 20
141.0814364699
  0
VERTEX
  8
CURVE
 62
7
  6
CONTINUOUS
 10
74.1063168637
 20
140.9935637761
  0
VERTEX
  8
CURVE
 62
7
  6
CONTINUOUS
 10
74.1293424643
 20
140.9076270351
  0
VERTEX
  8
CURVE
 62
7
  6
CONTINUOUS
 10
74.1612247338
 20
140.8245678131
  0
VERTEX
  8
CURVE
 62
7
  6
CONTINUOUS
 10
74.2016145297
 20
140.7452962029
  0
VERTEX
  8
CURVE
 62
7
  6
CONTINUOUS
 10
74.2500694402
 20
140.670680832
  0
VERTEX
  8
CURVE
 62
7
  6
CONTINUOUS
 10
74.3060586254
 20
140.6015393231
  0
VERTEX
  8
CURVE
 62
7
  6
CONTINUOUS
 10
74.368968636
 20
140.5386293125
  0
VERTEX
  8
CURVE
 62
7
  6
CONTINUOUS
 10
74.4381101449
 20
140.4826401273
  0
VERTEX
  8
CURVE
 62
7
  6
CONTINUOUS
 10
74.5127255158
 20
140.4341852168
  0
VERTEX
  8
CURVE
 62
7
  6
CONTINUOUS
 10
74.591997126
 20
140.3937954209
  0
VERTEX
  8
CURVE
 62
7
  6
CONTINUOUS
 10
74.675056348
 20
140.3619131514
  0
VERTEX
  8
CURVE
 62
7
  6
CONTINUOUS
 10
74.760993089
 20
140.3388875508
  0
VERTEX
  8
CURVE
 62
7
  6
CONTINUOUS
 10
74.8488657829
 20
140.3249706796
  0
VERTEX
  8
CURVE
 62
7
  6
CONTINUOUS
 10
74.9377117213
 20
140.3203147738
  0
SEQEND
  0
LINE
  8
CURVE
 62
7
  6
CONTINUOUS
 10
74.0779242127
 20
148.1264245897
 11
74.0744383256
 21
148.3642941613
  0
LINE
  8
CURVE
 62
7
  6
CONTINUOUS
 10
74.0744383256
 20
148.3642941613
 11
74.0713778845
 21
148.6694966202
  0
LINE
  8
CURVE
 62
7
  6
CONTINUOUS
 10
74.0713778845
 20
148.6694966202
 11
74.0688407286
 21
149.0322722744
  0
LINE
  8
CURVE
 62
7
  6
CONTINUOUS
 10
74.0688407286
 20
149.0322722744
 11
74.0669079605
 21
149.4410215021
  0
LINE
  8
CURVE
 62
7
  6
CONTINUOUS
 10
74.0669079605
 20
149.4410215021
 11
74.065641357
 21
149.8826758691
  0
LINE
  8
CURVE
 62
7
  6
CONTINUOUS
 10
74.065641357
 20
149.8826758691
 11
74.0650814453
 21
150.3430097806
  0
LINE
  8
CURVE
 62
7
  6
CONTINUOUS
 10
74.0877440867
 20
141.1702824084
 11
74.0877440867
 21
147.8703147738
  0
LINE
  8
DEFAULT_1
 62
2
  6
CENTER
 10
75.2077440867
 20
142.1703147738
 11
75.2077440867
 21
139.7704147738
  0
LINE
  8
0
 62
2
  6
CONTINUOUS
 10
75.2077440867
 20
138.6503147738
 11
75.2077440867
 21
136.8903147738
  0
LINE
  8
DEFAULT_1
 62
2
  6
CENTER
 10
75.2077440867
 20
133.3703147738
 11
75.2077440867
 21
135.7702147738
  0
LINE
  8
0
 62
7
  6
CONTINUOUS
 10
76.3277440867
 20
141.1702824084
 11
76.3277440867
 21
147.8703147738
  0
LINE
  8
0
 62
7
  6
CONTINUOUS
 10
76.3498468164
 20
149.8826758691
 11
76.3504067281
 21
150.3430097806
  0
LINE
  8
0
 62
7
  6
CONTINUOUS
 10
76.348580213
 20
149.4410215021
 11
76.3498468164
 21
149.8826758691
  0
LINE
  8
0
 62
7
  6
CONTINUOUS
 10
76.3466474448
 20
149.0322722744
 11
76.348580213
 21
149.4410215021
  0
LINE
  8
0
 62
7
  6
CONTINUOUS
 10
76.344110289
 20
148.6694966202
 11
76.3466474448
 21
149.0322722744
  0
LINE
  8
0
 62
7
  6
CONTINUOUS
 10
76.3410498479
 20
148.3642941613
 11
76.344110289
 21
148.6694966202
  0
POLYLINE
  8
0
 62
7
  6
CONTINUOUS
 66
1
 70
0
  0
VERTEX
  8
0
 62
7
  6
CONTINUOUS
 10
76.3277440867
 20
141.1702824084
  0
VERTEX
  8
0
 62
7
  6
CONTINUOUS
 10
76.3230881809
 20
141.0814364699
  0
VERTEX
  8
0
 62
7
  6
CONTINUOUS
 10
76.3091713097
 20
140.9935637761
  0
VERTEX
  8
0
 62
7
  6
CONTINUOUS
 10
76.2861457092
 20
140.9076270351
  0
VERTEX
  8
0
 62
7
  6
CONTINUOUS
 10
76.2542634396
 20
140.8245678131
  0
VERTEX
  8
0
 62
7
  6
CONTINUOUS
 10
76.2138736437
 20
140.7452962029
  0
VERTEX
  8
0
 62
7
  6
CONTINUOUS
 10
76.1654187332
 20
140.670680832
  0
VERTEX
  8
0
 62
7
  6
CONTINUOUS
 10
76.1094295481
 20
140.6015393231
  0
VERTEX
  8
0
 62
7
  6
CONTINUOUS
 10
76.0465195374
 20
140.5386293125
  0
VERTEX
  8
0
 62
7
  6
CONTINUOUS
 10
75.9773780286
 20
140.4826401273
  0
VERTEX
  8
0
 62
7
  6
CONTINUOUS
 10
75.9027626576
 20
140.4341852168
  0
VERTEX
  8
0
 62
7
  6
CONTINUOUS
 10
75.8234910474
 20
140.3937954209
  0
VERTEX
  8
0
 62
7
  6
CONTINUOUS
 10
75.7404318254
 20
140.3619131514
  0
VERTEX
  8
0
 62
7
  6
CONTINUOUS
 10
75.6544950845
 20
140.3388875508
  0
VERTEX
  8
0
 62
7
  6
CONTINUOUS
 10
75.5666223906
 20
140.3249706796
  0
VERTEX
  8
0
 62
7
  6
CONTINUOUS
 10
75.4777764521
 20
140.3203147738
  0
SEQEND
  0
POLYLINE
  8
CURVE
 62
7
  6
CONTINUOUS
 66
1
 70
0
  0
VERTEX
  8
CURVE
 62
7
  6
CONTINUOUS
 10
74.0746371902
 20
150.4703147738
  0
VERTEX
  8
CURVE
 62
7
  6
CONTINUOUS
 10
74.0693194442
 20
150.4280505897
  0
VERTEX
  8
CURVE
 62
7
  6
CONTINUOUS
 10
74.0661320631
 20
150.3855778566
  0
VERTEX
  8
CURVE
 62
7
  6
CONTINUOUS
 10
74.0650814453
 20
150.3430097806
  0
SEQEND
  0
POLYLINE
  8
0
 62
7
  6
CONTINUOUS
 66
1
 70
0
  0
VERTEX
  8
0
 62
7
  6
CONTINUOUS
 10
76.3277440867
 20
147.8703147738
  0
VERTEX
  8
0
 62
7
  6
CONTINUOUS
 10
76.3297716994
 20
147.8807168372
  0
VERTEX
  8
0
 62
7
  6
CONTINUOUS
 10
76.3317840693
 20
147.9118601386
  0
VERTEX
  8
0
 62
7
  6
CONTINUOUS
 10
76.3337640783
 20
147.9634951483
  0
VERTEX
  8
0
 62
7
  6
CONTINUOUS
 10
76.3356958665
 20
148.0352081544
  0
VERTEX
  8
0
 62
7
  6
CONTINUOUS
 10
76.3375639607
 20
148.1264245897
  0
VERTEX
  8
0
 62
7
  6
CONTINUOUS
 10
76.3410498479
 20
148.3642941613
  0
SEQEND
  0
LINE
  8
CURVE
 62
7
  6
CONTINUOUS
 10
71.7620360096
 20
139.1416739917
 11
71.6810764046
 21
139.0416972057
  0
LINE
  8
CURVE
 62
7
  6
CONTINUOUS
 10
66.0344117735
 20
139.0416971999
 11
65.9534521638
 21
139.1416739917
  0
POLYLINE
  8
CURVE
 62
7
  6
CONTINUOUS
 66
1
 70
0
  0
VERTEX
  8
CURVE
 62
7
  6
CONTINUOUS
 10
74.0877440867
 20
147.8703147738
  0
VERTEX
  8
CURVE
 62
7
  6
CONTINUOUS
 10
74.085716474
 20
147.8807168372
  0
VERTEX
  8
CURVE
 62
7
  6
CONTINUOUS
 10
74.0837041041
 20
147.9118601386
  0
VERTEX
  8
CURVE
 62
7
  6
CONTINUOUS
 10
74.0817240952
 20
147.9634951483
  0
VERTEX
  8
CURVE
 62
7
  6
CONTINUOUS
 10
74.079792307
 20
148.0352081544
  0
VERTEX
  8
CURVE
 62
7
  6
CONTINUOUS
 10
74.0779242127
 20
148.1264245897
  0
SEQEND
  0
LINE
  8
0
 62
7
  6
CONTINUOUS
 10
77.8577442817
 20
130.3703147738
 11
77.8577442817
 21
129.5703147738
  0
LINE
  8
0
 62
7
  6
CONTINUOUS
 10
78.2077440867
 20
154.1703127913
 11
78.2077440867
 21
140.4003147738
  0
LINE
  8
0
 62
7
  6
CONTINUOUS
 10
78.5577440867
 20
121.3703147738
 11
78.5577440867
 21
135.1403147738
  0
LINE
  8
0
 62
7
  6
CONTINUOUS
 10
78.9077440867
 20
145.9703147738
 11
78.9077440867
 21
145.1703147738
  0
LINE
  8
0
 62
7
  6
CONTINUOUS
 10
80.4377440867
 20
134.3703471392
 11
80.4377440867
 21
127.6703147738
  0
LINE
  8
0
 62
7
  6
CONTINUOUS
 10
80.4150814453
 20
125.197619767
 11
80.415641357
 21
125.6579536797
  0
LINE
  8
0
 62
7
  6
CONTINUOUS
 10
80.415641357
 20
125.6579536797
 11
80.4169079605
 21
126.0996080468
  0
LINE
  8
0
 62
7
  6
CONTINUOUS
 10
80.4169079605
 20
126.0996080468
 11
80.4188407286
 21
126.5083572739
  0
LINE
  8
0
 62
7
  6
CONTINUOUS
 10
80.4188407286
 20
126.5083572739
 11
80.4213778845
 21
126.8711329274
  0
LINE
  8
0
 62
7
  6
CONTINUOUS
 10
80.4213778845
 20
126.8711329274
 11
80.4244383256
 21
127.1763353857
  0
POLYLINE
  8
0
 62
7
  6
CONTINUOUS
 66
1
 70
0
  0
VERTEX
  8
0
 62
7
  6
CONTINUOUS
 10
80.4244383256
 20
127.1763353857
  0
VERTEX
  8
0
 62
7
  6
CONTINUOUS
 10
80.4279242127
 20
127.4142049571
  0
VERTEX
  8
0
 62
7
  6
CONTINUOUS
 10
80.4297923069
 20
127.5054213926
  0
VERTEX
  8
0
 62
7
  6
CONTINUOUS
 10
80.4317240952
 20
127.5771343988
  0
VERTEX
  8
0
 62
7
  6
CONTINUOUS
 10
80.4337041041
 20
127.6287694087
  0
VERTEX
  8
0
 62
7
  6
CONTINUOUS
 10
80.435716474
 20
127.6599127103
  0
VERTEX
  8
0
 62
7
  6
CONTINUOUS
 10
80.4377440867
 20
127.6703147738
  0
SEQEND
  0
LINE
  8
CURVE
 62
7
  6
CONTINUOUS
 10
72.3034521638
 20
136.3989555559
 11
72.3844117734
 21
136.4989323476
  0
POLYLINE
  8
0
 62
7
  6
CONTINUOUS
 66
1
 70
0
  0
VERTEX
  8
0
 62
7
  6
CONTINUOUS
 10
76.3408509833
 20
150.4703147738
  0
VERTEX
  8
0
 62
7
  6
CONTINUOUS
 10
76.3461687293
 20
150.4280505897
  0
VERTEX
  8
0
 62
7
  6
CONTINUOUS
 10
76.3493561104
 20
150.3855778566
  0
VERTEX
  8
0
 62
7
  6
CONTINUOUS
 10
76.3504067281
 20
150.3430097806
  0
SEQEND
  0
POLYLINE
  8
0
 62
7
  6
CONTINUOUS
 66
1
 70
0
  0
VERTEX
  8
0
 62
7
  6
CONTINUOUS
 10
80.4246371902
 20
125.0703147738
  0
VERTEX
  8
0
 62
7
  6
CONTINUOUS
 10
80.4193197622
 20
125.1125757893
  0
VERTEX
  8
0
 62
7
  6
CONTINUOUS
 10
80.4161322251
 20
125.1550484398
  0
VERTEX
  8
0
 62
7
  6
CONTINUOUS
 10
80.4150814453
 20
125.197619767
  0
SEQEND
  0
POLYLINE
  8
0
 62
7
  6
CONTINUOUS
 66
1
 70
0
  0
VERTEX
  8
0
 62
7
  6
CONTINUOUS
 10
82.6875639608
 20
127.4142049571
  0
VERTEX
  8
0
 62
7
  6
CONTINUOUS
 10
82.6856958665
 20
127.5054213926
  0
VERTEX
  8
0
 62
7
  6
CONTINUOUS
 10
82.6837640783
 20
127.5771343988
  0
VERTEX
  8
0
 62
7
  6
CONTINUOUS
 10
82.6817840693
 20
127.6287694087
  0
VERTEX
  8
0
 62
7
  6
CONTINUOUS
 10
82.6797716994
 20
127.6599127103
  0
VERTEX
  8
0
 62
7
  6
CONTINUOUS
 10
82.6777440867
 20
127.6703147738
  0
SEQEND
  0
LINE
  8
0
 62
7
  6
CONTINUOUS
 10
82.6910498479
 20
127.1763353857
 11
82.6875639608
 21
127.4142049571
  0
LINE
  8
0
 62
7
  6
CONTINUOUS
 10
82.694110289
 20
126.8711329274
 11
82.6910498479
 21
127.1763353857
  0
LINE
  8
0
 62
7
  6
CONTINUOUS
 10
82.6966474448
 20
126.5083572739
 11
82.694110289
 21
126.8711329274
  0
LINE
  8
0
 62
7
  6
CONTINUOUS
 10
82.698580213
 20
126.0996080468
 11
82.6966474448
 21
126.5083572739
  0
LINE
  8
0
 62
7
  6
CONTINUOUS
 10
82.6998468164
 20
125.6579536797
 11
82.698580213
 21
126.0996080468
  0
LINE
  8
0
 62
7
  6
CONTINUOUS
 10
82.7004067281
 20
125.197619767
 11
82.6998468164
 21
125.6579536797
  0
LINE
  8
0
 62
7
  6
CONTINUOUS
 10
82.6777440867
 20
127.6703147738
 11
82.6777440867
 21
134.3703471392
  0
LINE
  8
0
 62
7
  6
CONTINUOUS
 10
84.5577440867
 20
135.1403147738
 11
84.5577440867
 21
121.3703167563
  0
LINE
  8
0
 62
7
  6
CONTINUOUS
 10
84.9077440867
 20
140.4003147738
 11
84.9077440867
 21
154.1703147738
  0
POLYLINE
  8
0
 62
7
  6
CONTINUOUS
 66
1
 70
0
  0
VERTEX
  8
0
 62
7
  6
CONTINUOUS
 10
82.7004067281
 20
125.197619767
  0
VERTEX
  8
0
 62
7
  6
CONTINUOUS
 10
82.6993559184
 20
125.1550478385
  0
VERTEX
  8
0
 62
7
  6
CONTINUOUS
 10
82.6961683487
 20
125.1125751667
  0
VERTEX
  8
0
 62
7
  6
CONTINUOUS
 10
82.6908509833
 20
125.0703147738
  0
SEQEND
  0
POLYLINE
  8
0
 62
7
  6
CONTINUOUS
 66
1
 70
0
  0
VERTEX
  8
0
 62
7
  6
CONTINUOUS
 10
86.7746371902
 20
150.4703147738
  0
VERTEX
  8
0
 62
7
  6
CONTINUOUS
 10
86.7948909836
 20
150.5661982785
  0
VERTEX
  8
0
 62
7
  6
CONTINUOUS
 10
86.8265073732
 20
150.6601504378
  0
VERTEX
  8
0
 62
7
  6
CONTINUOUS
 10
86.8693163429
 20
150.7505543049
  0
VERTEX
  8
0
 62
7
  6
CONTINUOUS
 10
86.9231337577
 20
150.8361993891
  0
VERTEX
  8
0
 62
7
  6
CONTINUOUS
 10
86.986905739
 20
150.9149827036
  0
VERTEX
  8
0
 62
7
  6
CONTINUOUS
 10
87.0594475972
 20
150.9854646445
  0
VERTEX
  8
0
 62
7
  6
CONTINUOUS
 10
87.1404786005
 20
151.0472583497
  0
VERTEX
  8
0
 62
7
  6
CONTINUOUS
 10
87.2283445582
 20
151.0989424001
  0
VERTEX
  8
0
 62
7
  6
CONTINUOUS
 10
87.3210038841
 20
151.1394882682
  0
VERTEX
  8
0
 62
7
  6
CONTINUOUS
 10
87.4178208869
 20
151.1687798597
  0
VERTEX
  8
0
 62
7
  6
CONTINUOUS
 10
87.5169739434
 20
151.1863511584
  0
VERTEX
  8
0
 62
7
  6
CONTINUOUS
 10
87.615913746
 20
151.1921127491
  0
SEQEND
  0
POLYLINE
  8
0
 62
7
  6
CONTINUOUS
 66
1
 70
0
  0
VERTEX
  8
0
 62
7
  6
CONTINUOUS
 10
82.6908509833
 20
125.0703147738
  0
VERTEX
  8
0
 62
7
  6
CONTINUOUS
 10
82.6705822994
 20
124.9743766353
  0
VERTEX
  8
0
 62
7
  6
CONTINUOUS
 10
82.6389419986
 20
124.8803828669
  0
VERTEX
  8
0
 62
7
  6
CONTINUOUS
 10
82.5961277537
 20
124.7899948231
  0
VERTEX
  8
0
 62
7
  6
CONTINUOUS
 10
82.542309029
 20
124.7043666855
  0
VERTEX
  8
0
 62
7
  6
CONTINUOUS
 10
82.4785360301
 20
124.6255960503
  0
VERTEX
  8
0
 62
7
  6
CONTINUOUS
 10
82.4059994703
 20
124.5551294698
  0
VERTEX
  8
0
 62
7
  6
CONTINUOUS
 10
82.3249761114
 20
124.4933487172
  0
VERTEX
  8
0
 62
7
  6
CONTINUOUS
 10
82.237112142
 20
124.441671088
  0
VERTEX
  8
0
 62
7
  6
CONTINUOUS
 10
82.1444561148
 20
124.4011308955
  0
VERTEX
  8
0
 62
7
  6
CONTINUOUS
 10
82.0476476995
 20
124.3718450097
  0
VERTEX
  8
0
 62
7
  6
CONTINUOUS
 10
81.9485020922
 20
124.354276971
  0
VERTEX
  8
0
 62
7
  6
CONTINUOUS
 10
81.8495744274
 20
124.3485167985
  0
SEQEND
  0
LINE
  8
CURVE
 62
7
  6
CONTINUOUS
 10
41.3077440867
 20
120.5203147738
 11
45.0027440867
 21
120.5203147738
  0
LINE
  8
CURVE
 62
7
  6
CONTINUOUS
 10
54.0077440867
 20
120.5203147738
 11
58.3077440867
 21
120.5203147738
  0
LINE
  8
CURVE
 62
7
  6
CONTINUOUS
 10
66.7077440867
 20
120.5203147738
 11
71.0077440867
 21
120.5203147738
  0
LINE
  8
0
 62
7
  6
CONTINUOUS
 10
79.4077440867
 20
120.5203147738
 11
83.7077440867
 21
120.5203147738
  0
LINE
  8
0
 62
7
  6
CONTINUOUS
 10
92.1077440867
 20
120.5203147738
 11
96.4077440867
 21
120.5203147738
  0
LINE
  8
0
 62
7
  6
CONTINUOUS
 10
105.4127440867
 20
120.5203147738
 11
109.1077440867
 21
120.5203147738
  0
LINE
  8
0
 62
7
  6
CONTINUOUS
 10
94.5495744274
 20
124.3485167985
 11
93.965913746
 21
124.3485167985
  0
LINE
  8
0
 62
7
  6
CONTINUOUS
 10
81.8495744274
 20
124.3485167985
 11
81.265913746
 21
124.3485167985
  0
LINE
  8
CURVE
 62
7
  6
CONTINUOUS
 10
55.865913746
 20
124.3485167985
 11
56.4495744274
 21
124.3485167985
  0
LINE
  8
CURVE
 62
7
  6
CONTINUOUS
 10
68.565913746
 20
124.3485167985
 11
69.1495744274
 21
124.3485167985
  0
LINE
  8
0
 62
7
  6
CONTINUOUS
 10
94.5277764521
 20
124.7017038315
 11
93.9877117213
 21
124.7017038315
  0
LINE
  8
CURVE
 62
7
  6
CONTINUOUS
 10
55.8877117213
 20
124.7017038315
 11
56.4277764521
 21
124.7017038315
  0
POLYLINE
  8
0
 62
7
  6
CONTINUOUS
 66
1
 70
0
  0
VERTEX
  8
0
 62
7
  6
CONTINUOUS
 10
81.265913746
 20
124.3485167985
  0
VERTEX
  8
0
 62
7
  6
CONTINUOUS
 10
81.1669679367
 20
124.3542790911
  0
VERTEX
  8
0
 62
7
  6
CONTINUOUS
 10
81.0678180487
 20
124.3718503658
  0
VERTEX
  8
0
 62
7
  6
CONTINUOUS
 10
80.9710168054
 20
124.401136517
  0
VERTEX
  8
0
 62
7
  6
CONTINUOUS
 10
80.8783623517
 20
124.441678068
  0
VERTEX
  8
0
 62
7
  6
CONTINUOUS
 10
80.7905007129
 20
124.4933563417
  0
VERTEX
  8
0
 62
7
  6
CONTINUOUS
 10
80.7094857651
 20
124.5551320022
  0
VERTEX
  8
0
 62
7
  6
CONTINUOUS
 10
80.6369532197
 20
124.6255948723
  0
VERTEX
  8
0
 62
7
  6
CONTINUOUS
 10
80.5731769725
 20
124.7043697227
  0
VERTEX
  8
0
 62
7
  6
CONTINUOUS
 10
80.5193594892
 20
124.7899965206
  0
VERTEX
  8
0
 62
7
  6
CONTINUOUS
 10
80.4765483348
 20
124.8803775103
  0
VERTEX
  8
0
 62
7
  6
CONTINUOUS
 10
80.4449059801
 20
124.9743762464
  0
VERTEX
  8
0
 62
7
  6
CONTINUOUS
 10
80.4246371902
 20
125.0703147738
  0
SEQEND
  0
POLYLINE
  8
0
 62
7
  6
CONTINUOUS
 66
1
 70
0
  0
VERTEX
  8
0
 62
7
  6
CONTINUOUS
 10
93.965913746
 20
124.3485167985
  0
VERTEX
  8
0
 62
7
  6
CONTINUOUS
 10
93.8669679367
 20
124.3542790911
  0
VERTEX
  8
0
 62
7
  6
CONTINUOUS
 10
93.7678180487
 20
124.3718503658
  0
VERTEX
  8
0
 62
7
  6
CONTINUOUS
 10
93.6710168054
 20
124.401136517
  0
VERTEX
  8
0
 62
7
  6
CONTINUOUS
 10
93.5783623517
 20
124.441678068
  0
VERTEX
  8
0
 62
7
  6
CONTINUOUS
 10
93.4905007129
 20
124.4933563417
  0
VERTEX
  8
0
 62
7
  6
CONTINUOUS
 10
93.4094857651
 20
124.5551320022
  0
VERTEX
  8
0
 62
7
  6
CONTINUOUS
 10
93.3369532197
 20
124.6255948723
  0
VERTEX
  8
0
 62
7
  6
CONTINUOUS
 10
93.2731769725
 20
124.7043697227
  0
VERTEX
  8
0
 62
7
  6
CONTINUOUS
 10
93.2193594892
 20
124.7899965206
  0
VERTEX
  8
0
 62
7
  6
CONTINUOUS
 10
93.1765483348
 20
124.8803775103
  0
VERTEX
  8
0
 62
7
  6
CONTINUOUS
 10
93.1449059801
 20
124.9743762464
  0
VERTEX
  8
0
 62
7
  6
CONTINUOUS
 10
93.1246371902
 20
125.0703147738
  0
SEQEND
  0
POLYLINE
  8
CURVE
 62
7
  6
CONTINUOUS
 66
1
 70
0
  0
VERTEX
  8
CURVE
 62
7
  6
CONTINUOUS
 10
55.8877117213
 20
124.7017038315
  0
VERTEX
  8
CURVE
 62
7
  6
CONTINUOUS
 10
55.8220712141
 20
124.7058686293
  0
VERTEX
  8
CURVE
 62
7
  6
CONTINUOUS
 10
55.7573416979
 20
124.7183369112
  0
VERTEX
  8
CURVE
 62
7
  6
CONTINUOUS
 10
55.6947481706
 20
124.7388909854
  0
VERTEX
  8
CURVE
 62
7
  6
CONTINUOUS
 10
55.6353743174
 20
124.76714776
  0
VERTEX
  8
CURVE
 62
7
  6
CONTINUOUS
 10
55.5800780146
 20
124.802666268
  0
VERTEX
  8
CURVE
 62
7
  6
CONTINUOUS
 10
55.5292931567
 20
124.8452957956
  0
VERTEX
  8
CURVE
 62
7
  6
CONTINUOUS
 10
55.4842035575
 20
124.8942548705
  0
VERTEX
  8
CURVE
 62
7
  6
CONTINUOUS
 10
55.4458180352
 20
124.9484914714
  0
VERTEX
  8
CURVE
 62
7
  6
CONTINUOUS
 10
55.4146364316
 20
125.0073086789
  0
VERTEX
  8
CURVE
 62
7
  6
CONTINUOUS
 10
55.3910500115
 20
125.0703147738
  0
SEQEND
  0
LINE
  8
0
 62
7
  6
CONTINUOUS
 10
78.1120360096
 20
136.3989555559
 11
78.0310764
 21
136.4989323476
  0
LINE
  8
0
 62
7
  6
CONTINUOUS
 10
78.6534521638
 20
139.1416739917
 11
78.7344117688
 21
139.0416972057
  0
LINE
  8
0
 62
7
  6
CONTINUOUS
 10
86.7779242127
 20
148.1264245897
 11
86.7744383256
 21
148.3642941613
  0
LINE
  8
0
 62
7
  6
CONTINUOUS
 10
86.7744383256
 20
148.3642941613
 11
86.7713778845
 21
148.6694966202
  0
LINE
  8
0
 62
7
  6
CONTINUOUS
 10
86.7713778845
 20
148.6694966202
 11
86.7688407286
 21
149.0322722744
  0
LINE
  8
0
 62
7
  6
CONTINUOUS
 10
86.7688407286
 20
149.0322722744
 11
86.7669079605
 21
149.4410215021
  0
LINE
  8
0
 62
7
  6
CONTINUOUS
 10
86.7669079605
 20
149.4410215021
 11
86.765641357
 21
149.8826758691
  0
LINE
  8
0
 62
7
  6
CONTINUOUS
 10
86.765641357
 20
149.8826758691
 11
86.7650814453
 21
150.3430097806
  0
LINE
  8
0
 62
7
  6
CONTINUOUS
 10
86.7877440867
 20
147.8703147738
 11
86.7877440867
 21
141.1702824084
  0
LINE
  8
0
 62
7
  6
CONTINUOUS
 10
89.0277440867
 20
141.1702824084
 11
89.0277440867
 21
147.8703147738
  0
LINE
  8
0
 62
7
  6
CONTINUOUS
 10
89.0498468164
 20
149.8826758691
 11
89.0504067281
 21
150.3430097806
  0
LINE
  8
0
 62
7
  6
CONTINUOUS
 10
89.048580213
 20
149.4410215021
 11
89.0498468164
 21
149.8826758691
  0
LINE
  8
0
 62
7
  6
CONTINUOUS
 10
89.0466474448
 20
149.0322722744
 11
89.048580213
 21
149.4410215021
  0
LINE
  8
0
 62
7
  6
CONTINUOUS
 10
89.044110289
 20
148.6694966202
 11
89.0466474448
 21
149.0322722744
  0
LINE
  8
0
 62
7
  6
CONTINUOUS
 10
89.0410498479
 20
148.3642941613
 11
89.044110289
 21
148.6694966202
  0
POLYLINE
  8
0
 62
7
  6
CONTINUOUS
 66
1
 70
0
  0
VERTEX
  8
0
 62
7
  6
CONTINUOUS
 10
86.7650814453
 20
150.3430097806
  0
VERTEX
  8
0
 62
7
  6
CONTINUOUS
 10
86.7661320926
 20
150.3855784485
  0
VERTEX
  8
0
 62
7
  6
CONTINUOUS
 10
86.7693195073
 20
150.4280512183
  0
VERTEX
  8
0
 62
7
  6
CONTINUOUS
 10
86.7746371902
 20
150.4703147738
  0
SEQEND
  0
POLYLINE
  8
0
 62
7
  6
CONTINUOUS
 66
1
 70
0
  0
VERTEX
  8
0
 62
7
  6
CONTINUOUS
 10
89.0277440867
 20
141.1702824084
  0
VERTEX
  8
0
 62
7
  6
CONTINUOUS
 10
89.0230881809
 20
141.0814364699
  0
VERTEX
  8
0
 62
7
  6
CONTINUOUS
 10
89.0091713097
 20
140.9935637761
  0
VERTEX
  8
0
 62
7
  6
CONTINUOUS
 10
88.9861457092
 20
140.9076270351
  0
VERTEX
  8
0
 62
7
  6
CONTINUOUS
 10
88.9542634396
 20
140.8245678131
  0
VERTEX
  8
0
 62
7
  6
CONTINUOUS
 10
88.9138736437
 20
140.7452962029
  0
VERTEX
  8
0
 62
7
  6
CONTINUOUS
 10
88.8654187332
 20
140.670680832
  0
VERTEX
  8
0
 62
7
  6
CONTINUOUS
 10
88.8094295481
 20
140.6015393231
  0
VERTEX
  8
0
 62
7
  6
CONTINUOUS
 10
88.7465195374
 20
140.5386293125
  0
VERTEX
  8
0
 62
7
  6
CONTINUOUS
 10
88.6773780286
 20
140.4826401273
  0
VERTEX
  8
0
 62
7
  6
CONTINUOUS
 10
88.6027626576
 20
140.4341852168
  0
VERTEX
  8
0
 62
7
  6
CONTINUOUS
 10
88.5234910474
 20
140.3937954209
  0
VERTEX
  8
0
 62
7
  6
CONTINUOUS
 10
88.4404318254
 20
140.3619131514
  0
VERTEX
  8
0
 62
7
  6
CONTINUOUS
 10
88.3544950845
 20
140.3388875508
  0
VERTEX
  8
0
 62
7
  6
CONTINUOUS
 10
88.2666223906
 20
140.3249706796
  0
VERTEX
  8
0
 62
7
  6
CONTINUOUS
 10
88.1777764521
 20
140.3203147738
  0
SEQEND
  0
POLYLINE
  8
0
 62
7
  6
CONTINUOUS
 66
1
 70
0
  0
VERTEX
  8
0
 62
7
  6
CONTINUOUS
 10
89.0277440867
 20
147.8703147738
  0
VERTEX
  8
0
 62
7
  6
CONTINUOUS
 10
89.0297716994
 20
147.8807168372
  0
VERTEX
  8
0
 62
7
  6
CONTINUOUS
 10
89.0317840693
 20
147.9118601386
  0
VERTEX
  8
0
 62
7
  6
CONTINUOUS
 10
89.0337640783
 20
147.9634951483
  0
VERTEX
  8
0
 62
7
  6
CONTINUOUS
 10
89.0356958665
 20
148.0352081544
  0
VERTEX
  8
0
 62
7
  6
CONTINUOUS
 10
89.0375639607
 20
148.1264245897
  0
VERTEX
  8
0
 62
7
  6
CONTINUOUS
 10
89.0410498479
 20
148.3642941613
  0
SEQEND
  0
LINE
  8
0
 62
7
  6
CONTINUOUS
 10
84.3810764
 20
139.0416971999
 11
84.4620360096
 21
139.1416739917
  0
LINE
  8
0
 62
7
  6
CONTINUOUS
 10
85.0844117713
 20
136.498932345
 11
85.0034521638
 21
136.3989555559
  0
POLYLINE
  8
0
 62
7
  6
CONTINUOUS
 66
1
 70
0
  0
VERTEX
  8
0
 62
7
  6
CONTINUOUS
 10
94.5277764521
 20
124.7017038315
  0
VERTEX
  8
0
 62
7
  6
CONTINUOUS
 10
94.5934169593
 20
124.7058686293
  0
VERTEX
  8
0
 62
7
  6
CONTINUOUS
 10
94.6581464755
 20
124.7183369112
  0
VERTEX
  8
0
 62
7
  6
CONTINUOUS
 10
94.7207400028
 20
124.7388909854
  0
VERTEX
  8
0
 62
7
  6
CONTINUOUS
 10
94.780113856
 20
124.76714776
  0
VERTEX
  8
0
 62
7
  6
CONTINUOUS
 10
94.8354101588
 20
124.802666268
  0
VERTEX
  8
0
 62
7
  6
CONTINUOUS
 10
94.8861950167
 20
124.8452957956
  0
VERTEX
  8
0
 62
7
  6
CONTINUOUS
 10
94.9312846159
 20
124.8942548705
  0
VERTEX
  8
0
 62
7
  6
CONTINUOUS
 10
94.9696701382
 20
124.9484914714
  0
VERTEX
  8
0
 62
7
  6
CONTINUOUS
 10
95.0008517418
 20
125.0073086789
  0
VERTEX
  8
0
 62
7
  6
CONTINUOUS
 10
95.024438162
 20
125.0703147738
  0
SEQEND
  0
POLYLINE
  8
CURVE
 62
7
  6
CONTINUOUS
 66
1
 70
0
  0
VERTEX
  8
CURVE
 62
7
  6
CONTINUOUS
 10
69.1495744274
 20
124.3485167985
  0
VERTEX
  8
CURVE
 62
7
  6
CONTINUOUS
 10
69.2485202367
 20
124.3542790911
  0
VERTEX
  8
CURVE
 62
7
  6
CONTINUOUS
 10
69.3476701247
 20
124.3718503658
  0
VERTEX
  8
CURVE
 62
7
  6
CONTINUOUS
 10
69.444471368
 20
124.401136517
  0
VERTEX
  8
CURVE
 62
7
  6
CONTINUOUS
 10
69.5371258217
 20
124.441678068
  0
VERTEX
  8
CURVE
 62
7
  6
CONTINUOUS
 10
69.6249874606
 20
124.4933563417
  0
VERTEX
  8
CURVE
 62
7
  6
CONTINUOUS
 10
69.7060024083
 20
124.5551320022
  0
VERTEX
  8
CURVE
 62
7
  6
CONTINUOUS
 10
69.7785349538
 20
124.6255948723
  0
VERTEX
  8
CURVE
 62
7
  6
CONTINUOUS
 10
69.842311201
 20
124.7043697227
  0
VERTEX
  8
CURVE
 62
7
  6
CONTINUOUS
 10
69.8961286842
 20
124.7899965206
  0
VERTEX
  8
CURVE
 62
7
  6
CONTINUOUS
 10
69.9389398386
 20
124.8803775103
  0
VERTEX
  8
CURVE
 62
7
  6
CONTINUOUS
 10
69.9705821934
 20
124.9743762464
  0
VERTEX
  8
CURVE
 62
7
  6
CONTINUOUS
 10
69.9908509833
 20
125.0703147738
  0
SEQEND
  0
POLYLINE
  8
CURVE
 62
7
  6
CONTINUOUS
 66
1
 70
0
  0
VERTEX
  8
CURVE
 62
7
  6
CONTINUOUS
 10
56.4495744274
 20
124.3485167985
  0
VERTEX
  8
CURVE
 62
7
  6
CONTINUOUS
 10
56.5485202367
 20
124.3542790911
  0
VERTEX
  8
CURVE
 62
7
  6
CONTINUOUS
 10
56.6476701247
 20
124.3718503658
  0
VERTEX
  8
CURVE
 62
7
  6
CONTINUOUS
 10
56.744471368
 20
124.401136517
  0
VERTEX
  8
CURVE
 62
7
  6
CONTINUOUS
 10
56.8371258217
 20
124.441678068
  0
VERTEX
  8
CURVE
 62
7
  6
CONTINUOUS
 10
56.9249874606
 20
124.4933563417
  0
VERTEX
  8
CURVE
 62
7
  6
CONTINUOUS
 10
57.0060024083
 20
124.5551320022
  0
VERTEX
  8
CURVE
 62
7
  6
CONTINUOUS
 10
57.0785349538
 20
124.6255948723
  0
VERTEX
  8
CURVE
 62
7
  6
CONTINUOUS
 10
57.142311201
 20
124.7043697227
  0
VERTEX
  8
CURVE
 62
7
  6
CONTINUOUS
 10
57.1961286842
 20
124.7899965206
  0
VERTEX
  8
CURVE
 62
7
  6
CONTINUOUS
 10
57.2389398386
 20
124.8803775103
  0
VERTEX
  8
CURVE
 62
7
  6
CONTINUOUS
 10
57.2705821934
 20
124.9743762464
  0
VERTEX
  8
CURVE
 62
7
  6
CONTINUOUS
 10
57.2908509833
 20
125.0703147738
  0
SEQEND
  0
LINE
  8
CURVE
 62
2
  6
CENTER
 10
38.4577440867
 20
125.0703147738
 11
112.9260576222
 21
125.0703147738
  0
LINE
  8
0
 62
7
  6
CONTINUOUS
 10
95.3777440867
 20
127.6703147738
 11
95.02389436
 21
127.6703147738
  0
LINE
  8
0
 62
7
  6
CONTINUOUS
 10
93.4915938134
 20
127.6703147738
 11
93.1377440867
 21
127.6703147738
  0
LINE
  8
CURVE
 62
7
  6
CONTINUOUS
 10
55.0377440867
 20
127.6703147738
 11
55.3915938134
 21
127.6703147738
  0
LINE
  8
CURVE
 62
7
  6
CONTINUOUS
 10
56.92389436
 20
127.6703147738
 11
57.2777440867
 21
127.6703147738
  0
POLYLINE
  8
0
 62
7
  6
CONTINUOUS
 66
1
 70
0
  0
VERTEX
  8
0
 62
7
  6
CONTINUOUS
 10
93.4910500115
 20
125.0703147738
  0
VERTEX
  8
0
 62
7
  6
CONTINUOUS
 10
93.5146326025
 20
125.0073171803
  0
VERTEX
  8
0
 62
7
  6
CONTINUOUS
 10
93.5458089686
 20
124.9485062017
  0
VERTEX
  8
0
 62
7
  6
CONTINUOUS
 10
93.5841976747
 20
124.8942621448
  0
VERTEX
  8
0
 62
7
  6
CONTINUOUS
 10
93.6292857264
 20
124.8453028904
  0
VERTEX
  8
0
 62
7
  6
CONTINUOUS
 10
93.6800633459
 20
124.8026770618
  0
VERTEX
  8
0
 62
7
  6
CONTINUOUS
 10
93.7353529801
 20
124.767159628
  0
VERTEX
  8
0
 62
7
  6
CONTINUOUS
 10
93.794732736
 20
124.7388971648
  0
VERTEX
  8
0
 62
7
  6
CONTINUOUS
 10
93.8573306055
 20
124.7183397887
  0
VERTEX
  8
0
 62
7
  6
CONTINUOUS
 10
93.9220653859
 20
124.7058693718
  0
VERTEX
  8
0
 62
7
  6
CONTINUOUS
 10
93.9877117213
 20
124.7017038315
  0
SEQEND
  0
POLYLINE
  8
0
 62
7
  6
CONTINUOUS
 66
1
 70
0
  0
VERTEX
  8
0
 62
7
  6
CONTINUOUS
 10
86.7877440867
 20
147.8703147738
  0
VERTEX
  8
0
 62
7
  6
CONTINUOUS
 10
86.785716474
 20
147.8807168372
  0
VERTEX
  8
0
 62
7
  6
CONTINUOUS
 10
86.7837041041
 20
147.9118601386
  0
VERTEX
  8
0
 62
7
  6
CONTINUOUS
 10
86.7817240952
 20
147.9634951483
  0
VERTEX
  8
0
 62
7
  6
CONTINUOUS
 10
86.779792307
 20
148.0352081544
  0
VERTEX
  8
0
 62
7
  6
CONTINUOUS
 10
86.7779242127
 20
148.1264245897
  0
SEQEND
  0
POLYLINE
  8
0
 62
7
  6
CONTINUOUS
 66
1
 70
0
  0
VERTEX
  8
0
 62
7
  6
CONTINUOUS
 10
95.02389436
 20
134.3703471392
  0
VERTEX
  8
0
 62
7
  6
CONTINUOUS
 10
95.0202897341
 20
134.4300511852
  0
VERTEX
  8
0
 62
7
  6
CONTINUOUS
 10
95.0095057109
 20
134.4889667267
  0
VERTEX
  8
0
 62
7
  6
CONTINUOUS
 10
94.9917004009
 20
134.5461608158
  0
VERTEX
  8
0
 62
7
  6
CONTINUOUS
 10
94.9670774555
 20
134.600892685
  0
VERTEX
  8
0
 62
7
  6
CONTINUOUS
 10
94.9361031978
 20
134.6521398434
  0
VERTEX
  8
0
 62
7
  6
CONTINUOUS
 10
94.8991080259
 20
134.6993627328
  0
VERTEX
  8
0
 62
7
  6
CONTINUOUS
 10
94.8567920457
 20
134.7416787129
  0
VERTEX
  8
0
 62
7
  6
CONTINUOUS
 10
94.8095691564
 20
134.7786738849
  0
VERTEX
  8
0
 62
7
  6
CONTINUOUS
 10
94.7583219979
 20
134.8096481426
  0
VERTEX
  8
0
 62
7
  6
CONTINUOUS
 10
94.7035901287
 20
134.834271088
  0
VERTEX
  8
0
 62
7
  6
CONTINUOUS
 10
94.6463960396
 20
134.852076398
  0
VERTEX
  8
0
 62
7
  6
CONTINUOUS
 10
94.5874804981
 20
134.8628604212
  0
VERTEX
  8
0
 62
7
  6
CONTINUOUS
 10
94.5277764521
 20
134.8664650471
  0
SEQEND
  0
POLYLINE
  8
0
 62
7
  6
CONTINUOUS
 66
1
 70
0
  0
VERTEX
  8
0
 62
7
  6
CONTINUOUS
 10
93.4689417328
 20
125.2202824084
  0
VERTEX
  8
0
 62
7
  6
CONTINUOUS
 10
93.4713791783
 20
125.1698349272
  0
VERTEX
  8
0
 62
7
  6
CONTINUOUS
 10
93.4787621119
 20
125.1196398341
  0
VERTEX
  8
0
 62
7
  6
CONTINUOUS
 10
93.4910500115
 20
125.0703147738
  0
SEQEND
  0
POLYLINE
  8
0
 62
7
  6
CONTINUOUS
 66
1
 70
0
  0
VERTEX
  8
0
 62
7
  6
CONTINUOUS
 10
95.3875639608
 20
127.4142049571
  0
VERTEX
  8
0
 62
7
  6
CONTINUOUS
 10
95.3856958665
 20
127.5054213926
  0
VERTEX
  8
0
 62
7
  6
CONTINUOUS
 10
95.3837640783
 20
127.5771343988
  0
VERTEX
  8
0
 62
7
  6
CONTINUOUS
 10
95.3817840693
 20
127.6287694087
  0
VERTEX
  8
0
 62
7
  6
CONTINUOUS
 10
95.3797716994
 20
127.6599127103
  0
VERTEX
  8
0
 62
7
  6
CONTINUOUS
 10
95.3777440867
 20
127.6703147738
  0
SEQEND
  0
LINE
  8
0
 62
7
  6
CONTINUOUS
 10
95.0336613531
 20
127.417104383
 11
95.0371338013
 21
127.1818163331
  0
LINE
  8
0
 62
7
  6
CONTINUOUS
 10
95.0371338013
 20
127.1818163331
 11
95.0401878554
 21
126.8797692908
  0
LINE
  8
0
 62
7
  6
CONTINUOUS
 10
95.0401878554
 20
126.8797692908
 11
95.0427267496
 21
126.5205321741
  0
LINE
  8
0
 62
7
  6
CONTINUOUS
 10
95.0427267496
 20
126.5205321741
 11
95.0446702475
 21
126.1154743035
  0
LINE
  8
0
 62
7
  6
CONTINUOUS
 10
95.0446702475
 20
126.1154743035
 11
95.045957032
 21
125.6773976347
  0
LINE
  8
0
 62
7
  6
CONTINUOUS
 10
95.045957032
 20
125.6773976347
 11
95.0465464406
 21
125.2202824084
  0
LINE
  8
0
 62
7
  6
CONTINUOUS
 10
90.9077440867
 20
154.1703127913
 11
90.9077440867
 21
140.4003147738
  0
LINE
  8
0
 62
7
  6
CONTINUOUS
 10
91.2577440867
 20
121.3703147738
 11
91.2577440867
 21
135.1403147738
  0
LINE
  8
0
 62
7
  6
CONTINUOUS
 10
93.1377440867
 20
127.6703147738
 11
93.1377440867
 21
134.3703471392
  0
LINE
  8
0
 62
7
  6
CONTINUOUS
 10
93.4915938134
 20
134.3703471392
 11
93.4915938134
 21
127.6703147738
  0
LINE
  8
0
 62
7
  6
CONTINUOUS
 10
95.02389436
 20
127.6703147738
 11
95.02389436
 21
134.3703471392
  0
LINE
  8
0
 62
7
  6
CONTINUOUS
 10
93.1150814453
 20
125.197619767
 11
93.115641357
 21
125.6579536797
  0
LINE
  8
0
 62
7
  6
CONTINUOUS
 10
93.4695311414
 20
125.6773976347
 11
93.4689417328
 21
125.2202824084
  0
LINE
  8
0
 62
7
  6
CONTINUOUS
 10
93.115641357
 20
125.6579536797
 11
93.1169079605
 21
126.0996080468
  0
LINE
  8
0
 62
7
  6
CONTINUOUS
 10
93.4708179259
 20
126.1154743035
 11
93.4695311414
 21
125.6773976347
  0
LINE
  8
0
 62
7
  6
CONTINUOUS
 10
93.1169079605
 20
126.0996080468
 11
93.1188407286
 21
126.5083572739
  0
LINE
  8
0
 62
7
  6
CONTINUOUS
 10
93.4727614238
 20
126.5205321741
 11
93.4708179259
 21
126.1154743035
  0
LINE
  8
0
 62
7
  6
CONTINUOUS
 10
93.1188407286
 20
126.5083572739
 11
93.1213778845
 21
126.8711329274
  0
LINE
  8
0
 62
7
  6
CONTINUOUS
 10
93.4753003181
 20
126.8797692908
 11
93.4727614238
 21
126.5205321741
  0
LINE
  8
0
 62
7
  6
CONTINUOUS
 10
93.1213778845
 20
126.8711329274
 11
93.1244383256
 21
127.1763353857
  0
LINE
  8
0
 62
7
  6
CONTINUOUS
 10
93.4783543722
 20
127.1818163331
 11
93.4753003181
 21
126.8797692908
  0
POLYLINE
  8
0
 62
7
  6
CONTINUOUS
 66
1
 70
0
  0
VERTEX
  8
0
 62
7
  6
CONTINUOUS
 10
93.1244383256
 20
127.1763353857
  0
VERTEX
  8
0
 62
7
  6
CONTINUOUS
 10
93.1279242127
 20
127.4142049571
  0
VERTEX
  8
0
 62
7
  6
CONTINUOUS
 10
93.1297923069
 20
127.5054213926
  0
VERTEX
  8
0
 62
7
  6
CONTINUOUS
 10
93.1317240952
 20
127.5771343988
  0
VERTEX
  8
0
 62
7
  6
CONTINUOUS
 10
93.1337041041
 20
127.6287694087
  0
VERTEX
  8
0
 62
7
  6
CONTINUOUS
 10
93.135716474
 20
127.6599127103
  0
VERTEX
  8
0
 62
7
  6
CONTINUOUS
 10
93.1377440867
 20
127.6703147738
  0
SEQEND
  0
POLYLINE
  8
0
 62
7
  6
CONTINUOUS
 66
1
 70
0
  0
VERTEX
  8
0
 62
7
  6
CONTINUOUS
 10
93.1377440867
 20
134.3703471392
  0
VERTEX
  8
0
 62
7
  6
CONTINUOUS
 10
93.1424004359
 20
134.4591972963
  0
VERTEX
  8
0
 62
7
  6
CONTINUOUS
 10
93.1563182914
 20
134.5470724887
  0
VERTEX
  8
0
 62
7
  6
CONTINUOUS
 10
93.1793449285
 20
134.6330100967
  0
VERTEX
  8
0
 62
7
  6
CONTINUOUS
 10
93.2112278794
 20
134.7160687998
  0
VERTEX
  8
0
 62
7
  6
CONTINUOUS
 10
93.2516177162
 20
134.7953388639
  0
VERTEX
  8
0
 62
7
  6
CONTINUOUS
 10
93.3000718927
 20
134.8699520912
  0
VERTEX
  8
0
 62
7
  6
CONTINUOUS
 10
93.3560595973
 20
134.939091304
  0
VERTEX
  8
0
 62
7
  6
CONTINUOUS
 10
93.4189675632
 20
135.0019992692
  0
VERTEX
  8
0
 62
7
  6
CONTINUOUS
 10
93.488106776
 20
135.0579869727
  0
VERTEX
  8
0
 62
7
  6
CONTINUOUS
 10
93.5627200027
 20
135.1064411478
  0
VERTEX
  8
0
 62
7
  6
CONTINUOUS
 10
93.6419900655
 20
135.1468309833
  0
VERTEX
  8
0
 62
7
  6
CONTINUOUS
 10
93.7250487671
 20
135.1787139331
  0
VERTEX
  8
0
 62
7
  6
CONTINUOUS
 10
93.8109863736
 20
135.2017405695
  0
VERTEX
  8
0
 62
7
  6
CONTINUOUS
 10
93.8988615648
 20
135.2156584247
  0
VERTEX
  8
0
 62
7
  6
CONTINUOUS
 10
93.9877117213
 20
135.2203147738
  0
SEQEND
  0
POLYLINE
  8
CURVE
 62
7
  6
CONTINUOUS
 66
1
 70
0
  0
VERTEX
  8
CURVE
 62
7
  6
CONTINUOUS
 10
69.1277764521
 20
135.2203147738
  0
VERTEX
  8
CURVE
 62
7
  6
CONTINUOUS
 10
69.2166223906
 20
135.215658868
  0
VERTEX
  8
CURVE
 62
7
  6
CONTINUOUS
 10
69.3044950845
 20
135.2017419968
  0
VERTEX
  8
CURVE
 62
7
  6
CONTINUOUS
 10
69.3904318254
 20
135.1787163963
  0
VERTEX
  8
CURVE
 62
7
  6
CONTINUOUS
 10
69.4734910474
 20
135.1468341267
  0
VERTEX
  8
CURVE
 62
7
  6
CONTINUOUS
 10
69.5527626576
 20
135.1064443308
  0
VERTEX
  8
CURVE
 62
7
  6
CONTINUOUS
 10
69.6273780286
 20
135.0579894203
  0
VERTEX
  8
CURVE
 62
7
  6
CONTINUOUS
 10
69.6965195374
 20
135.0020002351
  0
VERTEX
  8
CURVE
 62
7
  6
CONTINUOUS
 10
69.7594295481
 20
134.9390902245
  0
VERTEX
  8
CURVE
 62
7
  6
CONTINUOUS
 10
69.8154187332
 20
134.8699487157
  0
VERTEX
  8
CURVE
 62
7
  6
CONTINUOUS
 10
69.8638736437
 20
134.7953333447
  0
VERTEX
  8
CURVE
 62
7
  6
CONTINUOUS
 10
69.9042634396
 20
134.7160617345
  0
VERTEX
  8
CURVE
 62
7
  6
CONTINUOUS
 10
69.9361457092
 20
134.6330025125
  0
VERTEX
  8
CURVE
 62
7
  6
CONTINUOUS
 10
69.9591713097
 20
134.5470657716
  0
VERTEX
  8
CURVE
 62
7
  6
CONTINUOUS
 10
69.9730881809
 20
134.4591930777
  0
VERTEX
  8
CURVE
 62
7
  6
CONTINUOUS
 10
69.9777440867
 20
134.3703471392
  0
SEQEND
  0
POLYLINE
  8
CURVE
 62
7
  6
CONTINUOUS
 66
1
 70
0
  0
VERTEX
  8
CURVE
 62
7
  6
CONTINUOUS
 10
56.4277764521
 20
134.8664650471
  0
VERTEX
  8
CURVE
 62
7
  6
CONTINUOUS
 10
56.4874804981
 20
134.8628604212
  0
VERTEX
  8
CURVE
 62
7
  6
CONTINUOUS
 10
56.5463960396
 20
134.852076398
  0
VERTEX
  8
CURVE
 62
7
  6
CONTINUOUS
 10
56.6035901287
 20
134.834271088
  0
VERTEX
  8
CURVE
 62
7
  6
CONTINUOUS
 10
56.6583219979
 20
134.8096481426
  0
VERTEX
  8
CURVE
 62
7
  6
CONTINUOUS
 10
56.7095691564
 20
134.7786738849
  0
VERTEX
  8
CURVE
 62
7
  6
CONTINUOUS
 10
56.7567920457
 20
134.7416787129
  0
VERTEX
  8
CURVE
 62
7
  6
CONTINUOUS
 10
56.7991080259
 20
134.6993627328
  0
VERTEX
  8
CURVE
 62
7
  6
CONTINUOUS
 10
56.8361031978
 20
134.6521398434
  0
VERTEX
  8
CURVE
 62
7
  6
CONTINUOUS
 10
56.8670774555
 20
134.600892685
  0
VERTEX
  8
CURVE
 62
7
  6
CONTINUOUS
 10
56.8917004009
 20
134.5461608158
  0
VERTEX
  8
CURVE
 62
7
  6
CONTINUOUS
 10
56.9095057109
 20
134.4889667267
  0
VERTEX
  8
CURVE
 62
7
  6
CONTINUOUS
 10
56.9202897341
 20
134.4300511852
  0
VERTEX
  8
CURVE
 62
7
  6
CONTINUOUS
 10
56.92389436
 20
134.3703471392
  0
SEQEND
  0
LINE
  8
0
 62
7
  6
CONTINUOUS
 10
90.8120360096
 20
136.3989555559
 11
90.7310764012
 21
136.4989323461
  0
LINE
  8
0
 62
7
  6
CONTINUOUS
 10
91.3534521638
 20
139.1416739917
 11
91.4344117688
 21
139.0416972057
  0
POLYLINE
  8
0
 62
7
  6
CONTINUOUS
 66
1
 70
0
  0
VERTEX
  8
0
 62
7
  6
CONTINUOUS
 10
95.02389436
 20
127.6703147738
  0
VERTEX
  8
0
 62
7
  6
CONTINUOUS
 10
95.0259100861
 20
127.6600345553
  0
VERTEX
  8
0
 62
7
  6
CONTINUOUS
 10
95.0279110805
 20
127.6292502937
  0
VERTEX
  8
0
 62
7
  6
CONTINUOUS
 10
95.0298802852
 20
127.5782053242
  0
VERTEX
  8
0
 62
7
  6
CONTINUOUS
 10
95.0318021135
 20
127.5073031752
  0
VERTEX
  8
0
 62
7
  6
CONTINUOUS
 10
95.0336613531
 20
127.417104383
  0
SEQEND
  0
POLYLINE
  8
0
 62
7
  6
CONTINUOUS
 66
1
 70
0
  0
VERTEX
  8
0
 62
7
  6
CONTINUOUS
 10
89.0408509833
 20
150.4703147738
  0
VERTEX
  8
0
 62
7
  6
CONTINUOUS
 10
89.0461687293
 20
150.4280505897
  0
VERTEX
  8
0
 62
7
  6
CONTINUOUS
 10
89.0493561104
 20
150.3855778566
  0
VERTEX
  8
0
 62
7
  6
CONTINUOUS
 10
89.0504067281
 20
150.3430097806
  0
SEQEND
  0
POLYLINE
  8
0
 62
7
  6
CONTINUOUS
 66
1
 70
0
  0
VERTEX
  8
0
 62
7
  6
CONTINUOUS
 10
93.1246371902
 20
125.0703147738
  0
VERTEX
  8
0
 62
7
  6
CONTINUOUS
 10
93.1193197622
 20
125.1125757893
  0
VERTEX
  8
0
 62
7
  6
CONTINUOUS
 10
93.1161322251
 20
125.1550484398
  0
VERTEX
  8
0
 62
7
  6
CONTINUOUS
 10
93.1150814453
 20
125.197619767
  0
SEQEND
  0
LINE
  8
0
 62
7
  6
CONTINUOUS
 10
95.3910498479
 20
127.1763353857
 11
95.3875639608
 21
127.4142049571
  0
LINE
  8
0
 62
7
  6
CONTINUOUS
 10
99.1779242127
 20
148.1264245897
 11
99.1744383256
 21
148.3642941613
  0
LINE
  8
0
 62
7
  6
CONTINUOUS
 10
95.394110289
 20
126.8711329274
 11
95.3910498479
 21
127.1763353857
  0
LINE
  8
0
 62
7
  6
CONTINUOUS
 10
99.1744383256
 20
148.3642941613
 11
99.1713778845
 21
148.6694966202
  0
LINE
  8
0
 62
7
  6
CONTINUOUS
 10
95.3966474448
 20
126.5083572739
 11
95.394110289
 21
126.8711329274
  0
LINE
  8
0
 62
7
  6
CONTINUOUS
 10
99.1713778845
 20
148.6694966202
 11
99.1688407286
 21
149.0322722744
  0
LINE
  8
0
 62
7
  6
CONTINUOUS
 10
95.398580213
 20
126.0996080468
 11
95.3966474448
 21
126.5083572739
  0
LINE
  8
0
 62
7
  6
CONTINUOUS
 10
99.1688407286
 20
149.0322722744
 11
99.1669079605
 21
149.4410215021
  0
LINE
  8
0
 62
7
  6
CONTINUOUS
 10
95.3998468164
 20
125.6579536797
 11
95.398580213
 21
126.0996080468
  0
LINE
  8
0
 62
7
  6
CONTINUOUS
 10
99.1669079605
 20
149.4410215021
 11
99.165641357
 21
149.8826758691
  0
LINE
  8
0
 62
7
  6
CONTINUOUS
 10
95.4004067281
 20
125.197619767
 11
95.3998468164
 21
125.6579536797
  0
LINE
  8
0
 62
7
  6
CONTINUOUS
 10
99.165641357
 20
149.8826758691
 11
99.1650814453
 21
150.3430097806
  0
LINE
  8
0
 62
7
  6
CONTINUOUS
 10
95.3777440867
 20
134.3703471392
 11
95.3777440867
 21
127.6703147738
  0
LINE
  8
0
 62
7
  6
CONTINUOUS
 10
97.2577440867
 20
135.1403147738
 11
97.2577440867
 21
121.3703167563
  0
LINE
  8
0
 62
7
  6
CONTINUOUS
 10
97.6077440867
 20
140.4003147738
 11
97.6077440867
 21
154.1703147738
  0
LINE
  8
0
 62
7
  6
CONTINUOUS
 10
99.1877440867
 20
147.8703147738
 11
99.1877440867
 21
141.1702824084
  0
POLYLINE
  8
0
 62
7
  6
CONTINUOUS
 66
1
 70
0
  0
VERTEX
  8
0
 62
7
  6
CONTINUOUS
 10
95.4004067281
 20
125.197619767
  0
VERTEX
  8
0
 62
7
  6
CONTINUOUS
 10
95.3993559184
 20
125.1550478385
  0
VERTEX
  8
0
 62
7
  6
CONTINUOUS
 10
95.3961683487
 20
125.1125751667
  0
VERTEX
  8
0
 62
7
  6
CONTINUOUS
 10
95.3908509833
 20
125.0703147738
  0
SEQEND
  0
POLYLINE
  8
0
 62
7
  6
CONTINUOUS
 66
1
 70
0
  0
VERTEX
  8
0
 62
7
  6
CONTINUOUS
 10
99.1650814453
 20
150.3430097806
  0
VERTEX
  8
0
 62
7
  6
CONTINUOUS
 10
99.1661320926
 20
150.3855784485
  0
VERTEX
  8
0
 62
7
  6
CONTINUOUS
 10
99.1693195073
 20
150.4280512183
  0
VERTEX
  8
0
 62
7
  6
CONTINUOUS
 10
99.1746371902
 20
150.4703147738
  0
SEQEND
  0
POLYLINE
  8
0
 62
7
  6
CONTINUOUS
 66
1
 70
0
  0
VERTEX
  8
0
 62
7
  6
CONTINUOUS
 10
101.4277440867
 20
147.8703147738
  0
VERTEX
  8
0
 62
7
  6
CONTINUOUS
 10
101.4297716994
 20
147.8807168372
  0
VERTEX
  8
0
 62
7
  6
CONTINUOUS
 10
101.4317840693
 20
147.9118601386
  0
VERTEX
  8
0
 62
7
  6
CONTINUOUS
 10
101.4337640783
 20
147.9634951483
  0
VERTEX
  8
0
 62
7
  6
CONTINUOUS
 10
101.4356958665
 20
148.0352081544
  0
VERTEX
  8
0
 62
7
  6
CONTINUOUS
 10
101.4375639607
 20
148.1264245897
  0
VERTEX
  8
0
 62
7
  6
CONTINUOUS
 10
101.4410498479
 20
148.3642941613
  0
SEQEND
  0
POLYLINE
  8
0
 62
7
  6
CONTINUOUS
 66
1
 70
0
  0
VERTEX
  8
0
 62
7
  6
CONTINUOUS
 10
93.4915938134
 20
127.6703147738
  0
VERTEX
  8
0
 62
7
  6
CONTINUOUS
 10
93.4895780873
 20
127.6600345553
  0
VERTEX
  8
0
 62
7
  6
CONTINUOUS
 10
93.4875770929
 20
127.6292502937
  0
VERTEX
  8
0
 62
7
  6
CONTINUOUS
 10
93.4856078883
 20
127.5782053242
  0
VERTEX
  8
0
 62
7
  6
CONTINUOUS
 10
93.4836860599
 20
127.5073031752
  0
VERTEX
  8
0
 62
7
  6
CONTINUOUS
 10
93.4818268204
 20
127.417104383
  0
VERTEX
  8
0
 62
7
  6
CONTINUOUS
 10
93.4783543722
 20
127.1818163331
  0
SEQEND
  0
POLYLINE
  8
0
 62
7
  6
CONTINUOUS
 66
1
 70
0
  0
VERTEX
  8
0
 62
7
  6
CONTINUOUS
 10
99.1746371902
 20
150.4703147738
  0
VERTEX
  8
0
 62
7
  6
CONTINUOUS
 10
99.1948909836
 20
150.5661982785
  0
VERTEX
  8
0
 62
7
  6
CONTINUOUS
 10
99.2265073732
 20
150.6601504378
  0
VERTEX
  8
0
 62
7
  6
CONTINUOUS
 10
99.2693163429
 20
150.7505543049
  0
VERTEX
  8
0
 62
7
  6
CONTINUOUS
 10
99.3231337577
 20
150.8361993891
  0
VERTEX
  8
0
 62
7
  6
CONTINUOUS
 10
99.386905739
 20
150.9149827036
  0
VERTEX
  8
0
 62
7
  6
CONTINUOUS
 10
99.4594475972
 20
150.9854646445
  0
VERTEX
  8
0
 62
7
  6
CONTINUOUS
 10
99.5404786005
 20
151.0472583497
  0
VERTEX
  8
0
 62
7
  6
CONTINUOUS
 10
99.6283445582
 20
151.0989424001
  0
VERTEX
  8
0
 62
7
  6
CONTINUOUS
 10
99.7210038841
 20
151.1394882682
  0
VERTEX
  8
0
 62
7
  6
CONTINUOUS
 10
99.8178208869
 20
151.1687798597
  0
VERTEX
  8
0
 62
7
  6
CONTINUOUS
 10
99.9169739434
 20
151.1863511584
  0
VERTEX
  8
0
 62
7
  6
CONTINUOUS
 10
100.015913746
 20
151.1921127491
  0
SEQEND
  0
POLYLINE
  8
0
 62
7
  6
CONTINUOUS
 66
1
 70
0
  0
VERTEX
  8
0
 62
7
  6
CONTINUOUS
 10
95.3908509833
 20
125.0703147738
  0
VERTEX
  8
0
 62
7
  6
CONTINUOUS
 10
95.3705822994
 20
124.9743766353
  0
VERTEX
  8
0
 62
7
  6
CONTINUOUS
 10
95.3389419986
 20
124.8803828669
  0
VERTEX
  8
0
 62
7
  6
CONTINUOUS
 10
95.2961277537
 20
124.7899948231
  0
VERTEX
  8
0
 62
7
  6
CONTINUOUS
 10
95.242309029
 20
124.7043666855
  0
VERTEX
  8
0
 62
7
  6
CONTINUOUS
 10
95.1785360301
 20
124.6255960503
  0
VERTEX
  8
0
 62
7
  6
CONTINUOUS
 10
95.1059994703
 20
124.5551294698
  0
VERTEX
  8
0
 62
7
  6
CONTINUOUS
 10
95.0249761114
 20
124.4933487172
  0
VERTEX
  8
0
 62
7
  6
CONTINUOUS
 10
94.937112142
 20
124.441671088
  0
VERTEX
  8
0
 62
7
  6
CONTINUOUS
 10
94.8444561148
 20
124.4011308955
  0
VERTEX
  8
0
 62
7
  6
CONTINUOUS
 10
94.7476476995
 20
124.3718450097
  0
VERTEX
  8
0
 62
7
  6
CONTINUOUS
 10
94.6485020922
 20
124.354276971
  0
VERTEX
  8
0
 62
7
  6
CONTINUOUS
 10
94.5495744274
 20
124.3485167985
  0
SEQEND
  0
POLYLINE
  8
0
 62
7
  6
CONTINUOUS
 66
1
 70
0
  0
VERTEX
  8
0
 62
7
  6
CONTINUOUS
 10
95.024438162
 20
125.0703147738
  0
VERTEX
  8
0
 62
7
  6
CONTINUOUS
 10
95.0367244377
 20
125.1196316172
  0
VERTEX
  8
0
 62
7
  6
CONTINUOUS
 10
95.0441078882
 20
125.16982355
  0
VERTEX
  8
0
 62
7
  6
CONTINUOUS
 10
95.0465464406
 20
125.2202824084
  0
SEQEND
  0
LINE
  8
0
 62
7
  6
CONTINUOUS
 10
97.0810764
 20
139.0416971999
 11
97.1620360096
 21
139.1416739917
  0
LINE
  8
0
 62
7
  6
CONTINUOUS
 10
97.7844117713
 20
136.498932345
 11
97.7034521638
 21
136.3989555559
  0
POLYLINE
  8
0
 62
7
  6
CONTINUOUS
 66
1
 70
0
  0
VERTEX
  8
0
 62
7
  6
CONTINUOUS
 10
93.9877117213
 20
134.8664650471
  0
VERTEX
  8
0
 62
7
  6
CONTINUOUS
 10
93.9280076754
 20
134.8628604212
  0
VERTEX
  8
0
 62
7
  6
CONTINUOUS
 10
93.8690921338
 20
134.852076398
  0
VERTEX
  8
0
 62
7
  6
CONTINUOUS
 10
93.8118980448
 20
134.834271088
  0
VERTEX
  8
0
 62
7
  6
CONTINUOUS
 10
93.7571661756
 20
134.8096481426
  0
VERTEX
  8
0
 62
7
  6
CONTINUOUS
 10
93.7059190171
 20
134.7786738849
  0
VERTEX
  8
0
 62
7
  6
CONTINUOUS
 10
93.6586961277
 20
134.7416787129
  0
VERTEX
  8
0
 62
7
  6
CONTINUOUS
 10
93.6163801476
 20
134.6993627328
  0
VERTEX
  8
0
 62
7
  6
CONTINUOUS
 10
93.5793849756
 20
134.6521398434
  0
VERTEX
  8
0
 62
7
  6
CONTINUOUS
 10
93.5484107179
 20
134.600892685
  0
VERTEX
  8
0
 62
7
  6
CONTINUOUS
 10
93.5237877725
 20
134.5461608158
  0
VERTEX
  8
0
 62
7
  6
CONTINUOUS
 10
93.5059824625
 20
134.4889667267
  0
VERTEX
  8
0
 62
7
  6
CONTINUOUS
 10
93.4951984393
 20
134.4300511852
  0
VERTEX
  8
0
 62
7
  6
CONTINUOUS
 10
93.4915938134
 20
134.3703471392
  0
SEQEND
  0
POLYLINE
  8
0
 62
7
  6
CONTINUOUS
 66
1
 70
0
  0
VERTEX
  8
0
 62
7
  6
CONTINUOUS
 10
112.127564956
 20
138.8977104904
  0
VERTEX
  8
0
 62
7
  6
CONTINUOUS
 10
112.1084787199
 20
138.896665839
  0
VERTEX
  8
0
 62
7
  6
CONTINUOUS
 10
112.0917959716
 20
138.897956896
  0
VERTEX
  8
0
 62
7
  6
CONTINUOUS
 10
112.0771675158
 20
138.9016328038
  0
VERTEX
  8
0
 62
7
  6
CONTINUOUS
 10
112.0646687841
 20
138.9078036763
  0
VERTEX
  8
0
 62
7
  6
CONTINUOUS
 10
112.0547587717
 20
138.9161952804
  0
VERTEX
  8
0
 62
7
  6
CONTINUOUS
 10
112.0473469075
 20
138.9264994288
  0
VERTEX
  8
0
 62
7
  6
CONTINUOUS
 10
112.0420552349
 20
138.9389244539
  0
VERTEX
  8
0
 62
7
  6
CONTINUOUS
 10
112.038817912
 20
138.9537631884
  0
VERTEX
  8
0
 62
7
  6
CONTINUOUS
 10
112.0377423039
 20
138.9708050578
  0
SEQEND
  0
POLYLINE
  8
0
 62
7
  6
CONTINUOUS
 66
1
 70
0
  0
VERTEX
  8
0
 62
7
  6
CONTINUOUS
 10
81.2877117213
 20
135.2203147738
  0
VERTEX
  8
0
 62
7
  6
CONTINUOUS
 10
81.1988657829
 20
135.215658868
  0
VERTEX
  8
0
 62
7
  6
CONTINUOUS
 10
81.110993089
 20
135.2017419968
  0
VERTEX
  8
0
 62
7
  6
CONTINUOUS
 10
81.025056348
 20
135.1787163963
  0
VERTEX
  8
0
 62
7
  6
CONTINUOUS
 10
80.941997126
 20
135.1468341267
  0
VERTEX
  8
0
 62
7
  6
CONTINUOUS
 10
80.8627255158
 20
135.1064443308
  0
VERTEX
  8
0
 62
7
  6
CONTINUOUS
 10
80.7881101449
 20
135.0579894203
  0
VERTEX
  8
0
 62
7
  6
CONTINUOUS
 10
80.718968636
 20
135.0020002351
  0
VERTEX
  8
0
 62
7
  6
CONTINUOUS
 10
80.6560586254
 20
134.9390902245
  0
VERTEX
  8
0
 62
7
  6
CONTINUOUS
 10
80.6000694402
 20
134.8699487157
  0
VERTEX
  8
0
 62
7
  6
CONTINUOUS
 10
80.5516145297
 20
134.7953333447
  0
VERTEX
  8
0
 62
7
  6
CONTINUOUS
 10
80.5112247338
 20
134.7160617345
  0
VERTEX
  8
0
 62
7
  6
CONTINUOUS
 10
80.4793424643
 20
134.6330025125
  0
VERTEX
  8
0
 62
7
  6
CONTINUOUS
 10
80.4563168637
 20
134.5470657716
  0
VERTEX
  8
0
 62
7
  6
CONTINUOUS
 10
80.4423999925
 20
134.4591930777
  0
VERTEX
  8
0
 62
7
  6
CONTINUOUS
 10
80.4377440867
 20
134.3703471392
  0
SEQEND
  0
POLYLINE
  8
CURVE
 62
7
  6
CONTINUOUS
 66
1
 70
0
  0
VERTEX
  8
CURVE
 62
7
  6
CONTINUOUS
 10
68.5877117213
 20
135.2203147738
  0
VERTEX
  8
CURVE
 62
7
  6
CONTINUOUS
 10
68.4988657829
 20
135.215658868
  0
VERTEX
  8
CURVE
 62
7
  6
CONTINUOUS
 10
68.410993089
 20
135.2017419968
  0
VERTEX
  8
CURVE
 62
7
  6
CONTINUOUS
 10
68.325056348
 20
135.1787163963
  0
VERTEX
  8
CURVE
 62
7
  6
CONTINUOUS
 10
68.241997126
 20
135.1468341267
  0
VERTEX
  8
CURVE
 62
7
  6
CONTINUOUS
 10
68.1627255158
 20
135.1064443308
  0
VERTEX
  8
CURVE
 62
7
  6
CONTINUOUS
 10
68.0881101449
 20
135.0579894203
  0
VERTEX
  8
CURVE
 62
7
  6
CONTINUOUS
 10
68.018968636
 20
135.0020002351
  0
VERTEX
  8
CURVE
 62
7
  6
CONTINUOUS
 10
67.9560586254
 20
134.9390902245
  0
VERTEX
  8
CURVE
 62
7
  6
CONTINUOUS
 10
67.9000694402
 20
134.8699487157
  0
VERTEX
  8
CURVE
 62
7
  6
CONTINUOUS
 10
67.8516145297
 20
134.7953333447
  0
VERTEX
  8
CURVE
 62
7
  6
CONTINUOUS
 10
67.8112247338
 20
134.7160617345
  0
VERTEX
  8
CURVE
 62
7
  6
CONTINUOUS
 10
67.7793424643
 20
134.6330025125
  0
VERTEX
  8
CURVE
 62
7
  6
CONTINUOUS
 10
67.7563168637
 20
134.5470657716
  0
VERTEX
  8
CURVE
 62
7
  6
CONTINUOUS
 10
67.7423999925
 20
134.4591930777
  0
VERTEX
  8
CURVE
 62
7
  6
CONTINUOUS
 10
67.7377440867
 20
134.3703471392
  0
SEQEND
  0
POLYLINE
  8
CURVE
 62
7
  6
CONTINUOUS
 66
1
 70
0
  0
VERTEX
  8
CURVE
 62
7
  6
CONTINUOUS
 10
55.8877117213
 20
135.2203147738
  0
VERTEX
  8
CURVE
 62
7
  6
CONTINUOUS
 10
55.7988615642
 20
135.2156584246
  0
VERTEX
  8
CURVE
 62
7
  6
CONTINUOUS
 10
55.7109863718
 20
135.2017405691
  0
VERTEX
  8
CURVE
 62
7
  6
CONTINUOUS
 10
55.6250487638
 20
135.1787139321
  0
VERTEX
  8
CURVE
 62
7
  6
CONTINUOUS
 10
55.5419900607
 20
135.1468309811
  0
VERTEX
  8
CURVE
 62
7
  6
CONTINUOUS
 10
55.4627199966
 20
135.1064411443
  0
VERTEX
  8
CURVE
 62
7
  6
CONTINUOUS
 10
55.3881067693
 20
135.0579869678
  0
VERTEX
  8
CURVE
 62
7
  6
CONTINUOUS
 10
55.3189675566
 20
135.0019992632
  0
VERTEX
  8
CURVE
 62
7
  6
CONTINUOUS
 10
55.2560595913
 20
134.9390912973
  0
VERTEX
  8
CURVE
 62
7
  6
CONTINUOUS
 10
55.2000718878
 20
134.8699520845
  0
VERTEX
  8
CURVE
 62
7
  6
CONTINUOUS
 10
55.1516177127
 20
134.7953388579
  0
VERTEX
  8
CURVE
 62
7
  6
CONTINUOUS
 10
55.1112278773
 20
134.716068795
  0
VERTEX
  8
CURVE
 62
7
  6
CONTINUOUS
 10
55.0793449274
 20
134.6330100934
  0
VERTEX
  8
CURVE
 62
7
  6
CONTINUOUS
 10
55.056318291
 20
134.5470724869
  0
VERTEX
  8
CURVE
 62
7
  6
CONTINUOUS
 10
55.0424004359
 20
134.4591972958
  0
VERTEX
  8
CURVE
 62
7
  6
CONTINUOUS
 10
55.0377440867
 20
134.3703471392
  0
SEQEND
  0
LINE
  8
0
 62
7
  6
CONTINUOUS
 10
94.5277764521
 20
134.8664650471
 11
93.9877117213
 21
134.8664650471
  0
LINE
  8
CURVE
 62
7
  6
CONTINUOUS
 10
55.8877117213
 20
134.8664650471
 11
56.4277764521
 21
134.8664650471
  0
LINE
  8
CURVE
 62
7
  6
CONTINUOUS
 10
34.7877440867
 20
134.9903147738
 11
37.4577440867
 21
134.9903147738
  0
LINE
  8
CURVE
 62
7
  6
CONTINUOUS
 10
46.7577440867
 20
134.9903147738
 11
52.8577440867
 21
134.9903147738
  0
LINE
  8
CURVE
 62
7
  6
CONTINUOUS
 10
59.4577440867
 20
134.9903147738
 11
65.5577440867
 21
134.9903147738
  0
LINE
  8
CURVE
 62
7
  6
CONTINUOUS
 10
72.1577440867
 20
134.9903147738
 11
78.2577440867
 21
134.9903147738
  0
LINE
  8
0
 62
7
  6
CONTINUOUS
 10
84.8577440867
 20
134.9903147738
 11
90.9577440867
 21
134.9903147738
  0
LINE
  8
0
 62
7
  6
CONTINUOUS
 10
97.5577440867
 20
134.9903147738
 11
103.6577440867
 21
134.9903147738
  0
LINE
  8
0
 62
7
  6
CONTINUOUS
 10
112.9577440867
 20
134.9903147738
 11
115.6277440867
 21
134.9903147738
  0
LINE
  8
0
 62
7
  6
CONTINUOUS
 10
81.8277764521
 20
135.2203147738
 11
81.2877117213
 21
135.2203147738
  0
LINE
  8
CURVE
 62
7
  6
CONTINUOUS
 10
56.4277764521
 20
135.2203147738
 11
55.8877117213
 21
135.2203147738
  0
LINE
  8
CURVE
 62
7
  6
CONTINUOUS
 10
68.5877117213
 20
135.2203147738
 11
69.1277764521
 21
135.2203147738
  0
LINE
  8
0
 62
7
  6
CONTINUOUS
 10
93.9877117213
 20
135.2203147738
 11
94.5277764521
 21
135.2203147738
  0
LINE
  8
DEFAULT_1
 62
2
  6
CENTER
 10
79.6077440867
 20
137.7703147738
 11
77.2078440867
 21
137.7703147738
  0
LINE
  8
0
 62
2
  6
CONTINUOUS
 10
76.0877440867
 20
137.7703147738
 11
74.3277440867
 21
137.7703147738
  0
LINE
  8
DEFAULT_1
 62
2
  6
CENTER
 10
70.8077440867
 20
137.7703147738
 11
73.2076440867
 21
137.7703147738
  0
POLYLINE
  8
0
 62
7
  6
CONTINUOUS
 66
1
 70
0
  0
VERTEX
  8
0
 62
7
  6
CONTINUOUS
 10
81.8277764521
 20
135.2203147738
  0
VERTEX
  8
0
 62
7
  6
CONTINUOUS
 10
81.9166223906
 20
135.215658868
  0
VERTEX
  8
0
 62
7
  6
CONTINUOUS
 10
82.0044950845
 20
135.2017419968
  0
VERTEX
  8
0
 62
7
  6
CONTINUOUS
 10
82.0904318254
 20
135.1787163963
  0
VERTEX
  8
0
 62
7
  6
CONTINUOUS
 10
82.1734910474
 20
135.1468341267
  0
VERTEX
  8
0
 62
7
  6
CONTINUOUS
 10
82.2527626576
 20
135.1064443308
  0
VERTEX
  8
0
 62
7
  6
CONTINUOUS
 10
82.3273780286
 20
135.0579894203
  0
VERTEX
  8
0
 62
7
  6
CONTINUOUS
 10
82.3965195374
 20
135.0020002351
  0
VERTEX
  8
0
 62
7
  6
CONTINUOUS
 10
82.4594295481
 20
134.9390902245
  0
VERTEX
  8
0
 62
7
  6
CONTINUOUS
 10
82.5154187332
 20
134.8699487157
  0
VERTEX
  8
0
 62
7
  6
CONTINUOUS
 10
82.5638736437
 20
134.7953333447
  0
VERTEX
  8
0
 62
7
  6
CONTINUOUS
 10
82.6042634396
 20
134.7160617345
  0
VERTEX
  8
0
 62
7
  6
CONTINUOUS
 10
82.6361457092
 20
134.6330025125
  0
VERTEX
  8
0
 62
7
  6
CONTINUOUS
 10
82.6591713097
 20
134.5470657716
  0
VERTEX
  8
0
 62
7
  6
CONTINUOUS
 10
82.6730881809
 20
134.4591930777
  0
VERTEX
  8
0
 62
7
  6
CONTINUOUS
 10
82.6777440867
 20
134.3703471392
  0
SEQEND
  0
POLYLINE
  8
0
 62
7
  6
CONTINUOUS
 66
1
 70
0
  0
VERTEX
  8
0
 62
7
  6
CONTINUOUS
 10
94.5277764521
 20
135.2203147738
  0
VERTEX
  8
0
 62
7
  6
CONTINUOUS
 10
94.6166266092
 20
135.2156584246
  0
VERTEX
  8
0
 62
7
  6
CONTINUOUS
 10
94.7045018016
 20
135.2017405691
  0
VERTEX
  8
0
 62
7
  6
CONTINUOUS
 10
94.7904394096
 20
135.1787139321
  0
VERTEX
  8
0
 62
7
  6
CONTINUOUS
 10
94.8734981127
 20
135.1468309811
  0
VERTEX
  8
0
 62
7
  6
CONTINUOUS
 10
94.9527681768
 20
135.1064411443
  0
VERTEX
  8
0
 62
7
  6
CONTINUOUS
 10
95.0273814041
 20
135.0579869678
  0
VERTEX
  8
0
 62
7
  6
CONTINUOUS
 10
95.0965206169
 20
135.0019992632
  0
VERTEX
  8
0
 62
7
  6
CONTINUOUS
 10
95.1594285821
 20
134.9390912973
  0
VERTEX
  8
0
 62
7
  6
CONTINUOUS
 10
95.2154162856
 20
134.8699520845
  0
VERTEX
  8
0
 62
7
  6
CONTINUOUS
 10
95.2638704607
 20
134.7953388579
  0
VERTEX
  8
0
 62
7
  6
CONTINUOUS
 10
95.3042602962
 20
134.716068795
  0
VERTEX
  8
0
 62
7
  6
CONTINUOUS
 10
95.336143246
 20
134.6330100934
  0
VERTEX
  8
0
 62
7
  6
CONTINUOUS
 10
95.3591698824
 20
134.5470724869
  0
VERTEX
  8
0
 62
7
  6
CONTINUOUS
 10
95.3730877376
 20
134.4591972958
  0
VERTEX
  8
0
 62
7
  6
CONTINUOUS
 10
95.3777440867
 20
134.3703471392
  0
SEQEND
  0
POLYLINE
  8
CURVE
 62
7
  6
CONTINUOUS
 66
1
 70
0
  0
VERTEX
  8
CURVE
 62
7
  6
CONTINUOUS
 10
38.2879232174
 20
138.8977104904
  0
VERTEX
  8
CURVE
 62
7
  6
CONTINUOUS
 10
38.3070094536
 20
138.896665839
  0
VERTEX
  8
CURVE
 62
7
  6
CONTINUOUS
 10
38.3236922018
 20
138.897956896
  0
VERTEX
  8
CURVE
 62
7
  6
CONTINUOUS
 10
38.3383206576
 20
138.9016328038
  0
VERTEX
  8
CURVE
 62
7
  6
CONTINUOUS
 10
38.3508193894
 20
138.9078036763
  0
VERTEX
  8
CURVE
 62
7
  6
CONTINUOUS
 10
38.3607294017
 20
138.9161952804
  0
VERTEX
  8
CURVE
 62
7
  6
CONTINUOUS
 10
38.3681412659
 20
138.9264994288
  0
VERTEX
  8
CURVE
 62
7
  6
CONTINUOUS
 10
38.3734329386
 20
138.9389244539
  0
VERTEX
  8
CURVE
 62
7
  6
CONTINUOUS
 10
38.3766702614
 20
138.9537631884
  0
VERTEX
  8
CURVE
 62
7
  6
CONTINUOUS
 10
38.3777458695
 20
138.9708050578
  0
SEQEND
  0
POLYLINE
  8
CURVE
 62
7
  6
CONTINUOUS
 66
1
 70
0
  0
VERTEX
  8
CURVE
 62
7
  6
CONTINUOUS
 10
34.7877440867
 20
152.2528872559
  0
VERTEX
  8
CURVE
 62
7
  6
CONTINUOUS
 10
35.2357018874
 20
152.1511618723
  0
VERTEX
  8
CURVE
 62
7
  6
CONTINUOUS
 10
35.6412790554
 20
152.0519181031
  0
VERTEX
  8
CURVE
 62
7
  6
CONTINUOUS
 10
36.0078519537
 20
151.9550773688
  0
VERTEX
  8
CURVE
 62
7
  6
CONTINUOUS
 10
36.3385234057
 20
151.8605433126
  0
VERTEX
  8
CURVE
 62
7
  6
CONTINUOUS
 10
36.6361311306
 20
151.76820466
  0
VERTEX
  8
CURVE
 62
7
  6
CONTINUOUS
 10
36.9031892938
 20
151.6779618444
  0
VERTEX
  8
CURVE
 62
7
  6
CONTINUOUS
 10
37.1420378909
 20
151.589687077
  0
VERTEX
  8
CURVE
 62
7
  6
CONTINUOUS
 10
37.3547267853
 20
151.5032703686
  0
VERTEX
  8
CURVE
 62
7
  6
CONTINUOUS
 10
37.5431186353
 20
151.4185919033
  0
VERTEX
  8
CURVE
 62
7
  6
CONTINUOUS
 10
37.7088616496
 20
151.3355407528
  0
VERTEX
  8
CURVE
 62
7
  6
CONTINUOUS
 10
37.853352717
 20
151.2540530656
  0
VERTEX
  8
CURVE
 62
7
  6
CONTINUOUS
 10
37.9778881075
 20
151.1740524492
  0
VERTEX
  8
CURVE
 62
7
  6
CONTINUOUS
 10
38.08344136
 20
151.0956260111
  0
VERTEX
  8
CURVE
 62
7
  6
CONTINUOUS
 10
38.1710006943
 20
151.0188679349
  0
VERTEX
  8
CURVE
 62
7
  6
CONTINUOUS
 10
38.2413102835
 20
150.9441942881
  0
VERTEX
  8
CURVE
 62
7
  6
CONTINUOUS
 10
38.2952623139
 20
150.8722089238
  0
VERTEX
  8
CURVE
 62
7
  6
CONTINUOUS
 10
38.3339848811
 20
150.8038238088
  0
VERTEX
  8
CURVE
 62
7
  6
CONTINUOUS
 10
38.3591961837
 20
150.7398028557
  0
VERTEX
  8
CURVE
 62
7
  6
CONTINUOUS
 10
38.3732384926
 20
150.6792104663
  0
VERTEX
  8
CURVE
 62
7
  6
CONTINUOUS
 10
38.3777440867
 20
150.6203147738
  0
SEQEND
  0
LINE
  8
0
 62
7
  6
CONTINUOUS
 10
101.4277440867
 20
141.1702824084
 11
101.4277440867
 21
147.8703147738
  0
LINE
  8
0
 62
7
  6
CONTINUOUS
 10
102.7577440867
 20
154.4203122465
 11
102.7577440867
 21
144.3040825013
  0
LINE
  8
0
 62
7
  6
CONTINUOUS
 10
103.6077440867
 20
144.5703147738
 11
103.6077440867
 21
140.4003147738
  0
LINE
  8
0
 62
7
  6
CONTINUOUS
 10
103.9577440867
 20
130.9703147738
 11
103.9577440867
 21
135.1403147738
  0
LINE
  8
0
 62
7
  6
CONTINUOUS
 10
101.4498468164
 20
149.8826758691
 11
101.4504067281
 21
150.3430097806
  0
LINE
  8
0
 62
7
  6
CONTINUOUS
 10
101.448580213
 20
149.4410215021
 11
101.4498468164
 21
149.8826758691
  0
LINE
  8
0
 62
7
  6
CONTINUOUS
 10
101.4466474448
 20
149.0322722744
 11
101.448580213
 21
149.4410215021
  0
LINE
  8
0
 62
7
  6
CONTINUOUS
 10
101.444110289
 20
148.6694966202
 11
101.4466474448
 21
149.0322722744
  0
LINE
  8
0
 62
7
  6
CONTINUOUS
 10
101.4410498479
 20
148.3642941613
 11
101.444110289
 21
148.6694966202
  0
POLYLINE
  8
0
 62
7
  6
CONTINUOUS
 66
1
 70
0
  0
VERTEX
  8
0
 62
7
  6
CONTINUOUS
 10
101.4277440867
 20
141.1702824084
  0
VERTEX
  8
0
 62
7
  6
CONTINUOUS
 10
101.4230881809
 20
141.0814364699
  0
VERTEX
  8
0
 62
7
  6
CONTINUOUS
 10
101.4091713097
 20
140.9935637761
  0
VERTEX
  8
0
 62
7
  6
CONTINUOUS
 10
101.3861457092
 20
140.9076270351
  0
VERTEX
  8
0
 62
7
  6
CONTINUOUS
 10
101.3542634396
 20
140.8245678131
  0
VERTEX
  8
0
 62
7
  6
CONTINUOUS
 10
101.3138736437
 20
140.7452962029
  0
VERTEX
  8
0
 62
7
  6
CONTINUOUS
 10
101.2654187332
 20
140.670680832
  0
VERTEX
  8
0
 62
7
  6
CONTINUOUS
 10
101.2094295481
 20
140.6015393231
  0
VERTEX
  8
0
 62
7
  6
CONTINUOUS
 10
101.1465195374
 20
140.5386293125
  0
VERTEX
  8
0
 62
7
  6
CONTINUOUS
 10
101.0773780286
 20
140.4826401273
  0
VERTEX
  8
0
 62
7
  6
CONTINUOUS
 10
101.0027626576
 20
140.4341852168
  0
VERTEX
  8
0
 62
7
  6
CONTINUOUS
 10
100.9234910474
 20
140.3937954209
  0
VERTEX
  8
0
 62
7
  6
CONTINUOUS
 10
100.8404318254
 20
140.3619131514
  0
VERTEX
  8
0
 62
7
  6
CONTINUOUS
 10
100.7544950845
 20
140.3388875508
  0
VERTEX
  8
0
 62
7
  6
CONTINUOUS
 10
100.6666223906
 20
140.3249706796
  0
VERTEX
  8
0
 62
7
  6
CONTINUOUS
 10
100.5777764521
 20
140.3203147738
  0
SEQEND
  0
POLYLINE
  8
CURVE
 62
7
  6
CONTINUOUS
 66
1
 70
0
  0
VERTEX
  8
CURVE
 62
7
  6
CONTINUOUS
 10
62.7777764521
 20
140.3203147738
  0
VERTEX
  8
CURVE
 62
7
  6
CONTINUOUS
 10
62.8666223906
 20
140.3249706796
  0
VERTEX
  8
CURVE
 62
7
  6
CONTINUOUS
 10
62.9544950845
 20
140.3388875508
  0
VERTEX
  8
CURVE
 62
7
  6
CONTINUOUS
 10
63.0404318254
 20
140.3619131514
  0
VERTEX
  8
CURVE
 62
7
  6
CONTINUOUS
 10
63.1234910474
 20
140.3937954209
  0
VERTEX
  8
CURVE
 62
7
  6
CONTINUOUS
 10
63.2027626576
 20
140.4341852168
  0
VERTEX
  8
CURVE
 62
7
  6
CONTINUOUS
 10
63.2773780286
 20
140.4826401273
  0
VERTEX
  8
CURVE
 62
7
  6
CONTINUOUS
 10
63.3465195374
 20
140.5386293125
  0
VERTEX
  8
CURVE
 62
7
  6
CONTINUOUS
 10
63.4094295481
 20
140.6015393231
  0
VERTEX
  8
CURVE
 62
7
  6
CONTINUOUS
 10
63.4654187332
 20
140.670680832
  0
VERTEX
  8
CURVE
 62
7
  6
CONTINUOUS
 10
63.5138736437
 20
140.7452962029
  0
VERTEX
  8
CURVE
 62
7
  6
CONTINUOUS
 10
63.5542634396
 20
140.8245678131
  0
VERTEX
  8
CURVE
 62
7
  6
CONTINUOUS
 10
63.5861457092
 20
140.9076270351
  0
VERTEX
  8
CURVE
 62
7
  6
CONTINUOUS
 10
63.6091713097
 20
140.9935637761
  0
VERTEX
  8
CURVE
 62
7
  6
CONTINUOUS
 10
63.6230881809
 20
141.0814364699
  0
VERTEX
  8
CURVE
 62
7
  6
CONTINUOUS
 10
63.6277440867
 20
141.1702824084
  0
SEQEND
  0
LINE
  8
CURVE
 62
7
  6
CONTINUOUS
 10
62.7777764521
 20
140.3203147738
 11
62.2377117213
 21
140.3203147738
  0
LINE
  8
CURVE
 62
7
  6
CONTINUOUS
 10
50.3777764521
 20
140.3203147738
 11
49.8377117213
 21
140.3203147738
  0
LINE
  8
CURVE
 62
7
  6
CONTINUOUS
 10
74.9377117213
 20
140.3203147738
 11
75.4777764521
 21
140.3203147738
  0
LINE
  8
0
 62
7
  6
CONTINUOUS
 10
87.6377117213
 20
140.3203147738
 11
88.1777764521
 21
140.3203147738
  0
LINE
  8
0
 62
7
  6
CONTINUOUS
 10
100.0377117213
 20
140.3203147738
 11
100.5777764521
 21
140.3203147738
  0
LINE
  8
CURVE
 62
7
  6
CONTINUOUS
 10
40.4077440867
 20
140.5503147738
 11
46.5077440867
 21
140.5503147738
  0
LINE
  8
CURVE
 62
7
  6
CONTINUOUS
 10
53.1077440867
 20
140.5503147738
 11
59.2077440867
 21
140.5503147738
  0
LINE
  8
CURVE
 62
7
  6
CONTINUOUS
 10
65.8077440867
 20
140.5503147738
 11
71.9077440867
 21
140.5503147738
  0
LINE
  8
0
 62
7
  6
CONTINUOUS
 10
78.5077440867
 20
140.5503147738
 11
84.6077440867
 21
140.5503147738
  0
LINE
  8
0
 62
7
  6
CONTINUOUS
 10
91.2077440867
 20
140.5503147738
 11
97.3077440867
 21
140.5503147738
  0
LINE
  8
0
 62
7
  6
CONTINUOUS
 10
103.9077440867
 20
140.5503147738
 11
110.0077440867
 21
140.5503147738
  0
POLYLINE
  8
0
 62
7
  6
CONTINUOUS
 66
1
 70
0
  0
VERTEX
  8
0
 62
7
  6
CONTINUOUS
 10
87.6377117213
 20
140.3203147738
  0
VERTEX
  8
0
 62
7
  6
CONTINUOUS
 10
87.5488657829
 20
140.3249706796
  0
VERTEX
  8
0
 62
7
  6
CONTINUOUS
 10
87.460993089
 20
140.3388875508
  0
VERTEX
  8
0
 62
7
  6
CONTINUOUS
 10
87.375056348
 20
140.3619131514
  0
VERTEX
  8
0
 62
7
  6
CONTINUOUS
 10
87.291997126
 20
140.3937954209
  0
VERTEX
  8
0
 62
7
  6
CONTINUOUS
 10
87.2127255158
 20
140.4341852168
  0
VERTEX
  8
0
 62
7
  6
CONTINUOUS
 10
87.1381101449
 20
140.4826401273
  0
VERTEX
  8
0
 62
7
  6
CONTINUOUS
 10
87.068968636
 20
140.5386293125
  0
VERTEX
  8
0
 62
7
  6
CONTINUOUS
 10
87.0060586254
 20
140.6015393231
  0
VERTEX
  8
0
 62
7
  6
CONTINUOUS
 10
86.9500694402
 20
140.670680832
  0
VERTEX
  8
0
 62
7
  6
CONTINUOUS
 10
86.9016145297
 20
140.7452962029
  0
VERTEX
  8
0
 62
7
  6
CONTINUOUS
 10
86.8612247338
 20
140.8245678131
  0
VERTEX
  8
0
 62
7
  6
CONTINUOUS
 10
86.8293424643
 20
140.9076270351
  0
VERTEX
  8
0
 62
7
  6
CONTINUOUS
 10
86.8063168637
 20
140.9935637761
  0
VERTEX
  8
0
 62
7
  6
CONTINUOUS
 10
86.7923999925
 20
141.0814364699
  0
VERTEX
  8
0
 62
7
  6
CONTINUOUS
 10
86.7877440867
 20
141.1702824084
  0
SEQEND
  0
POLYLINE
  8
0
 62
7
  6
CONTINUOUS
 66
1
 70
0
  0
VERTEX
  8
0
 62
7
  6
CONTINUOUS
 10
100.0377117213
 20
140.3203147738
  0
VERTEX
  8
0
 62
7
  6
CONTINUOUS
 10
99.9488657829
 20
140.3249706796
  0
VERTEX
  8
0
 62
7
  6
CONTINUOUS
 10
99.860993089
 20
140.3388875508
  0
VERTEX
  8
0
 62
7
  6
CONTINUOUS
 10
99.775056348
 20
140.3619131514
  0
VERTEX
  8
0
 62
7
  6
CONTINUOUS
 10
99.691997126
 20
140.3937954209
  0
VERTEX
  8
0
 62
7
  6
CONTINUOUS
 10
99.6127255158
 20
140.4341852168
  0
VERTEX
  8
0
 62
7
  6
CONTINUOUS
 10
99.5381101449
 20
140.4826401273
  0
VERTEX
  8
0
 62
7
  6
CONTINUOUS
 10
99.468968636
 20
140.5386293125
  0
VERTEX
  8
0
 62
7
  6
CONTINUOUS
 10
99.4060586254
 20
140.6015393231
  0
VERTEX
  8
0
 62
7
  6
CONTINUOUS
 10
99.3500694402
 20
140.670680832
  0
VERTEX
  8
0
 62
7
  6
CONTINUOUS
 10
99.3016145297
 20
140.7452962029
  0
VERTEX
  8
0
 62
7
  6
CONTINUOUS
 10
99.2612247338
 20
140.8245678131
  0
VERTEX
  8
0
 62
7
  6
CONTINUOUS
 10
99.2293424643
 20
140.9076270351
  0
VERTEX
  8
0
 62
7
  6
CONTINUOUS
 10
99.2063168637
 20
140.9935637761
  0
VERTEX
  8
0
 62
7
  6
CONTINUOUS
 10
99.1923999925
 20
141.0814364699
  0
VERTEX
  8
0
 62
7
  6
CONTINUOUS
 10
99.1877440867
 20
141.1702824084
  0
SEQEND
  0
LINE
  8
0
 62
7
  6
CONTINUOUS
 10
103.5120360096
 20
136.3989555559
 11
103.4310764012
 21
136.4989323461
  0
LINE
  8
0
 62
7
  6
CONTINUOUS
 10
104.0534521638
 20
139.1416739917
 11
104.1344117688
 21
139.0416972057
  0
POLYLINE
  8
0
 62
7
  6
CONTINUOUS
 66
1
 70
0
  0
VERTEX
  8
0
 62
7
  6
CONTINUOUS
 10
99.1877440867
 20
147.8703147738
  0
VERTEX
  8
0
 62
7
  6
CONTINUOUS
 10
99.185716474
 20
147.8807168372
  0
VERTEX
  8
0
 62
7
  6
CONTINUOUS
 10
99.1837041041
 20
147.9118601386
  0
VERTEX
  8
0
 62
7
  6
CONTINUOUS
 10
99.1817240952
 20
147.9634951483
  0
VERTEX
  8
0
 62
7
  6
CONTINUOUS
 10
99.179792307
 20
148.0352081544
  0
VERTEX
  8
0
 62
7
  6
CONTINUOUS
 10
99.1779242127
 20
148.1264245897
  0
SEQEND
  0
POLYLINE
  8
0
 62
7
  6
CONTINUOUS
 66
1
 70
0
  0
VERTEX
  8
0
 62
7
  6
CONTINUOUS
 10
101.4408509833
 20
150.4703147738
  0
VERTEX
  8
0
 62
7
  6
CONTINUOUS
 10
101.4461687293
 20
150.4280505897
  0
VERTEX
  8
0
 62
7
  6
CONTINUOUS
 10
101.4493561104
 20
150.3855778566
  0
VERTEX
  8
0
 62
7
  6
CONTINUOUS
 10
101.4504067281
 20
150.3430097806
  0
SEQEND
  0
LINE
  8
0
 62
7
  6
CONTINUOUS
 10
104.8127440867
 20
121.1203147738
 11
104.8127440867
 21
131.2321819695
  0
LINE
  8
0
 62
7
  6
CONTINUOUS
 10
109.7810764
 20
139.0416971999
 11
109.8620360096
 21
139.1416739917
  0
POLYLINE
  8
CURVE
 62
7
  6
CONTINUOUS
 66
1
 70
0
  0
VERTEX
  8
CURVE
 62
7
  6
CONTINUOUS
 10
50.3777764521
 20
140.3203147738
  0
VERTEX
  8
CURVE
 62
7
  6
CONTINUOUS
 10
50.4666223906
 20
140.3249706796
  0
VERTEX
  8
CURVE
 62
7
  6
CONTINUOUS
 10
50.5544950845
 20
140.3388875508
  0
VERTEX
  8
CURVE
 62
7
  6
CONTINUOUS
 10
50.6404318254
 20
140.3619131514
  0
VERTEX
  8
CURVE
 62
7
  6
CONTINUOUS
 10
50.7234910474
 20
140.3937954209
  0
VERTEX
  8
CURVE
 62
7
  6
CONTINUOUS
 10
50.8027626576
 20
140.4341852168
  0
VERTEX
  8
CURVE
 62
7
  6
CONTINUOUS
 10
50.8773780286
 20
140.4826401273
  0
VERTEX
  8
CURVE
 62
7
  6
CONTINUOUS
 10
50.9465195374
 20
140.5386293125
  0
VERTEX
  8
CURVE
 62
7
  6
CONTINUOUS
 10
51.0094295481
 20
140.6015393231
  0
VERTEX
  8
CURVE
 62
7
  6
CONTINUOUS
 10
51.0654187332
 20
140.670680832
  0
VERTEX
  8
CURVE
 62
7
  6
CONTINUOUS
 10
51.1138736437
 20
140.7452962029
  0
VERTEX
  8
CURVE
 62
7
  6
CONTINUOUS
 10
51.1542634396
 20
140.8245678131
  0
VERTEX
  8
CURVE
 62
7
  6
CONTINUOUS
 10
51.1861457092
 20
140.9076270351
  0
VERTEX
  8
CURVE
 62
7
  6
CONTINUOUS
 10
51.2091713097
 20
140.9935637761
  0
VERTEX
  8
CURVE
 62
7
  6
CONTINUOUS
 10
51.2230881809
 20
141.0814364699
  0
VERTEX
  8
CURVE
 62
7
  6
CONTINUOUS
 10
51.2277440867
 20
141.1702824084
  0
SEQEND
  0
POLYLINE
  8
CURVE
 62
7
  6
CONTINUOUS
 66
1
 70
0
  0
VERTEX
  8
CURVE
 62
7
  6
CONTINUOUS
 10
34.7877440867
 20
152.2528872559
  0
VERTEX
  8
CURVE
 62
7
  6
CONTINUOUS
 10
34.7359397367
 20
152.2599510235
  0
VERTEX
  8
CURVE
 62
7
  6
CONTINUOUS
 10
34.6855841119
 20
152.2586272956
  0
VERTEX
  8
CURVE
 62
7
  6
CONTINUOUS
 10
34.6368351988
 20
152.2495360375
  0
VERTEX
  8
CURVE
 62
7
  6
CONTINUOUS
 10
34.588211101
 20
152.2325162979
  0
VERTEX
  8
CURVE
 62
7
  6
CONTINUOUS
 10
34.5377772558
 20
152.205932287
  0
VERTEX
  8
CURVE
 62
7
  6
CONTINUOUS
 10
34.4857131893
 20
152.1680444506
  0
VERTEX
  8
CURVE
 62
7
  6
CONTINUOUS
 10
34.4330445214
 20
152.1174938936
  0
VERTEX
  8
CURVE
 62
7
  6
CONTINUOUS
 10
34.3818377482
 20
152.0545020872
  0
VERTEX
  8
CURVE
 62
7
  6
CONTINUOUS
 10
34.3339632416
 20
151.9805574043
  0
VERTEX
  8
CURVE
 62
7
  6
CONTINUOUS
 10
34.2891161203
 20
151.8945849509
  0
VERTEX
  8
CURVE
 62
7
  6
CONTINUOUS
 10
34.2473328886
 20
151.7953144224
  0
VERTEX
  8
CURVE
 62
7
  6
CONTINUOUS
 10
34.2090355561
 20
151.6818389505
  0
VERTEX
  8
CURVE
 62
7
  6
CONTINUOUS
 10
34.1748751183
 20
151.5539627977
  0
VERTEX
  8
CURVE
 62
7
  6
CONTINUOUS
 10
34.1450181508
 20
151.409525299
  0
VERTEX
  8
CURVE
 62
7
  6
CONTINUOUS
 10
34.1198769252
 20
151.2459477511
  0
VERTEX
  8
CURVE
 62
7
  6
CONTINUOUS
 10
34.1002530194
 20
151.0613652668
  0
VERTEX
  8
CURVE
 62
7
  6
CONTINUOUS
 10
34.0871908269
 20
150.8535598863
  0
VERTEX
  8
CURVE
 62
7
  6
CONTINUOUS
 10
34.0823109002
 20
150.6203147739
  0
SEQEND
  0
POLYLINE
  8
0
 62
7
  6
CONTINUOUS
 66
1
 70
0
  0
VERTEX
  8
0
 62
7
  6
CONTINUOUS
 10
112.521443741
 20
138.7815799606
  0
VERTEX
  8
0
 62
7
  6
CONTINUOUS
 10
112.6976480633
 20
138.679873361
  0
VERTEX
  8
0
 62
7
  6
CONTINUOUS
 10
112.9004190943
 20
138.5788486149
  0
VERTEX
  8
0
 62
7
  6
CONTINUOUS
 10
113.1303865051
 20
138.478126482
  0
VERTEX
  8
0
 62
7
  6
CONTINUOUS
 10
113.38859605
 20
138.3773716676
  0
VERTEX
  8
0
 62
7
  6
CONTINUOUS
 10
113.6764326617
 20
138.2762803387
  0
VERTEX
  8
0
 62
7
  6
CONTINUOUS
 10
113.9955666192
 20
138.1745891861
  0
VERTEX
  8
0
 62
7
  6
CONTINUOUS
 10
114.3479381956
 20
138.0720704103
  0
VERTEX
  8
0
 62
7
  6
CONTINUOUS
 10
114.7357408097
 20
137.9685301587
  0
VERTEX
  8
0
 62
7
  6
CONTINUOUS
 10
115.1614340401
 20
137.8638012277
  0
VERTEX
  8
0
 62
7
  6
CONTINUOUS
 10
115.6277440867
 20
137.7577422917
  0
SEQEND
  0
POLYLINE
  8
0
 62
7
  6
CONTINUOUS
 66
1
 70
0
  0
VERTEX
  8
0
 62
7
  6
CONTINUOUS
 10
112.521443741
 20
138.7815799606
  0
VERTEX
  8
0
 62
7
  6
CONTINUOUS
 10
112.4566067141
 20
138.8194561476
  0
VERTEX
  8
0
 62
7
  6
CONTINUOUS
 10
112.3909750632
 20
138.8514757685
  0
VERTEX
  8
0
 62
7
  6
CONTINUOUS
 10
112.3250510409
 20
138.8762905692
  0
VERTEX
  8
0
 62
7
  6
CONTINUOUS
 10
112.25879051
 20
138.8928239119
  0
VERTEX
  8
0
 62
7
  6
CONTINUOUS
 10
112.1924282296
 20
138.9000921834
  0
VERTEX
  8
0
 62
7
  6
CONTINUOUS
 10
112.127564956
 20
138.8977104904
  0
SEQEND
  0
LINE
  8
0
 62
7
  6
CONTINUOUS
 10
109.6077440867
 20
145.9703147738
 11
109.6077440867
 21
145.1703147738
  0
LINE
  8
0
 62
7
  6
CONTINUOUS
 10
109.9577440867
 20
121.3703147738
 11
109.9577440867
 21
133.638078169
  0
LINE
  8
0
 62
7
  6
CONTINUOUS
 10
110.3077440867
 20
140.4003147738
 11
110.3077440867
 21
154.1703147738
  0
LINE
  8
0
 62
7
  6
CONTINUOUS
 10
110.6577438918
 20
130.3703147738
 11
110.6577438918
 21
129.5703147738
  0
LINE
  8
0
 62
7
  6
CONTINUOUS
 10
112.0377440867
 20
150.6203147738
 11
112.0377422903
 21
138.9707749612
  0
POLYLINE
  8
0
 62
7
  6
CONTINUOUS
 66
1
 70
0
  0
VERTEX
  8
0
 62
7
  6
CONTINUOUS
 10
109.9577440867
 20
131.9903147738
  0
VERTEX
  8
0
 62
7
  6
CONTINUOUS
 10
109.9668252905
 20
132.2228285001
  0
VERTEX
  8
0
 62
7
  6
CONTINUOUS
 10
109.994111473
 20
132.4552643393
  0
VERTEX
  8
0
 62
7
  6
CONTINUOUS
 10
110.0394221732
 20
132.6851734947
  0
VERTEX
  8
0
 62
7
  6
CONTINUOUS
 10
110.1021998598
 20
132.909964763
  0
VERTEX
  8
0
 62
7
  6
CONTINUOUS
 10
110.1819538556
 20
133.1282416288
  0
VERTEX
  8
0
 62
7
  6
CONTINUOUS
 10
110.2788850055
 20
133.3405538105
  0
VERTEX
  8
0
 62
7
  6
CONTINUOUS
 10
110.3924681691
 20
133.5455176011
  0
VERTEX
  8
0
 62
7
  6
CONTINUOUS
 10
110.5214589643
 20
133.7407926174
  0
VERTEX
  8
0
 62
7
  6
CONTINUOUS
 10
110.664416637
 20
133.9243905759
  0
SEQEND
  0
POLYLINE
  8
0
 62
7
  6
CONTINUOUS
 66
1
 70
0
  0
VERTEX
  8
0
 62
7
  6
CONTINUOUS
 10
110.664416637
 20
133.9243905759
  0
VERTEX
  8
0
 62
7
  6
CONTINUOUS
 10
110.8104790494
 20
134.0853492759
  0
VERTEX
  8
0
 62
7
  6
CONTINUOUS
 10
110.9681247946
 20
134.2356058343
  0
VERTEX
  8
0
 62
7
  6
CONTINUOUS
 10
111.1359041875
 20
134.37377851
  0
VERTEX
  8
0
 62
7
  6
CONTINUOUS
 10
111.3132647552
 20
134.49941889
  0
VERTEX
  8
0
 62
7
  6
CONTINUOUS
 10
111.4996265558
 20
134.6121098033
  0
VERTEX
  8
0
 62
7
  6
CONTINUOUS
 10
111.6932733291
 20
134.7108135706
  0
VERTEX
  8
0
 62
7
  6
CONTINUOUS
 10
111.8935691949
 20
134.7952118682
  0
VERTEX
  8
0
 62
7
  6
CONTINUOUS
 10
112.0998608662
 20
134.8650238231
  0
VERTEX
  8
0
 62
7
  6
CONTINUOUS
 10
112.3102486376
 20
134.9196064362
  0
VERTEX
  8
0
 62
7
  6
CONTINUOUS
 10
112.5240397222
 20
134.9587853224
  0
VERTEX
  8
0
 62
7
  6
CONTINUOUS
 10
112.7405351593
 20
134.9824272361
  0
VERTEX
  8
0
 62
7
  6
CONTINUOUS
 10
112.9577440867
 20
134.9903147738
  0
SEQEND
  0
POLYLINE
  8
0
 62
7
  6
CONTINUOUS
 66
1
 70
0
  0
VERTEX
  8
0
 62
7
  6
CONTINUOUS
 10
115.6277440867
 20
152.2528872559
  0
VERTEX
  8
0
 62
7
  6
CONTINUOUS
 10
115.179786286
 20
152.1511618723
  0
VERTEX
  8
0
 62
7
  6
CONTINUOUS
 10
114.774209118
 20
152.0519181031
  0
VERTEX
  8
0
 62
7
  6
CONTINUOUS
 10
114.4076362197
 20
151.9550773688
  0
VERTEX
  8
0
 62
7
  6
CONTINUOUS
 10
114.0769647677
 20
151.8605433126
  0
VERTEX
  8
0
 62
7
  6
CONTINUOUS
 10
113.7793570428
 20
151.76820466
  0
VERTEX
  8
0
 62
7
  6
CONTINUOUS
 10
113.5122988796
 20
151.6779618444
  0
VERTEX
  8
0
 62
7
  6
CONTINUOUS
 10
113.2734502826
 20
151.589687077
  0
VERTEX
  8
0
 62
7
  6
CONTINUOUS
 10
113.0607613881
 20
151.5032703686
  0
VERTEX
  8
0
 62
7
  6
CONTINUOUS
 10
112.8723695382
 20
151.4185919033
  0
VERTEX
  8
0
 62
7
  6
CONTINUOUS
 10
112.7066265239
 20
151.3355407528
  0
VERTEX
  8
0
 62
7
  6
CONTINUOUS
 10
112.5621354565
 20
151.2540530656
  0
VERTEX
  8
0
 62
7
  6
CONTINUOUS
 10
112.4376000659
 20
151.1740524492
  0
VERTEX
  8
0
 62
7
  6
CONTINUOUS
 10
112.3320468135
 20
151.0956260111
  0
VERTEX
  8
0
 62
7
  6
CONTINUOUS
 10
112.2444874791
 20
151.0188679349
  0
VERTEX
  8
0
 62
7
  6
CONTINUOUS
 10
112.1741778899
 20
150.9441942881
  0
VERTEX
  8
0
 62
7
  6
CONTINUOUS
 10
112.1202258595
 20
150.8722089238
  0
VERTEX
  8
0
 62
7
  6
CONTINUOUS
 10
112.0815032923
 20
150.8038238088
  0
VERTEX
  8
0
 62
7
  6
CONTINUOUS
 10
112.0562919898
 20
150.7398028557
  0
VERTEX
  8
0
 62
7
  6
CONTINUOUS
 10
112.0422496808
 20
150.6792104663
  0
VERTEX
  8
0
 62
7
  6
CONTINUOUS
 10
112.0377440867
 20
150.6203147738
  0
SEQEND
  0
POLYLINE
  8
0
 62
7
  6
CONTINUOUS
 66
1
 70
0
  0
VERTEX
  8
0
 62
7
  6
CONTINUOUS
 10
115.6277440867
 20
152.2528872559
  0
VERTEX
  8
0
 62
7
  6
CONTINUOUS
 10
115.6795484367
 20
152.2599510235
  0
VERTEX
  8
0
 62
7
  6
CONTINUOUS
 10
115.7299040616
 20
152.2586272956
  0
VERTEX
  8
0
 62
7
  6
CONTINUOUS
 10
115.7786529746
 20
152.2495360375
  0
VERTEX
  8
0
 62
7
  6
CONTINUOUS
 10
115.8272770724
 20
152.2325162979
  0
VERTEX
  8
0
 62
7
  6
CONTINUOUS
 10
115.8777109176
 20
152.205932287
  0
VERTEX
  8
0
 62
7
  6
CONTINUOUS
 10
115.9297749841
 20
152.1680444506
  0
VERTEX
  8
0
 62
7
  6
CONTINUOUS
 10
115.982443652
 20
152.1174938936
  0
VERTEX
  8
0
 62
7
  6
CONTINUOUS
 10
116.0336504252
 20
152.0545020872
  0
VERTEX
  8
0
 62
7
  6
CONTINUOUS
 10
116.0815249318
 20
151.9805574043
  0
VERTEX
  8
0
 62
7
  6
CONTINUOUS
 10
116.1263720532
 20
151.8945849509
  0
VERTEX
  8
0
 62
7
  6
CONTINUOUS
 10
116.1681552849
 20
151.7953144224
  0
VERTEX
  8
0
 62
7
  6
CONTINUOUS
 10
116.2064526174
 20
151.6818389505
  0
VERTEX
  8
0
 62
7
  6
CONTINUOUS
 10
116.2406130551
 20
151.5539627977
  0
VERTEX
  8
0
 62
7
  6
CONTINUOUS
 10
116.2704700227
 20
151.409525299
  0
VERTEX
  8
0
 62
7
  6
CONTINUOUS
 10
116.2956112482
 20
151.2459477511
  0
VERTEX
  8
0
 62
7
  6
CONTINUOUS
 10
116.3152351541
 20
151.0613652668
  0
VERTEX
  8
0
 62
7
  6
CONTINUOUS
 10
116.3282973465
 20
150.8535598863
  0
VERTEX
  8
0
 62
7
  6
CONTINUOUS
 10
116.3331772732
 20
150.6203147739
  0
SEQEND
  0
LINE
  8
CURVE
 62
2
  6
CENTER
 10
31.9377440867
 20
150.4703147738
 11
118.4777440867
 21
150.4703147738
  0
LINE
  8
0
 62
7
  6
CONTINUOUS
 10
100.5995744274
 20
151.1921127491
 11
100.015913746
 21
151.1921127491
  0
LINE
  8
0
 62
7
  6
CONTINUOUS
 10
88.1995744274
 20
151.1921127491
 11
87.615913746
 21
151.1921127491
  0
LINE
  8
CURVE
 62
7
  6
CONTINUOUS
 10
49.815913746
 20
151.1921127491
 11
50.3995744274
 21
151.1921127491
  0
LINE
  8
CURVE
 62
7
  6
CONTINUOUS
 10
62.215913746
 20
151.1921127491
 11
62.7995744274
 21
151.1921127491
  0
LINE
  8
CURVE
 62
7
  6
CONTINUOUS
 10
74.915913746
 20
151.1921127491
 11
75.4995744274
 21
151.1921127491
  0
POLYLINE
  8
0
 62
7
  6
CONTINUOUS
 66
1
 70
0
  0
VERTEX
  8
0
 62
7
  6
CONTINUOUS
 10
75.4995744274
 20
151.1921127491
  0
VERTEX
  8
0
 62
7
  6
CONTINUOUS
 10
75.5985325678
 20
151.1863490155
  0
VERTEX
  8
0
 62
7
  6
CONTINUOUS
 10
75.6976900182
 20
151.1687744299
  0
VERTEX
  8
0
 62
7
  6
CONTINUOUS
 10
75.7944997041
 20
151.1394825865
  0
VERTEX
  8
0
 62
7
  6
CONTINUOUS
 10
75.8871578542
 20
151.098935134
  0
VERTEX
  8
0
 62
7
  6
CONTINUOUS
 10
75.9750215325
 20
151.0472503143
  0
VERTEX
  8
0
 62
7
  6
CONTINUOUS
 10
76.0560439464
 20
150.9854617391
  0
VERTEX
  8
0
 62
7
  6
CONTINUOUS
 10
76.1285819499
 20
150.9149832341
  0
VERTEX
  8
0
 62
7
  6
CONTINUOUS
 10
76.1923570686
 20
150.8361956786
  0
VERTEX
  8
0
 62
7
  6
CONTINUOUS
 10
76.2461731874
 20
150.750551829
  0
VERTEX
  8
0
 62
7
  6
CONTINUOUS
 10
76.2889787404
 20
150.660155548
  0
VERTEX
  8
0
 62
7
  6
CONTINUOUS
 10
76.3205972172
 20
150.566198178
  0
VERTEX
  8
0
 62
7
  6
CONTINUOUS
 10
76.3408509833
 20
150.4703147738
  0
SEQEND
  0
POLYLINE
  8
0
 62
7
  6
CONTINUOUS
 66
1
 70
0
  0
VERTEX
  8
0
 62
7
  6
CONTINUOUS
 10
88.1995744274
 20
151.1921127491
  0
VERTEX
  8
0
 62
7
  6
CONTINUOUS
 10
88.2985325678
 20
151.1863490155
  0
VERTEX
  8
0
 62
7
  6
CONTINUOUS
 10
88.3976900182
 20
151.1687744299
  0
VERTEX
  8
0
 62
7
  6
CONTINUOUS
 10
88.4944997041
 20
151.1394825865
  0
VERTEX
  8
0
 62
7
  6
CONTINUOUS
 10
88.5871578542
 20
151.098935134
  0
VERTEX
  8
0
 62
7
  6
CONTINUOUS
 10
88.6750215325
 20
151.0472503143
  0
VERTEX
  8
0
 62
7
  6
CONTINUOUS
 10
88.7560439464
 20
150.9854617391
  0
VERTEX
  8
0
 62
7
  6
CONTINUOUS
 10
88.8285819499
 20
150.9149832341
  0
VERTEX
  8
0
 62
7
  6
CONTINUOUS
 10
88.8923570686
 20
150.8361956786
  0
VERTEX
  8
0
 62
7
  6
CONTINUOUS
 10
88.9461731874
 20
150.750551829
  0
VERTEX
  8
0
 62
7
  6
CONTINUOUS
 10
88.9889787404
 20
150.660155548
  0
VERTEX
  8
0
 62
7
  6
CONTINUOUS
 10
89.0205972172
 20
150.566198178
  0
VERTEX
  8
0
 62
7
  6
CONTINUOUS
 10
89.0408509833
 20
150.4703147738
  0
SEQEND
  0
POLYLINE
  8
0
 62
7
  6
CONTINUOUS
 66
1
 70
0
  0
VERTEX
  8
0
 62
7
  6
CONTINUOUS
 10
100.5995744274
 20
151.1921127491
  0
VERTEX
  8
0
 62
7
  6
CONTINUOUS
 10
100.6985325678
 20
151.1863490155
  0
VERTEX
  8
0
 62
7
  6
CONTINUOUS
 10
100.7976900182
 20
151.1687744299
  0
VERTEX
  8
0
 62
7
  6
CONTINUOUS
 10
100.8944997041
 20
151.1394825865
  0
VERTEX
  8
0
 62
7
  6
CONTINUOUS
 10
100.9871578542
 20
151.098935134
  0
VERTEX
  8
0
 62
7
  6
CONTINUOUS
 10
101.0750215325
 20
151.0472503143
  0
VERTEX
  8
0
 62
7
  6
CONTINUOUS
 10
101.1560439464
 20
150.9854617391
  0
VERTEX
  8
0
 62
7
  6
CONTINUOUS
 10
101.2285819499
 20
150.9149832341
  0
VERTEX
  8
0
 62
7
  6
CONTINUOUS
 10
101.2923570686
 20
150.8361956786
  0
VERTEX
  8
0
 62
7
  6
CONTINUOUS
 10
101.3461731874
 20
150.750551829
  0
VERTEX
  8
0
 62
7
  6
CONTINUOUS
 10
101.3889787404
 20
150.660155548
  0
VERTEX
  8
0
 62
7
  6
CONTINUOUS
 10
101.4205972172
 20
150.566198178
  0
VERTEX
  8
0
 62
7
  6
CONTINUOUS
 10
101.4408509833
 20
150.4703147738
  0
SEQEND
  0
LINE
  8
0
 62
7
  6
CONTINUOUS
 10
116.3331772732
 20
139.3903147732
 11
116.3331772732
 21
150.6203147739
  0
LINE
  8
0
 62
7
  6
CONTINUOUS
 10
116.4777440867
 20
135.8403147738
 11
116.4777440867
 21
154.1703147738
  0
POLYLINE
  8
0
 62
7
  6
CONTINUOUS
 66
1
 70
0
  0
VERTEX
  8
0
 62
7
  6
CONTINUOUS
 10
116.3331772732
 20
139.3903147732
  0
VERTEX
  8
0
 62
7
  6
CONTINUOUS
 10
116.3282965998
 20
139.1570520059
  0
VERTEX
  8
0
 62
7
  6
CONTINUOUS
 10
116.315233148
 20
138.9492405489
  0
VERTEX
  8
0
 62
7
  6
CONTINUOUS
 10
116.2956076314
 20
138.7646539048
  0
VERTEX
  8
0
 62
7
  6
CONTINUOUS
 10
116.2704636398
 20
138.6010687274
  0
VERTEX
  8
0
 62
7
  6
CONTINUOUS
 10
116.2406007641
 20
138.4566146986
  0
VERTEX
  8
0
 62
7
  6
CONTINUOUS
 10
116.2064303806
 20
138.3287167493
  0
VERTEX
  8
0
 62
7
  6
CONTINUOUS
 10
116.1681191191
 20
138.2152193753
  0
VERTEX
  8
0
 62
7
  6
CONTINUOUS
 10
116.1263167121
 20
138.1159266403
  0
VERTEX
  8
0
 62
7
  6
CONTINUOUS
 10
116.0814437082
 20
138.0299323762
  0
VERTEX
  8
0
 62
7
  6
CONTINUOUS
 10
116.03353734
 20
137.9559712987
  0
VERTEX
  8
0
 62
7
  6
CONTINUOUS
 10
115.982312467
 20
137.8929928715
  0
VERTEX
  8
0
 62
7
  6
CONTINUOUS
 10
115.9296685874
 20
137.8424960053
  0
VERTEX
  8
0
 62
7
  6
CONTINUOUS
 10
115.8776318216
 20
137.8046480534
  0
VERTEX
  8
0
 62
7
  6
CONTINUOUS
 10
115.8272164926
 20
137.7780869199
  0
VERTEX
  8
0
 62
7
  6
CONTINUOUS
 10
115.7786039973
 20
137.7610804363
  0
VERTEX
  8
0
 62
7
  6
CONTINUOUS
 10
115.729863519
 20
137.7519979177
  0
VERTEX
  8
0
 62
7
  6
CONTINUOUS
 10
115.67952215
 20
137.7506799442
  0
VERTEX
  8
0
 62
7
  6
CONTINUOUS
 10
115.6277440867
 20
137.7577422917
  0
SEQEND
  0
POLYLINE
  8
CURVE
 62
7
  6
CONTINUOUS
 66
1
 70
0
  0
VERTEX
  8
CURVE
 62
7
  6
CONTINUOUS
 10
74.915913746
 20
151.1921127491
  0
VERTEX
  8
CURVE
 62
7
  6
CONTINUOUS
 10
74.8169556056
 20
151.1863490155
  0
VERTEX
  8
CURVE
 62
7
  6
CONTINUOUS
 10
74.7177981552
 20
151.1687744299
  0
VERTEX
  8
CURVE
 62
7
  6
CONTINUOUS
 10
74.6209884693
 20
151.1394825865
  0
VERTEX
  8
CURVE
 62
7
  6
CONTINUOUS
 10
74.5283303192
 20
151.098935134
  0
VERTEX
  8
CURVE
 62
7
  6
CONTINUOUS
 10
74.4404666409
 20
151.0472503143
  0
VERTEX
  8
CURVE
 62
7
  6
CONTINUOUS
 10
74.359444227
 20
150.9854617391
  0
VERTEX
  8
CURVE
 62
7
  6
CONTINUOUS
 10
74.2869062236
 20
150.9149832341
  0
VERTEX
  8
CURVE
 62
7
  6
CONTINUOUS
 10
74.2231311048
 20
150.8361956786
  0
VERTEX
  8
CURVE
 62
7
  6
CONTINUOUS
 10
74.169314986
 20
150.750551829
  0
VERTEX
  8
CURVE
 62
7
  6
CONTINUOUS
 10
74.1265094331
 20
150.660155548
  0
VERTEX
  8
CURVE
 62
7
  6
CONTINUOUS
 10
74.0948909562
 20
150.566198178
  0
VERTEX
  8
CURVE
 62
7
  6
CONTINUOUS
 10
74.0746371902
 20
150.4703147738
  0
SEQEND
  0
POLYLINE
  8
CURVE
 62
7
  6
CONTINUOUS
 66
1
 70
0
  0
VERTEX
  8
CURVE
 62
7
  6
CONTINUOUS
 10
62.215913746
 20
151.1921127491
  0
VERTEX
  8
CURVE
 62
7
  6
CONTINUOUS
 10
62.1169556056
 20
151.1863490155
  0
VERTEX
  8
CURVE
 62
7
  6
CONTINUOUS
 10
62.0177981552
 20
151.1687744299
  0
VERTEX
  8
CURVE
 62
7
  6
CONTINUOUS
 10
61.9209884693
 20
151.1394825865
  0
VERTEX
  8
CURVE
 62
7
  6
CONTINUOUS
 10
61.8283303192
 20
151.098935134
  0
VERTEX
  8
CURVE
 62
7
  6
CONTINUOUS
 10
61.7404666409
 20
151.0472503143
  0
VERTEX
  8
CURVE
 62
7
  6
CONTINUOUS
 10
61.659444227
 20
150.9854617391
  0
VERTEX
  8
CURVE
 62
7
  6
CONTINUOUS
 10
61.5869062236
 20
150.9149832341
  0
VERTEX
  8
CURVE
 62
7
  6
CONTINUOUS
 10
61.5231311048
 20
150.8361956786
  0
VERTEX
  8
CURVE
 62
7
  6
CONTINUOUS
 10
61.469314986
 20
150.750551829
  0
VERTEX
  8
CURVE
 62
7
  6
CONTINUOUS
 10
61.4265094331
 20
150.660155548
  0
VERTEX
  8
CURVE
 62
7
  6
CONTINUOUS
 10
61.3948909562
 20
150.566198178
  0
VERTEX
  8
CURVE
 62
7
  6
CONTINUOUS
 10
61.3746371902
 20
150.4703147738
  0
SEQEND
  0
POLYLINE
  8
CURVE
 62
7
  6
CONTINUOUS
 66
1
 70
0
  0
VERTEX
  8
CURVE
 62
7
  6
CONTINUOUS
 10
49.815913746
 20
151.1921127491
  0
VERTEX
  8
CURVE
 62
7
  6
CONTINUOUS
 10
49.7169556056
 20
151.1863490155
  0
VERTEX
  8
CURVE
 62
7
  6
CONTINUOUS
 10
49.6177981552
 20
151.1687744299
  0
VERTEX
  8
CURVE
 62
7
  6
CONTINUOUS
 10
49.5209884693
 20
151.1394825865
  0
VERTEX
  8
CURVE
 62
7
  6
CONTINUOUS
 10
49.4283303192
 20
151.098935134
  0
VERTEX
  8
CURVE
 62
7
  6
CONTINUOUS
 10
49.3404666409
 20
151.0472503143
  0
VERTEX
  8
CURVE
 62
7
  6
CONTINUOUS
 10
49.259444227
 20
150.9854617391
  0
VERTEX
  8
CURVE
 62
7
  6
CONTINUOUS
 10
49.1869062236
 20
150.9149832341
  0
VERTEX
  8
CURVE
 62
7
  6
CONTINUOUS
 10
49.1231311048
 20
150.8361956786
  0
VERTEX
  8
CURVE
 62
7
  6
CONTINUOUS
 10
49.069314986
 20
150.750551829
  0
VERTEX
  8
CURVE
 62
7
  6
CONTINUOUS
 10
49.0265094331
 20
150.660155548
  0
VERTEX
  8
CURVE
 62
7
  6
CONTINUOUS
 10
48.9948909562
 20
150.566198178
  0
VERTEX
  8
CURVE
 62
7
  6
CONTINUOUS
 10
48.9746371902
 20
150.4703147738
  0
SEQEND
  0
LINE
  8
0
 62
7
  6
CONTINUOUS
 10
34.7877440867
 20
155.0203147738
 11
39.2577440867
 21
155.0203147738
  0
LINE
  8
0
 62
7
  6
CONTINUOUS
 10
48.2577440867
 20
155.0203147738
 11
51.9577440867
 21
155.0203147738
  0
LINE
  8
0
 62
7
  6
CONTINUOUS
 10
60.3577440867
 20
155.0203147738
 11
64.6577440867
 21
155.0203147738
  0
LINE
  8
0
 62
7
  6
CONTINUOUS
 10
73.0577440867
 20
155.0203147738
 11
77.3577440867
 21
155.0203147738
  0
LINE
  8
0
 62
7
  6
CONTINUOUS
 10
85.7577440867
 20
155.0203147738
 11
90.0577440867
 21
155.0203147738
  0
LINE
  8
0
 62
7
  6
CONTINUOUS
 10
98.4577440867
 20
155.0203147738
 11
102.1577440867
 21
155.0203147738
  0
LINE
  8
0
 62
7
  6
CONTINUOUS
 10
111.1577440867
 20
155.0203147738
 11
115.6277440867
 21
155.0203147738
  0
LINE
  8
CURVE
 62
7
  6
CONTINUOUS
 10
174.5869740069
 20
122.2903147738
 11
167.6848609488
 21
122.2903147738
  0
LINE
  8
0
 62
2
  6
CONTINUOUS
 10
179.4648609488
 20
125.0703147738
 11
177.7048609488
 21
125.0703147738
  0
LINE
  8
DEFAULT_1
 62
2
  6
CENTER
 10
174.1848609488
 20
125.0703147738
 11
173.9848609488
 21
125.0703147738
  0
LINE
  8
DEFAULT_1
 62
2
  6
CENTER
 10
182.9848609488
 20
125.0703147738
 11
183.1848609488
 21
125.0703147738
  0
LINE
  8
CURVE
 62
7
  6
CONTINUOUS
 10
166.6848609488
 20
123.2903147738
 11
166.6848609488
 21
136.2903147738
  0
LINE
  8
0
 62
7
  6
CONTINUOUS
 10
174.311030763
 20
147.2957738692
 11
174.2942776167
 21
147.2457737738
  0
LINE
  8
0
 62
7
  6
CONTINUOUS
 10
174.2942776167
 20
146.9457737738
 11
174.311030763
 21
146.9957738692
  0
LINE
  8
0
 62
7
  6
CONTINUOUS
 10
174.311030763
 20
145.0457737261
 11
174.2942776167
 21
144.9957737738
  0
LINE
  8
0
 62
7
  6
CONTINUOUS
 10
174.2942776167
 20
144.6957737738
 11
174.311030763
 21
144.7457737261
  0
LINE
  8
0
 62
7
  6
CONTINUOUS
 10
174.2719400882
 20
147.0957737738
 11
174.2551869419
 21
146.8957736784
  0
LINE
  8
0
 62
7
  6
CONTINUOUS
 10
174.2831088525
 20
146.8457738692
 11
174.2942776167
 21
146.9457737738
  0
LINE
  8
0
 62
7
  6
CONTINUOUS
 10
174.2831088525
 20
144.5957737261
 11
174.2942776167
 21
144.6957737738
  0
LINE
  8
0
 62
7
  6
CONTINUOUS
 10
174.2942776167
 20
147.2457737738
 11
174.2719400882
 21
147.0957737738
  0
LINE
  8
0
 62
7
  6
CONTINUOUS
 10
174.2942776167
 20
144.9957737738
 11
174.2719400882
 21
144.8457737738
  0
POLYLINE
  8
CURVE
 62
7
  6
CONTINUOUS
 66
1
 70
0
  0
VERTEX
  8
CURVE
 62
7
  6
CONTINUOUS
 10
174.1927190891
 20
138.8977107713
  0
VERTEX
  8
CURVE
 62
7
  6
CONTINUOUS
 10
174.1984210636
 20
138.9000808631
  0
VERTEX
  8
CURVE
 62
7
  6
CONTINUOUS
 10
174.2042384562
 20
138.8927439936
  0
VERTEX
  8
CURVE
 62
7
  6
CONTINUOUS
 10
174.2100376312
 20
138.8761440169
  0
VERTEX
  8
CURVE
 62
7
  6
CONTINUOUS
 10
174.2157999701
 20
138.8513001171
  0
VERTEX
  8
CURVE
 62
7
  6
CONTINUOUS
 10
174.2215284668
 20
138.8193220276
  0
VERTEX
  8
CURVE
 62
7
  6
CONTINUOUS
 10
174.2271791851
 20
138.7815799606
  0
SEQEND
  0
LINE
  8
0
 62
7
  6
CONTINUOUS
 10
174.3892121282
 20
144.6457738215
 11
174.3724589819
 21
144.8457737738
  0
LINE
  8
0
 62
7
  6
CONTINUOUS
 10
174.3557058356
 20
144.5957737261
 11
174.3612902177
 21
144.4457737261
  0
LINE
  8
0
 62
7
  6
CONTINUOUS
 10
174.3557058356
 20
146.8457738692
 11
174.3612902177
 21
146.6957738692
  0
LINE
  8
0
 62
7
  6
CONTINUOUS
 10
174.3947965104
 20
144.3957737738
 11
174.3892121282
 21
144.6457738215
  0
LINE
  8
0
 62
7
  6
CONTINUOUS
 10
174.3947965104
 20
146.6457737738
 11
174.3892121282
 21
146.8957736784
  0
POLYLINE
  8
CURVE
 62
7
  6
CONTINUOUS
 66
1
 70
0
  0
VERTEX
  8
CURVE
 62
7
  6
CONTINUOUS
 10
174.1848608333
 20
138.9707993094
  0
VERTEX
  8
CURVE
 62
7
  6
CONTINUOUS
 10
174.1849345299
 20
138.9556075131
  0
VERTEX
  8
CURVE
 62
7
  6
CONTINUOUS
 10
174.1851574333
 20
138.9420911242
  0
VERTEX
  8
CURVE
 62
7
  6
CONTINUOUS
 10
174.1855456407
 20
138.9299383106
  0
VERTEX
  8
CURVE
 62
7
  6
CONTINUOUS
 10
174.1861530651
 20
138.918810067
  0
VERTEX
  8
CURVE
 62
7
  6
CONTINUOUS
 10
174.1870384543
 20
138.9092031735
  0
VERTEX
  8
CURVE
 62
7
  6
CONTINUOUS
 10
174.1881866273
 20
138.9021607339
  0
VERTEX
  8
CURVE
 62
7
  6
CONTINUOUS
 10
174.1895231881
 20
138.8980807483
  0
VERTEX
  8
CURVE
 62
7
  6
CONTINUOUS
 10
174.1910222825
 20
138.8966692674
  0
VERTEX
  8
CURVE
 62
7
  6
CONTINUOUS
 10
174.1927190891
 20
138.8977107713
  0
SEQEND
  0
POLYLINE
  8
CURVE
 62
7
  6
CONTINUOUS
 66
1
 70
0
  0
VERTEX
  8
CURVE
 62
7
  6
CONTINUOUS
 10
174.5606626575
 20
150.6203147738
  0
VERTEX
  8
CURVE
 62
7
  6
CONTINUOUS
 10
174.5602356539
 20
150.8535775416
  0
VERTEX
  8
CURVE
 62
7
  6
CONTINUOUS
 10
174.55909275
 20
151.0613889988
  0
VERTEX
  8
CURVE
 62
7
  6
CONTINUOUS
 10
174.5573757398
 20
151.2459756429
  0
VERTEX
  8
CURVE
 62
7
  6
CONTINUOUS
 10
174.5551759256
 20
151.40956082
  0
VERTEX
  8
CURVE
 62
7
  6
CONTINUOUS
 10
174.5525632625
 20
151.5540148484
  0
VERTEX
  8
CURVE
 62
7
  6
CONTINUOUS
 10
174.5495737413
 20
151.6819127978
  0
VERTEX
  8
CURVE
 62
7
  6
CONTINUOUS
 10
174.5462219402
 20
151.7954101714
  0
VERTEX
  8
CURVE
 62
7
  6
CONTINUOUS
 10
174.5425647036
 20
151.8947029057
  0
VERTEX
  8
CURVE
 62
7
  6
CONTINUOUS
 10
174.5386388245
 20
151.9806971694
  0
VERTEX
  8
CURVE
 62
7
  6
CONTINUOUS
 10
174.5344475604
 20
152.0546582471
  0
VERTEX
  8
CURVE
 62
7
  6
CONTINUOUS
 10
174.5299659646
 20
152.1176366751
  0
VERTEX
  8
CURVE
 62
7
  6
CONTINUOUS
 10
174.5253602219
 20
152.1681335418
  0
VERTEX
  8
CURVE
 62
7
  6
CONTINUOUS
 10
174.5208075948
 20
152.205981494
  0
VERTEX
  8
CURVE
 62
7
  6
CONTINUOUS
 10
174.5163968251
 20
152.2325426275
  0
VERTEX
  8
CURVE
 62
7
  6
CONTINUOUS
 10
174.5121437829
 20
152.2495491111
  0
VERTEX
  8
CURVE
 62
7
  6
CONTINUOUS
 10
174.5078795436
 20
152.2586316298
  0
VERTEX
  8
CURVE
 62
7
  6
CONTINUOUS
 10
174.5034752444
 20
152.2599496034
  0
VERTEX
  8
CURVE
 62
7
  6
CONTINUOUS
 10
174.4989452508
 20
152.2528872559
  0
SEQEND
  0
LINE
  8
CURVE
 62
7
  6
CONTINUOUS
 10
174.1848609488
 20
124.9203147738
 11
174.1848609488
 21
150.6203147738
  0
LINE
  8
0
 62
7
  6
CONTINUOUS
 10
174.2496025598
 20
146.6457737738
 11
174.2496025598
 21
145.4457737738
  0
LINE
  8
0
 62
7
  6
CONTINUOUS
 10
174.2496025598
 20
144.3957737738
 11
174.2496025598
 21
143.1957737738
  0
LINE
  8
0
 62
7
  6
CONTINUOUS
 10
174.2775244704
 20
143.4957737738
 11
174.2775244704
 21
144.4457737261
  0
LINE
  8
0
 62
7
  6
CONTINUOUS
 10
174.2775244704
 20
145.7457737738
 11
174.2775244704
 21
146.6957738692
  0
LINE
  8
0
 62
7
  6
CONTINUOUS
 10
174.3612902177
 20
146.6957738692
 11
174.3612902177
 21
145.7457737738
  0
LINE
  8
0
 62
7
  6
CONTINUOUS
 10
174.3612902177
 20
144.4457737261
 11
174.3612902177
 21
143.4957737738
  0
LINE
  8
0
 62
7
  6
CONTINUOUS
 10
174.3947965104
 20
143.4957737738
 11
174.3947965104
 21
144.3957737738
  0
LINE
  8
0
 62
7
  6
CONTINUOUS
 10
174.3947965104
 20
145.7457737738
 11
174.3947965104
 21
146.6457737738
  0
LINE
  8
0
 62
7
  6
CONTINUOUS
 10
174.4503665273
 20
145.7457737738
 11
174.4503665273
 21
145.4457737738
  0
LINE
  8
0
 62
7
  6
CONTINUOUS
 10
174.4503665273
 20
143.4957737738
 11
174.4503665273
 21
143.1957737738
  0
LINE
  8
0
 62
7
  6
CONTINUOUS
 10
174.5120685504
 20
143.1957737738
 11
174.5120685504
 21
143.4957737738
  0
LINE
  8
0
 62
7
  6
CONTINUOUS
 10
174.5120685504
 20
145.4457737738
 11
174.5120685504
 21
145.7457737738
  0
LINE
  8
CURVE
 62
7
  6
CONTINUOUS
 10
174.5606626575
 20
150.6203147738
 11
174.5606626575
 21
139.3903147732
  0
LINE
  8
0
 62
7
  6
CONTINUOUS
 10
174.2551869419
 20
146.8957736784
 11
174.2496025598
 21
146.6457737738
  0
LINE
  8
0
 62
7
  6
CONTINUOUS
 10
174.2551869419
 20
144.6457738215
 11
174.2496025598
 21
144.3957737738
  0
LINE
  8
0
 62
7
  6
CONTINUOUS
 10
174.2775244704
 20
146.6957738692
 11
174.2831088525
 21
146.8457738692
  0
LINE
  8
0
 62
7
  6
CONTINUOUS
 10
174.2775244704
 20
144.4457737261
 11
174.2831088525
 21
144.5957737261
  0
LINE
  8
0
 62
7
  6
CONTINUOUS
 10
174.2719400882
 20
144.8457737738
 11
174.2551869419
 21
144.6457738215
  0
LINE
  8
CURVE
 62
7
  6
CONTINUOUS
 10
174.1848609488
 20
137.3343682403
 11
174.1793969064
 21
137.3266788221
  0
LINE
  8
0
 62
7
  6
CONTINUOUS
 10
174.1848609488
 20
137.3343702053
 11
174.1794047925
 21
137.3266899201
  0
LINE
  8
CURVE
 62
7
  6
CONTINUOUS
 10
174.179256653
 20
137.3265085344
 11
174.1695765404
 21
137.3165947689
  0
LINE
  8
CURVE
 62
7
  6
CONTINUOUS
 10
174.1695765404
 20
137.3165947689
 11
174.1553647634
 21
137.3062433544
  0
LINE
  8
0
 62
7
  6
CONTINUOUS
 10
174.169584752
 20
137.316603201
 11
174.1553681668
 21
137.3062458333
  0
LINE
  8
CURVE
 62
7
  6
CONTINUOUS
 10
174.1553647634
 20
137.3062433544
 11
174.1369567962
 21
137.2974126289
  0
LINE
  8
0
 62
7
  6
CONTINUOUS
 10
174.1553681668
 20
137.3062458333
 11
174.1369526211
 21
137.2974115344
  0
LINE
  8
CURVE
 62
7
  6
CONTINUOUS
 10
174.1372931798
 20
137.297537453
 11
174.1157034314
 21
137.291841082
  0
LINE
  8
0
 62
7
  6
CONTINUOUS
 10
174.1369526211
 20
137.2974115344
 11
174.1292211245
 21
137.2953847309
  0
LINE
  8
CURVE
 62
7
  6
CONTINUOUS
 10
174.1157034314
 20
137.291841082
 11
174.0965398817
 21
137.2903147741
  0
LINE
  8
CURVE
 62
7
  6
CONTINUOUS
 10
167.6848609488
 20
137.2903147738
 11
174.0965727623
 21
137.2903147738
  0
LINE
  8
DEFAULT_1
 62
2
  6
CENTER
 10
164.6848605642
 20
137.7703147738
 11
185.6099885427
 21
137.7703147738
  0
POLYLINE
  8
CURVE
 62
7
  6
CONTINUOUS
 66
1
 70
0
  0
VERTEX
  8
CURVE
 62
7
  6
CONTINUOUS
 10
174.4989452508
 20
137.7577422917
  0
VERTEX
  8
CURVE
 62
7
  6
CONTINUOUS
 10
174.5034775441
 20
137.7506785242
  0
VERTEX
  8
CURVE
 62
7
  6
CONTINUOUS
 10
174.5078830904
 20
137.7520022519
  0
VERTEX
  8
CURVE
 62
7
  6
CONTINUOUS
 10
174.5121480677
 20
137.7610935099
  0
VERTEX
  8
CURVE
 62
7
  6
CONTINUOUS
 10
174.516402125
 20
137.7781132495
  0
VERTEX
  8
CURVE
 62
7
  6
CONTINUOUS
 10
174.5208145148
 20
137.8046972603
  0
VERTEX
  8
CURVE
 62
7
  6
CONTINUOUS
 10
174.5253695303
 20
137.8425850966
  0
VERTEX
  8
CURVE
 62
7
  6
CONTINUOUS
 10
174.5299774417
 20
137.8931356529
  0
VERTEX
  8
CURVE
 62
7
  6
CONTINUOUS
 10
174.5344574538
 20
137.9561274586
  0
VERTEX
  8
CURVE
 62
7
  6
CONTINUOUS
 10
174.5386459304
 20
138.0300721413
  0
VERTEX
  8
CURVE
 62
7
  6
CONTINUOUS
 10
174.5425695452
 20
138.1160445952
  0
VERTEX
  8
CURVE
 62
7
  6
CONTINUOUS
 10
174.5462251043
 20
138.2153151243
  0
VERTEX
  8
CURVE
 62
7
  6
CONTINUOUS
 10
174.5495756867
 20
138.3287905966
  0
VERTEX
  8
CURVE
 62
7
  6
CONTINUOUS
 10
174.5525643378
 20
138.4566667492
  0
VERTEX
  8
CURVE
 62
7
  6
CONTINUOUS
 10
174.555176484
 20
138.6011042484
  0
VERTEX
  8
CURVE
 62
7
  6
CONTINUOUS
 10
174.5573760562
 20
138.7646817966
  0
VERTEX
  8
CURVE
 62
7
  6
CONTINUOUS
 10
174.5590929255
 20
138.9492642808
  0
VERTEX
  8
CURVE
 62
7
  6
CONTINUOUS
 10
174.5602357193
 20
139.1570696612
  0
VERTEX
  8
CURVE
 62
7
  6
CONTINUOUS
 10
174.5606626575
 20
139.3903147732
  0
SEQEND
  0
LINE
  8
0
 62
7
  6
CONTINUOUS
 10
174.3892121282
 20
146.8957736784
 11
174.3724589819
 21
147.0957737738
  0
LINE
  8
0
 62
7
  6
CONTINUOUS
 10
174.3724589819
 20
144.8457737738
 11
174.3501214535
 21
144.9957737738
  0
LINE
  8
0
 62
7
  6
CONTINUOUS
 10
174.3724589819
 20
147.0957737738
 11
174.3501214535
 21
147.2457737738
  0
LINE
  8
0
 62
7
  6
CONTINUOUS
 10
174.3445370713
 20
144.6957737738
 11
174.3557058356
 21
144.5957737261
  0
LINE
  8
0
 62
7
  6
CONTINUOUS
 10
174.3445370713
 20
146.9457737738
 11
174.3557058356
 21
146.8457738692
  0
LINE
  8
0
 62
7
  6
CONTINUOUS
 10
174.327783925
 20
144.7457737261
 11
174.3445370713
 21
144.6957737738
  0
LINE
  8
0
 62
7
  6
CONTINUOUS
 10
174.3501214535
 20
144.9957737738
 11
174.3333683071
 21
145.0457737261
  0
LINE
  8
0
 62
7
  6
CONTINUOUS
 10
174.327783925
 20
146.9957738692
 11
174.3445370713
 21
146.9457737738
  0
LINE
  8
0
 62
7
  6
CONTINUOUS
 10
174.3501214535
 20
147.2457737738
 11
174.3333683071
 21
147.2957738692
  0
LINE
  8
0
 62
2
  6
CONTINUOUS
 10
178.5848609488
 20
151.3503147738
 11
178.5848609488
 21
149.5903147738
  0
LINE
  8
DEFAULT_1
 62
2
  6
CENTER
 10
178.5848609488
 20
146.0703147738
 11
178.5848609488
 21
145.8703147738
  0
LINE
  8
0
 62
2
  6
CONTINUOUS
 10
178.5848609488
 20
125.9503147738
 11
178.5848609488
 21
124.1903147738
  0
LINE
  8
DEFAULT_1
 62
2
  6
CENTER
 10
178.5848609488
 20
120.6703147738
 11
178.5848609488
 21
120.4703147738
  0
LINE
  8
DEFAULT_1
 62
2
  6
CENTER
 10
178.5848609488
 20
129.4703147738
 11
178.5848609488
 21
129.6703147738
  0
LINE
  8
DEFAULT_1
 62
2
  6
CENTER
 10
178.5848609488
 20
154.8703147738
 11
178.5848609488
 21
155.0703147738
  0
LINE
  8
0
 62
7
  6
CONTINUOUS
 10
174.2496025598
 20
143.1957737738
 11
174.5120685504
 21
143.1957737738
  0
POLYLINE
  8
CURVE
 62
7
  6
CONTINUOUS
 66
1
 70
0
  0
VERTEX
  8
CURVE
 62
7
  6
CONTINUOUS
 10
182.977002641
 20
138.8977104904
  0
VERTEX
  8
CURVE
 62
7
  6
CONTINUOUS
 10
182.9786724703
 20
138.896665839
  0
VERTEX
  8
CURVE
 62
7
  6
CONTINUOUS
 10
182.9801320216
 20
138.897956896
  0
VERTEX
  8
CURVE
 62
7
  6
CONTINUOUS
 10
182.9814118457
 20
138.9016328038
  0
VERTEX
  8
CURVE
 62
7
  6
CONTINUOUS
 10
182.982505343
 20
138.9078036763
  0
VERTEX
  8
CURVE
 62
7
  6
CONTINUOUS
 10
182.9833723567
 20
138.9161952804
  0
VERTEX
  8
CURVE
 62
7
  6
CONTINUOUS
 10
182.9840208108
 20
138.9264994288
  0
VERTEX
  8
CURVE
 62
7
  6
CONTINUOUS
 10
182.9844837722
 20
138.9389244539
  0
VERTEX
  8
CURVE
 62
7
  6
CONTINUOUS
 10
182.9847670012
 20
138.9537631884
  0
VERTEX
  8
CURVE
 62
7
  6
CONTINUOUS
 10
182.9848611048
 20
138.9708050578
  0
SEQEND
  0
LINE
  8
0
 62
7
  6
CONTINUOUS
 10
174.2775244704
 20
143.4957737738
 11
174.5120685504
 21
143.4957737738
  0
LINE
  8
0
 62
7
  6
CONTINUOUS
 10
174.2496025598
 20
144.3957737738
 11
174.2775244704
 21
144.3957737738
  0
LINE
  8
0
 62
7
  6
CONTINUOUS
 10
174.3612902177
 20
144.4457737261
 11
174.3936796352
 21
144.4457737261
  0
POLYLINE
  8
CURVE
 62
7
  6
CONTINUOUS
 66
1
 70
0
  0
VERTEX
  8
CURVE
 62
7
  6
CONTINUOUS
 10
182.60905924
 20
139.3903147732
  0
VERTEX
  8
CURVE
 62
7
  6
CONTINUOUS
 10
182.6094862436
 20
139.1570520059
  0
VERTEX
  8
CURVE
 62
7
  6
CONTINUOUS
 10
182.6106291476
 20
138.9492405489
  0
VERTEX
  8
CURVE
 62
7
  6
CONTINUOUS
 10
182.6123461578
 20
138.7646539048
  0
VERTEX
  8
CURVE
 62
7
  6
CONTINUOUS
 10
182.614545972
 20
138.6010687274
  0
VERTEX
  8
CURVE
 62
7
  6
CONTINUOUS
 10
182.6171586351
 20
138.4566146986
  0
VERTEX
  8
CURVE
 62
7
  6
CONTINUOUS
 10
182.6201481563
 20
138.3287167493
  0
VERTEX
  8
CURVE
 62
7
  6
CONTINUOUS
 10
182.6234999573
 20
138.2152193753
  0
VERTEX
  8
CURVE
 62
7
  6
CONTINUOUS
 10
182.6271571941
 20
138.1159266403
  0
VERTEX
  8
CURVE
 62
7
  6
CONTINUOUS
 10
182.6310830732
 20
138.0299323762
  0
VERTEX
  8
CURVE
 62
7
  6
CONTINUOUS
 10
182.6352743373
 20
137.9559712987
  0
VERTEX
  8
CURVE
 62
7
  6
CONTINUOUS
 10
182.639755933
 20
137.8929928715
  0
VERTEX
  8
CURVE
 62
7
  6
CONTINUOUS
 10
182.6443616757
 20
137.8424960053
  0
VERTEX
  8
CURVE
 62
7
  6
CONTINUOUS
 10
182.6489143028
 20
137.8046480534
  0
VERTEX
  8
CURVE
 62
7
  6
CONTINUOUS
 10
182.6533250725
 20
137.7780869199
  0
VERTEX
  8
CURVE
 62
7
  6
CONTINUOUS
 10
182.6575781148
 20
137.7610804363
  0
VERTEX
  8
CURVE
 62
7
  6
CONTINUOUS
 10
182.6618423541
 20
137.7519979177
  0
VERTEX
  8
CURVE
 62
7
  6
CONTINUOUS
 10
182.6662466532
 20
137.7506799442
  0
VERTEX
  8
CURVE
 62
7
  6
CONTINUOUS
 10
182.6707766467
 20
137.7577422917
  0
SEQEND
  0
LINE
  8
CURVE
 62
7
  6
CONTINUOUS
 10
182.60905924
 20
139.3903147732
 11
182.60905924
 21
150.6203147739
  0
LINE
  8
CURVE
 62
7
  6
CONTINUOUS
 10
182.9848609488
 20
124.9203147738
 11
182.9848609488
 21
150.6203147738
  0
POLYLINE
  8
CURVE
 62
7
  6
CONTINUOUS
 66
1
 70
0
  0
VERTEX
  8
CURVE
 62
7
  6
CONTINUOUS
 10
182.9425427125
 20
138.7815799606
  0
VERTEX
  8
CURVE
 62
7
  6
CONTINUOUS
 10
182.9482152173
 20
138.8194561476
  0
VERTEX
  8
CURVE
 62
7
  6
CONTINUOUS
 10
182.9539572427
 20
138.8514757685
  0
VERTEX
  8
CURVE
 62
7
  6
CONTINUOUS
 10
182.9597248473
 20
138.8762905692
  0
VERTEX
  8
CURVE
 62
7
  6
CONTINUOUS
 10
182.9655218926
 20
138.8928239119
  0
VERTEX
  8
CURVE
 62
7
  6
CONTINUOUS
 10
182.9713278398
 20
138.9000921834
  0
VERTEX
  8
CURVE
 62
7
  6
CONTINUOUS
 10
182.977002641
 20
138.8977104904
  0
SEQEND
  0
LINE
  8
0
 62
7
  6
CONTINUOUS
 10
174.3557058356
 20
144.5957737261
 11
174.3903290066
 21
144.5957737261
  0
LINE
  8
0
 62
7
  6
CONTINUOUS
 10
174.2551869419
 20
144.6457738215
 11
174.2886932426
 21
144.6457738215
  0
LINE
  8
0
 62
7
  6
CONTINUOUS
 10
174.3445370713
 20
144.6957737738
 11
174.3850238447
 21
144.6957737738
  0
LINE
  8
0
 62
7
  6
CONTINUOUS
 10
174.311030763
 20
144.7457737261
 11
174.3808355611
 21
144.7457737261
  0
LINE
  8
0
 62
7
  6
CONTINUOUS
 10
174.2719400882
 20
144.8457737738
 11
174.3724589819
 21
144.8457737738
  0
LINE
  8
0
 62
7
  6
CONTINUOUS
 10
174.2942776167
 20
144.9957737738
 11
174.3501214535
 21
144.9957737738
  0
LINE
  8
0
 62
7
  6
CONTINUOUS
 10
174.3333683071
 20
145.0457737261
 11
174.311030763
 21
145.0457737261
  0
LINE
  8
0
 62
7
  6
CONTINUOUS
 10
174.2496025598
 20
145.4457737738
 11
174.5120685504
 21
145.4457737738
  0
LINE
  8
0
 62
7
  6
CONTINUOUS
 10
174.2775244704
 20
145.7457737738
 11
174.5120685504
 21
145.7457737738
  0
LINE
  8
0
 62
7
  6
CONTINUOUS
 10
174.2496025598
 20
146.6457737738
 11
174.2775244704
 21
146.6457737738
  0
LINE
  8
0
 62
7
  6
CONTINUOUS
 10
174.3612902177
 20
146.6957738692
 11
174.3936796314
 21
146.6957738692
  0
LINE
  8
0
 62
7
  6
CONTINUOUS
 10
174.3557058356
 20
146.8457738692
 11
174.3903290008
 21
146.8457738692
  0
LINE
  8
0
 62
7
  6
CONTINUOUS
 10
174.2551869419
 20
146.8957736784
 11
174.2886932186
 21
146.8957736784
  0
LINE
  8
0
 62
7
  6
CONTINUOUS
 10
174.3445370713
 20
146.9457737738
 11
174.3850238357
 21
146.9457737738
  0
LINE
  8
0
 62
7
  6
CONTINUOUS
 10
174.311030763
 20
146.9957738692
 11
174.3808355431
 21
146.9957738692
  0
LINE
  8
0
 62
7
  6
CONTINUOUS
 10
174.2719400882
 20
147.0957737738
 11
174.3724589819
 21
147.0957737738
  0
LINE
  8
0
 62
7
  6
CONTINUOUS
 10
174.2942776167
 20
147.2457737738
 11
174.3501214535
 21
147.2457737738
  0
LINE
  8
0
 62
7
  6
CONTINUOUS
 10
174.3333683071
 20
147.2957738692
 11
174.311030763
 21
147.2957738692
  0
LINE
  8
0
 62
2
  6
CONTINUOUS
 10
179.4648609488
 20
150.4703147738
 11
177.7048609488
 21
150.4703147738
  0
LINE
  8
DEFAULT_1
 62
2
  6
CENTER
 10
174.1848609488
 20
150.4703147738
 11
173.9848609488
 21
150.4703147738
  0
LINE
  8
DEFAULT_1
 62
2
  6
CENTER
 10
182.9848609488
 20
150.4703147738
 11
183.1848609488
 21
150.4703147738
  0
POLYLINE
  8
CURVE
 62
7
  6
CONTINUOUS
 66
1
 70
0
  0
VERTEX
  8
CURVE
 62
7
  6
CONTINUOUS
 10
182.6707766467
 20
152.2528872559
  0
VERTEX
  8
CURVE
 62
7
  6
CONTINUOUS
 10
182.6662443534
 20
152.2599510235
  0
VERTEX
  8
CURVE
 62
7
  6
CONTINUOUS
 10
182.6618388071
 20
152.2586272956
  0
VERTEX
  8
CURVE
 62
7
  6
CONTINUOUS
 10
182.6575738298
 20
152.2495360375
  0
VERTEX
  8
CURVE
 62
7
  6
CONTINUOUS
 10
182.6533197725
 20
152.2325162979
  0
VERTEX
  8
CURVE
 62
7
  6
CONTINUOUS
 10
182.6489073828
 20
152.205932287
  0
VERTEX
  8
CURVE
 62
7
  6
CONTINUOUS
 10
182.6443523672
 20
152.1680444506
  0
VERTEX
  8
CURVE
 62
7
  6
CONTINUOUS
 10
182.6397444558
 20
152.1174938936
  0
VERTEX
  8
CURVE
 62
7
  6
CONTINUOUS
 10
182.6352644436
 20
152.0545020872
  0
VERTEX
  8
CURVE
 62
7
  6
CONTINUOUS
 10
182.6310759671
 20
151.9805574043
  0
VERTEX
  8
CURVE
 62
7
  6
CONTINUOUS
 10
182.6271523523
 20
151.8945849509
  0
VERTEX
  8
CURVE
 62
7
  6
CONTINUOUS
 10
182.6234967932
 20
151.7953144224
  0
VERTEX
  8
CURVE
 62
7
  6
CONTINUOUS
 10
182.6201462108
 20
151.6818389505
  0
VERTEX
  8
CURVE
 62
7
  6
CONTINUOUS
 10
182.6171575598
 20
151.5539627977
  0
VERTEX
  8
CURVE
 62
7
  6
CONTINUOUS
 10
182.6145454136
 20
151.409525299
  0
VERTEX
  8
CURVE
 62
7
  6
CONTINUOUS
 10
182.6123458413
 20
151.2459477511
  0
VERTEX
  8
CURVE
 62
7
  6
CONTINUOUS
 10
182.6106289721
 20
151.0613652668
  0
VERTEX
  8
CURVE
 62
7
  6
CONTINUOUS
 10
182.6094861783
 20
150.8535598863
  0
VERTEX
  8
CURVE
 62
7
  6
CONTINUOUS
 10
182.60905924
 20
150.6203147739
  0
SEQEND
  0
ARC
  8
CURVE
 62
7
  6
CONTINUOUS
 10
46.4527440867
 20
219.6553212402
 40
0.85
 50
119.8056033567
 51
122.337769176
  0
ARC
  8
CURVE
 62
7
  6
CONTINUOUS
 10
34.7877440867
 20
221.1304398795
 40
0.85
 50
180.0
 51
213.9093356964
  0
ARC
  8
CURVE
 62
7
  6
CONTINUOUS
 10
45.6077440867
 20
221.1304398795
 40
0.85
 50
299.8056033567
 51
360.0
  0
ARC
  8
CURVE
 62
7
  6
CONTINUOUS
 10
41.3077440867
 20
221.1304398795
 40
0.85
 50
180.0
 51
270.0
  0
ARC
  8
CURVE
 62
7
  6
CONTINUOUS
 10
45.6771251279
 20
220.8804398795
 40
0.6
 50
270.0000276762
 51
302.3377925599
  0
ARC
  8
CURVE
 62
7
  6
CONTINUOUS
 10
45.0027440867
 20
220.8804398795
 40
0.6
 50
270.0
 51
360.0
  0
ARC
  8
CURVE
 62
7
  6
CONTINUOUS
 10
57.4577440867
 20
213.7804398795
 40
1.0
 50
270.0
 51
360.0
  0
ARC
  8
CURVE
 62
7
  6
CONTINUOUS
 10
54.8577440867
 20
213.7804398795
 40
1.0
 50
180.0
 51
270.0
  0
ARC
  8
CURVE
 62
7
  6
CONTINUOUS
 10
66.7077440867
 20
221.1304398795
 40
0.85
 50
180.0
 51
270.0
  0
ARC
  8
CURVE
 62
7
  6
CONTINUOUS
 10
54.0077440867
 20
221.1304398795
 40
0.85
 50
180.0
 51
246.9643158941
  0
ARC
  8
CURVE
 62
7
  6
CONTINUOUS
 10
58.3077440867
 20
221.1304398795
 40
0.85
 50
293.0356841059
 51
360.0
  0
ARC
  8
CURVE
 62
7
  6
CONTINUOUS
 10
71.0077440867
 20
221.1304398795
 40
0.85
 50
270.0
 51
360.0
  0
ARC
  8
CURVE
 62
7
  6
CONTINUOUS
 10
58.7577440867
 20
220.0721393551
 40
0.3
 50
113.0356841059
 51
180.0
  0
ARC
  8
CURVE
 62
7
  6
CONTINUOUS
 10
53.5577440867
 20
220.0721393551
 40
0.3
 50
7.089540945
 51
66.9643158941
  0
ARC
  8
CURVE
 62
7
  6
CONTINUOUS
 10
38.0047260867
 20
222.4980462058
 40
2.5
 50
11.1254059262
 51
45.4760554887
  0
ARC
  8
CURVE
 62
7
  6
CONTINUOUS
 10
38.0047260867
 20
226.8628335532
 40
2.5
 50
314.5239445113
 51
348.8745940738
  0
ARC
  8
CURVE
 62
7
  6
CONTINUOUS
 10
54.0077440867
 20
228.2304398795
 40
0.85
 50
90.0
 51
180.0
  0
ARC
  8
CURVE
 62
7
  6
CONTINUOUS
 10
46.4527440867
 20
229.7055585188
 40
0.85
 50
237.662230824
 51
240.1943966433
  0
ARC
  8
CURVE
 62
7
  6
CONTINUOUS
 10
34.7877440867
 20
228.2304398795
 40
0.85
 50
146.0906643036
 51
180.0
  0
ARC
  8
CURVE
 62
7
  6
CONTINUOUS
 10
45.6077440867
 20
228.2304398795
 40
0.85
 50
0.0
 51
60.1943966433
  0
ARC
  8
CURVE
 62
7
  6
CONTINUOUS
 10
54.1567313394
 20
228.2304398795
 40
0.85
 50
60.1666666667
 51
88.558489658
  0
ARC
  8
CURVE
 62
7
  6
CONTINUOUS
 10
41.3077440867
 20
228.2304398795
 40
0.85
 50
90.0
 51
180.0
  0
ARC
  8
CURVE
 62
7
  6
CONTINUOUS
 10
45.0027440867
 20
228.4804398795
 40
0.6
 50
0.0
 51
90.0
  0
ARC
  8
CURVE
 62
7
  6
CONTINUOUS
 10
45.6771254178
 20
228.4804398795
 40
0.6
 50
57.662230824
 51
90.0
  0
ARC
  8
CURVE
 62
7
  6
CONTINUOUS
 10
74.3107620867
 20
222.4980462058
 40
2.5
 50
134.5239445113
 51
168.8745940738
  0
ARC
  8
CURVE
 62
7
  6
CONTINUOUS
 10
74.3107620867
 20
226.8628335532
 40
2.5
 50
191.1254059262
 51
225.4760554887
  0
ARC
  8
CURVE
 62
7
  6
CONTINUOUS
 10
66.7077440867
 20
228.2304398795
 40
0.85
 50
90.0
 51
180.0
  0
ARC
  8
CURVE
 62
7
  6
CONTINUOUS
 10
58.3077440867
 20
228.2304398795
 40
0.85
 50
0.0
 51
90.0
  0
ARC
  8
CURVE
 62
7
  6
CONTINUOUS
 10
71.0077440867
 20
228.2304398795
 40
0.85
 50
0.0
 51
90.0
  0
ARC
  8
0
 62
7
  6
CONTINUOUS
 10
95.5577440867
 20
213.7804398795
 40
1.0
 50
270.0
 51
360.0
  0
ARC
  8
0
 62
7
  6
CONTINUOUS
 10
92.9577440867
 20
213.7804398795
 40
1.0
 50
180.0
 51
270.0
  0
ARC
  8
0
 62
7
  6
CONTINUOUS
 10
104.8077440867
 20
221.1304398795
 40
0.85
 50
180.0
 51
240.1943966433
  0
ARC
  8
0
 62
7
  6
CONTINUOUS
 10
92.1077440867
 20
221.1304398795
 40
0.85
 50
180.0
 51
246.9643158941
  0
ARC
  8
0
 62
7
  6
CONTINUOUS
 10
79.4077440867
 20
221.1304398795
 40
0.85
 50
180.0
 51
270.0
  0
ARC
  8
0
 62
7
  6
CONTINUOUS
 10
109.1077440867
 20
221.1304398795
 40
0.85
 50
270.0
 51
360.0
  0
ARC
  8
0
 62
7
  6
CONTINUOUS
 10
83.7077440867
 20
221.1304398795
 40
0.85
 50
270.0
 51
360.0
  0
ARC
  8
0
 62
7
  6
CONTINUOUS
 10
96.4077440867
 20
221.1304398795
 40
0.85
 50
293.0356841059
 51
360.0
  0
ARC
  8
0
 62
7
  6
CONTINUOUS
 10
115.6277440867
 20
221.1304398795
 40
0.85
 50
326.0906643036
 51
360.0
  0
ARC
  8
0
 62
7
  6
CONTINUOUS
 10
103.9627440867
 20
219.6553212402
 40
0.85
 50
57.662230824
 51
60.1943966433
  0
ARC
  8
0
 62
7
  6
CONTINUOUS
 10
105.4127440867
 20
220.8804398795
 40
0.6
 50
180.0
 51
270.0
  0
ARC
  8
0
 62
7
  6
CONTINUOUS
 10
104.7383627557
 20
220.8804398795
 40
0.6
 50
237.6622186883
 51
269.9999738891
  0
ARC
  8
0
 62
7
  6
CONTINUOUS
 10
96.8577440867
 20
220.0721393551
 40
0.3
 50
113.0356841059
 51
180.0
  0
ARC
  8
0
 62
7
  6
CONTINUOUS
 10
91.6577440867
 20
220.0721393551
 40
0.3
 50
0.0
 51
66.9643158941
  0
ARC
  8
0
 62
7
  6
CONTINUOUS
 10
76.1047260867
 20
222.4980462058
 40
2.5
 50
11.1254059262
 51
45.4760554887
  0
ARC
  8
0
 62
7
  6
CONTINUOUS
 10
76.1047260867
 20
226.8628335532
 40
2.5
 50
314.5239445113
 51
348.8745940738
  0
ARC
  8
0
 62
7
  6
CONTINUOUS
 10
79.4077440867
 20
228.2304398795
 40
0.85
 50
90.0
 51
180.0
  0
ARC
  8
0
 62
7
  6
CONTINUOUS
 10
92.1077440867
 20
228.2304398795
 40
0.85
 50
90.0
 51
180.0
  0
ARC
  8
0
 62
7
  6
CONTINUOUS
 10
83.7077440867
 20
228.2304398795
 40
0.85
 50
0.0
 51
90.0
  0
ARC
  8
0
 62
7
  6
CONTINUOUS
 10
112.4107620867
 20
222.4980462058
 40
2.5
 50
134.5239445113
 51
168.8745940738
  0
ARC
  8
0
 62
7
  6
CONTINUOUS
 10
112.4107620867
 20
226.8628335532
 40
2.5
 50
191.1254059262
 51
225.4760554887
  0
ARC
  8
0
 62
7
  6
CONTINUOUS
 10
104.8077440867
 20
228.2304398795
 40
0.85
 50
119.8056033567
 51
180.0
  0
ARC
  8
0
 62
7
  6
CONTINUOUS
 10
109.1077440867
 20
228.2304398795
 40
0.85
 50
0.0
 51
90.0
  0
ARC
  8
0
 62
7
  6
CONTINUOUS
 10
96.4077440867
 20
228.2304398795
 40
0.85
 50
0.0
 51
90.0
  0
ARC
  8
0
 62
7
  6
CONTINUOUS
 10
115.6277440867
 20
228.2304398795
 40
0.85
 50
0.0
 51
33.9093356964
  0
ARC
  8
0
 62
7
  6
CONTINUOUS
 10
103.9627440867
 20
229.7055585188
 40
0.85
 50
299.8056033567
 51
302.337769176
  0
ARC
  8
0
 62
7
  6
CONTINUOUS
 10
104.7383627557
 20
228.4804398795
 40
0.6
 50
90.0
 51
122.337769176
  0
ARC
  8
0
 62
7
  6
CONTINUOUS
 10
105.4127440867
 20
228.4804398795
 40
0.6
 50
90.0
 51
180.0
  0
ARC
  8
CURVE
 62
7
  6
CONTINUOUS
 10
38.0047260867
 20
132.1527084475
 40
2.5
 50
314.5239445113
 51
348.8745940738
  0
ARC
  8
CURVE
 62
7
  6
CONTINUOUS
 10
38.0047260867
 20
127.7879211001
 40
2.5
 50
11.1254059262
 51
45.4760554887
  0
ARC
  8
CURVE
 62
7
  6
CONTINUOUS
 10
74.3107620867
 20
132.1527084475
 40
2.5
 50
191.1254059262
 51
225.4760554887
  0
ARC
  8
CURVE
 62
7
  6
CONTINUOUS
 10
74.3107620867
 20
127.7879211001
 40
2.5
 50
134.5239445113
 51
168.8745940738
  0
ARC
  8
CURVE
 62
7
  6
CONTINUOUS
 10
73.8577440867
 20
135.1403147738
 40
2.0
 50
141.0
 51
180.0
  0
ARC
  8
CURVE
 62
7
  6
CONTINUOUS
 10
63.8577440867
 20
135.1403147738
 40
2.0
 50
0.0
 51
39.0
  0
ARC
  8
CURVE
 62
7
  6
CONTINUOUS
 10
48.4577440867
 20
135.1403147738
 40
2.0
 50
141.0
 51
180.0
  0
ARC
  8
CURVE
 62
7
  6
CONTINUOUS
 10
51.1577440867
 20
135.1403147738
 40
2.0
 50
0.0
 51
39.0
  0
ARC
  8
CURVE
 62
7
  6
CONTINUOUS
 10
61.1577440867
 20
135.1403147738
 40
2.0
 50
141.0
 51
180.0
  0
ARC
  8
CURVE
 62
7
  6
CONTINUOUS
 10
46.4527440867
 20
129.4951961345
 40
0.85
 50
119.8056033567
 51
180.0
  0
ARC
  8
CURVE
 62
7
  6
CONTINUOUS
 10
45.6077440867
 20
130.9703147738
 40
0.85
 50
299.8056033567
 51
360.0
  0
ARC
  8
CURVE
 62
7
  6
CONTINUOUS
 10
34.7877440867
 20
135.8403147738
 40
0.85
 50
180.0
 51
270.0
  0
ARC
  8
CURVE
 62
7
  6
CONTINUOUS
 10
71.0077440867
 20
121.3703147738
 40
0.85
 50
270.0
 51
360.0
  0
ARC
  8
CURVE
 62
7
  6
CONTINUOUS
 10
41.3077440867
 20
121.3703147738
 40
0.85
 50
179.9999999986
 51
270.0
  0
ARC
  8
CURVE
 62
7
  6
CONTINUOUS
 10
58.3077440867
 20
121.3703147738
 40
0.85
 50
270.0
 51
360.0
  0
ARC
  8
CURVE
 62
7
  6
CONTINUOUS
 10
66.7077440867
 20
121.3703147738
 40
0.85
 50
179.9999999739
 51
270.0
  0
ARC
  8
CURVE
 62
7
  6
CONTINUOUS
 10
54.0077440867
 20
121.3703147738
 40
0.85
 50
179.9999999739
 51
270.0
  0
ARC
  8
CURVE
 62
7
  6
CONTINUOUS
 10
45.0027440867
 20
121.1203147738
 40
0.6
 50
270.0
 51
360.0
  0
ARC
  8
CURVE
 62
7
  6
CONTINUOUS
 10
72.1577440867
 20
134.6903147738
 40
0.3
 50
90.0
 51
179.9999999281
  0
ARC
  8
CURVE
 62
7
  6
CONTINUOUS
 10
59.4577440867
 20
134.6903147738
 40
0.3
 50
90.0
 51
179.9999999281
  0
ARC
  8
CURVE
 62
7
  6
CONTINUOUS
 10
65.5577440867
 20
134.6903147738
 40
0.3
 50
0.0000000839
 51
90.0
  0
ARC
  8
CURVE
 62
7
  6
CONTINUOUS
 10
46.7577440867
 20
134.6903147738
 40
0.3
 50
90.0
 51
179.9999999281
  0
ARC
  8
CURVE
 62
7
  6
CONTINUOUS
 10
52.8577440867
 20
134.6903147738
 40
0.3
 50
0.0000000839
 51
90.0
  0
ARC
  8
CURVE
 62
7
  6
CONTINUOUS
 10
42.5607620867
 20
147.7527086393
 40
2.5
 50
191.1254059262
 51
225.4760617554
  0
ARC
  8
CURVE
 62
7
  6
CONTINUOUS
 10
42.5607620867
 20
143.3879209083
 40
2.5
 50
134.5239382446
 51
168.8745940738
  0
ARC
  8
CURVE
 62
7
  6
CONTINUOUS
 10
69.7547260867
 20
147.7527086393
 40
2.5
 50
314.5239382446
 51
348.8745940738
  0
ARC
  8
CURVE
 62
7
  6
CONTINUOUS
 10
69.7547260867
 20
143.3879209083
 40
2.5
 50
11.1254059262
 51
45.4760617554
  0
ARC
  8
CURVE
 62
7
  6
CONTINUOUS
 10
67.5077440867
 20
140.4003147738
 40
2.0
 50
180.0
 51
219.0
  0
ARC
  8
CURVE
 62
7
  6
CONTINUOUS
 10
70.2077440867
 20
140.4003147738
 40
2.0
 50
321.0
 51
360.0
  0
ARC
  8
CURVE
 62
7
  6
CONTINUOUS
 10
54.8077440867
 20
140.4003147738
 40
2.0
 50
180.0
 51
219.0
  0
ARC
  8
CURVE
 62
7
  6
CONTINUOUS
 10
57.5077440867
 20
140.4003147738
 40
2.0
 50
321.0
 51
360.0
  0
ARC
  8
CURVE
 62
7
  6
CONTINUOUS
 10
42.1077440867
 20
140.4003147738
 40
2.0
 50
180.0
 51
219.0
  0
ARC
  8
CURVE
 62
7
  6
CONTINUOUS
 10
44.8077440867
 20
140.4003147738
 40
2.0
 50
321.0
 51
360.0
  0
ARC
  8
CURVE
 62
7
  6
CONTINUOUS
 10
46.8077440867
 20
146.0425579602
 40
0.85
 50
300.0
 51
360.0
  0
ARC
  8
CURVE
 62
7
  6
CONTINUOUS
 10
47.6577440867
 20
144.5703147738
 40
0.85
 50
120.0
 51
180.0
  0
ARC
  8
CURVE
 62
7
  6
CONTINUOUS
 10
34.7877440867
 20
154.1703147738
 40
0.85
 50
90.0
 51
180.000000002
  0
ARC
  8
CURVE
 62
7
  6
CONTINUOUS
 10
64.6577440867
 20
154.1703147738
 40
0.85
 50
0.0
 51
90.0
  0
ARC
  8
CURVE
 62
7
  6
CONTINUOUS
 10
73.0577440867
 20
154.1703147738
 40
0.85
 50
90.0
 51
180.0000000261
  0
ARC
  8
CURVE
 62
7
  6
CONTINUOUS
 10
51.9577440867
 20
154.1703147738
 40
0.85
 50
0.0
 51
90.0
  0
ARC
  8
CURVE
 62
7
  6
CONTINUOUS
 10
60.3577440867
 20
154.1703147738
 40
0.85
 50
90.0
 51
180.0000000261
  0
ARC
  8
CURVE
 62
7
  6
CONTINUOUS
 10
39.2577440867
 20
154.1703147738
 40
0.85
 50
0.0
 51
90.0
  0
ARC
  8
CURVE
 62
7
  6
CONTINUOUS
 10
48.2577440867
 20
154.4203147738
 40
0.6
 50
90.0
 51
180.0000000436
  0
ARC
  8
CURVE
 62
7
  6
CONTINUOUS
 10
71.9077440867
 20
140.8503147738
 40
0.3
 50
270.0
 51
359.9999999281
  0
ARC
  8
CURVE
 62
7
  6
CONTINUOUS
 10
65.8077440867
 20
140.8503147738
 40
0.3
 50
180.0000000839
 51
270.0
  0
ARC
  8
CURVE
 62
7
  6
CONTINUOUS
 10
59.2077440867
 20
140.8503147738
 40
0.3
 50
270.0
 51
359.9999999281
  0
ARC
  8
CURVE
 62
7
  6
CONTINUOUS
 10
53.1077440867
 20
140.8503147738
 40
0.3
 50
180.0000000839
 51
270.0
  0
ARC
  8
CURVE
 62
7
  6
CONTINUOUS
 10
46.5077440867
 20
140.8503147738
 40
0.3
 50
270.0
 51
359.9999999281
  0
ARC
  8
CURVE
 62
7
  6
CONTINUOUS
 10
40.4077440867
 20
140.8503147738
 40
0.3
 50
180.0000000839
 51
270.0
  0
ARC
  8
0
 62
7
  6
CONTINUOUS
 10
112.4107620867
 20
132.1527084475
 40
2.5
 50
191.1254059262
 51
225.4760554887
  0
ARC
  8
0
 62
7
  6
CONTINUOUS
 10
112.4107620867
 20
127.7879211001
 40
2.5
 50
134.5239445113
 51
168.8745940738
  0
ARC
  8
0
 62
7
  6
CONTINUOUS
 10
76.1047260867
 20
132.1527084475
 40
2.5
 50
314.5239445113
 51
348.8745940738
  0
ARC
  8
0
 62
7
  6
CONTINUOUS
 10
76.1047260867
 20
127.7879211001
 40
2.5
 50
11.1254059262
 51
45.4760554887
  0
ARC
  8
0
 62
7
  6
CONTINUOUS
 10
101.9577440867
 20
135.1403147738
 40
2.0
 50
0.0
 51
39.0
  0
ARC
  8
0
 62
7
  6
CONTINUOUS
 10
99.2577440867
 20
135.1403147738
 40
2.0
 50
141.0
 51
180.0
  0
ARC
  8
0
 62
7
  6
CONTINUOUS
 10
89.2577440867
 20
135.1403147738
 40
2.0
 50
0.0
 51
39.0
  0
ARC
  8
0
 62
7
  6
CONTINUOUS
 10
86.5577440867
 20
135.1403147738
 40
2.0
 50
141.0
 51
180.0
  0
ARC
  8
0
 62
7
  6
CONTINUOUS
 10
76.5577440867
 20
135.1403147738
 40
2.0
 50
0.0
 51
39.0
  0
ARC
  8
0
 62
7
  6
CONTINUOUS
 10
103.9627440867
 20
129.4951961345
 40
0.85
 50
0.0
 51
60.1943966433
  0
ARC
  8
0
 62
7
  6
CONTINUOUS
 10
104.8077440867
 20
130.9703147738
 40
0.85
 50
180.0
 51
240.1943966433
  0
ARC
  8
0
 62
7
  6
CONTINUOUS
 10
115.6277440867
 20
135.8403147738
 40
0.85
 50
270.0
 51
360.0
  0
ARC
  8
0
 62
7
  6
CONTINUOUS
 10
79.4077440867
 20
121.3703147738
 40
0.85
 50
179.9999999739
 51
270.0
  0
ARC
  8
0
 62
7
  6
CONTINUOUS
 10
109.1077440867
 20
121.3703147738
 40
0.85
 50
270.0
 51
360.0
  0
ARC
  8
0
 62
7
  6
CONTINUOUS
 10
92.1077440867
 20
121.3703147738
 40
0.85
 50
179.9999999739
 51
270.0
  0
ARC
  8
0
 62
7
  6
CONTINUOUS
 10
83.7077440867
 20
121.3703147738
 40
0.85
 50
270.0
 51
360.0
  0
ARC
  8
0
 62
7
  6
CONTINUOUS
 10
96.4077440867
 20
121.3703147738
 40
0.85
 50
270.0
 51
360.0
  0
ARC
  8
0
 62
7
  6
CONTINUOUS
 10
105.4127440867
 20
121.1203147738
 40
0.6
 50
179.9999999564
 51
270.0
  0
ARC
  8
0
 62
7
  6
CONTINUOUS
 10
78.2577440867
 20
134.6903147738
 40
0.3
 50
0.0000000719
 51
90.0
  0
ARC
  8
0
 62
7
  6
CONTINUOUS
 10
90.9577440867
 20
134.6903147738
 40
0.3
 50
0.0000000719
 51
90.0
  0
ARC
  8
0
 62
7
  6
CONTINUOUS
 10
84.8577440867
 20
134.6903147738
 40
0.3
 50
90.0
 51
179.9999999161
  0
ARC
  8
0
 62
7
  6
CONTINUOUS
 10
103.6577440867
 20
134.6903147738
 40
0.3
 50
0.0000000719
 51
90.0
  0
ARC
  8
0
 62
7
  6
CONTINUOUS
 10
97.5577440867
 20
134.6903147738
 40
0.3
 50
90.0
 51
179.9999999161
  0
ARC
  8
0
 62
7
  6
CONTINUOUS
 10
107.8547260867
 20
147.7527086393
 40
2.5
 50
314.5239382446
 51
348.8745940738
  0
ARC
  8
0
 62
7
  6
CONTINUOUS
 10
107.8547260867
 20
143.3879209083
 40
2.5
 50
11.1254059262
 51
45.4760617554
  0
ARC
  8
0
 62
7
  6
CONTINUOUS
 10
80.6607620867
 20
147.7527086393
 40
2.5
 50
191.1254059262
 51
225.4760617554
  0
ARC
  8
0
 62
7
  6
CONTINUOUS
 10
80.6607620867
 20
143.3879209083
 40
2.5
 50
134.5239382446
 51
168.8745940738
  0
ARC
  8
0
 62
7
  6
CONTINUOUS
 10
105.6077440867
 20
140.4003147738
 40
2.0
 50
180.0
 51
219.0
  0
ARC
  8
0
 62
7
  6
CONTINUOUS
 10
108.3077440867
 20
140.4003147738
 40
2.0
 50
321.0
 51
360.0
  0
ARC
  8
0
 62
7
  6
CONTINUOUS
 10
92.9077440867
 20
140.4003147738
 40
2.0
 50
180.0
 51
219.0
  0
ARC
  8
0
 62
7
  6
CONTINUOUS
 10
95.6077440867
 20
140.4003147738
 40
2.0
 50
321.0
 51
360.0
  0
ARC
  8
0
 62
7
  6
CONTINUOUS
 10
80.2077440867
 20
140.4003147738
 40
2.0
 50
180.0
 51
219.0
  0
ARC
  8
0
 62
7
  6
CONTINUOUS
 10
82.9077440867
 20
140.4003147738
 40
2.0
 50
321.0
 51
360.0
  0
ARC
  8
0
 62
7
  6
CONTINUOUS
 10
103.6077440867
 20
146.0425579602
 40
0.85
 50
180.0
 51
240.0
  0
ARC
  8
0
 62
7
  6
CONTINUOUS
 10
102.7577440867
 20
144.5703147738
 40
0.85
 50
0.0
 51
60.0
  0
ARC
  8
0
 62
7
  6
CONTINUOUS
 10
115.6277440867
 20
154.1703147738
 40
0.85
 50
0.0
 51
90.0
  0
ARC
  8
0
 62
7
  6
CONTINUOUS
 10
85.7577440867
 20
154.1703147738
 40
0.85
 50
90.0
 51
180.0000000261
  0
ARC
  8
0
 62
7
  6
CONTINUOUS
 10
77.3577440867
 20
154.1703147738
 40
0.85
 50
0.0
 51
90.0
  0
ARC
  8
0
 62
7
  6
CONTINUOUS
 10
98.4577440867
 20
154.1703147738
 40
0.85
 50
90.0
 51
180.0000000261
  0
ARC
  8
0
 62
7
  6
CONTINUOUS
 10
90.0577440867
 20
154.1703147738
 40
0.85
 50
0.0
 51
90.0
  0
ARC
  8
0
 62
7
  6
CONTINUOUS
 10
111.1577440867
 20
154.1703147738
 40
0.85
 50
90.0
 51
180.0000000261
  0
ARC
  8
0
 62
7
  6
CONTINUOUS
 10
102.1577440867
 20
154.4203147738
 40
0.6
 50
0.0
 51
90.0
  0
ARC
  8
0
 62
7
  6
CONTINUOUS
 10
78.5077440867
 20
140.8503147738
 40
0.3
 50
180.0000000719
 51
270.0
  0
ARC
  8
0
 62
7
  6
CONTINUOUS
 10
84.6077440867
 20
140.8503147738
 40
0.3
 50
270.0
 51
359.9999999161
  0
ARC
  8
0
 62
7
  6
CONTINUOUS
 10
91.2077440867
 20
140.8503147738
 40
0.3
 50
180.0000000719
 51
270.0
  0
ARC
  8
0
 62
7
  6
CONTINUOUS
 10
97.3077440867
 20
140.8503147738
 40
0.3
 50
270.0
 51
359.9999999161
  0
ARC
  8
0
 62
7
  6
CONTINUOUS
 10
103.9077440867
 20
140.8503147738
 40
0.3
 50
180.0000000719
 51
270.0
  0
ARC
  8
0
 62
7
  6
CONTINUOUS
 10
110.0077440867
 20
140.8503147738
 40
0.3
 50
270.0
 51
359.9999999161
  0
ARC
  8
0
 62
7
  6
CONTINUOUS
 10
167.6848609488
 20
123.2903147738
 40
1.0
 50
180.0
 51
186.0
  0
ARC
  8
CURVE
 62
7
  6
CONTINUOUS
 10
167.6848609488
 20
123.2903147738
 40
1.0
 50
180.0
 51
270.0
  0
ARC
  8
0
 62
7
  6
CONTINUOUS
 10
167.6848609488
 20
136.2903147738
 40
1.0
 50
90.0
 51
180.0
  0
ARC
  8
CURVE
 62
7
  6
CONTINUOUS
 10
167.6848609488
 20
136.2903147738
 40
1.0
 50
90.0
 51
180.0
  0
ARC
  8
0
 62
7
  6
CONTINUOUS
 10
174.5869602515
 20
121.2902837045
 40
1.0000310693
 50
53.4514649344
 51
90.0
  0
ARC
  8
CURVE
 62
7
  6
CONTINUOUS
 10
174.5869740069
 20
121.2903147738
 40
1.0
 50
42.2388095314
 51
90.0
  0
ARC
  8
0
 62
7
  6
CONTINUOUS
 10
178.5848609488
 20
124.9203147738
 40
4.4
 50
349.2482233585
 51
351.8071396958
  0
ARC
  8
0
 62
7
  6
CONTINUOUS
 10
178.5848609488
 20
124.9203147738
 40
4.4
 50
336.5934893621
 51
336.6018120678
  0
ARC
  8
0
 62
7
  6
CONTINUOUS
 10
178.5848609488
 20
124.9203147738
 40
4.4
 50
347.3593321279
 51
347.4328501514
  0
ARC
  8
0
 62
7
  6
CONTINUOUS
 10
178.5848609488
 20
124.9203147738
 40
4.4
 50
351.8889263534
 51
357.9181099983
  0
ARC
  8
CURVE
 62
7
  6
CONTINUOUS
 10
178.5848609488
 20
124.9203147738
 40
4.4
 50
180.0
 51
360.0
  0
CIRCLE
  8
CURVE
 62
7
  6
CONTINUOUS
 10
178.5848609488
 20
125.0703147738
 40
2.6
  0
CIRCLE
  8
CURVE
 62
7
  6
CONTINUOUS
 10
178.5848609488
 20
129.9703147738
 40
1.700001
  0
CIRCLE
  8
CURVE
 62
7
  6
CONTINUOUS
 10
178.5848609488
 20
129.9703147738
 40
0.4
  0
ARC
  8
CURVE
 62
7
  6
CONTINUOUS
 10
178.5848609488
 20
150.6203147738
 40
4.4
 50
0.0
 51
180.0
  0
ARC
  8
0
 62
7
  6
CONTINUOUS
 10
178.5848609488
 20
150.6203147738
 40
4.4
 50
22.961202555
 51
158.2203236839
  0
ARC
  8
CURVE
 62
7
  6
CONTINUOUS
 10
178.5848609488
 20
139.3903147738
 40
4.4
 50
187.9517324665
 51
352.0482675335
  0
ARC
  8
CURVE
 62
7
  6
CONTINUOUS
 10
178.5848609488
 20
136.1503147738
 40
4.4
 50
0.0
 51
21.4748119792
  0
CIRCLE
  8
CURVE
 62
7
  6
CONTINUOUS
 10
178.5848609488
 20
150.4703147738
 40
2.6
  0
ENDSEC
  0
EOF
