  0
SECTION
  2
HEADER
  9
$EXTMAX
 10
210.0
 20
297.0
 30
0.0
  9
$EXTMIN
 10
0.0
 20
0.0
 30
0.0
  9
$LIMMIN
 10
0.0
 20
0.0
  9
$LIMMAX
 10
210.0
 20
297.0
  9
$VIEWCTR
 10
105.0
 20
148.5
  9
$VIEWSIZE
 40
297.0
  9
$CLAYER
  8
0
  9
$LTSCALE
 40
19.36
  9
$CELTYPE
  6
BYLAYER
  9
$DIMSCALE
 40
1.0
  9
$DIMASZ
 40
3.5
  9
$DIMEXO
 40
2.2
  9
$DIMDLI
 40
13.376
  9
$DIMEXE
 40
6.336
  9
$DIMCEN
 40
3.168
  9
$DIMLFAC
 40
1.0
  9
$DIMBLK
  1
_FILLED
  9
$DIMTXT
 40
3.5
  9
$PDMODE
 70
3
  9
$PDSIZE
 40
0.3125
  9
$TILEMODE
 70
1
  0
ENDSEC
  0
SECTION
  2
TABLES
  0
TABLE
  2
LTYPE
 70
6
  0
LTYPE
  2
BYBLOCK
 70
0
  3

 72
65
 73
0
 40
0.0
  0
LTYPE
  2
BYLAYER
 70
0
  3

 72
65
 73
0
 40
0.0
  0
LTYPE
  2
CONTINUOUS
 70
64
  3
Solid line
 72
65
 73
0
 40
0.0
  0
LTYPE
  2
CENTER
 70
64
  3
____ _ ____ _ ____ _ ____ _ ____ _ ____ _ ____
 72
65
 73
4
 40
0.6
 49
0.375
 49
-0.075
 49
0.075
 49
-0.075
  0
LTYPE
  2
HIDDEN
 70
64
  3
- - - - - - - - - - - - - - - - - - - -
 72
65
 73
2
 40
0.2
 49
0.1
 49
-0.1
  0
LTYPE
  2
PHANTOM
 70
64
  3
_____ _ _ _____ _ _ _____ _ _ _____
 72
65
 73
6
 40
0.8
 49
0.45
 49
-0.05
 49
0.1
 49
-0.05
 49
0.1
 49
-0.05
  0
LTYPE
  2
DOT
 70
64
  3
. . . . . . . . . . . . . . . . . . . .
 72
65
 73
2
 40
0.2
 49
0.1
 49
-0.1
  0
LTYPE
  2
DASHED
 70
64
  3
- - - - - - - - - - - - - - - - - - - -
 72
65
 73
2
 40
0.2
 49
0.1
 49
-0.1
  0
ENDTAB
  0
TABLE
  2
LAYER
 70
36
  0
LAYER
  2
0
 70
0
 62
7
  6
CONTINUOUS
  0
LAYER
  2
DEFAULT_1
 70
0
 62
7
  6
CENTER
  0
LAYER
  2
DEFAULT_2
 70
0
 62
8
  6
HIDDEN
  0
LAYER
  2
DEFAULT_3
 70
0
 62
7
  6
PHANTOM
  0
LAYER
  2
1_AXIS
 70
0
 62
7
  6
CONTINUOUS
  0
LAYER
  2
1_DATUM_PLANES
 70
0
 62
7
  6
CONTINUOUS
  0
LAYER
  2
2_FEATURE
 70
0
 62
7
  6
CONTINUOUS
  0
LAYER
  2
4_CURVE
 70
0
 62
7
  6
CONTINUOUS
  0
LAYER
  2
4_QUILT
 70
0
 62
7
  6
CONTINUOUS
  0
LAYER
  2
6_DIM
 70
0
 62
7
  6
CONTINUOUS
  0
LAYER
  2
BLANK_CURVE
 70
0
 62
7
  6
CONTINUOUS
  0
LAYER
  2
CSYS
 70
0
 62
7
  6
CONTINUOUS
  0
LAYER
  2
UDST
 70
0
 62
7
  6
CONTINUOUS
  0
ENDTAB
  0
TABLE
  2
STYLE
 70
1
  0
STYLE
  2
STANDARD
 70
0
 40
0.0
 41
0.8
 50
0.0
 71
0
 42
0.2
  3
txt
  4

  0
STYLE
  2
TEXTSTYLE_1
 70
0
 40
0.0
 41
0.8
 50
0.0
 71
0
 42
0.2
  3
gdt
  4

  0
STYLE
  2
TEXTSTYLE_2
 70
0
 40
0.0
 41
0.6
 50
0.0
 71
0
 42
0.2
  3
txt
  4

  0
STYLE
  2
TEXTSTYLE_3
 70
0
 40
0.0
 41
1.0
 50
0.0
 71
0
 42
0.2
  3
ftb_____.ttf
  4

  0
STYLE
  2
TEXTSTYLE_4
 70
0
 40
0.0
 41
1.0
 50
0.0
 71
0
 42
0.2
  3
fti_____.ttf
  4

  0
STYLE
  2
TEXTSTYLE_5
 70
0
 40
0.0
 41
1.0
 50
0.0
 71
0
 42
0.2
  3
frutiger light.ttf
  4

  0
STYLE
  2
TEXTSTYLE_6
 70
0
 40
0.0
 41
0.7
 50
0.0
 71
0
 42
0.2
  3
txt
  4

  0
STYLE
  2
TEXTSTYLE_7
 70
0
 40
0.0
 41
0.6
 50
0.0
 71
0
 42
0.2
  3
txt
  4

  0
ENDTAB
  0
ENDSEC
  0
SECTION
  2
BLOCKS
  0
BLOCK
  8
0
 62
2
  6
CONTINUOUS
  2
SYMBOL_8_BL1
 70
64
 10
173.5956734183
 20
35.5937998301
  0
TEXT
  8
0
 62
7
  6
CONTINUOUS
 10
164.6539584268
 20
30.6865562072
  7
TEXTSTYLE_4
 40
1.0655737705
  1
The brand for plastic modular belts and chains
 41
1.0
 72
0
  0
LINE
  8
0
 62
7
  6
CONTINUOUS
 10
149.5737418074
 20
36.1675703219
 11
149.5737418074
 21
34.0364227809
  0
LINE
  8
0
 62
7
  6
CONTINUOUS
 10
149.8628043005
 20
31.0454914852
 11
149.8628043005
 21
31.1422825445
  0
LINE
  8
0
 62
7
  6
CONTINUOUS
 10
149.5737418074
 20
31.1100188581
 11
149.6315543091
 21
30.9164367395
  0
LINE
  8
0
 62
7
  6
CONTINUOUS
 10
150.9671844304
 20
33.9544555678
 11
150.9671844304
 21
36.1675703219
  0
LINE
  8
0
 62
7
  6
CONTINUOUS
 10
151.8862417523
 20
32.1101932727
 11
151.8862417523
 21
30.5937998301
  0
LINE
  8
0
 62
7
  6
CONTINUOUS
 10
152.1753043074
 20
30.5937998301
 11
152.1753043074
 21
31.3358647082
  0
LINE
  8
0
 62
7
  6
CONTINUOUS
 10
152.1753043074
 20
31.4649194539
 11
152.1753043074
 21
32.1101932727
  0
LINE
  8
0
 62
7
  6
CONTINUOUS
 10
149.6315543091
 20
31.3036010218
 11
149.5737418074
 21
31.1100188581
  0
LINE
  8
0
 62
7
  6
CONTINUOUS
 10
149.9784292936
 20
30.8841730531
 11
149.8628043005
 21
31.0454914852
  0
LINE
  8
0
 62
7
  6
CONTINUOUS
 10
151.0768668626
 20
31.400392081
 11
151.1346793074
 21
31.3036010218
  0
LINE
  8
0
 62
7
  6
CONTINUOUS
 10
151.4237418626
 20
31.3036010218
 11
151.3659292523
 21
31.4326557675
  0
LINE
  8
0
 62
7
  6
CONTINUOUS
 10
152.852430332
 20
36.1675703219
 11
152.852430332
 21
34.3642916334
  0
LINE
  8
0
 62
7
  6
CONTINUOUS
 10
152.852430332
 20
33.0528162235
 11
152.852430332
 21
32.3970785186
  0
LINE
  8
0
 62
7
  6
CONTINUOUS
 10
153.2159293074
 20
31.2390736489
 11
153.2159293074
 21
30.5937998301
  0
LINE
  8
0
 62
7
  6
CONTINUOUS
 10
153.5049916972
 20
30.5937998301
 11
153.5049916972
 21
31.2390736489
  0
LINE
  8
0
 62
7
  6
CONTINUOUS
 10
149.8628043005
 20
31.1422825445
 11
149.9206168074
 21
31.2713373354
  0
LINE
  8
0
 62
7
  6
CONTINUOUS
 10
149.6315543091
 20
30.9164367395
 11
149.7471793074
 21
30.7873819712
  0
LINE
  8
0
 62
7
  6
CONTINUOUS
 10
153.1581166972
 20
31.3681283946
 11
153.2159293074
 21
31.2390736489
  0
LINE
  8
0
 62
7
  6
CONTINUOUS
 10
153.9674919177
 20
30.8841730531
 11
154.0253041972
 21
30.7551182848
  0
LINE
  8
0
 62
7
  6
CONTINUOUS
 10
153.5049916972
 20
31.2390736489
 11
153.4471794177
 21
31.400392081
  0
LINE
  8
0
 62
7
  6
CONTINUOUS
 10
153.9674919177
 20
31.4326557675
 11
153.9674919177
 21
31.3681283946
  0
LINE
  8
0
 62
7
  6
CONTINUOUS
 10
153.9674919177
 20
30.9809641124
 11
153.9674919177
 21
30.8841730531
  0
LINE
  8
0
 62
7
  6
CONTINUOUS
 10
154.245872955
 20
32.3970785186
 11
154.245872955
 21
36.1675703219
  0
LINE
  8
0
 62
7
  6
CONTINUOUS
 10
154.2565543074
 20
30.8519093441
 11
154.2565543074
 21
30.9164367395
  0
LINE
  8
0
 62
7
  6
CONTINUOUS
 10
154.5737418074
 20
36.1675703219
 11
154.5737418074
 21
32.3970785186
  0
LINE
  8
0
 62
7
  6
CONTINUOUS
 10
151.3659292523
 20
30.7873819712
 11
151.4237418626
 21
30.9164367395
  0
LINE
  8
0
 62
7
  6
CONTINUOUS
 10
155.759679528
 20
30.6905909007
 11
155.7018665869
 21
30.8519093441
  0
LINE
  8
0
 62
7
  6
CONTINUOUS
 10
155.412804528
 20
31.3681283946
 11
155.412804528
 21
31.2713373354
  0
LINE
  8
0
 62
7
  6
CONTINUOUS
 10
155.412804528
 20
31.1422825445
 11
155.412804528
 21
30.9487004259
  0
LINE
  8
0
 62
7
  6
CONTINUOUS
 10
155.7018665869
 20
30.8519093441
 11
155.7018665869
 21
31.3681283946
  0
LINE
  8
0
 62
7
  6
CONTINUOUS
 10
155.9671844304
 20
32.3970785186
 11
155.9671844304
 21
34.2003572071
  0
LINE
  8
0
 62
7
  6
CONTINUOUS
 10
155.9671844304
 20
35.511832617
 11
155.9671844304
 21
36.1675703219
  0
LINE
  8
0
 62
7
  6
CONTINUOUS
 10
156.279992028
 20
32.1101932727
 11
156.279992028
 21
31.9488748406
  0
LINE
  8
0
 62
7
  6
CONTINUOUS
 10
156.279992028
 20
31.626237886
 11
156.279992028
 21
30.5937998301
  0
LINE
  8
0
 62
7
  6
CONTINUOUS
 10
156.5690540869
 20
30.5937998301
 11
156.5690540869
 21
31.626237886
  0
LINE
  8
0
 62
7
  6
CONTINUOUS
 10
156.5690540869
 20
31.9488748406
 11
156.5690540869
 21
32.1101932727
  0
LINE
  8
0
 62
7
  6
CONTINUOUS
 10
151.1346793074
 20
30.9164367395
 11
151.0768668626
 21
30.8196456577
  0
LINE
  8
0
 62
7
  6
CONTINUOUS
 10
153.4471794177
 20
31.400392081
 11
153.3893668074
 21
31.4649194539
  0
LINE
  8
0
 62
7
  6
CONTINUOUS
 10
154.3143669177
 20
30.7873819712
 11
154.2565543074
 21
30.8519093441
  0
LINE
  8
0
 62
7
  6
CONTINUOUS
 10
155.4706168074
 20
30.6583272086
 11
155.5284290869
 21
30.5937998301
  0
LINE
  8
0
 62
7
  6
CONTINUOUS
 10
155.412804528
 20
30.7551182848
 11
155.4706168074
 21
30.6583272086
  0
LINE
  8
0
 62
7
  6
CONTINUOUS
 10
155.8174918074
 20
30.5937998301
 11
155.759679528
 21
30.6905909007
  0
LINE
  8
0
 62
7
  6
CONTINUOUS
 10
155.7018665869
 20
31.3681283946
 11
155.6440543074
 21
31.4649194539
  0
LINE
  8
0
 62
7
  6
CONTINUOUS
 10
157.0315543074
 20
31.626237886
 11
157.0315543074
 21
30.5937998301
  0
LINE
  8
0
 62
7
  6
CONTINUOUS
 10
157.320617028
 20
30.5937998301
 11
157.320617028
 21
31.3358647082
  0
LINE
  8
0
 62
7
  6
CONTINUOUS
 10
157.320617028
 20
31.4649194539
 11
157.320617028
 21
31.626237886
  0
LINE
  8
0
 62
7
  6
CONTINUOUS
 10
157.852430332
 20
34.6101932727
 11
157.852430332
 21
32.3970785186
  0
LINE
  8
0
 62
7
  6
CONTINUOUS
 10
149.7471793074
 20
31.4326557675
 11
149.6315543091
 21
31.3036010218
  0
LINE
  8
0
 62
7
  6
CONTINUOUS
 10
149.9206168074
 20
31.2713373354
 11
149.9784292936
 21
31.3358647082
  0
LINE
  8
0
 62
7
  6
CONTINUOUS
 10
149.7471793074
 20
30.7873819712
 11
149.8628043005
 21
30.7228545871
  0
LINE
  8
0
 62
7
  6
CONTINUOUS
 10
150.1518667936
 20
30.7873819712
 11
149.9784292936
 21
30.8841730531
  0
LINE
  8
0
 62
7
  6
CONTINUOUS
 10
155.3549915869
 20
31.4326557675
 11
155.412804528
 21
31.3681283946
  0
LINE
  8
0
 62
7
  6
CONTINUOUS
 10
158.3034290869
 20
31.3681283946
 11
158.361242028
 21
31.2068099625
  0
LINE
  8
0
 62
7
  6
CONTINUOUS
 10
158.6503040869
 20
31.2068099625
 11
158.5924918074
 21
31.3681283946
  0
LINE
  8
0
 62
7
  6
CONTINUOUS
 10
158.361242028
 20
31.2068099625
 11
158.361242028
 21
30.5937998301
  0
LINE
  8
0
 62
7
  6
CONTINUOUS
 10
158.6503040869
 20
30.5937998301
 11
158.6503040869
 21
31.2068099625
  0
LINE
  8
0
 62
7
  6
CONTINUOUS
 10
159.1128043074
 20
31.4326557675
 11
159.1128043074
 21
31.3681283946
  0
LINE
  8
0
 62
7
  6
CONTINUOUS
 10
159.245872955
 20
32.3970785186
 11
159.245872955
 21
34.5282260596
  0
LINE
  8
0
 62
7
  6
CONTINUOUS
 10
159.5737418074
 20
36.1675703219
 11
159.5737418074
 21
32.3970785186
  0
LINE
  8
0
 62
7
  6
CONTINUOUS
 10
154.2565543074
 20
30.9164367395
 11
154.3143669177
 21
31.0132277988
  0
LINE
  8
0
 62
7
  6
CONTINUOUS
 10
149.8628043005
 20
30.7228545871
 11
150.0362418212
 21
30.6583272086
  0
LINE
  8
0
 62
7
  6
CONTINUOUS
 10
151.3659292523
 20
31.4326557675
 11
151.1924917523
 21
31.5294468267
  0
LINE
  8
0
 62
7
  6
CONTINUOUS
 10
154.0253041972
 20
30.7551182848
 11
154.1987416972
 21
30.6583272086
  0
LINE
  8
0
 62
7
  6
CONTINUOUS
 10
153.0424918074
 20
31.4326557675
 11
153.1581166972
 21
31.3681283946
  0
LINE
  8
0
 62
7
  6
CONTINUOUS
 10
153.3893668074
 20
31.4649194539
 11
153.2737419177
 21
31.5294468267
  0
LINE
  8
0
 62
7
  6
CONTINUOUS
 10
159.1128043074
 20
30.8519093441
 11
159.228429528
 21
30.7228545871
  0
LINE
  8
0
 62
7
  6
CONTINUOUS
 10
159.4596793074
 20
30.7873819712
 11
159.401867028
 21
30.8519093441
  0
LINE
  8
0
 62
7
  6
CONTINUOUS
 10
159.1128043074
 20
31.3681283946
 11
159.228429528
 21
31.2390736489
  0
LINE
  8
0
 62
7
  6
CONTINUOUS
 10
158.5924918074
 20
31.3681283946
 11
158.534679528
 21
31.4649194539
  0
LINE
  8
0
 62
7
  6
CONTINUOUS
 10
160.9628038663
 20
30.7873819712
 11
160.9628038663
 21
30.8519093441
  0
LINE
  8
0
 62
7
  6
CONTINUOUS
 10
160.9671844304
 20
32.3970785186
 11
160.9671844304
 21
36.1675703219
  0
LINE
  8
0
 62
7
  6
CONTINUOUS
 10
154.0253041972
 20
31.4971831403
 11
153.9674919177
 21
31.4326557675
  0
LINE
  8
0
 62
7
  6
CONTINUOUS
 10
150.9034292799
 20
31.4649194539
 11
151.0768668626
 21
31.400392081
  0
LINE
  8
0
 62
7
  6
CONTINUOUS
 10
155.6440543074
 20
31.4649194539
 11
155.5284290869
 21
31.5294468267
  0
LINE
  8
0
 62
7
  6
CONTINUOUS
 10
159.4596793074
 20
31.3036010218
 11
159.401867028
 21
31.3681283946
  0
LINE
  8
0
 62
7
  6
CONTINUOUS
 10
160.615929528
 20
30.9164367395
 11
160.6737418074
 21
30.8519093441
  0
LINE
  8
0
 62
7
  6
CONTINUOUS
 10
160.9628038663
 20
30.8519093441
 11
160.8471793074
 21
30.9809641124
  0
LINE
  8
0
 62
7
  6
CONTINUOUS
 10
160.615929528
 20
31.4326557675
 11
160.6737418074
 21
31.3681283946
  0
LINE
  8
0
 62
7
  6
CONTINUOUS
 10
160.9628038663
 20
31.3681283946
 11
160.8471793074
 21
31.4971831403
  0
LINE
  8
0
 62
7
  6
CONTINUOUS
 10
154.2565543074
 20
31.3681283946
 11
154.3143669177
 21
31.4326557675
  0
LINE
  8
0
 62
7
  6
CONTINUOUS
 10
154.0831168074
 20
31.1100188581
 11
153.9674919177
 21
30.9809641124
  0
LINE
  8
0
 62
7
  6
CONTINUOUS
 10
155.412804528
 20
30.9487004259
 11
155.3549915869
 21
30.8841730531
  0
LINE
  8
0
 62
7
  6
CONTINUOUS
 10
155.3549915869
 20
30.6905909007
 11
155.412804528
 21
30.7551182848
  0
LINE
  8
0
 62
7
  6
CONTINUOUS
 10
154.1987416972
 20
30.6583272086
 11
154.3143669177
 21
30.6260635193
  0
LINE
  8
0
 62
7
  6
CONTINUOUS
 10
151.1924917523
 20
31.5294468267
 11
150.9612418074
 21
31.5939741996
  0
LINE
  8
0
 62
7
  6
CONTINUOUS
 10
154.5456166972
 20
30.7228545871
 11
154.3143669177
 21
30.7873819712
  0
LINE
  8
0
 62
7
  6
CONTINUOUS
 10
153.2737419177
 20
31.5294468267
 11
153.1003044177
 21
31.5939741996
  0
LINE
  8
0
 62
7
  6
CONTINUOUS
 10
155.5284290869
 20
31.5294468267
 11
155.3549915869
 21
31.5939741996
  0
LINE
  8
0
 62
7
  6
CONTINUOUS
 10
158.187804528
 20
31.4326557675
 11
158.3034290869
 21
31.3681283946
  0
LINE
  8
0
 62
7
  6
CONTINUOUS
 10
158.534679528
 20
31.4649194539
 11
158.4190543074
 21
31.5294468267
  0
LINE
  8
0
 62
7
  6
CONTINUOUS
 10
150.0362418212
 20
30.6583272086
 11
150.2096793212
 21
30.6260635193
  0
LINE
  8
0
 62
7
  6
CONTINUOUS
 10
150.498741835
 20
30.7228545871
 11
150.1518667936
 21
30.7873819712
  0
LINE
  8
0
 62
7
  6
CONTINUOUS
 10
152.9268669177
 20
31.4649194539
 11
153.0424918074
 21
31.4326557675
  0
LINE
  8
0
 62
7
  6
CONTINUOUS
 10
155.239367028
 20
31.4649194539
 11
155.3549915869
 21
31.4326557675
  0
LINE
  8
0
 62
7
  6
CONTINUOUS
 10
159.575304528
 20
30.7551182848
 11
159.4596793074
 21
30.7873819712
  0
LINE
  8
0
 62
7
  6
CONTINUOUS
 10
158.0721793074
 20
31.4649194539
 11
158.187804528
 21
31.4326557675
  0
LINE
  8
0
 62
7
  6
CONTINUOUS
 10
159.228429528
 20
30.7228545871
 11
159.401867028
 21
30.6583272086
  0
LINE
  8
0
 62
7
  6
CONTINUOUS
 10
158.4190543074
 20
31.5294468267
 11
158.2456168074
 21
31.5939741996
  0
LINE
  8
0
 62
7
  6
CONTINUOUS
 10
159.6331168074
 20
31.2390736489
 11
159.4596793074
 21
31.3036010218
  0
LINE
  8
0
 62
7
  6
CONTINUOUS
 10
160.442492028
 20
30.9809641124
 11
160.615929528
 21
30.9164367395
  0
LINE
  8
0
 62
7
  6
CONTINUOUS
 10
160.8471793074
 20
31.4971831403
 11
160.6737418074
 21
31.5617105132
  0
LINE
  8
0
 62
7
  6
CONTINUOUS
 10
159.228429528
 20
31.2390736489
 11
159.4596793074
 21
31.1422825445
  0
LINE
  8
0
 62
7
  6
CONTINUOUS
 10
160.8471793074
 20
30.9809641124
 11
160.615929528
 21
31.0777551716
  0
LINE
  8
0
 62
7
  6
CONTINUOUS
 10
159.401867028
 20
31.3681283946
 11
159.4596793074
 21
31.4326557675
  0
LINE
  8
0
 62
7
  6
CONTINUOUS
 10
149.8628043005
 20
31.4971831403
 11
149.7471793074
 21
31.4326557675
  0
LINE
  8
0
 62
7
  6
CONTINUOUS
 10
149.9784292936
 20
31.3358647082
 11
150.1518667936
 21
31.4326557675
  0
LINE
  8
0
 62
7
  6
CONTINUOUS
 10
152.2909293626
 20
31.5294468267
 11
152.1753043074
 21
31.4649194539
  0
LINE
  8
0
 62
7
  6
CONTINUOUS
 10
152.1753043074
 20
31.3358647082
 11
152.2909293626
 21
31.400392081
  0
LINE
  8
0
 62
7
  6
CONTINUOUS
 10
151.1924917523
 20
30.6905909007
 11
151.3659292523
 21
30.7873819712
  0
LINE
  8
0
 62
7
  6
CONTINUOUS
 10
150.2096793212
 20
30.6260635193
 11
150.5565542799
 21
30.5937998301
  0
LINE
  8
0
 62
7
  6
CONTINUOUS
 10
154.3143669177
 20
30.6260635193
 11
154.5456166972
 21
30.5937998301
  0
LINE
  8
0
 62
7
  6
CONTINUOUS
 10
152.6956168074
 20
31.4971831403
 11
152.9268669177
 21
31.4649194539
  0
LINE
  8
0
 62
7
  6
CONTINUOUS
 10
155.0081169177
 20
31.4971831403
 11
155.239367028
 21
31.4649194539
  0
LINE
  8
0
 62
7
  6
CONTINUOUS
 10
159.4596793074
 20
31.1422825445
 11
160.442492028
 21
30.9809641124
  0
LINE
  8
0
 62
7
  6
CONTINUOUS
 10
160.615929528
 20
31.0777551716
 11
159.6331168074
 21
31.2390736489
  0
LINE
  8
0
 62
7
  6
CONTINUOUS
 10
153.1003044177
 20
31.5939741996
 11
152.9268669177
 21
31.626237886
  0
LINE
  8
0
 62
7
  6
CONTINUOUS
 10
159.401867028
 20
30.6583272086
 11
159.575304528
 21
30.6260635193
  0
LINE
  8
0
 62
7
  6
CONTINUOUS
 10
158.2456168074
 20
31.5939741996
 11
158.0721793074
 21
31.626237886
  0
LINE
  8
0
 62
7
  6
CONTINUOUS
 10
160.5003043074
 20
31.4649194539
 11
160.615929528
 21
31.4326557675
  0
LINE
  8
0
 62
7
  6
CONTINUOUS
 10
160.6737418074
 20
30.8519093441
 11
160.615929528
 21
30.7873819712
  0
LINE
  8
0
 62
7
  6
CONTINUOUS
 10
159.228429528
 20
31.5294468267
 11
159.1128043074
 21
31.4326557675
  0
LINE
  8
0
 62
7
  6
CONTINUOUS
 10
154.1409294177
 20
31.5617105132
 11
154.0253041972
 21
31.4971831403
  0
LINE
  8
0
 62
7
  6
CONTINUOUS
 10
154.1987416972
 20
31.1745462761
 11
154.0831168074
 21
31.1100188581
  0
LINE
  8
0
 62
7
  6
CONTINUOUS
 10
154.3143669177
 20
31.0132277988
 11
154.4299918074
 21
31.0777551716
  0
LINE
  8
0
 62
7
  6
CONTINUOUS
 10
151.8862417523
 20
30.5937998301
 11
152.1753043074
 21
30.5937998301
  0
LINE
  8
0
 62
7
  6
CONTINUOUS
 10
153.2159293074
 20
30.5937998301
 11
153.5049916972
 21
30.5937998301
  0
LINE
  8
0
 62
7
  6
CONTINUOUS
 10
154.5456166972
 20
30.5937998301
 11
154.8924916972
 21
30.5937998301
  0
LINE
  8
0
 62
7
  6
CONTINUOUS
 10
155.5284290869
 20
30.5937998301
 11
155.8174918074
 21
30.5937998301
  0
LINE
  8
0
 62
7
  6
CONTINUOUS
 10
156.279992028
 20
30.5937998301
 11
156.5690540869
 21
30.5937998301
  0
LINE
  8
0
 62
7
  6
CONTINUOUS
 10
157.0315543074
 20
30.5937998301
 11
157.320617028
 21
30.5937998301
  0
LINE
  8
0
 62
7
  6
CONTINUOUS
 10
158.361242028
 20
30.5937998301
 11
158.6503040869
 21
30.5937998301
  0
LINE
  8
0
 62
7
  6
CONTINUOUS
 10
159.922179528
 20
30.5937998301
 11
160.269054528
 21
30.5937998301
  0
LINE
  8
0
 62
7
  6
CONTINUOUS
 10
160.269054528
 20
30.7228545871
 11
159.922179528
 21
30.7228545871
  0
LINE
  8
0
 62
7
  6
CONTINUOUS
 10
154.8924916972
 20
30.7228545871
 11
154.5456166972
 21
30.7228545871
  0
LINE
  8
0
 62
7
  6
CONTINUOUS
 10
159.401867028
 20
30.8519093441
 11
159.1128043074
 21
30.8519093441
  0
LINE
  8
0
 62
7
  6
CONTINUOUS
 10
151.4237418626
 20
30.9164367395
 11
151.1346793074
 21
30.9164367395
  0
LINE
  8
0
 62
7
  6
CONTINUOUS
 10
150.498741835
 20
31.4971831403
 11
150.9034292799
 21
31.4649194539
  0
LINE
  8
0
 62
7
  6
CONTINUOUS
 10
150.9612418074
 20
31.5939741996
 11
150.5565542799
 21
31.626237886
  0
LINE
  8
0
 62
7
  6
CONTINUOUS
 10
159.575304528
 20
30.6260635193
 11
159.922179528
 21
30.5937998301
  0
LINE
  8
0
 62
7
  6
CONTINUOUS
 10
159.922179528
 20
30.7228545871
 11
159.575304528
 21
30.7551182848
  0
LINE
  8
0
 62
7
  6
CONTINUOUS
 10
155.3549915869
 20
31.5939741996
 11
155.0081169177
 21
31.626237886
  0
LINE
  8
0
 62
7
  6
CONTINUOUS
 10
160.1534293074
 20
31.4971831403
 11
160.5003043074
 21
31.4649194539
  0
LINE
  8
0
 62
7
  6
CONTINUOUS
 10
160.5003043074
 20
31.5939741996
 11
160.1534293074
 21
31.626237886
  0
LINE
  8
0
 62
7
  6
CONTINUOUS
 10
157.840929528
 20
31.4971831403
 11
158.0721793074
 21
31.4649194539
  0
LINE
  8
0
 62
7
  6
CONTINUOUS
 10
160.6737418074
 20
31.5617105132
 11
160.5003043074
 21
31.5939741996
  0
LINE
  8
0
 62
7
  6
CONTINUOUS
 10
160.8471793074
 20
30.6905909007
 11
160.9628038663
 21
30.7873819712
  0
LINE
  8
0
 62
7
  6
CONTINUOUS
 10
155.3549915869
 20
30.8841730531
 11
155.1815540869
 21
30.7873819712
  0
LINE
  8
0
 62
7
  6
CONTINUOUS
 10
157.4362415869
 20
31.5294468267
 11
157.320617028
 21
31.4649194539
  0
LINE
  8
0
 62
7
  6
CONTINUOUS
 10
157.320617028
 20
31.3358647082
 11
157.4362415869
 21
31.400392081
  0
LINE
  8
0
 62
7
  6
CONTINUOUS
 10
150.0362418212
 20
31.5617105132
 11
149.8628043005
 21
31.4971831403
  0
LINE
  8
0
 62
7
  6
CONTINUOUS
 10
152.4643666972
 20
31.5939741996
 11
152.2909293626
 21
31.5294468267
  0
LINE
  8
0
 62
7
  6
CONTINUOUS
 10
152.2909293626
 20
31.400392081
 11
152.4643666972
 21
31.4649194539
  0
LINE
  8
0
 62
7
  6
CONTINUOUS
 10
151.0768668626
 20
30.8196456577
 11
150.9034292799
 21
30.7551182848
  0
LINE
  8
0
 62
7
  6
CONTINUOUS
 10
160.5003043074
 20
30.7551182848
 11
160.269054528
 21
30.7228545871
  0
LINE
  8
0
 62
7
  6
CONTINUOUS
 10
154.8924916972
 20
30.5937998301
 11
155.1815540869
 21
30.6260635193
  0
LINE
  8
0
 62
7
  6
CONTINUOUS
 10
160.269054528
 20
30.5937998301
 11
160.615929528
 21
30.6260635193
  0
LINE
  8
0
 62
7
  6
CONTINUOUS
 10
150.5565542799
 20
30.5937998301
 11
150.9612418074
 21
30.6260635193
  0
LINE
  8
0
 62
7
  6
CONTINUOUS
 10
150.9034292799
 20
30.7551182848
 11
150.498741835
 21
30.7228545871
  0
LINE
  8
0
 62
7
  6
CONTINUOUS
 10
154.7768668074
 20
31.1422825445
 11
155.412804528
 21
31.1422825445
  0
LINE
  8
0
 62
7
  6
CONTINUOUS
 10
155.412804528
 20
31.2713373354
 11
154.7768668074
 21
31.2713373354
  0
LINE
  8
0
 62
7
  6
CONTINUOUS
 10
151.1346793074
 20
31.3036010218
 11
151.4237418626
 21
31.3036010218
  0
LINE
  8
0
 62
7
  6
CONTINUOUS
 10
153.9674919177
 20
31.3681283946
 11
154.2565543074
 21
31.3681283946
  0
LINE
  8
0
 62
7
  6
CONTINUOUS
 10
160.6737418074
 20
31.3681283946
 11
160.9628038663
 21
31.3681283946
  0
LINE
  8
0
 62
7
  6
CONTINUOUS
 10
154.6612419177
 20
31.4971831403
 11
155.0081169177
 21
31.4971831403
  0
LINE
  8
0
 62
7
  6
CONTINUOUS
 10
159.8065543074
 20
31.4971831403
 11
160.1534293074
 21
31.4971831403
  0
LINE
  8
0
 62
7
  6
CONTINUOUS
 10
160.1534293074
 20
31.626237886
 11
159.8065543074
 21
31.626237886
  0
LINE
  8
0
 62
7
  6
CONTINUOUS
 10
158.0721793074
 20
31.626237886
 11
157.840929528
 21
31.626237886
  0
LINE
  8
0
 62
7
  6
CONTINUOUS
 10
157.320617028
 20
31.626237886
 11
157.0315543074
 21
31.626237886
  0
LINE
  8
0
 62
7
  6
CONTINUOUS
 10
156.5690540869
 20
31.626237886
 11
156.279992028
 21
31.626237886
  0
LINE
  8
0
 62
7
  6
CONTINUOUS
 10
155.0081169177
 20
31.626237886
 11
154.6612419177
 21
31.626237886
  0
LINE
  8
0
 62
7
  6
CONTINUOUS
 10
152.9268669177
 20
31.626237886
 11
152.6956168074
 21
31.626237886
  0
LINE
  8
0
 62
7
  6
CONTINUOUS
 10
156.279992028
 20
31.9488748406
 11
156.5690540869
 21
31.9488748406
  0
LINE
  8
0
 62
7
  6
CONTINUOUS
 10
156.5690540869
 20
32.1101932727
 11
156.279992028
 21
32.1101932727
  0
LINE
  8
0
 62
7
  6
CONTINUOUS
 10
152.1753043074
 20
32.1101932727
 11
151.8862417523
 21
32.1101932727
  0
LINE
  8
0
 62
7
  6
CONTINUOUS
 10
151.2130860697
 20
32.3970785186
 11
151.6256574183
 21
32.3970785186
  0
LINE
  8
0
 62
7
  6
CONTINUOUS
 10
152.852430332
 20
32.3970785186
 11
154.245872955
 21
32.3970785186
  0
LINE
  8
0
 62
7
  6
CONTINUOUS
 10
154.5737418074
 20
32.3970785186
 11
155.9671844304
 21
32.3970785186
  0
LINE
  8
0
 62
7
  6
CONTINUOUS
 10
157.852430332
 20
32.3970785186
 11
159.245872955
 21
32.3970785186
  0
LINE
  8
0
 62
7
  6
CONTINUOUS
 10
159.5737418074
 20
32.3970785186
 11
160.9671844304
 21
32.3970785186
  0
LINE
  8
0
 62
7
  6
CONTINUOUS
 10
157.6096790869
 20
31.5939741996
 11
157.4362415869
 21
31.5294468267
  0
LINE
  8
0
 62
7
  6
CONTINUOUS
 10
155.1815540869
 20
30.6260635193
 11
155.3549915869
 21
30.6905909007
  0
LINE
  8
0
 62
7
  6
CONTINUOUS
 10
160.615929528
 20
30.6260635193
 11
160.8471793074
 21
30.6905909007
  0
LINE
  8
0
 62
7
  6
CONTINUOUS
 10
160.615929528
 20
30.7873819712
 11
160.5003043074
 21
30.7551182848
  0
LINE
  8
0
 62
7
  6
CONTINUOUS
 10
159.575304528
 20
31.4649194539
 11
159.8065543074
 21
31.4971831403
  0
LINE
  8
0
 62
7
  6
CONTINUOUS
 10
157.6096790869
 20
31.4649194539
 11
157.840929528
 21
31.4971831403
  0
LINE
  8
0
 62
7
  6
CONTINUOUS
 10
154.5456166972
 20
31.1100188581
 11
154.7768668074
 21
31.1422825445
  0
LINE
  8
0
 62
7
  6
CONTINUOUS
 10
157.840929528
 20
31.626237886
 11
157.6096790869
 21
31.5939741996
  0
LINE
  8
0
 62
7
  6
CONTINUOUS
 10
154.4299918074
 20
31.4649194539
 11
154.6612419177
 21
31.4971831403
  0
LINE
  8
0
 62
7
  6
CONTINUOUS
 10
159.8065543074
 20
31.626237886
 11
159.4596793074
 21
31.5939741996
  0
LINE
  8
0
 62
7
  6
CONTINUOUS
 10
154.7768668074
 20
31.2713373354
 11
154.4299918074
 21
31.2390736489
  0
LINE
  8
0
 62
7
  6
CONTINUOUS
 10
150.5565542799
 20
31.626237886
 11
150.2096793212
 21
31.5939741996
  0
LINE
  8
0
 62
7
  6
CONTINUOUS
 10
154.6612419177
 20
31.626237886
 11
154.2565543074
 21
31.5939741996
  0
LINE
  8
0
 62
7
  6
CONTINUOUS
 10
152.0327582009
 20
33.5446195022
 11
151.3770204959
 21
33.5446195022
  0
LINE
  8
0
 62
7
  6
CONTINUOUS
 10
157.4362415869
 20
31.400392081
 11
157.6096790869
 21
31.4649194539
  0
LINE
  8
0
 62
7
  6
CONTINUOUS
 10
159.4596793074
 20
31.4326557675
 11
159.575304528
 21
31.4649194539
  0
LINE
  8
0
 62
7
  6
CONTINUOUS
 10
159.4596793074
 20
31.5939741996
 11
159.228429528
 21
31.5294468267
  0
LINE
  8
0
 62
7
  6
CONTINUOUS
 10
155.1815540869
 20
30.7873819712
 11
154.8924916972
 21
30.7228545871
  0
LINE
  8
0
 62
7
  6
CONTINUOUS
 10
152.4643666972
 20
31.4649194539
 11
152.6956168074
 21
31.4971831403
  0
LINE
  8
0
 62
7
  6
CONTINUOUS
 10
152.6956168074
 20
31.626237886
 11
152.4643666972
 21
31.5939741996
  0
LINE
  8
0
 62
7
  6
CONTINUOUS
 10
150.2674918074
 20
31.4649194539
 11
150.498741835
 21
31.4971831403
  0
LINE
  8
0
 62
7
  6
CONTINUOUS
 10
156.7868565615
 20
35.0200293383
 11
157.4425942664
 21
35.0200293383
  0
LINE
  8
0
 62
7
  6
CONTINUOUS
 10
154.4299918074
 20
31.0777551716
 11
154.5456166972
 21
31.1100188581
  0
LINE
  8
0
 62
7
  6
CONTINUOUS
 10
154.4299918074
 20
31.2390736489
 11
154.1987416972
 21
31.1745462761
  0
LINE
  8
0
 62
7
  6
CONTINUOUS
 10
154.3143669177
 20
31.4326557675
 11
154.4299918074
 21
31.4649194539
  0
LINE
  8
0
 62
7
  6
CONTINUOUS
 10
150.9612418074
 20
30.6260635193
 11
151.1924917523
 21
30.6905909007
  0
LINE
  8
0
 62
7
  6
CONTINUOUS
 10
154.2565543074
 20
31.5939741996
 11
154.1409294177
 21
31.5617105132
  0
LINE
  8
0
 62
7
  6
CONTINUOUS
 10
150.2096793212
 20
31.5939741996
 11
150.0362418212
 21
31.5617105132
  0
LINE
  8
0
 62
7
  6
CONTINUOUS
 10
160.9671844304
 20
36.1675703219
 11
159.5737418074
 21
36.1675703219
  0
LINE
  8
0
 62
7
  6
CONTINUOUS
 10
157.6065286927
 20
36.1675703219
 11
157.1939573441
 21
36.1675703219
  0
LINE
  8
0
 62
7
  6
CONTINUOUS
 10
155.9671844304
 20
36.1675703219
 11
154.5737418074
 21
36.1675703219
  0
LINE
  8
0
 62
7
  6
CONTINUOUS
 10
154.245872955
 20
36.1675703219
 11
152.852430332
 21
36.1675703219
  0
LINE
  8
0
 62
7
  6
CONTINUOUS
 10
150.9671844304
 20
36.1675703219
 11
149.5737418074
 21
36.1675703219
  0
LINE
  8
0
 62
7
  6
CONTINUOUS
 10
150.1518667936
 20
31.4326557675
 11
150.2674918074
 21
31.4649194539
  0
CIRCLE
  8
0
 62
7
  6
CONTINUOUS
 10
160.2704631189
 20
38.5036358957
 40
2.0901639344
  0
ARC
  8
0
 62
7
  6
CONTINUOUS
 10
151.2130860697
 20
34.0364227809
 40
1.6393442623
 50
180.0
 51
270.0
  0
ARC
  8
0
 62
7
  6
CONTINUOUS
 10
157.6065286927
 20
34.5282260596
 40
1.6393442623
 50
0.0
 51
90.0
  0
ARC
  8
0
 62
7
  6
CONTINUOUS
 10
151.6256574183
 20
33.8724883547
 40
1.4754098361
 50
270.0
 51
326.2510114041
  0
ARC
  8
0
 62
7
  6
CONTINUOUS
 10
157.1939573441
 20
34.6921604858
 40
1.4754098361
 50
90.0
 51
146.2510114041
  0
ARC
  8
0
 62
7
  6
CONTINUOUS
 10
152.0327582009
 20
34.3642916334
 40
0.8196721311
 50
270.0
 51
360.0
  0
ARC
  8
0
 62
7
  6
CONTINUOUS
 10
156.7868565615
 20
34.2003572071
 40
0.8196721311
 50
90.0
 51
180.0
  0
ARC
  8
0
 62
7
  6
CONTINUOUS
 10
151.3770204959
 20
33.9544555678
 40
0.4098360656
 50
180.0
 51
270.0
  0
ARC
  8
0
 62
7
  6
CONTINUOUS
 10
157.4425942664
 20
34.6101932727
 40
0.4098360656
 50
0.0
 51
90.0
  0
SOLID
  8
0
 62
7
  6
CONTINUOUS
 10
156.279992028
 20
31.9488752009
 11
156.279992028
 21
32.1101936845
 12
156.5690540869
 22
31.9488752009
 13
156.5690540869
 23
32.1101936845
  0
SOLID
  8
0
 62
7
  6
CONTINUOUS
 10
150.5565542799
 20
31.6262382337
 11
150.9612418074
 21
31.5939740028
 12
150.2096793212
 22
31.5939740028
 13
150.2096793212
 23
31.5939740028
  0
SOLID
  8
0
 62
7
  6
CONTINUOUS
 10
150.0362418212
 20
31.5617111435
 11
150.2096793212
 21
31.5939740028
 12
150.9612418074
 22
31.5939740028
 13
150.9612418074
 23
31.5939740028
  0
SOLID
  8
0
 62
7
  6
CONTINUOUS
 10
150.9612418074
 20
31.5939740028
 11
151.1924917523
 21
31.5294468402
 12
150.0362418212
 22
31.5617111435
 13
150.0362418212
 23
31.5617111435
  0
SOLID
  8
0
 62
7
  6
CONTINUOUS
 10
149.8628043005
 20
31.49718259
 11
150.0362418212
 21
31.5617111435
 12
151.1924917523
 22
31.5294468402
 13
151.1924917523
 23
31.5294468402
  0
SOLID
  8
0
 62
7
  6
CONTINUOUS
 10
149.8628043005
 20
31.49718259
 11
151.1924917523
 21
31.5294468402
 12
150.498741835
 22
31.49718259
 13
150.498741835
 23
31.49718259
  0
SOLID
  8
0
 62
7
  6
CONTINUOUS
 10
150.498741835
 20
31.49718259
 11
151.1924917523
 21
31.5294468402
 12
150.9034292799
 22
31.4649197501
 13
150.9034292799
 23
31.4649197501
  0
SOLID
  8
0
 62
7
  6
CONTINUOUS
 10
151.1924917523
 20
31.5294468402
 11
151.3659292523
 21
31.4326554468
 12
150.9034292799
 22
31.4649197501
 13
150.9034292799
 23
31.4649197501
  0
SOLID
  8
0
 62
7
  6
CONTINUOUS
 10
151.0768668626
 20
31.4003926599
 11
150.9034292799
 21
31.4649197501
 12
151.3659292523
 22
31.4326554468
 13
151.3659292523
 23
31.4326554468
  0
SOLID
  8
0
 62
7
  6
CONTINUOUS
 10
151.0768668626
 20
31.4003926599
 11
151.3659292523
 21
31.4326554468
 12
151.1346793074
 22
31.3036013776
 13
151.1346793074
 23
31.3036013776
  0
SOLID
  8
0
 62
7
  6
CONTINUOUS
 10
151.3659292523
 20
31.4326554468
 11
151.4237418626
 21
31.3036013776
 12
151.1346793074
 22
31.3036013776
 13
151.1346793074
 23
31.3036013776
  0
SOLID
  8
0
 62
7
  6
CONTINUOUS
 10
152.4643666972
 20
31.5939739754
 11
152.6956168074
 21
31.6262382787
 12
152.9268669177
 22
31.6262382787
 13
152.9268669177
 23
31.6262382787
  0
SOLID
  8
0
 62
7
  6
CONTINUOUS
 10
152.9268669177
 20
31.6262382787
 11
153.1003044177
 21
31.5939739754
 12
152.4643666972
 22
31.5939739754
 13
152.4643666972
 23
31.5939739754
  0
SOLID
  8
0
 62
7
  6
CONTINUOUS
 10
152.2909293626
 20
31.5294468852
 11
152.4643666972
 21
31.5939739754
 12
153.1003044177
 22
31.5939739754
 13
153.1003044177
 23
31.5939739754
  0
SOLID
  8
0
 62
7
  6
CONTINUOUS
 10
153.1003044177
 20
31.5939739754
 11
153.2737419177
 21
31.5294468852
 12
152.2909293626
 22
31.5294468852
 13
152.2909293626
 23
31.5294468852
  0
SOLID
  8
0
 62
7
  6
CONTINUOUS
 10
153.2737419177
 20
31.5294468852
 11
152.6956168074
 21
31.4971825369
 12
152.2909293626
 22
31.5294468852
 13
152.2909293626
 23
31.5294468852
  0
SOLID
  8
0
 62
7
  6
CONTINUOUS
 10
152.1753043074
 20
31.4649197951
 11
152.2909293626
 21
31.5294468852
 12
152.6956168074
 22
31.4971825369
 13
152.6956168074
 23
31.4971825369
  0
SOLID
  8
0
 62
7
  6
CONTINUOUS
 10
152.6956168074
 20
31.4971825369
 11
152.4643666972
 21
31.4649197951
 12
152.1753043074
 22
31.4649197951
 13
152.1753043074
 23
31.4649197951
  0
SOLID
  8
0
 62
7
  6
CONTINUOUS
 10
152.6956168074
 20
31.4971825369
 11
153.2737419177
 21
31.5294468852
 12
152.9268669177
 22
31.4649197951
 13
152.9268669177
 23
31.4649197951
  0
SOLID
  8
0
 62
7
  6
CONTINUOUS
 10
153.2737419177
 20
31.5294468852
 11
153.3893668074
 21
31.4649197951
 12
152.9268669177
 22
31.4649197951
 13
152.9268669177
 23
31.4649197951
  0
SOLID
  8
0
 62
7
  6
CONTINUOUS
 10
153.0424918074
 20
31.4326554468
 11
152.9268669177
 21
31.4649197951
 12
153.3893668074
 22
31.4649197951
 13
153.3893668074
 23
31.4649197951
  0
SOLID
  8
0
 62
7
  6
CONTINUOUS
 10
153.3893668074
 20
31.4649197951
 11
153.4471794177
 21
31.4003927049
 12
153.0424918074
 22
31.4326554468
 13
153.0424918074
 23
31.4326554468
  0
SOLID
  8
0
 62
7
  6
CONTINUOUS
 10
153.1581166972
 20
31.3681283566
 11
153.0424918074
 21
31.4326554468
 12
153.4471794177
 22
31.4003927049
 13
153.4471794177
 23
31.4003927049
  0
SOLID
  8
0
 62
7
  6
CONTINUOUS
 10
153.1581166972
 20
31.3681283566
 11
153.4471794177
 21
31.4003927049
 12
153.2159293074
 22
31.2390742213
 13
153.2159293074
 23
31.2390742213
  0
SOLID
  8
0
 62
7
  6
CONTINUOUS
 10
153.4471794177
 20
31.4003927049
 11
153.5049916972
 21
31.2390742213
 12
153.2159293074
 22
31.2390742213
 13
153.2159293074
 23
31.2390742213
  0
SOLID
  8
0
 62
7
  6
CONTINUOUS
 10
152.4643666972
 20
31.4649197951
 11
152.2909293626
 21
31.4003927049
 12
152.1753043074
 22
31.4649197951
 13
152.1753043074
 23
31.4649197951
  0
SOLID
  8
0
 62
7
  6
CONTINUOUS
 10
152.2909293626
 20
31.4003927049
 11
152.1753043074
 21
31.3358640533
 12
152.1753043074
 22
31.4649197951
 13
152.1753043074
 23
31.4649197951
  0
SOLID
  8
0
 62
7
  6
CONTINUOUS
 10
152.1753043074
 20
31.3358640533
 11
151.8862417523
 21
30.5938002869
 12
152.1753043074
 22
31.4649197951
 13
152.1753043074
 23
31.4649197951
  0
SOLID
  8
0
 62
7
  6
CONTINUOUS
 10
152.1753043074
 20
31.4649197951
 11
151.8862417523
 21
30.5938002869
 12
152.1753043074
 22
32.1101937295
 13
152.1753043074
 23
32.1101937295
  0
SOLID
  8
0
 62
7
  6
CONTINUOUS
 10
151.8862417523
 20
30.5938002869
 11
151.8862417523
 21
32.1101937295
 12
152.1753043074
 22
32.1101937295
 13
152.1753043074
 23
32.1101937295
  0
SOLID
  8
0
 62
7
  6
CONTINUOUS
 10
152.1753043074
 20
31.3358640533
 11
152.1753043074
 21
30.5938002869
 12
151.8862417523
 22
30.5938002869
 13
151.8862417523
 23
30.5938002869
  0
SOLID
  8
0
 62
7
  6
CONTINUOUS
 10
153.2159293074
 20
30.5938002869
 11
153.2159293074
 21
31.2390742213
 12
153.5049916972
 22
31.2390742213
 13
153.5049916972
 23
31.2390742213
  0
SOLID
  8
0
 62
7
  6
CONTINUOUS
 10
153.5049916972
 20
31.2390742213
 11
153.5049916972
 21
30.5938002869
 12
153.2159293074
 22
30.5938002869
 13
153.2159293074
 23
30.5938002869
  0
SOLID
  8
0
 62
7
  6
CONTINUOUS
 10
154.2565543074
 20
31.5939738288
 11
154.6612419177
 21
31.6262385959
 12
155.0081169177
 22
31.6262385959
 13
155.0081169177
 23
31.6262385959
  0
SOLID
  8
0
 62
7
  6
CONTINUOUS
 10
155.0081169177
 20
31.6262385959
 11
155.3549915869
 21
31.5939738288
 12
154.2565543074
 22
31.5939738288
 13
154.2565543074
 23
31.5939738288
  0
SOLID
  8
0
 62
7
  6
CONTINUOUS
 10
154.1409294177
 20
31.5617111435
 11
154.2565543074
 21
31.5939738288
 12
155.3549915869
 22
31.5939738288
 13
155.3549915869
 23
31.5939738288
  0
SOLID
  8
0
 62
7
  6
CONTINUOUS
 10
155.3549915869
 20
31.5939738288
 11
155.5284290869
 21
31.5294468402
 12
154.1409294177
 22
31.5617111435
 13
154.1409294177
 23
31.5617111435
  0
SOLID
  8
0
 62
7
  6
CONTINUOUS
 10
154.0253041972
 20
31.4971826249
 11
154.1409294177
 21
31.5617111435
 12
155.5284290869
 22
31.5294468402
 13
155.5284290869
 23
31.5294468402
  0
SOLID
  8
0
 62
7
  6
CONTINUOUS
 10
154.0253041972
 20
31.4971826249
 11
155.5284290869
 21
31.5294468402
 12
154.6612419177
 22
31.4971826249
 13
154.6612419177
 23
31.4971826249
  0
SOLID
  8
0
 62
7
  6
CONTINUOUS
 10
154.6612419177
 20
31.4971826249
 11
155.5284290869
 21
31.5294468402
 12
155.0081169177
 22
31.4971826249
 13
155.0081169177
 23
31.4971826249
  0
SOLID
  8
0
 62
7
  6
CONTINUOUS
 10
155.0081169177
 20
31.4971826249
 11
155.5284290869
 21
31.5294468402
 12
155.239367028
 22
31.4649194065
 13
155.239367028
 23
31.4649194065
  0
SOLID
  8
0
 62
7
  6
CONTINUOUS
 10
155.5284290869
 20
31.5294468402
 11
155.6440543074
 21
31.4649194065
 12
155.239367028
 22
31.4649194065
 13
155.239367028
 23
31.4649194065
  0
SOLID
  8
0
 62
7
  6
CONTINUOUS
 10
153.9674919177
 20
31.4326554138
 11
154.0253041972
 21
31.4971826249
 12
154.6612419177
 22
31.4971826249
 13
154.6612419177
 23
31.4971826249
  0
SOLID
  8
0
 62
7
  6
CONTINUOUS
 10
155.3549915869
 20
31.4326554138
 11
155.239367028
 21
31.4649194065
 12
155.6440543074
 22
31.4649194065
 13
155.6440543074
 23
31.4649194065
  0
SOLID
  8
0
 62
7
  6
CONTINUOUS
 10
155.3549915869
 20
31.4326554138
 11
155.6440543074
 21
31.4649194065
 12
155.412804528
 22
31.3681282026
 13
155.412804528
 23
31.3681282026
  0
SOLID
  8
0
 62
7
  6
CONTINUOUS
 10
155.6440543074
 20
31.4649194065
 11
155.7018665869
 21
31.3681282026
 12
155.412804528
 22
31.3681282026
 13
155.412804528
 23
31.3681282026
  0
SOLID
  8
0
 62
7
  6
CONTINUOUS
 10
155.412804528
 20
31.2713369632
 11
155.412804528
 21
31.3681282026
 12
155.7018665869
 22
31.3681282026
 13
155.7018665869
 23
31.3681282026
  0
SOLID
  8
0
 62
7
  6
CONTINUOUS
 10
155.412804528
 20
31.2713369632
 11
155.7018665869
 21
31.3681282026
 12
155.412804528
 22
31.1422827828
 13
155.412804528
 23
31.1422827828
  0
SOLID
  8
0
 62
7
  6
CONTINUOUS
 10
155.412804528
 20
31.1422827828
 11
155.7018665869
 21
31.3681282026
 12
155.412804528
 22
30.9487004259
 13
155.412804528
 23
30.9487004259
  0
SOLID
  8
0
 62
7
  6
CONTINUOUS
 10
155.7018665869
 20
31.3681282026
 11
155.7018665869
 21
30.8519086025
 12
155.412804528
 22
30.9487004259
 13
155.412804528
 23
30.9487004259
  0
SOLID
  8
0
 62
7
  6
CONTINUOUS
 10
157.6096790869
 20
31.5939736268
 11
157.840929528
 21
31.6262383465
 12
158.0721793074
 22
31.6262383465
 13
158.0721793074
 23
31.6262383465
  0
SOLID
  8
0
 62
7
  6
CONTINUOUS
 10
158.0721793074
 20
31.6262383465
 11
158.2456168074
 21
31.5939736268
 12
157.6096790869
 22
31.5939736268
 13
157.6096790869
 23
31.5939736268
  0
SOLID
  8
0
 62
7
  6
CONTINUOUS
 10
157.4362415869
 20
31.5294472848
 11
157.6096790869
 21
31.5939736268
 12
158.2456168074
 22
31.5939736268
 13
158.2456168074
 23
31.5939736268
  0
SOLID
  8
0
 62
7
  6
CONTINUOUS
 10
158.2456168074
 20
31.5939736268
 11
158.4190543074
 21
31.5294472848
 12
157.4362415869
 22
31.5294472848
 13
157.4362415869
 23
31.5294472848
  0
SOLID
  8
0
 62
7
  6
CONTINUOUS
 10
158.4190543074
 20
31.5294472848
 11
157.840929528
 21
31.4971825369
 12
157.4362415869
 22
31.5294472848
 13
157.4362415869
 23
31.5294472848
  0
SOLID
  8
0
 62
7
  6
CONTINUOUS
 10
157.320617028
 20
31.4649199103
 11
157.4362415869
 21
31.5294472848
 12
157.840929528
 22
31.4971825369
 13
157.840929528
 23
31.4971825369
  0
SOLID
  8
0
 62
7
  6
CONTINUOUS
 10
157.840929528
 20
31.4971825369
 11
157.6096790869
 21
31.4649199103
 12
157.320617028
 22
31.4649199103
 13
157.320617028
 23
31.4649199103
  0
SOLID
  8
0
 62
7
  6
CONTINUOUS
 10
157.840929528
 20
31.4971825369
 11
158.4190543074
 21
31.5294472848
 12
158.0721793074
 22
31.4649199103
 13
158.0721793074
 23
31.4649199103
  0
SOLID
  8
0
 62
7
  6
CONTINUOUS
 10
158.4190543074
 20
31.5294472848
 11
158.534679528
 21
31.4649199103
 12
158.0721793074
 22
31.4649199103
 13
158.0721793074
 23
31.4649199103
  0
SOLID
  8
0
 62
7
  6
CONTINUOUS
 10
158.187804528
 20
31.4326554468
 11
158.0721793074
 21
31.4649199103
 12
158.534679528
 22
31.4649199103
 13
158.534679528
 23
31.4649199103
  0
SOLID
  8
0
 62
7
  6
CONTINUOUS
 10
158.187804528
 20
31.4326554468
 11
158.534679528
 21
31.4649199103
 12
158.3034290869
 22
31.3681288486
 13
158.3034290869
 23
31.3681288486
  0
SOLID
  8
0
 62
7
  6
CONTINUOUS
 10
158.534679528
 20
31.4649199103
 11
158.5924918074
 21
31.3681288486
 12
158.3034290869
 22
31.3681288486
 13
158.3034290869
 23
31.3681288486
  0
SOLID
  8
0
 62
7
  6
CONTINUOUS
 10
158.361242028
 20
31.2068093799
 11
158.3034290869
 21
31.3681288486
 12
158.5924918074
 22
31.3681288486
 13
158.5924918074
 23
31.3681288486
  0
SOLID
  8
0
 62
7
  6
CONTINUOUS
 10
158.5924918074
 20
31.3681288486
 11
158.6503040869
 21
31.2068093799
 12
158.361242028
 22
31.2068093799
 13
158.361242028
 23
31.2068093799
  0
SOLID
  8
0
 62
7
  6
CONTINUOUS
 10
157.6096790869
 20
31.4649199103
 11
157.4362415869
 21
31.4003926599
 12
157.320617028
 22
31.4649199103
 13
157.320617028
 23
31.4649199103
  0
SOLID
  8
0
 62
7
  6
CONTINUOUS
 10
157.4362415869
 20
31.4003926599
 11
157.320617028
 21
31.3358640533
 12
157.320617028
 22
31.4649199103
 13
157.320617028
 23
31.4649199103
  0
SOLID
  8
0
 62
7
  6
CONTINUOUS
 10
157.320617028
 20
31.3358640533
 11
157.0315543074
 21
30.5938003547
 12
157.320617028
 22
31.4649199103
 13
157.320617028
 23
31.4649199103
  0
SOLID
  8
0
 62
7
  6
CONTINUOUS
 10
157.320617028
 20
31.4649199103
 11
157.0315543074
 21
30.5938003547
 12
157.320617028
 22
31.6262383465
 13
157.320617028
 23
31.6262383465
  0
SOLID
  8
0
 62
7
  6
CONTINUOUS
 10
157.0315543074
 20
30.5938003547
 11
157.0315543074
 21
31.6262383465
 12
157.320617028
 22
31.6262383465
 13
157.320617028
 23
31.6262383465
  0
SOLID
  8
0
 62
7
  6
CONTINUOUS
 10
157.320617028
 20
31.3358640533
 11
157.320617028
 21
30.5938003547
 12
157.0315543074
 22
30.5938003547
 13
157.0315543074
 23
30.5938003547
  0
SOLID
  8
0
 62
7
  6
CONTINUOUS
 10
158.361242028
 20
30.5938003547
 11
158.361242028
 21
31.2068093799
 12
158.6503040869
 22
31.2068093799
 13
158.6503040869
 23
31.2068093799
  0
SOLID
  8
0
 62
7
  6
CONTINUOUS
 10
158.6503040869
 20
31.2068093799
 11
158.6503040869
 21
30.5938003547
 12
158.361242028
 22
30.5938003547
 13
158.361242028
 23
30.5938003547
  0
SOLID
  8
0
 62
7
  6
CONTINUOUS
 10
159.4596793074
 20
31.5939739474
 11
159.8065543074
 21
31.6262381969
 12
160.1534293074
 22
31.6262381969
 13
160.1534293074
 23
31.6262381969
  0
SOLID
  8
0
 62
7
  6
CONTINUOUS
 10
160.1534293074
 20
31.6262381969
 11
160.5003043074
 21
31.5939739474
 12
159.4596793074
 22
31.5939739474
 13
159.4596793074
 23
31.5939739474
  0
SOLID
  8
0
 62
7
  6
CONTINUOUS
 10
159.228429528
 20
31.5294468402
 11
159.4596793074
 21
31.5939739474
 12
160.5003043074
 22
31.5939739474
 13
160.5003043074
 23
31.5939739474
  0
SOLID
  8
0
 62
7
  6
CONTINUOUS
 10
159.228429528
 20
31.5294468402
 11
160.5003043074
 21
31.5939739304
 12
160.6737418074
 22
31.5617111435
 13
160.6737418074
 23
31.5617111435
  0
SOLID
  8
0
 62
7
  6
CONTINUOUS
 10
159.228429528
 20
31.5294468402
 11
160.6737418074
 21
31.5617111435
 12
159.8065543074
 22
31.4971825592
 13
159.8065543074
 23
31.4971825592
  0
SOLID
  8
0
 62
7
  6
CONTINUOUS
 10
159.8065543074
 20
31.4971825592
 11
160.6737418074
 21
31.5617111435
 12
160.1534293074
 22
31.4971825592
 13
160.1534293074
 23
31.4971825592
  0
SOLID
  8
0
 62
7
  6
CONTINUOUS
 10
160.6737418074
 20
31.5617111435
 11
160.8471793074
 21
31.4971825592
 12
160.1534293074
 22
31.4971825592
 13
160.1534293074
 23
31.4971825592
  0
SOLID
  8
0
 62
7
  6
CONTINUOUS
 10
160.5003043074
 20
31.4649197501
 11
160.1534293074
 21
31.4971825592
 12
160.8471793074
 22
31.4971825592
 13
160.8471793074
 23
31.4971825592
  0
SOLID
  8
0
 62
7
  6
CONTINUOUS
 10
159.1128043074
 20
31.4326555427
 11
159.228429528
 21
31.5294468402
 12
159.8065543074
 22
31.4971825592
 13
159.8065543074
 23
31.4971825592
  0
SOLID
  8
0
 62
7
  6
CONTINUOUS
 10
160.5003043074
 20
31.4649197501
 11
160.8471793074
 21
31.4971825592
 12
160.615929528
 22
31.4326555427
 13
160.615929528
 23
31.4326555427
  0
SOLID
  8
0
 62
7
  6
CONTINUOUS
 10
160.615929528
 20
31.4326555427
 11
160.8471793074
 21
31.4971825592
 12
160.6737418074
 22
31.3681283005
 13
160.6737418074
 23
31.3681283005
  0
SOLID
  8
0
 62
7
  6
CONTINUOUS
 10
160.8471793074
 20
31.4971825592
 11
160.9628038663
 21
31.3681283005
 12
160.6737418074
 22
31.3681283005
 13
160.6737418074
 23
31.3681283005
  0
SOLID
  8
0
 62
7
  6
CONTINUOUS
 10
150.2674918074
 20
31.4649197501
 11
149.7471793074
 21
31.4326554237
 12
150.498741835
 22
31.4971824493
 13
150.498741835
 23
31.4971824493
  0
SOLID
  8
0
 62
7
  6
CONTINUOUS
 10
149.7471793074
 20
31.4326554237
 11
149.8628043005
 21
31.4971824493
 12
150.498741835
 22
31.4971824493
 13
150.498741835
 23
31.4971824493
  0
SOLID
  8
0
 62
7
  6
CONTINUOUS
 10
150.2674918074
 20
31.4649197501
 11
150.1518667936
 21
31.4326554237
 12
149.7471793074
 22
31.4326554237
 13
149.7471793074
 23
31.4326554237
  0
SOLID
  8
0
 62
7
  6
CONTINUOUS
 10
149.6315543091
 20
31.3036012664
 11
149.7471793074
 21
31.4326554237
 12
150.1518667936
 22
31.4326554237
 13
150.1518667936
 23
31.4326554237
  0
SOLID
  8
0
 62
7
  6
CONTINUOUS
 10
153.9674919177
 20
31.4326554237
 11
154.6612419177
 21
31.4971825369
 12
154.4299918074
 22
31.4649197501
 13
154.4299918074
 23
31.4649197501
  0
SOLID
  8
0
 62
7
  6
CONTINUOUS
 10
154.4299918074
 20
31.4649197501
 11
154.3143669177
 21
31.4326554237
 12
153.9674919177
 22
31.4326554237
 13
153.9674919177
 23
31.4326554237
  0
SOLID
  8
0
 62
7
  6
CONTINUOUS
 10
153.9674919177
 20
31.3681283335
 11
153.9674919177
 21
31.4326554237
 12
154.3143669177
 22
31.4326554237
 13
154.3143669177
 23
31.4326554237
  0
SOLID
  8
0
 62
7
  6
CONTINUOUS
 10
154.3143669177
 20
31.4326554237
 11
154.2565543074
 21
31.3681283335
 12
153.9674919177
 22
31.3681283335
 13
153.9674919177
 23
31.3681283335
  0
SOLID
  8
0
 62
7
  6
CONTINUOUS
 10
159.1128043074
 20
31.4326555528
 11
159.8065543074
 21
31.4971825369
 12
159.575304528
 22
31.4649197501
 13
159.575304528
 23
31.4649197501
  0
SOLID
  8
0
 62
7
  6
CONTINUOUS
 10
159.575304528
 20
31.4649197501
 11
159.4596793074
 21
31.4326555528
 12
159.1128043074
 22
31.4326555528
 13
159.1128043074
 23
31.4326555528
  0
SOLID
  8
0
 62
7
  6
CONTINUOUS
 10
159.1128043074
 20
31.3681284626
 11
159.1128043074
 21
31.4326555528
 12
159.4596793074
 22
31.4326555528
 13
159.4596793074
 23
31.4326555528
  0
SOLID
  8
0
 62
7
  6
CONTINUOUS
 10
159.4596793074
 20
31.4326555528
 11
159.401867028
 21
31.3681284626
 12
159.1128043074
 22
31.3681284626
 13
159.1128043074
 23
31.3681284626
  0
SOLID
  8
0
 62
7
  6
CONTINUOUS
 10
159.228429528
 20
31.2390741763
 11
159.1128043074
 21
31.3681284626
 12
159.401867028
 22
31.3681284626
 13
159.401867028
 23
31.3681284626
  0
SOLID
  8
0
 62
7
  6
CONTINUOUS
 10
149.6315543091
 20
31.3036012664
 11
150.1518667936
 21
31.4326554468
 12
149.9784292936
 22
31.3358640533
 13
149.9784292936
 23
31.3358640533
  0
SOLID
  8
0
 62
7
  6
CONTINUOUS
 10
149.9784292936
 20
31.3358640533
 11
149.9206168074
 21
31.2713369632
 12
149.6315543091
 22
31.3036012664
 13
149.6315543091
 23
31.3036012664
  0
SOLID
  8
0
 62
7
  6
CONTINUOUS
 10
149.5737418074
 20
31.1100184796
 11
149.6315543091
 21
31.3036012664
 12
149.9206168074
 22
31.2713369632
 13
149.9206168074
 23
31.2713369632
  0
SOLID
  8
0
 62
7
  6
CONTINUOUS
 10
154.4299918074
 20
31.2390741763
 11
154.7768668074
 21
31.271336924
 12
155.412804528
 22
31.271336924
 13
155.412804528
 23
31.271336924
  0
SOLID
  8
0
 62
7
  6
CONTINUOUS
 10
154.4299918074
 20
31.2390741763
 11
155.412804528
 21
31.271336924
 12
154.1987416972
 22
31.1745462761
 13
154.1987416972
 23
31.1745462761
  0
SOLID
  8
0
 62
7
  6
CONTINUOUS
 10
154.1987416972
 20
31.1745462761
 11
155.412804528
 21
31.271336924
 12
154.7768668074
 22
31.1422827436
 13
154.7768668074
 23
31.1422827436
  0
SOLID
  8
0
 62
7
  6
CONTINUOUS
 10
155.412804528
 20
31.271336924
 11
155.412804528
 21
31.1422827436
 12
154.7768668074
 22
31.1422827436
 13
154.7768668074
 23
31.1422827436
  0
SOLID
  8
0
 62
7
  6
CONTINUOUS
 10
159.228429528
 20
31.2390745501
 11
159.401867028
 21
31.3681283566
 12
159.4596793074
 22
31.3036012664
 13
159.4596793074
 23
31.3036012664
  0
SOLID
  8
0
 62
7
  6
CONTINUOUS
 10
159.4596793074
 20
31.3036012664
 11
159.6331168074
 21
31.2390745501
 12
159.228429528
 22
31.2390745501
 13
159.228429528
 23
31.2390745501
  0
SOLID
  8
0
 62
7
  6
CONTINUOUS
 10
159.4596793074
 20
31.1422827828
 11
159.228429528
 21
31.2390745501
 12
159.6331168074
 22
31.2390745501
 13
159.6331168074
 23
31.2390745501
  0
SOLID
  8
0
 62
7
  6
CONTINUOUS
 10
159.6331168074
 20
31.2390745501
 11
160.615929528
 21
31.0777556927
 12
159.4596793074
 22
31.1422827828
 13
159.4596793074
 23
31.1422827828
  0
SOLID
  8
0
 62
7
  6
CONTINUOUS
 10
160.442492028
 20
30.9809646623
 11
159.4596793074
 21
31.1422827828
 12
160.615929528
 22
31.0777556927
 13
160.615929528
 23
31.0777556927
  0
SOLID
  8
0
 62
7
  6
CONTINUOUS
 10
160.615929528
 20
31.0777556927
 11
160.8471793074
 21
30.9809646623
 12
160.442492028
 22
30.9809646623
 13
160.442492028
 23
30.9809646623
  0
SOLID
  8
0
 62
7
  6
CONTINUOUS
 10
160.615929528
 20
30.9164372091
 11
160.442492028
 21
30.9809646623
 12
160.8471793074
 22
30.9809646623
 13
160.8471793074
 23
30.9809646623
  0
SOLID
  8
0
 62
7
  6
CONTINUOUS
 10
160.615929528
 20
30.9164372091
 11
160.8471793074
 21
30.9809646623
 12
160.6737418074
 22
30.8519089441
 13
160.6737418074
 23
30.8519089441
  0
SOLID
  8
0
 62
7
  6
CONTINUOUS
 10
160.8471793074
 20
30.9809646623
 11
160.9628038663
 21
30.8519089441
 12
160.6737418074
 22
30.8519089441
 13
160.6737418074
 23
30.8519089441
  0
SOLID
  8
0
 62
7
  6
CONTINUOUS
 10
160.615929528
 20
30.7873818593
 11
160.6737418074
 21
30.8519089441
 12
160.9628038663
 22
30.8519089441
 13
160.9628038663
 23
30.8519089441
  0
SOLID
  8
0
 62
7
  6
CONTINUOUS
 10
160.9628038663
 20
30.8519089441
 11
160.9628038663
 21
30.7873818593
 12
160.615929528
 22
30.7873818593
 13
160.615929528
 23
30.7873818593
  0
SOLID
  8
0
 62
7
  6
CONTINUOUS
 10
160.5003043074
 20
30.7551187255
 11
160.615929528
 21
30.7873818593
 12
160.9628038663
 22
30.7873818593
 13
160.9628038663
 23
30.7873818593
  0
SOLID
  8
0
 62
7
  6
CONTINUOUS
 10
160.5003043074
 20
30.7551187255
 11
160.9628038663
 21
30.7873818593
 12
160.269054528
 22
30.7228547745
 13
160.269054528
 23
30.7228547745
  0
SOLID
  8
0
 62
7
  6
CONTINUOUS
 10
160.9628038663
 20
30.7873818593
 11
160.8471793074
 21
30.6905916353
 12
160.269054528
 22
30.7228547745
 13
160.269054528
 23
30.7228547745
  0
SOLID
  8
0
 62
7
  6
CONTINUOUS
 10
160.8471793074
 20
30.6905916353
 11
159.401867028
 21
30.658327332
 12
160.269054528
 22
30.7228547745
 13
160.269054528
 23
30.7228547745
  0
SOLID
  8
0
 62
7
  6
CONTINUOUS
 10
160.269054528
 20
30.7228547745
 11
159.401867028
 21
30.658327332
 12
159.922179528
 22
30.7228547745
 13
159.922179528
 23
30.7228547745
  0
SOLID
  8
0
 62
7
  6
CONTINUOUS
 10
159.401867028
 20
30.658327332
 11
159.228429528
 21
30.7228547745
 12
159.922179528
 22
30.7228547745
 13
159.922179528
 23
30.7228547745
  0
SOLID
  8
0
 62
7
  6
CONTINUOUS
 10
159.401867028
 20
30.658327332
 11
160.8471793074
 21
30.6905916353
 12
159.575304528
 22
30.6260629858
 13
159.575304528
 23
30.6260629858
  0
SOLID
  8
0
 62
7
  6
CONTINUOUS
 10
160.8471793074
 20
30.6905916353
 11
160.615929528
 21
30.6260629858
 12
159.575304528
 22
30.6260629858
 13
159.575304528
 23
30.6260629858
  0
SOLID
  8
0
 62
7
  6
CONTINUOUS
 10
159.922179528
 20
30.5938006049
 11
159.575304528
 21
30.6260629858
 12
160.615929528
 22
30.6260629858
 13
160.615929528
 23
30.6260629858
  0
SOLID
  8
0
 62
7
  6
CONTINUOUS
 10
160.615929528
 20
30.6260629858
 11
160.269054528
 21
30.5938006049
 12
159.922179528
 22
30.5938006049
 13
159.922179528
 23
30.5938006049
  0
SOLID
  8
0
 62
7
  6
CONTINUOUS
 10
149.5737418074
 20
31.1100184796
 11
149.9206168074
 21
31.2713369632
 12
149.8628043005
 22
31.1422827828
 13
149.8628043005
 23
31.1422827828
  0
SOLID
  8
0
 62
7
  6
CONTINUOUS
 10
149.8628043005
 20
31.1422827828
 11
149.8628043005
 21
31.0454914852
 12
149.5737418074
 22
31.1100184796
 13
149.5737418074
 23
31.1100184796
  0
SOLID
  8
0
 62
7
  6
CONTINUOUS
 10
149.6315543091
 20
30.9164372091
 11
149.5737418074
 21
31.1100184796
 12
149.8628043005
 22
31.0454914852
 13
149.8628043005
 23
31.0454914852
  0
SOLID
  8
0
 62
7
  6
CONTINUOUS
 10
149.8628043005
 20
31.0454914852
 11
149.9784292936
 21
30.8841729058
 12
149.6315543091
 22
30.9164372091
 13
149.6315543091
 23
30.9164372091
  0
SOLID
  8
0
 62
7
  6
CONTINUOUS
 10
149.7471793074
 20
30.7873813202
 11
149.6315543091
 21
30.9164372091
 12
149.9784292936
 22
30.8841729058
 13
149.9784292936
 23
30.8841729058
  0
SOLID
  8
0
 62
7
  6
CONTINUOUS
 10
149.9784292936
 20
30.8841729058
 11
150.1518667936
 21
30.7873813202
 12
149.7471793074
 22
30.7873813202
 13
149.7471793074
 23
30.7873813202
  0
SOLID
  8
0
 62
7
  6
CONTINUOUS
 10
149.8628043005
 20
30.7228547004
 11
149.7471793074
 21
30.7873813202
 12
150.1518667936
 22
30.7873813202
 13
150.1518667936
 23
30.7873813202
  0
SOLID
  8
0
 62
7
  6
CONTINUOUS
 10
150.1518667936
 20
30.7873813202
 11
150.498741835
 21
30.7228547004
 12
149.8628043005
 22
30.7228547004
 13
149.8628043005
 23
30.7228547004
  0
SOLID
  8
0
 62
7
  6
CONTINUOUS
 10
150.0362418212
 20
30.658327332
 11
149.8628043005
 21
30.7228547004
 12
150.498741835
 22
30.7228547004
 13
150.498741835
 23
30.7228547004
  0
SOLID
  8
0
 62
7
  6
CONTINUOUS
 10
154.0831168074
 20
31.1100184386
 11
154.1987416972
 21
31.1745462761
 12
154.7768668074
 22
31.1422827828
 13
154.7768668074
 23
31.1422827828
  0
SOLID
  8
0
 62
7
  6
CONTINUOUS
 10
154.7768668074
 20
31.1422827828
 11
154.5456166972
 21
31.1100184386
 12
154.0831168074
 22
31.1100184386
 13
154.0831168074
 23
31.1100184386
  0
SOLID
  8
0
 62
7
  6
CONTINUOUS
 10
153.9674919177
 20
30.9809642992
 11
154.0831168074
 21
31.1100184386
 12
154.5456166972
 22
31.1100184386
 13
154.5456166972
 23
31.1100184386
  0
SOLID
  8
0
 62
7
  6
CONTINUOUS
 10
154.3143669177
 20
31.0132277988
 11
153.9674919177
 21
30.9809642992
 12
154.4299918074
 22
31.0777556927
 13
154.4299918074
 23
31.0777556927
  0
SOLID
  8
0
 62
7
  6
CONTINUOUS
 10
153.9674919177
 20
30.9809642992
 11
154.5456166972
 21
31.1100184796
 12
154.4299918074
 22
31.0777556927
 13
154.4299918074
 23
31.0777556927
  0
SOLID
  8
0
 62
7
  6
CONTINUOUS
 10
154.3143669177
 20
31.0132277988
 11
154.2565543074
 21
30.9164372091
 12
153.9674919177
 22
30.9809642992
 13
153.9674919177
 23
30.9809642992
  0
SOLID
  8
0
 62
7
  6
CONTINUOUS
 10
153.9674919177
 20
30.8841729058
 11
153.9674919177
 21
30.9809642992
 12
154.2565543074
 22
30.9164372091
 13
154.2565543074
 23
30.9164372091
  0
SOLID
  8
0
 62
7
  6
CONTINUOUS
 10
154.2565543074
 20
30.9164372091
 11
154.2565543074
 21
30.8519086025
 12
153.9674919177
 22
30.8841729058
 13
153.9674919177
 23
30.8841729058
  0
SOLID
  8
0
 62
7
  6
CONTINUOUS
 10
154.0253041972
 20
30.7551187255
 11
153.9674919177
 21
30.8841729058
 12
154.2565543074
 22
30.8519086025
 13
154.2565543074
 23
30.8519086025
  0
SOLID
  8
0
 62
7
  6
CONTINUOUS
 10
155.412804528
 20
30.9487004259
 11
155.7018665869
 21
30.8519086025
 12
155.3549915869
 22
30.8841729058
 13
155.3549915869
 23
30.8841729058
  0
SOLID
  8
0
 62
7
  6
CONTINUOUS
 10
155.1815540869
 20
30.7873815123
 11
155.3549915869
 21
30.8841729058
 12
155.7018665869
 22
30.8519086025
 13
155.7018665869
 23
30.8519086025
  0
SOLID
  8
0
 62
7
  6
CONTINUOUS
 10
155.1815540869
 20
30.7873815123
 11
155.7018665869
 21
30.8519086025
 12
155.412804528
 22
30.7551187255
 13
155.412804528
 23
30.7551187255
  0
SOLID
  8
0
 62
7
  6
CONTINUOUS
 10
155.7018665869
 20
30.8519086025
 11
155.759679528
 21
30.6905916353
 12
155.412804528
 22
30.7551187255
 13
155.412804528
 23
30.7551187255
  0
SOLID
  8
0
 62
7
  6
CONTINUOUS
 10
155.4706168074
 20
30.658327332
 11
155.412804528
 21
30.7551187255
 12
155.759679528
 22
30.6905916353
 13
155.759679528
 23
30.6905916353
  0
SOLID
  8
0
 62
7
  6
CONTINUOUS
 10
155.4706168074
 20
30.658327332
 11
155.759679528
 21
30.6905916353
 12
155.5284290869
 22
30.5938002079
 13
155.5284290869
 23
30.5938002079
  0
SOLID
  8
0
 62
7
  6
CONTINUOUS
 10
155.759679528
 20
30.6905916353
 11
155.8174918074
 21
30.5938002079
 12
155.5284290869
 22
30.5938002079
 13
155.5284290869
 23
30.5938002079
  0
SOLID
  8
0
 62
7
  6
CONTINUOUS
 10
151.0768668626
 20
30.8196456577
 11
151.1346793074
 21
30.9164373395
 12
151.4237418626
 22
30.9164373395
 13
151.4237418626
 23
30.9164373395
  0
SOLID
  8
0
 62
7
  6
CONTINUOUS
 10
151.4237418626
 20
30.9164373395
 11
151.3659292523
 21
30.7873815123
 12
151.0768668626
 22
30.8196456577
 13
151.0768668626
 23
30.8196456577
  0
SOLID
  8
0
 62
7
  6
CONTINUOUS
 10
150.9034292799
 20
30.7551187255
 11
151.0768668626
 21
30.8196456577
 12
151.3659292523
 22
30.7873815123
 13
151.3659292523
 23
30.7873815123
  0
SOLID
  8
0
 62
7
  6
CONTINUOUS
 10
150.9034292799
 20
30.7551187255
 11
151.3659292523
 21
30.7873815123
 12
150.498741835
 22
30.7228544222
 13
150.498741835
 23
30.7228544222
  0
SOLID
  8
0
 62
7
  6
CONTINUOUS
 10
151.3659292523
 20
30.7873815123
 11
151.1924917523
 21
30.6905916353
 12
150.498741835
 22
30.7228544222
 13
150.498741835
 23
30.7228544222
  0
SOLID
  8
0
 62
7
  6
CONTINUOUS
 10
150.0362418212
 20
30.658327332
 11
150.498741835
 21
30.7228544222
 12
151.1924917523
 22
30.6905916353
 13
151.1924917523
 23
30.6905916353
  0
SOLID
  8
0
 62
7
  6
CONTINUOUS
 10
150.0362418212
 20
30.658327332
 11
151.1924917523
 21
30.6905916353
 12
150.2096793212
 22
30.6260631011
 13
150.2096793212
 23
30.6260631011
  0
SOLID
  8
0
 62
7
  6
CONTINUOUS
 10
151.1924917523
 20
30.6905916353
 11
150.9612418074
 21
30.6260631011
 12
150.2096793212
 22
30.6260631011
 13
150.2096793212
 23
30.6260631011
  0
SOLID
  8
0
 62
7
  6
CONTINUOUS
 10
150.5565542799
 20
30.5938002419
 11
150.2096793212
 21
30.6260631011
 12
150.9612418074
 22
30.6260631011
 13
150.9612418074
 23
30.6260631011
  0
SOLID
  8
0
 62
7
  6
CONTINUOUS
 10
154.0253041972
 20
30.7551187255
 11
154.2565543074
 21
30.8519086025
 12
154.3143669177
 22
30.7873815123
 13
154.3143669177
 23
30.7873815123
  0
SOLID
  8
0
 62
7
  6
CONTINUOUS
 10
154.3143669177
 20
30.7873815123
 11
154.5456166972
 21
30.7228544222
 12
154.0253041972
 22
30.7551187255
 13
154.0253041972
 23
30.7551187255
  0
SOLID
  8
0
 62
7
  6
CONTINUOUS
 10
154.1987416972
 20
30.658327332
 11
154.0253041972
 21
30.7551187255
 12
154.5456166972
 22
30.7228544222
 13
154.5456166972
 23
30.7228544222
  0
SOLID
  8
0
 62
7
  6
CONTINUOUS
 10
154.8924916972
 20
30.7228544637
 11
155.1815540869
 21
30.7873815123
 12
155.412804528
 22
30.7551187255
 13
155.412804528
 23
30.7551187255
  0
SOLID
  8
0
 62
7
  6
CONTINUOUS
 10
155.412804528
 20
30.7551187255
 11
155.3549915869
 21
30.6905916353
 12
154.8924916972
 22
30.7228544637
 13
154.8924916972
 23
30.7228544637
  0
SOLID
  8
0
 62
7
  6
CONTINUOUS
 10
155.3549915869
 20
30.6905916353
 11
154.1987416972
 21
30.658327332
 12
154.8924916972
 22
30.7228544637
 13
154.8924916972
 23
30.7228544637
  0
SOLID
  8
0
 62
7
  6
CONTINUOUS
 10
154.1987416972
 20
30.658327332
 11
154.5456166972
 21
30.7228544637
 12
154.8924916972
 22
30.7228544637
 13
154.8924916972
 23
30.7228544637
  0
SOLID
  8
0
 62
7
  6
CONTINUOUS
 10
154.1987416972
 20
30.658327332
 11
155.3549915869
 21
30.6905916353
 12
154.3143669177
 22
30.6260630541
 13
154.3143669177
 23
30.6260630541
  0
SOLID
  8
0
 62
7
  6
CONTINUOUS
 10
155.3549915869
 20
30.6905916353
 11
155.1815540869
 21
30.6260630541
 12
154.3143669177
 22
30.6260630541
 13
154.3143669177
 23
30.6260630541
  0
SOLID
  8
0
 62
7
  6
CONTINUOUS
 10
154.5456166972
 20
30.5938002188
 11
154.3143669177
 21
30.6260630541
 12
155.1815540869
 22
30.6260630541
 13
155.1815540869
 23
30.6260630541
  0
SOLID
  8
0
 62
7
  6
CONTINUOUS
 10
155.1815540869
 20
30.6260630541
 11
154.8924916972
 21
30.5938002188
 12
154.5456166972
 22
30.5938002188
 13
154.5456166972
 23
30.5938002188
  0
SOLID
  8
0
 62
7
  6
CONTINUOUS
 10
159.575304528
 20
30.7551187255
 11
159.228429528
 21
30.7228544637
 12
159.4596793074
 22
30.7873815123
 13
159.4596793074
 23
30.7873815123
  0
SOLID
  8
0
 62
7
  6
CONTINUOUS
 10
159.4596793074
 20
30.7873815123
 11
159.228429528
 21
30.7228544637
 12
159.401867028
 22
30.851908644
 13
159.401867028
 23
30.851908644
  0
SOLID
  8
0
 62
7
  6
CONTINUOUS
 10
159.228429528
 20
30.7228544637
 11
159.1128043074
 21
30.851908644
 12
159.401867028
 22
30.851908644
 13
159.401867028
 23
30.851908644
  0
SOLID
  8
0
 62
7
  6
CONTINUOUS
 10
159.575304528
 20
30.7551187255
 11
159.922179528
 21
30.7228544637
 12
159.228429528
 22
30.7228544637
 13
159.228429528
 23
30.7228544637
  0
SOLID
  8
0
 62
7
  6
CONTINUOUS
 10
156.279992028
 20
30.5938002419
 11
156.279992028
 21
31.6262382337
 12
156.5690540869
 22
30.5938002419
 13
156.5690540869
 23
31.6262382337
  0
ENDBLK
  8
0
  6
BYBLOCK
 62
0
  0
BLOCK
  8
0
 62
2
  6
CONTINUOUS
  2
SYMBOL_3_BL0
 70
64
 10
32.1213064866
 20
19.8534310916
  0
TEXT
  8
0
 62
7
  6
CONTINUOUS
 10
18.3860103289
 20
19.2268451992
  7
TEXTSTYLE_3
 40
2.7338706658
  1
Ammeraal Beltech
 41
1.0
 51
15.0
 72
0
  0
TEXT
  8
0
 62
7
  6
CONTINUOUS
 10
29.1868111546
 20
16.9533085264
  7
TEXTSTYLE_4
 40
1.0935482663
  1
Innovation & Service in Belting
 41
1.0
 72
0
  0
LINE
  8
0
 62
7
  6
CONTINUOUS
 10
12.3614696776
 20
19.9934385078
 11
13.1396216709
 21
23.6543558055
  0
LINE
  8
0
 62
7
  6
CONTINUOUS
 10
23.2347899607
 20
27.3177497171
 11
13.6274394139
 21
24.1961322958
  0
LINE
  8
0
 62
7
  6
CONTINUOUS
 10
12.5867530099
 20
19.3000877048
 11
20.093828271
 21
12.5406867788
  0
LINE
  8
0
 62
7
  6
CONTINUOUS
 10
12.8492874206
 20
20.5352149982
 11
23.6575567857
 21
24.0470345971
  0
LINE
  8
0
 62
7
  6
CONTINUOUS
 10
23.6533516486
 20
13.6972460334
 11
15.2078919798
 21
21.3015720751
  0
LINE
  8
0
 62
7
  6
CONTINUOUS
 10
24.1731743684
 20
26.4728246013
 11
23.1966148312
 21
21.8784731989
  0
LINE
  8
0
 62
7
  6
CONTINUOUS
 10
22.4968128835
 20
18.5861638851
 11
21.810364672
 21
15.3566789607
  0
LINE
  8
0
 62
7
  6
CONTINUOUS
 10
24.8542704669
 20
14.087448211
 11
25.8105020025
 21
18.5861638851
  0
LINE
  8
0
 62
7
  6
CONTINUOUS
 10
26.5103039502
 20
21.8784731989
 11
26.9545457526
 21
23.9684665583
  0
LINE
  8
0
 62
7
  6
CONTINUOUS
 10
20.8069293463
 20
12.3891124661
 11
24.3664527239
 21
13.5456717207
  0
LINE
  8
0
 62
7
  6
CONTINUOUS
 10
23.9478910361
 20
27.1661754044
 11
26.7292624203
 21
24.6618173613
  0
ARC
  8
0
 62
7
  6
CONTINUOUS
 10
13.8527227462
 20
23.5027814928
 40
0.7290321776
 50
108.0
 51
168.0
  0
ARC
  8
0
 62
7
  6
CONTINUOUS
 10
23.4600732931
 20
26.624398914
 40
0.7290321776
 50
348.0
 51
108.0
  0
ARC
  8
0
 62
7
  6
CONTINUOUS
 10
26.2414446773
 20
24.120040871
 40
0.7290321776
 50
348.0
 51
48.0
  0
ARC
  8
0
 62
7
  6
CONTINUOUS
 10
20.581646014
 20
13.0824632691
 40
0.7290321776
 50
228.0
 51
288.0
  0
ARC
  8
0
 62
7
  6
CONTINUOUS
 10
13.0745707529
 20
19.8418641951
 40
0.7290321776
 50
108.0
 51
228.0
  0
ARC
  8
0
 62
7
  6
CONTINUOUS
 10
24.1411693916
 20
14.2390225237
 40
0.7290321776
 50
228.0
 51
348.0
  0
ENDBLK
  8
0
  6
BYBLOCK
 62
0
  0
ENDSEC
  0
SECTION
  2
ENTITIES
  0
TEXT
  8
0
 62
5
  6
CONTINUOUS
 10
96.0
 20
25.636
  7
TEXTSTYLE_2
 40
2.8
  1
Scale :
 41
0.6
 51
0.000019
 72
0
  0
TEXT
  8
0
 62
5
  6
CONTINUOUS
 10
116.0
 20
25.636
  7
TEXTSTYLE_2
 40
2.8
  1
Belt type:
 41
0.6
 51
0.000019
 72
0
  0
INSERT
  8
0
 62
2
  6
CONTINUOUS
  2
SYMBOL_3_BL0
 10
32.1213064866
 20
19.8534310916
  0
INSERT
  8
0
 62
2
  6
CONTINUOUS
  2
SYMBOL_8_BL1
 10
173.5956734183
 20
35.5937998301
  0
LINE
  8
0
 62
2
  6
CONTINUOUS
 10
10.0
 20
30.0
 11
200.0
 21
30.0
  0
LINE
  8
0
 62
2
  6
CONTINUOUS
 10
10.0
 20
30.0
 11
10.0
 21
10.0
  0
LINE
  8
0
 62
2
  6
CONTINUOUS
 10
10.0
 20
10.0
 11
200.0
 21
10.0
  0
LINE
  8
0
 62
2
  6
CONTINUOUS
 10
95.0
 20
30.0
 11
95.0
 21
10.0
  0
LINE
  8
0
 62
2
  6
CONTINUOUS
 10
115.0
 20
30.0
 11
115.0
 21
10.0
  0
LINE
  8
0
 62
2
  6
CONTINUOUS
 10
200.0
 20
30.0
 11
200.0
 21
10.0
  0
TEXT
  8
0
 62
5
  6
CONTINUOUS
 10
13.0
 20
23.303
  7
TEXTSTYLE_5
 40
1.52
  1
                                                                     Ammeraal Beltech Modular A/S
 41
1.0
 72
0
  0
TEXT
  8
0
 62
5
  6
CONTINUOUS
 10
13.0
 20
20.595
  7
TEXTSTYLE_5
 40
1.5
  1
                                                                      Hjulmagervej 21,  7100 Vejle,  DK
 41
1.0
 72
0
  0
TEXT
  8
0
 62
5
  6
CONTINUOUS
 10
13.0
 20
17.881
  7
TEXTSTYLE_5
 40
1.495
  1
                                                                      tel: 
 41
1.0
 72
0
  0
TEXT
  8
0
 62
5
  6
CONTINUOUS
 10
57.9869465649
 20
17.881
  7
TEXTSTYLE_5
 40
1.51
  1
+45 75723100     fax: +45 75723348
 41
1.0
 72
0
  0
TEXT
  8
0
 62
5
  6
CONTINUOUS
 10
13.0
 20
15.177
  7
TEXTSTYLE_5
 40
1.5
  1
                                                                      admin@unichains.dk  www.unichains.com
 41
1.0
 72
0
  0
TEXT
  8
0
 62
5
  6
CONTINUOUS
 10
99.75
 20
13.75
  7
TEXTSTYLE_6
 40
5.0
  1
1:1
 41
0.7
 72
1
 11
105.0
 21
13.75
  0
TEXT
  8
0
 62
5
  6
CONTINUOUS
 10
118.0
 20
13.75
  7
TEXTSTYLE_7
 40
7.5
  1
uni SNB M2 34% K600
 41
0.5375
 72
0
  0
LINE
  8
0
 62
7
  6
CONTINUOUS
 10
210.0
 20
0.0
 11
0.0
 21
0.0
  0
LINE
  8
0
 62
7
  6
CONTINUOUS
 10
10.0
 20
10.0
 11
200.0
 21
10.0
  0
LINE
  8
0
 62
7
  6
CONTINUOUS
 10
10.0
 20
30.0
 11
200.0
 21
30.0
  0
LINE
  8
0
 62
7
  6
CONTINUOUS
 10
0.0
 20
0.0
 11
0.0
 21
297.0
  0
LINE
  8
0
 62
7
  6
CONTINUOUS
 10
10.0
 20
10.0
 11
10.0
 21
287.0
  0
LINE
  8
0
 62
7
  6
CONTINUOUS
 10
200.0
 20
287.0
 11
200.0
 21
10.0
  0
LINE
  8
0
 62
7
  6
CONTINUOUS
 10
210.0
 20
0.0
 11
210.0
 21
297.0
  0
LINE
  8
0
 62
7
  6
CONTINUOUS
 10
10.0
 20
287.0
 11
200.0
 21
287.0
  0
LINE
  8
0
 62
7
  6
CONTINUOUS
 10
0.0
 20
297.0
 11
210.0
 21
297.0
  0
LINE
  8
0
 62
7
  6
CONTINUOUS
 10
57.0837209306
 20
110.1308139535
 11
74.2637209302
 21
110.1308139535
  0
LINE
  8
BLANK_CURVE
 62
7
  6
CONTINUOUS
 10
78.2947290332
 20
116.3198723633
 11
78.5955209633
 21
116.4054521883
  0
LINE
  8
1_AXIS
 62
7
  6
CONTINUOUS
 10
86.2994209046
 20
118.0163055597
 11
86.1837209302
 21
117.9904062429
  0
POLYLINE
  8
0
 62
7
  6
CONTINUOUS
 66
1
 70
0
  0
VERTEX
  8
0
 62
7
  6
CONTINUOUS
 10
78.5955209633
 20
116.4054521883
  0
VERTEX
  8
0
 62
7
  6
CONTINUOUS
 10
78.8160102528
 20
116.4472025088
  0
VERTEX
  8
0
 62
7
  6
CONTINUOUS
 10
79.0394712742
 20
116.4724051694
  0
VERTEX
  8
0
 62
7
  6
CONTINUOUS
 10
79.2637209302
 20
116.4808139535
  0
SEQEND
  0
POLYLINE
  8
0
 62
7
  6
CONTINUOUS
 66
1
 70
0
  0
VERTEX
  8
0
 62
7
  6
CONTINUOUS
 10
86.2290584304
 20
117.996347311
  0
VERTEX
  8
0
 62
7
  6
CONTINUOUS
 10
86.1711870507
 20
117.9871868639
  0
VERTEX
  8
0
 62
7
  6
CONTINUOUS
 10
86.1175646615
 20
117.9823019625
  0
VERTEX
  8
0
 62
7
  6
CONTINUOUS
 10
86.0672870046
 20
117.9808139535
  0
SEQEND
  0
LINE
  8
1_AXIS
 62
7
  6
CONTINUOUS
 10
86.1837209302
 20
117.9904062429
 11
86.1202150957
 21
117.9832148001
  0
LINE
  8
1_AXIS
 62
7
  6
CONTINUOUS
 10
86.1202150957
 20
117.9832148001
 11
86.0672715714
 21
117.9812244856
  0
LINE
  8
0
 62
7
  6
CONTINUOUS
 10
80.8837209302
 20
115.7808139535
 11
81.6837209302
 21
115.7808139535
  0
LINE
  8
0
 62
7
  6
CONTINUOUS
 10
71.2457443514
 20
116.1308139535
 11
57.0837209306
 21
116.1308139535
  0
LINE
  8
0
 62
7
  6
CONTINUOUS
 10
77.531600338
 20
116.4808139535
 11
89.8837209298
 21
116.4808139535
  0
LINE
  8
0
 62
7
  6
CONTINUOUS
 10
66.0837209302
 20
116.8308139535
 11
65.2837209302
 21
116.8308139535
  0
LINE
  8
0
 62
7
  6
CONTINUOUS
 10
86.0672870046
 20
117.9808139535
 11
76.8501548559
 21
117.9808139535
  0
POLYLINE
  8
0
 62
7
  6
CONTINUOUS
 66
1
 70
0
  0
VERTEX
  8
0
 62
7
  6
CONTINUOUS
 10
76.8501548559
 20
117.9808139535
  0
VERTEX
  8
0
 62
7
  6
CONTINUOUS
 10
76.7405867161
 20
117.9879041601
  0
VERTEX
  8
0
 62
7
  6
CONTINUOUS
 10
76.6315562474
 20
118.0093987141
  0
VERTEX
  8
0
 62
7
  6
CONTINUOUS
 10
76.5256285418
 20
118.0451924996
  0
VERTEX
  8
0
 62
7
  6
CONTINUOUS
 10
76.4252834212
 20
118.0945967317
  0
VERTEX
  8
0
 62
7
  6
CONTINUOUS
 10
76.3326239951
 20
118.1564931127
  0
VERTEX
  8
0
 62
7
  6
CONTINUOUS
 10
76.2490479472
 20
118.2297868289
  0
VERTEX
  8
0
 62
7
  6
CONTINUOUS
 10
76.1757639839
 20
118.3133427941
  0
VERTEX
  8
0
 62
7
  6
CONTINUOUS
 10
76.1138923444
 20
118.4059466685
  0
VERTEX
  8
0
 62
7
  6
CONTINUOUS
 10
76.064502678
 20
118.5062242408
  0
VERTEX
  8
0
 62
7
  6
CONTINUOUS
 10
76.0286754352
 20
118.612205981
  0
VERTEX
  8
0
 62
7
  6
CONTINUOUS
 10
76.0071944827
 20
118.7210781832
  0
VERTEX
  8
0
 62
7
  6
CONTINUOUS
 10
76.0000806038
 20
118.8308139535
  0
SEQEND
  0
POLYLINE
  8
0
 62
7
  6
CONTINUOUS
 66
1
 70
0
  0
VERTEX
  8
0
 62
7
  6
CONTINUOUS
 10
76.8503258267
 20
117.9832045859
  0
VERTEX
  8
0
 62
7
  6
CONTINUOUS
 10
76.7627839054
 20
117.9894653214
  0
VERTEX
  8
0
 62
7
  6
CONTINUOUS
 10
76.6442765218
 20
118.0152434529
  0
VERTEX
  8
0
 62
7
  6
CONTINUOUS
 10
76.5306435021
 20
118.0576238294
  0
VERTEX
  8
0
 62
7
  6
CONTINUOUS
 10
76.4241980612
 20
118.1157439792
  0
VERTEX
  8
0
 62
7
  6
CONTINUOUS
 10
76.3271071807
 20
118.1884210071
  0
VERTEX
  8
0
 62
7
  6
CONTINUOUS
 10
76.2413474891
 20
118.2741756462
  0
VERTEX
  8
0
 62
7
  6
CONTINUOUS
 10
76.1686650034
 20
118.3712623533
  0
VERTEX
  8
0
 62
7
  6
CONTINUOUS
 10
76.1105395626
 20
118.4777048349
  0
VERTEX
  8
0
 62
7
  6
CONTINUOUS
 10
76.068154682
 20
118.5913362798
  0
VERTEX
  8
0
 62
7
  6
CONTINUOUS
 10
76.0423734449
 20
118.7098434841
  0
VERTEX
  8
0
 62
7
  6
CONTINUOUS
 10
76.0337209302
 20
118.8308139535
  0
SEQEND
  0
LINE
  8
0
 62
7
  6
CONTINUOUS
 10
69.2603485306
 20
256.2664087013
 11
68.9616897673
 21
256.1075671381
  0
LINE
  8
0
 62
7
  6
CONTINUOUS
 10
68.9652912134
 20
256.1092332491
 11
68.6727128273
 21
255.9917555437
  0
POLYLINE
  8
0
 62
7
  6
CONTINUOUS
 66
1
 70
0
  0
VERTEX
  8
0
 62
7
  6
CONTINUOUS
 10
68.9616897673
 20
256.1075671381
  0
VERTEX
  8
0
 62
7
  6
CONTINUOUS
 10
68.649932201
 20
255.9840675995
  0
VERTEX
  8
0
 62
7
  6
CONTINUOUS
 10
68.3719129603
 20
255.9061739002
  0
SEQEND
  0
POLYLINE
  8
1_AXIS
 62
7
  6
CONTINUOUS
 66
1
 70
0
  0
VERTEX
  8
1_AXIS
 62
7
  6
CONTINUOUS
 10
83.8636696131
 20
120.2410558982
  0
VERTEX
  8
1_AXIS
 62
7
  6
CONTINUOUS
 10
83.7424574809
 20
120.2386206368
  0
VERTEX
  8
1_AXIS
 62
7
  6
CONTINUOUS
 10
83.654673735
 20
120.2360785068
  0
VERTEX
  8
1_AXIS
 62
7
  6
CONTINUOUS
 10
83.6015196971
 20
120.2334643478
  0
VERTEX
  8
1_AXIS
 62
7
  6
CONTINUOUS
 10
83.5837209302
 20
120.2308139535
  0
SEQEND
  0
LINE
  8
1_AXIS
 62
7
  6
CONTINUOUS
 10
84.1992869652
 20
120.2454741092
 11
83.8636696131
 21
120.2410558982
  0
LINE
  8
1_AXIS
 62
7
  6
CONTINUOUS
 10
84.8983667336
 20
120.2505371855
 11
84.1992869652
 21
120.2454741092
  0
POLYLINE
  8
1_AXIS
 62
7
  6
CONTINUOUS
 66
1
 70
0
  0
VERTEX
  8
1_AXIS
 62
7
  6
CONTINUOUS
 10
86.056415937
 20
120.2534765949
  0
VERTEX
  8
1_AXIS
 62
7
  6
CONTINUOUS
 10
85.7543215807
 20
120.2531922294
  0
VERTEX
  8
1_AXIS
 62
7
  6
CONTINUOUS
 10
84.8983667336
 20
120.2505371855
  0
SEQEND
  0
LINE
  8
1_AXIS
 62
7
  6
CONTINUOUS
 10
83.5837209302
 20
120.2308139535
 11
76.8836885648
 21
120.2308139535
  0
LINE
  8
0
 62
7
  6
CONTINUOUS
 10
89.8837209298
 20
121.7308139535
 11
81.3977579981
 21
121.7308139535
  0
LINE
  8
0
 62
7
  6
CONTINUOUS
 10
75.7216975091
 20
122.4808139535
 11
82.0337056913
 21
122.4808139535
  0
LINE
  8
0
 62
7
  6
CONTINUOUS
 10
64.9337361691
 20
122.8308139535
 11
71.2457443514
 21
122.8308139535
  0
LINE
  8
0
 62
7
  6
CONTINUOUS
 10
57.0837209306
 20
123.5808139535
 11
65.5696838623
 21
123.5808139535
  0
POLYLINE
  8
1_AXIS
 62
7
  6
CONTINUOUS
 66
1
 70
0
  0
VERTEX
  8
1_AXIS
 62
7
  6
CONTINUOUS
 10
86.056415937
 20
120.2534765949
  0
VERTEX
  8
1_AXIS
 62
7
  6
CONTINUOUS
 10
86.1202475815
 20
120.2510985242
  0
VERTEX
  8
1_AXIS
 62
7
  6
CONTINUOUS
 10
86.1837209302
 20
120.24392085
  0
SEQEND
  0
POLYLINE
  8
1_AXIS
 62
7
  6
CONTINUOUS
 66
1
 70
0
  0
VERTEX
  8
1_AXIS
 62
7
  6
CONTINUOUS
 10
60.7837209302
 20
125.0677070569
  0
VERTEX
  8
1_AXIS
 62
7
  6
CONTINUOUS
 10
60.6559200054
 20
125.0973359626
  0
VERTEX
  8
1_AXIS
 62
7
  6
CONTINUOUS
 10
60.5327437498
 20
125.1470837851
  0
VERTEX
  8
1_AXIS
 62
7
  6
CONTINUOUS
 10
60.4185811813
 20
125.2156716631
  0
VERTEX
  8
1_AXIS
 62
7
  6
CONTINUOUS
 10
60.315109706
 20
125.3027177078
  0
VERTEX
  8
1_AXIS
 62
7
  6
CONTINUOUS
 10
60.2265334803
 20
125.4053901667
  0
VERTEX
  8
1_AXIS
 62
7
  6
CONTINUOUS
 10
60.1560613626
 20
125.5195231558
  0
VERTEX
  8
1_AXIS
 62
7
  6
CONTINUOUS
 10
60.1040747665
 20
125.6442135748
  0
VERTEX
  8
1_AXIS
 62
7
  6
CONTINUOUS
 10
60.0723689696
 20
125.7759407207
  0
VERTEX
  8
1_AXIS
 62
7
  6
CONTINUOUS
 10
60.0619229549
 20
125.9089836128
  0
SEQEND
  0
POLYLINE
  8
0
 62
7
  6
CONTINUOUS
 66
1
 70
0
  0
VERTEX
  8
0
 62
7
  6
CONTINUOUS
 10
69.5037189724
 20
256.4308124835
  0
VERTEX
  8
0
 62
7
  6
CONTINUOUS
 10
69.2440228763
 20
256.2565824437
  0
VERTEX
  8
0
 62
7
  6
CONTINUOUS
 10
68.9652912134
 20
256.1092332491
  0
SEQEND
  0
POLYLINE
  8
1_AXIS
 62
7
  6
CONTINUOUS
 66
1
 70
0
  0
VERTEX
  8
1_AXIS
 62
7
  6
CONTINUOUS
 10
63.3837209302
 20
125.0808139535
  0
VERTEX
  8
1_AXIS
 62
7
  6
CONTINUOUS
 10
63.3659221636
 20
125.0781635592
  0
VERTEX
  8
1_AXIS
 62
7
  6
CONTINUOUS
 10
63.3127681262
 20
125.0755494002
  0
VERTEX
  8
1_AXIS
 62
7
  6
CONTINUOUS
 10
63.2249843808
 20
125.0730072702
  0
VERTEX
  8
1_AXIS
 62
7
  6
CONTINUOUS
 10
63.103772249
 20
125.0705720088
  0
SEQEND
  0
LINE
  8
1_AXIS
 62
7
  6
CONTINUOUS
 10
60.7837209302
 20
127.321221664
 11
60.8472306408
 21
127.3284133988
  0
LINE
  8
1_AXIS
 62
7
  6
CONTINUOUS
 10
60.8472306408
 20
127.3284133988
 11
60.9001702872
 21
127.3304034463
  0
LINE
  8
1_AXIS
 62
7
  6
CONTINUOUS
 10
63.103772249
 20
125.0705720088
 11
62.7681548962
 21
125.0661537978
  0
LINE
  8
1_AXIS
 62
7
  6
CONTINUOUS
 10
62.7681548962
 20
125.0661537978
 11
62.3242543367
 21
125.0625358902
  0
LINE
  8
1_AXIS
 62
7
  6
CONTINUOUS
 10
62.3242543367
 20
125.0625358902
 11
61.5096796203
 21
125.0590265036
  0
LINE
  8
1_AXIS
 62
7
  6
CONTINUOUS
 10
61.5096796203
 20
125.0590265036
 11
60.9110259235
 21
125.0581513121
  0
LINE
  8
1_AXIS
 62
7
  6
CONTINUOUS
 10
63.3837209302
 20
125.0808139535
 11
70.0837532956
 21
125.0808139535
  0
LINE
  8
0
 62
7
  6
CONTINUOUS
 10
60.9001548559
 20
127.3308139535
 11
70.1172870046
 21
127.3308139535
  0
LINE
  8
0
 62
7
  6
CONTINUOUS
 10
80.8837209302
 20
128.4808139535
 11
81.6837209302
 21
128.4808139535
  0
LINE
  8
0
 62
7
  6
CONTINUOUS
 10
71.2457443514
 20
128.8308139535
 11
57.0837209306
 21
128.8308139535
  0
LINE
  8
0
 62
7
  6
CONTINUOUS
 10
75.7216975091
 20
129.1808139535
 11
89.8837209298
 21
129.1808139535
  0
POLYLINE
  8
1_AXIS
 62
7
  6
CONTINUOUS
 66
1
 70
0
  0
VERTEX
  8
1_AXIS
 62
7
  6
CONTINUOUS
 10
60.9110259235
 20
125.0581513121
  0
VERTEX
  8
1_AXIS
 62
7
  6
CONTINUOUS
 10
60.8471998074
 20
125.0605289678
  0
VERTEX
  8
1_AXIS
 62
7
  6
CONTINUOUS
 10
60.7837209302
 20
125.0677070569
  0
SEQEND
  0
POLYLINE
  8
0
 62
7
  6
CONTINUOUS
 66
1
 70
0
  0
VERTEX
  8
0
 62
7
  6
CONTINUOUS
 10
70.1172870046
 20
127.3308139535
  0
VERTEX
  8
0
 62
7
  6
CONTINUOUS
 10
70.2268551443
 20
127.3237237469
  0
VERTEX
  8
0
 62
7
  6
CONTINUOUS
 10
70.335885613
 20
127.3022291929
  0
VERTEX
  8
0
 62
7
  6
CONTINUOUS
 10
70.4418133186
 20
127.2664354074
  0
VERTEX
  8
0
 62
7
  6
CONTINUOUS
 10
70.5421584393
 20
127.2170311752
  0
VERTEX
  8
0
 62
7
  6
CONTINUOUS
 10
70.6348178654
 20
127.1551347942
  0
VERTEX
  8
0
 62
7
  6
CONTINUOUS
 10
70.7183939133
 20
127.0818410781
  0
VERTEX
  8
0
 62
7
  6
CONTINUOUS
 10
70.7916778766
 20
126.9982851128
  0
VERTEX
  8
0
 62
7
  6
CONTINUOUS
 10
70.853549516
 20
126.9056812385
  0
VERTEX
  8
0
 62
7
  6
CONTINUOUS
 10
70.9029391825
 20
126.8054036662
  0
VERTEX
  8
0
 62
7
  6
CONTINUOUS
 10
70.9387664253
 20
126.699421926
  0
VERTEX
  8
0
 62
7
  6
CONTINUOUS
 10
70.9602473778
 20
126.5905497237
  0
VERTEX
  8
0
 62
7
  6
CONTINUOUS
 10
70.9673612567
 20
126.4808139535
  0
SEQEND
  0
POLYLINE
  8
0
 62
7
  6
CONTINUOUS
 66
1
 70
0
  0
VERTEX
  8
0
 62
7
  6
CONTINUOUS
 10
70.1171160337
 20
127.3284233211
  0
VERTEX
  8
0
 62
7
  6
CONTINUOUS
 10
70.2046579551
 20
127.3221625856
  0
VERTEX
  8
0
 62
7
  6
CONTINUOUS
 10
70.3231653387
 20
127.2963844541
  0
VERTEX
  8
0
 62
7
  6
CONTINUOUS
 10
70.4367983584
 20
127.2540040776
  0
VERTEX
  8
0
 62
7
  6
CONTINUOUS
 10
70.5432437993
 20
127.1958839277
  0
VERTEX
  8
0
 62
7
  6
CONTINUOUS
 10
70.6403346798
 20
127.1232068998
  0
VERTEX
  8
0
 62
7
  6
CONTINUOUS
 10
70.7260943714
 20
127.0374522608
  0
VERTEX
  8
0
 62
7
  6
CONTINUOUS
 10
70.798776857
 20
126.9403655537
  0
VERTEX
  8
0
 62
7
  6
CONTINUOUS
 10
70.8569022979
 20
126.8339230721
  0
VERTEX
  8
0
 62
7
  6
CONTINUOUS
 10
70.8992871784
 20
126.7202916272
  0
VERTEX
  8
0
 62
7
  6
CONTINUOUS
 10
70.9250684156
 20
126.6017844229
  0
VERTEX
  8
0
 62
7
  6
CONTINUOUS
 10
70.9337209302
 20
126.4808139535
  0
SEQEND
  0
POLYLINE
  8
1_AXIS
 62
7
  6
CONTINUOUS
 66
1
 70
0
  0
VERTEX
  8
1_AXIS
 62
7
  6
CONTINUOUS
 10
86.1837209302
 20
120.24392085
  0
VERTEX
  8
1_AXIS
 62
7
  6
CONTINUOUS
 10
86.2992486372
 20
120.2180583426
  0
VERTEX
  8
1_AXIS
 62
7
  6
CONTINUOUS
 10
86.4110354158
 20
120.1758828028
  0
VERTEX
  8
1_AXIS
 62
7
  6
CONTINUOUS
 10
86.5160351581
 20
120.1182326596
  0
VERTEX
  8
1_AXIS
 62
7
  6
CONTINUOUS
 10
86.6128240144
 20
120.0455242273
  0
VERTEX
  8
1_AXIS
 62
7
  6
CONTINUOUS
 10
86.6989423553
 20
119.959027428
  0
VERTEX
  8
1_AXIS
 62
7
  6
CONTINUOUS
 10
86.7715263904
 20
119.8614990702
  0
VERTEX
  8
1_AXIS
 62
7
  6
CONTINUOUS
 10
86.8290460505
 20
119.7555837924
  0
VERTEX
  8
1_AXIS
 62
7
  6
CONTINUOUS
 10
86.8714045781
 20
119.6414085328
  0
VERTEX
  8
1_AXIS
 62
7
  6
CONTINUOUS
 10
86.8970738573
 20
119.5223369842
  0
VERTEX
  8
1_AXIS
 62
7
  6
CONTINUOUS
 10
86.9055189056
 20
119.4026442942
  0
SEQEND
  0
POLYLINE
  8
0
 62
7
  6
CONTINUOUS
 66
1
 70
0
  0
VERTEX
  8
0
 62
7
  6
CONTINUOUS
 10
69.5037209302
 20
256.4308139535
  0
VERTEX
  8
0
 62
7
  6
CONTINUOUS
 10
69.7425838293
 20
256.630153839
  0
VERTEX
  8
0
 62
7
  6
CONTINUOUS
 10
69.959722325
 20
256.8533309811
  0
VERTEX
  8
0
 62
7
  6
CONTINUOUS
 10
70.1525349744
 20
257.097840326
  0
VERTEX
  8
0
 62
7
  6
CONTINUOUS
 10
70.3189337669
 20
257.3609153806
  0
VERTEX
  8
0
 62
7
  6
CONTINUOUS
 10
70.4571636685
 20
257.63981423
  0
VERTEX
  8
0
 62
7
  6
CONTINUOUS
 10
70.5657772746
 20
257.9316302176
  0
SEQEND
  0
LINE
  8
1_AXIS
 62
7
  6
CONTINUOUS
 10
60.6557240937
 20
127.2915498745
 11
60.7837209302
 21
127.321221664
  0
POLYLINE
  8
0
 62
7
  6
CONTINUOUS
 66
1
 70
0
  0
VERTEX
  8
0
 62
7
  6
CONTINUOUS
 10
60.7383834301
 20
127.315280596
  0
VERTEX
  8
0
 62
7
  6
CONTINUOUS
 10
60.7962713928
 20
127.3244430849
  0
VERTEX
  8
0
 62
7
  6
CONTINUOUS
 10
60.8498975308
 20
127.3293271487
  0
VERTEX
  8
0
 62
7
  6
CONTINUOUS
 10
60.9001548559
 20
127.3308139535
  0
SEQEND
  0
POLYLINE
  8
1_AXIS
 62
7
  6
CONTINUOUS
 66
1
 70
0
  0
VERTEX
  8
1_AXIS
 62
7
  6
CONTINUOUS
 10
86.1837209302
 20
131.0177070569
  0
VERTEX
  8
1_AXIS
 62
7
  6
CONTINUOUS
 10
86.1202475815
 20
131.0105293827
  0
VERTEX
  8
1_AXIS
 62
7
  6
CONTINUOUS
 10
86.056415937
 20
131.0081513121
  0
SEQEND
  0
POLYLINE
  8
0
 62
7
  6
CONTINUOUS
 66
1
 70
0
  0
VERTEX
  8
0
 62
7
  6
CONTINUOUS
 10
76.8836885648
 20
133.3308139535
  0
VERTEX
  8
0
 62
7
  6
CONTINUOUS
 10
76.762725345
 20
133.3221630487
  0
VERTEX
  8
0
 62
7
  6
CONTINUOUS
 10
76.6442242376
 20
133.2963860279
  0
VERTEX
  8
0
 62
7
  6
CONTINUOUS
 10
76.5305975675
 20
133.2540070654
  0
VERTEX
  8
0
 62
7
  6
CONTINUOUS
 10
76.4241586288
 20
133.1958884443
  0
VERTEX
  8
0
 62
7
  6
CONTINUOUS
 10
76.3270744995
 20
133.1232130658
  0
VERTEX
  8
0
 62
7
  6
CONTINUOUS
 10
76.2413218179
 20
133.0374603842
  0
VERTEX
  8
0
 62
7
  6
CONTINUOUS
 10
76.1686464394
 20
132.9403762549
  0
VERTEX
  8
0
 62
7
  6
CONTINUOUS
 10
76.1105278183
 20
132.8339373162
  0
VERTEX
  8
0
 62
7
  6
CONTINUOUS
 10
76.0681488558
 20
132.7203106461
  0
VERTEX
  8
0
 62
7
  6
CONTINUOUS
 10
76.042371835
 20
132.6018095387
  0
VERTEX
  8
0
 62
7
  6
CONTINUOUS
 10
76.0337209302
 20
132.4808463189
  0
SEQEND
  0
POLYLINE
  8
1_AXIS
 62
7
  6
CONTINUOUS
 66
1
 70
0
  0
VERTEX
  8
1_AXIS
 62
7
  6
CONTINUOUS
 10
83.8636696131
 20
133.3410558982
  0
VERTEX
  8
1_AXIS
 62
7
  6
CONTINUOUS
 10
83.7424574809
 20
133.3386206368
  0
VERTEX
  8
1_AXIS
 62
7
  6
CONTINUOUS
 10
83.654673735
 20
133.3360785068
  0
VERTEX
  8
1_AXIS
 62
7
  6
CONTINUOUS
 10
83.6015196971
 20
133.3334643478
  0
VERTEX
  8
1_AXIS
 62
7
  6
CONTINUOUS
 10
83.5837209302
 20
133.3308139535
  0
SEQEND
  0
LINE
  8
1_AXIS
 62
7
  6
CONTINUOUS
 10
84.1992869652
 20
133.3454741092
 11
83.8636696131
 21
133.3410558982
  0
LINE
  8
1_AXIS
 62
7
  6
CONTINUOUS
 10
84.8983667336
 20
133.3505371855
 11
84.1992869652
 21
133.3454741092
  0
POLYLINE
  8
1_AXIS
 62
7
  6
CONTINUOUS
 66
1
 70
0
  0
VERTEX
  8
1_AXIS
 62
7
  6
CONTINUOUS
 10
86.056415937
 20
133.3534765949
  0
VERTEX
  8
1_AXIS
 62
7
  6
CONTINUOUS
 10
85.7543215807
 20
133.3531922294
  0
VERTEX
  8
1_AXIS
 62
7
  6
CONTINUOUS
 10
84.8983667336
 20
133.3505371855
  0
SEQEND
  0
LINE
  8
0
 62
7
  6
CONTINUOUS
 10
66.0837209302
 20
129.5308139535
 11
65.2837209302
 21
129.5308139535
  0
LINE
  8
1_AXIS
 62
7
  6
CONTINUOUS
 10
83.5837209302
 20
131.0308139535
 11
76.8836885648
 21
131.0308139535
  0
LINE
  8
1_AXIS
 62
7
  6
CONTINUOUS
 10
76.8836885648
 20
133.3308139535
 11
83.5837209302
 21
133.3308139535
  0
LINE
  8
1_AXIS
 62
7
  6
CONTINUOUS
 10
86.056415937
 20
131.0081513121
 11
85.171136273
 21
131.0099155697
  0
LINE
  8
1_AXIS
 62
7
  6
CONTINUOUS
 10
85.171136273
 20
131.0099155697
 11
84.6431875227
 21
131.0125358902
  0
LINE
  8
1_AXIS
 62
7
  6
CONTINUOUS
 10
84.6431875227
 20
131.0125358902
 11
84.1992869652
 21
131.0161537978
  0
POLYLINE
  8
1_AXIS
 62
7
  6
CONTINUOUS
 66
1
 70
0
  0
VERTEX
  8
1_AXIS
 62
7
  6
CONTINUOUS
 10
84.1992869652
 20
131.0161537978
  0
VERTEX
  8
1_AXIS
 62
7
  6
CONTINUOUS
 10
83.8636696131
 20
131.0205720088
  0
VERTEX
  8
1_AXIS
 62
7
  6
CONTINUOUS
 10
83.7424574809
 20
131.0230072702
  0
VERTEX
  8
1_AXIS
 62
7
  6
CONTINUOUS
 10
83.654673735
 20
131.0255494002
  0
VERTEX
  8
1_AXIS
 62
7
  6
CONTINUOUS
 10
83.6015196971
 20
131.0281635592
  0
VERTEX
  8
1_AXIS
 62
7
  6
CONTINUOUS
 10
83.5837209302
 20
131.0308139535
  0
SEQEND
  0
POLYLINE
  8
1_AXIS
 62
7
  6
CONTINUOUS
 66
1
 70
0
  0
VERTEX
  8
1_AXIS
 62
7
  6
CONTINUOUS
 10
86.056415937
 20
133.3534765949
  0
VERTEX
  8
1_AXIS
 62
7
  6
CONTINUOUS
 10
86.1202465682
 20
133.3510986003
  0
VERTEX
  8
1_AXIS
 62
7
  6
CONTINUOUS
 10
86.1837209302
 20
133.34392085
  0
SEQEND
  0
POLYLINE
  8
1_AXIS
 62
7
  6
CONTINUOUS
 66
1
 70
0
  0
VERTEX
  8
1_AXIS
 62
7
  6
CONTINUOUS
 10
63.3837209302
 20
137.3808139535
  0
VERTEX
  8
1_AXIS
 62
7
  6
CONTINUOUS
 10
63.3659221636
 20
137.3781635592
  0
VERTEX
  8
1_AXIS
 62
7
  6
CONTINUOUS
 10
63.3127681262
 20
137.3755494002
  0
VERTEX
  8
1_AXIS
 62
7
  6
CONTINUOUS
 10
63.2249843808
 20
137.3730072702
  0
VERTEX
  8
1_AXIS
 62
7
  6
CONTINUOUS
 10
63.103772249
 20
137.3705720088
  0
SEQEND
  0
POLYLINE
  8
0
 62
7
  6
CONTINUOUS
 66
1
 70
0
  0
VERTEX
  8
0
 62
7
  6
CONTINUOUS
 10
70.0837532956
 20
137.3808139535
  0
VERTEX
  8
0
 62
7
  6
CONTINUOUS
 10
70.2047165154
 20
137.3894648583
  0
VERTEX
  8
0
 62
7
  6
CONTINUOUS
 10
70.3232176229
 20
137.415241879
  0
VERTEX
  8
0
 62
7
  6
CONTINUOUS
 10
70.436844293
 20
137.4576208416
  0
VERTEX
  8
0
 62
7
  6
CONTINUOUS
 10
70.5432832317
 20
137.5157394626
  0
VERTEX
  8
0
 62
7
  6
CONTINUOUS
 10
70.640367361
 20
137.5884148412
  0
VERTEX
  8
0
 62
7
  6
CONTINUOUS
 10
70.7261200426
 20
137.6741675227
  0
VERTEX
  8
0
 62
7
  6
CONTINUOUS
 10
70.7987954211
 20
137.7712516521
  0
VERTEX
  8
0
 62
7
  6
CONTINUOUS
 10
70.8569140422
 20
137.8776905908
  0
VERTEX
  8
0
 62
7
  6
CONTINUOUS
 10
70.8992930047
 20
137.9913172609
  0
VERTEX
  8
0
 62
7
  6
CONTINUOUS
 10
70.9250700254
 20
138.1098183683
  0
VERTEX
  8
0
 62
7
  6
CONTINUOUS
 10
70.9337209302
 20
138.2307815881
  0
SEQEND
  0
LINE
  8
1_AXIS
 62
7
  6
CONTINUOUS
 10
63.103772249
 20
137.3705720088
 11
62.7681548962
 21
137.3661537978
  0
LINE
  8
1_AXIS
 62
7
  6
CONTINUOUS
 10
62.7681548962
 20
137.3661537978
 11
62.3242543367
 21
137.3625358902
  0
LINE
  8
1_AXIS
 62
7
  6
CONTINUOUS
 10
62.3242543367
 20
137.3625358902
 11
61.5096796203
 21
137.3590265036
  0
LINE
  8
1_AXIS
 62
7
  6
CONTINUOUS
 10
61.5096796203
 20
137.3590265036
 11
60.9110259235
 21
137.3581513121
  0
LINE
  8
0
 62
7
  6
CONTINUOUS
 10
89.8837209298
 20
135.1808139535
 11
75.7216975091
 21
135.1808139535
  0
LINE
  8
0
 62
7
  6
CONTINUOUS
 10
57.0837209306
 20
135.5308139535
 11
71.2457443513
 21
135.5308139535
  0
LINE
  8
1_AXIS
 62
7
  6
CONTINUOUS
 10
70.0837532956
 20
137.3808139535
 11
63.3837209302
 21
137.3808139535
  0
LINE
  8
1_AXIS
 62
7
  6
CONTINUOUS
 10
63.3837209302
 20
139.6808139535
 11
70.0837532956
 21
139.6808139535
  0
LINE
  8
1_AXIS
 62
7
  6
CONTINUOUS
 10
62.0690751249
 20
139.7005371855
 11
60.9110259235
 21
139.7034765949
  0
LINE
  8
1_AXIS
 62
7
  6
CONTINUOUS
 10
62.7681548962
 20
139.6954741091
 11
62.0690751249
 21
139.7005371855
  0
POLYLINE
  8
1_AXIS
 62
7
  6
CONTINUOUS
 66
1
 70
0
  0
VERTEX
  8
1_AXIS
 62
7
  6
CONTINUOUS
 10
60.9110259235
 20
137.3581513121
  0
VERTEX
  8
1_AXIS
 62
7
  6
CONTINUOUS
 10
60.8471998129
 20
137.3605289674
  0
VERTEX
  8
1_AXIS
 62
7
  6
CONTINUOUS
 10
60.7837209302
 20
137.3677070569
  0
SEQEND
  0
POLYLINE
  8
1_AXIS
 62
7
  6
CONTINUOUS
 66
1
 70
0
  0
VERTEX
  8
1_AXIS
 62
7
  6
CONTINUOUS
 10
63.3837209302
 20
139.6808139535
  0
VERTEX
  8
1_AXIS
 62
7
  6
CONTINUOUS
 10
63.3659221636
 20
139.6834643478
  0
VERTEX
  8
1_AXIS
 62
7
  6
CONTINUOUS
 10
63.3127681262
 20
139.6860785068
  0
VERTEX
  8
1_AXIS
 62
7
  6
CONTINUOUS
 10
63.2249843808
 20
139.6886206368
  0
VERTEX
  8
1_AXIS
 62
7
  6
CONTINUOUS
 10
63.103772249
 20
139.6910558982
  0
VERTEX
  8
1_AXIS
 62
7
  6
CONTINUOUS
 10
62.7681548962
 20
139.6954741091
  0
SEQEND
  0
POLYLINE
  8
1_AXIS
 62
7
  6
CONTINUOUS
 66
1
 70
0
  0
VERTEX
  8
1_AXIS
 62
7
  6
CONTINUOUS
 10
86.1837209302
 20
133.34392085
  0
VERTEX
  8
1_AXIS
 62
7
  6
CONTINUOUS
 10
86.2992673775
 20
133.3180527464
  0
VERTEX
  8
1_AXIS
 62
7
  6
CONTINUOUS
 10
86.4110846845
 20
133.2758601237
  0
VERTEX
  8
1_AXIS
 62
7
  6
CONTINUOUS
 10
86.5160774547
 20
133.2182053771
  0
VERTEX
  8
1_AXIS
 62
7
  6
CONTINUOUS
 10
86.6128180022
 20
133.1455294544
  0
VERTEX
  8
1_AXIS
 62
7
  6
CONTINUOUS
 10
86.6989301612
 20
133.0590415767
  0
VERTEX
  8
1_AXIS
 62
7
  6
CONTINUOUS
 10
86.7715271362
 20
132.9614979024
  0
VERTEX
  8
1_AXIS
 62
7
  6
CONTINUOUS
 10
86.8290420526
 20
132.8555925852
  0
VERTEX
  8
1_AXIS
 62
7
  6
CONTINUOUS
 10
86.8713889362
 20
132.7414621556
  0
VERTEX
  8
1_AXIS
 62
7
  6
CONTINUOUS
 10
86.8970662626
 20
132.6223905317
  0
VERTEX
  8
1_AXIS
 62
7
  6
CONTINUOUS
 10
86.9055189056
 20
132.5026442942
  0
SEQEND
  0
POLYLINE
  8
1_AXIS
 62
7
  6
CONTINUOUS
 66
1
 70
0
  0
VERTEX
  8
1_AXIS
 62
7
  6
CONTINUOUS
 10
60.7837209302
 20
137.3677070569
  0
VERTEX
  8
1_AXIS
 62
7
  6
CONTINUOUS
 10
60.6558999637
 20
137.3973422798
  0
VERTEX
  8
1_AXIS
 62
7
  6
CONTINUOUS
 10
60.5326956136
 20
137.4471077765
  0
VERTEX
  8
1_AXIS
 62
7
  6
CONTINUOUS
 10
60.4185644265
 20
137.5156836155
  0
VERTEX
  8
1_AXIS
 62
7
  6
CONTINUOUS
 10
60.3151239319
 20
137.6027036598
  0
VERTEX
  8
1_AXIS
 62
7
  6
CONTINUOUS
 10
60.2265412908
 20
137.7053794997
  0
VERTEX
  8
1_AXIS
 62
7
  6
CONTINUOUS
 10
60.1560625922
 20
137.819520761
  0
VERTEX
  8
1_AXIS
 62
7
  6
CONTINUOUS
 10
60.104089675
 20
137.9441679364
  0
VERTEX
  8
1_AXIS
 62
7
  6
CONTINUOUS
 10
60.0723779412
 20
138.0758839451
  0
VERTEX
  8
1_AXIS
 62
7
  6
CONTINUOUS
 10
60.0619229549
 20
138.2089836128
  0
SEQEND
  0
LINE
  8
0
 62
7
  6
CONTINUOUS
 10
71.8914286335
 20
122.5944184374
 11
72.2618105172
 21
122.281233057
  0
LINE
  8
0
 62
7
  6
CONTINUOUS
 10
75.076013227
 20
122.7172094696
 11
74.7056313432
 21
123.03039485
  0
POLYLINE
  8
1_AXIS
 62
7
  6
CONTINUOUS
 66
1
 70
0
  0
VERTEX
  8
1_AXIS
 62
7
  6
CONTINUOUS
 10
60.7837209302
 20
139.69392085
  0
VERTEX
  8
1_AXIS
 62
7
  6
CONTINUOUS
 10
60.8471998074
 20
139.7010989392
  0
VERTEX
  8
1_AXIS
 62
7
  6
CONTINUOUS
 10
60.9110259235
 20
139.7034765949
  0
SEQEND
  0
POLYLINE
  8
1_AXIS
 62
7
  6
CONTINUOUS
 66
1
 70
0
  0
VERTEX
  8
1_AXIS
 62
7
  6
CONTINUOUS
 10
86.1837209302
 20
143.7177070569
  0
VERTEX
  8
1_AXIS
 62
7
  6
CONTINUOUS
 10
86.1202475815
 20
143.7105293827
  0
VERTEX
  8
1_AXIS
 62
7
  6
CONTINUOUS
 10
86.056415937
 20
143.7081513121
  0
SEQEND
  0
LINE
  8
0
 62
7
  6
CONTINUOUS
 10
71.2457443514
 20
141.5308139535
 11
57.0837209306
 21
141.5308139535
  0
LINE
  8
0
 62
7
  6
CONTINUOUS
 10
75.7216975091
 20
141.8808139535
 11
89.8837209298
 21
141.8808139535
  0
LINE
  8
1_AXIS
 62
7
  6
CONTINUOUS
 10
83.5837209302
 20
143.7308139535
 11
76.8836885648
 21
143.7308139535
  0
LINE
  8
1_AXIS
 62
7
  6
CONTINUOUS
 10
86.056415937
 20
143.7081513121
 11
85.171136273
 21
143.7099155697
  0
LINE
  8
1_AXIS
 62
7
  6
CONTINUOUS
 10
85.171136273
 20
143.7099155697
 11
84.6431875227
 21
143.7125358902
  0
LINE
  8
1_AXIS
 62
7
  6
CONTINUOUS
 10
84.6431875227
 20
143.7125358902
 11
84.1992869652
 21
143.7161537978
  0
POLYLINE
  8
1_AXIS
 62
7
  6
CONTINUOUS
 66
1
 70
0
  0
VERTEX
  8
1_AXIS
 62
7
  6
CONTINUOUS
 10
84.1992869652
 20
143.7161537978
  0
VERTEX
  8
1_AXIS
 62
7
  6
CONTINUOUS
 10
83.8636696131
 20
143.7205720088
  0
VERTEX
  8
1_AXIS
 62
7
  6
CONTINUOUS
 10
83.7424574809
 20
143.7230072702
  0
VERTEX
  8
1_AXIS
 62
7
  6
CONTINUOUS
 10
83.654673735
 20
143.7255494002
  0
VERTEX
  8
1_AXIS
 62
7
  6
CONTINUOUS
 10
83.6015196971
 20
143.7281635592
  0
VERTEX
  8
1_AXIS
 62
7
  6
CONTINUOUS
 10
83.5837209302
 20
143.7308139535
  0
SEQEND
  0
POLYLINE
  8
0
 62
7
  6
CONTINUOUS
 66
1
 70
0
  0
VERTEX
  8
0
 62
7
  6
CONTINUOUS
 10
76.8836885648
 20
146.0308139535
  0
VERTEX
  8
0
 62
7
  6
CONTINUOUS
 10
76.762725345
 20
146.0221630487
  0
VERTEX
  8
0
 62
7
  6
CONTINUOUS
 10
76.6442242376
 20
145.9963860279
  0
VERTEX
  8
0
 62
7
  6
CONTINUOUS
 10
76.5305975675
 20
145.9540070654
  0
VERTEX
  8
0
 62
7
  6
CONTINUOUS
 10
76.4241586288
 20
145.8958884443
  0
VERTEX
  8
0
 62
7
  6
CONTINUOUS
 10
76.3270744995
 20
145.8232130658
  0
VERTEX
  8
0
 62
7
  6
CONTINUOUS
 10
76.2413218179
 20
145.7374603842
  0
VERTEX
  8
0
 62
7
  6
CONTINUOUS
 10
76.1686464394
 20
145.6403762549
  0
VERTEX
  8
0
 62
7
  6
CONTINUOUS
 10
76.1105278183
 20
145.5339373162
  0
VERTEX
  8
0
 62
7
  6
CONTINUOUS
 10
76.0681488558
 20
145.4203106461
  0
VERTEX
  8
0
 62
7
  6
CONTINUOUS
 10
76.042371835
 20
145.3018095387
  0
VERTEX
  8
0
 62
7
  6
CONTINUOUS
 10
76.0337209302
 20
145.1808463189
  0
SEQEND
  0
POLYLINE
  8
1_AXIS
 62
7
  6
CONTINUOUS
 66
1
 70
0
  0
VERTEX
  8
1_AXIS
 62
7
  6
CONTINUOUS
 10
83.8636696131
 20
146.0410558982
  0
VERTEX
  8
1_AXIS
 62
7
  6
CONTINUOUS
 10
83.7424574809
 20
146.0386206368
  0
VERTEX
  8
1_AXIS
 62
7
  6
CONTINUOUS
 10
83.654673735
 20
146.0360785068
  0
VERTEX
  8
1_AXIS
 62
7
  6
CONTINUOUS
 10
83.6015196971
 20
146.0334643478
  0
VERTEX
  8
1_AXIS
 62
7
  6
CONTINUOUS
 10
83.5837209302
 20
146.0308139535
  0
SEQEND
  0
LINE
  8
1_AXIS
 62
7
  6
CONTINUOUS
 10
84.1992869652
 20
146.0454741092
 11
83.8636696131
 21
146.0410558982
  0
LINE
  8
1_AXIS
 62
7
  6
CONTINUOUS
 10
63.103772249
 20
150.0705720088
 11
62.7681548962
 21
150.0661537978
  0
LINE
  8
1_AXIS
 62
7
  6
CONTINUOUS
 10
62.7681548962
 20
150.0661537978
 11
62.3242543367
 21
150.0625358902
  0
LINE
  8
1_AXIS
 62
7
  6
CONTINUOUS
 10
84.8983667336
 20
146.0505371855
 11
84.1992869652
 21
146.0454741092
  0
LINE
  8
1_AXIS
 62
7
  6
CONTINUOUS
 10
62.3242543367
 20
150.0625358902
 11
61.5096796203
 21
150.0590265036
  0
POLYLINE
  8
1_AXIS
 62
7
  6
CONTINUOUS
 66
1
 70
0
  0
VERTEX
  8
1_AXIS
 62
7
  6
CONTINUOUS
 10
86.056415937
 20
146.0534765949
  0
VERTEX
  8
1_AXIS
 62
7
  6
CONTINUOUS
 10
85.7543215807
 20
146.0531922294
  0
VERTEX
  8
1_AXIS
 62
7
  6
CONTINUOUS
 10
84.8983667336
 20
146.0505371855
  0
SEQEND
  0
LINE
  8
1_AXIS
 62
7
  6
CONTINUOUS
 10
61.5096796203
 20
150.0590265036
 11
60.9110259235
 21
150.0581513121
  0
LINE
  8
1_AXIS
 62
7
  6
CONTINUOUS
 10
76.8836885648
 20
146.0308139535
 11
83.5837209302
 21
146.0308139535
  0
LINE
  8
0
 62
7
  6
CONTINUOUS
 10
89.8837209298
 20
147.8808139535
 11
75.7216975091
 21
147.8808139535
  0
LINE
  8
0
 62
7
  6
CONTINUOUS
 10
57.0837209306
 20
148.2308139535
 11
71.2457443514
 21
148.2308139535
  0
LINE
  8
1_AXIS
 62
7
  6
CONTINUOUS
 10
70.0837532956
 20
150.0808139535
 11
63.3837209302
 21
150.0808139535
  0
POLYLINE
  8
1_AXIS
 62
7
  6
CONTINUOUS
 66
1
 70
0
  0
VERTEX
  8
1_AXIS
 62
7
  6
CONTINUOUS
 10
86.056415937
 20
146.0534765949
  0
VERTEX
  8
1_AXIS
 62
7
  6
CONTINUOUS
 10
86.1202465682
 20
146.0510986003
  0
VERTEX
  8
1_AXIS
 62
7
  6
CONTINUOUS
 10
86.1837209302
 20
146.04392085
  0
SEQEND
  0
POLYLINE
  8
1_AXIS
 62
7
  6
CONTINUOUS
 66
1
 70
0
  0
VERTEX
  8
1_AXIS
 62
7
  6
CONTINUOUS
 10
60.9110259235
 20
150.0581513121
  0
VERTEX
  8
1_AXIS
 62
7
  6
CONTINUOUS
 10
60.8471998129
 20
150.0605289674
  0
VERTEX
  8
1_AXIS
 62
7
  6
CONTINUOUS
 10
60.7837209302
 20
150.0677070569
  0
SEQEND
  0
POLYLINE
  8
1_AXIS
 62
7
  6
CONTINUOUS
 66
1
 70
0
  0
VERTEX
  8
1_AXIS
 62
7
  6
CONTINUOUS
 10
86.1837209302
 20
146.04392085
  0
VERTEX
  8
1_AXIS
 62
7
  6
CONTINUOUS
 10
86.2992673775
 20
146.0180527464
  0
VERTEX
  8
1_AXIS
 62
7
  6
CONTINUOUS
 10
86.4110846845
 20
145.9758601237
  0
VERTEX
  8
1_AXIS
 62
7
  6
CONTINUOUS
 10
86.5160774547
 20
145.9182053771
  0
VERTEX
  8
1_AXIS
 62
7
  6
CONTINUOUS
 10
86.6128180022
 20
145.8455294544
  0
VERTEX
  8
1_AXIS
 62
7
  6
CONTINUOUS
 10
86.6989301612
 20
145.7590415767
  0
VERTEX
  8
1_AXIS
 62
7
  6
CONTINUOUS
 10
86.7715271362
 20
145.6614979024
  0
VERTEX
  8
1_AXIS
 62
7
  6
CONTINUOUS
 10
86.8290420526
 20
145.5555925852
  0
VERTEX
  8
1_AXIS
 62
7
  6
CONTINUOUS
 10
86.8713889362
 20
145.4414621556
  0
VERTEX
  8
1_AXIS
 62
7
  6
CONTINUOUS
 10
86.8970662626
 20
145.3223905317
  0
VERTEX
  8
1_AXIS
 62
7
  6
CONTINUOUS
 10
86.9055189056
 20
145.2026442942
  0
SEQEND
  0
POLYLINE
  8
1_AXIS
 62
7
  6
CONTINUOUS
 66
1
 70
0
  0
VERTEX
  8
1_AXIS
 62
7
  6
CONTINUOUS
 10
60.7837209302
 20
150.0677070569
  0
VERTEX
  8
1_AXIS
 62
7
  6
CONTINUOUS
 10
60.6558999637
 20
150.0973422798
  0
VERTEX
  8
1_AXIS
 62
7
  6
CONTINUOUS
 10
60.5326956136
 20
150.1471077765
  0
VERTEX
  8
1_AXIS
 62
7
  6
CONTINUOUS
 10
60.4185644265
 20
150.2156836155
  0
VERTEX
  8
1_AXIS
 62
7
  6
CONTINUOUS
 10
60.3151239319
 20
150.3027036598
  0
VERTEX
  8
1_AXIS
 62
7
  6
CONTINUOUS
 10
60.2265412908
 20
150.4053794997
  0
VERTEX
  8
1_AXIS
 62
7
  6
CONTINUOUS
 10
60.1560625922
 20
150.519520761
  0
VERTEX
  8
1_AXIS
 62
7
  6
CONTINUOUS
 10
60.104089675
 20
150.6441679364
  0
VERTEX
  8
1_AXIS
 62
7
  6
CONTINUOUS
 10
60.0723779412
 20
150.7758839451
  0
VERTEX
  8
1_AXIS
 62
7
  6
CONTINUOUS
 10
60.0619229549
 20
150.9089836128
  0
SEQEND
  0
POLYLINE
  8
1_AXIS
 62
7
  6
CONTINUOUS
 66
1
 70
0
  0
VERTEX
  8
1_AXIS
 62
7
  6
CONTINUOUS
 10
63.3837209302
 20
150.0808139535
  0
VERTEX
  8
1_AXIS
 62
7
  6
CONTINUOUS
 10
63.3659221636
 20
150.0781635592
  0
VERTEX
  8
1_AXIS
 62
7
  6
CONTINUOUS
 10
63.3127681262
 20
150.0755494002
  0
VERTEX
  8
1_AXIS
 62
7
  6
CONTINUOUS
 10
63.2249843808
 20
150.0730072702
  0
VERTEX
  8
1_AXIS
 62
7
  6
CONTINUOUS
 10
63.103772249
 20
150.0705720088
  0
SEQEND
  0
POLYLINE
  8
1_AXIS
 62
7
  6
CONTINUOUS
 66
1
 70
0
  0
VERTEX
  8
1_AXIS
 62
7
  6
CONTINUOUS
 10
60.7837209302
 20
152.39392085
  0
VERTEX
  8
1_AXIS
 62
7
  6
CONTINUOUS
 10
60.8471998074
 20
152.4010989392
  0
VERTEX
  8
1_AXIS
 62
7
  6
CONTINUOUS
 10
60.9110259235
 20
152.4034765949
  0
SEQEND
  0
POLYLINE
  8
1_AXIS
 62
7
  6
CONTINUOUS
 66
1
 70
0
  0
VERTEX
  8
1_AXIS
 62
7
  6
CONTINUOUS
 10
86.1837209302
 20
156.4177070569
  0
VERTEX
  8
1_AXIS
 62
7
  6
CONTINUOUS
 10
86.1202475815
 20
156.4105293827
  0
VERTEX
  8
1_AXIS
 62
7
  6
CONTINUOUS
 10
86.056415937
 20
156.4081513121
  0
SEQEND
  0
POLYLINE
  8
0
 62
7
  6
CONTINUOUS
 66
1
 70
0
  0
VERTEX
  8
0
 62
7
  6
CONTINUOUS
 10
70.0837532956
 20
150.0808139535
  0
VERTEX
  8
0
 62
7
  6
CONTINUOUS
 10
70.2047165154
 20
150.0894648583
  0
VERTEX
  8
0
 62
7
  6
CONTINUOUS
 10
70.3232176229
 20
150.115241879
  0
VERTEX
  8
0
 62
7
  6
CONTINUOUS
 10
70.436844293
 20
150.1576208416
  0
VERTEX
  8
0
 62
7
  6
CONTINUOUS
 10
70.5432832317
 20
150.2157394626
  0
VERTEX
  8
0
 62
7
  6
CONTINUOUS
 10
70.640367361
 20
150.2884148412
  0
VERTEX
  8
0
 62
7
  6
CONTINUOUS
 10
70.7261200426
 20
150.3741675227
  0
VERTEX
  8
0
 62
7
  6
CONTINUOUS
 10
70.7987954211
 20
150.4712516521
  0
VERTEX
  8
0
 62
7
  6
CONTINUOUS
 10
70.8569140422
 20
150.5776905908
  0
VERTEX
  8
0
 62
7
  6
CONTINUOUS
 10
70.8992930047
 20
150.6913172609
  0
VERTEX
  8
0
 62
7
  6
CONTINUOUS
 10
70.9250700254
 20
150.8098183683
  0
VERTEX
  8
0
 62
7
  6
CONTINUOUS
 10
70.9337209302
 20
150.9307815881
  0
SEQEND
  0
LINE
  8
1_AXIS
 62
7
  6
CONTINUOUS
 10
63.3837209302
 20
152.3808139535
 11
70.0837532956
 21
152.3808139535
  0
LINE
  8
0
 62
7
  6
CONTINUOUS
 10
71.2457443514
 20
154.2308139535
 11
57.0837209306
 21
154.2308139535
  0
LINE
  8
0
 62
7
  6
CONTINUOUS
 10
75.7216975091
 20
154.5808139535
 11
89.8837209298
 21
154.5808139535
  0
LINE
  8
1_AXIS
 62
7
  6
CONTINUOUS
 10
62.0690751249
 20
152.4005371855
 11
60.9110259235
 21
152.4034765949
  0
LINE
  8
1_AXIS
 62
7
  6
CONTINUOUS
 10
62.7681548962
 20
152.3954741091
 11
62.0690751249
 21
152.4005371855
  0
POLYLINE
  8
1_AXIS
 62
7
  6
CONTINUOUS
 66
1
 70
0
  0
VERTEX
  8
1_AXIS
 62
7
  6
CONTINUOUS
 10
63.3837209302
 20
152.3808139535
  0
VERTEX
  8
1_AXIS
 62
7
  6
CONTINUOUS
 10
63.3659221636
 20
152.3834643478
  0
VERTEX
  8
1_AXIS
 62
7
  6
CONTINUOUS
 10
63.3127681262
 20
152.3860785068
  0
VERTEX
  8
1_AXIS
 62
7
  6
CONTINUOUS
 10
63.2249843808
 20
152.3886206368
  0
VERTEX
  8
1_AXIS
 62
7
  6
CONTINUOUS
 10
63.103772249
 20
152.3910558982
  0
VERTEX
  8
1_AXIS
 62
7
  6
CONTINUOUS
 10
62.7681548962
 20
152.3954741091
  0
SEQEND
  0
POLYLINE
  8
0
 62
7
  6
CONTINUOUS
 66
1
 70
0
  0
VERTEX
  8
0
 62
7
  6
CONTINUOUS
 10
76.8836885648
 20
158.7308139535
  0
VERTEX
  8
0
 62
7
  6
CONTINUOUS
 10
76.762725345
 20
158.7221630487
  0
VERTEX
  8
0
 62
7
  6
CONTINUOUS
 10
76.6442242376
 20
158.6963860279
  0
VERTEX
  8
0
 62
7
  6
CONTINUOUS
 10
76.5305975675
 20
158.6540070654
  0
VERTEX
  8
0
 62
7
  6
CONTINUOUS
 10
76.4241586288
 20
158.5958884443
  0
VERTEX
  8
0
 62
7
  6
CONTINUOUS
 10
76.3270744995
 20
158.5232130658
  0
VERTEX
  8
0
 62
7
  6
CONTINUOUS
 10
76.2413218179
 20
158.4374603842
  0
VERTEX
  8
0
 62
7
  6
CONTINUOUS
 10
76.1686464394
 20
158.3403762549
  0
VERTEX
  8
0
 62
7
  6
CONTINUOUS
 10
76.1105278183
 20
158.2339373162
  0
VERTEX
  8
0
 62
7
  6
CONTINUOUS
 10
76.0681488558
 20
158.1203106461
  0
VERTEX
  8
0
 62
7
  6
CONTINUOUS
 10
76.042371835
 20
158.0018095387
  0
VERTEX
  8
0
 62
7
  6
CONTINUOUS
 10
76.0337209302
 20
157.8808463189
  0
SEQEND
  0
POLYLINE
  8
1_AXIS
 62
7
  6
CONTINUOUS
 66
1
 70
0
  0
VERTEX
  8
1_AXIS
 62
7
  6
CONTINUOUS
 10
83.8636696131
 20
158.7410558982
  0
VERTEX
  8
1_AXIS
 62
7
  6
CONTINUOUS
 10
83.7424574809
 20
158.7386206368
  0
VERTEX
  8
1_AXIS
 62
7
  6
CONTINUOUS
 10
83.654673735
 20
158.7360785068
  0
VERTEX
  8
1_AXIS
 62
7
  6
CONTINUOUS
 10
83.6015196971
 20
158.7334643478
  0
VERTEX
  8
1_AXIS
 62
7
  6
CONTINUOUS
 10
83.5837209302
 20
158.7308139535
  0
SEQEND
  0
LINE
  8
1_AXIS
 62
7
  6
CONTINUOUS
 10
84.1992869652
 20
158.7454741092
 11
83.8636696131
 21
158.7410558982
  0
LINE
  8
1_AXIS
 62
7
  6
CONTINUOUS
 10
84.8983667336
 20
158.7505371855
 11
84.1992869652
 21
158.7454741092
  0
POLYLINE
  8
1_AXIS
 62
7
  6
CONTINUOUS
 66
1
 70
0
  0
VERTEX
  8
1_AXIS
 62
7
  6
CONTINUOUS
 10
86.056415937
 20
158.7534765949
  0
VERTEX
  8
1_AXIS
 62
7
  6
CONTINUOUS
 10
85.7543215807
 20
158.7531922294
  0
VERTEX
  8
1_AXIS
 62
7
  6
CONTINUOUS
 10
84.8983667336
 20
158.7505371855
  0
SEQEND
  0
LINE
  8
1_AXIS
 62
7
  6
CONTINUOUS
 10
83.5837209302
 20
156.4308139535
 11
76.8836885648
 21
156.4308139535
  0
LINE
  8
1_AXIS
 62
7
  6
CONTINUOUS
 10
76.8836885648
 20
158.7308139535
 11
83.5837209302
 21
158.7308139535
  0
LINE
  8
0
 62
7
  6
CONTINUOUS
 10
89.8837209298
 20
160.5808139535
 11
75.7216975091
 21
160.5808139535
  0
LINE
  8
1_AXIS
 62
7
  6
CONTINUOUS
 10
86.056415937
 20
156.4081513121
 11
85.171136273
 21
156.4099155697
  0
LINE
  8
1_AXIS
 62
7
  6
CONTINUOUS
 10
85.171136273
 20
156.4099155697
 11
84.6431875227
 21
156.4125358902
  0
LINE
  8
1_AXIS
 62
7
  6
CONTINUOUS
 10
84.6431875227
 20
156.4125358902
 11
84.1992869652
 21
156.4161537978
  0
POLYLINE
  8
1_AXIS
 62
7
  6
CONTINUOUS
 66
1
 70
0
  0
VERTEX
  8
1_AXIS
 62
7
  6
CONTINUOUS
 10
84.1992869652
 20
156.4161537978
  0
VERTEX
  8
1_AXIS
 62
7
  6
CONTINUOUS
 10
83.8636696131
 20
156.4205720088
  0
VERTEX
  8
1_AXIS
 62
7
  6
CONTINUOUS
 10
83.7424574809
 20
156.4230072702
  0
VERTEX
  8
1_AXIS
 62
7
  6
CONTINUOUS
 10
83.654673735
 20
156.4255494002
  0
VERTEX
  8
1_AXIS
 62
7
  6
CONTINUOUS
 10
83.6015196971
 20
156.4281635592
  0
VERTEX
  8
1_AXIS
 62
7
  6
CONTINUOUS
 10
83.5837209302
 20
156.4308139535
  0
SEQEND
  0
POLYLINE
  8
1_AXIS
 62
7
  6
CONTINUOUS
 66
1
 70
0
  0
VERTEX
  8
1_AXIS
 62
7
  6
CONTINUOUS
 10
86.056415937
 20
158.7534765949
  0
VERTEX
  8
1_AXIS
 62
7
  6
CONTINUOUS
 10
86.1202465682
 20
158.7510986003
  0
VERTEX
  8
1_AXIS
 62
7
  6
CONTINUOUS
 10
86.1837209302
 20
158.74392085
  0
SEQEND
  0
POLYLINE
  8
1_AXIS
 62
7
  6
CONTINUOUS
 66
1
 70
0
  0
VERTEX
  8
1_AXIS
 62
7
  6
CONTINUOUS
 10
60.7837209302
 20
162.7677070569
  0
VERTEX
  8
1_AXIS
 62
7
  6
CONTINUOUS
 10
60.6558999637
 20
162.7973422798
  0
VERTEX
  8
1_AXIS
 62
7
  6
CONTINUOUS
 10
60.5326956136
 20
162.8471077765
  0
VERTEX
  8
1_AXIS
 62
7
  6
CONTINUOUS
 10
60.4185644265
 20
162.9156836155
  0
VERTEX
  8
1_AXIS
 62
7
  6
CONTINUOUS
 10
60.3151239319
 20
163.0027036598
  0
VERTEX
  8
1_AXIS
 62
7
  6
CONTINUOUS
 10
60.2265412908
 20
163.1053794997
  0
VERTEX
  8
1_AXIS
 62
7
  6
CONTINUOUS
 10
60.1560625922
 20
163.219520761
  0
VERTEX
  8
1_AXIS
 62
7
  6
CONTINUOUS
 10
60.104089675
 20
163.3441679364
  0
VERTEX
  8
1_AXIS
 62
7
  6
CONTINUOUS
 10
60.0723779412
 20
163.4758839451
  0
VERTEX
  8
1_AXIS
 62
7
  6
CONTINUOUS
 10
60.0619229549
 20
163.6089836128
  0
SEQEND
  0
POLYLINE
  8
0
 62
7
  6
CONTINUOUS
 66
1
 70
0
  0
VERTEX
  8
0
 62
7
  6
CONTINUOUS
 10
70.5657772746
 20
257.9316302176
  0
VERTEX
  8
0
 62
7
  6
CONTINUOUS
 10
70.5965536774
 20
258.0361567101
  0
VERTEX
  8
0
 62
7
  6
CONTINUOUS
 10
70.623507402
 20
258.1417225517
  0
SEQEND
  0
POLYLINE
  8
1_AXIS
 62
7
  6
CONTINUOUS
 66
1
 70
0
  0
VERTEX
  8
1_AXIS
 62
7
  6
CONTINUOUS
 10
63.3837209302
 20
162.7808139535
  0
VERTEX
  8
1_AXIS
 62
7
  6
CONTINUOUS
 10
63.3659221636
 20
162.7781635592
  0
VERTEX
  8
1_AXIS
 62
7
  6
CONTINUOUS
 10
63.3127681262
 20
162.7755494002
  0
VERTEX
  8
1_AXIS
 62
7
  6
CONTINUOUS
 10
63.2249843808
 20
162.7730072702
  0
VERTEX
  8
1_AXIS
 62
7
  6
CONTINUOUS
 10
63.103772249
 20
162.7705720088
  0
SEQEND
  0
POLYLINE
  8
0
 62
7
  6
CONTINUOUS
 66
1
 70
0
  0
VERTEX
  8
0
 62
7
  6
CONTINUOUS
 10
70.0837532956
 20
162.7808139535
  0
VERTEX
  8
0
 62
7
  6
CONTINUOUS
 10
70.2047165154
 20
162.7894648583
  0
VERTEX
  8
0
 62
7
  6
CONTINUOUS
 10
70.3232176229
 20
162.815241879
  0
VERTEX
  8
0
 62
7
  6
CONTINUOUS
 10
70.436844293
 20
162.8576208416
  0
VERTEX
  8
0
 62
7
  6
CONTINUOUS
 10
70.5432832317
 20
162.9157394626
  0
VERTEX
  8
0
 62
7
  6
CONTINUOUS
 10
70.640367361
 20
162.9884148412
  0
VERTEX
  8
0
 62
7
  6
CONTINUOUS
 10
70.7261200426
 20
163.0741675227
  0
VERTEX
  8
0
 62
7
  6
CONTINUOUS
 10
70.7987954211
 20
163.1712516521
  0
VERTEX
  8
0
 62
7
  6
CONTINUOUS
 10
70.8569140422
 20
163.2776905908
  0
VERTEX
  8
0
 62
7
  6
CONTINUOUS
 10
70.8992930047
 20
163.3913172609
  0
VERTEX
  8
0
 62
7
  6
CONTINUOUS
 10
70.9250700254
 20
163.5098183683
  0
VERTEX
  8
0
 62
7
  6
CONTINUOUS
 10
70.9337209302
 20
163.6307815881
  0
SEQEND
  0
LINE
  8
1_AXIS
 62
7
  6
CONTINUOUS
 10
63.103772249
 20
162.7705720088
 11
62.7681548962
 21
162.7661537978
  0
LINE
  8
1_AXIS
 62
7
  6
CONTINUOUS
 10
62.7681548962
 20
162.7661537978
 11
62.3242543367
 21
162.7625358902
  0
LINE
  8
1_AXIS
 62
7
  6
CONTINUOUS
 10
62.3242543367
 20
162.7625358902
 11
61.5096796203
 21
162.7590265036
  0
LINE
  8
1_AXIS
 62
7
  6
CONTINUOUS
 10
61.5096796203
 20
162.7590265036
 11
60.9110259235
 21
162.7581513121
  0
LINE
  8
0
 62
7
  6
CONTINUOUS
 10
57.0837209306
 20
160.9308139535
 11
71.2457443514
 21
160.9308139535
  0
LINE
  8
1_AXIS
 62
7
  6
CONTINUOUS
 10
70.0837532956
 20
162.7808139535
 11
63.3837209302
 21
162.7808139535
  0
LINE
  8
1_AXIS
 62
7
  6
CONTINUOUS
 10
63.3837209302
 20
165.0808139535
 11
70.0837532956
 21
165.0808139535
  0
LINE
  8
1_AXIS
 62
7
  6
CONTINUOUS
 10
62.0690751249
 20
165.1005371855
 11
60.9110259235
 21
165.1034765949
  0
LINE
  8
1_AXIS
 62
7
  6
CONTINUOUS
 10
62.7681548962
 20
165.0954741091
 11
62.0690751249
 21
165.1005371855
  0
POLYLINE
  8
1_AXIS
 62
7
  6
CONTINUOUS
 66
1
 70
0
  0
VERTEX
  8
1_AXIS
 62
7
  6
CONTINUOUS
 10
60.9110259235
 20
162.7581513121
  0
VERTEX
  8
1_AXIS
 62
7
  6
CONTINUOUS
 10
60.8471998129
 20
162.7605289674
  0
VERTEX
  8
1_AXIS
 62
7
  6
CONTINUOUS
 10
60.7837209302
 20
162.7677070569
  0
SEQEND
  0
POLYLINE
  8
1_AXIS
 62
7
  6
CONTINUOUS
 66
1
 70
0
  0
VERTEX
  8
1_AXIS
 62
7
  6
CONTINUOUS
 10
63.3837209302
 20
165.0808139535
  0
VERTEX
  8
1_AXIS
 62
7
  6
CONTINUOUS
 10
63.3659221636
 20
165.0834643478
  0
VERTEX
  8
1_AXIS
 62
7
  6
CONTINUOUS
 10
63.3127681262
 20
165.0860785068
  0
VERTEX
  8
1_AXIS
 62
7
  6
CONTINUOUS
 10
63.2249843808
 20
165.0886206368
  0
VERTEX
  8
1_AXIS
 62
7
  6
CONTINUOUS
 10
63.103772249
 20
165.0910558982
  0
VERTEX
  8
1_AXIS
 62
7
  6
CONTINUOUS
 10
62.7681548962
 20
165.0954741091
  0
SEQEND
  0
POLYLINE
  8
1_AXIS
 62
7
  6
CONTINUOUS
 66
1
 70
0
  0
VERTEX
  8
1_AXIS
 62
7
  6
CONTINUOUS
 10
86.1837209302
 20
158.74392085
  0
VERTEX
  8
1_AXIS
 62
7
  6
CONTINUOUS
 10
86.2992673775
 20
158.7180527464
  0
VERTEX
  8
1_AXIS
 62
7
  6
CONTINUOUS
 10
86.4110846845
 20
158.6758601237
  0
VERTEX
  8
1_AXIS
 62
7
  6
CONTINUOUS
 10
86.5160774547
 20
158.6182053771
  0
VERTEX
  8
1_AXIS
 62
7
  6
CONTINUOUS
 10
86.6128180022
 20
158.5455294544
  0
VERTEX
  8
1_AXIS
 62
7
  6
CONTINUOUS
 10
86.6989301612
 20
158.4590415767
  0
VERTEX
  8
1_AXIS
 62
7
  6
CONTINUOUS
 10
86.7715271362
 20
158.3614979024
  0
VERTEX
  8
1_AXIS
 62
7
  6
CONTINUOUS
 10
86.8290420526
 20
158.2555925852
  0
VERTEX
  8
1_AXIS
 62
7
  6
CONTINUOUS
 10
86.8713889362
 20
158.1414621556
  0
VERTEX
  8
1_AXIS
 62
7
  6
CONTINUOUS
 10
86.8970662626
 20
158.0223905317
  0
VERTEX
  8
1_AXIS
 62
7
  6
CONTINUOUS
 10
86.9055189056
 20
157.9026442942
  0
SEQEND
  0
LINE
  8
2_FEATURE
 62
7
  6
CONTINUOUS
 10
56.2337209302
 20
110.9808139535
 11
56.2337209302
 21
115.2808139535
  0
LINE
  8
2_FEATURE
 62
7
  6
CONTINUOUS
 10
56.2337209302
 20
124.4308139535
 11
56.2337209302
 21
127.9808139535
  0
LINE
  8
2_FEATURE
 62
7
  6
CONTINUOUS
 10
56.2337209302
 20
136.3808139535
 11
56.2337209302
 21
140.6808139535
  0
LINE
  8
2_FEATURE
 62
7
  6
CONTINUOUS
 10
56.2337209302
 20
149.0808139535
 11
56.2337209302
 21
153.3808139535
  0
LINE
  8
2_FEATURE
 62
7
  6
CONTINUOUS
 10
56.2337209302
 20
161.7808139535
 11
56.2337209302
 21
166.0808139535
  0
LINE
  8
2_FEATURE
 62
7
  6
CONTINUOUS
 10
56.2337209302
 20
174.4808139535
 11
56.2337209302
 21
178.7808139535
  0
LINE
  8
2_FEATURE
 62
7
  6
CONTINUOUS
 10
56.2337209302
 20
187.1808139535
 11
56.2337209302
 21
191.4808139535
  0
LINE
  8
2_FEATURE
 62
7
  6
CONTINUOUS
 10
56.2337209302
 20
199.8808139535
 11
56.2337209302
 21
204.1808139535
  0
LINE
  8
2_FEATURE
 62
7
  6
CONTINUOUS
 10
56.2337209302
 20
212.5808139535
 11
56.2337209302
 21
216.8808139535
  0
LINE
  8
2_FEATURE
 62
7
  6
CONTINUOUS
 10
56.2337209302
 20
225.2808139535
 11
56.2337209302
 21
229.5808139535
  0
LINE
  8
2_FEATURE
 62
7
  6
CONTINUOUS
 10
56.2337209302
 20
237.9808139535
 11
56.2337209302
 21
242.2808139535
  0
LINE
  8
2_FEATURE
 62
7
  6
CONTINUOUS
 10
56.2337209302
 20
251.4308139535
 11
56.2337209302
 21
254.9808139535
  0
POLYLINE
  8
1_AXIS
 62
7
  6
CONTINUOUS
 66
1
 70
0
  0
VERTEX
  8
1_AXIS
 62
7
  6
CONTINUOUS
 10
60.0619229549
 20
253.4808139535
  0
VERTEX
  8
1_AXIS
 62
7
  6
CONTINUOUS
 10
60.0723669576
 20
253.6138137115
  0
VERTEX
  8
1_AXIS
 62
7
  6
CONTINUOUS
 10
60.1040458435
 20
253.7453856842
  0
VERTEX
  8
1_AXIS
 62
7
  6
CONTINUOUS
 10
60.1559699121
 20
253.8698680045
  0
VERTEX
  8
1_AXIS
 62
7
  6
CONTINUOUS
 10
60.2263895792
 20
253.9838397514
  0
VERTEX
  8
1_AXIS
 62
7
  6
CONTINUOUS
 10
60.3149154475
 20
254.0863642216
  0
VERTEX
  8
1_AXIS
 62
7
  6
CONTINUOUS
 10
60.4183224831
 20
254.1732754208
  0
VERTEX
  8
1_AXIS
 62
7
  6
CONTINUOUS
 10
60.5324556322
 20
254.2417913641
  0
VERTEX
  8
1_AXIS
 62
7
  6
CONTINUOUS
 10
60.6557240937
 20
254.2915498745
  0
SEQEND
  0
POLYLINE
  8
1_AXIS
 62
7
  6
CONTINUOUS
 66
1
 70
0
  0
VERTEX
  8
1_AXIS
 62
7
  6
CONTINUOUS
 10
60.0619229549
 20
240.4526442942
  0
VERTEX
  8
1_AXIS
 62
7
  6
CONTINUOUS
 10
60.0723689696
 20
240.5856871863
  0
VERTEX
  8
1_AXIS
 62
7
  6
CONTINUOUS
 10
60.1040747665
 20
240.7174143322
  0
VERTEX
  8
1_AXIS
 62
7
  6
CONTINUOUS
 10
60.1560613626
 20
240.8421047512
  0
VERTEX
  8
1_AXIS
 62
7
  6
CONTINUOUS
 10
60.2265334803
 20
240.9562377403
  0
VERTEX
  8
1_AXIS
 62
7
  6
CONTINUOUS
 10
60.315109706
 20
241.0589101992
  0
VERTEX
  8
1_AXIS
 62
7
  6
CONTINUOUS
 10
60.4185811813
 20
241.1459562439
  0
VERTEX
  8
1_AXIS
 62
7
  6
CONTINUOUS
 10
60.5327437498
 20
241.2145441218
  0
VERTEX
  8
1_AXIS
 62
7
  6
CONTINUOUS
 10
60.6559200054
 20
241.2642919444
  0
VERTEX
  8
1_AXIS
 62
7
  6
CONTINUOUS
 10
60.7837209302
 20
241.29392085
  0
SEQEND
  0
POLYLINE
  8
1_AXIS
 62
7
  6
CONTINUOUS
 66
1
 70
0
  0
VERTEX
  8
1_AXIS
 62
7
  6
CONTINUOUS
 10
60.0619229549
 20
227.7526442942
  0
VERTEX
  8
1_AXIS
 62
7
  6
CONTINUOUS
 10
60.0723689696
 20
227.8856871863
  0
VERTEX
  8
1_AXIS
 62
7
  6
CONTINUOUS
 10
60.1040747665
 20
228.0174143322
  0
VERTEX
  8
1_AXIS
 62
7
  6
CONTINUOUS
 10
60.1560613626
 20
228.1421047512
  0
VERTEX
  8
1_AXIS
 62
7
  6
CONTINUOUS
 10
60.2265334803
 20
228.2562377403
  0
VERTEX
  8
1_AXIS
 62
7
  6
CONTINUOUS
 10
60.315109706
 20
228.3589101992
  0
VERTEX
  8
1_AXIS
 62
7
  6
CONTINUOUS
 10
60.4185811813
 20
228.4459562439
  0
VERTEX
  8
1_AXIS
 62
7
  6
CONTINUOUS
 10
60.5327437498
 20
228.5145441218
  0
VERTEX
  8
1_AXIS
 62
7
  6
CONTINUOUS
 10
60.6559200054
 20
228.5642919444
  0
VERTEX
  8
1_AXIS
 62
7
  6
CONTINUOUS
 10
60.7837209302
 20
228.59392085
  0
SEQEND
  0
POLYLINE
  8
1_AXIS
 62
7
  6
CONTINUOUS
 66
1
 70
0
  0
VERTEX
  8
1_AXIS
 62
7
  6
CONTINUOUS
 10
60.0619229549
 20
215.0526442942
  0
VERTEX
  8
1_AXIS
 62
7
  6
CONTINUOUS
 10
60.0723689696
 20
215.1856871863
  0
VERTEX
  8
1_AXIS
 62
7
  6
CONTINUOUS
 10
60.1040747665
 20
215.3174143322
  0
VERTEX
  8
1_AXIS
 62
7
  6
CONTINUOUS
 10
60.1560613626
 20
215.4421047512
  0
VERTEX
  8
1_AXIS
 62
7
  6
CONTINUOUS
 10
60.2265334803
 20
215.5562377403
  0
VERTEX
  8
1_AXIS
 62
7
  6
CONTINUOUS
 10
60.315109706
 20
215.6589101992
  0
VERTEX
  8
1_AXIS
 62
7
  6
CONTINUOUS
 10
60.4185811813
 20
215.7459562439
  0
VERTEX
  8
1_AXIS
 62
7
  6
CONTINUOUS
 10
60.5327437498
 20
215.8145441218
  0
VERTEX
  8
1_AXIS
 62
7
  6
CONTINUOUS
 10
60.6559200054
 20
215.8642919444
  0
VERTEX
  8
1_AXIS
 62
7
  6
CONTINUOUS
 10
60.7837209302
 20
215.89392085
  0
SEQEND
  0
POLYLINE
  8
1_AXIS
 62
7
  6
CONTINUOUS
 66
1
 70
0
  0
VERTEX
  8
1_AXIS
 62
7
  6
CONTINUOUS
 10
60.7837209302
 20
165.09392085
  0
VERTEX
  8
1_AXIS
 62
7
  6
CONTINUOUS
 10
60.8471998074
 20
165.1010989392
  0
VERTEX
  8
1_AXIS
 62
7
  6
CONTINUOUS
 10
60.9110259235
 20
165.1034765949
  0
SEQEND
  0
POLYLINE
  8
1_AXIS
 62
7
  6
CONTINUOUS
 66
1
 70
0
  0
VERTEX
  8
1_AXIS
 62
7
  6
CONTINUOUS
 10
86.1837209302
 20
169.1177070569
  0
VERTEX
  8
1_AXIS
 62
7
  6
CONTINUOUS
 10
86.1202475815
 20
169.1105293827
  0
VERTEX
  8
1_AXIS
 62
7
  6
CONTINUOUS
 10
86.056415937
 20
169.1081513121
  0
SEQEND
  0
LINE
  8
0
 62
7
  6
CONTINUOUS
 10
71.2457443514
 20
166.9308139535
 11
57.0837209306
 21
166.9308139535
  0
LINE
  8
0
 62
7
  6
CONTINUOUS
 10
75.7216975091
 20
167.2808139535
 11
89.8837209298
 21
167.2808139535
  0
LINE
  8
1_AXIS
 62
7
  6
CONTINUOUS
 10
83.5837209302
 20
169.1308139535
 11
76.8836885648
 21
169.1308139535
  0
LINE
  8
1_AXIS
 62
7
  6
CONTINUOUS
 10
86.056415937
 20
169.1081513121
 11
85.171136273
 21
169.1099155697
  0
LINE
  8
1_AXIS
 62
7
  6
CONTINUOUS
 10
85.171136273
 20
169.1099155697
 11
84.6431875227
 21
169.1125358902
  0
LINE
  8
1_AXIS
 62
7
  6
CONTINUOUS
 10
84.6431875227
 20
169.1125358902
 11
84.1992869652
 21
169.1161537978
  0
POLYLINE
  8
1_AXIS
 62
7
  6
CONTINUOUS
 66
1
 70
0
  0
VERTEX
  8
1_AXIS
 62
7
  6
CONTINUOUS
 10
84.1992869652
 20
169.1161537978
  0
VERTEX
  8
1_AXIS
 62
7
  6
CONTINUOUS
 10
83.8636696131
 20
169.1205720088
  0
VERTEX
  8
1_AXIS
 62
7
  6
CONTINUOUS
 10
83.7424574809
 20
169.1230072702
  0
VERTEX
  8
1_AXIS
 62
7
  6
CONTINUOUS
 10
83.654673735
 20
169.1255494002
  0
VERTEX
  8
1_AXIS
 62
7
  6
CONTINUOUS
 10
83.6015196971
 20
169.1281635592
  0
VERTEX
  8
1_AXIS
 62
7
  6
CONTINUOUS
 10
83.5837209302
 20
169.1308139535
  0
SEQEND
  0
LINE
  8
1_AXIS
 62
7
  6
CONTINUOUS
 10
60.0619229549
 20
253.4808139535
 11
60.0619229549
 21
252.9089836128
  0
LINE
  8
1_AXIS
 62
7
  6
CONTINUOUS
 10
60.0619229549
 20
240.4526442942
 11
60.0619229549
 21
239.8089836128
  0
LINE
  8
1_AXIS
 62
7
  6
CONTINUOUS
 10
60.0619229549
 20
227.7526442942
 11
60.0619229549
 21
227.1089836128
  0
LINE
  8
1_AXIS
 62
7
  6
CONTINUOUS
 10
60.0619229549
 20
215.0526442942
 11
60.0619229549
 21
214.4089836128
  0
LINE
  8
1_AXIS
 62
7
  6
CONTINUOUS
 10
60.0619229549
 20
202.3526442942
 11
60.0619229549
 21
201.7089836128
  0
LINE
  8
1_AXIS
 62
7
  6
CONTINUOUS
 10
60.0619229549
 20
189.6526442942
 11
60.0619229549
 21
189.0089836128
  0
LINE
  8
1_AXIS
 62
7
  6
CONTINUOUS
 10
60.0619229549
 20
176.9526442942
 11
60.0619229549
 21
176.3089836128
  0
LINE
  8
1_AXIS
 62
7
  6
CONTINUOUS
 10
60.0619229549
 20
164.2526442942
 11
60.0619229549
 21
163.6089836128
  0
LINE
  8
1_AXIS
 62
7
  6
CONTINUOUS
 10
60.0619229549
 20
151.5526442942
 11
60.0619229549
 21
150.9089836128
  0
LINE
  8
1_AXIS
 62
7
  6
CONTINUOUS
 10
60.0619229549
 20
138.8526442942
 11
60.0619229549
 21
138.2089836128
  0
LINE
  8
1_AXIS
 62
7
  6
CONTINUOUS
 10
60.0619229549
 20
126.4808139535
 11
60.0619229549
 21
125.9089836128
  0
LINE
  8
1_AXIS
 62
2
  6
CENTER
 10
60.7837209302
 20
108.1308139535
 11
60.7837209302
 21
257.8308139535
  0
POLYLINE
  8
1_AXIS
 62
7
  6
CONTINUOUS
 66
1
 70
0
  0
VERTEX
  8
1_AXIS
 62
7
  6
CONTINUOUS
 10
60.0619229549
 20
202.3526442942
  0
VERTEX
  8
1_AXIS
 62
7
  6
CONTINUOUS
 10
60.0723689696
 20
202.4856871863
  0
VERTEX
  8
1_AXIS
 62
7
  6
CONTINUOUS
 10
60.1040747665
 20
202.6174143322
  0
VERTEX
  8
1_AXIS
 62
7
  6
CONTINUOUS
 10
60.1560613626
 20
202.7421047512
  0
VERTEX
  8
1_AXIS
 62
7
  6
CONTINUOUS
 10
60.2265334803
 20
202.8562377403
  0
VERTEX
  8
1_AXIS
 62
7
  6
CONTINUOUS
 10
60.315109706
 20
202.9589101992
  0
VERTEX
  8
1_AXIS
 62
7
  6
CONTINUOUS
 10
60.4185811813
 20
203.0459562439
  0
VERTEX
  8
1_AXIS
 62
7
  6
CONTINUOUS
 10
60.5327437498
 20
203.1145441218
  0
VERTEX
  8
1_AXIS
 62
7
  6
CONTINUOUS
 10
60.6559200054
 20
203.1642919444
  0
VERTEX
  8
1_AXIS
 62
7
  6
CONTINUOUS
 10
60.7837209302
 20
203.19392085
  0
SEQEND
  0
POLYLINE
  8
1_AXIS
 62
7
  6
CONTINUOUS
 66
1
 70
0
  0
VERTEX
  8
1_AXIS
 62
7
  6
CONTINUOUS
 10
60.0619229549
 20
189.6526442942
  0
VERTEX
  8
1_AXIS
 62
7
  6
CONTINUOUS
 10
60.0723689696
 20
189.7856871863
  0
VERTEX
  8
1_AXIS
 62
7
  6
CONTINUOUS
 10
60.1040747665
 20
189.9174143322
  0
VERTEX
  8
1_AXIS
 62
7
  6
CONTINUOUS
 10
60.1560613626
 20
190.0421047512
  0
VERTEX
  8
1_AXIS
 62
7
  6
CONTINUOUS
 10
60.2265334803
 20
190.1562377403
  0
VERTEX
  8
1_AXIS
 62
7
  6
CONTINUOUS
 10
60.315109706
 20
190.2589101992
  0
VERTEX
  8
1_AXIS
 62
7
  6
CONTINUOUS
 10
60.4185811813
 20
190.3459562439
  0
VERTEX
  8
1_AXIS
 62
7
  6
CONTINUOUS
 10
60.5327437498
 20
190.4145441218
  0
VERTEX
  8
1_AXIS
 62
7
  6
CONTINUOUS
 10
60.6559200054
 20
190.4642919444
  0
VERTEX
  8
1_AXIS
 62
7
  6
CONTINUOUS
 10
60.7837209302
 20
190.49392085
  0
SEQEND
  0
POLYLINE
  8
1_AXIS
 62
7
  6
CONTINUOUS
 66
1
 70
0
  0
VERTEX
  8
1_AXIS
 62
7
  6
CONTINUOUS
 10
60.0619229549
 20
176.9526442942
  0
VERTEX
  8
1_AXIS
 62
7
  6
CONTINUOUS
 10
60.0723689696
 20
177.0856871863
  0
VERTEX
  8
1_AXIS
 62
7
  6
CONTINUOUS
 10
60.1040747665
 20
177.2174143322
  0
VERTEX
  8
1_AXIS
 62
7
  6
CONTINUOUS
 10
60.1560613626
 20
177.3421047512
  0
VERTEX
  8
1_AXIS
 62
7
  6
CONTINUOUS
 10
60.2265334803
 20
177.4562377403
  0
VERTEX
  8
1_AXIS
 62
7
  6
CONTINUOUS
 10
60.315109706
 20
177.5589101992
  0
VERTEX
  8
1_AXIS
 62
7
  6
CONTINUOUS
 10
60.4185811813
 20
177.6459562439
  0
VERTEX
  8
1_AXIS
 62
7
  6
CONTINUOUS
 10
60.5327437498
 20
177.7145441218
  0
VERTEX
  8
1_AXIS
 62
7
  6
CONTINUOUS
 10
60.6559200054
 20
177.7642919444
  0
VERTEX
  8
1_AXIS
 62
7
  6
CONTINUOUS
 10
60.7837209302
 20
177.79392085
  0
SEQEND
  0
POLYLINE
  8
1_AXIS
 62
7
  6
CONTINUOUS
 66
1
 70
0
  0
VERTEX
  8
1_AXIS
 62
7
  6
CONTINUOUS
 10
60.0619229549
 20
164.2526442942
  0
VERTEX
  8
1_AXIS
 62
7
  6
CONTINUOUS
 10
60.0723689696
 20
164.3856871863
  0
VERTEX
  8
1_AXIS
 62
7
  6
CONTINUOUS
 10
60.1040747665
 20
164.5174143322
  0
VERTEX
  8
1_AXIS
 62
7
  6
CONTINUOUS
 10
60.1560613626
 20
164.6421047512
  0
VERTEX
  8
1_AXIS
 62
7
  6
CONTINUOUS
 10
60.2265334803
 20
164.7562377403
  0
VERTEX
  8
1_AXIS
 62
7
  6
CONTINUOUS
 10
60.315109706
 20
164.8589101992
  0
VERTEX
  8
1_AXIS
 62
7
  6
CONTINUOUS
 10
60.4185811813
 20
164.9459562439
  0
VERTEX
  8
1_AXIS
 62
7
  6
CONTINUOUS
 10
60.5327437498
 20
165.0145441218
  0
VERTEX
  8
1_AXIS
 62
7
  6
CONTINUOUS
 10
60.6559200054
 20
165.0642919444
  0
VERTEX
  8
1_AXIS
 62
7
  6
CONTINUOUS
 10
60.7837209302
 20
165.09392085
  0
SEQEND
  0
POLYLINE
  8
1_AXIS
 62
7
  6
CONTINUOUS
 66
1
 70
0
  0
VERTEX
  8
1_AXIS
 62
7
  6
CONTINUOUS
 10
60.0619229549
 20
151.5526442942
  0
VERTEX
  8
1_AXIS
 62
7
  6
CONTINUOUS
 10
60.0723689696
 20
151.6856871863
  0
VERTEX
  8
1_AXIS
 62
7
  6
CONTINUOUS
 10
60.1040747665
 20
151.8174143322
  0
VERTEX
  8
1_AXIS
 62
7
  6
CONTINUOUS
 10
60.1560613626
 20
151.9421047512
  0
VERTEX
  8
1_AXIS
 62
7
  6
CONTINUOUS
 10
60.2265334803
 20
152.0562377403
  0
VERTEX
  8
1_AXIS
 62
7
  6
CONTINUOUS
 10
60.315109706
 20
152.1589101992
  0
VERTEX
  8
1_AXIS
 62
7
  6
CONTINUOUS
 10
60.4185811813
 20
152.2459562439
  0
VERTEX
  8
1_AXIS
 62
7
  6
CONTINUOUS
 10
60.5327437498
 20
152.3145441218
  0
VERTEX
  8
1_AXIS
 62
7
  6
CONTINUOUS
 10
60.6559200054
 20
152.3642919444
  0
VERTEX
  8
1_AXIS
 62
7
  6
CONTINUOUS
 10
60.7837209302
 20
152.39392085
  0
SEQEND
  0
POLYLINE
  8
0
 62
7
  6
CONTINUOUS
 66
1
 70
0
  0
VERTEX
  8
0
 62
7
  6
CONTINUOUS
 10
76.8836885648
 20
171.4308139535
  0
VERTEX
  8
0
 62
7
  6
CONTINUOUS
 10
76.762725345
 20
171.4221630487
  0
VERTEX
  8
0
 62
7
  6
CONTINUOUS
 10
76.6442242376
 20
171.3963860279
  0
VERTEX
  8
0
 62
7
  6
CONTINUOUS
 10
76.5305975675
 20
171.3540070654
  0
VERTEX
  8
0
 62
7
  6
CONTINUOUS
 10
76.4241586288
 20
171.2958884443
  0
VERTEX
  8
0
 62
7
  6
CONTINUOUS
 10
76.3270744995
 20
171.2232130658
  0
VERTEX
  8
0
 62
7
  6
CONTINUOUS
 10
76.2413218179
 20
171.1374603842
  0
VERTEX
  8
0
 62
7
  6
CONTINUOUS
 10
76.1686464394
 20
171.0403762549
  0
VERTEX
  8
0
 62
7
  6
CONTINUOUS
 10
76.1105278183
 20
170.9339373162
  0
VERTEX
  8
0
 62
7
  6
CONTINUOUS
 10
76.0681488558
 20
170.8203106461
  0
VERTEX
  8
0
 62
7
  6
CONTINUOUS
 10
76.042371835
 20
170.7018095387
  0
VERTEX
  8
0
 62
7
  6
CONTINUOUS
 10
76.0337209302
 20
170.5808463189
  0
SEQEND
  0
POLYLINE
  8
0
 62
7
  6
CONTINUOUS
 66
1
 70
0
  0
VERTEX
  8
0
 62
7
  6
CONTINUOUS
 10
70.0837532956
 20
175.4808139535
  0
VERTEX
  8
0
 62
7
  6
CONTINUOUS
 10
70.2047165154
 20
175.4894648583
  0
VERTEX
  8
0
 62
7
  6
CONTINUOUS
 10
70.3232176229
 20
175.515241879
  0
VERTEX
  8
0
 62
7
  6
CONTINUOUS
 10
70.436844293
 20
175.5576208416
  0
VERTEX
  8
0
 62
7
  6
CONTINUOUS
 10
70.5432832317
 20
175.6157394626
  0
VERTEX
  8
0
 62
7
  6
CONTINUOUS
 10
70.640367361
 20
175.6884148412
  0
VERTEX
  8
0
 62
7
  6
CONTINUOUS
 10
70.7261200426
 20
175.7741675227
  0
VERTEX
  8
0
 62
7
  6
CONTINUOUS
 10
70.7987954211
 20
175.8712516521
  0
VERTEX
  8
0
 62
7
  6
CONTINUOUS
 10
70.8569140422
 20
175.9776905908
  0
VERTEX
  8
0
 62
7
  6
CONTINUOUS
 10
70.8992930047
 20
176.0913172609
  0
VERTEX
  8
0
 62
7
  6
CONTINUOUS
 10
70.9250700254
 20
176.2098183683
  0
VERTEX
  8
0
 62
7
  6
CONTINUOUS
 10
70.9337209302
 20
176.3307815881
  0
SEQEND
  0
POLYLINE
  8
1_AXIS
 62
7
  6
CONTINUOUS
 66
1
 70
0
  0
VERTEX
  8
1_AXIS
 62
7
  6
CONTINUOUS
 10
83.8636696131
 20
171.4410558982
  0
VERTEX
  8
1_AXIS
 62
7
  6
CONTINUOUS
 10
83.7424574809
 20
171.4386206368
  0
VERTEX
  8
1_AXIS
 62
7
  6
CONTINUOUS
 10
83.654673735
 20
171.4360785068
  0
VERTEX
  8
1_AXIS
 62
7
  6
CONTINUOUS
 10
83.6015196971
 20
171.4334643478
  0
VERTEX
  8
1_AXIS
 62
7
  6
CONTINUOUS
 10
83.5837209302
 20
171.4308139535
  0
SEQEND
  0
LINE
  8
1_AXIS
 62
7
  6
CONTINUOUS
 10
84.1992869652
 20
171.4454741092
 11
83.8636696131
 21
171.4410558982
  0
LINE
  8
1_AXIS
 62
7
  6
CONTINUOUS
 10
63.103772249
 20
175.4705720088
 11
62.7681548962
 21
175.4661537978
  0
LINE
  8
1_AXIS
 62
7
  6
CONTINUOUS
 10
62.7681548962
 20
175.4661537978
 11
62.3242543367
 21
175.4625358902
  0
LINE
  8
1_AXIS
 62
7
  6
CONTINUOUS
 10
84.8983667336
 20
171.4505371855
 11
84.1992869652
 21
171.4454741092
  0
LINE
  8
1_AXIS
 62
7
  6
CONTINUOUS
 10
62.3242543367
 20
175.4625358902
 11
61.5096796203
 21
175.4590265036
  0
POLYLINE
  8
1_AXIS
 62
7
  6
CONTINUOUS
 66
1
 70
0
  0
VERTEX
  8
1_AXIS
 62
7
  6
CONTINUOUS
 10
86.056415937
 20
171.4534765949
  0
VERTEX
  8
1_AXIS
 62
7
  6
CONTINUOUS
 10
85.7543215807
 20
171.4531922294
  0
VERTEX
  8
1_AXIS
 62
7
  6
CONTINUOUS
 10
84.8983667336
 20
171.4505371855
  0
SEQEND
  0
LINE
  8
1_AXIS
 62
7
  6
CONTINUOUS
 10
61.5096796203
 20
175.4590265036
 11
60.9110259235
 21
175.4581513121
  0
LINE
  8
1_AXIS
 62
7
  6
CONTINUOUS
 10
76.8836885648
 20
171.4308139535
 11
83.5837209302
 21
171.4308139535
  0
LINE
  8
0
 62
7
  6
CONTINUOUS
 10
89.8837209298
 20
173.2808139535
 11
75.7216975091
 21
173.2808139535
  0
LINE
  8
0
 62
7
  6
CONTINUOUS
 10
57.0837209306
 20
173.6308139535
 11
71.2457443514
 21
173.6308139535
  0
LINE
  8
1_AXIS
 62
7
  6
CONTINUOUS
 10
70.0837532956
 20
175.4808139535
 11
63.3837209302
 21
175.4808139535
  0
POLYLINE
  8
1_AXIS
 62
7
  6
CONTINUOUS
 66
1
 70
0
  0
VERTEX
  8
1_AXIS
 62
7
  6
CONTINUOUS
 10
86.056415937
 20
171.4534765949
  0
VERTEX
  8
1_AXIS
 62
7
  6
CONTINUOUS
 10
86.1202465682
 20
171.4510986003
  0
VERTEX
  8
1_AXIS
 62
7
  6
CONTINUOUS
 10
86.1837209302
 20
171.44392085
  0
SEQEND
  0
POLYLINE
  8
1_AXIS
 62
7
  6
CONTINUOUS
 66
1
 70
0
  0
VERTEX
  8
1_AXIS
 62
7
  6
CONTINUOUS
 10
60.9110259235
 20
175.4581513121
  0
VERTEX
  8
1_AXIS
 62
7
  6
CONTINUOUS
 10
60.8471998129
 20
175.4605289674
  0
VERTEX
  8
1_AXIS
 62
7
  6
CONTINUOUS
 10
60.7837209302
 20
175.4677070569
  0
SEQEND
  0
POLYLINE
  8
1_AXIS
 62
7
  6
CONTINUOUS
 66
1
 70
0
  0
VERTEX
  8
1_AXIS
 62
7
  6
CONTINUOUS
 10
63.3837209302
 20
177.7808139535
  0
VERTEX
  8
1_AXIS
 62
7
  6
CONTINUOUS
 10
63.3659221636
 20
177.7834643478
  0
VERTEX
  8
1_AXIS
 62
7
  6
CONTINUOUS
 10
63.3127681262
 20
177.7860785068
  0
VERTEX
  8
1_AXIS
 62
7
  6
CONTINUOUS
 10
63.2249843808
 20
177.7886206368
  0
VERTEX
  8
1_AXIS
 62
7
  6
CONTINUOUS
 10
63.103772249
 20
177.7910558982
  0
VERTEX
  8
1_AXIS
 62
7
  6
CONTINUOUS
 10
62.7681548962
 20
177.7954741091
  0
SEQEND
  0
POLYLINE
  8
1_AXIS
 62
7
  6
CONTINUOUS
 66
1
 70
0
  0
VERTEX
  8
1_AXIS
 62
7
  6
CONTINUOUS
 10
86.1837209302
 20
171.44392085
  0
VERTEX
  8
1_AXIS
 62
7
  6
CONTINUOUS
 10
86.2992673775
 20
171.4180527464
  0
VERTEX
  8
1_AXIS
 62
7
  6
CONTINUOUS
 10
86.4110846845
 20
171.3758601237
  0
VERTEX
  8
1_AXIS
 62
7
  6
CONTINUOUS
 10
86.5160774547
 20
171.3182053771
  0
VERTEX
  8
1_AXIS
 62
7
  6
CONTINUOUS
 10
86.6128180022
 20
171.2455294544
  0
VERTEX
  8
1_AXIS
 62
7
  6
CONTINUOUS
 10
86.6989301612
 20
171.1590415767
  0
VERTEX
  8
1_AXIS
 62
7
  6
CONTINUOUS
 10
86.7715271362
 20
171.0614979024
  0
VERTEX
  8
1_AXIS
 62
7
  6
CONTINUOUS
 10
86.8290420526
 20
170.9555925852
  0
VERTEX
  8
1_AXIS
 62
7
  6
CONTINUOUS
 10
86.8713889362
 20
170.8414621556
  0
VERTEX
  8
1_AXIS
 62
7
  6
CONTINUOUS
 10
86.8970662626
 20
170.7223905317
  0
VERTEX
  8
1_AXIS
 62
7
  6
CONTINUOUS
 10
86.9055189056
 20
170.6026442942
  0
SEQEND
  0
POLYLINE
  8
1_AXIS
 62
7
  6
CONTINUOUS
 66
1
 70
0
  0
VERTEX
  8
1_AXIS
 62
7
  6
CONTINUOUS
 10
60.7837209302
 20
175.4677070569
  0
VERTEX
  8
1_AXIS
 62
7
  6
CONTINUOUS
 10
60.6558999637
 20
175.4973422798
  0
VERTEX
  8
1_AXIS
 62
7
  6
CONTINUOUS
 10
60.5326956136
 20
175.5471077765
  0
VERTEX
  8
1_AXIS
 62
7
  6
CONTINUOUS
 10
60.4185644265
 20
175.6156836155
  0
VERTEX
  8
1_AXIS
 62
7
  6
CONTINUOUS
 10
60.3151239319
 20
175.7027036598
  0
VERTEX
  8
1_AXIS
 62
7
  6
CONTINUOUS
 10
60.2265412908
 20
175.8053794997
  0
VERTEX
  8
1_AXIS
 62
7
  6
CONTINUOUS
 10
60.1560625922
 20
175.919520761
  0
VERTEX
  8
1_AXIS
 62
7
  6
CONTINUOUS
 10
60.104089675
 20
176.0441679364
  0
VERTEX
  8
1_AXIS
 62
7
  6
CONTINUOUS
 10
60.0723779412
 20
176.1758839451
  0
VERTEX
  8
1_AXIS
 62
7
  6
CONTINUOUS
 10
60.0619229549
 20
176.3089836128
  0
SEQEND
  0
POLYLINE
  8
0
 62
7
  6
CONTINUOUS
 66
1
 70
0
  0
VERTEX
  8
0
 62
7
  6
CONTINUOUS
 10
70.9337209302
 20
138.8308463189
  0
VERTEX
  8
0
 62
7
  6
CONTINUOUS
 10
70.9250700254
 20
138.9518095387
  0
VERTEX
  8
0
 62
7
  6
CONTINUOUS
 10
70.8992930047
 20
139.0703106461
  0
VERTEX
  8
0
 62
7
  6
CONTINUOUS
 10
70.8569140422
 20
139.1839373162
  0
VERTEX
  8
0
 62
7
  6
CONTINUOUS
 10
70.7987954211
 20
139.2903762549
  0
VERTEX
  8
0
 62
7
  6
CONTINUOUS
 10
70.7261200426
 20
139.3874603842
  0
VERTEX
  8
0
 62
7
  6
CONTINUOUS
 10
70.640367361
 20
139.4732130658
  0
VERTEX
  8
0
 62
7
  6
CONTINUOUS
 10
70.5432832317
 20
139.5458884443
  0
VERTEX
  8
0
 62
7
  6
CONTINUOUS
 10
70.436844293
 20
139.6040070654
  0
VERTEX
  8
0
 62
7
  6
CONTINUOUS
 10
70.3232176229
 20
139.6463860279
  0
VERTEX
  8
0
 62
7
  6
CONTINUOUS
 10
70.2047165154
 20
139.6721630487
  0
VERTEX
  8
0
 62
7
  6
CONTINUOUS
 10
70.0837532956
 20
139.6808139535
  0
SEQEND
  0
POLYLINE
  8
0
 62
7
  6
CONTINUOUS
 66
1
 70
0
  0
VERTEX
  8
0
 62
7
  6
CONTINUOUS
 10
70.9337209302
 20
151.5308463189
  0
VERTEX
  8
0
 62
7
  6
CONTINUOUS
 10
70.9250700254
 20
151.6518095387
  0
VERTEX
  8
0
 62
7
  6
CONTINUOUS
 10
70.8992930047
 20
151.7703106461
  0
VERTEX
  8
0
 62
7
  6
CONTINUOUS
 10
70.8569140422
 20
151.8839373162
  0
VERTEX
  8
0
 62
7
  6
CONTINUOUS
 10
70.7987954211
 20
151.9903762549
  0
VERTEX
  8
0
 62
7
  6
CONTINUOUS
 10
70.7261200426
 20
152.0874603842
  0
VERTEX
  8
0
 62
7
  6
CONTINUOUS
 10
70.640367361
 20
152.1732130658
  0
VERTEX
  8
0
 62
7
  6
CONTINUOUS
 10
70.5432832317
 20
152.2458884443
  0
VERTEX
  8
0
 62
7
  6
CONTINUOUS
 10
70.436844293
 20
152.3040070654
  0
VERTEX
  8
0
 62
7
  6
CONTINUOUS
 10
70.3232176229
 20
152.3463860279
  0
VERTEX
  8
0
 62
7
  6
CONTINUOUS
 10
70.2047165154
 20
152.3721630487
  0
VERTEX
  8
0
 62
7
  6
CONTINUOUS
 10
70.0837532956
 20
152.3808139535
  0
SEQEND
  0
POLYLINE
  8
0
 62
7
  6
CONTINUOUS
 66
1
 70
0
  0
VERTEX
  8
0
 62
7
  6
CONTINUOUS
 10
70.7037209302
 20
258.8308139535
  0
VERTEX
  8
0
 62
7
  6
CONTINUOUS
 10
70.6835773856
 20
258.4839430567
  0
VERTEX
  8
0
 62
7
  6
CONTINUOUS
 10
70.623507402
 20
258.1417225517
  0
SEQEND
  0
POLYLINE
  8
0
 62
7
  6
CONTINUOUS
 66
1
 70
0
  0
VERTEX
  8
0
 62
7
  6
CONTINUOUS
 10
70.9337209302
 20
252.9307815881
  0
VERTEX
  8
0
 62
7
  6
CONTINUOUS
 10
70.9250700254
 20
252.8098183683
  0
VERTEX
  8
0
 62
7
  6
CONTINUOUS
 10
70.8992930047
 20
252.6913172609
  0
VERTEX
  8
0
 62
7
  6
CONTINUOUS
 10
70.8569140422
 20
252.5776905908
  0
VERTEX
  8
0
 62
7
  6
CONTINUOUS
 10
70.7987954211
 20
252.4712516521
  0
VERTEX
  8
0
 62
7
  6
CONTINUOUS
 10
70.7261200426
 20
252.3741675227
  0
VERTEX
  8
0
 62
7
  6
CONTINUOUS
 10
70.640367361
 20
252.2884148412
  0
VERTEX
  8
0
 62
7
  6
CONTINUOUS
 10
70.5432832317
 20
252.2157394626
  0
VERTEX
  8
0
 62
7
  6
CONTINUOUS
 10
70.436844293
 20
252.1576208416
  0
VERTEX
  8
0
 62
7
  6
CONTINUOUS
 10
70.3232176229
 20
252.115241879
  0
VERTEX
  8
0
 62
7
  6
CONTINUOUS
 10
70.2047165154
 20
252.0894648583
  0
VERTEX
  8
0
 62
7
  6
CONTINUOUS
 10
70.0837532956
 20
252.0808139535
  0
SEQEND
  0
POLYLINE
  8
1_AXIS
 62
7
  6
CONTINUOUS
 66
1
 70
0
  0
VERTEX
  8
1_AXIS
 62
7
  6
CONTINUOUS
 10
60.0619229549
 20
138.8526442942
  0
VERTEX
  8
1_AXIS
 62
7
  6
CONTINUOUS
 10
60.0723689696
 20
138.9856871863
  0
VERTEX
  8
1_AXIS
 62
7
  6
CONTINUOUS
 10
60.1040747665
 20
139.1174143322
  0
VERTEX
  8
1_AXIS
 62
7
  6
CONTINUOUS
 10
60.1560613626
 20
139.2421047512
  0
VERTEX
  8
1_AXIS
 62
7
  6
CONTINUOUS
 10
60.2265334803
 20
139.3562377403
  0
VERTEX
  8
1_AXIS
 62
7
  6
CONTINUOUS
 10
60.315109706
 20
139.4589101992
  0
VERTEX
  8
1_AXIS
 62
7
  6
CONTINUOUS
 10
60.4185811813
 20
139.5459562439
  0
VERTEX
  8
1_AXIS
 62
7
  6
CONTINUOUS
 10
60.5327437498
 20
139.6145441218
  0
VERTEX
  8
1_AXIS
 62
7
  6
CONTINUOUS
 10
60.6559200054
 20
139.6642919444
  0
VERTEX
  8
1_AXIS
 62
7
  6
CONTINUOUS
 10
60.7837209302
 20
139.69392085
  0
SEQEND
  0
POLYLINE
  8
1_AXIS
 62
7
  6
CONTINUOUS
 66
1
 70
0
  0
VERTEX
  8
1_AXIS
 62
7
  6
CONTINUOUS
 10
60.0619229549
 20
126.4808139535
  0
VERTEX
  8
1_AXIS
 62
7
  6
CONTINUOUS
 10
60.0723669576
 20
126.6138137115
  0
VERTEX
  8
1_AXIS
 62
7
  6
CONTINUOUS
 10
60.1040458435
 20
126.7453856842
  0
VERTEX
  8
1_AXIS
 62
7
  6
CONTINUOUS
 10
60.1559699121
 20
126.8698680045
  0
VERTEX
  8
1_AXIS
 62
7
  6
CONTINUOUS
 10
60.2263895792
 20
126.9838397514
  0
VERTEX
  8
1_AXIS
 62
7
  6
CONTINUOUS
 10
60.3149154475
 20
127.0863642216
  0
VERTEX
  8
1_AXIS
 62
7
  6
CONTINUOUS
 10
60.4183224831
 20
127.1732754208
  0
VERTEX
  8
1_AXIS
 62
7
  6
CONTINUOUS
 10
60.5324556322
 20
127.2417913641
  0
VERTEX
  8
1_AXIS
 62
7
  6
CONTINUOUS
 10
60.6557240937
 20
127.2915498745
  0
SEQEND
  0
POLYLINE
  8
1_AXIS
 62
7
  6
CONTINUOUS
 66
1
 70
0
  0
VERTEX
  8
1_AXIS
 62
7
  6
CONTINUOUS
 10
63.3837209302
 20
175.4808139535
  0
VERTEX
  8
1_AXIS
 62
7
  6
CONTINUOUS
 10
63.3659221636
 20
175.4781635592
  0
VERTEX
  8
1_AXIS
 62
7
  6
CONTINUOUS
 10
63.3127681262
 20
175.4755494002
  0
VERTEX
  8
1_AXIS
 62
7
  6
CONTINUOUS
 10
63.2249843808
 20
175.4730072702
  0
VERTEX
  8
1_AXIS
 62
7
  6
CONTINUOUS
 10
63.103772249
 20
175.4705720088
  0
SEQEND
  0
POLYLINE
  8
1_AXIS
 62
7
  6
CONTINUOUS
 66
1
 70
0
  0
VERTEX
  8
1_AXIS
 62
7
  6
CONTINUOUS
 10
60.7837209302
 20
177.79392085
  0
VERTEX
  8
1_AXIS
 62
7
  6
CONTINUOUS
 10
60.8471998074
 20
177.8010989392
  0
VERTEX
  8
1_AXIS
 62
7
  6
CONTINUOUS
 10
60.9110259235
 20
177.8034765949
  0
SEQEND
  0
POLYLINE
  8
1_AXIS
 62
7
  6
CONTINUOUS
 66
1
 70
0
  0
VERTEX
  8
1_AXIS
 62
7
  6
CONTINUOUS
 10
86.1837209302
 20
181.8177070569
  0
VERTEX
  8
1_AXIS
 62
7
  6
CONTINUOUS
 10
86.1202475815
 20
181.8105293827
  0
VERTEX
  8
1_AXIS
 62
7
  6
CONTINUOUS
 10
86.056415937
 20
181.8081513121
  0
SEQEND
  0
LINE
  8
1_AXIS
 62
7
  6
CONTINUOUS
 10
63.3837209302
 20
177.7808139535
 11
70.0837532956
 21
177.7808139535
  0
LINE
  8
0
 62
7
  6
CONTINUOUS
 10
71.2457443514
 20
179.6308139535
 11
57.0837209306
 21
179.6308139535
  0
LINE
  8
0
 62
7
  6
CONTINUOUS
 10
75.7216975091
 20
179.9808139535
 11
89.8837209298
 21
179.9808139535
  0
LINE
  8
1_AXIS
 62
7
  6
CONTINUOUS
 10
62.0690751249
 20
177.8005371855
 11
60.9110259235
 21
177.8034765949
  0
LINE
  8
1_AXIS
 62
7
  6
CONTINUOUS
 10
62.7681548962
 20
177.7954741091
 11
62.0690751249
 21
177.8005371855
  0
POLYLINE
  8
0
 62
7
  6
CONTINUOUS
 66
1
 70
0
  0
VERTEX
  8
0
 62
7
  6
CONTINUOUS
 10
70.9337209302
 20
164.2308463189
  0
VERTEX
  8
0
 62
7
  6
CONTINUOUS
 10
70.9250700254
 20
164.3518095387
  0
VERTEX
  8
0
 62
7
  6
CONTINUOUS
 10
70.8992930047
 20
164.4703106461
  0
VERTEX
  8
0
 62
7
  6
CONTINUOUS
 10
70.8569140422
 20
164.5839373162
  0
VERTEX
  8
0
 62
7
  6
CONTINUOUS
 10
70.7987954211
 20
164.6903762549
  0
VERTEX
  8
0
 62
7
  6
CONTINUOUS
 10
70.7261200426
 20
164.7874603842
  0
VERTEX
  8
0
 62
7
  6
CONTINUOUS
 10
70.640367361
 20
164.8732130658
  0
VERTEX
  8
0
 62
7
  6
CONTINUOUS
 10
70.5432832317
 20
164.9458884443
  0
VERTEX
  8
0
 62
7
  6
CONTINUOUS
 10
70.436844293
 20
165.0040070654
  0
VERTEX
  8
0
 62
7
  6
CONTINUOUS
 10
70.3232176229
 20
165.0463860279
  0
VERTEX
  8
0
 62
7
  6
CONTINUOUS
 10
70.2047165154
 20
165.0721630487
  0
VERTEX
  8
0
 62
7
  6
CONTINUOUS
 10
70.0837532956
 20
165.0808139535
  0
SEQEND
  0
POLYLINE
  8
0
 62
7
  6
CONTINUOUS
 66
1
 70
0
  0
VERTEX
  8
0
 62
7
  6
CONTINUOUS
 10
70.9337209302
 20
176.9308463189
  0
VERTEX
  8
0
 62
7
  6
CONTINUOUS
 10
70.9250700254
 20
177.0518095387
  0
VERTEX
  8
0
 62
7
  6
CONTINUOUS
 10
70.8992930047
 20
177.1703106461
  0
VERTEX
  8
0
 62
7
  6
CONTINUOUS
 10
70.8569140422
 20
177.2839373162
  0
VERTEX
  8
0
 62
7
  6
CONTINUOUS
 10
70.7987954211
 20
177.3903762549
  0
VERTEX
  8
0
 62
7
  6
CONTINUOUS
 10
70.7261200426
 20
177.4874603842
  0
VERTEX
  8
0
 62
7
  6
CONTINUOUS
 10
70.640367361
 20
177.5732130658
  0
VERTEX
  8
0
 62
7
  6
CONTINUOUS
 10
70.5432832317
 20
177.6458884443
  0
VERTEX
  8
0
 62
7
  6
CONTINUOUS
 10
70.436844293
 20
177.7040070654
  0
VERTEX
  8
0
 62
7
  6
CONTINUOUS
 10
70.3232176229
 20
177.7463860279
  0
VERTEX
  8
0
 62
7
  6
CONTINUOUS
 10
70.2047165154
 20
177.7721630487
  0
VERTEX
  8
0
 62
7
  6
CONTINUOUS
 10
70.0837532956
 20
177.7808139535
  0
SEQEND
  0
POLYLINE
  8
0
 62
7
  6
CONTINUOUS
 66
1
 70
0
  0
VERTEX
  8
0
 62
7
  6
CONTINUOUS
 10
70.9337209302
 20
189.6308463189
  0
VERTEX
  8
0
 62
7
  6
CONTINUOUS
 10
70.9250700254
 20
189.7518095387
  0
VERTEX
  8
0
 62
7
  6
CONTINUOUS
 10
70.8992930047
 20
189.8703106461
  0
VERTEX
  8
0
 62
7
  6
CONTINUOUS
 10
70.8569140422
 20
189.9839373162
  0
VERTEX
  8
0
 62
7
  6
CONTINUOUS
 10
70.7987954211
 20
190.0903762549
  0
VERTEX
  8
0
 62
7
  6
CONTINUOUS
 10
70.7261200426
 20
190.1874603842
  0
VERTEX
  8
0
 62
7
  6
CONTINUOUS
 10
70.640367361
 20
190.2732130658
  0
VERTEX
  8
0
 62
7
  6
CONTINUOUS
 10
70.5432832317
 20
190.3458884443
  0
VERTEX
  8
0
 62
7
  6
CONTINUOUS
 10
70.436844293
 20
190.4040070654
  0
VERTEX
  8
0
 62
7
  6
CONTINUOUS
 10
70.3232176229
 20
190.4463860279
  0
VERTEX
  8
0
 62
7
  6
CONTINUOUS
 10
70.2047165154
 20
190.4721630487
  0
VERTEX
  8
0
 62
7
  6
CONTINUOUS
 10
70.0837532956
 20
190.4808139535
  0
SEQEND
  0
POLYLINE
  8
0
 62
7
  6
CONTINUOUS
 66
1
 70
0
  0
VERTEX
  8
0
 62
7
  6
CONTINUOUS
 10
70.9337209302
 20
202.3308463189
  0
VERTEX
  8
0
 62
7
  6
CONTINUOUS
 10
70.9250700254
 20
202.4518095387
  0
VERTEX
  8
0
 62
7
  6
CONTINUOUS
 10
70.8992930047
 20
202.5703106461
  0
VERTEX
  8
0
 62
7
  6
CONTINUOUS
 10
70.8569140422
 20
202.6839373162
  0
VERTEX
  8
0
 62
7
  6
CONTINUOUS
 10
70.7987954211
 20
202.7903762549
  0
VERTEX
  8
0
 62
7
  6
CONTINUOUS
 10
70.7261200426
 20
202.8874603842
  0
VERTEX
  8
0
 62
7
  6
CONTINUOUS
 10
70.640367361
 20
202.9732130658
  0
VERTEX
  8
0
 62
7
  6
CONTINUOUS
 10
70.5432832317
 20
203.0458884443
  0
VERTEX
  8
0
 62
7
  6
CONTINUOUS
 10
70.436844293
 20
203.1040070654
  0
VERTEX
  8
0
 62
7
  6
CONTINUOUS
 10
70.3232176229
 20
203.1463860279
  0
VERTEX
  8
0
 62
7
  6
CONTINUOUS
 10
70.2047165154
 20
203.1721630487
  0
VERTEX
  8
0
 62
7
  6
CONTINUOUS
 10
70.0837532956
 20
203.1808139535
  0
SEQEND
  0
POLYLINE
  8
0
 62
7
  6
CONTINUOUS
 66
1
 70
0
  0
VERTEX
  8
0
 62
7
  6
CONTINUOUS
 10
76.0337209302
 20
131.8807815881
  0
VERTEX
  8
0
 62
7
  6
CONTINUOUS
 10
76.042371835
 20
131.7598183683
  0
VERTEX
  8
0
 62
7
  6
CONTINUOUS
 10
76.0681488558
 20
131.6413172609
  0
VERTEX
  8
0
 62
7
  6
CONTINUOUS
 10
76.1105278183
 20
131.5276905908
  0
VERTEX
  8
0
 62
7
  6
CONTINUOUS
 10
76.1686464394
 20
131.4212516521
  0
VERTEX
  8
0
 62
7
  6
CONTINUOUS
 10
76.2413218179
 20
131.3241675227
  0
VERTEX
  8
0
 62
7
  6
CONTINUOUS
 10
76.3270744995
 20
131.2384148412
  0
VERTEX
  8
0
 62
7
  6
CONTINUOUS
 10
76.4241586288
 20
131.1657394626
  0
VERTEX
  8
0
 62
7
  6
CONTINUOUS
 10
76.5305975675
 20
131.1076208416
  0
VERTEX
  8
0
 62
7
  6
CONTINUOUS
 10
76.6442242376
 20
131.065241879
  0
VERTEX
  8
0
 62
7
  6
CONTINUOUS
 10
76.762725345
 20
131.0394648583
  0
VERTEX
  8
0
 62
7
  6
CONTINUOUS
 10
76.8836885648
 20
131.0308139535
  0
SEQEND
  0
POLYLINE
  8
0
 62
7
  6
CONTINUOUS
 66
1
 70
0
  0
VERTEX
  8
0
 62
7
  6
CONTINUOUS
 10
70.9337209302
 20
215.0308463189
  0
VERTEX
  8
0
 62
7
  6
CONTINUOUS
 10
70.9250700254
 20
215.1518095387
  0
VERTEX
  8
0
 62
7
  6
CONTINUOUS
 10
70.8992930047
 20
215.2703106461
  0
VERTEX
  8
0
 62
7
  6
CONTINUOUS
 10
70.8569140422
 20
215.3839373162
  0
VERTEX
  8
0
 62
7
  6
CONTINUOUS
 10
70.7987954211
 20
215.4903762549
  0
VERTEX
  8
0
 62
7
  6
CONTINUOUS
 10
70.7261200426
 20
215.5874603842
  0
VERTEX
  8
0
 62
7
  6
CONTINUOUS
 10
70.640367361
 20
215.6732130658
  0
VERTEX
  8
0
 62
7
  6
CONTINUOUS
 10
70.5432832317
 20
215.7458884443
  0
VERTEX
  8
0
 62
7
  6
CONTINUOUS
 10
70.436844293
 20
215.8040070654
  0
VERTEX
  8
0
 62
7
  6
CONTINUOUS
 10
70.3232176229
 20
215.8463860279
  0
VERTEX
  8
0
 62
7
  6
CONTINUOUS
 10
70.2047165154
 20
215.8721630487
  0
VERTEX
  8
0
 62
7
  6
CONTINUOUS
 10
70.0837532956
 20
215.8808139535
  0
SEQEND
  0
POLYLINE
  8
0
 62
7
  6
CONTINUOUS
 66
1
 70
0
  0
VERTEX
  8
0
 62
7
  6
CONTINUOUS
 10
76.0337209302
 20
144.5807815881
  0
VERTEX
  8
0
 62
7
  6
CONTINUOUS
 10
76.042371835
 20
144.4598183683
  0
VERTEX
  8
0
 62
7
  6
CONTINUOUS
 10
76.0681488558
 20
144.3413172609
  0
VERTEX
  8
0
 62
7
  6
CONTINUOUS
 10
76.1105278183
 20
144.2276905908
  0
VERTEX
  8
0
 62
7
  6
CONTINUOUS
 10
76.1686464394
 20
144.1212516521
  0
VERTEX
  8
0
 62
7
  6
CONTINUOUS
 10
76.2413218179
 20
144.0241675227
  0
VERTEX
  8
0
 62
7
  6
CONTINUOUS
 10
76.3270744995
 20
143.9384148412
  0
VERTEX
  8
0
 62
7
  6
CONTINUOUS
 10
76.4241586288
 20
143.8657394626
  0
VERTEX
  8
0
 62
7
  6
CONTINUOUS
 10
76.5305975675
 20
143.8076208416
  0
VERTEX
  8
0
 62
7
  6
CONTINUOUS
 10
76.6442242376
 20
143.765241879
  0
VERTEX
  8
0
 62
7
  6
CONTINUOUS
 10
76.762725345
 20
143.7394648583
  0
VERTEX
  8
0
 62
7
  6
CONTINUOUS
 10
76.8836885648
 20
143.7308139535
  0
SEQEND
  0
POLYLINE
  8
0
 62
7
  6
CONTINUOUS
 66
1
 70
0
  0
VERTEX
  8
0
 62
7
  6
CONTINUOUS
 10
70.9337209302
 20
227.7308463189
  0
VERTEX
  8
0
 62
7
  6
CONTINUOUS
 10
70.9250700254
 20
227.8518095387
  0
VERTEX
  8
0
 62
7
  6
CONTINUOUS
 10
70.8992930047
 20
227.9703106461
  0
VERTEX
  8
0
 62
7
  6
CONTINUOUS
 10
70.8569140422
 20
228.0839373162
  0
VERTEX
  8
0
 62
7
  6
CONTINUOUS
 10
70.7987954211
 20
228.1903762549
  0
VERTEX
  8
0
 62
7
  6
CONTINUOUS
 10
70.7261200426
 20
228.2874603842
  0
VERTEX
  8
0
 62
7
  6
CONTINUOUS
 10
70.640367361
 20
228.3732130658
  0
VERTEX
  8
0
 62
7
  6
CONTINUOUS
 10
70.5432832317
 20
228.4458884443
  0
VERTEX
  8
0
 62
7
  6
CONTINUOUS
 10
70.436844293
 20
228.5040070654
  0
VERTEX
  8
0
 62
7
  6
CONTINUOUS
 10
70.3232176229
 20
228.5463860279
  0
VERTEX
  8
0
 62
7
  6
CONTINUOUS
 10
70.2047165154
 20
228.5721630487
  0
VERTEX
  8
0
 62
7
  6
CONTINUOUS
 10
70.0837532956
 20
228.5808139535
  0
SEQEND
  0
POLYLINE
  8
0
 62
7
  6
CONTINUOUS
 66
1
 70
0
  0
VERTEX
  8
0
 62
7
  6
CONTINUOUS
 10
76.0337209302
 20
157.2807815881
  0
VERTEX
  8
0
 62
7
  6
CONTINUOUS
 10
76.042371835
 20
157.1598183683
  0
VERTEX
  8
0
 62
7
  6
CONTINUOUS
 10
76.0681488558
 20
157.0413172609
  0
VERTEX
  8
0
 62
7
  6
CONTINUOUS
 10
76.1105278183
 20
156.9276905908
  0
VERTEX
  8
0
 62
7
  6
CONTINUOUS
 10
76.1686464394
 20
156.8212516521
  0
VERTEX
  8
0
 62
7
  6
CONTINUOUS
 10
76.2413218179
 20
156.7241675227
  0
VERTEX
  8
0
 62
7
  6
CONTINUOUS
 10
76.3270744995
 20
156.6384148412
  0
VERTEX
  8
0
 62
7
  6
CONTINUOUS
 10
76.4241586288
 20
156.5657394626
  0
VERTEX
  8
0
 62
7
  6
CONTINUOUS
 10
76.5305975675
 20
156.5076208416
  0
VERTEX
  8
0
 62
7
  6
CONTINUOUS
 10
76.6442242376
 20
156.465241879
  0
VERTEX
  8
0
 62
7
  6
CONTINUOUS
 10
76.762725345
 20
156.4394648583
  0
VERTEX
  8
0
 62
7
  6
CONTINUOUS
 10
76.8836885648
 20
156.4308139535
  0
SEQEND
  0
LINE
  8
2_FEATURE
 62
7
  6
CONTINUOUS
 10
70.7037209302
 20
260.1808139535
 11
70.7037209302
 21
258.8308139535
  0
LINE
  8
2_FEATURE
 62
7
  6
CONTINUOUS
 10
70.7037209302
 20
249.5808139535
 11
70.7037209302
 21
243.3808139535
  0
LINE
  8
2_FEATURE
 62
7
  6
CONTINUOUS
 10
70.7037209302
 20
236.8808139535
 11
70.7037209302
 21
230.6808139535
  0
LINE
  8
2_FEATURE
 62
7
  6
CONTINUOUS
 10
70.7037209302
 20
224.1808139535
 11
70.7037209302
 21
217.9808139535
  0
LINE
  8
2_FEATURE
 62
7
  6
CONTINUOUS
 10
70.7037209302
 20
211.4808139535
 11
70.7037209302
 21
205.2808139535
  0
LINE
  8
2_FEATURE
 62
7
  6
CONTINUOUS
 10
70.7037209302
 20
198.7808139535
 11
70.7037209302
 21
192.5808139535
  0
LINE
  8
2_FEATURE
 62
7
  6
CONTINUOUS
 10
70.7037209302
 20
186.0808139535
 11
70.7037209302
 21
179.8808139535
  0
LINE
  8
2_FEATURE
 62
7
  6
CONTINUOUS
 10
70.7037209302
 20
173.3808139535
 11
70.7037209302
 21
167.1808139535
  0
LINE
  8
2_FEATURE
 62
7
  6
CONTINUOUS
 10
70.7037209302
 20
160.6808139535
 11
70.7037209302
 21
154.4808139535
  0
LINE
  8
2_FEATURE
 62
7
  6
CONTINUOUS
 10
70.7037209302
 20
147.9808139535
 11
70.7037209302
 21
141.7808139535
  0
LINE
  8
2_FEATURE
 62
7
  6
CONTINUOUS
 10
70.7037209302
 20
135.2808139535
 11
70.7037209302
 21
129.0808139535
  0
LINE
  8
2_FEATURE
 62
7
  6
CONTINUOUS
 10
70.7037209302
 20
122.5808139535
 11
70.7037209302
 21
116.3808139535
  0
LINE
  8
0
 62
7
  6
CONTINUOUS
 10
70.9337209302
 20
240.4308463189
 11
70.9337209302
 21
239.8307815881
  0
LINE
  8
0
 62
7
  6
CONTINUOUS
 10
70.9337209302
 20
227.7308463189
 11
70.9337209302
 21
227.1307815881
  0
LINE
  8
0
 62
7
  6
CONTINUOUS
 10
70.9337209302
 20
215.0308463189
 11
70.9337209302
 21
214.4307815881
  0
LINE
  8
0
 62
7
  6
CONTINUOUS
 10
70.9337209302
 20
202.3308463189
 11
70.9337209302
 21
201.7307815881
  0
LINE
  8
0
 62
7
  6
CONTINUOUS
 10
70.9337209302
 20
189.6308463189
 11
70.9337209302
 21
189.0307815881
  0
LINE
  8
0
 62
7
  6
CONTINUOUS
 10
70.9337209302
 20
176.9308463189
 11
70.9337209302
 21
176.3307815881
  0
LINE
  8
0
 62
7
  6
CONTINUOUS
 10
70.9337209302
 20
164.2308463189
 11
70.9337209302
 21
163.6307815881
  0
LINE
  8
0
 62
7
  6
CONTINUOUS
 10
70.9337209302
 20
151.5308463189
 11
70.9337209302
 21
150.9307815881
  0
LINE
  8
0
 62
7
  6
CONTINUOUS
 10
70.9337209302
 20
138.8308463189
 11
70.9337209302
 21
138.2307815881
  0
LINE
  8
0
 62
7
  6
CONTINUOUS
 10
70.9337209302
 20
125.9307815881
 11
70.9337209302
 21
126.4808139535
  0
LINE
  8
0
 62
7
  6
CONTINUOUS
 10
70.9337209302
 20
252.9307815881
 11
70.9337209302
 21
253.4808139535
  0
LINE
  8
1_AXIS
 62
2
  6
CENTER
 10
73.4837209302
 20
190.5558139535
 11
73.4837209302
 21
188.1559139535
  0
LINE
  8
1_AXIS
 62
2
  6
CONTINUOUS
 10
73.4837209302
 20
187.0358139535
 11
73.4837209302
 21
185.2758139535
  0
LINE
  8
1_AXIS
 62
2
  6
CENTER
 10
73.4837209302
 20
181.7558139535
 11
73.4837209302
 21
184.1557139535
  0
POLYLINE
  8
0
 62
7
  6
CONTINUOUS
 66
1
 70
0
  0
VERTEX
  8
0
 62
7
  6
CONTINUOUS
 10
76.0337209302
 20
246.3808463189
  0
VERTEX
  8
0
 62
7
  6
CONTINUOUS
 10
76.042371835
 20
246.5018095387
  0
VERTEX
  8
0
 62
7
  6
CONTINUOUS
 10
76.0681488558
 20
246.6203106461
  0
VERTEX
  8
0
 62
7
  6
CONTINUOUS
 10
76.1105278183
 20
246.7339373162
  0
VERTEX
  8
0
 62
7
  6
CONTINUOUS
 10
76.1686464394
 20
246.8403762549
  0
VERTEX
  8
0
 62
7
  6
CONTINUOUS
 10
76.2413218179
 20
246.9374603842
  0
VERTEX
  8
0
 62
7
  6
CONTINUOUS
 10
76.3270744995
 20
247.0232130658
  0
VERTEX
  8
0
 62
7
  6
CONTINUOUS
 10
76.4241586288
 20
247.0958884443
  0
VERTEX
  8
0
 62
7
  6
CONTINUOUS
 10
76.5305975675
 20
247.1540070654
  0
VERTEX
  8
0
 62
7
  6
CONTINUOUS
 10
76.6442242376
 20
247.1963860279
  0
VERTEX
  8
0
 62
7
  6
CONTINUOUS
 10
76.762725345
 20
247.2221630487
  0
VERTEX
  8
0
 62
7
  6
CONTINUOUS
 10
76.8836885648
 20
247.2308139535
  0
SEQEND
  0
POLYLINE
  8
0
 62
7
  6
CONTINUOUS
 66
1
 70
0
  0
VERTEX
  8
0
 62
7
  6
CONTINUOUS
 10
76.8836885648
 20
184.1308139535
  0
VERTEX
  8
0
 62
7
  6
CONTINUOUS
 10
76.762725345
 20
184.1221630487
  0
VERTEX
  8
0
 62
7
  6
CONTINUOUS
 10
76.6442242376
 20
184.0963860279
  0
VERTEX
  8
0
 62
7
  6
CONTINUOUS
 10
76.5305975675
 20
184.0540070654
  0
VERTEX
  8
0
 62
7
  6
CONTINUOUS
 10
76.4241586288
 20
183.9958884443
  0
VERTEX
  8
0
 62
7
  6
CONTINUOUS
 10
76.3270744995
 20
183.9232130658
  0
VERTEX
  8
0
 62
7
  6
CONTINUOUS
 10
76.2413218179
 20
183.8374603842
  0
VERTEX
  8
0
 62
7
  6
CONTINUOUS
 10
76.1686464394
 20
183.7403762549
  0
VERTEX
  8
0
 62
7
  6
CONTINUOUS
 10
76.1105278183
 20
183.6339373162
  0
VERTEX
  8
0
 62
7
  6
CONTINUOUS
 10
76.0681488558
 20
183.5203106461
  0
VERTEX
  8
0
 62
7
  6
CONTINUOUS
 10
76.042371835
 20
183.4018095387
  0
VERTEX
  8
0
 62
7
  6
CONTINUOUS
 10
76.0337209302
 20
183.2808463189
  0
SEQEND
  0
POLYLINE
  8
1_AXIS
 62
7
  6
CONTINUOUS
 66
1
 70
0
  0
VERTEX
  8
1_AXIS
 62
7
  6
CONTINUOUS
 10
83.8636696131
 20
184.1410558982
  0
VERTEX
  8
1_AXIS
 62
7
  6
CONTINUOUS
 10
83.7424574809
 20
184.1386206368
  0
VERTEX
  8
1_AXIS
 62
7
  6
CONTINUOUS
 10
83.654673735
 20
184.1360785068
  0
VERTEX
  8
1_AXIS
 62
7
  6
CONTINUOUS
 10
83.6015196971
 20
184.1334643478
  0
VERTEX
  8
1_AXIS
 62
7
  6
CONTINUOUS
 10
83.5837209302
 20
184.1308139535
  0
SEQEND
  0
LINE
  8
1_AXIS
 62
7
  6
CONTINUOUS
 10
84.1992869652
 20
184.1454741092
 11
83.8636696131
 21
184.1410558982
  0
LINE
  8
1_AXIS
 62
7
  6
CONTINUOUS
 10
84.8983667336
 20
184.1505371855
 11
84.1992869652
 21
184.1454741092
  0
POLYLINE
  8
1_AXIS
 62
7
  6
CONTINUOUS
 66
1
 70
0
  0
VERTEX
  8
1_AXIS
 62
7
  6
CONTINUOUS
 10
86.056415937
 20
184.1534765949
  0
VERTEX
  8
1_AXIS
 62
7
  6
CONTINUOUS
 10
85.7543215807
 20
184.1531922294
  0
VERTEX
  8
1_AXIS
 62
7
  6
CONTINUOUS
 10
84.8983667336
 20
184.1505371855
  0
SEQEND
  0
LINE
  8
1_AXIS
 62
7
  6
CONTINUOUS
 10
83.5837209302
 20
181.8308139535
 11
76.8836885648
 21
181.8308139535
  0
LINE
  8
1_AXIS
 62
7
  6
CONTINUOUS
 10
76.8836885648
 20
184.1308139535
 11
83.5837209302
 21
184.1308139535
  0
LINE
  8
0
 62
7
  6
CONTINUOUS
 10
89.8837209298
 20
185.9808139535
 11
75.7216975091
 21
185.9808139535
  0
LINE
  8
1_AXIS
 62
2
  6
CENTER
 10
77.8837209302
 20
186.1558139535
 11
75.4838209302
 21
186.1558139535
  0
LINE
  8
1_AXIS
 62
2
  6
CONTINUOUS
 10
74.3637209302
 20
186.1558139535
 11
72.6037209302
 21
186.1558139535
  0
LINE
  8
1_AXIS
 62
2
  6
CENTER
 10
69.0837209302
 20
186.1558139535
 11
71.4836209302
 21
186.1558139535
  0
LINE
  8
0
 62
7
  6
CONTINUOUS
 10
57.0837209306
 20
186.3308139535
 11
71.2457443513
 21
186.3308139535
  0
LINE
  8
1_AXIS
 62
7
  6
CONTINUOUS
 10
86.056415937
 20
181.8081513121
 11
85.171136273
 21
181.8099155697
  0
LINE
  8
1_AXIS
 62
7
  6
CONTINUOUS
 10
85.171136273
 20
181.8099155697
 11
84.6431875227
 21
181.8125358902
  0
LINE
  8
1_AXIS
 62
7
  6
CONTINUOUS
 10
84.6431875227
 20
181.8125358902
 11
84.1992869652
 21
181.8161537978
  0
POLYLINE
  8
1_AXIS
 62
7
  6
CONTINUOUS
 66
1
 70
0
  0
VERTEX
  8
1_AXIS
 62
7
  6
CONTINUOUS
 10
84.1992869652
 20
181.8161537978
  0
VERTEX
  8
1_AXIS
 62
7
  6
CONTINUOUS
 10
83.8636696131
 20
181.8205720088
  0
VERTEX
  8
1_AXIS
 62
7
  6
CONTINUOUS
 10
83.7424574809
 20
181.8230072702
  0
VERTEX
  8
1_AXIS
 62
7
  6
CONTINUOUS
 10
83.654673735
 20
181.8255494002
  0
VERTEX
  8
1_AXIS
 62
7
  6
CONTINUOUS
 10
83.6015196971
 20
181.8281635592
  0
VERTEX
  8
1_AXIS
 62
7
  6
CONTINUOUS
 10
83.5837209302
 20
181.8308139535
  0
SEQEND
  0
POLYLINE
  8
1_AXIS
 62
7
  6
CONTINUOUS
 66
1
 70
0
  0
VERTEX
  8
1_AXIS
 62
7
  6
CONTINUOUS
 10
86.056415937
 20
184.1534765949
  0
VERTEX
  8
1_AXIS
 62
7
  6
CONTINUOUS
 10
86.1202465682
 20
184.1510986003
  0
VERTEX
  8
1_AXIS
 62
7
  6
CONTINUOUS
 10
86.1837209302
 20
184.14392085
  0
SEQEND
  0
POLYLINE
  8
1_AXIS
 62
7
  6
CONTINUOUS
 66
1
 70
0
  0
VERTEX
  8
1_AXIS
 62
7
  6
CONTINUOUS
 10
60.7837209302
 20
188.1677070569
  0
VERTEX
  8
1_AXIS
 62
7
  6
CONTINUOUS
 10
60.6558999637
 20
188.1973422798
  0
VERTEX
  8
1_AXIS
 62
7
  6
CONTINUOUS
 10
60.5326956136
 20
188.2471077765
  0
VERTEX
  8
1_AXIS
 62
7
  6
CONTINUOUS
 10
60.4185644265
 20
188.3156836155
  0
VERTEX
  8
1_AXIS
 62
7
  6
CONTINUOUS
 10
60.3151239319
 20
188.4027036598
  0
VERTEX
  8
1_AXIS
 62
7
  6
CONTINUOUS
 10
60.2265412908
 20
188.5053794997
  0
VERTEX
  8
1_AXIS
 62
7
  6
CONTINUOUS
 10
60.1560625922
 20
188.619520761
  0
VERTEX
  8
1_AXIS
 62
7
  6
CONTINUOUS
 10
60.104089675
 20
188.7441679364
  0
VERTEX
  8
1_AXIS
 62
7
  6
CONTINUOUS
 10
60.0723779412
 20
188.8758839451
  0
VERTEX
  8
1_AXIS
 62
7
  6
CONTINUOUS
 10
60.0619229549
 20
189.0089836128
  0
SEQEND
  0
LINE
  8
0
 62
7
  6
CONTINUOUS
 10
71.8914286335
 20
186.0944184374
 11
72.2618105172
 21
185.781233057
  0
POLYLINE
  8
0
 62
7
  6
CONTINUOUS
 66
1
 70
0
  0
VERTEX
  8
0
 62
7
  6
CONTINUOUS
 10
70.9337209302
 20
240.4308463189
  0
VERTEX
  8
0
 62
7
  6
CONTINUOUS
 10
70.9250700254
 20
240.5518095387
  0
VERTEX
  8
0
 62
7
  6
CONTINUOUS
 10
70.8992930047
 20
240.6703106461
  0
VERTEX
  8
0
 62
7
  6
CONTINUOUS
 10
70.8569140422
 20
240.7839373162
  0
VERTEX
  8
0
 62
7
  6
CONTINUOUS
 10
70.7987954211
 20
240.8903762549
  0
VERTEX
  8
0
 62
7
  6
CONTINUOUS
 10
70.7261200426
 20
240.9874603842
  0
VERTEX
  8
0
 62
7
  6
CONTINUOUS
 10
70.640367361
 20
241.0732130658
  0
VERTEX
  8
0
 62
7
  6
CONTINUOUS
 10
70.5432832317
 20
241.1458884443
  0
VERTEX
  8
0
 62
7
  6
CONTINUOUS
 10
70.436844293
 20
241.2040070654
  0
VERTEX
  8
0
 62
7
  6
CONTINUOUS
 10
70.3232176229
 20
241.2463860279
  0
VERTEX
  8
0
 62
7
  6
CONTINUOUS
 10
70.2047165154
 20
241.2721630487
  0
VERTEX
  8
0
 62
7
  6
CONTINUOUS
 10
70.0837532956
 20
241.2808139535
  0
SEQEND
  0
POLYLINE
  8
0
 62
7
  6
CONTINUOUS
 66
1
 70
0
  0
VERTEX
  8
0
 62
7
  6
CONTINUOUS
 10
76.0337209302
 20
169.9807815881
  0
VERTEX
  8
0
 62
7
  6
CONTINUOUS
 10
76.042371835
 20
169.8598183683
  0
VERTEX
  8
0
 62
7
  6
CONTINUOUS
 10
76.0681488558
 20
169.7413172609
  0
VERTEX
  8
0
 62
7
  6
CONTINUOUS
 10
76.1105278183
 20
169.6276905908
  0
VERTEX
  8
0
 62
7
  6
CONTINUOUS
 10
76.1686464394
 20
169.5212516521
  0
VERTEX
  8
0
 62
7
  6
CONTINUOUS
 10
76.2413218179
 20
169.4241675227
  0
VERTEX
  8
0
 62
7
  6
CONTINUOUS
 10
76.3270744995
 20
169.3384148412
  0
VERTEX
  8
0
 62
7
  6
CONTINUOUS
 10
76.4241586288
 20
169.2657394626
  0
VERTEX
  8
0
 62
7
  6
CONTINUOUS
 10
76.5305975675
 20
169.2076208416
  0
VERTEX
  8
0
 62
7
  6
CONTINUOUS
 10
76.6442242376
 20
169.165241879
  0
VERTEX
  8
0
 62
7
  6
CONTINUOUS
 10
76.762725345
 20
169.1394648583
  0
VERTEX
  8
0
 62
7
  6
CONTINUOUS
 10
76.8836885648
 20
169.1308139535
  0
SEQEND
  0
POLYLINE
  8
0
 62
7
  6
CONTINUOUS
 66
1
 70
0
  0
VERTEX
  8
0
 62
7
  6
CONTINUOUS
 10
76.0337209302
 20
182.6807815881
  0
VERTEX
  8
0
 62
7
  6
CONTINUOUS
 10
76.042371835
 20
182.5598183683
  0
VERTEX
  8
0
 62
7
  6
CONTINUOUS
 10
76.0681488558
 20
182.4413172609
  0
VERTEX
  8
0
 62
7
  6
CONTINUOUS
 10
76.1105278183
 20
182.3276905908
  0
VERTEX
  8
0
 62
7
  6
CONTINUOUS
 10
76.1686464394
 20
182.2212516521
  0
VERTEX
  8
0
 62
7
  6
CONTINUOUS
 10
76.2413218179
 20
182.1241675227
  0
VERTEX
  8
0
 62
7
  6
CONTINUOUS
 10
76.3270744995
 20
182.0384148412
  0
VERTEX
  8
0
 62
7
  6
CONTINUOUS
 10
76.4241586288
 20
181.9657394626
  0
VERTEX
  8
0
 62
7
  6
CONTINUOUS
 10
76.5305975675
 20
181.9076208416
  0
VERTEX
  8
0
 62
7
  6
CONTINUOUS
 10
76.6442242376
 20
181.865241879
  0
VERTEX
  8
0
 62
7
  6
CONTINUOUS
 10
76.762725345
 20
181.8394648583
  0
VERTEX
  8
0
 62
7
  6
CONTINUOUS
 10
76.8836885648
 20
181.8308139535
  0
SEQEND
  0
POLYLINE
  8
0
 62
7
  6
CONTINUOUS
 66
1
 70
0
  0
VERTEX
  8
0
 62
7
  6
CONTINUOUS
 10
76.0337209302
 20
195.3807815881
  0
VERTEX
  8
0
 62
7
  6
CONTINUOUS
 10
76.042371835
 20
195.2598183683
  0
VERTEX
  8
0
 62
7
  6
CONTINUOUS
 10
76.0681488558
 20
195.1413172609
  0
VERTEX
  8
0
 62
7
  6
CONTINUOUS
 10
76.1105278183
 20
195.0276905908
  0
VERTEX
  8
0
 62
7
  6
CONTINUOUS
 10
76.1686464394
 20
194.9212516521
  0
VERTEX
  8
0
 62
7
  6
CONTINUOUS
 10
76.2413218179
 20
194.8241675227
  0
VERTEX
  8
0
 62
7
  6
CONTINUOUS
 10
76.3270744995
 20
194.7384148412
  0
VERTEX
  8
0
 62
7
  6
CONTINUOUS
 10
76.4241586288
 20
194.6657394626
  0
VERTEX
  8
0
 62
7
  6
CONTINUOUS
 10
76.5305975675
 20
194.6076208416
  0
VERTEX
  8
0
 62
7
  6
CONTINUOUS
 10
76.6442242376
 20
194.565241879
  0
VERTEX
  8
0
 62
7
  6
CONTINUOUS
 10
76.762725345
 20
194.5394648583
  0
VERTEX
  8
0
 62
7
  6
CONTINUOUS
 10
76.8836885648
 20
194.5308139535
  0
SEQEND
  0
POLYLINE
  8
0
 62
7
  6
CONTINUOUS
 66
1
 70
0
  0
VERTEX
  8
0
 62
7
  6
CONTINUOUS
 10
76.0337209302
 20
208.0807815881
  0
VERTEX
  8
0
 62
7
  6
CONTINUOUS
 10
76.042371835
 20
207.9598183683
  0
VERTEX
  8
0
 62
7
  6
CONTINUOUS
 10
76.0681488558
 20
207.8413172609
  0
VERTEX
  8
0
 62
7
  6
CONTINUOUS
 10
76.1105278183
 20
207.7276905908
  0
VERTEX
  8
0
 62
7
  6
CONTINUOUS
 10
76.1686464394
 20
207.6212516521
  0
VERTEX
  8
0
 62
7
  6
CONTINUOUS
 10
76.2413218179
 20
207.5241675227
  0
VERTEX
  8
0
 62
7
  6
CONTINUOUS
 10
76.3270744995
 20
207.4384148412
  0
VERTEX
  8
0
 62
7
  6
CONTINUOUS
 10
76.4241586288
 20
207.3657394626
  0
VERTEX
  8
0
 62
7
  6
CONTINUOUS
 10
76.5305975675
 20
207.3076208416
  0
VERTEX
  8
0
 62
7
  6
CONTINUOUS
 10
76.6442242376
 20
207.265241879
  0
VERTEX
  8
0
 62
7
  6
CONTINUOUS
 10
76.762725345
 20
207.2394648583
  0
VERTEX
  8
0
 62
7
  6
CONTINUOUS
 10
76.8836885648
 20
207.2308139535
  0
SEQEND
  0
POLYLINE
  8
0
 62
7
  6
CONTINUOUS
 66
1
 70
0
  0
VERTEX
  8
0
 62
7
  6
CONTINUOUS
 10
76.0337209302
 20
220.7807815881
  0
VERTEX
  8
0
 62
7
  6
CONTINUOUS
 10
76.042371835
 20
220.6598183683
  0
VERTEX
  8
0
 62
7
  6
CONTINUOUS
 10
76.0681488558
 20
220.5413172609
  0
VERTEX
  8
0
 62
7
  6
CONTINUOUS
 10
76.1105278183
 20
220.4276905908
  0
VERTEX
  8
0
 62
7
  6
CONTINUOUS
 10
76.1686464394
 20
220.3212516521
  0
VERTEX
  8
0
 62
7
  6
CONTINUOUS
 10
76.2413218179
 20
220.2241675227
  0
VERTEX
  8
0
 62
7
  6
CONTINUOUS
 10
76.3270744995
 20
220.1384148412
  0
VERTEX
  8
0
 62
7
  6
CONTINUOUS
 10
76.4241586288
 20
220.0657394626
  0
VERTEX
  8
0
 62
7
  6
CONTINUOUS
 10
76.5305975675
 20
220.0076208416
  0
VERTEX
  8
0
 62
7
  6
CONTINUOUS
 10
76.6442242376
 20
219.965241879
  0
VERTEX
  8
0
 62
7
  6
CONTINUOUS
 10
76.762725345
 20
219.9394648583
  0
VERTEX
  8
0
 62
7
  6
CONTINUOUS
 10
76.8836885648
 20
219.9308139535
  0
SEQEND
  0
POLYLINE
  8
0
 62
7
  6
CONTINUOUS
 66
1
 70
0
  0
VERTEX
  8
0
 62
7
  6
CONTINUOUS
 10
76.0337209302
 20
233.4807815881
  0
VERTEX
  8
0
 62
7
  6
CONTINUOUS
 10
76.042371835
 20
233.3598183683
  0
VERTEX
  8
0
 62
7
  6
CONTINUOUS
 10
76.0681488558
 20
233.2413172609
  0
VERTEX
  8
0
 62
7
  6
CONTINUOUS
 10
76.1105278183
 20
233.1276905908
  0
VERTEX
  8
0
 62
7
  6
CONTINUOUS
 10
76.1686464394
 20
233.0212516521
  0
VERTEX
  8
0
 62
7
  6
CONTINUOUS
 10
76.2413218179
 20
232.9241675227
  0
VERTEX
  8
0
 62
7
  6
CONTINUOUS
 10
76.3270744995
 20
232.8384148412
  0
VERTEX
  8
0
 62
7
  6
CONTINUOUS
 10
76.4241586288
 20
232.7657394626
  0
VERTEX
  8
0
 62
7
  6
CONTINUOUS
 10
76.5305975675
 20
232.7076208416
  0
VERTEX
  8
0
 62
7
  6
CONTINUOUS
 10
76.6442242376
 20
232.665241879
  0
VERTEX
  8
0
 62
7
  6
CONTINUOUS
 10
76.762725345
 20
232.6394648583
  0
VERTEX
  8
0
 62
7
  6
CONTINUOUS
 10
76.8836885648
 20
232.6308139535
  0
SEQEND
  0
LINE
  8
0
 62
7
  6
CONTINUOUS
 10
76.0337209302
 20
246.3808463189
 11
76.0337209302
 21
245.8308139535
  0
LINE
  8
0
 62
7
  6
CONTINUOUS
 10
76.0337209302
 20
119.3808463189
 11
76.0337209302
 21
118.8308139535
  0
LINE
  8
0
 62
7
  6
CONTINUOUS
 10
76.0337209302
 20
131.8807815881
 11
76.0337209302
 21
132.4808463189
  0
LINE
  8
0
 62
7
  6
CONTINUOUS
 10
76.0337209302
 20
144.5807815881
 11
76.0337209302
 21
145.1808463189
  0
LINE
  8
0
 62
7
  6
CONTINUOUS
 10
76.0337209302
 20
157.2807815881
 11
76.0337209302
 21
157.8808463189
  0
LINE
  8
0
 62
7
  6
CONTINUOUS
 10
76.0337209302
 20
169.9807815881
 11
76.0337209302
 21
170.5808463189
  0
LINE
  8
0
 62
7
  6
CONTINUOUS
 10
76.0337209302
 20
182.6807815881
 11
76.0337209302
 21
183.2808463189
  0
LINE
  8
0
 62
7
  6
CONTINUOUS
 10
76.0337209302
 20
195.3807815881
 11
76.0337209302
 21
195.9808463189
  0
LINE
  8
0
 62
7
  6
CONTINUOUS
 10
76.0337209302
 20
208.0807815881
 11
76.0337209302
 21
208.6808463189
  0
LINE
  8
0
 62
7
  6
CONTINUOUS
 10
76.0337209302
 20
220.7807815881
 11
76.0337209302
 21
221.3808463189
  0
LINE
  8
0
 62
7
  6
CONTINUOUS
 10
76.0337209302
 20
233.4807815881
 11
76.0337209302
 21
234.0808463189
  0
LINE
  8
2_FEATURE
 62
7
  6
CONTINUOUS
 10
76.2637209302
 20
112.1308139535
 11
76.2637209302
 21
113.4808139535
  0
LINE
  8
2_FEATURE
 62
7
  6
CONTINUOUS
 10
76.2637209302
 20
122.7308139535
 11
76.2637209302
 21
128.9308139535
  0
LINE
  8
2_FEATURE
 62
7
  6
CONTINUOUS
 10
76.2637209302
 20
135.4308139535
 11
76.2637209302
 21
141.6308139535
  0
LINE
  8
2_FEATURE
 62
7
  6
CONTINUOUS
 10
76.2637209302
 20
148.1308139535
 11
76.2637209302
 21
154.3308139535
  0
LINE
  8
2_FEATURE
 62
7
  6
CONTINUOUS
 10
76.2637209302
 20
160.8308139535
 11
76.2637209302
 21
167.0308139535
  0
LINE
  8
2_FEATURE
 62
7
  6
CONTINUOUS
 10
76.2637209302
 20
173.5308139535
 11
76.2637209302
 21
179.7308139535
  0
LINE
  8
2_FEATURE
 62
7
  6
CONTINUOUS
 10
76.2637209302
 20
186.2308139535
 11
76.2637209302
 21
192.4308139535
  0
LINE
  8
2_FEATURE
 62
7
  6
CONTINUOUS
 10
76.2637209302
 20
198.9308139535
 11
76.2637209302
 21
205.1308139535
  0
LINE
  8
2_FEATURE
 62
7
  6
CONTINUOUS
 10
76.2637209302
 20
211.6308139535
 11
76.2637209302
 21
217.8308139535
  0
LINE
  8
2_FEATURE
 62
7
  6
CONTINUOUS
 10
76.2637209302
 20
224.3308139535
 11
76.2637209302
 21
230.5308139535
  0
LINE
  8
2_FEATURE
 62
7
  6
CONTINUOUS
 10
76.2637209302
 20
237.0308139535
 11
76.2637209302
 21
243.2308139535
  0
LINE
  8
2_FEATURE
 62
7
  6
CONTINUOUS
 10
76.2637209302
 20
249.7308139535
 11
76.2637209302
 21
255.9308139535
  0
POLYLINE
  8
0
 62
7
  6
CONTINUOUS
 66
1
 70
0
  0
VERTEX
  8
0
 62
7
  6
CONTINUOUS
 10
70.9337209302
 20
125.9307815881
  0
VERTEX
  8
0
 62
7
  6
CONTINUOUS
 10
70.9250700254
 20
125.8098183683
  0
VERTEX
  8
0
 62
7
  6
CONTINUOUS
 10
70.8992930047
 20
125.6913172609
  0
VERTEX
  8
0
 62
7
  6
CONTINUOUS
 10
70.8569140422
 20
125.5776905908
  0
VERTEX
  8
0
 62
7
  6
CONTINUOUS
 10
70.7987954211
 20
125.4712516521
  0
VERTEX
  8
0
 62
7
  6
CONTINUOUS
 10
70.7261200426
 20
125.3741675227
  0
VERTEX
  8
0
 62
7
  6
CONTINUOUS
 10
70.640367361
 20
125.2884148412
  0
VERTEX
  8
0
 62
7
  6
CONTINUOUS
 10
70.5432832317
 20
125.2157394626
  0
VERTEX
  8
0
 62
7
  6
CONTINUOUS
 10
70.436844293
 20
125.1576208416
  0
VERTEX
  8
0
 62
7
  6
CONTINUOUS
 10
70.3232176229
 20
125.115241879
  0
VERTEX
  8
0
 62
7
  6
CONTINUOUS
 10
70.2047165154
 20
125.0894648583
  0
VERTEX
  8
0
 62
7
  6
CONTINUOUS
 10
70.0837532956
 20
125.0808139535
  0
SEQEND
  0
POLYLINE
  8
1_AXIS
 62
7
  6
CONTINUOUS
 66
1
 70
0
  0
VERTEX
  8
1_AXIS
 62
7
  6
CONTINUOUS
 10
63.3837209302
 20
188.1808139535
  0
VERTEX
  8
1_AXIS
 62
7
  6
CONTINUOUS
 10
63.3659221636
 20
188.1781635592
  0
VERTEX
  8
1_AXIS
 62
7
  6
CONTINUOUS
 10
63.3127681262
 20
188.1755494002
  0
VERTEX
  8
1_AXIS
 62
7
  6
CONTINUOUS
 10
63.2249843808
 20
188.1730072702
  0
VERTEX
  8
1_AXIS
 62
7
  6
CONTINUOUS
 10
63.103772249
 20
188.1705720088
  0
SEQEND
  0
POLYLINE
  8
1_AXIS
 62
7
  6
CONTINUOUS
 66
1
 70
0
  0
VERTEX
  8
1_AXIS
 62
7
  6
CONTINUOUS
 10
60.7837209302
 20
190.49392085
  0
VERTEX
  8
1_AXIS
 62
7
  6
CONTINUOUS
 10
60.8471998074
 20
190.5010989392
  0
VERTEX
  8
1_AXIS
 62
7
  6
CONTINUOUS
 10
60.9110259235
 20
190.5034765949
  0
SEQEND
  0
POLYLINE
  8
0
 62
7
  6
CONTINUOUS
 66
1
 70
0
  0
VERTEX
  8
0
 62
7
  6
CONTINUOUS
 10
70.0837532956
 20
188.1808139535
  0
VERTEX
  8
0
 62
7
  6
CONTINUOUS
 10
70.2047165154
 20
188.1894648583
  0
VERTEX
  8
0
 62
7
  6
CONTINUOUS
 10
70.3232176229
 20
188.215241879
  0
VERTEX
  8
0
 62
7
  6
CONTINUOUS
 10
70.436844293
 20
188.2576208416
  0
VERTEX
  8
0
 62
7
  6
CONTINUOUS
 10
70.5432832317
 20
188.3157394626
  0
VERTEX
  8
0
 62
7
  6
CONTINUOUS
 10
70.640367361
 20
188.3884148412
  0
VERTEX
  8
0
 62
7
  6
CONTINUOUS
 10
70.7261200426
 20
188.4741675227
  0
VERTEX
  8
0
 62
7
  6
CONTINUOUS
 10
70.7987954211
 20
188.5712516521
  0
VERTEX
  8
0
 62
7
  6
CONTINUOUS
 10
70.8569140422
 20
188.6776905908
  0
VERTEX
  8
0
 62
7
  6
CONTINUOUS
 10
70.8992930047
 20
188.7913172609
  0
VERTEX
  8
0
 62
7
  6
CONTINUOUS
 10
70.9250700254
 20
188.9098183683
  0
VERTEX
  8
0
 62
7
  6
CONTINUOUS
 10
70.9337209302
 20
189.0307815881
  0
SEQEND
  0
LINE
  8
1_AXIS
 62
7
  6
CONTINUOUS
 10
63.103772249
 20
188.1705720088
 11
62.7681548962
 21
188.1661537978
  0
LINE
  8
1_AXIS
 62
7
  6
CONTINUOUS
 10
62.7681548962
 20
188.1661537978
 11
62.3242543367
 21
188.1625358902
  0
LINE
  8
1_AXIS
 62
7
  6
CONTINUOUS
 10
62.3242543367
 20
188.1625358902
 11
61.5096796203
 21
188.1590265036
  0
LINE
  8
1_AXIS
 62
7
  6
CONTINUOUS
 10
61.5096796203
 20
188.1590265036
 11
60.9110259235
 21
188.1581513121
  0
LINE
  8
1_AXIS
 62
7
  6
CONTINUOUS
 10
70.0837532956
 20
188.1808139535
 11
63.3837209302
 21
188.1808139535
  0
LINE
  8
1_AXIS
 62
7
  6
CONTINUOUS
 10
63.3837209302
 20
190.4808139535
 11
70.0837532956
 21
190.4808139535
  0
LINE
  8
1_AXIS
 62
7
  6
CONTINUOUS
 10
62.0690751249
 20
190.5005371855
 11
60.9110259235
 21
190.5034765949
  0
LINE
  8
1_AXIS
 62
7
  6
CONTINUOUS
 10
62.7681548962
 20
190.4954741091
 11
62.0690751249
 21
190.5005371855
  0
POLYLINE
  8
1_AXIS
 62
7
  6
CONTINUOUS
 66
1
 70
0
  0
VERTEX
  8
1_AXIS
 62
7
  6
CONTINUOUS
 10
60.9110259235
 20
188.1581513121
  0
VERTEX
  8
1_AXIS
 62
7
  6
CONTINUOUS
 10
60.8471998129
 20
188.1605289674
  0
VERTEX
  8
1_AXIS
 62
7
  6
CONTINUOUS
 10
60.7837209302
 20
188.1677070569
  0
SEQEND
  0
POLYLINE
  8
1_AXIS
 62
7
  6
CONTINUOUS
 66
1
 70
0
  0
VERTEX
  8
1_AXIS
 62
7
  6
CONTINUOUS
 10
63.3837209302
 20
190.4808139535
  0
VERTEX
  8
1_AXIS
 62
7
  6
CONTINUOUS
 10
63.3659221636
 20
190.4834643478
  0
VERTEX
  8
1_AXIS
 62
7
  6
CONTINUOUS
 10
63.3127681262
 20
190.4860785068
  0
VERTEX
  8
1_AXIS
 62
7
  6
CONTINUOUS
 10
63.2249843808
 20
190.4886206368
  0
VERTEX
  8
1_AXIS
 62
7
  6
CONTINUOUS
 10
63.103772249
 20
190.4910558982
  0
VERTEX
  8
1_AXIS
 62
7
  6
CONTINUOUS
 10
62.7681548962
 20
190.4954741091
  0
SEQEND
  0
POLYLINE
  8
1_AXIS
 62
7
  6
CONTINUOUS
 66
1
 70
0
  0
VERTEX
  8
1_AXIS
 62
7
  6
CONTINUOUS
 10
86.1837209302
 20
184.14392085
  0
VERTEX
  8
1_AXIS
 62
7
  6
CONTINUOUS
 10
86.2992673775
 20
184.1180527464
  0
VERTEX
  8
1_AXIS
 62
7
  6
CONTINUOUS
 10
86.4110846845
 20
184.0758601237
  0
VERTEX
  8
1_AXIS
 62
7
  6
CONTINUOUS
 10
86.5160774547
 20
184.0182053771
  0
VERTEX
  8
1_AXIS
 62
7
  6
CONTINUOUS
 10
86.6128180022
 20
183.9455294544
  0
VERTEX
  8
1_AXIS
 62
7
  6
CONTINUOUS
 10
86.6989301612
 20
183.8590415767
  0
VERTEX
  8
1_AXIS
 62
7
  6
CONTINUOUS
 10
86.7715271362
 20
183.7614979024
  0
VERTEX
  8
1_AXIS
 62
7
  6
CONTINUOUS
 10
86.8290420526
 20
183.6555925852
  0
VERTEX
  8
1_AXIS
 62
7
  6
CONTINUOUS
 10
86.8713889362
 20
183.5414621556
  0
VERTEX
  8
1_AXIS
 62
7
  6
CONTINUOUS
 10
86.8970662626
 20
183.4223905317
  0
VERTEX
  8
1_AXIS
 62
7
  6
CONTINUOUS
 10
86.9055189056
 20
183.3026442942
  0
SEQEND
  0
LINE
  8
0
 62
7
  6
CONTINUOUS
 10
75.076013227
 20
186.2172094696
 11
74.7056313432
 21
186.53039485
  0
POLYLINE
  8
0
 62
7
  6
CONTINUOUS
 66
1
 70
0
  0
VERTEX
  8
0
 62
7
  6
CONTINUOUS
 10
76.2637209302
 20
113.4808139535
  0
VERTEX
  8
0
 62
7
  6
CONTINUOUS
 10
76.2838644749
 20
113.8276848502
  0
VERTEX
  8
0
 62
7
  6
CONTINUOUS
 10
76.3439344585
 20
114.1699053553
  0
SEQEND
  0
POLYLINE
  8
1_AXIS
 62
7
  6
CONTINUOUS
 66
1
 70
0
  0
VERTEX
  8
1_AXIS
 62
7
  6
CONTINUOUS
 10
86.9055189056
 20
245.8308139535
  0
VERTEX
  8
1_AXIS
 62
7
  6
CONTINUOUS
 10
86.8970751035
 20
245.7111551226
  0
VERTEX
  8
1_AXIS
 62
7
  6
CONTINUOUS
 10
86.8714240408
 20
245.5922067262
  0
VERTEX
  8
1_AXIS
 62
7
  6
CONTINUOUS
 10
86.8291168077
 20
245.4782194321
  0
VERTEX
  8
1_AXIS
 62
7
  6
CONTINUOUS
 10
86.7716494814
 20
245.3724633899
  0
VERTEX
  8
1_AXIS
 62
7
  6
CONTINUOUS
 10
86.6991042379
 20
245.275065757
  0
VERTEX
  8
1_AXIS
 62
7
  6
CONTINUOUS
 10
86.6130331569
 20
245.1886984759
  0
VERTEX
  8
1_AXIS
 62
7
  6
CONTINUOUS
 10
86.5163097783
 20
245.1161057853
  0
VERTEX
  8
1_AXIS
 62
7
  6
CONTINUOUS
 10
86.411307991
 20
245.0584974601
  0
VERTEX
  8
1_AXIS
 62
7
  6
CONTINUOUS
 10
86.2994209046
 20
245.0163055597
  0
SEQEND
  0
POLYLINE
  8
1_AXIS
 62
7
  6
CONTINUOUS
 66
1
 70
0
  0
VERTEX
  8
1_AXIS
 62
7
  6
CONTINUOUS
 10
86.9055189056
 20
233.4589836128
  0
VERTEX
  8
1_AXIS
 62
7
  6
CONTINUOUS
 10
86.8970738573
 20
233.3392909227
  0
VERTEX
  8
1_AXIS
 62
7
  6
CONTINUOUS
 10
86.8714045781
 20
233.2202193741
  0
VERTEX
  8
1_AXIS
 62
7
  6
CONTINUOUS
 10
86.8290460505
 20
233.1060441145
  0
VERTEX
  8
1_AXIS
 62
7
  6
CONTINUOUS
 10
86.7715263904
 20
233.0001288368
  0
VERTEX
  8
1_AXIS
 62
7
  6
CONTINUOUS
 10
86.6989423553
 20
232.902600479
  0
VERTEX
  8
1_AXIS
 62
7
  6
CONTINUOUS
 10
86.6128240144
 20
232.8161036797
  0
VERTEX
  8
1_AXIS
 62
7
  6
CONTINUOUS
 10
86.5160351581
 20
232.7433952474
  0
VERTEX
  8
1_AXIS
 62
7
  6
CONTINUOUS
 10
86.4110354158
 20
232.6857451042
  0
VERTEX
  8
1_AXIS
 62
7
  6
CONTINUOUS
 10
86.2992486372
 20
232.6435695644
  0
VERTEX
  8
1_AXIS
 62
7
  6
CONTINUOUS
 10
86.1837209302
 20
232.6177070569
  0
SEQEND
  0
POLYLINE
  8
1_AXIS
 62
7
  6
CONTINUOUS
 66
1
 70
0
  0
VERTEX
  8
1_AXIS
 62
7
  6
CONTINUOUS
 10
86.9055189056
 20
220.7589836128
  0
VERTEX
  8
1_AXIS
 62
7
  6
CONTINUOUS
 10
86.8970738573
 20
220.6392909227
  0
VERTEX
  8
1_AXIS
 62
7
  6
CONTINUOUS
 10
86.8714045781
 20
220.5202193741
  0
VERTEX
  8
1_AXIS
 62
7
  6
CONTINUOUS
 10
86.8290460505
 20
220.4060441145
  0
VERTEX
  8
1_AXIS
 62
7
  6
CONTINUOUS
 10
86.7715263904
 20
220.3001288368
  0
VERTEX
  8
1_AXIS
 62
7
  6
CONTINUOUS
 10
86.6989423553
 20
220.202600479
  0
VERTEX
  8
1_AXIS
 62
7
  6
CONTINUOUS
 10
86.6128240144
 20
220.1161036797
  0
VERTEX
  8
1_AXIS
 62
7
  6
CONTINUOUS
 10
86.5160351581
 20
220.0433952474
  0
VERTEX
  8
1_AXIS
 62
7
  6
CONTINUOUS
 10
86.4110354158
 20
219.9857451042
  0
VERTEX
  8
1_AXIS
 62
7
  6
CONTINUOUS
 10
86.2992486372
 20
219.9435695644
  0
VERTEX
  8
1_AXIS
 62
7
  6
CONTINUOUS
 10
86.1837209302
 20
219.9177070569
  0
SEQEND
  0
POLYLINE
  8
0
 62
7
  6
CONTINUOUS
 66
1
 70
0
  0
VERTEX
  8
0
 62
7
  6
CONTINUOUS
 10
76.0337209302
 20
119.3808463189
  0
VERTEX
  8
0
 62
7
  6
CONTINUOUS
 10
76.042371835
 20
119.5018095387
  0
VERTEX
  8
0
 62
7
  6
CONTINUOUS
 10
76.0681488558
 20
119.6203106461
  0
VERTEX
  8
0
 62
7
  6
CONTINUOUS
 10
76.1105278183
 20
119.7339373162
  0
VERTEX
  8
0
 62
7
  6
CONTINUOUS
 10
76.1686464394
 20
119.8403762549
  0
VERTEX
  8
0
 62
7
  6
CONTINUOUS
 10
76.2413218179
 20
119.9374603842
  0
VERTEX
  8
0
 62
7
  6
CONTINUOUS
 10
76.3270744995
 20
120.0232130658
  0
VERTEX
  8
0
 62
7
  6
CONTINUOUS
 10
76.4241586288
 20
120.0958884443
  0
VERTEX
  8
0
 62
7
  6
CONTINUOUS
 10
76.5305975675
 20
120.1540070654
  0
VERTEX
  8
0
 62
7
  6
CONTINUOUS
 10
76.6442242376
 20
120.1963860279
  0
VERTEX
  8
0
 62
7
  6
CONTINUOUS
 10
76.762725345
 20
120.2221630487
  0
VERTEX
  8
0
 62
7
  6
CONTINUOUS
 10
76.8836885648
 20
120.2308139535
  0
SEQEND
  0
POLYLINE
  8
1_AXIS
 62
7
  6
CONTINUOUS
 66
1
 70
0
  0
VERTEX
  8
1_AXIS
 62
7
  6
CONTINUOUS
 10
86.1837209302
 20
194.5177070569
  0
VERTEX
  8
1_AXIS
 62
7
  6
CONTINUOUS
 10
86.1202475815
 20
194.5105293827
  0
VERTEX
  8
1_AXIS
 62
7
  6
CONTINUOUS
 10
86.056415937
 20
194.5081513121
  0
SEQEND
  0
POLYLINE
  8
0
 62
7
  6
CONTINUOUS
 66
1
 70
0
  0
VERTEX
  8
0
 62
7
  6
CONTINUOUS
 10
76.8836885648
 20
196.8308139535
  0
VERTEX
  8
0
 62
7
  6
CONTINUOUS
 10
76.762725345
 20
196.8221630487
  0
VERTEX
  8
0
 62
7
  6
CONTINUOUS
 10
76.6442242376
 20
196.7963860279
  0
VERTEX
  8
0
 62
7
  6
CONTINUOUS
 10
76.5305975675
 20
196.7540070654
  0
VERTEX
  8
0
 62
7
  6
CONTINUOUS
 10
76.4241586288
 20
196.6958884443
  0
VERTEX
  8
0
 62
7
  6
CONTINUOUS
 10
76.3270744995
 20
196.6232130658
  0
VERTEX
  8
0
 62
7
  6
CONTINUOUS
 10
76.2413218179
 20
196.5374603842
  0
VERTEX
  8
0
 62
7
  6
CONTINUOUS
 10
76.1686464394
 20
196.4403762549
  0
VERTEX
  8
0
 62
7
  6
CONTINUOUS
 10
76.1105278183
 20
196.3339373162
  0
VERTEX
  8
0
 62
7
  6
CONTINUOUS
 10
76.0681488558
 20
196.2203106461
  0
VERTEX
  8
0
 62
7
  6
CONTINUOUS
 10
76.042371835
 20
196.1018095387
  0
VERTEX
  8
0
 62
7
  6
CONTINUOUS
 10
76.0337209302
 20
195.9808463189
  0
SEQEND
  0
POLYLINE
  8
1_AXIS
 62
7
  6
CONTINUOUS
 66
1
 70
0
  0
VERTEX
  8
1_AXIS
 62
7
  6
CONTINUOUS
 10
83.8636696131
 20
196.8410558982
  0
VERTEX
  8
1_AXIS
 62
7
  6
CONTINUOUS
 10
83.7424574809
 20
196.8386206368
  0
VERTEX
  8
1_AXIS
 62
7
  6
CONTINUOUS
 10
83.654673735
 20
196.8360785068
  0
VERTEX
  8
1_AXIS
 62
7
  6
CONTINUOUS
 10
83.6015196971
 20
196.8334643478
  0
VERTEX
  8
1_AXIS
 62
7
  6
CONTINUOUS
 10
83.5837209302
 20
196.8308139535
  0
SEQEND
  0
LINE
  8
1_AXIS
 62
7
  6
CONTINUOUS
 10
84.1992869652
 20
196.8454741092
 11
83.8636696131
 21
196.8410558982
  0
LINE
  8
1_AXIS
 62
7
  6
CONTINUOUS
 10
84.8983667336
 20
196.8505371855
 11
84.1992869652
 21
196.8454741092
  0
POLYLINE
  8
1_AXIS
 62
7
  6
CONTINUOUS
 66
1
 70
0
  0
VERTEX
  8
1_AXIS
 62
7
  6
CONTINUOUS
 10
86.056415937
 20
196.8534765949
  0
VERTEX
  8
1_AXIS
 62
7
  6
CONTINUOUS
 10
85.7543215807
 20
196.8531922294
  0
VERTEX
  8
1_AXIS
 62
7
  6
CONTINUOUS
 10
84.8983667336
 20
196.8505371855
  0
SEQEND
  0
LINE
  8
0
 62
7
  6
CONTINUOUS
 10
71.2457443514
 20
192.3308139535
 11
57.0837209306
 21
192.3308139535
  0
LINE
  8
0
 62
7
  6
CONTINUOUS
 10
75.7216975091
 20
192.6808139535
 11
89.8837209298
 21
192.6808139535
  0
LINE
  8
1_AXIS
 62
7
  6
CONTINUOUS
 10
83.5837209302
 20
194.5308139535
 11
76.8836885648
 21
194.5308139535
  0
LINE
  8
1_AXIS
 62
7
  6
CONTINUOUS
 10
76.8836885648
 20
196.8308139535
 11
83.5837209302
 21
196.8308139535
  0
LINE
  8
1_AXIS
 62
7
  6
CONTINUOUS
 10
86.056415937
 20
194.5081513121
 11
85.171136273
 21
194.5099155697
  0
LINE
  8
1_AXIS
 62
7
  6
CONTINUOUS
 10
85.171136273
 20
194.5099155697
 11
84.6431875227
 21
194.5125358902
  0
LINE
  8
1_AXIS
 62
7
  6
CONTINUOUS
 10
84.6431875227
 20
194.5125358902
 11
84.1992869652
 21
194.5161537978
  0
POLYLINE
  8
1_AXIS
 62
7
  6
CONTINUOUS
 66
1
 70
0
  0
VERTEX
  8
1_AXIS
 62
7
  6
CONTINUOUS
 10
84.1992869652
 20
194.5161537978
  0
VERTEX
  8
1_AXIS
 62
7
  6
CONTINUOUS
 10
83.8636696131
 20
194.5205720088
  0
VERTEX
  8
1_AXIS
 62
7
  6
CONTINUOUS
 10
83.7424574809
 20
194.5230072702
  0
VERTEX
  8
1_AXIS
 62
7
  6
CONTINUOUS
 10
83.654673735
 20
194.5255494002
  0
VERTEX
  8
1_AXIS
 62
7
  6
CONTINUOUS
 10
83.6015196971
 20
194.5281635592
  0
VERTEX
  8
1_AXIS
 62
7
  6
CONTINUOUS
 10
83.5837209302
 20
194.5308139535
  0
SEQEND
  0
LINE
  8
0
 62
7
  6
CONTINUOUS
 10
75.076013227
 20
198.9172094696
 11
74.7056313432
 21
199.23039485
  0
LINE
  8
1_AXIS
 62
2
  6
CENTER
 10
86.1837209302
 20
114.4808139535
 11
86.1837209302
 21
264.1808139535
  0
LINE
  8
1_AXIS
 62
7
  6
CONTINUOUS
 10
86.9055189056
 20
246.4026442942
 11
86.9055189056
 21
245.8308139535
  0
LINE
  8
1_AXIS
 62
7
  6
CONTINUOUS
 10
86.9055189056
 20
234.1026442942
 11
86.9055189056
 21
233.4589836128
  0
LINE
  8
1_AXIS
 62
7
  6
CONTINUOUS
 10
86.9055189056
 20
221.4026442942
 11
86.9055189056
 21
220.7589836128
  0
LINE
  8
1_AXIS
 62
7
  6
CONTINUOUS
 10
86.9055189056
 20
208.7026442942
 11
86.9055189056
 21
208.0589836128
  0
LINE
  8
1_AXIS
 62
7
  6
CONTINUOUS
 10
86.9055189056
 20
196.0026442942
 11
86.9055189056
 21
195.3589836128
  0
LINE
  8
1_AXIS
 62
7
  6
CONTINUOUS
 10
86.9055189056
 20
183.3026442942
 11
86.9055189056
 21
182.6589836128
  0
LINE
  8
1_AXIS
 62
7
  6
CONTINUOUS
 10
86.9055189056
 20
170.6026442942
 11
86.9055189056
 21
169.9589836128
  0
LINE
  8
1_AXIS
 62
7
  6
CONTINUOUS
 10
86.9055189056
 20
157.9026442942
 11
86.9055189056
 21
157.2589836128
  0
LINE
  8
1_AXIS
 62
7
  6
CONTINUOUS
 10
86.9055189056
 20
145.2026442942
 11
86.9055189056
 21
144.5589836128
  0
LINE
  8
1_AXIS
 62
7
  6
CONTINUOUS
 10
86.9055189056
 20
132.5026442942
 11
86.9055189056
 21
131.8589836128
  0
LINE
  8
1_AXIS
 62
7
  6
CONTINUOUS
 10
86.9055189056
 20
119.4026442942
 11
86.9055189056
 21
118.8308139535
  0
POLYLINE
  8
1_AXIS
 62
7
  6
CONTINUOUS
 66
1
 70
0
  0
VERTEX
  8
1_AXIS
 62
7
  6
CONTINUOUS
 10
86.9055189056
 20
208.0589836128
  0
VERTEX
  8
1_AXIS
 62
7
  6
CONTINUOUS
 10
86.8970738573
 20
207.9392909227
  0
VERTEX
  8
1_AXIS
 62
7
  6
CONTINUOUS
 10
86.8714045781
 20
207.8202193741
  0
VERTEX
  8
1_AXIS
 62
7
  6
CONTINUOUS
 10
86.8290460505
 20
207.7060441145
  0
VERTEX
  8
1_AXIS
 62
7
  6
CONTINUOUS
 10
86.7715263904
 20
207.6001288368
  0
VERTEX
  8
1_AXIS
 62
7
  6
CONTINUOUS
 10
86.6989423553
 20
207.502600479
  0
VERTEX
  8
1_AXIS
 62
7
  6
CONTINUOUS
 10
86.6128240144
 20
207.4161036797
  0
VERTEX
  8
1_AXIS
 62
7
  6
CONTINUOUS
 10
86.5160351581
 20
207.3433952474
  0
VERTEX
  8
1_AXIS
 62
7
  6
CONTINUOUS
 10
86.4110354158
 20
207.2857451042
  0
VERTEX
  8
1_AXIS
 62
7
  6
CONTINUOUS
 10
86.2992486372
 20
207.2435695644
  0
VERTEX
  8
1_AXIS
 62
7
  6
CONTINUOUS
 10
86.1837209302
 20
207.2177070569
  0
SEQEND
  0
POLYLINE
  8
1_AXIS
 62
7
  6
CONTINUOUS
 66
1
 70
0
  0
VERTEX
  8
1_AXIS
 62
7
  6
CONTINUOUS
 10
86.9055189056
 20
195.3589836128
  0
VERTEX
  8
1_AXIS
 62
7
  6
CONTINUOUS
 10
86.8970738573
 20
195.2392909227
  0
VERTEX
  8
1_AXIS
 62
7
  6
CONTINUOUS
 10
86.8714045781
 20
195.1202193741
  0
VERTEX
  8
1_AXIS
 62
7
  6
CONTINUOUS
 10
86.8290460505
 20
195.0060441145
  0
VERTEX
  8
1_AXIS
 62
7
  6
CONTINUOUS
 10
86.7715263904
 20
194.9001288368
  0
VERTEX
  8
1_AXIS
 62
7
  6
CONTINUOUS
 10
86.6989423553
 20
194.802600479
  0
VERTEX
  8
1_AXIS
 62
7
  6
CONTINUOUS
 10
86.6128240144
 20
194.7161036797
  0
VERTEX
  8
1_AXIS
 62
7
  6
CONTINUOUS
 10
86.5160351581
 20
194.6433952474
  0
VERTEX
  8
1_AXIS
 62
7
  6
CONTINUOUS
 10
86.4110354158
 20
194.5857451042
  0
VERTEX
  8
1_AXIS
 62
7
  6
CONTINUOUS
 10
86.2992486372
 20
194.5435695644
  0
VERTEX
  8
1_AXIS
 62
7
  6
CONTINUOUS
 10
86.1837209302
 20
194.5177070569
  0
SEQEND
  0
POLYLINE
  8
1_AXIS
 62
7
  6
CONTINUOUS
 66
1
 70
0
  0
VERTEX
  8
1_AXIS
 62
7
  6
CONTINUOUS
 10
86.9055189056
 20
182.6589836128
  0
VERTEX
  8
1_AXIS
 62
7
  6
CONTINUOUS
 10
86.8970738573
 20
182.5392909227
  0
VERTEX
  8
1_AXIS
 62
7
  6
CONTINUOUS
 10
86.8714045781
 20
182.4202193741
  0
VERTEX
  8
1_AXIS
 62
7
  6
CONTINUOUS
 10
86.8290460505
 20
182.3060441145
  0
VERTEX
  8
1_AXIS
 62
7
  6
CONTINUOUS
 10
86.7715263904
 20
182.2001288368
  0
VERTEX
  8
1_AXIS
 62
7
  6
CONTINUOUS
 10
86.6989423553
 20
182.102600479
  0
VERTEX
  8
1_AXIS
 62
7
  6
CONTINUOUS
 10
86.6128240144
 20
182.0161036797
  0
VERTEX
  8
1_AXIS
 62
7
  6
CONTINUOUS
 10
86.5160351581
 20
181.9433952474
  0
VERTEX
  8
1_AXIS
 62
7
  6
CONTINUOUS
 10
86.4110354158
 20
181.8857451042
  0
VERTEX
  8
1_AXIS
 62
7
  6
CONTINUOUS
 10
86.2992486372
 20
181.8435695644
  0
VERTEX
  8
1_AXIS
 62
7
  6
CONTINUOUS
 10
86.1837209302
 20
181.8177070569
  0
SEQEND
  0
POLYLINE
  8
1_AXIS
 62
7
  6
CONTINUOUS
 66
1
 70
0
  0
VERTEX
  8
1_AXIS
 62
7
  6
CONTINUOUS
 10
86.9055189056
 20
169.9589836128
  0
VERTEX
  8
1_AXIS
 62
7
  6
CONTINUOUS
 10
86.8970738573
 20
169.8392909227
  0
VERTEX
  8
1_AXIS
 62
7
  6
CONTINUOUS
 10
86.8714045781
 20
169.7202193741
  0
VERTEX
  8
1_AXIS
 62
7
  6
CONTINUOUS
 10
86.8290460505
 20
169.6060441145
  0
VERTEX
  8
1_AXIS
 62
7
  6
CONTINUOUS
 10
86.7715263904
 20
169.5001288368
  0
VERTEX
  8
1_AXIS
 62
7
  6
CONTINUOUS
 10
86.6989423553
 20
169.402600479
  0
VERTEX
  8
1_AXIS
 62
7
  6
CONTINUOUS
 10
86.6128240144
 20
169.3161036797
  0
VERTEX
  8
1_AXIS
 62
7
  6
CONTINUOUS
 10
86.5160351581
 20
169.2433952474
  0
VERTEX
  8
1_AXIS
 62
7
  6
CONTINUOUS
 10
86.4110354158
 20
169.1857451042
  0
VERTEX
  8
1_AXIS
 62
7
  6
CONTINUOUS
 10
86.2992486372
 20
169.1435695644
  0
VERTEX
  8
1_AXIS
 62
7
  6
CONTINUOUS
 10
86.1837209302
 20
169.1177070569
  0
SEQEND
  0
POLYLINE
  8
1_AXIS
 62
7
  6
CONTINUOUS
 66
1
 70
0
  0
VERTEX
  8
1_AXIS
 62
7
  6
CONTINUOUS
 10
86.9055189056
 20
157.2589836128
  0
VERTEX
  8
1_AXIS
 62
7
  6
CONTINUOUS
 10
86.8970738573
 20
157.1392909227
  0
VERTEX
  8
1_AXIS
 62
7
  6
CONTINUOUS
 10
86.8714045781
 20
157.0202193741
  0
VERTEX
  8
1_AXIS
 62
7
  6
CONTINUOUS
 10
86.8290460505
 20
156.9060441145
  0
VERTEX
  8
1_AXIS
 62
7
  6
CONTINUOUS
 10
86.7715263904
 20
156.8001288368
  0
VERTEX
  8
1_AXIS
 62
7
  6
CONTINUOUS
 10
86.6989423553
 20
156.702600479
  0
VERTEX
  8
1_AXIS
 62
7
  6
CONTINUOUS
 10
86.6128240144
 20
156.6161036797
  0
VERTEX
  8
1_AXIS
 62
7
  6
CONTINUOUS
 10
86.5160351581
 20
156.5433952474
  0
VERTEX
  8
1_AXIS
 62
7
  6
CONTINUOUS
 10
86.4110354158
 20
156.4857451042
  0
VERTEX
  8
1_AXIS
 62
7
  6
CONTINUOUS
 10
86.2992486372
 20
156.4435695644
  0
VERTEX
  8
1_AXIS
 62
7
  6
CONTINUOUS
 10
86.1837209302
 20
156.4177070569
  0
SEQEND
  0
POLYLINE
  8
1_AXIS
 62
7
  6
CONTINUOUS
 66
1
 70
0
  0
VERTEX
  8
1_AXIS
 62
7
  6
CONTINUOUS
 10
86.9055189056
 20
144.5589836128
  0
VERTEX
  8
1_AXIS
 62
7
  6
CONTINUOUS
 10
86.8970738573
 20
144.4392909227
  0
VERTEX
  8
1_AXIS
 62
7
  6
CONTINUOUS
 10
86.8714045781
 20
144.3202193741
  0
VERTEX
  8
1_AXIS
 62
7
  6
CONTINUOUS
 10
86.8290460505
 20
144.2060441145
  0
VERTEX
  8
1_AXIS
 62
7
  6
CONTINUOUS
 10
86.7715263904
 20
144.1001288368
  0
VERTEX
  8
1_AXIS
 62
7
  6
CONTINUOUS
 10
86.6989423553
 20
144.002600479
  0
VERTEX
  8
1_AXIS
 62
7
  6
CONTINUOUS
 10
86.6128240144
 20
143.9161036797
  0
VERTEX
  8
1_AXIS
 62
7
  6
CONTINUOUS
 10
86.5160351581
 20
143.8433952474
  0
VERTEX
  8
1_AXIS
 62
7
  6
CONTINUOUS
 10
86.4110354158
 20
143.7857451042
  0
VERTEX
  8
1_AXIS
 62
7
  6
CONTINUOUS
 10
86.2992486372
 20
143.7435695644
  0
VERTEX
  8
1_AXIS
 62
7
  6
CONTINUOUS
 10
86.1837209302
 20
143.7177070569
  0
SEQEND
  0
LINE
  8
0
 62
7
  6
CONTINUOUS
 10
72.2618105172
 20
167.48039485
 11
71.8914286335
 21
167.1672094696
  0
POLYLINE
  8
1_AXIS
 62
7
  6
CONTINUOUS
 66
1
 70
0
  0
VERTEX
  8
1_AXIS
 62
7
  6
CONTINUOUS
 10
63.3837209302
 20
200.8808139535
  0
VERTEX
  8
1_AXIS
 62
7
  6
CONTINUOUS
 10
63.3659221636
 20
200.8781635592
  0
VERTEX
  8
1_AXIS
 62
7
  6
CONTINUOUS
 10
63.3127681262
 20
200.8755494002
  0
VERTEX
  8
1_AXIS
 62
7
  6
CONTINUOUS
 10
63.2249843808
 20
200.8730072702
  0
VERTEX
  8
1_AXIS
 62
7
  6
CONTINUOUS
 10
63.103772249
 20
200.8705720088
  0
SEQEND
  0
POLYLINE
  8
0
 62
7
  6
CONTINUOUS
 66
1
 70
0
  0
VERTEX
  8
0
 62
7
  6
CONTINUOUS
 10
70.0837532956
 20
200.8808139535
  0
VERTEX
  8
0
 62
7
  6
CONTINUOUS
 10
70.2047165154
 20
200.8894648583
  0
VERTEX
  8
0
 62
7
  6
CONTINUOUS
 10
70.3232176229
 20
200.915241879
  0
VERTEX
  8
0
 62
7
  6
CONTINUOUS
 10
70.436844293
 20
200.9576208416
  0
VERTEX
  8
0
 62
7
  6
CONTINUOUS
 10
70.5432832317
 20
201.0157394626
  0
VERTEX
  8
0
 62
7
  6
CONTINUOUS
 10
70.640367361
 20
201.0884148412
  0
VERTEX
  8
0
 62
7
  6
CONTINUOUS
 10
70.7261200426
 20
201.1741675227
  0
VERTEX
  8
0
 62
7
  6
CONTINUOUS
 10
70.7987954211
 20
201.2712516521
  0
VERTEX
  8
0
 62
7
  6
CONTINUOUS
 10
70.8569140422
 20
201.3776905908
  0
VERTEX
  8
0
 62
7
  6
CONTINUOUS
 10
70.8992930047
 20
201.4913172609
  0
VERTEX
  8
0
 62
7
  6
CONTINUOUS
 10
70.9250700254
 20
201.6098183683
  0
VERTEX
  8
0
 62
7
  6
CONTINUOUS
 10
70.9337209302
 20
201.7307815881
  0
SEQEND
  0
LINE
  8
1_AXIS
 62
7
  6
CONTINUOUS
 10
63.103772249
 20
200.8705720088
 11
62.7681548962
 21
200.8661537978
  0
LINE
  8
1_AXIS
 62
7
  6
CONTINUOUS
 10
62.7681548962
 20
200.8661537978
 11
62.3242543367
 21
200.8625358902
  0
LINE
  8
1_AXIS
 62
7
  6
CONTINUOUS
 10
62.3242543367
 20
200.8625358902
 11
61.5096796203
 21
200.8590265036
  0
LINE
  8
1_AXIS
 62
7
  6
CONTINUOUS
 10
61.5096796203
 20
200.8590265036
 11
60.9110259235
 21
200.8581513121
  0
LINE
  8
0
 62
7
  6
CONTINUOUS
 10
89.8837209298
 20
198.6808139535
 11
75.7216975091
 21
198.6808139535
  0
LINE
  8
0
 62
7
  6
CONTINUOUS
 10
57.0837209306
 20
199.0308139535
 11
71.2457443514
 21
199.0308139535
  0
LINE
  8
1_AXIS
 62
7
  6
CONTINUOUS
 10
70.0837532956
 20
200.8808139535
 11
63.3837209302
 21
200.8808139535
  0
POLYLINE
  8
1_AXIS
 62
7
  6
CONTINUOUS
 66
1
 70
0
  0
VERTEX
  8
1_AXIS
 62
7
  6
CONTINUOUS
 10
86.056415937
 20
196.8534765949
  0
VERTEX
  8
1_AXIS
 62
7
  6
CONTINUOUS
 10
86.1202465682
 20
196.8510986003
  0
VERTEX
  8
1_AXIS
 62
7
  6
CONTINUOUS
 10
86.1837209302
 20
196.84392085
  0
SEQEND
  0
POLYLINE
  8
1_AXIS
 62
7
  6
CONTINUOUS
 66
1
 70
0
  0
VERTEX
  8
1_AXIS
 62
7
  6
CONTINUOUS
 10
60.9110259235
 20
200.8581513121
  0
VERTEX
  8
1_AXIS
 62
7
  6
CONTINUOUS
 10
60.8471998129
 20
200.8605289674
  0
VERTEX
  8
1_AXIS
 62
7
  6
CONTINUOUS
 10
60.7837209302
 20
200.8677070569
  0
SEQEND
  0
POLYLINE
  8
1_AXIS
 62
7
  6
CONTINUOUS
 66
1
 70
0
  0
VERTEX
  8
1_AXIS
 62
7
  6
CONTINUOUS
 10
63.3837209302
 20
203.1808139535
  0
VERTEX
  8
1_AXIS
 62
7
  6
CONTINUOUS
 10
63.3659221636
 20
203.1834643478
  0
VERTEX
  8
1_AXIS
 62
7
  6
CONTINUOUS
 10
63.3127681262
 20
203.1860785068
  0
VERTEX
  8
1_AXIS
 62
7
  6
CONTINUOUS
 10
63.2249843808
 20
203.1886206368
  0
VERTEX
  8
1_AXIS
 62
7
  6
CONTINUOUS
 10
63.103772249
 20
203.1910558982
  0
VERTEX
  8
1_AXIS
 62
7
  6
CONTINUOUS
 10
62.7681548962
 20
203.1954741091
  0
SEQEND
  0
POLYLINE
  8
1_AXIS
 62
7
  6
CONTINUOUS
 66
1
 70
0
  0
VERTEX
  8
1_AXIS
 62
7
  6
CONTINUOUS
 10
86.1837209302
 20
196.84392085
  0
VERTEX
  8
1_AXIS
 62
7
  6
CONTINUOUS
 10
86.2992673775
 20
196.8180527464
  0
VERTEX
  8
1_AXIS
 62
7
  6
CONTINUOUS
 10
86.4110846845
 20
196.7758601237
  0
VERTEX
  8
1_AXIS
 62
7
  6
CONTINUOUS
 10
86.5160774547
 20
196.7182053771
  0
VERTEX
  8
1_AXIS
 62
7
  6
CONTINUOUS
 10
86.6128180022
 20
196.6455294544
  0
VERTEX
  8
1_AXIS
 62
7
  6
CONTINUOUS
 10
86.6989301612
 20
196.5590415767
  0
VERTEX
  8
1_AXIS
 62
7
  6
CONTINUOUS
 10
86.7715271362
 20
196.4614979024
  0
VERTEX
  8
1_AXIS
 62
7
  6
CONTINUOUS
 10
86.8290420526
 20
196.3555925852
  0
VERTEX
  8
1_AXIS
 62
7
  6
CONTINUOUS
 10
86.8713889362
 20
196.2414621556
  0
VERTEX
  8
1_AXIS
 62
7
  6
CONTINUOUS
 10
86.8970662626
 20
196.1223905317
  0
VERTEX
  8
1_AXIS
 62
7
  6
CONTINUOUS
 10
86.9055189056
 20
196.0026442942
  0
SEQEND
  0
POLYLINE
  8
1_AXIS
 62
7
  6
CONTINUOUS
 66
1
 70
0
  0
VERTEX
  8
1_AXIS
 62
7
  6
CONTINUOUS
 10
60.7837209302
 20
200.8677070569
  0
VERTEX
  8
1_AXIS
 62
7
  6
CONTINUOUS
 10
60.6558999637
 20
200.8973422798
  0
VERTEX
  8
1_AXIS
 62
7
  6
CONTINUOUS
 10
60.5326956136
 20
200.9471077765
  0
VERTEX
  8
1_AXIS
 62
7
  6
CONTINUOUS
 10
60.4185644265
 20
201.0156836155
  0
VERTEX
  8
1_AXIS
 62
7
  6
CONTINUOUS
 10
60.3151239319
 20
201.1027036598
  0
VERTEX
  8
1_AXIS
 62
7
  6
CONTINUOUS
 10
60.2265412908
 20
201.2053794997
  0
VERTEX
  8
1_AXIS
 62
7
  6
CONTINUOUS
 10
60.1560625922
 20
201.319520761
  0
VERTEX
  8
1_AXIS
 62
7
  6
CONTINUOUS
 10
60.104089675
 20
201.4441679364
  0
VERTEX
  8
1_AXIS
 62
7
  6
CONTINUOUS
 10
60.0723779412
 20
201.5758839451
  0
VERTEX
  8
1_AXIS
 62
7
  6
CONTINUOUS
 10
60.0619229549
 20
201.7089836128
  0
SEQEND
  0
LINE
  8
2_FEATURE
 62
7
  6
CONTINUOUS
 10
90.7337209302
 20
117.3308139535
 11
90.7337209302
 21
120.8808139535
  0
LINE
  8
2_FEATURE
 62
7
  6
CONTINUOUS
 10
90.7337209302
 20
130.0308139535
 11
90.7337209302
 21
134.3308139535
  0
LINE
  8
2_FEATURE
 62
7
  6
CONTINUOUS
 10
90.7337209302
 20
142.7308139535
 11
90.7337209302
 21
147.0308139535
  0
LINE
  8
2_FEATURE
 62
7
  6
CONTINUOUS
 10
90.7337209302
 20
155.4308139535
 11
90.7337209302
 21
159.7308139535
  0
LINE
  8
2_FEATURE
 62
7
  6
CONTINUOUS
 10
90.7337209302
 20
168.1308139535
 11
90.7337209302
 21
172.4308139535
  0
LINE
  8
2_FEATURE
 62
7
  6
CONTINUOUS
 10
90.7337209302
 20
180.8308139535
 11
90.7337209302
 21
185.1308139535
  0
LINE
  8
2_FEATURE
 62
7
  6
CONTINUOUS
 10
90.7337209302
 20
193.5308139535
 11
90.7337209302
 21
197.8308139535
  0
LINE
  8
2_FEATURE
 62
7
  6
CONTINUOUS
 10
90.7337209302
 20
206.2308139535
 11
90.7337209302
 21
210.5308139535
  0
LINE
  8
2_FEATURE
 62
7
  6
CONTINUOUS
 10
90.7337209302
 20
218.9308139535
 11
90.7337209302
 21
223.2308139535
  0
LINE
  8
2_FEATURE
 62
7
  6
CONTINUOUS
 10
90.7337209302
 20
231.6308139535
 11
90.7337209302
 21
235.9308139535
  0
LINE
  8
2_FEATURE
 62
7
  6
CONTINUOUS
 10
90.7337209302
 20
244.3308139535
 11
90.7337209302
 21
247.8808139535
  0
LINE
  8
2_FEATURE
 62
7
  6
CONTINUOUS
 10
90.7337209302
 20
257.0308139535
 11
90.7337209302
 21
261.3308139535
  0
POLYLINE
  8
1_AXIS
 62
7
  6
CONTINUOUS
 66
1
 70
0
  0
VERTEX
  8
1_AXIS
 62
7
  6
CONTINUOUS
 10
86.9055189056
 20
131.8589836128
  0
VERTEX
  8
1_AXIS
 62
7
  6
CONTINUOUS
 10
86.8970738573
 20
131.7392909227
  0
VERTEX
  8
1_AXIS
 62
7
  6
CONTINUOUS
 10
86.8714045781
 20
131.6202193741
  0
VERTEX
  8
1_AXIS
 62
7
  6
CONTINUOUS
 10
86.8290460505
 20
131.5060441145
  0
VERTEX
  8
1_AXIS
 62
7
  6
CONTINUOUS
 10
86.7715263904
 20
131.4001288368
  0
VERTEX
  8
1_AXIS
 62
7
  6
CONTINUOUS
 10
86.6989423553
 20
131.302600479
  0
VERTEX
  8
1_AXIS
 62
7
  6
CONTINUOUS
 10
86.6128240144
 20
131.2161036797
  0
VERTEX
  8
1_AXIS
 62
7
  6
CONTINUOUS
 10
86.5160351581
 20
131.1433952474
  0
VERTEX
  8
1_AXIS
 62
7
  6
CONTINUOUS
 10
86.4110354158
 20
131.0857451042
  0
VERTEX
  8
1_AXIS
 62
7
  6
CONTINUOUS
 10
86.2992486372
 20
131.0435695644
  0
VERTEX
  8
1_AXIS
 62
7
  6
CONTINUOUS
 10
86.1837209302
 20
131.0177070569
  0
SEQEND
  0
POLYLINE
  8
1_AXIS
 62
7
  6
CONTINUOUS
 66
1
 70
0
  0
VERTEX
  8
1_AXIS
 62
7
  6
CONTINUOUS
 10
86.9055189056
 20
118.8308139535
  0
VERTEX
  8
1_AXIS
 62
7
  6
CONTINUOUS
 10
86.8970751035
 20
118.7111551226
  0
VERTEX
  8
1_AXIS
 62
7
  6
CONTINUOUS
 10
86.8714240408
 20
118.5922067262
  0
VERTEX
  8
1_AXIS
 62
7
  6
CONTINUOUS
 10
86.8291168077
 20
118.4782194321
  0
VERTEX
  8
1_AXIS
 62
7
  6
CONTINUOUS
 10
86.7716494814
 20
118.3724633899
  0
VERTEX
  8
1_AXIS
 62
7
  6
CONTINUOUS
 10
86.6991042379
 20
118.275065757
  0
VERTEX
  8
1_AXIS
 62
7
  6
CONTINUOUS
 10
86.6130331569
 20
118.1886984759
  0
VERTEX
  8
1_AXIS
 62
7
  6
CONTINUOUS
 10
86.5163097783
 20
118.1161057853
  0
VERTEX
  8
1_AXIS
 62
7
  6
CONTINUOUS
 10
86.411307991
 20
118.0584974601
  0
VERTEX
  8
1_AXIS
 62
7
  6
CONTINUOUS
 10
86.2994209046
 20
118.0163055597
  0
SEQEND
  0
POLYLINE
  8
1_AXIS
 62
7
  6
CONTINUOUS
 66
1
 70
0
  0
VERTEX
  8
1_AXIS
 62
7
  6
CONTINUOUS
 10
60.7837209302
 20
203.19392085
  0
VERTEX
  8
1_AXIS
 62
7
  6
CONTINUOUS
 10
60.8471998074
 20
203.2010989392
  0
VERTEX
  8
1_AXIS
 62
7
  6
CONTINUOUS
 10
60.9110259235
 20
203.2034765949
  0
SEQEND
  0
POLYLINE
  8
1_AXIS
 62
7
  6
CONTINUOUS
 66
1
 70
0
  0
VERTEX
  8
1_AXIS
 62
7
  6
CONTINUOUS
 10
86.1837209302
 20
207.2177070569
  0
VERTEX
  8
1_AXIS
 62
7
  6
CONTINUOUS
 10
86.1202475815
 20
207.2105293827
  0
VERTEX
  8
1_AXIS
 62
7
  6
CONTINUOUS
 10
86.056415937
 20
207.2081513121
  0
SEQEND
  0
LINE
  8
1_AXIS
 62
7
  6
CONTINUOUS
 10
63.3837209302
 20
203.1808139535
 11
70.0837532956
 21
203.1808139535
  0
LINE
  8
0
 62
7
  6
CONTINUOUS
 10
71.2457443514
 20
205.0308139535
 11
57.0837209306
 21
205.0308139535
  0
LINE
  8
0
 62
7
  6
CONTINUOUS
 10
75.7216975091
 20
205.3808139535
 11
89.8837209298
 21
205.3808139535
  0
LINE
  8
1_AXIS
 62
7
  6
CONTINUOUS
 10
83.5837209302
 20
207.2308139535
 11
76.8836885648
 21
207.2308139535
  0
LINE
  8
1_AXIS
 62
7
  6
CONTINUOUS
 10
86.056415937
 20
207.2081513121
 11
85.171136273
 21
207.2099155697
  0
LINE
  8
1_AXIS
 62
7
  6
CONTINUOUS
 10
62.0690751249
 20
203.2005371855
 11
60.9110259235
 21
203.2034765949
  0
LINE
  8
1_AXIS
 62
7
  6
CONTINUOUS
 10
85.171136273
 20
207.2099155697
 11
84.6431875227
 21
207.2125358902
  0
LINE
  8
1_AXIS
 62
7
  6
CONTINUOUS
 10
62.7681548962
 20
203.1954741091
 11
62.0690751249
 21
203.2005371855
  0
LINE
  8
1_AXIS
 62
7
  6
CONTINUOUS
 10
84.6431875227
 20
207.2125358902
 11
84.1992869652
 21
207.2161537978
  0
POLYLINE
  8
1_AXIS
 62
7
  6
CONTINUOUS
 66
1
 70
0
  0
VERTEX
  8
1_AXIS
 62
7
  6
CONTINUOUS
 10
84.1992869652
 20
207.2161537978
  0
VERTEX
  8
1_AXIS
 62
7
  6
CONTINUOUS
 10
83.8636696131
 20
207.2205720088
  0
VERTEX
  8
1_AXIS
 62
7
  6
CONTINUOUS
 10
83.7424574809
 20
207.2230072702
  0
VERTEX
  8
1_AXIS
 62
7
  6
CONTINUOUS
 10
83.654673735
 20
207.2255494002
  0
VERTEX
  8
1_AXIS
 62
7
  6
CONTINUOUS
 10
83.6015196971
 20
207.2281635592
  0
VERTEX
  8
1_AXIS
 62
7
  6
CONTINUOUS
 10
83.5837209302
 20
207.2308139535
  0
SEQEND
  0
POLYLINE
  8
BLANK_CURVE
 62
7
  6
CONTINUOUS
 66
1
 70
0
  0
VERTEX
  8
BLANK_CURVE
 62
7
  6
CONTINUOUS
 10
76.4016645859
 20
114.3799976894
  0
VERTEX
  8
BLANK_CURVE
 62
7
  6
CONTINUOUS
 10
76.3708881831
 20
114.2754711969
  0
VERTEX
  8
BLANK_CURVE
 62
7
  6
CONTINUOUS
 10
76.3439344585
 20
114.1699053553
  0
SEQEND
  0
POLYLINE
  8
0
 62
7
  6
CONTINUOUS
 66
1
 70
0
  0
VERTEX
  8
0
 62
7
  6
CONTINUOUS
 10
76.8836885648
 20
209.5308139535
  0
VERTEX
  8
0
 62
7
  6
CONTINUOUS
 10
76.762725345
 20
209.5221630487
  0
VERTEX
  8
0
 62
7
  6
CONTINUOUS
 10
76.6442242376
 20
209.4963860279
  0
VERTEX
  8
0
 62
7
  6
CONTINUOUS
 10
76.5305975675
 20
209.4540070654
  0
VERTEX
  8
0
 62
7
  6
CONTINUOUS
 10
76.4241586288
 20
209.3958884443
  0
VERTEX
  8
0
 62
7
  6
CONTINUOUS
 10
76.3270744995
 20
209.3232130658
  0
VERTEX
  8
0
 62
7
  6
CONTINUOUS
 10
76.2413218179
 20
209.2374603842
  0
VERTEX
  8
0
 62
7
  6
CONTINUOUS
 10
76.1686464394
 20
209.1403762549
  0
VERTEX
  8
0
 62
7
  6
CONTINUOUS
 10
76.1105278183
 20
209.0339373162
  0
VERTEX
  8
0
 62
7
  6
CONTINUOUS
 10
76.0681488558
 20
208.9203106461
  0
VERTEX
  8
0
 62
7
  6
CONTINUOUS
 10
76.042371835
 20
208.8018095387
  0
VERTEX
  8
0
 62
7
  6
CONTINUOUS
 10
76.0337209302
 20
208.6808463189
  0
SEQEND
  0
POLYLINE
  8
1_AXIS
 62
7
  6
CONTINUOUS
 66
1
 70
0
  0
VERTEX
  8
1_AXIS
 62
7
  6
CONTINUOUS
 10
83.8636696131
 20
209.5410558982
  0
VERTEX
  8
1_AXIS
 62
7
  6
CONTINUOUS
 10
83.7424574809
 20
209.5386206368
  0
VERTEX
  8
1_AXIS
 62
7
  6
CONTINUOUS
 10
83.654673735
 20
209.5360785068
  0
VERTEX
  8
1_AXIS
 62
7
  6
CONTINUOUS
 10
83.6015196971
 20
209.5334643478
  0
VERTEX
  8
1_AXIS
 62
7
  6
CONTINUOUS
 10
83.5837209302
 20
209.5308139535
  0
SEQEND
  0
LINE
  8
1_AXIS
 62
7
  6
CONTINUOUS
 10
84.1992869652
 20
209.5454741092
 11
83.8636696131
 21
209.5410558982
  0
LINE
  8
1_AXIS
 62
7
  6
CONTINUOUS
 10
84.8983667336
 20
209.5505371855
 11
84.1992869652
 21
209.5454741092
  0
POLYLINE
  8
1_AXIS
 62
7
  6
CONTINUOUS
 66
1
 70
0
  0
VERTEX
  8
1_AXIS
 62
7
  6
CONTINUOUS
 10
86.056415937
 20
209.5534765949
  0
VERTEX
  8
1_AXIS
 62
7
  6
CONTINUOUS
 10
85.7543215807
 20
209.5531922294
  0
VERTEX
  8
1_AXIS
 62
7
  6
CONTINUOUS
 10
84.8983667336
 20
209.5505371855
  0
SEQEND
  0
LINE
  8
1_AXIS
 62
7
  6
CONTINUOUS
 10
76.8836885648
 20
209.5308139535
 11
83.5837209302
 21
209.5308139535
  0
LINE
  8
0
 62
7
  6
CONTINUOUS
 10
89.8837209298
 20
211.3808139535
 11
75.7216975091
 21
211.3808139535
  0
LINE
  8
0
 62
7
  6
CONTINUOUS
 10
57.0837209306
 20
211.7308139535
 11
71.2457443514
 21
211.7308139535
  0
POLYLINE
  8
1_AXIS
 62
7
  6
CONTINUOUS
 66
1
 70
0
  0
VERTEX
  8
1_AXIS
 62
7
  6
CONTINUOUS
 10
86.056415937
 20
209.5534765949
  0
VERTEX
  8
1_AXIS
 62
7
  6
CONTINUOUS
 10
86.1202465682
 20
209.5510986003
  0
VERTEX
  8
1_AXIS
 62
7
  6
CONTINUOUS
 10
86.1837209302
 20
209.54392085
  0
SEQEND
  0
POLYLINE
  8
1_AXIS
 62
7
  6
CONTINUOUS
 66
1
 70
0
  0
VERTEX
  8
1_AXIS
 62
7
  6
CONTINUOUS
 10
86.1837209302
 20
209.54392085
  0
VERTEX
  8
1_AXIS
 62
7
  6
CONTINUOUS
 10
86.2992673775
 20
209.5180527464
  0
VERTEX
  8
1_AXIS
 62
7
  6
CONTINUOUS
 10
86.4110846845
 20
209.4758601237
  0
VERTEX
  8
1_AXIS
 62
7
  6
CONTINUOUS
 10
86.5160774547
 20
209.4182053771
  0
VERTEX
  8
1_AXIS
 62
7
  6
CONTINUOUS
 10
86.6128180022
 20
209.3455294544
  0
VERTEX
  8
1_AXIS
 62
7
  6
CONTINUOUS
 10
86.6989301612
 20
209.2590415767
  0
VERTEX
  8
1_AXIS
 62
7
  6
CONTINUOUS
 10
86.7715271362
 20
209.1614979024
  0
VERTEX
  8
1_AXIS
 62
7
  6
CONTINUOUS
 10
86.8290420526
 20
209.0555925852
  0
VERTEX
  8
1_AXIS
 62
7
  6
CONTINUOUS
 10
86.8713889362
 20
208.9414621556
  0
VERTEX
  8
1_AXIS
 62
7
  6
CONTINUOUS
 10
86.8970662626
 20
208.8223905317
  0
VERTEX
  8
1_AXIS
 62
7
  6
CONTINUOUS
 10
86.9055189056
 20
208.7026442942
  0
SEQEND
  0
POLYLINE
  8
1_AXIS
 62
7
  6
CONTINUOUS
 66
1
 70
0
  0
VERTEX
  8
1_AXIS
 62
7
  6
CONTINUOUS
 10
60.7837209302
 20
213.5677070569
  0
VERTEX
  8
1_AXIS
 62
7
  6
CONTINUOUS
 10
60.6558999637
 20
213.5973422798
  0
VERTEX
  8
1_AXIS
 62
7
  6
CONTINUOUS
 10
60.5326956136
 20
213.6471077765
  0
VERTEX
  8
1_AXIS
 62
7
  6
CONTINUOUS
 10
60.4185644265
 20
213.7156836155
  0
VERTEX
  8
1_AXIS
 62
7
  6
CONTINUOUS
 10
60.3151239319
 20
213.8027036598
  0
VERTEX
  8
1_AXIS
 62
7
  6
CONTINUOUS
 10
60.2265412908
 20
213.9053794997
  0
VERTEX
  8
1_AXIS
 62
7
  6
CONTINUOUS
 10
60.1560625922
 20
214.019520761
  0
VERTEX
  8
1_AXIS
 62
7
  6
CONTINUOUS
 10
60.104089675
 20
214.1441679364
  0
VERTEX
  8
1_AXIS
 62
7
  6
CONTINUOUS
 10
60.0723779412
 20
214.2758839451
  0
VERTEX
  8
1_AXIS
 62
7
  6
CONTINUOUS
 10
60.0619229549
 20
214.4089836128
  0
SEQEND
  0
POLYLINE
  8
1_AXIS
 62
7
  6
CONTINUOUS
 66
1
 70
0
  0
VERTEX
  8
1_AXIS
 62
7
  6
CONTINUOUS
 10
63.3837209302
 20
213.5808139535
  0
VERTEX
  8
1_AXIS
 62
7
  6
CONTINUOUS
 10
63.3659221636
 20
213.5781635592
  0
VERTEX
  8
1_AXIS
 62
7
  6
CONTINUOUS
 10
63.3127681262
 20
213.5755494002
  0
VERTEX
  8
1_AXIS
 62
7
  6
CONTINUOUS
 10
63.2249843808
 20
213.5730072702
  0
VERTEX
  8
1_AXIS
 62
7
  6
CONTINUOUS
 10
63.103772249
 20
213.5705720088
  0
SEQEND
  0
POLYLINE
  8
1_AXIS
 62
7
  6
CONTINUOUS
 66
1
 70
0
  0
VERTEX
  8
1_AXIS
 62
7
  6
CONTINUOUS
 10
60.7837209302
 20
215.89392085
  0
VERTEX
  8
1_AXIS
 62
7
  6
CONTINUOUS
 10
60.8471998074
 20
215.9010989392
  0
VERTEX
  8
1_AXIS
 62
7
  6
CONTINUOUS
 10
60.9110259235
 20
215.9034765949
  0
SEQEND
  0
POLYLINE
  8
0
 62
7
  6
CONTINUOUS
 66
1
 70
0
  0
VERTEX
  8
0
 62
7
  6
CONTINUOUS
 10
70.0837532956
 20
213.5808139535
  0
VERTEX
  8
0
 62
7
  6
CONTINUOUS
 10
70.2047165154
 20
213.5894648583
  0
VERTEX
  8
0
 62
7
  6
CONTINUOUS
 10
70.3232176229
 20
213.615241879
  0
VERTEX
  8
0
 62
7
  6
CONTINUOUS
 10
70.436844293
 20
213.6576208416
  0
VERTEX
  8
0
 62
7
  6
CONTINUOUS
 10
70.5432832317
 20
213.7157394626
  0
VERTEX
  8
0
 62
7
  6
CONTINUOUS
 10
70.640367361
 20
213.7884148412
  0
VERTEX
  8
0
 62
7
  6
CONTINUOUS
 10
70.7261200426
 20
213.8741675227
  0
VERTEX
  8
0
 62
7
  6
CONTINUOUS
 10
70.7987954211
 20
213.9712516521
  0
VERTEX
  8
0
 62
7
  6
CONTINUOUS
 10
70.8569140422
 20
214.0776905908
  0
VERTEX
  8
0
 62
7
  6
CONTINUOUS
 10
70.8992930047
 20
214.1913172609
  0
VERTEX
  8
0
 62
7
  6
CONTINUOUS
 10
70.9250700254
 20
214.3098183683
  0
VERTEX
  8
0
 62
7
  6
CONTINUOUS
 10
70.9337209302
 20
214.4307815881
  0
SEQEND
  0
LINE
  8
1_AXIS
 62
7
  6
CONTINUOUS
 10
63.103772249
 20
213.5705720088
 11
62.7681548962
 21
213.5661537978
  0
LINE
  8
1_AXIS
 62
7
  6
CONTINUOUS
 10
62.7681548962
 20
213.5661537978
 11
62.3242543367
 21
213.5625358902
  0
LINE
  8
1_AXIS
 62
7
  6
CONTINUOUS
 10
62.3242543367
 20
213.5625358902
 11
61.5096796203
 21
213.5590265036
  0
LINE
  8
1_AXIS
 62
7
  6
CONTINUOUS
 10
61.5096796203
 20
213.5590265036
 11
60.9110259235
 21
213.5581513121
  0
LINE
  8
1_AXIS
 62
7
  6
CONTINUOUS
 10
70.0837532956
 20
213.5808139535
 11
63.3837209302
 21
213.5808139535
  0
LINE
  8
1_AXIS
 62
7
  6
CONTINUOUS
 10
63.3837209302
 20
215.8808139535
 11
70.0837532956
 21
215.8808139535
  0
LINE
  8
0
 62
7
  6
CONTINUOUS
 10
71.2457443514
 20
217.7308139535
 11
57.0837209306
 21
217.7308139535
  0
LINE
  8
0
 62
7
  6
CONTINUOUS
 10
75.7216975091
 20
218.0808139535
 11
89.8837209298
 21
218.0808139535
  0
LINE
  8
1_AXIS
 62
7
  6
CONTINUOUS
 10
62.0690751249
 20
215.9005371855
 11
60.9110259235
 21
215.9034765949
  0
LINE
  8
1_AXIS
 62
7
  6
CONTINUOUS
 10
62.7681548962
 20
215.8954741091
 11
62.0690751249
 21
215.9005371855
  0
POLYLINE
  8
1_AXIS
 62
7
  6
CONTINUOUS
 66
1
 70
0
  0
VERTEX
  8
1_AXIS
 62
7
  6
CONTINUOUS
 10
60.9110259235
 20
213.5581513121
  0
VERTEX
  8
1_AXIS
 62
7
  6
CONTINUOUS
 10
60.8471998129
 20
213.5605289674
  0
VERTEX
  8
1_AXIS
 62
7
  6
CONTINUOUS
 10
60.7837209302
 20
213.5677070569
  0
SEQEND
  0
POLYLINE
  8
1_AXIS
 62
7
  6
CONTINUOUS
 66
1
 70
0
  0
VERTEX
  8
1_AXIS
 62
7
  6
CONTINUOUS
 10
63.3837209302
 20
215.8808139535
  0
VERTEX
  8
1_AXIS
 62
7
  6
CONTINUOUS
 10
63.3659221636
 20
215.8834643478
  0
VERTEX
  8
1_AXIS
 62
7
  6
CONTINUOUS
 10
63.3127681262
 20
215.8860785068
  0
VERTEX
  8
1_AXIS
 62
7
  6
CONTINUOUS
 10
63.2249843808
 20
215.8886206368
  0
VERTEX
  8
1_AXIS
 62
7
  6
CONTINUOUS
 10
63.103772249
 20
215.8910558982
  0
VERTEX
  8
1_AXIS
 62
7
  6
CONTINUOUS
 10
62.7681548962
 20
215.8954741091
  0
SEQEND
  0
POLYLINE
  8
1_AXIS
 62
7
  6
CONTINUOUS
 66
1
 70
0
  0
VERTEX
  8
1_AXIS
 62
7
  6
CONTINUOUS
 10
86.1837209302
 20
219.9177070569
  0
VERTEX
  8
1_AXIS
 62
7
  6
CONTINUOUS
 10
86.1202475815
 20
219.9105293827
  0
VERTEX
  8
1_AXIS
 62
7
  6
CONTINUOUS
 10
86.056415937
 20
219.9081513121
  0
SEQEND
  0
POLYLINE
  8
0
 62
7
  6
CONTINUOUS
 66
1
 70
0
  0
VERTEX
  8
0
 62
7
  6
CONTINUOUS
 10
76.8836885648
 20
222.2308139535
  0
VERTEX
  8
0
 62
7
  6
CONTINUOUS
 10
76.762725345
 20
222.2221630487
  0
VERTEX
  8
0
 62
7
  6
CONTINUOUS
 10
76.6442242376
 20
222.1963860279
  0
VERTEX
  8
0
 62
7
  6
CONTINUOUS
 10
76.5305975675
 20
222.1540070654
  0
VERTEX
  8
0
 62
7
  6
CONTINUOUS
 10
76.4241586288
 20
222.0958884443
  0
VERTEX
  8
0
 62
7
  6
CONTINUOUS
 10
76.3270744995
 20
222.0232130658
  0
VERTEX
  8
0
 62
7
  6
CONTINUOUS
 10
76.2413218179
 20
221.9374603842
  0
VERTEX
  8
0
 62
7
  6
CONTINUOUS
 10
76.1686464394
 20
221.8403762549
  0
VERTEX
  8
0
 62
7
  6
CONTINUOUS
 10
76.1105278183
 20
221.7339373162
  0
VERTEX
  8
0
 62
7
  6
CONTINUOUS
 10
76.0681488558
 20
221.6203106461
  0
VERTEX
  8
0
 62
7
  6
CONTINUOUS
 10
76.042371835
 20
221.5018095387
  0
VERTEX
  8
0
 62
7
  6
CONTINUOUS
 10
76.0337209302
 20
221.3808463189
  0
SEQEND
  0
POLYLINE
  8
1_AXIS
 62
7
  6
CONTINUOUS
 66
1
 70
0
  0
VERTEX
  8
1_AXIS
 62
7
  6
CONTINUOUS
 10
83.8636696131
 20
222.2410558982
  0
VERTEX
  8
1_AXIS
 62
7
  6
CONTINUOUS
 10
83.7424574809
 20
222.2386206368
  0
VERTEX
  8
1_AXIS
 62
7
  6
CONTINUOUS
 10
83.654673735
 20
222.2360785068
  0
VERTEX
  8
1_AXIS
 62
7
  6
CONTINUOUS
 10
83.6015196971
 20
222.2334643478
  0
VERTEX
  8
1_AXIS
 62
7
  6
CONTINUOUS
 10
83.5837209302
 20
222.2308139535
  0
SEQEND
  0
LINE
  8
1_AXIS
 62
7
  6
CONTINUOUS
 10
84.1992869652
 20
222.2454741092
 11
83.8636696131
 21
222.2410558982
  0
LINE
  8
1_AXIS
 62
7
  6
CONTINUOUS
 10
84.8983667336
 20
222.2505371855
 11
84.1992869652
 21
222.2454741092
  0
POLYLINE
  8
1_AXIS
 62
7
  6
CONTINUOUS
 66
1
 70
0
  0
VERTEX
  8
1_AXIS
 62
7
  6
CONTINUOUS
 10
86.056415937
 20
222.2534765949
  0
VERTEX
  8
1_AXIS
 62
7
  6
CONTINUOUS
 10
85.7543215807
 20
222.2531922294
  0
VERTEX
  8
1_AXIS
 62
7
  6
CONTINUOUS
 10
84.8983667336
 20
222.2505371855
  0
SEQEND
  0
LINE
  8
1_AXIS
 62
7
  6
CONTINUOUS
 10
83.5837209302
 20
219.9308139535
 11
76.8836885648
 21
219.9308139535
  0
LINE
  8
1_AXIS
 62
7
  6
CONTINUOUS
 10
76.8836885648
 20
222.2308139535
 11
83.5837209302
 21
222.2308139535
  0
LINE
  8
1_AXIS
 62
7
  6
CONTINUOUS
 10
86.056415937
 20
219.9081513121
 11
85.171136273
 21
219.9099155697
  0
LINE
  8
1_AXIS
 62
7
  6
CONTINUOUS
 10
85.171136273
 20
219.9099155697
 11
84.6431875227
 21
219.9125358902
  0
LINE
  8
1_AXIS
 62
7
  6
CONTINUOUS
 10
84.6431875227
 20
219.9125358902
 11
84.1992869652
 21
219.9161537978
  0
POLYLINE
  8
1_AXIS
 62
7
  6
CONTINUOUS
 66
1
 70
0
  0
VERTEX
  8
1_AXIS
 62
7
  6
CONTINUOUS
 10
84.1992869652
 20
219.9161537978
  0
VERTEX
  8
1_AXIS
 62
7
  6
CONTINUOUS
 10
83.8636696131
 20
219.9205720088
  0
VERTEX
  8
1_AXIS
 62
7
  6
CONTINUOUS
 10
83.7424574809
 20
219.9230072702
  0
VERTEX
  8
1_AXIS
 62
7
  6
CONTINUOUS
 10
83.654673735
 20
219.9255494002
  0
VERTEX
  8
1_AXIS
 62
7
  6
CONTINUOUS
 10
83.6015196971
 20
219.9281635592
  0
VERTEX
  8
1_AXIS
 62
7
  6
CONTINUOUS
 10
83.5837209302
 20
219.9308139535
  0
SEQEND
  0
POLYLINE
  8
1_AXIS
 62
7
  6
CONTINUOUS
 66
1
 70
0
  0
VERTEX
  8
1_AXIS
 62
7
  6
CONTINUOUS
 10
86.056415937
 20
222.2534765949
  0
VERTEX
  8
1_AXIS
 62
7
  6
CONTINUOUS
 10
86.1202465682
 20
222.2510986003
  0
VERTEX
  8
1_AXIS
 62
7
  6
CONTINUOUS
 10
86.1837209302
 20
222.24392085
  0
SEQEND
  0
POLYLINE
  8
1_AXIS
 62
7
  6
CONTINUOUS
 66
1
 70
0
  0
VERTEX
  8
1_AXIS
 62
7
  6
CONTINUOUS
 10
60.7837209302
 20
226.2677070569
  0
VERTEX
  8
1_AXIS
 62
7
  6
CONTINUOUS
 10
60.6558999637
 20
226.2973422798
  0
VERTEX
  8
1_AXIS
 62
7
  6
CONTINUOUS
 10
60.5326956136
 20
226.3471077765
  0
VERTEX
  8
1_AXIS
 62
7
  6
CONTINUOUS
 10
60.4185644265
 20
226.4156836155
  0
VERTEX
  8
1_AXIS
 62
7
  6
CONTINUOUS
 10
60.3151239319
 20
226.5027036598
  0
VERTEX
  8
1_AXIS
 62
7
  6
CONTINUOUS
 10
60.2265412908
 20
226.6053794997
  0
VERTEX
  8
1_AXIS
 62
7
  6
CONTINUOUS
 10
60.1560625922
 20
226.719520761
  0
VERTEX
  8
1_AXIS
 62
7
  6
CONTINUOUS
 10
60.104089675
 20
226.8441679364
  0
VERTEX
  8
1_AXIS
 62
7
  6
CONTINUOUS
 10
60.0723779412
 20
226.9758839451
  0
VERTEX
  8
1_AXIS
 62
7
  6
CONTINUOUS
 10
60.0619229549
 20
227.1089836128
  0
SEQEND
  0
POLYLINE
  8
1_AXIS
 62
7
  6
CONTINUOUS
 66
1
 70
0
  0
VERTEX
  8
1_AXIS
 62
7
  6
CONTINUOUS
 10
63.3837209302
 20
226.2808139535
  0
VERTEX
  8
1_AXIS
 62
7
  6
CONTINUOUS
 10
63.3659221636
 20
226.2781635592
  0
VERTEX
  8
1_AXIS
 62
7
  6
CONTINUOUS
 10
63.3127681262
 20
226.2755494002
  0
VERTEX
  8
1_AXIS
 62
7
  6
CONTINUOUS
 10
63.2249843808
 20
226.2730072702
  0
VERTEX
  8
1_AXIS
 62
7
  6
CONTINUOUS
 10
63.103772249
 20
226.2705720088
  0
SEQEND
  0
POLYLINE
  8
0
 62
7
  6
CONTINUOUS
 66
1
 70
0
  0
VERTEX
  8
0
 62
7
  6
CONTINUOUS
 10
70.0837532956
 20
226.2808139535
  0
VERTEX
  8
0
 62
7
  6
CONTINUOUS
 10
70.2047165154
 20
226.2894648583
  0
VERTEX
  8
0
 62
7
  6
CONTINUOUS
 10
70.3232176229
 20
226.315241879
  0
VERTEX
  8
0
 62
7
  6
CONTINUOUS
 10
70.436844293
 20
226.3576208416
  0
VERTEX
  8
0
 62
7
  6
CONTINUOUS
 10
70.5432832317
 20
226.4157394626
  0
VERTEX
  8
0
 62
7
  6
CONTINUOUS
 10
70.640367361
 20
226.4884148412
  0
VERTEX
  8
0
 62
7
  6
CONTINUOUS
 10
70.7261200426
 20
226.5741675227
  0
VERTEX
  8
0
 62
7
  6
CONTINUOUS
 10
70.7987954211
 20
226.6712516521
  0
VERTEX
  8
0
 62
7
  6
CONTINUOUS
 10
70.8569140422
 20
226.7776905908
  0
VERTEX
  8
0
 62
7
  6
CONTINUOUS
 10
70.8992930047
 20
226.8913172609
  0
VERTEX
  8
0
 62
7
  6
CONTINUOUS
 10
70.9250700254
 20
227.0098183683
  0
VERTEX
  8
0
 62
7
  6
CONTINUOUS
 10
70.9337209302
 20
227.1307815881
  0
SEQEND
  0
LINE
  8
1_AXIS
 62
7
  6
CONTINUOUS
 10
63.103772249
 20
226.2705720088
 11
62.7681548962
 21
226.2661537978
  0
LINE
  8
1_AXIS
 62
7
  6
CONTINUOUS
 10
62.7681548962
 20
226.2661537978
 11
62.3242543367
 21
226.2625358902
  0
LINE
  8
1_AXIS
 62
7
  6
CONTINUOUS
 10
62.3242543367
 20
226.2625358902
 11
61.5096796203
 21
226.2590265036
  0
LINE
  8
1_AXIS
 62
7
  6
CONTINUOUS
 10
61.5096796203
 20
226.2590265036
 11
60.9110259235
 21
226.2581513121
  0
LINE
  8
0
 62
7
  6
CONTINUOUS
 10
89.8837209298
 20
224.0808139535
 11
75.7216975092
 21
224.0808139535
  0
LINE
  8
0
 62
7
  6
CONTINUOUS
 10
57.0837209306
 20
224.4308139535
 11
71.2457443514
 21
224.4308139535
  0
LINE
  8
1_AXIS
 62
7
  6
CONTINUOUS
 10
70.0837532956
 20
226.2808139535
 11
63.3837209302
 21
226.2808139535
  0
LINE
  8
1_AXIS
 62
7
  6
CONTINUOUS
 10
63.3837209302
 20
228.5808139535
 11
70.0837532956
 21
228.5808139535
  0
LINE
  8
1_AXIS
 62
7
  6
CONTINUOUS
 10
62.0690751249
 20
228.6005371855
 11
60.9110259235
 21
228.6034765949
  0
LINE
  8
1_AXIS
 62
7
  6
CONTINUOUS
 10
62.7681548962
 20
228.5954741091
 11
62.0690751249
 21
228.6005371855
  0
POLYLINE
  8
1_AXIS
 62
7
  6
CONTINUOUS
 66
1
 70
0
  0
VERTEX
  8
1_AXIS
 62
7
  6
CONTINUOUS
 10
60.9110259235
 20
226.2581513121
  0
VERTEX
  8
1_AXIS
 62
7
  6
CONTINUOUS
 10
60.8471998129
 20
226.2605289674
  0
VERTEX
  8
1_AXIS
 62
7
  6
CONTINUOUS
 10
60.7837209302
 20
226.2677070569
  0
SEQEND
  0
POLYLINE
  8
1_AXIS
 62
7
  6
CONTINUOUS
 66
1
 70
0
  0
VERTEX
  8
1_AXIS
 62
7
  6
CONTINUOUS
 10
63.3837209302
 20
228.5808139535
  0
VERTEX
  8
1_AXIS
 62
7
  6
CONTINUOUS
 10
63.3659221636
 20
228.5834643478
  0
VERTEX
  8
1_AXIS
 62
7
  6
CONTINUOUS
 10
63.3127681262
 20
228.5860785068
  0
VERTEX
  8
1_AXIS
 62
7
  6
CONTINUOUS
 10
63.2249843808
 20
228.5886206368
  0
VERTEX
  8
1_AXIS
 62
7
  6
CONTINUOUS
 10
63.103772249
 20
228.5910558982
  0
VERTEX
  8
1_AXIS
 62
7
  6
CONTINUOUS
 10
62.7681548962
 20
228.5954741091
  0
SEQEND
  0
POLYLINE
  8
1_AXIS
 62
7
  6
CONTINUOUS
 66
1
 70
0
  0
VERTEX
  8
1_AXIS
 62
7
  6
CONTINUOUS
 10
86.1837209302
 20
222.24392085
  0
VERTEX
  8
1_AXIS
 62
7
  6
CONTINUOUS
 10
86.2992673775
 20
222.2180527464
  0
VERTEX
  8
1_AXIS
 62
7
  6
CONTINUOUS
 10
86.4110846845
 20
222.1758601237
  0
VERTEX
  8
1_AXIS
 62
7
  6
CONTINUOUS
 10
86.5160774547
 20
222.1182053771
  0
VERTEX
  8
1_AXIS
 62
7
  6
CONTINUOUS
 10
86.6128180022
 20
222.0455294544
  0
VERTEX
  8
1_AXIS
 62
7
  6
CONTINUOUS
 10
86.6989301612
 20
221.9590415767
  0
VERTEX
  8
1_AXIS
 62
7
  6
CONTINUOUS
 10
86.7715271362
 20
221.8614979024
  0
VERTEX
  8
1_AXIS
 62
7
  6
CONTINUOUS
 10
86.8290420526
 20
221.7555925852
  0
VERTEX
  8
1_AXIS
 62
7
  6
CONTINUOUS
 10
86.8713889362
 20
221.6414621556
  0
VERTEX
  8
1_AXIS
 62
7
  6
CONTINUOUS
 10
86.8970662626
 20
221.5223905317
  0
VERTEX
  8
1_AXIS
 62
7
  6
CONTINUOUS
 10
86.9055189056
 20
221.4026442942
  0
SEQEND
  0
POLYLINE
  8
1_AXIS
 62
7
  6
CONTINUOUS
 66
1
 70
0
  0
VERTEX
  8
1_AXIS
 62
7
  6
CONTINUOUS
 10
60.7837209302
 20
228.59392085
  0
VERTEX
  8
1_AXIS
 62
7
  6
CONTINUOUS
 10
60.8471998074
 20
228.6010989392
  0
VERTEX
  8
1_AXIS
 62
7
  6
CONTINUOUS
 10
60.9110259235
 20
228.6034765949
  0
SEQEND
  0
POLYLINE
  8
1_AXIS
 62
7
  6
CONTINUOUS
 66
1
 70
0
  0
VERTEX
  8
1_AXIS
 62
7
  6
CONTINUOUS
 10
86.1837209302
 20
232.6177070569
  0
VERTEX
  8
1_AXIS
 62
7
  6
CONTINUOUS
 10
86.1202475815
 20
232.6105293827
  0
VERTEX
  8
1_AXIS
 62
7
  6
CONTINUOUS
 10
86.056415937
 20
232.6081513121
  0
SEQEND
  0
LINE
  8
0
 62
7
  6
CONTINUOUS
 10
71.2457443514
 20
230.4308139535
 11
57.0837209306
 21
230.4308139535
  0
LINE
  8
0
 62
7
  6
CONTINUOUS
 10
75.7216975091
 20
230.7808139535
 11
89.8837209298
 21
230.7808139535
  0
LINE
  8
1_AXIS
 62
7
  6
CONTINUOUS
 10
83.5837209302
 20
232.6308139535
 11
76.8836885648
 21
232.6308139535
  0
LINE
  8
1_AXIS
 62
7
  6
CONTINUOUS
 10
86.056415937
 20
232.6081513121
 11
85.171136273
 21
232.6099155697
  0
LINE
  8
1_AXIS
 62
7
  6
CONTINUOUS
 10
85.171136273
 20
232.6099155697
 11
84.6431875227
 21
232.6125358902
  0
LINE
  8
1_AXIS
 62
7
  6
CONTINUOUS
 10
84.6431875227
 20
232.6125358902
 11
84.1992869652
 21
232.6161537978
  0
POLYLINE
  8
1_AXIS
 62
7
  6
CONTINUOUS
 66
1
 70
0
  0
VERTEX
  8
1_AXIS
 62
7
  6
CONTINUOUS
 10
84.1992869652
 20
232.6161537978
  0
VERTEX
  8
1_AXIS
 62
7
  6
CONTINUOUS
 10
83.8636696131
 20
232.6205720088
  0
VERTEX
  8
1_AXIS
 62
7
  6
CONTINUOUS
 10
83.7424574809
 20
232.6230072702
  0
VERTEX
  8
1_AXIS
 62
7
  6
CONTINUOUS
 10
83.654673735
 20
232.6255494002
  0
VERTEX
  8
1_AXIS
 62
7
  6
CONTINUOUS
 10
83.6015196971
 20
232.6281635592
  0
VERTEX
  8
1_AXIS
 62
7
  6
CONTINUOUS
 10
83.5837209302
 20
232.6308139535
  0
SEQEND
  0
LINE
  8
0
 62
7
  6
CONTINUOUS
 10
71.8914286335
 20
249.5944184374
 11
72.2618105172
 21
249.281233057
  0
POLYLINE
  8
0
 62
7
  6
CONTINUOUS
 66
1
 70
0
  0
VERTEX
  8
0
 62
7
  6
CONTINUOUS
 10
76.8836885648
 20
234.9308139535
  0
VERTEX
  8
0
 62
7
  6
CONTINUOUS
 10
76.762725345
 20
234.9221630487
  0
VERTEX
  8
0
 62
7
  6
CONTINUOUS
 10
76.6442242376
 20
234.8963860279
  0
VERTEX
  8
0
 62
7
  6
CONTINUOUS
 10
76.5305975675
 20
234.8540070654
  0
VERTEX
  8
0
 62
7
  6
CONTINUOUS
 10
76.4241586288
 20
234.7958884443
  0
VERTEX
  8
0
 62
7
  6
CONTINUOUS
 10
76.3270744995
 20
234.7232130658
  0
VERTEX
  8
0
 62
7
  6
CONTINUOUS
 10
76.2413218179
 20
234.6374603842
  0
VERTEX
  8
0
 62
7
  6
CONTINUOUS
 10
76.1686464394
 20
234.5403762549
  0
VERTEX
  8
0
 62
7
  6
CONTINUOUS
 10
76.1105278183
 20
234.4339373162
  0
VERTEX
  8
0
 62
7
  6
CONTINUOUS
 10
76.0681488558
 20
234.3203106461
  0
VERTEX
  8
0
 62
7
  6
CONTINUOUS
 10
76.042371835
 20
234.2018095387
  0
VERTEX
  8
0
 62
7
  6
CONTINUOUS
 10
76.0337209302
 20
234.0808463189
  0
SEQEND
  0
POLYLINE
  8
0
 62
7
  6
CONTINUOUS
 66
1
 70
0
  0
VERTEX
  8
0
 62
7
  6
CONTINUOUS
 10
70.0837532956
 20
238.9808139535
  0
VERTEX
  8
0
 62
7
  6
CONTINUOUS
 10
70.2047165154
 20
238.9894648583
  0
VERTEX
  8
0
 62
7
  6
CONTINUOUS
 10
70.3232176229
 20
239.015241879
  0
VERTEX
  8
0
 62
7
  6
CONTINUOUS
 10
70.436844293
 20
239.0576208416
  0
VERTEX
  8
0
 62
7
  6
CONTINUOUS
 10
70.5432832317
 20
239.1157394626
  0
VERTEX
  8
0
 62
7
  6
CONTINUOUS
 10
70.640367361
 20
239.1884148412
  0
VERTEX
  8
0
 62
7
  6
CONTINUOUS
 10
70.7261200426
 20
239.2741675227
  0
VERTEX
  8
0
 62
7
  6
CONTINUOUS
 10
70.7987954211
 20
239.3712516521
  0
VERTEX
  8
0
 62
7
  6
CONTINUOUS
 10
70.8569140422
 20
239.4776905908
  0
VERTEX
  8
0
 62
7
  6
CONTINUOUS
 10
70.8992930047
 20
239.5913172609
  0
VERTEX
  8
0
 62
7
  6
CONTINUOUS
 10
70.9250700254
 20
239.7098183683
  0
VERTEX
  8
0
 62
7
  6
CONTINUOUS
 10
70.9337209302
 20
239.8307815881
  0
SEQEND
  0
POLYLINE
  8
1_AXIS
 62
7
  6
CONTINUOUS
 66
1
 70
0
  0
VERTEX
  8
1_AXIS
 62
7
  6
CONTINUOUS
 10
83.8636696131
 20
234.9410558982
  0
VERTEX
  8
1_AXIS
 62
7
  6
CONTINUOUS
 10
83.7424574809
 20
234.9386206368
  0
VERTEX
  8
1_AXIS
 62
7
  6
CONTINUOUS
 10
83.654673735
 20
234.9360785068
  0
VERTEX
  8
1_AXIS
 62
7
  6
CONTINUOUS
 10
83.6015196971
 20
234.9334643478
  0
VERTEX
  8
1_AXIS
 62
7
  6
CONTINUOUS
 10
83.5837209302
 20
234.9308139535
  0
SEQEND
  0
LINE
  8
1_AXIS
 62
7
  6
CONTINUOUS
 10
84.1992869652
 20
234.9454741092
 11
83.8636696131
 21
234.9410558982
  0
LINE
  8
1_AXIS
 62
7
  6
CONTINUOUS
 10
63.103772249
 20
238.9705720088
 11
62.7681548962
 21
238.9661537978
  0
LINE
  8
1_AXIS
 62
7
  6
CONTINUOUS
 10
62.7681548962
 20
238.9661537978
 11
62.3242543367
 21
238.9625358902
  0
LINE
  8
1_AXIS
 62
7
  6
CONTINUOUS
 10
84.8983667336
 20
234.9505371855
 11
84.1992869652
 21
234.9454741092
  0
LINE
  8
1_AXIS
 62
7
  6
CONTINUOUS
 10
62.3242543367
 20
238.9625358902
 11
61.5096796203
 21
238.9590265036
  0
POLYLINE
  8
1_AXIS
 62
7
  6
CONTINUOUS
 66
1
 70
0
  0
VERTEX
  8
1_AXIS
 62
7
  6
CONTINUOUS
 10
86.056415937
 20
234.9534765949
  0
VERTEX
  8
1_AXIS
 62
7
  6
CONTINUOUS
 10
85.7543215807
 20
234.9531922294
  0
VERTEX
  8
1_AXIS
 62
7
  6
CONTINUOUS
 10
84.8983667336
 20
234.9505371855
  0
SEQEND
  0
LINE
  8
1_AXIS
 62
7
  6
CONTINUOUS
 10
61.5096796203
 20
238.9590265036
 11
60.9110259235
 21
238.9581513121
  0
LINE
  8
1_AXIS
 62
7
  6
CONTINUOUS
 10
76.8836885648
 20
234.9308139535
 11
83.5837209302
 21
234.9308139535
  0
LINE
  8
0
 62
7
  6
CONTINUOUS
 10
89.8837209298
 20
236.7808139535
 11
75.7216975091
 21
236.7808139535
  0
LINE
  8
0
 62
7
  6
CONTINUOUS
 10
57.0837209306
 20
237.1308139535
 11
71.2457443513
 21
237.1308139535
  0
LINE
  8
1_AXIS
 62
7
  6
CONTINUOUS
 10
70.0837532956
 20
238.9808139535
 11
63.3837209302
 21
238.9808139535
  0
POLYLINE
  8
1_AXIS
 62
7
  6
CONTINUOUS
 66
1
 70
0
  0
VERTEX
  8
1_AXIS
 62
7
  6
CONTINUOUS
 10
86.056415937
 20
234.9534765949
  0
VERTEX
  8
1_AXIS
 62
7
  6
CONTINUOUS
 10
86.1202465682
 20
234.9510986003
  0
VERTEX
  8
1_AXIS
 62
7
  6
CONTINUOUS
 10
86.1837209302
 20
234.94392085
  0
SEQEND
  0
POLYLINE
  8
1_AXIS
 62
7
  6
CONTINUOUS
 66
1
 70
0
  0
VERTEX
  8
1_AXIS
 62
7
  6
CONTINUOUS
 10
60.9110259235
 20
238.9581513121
  0
VERTEX
  8
1_AXIS
 62
7
  6
CONTINUOUS
 10
60.8471998129
 20
238.9605289674
  0
VERTEX
  8
1_AXIS
 62
7
  6
CONTINUOUS
 10
60.7837209302
 20
238.9677070569
  0
SEQEND
  0
POLYLINE
  8
1_AXIS
 62
7
  6
CONTINUOUS
 66
1
 70
0
  0
VERTEX
  8
1_AXIS
 62
7
  6
CONTINUOUS
 10
86.1837209302
 20
234.94392085
  0
VERTEX
  8
1_AXIS
 62
7
  6
CONTINUOUS
 10
86.2992673775
 20
234.9180527464
  0
VERTEX
  8
1_AXIS
 62
7
  6
CONTINUOUS
 10
86.4110846845
 20
234.8758601237
  0
VERTEX
  8
1_AXIS
 62
7
  6
CONTINUOUS
 10
86.5160774547
 20
234.8182053771
  0
VERTEX
  8
1_AXIS
 62
7
  6
CONTINUOUS
 10
86.6128180022
 20
234.7455294544
  0
VERTEX
  8
1_AXIS
 62
7
  6
CONTINUOUS
 10
86.6989301612
 20
234.6590415767
  0
VERTEX
  8
1_AXIS
 62
7
  6
CONTINUOUS
 10
86.7715271362
 20
234.5614979024
  0
VERTEX
  8
1_AXIS
 62
7
  6
CONTINUOUS
 10
86.8290420526
 20
234.4555925852
  0
VERTEX
  8
1_AXIS
 62
7
  6
CONTINUOUS
 10
86.8713889362
 20
234.3414621556
  0
VERTEX
  8
1_AXIS
 62
7
  6
CONTINUOUS
 10
86.8970662626
 20
234.2223905317
  0
VERTEX
  8
1_AXIS
 62
7
  6
CONTINUOUS
 10
86.9055189056
 20
234.1026442942
  0
SEQEND
  0
POLYLINE
  8
1_AXIS
 62
7
  6
CONTINUOUS
 66
1
 70
0
  0
VERTEX
  8
1_AXIS
 62
7
  6
CONTINUOUS
 10
60.7837209302
 20
238.9677070569
  0
VERTEX
  8
1_AXIS
 62
7
  6
CONTINUOUS
 10
60.6558999637
 20
238.9973422798
  0
VERTEX
  8
1_AXIS
 62
7
  6
CONTINUOUS
 10
60.5326956136
 20
239.0471077765
  0
VERTEX
  8
1_AXIS
 62
7
  6
CONTINUOUS
 10
60.4185644265
 20
239.1156836155
  0
VERTEX
  8
1_AXIS
 62
7
  6
CONTINUOUS
 10
60.3151239319
 20
239.2027036598
  0
VERTEX
  8
1_AXIS
 62
7
  6
CONTINUOUS
 10
60.2265412908
 20
239.3053794997
  0
VERTEX
  8
1_AXIS
 62
7
  6
CONTINUOUS
 10
60.1560625922
 20
239.419520761
  0
VERTEX
  8
1_AXIS
 62
7
  6
CONTINUOUS
 10
60.104089675
 20
239.5441679364
  0
VERTEX
  8
1_AXIS
 62
7
  6
CONTINUOUS
 10
60.0723779412
 20
239.6758839451
  0
VERTEX
  8
1_AXIS
 62
7
  6
CONTINUOUS
 10
60.0619229549
 20
239.8089836128
  0
SEQEND
  0
LINE
  8
0
 62
7
  6
CONTINUOUS
 10
75.076013227
 20
249.7172094696
 11
74.7056313432
 21
250.03039485
  0
POLYLINE
  8
BLANK_CURVE
 62
7
  6
CONTINUOUS
 66
1
 70
0
  0
VERTEX
  8
BLANK_CURVE
 62
7
  6
CONTINUOUS
 10
77.4637209302
 20
115.8808139535
  0
VERTEX
  8
BLANK_CURVE
 62
7
  6
CONTINUOUS
 10
77.2248580312
 20
115.681474068
  0
VERTEX
  8
BLANK_CURVE
 62
7
  6
CONTINUOUS
 10
77.0077195354
 20
115.4582969259
  0
VERTEX
  8
BLANK_CURVE
 62
7
  6
CONTINUOUS
 10
76.8149068861
 20
115.213787581
  0
VERTEX
  8
BLANK_CURVE
 62
7
  6
CONTINUOUS
 10
76.6485080936
 20
114.9507125264
  0
VERTEX
  8
BLANK_CURVE
 62
7
  6
CONTINUOUS
 10
76.510278192
 20
114.671813677
  0
VERTEX
  8
BLANK_CURVE
 62
7
  6
CONTINUOUS
 10
76.4016645859
 20
114.3799976894
  0
SEQEND
  0
LINE
  8
1_AXIS
 62
7
  6
CONTINUOUS
 10
86.2994209046
 20
245.0163055597
 11
86.1837209302
 21
244.9904062429
  0
POLYLINE
  8
0
 62
7
  6
CONTINUOUS
 66
1
 70
0
  0
VERTEX
  8
0
 62
7
  6
CONTINUOUS
 10
86.2290584304
 20
244.996347311
  0
VERTEX
  8
0
 62
7
  6
CONTINUOUS
 10
86.1711870507
 20
244.9871868639
  0
VERTEX
  8
0
 62
7
  6
CONTINUOUS
 10
86.1175646615
 20
244.9823019625
  0
VERTEX
  8
0
 62
7
  6
CONTINUOUS
 10
86.0672870046
 20
244.9808139535
  0
SEQEND
  0
POLYLINE
  8
1_AXIS
 62
7
  6
CONTINUOUS
 66
1
 70
0
  0
VERTEX
  8
1_AXIS
 62
7
  6
CONTINUOUS
 10
63.3837209302
 20
238.9808139535
  0
VERTEX
  8
1_AXIS
 62
7
  6
CONTINUOUS
 10
63.3659221636
 20
238.9781635592
  0
VERTEX
  8
1_AXIS
 62
7
  6
CONTINUOUS
 10
63.3127681262
 20
238.9755494002
  0
VERTEX
  8
1_AXIS
 62
7
  6
CONTINUOUS
 10
63.2249843808
 20
238.9730072702
  0
VERTEX
  8
1_AXIS
 62
7
  6
CONTINUOUS
 10
63.103772249
 20
238.9705720088
  0
SEQEND
  0
LINE
  8
1_AXIS
 62
7
  6
CONTINUOUS
 10
86.1837209302
 20
244.9904062429
 11
86.1202150957
 21
244.9832148001
  0
POLYLINE
  8
1_AXIS
 62
7
  6
CONTINUOUS
 66
1
 70
0
  0
VERTEX
  8
1_AXIS
 62
7
  6
CONTINUOUS
 10
60.7837209302
 20
241.29392085
  0
VERTEX
  8
1_AXIS
 62
7
  6
CONTINUOUS
 10
60.8471998074
 20
241.3010989392
  0
VERTEX
  8
1_AXIS
 62
7
  6
CONTINUOUS
 10
60.9110259235
 20
241.3034765949
  0
SEQEND
  0
LINE
  8
1_AXIS
 62
7
  6
CONTINUOUS
 10
63.3837209302
 20
241.2808139535
 11
70.0837532956
 21
241.2808139535
  0
LINE
  8
0
 62
7
  6
CONTINUOUS
 10
80.8837209302
 20
242.7808139535
 11
81.6837209302
 21
242.7808139535
  0
LINE
  8
0
 62
7
  6
CONTINUOUS
 10
71.2457443514
 20
243.1308139535
 11
57.0837209306
 21
243.1308139535
  0
LINE
  8
0
 62
7
  6
CONTINUOUS
 10
75.7216975091
 20
243.4808139535
 11
89.8837209298
 21
243.4808139535
  0
LINE
  8
0
 62
7
  6
CONTINUOUS
 10
66.0837209302
 20
243.8308139535
 11
65.2837209302
 21
243.8308139535
  0
LINE
  8
1_AXIS
 62
7
  6
CONTINUOUS
 10
62.0690751249
 20
241.3005371855
 11
60.9110259235
 21
241.3034765949
  0
LINE
  8
1_AXIS
 62
7
  6
CONTINUOUS
 10
62.7681548962
 20
241.2954741091
 11
62.0690751249
 21
241.3005371855
  0
POLYLINE
  8
1_AXIS
 62
7
  6
CONTINUOUS
 66
1
 70
0
  0
VERTEX
  8
1_AXIS
 62
7
  6
CONTINUOUS
 10
63.3837209302
 20
241.2808139535
  0
VERTEX
  8
1_AXIS
 62
7
  6
CONTINUOUS
 10
63.3659221636
 20
241.2834643478
  0
VERTEX
  8
1_AXIS
 62
7
  6
CONTINUOUS
 10
63.3127681262
 20
241.2860785068
  0
VERTEX
  8
1_AXIS
 62
7
  6
CONTINUOUS
 10
63.2249843808
 20
241.2886206368
  0
VERTEX
  8
1_AXIS
 62
7
  6
CONTINUOUS
 10
63.103772249
 20
241.2910558982
  0
VERTEX
  8
1_AXIS
 62
7
  6
CONTINUOUS
 10
62.7681548962
 20
241.2954741091
  0
SEQEND
  0
LINE
  8
0
 62
7
  6
CONTINUOUS
 10
77.4637228881
 20
115.8808154235
 11
77.7070933298
 21
116.0452192056
  0
POLYLINE
  8
BLANK_CURVE
 62
7
  6
CONTINUOUS
 66
1
 70
0
  0
VERTEX
  8
BLANK_CURVE
 62
7
  6
CONTINUOUS
 10
77.4637209302
 20
115.8808139535
  0
VERTEX
  8
BLANK_CURVE
 62
7
  6
CONTINUOUS
 10
77.7234189842
 20
116.0550454632
  0
VERTEX
  8
BLANK_CURVE
 62
7
  6
CONTINUOUS
 10
78.0021506471
 20
116.2023946579
  0
SEQEND
  0
LINE
  8
1_AXIS
 62
7
  6
CONTINUOUS
 10
86.1202150957
 20
244.9832148001
 11
86.0672715714
 21
244.9812244856
  0
POLYLINE
  8
1_AXIS
 62
7
  6
CONTINUOUS
 66
1
 70
0
  0
VERTEX
  8
1_AXIS
 62
7
  6
CONTINUOUS
 10
83.8636696131
 20
247.2410558982
  0
VERTEX
  8
1_AXIS
 62
7
  6
CONTINUOUS
 10
83.7424574809
 20
247.2386206368
  0
VERTEX
  8
1_AXIS
 62
7
  6
CONTINUOUS
 10
83.654673735
 20
247.2360785068
  0
VERTEX
  8
1_AXIS
 62
7
  6
CONTINUOUS
 10
83.6015196971
 20
247.2334643478
  0
VERTEX
  8
1_AXIS
 62
7
  6
CONTINUOUS
 10
83.5837209302
 20
247.2308139535
  0
SEQEND
  0
LINE
  8
1_AXIS
 62
7
  6
CONTINUOUS
 10
84.1992869652
 20
247.2454741092
 11
83.8636696131
 21
247.2410558982
  0
LINE
  8
1_AXIS
 62
7
  6
CONTINUOUS
 10
84.8983667336
 20
247.2505371855
 11
84.1992869652
 21
247.2454741092
  0
POLYLINE
  8
1_AXIS
 62
7
  6
CONTINUOUS
 66
1
 70
0
  0
VERTEX
  8
1_AXIS
 62
7
  6
CONTINUOUS
 10
86.056415937
 20
247.2534765949
  0
VERTEX
  8
1_AXIS
 62
7
  6
CONTINUOUS
 10
85.7543215807
 20
247.2531922294
  0
VERTEX
  8
1_AXIS
 62
7
  6
CONTINUOUS
 10
84.8983667336
 20
247.2505371855
  0
SEQEND
  0
LINE
  8
0
 62
7
  6
CONTINUOUS
 10
86.0672870046
 20
244.9808139535
 11
76.8501548559
 21
244.9808139535
  0
LINE
  8
1_AXIS
 62
7
  6
CONTINUOUS
 10
83.5837209302
 20
247.2308139535
 11
76.8836885648
 21
247.2308139535
  0
LINE
  8
0
 62
7
  6
CONTINUOUS
 10
89.8837209298
 20
248.7308139535
 11
81.3977579981
 21
248.7308139535
  0
LINE
  8
0
 62
7
  6
CONTINUOUS
 10
75.7216975091
 20
249.4808139535
 11
82.0337056913
 21
249.4808139535
  0
POLYLINE
  8
1_AXIS
 62
7
  6
CONTINUOUS
 66
1
 70
0
  0
VERTEX
  8
1_AXIS
 62
7
  6
CONTINUOUS
 10
86.056415937
 20
247.2534765949
  0
VERTEX
  8
1_AXIS
 62
7
  6
CONTINUOUS
 10
86.1202475815
 20
247.2510985242
  0
VERTEX
  8
1_AXIS
 62
7
  6
CONTINUOUS
 10
86.1837209302
 20
247.24392085
  0
SEQEND
  0
POLYLINE
  8
0
 62
7
  6
CONTINUOUS
 66
1
 70
0
  0
VERTEX
  8
0
 62
7
  6
CONTINUOUS
 10
76.8501548559
 20
244.9808139535
  0
VERTEX
  8
0
 62
7
  6
CONTINUOUS
 10
76.7405867161
 20
244.9879041601
  0
VERTEX
  8
0
 62
7
  6
CONTINUOUS
 10
76.6315562474
 20
245.0093987141
  0
VERTEX
  8
0
 62
7
  6
CONTINUOUS
 10
76.5256285418
 20
245.0451924996
  0
VERTEX
  8
0
 62
7
  6
CONTINUOUS
 10
76.4252834212
 20
245.0945967317
  0
VERTEX
  8
0
 62
7
  6
CONTINUOUS
 10
76.3326239951
 20
245.1564931127
  0
VERTEX
  8
0
 62
7
  6
CONTINUOUS
 10
76.2490479472
 20
245.2297868289
  0
VERTEX
  8
0
 62
7
  6
CONTINUOUS
 10
76.1757639839
 20
245.3133427941
  0
VERTEX
  8
0
 62
7
  6
CONTINUOUS
 10
76.1138923444
 20
245.4059466685
  0
VERTEX
  8
0
 62
7
  6
CONTINUOUS
 10
76.064502678
 20
245.5062242408
  0
VERTEX
  8
0
 62
7
  6
CONTINUOUS
 10
76.0286754352
 20
245.612205981
  0
VERTEX
  8
0
 62
7
  6
CONTINUOUS
 10
76.0071944827
 20
245.7210781832
  0
VERTEX
  8
0
 62
7
  6
CONTINUOUS
 10
76.0000806038
 20
245.8308139535
  0
SEQEND
  0
POLYLINE
  8
0
 62
7
  6
CONTINUOUS
 66
1
 70
0
  0
VERTEX
  8
0
 62
7
  6
CONTINUOUS
 10
76.8503258267
 20
244.9832045859
  0
VERTEX
  8
0
 62
7
  6
CONTINUOUS
 10
76.7627839054
 20
244.9894653214
  0
VERTEX
  8
0
 62
7
  6
CONTINUOUS
 10
76.6442765218
 20
245.0152434529
  0
VERTEX
  8
0
 62
7
  6
CONTINUOUS
 10
76.5306435021
 20
245.0576238294
  0
VERTEX
  8
0
 62
7
  6
CONTINUOUS
 10
76.4241980612
 20
245.1157439792
  0
VERTEX
  8
0
 62
7
  6
CONTINUOUS
 10
76.3271071807
 20
245.1884210071
  0
VERTEX
  8
0
 62
7
  6
CONTINUOUS
 10
76.2413474891
 20
245.2741756462
  0
VERTEX
  8
0
 62
7
  6
CONTINUOUS
 10
76.1686650034
 20
245.3712623533
  0
VERTEX
  8
0
 62
7
  6
CONTINUOUS
 10
76.1105395626
 20
245.4777048349
  0
VERTEX
  8
0
 62
7
  6
CONTINUOUS
 10
76.068154682
 20
245.5913362798
  0
VERTEX
  8
0
 62
7
  6
CONTINUOUS
 10
76.0423734449
 20
245.7098434841
  0
VERTEX
  8
0
 62
7
  6
CONTINUOUS
 10
76.0337209302
 20
245.8308139535
  0
SEQEND
  0
POLYLINE
  8
1_AXIS
 62
7
  6
CONTINUOUS
 66
1
 70
0
  0
VERTEX
  8
1_AXIS
 62
7
  6
CONTINUOUS
 10
86.1837209302
 20
247.24392085
  0
VERTEX
  8
1_AXIS
 62
7
  6
CONTINUOUS
 10
86.2992486372
 20
247.2180583426
  0
VERTEX
  8
1_AXIS
 62
7
  6
CONTINUOUS
 10
86.4110354158
 20
247.1758828028
  0
VERTEX
  8
1_AXIS
 62
7
  6
CONTINUOUS
 10
86.5160351581
 20
247.1182326596
  0
VERTEX
  8
1_AXIS
 62
7
  6
CONTINUOUS
 10
86.6128240144
 20
247.0455242273
  0
VERTEX
  8
1_AXIS
 62
7
  6
CONTINUOUS
 10
86.6989423553
 20
246.959027428
  0
VERTEX
  8
1_AXIS
 62
7
  6
CONTINUOUS
 10
86.7715263904
 20
246.8614990702
  0
VERTEX
  8
1_AXIS
 62
7
  6
CONTINUOUS
 10
86.8290460505
 20
246.7555837924
  0
VERTEX
  8
1_AXIS
 62
7
  6
CONTINUOUS
 10
86.8714045781
 20
246.6414085328
  0
VERTEX
  8
1_AXIS
 62
7
  6
CONTINUOUS
 10
86.8970738573
 20
246.5223369842
  0
VERTEX
  8
1_AXIS
 62
7
  6
CONTINUOUS
 10
86.9055189056
 20
246.4026442942
  0
SEQEND
  0
POLYLINE
  8
1_AXIS
 62
7
  6
CONTINUOUS
 66
1
 70
0
  0
VERTEX
  8
1_AXIS
 62
7
  6
CONTINUOUS
 10
60.7837209302
 20
252.0677070569
  0
VERTEX
  8
1_AXIS
 62
7
  6
CONTINUOUS
 10
60.6559200054
 20
252.0973359626
  0
VERTEX
  8
1_AXIS
 62
7
  6
CONTINUOUS
 10
60.5327437498
 20
252.1470837851
  0
VERTEX
  8
1_AXIS
 62
7
  6
CONTINUOUS
 10
60.4185811813
 20
252.2156716631
  0
VERTEX
  8
1_AXIS
 62
7
  6
CONTINUOUS
 10
60.315109706
 20
252.3027177078
  0
VERTEX
  8
1_AXIS
 62
7
  6
CONTINUOUS
 10
60.2265334803
 20
252.4053901667
  0
VERTEX
  8
1_AXIS
 62
7
  6
CONTINUOUS
 10
60.1560613626
 20
252.5195231558
  0
VERTEX
  8
1_AXIS
 62
7
  6
CONTINUOUS
 10
60.1040747665
 20
252.6442135748
  0
VERTEX
  8
1_AXIS
 62
7
  6
CONTINUOUS
 10
60.0723689696
 20
252.7759407207
  0
VERTEX
  8
1_AXIS
 62
7
  6
CONTINUOUS
 10
60.0619229549
 20
252.9089836128
  0
SEQEND
  0
LINE
  8
0
 62
7
  6
CONTINUOUS
 10
77.7070933298
 20
116.0452192056
 11
78.0057520932
 21
116.2040607689
  0
LINE
  8
BLANK_CURVE
 62
7
  6
CONTINUOUS
 10
78.0021506471
 20
116.2023946579
 11
78.2947290332
 21
116.3198723633
  0
POLYLINE
  8
0
 62
7
  6
CONTINUOUS
 66
1
 70
0
  0
VERTEX
  8
0
 62
7
  6
CONTINUOUS
 10
78.0057520932
 20
116.2040607689
  0
VERTEX
  8
0
 62
7
  6
CONTINUOUS
 10
78.3175096595
 20
116.3275603074
  0
VERTEX
  8
0
 62
7
  6
CONTINUOUS
 10
78.5955289002
 20
116.4054540067
  0
SEQEND
  0
LINE
  8
0
 62
7
  6
CONTINUOUS
 10
68.6727128273
 20
255.9917555437
 11
68.3719208971
 21
255.9061757187
  0
POLYLINE
  8
1_AXIS
 62
7
  6
CONTINUOUS
 66
1
 70
0
  0
VERTEX
  8
1_AXIS
 62
7
  6
CONTINUOUS
 10
63.3837209302
 20
252.0808139535
  0
VERTEX
  8
1_AXIS
 62
7
  6
CONTINUOUS
 10
63.3659221636
 20
252.0781635592
  0
VERTEX
  8
1_AXIS
 62
7
  6
CONTINUOUS
 10
63.3127681262
 20
252.0755494002
  0
VERTEX
  8
1_AXIS
 62
7
  6
CONTINUOUS
 10
63.2249843808
 20
252.0730072702
  0
VERTEX
  8
1_AXIS
 62
7
  6
CONTINUOUS
 10
63.103772249
 20
252.0705720088
  0
SEQEND
  0
LINE
  8
1_AXIS
 62
7
  6
CONTINUOUS
 10
60.8472306408
 20
254.3284133988
 11
60.9001702872
 21
254.3304034463
  0
LINE
  8
1_AXIS
 62
7
  6
CONTINUOUS
 10
63.103772249
 20
252.0705720088
 11
62.7681548962
 21
252.0661537978
  0
LINE
  8
1_AXIS
 62
7
  6
CONTINUOUS
 10
62.7681548962
 20
252.0661537978
 11
62.3242543367
 21
252.0625358902
  0
LINE
  8
1_AXIS
 62
7
  6
CONTINUOUS
 10
62.3242543367
 20
252.0625358902
 11
61.5096796203
 21
252.0590265036
  0
LINE
  8
1_AXIS
 62
7
  6
CONTINUOUS
 10
61.5096796203
 20
252.0590265036
 11
60.9110259235
 21
252.0581513121
  0
LINE
  8
0
 62
7
  6
CONTINUOUS
 10
64.9337361691
 20
249.8308139535
 11
71.2457443514
 21
249.8308139535
  0
LINE
  8
0
 62
7
  6
CONTINUOUS
 10
57.0837209306
 20
250.5808139535
 11
65.5696838623
 21
250.5808139535
  0
LINE
  8
1_AXIS
 62
7
  6
CONTINUOUS
 10
63.3837209302
 20
252.0808139535
 11
70.0837532956
 21
252.0808139535
  0
LINE
  8
0
 62
7
  6
CONTINUOUS
 10
60.9001548559
 20
254.3308139535
 11
70.1172870046
 21
254.3308139535
  0
POLYLINE
  8
1_AXIS
 62
7
  6
CONTINUOUS
 66
1
 70
0
  0
VERTEX
  8
1_AXIS
 62
7
  6
CONTINUOUS
 10
60.9110259235
 20
252.0581513121
  0
VERTEX
  8
1_AXIS
 62
7
  6
CONTINUOUS
 10
60.8471998074
 20
252.0605289678
  0
VERTEX
  8
1_AXIS
 62
7
  6
CONTINUOUS
 10
60.7837209302
 20
252.0677070569
  0
SEQEND
  0
POLYLINE
  8
0
 62
7
  6
CONTINUOUS
 66
1
 70
0
  0
VERTEX
  8
0
 62
7
  6
CONTINUOUS
 10
70.1172870046
 20
254.3308139535
  0
VERTEX
  8
0
 62
7
  6
CONTINUOUS
 10
70.2268551443
 20
254.3237237469
  0
VERTEX
  8
0
 62
7
  6
CONTINUOUS
 10
70.335885613
 20
254.3022291929
  0
VERTEX
  8
0
 62
7
  6
CONTINUOUS
 10
70.4418133186
 20
254.2664354074
  0
VERTEX
  8
0
 62
7
  6
CONTINUOUS
 10
70.5421584393
 20
254.2170311752
  0
VERTEX
  8
0
 62
7
  6
CONTINUOUS
 10
70.6348178654
 20
254.1551347942
  0
VERTEX
  8
0
 62
7
  6
CONTINUOUS
 10
70.7183939133
 20
254.0818410781
  0
VERTEX
  8
0
 62
7
  6
CONTINUOUS
 10
70.7916778766
 20
253.9982851128
  0
VERTEX
  8
0
 62
7
  6
CONTINUOUS
 10
70.853549516
 20
253.9056812385
  0
VERTEX
  8
0
 62
7
  6
CONTINUOUS
 10
70.9029391825
 20
253.8054036662
  0
VERTEX
  8
0
 62
7
  6
CONTINUOUS
 10
70.9387664253
 20
253.699421926
  0
VERTEX
  8
0
 62
7
  6
CONTINUOUS
 10
70.9602473778
 20
253.5905497237
  0
VERTEX
  8
0
 62
7
  6
CONTINUOUS
 10
70.9673612567
 20
253.4808139535
  0
SEQEND
  0
POLYLINE
  8
0
 62
7
  6
CONTINUOUS
 66
1
 70
0
  0
VERTEX
  8
0
 62
7
  6
CONTINUOUS
 10
70.1171160337
 20
254.3284233211
  0
VERTEX
  8
0
 62
7
  6
CONTINUOUS
 10
70.2046579551
 20
254.3221625856
  0
VERTEX
  8
0
 62
7
  6
CONTINUOUS
 10
70.3231653387
 20
254.2963844541
  0
VERTEX
  8
0
 62
7
  6
CONTINUOUS
 10
70.4367983584
 20
254.2540040776
  0
VERTEX
  8
0
 62
7
  6
CONTINUOUS
 10
70.5432437993
 20
254.1958839277
  0
VERTEX
  8
0
 62
7
  6
CONTINUOUS
 10
70.6403346798
 20
254.1232068998
  0
VERTEX
  8
0
 62
7
  6
CONTINUOUS
 10
70.7260943714
 20
254.0374522608
  0
VERTEX
  8
0
 62
7
  6
CONTINUOUS
 10
70.798776857
 20
253.9403655537
  0
VERTEX
  8
0
 62
7
  6
CONTINUOUS
 10
70.8569022979
 20
253.8339230721
  0
VERTEX
  8
0
 62
7
  6
CONTINUOUS
 10
70.8992871784
 20
253.7202916272
  0
VERTEX
  8
0
 62
7
  6
CONTINUOUS
 10
70.9250684156
 20
253.6017844229
  0
VERTEX
  8
0
 62
7
  6
CONTINUOUS
 10
70.9337209302
 20
253.4808139535
  0
SEQEND
  0
LINE
  8
1_AXIS
 62
7
  6
CONTINUOUS
 10
60.6557240937
 20
254.2915498745
 11
60.7837209302
 21
254.321221664
  0
POLYLINE
  8
0
 62
7
  6
CONTINUOUS
 66
1
 70
0
  0
VERTEX
  8
0
 62
7
  6
CONTINUOUS
 10
68.3719208971
 20
255.9061757187
  0
VERTEX
  8
0
 62
7
  6
CONTINUOUS
 10
68.1514316077
 20
255.8644253982
  0
VERTEX
  8
0
 62
7
  6
CONTINUOUS
 10
67.9279705863
 20
255.8392227375
  0
VERTEX
  8
0
 62
7
  6
CONTINUOUS
 10
67.7037209302
 20
255.8308139535
  0
SEQEND
  0
POLYLINE
  8
0
 62
7
  6
CONTINUOUS
 66
1
 70
0
  0
VERTEX
  8
0
 62
7
  6
CONTINUOUS
 10
60.7383834301
 20
254.315280596
  0
VERTEX
  8
0
 62
7
  6
CONTINUOUS
 10
60.7962713928
 20
254.3244430849
  0
VERTEX
  8
0
 62
7
  6
CONTINUOUS
 10
60.8498975308
 20
254.3293271487
  0
VERTEX
  8
0
 62
7
  6
CONTINUOUS
 10
60.9001548559
 20
254.3308139535
  0
SEQEND
  0
LINE
  8
1_AXIS
 62
7
  6
CONTINUOUS
 10
60.7837209302
 20
254.321221664
 11
60.8472306408
 21
254.3284133988
  0
LINE
  8
0
 62
7
  6
CONTINUOUS
 10
80.8837209302
 20
255.4808139535
 11
81.6837209302
 21
255.4808139535
  0
LINE
  8
0
 62
7
  6
CONTINUOUS
 10
69.4358415735
 20
255.8308139535
 11
57.0837209306
 21
255.8308139535
  0
LINE
  8
0
 62
7
  6
CONTINUOUS
 10
75.7216975091
 20
256.1808139535
 11
89.8837209298
 21
256.1808139535
  0
LINE
  8
0
 62
7
  6
CONTINUOUS
 10
66.0837209302
 20
256.5308139535
 11
65.2837209302
 21
256.5308139535
  0
LINE
  8
0
 62
7
  6
CONTINUOUS
 10
89.8837209298
 20
262.1808139535
 11
72.7037209302
 21
262.1808139535
  0
LINE
  8
0
 62
7
  6
CONTINUOUS
 10
141.4523244407
 20
110.1308139535
 11
148.5523244407
 21
110.1308139535
  0
LINE
  8
0
 62
7
  6
CONTINUOUS
 10
148.5523244407
 20
116.1308139535
 11
141.4523244407
 21
116.1308139535
  0
LINE
  8
0
 62
7
  6
CONTINUOUS
 10
144.6023424136
 20
116.8308139535
 11
145.4023064678
 21
116.8308139535
  0
LINE
  8
0
 62
7
  6
CONTINUOUS
 10
148.5523244407
 20
122.8308139535
 11
141.4523244407
 21
122.8308139535
  0
LINE
  8
0
 62
7
  6
CONTINUOUS
 10
141.4523244407
 20
123.5808139535
 11
148.5523244407
 21
123.5808139535
  0
LINE
  8
0
 62
7
  6
CONTINUOUS
 10
148.5523244407
 20
128.8308139535
 11
141.4523244407
 21
128.8308139535
  0
LINE
  8
0
 62
7
  6
CONTINUOUS
 10
144.6023424136
 20
129.5308139535
 11
145.4023064678
 21
129.5308139535
  0
LINE
  8
0
 62
7
  6
CONTINUOUS
 10
141.4523244407
 20
135.5308139535
 11
148.5523244407
 21
135.5308139535
  0
LINE
  8
0
 62
7
  6
CONTINUOUS
 10
148.5523244407
 20
141.5308139535
 11
141.4523244407
 21
141.5308139535
  0
LINE
  8
0
 62
7
  6
CONTINUOUS
 10
141.4523244407
 20
148.2308139535
 11
148.5523244407
 21
148.2308139535
  0
LINE
  8
0
 62
7
  6
CONTINUOUS
 10
148.5523244407
 20
154.2308139535
 11
141.4523244407
 21
154.2308139535
  0
LINE
  8
0
 62
7
  6
CONTINUOUS
 10
141.4523244407
 20
160.9308139535
 11
148.5523244407
 21
160.9308139535
  0
POLYLINE
  8
0
 62
7
  6
CONTINUOUS
 66
1
 70
0
  0
VERTEX
  8
0
 62
7
  6
CONTINUOUS
 10
140.6677454103
 20
251.9448394642
  0
VERTEX
  8
0
 62
7
  6
CONTINUOUS
 10
140.6417291858
 20
251.8143759984
  0
VERTEX
  8
0
 62
7
  6
CONTINUOUS
 10
140.6309374395
 20
251.7589981219
  0
VERTEX
  8
0
 62
7
  6
CONTINUOUS
 10
140.6217249514
 20
251.7087302979
  0
VERTEX
  8
0
 62
7
  6
CONTINUOUS
 10
140.6141045166
 20
251.6621226347
  0
VERTEX
  8
0
 62
7
  6
CONTINUOUS
 10
140.6080268977
 20
251.6164851276
  0
VERTEX
  8
0
 62
7
  6
CONTINUOUS
 10
140.6038337969
 20
251.5695034911
  0
VERTEX
  8
0
 62
7
  6
CONTINUOUS
 10
140.6023277101
 20
251.5229943164
  0
SEQEND
  0
POLYLINE
  8
0
 62
7
  6
CONTINUOUS
 66
1
 70
0
  0
VERTEX
  8
0
 62
7
  6
CONTINUOUS
 10
140.6610092333
 20
238.5851603105
  0
VERTEX
  8
0
 62
7
  6
CONTINUOUS
 10
140.6473663787
 20
238.5301418994
  0
VERTEX
  8
0
 62
7
  6
CONTINUOUS
 10
140.6353309925
 20
238.4786644351
  0
VERTEX
  8
0
 62
7
  6
CONTINUOUS
 10
140.6248143231
 20
238.4290530153
  0
VERTEX
  8
0
 62
7
  6
CONTINUOUS
 10
140.6156433831
 20
238.3782259344
  0
VERTEX
  8
0
 62
7
  6
CONTINUOUS
 10
140.6081959974
 20
238.3238502034
  0
VERTEX
  8
0
 62
7
  6
CONTINUOUS
 10
140.6033472629
 20
238.263540744
  0
VERTEX
  8
0
 62
7
  6
CONTINUOUS
 10
140.6023281312
 20
238.2219013695
  0
SEQEND
  0
LINE
  8
0
 62
7
  6
CONTINUOUS
 10
140.7120193418
 20
238.7851816969
 11
140.6610092333
 21
238.5851603105
  0
LINE
  8
0
 62
7
  6
CONTINUOUS
 10
148.5523244407
 20
166.9308139535
 11
141.4523244407
 21
166.9308139535
  0
POLYLINE
  8
0
 62
7
  6
CONTINUOUS
 66
1
 70
0
  0
VERTEX
  8
0
 62
7
  6
CONTINUOUS
 10
140.659755661
 20
140.0814335583
  0
VERTEX
  8
0
 62
7
  6
CONTINUOUS
 10
140.7106654991
 20
139.8818579954
  0
VERTEX
  8
0
 62
7
  6
CONTINUOUS
 10
140.7305961615
 20
139.8006310056
  0
VERTEX
  8
0
 62
7
  6
CONTINUOUS
 10
140.7515018556
 20
139.7106346089
  0
VERTEX
  8
0
 62
7
  6
CONTINUOUS
 10
140.7728267595
 20
139.6112138169
  0
VERTEX
  8
0
 62
7
  6
CONTINUOUS
 10
140.7938095793
 20
139.5018225468
  0
VERTEX
  8
0
 62
7
  6
CONTINUOUS
 10
140.8134713733
 20
139.3820681291
  0
VERTEX
  8
0
 62
7
  6
CONTINUOUS
 10
140.8306049635
 20
139.2518461096
  0
VERTEX
  8
0
 62
7
  6
CONTINUOUS
 10
140.8437766459
 20
139.1119585106
  0
VERTEX
  8
0
 62
7
  6
CONTINUOUS
 10
140.8515540615
 20
138.9639788981
  0
VERTEX
  8
0
 62
7
  6
CONTINUOUS
 10
140.8531466414
 20
138.8605676202
  0
SEQEND
  0
POLYLINE
  8
0
 62
7
  6
CONTINUOUS
 66
1
 70
0
  0
VERTEX
  8
0
 62
7
  6
CONTINUOUS
 10
140.6367996405
 20
127.5888203005
  0
VERTEX
  8
0
 62
7
  6
CONTINUOUS
 10
140.6737528251
 20
127.4029658079
  0
VERTEX
  8
0
 62
7
  6
CONTINUOUS
 10
140.6881739338
 20
127.3272403811
  0
VERTEX
  8
0
 62
7
  6
CONTINUOUS
 10
140.7031681945
 20
127.2436221667
  0
VERTEX
  8
0
 62
7
  6
CONTINUOUS
 10
140.7182845625
 20
127.151680158
  0
VERTEX
  8
0
 62
7
  6
CONTINUOUS
 10
140.7329423415
 20
127.0511388642
  0
VERTEX
  8
0
 62
7
  6
CONTINUOUS
 10
140.7464449709
 20
126.9418791027
  0
VERTEX
  8
0
 62
7
  6
CONTINUOUS
 10
140.7579799991
 20
126.8240885231
  0
VERTEX
  8
0
 62
7
  6
CONTINUOUS
 10
140.7666614811
 20
126.6984624918
  0
VERTEX
  8
0
 62
7
  6
CONTINUOUS
 10
140.7716380689
 20
126.566169008
  0
VERTEX
  8
0
 62
7
  6
CONTINUOUS
 10
140.7725464178
 20
126.4808139535
  0
SEQEND
  0
POLYLINE
  8
0
 62
7
  6
CONTINUOUS
 66
1
 70
0
  0
VERTEX
  8
0
 62
7
  6
CONTINUOUS
 10
140.6610092333
 20
225.8851603105
  0
VERTEX
  8
0
 62
7
  6
CONTINUOUS
 10
140.6473663787
 20
225.8301418994
  0
VERTEX
  8
0
 62
7
  6
CONTINUOUS
 10
140.6353309925
 20
225.7786644351
  0
VERTEX
  8
0
 62
7
  6
CONTINUOUS
 10
140.6248143231
 20
225.7290530153
  0
VERTEX
  8
0
 62
7
  6
CONTINUOUS
 10
140.6156433831
 20
225.6782259344
  0
VERTEX
  8
0
 62
7
  6
CONTINUOUS
 10
140.6081959974
 20
225.6238502034
  0
VERTEX
  8
0
 62
7
  6
CONTINUOUS
 10
140.6033472629
 20
225.563540744
  0
VERTEX
  8
0
 62
7
  6
CONTINUOUS
 10
140.6023281312
 20
225.5219013695
  0
SEQEND
  0
POLYLINE
  8
0
 62
7
  6
CONTINUOUS
 66
1
 70
0
  0
VERTEX
  8
0
 62
7
  6
CONTINUOUS
 10
140.6610092333
 20
213.1851603105
  0
VERTEX
  8
0
 62
7
  6
CONTINUOUS
 10
140.6473663787
 20
213.1301418994
  0
VERTEX
  8
0
 62
7
  6
CONTINUOUS
 10
140.6353309925
 20
213.0786644351
  0
VERTEX
  8
0
 62
7
  6
CONTINUOUS
 10
140.6248143231
 20
213.0290530153
  0
VERTEX
  8
0
 62
7
  6
CONTINUOUS
 10
140.6156433831
 20
212.9782259344
  0
VERTEX
  8
0
 62
7
  6
CONTINUOUS
 10
140.6081959974
 20
212.9238502034
  0
VERTEX
  8
0
 62
7
  6
CONTINUOUS
 10
140.6033472629
 20
212.863540744
  0
VERTEX
  8
0
 62
7
  6
CONTINUOUS
 10
140.6023281312
 20
212.8219013695
  0
SEQEND
  0
LINE
  8
0
 62
7
  6
CONTINUOUS
 10
140.7120193418
 20
226.0851816969
 11
140.6610092333
 21
225.8851603105
  0
LINE
  8
0
 62
7
  6
CONTINUOUS
 10
140.7120193418
 20
213.3851816969
 11
140.6610092333
 21
213.1851603105
  0
LINE
  8
0
 62
7
  6
CONTINUOUS
 10
141.4523244407
 20
173.6308139535
 11
148.5523244407
 21
173.6308139535
  0
POLYLINE
  8
0
 62
7
  6
CONTINUOUS
 66
1
 70
0
  0
VERTEX
  8
0
 62
7
  6
CONTINUOUS
 10
140.659755661
 20
152.7814335583
  0
VERTEX
  8
0
 62
7
  6
CONTINUOUS
 10
140.7106654991
 20
152.5818579954
  0
VERTEX
  8
0
 62
7
  6
CONTINUOUS
 10
140.7305961615
 20
152.5006310056
  0
VERTEX
  8
0
 62
7
  6
CONTINUOUS
 10
140.7515018556
 20
152.4106346089
  0
VERTEX
  8
0
 62
7
  6
CONTINUOUS
 10
140.7728267595
 20
152.3112138169
  0
VERTEX
  8
0
 62
7
  6
CONTINUOUS
 10
140.7938095793
 20
152.2018225468
  0
VERTEX
  8
0
 62
7
  6
CONTINUOUS
 10
140.8134713733
 20
152.0820681291
  0
VERTEX
  8
0
 62
7
  6
CONTINUOUS
 10
140.8306049635
 20
151.9518461096
  0
VERTEX
  8
0
 62
7
  6
CONTINUOUS
 10
140.8437766459
 20
151.8119585106
  0
VERTEX
  8
0
 62
7
  6
CONTINUOUS
 10
140.8515540615
 20
151.6639788981
  0
VERTEX
  8
0
 62
7
  6
CONTINUOUS
 10
140.8531466414
 20
151.5605676202
  0
SEQEND
  0
POLYLINE
  8
0
 62
7
  6
CONTINUOUS
 66
1
 70
0
  0
VERTEX
  8
0
 62
7
  6
CONTINUOUS
 10
140.6023275138
 20
127.8550701157
  0
VERTEX
  8
0
 62
7
  6
CONTINUOUS
 10
140.6032605259
 20
127.8186552693
  0
VERTEX
  8
0
 62
7
  6
CONTINUOUS
 10
140.6067767324
 20
127.7730716737
  0
VERTEX
  8
0
 62
7
  6
CONTINUOUS
 10
140.6121363657
 20
127.7293967524
  0
VERTEX
  8
0
 62
7
  6
CONTINUOUS
 10
140.6189371126
 20
127.6856032613
  0
VERTEX
  8
0
 62
7
  6
CONTINUOUS
 10
140.6271520289
 20
127.6392591538
  0
VERTEX
  8
0
 62
7
  6
CONTINUOUS
 10
140.6367996405
 20
127.5888203005
  0
SEQEND
  0
POLYLINE
  8
0
 62
7
  6
CONTINUOUS
 66
1
 70
0
  0
VERTEX
  8
0
 62
7
  6
CONTINUOUS
 10
140.6023275271
 20
140.4397754098
  0
VERTEX
  8
0
 62
7
  6
CONTINUOUS
 10
140.6029782134
 20
140.406581284
  0
VERTEX
  8
0
 62
7
  6
CONTINUOUS
 10
140.607421981
 20
140.3449204844
  0
VERTEX
  8
0
 62
7
  6
CONTINUOUS
 10
140.6146877583
 20
140.2894222733
  0
VERTEX
  8
0
 62
7
  6
CONTINUOUS
 10
140.6237548967
 20
140.237971909
  0
VERTEX
  8
0
 62
7
  6
CONTINUOUS
 10
140.6342086666
 20
140.1879863199
  0
VERTEX
  8
0
 62
7
  6
CONTINUOUS
 10
140.6461904956
 20
140.136361616
  0
VERTEX
  8
0
 62
7
  6
CONTINUOUS
 10
140.659755661
 20
140.0814335583
  0
SEQEND
  0
POLYLINE
  8
0
 62
7
  6
CONTINUOUS
 66
1
 70
0
  0
VERTEX
  8
0
 62
7
  6
CONTINUOUS
 10
140.6023275271
 20
153.1397754098
  0
VERTEX
  8
0
 62
7
  6
CONTINUOUS
 10
140.6029782134
 20
153.106581284
  0
VERTEX
  8
0
 62
7
  6
CONTINUOUS
 10
140.607421981
 20
153.0449204844
  0
VERTEX
  8
0
 62
7
  6
CONTINUOUS
 10
140.6146877583
 20
152.9894222733
  0
VERTEX
  8
0
 62
7
  6
CONTINUOUS
 10
140.6237548967
 20
152.937971909
  0
VERTEX
  8
0
 62
7
  6
CONTINUOUS
 10
140.6342086666
 20
152.8879863199
  0
VERTEX
  8
0
 62
7
  6
CONTINUOUS
 10
140.6461904956
 20
152.836361616
  0
VERTEX
  8
0
 62
7
  6
CONTINUOUS
 10
140.659755661
 20
152.7814335583
  0
SEQEND
  0
POLYLINE
  8
0
 62
7
  6
CONTINUOUS
 66
1
 70
0
  0
VERTEX
  8
0
 62
7
  6
CONTINUOUS
 10
140.6023275271
 20
165.8397754098
  0
VERTEX
  8
0
 62
7
  6
CONTINUOUS
 10
140.6029782134
 20
165.806581284
  0
VERTEX
  8
0
 62
7
  6
CONTINUOUS
 10
140.607421981
 20
165.7449204844
  0
VERTEX
  8
0
 62
7
  6
CONTINUOUS
 10
140.6146877583
 20
165.6894222733
  0
VERTEX
  8
0
 62
7
  6
CONTINUOUS
 10
140.6237548967
 20
165.637971909
  0
VERTEX
  8
0
 62
7
  6
CONTINUOUS
 10
140.6342086666
 20
165.5879863199
  0
VERTEX
  8
0
 62
7
  6
CONTINUOUS
 10
140.6461904956
 20
165.536361616
  0
VERTEX
  8
0
 62
7
  6
CONTINUOUS
 10
140.659755661
 20
165.4814335583
  0
SEQEND
  0
POLYLINE
  8
0
 62
7
  6
CONTINUOUS
 66
1
 70
0
  0
VERTEX
  8
0
 62
7
  6
CONTINUOUS
 10
140.7725464576
 20
252.898626821
  0
VERTEX
  8
0
 62
7
  6
CONTINUOUS
 10
140.7715798786
 20
252.8105604887
  0
VERTEX
  8
0
 62
7
  6
CONTINUOUS
 10
140.7661487534
 20
252.6715890871
  0
VERTEX
  8
0
 62
7
  6
CONTINUOUS
 10
140.756682395
 20
252.5400914677
  0
VERTEX
  8
0
 62
7
  6
CONTINUOUS
 10
140.7441836267
 20
252.4173815687
  0
VERTEX
  8
0
 62
7
  6
CONTINUOUS
 10
140.7296750458
 20
252.3041802485
  0
VERTEX
  8
0
 62
7
  6
CONTINUOUS
 10
140.714075426
 20
252.2006059767
  0
VERTEX
  8
0
 62
7
  6
CONTINUOUS
 10
140.6981595749
 20
252.1064625649
  0
VERTEX
  8
0
 62
7
  6
CONTINUOUS
 10
140.6825573302
 20
252.0213923357
  0
VERTEX
  8
0
 62
7
  6
CONTINUOUS
 10
140.6677454103
 20
251.9448394642
  0
SEQEND
  0
POLYLINE
  8
0
 62
7
  6
CONTINUOUS
 66
1
 70
0
  0
VERTEX
  8
0
 62
7
  6
CONTINUOUS
 10
140.8531475401
 20
239.8010603593
  0
VERTEX
  8
0
 62
7
  6
CONTINUOUS
 10
140.8517044247
 20
239.7026851928
  0
VERTEX
  8
0
 62
7
  6
CONTINUOUS
 10
140.8441737651
 20
239.5550943367
  0
VERTEX
  8
0
 62
7
  6
CONTINUOUS
 10
140.831248998
 20
239.4154745008
  0
VERTEX
  8
0
 62
7
  6
CONTINUOUS
 10
140.8143358758
 20
239.2853904625
  0
VERTEX
  8
0
 62
7
  6
CONTINUOUS
 10
140.7948552808
 20
239.1656760218
  0
VERTEX
  8
0
 62
7
  6
CONTINUOUS
 10
140.7740176202
 20
239.0562663133
  0
VERTEX
  8
0
 62
7
  6
CONTINUOUS
 10
140.752783569
 20
238.9567180616
  0
VERTEX
  8
0
 62
7
  6
CONTINUOUS
 10
140.7319344183
 20
238.8665937058
  0
VERTEX
  8
0
 62
7
  6
CONTINUOUS
 10
140.7120193418
 20
238.7851816969
  0
SEQEND
  0
POLYLINE
  8
0
 62
7
  6
CONTINUOUS
 66
1
 70
0
  0
VERTEX
  8
0
 62
7
  6
CONTINUOUS
 10
140.8531475401
 20
227.1010603593
  0
VERTEX
  8
0
 62
7
  6
CONTINUOUS
 10
140.8517044247
 20
227.0026851928
  0
VERTEX
  8
0
 62
7
  6
CONTINUOUS
 10
140.8441737651
 20
226.8550943367
  0
VERTEX
  8
0
 62
7
  6
CONTINUOUS
 10
140.831248998
 20
226.7154745008
  0
VERTEX
  8
0
 62
7
  6
CONTINUOUS
 10
140.8143358758
 20
226.5853904625
  0
VERTEX
  8
0
 62
7
  6
CONTINUOUS
 10
140.7948552808
 20
226.4656760218
  0
VERTEX
  8
0
 62
7
  6
CONTINUOUS
 10
140.7740176202
 20
226.3562663133
  0
VERTEX
  8
0
 62
7
  6
CONTINUOUS
 10
140.752783569
 20
226.2567180616
  0
VERTEX
  8
0
 62
7
  6
CONTINUOUS
 10
140.7319344183
 20
226.1665937058
  0
VERTEX
  8
0
 62
7
  6
CONTINUOUS
 10
140.7120193418
 20
226.0851816969
  0
SEQEND
  0
POLYLINE
  8
0
 62
7
  6
CONTINUOUS
 66
1
 70
0
  0
VERTEX
  8
0
 62
7
  6
CONTINUOUS
 10
149.3369229032
 20
254.4336904747
  0
VERTEX
  8
0
 62
7
  6
CONTINUOUS
 10
149.3629369339
 20
254.5639218924
  0
VERTEX
  8
0
 62
7
  6
CONTINUOUS
 10
149.3737269011
 20
254.619213776
  0
VERTEX
  8
0
 62
7
  6
CONTINUOUS
 10
149.3829388843
 20
254.6694219075
  0
VERTEX
  8
0
 62
7
  6
CONTINUOUS
 10
149.3905607339
 20
254.7160106672
  0
VERTEX
  8
0
 62
7
  6
CONTINUOUS
 10
149.3966367976
 20
254.761644051
  0
VERTEX
  8
0
 62
7
  6
CONTINUOUS
 10
149.4008259421
 20
254.8086500199
  0
VERTEX
  8
0
 62
7
  6
CONTINUOUS
 10
149.4023217176
 20
254.8550145708
  0
SEQEND
  0
POLYLINE
  8
0
 62
7
  6
CONTINUOUS
 66
1
 70
0
  0
VERTEX
  8
0
 62
7
  6
CONTINUOUS
 10
140.6610092333
 20
200.4851603105
  0
VERTEX
  8
0
 62
7
  6
CONTINUOUS
 10
140.6473663787
 20
200.4301418994
  0
VERTEX
  8
0
 62
7
  6
CONTINUOUS
 10
140.6353309925
 20
200.3786644351
  0
VERTEX
  8
0
 62
7
  6
CONTINUOUS
 10
140.6248143231
 20
200.3290530153
  0
VERTEX
  8
0
 62
7
  6
CONTINUOUS
 10
140.6156433831
 20
200.2782259344
  0
VERTEX
  8
0
 62
7
  6
CONTINUOUS
 10
140.6081959974
 20
200.2238502034
  0
VERTEX
  8
0
 62
7
  6
CONTINUOUS
 10
140.6033472629
 20
200.163540744
  0
VERTEX
  8
0
 62
7
  6
CONTINUOUS
 10
140.6023281312
 20
200.1219013695
  0
SEQEND
  0
POLYLINE
  8
0
 62
7
  6
CONTINUOUS
 66
1
 70
0
  0
VERTEX
  8
0
 62
7
  6
CONTINUOUS
 10
149.3016186393
 20
241.5121729077
  0
VERTEX
  8
0
 62
7
  6
CONTINUOUS
 10
149.3373917361
 20
241.6518530906
  0
VERTEX
  8
0
 62
7
  6
CONTINUOUS
 10
149.3524546332
 20
241.7117440301
  0
VERTEX
  8
0
 62
7
  6
CONTINUOUS
 10
149.3656914329
 20
241.7670133609
  0
VERTEX
  8
0
 62
7
  6
CONTINUOUS
 10
149.3772103832
 20
241.8195892442
  0
VERTEX
  8
0
 62
7
  6
CONTINUOUS
 10
149.3871828344
 20
241.8723862482
  0
VERTEX
  8
0
 62
7
  6
CONTINUOUS
 10
149.395421902
 20
241.9288572567
  0
VERTEX
  8
0
 62
7
  6
CONTINUOUS
 10
149.4009634056
 20
241.9915042223
  0
VERTEX
  8
0
 62
7
  6
CONTINUOUS
 10
149.4023218067
 20
242.0401869622
  0
SEQEND
  0
POLYLINE
  8
0
 62
7
  6
CONTINUOUS
 66
1
 70
0
  0
VERTEX
  8
0
 62
7
  6
CONTINUOUS
 10
149.3016186393
 20
228.8121729077
  0
VERTEX
  8
0
 62
7
  6
CONTINUOUS
 10
149.3373917361
 20
228.9518530906
  0
VERTEX
  8
0
 62
7
  6
CONTINUOUS
 10
149.3524546332
 20
229.0117440301
  0
VERTEX
  8
0
 62
7
  6
CONTINUOUS
 10
149.3656914329
 20
229.0670133609
  0
VERTEX
  8
0
 62
7
  6
CONTINUOUS
 10
149.3772103832
 20
229.1195892442
  0
VERTEX
  8
0
 62
7
  6
CONTINUOUS
 10
149.3871828344
 20
229.1723862482
  0
VERTEX
  8
0
 62
7
  6
CONTINUOUS
 10
149.395421902
 20
229.2288572567
  0
VERTEX
  8
0
 62
7
  6
CONTINUOUS
 10
149.4009634056
 20
229.2915042223
  0
VERTEX
  8
0
 62
7
  6
CONTINUOUS
 10
149.4023218067
 20
229.3401869622
  0
SEQEND
  0
LINE
  8
0
 62
7
  6
CONTINUOUS
 10
140.7120193418
 20
200.6851816969
 11
140.6610092333
 21
200.4851603105
  0
LINE
  8
0
 62
7
  6
CONTINUOUS
 10
148.5523244407
 20
179.6308139535
 11
141.4523244407
 21
179.6308139535
  0
POLYLINE
  8
0
 62
7
  6
CONTINUOUS
 66
1
 70
0
  0
VERTEX
  8
0
 62
7
  6
CONTINUOUS
 10
140.659755661
 20
165.4814335583
  0
VERTEX
  8
0
 62
7
  6
CONTINUOUS
 10
140.7106654991
 20
165.2818579954
  0
VERTEX
  8
0
 62
7
  6
CONTINUOUS
 10
140.7305961615
 20
165.2006310056
  0
VERTEX
  8
0
 62
7
  6
CONTINUOUS
 10
140.7515018556
 20
165.1106346089
  0
VERTEX
  8
0
 62
7
  6
CONTINUOUS
 10
140.7728267595
 20
165.0112138169
  0
VERTEX
  8
0
 62
7
  6
CONTINUOUS
 10
140.7938095793
 20
164.9018225468
  0
VERTEX
  8
0
 62
7
  6
CONTINUOUS
 10
140.8134713733
 20
164.7820681291
  0
VERTEX
  8
0
 62
7
  6
CONTINUOUS
 10
140.8306049635
 20
164.6518461096
  0
VERTEX
  8
0
 62
7
  6
CONTINUOUS
 10
140.8437766459
 20
164.5119585106
  0
VERTEX
  8
0
 62
7
  6
CONTINUOUS
 10
140.8515540615
 20
164.3639788981
  0
VERTEX
  8
0
 62
7
  6
CONTINUOUS
 10
140.8531466414
 20
164.2605676202
  0
SEQEND
  0
POLYLINE
  8
0
 62
7
  6
CONTINUOUS
 66
1
 70
0
  0
VERTEX
  8
0
 62
7
  6
CONTINUOUS
 10
149.3448978669
 20
136.9801726415
  0
VERTEX
  8
0
 62
7
  6
CONTINUOUS
 10
149.2940020959
 20
137.1796925343
  0
VERTEX
  8
0
 62
7
  6
CONTINUOUS
 10
149.2740704379
 20
137.2609281767
  0
VERTEX
  8
0
 62
7
  6
CONTINUOUS
 10
149.2531643628
 20
137.3509127637
  0
VERTEX
  8
0
 62
7
  6
CONTINUOUS
 10
149.2318322783
 20
137.450366028
  0
VERTEX
  8
0
 62
7
  6
CONTINUOUS
 10
149.2108522702
 20
137.559739507
  0
VERTEX
  8
0
 62
7
  6
CONTINUOUS
 10
149.191186799
 20
137.6794933317
  0
VERTEX
  8
0
 62
7
  6
CONTINUOUS
 10
149.174050875
 20
137.8097183953
  0
VERTEX
  8
0
 62
7
  6
CONTINUOUS
 10
149.1608780749
 20
137.9496038686
  0
VERTEX
  8
0
 62
7
  6
CONTINUOUS
 10
149.1530970693
 20
138.0975999736
  0
VERTEX
  8
0
 62
7
  6
CONTINUOUS
 10
149.1515013596
 20
138.2010602868
  0
SEQEND
  0
POLYLINE
  8
0
 62
7
  6
CONTINUOUS
 66
1
 70
0
  0
VERTEX
  8
0
 62
7
  6
CONTINUOUS
 10
140.659755661
 20
178.1814335583
  0
VERTEX
  8
0
 62
7
  6
CONTINUOUS
 10
140.7106654991
 20
177.9818579954
  0
VERTEX
  8
0
 62
7
  6
CONTINUOUS
 10
140.7305961615
 20
177.9006310056
  0
VERTEX
  8
0
 62
7
  6
CONTINUOUS
 10
140.7515018556
 20
177.8106346089
  0
VERTEX
  8
0
 62
7
  6
CONTINUOUS
 10
140.7728267595
 20
177.7112138169
  0
VERTEX
  8
0
 62
7
  6
CONTINUOUS
 10
140.7938095793
 20
177.6018225468
  0
VERTEX
  8
0
 62
7
  6
CONTINUOUS
 10
140.8134713733
 20
177.4820681291
  0
VERTEX
  8
0
 62
7
  6
CONTINUOUS
 10
140.8306049635
 20
177.3518461096
  0
VERTEX
  8
0
 62
7
  6
CONTINUOUS
 10
140.8437766459
 20
177.2119585106
  0
VERTEX
  8
0
 62
7
  6
CONTINUOUS
 10
140.8515540615
 20
177.0639788981
  0
VERTEX
  8
0
 62
7
  6
CONTINUOUS
 10
140.8531466414
 20
176.9605676202
  0
SEQEND
  0
POLYLINE
  8
0
 62
7
  6
CONTINUOUS
 66
1
 70
0
  0
VERTEX
  8
0
 62
7
  6
CONTINUOUS
 10
149.3448978669
 20
149.6801726415
  0
VERTEX
  8
0
 62
7
  6
CONTINUOUS
 10
149.2940020959
 20
149.8796925343
  0
VERTEX
  8
0
 62
7
  6
CONTINUOUS
 10
149.2740704379
 20
149.9609281767
  0
VERTEX
  8
0
 62
7
  6
CONTINUOUS
 10
149.2531643628
 20
150.0509127637
  0
VERTEX
  8
0
 62
7
  6
CONTINUOUS
 10
149.2318322783
 20
150.150366028
  0
VERTEX
  8
0
 62
7
  6
CONTINUOUS
 10
149.2108522702
 20
150.259739507
  0
VERTEX
  8
0
 62
7
  6
CONTINUOUS
 10
149.191186799
 20
150.3794933317
  0
VERTEX
  8
0
 62
7
  6
CONTINUOUS
 10
149.174050875
 20
150.5097183953
  0
VERTEX
  8
0
 62
7
  6
CONTINUOUS
 10
149.1608780749
 20
150.6496038686
  0
VERTEX
  8
0
 62
7
  6
CONTINUOUS
 10
149.1530970693
 20
150.7975999736
  0
VERTEX
  8
0
 62
7
  6
CONTINUOUS
 10
149.1515013596
 20
150.9010602868
  0
SEQEND
  0
POLYLINE
  8
0
 62
7
  6
CONTINUOUS
 66
1
 70
0
  0
VERTEX
  8
0
 62
7
  6
CONTINUOUS
 10
149.367837061
 20
124.7894156189
  0
VERTEX
  8
0
 62
7
  6
CONTINUOUS
 10
149.3308820877
 20
124.9755911447
  0
VERTEX
  8
0
 62
7
  6
CONTINUOUS
 10
149.3164625306
 20
125.0514433063
  0
VERTEX
  8
0
 62
7
  6
CONTINUOUS
 10
149.301472347
 20
125.1351810716
  0
VERTEX
  8
0
 62
7
  6
CONTINUOUS
 10
149.2863613907
 20
125.2272373582
  0
VERTEX
  8
0
 62
7
  6
CONTINUOUS
 10
149.2717104619
 20
125.327872265
  0
VERTEX
  8
0
 62
7
  6
CONTINUOUS
 10
149.2582126469
 20
125.4372128418
  0
VERTEX
  8
0
 62
7
  6
CONTINUOUS
 10
149.2466794803
 20
125.5550737812
  0
VERTEX
  8
0
 62
7
  6
CONTINUOUS
 10
149.2379956058
 20
125.6807599049
  0
VERTEX
  8
0
 62
7
  6
CONTINUOUS
 10
149.233014219
 20
125.8130971485
  0
VERTEX
  8
0
 62
7
  6
CONTINUOUS
 10
149.2321024371
 20
125.8986267585
  0
SEQEND
  0
POLYLINE
  8
0
 62
7
  6
CONTINUOUS
 66
1
 70
0
  0
VERTEX
  8
0
 62
7
  6
CONTINUOUS
 10
140.6023275138
 20
254.8550701157
  0
VERTEX
  8
0
 62
7
  6
CONTINUOUS
 10
140.6032605259
 20
254.8186552693
  0
VERTEX
  8
0
 62
7
  6
CONTINUOUS
 10
140.6067767324
 20
254.7730716737
  0
VERTEX
  8
0
 62
7
  6
CONTINUOUS
 10
140.6121363657
 20
254.7293967524
  0
VERTEX
  8
0
 62
7
  6
CONTINUOUS
 10
140.6189371126
 20
254.6856032613
  0
VERTEX
  8
0
 62
7
  6
CONTINUOUS
 10
140.6271520289
 20
254.6392591538
  0
VERTEX
  8
0
 62
7
  6
CONTINUOUS
 10
140.6367996405
 20
254.5888203005
  0
SEQEND
  0
POLYLINE
  8
0
 62
7
  6
CONTINUOUS
 66
1
 70
0
  0
VERTEX
  8
0
 62
7
  6
CONTINUOUS
 10
140.6023275271
 20
178.5397754098
  0
VERTEX
  8
0
 62
7
  6
CONTINUOUS
 10
140.6029782134
 20
178.506581284
  0
VERTEX
  8
0
 62
7
  6
CONTINUOUS
 10
140.607421981
 20
178.4449204844
  0
VERTEX
  8
0
 62
7
  6
CONTINUOUS
 10
140.6146877583
 20
178.3894222733
  0
VERTEX
  8
0
 62
7
  6
CONTINUOUS
 10
140.6237548967
 20
178.337971909
  0
VERTEX
  8
0
 62
7
  6
CONTINUOUS
 10
140.6342086666
 20
178.2879863199
  0
VERTEX
  8
0
 62
7
  6
CONTINUOUS
 10
140.6461904956
 20
178.236361616
  0
VERTEX
  8
0
 62
7
  6
CONTINUOUS
 10
140.659755661
 20
178.1814335583
  0
SEQEND
  0
POLYLINE
  8
0
 62
7
  6
CONTINUOUS
 66
1
 70
0
  0
VERTEX
  8
0
 62
7
  6
CONTINUOUS
 10
140.6023275271
 20
191.2397754098
  0
VERTEX
  8
0
 62
7
  6
CONTINUOUS
 10
140.6029782134
 20
191.206581284
  0
VERTEX
  8
0
 62
7
  6
CONTINUOUS
 10
140.607421981
 20
191.1449204844
  0
VERTEX
  8
0
 62
7
  6
CONTINUOUS
 10
140.6146877583
 20
191.0894222733
  0
VERTEX
  8
0
 62
7
  6
CONTINUOUS
 10
140.6237548967
 20
191.037971909
  0
VERTEX
  8
0
 62
7
  6
CONTINUOUS
 10
140.6342086666
 20
190.9879863199
  0
VERTEX
  8
0
 62
7
  6
CONTINUOUS
 10
140.6461904956
 20
190.936361616
  0
VERTEX
  8
0
 62
7
  6
CONTINUOUS
 10
140.659755661
 20
190.8814335583
  0
SEQEND
  0
POLYLINE
  8
0
 62
7
  6
CONTINUOUS
 66
1
 70
0
  0
VERTEX
  8
0
 62
7
  6
CONTINUOUS
 10
140.6023275271
 20
203.9397754098
  0
VERTEX
  8
0
 62
7
  6
CONTINUOUS
 10
140.6029782134
 20
203.906581284
  0
VERTEX
  8
0
 62
7
  6
CONTINUOUS
 10
140.607421981
 20
203.8449204844
  0
VERTEX
  8
0
 62
7
  6
CONTINUOUS
 10
140.6146877583
 20
203.7894222733
  0
VERTEX
  8
0
 62
7
  6
CONTINUOUS
 10
140.6237548967
 20
203.737971909
  0
VERTEX
  8
0
 62
7
  6
CONTINUOUS
 10
140.6342086666
 20
203.6879863199
  0
VERTEX
  8
0
 62
7
  6
CONTINUOUS
 10
140.6461904956
 20
203.636361616
  0
VERTEX
  8
0
 62
7
  6
CONTINUOUS
 10
140.659755661
 20
203.5814335583
  0
SEQEND
  0
POLYLINE
  8
0
 62
7
  6
CONTINUOUS
 66
1
 70
0
  0
VERTEX
  8
0
 62
7
  6
CONTINUOUS
 10
140.6023275271
 20
216.6397754098
  0
VERTEX
  8
0
 62
7
  6
CONTINUOUS
 10
140.6029782134
 20
216.606581284
  0
VERTEX
  8
0
 62
7
  6
CONTINUOUS
 10
140.607421981
 20
216.5449204844
  0
VERTEX
  8
0
 62
7
  6
CONTINUOUS
 10
140.6146877583
 20
216.4894222733
  0
VERTEX
  8
0
 62
7
  6
CONTINUOUS
 10
140.6237548967
 20
216.437971909
  0
VERTEX
  8
0
 62
7
  6
CONTINUOUS
 10
140.6342086666
 20
216.3879863199
  0
VERTEX
  8
0
 62
7
  6
CONTINUOUS
 10
140.6461904956
 20
216.336361616
  0
VERTEX
  8
0
 62
7
  6
CONTINUOUS
 10
140.659755661
 20
216.2814335583
  0
SEQEND
  0
POLYLINE
  8
0
 62
7
  6
CONTINUOUS
 66
1
 70
0
  0
VERTEX
  8
0
 62
7
  6
CONTINUOUS
 10
140.6023275271
 20
229.3397754098
  0
VERTEX
  8
0
 62
7
  6
CONTINUOUS
 10
140.6029782134
 20
229.306581284
  0
VERTEX
  8
0
 62
7
  6
CONTINUOUS
 10
140.607421981
 20
229.2449204844
  0
VERTEX
  8
0
 62
7
  6
CONTINUOUS
 10
140.6146877583
 20
229.1894222733
  0
VERTEX
  8
0
 62
7
  6
CONTINUOUS
 10
140.6237548967
 20
229.137971909
  0
VERTEX
  8
0
 62
7
  6
CONTINUOUS
 10
140.6342086666
 20
229.0879863199
  0
VERTEX
  8
0
 62
7
  6
CONTINUOUS
 10
140.6461904956
 20
229.036361616
  0
VERTEX
  8
0
 62
7
  6
CONTINUOUS
 10
140.659755661
 20
228.9814335583
  0
SEQEND
  0
POLYLINE
  8
0
 62
7
  6
CONTINUOUS
 66
1
 70
0
  0
VERTEX
  8
0
 62
7
  6
CONTINUOUS
 10
140.6023275271
 20
242.0397754098
  0
VERTEX
  8
0
 62
7
  6
CONTINUOUS
 10
140.6029782134
 20
242.006581284
  0
VERTEX
  8
0
 62
7
  6
CONTINUOUS
 10
140.607421981
 20
241.9449204844
  0
VERTEX
  8
0
 62
7
  6
CONTINUOUS
 10
140.6146877583
 20
241.8894222733
  0
VERTEX
  8
0
 62
7
  6
CONTINUOUS
 10
140.6237548967
 20
241.837971909
  0
VERTEX
  8
0
 62
7
  6
CONTINUOUS
 10
140.6342086666
 20
241.7879863199
  0
VERTEX
  8
0
 62
7
  6
CONTINUOUS
 10
140.6461904956
 20
241.736361616
  0
VERTEX
  8
0
 62
7
  6
CONTINUOUS
 10
140.659755661
 20
241.6814335583
  0
SEQEND
  0
LINE
  8
2_FEATURE
 62
7
  6
CONTINUOUS
 10
140.6023244407
 20
110.9808139535
 11
140.6023244407
 21
115.2808139535
  0
LINE
  8
2_FEATURE
 62
7
  6
CONTINUOUS
 10
140.6023244407
 20
124.4308139535
 11
140.6023244407
 21
124.5227596116
  0
LINE
  8
0
 62
7
  6
CONTINUOUS
 10
140.6023244407
 20
110.9808139535
 11
140.6023244407
 21
124.5227596116
  0
LINE
  8
2_FEATURE
 62
7
  6
CONTINUOUS
 10
140.6023244407
 20
127.8552295999
 11
140.6023244407
 21
127.9808139535
  0
LINE
  8
2_FEATURE
 62
7
  6
CONTINUOUS
 10
140.6023244407
 20
136.3808139535
 11
140.6023244407
 21
136.6215461872
  0
LINE
  8
2_FEATURE
 62
7
  6
CONTINUOUS
 10
140.6023244407
 20
140.4400817198
 11
140.6023244407
 21
140.6808139535
  0
LINE
  8
2_FEATURE
 62
7
  6
CONTINUOUS
 10
140.6023244407
 20
149.0808139535
 11
140.6023244407
 21
149.3215461872
  0
LINE
  8
2_FEATURE
 62
7
  6
CONTINUOUS
 10
140.6023244407
 20
153.1400817198
 11
140.6023244407
 21
153.3808139535
  0
LINE
  8
2_FEATURE
 62
7
  6
CONTINUOUS
 10
140.6023244407
 20
161.7808139535
 11
140.6023244407
 21
162.0215461872
  0
LINE
  8
2_FEATURE
 62
7
  6
CONTINUOUS
 10
140.6023244407
 20
165.8400817198
 11
140.6023244407
 21
166.0808139535
  0
LINE
  8
2_FEATURE
 62
7
  6
CONTINUOUS
 10
140.6023244407
 20
174.4808139535
 11
140.6023244407
 21
174.7215461872
  0
LINE
  8
2_FEATURE
 62
7
  6
CONTINUOUS
 10
140.6023244407
 20
178.5400817198
 11
140.6023244407
 21
178.7808139535
  0
LINE
  8
2_FEATURE
 62
7
  6
CONTINUOUS
 10
140.6023244407
 20
187.1808139535
 11
140.6023244407
 21
187.4215461872
  0
LINE
  8
2_FEATURE
 62
7
  6
CONTINUOUS
 10
140.6023244407
 20
191.2400817198
 11
140.6023244407
 21
191.4808139535
  0
LINE
  8
2_FEATURE
 62
7
  6
CONTINUOUS
 10
140.6023244407
 20
199.8808139535
 11
140.6023244407
 21
200.1215461872
  0
LINE
  8
2_FEATURE
 62
7
  6
CONTINUOUS
 10
140.6023244407
 20
203.9400817198
 11
140.6023244407
 21
204.1808139535
  0
LINE
  8
2_FEATURE
 62
7
  6
CONTINUOUS
 10
140.6023244407
 20
212.5808139535
 11
140.6023244407
 21
212.8215461872
  0
LINE
  8
2_FEATURE
 62
7
  6
CONTINUOUS
 10
140.6023244407
 20
216.6400817198
 11
140.6023244407
 21
216.8808139535
  0
LINE
  8
2_FEATURE
 62
7
  6
CONTINUOUS
 10
140.6023244407
 20
225.2808139535
 11
140.6023244407
 21
225.5215461872
  0
LINE
  8
2_FEATURE
 62
7
  6
CONTINUOUS
 10
140.6023244407
 20
229.3400817198
 11
140.6023244407
 21
229.5808139535
  0
LINE
  8
2_FEATURE
 62
7
  6
CONTINUOUS
 10
140.6023244407
 20
237.9808139535
 11
140.6023244407
 21
238.2215461872
  0
LINE
  8
2_FEATURE
 62
7
  6
CONTINUOUS
 10
140.6023244407
 20
242.0400817198
 11
140.6023244407
 21
242.2808139535
  0
LINE
  8
2_FEATURE
 62
7
  6
CONTINUOUS
 10
140.6023244407
 20
251.4308139535
 11
140.6023244407
 21
251.5227596116
  0
LINE
  8
0
 62
7
  6
CONTINUOUS
 10
140.6023244407
 20
124.5442429719
 11
140.6023244407
 21
251.5227596116
  0
LINE
  8
2_FEATURE
 62
7
  6
CONTINUOUS
 10
140.6023244407
 20
254.8552295999
 11
140.6023244407
 21
254.9808139535
  0
LINE
  8
0
 62
7
  6
CONTINUOUS
 10
140.6023244407
 20
251.5442429719
 11
140.6023244407
 21
261.3308139535
  0
LINE
  8
0
 62
7
  6
CONTINUOUS
 10
140.772545526
 20
253.4808139535
 11
140.772545526
 21
252.89862682
  0
LINE
  8
0
 62
7
  6
CONTINUOUS
 10
140.772545526
 20
126.4808139535
 11
140.772545526
 21
125.89862682
  0
LINE
  8
0
 62
7
  6
CONTINUOUS
 10
140.8531455388
 20
240.4605676203
 11
140.8531455388
 21
239.8010603589
  0
LINE
  8
0
 62
7
  6
CONTINUOUS
 10
140.8531455388
 20
227.7605676203
 11
140.8531455388
 21
227.1010603589
  0
LINE
  8
0
 62
7
  6
CONTINUOUS
 10
140.8531455388
 20
215.0605676203
 11
140.8531455388
 21
214.4010603589
  0
LINE
  8
0
 62
7
  6
CONTINUOUS
 10
140.8531455388
 20
202.3605676203
 11
140.8531455388
 21
201.7010603589
  0
LINE
  8
0
 62
7
  6
CONTINUOUS
 10
140.8531455388
 20
189.6605676203
 11
140.8531455388
 21
189.0010603589
  0
LINE
  8
0
 62
7
  6
CONTINUOUS
 10
140.8531455388
 20
176.9605676203
 11
140.8531455388
 21
176.3010603589
  0
LINE
  8
0
 62
7
  6
CONTINUOUS
 10
140.8531455388
 20
164.2605676203
 11
140.8531455388
 21
163.6010603589
  0
LINE
  8
0
 62
7
  6
CONTINUOUS
 10
140.8531455388
 20
151.5605676203
 11
140.8531455388
 21
150.9010603589
  0
LINE
  8
0
 62
7
  6
CONTINUOUS
 10
140.8531455388
 20
138.8605676203
 11
140.8531455388
 21
138.2010603589
  0
LINE
  8
1_AXIS
 62
2
  6
CENTER
 10
145.0023244407
 20
114.4808139535
 11
145.0023244407
 21
264.1808139535
  0
POLYLINE
  8
0
 62
7
  6
CONTINUOUS
 66
1
 70
0
  0
VERTEX
  8
0
 62
7
  6
CONTINUOUS
 10
140.7725464576
 20
125.898626821
  0
VERTEX
  8
0
 62
7
  6
CONTINUOUS
 10
140.7715798786
 20
125.8105604887
  0
VERTEX
  8
0
 62
7
  6
CONTINUOUS
 10
140.7661487534
 20
125.6715890871
  0
VERTEX
  8
0
 62
7
  6
CONTINUOUS
 10
140.756682395
 20
125.5400914677
  0
VERTEX
  8
0
 62
7
  6
CONTINUOUS
 10
140.7441836267
 20
125.4173815687
  0
VERTEX
  8
0
 62
7
  6
CONTINUOUS
 10
140.7296750458
 20
125.3041802485
  0
VERTEX
  8
0
 62
7
  6
CONTINUOUS
 10
140.714075426
 20
125.2006059767
  0
VERTEX
  8
0
 62
7
  6
CONTINUOUS
 10
140.6981595749
 20
125.1064625649
  0
VERTEX
  8
0
 62
7
  6
CONTINUOUS
 10
140.6825573302
 20
125.0213923357
  0
VERTEX
  8
0
 62
7
  6
CONTINUOUS
 10
140.6677454103
 20
124.9448394642
  0
SEQEND
  0
POLYLINE
  8
0
 62
7
  6
CONTINUOUS
 66
1
 70
0
  0
VERTEX
  8
0
 62
7
  6
CONTINUOUS
 10
140.8531475401
 20
214.4010603593
  0
VERTEX
  8
0
 62
7
  6
CONTINUOUS
 10
140.8517044247
 20
214.3026851928
  0
VERTEX
  8
0
 62
7
  6
CONTINUOUS
 10
140.8441737651
 20
214.1550943367
  0
VERTEX
  8
0
 62
7
  6
CONTINUOUS
 10
140.831248998
 20
214.0154745008
  0
VERTEX
  8
0
 62
7
  6
CONTINUOUS
 10
140.8143358758
 20
213.8853904625
  0
VERTEX
  8
0
 62
7
  6
CONTINUOUS
 10
140.7948552808
 20
213.7656760218
  0
VERTEX
  8
0
 62
7
  6
CONTINUOUS
 10
140.7740176202
 20
213.6562663133
  0
VERTEX
  8
0
 62
7
  6
CONTINUOUS
 10
140.752783569
 20
213.5567180616
  0
VERTEX
  8
0
 62
7
  6
CONTINUOUS
 10
140.7319344183
 20
213.4665937058
  0
VERTEX
  8
0
 62
7
  6
CONTINUOUS
 10
140.7120193418
 20
213.3851816969
  0
SEQEND
  0
POLYLINE
  8
0
 62
7
  6
CONTINUOUS
 66
1
 70
0
  0
VERTEX
  8
0
 62
7
  6
CONTINUOUS
 10
140.8531475401
 20
201.7010603593
  0
VERTEX
  8
0
 62
7
  6
CONTINUOUS
 10
140.8517044247
 20
201.6026851928
  0
VERTEX
  8
0
 62
7
  6
CONTINUOUS
 10
140.8441737651
 20
201.4550943367
  0
VERTEX
  8
0
 62
7
  6
CONTINUOUS
 10
140.831248998
 20
201.3154745008
  0
VERTEX
  8
0
 62
7
  6
CONTINUOUS
 10
140.8143358758
 20
201.1853904625
  0
VERTEX
  8
0
 62
7
  6
CONTINUOUS
 10
140.7948552808
 20
201.0656760218
  0
VERTEX
  8
0
 62
7
  6
CONTINUOUS
 10
140.7740176202
 20
200.9562663133
  0
VERTEX
  8
0
 62
7
  6
CONTINUOUS
 10
140.752783569
 20
200.8567180616
  0
VERTEX
  8
0
 62
7
  6
CONTINUOUS
 10
140.7319344183
 20
200.7665937058
  0
VERTEX
  8
0
 62
7
  6
CONTINUOUS
 10
140.7120193418
 20
200.6851816969
  0
SEQEND
  0
POLYLINE
  8
0
 62
7
  6
CONTINUOUS
 66
1
 70
0
  0
VERTEX
  8
0
 62
7
  6
CONTINUOUS
 10
140.8531475401
 20
189.0010603593
  0
VERTEX
  8
0
 62
7
  6
CONTINUOUS
 10
140.8517044247
 20
188.9026851928
  0
VERTEX
  8
0
 62
7
  6
CONTINUOUS
 10
140.8441737651
 20
188.7550943367
  0
VERTEX
  8
0
 62
7
  6
CONTINUOUS
 10
140.831248998
 20
188.6154745008
  0
VERTEX
  8
0
 62
7
  6
CONTINUOUS
 10
140.8143358758
 20
188.4853904625
  0
VERTEX
  8
0
 62
7
  6
CONTINUOUS
 10
140.7948552808
 20
188.3656760218
  0
VERTEX
  8
0
 62
7
  6
CONTINUOUS
 10
140.7740176202
 20
188.2562663133
  0
VERTEX
  8
0
 62
7
  6
CONTINUOUS
 10
140.752783569
 20
188.1567180616
  0
VERTEX
  8
0
 62
7
  6
CONTINUOUS
 10
140.7319344183
 20
188.0665937058
  0
VERTEX
  8
0
 62
7
  6
CONTINUOUS
 10
140.7120193418
 20
187.9851816969
  0
SEQEND
  0
POLYLINE
  8
0
 62
7
  6
CONTINUOUS
 66
1
 70
0
  0
VERTEX
  8
0
 62
7
  6
CONTINUOUS
 10
140.8531475401
 20
176.3010603593
  0
VERTEX
  8
0
 62
7
  6
CONTINUOUS
 10
140.8517044247
 20
176.2026851928
  0
VERTEX
  8
0
 62
7
  6
CONTINUOUS
 10
140.8441737651
 20
176.0550943367
  0
VERTEX
  8
0
 62
7
  6
CONTINUOUS
 10
140.831248998
 20
175.9154745008
  0
VERTEX
  8
0
 62
7
  6
CONTINUOUS
 10
140.8143358758
 20
175.7853904625
  0
VERTEX
  8
0
 62
7
  6
CONTINUOUS
 10
140.7948552808
 20
175.6656760218
  0
VERTEX
  8
0
 62
7
  6
CONTINUOUS
 10
140.7740176202
 20
175.5562663133
  0
VERTEX
  8
0
 62
7
  6
CONTINUOUS
 10
140.752783569
 20
175.4567180616
  0
VERTEX
  8
0
 62
7
  6
CONTINUOUS
 10
140.7319344183
 20
175.3665937058
  0
VERTEX
  8
0
 62
7
  6
CONTINUOUS
 10
140.7120193418
 20
175.2851816969
  0
SEQEND
  0
POLYLINE
  8
0
 62
7
  6
CONTINUOUS
 66
1
 70
0
  0
VERTEX
  8
0
 62
7
  6
CONTINUOUS
 10
140.8531475401
 20
163.6010603593
  0
VERTEX
  8
0
 62
7
  6
CONTINUOUS
 10
140.8517044247
 20
163.5026851928
  0
VERTEX
  8
0
 62
7
  6
CONTINUOUS
 10
140.8441737651
 20
163.3550943367
  0
VERTEX
  8
0
 62
7
  6
CONTINUOUS
 10
140.831248998
 20
163.2154745008
  0
VERTEX
  8
0
 62
7
  6
CONTINUOUS
 10
140.8143358758
 20
163.0853904625
  0
VERTEX
  8
0
 62
7
  6
CONTINUOUS
 10
140.7948552808
 20
162.9656760218
  0
VERTEX
  8
0
 62
7
  6
CONTINUOUS
 10
140.7740176202
 20
162.8562663133
  0
VERTEX
  8
0
 62
7
  6
CONTINUOUS
 10
140.752783569
 20
162.7567180616
  0
VERTEX
  8
0
 62
7
  6
CONTINUOUS
 10
140.7319344183
 20
162.6665937058
  0
VERTEX
  8
0
 62
7
  6
CONTINUOUS
 10
140.7120193418
 20
162.5851816969
  0
SEQEND
  0
POLYLINE
  8
0
 62
7
  6
CONTINUOUS
 66
1
 70
0
  0
VERTEX
  8
0
 62
7
  6
CONTINUOUS
 10
140.8531475401
 20
150.9010603593
  0
VERTEX
  8
0
 62
7
  6
CONTINUOUS
 10
140.8517044247
 20
150.8026851928
  0
VERTEX
  8
0
 62
7
  6
CONTINUOUS
 10
140.8441737651
 20
150.6550943367
  0
VERTEX
  8
0
 62
7
  6
CONTINUOUS
 10
140.831248998
 20
150.5154745008
  0
VERTEX
  8
0
 62
7
  6
CONTINUOUS
 10
140.8143358758
 20
150.3853904625
  0
VERTEX
  8
0
 62
7
  6
CONTINUOUS
 10
140.7948552808
 20
150.2656760218
  0
VERTEX
  8
0
 62
7
  6
CONTINUOUS
 10
140.7740176202
 20
150.1562663133
  0
VERTEX
  8
0
 62
7
  6
CONTINUOUS
 10
140.752783569
 20
150.0567180616
  0
VERTEX
  8
0
 62
7
  6
CONTINUOUS
 10
140.7319344183
 20
149.9665937058
  0
VERTEX
  8
0
 62
7
  6
CONTINUOUS
 10
140.7120193418
 20
149.8851816969
  0
SEQEND
  0
POLYLINE
  8
0
 62
7
  6
CONTINUOUS
 66
1
 70
0
  0
VERTEX
  8
0
 62
7
  6
CONTINUOUS
 10
140.8531475401
 20
138.2010603593
  0
VERTEX
  8
0
 62
7
  6
CONTINUOUS
 10
140.8517044247
 20
138.1026851928
  0
VERTEX
  8
0
 62
7
  6
CONTINUOUS
 10
140.8441737651
 20
137.9550943367
  0
VERTEX
  8
0
 62
7
  6
CONTINUOUS
 10
140.831248998
 20
137.8154745008
  0
VERTEX
  8
0
 62
7
  6
CONTINUOUS
 10
140.8143358758
 20
137.6853904625
  0
VERTEX
  8
0
 62
7
  6
CONTINUOUS
 10
140.7948552808
 20
137.5656760218
  0
VERTEX
  8
0
 62
7
  6
CONTINUOUS
 10
140.7740176202
 20
137.4562663133
  0
VERTEX
  8
0
 62
7
  6
CONTINUOUS
 10
140.752783569
 20
137.3567180616
  0
VERTEX
  8
0
 62
7
  6
CONTINUOUS
 10
140.7319344183
 20
137.2665937058
  0
VERTEX
  8
0
 62
7
  6
CONTINUOUS
 10
140.7120193418
 20
137.1851816969
  0
SEQEND
  0
POLYLINE
  8
0
 62
7
  6
CONTINUOUS
 66
1
 70
0
  0
VERTEX
  8
0
 62
7
  6
CONTINUOUS
 10
140.6610092333
 20
187.7851603105
  0
VERTEX
  8
0
 62
7
  6
CONTINUOUS
 10
140.6473663787
 20
187.7301418994
  0
VERTEX
  8
0
 62
7
  6
CONTINUOUS
 10
140.6353309925
 20
187.6786644351
  0
VERTEX
  8
0
 62
7
  6
CONTINUOUS
 10
140.6248143231
 20
187.6290530153
  0
VERTEX
  8
0
 62
7
  6
CONTINUOUS
 10
140.6156433831
 20
187.5782259344
  0
VERTEX
  8
0
 62
7
  6
CONTINUOUS
 10
140.6081959974
 20
187.5238502034
  0
VERTEX
  8
0
 62
7
  6
CONTINUOUS
 10
140.6033472629
 20
187.463540744
  0
VERTEX
  8
0
 62
7
  6
CONTINUOUS
 10
140.6023281312
 20
187.4219013695
  0
SEQEND
  0
POLYLINE
  8
0
 62
7
  6
CONTINUOUS
 66
1
 70
0
  0
VERTEX
  8
0
 62
7
  6
CONTINUOUS
 10
140.6610092333
 20
175.0851603105
  0
VERTEX
  8
0
 62
7
  6
CONTINUOUS
 10
140.6473663787
 20
175.0301418994
  0
VERTEX
  8
0
 62
7
  6
CONTINUOUS
 10
140.6353309925
 20
174.9786644351
  0
VERTEX
  8
0
 62
7
  6
CONTINUOUS
 10
140.6248143231
 20
174.9290530153
  0
VERTEX
  8
0
 62
7
  6
CONTINUOUS
 10
140.6156433831
 20
174.8782259344
  0
VERTEX
  8
0
 62
7
  6
CONTINUOUS
 10
140.6081959974
 20
174.8238502034
  0
VERTEX
  8
0
 62
7
  6
CONTINUOUS
 10
140.6033472629
 20
174.763540744
  0
VERTEX
  8
0
 62
7
  6
CONTINUOUS
 10
140.6023281312
 20
174.7219013695
  0
SEQEND
  0
POLYLINE
  8
0
 62
7
  6
CONTINUOUS
 66
1
 70
0
  0
VERTEX
  8
0
 62
7
  6
CONTINUOUS
 10
149.3016186393
 20
216.1121729077
  0
VERTEX
  8
0
 62
7
  6
CONTINUOUS
 10
149.3373917361
 20
216.2518530906
  0
VERTEX
  8
0
 62
7
  6
CONTINUOUS
 10
149.3524546332
 20
216.3117440301
  0
VERTEX
  8
0
 62
7
  6
CONTINUOUS
 10
149.3656914329
 20
216.3670133609
  0
VERTEX
  8
0
 62
7
  6
CONTINUOUS
 10
149.3772103832
 20
216.4195892442
  0
VERTEX
  8
0
 62
7
  6
CONTINUOUS
 10
149.3871828344
 20
216.4723862482
  0
VERTEX
  8
0
 62
7
  6
CONTINUOUS
 10
149.395421902
 20
216.5288572567
  0
VERTEX
  8
0
 62
7
  6
CONTINUOUS
 10
149.4009634056
 20
216.5915042223
  0
VERTEX
  8
0
 62
7
  6
CONTINUOUS
 10
149.4023218067
 20
216.6401869622
  0
SEQEND
  0
POLYLINE
  8
0
 62
7
  6
CONTINUOUS
 66
1
 70
0
  0
VERTEX
  8
0
 62
7
  6
CONTINUOUS
 10
149.3016186393
 20
203.4121729077
  0
VERTEX
  8
0
 62
7
  6
CONTINUOUS
 10
149.3373917361
 20
203.5518530906
  0
VERTEX
  8
0
 62
7
  6
CONTINUOUS
 10
149.3524546332
 20
203.6117440301
  0
VERTEX
  8
0
 62
7
  6
CONTINUOUS
 10
149.3656914329
 20
203.6670133609
  0
VERTEX
  8
0
 62
7
  6
CONTINUOUS
 10
149.3772103832
 20
203.7195892442
  0
VERTEX
  8
0
 62
7
  6
CONTINUOUS
 10
149.3871828344
 20
203.7723862482
  0
VERTEX
  8
0
 62
7
  6
CONTINUOUS
 10
149.395421902
 20
203.8288572567
  0
VERTEX
  8
0
 62
7
  6
CONTINUOUS
 10
149.4009634056
 20
203.8915042223
  0
VERTEX
  8
0
 62
7
  6
CONTINUOUS
 10
149.4023218067
 20
203.9401869622
  0
SEQEND
  0
LINE
  8
0
 62
7
  6
CONTINUOUS
 10
140.7120193418
 20
187.9851816969
 11
140.6610092333
 21
187.7851603105
  0
LINE
  8
0
 62
7
  6
CONTINUOUS
 10
140.7120193418
 20
175.2851816969
 11
140.6610092333
 21
175.0851603105
  0
LINE
  8
0
 62
7
  6
CONTINUOUS
 10
141.4523244407
 20
186.3308139535
 11
148.5523244407
 21
186.3308139535
  0
POLYLINE
  8
0
 62
7
  6
CONTINUOUS
 66
1
 70
0
  0
VERTEX
  8
0
 62
7
  6
CONTINUOUS
 10
140.659755661
 20
190.8814335583
  0
VERTEX
  8
0
 62
7
  6
CONTINUOUS
 10
140.7106654991
 20
190.6818579954
  0
VERTEX
  8
0
 62
7
  6
CONTINUOUS
 10
140.7305961615
 20
190.6006310056
  0
VERTEX
  8
0
 62
7
  6
CONTINUOUS
 10
140.7515018556
 20
190.5106346089
  0
VERTEX
  8
0
 62
7
  6
CONTINUOUS
 10
140.7728267595
 20
190.4112138169
  0
VERTEX
  8
0
 62
7
  6
CONTINUOUS
 10
140.7938095793
 20
190.3018225468
  0
VERTEX
  8
0
 62
7
  6
CONTINUOUS
 10
140.8134713733
 20
190.1820681291
  0
VERTEX
  8
0
 62
7
  6
CONTINUOUS
 10
140.8306049635
 20
190.0518461096
  0
VERTEX
  8
0
 62
7
  6
CONTINUOUS
 10
140.8437766459
 20
189.9119585106
  0
VERTEX
  8
0
 62
7
  6
CONTINUOUS
 10
140.8515540615
 20
189.7639788981
  0
VERTEX
  8
0
 62
7
  6
CONTINUOUS
 10
140.8531466414
 20
189.6605676202
  0
SEQEND
  0
POLYLINE
  8
0
 62
7
  6
CONTINUOUS
 66
1
 70
0
  0
VERTEX
  8
0
 62
7
  6
CONTINUOUS
 10
149.3448978669
 20
162.3801726415
  0
VERTEX
  8
0
 62
7
  6
CONTINUOUS
 10
149.2940020959
 20
162.5796925343
  0
VERTEX
  8
0
 62
7
  6
CONTINUOUS
 10
149.2740704379
 20
162.6609281767
  0
VERTEX
  8
0
 62
7
  6
CONTINUOUS
 10
149.2531643628
 20
162.7509127637
  0
VERTEX
  8
0
 62
7
  6
CONTINUOUS
 10
149.2318322783
 20
162.850366028
  0
VERTEX
  8
0
 62
7
  6
CONTINUOUS
 10
149.2108522702
 20
162.959739507
  0
VERTEX
  8
0
 62
7
  6
CONTINUOUS
 10
149.191186799
 20
163.0794933317
  0
VERTEX
  8
0
 62
7
  6
CONTINUOUS
 10
149.174050875
 20
163.2097183953
  0
VERTEX
  8
0
 62
7
  6
CONTINUOUS
 10
149.1608780749
 20
163.3496038686
  0
VERTEX
  8
0
 62
7
  6
CONTINUOUS
 10
149.1530970693
 20
163.4975999736
  0
VERTEX
  8
0
 62
7
  6
CONTINUOUS
 10
149.1515013596
 20
163.6010602868
  0
SEQEND
  0
POLYLINE
  8
0
 62
7
  6
CONTINUOUS
 66
1
 70
0
  0
VERTEX
  8
0
 62
7
  6
CONTINUOUS
 10
140.659755661
 20
203.5814335583
  0
VERTEX
  8
0
 62
7
  6
CONTINUOUS
 10
140.7106654991
 20
203.3818579954
  0
VERTEX
  8
0
 62
7
  6
CONTINUOUS
 10
140.7305961615
 20
203.3006310056
  0
VERTEX
  8
0
 62
7
  6
CONTINUOUS
 10
140.7515018556
 20
203.2106346089
  0
VERTEX
  8
0
 62
7
  6
CONTINUOUS
 10
140.7728267595
 20
203.1112138169
  0
VERTEX
  8
0
 62
7
  6
CONTINUOUS
 10
140.7938095793
 20
203.0018225468
  0
VERTEX
  8
0
 62
7
  6
CONTINUOUS
 10
140.8134713733
 20
202.8820681291
  0
VERTEX
  8
0
 62
7
  6
CONTINUOUS
 10
140.8306049635
 20
202.7518461096
  0
VERTEX
  8
0
 62
7
  6
CONTINUOUS
 10
140.8437766459
 20
202.6119585106
  0
VERTEX
  8
0
 62
7
  6
CONTINUOUS
 10
140.8515540615
 20
202.4639788981
  0
VERTEX
  8
0
 62
7
  6
CONTINUOUS
 10
140.8531466414
 20
202.3605676202
  0
SEQEND
  0
POLYLINE
  8
0
 62
7
  6
CONTINUOUS
 66
1
 70
0
  0
VERTEX
  8
0
 62
7
  6
CONTINUOUS
 10
149.4023215896
 20
124.5229306215
  0
VERTEX
  8
0
 62
7
  6
CONTINUOUS
 10
149.4013804827
 20
124.559485806
  0
VERTEX
  8
0
 62
7
  6
CONTINUOUS
 10
149.3978603212
 20
124.6050318412
  0
VERTEX
  8
0
 62
7
  6
CONTINUOUS
 10
149.3925020559
 20
124.6486946529
  0
VERTEX
  8
0
 62
7
  6
CONTINUOUS
 10
149.3856997871
 20
124.6925181353
  0
VERTEX
  8
0
 62
7
  6
CONTINUOUS
 10
149.3774890946
 20
124.7388869482
  0
VERTEX
  8
0
 62
7
  6
CONTINUOUS
 10
149.367837061
 20
124.7894156189
  0
SEQEND
  0
POLYLINE
  8
0
 62
7
  6
CONTINUOUS
 66
1
 70
0
  0
VERTEX
  8
0
 62
7
  6
CONTINUOUS
 10
149.4023211992
 20
136.6219293028
  0
VERTEX
  8
0
 62
7
  6
CONTINUOUS
 10
149.4016721786
 20
136.654985329
  0
VERTEX
  8
0
 62
7
  6
CONTINUOUS
 10
149.3972305947
 20
136.7166446942
  0
VERTEX
  8
0
 62
7
  6
CONTINUOUS
 10
149.389987571
 20
136.7720230649
  0
VERTEX
  8
0
 62
7
  6
CONTINUOUS
 10
149.3809064764
 20
136.823596912
  0
VERTEX
  8
0
 62
7
  6
CONTINUOUS
 10
149.3704467902
 20
136.8736038292
  0
VERTEX
  8
0
 62
7
  6
CONTINUOUS
 10
149.3584834793
 20
136.9251666073
  0
VERTEX
  8
0
 62
7
  6
CONTINUOUS
 10
149.3448978669
 20
136.9801726415
  0
SEQEND
  0
POLYLINE
  8
0
 62
7
  6
CONTINUOUS
 66
1
 70
0
  0
VERTEX
  8
0
 62
7
  6
CONTINUOUS
 10
149.4023211992
 20
149.3219293029
  0
VERTEX
  8
0
 62
7
  6
CONTINUOUS
 10
149.4016721786
 20
149.354985329
  0
VERTEX
  8
0
 62
7
  6
CONTINUOUS
 10
149.3972305947
 20
149.4166446942
  0
VERTEX
  8
0
 62
7
  6
CONTINUOUS
 10
149.389987571
 20
149.4720230649
  0
VERTEX
  8
0
 62
7
  6
CONTINUOUS
 10
149.3809064764
 20
149.523596912
  0
VERTEX
  8
0
 62
7
  6
CONTINUOUS
 10
149.3704467902
 20
149.5736038292
  0
VERTEX
  8
0
 62
7
  6
CONTINUOUS
 10
149.3584834793
 20
149.6251666073
  0
VERTEX
  8
0
 62
7
  6
CONTINUOUS
 10
149.3448978669
 20
149.6801726415
  0
SEQEND
  0
POLYLINE
  8
0
 62
7
  6
CONTINUOUS
 66
1
 70
0
  0
VERTEX
  8
0
 62
7
  6
CONTINUOUS
 10
149.4023211992
 20
162.0219293028
  0
VERTEX
  8
0
 62
7
  6
CONTINUOUS
 10
149.4016721786
 20
162.054985329
  0
VERTEX
  8
0
 62
7
  6
CONTINUOUS
 10
149.3972305947
 20
162.1166446942
  0
VERTEX
  8
0
 62
7
  6
CONTINUOUS
 10
149.389987571
 20
162.1720230649
  0
VERTEX
  8
0
 62
7
  6
CONTINUOUS
 10
149.3809064764
 20
162.223596912
  0
VERTEX
  8
0
 62
7
  6
CONTINUOUS
 10
149.3704467902
 20
162.2736038292
  0
VERTEX
  8
0
 62
7
  6
CONTINUOUS
 10
149.3584834793
 20
162.3251666073
  0
VERTEX
  8
0
 62
7
  6
CONTINUOUS
 10
149.3448978669
 20
162.3801726415
  0
SEQEND
  0
POLYLINE
  8
0
 62
7
  6
CONTINUOUS
 66
1
 70
0
  0
VERTEX
  8
0
 62
7
  6
CONTINUOUS
 10
149.4023211992
 20
174.7219293029
  0
VERTEX
  8
0
 62
7
  6
CONTINUOUS
 10
149.4016721786
 20
174.754985329
  0
VERTEX
  8
0
 62
7
  6
CONTINUOUS
 10
149.3972305947
 20
174.8166446942
  0
VERTEX
  8
0
 62
7
  6
CONTINUOUS
 10
149.389987571
 20
174.8720230649
  0
VERTEX
  8
0
 62
7
  6
CONTINUOUS
 10
149.3809064764
 20
174.923596912
  0
VERTEX
  8
0
 62
7
  6
CONTINUOUS
 10
149.3704467902
 20
174.9736038292
  0
VERTEX
  8
0
 62
7
  6
CONTINUOUS
 10
149.3584834793
 20
175.0251666073
  0
VERTEX
  8
0
 62
7
  6
CONTINUOUS
 10
149.3448978669
 20
175.0801726415
  0
SEQEND
  0
POLYLINE
  8
0
 62
7
  6
CONTINUOUS
 66
1
 70
0
  0
VERTEX
  8
0
 62
7
  6
CONTINUOUS
 10
149.4023211992
 20
187.4219293029
  0
VERTEX
  8
0
 62
7
  6
CONTINUOUS
 10
149.4016721786
 20
187.454985329
  0
VERTEX
  8
0
 62
7
  6
CONTINUOUS
 10
149.3972305947
 20
187.5166446942
  0
VERTEX
  8
0
 62
7
  6
CONTINUOUS
 10
149.389987571
 20
187.5720230649
  0
VERTEX
  8
0
 62
7
  6
CONTINUOUS
 10
149.3809064764
 20
187.623596912
  0
VERTEX
  8
0
 62
7
  6
CONTINUOUS
 10
149.3704467902
 20
187.6736038292
  0
VERTEX
  8
0
 62
7
  6
CONTINUOUS
 10
149.3584834793
 20
187.7251666073
  0
VERTEX
  8
0
 62
7
  6
CONTINUOUS
 10
149.3448978669
 20
187.7801726415
  0
SEQEND
  0
POLYLINE
  8
0
 62
7
  6
CONTINUOUS
 66
1
 70
0
  0
VERTEX
  8
0
 62
7
  6
CONTINUOUS
 10
149.4023211992
 20
200.1219293029
  0
VERTEX
  8
0
 62
7
  6
CONTINUOUS
 10
149.4016721786
 20
200.154985329
  0
VERTEX
  8
0
 62
7
  6
CONTINUOUS
 10
149.3972305947
 20
200.2166446942
  0
VERTEX
  8
0
 62
7
  6
CONTINUOUS
 10
149.389987571
 20
200.2720230649
  0
VERTEX
  8
0
 62
7
  6
CONTINUOUS
 10
149.3809064764
 20
200.323596912
  0
VERTEX
  8
0
 62
7
  6
CONTINUOUS
 10
149.3704467902
 20
200.3736038292
  0
VERTEX
  8
0
 62
7
  6
CONTINUOUS
 10
149.3584834793
 20
200.4251666073
  0
VERTEX
  8
0
 62
7
  6
CONTINUOUS
 10
149.3448978669
 20
200.4801726415
  0
SEQEND
  0
POLYLINE
  8
0
 62
7
  6
CONTINUOUS
 66
1
 70
0
  0
VERTEX
  8
0
 62
7
  6
CONTINUOUS
 10
149.4023211992
 20
212.8219293028
  0
VERTEX
  8
0
 62
7
  6
CONTINUOUS
 10
149.4016721786
 20
212.854985329
  0
VERTEX
  8
0
 62
7
  6
CONTINUOUS
 10
149.3972305947
 20
212.9166446942
  0
VERTEX
  8
0
 62
7
  6
CONTINUOUS
 10
149.389987571
 20
212.9720230649
  0
VERTEX
  8
0
 62
7
  6
CONTINUOUS
 10
149.3809064764
 20
213.023596912
  0
VERTEX
  8
0
 62
7
  6
CONTINUOUS
 10
149.3704467902
 20
213.0736038292
  0
VERTEX
  8
0
 62
7
  6
CONTINUOUS
 10
149.3584834793
 20
213.1251666073
  0
VERTEX
  8
0
 62
7
  6
CONTINUOUS
 10
149.3448978669
 20
213.1801726415
  0
SEQEND
  0
POLYLINE
  8
0
 62
7
  6
CONTINUOUS
 66
1
 70
0
  0
VERTEX
  8
0
 62
7
  6
CONTINUOUS
 10
149.4023211992
 20
225.5219293028
  0
VERTEX
  8
0
 62
7
  6
CONTINUOUS
 10
149.4016721786
 20
225.554985329
  0
VERTEX
  8
0
 62
7
  6
CONTINUOUS
 10
149.3972305947
 20
225.6166446942
  0
VERTEX
  8
0
 62
7
  6
CONTINUOUS
 10
149.389987571
 20
225.6720230649
  0
VERTEX
  8
0
 62
7
  6
CONTINUOUS
 10
149.3809064764
 20
225.723596912
  0
VERTEX
  8
0
 62
7
  6
CONTINUOUS
 10
149.3704467902
 20
225.7736038292
  0
VERTEX
  8
0
 62
7
  6
CONTINUOUS
 10
149.3584834793
 20
225.8251666073
  0
VERTEX
  8
0
 62
7
  6
CONTINUOUS
 10
149.3448978669
 20
225.8801726415
  0
SEQEND
  0
POLYLINE
  8
0
 62
7
  6
CONTINUOUS
 66
1
 70
0
  0
VERTEX
  8
0
 62
7
  6
CONTINUOUS
 10
149.4023211992
 20
238.2219293029
  0
VERTEX
  8
0
 62
7
  6
CONTINUOUS
 10
149.4016721786
 20
238.254985329
  0
VERTEX
  8
0
 62
7
  6
CONTINUOUS
 10
149.3972305947
 20
238.3166446942
  0
VERTEX
  8
0
 62
7
  6
CONTINUOUS
 10
149.389987571
 20
238.3720230649
  0
VERTEX
  8
0
 62
7
  6
CONTINUOUS
 10
149.3809064764
 20
238.423596912
  0
VERTEX
  8
0
 62
7
  6
CONTINUOUS
 10
149.3704467902
 20
238.4736038292
  0
VERTEX
  8
0
 62
7
  6
CONTINUOUS
 10
149.3584834793
 20
238.5251666073
  0
VERTEX
  8
0
 62
7
  6
CONTINUOUS
 10
149.3448978669
 20
238.5801726415
  0
SEQEND
  0
LINE
  8
0
 62
7
  6
CONTINUOUS
 10
149.1515033427
 20
138.2010602867
 11
149.1515033427
 21
138.8605674946
  0
LINE
  8
0
 62
7
  6
CONTINUOUS
 10
149.1515033427
 20
150.9010602867
 11
149.1515033427
 21
151.5605674946
  0
LINE
  8
0
 62
7
  6
CONTINUOUS
 10
149.1515033427
 20
163.6010602867
 11
149.1515033427
 21
164.2605674946
  0
LINE
  8
0
 62
7
  6
CONTINUOUS
 10
149.1515033427
 20
176.3010602867
 11
149.1515033427
 21
176.9605674946
  0
LINE
  8
0
 62
7
  6
CONTINUOUS
 10
149.1515033427
 20
189.0010602867
 11
149.1515033427
 21
189.6605674946
  0
LINE
  8
0
 62
7
  6
CONTINUOUS
 10
149.1515033427
 20
201.7010602867
 11
149.1515033427
 21
202.3605674946
  0
LINE
  8
0
 62
7
  6
CONTINUOUS
 10
149.1515033427
 20
214.4010602867
 11
149.1515033427
 21
215.0605674946
  0
LINE
  8
0
 62
7
  6
CONTINUOUS
 10
149.1515033427
 20
227.1010602867
 11
149.1515033427
 21
227.7605674946
  0
LINE
  8
0
 62
7
  6
CONTINUOUS
 10
149.1515033427
 20
239.8010602867
 11
149.1515033427
 21
240.4605674946
  0
LINE
  8
0
 62
7
  6
CONTINUOUS
 10
149.2321033555
 20
125.8986267586
 11
149.2321033555
 21
126.4808139255
  0
LINE
  8
0
 62
7
  6
CONTINUOUS
 10
149.2321033555
 20
252.8986267586
 11
149.2321033555
 21
253.4808139255
  0
LINE
  8
2_FEATURE
 62
7
  6
CONTINUOUS
 10
149.4023244407
 20
261.3308139535
 11
149.4023244407
 21
258.7834411154
  0
LINE
  8
2_FEATURE
 62
7
  6
CONTINUOUS
 10
149.4023244407
 20
247.9913285243
 11
149.4023244407
 21
244.9702994723
  0
LINE
  8
2_FEATURE
 62
7
  6
CONTINUOUS
 10
149.4023244407
 20
235.2913285243
 11
149.4023244407
 21
232.2702994723
  0
LINE
  8
2_FEATURE
 62
7
  6
CONTINUOUS
 10
149.4023244407
 20
222.5913285243
 11
149.4023244407
 21
219.5702994723
  0
LINE
  8
2_FEATURE
 62
7
  6
CONTINUOUS
 10
149.4023244407
 20
209.8913285243
 11
149.4023244407
 21
206.8702994723
  0
LINE
  8
2_FEATURE
 62
7
  6
CONTINUOUS
 10
149.4023244407
 20
197.1913285243
 11
149.4023244407
 21
194.1702994723
  0
LINE
  8
2_FEATURE
 62
7
  6
CONTINUOUS
 10
149.4023244407
 20
184.4913285243
 11
149.4023244407
 21
181.4702994723
  0
LINE
  8
2_FEATURE
 62
7
  6
CONTINUOUS
 10
149.4023244407
 20
171.7913285243
 11
149.4023244407
 21
168.7702994723
  0
LINE
  8
2_FEATURE
 62
7
  6
CONTINUOUS
 10
149.4023244407
 20
159.0913285243
 11
149.4023244407
 21
156.0702994723
  0
LINE
  8
2_FEATURE
 62
7
  6
CONTINUOUS
 10
149.4023244407
 20
146.3913285243
 11
149.4023244407
 21
143.3702994723
  0
LINE
  8
2_FEATURE
 62
7
  6
CONTINUOUS
 10
149.4023244407
 20
133.6913285243
 11
149.4023244407
 21
130.6702994723
  0
LINE
  8
2_FEATURE
 62
7
  6
CONTINUOUS
 10
149.4023244407
 20
120.9913285243
 11
149.4023244407
 21
117.9702994723
  0
LINE
  8
0
 62
7
  6
CONTINUOUS
 10
149.4023244407
 20
110.9808139535
 11
149.4023215896
 21
124.5229306215
  0
LINE
  8
2_FEATURE
 62
7
  6
CONTINUOUS
 10
149.4023244407
 20
126.4808139535
 11
149.4023244407
 21
127.3413284347
  0
LINE
  8
2_FEATURE
 62
7
  6
CONTINUOUS
 10
149.4023244407
 20
137.0202993827
 11
149.4023244407
 21
138.1988714042
  0
LINE
  8
2_FEATURE
 62
7
  6
CONTINUOUS
 10
149.4023244407
 20
138.8627565028
 11
149.4023244407
 21
140.0413284347
  0
LINE
  8
2_FEATURE
 62
7
  6
CONTINUOUS
 10
149.4023244407
 20
149.7202993827
 11
149.4023244407
 21
150.8988714042
  0
LINE
  8
2_FEATURE
 62
7
  6
CONTINUOUS
 10
149.4023244407
 20
151.5627565028
 11
149.4023244407
 21
152.7413284347
  0
LINE
  8
2_FEATURE
 62
7
  6
CONTINUOUS
 10
149.4023244407
 20
162.4202993827
 11
149.4023244407
 21
163.5988714042
  0
LINE
  8
2_FEATURE
 62
7
  6
CONTINUOUS
 10
149.4023244407
 20
164.2627565028
 11
149.4023244407
 21
165.4413284347
  0
LINE
  8
2_FEATURE
 62
7
  6
CONTINUOUS
 10
149.4023244407
 20
175.1202993827
 11
149.4023244407
 21
176.2988714042
  0
LINE
  8
2_FEATURE
 62
7
  6
CONTINUOUS
 10
149.4023244407
 20
176.9627565028
 11
149.4023244407
 21
178.1413284347
  0
LINE
  8
2_FEATURE
 62
7
  6
CONTINUOUS
 10
149.4023244407
 20
187.8202993827
 11
149.4023244407
 21
188.9988714042
  0
LINE
  8
2_FEATURE
 62
7
  6
CONTINUOUS
 10
149.4023244407
 20
189.6627565028
 11
149.4023244407
 21
190.8413284347
  0
LINE
  8
2_FEATURE
 62
7
  6
CONTINUOUS
 10
149.4023244407
 20
200.5202993827
 11
149.4023244407
 21
201.6988714042
  0
LINE
  8
2_FEATURE
 62
7
  6
CONTINUOUS
 10
149.4023244407
 20
202.3627565028
 11
149.4023244407
 21
203.5413284347
  0
LINE
  8
2_FEATURE
 62
7
  6
CONTINUOUS
 10
149.4023244407
 20
213.2202993827
 11
149.4023244407
 21
214.3988714042
  0
LINE
  8
2_FEATURE
 62
7
  6
CONTINUOUS
 10
149.4023244407
 20
215.0627565028
 11
149.4023244407
 21
216.2413284347
  0
LINE
  8
2_FEATURE
 62
7
  6
CONTINUOUS
 10
149.4023244407
 20
225.9202993827
 11
149.4023244407
 21
227.0988714042
  0
LINE
  8
2_FEATURE
 62
7
  6
CONTINUOUS
 10
149.4023244407
 20
227.7627565028
 11
149.4023244407
 21
228.9413284347
  0
LINE
  8
2_FEATURE
 62
7
  6
CONTINUOUS
 10
149.4023244407
 20
238.6202993827
 11
149.4023244407
 21
239.7988714042
  0
LINE
  8
2_FEATURE
 62
7
  6
CONTINUOUS
 10
149.4023244407
 20
240.4627565028
 11
149.4023244407
 21
241.6413284347
  0
LINE
  8
0
 62
7
  6
CONTINUOUS
 10
149.4023244407
 20
124.544242971
 11
149.4023215896
 21
251.5229306215
  0
LINE
  8
2_FEATURE
 62
7
  6
CONTINUOUS
 10
149.4023244407
 20
253.4808139535
 11
149.4023244407
 21
254.3413284347
  0
LINE
  8
0
 62
7
  6
CONTINUOUS
 10
149.4023244407
 20
251.544242971
 11
149.4023244407
 21
261.3308139535
  0
POLYLINE
  8
0
 62
7
  6
CONTINUOUS
 66
1
 70
0
  0
VERTEX
  8
0
 62
7
  6
CONTINUOUS
 10
149.2321024646
 20
253.480813925
  0
VERTEX
  8
0
 62
7
  6
CONTINUOUS
 10
149.233065397
 20
253.5686995433
  0
VERTEX
  8
0
 62
7
  6
CONTINUOUS
 10
149.2384918109
 20
253.7076305789
  0
VERTEX
  8
0
 62
7
  6
CONTINUOUS
 10
149.247956452
 20
253.8390695705
  0
VERTEX
  8
0
 62
7
  6
CONTINUOUS
 10
149.2604585493
 20
253.9617089891
  0
VERTEX
  8
0
 62
7
  6
CONTINUOUS
 10
149.2749736976
 20
254.0748264666
  0
VERTEX
  8
0
 62
7
  6
CONTINUOUS
 10
149.2905809019
 20
254.1782996033
  0
VERTEX
  8
0
 62
7
  6
CONTINUOUS
 10
149.3065033332
 20
254.2723243089
  0
VERTEX
  8
0
 62
7
  6
CONTINUOUS
 10
149.3221092524
 20
254.3572663529
  0
VERTEX
  8
0
 62
7
  6
CONTINUOUS
 10
149.3369229032
 20
254.4336904747
  0
SEQEND
  0
POLYLINE
  8
0
 62
7
  6
CONTINUOUS
 66
1
 70
0
  0
VERTEX
  8
0
 62
7
  6
CONTINUOUS
 10
149.2321024646
 20
126.480813925
  0
VERTEX
  8
0
 62
7
  6
CONTINUOUS
 10
149.233065397
 20
126.5686995433
  0
VERTEX
  8
0
 62
7
  6
CONTINUOUS
 10
149.2384918109
 20
126.7076305789
  0
VERTEX
  8
0
 62
7
  6
CONTINUOUS
 10
149.247956452
 20
126.8390695705
  0
VERTEX
  8
0
 62
7
  6
CONTINUOUS
 10
149.2604585493
 20
126.9617089891
  0
VERTEX
  8
0
 62
7
  6
CONTINUOUS
 10
149.2749736976
 20
127.0748264666
  0
VERTEX
  8
0
 62
7
  6
CONTINUOUS
 10
149.2905809019
 20
127.1782996033
  0
VERTEX
  8
0
 62
7
  6
CONTINUOUS
 10
149.3065033332
 20
127.2723243089
  0
VERTEX
  8
0
 62
7
  6
CONTINUOUS
 10
149.3221092524
 20
127.3572663529
  0
VERTEX
  8
0
 62
7
  6
CONTINUOUS
 10
149.3369229032
 20
127.4336904747
  0
SEQEND
  0
POLYLINE
  8
0
 62
7
  6
CONTINUOUS
 66
1
 70
0
  0
VERTEX
  8
0
 62
7
  6
CONTINUOUS
 10
149.151502245
 20
240.4605674939
  0
VERTEX
  8
0
 62
7
  6
CONTINUOUS
 10
149.153184056
 20
240.5668405488
  0
VERTEX
  8
0
 62
7
  6
CONTINUOUS
 10
149.1616012004
 20
240.7216062298
  0
VERTEX
  8
0
 62
7
  6
CONTINUOUS
 10
149.175841006
 20
240.8673406054
  0
VERTEX
  8
0
 62
7
  6
CONTINUOUS
 10
149.1942458224
 20
241.0023110454
  0
VERTEX
  8
0
 62
7
  6
CONTINUOUS
 10
149.2151881791
 20
241.1257273381
  0
VERTEX
  8
0
 62
7
  6
CONTINUOUS
 10
149.2373368049
 20
241.2378566321
  0
VERTEX
  8
0
 62
7
  6
CONTINUOUS
 10
149.2596268867
 20
241.3391837042
  0
VERTEX
  8
0
 62
7
  6
CONTINUOUS
 10
149.2812401091
 20
241.4303377808
  0
VERTEX
  8
0
 62
7
  6
CONTINUOUS
 10
149.3016186393
 20
241.5121729077
  0
SEQEND
  0
POLYLINE
  8
0
 62
7
  6
CONTINUOUS
 66
1
 70
0
  0
VERTEX
  8
0
 62
7
  6
CONTINUOUS
 10
149.151502245
 20
227.7605674939
  0
VERTEX
  8
0
 62
7
  6
CONTINUOUS
 10
149.153184056
 20
227.8668405488
  0
VERTEX
  8
0
 62
7
  6
CONTINUOUS
 10
149.1616012004
 20
228.0216062298
  0
VERTEX
  8
0
 62
7
  6
CONTINUOUS
 10
149.175841006
 20
228.1673406054
  0
VERTEX
  8
0
 62
7
  6
CONTINUOUS
 10
149.1942458224
 20
228.3023110454
  0
VERTEX
  8
0
 62
7
  6
CONTINUOUS
 10
149.2151881791
 20
228.4257273381
  0
VERTEX
  8
0
 62
7
  6
CONTINUOUS
 10
149.2373368049
 20
228.5378566321
  0
VERTEX
  8
0
 62
7
  6
CONTINUOUS
 10
149.2596268867
 20
228.6391837042
  0
VERTEX
  8
0
 62
7
  6
CONTINUOUS
 10
149.2812401091
 20
228.7303377808
  0
VERTEX
  8
0
 62
7
  6
CONTINUOUS
 10
149.3016186393
 20
228.8121729077
  0
SEQEND
  0
POLYLINE
  8
0
 62
7
  6
CONTINUOUS
 66
1
 70
0
  0
VERTEX
  8
0
 62
7
  6
CONTINUOUS
 10
149.151502245
 20
215.0605674939
  0
VERTEX
  8
0
 62
7
  6
CONTINUOUS
 10
149.153184056
 20
215.1668405488
  0
VERTEX
  8
0
 62
7
  6
CONTINUOUS
 10
149.1616012004
 20
215.3216062298
  0
VERTEX
  8
0
 62
7
  6
CONTINUOUS
 10
149.175841006
 20
215.4673406054
  0
VERTEX
  8
0
 62
7
  6
CONTINUOUS
 10
149.1942458224
 20
215.6023110454
  0
VERTEX
  8
0
 62
7
  6
CONTINUOUS
 10
149.2151881791
 20
215.7257273381
  0
VERTEX
  8
0
 62
7
  6
CONTINUOUS
 10
149.2373368049
 20
215.8378566321
  0
VERTEX
  8
0
 62
7
  6
CONTINUOUS
 10
149.2596268867
 20
215.9391837042
  0
VERTEX
  8
0
 62
7
  6
CONTINUOUS
 10
149.2812401091
 20
216.0303377808
  0
VERTEX
  8
0
 62
7
  6
CONTINUOUS
 10
149.3016186393
 20
216.1121729077
  0
SEQEND
  0
POLYLINE
  8
0
 62
7
  6
CONTINUOUS
 66
1
 70
0
  0
VERTEX
  8
0
 62
7
  6
CONTINUOUS
 10
149.151502245
 20
202.3605674939
  0
VERTEX
  8
0
 62
7
  6
CONTINUOUS
 10
149.153184056
 20
202.4668405488
  0
VERTEX
  8
0
 62
7
  6
CONTINUOUS
 10
149.1616012004
 20
202.6216062298
  0
VERTEX
  8
0
 62
7
  6
CONTINUOUS
 10
149.175841006
 20
202.7673406054
  0
VERTEX
  8
0
 62
7
  6
CONTINUOUS
 10
149.1942458224
 20
202.9023110454
  0
VERTEX
  8
0
 62
7
  6
CONTINUOUS
 10
149.2151881791
 20
203.0257273381
  0
VERTEX
  8
0
 62
7
  6
CONTINUOUS
 10
149.2373368049
 20
203.1378566321
  0
VERTEX
  8
0
 62
7
  6
CONTINUOUS
 10
149.2596268867
 20
203.2391837042
  0
VERTEX
  8
0
 62
7
  6
CONTINUOUS
 10
149.2812401091
 20
203.3303377808
  0
VERTEX
  8
0
 62
7
  6
CONTINUOUS
 10
149.3016186393
 20
203.4121729077
  0
SEQEND
  0
POLYLINE
  8
0
 62
7
  6
CONTINUOUS
 66
1
 70
0
  0
VERTEX
  8
0
 62
7
  6
CONTINUOUS
 10
149.151502245
 20
189.6605674939
  0
VERTEX
  8
0
 62
7
  6
CONTINUOUS
 10
149.153184056
 20
189.7668405488
  0
VERTEX
  8
0
 62
7
  6
CONTINUOUS
 10
149.1616012004
 20
189.9216062298
  0
VERTEX
  8
0
 62
7
  6
CONTINUOUS
 10
149.175841006
 20
190.0673406054
  0
VERTEX
  8
0
 62
7
  6
CONTINUOUS
 10
149.1942458224
 20
190.2023110454
  0
VERTEX
  8
0
 62
7
  6
CONTINUOUS
 10
149.2151881791
 20
190.3257273381
  0
VERTEX
  8
0
 62
7
  6
CONTINUOUS
 10
149.2373368049
 20
190.4378566321
  0
VERTEX
  8
0
 62
7
  6
CONTINUOUS
 10
149.2596268867
 20
190.5391837042
  0
VERTEX
  8
0
 62
7
  6
CONTINUOUS
 10
149.2812401091
 20
190.6303377808
  0
VERTEX
  8
0
 62
7
  6
CONTINUOUS
 10
149.3016186393
 20
190.7121729077
  0
SEQEND
  0
POLYLINE
  8
0
 62
7
  6
CONTINUOUS
 66
1
 70
0
  0
VERTEX
  8
0
 62
7
  6
CONTINUOUS
 10
149.151502245
 20
176.9605674939
  0
VERTEX
  8
0
 62
7
  6
CONTINUOUS
 10
149.153184056
 20
177.0668405488
  0
VERTEX
  8
0
 62
7
  6
CONTINUOUS
 10
149.1616012004
 20
177.2216062298
  0
VERTEX
  8
0
 62
7
  6
CONTINUOUS
 10
149.175841006
 20
177.3673406054
  0
VERTEX
  8
0
 62
7
  6
CONTINUOUS
 10
149.1942458224
 20
177.5023110454
  0
VERTEX
  8
0
 62
7
  6
CONTINUOUS
 10
149.2151881791
 20
177.6257273381
  0
VERTEX
  8
0
 62
7
  6
CONTINUOUS
 10
149.2373368049
 20
177.7378566321
  0
VERTEX
  8
0
 62
7
  6
CONTINUOUS
 10
149.2596268867
 20
177.8391837042
  0
VERTEX
  8
0
 62
7
  6
CONTINUOUS
 10
149.2812401091
 20
177.9303377808
  0
VERTEX
  8
0
 62
7
  6
CONTINUOUS
 10
149.3016186393
 20
178.0121729077
  0
SEQEND
  0
POLYLINE
  8
0
 62
7
  6
CONTINUOUS
 66
1
 70
0
  0
VERTEX
  8
0
 62
7
  6
CONTINUOUS
 10
149.151502245
 20
164.2605674939
  0
VERTEX
  8
0
 62
7
  6
CONTINUOUS
 10
149.153184056
 20
164.3668405488
  0
VERTEX
  8
0
 62
7
  6
CONTINUOUS
 10
149.1616012004
 20
164.5216062298
  0
VERTEX
  8
0
 62
7
  6
CONTINUOUS
 10
149.175841006
 20
164.6673406054
  0
VERTEX
  8
0
 62
7
  6
CONTINUOUS
 10
149.1942458224
 20
164.8023110454
  0
VERTEX
  8
0
 62
7
  6
CONTINUOUS
 10
149.2151881791
 20
164.9257273381
  0
VERTEX
  8
0
 62
7
  6
CONTINUOUS
 10
149.2373368049
 20
165.0378566321
  0
VERTEX
  8
0
 62
7
  6
CONTINUOUS
 10
149.2596268867
 20
165.1391837042
  0
VERTEX
  8
0
 62
7
  6
CONTINUOUS
 10
149.2812401091
 20
165.2303377808
  0
VERTEX
  8
0
 62
7
  6
CONTINUOUS
 10
149.3016186393
 20
165.3121729077
  0
SEQEND
  0
POLYLINE
  8
0
 62
7
  6
CONTINUOUS
 66
1
 70
0
  0
VERTEX
  8
0
 62
7
  6
CONTINUOUS
 10
149.151502245
 20
151.5605674939
  0
VERTEX
  8
0
 62
7
  6
CONTINUOUS
 10
149.153184056
 20
151.6668405488
  0
VERTEX
  8
0
 62
7
  6
CONTINUOUS
 10
149.1616012004
 20
151.8216062298
  0
VERTEX
  8
0
 62
7
  6
CONTINUOUS
 10
149.175841006
 20
151.9673406054
  0
VERTEX
  8
0
 62
7
  6
CONTINUOUS
 10
149.1942458224
 20
152.1023110454
  0
VERTEX
  8
0
 62
7
  6
CONTINUOUS
 10
149.2151881791
 20
152.2257273381
  0
VERTEX
  8
0
 62
7
  6
CONTINUOUS
 10
149.2373368049
 20
152.3378566321
  0
VERTEX
  8
0
 62
7
  6
CONTINUOUS
 10
149.2596268867
 20
152.4391837042
  0
VERTEX
  8
0
 62
7
  6
CONTINUOUS
 10
149.2812401091
 20
152.5303377808
  0
VERTEX
  8
0
 62
7
  6
CONTINUOUS
 10
149.3016186393
 20
152.6121729077
  0
SEQEND
  0
POLYLINE
  8
0
 62
7
  6
CONTINUOUS
 66
1
 70
0
  0
VERTEX
  8
0
 62
7
  6
CONTINUOUS
 10
149.151502245
 20
138.8605674939
  0
VERTEX
  8
0
 62
7
  6
CONTINUOUS
 10
149.153184056
 20
138.9668405488
  0
VERTEX
  8
0
 62
7
  6
CONTINUOUS
 10
149.1616012004
 20
139.1216062298
  0
VERTEX
  8
0
 62
7
  6
CONTINUOUS
 10
149.175841006
 20
139.2673406054
  0
VERTEX
  8
0
 62
7
  6
CONTINUOUS
 10
149.1942458224
 20
139.4023110454
  0
VERTEX
  8
0
 62
7
  6
CONTINUOUS
 10
149.2151881791
 20
139.5257273381
  0
VERTEX
  8
0
 62
7
  6
CONTINUOUS
 10
149.2373368049
 20
139.6378566321
  0
VERTEX
  8
0
 62
7
  6
CONTINUOUS
 10
149.2596268867
 20
139.7391837042
  0
VERTEX
  8
0
 62
7
  6
CONTINUOUS
 10
149.2812401091
 20
139.8303377808
  0
VERTEX
  8
0
 62
7
  6
CONTINUOUS
 10
149.3016186393
 20
139.9121729077
  0
VERTEX
  8
0
 62
7
  6
CONTINUOUS
 10
149.3203917111
 20
139.9856142091
  0
VERTEX
  8
0
 62
7
  6
CONTINUOUS
 10
149.3373917361
 20
140.0518530906
  0
VERTEX
  8
0
 62
7
  6
CONTINUOUS
 10
149.3524546332
 20
140.1117440301
  0
VERTEX
  8
0
 62
7
  6
CONTINUOUS
 10
149.3656914329
 20
140.1670133609
  0
VERTEX
  8
0
 62
7
  6
CONTINUOUS
 10
149.3772103832
 20
140.2195892442
  0
VERTEX
  8
0
 62
7
  6
CONTINUOUS
 10
149.3871828344
 20
140.2723862482
  0
VERTEX
  8
0
 62
7
  6
CONTINUOUS
 10
149.395421902
 20
140.3288572567
  0
VERTEX
  8
0
 62
7
  6
CONTINUOUS
 10
149.4009634056
 20
140.3915042223
  0
VERTEX
  8
0
 62
7
  6
CONTINUOUS
 10
149.4023218067
 20
140.4401869622
  0
SEQEND
  0
POLYLINE
  8
0
 62
7
  6
CONTINUOUS
 66
1
 70
0
  0
VERTEX
  8
0
 62
7
  6
CONTINUOUS
 10
140.6610092333
 20
162.3851603105
  0
VERTEX
  8
0
 62
7
  6
CONTINUOUS
 10
140.6473663787
 20
162.3301418994
  0
VERTEX
  8
0
 62
7
  6
CONTINUOUS
 10
140.6353309925
 20
162.2786644351
  0
VERTEX
  8
0
 62
7
  6
CONTINUOUS
 10
140.6248143231
 20
162.2290530153
  0
VERTEX
  8
0
 62
7
  6
CONTINUOUS
 10
140.6156433831
 20
162.1782259344
  0
VERTEX
  8
0
 62
7
  6
CONTINUOUS
 10
140.6081959974
 20
162.1238502034
  0
VERTEX
  8
0
 62
7
  6
CONTINUOUS
 10
140.6033472629
 20
162.063540744
  0
VERTEX
  8
0
 62
7
  6
CONTINUOUS
 10
140.6023281312
 20
162.0219013695
  0
SEQEND
  0
POLYLINE
  8
0
 62
7
  6
CONTINUOUS
 66
1
 70
0
  0
VERTEX
  8
0
 62
7
  6
CONTINUOUS
 10
140.6610092333
 20
149.6851603105
  0
VERTEX
  8
0
 62
7
  6
CONTINUOUS
 10
140.6473663787
 20
149.6301418994
  0
VERTEX
  8
0
 62
7
  6
CONTINUOUS
 10
140.6353309925
 20
149.5786644351
  0
VERTEX
  8
0
 62
7
  6
CONTINUOUS
 10
140.6248143231
 20
149.5290530153
  0
VERTEX
  8
0
 62
7
  6
CONTINUOUS
 10
140.6156433831
 20
149.4782259344
  0
VERTEX
  8
0
 62
7
  6
CONTINUOUS
 10
140.6081959974
 20
149.4238502034
  0
VERTEX
  8
0
 62
7
  6
CONTINUOUS
 10
140.6033472629
 20
149.363540744
  0
VERTEX
  8
0
 62
7
  6
CONTINUOUS
 10
140.6023281312
 20
149.3219013695
  0
SEQEND
  0
POLYLINE
  8
0
 62
7
  6
CONTINUOUS
 66
1
 70
0
  0
VERTEX
  8
0
 62
7
  6
CONTINUOUS
 10
149.3016186393
 20
190.7121729077
  0
VERTEX
  8
0
 62
7
  6
CONTINUOUS
 10
149.3373917361
 20
190.8518530906
  0
VERTEX
  8
0
 62
7
  6
CONTINUOUS
 10
149.3524546332
 20
190.9117440301
  0
VERTEX
  8
0
 62
7
  6
CONTINUOUS
 10
149.3656914329
 20
190.9670133609
  0
VERTEX
  8
0
 62
7
  6
CONTINUOUS
 10
149.3772103832
 20
191.0195892442
  0
VERTEX
  8
0
 62
7
  6
CONTINUOUS
 10
149.3871828344
 20
191.0723862482
  0
VERTEX
  8
0
 62
7
  6
CONTINUOUS
 10
149.395421902
 20
191.1288572567
  0
VERTEX
  8
0
 62
7
  6
CONTINUOUS
 10
149.4009634056
 20
191.1915042223
  0
VERTEX
  8
0
 62
7
  6
CONTINUOUS
 10
149.4023218067
 20
191.2401869622
  0
SEQEND
  0
LINE
  8
0
 62
7
  6
CONTINUOUS
 10
140.7120193418
 20
162.5851816969
 11
140.6610092333
 21
162.3851603105
  0
LINE
  8
0
 62
7
  6
CONTINUOUS
 10
140.7120193418
 20
149.8851816969
 11
140.6610092333
 21
149.6851603105
  0
POLYLINE
  8
0
 62
7
  6
CONTINUOUS
 66
1
 70
0
  0
VERTEX
  8
0
 62
7
  6
CONTINUOUS
 10
149.3448978669
 20
175.0801726415
  0
VERTEX
  8
0
 62
7
  6
CONTINUOUS
 10
149.2940020959
 20
175.2796925343
  0
VERTEX
  8
0
 62
7
  6
CONTINUOUS
 10
149.2740704379
 20
175.3609281767
  0
VERTEX
  8
0
 62
7
  6
CONTINUOUS
 10
149.2531643628
 20
175.4509127637
  0
VERTEX
  8
0
 62
7
  6
CONTINUOUS
 10
149.2318322783
 20
175.550366028
  0
VERTEX
  8
0
 62
7
  6
CONTINUOUS
 10
149.2108522702
 20
175.659739507
  0
VERTEX
  8
0
 62
7
  6
CONTINUOUS
 10
149.191186799
 20
175.7794933317
  0
VERTEX
  8
0
 62
7
  6
CONTINUOUS
 10
149.174050875
 20
175.9097183953
  0
VERTEX
  8
0
 62
7
  6
CONTINUOUS
 10
149.1608780749
 20
176.0496038686
  0
VERTEX
  8
0
 62
7
  6
CONTINUOUS
 10
149.1530970693
 20
176.1975999736
  0
VERTEX
  8
0
 62
7
  6
CONTINUOUS
 10
149.1515013596
 20
176.3010602868
  0
SEQEND
  0
POLYLINE
  8
0
 62
7
  6
CONTINUOUS
 66
1
 70
0
  0
VERTEX
  8
0
 62
7
  6
CONTINUOUS
 10
140.659755661
 20
216.2814335583
  0
VERTEX
  8
0
 62
7
  6
CONTINUOUS
 10
140.7106654991
 20
216.0818579954
  0
VERTEX
  8
0
 62
7
  6
CONTINUOUS
 10
140.7305961615
 20
216.0006310056
  0
VERTEX
  8
0
 62
7
  6
CONTINUOUS
 10
140.7515018556
 20
215.9106346089
  0
VERTEX
  8
0
 62
7
  6
CONTINUOUS
 10
140.7728267595
 20
215.8112138169
  0
VERTEX
  8
0
 62
7
  6
CONTINUOUS
 10
140.7938095793
 20
215.7018225468
  0
VERTEX
  8
0
 62
7
  6
CONTINUOUS
 10
140.8134713733
 20
215.5820681291
  0
VERTEX
  8
0
 62
7
  6
CONTINUOUS
 10
140.8306049635
 20
215.4518461096
  0
VERTEX
  8
0
 62
7
  6
CONTINUOUS
 10
140.8437766459
 20
215.3119585106
  0
VERTEX
  8
0
 62
7
  6
CONTINUOUS
 10
140.8515540615
 20
215.1639788981
  0
VERTEX
  8
0
 62
7
  6
CONTINUOUS
 10
140.8531466414
 20
215.0605676202
  0
SEQEND
  0
POLYLINE
  8
0
 62
7
  6
CONTINUOUS
 66
1
 70
0
  0
VERTEX
  8
0
 62
7
  6
CONTINUOUS
 10
149.3448978669
 20
187.7801726415
  0
VERTEX
  8
0
 62
7
  6
CONTINUOUS
 10
149.2940020959
 20
187.9796925343
  0
VERTEX
  8
0
 62
7
  6
CONTINUOUS
 10
149.2740704379
 20
188.0609281767
  0
VERTEX
  8
0
 62
7
  6
CONTINUOUS
 10
149.2531643628
 20
188.1509127637
  0
VERTEX
  8
0
 62
7
  6
CONTINUOUS
 10
149.2318322783
 20
188.250366028
  0
VERTEX
  8
0
 62
7
  6
CONTINUOUS
 10
149.2108522702
 20
188.359739507
  0
VERTEX
  8
0
 62
7
  6
CONTINUOUS
 10
149.191186799
 20
188.4794933317
  0
VERTEX
  8
0
 62
7
  6
CONTINUOUS
 10
149.174050875
 20
188.6097183953
  0
VERTEX
  8
0
 62
7
  6
CONTINUOUS
 10
149.1608780749
 20
188.7496038686
  0
VERTEX
  8
0
 62
7
  6
CONTINUOUS
 10
149.1530970693
 20
188.8975999736
  0
VERTEX
  8
0
 62
7
  6
CONTINUOUS
 10
149.1515013596
 20
189.0010602868
  0
SEQEND
  0
POLYLINE
  8
0
 62
7
  6
CONTINUOUS
 66
1
 70
0
  0
VERTEX
  8
0
 62
7
  6
CONTINUOUS
 10
149.4023215896
 20
251.5229306215
  0
VERTEX
  8
0
 62
7
  6
CONTINUOUS
 10
149.4013804827
 20
251.559485806
  0
VERTEX
  8
0
 62
7
  6
CONTINUOUS
 10
149.3978603212
 20
251.6050318412
  0
VERTEX
  8
0
 62
7
  6
CONTINUOUS
 10
149.3925020559
 20
251.6486946529
  0
VERTEX
  8
0
 62
7
  6
CONTINUOUS
 10
149.3856997871
 20
251.6925181353
  0
VERTEX
  8
0
 62
7
  6
CONTINUOUS
 10
149.3774890946
 20
251.7388869482
  0
VERTEX
  8
0
 62
7
  6
CONTINUOUS
 10
149.367837061
 20
251.7894156189
  0
SEQEND
  0
POLYLINE
  8
0
 62
7
  6
CONTINUOUS
 66
1
 70
0
  0
VERTEX
  8
0
 62
7
  6
CONTINUOUS
 10
140.6677454103
 20
124.9448394642
  0
VERTEX
  8
0
 62
7
  6
CONTINUOUS
 10
140.6417291858
 20
124.8143759984
  0
VERTEX
  8
0
 62
7
  6
CONTINUOUS
 10
140.6309374395
 20
124.7589981219
  0
VERTEX
  8
0
 62
7
  6
CONTINUOUS
 10
140.6217249514
 20
124.7087302979
  0
VERTEX
  8
0
 62
7
  6
CONTINUOUS
 10
140.6141045166
 20
124.6621226347
  0
VERTEX
  8
0
 62
7
  6
CONTINUOUS
 10
140.6080268977
 20
124.6164851276
  0
VERTEX
  8
0
 62
7
  6
CONTINUOUS
 10
140.6038337969
 20
124.5695034911
  0
VERTEX
  8
0
 62
7
  6
CONTINUOUS
 10
140.6023277101
 20
124.5229943164
  0
SEQEND
  0
POLYLINE
  8
0
 62
7
  6
CONTINUOUS
 66
1
 70
0
  0
VERTEX
  8
0
 62
7
  6
CONTINUOUS
 10
140.6610092333
 20
136.9851603105
  0
VERTEX
  8
0
 62
7
  6
CONTINUOUS
 10
140.6473663787
 20
136.9301418994
  0
VERTEX
  8
0
 62
7
  6
CONTINUOUS
 10
140.6353309925
 20
136.8786644351
  0
VERTEX
  8
0
 62
7
  6
CONTINUOUS
 10
140.6248143231
 20
136.8290530153
  0
VERTEX
  8
0
 62
7
  6
CONTINUOUS
 10
140.6156433831
 20
136.7782259344
  0
VERTEX
  8
0
 62
7
  6
CONTINUOUS
 10
140.6081959974
 20
136.7238502034
  0
VERTEX
  8
0
 62
7
  6
CONTINUOUS
 10
140.6033472629
 20
136.663540744
  0
VERTEX
  8
0
 62
7
  6
CONTINUOUS
 10
140.6023281312
 20
136.6219013695
  0
SEQEND
  0
POLYLINE
  8
0
 62
7
  6
CONTINUOUS
 66
1
 70
0
  0
VERTEX
  8
0
 62
7
  6
CONTINUOUS
 10
149.3016186393
 20
178.0121729077
  0
VERTEX
  8
0
 62
7
  6
CONTINUOUS
 10
149.3373917361
 20
178.1518530906
  0
VERTEX
  8
0
 62
7
  6
CONTINUOUS
 10
149.3524546332
 20
178.2117440301
  0
VERTEX
  8
0
 62
7
  6
CONTINUOUS
 10
149.3656914329
 20
178.2670133609
  0
VERTEX
  8
0
 62
7
  6
CONTINUOUS
 10
149.3772103832
 20
178.3195892442
  0
VERTEX
  8
0
 62
7
  6
CONTINUOUS
 10
149.3871828344
 20
178.3723862482
  0
VERTEX
  8
0
 62
7
  6
CONTINUOUS
 10
149.395421902
 20
178.4288572567
  0
VERTEX
  8
0
 62
7
  6
CONTINUOUS
 10
149.4009634056
 20
178.4915042223
  0
VERTEX
  8
0
 62
7
  6
CONTINUOUS
 10
149.4023218067
 20
178.5401869622
  0
SEQEND
  0
POLYLINE
  8
0
 62
7
  6
CONTINUOUS
 66
1
 70
0
  0
VERTEX
  8
0
 62
7
  6
CONTINUOUS
 10
149.3016186393
 20
165.3121729077
  0
VERTEX
  8
0
 62
7
  6
CONTINUOUS
 10
149.3373917361
 20
165.4518530906
  0
VERTEX
  8
0
 62
7
  6
CONTINUOUS
 10
149.3524546332
 20
165.5117440301
  0
VERTEX
  8
0
 62
7
  6
CONTINUOUS
 10
149.3656914329
 20
165.5670133609
  0
VERTEX
  8
0
 62
7
  6
CONTINUOUS
 10
149.3772103832
 20
165.6195892442
  0
VERTEX
  8
0
 62
7
  6
CONTINUOUS
 10
149.3871828344
 20
165.6723862482
  0
VERTEX
  8
0
 62
7
  6
CONTINUOUS
 10
149.395421902
 20
165.7288572567
  0
VERTEX
  8
0
 62
7
  6
CONTINUOUS
 10
149.4009634056
 20
165.7915042223
  0
VERTEX
  8
0
 62
7
  6
CONTINUOUS
 10
149.4023218067
 20
165.8401869622
  0
SEQEND
  0
LINE
  8
0
 62
7
  6
CONTINUOUS
 10
140.7120193418
 20
137.1851816969
 11
140.6610092333
 21
136.9851603105
  0
LINE
  8
0
 62
7
  6
CONTINUOUS
 10
148.5523244407
 20
192.3308139535
 11
141.4523244407
 21
192.3308139535
  0
POLYLINE
  8
0
 62
7
  6
CONTINUOUS
 66
1
 70
0
  0
VERTEX
  8
0
 62
7
  6
CONTINUOUS
 10
140.659755661
 20
228.9814335583
  0
VERTEX
  8
0
 62
7
  6
CONTINUOUS
 10
140.7106654991
 20
228.7818579954
  0
VERTEX
  8
0
 62
7
  6
CONTINUOUS
 10
140.7305961615
 20
228.7006310056
  0
VERTEX
  8
0
 62
7
  6
CONTINUOUS
 10
140.7515018556
 20
228.6106346089
  0
VERTEX
  8
0
 62
7
  6
CONTINUOUS
 10
140.7728267595
 20
228.5112138169
  0
VERTEX
  8
0
 62
7
  6
CONTINUOUS
 10
140.7938095793
 20
228.4018225468
  0
VERTEX
  8
0
 62
7
  6
CONTINUOUS
 10
140.8134713733
 20
228.2820681291
  0
VERTEX
  8
0
 62
7
  6
CONTINUOUS
 10
140.8306049635
 20
228.1518461096
  0
VERTEX
  8
0
 62
7
  6
CONTINUOUS
 10
140.8437766459
 20
228.0119585106
  0
VERTEX
  8
0
 62
7
  6
CONTINUOUS
 10
140.8515540615
 20
227.8639788981
  0
VERTEX
  8
0
 62
7
  6
CONTINUOUS
 10
140.8531466414
 20
227.7605676202
  0
SEQEND
  0
POLYLINE
  8
0
 62
7
  6
CONTINUOUS
 66
1
 70
0
  0
VERTEX
  8
0
 62
7
  6
CONTINUOUS
 10
149.3448978669
 20
200.4801726415
  0
VERTEX
  8
0
 62
7
  6
CONTINUOUS
 10
149.2940020959
 20
200.6796925343
  0
VERTEX
  8
0
 62
7
  6
CONTINUOUS
 10
149.2740704379
 20
200.7609281767
  0
VERTEX
  8
0
 62
7
  6
CONTINUOUS
 10
149.2531643628
 20
200.8509127637
  0
VERTEX
  8
0
 62
7
  6
CONTINUOUS
 10
149.2318322783
 20
200.950366028
  0
VERTEX
  8
0
 62
7
  6
CONTINUOUS
 10
149.2108522702
 20
201.059739507
  0
VERTEX
  8
0
 62
7
  6
CONTINUOUS
 10
149.191186799
 20
201.1794933317
  0
VERTEX
  8
0
 62
7
  6
CONTINUOUS
 10
149.174050875
 20
201.3097183953
  0
VERTEX
  8
0
 62
7
  6
CONTINUOUS
 10
149.1608780749
 20
201.4496038686
  0
VERTEX
  8
0
 62
7
  6
CONTINUOUS
 10
149.1530970693
 20
201.5975999736
  0
VERTEX
  8
0
 62
7
  6
CONTINUOUS
 10
149.1515013596
 20
201.7010602868
  0
SEQEND
  0
POLYLINE
  8
0
 62
7
  6
CONTINUOUS
 66
1
 70
0
  0
VERTEX
  8
0
 62
7
  6
CONTINUOUS
 10
140.659755661
 20
241.6814335583
  0
VERTEX
  8
0
 62
7
  6
CONTINUOUS
 10
140.7106654991
 20
241.4818579954
  0
VERTEX
  8
0
 62
7
  6
CONTINUOUS
 10
140.7305961615
 20
241.4006310056
  0
VERTEX
  8
0
 62
7
  6
CONTINUOUS
 10
140.7515018556
 20
241.3106346089
  0
VERTEX
  8
0
 62
7
  6
CONTINUOUS
 10
140.7728267595
 20
241.2112138169
  0
VERTEX
  8
0
 62
7
  6
CONTINUOUS
 10
140.7938095793
 20
241.1018225468
  0
VERTEX
  8
0
 62
7
  6
CONTINUOUS
 10
140.8134713733
 20
240.9820681291
  0
VERTEX
  8
0
 62
7
  6
CONTINUOUS
 10
140.8306049635
 20
240.8518461096
  0
VERTEX
  8
0
 62
7
  6
CONTINUOUS
 10
140.8437766459
 20
240.7119585106
  0
VERTEX
  8
0
 62
7
  6
CONTINUOUS
 10
140.8515540615
 20
240.5639788981
  0
VERTEX
  8
0
 62
7
  6
CONTINUOUS
 10
140.8531466414
 20
240.4605676202
  0
SEQEND
  0
POLYLINE
  8
0
 62
7
  6
CONTINUOUS
 66
1
 70
0
  0
VERTEX
  8
0
 62
7
  6
CONTINUOUS
 10
140.6367996405
 20
254.5888203005
  0
VERTEX
  8
0
 62
7
  6
CONTINUOUS
 10
140.6737528251
 20
254.4029658079
  0
VERTEX
  8
0
 62
7
  6
CONTINUOUS
 10
140.6881739338
 20
254.3272403811
  0
VERTEX
  8
0
 62
7
  6
CONTINUOUS
 10
140.7031681945
 20
254.2436221667
  0
VERTEX
  8
0
 62
7
  6
CONTINUOUS
 10
140.7182845625
 20
254.151680158
  0
VERTEX
  8
0
 62
7
  6
CONTINUOUS
 10
140.7329423415
 20
254.0511388642
  0
VERTEX
  8
0
 62
7
  6
CONTINUOUS
 10
140.7464449709
 20
253.9418791027
  0
VERTEX
  8
0
 62
7
  6
CONTINUOUS
 10
140.7579799991
 20
253.8240885231
  0
VERTEX
  8
0
 62
7
  6
CONTINUOUS
 10
140.7666614811
 20
253.6984624918
  0
VERTEX
  8
0
 62
7
  6
CONTINUOUS
 10
140.7716380689
 20
253.566169008
  0
VERTEX
  8
0
 62
7
  6
CONTINUOUS
 10
140.7725464178
 20
253.4808139535
  0
SEQEND
  0
POLYLINE
  8
0
 62
7
  6
CONTINUOUS
 66
1
 70
0
  0
VERTEX
  8
0
 62
7
  6
CONTINUOUS
 10
149.3016186393
 20
152.6121729077
  0
VERTEX
  8
0
 62
7
  6
CONTINUOUS
 10
149.3373917361
 20
152.7518530906
  0
VERTEX
  8
0
 62
7
  6
CONTINUOUS
 10
149.3524546332
 20
152.8117440301
  0
VERTEX
  8
0
 62
7
  6
CONTINUOUS
 10
149.3656914329
 20
152.8670133609
  0
VERTEX
  8
0
 62
7
  6
CONTINUOUS
 10
149.3772103832
 20
152.9195892442
  0
VERTEX
  8
0
 62
7
  6
CONTINUOUS
 10
149.3871828344
 20
152.9723862482
  0
VERTEX
  8
0
 62
7
  6
CONTINUOUS
 10
149.395421902
 20
153.0288572567
  0
VERTEX
  8
0
 62
7
  6
CONTINUOUS
 10
149.4009634056
 20
153.0915042223
  0
VERTEX
  8
0
 62
7
  6
CONTINUOUS
 10
149.4023218067
 20
153.1401869622
  0
SEQEND
  0
LINE
  8
0
 62
7
  6
CONTINUOUS
 10
141.4523244407
 20
199.0308139535
 11
148.5523244407
 21
199.0308139535
  0
POLYLINE
  8
0
 62
7
  6
CONTINUOUS
 66
1
 70
0
  0
VERTEX
  8
0
 62
7
  6
CONTINUOUS
 10
149.3448978669
 20
213.1801726415
  0
VERTEX
  8
0
 62
7
  6
CONTINUOUS
 10
149.2940020959
 20
213.3796925343
  0
VERTEX
  8
0
 62
7
  6
CONTINUOUS
 10
149.2740704379
 20
213.4609281767
  0
VERTEX
  8
0
 62
7
  6
CONTINUOUS
 10
149.2531643628
 20
213.5509127637
  0
VERTEX
  8
0
 62
7
  6
CONTINUOUS
 10
149.2318322783
 20
213.650366028
  0
VERTEX
  8
0
 62
7
  6
CONTINUOUS
 10
149.2108522702
 20
213.759739507
  0
VERTEX
  8
0
 62
7
  6
CONTINUOUS
 10
149.191186799
 20
213.8794933317
  0
VERTEX
  8
0
 62
7
  6
CONTINUOUS
 10
149.174050875
 20
214.0097183953
  0
VERTEX
  8
0
 62
7
  6
CONTINUOUS
 10
149.1608780749
 20
214.1496038686
  0
VERTEX
  8
0
 62
7
  6
CONTINUOUS
 10
149.1530970693
 20
214.2975999736
  0
VERTEX
  8
0
 62
7
  6
CONTINUOUS
 10
149.1515013596
 20
214.4010602868
  0
SEQEND
  0
POLYLINE
  8
0
 62
7
  6
CONTINUOUS
 66
1
 70
0
  0
VERTEX
  8
0
 62
7
  6
CONTINUOUS
 10
149.3448978669
 20
225.8801726415
  0
VERTEX
  8
0
 62
7
  6
CONTINUOUS
 10
149.2940020959
 20
226.0796925343
  0
VERTEX
  8
0
 62
7
  6
CONTINUOUS
 10
149.2740704379
 20
226.1609281767
  0
VERTEX
  8
0
 62
7
  6
CONTINUOUS
 10
149.2531643628
 20
226.2509127637
  0
VERTEX
  8
0
 62
7
  6
CONTINUOUS
 10
149.2318322783
 20
226.350366028
  0
VERTEX
  8
0
 62
7
  6
CONTINUOUS
 10
149.2108522702
 20
226.459739507
  0
VERTEX
  8
0
 62
7
  6
CONTINUOUS
 10
149.191186799
 20
226.5794933317
  0
VERTEX
  8
0
 62
7
  6
CONTINUOUS
 10
149.174050875
 20
226.7097183953
  0
VERTEX
  8
0
 62
7
  6
CONTINUOUS
 10
149.1608780749
 20
226.8496038686
  0
VERTEX
  8
0
 62
7
  6
CONTINUOUS
 10
149.1530970693
 20
226.9975999736
  0
VERTEX
  8
0
 62
7
  6
CONTINUOUS
 10
149.1515013596
 20
227.1010602868
  0
SEQEND
  0
POLYLINE
  8
0
 62
7
  6
CONTINUOUS
 66
1
 70
0
  0
VERTEX
  8
0
 62
7
  6
CONTINUOUS
 10
149.3369229032
 20
127.4336904747
  0
VERTEX
  8
0
 62
7
  6
CONTINUOUS
 10
149.3629369339
 20
127.5639218924
  0
VERTEX
  8
0
 62
7
  6
CONTINUOUS
 10
149.3737269011
 20
127.619213776
  0
VERTEX
  8
0
 62
7
  6
CONTINUOUS
 10
149.3829388843
 20
127.6694219075
  0
VERTEX
  8
0
 62
7
  6
CONTINUOUS
 10
149.3905607339
 20
127.7160106672
  0
VERTEX
  8
0
 62
7
  6
CONTINUOUS
 10
149.3966367976
 20
127.761644051
  0
VERTEX
  8
0
 62
7
  6
CONTINUOUS
 10
149.4008259421
 20
127.8086500199
  0
VERTEX
  8
0
 62
7
  6
CONTINUOUS
 10
149.4023217176
 20
127.8550145708
  0
SEQEND
  0
LINE
  8
0
 62
7
  6
CONTINUOUS
 10
148.5523244407
 20
205.0308139535
 11
141.4523244407
 21
205.0308139535
  0
POLYLINE
  8
0
 62
7
  6
CONTINUOUS
 66
1
 70
0
  0
VERTEX
  8
0
 62
7
  6
CONTINUOUS
 10
149.3448978669
 20
238.5801726415
  0
VERTEX
  8
0
 62
7
  6
CONTINUOUS
 10
149.2940020959
 20
238.7796925343
  0
VERTEX
  8
0
 62
7
  6
CONTINUOUS
 10
149.2740704379
 20
238.8609281767
  0
VERTEX
  8
0
 62
7
  6
CONTINUOUS
 10
149.2531643628
 20
238.9509127637
  0
VERTEX
  8
0
 62
7
  6
CONTINUOUS
 10
149.2318322783
 20
239.050366028
  0
VERTEX
  8
0
 62
7
  6
CONTINUOUS
 10
149.2108522702
 20
239.159739507
  0
VERTEX
  8
0
 62
7
  6
CONTINUOUS
 10
149.191186799
 20
239.2794933317
  0
VERTEX
  8
0
 62
7
  6
CONTINUOUS
 10
149.174050875
 20
239.4097183953
  0
VERTEX
  8
0
 62
7
  6
CONTINUOUS
 10
149.1608780749
 20
239.5496038686
  0
VERTEX
  8
0
 62
7
  6
CONTINUOUS
 10
149.1530970693
 20
239.6975999736
  0
VERTEX
  8
0
 62
7
  6
CONTINUOUS
 10
149.1515013596
 20
239.8010602868
  0
SEQEND
  0
POLYLINE
  8
0
 62
7
  6
CONTINUOUS
 66
1
 70
0
  0
VERTEX
  8
0
 62
7
  6
CONTINUOUS
 10
149.367837061
 20
251.7894156189
  0
VERTEX
  8
0
 62
7
  6
CONTINUOUS
 10
149.3308820877
 20
251.9755911447
  0
VERTEX
  8
0
 62
7
  6
CONTINUOUS
 10
149.3164625306
 20
252.0514433063
  0
VERTEX
  8
0
 62
7
  6
CONTINUOUS
 10
149.301472347
 20
252.1351810716
  0
VERTEX
  8
0
 62
7
  6
CONTINUOUS
 10
149.2863613907
 20
252.2272373582
  0
VERTEX
  8
0
 62
7
  6
CONTINUOUS
 10
149.2717104619
 20
252.327872265
  0
VERTEX
  8
0
 62
7
  6
CONTINUOUS
 10
149.2582126469
 20
252.4372128418
  0
VERTEX
  8
0
 62
7
  6
CONTINUOUS
 10
149.2466794803
 20
252.5550737812
  0
VERTEX
  8
0
 62
7
  6
CONTINUOUS
 10
149.2379956058
 20
252.6807599049
  0
VERTEX
  8
0
 62
7
  6
CONTINUOUS
 10
149.233014219
 20
252.8130971485
  0
VERTEX
  8
0
 62
7
  6
CONTINUOUS
 10
149.2321024371
 20
252.8986267585
  0
SEQEND
  0
LINE
  8
0
 62
7
  6
CONTINUOUS
 10
141.4523244407
 20
211.7308139535
 11
148.5523244407
 21
211.7308139535
  0
LINE
  8
0
 62
7
  6
CONTINUOUS
 10
148.5523244407
 20
217.7308139535
 11
141.4523244407
 21
217.7308139535
  0
LINE
  8
0
 62
7
  6
CONTINUOUS
 10
141.4523244407
 20
224.4308139535
 11
148.5523244407
 21
224.4308139535
  0
LINE
  8
0
 62
7
  6
CONTINUOUS
 10
148.5523244407
 20
230.4308139535
 11
141.4523244407
 21
230.4308139535
  0
LINE
  8
0
 62
7
  6
CONTINUOUS
 10
141.4523244407
 20
237.1308139535
 11
148.5523244407
 21
237.1308139535
  0
LINE
  8
0
 62
7
  6
CONTINUOUS
 10
148.5523244407
 20
243.1308139535
 11
141.4523244407
 21
243.1308139535
  0
LINE
  8
0
 62
7
  6
CONTINUOUS
 10
144.6023424136
 20
243.8308139535
 11
145.4023064678
 21
243.8308139535
  0
LINE
  8
0
 62
7
  6
CONTINUOUS
 10
148.5523244407
 20
249.8308139535
 11
141.4523244407
 21
249.8308139535
  0
LINE
  8
0
 62
7
  6
CONTINUOUS
 10
141.4523244407
 20
250.5808139535
 11
148.5523244407
 21
250.5808139535
  0
LINE
  8
0
 62
7
  6
CONTINUOUS
 10
148.5523244407
 20
255.8308139535
 11
141.4523244407
 21
255.8308139535
  0
LINE
  8
0
 62
7
  6
CONTINUOUS
 10
144.6023424136
 20
256.5308139535
 11
145.4023064678
 21
256.5308139535
  0
LINE
  8
0
 62
7
  6
CONTINUOUS
 10
141.4523244407
 20
262.1808139535
 11
148.5523244407
 21
262.1808139535
  0
LINE
  8
2_FEATURE
 62
7
  6
CONTINUOUS
 10
142.3865071688
 20
262.1808139535
 11
147.6181417126
 21
262.1808139535
  0
LINE
  8
1_AXIS
 62
2
  6
CONTINUOUS
 10
60.7837209302
 20
71.7218616058
 11
60.7837209302
 21
69.9618616058
  0
LINE
  8
1_AXIS
 62
2
  6
CENTER
 10
60.7837209302
 20
66.4418616058
 11
60.7837209302
 21
66.2418616058
  0
LINE
  8
1_AXIS
 62
2
  6
CENTER
 10
60.7837209302
 20
75.2418616058
 11
60.7837209302
 21
75.4418616058
  0
LINE
  8
0
 62
7
  6
CONTINUOUS
 10
86.3337209302
 20
66.4418616058
 11
60.6337209302
 21
66.4418616058
  0
LINE
  8
1_AXIS
 62
2
  6
CENTER
 10
73.4837209302
 20
64.2961181515
 11
73.4837209302
 21
77.8418616058
  0
LINE
  8
1_AXIS
 62
2
  6
CONTINUOUS
 10
87.0637209302
 20
70.8418616058
 11
85.3037209302
 21
70.8418616058
  0
LINE
  8
1_AXIS
 62
2
  6
CENTER
 10
81.7837209302
 20
70.8418616058
 11
81.5837209302
 21
70.8418616058
  0
LINE
  8
1_AXIS
 62
2
  6
CONTINUOUS
 10
61.6637209302
 20
70.8418616058
 11
59.9037209302
 21
70.8418616058
  0
LINE
  8
1_AXIS
 62
2
  6
CENTER
 10
56.3837209302
 20
70.8418616058
 11
56.1837209302
 21
70.8418616058
  0
LINE
  8
1_AXIS
 62
2
  6
CENTER
 10
65.1837209302
 20
70.8418616058
 11
65.3837209302
 21
70.8418616058
  0
LINE
  8
1_AXIS
 62
2
  6
CENTER
 10
90.5837209302
 20
70.8418616058
 11
90.7837209302
 21
70.8418616058
  0
LINE
  8
0
 62
7
  6
CONTINUOUS
 10
60.6337209302
 20
75.2418616058
 11
86.3337209302
 21
75.2418616058
  0
LINE
  8
1_AXIS
 62
2
  6
CONTINUOUS
 10
86.1837209302
 20
71.7218616058
 11
86.1837209302
 21
69.9618616058
  0
LINE
  8
1_AXIS
 62
2
  6
CENTER
 10
86.1837209302
 20
66.4418616058
 11
86.1837209302
 21
66.2418616058
  0
LINE
  8
1_AXIS
 62
2
  6
CENTER
 10
86.1837209302
 20
75.2418616058
 11
86.1837209302
 21
75.4418616058
  0
ARC
  8
0
 62
7
  6
CONTINUOUS
 10
63.501326779
 20
131.2838316629
 40
2.5
 50
281.1254404366
 51
315.4760710954
  0
ARC
  8
0
 62
7
  6
CONTINUOUS
 10
63.501326779
 20
118.5838316629
 40
2.5
 50
281.1254404366
 51
315.4760710954
  0
ARC
  8
0
 62
7
  6
CONTINUOUS
 10
57.0837209302
 20
110.9808139535
 40
0.85
 50
180.0
 51
270.0000000258
  0
ARC
  8
0
 62
7
  6
CONTINUOUS
 10
57.0837209302
 20
124.4308139535
 40
0.85
 50
180.0
 51
270.0000000258
  0
ARC
  8
0
 62
7
  6
CONTINUOUS
 10
57.0837209302
 20
115.2808139535
 40
0.85
 50
89.9999999742
 51
180.0
  0
ARC
  8
0
 62
7
  6
CONTINUOUS
 10
57.0837209302
 20
127.9808139535
 40
0.85
 50
89.9999999742
 51
180.0
  0
ARC
  8
0
 62
7
  6
CONTINUOUS
 10
57.0837209302
 20
136.3808139535
 40
0.85
 50
180.0
 51
270.0000000258
  0
ARC
  8
0
 62
7
  6
CONTINUOUS
 10
57.0837209302
 20
140.6808139535
 40
0.85
 50
89.9999999742
 51
180.0
  0
ARC
  8
0
 62
7
  6
CONTINUOUS
 10
63.8908882495
 20
123.3308139535
 40
0.25
 50
18.553004413
 51
89.9999994921
  0
ARC
  8
0
 62
7
  6
CONTINUOUS
 10
57.0837209302
 20
149.0808139535
 40
0.85
 50
180.0
 51
270.0000000258
  0
ARC
  8
0
 62
7
  6
CONTINUOUS
 10
57.0837209302
 20
153.3808139535
 40
0.85
 50
89.9999999742
 51
180.0
  0
ARC
  8
0
 62
7
  6
CONTINUOUS
 10
57.0837209302
 20
161.7808139535
 40
0.85
 50
180.0
 51
270.0000000258
  0
ARC
  8
0
 62
7
  6
CONTINUOUS
 10
57.0837209302
 20
166.0808139535
 40
0.85
 50
89.9999999742
 51
180.0
  0
ARC
  8
0
 62
7
  6
CONTINUOUS
 10
57.0837209302
 20
174.4808139535
 40
0.85
 50
180.0
 51
270.0000000258
  0
ARC
  8
0
 62
7
  6
CONTINUOUS
 10
57.0837209302
 20
178.7808139535
 40
0.85
 50
89.9999999742
 51
180.0
  0
ARC
  8
0
 62
7
  6
CONTINUOUS
 10
67.8661150815
 20
131.2838316629
 40
2.5
 50
224.5239289046
 51
258.8745595634
  0
ARC
  8
0
 62
7
  6
CONTINUOUS
 10
67.8661150815
 20
118.5838316629
 40
2.5
 50
224.5239289046
 51
258.8745595634
  0
ARC
  8
0
 62
7
  6
CONTINUOUS
 10
64.9337209302
 20
123.6808139535
 40
0.85
 50
198.5530045709
 51
270.0
  0
ARC
  8
0
 62
7
  6
CONTINUOUS
 10
71.2457443514
 20
121.8308139535
 40
1.0
 50
49.783
 51
90.0
  0
ARC
  8
0
 62
7
  6
CONTINUOUS
 10
70.4537209302
 20
129.0808139535
 40
0.25
 50
270.0000006709
 51
360.0
  0
ARC
  8
0
 62
7
  6
CONTINUOUS
 10
70.4537209302
 20
116.3808139535
 40
0.25
 50
270.0000006709
 51
360.0
  0
ARC
  8
0
 62
7
  6
CONTINUOUS
 10
70.4537209302
 20
122.5808139535
 40
0.25
 50
0.0
 51
89.9999993292
  0
ARC
  8
0
 62
7
  6
CONTINUOUS
 10
71.2457443514
 20
147.2308139535
 40
1.0
 50
49.783
 51
90.0
  0
ARC
  8
0
 62
7
  6
CONTINUOUS
 10
71.2457443514
 20
134.5308139535
 40
1.0
 50
49.783
 51
90.0
  0
ARC
  8
0
 62
7
  6
CONTINUOUS
 10
70.4537209302
 20
147.9808139535
 40
0.25
 50
0.0
 51
89.9999993292
  0
ARC
  8
0
 62
7
  6
CONTINUOUS
 10
70.4537209302
 20
141.7808139535
 40
0.25
 50
270.0000006709
 51
360.0
  0
ARC
  8
0
 62
7
  6
CONTINUOUS
 10
70.4537209302
 20
135.2808139535
 40
0.25
 50
0.0
 51
89.9999993292
  0
ARC
  8
0
 62
7
  6
CONTINUOUS
 10
71.2457443514
 20
185.3308139535
 40
1.0
 50
49.783
 51
90.0
  0
ARC
  8
0
 62
7
  6
CONTINUOUS
 10
71.2457443514
 20
172.6308139535
 40
1.0
 50
49.783
 51
90.0
  0
ARC
  8
0
 62
7
  6
CONTINUOUS
 10
71.2457443514
 20
159.9308139535
 40
1.0
 50
49.783
 51
90.0
  0
ARC
  8
0
 62
7
  6
CONTINUOUS
 10
70.4537209302
 20
186.0808139535
 40
0.25
 50
0.0
 51
89.9999993292
  0
ARC
  8
0
 62
7
  6
CONTINUOUS
 10
70.4537209302
 20
179.8808139535
 40
0.25
 50
270.0000006709
 51
360.0
  0
ARC
  8
0
 62
7
  6
CONTINUOUS
 10
70.4537209302
 20
173.3808139535
 40
0.25
 50
0.0
 51
89.9999993292
  0
ARC
  8
0
 62
7
  6
CONTINUOUS
 10
70.4537209302
 20
167.1808139535
 40
0.25
 50
270.0000006709
 51
360.0
  0
ARC
  8
0
 62
7
  6
CONTINUOUS
 10
70.4537209302
 20
160.6808139535
 40
0.25
 50
0.0
 51
89.9999993292
  0
ARC
  8
0
 62
7
  6
CONTINUOUS
 10
70.4537209302
 20
154.4808139535
 40
0.25
 50
270.0000006709
 51
360.0
  0
ARC
  8
0
 62
7
  6
CONTINUOUS
 10
57.0837209302
 20
187.1808139535
 40
0.85
 50
180.0
 51
270.0000000258
  0
ARC
  8
0
 62
7
  6
CONTINUOUS
 10
57.0837209302
 20
191.4808139535
 40
0.85
 50
89.9999999742
 51
180.0
  0
ARC
  8
0
 62
7
  6
CONTINUOUS
 10
57.0837209302
 20
199.8808139535
 40
0.85
 50
180.0
 51
270.0000000258
  0
ARC
  8
0
 62
7
  6
CONTINUOUS
 10
57.0837209302
 20
204.1808139535
 40
0.85
 50
89.9999999742
 51
180.0
  0
ARC
  8
0
 62
7
  6
CONTINUOUS
 10
57.0837209302
 20
212.5808139535
 40
0.85
 50
180.0
 51
270.0000000258
  0
ARC
  8
0
 62
7
  6
CONTINUOUS
 10
57.0837209302
 20
216.8808139535
 40
0.85
 50
89.9999999742
 51
180.0
  0
ARC
  8
0
 62
7
  6
CONTINUOUS
 10
63.501326779
 20
258.2838316629
 40
2.5
 50
281.1254404366
 51
315.4760710954
  0
ARC
  8
0
 62
7
  6
CONTINUOUS
 10
63.501326779
 20
245.5838316629
 40
2.5
 50
281.1254404366
 51
315.4760710954
  0
ARC
  8
0
 62
7
  6
CONTINUOUS
 10
57.0837209302
 20
254.9808139535
 40
0.85
 50
89.9999999742
 51
180.0
  0
ARC
  8
0
 62
7
  6
CONTINUOUS
 10
57.0837209302
 20
251.4308139535
 40
0.85
 50
180.0
 51
270.0000000258
  0
ARC
  8
0
 62
7
  6
CONTINUOUS
 10
57.0837209302
 20
225.2808139535
 40
0.85
 50
180.0
 51
270.0000000258
  0
ARC
  8
0
 62
7
  6
CONTINUOUS
 10
57.0837209302
 20
229.5808139535
 40
0.85
 50
89.9999999742
 51
180.0
  0
ARC
  8
0
 62
7
  6
CONTINUOUS
 10
57.0837209302
 20
237.9808139535
 40
0.85
 50
180.0
 51
270.0000000258
  0
ARC
  8
0
 62
7
  6
CONTINUOUS
 10
57.0837209302
 20
242.2808139535
 40
0.85
 50
89.9999999742
 51
180.0
  0
ARC
  8
0
 62
7
  6
CONTINUOUS
 10
63.8908882495
 20
250.3308139535
 40
0.25
 50
18.553004413
 51
89.9999994921
  0
ARC
  8
0
 62
7
  6
CONTINUOUS
 10
71.2457443514
 20
223.4308139535
 40
1.0
 50
49.783
 51
90.0
  0
ARC
  8
0
 62
7
  6
CONTINUOUS
 10
71.2457443514
 20
210.7308139535
 40
1.0
 50
49.783
 51
90.0
  0
ARC
  8
0
 62
7
  6
CONTINUOUS
 10
71.2457443514
 20
198.0308139535
 40
1.0
 50
49.783
 51
90.0
  0
ARC
  8
0
 62
7
  6
CONTINUOUS
 10
70.4537209302
 20
217.9808139535
 40
0.25
 50
270.0000006709
 51
360.0
  0
ARC
  8
0
 62
7
  6
CONTINUOUS
 10
70.4537209302
 20
211.4808139535
 40
0.25
 50
0.0
 51
89.9999993292
  0
ARC
  8
0
 62
7
  6
CONTINUOUS
 10
70.4537209302
 20
205.2808139535
 40
0.25
 50
270.0000006709
 51
360.0
  0
ARC
  8
0
 62
7
  6
CONTINUOUS
 10
70.4537209302
 20
198.7808139535
 40
0.25
 50
0.0
 51
89.9999993292
  0
ARC
  8
0
 62
7
  6
CONTINUOUS
 10
70.4537209302
 20
192.5808139535
 40
0.25
 50
270.0000006709
 51
360.0
  0
ARC
  8
0
 62
7
  6
CONTINUOUS
 10
67.8661150815
 20
258.2838316629
 40
2.5
 50
224.5239289046
 51
258.8745595634
  0
ARC
  8
0
 62
7
  6
CONTINUOUS
 10
67.8661150815
 20
245.5838316629
 40
2.5
 50
224.5239289046
 51
258.8745595634
  0
ARC
  8
0
 62
7
  6
CONTINUOUS
 10
72.7037209302
 20
260.1808139535
 40
2.0
 50
90.0
 51
180.0000009511
  0
ARC
  8
0
 62
7
  6
CONTINUOUS
 10
71.2457443514
 20
248.8308139535
 40
1.0
 50
49.783
 51
90.0
  0
ARC
  8
0
 62
7
  6
CONTINUOUS
 10
71.2457443514
 20
236.1308139535
 40
1.0
 50
49.783
 51
90.0
  0
ARC
  8
0
 62
7
  6
CONTINUOUS
 10
64.9337209302
 20
250.6808139535
 40
0.85
 50
198.5530045709
 51
270.0
  0
ARC
  8
0
 62
7
  6
CONTINUOUS
 10
70.4537209302
 20
249.5808139535
 40
0.25
 50
0.0
 51
89.9999993292
  0
ARC
  8
0
 62
7
  6
CONTINUOUS
 10
70.4537209302
 20
243.3808139535
 40
0.25
 50
270.0000006709
 51
360.0
  0
ARC
  8
0
 62
7
  6
CONTINUOUS
 10
70.4537209302
 20
236.8808139535
 40
0.25
 50
0.0
 51
89.9999993292
  0
ARC
  8
0
 62
7
  6
CONTINUOUS
 10
70.4537209302
 20
230.6808139535
 40
0.25
 50
270.0000006709
 51
360.0
  0
ARC
  8
0
 62
7
  6
CONTINUOUS
 10
70.4537209302
 20
224.1808139535
 40
0.25
 50
0.0
 51
89.9999993292
  0
ARC
  8
0
 62
7
  6
CONTINUOUS
 10
79.101326779
 20
114.027796244
 40
2.5
 50
44.5239289046
 51
78.8745595634
  0
ARC
  8
0
 62
7
  6
CONTINUOUS
 10
79.101326779
 20
126.727796244
 40
2.5
 50
44.5239289046
 51
78.8745595634
  0
ARC
  8
0
 62
7
  6
CONTINUOUS
 10
74.2637209302
 20
112.1308139535
 40
2.0
 50
270.0
 51
0.0000009512
  0
ARC
  8
0
 62
7
  6
CONTINUOUS
 10
75.7216975091
 20
136.1808139535
 40
1.0
 50
229.783
 51
270.0
  0
ARC
  8
0
 62
7
  6
CONTINUOUS
 10
75.7216975091
 20
123.4808139535
 40
1.0
 50
229.783
 51
270.0
  0
ARC
  8
0
 62
7
  6
CONTINUOUS
 10
82.0337209302
 20
121.6308139535
 40
0.85
 50
18.5530045709
 51
90.0
  0
ARC
  8
0
 62
7
  6
CONTINUOUS
 10
76.5137209302
 20
122.7308139535
 40
0.25
 50
180.0
 51
269.9999993292
  0
ARC
  8
0
 62
7
  6
CONTINUOUS
 10
76.5137209302
 20
148.1308139535
 40
0.25
 50
180.0
 51
269.9999993292
  0
ARC
  8
0
 62
7
  6
CONTINUOUS
 10
76.5137209302
 20
135.4308139535
 40
0.25
 50
180.0
 51
269.9999993292
  0
ARC
  8
0
 62
7
  6
CONTINUOUS
 10
76.5137209302
 20
141.6308139535
 40
0.25
 50
90.0000006709
 51
180.0
  0
ARC
  8
0
 62
7
  6
CONTINUOUS
 10
76.5137209302
 20
128.9308139535
 40
0.25
 50
90.0000006709
 51
180.0
  0
ARC
  8
0
 62
7
  6
CONTINUOUS
 10
75.7216975091
 20
174.2808139535
 40
1.0
 50
229.783
 51
270.0
  0
ARC
  8
0
 62
7
  6
CONTINUOUS
 10
75.7216975091
 20
161.5808139535
 40
1.0
 50
229.783
 51
270.0
  0
ARC
  8
0
 62
7
  6
CONTINUOUS
 10
75.7216975091
 20
148.8808139535
 40
1.0
 50
229.783
 51
270.0
  0
ARC
  8
0
 62
7
  6
CONTINUOUS
 10
76.5137209302
 20
179.7308139535
 40
0.25
 50
90.0000006709
 51
180.0
  0
ARC
  8
0
 62
7
  6
CONTINUOUS
 10
76.5137209302
 20
173.5308139535
 40
0.25
 50
180.0
 51
269.9999993292
  0
ARC
  8
0
 62
7
  6
CONTINUOUS
 10
76.5137209302
 20
167.0308139535
 40
0.25
 50
90.0000006709
 51
180.0
  0
ARC
  8
0
 62
7
  6
CONTINUOUS
 10
76.5137209302
 20
160.8308139535
 40
0.25
 50
180.0
 51
269.9999993292
  0
ARC
  8
0
 62
7
  6
CONTINUOUS
 10
76.5137209302
 20
154.3308139535
 40
0.25
 50
90.0000006709
 51
180.0
  0
ARC
  8
0
 62
7
  6
CONTINUOUS
 10
83.4661150815
 20
114.027796244
 40
2.5
 50
101.1254404366
 51
135.4760710954
  0
ARC
  8
0
 62
7
  6
CONTINUOUS
 10
83.4661150815
 20
126.727796244
 40
2.5
 50
101.1254404366
 51
135.4760710954
  0
ARC
  8
0
 62
7
  6
CONTINUOUS
 10
89.8837209302
 20
120.8808139535
 40
0.85
 50
0.0
 51
90.0000000258
  0
ARC
  8
0
 62
7
  6
CONTINUOUS
 10
89.8837209302
 20
117.3308139535
 40
0.85
 50
269.9999999742
 51
360.0
  0
ARC
  8
0
 62
7
  6
CONTINUOUS
 10
89.8837209302
 20
130.0308139535
 40
0.85
 50
269.9999999742
 51
360.0
  0
ARC
  8
0
 62
7
  6
CONTINUOUS
 10
89.8837209302
 20
134.3308139535
 40
0.85
 50
0.0
 51
90.0000000258
  0
ARC
  8
0
 62
7
  6
CONTINUOUS
 10
89.8837209302
 20
142.7308139535
 40
0.85
 50
269.9999999742
 51
360.0
  0
ARC
  8
0
 62
7
  6
CONTINUOUS
 10
89.8837209302
 20
147.0308139535
 40
0.85
 50
0.0
 51
90.0000000258
  0
ARC
  8
0
 62
7
  6
CONTINUOUS
 10
83.076553611
 20
121.9808139535
 40
0.25
 50
198.553004413
 51
269.9999994921
  0
ARC
  8
0
 62
7
  6
CONTINUOUS
 10
89.8837209302
 20
155.4308139535
 40
0.85
 50
269.9999999742
 51
360.0
  0
ARC
  8
0
 62
7
  6
CONTINUOUS
 10
89.8837209302
 20
159.7308139535
 40
0.85
 50
0.0
 51
90.0000000258
  0
ARC
  8
0
 62
7
  6
CONTINUOUS
 10
89.8837209302
 20
168.1308139535
 40
0.85
 50
269.9999999742
 51
360.0
  0
ARC
  8
0
 62
7
  6
CONTINUOUS
 10
89.8837209302
 20
172.4308139535
 40
0.85
 50
0.0
 51
90.0000000258
  0
ARC
  8
0
 62
7
  6
CONTINUOUS
 10
89.8837209302
 20
180.8308139535
 40
0.85
 50
269.9999999742
 51
360.0
  0
ARC
  8
0
 62
7
  6
CONTINUOUS
 10
89.8837209302
 20
185.1308139535
 40
0.85
 50
0.0
 51
90.0000000258
  0
ARC
  8
0
 62
7
  6
CONTINUOUS
 10
75.7216975091
 20
212.3808139535
 40
1.0
 50
229.783
 51
270.0
  0
ARC
  8
0
 62
7
  6
CONTINUOUS
 10
75.7216975091
 20
199.6808139535
 40
1.0
 50
229.783
 51
270.0
  0
ARC
  8
0
 62
7
  6
CONTINUOUS
 10
75.7216975091
 20
186.9808139535
 40
1.0
 50
229.783
 51
270.0
  0
ARC
  8
0
 62
7
  6
CONTINUOUS
 10
76.5137209302
 20
211.6308139535
 40
0.25
 50
180.0
 51
269.9999993292
  0
ARC
  8
0
 62
7
  6
CONTINUOUS
 10
76.5137209302
 20
217.8308139535
 40
0.25
 50
90.0000006709
 51
180.0
  0
ARC
  8
0
 62
7
  6
CONTINUOUS
 10
76.5137209302
 20
205.1308139535
 40
0.25
 50
90.0000006709
 51
180.0
  0
ARC
  8
0
 62
7
  6
CONTINUOUS
 10
76.5137209302
 20
198.9308139535
 40
0.25
 50
180.0
 51
269.9999993292
  0
ARC
  8
0
 62
7
  6
CONTINUOUS
 10
76.5137209302
 20
192.4308139535
 40
0.25
 50
90.0000006709
 51
180.0
  0
ARC
  8
0
 62
7
  6
CONTINUOUS
 10
76.5137209302
 20
186.2308139535
 40
0.25
 50
180.0
 51
269.9999993292
  0
ARC
  8
0
 62
7
  6
CONTINUOUS
 10
75.7216975091
 20
237.7808139535
 40
1.0
 50
229.783
 51
270.0
  0
ARC
  8
0
 62
7
  6
CONTINUOUS
 10
75.7216975091
 20
225.0808139535
 40
1.0
 50
229.783
 51
270.0
  0
ARC
  8
0
 62
7
  6
CONTINUOUS
 10
76.5137209302
 20
237.0308139535
 40
0.25
 50
180.0
 51
269.9999993292
  0
ARC
  8
0
 62
7
  6
CONTINUOUS
 10
76.5137209302
 20
230.5308139535
 40
0.25
 50
90.0000006709
 51
180.0
  0
ARC
  8
0
 62
7
  6
CONTINUOUS
 10
76.5137209302
 20
224.3308139535
 40
0.25
 50
180.0
 51
269.9999993292
  0
ARC
  8
0
 62
7
  6
CONTINUOUS
 10
75.7216975091
 20
250.4808139535
 40
1.0
 50
229.783
 51
270.0
  0
ARC
  8
0
 62
7
  6
CONTINUOUS
 10
76.5137209302
 20
249.7308139535
 40
0.25
 50
180.0
 51
269.9999993292
  0
ARC
  8
0
 62
7
  6
CONTINUOUS
 10
76.5137209302
 20
255.9308139535
 40
0.25
 50
90.0000006709
 51
180.0
  0
ARC
  8
0
 62
7
  6
CONTINUOUS
 10
76.5137209302
 20
243.2308139535
 40
0.25
 50
90.0000006709
 51
180.0
  0
ARC
  8
0
 62
7
  6
CONTINUOUS
 10
79.101326779
 20
241.027796244
 40
2.5
 50
44.5239289046
 51
78.8745595634
  0
ARC
  8
0
 62
7
  6
CONTINUOUS
 10
79.101326779
 20
253.727796244
 40
2.5
 50
44.5239289046
 51
78.8745595634
  0
ARC
  8
0
 62
7
  6
CONTINUOUS
 10
82.0337209302
 20
248.6308139535
 40
0.85
 50
18.5530045709
 51
90.0
  0
ARC
  8
0
 62
7
  6
CONTINUOUS
 10
89.8837209302
 20
193.5308139535
 40
0.85
 50
269.9999999742
 51
360.0
  0
ARC
  8
0
 62
7
  6
CONTINUOUS
 10
89.8837209302
 20
197.8308139535
 40
0.85
 50
0.0
 51
90.0000000258
  0
ARC
  8
0
 62
7
  6
CONTINUOUS
 10
89.8837209302
 20
206.2308139535
 40
0.85
 50
269.9999999742
 51
360.0
  0
ARC
  8
0
 62
7
  6
CONTINUOUS
 10
89.8837209302
 20
210.5308139535
 40
0.85
 50
0.0
 51
90.0000000258
  0
ARC
  8
0
 62
7
  6
CONTINUOUS
 10
89.8837209302
 20
218.9308139535
 40
0.85
 50
269.9999999742
 51
360.0
  0
ARC
  8
0
 62
7
  6
CONTINUOUS
 10
89.8837209302
 20
223.2308139535
 40
0.85
 50
0.0
 51
90.0000000258
  0
ARC
  8
0
 62
7
  6
CONTINUOUS
 10
83.4661150815
 20
241.027796244
 40
2.5
 50
101.1254404366
 51
135.4760710954
  0
ARC
  8
0
 62
7
  6
CONTINUOUS
 10
83.4661150815
 20
253.727796244
 40
2.5
 50
101.1254404366
 51
135.4760710954
  0
ARC
  8
0
 62
7
  6
CONTINUOUS
 10
89.8837209302
 20
261.3308139535
 40
0.85
 50
0.0
 51
90.0000000258
  0
ARC
  8
0
 62
7
  6
CONTINUOUS
 10
89.8837209302
 20
247.8808139535
 40
0.85
 50
0.0
 51
90.0000000258
  0
ARC
  8
0
 62
7
  6
CONTINUOUS
 10
89.8837209302
 20
231.6308139535
 40
0.85
 50
269.9999999742
 51
360.0
  0
ARC
  8
0
 62
7
  6
CONTINUOUS
 10
89.8837209302
 20
235.9308139535
 40
0.85
 50
0.0
 51
90.0000000258
  0
ARC
  8
0
 62
7
  6
CONTINUOUS
 10
89.8837209302
 20
244.3308139535
 40
0.85
 50
269.9999999742
 51
360.0
  0
ARC
  8
0
 62
7
  6
CONTINUOUS
 10
89.8837209302
 20
257.0308139535
 40
0.85
 50
269.9999999742
 51
360.0
  0
ARC
  8
0
 62
7
  6
CONTINUOUS
 10
83.076553611
 20
248.9808139535
 40
0.25
 50
198.553004413
 51
269.9999994921
  0
ARC
  8
0
 62
7
  6
CONTINUOUS
 10
141.4523244407
 20
140.6808139535
 40
0.85
 50
90.0
 51
180.0
  0
ARC
  8
0
 62
7
  6
CONTINUOUS
 10
141.4523244407
 20
136.3808139535
 40
0.85
 50
180.0
 51
270.0
  0
ARC
  8
0
 62
7
  6
CONTINUOUS
 10
141.4523244407
 20
127.9808139535
 40
0.85
 50
90.0
 51
180.0
  0
ARC
  8
0
 62
7
  6
CONTINUOUS
 10
141.4523244407
 20
115.2808139535
 40
0.85
 50
90.0
 51
180.0
  0
ARC
  8
0
 62
7
  6
CONTINUOUS
 10
141.4523244407
 20
124.4308139535
 40
0.85
 50
180.0
 51
270.0
  0
ARC
  8
0
 62
7
  6
CONTINUOUS
 10
141.4523244407
 20
110.9808139535
 40
0.85
 50
180.0
 51
270.0
  0
ARC
  8
0
 62
7
  6
CONTINUOUS
 10
141.4523244407
 20
123.6808139535
 40
0.85
 50
180.0
 51
270.0
  0
ARC
  8
0
 62
7
  6
CONTINUOUS
 10
141.4523244407
 20
178.7808139535
 40
0.85
 50
90.0
 51
180.0
  0
ARC
  8
0
 62
7
  6
CONTINUOUS
 10
141.4523244407
 20
174.4808139535
 40
0.85
 50
180.0
 51
270.0
  0
ARC
  8
0
 62
7
  6
CONTINUOUS
 10
141.4523244407
 20
166.0808139535
 40
0.85
 50
90.0
 51
180.0
  0
ARC
  8
0
 62
7
  6
CONTINUOUS
 10
141.4523244407
 20
161.7808139535
 40
0.85
 50
180.0
 51
270.0
  0
ARC
  8
0
 62
7
  6
CONTINUOUS
 10
141.4523244407
 20
153.3808139535
 40
0.85
 50
90.0
 51
180.0
  0
ARC
  8
0
 62
7
  6
CONTINUOUS
 10
141.4523244407
 20
149.0808139535
 40
0.85
 50
180.0
 51
270.0
  0
ARC
  8
0
 62
7
  6
CONTINUOUS
 10
142.8199302895
 20
131.2838316629
 40
2.5
 50
281.1254404366
 51
315.4760710954
  0
ARC
  8
0
 62
7
  6
CONTINUOUS
 10
142.8199302895
 20
118.5838316629
 40
2.5
 50
281.1254404366
 51
315.4760710954
  0
ARC
  8
0
 62
7
  6
CONTINUOUS
 10
141.4523244407
 20
216.8808139535
 40
0.85
 50
90.0
 51
180.0
  0
ARC
  8
0
 62
7
  6
CONTINUOUS
 10
141.4523244407
 20
212.5808139535
 40
0.85
 50
180.0
 51
270.0
  0
ARC
  8
0
 62
7
  6
CONTINUOUS
 10
141.4523244407
 20
204.1808139535
 40
0.85
 50
90.0
 51
180.0
  0
ARC
  8
0
 62
7
  6
CONTINUOUS
 10
141.4523244407
 20
199.8808139535
 40
0.85
 50
180.0
 51
270.0
  0
ARC
  8
0
 62
7
  6
CONTINUOUS
 10
141.4523244407
 20
191.4808139535
 40
0.85
 50
90.0
 51
180.0
  0
ARC
  8
0
 62
7
  6
CONTINUOUS
 10
141.4523244407
 20
187.1808139535
 40
0.85
 50
180.0
 51
270.0
  0
ARC
  8
0
 62
7
  6
CONTINUOUS
 10
141.4523244407
 20
242.2808139535
 40
0.85
 50
90.0
 51
180.0
  0
ARC
  8
0
 62
7
  6
CONTINUOUS
 10
141.4523244407
 20
237.9808139535
 40
0.85
 50
180.0
 51
270.0
  0
ARC
  8
0
 62
7
  6
CONTINUOUS
 10
141.4523244407
 20
229.5808139535
 40
0.85
 50
90.0
 51
180.0
  0
ARC
  8
0
 62
7
  6
CONTINUOUS
 10
141.4523244407
 20
225.2808139535
 40
0.85
 50
180.0
 51
270.0
  0
ARC
  8
0
 62
7
  6
CONTINUOUS
 10
141.4523244407
 20
251.4308139535
 40
0.85
 50
180.0
 51
270.0
  0
ARC
  8
0
 62
7
  6
CONTINUOUS
 10
141.4523244407
 20
254.9808139535
 40
0.85
 50
90.0
 51
180.0
  0
ARC
  8
0
 62
7
  6
CONTINUOUS
 10
141.4523244407
 20
261.3308139535
 40
0.85
 50
90.0
 51
180.0
  0
ARC
  8
0
 62
7
  6
CONTINUOUS
 10
141.4523244407
 20
250.6808139535
 40
0.85
 50
180.0
 51
270.0
  0
ARC
  8
0
 62
7
  6
CONTINUOUS
 10
142.8199302895
 20
258.2838316629
 40
2.5
 50
281.1254404366
 51
315.4760710954
  0
ARC
  8
0
 62
7
  6
CONTINUOUS
 10
142.8199302895
 20
245.5838316629
 40
2.5
 50
281.1254404366
 51
315.4760710954
  0
ARC
  8
0
 62
7
  6
CONTINUOUS
 10
147.1847185919
 20
131.2838316629
 40
2.5
 50
224.5239289046
 51
258.8745595634
  0
ARC
  8
0
 62
7
  6
CONTINUOUS
 10
147.1847185919
 20
118.5838316629
 40
2.5
 50
224.5239289046
 51
258.8745595634
  0
ARC
  8
0
 62
7
  6
CONTINUOUS
 10
148.5523244407
 20
178.7808139535
 40
0.85
 50
0.0
 51
90.0
  0
ARC
  8
0
 62
7
  6
CONTINUOUS
 10
148.5523244407
 20
174.4808139535
 40
0.85
 50
270.0
 51
360.0
  0
ARC
  8
0
 62
7
  6
CONTINUOUS
 10
148.5523244407
 20
166.0808139535
 40
0.85
 50
0.0
 51
90.0
  0
ARC
  8
0
 62
7
  6
CONTINUOUS
 10
148.5523244407
 20
161.7808139535
 40
0.85
 50
270.0
 51
360.0
  0
ARC
  8
0
 62
7
  6
CONTINUOUS
 10
148.5523244407
 20
153.3808139535
 40
0.85
 50
0.0
 51
90.0
  0
ARC
  8
0
 62
7
  6
CONTINUOUS
 10
148.5523244407
 20
149.0808139535
 40
0.85
 50
270.0
 51
360.0
  0
ARC
  8
0
 62
7
  6
CONTINUOUS
 10
148.5523244407
 20
140.6808139535
 40
0.85
 50
0.0
 51
90.0
  0
ARC
  8
0
 62
7
  6
CONTINUOUS
 10
148.5523244407
 20
136.3808139535
 40
0.85
 50
270.0
 51
360.0
  0
ARC
  8
0
 62
7
  6
CONTINUOUS
 10
148.5523244407
 20
127.9808139535
 40
0.85
 50
0.0
 51
90.0
  0
ARC
  8
0
 62
7
  6
CONTINUOUS
 10
148.5523244407
 20
115.2808139535
 40
0.85
 50
0.0
 51
90.0
  0
ARC
  8
0
 62
7
  6
CONTINUOUS
 10
148.5523244407
 20
124.4308139535
 40
0.85
 50
270.0
 51
360.0
  0
ARC
  8
0
 62
7
  6
CONTINUOUS
 10
148.5523244407
 20
110.9808139535
 40
0.85
 50
270.0
 51
360.0
  0
ARC
  8
0
 62
7
  6
CONTINUOUS
 10
148.5523244407
 20
123.6808139535
 40
0.85
 50
270.0
 51
360.0
  0
ARC
  8
0
 62
7
  6
CONTINUOUS
 10
147.1847185919
 20
258.2838316629
 40
2.5
 50
224.5239289046
 51
258.8745595634
  0
ARC
  8
0
 62
7
  6
CONTINUOUS
 10
147.1847185919
 20
245.5838316629
 40
2.5
 50
224.5239289046
 51
258.8745595634
  0
ARC
  8
0
 62
7
  6
CONTINUOUS
 10
148.5523244407
 20
242.2808139535
 40
0.85
 50
0.0
 51
90.0
  0
ARC
  8
0
 62
7
  6
CONTINUOUS
 10
148.5523244407
 20
237.9808139535
 40
0.85
 50
270.0
 51
360.0
  0
ARC
  8
0
 62
7
  6
CONTINUOUS
 10
148.5523244407
 20
229.5808139535
 40
0.85
 50
0.0
 51
90.0
  0
ARC
  8
0
 62
7
  6
CONTINUOUS
 10
148.5523244407
 20
225.2808139535
 40
0.85
 50
270.0
 51
360.0
  0
ARC
  8
0
 62
7
  6
CONTINUOUS
 10
148.5523244407
 20
216.8808139535
 40
0.85
 50
0.0
 51
90.0
  0
ARC
  8
0
 62
7
  6
CONTINUOUS
 10
148.5523244407
 20
212.5808139535
 40
0.85
 50
270.0
 51
360.0
  0
ARC
  8
0
 62
7
  6
CONTINUOUS
 10
148.5523244407
 20
204.1808139535
 40
0.85
 50
0.0
 51
90.0
  0
ARC
  8
0
 62
7
  6
CONTINUOUS
 10
148.5523244407
 20
199.8808139535
 40
0.85
 50
270.0
 51
360.0
  0
ARC
  8
0
 62
7
  6
CONTINUOUS
 10
148.5523244407
 20
191.4808139535
 40
0.85
 50
0.0
 51
90.0
  0
ARC
  8
0
 62
7
  6
CONTINUOUS
 10
148.5523244407
 20
187.1808139535
 40
0.85
 50
270.0
 51
360.0
  0
ARC
  8
0
 62
7
  6
CONTINUOUS
 10
148.5523244407
 20
251.4308139535
 40
0.85
 50
270.0
 51
360.0
  0
ARC
  8
0
 62
7
  6
CONTINUOUS
 10
148.5523244407
 20
254.9808139535
 40
0.85
 50
0.0
 51
90.0
  0
ARC
  8
0
 62
7
  6
CONTINUOUS
 10
148.5523244407
 20
261.3308139535
 40
0.85
 50
0.0
 51
90.0
  0
ARC
  8
0
 62
7
  6
CONTINUOUS
 10
148.5523244407
 20
250.6808139535
 40
0.85
 50
270.0
 51
360.0
  0
ARC
  8
0
 62
7
  6
CONTINUOUS
 10
86.3337209302
 20
70.8418616058
 40
4.4
 50
270.0
 51
90.0
  0
ARC
  8
0
 62
7
  6
CONTINUOUS
 10
60.6337209302
 20
70.8418616058
 40
4.4
 50
90.0
 51
270.0
  0
ARC
  8
0
 62
7
  6
CONTINUOUS
 10
75.1037209302
 20
70.8418616058
 40
4.4
 50
90.0
 51
270.0
  0
CIRCLE
  8
1_AXIS
 62
7
  6
CONTINUOUS
 10
86.1837209302
 20
70.8418616058
 40
2.6
  0
CIRCLE
  8
1_AXIS
 62
7
  6
CONTINUOUS
 10
60.7837209302
 20
70.8418616058
 40
2.6
  0
CIRCLE
  8
0
 62
7
  6
CONTINUOUS
 10
65.6837209302
 20
70.8418616058
 40
1.7
  0
CIRCLE
  8
0
 62
7
  6
CONTINUOUS
 10
65.6837209302
 20
70.8418616058
 40
0.4
  0
ENDSEC
  0
EOF
