  0
SECTION
  2
HEADER
  9
$EXTMAX
 10
210.0
 20
297.0
 30
0.0
  9
$EXTMIN
 10
0.0
 20
0.0
 30
0.0
  9
$LIMMIN
 10
0.0
 20
0.0
  9
$LIMMAX
 10
210.0
 20
297.0
  9
$VIEWCTR
 10
105.0
 20
148.5
  9
$VIEWSIZE
 40
297.0
  9
$CLAYER
  8
0
  9
$LTSCALE
 40
19.36
  9
$CELTYPE
  6
BYLAYER
  9
$DIMSCALE
 40
1.0
  9
$DIMASZ
 40
3.5
  9
$DIMEXO
 40
2.2
  9
$DIMDLI
 40
13.376
  9
$DIMEXE
 40
6.336
  9
$DIMCEN
 40
3.168
  9
$DIMLFAC
 40
1.0
  9
$DIMBLK
  1
_FILLED
  9
$DIMTXT
 40
3.5
  9
$PDMODE
 70
3
  9
$PDSIZE
 40
0.3125
  9
$TILEMODE
 70
1
  0
ENDSEC
  0
SECTION
  2
TABLES
  0
TABLE
  2
LTYPE
 70
6
  0
LTYPE
  2
BYBLOCK
 70
0
  3

 72
65
 73
0
 40
0.0
  0
LTYPE
  2
BYLAYER
 70
0
  3

 72
65
 73
0
 40
0.0
  0
LTYPE
  2
CONTINUOUS
 70
64
  3
Solid line
 72
65
 73
0
 40
0.0
  0
LTYPE
  2
CENTER
 70
64
  3
____ _ ____ _ ____ _ ____ _ ____ _ ____ _ ____
 72
65
 73
4
 40
0.6
 49
0.375
 49
-0.075
 49
0.075
 49
-0.075
  0
LTYPE
  2
HIDDEN
 70
64
  3
- - - - - - - - - - - - - - - - - - - -
 72
65
 73
2
 40
0.2
 49
0.1
 49
-0.1
  0
LTYPE
  2
PHANTOM
 70
64
  3
_____ _ _ _____ _ _ _____ _ _ _____
 72
65
 73
6
 40
0.8
 49
0.45
 49
-0.05
 49
0.1
 49
-0.05
 49
0.1
 49
-0.05
  0
LTYPE
  2
DOT
 70
64
  3
. . . . . . . . . . . . . . . . . . . .
 72
65
 73
2
 40
0.2
 49
0.1
 49
-0.1
  0
LTYPE
  2
DASHED
 70
64
  3
- - - - - - - - - - - - - - - - - - - -
 72
65
 73
2
 40
0.2
 49
0.1
 49
-0.1
  0
ENDTAB
  0
TABLE
  2
LAYER
 70
36
  0
LAYER
  2
0
 70
0
 62
7
  6
CONTINUOUS
  0
LAYER
  2
DEFAULT_1
 70
0
 62
7
  6
CENTER
  0
LAYER
  2
DEFAULT_2
 70
0
 62
8
  6
HIDDEN
  0
LAYER
  2
DEFAULT_3
 70
0
 62
7
  6
PHANTOM
  0
LAYER
  2
1_AXIS
 70
0
 62
7
  6
CONTINUOUS
  0
LAYER
  2
1_DATUMPLANE
 70
0
 62
7
  6
CONTINUOUS
  0
LAYER
  2
1_DATUM_PLANES
 70
0
 62
7
  6
CONTINUOUS
  0
LAYER
  2
2_FEATURE
 70
0
 62
7
  6
CONTINUOUS
  0
LAYER
  2
4_CURVE
 70
0
 62
7
  6
CONTINUOUS
  0
LAYER
  2
4_QUILT
 70
0
 62
7
  6
CONTINUOUS
  0
LAYER
  2
6_DIM
 70
0
 62
7
  6
CONTINUOUS
  0
LAYER
  2
CSYS
 70
0
 62
7
  6
CONTINUOUS
  0
LAYER
  2
SURFACE
 70
0
 62
7
  6
CONTINUOUS
  0
ENDTAB
  0
TABLE
  2
STYLE
 70
1
  0
STYLE
  2
STANDARD
 70
0
 40
0.0
 41
0.8
 50
0.0
 71
0
 42
0.2
  3
txt
  4

  0
STYLE
  2
TEXTSTYLE_1
 70
0
 40
0.0
 41
0.8
 50
0.0
 71
0
 42
0.2
  3
gdt
  4

  0
STYLE
  2
TEXTSTYLE_2
 70
0
 40
0.0
 41
0.6
 50
0.0
 71
0
 42
0.2
  3
txt
  4

  0
STYLE
  2
TEXTSTYLE_3
 70
0
 40
0.0
 41
1.0
 50
0.0
 71
0
 42
0.2
  3
ftb_____.ttf
  4

  0
STYLE
  2
TEXTSTYLE_4
 70
0
 40
0.0
 41
1.0
 50
0.0
 71
0
 42
0.2
  3
fti_____.ttf
  4

  0
STYLE
  2
TEXTSTYLE_5
 70
0
 40
0.0
 41
1.0
 50
0.0
 71
0
 42
0.2
  3
frutiger light.ttf
  4

  0
STYLE
  2
TEXTSTYLE_6
 70
0
 40
0.0
 41
0.7
 50
0.0
 71
0
 42
0.2
  3
txt
  4

  0
STYLE
  2
TEXTSTYLE_7
 70
0
 40
0.0
 41
0.43
 50
0.0
 71
0
 42
0.2
  3
txt
  4

  0
ENDTAB
  0
ENDSEC
  0
SECTION
  2
BLOCKS
  0
BLOCK
  8
0
 62
2
  6
CONTINUOUS
  2
SYMBOL_8_BL1
 70
64
 10
173.5956734183
 20
35.5937998301
  0
TEXT
  8
0
 62
7
  6
CONTINUOUS
 10
164.6539584268
 20
30.6865562072
  7
TEXTSTYLE_4
 40
1.0655737705
  1
The brand for plastic modular belts and chains
 41
1.0
 72
0
  0
LINE
  8
0
 62
7
  6
CONTINUOUS
 10
149.5737418074
 20
36.1675703219
 11
149.5737418074
 21
34.0364227809
  0
LINE
  8
0
 62
7
  6
CONTINUOUS
 10
149.8628043005
 20
31.0454914852
 11
149.8628043005
 21
31.1422825445
  0
LINE
  8
0
 62
7
  6
CONTINUOUS
 10
149.5737418074
 20
31.1100188581
 11
149.6315543091
 21
30.9164367395
  0
LINE
  8
0
 62
7
  6
CONTINUOUS
 10
150.9671844304
 20
33.9544555678
 11
150.9671844304
 21
36.1675703219
  0
LINE
  8
0
 62
7
  6
CONTINUOUS
 10
151.8862417523
 20
32.1101932727
 11
151.8862417523
 21
30.5937998301
  0
LINE
  8
0
 62
7
  6
CONTINUOUS
 10
152.1753043074
 20
30.5937998301
 11
152.1753043074
 21
31.3358647082
  0
LINE
  8
0
 62
7
  6
CONTINUOUS
 10
152.1753043074
 20
31.4649194539
 11
152.1753043074
 21
32.1101932727
  0
LINE
  8
0
 62
7
  6
CONTINUOUS
 10
149.6315543091
 20
31.3036010218
 11
149.5737418074
 21
31.1100188581
  0
LINE
  8
0
 62
7
  6
CONTINUOUS
 10
149.9784292936
 20
30.8841730531
 11
149.8628043005
 21
31.0454914852
  0
LINE
  8
0
 62
7
  6
CONTINUOUS
 10
151.0768668626
 20
31.400392081
 11
151.1346793074
 21
31.3036010218
  0
LINE
  8
0
 62
7
  6
CONTINUOUS
 10
151.4237418626
 20
31.3036010218
 11
151.3659292523
 21
31.4326557675
  0
LINE
  8
0
 62
7
  6
CONTINUOUS
 10
152.852430332
 20
36.1675703219
 11
152.852430332
 21
34.3642916334
  0
LINE
  8
0
 62
7
  6
CONTINUOUS
 10
152.852430332
 20
33.0528162235
 11
152.852430332
 21
32.3970785186
  0
LINE
  8
0
 62
7
  6
CONTINUOUS
 10
153.2159293074
 20
31.2390736489
 11
153.2159293074
 21
30.5937998301
  0
LINE
  8
0
 62
7
  6
CONTINUOUS
 10
153.5049916972
 20
30.5937998301
 11
153.5049916972
 21
31.2390736489
  0
LINE
  8
0
 62
7
  6
CONTINUOUS
 10
149.8628043005
 20
31.1422825445
 11
149.9206168074
 21
31.2713373354
  0
LINE
  8
0
 62
7
  6
CONTINUOUS
 10
149.6315543091
 20
30.9164367395
 11
149.7471793074
 21
30.7873819712
  0
LINE
  8
0
 62
7
  6
CONTINUOUS
 10
153.1581166972
 20
31.3681283946
 11
153.2159293074
 21
31.2390736489
  0
LINE
  8
0
 62
7
  6
CONTINUOUS
 10
153.9674919177
 20
30.8841730531
 11
154.0253041972
 21
30.7551182848
  0
LINE
  8
0
 62
7
  6
CONTINUOUS
 10
153.5049916972
 20
31.2390736489
 11
153.4471794177
 21
31.400392081
  0
LINE
  8
0
 62
7
  6
CONTINUOUS
 10
153.9674919177
 20
31.4326557675
 11
153.9674919177
 21
31.3681283946
  0
LINE
  8
0
 62
7
  6
CONTINUOUS
 10
153.9674919177
 20
30.9809641124
 11
153.9674919177
 21
30.8841730531
  0
LINE
  8
0
 62
7
  6
CONTINUOUS
 10
154.245872955
 20
32.3970785186
 11
154.245872955
 21
36.1675703219
  0
LINE
  8
0
 62
7
  6
CONTINUOUS
 10
154.2565543074
 20
30.8519093441
 11
154.2565543074
 21
30.9164367395
  0
LINE
  8
0
 62
7
  6
CONTINUOUS
 10
154.5737418074
 20
36.1675703219
 11
154.5737418074
 21
32.3970785186
  0
LINE
  8
0
 62
7
  6
CONTINUOUS
 10
151.3659292523
 20
30.7873819712
 11
151.4237418626
 21
30.9164367395
  0
LINE
  8
0
 62
7
  6
CONTINUOUS
 10
155.759679528
 20
30.6905909007
 11
155.7018665869
 21
30.8519093441
  0
LINE
  8
0
 62
7
  6
CONTINUOUS
 10
155.412804528
 20
31.3681283946
 11
155.412804528
 21
31.2713373354
  0
LINE
  8
0
 62
7
  6
CONTINUOUS
 10
155.412804528
 20
31.1422825445
 11
155.412804528
 21
30.9487004259
  0
LINE
  8
0
 62
7
  6
CONTINUOUS
 10
155.7018665869
 20
30.8519093441
 11
155.7018665869
 21
31.3681283946
  0
LINE
  8
0
 62
7
  6
CONTINUOUS
 10
155.9671844304
 20
32.3970785186
 11
155.9671844304
 21
34.2003572071
  0
LINE
  8
0
 62
7
  6
CONTINUOUS
 10
155.9671844304
 20
35.511832617
 11
155.9671844304
 21
36.1675703219
  0
LINE
  8
0
 62
7
  6
CONTINUOUS
 10
156.279992028
 20
32.1101932727
 11
156.279992028
 21
31.9488748406
  0
LINE
  8
0
 62
7
  6
CONTINUOUS
 10
156.279992028
 20
31.626237886
 11
156.279992028
 21
30.5937998301
  0
LINE
  8
0
 62
7
  6
CONTINUOUS
 10
156.5690540869
 20
30.5937998301
 11
156.5690540869
 21
31.626237886
  0
LINE
  8
0
 62
7
  6
CONTINUOUS
 10
156.5690540869
 20
31.9488748406
 11
156.5690540869
 21
32.1101932727
  0
LINE
  8
0
 62
7
  6
CONTINUOUS
 10
151.1346793074
 20
30.9164367395
 11
151.0768668626
 21
30.8196456577
  0
LINE
  8
0
 62
7
  6
CONTINUOUS
 10
153.4471794177
 20
31.400392081
 11
153.3893668074
 21
31.4649194539
  0
LINE
  8
0
 62
7
  6
CONTINUOUS
 10
154.3143669177
 20
30.7873819712
 11
154.2565543074
 21
30.8519093441
  0
LINE
  8
0
 62
7
  6
CONTINUOUS
 10
155.4706168074
 20
30.6583272086
 11
155.5284290869
 21
30.5937998301
  0
LINE
  8
0
 62
7
  6
CONTINUOUS
 10
155.412804528
 20
30.7551182848
 11
155.4706168074
 21
30.6583272086
  0
LINE
  8
0
 62
7
  6
CONTINUOUS
 10
155.8174918074
 20
30.5937998301
 11
155.759679528
 21
30.6905909007
  0
LINE
  8
0
 62
7
  6
CONTINUOUS
 10
155.7018665869
 20
31.3681283946
 11
155.6440543074
 21
31.4649194539
  0
LINE
  8
0
 62
7
  6
CONTINUOUS
 10
157.0315543074
 20
31.626237886
 11
157.0315543074
 21
30.5937998301
  0
LINE
  8
0
 62
7
  6
CONTINUOUS
 10
157.320617028
 20
30.5937998301
 11
157.320617028
 21
31.3358647082
  0
LINE
  8
0
 62
7
  6
CONTINUOUS
 10
157.320617028
 20
31.4649194539
 11
157.320617028
 21
31.626237886
  0
LINE
  8
0
 62
7
  6
CONTINUOUS
 10
157.852430332
 20
34.6101932727
 11
157.852430332
 21
32.3970785186
  0
LINE
  8
0
 62
7
  6
CONTINUOUS
 10
149.7471793074
 20
31.4326557675
 11
149.6315543091
 21
31.3036010218
  0
LINE
  8
0
 62
7
  6
CONTINUOUS
 10
149.9206168074
 20
31.2713373354
 11
149.9784292936
 21
31.3358647082
  0
LINE
  8
0
 62
7
  6
CONTINUOUS
 10
149.7471793074
 20
30.7873819712
 11
149.8628043005
 21
30.7228545871
  0
LINE
  8
0
 62
7
  6
CONTINUOUS
 10
150.1518667936
 20
30.7873819712
 11
149.9784292936
 21
30.8841730531
  0
LINE
  8
0
 62
7
  6
CONTINUOUS
 10
155.3549915869
 20
31.4326557675
 11
155.412804528
 21
31.3681283946
  0
LINE
  8
0
 62
7
  6
CONTINUOUS
 10
158.3034290869
 20
31.3681283946
 11
158.361242028
 21
31.2068099625
  0
LINE
  8
0
 62
7
  6
CONTINUOUS
 10
158.6503040869
 20
31.2068099625
 11
158.5924918074
 21
31.3681283946
  0
LINE
  8
0
 62
7
  6
CONTINUOUS
 10
158.361242028
 20
31.2068099625
 11
158.361242028
 21
30.5937998301
  0
LINE
  8
0
 62
7
  6
CONTINUOUS
 10
158.6503040869
 20
30.5937998301
 11
158.6503040869
 21
31.2068099625
  0
LINE
  8
0
 62
7
  6
CONTINUOUS
 10
159.1128043074
 20
31.4326557675
 11
159.1128043074
 21
31.3681283946
  0
LINE
  8
0
 62
7
  6
CONTINUOUS
 10
159.245872955
 20
32.3970785186
 11
159.245872955
 21
34.5282260596
  0
LINE
  8
0
 62
7
  6
CONTINUOUS
 10
159.5737418074
 20
36.1675703219
 11
159.5737418074
 21
32.3970785186
  0
LINE
  8
0
 62
7
  6
CONTINUOUS
 10
154.2565543074
 20
30.9164367395
 11
154.3143669177
 21
31.0132277988
  0
LINE
  8
0
 62
7
  6
CONTINUOUS
 10
149.8628043005
 20
30.7228545871
 11
150.0362418212
 21
30.6583272086
  0
LINE
  8
0
 62
7
  6
CONTINUOUS
 10
151.3659292523
 20
31.4326557675
 11
151.1924917523
 21
31.5294468267
  0
LINE
  8
0
 62
7
  6
CONTINUOUS
 10
154.0253041972
 20
30.7551182848
 11
154.1987416972
 21
30.6583272086
  0
LINE
  8
0
 62
7
  6
CONTINUOUS
 10
153.0424918074
 20
31.4326557675
 11
153.1581166972
 21
31.3681283946
  0
LINE
  8
0
 62
7
  6
CONTINUOUS
 10
153.3893668074
 20
31.4649194539
 11
153.2737419177
 21
31.5294468267
  0
LINE
  8
0
 62
7
  6
CONTINUOUS
 10
159.1128043074
 20
30.8519093441
 11
159.228429528
 21
30.7228545871
  0
LINE
  8
0
 62
7
  6
CONTINUOUS
 10
159.4596793074
 20
30.7873819712
 11
159.401867028
 21
30.8519093441
  0
LINE
  8
0
 62
7
  6
CONTINUOUS
 10
159.1128043074
 20
31.3681283946
 11
159.228429528
 21
31.2390736489
  0
LINE
  8
0
 62
7
  6
CONTINUOUS
 10
158.5924918074
 20
31.3681283946
 11
158.534679528
 21
31.4649194539
  0
LINE
  8
0
 62
7
  6
CONTINUOUS
 10
160.9628038663
 20
30.7873819712
 11
160.9628038663
 21
30.8519093441
  0
LINE
  8
0
 62
7
  6
CONTINUOUS
 10
160.9671844304
 20
32.3970785186
 11
160.9671844304
 21
36.1675703219
  0
LINE
  8
0
 62
7
  6
CONTINUOUS
 10
154.0253041972
 20
31.4971831403
 11
153.9674919177
 21
31.4326557675
  0
LINE
  8
0
 62
7
  6
CONTINUOUS
 10
150.9034292799
 20
31.4649194539
 11
151.0768668626
 21
31.400392081
  0
LINE
  8
0
 62
7
  6
CONTINUOUS
 10
155.6440543074
 20
31.4649194539
 11
155.5284290869
 21
31.5294468267
  0
LINE
  8
0
 62
7
  6
CONTINUOUS
 10
159.4596793074
 20
31.3036010218
 11
159.401867028
 21
31.3681283946
  0
LINE
  8
0
 62
7
  6
CONTINUOUS
 10
160.615929528
 20
30.9164367395
 11
160.6737418074
 21
30.8519093441
  0
LINE
  8
0
 62
7
  6
CONTINUOUS
 10
160.9628038663
 20
30.8519093441
 11
160.8471793074
 21
30.9809641124
  0
LINE
  8
0
 62
7
  6
CONTINUOUS
 10
160.615929528
 20
31.4326557675
 11
160.6737418074
 21
31.3681283946
  0
LINE
  8
0
 62
7
  6
CONTINUOUS
 10
160.9628038663
 20
31.3681283946
 11
160.8471793074
 21
31.4971831403
  0
LINE
  8
0
 62
7
  6
CONTINUOUS
 10
154.2565543074
 20
31.3681283946
 11
154.3143669177
 21
31.4326557675
  0
LINE
  8
0
 62
7
  6
CONTINUOUS
 10
154.0831168074
 20
31.1100188581
 11
153.9674919177
 21
30.9809641124
  0
LINE
  8
0
 62
7
  6
CONTINUOUS
 10
155.412804528
 20
30.9487004259
 11
155.3549915869
 21
30.8841730531
  0
LINE
  8
0
 62
7
  6
CONTINUOUS
 10
155.3549915869
 20
30.6905909007
 11
155.412804528
 21
30.7551182848
  0
LINE
  8
0
 62
7
  6
CONTINUOUS
 10
154.1987416972
 20
30.6583272086
 11
154.3143669177
 21
30.6260635193
  0
LINE
  8
0
 62
7
  6
CONTINUOUS
 10
151.1924917523
 20
31.5294468267
 11
150.9612418074
 21
31.5939741996
  0
LINE
  8
0
 62
7
  6
CONTINUOUS
 10
154.5456166972
 20
30.7228545871
 11
154.3143669177
 21
30.7873819712
  0
LINE
  8
0
 62
7
  6
CONTINUOUS
 10
153.2737419177
 20
31.5294468267
 11
153.1003044177
 21
31.5939741996
  0
LINE
  8
0
 62
7
  6
CONTINUOUS
 10
155.5284290869
 20
31.5294468267
 11
155.3549915869
 21
31.5939741996
  0
LINE
  8
0
 62
7
  6
CONTINUOUS
 10
158.187804528
 20
31.4326557675
 11
158.3034290869
 21
31.3681283946
  0
LINE
  8
0
 62
7
  6
CONTINUOUS
 10
158.534679528
 20
31.4649194539
 11
158.4190543074
 21
31.5294468267
  0
LINE
  8
0
 62
7
  6
CONTINUOUS
 10
150.0362418212
 20
30.6583272086
 11
150.2096793212
 21
30.6260635193
  0
LINE
  8
0
 62
7
  6
CONTINUOUS
 10
150.498741835
 20
30.7228545871
 11
150.1518667936
 21
30.7873819712
  0
LINE
  8
0
 62
7
  6
CONTINUOUS
 10
152.9268669177
 20
31.4649194539
 11
153.0424918074
 21
31.4326557675
  0
LINE
  8
0
 62
7
  6
CONTINUOUS
 10
155.239367028
 20
31.4649194539
 11
155.3549915869
 21
31.4326557675
  0
LINE
  8
0
 62
7
  6
CONTINUOUS
 10
159.575304528
 20
30.7551182848
 11
159.4596793074
 21
30.7873819712
  0
LINE
  8
0
 62
7
  6
CONTINUOUS
 10
158.0721793074
 20
31.4649194539
 11
158.187804528
 21
31.4326557675
  0
LINE
  8
0
 62
7
  6
CONTINUOUS
 10
159.228429528
 20
30.7228545871
 11
159.401867028
 21
30.6583272086
  0
LINE
  8
0
 62
7
  6
CONTINUOUS
 10
158.4190543074
 20
31.5294468267
 11
158.2456168074
 21
31.5939741996
  0
LINE
  8
0
 62
7
  6
CONTINUOUS
 10
159.6331168074
 20
31.2390736489
 11
159.4596793074
 21
31.3036010218
  0
LINE
  8
0
 62
7
  6
CONTINUOUS
 10
160.442492028
 20
30.9809641124
 11
160.615929528
 21
30.9164367395
  0
LINE
  8
0
 62
7
  6
CONTINUOUS
 10
160.8471793074
 20
31.4971831403
 11
160.6737418074
 21
31.5617105132
  0
LINE
  8
0
 62
7
  6
CONTINUOUS
 10
159.228429528
 20
31.2390736489
 11
159.4596793074
 21
31.1422825445
  0
LINE
  8
0
 62
7
  6
CONTINUOUS
 10
160.8471793074
 20
30.9809641124
 11
160.615929528
 21
31.0777551716
  0
LINE
  8
0
 62
7
  6
CONTINUOUS
 10
159.401867028
 20
31.3681283946
 11
159.4596793074
 21
31.4326557675
  0
LINE
  8
0
 62
7
  6
CONTINUOUS
 10
149.8628043005
 20
31.4971831403
 11
149.7471793074
 21
31.4326557675
  0
LINE
  8
0
 62
7
  6
CONTINUOUS
 10
149.9784292936
 20
31.3358647082
 11
150.1518667936
 21
31.4326557675
  0
LINE
  8
0
 62
7
  6
CONTINUOUS
 10
152.2909293626
 20
31.5294468267
 11
152.1753043074
 21
31.4649194539
  0
LINE
  8
0
 62
7
  6
CONTINUOUS
 10
152.1753043074
 20
31.3358647082
 11
152.2909293626
 21
31.400392081
  0
LINE
  8
0
 62
7
  6
CONTINUOUS
 10
151.1924917523
 20
30.6905909007
 11
151.3659292523
 21
30.7873819712
  0
LINE
  8
0
 62
7
  6
CONTINUOUS
 10
150.2096793212
 20
30.6260635193
 11
150.5565542799
 21
30.5937998301
  0
LINE
  8
0
 62
7
  6
CONTINUOUS
 10
154.3143669177
 20
30.6260635193
 11
154.5456166972
 21
30.5937998301
  0
LINE
  8
0
 62
7
  6
CONTINUOUS
 10
152.6956168074
 20
31.4971831403
 11
152.9268669177
 21
31.4649194539
  0
LINE
  8
0
 62
7
  6
CONTINUOUS
 10
155.0081169177
 20
31.4971831403
 11
155.239367028
 21
31.4649194539
  0
LINE
  8
0
 62
7
  6
CONTINUOUS
 10
159.4596793074
 20
31.1422825445
 11
160.442492028
 21
30.9809641124
  0
LINE
  8
0
 62
7
  6
CONTINUOUS
 10
160.615929528
 20
31.0777551716
 11
159.6331168074
 21
31.2390736489
  0
LINE
  8
0
 62
7
  6
CONTINUOUS
 10
153.1003044177
 20
31.5939741996
 11
152.9268669177
 21
31.626237886
  0
LINE
  8
0
 62
7
  6
CONTINUOUS
 10
159.401867028
 20
30.6583272086
 11
159.575304528
 21
30.6260635193
  0
LINE
  8
0
 62
7
  6
CONTINUOUS
 10
158.2456168074
 20
31.5939741996
 11
158.0721793074
 21
31.626237886
  0
LINE
  8
0
 62
7
  6
CONTINUOUS
 10
160.5003043074
 20
31.4649194539
 11
160.615929528
 21
31.4326557675
  0
LINE
  8
0
 62
7
  6
CONTINUOUS
 10
160.6737418074
 20
30.8519093441
 11
160.615929528
 21
30.7873819712
  0
LINE
  8
0
 62
7
  6
CONTINUOUS
 10
159.228429528
 20
31.5294468267
 11
159.1128043074
 21
31.4326557675
  0
LINE
  8
0
 62
7
  6
CONTINUOUS
 10
154.1409294177
 20
31.5617105132
 11
154.0253041972
 21
31.4971831403
  0
LINE
  8
0
 62
7
  6
CONTINUOUS
 10
154.1987416972
 20
31.1745462761
 11
154.0831168074
 21
31.1100188581
  0
LINE
  8
0
 62
7
  6
CONTINUOUS
 10
154.3143669177
 20
31.0132277988
 11
154.4299918074
 21
31.0777551716
  0
LINE
  8
0
 62
7
  6
CONTINUOUS
 10
151.8862417523
 20
30.5937998301
 11
152.1753043074
 21
30.5937998301
  0
LINE
  8
0
 62
7
  6
CONTINUOUS
 10
153.2159293074
 20
30.5937998301
 11
153.5049916972
 21
30.5937998301
  0
LINE
  8
0
 62
7
  6
CONTINUOUS
 10
154.5456166972
 20
30.5937998301
 11
154.8924916972
 21
30.5937998301
  0
LINE
  8
0
 62
7
  6
CONTINUOUS
 10
155.5284290869
 20
30.5937998301
 11
155.8174918074
 21
30.5937998301
  0
LINE
  8
0
 62
7
  6
CONTINUOUS
 10
156.279992028
 20
30.5937998301
 11
156.5690540869
 21
30.5937998301
  0
LINE
  8
0
 62
7
  6
CONTINUOUS
 10
157.0315543074
 20
30.5937998301
 11
157.320617028
 21
30.5937998301
  0
LINE
  8
0
 62
7
  6
CONTINUOUS
 10
158.361242028
 20
30.5937998301
 11
158.6503040869
 21
30.5937998301
  0
LINE
  8
0
 62
7
  6
CONTINUOUS
 10
159.922179528
 20
30.5937998301
 11
160.269054528
 21
30.5937998301
  0
LINE
  8
0
 62
7
  6
CONTINUOUS
 10
160.269054528
 20
30.7228545871
 11
159.922179528
 21
30.7228545871
  0
LINE
  8
0
 62
7
  6
CONTINUOUS
 10
154.8924916972
 20
30.7228545871
 11
154.5456166972
 21
30.7228545871
  0
LINE
  8
0
 62
7
  6
CONTINUOUS
 10
159.401867028
 20
30.8519093441
 11
159.1128043074
 21
30.8519093441
  0
LINE
  8
0
 62
7
  6
CONTINUOUS
 10
151.4237418626
 20
30.9164367395
 11
151.1346793074
 21
30.9164367395
  0
LINE
  8
0
 62
7
  6
CONTINUOUS
 10
150.498741835
 20
31.4971831403
 11
150.9034292799
 21
31.4649194539
  0
LINE
  8
0
 62
7
  6
CONTINUOUS
 10
150.9612418074
 20
31.5939741996
 11
150.5565542799
 21
31.626237886
  0
LINE
  8
0
 62
7
  6
CONTINUOUS
 10
159.575304528
 20
30.6260635193
 11
159.922179528
 21
30.5937998301
  0
LINE
  8
0
 62
7
  6
CONTINUOUS
 10
159.922179528
 20
30.7228545871
 11
159.575304528
 21
30.7551182848
  0
LINE
  8
0
 62
7
  6
CONTINUOUS
 10
155.3549915869
 20
31.5939741996
 11
155.0081169177
 21
31.626237886
  0
LINE
  8
0
 62
7
  6
CONTINUOUS
 10
160.1534293074
 20
31.4971831403
 11
160.5003043074
 21
31.4649194539
  0
LINE
  8
0
 62
7
  6
CONTINUOUS
 10
160.5003043074
 20
31.5939741996
 11
160.1534293074
 21
31.626237886
  0
LINE
  8
0
 62
7
  6
CONTINUOUS
 10
157.840929528
 20
31.4971831403
 11
158.0721793074
 21
31.4649194539
  0
LINE
  8
0
 62
7
  6
CONTINUOUS
 10
160.6737418074
 20
31.5617105132
 11
160.5003043074
 21
31.5939741996
  0
LINE
  8
0
 62
7
  6
CONTINUOUS
 10
160.8471793074
 20
30.6905909007
 11
160.9628038663
 21
30.7873819712
  0
LINE
  8
0
 62
7
  6
CONTINUOUS
 10
155.3549915869
 20
30.8841730531
 11
155.1815540869
 21
30.7873819712
  0
LINE
  8
0
 62
7
  6
CONTINUOUS
 10
157.4362415869
 20
31.5294468267
 11
157.320617028
 21
31.4649194539
  0
LINE
  8
0
 62
7
  6
CONTINUOUS
 10
157.320617028
 20
31.3358647082
 11
157.4362415869
 21
31.400392081
  0
LINE
  8
0
 62
7
  6
CONTINUOUS
 10
150.0362418212
 20
31.5617105132
 11
149.8628043005
 21
31.4971831403
  0
LINE
  8
0
 62
7
  6
CONTINUOUS
 10
152.4643666972
 20
31.5939741996
 11
152.2909293626
 21
31.5294468267
  0
LINE
  8
0
 62
7
  6
CONTINUOUS
 10
152.2909293626
 20
31.400392081
 11
152.4643666972
 21
31.4649194539
  0
LINE
  8
0
 62
7
  6
CONTINUOUS
 10
151.0768668626
 20
30.8196456577
 11
150.9034292799
 21
30.7551182848
  0
LINE
  8
0
 62
7
  6
CONTINUOUS
 10
160.5003043074
 20
30.7551182848
 11
160.269054528
 21
30.7228545871
  0
LINE
  8
0
 62
7
  6
CONTINUOUS
 10
154.8924916972
 20
30.5937998301
 11
155.1815540869
 21
30.6260635193
  0
LINE
  8
0
 62
7
  6
CONTINUOUS
 10
160.269054528
 20
30.5937998301
 11
160.615929528
 21
30.6260635193
  0
LINE
  8
0
 62
7
  6
CONTINUOUS
 10
150.5565542799
 20
30.5937998301
 11
150.9612418074
 21
30.6260635193
  0
LINE
  8
0
 62
7
  6
CONTINUOUS
 10
150.9034292799
 20
30.7551182848
 11
150.498741835
 21
30.7228545871
  0
LINE
  8
0
 62
7
  6
CONTINUOUS
 10
154.7768668074
 20
31.1422825445
 11
155.412804528
 21
31.1422825445
  0
LINE
  8
0
 62
7
  6
CONTINUOUS
 10
155.412804528
 20
31.2713373354
 11
154.7768668074
 21
31.2713373354
  0
LINE
  8
0
 62
7
  6
CONTINUOUS
 10
151.1346793074
 20
31.3036010218
 11
151.4237418626
 21
31.3036010218
  0
LINE
  8
0
 62
7
  6
CONTINUOUS
 10
153.9674919177
 20
31.3681283946
 11
154.2565543074
 21
31.3681283946
  0
LINE
  8
0
 62
7
  6
CONTINUOUS
 10
160.6737418074
 20
31.3681283946
 11
160.9628038663
 21
31.3681283946
  0
LINE
  8
0
 62
7
  6
CONTINUOUS
 10
154.6612419177
 20
31.4971831403
 11
155.0081169177
 21
31.4971831403
  0
LINE
  8
0
 62
7
  6
CONTINUOUS
 10
159.8065543074
 20
31.4971831403
 11
160.1534293074
 21
31.4971831403
  0
LINE
  8
0
 62
7
  6
CONTINUOUS
 10
160.1534293074
 20
31.626237886
 11
159.8065543074
 21
31.626237886
  0
LINE
  8
0
 62
7
  6
CONTINUOUS
 10
158.0721793074
 20
31.626237886
 11
157.840929528
 21
31.626237886
  0
LINE
  8
0
 62
7
  6
CONTINUOUS
 10
157.320617028
 20
31.626237886
 11
157.0315543074
 21
31.626237886
  0
LINE
  8
0
 62
7
  6
CONTINUOUS
 10
156.5690540869
 20
31.626237886
 11
156.279992028
 21
31.626237886
  0
LINE
  8
0
 62
7
  6
CONTINUOUS
 10
155.0081169177
 20
31.626237886
 11
154.6612419177
 21
31.626237886
  0
LINE
  8
0
 62
7
  6
CONTINUOUS
 10
152.9268669177
 20
31.626237886
 11
152.6956168074
 21
31.626237886
  0
LINE
  8
0
 62
7
  6
CONTINUOUS
 10
156.279992028
 20
31.9488748406
 11
156.5690540869
 21
31.9488748406
  0
LINE
  8
0
 62
7
  6
CONTINUOUS
 10
156.5690540869
 20
32.1101932727
 11
156.279992028
 21
32.1101932727
  0
LINE
  8
0
 62
7
  6
CONTINUOUS
 10
152.1753043074
 20
32.1101932727
 11
151.8862417523
 21
32.1101932727
  0
LINE
  8
0
 62
7
  6
CONTINUOUS
 10
151.2130860697
 20
32.3970785186
 11
151.6256574183
 21
32.3970785186
  0
LINE
  8
0
 62
7
  6
CONTINUOUS
 10
152.852430332
 20
32.3970785186
 11
154.245872955
 21
32.3970785186
  0
LINE
  8
0
 62
7
  6
CONTINUOUS
 10
154.5737418074
 20
32.3970785186
 11
155.9671844304
 21
32.3970785186
  0
LINE
  8
0
 62
7
  6
CONTINUOUS
 10
157.852430332
 20
32.3970785186
 11
159.245872955
 21
32.3970785186
  0
LINE
  8
0
 62
7
  6
CONTINUOUS
 10
159.5737418074
 20
32.3970785186
 11
160.9671844304
 21
32.3970785186
  0
LINE
  8
0
 62
7
  6
CONTINUOUS
 10
157.6096790869
 20
31.5939741996
 11
157.4362415869
 21
31.5294468267
  0
LINE
  8
0
 62
7
  6
CONTINUOUS
 10
155.1815540869
 20
30.6260635193
 11
155.3549915869
 21
30.6905909007
  0
LINE
  8
0
 62
7
  6
CONTINUOUS
 10
160.615929528
 20
30.6260635193
 11
160.8471793074
 21
30.6905909007
  0
LINE
  8
0
 62
7
  6
CONTINUOUS
 10
160.615929528
 20
30.7873819712
 11
160.5003043074
 21
30.7551182848
  0
LINE
  8
0
 62
7
  6
CONTINUOUS
 10
159.575304528
 20
31.4649194539
 11
159.8065543074
 21
31.4971831403
  0
LINE
  8
0
 62
7
  6
CONTINUOUS
 10
157.6096790869
 20
31.4649194539
 11
157.840929528
 21
31.4971831403
  0
LINE
  8
0
 62
7
  6
CONTINUOUS
 10
154.5456166972
 20
31.1100188581
 11
154.7768668074
 21
31.1422825445
  0
LINE
  8
0
 62
7
  6
CONTINUOUS
 10
157.840929528
 20
31.626237886
 11
157.6096790869
 21
31.5939741996
  0
LINE
  8
0
 62
7
  6
CONTINUOUS
 10
154.4299918074
 20
31.4649194539
 11
154.6612419177
 21
31.4971831403
  0
LINE
  8
0
 62
7
  6
CONTINUOUS
 10
159.8065543074
 20
31.626237886
 11
159.4596793074
 21
31.5939741996
  0
LINE
  8
0
 62
7
  6
CONTINUOUS
 10
154.7768668074
 20
31.2713373354
 11
154.4299918074
 21
31.2390736489
  0
LINE
  8
0
 62
7
  6
CONTINUOUS
 10
150.5565542799
 20
31.626237886
 11
150.2096793212
 21
31.5939741996
  0
LINE
  8
0
 62
7
  6
CONTINUOUS
 10
154.6612419177
 20
31.626237886
 11
154.2565543074
 21
31.5939741996
  0
LINE
  8
0
 62
7
  6
CONTINUOUS
 10
152.0327582009
 20
33.5446195022
 11
151.3770204959
 21
33.5446195022
  0
LINE
  8
0
 62
7
  6
CONTINUOUS
 10
157.4362415869
 20
31.400392081
 11
157.6096790869
 21
31.4649194539
  0
LINE
  8
0
 62
7
  6
CONTINUOUS
 10
159.4596793074
 20
31.4326557675
 11
159.575304528
 21
31.4649194539
  0
LINE
  8
0
 62
7
  6
CONTINUOUS
 10
159.4596793074
 20
31.5939741996
 11
159.228429528
 21
31.5294468267
  0
LINE
  8
0
 62
7
  6
CONTINUOUS
 10
155.1815540869
 20
30.7873819712
 11
154.8924916972
 21
30.7228545871
  0
LINE
  8
0
 62
7
  6
CONTINUOUS
 10
152.4643666972
 20
31.4649194539
 11
152.6956168074
 21
31.4971831403
  0
LINE
  8
0
 62
7
  6
CONTINUOUS
 10
152.6956168074
 20
31.626237886
 11
152.4643666972
 21
31.5939741996
  0
LINE
  8
0
 62
7
  6
CONTINUOUS
 10
150.2674918074
 20
31.4649194539
 11
150.498741835
 21
31.4971831403
  0
LINE
  8
0
 62
7
  6
CONTINUOUS
 10
156.7868565615
 20
35.0200293383
 11
157.4425942664
 21
35.0200293383
  0
LINE
  8
0
 62
7
  6
CONTINUOUS
 10
154.4299918074
 20
31.0777551716
 11
154.5456166972
 21
31.1100188581
  0
LINE
  8
0
 62
7
  6
CONTINUOUS
 10
154.4299918074
 20
31.2390736489
 11
154.1987416972
 21
31.1745462761
  0
LINE
  8
0
 62
7
  6
CONTINUOUS
 10
154.3143669177
 20
31.4326557675
 11
154.4299918074
 21
31.4649194539
  0
LINE
  8
0
 62
7
  6
CONTINUOUS
 10
150.9612418074
 20
30.6260635193
 11
151.1924917523
 21
30.6905909007
  0
LINE
  8
0
 62
7
  6
CONTINUOUS
 10
154.2565543074
 20
31.5939741996
 11
154.1409294177
 21
31.5617105132
  0
LINE
  8
0
 62
7
  6
CONTINUOUS
 10
150.2096793212
 20
31.5939741996
 11
150.0362418212
 21
31.5617105132
  0
LINE
  8
0
 62
7
  6
CONTINUOUS
 10
160.9671844304
 20
36.1675703219
 11
159.5737418074
 21
36.1675703219
  0
LINE
  8
0
 62
7
  6
CONTINUOUS
 10
157.6065286927
 20
36.1675703219
 11
157.1939573441
 21
36.1675703219
  0
LINE
  8
0
 62
7
  6
CONTINUOUS
 10
155.9671844304
 20
36.1675703219
 11
154.5737418074
 21
36.1675703219
  0
LINE
  8
0
 62
7
  6
CONTINUOUS
 10
154.245872955
 20
36.1675703219
 11
152.852430332
 21
36.1675703219
  0
LINE
  8
0
 62
7
  6
CONTINUOUS
 10
150.9671844304
 20
36.1675703219
 11
149.5737418074
 21
36.1675703219
  0
LINE
  8
0
 62
7
  6
CONTINUOUS
 10
150.1518667936
 20
31.4326557675
 11
150.2674918074
 21
31.4649194539
  0
CIRCLE
  8
0
 62
7
  6
CONTINUOUS
 10
160.2704631189
 20
38.5036358957
 40
2.0901639344
  0
ARC
  8
0
 62
7
  6
CONTINUOUS
 10
151.2130860697
 20
34.0364227809
 40
1.6393442623
 50
180.0
 51
270.0
  0
ARC
  8
0
 62
7
  6
CONTINUOUS
 10
157.6065286927
 20
34.5282260596
 40
1.6393442623
 50
0.0
 51
90.0
  0
ARC
  8
0
 62
7
  6
CONTINUOUS
 10
151.6256574183
 20
33.8724883547
 40
1.4754098361
 50
270.0
 51
326.2510114041
  0
ARC
  8
0
 62
7
  6
CONTINUOUS
 10
157.1939573441
 20
34.6921604858
 40
1.4754098361
 50
90.0
 51
146.2510114041
  0
ARC
  8
0
 62
7
  6
CONTINUOUS
 10
152.0327582009
 20
34.3642916334
 40
0.8196721311
 50
270.0
 51
360.0
  0
ARC
  8
0
 62
7
  6
CONTINUOUS
 10
156.7868565615
 20
34.2003572071
 40
0.8196721311
 50
90.0
 51
180.0
  0
ARC
  8
0
 62
7
  6
CONTINUOUS
 10
151.3770204959
 20
33.9544555678
 40
0.4098360656
 50
180.0
 51
270.0
  0
ARC
  8
0
 62
7
  6
CONTINUOUS
 10
157.4425942664
 20
34.6101932727
 40
0.4098360656
 50
0.0
 51
90.0
  0
SOLID
  8
0
 62
7
  6
CONTINUOUS
 10
156.279992028
 20
31.9488752009
 11
156.279992028
 21
32.1101936845
 12
156.5690540869
 22
31.9488752009
 13
156.5690540869
 23
32.1101936845
  0
SOLID
  8
0
 62
7
  6
CONTINUOUS
 10
150.5565542799
 20
31.6262382337
 11
150.9612418074
 21
31.5939740028
 12
150.2096793212
 22
31.5939740028
 13
150.2096793212
 23
31.5939740028
  0
SOLID
  8
0
 62
7
  6
CONTINUOUS
 10
150.0362418212
 20
31.5617111435
 11
150.2096793212
 21
31.5939740028
 12
150.9612418074
 22
31.5939740028
 13
150.9612418074
 23
31.5939740028
  0
SOLID
  8
0
 62
7
  6
CONTINUOUS
 10
150.9612418074
 20
31.5939740028
 11
151.1924917523
 21
31.5294468402
 12
150.0362418212
 22
31.5617111435
 13
150.0362418212
 23
31.5617111435
  0
SOLID
  8
0
 62
7
  6
CONTINUOUS
 10
149.8628043005
 20
31.49718259
 11
150.0362418212
 21
31.5617111435
 12
151.1924917523
 22
31.5294468402
 13
151.1924917523
 23
31.5294468402
  0
SOLID
  8
0
 62
7
  6
CONTINUOUS
 10
149.8628043005
 20
31.49718259
 11
151.1924917523
 21
31.5294468402
 12
150.498741835
 22
31.49718259
 13
150.498741835
 23
31.49718259
  0
SOLID
  8
0
 62
7
  6
CONTINUOUS
 10
150.498741835
 20
31.49718259
 11
151.1924917523
 21
31.5294468402
 12
150.9034292799
 22
31.4649197501
 13
150.9034292799
 23
31.4649197501
  0
SOLID
  8
0
 62
7
  6
CONTINUOUS
 10
151.1924917523
 20
31.5294468402
 11
151.3659292523
 21
31.4326554468
 12
150.9034292799
 22
31.4649197501
 13
150.9034292799
 23
31.4649197501
  0
SOLID
  8
0
 62
7
  6
CONTINUOUS
 10
151.0768668626
 20
31.4003926599
 11
150.9034292799
 21
31.4649197501
 12
151.3659292523
 22
31.4326554468
 13
151.3659292523
 23
31.4326554468
  0
SOLID
  8
0
 62
7
  6
CONTINUOUS
 10
151.0768668626
 20
31.4003926599
 11
151.3659292523
 21
31.4326554468
 12
151.1346793074
 22
31.3036013776
 13
151.1346793074
 23
31.3036013776
  0
SOLID
  8
0
 62
7
  6
CONTINUOUS
 10
151.3659292523
 20
31.4326554468
 11
151.4237418626
 21
31.3036013776
 12
151.1346793074
 22
31.3036013776
 13
151.1346793074
 23
31.3036013776
  0
SOLID
  8
0
 62
7
  6
CONTINUOUS
 10
152.4643666972
 20
31.5939739754
 11
152.6956168074
 21
31.6262382787
 12
152.9268669177
 22
31.6262382787
 13
152.9268669177
 23
31.6262382787
  0
SOLID
  8
0
 62
7
  6
CONTINUOUS
 10
152.9268669177
 20
31.6262382787
 11
153.1003044177
 21
31.5939739754
 12
152.4643666972
 22
31.5939739754
 13
152.4643666972
 23
31.5939739754
  0
SOLID
  8
0
 62
7
  6
CONTINUOUS
 10
152.2909293626
 20
31.5294468852
 11
152.4643666972
 21
31.5939739754
 12
153.1003044177
 22
31.5939739754
 13
153.1003044177
 23
31.5939739754
  0
SOLID
  8
0
 62
7
  6
CONTINUOUS
 10
153.1003044177
 20
31.5939739754
 11
153.2737419177
 21
31.5294468852
 12
152.2909293626
 22
31.5294468852
 13
152.2909293626
 23
31.5294468852
  0
SOLID
  8
0
 62
7
  6
CONTINUOUS
 10
153.2737419177
 20
31.5294468852
 11
152.6956168074
 21
31.4971825369
 12
152.2909293626
 22
31.5294468852
 13
152.2909293626
 23
31.5294468852
  0
SOLID
  8
0
 62
7
  6
CONTINUOUS
 10
152.1753043074
 20
31.4649197951
 11
152.2909293626
 21
31.5294468852
 12
152.6956168074
 22
31.4971825369
 13
152.6956168074
 23
31.4971825369
  0
SOLID
  8
0
 62
7
  6
CONTINUOUS
 10
152.6956168074
 20
31.4971825369
 11
152.4643666972
 21
31.4649197951
 12
152.1753043074
 22
31.4649197951
 13
152.1753043074
 23
31.4649197951
  0
SOLID
  8
0
 62
7
  6
CONTINUOUS
 10
152.6956168074
 20
31.4971825369
 11
153.2737419177
 21
31.5294468852
 12
152.9268669177
 22
31.4649197951
 13
152.9268669177
 23
31.4649197951
  0
SOLID
  8
0
 62
7
  6
CONTINUOUS
 10
153.2737419177
 20
31.5294468852
 11
153.3893668074
 21
31.4649197951
 12
152.9268669177
 22
31.4649197951
 13
152.9268669177
 23
31.4649197951
  0
SOLID
  8
0
 62
7
  6
CONTINUOUS
 10
153.0424918074
 20
31.4326554468
 11
152.9268669177
 21
31.4649197951
 12
153.3893668074
 22
31.4649197951
 13
153.3893668074
 23
31.4649197951
  0
SOLID
  8
0
 62
7
  6
CONTINUOUS
 10
153.3893668074
 20
31.4649197951
 11
153.4471794177
 21
31.4003927049
 12
153.0424918074
 22
31.4326554468
 13
153.0424918074
 23
31.4326554468
  0
SOLID
  8
0
 62
7
  6
CONTINUOUS
 10
153.1581166972
 20
31.3681283566
 11
153.0424918074
 21
31.4326554468
 12
153.4471794177
 22
31.4003927049
 13
153.4471794177
 23
31.4003927049
  0
SOLID
  8
0
 62
7
  6
CONTINUOUS
 10
153.1581166972
 20
31.3681283566
 11
153.4471794177
 21
31.4003927049
 12
153.2159293074
 22
31.2390742213
 13
153.2159293074
 23
31.2390742213
  0
SOLID
  8
0
 62
7
  6
CONTINUOUS
 10
153.4471794177
 20
31.4003927049
 11
153.5049916972
 21
31.2390742213
 12
153.2159293074
 22
31.2390742213
 13
153.2159293074
 23
31.2390742213
  0
SOLID
  8
0
 62
7
  6
CONTINUOUS
 10
152.4643666972
 20
31.4649197951
 11
152.2909293626
 21
31.4003927049
 12
152.1753043074
 22
31.4649197951
 13
152.1753043074
 23
31.4649197951
  0
SOLID
  8
0
 62
7
  6
CONTINUOUS
 10
152.2909293626
 20
31.4003927049
 11
152.1753043074
 21
31.3358640533
 12
152.1753043074
 22
31.4649197951
 13
152.1753043074
 23
31.4649197951
  0
SOLID
  8
0
 62
7
  6
CONTINUOUS
 10
152.1753043074
 20
31.3358640533
 11
151.8862417523
 21
30.5938002869
 12
152.1753043074
 22
31.4649197951
 13
152.1753043074
 23
31.4649197951
  0
SOLID
  8
0
 62
7
  6
CONTINUOUS
 10
152.1753043074
 20
31.4649197951
 11
151.8862417523
 21
30.5938002869
 12
152.1753043074
 22
32.1101937295
 13
152.1753043074
 23
32.1101937295
  0
SOLID
  8
0
 62
7
  6
CONTINUOUS
 10
151.8862417523
 20
30.5938002869
 11
151.8862417523
 21
32.1101937295
 12
152.1753043074
 22
32.1101937295
 13
152.1753043074
 23
32.1101937295
  0
SOLID
  8
0
 62
7
  6
CONTINUOUS
 10
152.1753043074
 20
31.3358640533
 11
152.1753043074
 21
30.5938002869
 12
151.8862417523
 22
30.5938002869
 13
151.8862417523
 23
30.5938002869
  0
SOLID
  8
0
 62
7
  6
CONTINUOUS
 10
153.2159293074
 20
30.5938002869
 11
153.2159293074
 21
31.2390742213
 12
153.5049916972
 22
31.2390742213
 13
153.5049916972
 23
31.2390742213
  0
SOLID
  8
0
 62
7
  6
CONTINUOUS
 10
153.5049916972
 20
31.2390742213
 11
153.5049916972
 21
30.5938002869
 12
153.2159293074
 22
30.5938002869
 13
153.2159293074
 23
30.5938002869
  0
SOLID
  8
0
 62
7
  6
CONTINUOUS
 10
154.2565543074
 20
31.5939738288
 11
154.6612419177
 21
31.6262385959
 12
155.0081169177
 22
31.6262385959
 13
155.0081169177
 23
31.6262385959
  0
SOLID
  8
0
 62
7
  6
CONTINUOUS
 10
155.0081169177
 20
31.6262385959
 11
155.3549915869
 21
31.5939738288
 12
154.2565543074
 22
31.5939738288
 13
154.2565543074
 23
31.5939738288
  0
SOLID
  8
0
 62
7
  6
CONTINUOUS
 10
154.1409294177
 20
31.5617111435
 11
154.2565543074
 21
31.5939738288
 12
155.3549915869
 22
31.5939738288
 13
155.3549915869
 23
31.5939738288
  0
SOLID
  8
0
 62
7
  6
CONTINUOUS
 10
155.3549915869
 20
31.5939738288
 11
155.5284290869
 21
31.5294468402
 12
154.1409294177
 22
31.5617111435
 13
154.1409294177
 23
31.5617111435
  0
SOLID
  8
0
 62
7
  6
CONTINUOUS
 10
154.0253041972
 20
31.4971826249
 11
154.1409294177
 21
31.5617111435
 12
155.5284290869
 22
31.5294468402
 13
155.5284290869
 23
31.5294468402
  0
SOLID
  8
0
 62
7
  6
CONTINUOUS
 10
154.0253041972
 20
31.4971826249
 11
155.5284290869
 21
31.5294468402
 12
154.6612419177
 22
31.4971826249
 13
154.6612419177
 23
31.4971826249
  0
SOLID
  8
0
 62
7
  6
CONTINUOUS
 10
154.6612419177
 20
31.4971826249
 11
155.5284290869
 21
31.5294468402
 12
155.0081169177
 22
31.4971826249
 13
155.0081169177
 23
31.4971826249
  0
SOLID
  8
0
 62
7
  6
CONTINUOUS
 10
155.0081169177
 20
31.4971826249
 11
155.5284290869
 21
31.5294468402
 12
155.239367028
 22
31.4649194065
 13
155.239367028
 23
31.4649194065
  0
SOLID
  8
0
 62
7
  6
CONTINUOUS
 10
155.5284290869
 20
31.5294468402
 11
155.6440543074
 21
31.4649194065
 12
155.239367028
 22
31.4649194065
 13
155.239367028
 23
31.4649194065
  0
SOLID
  8
0
 62
7
  6
CONTINUOUS
 10
153.9674919177
 20
31.4326554138
 11
154.0253041972
 21
31.4971826249
 12
154.6612419177
 22
31.4971826249
 13
154.6612419177
 23
31.4971826249
  0
SOLID
  8
0
 62
7
  6
CONTINUOUS
 10
155.3549915869
 20
31.4326554138
 11
155.239367028
 21
31.4649194065
 12
155.6440543074
 22
31.4649194065
 13
155.6440543074
 23
31.4649194065
  0
SOLID
  8
0
 62
7
  6
CONTINUOUS
 10
155.3549915869
 20
31.4326554138
 11
155.6440543074
 21
31.4649194065
 12
155.412804528
 22
31.3681282026
 13
155.412804528
 23
31.3681282026
  0
SOLID
  8
0
 62
7
  6
CONTINUOUS
 10
155.6440543074
 20
31.4649194065
 11
155.7018665869
 21
31.3681282026
 12
155.412804528
 22
31.3681282026
 13
155.412804528
 23
31.3681282026
  0
SOLID
  8
0
 62
7
  6
CONTINUOUS
 10
155.412804528
 20
31.2713369632
 11
155.412804528
 21
31.3681282026
 12
155.7018665869
 22
31.3681282026
 13
155.7018665869
 23
31.3681282026
  0
SOLID
  8
0
 62
7
  6
CONTINUOUS
 10
155.412804528
 20
31.2713369632
 11
155.7018665869
 21
31.3681282026
 12
155.412804528
 22
31.1422827828
 13
155.412804528
 23
31.1422827828
  0
SOLID
  8
0
 62
7
  6
CONTINUOUS
 10
155.412804528
 20
31.1422827828
 11
155.7018665869
 21
31.3681282026
 12
155.412804528
 22
30.9487004259
 13
155.412804528
 23
30.9487004259
  0
SOLID
  8
0
 62
7
  6
CONTINUOUS
 10
155.7018665869
 20
31.3681282026
 11
155.7018665869
 21
30.8519086025
 12
155.412804528
 22
30.9487004259
 13
155.412804528
 23
30.9487004259
  0
SOLID
  8
0
 62
7
  6
CONTINUOUS
 10
157.6096790869
 20
31.5939736268
 11
157.840929528
 21
31.6262383465
 12
158.0721793074
 22
31.6262383465
 13
158.0721793074
 23
31.6262383465
  0
SOLID
  8
0
 62
7
  6
CONTINUOUS
 10
158.0721793074
 20
31.6262383465
 11
158.2456168074
 21
31.5939736268
 12
157.6096790869
 22
31.5939736268
 13
157.6096790869
 23
31.5939736268
  0
SOLID
  8
0
 62
7
  6
CONTINUOUS
 10
157.4362415869
 20
31.5294472848
 11
157.6096790869
 21
31.5939736268
 12
158.2456168074
 22
31.5939736268
 13
158.2456168074
 23
31.5939736268
  0
SOLID
  8
0
 62
7
  6
CONTINUOUS
 10
158.2456168074
 20
31.5939736268
 11
158.4190543074
 21
31.5294472848
 12
157.4362415869
 22
31.5294472848
 13
157.4362415869
 23
31.5294472848
  0
SOLID
  8
0
 62
7
  6
CONTINUOUS
 10
158.4190543074
 20
31.5294472848
 11
157.840929528
 21
31.4971825369
 12
157.4362415869
 22
31.5294472848
 13
157.4362415869
 23
31.5294472848
  0
SOLID
  8
0
 62
7
  6
CONTINUOUS
 10
157.320617028
 20
31.4649199103
 11
157.4362415869
 21
31.5294472848
 12
157.840929528
 22
31.4971825369
 13
157.840929528
 23
31.4971825369
  0
SOLID
  8
0
 62
7
  6
CONTINUOUS
 10
157.840929528
 20
31.4971825369
 11
157.6096790869
 21
31.4649199103
 12
157.320617028
 22
31.4649199103
 13
157.320617028
 23
31.4649199103
  0
SOLID
  8
0
 62
7
  6
CONTINUOUS
 10
157.840929528
 20
31.4971825369
 11
158.4190543074
 21
31.5294472848
 12
158.0721793074
 22
31.4649199103
 13
158.0721793074
 23
31.4649199103
  0
SOLID
  8
0
 62
7
  6
CONTINUOUS
 10
158.4190543074
 20
31.5294472848
 11
158.534679528
 21
31.4649199103
 12
158.0721793074
 22
31.4649199103
 13
158.0721793074
 23
31.4649199103
  0
SOLID
  8
0
 62
7
  6
CONTINUOUS
 10
158.187804528
 20
31.4326554468
 11
158.0721793074
 21
31.4649199103
 12
158.534679528
 22
31.4649199103
 13
158.534679528
 23
31.4649199103
  0
SOLID
  8
0
 62
7
  6
CONTINUOUS
 10
158.187804528
 20
31.4326554468
 11
158.534679528
 21
31.4649199103
 12
158.3034290869
 22
31.3681288486
 13
158.3034290869
 23
31.3681288486
  0
SOLID
  8
0
 62
7
  6
CONTINUOUS
 10
158.534679528
 20
31.4649199103
 11
158.5924918074
 21
31.3681288486
 12
158.3034290869
 22
31.3681288486
 13
158.3034290869
 23
31.3681288486
  0
SOLID
  8
0
 62
7
  6
CONTINUOUS
 10
158.361242028
 20
31.2068093799
 11
158.3034290869
 21
31.3681288486
 12
158.5924918074
 22
31.3681288486
 13
158.5924918074
 23
31.3681288486
  0
SOLID
  8
0
 62
7
  6
CONTINUOUS
 10
158.5924918074
 20
31.3681288486
 11
158.6503040869
 21
31.2068093799
 12
158.361242028
 22
31.2068093799
 13
158.361242028
 23
31.2068093799
  0
SOLID
  8
0
 62
7
  6
CONTINUOUS
 10
157.6096790869
 20
31.4649199103
 11
157.4362415869
 21
31.4003926599
 12
157.320617028
 22
31.4649199103
 13
157.320617028
 23
31.4649199103
  0
SOLID
  8
0
 62
7
  6
CONTINUOUS
 10
157.4362415869
 20
31.4003926599
 11
157.320617028
 21
31.3358640533
 12
157.320617028
 22
31.4649199103
 13
157.320617028
 23
31.4649199103
  0
SOLID
  8
0
 62
7
  6
CONTINUOUS
 10
157.320617028
 20
31.3358640533
 11
157.0315543074
 21
30.5938003547
 12
157.320617028
 22
31.4649199103
 13
157.320617028
 23
31.4649199103
  0
SOLID
  8
0
 62
7
  6
CONTINUOUS
 10
157.320617028
 20
31.4649199103
 11
157.0315543074
 21
30.5938003547
 12
157.320617028
 22
31.6262383465
 13
157.320617028
 23
31.6262383465
  0
SOLID
  8
0
 62
7
  6
CONTINUOUS
 10
157.0315543074
 20
30.5938003547
 11
157.0315543074
 21
31.6262383465
 12
157.320617028
 22
31.6262383465
 13
157.320617028
 23
31.6262383465
  0
SOLID
  8
0
 62
7
  6
CONTINUOUS
 10
157.320617028
 20
31.3358640533
 11
157.320617028
 21
30.5938003547
 12
157.0315543074
 22
30.5938003547
 13
157.0315543074
 23
30.5938003547
  0
SOLID
  8
0
 62
7
  6
CONTINUOUS
 10
158.361242028
 20
30.5938003547
 11
158.361242028
 21
31.2068093799
 12
158.6503040869
 22
31.2068093799
 13
158.6503040869
 23
31.2068093799
  0
SOLID
  8
0
 62
7
  6
CONTINUOUS
 10
158.6503040869
 20
31.2068093799
 11
158.6503040869
 21
30.5938003547
 12
158.361242028
 22
30.5938003547
 13
158.361242028
 23
30.5938003547
  0
SOLID
  8
0
 62
7
  6
CONTINUOUS
 10
159.4596793074
 20
31.5939739474
 11
159.8065543074
 21
31.6262381969
 12
160.1534293074
 22
31.6262381969
 13
160.1534293074
 23
31.6262381969
  0
SOLID
  8
0
 62
7
  6
CONTINUOUS
 10
160.1534293074
 20
31.6262381969
 11
160.5003043074
 21
31.5939739474
 12
159.4596793074
 22
31.5939739474
 13
159.4596793074
 23
31.5939739474
  0
SOLID
  8
0
 62
7
  6
CONTINUOUS
 10
159.228429528
 20
31.5294468402
 11
159.4596793074
 21
31.5939739474
 12
160.5003043074
 22
31.5939739474
 13
160.5003043074
 23
31.5939739474
  0
SOLID
  8
0
 62
7
  6
CONTINUOUS
 10
159.228429528
 20
31.5294468402
 11
160.5003043074
 21
31.5939739304
 12
160.6737418074
 22
31.5617111435
 13
160.6737418074
 23
31.5617111435
  0
SOLID
  8
0
 62
7
  6
CONTINUOUS
 10
159.228429528
 20
31.5294468402
 11
160.6737418074
 21
31.5617111435
 12
159.8065543074
 22
31.4971825592
 13
159.8065543074
 23
31.4971825592
  0
SOLID
  8
0
 62
7
  6
CONTINUOUS
 10
159.8065543074
 20
31.4971825592
 11
160.6737418074
 21
31.5617111435
 12
160.1534293074
 22
31.4971825592
 13
160.1534293074
 23
31.4971825592
  0
SOLID
  8
0
 62
7
  6
CONTINUOUS
 10
160.6737418074
 20
31.5617111435
 11
160.8471793074
 21
31.4971825592
 12
160.1534293074
 22
31.4971825592
 13
160.1534293074
 23
31.4971825592
  0
SOLID
  8
0
 62
7
  6
CONTINUOUS
 10
160.5003043074
 20
31.4649197501
 11
160.1534293074
 21
31.4971825592
 12
160.8471793074
 22
31.4971825592
 13
160.8471793074
 23
31.4971825592
  0
SOLID
  8
0
 62
7
  6
CONTINUOUS
 10
159.1128043074
 20
31.4326555427
 11
159.228429528
 21
31.5294468402
 12
159.8065543074
 22
31.4971825592
 13
159.8065543074
 23
31.4971825592
  0
SOLID
  8
0
 62
7
  6
CONTINUOUS
 10
160.5003043074
 20
31.4649197501
 11
160.8471793074
 21
31.4971825592
 12
160.615929528
 22
31.4326555427
 13
160.615929528
 23
31.4326555427
  0
SOLID
  8
0
 62
7
  6
CONTINUOUS
 10
160.615929528
 20
31.4326555427
 11
160.8471793074
 21
31.4971825592
 12
160.6737418074
 22
31.3681283005
 13
160.6737418074
 23
31.3681283005
  0
SOLID
  8
0
 62
7
  6
CONTINUOUS
 10
160.8471793074
 20
31.4971825592
 11
160.9628038663
 21
31.3681283005
 12
160.6737418074
 22
31.3681283005
 13
160.6737418074
 23
31.3681283005
  0
SOLID
  8
0
 62
7
  6
CONTINUOUS
 10
150.2674918074
 20
31.4649197501
 11
149.7471793074
 21
31.4326554237
 12
150.498741835
 22
31.4971824493
 13
150.498741835
 23
31.4971824493
  0
SOLID
  8
0
 62
7
  6
CONTINUOUS
 10
149.7471793074
 20
31.4326554237
 11
149.8628043005
 21
31.4971824493
 12
150.498741835
 22
31.4971824493
 13
150.498741835
 23
31.4971824493
  0
SOLID
  8
0
 62
7
  6
CONTINUOUS
 10
150.2674918074
 20
31.4649197501
 11
150.1518667936
 21
31.4326554237
 12
149.7471793074
 22
31.4326554237
 13
149.7471793074
 23
31.4326554237
  0
SOLID
  8
0
 62
7
  6
CONTINUOUS
 10
149.6315543091
 20
31.3036012664
 11
149.7471793074
 21
31.4326554237
 12
150.1518667936
 22
31.4326554237
 13
150.1518667936
 23
31.4326554237
  0
SOLID
  8
0
 62
7
  6
CONTINUOUS
 10
153.9674919177
 20
31.4326554237
 11
154.6612419177
 21
31.4971825369
 12
154.4299918074
 22
31.4649197501
 13
154.4299918074
 23
31.4649197501
  0
SOLID
  8
0
 62
7
  6
CONTINUOUS
 10
154.4299918074
 20
31.4649197501
 11
154.3143669177
 21
31.4326554237
 12
153.9674919177
 22
31.4326554237
 13
153.9674919177
 23
31.4326554237
  0
SOLID
  8
0
 62
7
  6
CONTINUOUS
 10
153.9674919177
 20
31.3681283335
 11
153.9674919177
 21
31.4326554237
 12
154.3143669177
 22
31.4326554237
 13
154.3143669177
 23
31.4326554237
  0
SOLID
  8
0
 62
7
  6
CONTINUOUS
 10
154.3143669177
 20
31.4326554237
 11
154.2565543074
 21
31.3681283335
 12
153.9674919177
 22
31.3681283335
 13
153.9674919177
 23
31.3681283335
  0
SOLID
  8
0
 62
7
  6
CONTINUOUS
 10
159.1128043074
 20
31.4326555528
 11
159.8065543074
 21
31.4971825369
 12
159.575304528
 22
31.4649197501
 13
159.575304528
 23
31.4649197501
  0
SOLID
  8
0
 62
7
  6
CONTINUOUS
 10
159.575304528
 20
31.4649197501
 11
159.4596793074
 21
31.4326555528
 12
159.1128043074
 22
31.4326555528
 13
159.1128043074
 23
31.4326555528
  0
SOLID
  8
0
 62
7
  6
CONTINUOUS
 10
159.1128043074
 20
31.3681284626
 11
159.1128043074
 21
31.4326555528
 12
159.4596793074
 22
31.4326555528
 13
159.4596793074
 23
31.4326555528
  0
SOLID
  8
0
 62
7
  6
CONTINUOUS
 10
159.4596793074
 20
31.4326555528
 11
159.401867028
 21
31.3681284626
 12
159.1128043074
 22
31.3681284626
 13
159.1128043074
 23
31.3681284626
  0
SOLID
  8
0
 62
7
  6
CONTINUOUS
 10
159.228429528
 20
31.2390741763
 11
159.1128043074
 21
31.3681284626
 12
159.401867028
 22
31.3681284626
 13
159.401867028
 23
31.3681284626
  0
SOLID
  8
0
 62
7
  6
CONTINUOUS
 10
149.6315543091
 20
31.3036012664
 11
150.1518667936
 21
31.4326554468
 12
149.9784292936
 22
31.3358640533
 13
149.9784292936
 23
31.3358640533
  0
SOLID
  8
0
 62
7
  6
CONTINUOUS
 10
149.9784292936
 20
31.3358640533
 11
149.9206168074
 21
31.2713369632
 12
149.6315543091
 22
31.3036012664
 13
149.6315543091
 23
31.3036012664
  0
SOLID
  8
0
 62
7
  6
CONTINUOUS
 10
149.5737418074
 20
31.1100184796
 11
149.6315543091
 21
31.3036012664
 12
149.9206168074
 22
31.2713369632
 13
149.9206168074
 23
31.2713369632
  0
SOLID
  8
0
 62
7
  6
CONTINUOUS
 10
154.4299918074
 20
31.2390741763
 11
154.7768668074
 21
31.271336924
 12
155.412804528
 22
31.271336924
 13
155.412804528
 23
31.271336924
  0
SOLID
  8
0
 62
7
  6
CONTINUOUS
 10
154.4299918074
 20
31.2390741763
 11
155.412804528
 21
31.271336924
 12
154.1987416972
 22
31.1745462761
 13
154.1987416972
 23
31.1745462761
  0
SOLID
  8
0
 62
7
  6
CONTINUOUS
 10
154.1987416972
 20
31.1745462761
 11
155.412804528
 21
31.271336924
 12
154.7768668074
 22
31.1422827436
 13
154.7768668074
 23
31.1422827436
  0
SOLID
  8
0
 62
7
  6
CONTINUOUS
 10
155.412804528
 20
31.271336924
 11
155.412804528
 21
31.1422827436
 12
154.7768668074
 22
31.1422827436
 13
154.7768668074
 23
31.1422827436
  0
SOLID
  8
0
 62
7
  6
CONTINUOUS
 10
159.228429528
 20
31.2390745501
 11
159.401867028
 21
31.3681283566
 12
159.4596793074
 22
31.3036012664
 13
159.4596793074
 23
31.3036012664
  0
SOLID
  8
0
 62
7
  6
CONTINUOUS
 10
159.4596793074
 20
31.3036012664
 11
159.6331168074
 21
31.2390745501
 12
159.228429528
 22
31.2390745501
 13
159.228429528
 23
31.2390745501
  0
SOLID
  8
0
 62
7
  6
CONTINUOUS
 10
159.4596793074
 20
31.1422827828
 11
159.228429528
 21
31.2390745501
 12
159.6331168074
 22
31.2390745501
 13
159.6331168074
 23
31.2390745501
  0
SOLID
  8
0
 62
7
  6
CONTINUOUS
 10
159.6331168074
 20
31.2390745501
 11
160.615929528
 21
31.0777556927
 12
159.4596793074
 22
31.1422827828
 13
159.4596793074
 23
31.1422827828
  0
SOLID
  8
0
 62
7
  6
CONTINUOUS
 10
160.442492028
 20
30.9809646623
 11
159.4596793074
 21
31.1422827828
 12
160.615929528
 22
31.0777556927
 13
160.615929528
 23
31.0777556927
  0
SOLID
  8
0
 62
7
  6
CONTINUOUS
 10
160.615929528
 20
31.0777556927
 11
160.8471793074
 21
30.9809646623
 12
160.442492028
 22
30.9809646623
 13
160.442492028
 23
30.9809646623
  0
SOLID
  8
0
 62
7
  6
CONTINUOUS
 10
160.615929528
 20
30.9164372091
 11
160.442492028
 21
30.9809646623
 12
160.8471793074
 22
30.9809646623
 13
160.8471793074
 23
30.9809646623
  0
SOLID
  8
0
 62
7
  6
CONTINUOUS
 10
160.615929528
 20
30.9164372091
 11
160.8471793074
 21
30.9809646623
 12
160.6737418074
 22
30.8519089441
 13
160.6737418074
 23
30.8519089441
  0
SOLID
  8
0
 62
7
  6
CONTINUOUS
 10
160.8471793074
 20
30.9809646623
 11
160.9628038663
 21
30.8519089441
 12
160.6737418074
 22
30.8519089441
 13
160.6737418074
 23
30.8519089441
  0
SOLID
  8
0
 62
7
  6
CONTINUOUS
 10
160.615929528
 20
30.7873818593
 11
160.6737418074
 21
30.8519089441
 12
160.9628038663
 22
30.8519089441
 13
160.9628038663
 23
30.8519089441
  0
SOLID
  8
0
 62
7
  6
CONTINUOUS
 10
160.9628038663
 20
30.8519089441
 11
160.9628038663
 21
30.7873818593
 12
160.615929528
 22
30.7873818593
 13
160.615929528
 23
30.7873818593
  0
SOLID
  8
0
 62
7
  6
CONTINUOUS
 10
160.5003043074
 20
30.7551187255
 11
160.615929528
 21
30.7873818593
 12
160.9628038663
 22
30.7873818593
 13
160.9628038663
 23
30.7873818593
  0
SOLID
  8
0
 62
7
  6
CONTINUOUS
 10
160.5003043074
 20
30.7551187255
 11
160.9628038663
 21
30.7873818593
 12
160.269054528
 22
30.7228547745
 13
160.269054528
 23
30.7228547745
  0
SOLID
  8
0
 62
7
  6
CONTINUOUS
 10
160.9628038663
 20
30.7873818593
 11
160.8471793074
 21
30.6905916353
 12
160.269054528
 22
30.7228547745
 13
160.269054528
 23
30.7228547745
  0
SOLID
  8
0
 62
7
  6
CONTINUOUS
 10
160.8471793074
 20
30.6905916353
 11
159.401867028
 21
30.658327332
 12
160.269054528
 22
30.7228547745
 13
160.269054528
 23
30.7228547745
  0
SOLID
  8
0
 62
7
  6
CONTINUOUS
 10
160.269054528
 20
30.7228547745
 11
159.401867028
 21
30.658327332
 12
159.922179528
 22
30.7228547745
 13
159.922179528
 23
30.7228547745
  0
SOLID
  8
0
 62
7
  6
CONTINUOUS
 10
159.401867028
 20
30.658327332
 11
159.228429528
 21
30.7228547745
 12
159.922179528
 22
30.7228547745
 13
159.922179528
 23
30.7228547745
  0
SOLID
  8
0
 62
7
  6
CONTINUOUS
 10
159.401867028
 20
30.658327332
 11
160.8471793074
 21
30.6905916353
 12
159.575304528
 22
30.6260629858
 13
159.575304528
 23
30.6260629858
  0
SOLID
  8
0
 62
7
  6
CONTINUOUS
 10
160.8471793074
 20
30.6905916353
 11
160.615929528
 21
30.6260629858
 12
159.575304528
 22
30.6260629858
 13
159.575304528
 23
30.6260629858
  0
SOLID
  8
0
 62
7
  6
CONTINUOUS
 10
159.922179528
 20
30.5938006049
 11
159.575304528
 21
30.6260629858
 12
160.615929528
 22
30.6260629858
 13
160.615929528
 23
30.6260629858
  0
SOLID
  8
0
 62
7
  6
CONTINUOUS
 10
160.615929528
 20
30.6260629858
 11
160.269054528
 21
30.5938006049
 12
159.922179528
 22
30.5938006049
 13
159.922179528
 23
30.5938006049
  0
SOLID
  8
0
 62
7
  6
CONTINUOUS
 10
149.5737418074
 20
31.1100184796
 11
149.9206168074
 21
31.2713369632
 12
149.8628043005
 22
31.1422827828
 13
149.8628043005
 23
31.1422827828
  0
SOLID
  8
0
 62
7
  6
CONTINUOUS
 10
149.8628043005
 20
31.1422827828
 11
149.8628043005
 21
31.0454914852
 12
149.5737418074
 22
31.1100184796
 13
149.5737418074
 23
31.1100184796
  0
SOLID
  8
0
 62
7
  6
CONTINUOUS
 10
149.6315543091
 20
30.9164372091
 11
149.5737418074
 21
31.1100184796
 12
149.8628043005
 22
31.0454914852
 13
149.8628043005
 23
31.0454914852
  0
SOLID
  8
0
 62
7
  6
CONTINUOUS
 10
149.8628043005
 20
31.0454914852
 11
149.9784292936
 21
30.8841729058
 12
149.6315543091
 22
30.9164372091
 13
149.6315543091
 23
30.9164372091
  0
SOLID
  8
0
 62
7
  6
CONTINUOUS
 10
149.7471793074
 20
30.7873813202
 11
149.6315543091
 21
30.9164372091
 12
149.9784292936
 22
30.8841729058
 13
149.9784292936
 23
30.8841729058
  0
SOLID
  8
0
 62
7
  6
CONTINUOUS
 10
149.9784292936
 20
30.8841729058
 11
150.1518667936
 21
30.7873813202
 12
149.7471793074
 22
30.7873813202
 13
149.7471793074
 23
30.7873813202
  0
SOLID
  8
0
 62
7
  6
CONTINUOUS
 10
149.8628043005
 20
30.7228547004
 11
149.7471793074
 21
30.7873813202
 12
150.1518667936
 22
30.7873813202
 13
150.1518667936
 23
30.7873813202
  0
SOLID
  8
0
 62
7
  6
CONTINUOUS
 10
150.1518667936
 20
30.7873813202
 11
150.498741835
 21
30.7228547004
 12
149.8628043005
 22
30.7228547004
 13
149.8628043005
 23
30.7228547004
  0
SOLID
  8
0
 62
7
  6
CONTINUOUS
 10
150.0362418212
 20
30.658327332
 11
149.8628043005
 21
30.7228547004
 12
150.498741835
 22
30.7228547004
 13
150.498741835
 23
30.7228547004
  0
SOLID
  8
0
 62
7
  6
CONTINUOUS
 10
154.0831168074
 20
31.1100184386
 11
154.1987416972
 21
31.1745462761
 12
154.7768668074
 22
31.1422827828
 13
154.7768668074
 23
31.1422827828
  0
SOLID
  8
0
 62
7
  6
CONTINUOUS
 10
154.7768668074
 20
31.1422827828
 11
154.5456166972
 21
31.1100184386
 12
154.0831168074
 22
31.1100184386
 13
154.0831168074
 23
31.1100184386
  0
SOLID
  8
0
 62
7
  6
CONTINUOUS
 10
153.9674919177
 20
30.9809642992
 11
154.0831168074
 21
31.1100184386
 12
154.5456166972
 22
31.1100184386
 13
154.5456166972
 23
31.1100184386
  0
SOLID
  8
0
 62
7
  6
CONTINUOUS
 10
154.3143669177
 20
31.0132277988
 11
153.9674919177
 21
30.9809642992
 12
154.4299918074
 22
31.0777556927
 13
154.4299918074
 23
31.0777556927
  0
SOLID
  8
0
 62
7
  6
CONTINUOUS
 10
153.9674919177
 20
30.9809642992
 11
154.5456166972
 21
31.1100184796
 12
154.4299918074
 22
31.0777556927
 13
154.4299918074
 23
31.0777556927
  0
SOLID
  8
0
 62
7
  6
CONTINUOUS
 10
154.3143669177
 20
31.0132277988
 11
154.2565543074
 21
30.9164372091
 12
153.9674919177
 22
30.9809642992
 13
153.9674919177
 23
30.9809642992
  0
SOLID
  8
0
 62
7
  6
CONTINUOUS
 10
153.9674919177
 20
30.8841729058
 11
153.9674919177
 21
30.9809642992
 12
154.2565543074
 22
30.9164372091
 13
154.2565543074
 23
30.9164372091
  0
SOLID
  8
0
 62
7
  6
CONTINUOUS
 10
154.2565543074
 20
30.9164372091
 11
154.2565543074
 21
30.8519086025
 12
153.9674919177
 22
30.8841729058
 13
153.9674919177
 23
30.8841729058
  0
SOLID
  8
0
 62
7
  6
CONTINUOUS
 10
154.0253041972
 20
30.7551187255
 11
153.9674919177
 21
30.8841729058
 12
154.2565543074
 22
30.8519086025
 13
154.2565543074
 23
30.8519086025
  0
SOLID
  8
0
 62
7
  6
CONTINUOUS
 10
155.412804528
 20
30.9487004259
 11
155.7018665869
 21
30.8519086025
 12
155.3549915869
 22
30.8841729058
 13
155.3549915869
 23
30.8841729058
  0
SOLID
  8
0
 62
7
  6
CONTINUOUS
 10
155.1815540869
 20
30.7873815123
 11
155.3549915869
 21
30.8841729058
 12
155.7018665869
 22
30.8519086025
 13
155.7018665869
 23
30.8519086025
  0
SOLID
  8
0
 62
7
  6
CONTINUOUS
 10
155.1815540869
 20
30.7873815123
 11
155.7018665869
 21
30.8519086025
 12
155.412804528
 22
30.7551187255
 13
155.412804528
 23
30.7551187255
  0
SOLID
  8
0
 62
7
  6
CONTINUOUS
 10
155.7018665869
 20
30.8519086025
 11
155.759679528
 21
30.6905916353
 12
155.412804528
 22
30.7551187255
 13
155.412804528
 23
30.7551187255
  0
SOLID
  8
0
 62
7
  6
CONTINUOUS
 10
155.4706168074
 20
30.658327332
 11
155.412804528
 21
30.7551187255
 12
155.759679528
 22
30.6905916353
 13
155.759679528
 23
30.6905916353
  0
SOLID
  8
0
 62
7
  6
CONTINUOUS
 10
155.4706168074
 20
30.658327332
 11
155.759679528
 21
30.6905916353
 12
155.5284290869
 22
30.5938002079
 13
155.5284290869
 23
30.5938002079
  0
SOLID
  8
0
 62
7
  6
CONTINUOUS
 10
155.759679528
 20
30.6905916353
 11
155.8174918074
 21
30.5938002079
 12
155.5284290869
 22
30.5938002079
 13
155.5284290869
 23
30.5938002079
  0
SOLID
  8
0
 62
7
  6
CONTINUOUS
 10
151.0768668626
 20
30.8196456577
 11
151.1346793074
 21
30.9164373395
 12
151.4237418626
 22
30.9164373395
 13
151.4237418626
 23
30.9164373395
  0
SOLID
  8
0
 62
7
  6
CONTINUOUS
 10
151.4237418626
 20
30.9164373395
 11
151.3659292523
 21
30.7873815123
 12
151.0768668626
 22
30.8196456577
 13
151.0768668626
 23
30.8196456577
  0
SOLID
  8
0
 62
7
  6
CONTINUOUS
 10
150.9034292799
 20
30.7551187255
 11
151.0768668626
 21
30.8196456577
 12
151.3659292523
 22
30.7873815123
 13
151.3659292523
 23
30.7873815123
  0
SOLID
  8
0
 62
7
  6
CONTINUOUS
 10
150.9034292799
 20
30.7551187255
 11
151.3659292523
 21
30.7873815123
 12
150.498741835
 22
30.7228544222
 13
150.498741835
 23
30.7228544222
  0
SOLID
  8
0
 62
7
  6
CONTINUOUS
 10
151.3659292523
 20
30.7873815123
 11
151.1924917523
 21
30.6905916353
 12
150.498741835
 22
30.7228544222
 13
150.498741835
 23
30.7228544222
  0
SOLID
  8
0
 62
7
  6
CONTINUOUS
 10
150.0362418212
 20
30.658327332
 11
150.498741835
 21
30.7228544222
 12
151.1924917523
 22
30.6905916353
 13
151.1924917523
 23
30.6905916353
  0
SOLID
  8
0
 62
7
  6
CONTINUOUS
 10
150.0362418212
 20
30.658327332
 11
151.1924917523
 21
30.6905916353
 12
150.2096793212
 22
30.6260631011
 13
150.2096793212
 23
30.6260631011
  0
SOLID
  8
0
 62
7
  6
CONTINUOUS
 10
151.1924917523
 20
30.6905916353
 11
150.9612418074
 21
30.6260631011
 12
150.2096793212
 22
30.6260631011
 13
150.2096793212
 23
30.6260631011
  0
SOLID
  8
0
 62
7
  6
CONTINUOUS
 10
150.5565542799
 20
30.5938002419
 11
150.2096793212
 21
30.6260631011
 12
150.9612418074
 22
30.6260631011
 13
150.9612418074
 23
30.6260631011
  0
SOLID
  8
0
 62
7
  6
CONTINUOUS
 10
154.0253041972
 20
30.7551187255
 11
154.2565543074
 21
30.8519086025
 12
154.3143669177
 22
30.7873815123
 13
154.3143669177
 23
30.7873815123
  0
SOLID
  8
0
 62
7
  6
CONTINUOUS
 10
154.3143669177
 20
30.7873815123
 11
154.5456166972
 21
30.7228544222
 12
154.0253041972
 22
30.7551187255
 13
154.0253041972
 23
30.7551187255
  0
SOLID
  8
0
 62
7
  6
CONTINUOUS
 10
154.1987416972
 20
30.658327332
 11
154.0253041972
 21
30.7551187255
 12
154.5456166972
 22
30.7228544222
 13
154.5456166972
 23
30.7228544222
  0
SOLID
  8
0
 62
7
  6
CONTINUOUS
 10
154.8924916972
 20
30.7228544637
 11
155.1815540869
 21
30.7873815123
 12
155.412804528
 22
30.7551187255
 13
155.412804528
 23
30.7551187255
  0
SOLID
  8
0
 62
7
  6
CONTINUOUS
 10
155.412804528
 20
30.7551187255
 11
155.3549915869
 21
30.6905916353
 12
154.8924916972
 22
30.7228544637
 13
154.8924916972
 23
30.7228544637
  0
SOLID
  8
0
 62
7
  6
CONTINUOUS
 10
155.3549915869
 20
30.6905916353
 11
154.1987416972
 21
30.658327332
 12
154.8924916972
 22
30.7228544637
 13
154.8924916972
 23
30.7228544637
  0
SOLID
  8
0
 62
7
  6
CONTINUOUS
 10
154.1987416972
 20
30.658327332
 11
154.5456166972
 21
30.7228544637
 12
154.8924916972
 22
30.7228544637
 13
154.8924916972
 23
30.7228544637
  0
SOLID
  8
0
 62
7
  6
CONTINUOUS
 10
154.1987416972
 20
30.658327332
 11
155.3549915869
 21
30.6905916353
 12
154.3143669177
 22
30.6260630541
 13
154.3143669177
 23
30.6260630541
  0
SOLID
  8
0
 62
7
  6
CONTINUOUS
 10
155.3549915869
 20
30.6905916353
 11
155.1815540869
 21
30.6260630541
 12
154.3143669177
 22
30.6260630541
 13
154.3143669177
 23
30.6260630541
  0
SOLID
  8
0
 62
7
  6
CONTINUOUS
 10
154.5456166972
 20
30.5938002188
 11
154.3143669177
 21
30.6260630541
 12
155.1815540869
 22
30.6260630541
 13
155.1815540869
 23
30.6260630541
  0
SOLID
  8
0
 62
7
  6
CONTINUOUS
 10
155.1815540869
 20
30.6260630541
 11
154.8924916972
 21
30.5938002188
 12
154.5456166972
 22
30.5938002188
 13
154.5456166972
 23
30.5938002188
  0
SOLID
  8
0
 62
7
  6
CONTINUOUS
 10
159.575304528
 20
30.7551187255
 11
159.228429528
 21
30.7228544637
 12
159.4596793074
 22
30.7873815123
 13
159.4596793074
 23
30.7873815123
  0
SOLID
  8
0
 62
7
  6
CONTINUOUS
 10
159.4596793074
 20
30.7873815123
 11
159.228429528
 21
30.7228544637
 12
159.401867028
 22
30.851908644
 13
159.401867028
 23
30.851908644
  0
SOLID
  8
0
 62
7
  6
CONTINUOUS
 10
159.228429528
 20
30.7228544637
 11
159.1128043074
 21
30.851908644
 12
159.401867028
 22
30.851908644
 13
159.401867028
 23
30.851908644
  0
SOLID
  8
0
 62
7
  6
CONTINUOUS
 10
159.575304528
 20
30.7551187255
 11
159.922179528
 21
30.7228544637
 12
159.228429528
 22
30.7228544637
 13
159.228429528
 23
30.7228544637
  0
SOLID
  8
0
 62
7
  6
CONTINUOUS
 10
156.279992028
 20
30.5938002419
 11
156.279992028
 21
31.6262382337
 12
156.5690540869
 22
30.5938002419
 13
156.5690540869
 23
31.6262382337
  0
ENDBLK
  8
0
  6
BYBLOCK
 62
0
  0
BLOCK
  8
0
 62
2
  6
CONTINUOUS
  2
SYMBOL_3_BL0
 70
64
 10
32.1213064866
 20
19.8534310916
  0
TEXT
  8
0
 62
7
  6
CONTINUOUS
 10
18.3860103289
 20
19.2268451992
  7
TEXTSTYLE_3
 40
2.7338706658
  1
Ammeraal Beltech
 41
1.0
 51
15.0
 72
0
  0
TEXT
  8
0
 62
7
  6
CONTINUOUS
 10
29.1868111546
 20
16.9533085264
  7
TEXTSTYLE_4
 40
1.0935482663
  1
Innovation & Service in Belting
 41
1.0
 72
0
  0
LINE
  8
0
 62
7
  6
CONTINUOUS
 10
12.3614696776
 20
19.9934385078
 11
13.1396216709
 21
23.6543558055
  0
LINE
  8
0
 62
7
  6
CONTINUOUS
 10
23.2347899607
 20
27.3177497171
 11
13.6274394139
 21
24.1961322958
  0
LINE
  8
0
 62
7
  6
CONTINUOUS
 10
12.5867530099
 20
19.3000877048
 11
20.093828271
 21
12.5406867788
  0
LINE
  8
0
 62
7
  6
CONTINUOUS
 10
12.8492874206
 20
20.5352149982
 11
23.6575567857
 21
24.0470345971
  0
LINE
  8
0
 62
7
  6
CONTINUOUS
 10
23.6533516486
 20
13.6972460334
 11
15.2078919798
 21
21.3015720751
  0
LINE
  8
0
 62
7
  6
CONTINUOUS
 10
24.1731743684
 20
26.4728246013
 11
23.1966148312
 21
21.8784731989
  0
LINE
  8
0
 62
7
  6
CONTINUOUS
 10
22.4968128835
 20
18.5861638851
 11
21.810364672
 21
15.3566789607
  0
LINE
  8
0
 62
7
  6
CONTINUOUS
 10
24.8542704669
 20
14.087448211
 11
25.8105020025
 21
18.5861638851
  0
LINE
  8
0
 62
7
  6
CONTINUOUS
 10
26.5103039502
 20
21.8784731989
 11
26.9545457526
 21
23.9684665583
  0
LINE
  8
0
 62
7
  6
CONTINUOUS
 10
20.8069293463
 20
12.3891124661
 11
24.3664527239
 21
13.5456717207
  0
LINE
  8
0
 62
7
  6
CONTINUOUS
 10
23.9478910361
 20
27.1661754044
 11
26.7292624203
 21
24.6618173613
  0
ARC
  8
0
 62
7
  6
CONTINUOUS
 10
13.8527227462
 20
23.5027814928
 40
0.7290321776
 50
108.0
 51
168.0
  0
ARC
  8
0
 62
7
  6
CONTINUOUS
 10
23.4600732931
 20
26.624398914
 40
0.7290321776
 50
348.0
 51
108.0
  0
ARC
  8
0
 62
7
  6
CONTINUOUS
 10
26.2414446773
 20
24.120040871
 40
0.7290321776
 50
348.0
 51
48.0
  0
ARC
  8
0
 62
7
  6
CONTINUOUS
 10
20.581646014
 20
13.0824632691
 40
0.7290321776
 50
228.0
 51
288.0
  0
ARC
  8
0
 62
7
  6
CONTINUOUS
 10
13.0745707529
 20
19.8418641951
 40
0.7290321776
 50
108.0
 51
228.0
  0
ARC
  8
0
 62
7
  6
CONTINUOUS
 10
24.1411693916
 20
14.2390225237
 40
0.7290321776
 50
228.0
 51
348.0
  0
ENDBLK
  8
0
  6
BYBLOCK
 62
0
  0
ENDSEC
  0
SECTION
  2
ENTITIES
  0
TEXT
  8
0
 62
5
  6
CONTINUOUS
 10
96.0
 20
25.636
  7
TEXTSTYLE_2
 40
2.8
  1
Scale :
 41
0.6
 51
0.000019
 72
0
  0
TEXT
  8
0
 62
5
  6
CONTINUOUS
 10
116.0
 20
25.636
  7
TEXTSTYLE_2
 40
2.8
  1
Belt type:
 41
0.6
 51
0.000019
 72
0
  0
INSERT
  8
0
 62
2
  6
CONTINUOUS
  2
SYMBOL_3_BL0
 10
32.1213064866
 20
19.8534310916
  0
INSERT
  8
0
 62
2
  6
CONTINUOUS
  2
SYMBOL_8_BL1
 10
173.5956734183
 20
35.5937998301
  0
LINE
  8
0
 62
2
  6
CONTINUOUS
 10
10.0
 20
30.0
 11
200.0
 21
30.0
  0
LINE
  8
0
 62
2
  6
CONTINUOUS
 10
10.0
 20
30.0
 11
10.0
 21
10.0
  0
LINE
  8
0
 62
2
  6
CONTINUOUS
 10
10.0
 20
10.0
 11
200.0
 21
10.0
  0
LINE
  8
0
 62
2
  6
CONTINUOUS
 10
95.0
 20
30.0
 11
95.0
 21
10.0
  0
LINE
  8
0
 62
2
  6
CONTINUOUS
 10
115.0
 20
30.0
 11
115.0
 21
10.0
  0
LINE
  8
0
 62
2
  6
CONTINUOUS
 10
200.0
 20
30.0
 11
200.0
 21
10.0
  0
TEXT
  8
0
 62
5
  6
CONTINUOUS
 10
13.0
 20
23.303
  7
TEXTSTYLE_5
 40
1.52
  1
                                                                     Ammeraal Beltech Modular A/S
 41
1.0
 72
0
  0
TEXT
  8
0
 62
5
  6
CONTINUOUS
 10
13.0
 20
20.595
  7
TEXTSTYLE_5
 40
1.5
  1
                                                                      Hjulmagervej 21,  7100 Vejle,  DK
 41
1.0
 72
0
  0
TEXT
  8
0
 62
5
  6
CONTINUOUS
 10
13.0
 20
17.881
  7
TEXTSTYLE_5
 40
1.495
  1
                                                                      tel: 
 41
1.0
 72
0
  0
TEXT
  8
0
 62
5
  6
CONTINUOUS
 10
57.9869465649
 20
17.881
  7
TEXTSTYLE_5
 40
1.51
  1
+45 75723100     fax: +45 75723348
 41
1.0
 72
0
  0
TEXT
  8
0
 62
5
  6
CONTINUOUS
 10
13.0
 20
15.177
  7
TEXTSTYLE_5
 40
1.5
  1
                                                                      admin@unichains.dk  www.unichains.com
 41
1.0
 72
0
  0
TEXT
  8
0
 62
5
  6
CONTINUOUS
 10
99.75
 20
13.75
  7
TEXTSTYLE_6
 40
5.0
  1
1:1
 41
0.7
 72
1
 11
105.0
 21
13.75
  0
TEXT
  8
0
 62
5
  6
CONTINUOUS
 10
118.0
 20
13.75
  7
TEXTSTYLE_7
 40
7.5
  1
uni SNB M2 20% TAB SLO K750
 41
0.392507716
 72
0
  0
LINE
  8
0
 62
7
  6
CONTINUOUS
 10
210.0
 20
0.0
 11
0.0
 21
0.0
  0
LINE
  8
0
 62
7
  6
CONTINUOUS
 10
10.0
 20
10.0
 11
200.0
 21
10.0
  0
LINE
  8
0
 62
7
  6
CONTINUOUS
 10
10.0
 20
30.0
 11
200.0
 21
30.0
  0
LINE
  8
0
 62
7
  6
CONTINUOUS
 10
0.0
 20
0.0
 11
0.0
 21
297.0
  0
LINE
  8
0
 62
7
  6
CONTINUOUS
 10
10.0
 20
10.0
 11
10.0
 21
287.0
  0
LINE
  8
0
 62
7
  6
CONTINUOUS
 10
200.0
 20
287.0
 11
200.0
 21
10.0
  0
LINE
  8
0
 62
7
  6
CONTINUOUS
 10
210.0
 20
0.0
 11
210.0
 21
297.0
  0
LINE
  8
0
 62
7
  6
CONTINUOUS
 10
10.0
 20
287.0
 11
200.0
 21
287.0
  0
LINE
  8
0
 62
7
  6
CONTINUOUS
 10
0.0
 20
297.0
 11
210.0
 21
297.0
  0
LINE
  8
0
 62
2
  6
CONTINUOUS
 10
57.4145634952
 20
271.5459404751
 11
57.4145634952
 21
269.7859404751
  0
LINE
  8
DEFAULT_1
 62
2
  6
CENTER
 10
57.4145634952
 20
266.2659404751
 11
57.4145634952
 21
266.0659404751
  0
LINE
  8
DEFAULT_1
 62
2
  6
CENTER
 10
57.4145634952
 20
275.0659404751
 11
57.4145634952
 21
275.2659404751
  0
POLYLINE
  8
0
 62
7
  6
CONTINUOUS
 66
1
 70
0
  0
VERTEX
  8
0
 62
7
  6
CONTINUOUS
 10
55.416718334
 20
266.6727627605
  0
VERTEX
  8
0
 62
7
  6
CONTINUOUS
 10
55.4113125478
 20
266.6809079182
  0
VERTEX
  8
0
 62
7
  6
CONTINUOUS
 10
55.4298786429
 20
266.6888478003
  0
VERTEX
  8
0
 62
7
  6
CONTINUOUS
 10
55.4714807684
 20
266.6964640825
  0
VERTEX
  8
0
 62
7
  6
CONTINUOUS
 10
55.5354016881
 20
266.7036617725
  0
VERTEX
  8
0
 62
7
  6
CONTINUOUS
 10
55.6197496542
 20
266.7102625791
  0
VERTEX
  8
0
 62
7
  6
CONTINUOUS
 10
55.7235362813
 20
266.7162283924
  0
VERTEX
  8
0
 62
7
  6
CONTINUOUS
 10
55.8475638938
 20
266.7215853014
  0
VERTEX
  8
0
 62
7
  6
CONTINUOUS
 10
55.991231224
 20
266.7262669615
  0
VERTEX
  8
0
 62
7
  6
CONTINUOUS
 10
56.1529148849
 20
266.7302139782
  0
VERTEX
  8
0
 62
7
  6
CONTINUOUS
 10
56.3310353642
 20
266.7334160404
  0
SEQEND
  0
LINE
  8
0
 62
7
  6
CONTINUOUS
 10
60.1145634952
 20
266.582554497
 11
60.1145634952
 21
266.3210872688
  0
LINE
  8
0
 62
7
  6
CONTINUOUS
 10
60.4895634952
 20
266.3210872688
 11
60.4895634952
 21
266.582554497
  0
LINE
  8
0
 62
7
  6
CONTINUOUS
 10
61.6145634952
 20
266.4379130533
 11
61.6145634952
 21
266.4712918444
  0
LINE
  8
0
 62
7
  6
CONTINUOUS
 10
61.6770634356
 20
266.5547388378
 11
61.6770634356
 21
266.5814418719
  0
LINE
  8
0
 62
7
  6
CONTINUOUS
 10
61.8645634356
 20
266.5491757059
 11
61.8645634356
 21
266.5781039935
  0
LINE
  8
0
 62
7
  6
CONTINUOUS
 10
61.9270635548
 20
266.4434761851
 11
61.9270635548
 21
266.4824181161
  0
LINE
  8
0
 62
7
  6
CONTINUOUS
 10
61.9895634952
 20
266.5380494422
 11
61.9895634952
 21
266.5728190193
  0
LINE
  8
0
 62
7
  6
CONTINUOUS
 10
62.0520634356
 20
266.5046706355
 11
62.0520634356
 21
266.5686466734
  0
LINE
  8
0
 62
7
  6
CONTINUOUS
 10
62.1770634952
 20
266.4601655807
 11
62.1770634952
 21
266.5603019696
  0
LINE
  8
0
 62
7
  6
CONTINUOUS
 10
62.3645634952
 20
266.4824181081
 11
62.3645634952
 21
266.5380494422
  0
LINE
  8
0
 62
7
  6
CONTINUOUS
 10
62.4270634356
 20
266.4991075037
 11
62.4270634356
 21
266.5213600467
  0
LINE
  8
0
 62
7
  6
CONTINUOUS
 10
84.5955634952
 20
258.7659404751
 11
71.5955634952
 21
258.7659404751
  0
LINE
  8
0
 62
7
  6
CONTINUOUS
 10
62.9270634952
 20
266.582554497
 11
62.9270634952
 21
266.3210872688
  0
LINE
  8
0
 62
7
  6
CONTINUOUS
 10
63.3020634952
 20
266.3210872688
 11
63.3020634952
 21
266.582554497
  0
LINE
  8
0
 62
7
  6
CONTINUOUS
 10
64.4270634952
 20
266.4379130533
 11
64.4270634952
 21
266.4712918444
  0
LINE
  8
0
 62
7
  6
CONTINUOUS
 10
64.4895636144
 20
266.5547388378
 11
64.4895636144
 21
266.5814418681
  0
LINE
  8
0
 62
7
  6
CONTINUOUS
 10
64.6770636144
 20
266.5491757059
 11
64.6770636144
 21
266.5781039877
  0
LINE
  8
0
 62
7
  6
CONTINUOUS
 10
64.739563376
 20
266.4434761851
 11
64.739563376
 21
266.4824180922
  0
LINE
  8
0
 62
7
  6
CONTINUOUS
 10
64.8020634952
 20
266.5380494422
 11
64.8020634952
 21
266.5728190103
  0
LINE
  8
0
 62
7
  6
CONTINUOUS
 10
64.8645636144
 20
266.5046706355
 11
64.8645636144
 21
266.5686466555
  0
LINE
  8
0
 62
7
  6
CONTINUOUS
 10
64.9895634952
 20
266.4601655807
 11
64.9895634952
 21
266.5603019696
  0
LINE
  8
0
 62
7
  6
CONTINUOUS
 10
65.1770634952
 20
266.4824181081
 11
65.1770634952
 21
266.5380494422
  0
LINE
  8
0
 62
7
  6
CONTINUOUS
 10
65.2395636144
 20
266.4991075037
 11
65.2395636144
 21
266.5213600467
  0
LINE
  8
0
 62
7
  6
CONTINUOUS
 10
61.9895634952
 20
266.5380494422
 11
62.0520634356
 21
266.5213600467
  0
LINE
  8
0
 62
7
  6
CONTINUOUS
 10
62.3645634952
 20
266.5380494422
 11
62.1770634952
 21
266.5603019696
  0
LINE
  8
0
 62
7
  6
CONTINUOUS
 10
62.4270634356
 20
266.5213600467
 11
62.3645634952
 21
266.5380494422
  0
LINE
  8
0
 62
7
  6
CONTINUOUS
 10
64.8020634952
 20
266.5380494422
 11
64.8645636144
 21
266.5213600467
  0
LINE
  8
0
 62
7
  6
CONTINUOUS
 10
65.2395636144
 20
266.5213600467
 11
65.1770634952
 21
266.5380494422
  0
LINE
  8
1_AXIS
 62
2
  6
CENTER
 10
70.1145634952
 20
256.7659404751
 11
70.1145634952
 21
277.9159404751
  0
POLYLINE
  8
0
 62
7
  6
CONTINUOUS
 66
1
 70
0
  0
VERTEX
  8
0
 62
7
  6
CONTINUOUS
 10
68.8220219864
 20
266.2701273765
  0
VERTEX
  8
0
 62
7
  6
CONTINUOUS
 10
68.8125643583
 20
266.2682134497
  0
VERTEX
  8
0
 62
7
  6
CONTINUOUS
 10
68.7956385816
 20
266.2668367192
  0
VERTEX
  8
0
 62
7
  6
CONTINUOUS
 10
68.7743478643
 20
266.2661375238
  0
VERTEX
  8
0
 62
7
  6
CONTINUOUS
 10
68.7507587308
 20
266.2659404751
  0
SEQEND
  0
LINE
  8
0
 62
7
  6
CONTINUOUS
 10
64.9895634952
 20
266.4601655807
 11
65.1770634952
 21
266.4824181081
  0
POLYLINE
  8
0
 62
7
  6
CONTINUOUS
 66
1
 70
0
  0
VERTEX
  8
0
 62
7
  6
CONTINUOUS
 10
68.9536985502
 20
266.2900460893
  0
VERTEX
  8
0
 62
7
  6
CONTINUOUS
 10
68.8954130222
 20
266.2834653863
  0
VERTEX
  8
0
 62
7
  6
CONTINUOUS
 10
68.8502091363
 20
266.2767861328
  0
VERTEX
  8
0
 62
7
  6
CONTINUOUS
 10
68.8220219864
 20
266.2701273765
  0
SEQEND
  0
LINE
  8
0
 62
7
  6
CONTINUOUS
 10
64.8020634952
 20
266.48798124
 11
64.6770636144
 21
266.4768549763
  0
LINE
  8
0
 62
7
  6
CONTINUOUS
 10
64.739563376
 20
266.4434761851
 11
64.9895634952
 21
266.4601655807
  0
LINE
  8
0
 62
7
  6
CONTINUOUS
 10
61.9270635548
 20
266.4434761851
 11
62.1770634952
 21
266.4601655807
  0
LINE
  8
0
 62
7
  6
CONTINUOUS
 10
64.6770636144
 20
266.4768549763
 11
64.4895636144
 21
266.4712918444
  0
LINE
  8
0
 62
7
  6
CONTINUOUS
 10
61.8645634356
 20
266.4768549763
 11
61.6770634356
 21
266.4712918444
  0
LINE
  8
0
 62
7
  6
CONTINUOUS
 10
64.4270634952
 20
266.4379130533
 11
64.739563376
 21
266.4434761851
  0
LINE
  8
0
 62
7
  6
CONTINUOUS
 10
61.6145634952
 20
266.4379130533
 11
61.9270635548
 21
266.4434761851
  0
LINE
  8
0
 62
7
  6
CONTINUOUS
 10
56.3310353642
 20
266.7334160404
 11
56.7492418187
 21
266.7378191556
  0
LINE
  8
0
 62
7
  6
CONTINUOUS
 10
56.7492418187
 20
266.7378191556
 11
57.2645634935
 21
266.739434834
  0
LINE
  8
0
 62
7
  6
CONTINUOUS
 10
82.9645634952
 20
266.2659404751
 11
68.82202609
 21
266.2659404751
  0
LINE
  8
0
 62
7
  6
CONTINUOUS
 10
57.2645634952
 20
266.2659404751
 11
68.7507587308
 21
266.2659404751
  0
LINE
  8
0
 62
7
  6
CONTINUOUS
 10
60.1145634952
 20
266.3210872688
 11
60.4895634952
 21
266.3210872688
  0
LINE
  8
0
 62
7
  6
CONTINUOUS
 10
62.9270634952
 20
266.3210872688
 11
63.3020634952
 21
266.3210872688
  0
LINE
  8
0
 62
7
  6
CONTINUOUS
 10
60.4895634952
 20
266.4379130533
 11
61.6145634952
 21
266.4379130533
  0
LINE
  8
0
 62
7
  6
CONTINUOUS
 10
63.3020634952
 20
266.4379130533
 11
64.4270634952
 21
266.4379130533
  0
LINE
  8
0
 62
7
  6
CONTINUOUS
 10
64.4895636144
 20
266.4712918444
 11
63.3020634952
 21
266.4712918444
  0
LINE
  8
0
 62
7
  6
CONTINUOUS
 10
61.6770634356
 20
266.4712918444
 11
60.4895634952
 21
266.4712918444
  0
LINE
  8
0
 62
7
  6
CONTINUOUS
 10
60.1145634952
 20
266.5203262084
 11
60.4895634952
 21
266.5203262084
  0
LINE
  8
0
 62
7
  6
CONTINUOUS
 10
62.9270634952
 20
266.5203262084
 11
63.3020634952
 21
266.5203262084
  0
LINE
  8
0
 62
7
  6
CONTINUOUS
 10
60.4895634952
 20
266.5547388378
 11
61.6770634356
 21
266.5547388378
  0
LINE
  8
0
 62
7
  6
CONTINUOUS
 10
63.3020634952
 20
266.5547388378
 11
64.4895636144
 21
266.5547388378
  0
LINE
  8
0
 62
7
  6
CONTINUOUS
 10
64.4270634952
 20
266.582554497
 11
62.9270634952
 21
266.582554497
  0
LINE
  8
0
 62
7
  6
CONTINUOUS
 10
61.6145634952
 20
266.582554497
 11
60.1145634952
 21
266.582554497
  0
LINE
  8
0
 62
7
  6
CONTINUOUS
 10
57.2645634935
 20
266.739434834
 11
68.7925388585
 21
266.7389143508
  0
POLYLINE
  8
0
 62
7
  6
CONTINUOUS
 66
1
 70
0
  0
VERTEX
  8
0
 62
7
  6
CONTINUOUS
 10
68.7925388585
 20
266.7389143508
  0
VERTEX
  8
0
 62
7
  6
CONTINUOUS
 10
69.2931903401
 20
266.7352402572
  0
VERTEX
  8
0
 62
7
  6
CONTINUOUS
 10
69.5019805341
 20
266.7322103908
  0
VERTEX
  8
0
 62
7
  6
CONTINUOUS
 10
69.6871826249
 20
266.7283831675
  0
VERTEX
  8
0
 62
7
  6
CONTINUOUS
 10
69.8504358352
 20
266.7237411396
  0
VERTEX
  8
0
 62
7
  6
CONTINUOUS
 10
69.9922818448
 20
266.718274222
  0
VERTEX
  8
0
 62
7
  6
CONTINUOUS
 10
70.1131206205
 20
266.7119444955
  0
VERTEX
  8
0
 62
7
  6
CONTINUOUS
 10
70.2101327703
 20
266.7048850761
  0
VERTEX
  8
0
 62
7
  6
CONTINUOUS
 10
70.2813772498
 20
266.697320476
  0
VERTEX
  8
0
 62
7
  6
CONTINUOUS
 10
70.3267901214
 20
266.689462282
  0
VERTEX
  8
0
 62
7
  6
CONTINUOUS
 10
70.3474508253
 20
266.6813071907
  0
VERTEX
  8
0
 62
7
  6
CONTINUOUS
 10
70.3424086563
 20
266.6727627605
  0
SEQEND
  0
LINE
  8
0
 62
7
  6
CONTINUOUS
 10
61.9270635548
 20
266.5769913652
 11
61.6145634952
 21
266.582554497
  0
LINE
  8
0
 62
7
  6
CONTINUOUS
 10
64.739563376
 20
266.5769913652
 11
64.4270634952
 21
266.582554497
  0
LINE
  8
0
 62
7
  6
CONTINUOUS
 10
61.6770634356
 20
266.5547388378
 11
61.8645634356
 21
266.5491757059
  0
LINE
  8
0
 62
7
  6
CONTINUOUS
 10
64.4895636144
 20
266.5547388378
 11
64.6770636144
 21
266.5491757059
  0
LINE
  8
0
 62
7
  6
CONTINUOUS
 10
62.1770634952
 20
266.5603019696
 11
61.9270635548
 21
266.5769913652
  0
LINE
  8
0
 62
7
  6
CONTINUOUS
 10
64.9895634952
 20
266.5603019696
 11
64.739563376
 21
266.5769913652
  0
LINE
  8
0
 62
7
  6
CONTINUOUS
 10
61.8645634356
 20
266.5491757059
 11
61.9895634952
 21
266.5380494422
  0
LINE
  8
0
 62
7
  6
CONTINUOUS
 10
64.6770636144
 20
266.5491757059
 11
64.8020634952
 21
266.5380494422
  0
LINE
  8
0
 62
7
  6
CONTINUOUS
 10
65.1770634952
 20
266.5380494422
 11
64.9895634952
 21
266.5603019696
  0
LINE
  8
0
 62
7
  6
CONTINUOUS
 10
70.5955634952
 20
259.7659404751
 11
70.5955634952
 21
266.2659404751
  0
LINE
  8
0
 62
7
  6
CONTINUOUS
 10
65.1770634952
 20
266.4824181081
 11
65.2395636144
 21
266.4991075037
  0
LINE
  8
0
 62
7
  6
CONTINUOUS
 10
64.8645636144
 20
266.5046706355
 11
64.8020634952
 21
266.48798124
  0
LINE
  8
0
 62
7
  6
CONTINUOUS
 10
62.1770634952
 20
266.4601655807
 11
62.3645634952
 21
266.4824181081
  0
LINE
  8
0
 62
7
  6
CONTINUOUS
 10
61.9895634952
 20
266.48798124
 11
61.8645634356
 21
266.4768549763
  0
LINE
  8
0
 62
7
  6
CONTINUOUS
 10
62.3645634952
 20
266.4824181081
 11
62.4270634356
 21
266.4991075037
  0
LINE
  8
0
 62
7
  6
CONTINUOUS
 10
62.0520634356
 20
266.5046706355
 11
61.9895634952
 21
266.48798124
  0
LINE
  8
0
 62
2
  6
CONTINUOUS
 10
83.6945634952
 20
270.6659404751
 11
81.9345634952
 21
270.6659404751
  0
LINE
  8
DEFAULT_1
 62
2
  6
CENTER
 10
78.4145634952
 20
270.6659404751
 11
78.2145634952
 21
270.6659404751
  0
LINE
  8
0
 62
2
  6
CONTINUOUS
 10
58.2945634952
 20
270.6659404751
 11
56.5345634952
 21
270.6659404751
  0
LINE
  8
DEFAULT_1
 62
2
  6
CENTER
 10
53.0145634952
 20
270.6659404751
 11
52.8145634952
 21
270.6659404751
  0
LINE
  8
DEFAULT_1
 62
2
  6
CENTER
 10
61.8145634952
 20
270.6659404751
 11
62.0145634952
 21
270.6659404751
  0
LINE
  8
DEFAULT_1
 62
2
  6
CENTER
 10
87.2145634952
 20
270.6659404751
 11
87.4145634952
 21
270.6659404751
  0
POLYLINE
  8
0
 62
7
  6
CONTINUOUS
 66
1
 70
0
  0
VERTEX
  8
0
 62
7
  6
CONTINUOUS
 10
70.3424086563
 20
274.6591181897
  0
VERTEX
  8
0
 62
7
  6
CONTINUOUS
 10
70.3479748895
 20
274.6511737673
  0
VERTEX
  8
0
 62
7
  6
CONTINUOUS
 10
70.3312201852
 20
274.6435557336
  0
VERTEX
  8
0
 62
7
  6
CONTINUOUS
 10
70.2932098012
 20
274.6362186037
  0
VERTEX
  8
0
 62
7
  6
CONTINUOUS
 10
70.2330960228
 20
274.6291104131
  0
VERTEX
  8
0
 62
7
  6
CONTINUOUS
 10
70.1504507438
 20
274.622371307
  0
VERTEX
  8
0
 62
7
  6
CONTINUOUS
 10
70.0465323348
 20
274.6162047898
  0
VERTEX
  8
0
 62
7
  6
CONTINUOUS
 10
69.9237151116
 20
274.6107576808
  0
VERTEX
  8
0
 62
7
  6
CONTINUOUS
 10
69.7833997973
 20
274.6060583524
  0
VERTEX
  8
0
 62
7
  6
CONTINUOUS
 10
69.6244859354
 20
274.6020570645
  0
VERTEX
  8
0
 62
7
  6
CONTINUOUS
 10
69.446565273
 20
274.5987514988
  0
VERTEX
  8
0
 62
7
  6
CONTINUOUS
 10
69.2476895794
 20
274.596121731
  0
SEQEND
  0
LINE
  8
0
 62
7
  6
CONTINUOUS
 10
69.2476895794
 20
274.596121731
 11
68.774647398
 21
274.5929049692
  0
LINE
  8
0
 62
7
  6
CONTINUOUS
 10
68.774647398
 20
274.5929049692
 11
56.9744891114
 21
274.5929388798
  0
POLYLINE
  8
0
 62
7
  6
CONTINUOUS
 66
1
 70
0
  0
VERTEX
  8
0
 62
7
  6
CONTINUOUS
 10
56.9744891114
 20
274.5929388798
  0
VERTEX
  8
0
 62
7
  6
CONTINUOUS
 10
56.4828168526
 20
274.5964429101
  0
VERTEX
  8
0
 62
7
  6
CONTINUOUS
 10
56.2755134206
 20
274.599355766
  0
VERTEX
  8
0
 62
7
  6
CONTINUOUS
 10
56.0900634278
 20
274.60306444
  0
VERTEX
  8
0
 62
7
  6
CONTINUOUS
 10
55.9237343618
 20
274.6076487524
  0
VERTEX
  8
0
 62
7
  6
CONTINUOUS
 10
55.7791596
 20
274.6130622783
  0
VERTEX
  8
0
 62
7
  6
CONTINUOUS
 10
55.6578745413
 20
274.6192192875
  0
VERTEX
  8
0
 62
7
  6
CONTINUOUS
 10
55.5597577305
 20
274.6260788395
  0
VERTEX
  8
0
 62
7
  6
CONTINUOUS
 10
55.4845395683
 20
274.6336817284
  0
VERTEX
  8
0
 62
7
  6
CONTINUOUS
 10
55.4348643657
 20
274.6418231599
  0
VERTEX
  8
0
 62
7
  6
CONTINUOUS
 10
55.4119208762
 20
274.6503359802
  0
VERTEX
  8
0
 62
7
  6
CONTINUOUS
 10
55.416718334
 20
274.6591181897
  0
SEQEND
  0
POLYLINE
  8
0
 62
7
  6
CONTINUOUS
 66
1
 70
0
  0
VERTEX
  8
0
 62
7
  6
CONTINUOUS
 10
68.822027521
 20
275.0617529154
  0
VERTEX
  8
0
 62
7
  6
CONTINUOUS
 10
68.8501076694
 20
275.0551129621
  0
VERTEX
  8
0
 62
7
  6
CONTINUOUS
 10
68.8951149139
 20
275.0484535933
  0
VERTEX
  8
0
 62
7
  6
CONTINUOUS
 10
68.9536985502
 20
275.0418348609
  0
SEQEND
  0
LINE
  8
0
 62
7
  6
CONTINUOUS
 10
57.2645634952
 20
275.0659404751
 11
82.9645634952
 21
275.0659404751
  0
POLYLINE
  8
0
 62
7
  6
CONTINUOUS
 66
1
 70
0
  0
VERTEX
  8
0
 62
7
  6
CONTINUOUS
 10
68.7507440102
 20
275.0659406581
  0
VERTEX
  8
0
 62
7
  6
CONTINUOUS
 10
68.7753346923
 20
275.0657250176
  0
VERTEX
  8
0
 62
7
  6
CONTINUOUS
 10
68.796406135
 20
275.0650043212
  0
VERTEX
  8
0
 62
7
  6
CONTINUOUS
 10
68.8126776324
 20
275.0636538519
  0
VERTEX
  8
0
 62
7
  6
CONTINUOUS
 10
68.822027521
 20
275.0617529154
  0
SEQEND
  0
LINE
  8
0
 62
2
  6
CONTINUOUS
 10
82.8145634952
 20
271.5459404751
 11
82.8145634952
 21
269.7859404751
  0
LINE
  8
DEFAULT_1
 62
2
  6
CENTER
 10
82.8145634952
 20
266.2659404751
 11
82.8145634952
 21
266.0659404751
  0
LINE
  8
DEFAULT_1
 62
2
  6
CENTER
 10
82.8145634952
 20
275.0659404751
 11
82.8145634952
 21
275.2659404751
  0
LINE
  8
0
 62
7
  6
CONTINUOUS
 10
85.5955634952
 20
259.7659404751
 11
85.5955634952
 21
265.8647074042
  0
LINE
  8
0
 62
7
  6
CONTINUOUS
 10
53.7145634952
 20
45.0326241696
 11
70.8945634952
 21
45.0326241696
  0
LINE
  8
0
 62
7
  6
CONTINUOUS
 10
57.2645634952
 20
45.1205588822
 11
68.4945634964
 21
45.1205588822
  0
LINE
  8
0
 62
7
  6
CONTINUOUS
 10
68.7507669858
 20
50.5326262775
 11
57.2645634952
 21
50.5326241696
  0
POLYLINE
  8
0
 62
7
  6
CONTINUOUS
 66
1
 70
0
  0
VERTEX
  8
0
 62
7
  6
CONTINUOUS
 10
57.2645634952
 20
45.1205588822
  0
VERTEX
  8
0
 62
7
  6
CONTINUOUS
 10
56.9744891114
 20
45.1261911958
  0
VERTEX
  8
0
 62
7
  6
CONTINUOUS
 10
56.7150123529
 20
45.1417220642
  0
VERTEX
  8
0
 62
7
  6
CONTINUOUS
 10
56.4828168526
 20
45.1662424461
  0
VERTEX
  8
0
 62
7
  6
CONTINUOUS
 10
56.2755134206
 20
45.1995365409
  0
VERTEX
  8
0
 62
7
  6
CONTINUOUS
 10
56.0900634278
 20
45.2419268786
  0
VERTEX
  8
0
 62
7
  6
CONTINUOUS
 10
55.9237343618
 20
45.2943258095
  0
VERTEX
  8
0
 62
7
  6
CONTINUOUS
 10
55.7791596
 20
45.3562026933
  0
VERTEX
  8
0
 62
7
  6
CONTINUOUS
 10
55.6578745413
 20
45.4265776312
  0
VERTEX
  8
0
 62
7
  6
CONTINUOUS
 10
55.5597577305
 20
45.504982669
  0
VERTEX
  8
0
 62
7
  6
CONTINUOUS
 10
55.4845395683
 20
45.5918840872
  0
VERTEX
  8
0
 62
7
  6
CONTINUOUS
 10
55.4348643657
 20
45.6849410748
  0
VERTEX
  8
0
 62
7
  6
CONTINUOUS
 10
55.4119208762
 20
45.7822430556
  0
VERTEX
  8
0
 62
7
  6
CONTINUOUS
 10
55.416718334
 20
45.8826241696
  0
SEQEND
  0
POLYLINE
  8
0
 62
7
  6
CONTINUOUS
 66
1
 70
0
  0
VERTEX
  8
0
 62
7
  6
CONTINUOUS
 10
57.2645634952
 20
50.5326241696
  0
VERTEX
  8
0
 62
7
  6
CONTINUOUS
 10
57.1684735682
 20
50.5206299205
  0
VERTEX
  8
0
 62
7
  6
CONTINUOUS
 10
57.0687435254
 20
50.4827937309
  0
VERTEX
  8
0
 62
7
  6
CONTINUOUS
 10
56.9669460116
 20
50.4174433861
  0
VERTEX
  8
0
 62
7
  6
CONTINUOUS
 10
56.8660687337
 20
50.3259414855
  0
VERTEX
  8
0
 62
7
  6
CONTINUOUS
 10
56.7671448981
 20
50.2102176052
  0
VERTEX
  8
0
 62
7
  6
CONTINUOUS
 10
56.6701954911
 20
50.0716556225
  0
VERTEX
  8
0
 62
7
  6
CONTINUOUS
 10
56.5748077377
 20
49.9108262141
  0
VERTEX
  8
0
 62
7
  6
CONTINUOUS
 10
56.4804968759
 20
49.7276889458
  0
VERTEX
  8
0
 62
7
  6
CONTINUOUS
 10
56.3868092523
 20
49.5217475013
  0
VERTEX
  8
0
 62
7
  6
CONTINUOUS
 10
56.2933140388
 20
49.2920669683
  0
VERTEX
  8
0
 62
7
  6
CONTINUOUS
 10
56.1996852388
 20
49.0375273573
  0
VERTEX
  8
0
 62
7
  6
CONTINUOUS
 10
56.1055854003
 20
48.7565833694
  0
VERTEX
  8
0
 62
7
  6
CONTINUOUS
 10
56.0107888863
 20
48.4476464071
  0
VERTEX
  8
0
 62
7
  6
CONTINUOUS
 10
55.9150504331
 20
48.1087305034
  0
VERTEX
  8
0
 62
7
  6
CONTINUOUS
 10
55.8181999111
 20
47.7377730203
  0
VERTEX
  8
0
 62
7
  6
CONTINUOUS
 10
55.7200611905
 20
47.3323657596
  0
VERTEX
  8
0
 62
7
  6
CONTINUOUS
 10
55.6205114789
 20
46.8899831141
  0
VERTEX
  8
0
 62
7
  6
CONTINUOUS
 10
55.5194213097
 20
46.4077304505
  0
VERTEX
  8
0
 62
7
  6
CONTINUOUS
 10
55.416718334
 20
45.8826241696
  0
SEQEND
  0
POLYLINE
  8
0
 62
7
  6
CONTINUOUS
 66
1
 70
0
  0
VERTEX
  8
0
 62
7
  6
CONTINUOUS
 10
75.8945634952
 20
53.1446241696
  0
VERTEX
  8
0
 62
7
  6
CONTINUOUS
 10
75.4867840917
 20
53.1166060265
  0
VERTEX
  8
0
 62
7
  6
CONTINUOUS
 10
75.0838242414
 20
53.0328177334
  0
VERTEX
  8
0
 62
7
  6
CONTINUOUS
 10
74.6986759467
 20
52.8959607487
  0
SEQEND
  0
LINE
  8
0
 62
7
  6
CONTINUOUS
 10
77.5145634952
 20
52.4446241696
 11
78.3145634952
 21
52.4446241696
  0
LINE
  8
0
 62
7
  6
CONTINUOUS
 10
67.4807925418
 20
52.7926241696
 11
53.7145927417
 21
52.7926241696
  0
LINE
  8
0
 62
7
  6
CONTINUOUS
 10
74.2477181635
 20
53.1446241696
 11
86.5145634952
 21
53.1446241696
  0
LINE
  8
0
 62
7
  6
CONTINUOUS
 10
62.7145634952
 20
53.4926241696
 11
61.9145634952
 21
53.4926241696
  0
LINE
  8
0
 62
7
  6
CONTINUOUS
 10
77.2323795328
 20
57.0326241696
 11
86.5145634952
 21
57.0326241696
  0
POLYLINE
  8
0
 62
7
  6
CONTINUOUS
 66
1
 70
0
  0
VERTEX
  8
0
 62
7
  6
CONTINUOUS
 10
68.7507440102
 20
50.5326262614
  0
VERTEX
  8
0
 62
7
  6
CONTINUOUS
 10
68.7753346923
 20
50.5301614796
  0
VERTEX
  8
0
 62
7
  6
CONTINUOUS
 10
68.796406135
 20
50.521923882
  0
VERTEX
  8
0
 62
7
  6
CONTINUOUS
 10
68.8126776324
 20
50.5064879475
  0
VERTEX
  8
0
 62
7
  6
CONTINUOUS
 10
68.822027521
 20
50.4847601436
  0
SEQEND
  0
LINE
  8
0
 62
7
  6
CONTINUOUS
 10
62.7145634952
 20
60.3826241696
 11
61.9145634952
 21
60.3826241696
  0
LINE
  8
0
 62
7
  6
CONTINUOUS
 10
72.7483344485
 20
60.7326241696
 11
76.9145634952
 21
60.7326241696
  0
LINE
  8
0
 62
7
  6
CONTINUOUS
 10
53.7145634952
 20
61.0826241696
 11
67.4832623361
 21
61.0826241696
  0
LINE
  8
0
 62
7
  6
CONTINUOUS
 10
67.482027439
 20
67.0826241696
 11
53.7145927417
 21
67.0826241696
  0
LINE
  8
0
 62
7
  6
CONTINUOUS
 10
72.7470995514
 20
67.4326241696
 11
86.5145634952
 21
67.4326241696
  0
LINE
  8
0
 62
7
  6
CONTINUOUS
 10
86.5145634952
 20
73.4326241696
 11
72.7470995514
 21
73.4326241696
  0
LINE
  8
0
 62
7
  6
CONTINUOUS
 10
53.7145634952
 20
73.7826241696
 11
67.482027439
 21
73.7826241696
  0
LINE
  8
0
 62
7
  6
CONTINUOUS
 10
68.8431810463
 20
220.0103454957
 11
68.7419031182
 21
219.9283322467
  0
LINE
  8
0
 62
7
  6
CONTINUOUS
 10
71.3859459441
 20
219.3029028435
 11
71.4896936664
 21
219.3869160925
  0
LINE
  8
0
 62
7
  6
CONTINUOUS
 10
67.482027439
 20
79.7826241696
 11
53.7145927417
 21
79.7826241696
  0
LINE
  8
0
 62
7
  6
CONTINUOUS
 10
72.7470995514
 20
80.1326241696
 11
86.5145634952
 21
80.1326241696
  0
LINE
  8
0
 62
7
  6
CONTINUOUS
 10
68.7419031182
 20
60.6369160925
 11
68.8431810463
 21
60.5549028435
  0
LINE
  8
0
 62
7
  6
CONTINUOUS
 10
71.4896936664
 20
61.1783322467
 11
71.3859459441
 21
61.2623454957
  0
POLYLINE
  8
0
 62
7
  6
CONTINUOUS
 66
1
 70
0
  0
VERTEX
  8
0
 62
7
  6
CONTINUOUS
 10
68.9536985502
 20
230.3081526005
  0
VERTEX
  8
0
 62
7
  6
CONTINUOUS
 10
68.8954130225
 20
230.2329348218
  0
VERTEX
  8
0
 62
7
  6
CONTINUOUS
 10
68.8502091362
 20
230.1565906045
  0
VERTEX
  8
0
 62
7
  6
CONTINUOUS
 10
68.8220215277
 20
230.0804794335
  0
SEQEND
  0
LINE
  8
0
 62
7
  6
CONTINUOUS
 10
68.8431810463
 20
207.3113454957
 11
68.7406682211
 21
207.2283322467
  0
LINE
  8
0
 62
7
  6
CONTINUOUS
 10
86.5145634952
 20
86.1326241696
 11
72.7470995514
 21
86.1326241696
  0
LINE
  8
0
 62
7
  6
CONTINUOUS
 10
53.7145634952
 20
86.4826241696
 11
67.482027439
 21
86.4826241696
  0
LINE
  8
0
 62
7
  6
CONTINUOUS
 10
68.7406682211
 20
73.3369160925
 11
68.8431810463
 21
73.2539028435
  0
LINE
  8
0
 62
7
  6
CONTINUOUS
 10
71.3859459441
 20
206.6039028435
 11
71.4884587693
 21
206.6869160925
  0
LINE
  8
0
 62
7
  6
CONTINUOUS
 10
67.482027439
 20
92.4826241696
 11
53.7145927417
 21
92.4826241696
  0
LINE
  8
0
 62
7
  6
CONTINUOUS
 10
72.7470995514
 20
92.8326241696
 11
86.5145634952
 21
92.8326241696
  0
LINE
  8
0
 62
7
  6
CONTINUOUS
 10
71.4884587693
 20
73.8783322467
 11
71.3859459441
 21
73.9613454957
  0
LINE
  8
0
 62
7
  6
CONTINUOUS
 10
68.8431810463
 20
194.6113454957
 11
68.7406682211
 21
194.5283322467
  0
LINE
  8
0
 62
7
  6
CONTINUOUS
 10
71.3859459441
 20
193.9039028435
 11
71.4884587693
 21
193.9869160925
  0
LINE
  8
0
 62
7
  6
CONTINUOUS
 10
86.5145634952
 20
98.8326241696
 11
72.7470995514
 21
98.8326241696
  0
LINE
  8
0
 62
7
  6
CONTINUOUS
 10
53.7145634952
 20
99.1826241696
 11
67.482027439
 21
99.1826241696
  0
LINE
  8
0
 62
7
  6
CONTINUOUS
 10
68.7406682211
 20
86.0369160925
 11
68.8431810463
 21
85.9539028435
  0
LINE
  8
0
 62
7
  6
CONTINUOUS
 10
71.4884587693
 20
86.5783322467
 11
71.3859459441
 21
86.6613454957
  0
POLYLINE
  8
0
 62
7
  6
CONTINUOUS
 66
1
 70
0
  0
VERTEX
  8
0
 62
7
  6
CONTINUOUS
 10
68.8220215277
 20
230.0804794335
  0
VERTEX
  8
0
 62
7
  6
CONTINUOUS
 10
68.8129398488
 20
230.0591565303
  0
VERTEX
  8
0
 62
7
  6
CONTINUOUS
 10
68.796858832
 20
230.0436105292
  0
VERTEX
  8
0
 62
7
  6
CONTINUOUS
 10
68.7754457352
 20
230.0351154312
  0
VERTEX
  8
0
 62
7
  6
CONTINUOUS
 10
68.7507587308
 20
230.0326241696
  0
SEQEND
  0
LINE
  8
0
 62
7
  6
CONTINUOUS
 10
68.8431810463
 20
181.9113454957
 11
68.7406682211
 21
181.8283322467
  0
LINE
  8
0
 62
7
  6
CONTINUOUS
 10
67.482027439
 20
105.1826241696
 11
53.7145927417
 21
105.1826241696
  0
LINE
  8
0
 62
7
  6
CONTINUOUS
 10
72.7470995514
 20
105.5326241696
 11
86.5145634952
 21
105.5326241696
  0
LINE
  8
0
 62
7
  6
CONTINUOUS
 10
68.7406682211
 20
98.7369160925
 11
68.8431810463
 21
98.6539028435
  0
POLYLINE
  8
0
 62
7
  6
CONTINUOUS
 66
1
 70
0
  0
VERTEX
  8
0
 62
7
  6
CONTINUOUS
 10
68.822027521
 20
50.4847601436
  0
VERTEX
  8
0
 62
7
  6
CONTINUOUS
 10
68.8501076694
 20
50.40886513
  0
VERTEX
  8
0
 62
7
  6
CONTINUOUS
 10
68.8951149139
 20
50.3327481957
  0
VERTEX
  8
0
 62
7
  6
CONTINUOUS
 10
68.9536985502
 20
50.2570957387
  0
SEQEND
  0
LINE
  8
0
 62
7
  6
CONTINUOUS
 10
71.3859459441
 20
181.2039028435
 11
71.4884587693
 21
181.2869160925
  0
LINE
  8
0
 62
7
  6
CONTINUOUS
 10
86.5145634952
 20
111.5326241696
 11
72.7470995514
 21
111.5326241696
  0
LINE
  8
0
 62
7
  6
CONTINUOUS
 10
53.7145634952
 20
111.8826241696
 11
67.482027439
 21
111.8826241696
  0
LINE
  8
0
 62
7
  6
CONTINUOUS
 10
71.4884587693
 20
99.2783322467
 11
71.3859459441
 21
99.3613454957
  0
LINE
  8
0
 62
7
  6
CONTINUOUS
 10
68.8431810463
 20
169.2113454957
 11
68.7406682211
 21
169.1283322467
  0
LINE
  8
0
 62
7
  6
CONTINUOUS
 10
71.3859459441
 20
168.5039028435
 11
71.4884587693
 21
168.5869160925
  0
LINE
  8
0
 62
7
  6
CONTINUOUS
 10
67.482027439
 20
117.8826241696
 11
53.7145927417
 21
117.8826241696
  0
LINE
  8
0
 62
7
  6
CONTINUOUS
 10
72.7470995514
 20
118.2326241696
 11
86.5145634952
 21
118.2326241696
  0
LINE
  8
0
 62
7
  6
CONTINUOUS
 10
68.7406682211
 20
111.4369160925
 11
68.8431810463
 21
111.3539028435
  0
LINE
  8
0
 62
7
  6
CONTINUOUS
 10
71.4884587693
 20
111.9783322467
 11
71.3859459441
 21
112.0613454957
  0
LINE
  8
2_FEATURE
 62
7
  6
CONTINUOUS
 10
52.8645634952
 20
234.6826241696
 11
52.8645634952
 21
228.6226241696
  0
LINE
  8
2_FEATURE
 62
7
  6
CONTINUOUS
 10
52.8645634952
 20
218.6326241696
 11
52.8645634952
 21
214.3326241696
  0
LINE
  8
2_FEATURE
 62
7
  6
CONTINUOUS
 10
52.8645634952
 20
205.9326241696
 11
52.8645634952
 21
201.6326241696
  0
LINE
  8
2_FEATURE
 62
7
  6
CONTINUOUS
 10
52.8645634952
 20
193.2326241696
 11
52.8645634952
 21
188.9326241696
  0
LINE
  8
2_FEATURE
 62
7
  6
CONTINUOUS
 10
52.8645634952
 20
180.5326241696
 11
52.8645634952
 21
176.2326241696
  0
LINE
  8
2_FEATURE
 62
7
  6
CONTINUOUS
 10
52.8645634952
 20
167.8326241696
 11
52.8645634952
 21
163.5326241696
  0
LINE
  8
2_FEATURE
 62
7
  6
CONTINUOUS
 10
52.8645634952
 20
155.1326241696
 11
52.8645634952
 21
150.8326241696
  0
LINE
  8
2_FEATURE
 62
7
  6
CONTINUOUS
 10
52.8645634952
 20
142.4326241696
 11
52.8645634952
 21
138.1326241696
  0
LINE
  8
2_FEATURE
 62
7
  6
CONTINUOUS
 10
52.8645634952
 20
129.7326241696
 11
52.8645634952
 21
125.4326241696
  0
LINE
  8
2_FEATURE
 62
7
  6
CONTINUOUS
 10
52.8645634952
 20
117.0326241696
 11
52.8645634952
 21
112.7326241696
  0
LINE
  8
2_FEATURE
 62
7
  6
CONTINUOUS
 10
52.8645634952
 20
104.3326241696
 11
52.8645634952
 21
100.0326241696
  0
LINE
  8
2_FEATURE
 62
7
  6
CONTINUOUS
 10
52.8645634952
 20
91.6326241696
 11
52.8645634952
 21
87.3326241696
  0
LINE
  8
2_FEATURE
 62
7
  6
CONTINUOUS
 10
52.8645634952
 20
78.9326241696
 11
52.8645634952
 21
74.6326241696
  0
LINE
  8
2_FEATURE
 62
7
  6
CONTINUOUS
 10
52.8645634952
 20
66.2326241696
 11
52.8645634952
 21
61.9326241696
  0
LINE
  8
2_FEATURE
 62
7
  6
CONTINUOUS
 10
52.8645634952
 20
51.9426241696
 11
52.8645634952
 21
45.8826241696
  0
LINE
  8
DEFAULT_1
 62
2
  6
CENTER
 10
57.4145634952
 20
43.0326241696
 11
57.4145634952
 21
237.5326241696
  0
POLYLINE
  8
0
 62
7
  6
CONTINUOUS
 66
1
 70
0
  0
VERTEX
  8
0
 62
7
  6
CONTINUOUS
 10
70.3424086563
 20
234.6826241696
  0
VERTEX
  8
0
 62
7
  6
CONTINUOUS
 10
70.2221182878
 20
234.0711814595
  0
VERTEX
  8
0
 62
7
  6
CONTINUOUS
 10
70.102214812
 20
233.509814074
  0
VERTEX
  8
0
 62
7
  6
CONTINUOUS
 10
69.9824390522
 20
232.9952913984
  0
VERTEX
  8
0
 62
7
  6
CONTINUOUS
 10
69.8624472428
 20
232.5246898129
  0
VERTEX
  8
0
 62
7
  6
CONTINUOUS
 10
69.7417987754
 20
232.0954453461
  0
VERTEX
  8
0
 62
7
  6
CONTINUOUS
 10
69.6199195341
 20
231.7053646772
  0
VERTEX
  8
0
 62
7
  6
CONTINUOUS
 10
69.4960540098
 20
231.3526931697
  0
VERTEX
  8
0
 62
7
  6
CONTINUOUS
 10
69.3691891435
 20
231.0362342698
  0
VERTEX
  8
0
 62
7
  6
CONTINUOUS
 10
69.2379315517
 20
230.7555705365
  0
VERTEX
  8
0
 62
7
  6
CONTINUOUS
 10
69.1003457872
 20
230.5115535835
  0
VERTEX
  8
0
 62
7
  6
CONTINUOUS
 10
68.9536985502
 20
230.3081526005
  0
SEQEND
  0
LINE
  8
0
 62
7
  6
CONTINUOUS
 10
68.8431810463
 20
156.5113454957
 11
68.7406682211
 21
156.4283322467
  0
LINE
  8
0
 62
7
  6
CONTINUOUS
 10
86.5145634952
 20
124.2326241696
 11
72.7470995515
 21
124.2326241696
  0
LINE
  8
0
 62
7
  6
CONTINUOUS
 10
53.7145634952
 20
124.5826241696
 11
67.482027439
 21
124.5826241696
  0
LINE
  8
0
 62
7
  6
CONTINUOUS
 10
68.7406682211
 20
124.1369160925
 11
68.8431810463
 21
124.0539028435
  0
POLYLINE
  8
0
 62
7
  6
CONTINUOUS
 66
1
 70
0
  0
VERTEX
  8
0
 62
7
  6
CONTINUOUS
 10
70.3424086563
 20
45.8826241696
  0
VERTEX
  8
0
 62
7
  6
CONTINUOUS
 10
70.2221182878
 20
46.4940668797
  0
VERTEX
  8
0
 62
7
  6
CONTINUOUS
 10
70.102214812
 20
47.0554342651
  0
VERTEX
  8
0
 62
7
  6
CONTINUOUS
 10
69.9824390522
 20
47.5699569407
  0
VERTEX
  8
0
 62
7
  6
CONTINUOUS
 10
69.8624472428
 20
48.0405585262
  0
VERTEX
  8
0
 62
7
  6
CONTINUOUS
 10
69.7417987754
 20
48.4698029931
  0
VERTEX
  8
0
 62
7
  6
CONTINUOUS
 10
69.6199195341
 20
48.859883662
  0
VERTEX
  8
0
 62
7
  6
CONTINUOUS
 10
69.4960540098
 20
49.2125551694
  0
VERTEX
  8
0
 62
7
  6
CONTINUOUS
 10
69.3691891435
 20
49.5290140693
  0
VERTEX
  8
0
 62
7
  6
CONTINUOUS
 10
69.2379315517
 20
49.8096778026
  0
VERTEX
  8
0
 62
7
  6
CONTINUOUS
 10
69.1003457872
 20
50.0536947556
  0
VERTEX
  8
0
 62
7
  6
CONTINUOUS
 10
68.9536985502
 20
50.2570957387
  0
SEQEND
  0
POLYLINE
  8
0
 62
7
  6
CONTINUOUS
 66
1
 70
0
  0
VERTEX
  8
0
 62
7
  6
CONTINUOUS
 10
55.416718334
 20
234.6826241696
  0
VERTEX
  8
0
 62
7
  6
CONTINUOUS
 10
55.4119076772
 20
234.782864435
  0
VERTEX
  8
0
 62
7
  6
CONTINUOUS
 10
55.434698378
 20
234.8798718374
  0
VERTEX
  8
0
 62
7
  6
CONTINUOUS
 10
55.4841219259
 20
234.9727617383
  0
VERTEX
  8
0
 62
7
  6
CONTINUOUS
 10
55.5590152312
 20
235.0595580654
  0
VERTEX
  8
0
 62
7
  6
CONTINUOUS
 10
55.6568128893
 20
235.1379490206
  0
VERTEX
  8
0
 62
7
  6
CONTINUOUS
 10
55.777902037
 20
235.2084181846
  0
VERTEX
  8
0
 62
7
  6
CONTINUOUS
 10
55.9223573047
 20
235.2704156357
  0
VERTEX
  8
0
 62
7
  6
CONTINUOUS
 10
56.0885185149
 20
235.322905484
  0
VERTEX
  8
0
 62
7
  6
CONTINUOUS
 10
56.2738895316
 20
235.3653984273
  0
VERTEX
  8
0
 62
7
  6
CONTINUOUS
 10
56.4813765476
 20
235.3988158054
  0
VERTEX
  8
0
 62
7
  6
CONTINUOUS
 10
56.7139079712
 20
235.4234357201
  0
VERTEX
  8
0
 62
7
  6
CONTINUOUS
 10
56.9738670097
 20
235.4390325273
  0
VERTEX
  8
0
 62
7
  6
CONTINUOUS
 10
57.2645634935
 20
235.4446894569
  0
SEQEND
  0
LINE
  8
0
 62
7
  6
CONTINUOUS
 10
71.3859459441
 20
155.8039028435
 11
71.4884587693
 21
155.8869160925
  0
LINE
  8
0
 62
7
  6
CONTINUOUS
 10
67.482027439
 20
130.5826241696
 11
53.7145927417
 21
130.5826241696
  0
LINE
  8
0
 62
7
  6
CONTINUOUS
 10
72.7470995514
 20
130.9326241696
 11
86.5145634952
 21
130.9326241696
  0
LINE
  8
0
 62
7
  6
CONTINUOUS
 10
71.4884587693
 20
124.6783322467
 11
71.3859459441
 21
124.7613454957
  0
POLYLINE
  8
0
 62
7
  6
CONTINUOUS
 66
1
 70
0
  0
VERTEX
  8
0
 62
7
  6
CONTINUOUS
 10
70.3424086563
 20
45.8826241696
  0
VERTEX
  8
0
 62
7
  6
CONTINUOUS
 10
70.3479748895
 20
45.7918190059
  0
VERTEX
  8
0
 62
7
  6
CONTINUOUS
 10
70.3312201852
 20
45.7047444821
  0
VERTEX
  8
0
 62
7
  6
CONTINUOUS
 10
70.2932098012
 20
45.6208807039
  0
VERTEX
  8
0
 62
7
  6
CONTINUOUS
 10
70.2330960228
 20
45.5396337135
  0
VERTEX
  8
0
 62
7
  6
CONTINUOUS
 10
70.1504507438
 20
45.4626053791
  0
VERTEX
  8
0
 62
7
  6
CONTINUOUS
 10
70.0465323348
 20
45.392121765
  0
VERTEX
  8
0
 62
7
  6
CONTINUOUS
 10
69.9237151116
 20
45.3298610233
  0
VERTEX
  8
0
 62
7
  6
CONTINUOUS
 10
69.7833997973
 20
45.2761474545
  0
VERTEX
  8
0
 62
7
  6
CONTINUOUS
 10
69.6244859354
 20
45.2304125238
  0
VERTEX
  8
0
 62
7
  6
CONTINUOUS
 10
69.446565273
 20
45.192629736
  0
VERTEX
  8
0
 62
7
  6
CONTINUOUS
 10
69.2476895794
 20
45.1625713524
  0
VERTEX
  8
0
 62
7
  6
CONTINUOUS
 10
69.0245716189
 20
45.140156778
  0
VERTEX
  8
0
 62
7
  6
CONTINUOUS
 10
68.774647398
 20
45.1258035959
  0
VERTEX
  8
0
 62
7
  6
CONTINUOUS
 10
68.4945634964
 20
45.1205588822
  0
SEQEND
  0
LINE
  8
0
 62
7
  6
CONTINUOUS
 10
67.3345634952
 20
227.4726241696
 11
67.3345634952
 21
219.7826241696
  0
LINE
  8
0
 62
7
  6
CONTINUOUS
 10
67.3345634952
 20
213.1826241696
 11
67.3345634952
 21
207.0826241696
  0
LINE
  8
0
 62
7
  6
CONTINUOUS
 10
67.3345634952
 20
200.4826241696
 11
67.3345634952
 21
194.3826241696
  0
LINE
  8
0
 62
7
  6
CONTINUOUS
 10
67.3345634952
 20
187.7826241696
 11
67.3345634952
 21
181.6826241696
  0
LINE
  8
0
 62
7
  6
CONTINUOUS
 10
67.3345634952
 20
175.0826241696
 11
67.3345634952
 21
168.9826241696
  0
LINE
  8
0
 62
7
  6
CONTINUOUS
 10
67.3345634952
 20
162.3826241696
 11
67.3345634952
 21
156.2826241696
  0
LINE
  8
0
 62
7
  6
CONTINUOUS
 10
67.3345634952
 20
149.6826241696
 11
67.3345634952
 21
143.5826241696
  0
LINE
  8
0
 62
7
  6
CONTINUOUS
 10
67.3345634952
 20
136.9826241696
 11
67.3345634952
 21
130.8826241696
  0
LINE
  8
0
 62
7
  6
CONTINUOUS
 10
67.3345634952
 20
124.2826241696
 11
67.3345634952
 21
118.1826241696
  0
LINE
  8
0
 62
7
  6
CONTINUOUS
 10
67.3345634952
 20
111.5826241696
 11
67.3345634952
 21
105.4826241696
  0
LINE
  8
0
 62
7
  6
CONTINUOUS
 10
67.3345634952
 20
98.8826241696
 11
67.3345634952
 21
92.7826241696
  0
LINE
  8
0
 62
7
  6
CONTINUOUS
 10
67.3345634952
 20
86.1826241696
 11
67.3345634952
 21
80.0826241696
  0
LINE
  8
0
 62
7
  6
CONTINUOUS
 10
67.3345634952
 20
73.4826241696
 11
67.3345634952
 21
67.3826241696
  0
LINE
  8
0
 62
7
  6
CONTINUOUS
 10
67.3345634952
 20
60.7826241696
 11
67.3345634952
 21
53.0926241696
  0
LINE
  8
1_AXIS
 62
2
  6
CENTER
 10
70.1145634952
 20
144.6826241696
 11
70.1145634952
 21
142.2827241696
  0
LINE
  8
1_AXIS
 62
2
  6
CONTINUOUS
 10
70.1145634952
 20
141.1626241696
 11
70.1145634952
 21
139.4026241696
  0
LINE
  8
1_AXIS
 62
2
  6
CENTER
 10
70.1145634952
 20
135.8826241696
 11
70.1145634952
 21
138.2825241696
  0
LINE
  8
0
 62
7
  6
CONTINUOUS
 10
68.8431810463
 20
143.8113454957
 11
68.7406682211
 21
143.7283322467
  0
LINE
  8
0
 62
7
  6
CONTINUOUS
 10
71.3859459441
 20
143.1039028435
 11
71.4884587693
 21
143.1869160925
  0
LINE
  8
0
 62
7
  6
CONTINUOUS
 10
62.7145634952
 20
136.5826241696
 11
61.9145634952
 21
136.5826241696
  0
LINE
  8
0
 62
7
  6
CONTINUOUS
 10
86.5145634952
 20
136.9326241696
 11
72.7470995515
 21
136.9326241696
  0
LINE
  8
0
 62
7
  6
CONTINUOUS
 10
53.7145634952
 20
137.2826241696
 11
67.482027439
 21
137.2826241696
  0
LINE
  8
0
 62
7
  6
CONTINUOUS
 10
77.5145634952
 20
137.6326241696
 11
78.3145634952
 21
137.6326241696
  0
LINE
  8
1_AXIS
 62
2
  6
CENTER
 10
74.5145634952
 20
140.2826241696
 11
72.1146634952
 21
140.2826241696
  0
LINE
  8
1_AXIS
 62
2
  6
CONTINUOUS
 10
70.9945634952
 20
140.2826241696
 11
69.2345634952
 21
140.2826241696
  0
LINE
  8
1_AXIS
 62
2
  6
CENTER
 10
65.7145634952
 20
140.2826241696
 11
68.1144634952
 21
140.2826241696
  0
LINE
  8
0
 62
7
  6
CONTINUOUS
 10
68.7406682211
 20
136.8369160925
 11
68.8431810463
 21
136.7539028435
  0
LINE
  8
0
 62
7
  6
CONTINUOUS
 10
71.4884587693
 20
137.3783322467
 11
71.3859459441
 21
137.4613454957
  0
LINE
  8
0
 62
7
  6
CONTINUOUS
 10
72.8945634952
 20
233.5326241696
 11
72.8945634952
 21
230.4206241696
  0
LINE
  8
0
 62
7
  6
CONTINUOUS
 10
72.8945634952
 20
219.5326241696
 11
72.8945634952
 21
213.4326241696
  0
LINE
  8
0
 62
7
  6
CONTINUOUS
 10
72.8945634952
 20
206.8326241696
 11
72.8945634952
 21
200.7326241696
  0
LINE
  8
0
 62
7
  6
CONTINUOUS
 10
72.8945634952
 20
194.1326241696
 11
72.8945634952
 21
188.0326241696
  0
LINE
  8
0
 62
7
  6
CONTINUOUS
 10
72.8945634952
 20
181.4326241696
 11
72.8945634952
 21
175.3326241696
  0
LINE
  8
0
 62
7
  6
CONTINUOUS
 10
72.8945634952
 20
168.7326241696
 11
72.8945634952
 21
162.6326241696
  0
LINE
  8
0
 62
7
  6
CONTINUOUS
 10
72.8945634952
 20
156.0326241696
 11
72.8945634952
 21
149.9326241696
  0
LINE
  8
0
 62
7
  6
CONTINUOUS
 10
72.8945634952
 20
143.3326241696
 11
72.8945634952
 21
137.2326241696
  0
LINE
  8
0
 62
7
  6
CONTINUOUS
 10
72.8945634952
 20
130.6326241696
 11
72.8945634952
 21
124.5326241696
  0
LINE
  8
0
 62
7
  6
CONTINUOUS
 10
72.8945634952
 20
117.9326241696
 11
72.8945634952
 21
111.8326241696
  0
LINE
  8
0
 62
7
  6
CONTINUOUS
 10
72.8945634952
 20
105.2326241696
 11
72.8945634952
 21
99.1326241696
  0
LINE
  8
0
 62
7
  6
CONTINUOUS
 10
72.8945634952
 20
92.5326241696
 11
72.8945634952
 21
86.4326241696
  0
LINE
  8
0
 62
7
  6
CONTINUOUS
 10
72.8945634952
 20
79.8326241696
 11
72.8945634952
 21
73.7326241696
  0
LINE
  8
0
 62
7
  6
CONTINUOUS
 10
72.8945634952
 20
67.1326241696
 11
72.8945634952
 21
61.0326241696
  0
LINE
  8
0
 62
7
  6
CONTINUOUS
 10
72.8945634952
 20
50.1446241696
 11
72.8945634952
 21
47.0326241696
  0
LINE
  8
0
 62
7
  6
CONTINUOUS
 10
68.8431810463
 20
131.1113454957
 11
68.7406682211
 21
131.0283322467
  0
LINE
  8
0
 62
7
  6
CONTINUOUS
 10
77.5145634952
 20
142.9326241696
 11
78.3145634952
 21
142.9326241696
  0
LINE
  8
0
 62
7
  6
CONTINUOUS
 10
67.482027439
 20
143.2826241696
 11
53.7145927417
 21
143.2826241696
  0
LINE
  8
0
 62
7
  6
CONTINUOUS
 10
72.7470995514
 20
143.6326241696
 11
86.5145634952
 21
143.6326241696
  0
LINE
  8
0
 62
7
  6
CONTINUOUS
 10
62.7145634952
 20
143.9826241696
 11
61.9145634952
 21
143.9826241696
  0
LINE
  8
0
 62
7
  6
CONTINUOUS
 10
68.7406682211
 20
149.5369160925
 11
68.8431810463
 21
149.4539028435
  0
LINE
  8
0
 62
7
  6
CONTINUOUS
 10
77.7645634952
 20
57.8826241696
 11
77.7645634952
 21
59.8826241696
  0
LINE
  8
0
 62
7
  6
CONTINUOUS
 10
77.7645634952
 20
220.6826241696
 11
77.7645634952
 21
222.6826241696
  0
LINE
  8
DEFAULT_1
 62
2
  6
CENTER
 10
82.8145634952
 20
51.1446241696
 11
82.8145634952
 21
229.4206241696
  0
LINE
  8
0
 62
7
  6
CONTINUOUS
 10
71.3859459441
 20
130.4039028435
 11
71.4884587693
 21
130.4869160925
  0
LINE
  8
0
 62
7
  6
CONTINUOUS
 10
86.5145634952
 20
149.6326241696
 11
72.7470995514
 21
149.6326241696
  0
LINE
  8
0
 62
7
  6
CONTINUOUS
 10
53.7145634952
 20
149.9826241696
 11
67.482027439
 21
149.9826241696
  0
LINE
  8
0
 62
7
  6
CONTINUOUS
 10
71.4884587693
 20
150.0783322467
 11
71.3859459441
 21
150.1613454957
  0
LINE
  8
2_FEATURE
 62
7
  6
CONTINUOUS
 10
87.3645634952
 20
226.5706241696
 11
87.3645634952
 21
224.3826241696
  0
LINE
  8
2_FEATURE
 62
7
  6
CONTINUOUS
 10
87.3645634952
 20
212.2826241696
 11
87.3645634952
 21
207.9826241696
  0
LINE
  8
2_FEATURE
 62
7
  6
CONTINUOUS
 10
87.3645634952
 20
199.5826241696
 11
87.3645634952
 21
195.2826241696
  0
LINE
  8
2_FEATURE
 62
7
  6
CONTINUOUS
 10
87.3645634952
 20
186.8826241696
 11
87.3645634952
 21
182.5826241696
  0
LINE
  8
2_FEATURE
 62
7
  6
CONTINUOUS
 10
87.3645634952
 20
174.1826241696
 11
87.3645634952
 21
169.8826241696
  0
LINE
  8
2_FEATURE
 62
7
  6
CONTINUOUS
 10
87.3645634952
 20
161.4826241696
 11
87.3645634952
 21
157.1826241696
  0
LINE
  8
2_FEATURE
 62
7
  6
CONTINUOUS
 10
87.3645634952
 20
148.7826241696
 11
87.3645634952
 21
144.4826241696
  0
LINE
  8
2_FEATURE
 62
7
  6
CONTINUOUS
 10
87.3645634952
 20
136.0826241696
 11
87.3645634952
 21
131.7826241696
  0
LINE
  8
2_FEATURE
 62
7
  6
CONTINUOUS
 10
87.3645634952
 20
123.3826241696
 11
87.3645634952
 21
119.0826241696
  0
LINE
  8
2_FEATURE
 62
7
  6
CONTINUOUS
 10
87.3645634952
 20
110.6826241696
 11
87.3645634952
 21
106.3826241696
  0
LINE
  8
2_FEATURE
 62
7
  6
CONTINUOUS
 10
87.3645634952
 20
97.9826241696
 11
87.3645634952
 21
93.6826241696
  0
LINE
  8
2_FEATURE
 62
7
  6
CONTINUOUS
 10
87.3645634952
 20
85.2826241696
 11
87.3645634952
 21
80.9826241696
  0
LINE
  8
2_FEATURE
 62
7
  6
CONTINUOUS
 10
87.3645634952
 20
72.5826241696
 11
87.3645634952
 21
68.2826241696
  0
LINE
  8
2_FEATURE
 62
7
  6
CONTINUOUS
 10
87.3645634952
 20
56.1826241696
 11
87.3645634952
 21
53.9946241696
  0
LINE
  8
0
 62
7
  6
CONTINUOUS
 10
68.8431810463
 20
118.4113454957
 11
68.7406682211
 21
118.3283322467
  0
LINE
  8
0
 62
7
  6
CONTINUOUS
 10
71.3859459441
 20
117.7039028435
 11
71.4884587693
 21
117.7869160925
  0
LINE
  8
0
 62
7
  6
CONTINUOUS
 10
67.482027439
 20
155.9826241696
 11
53.7145927417
 21
155.9826241696
  0
LINE
  8
0
 62
7
  6
CONTINUOUS
 10
72.7470995514
 20
156.3326241696
 11
86.5145634952
 21
156.3326241696
  0
LINE
  8
0
 62
7
  6
CONTINUOUS
 10
68.7406682211
 20
162.2369160925
 11
68.8431810463
 21
162.1539028435
  0
LINE
  8
0
 62
7
  6
CONTINUOUS
 10
71.4884587693
 20
162.7783322467
 11
71.3859459441
 21
162.8613454957
  0
POLYLINE
  8
0
 62
7
  6
CONTINUOUS
 66
1
 70
0
  0
VERTEX
  8
0
 62
7
  6
CONTINUOUS
 10
73.0199325697
 20
51.0028182299
  0
VERTEX
  8
0
 62
7
  6
CONTINUOUS
 10
72.9261271011
 20
50.5782718073
  0
VERTEX
  8
0
 62
7
  6
CONTINUOUS
 10
72.8945634952
 20
50.1446241696
  0
SEQEND
  0
LINE
  8
0
 62
7
  6
CONTINUOUS
 10
68.8431810463
 20
105.7113454957
 11
68.7406682211
 21
105.6283322467
  0
LINE
  8
0
 62
7
  6
CONTINUOUS
 10
86.5145634952
 20
162.3326241696
 11
72.7470995514
 21
162.3326241696
  0
LINE
  8
0
 62
7
  6
CONTINUOUS
 10
53.7145634952
 20
162.6826241696
 11
67.482027439
 21
162.6826241696
  0
LINE
  8
0
 62
7
  6
CONTINUOUS
 10
68.7406682211
 20
174.9369160925
 11
68.8431810463
 21
174.8539028435
  0
POLYLINE
  8
0
 62
7
  6
CONTINUOUS
 66
1
 70
0
  0
VERTEX
  8
0
 62
7
  6
CONTINUOUS
 10
73.0199325697
 20
229.5624301093
  0
VERTEX
  8
0
 62
7
  6
CONTINUOUS
 10
72.9261271011
 20
229.9869765318
  0
VERTEX
  8
0
 62
7
  6
CONTINUOUS
 10
72.8945634952
 20
230.4206241696
  0
SEQEND
  0
LINE
  8
0
 62
7
  6
CONTINUOUS
 10
71.3859459441
 20
105.0039028435
 11
71.4884587693
 21
105.0869160925
  0
LINE
  8
0
 62
7
  6
CONTINUOUS
 10
67.482027439
 20
168.6826241696
 11
53.7145927417
 21
168.6826241696
  0
LINE
  8
0
 62
7
  6
CONTINUOUS
 10
72.7470995514
 20
169.0326241696
 11
86.5145634952
 21
169.0326241696
  0
LINE
  8
0
 62
7
  6
CONTINUOUS
 10
71.4884587693
 20
175.4783322467
 11
71.3859459441
 21
175.5613454957
  0
LINE
  8
0
 62
7
  6
CONTINUOUS
 10
68.8431810463
 20
93.0113454957
 11
68.7406682211
 21
92.9283322467
  0
LINE
  8
0
 62
7
  6
CONTINUOUS
 10
71.3859459441
 20
92.3039028435
 11
71.4884587693
 21
92.3869160925
  0
LINE
  8
0
 62
7
  6
CONTINUOUS
 10
86.5145634952
 20
175.0326241696
 11
72.7470995514
 21
175.0326241696
  0
LINE
  8
0
 62
7
  6
CONTINUOUS
 10
53.7145634952
 20
175.3826241696
 11
67.482027439
 21
175.3826241696
  0
LINE
  8
0
 62
7
  6
CONTINUOUS
 10
68.7406682211
 20
187.6369160925
 11
68.8431810463
 21
187.5539028435
  0
LINE
  8
0
 62
7
  6
CONTINUOUS
 10
71.4884587693
 20
188.1783322467
 11
71.3859459441
 21
188.2613454957
  0
LINE
  8
0
 62
7
  6
CONTINUOUS
 10
68.8431810463
 20
80.3113454957
 11
68.7406682211
 21
80.2283322467
  0
LINE
  8
0
 62
7
  6
CONTINUOUS
 10
67.482027439
 20
181.3826241696
 11
53.7145927417
 21
181.3826241696
  0
LINE
  8
0
 62
7
  6
CONTINUOUS
 10
72.7470995514
 20
181.7326241696
 11
86.5145634952
 21
181.7326241696
  0
LINE
  8
0
 62
7
  6
CONTINUOUS
 10
68.7406682211
 20
200.3369160925
 11
68.8431810463
 21
200.2539028435
  0
LINE
  8
0
 62
7
  6
CONTINUOUS
 10
71.3859459441
 20
79.6039028435
 11
71.4884587693
 21
79.6869160925
  0
LINE
  8
0
 62
7
  6
CONTINUOUS
 10
86.5145634952
 20
187.7326241696
 11
72.7470995514
 21
187.7326241696
  0
LINE
  8
0
 62
7
  6
CONTINUOUS
 10
53.7145634952
 20
188.0826241696
 11
67.482027439
 21
188.0826241696
  0
LINE
  8
0
 62
7
  6
CONTINUOUS
 10
71.4884587693
 20
200.8783322467
 11
71.3859459441
 21
200.9613454957
  0
LINE
  8
0
 62
7
  6
CONTINUOUS
 10
68.8431810463
 20
67.6113454957
 11
68.7406682211
 21
67.5283322467
  0
LINE
  8
0
 62
7
  6
CONTINUOUS
 10
71.3859459441
 20
66.9039028435
 11
71.4884587693
 21
66.9869160925
  0
LINE
  8
0
 62
7
  6
CONTINUOUS
 10
67.482027439
 20
194.0826241696
 11
53.7145927417
 21
194.0826241696
  0
LINE
  8
0
 62
7
  6
CONTINUOUS
 10
72.7470995514
 20
194.4326241696
 11
86.5145634952
 21
194.4326241696
  0
LINE
  8
0
 62
7
  6
CONTINUOUS
 10
68.7406682211
 20
213.0369160925
 11
68.8431810463
 21
212.9539028435
  0
LINE
  8
0
 62
7
  6
CONTINUOUS
 10
71.4884587693
 20
213.5783322467
 11
71.3859459441
 21
213.6613454957
  0
LINE
  8
0
 62
7
  6
CONTINUOUS
 10
86.5145634952
 20
200.4326241696
 11
72.7470995514
 21
200.4326241696
  0
LINE
  8
0
 62
7
  6
CONTINUOUS
 10
53.7145634952
 20
200.7826241696
 11
67.482027439
 21
200.7826241696
  0
LINE
  8
0
 62
7
  6
CONTINUOUS
 10
68.8431810463
 20
53.3223454957
 11
68.739433324
 21
53.2383322467
  0
LINE
  8
0
 62
7
  6
CONTINUOUS
 10
67.482027439
 20
206.7826241696
 11
53.7145927417
 21
206.7826241696
  0
LINE
  8
0
 62
7
  6
CONTINUOUS
 10
72.7470995514
 20
207.1326241696
 11
86.5145634952
 21
207.1326241696
  0
LINE
  8
0
 62
7
  6
CONTINUOUS
 10
68.7394333239
 20
227.3269160925
 11
68.8431810463
 21
227.2429028435
  0
LINE
  8
0
 62
7
  6
CONTINUOUS
 10
86.5145634952
 20
213.1326241696
 11
72.7470995514
 21
213.1326241696
  0
LINE
  8
0
 62
7
  6
CONTINUOUS
 10
53.7145634952
 20
213.4826241696
 11
67.482027439
 21
213.4826241696
  0
POLYLINE
  8
0
 62
7
  6
CONTINUOUS
 66
1
 70
0
  0
VERTEX
  8
0
 62
7
  6
CONTINUOUS
 10
74.6986759467
 20
52.8959607487
  0
VERTEX
  8
0
 62
7
  6
CONTINUOUS
 10
74.3666110276
 20
52.7262979547
  0
VERTEX
  8
0
 62
7
  6
CONTINUOUS
 10
74.0581077795
 20
52.5168280706
  0
VERTEX
  8
0
 62
7
  6
CONTINUOUS
 10
73.7780240007
 20
52.2706609163
  0
VERTEX
  8
0
 62
7
  6
CONTINUOUS
 10
73.5306136526
 20
51.9916526595
  0
VERTEX
  8
0
 62
7
  6
CONTINUOUS
 10
73.3197208732
 20
51.6841383105
  0
VERTEX
  8
0
 62
7
  6
CONTINUOUS
 10
73.1486571653
 20
51.352792389
  0
VERTEX
  8
0
 62
7
  6
CONTINUOUS
 10
73.0199325697
 20
51.0028182299
  0
SEQEND
  0
LINE
  8
0
 62
7
  6
CONTINUOUS
 10
67.4832623361
 20
219.4826241696
 11
53.7145927417
 21
219.4826241696
  0
LINE
  8
0
 62
7
  6
CONTINUOUS
 10
72.7483344485
 20
219.8326241696
 11
76.9145634952
 21
219.8326241696
  0
LINE
  8
0
 62
7
  6
CONTINUOUS
 10
62.7145634952
 20
220.1826241696
 11
61.9145634952
 21
220.1826241696
  0
LINE
  8
0
 62
7
  6
CONTINUOUS
 10
86.5145634573
 20
223.5326241696
 11
77.2323794164
 21
223.5326241696
  0
POLYLINE
  8
0
 62
7
  6
CONTINUOUS
 66
1
 70
0
  0
VERTEX
  8
0
 62
7
  6
CONTINUOUS
 10
74.6986759467
 20
227.6692875905
  0
VERTEX
  8
0
 62
7
  6
CONTINUOUS
 10
74.3666110276
 20
227.8389503844
  0
VERTEX
  8
0
 62
7
  6
CONTINUOUS
 10
74.0581077795
 20
228.0484202685
  0
VERTEX
  8
0
 62
7
  6
CONTINUOUS
 10
73.7780240007
 20
228.2945874228
  0
VERTEX
  8
0
 62
7
  6
CONTINUOUS
 10
73.5306136526
 20
228.5735956796
  0
VERTEX
  8
0
 62
7
  6
CONTINUOUS
 10
73.3197208732
 20
228.8811100286
  0
VERTEX
  8
0
 62
7
  6
CONTINUOUS
 10
73.1486571653
 20
229.2124559501
  0
VERTEX
  8
0
 62
7
  6
CONTINUOUS
 10
73.0199325697
 20
229.5624301093
  0
SEQEND
  0
LINE
  8
0
 62
40
  6
CONTINUOUS
 10
72.8945634952
 20
230.4206241696
 11
68.4945634952
 21
230.2917408367
  0
LINE
  8
0
 62
7
  6
CONTINUOUS
 10
62.7145634952
 20
227.0726241696
 11
61.9145634952
 21
227.0726241696
  0
LINE
  8
0
 62
7
  6
CONTINUOUS
 10
86.5145634952
 20
227.4206241696
 11
74.2477181625
 21
227.4206241696
  0
LINE
  8
0
 62
7
  6
CONTINUOUS
 10
53.7145634952
 20
227.7726241696
 11
67.4807925418
 21
227.7726241696
  0
LINE
  8
0
 62
7
  6
CONTINUOUS
 10
77.5145634952
 20
228.1206241696
 11
78.3145634952
 21
228.1206241696
  0
LINE
  8
0
 62
7
  6
CONTINUOUS
 10
68.7507587308
 20
230.0326241696
 11
57.2645634952
 21
230.0326241696
  0
LINE
  8
0
 62
7
  6
CONTINUOUS
 10
68.4945634952
 20
235.4446894569
 11
57.2645634935
 21
235.4446894569
  0
LINE
  8
0
 62
7
  6
CONTINUOUS
 10
70.8945634952
 20
235.5326241696
 11
53.7145927417
 21
235.5326241696
  0
POLYLINE
  8
0
 62
7
  6
CONTINUOUS
 66
1
 70
0
  0
VERTEX
  8
0
 62
7
  6
CONTINUOUS
 10
68.4945634952
 20
235.4446894569
  0
VERTEX
  8
0
 62
7
  6
CONTINUOUS
 10
68.7916181558
 20
235.4387776979
  0
VERTEX
  8
0
 62
7
  6
CONTINUOUS
 10
69.0564208357
 20
235.4225043666
  0
VERTEX
  8
0
 62
7
  6
CONTINUOUS
 10
69.2921049877
 20
235.3968927561
  0
VERTEX
  8
0
 62
7
  6
CONTINUOUS
 10
69.5011831515
 20
235.3622723712
  0
VERTEX
  8
0
 62
7
  6
CONTINUOUS
 10
69.6866229343
 20
235.3185237963
  0
VERTEX
  8
0
 62
7
  6
CONTINUOUS
 10
69.8501622203
 20
235.2654133
  0
VERTEX
  8
0
 62
7
  6
CONTINUOUS
 10
69.9921695742
 20
235.2028800953
  0
VERTEX
  8
0
 62
7
  6
CONTINUOUS
 10
70.1130947134
 20
235.1304916606
  0
VERTEX
  8
0
 62
7
  6
CONTINUOUS
 10
70.2102146451
 20
235.0497022791
  0
VERTEX
  8
0
 62
7
  6
CONTINUOUS
 10
70.2814858442
 20
234.9631549974
  0
VERTEX
  8
0
 62
7
  6
CONTINUOUS
 10
70.3268552654
 20
234.8733198795
  0
VERTEX
  8
0
 62
7
  6
CONTINUOUS
 10
70.3474541096
 20
234.7802493148
  0
VERTEX
  8
0
 62
7
  6
CONTINUOUS
 10
70.3424086563
 20
234.6826241696
  0
SEQEND
  0
POLYLINE
  8
0
 62
7
  6
CONTINUOUS
 66
1
 70
0
  0
VERTEX
  8
0
 62
7
  6
CONTINUOUS
 10
75.8945634952
 20
227.4206241696
  0
VERTEX
  8
0
 62
7
  6
CONTINUOUS
 10
75.4867840917
 20
227.4486423126
  0
VERTEX
  8
0
 62
7
  6
CONTINUOUS
 10
75.0838242414
 20
227.5324306057
  0
VERTEX
  8
0
 62
7
  6
CONTINUOUS
 10
74.6986759467
 20
227.6692875905
  0
SEQEND
  0
POLYLINE
  8
0
 62
7
  6
CONTINUOUS
 66
1
 70
0
  0
VERTEX
  8
0
 62
7
  6
CONTINUOUS
 10
57.2645634952
 20
230.0326241696
  0
VERTEX
  8
0
 62
7
  6
CONTINUOUS
 10
57.1684735682
 20
230.0446184186
  0
VERTEX
  8
0
 62
7
  6
CONTINUOUS
 10
57.0687435254
 20
230.0824546083
  0
VERTEX
  8
0
 62
7
  6
CONTINUOUS
 10
56.9669460116
 20
230.1478049531
  0
VERTEX
  8
0
 62
7
  6
CONTINUOUS
 10
56.8660687337
 20
230.2393068536
  0
VERTEX
  8
0
 62
7
  6
CONTINUOUS
 10
56.7671448981
 20
230.355030734
  0
VERTEX
  8
0
 62
7
  6
CONTINUOUS
 10
56.6701954911
 20
230.4935927166
  0
VERTEX
  8
0
 62
7
  6
CONTINUOUS
 10
56.5748077377
 20
230.6544221251
  0
VERTEX
  8
0
 62
7
  6
CONTINUOUS
 10
56.4804968759
 20
230.8375593934
  0
VERTEX
  8
0
 62
7
  6
CONTINUOUS
 10
56.3868092523
 20
231.0435008379
  0
VERTEX
  8
0
 62
7
  6
CONTINUOUS
 10
56.2933140388
 20
231.2731813709
  0
VERTEX
  8
0
 62
7
  6
CONTINUOUS
 10
56.1996852388
 20
231.5277209818
  0
VERTEX
  8
0
 62
7
  6
CONTINUOUS
 10
56.1055854003
 20
231.8086649697
  0
VERTEX
  8
0
 62
7
  6
CONTINUOUS
 10
56.0107888863
 20
232.1176019321
  0
VERTEX
  8
0
 62
7
  6
CONTINUOUS
 10
55.9150504331
 20
232.4565178358
  0
VERTEX
  8
0
 62
7
  6
CONTINUOUS
 10
55.8181999111
 20
232.8274753189
  0
VERTEX
  8
0
 62
7
  6
CONTINUOUS
 10
55.7200611905
 20
233.2328825795
  0
VERTEX
  8
0
 62
7
  6
CONTINUOUS
 10
55.6205114789
 20
233.675265225
  0
VERTEX
  8
0
 62
7
  6
CONTINUOUS
 10
55.5194213097
 20
234.1575178887
  0
VERTEX
  8
0
 62
7
  6
CONTINUOUS
 10
55.416718334
 20
234.6826241696
  0
SEQEND
  0
LINE
  8
0
 62
7
  6
CONTINUOUS
 10
145.5669646763
 20
45.0326241696
 11
152.6669646763
 21
45.0326241696
  0
LINE
  8
0
 62
7
  6
CONTINUOUS
 10
152.6669646763
 20
52.7926241696
 11
145.5669646763
 21
52.7926241696
  0
LINE
  8
0
 62
7
  6
CONTINUOUS
 10
148.7169646763
 20
53.4926241696
 11
149.5169646763
 21
53.4926241696
  0
LINE
  8
0
 62
7
  6
CONTINUOUS
 10
148.7169646763
 20
60.3826241696
 11
149.5169646763
 21
60.3826241696
  0
LINE
  8
0
 62
7
  6
CONTINUOUS
 10
145.5669646763
 20
61.0826241696
 11
152.6669646763
 21
61.0826241696
  0
LINE
  8
0
 62
7
  6
CONTINUOUS
 10
152.6669646763
 20
67.0826241696
 11
145.5669646763
 21
67.0826241696
  0
LINE
  8
0
 62
7
  6
CONTINUOUS
 10
145.5669646763
 20
73.7826241696
 11
152.6669646763
 21
73.7826241696
  0
LINE
  8
0
 62
7
  6
CONTINUOUS
 10
152.6669646763
 20
79.7826241696
 11
145.5669646763
 21
79.7826241696
  0
LINE
  8
0
 62
7
  6
CONTINUOUS
 10
145.5669646763
 20
86.4826241696
 11
152.6669646763
 21
86.4826241696
  0
LINE
  8
0
 62
7
  6
CONTINUOUS
 10
152.6669646763
 20
92.4826241696
 11
145.5669646763
 21
92.4826241696
  0
LINE
  8
0
 62
7
  6
CONTINUOUS
 10
145.5669646763
 20
99.1826241696
 11
152.6669646763
 21
99.1826241696
  0
LINE
  8
0
 62
7
  6
CONTINUOUS
 10
152.6669646763
 20
105.1826241696
 11
145.5669646763
 21
105.1826241696
  0
POLYLINE
  8
0
 62
40
  6
CONTINUOUS
 66
1
 70
0
  0
VERTEX
  8
0
 62
40
  6
CONTINUOUS
 10
144.7169646763
 20
230.2917408367
  0
VERTEX
  8
0
 62
40
  6
CONTINUOUS
 10
144.7178804
 20
230.2943701665
  0
VERTEX
  8
0
 62
40
  6
CONTINUOUS
 10
144.7206271901
 20
230.2969984018
  0
VERTEX
  8
0
 62
40
  6
CONTINUOUS
 10
144.7252039032
 20
230.2996244487
  0
VERTEX
  8
0
 62
40
  6
CONTINUOUS
 10
144.7316086343
 20
230.3022472142
  0
VERTEX
  8
0
 62
40
  6
CONTINUOUS
 10
144.7398387176
 20
230.3048656066
  0
SEQEND
  0
LINE
  8
0
 62
7
  6
CONTINUOUS
 10
145.5669646763
 20
111.8826241696
 11
152.6669646763
 21
111.8826241696
  0
LINE
  8
0
 62
7
  6
CONTINUOUS
 10
152.6669646763
 20
117.8826241696
 11
145.5669646763
 21
117.8826241696
  0
LINE
  8
0
 62
7
  6
CONTINUOUS
 10
138.2169646763
 20
118.9326241696
 11
144.7169646763
 21
118.9326241696
  0
LINE
  8
0
 62
7
  6
CONTINUOUS
 10
138.2169646763
 20
123.5326241696
 11
144.7169646763
 21
123.5326241696
  0
LINE
  8
0
 62
7
  6
CONTINUOUS
 10
145.5669646763
 20
124.5826241696
 11
152.6669646763
 21
124.5826241696
  0
LINE
  8
0
 62
7
  6
CONTINUOUS
 10
145.1904590352
 20
45.1205588822
 11
144.7169646763
 21
50.5326241696
  0
LINE
  8
0
 62
7
  6
CONTINUOUS
 10
137.2169646763
 20
119.9326241696
 11
137.2169646763
 21
122.5326241696
  0
LINE
  8
0
 62
7
  6
CONTINUOUS
 10
137.2169646763
 20
158.0326241696
 11
137.2169646763
 21
160.6326241696
  0
LINE
  8
0
 62
7
  6
CONTINUOUS
 10
145.1904590352
 20
235.4446894569
 11
144.7169646763
 21
230.0326241696
  0
POLYLINE
  8
0
 62
7
  6
CONTINUOUS
 66
1
 70
0
  0
VERTEX
  8
0
 62
7
  6
CONTINUOUS
 10
144.8036857161
 20
157.46246709
  0
VERTEX
  8
0
 62
7
  6
CONTINUOUS
 10
144.7551197458
 20
157.3664900982
  0
VERTEX
  8
0
 62
7
  6
CONTINUOUS
 10
144.7264088963
 20
157.27783436
  0
VERTEX
  8
0
 62
7
  6
CONTINUOUS
 10
144.7169646763
 20
157.1990744879
  0
SEQEND
  0
LINE
  8
0
 62
7
  6
CONTINUOUS
 10
152.6669646763
 20
130.5826241696
 11
145.5669646763
 21
130.5826241696
  0
POLYLINE
  8
0
 62
7
  6
CONTINUOUS
 66
1
 70
0
  0
VERTEX
  8
0
 62
7
  6
CONTINUOUS
 10
144.8036857158
 20
123.1027812496
  0
VERTEX
  8
0
 62
7
  6
CONTINUOUS
 10
144.8252694527
 20
123.056500072
  0
VERTEX
  8
0
 62
7
  6
CONTINUOUS
 10
144.8363375732
 20
123.0095295894
  0
SEQEND
  0
POLYLINE
  8
0
 62
7
  6
CONTINUOUS
 66
1
 70
0
  0
VERTEX
  8
0
 62
7
  6
CONTINUOUS
 10
144.8363375732
 20
123.0095295894
  0
VERTEX
  8
0
 62
7
  6
CONTINUOUS
 10
144.8527974628
 20
122.8572571369
  0
VERTEX
  8
0
 62
7
  6
CONTINUOUS
 10
144.8633362049
 20
122.6966673127
  0
VERTEX
  8
0
 62
7
  6
CONTINUOUS
 10
144.8669436175
 20
122.5326241696
  0
SEQEND
  0
LINE
  8
0
 62
7
  6
CONTINUOUS
 10
144.7169646763
 20
50.5326241696
 11
144.7169646763
 21
119.0990744879
  0
LINE
  8
0
 62
7
  6
CONTINUOUS
 10
144.7169646763
 20
123.3661738513
 11
144.7169646763
 21
157.1990744879
  0
LINE
  8
0
 62
7
  6
CONTINUOUS
 10
144.7169646763
 20
161.4661738513
 11
144.7169646763
 21
230.0326241696
  0
LINE
  8
0
 62
4
  6
CONTINUOUS
 10
144.7836000438
 20
55.0326241696
 11
144.7836000438
 21
58.0326241696
  0
LINE
  8
0
 62
7
  6
CONTINUOUS
 10
144.8669436175
 20
160.6326241696
 11
144.8669436175
 21
158.0326241696
  0
LINE
  8
0
 62
7
  6
CONTINUOUS
 10
144.8669436175
 20
122.5326241696
 11
144.8669436175
 21
119.9326241696
  0
POLYLINE
  8
0
 62
7
  6
CONTINUOUS
 66
1
 70
0
  0
VERTEX
  8
0
 62
7
  6
CONTINUOUS
 10
144.8669436175
 20
158.0326241696
  0
VERTEX
  8
0
 62
7
  6
CONTINUOUS
 10
144.8633362082
 20
157.8685811029
  0
VERTEX
  8
0
 62
7
  6
CONTINUOUS
 10
144.852800345
 20
157.708024211
  0
VERTEX
  8
0
 62
7
  6
CONTINUOUS
 10
144.8363375734
 20
157.555718751
  0
SEQEND
  0
POLYLINE
  8
0
 62
7
  6
CONTINUOUS
 66
1
 70
0
  0
VERTEX
  8
0
 62
7
  6
CONTINUOUS
 10
144.8669436175
 20
119.9326241696
  0
VERTEX
  8
0
 62
7
  6
CONTINUOUS
 10
144.8633362082
 20
119.7685811029
  0
VERTEX
  8
0
 62
7
  6
CONTINUOUS
 10
144.852800345
 20
119.608024211
  0
VERTEX
  8
0
 62
7
  6
CONTINUOUS
 10
144.8363375734
 20
119.455718751
  0
SEQEND
  0
POLYLINE
  8
0
 62
7
  6
CONTINUOUS
 66
1
 70
0
  0
VERTEX
  8
0
 62
7
  6
CONTINUOUS
 10
144.8363375734
 20
157.555718751
  0
VERTEX
  8
0
 62
7
  6
CONTINUOUS
 10
144.8252748608
 20
157.5087638997
  0
VERTEX
  8
0
 62
7
  6
CONTINUOUS
 10
144.8036857161
 20
157.46246709
  0
SEQEND
  0
LINE
  8
0
 62
7
  6
CONTINUOUS
 10
148.7169646763
 20
136.5826241696
 11
149.5169646763
 21
136.5826241696
  0
LINE
  8
0
 62
7
  6
CONTINUOUS
 10
145.5669646763
 20
137.2826241696
 11
152.6669646763
 21
137.2826241696
  0
POLYLINE
  8
0
 62
7
  6
CONTINUOUS
 66
1
 70
0
  0
VERTEX
  8
0
 62
7
  6
CONTINUOUS
 10
144.7169646763
 20
123.3661738513
  0
VERTEX
  8
0
 62
7
  6
CONTINUOUS
 10
144.7264344441
 20
123.2873008432
  0
VERTEX
  8
0
 62
7
  6
CONTINUOUS
 10
144.7549887358
 20
123.1990738699
  0
VERTEX
  8
0
 62
7
  6
CONTINUOUS
 10
144.8036857158
 20
123.1027812496
  0
SEQEND
  0
POLYLINE
  8
0
 62
7
  6
CONTINUOUS
 66
1
 70
0
  0
VERTEX
  8
0
 62
7
  6
CONTINUOUS
 10
144.8363375732
 20
161.1095295894
  0
VERTEX
  8
0
 62
7
  6
CONTINUOUS
 10
144.8527974628
 20
160.9572571369
  0
VERTEX
  8
0
 62
7
  6
CONTINUOUS
 10
144.8633362049
 20
160.7966673127
  0
VERTEX
  8
0
 62
7
  6
CONTINUOUS
 10
144.8669436175
 20
160.6326241696
  0
SEQEND
  0
LINE
  8
DEFAULT_1
 62
2
  6
CENTER
 10
149.1169646763
 20
51.1446241696
 11
149.1169646763
 21
229.4206241696
  0
POLYLINE
  8
0
 62
7
  6
CONTINUOUS
 66
1
 70
0
  0
VERTEX
  8
0
 62
7
  6
CONTINUOUS
 10
144.8363375734
 20
119.455718751
  0
VERTEX
  8
0
 62
7
  6
CONTINUOUS
 10
144.8252748608
 20
119.4087638997
  0
VERTEX
  8
0
 62
7
  6
CONTINUOUS
 10
144.8036857161
 20
119.36246709
  0
SEQEND
  0
LINE
  8
0
 62
7
  6
CONTINUOUS
 10
152.6669646763
 20
143.2826241696
 11
145.5669646763
 21
143.2826241696
  0
LINE
  8
0
 62
7
  6
CONTINUOUS
 10
148.7169646763
 20
143.9826241696
 11
149.5169646763
 21
143.9826241696
  0
POLYLINE
  8
0
 62
7
  6
CONTINUOUS
 66
1
 70
0
  0
VERTEX
  8
0
 62
7
  6
CONTINUOUS
 10
144.7169646763
 20
161.4661738513
  0
VERTEX
  8
0
 62
7
  6
CONTINUOUS
 10
144.7264344441
 20
161.3873008432
  0
VERTEX
  8
0
 62
7
  6
CONTINUOUS
 10
144.7549887358
 20
161.2990738699
  0
VERTEX
  8
0
 62
7
  6
CONTINUOUS
 10
144.8036857158
 20
161.2027812496
  0
SEQEND
  0
LINE
  8
2_FEATURE
 62
7
  6
CONTINUOUS
 10
153.5169646763
 20
205.9326241696
 11
153.5169646763
 21
201.6326241696
  0
LINE
  8
2_FEATURE
 62
7
  6
CONTINUOUS
 10
153.5169646763
 20
193.2326241696
 11
153.5169646763
 21
188.9326241696
  0
LINE
  8
2_FEATURE
 62
7
  6
CONTINUOUS
 10
153.5169646763
 20
180.5326241696
 11
153.5169646763
 21
176.2326241696
  0
LINE
  8
2_FEATURE
 62
7
  6
CONTINUOUS
 10
153.5169646763
 20
167.8326241696
 11
153.5169646763
 21
163.5326241696
  0
LINE
  8
2_FEATURE
 62
7
  6
CONTINUOUS
 10
153.5169646763
 20
155.1326241696
 11
153.5169646763
 21
150.8326241696
  0
LINE
  8
2_FEATURE
 62
7
  6
CONTINUOUS
 10
153.5169646763
 20
142.4326241696
 11
153.5169646763
 21
138.1326241696
  0
LINE
  8
2_FEATURE
 62
7
  6
CONTINUOUS
 10
153.5169646763
 20
129.7326241696
 11
153.5169646763
 21
125.4326241696
  0
LINE
  8
2_FEATURE
 62
7
  6
CONTINUOUS
 10
153.5169646763
 20
117.0326241696
 11
153.5169646763
 21
112.7326241696
  0
LINE
  8
0
 62
7
  6
CONTINUOUS
 10
153.5169646763
 20
230.0326241696
 11
153.5169646763
 21
50.5326241696
  0
POLYLINE
  8
0
 62
7
  6
CONTINUOUS
 66
1
 70
0
  0
VERTEX
  8
0
 62
7
  6
CONTINUOUS
 10
144.8036857161
 20
119.36246709
  0
VERTEX
  8
0
 62
7
  6
CONTINUOUS
 10
144.7551197458
 20
119.2664900982
  0
VERTEX
  8
0
 62
7
  6
CONTINUOUS
 10
144.7264088963
 20
119.17783436
  0
VERTEX
  8
0
 62
7
  6
CONTINUOUS
 10
144.7169646763
 20
119.0990744879
  0
SEQEND
  0
LINE
  8
0
 62
7
  6
CONTINUOUS
 10
145.5669646763
 20
149.9826241696
 11
152.6669646763
 21
149.9826241696
  0
POLYLINE
  8
0
 62
7
  6
CONTINUOUS
 66
1
 70
0
  0
VERTEX
  8
0
 62
7
  6
CONTINUOUS
 10
144.8036857158
 20
161.2027812496
  0
VERTEX
  8
0
 62
7
  6
CONTINUOUS
 10
144.8252694527
 20
161.156500072
  0
VERTEX
  8
0
 62
7
  6
CONTINUOUS
 10
144.8363375732
 20
161.1095295894
  0
SEQEND
  0
LINE
  8
0
 62
7
  6
CONTINUOUS
 10
153.5169646763
 20
230.0326241696
 11
153.0434703174
 21
235.4446894569
  0
LINE
  8
0
 62
7
  6
CONTINUOUS
 10
153.0434703174
 20
45.1205588822
 11
153.5169646763
 21
50.5326241696
  0
LINE
  8
0
 62
7
  6
CONTINUOUS
 10
152.6669646763
 20
155.9826241696
 11
145.5669646763
 21
155.9826241696
  0
LINE
  8
0
 62
7
  6
CONTINUOUS
 10
138.2169646763
 20
157.0326241696
 11
144.7169646763
 21
157.0326241696
  0
LINE
  8
0
 62
7
  6
CONTINUOUS
 10
138.2169646763
 20
161.6326241696
 11
144.7169646763
 21
161.6326241696
  0
LINE
  8
0
 62
7
  6
CONTINUOUS
 10
145.5669646763
 20
162.6826241696
 11
152.6669646763
 21
162.6826241696
  0
POLYLINE
  8
0
 62
4
  6
CONTINUOUS
 66
1
 70
0
  0
VERTEX
  8
0
 62
4
  6
CONTINUOUS
 10
145.0260479086
 20
55.8897669756
  0
VERTEX
  8
0
 62
4
  6
CONTINUOUS
 10
144.9637245719
 20
55.7225562537
  0
VERTEX
  8
0
 62
4
  6
CONTINUOUS
 10
144.9082325493
 20
55.5529559616
  0
VERTEX
  8
0
 62
4
  6
CONTINUOUS
 10
144.8596631149
 20
55.3812450605
  0
VERTEX
  8
0
 62
4
  6
CONTINUOUS
 10
144.8180961564
 20
55.2077059832
  0
VERTEX
  8
0
 62
4
  6
CONTINUOUS
 10
144.7836000438
 20
55.0326241696
  0
SEQEND
  0
LINE
  8
0
 62
7
  6
CONTINUOUS
 10
152.6669646763
 20
168.6826241696
 11
145.5669646763
 21
168.6826241696
  0
LINE
  8
0
 62
7
  6
CONTINUOUS
 10
145.5669646763
 20
175.3826241696
 11
152.6669646763
 21
175.3826241696
  0
LINE
  8
0
 62
7
  6
CONTINUOUS
 10
152.6669646763
 20
181.3826241696
 11
145.5669646763
 21
181.3826241696
  0
LINE
  8
0
 62
7
  6
CONTINUOUS
 10
145.5669646763
 20
188.0826241696
 11
152.6669646763
 21
188.0826241696
  0
LINE
  8
0
 62
7
  6
CONTINUOUS
 10
152.6669646763
 20
194.0826241696
 11
145.5669646763
 21
194.0826241696
  0
LINE
  8
0
 62
7
  6
CONTINUOUS
 10
145.5669646763
 20
200.7826241696
 11
152.6669646763
 21
200.7826241696
  0
LINE
  8
0
 62
7
  6
CONTINUOUS
 10
152.6669646763
 20
206.7826241696
 11
145.5669646763
 21
206.7826241696
  0
LINE
  8
0
 62
7
  6
CONTINUOUS
 10
145.5669646763
 20
213.4826241696
 11
152.6669646763
 21
213.4826241696
  0
LINE
  8
0
 62
7
  6
CONTINUOUS
 10
152.6669646763
 20
219.4826241696
 11
145.5669646763
 21
219.4826241696
  0
LINE
  8
0
 62
7
  6
CONTINUOUS
 10
148.7169646763
 20
220.1826241696
 11
149.5169646763
 21
220.1826241696
  0
LINE
  8
0
 62
7
  6
CONTINUOUS
 10
148.7169646763
 20
227.0726241696
 11
149.5169646763
 21
227.0726241696
  0
LINE
  8
0
 62
7
  6
CONTINUOUS
 10
145.5669646763
 20
227.7726241696
 11
152.6669646763
 21
227.7726241696
  0
LINE
  8
0
 62
7
  6
CONTINUOUS
 10
152.6669646763
 20
235.5326241696
 11
145.5669646763
 21
235.5326241696
  0
POLYLINE
  8
0
 62
40
  6
CONTINUOUS
 66
1
 70
0
  0
VERTEX
  8
0
 62
40
  6
CONTINUOUS
 10
153.494090635
 20
230.3048656066
  0
VERTEX
  8
0
 62
40
  6
CONTINUOUS
 10
153.5023207182
 20
230.3022472142
  0
VERTEX
  8
0
 62
40
  6
CONTINUOUS
 10
153.5087254493
 20
230.2996244487
  0
VERTEX
  8
0
 62
40
  6
CONTINUOUS
 10
153.5133021624
 20
230.2969984018
  0
VERTEX
  8
0
 62
40
  6
CONTINUOUS
 10
153.5160489525
 20
230.2943701665
  0
VERTEX
  8
0
 62
40
  6
CONTINUOUS
 10
153.5169646763
 20
230.2917408367
  0
SEQEND
  0
ARC
  8
0
 62
7
  6
CONTINUOUS
 10
71.5955634952
 20
259.7659404751
 40
1.0
 50
180.0
 51
270.0
  0
ARC
  8
0
 62
7
  6
CONTINUOUS
 10
57.2645634952
 20
270.6659404751
 40
4.4
 50
90.0
 51
270.0
  0
ARC
  8
0
 62
7
  6
CONTINUOUS
 10
68.4945634952
 20
270.6659404751
 40
4.4
 50
275.9790790722
 51
84.0209209278
  0
CIRCLE
  8
0
 62
7
  6
CONTINUOUS
 10
57.4145634952
 20
270.6659404751
 40
2.6
  0
ARC
  8
0
 62
7
  6
CONTINUOUS
 10
84.5955634952
 20
259.7659404751
 40
1.0
 50
270.0
 51
360.0
  0
ARC
  8
0
 62
7
  6
CONTINUOUS
 10
73.3645634952
 20
270.6659404751
 40
4.4
 50
78.645269054
 51
90.0
  0
CIRCLE
  8
0
 62
7
  6
CONTINUOUS
 10
77.9145634952
 20
270.6659404751
 40
1.7
  0
CIRCLE
  8
0
 62
7
  6
CONTINUOUS
 10
77.9145634952
 20
270.6659404751
 40
0.4
  0
ARC
  8
0
 62
7
  6
CONTINUOUS
 10
88.5955634952
 20
265.8647074043
 40
3.0
 50
139.5476615065
 51
180.0
  0
ARC
  8
0
 62
7
  6
CONTINUOUS
 10
82.9645634952
 20
270.6659404751
 40
4.4
 50
269.9999999988
 51
90.0
  0
CIRCLE
  8
0
 62
7
  6
CONTINUOUS
 10
82.8145634952
 20
270.6659404751
 40
2.6
  0
ARC
  8
0
 62
7
  6
CONTINUOUS
 10
60.132169344
 20
58.6296064601
 40
2.5
 50
44.5239289046
 51
78.8745595634
  0
ARC
  8
0
 62
7
  6
CONTINUOUS
 10
60.132169344
 20
55.245641879
 40
2.5
 50
281.1254404366
 51
315.4760710954
  0
ARC
  8
0
 62
7
  6
CONTINUOUS
 10
53.7145634952
 20
91.6326241696
 40
0.85
 50
89.9999997861
 51
180.0
  0
ARC
  8
0
 62
7
  6
CONTINUOUS
 10
53.7145634952
 20
87.3326241696
 40
0.85
 50
180.0
 51
270.0000002139
  0
ARC
  8
0
 62
7
  6
CONTINUOUS
 10
53.7145634952
 20
78.9326241696
 40
0.85
 50
89.9999997861
 51
180.0
  0
ARC
  8
0
 62
7
  6
CONTINUOUS
 10
53.7145634952
 20
74.6326241696
 40
0.85
 50
180.0
 51
270.0000002139
  0
ARC
  8
0
 62
7
  6
CONTINUOUS
 10
53.7145634952
 20
66.2326241696
 40
0.85
 50
89.9999997861
 51
180.0
  0
ARC
  8
0
 62
7
  6
CONTINUOUS
 10
53.7145634952
 20
61.9326241696
 40
0.85
 50
180.0
 51
270.0000002139
  0
ARC
  8
0
 62
7
  6
CONTINUOUS
 10
53.7145634952
 20
51.9426241696
 40
0.85
 50
89.9999997861
 51
180.0
  0
ARC
  8
0
 62
7
  6
CONTINUOUS
 10
53.7145634952
 20
45.8826241696
 40
0.85
 50
180.0
 51
270.0000002139
  0
ARC
  8
0
 62
7
  6
CONTINUOUS
 10
60.132169344
 20
134.8296064601
 40
2.5
 50
44.5239289046
 51
78.8745595634
  0
ARC
  8
0
 62
7
  6
CONTINUOUS
 10
53.7145634952
 20
129.7326241696
 40
0.85
 50
89.9999997861
 51
180.0
  0
ARC
  8
0
 62
7
  6
CONTINUOUS
 10
53.7145634952
 20
138.1326241696
 40
0.85
 50
180.0
 51
270.0000002139
  0
ARC
  8
0
 62
7
  6
CONTINUOUS
 10
53.7145634952
 20
125.4326241696
 40
0.85
 50
180.0
 51
270.0000002139
  0
ARC
  8
0
 62
7
  6
CONTINUOUS
 10
53.7145634952
 20
117.0326241696
 40
0.85
 50
89.9999997861
 51
180.0
  0
ARC
  8
0
 62
7
  6
CONTINUOUS
 10
53.7145634952
 20
112.7326241696
 40
0.85
 50
180.0
 51
270.0000002139
  0
ARC
  8
0
 62
7
  6
CONTINUOUS
 10
53.7145634952
 20
104.3326241696
 40
0.85
 50
89.9999997861
 51
180.0
  0
ARC
  8
0
 62
7
  6
CONTINUOUS
 10
53.7145634952
 20
100.0326241696
 40
0.85
 50
180.0
 51
270.0000002139
  0
ARC
  8
0
 62
7
  6
CONTINUOUS
 10
64.4969576464
 20
58.6296064601
 40
2.5
 50
101.1254404366
 51
135.4760710954
  0
ARC
  8
0
 62
7
  6
CONTINUOUS
 10
64.4969576464
 20
55.245641879
 40
2.5
 50
224.5239289046
 51
258.8745595634
  0
ARC
  8
0
 62
7
  6
CONTINUOUS
 10
67.4807925418
 20
54.7926241696
 40
2.0
 50
270.0
 51
309.0
  0
ARC
  8
0
 62
7
  6
CONTINUOUS
 10
67.4832623361
 20
59.0826241696
 40
2.0
 50
51.0
 51
90.0
  0
ARC
  8
0
 62
7
  6
CONTINUOUS
 10
67.482027439
 20
69.0826241696
 40
2.0
 50
270.0
 51
309.0
  0
ARC
  8
0
 62
7
  6
CONTINUOUS
 10
67.0345634952
 20
67.3826241696
 40
0.3
 50
269.999989208
 51
360.0
  0
ARC
  8
0
 62
7
  6
CONTINUOUS
 10
67.0345634952
 20
60.7826241696
 40
0.3
 50
0.0
 51
90.0000108595
  0
ARC
  8
0
 62
7
  6
CONTINUOUS
 10
67.0345634952
 20
53.0926241696
 40
0.3
 50
269.9999892741
 51
360.0
  0
ARC
  8
0
 62
7
  6
CONTINUOUS
 10
67.0345634952
 20
73.4826241696
 40
0.3
 50
0.0
 51
90.0000107934
  0
ARC
  8
0
 62
7
  6
CONTINUOUS
 10
67.0345634952
 20
86.1826241696
 40
0.3
 50
0.0
 51
90.0000107934
  0
ARC
  8
0
 62
7
  6
CONTINUOUS
 10
67.0345634952
 20
80.0826241696
 40
0.3
 50
269.999989208
 51
360.0
  0
ARC
  8
0
 62
7
  6
CONTINUOUS
 10
67.482027439
 20
71.7826241696
 40
2.0
 50
51.0
 51
90.0
  0
ARC
  8
0
 62
7
  6
CONTINUOUS
 10
67.482027439
 20
81.7826241696
 40
2.0
 50
270.0
 51
309.0
  0
ARC
  8
0
 62
7
  6
CONTINUOUS
 10
67.482027439
 20
84.4826241696
 40
2.0
 50
51.0
 51
90.0
  0
ARC
  8
0
 62
7
  6
CONTINUOUS
 10
64.4969576464
 20
134.8296064601
 40
2.5
 50
101.1254404366
 51
135.4760710954
  0
ARC
  8
0
 62
7
  6
CONTINUOUS
 10
67.0345634952
 20
98.8826241696
 40
0.3
 50
0.0
 51
90.0000107934
  0
ARC
  8
0
 62
7
  6
CONTINUOUS
 10
67.0345634952
 20
92.7826241696
 40
0.3
 50
269.999989208
 51
360.0
  0
ARC
  8
0
 62
7
  6
CONTINUOUS
 10
67.0345634952
 20
111.5826241696
 40
0.3
 50
0.0
 51
90.0000107934
  0
ARC
  8
0
 62
7
  6
CONTINUOUS
 10
67.0345634952
 20
105.4826241696
 40
0.3
 50
269.999989208
 51
360.0
  0
ARC
  8
0
 62
7
  6
CONTINUOUS
 10
67.482027439
 20
94.4826241696
 40
2.0
 50
270.0
 51
309.0
  0
ARC
  8
0
 62
7
  6
CONTINUOUS
 10
67.482027439
 20
97.1826241696
 40
2.0
 50
51.0
 51
90.0
  0
ARC
  8
0
 62
7
  6
CONTINUOUS
 10
67.482027439
 20
107.1826241696
 40
2.0
 50
270.0
 51
309.0
  0
ARC
  8
0
 62
7
  6
CONTINUOUS
 10
67.482027439
 20
109.8826241696
 40
2.0
 50
51.0
 51
90.0
  0
ARC
  8
0
 62
7
  6
CONTINUOUS
 10
67.0345634952
 20
124.2826241696
 40
0.3
 50
0.0
 51
90.0000107934
  0
ARC
  8
0
 62
7
  6
CONTINUOUS
 10
67.0345634952
 20
118.1826241696
 40
0.3
 50
269.999989208
 51
360.0
  0
ARC
  8
0
 62
7
  6
CONTINUOUS
 10
67.0345634952
 20
136.9826241696
 40
0.3
 50
0.0
 51
90.0000107934
  0
ARC
  8
0
 62
7
  6
CONTINUOUS
 10
67.0345634952
 20
130.8826241696
 40
0.3
 50
269.999989208
 51
360.0
  0
ARC
  8
0
 62
7
  6
CONTINUOUS
 10
67.482027439
 20
119.8826241696
 40
2.0
 50
270.0
 51
309.0
  0
ARC
  8
0
 62
7
  6
CONTINUOUS
 10
67.482027439
 20
122.5826241696
 40
2.0
 50
51.0
 51
90.0
  0
ARC
  8
0
 62
7
  6
CONTINUOUS
 10
67.482027439
 20
132.5826241696
 40
2.0
 50
270.0
 51
309.0
  0
ARC
  8
0
 62
7
  6
CONTINUOUS
 10
67.482027439
 20
135.2826241696
 40
2.0
 50
51.0
 51
90.0
  0
ARC
  8
0
 62
7
  6
CONTINUOUS
 10
60.132169344
 20
145.735641879
 40
2.5
 50
281.1254404366
 51
315.4760710954
  0
ARC
  8
0
 62
7
  6
CONTINUOUS
 10
53.7145634952
 20
180.5326241696
 40
0.85
 50
89.9999997861
 51
180.0
  0
ARC
  8
0
 62
7
  6
CONTINUOUS
 10
53.7145634952
 20
176.2326241696
 40
0.85
 50
180.0
 51
270.0000002139
  0
ARC
  8
0
 62
7
  6
CONTINUOUS
 10
53.7145634952
 20
167.8326241696
 40
0.85
 50
89.9999997861
 51
180.0
  0
ARC
  8
0
 62
7
  6
CONTINUOUS
 10
53.7145634952
 20
163.5326241696
 40
0.85
 50
180.0
 51
270.0000002139
  0
ARC
  8
0
 62
7
  6
CONTINUOUS
 10
53.7145634952
 20
155.1326241696
 40
0.85
 50
89.9999997861
 51
180.0
  0
ARC
  8
0
 62
7
  6
CONTINUOUS
 10
53.7145634952
 20
150.8326241696
 40
0.85
 50
180.0
 51
270.0000002139
  0
ARC
  8
0
 62
7
  6
CONTINUOUS
 10
53.7145634952
 20
142.4326241696
 40
0.85
 50
89.9999997861
 51
180.0
  0
ARC
  8
0
 62
7
  6
CONTINUOUS
 10
60.132169344
 20
221.935641879
 40
2.5
 50
281.1254404366
 51
315.4760710954
  0
ARC
  8
0
 62
7
  6
CONTINUOUS
 10
60.132169344
 20
225.3196064601
 40
2.5
 50
44.5239289046
 51
78.8745595634
  0
ARC
  8
0
 62
7
  6
CONTINUOUS
 10
53.7145634952
 20
234.6826241696
 40
0.85
 50
89.9999997861
 51
180.0
  0
ARC
  8
0
 62
7
  6
CONTINUOUS
 10
53.7145634952
 20
228.6226241696
 40
0.85
 50
180.0
 51
270.0000002139
  0
ARC
  8
0
 62
7
  6
CONTINUOUS
 10
53.7145634952
 20
218.6326241696
 40
0.85
 50
89.9999997861
 51
180.0
  0
ARC
  8
0
 62
7
  6
CONTINUOUS
 10
53.7145634952
 20
214.3326241696
 40
0.85
 50
180.0
 51
270.0000002139
  0
ARC
  8
0
 62
7
  6
CONTINUOUS
 10
53.7145634952
 20
205.9326241696
 40
0.85
 50
89.9999997861
 51
180.0
  0
ARC
  8
0
 62
7
  6
CONTINUOUS
 10
53.7145634952
 20
201.6326241696
 40
0.85
 50
180.0
 51
270.0000002139
  0
ARC
  8
0
 62
7
  6
CONTINUOUS
 10
53.7145634952
 20
193.2326241696
 40
0.85
 50
89.9999997861
 51
180.0
  0
ARC
  8
0
 62
7
  6
CONTINUOUS
 10
53.7145634952
 20
188.9326241696
 40
0.85
 50
180.0
 51
270.0000002139
  0
ARC
  8
0
 62
7
  6
CONTINUOUS
 10
64.4969576464
 20
145.735641879
 40
2.5
 50
224.5239289046
 51
258.8745595634
  0
ARC
  8
0
 62
7
  6
CONTINUOUS
 10
67.0345634952
 20
149.6826241696
 40
0.3
 50
0.0
 51
90.0000107934
  0
ARC
  8
0
 62
7
  6
CONTINUOUS
 10
67.0345634952
 20
143.5826241696
 40
0.3
 50
269.999989208
 51
360.0
  0
ARC
  8
0
 62
7
  6
CONTINUOUS
 10
67.0345634952
 20
162.3826241696
 40
0.3
 50
0.0
 51
90.0000107934
  0
ARC
  8
0
 62
7
  6
CONTINUOUS
 10
67.0345634952
 20
156.2826241696
 40
0.3
 50
269.999989208
 51
360.0
  0
ARC
  8
0
 62
7
  6
CONTINUOUS
 10
67.482027439
 20
145.2826241696
 40
2.0
 50
270.0
 51
309.0
  0
ARC
  8
0
 62
7
  6
CONTINUOUS
 10
67.482027439
 20
147.9826241696
 40
2.0
 50
51.0
 51
90.0
  0
ARC
  8
0
 62
7
  6
CONTINUOUS
 10
67.482027439
 20
157.9826241696
 40
2.0
 50
270.0
 51
309.0
  0
ARC
  8
0
 62
7
  6
CONTINUOUS
 10
67.482027439
 20
160.6826241696
 40
2.0
 50
51.0
 51
90.0
  0
ARC
  8
0
 62
7
  6
CONTINUOUS
 10
67.0345634952
 20
175.0826241696
 40
0.3
 50
0.0
 51
90.0000107934
  0
ARC
  8
0
 62
7
  6
CONTINUOUS
 10
67.0345634952
 20
168.9826241696
 40
0.3
 50
269.999989208
 51
360.0
  0
ARC
  8
0
 62
7
  6
CONTINUOUS
 10
67.0345634952
 20
187.7826241696
 40
0.3
 50
0.0
 51
90.0000107934
  0
ARC
  8
0
 62
7
  6
CONTINUOUS
 10
67.0345634952
 20
181.6826241696
 40
0.3
 50
269.999989208
 51
360.0
  0
ARC
  8
0
 62
7
  6
CONTINUOUS
 10
67.482027439
 20
170.6826241696
 40
2.0
 50
270.0
 51
309.0
  0
ARC
  8
0
 62
7
  6
CONTINUOUS
 10
67.482027439
 20
173.3826241696
 40
2.0
 50
51.0
 51
90.0
  0
ARC
  8
0
 62
7
  6
CONTINUOUS
 10
67.482027439
 20
183.3826241696
 40
2.0
 50
270.0
 51
309.0
  0
ARC
  8
0
 62
7
  6
CONTINUOUS
 10
67.482027439
 20
186.0826241696
 40
2.0
 50
51.0
 51
90.0
  0
ARC
  8
0
 62
7
  6
CONTINUOUS
 10
64.4969576464
 20
221.935641879
 40
2.5
 50
224.5239289046
 51
258.8745595634
  0
ARC
  8
0
 62
7
  6
CONTINUOUS
 10
64.4969576464
 20
225.3196064601
 40
2.5
 50
101.1254404366
 51
135.4760710954
  0
ARC
  8
0
 62
7
  6
CONTINUOUS
 10
67.482027439
 20
196.0826241696
 40
2.0
 50
270.0
 51
309.0
  0
ARC
  8
0
 62
7
  6
CONTINUOUS
 10
67.482027439
 20
198.7826241696
 40
2.0
 50
51.0
 51
90.0
  0
ARC
  8
0
 62
7
  6
CONTINUOUS
 10
67.482027439
 20
208.7826241696
 40
2.0
 50
270.0
 51
309.0
  0
ARC
  8
0
 62
7
  6
CONTINUOUS
 10
67.0345634952
 20
207.0826241696
 40
0.3
 50
269.999989208
 51
360.0
  0
ARC
  8
0
 62
7
  6
CONTINUOUS
 10
67.0345634952
 20
200.4826241696
 40
0.3
 50
0.0
 51
90.0000107934
  0
ARC
  8
0
 62
7
  6
CONTINUOUS
 10
67.0345634952
 20
194.3826241696
 40
0.3
 50
269.999989208
 51
360.0
  0
ARC
  8
0
 62
7
  6
CONTINUOUS
 10
67.0345634952
 20
213.1826241696
 40
0.3
 50
0.0
 51
90.0000107934
  0
ARC
  8
0
 62
7
  6
CONTINUOUS
 10
67.0345634952
 20
227.4726241696
 40
0.3
 50
0.0
 51
90.0000107273
  0
ARC
  8
0
 62
7
  6
CONTINUOUS
 10
67.0345634952
 20
219.7826241696
 40
0.3
 50
269.9999891419
 51
360.0
  0
ARC
  8
0
 62
7
  6
CONTINUOUS
 10
67.482027439
 20
211.4826241696
 40
2.0
 50
51.0
 51
90.0
  0
ARC
  8
0
 62
7
  6
CONTINUOUS
 10
67.4832623361
 20
221.4826241696
 40
2.0
 50
270.0
 51
309.0
  0
ARC
  8
0
 62
7
  6
CONTINUOUS
 10
67.4807925418
 20
225.7726241696
 40
2.0
 50
51.0
 51
90.0
  0
ARC
  8
0
 62
7
  6
CONTINUOUS
 10
70.8945634952
 20
47.0326241696
 40
2.0
 50
270.0
 51
0.0000027254
  0
ARC
  8
0
 62
7
  6
CONTINUOUS
 10
72.7483344485
 20
62.7326241696
 40
2.0
 50
231.0
 51
270.0
  0
ARC
  8
0
 62
7
  6
CONTINUOUS
 10
72.7470995514
 20
65.4326241696
 40
2.0
 50
90.0
 51
129.0
  0
ARC
  8
0
 62
7
  6
CONTINUOUS
 10
73.1945634952
 20
67.1326241696
 40
0.3
 50
90.0000000041
 51
180.0
  0
ARC
  8
0
 62
7
  6
CONTINUOUS
 10
73.1945634952
 20
61.0326241696
 40
0.3
 50
180.0
 51
269.9999999959
  0
ARC
  8
0
 62
7
  6
CONTINUOUS
 10
72.7470995514
 20
75.4326241696
 40
2.0
 50
231.0
 51
270.0
  0
ARC
  8
0
 62
7
  6
CONTINUOUS
 10
72.7470995514
 20
78.1326241696
 40
2.0
 50
90.0
 51
129.0
  0
ARC
  8
0
 62
7
  6
CONTINUOUS
 10
72.7470995514
 20
88.1326241696
 40
2.0
 50
231.0
 51
270.0
  0
ARC
  8
0
 62
7
  6
CONTINUOUS
 10
72.7470995514
 20
90.8326241696
 40
2.0
 50
90.0
 51
129.0
  0
ARC
  8
0
 62
7
  6
CONTINUOUS
 10
73.1945634952
 20
79.8326241696
 40
0.3
 50
90.0000000041
 51
180.0
  0
ARC
  8
0
 62
7
  6
CONTINUOUS
 10
73.1945634952
 20
73.7326241696
 40
0.3
 50
180.0
 51
269.9999999959
  0
ARC
  8
0
 62
7
  6
CONTINUOUS
 10
73.1945634952
 20
92.5326241696
 40
0.3
 50
90.0000000041
 51
180.0
  0
ARC
  8
0
 62
7
  6
CONTINUOUS
 10
73.1945634952
 20
86.4326241696
 40
0.3
 50
180.0
 51
269.9999999959
  0
ARC
  8
0
 62
7
  6
CONTINUOUS
 10
75.732169344
 20
50.6916064601
 40
2.5
 50
44.5239289046
 51
78.8745595634
  0
ARC
  8
0
 62
7
  6
CONTINUOUS
 10
76.9145634952
 20
59.8826241696
 40
0.85
 50
0.0
 51
90.0
  0
ARC
  8
0
 62
7
  6
CONTINUOUS
 10
78.6145634952
 20
57.8826241696
 40
0.85
 50
180.0
 51
270.0
  0
ARC
  8
0
 62
7
  6
CONTINUOUS
 10
72.7470995514
 20
100.8326241696
 40
2.0
 50
231.0
 51
270.0
  0
ARC
  8
0
 62
7
  6
CONTINUOUS
 10
72.7470995514
 20
103.5326241696
 40
2.0
 50
90.0
 51
129.0
  0
ARC
  8
0
 62
7
  6
CONTINUOUS
 10
72.7470995514
 20
113.5326241696
 40
2.0
 50
231.0
 51
270.0
  0
ARC
  8
0
 62
7
  6
CONTINUOUS
 10
72.7470995514
 20
116.2326241696
 40
2.0
 50
90.0
 51
129.0
  0
ARC
  8
0
 62
7
  6
CONTINUOUS
 10
73.1945634952
 20
105.2326241696
 40
0.3
 50
90.0000000041
 51
180.0
  0
ARC
  8
0
 62
7
  6
CONTINUOUS
 10
73.1945634952
 20
99.1326241696
 40
0.3
 50
180.0
 51
269.9999999959
  0
ARC
  8
0
 62
7
  6
CONTINUOUS
 10
73.1945634952
 20
117.9326241696
 40
0.3
 50
90.0000000041
 51
180.0
  0
ARC
  8
0
 62
7
  6
CONTINUOUS
 10
73.1945634952
 20
111.8326241696
 40
0.3
 50
180.0
 51
269.9999999959
  0
ARC
  8
0
 62
7
  6
CONTINUOUS
 10
72.7470995514
 20
126.2326241696
 40
2.0
 50
231.0
 51
270.0
  0
ARC
  8
0
 62
7
  6
CONTINUOUS
 10
72.7470995514
 20
128.9326241696
 40
2.0
 50
90.0
 51
129.0
  0
ARC
  8
0
 62
7
  6
CONTINUOUS
 10
72.7470995514
 20
138.9326241696
 40
2.0
 50
231.0
 51
270.0
  0
ARC
  8
0
 62
7
  6
CONTINUOUS
 10
73.1945634952
 20
130.6326241696
 40
0.3
 50
90.0000000041
 51
180.0
  0
ARC
  8
0
 62
7
  6
CONTINUOUS
 10
73.1945634952
 20
124.5326241696
 40
0.3
 50
180.0
 51
269.9999999959
  0
ARC
  8
0
 62
7
  6
CONTINUOUS
 10
73.1945634952
 20
137.2326241696
 40
0.3
 50
180.0
 51
269.9999999959
  0
ARC
  8
0
 62
7
  6
CONTINUOUS
 10
75.732169344
 20
139.385641879
 40
2.5
 50
281.1254404366
 51
315.4760710954
  0
ARC
  8
0
 62
7
  6
CONTINUOUS
 10
80.0969576464
 20
50.6916064601
 40
2.5
 50
101.1254404366
 51
135.4760710954
  0
ARC
  8
0
 62
7
  6
CONTINUOUS
 10
86.5145634952
 20
56.1826241696
 40
0.85
 50
0.0
 51
90.0000025566
  0
ARC
  8
0
 62
7
  6
CONTINUOUS
 10
86.5145634952
 20
85.2826241696
 40
0.85
 50
0.0
 51
90.0000002139
  0
ARC
  8
0
 62
7
  6
CONTINUOUS
 10
86.5145634952
 20
80.9826241696
 40
0.85
 50
269.9999997861
 51
360.0
  0
ARC
  8
0
 62
7
  6
CONTINUOUS
 10
86.5145634952
 20
72.5826241696
 40
0.85
 50
0.0
 51
90.0000002139
  0
ARC
  8
0
 62
7
  6
CONTINUOUS
 10
86.5145634952
 20
68.2826241696
 40
0.85
 50
269.9999997861
 51
360.0
  0
ARC
  8
0
 62
7
  6
CONTINUOUS
 10
86.5145634952
 20
53.9946241696
 40
0.85
 50
269.9999997861
 51
360.0
  0
ARC
  8
0
 62
7
  6
CONTINUOUS
 10
80.0969576464
 20
139.385641879
 40
2.5
 50
224.5239289046
 51
258.8745595634
  0
ARC
  8
0
 62
7
  6
CONTINUOUS
 10
86.5145634952
 20
136.0826241696
 40
0.85
 50
0.0
 51
90.0000002139
  0
ARC
  8
0
 62
7
  6
CONTINUOUS
 10
86.5145634952
 20
131.7826241696
 40
0.85
 50
269.9999997861
 51
360.0
  0
ARC
  8
0
 62
7
  6
CONTINUOUS
 10
86.5145634952
 20
123.3826241696
 40
0.85
 50
0.0
 51
90.0000002139
  0
ARC
  8
0
 62
7
  6
CONTINUOUS
 10
86.5145634952
 20
119.0826241696
 40
0.85
 50
269.9999997861
 51
360.0
  0
ARC
  8
0
 62
7
  6
CONTINUOUS
 10
86.5145634952
 20
110.6826241696
 40
0.85
 50
0.0
 51
90.0000002139
  0
ARC
  8
0
 62
7
  6
CONTINUOUS
 10
86.5145634952
 20
106.3826241696
 40
0.85
 50
269.9999997861
 51
360.0
  0
ARC
  8
0
 62
7
  6
CONTINUOUS
 10
86.5145634952
 20
97.9826241696
 40
0.85
 50
0.0
 51
90.0000002139
  0
ARC
  8
0
 62
7
  6
CONTINUOUS
 10
86.5145634952
 20
93.6826241696
 40
0.85
 50
269.9999997861
 51
360.0
  0
ARC
  8
0
 62
7
  6
CONTINUOUS
 10
72.7470995514
 20
141.6326241696
 40
2.0
 50
90.0
 51
129.0
  0
ARC
  8
0
 62
7
  6
CONTINUOUS
 10
72.7470995514
 20
151.6326241696
 40
2.0
 50
231.0
 51
270.0
  0
ARC
  8
0
 62
7
  6
CONTINUOUS
 10
72.7470995514
 20
154.3326241696
 40
2.0
 50
90.0
 51
129.0
  0
ARC
  8
0
 62
7
  6
CONTINUOUS
 10
73.1945634952
 20
156.0326241696
 40
0.3
 50
90.0000000041
 51
180.0
  0
ARC
  8
0
 62
7
  6
CONTINUOUS
 10
73.1945634952
 20
149.9326241696
 40
0.3
 50
180.0
 51
269.9999999959
  0
ARC
  8
0
 62
7
  6
CONTINUOUS
 10
73.1945634952
 20
143.3326241696
 40
0.3
 50
90.0000000041
 51
180.0
  0
ARC
  8
0
 62
7
  6
CONTINUOUS
 10
72.7470995514
 20
164.3326241696
 40
2.0
 50
231.0
 51
270.0
  0
ARC
  8
0
 62
7
  6
CONTINUOUS
 10
72.7470995514
 20
167.0326241696
 40
2.0
 50
90.0
 51
129.0
  0
ARC
  8
0
 62
7
  6
CONTINUOUS
 10
72.7470995514
 20
177.0326241696
 40
2.0
 50
231.0
 51
270.0
  0
ARC
  8
0
 62
7
  6
CONTINUOUS
 10
72.7470995514
 20
179.7326241696
 40
2.0
 50
90.0
 51
129.0
  0
ARC
  8
0
 62
7
  6
CONTINUOUS
 10
73.1945634952
 20
168.7326241696
 40
0.3
 50
90.0000000041
 51
180.0
  0
ARC
  8
0
 62
7
  6
CONTINUOUS
 10
73.1945634952
 20
162.6326241696
 40
0.3
 50
180.0
 51
269.9999999959
  0
ARC
  8
0
 62
7
  6
CONTINUOUS
 10
73.1945634952
 20
181.4326241696
 40
0.3
 50
90.0000000041
 51
180.0
  0
ARC
  8
0
 62
7
  6
CONTINUOUS
 10
73.1945634952
 20
175.3326241696
 40
0.3
 50
180.0
 51
269.9999999959
  0
ARC
  8
0
 62
7
  6
CONTINUOUS
 10
75.732169344
 20
141.1796064601
 40
2.5
 50
44.5239289046
 51
78.8745595634
  0
ARC
  8
0
 62
7
  6
CONTINUOUS
 10
72.7470995514
 20
189.7326241696
 40
2.0
 50
231.0
 51
270.0
  0
ARC
  8
0
 62
7
  6
CONTINUOUS
 10
72.7470995514
 20
192.4326241696
 40
2.0
 50
90.0
 51
129.0
  0
ARC
  8
0
 62
7
  6
CONTINUOUS
 10
72.7470995514
 20
202.4326241696
 40
2.0
 50
231.0
 51
270.0
  0
ARC
  8
0
 62
7
  6
CONTINUOUS
 10
72.7470995514
 20
205.1326241696
 40
2.0
 50
90.0
 51
129.0
  0
ARC
  8
0
 62
7
  6
CONTINUOUS
 10
73.1945634952
 20
194.1326241696
 40
0.3
 50
90.0000000041
 51
180.0
  0
ARC
  8
0
 62
7
  6
CONTINUOUS
 10
73.1945634952
 20
188.0326241696
 40
0.3
 50
180.0
 51
269.9999999959
  0
ARC
  8
0
 62
7
  6
CONTINUOUS
 10
73.1945634952
 20
206.8326241696
 40
0.3
 50
90.0000000041
 51
180.0
  0
ARC
  8
0
 62
7
  6
CONTINUOUS
 10
73.1945634952
 20
200.7326241696
 40
0.3
 50
180.0
 51
269.9999999959
  0
ARC
  8
0
 62
7
  6
CONTINUOUS
 10
70.8945634952
 20
233.5326241696
 40
2.0
 50
359.9999971739
 51
90.0
  0
ARC
  8
0
 62
7
  6
CONTINUOUS
 10
72.7470995514
 20
215.1326241696
 40
2.0
 50
231.0
 51
270.0
  0
ARC
  8
0
 62
7
  6
CONTINUOUS
 10
72.7483344485
 20
217.8326241696
 40
2.0
 50
90.0
 51
129.0
  0
ARC
  8
0
 62
7
  6
CONTINUOUS
 10
73.1945634952
 20
219.5326241696
 40
0.3
 50
90.0000000042
 51
180.0
  0
ARC
  8
0
 62
7
  6
CONTINUOUS
 10
73.1945634952
 20
213.4326241696
 40
0.3
 50
180.0
 51
269.9999999959
  0
ARC
  8
0
 62
7
  6
CONTINUOUS
 10
75.732169344
 20
229.873641879
 40
2.5
 50
281.1254404366
 51
315.4760710954
  0
ARC
  8
0
 62
7
  6
CONTINUOUS
 10
78.6145634952
 20
222.6826241696
 40
0.85
 50
90.0
 51
180.0
  0
ARC
  8
0
 62
7
  6
CONTINUOUS
 10
76.9145634952
 20
220.6826241696
 40
0.85
 50
270.0
 51
360.0
  0
ARC
  8
0
 62
7
  6
CONTINUOUS
 10
80.0969576464
 20
141.1796064601
 40
2.5
 50
101.1254404366
 51
135.4760710954
  0
ARC
  8
0
 62
7
  6
CONTINUOUS
 10
86.5145634952
 20
186.8826241696
 40
0.85
 50
0.0
 51
90.0000002139
  0
ARC
  8
0
 62
7
  6
CONTINUOUS
 10
86.5145634952
 20
182.5826241696
 40
0.85
 50
269.9999997861
 51
360.0
  0
ARC
  8
0
 62
7
  6
CONTINUOUS
 10
86.5145634952
 20
174.1826241696
 40
0.85
 50
0.0
 51
90.0000002139
  0
ARC
  8
0
 62
7
  6
CONTINUOUS
 10
86.5145634952
 20
169.8826241696
 40
0.85
 50
269.9999997861
 51
360.0
  0
ARC
  8
0
 62
7
  6
CONTINUOUS
 10
86.5145634952
 20
161.4826241696
 40
0.85
 50
0.0
 51
90.0000002139
  0
ARC
  8
0
 62
7
  6
CONTINUOUS
 10
86.5145634952
 20
157.1826241696
 40
0.85
 50
269.9999997861
 51
360.0
  0
ARC
  8
0
 62
7
  6
CONTINUOUS
 10
86.5145634952
 20
148.7826241696
 40
0.85
 50
0.0
 51
90.0000002139
  0
ARC
  8
0
 62
7
  6
CONTINUOUS
 10
86.5145634952
 20
144.4826241696
 40
0.85
 50
269.9999997861
 51
360.0
  0
ARC
  8
0
 62
7
  6
CONTINUOUS
 10
80.0969576464
 20
229.873641879
 40
2.5
 50
224.5239289046
 51
258.8745595634
  0
ARC
  8
0
 62
7
  6
CONTINUOUS
 10
86.5145634952
 20
224.3826241696
 40
0.85
 50
269.9999974434
 51
360.0
  0
ARC
  8
0
 62
7
  6
CONTINUOUS
 10
86.5145634952
 20
226.5706241696
 40
0.85
 50
0.0
 51
90.0000002139
  0
ARC
  8
0
 62
7
  6
CONTINUOUS
 10
86.5145634952
 20
212.2826241696
 40
0.85
 50
0.0
 51
90.0000002139
  0
ARC
  8
0
 62
7
  6
CONTINUOUS
 10
86.5145634952
 20
207.9826241696
 40
0.85
 50
269.9999997861
 51
360.0
  0
ARC
  8
0
 62
7
  6
CONTINUOUS
 10
86.5145634952
 20
199.5826241696
 40
0.85
 50
0.0
 51
90.0000002139
  0
ARC
  8
0
 62
7
  6
CONTINUOUS
 10
86.5145634952
 20
195.2826241696
 40
0.85
 50
269.9999997861
 51
360.0
  0
ARC
  8
0
 62
7
  6
CONTINUOUS
 10
138.2169646763
 20
122.5326241696
 40
1.0
 50
90.0
 51
180.0
  0
ARC
  8
0
 62
7
  6
CONTINUOUS
 10
138.2169646763
 20
119.9326241696
 40
1.0
 50
180.0
 51
270.0
  0
ARC
  8
0
 62
7
  6
CONTINUOUS
 10
138.2169646763
 20
158.0326241696
 40
1.0
 50
180.0
 51
270.0
  0
ARC
  8
0
 62
7
  6
CONTINUOUS
 10
138.2169646763
 20
160.6326241696
 40
1.0
 50
90.0
 51
180.0
  0
ARC
  8
0
 62
7
  6
CONTINUOUS
 10
145.5669646763
 20
45.8826241696
 40
0.85
 50
243.7078849887
 51
270.0
  0
ARC
  8
0
 62
7
  6
CONTINUOUS
 10
145.5669646763
 20
51.9426241696
 40
0.85
 50
90.0
 51
180.0
  0
ARC
  8
0
 62
7
  6
CONTINUOUS
 10
145.5669646763
 20
61.9326241696
 40
0.85
 50
180.0
 51
270.0
  0
ARC
  8
0
 62
7
  6
CONTINUOUS
 10
145.5669646763
 20
66.2326241696
 40
0.85
 50
90.0
 51
180.0
  0
ARC
  8
0
 62
7
  6
CONTINUOUS
 10
145.5669646763
 20
74.6326241696
 40
0.85
 50
180.0
 51
270.0
  0
ARC
  8
0
 62
7
  6
CONTINUOUS
 10
145.5669646763
 20
78.9326241696
 40
0.85
 50
90.0
 51
180.0
  0
ARC
  8
0
 62
7
  6
CONTINUOUS
 10
145.5669646763
 20
87.3326241696
 40
0.85
 50
180.0
 51
270.0
  0
ARC
  8
0
 62
7
  6
CONTINUOUS
 10
145.5669646763
 20
91.6326241696
 40
0.85
 50
90.0
 51
180.0
  0
ARC
  8
0
 62
7
  6
CONTINUOUS
 10
146.934570525
 20
58.6296064601
 40
2.5
 50
44.5239289046
 51
78.8745595634
  0
ARC
  8
0
 62
7
  6
CONTINUOUS
 10
146.934570525
 20
55.245641879
 40
2.5
 50
281.1254404366
 51
315.4760710954
  0
ARC
  8
0
 62
7
  6
CONTINUOUS
 10
145.5669646763
 20
100.0326241696
 40
0.85
 50
180.0
 51
270.0
  0
ARC
  8
0
 62
7
  6
CONTINUOUS
 10
145.5669646763
 20
104.3326241696
 40
0.85
 50
90.0
 51
180.0
  0
ARC
  8
0
 62
7
  6
CONTINUOUS
 10
145.5669646763
 20
112.7326241696
 40
0.85
 50
180.0
 51
270.0
  0
ARC
  8
0
 62
7
  6
CONTINUOUS
 10
145.5669646763
 20
117.0326241696
 40
0.85
 50
90.0
 51
180.0
  0
ARC
  8
0
 62
7
  6
CONTINUOUS
 10
145.5669646763
 20
129.7326241696
 40
0.85
 50
90.0
 51
180.0
  0
ARC
  8
0
 62
7
  6
CONTINUOUS
 10
145.5669646763
 20
138.1326241696
 40
0.85
 50
180.0
 51
270.0
  0
ARC
  8
0
 62
7
  6
CONTINUOUS
 10
145.5669646763
 20
125.4326241696
 40
0.85
 50
180.0
 51
270.0
  0
ARC
  8
0
 62
7
  6
CONTINUOUS
 10
146.934570525
 20
134.8296064601
 40
2.5
 50
44.5239289046
 51
78.8745595634
  0
ARC
  8
0
 62
7
  6
CONTINUOUS
 10
151.2993588275
 20
58.6296064601
 40
2.5
 50
101.1254404366
 51
135.4760710954
  0
ARC
  8
0
 62
7
  6
CONTINUOUS
 10
151.2993588275
 20
55.245641879
 40
2.5
 50
224.5239289046
 51
258.8745595634
  0
ARC
  8
0
 62
7
  6
CONTINUOUS
 10
152.6669646763
 20
45.8826241696
 40
0.85
 50
270.0
 51
296.2921150113
  0
ARC
  8
0
 62
7
  6
CONTINUOUS
 10
152.6669646763
 20
51.9426241696
 40
0.85
 50
0.0
 51
90.0
  0
ARC
  8
0
 62
7
  6
CONTINUOUS
 10
152.6669646763
 20
61.9326241696
 40
0.85
 50
270.0
 51
360.0
  0
ARC
  8
0
 62
7
  6
CONTINUOUS
 10
152.6669646763
 20
66.2326241696
 40
0.85
 50
0.0
 51
90.0
  0
ARC
  8
0
 62
7
  6
CONTINUOUS
 10
152.6669646763
 20
74.6326241696
 40
0.85
 50
270.0
 51
360.0
  0
ARC
  8
0
 62
7
  6
CONTINUOUS
 10
152.6669646763
 20
78.9326241696
 40
0.85
 50
0.0
 51
90.0
  0
ARC
  8
0
 62
7
  6
CONTINUOUS
 10
152.6669646763
 20
87.3326241696
 40
0.85
 50
270.0
 51
360.0
  0
ARC
  8
0
 62
7
  6
CONTINUOUS
 10
152.6669646763
 20
91.6326241696
 40
0.85
 50
0.0
 51
90.0
  0
ARC
  8
0
 62
7
  6
CONTINUOUS
 10
151.2993588275
 20
134.8296064601
 40
2.5
 50
101.1254404366
 51
135.4760710954
  0
ARC
  8
0
 62
7
  6
CONTINUOUS
 10
152.6669646763
 20
100.0326241696
 40
0.85
 50
270.0
 51
360.0
  0
ARC
  8
0
 62
7
  6
CONTINUOUS
 10
152.6669646763
 20
104.3326241696
 40
0.85
 50
0.0
 51
90.0
  0
ARC
  8
0
 62
7
  6
CONTINUOUS
 10
152.6669646763
 20
112.7326241696
 40
0.85
 50
270.0
 51
360.0
  0
ARC
  8
0
 62
7
  6
CONTINUOUS
 10
152.6669646763
 20
117.0326241696
 40
0.85
 50
0.0
 51
90.0
  0
ARC
  8
0
 62
7
  6
CONTINUOUS
 10
152.6669646763
 20
129.7326241696
 40
0.85
 50
0.0
 51
90.0
  0
ARC
  8
0
 62
7
  6
CONTINUOUS
 10
152.6669646763
 20
138.1326241696
 40
0.85
 50
270.0
 51
360.0
  0
ARC
  8
0
 62
7
  6
CONTINUOUS
 10
152.6669646763
 20
125.4326241696
 40
0.85
 50
270.0
 51
360.0
  0
ARC
  8
0
 62
7
  6
CONTINUOUS
 10
145.5669646763
 20
155.1326241696
 40
0.85
 50
90.0
 51
180.0
  0
ARC
  8
0
 62
7
  6
CONTINUOUS
 10
145.5669646763
 20
150.8326241696
 40
0.85
 50
180.0
 51
270.0
  0
ARC
  8
0
 62
7
  6
CONTINUOUS
 10
145.5669646763
 20
142.4326241696
 40
0.85
 50
90.0
 51
180.0
  0
ARC
  8
0
 62
7
  6
CONTINUOUS
 10
145.5669646763
 20
180.5326241696
 40
0.85
 50
90.0
 51
180.0
  0
ARC
  8
0
 62
7
  6
CONTINUOUS
 10
145.5669646763
 20
176.2326241696
 40
0.85
 50
180.0
 51
270.0
  0
ARC
  8
0
 62
7
  6
CONTINUOUS
 10
145.5669646763
 20
167.8326241696
 40
0.85
 50
90.0
 51
180.0
  0
ARC
  8
0
 62
7
  6
CONTINUOUS
 10
145.5669646763
 20
163.5326241696
 40
0.85
 50
180.0
 51
270.0
  0
ARC
  8
0
 62
7
  6
CONTINUOUS
 10
146.934570525
 20
145.735641879
 40
2.5
 50
281.1254404366
 51
315.4760710954
  0
ARC
  8
0
 62
7
  6
CONTINUOUS
 10
145.5669646763
 20
205.9326241696
 40
0.85
 50
90.0
 51
180.0
  0
ARC
  8
0
 62
7
  6
CONTINUOUS
 10
145.5669646763
 20
201.6326241696
 40
0.85
 50
180.0
 51
270.0
  0
ARC
  8
0
 62
7
  6
CONTINUOUS
 10
145.5669646763
 20
193.2326241696
 40
0.85
 50
90.0
 51
180.0
  0
ARC
  8
0
 62
7
  6
CONTINUOUS
 10
145.5669646763
 20
188.9326241696
 40
0.85
 50
180.0
 51
270.0
  0
ARC
  8
0
 62
7
  6
CONTINUOUS
 10
145.5669646763
 20
234.6826241696
 40
0.85
 50
90.0
 51
116.2921150113
  0
ARC
  8
0
 62
7
  6
CONTINUOUS
 10
145.5669646763
 20
228.6226241696
 40
0.85
 50
180.0
 51
270.0
  0
ARC
  8
0
 62
7
  6
CONTINUOUS
 10
145.5669646763
 20
218.6326241696
 40
0.85
 50
90.0
 51
180.0
  0
ARC
  8
0
 62
7
  6
CONTINUOUS
 10
145.5669646763
 20
214.3326241696
 40
0.85
 50
180.0
 51
270.0
  0
ARC
  8
0
 62
7
  6
CONTINUOUS
 10
146.934570525
 20
221.935641879
 40
2.5
 50
281.1254404366
 51
315.4760710954
  0
ARC
  8
0
 62
7
  6
CONTINUOUS
 10
146.934570525
 20
225.3196064601
 40
2.5
 50
44.5239289046
 51
78.8745595634
  0
ARC
  8
0
 62
7
  6
CONTINUOUS
 10
151.2993588275
 20
145.735641879
 40
2.5
 50
224.5239289046
 51
258.8745595634
  0
ARC
  8
0
 62
7
  6
CONTINUOUS
 10
152.6669646763
 20
155.1326241696
 40
0.85
 50
0.0
 51
90.0
  0
ARC
  8
0
 62
7
  6
CONTINUOUS
 10
152.6669646763
 20
150.8326241696
 40
0.85
 50
270.0
 51
360.0
  0
ARC
  8
0
 62
7
  6
CONTINUOUS
 10
152.6669646763
 20
142.4326241696
 40
0.85
 50
0.0
 51
90.0
  0
ARC
  8
0
 62
7
  6
CONTINUOUS
 10
152.6669646763
 20
180.5326241696
 40
0.85
 50
0.0
 51
90.0
  0
ARC
  8
0
 62
7
  6
CONTINUOUS
 10
152.6669646763
 20
176.2326241696
 40
0.85
 50
270.0
 51
360.0
  0
ARC
  8
0
 62
7
  6
CONTINUOUS
 10
152.6669646763
 20
167.8326241696
 40
0.85
 50
0.0
 51
90.0
  0
ARC
  8
0
 62
7
  6
CONTINUOUS
 10
152.6669646763
 20
163.5326241696
 40
0.85
 50
270.0
 51
360.0
  0
ARC
  8
0
 62
7
  6
CONTINUOUS
 10
151.2993588275
 20
221.935641879
 40
2.5
 50
224.5239289046
 51
258.8745595634
  0
ARC
  8
0
 62
7
  6
CONTINUOUS
 10
151.2993588275
 20
225.3196064601
 40
2.5
 50
101.1254404366
 51
135.4760710954
  0
ARC
  8
0
 62
7
  6
CONTINUOUS
 10
152.6669646763
 20
205.9326241696
 40
0.85
 50
0.0
 51
90.0
  0
ARC
  8
0
 62
7
  6
CONTINUOUS
 10
152.6669646763
 20
201.6326241696
 40
0.85
 50
270.0
 51
360.0
  0
ARC
  8
0
 62
7
  6
CONTINUOUS
 10
152.6669646763
 20
193.2326241696
 40
0.85
 50
0.0
 51
90.0
  0
ARC
  8
0
 62
7
  6
CONTINUOUS
 10
152.6669646763
 20
188.9326241696
 40
0.85
 50
270.0
 51
360.0
  0
ARC
  8
0
 62
7
  6
CONTINUOUS
 10
152.6669646763
 20
234.6826241696
 40
0.85
 50
63.7078849887
 51
90.0
  0
ARC
  8
0
 62
7
  6
CONTINUOUS
 10
152.6669646763
 20
228.6226241696
 40
0.85
 50
270.0
 51
360.0
  0
ARC
  8
0
 62
7
  6
CONTINUOUS
 10
152.6669646763
 20
218.6326241696
 40
0.85
 50
0.0
 51
90.0
  0
ARC
  8
0
 62
7
  6
CONTINUOUS
 10
152.6669646763
 20
214.3326241696
 40
0.85
 50
270.0
 51
360.0
  0
ENDSEC
  0
EOF
