  0
SECTION
  2
HEADER
  9
$EXTMAX
 10
210.0
 20
297.0
 30
0.0
  9
$EXTMIN
 10
0.0
 20
0.0
 30
0.0
  9
$LIMMIN
 10
0.0
 20
0.0
  9
$LIMMAX
 10
210.0
 20
297.0
  9
$VIEWCTR
 10
105.0
 20
148.5
  9
$VIEWSIZE
 40
297.0
  9
$CLAYER
  8
0
  9
$LTSCALE
 40
19.36
  9
$CELTYPE
  6
BYLAYER
  9
$DIMSCALE
 40
1.0
  9
$DIMASZ
 40
3.5
  9
$DIMEXO
 40
2.2
  9
$DIMDLI
 40
13.376
  9
$DIMEXE
 40
6.336
  9
$DIMCEN
 40
3.168
  9
$DIMLFAC
 40
1.0
  9
$DIMBLK
  1
_FILLED
  9
$DIMTXT
 40
3.5
  9
$PDMODE
 70
3
  9
$PDSIZE
 40
0.3125
  9
$TILEMODE
 70
1
  0
ENDSEC
  0
SECTION
  2
TABLES
  0
TABLE
  2
LTYPE
 70
6
  0
LTYPE
  2
BYBLOCK
 70
0
  3

 72
65
 73
0
 40
0.0
  0
LTYPE
  2
BYLAYER
 70
0
  3

 72
65
 73
0
 40
0.0
  0
LTYPE
  2
CONTINUOUS
 70
64
  3
Solid line
 72
65
 73
0
 40
0.0
  0
LTYPE
  2
CENTER
 70
64
  3
____ _ ____ _ ____ _ ____ _ ____ _ ____ _ ____
 72
65
 73
4
 40
0.6
 49
0.375
 49
-0.075
 49
0.075
 49
-0.075
  0
LTYPE
  2
HIDDEN
 70
64
  3
- - - - - - - - - - - - - - - - - - - -
 72
65
 73
2
 40
0.2
 49
0.1
 49
-0.1
  0
LTYPE
  2
PHANTOM
 70
64
  3
_____ _ _ _____ _ _ _____ _ _ _____
 72
65
 73
6
 40
0.8
 49
0.45
 49
-0.05
 49
0.1
 49
-0.05
 49
0.1
 49
-0.05
  0
LTYPE
  2
DOT
 70
64
  3
. . . . . . . . . . . . . . . . . . . .
 72
65
 73
2
 40
0.2
 49
0.1
 49
-0.1
  0
LTYPE
  2
DASHED
 70
64
  3
- - - - - - - - - - - - - - - - - - - -
 72
65
 73
2
 40
0.2
 49
0.1
 49
-0.1
  0
ENDTAB
  0
TABLE
  2
LAYER
 70
36
  0
LAYER
  2
0
 70
0
 62
7
  6
CONTINUOUS
  0
LAYER
  2
DEFAULT_1
 70
0
 62
7
  6
CENTER
  0
LAYER
  2
DEFAULT_2
 70
0
 62
8
  6
HIDDEN
  0
LAYER
  2
DEFAULT_3
 70
0
 62
7
  6
PHANTOM
  0
LAYER
  2
1_AXIS
 70
0
 62
7
  6
CONTINUOUS
  0
LAYER
  2
1_DATUMPLANE
 70
0
 62
7
  6
CONTINUOUS
  0
LAYER
  2
1_DATUM_PLANES
 70
0
 62
7
  6
CONTINUOUS
  0
LAYER
  2
2_FEATURE
 70
0
 62
7
  6
CONTINUOUS
  0
LAYER
  2
4_CURVE
 70
0
 62
7
  6
CONTINUOUS
  0
LAYER
  2
4_QUILT
 70
0
 62
7
  6
CONTINUOUS
  0
LAYER
  2
6_DIM
 70
0
 62
7
  6
CONTINUOUS
  0
LAYER
  2
CSYS
 70
0
 62
7
  6
CONTINUOUS
  0
LAYER
  2
SURFACE
 70
0
 62
7
  6
CONTINUOUS
  0
ENDTAB
  0
TABLE
  2
STYLE
 70
1
  0
STYLE
  2
STANDARD
 70
0
 40
0.0
 41
0.8
 50
0.0
 71
0
 42
0.2
  3
txt
  4

  0
STYLE
  2
TEXTSTYLE_1
 70
0
 40
0.0
 41
0.8
 50
0.0
 71
0
 42
0.2
  3
gdt
  4

  0
STYLE
  2
TEXTSTYLE_2
 70
0
 40
0.0
 41
0.6
 50
0.0
 71
0
 42
0.2
  3
txt
  4

  0
STYLE
  2
TEXTSTYLE_3
 70
0
 40
0.0
 41
1.0
 50
0.0
 71
0
 42
0.2
  3
ftb_____.ttf
  4

  0
STYLE
  2
TEXTSTYLE_4
 70
0
 40
0.0
 41
1.0
 50
0.0
 71
0
 42
0.2
  3
fti_____.ttf
  4

  0
STYLE
  2
TEXTSTYLE_5
 70
0
 40
0.0
 41
1.0
 50
0.0
 71
0
 42
0.2
  3
frutiger light.ttf
  4

  0
STYLE
  2
TEXTSTYLE_6
 70
0
 40
0.0
 41
0.7
 50
0.0
 71
0
 42
0.2
  3
txt
  4

  0
STYLE
  2
TEXTSTYLE_7
 70
0
 40
0.0
 41
0.5
 50
0.0
 71
0
 42
0.2
  3
txt
  4

  0
ENDTAB
  0
ENDSEC
  0
SECTION
  2
BLOCKS
  0
BLOCK
  8
0
 62
2
  6
CONTINUOUS
  2
SYMBOL_8_BL1
 70
64
 10
173.5956734183
 20
35.5937998301
  0
TEXT
  8
0
 62
7
  6
CONTINUOUS
 10
164.6539584268
 20
30.6865562072
  7
TEXTSTYLE_4
 40
1.0655737705
  1
The brand for plastic modular belts and chains
 41
1.0
 72
0
  0
LINE
  8
0
 62
7
  6
CONTINUOUS
 10
149.5737418074
 20
36.1675703219
 11
149.5737418074
 21
34.0364227809
  0
LINE
  8
0
 62
7
  6
CONTINUOUS
 10
149.8628043005
 20
31.0454914852
 11
149.8628043005
 21
31.1422825445
  0
LINE
  8
0
 62
7
  6
CONTINUOUS
 10
149.5737418074
 20
31.1100188581
 11
149.6315543091
 21
30.9164367395
  0
LINE
  8
0
 62
7
  6
CONTINUOUS
 10
150.9671844304
 20
33.9544555678
 11
150.9671844304
 21
36.1675703219
  0
LINE
  8
0
 62
7
  6
CONTINUOUS
 10
151.8862417523
 20
32.1101932727
 11
151.8862417523
 21
30.5937998301
  0
LINE
  8
0
 62
7
  6
CONTINUOUS
 10
152.1753043074
 20
30.5937998301
 11
152.1753043074
 21
31.3358647082
  0
LINE
  8
0
 62
7
  6
CONTINUOUS
 10
152.1753043074
 20
31.4649194539
 11
152.1753043074
 21
32.1101932727
  0
LINE
  8
0
 62
7
  6
CONTINUOUS
 10
149.6315543091
 20
31.3036010218
 11
149.5737418074
 21
31.1100188581
  0
LINE
  8
0
 62
7
  6
CONTINUOUS
 10
149.9784292936
 20
30.8841730531
 11
149.8628043005
 21
31.0454914852
  0
LINE
  8
0
 62
7
  6
CONTINUOUS
 10
151.0768668626
 20
31.400392081
 11
151.1346793074
 21
31.3036010218
  0
LINE
  8
0
 62
7
  6
CONTINUOUS
 10
151.4237418626
 20
31.3036010218
 11
151.3659292523
 21
31.4326557675
  0
LINE
  8
0
 62
7
  6
CONTINUOUS
 10
152.852430332
 20
36.1675703219
 11
152.852430332
 21
34.3642916334
  0
LINE
  8
0
 62
7
  6
CONTINUOUS
 10
152.852430332
 20
33.0528162235
 11
152.852430332
 21
32.3970785186
  0
LINE
  8
0
 62
7
  6
CONTINUOUS
 10
153.2159293074
 20
31.2390736489
 11
153.2159293074
 21
30.5937998301
  0
LINE
  8
0
 62
7
  6
CONTINUOUS
 10
153.5049916972
 20
30.5937998301
 11
153.5049916972
 21
31.2390736489
  0
LINE
  8
0
 62
7
  6
CONTINUOUS
 10
149.8628043005
 20
31.1422825445
 11
149.9206168074
 21
31.2713373354
  0
LINE
  8
0
 62
7
  6
CONTINUOUS
 10
149.6315543091
 20
30.9164367395
 11
149.7471793074
 21
30.7873819712
  0
LINE
  8
0
 62
7
  6
CONTINUOUS
 10
153.1581166972
 20
31.3681283946
 11
153.2159293074
 21
31.2390736489
  0
LINE
  8
0
 62
7
  6
CONTINUOUS
 10
153.9674919177
 20
30.8841730531
 11
154.0253041972
 21
30.7551182848
  0
LINE
  8
0
 62
7
  6
CONTINUOUS
 10
153.5049916972
 20
31.2390736489
 11
153.4471794177
 21
31.400392081
  0
LINE
  8
0
 62
7
  6
CONTINUOUS
 10
153.9674919177
 20
31.4326557675
 11
153.9674919177
 21
31.3681283946
  0
LINE
  8
0
 62
7
  6
CONTINUOUS
 10
153.9674919177
 20
30.9809641124
 11
153.9674919177
 21
30.8841730531
  0
LINE
  8
0
 62
7
  6
CONTINUOUS
 10
154.245872955
 20
32.3970785186
 11
154.245872955
 21
36.1675703219
  0
LINE
  8
0
 62
7
  6
CONTINUOUS
 10
154.2565543074
 20
30.8519093441
 11
154.2565543074
 21
30.9164367395
  0
LINE
  8
0
 62
7
  6
CONTINUOUS
 10
154.5737418074
 20
36.1675703219
 11
154.5737418074
 21
32.3970785186
  0
LINE
  8
0
 62
7
  6
CONTINUOUS
 10
151.3659292523
 20
30.7873819712
 11
151.4237418626
 21
30.9164367395
  0
LINE
  8
0
 62
7
  6
CONTINUOUS
 10
155.759679528
 20
30.6905909007
 11
155.7018665869
 21
30.8519093441
  0
LINE
  8
0
 62
7
  6
CONTINUOUS
 10
155.412804528
 20
31.3681283946
 11
155.412804528
 21
31.2713373354
  0
LINE
  8
0
 62
7
  6
CONTINUOUS
 10
155.412804528
 20
31.1422825445
 11
155.412804528
 21
30.9487004259
  0
LINE
  8
0
 62
7
  6
CONTINUOUS
 10
155.7018665869
 20
30.8519093441
 11
155.7018665869
 21
31.3681283946
  0
LINE
  8
0
 62
7
  6
CONTINUOUS
 10
155.9671844304
 20
32.3970785186
 11
155.9671844304
 21
34.2003572071
  0
LINE
  8
0
 62
7
  6
CONTINUOUS
 10
155.9671844304
 20
35.511832617
 11
155.9671844304
 21
36.1675703219
  0
LINE
  8
0
 62
7
  6
CONTINUOUS
 10
156.279992028
 20
32.1101932727
 11
156.279992028
 21
31.9488748406
  0
LINE
  8
0
 62
7
  6
CONTINUOUS
 10
156.279992028
 20
31.626237886
 11
156.279992028
 21
30.5937998301
  0
LINE
  8
0
 62
7
  6
CONTINUOUS
 10
156.5690540869
 20
30.5937998301
 11
156.5690540869
 21
31.626237886
  0
LINE
  8
0
 62
7
  6
CONTINUOUS
 10
156.5690540869
 20
31.9488748406
 11
156.5690540869
 21
32.1101932727
  0
LINE
  8
0
 62
7
  6
CONTINUOUS
 10
151.1346793074
 20
30.9164367395
 11
151.0768668626
 21
30.8196456577
  0
LINE
  8
0
 62
7
  6
CONTINUOUS
 10
153.4471794177
 20
31.400392081
 11
153.3893668074
 21
31.4649194539
  0
LINE
  8
0
 62
7
  6
CONTINUOUS
 10
154.3143669177
 20
30.7873819712
 11
154.2565543074
 21
30.8519093441
  0
LINE
  8
0
 62
7
  6
CONTINUOUS
 10
155.4706168074
 20
30.6583272086
 11
155.5284290869
 21
30.5937998301
  0
LINE
  8
0
 62
7
  6
CONTINUOUS
 10
155.412804528
 20
30.7551182848
 11
155.4706168074
 21
30.6583272086
  0
LINE
  8
0
 62
7
  6
CONTINUOUS
 10
155.8174918074
 20
30.5937998301
 11
155.759679528
 21
30.6905909007
  0
LINE
  8
0
 62
7
  6
CONTINUOUS
 10
155.7018665869
 20
31.3681283946
 11
155.6440543074
 21
31.4649194539
  0
LINE
  8
0
 62
7
  6
CONTINUOUS
 10
157.0315543074
 20
31.626237886
 11
157.0315543074
 21
30.5937998301
  0
LINE
  8
0
 62
7
  6
CONTINUOUS
 10
157.320617028
 20
30.5937998301
 11
157.320617028
 21
31.3358647082
  0
LINE
  8
0
 62
7
  6
CONTINUOUS
 10
157.320617028
 20
31.4649194539
 11
157.320617028
 21
31.626237886
  0
LINE
  8
0
 62
7
  6
CONTINUOUS
 10
157.852430332
 20
34.6101932727
 11
157.852430332
 21
32.3970785186
  0
LINE
  8
0
 62
7
  6
CONTINUOUS
 10
149.7471793074
 20
31.4326557675
 11
149.6315543091
 21
31.3036010218
  0
LINE
  8
0
 62
7
  6
CONTINUOUS
 10
149.9206168074
 20
31.2713373354
 11
149.9784292936
 21
31.3358647082
  0
LINE
  8
0
 62
7
  6
CONTINUOUS
 10
149.7471793074
 20
30.7873819712
 11
149.8628043005
 21
30.7228545871
  0
LINE
  8
0
 62
7
  6
CONTINUOUS
 10
150.1518667936
 20
30.7873819712
 11
149.9784292936
 21
30.8841730531
  0
LINE
  8
0
 62
7
  6
CONTINUOUS
 10
155.3549915869
 20
31.4326557675
 11
155.412804528
 21
31.3681283946
  0
LINE
  8
0
 62
7
  6
CONTINUOUS
 10
158.3034290869
 20
31.3681283946
 11
158.361242028
 21
31.2068099625
  0
LINE
  8
0
 62
7
  6
CONTINUOUS
 10
158.6503040869
 20
31.2068099625
 11
158.5924918074
 21
31.3681283946
  0
LINE
  8
0
 62
7
  6
CONTINUOUS
 10
158.361242028
 20
31.2068099625
 11
158.361242028
 21
30.5937998301
  0
LINE
  8
0
 62
7
  6
CONTINUOUS
 10
158.6503040869
 20
30.5937998301
 11
158.6503040869
 21
31.2068099625
  0
LINE
  8
0
 62
7
  6
CONTINUOUS
 10
159.1128043074
 20
31.4326557675
 11
159.1128043074
 21
31.3681283946
  0
LINE
  8
0
 62
7
  6
CONTINUOUS
 10
159.245872955
 20
32.3970785186
 11
159.245872955
 21
34.5282260596
  0
LINE
  8
0
 62
7
  6
CONTINUOUS
 10
159.5737418074
 20
36.1675703219
 11
159.5737418074
 21
32.3970785186
  0
LINE
  8
0
 62
7
  6
CONTINUOUS
 10
154.2565543074
 20
30.9164367395
 11
154.3143669177
 21
31.0132277988
  0
LINE
  8
0
 62
7
  6
CONTINUOUS
 10
149.8628043005
 20
30.7228545871
 11
150.0362418212
 21
30.6583272086
  0
LINE
  8
0
 62
7
  6
CONTINUOUS
 10
151.3659292523
 20
31.4326557675
 11
151.1924917523
 21
31.5294468267
  0
LINE
  8
0
 62
7
  6
CONTINUOUS
 10
154.0253041972
 20
30.7551182848
 11
154.1987416972
 21
30.6583272086
  0
LINE
  8
0
 62
7
  6
CONTINUOUS
 10
153.0424918074
 20
31.4326557675
 11
153.1581166972
 21
31.3681283946
  0
LINE
  8
0
 62
7
  6
CONTINUOUS
 10
153.3893668074
 20
31.4649194539
 11
153.2737419177
 21
31.5294468267
  0
LINE
  8
0
 62
7
  6
CONTINUOUS
 10
159.1128043074
 20
30.8519093441
 11
159.228429528
 21
30.7228545871
  0
LINE
  8
0
 62
7
  6
CONTINUOUS
 10
159.4596793074
 20
30.7873819712
 11
159.401867028
 21
30.8519093441
  0
LINE
  8
0
 62
7
  6
CONTINUOUS
 10
159.1128043074
 20
31.3681283946
 11
159.228429528
 21
31.2390736489
  0
LINE
  8
0
 62
7
  6
CONTINUOUS
 10
158.5924918074
 20
31.3681283946
 11
158.534679528
 21
31.4649194539
  0
LINE
  8
0
 62
7
  6
CONTINUOUS
 10
160.9628038663
 20
30.7873819712
 11
160.9628038663
 21
30.8519093441
  0
LINE
  8
0
 62
7
  6
CONTINUOUS
 10
160.9671844304
 20
32.3970785186
 11
160.9671844304
 21
36.1675703219
  0
LINE
  8
0
 62
7
  6
CONTINUOUS
 10
154.0253041972
 20
31.4971831403
 11
153.9674919177
 21
31.4326557675
  0
LINE
  8
0
 62
7
  6
CONTINUOUS
 10
150.9034292799
 20
31.4649194539
 11
151.0768668626
 21
31.400392081
  0
LINE
  8
0
 62
7
  6
CONTINUOUS
 10
155.6440543074
 20
31.4649194539
 11
155.5284290869
 21
31.5294468267
  0
LINE
  8
0
 62
7
  6
CONTINUOUS
 10
159.4596793074
 20
31.3036010218
 11
159.401867028
 21
31.3681283946
  0
LINE
  8
0
 62
7
  6
CONTINUOUS
 10
160.615929528
 20
30.9164367395
 11
160.6737418074
 21
30.8519093441
  0
LINE
  8
0
 62
7
  6
CONTINUOUS
 10
160.9628038663
 20
30.8519093441
 11
160.8471793074
 21
30.9809641124
  0
LINE
  8
0
 62
7
  6
CONTINUOUS
 10
160.615929528
 20
31.4326557675
 11
160.6737418074
 21
31.3681283946
  0
LINE
  8
0
 62
7
  6
CONTINUOUS
 10
160.9628038663
 20
31.3681283946
 11
160.8471793074
 21
31.4971831403
  0
LINE
  8
0
 62
7
  6
CONTINUOUS
 10
154.2565543074
 20
31.3681283946
 11
154.3143669177
 21
31.4326557675
  0
LINE
  8
0
 62
7
  6
CONTINUOUS
 10
154.0831168074
 20
31.1100188581
 11
153.9674919177
 21
30.9809641124
  0
LINE
  8
0
 62
7
  6
CONTINUOUS
 10
155.412804528
 20
30.9487004259
 11
155.3549915869
 21
30.8841730531
  0
LINE
  8
0
 62
7
  6
CONTINUOUS
 10
155.3549915869
 20
30.6905909007
 11
155.412804528
 21
30.7551182848
  0
LINE
  8
0
 62
7
  6
CONTINUOUS
 10
154.1987416972
 20
30.6583272086
 11
154.3143669177
 21
30.6260635193
  0
LINE
  8
0
 62
7
  6
CONTINUOUS
 10
151.1924917523
 20
31.5294468267
 11
150.9612418074
 21
31.5939741996
  0
LINE
  8
0
 62
7
  6
CONTINUOUS
 10
154.5456166972
 20
30.7228545871
 11
154.3143669177
 21
30.7873819712
  0
LINE
  8
0
 62
7
  6
CONTINUOUS
 10
153.2737419177
 20
31.5294468267
 11
153.1003044177
 21
31.5939741996
  0
LINE
  8
0
 62
7
  6
CONTINUOUS
 10
155.5284290869
 20
31.5294468267
 11
155.3549915869
 21
31.5939741996
  0
LINE
  8
0
 62
7
  6
CONTINUOUS
 10
158.187804528
 20
31.4326557675
 11
158.3034290869
 21
31.3681283946
  0
LINE
  8
0
 62
7
  6
CONTINUOUS
 10
158.534679528
 20
31.4649194539
 11
158.4190543074
 21
31.5294468267
  0
LINE
  8
0
 62
7
  6
CONTINUOUS
 10
150.0362418212
 20
30.6583272086
 11
150.2096793212
 21
30.6260635193
  0
LINE
  8
0
 62
7
  6
CONTINUOUS
 10
150.498741835
 20
30.7228545871
 11
150.1518667936
 21
30.7873819712
  0
LINE
  8
0
 62
7
  6
CONTINUOUS
 10
152.9268669177
 20
31.4649194539
 11
153.0424918074
 21
31.4326557675
  0
LINE
  8
0
 62
7
  6
CONTINUOUS
 10
155.239367028
 20
31.4649194539
 11
155.3549915869
 21
31.4326557675
  0
LINE
  8
0
 62
7
  6
CONTINUOUS
 10
159.575304528
 20
30.7551182848
 11
159.4596793074
 21
30.7873819712
  0
LINE
  8
0
 62
7
  6
CONTINUOUS
 10
158.0721793074
 20
31.4649194539
 11
158.187804528
 21
31.4326557675
  0
LINE
  8
0
 62
7
  6
CONTINUOUS
 10
159.228429528
 20
30.7228545871
 11
159.401867028
 21
30.6583272086
  0
LINE
  8
0
 62
7
  6
CONTINUOUS
 10
158.4190543074
 20
31.5294468267
 11
158.2456168074
 21
31.5939741996
  0
LINE
  8
0
 62
7
  6
CONTINUOUS
 10
159.6331168074
 20
31.2390736489
 11
159.4596793074
 21
31.3036010218
  0
LINE
  8
0
 62
7
  6
CONTINUOUS
 10
160.442492028
 20
30.9809641124
 11
160.615929528
 21
30.9164367395
  0
LINE
  8
0
 62
7
  6
CONTINUOUS
 10
160.8471793074
 20
31.4971831403
 11
160.6737418074
 21
31.5617105132
  0
LINE
  8
0
 62
7
  6
CONTINUOUS
 10
159.228429528
 20
31.2390736489
 11
159.4596793074
 21
31.1422825445
  0
LINE
  8
0
 62
7
  6
CONTINUOUS
 10
160.8471793074
 20
30.9809641124
 11
160.615929528
 21
31.0777551716
  0
LINE
  8
0
 62
7
  6
CONTINUOUS
 10
159.401867028
 20
31.3681283946
 11
159.4596793074
 21
31.4326557675
  0
LINE
  8
0
 62
7
  6
CONTINUOUS
 10
149.8628043005
 20
31.4971831403
 11
149.7471793074
 21
31.4326557675
  0
LINE
  8
0
 62
7
  6
CONTINUOUS
 10
149.9784292936
 20
31.3358647082
 11
150.1518667936
 21
31.4326557675
  0
LINE
  8
0
 62
7
  6
CONTINUOUS
 10
152.2909293626
 20
31.5294468267
 11
152.1753043074
 21
31.4649194539
  0
LINE
  8
0
 62
7
  6
CONTINUOUS
 10
152.1753043074
 20
31.3358647082
 11
152.2909293626
 21
31.400392081
  0
LINE
  8
0
 62
7
  6
CONTINUOUS
 10
151.1924917523
 20
30.6905909007
 11
151.3659292523
 21
30.7873819712
  0
LINE
  8
0
 62
7
  6
CONTINUOUS
 10
150.2096793212
 20
30.6260635193
 11
150.5565542799
 21
30.5937998301
  0
LINE
  8
0
 62
7
  6
CONTINUOUS
 10
154.3143669177
 20
30.6260635193
 11
154.5456166972
 21
30.5937998301
  0
LINE
  8
0
 62
7
  6
CONTINUOUS
 10
152.6956168074
 20
31.4971831403
 11
152.9268669177
 21
31.4649194539
  0
LINE
  8
0
 62
7
  6
CONTINUOUS
 10
155.0081169177
 20
31.4971831403
 11
155.239367028
 21
31.4649194539
  0
LINE
  8
0
 62
7
  6
CONTINUOUS
 10
159.4596793074
 20
31.1422825445
 11
160.442492028
 21
30.9809641124
  0
LINE
  8
0
 62
7
  6
CONTINUOUS
 10
160.615929528
 20
31.0777551716
 11
159.6331168074
 21
31.2390736489
  0
LINE
  8
0
 62
7
  6
CONTINUOUS
 10
153.1003044177
 20
31.5939741996
 11
152.9268669177
 21
31.626237886
  0
LINE
  8
0
 62
7
  6
CONTINUOUS
 10
159.401867028
 20
30.6583272086
 11
159.575304528
 21
30.6260635193
  0
LINE
  8
0
 62
7
  6
CONTINUOUS
 10
158.2456168074
 20
31.5939741996
 11
158.0721793074
 21
31.626237886
  0
LINE
  8
0
 62
7
  6
CONTINUOUS
 10
160.5003043074
 20
31.4649194539
 11
160.615929528
 21
31.4326557675
  0
LINE
  8
0
 62
7
  6
CONTINUOUS
 10
160.6737418074
 20
30.8519093441
 11
160.615929528
 21
30.7873819712
  0
LINE
  8
0
 62
7
  6
CONTINUOUS
 10
159.228429528
 20
31.5294468267
 11
159.1128043074
 21
31.4326557675
  0
LINE
  8
0
 62
7
  6
CONTINUOUS
 10
154.1409294177
 20
31.5617105132
 11
154.0253041972
 21
31.4971831403
  0
LINE
  8
0
 62
7
  6
CONTINUOUS
 10
154.1987416972
 20
31.1745462761
 11
154.0831168074
 21
31.1100188581
  0
LINE
  8
0
 62
7
  6
CONTINUOUS
 10
154.3143669177
 20
31.0132277988
 11
154.4299918074
 21
31.0777551716
  0
LINE
  8
0
 62
7
  6
CONTINUOUS
 10
151.8862417523
 20
30.5937998301
 11
152.1753043074
 21
30.5937998301
  0
LINE
  8
0
 62
7
  6
CONTINUOUS
 10
153.2159293074
 20
30.5937998301
 11
153.5049916972
 21
30.5937998301
  0
LINE
  8
0
 62
7
  6
CONTINUOUS
 10
154.5456166972
 20
30.5937998301
 11
154.8924916972
 21
30.5937998301
  0
LINE
  8
0
 62
7
  6
CONTINUOUS
 10
155.5284290869
 20
30.5937998301
 11
155.8174918074
 21
30.5937998301
  0
LINE
  8
0
 62
7
  6
CONTINUOUS
 10
156.279992028
 20
30.5937998301
 11
156.5690540869
 21
30.5937998301
  0
LINE
  8
0
 62
7
  6
CONTINUOUS
 10
157.0315543074
 20
30.5937998301
 11
157.320617028
 21
30.5937998301
  0
LINE
  8
0
 62
7
  6
CONTINUOUS
 10
158.361242028
 20
30.5937998301
 11
158.6503040869
 21
30.5937998301
  0
LINE
  8
0
 62
7
  6
CONTINUOUS
 10
159.922179528
 20
30.5937998301
 11
160.269054528
 21
30.5937998301
  0
LINE
  8
0
 62
7
  6
CONTINUOUS
 10
160.269054528
 20
30.7228545871
 11
159.922179528
 21
30.7228545871
  0
LINE
  8
0
 62
7
  6
CONTINUOUS
 10
154.8924916972
 20
30.7228545871
 11
154.5456166972
 21
30.7228545871
  0
LINE
  8
0
 62
7
  6
CONTINUOUS
 10
159.401867028
 20
30.8519093441
 11
159.1128043074
 21
30.8519093441
  0
LINE
  8
0
 62
7
  6
CONTINUOUS
 10
151.4237418626
 20
30.9164367395
 11
151.1346793074
 21
30.9164367395
  0
LINE
  8
0
 62
7
  6
CONTINUOUS
 10
150.498741835
 20
31.4971831403
 11
150.9034292799
 21
31.4649194539
  0
LINE
  8
0
 62
7
  6
CONTINUOUS
 10
150.9612418074
 20
31.5939741996
 11
150.5565542799
 21
31.626237886
  0
LINE
  8
0
 62
7
  6
CONTINUOUS
 10
159.575304528
 20
30.6260635193
 11
159.922179528
 21
30.5937998301
  0
LINE
  8
0
 62
7
  6
CONTINUOUS
 10
159.922179528
 20
30.7228545871
 11
159.575304528
 21
30.7551182848
  0
LINE
  8
0
 62
7
  6
CONTINUOUS
 10
155.3549915869
 20
31.5939741996
 11
155.0081169177
 21
31.626237886
  0
LINE
  8
0
 62
7
  6
CONTINUOUS
 10
160.1534293074
 20
31.4971831403
 11
160.5003043074
 21
31.4649194539
  0
LINE
  8
0
 62
7
  6
CONTINUOUS
 10
160.5003043074
 20
31.5939741996
 11
160.1534293074
 21
31.626237886
  0
LINE
  8
0
 62
7
  6
CONTINUOUS
 10
157.840929528
 20
31.4971831403
 11
158.0721793074
 21
31.4649194539
  0
LINE
  8
0
 62
7
  6
CONTINUOUS
 10
160.6737418074
 20
31.5617105132
 11
160.5003043074
 21
31.5939741996
  0
LINE
  8
0
 62
7
  6
CONTINUOUS
 10
160.8471793074
 20
30.6905909007
 11
160.9628038663
 21
30.7873819712
  0
LINE
  8
0
 62
7
  6
CONTINUOUS
 10
155.3549915869
 20
30.8841730531
 11
155.1815540869
 21
30.7873819712
  0
LINE
  8
0
 62
7
  6
CONTINUOUS
 10
157.4362415869
 20
31.5294468267
 11
157.320617028
 21
31.4649194539
  0
LINE
  8
0
 62
7
  6
CONTINUOUS
 10
157.320617028
 20
31.3358647082
 11
157.4362415869
 21
31.400392081
  0
LINE
  8
0
 62
7
  6
CONTINUOUS
 10
150.0362418212
 20
31.5617105132
 11
149.8628043005
 21
31.4971831403
  0
LINE
  8
0
 62
7
  6
CONTINUOUS
 10
152.4643666972
 20
31.5939741996
 11
152.2909293626
 21
31.5294468267
  0
LINE
  8
0
 62
7
  6
CONTINUOUS
 10
152.2909293626
 20
31.400392081
 11
152.4643666972
 21
31.4649194539
  0
LINE
  8
0
 62
7
  6
CONTINUOUS
 10
151.0768668626
 20
30.8196456577
 11
150.9034292799
 21
30.7551182848
  0
LINE
  8
0
 62
7
  6
CONTINUOUS
 10
160.5003043074
 20
30.7551182848
 11
160.269054528
 21
30.7228545871
  0
LINE
  8
0
 62
7
  6
CONTINUOUS
 10
154.8924916972
 20
30.5937998301
 11
155.1815540869
 21
30.6260635193
  0
LINE
  8
0
 62
7
  6
CONTINUOUS
 10
160.269054528
 20
30.5937998301
 11
160.615929528
 21
30.6260635193
  0
LINE
  8
0
 62
7
  6
CONTINUOUS
 10
150.5565542799
 20
30.5937998301
 11
150.9612418074
 21
30.6260635193
  0
LINE
  8
0
 62
7
  6
CONTINUOUS
 10
150.9034292799
 20
30.7551182848
 11
150.498741835
 21
30.7228545871
  0
LINE
  8
0
 62
7
  6
CONTINUOUS
 10
154.7768668074
 20
31.1422825445
 11
155.412804528
 21
31.1422825445
  0
LINE
  8
0
 62
7
  6
CONTINUOUS
 10
155.412804528
 20
31.2713373354
 11
154.7768668074
 21
31.2713373354
  0
LINE
  8
0
 62
7
  6
CONTINUOUS
 10
151.1346793074
 20
31.3036010218
 11
151.4237418626
 21
31.3036010218
  0
LINE
  8
0
 62
7
  6
CONTINUOUS
 10
153.9674919177
 20
31.3681283946
 11
154.2565543074
 21
31.3681283946
  0
LINE
  8
0
 62
7
  6
CONTINUOUS
 10
160.6737418074
 20
31.3681283946
 11
160.9628038663
 21
31.3681283946
  0
LINE
  8
0
 62
7
  6
CONTINUOUS
 10
154.6612419177
 20
31.4971831403
 11
155.0081169177
 21
31.4971831403
  0
LINE
  8
0
 62
7
  6
CONTINUOUS
 10
159.8065543074
 20
31.4971831403
 11
160.1534293074
 21
31.4971831403
  0
LINE
  8
0
 62
7
  6
CONTINUOUS
 10
160.1534293074
 20
31.626237886
 11
159.8065543074
 21
31.626237886
  0
LINE
  8
0
 62
7
  6
CONTINUOUS
 10
158.0721793074
 20
31.626237886
 11
157.840929528
 21
31.626237886
  0
LINE
  8
0
 62
7
  6
CONTINUOUS
 10
157.320617028
 20
31.626237886
 11
157.0315543074
 21
31.626237886
  0
LINE
  8
0
 62
7
  6
CONTINUOUS
 10
156.5690540869
 20
31.626237886
 11
156.279992028
 21
31.626237886
  0
LINE
  8
0
 62
7
  6
CONTINUOUS
 10
155.0081169177
 20
31.626237886
 11
154.6612419177
 21
31.626237886
  0
LINE
  8
0
 62
7
  6
CONTINUOUS
 10
152.9268669177
 20
31.626237886
 11
152.6956168074
 21
31.626237886
  0
LINE
  8
0
 62
7
  6
CONTINUOUS
 10
156.279992028
 20
31.9488748406
 11
156.5690540869
 21
31.9488748406
  0
LINE
  8
0
 62
7
  6
CONTINUOUS
 10
156.5690540869
 20
32.1101932727
 11
156.279992028
 21
32.1101932727
  0
LINE
  8
0
 62
7
  6
CONTINUOUS
 10
152.1753043074
 20
32.1101932727
 11
151.8862417523
 21
32.1101932727
  0
LINE
  8
0
 62
7
  6
CONTINUOUS
 10
151.2130860697
 20
32.3970785186
 11
151.6256574183
 21
32.3970785186
  0
LINE
  8
0
 62
7
  6
CONTINUOUS
 10
152.852430332
 20
32.3970785186
 11
154.245872955
 21
32.3970785186
  0
LINE
  8
0
 62
7
  6
CONTINUOUS
 10
154.5737418074
 20
32.3970785186
 11
155.9671844304
 21
32.3970785186
  0
LINE
  8
0
 62
7
  6
CONTINUOUS
 10
157.852430332
 20
32.3970785186
 11
159.245872955
 21
32.3970785186
  0
LINE
  8
0
 62
7
  6
CONTINUOUS
 10
159.5737418074
 20
32.3970785186
 11
160.9671844304
 21
32.3970785186
  0
LINE
  8
0
 62
7
  6
CONTINUOUS
 10
157.6096790869
 20
31.5939741996
 11
157.4362415869
 21
31.5294468267
  0
LINE
  8
0
 62
7
  6
CONTINUOUS
 10
155.1815540869
 20
30.6260635193
 11
155.3549915869
 21
30.6905909007
  0
LINE
  8
0
 62
7
  6
CONTINUOUS
 10
160.615929528
 20
30.6260635193
 11
160.8471793074
 21
30.6905909007
  0
LINE
  8
0
 62
7
  6
CONTINUOUS
 10
160.615929528
 20
30.7873819712
 11
160.5003043074
 21
30.7551182848
  0
LINE
  8
0
 62
7
  6
CONTINUOUS
 10
159.575304528
 20
31.4649194539
 11
159.8065543074
 21
31.4971831403
  0
LINE
  8
0
 62
7
  6
CONTINUOUS
 10
157.6096790869
 20
31.4649194539
 11
157.840929528
 21
31.4971831403
  0
LINE
  8
0
 62
7
  6
CONTINUOUS
 10
154.5456166972
 20
31.1100188581
 11
154.7768668074
 21
31.1422825445
  0
LINE
  8
0
 62
7
  6
CONTINUOUS
 10
157.840929528
 20
31.626237886
 11
157.6096790869
 21
31.5939741996
  0
LINE
  8
0
 62
7
  6
CONTINUOUS
 10
154.4299918074
 20
31.4649194539
 11
154.6612419177
 21
31.4971831403
  0
LINE
  8
0
 62
7
  6
CONTINUOUS
 10
159.8065543074
 20
31.626237886
 11
159.4596793074
 21
31.5939741996
  0
LINE
  8
0
 62
7
  6
CONTINUOUS
 10
154.7768668074
 20
31.2713373354
 11
154.4299918074
 21
31.2390736489
  0
LINE
  8
0
 62
7
  6
CONTINUOUS
 10
150.5565542799
 20
31.626237886
 11
150.2096793212
 21
31.5939741996
  0
LINE
  8
0
 62
7
  6
CONTINUOUS
 10
154.6612419177
 20
31.626237886
 11
154.2565543074
 21
31.5939741996
  0
LINE
  8
0
 62
7
  6
CONTINUOUS
 10
152.0327582009
 20
33.5446195022
 11
151.3770204959
 21
33.5446195022
  0
LINE
  8
0
 62
7
  6
CONTINUOUS
 10
157.4362415869
 20
31.400392081
 11
157.6096790869
 21
31.4649194539
  0
LINE
  8
0
 62
7
  6
CONTINUOUS
 10
159.4596793074
 20
31.4326557675
 11
159.575304528
 21
31.4649194539
  0
LINE
  8
0
 62
7
  6
CONTINUOUS
 10
159.4596793074
 20
31.5939741996
 11
159.228429528
 21
31.5294468267
  0
LINE
  8
0
 62
7
  6
CONTINUOUS
 10
155.1815540869
 20
30.7873819712
 11
154.8924916972
 21
30.7228545871
  0
LINE
  8
0
 62
7
  6
CONTINUOUS
 10
152.4643666972
 20
31.4649194539
 11
152.6956168074
 21
31.4971831403
  0
LINE
  8
0
 62
7
  6
CONTINUOUS
 10
152.6956168074
 20
31.626237886
 11
152.4643666972
 21
31.5939741996
  0
LINE
  8
0
 62
7
  6
CONTINUOUS
 10
150.2674918074
 20
31.4649194539
 11
150.498741835
 21
31.4971831403
  0
LINE
  8
0
 62
7
  6
CONTINUOUS
 10
156.7868565615
 20
35.0200293383
 11
157.4425942664
 21
35.0200293383
  0
LINE
  8
0
 62
7
  6
CONTINUOUS
 10
154.4299918074
 20
31.0777551716
 11
154.5456166972
 21
31.1100188581
  0
LINE
  8
0
 62
7
  6
CONTINUOUS
 10
154.4299918074
 20
31.2390736489
 11
154.1987416972
 21
31.1745462761
  0
LINE
  8
0
 62
7
  6
CONTINUOUS
 10
154.3143669177
 20
31.4326557675
 11
154.4299918074
 21
31.4649194539
  0
LINE
  8
0
 62
7
  6
CONTINUOUS
 10
150.9612418074
 20
30.6260635193
 11
151.1924917523
 21
30.6905909007
  0
LINE
  8
0
 62
7
  6
CONTINUOUS
 10
154.2565543074
 20
31.5939741996
 11
154.1409294177
 21
31.5617105132
  0
LINE
  8
0
 62
7
  6
CONTINUOUS
 10
150.2096793212
 20
31.5939741996
 11
150.0362418212
 21
31.5617105132
  0
LINE
  8
0
 62
7
  6
CONTINUOUS
 10
160.9671844304
 20
36.1675703219
 11
159.5737418074
 21
36.1675703219
  0
LINE
  8
0
 62
7
  6
CONTINUOUS
 10
157.6065286927
 20
36.1675703219
 11
157.1939573441
 21
36.1675703219
  0
LINE
  8
0
 62
7
  6
CONTINUOUS
 10
155.9671844304
 20
36.1675703219
 11
154.5737418074
 21
36.1675703219
  0
LINE
  8
0
 62
7
  6
CONTINUOUS
 10
154.245872955
 20
36.1675703219
 11
152.852430332
 21
36.1675703219
  0
LINE
  8
0
 62
7
  6
CONTINUOUS
 10
150.9671844304
 20
36.1675703219
 11
149.5737418074
 21
36.1675703219
  0
LINE
  8
0
 62
7
  6
CONTINUOUS
 10
150.1518667936
 20
31.4326557675
 11
150.2674918074
 21
31.4649194539
  0
CIRCLE
  8
0
 62
7
  6
CONTINUOUS
 10
160.2704631189
 20
38.5036358957
 40
2.0901639344
  0
ARC
  8
0
 62
7
  6
CONTINUOUS
 10
151.2130860697
 20
34.0364227809
 40
1.6393442623
 50
180.0
 51
270.0
  0
ARC
  8
0
 62
7
  6
CONTINUOUS
 10
157.6065286927
 20
34.5282260596
 40
1.6393442623
 50
0.0
 51
90.0
  0
ARC
  8
0
 62
7
  6
CONTINUOUS
 10
151.6256574183
 20
33.8724883547
 40
1.4754098361
 50
270.0
 51
326.2510114041
  0
ARC
  8
0
 62
7
  6
CONTINUOUS
 10
157.1939573441
 20
34.6921604858
 40
1.4754098361
 50
90.0
 51
146.2510114041
  0
ARC
  8
0
 62
7
  6
CONTINUOUS
 10
152.0327582009
 20
34.3642916334
 40
0.8196721311
 50
270.0
 51
360.0
  0
ARC
  8
0
 62
7
  6
CONTINUOUS
 10
156.7868565615
 20
34.2003572071
 40
0.8196721311
 50
90.0
 51
180.0
  0
ARC
  8
0
 62
7
  6
CONTINUOUS
 10
151.3770204959
 20
33.9544555678
 40
0.4098360656
 50
180.0
 51
270.0
  0
ARC
  8
0
 62
7
  6
CONTINUOUS
 10
157.4425942664
 20
34.6101932727
 40
0.4098360656
 50
0.0
 51
90.0
  0
SOLID
  8
0
 62
7
  6
CONTINUOUS
 10
156.279992028
 20
31.9488752009
 11
156.279992028
 21
32.1101936845
 12
156.5690540869
 22
31.9488752009
 13
156.5690540869
 23
32.1101936845
  0
SOLID
  8
0
 62
7
  6
CONTINUOUS
 10
150.5565542799
 20
31.6262382337
 11
150.9612418074
 21
31.5939740028
 12
150.2096793212
 22
31.5939740028
 13
150.2096793212
 23
31.5939740028
  0
SOLID
  8
0
 62
7
  6
CONTINUOUS
 10
150.0362418212
 20
31.5617111435
 11
150.2096793212
 21
31.5939740028
 12
150.9612418074
 22
31.5939740028
 13
150.9612418074
 23
31.5939740028
  0
SOLID
  8
0
 62
7
  6
CONTINUOUS
 10
150.9612418074
 20
31.5939740028
 11
151.1924917523
 21
31.5294468402
 12
150.0362418212
 22
31.5617111435
 13
150.0362418212
 23
31.5617111435
  0
SOLID
  8
0
 62
7
  6
CONTINUOUS
 10
149.8628043005
 20
31.49718259
 11
150.0362418212
 21
31.5617111435
 12
151.1924917523
 22
31.5294468402
 13
151.1924917523
 23
31.5294468402
  0
SOLID
  8
0
 62
7
  6
CONTINUOUS
 10
149.8628043005
 20
31.49718259
 11
151.1924917523
 21
31.5294468402
 12
150.498741835
 22
31.49718259
 13
150.498741835
 23
31.49718259
  0
SOLID
  8
0
 62
7
  6
CONTINUOUS
 10
150.498741835
 20
31.49718259
 11
151.1924917523
 21
31.5294468402
 12
150.9034292799
 22
31.4649197501
 13
150.9034292799
 23
31.4649197501
  0
SOLID
  8
0
 62
7
  6
CONTINUOUS
 10
151.1924917523
 20
31.5294468402
 11
151.3659292523
 21
31.4326554468
 12
150.9034292799
 22
31.4649197501
 13
150.9034292799
 23
31.4649197501
  0
SOLID
  8
0
 62
7
  6
CONTINUOUS
 10
151.0768668626
 20
31.4003926599
 11
150.9034292799
 21
31.4649197501
 12
151.3659292523
 22
31.4326554468
 13
151.3659292523
 23
31.4326554468
  0
SOLID
  8
0
 62
7
  6
CONTINUOUS
 10
151.0768668626
 20
31.4003926599
 11
151.3659292523
 21
31.4326554468
 12
151.1346793074
 22
31.3036013776
 13
151.1346793074
 23
31.3036013776
  0
SOLID
  8
0
 62
7
  6
CONTINUOUS
 10
151.3659292523
 20
31.4326554468
 11
151.4237418626
 21
31.3036013776
 12
151.1346793074
 22
31.3036013776
 13
151.1346793074
 23
31.3036013776
  0
SOLID
  8
0
 62
7
  6
CONTINUOUS
 10
152.4643666972
 20
31.5939739754
 11
152.6956168074
 21
31.6262382787
 12
152.9268669177
 22
31.6262382787
 13
152.9268669177
 23
31.6262382787
  0
SOLID
  8
0
 62
7
  6
CONTINUOUS
 10
152.9268669177
 20
31.6262382787
 11
153.1003044177
 21
31.5939739754
 12
152.4643666972
 22
31.5939739754
 13
152.4643666972
 23
31.5939739754
  0
SOLID
  8
0
 62
7
  6
CONTINUOUS
 10
152.2909293626
 20
31.5294468852
 11
152.4643666972
 21
31.5939739754
 12
153.1003044177
 22
31.5939739754
 13
153.1003044177
 23
31.5939739754
  0
SOLID
  8
0
 62
7
  6
CONTINUOUS
 10
153.1003044177
 20
31.5939739754
 11
153.2737419177
 21
31.5294468852
 12
152.2909293626
 22
31.5294468852
 13
152.2909293626
 23
31.5294468852
  0
SOLID
  8
0
 62
7
  6
CONTINUOUS
 10
153.2737419177
 20
31.5294468852
 11
152.6956168074
 21
31.4971825369
 12
152.2909293626
 22
31.5294468852
 13
152.2909293626
 23
31.5294468852
  0
SOLID
  8
0
 62
7
  6
CONTINUOUS
 10
152.1753043074
 20
31.4649197951
 11
152.2909293626
 21
31.5294468852
 12
152.6956168074
 22
31.4971825369
 13
152.6956168074
 23
31.4971825369
  0
SOLID
  8
0
 62
7
  6
CONTINUOUS
 10
152.6956168074
 20
31.4971825369
 11
152.4643666972
 21
31.4649197951
 12
152.1753043074
 22
31.4649197951
 13
152.1753043074
 23
31.4649197951
  0
SOLID
  8
0
 62
7
  6
CONTINUOUS
 10
152.6956168074
 20
31.4971825369
 11
153.2737419177
 21
31.5294468852
 12
152.9268669177
 22
31.4649197951
 13
152.9268669177
 23
31.4649197951
  0
SOLID
  8
0
 62
7
  6
CONTINUOUS
 10
153.2737419177
 20
31.5294468852
 11
153.3893668074
 21
31.4649197951
 12
152.9268669177
 22
31.4649197951
 13
152.9268669177
 23
31.4649197951
  0
SOLID
  8
0
 62
7
  6
CONTINUOUS
 10
153.0424918074
 20
31.4326554468
 11
152.9268669177
 21
31.4649197951
 12
153.3893668074
 22
31.4649197951
 13
153.3893668074
 23
31.4649197951
  0
SOLID
  8
0
 62
7
  6
CONTINUOUS
 10
153.3893668074
 20
31.4649197951
 11
153.4471794177
 21
31.4003927049
 12
153.0424918074
 22
31.4326554468
 13
153.0424918074
 23
31.4326554468
  0
SOLID
  8
0
 62
7
  6
CONTINUOUS
 10
153.1581166972
 20
31.3681283566
 11
153.0424918074
 21
31.4326554468
 12
153.4471794177
 22
31.4003927049
 13
153.4471794177
 23
31.4003927049
  0
SOLID
  8
0
 62
7
  6
CONTINUOUS
 10
153.1581166972
 20
31.3681283566
 11
153.4471794177
 21
31.4003927049
 12
153.2159293074
 22
31.2390742213
 13
153.2159293074
 23
31.2390742213
  0
SOLID
  8
0
 62
7
  6
CONTINUOUS
 10
153.4471794177
 20
31.4003927049
 11
153.5049916972
 21
31.2390742213
 12
153.2159293074
 22
31.2390742213
 13
153.2159293074
 23
31.2390742213
  0
SOLID
  8
0
 62
7
  6
CONTINUOUS
 10
152.4643666972
 20
31.4649197951
 11
152.2909293626
 21
31.4003927049
 12
152.1753043074
 22
31.4649197951
 13
152.1753043074
 23
31.4649197951
  0
SOLID
  8
0
 62
7
  6
CONTINUOUS
 10
152.2909293626
 20
31.4003927049
 11
152.1753043074
 21
31.3358640533
 12
152.1753043074
 22
31.4649197951
 13
152.1753043074
 23
31.4649197951
  0
SOLID
  8
0
 62
7
  6
CONTINUOUS
 10
152.1753043074
 20
31.3358640533
 11
151.8862417523
 21
30.5938002869
 12
152.1753043074
 22
31.4649197951
 13
152.1753043074
 23
31.4649197951
  0
SOLID
  8
0
 62
7
  6
CONTINUOUS
 10
152.1753043074
 20
31.4649197951
 11
151.8862417523
 21
30.5938002869
 12
152.1753043074
 22
32.1101937295
 13
152.1753043074
 23
32.1101937295
  0
SOLID
  8
0
 62
7
  6
CONTINUOUS
 10
151.8862417523
 20
30.5938002869
 11
151.8862417523
 21
32.1101937295
 12
152.1753043074
 22
32.1101937295
 13
152.1753043074
 23
32.1101937295
  0
SOLID
  8
0
 62
7
  6
CONTINUOUS
 10
152.1753043074
 20
31.3358640533
 11
152.1753043074
 21
30.5938002869
 12
151.8862417523
 22
30.5938002869
 13
151.8862417523
 23
30.5938002869
  0
SOLID
  8
0
 62
7
  6
CONTINUOUS
 10
153.2159293074
 20
30.5938002869
 11
153.2159293074
 21
31.2390742213
 12
153.5049916972
 22
31.2390742213
 13
153.5049916972
 23
31.2390742213
  0
SOLID
  8
0
 62
7
  6
CONTINUOUS
 10
153.5049916972
 20
31.2390742213
 11
153.5049916972
 21
30.5938002869
 12
153.2159293074
 22
30.5938002869
 13
153.2159293074
 23
30.5938002869
  0
SOLID
  8
0
 62
7
  6
CONTINUOUS
 10
154.2565543074
 20
31.5939738288
 11
154.6612419177
 21
31.6262385959
 12
155.0081169177
 22
31.6262385959
 13
155.0081169177
 23
31.6262385959
  0
SOLID
  8
0
 62
7
  6
CONTINUOUS
 10
155.0081169177
 20
31.6262385959
 11
155.3549915869
 21
31.5939738288
 12
154.2565543074
 22
31.5939738288
 13
154.2565543074
 23
31.5939738288
  0
SOLID
  8
0
 62
7
  6
CONTINUOUS
 10
154.1409294177
 20
31.5617111435
 11
154.2565543074
 21
31.5939738288
 12
155.3549915869
 22
31.5939738288
 13
155.3549915869
 23
31.5939738288
  0
SOLID
  8
0
 62
7
  6
CONTINUOUS
 10
155.3549915869
 20
31.5939738288
 11
155.5284290869
 21
31.5294468402
 12
154.1409294177
 22
31.5617111435
 13
154.1409294177
 23
31.5617111435
  0
SOLID
  8
0
 62
7
  6
CONTINUOUS
 10
154.0253041972
 20
31.4971826249
 11
154.1409294177
 21
31.5617111435
 12
155.5284290869
 22
31.5294468402
 13
155.5284290869
 23
31.5294468402
  0
SOLID
  8
0
 62
7
  6
CONTINUOUS
 10
154.0253041972
 20
31.4971826249
 11
155.5284290869
 21
31.5294468402
 12
154.6612419177
 22
31.4971826249
 13
154.6612419177
 23
31.4971826249
  0
SOLID
  8
0
 62
7
  6
CONTINUOUS
 10
154.6612419177
 20
31.4971826249
 11
155.5284290869
 21
31.5294468402
 12
155.0081169177
 22
31.4971826249
 13
155.0081169177
 23
31.4971826249
  0
SOLID
  8
0
 62
7
  6
CONTINUOUS
 10
155.0081169177
 20
31.4971826249
 11
155.5284290869
 21
31.5294468402
 12
155.239367028
 22
31.4649194065
 13
155.239367028
 23
31.4649194065
  0
SOLID
  8
0
 62
7
  6
CONTINUOUS
 10
155.5284290869
 20
31.5294468402
 11
155.6440543074
 21
31.4649194065
 12
155.239367028
 22
31.4649194065
 13
155.239367028
 23
31.4649194065
  0
SOLID
  8
0
 62
7
  6
CONTINUOUS
 10
153.9674919177
 20
31.4326554138
 11
154.0253041972
 21
31.4971826249
 12
154.6612419177
 22
31.4971826249
 13
154.6612419177
 23
31.4971826249
  0
SOLID
  8
0
 62
7
  6
CONTINUOUS
 10
155.3549915869
 20
31.4326554138
 11
155.239367028
 21
31.4649194065
 12
155.6440543074
 22
31.4649194065
 13
155.6440543074
 23
31.4649194065
  0
SOLID
  8
0
 62
7
  6
CONTINUOUS
 10
155.3549915869
 20
31.4326554138
 11
155.6440543074
 21
31.4649194065
 12
155.412804528
 22
31.3681282026
 13
155.412804528
 23
31.3681282026
  0
SOLID
  8
0
 62
7
  6
CONTINUOUS
 10
155.6440543074
 20
31.4649194065
 11
155.7018665869
 21
31.3681282026
 12
155.412804528
 22
31.3681282026
 13
155.412804528
 23
31.3681282026
  0
SOLID
  8
0
 62
7
  6
CONTINUOUS
 10
155.412804528
 20
31.2713369632
 11
155.412804528
 21
31.3681282026
 12
155.7018665869
 22
31.3681282026
 13
155.7018665869
 23
31.3681282026
  0
SOLID
  8
0
 62
7
  6
CONTINUOUS
 10
155.412804528
 20
31.2713369632
 11
155.7018665869
 21
31.3681282026
 12
155.412804528
 22
31.1422827828
 13
155.412804528
 23
31.1422827828
  0
SOLID
  8
0
 62
7
  6
CONTINUOUS
 10
155.412804528
 20
31.1422827828
 11
155.7018665869
 21
31.3681282026
 12
155.412804528
 22
30.9487004259
 13
155.412804528
 23
30.9487004259
  0
SOLID
  8
0
 62
7
  6
CONTINUOUS
 10
155.7018665869
 20
31.3681282026
 11
155.7018665869
 21
30.8519086025
 12
155.412804528
 22
30.9487004259
 13
155.412804528
 23
30.9487004259
  0
SOLID
  8
0
 62
7
  6
CONTINUOUS
 10
157.6096790869
 20
31.5939736268
 11
157.840929528
 21
31.6262383465
 12
158.0721793074
 22
31.6262383465
 13
158.0721793074
 23
31.6262383465
  0
SOLID
  8
0
 62
7
  6
CONTINUOUS
 10
158.0721793074
 20
31.6262383465
 11
158.2456168074
 21
31.5939736268
 12
157.6096790869
 22
31.5939736268
 13
157.6096790869
 23
31.5939736268
  0
SOLID
  8
0
 62
7
  6
CONTINUOUS
 10
157.4362415869
 20
31.5294472848
 11
157.6096790869
 21
31.5939736268
 12
158.2456168074
 22
31.5939736268
 13
158.2456168074
 23
31.5939736268
  0
SOLID
  8
0
 62
7
  6
CONTINUOUS
 10
158.2456168074
 20
31.5939736268
 11
158.4190543074
 21
31.5294472848
 12
157.4362415869
 22
31.5294472848
 13
157.4362415869
 23
31.5294472848
  0
SOLID
  8
0
 62
7
  6
CONTINUOUS
 10
158.4190543074
 20
31.5294472848
 11
157.840929528
 21
31.4971825369
 12
157.4362415869
 22
31.5294472848
 13
157.4362415869
 23
31.5294472848
  0
SOLID
  8
0
 62
7
  6
CONTINUOUS
 10
157.320617028
 20
31.4649199103
 11
157.4362415869
 21
31.5294472848
 12
157.840929528
 22
31.4971825369
 13
157.840929528
 23
31.4971825369
  0
SOLID
  8
0
 62
7
  6
CONTINUOUS
 10
157.840929528
 20
31.4971825369
 11
157.6096790869
 21
31.4649199103
 12
157.320617028
 22
31.4649199103
 13
157.320617028
 23
31.4649199103
  0
SOLID
  8
0
 62
7
  6
CONTINUOUS
 10
157.840929528
 20
31.4971825369
 11
158.4190543074
 21
31.5294472848
 12
158.0721793074
 22
31.4649199103
 13
158.0721793074
 23
31.4649199103
  0
SOLID
  8
0
 62
7
  6
CONTINUOUS
 10
158.4190543074
 20
31.5294472848
 11
158.534679528
 21
31.4649199103
 12
158.0721793074
 22
31.4649199103
 13
158.0721793074
 23
31.4649199103
  0
SOLID
  8
0
 62
7
  6
CONTINUOUS
 10
158.187804528
 20
31.4326554468
 11
158.0721793074
 21
31.4649199103
 12
158.534679528
 22
31.4649199103
 13
158.534679528
 23
31.4649199103
  0
SOLID
  8
0
 62
7
  6
CONTINUOUS
 10
158.187804528
 20
31.4326554468
 11
158.534679528
 21
31.4649199103
 12
158.3034290869
 22
31.3681288486
 13
158.3034290869
 23
31.3681288486
  0
SOLID
  8
0
 62
7
  6
CONTINUOUS
 10
158.534679528
 20
31.4649199103
 11
158.5924918074
 21
31.3681288486
 12
158.3034290869
 22
31.3681288486
 13
158.3034290869
 23
31.3681288486
  0
SOLID
  8
0
 62
7
  6
CONTINUOUS
 10
158.361242028
 20
31.2068093799
 11
158.3034290869
 21
31.3681288486
 12
158.5924918074
 22
31.3681288486
 13
158.5924918074
 23
31.3681288486
  0
SOLID
  8
0
 62
7
  6
CONTINUOUS
 10
158.5924918074
 20
31.3681288486
 11
158.6503040869
 21
31.2068093799
 12
158.361242028
 22
31.2068093799
 13
158.361242028
 23
31.2068093799
  0
SOLID
  8
0
 62
7
  6
CONTINUOUS
 10
157.6096790869
 20
31.4649199103
 11
157.4362415869
 21
31.4003926599
 12
157.320617028
 22
31.4649199103
 13
157.320617028
 23
31.4649199103
  0
SOLID
  8
0
 62
7
  6
CONTINUOUS
 10
157.4362415869
 20
31.4003926599
 11
157.320617028
 21
31.3358640533
 12
157.320617028
 22
31.4649199103
 13
157.320617028
 23
31.4649199103
  0
SOLID
  8
0
 62
7
  6
CONTINUOUS
 10
157.320617028
 20
31.3358640533
 11
157.0315543074
 21
30.5938003547
 12
157.320617028
 22
31.4649199103
 13
157.320617028
 23
31.4649199103
  0
SOLID
  8
0
 62
7
  6
CONTINUOUS
 10
157.320617028
 20
31.4649199103
 11
157.0315543074
 21
30.5938003547
 12
157.320617028
 22
31.6262383465
 13
157.320617028
 23
31.6262383465
  0
SOLID
  8
0
 62
7
  6
CONTINUOUS
 10
157.0315543074
 20
30.5938003547
 11
157.0315543074
 21
31.6262383465
 12
157.320617028
 22
31.6262383465
 13
157.320617028
 23
31.6262383465
  0
SOLID
  8
0
 62
7
  6
CONTINUOUS
 10
157.320617028
 20
31.3358640533
 11
157.320617028
 21
30.5938003547
 12
157.0315543074
 22
30.5938003547
 13
157.0315543074
 23
30.5938003547
  0
SOLID
  8
0
 62
7
  6
CONTINUOUS
 10
158.361242028
 20
30.5938003547
 11
158.361242028
 21
31.2068093799
 12
158.6503040869
 22
31.2068093799
 13
158.6503040869
 23
31.2068093799
  0
SOLID
  8
0
 62
7
  6
CONTINUOUS
 10
158.6503040869
 20
31.2068093799
 11
158.6503040869
 21
30.5938003547
 12
158.361242028
 22
30.5938003547
 13
158.361242028
 23
30.5938003547
  0
SOLID
  8
0
 62
7
  6
CONTINUOUS
 10
159.4596793074
 20
31.5939739474
 11
159.8065543074
 21
31.6262381969
 12
160.1534293074
 22
31.6262381969
 13
160.1534293074
 23
31.6262381969
  0
SOLID
  8
0
 62
7
  6
CONTINUOUS
 10
160.1534293074
 20
31.6262381969
 11
160.5003043074
 21
31.5939739474
 12
159.4596793074
 22
31.5939739474
 13
159.4596793074
 23
31.5939739474
  0
SOLID
  8
0
 62
7
  6
CONTINUOUS
 10
159.228429528
 20
31.5294468402
 11
159.4596793074
 21
31.5939739474
 12
160.5003043074
 22
31.5939739474
 13
160.5003043074
 23
31.5939739474
  0
SOLID
  8
0
 62
7
  6
CONTINUOUS
 10
159.228429528
 20
31.5294468402
 11
160.5003043074
 21
31.5939739304
 12
160.6737418074
 22
31.5617111435
 13
160.6737418074
 23
31.5617111435
  0
SOLID
  8
0
 62
7
  6
CONTINUOUS
 10
159.228429528
 20
31.5294468402
 11
160.6737418074
 21
31.5617111435
 12
159.8065543074
 22
31.4971825592
 13
159.8065543074
 23
31.4971825592
  0
SOLID
  8
0
 62
7
  6
CONTINUOUS
 10
159.8065543074
 20
31.4971825592
 11
160.6737418074
 21
31.5617111435
 12
160.1534293074
 22
31.4971825592
 13
160.1534293074
 23
31.4971825592
  0
SOLID
  8
0
 62
7
  6
CONTINUOUS
 10
160.6737418074
 20
31.5617111435
 11
160.8471793074
 21
31.4971825592
 12
160.1534293074
 22
31.4971825592
 13
160.1534293074
 23
31.4971825592
  0
SOLID
  8
0
 62
7
  6
CONTINUOUS
 10
160.5003043074
 20
31.4649197501
 11
160.1534293074
 21
31.4971825592
 12
160.8471793074
 22
31.4971825592
 13
160.8471793074
 23
31.4971825592
  0
SOLID
  8
0
 62
7
  6
CONTINUOUS
 10
159.1128043074
 20
31.4326555427
 11
159.228429528
 21
31.5294468402
 12
159.8065543074
 22
31.4971825592
 13
159.8065543074
 23
31.4971825592
  0
SOLID
  8
0
 62
7
  6
CONTINUOUS
 10
160.5003043074
 20
31.4649197501
 11
160.8471793074
 21
31.4971825592
 12
160.615929528
 22
31.4326555427
 13
160.615929528
 23
31.4326555427
  0
SOLID
  8
0
 62
7
  6
CONTINUOUS
 10
160.615929528
 20
31.4326555427
 11
160.8471793074
 21
31.4971825592
 12
160.6737418074
 22
31.3681283005
 13
160.6737418074
 23
31.3681283005
  0
SOLID
  8
0
 62
7
  6
CONTINUOUS
 10
160.8471793074
 20
31.4971825592
 11
160.9628038663
 21
31.3681283005
 12
160.6737418074
 22
31.3681283005
 13
160.6737418074
 23
31.3681283005
  0
SOLID
  8
0
 62
7
  6
CONTINUOUS
 10
150.2674918074
 20
31.4649197501
 11
149.7471793074
 21
31.4326554237
 12
150.498741835
 22
31.4971824493
 13
150.498741835
 23
31.4971824493
  0
SOLID
  8
0
 62
7
  6
CONTINUOUS
 10
149.7471793074
 20
31.4326554237
 11
149.8628043005
 21
31.4971824493
 12
150.498741835
 22
31.4971824493
 13
150.498741835
 23
31.4971824493
  0
SOLID
  8
0
 62
7
  6
CONTINUOUS
 10
150.2674918074
 20
31.4649197501
 11
150.1518667936
 21
31.4326554237
 12
149.7471793074
 22
31.4326554237
 13
149.7471793074
 23
31.4326554237
  0
SOLID
  8
0
 62
7
  6
CONTINUOUS
 10
149.6315543091
 20
31.3036012664
 11
149.7471793074
 21
31.4326554237
 12
150.1518667936
 22
31.4326554237
 13
150.1518667936
 23
31.4326554237
  0
SOLID
  8
0
 62
7
  6
CONTINUOUS
 10
153.9674919177
 20
31.4326554237
 11
154.6612419177
 21
31.4971825369
 12
154.4299918074
 22
31.4649197501
 13
154.4299918074
 23
31.4649197501
  0
SOLID
  8
0
 62
7
  6
CONTINUOUS
 10
154.4299918074
 20
31.4649197501
 11
154.3143669177
 21
31.4326554237
 12
153.9674919177
 22
31.4326554237
 13
153.9674919177
 23
31.4326554237
  0
SOLID
  8
0
 62
7
  6
CONTINUOUS
 10
153.9674919177
 20
31.3681283335
 11
153.9674919177
 21
31.4326554237
 12
154.3143669177
 22
31.4326554237
 13
154.3143669177
 23
31.4326554237
  0
SOLID
  8
0
 62
7
  6
CONTINUOUS
 10
154.3143669177
 20
31.4326554237
 11
154.2565543074
 21
31.3681283335
 12
153.9674919177
 22
31.3681283335
 13
153.9674919177
 23
31.3681283335
  0
SOLID
  8
0
 62
7
  6
CONTINUOUS
 10
159.1128043074
 20
31.4326555528
 11
159.8065543074
 21
31.4971825369
 12
159.575304528
 22
31.4649197501
 13
159.575304528
 23
31.4649197501
  0
SOLID
  8
0
 62
7
  6
CONTINUOUS
 10
159.575304528
 20
31.4649197501
 11
159.4596793074
 21
31.4326555528
 12
159.1128043074
 22
31.4326555528
 13
159.1128043074
 23
31.4326555528
  0
SOLID
  8
0
 62
7
  6
CONTINUOUS
 10
159.1128043074
 20
31.3681284626
 11
159.1128043074
 21
31.4326555528
 12
159.4596793074
 22
31.4326555528
 13
159.4596793074
 23
31.4326555528
  0
SOLID
  8
0
 62
7
  6
CONTINUOUS
 10
159.4596793074
 20
31.4326555528
 11
159.401867028
 21
31.3681284626
 12
159.1128043074
 22
31.3681284626
 13
159.1128043074
 23
31.3681284626
  0
SOLID
  8
0
 62
7
  6
CONTINUOUS
 10
159.228429528
 20
31.2390741763
 11
159.1128043074
 21
31.3681284626
 12
159.401867028
 22
31.3681284626
 13
159.401867028
 23
31.3681284626
  0
SOLID
  8
0
 62
7
  6
CONTINUOUS
 10
149.6315543091
 20
31.3036012664
 11
150.1518667936
 21
31.4326554468
 12
149.9784292936
 22
31.3358640533
 13
149.9784292936
 23
31.3358640533
  0
SOLID
  8
0
 62
7
  6
CONTINUOUS
 10
149.9784292936
 20
31.3358640533
 11
149.9206168074
 21
31.2713369632
 12
149.6315543091
 22
31.3036012664
 13
149.6315543091
 23
31.3036012664
  0
SOLID
  8
0
 62
7
  6
CONTINUOUS
 10
149.5737418074
 20
31.1100184796
 11
149.6315543091
 21
31.3036012664
 12
149.9206168074
 22
31.2713369632
 13
149.9206168074
 23
31.2713369632
  0
SOLID
  8
0
 62
7
  6
CONTINUOUS
 10
154.4299918074
 20
31.2390741763
 11
154.7768668074
 21
31.271336924
 12
155.412804528
 22
31.271336924
 13
155.412804528
 23
31.271336924
  0
SOLID
  8
0
 62
7
  6
CONTINUOUS
 10
154.4299918074
 20
31.2390741763
 11
155.412804528
 21
31.271336924
 12
154.1987416972
 22
31.1745462761
 13
154.1987416972
 23
31.1745462761
  0
SOLID
  8
0
 62
7
  6
CONTINUOUS
 10
154.1987416972
 20
31.1745462761
 11
155.412804528
 21
31.271336924
 12
154.7768668074
 22
31.1422827436
 13
154.7768668074
 23
31.1422827436
  0
SOLID
  8
0
 62
7
  6
CONTINUOUS
 10
155.412804528
 20
31.271336924
 11
155.412804528
 21
31.1422827436
 12
154.7768668074
 22
31.1422827436
 13
154.7768668074
 23
31.1422827436
  0
SOLID
  8
0
 62
7
  6
CONTINUOUS
 10
159.228429528
 20
31.2390745501
 11
159.401867028
 21
31.3681283566
 12
159.4596793074
 22
31.3036012664
 13
159.4596793074
 23
31.3036012664
  0
SOLID
  8
0
 62
7
  6
CONTINUOUS
 10
159.4596793074
 20
31.3036012664
 11
159.6331168074
 21
31.2390745501
 12
159.228429528
 22
31.2390745501
 13
159.228429528
 23
31.2390745501
  0
SOLID
  8
0
 62
7
  6
CONTINUOUS
 10
159.4596793074
 20
31.1422827828
 11
159.228429528
 21
31.2390745501
 12
159.6331168074
 22
31.2390745501
 13
159.6331168074
 23
31.2390745501
  0
SOLID
  8
0
 62
7
  6
CONTINUOUS
 10
159.6331168074
 20
31.2390745501
 11
160.615929528
 21
31.0777556927
 12
159.4596793074
 22
31.1422827828
 13
159.4596793074
 23
31.1422827828
  0
SOLID
  8
0
 62
7
  6
CONTINUOUS
 10
160.442492028
 20
30.9809646623
 11
159.4596793074
 21
31.1422827828
 12
160.615929528
 22
31.0777556927
 13
160.615929528
 23
31.0777556927
  0
SOLID
  8
0
 62
7
  6
CONTINUOUS
 10
160.615929528
 20
31.0777556927
 11
160.8471793074
 21
30.9809646623
 12
160.442492028
 22
30.9809646623
 13
160.442492028
 23
30.9809646623
  0
SOLID
  8
0
 62
7
  6
CONTINUOUS
 10
160.615929528
 20
30.9164372091
 11
160.442492028
 21
30.9809646623
 12
160.8471793074
 22
30.9809646623
 13
160.8471793074
 23
30.9809646623
  0
SOLID
  8
0
 62
7
  6
CONTINUOUS
 10
160.615929528
 20
30.9164372091
 11
160.8471793074
 21
30.9809646623
 12
160.6737418074
 22
30.8519089441
 13
160.6737418074
 23
30.8519089441
  0
SOLID
  8
0
 62
7
  6
CONTINUOUS
 10
160.8471793074
 20
30.9809646623
 11
160.9628038663
 21
30.8519089441
 12
160.6737418074
 22
30.8519089441
 13
160.6737418074
 23
30.8519089441
  0
SOLID
  8
0
 62
7
  6
CONTINUOUS
 10
160.615929528
 20
30.7873818593
 11
160.6737418074
 21
30.8519089441
 12
160.9628038663
 22
30.8519089441
 13
160.9628038663
 23
30.8519089441
  0
SOLID
  8
0
 62
7
  6
CONTINUOUS
 10
160.9628038663
 20
30.8519089441
 11
160.9628038663
 21
30.7873818593
 12
160.615929528
 22
30.7873818593
 13
160.615929528
 23
30.7873818593
  0
SOLID
  8
0
 62
7
  6
CONTINUOUS
 10
160.5003043074
 20
30.7551187255
 11
160.615929528
 21
30.7873818593
 12
160.9628038663
 22
30.7873818593
 13
160.9628038663
 23
30.7873818593
  0
SOLID
  8
0
 62
7
  6
CONTINUOUS
 10
160.5003043074
 20
30.7551187255
 11
160.9628038663
 21
30.7873818593
 12
160.269054528
 22
30.7228547745
 13
160.269054528
 23
30.7228547745
  0
SOLID
  8
0
 62
7
  6
CONTINUOUS
 10
160.9628038663
 20
30.7873818593
 11
160.8471793074
 21
30.6905916353
 12
160.269054528
 22
30.7228547745
 13
160.269054528
 23
30.7228547745
  0
SOLID
  8
0
 62
7
  6
CONTINUOUS
 10
160.8471793074
 20
30.6905916353
 11
159.401867028
 21
30.658327332
 12
160.269054528
 22
30.7228547745
 13
160.269054528
 23
30.7228547745
  0
SOLID
  8
0
 62
7
  6
CONTINUOUS
 10
160.269054528
 20
30.7228547745
 11
159.401867028
 21
30.658327332
 12
159.922179528
 22
30.7228547745
 13
159.922179528
 23
30.7228547745
  0
SOLID
  8
0
 62
7
  6
CONTINUOUS
 10
159.401867028
 20
30.658327332
 11
159.228429528
 21
30.7228547745
 12
159.922179528
 22
30.7228547745
 13
159.922179528
 23
30.7228547745
  0
SOLID
  8
0
 62
7
  6
CONTINUOUS
 10
159.401867028
 20
30.658327332
 11
160.8471793074
 21
30.6905916353
 12
159.575304528
 22
30.6260629858
 13
159.575304528
 23
30.6260629858
  0
SOLID
  8
0
 62
7
  6
CONTINUOUS
 10
160.8471793074
 20
30.6905916353
 11
160.615929528
 21
30.6260629858
 12
159.575304528
 22
30.6260629858
 13
159.575304528
 23
30.6260629858
  0
SOLID
  8
0
 62
7
  6
CONTINUOUS
 10
159.922179528
 20
30.5938006049
 11
159.575304528
 21
30.6260629858
 12
160.615929528
 22
30.6260629858
 13
160.615929528
 23
30.6260629858
  0
SOLID
  8
0
 62
7
  6
CONTINUOUS
 10
160.615929528
 20
30.6260629858
 11
160.269054528
 21
30.5938006049
 12
159.922179528
 22
30.5938006049
 13
159.922179528
 23
30.5938006049
  0
SOLID
  8
0
 62
7
  6
CONTINUOUS
 10
149.5737418074
 20
31.1100184796
 11
149.9206168074
 21
31.2713369632
 12
149.8628043005
 22
31.1422827828
 13
149.8628043005
 23
31.1422827828
  0
SOLID
  8
0
 62
7
  6
CONTINUOUS
 10
149.8628043005
 20
31.1422827828
 11
149.8628043005
 21
31.0454914852
 12
149.5737418074
 22
31.1100184796
 13
149.5737418074
 23
31.1100184796
  0
SOLID
  8
0
 62
7
  6
CONTINUOUS
 10
149.6315543091
 20
30.9164372091
 11
149.5737418074
 21
31.1100184796
 12
149.8628043005
 22
31.0454914852
 13
149.8628043005
 23
31.0454914852
  0
SOLID
  8
0
 62
7
  6
CONTINUOUS
 10
149.8628043005
 20
31.0454914852
 11
149.9784292936
 21
30.8841729058
 12
149.6315543091
 22
30.9164372091
 13
149.6315543091
 23
30.9164372091
  0
SOLID
  8
0
 62
7
  6
CONTINUOUS
 10
149.7471793074
 20
30.7873813202
 11
149.6315543091
 21
30.9164372091
 12
149.9784292936
 22
30.8841729058
 13
149.9784292936
 23
30.8841729058
  0
SOLID
  8
0
 62
7
  6
CONTINUOUS
 10
149.9784292936
 20
30.8841729058
 11
150.1518667936
 21
30.7873813202
 12
149.7471793074
 22
30.7873813202
 13
149.7471793074
 23
30.7873813202
  0
SOLID
  8
0
 62
7
  6
CONTINUOUS
 10
149.8628043005
 20
30.7228547004
 11
149.7471793074
 21
30.7873813202
 12
150.1518667936
 22
30.7873813202
 13
150.1518667936
 23
30.7873813202
  0
SOLID
  8
0
 62
7
  6
CONTINUOUS
 10
150.1518667936
 20
30.7873813202
 11
150.498741835
 21
30.7228547004
 12
149.8628043005
 22
30.7228547004
 13
149.8628043005
 23
30.7228547004
  0
SOLID
  8
0
 62
7
  6
CONTINUOUS
 10
150.0362418212
 20
30.658327332
 11
149.8628043005
 21
30.7228547004
 12
150.498741835
 22
30.7228547004
 13
150.498741835
 23
30.7228547004
  0
SOLID
  8
0
 62
7
  6
CONTINUOUS
 10
154.0831168074
 20
31.1100184386
 11
154.1987416972
 21
31.1745462761
 12
154.7768668074
 22
31.1422827828
 13
154.7768668074
 23
31.1422827828
  0
SOLID
  8
0
 62
7
  6
CONTINUOUS
 10
154.7768668074
 20
31.1422827828
 11
154.5456166972
 21
31.1100184386
 12
154.0831168074
 22
31.1100184386
 13
154.0831168074
 23
31.1100184386
  0
SOLID
  8
0
 62
7
  6
CONTINUOUS
 10
153.9674919177
 20
30.9809642992
 11
154.0831168074
 21
31.1100184386
 12
154.5456166972
 22
31.1100184386
 13
154.5456166972
 23
31.1100184386
  0
SOLID
  8
0
 62
7
  6
CONTINUOUS
 10
154.3143669177
 20
31.0132277988
 11
153.9674919177
 21
30.9809642992
 12
154.4299918074
 22
31.0777556927
 13
154.4299918074
 23
31.0777556927
  0
SOLID
  8
0
 62
7
  6
CONTINUOUS
 10
153.9674919177
 20
30.9809642992
 11
154.5456166972
 21
31.1100184796
 12
154.4299918074
 22
31.0777556927
 13
154.4299918074
 23
31.0777556927
  0
SOLID
  8
0
 62
7
  6
CONTINUOUS
 10
154.3143669177
 20
31.0132277988
 11
154.2565543074
 21
30.9164372091
 12
153.9674919177
 22
30.9809642992
 13
153.9674919177
 23
30.9809642992
  0
SOLID
  8
0
 62
7
  6
CONTINUOUS
 10
153.9674919177
 20
30.8841729058
 11
153.9674919177
 21
30.9809642992
 12
154.2565543074
 22
30.9164372091
 13
154.2565543074
 23
30.9164372091
  0
SOLID
  8
0
 62
7
  6
CONTINUOUS
 10
154.2565543074
 20
30.9164372091
 11
154.2565543074
 21
30.8519086025
 12
153.9674919177
 22
30.8841729058
 13
153.9674919177
 23
30.8841729058
  0
SOLID
  8
0
 62
7
  6
CONTINUOUS
 10
154.0253041972
 20
30.7551187255
 11
153.9674919177
 21
30.8841729058
 12
154.2565543074
 22
30.8519086025
 13
154.2565543074
 23
30.8519086025
  0
SOLID
  8
0
 62
7
  6
CONTINUOUS
 10
155.412804528
 20
30.9487004259
 11
155.7018665869
 21
30.8519086025
 12
155.3549915869
 22
30.8841729058
 13
155.3549915869
 23
30.8841729058
  0
SOLID
  8
0
 62
7
  6
CONTINUOUS
 10
155.1815540869
 20
30.7873815123
 11
155.3549915869
 21
30.8841729058
 12
155.7018665869
 22
30.8519086025
 13
155.7018665869
 23
30.8519086025
  0
SOLID
  8
0
 62
7
  6
CONTINUOUS
 10
155.1815540869
 20
30.7873815123
 11
155.7018665869
 21
30.8519086025
 12
155.412804528
 22
30.7551187255
 13
155.412804528
 23
30.7551187255
  0
SOLID
  8
0
 62
7
  6
CONTINUOUS
 10
155.7018665869
 20
30.8519086025
 11
155.759679528
 21
30.6905916353
 12
155.412804528
 22
30.7551187255
 13
155.412804528
 23
30.7551187255
  0
SOLID
  8
0
 62
7
  6
CONTINUOUS
 10
155.4706168074
 20
30.658327332
 11
155.412804528
 21
30.7551187255
 12
155.759679528
 22
30.6905916353
 13
155.759679528
 23
30.6905916353
  0
SOLID
  8
0
 62
7
  6
CONTINUOUS
 10
155.4706168074
 20
30.658327332
 11
155.759679528
 21
30.6905916353
 12
155.5284290869
 22
30.5938002079
 13
155.5284290869
 23
30.5938002079
  0
SOLID
  8
0
 62
7
  6
CONTINUOUS
 10
155.759679528
 20
30.6905916353
 11
155.8174918074
 21
30.5938002079
 12
155.5284290869
 22
30.5938002079
 13
155.5284290869
 23
30.5938002079
  0
SOLID
  8
0
 62
7
  6
CONTINUOUS
 10
151.0768668626
 20
30.8196456577
 11
151.1346793074
 21
30.9164373395
 12
151.4237418626
 22
30.9164373395
 13
151.4237418626
 23
30.9164373395
  0
SOLID
  8
0
 62
7
  6
CONTINUOUS
 10
151.4237418626
 20
30.9164373395
 11
151.3659292523
 21
30.7873815123
 12
151.0768668626
 22
30.8196456577
 13
151.0768668626
 23
30.8196456577
  0
SOLID
  8
0
 62
7
  6
CONTINUOUS
 10
150.9034292799
 20
30.7551187255
 11
151.0768668626
 21
30.8196456577
 12
151.3659292523
 22
30.7873815123
 13
151.3659292523
 23
30.7873815123
  0
SOLID
  8
0
 62
7
  6
CONTINUOUS
 10
150.9034292799
 20
30.7551187255
 11
151.3659292523
 21
30.7873815123
 12
150.498741835
 22
30.7228544222
 13
150.498741835
 23
30.7228544222
  0
SOLID
  8
0
 62
7
  6
CONTINUOUS
 10
151.3659292523
 20
30.7873815123
 11
151.1924917523
 21
30.6905916353
 12
150.498741835
 22
30.7228544222
 13
150.498741835
 23
30.7228544222
  0
SOLID
  8
0
 62
7
  6
CONTINUOUS
 10
150.0362418212
 20
30.658327332
 11
150.498741835
 21
30.7228544222
 12
151.1924917523
 22
30.6905916353
 13
151.1924917523
 23
30.6905916353
  0
SOLID
  8
0
 62
7
  6
CONTINUOUS
 10
150.0362418212
 20
30.658327332
 11
151.1924917523
 21
30.6905916353
 12
150.2096793212
 22
30.6260631011
 13
150.2096793212
 23
30.6260631011
  0
SOLID
  8
0
 62
7
  6
CONTINUOUS
 10
151.1924917523
 20
30.6905916353
 11
150.9612418074
 21
30.6260631011
 12
150.2096793212
 22
30.6260631011
 13
150.2096793212
 23
30.6260631011
  0
SOLID
  8
0
 62
7
  6
CONTINUOUS
 10
150.5565542799
 20
30.5938002419
 11
150.2096793212
 21
30.6260631011
 12
150.9612418074
 22
30.6260631011
 13
150.9612418074
 23
30.6260631011
  0
SOLID
  8
0
 62
7
  6
CONTINUOUS
 10
154.0253041972
 20
30.7551187255
 11
154.2565543074
 21
30.8519086025
 12
154.3143669177
 22
30.7873815123
 13
154.3143669177
 23
30.7873815123
  0
SOLID
  8
0
 62
7
  6
CONTINUOUS
 10
154.3143669177
 20
30.7873815123
 11
154.5456166972
 21
30.7228544222
 12
154.0253041972
 22
30.7551187255
 13
154.0253041972
 23
30.7551187255
  0
SOLID
  8
0
 62
7
  6
CONTINUOUS
 10
154.1987416972
 20
30.658327332
 11
154.0253041972
 21
30.7551187255
 12
154.5456166972
 22
30.7228544222
 13
154.5456166972
 23
30.7228544222
  0
SOLID
  8
0
 62
7
  6
CONTINUOUS
 10
154.8924916972
 20
30.7228544637
 11
155.1815540869
 21
30.7873815123
 12
155.412804528
 22
30.7551187255
 13
155.412804528
 23
30.7551187255
  0
SOLID
  8
0
 62
7
  6
CONTINUOUS
 10
155.412804528
 20
30.7551187255
 11
155.3549915869
 21
30.6905916353
 12
154.8924916972
 22
30.7228544637
 13
154.8924916972
 23
30.7228544637
  0
SOLID
  8
0
 62
7
  6
CONTINUOUS
 10
155.3549915869
 20
30.6905916353
 11
154.1987416972
 21
30.658327332
 12
154.8924916972
 22
30.7228544637
 13
154.8924916972
 23
30.7228544637
  0
SOLID
  8
0
 62
7
  6
CONTINUOUS
 10
154.1987416972
 20
30.658327332
 11
154.5456166972
 21
30.7228544637
 12
154.8924916972
 22
30.7228544637
 13
154.8924916972
 23
30.7228544637
  0
SOLID
  8
0
 62
7
  6
CONTINUOUS
 10
154.1987416972
 20
30.658327332
 11
155.3549915869
 21
30.6905916353
 12
154.3143669177
 22
30.6260630541
 13
154.3143669177
 23
30.6260630541
  0
SOLID
  8
0
 62
7
  6
CONTINUOUS
 10
155.3549915869
 20
30.6905916353
 11
155.1815540869
 21
30.6260630541
 12
154.3143669177
 22
30.6260630541
 13
154.3143669177
 23
30.6260630541
  0
SOLID
  8
0
 62
7
  6
CONTINUOUS
 10
154.5456166972
 20
30.5938002188
 11
154.3143669177
 21
30.6260630541
 12
155.1815540869
 22
30.6260630541
 13
155.1815540869
 23
30.6260630541
  0
SOLID
  8
0
 62
7
  6
CONTINUOUS
 10
155.1815540869
 20
30.6260630541
 11
154.8924916972
 21
30.5938002188
 12
154.5456166972
 22
30.5938002188
 13
154.5456166972
 23
30.5938002188
  0
SOLID
  8
0
 62
7
  6
CONTINUOUS
 10
159.575304528
 20
30.7551187255
 11
159.228429528
 21
30.7228544637
 12
159.4596793074
 22
30.7873815123
 13
159.4596793074
 23
30.7873815123
  0
SOLID
  8
0
 62
7
  6
CONTINUOUS
 10
159.4596793074
 20
30.7873815123
 11
159.228429528
 21
30.7228544637
 12
159.401867028
 22
30.851908644
 13
159.401867028
 23
30.851908644
  0
SOLID
  8
0
 62
7
  6
CONTINUOUS
 10
159.228429528
 20
30.7228544637
 11
159.1128043074
 21
30.851908644
 12
159.401867028
 22
30.851908644
 13
159.401867028
 23
30.851908644
  0
SOLID
  8
0
 62
7
  6
CONTINUOUS
 10
159.575304528
 20
30.7551187255
 11
159.922179528
 21
30.7228544637
 12
159.228429528
 22
30.7228544637
 13
159.228429528
 23
30.7228544637
  0
SOLID
  8
0
 62
7
  6
CONTINUOUS
 10
156.279992028
 20
30.5938002419
 11
156.279992028
 21
31.6262382337
 12
156.5690540869
 22
30.5938002419
 13
156.5690540869
 23
31.6262382337
  0
ENDBLK
  8
0
  6
BYBLOCK
 62
0
  0
BLOCK
  8
0
 62
2
  6
CONTINUOUS
  2
SYMBOL_3_BL0
 70
64
 10
32.1213064866
 20
19.8534310916
  0
TEXT
  8
0
 62
7
  6
CONTINUOUS
 10
18.3860103289
 20
19.2268451992
  7
TEXTSTYLE_3
 40
2.7338706658
  1
Ammeraal Beltech
 41
1.0
 51
15.0
 72
0
  0
TEXT
  8
0
 62
7
  6
CONTINUOUS
 10
29.1868111546
 20
16.9533085264
  7
TEXTSTYLE_4
 40
1.0935482663
  1
Innovation & Service in Belting
 41
1.0
 72
0
  0
LINE
  8
0
 62
7
  6
CONTINUOUS
 10
12.3614696776
 20
19.9934385078
 11
13.1396216709
 21
23.6543558055
  0
LINE
  8
0
 62
7
  6
CONTINUOUS
 10
23.2347899607
 20
27.3177497171
 11
13.6274394139
 21
24.1961322958
  0
LINE
  8
0
 62
7
  6
CONTINUOUS
 10
12.5867530099
 20
19.3000877048
 11
20.093828271
 21
12.5406867788
  0
LINE
  8
0
 62
7
  6
CONTINUOUS
 10
12.8492874206
 20
20.5352149982
 11
23.6575567857
 21
24.0470345971
  0
LINE
  8
0
 62
7
  6
CONTINUOUS
 10
23.6533516486
 20
13.6972460334
 11
15.2078919798
 21
21.3015720751
  0
LINE
  8
0
 62
7
  6
CONTINUOUS
 10
24.1731743684
 20
26.4728246013
 11
23.1966148312
 21
21.8784731989
  0
LINE
  8
0
 62
7
  6
CONTINUOUS
 10
22.4968128835
 20
18.5861638851
 11
21.810364672
 21
15.3566789607
  0
LINE
  8
0
 62
7
  6
CONTINUOUS
 10
24.8542704669
 20
14.087448211
 11
25.8105020025
 21
18.5861638851
  0
LINE
  8
0
 62
7
  6
CONTINUOUS
 10
26.5103039502
 20
21.8784731989
 11
26.9545457526
 21
23.9684665583
  0
LINE
  8
0
 62
7
  6
CONTINUOUS
 10
20.8069293463
 20
12.3891124661
 11
24.3664527239
 21
13.5456717207
  0
LINE
  8
0
 62
7
  6
CONTINUOUS
 10
23.9478910361
 20
27.1661754044
 11
26.7292624203
 21
24.6618173613
  0
ARC
  8
0
 62
7
  6
CONTINUOUS
 10
13.8527227462
 20
23.5027814928
 40
0.7290321776
 50
108.0
 51
168.0
  0
ARC
  8
0
 62
7
  6
CONTINUOUS
 10
23.4600732931
 20
26.624398914
 40
0.7290321776
 50
348.0
 51
108.0
  0
ARC
  8
0
 62
7
  6
CONTINUOUS
 10
26.2414446773
 20
24.120040871
 40
0.7290321776
 50
348.0
 51
48.0
  0
ARC
  8
0
 62
7
  6
CONTINUOUS
 10
20.581646014
 20
13.0824632691
 40
0.7290321776
 50
228.0
 51
288.0
  0
ARC
  8
0
 62
7
  6
CONTINUOUS
 10
13.0745707529
 20
19.8418641951
 40
0.7290321776
 50
108.0
 51
228.0
  0
ARC
  8
0
 62
7
  6
CONTINUOUS
 10
24.1411693916
 20
14.2390225237
 40
0.7290321776
 50
228.0
 51
348.0
  0
ENDBLK
  8
0
  6
BYBLOCK
 62
0
  0
ENDSEC
  0
SECTION
  2
ENTITIES
  0
TEXT
  8
0
 62
5
  6
CONTINUOUS
 10
96.0
 20
25.636
  7
TEXTSTYLE_2
 40
2.8
  1
Scale :
 41
0.6
 51
0.000019
 72
0
  0
TEXT
  8
0
 62
5
  6
CONTINUOUS
 10
116.0
 20
25.636
  7
TEXTSTYLE_2
 40
2.8
  1
Belt type:
 41
0.6
 51
0.000019
 72
0
  0
INSERT
  8
0
 62
2
  6
CONTINUOUS
  2
SYMBOL_3_BL0
 10
32.1213064866
 20
19.8534310916
  0
INSERT
  8
0
 62
2
  6
CONTINUOUS
  2
SYMBOL_8_BL1
 10
173.5956734183
 20
35.5937998301
  0
LINE
  8
0
 62
2
  6
CONTINUOUS
 10
10.0
 20
30.0
 11
200.0
 21
30.0
  0
LINE
  8
0
 62
2
  6
CONTINUOUS
 10
10.0
 20
30.0
 11
10.0
 21
10.0
  0
LINE
  8
0
 62
2
  6
CONTINUOUS
 10
10.0
 20
10.0
 11
200.0
 21
10.0
  0
LINE
  8
0
 62
2
  6
CONTINUOUS
 10
95.0
 20
30.0
 11
95.0
 21
10.0
  0
LINE
  8
0
 62
2
  6
CONTINUOUS
 10
115.0
 20
30.0
 11
115.0
 21
10.0
  0
LINE
  8
0
 62
2
  6
CONTINUOUS
 10
200.0
 20
30.0
 11
200.0
 21
10.0
  0
TEXT
  8
0
 62
5
  6
CONTINUOUS
 10
13.0
 20
23.303
  7
TEXTSTYLE_5
 40
1.52
  1
                                                                     Ammeraal Beltech Modular A/S
 41
1.0
 72
0
  0
TEXT
  8
0
 62
5
  6
CONTINUOUS
 10
13.0
 20
20.595
  7
TEXTSTYLE_5
 40
1.5
  1
                                                                      Hjulmagervej 21,  7100 Vejle,  DK
 41
1.0
 72
0
  0
TEXT
  8
0
 62
5
  6
CONTINUOUS
 10
13.0
 20
17.881
  7
TEXTSTYLE_5
 40
1.495
  1
                                                                      tel: 
 41
1.0
 72
0
  0
TEXT
  8
0
 62
5
  6
CONTINUOUS
 10
57.9869465649
 20
17.881
  7
TEXTSTYLE_5
 40
1.51
  1
+45 75723100     fax: +45 75723348
 41
1.0
 72
0
  0
TEXT
  8
0
 62
5
  6
CONTINUOUS
 10
13.0
 20
15.177
  7
TEXTSTYLE_5
 40
1.5
  1
                                                                      admin@unichains.dk  www.unichains.com
 41
1.0
 72
0
  0
TEXT
  8
0
 62
5
  6
CONTINUOUS
 10
99.75
 20
13.75
  7
TEXTSTYLE_6
 40
5.0
  1
1:1
 41
0.7
 72
1
 11
105.0
 21
13.75
  0
TEXT
  8
0
 62
5
  6
CONTINUOUS
 10
118.0
 20
13.75
  7
TEXTSTYLE_7
 40
7.5
  1
uni SNB M2 20% K750
 41
0.4457236842
 72
0
  0
LINE
  8
0
 62
7
  6
CONTINUOUS
 10
210.0
 20
0.0
 11
0.0
 21
0.0
  0
LINE
  8
0
 62
7
  6
CONTINUOUS
 10
10.0
 20
10.0
 11
200.0
 21
10.0
  0
LINE
  8
0
 62
7
  6
CONTINUOUS
 10
10.0
 20
30.0
 11
200.0
 21
30.0
  0
LINE
  8
0
 62
7
  6
CONTINUOUS
 10
0.0
 20
0.0
 11
0.0
 21
297.0
  0
LINE
  8
0
 62
7
  6
CONTINUOUS
 10
10.0
 20
10.0
 11
10.0
 21
287.0
  0
LINE
  8
0
 62
7
  6
CONTINUOUS
 10
200.0
 20
287.0
 11
200.0
 21
10.0
  0
LINE
  8
0
 62
7
  6
CONTINUOUS
 10
210.0
 20
0.0
 11
210.0
 21
297.0
  0
LINE
  8
0
 62
7
  6
CONTINUOUS
 10
10.0
 20
287.0
 11
200.0
 21
287.0
  0
LINE
  8
0
 62
7
  6
CONTINUOUS
 10
0.0
 20
297.0
 11
210.0
 21
297.0
  0
POLYLINE
  8
0
 62
7
  6
CONTINUOUS
 66
1
 70
0
  0
VERTEX
  8
0
 62
7
  6
CONTINUOUS
 10
41.8619943509
 20
264.8985576039
  0
VERTEX
  8
0
 62
7
  6
CONTINUOUS
 10
41.8565885646
 20
264.9067027616
  0
VERTEX
  8
0
 62
7
  6
CONTINUOUS
 10
41.8751546597
 20
264.9146426437
  0
VERTEX
  8
0
 62
7
  6
CONTINUOUS
 10
41.9167567853
 20
264.9222589259
  0
VERTEX
  8
0
 62
7
  6
CONTINUOUS
 10
41.980677705
 20
264.9294566159
  0
VERTEX
  8
0
 62
7
  6
CONTINUOUS
 10
42.065025671
 20
264.9360574225
  0
VERTEX
  8
0
 62
7
  6
CONTINUOUS
 10
42.1688122981
 20
264.9420232358
  0
VERTEX
  8
0
 62
7
  6
CONTINUOUS
 10
42.2928399106
 20
264.9473801448
  0
VERTEX
  8
0
 62
7
  6
CONTINUOUS
 10
42.4365072408
 20
264.9520618049
  0
VERTEX
  8
0
 62
7
  6
CONTINUOUS
 10
42.5981909017
 20
264.9560088216
  0
VERTEX
  8
0
 62
7
  6
CONTINUOUS
 10
42.776311381
 20
264.9592108838
  0
SEQEND
  0
LINE
  8
0
 62
2
  6
CONTINUOUS
 10
43.859839512
 20
269.7717353185
 11
43.859839512
 21
268.0117353185
  0
LINE
  8
DEFAULT_1
 62
2
  6
CENTER
 10
43.859839512
 20
264.4917353185
 11
43.859839512
 21
264.2917353185
  0
LINE
  8
DEFAULT_1
 62
2
  6
CENTER
 10
43.859839512
 20
273.2917353185
 11
43.859839512
 21
273.4917353185
  0
LINE
  8
0
 62
7
  6
CONTINUOUS
 10
46.559839512
 20
264.8083493404
 11
46.559839512
 21
264.5468821122
  0
LINE
  8
0
 62
7
  6
CONTINUOUS
 10
46.934839512
 20
264.5468821122
 11
46.934839512
 21
264.8083493404
  0
LINE
  8
0
 62
7
  6
CONTINUOUS
 10
48.059839512
 20
264.6637078967
 11
48.059839512
 21
264.6970866878
  0
LINE
  8
0
 62
7
  6
CONTINUOUS
 10
48.1223394524
 20
264.7805336812
 11
48.1223394524
 21
264.8072367153
  0
LINE
  8
0
 62
7
  6
CONTINUOUS
 10
48.3098394524
 20
264.7749705493
 11
48.3098394524
 21
264.8038988369
  0
LINE
  8
0
 62
7
  6
CONTINUOUS
 10
48.3723395716
 20
264.6692710285
 11
48.3723395716
 21
264.7082129595
  0
LINE
  8
0
 62
7
  6
CONTINUOUS
 10
48.434839512
 20
264.7638442856
 11
48.434839512
 21
264.7986138627
  0
LINE
  8
0
 62
7
  6
CONTINUOUS
 10
48.4973394524
 20
264.7304654789
 11
48.4973394524
 21
264.7944415168
  0
LINE
  8
0
 62
7
  6
CONTINUOUS
 10
48.622339512
 20
264.6859604241
 11
48.622339512
 21
264.786096813
  0
LINE
  8
0
 62
7
  6
CONTINUOUS
 10
48.809839512
 20
264.7082129515
 11
48.809839512
 21
264.7638442856
  0
LINE
  8
0
 62
7
  6
CONTINUOUS
 10
48.8723394524
 20
264.7249023471
 11
48.8723394524
 21
264.7471548901
  0
LINE
  8
0
 62
7
  6
CONTINUOUS
 10
49.372339512
 20
264.8083493404
 11
49.372339512
 21
264.5468821122
  0
LINE
  8
0
 62
7
  6
CONTINUOUS
 10
49.747339512
 20
264.5468821122
 11
49.747339512
 21
264.8083493404
  0
LINE
  8
0
 62
7
  6
CONTINUOUS
 10
50.872339512
 20
264.6637078967
 11
50.872339512
 21
264.6970866878
  0
LINE
  8
0
 62
7
  6
CONTINUOUS
 10
50.9348396312
 20
264.7805336812
 11
50.9348396312
 21
264.8072367115
  0
LINE
  8
0
 62
7
  6
CONTINUOUS
 10
51.1223396312
 20
264.7749705493
 11
51.1223396312
 21
264.8038988311
  0
LINE
  8
0
 62
7
  6
CONTINUOUS
 10
51.1848393928
 20
264.6692710285
 11
51.1848393928
 21
264.7082129356
  0
LINE
  8
0
 62
7
  6
CONTINUOUS
 10
51.247339512
 20
264.7638442856
 11
51.247339512
 21
264.7986138537
  0
LINE
  8
0
 62
7
  6
CONTINUOUS
 10
51.3098396312
 20
264.7304654789
 11
51.3098396312
 21
264.7944414989
  0
LINE
  8
0
 62
7
  6
CONTINUOUS
 10
51.434839512
 20
264.6859604241
 11
51.434839512
 21
264.786096813
  0
LINE
  8
0
 62
7
  6
CONTINUOUS
 10
51.622339512
 20
264.7082129515
 11
51.622339512
 21
264.7638442856
  0
LINE
  8
0
 62
7
  6
CONTINUOUS
 10
51.6848396312
 20
264.7249023471
 11
51.6848396312
 21
264.7471548901
  0
LINE
  8
0
 62
7
  6
CONTINUOUS
 10
48.809839512
 20
264.7638442856
 11
48.622339512
 21
264.786096813
  0
LINE
  8
0
 62
7
  6
CONTINUOUS
 10
48.434839512
 20
264.7638442856
 11
48.4973394524
 21
264.7471548901
  0
LINE
  8
0
 62
7
  6
CONTINUOUS
 10
48.8723394524
 20
264.7471548901
 11
48.809839512
 21
264.7638442856
  0
LINE
  8
0
 62
7
  6
CONTINUOUS
 10
51.247339512
 20
264.7638442856
 11
51.3098396312
 21
264.7471548901
  0
LINE
  8
0
 62
7
  6
CONTINUOUS
 10
51.6848396312
 20
264.7471548901
 11
51.622339512
 21
264.7638442856
  0
POLYLINE
  8
0
 62
7
  6
CONTINUOUS
 66
1
 70
0
  0
VERTEX
  8
0
 62
7
  6
CONTINUOUS
 10
55.2672980033
 20
264.4959222199
  0
VERTEX
  8
0
 62
7
  6
CONTINUOUS
 10
55.2578403752
 20
264.4940082931
  0
VERTEX
  8
0
 62
7
  6
CONTINUOUS
 10
55.2409145984
 20
264.4926315626
  0
VERTEX
  8
0
 62
7
  6
CONTINUOUS
 10
55.2196238811
 20
264.4919323672
  0
VERTEX
  8
0
 62
7
  6
CONTINUOUS
 10
55.1960347476
 20
264.4917353185
  0
SEQEND
  0
POLYLINE
  8
0
 62
7
  6
CONTINUOUS
 66
1
 70
0
  0
VERTEX
  8
0
 62
7
  6
CONTINUOUS
 10
55.398974567
 20
264.5158409327
  0
VERTEX
  8
0
 62
7
  6
CONTINUOUS
 10
55.340689039
 20
264.5092602297
  0
VERTEX
  8
0
 62
7
  6
CONTINUOUS
 10
55.2954851531
 20
264.5025809762
  0
VERTEX
  8
0
 62
7
  6
CONTINUOUS
 10
55.2672980033
 20
264.4959222199
  0
SEQEND
  0
LINE
  8
0
 62
7
  6
CONTINUOUS
 10
51.1848393928
 20
264.6692710285
 11
51.434839512
 21
264.6859604241
  0
LINE
  8
0
 62
7
  6
CONTINUOUS
 10
51.1223396312
 20
264.7026498197
 11
50.9348396312
 21
264.6970866878
  0
LINE
  8
0
 62
7
  6
CONTINUOUS
 10
48.3098394524
 20
264.7026498197
 11
48.1223394524
 21
264.6970866878
  0
LINE
  8
0
 62
7
  6
CONTINUOUS
 10
50.872339512
 20
264.6637078967
 11
51.1848393928
 21
264.6692710285
  0
LINE
  8
0
 62
7
  6
CONTINUOUS
 10
48.059839512
 20
264.6637078967
 11
48.3723395716
 21
264.6692710285
  0
LINE
  8
0
 62
7
  6
CONTINUOUS
 10
42.776311381
 20
264.9592108838
 11
43.1945178356
 21
264.963613999
  0
LINE
  8
0
 62
7
  6
CONTINUOUS
 10
43.1945178356
 20
264.963613999
 11
43.7098395104
 21
264.9652296774
  0
LINE
  8
0
 62
7
  6
CONTINUOUS
 10
69.409839512
 20
264.4917353185
 11
55.2673021068
 21
264.4917353185
  0
LINE
  8
0
 62
7
  6
CONTINUOUS
 10
43.709839512
 20
264.4917353185
 11
55.1960347476
 21
264.4917353185
  0
LINE
  8
0
 62
7
  6
CONTINUOUS
 10
46.559839512
 20
264.5468821122
 11
46.934839512
 21
264.5468821122
  0
LINE
  8
0
 62
7
  6
CONTINUOUS
 10
49.372339512
 20
264.5468821122
 11
49.747339512
 21
264.5468821122
  0
LINE
  8
0
 62
7
  6
CONTINUOUS
 10
46.934839512
 20
264.6637078967
 11
48.059839512
 21
264.6637078967
  0
LINE
  8
0
 62
7
  6
CONTINUOUS
 10
49.747339512
 20
264.6637078967
 11
50.872339512
 21
264.6637078967
  0
LINE
  8
0
 62
7
  6
CONTINUOUS
 10
50.9348396312
 20
264.6970866878
 11
49.747339512
 21
264.6970866878
  0
LINE
  8
0
 62
7
  6
CONTINUOUS
 10
48.1223394524
 20
264.6970866878
 11
46.934839512
 21
264.6970866878
  0
LINE
  8
0
 62
7
  6
CONTINUOUS
 10
46.559839512
 20
264.7461210518
 11
46.934839512
 21
264.7461210518
  0
LINE
  8
0
 62
7
  6
CONTINUOUS
 10
49.372339512
 20
264.7461210518
 11
49.747339512
 21
264.7461210518
  0
LINE
  8
0
 62
7
  6
CONTINUOUS
 10
46.934839512
 20
264.7805336812
 11
48.1223394524
 21
264.7805336812
  0
LINE
  8
0
 62
7
  6
CONTINUOUS
 10
49.747339512
 20
264.7805336812
 11
50.9348396312
 21
264.7805336812
  0
LINE
  8
0
 62
7
  6
CONTINUOUS
 10
50.872339512
 20
264.8083493404
 11
49.372339512
 21
264.8083493404
  0
LINE
  8
0
 62
7
  6
CONTINUOUS
 10
48.059839512
 20
264.8083493404
 11
46.559839512
 21
264.8083493404
  0
LINE
  8
0
 62
7
  6
CONTINUOUS
 10
43.7098395104
 20
264.9652296774
 11
55.2378148753
 21
264.9647091942
  0
POLYLINE
  8
0
 62
7
  6
CONTINUOUS
 66
1
 70
0
  0
VERTEX
  8
0
 62
7
  6
CONTINUOUS
 10
55.2378148753
 20
264.9647091942
  0
VERTEX
  8
0
 62
7
  6
CONTINUOUS
 10
55.738466357
 20
264.9610351006
  0
VERTEX
  8
0
 62
7
  6
CONTINUOUS
 10
55.9472565509
 20
264.9580052342
  0
VERTEX
  8
0
 62
7
  6
CONTINUOUS
 10
56.1324586418
 20
264.9541780109
  0
VERTEX
  8
0
 62
7
  6
CONTINUOUS
 10
56.295711852
 20
264.9495359831
  0
VERTEX
  8
0
 62
7
  6
CONTINUOUS
 10
56.4375578617
 20
264.9440690655
  0
VERTEX
  8
0
 62
7
  6
CONTINUOUS
 10
56.5583966374
 20
264.9377393389
  0
VERTEX
  8
0
 62
7
  6
CONTINUOUS
 10
56.6554087872
 20
264.9306799195
  0
VERTEX
  8
0
 62
7
  6
CONTINUOUS
 10
56.7266532666
 20
264.9231153194
  0
VERTEX
  8
0
 62
7
  6
CONTINUOUS
 10
56.7720661382
 20
264.9152571255
  0
VERTEX
  8
0
 62
7
  6
CONTINUOUS
 10
56.7927268421
 20
264.9071020341
  0
VERTEX
  8
0
 62
7
  6
CONTINUOUS
 10
56.7876846732
 20
264.8985576039
  0
SEQEND
  0
LINE
  8
0
 62
7
  6
CONTINUOUS
 10
48.3723395716
 20
264.8027862086
 11
48.059839512
 21
264.8083493404
  0
LINE
  8
0
 62
7
  6
CONTINUOUS
 10
51.1848393928
 20
264.8027862086
 11
50.872339512
 21
264.8083493404
  0
LINE
  8
0
 62
7
  6
CONTINUOUS
 10
48.1223394524
 20
264.7805336812
 11
48.3098394524
 21
264.7749705493
  0
LINE
  8
0
 62
7
  6
CONTINUOUS
 10
50.9348396312
 20
264.7805336812
 11
51.1223396312
 21
264.7749705493
  0
LINE
  8
0
 62
7
  6
CONTINUOUS
 10
48.622339512
 20
264.786096813
 11
48.3723395716
 21
264.8027862086
  0
LINE
  8
0
 62
7
  6
CONTINUOUS
 10
51.434839512
 20
264.786096813
 11
51.1848393928
 21
264.8027862086
  0
LINE
  8
0
 62
7
  6
CONTINUOUS
 10
48.3098394524
 20
264.7749705493
 11
48.434839512
 21
264.7638442856
  0
LINE
  8
0
 62
7
  6
CONTINUOUS
 10
51.1223396312
 20
264.7749705493
 11
51.247339512
 21
264.7638442856
  0
LINE
  8
0
 62
7
  6
CONTINUOUS
 10
51.622339512
 20
264.7638442856
 11
51.434839512
 21
264.786096813
  0
LINE
  8
0
 62
7
  6
CONTINUOUS
 10
51.622339512
 20
264.7082129515
 11
51.6848396312
 21
264.7249023471
  0
LINE
  8
0
 62
7
  6
CONTINUOUS
 10
51.3098396312
 20
264.7304654789
 11
51.247339512
 21
264.7137760834
  0
LINE
  8
0
 62
7
  6
CONTINUOUS
 10
51.434839512
 20
264.6859604241
 11
51.622339512
 21
264.7082129515
  0
LINE
  8
0
 62
7
  6
CONTINUOUS
 10
48.622339512
 20
264.6859604241
 11
48.809839512
 21
264.7082129515
  0
LINE
  8
0
 62
7
  6
CONTINUOUS
 10
51.247339512
 20
264.7137760834
 11
51.1223396312
 21
264.7026498197
  0
LINE
  8
0
 62
7
  6
CONTINUOUS
 10
48.434839512
 20
264.7137760834
 11
48.3098394524
 21
264.7026498197
  0
LINE
  8
0
 62
7
  6
CONTINUOUS
 10
48.3723395716
 20
264.6692710285
 11
48.622339512
 21
264.6859604241
  0
LINE
  8
0
 62
7
  6
CONTINUOUS
 10
48.809839512
 20
264.7082129515
 11
48.8723394524
 21
264.7249023471
  0
LINE
  8
0
 62
7
  6
CONTINUOUS
 10
48.4973394524
 20
264.7304654789
 11
48.434839512
 21
264.7137760834
  0
LINE
  8
1_AXIS
 62
2
  6
CENTER
 10
56.559839512
 20
261.6417353185
 11
56.559839512
 21
276.1417353185
  0
LINE
  8
0
 62
2
  6
CONTINUOUS
 10
70.139839512
 20
268.8917353185
 11
68.379839512
 21
268.8917353185
  0
LINE
  8
DEFAULT_1
 62
2
  6
CENTER
 10
64.859839512
 20
268.8917353185
 11
64.659839512
 21
268.8917353185
  0
LINE
  8
0
 62
2
  6
CONTINUOUS
 10
44.739839512
 20
268.8917353185
 11
42.979839512
 21
268.8917353185
  0
LINE
  8
DEFAULT_1
 62
2
  6
CENTER
 10
39.459839512
 20
268.8917353185
 11
39.259839512
 21
268.8917353185
  0
LINE
  8
DEFAULT_1
 62
2
  6
CENTER
 10
48.259839512
 20
268.8917353185
 11
48.459839512
 21
268.8917353185
  0
LINE
  8
DEFAULT_1
 62
2
  6
CENTER
 10
73.659839512
 20
268.8917353185
 11
73.859839512
 21
268.8917353185
  0
POLYLINE
  8
0
 62
7
  6
CONTINUOUS
 66
1
 70
0
  0
VERTEX
  8
0
 62
7
  6
CONTINUOUS
 10
56.7876846732
 20
272.8849130331
  0
VERTEX
  8
0
 62
7
  6
CONTINUOUS
 10
56.7932509064
 20
272.8769686107
  0
VERTEX
  8
0
 62
7
  6
CONTINUOUS
 10
56.776496202
 20
272.869350577
  0
VERTEX
  8
0
 62
7
  6
CONTINUOUS
 10
56.7384858181
 20
272.8620134471
  0
VERTEX
  8
0
 62
7
  6
CONTINUOUS
 10
56.6783720397
 20
272.8549052565
  0
VERTEX
  8
0
 62
7
  6
CONTINUOUS
 10
56.5957267607
 20
272.8481661504
  0
VERTEX
  8
0
 62
7
  6
CONTINUOUS
 10
56.4918083516
 20
272.8419996333
  0
VERTEX
  8
0
 62
7
  6
CONTINUOUS
 10
56.3689911284
 20
272.8365525242
  0
VERTEX
  8
0
 62
7
  6
CONTINUOUS
 10
56.2286758142
 20
272.8318531958
  0
VERTEX
  8
0
 62
7
  6
CONTINUOUS
 10
56.0697619522
 20
272.8278519079
  0
VERTEX
  8
0
 62
7
  6
CONTINUOUS
 10
55.8918412898
 20
272.8245463423
  0
VERTEX
  8
0
 62
7
  6
CONTINUOUS
 10
55.6929655962
 20
272.8219165744
  0
SEQEND
  0
LINE
  8
0
 62
7
  6
CONTINUOUS
 10
55.6929655962
 20
272.8219165744
 11
55.2199234148
 21
272.8186998126
  0
LINE
  8
0
 62
7
  6
CONTINUOUS
 10
43.709839512
 20
273.2917353185
 11
69.409839512
 21
273.2917353185
  0
LINE
  8
0
 62
7
  6
CONTINUOUS
 10
55.2199234148
 20
272.8186998126
 11
43.4197651283
 21
272.8187337232
  0
POLYLINE
  8
0
 62
7
  6
CONTINUOUS
 66
1
 70
0
  0
VERTEX
  8
0
 62
7
  6
CONTINUOUS
 10
55.1960200271
 20
273.2917355015
  0
VERTEX
  8
0
 62
7
  6
CONTINUOUS
 10
55.2206107091
 20
273.291519861
  0
VERTEX
  8
0
 62
7
  6
CONTINUOUS
 10
55.2416821519
 20
273.2907991646
  0
VERTEX
  8
0
 62
7
  6
CONTINUOUS
 10
55.2579536492
 20
273.2894486953
  0
VERTEX
  8
0
 62
7
  6
CONTINUOUS
 10
55.2673035379
 20
273.2875477588
  0
SEQEND
  0
POLYLINE
  8
0
 62
7
  6
CONTINUOUS
 66
1
 70
0
  0
VERTEX
  8
0
 62
7
  6
CONTINUOUS
 10
43.4197651283
 20
272.8187337232
  0
VERTEX
  8
0
 62
7
  6
CONTINUOUS
 10
42.9280928694
 20
272.8222377535
  0
VERTEX
  8
0
 62
7
  6
CONTINUOUS
 10
42.7207894374
 20
272.8251506094
  0
VERTEX
  8
0
 62
7
  6
CONTINUOUS
 10
42.5353394446
 20
272.8288592834
  0
VERTEX
  8
0
 62
7
  6
CONTINUOUS
 10
42.3690103787
 20
272.8334435958
  0
VERTEX
  8
0
 62
7
  6
CONTINUOUS
 10
42.2244356168
 20
272.8388571217
  0
VERTEX
  8
0
 62
7
  6
CONTINUOUS
 10
42.1031505581
 20
272.8450141309
  0
VERTEX
  8
0
 62
7
  6
CONTINUOUS
 10
42.0050337473
 20
272.8518736829
  0
VERTEX
  8
0
 62
7
  6
CONTINUOUS
 10
41.9298155851
 20
272.8594765718
  0
VERTEX
  8
0
 62
7
  6
CONTINUOUS
 10
41.8801403826
 20
272.8676180033
  0
VERTEX
  8
0
 62
7
  6
CONTINUOUS
 10
41.857196893
 20
272.8761308236
  0
VERTEX
  8
0
 62
7
  6
CONTINUOUS
 10
41.8619943509
 20
272.8849130331
  0
SEQEND
  0
POLYLINE
  8
0
 62
7
  6
CONTINUOUS
 66
1
 70
0
  0
VERTEX
  8
0
 62
7
  6
CONTINUOUS
 10
55.2673035379
 20
273.2875477588
  0
VERTEX
  8
0
 62
7
  6
CONTINUOUS
 10
55.2953836863
 20
273.2809078055
  0
VERTEX
  8
0
 62
7
  6
CONTINUOUS
 10
55.3403909308
 20
273.2742484367
  0
VERTEX
  8
0
 62
7
  6
CONTINUOUS
 10
55.398974567
 20
273.2676297043
  0
SEQEND
  0
LINE
  8
0
 62
2
  6
CONTINUOUS
 10
69.259839512
 20
269.7717353185
 11
69.259839512
 21
268.0117353185
  0
LINE
  8
DEFAULT_1
 62
2
  6
CENTER
 10
69.259839512
 20
264.4917353185
 11
69.259839512
 21
264.2917353185
  0
LINE
  8
DEFAULT_1
 62
2
  6
CENTER
 10
69.259839512
 20
273.2917353185
 11
69.259839512
 21
273.4917353185
  0
LINE
  8
0
 62
7
  6
CONTINUOUS
 10
40.159839512
 20
51.4334862385
 11
57.339839512
 21
51.4334862385
  0
LINE
  8
0
 62
7
  6
CONTINUOUS
 10
43.709839512
 20
51.5214209512
 11
54.9398395133
 21
51.5214209512
  0
LINE
  8
0
 62
7
  6
CONTINUOUS
 10
55.1960430027
 20
56.9334883464
 11
43.709839512
 21
56.9334862385
  0
POLYLINE
  8
0
 62
7
  6
CONTINUOUS
 66
1
 70
0
  0
VERTEX
  8
0
 62
7
  6
CONTINUOUS
 10
43.709839512
 20
51.5214209512
  0
VERTEX
  8
0
 62
7
  6
CONTINUOUS
 10
43.4197651283
 20
51.5270532648
  0
VERTEX
  8
0
 62
7
  6
CONTINUOUS
 10
43.1602883698
 20
51.5425841332
  0
VERTEX
  8
0
 62
7
  6
CONTINUOUS
 10
42.9280928694
 20
51.567104515
  0
VERTEX
  8
0
 62
7
  6
CONTINUOUS
 10
42.7207894374
 20
51.6003986098
  0
VERTEX
  8
0
 62
7
  6
CONTINUOUS
 10
42.5353394446
 20
51.6427889475
  0
VERTEX
  8
0
 62
7
  6
CONTINUOUS
 10
42.3690103787
 20
51.6951878784
  0
VERTEX
  8
0
 62
7
  6
CONTINUOUS
 10
42.2244356168
 20
51.7570647623
  0
VERTEX
  8
0
 62
7
  6
CONTINUOUS
 10
42.1031505581
 20
51.8274397001
  0
VERTEX
  8
0
 62
7
  6
CONTINUOUS
 10
42.0050337473
 20
51.905844738
  0
VERTEX
  8
0
 62
7
  6
CONTINUOUS
 10
41.9298155851
 20
51.9927461562
  0
VERTEX
  8
0
 62
7
  6
CONTINUOUS
 10
41.8801403826
 20
52.0858031437
  0
VERTEX
  8
0
 62
7
  6
CONTINUOUS
 10
41.857196893
 20
52.1831051245
  0
VERTEX
  8
0
 62
7
  6
CONTINUOUS
 10
41.8619943509
 20
52.2834862385
  0
SEQEND
  0
POLYLINE
  8
0
 62
7
  6
CONTINUOUS
 66
1
 70
0
  0
VERTEX
  8
0
 62
7
  6
CONTINUOUS
 10
43.709839512
 20
56.9334862385
  0
VERTEX
  8
0
 62
7
  6
CONTINUOUS
 10
43.6137495851
 20
56.9214919895
  0
VERTEX
  8
0
 62
7
  6
CONTINUOUS
 10
43.5140195423
 20
56.8836557998
  0
VERTEX
  8
0
 62
7
  6
CONTINUOUS
 10
43.4122220284
 20
56.818305455
  0
VERTEX
  8
0
 62
7
  6
CONTINUOUS
 10
43.3113447505
 20
56.7268035545
  0
VERTEX
  8
0
 62
7
  6
CONTINUOUS
 10
43.212420915
 20
56.6110796741
  0
VERTEX
  8
0
 62
7
  6
CONTINUOUS
 10
43.115471508
 20
56.4725176915
  0
VERTEX
  8
0
 62
7
  6
CONTINUOUS
 10
43.0200837546
 20
56.311688283
  0
VERTEX
  8
0
 62
7
  6
CONTINUOUS
 10
42.9257728927
 20
56.1285510147
  0
VERTEX
  8
0
 62
7
  6
CONTINUOUS
 10
42.8320852691
 20
55.9226095702
  0
VERTEX
  8
0
 62
7
  6
CONTINUOUS
 10
42.7385900556
 20
55.6929290372
  0
VERTEX
  8
0
 62
7
  6
CONTINUOUS
 10
42.6449612556
 20
55.4383894263
  0
VERTEX
  8
0
 62
7
  6
CONTINUOUS
 10
42.5508614172
 20
55.1574454384
  0
VERTEX
  8
0
 62
7
  6
CONTINUOUS
 10
42.4560649031
 20
54.848508476
  0
VERTEX
  8
0
 62
7
  6
CONTINUOUS
 10
42.3603264499
 20
54.5095925723
  0
VERTEX
  8
0
 62
7
  6
CONTINUOUS
 10
42.2634759279
 20
54.1386350892
  0
VERTEX
  8
0
 62
7
  6
CONTINUOUS
 10
42.1653372074
 20
53.7332278286
  0
VERTEX
  8
0
 62
7
  6
CONTINUOUS
 10
42.0657874958
 20
53.2908451831
  0
VERTEX
  8
0
 62
7
  6
CONTINUOUS
 10
41.9646973266
 20
52.8085925194
  0
VERTEX
  8
0
 62
7
  6
CONTINUOUS
 10
41.8619943509
 20
52.2834862385
  0
SEQEND
  0
POLYLINE
  8
0
 62
7
  6
CONTINUOUS
 66
1
 70
0
  0
VERTEX
  8
0
 62
7
  6
CONTINUOUS
 10
62.339839512
 20
59.5454862385
  0
VERTEX
  8
0
 62
7
  6
CONTINUOUS
 10
61.9320601085
 20
59.5174680955
  0
VERTEX
  8
0
 62
7
  6
CONTINUOUS
 10
61.5291002582
 20
59.4336798024
  0
VERTEX
  8
0
 62
7
  6
CONTINUOUS
 10
61.1439519636
 20
59.2968228176
  0
SEQEND
  0
LINE
  8
0
 62
7
  6
CONTINUOUS
 10
63.959839512
 20
58.8454862385
 11
64.759839512
 21
58.8454862385
  0
LINE
  8
0
 62
7
  6
CONTINUOUS
 10
53.9260685587
 20
59.1934862385
 11
40.1598687585
 21
59.1934862385
  0
LINE
  8
0
 62
7
  6
CONTINUOUS
 10
60.6929941804
 20
59.5454862385
 11
72.959839512
 21
59.5454862385
  0
LINE
  8
0
 62
7
  6
CONTINUOUS
 10
49.159839512
 20
59.8934862385
 11
48.359839512
 21
59.8934862385
  0
LINE
  8
0
 62
7
  6
CONTINUOUS
 10
63.6776555496
 20
63.4334862385
 11
72.959839512
 21
63.4334862385
  0
POLYLINE
  8
0
 62
7
  6
CONTINUOUS
 66
1
 70
0
  0
VERTEX
  8
0
 62
7
  6
CONTINUOUS
 10
55.1960200271
 20
56.9334883304
  0
VERTEX
  8
0
 62
7
  6
CONTINUOUS
 10
55.2206107091
 20
56.9310235486
  0
VERTEX
  8
0
 62
7
  6
CONTINUOUS
 10
55.2416821519
 20
56.922785951
  0
VERTEX
  8
0
 62
7
  6
CONTINUOUS
 10
55.2579536492
 20
56.9073500165
  0
VERTEX
  8
0
 62
7
  6
CONTINUOUS
 10
55.2673035379
 20
56.8856222126
  0
SEQEND
  0
LINE
  8
0
 62
7
  6
CONTINUOUS
 10
49.159839512
 20
66.7834862385
 11
48.359839512
 21
66.7834862385
  0
LINE
  8
0
 62
7
  6
CONTINUOUS
 10
59.1936104654
 20
67.1334862385
 11
63.359839512
 21
67.1334862385
  0
LINE
  8
0
 62
7
  6
CONTINUOUS
 10
40.159839512
 20
67.4834862385
 11
53.928538353
 21
67.4834862385
  0
LINE
  8
0
 62
7
  6
CONTINUOUS
 10
53.9273034558
 20
73.4834862385
 11
40.1598687585
 21
73.4834862385
  0
LINE
  8
0
 62
7
  6
CONTINUOUS
 10
59.1923755682
 20
73.8334862385
 11
72.959839512
 21
73.8334862385
  0
LINE
  8
0
 62
7
  6
CONTINUOUS
 10
72.959839512
 20
79.8334862385
 11
59.1923755682
 21
79.8334862385
  0
LINE
  8
0
 62
7
  6
CONTINUOUS
 10
40.159839512
 20
80.1834862385
 11
53.9273034558
 21
80.1834862385
  0
LINE
  8
0
 62
7
  6
CONTINUOUS
 10
55.2884570631
 20
226.4112075646
 11
55.1871791351
 21
226.3291943156
  0
LINE
  8
0
 62
7
  6
CONTINUOUS
 10
57.831221961
 20
225.7037649124
 11
57.9349696833
 21
225.7877781614
  0
LINE
  8
0
 62
7
  6
CONTINUOUS
 10
53.9273034558
 20
86.1834862385
 11
40.1598687585
 21
86.1834862385
  0
LINE
  8
0
 62
7
  6
CONTINUOUS
 10
59.1923755682
 20
86.5334862385
 11
72.959839512
 21
86.5334862385
  0
LINE
  8
0
 62
7
  6
CONTINUOUS
 10
55.1871791351
 20
67.0377781614
 11
55.2884570631
 21
66.9557649124
  0
LINE
  8
0
 62
7
  6
CONTINUOUS
 10
57.9349696833
 20
67.5791943156
 11
57.831221961
 21
67.6632075646
  0
POLYLINE
  8
0
 62
7
  6
CONTINUOUS
 66
1
 70
0
  0
VERTEX
  8
0
 62
7
  6
CONTINUOUS
 10
55.398974567
 20
236.7090146694
  0
VERTEX
  8
0
 62
7
  6
CONTINUOUS
 10
55.3406890393
 20
236.6337968908
  0
VERTEX
  8
0
 62
7
  6
CONTINUOUS
 10
55.295485153
 20
236.5574526734
  0
VERTEX
  8
0
 62
7
  6
CONTINUOUS
 10
55.2672975445
 20
236.4813415024
  0
SEQEND
  0
LINE
  8
0
 62
7
  6
CONTINUOUS
 10
55.2884570631
 20
213.7122075646
 11
55.1859442379
 21
213.6291943156
  0
LINE
  8
0
 62
7
  6
CONTINUOUS
 10
72.959839512
 20
92.5334862385
 11
59.1923755682
 21
92.5334862385
  0
LINE
  8
0
 62
7
  6
CONTINUOUS
 10
40.159839512
 20
92.8834862385
 11
53.9273034558
 21
92.8834862385
  0
LINE
  8
0
 62
7
  6
CONTINUOUS
 10
55.1859442379
 20
79.7377781614
 11
55.2884570631
 21
79.6547649124
  0
LINE
  8
0
 62
7
  6
CONTINUOUS
 10
57.831221961
 20
213.0047649124
 11
57.9337347861
 21
213.0877781614
  0
LINE
  8
0
 62
7
  6
CONTINUOUS
 10
53.9273034558
 20
98.8834862385
 11
40.1598687585
 21
98.8834862385
  0
LINE
  8
0
 62
7
  6
CONTINUOUS
 10
59.1923755682
 20
99.2334862385
 11
72.959839512
 21
99.2334862385
  0
LINE
  8
0
 62
7
  6
CONTINUOUS
 10
57.9337347861
 20
80.2791943156
 11
57.831221961
 21
80.3622075646
  0
LINE
  8
0
 62
7
  6
CONTINUOUS
 10
55.2884570631
 20
201.0122075646
 11
55.1859442379
 21
200.9291943156
  0
LINE
  8
0
 62
7
  6
CONTINUOUS
 10
57.831221961
 20
200.3047649124
 11
57.9337347861
 21
200.3877781614
  0
LINE
  8
0
 62
7
  6
CONTINUOUS
 10
72.959839512
 20
105.2334862385
 11
59.1923755682
 21
105.2334862385
  0
LINE
  8
0
 62
7
  6
CONTINUOUS
 10
40.159839512
 20
105.5834862385
 11
53.9273034558
 21
105.5834862385
  0
LINE
  8
0
 62
7
  6
CONTINUOUS
 10
55.1859442379
 20
92.4377781614
 11
55.2884570631
 21
92.3547649124
  0
LINE
  8
0
 62
7
  6
CONTINUOUS
 10
57.9337347861
 20
92.9791943156
 11
57.831221961
 21
93.0622075646
  0
POLYLINE
  8
0
 62
7
  6
CONTINUOUS
 66
1
 70
0
  0
VERTEX
  8
0
 62
7
  6
CONTINUOUS
 10
55.2672975445
 20
236.4813415024
  0
VERTEX
  8
0
 62
7
  6
CONTINUOUS
 10
55.2582158656
 20
236.4600185993
  0
VERTEX
  8
0
 62
7
  6
CONTINUOUS
 10
55.2421348489
 20
236.4444725981
  0
VERTEX
  8
0
 62
7
  6
CONTINUOUS
 10
55.2207217521
 20
236.4359775001
  0
VERTEX
  8
0
 62
7
  6
CONTINUOUS
 10
55.1960347476
 20
236.4334862385
  0
SEQEND
  0
LINE
  8
0
 62
7
  6
CONTINUOUS
 10
55.2884570631
 20
188.3122075646
 11
55.1859442379
 21
188.2291943156
  0
LINE
  8
0
 62
7
  6
CONTINUOUS
 10
53.9273034558
 20
111.5834862385
 11
40.1598687585
 21
111.5834862385
  0
LINE
  8
0
 62
7
  6
CONTINUOUS
 10
59.1923755682
 20
111.9334862385
 11
72.959839512
 21
111.9334862385
  0
LINE
  8
0
 62
7
  6
CONTINUOUS
 10
55.1859442379
 20
105.1377781614
 11
55.2884570631
 21
105.0547649124
  0
POLYLINE
  8
0
 62
7
  6
CONTINUOUS
 66
1
 70
0
  0
VERTEX
  8
0
 62
7
  6
CONTINUOUS
 10
55.2673035379
 20
56.8856222126
  0
VERTEX
  8
0
 62
7
  6
CONTINUOUS
 10
55.2953836863
 20
56.809727199
  0
VERTEX
  8
0
 62
7
  6
CONTINUOUS
 10
55.3403909308
 20
56.7336102647
  0
VERTEX
  8
0
 62
7
  6
CONTINUOUS
 10
55.398974567
 20
56.6579578076
  0
SEQEND
  0
LINE
  8
0
 62
7
  6
CONTINUOUS
 10
57.831221961
 20
187.6047649124
 11
57.9337347861
 21
187.6877781614
  0
LINE
  8
0
 62
7
  6
CONTINUOUS
 10
72.959839512
 20
117.9334862385
 11
59.1923755682
 21
117.9334862385
  0
LINE
  8
0
 62
7
  6
CONTINUOUS
 10
40.159839512
 20
118.2834862385
 11
53.9273034558
 21
118.2834862385
  0
LINE
  8
0
 62
7
  6
CONTINUOUS
 10
57.9337347861
 20
105.6791943156
 11
57.831221961
 21
105.7622075646
  0
LINE
  8
0
 62
7
  6
CONTINUOUS
 10
55.2884570631
 20
175.6122075646
 11
55.1859442379
 21
175.5291943156
  0
LINE
  8
0
 62
7
  6
CONTINUOUS
 10
57.831221961
 20
174.9047649124
 11
57.9337347861
 21
174.9877781614
  0
LINE
  8
0
 62
7
  6
CONTINUOUS
 10
53.9273034558
 20
124.2834862385
 11
40.1598687585
 21
124.2834862385
  0
LINE
  8
0
 62
7
  6
CONTINUOUS
 10
59.1923755682
 20
124.6334862385
 11
72.959839512
 21
124.6334862385
  0
LINE
  8
0
 62
7
  6
CONTINUOUS
 10
55.1859442379
 20
117.8377781614
 11
55.2884570631
 21
117.7547649124
  0
LINE
  8
0
 62
7
  6
CONTINUOUS
 10
57.9337347861
 20
118.3791943156
 11
57.831221961
 21
118.4622075646
  0
LINE
  8
2_FEATURE
 62
7
  6
CONTINUOUS
 10
39.309839512
 20
241.0834862385
 11
39.309839512
 21
235.0234862385
  0
LINE
  8
2_FEATURE
 62
7
  6
CONTINUOUS
 10
39.309839512
 20
225.0334862385
 11
39.309839512
 21
220.7334862385
  0
LINE
  8
2_FEATURE
 62
7
  6
CONTINUOUS
 10
39.309839512
 20
212.3334862385
 11
39.309839512
 21
208.0334862385
  0
LINE
  8
2_FEATURE
 62
7
  6
CONTINUOUS
 10
39.309839512
 20
199.6334862385
 11
39.309839512
 21
195.3334862385
  0
LINE
  8
2_FEATURE
 62
7
  6
CONTINUOUS
 10
39.309839512
 20
186.9334862385
 11
39.309839512
 21
182.6334862385
  0
LINE
  8
2_FEATURE
 62
7
  6
CONTINUOUS
 10
39.309839512
 20
174.2334862385
 11
39.309839512
 21
169.9334862385
  0
LINE
  8
2_FEATURE
 62
7
  6
CONTINUOUS
 10
39.309839512
 20
161.5334862385
 11
39.309839512
 21
157.2334862385
  0
LINE
  8
2_FEATURE
 62
7
  6
CONTINUOUS
 10
39.309839512
 20
148.8334862385
 11
39.309839512
 21
144.5334862385
  0
LINE
  8
2_FEATURE
 62
7
  6
CONTINUOUS
 10
39.309839512
 20
136.1334862385
 11
39.309839512
 21
131.8334862385
  0
LINE
  8
2_FEATURE
 62
7
  6
CONTINUOUS
 10
39.309839512
 20
123.4334862385
 11
39.309839512
 21
119.1334862385
  0
LINE
  8
2_FEATURE
 62
7
  6
CONTINUOUS
 10
39.309839512
 20
110.7334862385
 11
39.309839512
 21
106.4334862385
  0
LINE
  8
2_FEATURE
 62
7
  6
CONTINUOUS
 10
39.309839512
 20
98.0334862385
 11
39.309839512
 21
93.7334862385
  0
LINE
  8
2_FEATURE
 62
7
  6
CONTINUOUS
 10
39.309839512
 20
85.3334862385
 11
39.309839512
 21
81.0334862385
  0
LINE
  8
2_FEATURE
 62
7
  6
CONTINUOUS
 10
39.309839512
 20
72.6334862385
 11
39.309839512
 21
68.3334862385
  0
LINE
  8
2_FEATURE
 62
7
  6
CONTINUOUS
 10
39.309839512
 20
58.3434862385
 11
39.309839512
 21
52.2834862385
  0
LINE
  8
DEFAULT_1
 62
2
  6
CENTER
 10
43.859839512
 20
49.4334862385
 11
43.859839512
 21
243.9334862385
  0
POLYLINE
  8
0
 62
7
  6
CONTINUOUS
 66
1
 70
0
  0
VERTEX
  8
0
 62
7
  6
CONTINUOUS
 10
56.7876846732
 20
241.0834862385
  0
VERTEX
  8
0
 62
7
  6
CONTINUOUS
 10
56.6673943046
 20
240.4720435284
  0
VERTEX
  8
0
 62
7
  6
CONTINUOUS
 10
56.5474908288
 20
239.910676143
  0
VERTEX
  8
0
 62
7
  6
CONTINUOUS
 10
56.4277150691
 20
239.3961534674
  0
VERTEX
  8
0
 62
7
  6
CONTINUOUS
 10
56.3077232596
 20
238.9255518819
  0
VERTEX
  8
0
 62
7
  6
CONTINUOUS
 10
56.1870747923
 20
238.496307415
  0
VERTEX
  8
0
 62
7
  6
CONTINUOUS
 10
56.0651955509
 20
238.1062267461
  0
VERTEX
  8
0
 62
7
  6
CONTINUOUS
 10
55.9413300267
 20
237.7535552387
  0
VERTEX
  8
0
 62
7
  6
CONTINUOUS
 10
55.8144651604
 20
237.4370963388
  0
VERTEX
  8
0
 62
7
  6
CONTINUOUS
 10
55.6832075685
 20
237.1564326055
  0
VERTEX
  8
0
 62
7
  6
CONTINUOUS
 10
55.545621804
 20
236.9124156525
  0
VERTEX
  8
0
 62
7
  6
CONTINUOUS
 10
55.398974567
 20
236.7090146694
  0
SEQEND
  0
LINE
  8
0
 62
7
  6
CONTINUOUS
 10
55.2884570631
 20
162.9122075646
 11
55.1859442379
 21
162.8291943156
  0
LINE
  8
0
 62
7
  6
CONTINUOUS
 10
72.959839512
 20
130.6334862385
 11
59.1923755683
 21
130.6334862385
  0
LINE
  8
0
 62
7
  6
CONTINUOUS
 10
40.159839512
 20
130.9834862385
 11
53.9273034558
 21
130.9834862385
  0
LINE
  8
0
 62
7
  6
CONTINUOUS
 10
55.1859442379
 20
130.5377781614
 11
55.2884570631
 21
130.4547649124
  0
POLYLINE
  8
0
 62
7
  6
CONTINUOUS
 66
1
 70
0
  0
VERTEX
  8
0
 62
7
  6
CONTINUOUS
 10
56.7876846732
 20
52.2834862385
  0
VERTEX
  8
0
 62
7
  6
CONTINUOUS
 10
56.6673943046
 20
52.8949289486
  0
VERTEX
  8
0
 62
7
  6
CONTINUOUS
 10
56.5474908288
 20
53.4562963341
  0
VERTEX
  8
0
 62
7
  6
CONTINUOUS
 10
56.4277150691
 20
53.9708190097
  0
VERTEX
  8
0
 62
7
  6
CONTINUOUS
 10
56.3077232596
 20
54.4414205952
  0
VERTEX
  8
0
 62
7
  6
CONTINUOUS
 10
56.1870747923
 20
54.870665062
  0
VERTEX
  8
0
 62
7
  6
CONTINUOUS
 10
56.0651955509
 20
55.2607457309
  0
VERTEX
  8
0
 62
7
  6
CONTINUOUS
 10
55.9413300267
 20
55.6134172384
  0
VERTEX
  8
0
 62
7
  6
CONTINUOUS
 10
55.8144651604
 20
55.9298761383
  0
VERTEX
  8
0
 62
7
  6
CONTINUOUS
 10
55.6832075685
 20
56.2105398716
  0
VERTEX
  8
0
 62
7
  6
CONTINUOUS
 10
55.545621804
 20
56.4545568246
  0
VERTEX
  8
0
 62
7
  6
CONTINUOUS
 10
55.398974567
 20
56.6579578076
  0
SEQEND
  0
POLYLINE
  8
0
 62
7
  6
CONTINUOUS
 66
1
 70
0
  0
VERTEX
  8
0
 62
7
  6
CONTINUOUS
 10
41.8619943509
 20
241.0834862385
  0
VERTEX
  8
0
 62
7
  6
CONTINUOUS
 10
41.857183694
 20
241.183726504
  0
VERTEX
  8
0
 62
7
  6
CONTINUOUS
 10
41.8799743949
 20
241.2807339063
  0
VERTEX
  8
0
 62
7
  6
CONTINUOUS
 10
41.9293979427
 20
241.3736238072
  0
VERTEX
  8
0
 62
7
  6
CONTINUOUS
 10
42.0042912481
 20
241.4604201343
  0
VERTEX
  8
0
 62
7
  6
CONTINUOUS
 10
42.1020889061
 20
241.5388110896
  0
VERTEX
  8
0
 62
7
  6
CONTINUOUS
 10
42.2231780539
 20
241.6092802535
  0
VERTEX
  8
0
 62
7
  6
CONTINUOUS
 10
42.3676333215
 20
241.6712777047
  0
VERTEX
  8
0
 62
7
  6
CONTINUOUS
 10
42.5337945317
 20
241.723767553
  0
VERTEX
  8
0
 62
7
  6
CONTINUOUS
 10
42.7191655484
 20
241.7662604962
  0
VERTEX
  8
0
 62
7
  6
CONTINUOUS
 10
42.9266525645
 20
241.7996778744
  0
VERTEX
  8
0
 62
7
  6
CONTINUOUS
 10
43.1591839881
 20
241.824297789
  0
VERTEX
  8
0
 62
7
  6
CONTINUOUS
 10
43.4191430266
 20
241.8398945962
  0
VERTEX
  8
0
 62
7
  6
CONTINUOUS
 10
43.7098395103
 20
241.8455515259
  0
SEQEND
  0
LINE
  8
0
 62
7
  6
CONTINUOUS
 10
57.831221961
 20
162.2047649124
 11
57.9337347861
 21
162.2877781614
  0
LINE
  8
0
 62
7
  6
CONTINUOUS
 10
53.9273034558
 20
136.9834862385
 11
40.1598687585
 21
136.9834862385
  0
LINE
  8
0
 62
7
  6
CONTINUOUS
 10
59.1923755682
 20
137.3334862385
 11
72.959839512
 21
137.3334862385
  0
LINE
  8
0
 62
7
  6
CONTINUOUS
 10
57.9337347861
 20
131.0791943156
 11
57.831221961
 21
131.1622075646
  0
POLYLINE
  8
0
 62
7
  6
CONTINUOUS
 66
1
 70
0
  0
VERTEX
  8
0
 62
7
  6
CONTINUOUS
 10
56.7876846732
 20
52.2834862385
  0
VERTEX
  8
0
 62
7
  6
CONTINUOUS
 10
56.7932509064
 20
52.1926810749
  0
VERTEX
  8
0
 62
7
  6
CONTINUOUS
 10
56.776496202
 20
52.105606551
  0
VERTEX
  8
0
 62
7
  6
CONTINUOUS
 10
56.7384858181
 20
52.0217427728
  0
VERTEX
  8
0
 62
7
  6
CONTINUOUS
 10
56.6783720397
 20
51.9404957825
  0
VERTEX
  8
0
 62
7
  6
CONTINUOUS
 10
56.5957267607
 20
51.863467448
  0
VERTEX
  8
0
 62
7
  6
CONTINUOUS
 10
56.4918083516
 20
51.792983834
  0
VERTEX
  8
0
 62
7
  6
CONTINUOUS
 10
56.3689911284
 20
51.7307230923
  0
VERTEX
  8
0
 62
7
  6
CONTINUOUS
 10
56.2286758142
 20
51.6770095235
  0
VERTEX
  8
0
 62
7
  6
CONTINUOUS
 10
56.0697619522
 20
51.6312745928
  0
VERTEX
  8
0
 62
7
  6
CONTINUOUS
 10
55.8918412898
 20
51.593491805
  0
VERTEX
  8
0
 62
7
  6
CONTINUOUS
 10
55.6929655962
 20
51.5634334213
  0
VERTEX
  8
0
 62
7
  6
CONTINUOUS
 10
55.4698476357
 20
51.541018847
  0
VERTEX
  8
0
 62
7
  6
CONTINUOUS
 10
55.2199234148
 20
51.5266656649
  0
VERTEX
  8
0
 62
7
  6
CONTINUOUS
 10
54.9398395133
 20
51.5214209512
  0
SEQEND
  0
LINE
  8
0
 62
7
  6
CONTINUOUS
 10
53.779839512
 20
233.8734862385
 11
53.779839512
 21
226.1834862385
  0
LINE
  8
0
 62
7
  6
CONTINUOUS
 10
53.779839512
 20
219.5834862385
 11
53.779839512
 21
213.4834862385
  0
LINE
  8
0
 62
7
  6
CONTINUOUS
 10
53.779839512
 20
206.8834862385
 11
53.779839512
 21
200.7834862385
  0
LINE
  8
0
 62
7
  6
CONTINUOUS
 10
53.779839512
 20
194.1834862385
 11
53.779839512
 21
188.0834862385
  0
LINE
  8
0
 62
7
  6
CONTINUOUS
 10
53.779839512
 20
181.4834862385
 11
53.779839512
 21
175.3834862385
  0
LINE
  8
0
 62
7
  6
CONTINUOUS
 10
53.779839512
 20
168.7834862385
 11
53.779839512
 21
162.6834862385
  0
LINE
  8
0
 62
7
  6
CONTINUOUS
 10
53.779839512
 20
156.0834862385
 11
53.779839512
 21
149.9834862385
  0
LINE
  8
0
 62
7
  6
CONTINUOUS
 10
53.779839512
 20
143.3834862385
 11
53.779839512
 21
137.2834862385
  0
LINE
  8
0
 62
7
  6
CONTINUOUS
 10
53.779839512
 20
130.6834862385
 11
53.779839512
 21
124.5834862385
  0
LINE
  8
0
 62
7
  6
CONTINUOUS
 10
53.779839512
 20
117.9834862385
 11
53.779839512
 21
111.8834862385
  0
LINE
  8
0
 62
7
  6
CONTINUOUS
 10
53.779839512
 20
105.2834862385
 11
53.779839512
 21
99.1834862385
  0
LINE
  8
0
 62
7
  6
CONTINUOUS
 10
53.779839512
 20
92.5834862385
 11
53.779839512
 21
86.4834862385
  0
LINE
  8
0
 62
7
  6
CONTINUOUS
 10
53.779839512
 20
79.8834862385
 11
53.779839512
 21
73.7834862385
  0
LINE
  8
0
 62
7
  6
CONTINUOUS
 10
53.779839512
 20
67.1834862385
 11
53.779839512
 21
59.4934862385
  0
LINE
  8
1_AXIS
 62
2
  6
CENTER
 10
56.559839512
 20
151.0834862385
 11
56.559839512
 21
148.6835862385
  0
LINE
  8
1_AXIS
 62
2
  6
CONTINUOUS
 10
56.559839512
 20
147.5634862385
 11
56.559839512
 21
145.8034862385
  0
LINE
  8
1_AXIS
 62
2
  6
CENTER
 10
56.559839512
 20
142.2834862385
 11
56.559839512
 21
144.6833862385
  0
LINE
  8
0
 62
7
  6
CONTINUOUS
 10
55.2884570631
 20
150.2122075646
 11
55.1859442379
 21
150.1291943156
  0
LINE
  8
0
 62
7
  6
CONTINUOUS
 10
57.831221961
 20
149.5047649124
 11
57.9337347861
 21
149.5877781614
  0
LINE
  8
0
 62
7
  6
CONTINUOUS
 10
49.159839512
 20
142.9834862385
 11
48.359839512
 21
142.9834862385
  0
LINE
  8
0
 62
7
  6
CONTINUOUS
 10
72.959839512
 20
143.3334862385
 11
59.1923755683
 21
143.3334862385
  0
LINE
  8
0
 62
7
  6
CONTINUOUS
 10
40.159839512
 20
143.6834862385
 11
53.9273034558
 21
143.6834862385
  0
LINE
  8
0
 62
7
  6
CONTINUOUS
 10
63.959839512
 20
144.0334862385
 11
64.759839512
 21
144.0334862385
  0
LINE
  8
1_AXIS
 62
2
  6
CENTER
 10
60.959839512
 20
146.6834862385
 11
58.559939512
 21
146.6834862385
  0
LINE
  8
1_AXIS
 62
2
  6
CONTINUOUS
 10
57.439839512
 20
146.6834862385
 11
55.679839512
 21
146.6834862385
  0
LINE
  8
1_AXIS
 62
2
  6
CENTER
 10
52.159839512
 20
146.6834862385
 11
54.559739512
 21
146.6834862385
  0
LINE
  8
0
 62
7
  6
CONTINUOUS
 10
55.1859442379
 20
143.2377781614
 11
55.2884570631
 21
143.1547649124
  0
LINE
  8
0
 62
7
  6
CONTINUOUS
 10
57.9337347861
 20
143.7791943156
 11
57.831221961
 21
143.8622075646
  0
LINE
  8
0
 62
7
  6
CONTINUOUS
 10
59.339839512
 20
239.9334862385
 11
59.339839512
 21
236.8214862385
  0
LINE
  8
0
 62
7
  6
CONTINUOUS
 10
59.339839512
 20
225.9334862385
 11
59.339839512
 21
219.8334862385
  0
LINE
  8
0
 62
7
  6
CONTINUOUS
 10
59.339839512
 20
213.2334862385
 11
59.339839512
 21
207.1334862385
  0
LINE
  8
0
 62
7
  6
CONTINUOUS
 10
59.339839512
 20
200.5334862385
 11
59.339839512
 21
194.4334862385
  0
LINE
  8
0
 62
7
  6
CONTINUOUS
 10
59.339839512
 20
187.8334862385
 11
59.339839512
 21
181.7334862385
  0
LINE
  8
0
 62
7
  6
CONTINUOUS
 10
59.339839512
 20
175.1334862385
 11
59.339839512
 21
169.0334862385
  0
LINE
  8
0
 62
7
  6
CONTINUOUS
 10
59.339839512
 20
162.4334862385
 11
59.339839512
 21
156.3334862385
  0
LINE
  8
0
 62
7
  6
CONTINUOUS
 10
59.339839512
 20
149.7334862385
 11
59.339839512
 21
143.6334862385
  0
LINE
  8
0
 62
7
  6
CONTINUOUS
 10
59.339839512
 20
137.0334862385
 11
59.339839512
 21
130.9334862385
  0
LINE
  8
0
 62
7
  6
CONTINUOUS
 10
59.339839512
 20
124.3334862385
 11
59.339839512
 21
118.2334862385
  0
LINE
  8
0
 62
7
  6
CONTINUOUS
 10
59.339839512
 20
111.6334862385
 11
59.339839512
 21
105.5334862385
  0
LINE
  8
0
 62
7
  6
CONTINUOUS
 10
59.339839512
 20
98.9334862385
 11
59.339839512
 21
92.8334862385
  0
LINE
  8
0
 62
7
  6
CONTINUOUS
 10
59.339839512
 20
86.2334862385
 11
59.339839512
 21
80.1334862385
  0
LINE
  8
0
 62
7
  6
CONTINUOUS
 10
59.339839512
 20
73.5334862385
 11
59.339839512
 21
67.4334862385
  0
LINE
  8
0
 62
7
  6
CONTINUOUS
 10
59.339839512
 20
56.5454862385
 11
59.339839512
 21
53.4334862385
  0
LINE
  8
0
 62
7
  6
CONTINUOUS
 10
55.2884570631
 20
137.5122075646
 11
55.1859442379
 21
137.4291943156
  0
LINE
  8
0
 62
7
  6
CONTINUOUS
 10
63.959839512
 20
149.3334862385
 11
64.759839512
 21
149.3334862385
  0
LINE
  8
0
 62
7
  6
CONTINUOUS
 10
53.9273034558
 20
149.6834862385
 11
40.1598687585
 21
149.6834862385
  0
LINE
  8
0
 62
7
  6
CONTINUOUS
 10
59.1923755682
 20
150.0334862385
 11
72.959839512
 21
150.0334862385
  0
LINE
  8
0
 62
7
  6
CONTINUOUS
 10
49.159839512
 20
150.3834862385
 11
48.359839512
 21
150.3834862385
  0
LINE
  8
0
 62
7
  6
CONTINUOUS
 10
55.1859442379
 20
155.9377781614
 11
55.2884570631
 21
155.8547649124
  0
LINE
  8
0
 62
7
  6
CONTINUOUS
 10
64.209839512
 20
64.2834862385
 11
64.209839512
 21
66.2834862385
  0
LINE
  8
0
 62
7
  6
CONTINUOUS
 10
64.209839512
 20
227.0834862385
 11
64.209839512
 21
229.0834862385
  0
LINE
  8
DEFAULT_1
 62
2
  6
CENTER
 10
69.259839512
 20
57.5454862385
 11
69.259839512
 21
235.8214862385
  0
LINE
  8
0
 62
7
  6
CONTINUOUS
 10
57.831221961
 20
136.8047649124
 11
57.9337347861
 21
136.8877781614
  0
LINE
  8
0
 62
7
  6
CONTINUOUS
 10
72.959839512
 20
156.0334862385
 11
59.1923755682
 21
156.0334862385
  0
LINE
  8
0
 62
7
  6
CONTINUOUS
 10
40.159839512
 20
156.3834862385
 11
53.9273034558
 21
156.3834862385
  0
LINE
  8
0
 62
7
  6
CONTINUOUS
 10
57.9337347861
 20
156.4791943156
 11
57.831221961
 21
156.5622075646
  0
LINE
  8
2_FEATURE
 62
7
  6
CONTINUOUS
 10
73.809839512
 20
232.9714862385
 11
73.809839512
 21
230.7834862385
  0
LINE
  8
2_FEATURE
 62
7
  6
CONTINUOUS
 10
73.809839512
 20
218.6834862385
 11
73.809839512
 21
214.3834862385
  0
LINE
  8
2_FEATURE
 62
7
  6
CONTINUOUS
 10
73.809839512
 20
205.9834862385
 11
73.809839512
 21
201.6834862385
  0
LINE
  8
2_FEATURE
 62
7
  6
CONTINUOUS
 10
73.809839512
 20
193.2834862385
 11
73.809839512
 21
188.9834862385
  0
LINE
  8
2_FEATURE
 62
7
  6
CONTINUOUS
 10
73.809839512
 20
180.5834862385
 11
73.809839512
 21
176.2834862385
  0
LINE
  8
2_FEATURE
 62
7
  6
CONTINUOUS
 10
73.809839512
 20
167.8834862385
 11
73.809839512
 21
163.5834862385
  0
LINE
  8
2_FEATURE
 62
7
  6
CONTINUOUS
 10
73.809839512
 20
155.1834862385
 11
73.809839512
 21
150.8834862385
  0
LINE
  8
2_FEATURE
 62
7
  6
CONTINUOUS
 10
73.809839512
 20
142.4834862385
 11
73.809839512
 21
138.1834862385
  0
LINE
  8
2_FEATURE
 62
7
  6
CONTINUOUS
 10
73.809839512
 20
129.7834862385
 11
73.809839512
 21
125.4834862385
  0
LINE
  8
2_FEATURE
 62
7
  6
CONTINUOUS
 10
73.809839512
 20
117.0834862385
 11
73.809839512
 21
112.7834862385
  0
LINE
  8
2_FEATURE
 62
7
  6
CONTINUOUS
 10
73.809839512
 20
104.3834862385
 11
73.809839512
 21
100.0834862385
  0
LINE
  8
2_FEATURE
 62
7
  6
CONTINUOUS
 10
73.809839512
 20
91.6834862385
 11
73.809839512
 21
87.3834862385
  0
LINE
  8
2_FEATURE
 62
7
  6
CONTINUOUS
 10
73.809839512
 20
78.9834862385
 11
73.809839512
 21
74.6834862385
  0
LINE
  8
2_FEATURE
 62
7
  6
CONTINUOUS
 10
73.809839512
 20
62.5834862385
 11
73.809839512
 21
60.3954862385
  0
LINE
  8
0
 62
7
  6
CONTINUOUS
 10
55.2884570631
 20
124.8122075646
 11
55.1859442379
 21
124.7291943156
  0
LINE
  8
0
 62
7
  6
CONTINUOUS
 10
57.831221961
 20
124.1047649124
 11
57.9337347861
 21
124.1877781614
  0
LINE
  8
0
 62
7
  6
CONTINUOUS
 10
53.9273034558
 20
162.3834862385
 11
40.1598687585
 21
162.3834862385
  0
LINE
  8
0
 62
7
  6
CONTINUOUS
 10
59.1923755682
 20
162.7334862385
 11
72.959839512
 21
162.7334862385
  0
LINE
  8
0
 62
7
  6
CONTINUOUS
 10
55.1859442379
 20
168.6377781614
 11
55.2884570631
 21
168.5547649124
  0
LINE
  8
0
 62
7
  6
CONTINUOUS
 10
57.9337347861
 20
169.1791943156
 11
57.831221961
 21
169.2622075646
  0
POLYLINE
  8
0
 62
7
  6
CONTINUOUS
 66
1
 70
0
  0
VERTEX
  8
0
 62
7
  6
CONTINUOUS
 10
59.4652085865
 20
57.4036802988
  0
VERTEX
  8
0
 62
7
  6
CONTINUOUS
 10
59.3714031179
 20
56.9791338763
  0
VERTEX
  8
0
 62
7
  6
CONTINUOUS
 10
59.339839512
 20
56.5454862385
  0
SEQEND
  0
LINE
  8
0
 62
7
  6
CONTINUOUS
 10
55.2884570631
 20
112.1122075646
 11
55.1859442379
 21
112.0291943156
  0
LINE
  8
0
 62
7
  6
CONTINUOUS
 10
72.959839512
 20
168.7334862385
 11
59.1923755682
 21
168.7334862385
  0
LINE
  8
0
 62
7
  6
CONTINUOUS
 10
40.159839512
 20
169.0834862385
 11
53.9273034558
 21
169.0834862385
  0
LINE
  8
0
 62
7
  6
CONTINUOUS
 10
55.1859442379
 20
181.3377781614
 11
55.2884570631
 21
181.2547649124
  0
POLYLINE
  8
0
 62
7
  6
CONTINUOUS
 66
1
 70
0
  0
VERTEX
  8
0
 62
7
  6
CONTINUOUS
 10
59.4652085865
 20
235.9632921782
  0
VERTEX
  8
0
 62
7
  6
CONTINUOUS
 10
59.3714031179
 20
236.3878386008
  0
VERTEX
  8
0
 62
7
  6
CONTINUOUS
 10
59.339839512
 20
236.8214862385
  0
SEQEND
  0
LINE
  8
0
 62
7
  6
CONTINUOUS
 10
57.831221961
 20
111.4047649124
 11
57.9337347861
 21
111.4877781614
  0
LINE
  8
0
 62
7
  6
CONTINUOUS
 10
53.9273034558
 20
175.0834862385
 11
40.1598687585
 21
175.0834862385
  0
LINE
  8
0
 62
7
  6
CONTINUOUS
 10
59.1923755682
 20
175.4334862385
 11
72.959839512
 21
175.4334862385
  0
LINE
  8
0
 62
7
  6
CONTINUOUS
 10
57.9337347861
 20
181.8791943156
 11
57.831221961
 21
181.9622075646
  0
LINE
  8
0
 62
7
  6
CONTINUOUS
 10
55.2884570631
 20
99.4122075646
 11
55.185944238
 21
99.3291943156
  0
LINE
  8
0
 62
7
  6
CONTINUOUS
 10
57.831221961
 20
98.7047649124
 11
57.9337347861
 21
98.7877781614
  0
LINE
  8
0
 62
7
  6
CONTINUOUS
 10
72.959839512
 20
181.4334862385
 11
59.1923755682
 21
181.4334862385
  0
LINE
  8
0
 62
7
  6
CONTINUOUS
 10
40.159839512
 20
181.7834862385
 11
53.9273034558
 21
181.7834862385
  0
LINE
  8
0
 62
7
  6
CONTINUOUS
 10
55.1859442379
 20
194.0377781614
 11
55.2884570631
 21
193.9547649124
  0
LINE
  8
0
 62
7
  6
CONTINUOUS
 10
57.9337347861
 20
194.5791943156
 11
57.831221961
 21
194.6622075646
  0
LINE
  8
0
 62
7
  6
CONTINUOUS
 10
55.2884570631
 20
86.7122075646
 11
55.1859442379
 21
86.6291943156
  0
LINE
  8
0
 62
7
  6
CONTINUOUS
 10
53.9273034558
 20
187.7834862385
 11
40.1598687585
 21
187.7834862385
  0
LINE
  8
0
 62
7
  6
CONTINUOUS
 10
59.1923755682
 20
188.1334862385
 11
72.959839512
 21
188.1334862385
  0
LINE
  8
0
 62
7
  6
CONTINUOUS
 10
55.1859442379
 20
206.7377781614
 11
55.2884570631
 21
206.6547649124
  0
LINE
  8
0
 62
7
  6
CONTINUOUS
 10
57.831221961
 20
86.0047649124
 11
57.9337347861
 21
86.0877781614
  0
LINE
  8
0
 62
7
  6
CONTINUOUS
 10
72.959839512
 20
194.1334862385
 11
59.1923755682
 21
194.1334862385
  0
LINE
  8
0
 62
7
  6
CONTINUOUS
 10
40.159839512
 20
194.4834862385
 11
53.9273034558
 21
194.4834862385
  0
LINE
  8
0
 62
7
  6
CONTINUOUS
 10
57.9337347861
 20
207.2791943156
 11
57.831221961
 21
207.3622075646
  0
LINE
  8
0
 62
7
  6
CONTINUOUS
 10
55.2884570631
 20
74.0122075646
 11
55.1859442379
 21
73.9291943156
  0
LINE
  8
0
 62
7
  6
CONTINUOUS
 10
57.831221961
 20
73.3047649124
 11
57.9337347861
 21
73.3877781614
  0
LINE
  8
0
 62
7
  6
CONTINUOUS
 10
53.9273034558
 20
200.4834862385
 11
40.1598687585
 21
200.4834862385
  0
LINE
  8
0
 62
7
  6
CONTINUOUS
 10
59.1923755682
 20
200.8334862385
 11
72.959839512
 21
200.8334862385
  0
LINE
  8
0
 62
7
  6
CONTINUOUS
 10
55.1859442379
 20
219.4377781614
 11
55.2884570631
 21
219.3547649124
  0
LINE
  8
0
 62
7
  6
CONTINUOUS
 10
57.9337347861
 20
219.9791943156
 11
57.831221961
 21
220.0622075646
  0
LINE
  8
0
 62
7
  6
CONTINUOUS
 10
72.959839512
 20
206.8334862385
 11
59.1923755682
 21
206.8334862385
  0
LINE
  8
0
 62
7
  6
CONTINUOUS
 10
40.159839512
 20
207.1834862385
 11
53.9273034558
 21
207.1834862385
  0
LINE
  8
0
 62
7
  6
CONTINUOUS
 10
55.2884570631
 20
59.7232075646
 11
55.1847093408
 21
59.6391943156
  0
LINE
  8
0
 62
7
  6
CONTINUOUS
 10
53.9273034558
 20
213.1834862385
 11
40.1598687585
 21
213.1834862385
  0
LINE
  8
0
 62
7
  6
CONTINUOUS
 10
59.1923755682
 20
213.5334862385
 11
72.959839512
 21
213.5334862385
  0
LINE
  8
0
 62
7
  6
CONTINUOUS
 10
55.1847093408
 20
233.7277781614
 11
55.2884570631
 21
233.6437649124
  0
LINE
  8
0
 62
7
  6
CONTINUOUS
 10
72.959839512
 20
219.5334862385
 11
59.1923755682
 21
219.5334862385
  0
LINE
  8
0
 62
7
  6
CONTINUOUS
 10
40.159839512
 20
219.8834862385
 11
53.9273034558
 21
219.8834862385
  0
POLYLINE
  8
0
 62
7
  6
CONTINUOUS
 66
1
 70
0
  0
VERTEX
  8
0
 62
7
  6
CONTINUOUS
 10
61.1439519636
 20
59.2968228176
  0
VERTEX
  8
0
 62
7
  6
CONTINUOUS
 10
60.8118870445
 20
59.1271600237
  0
VERTEX
  8
0
 62
7
  6
CONTINUOUS
 10
60.5033837963
 20
58.9176901396
  0
VERTEX
  8
0
 62
7
  6
CONTINUOUS
 10
60.2233000175
 20
58.6715229853
  0
VERTEX
  8
0
 62
7
  6
CONTINUOUS
 10
59.9758896694
 20
58.3925147285
  0
VERTEX
  8
0
 62
7
  6
CONTINUOUS
 10
59.7649968901
 20
58.0850003795
  0
VERTEX
  8
0
 62
7
  6
CONTINUOUS
 10
59.5939331821
 20
57.753654458
  0
VERTEX
  8
0
 62
7
  6
CONTINUOUS
 10
59.4652085865
 20
57.4036802988
  0
SEQEND
  0
LINE
  8
0
 62
7
  6
CONTINUOUS
 10
53.928538353
 20
225.8834862385
 11
40.1598687585
 21
225.8834862385
  0
LINE
  8
0
 62
7
  6
CONTINUOUS
 10
59.1936104654
 20
226.2334862385
 11
63.359839512
 21
226.2334862385
  0
LINE
  8
0
 62
7
  6
CONTINUOUS
 10
49.159839512
 20
226.5834862385
 11
48.359839512
 21
226.5834862385
  0
LINE
  8
0
 62
7
  6
CONTINUOUS
 10
72.9598394741
 20
229.9334862385
 11
63.6776554332
 21
229.9334862385
  0
POLYLINE
  8
0
 62
7
  6
CONTINUOUS
 66
1
 70
0
  0
VERTEX
  8
0
 62
7
  6
CONTINUOUS
 10
61.1439519636
 20
234.0701496594
  0
VERTEX
  8
0
 62
7
  6
CONTINUOUS
 10
60.8118870445
 20
234.2398124534
  0
VERTEX
  8
0
 62
7
  6
CONTINUOUS
 10
60.5033837963
 20
234.4492823375
  0
VERTEX
  8
0
 62
7
  6
CONTINUOUS
 10
60.2233000175
 20
234.6954494918
  0
VERTEX
  8
0
 62
7
  6
CONTINUOUS
 10
59.9758896694
 20
234.9744577486
  0
VERTEX
  8
0
 62
7
  6
CONTINUOUS
 10
59.7649968901
 20
235.2819720976
  0
VERTEX
  8
0
 62
7
  6
CONTINUOUS
 10
59.5939331821
 20
235.6133180191
  0
VERTEX
  8
0
 62
7
  6
CONTINUOUS
 10
59.4652085865
 20
235.9632921782
  0
SEQEND
  0
LINE
  8
0
 62
40
  6
CONTINUOUS
 10
59.339839512
 20
236.8214862385
 11
54.939839512
 21
236.6926029056
  0
LINE
  8
0
 62
7
  6
CONTINUOUS
 10
49.159839512
 20
233.4734862385
 11
48.359839512
 21
233.4734862385
  0
LINE
  8
0
 62
7
  6
CONTINUOUS
 10
72.959839512
 20
233.8214862385
 11
60.6929941793
 21
233.8214862385
  0
LINE
  8
0
 62
7
  6
CONTINUOUS
 10
40.159839512
 20
234.1734862385
 11
53.9260685587
 21
234.1734862385
  0
LINE
  8
0
 62
7
  6
CONTINUOUS
 10
63.959839512
 20
234.5214862385
 11
64.759839512
 21
234.5214862385
  0
LINE
  8
0
 62
7
  6
CONTINUOUS
 10
55.1960347476
 20
236.4334862385
 11
43.709839512
 21
236.4334862385
  0
LINE
  8
0
 62
7
  6
CONTINUOUS
 10
54.939839512
 20
241.8455515259
 11
43.7098395103
 21
241.8455515259
  0
LINE
  8
0
 62
7
  6
CONTINUOUS
 10
57.339839512
 20
241.9334862385
 11
40.1598687585
 21
241.9334862385
  0
POLYLINE
  8
0
 62
7
  6
CONTINUOUS
 66
1
 70
0
  0
VERTEX
  8
0
 62
7
  6
CONTINUOUS
 10
54.939839512
 20
241.8455515259
  0
VERTEX
  8
0
 62
7
  6
CONTINUOUS
 10
55.2368941727
 20
241.8396397669
  0
VERTEX
  8
0
 62
7
  6
CONTINUOUS
 10
55.5016968525
 20
241.8233664356
  0
VERTEX
  8
0
 62
7
  6
CONTINUOUS
 10
55.7373810045
 20
241.797754825
  0
VERTEX
  8
0
 62
7
  6
CONTINUOUS
 10
55.9464591684
 20
241.7631344402
  0
VERTEX
  8
0
 62
7
  6
CONTINUOUS
 10
56.1318989512
 20
241.7193858652
  0
VERTEX
  8
0
 62
7
  6
CONTINUOUS
 10
56.2954382371
 20
241.666275369
  0
VERTEX
  8
0
 62
7
  6
CONTINUOUS
 10
56.4374455911
 20
241.6037421643
  0
VERTEX
  8
0
 62
7
  6
CONTINUOUS
 10
56.5583707302
 20
241.5313537296
  0
VERTEX
  8
0
 62
7
  6
CONTINUOUS
 10
56.6554906619
 20
241.450564348
  0
VERTEX
  8
0
 62
7
  6
CONTINUOUS
 10
56.7267618611
 20
241.3640170664
  0
VERTEX
  8
0
 62
7
  6
CONTINUOUS
 10
56.7721312822
 20
241.2741819485
  0
VERTEX
  8
0
 62
7
  6
CONTINUOUS
 10
56.7927301265
 20
241.1811113837
  0
VERTEX
  8
0
 62
7
  6
CONTINUOUS
 10
56.7876846732
 20
241.0834862385
  0
SEQEND
  0
POLYLINE
  8
0
 62
7
  6
CONTINUOUS
 66
1
 70
0
  0
VERTEX
  8
0
 62
7
  6
CONTINUOUS
 10
62.339839512
 20
233.8214862385
  0
VERTEX
  8
0
 62
7
  6
CONTINUOUS
 10
61.9320601085
 20
233.8495043816
  0
VERTEX
  8
0
 62
7
  6
CONTINUOUS
 10
61.5291002582
 20
233.9332926747
  0
VERTEX
  8
0
 62
7
  6
CONTINUOUS
 10
61.1439519636
 20
234.0701496594
  0
SEQEND
  0
POLYLINE
  8
0
 62
7
  6
CONTINUOUS
 66
1
 70
0
  0
VERTEX
  8
0
 62
7
  6
CONTINUOUS
 10
43.709839512
 20
236.4334862385
  0
VERTEX
  8
0
 62
7
  6
CONTINUOUS
 10
43.6137495851
 20
236.4454804876
  0
VERTEX
  8
0
 62
7
  6
CONTINUOUS
 10
43.5140195423
 20
236.4833166772
  0
VERTEX
  8
0
 62
7
  6
CONTINUOUS
 10
43.4122220284
 20
236.548667022
  0
VERTEX
  8
0
 62
7
  6
CONTINUOUS
 10
43.3113447505
 20
236.6401689226
  0
VERTEX
  8
0
 62
7
  6
CONTINUOUS
 10
43.212420915
 20
236.7558928029
  0
VERTEX
  8
0
 62
7
  6
CONTINUOUS
 10
43.115471508
 20
236.8944547856
  0
VERTEX
  8
0
 62
7
  6
CONTINUOUS
 10
43.0200837546
 20
237.055284194
  0
VERTEX
  8
0
 62
7
  6
CONTINUOUS
 10
42.9257728927
 20
237.2384214623
  0
VERTEX
  8
0
 62
7
  6
CONTINUOUS
 10
42.8320852691
 20
237.4443629068
  0
VERTEX
  8
0
 62
7
  6
CONTINUOUS
 10
42.7385900556
 20
237.6740434398
  0
VERTEX
  8
0
 62
7
  6
CONTINUOUS
 10
42.6449612556
 20
237.9285830508
  0
VERTEX
  8
0
 62
7
  6
CONTINUOUS
 10
42.5508614172
 20
238.2095270387
  0
VERTEX
  8
0
 62
7
  6
CONTINUOUS
 10
42.4560649031
 20
238.518464001
  0
VERTEX
  8
0
 62
7
  6
CONTINUOUS
 10
42.3603264499
 20
238.8573799047
  0
VERTEX
  8
0
 62
7
  6
CONTINUOUS
 10
42.2634759279
 20
239.2283373878
  0
VERTEX
  8
0
 62
7
  6
CONTINUOUS
 10
42.1653372074
 20
239.6337446485
  0
VERTEX
  8
0
 62
7
  6
CONTINUOUS
 10
42.0657874958
 20
240.076127294
  0
VERTEX
  8
0
 62
7
  6
CONTINUOUS
 10
41.9646973266
 20
240.5583799576
  0
VERTEX
  8
0
 62
7
  6
CONTINUOUS
 10
41.8619943509
 20
241.0834862385
  0
SEQEND
  0
LINE
  8
0
 62
7
  6
CONTINUOUS
 10
142.1169646763
 20
51.4334862385
 11
149.2169646763
 21
51.4334862385
  0
LINE
  8
0
 62
7
  6
CONTINUOUS
 10
149.2169646763
 20
59.1934862385
 11
142.1169646763
 21
59.1934862385
  0
LINE
  8
0
 62
7
  6
CONTINUOUS
 10
145.2669646763
 20
59.8934862385
 11
146.0669646763
 21
59.8934862385
  0
LINE
  8
0
 62
7
  6
CONTINUOUS
 10
145.2669646763
 20
66.7834862385
 11
146.0669646763
 21
66.7834862385
  0
LINE
  8
0
 62
7
  6
CONTINUOUS
 10
142.1169646763
 20
67.4834862385
 11
149.2169646763
 21
67.4834862385
  0
LINE
  8
0
 62
7
  6
CONTINUOUS
 10
149.2169646763
 20
73.4834862385
 11
142.1169646763
 21
73.4834862385
  0
LINE
  8
0
 62
7
  6
CONTINUOUS
 10
142.1169646763
 20
80.1834862385
 11
149.2169646763
 21
80.1834862385
  0
LINE
  8
0
 62
7
  6
CONTINUOUS
 10
149.2169646763
 20
86.1834862385
 11
142.1169646763
 21
86.1834862385
  0
LINE
  8
0
 62
7
  6
CONTINUOUS
 10
142.1169646763
 20
92.8834862385
 11
149.2169646763
 21
92.8834862385
  0
LINE
  8
0
 62
7
  6
CONTINUOUS
 10
149.2169646763
 20
98.8834862385
 11
142.1169646763
 21
98.8834862385
  0
LINE
  8
0
 62
7
  6
CONTINUOUS
 10
142.1169646763
 20
105.5834862385
 11
149.2169646763
 21
105.5834862385
  0
POLYLINE
  8
0
 62
40
  6
CONTINUOUS
 66
1
 70
0
  0
VERTEX
  8
0
 62
40
  6
CONTINUOUS
 10
141.2669646763
 20
236.6926029056
  0
VERTEX
  8
0
 62
40
  6
CONTINUOUS
 10
141.2678804
 20
236.6952322354
  0
VERTEX
  8
0
 62
40
  6
CONTINUOUS
 10
141.2706271901
 20
236.6978604708
  0
VERTEX
  8
0
 62
40
  6
CONTINUOUS
 10
141.2752039032
 20
236.7004865177
  0
VERTEX
  8
0
 62
40
  6
CONTINUOUS
 10
141.2816086343
 20
236.7031092832
  0
VERTEX
  8
0
 62
40
  6
CONTINUOUS
 10
141.2898387176
 20
236.7057276755
  0
SEQEND
  0
LINE
  8
0
 62
7
  6
CONTINUOUS
 10
149.2169646763
 20
111.5834862385
 11
142.1169646763
 21
111.5834862385
  0
LINE
  8
0
 62
7
  6
CONTINUOUS
 10
142.1169646763
 20
118.2834862385
 11
149.2169646763
 21
118.2834862385
  0
LINE
  8
0
 62
7
  6
CONTINUOUS
 10
149.2169646763
 20
124.2834862385
 11
142.1169646763
 21
124.2834862385
  0
LINE
  8
0
 62
7
  6
CONTINUOUS
 10
141.7404590352
 20
51.5214209512
 11
141.2669646763
 21
56.9334862385
  0
LINE
  8
0
 62
7
  6
CONTINUOUS
 10
141.7404590352
 20
241.8455515259
 11
141.2669646763
 21
236.4334862385
  0
LINE
  8
0
 62
7
  6
CONTINUOUS
 10
142.1169646763
 20
130.9834862385
 11
149.2169646763
 21
130.9834862385
  0
LINE
  8
0
 62
7
  6
CONTINUOUS
 10
149.2169646763
 20
136.9834862385
 11
142.1169646763
 21
136.9834862385
  0
LINE
  8
0
 62
7
  6
CONTINUOUS
 10
141.2669646763
 20
56.9334862385
 11
141.2669646763
 21
236.4334862385
  0
LINE
  8
0
 62
4
  6
CONTINUOUS
 10
141.3336000438
 20
61.4334862385
 11
141.3336000438
 21
64.4334862385
  0
LINE
  8
DEFAULT_1
 62
2
  6
CENTER
 10
145.6669646763
 20
57.5454862385
 11
145.6669646763
 21
235.8214862385
  0
LINE
  8
0
 62
7
  6
CONTINUOUS
 10
145.2669646763
 20
142.9834862385
 11
146.0669646763
 21
142.9834862385
  0
LINE
  8
0
 62
7
  6
CONTINUOUS
 10
142.1169646763
 20
143.6834862385
 11
149.2169646763
 21
143.6834862385
  0
LINE
  8
1_AXIS
 62
2
  6
CENTER
 10
138.4169646763
 20
146.6834862385
 11
152.9169646763
 21
146.6834862385
  0
LINE
  8
2_FEATURE
 62
7
  6
CONTINUOUS
 10
150.0669646763
 20
212.3334862385
 11
150.0669646763
 21
208.0334862385
  0
LINE
  8
2_FEATURE
 62
7
  6
CONTINUOUS
 10
150.0669646763
 20
199.6334862385
 11
150.0669646763
 21
195.3334862385
  0
LINE
  8
2_FEATURE
 62
7
  6
CONTINUOUS
 10
150.0669646763
 20
186.9334862385
 11
150.0669646763
 21
182.6334862385
  0
LINE
  8
2_FEATURE
 62
7
  6
CONTINUOUS
 10
150.0669646763
 20
174.2334862385
 11
150.0669646763
 21
169.9334862385
  0
LINE
  8
2_FEATURE
 62
7
  6
CONTINUOUS
 10
150.0669646763
 20
161.5334862385
 11
150.0669646763
 21
157.2334862385
  0
LINE
  8
2_FEATURE
 62
7
  6
CONTINUOUS
 10
150.0669646763
 20
148.8334862385
 11
150.0669646763
 21
144.5334862385
  0
LINE
  8
2_FEATURE
 62
7
  6
CONTINUOUS
 10
150.0669646763
 20
136.1334862385
 11
150.0669646763
 21
131.8334862385
  0
LINE
  8
2_FEATURE
 62
7
  6
CONTINUOUS
 10
150.0669646763
 20
123.4334862385
 11
150.0669646763
 21
119.1334862385
  0
LINE
  8
0
 62
7
  6
CONTINUOUS
 10
150.0669646763
 20
236.4334862385
 11
150.0669646763
 21
56.9334862385
  0
LINE
  8
0
 62
7
  6
CONTINUOUS
 10
149.2169646763
 20
149.6834862385
 11
142.1169646763
 21
149.6834862385
  0
LINE
  8
0
 62
7
  6
CONTINUOUS
 10
145.2669646763
 20
150.3834862385
 11
146.0669646763
 21
150.3834862385
  0
LINE
  8
0
 62
7
  6
CONTINUOUS
 10
150.0669646763
 20
236.4334862385
 11
149.5934703174
 21
241.8455515259
  0
LINE
  8
0
 62
7
  6
CONTINUOUS
 10
149.5934703174
 20
51.5214209512
 11
150.0669646763
 21
56.9334862385
  0
LINE
  8
0
 62
7
  6
CONTINUOUS
 10
142.1169646763
 20
156.3834862385
 11
149.2169646763
 21
156.3834862385
  0
LINE
  8
0
 62
7
  6
CONTINUOUS
 10
149.2169646763
 20
162.3834862385
 11
142.1169646763
 21
162.3834862385
  0
POLYLINE
  8
0
 62
4
  6
CONTINUOUS
 66
1
 70
0
  0
VERTEX
  8
0
 62
4
  6
CONTINUOUS
 10
141.5760479086
 20
62.2906290446
  0
VERTEX
  8
0
 62
4
  6
CONTINUOUS
 10
141.5137245719
 20
62.1234183226
  0
VERTEX
  8
0
 62
4
  6
CONTINUOUS
 10
141.4582325493
 20
61.9538180305
  0
VERTEX
  8
0
 62
4
  6
CONTINUOUS
 10
141.4096631149
 20
61.7821071295
  0
VERTEX
  8
0
 62
4
  6
CONTINUOUS
 10
141.3680961564
 20
61.6085680522
  0
VERTEX
  8
0
 62
4
  6
CONTINUOUS
 10
141.3336000438
 20
61.4334862385
  0
SEQEND
  0
LINE
  8
0
 62
7
  6
CONTINUOUS
 10
142.1169646763
 20
169.0834862385
 11
149.2169646763
 21
169.0834862385
  0
LINE
  8
0
 62
7
  6
CONTINUOUS
 10
149.2169646763
 20
175.0834862385
 11
142.1169646763
 21
175.0834862385
  0
LINE
  8
0
 62
7
  6
CONTINUOUS
 10
142.1169646763
 20
181.7834862385
 11
149.2169646763
 21
181.7834862385
  0
LINE
  8
0
 62
7
  6
CONTINUOUS
 10
149.2169646763
 20
187.7834862385
 11
142.1169646763
 21
187.7834862385
  0
LINE
  8
0
 62
7
  6
CONTINUOUS
 10
142.1169646763
 20
194.4834862385
 11
149.2169646763
 21
194.4834862385
  0
LINE
  8
0
 62
7
  6
CONTINUOUS
 10
149.2169646763
 20
200.4834862385
 11
142.1169646763
 21
200.4834862385
  0
LINE
  8
0
 62
7
  6
CONTINUOUS
 10
142.1169646763
 20
207.1834862385
 11
149.2169646763
 21
207.1834862385
  0
LINE
  8
0
 62
7
  6
CONTINUOUS
 10
149.2169646763
 20
213.1834862385
 11
142.1169646763
 21
213.1834862385
  0
LINE
  8
0
 62
7
  6
CONTINUOUS
 10
142.1169646763
 20
219.8834862385
 11
149.2169646763
 21
219.8834862385
  0
LINE
  8
0
 62
7
  6
CONTINUOUS
 10
149.2169646763
 20
225.8834862385
 11
142.1169646763
 21
225.8834862385
  0
LINE
  8
0
 62
7
  6
CONTINUOUS
 10
145.2669646763
 20
226.5834862385
 11
146.0669646763
 21
226.5834862385
  0
LINE
  8
0
 62
7
  6
CONTINUOUS
 10
145.2669646763
 20
233.4734862385
 11
146.0669646763
 21
233.4734862385
  0
LINE
  8
0
 62
7
  6
CONTINUOUS
 10
142.1169646763
 20
234.1734862385
 11
149.2169646763
 21
234.1734862385
  0
LINE
  8
0
 62
7
  6
CONTINUOUS
 10
149.2169646763
 20
241.9334862385
 11
142.1169646763
 21
241.9334862385
  0
POLYLINE
  8
0
 62
40
  6
CONTINUOUS
 66
1
 70
0
  0
VERTEX
  8
0
 62
40
  6
CONTINUOUS
 10
150.044090635
 20
236.7057276755
  0
VERTEX
  8
0
 62
40
  6
CONTINUOUS
 10
150.0523207182
 20
236.7031092832
  0
VERTEX
  8
0
 62
40
  6
CONTINUOUS
 10
150.0587254493
 20
236.7004865177
  0
VERTEX
  8
0
 62
40
  6
CONTINUOUS
 10
150.0633021624
 20
236.6978604708
  0
VERTEX
  8
0
 62
40
  6
CONTINUOUS
 10
150.0660489525
 20
236.6952322354
  0
VERTEX
  8
0
 62
40
  6
CONTINUOUS
 10
150.0669646763
 20
236.6926029056
  0
SEQEND
  0
ARC
  8
0
 62
7
  6
CONTINUOUS
 10
43.709839512
 20
268.8917353185
 40
4.4
 50
90.0
 51
270.0
  0
ARC
  8
0
 62
7
  6
CONTINUOUS
 10
54.939839512
 20
268.8917353185
 40
4.4
 50
275.9790790722
 51
84.0209209278
  0
ARC
  8
0
 62
7
  6
CONTINUOUS
 10
69.409839512
 20
268.8917353185
 40
4.4
 50
269.9999999988
 51
90.0000000011
  0
ARC
  8
0
 62
7
  6
CONTINUOUS
 10
59.809839512
 20
268.8917353185
 40
4.4
 50
78.645269054
 51
90.0
  0
CIRCLE
  8
0
 62
7
  6
CONTINUOUS
 10
43.859839512
 20
268.8917353185
 40
2.6
  0
CIRCLE
  8
0
 62
7
  6
CONTINUOUS
 10
69.259839512
 20
268.8917353185
 40
2.6
  0
CIRCLE
  8
0
 62
7
  6
CONTINUOUS
 10
64.359839512
 20
268.8917353185
 40
1.7
  0
CIRCLE
  8
0
 62
7
  6
CONTINUOUS
 10
64.359839512
 20
268.8917353185
 40
0.4
  0
ARC
  8
0
 62
7
  6
CONTINUOUS
 10
46.5774453608
 20
65.0304685291
 40
2.5
 50
44.5239289046
 51
78.8745595634
  0
ARC
  8
0
 62
7
  6
CONTINUOUS
 10
46.5774453608
 20
61.646503948
 40
2.5
 50
281.1254404366
 51
315.4760710954
  0
ARC
  8
0
 62
7
  6
CONTINUOUS
 10
40.159839512
 20
98.0334862385
 40
0.85
 50
89.9999997861
 51
180.0
  0
ARC
  8
0
 62
7
  6
CONTINUOUS
 10
40.159839512
 20
93.7334862385
 40
0.85
 50
180.0
 51
270.0000002139
  0
ARC
  8
0
 62
7
  6
CONTINUOUS
 10
40.159839512
 20
85.3334862385
 40
0.85
 50
89.9999997861
 51
180.0
  0
ARC
  8
0
 62
7
  6
CONTINUOUS
 10
40.159839512
 20
81.0334862385
 40
0.85
 50
180.0
 51
270.0000002139
  0
ARC
  8
0
 62
7
  6
CONTINUOUS
 10
40.159839512
 20
72.6334862385
 40
0.85
 50
89.9999997861
 51
180.0
  0
ARC
  8
0
 62
7
  6
CONTINUOUS
 10
40.159839512
 20
68.3334862385
 40
0.85
 50
180.0
 51
270.0000002139
  0
ARC
  8
0
 62
7
  6
CONTINUOUS
 10
40.159839512
 20
58.3434862385
 40
0.85
 50
89.9999997861
 51
180.0
  0
ARC
  8
0
 62
7
  6
CONTINUOUS
 10
40.159839512
 20
52.2834862385
 40
0.85
 50
180.0
 51
270.0000002139
  0
ARC
  8
0
 62
7
  6
CONTINUOUS
 10
46.5774453608
 20
141.2304685291
 40
2.5
 50
44.5239289046
 51
78.8745595634
  0
ARC
  8
0
 62
7
  6
CONTINUOUS
 10
40.159839512
 20
136.1334862385
 40
0.85
 50
89.9999997861
 51
180.0
  0
ARC
  8
0
 62
7
  6
CONTINUOUS
 10
40.159839512
 20
144.5334862385
 40
0.85
 50
180.0
 51
270.0000002139
  0
ARC
  8
0
 62
7
  6
CONTINUOUS
 10
40.159839512
 20
131.8334862385
 40
0.85
 50
180.0
 51
270.0000002139
  0
ARC
  8
0
 62
7
  6
CONTINUOUS
 10
40.159839512
 20
123.4334862385
 40
0.85
 50
89.9999997861
 51
180.0
  0
ARC
  8
0
 62
7
  6
CONTINUOUS
 10
40.159839512
 20
119.1334862385
 40
0.85
 50
180.0
 51
270.0000002139
  0
ARC
  8
0
 62
7
  6
CONTINUOUS
 10
40.159839512
 20
110.7334862385
 40
0.85
 50
89.9999997861
 51
180.0
  0
ARC
  8
0
 62
7
  6
CONTINUOUS
 10
40.159839512
 20
106.4334862385
 40
0.85
 50
180.0
 51
270.0000002139
  0
ARC
  8
0
 62
7
  6
CONTINUOUS
 10
50.9422336633
 20
65.0304685291
 40
2.5
 50
101.1254404366
 51
135.4760710954
  0
ARC
  8
0
 62
7
  6
CONTINUOUS
 10
50.9422336633
 20
61.646503948
 40
2.5
 50
224.5239289046
 51
258.8745595634
  0
ARC
  8
0
 62
7
  6
CONTINUOUS
 10
53.9260685587
 20
61.1934862385
 40
2.0
 50
270.0
 51
309.0
  0
ARC
  8
0
 62
7
  6
CONTINUOUS
 10
53.928538353
 20
65.4834862385
 40
2.0
 50
51.0
 51
90.0
  0
ARC
  8
0
 62
7
  6
CONTINUOUS
 10
53.9273034558
 20
75.4834862385
 40
2.0
 50
270.0
 51
309.0
  0
ARC
  8
0
 62
7
  6
CONTINUOUS
 10
53.479839512
 20
73.7834862385
 40
0.3
 50
269.999989208
 51
360.0
  0
ARC
  8
0
 62
7
  6
CONTINUOUS
 10
53.479839512
 20
67.1834862385
 40
0.3
 50
0.0
 51
90.0000108595
  0
ARC
  8
0
 62
7
  6
CONTINUOUS
 10
53.479839512
 20
59.4934862385
 40
0.3
 50
269.9999892741
 51
360.0
  0
ARC
  8
0
 62
7
  6
CONTINUOUS
 10
53.479839512
 20
79.8834862385
 40
0.3
 50
0.0
 51
90.0000107934
  0
ARC
  8
0
 62
7
  6
CONTINUOUS
 10
53.479839512
 20
92.5834862385
 40
0.3
 50
0.0
 51
90.0000107934
  0
ARC
  8
0
 62
7
  6
CONTINUOUS
 10
53.479839512
 20
86.4834862385
 40
0.3
 50
269.999989208
 51
360.0
  0
ARC
  8
0
 62
7
  6
CONTINUOUS
 10
53.9273034558
 20
78.1834862385
 40
2.0
 50
51.0
 51
90.0
  0
ARC
  8
0
 62
7
  6
CONTINUOUS
 10
53.9273034558
 20
88.1834862385
 40
2.0
 50
270.0
 51
309.0
  0
ARC
  8
0
 62
7
  6
CONTINUOUS
 10
53.9273034558
 20
90.8834862385
 40
2.0
 50
51.0
 51
90.0
  0
ARC
  8
0
 62
7
  6
CONTINUOUS
 10
50.9422336633
 20
141.2304685291
 40
2.5
 50
101.1254404366
 51
135.4760710954
  0
ARC
  8
0
 62
7
  6
CONTINUOUS
 10
53.479839512
 20
105.2834862385
 40
0.3
 50
0.0
 51
90.0000107934
  0
ARC
  8
0
 62
7
  6
CONTINUOUS
 10
53.479839512
 20
99.1834862385
 40
0.3
 50
269.999989208
 51
360.0
  0
ARC
  8
0
 62
7
  6
CONTINUOUS
 10
53.479839512
 20
117.9834862385
 40
0.3
 50
0.0
 51
90.0000107934
  0
ARC
  8
0
 62
7
  6
CONTINUOUS
 10
53.479839512
 20
111.8834862385
 40
0.3
 50
269.999989208
 51
360.0
  0
ARC
  8
0
 62
7
  6
CONTINUOUS
 10
53.9273034558
 20
100.8834862385
 40
2.0
 50
270.0
 51
309.0
  0
ARC
  8
0
 62
7
  6
CONTINUOUS
 10
53.9273034558
 20
103.5834862385
 40
2.0
 50
51.0
 51
90.0
  0
ARC
  8
0
 62
7
  6
CONTINUOUS
 10
53.9273034558
 20
113.5834862385
 40
2.0
 50
270.0
 51
309.0
  0
ARC
  8
0
 62
7
  6
CONTINUOUS
 10
53.9273034558
 20
116.2834862385
 40
2.0
 50
51.0
 51
90.0
  0
ARC
  8
0
 62
7
  6
CONTINUOUS
 10
53.479839512
 20
130.6834862385
 40
0.3
 50
0.0
 51
90.0000107934
  0
ARC
  8
0
 62
7
  6
CONTINUOUS
 10
53.479839512
 20
124.5834862385
 40
0.3
 50
269.999989208
 51
360.0
  0
ARC
  8
0
 62
7
  6
CONTINUOUS
 10
53.479839512
 20
143.3834862385
 40
0.3
 50
0.0
 51
90.0000107934
  0
ARC
  8
0
 62
7
  6
CONTINUOUS
 10
53.479839512
 20
137.2834862385
 40
0.3
 50
269.999989208
 51
360.0
  0
ARC
  8
0
 62
7
  6
CONTINUOUS
 10
53.9273034558
 20
126.2834862385
 40
2.0
 50
270.0
 51
309.0
  0
ARC
  8
0
 62
7
  6
CONTINUOUS
 10
53.9273034558
 20
128.9834862385
 40
2.0
 50
51.0
 51
90.0
  0
ARC
  8
0
 62
7
  6
CONTINUOUS
 10
53.9273034558
 20
138.9834862385
 40
2.0
 50
270.0
 51
309.0
  0
ARC
  8
0
 62
7
  6
CONTINUOUS
 10
53.9273034558
 20
141.6834862385
 40
2.0
 50
51.0
 51
90.0
  0
ARC
  8
0
 62
7
  6
CONTINUOUS
 10
46.5774453608
 20
152.136503948
 40
2.5
 50
281.1254404366
 51
315.4760710954
  0
ARC
  8
0
 62
7
  6
CONTINUOUS
 10
40.159839512
 20
186.9334862385
 40
0.85
 50
89.9999997861
 51
180.0
  0
ARC
  8
0
 62
7
  6
CONTINUOUS
 10
40.159839512
 20
182.6334862385
 40
0.85
 50
180.0
 51
270.0000002139
  0
ARC
  8
0
 62
7
  6
CONTINUOUS
 10
40.159839512
 20
174.2334862385
 40
0.85
 50
89.9999997861
 51
180.0
  0
ARC
  8
0
 62
7
  6
CONTINUOUS
 10
40.159839512
 20
169.9334862385
 40
0.85
 50
180.0
 51
270.0000002139
  0
ARC
  8
0
 62
7
  6
CONTINUOUS
 10
40.159839512
 20
161.5334862385
 40
0.85
 50
89.9999997861
 51
180.0
  0
ARC
  8
0
 62
7
  6
CONTINUOUS
 10
40.159839512
 20
157.2334862385
 40
0.85
 50
180.0
 51
270.0000002139
  0
ARC
  8
0
 62
7
  6
CONTINUOUS
 10
40.159839512
 20
148.8334862385
 40
0.85
 50
89.9999997861
 51
180.0
  0
ARC
  8
0
 62
7
  6
CONTINUOUS
 10
46.5774453608
 20
228.336503948
 40
2.5
 50
281.1254404366
 51
315.4760710954
  0
ARC
  8
0
 62
7
  6
CONTINUOUS
 10
46.5774453608
 20
231.7204685291
 40
2.5
 50
44.5239289046
 51
78.8745595634
  0
ARC
  8
0
 62
7
  6
CONTINUOUS
 10
40.159839512
 20
241.0834862385
 40
0.85
 50
89.9999997861
 51
180.0
  0
ARC
  8
0
 62
7
  6
CONTINUOUS
 10
40.159839512
 20
235.0234862385
 40
0.85
 50
180.0
 51
270.0000002139
  0
ARC
  8
0
 62
7
  6
CONTINUOUS
 10
40.159839512
 20
225.0334862385
 40
0.85
 50
89.9999997861
 51
180.0
  0
ARC
  8
0
 62
7
  6
CONTINUOUS
 10
40.159839512
 20
220.7334862385
 40
0.85
 50
180.0
 51
270.0000002139
  0
ARC
  8
0
 62
7
  6
CONTINUOUS
 10
40.159839512
 20
212.3334862385
 40
0.85
 50
89.9999997861
 51
180.0
  0
ARC
  8
0
 62
7
  6
CONTINUOUS
 10
40.159839512
 20
208.0334862385
 40
0.85
 50
180.0
 51
270.0000002139
  0
ARC
  8
0
 62
7
  6
CONTINUOUS
 10
40.159839512
 20
199.6334862385
 40
0.85
 50
89.9999997861
 51
180.0
  0
ARC
  8
0
 62
7
  6
CONTINUOUS
 10
40.159839512
 20
195.3334862385
 40
0.85
 50
180.0
 51
270.0000002139
  0
ARC
  8
0
 62
7
  6
CONTINUOUS
 10
50.9422336633
 20
152.136503948
 40
2.5
 50
224.5239289046
 51
258.8745595634
  0
ARC
  8
0
 62
7
  6
CONTINUOUS
 10
53.479839512
 20
156.0834862385
 40
0.3
 50
0.0
 51
90.0000107934
  0
ARC
  8
0
 62
7
  6
CONTINUOUS
 10
53.479839512
 20
149.9834862385
 40
0.3
 50
269.999989208
 51
360.0
  0
ARC
  8
0
 62
7
  6
CONTINUOUS
 10
53.479839512
 20
168.7834862385
 40
0.3
 50
0.0
 51
90.0000107934
  0
ARC
  8
0
 62
7
  6
CONTINUOUS
 10
53.479839512
 20
162.6834862385
 40
0.3
 50
269.999989208
 51
360.0
  0
ARC
  8
0
 62
7
  6
CONTINUOUS
 10
53.9273034558
 20
151.6834862385
 40
2.0
 50
270.0
 51
309.0
  0
ARC
  8
0
 62
7
  6
CONTINUOUS
 10
53.9273034558
 20
154.3834862385
 40
2.0
 50
51.0
 51
90.0
  0
ARC
  8
0
 62
7
  6
CONTINUOUS
 10
53.9273034558
 20
164.3834862385
 40
2.0
 50
270.0
 51
309.0
  0
ARC
  8
0
 62
7
  6
CONTINUOUS
 10
53.9273034558
 20
167.0834862385
 40
2.0
 50
51.0
 51
90.0
  0
ARC
  8
0
 62
7
  6
CONTINUOUS
 10
53.479839512
 20
181.4834862385
 40
0.3
 50
0.0
 51
90.0000107934
  0
ARC
  8
0
 62
7
  6
CONTINUOUS
 10
53.479839512
 20
175.3834862385
 40
0.3
 50
269.999989208
 51
360.0
  0
ARC
  8
0
 62
7
  6
CONTINUOUS
 10
53.479839512
 20
194.1834862385
 40
0.3
 50
0.0
 51
90.0000107934
  0
ARC
  8
0
 62
7
  6
CONTINUOUS
 10
53.479839512
 20
188.0834862385
 40
0.3
 50
269.999989208
 51
360.0
  0
ARC
  8
0
 62
7
  6
CONTINUOUS
 10
53.9273034558
 20
177.0834862385
 40
2.0
 50
270.0
 51
309.0
  0
ARC
  8
0
 62
7
  6
CONTINUOUS
 10
53.9273034558
 20
179.7834862385
 40
2.0
 50
51.0
 51
90.0
  0
ARC
  8
0
 62
7
  6
CONTINUOUS
 10
53.9273034558
 20
189.7834862385
 40
2.0
 50
270.0
 51
309.0
  0
ARC
  8
0
 62
7
  6
CONTINUOUS
 10
53.9273034558
 20
192.4834862385
 40
2.0
 50
51.0
 51
90.0
  0
ARC
  8
0
 62
7
  6
CONTINUOUS
 10
50.9422336633
 20
228.336503948
 40
2.5
 50
224.5239289046
 51
258.8745595634
  0
ARC
  8
0
 62
7
  6
CONTINUOUS
 10
50.9422336633
 20
231.7204685291
 40
2.5
 50
101.1254404366
 51
135.4760710954
  0
ARC
  8
0
 62
7
  6
CONTINUOUS
 10
53.9273034558
 20
202.4834862385
 40
2.0
 50
270.0
 51
309.0
  0
ARC
  8
0
 62
7
  6
CONTINUOUS
 10
53.9273034558
 20
205.1834862385
 40
2.0
 50
51.0
 51
90.0
  0
ARC
  8
0
 62
7
  6
CONTINUOUS
 10
53.9273034558
 20
215.1834862385
 40
2.0
 50
270.0
 51
309.0
  0
ARC
  8
0
 62
7
  6
CONTINUOUS
 10
53.479839512
 20
213.4834862385
 40
0.3
 50
269.999989208
 51
360.0
  0
ARC
  8
0
 62
7
  6
CONTINUOUS
 10
53.479839512
 20
206.8834862385
 40
0.3
 50
0.0
 51
90.0000107934
  0
ARC
  8
0
 62
7
  6
CONTINUOUS
 10
53.479839512
 20
200.7834862385
 40
0.3
 50
269.999989208
 51
360.0
  0
ARC
  8
0
 62
7
  6
CONTINUOUS
 10
53.479839512
 20
219.5834862385
 40
0.3
 50
0.0
 51
90.0000107934
  0
ARC
  8
0
 62
7
  6
CONTINUOUS
 10
53.479839512
 20
233.8734862385
 40
0.3
 50
0.0
 51
90.0000107273
  0
ARC
  8
0
 62
7
  6
CONTINUOUS
 10
53.479839512
 20
226.1834862385
 40
0.3
 50
269.9999891419
 51
360.0
  0
ARC
  8
0
 62
7
  6
CONTINUOUS
 10
53.9273034558
 20
217.8834862385
 40
2.0
 50
51.0
 51
90.0
  0
ARC
  8
0
 62
7
  6
CONTINUOUS
 10
53.928538353
 20
227.8834862385
 40
2.0
 50
270.0
 51
309.0
  0
ARC
  8
0
 62
7
  6
CONTINUOUS
 10
53.9260685587
 20
232.1734862385
 40
2.0
 50
51.0
 51
90.0
  0
ARC
  8
0
 62
7
  6
CONTINUOUS
 10
57.339839512
 20
53.4334862385
 40
2.0
 50
270.0
 51
0.0000027254
  0
ARC
  8
0
 62
7
  6
CONTINUOUS
 10
59.1936104654
 20
69.1334862385
 40
2.0
 50
231.0
 51
270.0
  0
ARC
  8
0
 62
7
  6
CONTINUOUS
 10
59.1923755682
 20
71.8334862385
 40
2.0
 50
90.0
 51
129.0
  0
ARC
  8
0
 62
7
  6
CONTINUOUS
 10
59.639839512
 20
73.5334862385
 40
0.3
 50
90.0000000041
 51
180.0
  0
ARC
  8
0
 62
7
  6
CONTINUOUS
 10
59.639839512
 20
67.4334862385
 40
0.3
 50
180.0
 51
269.9999999959
  0
ARC
  8
0
 62
7
  6
CONTINUOUS
 10
59.1923755682
 20
81.8334862385
 40
2.0
 50
231.0
 51
270.0
  0
ARC
  8
0
 62
7
  6
CONTINUOUS
 10
59.1923755682
 20
84.5334862385
 40
2.0
 50
90.0
 51
129.0
  0
ARC
  8
0
 62
7
  6
CONTINUOUS
 10
59.1923755682
 20
94.5334862385
 40
2.0
 50
231.0
 51
270.0
  0
ARC
  8
0
 62
7
  6
CONTINUOUS
 10
59.1923755682
 20
97.2334862385
 40
2.0
 50
90.0
 51
129.0
  0
ARC
  8
0
 62
7
  6
CONTINUOUS
 10
59.639839512
 20
86.2334862385
 40
0.3
 50
90.0000000041
 51
180.0
  0
ARC
  8
0
 62
7
  6
CONTINUOUS
 10
59.639839512
 20
80.1334862385
 40
0.3
 50
180.0
 51
269.9999999959
  0
ARC
  8
0
 62
7
  6
CONTINUOUS
 10
59.639839512
 20
98.9334862385
 40
0.3
 50
90.0000000041
 51
180.0
  0
ARC
  8
0
 62
7
  6
CONTINUOUS
 10
59.639839512
 20
92.8334862385
 40
0.3
 50
180.0
 51
269.9999999959
  0
ARC
  8
0
 62
7
  6
CONTINUOUS
 10
62.1774453608
 20
57.0924685291
 40
2.5
 50
44.5239289046
 51
78.8745595634
  0
ARC
  8
0
 62
7
  6
CONTINUOUS
 10
63.359839512
 20
66.2834862385
 40
0.85
 50
0.0
 51
90.0
  0
ARC
  8
0
 62
7
  6
CONTINUOUS
 10
65.059839512
 20
64.2834862385
 40
0.85
 50
180.0
 51
270.0
  0
ARC
  8
0
 62
7
  6
CONTINUOUS
 10
59.1923755682
 20
107.2334862385
 40
2.0
 50
231.0
 51
270.0
  0
ARC
  8
0
 62
7
  6
CONTINUOUS
 10
59.1923755682
 20
109.9334862385
 40
2.0
 50
90.0
 51
129.0
  0
ARC
  8
0
 62
7
  6
CONTINUOUS
 10
59.1923755682
 20
119.9334862385
 40
2.0
 50
231.0
 51
270.0
  0
ARC
  8
0
 62
7
  6
CONTINUOUS
 10
59.1923755682
 20
122.6334862385
 40
2.0
 50
90.0
 51
129.0
  0
ARC
  8
0
 62
7
  6
CONTINUOUS
 10
59.639839512
 20
111.6334862385
 40
0.3
 50
90.0000000041
 51
180.0
  0
ARC
  8
0
 62
7
  6
CONTINUOUS
 10
59.639839512
 20
105.5334862385
 40
0.3
 50
180.0
 51
269.9999999959
  0
ARC
  8
0
 62
7
  6
CONTINUOUS
 10
59.639839512
 20
124.3334862385
 40
0.3
 50
90.0000000041
 51
180.0
  0
ARC
  8
0
 62
7
  6
CONTINUOUS
 10
59.639839512
 20
118.2334862385
 40
0.3
 50
180.0
 51
269.9999999959
  0
ARC
  8
0
 62
7
  6
CONTINUOUS
 10
59.1923755682
 20
132.6334862385
 40
2.0
 50
231.0
 51
270.0
  0
ARC
  8
0
 62
7
  6
CONTINUOUS
 10
59.1923755682
 20
135.3334862385
 40
2.0
 50
90.0
 51
129.0
  0
ARC
  8
0
 62
7
  6
CONTINUOUS
 10
59.1923755682
 20
145.3334862385
 40
2.0
 50
231.0
 51
270.0
  0
ARC
  8
0
 62
7
  6
CONTINUOUS
 10
59.639839512
 20
137.0334862385
 40
0.3
 50
90.0000000041
 51
180.0
  0
ARC
  8
0
 62
7
  6
CONTINUOUS
 10
59.639839512
 20
130.9334862385
 40
0.3
 50
180.0
 51
269.9999999959
  0
ARC
  8
0
 62
7
  6
CONTINUOUS
 10
59.639839512
 20
143.6334862385
 40
0.3
 50
180.0
 51
269.9999999959
  0
ARC
  8
0
 62
7
  6
CONTINUOUS
 10
62.1774453608
 20
145.786503948
 40
2.5
 50
281.1254404366
 51
315.4760710954
  0
ARC
  8
0
 62
7
  6
CONTINUOUS
 10
66.5422336633
 20
57.0924685291
 40
2.5
 50
101.1254404366
 51
135.4760710954
  0
ARC
  8
0
 62
7
  6
CONTINUOUS
 10
72.959839512
 20
62.5834862385
 40
0.85
 50
0.0
 51
90.0000025566
  0
ARC
  8
0
 62
7
  6
CONTINUOUS
 10
72.959839512
 20
91.6834862385
 40
0.85
 50
0.0
 51
90.0000002139
  0
ARC
  8
0
 62
7
  6
CONTINUOUS
 10
72.959839512
 20
87.3834862385
 40
0.85
 50
269.9999997861
 51
360.0
  0
ARC
  8
0
 62
7
  6
CONTINUOUS
 10
72.959839512
 20
78.9834862385
 40
0.85
 50
0.0
 51
90.0000002139
  0
ARC
  8
0
 62
7
  6
CONTINUOUS
 10
72.959839512
 20
74.6834862385
 40
0.85
 50
269.9999997861
 51
360.0
  0
ARC
  8
0
 62
7
  6
CONTINUOUS
 10
72.959839512
 20
60.3954862385
 40
0.85
 50
269.9999997861
 51
360.0
  0
ARC
  8
0
 62
7
  6
CONTINUOUS
 10
66.5422336633
 20
145.786503948
 40
2.5
 50
224.5239289046
 51
258.8745595634
  0
ARC
  8
0
 62
7
  6
CONTINUOUS
 10
72.959839512
 20
142.4834862385
 40
0.85
 50
0.0
 51
90.0000002139
  0
ARC
  8
0
 62
7
  6
CONTINUOUS
 10
72.959839512
 20
138.1834862385
 40
0.85
 50
269.9999997861
 51
360.0
  0
ARC
  8
0
 62
7
  6
CONTINUOUS
 10
72.959839512
 20
129.7834862385
 40
0.85
 50
0.0
 51
90.0000002139
  0
ARC
  8
0
 62
7
  6
CONTINUOUS
 10
72.959839512
 20
125.4834862385
 40
0.85
 50
269.9999997861
 51
360.0
  0
ARC
  8
0
 62
7
  6
CONTINUOUS
 10
72.959839512
 20
117.0834862385
 40
0.85
 50
0.0
 51
90.0000002139
  0
ARC
  8
0
 62
7
  6
CONTINUOUS
 10
72.959839512
 20
112.7834862385
 40
0.85
 50
269.9999997861
 51
360.0
  0
ARC
  8
0
 62
7
  6
CONTINUOUS
 10
72.959839512
 20
104.3834862385
 40
0.85
 50
0.0
 51
90.0000002139
  0
ARC
  8
0
 62
7
  6
CONTINUOUS
 10
72.959839512
 20
100.0834862385
 40
0.85
 50
269.9999997861
 51
360.0
  0
ARC
  8
0
 62
7
  6
CONTINUOUS
 10
59.1923755682
 20
148.0334862385
 40
2.0
 50
90.0
 51
129.0
  0
ARC
  8
0
 62
7
  6
CONTINUOUS
 10
59.1923755682
 20
158.0334862385
 40
2.0
 50
231.0
 51
270.0
  0
ARC
  8
0
 62
7
  6
CONTINUOUS
 10
59.1923755682
 20
160.7334862385
 40
2.0
 50
90.0
 51
129.0
  0
ARC
  8
0
 62
7
  6
CONTINUOUS
 10
59.639839512
 20
162.4334862385
 40
0.3
 50
90.0000000041
 51
180.0
  0
ARC
  8
0
 62
7
  6
CONTINUOUS
 10
59.639839512
 20
156.3334862385
 40
0.3
 50
180.0
 51
269.9999999959
  0
ARC
  8
0
 62
7
  6
CONTINUOUS
 10
59.639839512
 20
149.7334862385
 40
0.3
 50
90.0000000041
 51
180.0
  0
ARC
  8
0
 62
7
  6
CONTINUOUS
 10
59.1923755682
 20
170.7334862385
 40
2.0
 50
231.0
 51
270.0
  0
ARC
  8
0
 62
7
  6
CONTINUOUS
 10
59.1923755682
 20
173.4334862385
 40
2.0
 50
90.0
 51
129.0
  0
ARC
  8
0
 62
7
  6
CONTINUOUS
 10
59.1923755682
 20
183.4334862385
 40
2.0
 50
231.0
 51
270.0
  0
ARC
  8
0
 62
7
  6
CONTINUOUS
 10
59.1923755682
 20
186.1334862385
 40
2.0
 50
90.0
 51
129.0
  0
ARC
  8
0
 62
7
  6
CONTINUOUS
 10
59.639839512
 20
175.1334862385
 40
0.3
 50
90.0000000041
 51
180.0
  0
ARC
  8
0
 62
7
  6
CONTINUOUS
 10
59.639839512
 20
169.0334862385
 40
0.3
 50
180.0
 51
269.9999999959
  0
ARC
  8
0
 62
7
  6
CONTINUOUS
 10
59.639839512
 20
187.8334862385
 40
0.3
 50
90.0000000041
 51
180.0
  0
ARC
  8
0
 62
7
  6
CONTINUOUS
 10
59.639839512
 20
181.7334862385
 40
0.3
 50
180.0
 51
269.9999999959
  0
ARC
  8
0
 62
7
  6
CONTINUOUS
 10
62.1774453608
 20
147.5804685291
 40
2.5
 50
44.5239289046
 51
78.8745595634
  0
ARC
  8
0
 62
7
  6
CONTINUOUS
 10
59.1923755682
 20
196.1334862385
 40
2.0
 50
231.0
 51
270.0
  0
ARC
  8
0
 62
7
  6
CONTINUOUS
 10
59.1923755682
 20
198.8334862385
 40
2.0
 50
90.0
 51
129.0
  0
ARC
  8
0
 62
7
  6
CONTINUOUS
 10
59.1923755682
 20
208.8334862385
 40
2.0
 50
231.0
 51
270.0
  0
ARC
  8
0
 62
7
  6
CONTINUOUS
 10
59.1923755682
 20
211.5334862385
 40
2.0
 50
90.0
 51
129.0
  0
ARC
  8
0
 62
7
  6
CONTINUOUS
 10
59.639839512
 20
200.5334862385
 40
0.3
 50
90.0000000041
 51
180.0
  0
ARC
  8
0
 62
7
  6
CONTINUOUS
 10
59.639839512
 20
194.4334862385
 40
0.3
 50
180.0
 51
269.9999999959
  0
ARC
  8
0
 62
7
  6
CONTINUOUS
 10
59.639839512
 20
213.2334862385
 40
0.3
 50
90.0000000041
 51
180.0
  0
ARC
  8
0
 62
7
  6
CONTINUOUS
 10
59.639839512
 20
207.1334862385
 40
0.3
 50
180.0
 51
269.9999999959
  0
ARC
  8
0
 62
7
  6
CONTINUOUS
 10
57.339839512
 20
239.9334862385
 40
2.0
 50
359.9999971739
 51
90.0
  0
ARC
  8
0
 62
7
  6
CONTINUOUS
 10
59.1923755682
 20
221.5334862385
 40
2.0
 50
231.0
 51
270.0
  0
ARC
  8
0
 62
7
  6
CONTINUOUS
 10
59.1936104654
 20
224.2334862385
 40
2.0
 50
90.0
 51
129.0
  0
ARC
  8
0
 62
7
  6
CONTINUOUS
 10
59.639839512
 20
225.9334862385
 40
0.3
 50
90.0000000042
 51
180.0
  0
ARC
  8
0
 62
7
  6
CONTINUOUS
 10
59.639839512
 20
219.8334862385
 40
0.3
 50
180.0
 51
269.9999999959
  0
ARC
  8
0
 62
7
  6
CONTINUOUS
 10
62.1774453608
 20
236.274503948
 40
2.5
 50
281.1254404366
 51
315.4760710954
  0
ARC
  8
0
 62
7
  6
CONTINUOUS
 10
65.059839512
 20
229.0834862385
 40
0.85
 50
90.0
 51
180.0
  0
ARC
  8
0
 62
7
  6
CONTINUOUS
 10
63.359839512
 20
227.0834862385
 40
0.85
 50
270.0
 51
360.0
  0
ARC
  8
0
 62
7
  6
CONTINUOUS
 10
66.5422336633
 20
147.5804685291
 40
2.5
 50
101.1254404366
 51
135.4760710954
  0
ARC
  8
0
 62
7
  6
CONTINUOUS
 10
72.959839512
 20
193.2834862385
 40
0.85
 50
0.0
 51
90.0000002139
  0
ARC
  8
0
 62
7
  6
CONTINUOUS
 10
72.959839512
 20
188.9834862385
 40
0.85
 50
269.9999997861
 51
360.0
  0
ARC
  8
0
 62
7
  6
CONTINUOUS
 10
72.959839512
 20
180.5834862385
 40
0.85
 50
0.0
 51
90.0000002139
  0
ARC
  8
0
 62
7
  6
CONTINUOUS
 10
72.959839512
 20
176.2834862385
 40
0.85
 50
269.9999997861
 51
360.0
  0
ARC
  8
0
 62
7
  6
CONTINUOUS
 10
72.959839512
 20
167.8834862385
 40
0.85
 50
0.0
 51
90.0000002139
  0
ARC
  8
0
 62
7
  6
CONTINUOUS
 10
72.959839512
 20
163.5834862385
 40
0.85
 50
269.9999997861
 51
360.0
  0
ARC
  8
0
 62
7
  6
CONTINUOUS
 10
72.959839512
 20
155.1834862385
 40
0.85
 50
0.0
 51
90.0000002139
  0
ARC
  8
0
 62
7
  6
CONTINUOUS
 10
72.959839512
 20
150.8834862385
 40
0.85
 50
269.9999997861
 51
360.0
  0
ARC
  8
0
 62
7
  6
CONTINUOUS
 10
66.5422336633
 20
236.274503948
 40
2.5
 50
224.5239289046
 51
258.8745595634
  0
ARC
  8
0
 62
7
  6
CONTINUOUS
 10
72.959839512
 20
230.7834862385
 40
0.85
 50
269.9999974434
 51
360.0
  0
ARC
  8
0
 62
7
  6
CONTINUOUS
 10
72.959839512
 20
232.9714862385
 40
0.85
 50
0.0
 51
90.0000002139
  0
ARC
  8
0
 62
7
  6
CONTINUOUS
 10
72.959839512
 20
218.6834862385
 40
0.85
 50
0.0
 51
90.0000002139
  0
ARC
  8
0
 62
7
  6
CONTINUOUS
 10
72.959839512
 20
214.3834862385
 40
0.85
 50
269.9999997861
 51
360.0
  0
ARC
  8
0
 62
7
  6
CONTINUOUS
 10
72.959839512
 20
205.9834862385
 40
0.85
 50
0.0
 51
90.0000002139
  0
ARC
  8
0
 62
7
  6
CONTINUOUS
 10
72.959839512
 20
201.6834862385
 40
0.85
 50
269.9999997861
 51
360.0
  0
ARC
  8
0
 62
7
  6
CONTINUOUS
 10
142.1169646763
 20
52.2834862385
 40
0.85
 50
243.7078849887
 51
270.0
  0
ARC
  8
0
 62
7
  6
CONTINUOUS
 10
142.1169646763
 20
58.3434862385
 40
0.85
 50
90.0
 51
180.0
  0
ARC
  8
0
 62
7
  6
CONTINUOUS
 10
142.1169646763
 20
68.3334862385
 40
0.85
 50
180.0
 51
270.0
  0
ARC
  8
0
 62
7
  6
CONTINUOUS
 10
142.1169646763
 20
72.6334862385
 40
0.85
 50
90.0
 51
180.0
  0
ARC
  8
0
 62
7
  6
CONTINUOUS
 10
142.1169646763
 20
81.0334862385
 40
0.85
 50
180.0
 51
270.0
  0
ARC
  8
0
 62
7
  6
CONTINUOUS
 10
142.1169646763
 20
85.3334862385
 40
0.85
 50
90.0
 51
180.0
  0
ARC
  8
0
 62
7
  6
CONTINUOUS
 10
142.1169646763
 20
93.7334862385
 40
0.85
 50
180.0
 51
270.0
  0
ARC
  8
0
 62
7
  6
CONTINUOUS
 10
142.1169646763
 20
98.0334862385
 40
0.85
 50
90.0
 51
180.0
  0
ARC
  8
0
 62
7
  6
CONTINUOUS
 10
142.1169646763
 20
136.1334862385
 40
0.85
 50
90.0
 51
180.0
  0
ARC
  8
0
 62
7
  6
CONTINUOUS
 10
142.1169646763
 20
144.5334862385
 40
0.85
 50
180.0
 51
270.0
  0
ARC
  8
0
 62
7
  6
CONTINUOUS
 10
142.1169646763
 20
131.8334862385
 40
0.85
 50
180.0
 51
270.0
  0
ARC
  8
0
 62
7
  6
CONTINUOUS
 10
142.1169646763
 20
123.4334862385
 40
0.85
 50
90.0
 51
180.0
  0
ARC
  8
0
 62
7
  6
CONTINUOUS
 10
142.1169646763
 20
119.1334862385
 40
0.85
 50
180.0
 51
270.0
  0
ARC
  8
0
 62
7
  6
CONTINUOUS
 10
142.1169646763
 20
110.7334862385
 40
0.85
 50
90.0
 51
180.0
  0
ARC
  8
0
 62
7
  6
CONTINUOUS
 10
142.1169646763
 20
106.4334862385
 40
0.85
 50
180.0
 51
270.0
  0
ARC
  8
0
 62
7
  6
CONTINUOUS
 10
143.484570525
 20
65.0304685291
 40
2.5
 50
44.5239289046
 51
78.8745595634
  0
ARC
  8
0
 62
7
  6
CONTINUOUS
 10
143.484570525
 20
61.646503948
 40
2.5
 50
281.1254404366
 51
315.4760710954
  0
ARC
  8
0
 62
7
  6
CONTINUOUS
 10
143.484570525
 20
141.2304685291
 40
2.5
 50
44.5239289046
 51
78.8745595634
  0
ARC
  8
0
 62
7
  6
CONTINUOUS
 10
142.1169646763
 20
186.9334862385
 40
0.85
 50
90.0
 51
180.0
  0
ARC
  8
0
 62
7
  6
CONTINUOUS
 10
142.1169646763
 20
182.6334862385
 40
0.85
 50
180.0
 51
270.0
  0
ARC
  8
0
 62
7
  6
CONTINUOUS
 10
142.1169646763
 20
174.2334862385
 40
0.85
 50
90.0
 51
180.0
  0
ARC
  8
0
 62
7
  6
CONTINUOUS
 10
142.1169646763
 20
169.9334862385
 40
0.85
 50
180.0
 51
270.0
  0
ARC
  8
0
 62
7
  6
CONTINUOUS
 10
142.1169646763
 20
161.5334862385
 40
0.85
 50
90.0
 51
180.0
  0
ARC
  8
0
 62
7
  6
CONTINUOUS
 10
142.1169646763
 20
157.2334862385
 40
0.85
 50
180.0
 51
270.0
  0
ARC
  8
0
 62
7
  6
CONTINUOUS
 10
142.1169646763
 20
148.8334862385
 40
0.85
 50
90.0
 51
180.0
  0
ARC
  8
0
 62
7
  6
CONTINUOUS
 10
142.1169646763
 20
241.0834862385
 40
0.85
 50
90.0
 51
116.2921150113
  0
ARC
  8
0
 62
7
  6
CONTINUOUS
 10
142.1169646763
 20
235.0234862385
 40
0.85
 50
180.0
 51
270.0
  0
ARC
  8
0
 62
7
  6
CONTINUOUS
 10
142.1169646763
 20
225.0334862385
 40
0.85
 50
90.0
 51
180.0
  0
ARC
  8
0
 62
7
  6
CONTINUOUS
 10
142.1169646763
 20
220.7334862385
 40
0.85
 50
180.0
 51
270.0
  0
ARC
  8
0
 62
7
  6
CONTINUOUS
 10
142.1169646763
 20
212.3334862385
 40
0.85
 50
90.0
 51
180.0
  0
ARC
  8
0
 62
7
  6
CONTINUOUS
 10
142.1169646763
 20
208.0334862385
 40
0.85
 50
180.0
 51
270.0
  0
ARC
  8
0
 62
7
  6
CONTINUOUS
 10
142.1169646763
 20
199.6334862385
 40
0.85
 50
90.0
 51
180.0
  0
ARC
  8
0
 62
7
  6
CONTINUOUS
 10
142.1169646763
 20
195.3334862385
 40
0.85
 50
180.0
 51
270.0
  0
ARC
  8
0
 62
7
  6
CONTINUOUS
 10
143.484570525
 20
152.136503948
 40
2.5
 50
281.1254404366
 51
315.4760710954
  0
ARC
  8
0
 62
7
  6
CONTINUOUS
 10
143.484570525
 20
228.336503948
 40
2.5
 50
281.1254404366
 51
315.4760710954
  0
ARC
  8
0
 62
7
  6
CONTINUOUS
 10
143.484570525
 20
231.7204685291
 40
2.5
 50
44.5239289046
 51
78.8745595634
  0
ARC
  8
0
 62
7
  6
CONTINUOUS
 10
147.8493588275
 20
65.0304685291
 40
2.5
 50
101.1254404366
 51
135.4760710954
  0
ARC
  8
0
 62
7
  6
CONTINUOUS
 10
147.8493588275
 20
61.646503948
 40
2.5
 50
224.5239289046
 51
258.8745595634
  0
ARC
  8
0
 62
7
  6
CONTINUOUS
 10
147.8493588275
 20
141.2304685291
 40
2.5
 50
101.1254404366
 51
135.4760710954
  0
ARC
  8
0
 62
7
  6
CONTINUOUS
 10
149.2169646763
 20
52.2834862385
 40
0.85
 50
270.0
 51
296.2921150113
  0
ARC
  8
0
 62
7
  6
CONTINUOUS
 10
149.2169646763
 20
58.3434862385
 40
0.85
 50
0.0
 51
90.0
  0
ARC
  8
0
 62
7
  6
CONTINUOUS
 10
149.2169646763
 20
68.3334862385
 40
0.85
 50
270.0
 51
360.0
  0
ARC
  8
0
 62
7
  6
CONTINUOUS
 10
149.2169646763
 20
72.6334862385
 40
0.85
 50
0.0
 51
90.0
  0
ARC
  8
0
 62
7
  6
CONTINUOUS
 10
149.2169646763
 20
81.0334862385
 40
0.85
 50
270.0
 51
360.0
  0
ARC
  8
0
 62
7
  6
CONTINUOUS
 10
149.2169646763
 20
85.3334862385
 40
0.85
 50
0.0
 51
90.0
  0
ARC
  8
0
 62
7
  6
CONTINUOUS
 10
149.2169646763
 20
93.7334862385
 40
0.85
 50
270.0
 51
360.0
  0
ARC
  8
0
 62
7
  6
CONTINUOUS
 10
149.2169646763
 20
98.0334862385
 40
0.85
 50
0.0
 51
90.0
  0
ARC
  8
0
 62
7
  6
CONTINUOUS
 10
149.2169646763
 20
136.1334862385
 40
0.85
 50
0.0
 51
90.0
  0
ARC
  8
0
 62
7
  6
CONTINUOUS
 10
149.2169646763
 20
144.5334862385
 40
0.85
 50
270.0
 51
360.0
  0
ARC
  8
0
 62
7
  6
CONTINUOUS
 10
149.2169646763
 20
131.8334862385
 40
0.85
 50
270.0
 51
360.0
  0
ARC
  8
0
 62
7
  6
CONTINUOUS
 10
149.2169646763
 20
123.4334862385
 40
0.85
 50
0.0
 51
90.0
  0
ARC
  8
0
 62
7
  6
CONTINUOUS
 10
149.2169646763
 20
119.1334862385
 40
0.85
 50
270.0
 51
360.0
  0
ARC
  8
0
 62
7
  6
CONTINUOUS
 10
149.2169646763
 20
110.7334862385
 40
0.85
 50
0.0
 51
90.0
  0
ARC
  8
0
 62
7
  6
CONTINUOUS
 10
149.2169646763
 20
106.4334862385
 40
0.85
 50
270.0
 51
360.0
  0
ARC
  8
0
 62
7
  6
CONTINUOUS
 10
147.8493588275
 20
152.136503948
 40
2.5
 50
224.5239289046
 51
258.8745595634
  0
ARC
  8
0
 62
7
  6
CONTINUOUS
 10
147.8493588275
 20
228.336503948
 40
2.5
 50
224.5239289046
 51
258.8745595634
  0
ARC
  8
0
 62
7
  6
CONTINUOUS
 10
147.8493588275
 20
231.7204685291
 40
2.5
 50
101.1254404366
 51
135.4760710954
  0
ARC
  8
0
 62
7
  6
CONTINUOUS
 10
149.2169646763
 20
186.9334862385
 40
0.85
 50
0.0
 51
90.0
  0
ARC
  8
0
 62
7
  6
CONTINUOUS
 10
149.2169646763
 20
182.6334862385
 40
0.85
 50
270.0
 51
360.0
  0
ARC
  8
0
 62
7
  6
CONTINUOUS
 10
149.2169646763
 20
174.2334862385
 40
0.85
 50
0.0
 51
90.0
  0
ARC
  8
0
 62
7
  6
CONTINUOUS
 10
149.2169646763
 20
169.9334862385
 40
0.85
 50
270.0
 51
360.0
  0
ARC
  8
0
 62
7
  6
CONTINUOUS
 10
149.2169646763
 20
161.5334862385
 40
0.85
 50
0.0
 51
90.0
  0
ARC
  8
0
 62
7
  6
CONTINUOUS
 10
149.2169646763
 20
157.2334862385
 40
0.85
 50
270.0
 51
360.0
  0
ARC
  8
0
 62
7
  6
CONTINUOUS
 10
149.2169646763
 20
148.8334862385
 40
0.85
 50
0.0
 51
90.0
  0
ARC
  8
0
 62
7
  6
CONTINUOUS
 10
149.2169646763
 20
241.0834862385
 40
0.85
 50
63.7078849887
 51
90.0
  0
ARC
  8
0
 62
7
  6
CONTINUOUS
 10
149.2169646763
 20
235.0234862385
 40
0.85
 50
270.0
 51
360.0
  0
ARC
  8
0
 62
7
  6
CONTINUOUS
 10
149.2169646763
 20
225.0334862385
 40
0.85
 50
0.0
 51
90.0
  0
ARC
  8
0
 62
7
  6
CONTINUOUS
 10
149.2169646763
 20
220.7334862385
 40
0.85
 50
270.0
 51
360.0
  0
ARC
  8
0
 62
7
  6
CONTINUOUS
 10
149.2169646763
 20
212.3334862385
 40
0.85
 50
0.0
 51
90.0
  0
ARC
  8
0
 62
7
  6
CONTINUOUS
 10
149.2169646763
 20
208.0334862385
 40
0.85
 50
270.0
 51
360.0
  0
ARC
  8
0
 62
7
  6
CONTINUOUS
 10
149.2169646763
 20
199.6334862385
 40
0.85
 50
0.0
 51
90.0
  0
ARC
  8
0
 62
7
  6
CONTINUOUS
 10
149.2169646763
 20
195.3334862385
 40
0.85
 50
270.0
 51
360.0
  0
ENDSEC
  0
EOF
