  0
SECTION
  2
HEADER
  9
$EXTMAX
 10
210.0
 20
297.0
 30
0.0
  9
$EXTMIN
 10
0.0
 20
0.0
 30
0.0
  9
$LIMMIN
 10
0.0
 20
0.0
  9
$LIMMAX
 10
210.0
 20
297.0
  9
$VIEWCTR
 10
105.0
 20
148.5
  9
$VIEWSIZE
 40
297.0
  9
$CLAYER
  8
0
  9
$LTSCALE
 40
19.36
  9
$CELTYPE
  6
BYLAYER
  9
$DIMSCALE
 40
1.0
  9
$DIMASZ
 40
3.5
  9
$DIMEXO
 40
2.2
  9
$DIMDLI
 40
13.376
  9
$DIMEXE
 40
6.336
  9
$DIMCEN
 40
3.168
  9
$DIMLFAC
 40
1.0
  9
$DIMBLK
  1
_FILLED
  9
$DIMTXT
 40
3.5
  9
$PDMODE
 70
3
  9
$PDSIZE
 40
0.3125
  9
$TILEMODE
 70
1
  0
ENDSEC
  0
SECTION
  2
TABLES
  0
TABLE
  2
LTYPE
 70
6
  0
LTYPE
  2
BYBLOCK
 70
0
  3

 72
65
 73
0
 40
0.0
  0
LTYPE
  2
BYLAYER
 70
0
  3

 72
65
 73
0
 40
0.0
  0
LTYPE
  2
CONTINUOUS
 70
64
  3
Solid line
 72
65
 73
0
 40
0.0
  0
LTYPE
  2
CENTER
 70
64
  3
____ _ ____ _ ____ _ ____ _ ____ _ ____ _ ____
 72
65
 73
4
 40
0.6
 49
0.375
 49
-0.075
 49
0.075
 49
-0.075
  0
LTYPE
  2
HIDDEN
 70
64
  3
- - - - - - - - - - - - - - - - - - - -
 72
65
 73
2
 40
0.2
 49
0.1
 49
-0.1
  0
LTYPE
  2
PHANTOM
 70
64
  3
_____ _ _ _____ _ _ _____ _ _ _____
 72
65
 73
6
 40
0.8
 49
0.45
 49
-0.05
 49
0.1
 49
-0.05
 49
0.1
 49
-0.05
  0
LTYPE
  2
DOT
 70
64
  3
. . . . . . . . . . . . . . . . . . . .
 72
65
 73
2
 40
0.2
 49
0.1
 49
-0.1
  0
LTYPE
  2
DASHED
 70
64
  3
- - - - - - - - - - - - - - - - - - - -
 72
65
 73
2
 40
0.2
 49
0.1
 49
-0.1
  0
ENDTAB
  0
TABLE
  2
LAYER
 70
36
  0
LAYER
  2
0
 70
0
 62
7
  6
CONTINUOUS
  0
LAYER
  2
DEFAULT_1
 70
0
 62
7
  6
CENTER
  0
LAYER
  2
DEFAULT_2
 70
0
 62
8
  6
HIDDEN
  0
LAYER
  2
DEFAULT_3
 70
0
 62
7
  6
PHANTOM
  0
LAYER
  2
1_AXIS
 70
0
 62
7
  6
CONTINUOUS
  0
LAYER
  2
1_DATUMPLANE
 70
0
 62
7
  6
CONTINUOUS
  0
LAYER
  2
1_DATUM_PLANES
 70
0
 62
7
  6
CONTINUOUS
  0
LAYER
  2
2_FEATURE
 70
0
 62
7
  6
CONTINUOUS
  0
LAYER
  2
4_CURVE
 70
0
 62
7
  6
CONTINUOUS
  0
LAYER
  2
4_QUILT
 70
0
 62
7
  6
CONTINUOUS
  0
LAYER
  2
6_DIM
 70
0
 62
7
  6
CONTINUOUS
  0
LAYER
  2
CSYS
 70
0
 62
7
  6
CONTINUOUS
  0
LAYER
  2
SURFACE
 70
0
 62
7
  6
CONTINUOUS
  0
ENDTAB
  0
TABLE
  2
STYLE
 70
1
  0
STYLE
  2
STANDARD
 70
0
 40
0.0
 41
0.8
 50
0.0
 71
0
 42
0.2
  3
txt
  4

  0
STYLE
  2
TEXTSTYLE_1
 70
0
 40
0.0
 41
0.8
 50
0.0
 71
0
 42
0.2
  3
gdt
  4

  0
STYLE
  2
TEXTSTYLE_2
 70
0
 40
0.0
 41
0.6
 50
0.0
 71
0
 42
0.2
  3
txt
  4

  0
STYLE
  2
TEXTSTYLE_3
 70
0
 40
0.0
 41
1.0
 50
0.0
 71
0
 42
0.2
  3
ftb_____.ttf
  4

  0
STYLE
  2
TEXTSTYLE_4
 70
0
 40
0.0
 41
1.0
 50
0.0
 71
0
 42
0.2
  3
fti_____.ttf
  4

  0
STYLE
  2
TEXTSTYLE_5
 70
0
 40
0.0
 41
1.0
 50
0.0
 71
0
 42
0.2
  3
frutiger light.ttf
  4

  0
STYLE
  2
TEXTSTYLE_6
 70
0
 40
0.0
 41
0.7
 50
0.0
 71
0
 42
0.2
  3
txt
  4

  0
STYLE
  2
TEXTSTYLE_7
 70
0
 40
0.0
 41
0.4
 50
0.0
 71
0
 42
0.2
  3
txt
  4

  0
ENDTAB
  0
ENDSEC
  0
SECTION
  2
BLOCKS
  0
BLOCK
  8
0
 62
2
  6
CONTINUOUS
  2
SYMBOL_8_BL1
 70
64
 10
173.5956734183
 20
35.5937998301
  0
TEXT
  8
0
 62
7
  6
CONTINUOUS
 10
164.6539584268
 20
30.6865562072
  7
TEXTSTYLE_4
 40
1.0655737705
  1
The brand for plastic modular belts and chains
 41
1.0
 72
0
  0
LINE
  8
0
 62
7
  6
CONTINUOUS
 10
149.5737418074
 20
36.1675703219
 11
149.5737418074
 21
34.0364227809
  0
LINE
  8
0
 62
7
  6
CONTINUOUS
 10
149.8628043005
 20
31.0454914852
 11
149.8628043005
 21
31.1422825445
  0
LINE
  8
0
 62
7
  6
CONTINUOUS
 10
149.5737418074
 20
31.1100188581
 11
149.6315543091
 21
30.9164367395
  0
LINE
  8
0
 62
7
  6
CONTINUOUS
 10
150.9671844304
 20
33.9544555678
 11
150.9671844304
 21
36.1675703219
  0
LINE
  8
0
 62
7
  6
CONTINUOUS
 10
151.8862417523
 20
32.1101932727
 11
151.8862417523
 21
30.5937998301
  0
LINE
  8
0
 62
7
  6
CONTINUOUS
 10
152.1753043074
 20
30.5937998301
 11
152.1753043074
 21
31.3358647082
  0
LINE
  8
0
 62
7
  6
CONTINUOUS
 10
152.1753043074
 20
31.4649194539
 11
152.1753043074
 21
32.1101932727
  0
LINE
  8
0
 62
7
  6
CONTINUOUS
 10
149.6315543091
 20
31.3036010218
 11
149.5737418074
 21
31.1100188581
  0
LINE
  8
0
 62
7
  6
CONTINUOUS
 10
149.9784292936
 20
30.8841730531
 11
149.8628043005
 21
31.0454914852
  0
LINE
  8
0
 62
7
  6
CONTINUOUS
 10
151.0768668626
 20
31.400392081
 11
151.1346793074
 21
31.3036010218
  0
LINE
  8
0
 62
7
  6
CONTINUOUS
 10
151.4237418626
 20
31.3036010218
 11
151.3659292523
 21
31.4326557675
  0
LINE
  8
0
 62
7
  6
CONTINUOUS
 10
152.852430332
 20
36.1675703219
 11
152.852430332
 21
34.3642916334
  0
LINE
  8
0
 62
7
  6
CONTINUOUS
 10
152.852430332
 20
33.0528162235
 11
152.852430332
 21
32.3970785186
  0
LINE
  8
0
 62
7
  6
CONTINUOUS
 10
153.2159293074
 20
31.2390736489
 11
153.2159293074
 21
30.5937998301
  0
LINE
  8
0
 62
7
  6
CONTINUOUS
 10
153.5049916972
 20
30.5937998301
 11
153.5049916972
 21
31.2390736489
  0
LINE
  8
0
 62
7
  6
CONTINUOUS
 10
149.8628043005
 20
31.1422825445
 11
149.9206168074
 21
31.2713373354
  0
LINE
  8
0
 62
7
  6
CONTINUOUS
 10
149.6315543091
 20
30.9164367395
 11
149.7471793074
 21
30.7873819712
  0
LINE
  8
0
 62
7
  6
CONTINUOUS
 10
153.1581166972
 20
31.3681283946
 11
153.2159293074
 21
31.2390736489
  0
LINE
  8
0
 62
7
  6
CONTINUOUS
 10
153.9674919177
 20
30.8841730531
 11
154.0253041972
 21
30.7551182848
  0
LINE
  8
0
 62
7
  6
CONTINUOUS
 10
153.5049916972
 20
31.2390736489
 11
153.4471794177
 21
31.400392081
  0
LINE
  8
0
 62
7
  6
CONTINUOUS
 10
153.9674919177
 20
31.4326557675
 11
153.9674919177
 21
31.3681283946
  0
LINE
  8
0
 62
7
  6
CONTINUOUS
 10
153.9674919177
 20
30.9809641124
 11
153.9674919177
 21
30.8841730531
  0
LINE
  8
0
 62
7
  6
CONTINUOUS
 10
154.245872955
 20
32.3970785186
 11
154.245872955
 21
36.1675703219
  0
LINE
  8
0
 62
7
  6
CONTINUOUS
 10
154.2565543074
 20
30.8519093441
 11
154.2565543074
 21
30.9164367395
  0
LINE
  8
0
 62
7
  6
CONTINUOUS
 10
154.5737418074
 20
36.1675703219
 11
154.5737418074
 21
32.3970785186
  0
LINE
  8
0
 62
7
  6
CONTINUOUS
 10
151.3659292523
 20
30.7873819712
 11
151.4237418626
 21
30.9164367395
  0
LINE
  8
0
 62
7
  6
CONTINUOUS
 10
155.759679528
 20
30.6905909007
 11
155.7018665869
 21
30.8519093441
  0
LINE
  8
0
 62
7
  6
CONTINUOUS
 10
155.412804528
 20
31.3681283946
 11
155.412804528
 21
31.2713373354
  0
LINE
  8
0
 62
7
  6
CONTINUOUS
 10
155.412804528
 20
31.1422825445
 11
155.412804528
 21
30.9487004259
  0
LINE
  8
0
 62
7
  6
CONTINUOUS
 10
155.7018665869
 20
30.8519093441
 11
155.7018665869
 21
31.3681283946
  0
LINE
  8
0
 62
7
  6
CONTINUOUS
 10
155.9671844304
 20
32.3970785186
 11
155.9671844304
 21
34.2003572071
  0
LINE
  8
0
 62
7
  6
CONTINUOUS
 10
155.9671844304
 20
35.511832617
 11
155.9671844304
 21
36.1675703219
  0
LINE
  8
0
 62
7
  6
CONTINUOUS
 10
156.279992028
 20
32.1101932727
 11
156.279992028
 21
31.9488748406
  0
LINE
  8
0
 62
7
  6
CONTINUOUS
 10
156.279992028
 20
31.626237886
 11
156.279992028
 21
30.5937998301
  0
LINE
  8
0
 62
7
  6
CONTINUOUS
 10
156.5690540869
 20
30.5937998301
 11
156.5690540869
 21
31.626237886
  0
LINE
  8
0
 62
7
  6
CONTINUOUS
 10
156.5690540869
 20
31.9488748406
 11
156.5690540869
 21
32.1101932727
  0
LINE
  8
0
 62
7
  6
CONTINUOUS
 10
151.1346793074
 20
30.9164367395
 11
151.0768668626
 21
30.8196456577
  0
LINE
  8
0
 62
7
  6
CONTINUOUS
 10
153.4471794177
 20
31.400392081
 11
153.3893668074
 21
31.4649194539
  0
LINE
  8
0
 62
7
  6
CONTINUOUS
 10
154.3143669177
 20
30.7873819712
 11
154.2565543074
 21
30.8519093441
  0
LINE
  8
0
 62
7
  6
CONTINUOUS
 10
155.4706168074
 20
30.6583272086
 11
155.5284290869
 21
30.5937998301
  0
LINE
  8
0
 62
7
  6
CONTINUOUS
 10
155.412804528
 20
30.7551182848
 11
155.4706168074
 21
30.6583272086
  0
LINE
  8
0
 62
7
  6
CONTINUOUS
 10
155.8174918074
 20
30.5937998301
 11
155.759679528
 21
30.6905909007
  0
LINE
  8
0
 62
7
  6
CONTINUOUS
 10
155.7018665869
 20
31.3681283946
 11
155.6440543074
 21
31.4649194539
  0
LINE
  8
0
 62
7
  6
CONTINUOUS
 10
157.0315543074
 20
31.626237886
 11
157.0315543074
 21
30.5937998301
  0
LINE
  8
0
 62
7
  6
CONTINUOUS
 10
157.320617028
 20
30.5937998301
 11
157.320617028
 21
31.3358647082
  0
LINE
  8
0
 62
7
  6
CONTINUOUS
 10
157.320617028
 20
31.4649194539
 11
157.320617028
 21
31.626237886
  0
LINE
  8
0
 62
7
  6
CONTINUOUS
 10
157.852430332
 20
34.6101932727
 11
157.852430332
 21
32.3970785186
  0
LINE
  8
0
 62
7
  6
CONTINUOUS
 10
149.7471793074
 20
31.4326557675
 11
149.6315543091
 21
31.3036010218
  0
LINE
  8
0
 62
7
  6
CONTINUOUS
 10
149.9206168074
 20
31.2713373354
 11
149.9784292936
 21
31.3358647082
  0
LINE
  8
0
 62
7
  6
CONTINUOUS
 10
149.7471793074
 20
30.7873819712
 11
149.8628043005
 21
30.7228545871
  0
LINE
  8
0
 62
7
  6
CONTINUOUS
 10
150.1518667936
 20
30.7873819712
 11
149.9784292936
 21
30.8841730531
  0
LINE
  8
0
 62
7
  6
CONTINUOUS
 10
155.3549915869
 20
31.4326557675
 11
155.412804528
 21
31.3681283946
  0
LINE
  8
0
 62
7
  6
CONTINUOUS
 10
158.3034290869
 20
31.3681283946
 11
158.361242028
 21
31.2068099625
  0
LINE
  8
0
 62
7
  6
CONTINUOUS
 10
158.6503040869
 20
31.2068099625
 11
158.5924918074
 21
31.3681283946
  0
LINE
  8
0
 62
7
  6
CONTINUOUS
 10
158.361242028
 20
31.2068099625
 11
158.361242028
 21
30.5937998301
  0
LINE
  8
0
 62
7
  6
CONTINUOUS
 10
158.6503040869
 20
30.5937998301
 11
158.6503040869
 21
31.2068099625
  0
LINE
  8
0
 62
7
  6
CONTINUOUS
 10
159.1128043074
 20
31.4326557675
 11
159.1128043074
 21
31.3681283946
  0
LINE
  8
0
 62
7
  6
CONTINUOUS
 10
159.245872955
 20
32.3970785186
 11
159.245872955
 21
34.5282260596
  0
LINE
  8
0
 62
7
  6
CONTINUOUS
 10
159.5737418074
 20
36.1675703219
 11
159.5737418074
 21
32.3970785186
  0
LINE
  8
0
 62
7
  6
CONTINUOUS
 10
154.2565543074
 20
30.9164367395
 11
154.3143669177
 21
31.0132277988
  0
LINE
  8
0
 62
7
  6
CONTINUOUS
 10
149.8628043005
 20
30.7228545871
 11
150.0362418212
 21
30.6583272086
  0
LINE
  8
0
 62
7
  6
CONTINUOUS
 10
151.3659292523
 20
31.4326557675
 11
151.1924917523
 21
31.5294468267
  0
LINE
  8
0
 62
7
  6
CONTINUOUS
 10
154.0253041972
 20
30.7551182848
 11
154.1987416972
 21
30.6583272086
  0
LINE
  8
0
 62
7
  6
CONTINUOUS
 10
153.0424918074
 20
31.4326557675
 11
153.1581166972
 21
31.3681283946
  0
LINE
  8
0
 62
7
  6
CONTINUOUS
 10
153.3893668074
 20
31.4649194539
 11
153.2737419177
 21
31.5294468267
  0
LINE
  8
0
 62
7
  6
CONTINUOUS
 10
159.1128043074
 20
30.8519093441
 11
159.228429528
 21
30.7228545871
  0
LINE
  8
0
 62
7
  6
CONTINUOUS
 10
159.4596793074
 20
30.7873819712
 11
159.401867028
 21
30.8519093441
  0
LINE
  8
0
 62
7
  6
CONTINUOUS
 10
159.1128043074
 20
31.3681283946
 11
159.228429528
 21
31.2390736489
  0
LINE
  8
0
 62
7
  6
CONTINUOUS
 10
158.5924918074
 20
31.3681283946
 11
158.534679528
 21
31.4649194539
  0
LINE
  8
0
 62
7
  6
CONTINUOUS
 10
160.9628038663
 20
30.7873819712
 11
160.9628038663
 21
30.8519093441
  0
LINE
  8
0
 62
7
  6
CONTINUOUS
 10
160.9671844304
 20
32.3970785186
 11
160.9671844304
 21
36.1675703219
  0
LINE
  8
0
 62
7
  6
CONTINUOUS
 10
154.0253041972
 20
31.4971831403
 11
153.9674919177
 21
31.4326557675
  0
LINE
  8
0
 62
7
  6
CONTINUOUS
 10
150.9034292799
 20
31.4649194539
 11
151.0768668626
 21
31.400392081
  0
LINE
  8
0
 62
7
  6
CONTINUOUS
 10
155.6440543074
 20
31.4649194539
 11
155.5284290869
 21
31.5294468267
  0
LINE
  8
0
 62
7
  6
CONTINUOUS
 10
159.4596793074
 20
31.3036010218
 11
159.401867028
 21
31.3681283946
  0
LINE
  8
0
 62
7
  6
CONTINUOUS
 10
160.615929528
 20
30.9164367395
 11
160.6737418074
 21
30.8519093441
  0
LINE
  8
0
 62
7
  6
CONTINUOUS
 10
160.9628038663
 20
30.8519093441
 11
160.8471793074
 21
30.9809641124
  0
LINE
  8
0
 62
7
  6
CONTINUOUS
 10
160.615929528
 20
31.4326557675
 11
160.6737418074
 21
31.3681283946
  0
LINE
  8
0
 62
7
  6
CONTINUOUS
 10
160.9628038663
 20
31.3681283946
 11
160.8471793074
 21
31.4971831403
  0
LINE
  8
0
 62
7
  6
CONTINUOUS
 10
154.2565543074
 20
31.3681283946
 11
154.3143669177
 21
31.4326557675
  0
LINE
  8
0
 62
7
  6
CONTINUOUS
 10
154.0831168074
 20
31.1100188581
 11
153.9674919177
 21
30.9809641124
  0
LINE
  8
0
 62
7
  6
CONTINUOUS
 10
155.412804528
 20
30.9487004259
 11
155.3549915869
 21
30.8841730531
  0
LINE
  8
0
 62
7
  6
CONTINUOUS
 10
155.3549915869
 20
30.6905909007
 11
155.412804528
 21
30.7551182848
  0
LINE
  8
0
 62
7
  6
CONTINUOUS
 10
154.1987416972
 20
30.6583272086
 11
154.3143669177
 21
30.6260635193
  0
LINE
  8
0
 62
7
  6
CONTINUOUS
 10
151.1924917523
 20
31.5294468267
 11
150.9612418074
 21
31.5939741996
  0
LINE
  8
0
 62
7
  6
CONTINUOUS
 10
154.5456166972
 20
30.7228545871
 11
154.3143669177
 21
30.7873819712
  0
LINE
  8
0
 62
7
  6
CONTINUOUS
 10
153.2737419177
 20
31.5294468267
 11
153.1003044177
 21
31.5939741996
  0
LINE
  8
0
 62
7
  6
CONTINUOUS
 10
155.5284290869
 20
31.5294468267
 11
155.3549915869
 21
31.5939741996
  0
LINE
  8
0
 62
7
  6
CONTINUOUS
 10
158.187804528
 20
31.4326557675
 11
158.3034290869
 21
31.3681283946
  0
LINE
  8
0
 62
7
  6
CONTINUOUS
 10
158.534679528
 20
31.4649194539
 11
158.4190543074
 21
31.5294468267
  0
LINE
  8
0
 62
7
  6
CONTINUOUS
 10
150.0362418212
 20
30.6583272086
 11
150.2096793212
 21
30.6260635193
  0
LINE
  8
0
 62
7
  6
CONTINUOUS
 10
150.498741835
 20
30.7228545871
 11
150.1518667936
 21
30.7873819712
  0
LINE
  8
0
 62
7
  6
CONTINUOUS
 10
152.9268669177
 20
31.4649194539
 11
153.0424918074
 21
31.4326557675
  0
LINE
  8
0
 62
7
  6
CONTINUOUS
 10
155.239367028
 20
31.4649194539
 11
155.3549915869
 21
31.4326557675
  0
LINE
  8
0
 62
7
  6
CONTINUOUS
 10
159.575304528
 20
30.7551182848
 11
159.4596793074
 21
30.7873819712
  0
LINE
  8
0
 62
7
  6
CONTINUOUS
 10
158.0721793074
 20
31.4649194539
 11
158.187804528
 21
31.4326557675
  0
LINE
  8
0
 62
7
  6
CONTINUOUS
 10
159.228429528
 20
30.7228545871
 11
159.401867028
 21
30.6583272086
  0
LINE
  8
0
 62
7
  6
CONTINUOUS
 10
158.4190543074
 20
31.5294468267
 11
158.2456168074
 21
31.5939741996
  0
LINE
  8
0
 62
7
  6
CONTINUOUS
 10
159.6331168074
 20
31.2390736489
 11
159.4596793074
 21
31.3036010218
  0
LINE
  8
0
 62
7
  6
CONTINUOUS
 10
160.442492028
 20
30.9809641124
 11
160.615929528
 21
30.9164367395
  0
LINE
  8
0
 62
7
  6
CONTINUOUS
 10
160.8471793074
 20
31.4971831403
 11
160.6737418074
 21
31.5617105132
  0
LINE
  8
0
 62
7
  6
CONTINUOUS
 10
159.228429528
 20
31.2390736489
 11
159.4596793074
 21
31.1422825445
  0
LINE
  8
0
 62
7
  6
CONTINUOUS
 10
160.8471793074
 20
30.9809641124
 11
160.615929528
 21
31.0777551716
  0
LINE
  8
0
 62
7
  6
CONTINUOUS
 10
159.401867028
 20
31.3681283946
 11
159.4596793074
 21
31.4326557675
  0
LINE
  8
0
 62
7
  6
CONTINUOUS
 10
149.8628043005
 20
31.4971831403
 11
149.7471793074
 21
31.4326557675
  0
LINE
  8
0
 62
7
  6
CONTINUOUS
 10
149.9784292936
 20
31.3358647082
 11
150.1518667936
 21
31.4326557675
  0
LINE
  8
0
 62
7
  6
CONTINUOUS
 10
152.2909293626
 20
31.5294468267
 11
152.1753043074
 21
31.4649194539
  0
LINE
  8
0
 62
7
  6
CONTINUOUS
 10
152.1753043074
 20
31.3358647082
 11
152.2909293626
 21
31.400392081
  0
LINE
  8
0
 62
7
  6
CONTINUOUS
 10
151.1924917523
 20
30.6905909007
 11
151.3659292523
 21
30.7873819712
  0
LINE
  8
0
 62
7
  6
CONTINUOUS
 10
150.2096793212
 20
30.6260635193
 11
150.5565542799
 21
30.5937998301
  0
LINE
  8
0
 62
7
  6
CONTINUOUS
 10
154.3143669177
 20
30.6260635193
 11
154.5456166972
 21
30.5937998301
  0
LINE
  8
0
 62
7
  6
CONTINUOUS
 10
152.6956168074
 20
31.4971831403
 11
152.9268669177
 21
31.4649194539
  0
LINE
  8
0
 62
7
  6
CONTINUOUS
 10
155.0081169177
 20
31.4971831403
 11
155.239367028
 21
31.4649194539
  0
LINE
  8
0
 62
7
  6
CONTINUOUS
 10
159.4596793074
 20
31.1422825445
 11
160.442492028
 21
30.9809641124
  0
LINE
  8
0
 62
7
  6
CONTINUOUS
 10
160.615929528
 20
31.0777551716
 11
159.6331168074
 21
31.2390736489
  0
LINE
  8
0
 62
7
  6
CONTINUOUS
 10
153.1003044177
 20
31.5939741996
 11
152.9268669177
 21
31.626237886
  0
LINE
  8
0
 62
7
  6
CONTINUOUS
 10
159.401867028
 20
30.6583272086
 11
159.575304528
 21
30.6260635193
  0
LINE
  8
0
 62
7
  6
CONTINUOUS
 10
158.2456168074
 20
31.5939741996
 11
158.0721793074
 21
31.626237886
  0
LINE
  8
0
 62
7
  6
CONTINUOUS
 10
160.5003043074
 20
31.4649194539
 11
160.615929528
 21
31.4326557675
  0
LINE
  8
0
 62
7
  6
CONTINUOUS
 10
160.6737418074
 20
30.8519093441
 11
160.615929528
 21
30.7873819712
  0
LINE
  8
0
 62
7
  6
CONTINUOUS
 10
159.228429528
 20
31.5294468267
 11
159.1128043074
 21
31.4326557675
  0
LINE
  8
0
 62
7
  6
CONTINUOUS
 10
154.1409294177
 20
31.5617105132
 11
154.0253041972
 21
31.4971831403
  0
LINE
  8
0
 62
7
  6
CONTINUOUS
 10
154.1987416972
 20
31.1745462761
 11
154.0831168074
 21
31.1100188581
  0
LINE
  8
0
 62
7
  6
CONTINUOUS
 10
154.3143669177
 20
31.0132277988
 11
154.4299918074
 21
31.0777551716
  0
LINE
  8
0
 62
7
  6
CONTINUOUS
 10
151.8862417523
 20
30.5937998301
 11
152.1753043074
 21
30.5937998301
  0
LINE
  8
0
 62
7
  6
CONTINUOUS
 10
153.2159293074
 20
30.5937998301
 11
153.5049916972
 21
30.5937998301
  0
LINE
  8
0
 62
7
  6
CONTINUOUS
 10
154.5456166972
 20
30.5937998301
 11
154.8924916972
 21
30.5937998301
  0
LINE
  8
0
 62
7
  6
CONTINUOUS
 10
155.5284290869
 20
30.5937998301
 11
155.8174918074
 21
30.5937998301
  0
LINE
  8
0
 62
7
  6
CONTINUOUS
 10
156.279992028
 20
30.5937998301
 11
156.5690540869
 21
30.5937998301
  0
LINE
  8
0
 62
7
  6
CONTINUOUS
 10
157.0315543074
 20
30.5937998301
 11
157.320617028
 21
30.5937998301
  0
LINE
  8
0
 62
7
  6
CONTINUOUS
 10
158.361242028
 20
30.5937998301
 11
158.6503040869
 21
30.5937998301
  0
LINE
  8
0
 62
7
  6
CONTINUOUS
 10
159.922179528
 20
30.5937998301
 11
160.269054528
 21
30.5937998301
  0
LINE
  8
0
 62
7
  6
CONTINUOUS
 10
160.269054528
 20
30.7228545871
 11
159.922179528
 21
30.7228545871
  0
LINE
  8
0
 62
7
  6
CONTINUOUS
 10
154.8924916972
 20
30.7228545871
 11
154.5456166972
 21
30.7228545871
  0
LINE
  8
0
 62
7
  6
CONTINUOUS
 10
159.401867028
 20
30.8519093441
 11
159.1128043074
 21
30.8519093441
  0
LINE
  8
0
 62
7
  6
CONTINUOUS
 10
151.4237418626
 20
30.9164367395
 11
151.1346793074
 21
30.9164367395
  0
LINE
  8
0
 62
7
  6
CONTINUOUS
 10
150.498741835
 20
31.4971831403
 11
150.9034292799
 21
31.4649194539
  0
LINE
  8
0
 62
7
  6
CONTINUOUS
 10
150.9612418074
 20
31.5939741996
 11
150.5565542799
 21
31.626237886
  0
LINE
  8
0
 62
7
  6
CONTINUOUS
 10
159.575304528
 20
30.6260635193
 11
159.922179528
 21
30.5937998301
  0
LINE
  8
0
 62
7
  6
CONTINUOUS
 10
159.922179528
 20
30.7228545871
 11
159.575304528
 21
30.7551182848
  0
LINE
  8
0
 62
7
  6
CONTINUOUS
 10
155.3549915869
 20
31.5939741996
 11
155.0081169177
 21
31.626237886
  0
LINE
  8
0
 62
7
  6
CONTINUOUS
 10
160.1534293074
 20
31.4971831403
 11
160.5003043074
 21
31.4649194539
  0
LINE
  8
0
 62
7
  6
CONTINUOUS
 10
160.5003043074
 20
31.5939741996
 11
160.1534293074
 21
31.626237886
  0
LINE
  8
0
 62
7
  6
CONTINUOUS
 10
157.840929528
 20
31.4971831403
 11
158.0721793074
 21
31.4649194539
  0
LINE
  8
0
 62
7
  6
CONTINUOUS
 10
160.6737418074
 20
31.5617105132
 11
160.5003043074
 21
31.5939741996
  0
LINE
  8
0
 62
7
  6
CONTINUOUS
 10
160.8471793074
 20
30.6905909007
 11
160.9628038663
 21
30.7873819712
  0
LINE
  8
0
 62
7
  6
CONTINUOUS
 10
155.3549915869
 20
30.8841730531
 11
155.1815540869
 21
30.7873819712
  0
LINE
  8
0
 62
7
  6
CONTINUOUS
 10
157.4362415869
 20
31.5294468267
 11
157.320617028
 21
31.4649194539
  0
LINE
  8
0
 62
7
  6
CONTINUOUS
 10
157.320617028
 20
31.3358647082
 11
157.4362415869
 21
31.400392081
  0
LINE
  8
0
 62
7
  6
CONTINUOUS
 10
150.0362418212
 20
31.5617105132
 11
149.8628043005
 21
31.4971831403
  0
LINE
  8
0
 62
7
  6
CONTINUOUS
 10
152.4643666972
 20
31.5939741996
 11
152.2909293626
 21
31.5294468267
  0
LINE
  8
0
 62
7
  6
CONTINUOUS
 10
152.2909293626
 20
31.400392081
 11
152.4643666972
 21
31.4649194539
  0
LINE
  8
0
 62
7
  6
CONTINUOUS
 10
151.0768668626
 20
30.8196456577
 11
150.9034292799
 21
30.7551182848
  0
LINE
  8
0
 62
7
  6
CONTINUOUS
 10
160.5003043074
 20
30.7551182848
 11
160.269054528
 21
30.7228545871
  0
LINE
  8
0
 62
7
  6
CONTINUOUS
 10
154.8924916972
 20
30.5937998301
 11
155.1815540869
 21
30.6260635193
  0
LINE
  8
0
 62
7
  6
CONTINUOUS
 10
160.269054528
 20
30.5937998301
 11
160.615929528
 21
30.6260635193
  0
LINE
  8
0
 62
7
  6
CONTINUOUS
 10
150.5565542799
 20
30.5937998301
 11
150.9612418074
 21
30.6260635193
  0
LINE
  8
0
 62
7
  6
CONTINUOUS
 10
150.9034292799
 20
30.7551182848
 11
150.498741835
 21
30.7228545871
  0
LINE
  8
0
 62
7
  6
CONTINUOUS
 10
154.7768668074
 20
31.1422825445
 11
155.412804528
 21
31.1422825445
  0
LINE
  8
0
 62
7
  6
CONTINUOUS
 10
155.412804528
 20
31.2713373354
 11
154.7768668074
 21
31.2713373354
  0
LINE
  8
0
 62
7
  6
CONTINUOUS
 10
151.1346793074
 20
31.3036010218
 11
151.4237418626
 21
31.3036010218
  0
LINE
  8
0
 62
7
  6
CONTINUOUS
 10
153.9674919177
 20
31.3681283946
 11
154.2565543074
 21
31.3681283946
  0
LINE
  8
0
 62
7
  6
CONTINUOUS
 10
160.6737418074
 20
31.3681283946
 11
160.9628038663
 21
31.3681283946
  0
LINE
  8
0
 62
7
  6
CONTINUOUS
 10
154.6612419177
 20
31.4971831403
 11
155.0081169177
 21
31.4971831403
  0
LINE
  8
0
 62
7
  6
CONTINUOUS
 10
159.8065543074
 20
31.4971831403
 11
160.1534293074
 21
31.4971831403
  0
LINE
  8
0
 62
7
  6
CONTINUOUS
 10
160.1534293074
 20
31.626237886
 11
159.8065543074
 21
31.626237886
  0
LINE
  8
0
 62
7
  6
CONTINUOUS
 10
158.0721793074
 20
31.626237886
 11
157.840929528
 21
31.626237886
  0
LINE
  8
0
 62
7
  6
CONTINUOUS
 10
157.320617028
 20
31.626237886
 11
157.0315543074
 21
31.626237886
  0
LINE
  8
0
 62
7
  6
CONTINUOUS
 10
156.5690540869
 20
31.626237886
 11
156.279992028
 21
31.626237886
  0
LINE
  8
0
 62
7
  6
CONTINUOUS
 10
155.0081169177
 20
31.626237886
 11
154.6612419177
 21
31.626237886
  0
LINE
  8
0
 62
7
  6
CONTINUOUS
 10
152.9268669177
 20
31.626237886
 11
152.6956168074
 21
31.626237886
  0
LINE
  8
0
 62
7
  6
CONTINUOUS
 10
156.279992028
 20
31.9488748406
 11
156.5690540869
 21
31.9488748406
  0
LINE
  8
0
 62
7
  6
CONTINUOUS
 10
156.5690540869
 20
32.1101932727
 11
156.279992028
 21
32.1101932727
  0
LINE
  8
0
 62
7
  6
CONTINUOUS
 10
152.1753043074
 20
32.1101932727
 11
151.8862417523
 21
32.1101932727
  0
LINE
  8
0
 62
7
  6
CONTINUOUS
 10
151.2130860697
 20
32.3970785186
 11
151.6256574183
 21
32.3970785186
  0
LINE
  8
0
 62
7
  6
CONTINUOUS
 10
152.852430332
 20
32.3970785186
 11
154.245872955
 21
32.3970785186
  0
LINE
  8
0
 62
7
  6
CONTINUOUS
 10
154.5737418074
 20
32.3970785186
 11
155.9671844304
 21
32.3970785186
  0
LINE
  8
0
 62
7
  6
CONTINUOUS
 10
157.852430332
 20
32.3970785186
 11
159.245872955
 21
32.3970785186
  0
LINE
  8
0
 62
7
  6
CONTINUOUS
 10
159.5737418074
 20
32.3970785186
 11
160.9671844304
 21
32.3970785186
  0
LINE
  8
0
 62
7
  6
CONTINUOUS
 10
157.6096790869
 20
31.5939741996
 11
157.4362415869
 21
31.5294468267
  0
LINE
  8
0
 62
7
  6
CONTINUOUS
 10
155.1815540869
 20
30.6260635193
 11
155.3549915869
 21
30.6905909007
  0
LINE
  8
0
 62
7
  6
CONTINUOUS
 10
160.615929528
 20
30.6260635193
 11
160.8471793074
 21
30.6905909007
  0
LINE
  8
0
 62
7
  6
CONTINUOUS
 10
160.615929528
 20
30.7873819712
 11
160.5003043074
 21
30.7551182848
  0
LINE
  8
0
 62
7
  6
CONTINUOUS
 10
159.575304528
 20
31.4649194539
 11
159.8065543074
 21
31.4971831403
  0
LINE
  8
0
 62
7
  6
CONTINUOUS
 10
157.6096790869
 20
31.4649194539
 11
157.840929528
 21
31.4971831403
  0
LINE
  8
0
 62
7
  6
CONTINUOUS
 10
154.5456166972
 20
31.1100188581
 11
154.7768668074
 21
31.1422825445
  0
LINE
  8
0
 62
7
  6
CONTINUOUS
 10
157.840929528
 20
31.626237886
 11
157.6096790869
 21
31.5939741996
  0
LINE
  8
0
 62
7
  6
CONTINUOUS
 10
154.4299918074
 20
31.4649194539
 11
154.6612419177
 21
31.4971831403
  0
LINE
  8
0
 62
7
  6
CONTINUOUS
 10
159.8065543074
 20
31.626237886
 11
159.4596793074
 21
31.5939741996
  0
LINE
  8
0
 62
7
  6
CONTINUOUS
 10
154.7768668074
 20
31.2713373354
 11
154.4299918074
 21
31.2390736489
  0
LINE
  8
0
 62
7
  6
CONTINUOUS
 10
150.5565542799
 20
31.626237886
 11
150.2096793212
 21
31.5939741996
  0
LINE
  8
0
 62
7
  6
CONTINUOUS
 10
154.6612419177
 20
31.626237886
 11
154.2565543074
 21
31.5939741996
  0
LINE
  8
0
 62
7
  6
CONTINUOUS
 10
152.0327582009
 20
33.5446195022
 11
151.3770204959
 21
33.5446195022
  0
LINE
  8
0
 62
7
  6
CONTINUOUS
 10
157.4362415869
 20
31.400392081
 11
157.6096790869
 21
31.4649194539
  0
LINE
  8
0
 62
7
  6
CONTINUOUS
 10
159.4596793074
 20
31.4326557675
 11
159.575304528
 21
31.4649194539
  0
LINE
  8
0
 62
7
  6
CONTINUOUS
 10
159.4596793074
 20
31.5939741996
 11
159.228429528
 21
31.5294468267
  0
LINE
  8
0
 62
7
  6
CONTINUOUS
 10
155.1815540869
 20
30.7873819712
 11
154.8924916972
 21
30.7228545871
  0
LINE
  8
0
 62
7
  6
CONTINUOUS
 10
152.4643666972
 20
31.4649194539
 11
152.6956168074
 21
31.4971831403
  0
LINE
  8
0
 62
7
  6
CONTINUOUS
 10
152.6956168074
 20
31.626237886
 11
152.4643666972
 21
31.5939741996
  0
LINE
  8
0
 62
7
  6
CONTINUOUS
 10
150.2674918074
 20
31.4649194539
 11
150.498741835
 21
31.4971831403
  0
LINE
  8
0
 62
7
  6
CONTINUOUS
 10
156.7868565615
 20
35.0200293383
 11
157.4425942664
 21
35.0200293383
  0
LINE
  8
0
 62
7
  6
CONTINUOUS
 10
154.4299918074
 20
31.0777551716
 11
154.5456166972
 21
31.1100188581
  0
LINE
  8
0
 62
7
  6
CONTINUOUS
 10
154.4299918074
 20
31.2390736489
 11
154.1987416972
 21
31.1745462761
  0
LINE
  8
0
 62
7
  6
CONTINUOUS
 10
154.3143669177
 20
31.4326557675
 11
154.4299918074
 21
31.4649194539
  0
LINE
  8
0
 62
7
  6
CONTINUOUS
 10
150.9612418074
 20
30.6260635193
 11
151.1924917523
 21
30.6905909007
  0
LINE
  8
0
 62
7
  6
CONTINUOUS
 10
154.2565543074
 20
31.5939741996
 11
154.1409294177
 21
31.5617105132
  0
LINE
  8
0
 62
7
  6
CONTINUOUS
 10
150.2096793212
 20
31.5939741996
 11
150.0362418212
 21
31.5617105132
  0
LINE
  8
0
 62
7
  6
CONTINUOUS
 10
160.9671844304
 20
36.1675703219
 11
159.5737418074
 21
36.1675703219
  0
LINE
  8
0
 62
7
  6
CONTINUOUS
 10
157.6065286927
 20
36.1675703219
 11
157.1939573441
 21
36.1675703219
  0
LINE
  8
0
 62
7
  6
CONTINUOUS
 10
155.9671844304
 20
36.1675703219
 11
154.5737418074
 21
36.1675703219
  0
LINE
  8
0
 62
7
  6
CONTINUOUS
 10
154.245872955
 20
36.1675703219
 11
152.852430332
 21
36.1675703219
  0
LINE
  8
0
 62
7
  6
CONTINUOUS
 10
150.9671844304
 20
36.1675703219
 11
149.5737418074
 21
36.1675703219
  0
LINE
  8
0
 62
7
  6
CONTINUOUS
 10
150.1518667936
 20
31.4326557675
 11
150.2674918074
 21
31.4649194539
  0
CIRCLE
  8
0
 62
7
  6
CONTINUOUS
 10
160.2704631189
 20
38.5036358957
 40
2.0901639344
  0
ARC
  8
0
 62
7
  6
CONTINUOUS
 10
151.2130860697
 20
34.0364227809
 40
1.6393442623
 50
180.0
 51
270.0
  0
ARC
  8
0
 62
7
  6
CONTINUOUS
 10
157.6065286927
 20
34.5282260596
 40
1.6393442623
 50
0.0
 51
90.0
  0
ARC
  8
0
 62
7
  6
CONTINUOUS
 10
151.6256574183
 20
33.8724883547
 40
1.4754098361
 50
270.0
 51
326.2510114041
  0
ARC
  8
0
 62
7
  6
CONTINUOUS
 10
157.1939573441
 20
34.6921604858
 40
1.4754098361
 50
90.0
 51
146.2510114041
  0
ARC
  8
0
 62
7
  6
CONTINUOUS
 10
152.0327582009
 20
34.3642916334
 40
0.8196721311
 50
270.0
 51
360.0
  0
ARC
  8
0
 62
7
  6
CONTINUOUS
 10
156.7868565615
 20
34.2003572071
 40
0.8196721311
 50
90.0
 51
180.0
  0
ARC
  8
0
 62
7
  6
CONTINUOUS
 10
151.3770204959
 20
33.9544555678
 40
0.4098360656
 50
180.0
 51
270.0
  0
ARC
  8
0
 62
7
  6
CONTINUOUS
 10
157.4425942664
 20
34.6101932727
 40
0.4098360656
 50
0.0
 51
90.0
  0
SOLID
  8
0
 62
7
  6
CONTINUOUS
 10
156.279992028
 20
31.9488752009
 11
156.279992028
 21
32.1101936845
 12
156.5690540869
 22
31.9488752009
 13
156.5690540869
 23
32.1101936845
  0
SOLID
  8
0
 62
7
  6
CONTINUOUS
 10
150.5565542799
 20
31.6262382337
 11
150.9612418074
 21
31.5939740028
 12
150.2096793212
 22
31.5939740028
 13
150.2096793212
 23
31.5939740028
  0
SOLID
  8
0
 62
7
  6
CONTINUOUS
 10
150.0362418212
 20
31.5617111435
 11
150.2096793212
 21
31.5939740028
 12
150.9612418074
 22
31.5939740028
 13
150.9612418074
 23
31.5939740028
  0
SOLID
  8
0
 62
7
  6
CONTINUOUS
 10
150.9612418074
 20
31.5939740028
 11
151.1924917523
 21
31.5294468402
 12
150.0362418212
 22
31.5617111435
 13
150.0362418212
 23
31.5617111435
  0
SOLID
  8
0
 62
7
  6
CONTINUOUS
 10
149.8628043005
 20
31.49718259
 11
150.0362418212
 21
31.5617111435
 12
151.1924917523
 22
31.5294468402
 13
151.1924917523
 23
31.5294468402
  0
SOLID
  8
0
 62
7
  6
CONTINUOUS
 10
149.8628043005
 20
31.49718259
 11
151.1924917523
 21
31.5294468402
 12
150.498741835
 22
31.49718259
 13
150.498741835
 23
31.49718259
  0
SOLID
  8
0
 62
7
  6
CONTINUOUS
 10
150.498741835
 20
31.49718259
 11
151.1924917523
 21
31.5294468402
 12
150.9034292799
 22
31.4649197501
 13
150.9034292799
 23
31.4649197501
  0
SOLID
  8
0
 62
7
  6
CONTINUOUS
 10
151.1924917523
 20
31.5294468402
 11
151.3659292523
 21
31.4326554468
 12
150.9034292799
 22
31.4649197501
 13
150.9034292799
 23
31.4649197501
  0
SOLID
  8
0
 62
7
  6
CONTINUOUS
 10
151.0768668626
 20
31.4003926599
 11
150.9034292799
 21
31.4649197501
 12
151.3659292523
 22
31.4326554468
 13
151.3659292523
 23
31.4326554468
  0
SOLID
  8
0
 62
7
  6
CONTINUOUS
 10
151.0768668626
 20
31.4003926599
 11
151.3659292523
 21
31.4326554468
 12
151.1346793074
 22
31.3036013776
 13
151.1346793074
 23
31.3036013776
  0
SOLID
  8
0
 62
7
  6
CONTINUOUS
 10
151.3659292523
 20
31.4326554468
 11
151.4237418626
 21
31.3036013776
 12
151.1346793074
 22
31.3036013776
 13
151.1346793074
 23
31.3036013776
  0
SOLID
  8
0
 62
7
  6
CONTINUOUS
 10
152.4643666972
 20
31.5939739754
 11
152.6956168074
 21
31.6262382787
 12
152.9268669177
 22
31.6262382787
 13
152.9268669177
 23
31.6262382787
  0
SOLID
  8
0
 62
7
  6
CONTINUOUS
 10
152.9268669177
 20
31.6262382787
 11
153.1003044177
 21
31.5939739754
 12
152.4643666972
 22
31.5939739754
 13
152.4643666972
 23
31.5939739754
  0
SOLID
  8
0
 62
7
  6
CONTINUOUS
 10
152.2909293626
 20
31.5294468852
 11
152.4643666972
 21
31.5939739754
 12
153.1003044177
 22
31.5939739754
 13
153.1003044177
 23
31.5939739754
  0
SOLID
  8
0
 62
7
  6
CONTINUOUS
 10
153.1003044177
 20
31.5939739754
 11
153.2737419177
 21
31.5294468852
 12
152.2909293626
 22
31.5294468852
 13
152.2909293626
 23
31.5294468852
  0
SOLID
  8
0
 62
7
  6
CONTINUOUS
 10
153.2737419177
 20
31.5294468852
 11
152.6956168074
 21
31.4971825369
 12
152.2909293626
 22
31.5294468852
 13
152.2909293626
 23
31.5294468852
  0
SOLID
  8
0
 62
7
  6
CONTINUOUS
 10
152.1753043074
 20
31.4649197951
 11
152.2909293626
 21
31.5294468852
 12
152.6956168074
 22
31.4971825369
 13
152.6956168074
 23
31.4971825369
  0
SOLID
  8
0
 62
7
  6
CONTINUOUS
 10
152.6956168074
 20
31.4971825369
 11
152.4643666972
 21
31.4649197951
 12
152.1753043074
 22
31.4649197951
 13
152.1753043074
 23
31.4649197951
  0
SOLID
  8
0
 62
7
  6
CONTINUOUS
 10
152.6956168074
 20
31.4971825369
 11
153.2737419177
 21
31.5294468852
 12
152.9268669177
 22
31.4649197951
 13
152.9268669177
 23
31.4649197951
  0
SOLID
  8
0
 62
7
  6
CONTINUOUS
 10
153.2737419177
 20
31.5294468852
 11
153.3893668074
 21
31.4649197951
 12
152.9268669177
 22
31.4649197951
 13
152.9268669177
 23
31.4649197951
  0
SOLID
  8
0
 62
7
  6
CONTINUOUS
 10
153.0424918074
 20
31.4326554468
 11
152.9268669177
 21
31.4649197951
 12
153.3893668074
 22
31.4649197951
 13
153.3893668074
 23
31.4649197951
  0
SOLID
  8
0
 62
7
  6
CONTINUOUS
 10
153.3893668074
 20
31.4649197951
 11
153.4471794177
 21
31.4003927049
 12
153.0424918074
 22
31.4326554468
 13
153.0424918074
 23
31.4326554468
  0
SOLID
  8
0
 62
7
  6
CONTINUOUS
 10
153.1581166972
 20
31.3681283566
 11
153.0424918074
 21
31.4326554468
 12
153.4471794177
 22
31.4003927049
 13
153.4471794177
 23
31.4003927049
  0
SOLID
  8
0
 62
7
  6
CONTINUOUS
 10
153.1581166972
 20
31.3681283566
 11
153.4471794177
 21
31.4003927049
 12
153.2159293074
 22
31.2390742213
 13
153.2159293074
 23
31.2390742213
  0
SOLID
  8
0
 62
7
  6
CONTINUOUS
 10
153.4471794177
 20
31.4003927049
 11
153.5049916972
 21
31.2390742213
 12
153.2159293074
 22
31.2390742213
 13
153.2159293074
 23
31.2390742213
  0
SOLID
  8
0
 62
7
  6
CONTINUOUS
 10
152.4643666972
 20
31.4649197951
 11
152.2909293626
 21
31.4003927049
 12
152.1753043074
 22
31.4649197951
 13
152.1753043074
 23
31.4649197951
  0
SOLID
  8
0
 62
7
  6
CONTINUOUS
 10
152.2909293626
 20
31.4003927049
 11
152.1753043074
 21
31.3358640533
 12
152.1753043074
 22
31.4649197951
 13
152.1753043074
 23
31.4649197951
  0
SOLID
  8
0
 62
7
  6
CONTINUOUS
 10
152.1753043074
 20
31.3358640533
 11
151.8862417523
 21
30.5938002869
 12
152.1753043074
 22
31.4649197951
 13
152.1753043074
 23
31.4649197951
  0
SOLID
  8
0
 62
7
  6
CONTINUOUS
 10
152.1753043074
 20
31.4649197951
 11
151.8862417523
 21
30.5938002869
 12
152.1753043074
 22
32.1101937295
 13
152.1753043074
 23
32.1101937295
  0
SOLID
  8
0
 62
7
  6
CONTINUOUS
 10
151.8862417523
 20
30.5938002869
 11
151.8862417523
 21
32.1101937295
 12
152.1753043074
 22
32.1101937295
 13
152.1753043074
 23
32.1101937295
  0
SOLID
  8
0
 62
7
  6
CONTINUOUS
 10
152.1753043074
 20
31.3358640533
 11
152.1753043074
 21
30.5938002869
 12
151.8862417523
 22
30.5938002869
 13
151.8862417523
 23
30.5938002869
  0
SOLID
  8
0
 62
7
  6
CONTINUOUS
 10
153.2159293074
 20
30.5938002869
 11
153.2159293074
 21
31.2390742213
 12
153.5049916972
 22
31.2390742213
 13
153.5049916972
 23
31.2390742213
  0
SOLID
  8
0
 62
7
  6
CONTINUOUS
 10
153.5049916972
 20
31.2390742213
 11
153.5049916972
 21
30.5938002869
 12
153.2159293074
 22
30.5938002869
 13
153.2159293074
 23
30.5938002869
  0
SOLID
  8
0
 62
7
  6
CONTINUOUS
 10
154.2565543074
 20
31.5939738288
 11
154.6612419177
 21
31.6262385959
 12
155.0081169177
 22
31.6262385959
 13
155.0081169177
 23
31.6262385959
  0
SOLID
  8
0
 62
7
  6
CONTINUOUS
 10
155.0081169177
 20
31.6262385959
 11
155.3549915869
 21
31.5939738288
 12
154.2565543074
 22
31.5939738288
 13
154.2565543074
 23
31.5939738288
  0
SOLID
  8
0
 62
7
  6
CONTINUOUS
 10
154.1409294177
 20
31.5617111435
 11
154.2565543074
 21
31.5939738288
 12
155.3549915869
 22
31.5939738288
 13
155.3549915869
 23
31.5939738288
  0
SOLID
  8
0
 62
7
  6
CONTINUOUS
 10
155.3549915869
 20
31.5939738288
 11
155.5284290869
 21
31.5294468402
 12
154.1409294177
 22
31.5617111435
 13
154.1409294177
 23
31.5617111435
  0
SOLID
  8
0
 62
7
  6
CONTINUOUS
 10
154.0253041972
 20
31.4971826249
 11
154.1409294177
 21
31.5617111435
 12
155.5284290869
 22
31.5294468402
 13
155.5284290869
 23
31.5294468402
  0
SOLID
  8
0
 62
7
  6
CONTINUOUS
 10
154.0253041972
 20
31.4971826249
 11
155.5284290869
 21
31.5294468402
 12
154.6612419177
 22
31.4971826249
 13
154.6612419177
 23
31.4971826249
  0
SOLID
  8
0
 62
7
  6
CONTINUOUS
 10
154.6612419177
 20
31.4971826249
 11
155.5284290869
 21
31.5294468402
 12
155.0081169177
 22
31.4971826249
 13
155.0081169177
 23
31.4971826249
  0
SOLID
  8
0
 62
7
  6
CONTINUOUS
 10
155.0081169177
 20
31.4971826249
 11
155.5284290869
 21
31.5294468402
 12
155.239367028
 22
31.4649194065
 13
155.239367028
 23
31.4649194065
  0
SOLID
  8
0
 62
7
  6
CONTINUOUS
 10
155.5284290869
 20
31.5294468402
 11
155.6440543074
 21
31.4649194065
 12
155.239367028
 22
31.4649194065
 13
155.239367028
 23
31.4649194065
  0
SOLID
  8
0
 62
7
  6
CONTINUOUS
 10
153.9674919177
 20
31.4326554138
 11
154.0253041972
 21
31.4971826249
 12
154.6612419177
 22
31.4971826249
 13
154.6612419177
 23
31.4971826249
  0
SOLID
  8
0
 62
7
  6
CONTINUOUS
 10
155.3549915869
 20
31.4326554138
 11
155.239367028
 21
31.4649194065
 12
155.6440543074
 22
31.4649194065
 13
155.6440543074
 23
31.4649194065
  0
SOLID
  8
0
 62
7
  6
CONTINUOUS
 10
155.3549915869
 20
31.4326554138
 11
155.6440543074
 21
31.4649194065
 12
155.412804528
 22
31.3681282026
 13
155.412804528
 23
31.3681282026
  0
SOLID
  8
0
 62
7
  6
CONTINUOUS
 10
155.6440543074
 20
31.4649194065
 11
155.7018665869
 21
31.3681282026
 12
155.412804528
 22
31.3681282026
 13
155.412804528
 23
31.3681282026
  0
SOLID
  8
0
 62
7
  6
CONTINUOUS
 10
155.412804528
 20
31.2713369632
 11
155.412804528
 21
31.3681282026
 12
155.7018665869
 22
31.3681282026
 13
155.7018665869
 23
31.3681282026
  0
SOLID
  8
0
 62
7
  6
CONTINUOUS
 10
155.412804528
 20
31.2713369632
 11
155.7018665869
 21
31.3681282026
 12
155.412804528
 22
31.1422827828
 13
155.412804528
 23
31.1422827828
  0
SOLID
  8
0
 62
7
  6
CONTINUOUS
 10
155.412804528
 20
31.1422827828
 11
155.7018665869
 21
31.3681282026
 12
155.412804528
 22
30.9487004259
 13
155.412804528
 23
30.9487004259
  0
SOLID
  8
0
 62
7
  6
CONTINUOUS
 10
155.7018665869
 20
31.3681282026
 11
155.7018665869
 21
30.8519086025
 12
155.412804528
 22
30.9487004259
 13
155.412804528
 23
30.9487004259
  0
SOLID
  8
0
 62
7
  6
CONTINUOUS
 10
157.6096790869
 20
31.5939736268
 11
157.840929528
 21
31.6262383465
 12
158.0721793074
 22
31.6262383465
 13
158.0721793074
 23
31.6262383465
  0
SOLID
  8
0
 62
7
  6
CONTINUOUS
 10
158.0721793074
 20
31.6262383465
 11
158.2456168074
 21
31.5939736268
 12
157.6096790869
 22
31.5939736268
 13
157.6096790869
 23
31.5939736268
  0
SOLID
  8
0
 62
7
  6
CONTINUOUS
 10
157.4362415869
 20
31.5294472848
 11
157.6096790869
 21
31.5939736268
 12
158.2456168074
 22
31.5939736268
 13
158.2456168074
 23
31.5939736268
  0
SOLID
  8
0
 62
7
  6
CONTINUOUS
 10
158.2456168074
 20
31.5939736268
 11
158.4190543074
 21
31.5294472848
 12
157.4362415869
 22
31.5294472848
 13
157.4362415869
 23
31.5294472848
  0
SOLID
  8
0
 62
7
  6
CONTINUOUS
 10
158.4190543074
 20
31.5294472848
 11
157.840929528
 21
31.4971825369
 12
157.4362415869
 22
31.5294472848
 13
157.4362415869
 23
31.5294472848
  0
SOLID
  8
0
 62
7
  6
CONTINUOUS
 10
157.320617028
 20
31.4649199103
 11
157.4362415869
 21
31.5294472848
 12
157.840929528
 22
31.4971825369
 13
157.840929528
 23
31.4971825369
  0
SOLID
  8
0
 62
7
  6
CONTINUOUS
 10
157.840929528
 20
31.4971825369
 11
157.6096790869
 21
31.4649199103
 12
157.320617028
 22
31.4649199103
 13
157.320617028
 23
31.4649199103
  0
SOLID
  8
0
 62
7
  6
CONTINUOUS
 10
157.840929528
 20
31.4971825369
 11
158.4190543074
 21
31.5294472848
 12
158.0721793074
 22
31.4649199103
 13
158.0721793074
 23
31.4649199103
  0
SOLID
  8
0
 62
7
  6
CONTINUOUS
 10
158.4190543074
 20
31.5294472848
 11
158.534679528
 21
31.4649199103
 12
158.0721793074
 22
31.4649199103
 13
158.0721793074
 23
31.4649199103
  0
SOLID
  8
0
 62
7
  6
CONTINUOUS
 10
158.187804528
 20
31.4326554468
 11
158.0721793074
 21
31.4649199103
 12
158.534679528
 22
31.4649199103
 13
158.534679528
 23
31.4649199103
  0
SOLID
  8
0
 62
7
  6
CONTINUOUS
 10
158.187804528
 20
31.4326554468
 11
158.534679528
 21
31.4649199103
 12
158.3034290869
 22
31.3681288486
 13
158.3034290869
 23
31.3681288486
  0
SOLID
  8
0
 62
7
  6
CONTINUOUS
 10
158.534679528
 20
31.4649199103
 11
158.5924918074
 21
31.3681288486
 12
158.3034290869
 22
31.3681288486
 13
158.3034290869
 23
31.3681288486
  0
SOLID
  8
0
 62
7
  6
CONTINUOUS
 10
158.361242028
 20
31.2068093799
 11
158.3034290869
 21
31.3681288486
 12
158.5924918074
 22
31.3681288486
 13
158.5924918074
 23
31.3681288486
  0
SOLID
  8
0
 62
7
  6
CONTINUOUS
 10
158.5924918074
 20
31.3681288486
 11
158.6503040869
 21
31.2068093799
 12
158.361242028
 22
31.2068093799
 13
158.361242028
 23
31.2068093799
  0
SOLID
  8
0
 62
7
  6
CONTINUOUS
 10
157.6096790869
 20
31.4649199103
 11
157.4362415869
 21
31.4003926599
 12
157.320617028
 22
31.4649199103
 13
157.320617028
 23
31.4649199103
  0
SOLID
  8
0
 62
7
  6
CONTINUOUS
 10
157.4362415869
 20
31.4003926599
 11
157.320617028
 21
31.3358640533
 12
157.320617028
 22
31.4649199103
 13
157.320617028
 23
31.4649199103
  0
SOLID
  8
0
 62
7
  6
CONTINUOUS
 10
157.320617028
 20
31.3358640533
 11
157.0315543074
 21
30.5938003547
 12
157.320617028
 22
31.4649199103
 13
157.320617028
 23
31.4649199103
  0
SOLID
  8
0
 62
7
  6
CONTINUOUS
 10
157.320617028
 20
31.4649199103
 11
157.0315543074
 21
30.5938003547
 12
157.320617028
 22
31.6262383465
 13
157.320617028
 23
31.6262383465
  0
SOLID
  8
0
 62
7
  6
CONTINUOUS
 10
157.0315543074
 20
30.5938003547
 11
157.0315543074
 21
31.6262383465
 12
157.320617028
 22
31.6262383465
 13
157.320617028
 23
31.6262383465
  0
SOLID
  8
0
 62
7
  6
CONTINUOUS
 10
157.320617028
 20
31.3358640533
 11
157.320617028
 21
30.5938003547
 12
157.0315543074
 22
30.5938003547
 13
157.0315543074
 23
30.5938003547
  0
SOLID
  8
0
 62
7
  6
CONTINUOUS
 10
158.361242028
 20
30.5938003547
 11
158.361242028
 21
31.2068093799
 12
158.6503040869
 22
31.2068093799
 13
158.6503040869
 23
31.2068093799
  0
SOLID
  8
0
 62
7
  6
CONTINUOUS
 10
158.6503040869
 20
31.2068093799
 11
158.6503040869
 21
30.5938003547
 12
158.361242028
 22
30.5938003547
 13
158.361242028
 23
30.5938003547
  0
SOLID
  8
0
 62
7
  6
CONTINUOUS
 10
159.4596793074
 20
31.5939739474
 11
159.8065543074
 21
31.6262381969
 12
160.1534293074
 22
31.6262381969
 13
160.1534293074
 23
31.6262381969
  0
SOLID
  8
0
 62
7
  6
CONTINUOUS
 10
160.1534293074
 20
31.6262381969
 11
160.5003043074
 21
31.5939739474
 12
159.4596793074
 22
31.5939739474
 13
159.4596793074
 23
31.5939739474
  0
SOLID
  8
0
 62
7
  6
CONTINUOUS
 10
159.228429528
 20
31.5294468402
 11
159.4596793074
 21
31.5939739474
 12
160.5003043074
 22
31.5939739474
 13
160.5003043074
 23
31.5939739474
  0
SOLID
  8
0
 62
7
  6
CONTINUOUS
 10
159.228429528
 20
31.5294468402
 11
160.5003043074
 21
31.5939739304
 12
160.6737418074
 22
31.5617111435
 13
160.6737418074
 23
31.5617111435
  0
SOLID
  8
0
 62
7
  6
CONTINUOUS
 10
159.228429528
 20
31.5294468402
 11
160.6737418074
 21
31.5617111435
 12
159.8065543074
 22
31.4971825592
 13
159.8065543074
 23
31.4971825592
  0
SOLID
  8
0
 62
7
  6
CONTINUOUS
 10
159.8065543074
 20
31.4971825592
 11
160.6737418074
 21
31.5617111435
 12
160.1534293074
 22
31.4971825592
 13
160.1534293074
 23
31.4971825592
  0
SOLID
  8
0
 62
7
  6
CONTINUOUS
 10
160.6737418074
 20
31.5617111435
 11
160.8471793074
 21
31.4971825592
 12
160.1534293074
 22
31.4971825592
 13
160.1534293074
 23
31.4971825592
  0
SOLID
  8
0
 62
7
  6
CONTINUOUS
 10
160.5003043074
 20
31.4649197501
 11
160.1534293074
 21
31.4971825592
 12
160.8471793074
 22
31.4971825592
 13
160.8471793074
 23
31.4971825592
  0
SOLID
  8
0
 62
7
  6
CONTINUOUS
 10
159.1128043074
 20
31.4326555427
 11
159.228429528
 21
31.5294468402
 12
159.8065543074
 22
31.4971825592
 13
159.8065543074
 23
31.4971825592
  0
SOLID
  8
0
 62
7
  6
CONTINUOUS
 10
160.5003043074
 20
31.4649197501
 11
160.8471793074
 21
31.4971825592
 12
160.615929528
 22
31.4326555427
 13
160.615929528
 23
31.4326555427
  0
SOLID
  8
0
 62
7
  6
CONTINUOUS
 10
160.615929528
 20
31.4326555427
 11
160.8471793074
 21
31.4971825592
 12
160.6737418074
 22
31.3681283005
 13
160.6737418074
 23
31.3681283005
  0
SOLID
  8
0
 62
7
  6
CONTINUOUS
 10
160.8471793074
 20
31.4971825592
 11
160.9628038663
 21
31.3681283005
 12
160.6737418074
 22
31.3681283005
 13
160.6737418074
 23
31.3681283005
  0
SOLID
  8
0
 62
7
  6
CONTINUOUS
 10
150.2674918074
 20
31.4649197501
 11
149.7471793074
 21
31.4326554237
 12
150.498741835
 22
31.4971824493
 13
150.498741835
 23
31.4971824493
  0
SOLID
  8
0
 62
7
  6
CONTINUOUS
 10
149.7471793074
 20
31.4326554237
 11
149.8628043005
 21
31.4971824493
 12
150.498741835
 22
31.4971824493
 13
150.498741835
 23
31.4971824493
  0
SOLID
  8
0
 62
7
  6
CONTINUOUS
 10
150.2674918074
 20
31.4649197501
 11
150.1518667936
 21
31.4326554237
 12
149.7471793074
 22
31.4326554237
 13
149.7471793074
 23
31.4326554237
  0
SOLID
  8
0
 62
7
  6
CONTINUOUS
 10
149.6315543091
 20
31.3036012664
 11
149.7471793074
 21
31.4326554237
 12
150.1518667936
 22
31.4326554237
 13
150.1518667936
 23
31.4326554237
  0
SOLID
  8
0
 62
7
  6
CONTINUOUS
 10
153.9674919177
 20
31.4326554237
 11
154.6612419177
 21
31.4971825369
 12
154.4299918074
 22
31.4649197501
 13
154.4299918074
 23
31.4649197501
  0
SOLID
  8
0
 62
7
  6
CONTINUOUS
 10
154.4299918074
 20
31.4649197501
 11
154.3143669177
 21
31.4326554237
 12
153.9674919177
 22
31.4326554237
 13
153.9674919177
 23
31.4326554237
  0
SOLID
  8
0
 62
7
  6
CONTINUOUS
 10
153.9674919177
 20
31.3681283335
 11
153.9674919177
 21
31.4326554237
 12
154.3143669177
 22
31.4326554237
 13
154.3143669177
 23
31.4326554237
  0
SOLID
  8
0
 62
7
  6
CONTINUOUS
 10
154.3143669177
 20
31.4326554237
 11
154.2565543074
 21
31.3681283335
 12
153.9674919177
 22
31.3681283335
 13
153.9674919177
 23
31.3681283335
  0
SOLID
  8
0
 62
7
  6
CONTINUOUS
 10
159.1128043074
 20
31.4326555528
 11
159.8065543074
 21
31.4971825369
 12
159.575304528
 22
31.4649197501
 13
159.575304528
 23
31.4649197501
  0
SOLID
  8
0
 62
7
  6
CONTINUOUS
 10
159.575304528
 20
31.4649197501
 11
159.4596793074
 21
31.4326555528
 12
159.1128043074
 22
31.4326555528
 13
159.1128043074
 23
31.4326555528
  0
SOLID
  8
0
 62
7
  6
CONTINUOUS
 10
159.1128043074
 20
31.3681284626
 11
159.1128043074
 21
31.4326555528
 12
159.4596793074
 22
31.4326555528
 13
159.4596793074
 23
31.4326555528
  0
SOLID
  8
0
 62
7
  6
CONTINUOUS
 10
159.4596793074
 20
31.4326555528
 11
159.401867028
 21
31.3681284626
 12
159.1128043074
 22
31.3681284626
 13
159.1128043074
 23
31.3681284626
  0
SOLID
  8
0
 62
7
  6
CONTINUOUS
 10
159.228429528
 20
31.2390741763
 11
159.1128043074
 21
31.3681284626
 12
159.401867028
 22
31.3681284626
 13
159.401867028
 23
31.3681284626
  0
SOLID
  8
0
 62
7
  6
CONTINUOUS
 10
149.6315543091
 20
31.3036012664
 11
150.1518667936
 21
31.4326554468
 12
149.9784292936
 22
31.3358640533
 13
149.9784292936
 23
31.3358640533
  0
SOLID
  8
0
 62
7
  6
CONTINUOUS
 10
149.9784292936
 20
31.3358640533
 11
149.9206168074
 21
31.2713369632
 12
149.6315543091
 22
31.3036012664
 13
149.6315543091
 23
31.3036012664
  0
SOLID
  8
0
 62
7
  6
CONTINUOUS
 10
149.5737418074
 20
31.1100184796
 11
149.6315543091
 21
31.3036012664
 12
149.9206168074
 22
31.2713369632
 13
149.9206168074
 23
31.2713369632
  0
SOLID
  8
0
 62
7
  6
CONTINUOUS
 10
154.4299918074
 20
31.2390741763
 11
154.7768668074
 21
31.271336924
 12
155.412804528
 22
31.271336924
 13
155.412804528
 23
31.271336924
  0
SOLID
  8
0
 62
7
  6
CONTINUOUS
 10
154.4299918074
 20
31.2390741763
 11
155.412804528
 21
31.271336924
 12
154.1987416972
 22
31.1745462761
 13
154.1987416972
 23
31.1745462761
  0
SOLID
  8
0
 62
7
  6
CONTINUOUS
 10
154.1987416972
 20
31.1745462761
 11
155.412804528
 21
31.271336924
 12
154.7768668074
 22
31.1422827436
 13
154.7768668074
 23
31.1422827436
  0
SOLID
  8
0
 62
7
  6
CONTINUOUS
 10
155.412804528
 20
31.271336924
 11
155.412804528
 21
31.1422827436
 12
154.7768668074
 22
31.1422827436
 13
154.7768668074
 23
31.1422827436
  0
SOLID
  8
0
 62
7
  6
CONTINUOUS
 10
159.228429528
 20
31.2390745501
 11
159.401867028
 21
31.3681283566
 12
159.4596793074
 22
31.3036012664
 13
159.4596793074
 23
31.3036012664
  0
SOLID
  8
0
 62
7
  6
CONTINUOUS
 10
159.4596793074
 20
31.3036012664
 11
159.6331168074
 21
31.2390745501
 12
159.228429528
 22
31.2390745501
 13
159.228429528
 23
31.2390745501
  0
SOLID
  8
0
 62
7
  6
CONTINUOUS
 10
159.4596793074
 20
31.1422827828
 11
159.228429528
 21
31.2390745501
 12
159.6331168074
 22
31.2390745501
 13
159.6331168074
 23
31.2390745501
  0
SOLID
  8
0
 62
7
  6
CONTINUOUS
 10
159.6331168074
 20
31.2390745501
 11
160.615929528
 21
31.0777556927
 12
159.4596793074
 22
31.1422827828
 13
159.4596793074
 23
31.1422827828
  0
SOLID
  8
0
 62
7
  6
CONTINUOUS
 10
160.442492028
 20
30.9809646623
 11
159.4596793074
 21
31.1422827828
 12
160.615929528
 22
31.0777556927
 13
160.615929528
 23
31.0777556927
  0
SOLID
  8
0
 62
7
  6
CONTINUOUS
 10
160.615929528
 20
31.0777556927
 11
160.8471793074
 21
30.9809646623
 12
160.442492028
 22
30.9809646623
 13
160.442492028
 23
30.9809646623
  0
SOLID
  8
0
 62
7
  6
CONTINUOUS
 10
160.615929528
 20
30.9164372091
 11
160.442492028
 21
30.9809646623
 12
160.8471793074
 22
30.9809646623
 13
160.8471793074
 23
30.9809646623
  0
SOLID
  8
0
 62
7
  6
CONTINUOUS
 10
160.615929528
 20
30.9164372091
 11
160.8471793074
 21
30.9809646623
 12
160.6737418074
 22
30.8519089441
 13
160.6737418074
 23
30.8519089441
  0
SOLID
  8
0
 62
7
  6
CONTINUOUS
 10
160.8471793074
 20
30.9809646623
 11
160.9628038663
 21
30.8519089441
 12
160.6737418074
 22
30.8519089441
 13
160.6737418074
 23
30.8519089441
  0
SOLID
  8
0
 62
7
  6
CONTINUOUS
 10
160.615929528
 20
30.7873818593
 11
160.6737418074
 21
30.8519089441
 12
160.9628038663
 22
30.8519089441
 13
160.9628038663
 23
30.8519089441
  0
SOLID
  8
0
 62
7
  6
CONTINUOUS
 10
160.9628038663
 20
30.8519089441
 11
160.9628038663
 21
30.7873818593
 12
160.615929528
 22
30.7873818593
 13
160.615929528
 23
30.7873818593
  0
SOLID
  8
0
 62
7
  6
CONTINUOUS
 10
160.5003043074
 20
30.7551187255
 11
160.615929528
 21
30.7873818593
 12
160.9628038663
 22
30.7873818593
 13
160.9628038663
 23
30.7873818593
  0
SOLID
  8
0
 62
7
  6
CONTINUOUS
 10
160.5003043074
 20
30.7551187255
 11
160.9628038663
 21
30.7873818593
 12
160.269054528
 22
30.7228547745
 13
160.269054528
 23
30.7228547745
  0
SOLID
  8
0
 62
7
  6
CONTINUOUS
 10
160.9628038663
 20
30.7873818593
 11
160.8471793074
 21
30.6905916353
 12
160.269054528
 22
30.7228547745
 13
160.269054528
 23
30.7228547745
  0
SOLID
  8
0
 62
7
  6
CONTINUOUS
 10
160.8471793074
 20
30.6905916353
 11
159.401867028
 21
30.658327332
 12
160.269054528
 22
30.7228547745
 13
160.269054528
 23
30.7228547745
  0
SOLID
  8
0
 62
7
  6
CONTINUOUS
 10
160.269054528
 20
30.7228547745
 11
159.401867028
 21
30.658327332
 12
159.922179528
 22
30.7228547745
 13
159.922179528
 23
30.7228547745
  0
SOLID
  8
0
 62
7
  6
CONTINUOUS
 10
159.401867028
 20
30.658327332
 11
159.228429528
 21
30.7228547745
 12
159.922179528
 22
30.7228547745
 13
159.922179528
 23
30.7228547745
  0
SOLID
  8
0
 62
7
  6
CONTINUOUS
 10
159.401867028
 20
30.658327332
 11
160.8471793074
 21
30.6905916353
 12
159.575304528
 22
30.6260629858
 13
159.575304528
 23
30.6260629858
  0
SOLID
  8
0
 62
7
  6
CONTINUOUS
 10
160.8471793074
 20
30.6905916353
 11
160.615929528
 21
30.6260629858
 12
159.575304528
 22
30.6260629858
 13
159.575304528
 23
30.6260629858
  0
SOLID
  8
0
 62
7
  6
CONTINUOUS
 10
159.922179528
 20
30.5938006049
 11
159.575304528
 21
30.6260629858
 12
160.615929528
 22
30.6260629858
 13
160.615929528
 23
30.6260629858
  0
SOLID
  8
0
 62
7
  6
CONTINUOUS
 10
160.615929528
 20
30.6260629858
 11
160.269054528
 21
30.5938006049
 12
159.922179528
 22
30.5938006049
 13
159.922179528
 23
30.5938006049
  0
SOLID
  8
0
 62
7
  6
CONTINUOUS
 10
149.5737418074
 20
31.1100184796
 11
149.9206168074
 21
31.2713369632
 12
149.8628043005
 22
31.1422827828
 13
149.8628043005
 23
31.1422827828
  0
SOLID
  8
0
 62
7
  6
CONTINUOUS
 10
149.8628043005
 20
31.1422827828
 11
149.8628043005
 21
31.0454914852
 12
149.5737418074
 22
31.1100184796
 13
149.5737418074
 23
31.1100184796
  0
SOLID
  8
0
 62
7
  6
CONTINUOUS
 10
149.6315543091
 20
30.9164372091
 11
149.5737418074
 21
31.1100184796
 12
149.8628043005
 22
31.0454914852
 13
149.8628043005
 23
31.0454914852
  0
SOLID
  8
0
 62
7
  6
CONTINUOUS
 10
149.8628043005
 20
31.0454914852
 11
149.9784292936
 21
30.8841729058
 12
149.6315543091
 22
30.9164372091
 13
149.6315543091
 23
30.9164372091
  0
SOLID
  8
0
 62
7
  6
CONTINUOUS
 10
149.7471793074
 20
30.7873813202
 11
149.6315543091
 21
30.9164372091
 12
149.9784292936
 22
30.8841729058
 13
149.9784292936
 23
30.8841729058
  0
SOLID
  8
0
 62
7
  6
CONTINUOUS
 10
149.9784292936
 20
30.8841729058
 11
150.1518667936
 21
30.7873813202
 12
149.7471793074
 22
30.7873813202
 13
149.7471793074
 23
30.7873813202
  0
SOLID
  8
0
 62
7
  6
CONTINUOUS
 10
149.8628043005
 20
30.7228547004
 11
149.7471793074
 21
30.7873813202
 12
150.1518667936
 22
30.7873813202
 13
150.1518667936
 23
30.7873813202
  0
SOLID
  8
0
 62
7
  6
CONTINUOUS
 10
150.1518667936
 20
30.7873813202
 11
150.498741835
 21
30.7228547004
 12
149.8628043005
 22
30.7228547004
 13
149.8628043005
 23
30.7228547004
  0
SOLID
  8
0
 62
7
  6
CONTINUOUS
 10
150.0362418212
 20
30.658327332
 11
149.8628043005
 21
30.7228547004
 12
150.498741835
 22
30.7228547004
 13
150.498741835
 23
30.7228547004
  0
SOLID
  8
0
 62
7
  6
CONTINUOUS
 10
154.0831168074
 20
31.1100184386
 11
154.1987416972
 21
31.1745462761
 12
154.7768668074
 22
31.1422827828
 13
154.7768668074
 23
31.1422827828
  0
SOLID
  8
0
 62
7
  6
CONTINUOUS
 10
154.7768668074
 20
31.1422827828
 11
154.5456166972
 21
31.1100184386
 12
154.0831168074
 22
31.1100184386
 13
154.0831168074
 23
31.1100184386
  0
SOLID
  8
0
 62
7
  6
CONTINUOUS
 10
153.9674919177
 20
30.9809642992
 11
154.0831168074
 21
31.1100184386
 12
154.5456166972
 22
31.1100184386
 13
154.5456166972
 23
31.1100184386
  0
SOLID
  8
0
 62
7
  6
CONTINUOUS
 10
154.3143669177
 20
31.0132277988
 11
153.9674919177
 21
30.9809642992
 12
154.4299918074
 22
31.0777556927
 13
154.4299918074
 23
31.0777556927
  0
SOLID
  8
0
 62
7
  6
CONTINUOUS
 10
153.9674919177
 20
30.9809642992
 11
154.5456166972
 21
31.1100184796
 12
154.4299918074
 22
31.0777556927
 13
154.4299918074
 23
31.0777556927
  0
SOLID
  8
0
 62
7
  6
CONTINUOUS
 10
154.3143669177
 20
31.0132277988
 11
154.2565543074
 21
30.9164372091
 12
153.9674919177
 22
30.9809642992
 13
153.9674919177
 23
30.9809642992
  0
SOLID
  8
0
 62
7
  6
CONTINUOUS
 10
153.9674919177
 20
30.8841729058
 11
153.9674919177
 21
30.9809642992
 12
154.2565543074
 22
30.9164372091
 13
154.2565543074
 23
30.9164372091
  0
SOLID
  8
0
 62
7
  6
CONTINUOUS
 10
154.2565543074
 20
30.9164372091
 11
154.2565543074
 21
30.8519086025
 12
153.9674919177
 22
30.8841729058
 13
153.9674919177
 23
30.8841729058
  0
SOLID
  8
0
 62
7
  6
CONTINUOUS
 10
154.0253041972
 20
30.7551187255
 11
153.9674919177
 21
30.8841729058
 12
154.2565543074
 22
30.8519086025
 13
154.2565543074
 23
30.8519086025
  0
SOLID
  8
0
 62
7
  6
CONTINUOUS
 10
155.412804528
 20
30.9487004259
 11
155.7018665869
 21
30.8519086025
 12
155.3549915869
 22
30.8841729058
 13
155.3549915869
 23
30.8841729058
  0
SOLID
  8
0
 62
7
  6
CONTINUOUS
 10
155.1815540869
 20
30.7873815123
 11
155.3549915869
 21
30.8841729058
 12
155.7018665869
 22
30.8519086025
 13
155.7018665869
 23
30.8519086025
  0
SOLID
  8
0
 62
7
  6
CONTINUOUS
 10
155.1815540869
 20
30.7873815123
 11
155.7018665869
 21
30.8519086025
 12
155.412804528
 22
30.7551187255
 13
155.412804528
 23
30.7551187255
  0
SOLID
  8
0
 62
7
  6
CONTINUOUS
 10
155.7018665869
 20
30.8519086025
 11
155.759679528
 21
30.6905916353
 12
155.412804528
 22
30.7551187255
 13
155.412804528
 23
30.7551187255
  0
SOLID
  8
0
 62
7
  6
CONTINUOUS
 10
155.4706168074
 20
30.658327332
 11
155.412804528
 21
30.7551187255
 12
155.759679528
 22
30.6905916353
 13
155.759679528
 23
30.6905916353
  0
SOLID
  8
0
 62
7
  6
CONTINUOUS
 10
155.4706168074
 20
30.658327332
 11
155.759679528
 21
30.6905916353
 12
155.5284290869
 22
30.5938002079
 13
155.5284290869
 23
30.5938002079
  0
SOLID
  8
0
 62
7
  6
CONTINUOUS
 10
155.759679528
 20
30.6905916353
 11
155.8174918074
 21
30.5938002079
 12
155.5284290869
 22
30.5938002079
 13
155.5284290869
 23
30.5938002079
  0
SOLID
  8
0
 62
7
  6
CONTINUOUS
 10
151.0768668626
 20
30.8196456577
 11
151.1346793074
 21
30.9164373395
 12
151.4237418626
 22
30.9164373395
 13
151.4237418626
 23
30.9164373395
  0
SOLID
  8
0
 62
7
  6
CONTINUOUS
 10
151.4237418626
 20
30.9164373395
 11
151.3659292523
 21
30.7873815123
 12
151.0768668626
 22
30.8196456577
 13
151.0768668626
 23
30.8196456577
  0
SOLID
  8
0
 62
7
  6
CONTINUOUS
 10
150.9034292799
 20
30.7551187255
 11
151.0768668626
 21
30.8196456577
 12
151.3659292523
 22
30.7873815123
 13
151.3659292523
 23
30.7873815123
  0
SOLID
  8
0
 62
7
  6
CONTINUOUS
 10
150.9034292799
 20
30.7551187255
 11
151.3659292523
 21
30.7873815123
 12
150.498741835
 22
30.7228544222
 13
150.498741835
 23
30.7228544222
  0
SOLID
  8
0
 62
7
  6
CONTINUOUS
 10
151.3659292523
 20
30.7873815123
 11
151.1924917523
 21
30.6905916353
 12
150.498741835
 22
30.7228544222
 13
150.498741835
 23
30.7228544222
  0
SOLID
  8
0
 62
7
  6
CONTINUOUS
 10
150.0362418212
 20
30.658327332
 11
150.498741835
 21
30.7228544222
 12
151.1924917523
 22
30.6905916353
 13
151.1924917523
 23
30.6905916353
  0
SOLID
  8
0
 62
7
  6
CONTINUOUS
 10
150.0362418212
 20
30.658327332
 11
151.1924917523
 21
30.6905916353
 12
150.2096793212
 22
30.6260631011
 13
150.2096793212
 23
30.6260631011
  0
SOLID
  8
0
 62
7
  6
CONTINUOUS
 10
151.1924917523
 20
30.6905916353
 11
150.9612418074
 21
30.6260631011
 12
150.2096793212
 22
30.6260631011
 13
150.2096793212
 23
30.6260631011
  0
SOLID
  8
0
 62
7
  6
CONTINUOUS
 10
150.5565542799
 20
30.5938002419
 11
150.2096793212
 21
30.6260631011
 12
150.9612418074
 22
30.6260631011
 13
150.9612418074
 23
30.6260631011
  0
SOLID
  8
0
 62
7
  6
CONTINUOUS
 10
154.0253041972
 20
30.7551187255
 11
154.2565543074
 21
30.8519086025
 12
154.3143669177
 22
30.7873815123
 13
154.3143669177
 23
30.7873815123
  0
SOLID
  8
0
 62
7
  6
CONTINUOUS
 10
154.3143669177
 20
30.7873815123
 11
154.5456166972
 21
30.7228544222
 12
154.0253041972
 22
30.7551187255
 13
154.0253041972
 23
30.7551187255
  0
SOLID
  8
0
 62
7
  6
CONTINUOUS
 10
154.1987416972
 20
30.658327332
 11
154.0253041972
 21
30.7551187255
 12
154.5456166972
 22
30.7228544222
 13
154.5456166972
 23
30.7228544222
  0
SOLID
  8
0
 62
7
  6
CONTINUOUS
 10
154.8924916972
 20
30.7228544637
 11
155.1815540869
 21
30.7873815123
 12
155.412804528
 22
30.7551187255
 13
155.412804528
 23
30.7551187255
  0
SOLID
  8
0
 62
7
  6
CONTINUOUS
 10
155.412804528
 20
30.7551187255
 11
155.3549915869
 21
30.6905916353
 12
154.8924916972
 22
30.7228544637
 13
154.8924916972
 23
30.7228544637
  0
SOLID
  8
0
 62
7
  6
CONTINUOUS
 10
155.3549915869
 20
30.6905916353
 11
154.1987416972
 21
30.658327332
 12
154.8924916972
 22
30.7228544637
 13
154.8924916972
 23
30.7228544637
  0
SOLID
  8
0
 62
7
  6
CONTINUOUS
 10
154.1987416972
 20
30.658327332
 11
154.5456166972
 21
30.7228544637
 12
154.8924916972
 22
30.7228544637
 13
154.8924916972
 23
30.7228544637
  0
SOLID
  8
0
 62
7
  6
CONTINUOUS
 10
154.1987416972
 20
30.658327332
 11
155.3549915869
 21
30.6905916353
 12
154.3143669177
 22
30.6260630541
 13
154.3143669177
 23
30.6260630541
  0
SOLID
  8
0
 62
7
  6
CONTINUOUS
 10
155.3549915869
 20
30.6905916353
 11
155.1815540869
 21
30.6260630541
 12
154.3143669177
 22
30.6260630541
 13
154.3143669177
 23
30.6260630541
  0
SOLID
  8
0
 62
7
  6
CONTINUOUS
 10
154.5456166972
 20
30.5938002188
 11
154.3143669177
 21
30.6260630541
 12
155.1815540869
 22
30.6260630541
 13
155.1815540869
 23
30.6260630541
  0
SOLID
  8
0
 62
7
  6
CONTINUOUS
 10
155.1815540869
 20
30.6260630541
 11
154.8924916972
 21
30.5938002188
 12
154.5456166972
 22
30.5938002188
 13
154.5456166972
 23
30.5938002188
  0
SOLID
  8
0
 62
7
  6
CONTINUOUS
 10
159.575304528
 20
30.7551187255
 11
159.228429528
 21
30.7228544637
 12
159.4596793074
 22
30.7873815123
 13
159.4596793074
 23
30.7873815123
  0
SOLID
  8
0
 62
7
  6
CONTINUOUS
 10
159.4596793074
 20
30.7873815123
 11
159.228429528
 21
30.7228544637
 12
159.401867028
 22
30.851908644
 13
159.401867028
 23
30.851908644
  0
SOLID
  8
0
 62
7
  6
CONTINUOUS
 10
159.228429528
 20
30.7228544637
 11
159.1128043074
 21
30.851908644
 12
159.401867028
 22
30.851908644
 13
159.401867028
 23
30.851908644
  0
SOLID
  8
0
 62
7
  6
CONTINUOUS
 10
159.575304528
 20
30.7551187255
 11
159.922179528
 21
30.7228544637
 12
159.228429528
 22
30.7228544637
 13
159.228429528
 23
30.7228544637
  0
SOLID
  8
0
 62
7
  6
CONTINUOUS
 10
156.279992028
 20
30.5938002419
 11
156.279992028
 21
31.6262382337
 12
156.5690540869
 22
30.5938002419
 13
156.5690540869
 23
31.6262382337
  0
ENDBLK
  8
0
  6
BYBLOCK
 62
0
  0
BLOCK
  8
0
 62
2
  6
CONTINUOUS
  2
SYMBOL_3_BL0
 70
64
 10
32.1213064866
 20
19.8534310916
  0
TEXT
  8
0
 62
7
  6
CONTINUOUS
 10
18.3860103289
 20
19.2268451992
  7
TEXTSTYLE_3
 40
2.7338706658
  1
Ammeraal Beltech
 41
1.0
 51
15.0
 72
0
  0
TEXT
  8
0
 62
7
  6
CONTINUOUS
 10
29.1868111546
 20
16.9533085264
  7
TEXTSTYLE_4
 40
1.0935482663
  1
Innovation & Service in Belting
 41
1.0
 72
0
  0
LINE
  8
0
 62
7
  6
CONTINUOUS
 10
12.3614696776
 20
19.9934385078
 11
13.1396216709
 21
23.6543558055
  0
LINE
  8
0
 62
7
  6
CONTINUOUS
 10
23.2347899607
 20
27.3177497171
 11
13.6274394139
 21
24.1961322958
  0
LINE
  8
0
 62
7
  6
CONTINUOUS
 10
12.5867530099
 20
19.3000877048
 11
20.093828271
 21
12.5406867788
  0
LINE
  8
0
 62
7
  6
CONTINUOUS
 10
12.8492874206
 20
20.5352149982
 11
23.6575567857
 21
24.0470345971
  0
LINE
  8
0
 62
7
  6
CONTINUOUS
 10
23.6533516486
 20
13.6972460334
 11
15.2078919798
 21
21.3015720751
  0
LINE
  8
0
 62
7
  6
CONTINUOUS
 10
24.1731743684
 20
26.4728246013
 11
23.1966148312
 21
21.8784731989
  0
LINE
  8
0
 62
7
  6
CONTINUOUS
 10
22.4968128835
 20
18.5861638851
 11
21.810364672
 21
15.3566789607
  0
LINE
  8
0
 62
7
  6
CONTINUOUS
 10
24.8542704669
 20
14.087448211
 11
25.8105020025
 21
18.5861638851
  0
LINE
  8
0
 62
7
  6
CONTINUOUS
 10
26.5103039502
 20
21.8784731989
 11
26.9545457526
 21
23.9684665583
  0
LINE
  8
0
 62
7
  6
CONTINUOUS
 10
20.8069293463
 20
12.3891124661
 11
24.3664527239
 21
13.5456717207
  0
LINE
  8
0
 62
7
  6
CONTINUOUS
 10
23.9478910361
 20
27.1661754044
 11
26.7292624203
 21
24.6618173613
  0
ARC
  8
0
 62
7
  6
CONTINUOUS
 10
13.8527227462
 20
23.5027814928
 40
0.7290321776
 50
108.0
 51
168.0
  0
ARC
  8
0
 62
7
  6
CONTINUOUS
 10
23.4600732931
 20
26.624398914
 40
0.7290321776
 50
348.0
 51
108.0
  0
ARC
  8
0
 62
7
  6
CONTINUOUS
 10
26.2414446773
 20
24.120040871
 40
0.7290321776
 50
348.0
 51
48.0
  0
ARC
  8
0
 62
7
  6
CONTINUOUS
 10
20.581646014
 20
13.0824632691
 40
0.7290321776
 50
228.0
 51
288.0
  0
ARC
  8
0
 62
7
  6
CONTINUOUS
 10
13.0745707529
 20
19.8418641951
 40
0.7290321776
 50
108.0
 51
228.0
  0
ARC
  8
0
 62
7
  6
CONTINUOUS
 10
24.1411693916
 20
14.2390225237
 40
0.7290321776
 50
228.0
 51
348.0
  0
ENDBLK
  8
0
  6
BYBLOCK
 62
0
  0
ENDSEC
  0
SECTION
  2
ENTITIES
  0
TEXT
  8
0
 62
5
  6
CONTINUOUS
 10
96.0
 20
25.636
  7
TEXTSTYLE_2
 40
2.8
  1
Scale :
 41
0.6
 51
0.000019
 72
0
  0
TEXT
  8
0
 62
5
  6
CONTINUOUS
 10
116.0
 20
25.636
  7
TEXTSTYLE_2
 40
2.8
  1
Belt type:
 41
0.6
 51
0.000019
 72
0
  0
INSERT
  8
0
 62
2
  6
CONTINUOUS
  2
SYMBOL_3_BL0
 10
32.1213064866
 20
19.8534310916
  0
INSERT
  8
0
 62
2
  6
CONTINUOUS
  2
SYMBOL_8_BL1
 10
173.5956734183
 20
35.5937998301
  0
LINE
  8
0
 62
2
  6
CONTINUOUS
 10
10.0
 20
30.0
 11
200.0
 21
30.0
  0
LINE
  8
0
 62
2
  6
CONTINUOUS
 10
10.0
 20
30.0
 11
10.0
 21
10.0
  0
LINE
  8
0
 62
2
  6
CONTINUOUS
 10
10.0
 20
10.0
 11
200.0
 21
10.0
  0
LINE
  8
0
 62
2
  6
CONTINUOUS
 10
95.0
 20
30.0
 11
95.0
 21
10.0
  0
LINE
  8
0
 62
2
  6
CONTINUOUS
 10
115.0
 20
30.0
 11
115.0
 21
10.0
  0
LINE
  8
0
 62
2
  6
CONTINUOUS
 10
200.0
 20
30.0
 11
200.0
 21
10.0
  0
TEXT
  8
0
 62
5
  6
CONTINUOUS
 10
13.0
 20
23.303
  7
TEXTSTYLE_5
 40
1.52
  1
                                                                     Ammeraal Beltech Modular A/S
 41
1.0
 72
0
  0
TEXT
  8
0
 62
5
  6
CONTINUOUS
 10
13.0
 20
20.595
  7
TEXTSTYLE_5
 40
1.5
  1
                                                                      Hjulmagervej 21,  7100 Vejle,  DK
 41
1.0
 72
0
  0
TEXT
  8
0
 62
5
  6
CONTINUOUS
 10
13.0
 20
17.881
  7
TEXTSTYLE_5
 40
1.495
  1
                                                                      tel: 
 41
1.0
 72
0
  0
TEXT
  8
0
 62
5
  6
CONTINUOUS
 10
57.9869465649
 20
17.881
  7
TEXTSTYLE_5
 40
1.51
  1
+45 75723100     fax: +45 75723348
 41
1.0
 72
0
  0
TEXT
  8
0
 62
5
  6
CONTINUOUS
 10
13.0
 20
15.177
  7
TEXTSTYLE_5
 40
1.5
  1
                                                                      admin@unichains.dk  www.unichains.com
 41
1.0
 72
0
  0
TEXT
  8
0
 62
5
  6
CONTINUOUS
 10
99.75
 20
13.75
  7
TEXTSTYLE_6
 40
5.0
  1
1:1
 41
0.7
 72
1
 11
105.0
 21
13.75
  0
TEXT
  8
0
 62
5
  6
CONTINUOUS
 10
118.0
 20
13.75
  7
TEXTSTYLE_7
 40
7.5
  1
uni SNB M2 20% Rubber Top K750
 41
0.3519444444
 72
0
  0
LINE
  8
0
 62
7
  6
CONTINUOUS
 10
210.0
 20
0.0
 11
0.0
 21
0.0
  0
LINE
  8
0
 62
7
  6
CONTINUOUS
 10
10.0
 20
10.0
 11
200.0
 21
10.0
  0
LINE
  8
0
 62
7
  6
CONTINUOUS
 10
10.0
 20
30.0
 11
200.0
 21
30.0
  0
LINE
  8
0
 62
7
  6
CONTINUOUS
 10
0.0
 20
0.0
 11
0.0
 21
297.0
  0
LINE
  8
0
 62
7
  6
CONTINUOUS
 10
10.0
 20
10.0
 11
10.0
 21
287.0
  0
LINE
  8
0
 62
7
  6
CONTINUOUS
 10
200.0
 20
287.0
 11
200.0
 21
10.0
  0
LINE
  8
0
 62
7
  6
CONTINUOUS
 10
210.0
 20
0.0
 11
210.0
 21
297.0
  0
LINE
  8
0
 62
7
  6
CONTINUOUS
 10
10.0
 20
287.0
 11
200.0
 21
287.0
  0
LINE
  8
0
 62
7
  6
CONTINUOUS
 10
0.0
 20
297.0
 11
210.0
 21
297.0
  0
POLYLINE
  8
0
 62
7
  6
CONTINUOUS
 66
1
 70
0
  0
VERTEX
  8
0
 62
7
  6
CONTINUOUS
 10
41.8619943509
 20
263.2235654047
  0
VERTEX
  8
0
 62
7
  6
CONTINUOUS
 10
41.8565885646
 20
263.2317105624
  0
VERTEX
  8
0
 62
7
  6
CONTINUOUS
 10
41.8751546597
 20
263.2396504445
  0
VERTEX
  8
0
 62
7
  6
CONTINUOUS
 10
41.9167567853
 20
263.2472667267
  0
VERTEX
  8
0
 62
7
  6
CONTINUOUS
 10
41.980677705
 20
263.2544644167
  0
VERTEX
  8
0
 62
7
  6
CONTINUOUS
 10
42.065025671
 20
263.2610652233
  0
VERTEX
  8
0
 62
7
  6
CONTINUOUS
 10
42.1688122981
 20
263.2670310366
  0
VERTEX
  8
0
 62
7
  6
CONTINUOUS
 10
42.2928399106
 20
263.2723879456
  0
VERTEX
  8
0
 62
7
  6
CONTINUOUS
 10
42.4365072408
 20
263.2770696057
  0
VERTEX
  8
0
 62
7
  6
CONTINUOUS
 10
42.5981909017
 20
263.2810166224
  0
VERTEX
  8
0
 62
7
  6
CONTINUOUS
 10
42.776311381
 20
263.2842186846
  0
SEQEND
  0
LINE
  8
0
 62
2
  6
CONTINUOUS
 10
43.859839512
 20
268.0967431193
 11
43.859839512
 21
266.3367431193
  0
LINE
  8
DEFAULT_1
 62
2
  6
CENTER
 10
43.859839512
 20
262.8167431193
 11
43.859839512
 21
262.6167431193
  0
LINE
  8
DEFAULT_1
 62
2
  6
CENTER
 10
43.859839512
 20
271.6167431193
 11
43.859839512
 21
271.8167431193
  0
LINE
  8
0
 62
7
  6
CONTINUOUS
 10
44.009839512
 20
272.6167431193
 11
44.009839512
 21
271.6167431193
  0
LINE
  8
0
 62
7
  6
CONTINUOUS
 10
46.559839512
 20
263.1333571412
 11
46.559839512
 21
262.871889913
  0
LINE
  8
0
 62
7
  6
CONTINUOUS
 10
46.934839512
 20
262.871889913
 11
46.934839512
 21
263.1333571412
  0
LINE
  8
0
 62
7
  6
CONTINUOUS
 10
48.059839512
 20
262.9887156975
 11
48.059839512
 21
263.0220944886
  0
LINE
  8
0
 62
7
  6
CONTINUOUS
 10
48.1223394524
 20
263.105541482
 11
48.1223394524
 21
263.1322445161
  0
LINE
  8
0
 62
7
  6
CONTINUOUS
 10
48.3098394524
 20
263.0999783501
 11
48.3098394524
 21
263.1289066377
  0
LINE
  8
0
 62
7
  6
CONTINUOUS
 10
48.3723395716
 20
262.9942788293
 11
48.3723395716
 21
263.0332207603
  0
LINE
  8
0
 62
7
  6
CONTINUOUS
 10
48.434839512
 20
263.0888520864
 11
48.434839512
 21
263.1236216635
  0
LINE
  8
0
 62
7
  6
CONTINUOUS
 10
48.4973394524
 20
263.0554732797
 11
48.4973394524
 21
263.1194493176
  0
LINE
  8
0
 62
7
  6
CONTINUOUS
 10
48.622339512
 20
263.0109682249
 11
48.622339512
 21
263.1111046138
  0
LINE
  8
0
 62
7
  6
CONTINUOUS
 10
48.809839512
 20
263.0332207523
 11
48.809839512
 21
263.0888520864
  0
LINE
  8
0
 62
7
  6
CONTINUOUS
 10
48.8723394524
 20
263.0499101479
 11
48.8723394524
 21
263.0721626908
  0
LINE
  8
0
 62
7
  6
CONTINUOUS
 10
48.434839512
 20
263.0888520864
 11
48.4973394524
 21
263.0721626908
  0
LINE
  8
0
 62
7
  6
CONTINUOUS
 10
48.8723394524
 20
263.0721626908
 11
48.809839512
 21
263.0888520864
  0
LINE
  8
0
 62
7
  6
CONTINUOUS
 10
49.372339512
 20
263.1333571412
 11
49.372339512
 21
262.871889913
  0
LINE
  8
0
 62
7
  6
CONTINUOUS
 10
49.747339512
 20
262.871889913
 11
49.747339512
 21
263.1333571412
  0
LINE
  8
0
 62
7
  6
CONTINUOUS
 10
48.622339512
 20
263.1111046138
 11
48.3723395716
 21
263.1277940094
  0
LINE
  8
0
 62
7
  6
CONTINUOUS
 10
48.3098394524
 20
263.0999783501
 11
48.434839512
 21
263.0888520864
  0
LINE
  8
0
 62
7
  6
CONTINUOUS
 10
48.809839512
 20
263.0888520864
 11
48.622339512
 21
263.1111046138
  0
LINE
  8
0
 62
7
  6
CONTINUOUS
 10
51.622339512
 20
263.0888520864
 11
51.434839512
 21
263.1111046138
  0
LINE
  8
0
 62
7
  6
CONTINUOUS
 10
51.247339512
 20
263.0888520864
 11
51.3098396312
 21
263.0721626908
  0
LINE
  8
0
 62
7
  6
CONTINUOUS
 10
51.6848396312
 20
263.0721626908
 11
51.622339512
 21
263.0888520864
  0
LINE
  8
0
 62
7
  6
CONTINUOUS
 10
50.872339512
 20
262.9887156975
 11
50.872339512
 21
263.0220944886
  0
LINE
  8
0
 62
7
  6
CONTINUOUS
 10
50.9348396312
 20
263.105541482
 11
50.9348396312
 21
263.1322445123
  0
LINE
  8
0
 62
7
  6
CONTINUOUS
 10
51.1223396312
 20
263.0999783501
 11
51.1223396312
 21
263.1289066319
  0
LINE
  8
0
 62
7
  6
CONTINUOUS
 10
51.1848393928
 20
262.9942788293
 11
51.1848393928
 21
263.0332207364
  0
LINE
  8
0
 62
7
  6
CONTINUOUS
 10
51.247339512
 20
263.0888520864
 11
51.247339512
 21
263.1236216545
  0
LINE
  8
0
 62
7
  6
CONTINUOUS
 10
51.3098396312
 20
263.0554732797
 11
51.3098396312
 21
263.1194492997
  0
LINE
  8
0
 62
7
  6
CONTINUOUS
 10
51.434839512
 20
263.0109682249
 11
51.434839512
 21
263.1111046138
  0
LINE
  8
0
 62
7
  6
CONTINUOUS
 10
51.622339512
 20
263.0332207523
 11
51.622339512
 21
263.0888520864
  0
LINE
  8
0
 62
7
  6
CONTINUOUS
 10
51.6848396312
 20
263.0499101479
 11
51.6848396312
 21
263.0721626908
  0
POLYLINE
  8
0
 62
7
  6
CONTINUOUS
 66
1
 70
0
  0
VERTEX
  8
0
 62
7
  6
CONTINUOUS
 10
55.2672980033
 20
262.8209300207
  0
VERTEX
  8
0
 62
7
  6
CONTINUOUS
 10
55.2578403752
 20
262.8190160939
  0
VERTEX
  8
0
 62
7
  6
CONTINUOUS
 10
55.2409145984
 20
262.8176393634
  0
VERTEX
  8
0
 62
7
  6
CONTINUOUS
 10
55.2196238811
 20
262.816940168
  0
VERTEX
  8
0
 62
7
  6
CONTINUOUS
 10
55.1960347476
 20
262.8167431193
  0
SEQEND
  0
LINE
  8
0
 62
7
  6
CONTINUOUS
 10
51.434839512
 20
263.0109682249
 11
51.622339512
 21
263.0332207523
  0
POLYLINE
  8
0
 62
7
  6
CONTINUOUS
 66
1
 70
0
  0
VERTEX
  8
0
 62
7
  6
CONTINUOUS
 10
55.398974567
 20
262.8408487334
  0
VERTEX
  8
0
 62
7
  6
CONTINUOUS
 10
55.340689039
 20
262.8342680305
  0
VERTEX
  8
0
 62
7
  6
CONTINUOUS
 10
55.2954851531
 20
262.827588777
  0
VERTEX
  8
0
 62
7
  6
CONTINUOUS
 10
55.2672980033
 20
262.8209300207
  0
SEQEND
  0
LINE
  8
0
 62
7
  6
CONTINUOUS
 10
51.247339512
 20
263.0387838841
 11
51.1223396312
 21
263.0276576204
  0
LINE
  8
0
 62
7
  6
CONTINUOUS
 10
48.434839512
 20
263.0387838841
 11
48.3098394524
 21
263.0276576204
  0
LINE
  8
0
 62
7
  6
CONTINUOUS
 10
51.1848393928
 20
262.9942788293
 11
51.434839512
 21
263.0109682249
  0
LINE
  8
0
 62
7
  6
CONTINUOUS
 10
48.3723395716
 20
262.9942788293
 11
48.622339512
 21
263.0109682249
  0
LINE
  8
0
 62
7
  6
CONTINUOUS
 10
51.1223396312
 20
263.0276576204
 11
50.9348396312
 21
263.0220944886
  0
LINE
  8
0
 62
7
  6
CONTINUOUS
 10
48.3098394524
 20
263.0276576204
 11
48.1223394524
 21
263.0220944886
  0
LINE
  8
0
 62
7
  6
CONTINUOUS
 10
50.872339512
 20
262.9887156975
 11
51.1848393928
 21
262.9942788293
  0
LINE
  8
0
 62
7
  6
CONTINUOUS
 10
48.059839512
 20
262.9887156975
 11
48.3723395716
 21
262.9942788293
  0
LINE
  8
0
 62
7
  6
CONTINUOUS
 10
42.776311381
 20
263.2842186846
 11
43.1945178356
 21
263.2886217998
  0
LINE
  8
0
 62
7
  6
CONTINUOUS
 10
43.1945178356
 20
263.2886217998
 11
43.7098395104
 21
263.2902374782
  0
LINE
  8
0
 62
7
  6
CONTINUOUS
 10
69.409839512
 20
262.8167431193
 11
55.2673021068
 21
262.8167431193
  0
LINE
  8
0
 62
7
  6
CONTINUOUS
 10
43.709839512
 20
262.8167431193
 11
55.1960347476
 21
262.8167431193
  0
LINE
  8
0
 62
7
  6
CONTINUOUS
 10
46.559839512
 20
262.871889913
 11
46.934839512
 21
262.871889913
  0
LINE
  8
0
 62
7
  6
CONTINUOUS
 10
49.372339512
 20
262.871889913
 11
49.747339512
 21
262.871889913
  0
LINE
  8
0
 62
7
  6
CONTINUOUS
 10
46.934839512
 20
262.9887156975
 11
48.059839512
 21
262.9887156975
  0
LINE
  8
0
 62
7
  6
CONTINUOUS
 10
49.747339512
 20
262.9887156975
 11
50.872339512
 21
262.9887156975
  0
LINE
  8
0
 62
7
  6
CONTINUOUS
 10
50.9348396312
 20
263.0220944886
 11
49.747339512
 21
263.0220944886
  0
LINE
  8
0
 62
7
  6
CONTINUOUS
 10
48.1223394524
 20
263.0220944886
 11
46.934839512
 21
263.0220944886
  0
LINE
  8
0
 62
7
  6
CONTINUOUS
 10
46.559839512
 20
263.0711288526
 11
46.934839512
 21
263.0711288526
  0
LINE
  8
0
 62
7
  6
CONTINUOUS
 10
49.372339512
 20
263.0711288526
 11
49.747339512
 21
263.0711288526
  0
LINE
  8
0
 62
7
  6
CONTINUOUS
 10
46.934839512
 20
263.105541482
 11
48.1223394524
 21
263.105541482
  0
LINE
  8
0
 62
7
  6
CONTINUOUS
 10
49.747339512
 20
263.105541482
 11
50.9348396312
 21
263.105541482
  0
LINE
  8
0
 62
7
  6
CONTINUOUS
 10
50.872339512
 20
263.1333571412
 11
49.372339512
 21
263.1333571412
  0
LINE
  8
0
 62
7
  6
CONTINUOUS
 10
48.059839512
 20
263.1333571412
 11
46.559839512
 21
263.1333571412
  0
LINE
  8
0
 62
7
  6
CONTINUOUS
 10
43.7098395104
 20
263.2902374782
 11
55.2378148753
 21
263.289716995
  0
POLYLINE
  8
0
 62
7
  6
CONTINUOUS
 66
1
 70
0
  0
VERTEX
  8
0
 62
7
  6
CONTINUOUS
 10
55.2378148753
 20
263.289716995
  0
VERTEX
  8
0
 62
7
  6
CONTINUOUS
 10
55.738466357
 20
263.2860429014
  0
VERTEX
  8
0
 62
7
  6
CONTINUOUS
 10
55.9472565509
 20
263.283013035
  0
VERTEX
  8
0
 62
7
  6
CONTINUOUS
 10
56.1324586418
 20
263.2791858117
  0
VERTEX
  8
0
 62
7
  6
CONTINUOUS
 10
56.295711852
 20
263.2745437838
  0
VERTEX
  8
0
 62
7
  6
CONTINUOUS
 10
56.4375578617
 20
263.2690768662
  0
VERTEX
  8
0
 62
7
  6
CONTINUOUS
 10
56.5583966374
 20
263.2627471397
  0
VERTEX
  8
0
 62
7
  6
CONTINUOUS
 10
56.6554087872
 20
263.2556877203
  0
VERTEX
  8
0
 62
7
  6
CONTINUOUS
 10
56.7266532666
 20
263.2481231202
  0
VERTEX
  8
0
 62
7
  6
CONTINUOUS
 10
56.7720661382
 20
263.2402649262
  0
VERTEX
  8
0
 62
7
  6
CONTINUOUS
 10
56.7927268421
 20
263.2321098349
  0
VERTEX
  8
0
 62
7
  6
CONTINUOUS
 10
56.7876846732
 20
263.2235654047
  0
SEQEND
  0
LINE
  8
0
 62
7
  6
CONTINUOUS
 10
48.3723395716
 20
263.1277940094
 11
48.059839512
 21
263.1333571412
  0
LINE
  8
0
 62
7
  6
CONTINUOUS
 10
51.1848393928
 20
263.1277940094
 11
50.872339512
 21
263.1333571412
  0
LINE
  8
0
 62
7
  6
CONTINUOUS
 10
48.1223394524
 20
263.105541482
 11
48.3098394524
 21
263.0999783501
  0
LINE
  8
0
 62
7
  6
CONTINUOUS
 10
50.9348396312
 20
263.105541482
 11
51.1223396312
 21
263.0999783501
  0
LINE
  8
0
 62
7
  6
CONTINUOUS
 10
51.434839512
 20
263.1111046138
 11
51.1848393928
 21
263.1277940094
  0
LINE
  8
0
 62
7
  6
CONTINUOUS
 10
51.1223396312
 20
263.0999783501
 11
51.247339512
 21
263.0888520864
  0
LINE
  8
0
 62
7
  6
CONTINUOUS
 10
51.622339512
 20
263.0332207523
 11
51.6848396312
 21
263.0499101479
  0
LINE
  8
0
 62
7
  6
CONTINUOUS
 10
51.3098396312
 20
263.0554732797
 11
51.247339512
 21
263.0387838841
  0
LINE
  8
0
 62
7
  6
CONTINUOUS
 10
48.622339512
 20
263.0109682249
 11
48.809839512
 21
263.0332207523
  0
LINE
  8
0
 62
7
  6
CONTINUOUS
 10
53.509414088
 20
271.6167431193
 11
53.509414088
 21
272.1667431193
  0
POLYLINE
  8
0
 62
7
  6
CONTINUOUS
 66
1
 70
0
  0
VERTEX
  8
0
 62
7
  6
CONTINUOUS
 10
53.509414088
 20
272.1667431193
  0
VERTEX
  8
0
 62
7
  6
CONTINUOUS
 10
53.5192581342
 20
272.261896517
  0
VERTEX
  8
0
 62
7
  6
CONTINUOUS
 10
53.5499301657
 20
272.3585609227
  0
VERTEX
  8
0
 62
7
  6
CONTINUOUS
 10
53.6040466017
 20
272.4565671629
  0
VERTEX
  8
0
 62
7
  6
CONTINUOUS
 10
53.6836843778
 20
272.5532994396
  0
VERTEX
  8
0
 62
7
  6
CONTINUOUS
 10
53.7895685635
 20
272.6452522796
  0
SEQEND
  0
LINE
  8
0
 62
7
  6
CONTINUOUS
 10
48.809839512
 20
263.0332207523
 11
48.8723394524
 21
263.0499101479
  0
LINE
  8
0
 62
7
  6
CONTINUOUS
 10
48.4973394524
 20
263.0554732797
 11
48.434839512
 21
263.0387838841
  0
LINE
  8
0
 62
2
  6
CONTINUOUS
 10
70.139839512
 20
267.2167431193
 11
68.379839512
 21
267.2167431193
  0
LINE
  8
DEFAULT_1
 62
2
  6
CENTER
 10
64.859839512
 20
267.2167431193
 11
64.659839512
 21
267.2167431193
  0
LINE
  8
0
 62
2
  6
CONTINUOUS
 10
44.739839512
 20
267.2167431193
 11
42.979839512
 21
267.2167431193
  0
LINE
  8
DEFAULT_1
 62
2
  6
CENTER
 10
39.459839512
 20
267.2167431193
 11
39.259839512
 21
267.2167431193
  0
LINE
  8
DEFAULT_1
 62
2
  6
CENTER
 10
48.259839512
 20
267.2167431193
 11
48.459839512
 21
267.2167431193
  0
LINE
  8
DEFAULT_1
 62
2
  6
CENTER
 10
73.659839512
 20
267.2167431193
 11
73.859839512
 21
267.2167431193
  0
LINE
  8
1_AXIS
 62
2
  6
CENTER
 10
56.559839512
 20
259.9667431193
 11
56.559839512
 21
276.9667431193
  0
LINE
  8
0
 62
7
  6
CONTINUOUS
 10
58.479839512
 20
272.6167431193
 11
58.479839512
 21
271.6167431193
  0
LINE
  8
0
 62
7
  6
CONTINUOUS
 10
55.6929655962
 20
271.1469243752
 11
55.2199234148
 21
271.1437076134
  0
LINE
  8
0
 62
7
  6
CONTINUOUS
 10
55.2199234148
 20
271.1437076134
 11
43.4197651283
 21
271.143741524
  0
POLYLINE
  8
0
 62
7
  6
CONTINUOUS
 66
1
 70
0
  0
VERTEX
  8
0
 62
7
  6
CONTINUOUS
 10
43.4197651283
 20
271.143741524
  0
VERTEX
  8
0
 62
7
  6
CONTINUOUS
 10
42.9280928694
 20
271.1472455543
  0
VERTEX
  8
0
 62
7
  6
CONTINUOUS
 10
42.7207894374
 20
271.1501584102
  0
VERTEX
  8
0
 62
7
  6
CONTINUOUS
 10
42.5353394446
 20
271.1538670842
  0
VERTEX
  8
0
 62
7
  6
CONTINUOUS
 10
42.3690103787
 20
271.1584513966
  0
VERTEX
  8
0
 62
7
  6
CONTINUOUS
 10
42.2244356168
 20
271.1638649225
  0
VERTEX
  8
0
 62
7
  6
CONTINUOUS
 10
42.1031505581
 20
271.1700219317
  0
VERTEX
  8
0
 62
7
  6
CONTINUOUS
 10
42.0050337473
 20
271.1768814837
  0
VERTEX
  8
0
 62
7
  6
CONTINUOUS
 10
41.9298155851
 20
271.1844843726
  0
VERTEX
  8
0
 62
7
  6
CONTINUOUS
 10
41.8801403826
 20
271.1926258041
  0
VERTEX
  8
0
 62
7
  6
CONTINUOUS
 10
41.857196893
 20
271.2011386244
  0
VERTEX
  8
0
 62
7
  6
CONTINUOUS
 10
41.8619943509
 20
271.2099208339
  0
SEQEND
  0
POLYLINE
  8
0
 62
7
  6
CONTINUOUS
 66
1
 70
0
  0
VERTEX
  8
0
 62
7
  6
CONTINUOUS
 10
56.7876846732
 20
271.2099208339
  0
VERTEX
  8
0
 62
7
  6
CONTINUOUS
 10
56.7932509064
 20
271.2019764115
  0
VERTEX
  8
0
 62
7
  6
CONTINUOUS
 10
56.776496202
 20
271.1943583777
  0
VERTEX
  8
0
 62
7
  6
CONTINUOUS
 10
56.7384858181
 20
271.1870212479
  0
VERTEX
  8
0
 62
7
  6
CONTINUOUS
 10
56.6783720397
 20
271.1799130573
  0
VERTEX
  8
0
 62
7
  6
CONTINUOUS
 10
56.5957267607
 20
271.1731739512
  0
VERTEX
  8
0
 62
7
  6
CONTINUOUS
 10
56.4918083516
 20
271.167007434
  0
VERTEX
  8
0
 62
7
  6
CONTINUOUS
 10
56.3689911284
 20
271.161560325
  0
VERTEX
  8
0
 62
7
  6
CONTINUOUS
 10
56.2286758142
 20
271.1568609966
  0
VERTEX
  8
0
 62
7
  6
CONTINUOUS
 10
56.0697619522
 20
271.1528597086
  0
VERTEX
  8
0
 62
7
  6
CONTINUOUS
 10
55.8918412898
 20
271.149554143
  0
VERTEX
  8
0
 62
7
  6
CONTINUOUS
 10
55.6929655962
 20
271.1469243752
  0
SEQEND
  0
LINE
  8
0
 62
7
  6
CONTINUOUS
 10
43.709839512
 20
271.6167431193
 11
69.409839512
 21
271.6167431193
  0
POLYLINE
  8
0
 62
7
  6
CONTINUOUS
 66
1
 70
0
  0
VERTEX
  8
0
 62
7
  6
CONTINUOUS
 10
55.1960200271
 20
271.6167433023
  0
VERTEX
  8
0
 62
7
  6
CONTINUOUS
 10
55.2206107091
 20
271.6165276618
  0
VERTEX
  8
0
 62
7
  6
CONTINUOUS
 10
55.2416821519
 20
271.6158069654
  0
VERTEX
  8
0
 62
7
  6
CONTINUOUS
 10
55.2579536492
 20
271.6144564961
  0
VERTEX
  8
0
 62
7
  6
CONTINUOUS
 10
55.2673035379
 20
271.6125555596
  0
SEQEND
  0
POLYLINE
  8
0
 62
7
  6
CONTINUOUS
 66
1
 70
0
  0
VERTEX
  8
0
 62
7
  6
CONTINUOUS
 10
55.2673035379
 20
271.6125555596
  0
VERTEX
  8
0
 62
7
  6
CONTINUOUS
 10
55.2953836863
 20
271.6059156063
  0
VERTEX
  8
0
 62
7
  6
CONTINUOUS
 10
55.3403909308
 20
271.5992562374
  0
VERTEX
  8
0
 62
7
  6
CONTINUOUS
 10
55.398974567
 20
271.5926375051
  0
SEQEND
  0
POLYLINE
  8
0
 62
7
  6
CONTINUOUS
 66
1
 70
0
  0
VERTEX
  8
0
 62
7
  6
CONTINUOUS
 10
54.3865451664
 20
272.9167431193
  0
VERTEX
  8
0
 62
7
  6
CONTINUOUS
 10
54.289420152
 20
272.905456615
  0
VERTEX
  8
0
 62
7
  6
CONTINUOUS
 10
54.1790534746
 20
272.8716122971
  0
VERTEX
  8
0
 62
7
  6
CONTINUOUS
 10
54.056374878
 20
272.8153876192
  0
VERTEX
  8
0
 62
7
  6
CONTINUOUS
 10
53.9241819933
 20
272.7382746483
  0
VERTEX
  8
0
 62
7
  6
CONTINUOUS
 10
53.7895685635
 20
272.6452522796
  0
SEQEND
  0
LINE
  8
0
 62
7
  6
CONTINUOUS
 10
54.3865451664
 20
272.9167431193
 11
58.5034500241
 21
272.9167431193
  0
LINE
  8
0
 62
7
  6
CONTINUOUS
 10
66.759839512
 20
274.9667431193
 11
60.829839512
 21
274.9667431193
  0
LINE
  8
0
 62
7
  6
CONTINUOUS
 10
52.289839512
 20
274.9667431193
 11
46.359839512
 21
274.9667431193
  0
LINE
  8
0
 62
7
  6
CONTINUOUS
 10
69.109839512
 20
271.6167431193
 11
69.109839512
 21
272.6167431193
  0
LINE
  8
0
 62
2
  6
CONTINUOUS
 10
69.259839512
 20
268.0967431193
 11
69.259839512
 21
266.3367431193
  0
LINE
  8
DEFAULT_1
 62
2
  6
CENTER
 10
69.259839512
 20
262.8167431193
 11
69.259839512
 21
262.6167431193
  0
LINE
  8
DEFAULT_1
 62
2
  6
CENTER
 10
69.259839512
 20
271.6167431193
 11
69.259839512
 21
271.8167431193
  0
LINE
  8
0
 62
7
  6
CONTINUOUS
 10
40.159839512
 20
51.4334862385
 11
57.339839512
 21
51.4334862385
  0
LINE
  8
0
 62
7
  6
CONTINUOUS
 10
43.709839512
 20
51.5214209512
 11
54.9398395133
 21
51.5214209512
  0
LINE
  8
0
 62
7
  6
CONTINUOUS
 10
55.1960430027
 20
56.9334883464
 11
43.709839512
 21
56.9334862385
  0
POLYLINE
  8
0
 62
7
  6
CONTINUOUS
 66
1
 70
0
  0
VERTEX
  8
0
 62
7
  6
CONTINUOUS
 10
43.709839512
 20
51.5214209512
  0
VERTEX
  8
0
 62
7
  6
CONTINUOUS
 10
43.4197651283
 20
51.5270532648
  0
VERTEX
  8
0
 62
7
  6
CONTINUOUS
 10
43.1602883698
 20
51.5425841332
  0
VERTEX
  8
0
 62
7
  6
CONTINUOUS
 10
42.9280928694
 20
51.567104515
  0
VERTEX
  8
0
 62
7
  6
CONTINUOUS
 10
42.7207894374
 20
51.6003986098
  0
VERTEX
  8
0
 62
7
  6
CONTINUOUS
 10
42.5353394446
 20
51.6427889475
  0
VERTEX
  8
0
 62
7
  6
CONTINUOUS
 10
42.3690103787
 20
51.6951878784
  0
VERTEX
  8
0
 62
7
  6
CONTINUOUS
 10
42.2244356168
 20
51.7570647623
  0
VERTEX
  8
0
 62
7
  6
CONTINUOUS
 10
42.1031505581
 20
51.8274397001
  0
VERTEX
  8
0
 62
7
  6
CONTINUOUS
 10
42.0050337473
 20
51.905844738
  0
VERTEX
  8
0
 62
7
  6
CONTINUOUS
 10
41.9298155851
 20
51.9927461562
  0
VERTEX
  8
0
 62
7
  6
CONTINUOUS
 10
41.8801403826
 20
52.0858031437
  0
VERTEX
  8
0
 62
7
  6
CONTINUOUS
 10
41.857196893
 20
52.1831051245
  0
VERTEX
  8
0
 62
7
  6
CONTINUOUS
 10
41.8619943509
 20
52.2834862385
  0
SEQEND
  0
POLYLINE
  8
0
 62
7
  6
CONTINUOUS
 66
1
 70
0
  0
VERTEX
  8
0
 62
7
  6
CONTINUOUS
 10
43.709839512
 20
56.9334862385
  0
VERTEX
  8
0
 62
7
  6
CONTINUOUS
 10
43.6137495851
 20
56.9214919895
  0
VERTEX
  8
0
 62
7
  6
CONTINUOUS
 10
43.5140195423
 20
56.8836557998
  0
VERTEX
  8
0
 62
7
  6
CONTINUOUS
 10
43.4122220284
 20
56.818305455
  0
VERTEX
  8
0
 62
7
  6
CONTINUOUS
 10
43.3113447505
 20
56.7268035545
  0
VERTEX
  8
0
 62
7
  6
CONTINUOUS
 10
43.212420915
 20
56.6110796741
  0
VERTEX
  8
0
 62
7
  6
CONTINUOUS
 10
43.115471508
 20
56.4725176915
  0
VERTEX
  8
0
 62
7
  6
CONTINUOUS
 10
43.0200837546
 20
56.311688283
  0
VERTEX
  8
0
 62
7
  6
CONTINUOUS
 10
42.9257728927
 20
56.1285510147
  0
VERTEX
  8
0
 62
7
  6
CONTINUOUS
 10
42.8320852691
 20
55.9226095702
  0
VERTEX
  8
0
 62
7
  6
CONTINUOUS
 10
42.7385900556
 20
55.6929290372
  0
VERTEX
  8
0
 62
7
  6
CONTINUOUS
 10
42.6449612556
 20
55.4383894263
  0
VERTEX
  8
0
 62
7
  6
CONTINUOUS
 10
42.5508614172
 20
55.1574454384
  0
VERTEX
  8
0
 62
7
  6
CONTINUOUS
 10
42.4560649031
 20
54.848508476
  0
VERTEX
  8
0
 62
7
  6
CONTINUOUS
 10
42.3603264499
 20
54.5095925723
  0
VERTEX
  8
0
 62
7
  6
CONTINUOUS
 10
42.2634759279
 20
54.1386350892
  0
VERTEX
  8
0
 62
7
  6
CONTINUOUS
 10
42.1653372074
 20
53.7332278286
  0
VERTEX
  8
0
 62
7
  6
CONTINUOUS
 10
42.0657874958
 20
53.2908451831
  0
VERTEX
  8
0
 62
7
  6
CONTINUOUS
 10
41.9646973266
 20
52.8085925194
  0
VERTEX
  8
0
 62
7
  6
CONTINUOUS
 10
41.8619943509
 20
52.2834862385
  0
SEQEND
  0
POLYLINE
  8
0
 62
7
  6
CONTINUOUS
 66
1
 70
0
  0
VERTEX
  8
0
 62
7
  6
CONTINUOUS
 10
62.339839512
 20
59.5454862385
  0
VERTEX
  8
0
 62
7
  6
CONTINUOUS
 10
61.9320601085
 20
59.5174680955
  0
VERTEX
  8
0
 62
7
  6
CONTINUOUS
 10
61.5291002582
 20
59.4336798024
  0
VERTEX
  8
0
 62
7
  6
CONTINUOUS
 10
61.1439519636
 20
59.2968228176
  0
SEQEND
  0
LINE
  8
0
 62
7
  6
CONTINUOUS
 10
63.959839512
 20
58.8454862385
 11
64.759839512
 21
58.8454862385
  0
LINE
  8
0
 62
7
  6
CONTINUOUS
 10
53.9260685587
 20
59.1934862385
 11
40.1598687585
 21
59.1934862385
  0
LINE
  8
0
 62
7
  6
CONTINUOUS
 10
60.6929941804
 20
59.5454862385
 11
72.959839512
 21
59.5454862385
  0
LINE
  8
0
 62
7
  6
CONTINUOUS
 10
49.159839512
 20
59.8934862385
 11
48.359839512
 21
59.8934862385
  0
LINE
  8
0
 62
7
  6
CONTINUOUS
 10
63.6776555496
 20
63.4334862385
 11
72.959839512
 21
63.4334862385
  0
POLYLINE
  8
0
 62
7
  6
CONTINUOUS
 66
1
 70
0
  0
VERTEX
  8
0
 62
7
  6
CONTINUOUS
 10
55.1960200271
 20
56.9334883304
  0
VERTEX
  8
0
 62
7
  6
CONTINUOUS
 10
55.2206107091
 20
56.9310235486
  0
VERTEX
  8
0
 62
7
  6
CONTINUOUS
 10
55.2416821519
 20
56.922785951
  0
VERTEX
  8
0
 62
7
  6
CONTINUOUS
 10
55.2579536492
 20
56.9073500165
  0
VERTEX
  8
0
 62
7
  6
CONTINUOUS
 10
55.2673035379
 20
56.8856222126
  0
SEQEND
  0
LINE
  8
0
 62
7
  6
CONTINUOUS
 10
49.159839512
 20
66.7834862385
 11
48.359839512
 21
66.7834862385
  0
LINE
  8
0
 62
7
  6
CONTINUOUS
 10
59.1936104654
 20
67.1334862385
 11
63.359839512
 21
67.1334862385
  0
LINE
  8
0
 62
7
  6
CONTINUOUS
 10
40.159839512
 20
67.4834862385
 11
53.928538353
 21
67.4834862385
  0
LINE
  8
0
 62
7
  6
CONTINUOUS
 10
53.9273034558
 20
73.4834862385
 11
40.1598687585
 21
73.4834862385
  0
LINE
  8
0
 62
7
  6
CONTINUOUS
 10
59.1923755682
 20
73.8334862385
 11
72.959839512
 21
73.8334862385
  0
LINE
  8
0
 62
7
  6
CONTINUOUS
 10
72.959839512
 20
79.8334862385
 11
59.1923755682
 21
79.8334862385
  0
LINE
  8
0
 62
7
  6
CONTINUOUS
 10
40.159839512
 20
80.1834862385
 11
53.9273034558
 21
80.1834862385
  0
LINE
  8
0
 62
7
  6
CONTINUOUS
 10
55.2884570631
 20
226.4112075646
 11
55.1871791351
 21
226.3291943156
  0
LINE
  8
0
 62
7
  6
CONTINUOUS
 10
57.831221961
 20
225.7037649124
 11
57.9349696833
 21
225.7877781614
  0
LINE
  8
0
 62
7
  6
CONTINUOUS
 10
53.9273034558
 20
86.1834862385
 11
40.1598687585
 21
86.1834862385
  0
LINE
  8
0
 62
7
  6
CONTINUOUS
 10
59.1923755682
 20
86.5334862385
 11
72.959839512
 21
86.5334862385
  0
LINE
  8
0
 62
7
  6
CONTINUOUS
 10
68.259839512
 20
87.7834862385
 11
59.329839512
 21
87.7834862385
  0
LINE
  8
0
 62
7
  6
CONTINUOUS
 10
55.1871791351
 20
67.0377781614
 11
55.2884570631
 21
66.9557649124
  0
LINE
  8
0
 62
7
  6
CONTINUOUS
 10
57.9349696833
 20
67.5791943156
 11
57.831221961
 21
67.6632075646
  0
POLYLINE
  8
0
 62
7
  6
CONTINUOUS
 66
1
 70
0
  0
VERTEX
  8
0
 62
7
  6
CONTINUOUS
 10
55.398974567
 20
236.7090146694
  0
VERTEX
  8
0
 62
7
  6
CONTINUOUS
 10
55.3406890393
 20
236.6337968908
  0
VERTEX
  8
0
 62
7
  6
CONTINUOUS
 10
55.295485153
 20
236.5574526734
  0
VERTEX
  8
0
 62
7
  6
CONTINUOUS
 10
55.2672975445
 20
236.4813415024
  0
SEQEND
  0
LINE
  8
0
 62
7
  6
CONTINUOUS
 10
55.2884570631
 20
213.7122075646
 11
55.1859442379
 21
213.6291943156
  0
LINE
  8
0
 62
7
  6
CONTINUOUS
 10
59.3301234481
 20
91.2834862385
 11
68.259839512
 21
91.2834862385
  0
LINE
  8
0
 62
7
  6
CONTINUOUS
 10
72.959839512
 20
92.5334862385
 11
59.1923755682
 21
92.5334862385
  0
LINE
  8
0
 62
7
  6
CONTINUOUS
 10
40.159839512
 20
92.8834862385
 11
53.9273034558
 21
92.8834862385
  0
LINE
  8
0
 62
7
  6
CONTINUOUS
 10
53.7895685635
 20
94.1334862385
 11
44.859839512
 21
94.1334862385
  0
LINE
  8
0
 62
7
  6
CONTINUOUS
 10
55.1859442379
 20
79.7377781614
 11
55.2884570631
 21
79.6547649124
  0
LINE
  8
0
 62
7
  6
CONTINUOUS
 10
57.831221961
 20
213.0047649124
 11
57.9337347861
 21
213.0877781614
  0
LINE
  8
0
 62
7
  6
CONTINUOUS
 10
53.7895685635
 20
97.6334862385
 11
44.859839512
 21
97.6334862385
  0
LINE
  8
0
 62
7
  6
CONTINUOUS
 10
53.9273034558
 20
98.8834862385
 11
40.1598687585
 21
98.8834862385
  0
LINE
  8
0
 62
7
  6
CONTINUOUS
 10
59.1923755682
 20
99.2334862385
 11
72.959839512
 21
99.2334862385
  0
LINE
  8
0
 62
7
  6
CONTINUOUS
 10
59.3301053201
 20
100.4834862385
 11
68.259839512
 21
100.4834862385
  0
POLYLINE
  8
0
 62
7
  6
CONTINUOUS
 66
1
 70
0
  0
VERTEX
  8
0
 62
7
  6
CONTINUOUS
 10
53.7895685635
 20
97.6334862385
  0
VERTEX
  8
0
 62
7
  6
CONTINUOUS
 10
53.9233941989
 20
97.6222038196
  0
VERTEX
  8
0
 62
7
  6
CONTINUOUS
 10
54.0550688831
 20
97.5873277979
  0
VERTEX
  8
0
 62
7
  6
CONTINUOUS
 10
54.1779792465
 20
97.530685233
  0
VERTEX
  8
0
 62
7
  6
CONTINUOUS
 10
54.2891396948
 20
97.4558468028
  0
VERTEX
  8
0
 62
7
  6
CONTINUOUS
 10
54.3865451664
 20
97.3670124813
  0
SEQEND
  0
POLYLINE
  8
0
 62
7
  6
CONTINUOUS
 66
1
 70
0
  0
VERTEX
  8
0
 62
7
  6
CONTINUOUS
 10
59.3301053201
 20
100.4834862385
  0
VERTEX
  8
0
 62
7
  6
CONTINUOUS
 10
59.1962948074
 20
100.4947645608
  0
VERTEX
  8
0
 62
7
  6
CONTINUOUS
 10
59.0645881451
 20
100.5296474484
  0
VERTEX
  8
0
 62
7
  6
CONTINUOUS
 10
58.9416267742
 20
100.5863223655
  0
VERTEX
  8
0
 62
7
  6
CONTINUOUS
 10
58.8304151862
 20
100.6612192052
  0
VERTEX
  8
0
 62
7
  6
CONTINUOUS
 10
58.7329756275
 20
100.7501259451
  0
SEQEND
  0
LINE
  8
0
 62
7
  6
CONTINUOUS
 10
57.9337347861
 20
80.2791943156
 11
57.831221961
 21
80.3622075646
  0
POLYLINE
  8
0
 62
7
  6
CONTINUOUS
 66
1
 70
0
  0
VERTEX
  8
0
 62
7
  6
CONTINUOUS
 10
54.3865451664
 20
195.9999599958
  0
VERTEX
  8
0
 62
7
  6
CONTINUOUS
 10
54.289420152
 20
195.9113472058
  0
VERTEX
  8
0
 62
7
  6
CONTINUOUS
 10
54.1790534746
 20
195.8368957953
  0
VERTEX
  8
0
 62
7
  6
CONTINUOUS
 10
54.056374878
 20
195.7801183506
  0
VERTEX
  8
0
 62
7
  6
CONTINUOUS
 10
53.9241819933
 20
195.7449045029
  0
VERTEX
  8
0
 62
7
  6
CONTINUOUS
 10
53.7895685635
 20
195.7334862385
  0
SEQEND
  0
LINE
  8
0
 62
7
  6
CONTINUOUS
 10
55.2884570631
 20
201.0122075646
 11
55.1859442379
 21
200.9291943156
  0
LINE
  8
0
 62
7
  6
CONTINUOUS
 10
57.831221961
 20
200.3047649124
 11
57.9337347861
 21
200.3877781614
  0
LINE
  8
0
 62
7
  6
CONTINUOUS
 10
58.479839512
 20
203.1168081799
 11
53.509414088
 21
199.2334862385
  0
LINE
  8
0
 62
7
  6
CONTINUOUS
 10
54.639839512
 20
198.2004538694
 11
59.6098943005
 21
202.0834862385
  0
LINE
  8
0
 62
7
  6
CONTINUOUS
 10
59.3301234481
 20
103.9834862385
 11
68.259839512
 21
103.9834862385
  0
LINE
  8
0
 62
7
  6
CONTINUOUS
 10
72.959839512
 20
105.2334862385
 11
59.1923755682
 21
105.2334862385
  0
LINE
  8
0
 62
7
  6
CONTINUOUS
 10
40.159839512
 20
105.5834862385
 11
53.9273034558
 21
105.5834862385
  0
LINE
  8
0
 62
7
  6
CONTINUOUS
 10
53.7895685635
 20
106.8334862385
 11
44.859839512
 21
106.8334862385
  0
LINE
  8
0
 62
7
  6
CONTINUOUS
 10
53.509414088
 20
94.1334862385
 11
58.479839512
 21
90.2501642971
  0
LINE
  8
0
 62
7
  6
CONTINUOUS
 10
59.6098943005
 20
91.2834862385
 11
54.639839512
 21
95.1665186077
  0
LINE
  8
0
 62
7
  6
CONTINUOUS
 10
55.1859442379
 20
92.4377781614
 11
55.2884570631
 21
92.3547649124
  0
LINE
  8
0
 62
7
  6
CONTINUOUS
 10
57.9337347861
 20
92.9791943156
 11
57.831221961
 21
93.0622075646
  0
POLYLINE
  8
0
 62
7
  6
CONTINUOUS
 66
1
 70
0
  0
VERTEX
  8
0
 62
7
  6
CONTINUOUS
 10
55.2672975445
 20
236.4813415024
  0
VERTEX
  8
0
 62
7
  6
CONTINUOUS
 10
55.2582158656
 20
236.4600185993
  0
VERTEX
  8
0
 62
7
  6
CONTINUOUS
 10
55.2421348489
 20
236.4444725981
  0
VERTEX
  8
0
 62
7
  6
CONTINUOUS
 10
55.2207217521
 20
236.4359775001
  0
VERTEX
  8
0
 62
7
  6
CONTINUOUS
 10
55.1960347476
 20
236.4334862385
  0
SEQEND
  0
LINE
  8
0
 62
7
  6
CONTINUOUS
 10
54.3934335815
 20
196.0072683582
 11
54.3865451664
 21
195.9999599958
  0
POLYLINE
  8
0
 62
7
  6
CONTINUOUS
 66
1
 70
0
  0
VERTEX
  8
0
 62
7
  6
CONTINUOUS
 10
58.7329756275
 20
192.616846532
  0
VERTEX
  8
0
 62
7
  6
CONTINUOUS
 10
58.8301378795
 20
192.7055341433
  0
VERTEX
  8
0
 62
7
  6
CONTINUOUS
 10
58.9405602705
 20
192.7800458002
  0
VERTEX
  8
0
 62
7
  6
CONTINUOUS
 10
59.0632925423
 20
192.8368551142
  0
VERTEX
  8
0
 62
7
  6
CONTINUOUS
 10
59.1955153521
 20
192.8720735421
  0
VERTEX
  8
0
 62
7
  6
CONTINUOUS
 10
59.3301053201
 20
192.8834862385
  0
SEQEND
  0
LINE
  8
0
 62
7
  6
CONTINUOUS
 10
55.2884570631
 20
188.3122075646
 11
55.1859442379
 21
188.2291943156
  0
LINE
  8
0
 62
7
  6
CONTINUOUS
 10
58.479839512
 20
190.4168081799
 11
53.509414088
 21
186.5334862385
  0
LINE
  8
0
 62
7
  6
CONTINUOUS
 10
54.639839512
 20
185.5004538694
 11
59.6098943005
 21
189.3834862385
  0
LINE
  8
0
 62
7
  6
CONTINUOUS
 10
53.7895685635
 20
110.3334862385
 11
44.859839512
 21
110.3334862385
  0
LINE
  8
0
 62
7
  6
CONTINUOUS
 10
53.9273034558
 20
111.5834862385
 11
40.1598687585
 21
111.5834862385
  0
LINE
  8
0
 62
7
  6
CONTINUOUS
 10
59.1923755682
 20
111.9334862385
 11
72.959839512
 21
111.9334862385
  0
LINE
  8
0
 62
7
  6
CONTINUOUS
 10
59.3301053201
 20
113.1834862385
 11
68.259839512
 21
113.1834862385
  0
POLYLINE
  8
0
 62
7
  6
CONTINUOUS
 66
1
 70
0
  0
VERTEX
  8
0
 62
7
  6
CONTINUOUS
 10
59.3301053201
 20
113.1834862385
  0
VERTEX
  8
0
 62
7
  6
CONTINUOUS
 10
59.1962948074
 20
113.1947645608
  0
VERTEX
  8
0
 62
7
  6
CONTINUOUS
 10
59.0645881451
 20
113.2296474484
  0
VERTEX
  8
0
 62
7
  6
CONTINUOUS
 10
58.9416267742
 20
113.2863223655
  0
VERTEX
  8
0
 62
7
  6
CONTINUOUS
 10
58.8304151862
 20
113.3612192052
  0
VERTEX
  8
0
 62
7
  6
CONTINUOUS
 10
58.7329756275
 20
113.4501259451
  0
SEQEND
  0
POLYLINE
  8
0
 62
7
  6
CONTINUOUS
 66
1
 70
0
  0
VERTEX
  8
0
 62
7
  6
CONTINUOUS
 10
53.7895685635
 20
110.3334862385
  0
VERTEX
  8
0
 62
7
  6
CONTINUOUS
 10
53.9245748251
 20
110.32199992
  0
VERTEX
  8
0
 62
7
  6
CONTINUOUS
 10
54.0557805516
 20
110.2870700078
  0
VERTEX
  8
0
 62
7
  6
CONTINUOUS
 10
54.1788699902
 20
110.2301807737
  0
VERTEX
  8
0
 62
7
  6
CONTINUOUS
 10
54.290570067
 20
110.1547150842
  0
VERTEX
  8
0
 62
7
  6
CONTINUOUS
 10
54.3865451664
 20
110.0670124813
  0
SEQEND
  0
LINE
  8
0
 62
7
  6
CONTINUOUS
 10
53.509414088
 20
106.8334862385
 11
58.479839512
 21
102.9501642971
  0
LINE
  8
0
 62
7
  6
CONTINUOUS
 10
59.6098943005
 20
103.9834862385
 11
54.639839512
 21
107.8665186077
  0
LINE
  8
0
 62
7
  6
CONTINUOUS
 10
55.1859442379
 20
105.1377781614
 11
55.2884570631
 21
105.0547649124
  0
LINE
  8
0
 62
7
  6
CONTINUOUS
 10
54.3865451664
 20
97.3670124813
 11
54.3934335815
 21
97.3597041189
  0
POLYLINE
  8
0
 62
7
  6
CONTINUOUS
 66
1
 70
0
  0
VERTEX
  8
0
 62
7
  6
CONTINUOUS
 10
54.3934335815
 20
97.3597041189
  0
VERTEX
  8
0
 62
7
  6
CONTINUOUS
 10
54.4747958726
 20
97.2598566692
  0
VERTEX
  8
0
 62
7
  6
CONTINUOUS
 10
54.5418639854
 20
97.1510492176
  0
VERTEX
  8
0
 62
7
  6
CONTINUOUS
 10
54.5937196956
 20
97.0339713022
  0
VERTEX
  8
0
 62
7
  6
CONTINUOUS
 10
54.6275181164
 20
96.9113537087
  0
VERTEX
  8
0
 62
7
  6
CONTINUOUS
 10
54.6398081996
 20
96.7907821377
  0
SEQEND
  0
POLYLINE
  8
0
 62
7
  6
CONTINUOUS
 66
1
 70
0
  0
VERTEX
  8
0
 62
7
  6
CONTINUOUS
 10
55.2673035379
 20
56.8856222126
  0
VERTEX
  8
0
 62
7
  6
CONTINUOUS
 10
55.2953836863
 20
56.809727199
  0
VERTEX
  8
0
 62
7
  6
CONTINUOUS
 10
55.3403909308
 20
56.7336102647
  0
VERTEX
  8
0
 62
7
  6
CONTINUOUS
 10
55.398974567
 20
56.6579578076
  0
SEQEND
  0
LINE
  8
0
 62
7
  6
CONTINUOUS
 10
58.7260893524
 20
192.6095364976
 11
58.7329756275
 21
192.616846532
  0
LINE
  8
0
 62
7
  6
CONTINUOUS
 10
54.3934335815
 20
183.3072683582
 11
54.3865451664
 21
183.2999599958
  0
POLYLINE
  8
0
 62
7
  6
CONTINUOUS
 66
1
 70
0
  0
VERTEX
  8
0
 62
7
  6
CONTINUOUS
 10
54.3865451664
 20
183.2999599958
  0
VERTEX
  8
0
 62
7
  6
CONTINUOUS
 10
54.289420152
 20
183.2113472058
  0
VERTEX
  8
0
 62
7
  6
CONTINUOUS
 10
54.1790534746
 20
183.1368957953
  0
VERTEX
  8
0
 62
7
  6
CONTINUOUS
 10
54.056374878
 20
183.0801183506
  0
VERTEX
  8
0
 62
7
  6
CONTINUOUS
 10
53.9241819933
 20
183.0449045029
  0
VERTEX
  8
0
 62
7
  6
CONTINUOUS
 10
53.7895685635
 20
183.0334862385
  0
SEQEND
  0
LINE
  8
0
 62
7
  6
CONTINUOUS
 10
57.831221961
 20
187.6047649124
 11
57.9337347861
 21
187.6877781614
  0
LINE
  8
0
 62
7
  6
CONTINUOUS
 10
59.3301234481
 20
116.6834862385
 11
68.259839512
 21
116.6834862385
  0
LINE
  8
0
 62
7
  6
CONTINUOUS
 10
72.959839512
 20
117.9334862385
 11
59.1923755682
 21
117.9334862385
  0
LINE
  8
0
 62
7
  6
CONTINUOUS
 10
40.159839512
 20
118.2834862385
 11
53.9273034558
 21
118.2834862385
  0
LINE
  8
0
 62
7
  6
CONTINUOUS
 10
53.7895685635
 20
119.5334862385
 11
44.859839512
 21
119.5334862385
  0
LINE
  8
0
 62
7
  6
CONTINUOUS
 10
57.9337347861
 20
105.6791943156
 11
57.831221961
 21
105.7622075646
  0
LINE
  8
0
 62
7
  6
CONTINUOUS
 10
54.3865451664
 20
110.0670124813
 11
54.3934335815
 21
110.0597041189
  0
LINE
  8
0
 62
7
  6
CONTINUOUS
 10
58.7329756275
 20
100.7501259451
 11
58.7260893524
 21
100.7574359795
  0
POLYLINE
  8
0
 62
7
  6
CONTINUOUS
 66
1
 70
0
  0
VERTEX
  8
0
 62
7
  6
CONTINUOUS
 10
58.7260893524
 20
100.7574359795
  0
VERTEX
  8
0
 62
7
  6
CONTINUOUS
 10
58.6447554395
 20
100.8573030314
  0
VERTEX
  8
0
 62
7
  6
CONTINUOUS
 10
58.5777165425
 20
100.9661279359
  0
VERTEX
  8
0
 62
7
  6
CONTINUOUS
 10
58.5258885246
 20
101.0832306641
  0
VERTEX
  8
0
 62
7
  6
CONTINUOUS
 10
58.4921220786
 20
101.2058746528
  0
VERTEX
  8
0
 62
7
  6
CONTINUOUS
 10
58.4798684038
 20
101.3264780204
  0
SEQEND
  0
LINE
  8
0
 62
7
  6
CONTINUOUS
 10
58.7260893524
 20
179.9095364976
 11
58.7329756275
 21
179.916846532
  0
POLYLINE
  8
0
 62
7
  6
CONTINUOUS
 66
1
 70
0
  0
VERTEX
  8
0
 62
7
  6
CONTINUOUS
 10
58.7329756275
 20
179.916846532
  0
VERTEX
  8
0
 62
7
  6
CONTINUOUS
 10
58.8301378795
 20
180.0055341433
  0
VERTEX
  8
0
 62
7
  6
CONTINUOUS
 10
58.9405602705
 20
180.0800458002
  0
VERTEX
  8
0
 62
7
  6
CONTINUOUS
 10
59.0632925423
 20
180.1368551142
  0
VERTEX
  8
0
 62
7
  6
CONTINUOUS
 10
59.1955153521
 20
180.1720735421
  0
VERTEX
  8
0
 62
7
  6
CONTINUOUS
 10
59.3301053201
 20
180.1834862385
  0
SEQEND
  0
POLYLINE
  8
0
 62
7
  6
CONTINUOUS
 66
1
 70
0
  0
VERTEX
  8
0
 62
7
  6
CONTINUOUS
 10
54.3865451664
 20
170.5999599958
  0
VERTEX
  8
0
 62
7
  6
CONTINUOUS
 10
54.289420152
 20
170.5113472058
  0
VERTEX
  8
0
 62
7
  6
CONTINUOUS
 10
54.1790534746
 20
170.4368957953
  0
VERTEX
  8
0
 62
7
  6
CONTINUOUS
 10
54.056374878
 20
170.3801183506
  0
VERTEX
  8
0
 62
7
  6
CONTINUOUS
 10
53.9241819933
 20
170.3449045029
  0
VERTEX
  8
0
 62
7
  6
CONTINUOUS
 10
53.7895685635
 20
170.3334862385
  0
SEQEND
  0
LINE
  8
0
 62
7
  6
CONTINUOUS
 10
55.2884570631
 20
175.6122075646
 11
55.1859442379
 21
175.5291943156
  0
LINE
  8
0
 62
7
  6
CONTINUOUS
 10
57.831221961
 20
174.9047649124
 11
57.9337347861
 21
174.9877781614
  0
LINE
  8
0
 62
7
  6
CONTINUOUS
 10
58.479839512
 20
177.7168081799
 11
53.509414088
 21
173.8334862385
  0
LINE
  8
0
 62
7
  6
CONTINUOUS
 10
54.639839512
 20
172.8004538694
 11
59.6098943005
 21
176.6834862385
  0
LINE
  8
0
 62
7
  6
CONTINUOUS
 10
53.7895685635
 20
123.0334862385
 11
44.859839512
 21
123.0334862385
  0
LINE
  8
0
 62
7
  6
CONTINUOUS
 10
53.9273034558
 20
124.2834862385
 11
40.1598687585
 21
124.2834862385
  0
LINE
  8
0
 62
7
  6
CONTINUOUS
 10
59.1923755682
 20
124.6334862385
 11
72.959839512
 21
124.6334862385
  0
LINE
  8
0
 62
7
  6
CONTINUOUS
 10
59.3301053201
 20
125.8834862385
 11
68.259839512
 21
125.8834862385
  0
POLYLINE
  8
0
 62
7
  6
CONTINUOUS
 66
1
 70
0
  0
VERTEX
  8
0
 62
7
  6
CONTINUOUS
 10
59.3301053201
 20
125.8834862385
  0
VERTEX
  8
0
 62
7
  6
CONTINUOUS
 10
59.1962948074
 20
125.8947645608
  0
VERTEX
  8
0
 62
7
  6
CONTINUOUS
 10
59.0645881451
 20
125.9296474484
  0
VERTEX
  8
0
 62
7
  6
CONTINUOUS
 10
58.9416267742
 20
125.9863223655
  0
VERTEX
  8
0
 62
7
  6
CONTINUOUS
 10
58.8304151862
 20
126.0612192052
  0
VERTEX
  8
0
 62
7
  6
CONTINUOUS
 10
58.7329756275
 20
126.1501259451
  0
SEQEND
  0
POLYLINE
  8
0
 62
7
  6
CONTINUOUS
 66
1
 70
0
  0
VERTEX
  8
0
 62
7
  6
CONTINUOUS
 10
53.7895685635
 20
123.0334862385
  0
VERTEX
  8
0
 62
7
  6
CONTINUOUS
 10
53.9245748251
 20
123.02199992
  0
VERTEX
  8
0
 62
7
  6
CONTINUOUS
 10
54.0557805516
 20
122.9870700078
  0
VERTEX
  8
0
 62
7
  6
CONTINUOUS
 10
54.1788699902
 20
122.9301807737
  0
VERTEX
  8
0
 62
7
  6
CONTINUOUS
 10
54.290570067
 20
122.8547150842
  0
VERTEX
  8
0
 62
7
  6
CONTINUOUS
 10
54.3865451664
 20
122.7670124813
  0
SEQEND
  0
LINE
  8
0
 62
7
  6
CONTINUOUS
 10
53.509414088
 20
119.5334862385
 11
58.479839512
 21
115.6501642971
  0
LINE
  8
0
 62
7
  6
CONTINUOUS
 10
59.6098943005
 20
116.6834862385
 11
54.639839512
 21
120.5665186077
  0
LINE
  8
0
 62
7
  6
CONTINUOUS
 10
55.1859442379
 20
117.8377781614
 11
55.2884570631
 21
117.7547649124
  0
LINE
  8
0
 62
7
  6
CONTINUOUS
 10
57.9337347861
 20
118.3791943156
 11
57.831221961
 21
118.4622075646
  0
LINE
  8
0
 62
7
  6
CONTINUOUS
 10
58.7329756275
 20
113.4501259451
 11
58.7260893524
 21
113.4574359795
  0
POLYLINE
  8
0
 62
7
  6
CONTINUOUS
 66
1
 70
0
  0
VERTEX
  8
0
 62
7
  6
CONTINUOUS
 10
54.3934335815
 20
110.0597041189
  0
VERTEX
  8
0
 62
7
  6
CONTINUOUS
 10
54.4738528844
 20
109.9611809632
  0
VERTEX
  8
0
 62
7
  6
CONTINUOUS
 10
54.5429630926
 20
109.8489628652
  0
VERTEX
  8
0
 62
7
  6
CONTINUOUS
 10
54.5952388337
 20
109.7297184428
  0
VERTEX
  8
0
 62
7
  6
CONTINUOUS
 10
54.628139797
 20
109.6080504653
  0
VERTEX
  8
0
 62
7
  6
CONTINUOUS
 10
54.6398081996
 20
109.4907821377
  0
SEQEND
  0
POLYLINE
  8
0
 62
7
  6
CONTINUOUS
 66
1
 70
0
  0
VERTEX
  8
0
 62
7
  6
CONTINUOUS
 10
58.7260893524
 20
113.4574359795
  0
VERTEX
  8
0
 62
7
  6
CONTINUOUS
 10
58.6447554395
 20
113.5573030314
  0
VERTEX
  8
0
 62
7
  6
CONTINUOUS
 10
58.5777165425
 20
113.6661279359
  0
VERTEX
  8
0
 62
7
  6
CONTINUOUS
 10
58.5258885246
 20
113.7832306641
  0
VERTEX
  8
0
 62
7
  6
CONTINUOUS
 10
58.4921220786
 20
113.9058746528
  0
VERTEX
  8
0
 62
7
  6
CONTINUOUS
 10
58.4798684038
 20
114.0264780204
  0
SEQEND
  0
LINE
  8
2_FEATURE
 62
7
  6
CONTINUOUS
 10
39.309839512
 20
241.0834862385
 11
39.309839512
 21
235.0234862385
  0
LINE
  8
2_FEATURE
 62
7
  6
CONTINUOUS
 10
39.309839512
 20
225.0334862385
 11
39.309839512
 21
220.7334862385
  0
LINE
  8
2_FEATURE
 62
7
  6
CONTINUOUS
 10
39.309839512
 20
212.3334862385
 11
39.309839512
 21
208.0334862385
  0
LINE
  8
2_FEATURE
 62
7
  6
CONTINUOUS
 10
39.309839512
 20
199.6334862385
 11
39.309839512
 21
195.3334862385
  0
LINE
  8
2_FEATURE
 62
7
  6
CONTINUOUS
 10
39.309839512
 20
186.9334862385
 11
39.309839512
 21
182.6334862385
  0
LINE
  8
2_FEATURE
 62
7
  6
CONTINUOUS
 10
39.309839512
 20
174.2334862385
 11
39.309839512
 21
169.9334862385
  0
LINE
  8
2_FEATURE
 62
7
  6
CONTINUOUS
 10
39.309839512
 20
161.5334862385
 11
39.309839512
 21
157.2334862385
  0
LINE
  8
2_FEATURE
 62
7
  6
CONTINUOUS
 10
39.309839512
 20
148.8334862385
 11
39.309839512
 21
144.5334862385
  0
LINE
  8
2_FEATURE
 62
7
  6
CONTINUOUS
 10
39.309839512
 20
136.1334862385
 11
39.309839512
 21
131.8334862385
  0
LINE
  8
2_FEATURE
 62
7
  6
CONTINUOUS
 10
39.309839512
 20
123.4334862385
 11
39.309839512
 21
119.1334862385
  0
LINE
  8
2_FEATURE
 62
7
  6
CONTINUOUS
 10
39.309839512
 20
110.7334862385
 11
39.309839512
 21
106.4334862385
  0
LINE
  8
2_FEATURE
 62
7
  6
CONTINUOUS
 10
39.309839512
 20
98.0334862385
 11
39.309839512
 21
93.7334862385
  0
LINE
  8
2_FEATURE
 62
7
  6
CONTINUOUS
 10
39.309839512
 20
85.3334862385
 11
39.309839512
 21
81.0334862385
  0
LINE
  8
2_FEATURE
 62
7
  6
CONTINUOUS
 10
39.309839512
 20
72.6334862385
 11
39.309839512
 21
68.3334862385
  0
LINE
  8
2_FEATURE
 62
7
  6
CONTINUOUS
 10
39.309839512
 20
58.3434862385
 11
39.309839512
 21
52.2834862385
  0
LINE
  8
DEFAULT_1
 62
2
  6
CENTER
 10
43.859839512
 20
49.4334862385
 11
43.859839512
 21
243.9334862385
  0
LINE
  8
0
 62
7
  6
CONTINUOUS
 10
44.009839512
 20
198.3834862385
 11
44.009839512
 21
196.5834862385
  0
LINE
  8
0
 62
7
  6
CONTINUOUS
 10
44.009839512
 20
185.6834862385
 11
44.009839512
 21
183.8834862385
  0
LINE
  8
0
 62
7
  6
CONTINUOUS
 10
44.009839512
 20
172.9834862385
 11
44.009839512
 21
171.1834862385
  0
LINE
  8
0
 62
7
  6
CONTINUOUS
 10
44.009839512
 20
160.2834862385
 11
44.009839512
 21
158.4834862385
  0
LINE
  8
0
 62
7
  6
CONTINUOUS
 10
44.009839512
 20
147.5834862385
 11
44.009839512
 21
145.7834862385
  0
LINE
  8
0
 62
7
  6
CONTINUOUS
 10
44.009839512
 20
134.8834862385
 11
44.009839512
 21
133.0834862385
  0
LINE
  8
0
 62
7
  6
CONTINUOUS
 10
44.009839512
 20
122.1834862385
 11
44.009839512
 21
120.3834862385
  0
LINE
  8
0
 62
7
  6
CONTINUOUS
 10
44.009839512
 20
109.4834862385
 11
44.009839512
 21
107.6834862385
  0
LINE
  8
0
 62
7
  6
CONTINUOUS
 10
44.009839512
 20
96.7834862385
 11
44.009839512
 21
94.9834862385
  0
POLYLINE
  8
0
 62
7
  6
CONTINUOUS
 66
1
 70
0
  0
VERTEX
  8
0
 62
7
  6
CONTINUOUS
 10
56.7876846732
 20
241.0834862385
  0
VERTEX
  8
0
 62
7
  6
CONTINUOUS
 10
56.6673943046
 20
240.4720435284
  0
VERTEX
  8
0
 62
7
  6
CONTINUOUS
 10
56.5474908288
 20
239.910676143
  0
VERTEX
  8
0
 62
7
  6
CONTINUOUS
 10
56.4277150691
 20
239.3961534674
  0
VERTEX
  8
0
 62
7
  6
CONTINUOUS
 10
56.3077232596
 20
238.9255518819
  0
VERTEX
  8
0
 62
7
  6
CONTINUOUS
 10
56.1870747923
 20
238.496307415
  0
VERTEX
  8
0
 62
7
  6
CONTINUOUS
 10
56.0651955509
 20
238.1062267461
  0
VERTEX
  8
0
 62
7
  6
CONTINUOUS
 10
55.9413300267
 20
237.7535552387
  0
VERTEX
  8
0
 62
7
  6
CONTINUOUS
 10
55.8144651604
 20
237.4370963388
  0
VERTEX
  8
0
 62
7
  6
CONTINUOUS
 10
55.6832075685
 20
237.1564326055
  0
VERTEX
  8
0
 62
7
  6
CONTINUOUS
 10
55.545621804
 20
236.9124156525
  0
VERTEX
  8
0
 62
7
  6
CONTINUOUS
 10
55.398974567
 20
236.7090146694
  0
SEQEND
  0
LINE
  8
0
 62
7
  6
CONTINUOUS
 10
58.7260893524
 20
167.2095364976
 11
58.7329756275
 21
167.216846532
  0
LINE
  8
0
 62
7
  6
CONTINUOUS
 10
54.3934335815
 20
170.6072683582
 11
54.3865451664
 21
170.5999599958
  0
POLYLINE
  8
0
 62
7
  6
CONTINUOUS
 66
1
 70
0
  0
VERTEX
  8
0
 62
7
  6
CONTINUOUS
 10
58.7329756275
 20
167.216846532
  0
VERTEX
  8
0
 62
7
  6
CONTINUOUS
 10
58.8301378795
 20
167.3055341433
  0
VERTEX
  8
0
 62
7
  6
CONTINUOUS
 10
58.9405602705
 20
167.3800458002
  0
VERTEX
  8
0
 62
7
  6
CONTINUOUS
 10
59.0632925423
 20
167.4368551142
  0
VERTEX
  8
0
 62
7
  6
CONTINUOUS
 10
59.1955153521
 20
167.4720735421
  0
VERTEX
  8
0
 62
7
  6
CONTINUOUS
 10
59.3301053201
 20
167.4834862385
  0
SEQEND
  0
LINE
  8
0
 62
7
  6
CONTINUOUS
 10
55.2884570631
 20
162.9122075646
 11
55.1859442379
 21
162.8291943156
  0
LINE
  8
0
 62
7
  6
CONTINUOUS
 10
58.479839512
 20
165.0168081799
 11
53.509414088
 21
161.1334862385
  0
LINE
  8
0
 62
7
  6
CONTINUOUS
 10
59.3301234481
 20
129.3834862385
 11
68.259839512
 21
129.3834862385
  0
LINE
  8
0
 62
7
  6
CONTINUOUS
 10
72.959839512
 20
130.6334862385
 11
59.1923755683
 21
130.6334862385
  0
LINE
  8
0
 62
7
  6
CONTINUOUS
 10
40.159839512
 20
130.9834862385
 11
53.9273034558
 21
130.9834862385
  0
LINE
  8
0
 62
7
  6
CONTINUOUS
 10
53.7895685635
 20
132.2334862385
 11
44.859839512
 21
132.2334862385
  0
LINE
  8
0
 62
7
  6
CONTINUOUS
 10
53.509414088
 20
132.2334862385
 11
58.479839512
 21
128.3501642971
  0
LINE
  8
0
 62
7
  6
CONTINUOUS
 10
55.1859442379
 20
130.5377781614
 11
55.2884570631
 21
130.4547649124
  0
LINE
  8
0
 62
7
  6
CONTINUOUS
 10
54.3865451664
 20
122.7670124813
 11
54.3934335815
 21
122.7597041189
  0
LINE
  8
0
 62
7
  6
CONTINUOUS
 10
58.7329756275
 20
126.1501259451
 11
58.7260893524
 21
126.1574359795
  0
POLYLINE
  8
0
 62
7
  6
CONTINUOUS
 66
1
 70
0
  0
VERTEX
  8
0
 62
7
  6
CONTINUOUS
 10
54.3934335815
 20
122.7597041189
  0
VERTEX
  8
0
 62
7
  6
CONTINUOUS
 10
54.4738528844
 20
122.6611809632
  0
VERTEX
  8
0
 62
7
  6
CONTINUOUS
 10
54.5429630926
 20
122.5489628652
  0
VERTEX
  8
0
 62
7
  6
CONTINUOUS
 10
54.5952388337
 20
122.4297184428
  0
VERTEX
  8
0
 62
7
  6
CONTINUOUS
 10
54.628139797
 20
122.3080504653
  0
VERTEX
  8
0
 62
7
  6
CONTINUOUS
 10
54.6398081996
 20
122.1907821377
  0
SEQEND
  0
POLYLINE
  8
0
 62
7
  6
CONTINUOUS
 66
1
 70
0
  0
VERTEX
  8
0
 62
7
  6
CONTINUOUS
 10
56.7876846732
 20
52.2834862385
  0
VERTEX
  8
0
 62
7
  6
CONTINUOUS
 10
56.6673943046
 20
52.8949289486
  0
VERTEX
  8
0
 62
7
  6
CONTINUOUS
 10
56.5474908288
 20
53.4562963341
  0
VERTEX
  8
0
 62
7
  6
CONTINUOUS
 10
56.4277150691
 20
53.9708190097
  0
VERTEX
  8
0
 62
7
  6
CONTINUOUS
 10
56.3077232596
 20
54.4414205952
  0
VERTEX
  8
0
 62
7
  6
CONTINUOUS
 10
56.1870747923
 20
54.870665062
  0
VERTEX
  8
0
 62
7
  6
CONTINUOUS
 10
56.0651955509
 20
55.2607457309
  0
VERTEX
  8
0
 62
7
  6
CONTINUOUS
 10
55.9413300267
 20
55.6134172384
  0
VERTEX
  8
0
 62
7
  6
CONTINUOUS
 10
55.8144651604
 20
55.9298761383
  0
VERTEX
  8
0
 62
7
  6
CONTINUOUS
 10
55.6832075685
 20
56.2105398716
  0
VERTEX
  8
0
 62
7
  6
CONTINUOUS
 10
55.545621804
 20
56.4545568246
  0
VERTEX
  8
0
 62
7
  6
CONTINUOUS
 10
55.398974567
 20
56.6579578076
  0
SEQEND
  0
POLYLINE
  8
0
 62
7
  6
CONTINUOUS
 66
1
 70
0
  0
VERTEX
  8
0
 62
7
  6
CONTINUOUS
 10
41.8619943509
 20
241.0834862385
  0
VERTEX
  8
0
 62
7
  6
CONTINUOUS
 10
41.857183694
 20
241.183726504
  0
VERTEX
  8
0
 62
7
  6
CONTINUOUS
 10
41.8799743949
 20
241.2807339063
  0
VERTEX
  8
0
 62
7
  6
CONTINUOUS
 10
41.9293979427
 20
241.3736238072
  0
VERTEX
  8
0
 62
7
  6
CONTINUOUS
 10
42.0042912481
 20
241.4604201343
  0
VERTEX
  8
0
 62
7
  6
CONTINUOUS
 10
42.1020889061
 20
241.5388110896
  0
VERTEX
  8
0
 62
7
  6
CONTINUOUS
 10
42.2231780539
 20
241.6092802535
  0
VERTEX
  8
0
 62
7
  6
CONTINUOUS
 10
42.3676333215
 20
241.6712777047
  0
VERTEX
  8
0
 62
7
  6
CONTINUOUS
 10
42.5337945317
 20
241.723767553
  0
VERTEX
  8
0
 62
7
  6
CONTINUOUS
 10
42.7191655484
 20
241.7662604962
  0
VERTEX
  8
0
 62
7
  6
CONTINUOUS
 10
42.9266525645
 20
241.7996778744
  0
VERTEX
  8
0
 62
7
  6
CONTINUOUS
 10
43.1591839881
 20
241.824297789
  0
VERTEX
  8
0
 62
7
  6
CONTINUOUS
 10
43.4191430266
 20
241.8398945962
  0
VERTEX
  8
0
 62
7
  6
CONTINUOUS
 10
43.7098395103
 20
241.8455515259
  0
SEQEND
  0
POLYLINE
  8
0
 62
7
  6
CONTINUOUS
 66
1
 70
0
  0
VERTEX
  8
0
 62
7
  6
CONTINUOUS
 10
54.6398081996
 20
196.5761903394
  0
VERTEX
  8
0
 62
7
  6
CONTINUOUS
 10
54.6274365575
 20
196.4551913998
  0
VERTEX
  8
0
 62
7
  6
CONTINUOUS
 10
54.5934144771
 20
196.3321550558
  0
VERTEX
  8
0
 62
7
  6
CONTINUOUS
 10
54.5412068412
 20
196.2146818202
  0
VERTEX
  8
0
 62
7
  6
CONTINUOUS
 10
54.4741982655
 20
196.1062760144
  0
VERTEX
  8
0
 62
7
  6
CONTINUOUS
 10
54.3934335815
 20
196.0072683582
  0
SEQEND
  0
POLYLINE
  8
0
 62
7
  6
CONTINUOUS
 66
1
 70
0
  0
VERTEX
  8
0
 62
7
  6
CONTINUOUS
 10
54.6398081996
 20
183.8761903394
  0
VERTEX
  8
0
 62
7
  6
CONTINUOUS
 10
54.6274365575
 20
183.7551913998
  0
VERTEX
  8
0
 62
7
  6
CONTINUOUS
 10
54.5934144771
 20
183.6321550558
  0
VERTEX
  8
0
 62
7
  6
CONTINUOUS
 10
54.5412068412
 20
183.5146818202
  0
VERTEX
  8
0
 62
7
  6
CONTINUOUS
 10
54.4741982655
 20
183.4062760144
  0
VERTEX
  8
0
 62
7
  6
CONTINUOUS
 10
54.3934335815
 20
183.3072683582
  0
SEQEND
  0
LINE
  8
0
 62
7
  6
CONTINUOUS
 10
54.3934335815
 20
157.9072683582
 11
54.3865451664
 21
157.8999599958
  0
POLYLINE
  8
0
 62
7
  6
CONTINUOUS
 66
1
 70
0
  0
VERTEX
  8
0
 62
7
  6
CONTINUOUS
 10
54.3865451664
 20
157.8999599958
  0
VERTEX
  8
0
 62
7
  6
CONTINUOUS
 10
54.289420152
 20
157.8113472058
  0
VERTEX
  8
0
 62
7
  6
CONTINUOUS
 10
54.1790534746
 20
157.7368957953
  0
VERTEX
  8
0
 62
7
  6
CONTINUOUS
 10
54.056374878
 20
157.6801183506
  0
VERTEX
  8
0
 62
7
  6
CONTINUOUS
 10
53.9241819933
 20
157.6449045029
  0
VERTEX
  8
0
 62
7
  6
CONTINUOUS
 10
53.7895685635
 20
157.6334862385
  0
SEQEND
  0
LINE
  8
0
 62
7
  6
CONTINUOUS
 10
57.831221961
 20
162.2047649124
 11
57.9337347861
 21
162.2877781614
  0
LINE
  8
0
 62
7
  6
CONTINUOUS
 10
54.639839512
 20
160.1004538694
 11
59.6098943005
 21
163.9834862385
  0
LINE
  8
0
 62
7
  6
CONTINUOUS
 10
53.7895685635
 20
135.7334862385
 11
44.859839512
 21
135.7334862385
  0
LINE
  8
0
 62
7
  6
CONTINUOUS
 10
53.9273034558
 20
136.9834862385
 11
40.1598687585
 21
136.9834862385
  0
LINE
  8
0
 62
7
  6
CONTINUOUS
 10
59.1923755682
 20
137.3334862385
 11
72.959839512
 21
137.3334862385
  0
LINE
  8
0
 62
7
  6
CONTINUOUS
 10
59.3301053201
 20
138.5834862385
 11
68.259839512
 21
138.5834862385
  0
POLYLINE
  8
0
 62
7
  6
CONTINUOUS
 66
1
 70
0
  0
VERTEX
  8
0
 62
7
  6
CONTINUOUS
 10
53.7895685635
 20
135.7334862385
  0
VERTEX
  8
0
 62
7
  6
CONTINUOUS
 10
53.9233941989
 20
135.7222038196
  0
VERTEX
  8
0
 62
7
  6
CONTINUOUS
 10
54.0550688831
 20
135.6873277979
  0
VERTEX
  8
0
 62
7
  6
CONTINUOUS
 10
54.1779792465
 20
135.630685233
  0
VERTEX
  8
0
 62
7
  6
CONTINUOUS
 10
54.2891396948
 20
135.5558468028
  0
VERTEX
  8
0
 62
7
  6
CONTINUOUS
 10
54.3865451664
 20
135.4670124813
  0
SEQEND
  0
POLYLINE
  8
0
 62
7
  6
CONTINUOUS
 66
1
 70
0
  0
VERTEX
  8
0
 62
7
  6
CONTINUOUS
 10
59.3301053201
 20
138.5834862385
  0
VERTEX
  8
0
 62
7
  6
CONTINUOUS
 10
59.1962948074
 20
138.5947645608
  0
VERTEX
  8
0
 62
7
  6
CONTINUOUS
 10
59.0645881451
 20
138.6296474484
  0
VERTEX
  8
0
 62
7
  6
CONTINUOUS
 10
58.9416267742
 20
138.6863223655
  0
VERTEX
  8
0
 62
7
  6
CONTINUOUS
 10
58.8304151862
 20
138.7612192052
  0
VERTEX
  8
0
 62
7
  6
CONTINUOUS
 10
58.7329756275
 20
138.8501259451
  0
SEQEND
  0
LINE
  8
0
 62
7
  6
CONTINUOUS
 10
59.6098943005
 20
129.3834862385
 11
54.639839512
 21
133.2665186077
  0
LINE
  8
0
 62
7
  6
CONTINUOUS
 10
57.9337347861
 20
131.0791943156
 11
57.831221961
 21
131.1622075646
  0
LINE
  8
0
 62
7
  6
CONTINUOUS
 10
54.3865451664
 20
135.4670124813
 11
54.3934335815
 21
135.4597041189
  0
POLYLINE
  8
0
 62
7
  6
CONTINUOUS
 66
1
 70
0
  0
VERTEX
  8
0
 62
7
  6
CONTINUOUS
 10
54.3934335815
 20
135.4597041189
  0
VERTEX
  8
0
 62
7
  6
CONTINUOUS
 10
54.4747958726
 20
135.3598566692
  0
VERTEX
  8
0
 62
7
  6
CONTINUOUS
 10
54.5418639854
 20
135.2510492176
  0
VERTEX
  8
0
 62
7
  6
CONTINUOUS
 10
54.5937196956
 20
135.1339713022
  0
VERTEX
  8
0
 62
7
  6
CONTINUOUS
 10
54.6275181164
 20
135.0113537087
  0
VERTEX
  8
0
 62
7
  6
CONTINUOUS
 10
54.6398081996
 20
134.8907821377
  0
SEQEND
  0
POLYLINE
  8
0
 62
7
  6
CONTINUOUS
 66
1
 70
0
  0
VERTEX
  8
0
 62
7
  6
CONTINUOUS
 10
58.7260893524
 20
126.1574359795
  0
VERTEX
  8
0
 62
7
  6
CONTINUOUS
 10
58.6447554395
 20
126.2573030314
  0
VERTEX
  8
0
 62
7
  6
CONTINUOUS
 10
58.5777165425
 20
126.3661279359
  0
VERTEX
  8
0
 62
7
  6
CONTINUOUS
 10
58.5258885246
 20
126.4832306641
  0
VERTEX
  8
0
 62
7
  6
CONTINUOUS
 10
58.4921220786
 20
126.6058746528
  0
VERTEX
  8
0
 62
7
  6
CONTINUOUS
 10
58.4798684038
 20
126.7264780204
  0
SEQEND
  0
POLYLINE
  8
0
 62
7
  6
CONTINUOUS
 66
1
 70
0
  0
VERTEX
  8
0
 62
7
  6
CONTINUOUS
 10
56.7876846732
 20
52.2834862385
  0
VERTEX
  8
0
 62
7
  6
CONTINUOUS
 10
56.7932509064
 20
52.1926810749
  0
VERTEX
  8
0
 62
7
  6
CONTINUOUS
 10
56.776496202
 20
52.105606551
  0
VERTEX
  8
0
 62
7
  6
CONTINUOUS
 10
56.7384858181
 20
52.0217427728
  0
VERTEX
  8
0
 62
7
  6
CONTINUOUS
 10
56.6783720397
 20
51.9404957825
  0
VERTEX
  8
0
 62
7
  6
CONTINUOUS
 10
56.5957267607
 20
51.863467448
  0
VERTEX
  8
0
 62
7
  6
CONTINUOUS
 10
56.4918083516
 20
51.792983834
  0
VERTEX
  8
0
 62
7
  6
CONTINUOUS
 10
56.3689911284
 20
51.7307230923
  0
VERTEX
  8
0
 62
7
  6
CONTINUOUS
 10
56.2286758142
 20
51.6770095235
  0
VERTEX
  8
0
 62
7
  6
CONTINUOUS
 10
56.0697619522
 20
51.6312745928
  0
VERTEX
  8
0
 62
7
  6
CONTINUOUS
 10
55.8918412898
 20
51.593491805
  0
VERTEX
  8
0
 62
7
  6
CONTINUOUS
 10
55.6929655962
 20
51.5634334213
  0
VERTEX
  8
0
 62
7
  6
CONTINUOUS
 10
55.4698476357
 20
51.541018847
  0
VERTEX
  8
0
 62
7
  6
CONTINUOUS
 10
55.2199234148
 20
51.5266656649
  0
VERTEX
  8
0
 62
7
  6
CONTINUOUS
 10
54.9398395133
 20
51.5214209512
  0
SEQEND
  0
LINE
  8
0
 62
7
  6
CONTINUOUS
 10
53.779839512
 20
233.8734862385
 11
53.779839512
 21
226.1834862385
  0
LINE
  8
0
 62
7
  6
CONTINUOUS
 10
53.779839512
 20
219.5834862385
 11
53.779839512
 21
213.4834862385
  0
LINE
  8
0
 62
7
  6
CONTINUOUS
 10
53.779839512
 20
206.8834862385
 11
53.779839512
 21
200.7834862385
  0
LINE
  8
0
 62
7
  6
CONTINUOUS
 10
53.779839512
 20
194.1834862385
 11
53.779839512
 21
188.0834862385
  0
LINE
  8
0
 62
7
  6
CONTINUOUS
 10
53.779839512
 20
181.4834862385
 11
53.779839512
 21
175.3834862385
  0
LINE
  8
0
 62
7
  6
CONTINUOUS
 10
53.779839512
 20
168.7834862385
 11
53.779839512
 21
162.6834862385
  0
LINE
  8
0
 62
7
  6
CONTINUOUS
 10
53.779839512
 20
156.0834862385
 11
53.779839512
 21
149.9834862385
  0
LINE
  8
0
 62
7
  6
CONTINUOUS
 10
53.779839512
 20
143.3834862385
 11
53.779839512
 21
137.2834862385
  0
LINE
  8
0
 62
7
  6
CONTINUOUS
 10
53.779839512
 20
130.6834862385
 11
53.779839512
 21
124.5834862385
  0
LINE
  8
0
 62
7
  6
CONTINUOUS
 10
53.779839512
 20
117.9834862385
 11
53.779839512
 21
111.8834862385
  0
LINE
  8
0
 62
7
  6
CONTINUOUS
 10
53.779839512
 20
105.2834862385
 11
53.779839512
 21
99.1834862385
  0
LINE
  8
0
 62
7
  6
CONTINUOUS
 10
53.779839512
 20
92.5834862385
 11
53.779839512
 21
86.4834862385
  0
LINE
  8
0
 62
7
  6
CONTINUOUS
 10
53.779839512
 20
79.8834862385
 11
53.779839512
 21
73.7834862385
  0
LINE
  8
0
 62
7
  6
CONTINUOUS
 10
53.779839512
 20
67.1834862385
 11
53.779839512
 21
59.4934862385
  0
LINE
  8
0
 62
7
  6
CONTINUOUS
 10
54.639839512
 20
198.3834862385
 11
54.639839512
 21
196.5834862385
  0
LINE
  8
0
 62
7
  6
CONTINUOUS
 10
54.639839512
 20
185.6834862385
 11
54.639839512
 21
183.8834862385
  0
LINE
  8
0
 62
7
  6
CONTINUOUS
 10
54.639839512
 20
172.9834862385
 11
54.639839512
 21
171.1834862385
  0
LINE
  8
0
 62
7
  6
CONTINUOUS
 10
54.639839512
 20
160.2834862385
 11
54.639839512
 21
158.4834862385
  0
LINE
  8
0
 62
7
  6
CONTINUOUS
 10
54.639839512
 20
147.5834862385
 11
54.639839512
 21
145.7834862385
  0
LINE
  8
0
 62
7
  6
CONTINUOUS
 10
54.639839512
 20
134.8834862385
 11
54.639839512
 21
133.0834862385
  0
LINE
  8
0
 62
7
  6
CONTINUOUS
 10
54.639839512
 20
122.1834862385
 11
54.639839512
 21
120.3834862385
  0
LINE
  8
0
 62
7
  6
CONTINUOUS
 10
54.639839512
 20
109.4834862385
 11
54.639839512
 21
107.6834862385
  0
LINE
  8
0
 62
7
  6
CONTINUOUS
 10
54.639839512
 20
96.7834862385
 11
54.639839512
 21
94.9834862385
  0
POLYLINE
  8
0
 62
7
  6
CONTINUOUS
 66
1
 70
0
  0
VERTEX
  8
0
 62
7
  6
CONTINUOUS
 10
58.4798684038
 20
192.0404944567
  0
VERTEX
  8
0
 62
7
  6
CONTINUOUS
 10
58.4922032465
 20
192.161523862
  0
VERTEX
  8
0
 62
7
  6
CONTINUOUS
 10
58.5261925061
 20
192.2845852603
  0
VERTEX
  8
0
 62
7
  6
CONTINUOUS
 10
58.5783712721
 20
192.4020822267
  0
VERTEX
  8
0
 62
7
  6
CONTINUOUS
 10
58.6453518686
 20
192.5105080561
  0
VERTEX
  8
0
 62
7
  6
CONTINUOUS
 10
58.7260893524
 20
192.6095364976
  0
SEQEND
  0
POLYLINE
  8
0
 62
7
  6
CONTINUOUS
 66
1
 70
0
  0
VERTEX
  8
0
 62
7
  6
CONTINUOUS
 10
58.4798684038
 20
179.3404944567
  0
VERTEX
  8
0
 62
7
  6
CONTINUOUS
 10
58.4922032465
 20
179.461523862
  0
VERTEX
  8
0
 62
7
  6
CONTINUOUS
 10
58.5261925061
 20
179.5845852603
  0
VERTEX
  8
0
 62
7
  6
CONTINUOUS
 10
58.5783712721
 20
179.7020822267
  0
VERTEX
  8
0
 62
7
  6
CONTINUOUS
 10
58.6453518686
 20
179.8105080561
  0
VERTEX
  8
0
 62
7
  6
CONTINUOUS
 10
58.7260893524
 20
179.9095364976
  0
SEQEND
  0
POLYLINE
  8
0
 62
7
  6
CONTINUOUS
 66
1
 70
0
  0
VERTEX
  8
0
 62
7
  6
CONTINUOUS
 10
58.4798684038
 20
166.6404944567
  0
VERTEX
  8
0
 62
7
  6
CONTINUOUS
 10
58.4922032465
 20
166.761523862
  0
VERTEX
  8
0
 62
7
  6
CONTINUOUS
 10
58.5261925061
 20
166.8845852603
  0
VERTEX
  8
0
 62
7
  6
CONTINUOUS
 10
58.5783712721
 20
167.0020822267
  0
VERTEX
  8
0
 62
7
  6
CONTINUOUS
 10
58.6453518686
 20
167.1105080561
  0
VERTEX
  8
0
 62
7
  6
CONTINUOUS
 10
58.7260893524
 20
167.2095364976
  0
SEQEND
  0
POLYLINE
  8
0
 62
7
  6
CONTINUOUS
 66
1
 70
0
  0
VERTEX
  8
0
 62
7
  6
CONTINUOUS
 10
54.6398081996
 20
171.1761903394
  0
VERTEX
  8
0
 62
7
  6
CONTINUOUS
 10
54.6274365575
 20
171.0551913998
  0
VERTEX
  8
0
 62
7
  6
CONTINUOUS
 10
54.5934144771
 20
170.9321550558
  0
VERTEX
  8
0
 62
7
  6
CONTINUOUS
 10
54.5412068412
 20
170.8146818202
  0
VERTEX
  8
0
 62
7
  6
CONTINUOUS
 10
54.4741982655
 20
170.7062760144
  0
VERTEX
  8
0
 62
7
  6
CONTINUOUS
 10
54.3934335815
 20
170.6072683582
  0
SEQEND
  0
POLYLINE
  8
0
 62
7
  6
CONTINUOUS
 66
1
 70
0
  0
VERTEX
  8
0
 62
7
  6
CONTINUOUS
 10
54.6398081996
 20
158.4761903394
  0
VERTEX
  8
0
 62
7
  6
CONTINUOUS
 10
54.6274365575
 20
158.3551913998
  0
VERTEX
  8
0
 62
7
  6
CONTINUOUS
 10
54.5934144771
 20
158.2321550558
  0
VERTEX
  8
0
 62
7
  6
CONTINUOUS
 10
54.5412068412
 20
158.1146818202
  0
VERTEX
  8
0
 62
7
  6
CONTINUOUS
 10
54.4741982655
 20
158.0062760144
  0
VERTEX
  8
0
 62
7
  6
CONTINUOUS
 10
54.3934335815
 20
157.9072683582
  0
SEQEND
  0
POLYLINE
  8
0
 62
7
  6
CONTINUOUS
 66
1
 70
0
  0
VERTEX
  8
0
 62
7
  6
CONTINUOUS
 10
54.6398081996
 20
145.7761903394
  0
VERTEX
  8
0
 62
7
  6
CONTINUOUS
 10
54.6274365575
 20
145.6551913998
  0
VERTEX
  8
0
 62
7
  6
CONTINUOUS
 10
54.5934144771
 20
145.5321550558
  0
VERTEX
  8
0
 62
7
  6
CONTINUOUS
 10
54.5412068412
 20
145.4146818202
  0
VERTEX
  8
0
 62
7
  6
CONTINUOUS
 10
54.4741982655
 20
145.3062760144
  0
VERTEX
  8
0
 62
7
  6
CONTINUOUS
 10
54.3934335815
 20
145.2072683582
  0
SEQEND
  0
POLYLINE
  8
0
 62
7
  6
CONTINUOUS
 66
1
 70
0
  0
VERTEX
  8
0
 62
7
  6
CONTINUOUS
 10
54.6398081996
 20
133.0761903394
  0
VERTEX
  8
0
 62
7
  6
CONTINUOUS
 10
54.6274365575
 20
132.9551913998
  0
VERTEX
  8
0
 62
7
  6
CONTINUOUS
 10
54.5934144771
 20
132.8321550558
  0
VERTEX
  8
0
 62
7
  6
CONTINUOUS
 10
54.5412068412
 20
132.7146818202
  0
VERTEX
  8
0
 62
7
  6
CONTINUOUS
 10
54.4741982655
 20
132.6062760144
  0
VERTEX
  8
0
 62
7
  6
CONTINUOUS
 10
54.3934335815
 20
132.5072683582
  0
SEQEND
  0
POLYLINE
  8
0
 62
7
  6
CONTINUOUS
 66
1
 70
0
  0
VERTEX
  8
0
 62
7
  6
CONTINUOUS
 10
54.6398081996
 20
120.3761903394
  0
VERTEX
  8
0
 62
7
  6
CONTINUOUS
 10
54.6274365575
 20
120.2551913998
  0
VERTEX
  8
0
 62
7
  6
CONTINUOUS
 10
54.5934144771
 20
120.1321550558
  0
VERTEX
  8
0
 62
7
  6
CONTINUOUS
 10
54.5412068412
 20
120.0146818202
  0
VERTEX
  8
0
 62
7
  6
CONTINUOUS
 10
54.4741982655
 20
119.9062760144
  0
VERTEX
  8
0
 62
7
  6
CONTINUOUS
 10
54.3934335815
 20
119.8072683582
  0
SEQEND
  0
LINE
  8
0
 62
7
  6
CONTINUOUS
 10
58.7260893524
 20
154.5095364976
 11
58.7329756275
 21
154.516846532
  0
LINE
  8
0
 62
7
  6
CONTINUOUS
 10
54.3934335815
 20
145.2072683582
 11
54.3865451664
 21
145.1999599958
  0
POLYLINE
  8
0
 62
7
  6
CONTINUOUS
 66
1
 70
0
  0
VERTEX
  8
0
 62
7
  6
CONTINUOUS
 10
58.7329756275
 20
154.516846532
  0
VERTEX
  8
0
 62
7
  6
CONTINUOUS
 10
58.8301378795
 20
154.6055341433
  0
VERTEX
  8
0
 62
7
  6
CONTINUOUS
 10
58.9405602705
 20
154.6800458002
  0
VERTEX
  8
0
 62
7
  6
CONTINUOUS
 10
59.0632925423
 20
154.7368551142
  0
VERTEX
  8
0
 62
7
  6
CONTINUOUS
 10
59.1955153521
 20
154.7720735421
  0
VERTEX
  8
0
 62
7
  6
CONTINUOUS
 10
59.3301053201
 20
154.7834862385
  0
SEQEND
  0
POLYLINE
  8
0
 62
7
  6
CONTINUOUS
 66
1
 70
0
  0
VERTEX
  8
0
 62
7
  6
CONTINUOUS
 10
54.3865451664
 20
145.1999599958
  0
VERTEX
  8
0
 62
7
  6
CONTINUOUS
 10
54.289420152
 20
145.1113472058
  0
VERTEX
  8
0
 62
7
  6
CONTINUOUS
 10
54.1790534746
 20
145.0368957953
  0
VERTEX
  8
0
 62
7
  6
CONTINUOUS
 10
54.056374878
 20
144.9801183506
  0
VERTEX
  8
0
 62
7
  6
CONTINUOUS
 10
53.9241819933
 20
144.9449045029
  0
VERTEX
  8
0
 62
7
  6
CONTINUOUS
 10
53.7895685635
 20
144.9334862385
  0
SEQEND
  0
LINE
  8
0
 62
7
  6
CONTINUOUS
 10
55.2884570631
 20
150.2122075646
 11
55.1859442379
 21
150.1291943156
  0
LINE
  8
0
 62
7
  6
CONTINUOUS
 10
57.831221961
 20
149.5047649124
 11
57.9337347861
 21
149.5877781614
  0
LINE
  8
0
 62
7
  6
CONTINUOUS
 10
58.479839512
 20
152.3168081799
 11
53.509414088
 21
148.4334862385
  0
LINE
  8
0
 62
7
  6
CONTINUOUS
 10
54.639839512
 20
147.4004538694
 11
59.6098943005
 21
151.2834862385
  0
LINE
  8
0
 62
7
  6
CONTINUOUS
 10
59.3301234481
 20
142.0834862385
 11
68.259839512
 21
142.0834862385
  0
LINE
  8
0
 62
7
  6
CONTINUOUS
 10
49.159839512
 20
142.9834862385
 11
48.359839512
 21
142.9834862385
  0
LINE
  8
0
 62
7
  6
CONTINUOUS
 10
72.959839512
 20
143.3334862385
 11
59.1923755683
 21
143.3334862385
  0
LINE
  8
0
 62
7
  6
CONTINUOUS
 10
40.159839512
 20
143.6834862385
 11
53.9273034558
 21
143.6834862385
  0
LINE
  8
0
 62
7
  6
CONTINUOUS
 10
63.959839512
 20
144.0334862385
 11
64.759839512
 21
144.0334862385
  0
LINE
  8
0
 62
7
  6
CONTINUOUS
 10
53.7895685635
 20
144.9334862385
 11
44.859839512
 21
144.9334862385
  0
LINE
  8
0
 62
7
  6
CONTINUOUS
 10
53.509414088
 20
144.9334862385
 11
58.479839512
 21
141.0501642971
  0
LINE
  8
0
 62
7
  6
CONTINUOUS
 10
59.6098943005
 20
142.0834862385
 11
54.639839512
 21
145.9665186077
  0
LINE
  8
0
 62
7
  6
CONTINUOUS
 10
55.1859442379
 20
143.2377781614
 11
55.2884570631
 21
143.1547649124
  0
LINE
  8
0
 62
7
  6
CONTINUOUS
 10
57.9337347861
 20
143.7791943156
 11
57.831221961
 21
143.8622075646
  0
LINE
  8
0
 62
7
  6
CONTINUOUS
 10
54.3865451664
 20
148.1670124813
 11
54.3934335815
 21
148.1597041189
  0
LINE
  8
0
 62
7
  6
CONTINUOUS
 10
58.7329756275
 20
138.8501259451
 11
58.7260893524
 21
138.8574359795
  0
POLYLINE
  8
0
 62
7
  6
CONTINUOUS
 66
1
 70
0
  0
VERTEX
  8
0
 62
7
  6
CONTINUOUS
 10
54.3934335815
 20
148.1597041189
  0
VERTEX
  8
0
 62
7
  6
CONTINUOUS
 10
54.4738528844
 20
148.0611809632
  0
VERTEX
  8
0
 62
7
  6
CONTINUOUS
 10
54.5429630926
 20
147.9489628652
  0
VERTEX
  8
0
 62
7
  6
CONTINUOUS
 10
54.5952388337
 20
147.8297184428
  0
VERTEX
  8
0
 62
7
  6
CONTINUOUS
 10
54.628139797
 20
147.7080504653
  0
VERTEX
  8
0
 62
7
  6
CONTINUOUS
 10
54.6398081996
 20
147.5907821377
  0
SEQEND
  0
POLYLINE
  8
0
 62
7
  6
CONTINUOUS
 66
1
 70
0
  0
VERTEX
  8
0
 62
7
  6
CONTINUOUS
 10
58.7260893524
 20
138.8574359795
  0
VERTEX
  8
0
 62
7
  6
CONTINUOUS
 10
58.6447554395
 20
138.9573030314
  0
VERTEX
  8
0
 62
7
  6
CONTINUOUS
 10
58.5777165425
 20
139.0661279359
  0
VERTEX
  8
0
 62
7
  6
CONTINUOUS
 10
58.5258885246
 20
139.1832306641
  0
VERTEX
  8
0
 62
7
  6
CONTINUOUS
 10
58.4921220786
 20
139.3058746528
  0
VERTEX
  8
0
 62
7
  6
CONTINUOUS
 10
58.4798684038
 20
139.4264780204
  0
SEQEND
  0
POLYLINE
  8
0
 62
7
  6
CONTINUOUS
 66
1
 70
0
  0
VERTEX
  8
0
 62
7
  6
CONTINUOUS
 10
58.4927522867
 20
189.8296944651
  0
VERTEX
  8
0
 62
7
  6
CONTINUOUS
 10
58.4973219176
 20
189.6609963999
  0
VERTEX
  8
0
 62
7
  6
CONTINUOUS
 10
58.4990671079
 20
189.4800667629
  0
SEQEND
  0
POLYLINE
  8
0
 62
7
  6
CONTINUOUS
 66
1
 70
0
  0
VERTEX
  8
0
 62
7
  6
CONTINUOUS
 10
58.479839512
 20
190.2264554477
  0
VERTEX
  8
0
 62
7
  6
CONTINUOUS
 10
58.4819507949
 20
190.114326888
  0
VERTEX
  8
0
 62
7
  6
CONTINUOUS
 10
58.4927522867
 20
189.8296944651
  0
SEQEND
  0
LINE
  8
0
 62
7
  6
CONTINUOUS
 10
58.479839512
 20
204.7334862385
 11
58.4798684038
 21
202.9264780204
  0
LINE
  8
0
 62
7
  6
CONTINUOUS
 10
58.479839512
 20
103.1334862385
 11
58.4798684038
 21
101.3264780204
  0
LINE
  8
0
 62
7
  6
CONTINUOUS
 10
58.479839512
 20
152.1334862385
 11
58.479839512
 21
153.9334862385
  0
LINE
  8
0
 62
7
  6
CONTINUOUS
 10
58.4798684038
 20
177.5264780204
 11
58.479839512
 21
179.3334862385
  0
LINE
  8
0
 62
7
  6
CONTINUOUS
 10
59.339839512
 20
239.9334862385
 11
59.339839512
 21
236.8214862385
  0
LINE
  8
0
 62
7
  6
CONTINUOUS
 10
59.339839512
 20
225.9334862385
 11
59.339839512
 21
219.8334862385
  0
LINE
  8
0
 62
7
  6
CONTINUOUS
 10
59.339839512
 20
213.2334862385
 11
59.339839512
 21
207.1334862385
  0
LINE
  8
0
 62
7
  6
CONTINUOUS
 10
59.339839512
 20
200.5334862385
 11
59.339839512
 21
194.4334862385
  0
LINE
  8
0
 62
7
  6
CONTINUOUS
 10
59.339839512
 20
187.8334862385
 11
59.339839512
 21
181.7334862385
  0
LINE
  8
0
 62
7
  6
CONTINUOUS
 10
59.339839512
 20
175.1334862385
 11
59.339839512
 21
169.0334862385
  0
LINE
  8
0
 62
7
  6
CONTINUOUS
 10
59.339839512
 20
162.4334862385
 11
59.339839512
 21
156.3334862385
  0
LINE
  8
0
 62
7
  6
CONTINUOUS
 10
59.339839512
 20
149.7334862385
 11
59.339839512
 21
143.6334862385
  0
LINE
  8
0
 62
7
  6
CONTINUOUS
 10
59.339839512
 20
137.0334862385
 11
59.339839512
 21
130.9334862385
  0
LINE
  8
0
 62
7
  6
CONTINUOUS
 10
59.339839512
 20
124.3334862385
 11
59.339839512
 21
118.2334862385
  0
LINE
  8
0
 62
7
  6
CONTINUOUS
 10
59.339839512
 20
111.6334862385
 11
59.339839512
 21
105.5334862385
  0
LINE
  8
0
 62
7
  6
CONTINUOUS
 10
59.339839512
 20
98.9334862385
 11
59.339839512
 21
92.8334862385
  0
LINE
  8
0
 62
7
  6
CONTINUOUS
 10
59.339839512
 20
86.2334862385
 11
59.339839512
 21
80.1334862385
  0
LINE
  8
0
 62
7
  6
CONTINUOUS
 10
59.339839512
 20
73.5334862385
 11
59.339839512
 21
67.4334862385
  0
LINE
  8
0
 62
7
  6
CONTINUOUS
 10
59.339839512
 20
56.5454862385
 11
59.339839512
 21
53.4334862385
  0
POLYLINE
  8
0
 62
7
  6
CONTINUOUS
 66
1
 70
0
  0
VERTEX
  8
0
 62
7
  6
CONTINUOUS
 10
58.4990671079
 20
189.4800667629
  0
VERTEX
  8
0
 62
7
  6
CONTINUOUS
 10
58.498972876
 20
189.4252336485
  0
VERTEX
  8
0
 62
7
  6
CONTINUOUS
 10
58.4986958191
 20
189.3834862385
  0
SEQEND
  0
LINE
  8
0
 62
7
  6
CONTINUOUS
 10
58.4798684038
 20
192.0404944567
 11
58.479839512
 21
190.2264554477
  0
LINE
  8
0
 62
7
  6
CONTINUOUS
 10
58.4798684038
 20
166.6404944567
 11
58.479839512
 21
164.8334862385
  0
LINE
  8
0
 62
7
  6
CONTINUOUS
 10
58.4798684038
 20
141.2404944567
 11
58.479839512
 21
139.4334862385
  0
LINE
  8
0
 62
7
  6
CONTINUOUS
 10
58.4798684038
 20
128.5404944567
 11
58.479839512
 21
126.7334862385
  0
LINE
  8
0
 62
7
  6
CONTINUOUS
 10
58.4798684038
 20
115.8404944567
 11
58.479839512
 21
114.0334862385
  0
LINE
  8
0
 62
7
  6
CONTINUOUS
 10
58.4798684038
 20
103.1404944567
 11
58.479839512
 21
103.1334862385
  0
LINE
  8
0
 62
7
  6
CONTINUOUS
 10
58.4798684038
 20
90.4404944567
 11
58.479839512
 21
88.6334862385
  0
POLYLINE
  8
0
 62
7
  6
CONTINUOUS
 66
1
 70
0
  0
VERTEX
  8
0
 62
7
  6
CONTINUOUS
 10
58.4798684038
 20
153.9404944567
  0
VERTEX
  8
0
 62
7
  6
CONTINUOUS
 10
58.4922032465
 20
154.061523862
  0
VERTEX
  8
0
 62
7
  6
CONTINUOUS
 10
58.5261925061
 20
154.1845852603
  0
VERTEX
  8
0
 62
7
  6
CONTINUOUS
 10
58.5783712721
 20
154.3020822267
  0
VERTEX
  8
0
 62
7
  6
CONTINUOUS
 10
58.6453518686
 20
154.4105080561
  0
VERTEX
  8
0
 62
7
  6
CONTINUOUS
 10
58.7260893524
 20
154.5095364976
  0
SEQEND
  0
POLYLINE
  8
0
 62
7
  6
CONTINUOUS
 66
1
 70
0
  0
VERTEX
  8
0
 62
7
  6
CONTINUOUS
 10
58.4798684038
 20
141.2404944567
  0
VERTEX
  8
0
 62
7
  6
CONTINUOUS
 10
58.4922032465
 20
141.361523862
  0
VERTEX
  8
0
 62
7
  6
CONTINUOUS
 10
58.5261925061
 20
141.4845852603
  0
VERTEX
  8
0
 62
7
  6
CONTINUOUS
 10
58.5783712721
 20
141.6020822267
  0
VERTEX
  8
0
 62
7
  6
CONTINUOUS
 10
58.6453518686
 20
141.7105080561
  0
VERTEX
  8
0
 62
7
  6
CONTINUOUS
 10
58.7260893524
 20
141.8095364976
  0
SEQEND
  0
POLYLINE
  8
0
 62
7
  6
CONTINUOUS
 66
1
 70
0
  0
VERTEX
  8
0
 62
7
  6
CONTINUOUS
 10
58.4798684038
 20
128.5404944567
  0
VERTEX
  8
0
 62
7
  6
CONTINUOUS
 10
58.4922032465
 20
128.661523862
  0
VERTEX
  8
0
 62
7
  6
CONTINUOUS
 10
58.5261925061
 20
128.7845852603
  0
VERTEX
  8
0
 62
7
  6
CONTINUOUS
 10
58.5783712721
 20
128.9020822267
  0
VERTEX
  8
0
 62
7
  6
CONTINUOUS
 10
58.6453518686
 20
129.0105080561
  0
VERTEX
  8
0
 62
7
  6
CONTINUOUS
 10
58.7260893524
 20
129.1095364976
  0
SEQEND
  0
POLYLINE
  8
0
 62
7
  6
CONTINUOUS
 66
1
 70
0
  0
VERTEX
  8
0
 62
7
  6
CONTINUOUS
 10
58.4798684038
 20
115.8404944567
  0
VERTEX
  8
0
 62
7
  6
CONTINUOUS
 10
58.4922032465
 20
115.961523862
  0
VERTEX
  8
0
 62
7
  6
CONTINUOUS
 10
58.5261925061
 20
116.0845852603
  0
VERTEX
  8
0
 62
7
  6
CONTINUOUS
 10
58.5783712721
 20
116.2020822267
  0
VERTEX
  8
0
 62
7
  6
CONTINUOUS
 10
58.6453518686
 20
116.3105080561
  0
VERTEX
  8
0
 62
7
  6
CONTINUOUS
 10
58.7260893524
 20
116.4095364976
  0
SEQEND
  0
POLYLINE
  8
0
 62
7
  6
CONTINUOUS
 66
1
 70
0
  0
VERTEX
  8
0
 62
7
  6
CONTINUOUS
 10
58.4798684038
 20
103.1404944567
  0
VERTEX
  8
0
 62
7
  6
CONTINUOUS
 10
58.4922032465
 20
103.261523862
  0
VERTEX
  8
0
 62
7
  6
CONTINUOUS
 10
58.5261925061
 20
103.3845852603
  0
VERTEX
  8
0
 62
7
  6
CONTINUOUS
 10
58.5783712721
 20
103.5020822267
  0
VERTEX
  8
0
 62
7
  6
CONTINUOUS
 10
58.6453518686
 20
103.6105080561
  0
VERTEX
  8
0
 62
7
  6
CONTINUOUS
 10
58.7260893524
 20
103.7095364976
  0
SEQEND
  0
POLYLINE
  8
0
 62
7
  6
CONTINUOUS
 66
1
 70
0
  0
VERTEX
  8
0
 62
7
  6
CONTINUOUS
 10
54.6398081996
 20
107.6761903394
  0
VERTEX
  8
0
 62
7
  6
CONTINUOUS
 10
54.6274365575
 20
107.5551913998
  0
VERTEX
  8
0
 62
7
  6
CONTINUOUS
 10
54.5934144771
 20
107.4321550558
  0
VERTEX
  8
0
 62
7
  6
CONTINUOUS
 10
54.5412068412
 20
107.3146818202
  0
VERTEX
  8
0
 62
7
  6
CONTINUOUS
 10
54.4741982655
 20
107.2062760144
  0
VERTEX
  8
0
 62
7
  6
CONTINUOUS
 10
54.3934335815
 20
107.1072683582
  0
SEQEND
  0
POLYLINE
  8
0
 62
7
  6
CONTINUOUS
 66
1
 70
0
  0
VERTEX
  8
0
 62
7
  6
CONTINUOUS
 10
54.6398081996
 20
94.9761903394
  0
VERTEX
  8
0
 62
7
  6
CONTINUOUS
 10
54.6274365575
 20
94.8551913998
  0
VERTEX
  8
0
 62
7
  6
CONTINUOUS
 10
54.5934144771
 20
94.7321550558
  0
VERTEX
  8
0
 62
7
  6
CONTINUOUS
 10
54.5412068412
 20
94.6146818202
  0
VERTEX
  8
0
 62
7
  6
CONTINUOUS
 10
54.4741982655
 20
94.5062760144
  0
VERTEX
  8
0
 62
7
  6
CONTINUOUS
 10
54.3934335815
 20
94.4072683582
  0
SEQEND
  0
LINE
  8
0
 62
7
  6
CONTINUOUS
 10
58.7260893524
 20
141.8095364976
 11
58.7329756275
 21
141.816846532
  0
POLYLINE
  8
0
 62
7
  6
CONTINUOUS
 66
1
 70
0
  0
VERTEX
  8
0
 62
7
  6
CONTINUOUS
 10
58.7329756275
 20
141.816846532
  0
VERTEX
  8
0
 62
7
  6
CONTINUOUS
 10
58.8301378795
 20
141.9055341433
  0
VERTEX
  8
0
 62
7
  6
CONTINUOUS
 10
58.9405602705
 20
141.9800458002
  0
VERTEX
  8
0
 62
7
  6
CONTINUOUS
 10
59.0632925423
 20
142.0368551142
  0
VERTEX
  8
0
 62
7
  6
CONTINUOUS
 10
59.1955153521
 20
142.0720735421
  0
VERTEX
  8
0
 62
7
  6
CONTINUOUS
 10
59.3301053201
 20
142.0834862385
  0
SEQEND
  0
LINE
  8
0
 62
7
  6
CONTINUOUS
 10
55.2884570631
 20
137.5122075646
 11
55.1859442379
 21
137.4291943156
  0
LINE
  8
0
 62
7
  6
CONTINUOUS
 10
58.479839512
 20
139.6168081799
 11
53.509414088
 21
135.7334862385
  0
LINE
  8
0
 62
7
  6
CONTINUOUS
 10
53.7895685635
 20
148.4334862385
 11
44.859839512
 21
148.4334862385
  0
LINE
  8
0
 62
7
  6
CONTINUOUS
 10
63.959839512
 20
149.3334862385
 11
64.759839512
 21
149.3334862385
  0
LINE
  8
0
 62
7
  6
CONTINUOUS
 10
53.9273034558
 20
149.6834862385
 11
40.1598687585
 21
149.6834862385
  0
LINE
  8
0
 62
7
  6
CONTINUOUS
 10
59.1923755682
 20
150.0334862385
 11
72.959839512
 21
150.0334862385
  0
LINE
  8
0
 62
7
  6
CONTINUOUS
 10
49.159839512
 20
150.3834862385
 11
48.359839512
 21
150.3834862385
  0
LINE
  8
0
 62
7
  6
CONTINUOUS
 10
59.3301053201
 20
151.2834862385
 11
68.259839512
 21
151.2834862385
  0
POLYLINE
  8
0
 62
7
  6
CONTINUOUS
 66
1
 70
0
  0
VERTEX
  8
0
 62
7
  6
CONTINUOUS
 10
59.3301053201
 20
151.2834862385
  0
VERTEX
  8
0
 62
7
  6
CONTINUOUS
 10
59.1962948074
 20
151.2947645608
  0
VERTEX
  8
0
 62
7
  6
CONTINUOUS
 10
59.0645881451
 20
151.3296474484
  0
VERTEX
  8
0
 62
7
  6
CONTINUOUS
 10
58.9416267742
 20
151.3863223655
  0
VERTEX
  8
0
 62
7
  6
CONTINUOUS
 10
58.8304151862
 20
151.4612192052
  0
VERTEX
  8
0
 62
7
  6
CONTINUOUS
 10
58.7329756275
 20
151.5501259451
  0
SEQEND
  0
POLYLINE
  8
0
 62
7
  6
CONTINUOUS
 66
1
 70
0
  0
VERTEX
  8
0
 62
7
  6
CONTINUOUS
 10
53.7895685635
 20
148.4334862385
  0
VERTEX
  8
0
 62
7
  6
CONTINUOUS
 10
53.9245748251
 20
148.42199992
  0
VERTEX
  8
0
 62
7
  6
CONTINUOUS
 10
54.0557805516
 20
148.3870700078
  0
VERTEX
  8
0
 62
7
  6
CONTINUOUS
 10
54.1788699902
 20
148.3301807737
  0
VERTEX
  8
0
 62
7
  6
CONTINUOUS
 10
54.290570067
 20
148.2547150842
  0
VERTEX
  8
0
 62
7
  6
CONTINUOUS
 10
54.3865451664
 20
148.1670124813
  0
SEQEND
  0
LINE
  8
0
 62
7
  6
CONTINUOUS
 10
53.509414088
 20
157.6334862385
 11
58.479839512
 21
153.7501642971
  0
LINE
  8
0
 62
7
  6
CONTINUOUS
 10
55.1859442379
 20
155.9377781614
 11
55.2884570631
 21
155.8547649124
  0
LINE
  8
0
 62
7
  6
CONTINUOUS
 10
58.7329756275
 20
151.5501259451
 11
58.7260893524
 21
151.5574359795
  0
POLYLINE
  8
0
 62
7
  6
CONTINUOUS
 66
1
 70
0
  0
VERTEX
  8
0
 62
7
  6
CONTINUOUS
 10
54.3934335815
 20
160.8597041189
  0
VERTEX
  8
0
 62
7
  6
CONTINUOUS
 10
54.4738528844
 20
160.7611809632
  0
VERTEX
  8
0
 62
7
  6
CONTINUOUS
 10
54.5429630926
 20
160.6489628652
  0
VERTEX
  8
0
 62
7
  6
CONTINUOUS
 10
54.5952388337
 20
160.5297184428
  0
VERTEX
  8
0
 62
7
  6
CONTINUOUS
 10
54.628139797
 20
160.4080504653
  0
VERTEX
  8
0
 62
7
  6
CONTINUOUS
 10
54.6398081996
 20
160.2907821377
  0
SEQEND
  0
POLYLINE
  8
0
 62
7
  6
CONTINUOUS
 66
1
 70
0
  0
VERTEX
  8
0
 62
7
  6
CONTINUOUS
 10
58.7260893524
 20
151.5574359795
  0
VERTEX
  8
0
 62
7
  6
CONTINUOUS
 10
58.6447554395
 20
151.6573030314
  0
VERTEX
  8
0
 62
7
  6
CONTINUOUS
 10
58.5777165425
 20
151.7661279359
  0
VERTEX
  8
0
 62
7
  6
CONTINUOUS
 10
58.5258885246
 20
151.8832306641
  0
VERTEX
  8
0
 62
7
  6
CONTINUOUS
 10
58.4921220786
 20
152.0058746528
  0
VERTEX
  8
0
 62
7
  6
CONTINUOUS
 10
58.4798684038
 20
152.1264780204
  0
SEQEND
  0
LINE
  8
0
 62
7
  6
CONTINUOUS
 10
64.209839512
 20
64.2834862385
 11
64.209839512
 21
66.2834862385
  0
LINE
  8
0
 62
7
  6
CONTINUOUS
 10
64.209839512
 20
227.0834862385
 11
64.209839512
 21
229.0834862385
  0
LINE
  8
0
 62
7
  6
CONTINUOUS
 10
69.109839512
 20
88.6334862385
 11
69.109839512
 21
90.4334862385
  0
LINE
  8
0
 62
7
  6
CONTINUOUS
 10
69.109839512
 20
101.3334862385
 11
69.109839512
 21
103.1334862385
  0
LINE
  8
0
 62
7
  6
CONTINUOUS
 10
69.109839512
 20
114.0334862385
 11
69.109839512
 21
115.8334862385
  0
LINE
  8
0
 62
7
  6
CONTINUOUS
 10
69.109839512
 20
126.7334862385
 11
69.109839512
 21
128.5334862385
  0
LINE
  8
0
 62
7
  6
CONTINUOUS
 10
69.109839512
 20
139.4334862385
 11
69.109839512
 21
141.2334862385
  0
LINE
  8
0
 62
7
  6
CONTINUOUS
 10
69.109839512
 20
152.1334862385
 11
69.109839512
 21
153.9334862385
  0
LINE
  8
0
 62
7
  6
CONTINUOUS
 10
69.109839512
 20
164.8334862385
 11
69.109839512
 21
166.6334862385
  0
LINE
  8
0
 62
7
  6
CONTINUOUS
 10
69.109839512
 20
177.5334862385
 11
69.109839512
 21
179.3334862385
  0
LINE
  8
0
 62
7
  6
CONTINUOUS
 10
69.109839512
 20
189.3834862385
 11
69.109839512
 21
192.0334862385
  0
LINE
  8
0
 62
7
  6
CONTINUOUS
 10
69.109839512
 20
202.9334862385
 11
69.109839512
 21
204.7334862385
  0
LINE
  8
DEFAULT_1
 62
2
  6
CENTER
 10
69.259839512
 20
57.5454862385
 11
69.259839512
 21
235.8214862385
  0
POLYLINE
  8
0
 62
7
  6
CONTINUOUS
 66
1
 70
0
  0
VERTEX
  8
0
 62
7
  6
CONTINUOUS
 10
58.4798684038
 20
90.4404944567
  0
VERTEX
  8
0
 62
7
  6
CONTINUOUS
 10
58.4922032465
 20
90.561523862
  0
VERTEX
  8
0
 62
7
  6
CONTINUOUS
 10
58.5261925061
 20
90.6845852603
  0
VERTEX
  8
0
 62
7
  6
CONTINUOUS
 10
58.5783712721
 20
90.8020822267
  0
VERTEX
  8
0
 62
7
  6
CONTINUOUS
 10
58.6453518686
 20
90.9105080561
  0
VERTEX
  8
0
 62
7
  6
CONTINUOUS
 10
58.7260893524
 20
91.0095364976
  0
SEQEND
  0
LINE
  8
0
 62
7
  6
CONTINUOUS
 10
58.7260893524
 20
129.1095364976
 11
58.7329756275
 21
129.116846532
  0
LINE
  8
0
 62
7
  6
CONTINUOUS
 10
54.3934335815
 20
132.5072683582
 11
54.3865451664
 21
132.4999599958
  0
POLYLINE
  8
0
 62
7
  6
CONTINUOUS
 66
1
 70
0
  0
VERTEX
  8
0
 62
7
  6
CONTINUOUS
 10
54.3865451664
 20
132.4999599958
  0
VERTEX
  8
0
 62
7
  6
CONTINUOUS
 10
54.289420152
 20
132.4113472058
  0
VERTEX
  8
0
 62
7
  6
CONTINUOUS
 10
54.1790534746
 20
132.3368957953
  0
VERTEX
  8
0
 62
7
  6
CONTINUOUS
 10
54.056374878
 20
132.2801183506
  0
VERTEX
  8
0
 62
7
  6
CONTINUOUS
 10
53.9241819933
 20
132.2449045029
  0
VERTEX
  8
0
 62
7
  6
CONTINUOUS
 10
53.7895685635
 20
132.2334862385
  0
SEQEND
  0
LINE
  8
0
 62
7
  6
CONTINUOUS
 10
57.831221961
 20
136.8047649124
 11
57.9337347861
 21
136.8877781614
  0
LINE
  8
0
 62
7
  6
CONTINUOUS
 10
54.639839512
 20
134.7004538694
 11
59.6098943005
 21
138.5834862385
  0
LINE
  8
0
 62
7
  6
CONTINUOUS
 10
59.3301234481
 20
154.7834862385
 11
68.259839512
 21
154.7834862385
  0
LINE
  8
0
 62
7
  6
CONTINUOUS
 10
72.959839512
 20
156.0334862385
 11
59.1923755682
 21
156.0334862385
  0
LINE
  8
0
 62
7
  6
CONTINUOUS
 10
40.159839512
 20
156.3834862385
 11
53.9273034558
 21
156.3834862385
  0
LINE
  8
0
 62
7
  6
CONTINUOUS
 10
53.7895685635
 20
157.6334862385
 11
44.859839512
 21
157.6334862385
  0
LINE
  8
0
 62
7
  6
CONTINUOUS
 10
59.6098943005
 20
154.7834862385
 11
54.639839512
 21
158.6665186077
  0
LINE
  8
0
 62
7
  6
CONTINUOUS
 10
57.9337347861
 20
156.4791943156
 11
57.831221961
 21
156.5622075646
  0
LINE
  8
0
 62
7
  6
CONTINUOUS
 10
54.3865451664
 20
160.8670124813
 11
54.3934335815
 21
160.8597041189
  0
LINE
  8
0
 62
7
  6
CONTINUOUS
 10
58.7329756275
 20
164.2501259451
 11
58.7260893524
 21
164.2574359795
  0
POLYLINE
  8
0
 62
7
  6
CONTINUOUS
 66
1
 70
0
  0
VERTEX
  8
0
 62
7
  6
CONTINUOUS
 10
58.7260893524
 20
164.2574359795
  0
VERTEX
  8
0
 62
7
  6
CONTINUOUS
 10
58.6447554395
 20
164.3573030314
  0
VERTEX
  8
0
 62
7
  6
CONTINUOUS
 10
58.5777165425
 20
164.4661279359
  0
VERTEX
  8
0
 62
7
  6
CONTINUOUS
 10
58.5258885246
 20
164.5832306641
  0
VERTEX
  8
0
 62
7
  6
CONTINUOUS
 10
58.4921220786
 20
164.7058746528
  0
VERTEX
  8
0
 62
7
  6
CONTINUOUS
 10
58.4798684038
 20
164.8264780204
  0
SEQEND
  0
LINE
  8
2_FEATURE
 62
7
  6
CONTINUOUS
 10
73.809839512
 20
232.9714862385
 11
73.809839512
 21
230.7834862385
  0
LINE
  8
2_FEATURE
 62
7
  6
CONTINUOUS
 10
73.809839512
 20
218.6834862385
 11
73.809839512
 21
214.3834862385
  0
LINE
  8
2_FEATURE
 62
7
  6
CONTINUOUS
 10
73.809839512
 20
205.9834862385
 11
73.809839512
 21
201.6834862385
  0
LINE
  8
2_FEATURE
 62
7
  6
CONTINUOUS
 10
73.809839512
 20
193.2834862385
 11
73.809839512
 21
188.9834862385
  0
LINE
  8
2_FEATURE
 62
7
  6
CONTINUOUS
 10
73.809839512
 20
180.5834862385
 11
73.809839512
 21
176.2834862385
  0
LINE
  8
2_FEATURE
 62
7
  6
CONTINUOUS
 10
73.809839512
 20
167.8834862385
 11
73.809839512
 21
163.5834862385
  0
LINE
  8
2_FEATURE
 62
7
  6
CONTINUOUS
 10
73.809839512
 20
155.1834862385
 11
73.809839512
 21
150.8834862385
  0
LINE
  8
2_FEATURE
 62
7
  6
CONTINUOUS
 10
73.809839512
 20
142.4834862385
 11
73.809839512
 21
138.1834862385
  0
LINE
  8
2_FEATURE
 62
7
  6
CONTINUOUS
 10
73.809839512
 20
129.7834862385
 11
73.809839512
 21
125.4834862385
  0
LINE
  8
2_FEATURE
 62
7
  6
CONTINUOUS
 10
73.809839512
 20
117.0834862385
 11
73.809839512
 21
112.7834862385
  0
LINE
  8
2_FEATURE
 62
7
  6
CONTINUOUS
 10
73.809839512
 20
104.3834862385
 11
73.809839512
 21
100.0834862385
  0
LINE
  8
2_FEATURE
 62
7
  6
CONTINUOUS
 10
73.809839512
 20
91.6834862385
 11
73.809839512
 21
87.3834862385
  0
LINE
  8
2_FEATURE
 62
7
  6
CONTINUOUS
 10
73.809839512
 20
78.9834862385
 11
73.809839512
 21
74.6834862385
  0
LINE
  8
2_FEATURE
 62
7
  6
CONTINUOUS
 10
73.809839512
 20
62.5834862385
 11
73.809839512
 21
60.3954862385
  0
LINE
  8
0
 62
7
  6
CONTINUOUS
 10
54.3934335815
 20
119.8072683582
 11
54.3865451664
 21
119.7999599958
  0
POLYLINE
  8
0
 62
7
  6
CONTINUOUS
 66
1
 70
0
  0
VERTEX
  8
0
 62
7
  6
CONTINUOUS
 10
58.7329756275
 20
129.116846532
  0
VERTEX
  8
0
 62
7
  6
CONTINUOUS
 10
58.8301378795
 20
129.2055341433
  0
VERTEX
  8
0
 62
7
  6
CONTINUOUS
 10
58.9405602705
 20
129.2800458002
  0
VERTEX
  8
0
 62
7
  6
CONTINUOUS
 10
59.0632925423
 20
129.3368551142
  0
VERTEX
  8
0
 62
7
  6
CONTINUOUS
 10
59.1955153521
 20
129.3720735421
  0
VERTEX
  8
0
 62
7
  6
CONTINUOUS
 10
59.3301053201
 20
129.3834862385
  0
SEQEND
  0
POLYLINE
  8
0
 62
7
  6
CONTINUOUS
 66
1
 70
0
  0
VERTEX
  8
0
 62
7
  6
CONTINUOUS
 10
54.3865451664
 20
119.7999599958
  0
VERTEX
  8
0
 62
7
  6
CONTINUOUS
 10
54.289420152
 20
119.7113472058
  0
VERTEX
  8
0
 62
7
  6
CONTINUOUS
 10
54.1790534746
 20
119.6368957953
  0
VERTEX
  8
0
 62
7
  6
CONTINUOUS
 10
54.056374878
 20
119.5801183506
  0
VERTEX
  8
0
 62
7
  6
CONTINUOUS
 10
53.9241819933
 20
119.5449045029
  0
VERTEX
  8
0
 62
7
  6
CONTINUOUS
 10
53.7895685635
 20
119.5334862385
  0
SEQEND
  0
LINE
  8
0
 62
7
  6
CONTINUOUS
 10
55.2884570631
 20
124.8122075646
 11
55.1859442379
 21
124.7291943156
  0
LINE
  8
0
 62
7
  6
CONTINUOUS
 10
57.831221961
 20
124.1047649124
 11
57.9337347861
 21
124.1877781614
  0
LINE
  8
0
 62
7
  6
CONTINUOUS
 10
58.479839512
 20
126.9168081799
 11
53.509414088
 21
123.0334862385
  0
LINE
  8
0
 62
7
  6
CONTINUOUS
 10
54.639839512
 20
122.0004538694
 11
59.6098943005
 21
125.8834862385
  0
LINE
  8
0
 62
7
  6
CONTINUOUS
 10
53.7895685635
 20
161.1334862385
 11
44.859839512
 21
161.1334862385
  0
LINE
  8
0
 62
7
  6
CONTINUOUS
 10
53.9273034558
 20
162.3834862385
 11
40.1598687585
 21
162.3834862385
  0
LINE
  8
0
 62
7
  6
CONTINUOUS
 10
59.1923755682
 20
162.7334862385
 11
72.959839512
 21
162.7334862385
  0
LINE
  8
0
 62
7
  6
CONTINUOUS
 10
59.3301053201
 20
163.9834862385
 11
68.259839512
 21
163.9834862385
  0
POLYLINE
  8
0
 62
7
  6
CONTINUOUS
 66
1
 70
0
  0
VERTEX
  8
0
 62
7
  6
CONTINUOUS
 10
59.3301053201
 20
163.9834862385
  0
VERTEX
  8
0
 62
7
  6
CONTINUOUS
 10
59.1962948074
 20
163.9947645608
  0
VERTEX
  8
0
 62
7
  6
CONTINUOUS
 10
59.0645881451
 20
164.0296474484
  0
VERTEX
  8
0
 62
7
  6
CONTINUOUS
 10
58.9416267742
 20
164.0863223655
  0
VERTEX
  8
0
 62
7
  6
CONTINUOUS
 10
58.8304151862
 20
164.1612192052
  0
VERTEX
  8
0
 62
7
  6
CONTINUOUS
 10
58.7329756275
 20
164.2501259451
  0
SEQEND
  0
POLYLINE
  8
0
 62
7
  6
CONTINUOUS
 66
1
 70
0
  0
VERTEX
  8
0
 62
7
  6
CONTINUOUS
 10
53.7895685635
 20
161.1334862385
  0
VERTEX
  8
0
 62
7
  6
CONTINUOUS
 10
53.9245748251
 20
161.12199992
  0
VERTEX
  8
0
 62
7
  6
CONTINUOUS
 10
54.0557805516
 20
161.0870700078
  0
VERTEX
  8
0
 62
7
  6
CONTINUOUS
 10
54.1788699902
 20
161.0301807737
  0
VERTEX
  8
0
 62
7
  6
CONTINUOUS
 10
54.290570067
 20
160.9547150842
  0
VERTEX
  8
0
 62
7
  6
CONTINUOUS
 10
54.3865451664
 20
160.8670124813
  0
SEQEND
  0
LINE
  8
0
 62
7
  6
CONTINUOUS
 10
53.509414088
 20
170.3334862385
 11
58.479839512
 21
166.4501642971
  0
LINE
  8
0
 62
7
  6
CONTINUOUS
 10
59.6098943005
 20
167.4834862385
 11
54.639839512
 21
171.3665186077
  0
LINE
  8
0
 62
7
  6
CONTINUOUS
 10
55.1859442379
 20
168.6377781614
 11
55.2884570631
 21
168.5547649124
  0
LINE
  8
0
 62
7
  6
CONTINUOUS
 10
57.9337347861
 20
169.1791943156
 11
57.831221961
 21
169.2622075646
  0
LINE
  8
0
 62
7
  6
CONTINUOUS
 10
54.3865451664
 20
173.5670124813
 11
54.3934335815
 21
173.5597041189
  0
POLYLINE
  8
0
 62
7
  6
CONTINUOUS
 66
1
 70
0
  0
VERTEX
  8
0
 62
7
  6
CONTINUOUS
 10
54.3934335815
 20
173.5597041189
  0
VERTEX
  8
0
 62
7
  6
CONTINUOUS
 10
54.4747958726
 20
173.4598566692
  0
VERTEX
  8
0
 62
7
  6
CONTINUOUS
 10
54.5418639854
 20
173.3510492176
  0
VERTEX
  8
0
 62
7
  6
CONTINUOUS
 10
54.5937196956
 20
173.2339713022
  0
VERTEX
  8
0
 62
7
  6
CONTINUOUS
 10
54.6275181164
 20
173.1113537087
  0
VERTEX
  8
0
 62
7
  6
CONTINUOUS
 10
54.6398081996
 20
172.9907821377
  0
SEQEND
  0
POLYLINE
  8
0
 62
7
  6
CONTINUOUS
 66
1
 70
0
  0
VERTEX
  8
0
 62
7
  6
CONTINUOUS
 10
59.4652085865
 20
57.4036802988
  0
VERTEX
  8
0
 62
7
  6
CONTINUOUS
 10
59.3714031179
 20
56.9791338763
  0
VERTEX
  8
0
 62
7
  6
CONTINUOUS
 10
59.339839512
 20
56.5454862385
  0
SEQEND
  0
LINE
  8
0
 62
7
  6
CONTINUOUS
 10
58.7260893524
 20
116.4095364976
 11
58.7329756275
 21
116.416846532
  0
LINE
  8
0
 62
7
  6
CONTINUOUS
 10
54.3934335815
 20
107.1072683582
 11
54.3865451664
 21
107.0999599958
  0
POLYLINE
  8
0
 62
7
  6
CONTINUOUS
 66
1
 70
0
  0
VERTEX
  8
0
 62
7
  6
CONTINUOUS
 10
58.7329756275
 20
116.416846532
  0
VERTEX
  8
0
 62
7
  6
CONTINUOUS
 10
58.8301378795
 20
116.5055341433
  0
VERTEX
  8
0
 62
7
  6
CONTINUOUS
 10
58.9405602705
 20
116.5800458002
  0
VERTEX
  8
0
 62
7
  6
CONTINUOUS
 10
59.0632925423
 20
116.6368551142
  0
VERTEX
  8
0
 62
7
  6
CONTINUOUS
 10
59.1955153521
 20
116.6720735421
  0
VERTEX
  8
0
 62
7
  6
CONTINUOUS
 10
59.3301053201
 20
116.6834862385
  0
SEQEND
  0
LINE
  8
0
 62
7
  6
CONTINUOUS
 10
55.2884570631
 20
112.1122075646
 11
55.1859442379
 21
112.0291943156
  0
LINE
  8
0
 62
7
  6
CONTINUOUS
 10
59.3301234481
 20
167.4834862385
 11
68.259839512
 21
167.4834862385
  0
LINE
  8
0
 62
7
  6
CONTINUOUS
 10
72.959839512
 20
168.7334862385
 11
59.1923755682
 21
168.7334862385
  0
LINE
  8
0
 62
7
  6
CONTINUOUS
 10
40.159839512
 20
169.0834862385
 11
53.9273034558
 21
169.0834862385
  0
LINE
  8
0
 62
7
  6
CONTINUOUS
 10
53.7895685635
 20
170.3334862385
 11
44.859839512
 21
170.3334862385
  0
LINE
  8
0
 62
7
  6
CONTINUOUS
 10
55.1859442379
 20
181.3377781614
 11
55.2884570631
 21
181.2547649124
  0
LINE
  8
0
 62
7
  6
CONTINUOUS
 10
54.3865451664
 20
186.2670124813
 11
54.3934335815
 21
186.2597041189
  0
LINE
  8
0
 62
7
  6
CONTINUOUS
 10
58.7329756275
 20
176.9501259451
 11
58.7260893524
 21
176.9574359795
  0
POLYLINE
  8
0
 62
7
  6
CONTINUOUS
 66
1
 70
0
  0
VERTEX
  8
0
 62
7
  6
CONTINUOUS
 10
54.3934335815
 20
186.2597041189
  0
VERTEX
  8
0
 62
7
  6
CONTINUOUS
 10
54.4747958726
 20
186.1598566692
  0
VERTEX
  8
0
 62
7
  6
CONTINUOUS
 10
54.5418639854
 20
186.0510492176
  0
VERTEX
  8
0
 62
7
  6
CONTINUOUS
 10
54.5937196956
 20
185.9339713022
  0
VERTEX
  8
0
 62
7
  6
CONTINUOUS
 10
54.6275181164
 20
185.8113537087
  0
VERTEX
  8
0
 62
7
  6
CONTINUOUS
 10
54.6398081996
 20
185.6907821377
  0
SEQEND
  0
POLYLINE
  8
0
 62
7
  6
CONTINUOUS
 66
1
 70
0
  0
VERTEX
  8
0
 62
7
  6
CONTINUOUS
 10
58.7260893524
 20
176.9574359795
  0
VERTEX
  8
0
 62
7
  6
CONTINUOUS
 10
58.6447554395
 20
177.0573030314
  0
VERTEX
  8
0
 62
7
  6
CONTINUOUS
 10
58.5777165425
 20
177.1661279359
  0
VERTEX
  8
0
 62
7
  6
CONTINUOUS
 10
58.5258885246
 20
177.2832306641
  0
VERTEX
  8
0
 62
7
  6
CONTINUOUS
 10
58.4921220786
 20
177.4058746528
  0
VERTEX
  8
0
 62
7
  6
CONTINUOUS
 10
58.4798684038
 20
177.5264780204
  0
SEQEND
  0
POLYLINE
  8
0
 62
7
  6
CONTINUOUS
 66
1
 70
0
  0
VERTEX
  8
0
 62
7
  6
CONTINUOUS
 10
59.4652085865
 20
235.9632921782
  0
VERTEX
  8
0
 62
7
  6
CONTINUOUS
 10
59.3714031179
 20
236.3878386008
  0
VERTEX
  8
0
 62
7
  6
CONTINUOUS
 10
59.339839512
 20
236.8214862385
  0
SEQEND
  0
LINE
  8
0
 62
7
  6
CONTINUOUS
 10
58.7260893524
 20
103.7095364976
 11
58.7329756275
 21
103.716846532
  0
POLYLINE
  8
0
 62
7
  6
CONTINUOUS
 66
1
 70
0
  0
VERTEX
  8
0
 62
7
  6
CONTINUOUS
 10
54.3865451664
 20
107.0999599958
  0
VERTEX
  8
0
 62
7
  6
CONTINUOUS
 10
54.289420152
 20
107.0113472058
  0
VERTEX
  8
0
 62
7
  6
CONTINUOUS
 10
54.1790534746
 20
106.9368957953
  0
VERTEX
  8
0
 62
7
  6
CONTINUOUS
 10
54.056374878
 20
106.8801183506
  0
VERTEX
  8
0
 62
7
  6
CONTINUOUS
 10
53.9241819933
 20
106.8449045029
  0
VERTEX
  8
0
 62
7
  6
CONTINUOUS
 10
53.7895685635
 20
106.8334862385
  0
SEQEND
  0
LINE
  8
0
 62
7
  6
CONTINUOUS
 10
57.831221961
 20
111.4047649124
 11
57.9337347861
 21
111.4877781614
  0
LINE
  8
0
 62
7
  6
CONTINUOUS
 10
58.479839512
 20
114.2168081799
 11
53.509414088
 21
110.3334862385
  0
LINE
  8
0
 62
7
  6
CONTINUOUS
 10
54.639839512
 20
109.3004538694
 11
59.6098943005
 21
113.1834862385
  0
LINE
  8
0
 62
7
  6
CONTINUOUS
 10
53.7895685635
 20
173.8334862385
 11
44.859839512
 21
173.8334862385
  0
LINE
  8
0
 62
7
  6
CONTINUOUS
 10
53.9273034558
 20
175.0834862385
 11
40.1598687585
 21
175.0834862385
  0
LINE
  8
0
 62
7
  6
CONTINUOUS
 10
59.1923755682
 20
175.4334862385
 11
72.959839512
 21
175.4334862385
  0
LINE
  8
0
 62
7
  6
CONTINUOUS
 10
59.3301053201
 20
176.6834862385
 11
68.259839512
 21
176.6834862385
  0
POLYLINE
  8
0
 62
7
  6
CONTINUOUS
 66
1
 70
0
  0
VERTEX
  8
0
 62
7
  6
CONTINUOUS
 10
53.7895685635
 20
173.8334862385
  0
VERTEX
  8
0
 62
7
  6
CONTINUOUS
 10
53.9233941989
 20
173.8222038196
  0
VERTEX
  8
0
 62
7
  6
CONTINUOUS
 10
54.0550688831
 20
173.7873277979
  0
VERTEX
  8
0
 62
7
  6
CONTINUOUS
 10
54.1779792465
 20
173.730685233
  0
VERTEX
  8
0
 62
7
  6
CONTINUOUS
 10
54.2891396948
 20
173.6558468028
  0
VERTEX
  8
0
 62
7
  6
CONTINUOUS
 10
54.3865451664
 20
173.5670124813
  0
SEQEND
  0
POLYLINE
  8
0
 62
7
  6
CONTINUOUS
 66
1
 70
0
  0
VERTEX
  8
0
 62
7
  6
CONTINUOUS
 10
59.3301053201
 20
176.6834862385
  0
VERTEX
  8
0
 62
7
  6
CONTINUOUS
 10
59.1962948074
 20
176.6947645608
  0
VERTEX
  8
0
 62
7
  6
CONTINUOUS
 10
59.0645881451
 20
176.7296474484
  0
VERTEX
  8
0
 62
7
  6
CONTINUOUS
 10
58.9416267742
 20
176.7863223655
  0
VERTEX
  8
0
 62
7
  6
CONTINUOUS
 10
58.8304151862
 20
176.8612192052
  0
VERTEX
  8
0
 62
7
  6
CONTINUOUS
 10
58.7329756275
 20
176.9501259451
  0
SEQEND
  0
LINE
  8
0
 62
7
  6
CONTINUOUS
 10
53.509414088
 20
183.0334862385
 11
58.479839512
 21
179.1501642971
  0
LINE
  8
0
 62
7
  6
CONTINUOUS
 10
59.6098943005
 20
180.1834862385
 11
54.639839512
 21
184.0665186077
  0
LINE
  8
0
 62
7
  6
CONTINUOUS
 10
57.9337347861
 20
181.8791943156
 11
57.831221961
 21
181.9622075646
  0
POLYLINE
  8
0
 62
7
  6
CONTINUOUS
 66
1
 70
0
  0
VERTEX
  8
0
 62
7
  6
CONTINUOUS
 10
54.3934335815
 20
198.9597041189
  0
VERTEX
  8
0
 62
7
  6
CONTINUOUS
 10
54.4747958726
 20
198.8598566692
  0
VERTEX
  8
0
 62
7
  6
CONTINUOUS
 10
54.5418639854
 20
198.7510492176
  0
VERTEX
  8
0
 62
7
  6
CONTINUOUS
 10
54.5937196956
 20
198.6339713022
  0
VERTEX
  8
0
 62
7
  6
CONTINUOUS
 10
54.6275181164
 20
198.5113537087
  0
VERTEX
  8
0
 62
7
  6
CONTINUOUS
 10
54.6398081996
 20
198.3907821377
  0
SEQEND
  0
LINE
  8
0
 62
7
  6
CONTINUOUS
 10
54.3934335815
 20
94.4072683582
 11
54.3865451664
 21
94.3999599958
  0
POLYLINE
  8
0
 62
7
  6
CONTINUOUS
 66
1
 70
0
  0
VERTEX
  8
0
 62
7
  6
CONTINUOUS
 10
58.7329756275
 20
103.716846532
  0
VERTEX
  8
0
 62
7
  6
CONTINUOUS
 10
58.8301378795
 20
103.8055341433
  0
VERTEX
  8
0
 62
7
  6
CONTINUOUS
 10
58.9405602705
 20
103.8800458002
  0
VERTEX
  8
0
 62
7
  6
CONTINUOUS
 10
59.0632925423
 20
103.9368551142
  0
VERTEX
  8
0
 62
7
  6
CONTINUOUS
 10
59.1955153521
 20
103.9720735421
  0
VERTEX
  8
0
 62
7
  6
CONTINUOUS
 10
59.3301053201
 20
103.9834862385
  0
SEQEND
  0
POLYLINE
  8
0
 62
7
  6
CONTINUOUS
 66
1
 70
0
  0
VERTEX
  8
0
 62
7
  6
CONTINUOUS
 10
54.3865451664
 20
94.3999599958
  0
VERTEX
  8
0
 62
7
  6
CONTINUOUS
 10
54.289420152
 20
94.3113472058
  0
VERTEX
  8
0
 62
7
  6
CONTINUOUS
 10
54.1790534746
 20
94.2368957953
  0
VERTEX
  8
0
 62
7
  6
CONTINUOUS
 10
54.056374878
 20
94.1801183506
  0
VERTEX
  8
0
 62
7
  6
CONTINUOUS
 10
53.9241819933
 20
94.1449045029
  0
VERTEX
  8
0
 62
7
  6
CONTINUOUS
 10
53.7895685635
 20
94.1334862385
  0
SEQEND
  0
LINE
  8
0
 62
7
  6
CONTINUOUS
 10
55.2884570631
 20
99.4122075646
 11
55.185944238
 21
99.3291943156
  0
LINE
  8
0
 62
7
  6
CONTINUOUS
 10
57.831221961
 20
98.7047649124
 11
57.9337347861
 21
98.7877781614
  0
LINE
  8
0
 62
7
  6
CONTINUOUS
 10
58.479839512
 20
101.5168081799
 11
53.509414088
 21
97.6334862385
  0
LINE
  8
0
 62
7
  6
CONTINUOUS
 10
54.639839512
 20
96.6004538694
 11
59.6098943005
 21
100.4834862385
  0
LINE
  8
0
 62
7
  6
CONTINUOUS
 10
59.3301234481
 20
180.1834862385
 11
68.259839512
 21
180.1834862385
  0
LINE
  8
0
 62
7
  6
CONTINUOUS
 10
72.959839512
 20
181.4334862385
 11
59.1923755682
 21
181.4334862385
  0
LINE
  8
0
 62
7
  6
CONTINUOUS
 10
40.159839512
 20
181.7834862385
 11
53.9273034558
 21
181.7834862385
  0
LINE
  8
0
 62
7
  6
CONTINUOUS
 10
53.7895685635
 20
183.0334862385
 11
44.859839512
 21
183.0334862385
  0
POLYLINE
  8
0
 62
7
  6
CONTINUOUS
 66
1
 70
0
  0
VERTEX
  8
0
 62
7
  6
CONTINUOUS
 10
53.7895685635
 20
186.5334862385
  0
VERTEX
  8
0
 62
7
  6
CONTINUOUS
 10
53.9233941989
 20
186.5222038196
  0
VERTEX
  8
0
 62
7
  6
CONTINUOUS
 10
54.0550688831
 20
186.4873277979
  0
VERTEX
  8
0
 62
7
  6
CONTINUOUS
 10
54.1779792465
 20
186.430685233
  0
VERTEX
  8
0
 62
7
  6
CONTINUOUS
 10
54.2891396948
 20
186.3558468028
  0
VERTEX
  8
0
 62
7
  6
CONTINUOUS
 10
54.3865451664
 20
186.2670124813
  0
SEQEND
  0
LINE
  8
0
 62
7
  6
CONTINUOUS
 10
53.509414088
 20
195.7334862385
 11
58.479839512
 21
191.8501642971
  0
LINE
  8
0
 62
7
  6
CONTINUOUS
 10
59.6098943005
 20
192.8834862385
 11
54.639839512
 21
196.7665186077
  0
LINE
  8
0
 62
7
  6
CONTINUOUS
 10
55.1859442379
 20
194.0377781614
 11
55.2884570631
 21
193.9547649124
  0
LINE
  8
0
 62
7
  6
CONTINUOUS
 10
57.9337347861
 20
194.5791943156
 11
57.831221961
 21
194.6622075646
  0
LINE
  8
0
 62
7
  6
CONTINUOUS
 10
54.3865451664
 20
198.9670124813
 11
54.3934335815
 21
198.9597041189
  0
POLYLINE
  8
0
 62
7
  6
CONTINUOUS
 66
1
 70
0
  0
VERTEX
  8
0
 62
7
  6
CONTINUOUS
 10
58.7260893524
 20
202.3574359795
  0
VERTEX
  8
0
 62
7
  6
CONTINUOUS
 10
58.6447554395
 20
202.4573030314
  0
VERTEX
  8
0
 62
7
  6
CONTINUOUS
 10
58.5777165425
 20
202.5661279359
  0
VERTEX
  8
0
 62
7
  6
CONTINUOUS
 10
58.5258885246
 20
202.6832306641
  0
VERTEX
  8
0
 62
7
  6
CONTINUOUS
 10
58.4921220786
 20
202.8058746528
  0
VERTEX
  8
0
 62
7
  6
CONTINUOUS
 10
58.4798684038
 20
202.9264780204
  0
SEQEND
  0
LINE
  8
0
 62
7
  6
CONTINUOUS
 10
58.7260893524
 20
91.0095364976
 11
58.7329756275
 21
91.016846532
  0
POLYLINE
  8
0
 62
7
  6
CONTINUOUS
 66
1
 70
0
  0
VERTEX
  8
0
 62
7
  6
CONTINUOUS
 10
58.7329756275
 20
91.016846532
  0
VERTEX
  8
0
 62
7
  6
CONTINUOUS
 10
58.8301378795
 20
91.1055341433
  0
VERTEX
  8
0
 62
7
  6
CONTINUOUS
 10
58.9405602705
 20
91.1800458002
  0
VERTEX
  8
0
 62
7
  6
CONTINUOUS
 10
59.0632925423
 20
91.2368551142
  0
VERTEX
  8
0
 62
7
  6
CONTINUOUS
 10
59.1955153521
 20
91.2720735421
  0
VERTEX
  8
0
 62
7
  6
CONTINUOUS
 10
59.3301053201
 20
91.2834862385
  0
SEQEND
  0
LINE
  8
0
 62
7
  6
CONTINUOUS
 10
55.2884570631
 20
86.7122075646
 11
55.1859442379
 21
86.6291943156
  0
LINE
  8
0
 62
7
  6
CONTINUOUS
 10
53.7895685635
 20
186.5334862385
 11
44.859839512
 21
186.5334862385
  0
LINE
  8
0
 62
7
  6
CONTINUOUS
 10
53.9273034558
 20
187.7834862385
 11
40.1598687585
 21
187.7834862385
  0
LINE
  8
0
 62
7
  6
CONTINUOUS
 10
59.1923755682
 20
188.1334862385
 11
72.959839512
 21
188.1334862385
  0
LINE
  8
0
 62
7
  6
CONTINUOUS
 10
58.4986001012
 20
189.3834862385
 11
69.109839512
 21
189.3834862385
  0
LINE
  8
0
 62
7
  6
CONTINUOUS
 10
55.1859442379
 20
206.7377781614
 11
55.2884570631
 21
206.6547649124
  0
LINE
  8
0
 62
7
  6
CONTINUOUS
 10
58.7329756275
 20
202.3501259451
 11
58.7260893524
 21
202.3574359795
  0
LINE
  8
0
 62
7
  6
CONTINUOUS
 10
57.831221961
 20
86.0047649124
 11
57.9337347861
 21
86.0877781614
  0
LINE
  8
0
 62
7
  6
CONTINUOUS
 10
59.3301234481
 20
192.8834862385
 11
68.259839512
 21
192.8834862385
  0
LINE
  8
0
 62
7
  6
CONTINUOUS
 10
72.959839512
 20
194.1334862385
 11
59.1923755682
 21
194.1334862385
  0
LINE
  8
0
 62
7
  6
CONTINUOUS
 10
40.159839512
 20
194.4834862385
 11
53.9273034558
 21
194.4834862385
  0
LINE
  8
0
 62
7
  6
CONTINUOUS
 10
53.7895685635
 20
195.7334862385
 11
44.859839512
 21
195.7334862385
  0
POLYLINE
  8
0
 62
7
  6
CONTINUOUS
 66
1
 70
0
  0
VERTEX
  8
0
 62
7
  6
CONTINUOUS
 10
53.7895685635
 20
199.2334862385
  0
VERTEX
  8
0
 62
7
  6
CONTINUOUS
 10
53.9233941989
 20
199.2222038196
  0
VERTEX
  8
0
 62
7
  6
CONTINUOUS
 10
54.0550688831
 20
199.1873277979
  0
VERTEX
  8
0
 62
7
  6
CONTINUOUS
 10
54.1779792465
 20
199.130685233
  0
VERTEX
  8
0
 62
7
  6
CONTINUOUS
 10
54.2891396948
 20
199.0558468028
  0
VERTEX
  8
0
 62
7
  6
CONTINUOUS
 10
54.3865451664
 20
198.9670124813
  0
SEQEND
  0
LINE
  8
0
 62
7
  6
CONTINUOUS
 10
57.9337347861
 20
207.2791943156
 11
57.831221961
 21
207.3622075646
  0
LINE
  8
0
 62
7
  6
CONTINUOUS
 10
55.2884570631
 20
74.0122075646
 11
55.1859442379
 21
73.9291943156
  0
LINE
  8
0
 62
7
  6
CONTINUOUS
 10
57.831221961
 20
73.3047649124
 11
57.9337347861
 21
73.3877781614
  0
LINE
  8
0
 62
7
  6
CONTINUOUS
 10
53.7895685635
 20
199.2334862385
 11
44.859839512
 21
199.2334862385
  0
LINE
  8
0
 62
7
  6
CONTINUOUS
 10
53.9273034558
 20
200.4834862385
 11
40.1598687585
 21
200.4834862385
  0
LINE
  8
0
 62
7
  6
CONTINUOUS
 10
59.1923755682
 20
200.8334862385
 11
72.959839512
 21
200.8334862385
  0
LINE
  8
0
 62
7
  6
CONTINUOUS
 10
59.3301053201
 20
202.0834862385
 11
68.259839512
 21
202.0834862385
  0
LINE
  8
0
 62
7
  6
CONTINUOUS
 10
59.329839512
 20
205.5834862385
 11
68.259839512
 21
205.5834862385
  0
POLYLINE
  8
0
 62
7
  6
CONTINUOUS
 66
1
 70
0
  0
VERTEX
  8
0
 62
7
  6
CONTINUOUS
 10
59.3301053201
 20
202.0834862385
  0
VERTEX
  8
0
 62
7
  6
CONTINUOUS
 10
59.1962948074
 20
202.0947645608
  0
VERTEX
  8
0
 62
7
  6
CONTINUOUS
 10
59.0645881451
 20
202.1296474484
  0
VERTEX
  8
0
 62
7
  6
CONTINUOUS
 10
58.9416267742
 20
202.1863223655
  0
VERTEX
  8
0
 62
7
  6
CONTINUOUS
 10
58.8304151862
 20
202.2612192052
  0
VERTEX
  8
0
 62
7
  6
CONTINUOUS
 10
58.7329756275
 20
202.3501259451
  0
SEQEND
  0
LINE
  8
0
 62
7
  6
CONTINUOUS
 10
55.1859442379
 20
219.4377781614
 11
55.2884570631
 21
219.3547649124
  0
LINE
  8
0
 62
7
  6
CONTINUOUS
 10
57.9337347861
 20
219.9791943156
 11
57.831221961
 21
220.0622075646
  0
LINE
  8
0
 62
7
  6
CONTINUOUS
 10
72.959839512
 20
206.8334862385
 11
59.1923755682
 21
206.8334862385
  0
LINE
  8
0
 62
7
  6
CONTINUOUS
 10
40.159839512
 20
207.1834862385
 11
53.9273034558
 21
207.1834862385
  0
LINE
  8
0
 62
7
  6
CONTINUOUS
 10
55.2884570631
 20
59.7232075646
 11
55.1847093408
 21
59.6391943156
  0
LINE
  8
0
 62
7
  6
CONTINUOUS
 10
53.9273034558
 20
213.1834862385
 11
40.1598687585
 21
213.1834862385
  0
LINE
  8
0
 62
7
  6
CONTINUOUS
 10
59.1923755682
 20
213.5334862385
 11
72.959839512
 21
213.5334862385
  0
LINE
  8
0
 62
7
  6
CONTINUOUS
 10
55.1847093408
 20
233.7277781614
 11
55.2884570631
 21
233.6437649124
  0
LINE
  8
0
 62
7
  6
CONTINUOUS
 10
72.959839512
 20
219.5334862385
 11
59.1923755682
 21
219.5334862385
  0
LINE
  8
0
 62
7
  6
CONTINUOUS
 10
40.159839512
 20
219.8834862385
 11
53.9273034558
 21
219.8834862385
  0
POLYLINE
  8
0
 62
7
  6
CONTINUOUS
 66
1
 70
0
  0
VERTEX
  8
0
 62
7
  6
CONTINUOUS
 10
61.1439519636
 20
59.2968228176
  0
VERTEX
  8
0
 62
7
  6
CONTINUOUS
 10
60.8118870445
 20
59.1271600237
  0
VERTEX
  8
0
 62
7
  6
CONTINUOUS
 10
60.5033837963
 20
58.9176901396
  0
VERTEX
  8
0
 62
7
  6
CONTINUOUS
 10
60.2233000175
 20
58.6715229853
  0
VERTEX
  8
0
 62
7
  6
CONTINUOUS
 10
59.9758896694
 20
58.3925147285
  0
VERTEX
  8
0
 62
7
  6
CONTINUOUS
 10
59.7649968901
 20
58.0850003795
  0
VERTEX
  8
0
 62
7
  6
CONTINUOUS
 10
59.5939331821
 20
57.753654458
  0
VERTEX
  8
0
 62
7
  6
CONTINUOUS
 10
59.4652085865
 20
57.4036802988
  0
SEQEND
  0
LINE
  8
0
 62
7
  6
CONTINUOUS
 10
53.928538353
 20
225.8834862385
 11
40.1598687585
 21
225.8834862385
  0
LINE
  8
0
 62
7
  6
CONTINUOUS
 10
59.1936104654
 20
226.2334862385
 11
63.359839512
 21
226.2334862385
  0
LINE
  8
0
 62
7
  6
CONTINUOUS
 10
49.159839512
 20
226.5834862385
 11
48.359839512
 21
226.5834862385
  0
LINE
  8
0
 62
7
  6
CONTINUOUS
 10
72.9598394741
 20
229.9334862385
 11
63.6776554332
 21
229.9334862385
  0
POLYLINE
  8
0
 62
7
  6
CONTINUOUS
 66
1
 70
0
  0
VERTEX
  8
0
 62
7
  6
CONTINUOUS
 10
61.1439519636
 20
234.0701496594
  0
VERTEX
  8
0
 62
7
  6
CONTINUOUS
 10
60.8118870445
 20
234.2398124534
  0
VERTEX
  8
0
 62
7
  6
CONTINUOUS
 10
60.5033837963
 20
234.4492823375
  0
VERTEX
  8
0
 62
7
  6
CONTINUOUS
 10
60.2233000175
 20
234.6954494918
  0
VERTEX
  8
0
 62
7
  6
CONTINUOUS
 10
59.9758896694
 20
234.9744577486
  0
VERTEX
  8
0
 62
7
  6
CONTINUOUS
 10
59.7649968901
 20
235.2819720976
  0
VERTEX
  8
0
 62
7
  6
CONTINUOUS
 10
59.5939331821
 20
235.6133180191
  0
VERTEX
  8
0
 62
7
  6
CONTINUOUS
 10
59.4652085865
 20
235.9632921782
  0
SEQEND
  0
LINE
  8
0
 62
40
  6
CONTINUOUS
 10
59.339839512
 20
236.8214862385
 11
54.939839512
 21
236.6926029056
  0
LINE
  8
0
 62
7
  6
CONTINUOUS
 10
49.159839512
 20
233.4734862385
 11
48.359839512
 21
233.4734862385
  0
LINE
  8
0
 62
7
  6
CONTINUOUS
 10
72.959839512
 20
233.8214862385
 11
60.6929941793
 21
233.8214862385
  0
LINE
  8
0
 62
7
  6
CONTINUOUS
 10
40.159839512
 20
234.1734862385
 11
53.9260685587
 21
234.1734862385
  0
LINE
  8
0
 62
7
  6
CONTINUOUS
 10
63.959839512
 20
234.5214862385
 11
64.759839512
 21
234.5214862385
  0
LINE
  8
0
 62
7
  6
CONTINUOUS
 10
55.1960347476
 20
236.4334862385
 11
43.709839512
 21
236.4334862385
  0
LINE
  8
0
 62
7
  6
CONTINUOUS
 10
54.939839512
 20
241.8455515259
 11
43.7098395103
 21
241.8455515259
  0
LINE
  8
0
 62
7
  6
CONTINUOUS
 10
57.339839512
 20
241.9334862385
 11
40.1598687585
 21
241.9334862385
  0
POLYLINE
  8
0
 62
7
  6
CONTINUOUS
 66
1
 70
0
  0
VERTEX
  8
0
 62
7
  6
CONTINUOUS
 10
54.939839512
 20
241.8455515259
  0
VERTEX
  8
0
 62
7
  6
CONTINUOUS
 10
55.2368941727
 20
241.8396397669
  0
VERTEX
  8
0
 62
7
  6
CONTINUOUS
 10
55.5016968525
 20
241.8233664356
  0
VERTEX
  8
0
 62
7
  6
CONTINUOUS
 10
55.7373810045
 20
241.797754825
  0
VERTEX
  8
0
 62
7
  6
CONTINUOUS
 10
55.9464591684
 20
241.7631344402
  0
VERTEX
  8
0
 62
7
  6
CONTINUOUS
 10
56.1318989512
 20
241.7193858652
  0
VERTEX
  8
0
 62
7
  6
CONTINUOUS
 10
56.2954382371
 20
241.666275369
  0
VERTEX
  8
0
 62
7
  6
CONTINUOUS
 10
56.4374455911
 20
241.6037421643
  0
VERTEX
  8
0
 62
7
  6
CONTINUOUS
 10
56.5583707302
 20
241.5313537296
  0
VERTEX
  8
0
 62
7
  6
CONTINUOUS
 10
56.6554906619
 20
241.450564348
  0
VERTEX
  8
0
 62
7
  6
CONTINUOUS
 10
56.7267618611
 20
241.3640170664
  0
VERTEX
  8
0
 62
7
  6
CONTINUOUS
 10
56.7721312822
 20
241.2741819485
  0
VERTEX
  8
0
 62
7
  6
CONTINUOUS
 10
56.7927301265
 20
241.1811113837
  0
VERTEX
  8
0
 62
7
  6
CONTINUOUS
 10
56.7876846732
 20
241.0834862385
  0
SEQEND
  0
POLYLINE
  8
0
 62
7
  6
CONTINUOUS
 66
1
 70
0
  0
VERTEX
  8
0
 62
7
  6
CONTINUOUS
 10
62.339839512
 20
233.8214862385
  0
VERTEX
  8
0
 62
7
  6
CONTINUOUS
 10
61.9320601085
 20
233.8495043816
  0
VERTEX
  8
0
 62
7
  6
CONTINUOUS
 10
61.5291002582
 20
233.9332926747
  0
VERTEX
  8
0
 62
7
  6
CONTINUOUS
 10
61.1439519636
 20
234.0701496594
  0
SEQEND
  0
POLYLINE
  8
0
 62
7
  6
CONTINUOUS
 66
1
 70
0
  0
VERTEX
  8
0
 62
7
  6
CONTINUOUS
 10
43.709839512
 20
236.4334862385
  0
VERTEX
  8
0
 62
7
  6
CONTINUOUS
 10
43.6137495851
 20
236.4454804876
  0
VERTEX
  8
0
 62
7
  6
CONTINUOUS
 10
43.5140195423
 20
236.4833166772
  0
VERTEX
  8
0
 62
7
  6
CONTINUOUS
 10
43.4122220284
 20
236.548667022
  0
VERTEX
  8
0
 62
7
  6
CONTINUOUS
 10
43.3113447505
 20
236.6401689226
  0
VERTEX
  8
0
 62
7
  6
CONTINUOUS
 10
43.212420915
 20
236.7558928029
  0
VERTEX
  8
0
 62
7
  6
CONTINUOUS
 10
43.115471508
 20
236.8944547856
  0
VERTEX
  8
0
 62
7
  6
CONTINUOUS
 10
43.0200837546
 20
237.055284194
  0
VERTEX
  8
0
 62
7
  6
CONTINUOUS
 10
42.9257728927
 20
237.2384214623
  0
VERTEX
  8
0
 62
7
  6
CONTINUOUS
 10
42.8320852691
 20
237.4443629068
  0
VERTEX
  8
0
 62
7
  6
CONTINUOUS
 10
42.7385900556
 20
237.6740434398
  0
VERTEX
  8
0
 62
7
  6
CONTINUOUS
 10
42.6449612556
 20
237.9285830508
  0
VERTEX
  8
0
 62
7
  6
CONTINUOUS
 10
42.5508614172
 20
238.2095270387
  0
VERTEX
  8
0
 62
7
  6
CONTINUOUS
 10
42.4560649031
 20
238.518464001
  0
VERTEX
  8
0
 62
7
  6
CONTINUOUS
 10
42.3603264499
 20
238.8573799047
  0
VERTEX
  8
0
 62
7
  6
CONTINUOUS
 10
42.2634759279
 20
239.2283373878
  0
VERTEX
  8
0
 62
7
  6
CONTINUOUS
 10
42.1653372074
 20
239.6337446485
  0
VERTEX
  8
0
 62
7
  6
CONTINUOUS
 10
42.0657874958
 20
240.076127294
  0
VERTEX
  8
0
 62
7
  6
CONTINUOUS
 10
41.9646973266
 20
240.5583799576
  0
VERTEX
  8
0
 62
7
  6
CONTINUOUS
 10
41.8619943509
 20
241.0834862385
  0
SEQEND
  0
LINE
  8
0
 62
7
  6
CONTINUOUS
 10
140.4419724771
 20
51.4334862385
 11
147.5419724771
 21
51.4334862385
  0
LINE
  8
0
 62
7
  6
CONTINUOUS
 10
147.5419724771
 20
59.1934862385
 11
140.4419724771
 21
59.1934862385
  0
LINE
  8
0
 62
7
  6
CONTINUOUS
 10
143.5919724771
 20
59.8934862385
 11
144.3919724771
 21
59.8934862385
  0
LINE
  8
0
 62
7
  6
CONTINUOUS
 10
143.5919724771
 20
66.7834862385
 11
144.3919724771
 21
66.7834862385
  0
LINE
  8
0
 62
7
  6
CONTINUOUS
 10
140.4419724771
 20
67.4834862385
 11
147.5419724771
 21
67.4834862385
  0
LINE
  8
0
 62
7
  6
CONTINUOUS
 10
147.5419724771
 20
73.4834862385
 11
140.4419724771
 21
73.4834862385
  0
LINE
  8
0
 62
7
  6
CONTINUOUS
 10
140.4419724771
 20
80.1834862385
 11
147.5419724771
 21
80.1834862385
  0
LINE
  8
0
 62
7
  6
CONTINUOUS
 10
147.5419724771
 20
86.1834862385
 11
140.4419724771
 21
86.1834862385
  0
LINE
  8
0
 62
7
  6
CONTINUOUS
 10
150.8919724771
 20
87.7834862385
 11
148.3919724771
 21
87.7834862385
  0
LINE
  8
0
 62
7
  6
CONTINUOUS
 10
148.3919724771
 20
90.2501642971
 11
148.9419724771
 21
90.2501642971
  0
LINE
  8
0
 62
7
  6
CONTINUOUS
 10
149.6919724771
 20
91.2834862385
 11
150.8919724771
 21
91.2834862385
  0
LINE
  8
0
 62
7
  6
CONTINUOUS
 10
140.4419724771
 20
92.8834862385
 11
147.5419724771
 21
92.8834862385
  0
LINE
  8
0
 62
7
  6
CONTINUOUS
 10
150.8919724771
 20
94.1334862385
 11
148.3919724771
 21
94.1334862385
  0
LINE
  8
0
 62
7
  6
CONTINUOUS
 10
150.8919724771
 20
97.6334862385
 11
148.3919724771
 21
97.6334862385
  0
LINE
  8
0
 62
7
  6
CONTINUOUS
 10
147.5419724771
 20
98.8834862385
 11
140.4419724771
 21
98.8834862385
  0
LINE
  8
0
 62
7
  6
CONTINUOUS
 10
150.8919724771
 20
100.4834862385
 11
149.6919724771
 21
100.4834862385
  0
LINE
  8
0
 62
7
  6
CONTINUOUS
 10
148.3919724771
 20
101.5168081799
 11
148.9419724771
 21
101.5168081799
  0
LINE
  8
0
 62
7
  6
CONTINUOUS
 10
148.3919724771
 20
102.9501642971
 11
148.9419724771
 21
102.9501642971
  0
POLYLINE
  8
0
 62
7
  6
CONTINUOUS
 66
1
 70
0
  0
VERTEX
  8
0
 62
7
  6
CONTINUOUS
 10
148.9419724771
 20
101.5168081799
  0
VERTEX
  8
0
 62
7
  6
CONTINUOUS
 10
149.0553564679
 20
101.5058690428
  0
VERTEX
  8
0
 62
7
  6
CONTINUOUS
 10
149.1679328819
 20
101.4725850005
  0
VERTEX
  8
0
 62
7
  6
CONTINUOUS
 10
149.2783939991
 20
101.4156849114
  0
VERTEX
  8
0
 62
7
  6
CONTINUOUS
 10
149.3844890283
 20
101.3334862385
  0
SEQEND
  0
LINE
  8
0
 62
7
  6
CONTINUOUS
 10
149.6919724771
 20
103.9834862385
 11
150.8919724771
 21
103.9834862385
  0
LINE
  8
0
 62
7
  6
CONTINUOUS
 10
140.4419724771
 20
105.5834862385
 11
147.5419724771
 21
105.5834862385
  0
LINE
  8
0
 62
7
  6
CONTINUOUS
 10
150.8919724771
 20
106.8334862385
 11
148.3919724771
 21
106.8334862385
  0
POLYLINE
  8
0
 62
40
  6
CONTINUOUS
 66
1
 70
0
  0
VERTEX
  8
0
 62
40
  6
CONTINUOUS
 10
139.5919724771
 20
236.6926029056
  0
VERTEX
  8
0
 62
40
  6
CONTINUOUS
 10
139.5928882008
 20
236.6952322354
  0
VERTEX
  8
0
 62
40
  6
CONTINUOUS
 10
139.5956349909
 20
236.6978604708
  0
VERTEX
  8
0
 62
40
  6
CONTINUOUS
 10
139.600211704
 20
236.7004865177
  0
VERTEX
  8
0
 62
40
  6
CONTINUOUS
 10
139.6066164351
 20
236.7031092832
  0
VERTEX
  8
0
 62
40
  6
CONTINUOUS
 10
139.6148465184
 20
236.7057276755
  0
SEQEND
  0
POLYLINE
  8
0
 62
7
  6
CONTINUOUS
 66
1
 70
0
  0
VERTEX
  8
0
 62
7
  6
CONTINUOUS
 10
149.3844890283
 20
192.0334862385
  0
VERTEX
  8
0
 62
7
  6
CONTINUOUS
 10
149.2783939991
 20
191.9512875657
  0
VERTEX
  8
0
 62
7
  6
CONTINUOUS
 10
149.1679328819
 20
191.8943874766
  0
VERTEX
  8
0
 62
7
  6
CONTINUOUS
 10
149.0553564679
 20
191.8611034342
  0
VERTEX
  8
0
 62
7
  6
CONTINUOUS
 10
148.9419724771
 20
191.8501642971
  0
SEQEND
  0
LINE
  8
0
 62
7
  6
CONTINUOUS
 10
150.8919724771
 20
110.3334862385
 11
148.3919724771
 21
110.3334862385
  0
LINE
  8
0
 62
7
  6
CONTINUOUS
 10
147.5419724771
 20
111.5834862385
 11
140.4419724771
 21
111.5834862385
  0
LINE
  8
0
 62
7
  6
CONTINUOUS
 10
150.8919724771
 20
113.1834862385
 11
149.6919724771
 21
113.1834862385
  0
LINE
  8
0
 62
7
  6
CONTINUOUS
 10
148.3919724771
 20
114.2168081799
 11
148.9419724771
 21
114.2168081799
  0
LINE
  8
0
 62
7
  6
CONTINUOUS
 10
148.3919724771
 20
115.6501642971
 11
148.9419724771
 21
115.6501642971
  0
POLYLINE
  8
0
 62
7
  6
CONTINUOUS
 66
1
 70
0
  0
VERTEX
  8
0
 62
7
  6
CONTINUOUS
 10
148.9419724771
 20
114.2168081799
  0
VERTEX
  8
0
 62
7
  6
CONTINUOUS
 10
149.0553564679
 20
114.2058690428
  0
VERTEX
  8
0
 62
7
  6
CONTINUOUS
 10
149.1679328819
 20
114.1725850005
  0
VERTEX
  8
0
 62
7
  6
CONTINUOUS
 10
149.2783939991
 20
114.1156849114
  0
VERTEX
  8
0
 62
7
  6
CONTINUOUS
 10
149.3844890283
 20
114.0334862385
  0
SEQEND
  0
POLYLINE
  8
0
 62
7
  6
CONTINUOUS
 66
1
 70
0
  0
VERTEX
  8
0
 62
7
  6
CONTINUOUS
 10
149.3919724771
 20
192.0404944567
  0
VERTEX
  8
0
 62
7
  6
CONTINUOUS
 10
149.5036287419
 20
192.161523862
  0
VERTEX
  8
0
 62
7
  6
CONTINUOUS
 10
149.5890872418
 20
192.2845852603
  0
VERTEX
  8
0
 62
7
  6
CONTINUOUS
 10
149.6475007863
 20
192.4020822267
  0
VERTEX
  8
0
 62
7
  6
CONTINUOUS
 10
149.6810136601
 20
192.5105080561
  0
VERTEX
  8
0
 62
7
  6
CONTINUOUS
 10
149.6919724771
 20
192.6095364976
  0
SEQEND
  0
LINE
  8
0
 62
7
  6
CONTINUOUS
 10
149.3844890283
 20
192.0334862385
 11
149.3919724771
 21
192.0404944567
  0
LINE
  8
0
 62
7
  6
CONTINUOUS
 10
149.6919724771
 20
116.6834862385
 11
150.8919724771
 21
116.6834862385
  0
LINE
  8
0
 62
7
  6
CONTINUOUS
 10
140.4419724771
 20
118.2834862385
 11
147.5419724771
 21
118.2834862385
  0
LINE
  8
0
 62
7
  6
CONTINUOUS
 10
150.8919724771
 20
119.5334862385
 11
148.3919724771
 21
119.5334862385
  0
LINE
  8
0
 62
7
  6
CONTINUOUS
 10
149.3919724771
 20
101.3264780204
 11
149.3844890283
 21
101.3334862385
  0
POLYLINE
  8
0
 62
7
  6
CONTINUOUS
 66
1
 70
0
  0
VERTEX
  8
0
 62
7
  6
CONTINUOUS
 10
149.3919724771
 20
179.3404944567
  0
VERTEX
  8
0
 62
7
  6
CONTINUOUS
 10
149.5036287419
 20
179.461523862
  0
VERTEX
  8
0
 62
7
  6
CONTINUOUS
 10
149.5890872418
 20
179.5845852603
  0
VERTEX
  8
0
 62
7
  6
CONTINUOUS
 10
149.6475007863
 20
179.7020822267
  0
VERTEX
  8
0
 62
7
  6
CONTINUOUS
 10
149.6810136601
 20
179.8105080561
  0
VERTEX
  8
0
 62
7
  6
CONTINUOUS
 10
149.6919724771
 20
179.9095364976
  0
SEQEND
  0
LINE
  8
0
 62
7
  6
CONTINUOUS
 10
149.3844890283
 20
179.3334862385
 11
149.3919724771
 21
179.3404944567
  0
POLYLINE
  8
0
 62
7
  6
CONTINUOUS
 66
1
 70
0
  0
VERTEX
  8
0
 62
7
  6
CONTINUOUS
 10
149.3844890283
 20
179.3334862385
  0
VERTEX
  8
0
 62
7
  6
CONTINUOUS
 10
149.2783939991
 20
179.2512875657
  0
VERTEX
  8
0
 62
7
  6
CONTINUOUS
 10
149.1679328819
 20
179.1943874766
  0
VERTEX
  8
0
 62
7
  6
CONTINUOUS
 10
149.0553564679
 20
179.1611034342
  0
VERTEX
  8
0
 62
7
  6
CONTINUOUS
 10
148.9419724771
 20
179.1501642971
  0
SEQEND
  0
LINE
  8
0
 62
7
  6
CONTINUOUS
 10
150.8919724771
 20
123.0334862385
 11
148.3919724771
 21
123.0334862385
  0
LINE
  8
0
 62
7
  6
CONTINUOUS
 10
147.5419724771
 20
124.2834862385
 11
140.4419724771
 21
124.2834862385
  0
LINE
  8
0
 62
7
  6
CONTINUOUS
 10
150.8919724771
 20
125.8834862385
 11
149.6919724771
 21
125.8834862385
  0
LINE
  8
0
 62
7
  6
CONTINUOUS
 10
148.3919724771
 20
126.9168081799
 11
148.9419724771
 21
126.9168081799
  0
LINE
  8
0
 62
7
  6
CONTINUOUS
 10
148.3919724771
 20
128.3501642971
 11
148.9419724771
 21
128.3501642971
  0
POLYLINE
  8
0
 62
7
  6
CONTINUOUS
 66
1
 70
0
  0
VERTEX
  8
0
 62
7
  6
CONTINUOUS
 10
148.9419724771
 20
126.9168081799
  0
VERTEX
  8
0
 62
7
  6
CONTINUOUS
 10
149.0553564679
 20
126.9058690428
  0
VERTEX
  8
0
 62
7
  6
CONTINUOUS
 10
149.1679328819
 20
126.8725850005
  0
VERTEX
  8
0
 62
7
  6
CONTINUOUS
 10
149.2783939991
 20
126.8156849114
  0
VERTEX
  8
0
 62
7
  6
CONTINUOUS
 10
149.3844890283
 20
126.7334862385
  0
SEQEND
  0
LINE
  8
0
 62
7
  6
CONTINUOUS
 10
149.3919724771
 20
114.0264780204
 11
149.3844890283
 21
114.0334862385
  0
LINE
  8
0
 62
7
  6
CONTINUOUS
 10
140.065466836
 20
51.5214209512
 11
139.5919724771
 21
56.9334862385
  0
LINE
  8
0
 62
7
  6
CONTINUOUS
 10
140.065466836
 20
241.8455515259
 11
139.5919724771
 21
236.4334862385
  0
POLYLINE
  8
0
 62
7
  6
CONTINUOUS
 66
1
 70
0
  0
VERTEX
  8
0
 62
7
  6
CONTINUOUS
 10
148.2589838145
 20
202.0436349973
  0
VERTEX
  8
0
 62
7
  6
CONTINUOUS
 10
148.2386317343
 20
201.9705601146
  0
VERTEX
  8
0
 62
7
  6
CONTINUOUS
 10
148.2249253233
 20
201.8974844499
  0
VERTEX
  8
0
 62
7
  6
CONTINUOUS
 10
148.2191672807
 20
201.8278698421
  0
SEQEND
  0
POLYLINE
  8
0
 62
7
  6
CONTINUOUS
 66
1
 70
0
  0
VERTEX
  8
0
 62
7
  6
CONTINUOUS
 10
149.3844890283
 20
166.6334862385
  0
VERTEX
  8
0
 62
7
  6
CONTINUOUS
 10
149.2783939991
 20
166.5512875657
  0
VERTEX
  8
0
 62
7
  6
CONTINUOUS
 10
149.1679328819
 20
166.4943874766
  0
VERTEX
  8
0
 62
7
  6
CONTINUOUS
 10
149.0553564679
 20
166.4611034342
  0
VERTEX
  8
0
 62
7
  6
CONTINUOUS
 10
148.9419724771
 20
166.4501642971
  0
SEQEND
  0
LINE
  8
0
 62
7
  6
CONTINUOUS
 10
149.6919724771
 20
129.3834862385
 11
150.8919724771
 21
129.3834862385
  0
LINE
  8
0
 62
7
  6
CONTINUOUS
 10
140.4419724771
 20
130.9834862385
 11
147.5419724771
 21
130.9834862385
  0
LINE
  8
0
 62
7
  6
CONTINUOUS
 10
150.8919724771
 20
132.2334862385
 11
148.3919724771
 21
132.2334862385
  0
LINE
  8
0
 62
7
  6
CONTINUOUS
 10
139.5919724771
 20
56.9334862385
 11
139.5919724771
 21
236.4334862385
  0
LINE
  8
0
 62
4
  6
CONTINUOUS
 10
139.6586078446
 20
61.4334862385
 11
139.6586078446
 21
64.4334862385
  0
POLYLINE
  8
0
 62
7
  6
CONTINUOUS
 66
1
 70
0
  0
VERTEX
  8
0
 62
7
  6
CONTINUOUS
 10
148.2589838145
 20
189.3436349973
  0
VERTEX
  8
0
 62
7
  6
CONTINUOUS
 10
148.2386317343
 20
189.2705601146
  0
VERTEX
  8
0
 62
7
  6
CONTINUOUS
 10
148.2249253233
 20
189.1974844499
  0
VERTEX
  8
0
 62
7
  6
CONTINUOUS
 10
148.2191672807
 20
189.1278698421
  0
SEQEND
  0
POLYLINE
  8
0
 62
7
  6
CONTINUOUS
 66
1
 70
0
  0
VERTEX
  8
0
 62
7
  6
CONTINUOUS
 10
149.3919724771
 20
166.6404944567
  0
VERTEX
  8
0
 62
7
  6
CONTINUOUS
 10
149.5036287419
 20
166.761523862
  0
VERTEX
  8
0
 62
7
  6
CONTINUOUS
 10
149.5890872418
 20
166.8845852603
  0
VERTEX
  8
0
 62
7
  6
CONTINUOUS
 10
149.6475007863
 20
167.0020822267
  0
VERTEX
  8
0
 62
7
  6
CONTINUOUS
 10
149.6810136601
 20
167.1105080561
  0
VERTEX
  8
0
 62
7
  6
CONTINUOUS
 10
149.6919724771
 20
167.2095364976
  0
SEQEND
  0
LINE
  8
0
 62
7
  6
CONTINUOUS
 10
149.3844890283
 20
166.6334862385
 11
149.3919724771
 21
166.6404944567
  0
LINE
  8
0
 62
7
  6
CONTINUOUS
 10
150.8919724771
 20
135.7334862385
 11
148.3919724771
 21
135.7334862385
  0
LINE
  8
0
 62
7
  6
CONTINUOUS
 10
147.5419724771
 20
136.9834862385
 11
140.4419724771
 21
136.9834862385
  0
LINE
  8
0
 62
7
  6
CONTINUOUS
 10
150.8919724771
 20
138.5834862385
 11
149.6919724771
 21
138.5834862385
  0
LINE
  8
0
 62
7
  6
CONTINUOUS
 10
148.3919724771
 20
139.6168081799
 11
148.9419724771
 21
139.6168081799
  0
LINE
  8
0
 62
7
  6
CONTINUOUS
 10
148.3919724771
 20
141.0501642971
 11
148.9419724771
 21
141.0501642971
  0
POLYLINE
  8
0
 62
7
  6
CONTINUOUS
 66
1
 70
0
  0
VERTEX
  8
0
 62
7
  6
CONTINUOUS
 10
148.9419724771
 20
139.6168081799
  0
VERTEX
  8
0
 62
7
  6
CONTINUOUS
 10
149.0553564679
 20
139.6058690428
  0
VERTEX
  8
0
 62
7
  6
CONTINUOUS
 10
149.1679328819
 20
139.5725850005
  0
VERTEX
  8
0
 62
7
  6
CONTINUOUS
 10
149.2783939991
 20
139.5156849114
  0
VERTEX
  8
0
 62
7
  6
CONTINUOUS
 10
149.3844890283
 20
139.4334862385
  0
SEQEND
  0
LINE
  8
0
 62
7
  6
CONTINUOUS
 10
149.3919724771
 20
126.7264780204
 11
149.3844890283
 21
126.7334862385
  0
POLYLINE
  8
0
 62
7
  6
CONTINUOUS
 66
1
 70
0
  0
VERTEX
  8
0
 62
7
  6
CONTINUOUS
 10
148.2191672826
 20
91.5391025492
  0
VERTEX
  8
0
 62
7
  6
CONTINUOUS
 10
148.224848188
 20
91.4700487117
  0
VERTEX
  8
0
 62
7
  6
CONTINUOUS
 10
148.2385402034
 20
91.3968030713
  0
VERTEX
  8
0
 62
7
  6
CONTINUOUS
 10
148.2589838105
 20
91.3233374923
  0
SEQEND
  0
POLYLINE
  8
0
 62
7
  6
CONTINUOUS
 66
1
 70
0
  0
VERTEX
  8
0
 62
7
  6
CONTINUOUS
 10
148.2191672826
 20
104.2391025492
  0
VERTEX
  8
0
 62
7
  6
CONTINUOUS
 10
148.224848188
 20
104.1700487117
  0
VERTEX
  8
0
 62
7
  6
CONTINUOUS
 10
148.2385402034
 20
104.0968030713
  0
VERTEX
  8
0
 62
7
  6
CONTINUOUS
 10
148.2589838105
 20
104.0233374923
  0
SEQEND
  0
POLYLINE
  8
0
 62
7
  6
CONTINUOUS
 66
1
 70
0
  0
VERTEX
  8
0
 62
7
  6
CONTINUOUS
 10
148.2191672826
 20
116.9391025492
  0
VERTEX
  8
0
 62
7
  6
CONTINUOUS
 10
148.224848188
 20
116.8700487117
  0
VERTEX
  8
0
 62
7
  6
CONTINUOUS
 10
148.2385402034
 20
116.7968030713
  0
VERTEX
  8
0
 62
7
  6
CONTINUOUS
 10
148.2589838105
 20
116.7233374923
  0
SEQEND
  0
POLYLINE
  8
0
 62
7
  6
CONTINUOUS
 66
1
 70
0
  0
VERTEX
  8
0
 62
7
  6
CONTINUOUS
 10
148.3919724771
 20
90.4845499851
  0
VERTEX
  8
0
 62
7
  6
CONTINUOUS
 10
148.3583451539
 20
90.9087453786
  0
VERTEX
  8
0
 62
7
  6
CONTINUOUS
 10
148.2589838105
 20
91.3233374923
  0
SEQEND
  0
POLYLINE
  8
0
 62
7
  6
CONTINUOUS
 66
1
 70
0
  0
VERTEX
  8
0
 62
7
  6
CONTINUOUS
 10
148.3919724771
 20
103.1845499851
  0
VERTEX
  8
0
 62
7
  6
CONTINUOUS
 10
148.3583451539
 20
103.6087453786
  0
VERTEX
  8
0
 62
7
  6
CONTINUOUS
 10
148.2589838105
 20
104.0233374923
  0
SEQEND
  0
POLYLINE
  8
0
 62
7
  6
CONTINUOUS
 66
1
 70
0
  0
VERTEX
  8
0
 62
7
  6
CONTINUOUS
 10
148.3919724771
 20
115.8845499851
  0
VERTEX
  8
0
 62
7
  6
CONTINUOUS
 10
148.3583451539
 20
116.3087453786
  0
VERTEX
  8
0
 62
7
  6
CONTINUOUS
 10
148.2589838105
 20
116.7233374923
  0
SEQEND
  0
POLYLINE
  8
0
 62
7
  6
CONTINUOUS
 66
1
 70
0
  0
VERTEX
  8
0
 62
7
  6
CONTINUOUS
 10
148.1935101727
 20
99.092858407
  0
VERTEX
  8
0
 62
7
  6
CONTINUOUS
 10
148.2007756286
 20
98.9416229364
  0
VERTEX
  8
0
 62
7
  6
CONTINUOUS
 10
148.233103447
 20
98.7667284612
  0
VERTEX
  8
0
 62
7
  6
CONTINUOUS
 10
148.2845524134
 20
98.5799429685
  0
VERTEX
  8
0
 62
7
  6
CONTINUOUS
 10
148.3385814299
 20
98.3900202976
  0
VERTEX
  8
0
 62
7
  6
CONTINUOUS
 10
148.3780985988
 20
98.2046824701
  0
VERTEX
  8
0
 62
7
  6
CONTINUOUS
 10
148.3919724771
 20
98.0351090863
  0
SEQEND
  0
LINE
  8
DEFAULT_1
 62
2
  6
CENTER
 10
143.9919724771
 20
57.5454862385
 11
143.9919724771
 21
235.8214862385
  0
POLYLINE
  8
0
 62
7
  6
CONTINUOUS
 66
1
 70
0
  0
VERTEX
  8
0
 62
7
  6
CONTINUOUS
 10
148.3919724771
 20
202.882422492
  0
VERTEX
  8
0
 62
7
  6
CONTINUOUS
 10
148.3583451549
 20
202.4582271046
  0
VERTEX
  8
0
 62
7
  6
CONTINUOUS
 10
148.2589838145
 20
202.0436349973
  0
SEQEND
  0
POLYLINE
  8
0
 62
7
  6
CONTINUOUS
 66
1
 70
0
  0
VERTEX
  8
0
 62
7
  6
CONTINUOUS
 10
148.3919724771
 20
190.182422492
  0
VERTEX
  8
0
 62
7
  6
CONTINUOUS
 10
148.3583451549
 20
189.7582271046
  0
VERTEX
  8
0
 62
7
  6
CONTINUOUS
 10
148.2589838145
 20
189.3436349973
  0
SEQEND
  0
POLYLINE
  8
0
 62
7
  6
CONTINUOUS
 66
1
 70
0
  0
VERTEX
  8
0
 62
7
  6
CONTINUOUS
 10
148.3919724771
 20
177.482422492
  0
VERTEX
  8
0
 62
7
  6
CONTINUOUS
 10
148.3583451549
 20
177.0582271046
  0
VERTEX
  8
0
 62
7
  6
CONTINUOUS
 10
148.2589838145
 20
176.6436349973
  0
SEQEND
  0
POLYLINE
  8
0
 62
7
  6
CONTINUOUS
 66
1
 70
0
  0
VERTEX
  8
0
 62
7
  6
CONTINUOUS
 10
148.3919724771
 20
195.3318633908
  0
VERTEX
  8
0
 62
7
  6
CONTINUOUS
 10
148.3780561088
 20
195.1620151694
  0
VERTEX
  8
0
 62
7
  6
CONTINUOUS
 10
148.3384619257
 20
194.9764940496
  0
VERTEX
  8
0
 62
7
  6
CONTINUOUS
 10
148.2843930069
 20
194.7864880762
  0
VERTEX
  8
0
 62
7
  6
CONTINUOUS
 10
148.2329781658
 20
194.5997253899
  0
VERTEX
  8
0
 62
7
  6
CONTINUOUS
 10
148.2007336123
 20
194.4249918428
  0
VERTEX
  8
0
 62
7
  6
CONTINUOUS
 10
148.1935101727
 20
194.2741140701
  0
SEQEND
  0
POLYLINE
  8
0
 62
7
  6
CONTINUOUS
 66
1
 70
0
  0
VERTEX
  8
0
 62
7
  6
CONTINUOUS
 10
148.3919724771
 20
182.6318633908
  0
VERTEX
  8
0
 62
7
  6
CONTINUOUS
 10
148.3780561088
 20
182.4620151694
  0
VERTEX
  8
0
 62
7
  6
CONTINUOUS
 10
148.3384619257
 20
182.2764940496
  0
VERTEX
  8
0
 62
7
  6
CONTINUOUS
 10
148.2843930069
 20
182.0864880762
  0
VERTEX
  8
0
 62
7
  6
CONTINUOUS
 10
148.2329781658
 20
181.8997253899
  0
VERTEX
  8
0
 62
7
  6
CONTINUOUS
 10
148.2007336123
 20
181.7249918428
  0
VERTEX
  8
0
 62
7
  6
CONTINUOUS
 10
148.1935101727
 20
181.5741140701
  0
SEQEND
  0
POLYLINE
  8
0
 62
7
  6
CONTINUOUS
 66
1
 70
0
  0
VERTEX
  8
0
 62
7
  6
CONTINUOUS
 10
148.2589838145
 20
176.6436349973
  0
VERTEX
  8
0
 62
7
  6
CONTINUOUS
 10
148.2386317343
 20
176.5705601146
  0
VERTEX
  8
0
 62
7
  6
CONTINUOUS
 10
148.2249253233
 20
176.4974844499
  0
VERTEX
  8
0
 62
7
  6
CONTINUOUS
 10
148.2191672807
 20
176.4278698421
  0
SEQEND
  0
POLYLINE
  8
0
 62
7
  6
CONTINUOUS
 66
1
 70
0
  0
VERTEX
  8
0
 62
7
  6
CONTINUOUS
 10
148.2589838145
 20
163.9436349973
  0
VERTEX
  8
0
 62
7
  6
CONTINUOUS
 10
148.2386317343
 20
163.8705601146
  0
VERTEX
  8
0
 62
7
  6
CONTINUOUS
 10
148.2249253233
 20
163.7974844499
  0
VERTEX
  8
0
 62
7
  6
CONTINUOUS
 10
148.2191672807
 20
163.7278698421
  0
SEQEND
  0
POLYLINE
  8
0
 62
7
  6
CONTINUOUS
 66
1
 70
0
  0
VERTEX
  8
0
 62
7
  6
CONTINUOUS
 10
149.3919724771
 20
153.9404944567
  0
VERTEX
  8
0
 62
7
  6
CONTINUOUS
 10
149.5036287419
 20
154.061523862
  0
VERTEX
  8
0
 62
7
  6
CONTINUOUS
 10
149.5890872418
 20
154.1845852603
  0
VERTEX
  8
0
 62
7
  6
CONTINUOUS
 10
149.6475007863
 20
154.3020822267
  0
VERTEX
  8
0
 62
7
  6
CONTINUOUS
 10
149.6810136601
 20
154.4105080561
  0
VERTEX
  8
0
 62
7
  6
CONTINUOUS
 10
149.6919724771
 20
154.5095364976
  0
SEQEND
  0
LINE
  8
0
 62
7
  6
CONTINUOUS
 10
149.3844890283
 20
153.9334862385
 11
149.3919724771
 21
153.9404944567
  0
POLYLINE
  8
0
 62
7
  6
CONTINUOUS
 66
1
 70
0
  0
VERTEX
  8
0
 62
7
  6
CONTINUOUS
 10
149.3844890283
 20
153.9334862385
  0
VERTEX
  8
0
 62
7
  6
CONTINUOUS
 10
149.2783939991
 20
153.8512875657
  0
VERTEX
  8
0
 62
7
  6
CONTINUOUS
 10
149.1679328819
 20
153.7943874766
  0
VERTEX
  8
0
 62
7
  6
CONTINUOUS
 10
149.0553564679
 20
153.7611034342
  0
VERTEX
  8
0
 62
7
  6
CONTINUOUS
 10
148.9419724771
 20
153.7501642971
  0
SEQEND
  0
LINE
  8
0
 62
7
  6
CONTINUOUS
 10
149.6919724771
 20
142.0834862385
 11
150.8919724771
 21
142.0834862385
  0
LINE
  8
0
 62
7
  6
CONTINUOUS
 10
143.5919724771
 20
142.9834862385
 11
144.3919724771
 21
142.9834862385
  0
LINE
  8
0
 62
7
  6
CONTINUOUS
 10
140.4419724771
 20
143.6834862385
 11
147.5419724771
 21
143.6834862385
  0
LINE
  8
0
 62
7
  6
CONTINUOUS
 10
150.8919724771
 20
144.9334862385
 11
148.3919724771
 21
144.9334862385
  0
LINE
  8
1_AXIS
 62
2
  6
CENTER
 10
136.7419724771
 20
146.6834862385
 11
153.7419724771
 21
146.6834862385
  0
LINE
  8
0
 62
7
  6
CONTINUOUS
 10
149.3919724771
 20
139.4264780204
 11
149.3844890283
 21
139.4334862385
  0
POLYLINE
  8
0
 62
7
  6
CONTINUOUS
 66
1
 70
0
  0
VERTEX
  8
0
 62
7
  6
CONTINUOUS
 10
149.6919724771
 20
100.7574359795
  0
VERTEX
  8
0
 62
7
  6
CONTINUOUS
 10
149.6808352293
 20
100.8573030314
  0
VERTEX
  8
0
 62
7
  6
CONTINUOUS
 10
149.6470021984
 20
100.9661279359
  0
VERTEX
  8
0
 62
7
  6
CONTINUOUS
 10
149.5885874353
 20
101.0832306641
  0
VERTEX
  8
0
 62
7
  6
CONTINUOUS
 10
149.5032871884
 20
101.2058746528
  0
VERTEX
  8
0
 62
7
  6
CONTINUOUS
 10
149.3919724771
 20
101.3264780204
  0
SEQEND
  0
POLYLINE
  8
0
 62
7
  6
CONTINUOUS
 66
1
 70
0
  0
VERTEX
  8
0
 62
7
  6
CONTINUOUS
 10
149.6919724771
 20
113.4574359795
  0
VERTEX
  8
0
 62
7
  6
CONTINUOUS
 10
149.6808352293
 20
113.5573030314
  0
VERTEX
  8
0
 62
7
  6
CONTINUOUS
 10
149.6470021984
 20
113.6661279359
  0
VERTEX
  8
0
 62
7
  6
CONTINUOUS
 10
149.5885874353
 20
113.7832306641
  0
VERTEX
  8
0
 62
7
  6
CONTINUOUS
 10
149.5032871884
 20
113.9058746528
  0
VERTEX
  8
0
 62
7
  6
CONTINUOUS
 10
149.3919724771
 20
114.0264780204
  0
SEQEND
  0
POLYLINE
  8
0
 62
7
  6
CONTINUOUS
 66
1
 70
0
  0
VERTEX
  8
0
 62
7
  6
CONTINUOUS
 10
148.2191672826
 20
129.6391025492
  0
VERTEX
  8
0
 62
7
  6
CONTINUOUS
 10
148.224848188
 20
129.5700487117
  0
VERTEX
  8
0
 62
7
  6
CONTINUOUS
 10
148.2385402034
 20
129.4968030713
  0
VERTEX
  8
0
 62
7
  6
CONTINUOUS
 10
148.2589838105
 20
129.4233374923
  0
SEQEND
  0
POLYLINE
  8
0
 62
7
  6
CONTINUOUS
 66
1
 70
0
  0
VERTEX
  8
0
 62
7
  6
CONTINUOUS
 10
148.2191672826
 20
142.3391025492
  0
VERTEX
  8
0
 62
7
  6
CONTINUOUS
 10
148.224848188
 20
142.2700487117
  0
VERTEX
  8
0
 62
7
  6
CONTINUOUS
 10
148.2385402034
 20
142.1968030713
  0
VERTEX
  8
0
 62
7
  6
CONTINUOUS
 10
148.2589838105
 20
142.1233374923
  0
SEQEND
  0
POLYLINE
  8
0
 62
7
  6
CONTINUOUS
 66
1
 70
0
  0
VERTEX
  8
0
 62
7
  6
CONTINUOUS
 10
148.2191672826
 20
155.0391025492
  0
VERTEX
  8
0
 62
7
  6
CONTINUOUS
 10
148.224848188
 20
154.9700487117
  0
VERTEX
  8
0
 62
7
  6
CONTINUOUS
 10
148.2385402034
 20
154.8968030713
  0
VERTEX
  8
0
 62
7
  6
CONTINUOUS
 10
148.2589838105
 20
154.8233374923
  0
SEQEND
  0
POLYLINE
  8
0
 62
7
  6
CONTINUOUS
 66
1
 70
0
  0
VERTEX
  8
0
 62
7
  6
CONTINUOUS
 10
148.2191672826
 20
167.7391025492
  0
VERTEX
  8
0
 62
7
  6
CONTINUOUS
 10
148.224848188
 20
167.6700487117
  0
VERTEX
  8
0
 62
7
  6
CONTINUOUS
 10
148.2385402034
 20
167.5968030713
  0
VERTEX
  8
0
 62
7
  6
CONTINUOUS
 10
148.2589838105
 20
167.5233374923
  0
SEQEND
  0
POLYLINE
  8
0
 62
7
  6
CONTINUOUS
 66
1
 70
0
  0
VERTEX
  8
0
 62
7
  6
CONTINUOUS
 10
148.2191672826
 20
180.4391025492
  0
VERTEX
  8
0
 62
7
  6
CONTINUOUS
 10
148.224848188
 20
180.3700487117
  0
VERTEX
  8
0
 62
7
  6
CONTINUOUS
 10
148.2385402034
 20
180.2968030713
  0
VERTEX
  8
0
 62
7
  6
CONTINUOUS
 10
148.2589838105
 20
180.2233374923
  0
SEQEND
  0
POLYLINE
  8
0
 62
7
  6
CONTINUOUS
 66
1
 70
0
  0
VERTEX
  8
0
 62
7
  6
CONTINUOUS
 10
148.2191672826
 20
193.1391025492
  0
VERTEX
  8
0
 62
7
  6
CONTINUOUS
 10
148.224848188
 20
193.0700487117
  0
VERTEX
  8
0
 62
7
  6
CONTINUOUS
 10
148.2385402034
 20
192.9968030713
  0
VERTEX
  8
0
 62
7
  6
CONTINUOUS
 10
148.2589838105
 20
192.9233374923
  0
SEQEND
  0
POLYLINE
  8
0
 62
7
  6
CONTINUOUS
 66
1
 70
0
  0
VERTEX
  8
0
 62
7
  6
CONTINUOUS
 10
148.3919724771
 20
128.5845499851
  0
VERTEX
  8
0
 62
7
  6
CONTINUOUS
 10
148.3583451539
 20
129.0087453786
  0
VERTEX
  8
0
 62
7
  6
CONTINUOUS
 10
148.2589838105
 20
129.4233374923
  0
SEQEND
  0
POLYLINE
  8
0
 62
7
  6
CONTINUOUS
 66
1
 70
0
  0
VERTEX
  8
0
 62
7
  6
CONTINUOUS
 10
148.3919724771
 20
141.2845499851
  0
VERTEX
  8
0
 62
7
  6
CONTINUOUS
 10
148.3583451539
 20
141.7087453786
  0
VERTEX
  8
0
 62
7
  6
CONTINUOUS
 10
148.2589838105
 20
142.1233374923
  0
SEQEND
  0
POLYLINE
  8
0
 62
7
  6
CONTINUOUS
 66
1
 70
0
  0
VERTEX
  8
0
 62
7
  6
CONTINUOUS
 10
148.3919724771
 20
153.9845499851
  0
VERTEX
  8
0
 62
7
  6
CONTINUOUS
 10
148.3583451539
 20
154.4087453786
  0
VERTEX
  8
0
 62
7
  6
CONTINUOUS
 10
148.2589838105
 20
154.8233374923
  0
SEQEND
  0
POLYLINE
  8
0
 62
7
  6
CONTINUOUS
 66
1
 70
0
  0
VERTEX
  8
0
 62
7
  6
CONTINUOUS
 10
148.3919724771
 20
166.6845499851
  0
VERTEX
  8
0
 62
7
  6
CONTINUOUS
 10
148.3583451539
 20
167.1087453786
  0
VERTEX
  8
0
 62
7
  6
CONTINUOUS
 10
148.2589838105
 20
167.5233374923
  0
SEQEND
  0
POLYLINE
  8
0
 62
7
  6
CONTINUOUS
 66
1
 70
0
  0
VERTEX
  8
0
 62
7
  6
CONTINUOUS
 10
148.3919724771
 20
179.3845499851
  0
VERTEX
  8
0
 62
7
  6
CONTINUOUS
 10
148.3583451539
 20
179.8087453786
  0
VERTEX
  8
0
 62
7
  6
CONTINUOUS
 10
148.2589838105
 20
180.2233374923
  0
SEQEND
  0
POLYLINE
  8
0
 62
7
  6
CONTINUOUS
 66
1
 70
0
  0
VERTEX
  8
0
 62
7
  6
CONTINUOUS
 10
148.3919724771
 20
192.0845499851
  0
VERTEX
  8
0
 62
7
  6
CONTINUOUS
 10
148.3583451539
 20
192.5087453786
  0
VERTEX
  8
0
 62
7
  6
CONTINUOUS
 10
148.2589838105
 20
192.9233374923
  0
SEQEND
  0
POLYLINE
  8
0
 62
7
  6
CONTINUOUS
 66
1
 70
0
  0
VERTEX
  8
0
 62
7
  6
CONTINUOUS
 10
148.1935101727
 20
111.792858407
  0
VERTEX
  8
0
 62
7
  6
CONTINUOUS
 10
148.2007756286
 20
111.6416229364
  0
VERTEX
  8
0
 62
7
  6
CONTINUOUS
 10
148.233103447
 20
111.4667284612
  0
VERTEX
  8
0
 62
7
  6
CONTINUOUS
 10
148.2845524134
 20
111.2799429685
  0
VERTEX
  8
0
 62
7
  6
CONTINUOUS
 10
148.3385814299
 20
111.0900202976
  0
VERTEX
  8
0
 62
7
  6
CONTINUOUS
 10
148.3780985988
 20
110.9046824701
  0
VERTEX
  8
0
 62
7
  6
CONTINUOUS
 10
148.3919724771
 20
110.7351090863
  0
SEQEND
  0
POLYLINE
  8
0
 62
7
  6
CONTINUOUS
 66
1
 70
0
  0
VERTEX
  8
0
 62
7
  6
CONTINUOUS
 10
148.1935101727
 20
124.492858407
  0
VERTEX
  8
0
 62
7
  6
CONTINUOUS
 10
148.2007756286
 20
124.3416229364
  0
VERTEX
  8
0
 62
7
  6
CONTINUOUS
 10
148.233103447
 20
124.1667284612
  0
VERTEX
  8
0
 62
7
  6
CONTINUOUS
 10
148.2845524134
 20
123.9799429685
  0
VERTEX
  8
0
 62
7
  6
CONTINUOUS
 10
148.3385814299
 20
123.7900202976
  0
VERTEX
  8
0
 62
7
  6
CONTINUOUS
 10
148.3780985988
 20
123.6046824701
  0
VERTEX
  8
0
 62
7
  6
CONTINUOUS
 10
148.3919724771
 20
123.4351090863
  0
SEQEND
  0
POLYLINE
  8
0
 62
7
  6
CONTINUOUS
 66
1
 70
0
  0
VERTEX
  8
0
 62
7
  6
CONTINUOUS
 10
148.1935101727
 20
137.192858407
  0
VERTEX
  8
0
 62
7
  6
CONTINUOUS
 10
148.2007756286
 20
137.0416229364
  0
VERTEX
  8
0
 62
7
  6
CONTINUOUS
 10
148.233103447
 20
136.8667284612
  0
VERTEX
  8
0
 62
7
  6
CONTINUOUS
 10
148.2845524134
 20
136.6799429685
  0
VERTEX
  8
0
 62
7
  6
CONTINUOUS
 10
148.3385814299
 20
136.4900202976
  0
VERTEX
  8
0
 62
7
  6
CONTINUOUS
 10
148.3780985988
 20
136.3046824701
  0
VERTEX
  8
0
 62
7
  6
CONTINUOUS
 10
148.3919724771
 20
136.1351090863
  0
SEQEND
  0
POLYLINE
  8
0
 62
7
  6
CONTINUOUS
 66
1
 70
0
  0
VERTEX
  8
0
 62
7
  6
CONTINUOUS
 10
148.1935101727
 20
149.892858407
  0
VERTEX
  8
0
 62
7
  6
CONTINUOUS
 10
148.2007756286
 20
149.7416229364
  0
VERTEX
  8
0
 62
7
  6
CONTINUOUS
 10
148.233103447
 20
149.5667284612
  0
VERTEX
  8
0
 62
7
  6
CONTINUOUS
 10
148.2845524134
 20
149.3799429685
  0
VERTEX
  8
0
 62
7
  6
CONTINUOUS
 10
148.3385814299
 20
149.1900202976
  0
VERTEX
  8
0
 62
7
  6
CONTINUOUS
 10
148.3780985988
 20
149.0046824701
  0
VERTEX
  8
0
 62
7
  6
CONTINUOUS
 10
148.3919724771
 20
148.8351090863
  0
SEQEND
  0
POLYLINE
  8
0
 62
7
  6
CONTINUOUS
 66
1
 70
0
  0
VERTEX
  8
0
 62
7
  6
CONTINUOUS
 10
148.1935101727
 20
162.592858407
  0
VERTEX
  8
0
 62
7
  6
CONTINUOUS
 10
148.2007756286
 20
162.4416229364
  0
VERTEX
  8
0
 62
7
  6
CONTINUOUS
 10
148.233103447
 20
162.2667284612
  0
VERTEX
  8
0
 62
7
  6
CONTINUOUS
 10
148.2845524134
 20
162.0799429685
  0
VERTEX
  8
0
 62
7
  6
CONTINUOUS
 10
148.3385814299
 20
161.8900202976
  0
VERTEX
  8
0
 62
7
  6
CONTINUOUS
 10
148.3780985988
 20
161.7046824701
  0
VERTEX
  8
0
 62
7
  6
CONTINUOUS
 10
148.3919724771
 20
161.5351090863
  0
SEQEND
  0
POLYLINE
  8
0
 62
7
  6
CONTINUOUS
 66
1
 70
0
  0
VERTEX
  8
0
 62
7
  6
CONTINUOUS
 10
148.1935101727
 20
175.292858407
  0
VERTEX
  8
0
 62
7
  6
CONTINUOUS
 10
148.2007756286
 20
175.1416229364
  0
VERTEX
  8
0
 62
7
  6
CONTINUOUS
 10
148.233103447
 20
174.9667284612
  0
VERTEX
  8
0
 62
7
  6
CONTINUOUS
 10
148.2845524134
 20
174.7799429685
  0
VERTEX
  8
0
 62
7
  6
CONTINUOUS
 10
148.3385814299
 20
174.5900202976
  0
VERTEX
  8
0
 62
7
  6
CONTINUOUS
 10
148.3780985988
 20
174.4046824701
  0
VERTEX
  8
0
 62
7
  6
CONTINUOUS
 10
148.3919724771
 20
174.2351090863
  0
SEQEND
  0
POLYLINE
  8
0
 62
7
  6
CONTINUOUS
 66
1
 70
0
  0
VERTEX
  8
0
 62
7
  6
CONTINUOUS
 10
148.1935101727
 20
187.992858407
  0
VERTEX
  8
0
 62
7
  6
CONTINUOUS
 10
148.2007756286
 20
187.8416229364
  0
VERTEX
  8
0
 62
7
  6
CONTINUOUS
 10
148.233103447
 20
187.6667284612
  0
VERTEX
  8
0
 62
7
  6
CONTINUOUS
 10
148.2845524134
 20
187.4799429685
  0
VERTEX
  8
0
 62
7
  6
CONTINUOUS
 10
148.3385814299
 20
187.2900202976
  0
VERTEX
  8
0
 62
7
  6
CONTINUOUS
 10
148.3780985988
 20
187.1046824701
  0
VERTEX
  8
0
 62
7
  6
CONTINUOUS
 10
148.3919724771
 20
186.9351090863
  0
SEQEND
  0
POLYLINE
  8
0
 62
7
  6
CONTINUOUS
 66
1
 70
0
  0
VERTEX
  8
0
 62
7
  6
CONTINUOUS
 10
148.1935101727
 20
200.692858407
  0
VERTEX
  8
0
 62
7
  6
CONTINUOUS
 10
148.2007756286
 20
200.5416229364
  0
VERTEX
  8
0
 62
7
  6
CONTINUOUS
 10
148.233103447
 20
200.3667284612
  0
VERTEX
  8
0
 62
7
  6
CONTINUOUS
 10
148.2845524134
 20
200.1799429685
  0
VERTEX
  8
0
 62
7
  6
CONTINUOUS
 10
148.3385814299
 20
199.9900202976
  0
VERTEX
  8
0
 62
7
  6
CONTINUOUS
 10
148.3780985988
 20
199.8046824701
  0
VERTEX
  8
0
 62
7
  6
CONTINUOUS
 10
148.3919724771
 20
199.6351090863
  0
SEQEND
  0
LINE
  8
0
 62
7
  6
CONTINUOUS
 10
148.2191672826
 20
91.5391025492
 11
148.1935101727
 21
92.6741140701
  0
LINE
  8
0
 62
7
  6
CONTINUOUS
 10
148.2191672826
 20
104.2391025492
 11
148.1935101727
 21
105.3741140701
  0
LINE
  8
0
 62
7
  6
CONTINUOUS
 10
148.2191672826
 20
116.9391025492
 11
148.1935101727
 21
118.0741140701
  0
LINE
  8
0
 62
7
  6
CONTINUOUS
 10
148.2191672826
 20
129.6391025492
 11
148.1935101727
 21
130.7741140701
  0
LINE
  8
0
 62
7
  6
CONTINUOUS
 10
148.2191672826
 20
142.3391025492
 11
148.1935101727
 21
143.4741140701
  0
LINE
  8
0
 62
7
  6
CONTINUOUS
 10
148.2191672826
 20
155.0391025492
 11
148.1935101727
 21
156.1741140701
  0
LINE
  8
0
 62
7
  6
CONTINUOUS
 10
148.2191672826
 20
167.7391025492
 11
148.1935101727
 21
168.8741140701
  0
LINE
  8
0
 62
7
  6
CONTINUOUS
 10
148.2191672826
 20
180.4391025492
 11
148.1935101727
 21
181.5741140701
  0
LINE
  8
0
 62
7
  6
CONTINUOUS
 10
148.2191672826
 20
193.1391025492
 11
148.1935101727
 21
194.2741140701
  0
LINE
  8
2_FEATURE
 62
7
  6
CONTINUOUS
 10
148.3919724771
 20
212.3334862385
 11
148.3919724771
 21
208.0334862385
  0
LINE
  8
0
 62
7
  6
CONTINUOUS
 10
148.3919724771
 20
236.4334862385
 11
148.3919724771
 21
202.882422492
  0
LINE
  8
0
 62
7
  6
CONTINUOUS
 10
148.3919724771
 20
199.6334862385
 11
148.3919724771
 21
195.3334862385
  0
LINE
  8
2_FEATURE
 62
7
  6
CONTINUOUS
 10
148.3919724771
 20
199.6334862385
 11
148.3919724771
 21
195.3334862385
  0
LINE
  8
0
 62
7
  6
CONTINUOUS
 10
148.3919724771
 20
192.0845499851
 11
148.3919724771
 21
190.182422492
  0
LINE
  8
0
 62
7
  6
CONTINUOUS
 10
148.3919724771
 20
186.9334862385
 11
148.3919724771
 21
182.6334862385
  0
LINE
  8
2_FEATURE
 62
7
  6
CONTINUOUS
 10
148.3919724771
 20
186.9334862385
 11
148.3919724771
 21
182.6334862385
  0
LINE
  8
0
 62
7
  6
CONTINUOUS
 10
148.3919724771
 20
179.3845499851
 11
148.3919724771
 21
177.482422492
  0
LINE
  8
0
 62
7
  6
CONTINUOUS
 10
148.3919724771
 20
174.2334862385
 11
148.3919724771
 21
169.9334862385
  0
LINE
  8
2_FEATURE
 62
7
  6
CONTINUOUS
 10
148.3919724771
 20
174.2334862385
 11
148.3919724771
 21
169.9334862385
  0
LINE
  8
0
 62
7
  6
CONTINUOUS
 10
148.3919724771
 20
166.6845499851
 11
148.3919724771
 21
164.782422492
  0
LINE
  8
0
 62
7
  6
CONTINUOUS
 10
148.3919724771
 20
161.5334862385
 11
148.3919724771
 21
157.2334862385
  0
LINE
  8
2_FEATURE
 62
7
  6
CONTINUOUS
 10
148.3919724771
 20
161.5334862385
 11
148.3919724771
 21
157.2334862385
  0
LINE
  8
0
 62
7
  6
CONTINUOUS
 10
148.3919724771
 20
153.9845499851
 11
148.3919724771
 21
152.082422492
  0
LINE
  8
0
 62
7
  6
CONTINUOUS
 10
148.3919724771
 20
148.8334862385
 11
148.3919724771
 21
144.5334862385
  0
LINE
  8
2_FEATURE
 62
7
  6
CONTINUOUS
 10
148.3919724771
 20
148.8334862385
 11
148.3919724771
 21
144.5334862385
  0
LINE
  8
0
 62
7
  6
CONTINUOUS
 10
148.3919724771
 20
141.2845499851
 11
148.3919724771
 21
139.382422492
  0
LINE
  8
0
 62
7
  6
CONTINUOUS
 10
148.3919724771
 20
136.1334862385
 11
148.3919724771
 21
131.8334862385
  0
LINE
  8
2_FEATURE
 62
7
  6
CONTINUOUS
 10
148.3919724771
 20
136.1334862385
 11
148.3919724771
 21
131.8334862385
  0
LINE
  8
0
 62
7
  6
CONTINUOUS
 10
148.3919724771
 20
128.5845499851
 11
148.3919724771
 21
126.682422492
  0
LINE
  8
0
 62
7
  6
CONTINUOUS
 10
148.3919724771
 20
123.4334862385
 11
148.3919724771
 21
119.1334862385
  0
LINE
  8
2_FEATURE
 62
7
  6
CONTINUOUS
 10
148.3919724771
 20
123.4334862385
 11
148.3919724771
 21
119.1334862385
  0
LINE
  8
0
 62
7
  6
CONTINUOUS
 10
148.3919724771
 20
115.8845499851
 11
148.3919724771
 21
113.982422492
  0
LINE
  8
0
 62
7
  6
CONTINUOUS
 10
148.3919724771
 20
110.7334862385
 11
148.3919724771
 21
106.4334862385
  0
LINE
  8
0
 62
7
  6
CONTINUOUS
 10
148.3919724771
 20
103.1845499851
 11
148.3919724771
 21
101.282422492
  0
LINE
  8
0
 62
7
  6
CONTINUOUS
 10
148.3919724771
 20
98.0334862385
 11
148.3919724771
 21
93.7334862385
  0
LINE
  8
0
 62
7
  6
CONTINUOUS
 10
148.3919724771
 20
90.4845499851
 11
148.3919724771
 21
56.9334862385
  0
LINE
  8
0
 62
7
  6
CONTINUOUS
 10
149.6919724771
 20
202.3574359795
 11
149.6919724771
 21
199.2334862385
  0
LINE
  8
0
 62
7
  6
CONTINUOUS
 10
149.6919724771
 20
195.7334862385
 11
149.6919724771
 21
192.6095364976
  0
LINE
  8
0
 62
7
  6
CONTINUOUS
 10
149.6919724771
 20
189.4800667629
 11
149.6919724771
 21
186.5334862385
  0
LINE
  8
0
 62
7
  6
CONTINUOUS
 10
149.6919724771
 20
183.0334862385
 11
149.6919724771
 21
179.9095364976
  0
LINE
  8
0
 62
7
  6
CONTINUOUS
 10
149.6919724771
 20
176.9574359795
 11
149.6919724771
 21
173.8334862385
  0
LINE
  8
0
 62
7
  6
CONTINUOUS
 10
149.6919724771
 20
170.3334862385
 11
149.6919724771
 21
167.2095364976
  0
LINE
  8
0
 62
7
  6
CONTINUOUS
 10
149.6919724771
 20
164.2574359795
 11
149.6919724771
 21
161.1334862385
  0
LINE
  8
0
 62
7
  6
CONTINUOUS
 10
149.6919724771
 20
157.6334862385
 11
149.6919724771
 21
154.5095364976
  0
LINE
  8
0
 62
7
  6
CONTINUOUS
 10
149.6919724771
 20
151.5574359795
 11
149.6919724771
 21
148.4334862385
  0
LINE
  8
0
 62
7
  6
CONTINUOUS
 10
149.6919724771
 20
144.9334862385
 11
149.6919724771
 21
141.8095364976
  0
LINE
  8
0
 62
7
  6
CONTINUOUS
 10
149.6919724771
 20
138.8574359795
 11
149.6919724771
 21
135.7334862385
  0
LINE
  8
0
 62
7
  6
CONTINUOUS
 10
149.6919724771
 20
132.2334862385
 11
149.6919724771
 21
129.1095364976
  0
LINE
  8
0
 62
7
  6
CONTINUOUS
 10
149.6919724771
 20
126.1574359795
 11
149.6919724771
 21
123.0334862385
  0
LINE
  8
0
 62
7
  6
CONTINUOUS
 10
149.6919724771
 20
119.5334862385
 11
149.6919724771
 21
116.4095364976
  0
LINE
  8
0
 62
7
  6
CONTINUOUS
 10
149.6919724771
 20
113.4574359795
 11
149.6919724771
 21
110.3334862385
  0
LINE
  8
0
 62
7
  6
CONTINUOUS
 10
149.6919724771
 20
106.8334862385
 11
149.6919724771
 21
103.7095364976
  0
LINE
  8
0
 62
7
  6
CONTINUOUS
 10
149.6919724771
 20
100.7574359795
 11
149.6919724771
 21
97.6334862385
  0
LINE
  8
0
 62
7
  6
CONTINUOUS
 10
149.6919724771
 20
94.1334862385
 11
149.6919724771
 21
91.0095364976
  0
LINE
  8
0
 62
7
  6
CONTINUOUS
 10
151.7419724771
 20
204.7334862385
 11
151.7419724771
 21
202.9334862385
  0
LINE
  8
0
 62
7
  6
CONTINUOUS
 10
151.7419724771
 20
198.3834862385
 11
151.7419724771
 21
196.5834862385
  0
LINE
  8
0
 62
7
  6
CONTINUOUS
 10
151.7419724771
 20
192.0334862385
 11
151.7419724771
 21
189.3834862385
  0
LINE
  8
0
 62
7
  6
CONTINUOUS
 10
151.7419724771
 20
185.6834862385
 11
151.7419724771
 21
183.8834862385
  0
LINE
  8
0
 62
7
  6
CONTINUOUS
 10
151.7419724771
 20
179.3334862385
 11
151.7419724771
 21
177.5334862385
  0
LINE
  8
0
 62
7
  6
CONTINUOUS
 10
151.7419724771
 20
172.9834862385
 11
151.7419724771
 21
171.1834862385
  0
LINE
  8
0
 62
7
  6
CONTINUOUS
 10
151.7419724771
 20
166.6334862385
 11
151.7419724771
 21
164.8334862385
  0
LINE
  8
0
 62
7
  6
CONTINUOUS
 10
151.7419724771
 20
160.2834862385
 11
151.7419724771
 21
158.4834862385
  0
LINE
  8
0
 62
7
  6
CONTINUOUS
 10
151.7419724771
 20
153.9334862385
 11
151.7419724771
 21
152.1334862385
  0
LINE
  8
0
 62
7
  6
CONTINUOUS
 10
151.7419724771
 20
147.5834862385
 11
151.7419724771
 21
145.7834862385
  0
LINE
  8
0
 62
7
  6
CONTINUOUS
 10
151.7419724771
 20
141.2334862385
 11
151.7419724771
 21
139.4334862385
  0
LINE
  8
0
 62
7
  6
CONTINUOUS
 10
151.7419724771
 20
134.8834862385
 11
151.7419724771
 21
133.0834862385
  0
LINE
  8
0
 62
7
  6
CONTINUOUS
 10
151.7419724771
 20
128.5334862385
 11
151.7419724771
 21
126.7334862385
  0
LINE
  8
0
 62
7
  6
CONTINUOUS
 10
151.7419724771
 20
122.1834862385
 11
151.7419724771
 21
120.3834862385
  0
LINE
  8
0
 62
7
  6
CONTINUOUS
 10
151.7419724771
 20
115.8334862385
 11
151.7419724771
 21
114.0334862385
  0
LINE
  8
0
 62
7
  6
CONTINUOUS
 10
151.7419724771
 20
109.4834862385
 11
151.7419724771
 21
107.6834862385
  0
LINE
  8
0
 62
7
  6
CONTINUOUS
 10
151.7419724771
 20
103.1334862385
 11
151.7419724771
 21
101.3334862385
  0
LINE
  8
0
 62
7
  6
CONTINUOUS
 10
151.7419724771
 20
96.7834862385
 11
151.7419724771
 21
94.9834862385
  0
LINE
  8
0
 62
7
  6
CONTINUOUS
 10
151.7419724771
 20
90.4334862385
 11
151.7419724771
 21
88.6334862385
  0
LINE
  8
0
 62
7
  6
CONTINUOUS
 10
148.2191672807
 20
201.8278698421
 11
148.1935101727
 21
200.692858407
  0
LINE
  8
0
 62
7
  6
CONTINUOUS
 10
148.2191672807
 20
189.1278698421
 11
148.1935101727
 21
187.992858407
  0
LINE
  8
0
 62
7
  6
CONTINUOUS
 10
148.2191672807
 20
176.4278698421
 11
148.1935101727
 21
175.292858407
  0
LINE
  8
0
 62
7
  6
CONTINUOUS
 10
148.2191672807
 20
163.7278698421
 11
148.1935101727
 21
162.592858407
  0
LINE
  8
0
 62
7
  6
CONTINUOUS
 10
148.2191672807
 20
151.0278698421
 11
148.1935101727
 21
149.892858407
  0
LINE
  8
0
 62
7
  6
CONTINUOUS
 10
148.2191672807
 20
138.3278698421
 11
148.1935101727
 21
137.192858407
  0
LINE
  8
0
 62
7
  6
CONTINUOUS
 10
148.2191672807
 20
125.6278698421
 11
148.1935101727
 21
124.492858407
  0
LINE
  8
0
 62
7
  6
CONTINUOUS
 10
148.2191672807
 20
112.9278698421
 11
148.1935101727
 21
111.792858407
  0
LINE
  8
0
 62
7
  6
CONTINUOUS
 10
148.2191672807
 20
100.2278698421
 11
148.1935101727
 21
99.092858407
  0
POLYLINE
  8
0
 62
7
  6
CONTINUOUS
 66
1
 70
0
  0
VERTEX
  8
0
 62
7
  6
CONTINUOUS
 10
148.3919724771
 20
164.782422492
  0
VERTEX
  8
0
 62
7
  6
CONTINUOUS
 10
148.3583451549
 20
164.3582271046
  0
VERTEX
  8
0
 62
7
  6
CONTINUOUS
 10
148.2589838145
 20
163.9436349973
  0
SEQEND
  0
POLYLINE
  8
0
 62
7
  6
CONTINUOUS
 66
1
 70
0
  0
VERTEX
  8
0
 62
7
  6
CONTINUOUS
 10
148.3919724771
 20
152.082422492
  0
VERTEX
  8
0
 62
7
  6
CONTINUOUS
 10
148.3583451549
 20
151.6582271046
  0
VERTEX
  8
0
 62
7
  6
CONTINUOUS
 10
148.2589838145
 20
151.2436349973
  0
SEQEND
  0
POLYLINE
  8
0
 62
7
  6
CONTINUOUS
 66
1
 70
0
  0
VERTEX
  8
0
 62
7
  6
CONTINUOUS
 10
148.3919724771
 20
139.382422492
  0
VERTEX
  8
0
 62
7
  6
CONTINUOUS
 10
148.3583451549
 20
138.9582271046
  0
VERTEX
  8
0
 62
7
  6
CONTINUOUS
 10
148.2589838145
 20
138.5436349973
  0
SEQEND
  0
POLYLINE
  8
0
 62
7
  6
CONTINUOUS
 66
1
 70
0
  0
VERTEX
  8
0
 62
7
  6
CONTINUOUS
 10
148.3919724771
 20
126.682422492
  0
VERTEX
  8
0
 62
7
  6
CONTINUOUS
 10
148.3583451549
 20
126.2582271046
  0
VERTEX
  8
0
 62
7
  6
CONTINUOUS
 10
148.2589838145
 20
125.8436349973
  0
SEQEND
  0
POLYLINE
  8
0
 62
7
  6
CONTINUOUS
 66
1
 70
0
  0
VERTEX
  8
0
 62
7
  6
CONTINUOUS
 10
148.3919724771
 20
113.982422492
  0
VERTEX
  8
0
 62
7
  6
CONTINUOUS
 10
148.3583451549
 20
113.5582271046
  0
VERTEX
  8
0
 62
7
  6
CONTINUOUS
 10
148.2589838145
 20
113.1436349973
  0
SEQEND
  0
POLYLINE
  8
0
 62
7
  6
CONTINUOUS
 66
1
 70
0
  0
VERTEX
  8
0
 62
7
  6
CONTINUOUS
 10
148.3919724771
 20
101.282422492
  0
VERTEX
  8
0
 62
7
  6
CONTINUOUS
 10
148.3583451549
 20
100.8582271046
  0
VERTEX
  8
0
 62
7
  6
CONTINUOUS
 10
148.2589838145
 20
100.4436349973
  0
SEQEND
  0
POLYLINE
  8
0
 62
7
  6
CONTINUOUS
 66
1
 70
0
  0
VERTEX
  8
0
 62
7
  6
CONTINUOUS
 10
148.3919724771
 20
169.9318633908
  0
VERTEX
  8
0
 62
7
  6
CONTINUOUS
 10
148.3780561088
 20
169.7620151694
  0
VERTEX
  8
0
 62
7
  6
CONTINUOUS
 10
148.3384619257
 20
169.5764940496
  0
VERTEX
  8
0
 62
7
  6
CONTINUOUS
 10
148.2843930069
 20
169.3864880762
  0
VERTEX
  8
0
 62
7
  6
CONTINUOUS
 10
148.2329781658
 20
169.1997253899
  0
VERTEX
  8
0
 62
7
  6
CONTINUOUS
 10
148.2007336123
 20
169.0249918428
  0
VERTEX
  8
0
 62
7
  6
CONTINUOUS
 10
148.1935101727
 20
168.8741140701
  0
SEQEND
  0
POLYLINE
  8
0
 62
7
  6
CONTINUOUS
 66
1
 70
0
  0
VERTEX
  8
0
 62
7
  6
CONTINUOUS
 10
148.3919724771
 20
157.2318633908
  0
VERTEX
  8
0
 62
7
  6
CONTINUOUS
 10
148.3780561088
 20
157.0620151694
  0
VERTEX
  8
0
 62
7
  6
CONTINUOUS
 10
148.3384619257
 20
156.8764940496
  0
VERTEX
  8
0
 62
7
  6
CONTINUOUS
 10
148.2843930069
 20
156.6864880762
  0
VERTEX
  8
0
 62
7
  6
CONTINUOUS
 10
148.2329781658
 20
156.4997253899
  0
VERTEX
  8
0
 62
7
  6
CONTINUOUS
 10
148.2007336123
 20
156.3249918428
  0
VERTEX
  8
0
 62
7
  6
CONTINUOUS
 10
148.1935101727
 20
156.1741140701
  0
SEQEND
  0
POLYLINE
  8
0
 62
7
  6
CONTINUOUS
 66
1
 70
0
  0
VERTEX
  8
0
 62
7
  6
CONTINUOUS
 10
148.3919724771
 20
144.5318633908
  0
VERTEX
  8
0
 62
7
  6
CONTINUOUS
 10
148.3780561088
 20
144.3620151694
  0
VERTEX
  8
0
 62
7
  6
CONTINUOUS
 10
148.3384619257
 20
144.1764940496
  0
VERTEX
  8
0
 62
7
  6
CONTINUOUS
 10
148.2843930069
 20
143.9864880762
  0
VERTEX
  8
0
 62
7
  6
CONTINUOUS
 10
148.2329781658
 20
143.7997253899
  0
VERTEX
  8
0
 62
7
  6
CONTINUOUS
 10
148.2007336123
 20
143.6249918428
  0
VERTEX
  8
0
 62
7
  6
CONTINUOUS
 10
148.1935101727
 20
143.4741140701
  0
SEQEND
  0
POLYLINE
  8
0
 62
7
  6
CONTINUOUS
 66
1
 70
0
  0
VERTEX
  8
0
 62
7
  6
CONTINUOUS
 10
148.3919724771
 20
131.8318633908
  0
VERTEX
  8
0
 62
7
  6
CONTINUOUS
 10
148.3780561088
 20
131.6620151694
  0
VERTEX
  8
0
 62
7
  6
CONTINUOUS
 10
148.3384619257
 20
131.4764940496
  0
VERTEX
  8
0
 62
7
  6
CONTINUOUS
 10
148.2843930069
 20
131.2864880762
  0
VERTEX
  8
0
 62
7
  6
CONTINUOUS
 10
148.2329781658
 20
131.0997253899
  0
VERTEX
  8
0
 62
7
  6
CONTINUOUS
 10
148.2007336123
 20
130.9249918428
  0
VERTEX
  8
0
 62
7
  6
CONTINUOUS
 10
148.1935101727
 20
130.7741140701
  0
SEQEND
  0
POLYLINE
  8
0
 62
7
  6
CONTINUOUS
 66
1
 70
0
  0
VERTEX
  8
0
 62
7
  6
CONTINUOUS
 10
148.3919724771
 20
119.1318633908
  0
VERTEX
  8
0
 62
7
  6
CONTINUOUS
 10
148.3780561088
 20
118.9620151694
  0
VERTEX
  8
0
 62
7
  6
CONTINUOUS
 10
148.3384619257
 20
118.7764940496
  0
VERTEX
  8
0
 62
7
  6
CONTINUOUS
 10
148.2843930069
 20
118.5864880762
  0
VERTEX
  8
0
 62
7
  6
CONTINUOUS
 10
148.2329781658
 20
118.3997253899
  0
VERTEX
  8
0
 62
7
  6
CONTINUOUS
 10
148.2007336123
 20
118.2249918428
  0
VERTEX
  8
0
 62
7
  6
CONTINUOUS
 10
148.1935101727
 20
118.0741140701
  0
SEQEND
  0
POLYLINE
  8
0
 62
7
  6
CONTINUOUS
 66
1
 70
0
  0
VERTEX
  8
0
 62
7
  6
CONTINUOUS
 10
148.3919724771
 20
106.4318633908
  0
VERTEX
  8
0
 62
7
  6
CONTINUOUS
 10
148.3780561088
 20
106.2620151694
  0
VERTEX
  8
0
 62
7
  6
CONTINUOUS
 10
148.3384619257
 20
106.0764940496
  0
VERTEX
  8
0
 62
7
  6
CONTINUOUS
 10
148.2843930069
 20
105.8864880762
  0
VERTEX
  8
0
 62
7
  6
CONTINUOUS
 10
148.2329781658
 20
105.6997253899
  0
VERTEX
  8
0
 62
7
  6
CONTINUOUS
 10
148.2007336123
 20
105.5249918428
  0
VERTEX
  8
0
 62
7
  6
CONTINUOUS
 10
148.1935101727
 20
105.3741140701
  0
SEQEND
  0
POLYLINE
  8
0
 62
7
  6
CONTINUOUS
 66
1
 70
0
  0
VERTEX
  8
0
 62
7
  6
CONTINUOUS
 10
148.2589838145
 20
151.2436349973
  0
VERTEX
  8
0
 62
7
  6
CONTINUOUS
 10
148.2386317343
 20
151.1705601146
  0
VERTEX
  8
0
 62
7
  6
CONTINUOUS
 10
148.2249253233
 20
151.0974844499
  0
VERTEX
  8
0
 62
7
  6
CONTINUOUS
 10
148.2191672807
 20
151.0278698421
  0
SEQEND
  0
POLYLINE
  8
0
 62
7
  6
CONTINUOUS
 66
1
 70
0
  0
VERTEX
  8
0
 62
7
  6
CONTINUOUS
 10
148.2589838145
 20
138.5436349973
  0
VERTEX
  8
0
 62
7
  6
CONTINUOUS
 10
148.2386317343
 20
138.4705601146
  0
VERTEX
  8
0
 62
7
  6
CONTINUOUS
 10
148.2249253233
 20
138.3974844499
  0
VERTEX
  8
0
 62
7
  6
CONTINUOUS
 10
148.2191672807
 20
138.3278698421
  0
SEQEND
  0
POLYLINE
  8
0
 62
7
  6
CONTINUOUS
 66
1
 70
0
  0
VERTEX
  8
0
 62
7
  6
CONTINUOUS
 10
149.3919724771
 20
141.2404944567
  0
VERTEX
  8
0
 62
7
  6
CONTINUOUS
 10
149.5036287419
 20
141.361523862
  0
VERTEX
  8
0
 62
7
  6
CONTINUOUS
 10
149.5890872418
 20
141.4845852603
  0
VERTEX
  8
0
 62
7
  6
CONTINUOUS
 10
149.6475007863
 20
141.6020822267
  0
VERTEX
  8
0
 62
7
  6
CONTINUOUS
 10
149.6810136601
 20
141.7105080561
  0
VERTEX
  8
0
 62
7
  6
CONTINUOUS
 10
149.6919724771
 20
141.8095364976
  0
SEQEND
  0
LINE
  8
0
 62
7
  6
CONTINUOUS
 10
149.3844890283
 20
141.2334862385
 11
149.3919724771
 21
141.2404944567
  0
POLYLINE
  8
0
 62
7
  6
CONTINUOUS
 66
1
 70
0
  0
VERTEX
  8
0
 62
7
  6
CONTINUOUS
 10
149.3844890283
 20
141.2334862385
  0
VERTEX
  8
0
 62
7
  6
CONTINUOUS
 10
149.2783939991
 20
141.1512875657
  0
VERTEX
  8
0
 62
7
  6
CONTINUOUS
 10
149.1679328819
 20
141.0943874766
  0
VERTEX
  8
0
 62
7
  6
CONTINUOUS
 10
149.0553564679
 20
141.0611034342
  0
VERTEX
  8
0
 62
7
  6
CONTINUOUS
 10
148.9419724771
 20
141.0501642971
  0
SEQEND
  0
LINE
  8
0
 62
7
  6
CONTINUOUS
 10
150.8919724771
 20
148.4334862385
 11
148.3919724771
 21
148.4334862385
  0
LINE
  8
0
 62
7
  6
CONTINUOUS
 10
147.5419724771
 20
149.6834862385
 11
140.4419724771
 21
149.6834862385
  0
LINE
  8
0
 62
7
  6
CONTINUOUS
 10
143.5919724771
 20
150.3834862385
 11
144.3919724771
 21
150.3834862385
  0
LINE
  8
0
 62
7
  6
CONTINUOUS
 10
150.8919724771
 20
151.2834862385
 11
149.6919724771
 21
151.2834862385
  0
LINE
  8
0
 62
7
  6
CONTINUOUS
 10
148.3919724771
 20
152.3168081799
 11
148.9419724771
 21
152.3168081799
  0
LINE
  8
0
 62
7
  6
CONTINUOUS
 10
148.3919724771
 20
153.7501642971
 11
148.9419724771
 21
153.7501642971
  0
POLYLINE
  8
0
 62
7
  6
CONTINUOUS
 66
1
 70
0
  0
VERTEX
  8
0
 62
7
  6
CONTINUOUS
 10
148.9419724771
 20
152.3168081799
  0
VERTEX
  8
0
 62
7
  6
CONTINUOUS
 10
149.0553564679
 20
152.3058690428
  0
VERTEX
  8
0
 62
7
  6
CONTINUOUS
 10
149.1679328819
 20
152.2725850005
  0
VERTEX
  8
0
 62
7
  6
CONTINUOUS
 10
149.2783939991
 20
152.2156849114
  0
VERTEX
  8
0
 62
7
  6
CONTINUOUS
 10
149.3844890283
 20
152.1334862385
  0
SEQEND
  0
LINE
  8
0
 62
7
  6
CONTINUOUS
 10
149.3919724771
 20
152.1264780204
 11
149.3844890283
 21
152.1334862385
  0
POLYLINE
  8
0
 62
7
  6
CONTINUOUS
 66
1
 70
0
  0
VERTEX
  8
0
 62
7
  6
CONTINUOUS
 10
149.6919724771
 20
126.1574359795
  0
VERTEX
  8
0
 62
7
  6
CONTINUOUS
 10
149.6808352293
 20
126.2573030314
  0
VERTEX
  8
0
 62
7
  6
CONTINUOUS
 10
149.6470021984
 20
126.3661279359
  0
VERTEX
  8
0
 62
7
  6
CONTINUOUS
 10
149.5885874353
 20
126.4832306641
  0
VERTEX
  8
0
 62
7
  6
CONTINUOUS
 10
149.5032871884
 20
126.6058746528
  0
VERTEX
  8
0
 62
7
  6
CONTINUOUS
 10
149.3919724771
 20
126.7264780204
  0
SEQEND
  0
POLYLINE
  8
0
 62
7
  6
CONTINUOUS
 66
1
 70
0
  0
VERTEX
  8
0
 62
7
  6
CONTINUOUS
 10
149.6919724771
 20
138.8574359795
  0
VERTEX
  8
0
 62
7
  6
CONTINUOUS
 10
149.6808352293
 20
138.9573030314
  0
VERTEX
  8
0
 62
7
  6
CONTINUOUS
 10
149.6470021984
 20
139.0661279359
  0
VERTEX
  8
0
 62
7
  6
CONTINUOUS
 10
149.5885874353
 20
139.1832306641
  0
VERTEX
  8
0
 62
7
  6
CONTINUOUS
 10
149.5032871884
 20
139.3058746528
  0
VERTEX
  8
0
 62
7
  6
CONTINUOUS
 10
149.3919724771
 20
139.4264780204
  0
SEQEND
  0
POLYLINE
  8
0
 62
7
  6
CONTINUOUS
 66
1
 70
0
  0
VERTEX
  8
0
 62
7
  6
CONTINUOUS
 10
149.6919724771
 20
151.5574359795
  0
VERTEX
  8
0
 62
7
  6
CONTINUOUS
 10
149.6808352293
 20
151.6573030314
  0
VERTEX
  8
0
 62
7
  6
CONTINUOUS
 10
149.6470021984
 20
151.7661279359
  0
VERTEX
  8
0
 62
7
  6
CONTINUOUS
 10
149.5885874353
 20
151.8832306641
  0
VERTEX
  8
0
 62
7
  6
CONTINUOUS
 10
149.5032871884
 20
152.0058746528
  0
VERTEX
  8
0
 62
7
  6
CONTINUOUS
 10
149.3919724771
 20
152.1264780204
  0
SEQEND
  0
POLYLINE
  8
0
 62
7
  6
CONTINUOUS
 66
1
 70
0
  0
VERTEX
  8
0
 62
7
  6
CONTINUOUS
 10
149.6919724771
 20
164.2574359795
  0
VERTEX
  8
0
 62
7
  6
CONTINUOUS
 10
149.6808352293
 20
164.3573030314
  0
VERTEX
  8
0
 62
7
  6
CONTINUOUS
 10
149.6470021984
 20
164.4661279359
  0
VERTEX
  8
0
 62
7
  6
CONTINUOUS
 10
149.5885874353
 20
164.5832306641
  0
VERTEX
  8
0
 62
7
  6
CONTINUOUS
 10
149.5032871884
 20
164.7058746528
  0
VERTEX
  8
0
 62
7
  6
CONTINUOUS
 10
149.3919724771
 20
164.8264780204
  0
SEQEND
  0
LINE
  8
0
 62
7
  6
CONTINUOUS
 10
148.3919724771
 20
236.4334862385
 11
147.9184781182
 21
241.8455515259
  0
POLYLINE
  8
0
 62
7
  6
CONTINUOUS
 66
1
 70
0
  0
VERTEX
  8
0
 62
7
  6
CONTINUOUS
 10
148.3919724771
 20
93.7318633908
  0
VERTEX
  8
0
 62
7
  6
CONTINUOUS
 10
148.3780561088
 20
93.5620151694
  0
VERTEX
  8
0
 62
7
  6
CONTINUOUS
 10
148.3384619257
 20
93.3764940496
  0
VERTEX
  8
0
 62
7
  6
CONTINUOUS
 10
148.2843930069
 20
93.1864880762
  0
VERTEX
  8
0
 62
7
  6
CONTINUOUS
 10
148.2329781658
 20
92.9997253899
  0
VERTEX
  8
0
 62
7
  6
CONTINUOUS
 10
148.2007336123
 20
92.8249918428
  0
VERTEX
  8
0
 62
7
  6
CONTINUOUS
 10
148.1935101727
 20
92.6741140701
  0
SEQEND
  0
LINE
  8
0
 62
7
  6
CONTINUOUS
 10
147.9184781182
 20
51.5214209512
 11
148.3919724771
 21
56.9334862385
  0
POLYLINE
  8
0
 62
7
  6
CONTINUOUS
 66
1
 70
0
  0
VERTEX
  8
0
 62
7
  6
CONTINUOUS
 10
148.2589838145
 20
125.8436349973
  0
VERTEX
  8
0
 62
7
  6
CONTINUOUS
 10
148.2386317343
 20
125.7705601146
  0
VERTEX
  8
0
 62
7
  6
CONTINUOUS
 10
148.2249253233
 20
125.6974844499
  0
VERTEX
  8
0
 62
7
  6
CONTINUOUS
 10
148.2191672807
 20
125.6278698421
  0
SEQEND
  0
POLYLINE
  8
0
 62
7
  6
CONTINUOUS
 66
1
 70
0
  0
VERTEX
  8
0
 62
7
  6
CONTINUOUS
 10
148.2589838145
 20
113.1436349973
  0
VERTEX
  8
0
 62
7
  6
CONTINUOUS
 10
148.2386317343
 20
113.0705601146
  0
VERTEX
  8
0
 62
7
  6
CONTINUOUS
 10
148.2249253233
 20
112.9974844499
  0
VERTEX
  8
0
 62
7
  6
CONTINUOUS
 10
148.2191672807
 20
112.9278698421
  0
SEQEND
  0
LINE
  8
0
 62
7
  6
CONTINUOUS
 10
149.6919724771
 20
154.7834862385
 11
150.8919724771
 21
154.7834862385
  0
LINE
  8
0
 62
7
  6
CONTINUOUS
 10
140.4419724771
 20
156.3834862385
 11
147.5419724771
 21
156.3834862385
  0
LINE
  8
0
 62
7
  6
CONTINUOUS
 10
150.8919724771
 20
157.6334862385
 11
148.3919724771
 21
157.6334862385
  0
POLYLINE
  8
0
 62
7
  6
CONTINUOUS
 66
1
 70
0
  0
VERTEX
  8
0
 62
7
  6
CONTINUOUS
 10
149.6919724771
 20
176.9574359795
  0
VERTEX
  8
0
 62
7
  6
CONTINUOUS
 10
149.6808352293
 20
177.0573030314
  0
VERTEX
  8
0
 62
7
  6
CONTINUOUS
 10
149.6470021984
 20
177.1661279359
  0
VERTEX
  8
0
 62
7
  6
CONTINUOUS
 10
149.5885874353
 20
177.2832306641
  0
VERTEX
  8
0
 62
7
  6
CONTINUOUS
 10
149.5032871884
 20
177.4058746528
  0
VERTEX
  8
0
 62
7
  6
CONTINUOUS
 10
149.3919724771
 20
177.5264780204
  0
SEQEND
  0
POLYLINE
  8
0
 62
7
  6
CONTINUOUS
 66
1
 70
0
  0
VERTEX
  8
0
 62
7
  6
CONTINUOUS
 10
149.6919724771
 20
202.3574359795
  0
VERTEX
  8
0
 62
7
  6
CONTINUOUS
 10
149.6808352293
 20
202.4573030314
  0
VERTEX
  8
0
 62
7
  6
CONTINUOUS
 10
149.6470021984
 20
202.5661279359
  0
VERTEX
  8
0
 62
7
  6
CONTINUOUS
 10
149.5885874353
 20
202.6832306641
  0
VERTEX
  8
0
 62
7
  6
CONTINUOUS
 10
149.5032871884
 20
202.8058746528
  0
VERTEX
  8
0
 62
7
  6
CONTINUOUS
 10
149.3919724771
 20
202.9264780204
  0
SEQEND
  0
POLYLINE
  8
0
 62
7
  6
CONTINUOUS
 66
1
 70
0
  0
VERTEX
  8
0
 62
7
  6
CONTINUOUS
 10
148.2589838145
 20
100.4436349973
  0
VERTEX
  8
0
 62
7
  6
CONTINUOUS
 10
148.2386317343
 20
100.3705601146
  0
VERTEX
  8
0
 62
7
  6
CONTINUOUS
 10
148.2249253233
 20
100.2974844499
  0
VERTEX
  8
0
 62
7
  6
CONTINUOUS
 10
148.2191672807
 20
100.2278698421
  0
SEQEND
  0
POLYLINE
  8
0
 62
7
  6
CONTINUOUS
 66
1
 70
0
  0
VERTEX
  8
0
 62
7
  6
CONTINUOUS
 10
149.3919724771
 20
128.5404944567
  0
VERTEX
  8
0
 62
7
  6
CONTINUOUS
 10
149.5036287419
 20
128.661523862
  0
VERTEX
  8
0
 62
7
  6
CONTINUOUS
 10
149.5890872418
 20
128.7845852603
  0
VERTEX
  8
0
 62
7
  6
CONTINUOUS
 10
149.6475007863
 20
128.9020822267
  0
VERTEX
  8
0
 62
7
  6
CONTINUOUS
 10
149.6810136601
 20
129.0105080561
  0
VERTEX
  8
0
 62
7
  6
CONTINUOUS
 10
149.6919724771
 20
129.1095364976
  0
SEQEND
  0
LINE
  8
0
 62
7
  6
CONTINUOUS
 10
149.3844890283
 20
128.5334862385
 11
149.3919724771
 21
128.5404944567
  0
POLYLINE
  8
0
 62
7
  6
CONTINUOUS
 66
1
 70
0
  0
VERTEX
  8
0
 62
7
  6
CONTINUOUS
 10
149.3844890283
 20
128.5334862385
  0
VERTEX
  8
0
 62
7
  6
CONTINUOUS
 10
149.2783939991
 20
128.4512875657
  0
VERTEX
  8
0
 62
7
  6
CONTINUOUS
 10
149.1679328819
 20
128.3943874766
  0
VERTEX
  8
0
 62
7
  6
CONTINUOUS
 10
149.0553564679
 20
128.3611034342
  0
VERTEX
  8
0
 62
7
  6
CONTINUOUS
 10
148.9419724771
 20
128.3501642971
  0
SEQEND
  0
LINE
  8
0
 62
7
  6
CONTINUOUS
 10
150.8919724771
 20
161.1334862385
 11
148.3919724771
 21
161.1334862385
  0
LINE
  8
0
 62
7
  6
CONTINUOUS
 10
147.5419724771
 20
162.3834862385
 11
140.4419724771
 21
162.3834862385
  0
LINE
  8
0
 62
7
  6
CONTINUOUS
 10
150.8919724771
 20
163.9834862385
 11
149.6919724771
 21
163.9834862385
  0
LINE
  8
0
 62
7
  6
CONTINUOUS
 10
148.3919724771
 20
165.0168081799
 11
148.9419724771
 21
165.0168081799
  0
LINE
  8
0
 62
7
  6
CONTINUOUS
 10
148.3919724771
 20
166.4501642971
 11
148.9419724771
 21
166.4501642971
  0
POLYLINE
  8
0
 62
7
  6
CONTINUOUS
 66
1
 70
0
  0
VERTEX
  8
0
 62
7
  6
CONTINUOUS
 10
148.9419724771
 20
165.0168081799
  0
VERTEX
  8
0
 62
7
  6
CONTINUOUS
 10
149.0553564679
 20
165.0058690428
  0
VERTEX
  8
0
 62
7
  6
CONTINUOUS
 10
149.1679328819
 20
164.9725850005
  0
VERTEX
  8
0
 62
7
  6
CONTINUOUS
 10
149.2783939991
 20
164.9156849114
  0
VERTEX
  8
0
 62
7
  6
CONTINUOUS
 10
149.3844890283
 20
164.8334862385
  0
SEQEND
  0
LINE
  8
0
 62
7
  6
CONTINUOUS
 10
149.3919724771
 20
164.8264780204
 11
149.3844890283
 21
164.8334862385
  0
POLYLINE
  8
0
 62
4
  6
CONTINUOUS
 66
1
 70
0
  0
VERTEX
  8
0
 62
4
  6
CONTINUOUS
 10
139.9010557094
 20
62.2906290446
  0
VERTEX
  8
0
 62
4
  6
CONTINUOUS
 10
139.8387323727
 20
62.1234183226
  0
VERTEX
  8
0
 62
4
  6
CONTINUOUS
 10
139.7832403501
 20
61.9538180305
  0
VERTEX
  8
0
 62
4
  6
CONTINUOUS
 10
139.7346709157
 20
61.7821071295
  0
VERTEX
  8
0
 62
4
  6
CONTINUOUS
 10
139.6931039572
 20
61.6085680522
  0
VERTEX
  8
0
 62
4
  6
CONTINUOUS
 10
139.6586078446
 20
61.4334862385
  0
SEQEND
  0
POLYLINE
  8
0
 62
7
  6
CONTINUOUS
 66
1
 70
0
  0
VERTEX
  8
0
 62
7
  6
CONTINUOUS
 10
149.3919724771
 20
115.8404944567
  0
VERTEX
  8
0
 62
7
  6
CONTINUOUS
 10
149.5036287419
 20
115.961523862
  0
VERTEX
  8
0
 62
7
  6
CONTINUOUS
 10
149.5890872418
 20
116.0845852603
  0
VERTEX
  8
0
 62
7
  6
CONTINUOUS
 10
149.6475007863
 20
116.2020822267
  0
VERTEX
  8
0
 62
7
  6
CONTINUOUS
 10
149.6810136601
 20
116.3105080561
  0
VERTEX
  8
0
 62
7
  6
CONTINUOUS
 10
149.6919724771
 20
116.4095364976
  0
SEQEND
  0
LINE
  8
0
 62
7
  6
CONTINUOUS
 10
149.3844890283
 20
115.8334862385
 11
149.3919724771
 21
115.8404944567
  0
LINE
  8
0
 62
7
  6
CONTINUOUS
 10
149.6919724771
 20
167.4834862385
 11
150.8919724771
 21
167.4834862385
  0
LINE
  8
0
 62
7
  6
CONTINUOUS
 10
140.4419724771
 20
169.0834862385
 11
147.5419724771
 21
169.0834862385
  0
LINE
  8
0
 62
7
  6
CONTINUOUS
 10
150.8919724771
 20
170.3334862385
 11
148.3919724771
 21
170.3334862385
  0
LINE
  8
0
 62
7
  6
CONTINUOUS
 10
149.3919724771
 20
177.5264780204
 11
149.3844890283
 21
177.5334862385
  0
POLYLINE
  8
0
 62
7
  6
CONTINUOUS
 66
1
 70
0
  0
VERTEX
  8
0
 62
7
  6
CONTINUOUS
 10
149.3919724771
 20
103.1404944567
  0
VERTEX
  8
0
 62
7
  6
CONTINUOUS
 10
149.5036287419
 20
103.261523862
  0
VERTEX
  8
0
 62
7
  6
CONTINUOUS
 10
149.5890872418
 20
103.3845852603
  0
VERTEX
  8
0
 62
7
  6
CONTINUOUS
 10
149.6475007863
 20
103.5020822267
  0
VERTEX
  8
0
 62
7
  6
CONTINUOUS
 10
149.6810136601
 20
103.6105080561
  0
VERTEX
  8
0
 62
7
  6
CONTINUOUS
 10
149.6919724771
 20
103.7095364976
  0
SEQEND
  0
POLYLINE
  8
0
 62
7
  6
CONTINUOUS
 66
1
 70
0
  0
VERTEX
  8
0
 62
7
  6
CONTINUOUS
 10
149.3844890283
 20
115.8334862385
  0
VERTEX
  8
0
 62
7
  6
CONTINUOUS
 10
149.2783939991
 20
115.7512875657
  0
VERTEX
  8
0
 62
7
  6
CONTINUOUS
 10
149.1679328819
 20
115.6943874766
  0
VERTEX
  8
0
 62
7
  6
CONTINUOUS
 10
149.0553564679
 20
115.6611034342
  0
VERTEX
  8
0
 62
7
  6
CONTINUOUS
 10
148.9419724771
 20
115.6501642971
  0
SEQEND
  0
LINE
  8
0
 62
7
  6
CONTINUOUS
 10
150.8919724771
 20
173.8334862385
 11
148.3919724771
 21
173.8334862385
  0
LINE
  8
0
 62
7
  6
CONTINUOUS
 10
147.5419724771
 20
175.0834862385
 11
140.4419724771
 21
175.0834862385
  0
LINE
  8
0
 62
7
  6
CONTINUOUS
 10
150.8919724771
 20
176.6834862385
 11
149.6919724771
 21
176.6834862385
  0
LINE
  8
0
 62
7
  6
CONTINUOUS
 10
148.3919724771
 20
177.7168081799
 11
148.9419724771
 21
177.7168081799
  0
LINE
  8
0
 62
7
  6
CONTINUOUS
 10
148.3919724771
 20
179.1501642971
 11
148.9419724771
 21
179.1501642971
  0
POLYLINE
  8
0
 62
7
  6
CONTINUOUS
 66
1
 70
0
  0
VERTEX
  8
0
 62
7
  6
CONTINUOUS
 10
148.9419724771
 20
177.7168081799
  0
VERTEX
  8
0
 62
7
  6
CONTINUOUS
 10
149.0553564679
 20
177.7058690428
  0
VERTEX
  8
0
 62
7
  6
CONTINUOUS
 10
149.1679328819
 20
177.6725850005
  0
VERTEX
  8
0
 62
7
  6
CONTINUOUS
 10
149.2783939991
 20
177.6156849114
  0
VERTEX
  8
0
 62
7
  6
CONTINUOUS
 10
149.3844890283
 20
177.5334862385
  0
SEQEND
  0
POLYLINE
  8
0
 62
7
  6
CONTINUOUS
 66
1
 70
0
  0
VERTEX
  8
0
 62
7
  6
CONTINUOUS
 10
149.3919724771
 20
190.2264554477
  0
VERTEX
  8
0
 62
7
  6
CONTINUOUS
 10
149.4915645044
 20
190.114326888
  0
VERTEX
  8
0
 62
7
  6
CONTINUOUS
 10
149.5749861779
 20
189.9810653113
  0
VERTEX
  8
0
 62
7
  6
CONTINUOUS
 10
149.6379873162
 20
189.8296944651
  0
VERTEX
  8
0
 62
7
  6
CONTINUOUS
 10
149.6780872645
 20
189.6609963999
  0
VERTEX
  8
0
 62
7
  6
CONTINUOUS
 10
149.6919724771
 20
189.4800667629
  0
SEQEND
  0
LINE
  8
0
 62
7
  6
CONTINUOUS
 10
149.3844890283
 20
103.1334862385
 11
149.3919724771
 21
103.1404944567
  0
POLYLINE
  8
0
 62
7
  6
CONTINUOUS
 66
1
 70
0
  0
VERTEX
  8
0
 62
7
  6
CONTINUOUS
 10
149.3844890283
 20
103.1334862385
  0
VERTEX
  8
0
 62
7
  6
CONTINUOUS
 10
149.2783939991
 20
103.0512875657
  0
VERTEX
  8
0
 62
7
  6
CONTINUOUS
 10
149.1679328819
 20
102.9943874766
  0
VERTEX
  8
0
 62
7
  6
CONTINUOUS
 10
149.0553564679
 20
102.9611034342
  0
VERTEX
  8
0
 62
7
  6
CONTINUOUS
 10
148.9419724771
 20
102.9501642971
  0
SEQEND
  0
LINE
  8
0
 62
7
  6
CONTINUOUS
 10
149.6919724771
 20
180.1834862385
 11
150.8919724771
 21
180.1834862385
  0
LINE
  8
0
 62
7
  6
CONTINUOUS
 10
140.4419724771
 20
181.7834862385
 11
147.5419724771
 21
181.7834862385
  0
LINE
  8
0
 62
7
  6
CONTINUOUS
 10
150.8919724771
 20
183.0334862385
 11
148.3919724771
 21
183.0334862385
  0
POLYLINE
  8
0
 62
7
  6
CONTINUOUS
 66
1
 70
0
  0
VERTEX
  8
0
 62
7
  6
CONTINUOUS
 10
149.3919724771
 20
90.4404944567
  0
VERTEX
  8
0
 62
7
  6
CONTINUOUS
 10
149.5036287419
 20
90.561523862
  0
VERTEX
  8
0
 62
7
  6
CONTINUOUS
 10
149.5890872418
 20
90.6845852603
  0
VERTEX
  8
0
 62
7
  6
CONTINUOUS
 10
149.6475007863
 20
90.8020822267
  0
VERTEX
  8
0
 62
7
  6
CONTINUOUS
 10
149.6810136601
 20
90.9105080561
  0
VERTEX
  8
0
 62
7
  6
CONTINUOUS
 10
149.6919724771
 20
91.0095364976
  0
SEQEND
  0
LINE
  8
0
 62
7
  6
CONTINUOUS
 10
149.3844890283
 20
90.4334862385
 11
149.3919724771
 21
90.4404944567
  0
LINE
  8
0
 62
7
  6
CONTINUOUS
 10
150.8919724771
 20
186.5334862385
 11
148.3919724771
 21
186.5334862385
  0
LINE
  8
0
 62
7
  6
CONTINUOUS
 10
147.5419724771
 20
187.7834862385
 11
140.4419724771
 21
187.7834862385
  0
LINE
  8
0
 62
7
  6
CONTINUOUS
 10
151.7419724771
 20
189.3834862385
 11
149.6890849615
 21
189.3834862385
  0
LINE
  8
0
 62
7
  6
CONTINUOUS
 10
148.3919724771
 20
190.4168081799
 11
148.9419724771
 21
190.4168081799
  0
LINE
  8
0
 62
7
  6
CONTINUOUS
 10
148.3919724771
 20
191.8501642971
 11
148.9419724771
 21
191.8501642971
  0
POLYLINE
  8
0
 62
7
  6
CONTINUOUS
 66
1
 70
0
  0
VERTEX
  8
0
 62
7
  6
CONTINUOUS
 10
148.9419724771
 20
190.4168081799
  0
VERTEX
  8
0
 62
7
  6
CONTINUOUS
 10
149.0574107185
 20
190.405466658
  0
VERTEX
  8
0
 62
7
  6
CONTINUOUS
 10
149.1719909294
 20
190.3709417836
  0
VERTEX
  8
0
 62
7
  6
CONTINUOUS
 10
149.284308649
 20
190.3118762104
  0
VERTEX
  8
0
 62
7
  6
CONTINUOUS
 10
149.3919724771
 20
190.2264554477
  0
SEQEND
  0
LINE
  8
0
 62
7
  6
CONTINUOUS
 10
149.3919724771
 20
202.9264780204
 11
149.3844890283
 21
202.9334862385
  0
POLYLINE
  8
0
 62
7
  6
CONTINUOUS
 66
1
 70
0
  0
VERTEX
  8
0
 62
7
  6
CONTINUOUS
 10
149.3844890283
 20
90.4334862385
  0
VERTEX
  8
0
 62
7
  6
CONTINUOUS
 10
149.2783939991
 20
90.3512875657
  0
VERTEX
  8
0
 62
7
  6
CONTINUOUS
 10
149.1679328819
 20
90.2943874766
  0
VERTEX
  8
0
 62
7
  6
CONTINUOUS
 10
149.0553564679
 20
90.2611034342
  0
VERTEX
  8
0
 62
7
  6
CONTINUOUS
 10
148.9419724771
 20
90.2501642971
  0
SEQEND
  0
LINE
  8
0
 62
7
  6
CONTINUOUS
 10
149.6919724771
 20
192.8834862385
 11
150.8919724771
 21
192.8834862385
  0
LINE
  8
0
 62
7
  6
CONTINUOUS
 10
140.4419724771
 20
194.4834862385
 11
147.5419724771
 21
194.4834862385
  0
LINE
  8
0
 62
7
  6
CONTINUOUS
 10
150.8919724771
 20
195.7334862385
 11
148.3919724771
 21
195.7334862385
  0
LINE
  8
0
 62
7
  6
CONTINUOUS
 10
150.8919724771
 20
199.2334862385
 11
148.3919724771
 21
199.2334862385
  0
LINE
  8
0
 62
7
  6
CONTINUOUS
 10
147.5419724771
 20
200.4834862385
 11
140.4419724771
 21
200.4834862385
  0
LINE
  8
0
 62
7
  6
CONTINUOUS
 10
150.8919724771
 20
202.0834862385
 11
149.6919724771
 21
202.0834862385
  0
LINE
  8
0
 62
7
  6
CONTINUOUS
 10
148.3919724771
 20
203.1168081799
 11
148.9419724771
 21
203.1168081799
  0
POLYLINE
  8
0
 62
7
  6
CONTINUOUS
 66
1
 70
0
  0
VERTEX
  8
0
 62
7
  6
CONTINUOUS
 10
148.9419724771
 20
203.1168081799
  0
VERTEX
  8
0
 62
7
  6
CONTINUOUS
 10
149.0553564679
 20
203.1058690428
  0
VERTEX
  8
0
 62
7
  6
CONTINUOUS
 10
149.1679328819
 20
203.0725850005
  0
VERTEX
  8
0
 62
7
  6
CONTINUOUS
 10
149.2783939991
 20
203.0156849114
  0
VERTEX
  8
0
 62
7
  6
CONTINUOUS
 10
149.3844890283
 20
202.9334862385
  0
SEQEND
  0
LINE
  8
0
 62
7
  6
CONTINUOUS
 10
148.3919724771
 20
205.5834862385
 11
150.8919724771
 21
205.5834862385
  0
LINE
  8
0
 62
7
  6
CONTINUOUS
 10
140.4419724771
 20
207.1834862385
 11
147.5419724771
 21
207.1834862385
  0
LINE
  8
0
 62
7
  6
CONTINUOUS
 10
147.5419724771
 20
213.1834862385
 11
140.4419724771
 21
213.1834862385
  0
LINE
  8
0
 62
7
  6
CONTINUOUS
 10
140.4419724771
 20
219.8834862385
 11
147.5419724771
 21
219.8834862385
  0
LINE
  8
0
 62
7
  6
CONTINUOUS
 10
147.5419724771
 20
225.8834862385
 11
140.4419724771
 21
225.8834862385
  0
LINE
  8
0
 62
7
  6
CONTINUOUS
 10
143.5919724771
 20
226.5834862385
 11
144.3919724771
 21
226.5834862385
  0
LINE
  8
0
 62
7
  6
CONTINUOUS
 10
143.5919724771
 20
233.4734862385
 11
144.3919724771
 21
233.4734862385
  0
LINE
  8
0
 62
7
  6
CONTINUOUS
 10
140.4419724771
 20
234.1734862385
 11
147.5419724771
 21
234.1734862385
  0
LINE
  8
0
 62
7
  6
CONTINUOUS
 10
147.5419724771
 20
241.9334862385
 11
140.4419724771
 21
241.9334862385
  0
POLYLINE
  8
0
 62
40
  6
CONTINUOUS
 66
1
 70
0
  0
VERTEX
  8
0
 62
40
  6
CONTINUOUS
 10
148.3690984357
 20
236.7057276755
  0
VERTEX
  8
0
 62
40
  6
CONTINUOUS
 10
148.377328519
 20
236.7031092832
  0
VERTEX
  8
0
 62
40
  6
CONTINUOUS
 10
148.3837332501
 20
236.7004865177
  0
VERTEX
  8
0
 62
40
  6
CONTINUOUS
 10
148.3883099632
 20
236.6978604708
  0
VERTEX
  8
0
 62
40
  6
CONTINUOUS
 10
148.3910567533
 20
236.6952322354
  0
VERTEX
  8
0
 62
40
  6
CONTINUOUS
 10
148.3919724771
 20
236.6926029056
  0
SEQEND
  0
ARC
  8
0
 62
7
  6
CONTINUOUS
 10
43.709839512
 20
267.2167431193
 40
4.4
 50
90.0
 51
270.0
  0
ARC
  8
0
 62
7
  6
CONTINUOUS
 10
54.939839512
 20
267.2167431193
 40
4.4
 50
275.9790790722
 51
84.0209209278
  0
CIRCLE
  8
0
 62
7
  6
CONTINUOUS
 10
43.859839512
 20
267.2167431193
 40
2.6
  0
ARC
  8
0
 62
7
  6
CONTINUOUS
 10
52.289839512
 20
272.6167431193
 40
2.35
 50
7.3392972328
 51
90.0
  0
ARC
  8
0
 62
7
  6
CONTINUOUS
 10
46.359839512
 20
272.6167431193
 40
2.35
 50
90.0
 51
180.0
  0
ARC
  8
0
 62
7
  6
CONTINUOUS
 10
69.409839512
 20
267.2167431193
 40
4.4
 50
269.9999999988
 51
90.0000000011
  0
ARC
  8
0
 62
7
  6
CONTINUOUS
 10
59.809839512
 20
267.2167431193
 40
4.4
 50
78.645269054
 51
90.0
  0
CIRCLE
  8
0
 62
7
  6
CONTINUOUS
 10
69.259839512
 20
267.2167431193
 40
2.6
  0
CIRCLE
  8
0
 62
7
  6
CONTINUOUS
 10
64.359839512
 20
267.2167431193
 40
1.7
  0
CIRCLE
  8
0
 62
7
  6
CONTINUOUS
 10
64.359839512
 20
267.2167431193
 40
0.4
  0
ARC
  8
0
 62
7
  6
CONTINUOUS
 10
66.759839512
 20
272.6167431193
 40
2.35
 50
0.0
 51
90.0
  0
ARC
  8
0
 62
7
  6
CONTINUOUS
 10
60.829839512
 20
272.6167431193
 40
2.35
 50
90.0
 51
180.0
  0
ARC
  8
0
 62
7
  6
CONTINUOUS
 10
46.5774453608
 20
65.0304685291
 40
2.5
 50
44.5239289046
 51
78.8745595634
  0
ARC
  8
0
 62
7
  6
CONTINUOUS
 10
46.5774453608
 20
61.646503948
 40
2.5
 50
281.1254404366
 51
315.4760710954
  0
ARC
  8
0
 62
7
  6
CONTINUOUS
 10
44.859839512
 20
94.9834862385
 40
0.85
 50
180.0
 51
270.0
  0
ARC
  8
0
 62
7
  6
CONTINUOUS
 10
40.159839512
 20
98.0334862385
 40
0.85
 50
89.9999997861
 51
180.0
  0
ARC
  8
0
 62
7
  6
CONTINUOUS
 10
40.159839512
 20
93.7334862385
 40
0.85
 50
180.0
 51
270.0000002139
  0
ARC
  8
0
 62
7
  6
CONTINUOUS
 10
40.159839512
 20
85.3334862385
 40
0.85
 50
89.9999997861
 51
180.0
  0
ARC
  8
0
 62
7
  6
CONTINUOUS
 10
40.159839512
 20
81.0334862385
 40
0.85
 50
180.0
 51
270.0000002139
  0
ARC
  8
0
 62
7
  6
CONTINUOUS
 10
40.159839512
 20
72.6334862385
 40
0.85
 50
89.9999997861
 51
180.0
  0
ARC
  8
0
 62
7
  6
CONTINUOUS
 10
40.159839512
 20
68.3334862385
 40
0.85
 50
180.0
 51
270.0000002139
  0
ARC
  8
0
 62
7
  6
CONTINUOUS
 10
40.159839512
 20
58.3434862385
 40
0.85
 50
89.9999997861
 51
180.0
  0
ARC
  8
0
 62
7
  6
CONTINUOUS
 10
40.159839512
 20
52.2834862385
 40
0.85
 50
180.0
 51
270.0000002139
  0
ARC
  8
0
 62
7
  6
CONTINUOUS
 10
44.859839512
 20
96.7834862385
 40
0.85
 50
90.0
 51
180.0
  0
ARC
  8
0
 62
7
  6
CONTINUOUS
 10
46.5774453608
 20
141.2304685291
 40
2.5
 50
44.5239289046
 51
78.8745595634
  0
ARC
  8
0
 62
7
  6
CONTINUOUS
 10
44.859839512
 20
107.6834862385
 40
0.85
 50
180.0
 51
270.0
  0
ARC
  8
0
 62
7
  6
CONTINUOUS
 10
44.859839512
 20
120.3834862385
 40
0.85
 50
180.0
 51
270.0
  0
ARC
  8
0
 62
7
  6
CONTINUOUS
 10
44.859839512
 20
133.0834862385
 40
0.85
 50
180.0
 51
270.0
  0
ARC
  8
0
 62
7
  6
CONTINUOUS
 10
44.859839512
 20
145.7834862385
 40
0.85
 50
180.0
 51
270.0
  0
ARC
  8
0
 62
7
  6
CONTINUOUS
 10
40.159839512
 20
136.1334862385
 40
0.85
 50
89.9999997861
 51
180.0
  0
ARC
  8
0
 62
7
  6
CONTINUOUS
 10
40.159839512
 20
144.5334862385
 40
0.85
 50
180.0
 51
270.0000002139
  0
ARC
  8
0
 62
7
  6
CONTINUOUS
 10
40.159839512
 20
131.8334862385
 40
0.85
 50
180.0
 51
270.0000002139
  0
ARC
  8
0
 62
7
  6
CONTINUOUS
 10
40.159839512
 20
123.4334862385
 40
0.85
 50
89.9999997861
 51
180.0
  0
ARC
  8
0
 62
7
  6
CONTINUOUS
 10
40.159839512
 20
119.1334862385
 40
0.85
 50
180.0
 51
270.0000002139
  0
ARC
  8
0
 62
7
  6
CONTINUOUS
 10
40.159839512
 20
110.7334862385
 40
0.85
 50
89.9999997861
 51
180.0
  0
ARC
  8
0
 62
7
  6
CONTINUOUS
 10
40.159839512
 20
106.4334862385
 40
0.85
 50
180.0
 51
270.0000002139
  0
ARC
  8
0
 62
7
  6
CONTINUOUS
 10
44.859839512
 20
109.4834862385
 40
0.85
 50
90.0
 51
180.0
  0
ARC
  8
0
 62
7
  6
CONTINUOUS
 10
44.859839512
 20
122.1834862385
 40
0.85
 50
90.0
 51
180.0
  0
ARC
  8
0
 62
7
  6
CONTINUOUS
 10
44.859839512
 20
134.8834862385
 40
0.85
 50
90.0
 51
180.0
  0
ARC
  8
0
 62
7
  6
CONTINUOUS
 10
50.9422336633
 20
65.0304685291
 40
2.5
 50
101.1254404366
 51
135.4760710954
  0
ARC
  8
0
 62
7
  6
CONTINUOUS
 10
50.9422336633
 20
61.646503948
 40
2.5
 50
224.5239289046
 51
258.8745595634
  0
ARC
  8
0
 62
7
  6
CONTINUOUS
 10
53.9260685587
 20
61.1934862385
 40
2.0
 50
270.0
 51
309.0
  0
ARC
  8
0
 62
7
  6
CONTINUOUS
 10
53.928538353
 20
65.4834862385
 40
2.0
 50
51.0
 51
90.0
  0
ARC
  8
0
 62
7
  6
CONTINUOUS
 10
53.9273034558
 20
75.4834862385
 40
2.0
 50
270.0
 51
309.0
  0
ARC
  8
0
 62
7
  6
CONTINUOUS
 10
53.479839512
 20
73.7834862385
 40
0.3
 50
269.999989208
 51
360.0
  0
ARC
  8
0
 62
7
  6
CONTINUOUS
 10
53.479839512
 20
67.1834862385
 40
0.3
 50
0.0
 51
90.0000108595
  0
ARC
  8
0
 62
7
  6
CONTINUOUS
 10
53.479839512
 20
59.4934862385
 40
0.3
 50
269.9999892741
 51
360.0
  0
ARC
  8
0
 62
7
  6
CONTINUOUS
 10
53.479839512
 20
86.4834862385
 40
0.3
 50
269.999989208
 51
360.0
  0
ARC
  8
0
 62
7
  6
CONTINUOUS
 10
53.479839512
 20
79.8834862385
 40
0.3
 50
0.0
 51
90.0000107934
  0
ARC
  8
0
 62
7
  6
CONTINUOUS
 10
53.479839512
 20
92.5834862385
 40
0.3
 50
0.0
 51
90.0000107934
  0
ARC
  8
0
 62
7
  6
CONTINUOUS
 10
53.9273034558
 20
78.1834862385
 40
2.0
 50
51.0
 51
90.0
  0
ARC
  8
0
 62
7
  6
CONTINUOUS
 10
53.9273034558
 20
88.1834862385
 40
2.0
 50
270.0
 51
309.0
  0
ARC
  8
0
 62
7
  6
CONTINUOUS
 10
53.9273034558
 20
90.8834862385
 40
2.0
 50
51.0
 51
90.0
  0
ARC
  8
0
 62
7
  6
CONTINUOUS
 10
53.789839512
 20
94.9834862385
 40
0.85
 50
359.5082007495
 51
360.0
  0
ARC
  8
0
 62
7
  6
CONTINUOUS
 10
53.789839512
 20
96.7834862385
 40
0.85
 50
0.0
 51
0.4917992505
  0
ARC
  8
0
 62
7
  6
CONTINUOUS
 10
50.9422336633
 20
141.2304685291
 40
2.5
 50
101.1254404366
 51
135.4760710954
  0
ARC
  8
0
 62
7
  6
CONTINUOUS
 10
53.479839512
 20
105.2834862385
 40
0.3
 50
0.0
 51
90.0000107934
  0
ARC
  8
0
 62
7
  6
CONTINUOUS
 10
53.479839512
 20
99.1834862385
 40
0.3
 50
269.999989208
 51
360.0
  0
ARC
  8
0
 62
7
  6
CONTINUOUS
 10
53.479839512
 20
117.9834862385
 40
0.3
 50
0.0
 51
90.0000107934
  0
ARC
  8
0
 62
7
  6
CONTINUOUS
 10
53.479839512
 20
111.8834862385
 40
0.3
 50
269.999989208
 51
360.0
  0
ARC
  8
0
 62
7
  6
CONTINUOUS
 10
53.9273034558
 20
100.8834862385
 40
2.0
 50
270.0
 51
309.0
  0
ARC
  8
0
 62
7
  6
CONTINUOUS
 10
53.9273034558
 20
103.5834862385
 40
2.0
 50
51.0
 51
90.0
  0
ARC
  8
0
 62
7
  6
CONTINUOUS
 10
53.789839512
 20
107.6834862385
 40
0.85
 50
359.5082007495
 51
360.0
  0
ARC
  8
0
 62
7
  6
CONTINUOUS
 10
53.789839512
 20
109.4834862385
 40
0.85
 50
0.0
 51
0.4917992505
  0
ARC
  8
0
 62
7
  6
CONTINUOUS
 10
53.9273034558
 20
113.5834862385
 40
2.0
 50
270.0
 51
309.0
  0
ARC
  8
0
 62
7
  6
CONTINUOUS
 10
53.9273034558
 20
116.2834862385
 40
2.0
 50
51.0
 51
90.0
  0
ARC
  8
0
 62
7
  6
CONTINUOUS
 10
53.789839512
 20
120.3834862385
 40
0.85
 50
359.5082007495
 51
360.0
  0
ARC
  8
0
 62
7
  6
CONTINUOUS
 10
53.789839512
 20
122.1834862385
 40
0.85
 50
0.0
 51
0.4917992505
  0
ARC
  8
0
 62
7
  6
CONTINUOUS
 10
53.479839512
 20
130.6834862385
 40
0.3
 50
0.0
 51
90.0000107934
  0
ARC
  8
0
 62
7
  6
CONTINUOUS
 10
53.479839512
 20
124.5834862385
 40
0.3
 50
269.999989208
 51
360.0
  0
ARC
  8
0
 62
7
  6
CONTINUOUS
 10
53.479839512
 20
143.3834862385
 40
0.3
 50
0.0
 51
90.0000107934
  0
ARC
  8
0
 62
7
  6
CONTINUOUS
 10
53.479839512
 20
137.2834862385
 40
0.3
 50
269.999989208
 51
360.0
  0
ARC
  8
0
 62
7
  6
CONTINUOUS
 10
53.9273034558
 20
126.2834862385
 40
2.0
 50
270.0
 51
309.0
  0
ARC
  8
0
 62
7
  6
CONTINUOUS
 10
53.9273034558
 20
128.9834862385
 40
2.0
 50
51.0
 51
90.0
  0
ARC
  8
0
 62
7
  6
CONTINUOUS
 10
53.789839512
 20
133.0834862385
 40
0.85
 50
359.5082007495
 51
360.0
  0
ARC
  8
0
 62
7
  6
CONTINUOUS
 10
53.789839512
 20
134.8834862385
 40
0.85
 50
0.0
 51
0.4917992505
  0
ARC
  8
0
 62
7
  6
CONTINUOUS
 10
53.9273034558
 20
138.9834862385
 40
2.0
 50
270.0
 51
309.0
  0
ARC
  8
0
 62
7
  6
CONTINUOUS
 10
53.9273034558
 20
141.6834862385
 40
2.0
 50
51.0
 51
90.0
  0
ARC
  8
0
 62
7
  6
CONTINUOUS
 10
53.789839512
 20
145.7834862385
 40
0.85
 50
359.5082007495
 51
360.0
  0
ARC
  8
0
 62
7
  6
CONTINUOUS
 10
46.5774453608
 20
152.136503948
 40
2.5
 50
281.1254404366
 51
315.4760710954
  0
ARC
  8
0
 62
7
  6
CONTINUOUS
 10
44.859839512
 20
158.4834862385
 40
0.85
 50
180.0
 51
270.0
  0
ARC
  8
0
 62
7
  6
CONTINUOUS
 10
44.859839512
 20
171.1834862385
 40
0.85
 50
180.0
 51
270.0
  0
ARC
  8
0
 62
7
  6
CONTINUOUS
 10
44.859839512
 20
183.8834862385
 40
0.85
 50
180.0
 51
270.0
  0
ARC
  8
0
 62
7
  6
CONTINUOUS
 10
40.159839512
 20
186.9334862385
 40
0.85
 50
89.9999997861
 51
180.0
  0
ARC
  8
0
 62
7
  6
CONTINUOUS
 10
40.159839512
 20
182.6334862385
 40
0.85
 50
180.0
 51
270.0000002139
  0
ARC
  8
0
 62
7
  6
CONTINUOUS
 10
40.159839512
 20
174.2334862385
 40
0.85
 50
89.9999997861
 51
180.0
  0
ARC
  8
0
 62
7
  6
CONTINUOUS
 10
40.159839512
 20
169.9334862385
 40
0.85
 50
180.0
 51
270.0000002139
  0
ARC
  8
0
 62
7
  6
CONTINUOUS
 10
40.159839512
 20
161.5334862385
 40
0.85
 50
89.9999997861
 51
180.0
  0
ARC
  8
0
 62
7
  6
CONTINUOUS
 10
40.159839512
 20
157.2334862385
 40
0.85
 50
180.0
 51
270.0000002139
  0
ARC
  8
0
 62
7
  6
CONTINUOUS
 10
40.159839512
 20
148.8334862385
 40
0.85
 50
89.9999997861
 51
180.0
  0
ARC
  8
0
 62
7
  6
CONTINUOUS
 10
44.859839512
 20
147.5834862385
 40
0.85
 50
90.0
 51
180.0
  0
ARC
  8
0
 62
7
  6
CONTINUOUS
 10
44.859839512
 20
160.2834862385
 40
0.85
 50
90.0
 51
180.0
  0
ARC
  8
0
 62
7
  6
CONTINUOUS
 10
44.859839512
 20
172.9834862385
 40
0.85
 50
90.0
 51
180.0
  0
ARC
  8
0
 62
7
  6
CONTINUOUS
 10
44.859839512
 20
185.6834862385
 40
0.85
 50
90.0
 51
180.0
  0
ARC
  8
0
 62
7
  6
CONTINUOUS
 10
46.5774453608
 20
228.336503948
 40
2.5
 50
281.1254404366
 51
315.4760710954
  0
ARC
  8
0
 62
7
  6
CONTINUOUS
 10
46.5774453608
 20
231.7204685291
 40
2.5
 50
44.5239289046
 51
78.8745595634
  0
ARC
  8
0
 62
7
  6
CONTINUOUS
 10
44.859839512
 20
196.5834862385
 40
0.85
 50
180.0
 51
270.0
  0
ARC
  8
0
 62
7
  6
CONTINUOUS
 10
40.159839512
 20
241.0834862385
 40
0.85
 50
89.9999997861
 51
180.0
  0
ARC
  8
0
 62
7
  6
CONTINUOUS
 10
40.159839512
 20
235.0234862385
 40
0.85
 50
180.0
 51
270.0000002139
  0
ARC
  8
0
 62
7
  6
CONTINUOUS
 10
40.159839512
 20
225.0334862385
 40
0.85
 50
89.9999997861
 51
180.0
  0
ARC
  8
0
 62
7
  6
CONTINUOUS
 10
40.159839512
 20
220.7334862385
 40
0.85
 50
180.0
 51
270.0000002139
  0
ARC
  8
0
 62
7
  6
CONTINUOUS
 10
40.159839512
 20
212.3334862385
 40
0.85
 50
89.9999997861
 51
180.0
  0
ARC
  8
0
 62
7
  6
CONTINUOUS
 10
40.159839512
 20
208.0334862385
 40
0.85
 50
180.0
 51
270.0000002139
  0
ARC
  8
0
 62
7
  6
CONTINUOUS
 10
40.159839512
 20
199.6334862385
 40
0.85
 50
89.9999997861
 51
180.0
  0
ARC
  8
0
 62
7
  6
CONTINUOUS
 10
40.159839512
 20
195.3334862385
 40
0.85
 50
180.0
 51
270.0000002139
  0
ARC
  8
0
 62
7
  6
CONTINUOUS
 10
44.859839512
 20
198.3834862385
 40
0.85
 50
90.0
 51
180.0
  0
ARC
  8
0
 62
7
  6
CONTINUOUS
 10
50.9422336633
 20
152.136503948
 40
2.5
 50
224.5239289046
 51
258.8745595634
  0
ARC
  8
0
 62
7
  6
CONTINUOUS
 10
53.479839512
 20
156.0834862385
 40
0.3
 50
0.0
 51
90.0000107934
  0
ARC
  8
0
 62
7
  6
CONTINUOUS
 10
53.479839512
 20
149.9834862385
 40
0.3
 50
269.999989208
 51
360.0
  0
ARC
  8
0
 62
7
  6
CONTINUOUS
 10
53.479839512
 20
168.7834862385
 40
0.3
 50
0.0
 51
90.0000107934
  0
ARC
  8
0
 62
7
  6
CONTINUOUS
 10
53.479839512
 20
162.6834862385
 40
0.3
 50
269.999989208
 51
360.0
  0
ARC
  8
0
 62
7
  6
CONTINUOUS
 10
53.9273034558
 20
151.6834862385
 40
2.0
 50
270.0
 51
309.0
  0
ARC
  8
0
 62
7
  6
CONTINUOUS
 10
53.9273034558
 20
154.3834862385
 40
2.0
 50
51.0
 51
90.0
  0
ARC
  8
0
 62
7
  6
CONTINUOUS
 10
53.789839512
 20
147.5834862385
 40
0.85
 50
0.0
 51
0.4917992505
  0
ARC
  8
0
 62
7
  6
CONTINUOUS
 10
53.9273034558
 20
164.3834862385
 40
2.0
 50
270.0
 51
309.0
  0
ARC
  8
0
 62
7
  6
CONTINUOUS
 10
53.9273034558
 20
167.0834862385
 40
2.0
 50
51.0
 51
90.0
  0
ARC
  8
0
 62
7
  6
CONTINUOUS
 10
53.789839512
 20
158.4834862385
 40
0.85
 50
359.5082007495
 51
360.0
  0
ARC
  8
0
 62
7
  6
CONTINUOUS
 10
53.789839512
 20
160.2834862385
 40
0.85
 50
0.0
 51
0.4917992505
  0
ARC
  8
0
 62
7
  6
CONTINUOUS
 10
53.479839512
 20
181.4834862385
 40
0.3
 50
0.0
 51
90.0000107934
  0
ARC
  8
0
 62
7
  6
CONTINUOUS
 10
53.479839512
 20
175.3834862385
 40
0.3
 50
269.999989208
 51
360.0
  0
ARC
  8
0
 62
7
  6
CONTINUOUS
 10
53.479839512
 20
194.1834862385
 40
0.3
 50
0.0
 51
90.0000107934
  0
ARC
  8
0
 62
7
  6
CONTINUOUS
 10
53.479839512
 20
188.0834862385
 40
0.3
 50
269.999989208
 51
360.0
  0
ARC
  8
0
 62
7
  6
CONTINUOUS
 10
53.9273034558
 20
177.0834862385
 40
2.0
 50
270.0
 51
309.0
  0
ARC
  8
0
 62
7
  6
CONTINUOUS
 10
53.9273034558
 20
179.7834862385
 40
2.0
 50
51.0
 51
90.0
  0
ARC
  8
0
 62
7
  6
CONTINUOUS
 10
53.789839512
 20
171.1834862385
 40
0.85
 50
359.5082007495
 51
360.0
  0
ARC
  8
0
 62
7
  6
CONTINUOUS
 10
53.789839512
 20
172.9834862385
 40
0.85
 50
0.0
 51
0.4917992505
  0
ARC
  8
0
 62
7
  6
CONTINUOUS
 10
53.9273034558
 20
189.7834862385
 40
2.0
 50
270.0
 51
309.0
  0
ARC
  8
0
 62
7
  6
CONTINUOUS
 10
53.9273034558
 20
192.4834862385
 40
2.0
 50
51.0
 51
90.0
  0
ARC
  8
0
 62
7
  6
CONTINUOUS
 10
53.789839512
 20
183.8834862385
 40
0.85
 50
359.5082007495
 51
360.0
  0
ARC
  8
0
 62
7
  6
CONTINUOUS
 10
53.789839512
 20
185.6834862385
 40
0.85
 50
0.0
 51
0.4917992505
  0
ARC
  8
0
 62
7
  6
CONTINUOUS
 10
50.9422336633
 20
228.336503948
 40
2.5
 50
224.5239289046
 51
258.8745595634
  0
ARC
  8
0
 62
7
  6
CONTINUOUS
 10
50.9422336633
 20
231.7204685291
 40
2.5
 50
101.1254404366
 51
135.4760710954
  0
ARC
  8
0
 62
7
  6
CONTINUOUS
 10
53.9273034558
 20
202.4834862385
 40
2.0
 50
270.0
 51
309.0
  0
ARC
  8
0
 62
7
  6
CONTINUOUS
 10
53.9273034558
 20
205.1834862385
 40
2.0
 50
51.0
 51
90.0
  0
ARC
  8
0
 62
7
  6
CONTINUOUS
 10
53.9273034558
 20
215.1834862385
 40
2.0
 50
270.0
 51
309.0
  0
ARC
  8
0
 62
7
  6
CONTINUOUS
 10
53.789839512
 20
196.5834862385
 40
0.85
 50
359.5082007495
 51
360.0
  0
ARC
  8
0
 62
7
  6
CONTINUOUS
 10
53.789839512
 20
198.3834862385
 40
0.85
 50
0.0
 51
0.4917992505
  0
ARC
  8
0
 62
7
  6
CONTINUOUS
 10
53.479839512
 20
213.4834862385
 40
0.3
 50
269.999989208
 51
360.0
  0
ARC
  8
0
 62
7
  6
CONTINUOUS
 10
53.479839512
 20
206.8834862385
 40
0.3
 50
0.0
 51
90.0000107934
  0
ARC
  8
0
 62
7
  6
CONTINUOUS
 10
53.479839512
 20
200.7834862385
 40
0.3
 50
269.999989208
 51
360.0
  0
ARC
  8
0
 62
7
  6
CONTINUOUS
 10
53.479839512
 20
219.5834862385
 40
0.3
 50
0.0
 51
90.0000107934
  0
ARC
  8
0
 62
7
  6
CONTINUOUS
 10
53.479839512
 20
233.8734862385
 40
0.3
 50
0.0
 51
90.0000107273
  0
ARC
  8
0
 62
7
  6
CONTINUOUS
 10
53.479839512
 20
226.1834862385
 40
0.3
 50
269.9999891419
 51
360.0
  0
ARC
  8
0
 62
7
  6
CONTINUOUS
 10
53.9273034558
 20
217.8834862385
 40
2.0
 50
51.0
 51
90.0
  0
ARC
  8
0
 62
7
  6
CONTINUOUS
 10
53.928538353
 20
227.8834862385
 40
2.0
 50
270.0
 51
309.0
  0
ARC
  8
0
 62
7
  6
CONTINUOUS
 10
53.9260685587
 20
232.1734862385
 40
2.0
 50
51.0
 51
90.0
  0
ARC
  8
0
 62
7
  6
CONTINUOUS
 10
57.339839512
 20
53.4334862385
 40
2.0
 50
270.0
 51
0.0000027254
  0
ARC
  8
0
 62
7
  6
CONTINUOUS
 10
59.1936104654
 20
69.1334862385
 40
2.0
 50
231.0
 51
270.0
  0
ARC
  8
0
 62
7
  6
CONTINUOUS
 10
59.1923755682
 20
71.8334862385
 40
2.0
 50
90.0
 51
129.0
  0
ARC
  8
0
 62
7
  6
CONTINUOUS
 10
59.639839512
 20
73.5334862385
 40
0.3
 50
90.0000000041
 51
180.0
  0
ARC
  8
0
 62
7
  6
CONTINUOUS
 10
59.639839512
 20
67.4334862385
 40
0.3
 50
180.0
 51
269.9999999959
  0
ARC
  8
0
 62
7
  6
CONTINUOUS
 10
59.1923755682
 20
84.5334862385
 40
2.0
 50
90.0
 51
129.0
  0
ARC
  8
0
 62
7
  6
CONTINUOUS
 10
59.1923755682
 20
81.8334862385
 40
2.0
 50
231.0
 51
270.0
  0
ARC
  8
0
 62
7
  6
CONTINUOUS
 10
59.329839512
 20
88.6334862385
 40
0.85
 50
180.0
 51
270.0
  0
ARC
  8
0
 62
7
  6
CONTINUOUS
 10
59.1923755682
 20
94.5334862385
 40
2.0
 50
231.0
 51
270.0
  0
ARC
  8
0
 62
7
  6
CONTINUOUS
 10
59.1923755682
 20
97.2334862385
 40
2.0
 50
90.0
 51
129.0
  0
ARC
  8
0
 62
7
  6
CONTINUOUS
 10
59.329839512
 20
90.4334862385
 40
0.85
 50
179.5275930914
 51
180.0
  0
ARC
  8
0
 62
7
  6
CONTINUOUS
 10
59.639839512
 20
86.2334862385
 40
0.3
 50
90.0000000041
 51
180.0
  0
ARC
  8
0
 62
7
  6
CONTINUOUS
 10
59.639839512
 20
80.1334862385
 40
0.3
 50
180.0
 51
269.9999999959
  0
ARC
  8
0
 62
7
  6
CONTINUOUS
 10
59.639839512
 20
98.9334862385
 40
0.3
 50
90.0000000041
 51
180.0
  0
ARC
  8
0
 62
7
  6
CONTINUOUS
 10
59.639839512
 20
92.8334862385
 40
0.3
 50
180.0
 51
269.9999999959
  0
ARC
  8
0
 62
7
  6
CONTINUOUS
 10
62.1774453608
 20
57.0924685291
 40
2.5
 50
44.5239289046
 51
78.8745595634
  0
ARC
  8
0
 62
7
  6
CONTINUOUS
 10
63.359839512
 20
66.2834862385
 40
0.85
 50
0.0
 51
90.0
  0
ARC
  8
0
 62
7
  6
CONTINUOUS
 10
65.059839512
 20
64.2834862385
 40
0.85
 50
180.0
 51
270.0
  0
ARC
  8
0
 62
7
  6
CONTINUOUS
 10
59.1923755682
 20
107.2334862385
 40
2.0
 50
231.0
 51
270.0
  0
ARC
  8
0
 62
7
  6
CONTINUOUS
 10
59.1923755682
 20
109.9334862385
 40
2.0
 50
90.0
 51
129.0
  0
ARC
  8
0
 62
7
  6
CONTINUOUS
 10
59.329839512
 20
101.3334862385
 40
0.85
 50
180.0
 51
180.4724069086
  0
ARC
  8
0
 62
7
  6
CONTINUOUS
 10
59.329839512
 20
103.1334862385
 40
0.85
 50
179.5275930914
 51
180.0
  0
ARC
  8
0
 62
7
  6
CONTINUOUS
 10
59.1923755682
 20
119.9334862385
 40
2.0
 50
231.0
 51
270.0
  0
ARC
  8
0
 62
7
  6
CONTINUOUS
 10
59.1923755682
 20
122.6334862385
 40
2.0
 50
90.0
 51
129.0
  0
ARC
  8
0
 62
7
  6
CONTINUOUS
 10
59.329839512
 20
114.0334862385
 40
0.85
 50
180.0
 51
180.4724069086
  0
ARC
  8
0
 62
7
  6
CONTINUOUS
 10
59.329839512
 20
115.8334862385
 40
0.85
 50
179.5275930914
 51
180.0
  0
ARC
  8
0
 62
7
  6
CONTINUOUS
 10
59.639839512
 20
111.6334862385
 40
0.3
 50
90.0000000041
 51
180.0
  0
ARC
  8
0
 62
7
  6
CONTINUOUS
 10
59.639839512
 20
105.5334862385
 40
0.3
 50
180.0
 51
269.9999999959
  0
ARC
  8
0
 62
7
  6
CONTINUOUS
 10
59.639839512
 20
118.2334862385
 40
0.3
 50
180.0
 51
269.9999999959
  0
ARC
  8
0
 62
7
  6
CONTINUOUS
 10
59.1923755682
 20
132.6334862385
 40
2.0
 50
231.0
 51
270.0
  0
ARC
  8
0
 62
7
  6
CONTINUOUS
 10
59.329839512
 20
126.7334862385
 40
0.85
 50
180.0
 51
180.4724069086
  0
ARC
  8
0
 62
7
  6
CONTINUOUS
 10
59.329839512
 20
128.5334862385
 40
0.85
 50
179.5275930914
 51
180.0
  0
ARC
  8
0
 62
7
  6
CONTINUOUS
 10
59.1923755682
 20
135.3334862385
 40
2.0
 50
90.0
 51
129.0
  0
ARC
  8
0
 62
7
  6
CONTINUOUS
 10
59.1923755682
 20
145.3334862385
 40
2.0
 50
231.0
 51
270.0
  0
ARC
  8
0
 62
7
  6
CONTINUOUS
 10
59.329839512
 20
139.4334862385
 40
0.85
 50
180.0
 51
180.4724069086
  0
ARC
  8
0
 62
7
  6
CONTINUOUS
 10
59.329839512
 20
141.2334862385
 40
0.85
 50
179.5275930914
 51
180.0
  0
ARC
  8
0
 62
7
  6
CONTINUOUS
 10
59.639839512
 20
130.9334862385
 40
0.3
 50
180.0
 51
269.9999999959
  0
ARC
  8
0
 62
7
  6
CONTINUOUS
 10
59.639839512
 20
124.3334862385
 40
0.3
 50
90.0000000041
 51
180.0
  0
ARC
  8
0
 62
7
  6
CONTINUOUS
 10
59.639839512
 20
143.6334862385
 40
0.3
 50
180.0
 51
269.9999999959
  0
ARC
  8
0
 62
7
  6
CONTINUOUS
 10
59.639839512
 20
137.0334862385
 40
0.3
 50
90.0000000041
 51
180.0
  0
ARC
  8
0
 62
7
  6
CONTINUOUS
 10
62.1774453608
 20
145.786503948
 40
2.5
 50
281.1254404366
 51
315.4760710954
  0
ARC
  8
0
 62
7
  6
CONTINUOUS
 10
66.5422336633
 20
57.0924685291
 40
2.5
 50
101.1254404366
 51
135.4760710954
  0
ARC
  8
0
 62
7
  6
CONTINUOUS
 10
68.259839512
 20
88.6334862385
 40
0.85
 50
270.0
 51
360.0
  0
ARC
  8
0
 62
7
  6
CONTINUOUS
 10
68.259839512
 20
90.4334862385
 40
0.85
 50
0.0
 51
90.0
  0
ARC
  8
0
 62
7
  6
CONTINUOUS
 10
72.959839512
 20
62.5834862385
 40
0.85
 50
0.0
 51
90.0000025566
  0
ARC
  8
0
 62
7
  6
CONTINUOUS
 10
72.959839512
 20
91.6834862385
 40
0.85
 50
0.0
 51
90.0000002139
  0
ARC
  8
0
 62
7
  6
CONTINUOUS
 10
72.959839512
 20
87.3834862385
 40
0.85
 50
269.9999997861
 51
360.0
  0
ARC
  8
0
 62
7
  6
CONTINUOUS
 10
72.959839512
 20
78.9834862385
 40
0.85
 50
0.0
 51
90.0000002139
  0
ARC
  8
0
 62
7
  6
CONTINUOUS
 10
72.959839512
 20
74.6834862385
 40
0.85
 50
269.9999997861
 51
360.0
  0
ARC
  8
0
 62
7
  6
CONTINUOUS
 10
72.959839512
 20
60.3954862385
 40
0.85
 50
269.9999997861
 51
360.0
  0
ARC
  8
0
 62
7
  6
CONTINUOUS
 10
68.259839512
 20
103.1334862385
 40
0.85
 50
0.0
 51
90.0
  0
ARC
  8
0
 62
7
  6
CONTINUOUS
 10
68.259839512
 20
115.8334862385
 40
0.85
 50
0.0
 51
90.0
  0
ARC
  8
0
 62
7
  6
CONTINUOUS
 10
68.259839512
 20
101.3334862385
 40
0.85
 50
270.0
 51
360.0
  0
ARC
  8
0
 62
7
  6
CONTINUOUS
 10
68.259839512
 20
114.0334862385
 40
0.85
 50
270.0
 51
360.0
  0
ARC
  8
0
 62
7
  6
CONTINUOUS
 10
66.5422336633
 20
145.786503948
 40
2.5
 50
224.5239289046
 51
258.8745595634
  0
ARC
  8
0
 62
7
  6
CONTINUOUS
 10
68.259839512
 20
128.5334862385
 40
0.85
 50
0.0
 51
90.0
  0
ARC
  8
0
 62
7
  6
CONTINUOUS
 10
68.259839512
 20
126.7334862385
 40
0.85
 50
270.0
 51
360.0
  0
ARC
  8
0
 62
7
  6
CONTINUOUS
 10
68.259839512
 20
141.2334862385
 40
0.85
 50
0.0
 51
90.0
  0
ARC
  8
0
 62
7
  6
CONTINUOUS
 10
68.259839512
 20
139.4334862385
 40
0.85
 50
270.0
 51
360.0
  0
ARC
  8
0
 62
7
  6
CONTINUOUS
 10
72.959839512
 20
117.0834862385
 40
0.85
 50
0.0
 51
90.0000002139
  0
ARC
  8
0
 62
7
  6
CONTINUOUS
 10
72.959839512
 20
112.7834862385
 40
0.85
 50
269.9999997861
 51
360.0
  0
ARC
  8
0
 62
7
  6
CONTINUOUS
 10
72.959839512
 20
104.3834862385
 40
0.85
 50
0.0
 51
90.0000002139
  0
ARC
  8
0
 62
7
  6
CONTINUOUS
 10
72.959839512
 20
100.0834862385
 40
0.85
 50
269.9999997861
 51
360.0
  0
ARC
  8
0
 62
7
  6
CONTINUOUS
 10
72.959839512
 20
142.4834862385
 40
0.85
 50
0.0
 51
90.0000002139
  0
ARC
  8
0
 62
7
  6
CONTINUOUS
 10
72.959839512
 20
138.1834862385
 40
0.85
 50
269.9999997861
 51
360.0
  0
ARC
  8
0
 62
7
  6
CONTINUOUS
 10
72.959839512
 20
129.7834862385
 40
0.85
 50
0.0
 51
90.0000002139
  0
ARC
  8
0
 62
7
  6
CONTINUOUS
 10
72.959839512
 20
125.4834862385
 40
0.85
 50
269.9999997861
 51
360.0
  0
ARC
  8
0
 62
7
  6
CONTINUOUS
 10
59.1923755682
 20
148.0334862385
 40
2.0
 50
90.0
 51
129.0
  0
ARC
  8
0
 62
7
  6
CONTINUOUS
 10
59.1923755682
 20
158.0334862385
 40
2.0
 50
231.0
 51
270.0
  0
ARC
  8
0
 62
7
  6
CONTINUOUS
 10
59.1923755682
 20
160.7334862385
 40
2.0
 50
90.0
 51
129.0
  0
ARC
  8
0
 62
7
  6
CONTINUOUS
 10
59.329839512
 20
152.1334862385
 40
0.85
 50
180.0
 51
180.4724069086
  0
ARC
  8
0
 62
7
  6
CONTINUOUS
 10
59.329839512
 20
153.9334862385
 40
0.85
 50
179.5275930914
 51
180.0
  0
ARC
  8
0
 62
7
  6
CONTINUOUS
 10
59.329839512
 20
164.8334862385
 40
0.85
 50
180.0
 51
180.4724069086
  0
ARC
  8
0
 62
7
  6
CONTINUOUS
 10
59.329839512
 20
166.6334862385
 40
0.85
 50
179.5275930914
 51
180.0
  0
ARC
  8
0
 62
7
  6
CONTINUOUS
 10
59.639839512
 20
169.0334862385
 40
0.3
 50
180.0
 51
269.9999999959
  0
ARC
  8
0
 62
7
  6
CONTINUOUS
 10
59.639839512
 20
162.4334862385
 40
0.3
 50
90.0000000041
 51
180.0
  0
ARC
  8
0
 62
7
  6
CONTINUOUS
 10
59.639839512
 20
156.3334862385
 40
0.3
 50
180.0
 51
269.9999999959
  0
ARC
  8
0
 62
7
  6
CONTINUOUS
 10
59.639839512
 20
149.7334862385
 40
0.3
 50
90.0000000041
 51
180.0
  0
ARC
  8
0
 62
7
  6
CONTINUOUS
 10
59.1923755682
 20
170.7334862385
 40
2.0
 50
231.0
 51
270.0
  0
ARC
  8
0
 62
7
  6
CONTINUOUS
 10
59.1923755682
 20
173.4334862385
 40
2.0
 50
90.0
 51
129.0
  0
ARC
  8
0
 62
7
  6
CONTINUOUS
 10
59.329839512
 20
177.5334862385
 40
0.85
 50
180.0
 51
180.4724069086
  0
ARC
  8
0
 62
7
  6
CONTINUOUS
 10
59.329839512
 20
179.3334862385
 40
0.85
 50
179.5275930914
 51
180.0
  0
ARC
  8
0
 62
7
  6
CONTINUOUS
 10
59.1923755682
 20
183.4334862385
 40
2.0
 50
231.0
 51
270.0
  0
ARC
  8
0
 62
7
  6
CONTINUOUS
 10
59.1923755682
 20
186.1334862385
 40
2.0
 50
90.0
 51
129.0
  0
ARC
  8
0
 62
7
  6
CONTINUOUS
 10
59.329839512
 20
192.0334862385
 40
0.85
 50
179.5275930914
 51
180.0
  0
ARC
  8
0
 62
7
  6
CONTINUOUS
 10
59.639839512
 20
175.1334862385
 40
0.3
 50
90.0000000041
 51
180.0
  0
ARC
  8
0
 62
7
  6
CONTINUOUS
 10
59.639839512
 20
187.8334862385
 40
0.3
 50
90.0000000041
 51
180.0
  0
ARC
  8
0
 62
7
  6
CONTINUOUS
 10
59.639839512
 20
181.7334862385
 40
0.3
 50
180.0
 51
269.9999999959
  0
ARC
  8
0
 62
7
  6
CONTINUOUS
 10
62.1774453608
 20
147.5804685291
 40
2.5
 50
44.5239289046
 51
78.8745595634
  0
ARC
  8
0
 62
7
  6
CONTINUOUS
 10
59.1923755682
 20
196.1334862385
 40
2.0
 50
231.0
 51
270.0
  0
ARC
  8
0
 62
7
  6
CONTINUOUS
 10
59.1923755682
 20
198.8334862385
 40
2.0
 50
90.0
 51
129.0
  0
ARC
  8
0
 62
7
  6
CONTINUOUS
 10
59.329839512
 20
202.9334862385
 40
0.85
 50
180.0
 51
180.4724069086
  0
ARC
  8
0
 62
7
  6
CONTINUOUS
 10
59.1923755682
 20
208.8334862385
 40
2.0
 50
231.0
 51
270.0
  0
ARC
  8
0
 62
7
  6
CONTINUOUS
 10
59.1923755682
 20
211.5334862385
 40
2.0
 50
90.0
 51
129.0
  0
ARC
  8
0
 62
7
  6
CONTINUOUS
 10
59.329839512
 20
204.7334862385
 40
0.85
 50
90.0
 51
180.0
  0
ARC
  8
0
 62
7
  6
CONTINUOUS
 10
59.639839512
 20
200.5334862385
 40
0.3
 50
90.0000000041
 51
180.0
  0
ARC
  8
0
 62
7
  6
CONTINUOUS
 10
59.639839512
 20
194.4334862385
 40
0.3
 50
180.0
 51
269.9999999959
  0
ARC
  8
0
 62
7
  6
CONTINUOUS
 10
59.639839512
 20
213.2334862385
 40
0.3
 50
90.0000000041
 51
180.0
  0
ARC
  8
0
 62
7
  6
CONTINUOUS
 10
59.639839512
 20
207.1334862385
 40
0.3
 50
180.0
 51
269.9999999959
  0
ARC
  8
0
 62
7
  6
CONTINUOUS
 10
57.339839512
 20
239.9334862385
 40
2.0
 50
359.9999971739
 51
90.0
  0
ARC
  8
0
 62
7
  6
CONTINUOUS
 10
59.1923755682
 20
221.5334862385
 40
2.0
 50
231.0
 51
270.0
  0
ARC
  8
0
 62
7
  6
CONTINUOUS
 10
59.1936104654
 20
224.2334862385
 40
2.0
 50
90.0
 51
129.0
  0
ARC
  8
0
 62
7
  6
CONTINUOUS
 10
59.639839512
 20
225.9334862385
 40
0.3
 50
90.0000000042
 51
180.0
  0
ARC
  8
0
 62
7
  6
CONTINUOUS
 10
59.639839512
 20
219.8334862385
 40
0.3
 50
180.0
 51
269.9999999959
  0
ARC
  8
0
 62
7
  6
CONTINUOUS
 10
62.1774453608
 20
236.274503948
 40
2.5
 50
281.1254404366
 51
315.4760710954
  0
ARC
  8
0
 62
7
  6
CONTINUOUS
 10
65.059839512
 20
229.0834862385
 40
0.85
 50
90.0
 51
180.0
  0
ARC
  8
0
 62
7
  6
CONTINUOUS
 10
63.359839512
 20
227.0834862385
 40
0.85
 50
270.0
 51
360.0
  0
ARC
  8
0
 62
7
  6
CONTINUOUS
 10
66.5422336633
 20
147.5804685291
 40
2.5
 50
101.1254404366
 51
135.4760710954
  0
ARC
  8
0
 62
7
  6
CONTINUOUS
 10
68.259839512
 20
153.9334862385
 40
0.85
 50
0.0
 51
90.0
  0
ARC
  8
0
 62
7
  6
CONTINUOUS
 10
68.259839512
 20
152.1334862385
 40
0.85
 50
270.0
 51
360.0
  0
ARC
  8
0
 62
7
  6
CONTINUOUS
 10
68.259839512
 20
166.6334862385
 40
0.85
 50
0.0
 51
90.0
  0
ARC
  8
0
 62
7
  6
CONTINUOUS
 10
68.259839512
 20
164.8334862385
 40
0.85
 50
270.0
 51
360.0
  0
ARC
  8
0
 62
7
  6
CONTINUOUS
 10
68.259839512
 20
179.3334862385
 40
0.85
 50
0.0
 51
90.0
  0
ARC
  8
0
 62
7
  6
CONTINUOUS
 10
68.259839512
 20
192.0334862385
 40
0.85
 50
0.0
 51
90.0
  0
ARC
  8
0
 62
7
  6
CONTINUOUS
 10
68.259839512
 20
177.5334862385
 40
0.85
 50
270.0
 51
360.0
  0
ARC
  8
0
 62
7
  6
CONTINUOUS
 10
72.959839512
 20
167.8834862385
 40
0.85
 50
0.0
 51
90.0000002139
  0
ARC
  8
0
 62
7
  6
CONTINUOUS
 10
72.959839512
 20
163.5834862385
 40
0.85
 50
269.9999997861
 51
360.0
  0
ARC
  8
0
 62
7
  6
CONTINUOUS
 10
72.959839512
 20
155.1834862385
 40
0.85
 50
0.0
 51
90.0000002139
  0
ARC
  8
0
 62
7
  6
CONTINUOUS
 10
72.959839512
 20
150.8834862385
 40
0.85
 50
269.9999997861
 51
360.0
  0
ARC
  8
0
 62
7
  6
CONTINUOUS
 10
72.959839512
 20
193.2834862385
 40
0.85
 50
0.0
 51
90.0000002139
  0
ARC
  8
0
 62
7
  6
CONTINUOUS
 10
72.959839512
 20
188.9834862385
 40
0.85
 50
269.9999997861
 51
360.0
  0
ARC
  8
0
 62
7
  6
CONTINUOUS
 10
72.959839512
 20
180.5834862385
 40
0.85
 50
0.0
 51
90.0000002139
  0
ARC
  8
0
 62
7
  6
CONTINUOUS
 10
72.959839512
 20
176.2834862385
 40
0.85
 50
269.9999997861
 51
360.0
  0
ARC
  8
0
 62
7
  6
CONTINUOUS
 10
68.259839512
 20
204.7334862385
 40
0.85
 50
0.0
 51
90.0
  0
ARC
  8
0
 62
7
  6
CONTINUOUS
 10
68.259839512
 20
202.9334862385
 40
0.85
 50
270.0
 51
360.0
  0
ARC
  8
0
 62
7
  6
CONTINUOUS
 10
66.5422336633
 20
236.274503948
 40
2.5
 50
224.5239289046
 51
258.8745595634
  0
ARC
  8
0
 62
7
  6
CONTINUOUS
 10
72.959839512
 20
218.6834862385
 40
0.85
 50
0.0
 51
90.0000002139
  0
ARC
  8
0
 62
7
  6
CONTINUOUS
 10
72.959839512
 20
214.3834862385
 40
0.85
 50
269.9999997861
 51
360.0
  0
ARC
  8
0
 62
7
  6
CONTINUOUS
 10
72.959839512
 20
205.9834862385
 40
0.85
 50
0.0
 51
90.0000002139
  0
ARC
  8
0
 62
7
  6
CONTINUOUS
 10
72.959839512
 20
201.6834862385
 40
0.85
 50
269.9999997861
 51
360.0
  0
ARC
  8
0
 62
7
  6
CONTINUOUS
 10
72.959839512
 20
230.7834862385
 40
0.85
 50
269.9999974434
 51
360.0
  0
ARC
  8
0
 62
7
  6
CONTINUOUS
 10
72.959839512
 20
232.9714862385
 40
0.85
 50
0.0
 51
90.0000002139
  0
ARC
  8
0
 62
7
  6
CONTINUOUS
 10
140.4419724771
 20
52.2834862385
 40
0.85
 50
243.7078849887
 51
270.0
  0
ARC
  8
0
 62
7
  6
CONTINUOUS
 10
140.4419724771
 20
58.3434862385
 40
0.85
 50
90.0
 51
180.0
  0
ARC
  8
0
 62
7
  6
CONTINUOUS
 10
140.4419724771
 20
68.3334862385
 40
0.85
 50
180.0
 51
270.0
  0
ARC
  8
0
 62
7
  6
CONTINUOUS
 10
140.4419724771
 20
72.6334862385
 40
0.85
 50
90.0
 51
180.0
  0
ARC
  8
0
 62
7
  6
CONTINUOUS
 10
140.4419724771
 20
81.0334862385
 40
0.85
 50
180.0
 51
270.0
  0
ARC
  8
0
 62
7
  6
CONTINUOUS
 10
140.4419724771
 20
85.3334862385
 40
0.85
 50
90.0
 51
180.0
  0
ARC
  8
0
 62
7
  6
CONTINUOUS
 10
140.4419724771
 20
93.7334862385
 40
0.85
 50
180.0
 51
270.0
  0
ARC
  8
0
 62
7
  6
CONTINUOUS
 10
140.4419724771
 20
98.0334862385
 40
0.85
 50
90.0
 51
180.0
  0
ARC
  8
0
 62
7
  6
CONTINUOUS
 10
140.4419724771
 20
106.4334862385
 40
0.85
 50
180.0
 51
270.0
  0
ARC
  8
0
 62
7
  6
CONTINUOUS
 10
140.4419724771
 20
110.7334862385
 40
0.85
 50
90.0
 51
180.0
  0
ARC
  8
0
 62
7
  6
CONTINUOUS
 10
140.4419724771
 20
119.1334862385
 40
0.85
 50
180.0
 51
270.0
  0
ARC
  8
0
 62
7
  6
CONTINUOUS
 10
140.4419724771
 20
123.4334862385
 40
0.85
 50
90.0
 51
180.0
  0
ARC
  8
0
 62
7
  6
CONTINUOUS
 10
140.4419724771
 20
131.8334862385
 40
0.85
 50
180.0
 51
270.0
  0
ARC
  8
0
 62
7
  6
CONTINUOUS
 10
140.4419724771
 20
144.5334862385
 40
0.85
 50
180.0
 51
270.0
  0
ARC
  8
0
 62
7
  6
CONTINUOUS
 10
140.4419724771
 20
136.1334862385
 40
0.85
 50
90.0
 51
180.0
  0
ARC
  8
0
 62
7
  6
CONTINUOUS
 10
141.8095783258
 20
65.0304685291
 40
2.5
 50
44.5239289046
 51
78.8745595634
  0
ARC
  8
0
 62
7
  6
CONTINUOUS
 10
141.8095783258
 20
61.646503948
 40
2.5
 50
281.1254404366
 51
315.4760710954
  0
ARC
  8
0
 62
7
  6
CONTINUOUS
 10
141.8095783258
 20
141.2304685291
 40
2.5
 50
44.5239289046
 51
78.8745595634
  0
ARC
  8
0
 62
7
  6
CONTINUOUS
 10
140.4419724771
 20
148.8334862385
 40
0.85
 50
90.0
 51
180.0
  0
ARC
  8
0
 62
7
  6
CONTINUOUS
 10
140.4419724771
 20
157.2334862385
 40
0.85
 50
180.0
 51
270.0
  0
ARC
  8
0
 62
7
  6
CONTINUOUS
 10
140.4419724771
 20
161.5334862385
 40
0.85
 50
90.0
 51
180.0
  0
ARC
  8
0
 62
7
  6
CONTINUOUS
 10
140.4419724771
 20
169.9334862385
 40
0.85
 50
180.0
 51
270.0
  0
ARC
  8
0
 62
7
  6
CONTINUOUS
 10
140.4419724771
 20
174.2334862385
 40
0.85
 50
90.0
 51
180.0
  0
ARC
  8
0
 62
7
  6
CONTINUOUS
 10
140.4419724771
 20
182.6334862385
 40
0.85
 50
180.0
 51
270.0
  0
ARC
  8
0
 62
7
  6
CONTINUOUS
 10
140.4419724771
 20
186.9334862385
 40
0.85
 50
90.0
 51
180.0
  0
ARC
  8
0
 62
7
  6
CONTINUOUS
 10
140.4419724771
 20
195.3334862385
 40
0.85
 50
180.0
 51
270.0
  0
ARC
  8
0
 62
7
  6
CONTINUOUS
 10
140.4419724771
 20
199.6334862385
 40
0.85
 50
90.0
 51
180.0
  0
ARC
  8
0
 62
7
  6
CONTINUOUS
 10
140.4419724771
 20
208.0334862385
 40
0.85
 50
180.0
 51
270.0
  0
ARC
  8
0
 62
7
  6
CONTINUOUS
 10
140.4419724771
 20
212.3334862385
 40
0.85
 50
90.0
 51
180.0
  0
ARC
  8
0
 62
7
  6
CONTINUOUS
 10
140.4419724771
 20
220.7334862385
 40
0.85
 50
180.0
 51
270.0
  0
ARC
  8
0
 62
7
  6
CONTINUOUS
 10
140.4419724771
 20
225.0334862385
 40
0.85
 50
90.0
 51
180.0
  0
ARC
  8
0
 62
7
  6
CONTINUOUS
 10
140.4419724771
 20
235.0234862385
 40
0.85
 50
180.0
 51
270.0
  0
ARC
  8
0
 62
7
  6
CONTINUOUS
 10
140.4419724771
 20
241.0834862385
 40
0.85
 50
90.0
 51
116.2921150113
  0
ARC
  8
0
 62
7
  6
CONTINUOUS
 10
141.8095783258
 20
152.136503948
 40
2.5
 50
281.1254404366
 51
315.4760710954
  0
ARC
  8
0
 62
7
  6
CONTINUOUS
 10
141.8095783258
 20
228.336503948
 40
2.5
 50
281.1254404366
 51
315.4760710954
  0
ARC
  8
0
 62
7
  6
CONTINUOUS
 10
141.8095783258
 20
231.7204685291
 40
2.5
 50
44.5239289046
 51
78.8745595634
  0
ARC
  8
0
 62
7
  6
CONTINUOUS
 10
146.1743666283
 20
65.0304685291
 40
2.5
 50
101.1254404366
 51
135.4760710954
  0
ARC
  8
0
 62
7
  6
CONTINUOUS
 10
146.1743666283
 20
61.646503948
 40
2.5
 50
224.5239289046
 51
258.8745595634
  0
ARC
  8
0
 62
7
  6
CONTINUOUS
 10
147.5419724771
 20
52.2834862385
 40
0.85
 50
270.0
 51
296.2921150113
  0
ARC
  8
0
 62
7
  6
CONTINUOUS
 10
147.5419724771
 20
58.3434862385
 40
0.85
 50
0.0
 51
90.0
  0
ARC
  8
0
 62
7
  6
CONTINUOUS
 10
147.5419724771
 20
68.3334862385
 40
0.85
 50
270.0
 51
360.0
  0
ARC
  8
0
 62
7
  6
CONTINUOUS
 10
147.5419724771
 20
72.6334862385
 40
0.85
 50
0.0
 51
90.0
  0
ARC
  8
0
 62
7
  6
CONTINUOUS
 10
147.5419724771
 20
81.0334862385
 40
0.85
 50
270.0
 51
360.0
  0
ARC
  8
0
 62
7
  6
CONTINUOUS
 10
147.5419724771
 20
85.3334862385
 40
0.85
 50
0.0
 51
90.0
  0
ARC
  8
0
 62
7
  6
CONTINUOUS
 10
147.5419724771
 20
93.7334862385
 40
0.85
 50
270.0
 51
360.0
  0
ARC
  8
0
 62
7
  6
CONTINUOUS
 10
147.5419724771
 20
98.0334862385
 40
0.85
 50
0.0
 51
90.0
  0
ARC
  8
0
 62
7
  6
CONTINUOUS
 10
146.1743666283
 20
141.2304685291
 40
2.5
 50
101.1254404366
 51
135.4760710954
  0
ARC
  8
0
 62
7
  6
CONTINUOUS
 10
147.5419724771
 20
106.4334862385
 40
0.85
 50
270.0
 51
360.0
  0
ARC
  8
0
 62
7
  6
CONTINUOUS
 10
147.5419724771
 20
110.7334862385
 40
0.85
 50
0.0
 51
90.0
  0
ARC
  8
0
 62
7
  6
CONTINUOUS
 10
147.5419724771
 20
119.1334862385
 40
0.85
 50
270.0
 51
360.0
  0
ARC
  8
0
 62
7
  6
CONTINUOUS
 10
147.5419724771
 20
123.4334862385
 40
0.85
 50
0.0
 51
90.0
  0
ARC
  8
0
 62
7
  6
CONTINUOUS
 10
147.5419724771
 20
131.8334862385
 40
0.85
 50
270.0
 51
360.0
  0
ARC
  8
0
 62
7
  6
CONTINUOUS
 10
147.5419724771
 20
144.5334862385
 40
0.85
 50
270.0
 51
360.0
  0
ARC
  8
0
 62
7
  6
CONTINUOUS
 10
147.5419724771
 20
136.1334862385
 40
0.85
 50
0.0
 51
90.0
  0
ARC
  8
0
 62
7
  6
CONTINUOUS
 10
150.8919724771
 20
94.9834862385
 40
0.85
 50
270.0
 51
360.0
  0
ARC
  8
0
 62
7
  6
CONTINUOUS
 10
150.8919724771
 20
88.6334862385
 40
0.85
 50
270.0
 51
360.0
  0
ARC
  8
0
 62
7
  6
CONTINUOUS
 10
150.8919724771
 20
96.7834862385
 40
0.85
 50
0.0
 51
90.0
  0
ARC
  8
0
 62
7
  6
CONTINUOUS
 10
150.8919724771
 20
90.4334862385
 40
0.85
 50
0.0
 51
90.0
  0
ARC
  8
0
 62
7
  6
CONTINUOUS
 10
150.8919724771
 20
107.6834862385
 40
0.85
 50
270.0
 51
360.0
  0
ARC
  8
0
 62
7
  6
CONTINUOUS
 10
150.8919724771
 20
120.3834862385
 40
0.85
 50
270.0
 51
360.0
  0
ARC
  8
0
 62
7
  6
CONTINUOUS
 10
150.8919724771
 20
133.0834862385
 40
0.85
 50
270.0
 51
360.0
  0
ARC
  8
0
 62
7
  6
CONTINUOUS
 10
150.8919724771
 20
145.7834862385
 40
0.85
 50
270.0
 51
360.0
  0
ARC
  8
0
 62
7
  6
CONTINUOUS
 10
150.8919724771
 20
109.4834862385
 40
0.85
 50
0.0
 51
90.0
  0
ARC
  8
0
 62
7
  6
CONTINUOUS
 10
150.8919724771
 20
122.1834862385
 40
0.85
 50
0.0
 51
90.0
  0
ARC
  8
0
 62
7
  6
CONTINUOUS
 10
150.8919724771
 20
134.8834862385
 40
0.85
 50
0.0
 51
90.0
  0
ARC
  8
0
 62
7
  6
CONTINUOUS
 10
150.8919724771
 20
101.3334862385
 40
0.85
 50
270.0
 51
360.0
  0
ARC
  8
0
 62
7
  6
CONTINUOUS
 10
150.8919724771
 20
103.1334862385
 40
0.85
 50
0.0
 51
90.0
  0
ARC
  8
0
 62
7
  6
CONTINUOUS
 10
150.8919724771
 20
114.0334862385
 40
0.85
 50
270.0
 51
360.0
  0
ARC
  8
0
 62
7
  6
CONTINUOUS
 10
150.8919724771
 20
115.8334862385
 40
0.85
 50
0.0
 51
90.0
  0
ARC
  8
0
 62
7
  6
CONTINUOUS
 10
150.8919724771
 20
126.7334862385
 40
0.85
 50
270.0
 51
360.0
  0
ARC
  8
0
 62
7
  6
CONTINUOUS
 10
150.8919724771
 20
128.5334862385
 40
0.85
 50
0.0
 51
90.0
  0
ARC
  8
0
 62
7
  6
CONTINUOUS
 10
150.8919724771
 20
139.4334862385
 40
0.85
 50
270.0
 51
360.0
  0
ARC
  8
0
 62
7
  6
CONTINUOUS
 10
150.8919724771
 20
141.2334862385
 40
0.85
 50
0.0
 51
90.0
  0
ARC
  8
0
 62
7
  6
CONTINUOUS
 10
146.1743666283
 20
152.136503948
 40
2.5
 50
224.5239289046
 51
258.8745595634
  0
ARC
  8
0
 62
7
  6
CONTINUOUS
 10
147.5419724771
 20
148.8334862385
 40
0.85
 50
0.0
 51
90.0
  0
ARC
  8
0
 62
7
  6
CONTINUOUS
 10
147.5419724771
 20
157.2334862385
 40
0.85
 50
270.0
 51
360.0
  0
ARC
  8
0
 62
7
  6
CONTINUOUS
 10
147.5419724771
 20
161.5334862385
 40
0.85
 50
0.0
 51
90.0
  0
ARC
  8
0
 62
7
  6
CONTINUOUS
 10
147.5419724771
 20
169.9334862385
 40
0.85
 50
270.0
 51
360.0
  0
ARC
  8
0
 62
7
  6
CONTINUOUS
 10
147.5419724771
 20
174.2334862385
 40
0.85
 50
0.0
 51
90.0
  0
ARC
  8
0
 62
7
  6
CONTINUOUS
 10
147.5419724771
 20
182.6334862385
 40
0.85
 50
270.0
 51
360.0
  0
ARC
  8
0
 62
7
  6
CONTINUOUS
 10
147.5419724771
 20
186.9334862385
 40
0.85
 50
0.0
 51
90.0
  0
ARC
  8
0
 62
7
  6
CONTINUOUS
 10
146.1743666283
 20
228.336503948
 40
2.5
 50
224.5239289046
 51
258.8745595634
  0
ARC
  8
0
 62
7
  6
CONTINUOUS
 10
146.1743666283
 20
231.7204685291
 40
2.5
 50
101.1254404366
 51
135.4760710954
  0
ARC
  8
0
 62
7
  6
CONTINUOUS
 10
147.5419724771
 20
195.3334862385
 40
0.85
 50
270.0
 51
360.0
  0
ARC
  8
0
 62
7
  6
CONTINUOUS
 10
147.5419724771
 20
199.6334862385
 40
0.85
 50
0.0
 51
90.0
  0
ARC
  8
0
 62
7
  6
CONTINUOUS
 10
147.5419724771
 20
208.0334862385
 40
0.85
 50
270.0
 51
360.0
  0
ARC
  8
0
 62
7
  6
CONTINUOUS
 10
147.5419724771
 20
212.3334862385
 40
0.85
 50
0.0
 51
90.0
  0
ARC
  8
0
 62
7
  6
CONTINUOUS
 10
147.5419724771
 20
220.7334862385
 40
0.85
 50
270.0
 51
360.0
  0
ARC
  8
0
 62
7
  6
CONTINUOUS
 10
147.5419724771
 20
225.0334862385
 40
0.85
 50
0.0
 51
90.0
  0
ARC
  8
0
 62
7
  6
CONTINUOUS
 10
147.5419724771
 20
235.0234862385
 40
0.85
 50
270.0
 51
360.0
  0
ARC
  8
0
 62
7
  6
CONTINUOUS
 10
147.5419724771
 20
241.0834862385
 40
0.85
 50
63.7078849887
 51
90.0
  0
ARC
  8
0
 62
7
  6
CONTINUOUS
 10
150.8919724771
 20
158.4834862385
 40
0.85
 50
270.0
 51
360.0
  0
ARC
  8
0
 62
7
  6
CONTINUOUS
 10
150.8919724771
 20
171.1834862385
 40
0.85
 50
270.0
 51
360.0
  0
ARC
  8
0
 62
7
  6
CONTINUOUS
 10
150.8919724771
 20
183.8834862385
 40
0.85
 50
270.0
 51
360.0
  0
ARC
  8
0
 62
7
  6
CONTINUOUS
 10
150.8919724771
 20
147.5834862385
 40
0.85
 50
0.0
 51
90.0
  0
ARC
  8
0
 62
7
  6
CONTINUOUS
 10
150.8919724771
 20
160.2834862385
 40
0.85
 50
0.0
 51
90.0
  0
ARC
  8
0
 62
7
  6
CONTINUOUS
 10
150.8919724771
 20
172.9834862385
 40
0.85
 50
0.0
 51
90.0
  0
ARC
  8
0
 62
7
  6
CONTINUOUS
 10
150.8919724771
 20
185.6834862385
 40
0.85
 50
0.0
 51
90.0
  0
ARC
  8
0
 62
7
  6
CONTINUOUS
 10
150.8919724771
 20
152.1334862385
 40
0.85
 50
270.0
 51
360.0
  0
ARC
  8
0
 62
7
  6
CONTINUOUS
 10
150.8919724771
 20
153.9334862385
 40
0.85
 50
0.0
 51
90.0
  0
ARC
  8
0
 62
7
  6
CONTINUOUS
 10
150.8919724771
 20
164.8334862385
 40
0.85
 50
270.0
 51
360.0
  0
ARC
  8
0
 62
7
  6
CONTINUOUS
 10
150.8919724771
 20
166.6334862385
 40
0.85
 50
0.0
 51
90.0
  0
ARC
  8
0
 62
7
  6
CONTINUOUS
 10
150.8919724771
 20
177.5334862385
 40
0.85
 50
270.0
 51
360.0
  0
ARC
  8
0
 62
7
  6
CONTINUOUS
 10
150.8919724771
 20
179.3334862385
 40
0.85
 50
0.0
 51
90.0
  0
ARC
  8
0
 62
7
  6
CONTINUOUS
 10
150.8919724771
 20
192.0334862385
 40
0.85
 50
0.0
 51
90.0
  0
ARC
  8
0
 62
7
  6
CONTINUOUS
 10
150.8919724771
 20
196.5834862385
 40
0.85
 50
270.0
 51
360.0
  0
ARC
  8
0
 62
7
  6
CONTINUOUS
 10
150.8919724771
 20
204.7334862385
 40
0.85
 50
0.0
 51
90.0
  0
ARC
  8
0
 62
7
  6
CONTINUOUS
 10
150.8919724771
 20
198.3834862385
 40
0.85
 50
0.0
 51
90.0
  0
ARC
  8
0
 62
7
  6
CONTINUOUS
 10
150.8919724771
 20
202.9334862385
 40
0.85
 50
270.0
 51
360.0
  0
ENDSEC
  0
EOF
