  0
SECTION
  2
HEADER
  9
$EXTMAX
 10
210.0
 20
297.0
 30
0.0
  9
$EXTMIN
 10
0.0
 20
0.0
 30
0.0
  9
$LIMMIN
 10
0.0
 20
0.0
  9
$LIMMAX
 10
210.0
 20
297.0
  9
$VIEWCTR
 10
105.0
 20
148.5
  9
$VIEWSIZE
 40
297.0
  9
$CLAYER
  8
0
  9
$LTSCALE
 40
19.36
  9
$CELTYPE
  6
BYLAYER
  9
$DIMSCALE
 40
1.0
  9
$DIMASZ
 40
3.5
  9
$DIMEXO
 40
2.2
  9
$DIMDLI
 40
13.376
  9
$DIMEXE
 40
6.336
  9
$DIMCEN
 40
3.168
  9
$DIMLFAC
 40
1.0
  9
$DIMBLK
  1
_FILLED
  9
$DIMTXT
 40
3.5
  9
$PDMODE
 70
3
  9
$PDSIZE
 40
0.3125
  9
$TILEMODE
 70
1
  0
ENDSEC
  0
SECTION
  2
TABLES
  0
TABLE
  2
LTYPE
 70
6
  0
LTYPE
  2
BYBLOCK
 70
0
  3

 72
65
 73
0
 40
0.0
  0
LTYPE
  2
BYLAYER
 70
0
  3

 72
65
 73
0
 40
0.0
  0
LTYPE
  2
CONTINUOUS
 70
64
  3
Solid line
 72
65
 73
0
 40
0.0
  0
LTYPE
  2
CENTER
 70
64
  3
____ _ ____ _ ____ _ ____ _ ____ _ ____ _ ____
 72
65
 73
4
 40
0.6
 49
0.375
 49
-0.075
 49
0.075
 49
-0.075
  0
LTYPE
  2
HIDDEN
 70
64
  3
- - - - - - - - - - - - - - - - - - - -
 72
65
 73
2
 40
0.2
 49
0.1
 49
-0.1
  0
LTYPE
  2
PHANTOM
 70
64
  3
_____ _ _ _____ _ _ _____ _ _ _____
 72
65
 73
6
 40
0.8
 49
0.45
 49
-0.05
 49
0.1
 49
-0.05
 49
0.1
 49
-0.05
  0
LTYPE
  2
DOT
 70
64
  3
. . . . . . . . . . . . . . . . . . . .
 72
65
 73
2
 40
0.2
 49
0.1
 49
-0.1
  0
LTYPE
  2
DASHED
 70
64
  3
- - - - - - - - - - - - - - - - - - - -
 72
65
 73
2
 40
0.2
 49
0.1
 49
-0.1
  0
ENDTAB
  0
TABLE
  2
LAYER
 70
36
  0
LAYER
  2
0
 70
0
 62
7
  6
CONTINUOUS
  0
LAYER
  2
DEFAULT_1
 70
0
 62
7
  6
CENTER
  0
LAYER
  2
DEFAULT_2
 70
0
 62
8
  6
HIDDEN
  0
LAYER
  2
DEFAULT_3
 70
0
 62
7
  6
PHANTOM
  0
LAYER
  2
1_AXIS
 70
0
 62
7
  6
CONTINUOUS
  0
LAYER
  2
1_DATUM_PLANES
 70
0
 62
7
  6
CONTINUOUS
  0
LAYER
  2
2_FEATURE
 70
0
 62
7
  6
CONTINUOUS
  0
LAYER
  2
4_CURVE
 70
0
 62
7
  6
CONTINUOUS
  0
LAYER
  2
4_QUILT
 70
0
 62
7
  6
CONTINUOUS
  0
LAYER
  2
6_DIM
 70
0
 62
7
  6
CONTINUOUS
  0
LAYER
  2
BLANK_CURVE
 70
0
 62
7
  6
CONTINUOUS
  0
LAYER
  2
CSYS
 70
0
 62
7
  6
CONTINUOUS
  0
LAYER
  2
NOTES
 70
0
 62
7
  6
CONTINUOUS
  0
LAYER
  2
UDST
 70
0
 62
7
  6
CONTINUOUS
  0
ENDTAB
  0
TABLE
  2
STYLE
 70
1
  0
STYLE
  2
STANDARD
 70
0
 40
0.0
 41
0.8
 50
0.0
 71
0
 42
0.2
  3
txt
  4

  0
STYLE
  2
TEXTSTYLE_1
 70
0
 40
0.0
 41
0.8
 50
0.0
 71
0
 42
0.2
  3
gdt
  4

  0
STYLE
  2
TEXTSTYLE_2
 70
0
 40
0.0
 41
0.6
 50
0.0
 71
0
 42
0.2
  3
txt
  4

  0
STYLE
  2
TEXTSTYLE_3
 70
0
 40
0.0
 41
1.0
 50
0.0
 71
0
 42
0.2
  3
ftb_____.ttf
  4

  0
STYLE
  2
TEXTSTYLE_4
 70
0
 40
0.0
 41
1.0
 50
0.0
 71
0
 42
0.2
  3
fti_____.ttf
  4

  0
STYLE
  2
TEXTSTYLE_5
 70
0
 40
0.0
 41
1.0
 50
0.0
 71
0
 42
0.2
  3
frutiger light.ttf
  4

  0
STYLE
  2
TEXTSTYLE_6
 70
0
 40
0.0
 41
0.7
 50
0.0
 71
0
 42
0.2
  3
txt
  4

  0
STYLE
  2
TEXTSTYLE_7
 70
0
 40
0.0
 41
0.38
 50
0.0
 71
0
 42
0.2
  3
txt
  4

  0
ENDTAB
  0
ENDSEC
  0
SECTION
  2
BLOCKS
  0
BLOCK
  8
0
 62
2
  6
CONTINUOUS
  2
SYMBOL_8_BL1
 70
64
 10
173.5956734183
 20
35.5937998301
  0
TEXT
  8
0
 62
7
  6
CONTINUOUS
 10
164.6539584268
 20
30.6865562072
  7
TEXTSTYLE_4
 40
1.0655737705
  1
The brand for plastic modular belts and chains
 41
1.0
 72
0
  0
LINE
  8
0
 62
7
  6
CONTINUOUS
 10
149.5737418074
 20
36.1675703219
 11
149.5737418074
 21
34.0364227809
  0
LINE
  8
0
 62
7
  6
CONTINUOUS
 10
149.8628043005
 20
31.0454914852
 11
149.8628043005
 21
31.1422825445
  0
LINE
  8
0
 62
7
  6
CONTINUOUS
 10
149.5737418074
 20
31.1100188581
 11
149.6315543091
 21
30.9164367395
  0
LINE
  8
0
 62
7
  6
CONTINUOUS
 10
150.9671844304
 20
33.9544555678
 11
150.9671844304
 21
36.1675703219
  0
LINE
  8
0
 62
7
  6
CONTINUOUS
 10
151.8862417523
 20
32.1101932727
 11
151.8862417523
 21
30.5937998301
  0
LINE
  8
0
 62
7
  6
CONTINUOUS
 10
152.1753043074
 20
30.5937998301
 11
152.1753043074
 21
31.3358647082
  0
LINE
  8
0
 62
7
  6
CONTINUOUS
 10
152.1753043074
 20
31.4649194539
 11
152.1753043074
 21
32.1101932727
  0
LINE
  8
0
 62
7
  6
CONTINUOUS
 10
149.6315543091
 20
31.3036010218
 11
149.5737418074
 21
31.1100188581
  0
LINE
  8
0
 62
7
  6
CONTINUOUS
 10
149.9784292936
 20
30.8841730531
 11
149.8628043005
 21
31.0454914852
  0
LINE
  8
0
 62
7
  6
CONTINUOUS
 10
151.0768668626
 20
31.400392081
 11
151.1346793074
 21
31.3036010218
  0
LINE
  8
0
 62
7
  6
CONTINUOUS
 10
151.4237418626
 20
31.3036010218
 11
151.3659292523
 21
31.4326557675
  0
LINE
  8
0
 62
7
  6
CONTINUOUS
 10
152.852430332
 20
36.1675703219
 11
152.852430332
 21
34.3642916334
  0
LINE
  8
0
 62
7
  6
CONTINUOUS
 10
152.852430332
 20
33.0528162235
 11
152.852430332
 21
32.3970785186
  0
LINE
  8
0
 62
7
  6
CONTINUOUS
 10
153.2159293074
 20
31.2390736489
 11
153.2159293074
 21
30.5937998301
  0
LINE
  8
0
 62
7
  6
CONTINUOUS
 10
153.5049916972
 20
30.5937998301
 11
153.5049916972
 21
31.2390736489
  0
LINE
  8
0
 62
7
  6
CONTINUOUS
 10
149.8628043005
 20
31.1422825445
 11
149.9206168074
 21
31.2713373354
  0
LINE
  8
0
 62
7
  6
CONTINUOUS
 10
149.6315543091
 20
30.9164367395
 11
149.7471793074
 21
30.7873819712
  0
LINE
  8
0
 62
7
  6
CONTINUOUS
 10
153.1581166972
 20
31.3681283946
 11
153.2159293074
 21
31.2390736489
  0
LINE
  8
0
 62
7
  6
CONTINUOUS
 10
153.9674919177
 20
30.8841730531
 11
154.0253041972
 21
30.7551182848
  0
LINE
  8
0
 62
7
  6
CONTINUOUS
 10
153.5049916972
 20
31.2390736489
 11
153.4471794177
 21
31.400392081
  0
LINE
  8
0
 62
7
  6
CONTINUOUS
 10
153.9674919177
 20
31.4326557675
 11
153.9674919177
 21
31.3681283946
  0
LINE
  8
0
 62
7
  6
CONTINUOUS
 10
153.9674919177
 20
30.9809641124
 11
153.9674919177
 21
30.8841730531
  0
LINE
  8
0
 62
7
  6
CONTINUOUS
 10
154.245872955
 20
32.3970785186
 11
154.245872955
 21
36.1675703219
  0
LINE
  8
0
 62
7
  6
CONTINUOUS
 10
154.2565543074
 20
30.8519093441
 11
154.2565543074
 21
30.9164367395
  0
LINE
  8
0
 62
7
  6
CONTINUOUS
 10
154.5737418074
 20
36.1675703219
 11
154.5737418074
 21
32.3970785186
  0
LINE
  8
0
 62
7
  6
CONTINUOUS
 10
151.3659292523
 20
30.7873819712
 11
151.4237418626
 21
30.9164367395
  0
LINE
  8
0
 62
7
  6
CONTINUOUS
 10
155.759679528
 20
30.6905909007
 11
155.7018665869
 21
30.8519093441
  0
LINE
  8
0
 62
7
  6
CONTINUOUS
 10
155.412804528
 20
31.3681283946
 11
155.412804528
 21
31.2713373354
  0
LINE
  8
0
 62
7
  6
CONTINUOUS
 10
155.412804528
 20
31.1422825445
 11
155.412804528
 21
30.9487004259
  0
LINE
  8
0
 62
7
  6
CONTINUOUS
 10
155.7018665869
 20
30.8519093441
 11
155.7018665869
 21
31.3681283946
  0
LINE
  8
0
 62
7
  6
CONTINUOUS
 10
155.9671844304
 20
32.3970785186
 11
155.9671844304
 21
34.2003572071
  0
LINE
  8
0
 62
7
  6
CONTINUOUS
 10
155.9671844304
 20
35.511832617
 11
155.9671844304
 21
36.1675703219
  0
LINE
  8
0
 62
7
  6
CONTINUOUS
 10
156.279992028
 20
32.1101932727
 11
156.279992028
 21
31.9488748406
  0
LINE
  8
0
 62
7
  6
CONTINUOUS
 10
156.279992028
 20
31.626237886
 11
156.279992028
 21
30.5937998301
  0
LINE
  8
0
 62
7
  6
CONTINUOUS
 10
156.5690540869
 20
30.5937998301
 11
156.5690540869
 21
31.626237886
  0
LINE
  8
0
 62
7
  6
CONTINUOUS
 10
156.5690540869
 20
31.9488748406
 11
156.5690540869
 21
32.1101932727
  0
LINE
  8
0
 62
7
  6
CONTINUOUS
 10
151.1346793074
 20
30.9164367395
 11
151.0768668626
 21
30.8196456577
  0
LINE
  8
0
 62
7
  6
CONTINUOUS
 10
153.4471794177
 20
31.400392081
 11
153.3893668074
 21
31.4649194539
  0
LINE
  8
0
 62
7
  6
CONTINUOUS
 10
154.3143669177
 20
30.7873819712
 11
154.2565543074
 21
30.8519093441
  0
LINE
  8
0
 62
7
  6
CONTINUOUS
 10
155.4706168074
 20
30.6583272086
 11
155.5284290869
 21
30.5937998301
  0
LINE
  8
0
 62
7
  6
CONTINUOUS
 10
155.412804528
 20
30.7551182848
 11
155.4706168074
 21
30.6583272086
  0
LINE
  8
0
 62
7
  6
CONTINUOUS
 10
155.8174918074
 20
30.5937998301
 11
155.759679528
 21
30.6905909007
  0
LINE
  8
0
 62
7
  6
CONTINUOUS
 10
155.7018665869
 20
31.3681283946
 11
155.6440543074
 21
31.4649194539
  0
LINE
  8
0
 62
7
  6
CONTINUOUS
 10
157.0315543074
 20
31.626237886
 11
157.0315543074
 21
30.5937998301
  0
LINE
  8
0
 62
7
  6
CONTINUOUS
 10
157.320617028
 20
30.5937998301
 11
157.320617028
 21
31.3358647082
  0
LINE
  8
0
 62
7
  6
CONTINUOUS
 10
157.320617028
 20
31.4649194539
 11
157.320617028
 21
31.626237886
  0
LINE
  8
0
 62
7
  6
CONTINUOUS
 10
157.852430332
 20
34.6101932727
 11
157.852430332
 21
32.3970785186
  0
LINE
  8
0
 62
7
  6
CONTINUOUS
 10
149.7471793074
 20
31.4326557675
 11
149.6315543091
 21
31.3036010218
  0
LINE
  8
0
 62
7
  6
CONTINUOUS
 10
149.9206168074
 20
31.2713373354
 11
149.9784292936
 21
31.3358647082
  0
LINE
  8
0
 62
7
  6
CONTINUOUS
 10
149.7471793074
 20
30.7873819712
 11
149.8628043005
 21
30.7228545871
  0
LINE
  8
0
 62
7
  6
CONTINUOUS
 10
150.1518667936
 20
30.7873819712
 11
149.9784292936
 21
30.8841730531
  0
LINE
  8
0
 62
7
  6
CONTINUOUS
 10
155.3549915869
 20
31.4326557675
 11
155.412804528
 21
31.3681283946
  0
LINE
  8
0
 62
7
  6
CONTINUOUS
 10
158.3034290869
 20
31.3681283946
 11
158.361242028
 21
31.2068099625
  0
LINE
  8
0
 62
7
  6
CONTINUOUS
 10
158.6503040869
 20
31.2068099625
 11
158.5924918074
 21
31.3681283946
  0
LINE
  8
0
 62
7
  6
CONTINUOUS
 10
158.361242028
 20
31.2068099625
 11
158.361242028
 21
30.5937998301
  0
LINE
  8
0
 62
7
  6
CONTINUOUS
 10
158.6503040869
 20
30.5937998301
 11
158.6503040869
 21
31.2068099625
  0
LINE
  8
0
 62
7
  6
CONTINUOUS
 10
159.1128043074
 20
31.4326557675
 11
159.1128043074
 21
31.3681283946
  0
LINE
  8
0
 62
7
  6
CONTINUOUS
 10
159.245872955
 20
32.3970785186
 11
159.245872955
 21
34.5282260596
  0
LINE
  8
0
 62
7
  6
CONTINUOUS
 10
159.5737418074
 20
36.1675703219
 11
159.5737418074
 21
32.3970785186
  0
LINE
  8
0
 62
7
  6
CONTINUOUS
 10
154.2565543074
 20
30.9164367395
 11
154.3143669177
 21
31.0132277988
  0
LINE
  8
0
 62
7
  6
CONTINUOUS
 10
149.8628043005
 20
30.7228545871
 11
150.0362418212
 21
30.6583272086
  0
LINE
  8
0
 62
7
  6
CONTINUOUS
 10
151.3659292523
 20
31.4326557675
 11
151.1924917523
 21
31.5294468267
  0
LINE
  8
0
 62
7
  6
CONTINUOUS
 10
154.0253041972
 20
30.7551182848
 11
154.1987416972
 21
30.6583272086
  0
LINE
  8
0
 62
7
  6
CONTINUOUS
 10
153.0424918074
 20
31.4326557675
 11
153.1581166972
 21
31.3681283946
  0
LINE
  8
0
 62
7
  6
CONTINUOUS
 10
153.3893668074
 20
31.4649194539
 11
153.2737419177
 21
31.5294468267
  0
LINE
  8
0
 62
7
  6
CONTINUOUS
 10
159.1128043074
 20
30.8519093441
 11
159.228429528
 21
30.7228545871
  0
LINE
  8
0
 62
7
  6
CONTINUOUS
 10
159.4596793074
 20
30.7873819712
 11
159.401867028
 21
30.8519093441
  0
LINE
  8
0
 62
7
  6
CONTINUOUS
 10
159.1128043074
 20
31.3681283946
 11
159.228429528
 21
31.2390736489
  0
LINE
  8
0
 62
7
  6
CONTINUOUS
 10
158.5924918074
 20
31.3681283946
 11
158.534679528
 21
31.4649194539
  0
LINE
  8
0
 62
7
  6
CONTINUOUS
 10
160.9628038663
 20
30.7873819712
 11
160.9628038663
 21
30.8519093441
  0
LINE
  8
0
 62
7
  6
CONTINUOUS
 10
160.9671844304
 20
32.3970785186
 11
160.9671844304
 21
36.1675703219
  0
LINE
  8
0
 62
7
  6
CONTINUOUS
 10
154.0253041972
 20
31.4971831403
 11
153.9674919177
 21
31.4326557675
  0
LINE
  8
0
 62
7
  6
CONTINUOUS
 10
150.9034292799
 20
31.4649194539
 11
151.0768668626
 21
31.400392081
  0
LINE
  8
0
 62
7
  6
CONTINUOUS
 10
155.6440543074
 20
31.4649194539
 11
155.5284290869
 21
31.5294468267
  0
LINE
  8
0
 62
7
  6
CONTINUOUS
 10
159.4596793074
 20
31.3036010218
 11
159.401867028
 21
31.3681283946
  0
LINE
  8
0
 62
7
  6
CONTINUOUS
 10
160.615929528
 20
30.9164367395
 11
160.6737418074
 21
30.8519093441
  0
LINE
  8
0
 62
7
  6
CONTINUOUS
 10
160.9628038663
 20
30.8519093441
 11
160.8471793074
 21
30.9809641124
  0
LINE
  8
0
 62
7
  6
CONTINUOUS
 10
160.615929528
 20
31.4326557675
 11
160.6737418074
 21
31.3681283946
  0
LINE
  8
0
 62
7
  6
CONTINUOUS
 10
160.9628038663
 20
31.3681283946
 11
160.8471793074
 21
31.4971831403
  0
LINE
  8
0
 62
7
  6
CONTINUOUS
 10
154.2565543074
 20
31.3681283946
 11
154.3143669177
 21
31.4326557675
  0
LINE
  8
0
 62
7
  6
CONTINUOUS
 10
154.0831168074
 20
31.1100188581
 11
153.9674919177
 21
30.9809641124
  0
LINE
  8
0
 62
7
  6
CONTINUOUS
 10
155.412804528
 20
30.9487004259
 11
155.3549915869
 21
30.8841730531
  0
LINE
  8
0
 62
7
  6
CONTINUOUS
 10
155.3549915869
 20
30.6905909007
 11
155.412804528
 21
30.7551182848
  0
LINE
  8
0
 62
7
  6
CONTINUOUS
 10
154.1987416972
 20
30.6583272086
 11
154.3143669177
 21
30.6260635193
  0
LINE
  8
0
 62
7
  6
CONTINUOUS
 10
151.1924917523
 20
31.5294468267
 11
150.9612418074
 21
31.5939741996
  0
LINE
  8
0
 62
7
  6
CONTINUOUS
 10
154.5456166972
 20
30.7228545871
 11
154.3143669177
 21
30.7873819712
  0
LINE
  8
0
 62
7
  6
CONTINUOUS
 10
153.2737419177
 20
31.5294468267
 11
153.1003044177
 21
31.5939741996
  0
LINE
  8
0
 62
7
  6
CONTINUOUS
 10
155.5284290869
 20
31.5294468267
 11
155.3549915869
 21
31.5939741996
  0
LINE
  8
0
 62
7
  6
CONTINUOUS
 10
158.187804528
 20
31.4326557675
 11
158.3034290869
 21
31.3681283946
  0
LINE
  8
0
 62
7
  6
CONTINUOUS
 10
158.534679528
 20
31.4649194539
 11
158.4190543074
 21
31.5294468267
  0
LINE
  8
0
 62
7
  6
CONTINUOUS
 10
150.0362418212
 20
30.6583272086
 11
150.2096793212
 21
30.6260635193
  0
LINE
  8
0
 62
7
  6
CONTINUOUS
 10
150.498741835
 20
30.7228545871
 11
150.1518667936
 21
30.7873819712
  0
LINE
  8
0
 62
7
  6
CONTINUOUS
 10
152.9268669177
 20
31.4649194539
 11
153.0424918074
 21
31.4326557675
  0
LINE
  8
0
 62
7
  6
CONTINUOUS
 10
155.239367028
 20
31.4649194539
 11
155.3549915869
 21
31.4326557675
  0
LINE
  8
0
 62
7
  6
CONTINUOUS
 10
159.575304528
 20
30.7551182848
 11
159.4596793074
 21
30.7873819712
  0
LINE
  8
0
 62
7
  6
CONTINUOUS
 10
158.0721793074
 20
31.4649194539
 11
158.187804528
 21
31.4326557675
  0
LINE
  8
0
 62
7
  6
CONTINUOUS
 10
159.228429528
 20
30.7228545871
 11
159.401867028
 21
30.6583272086
  0
LINE
  8
0
 62
7
  6
CONTINUOUS
 10
158.4190543074
 20
31.5294468267
 11
158.2456168074
 21
31.5939741996
  0
LINE
  8
0
 62
7
  6
CONTINUOUS
 10
159.6331168074
 20
31.2390736489
 11
159.4596793074
 21
31.3036010218
  0
LINE
  8
0
 62
7
  6
CONTINUOUS
 10
160.442492028
 20
30.9809641124
 11
160.615929528
 21
30.9164367395
  0
LINE
  8
0
 62
7
  6
CONTINUOUS
 10
160.8471793074
 20
31.4971831403
 11
160.6737418074
 21
31.5617105132
  0
LINE
  8
0
 62
7
  6
CONTINUOUS
 10
159.228429528
 20
31.2390736489
 11
159.4596793074
 21
31.1422825445
  0
LINE
  8
0
 62
7
  6
CONTINUOUS
 10
160.8471793074
 20
30.9809641124
 11
160.615929528
 21
31.0777551716
  0
LINE
  8
0
 62
7
  6
CONTINUOUS
 10
159.401867028
 20
31.3681283946
 11
159.4596793074
 21
31.4326557675
  0
LINE
  8
0
 62
7
  6
CONTINUOUS
 10
149.8628043005
 20
31.4971831403
 11
149.7471793074
 21
31.4326557675
  0
LINE
  8
0
 62
7
  6
CONTINUOUS
 10
149.9784292936
 20
31.3358647082
 11
150.1518667936
 21
31.4326557675
  0
LINE
  8
0
 62
7
  6
CONTINUOUS
 10
152.2909293626
 20
31.5294468267
 11
152.1753043074
 21
31.4649194539
  0
LINE
  8
0
 62
7
  6
CONTINUOUS
 10
152.1753043074
 20
31.3358647082
 11
152.2909293626
 21
31.400392081
  0
LINE
  8
0
 62
7
  6
CONTINUOUS
 10
151.1924917523
 20
30.6905909007
 11
151.3659292523
 21
30.7873819712
  0
LINE
  8
0
 62
7
  6
CONTINUOUS
 10
150.2096793212
 20
30.6260635193
 11
150.5565542799
 21
30.5937998301
  0
LINE
  8
0
 62
7
  6
CONTINUOUS
 10
154.3143669177
 20
30.6260635193
 11
154.5456166972
 21
30.5937998301
  0
LINE
  8
0
 62
7
  6
CONTINUOUS
 10
152.6956168074
 20
31.4971831403
 11
152.9268669177
 21
31.4649194539
  0
LINE
  8
0
 62
7
  6
CONTINUOUS
 10
155.0081169177
 20
31.4971831403
 11
155.239367028
 21
31.4649194539
  0
LINE
  8
0
 62
7
  6
CONTINUOUS
 10
159.4596793074
 20
31.1422825445
 11
160.442492028
 21
30.9809641124
  0
LINE
  8
0
 62
7
  6
CONTINUOUS
 10
160.615929528
 20
31.0777551716
 11
159.6331168074
 21
31.2390736489
  0
LINE
  8
0
 62
7
  6
CONTINUOUS
 10
153.1003044177
 20
31.5939741996
 11
152.9268669177
 21
31.626237886
  0
LINE
  8
0
 62
7
  6
CONTINUOUS
 10
159.401867028
 20
30.6583272086
 11
159.575304528
 21
30.6260635193
  0
LINE
  8
0
 62
7
  6
CONTINUOUS
 10
158.2456168074
 20
31.5939741996
 11
158.0721793074
 21
31.626237886
  0
LINE
  8
0
 62
7
  6
CONTINUOUS
 10
160.5003043074
 20
31.4649194539
 11
160.615929528
 21
31.4326557675
  0
LINE
  8
0
 62
7
  6
CONTINUOUS
 10
160.6737418074
 20
30.8519093441
 11
160.615929528
 21
30.7873819712
  0
LINE
  8
0
 62
7
  6
CONTINUOUS
 10
159.228429528
 20
31.5294468267
 11
159.1128043074
 21
31.4326557675
  0
LINE
  8
0
 62
7
  6
CONTINUOUS
 10
154.1409294177
 20
31.5617105132
 11
154.0253041972
 21
31.4971831403
  0
LINE
  8
0
 62
7
  6
CONTINUOUS
 10
154.1987416972
 20
31.1745462761
 11
154.0831168074
 21
31.1100188581
  0
LINE
  8
0
 62
7
  6
CONTINUOUS
 10
154.3143669177
 20
31.0132277988
 11
154.4299918074
 21
31.0777551716
  0
LINE
  8
0
 62
7
  6
CONTINUOUS
 10
151.8862417523
 20
30.5937998301
 11
152.1753043074
 21
30.5937998301
  0
LINE
  8
0
 62
7
  6
CONTINUOUS
 10
153.2159293074
 20
30.5937998301
 11
153.5049916972
 21
30.5937998301
  0
LINE
  8
0
 62
7
  6
CONTINUOUS
 10
154.5456166972
 20
30.5937998301
 11
154.8924916972
 21
30.5937998301
  0
LINE
  8
0
 62
7
  6
CONTINUOUS
 10
155.5284290869
 20
30.5937998301
 11
155.8174918074
 21
30.5937998301
  0
LINE
  8
0
 62
7
  6
CONTINUOUS
 10
156.279992028
 20
30.5937998301
 11
156.5690540869
 21
30.5937998301
  0
LINE
  8
0
 62
7
  6
CONTINUOUS
 10
157.0315543074
 20
30.5937998301
 11
157.320617028
 21
30.5937998301
  0
LINE
  8
0
 62
7
  6
CONTINUOUS
 10
158.361242028
 20
30.5937998301
 11
158.6503040869
 21
30.5937998301
  0
LINE
  8
0
 62
7
  6
CONTINUOUS
 10
159.922179528
 20
30.5937998301
 11
160.269054528
 21
30.5937998301
  0
LINE
  8
0
 62
7
  6
CONTINUOUS
 10
160.269054528
 20
30.7228545871
 11
159.922179528
 21
30.7228545871
  0
LINE
  8
0
 62
7
  6
CONTINUOUS
 10
154.8924916972
 20
30.7228545871
 11
154.5456166972
 21
30.7228545871
  0
LINE
  8
0
 62
7
  6
CONTINUOUS
 10
159.401867028
 20
30.8519093441
 11
159.1128043074
 21
30.8519093441
  0
LINE
  8
0
 62
7
  6
CONTINUOUS
 10
151.4237418626
 20
30.9164367395
 11
151.1346793074
 21
30.9164367395
  0
LINE
  8
0
 62
7
  6
CONTINUOUS
 10
150.498741835
 20
31.4971831403
 11
150.9034292799
 21
31.4649194539
  0
LINE
  8
0
 62
7
  6
CONTINUOUS
 10
150.9612418074
 20
31.5939741996
 11
150.5565542799
 21
31.626237886
  0
LINE
  8
0
 62
7
  6
CONTINUOUS
 10
159.575304528
 20
30.6260635193
 11
159.922179528
 21
30.5937998301
  0
LINE
  8
0
 62
7
  6
CONTINUOUS
 10
159.922179528
 20
30.7228545871
 11
159.575304528
 21
30.7551182848
  0
LINE
  8
0
 62
7
  6
CONTINUOUS
 10
155.3549915869
 20
31.5939741996
 11
155.0081169177
 21
31.626237886
  0
LINE
  8
0
 62
7
  6
CONTINUOUS
 10
160.1534293074
 20
31.4971831403
 11
160.5003043074
 21
31.4649194539
  0
LINE
  8
0
 62
7
  6
CONTINUOUS
 10
160.5003043074
 20
31.5939741996
 11
160.1534293074
 21
31.626237886
  0
LINE
  8
0
 62
7
  6
CONTINUOUS
 10
157.840929528
 20
31.4971831403
 11
158.0721793074
 21
31.4649194539
  0
LINE
  8
0
 62
7
  6
CONTINUOUS
 10
160.6737418074
 20
31.5617105132
 11
160.5003043074
 21
31.5939741996
  0
LINE
  8
0
 62
7
  6
CONTINUOUS
 10
160.8471793074
 20
30.6905909007
 11
160.9628038663
 21
30.7873819712
  0
LINE
  8
0
 62
7
  6
CONTINUOUS
 10
155.3549915869
 20
30.8841730531
 11
155.1815540869
 21
30.7873819712
  0
LINE
  8
0
 62
7
  6
CONTINUOUS
 10
157.4362415869
 20
31.5294468267
 11
157.320617028
 21
31.4649194539
  0
LINE
  8
0
 62
7
  6
CONTINUOUS
 10
157.320617028
 20
31.3358647082
 11
157.4362415869
 21
31.400392081
  0
LINE
  8
0
 62
7
  6
CONTINUOUS
 10
150.0362418212
 20
31.5617105132
 11
149.8628043005
 21
31.4971831403
  0
LINE
  8
0
 62
7
  6
CONTINUOUS
 10
152.4643666972
 20
31.5939741996
 11
152.2909293626
 21
31.5294468267
  0
LINE
  8
0
 62
7
  6
CONTINUOUS
 10
152.2909293626
 20
31.400392081
 11
152.4643666972
 21
31.4649194539
  0
LINE
  8
0
 62
7
  6
CONTINUOUS
 10
151.0768668626
 20
30.8196456577
 11
150.9034292799
 21
30.7551182848
  0
LINE
  8
0
 62
7
  6
CONTINUOUS
 10
160.5003043074
 20
30.7551182848
 11
160.269054528
 21
30.7228545871
  0
LINE
  8
0
 62
7
  6
CONTINUOUS
 10
154.8924916972
 20
30.5937998301
 11
155.1815540869
 21
30.6260635193
  0
LINE
  8
0
 62
7
  6
CONTINUOUS
 10
160.269054528
 20
30.5937998301
 11
160.615929528
 21
30.6260635193
  0
LINE
  8
0
 62
7
  6
CONTINUOUS
 10
150.5565542799
 20
30.5937998301
 11
150.9612418074
 21
30.6260635193
  0
LINE
  8
0
 62
7
  6
CONTINUOUS
 10
150.9034292799
 20
30.7551182848
 11
150.498741835
 21
30.7228545871
  0
LINE
  8
0
 62
7
  6
CONTINUOUS
 10
154.7768668074
 20
31.1422825445
 11
155.412804528
 21
31.1422825445
  0
LINE
  8
0
 62
7
  6
CONTINUOUS
 10
155.412804528
 20
31.2713373354
 11
154.7768668074
 21
31.2713373354
  0
LINE
  8
0
 62
7
  6
CONTINUOUS
 10
151.1346793074
 20
31.3036010218
 11
151.4237418626
 21
31.3036010218
  0
LINE
  8
0
 62
7
  6
CONTINUOUS
 10
153.9674919177
 20
31.3681283946
 11
154.2565543074
 21
31.3681283946
  0
LINE
  8
0
 62
7
  6
CONTINUOUS
 10
160.6737418074
 20
31.3681283946
 11
160.9628038663
 21
31.3681283946
  0
LINE
  8
0
 62
7
  6
CONTINUOUS
 10
154.6612419177
 20
31.4971831403
 11
155.0081169177
 21
31.4971831403
  0
LINE
  8
0
 62
7
  6
CONTINUOUS
 10
159.8065543074
 20
31.4971831403
 11
160.1534293074
 21
31.4971831403
  0
LINE
  8
0
 62
7
  6
CONTINUOUS
 10
160.1534293074
 20
31.626237886
 11
159.8065543074
 21
31.626237886
  0
LINE
  8
0
 62
7
  6
CONTINUOUS
 10
158.0721793074
 20
31.626237886
 11
157.840929528
 21
31.626237886
  0
LINE
  8
0
 62
7
  6
CONTINUOUS
 10
157.320617028
 20
31.626237886
 11
157.0315543074
 21
31.626237886
  0
LINE
  8
0
 62
7
  6
CONTINUOUS
 10
156.5690540869
 20
31.626237886
 11
156.279992028
 21
31.626237886
  0
LINE
  8
0
 62
7
  6
CONTINUOUS
 10
155.0081169177
 20
31.626237886
 11
154.6612419177
 21
31.626237886
  0
LINE
  8
0
 62
7
  6
CONTINUOUS
 10
152.9268669177
 20
31.626237886
 11
152.6956168074
 21
31.626237886
  0
LINE
  8
0
 62
7
  6
CONTINUOUS
 10
156.279992028
 20
31.9488748406
 11
156.5690540869
 21
31.9488748406
  0
LINE
  8
0
 62
7
  6
CONTINUOUS
 10
156.5690540869
 20
32.1101932727
 11
156.279992028
 21
32.1101932727
  0
LINE
  8
0
 62
7
  6
CONTINUOUS
 10
152.1753043074
 20
32.1101932727
 11
151.8862417523
 21
32.1101932727
  0
LINE
  8
0
 62
7
  6
CONTINUOUS
 10
151.2130860697
 20
32.3970785186
 11
151.6256574183
 21
32.3970785186
  0
LINE
  8
0
 62
7
  6
CONTINUOUS
 10
152.852430332
 20
32.3970785186
 11
154.245872955
 21
32.3970785186
  0
LINE
  8
0
 62
7
  6
CONTINUOUS
 10
154.5737418074
 20
32.3970785186
 11
155.9671844304
 21
32.3970785186
  0
LINE
  8
0
 62
7
  6
CONTINUOUS
 10
157.852430332
 20
32.3970785186
 11
159.245872955
 21
32.3970785186
  0
LINE
  8
0
 62
7
  6
CONTINUOUS
 10
159.5737418074
 20
32.3970785186
 11
160.9671844304
 21
32.3970785186
  0
LINE
  8
0
 62
7
  6
CONTINUOUS
 10
157.6096790869
 20
31.5939741996
 11
157.4362415869
 21
31.5294468267
  0
LINE
  8
0
 62
7
  6
CONTINUOUS
 10
155.1815540869
 20
30.6260635193
 11
155.3549915869
 21
30.6905909007
  0
LINE
  8
0
 62
7
  6
CONTINUOUS
 10
160.615929528
 20
30.6260635193
 11
160.8471793074
 21
30.6905909007
  0
LINE
  8
0
 62
7
  6
CONTINUOUS
 10
160.615929528
 20
30.7873819712
 11
160.5003043074
 21
30.7551182848
  0
LINE
  8
0
 62
7
  6
CONTINUOUS
 10
159.575304528
 20
31.4649194539
 11
159.8065543074
 21
31.4971831403
  0
LINE
  8
0
 62
7
  6
CONTINUOUS
 10
157.6096790869
 20
31.4649194539
 11
157.840929528
 21
31.4971831403
  0
LINE
  8
0
 62
7
  6
CONTINUOUS
 10
154.5456166972
 20
31.1100188581
 11
154.7768668074
 21
31.1422825445
  0
LINE
  8
0
 62
7
  6
CONTINUOUS
 10
157.840929528
 20
31.626237886
 11
157.6096790869
 21
31.5939741996
  0
LINE
  8
0
 62
7
  6
CONTINUOUS
 10
154.4299918074
 20
31.4649194539
 11
154.6612419177
 21
31.4971831403
  0
LINE
  8
0
 62
7
  6
CONTINUOUS
 10
159.8065543074
 20
31.626237886
 11
159.4596793074
 21
31.5939741996
  0
LINE
  8
0
 62
7
  6
CONTINUOUS
 10
154.7768668074
 20
31.2713373354
 11
154.4299918074
 21
31.2390736489
  0
LINE
  8
0
 62
7
  6
CONTINUOUS
 10
150.5565542799
 20
31.626237886
 11
150.2096793212
 21
31.5939741996
  0
LINE
  8
0
 62
7
  6
CONTINUOUS
 10
154.6612419177
 20
31.626237886
 11
154.2565543074
 21
31.5939741996
  0
LINE
  8
0
 62
7
  6
CONTINUOUS
 10
152.0327582009
 20
33.5446195022
 11
151.3770204959
 21
33.5446195022
  0
LINE
  8
0
 62
7
  6
CONTINUOUS
 10
157.4362415869
 20
31.400392081
 11
157.6096790869
 21
31.4649194539
  0
LINE
  8
0
 62
7
  6
CONTINUOUS
 10
159.4596793074
 20
31.4326557675
 11
159.575304528
 21
31.4649194539
  0
LINE
  8
0
 62
7
  6
CONTINUOUS
 10
159.4596793074
 20
31.5939741996
 11
159.228429528
 21
31.5294468267
  0
LINE
  8
0
 62
7
  6
CONTINUOUS
 10
155.1815540869
 20
30.7873819712
 11
154.8924916972
 21
30.7228545871
  0
LINE
  8
0
 62
7
  6
CONTINUOUS
 10
152.4643666972
 20
31.4649194539
 11
152.6956168074
 21
31.4971831403
  0
LINE
  8
0
 62
7
  6
CONTINUOUS
 10
152.6956168074
 20
31.626237886
 11
152.4643666972
 21
31.5939741996
  0
LINE
  8
0
 62
7
  6
CONTINUOUS
 10
150.2674918074
 20
31.4649194539
 11
150.498741835
 21
31.4971831403
  0
LINE
  8
0
 62
7
  6
CONTINUOUS
 10
156.7868565615
 20
35.0200293383
 11
157.4425942664
 21
35.0200293383
  0
LINE
  8
0
 62
7
  6
CONTINUOUS
 10
154.4299918074
 20
31.0777551716
 11
154.5456166972
 21
31.1100188581
  0
LINE
  8
0
 62
7
  6
CONTINUOUS
 10
154.4299918074
 20
31.2390736489
 11
154.1987416972
 21
31.1745462761
  0
LINE
  8
0
 62
7
  6
CONTINUOUS
 10
154.3143669177
 20
31.4326557675
 11
154.4299918074
 21
31.4649194539
  0
LINE
  8
0
 62
7
  6
CONTINUOUS
 10
150.9612418074
 20
30.6260635193
 11
151.1924917523
 21
30.6905909007
  0
LINE
  8
0
 62
7
  6
CONTINUOUS
 10
154.2565543074
 20
31.5939741996
 11
154.1409294177
 21
31.5617105132
  0
LINE
  8
0
 62
7
  6
CONTINUOUS
 10
150.2096793212
 20
31.5939741996
 11
150.0362418212
 21
31.5617105132
  0
LINE
  8
0
 62
7
  6
CONTINUOUS
 10
160.9671844304
 20
36.1675703219
 11
159.5737418074
 21
36.1675703219
  0
LINE
  8
0
 62
7
  6
CONTINUOUS
 10
157.6065286927
 20
36.1675703219
 11
157.1939573441
 21
36.1675703219
  0
LINE
  8
0
 62
7
  6
CONTINUOUS
 10
155.9671844304
 20
36.1675703219
 11
154.5737418074
 21
36.1675703219
  0
LINE
  8
0
 62
7
  6
CONTINUOUS
 10
154.245872955
 20
36.1675703219
 11
152.852430332
 21
36.1675703219
  0
LINE
  8
0
 62
7
  6
CONTINUOUS
 10
150.9671844304
 20
36.1675703219
 11
149.5737418074
 21
36.1675703219
  0
LINE
  8
0
 62
7
  6
CONTINUOUS
 10
150.1518667936
 20
31.4326557675
 11
150.2674918074
 21
31.4649194539
  0
CIRCLE
  8
0
 62
7
  6
CONTINUOUS
 10
160.2704631189
 20
38.5036358957
 40
2.0901639344
  0
ARC
  8
0
 62
7
  6
CONTINUOUS
 10
151.2130860697
 20
34.0364227809
 40
1.6393442623
 50
180.0
 51
270.0
  0
ARC
  8
0
 62
7
  6
CONTINUOUS
 10
157.6065286927
 20
34.5282260596
 40
1.6393442623
 50
0.0
 51
90.0
  0
ARC
  8
0
 62
7
  6
CONTINUOUS
 10
151.6256574183
 20
33.8724883547
 40
1.4754098361
 50
270.0
 51
326.2510114041
  0
ARC
  8
0
 62
7
  6
CONTINUOUS
 10
157.1939573441
 20
34.6921604858
 40
1.4754098361
 50
90.0
 51
146.2510114041
  0
ARC
  8
0
 62
7
  6
CONTINUOUS
 10
152.0327582009
 20
34.3642916334
 40
0.8196721311
 50
270.0
 51
360.0
  0
ARC
  8
0
 62
7
  6
CONTINUOUS
 10
156.7868565615
 20
34.2003572071
 40
0.8196721311
 50
90.0
 51
180.0
  0
ARC
  8
0
 62
7
  6
CONTINUOUS
 10
151.3770204959
 20
33.9544555678
 40
0.4098360656
 50
180.0
 51
270.0
  0
ARC
  8
0
 62
7
  6
CONTINUOUS
 10
157.4425942664
 20
34.6101932727
 40
0.4098360656
 50
0.0
 51
90.0
  0
SOLID
  8
0
 62
7
  6
CONTINUOUS
 10
156.279992028
 20
31.9488752009
 11
156.279992028
 21
32.1101936845
 12
156.5690540869
 22
31.9488752009
 13
156.5690540869
 23
32.1101936845
  0
SOLID
  8
0
 62
7
  6
CONTINUOUS
 10
150.5565542799
 20
31.6262382337
 11
150.9612418074
 21
31.5939740028
 12
150.2096793212
 22
31.5939740028
 13
150.2096793212
 23
31.5939740028
  0
SOLID
  8
0
 62
7
  6
CONTINUOUS
 10
150.0362418212
 20
31.5617111435
 11
150.2096793212
 21
31.5939740028
 12
150.9612418074
 22
31.5939740028
 13
150.9612418074
 23
31.5939740028
  0
SOLID
  8
0
 62
7
  6
CONTINUOUS
 10
150.9612418074
 20
31.5939740028
 11
151.1924917523
 21
31.5294468402
 12
150.0362418212
 22
31.5617111435
 13
150.0362418212
 23
31.5617111435
  0
SOLID
  8
0
 62
7
  6
CONTINUOUS
 10
149.8628043005
 20
31.49718259
 11
150.0362418212
 21
31.5617111435
 12
151.1924917523
 22
31.5294468402
 13
151.1924917523
 23
31.5294468402
  0
SOLID
  8
0
 62
7
  6
CONTINUOUS
 10
149.8628043005
 20
31.49718259
 11
151.1924917523
 21
31.5294468402
 12
150.498741835
 22
31.49718259
 13
150.498741835
 23
31.49718259
  0
SOLID
  8
0
 62
7
  6
CONTINUOUS
 10
150.498741835
 20
31.49718259
 11
151.1924917523
 21
31.5294468402
 12
150.9034292799
 22
31.4649197501
 13
150.9034292799
 23
31.4649197501
  0
SOLID
  8
0
 62
7
  6
CONTINUOUS
 10
151.1924917523
 20
31.5294468402
 11
151.3659292523
 21
31.4326554468
 12
150.9034292799
 22
31.4649197501
 13
150.9034292799
 23
31.4649197501
  0
SOLID
  8
0
 62
7
  6
CONTINUOUS
 10
151.0768668626
 20
31.4003926599
 11
150.9034292799
 21
31.4649197501
 12
151.3659292523
 22
31.4326554468
 13
151.3659292523
 23
31.4326554468
  0
SOLID
  8
0
 62
7
  6
CONTINUOUS
 10
151.0768668626
 20
31.4003926599
 11
151.3659292523
 21
31.4326554468
 12
151.1346793074
 22
31.3036013776
 13
151.1346793074
 23
31.3036013776
  0
SOLID
  8
0
 62
7
  6
CONTINUOUS
 10
151.3659292523
 20
31.4326554468
 11
151.4237418626
 21
31.3036013776
 12
151.1346793074
 22
31.3036013776
 13
151.1346793074
 23
31.3036013776
  0
SOLID
  8
0
 62
7
  6
CONTINUOUS
 10
152.4643666972
 20
31.5939739754
 11
152.6956168074
 21
31.6262382787
 12
152.9268669177
 22
31.6262382787
 13
152.9268669177
 23
31.6262382787
  0
SOLID
  8
0
 62
7
  6
CONTINUOUS
 10
152.9268669177
 20
31.6262382787
 11
153.1003044177
 21
31.5939739754
 12
152.4643666972
 22
31.5939739754
 13
152.4643666972
 23
31.5939739754
  0
SOLID
  8
0
 62
7
  6
CONTINUOUS
 10
152.2909293626
 20
31.5294468852
 11
152.4643666972
 21
31.5939739754
 12
153.1003044177
 22
31.5939739754
 13
153.1003044177
 23
31.5939739754
  0
SOLID
  8
0
 62
7
  6
CONTINUOUS
 10
153.1003044177
 20
31.5939739754
 11
153.2737419177
 21
31.5294468852
 12
152.2909293626
 22
31.5294468852
 13
152.2909293626
 23
31.5294468852
  0
SOLID
  8
0
 62
7
  6
CONTINUOUS
 10
153.2737419177
 20
31.5294468852
 11
152.6956168074
 21
31.4971825369
 12
152.2909293626
 22
31.5294468852
 13
152.2909293626
 23
31.5294468852
  0
SOLID
  8
0
 62
7
  6
CONTINUOUS
 10
152.1753043074
 20
31.4649197951
 11
152.2909293626
 21
31.5294468852
 12
152.6956168074
 22
31.4971825369
 13
152.6956168074
 23
31.4971825369
  0
SOLID
  8
0
 62
7
  6
CONTINUOUS
 10
152.6956168074
 20
31.4971825369
 11
152.4643666972
 21
31.4649197951
 12
152.1753043074
 22
31.4649197951
 13
152.1753043074
 23
31.4649197951
  0
SOLID
  8
0
 62
7
  6
CONTINUOUS
 10
152.6956168074
 20
31.4971825369
 11
153.2737419177
 21
31.5294468852
 12
152.9268669177
 22
31.4649197951
 13
152.9268669177
 23
31.4649197951
  0
SOLID
  8
0
 62
7
  6
CONTINUOUS
 10
153.2737419177
 20
31.5294468852
 11
153.3893668074
 21
31.4649197951
 12
152.9268669177
 22
31.4649197951
 13
152.9268669177
 23
31.4649197951
  0
SOLID
  8
0
 62
7
  6
CONTINUOUS
 10
153.0424918074
 20
31.4326554468
 11
152.9268669177
 21
31.4649197951
 12
153.3893668074
 22
31.4649197951
 13
153.3893668074
 23
31.4649197951
  0
SOLID
  8
0
 62
7
  6
CONTINUOUS
 10
153.3893668074
 20
31.4649197951
 11
153.4471794177
 21
31.4003927049
 12
153.0424918074
 22
31.4326554468
 13
153.0424918074
 23
31.4326554468
  0
SOLID
  8
0
 62
7
  6
CONTINUOUS
 10
153.1581166972
 20
31.3681283566
 11
153.0424918074
 21
31.4326554468
 12
153.4471794177
 22
31.4003927049
 13
153.4471794177
 23
31.4003927049
  0
SOLID
  8
0
 62
7
  6
CONTINUOUS
 10
153.1581166972
 20
31.3681283566
 11
153.4471794177
 21
31.4003927049
 12
153.2159293074
 22
31.2390742213
 13
153.2159293074
 23
31.2390742213
  0
SOLID
  8
0
 62
7
  6
CONTINUOUS
 10
153.4471794177
 20
31.4003927049
 11
153.5049916972
 21
31.2390742213
 12
153.2159293074
 22
31.2390742213
 13
153.2159293074
 23
31.2390742213
  0
SOLID
  8
0
 62
7
  6
CONTINUOUS
 10
152.4643666972
 20
31.4649197951
 11
152.2909293626
 21
31.4003927049
 12
152.1753043074
 22
31.4649197951
 13
152.1753043074
 23
31.4649197951
  0
SOLID
  8
0
 62
7
  6
CONTINUOUS
 10
152.2909293626
 20
31.4003927049
 11
152.1753043074
 21
31.3358640533
 12
152.1753043074
 22
31.4649197951
 13
152.1753043074
 23
31.4649197951
  0
SOLID
  8
0
 62
7
  6
CONTINUOUS
 10
152.1753043074
 20
31.3358640533
 11
151.8862417523
 21
30.5938002869
 12
152.1753043074
 22
31.4649197951
 13
152.1753043074
 23
31.4649197951
  0
SOLID
  8
0
 62
7
  6
CONTINUOUS
 10
152.1753043074
 20
31.4649197951
 11
151.8862417523
 21
30.5938002869
 12
152.1753043074
 22
32.1101937295
 13
152.1753043074
 23
32.1101937295
  0
SOLID
  8
0
 62
7
  6
CONTINUOUS
 10
151.8862417523
 20
30.5938002869
 11
151.8862417523
 21
32.1101937295
 12
152.1753043074
 22
32.1101937295
 13
152.1753043074
 23
32.1101937295
  0
SOLID
  8
0
 62
7
  6
CONTINUOUS
 10
152.1753043074
 20
31.3358640533
 11
152.1753043074
 21
30.5938002869
 12
151.8862417523
 22
30.5938002869
 13
151.8862417523
 23
30.5938002869
  0
SOLID
  8
0
 62
7
  6
CONTINUOUS
 10
153.2159293074
 20
30.5938002869
 11
153.2159293074
 21
31.2390742213
 12
153.5049916972
 22
31.2390742213
 13
153.5049916972
 23
31.2390742213
  0
SOLID
  8
0
 62
7
  6
CONTINUOUS
 10
153.5049916972
 20
31.2390742213
 11
153.5049916972
 21
30.5938002869
 12
153.2159293074
 22
30.5938002869
 13
153.2159293074
 23
30.5938002869
  0
SOLID
  8
0
 62
7
  6
CONTINUOUS
 10
154.2565543074
 20
31.5939738288
 11
154.6612419177
 21
31.6262385959
 12
155.0081169177
 22
31.6262385959
 13
155.0081169177
 23
31.6262385959
  0
SOLID
  8
0
 62
7
  6
CONTINUOUS
 10
155.0081169177
 20
31.6262385959
 11
155.3549915869
 21
31.5939738288
 12
154.2565543074
 22
31.5939738288
 13
154.2565543074
 23
31.5939738288
  0
SOLID
  8
0
 62
7
  6
CONTINUOUS
 10
154.1409294177
 20
31.5617111435
 11
154.2565543074
 21
31.5939738288
 12
155.3549915869
 22
31.5939738288
 13
155.3549915869
 23
31.5939738288
  0
SOLID
  8
0
 62
7
  6
CONTINUOUS
 10
155.3549915869
 20
31.5939738288
 11
155.5284290869
 21
31.5294468402
 12
154.1409294177
 22
31.5617111435
 13
154.1409294177
 23
31.5617111435
  0
SOLID
  8
0
 62
7
  6
CONTINUOUS
 10
154.0253041972
 20
31.4971826249
 11
154.1409294177
 21
31.5617111435
 12
155.5284290869
 22
31.5294468402
 13
155.5284290869
 23
31.5294468402
  0
SOLID
  8
0
 62
7
  6
CONTINUOUS
 10
154.0253041972
 20
31.4971826249
 11
155.5284290869
 21
31.5294468402
 12
154.6612419177
 22
31.4971826249
 13
154.6612419177
 23
31.4971826249
  0
SOLID
  8
0
 62
7
  6
CONTINUOUS
 10
154.6612419177
 20
31.4971826249
 11
155.5284290869
 21
31.5294468402
 12
155.0081169177
 22
31.4971826249
 13
155.0081169177
 23
31.4971826249
  0
SOLID
  8
0
 62
7
  6
CONTINUOUS
 10
155.0081169177
 20
31.4971826249
 11
155.5284290869
 21
31.5294468402
 12
155.239367028
 22
31.4649194065
 13
155.239367028
 23
31.4649194065
  0
SOLID
  8
0
 62
7
  6
CONTINUOUS
 10
155.5284290869
 20
31.5294468402
 11
155.6440543074
 21
31.4649194065
 12
155.239367028
 22
31.4649194065
 13
155.239367028
 23
31.4649194065
  0
SOLID
  8
0
 62
7
  6
CONTINUOUS
 10
153.9674919177
 20
31.4326554138
 11
154.0253041972
 21
31.4971826249
 12
154.6612419177
 22
31.4971826249
 13
154.6612419177
 23
31.4971826249
  0
SOLID
  8
0
 62
7
  6
CONTINUOUS
 10
155.3549915869
 20
31.4326554138
 11
155.239367028
 21
31.4649194065
 12
155.6440543074
 22
31.4649194065
 13
155.6440543074
 23
31.4649194065
  0
SOLID
  8
0
 62
7
  6
CONTINUOUS
 10
155.3549915869
 20
31.4326554138
 11
155.6440543074
 21
31.4649194065
 12
155.412804528
 22
31.3681282026
 13
155.412804528
 23
31.3681282026
  0
SOLID
  8
0
 62
7
  6
CONTINUOUS
 10
155.6440543074
 20
31.4649194065
 11
155.7018665869
 21
31.3681282026
 12
155.412804528
 22
31.3681282026
 13
155.412804528
 23
31.3681282026
  0
SOLID
  8
0
 62
7
  6
CONTINUOUS
 10
155.412804528
 20
31.2713369632
 11
155.412804528
 21
31.3681282026
 12
155.7018665869
 22
31.3681282026
 13
155.7018665869
 23
31.3681282026
  0
SOLID
  8
0
 62
7
  6
CONTINUOUS
 10
155.412804528
 20
31.2713369632
 11
155.7018665869
 21
31.3681282026
 12
155.412804528
 22
31.1422827828
 13
155.412804528
 23
31.1422827828
  0
SOLID
  8
0
 62
7
  6
CONTINUOUS
 10
155.412804528
 20
31.1422827828
 11
155.7018665869
 21
31.3681282026
 12
155.412804528
 22
30.9487004259
 13
155.412804528
 23
30.9487004259
  0
SOLID
  8
0
 62
7
  6
CONTINUOUS
 10
155.7018665869
 20
31.3681282026
 11
155.7018665869
 21
30.8519086025
 12
155.412804528
 22
30.9487004259
 13
155.412804528
 23
30.9487004259
  0
SOLID
  8
0
 62
7
  6
CONTINUOUS
 10
157.6096790869
 20
31.5939736268
 11
157.840929528
 21
31.6262383465
 12
158.0721793074
 22
31.6262383465
 13
158.0721793074
 23
31.6262383465
  0
SOLID
  8
0
 62
7
  6
CONTINUOUS
 10
158.0721793074
 20
31.6262383465
 11
158.2456168074
 21
31.5939736268
 12
157.6096790869
 22
31.5939736268
 13
157.6096790869
 23
31.5939736268
  0
SOLID
  8
0
 62
7
  6
CONTINUOUS
 10
157.4362415869
 20
31.5294472848
 11
157.6096790869
 21
31.5939736268
 12
158.2456168074
 22
31.5939736268
 13
158.2456168074
 23
31.5939736268
  0
SOLID
  8
0
 62
7
  6
CONTINUOUS
 10
158.2456168074
 20
31.5939736268
 11
158.4190543074
 21
31.5294472848
 12
157.4362415869
 22
31.5294472848
 13
157.4362415869
 23
31.5294472848
  0
SOLID
  8
0
 62
7
  6
CONTINUOUS
 10
158.4190543074
 20
31.5294472848
 11
157.840929528
 21
31.4971825369
 12
157.4362415869
 22
31.5294472848
 13
157.4362415869
 23
31.5294472848
  0
SOLID
  8
0
 62
7
  6
CONTINUOUS
 10
157.320617028
 20
31.4649199103
 11
157.4362415869
 21
31.5294472848
 12
157.840929528
 22
31.4971825369
 13
157.840929528
 23
31.4971825369
  0
SOLID
  8
0
 62
7
  6
CONTINUOUS
 10
157.840929528
 20
31.4971825369
 11
157.6096790869
 21
31.4649199103
 12
157.320617028
 22
31.4649199103
 13
157.320617028
 23
31.4649199103
  0
SOLID
  8
0
 62
7
  6
CONTINUOUS
 10
157.840929528
 20
31.4971825369
 11
158.4190543074
 21
31.5294472848
 12
158.0721793074
 22
31.4649199103
 13
158.0721793074
 23
31.4649199103
  0
SOLID
  8
0
 62
7
  6
CONTINUOUS
 10
158.4190543074
 20
31.5294472848
 11
158.534679528
 21
31.4649199103
 12
158.0721793074
 22
31.4649199103
 13
158.0721793074
 23
31.4649199103
  0
SOLID
  8
0
 62
7
  6
CONTINUOUS
 10
158.187804528
 20
31.4326554468
 11
158.0721793074
 21
31.4649199103
 12
158.534679528
 22
31.4649199103
 13
158.534679528
 23
31.4649199103
  0
SOLID
  8
0
 62
7
  6
CONTINUOUS
 10
158.187804528
 20
31.4326554468
 11
158.534679528
 21
31.4649199103
 12
158.3034290869
 22
31.3681288486
 13
158.3034290869
 23
31.3681288486
  0
SOLID
  8
0
 62
7
  6
CONTINUOUS
 10
158.534679528
 20
31.4649199103
 11
158.5924918074
 21
31.3681288486
 12
158.3034290869
 22
31.3681288486
 13
158.3034290869
 23
31.3681288486
  0
SOLID
  8
0
 62
7
  6
CONTINUOUS
 10
158.361242028
 20
31.2068093799
 11
158.3034290869
 21
31.3681288486
 12
158.5924918074
 22
31.3681288486
 13
158.5924918074
 23
31.3681288486
  0
SOLID
  8
0
 62
7
  6
CONTINUOUS
 10
158.5924918074
 20
31.3681288486
 11
158.6503040869
 21
31.2068093799
 12
158.361242028
 22
31.2068093799
 13
158.361242028
 23
31.2068093799
  0
SOLID
  8
0
 62
7
  6
CONTINUOUS
 10
157.6096790869
 20
31.4649199103
 11
157.4362415869
 21
31.4003926599
 12
157.320617028
 22
31.4649199103
 13
157.320617028
 23
31.4649199103
  0
SOLID
  8
0
 62
7
  6
CONTINUOUS
 10
157.4362415869
 20
31.4003926599
 11
157.320617028
 21
31.3358640533
 12
157.320617028
 22
31.4649199103
 13
157.320617028
 23
31.4649199103
  0
SOLID
  8
0
 62
7
  6
CONTINUOUS
 10
157.320617028
 20
31.3358640533
 11
157.0315543074
 21
30.5938003547
 12
157.320617028
 22
31.4649199103
 13
157.320617028
 23
31.4649199103
  0
SOLID
  8
0
 62
7
  6
CONTINUOUS
 10
157.320617028
 20
31.4649199103
 11
157.0315543074
 21
30.5938003547
 12
157.320617028
 22
31.6262383465
 13
157.320617028
 23
31.6262383465
  0
SOLID
  8
0
 62
7
  6
CONTINUOUS
 10
157.0315543074
 20
30.5938003547
 11
157.0315543074
 21
31.6262383465
 12
157.320617028
 22
31.6262383465
 13
157.320617028
 23
31.6262383465
  0
SOLID
  8
0
 62
7
  6
CONTINUOUS
 10
157.320617028
 20
31.3358640533
 11
157.320617028
 21
30.5938003547
 12
157.0315543074
 22
30.5938003547
 13
157.0315543074
 23
30.5938003547
  0
SOLID
  8
0
 62
7
  6
CONTINUOUS
 10
158.361242028
 20
30.5938003547
 11
158.361242028
 21
31.2068093799
 12
158.6503040869
 22
31.2068093799
 13
158.6503040869
 23
31.2068093799
  0
SOLID
  8
0
 62
7
  6
CONTINUOUS
 10
158.6503040869
 20
31.2068093799
 11
158.6503040869
 21
30.5938003547
 12
158.361242028
 22
30.5938003547
 13
158.361242028
 23
30.5938003547
  0
SOLID
  8
0
 62
7
  6
CONTINUOUS
 10
159.4596793074
 20
31.5939739474
 11
159.8065543074
 21
31.6262381969
 12
160.1534293074
 22
31.6262381969
 13
160.1534293074
 23
31.6262381969
  0
SOLID
  8
0
 62
7
  6
CONTINUOUS
 10
160.1534293074
 20
31.6262381969
 11
160.5003043074
 21
31.5939739474
 12
159.4596793074
 22
31.5939739474
 13
159.4596793074
 23
31.5939739474
  0
SOLID
  8
0
 62
7
  6
CONTINUOUS
 10
159.228429528
 20
31.5294468402
 11
159.4596793074
 21
31.5939739474
 12
160.5003043074
 22
31.5939739474
 13
160.5003043074
 23
31.5939739474
  0
SOLID
  8
0
 62
7
  6
CONTINUOUS
 10
159.228429528
 20
31.5294468402
 11
160.5003043074
 21
31.5939739304
 12
160.6737418074
 22
31.5617111435
 13
160.6737418074
 23
31.5617111435
  0
SOLID
  8
0
 62
7
  6
CONTINUOUS
 10
159.228429528
 20
31.5294468402
 11
160.6737418074
 21
31.5617111435
 12
159.8065543074
 22
31.4971825592
 13
159.8065543074
 23
31.4971825592
  0
SOLID
  8
0
 62
7
  6
CONTINUOUS
 10
159.8065543074
 20
31.4971825592
 11
160.6737418074
 21
31.5617111435
 12
160.1534293074
 22
31.4971825592
 13
160.1534293074
 23
31.4971825592
  0
SOLID
  8
0
 62
7
  6
CONTINUOUS
 10
160.6737418074
 20
31.5617111435
 11
160.8471793074
 21
31.4971825592
 12
160.1534293074
 22
31.4971825592
 13
160.1534293074
 23
31.4971825592
  0
SOLID
  8
0
 62
7
  6
CONTINUOUS
 10
160.5003043074
 20
31.4649197501
 11
160.1534293074
 21
31.4971825592
 12
160.8471793074
 22
31.4971825592
 13
160.8471793074
 23
31.4971825592
  0
SOLID
  8
0
 62
7
  6
CONTINUOUS
 10
159.1128043074
 20
31.4326555427
 11
159.228429528
 21
31.5294468402
 12
159.8065543074
 22
31.4971825592
 13
159.8065543074
 23
31.4971825592
  0
SOLID
  8
0
 62
7
  6
CONTINUOUS
 10
160.5003043074
 20
31.4649197501
 11
160.8471793074
 21
31.4971825592
 12
160.615929528
 22
31.4326555427
 13
160.615929528
 23
31.4326555427
  0
SOLID
  8
0
 62
7
  6
CONTINUOUS
 10
160.615929528
 20
31.4326555427
 11
160.8471793074
 21
31.4971825592
 12
160.6737418074
 22
31.3681283005
 13
160.6737418074
 23
31.3681283005
  0
SOLID
  8
0
 62
7
  6
CONTINUOUS
 10
160.8471793074
 20
31.4971825592
 11
160.9628038663
 21
31.3681283005
 12
160.6737418074
 22
31.3681283005
 13
160.6737418074
 23
31.3681283005
  0
SOLID
  8
0
 62
7
  6
CONTINUOUS
 10
150.2674918074
 20
31.4649197501
 11
149.7471793074
 21
31.4326554237
 12
150.498741835
 22
31.4971824493
 13
150.498741835
 23
31.4971824493
  0
SOLID
  8
0
 62
7
  6
CONTINUOUS
 10
149.7471793074
 20
31.4326554237
 11
149.8628043005
 21
31.4971824493
 12
150.498741835
 22
31.4971824493
 13
150.498741835
 23
31.4971824493
  0
SOLID
  8
0
 62
7
  6
CONTINUOUS
 10
150.2674918074
 20
31.4649197501
 11
150.1518667936
 21
31.4326554237
 12
149.7471793074
 22
31.4326554237
 13
149.7471793074
 23
31.4326554237
  0
SOLID
  8
0
 62
7
  6
CONTINUOUS
 10
149.6315543091
 20
31.3036012664
 11
149.7471793074
 21
31.4326554237
 12
150.1518667936
 22
31.4326554237
 13
150.1518667936
 23
31.4326554237
  0
SOLID
  8
0
 62
7
  6
CONTINUOUS
 10
153.9674919177
 20
31.4326554237
 11
154.6612419177
 21
31.4971825369
 12
154.4299918074
 22
31.4649197501
 13
154.4299918074
 23
31.4649197501
  0
SOLID
  8
0
 62
7
  6
CONTINUOUS
 10
154.4299918074
 20
31.4649197501
 11
154.3143669177
 21
31.4326554237
 12
153.9674919177
 22
31.4326554237
 13
153.9674919177
 23
31.4326554237
  0
SOLID
  8
0
 62
7
  6
CONTINUOUS
 10
153.9674919177
 20
31.3681283335
 11
153.9674919177
 21
31.4326554237
 12
154.3143669177
 22
31.4326554237
 13
154.3143669177
 23
31.4326554237
  0
SOLID
  8
0
 62
7
  6
CONTINUOUS
 10
154.3143669177
 20
31.4326554237
 11
154.2565543074
 21
31.3681283335
 12
153.9674919177
 22
31.3681283335
 13
153.9674919177
 23
31.3681283335
  0
SOLID
  8
0
 62
7
  6
CONTINUOUS
 10
159.1128043074
 20
31.4326555528
 11
159.8065543074
 21
31.4971825369
 12
159.575304528
 22
31.4649197501
 13
159.575304528
 23
31.4649197501
  0
SOLID
  8
0
 62
7
  6
CONTINUOUS
 10
159.575304528
 20
31.4649197501
 11
159.4596793074
 21
31.4326555528
 12
159.1128043074
 22
31.4326555528
 13
159.1128043074
 23
31.4326555528
  0
SOLID
  8
0
 62
7
  6
CONTINUOUS
 10
159.1128043074
 20
31.3681284626
 11
159.1128043074
 21
31.4326555528
 12
159.4596793074
 22
31.4326555528
 13
159.4596793074
 23
31.4326555528
  0
SOLID
  8
0
 62
7
  6
CONTINUOUS
 10
159.4596793074
 20
31.4326555528
 11
159.401867028
 21
31.3681284626
 12
159.1128043074
 22
31.3681284626
 13
159.1128043074
 23
31.3681284626
  0
SOLID
  8
0
 62
7
  6
CONTINUOUS
 10
159.228429528
 20
31.2390741763
 11
159.1128043074
 21
31.3681284626
 12
159.401867028
 22
31.3681284626
 13
159.401867028
 23
31.3681284626
  0
SOLID
  8
0
 62
7
  6
CONTINUOUS
 10
149.6315543091
 20
31.3036012664
 11
150.1518667936
 21
31.4326554468
 12
149.9784292936
 22
31.3358640533
 13
149.9784292936
 23
31.3358640533
  0
SOLID
  8
0
 62
7
  6
CONTINUOUS
 10
149.9784292936
 20
31.3358640533
 11
149.9206168074
 21
31.2713369632
 12
149.6315543091
 22
31.3036012664
 13
149.6315543091
 23
31.3036012664
  0
SOLID
  8
0
 62
7
  6
CONTINUOUS
 10
149.5737418074
 20
31.1100184796
 11
149.6315543091
 21
31.3036012664
 12
149.9206168074
 22
31.2713369632
 13
149.9206168074
 23
31.2713369632
  0
SOLID
  8
0
 62
7
  6
CONTINUOUS
 10
154.4299918074
 20
31.2390741763
 11
154.7768668074
 21
31.271336924
 12
155.412804528
 22
31.271336924
 13
155.412804528
 23
31.271336924
  0
SOLID
  8
0
 62
7
  6
CONTINUOUS
 10
154.4299918074
 20
31.2390741763
 11
155.412804528
 21
31.271336924
 12
154.1987416972
 22
31.1745462761
 13
154.1987416972
 23
31.1745462761
  0
SOLID
  8
0
 62
7
  6
CONTINUOUS
 10
154.1987416972
 20
31.1745462761
 11
155.412804528
 21
31.271336924
 12
154.7768668074
 22
31.1422827436
 13
154.7768668074
 23
31.1422827436
  0
SOLID
  8
0
 62
7
  6
CONTINUOUS
 10
155.412804528
 20
31.271336924
 11
155.412804528
 21
31.1422827436
 12
154.7768668074
 22
31.1422827436
 13
154.7768668074
 23
31.1422827436
  0
SOLID
  8
0
 62
7
  6
CONTINUOUS
 10
159.228429528
 20
31.2390745501
 11
159.401867028
 21
31.3681283566
 12
159.4596793074
 22
31.3036012664
 13
159.4596793074
 23
31.3036012664
  0
SOLID
  8
0
 62
7
  6
CONTINUOUS
 10
159.4596793074
 20
31.3036012664
 11
159.6331168074
 21
31.2390745501
 12
159.228429528
 22
31.2390745501
 13
159.228429528
 23
31.2390745501
  0
SOLID
  8
0
 62
7
  6
CONTINUOUS
 10
159.4596793074
 20
31.1422827828
 11
159.228429528
 21
31.2390745501
 12
159.6331168074
 22
31.2390745501
 13
159.6331168074
 23
31.2390745501
  0
SOLID
  8
0
 62
7
  6
CONTINUOUS
 10
159.6331168074
 20
31.2390745501
 11
160.615929528
 21
31.0777556927
 12
159.4596793074
 22
31.1422827828
 13
159.4596793074
 23
31.1422827828
  0
SOLID
  8
0
 62
7
  6
CONTINUOUS
 10
160.442492028
 20
30.9809646623
 11
159.4596793074
 21
31.1422827828
 12
160.615929528
 22
31.0777556927
 13
160.615929528
 23
31.0777556927
  0
SOLID
  8
0
 62
7
  6
CONTINUOUS
 10
160.615929528
 20
31.0777556927
 11
160.8471793074
 21
30.9809646623
 12
160.442492028
 22
30.9809646623
 13
160.442492028
 23
30.9809646623
  0
SOLID
  8
0
 62
7
  6
CONTINUOUS
 10
160.615929528
 20
30.9164372091
 11
160.442492028
 21
30.9809646623
 12
160.8471793074
 22
30.9809646623
 13
160.8471793074
 23
30.9809646623
  0
SOLID
  8
0
 62
7
  6
CONTINUOUS
 10
160.615929528
 20
30.9164372091
 11
160.8471793074
 21
30.9809646623
 12
160.6737418074
 22
30.8519089441
 13
160.6737418074
 23
30.8519089441
  0
SOLID
  8
0
 62
7
  6
CONTINUOUS
 10
160.8471793074
 20
30.9809646623
 11
160.9628038663
 21
30.8519089441
 12
160.6737418074
 22
30.8519089441
 13
160.6737418074
 23
30.8519089441
  0
SOLID
  8
0
 62
7
  6
CONTINUOUS
 10
160.615929528
 20
30.7873818593
 11
160.6737418074
 21
30.8519089441
 12
160.9628038663
 22
30.8519089441
 13
160.9628038663
 23
30.8519089441
  0
SOLID
  8
0
 62
7
  6
CONTINUOUS
 10
160.9628038663
 20
30.8519089441
 11
160.9628038663
 21
30.7873818593
 12
160.615929528
 22
30.7873818593
 13
160.615929528
 23
30.7873818593
  0
SOLID
  8
0
 62
7
  6
CONTINUOUS
 10
160.5003043074
 20
30.7551187255
 11
160.615929528
 21
30.7873818593
 12
160.9628038663
 22
30.7873818593
 13
160.9628038663
 23
30.7873818593
  0
SOLID
  8
0
 62
7
  6
CONTINUOUS
 10
160.5003043074
 20
30.7551187255
 11
160.9628038663
 21
30.7873818593
 12
160.269054528
 22
30.7228547745
 13
160.269054528
 23
30.7228547745
  0
SOLID
  8
0
 62
7
  6
CONTINUOUS
 10
160.9628038663
 20
30.7873818593
 11
160.8471793074
 21
30.6905916353
 12
160.269054528
 22
30.7228547745
 13
160.269054528
 23
30.7228547745
  0
SOLID
  8
0
 62
7
  6
CONTINUOUS
 10
160.8471793074
 20
30.6905916353
 11
159.401867028
 21
30.658327332
 12
160.269054528
 22
30.7228547745
 13
160.269054528
 23
30.7228547745
  0
SOLID
  8
0
 62
7
  6
CONTINUOUS
 10
160.269054528
 20
30.7228547745
 11
159.401867028
 21
30.658327332
 12
159.922179528
 22
30.7228547745
 13
159.922179528
 23
30.7228547745
  0
SOLID
  8
0
 62
7
  6
CONTINUOUS
 10
159.401867028
 20
30.658327332
 11
159.228429528
 21
30.7228547745
 12
159.922179528
 22
30.7228547745
 13
159.922179528
 23
30.7228547745
  0
SOLID
  8
0
 62
7
  6
CONTINUOUS
 10
159.401867028
 20
30.658327332
 11
160.8471793074
 21
30.6905916353
 12
159.575304528
 22
30.6260629858
 13
159.575304528
 23
30.6260629858
  0
SOLID
  8
0
 62
7
  6
CONTINUOUS
 10
160.8471793074
 20
30.6905916353
 11
160.615929528
 21
30.6260629858
 12
159.575304528
 22
30.6260629858
 13
159.575304528
 23
30.6260629858
  0
SOLID
  8
0
 62
7
  6
CONTINUOUS
 10
159.922179528
 20
30.5938006049
 11
159.575304528
 21
30.6260629858
 12
160.615929528
 22
30.6260629858
 13
160.615929528
 23
30.6260629858
  0
SOLID
  8
0
 62
7
  6
CONTINUOUS
 10
160.615929528
 20
30.6260629858
 11
160.269054528
 21
30.5938006049
 12
159.922179528
 22
30.5938006049
 13
159.922179528
 23
30.5938006049
  0
SOLID
  8
0
 62
7
  6
CONTINUOUS
 10
149.5737418074
 20
31.1100184796
 11
149.9206168074
 21
31.2713369632
 12
149.8628043005
 22
31.1422827828
 13
149.8628043005
 23
31.1422827828
  0
SOLID
  8
0
 62
7
  6
CONTINUOUS
 10
149.8628043005
 20
31.1422827828
 11
149.8628043005
 21
31.0454914852
 12
149.5737418074
 22
31.1100184796
 13
149.5737418074
 23
31.1100184796
  0
SOLID
  8
0
 62
7
  6
CONTINUOUS
 10
149.6315543091
 20
30.9164372091
 11
149.5737418074
 21
31.1100184796
 12
149.8628043005
 22
31.0454914852
 13
149.8628043005
 23
31.0454914852
  0
SOLID
  8
0
 62
7
  6
CONTINUOUS
 10
149.8628043005
 20
31.0454914852
 11
149.9784292936
 21
30.8841729058
 12
149.6315543091
 22
30.9164372091
 13
149.6315543091
 23
30.9164372091
  0
SOLID
  8
0
 62
7
  6
CONTINUOUS
 10
149.7471793074
 20
30.7873813202
 11
149.6315543091
 21
30.9164372091
 12
149.9784292936
 22
30.8841729058
 13
149.9784292936
 23
30.8841729058
  0
SOLID
  8
0
 62
7
  6
CONTINUOUS
 10
149.9784292936
 20
30.8841729058
 11
150.1518667936
 21
30.7873813202
 12
149.7471793074
 22
30.7873813202
 13
149.7471793074
 23
30.7873813202
  0
SOLID
  8
0
 62
7
  6
CONTINUOUS
 10
149.8628043005
 20
30.7228547004
 11
149.7471793074
 21
30.7873813202
 12
150.1518667936
 22
30.7873813202
 13
150.1518667936
 23
30.7873813202
  0
SOLID
  8
0
 62
7
  6
CONTINUOUS
 10
150.1518667936
 20
30.7873813202
 11
150.498741835
 21
30.7228547004
 12
149.8628043005
 22
30.7228547004
 13
149.8628043005
 23
30.7228547004
  0
SOLID
  8
0
 62
7
  6
CONTINUOUS
 10
150.0362418212
 20
30.658327332
 11
149.8628043005
 21
30.7228547004
 12
150.498741835
 22
30.7228547004
 13
150.498741835
 23
30.7228547004
  0
SOLID
  8
0
 62
7
  6
CONTINUOUS
 10
154.0831168074
 20
31.1100184386
 11
154.1987416972
 21
31.1745462761
 12
154.7768668074
 22
31.1422827828
 13
154.7768668074
 23
31.1422827828
  0
SOLID
  8
0
 62
7
  6
CONTINUOUS
 10
154.7768668074
 20
31.1422827828
 11
154.5456166972
 21
31.1100184386
 12
154.0831168074
 22
31.1100184386
 13
154.0831168074
 23
31.1100184386
  0
SOLID
  8
0
 62
7
  6
CONTINUOUS
 10
153.9674919177
 20
30.9809642992
 11
154.0831168074
 21
31.1100184386
 12
154.5456166972
 22
31.1100184386
 13
154.5456166972
 23
31.1100184386
  0
SOLID
  8
0
 62
7
  6
CONTINUOUS
 10
154.3143669177
 20
31.0132277988
 11
153.9674919177
 21
30.9809642992
 12
154.4299918074
 22
31.0777556927
 13
154.4299918074
 23
31.0777556927
  0
SOLID
  8
0
 62
7
  6
CONTINUOUS
 10
153.9674919177
 20
30.9809642992
 11
154.5456166972
 21
31.1100184796
 12
154.4299918074
 22
31.0777556927
 13
154.4299918074
 23
31.0777556927
  0
SOLID
  8
0
 62
7
  6
CONTINUOUS
 10
154.3143669177
 20
31.0132277988
 11
154.2565543074
 21
30.9164372091
 12
153.9674919177
 22
30.9809642992
 13
153.9674919177
 23
30.9809642992
  0
SOLID
  8
0
 62
7
  6
CONTINUOUS
 10
153.9674919177
 20
30.8841729058
 11
153.9674919177
 21
30.9809642992
 12
154.2565543074
 22
30.9164372091
 13
154.2565543074
 23
30.9164372091
  0
SOLID
  8
0
 62
7
  6
CONTINUOUS
 10
154.2565543074
 20
30.9164372091
 11
154.2565543074
 21
30.8519086025
 12
153.9674919177
 22
30.8841729058
 13
153.9674919177
 23
30.8841729058
  0
SOLID
  8
0
 62
7
  6
CONTINUOUS
 10
154.0253041972
 20
30.7551187255
 11
153.9674919177
 21
30.8841729058
 12
154.2565543074
 22
30.8519086025
 13
154.2565543074
 23
30.8519086025
  0
SOLID
  8
0
 62
7
  6
CONTINUOUS
 10
155.412804528
 20
30.9487004259
 11
155.7018665869
 21
30.8519086025
 12
155.3549915869
 22
30.8841729058
 13
155.3549915869
 23
30.8841729058
  0
SOLID
  8
0
 62
7
  6
CONTINUOUS
 10
155.1815540869
 20
30.7873815123
 11
155.3549915869
 21
30.8841729058
 12
155.7018665869
 22
30.8519086025
 13
155.7018665869
 23
30.8519086025
  0
SOLID
  8
0
 62
7
  6
CONTINUOUS
 10
155.1815540869
 20
30.7873815123
 11
155.7018665869
 21
30.8519086025
 12
155.412804528
 22
30.7551187255
 13
155.412804528
 23
30.7551187255
  0
SOLID
  8
0
 62
7
  6
CONTINUOUS
 10
155.7018665869
 20
30.8519086025
 11
155.759679528
 21
30.6905916353
 12
155.412804528
 22
30.7551187255
 13
155.412804528
 23
30.7551187255
  0
SOLID
  8
0
 62
7
  6
CONTINUOUS
 10
155.4706168074
 20
30.658327332
 11
155.412804528
 21
30.7551187255
 12
155.759679528
 22
30.6905916353
 13
155.759679528
 23
30.6905916353
  0
SOLID
  8
0
 62
7
  6
CONTINUOUS
 10
155.4706168074
 20
30.658327332
 11
155.759679528
 21
30.6905916353
 12
155.5284290869
 22
30.5938002079
 13
155.5284290869
 23
30.5938002079
  0
SOLID
  8
0
 62
7
  6
CONTINUOUS
 10
155.759679528
 20
30.6905916353
 11
155.8174918074
 21
30.5938002079
 12
155.5284290869
 22
30.5938002079
 13
155.5284290869
 23
30.5938002079
  0
SOLID
  8
0
 62
7
  6
CONTINUOUS
 10
151.0768668626
 20
30.8196456577
 11
151.1346793074
 21
30.9164373395
 12
151.4237418626
 22
30.9164373395
 13
151.4237418626
 23
30.9164373395
  0
SOLID
  8
0
 62
7
  6
CONTINUOUS
 10
151.4237418626
 20
30.9164373395
 11
151.3659292523
 21
30.7873815123
 12
151.0768668626
 22
30.8196456577
 13
151.0768668626
 23
30.8196456577
  0
SOLID
  8
0
 62
7
  6
CONTINUOUS
 10
150.9034292799
 20
30.7551187255
 11
151.0768668626
 21
30.8196456577
 12
151.3659292523
 22
30.7873815123
 13
151.3659292523
 23
30.7873815123
  0
SOLID
  8
0
 62
7
  6
CONTINUOUS
 10
150.9034292799
 20
30.7551187255
 11
151.3659292523
 21
30.7873815123
 12
150.498741835
 22
30.7228544222
 13
150.498741835
 23
30.7228544222
  0
SOLID
  8
0
 62
7
  6
CONTINUOUS
 10
151.3659292523
 20
30.7873815123
 11
151.1924917523
 21
30.6905916353
 12
150.498741835
 22
30.7228544222
 13
150.498741835
 23
30.7228544222
  0
SOLID
  8
0
 62
7
  6
CONTINUOUS
 10
150.0362418212
 20
30.658327332
 11
150.498741835
 21
30.7228544222
 12
151.1924917523
 22
30.6905916353
 13
151.1924917523
 23
30.6905916353
  0
SOLID
  8
0
 62
7
  6
CONTINUOUS
 10
150.0362418212
 20
30.658327332
 11
151.1924917523
 21
30.6905916353
 12
150.2096793212
 22
30.6260631011
 13
150.2096793212
 23
30.6260631011
  0
SOLID
  8
0
 62
7
  6
CONTINUOUS
 10
151.1924917523
 20
30.6905916353
 11
150.9612418074
 21
30.6260631011
 12
150.2096793212
 22
30.6260631011
 13
150.2096793212
 23
30.6260631011
  0
SOLID
  8
0
 62
7
  6
CONTINUOUS
 10
150.5565542799
 20
30.5938002419
 11
150.2096793212
 21
30.6260631011
 12
150.9612418074
 22
30.6260631011
 13
150.9612418074
 23
30.6260631011
  0
SOLID
  8
0
 62
7
  6
CONTINUOUS
 10
154.0253041972
 20
30.7551187255
 11
154.2565543074
 21
30.8519086025
 12
154.3143669177
 22
30.7873815123
 13
154.3143669177
 23
30.7873815123
  0
SOLID
  8
0
 62
7
  6
CONTINUOUS
 10
154.3143669177
 20
30.7873815123
 11
154.5456166972
 21
30.7228544222
 12
154.0253041972
 22
30.7551187255
 13
154.0253041972
 23
30.7551187255
  0
SOLID
  8
0
 62
7
  6
CONTINUOUS
 10
154.1987416972
 20
30.658327332
 11
154.0253041972
 21
30.7551187255
 12
154.5456166972
 22
30.7228544222
 13
154.5456166972
 23
30.7228544222
  0
SOLID
  8
0
 62
7
  6
CONTINUOUS
 10
154.8924916972
 20
30.7228544637
 11
155.1815540869
 21
30.7873815123
 12
155.412804528
 22
30.7551187255
 13
155.412804528
 23
30.7551187255
  0
SOLID
  8
0
 62
7
  6
CONTINUOUS
 10
155.412804528
 20
30.7551187255
 11
155.3549915869
 21
30.6905916353
 12
154.8924916972
 22
30.7228544637
 13
154.8924916972
 23
30.7228544637
  0
SOLID
  8
0
 62
7
  6
CONTINUOUS
 10
155.3549915869
 20
30.6905916353
 11
154.1987416972
 21
30.658327332
 12
154.8924916972
 22
30.7228544637
 13
154.8924916972
 23
30.7228544637
  0
SOLID
  8
0
 62
7
  6
CONTINUOUS
 10
154.1987416972
 20
30.658327332
 11
154.5456166972
 21
30.7228544637
 12
154.8924916972
 22
30.7228544637
 13
154.8924916972
 23
30.7228544637
  0
SOLID
  8
0
 62
7
  6
CONTINUOUS
 10
154.1987416972
 20
30.658327332
 11
155.3549915869
 21
30.6905916353
 12
154.3143669177
 22
30.6260630541
 13
154.3143669177
 23
30.6260630541
  0
SOLID
  8
0
 62
7
  6
CONTINUOUS
 10
155.3549915869
 20
30.6905916353
 11
155.1815540869
 21
30.6260630541
 12
154.3143669177
 22
30.6260630541
 13
154.3143669177
 23
30.6260630541
  0
SOLID
  8
0
 62
7
  6
CONTINUOUS
 10
154.5456166972
 20
30.5938002188
 11
154.3143669177
 21
30.6260630541
 12
155.1815540869
 22
30.6260630541
 13
155.1815540869
 23
30.6260630541
  0
SOLID
  8
0
 62
7
  6
CONTINUOUS
 10
155.1815540869
 20
30.6260630541
 11
154.8924916972
 21
30.5938002188
 12
154.5456166972
 22
30.5938002188
 13
154.5456166972
 23
30.5938002188
  0
SOLID
  8
0
 62
7
  6
CONTINUOUS
 10
159.575304528
 20
30.7551187255
 11
159.228429528
 21
30.7228544637
 12
159.4596793074
 22
30.7873815123
 13
159.4596793074
 23
30.7873815123
  0
SOLID
  8
0
 62
7
  6
CONTINUOUS
 10
159.4596793074
 20
30.7873815123
 11
159.228429528
 21
30.7228544637
 12
159.401867028
 22
30.851908644
 13
159.401867028
 23
30.851908644
  0
SOLID
  8
0
 62
7
  6
CONTINUOUS
 10
159.228429528
 20
30.7228544637
 11
159.1128043074
 21
30.851908644
 12
159.401867028
 22
30.851908644
 13
159.401867028
 23
30.851908644
  0
SOLID
  8
0
 62
7
  6
CONTINUOUS
 10
159.575304528
 20
30.7551187255
 11
159.922179528
 21
30.7228544637
 12
159.228429528
 22
30.7228544637
 13
159.228429528
 23
30.7228544637
  0
SOLID
  8
0
 62
7
  6
CONTINUOUS
 10
156.279992028
 20
30.5938002419
 11
156.279992028
 21
31.6262382337
 12
156.5690540869
 22
30.5938002419
 13
156.5690540869
 23
31.6262382337
  0
ENDBLK
  8
0
  6
BYBLOCK
 62
0
  0
BLOCK
  8
0
 62
2
  6
CONTINUOUS
  2
SYMBOL_3_BL0
 70
64
 10
32.1213064866
 20
19.8534310916
  0
TEXT
  8
0
 62
7
  6
CONTINUOUS
 10
18.3860103289
 20
19.2268451992
  7
TEXTSTYLE_3
 40
2.7338706658
  1
Ammeraal Beltech
 41
1.0
 51
15.0
 72
0
  0
TEXT
  8
0
 62
7
  6
CONTINUOUS
 10
29.1868111546
 20
16.9533085264
  7
TEXTSTYLE_4
 40
1.0935482663
  1
Innovation & Service in Belting
 41
1.0
 72
0
  0
LINE
  8
0
 62
7
  6
CONTINUOUS
 10
12.3614696776
 20
19.9934385078
 11
13.1396216709
 21
23.6543558055
  0
LINE
  8
0
 62
7
  6
CONTINUOUS
 10
23.2347899607
 20
27.3177497171
 11
13.6274394139
 21
24.1961322958
  0
LINE
  8
0
 62
7
  6
CONTINUOUS
 10
12.5867530099
 20
19.3000877048
 11
20.093828271
 21
12.5406867788
  0
LINE
  8
0
 62
7
  6
CONTINUOUS
 10
12.8492874206
 20
20.5352149982
 11
23.6575567857
 21
24.0470345971
  0
LINE
  8
0
 62
7
  6
CONTINUOUS
 10
23.6533516486
 20
13.6972460334
 11
15.2078919798
 21
21.3015720751
  0
LINE
  8
0
 62
7
  6
CONTINUOUS
 10
24.1731743684
 20
26.4728246013
 11
23.1966148312
 21
21.8784731989
  0
LINE
  8
0
 62
7
  6
CONTINUOUS
 10
22.4968128835
 20
18.5861638851
 11
21.810364672
 21
15.3566789607
  0
LINE
  8
0
 62
7
  6
CONTINUOUS
 10
24.8542704669
 20
14.087448211
 11
25.8105020025
 21
18.5861638851
  0
LINE
  8
0
 62
7
  6
CONTINUOUS
 10
26.5103039502
 20
21.8784731989
 11
26.9545457526
 21
23.9684665583
  0
LINE
  8
0
 62
7
  6
CONTINUOUS
 10
20.8069293463
 20
12.3891124661
 11
24.3664527239
 21
13.5456717207
  0
LINE
  8
0
 62
7
  6
CONTINUOUS
 10
23.9478910361
 20
27.1661754044
 11
26.7292624203
 21
24.6618173613
  0
ARC
  8
0
 62
7
  6
CONTINUOUS
 10
13.8527227462
 20
23.5027814928
 40
0.7290321776
 50
108.0
 51
168.0
  0
ARC
  8
0
 62
7
  6
CONTINUOUS
 10
23.4600732931
 20
26.624398914
 40
0.7290321776
 50
348.0
 51
108.0
  0
ARC
  8
0
 62
7
  6
CONTINUOUS
 10
26.2414446773
 20
24.120040871
 40
0.7290321776
 50
348.0
 51
48.0
  0
ARC
  8
0
 62
7
  6
CONTINUOUS
 10
20.581646014
 20
13.0824632691
 40
0.7290321776
 50
228.0
 51
288.0
  0
ARC
  8
0
 62
7
  6
CONTINUOUS
 10
13.0745707529
 20
19.8418641951
 40
0.7290321776
 50
108.0
 51
228.0
  0
ARC
  8
0
 62
7
  6
CONTINUOUS
 10
24.1411693916
 20
14.2390225237
 40
0.7290321776
 50
228.0
 51
348.0
  0
ENDBLK
  8
0
  6
BYBLOCK
 62
0
  0
ENDSEC
  0
SECTION
  2
ENTITIES
  0
TEXT
  8
0
 62
5
  6
CONTINUOUS
 10
96.0
 20
25.636
  7
TEXTSTYLE_2
 40
2.8
  1
Scale :
 41
0.6
 51
0.000019
 72
0
  0
TEXT
  8
0
 62
5
  6
CONTINUOUS
 10
116.0
 20
25.636
  7
TEXTSTYLE_2
 40
2.8
  1
Belt type:
 41
0.6
 51
0.000019
 72
0
  0
INSERT
  8
0
 62
2
  6
CONTINUOUS
  2
SYMBOL_3_BL0
 10
32.1213064866
 20
19.8534310916
  0
INSERT
  8
0
 62
2
  6
CONTINUOUS
  2
SYMBOL_8_BL1
 10
173.5956734183
 20
35.5937998301
  0
LINE
  8
0
 62
2
  6
CONTINUOUS
 10
10.0
 20
30.0
 11
200.0
 21
30.0
  0
LINE
  8
0
 62
2
  6
CONTINUOUS
 10
10.0
 20
30.0
 11
10.0
 21
10.0
  0
LINE
  8
0
 62
2
  6
CONTINUOUS
 10
10.0
 20
10.0
 11
200.0
 21
10.0
  0
LINE
  8
0
 62
2
  6
CONTINUOUS
 10
95.0
 20
30.0
 11
95.0
 21
10.0
  0
LINE
  8
0
 62
2
  6
CONTINUOUS
 10
115.0
 20
30.0
 11
115.0
 21
10.0
  0
LINE
  8
0
 62
2
  6
CONTINUOUS
 10
200.0
 20
30.0
 11
200.0
 21
10.0
  0
TEXT
  8
0
 62
5
  6
CONTINUOUS
 10
13.0
 20
23.303
  7
TEXTSTYLE_5
 40
1.52
  1
                                                                     Ammeraal Beltech Modular A/S
 41
1.0
 72
0
  0
TEXT
  8
0
 62
5
  6
CONTINUOUS
 10
13.0
 20
20.595
  7
TEXTSTYLE_5
 40
1.5
  1
                                                                      Hjulmagervej 21,  7100 Vejle,  DK
 41
1.0
 72
0
  0
TEXT
  8
0
 62
5
  6
CONTINUOUS
 10
13.0
 20
17.881
  7
TEXTSTYLE_5
 40
1.495
  1
                                                                      tel: 
 41
1.0
 72
0
  0
TEXT
  8
0
 62
5
  6
CONTINUOUS
 10
57.9869465649
 20
17.881
  7
TEXTSTYLE_5
 40
1.51
  1
+45 75723100     fax: +45 75723348
 41
1.0
 72
0
  0
TEXT
  8
0
 62
5
  6
CONTINUOUS
 10
13.0
 20
15.177
  7
TEXTSTYLE_5
 40
1.5
  1
                                                                      admin@unichains.dk  www.unichains.com
 41
1.0
 72
0
  0
TEXT
  8
0
 62
5
  6
CONTINUOUS
 10
99.75
 20
13.75
  7
TEXTSTYLE_6
 40
5.0
  1
1:1
 41
0.7
 72
1
 11
105.0
 21
13.75
  0
TEXT
  8
0
 62
5
  6
CONTINUOUS
 10
118.0
 20
13.75
  7
TEXTSTYLE_7
 40
7.5
  1
uni SNB M2 20% Rubber Top K600
 41
0.3343472222
 72
0
  0
LINE
  8
0
 62
7
  6
CONTINUOUS
 10
210.0
 20
0.0
 11
0.0
 21
0.0
  0
LINE
  8
0
 62
7
  6
CONTINUOUS
 10
10.0
 20
10.0
 11
200.0
 21
10.0
  0
LINE
  8
0
 62
7
  6
CONTINUOUS
 10
10.0
 20
30.0
 11
200.0
 21
30.0
  0
LINE
  8
0
 62
7
  6
CONTINUOUS
 10
0.0
 20
0.0
 11
0.0
 21
297.0
  0
LINE
  8
0
 62
7
  6
CONTINUOUS
 10
10.0
 20
10.0
 11
10.0
 21
287.0
  0
LINE
  8
0
 62
7
  6
CONTINUOUS
 10
200.0
 20
287.0
 11
200.0
 21
10.0
  0
LINE
  8
0
 62
7
  6
CONTINUOUS
 10
210.0
 20
0.0
 11
210.0
 21
297.0
  0
LINE
  8
0
 62
7
  6
CONTINUOUS
 10
10.0
 20
287.0
 11
200.0
 21
287.0
  0
LINE
  8
0
 62
7
  6
CONTINUOUS
 10
0.0
 20
297.0
 11
210.0
 21
297.0
  0
LINE
  8
0
 62
7
  6
CONTINUOUS
 10
50.3147773241
 20
62.1214024585
 11
67.4947773237
 21
62.1214024585
  0
LINE
  8
BLANK_CURVE
 62
7
  6
CONTINUOUS
 10
71.5257854266
 20
68.3104608683
 11
71.8265773568
 21
68.3960406932
  0
POLYLINE
  8
0
 62
7
  6
CONTINUOUS
 66
1
 70
0
  0
VERTEX
  8
0
 62
7
  6
CONTINUOUS
 10
71.8265773568
 20
68.3960406932
  0
VERTEX
  8
0
 62
7
  6
CONTINUOUS
 10
72.0470666462
 20
68.4377910137
  0
VERTEX
  8
0
 62
7
  6
CONTINUOUS
 10
72.2705276676
 20
68.4629936744
  0
VERTEX
  8
0
 62
7
  6
CONTINUOUS
 10
72.4947773237
 20
68.4714024585
  0
SEQEND
  0
LINE
  8
0
 62
7
  6
CONTINUOUS
 10
74.1147773237
 20
67.7714024585
 11
74.9147773237
 21
67.7714024585
  0
LINE
  8
0
 62
7
  6
CONTINUOUS
 10
64.4768007448
 20
68.1214024585
 11
50.3147773241
 21
68.1214024585
  0
LINE
  8
0
 62
7
  6
CONTINUOUS
 10
70.7626567315
 20
68.4714024585
 11
83.1147773233
 21
68.4714024585
  0
LINE
  8
0
 62
7
  6
CONTINUOUS
 10
59.3147773237
 20
68.8214024585
 11
58.5147773237
 21
68.8214024585
  0
LINE
  8
0
 62
7
  6
CONTINUOUS
 10
69.5847773237
 20
69.5964024585
 11
78.3147773237
 21
69.5964024585
  0
LINE
  8
0
 62
7
  6
CONTINUOUS
 10
62.4914049241
 20
208.2569972063
 11
62.1927461607
 21
208.0981556431
  0
LINE
  8
0
 62
7
  6
CONTINUOUS
 10
62.1963476068
 20
208.0998217541
 11
61.9037692207
 21
207.9823440487
  0
POLYLINE
  8
0
 62
7
  6
CONTINUOUS
 66
1
 70
0
  0
VERTEX
  8
0
 62
7
  6
CONTINUOUS
 10
62.1927461607
 20
208.0981556431
  0
VERTEX
  8
0
 62
7
  6
CONTINUOUS
 10
61.8809885944
 20
207.9746561045
  0
VERTEX
  8
0
 62
7
  6
CONTINUOUS
 10
61.6029693538
 20
207.8967624052
  0
SEQEND
  0
POLYLINE
  8
0
 62
7
  6
CONTINUOUS
 66
1
 70
0
  0
VERTEX
  8
0
 62
7
  6
CONTINUOUS
 10
64.0541432029
 20
203.7264627455
  0
VERTEX
  8
0
 62
7
  6
CONTINUOUS
 10
64.1630537249
 20
203.7605860312
  0
VERTEX
  8
0
 62
7
  6
CONTINUOUS
 10
64.2612779011
 20
203.8030667626
  0
VERTEX
  8
0
 62
7
  6
CONTINUOUS
 10
64.3484985512
 20
203.851061754
  0
VERTEX
  8
0
 62
7
  6
CONTINUOUS
 10
64.4254216572
 20
203.9026977392
  0
VERTEX
  8
0
 62
7
  6
CONTINUOUS
 10
64.4925685423
 20
203.9566056161
  0
VERTEX
  8
0
 62
7
  6
CONTINUOUS
 10
64.5497982446
 20
204.0113847964
  0
VERTEX
  8
0
 62
7
  6
CONTINUOUS
 10
64.5958289264
 20
204.0646624047
  0
SEQEND
  0
LINE
  8
0
 62
7
  6
CONTINUOUS
 10
69.378015236
 20
72.5669980487
 11
69.3657967028
 21
72.5638540309
  0
POLYLINE
  8
0
 62
7
  6
CONTINUOUS
 66
1
 70
0
  0
VERTEX
  8
0
 62
7
  6
CONTINUOUS
 10
69.6132556854
 20
72.5964024585
  0
VERTEX
  8
0
 62
7
  6
CONTINUOUS
 10
69.5314767152
 20
72.5928413913
  0
VERTEX
  8
0
 62
7
  6
CONTINUOUS
 10
69.4528258338
 20
72.5827269643
  0
VERTEX
  8
0
 62
7
  6
CONTINUOUS
 10
69.378015236
 20
72.5669980487
  0
SEQEND
  0
LINE
  8
0
 62
7
  6
CONTINUOUS
 10
78.3147773237
 20
72.5964024585
 11
69.6132556854
 21
72.5964024585
  0
LINE
  8
0
 62
7
  6
CONTINUOUS
 10
83.1147773233
 20
73.7214024585
 11
74.6288143916
 21
73.7214024585
  0
LINE
  8
0
 62
7
  6
CONTINUOUS
 10
68.9527539026
 20
74.4714024585
 11
75.2647620848
 21
74.4714024585
  0
LINE
  8
0
 62
7
  6
CONTINUOUS
 10
58.1647925626
 20
74.8214024585
 11
64.4768007448
 21
74.8214024585
  0
LINE
  8
0
 62
7
  6
CONTINUOUS
 10
50.3147773241
 20
75.5714024585
 11
58.8007402558
 21
75.5714024585
  0
POLYLINE
  8
0
 62
7
  6
CONTINUOUS
 66
1
 70
0
  0
VERTEX
  8
0
 62
7
  6
CONTINUOUS
 10
62.7347753658
 20
208.4214009884
  0
VERTEX
  8
0
 62
7
  6
CONTINUOUS
 10
62.4750792697
 20
208.2471709487
  0
VERTEX
  8
0
 62
7
  6
CONTINUOUS
 10
62.1963476068
 20
208.0998217541
  0
SEQEND
  0
POLYLINE
  8
0
 62
7
  6
CONTINUOUS
 66
1
 70
0
  0
VERTEX
  8
0
 62
7
  6
CONTINUOUS
 10
69.3657967028
 20
199.5638540309
  0
VERTEX
  8
0
 62
7
  6
CONTINUOUS
 10
69.2579194651
 20
199.5288944814
  0
VERTEX
  8
0
 62
7
  6
CONTINUOUS
 10
69.1606131904
 20
199.4857646771
  0
VERTEX
  8
0
 62
7
  6
CONTINUOUS
 10
69.0741209759
 20
199.437206191
  0
VERTEX
  8
0
 62
7
  6
CONTINUOUS
 10
68.9977869984
 20
199.3850464068
  0
VERTEX
  8
0
 62
7
  6
CONTINUOUS
 10
68.9312046328
 20
199.3306937523
  0
VERTEX
  8
0
 62
7
  6
CONTINUOUS
 10
68.8744894191
 20
199.2755153252
  0
VERTEX
  8
0
 62
7
  6
CONTINUOUS
 10
68.8289259881
 20
199.2218924745
  0
SEQEND
  0
LINE
  8
0
 62
7
  6
CONTINUOUS
 10
64.0541432029
 20
76.7264627455
 11
64.0417952853
 21
76.7234198139
  0
POLYLINE
  8
0
 62
7
  6
CONTINUOUS
 66
1
 70
0
  0
VERTEX
  8
0
 62
7
  6
CONTINUOUS
 10
63.8159457218
 20
76.6964024585
  0
VERTEX
  8
0
 62
7
  6
CONTINUOUS
 10
63.8943076148
 20
76.6996629913
  0
VERTEX
  8
0
 62
7
  6
CONTINUOUS
 10
63.9698036044
 20
76.7089438548
  0
VERTEX
  8
0
 62
7
  6
CONTINUOUS
 10
64.0417952853
 20
76.7234198139
  0
SEQEND
  0
LINE
  8
0
 62
7
  6
CONTINUOUS
 10
55.1147773237
 20
76.6964024585
 11
63.8159457218
 21
76.6964024585
  0
LINE
  8
0
 62
7
  6
CONTINUOUS
 10
63.8447773237
 20
79.6964024585
 11
55.1147773237
 21
79.6964024585
  0
LINE
  8
0
 62
7
  6
CONTINUOUS
 10
74.1147773237
 20
80.4714024585
 11
74.9147773237
 21
80.4714024585
  0
LINE
  8
0
 62
7
  6
CONTINUOUS
 10
64.4768007448
 20
80.8214024585
 11
50.3147773241
 21
80.8214024585
  0
LINE
  8
0
 62
7
  6
CONTINUOUS
 10
68.9527539026
 20
81.1714024585
 11
83.1147773233
 21
81.1714024585
  0
LINE
  8
0
 62
7
  6
CONTINUOUS
 10
67.9366877367
 20
207.621821562
 11
68.3070696204
 21
207.9350069423
  0
POLYLINE
  8
0
 62
7
  6
CONTINUOUS
 66
1
 70
0
  0
VERTEX
  8
0
 62
7
  6
CONTINUOUS
 10
62.7347773237
 20
208.4214024585
  0
VERTEX
  8
0
 62
7
  6
CONTINUOUS
 10
62.9736402227
 20
208.620742344
  0
VERTEX
  8
0
 62
7
  6
CONTINUOUS
 10
63.1907787185
 20
208.843919486
  0
VERTEX
  8
0
 62
7
  6
CONTINUOUS
 10
63.3835913679
 20
209.0884288309
  0
VERTEX
  8
0
 62
7
  6
CONTINUOUS
 10
63.5499901604
 20
209.3515038856
  0
VERTEX
  8
0
 62
7
  6
CONTINUOUS
 10
63.6882200619
 20
209.630402735
  0
VERTEX
  8
0
 62
7
  6
CONTINUOUS
 10
63.7968336681
 20
209.9222187225
  0
SEQEND
  0
POLYLINE
  8
0
 62
7
  6
CONTINUOUS
 66
1
 70
0
  0
VERTEX
  8
0
 62
7
  6
CONTINUOUS
 10
69.5121374087
 20
85.923621252
  0
VERTEX
  8
0
 62
7
  6
CONTINUOUS
 10
69.4312215881
 20
85.9136649604
  0
VERTEX
  8
0
 62
7
  6
CONTINUOUS
 10
69.3431502874
 20
85.893739567
  0
VERTEX
  8
0
 62
7
  6
CONTINUOUS
 10
69.251489528
 20
85.8620606186
  0
VERTEX
  8
0
 62
7
  6
CONTINUOUS
 10
69.1598950379
 20
85.8182325042
  0
VERTEX
  8
0
 62
7
  6
CONTINUOUS
 10
69.0713926935
 20
85.7630256387
  0
VERTEX
  8
0
 62
7
  6
CONTINUOUS
 10
68.9882304114
 20
85.6979260028
  0
VERTEX
  8
0
 62
7
  6
CONTINUOUS
 10
68.9154578807
 20
85.6283874618
  0
SEQEND
  0
LINE
  8
0
 62
7
  6
CONTINUOUS
 10
59.3147773237
 20
81.5214024585
 11
58.5147773237
 21
81.5214024585
  0
LINE
  8
0
 62
7
  6
CONTINUOUS
 10
69.5847773237
 20
82.4264024585
 11
78.3147773237
 21
82.4264024585
  0
LINE
  8
0
 62
7
  6
CONTINUOUS
 10
78.3147773237
 20
85.9264024585
 11
69.5847773237
 21
85.9264024585
  0
POLYLINE
  8
0
 62
7
  6
CONTINUOUS
 66
1
 70
0
  0
VERTEX
  8
0
 62
7
  6
CONTINUOUS
 10
63.9056766359
 20
88.7683564291
  0
VERTEX
  8
0
 62
7
  6
CONTINUOUS
 10
63.9877544398
 20
88.7774530646
  0
VERTEX
  8
0
 62
7
  6
CONTINUOUS
 10
64.0768660344
 20
88.796559048
  0
VERTEX
  8
0
 62
7
  6
CONTINUOUS
 10
64.1694641525
 20
88.8274742556
  0
VERTEX
  8
0
 62
7
  6
CONTINUOUS
 10
64.2619346933
 20
88.8706106308
  0
VERTEX
  8
0
 62
7
  6
CONTINUOUS
 10
64.3512351444
 20
88.9251788575
  0
VERTEX
  8
0
 62
7
  6
CONTINUOUS
 10
64.4351115957
 20
88.9896585939
  0
VERTEX
  8
0
 62
7
  6
CONTINUOUS
 10
64.5086064292
 20
89.0587069769
  0
SEQEND
  0
LINE
  8
0
 62
7
  6
CONTINUOUS
 10
83.1147773233
 20
87.1714024585
 11
68.9527539026
 21
87.1714024585
  0
LINE
  8
0
 62
7
  6
CONTINUOUS
 10
50.3147773241
 20
87.5214024585
 11
64.4768007448
 21
87.5214024585
  0
LINE
  8
0
 62
7
  6
CONTINUOUS
 10
55.1147773237
 20
88.7664024585
 11
63.8447773237
 21
88.7664024585
  0
LINE
  8
0
 62
7
  6
CONTINUOUS
 10
62.8581739892
 20
76.6964024585
 11
68.7474636685
 21
72.0951850817
  0
LINE
  8
0
 62
7
  6
CONTINUOUS
 10
70.5585812419
 20
72.5964024585
 11
64.6782862812
 21
77.1905923908
  0
LINE
  8
0
 62
7
  6
CONTINUOUS
 10
65.122485027
 20
74.5850069423
 11
65.4928669107
 21
74.271821562
  0
LINE
  8
0
 62
7
  6
CONTINUOUS
 10
68.3070696204
 20
74.7077979746
 11
67.9366877367
 21
75.0209833549
  0
LINE
  8
0
 62
7
  6
CONTINUOUS
 10
65.4928669107
 20
195.6709833549
 11
65.122485027
 21
195.3577979746
  0
LINE
  8
0
 62
7
  6
CONTINUOUS
 10
67.9366877367
 20
194.921821562
 11
68.3070696204
 21
195.2350069423
  0
LINE
  8
0
 62
7
  6
CONTINUOUS
 10
68.6347773237
 20
197.7495796137
 11
63.6645372175
 21
193.8664024585
  0
LINE
  8
0
 62
7
  6
CONTINUOUS
 10
64.7947773237
 20
192.8332253032
 11
69.611424434
 21
196.5964024585
  0
LINE
  8
0
 62
7
  6
CONTINUOUS
 10
63.8447773237
 20
92.2664024585
 11
55.1147773237
 21
92.2664024585
  0
LINE
  8
0
 62
7
  6
CONTINUOUS
 10
64.4768007448
 20
93.5214024585
 11
50.3147773241
 21
93.5214024585
  0
LINE
  8
0
 62
7
  6
CONTINUOUS
 10
68.9527539026
 20
93.8714024585
 11
83.1147773233
 21
93.8714024585
  0
LINE
  8
0
 62
7
  6
CONTINUOUS
 10
69.5847773237
 20
95.1264024585
 11
78.3147773237
 21
95.1264024585
  0
LINE
  8
0
 62
7
  6
CONTINUOUS
 10
69.5357938841
 20
95.1276661291
 11
69.5847773237
 21
95.1264024585
  0
LINE
  8
0
 62
7
  6
CONTINUOUS
 10
64.5086064292
 20
190.6587069769
 11
64.5155648515
 21
190.6659606437
  0
POLYLINE
  8
0
 62
7
  6
CONTINUOUS
 66
1
 70
0
  0
VERTEX
  8
0
 62
7
  6
CONTINUOUS
 10
69.5121374087
 20
98.623621252
  0
VERTEX
  8
0
 62
7
  6
CONTINUOUS
 10
69.4312215881
 20
98.6136649604
  0
VERTEX
  8
0
 62
7
  6
CONTINUOUS
 10
69.3431502874
 20
98.593739567
  0
VERTEX
  8
0
 62
7
  6
CONTINUOUS
 10
69.251489528
 20
98.5620606186
  0
VERTEX
  8
0
 62
7
  6
CONTINUOUS
 10
69.1598950379
 20
98.5182325042
  0
VERTEX
  8
0
 62
7
  6
CONTINUOUS
 10
69.0713926935
 20
98.4630256387
  0
VERTEX
  8
0
 62
7
  6
CONTINUOUS
 10
68.9882304114
 20
98.3979260028
  0
VERTEX
  8
0
 62
7
  6
CONTINUOUS
 10
68.9154578807
 20
98.3283874618
  0
SEQEND
  0
POLYLINE
  8
0
 62
7
  6
CONTINUOUS
 66
1
 70
0
  0
VERTEX
  8
0
 62
7
  6
CONTINUOUS
 10
63.9056766359
 20
101.4683564291
  0
VERTEX
  8
0
 62
7
  6
CONTINUOUS
 10
63.9877544398
 20
101.4774530646
  0
VERTEX
  8
0
 62
7
  6
CONTINUOUS
 10
64.0768660344
 20
101.496559048
  0
VERTEX
  8
0
 62
7
  6
CONTINUOUS
 10
64.1694641525
 20
101.5274742556
  0
VERTEX
  8
0
 62
7
  6
CONTINUOUS
 10
64.2619346933
 20
101.5706106308
  0
VERTEX
  8
0
 62
7
  6
CONTINUOUS
 10
64.3512351444
 20
101.6251788575
  0
VERTEX
  8
0
 62
7
  6
CONTINUOUS
 10
64.4351115957
 20
101.6896585939
  0
VERTEX
  8
0
 62
7
  6
CONTINUOUS
 10
64.5086064292
 20
101.7587069769
  0
SEQEND
  0
LINE
  8
0
 62
7
  6
CONTINUOUS
 10
78.3147773237
 20
98.6264024585
 11
69.5847773237
 21
98.6264024585
  0
LINE
  8
0
 62
7
  6
CONTINUOUS
 10
83.1147773233
 20
99.8714024585
 11
68.9527539026
 21
99.8714024585
  0
LINE
  8
0
 62
7
  6
CONTINUOUS
 10
50.3147773241
 20
100.2214024585
 11
64.4768007448
 21
100.2214024585
  0
LINE
  8
0
 62
7
  6
CONTINUOUS
 10
55.1147773237
 20
101.4664024585
 11
63.8447773237
 21
101.4664024585
  0
LINE
  8
0
 62
7
  6
CONTINUOUS
 10
63.6645372175
 20
88.7664024585
 11
68.6347773237
 21
84.8832253032
  0
LINE
  8
0
 62
7
  6
CONTINUOUS
 10
69.7522180136
 20
85.9264024585
 11
64.7947773237
 21
89.7995796137
  0
LINE
  8
0
 62
7
  6
CONTINUOUS
 10
65.122485027
 20
87.2850069423
 11
65.4928669107
 21
86.971821562
  0
LINE
  8
0
 62
7
  6
CONTINUOUS
 10
68.3070696204
 20
87.4077979746
 11
67.9366877367
 21
87.7209833549
  0
POLYLINE
  8
0
 62
7
  6
CONTINUOUS
 66
1
 70
0
  0
VERTEX
  8
0
 62
7
  6
CONTINUOUS
 10
68.926490883
 20
82.7130373812
  0
VERTEX
  8
0
 62
7
  6
CONTINUOUS
 10
69.0006224563
 20
82.6445565286
  0
VERTEX
  8
0
 62
7
  6
CONTINUOUS
 10
69.0856091763
 20
82.5804213324
  0
VERTEX
  8
0
 62
7
  6
CONTINUOUS
 10
69.1761111253
 20
82.5263367531
  0
VERTEX
  8
0
 62
7
  6
CONTINUOUS
 10
69.2697074733
 20
82.483908208
  0
VERTEX
  8
0
 62
7
  6
CONTINUOUS
 10
69.3633405774
 20
82.453870513
  0
VERTEX
  8
0
 62
7
  6
CONTINUOUS
 10
69.4532520323
 20
82.4357605837
  0
VERTEX
  8
0
 62
7
  6
CONTINUOUS
 10
69.5357938841
 20
82.4276661291
  0
SEQEND
  0
LINE
  8
0
 62
7
  6
CONTINUOUS
 10
68.9194660777
 20
82.7202391839
 11
68.926490883
 21
82.7130373812
  0
POLYLINE
  8
0
 62
7
  6
CONTINUOUS
 66
1
 70
0
  0
VERTEX
  8
0
 62
7
  6
CONTINUOUS
 10
64.5759329453
 20
79.3266991793
  0
VERTEX
  8
0
 62
7
  6
CONTINUOUS
 10
64.5011847102
 20
79.4129294944
  0
VERTEX
  8
0
 62
7
  6
CONTINUOUS
 10
64.4128914193
 20
79.4944380318
  0
VERTEX
  8
0
 62
7
  6
CONTINUOUS
 10
64.3173863034
 20
79.5632819919
  0
VERTEX
  8
0
 62
7
  6
CONTINUOUS
 10
64.2213586727
 20
79.6157089319
  0
VERTEX
  8
0
 62
7
  6
CONTINUOUS
 10
64.1292133737
 20
79.6522372605
  0
VERTEX
  8
0
 62
7
  6
CONTINUOUS
 10
64.0467671649
 20
79.6746804901
  0
SEQEND
  0
LINE
  8
0
 62
7
  6
CONTINUOUS
 10
64.5820373479
 20
79.3187782793
 11
64.5759329453
 21
79.3266991793
  0
POLYLINE
  8
0
 62
7
  6
CONTINUOUS
 66
1
 70
0
  0
VERTEX
  8
0
 62
7
  6
CONTINUOUS
 10
64.5155648515
 20
190.6659606437
  0
VERTEX
  8
0
 62
7
  6
CONTINUOUS
 10
64.5874452554
 20
190.7496885599
  0
VERTEX
  8
0
 62
7
  6
CONTINUOUS
 10
64.6501974368
 20
190.8393604961
  0
VERTEX
  8
0
 62
7
  6
CONTINUOUS
 10
64.7022863447
 20
190.9321048153
  0
VERTEX
  8
0
 62
7
  6
CONTINUOUS
 10
64.7433889113
 20
191.0267376231
  0
VERTEX
  8
0
 62
7
  6
CONTINUOUS
 10
64.772769489
 20
191.1217431138
  0
VERTEX
  8
0
 62
7
  6
CONTINUOUS
 10
64.7891971934
 20
191.213586557
  0
SEQEND
  0
LINE
  8
0
 62
7
  6
CONTINUOUS
 10
68.9154578807
 20
187.2283874618
 11
68.9085656878
 21
187.2210820509
  0
LINE
  8
0
 62
7
  6
CONTINUOUS
 10
65.4928669107
 20
182.9709833549
 11
65.122485027
 21
182.6577979746
  0
LINE
  8
0
 62
7
  6
CONTINUOUS
 10
67.9366877367
 20
182.221821562
 11
68.3070696204
 21
182.5350069423
  0
LINE
  8
0
 62
7
  6
CONTINUOUS
 10
68.6347773237
 20
185.0495796137
 11
63.6645372175
 21
181.1664024585
  0
LINE
  8
0
 62
7
  6
CONTINUOUS
 10
64.7947773237
 20
180.1332253032
 11
69.7778168462
 21
184.0264024585
  0
LINE
  8
0
 62
7
  6
CONTINUOUS
 10
63.8447773237
 20
104.9664024585
 11
55.1147773237
 21
104.9664024585
  0
LINE
  8
0
 62
7
  6
CONTINUOUS
 10
64.4768007448
 20
106.2214024585
 11
50.3147773241
 21
106.2214024585
  0
LINE
  8
0
 62
7
  6
CONTINUOUS
 10
68.9527539026
 20
106.5714024585
 11
83.1147773233
 21
106.5714024585
  0
LINE
  8
0
 62
7
  6
CONTINUOUS
 10
63.6645372175
 20
101.4664024585
 11
68.6347773237
 21
97.5832253032
  0
POLYLINE
  8
0
 62
7
  6
CONTINUOUS
 66
1
 70
0
  0
VERTEX
  8
0
 62
7
  6
CONTINUOUS
 10
64.5086064292
 20
91.97409794
  0
VERTEX
  8
0
 62
7
  6
CONTINUOUS
 10
64.4352068093
 20
92.0430649914
  0
VERTEX
  8
0
 62
7
  6
CONTINUOUS
 10
64.3509303227
 20
92.107835787
  0
VERTEX
  8
0
 62
7
  6
CONTINUOUS
 10
64.2611993527
 20
92.1625888856
  0
VERTEX
  8
0
 62
7
  6
CONTINUOUS
 10
64.1684821047
 20
92.2057209941
  0
VERTEX
  8
0
 62
7
  6
CONTINUOUS
 10
64.0758069193
 20
92.2365325375
  0
VERTEX
  8
0
 62
7
  6
CONTINUOUS
 10
63.9869811622
 20
92.2554744295
  0
VERTEX
  8
0
 62
7
  6
CONTINUOUS
 10
63.9056766359
 20
92.2644484878
  0
SEQEND
  0
LINE
  8
0
 62
7
  6
CONTINUOUS
 10
64.5155648515
 20
91.9668442732
 11
64.5086064292
 21
91.97409794
  0
POLYLINE
  8
0
 62
7
  6
CONTINUOUS
 66
1
 70
0
  0
VERTEX
  8
0
 62
7
  6
CONTINUOUS
 10
68.9085656878
 20
187.2210820509
  0
VERTEX
  8
0
 62
7
  6
CONTINUOUS
 10
68.8374533752
 20
187.136853861
  0
VERTEX
  8
0
 62
7
  6
CONTINUOUS
 10
68.7754389171
 20
187.046673082
  0
VERTEX
  8
0
 62
7
  6
CONTINUOUS
 10
68.724105661
 20
186.9534786789
  0
VERTEX
  8
0
 62
7
  6
CONTINUOUS
 10
68.6836841383
 20
186.8581957712
  0
VERTEX
  8
0
 62
7
  6
CONTINUOUS
 10
68.6550392038
 20
186.7625197233
  0
VERTEX
  8
0
 62
7
  6
CONTINUOUS
 10
68.6393963162
 20
186.669969283
  0
SEQEND
  0
POLYLINE
  8
0
 62
7
  6
CONTINUOUS
 66
1
 70
0
  0
VERTEX
  8
0
 62
7
  6
CONTINUOUS
 10
64.5155648515
 20
177.9659606437
  0
VERTEX
  8
0
 62
7
  6
CONTINUOUS
 10
64.5874452554
 20
178.0496885599
  0
VERTEX
  8
0
 62
7
  6
CONTINUOUS
 10
64.6501974368
 20
178.1393604961
  0
VERTEX
  8
0
 62
7
  6
CONTINUOUS
 10
64.7022863447
 20
178.2321048153
  0
VERTEX
  8
0
 62
7
  6
CONTINUOUS
 10
64.7433889113
 20
178.3267376231
  0
VERTEX
  8
0
 62
7
  6
CONTINUOUS
 10
64.772769489
 20
178.4217431138
  0
VERTEX
  8
0
 62
7
  6
CONTINUOUS
 10
64.7891971934
 20
178.513586557
  0
SEQEND
  0
LINE
  8
0
 62
7
  6
CONTINUOUS
 10
64.5086064292
 20
177.9587069769
 11
64.5155648515
 21
177.9659606437
  0
LINE
  8
0
 62
7
  6
CONTINUOUS
 10
68.6347773237
 20
172.3495796137
 11
63.6645372175
 21
168.4664024585
  0
POLYLINE
  8
0
 62
7
  6
CONTINUOUS
 66
1
 70
0
  0
VERTEX
  8
0
 62
7
  6
CONTINUOUS
 10
69.5121374087
 20
111.323621252
  0
VERTEX
  8
0
 62
7
  6
CONTINUOUS
 10
69.4312215881
 20
111.3136649604
  0
VERTEX
  8
0
 62
7
  6
CONTINUOUS
 10
69.3431502874
 20
111.293739567
  0
VERTEX
  8
0
 62
7
  6
CONTINUOUS
 10
69.251489528
 20
111.2620606186
  0
VERTEX
  8
0
 62
7
  6
CONTINUOUS
 10
69.1598950379
 20
111.2182325042
  0
VERTEX
  8
0
 62
7
  6
CONTINUOUS
 10
69.0713926935
 20
111.1630256387
  0
VERTEX
  8
0
 62
7
  6
CONTINUOUS
 10
68.9882304114
 20
111.0979260028
  0
VERTEX
  8
0
 62
7
  6
CONTINUOUS
 10
68.9154578807
 20
111.0283874618
  0
SEQEND
  0
LINE
  8
0
 62
7
  6
CONTINUOUS
 10
69.5847773237
 20
107.8264024585
 11
78.3147773237
 21
107.8264024585
  0
LINE
  8
0
 62
7
  6
CONTINUOUS
 10
78.3147773237
 20
111.3264024585
 11
69.5847773237
 21
111.3264024585
  0
LINE
  8
0
 62
7
  6
CONTINUOUS
 10
83.1147773233
 20
112.5714024585
 11
68.9527539026
 21
112.5714024585
  0
LINE
  8
0
 62
7
  6
CONTINUOUS
 10
69.7522180136
 20
98.6264024585
 11
64.7947773237
 21
102.4995796137
  0
LINE
  8
0
 62
7
  6
CONTINUOUS
 10
65.122485027
 20
99.9850069423
 11
65.4928669107
 21
99.671821562
  0
LINE
  8
0
 62
7
  6
CONTINUOUS
 10
68.3070696204
 20
100.1077979746
 11
67.9366877367
 21
100.4209833549
  0
POLYLINE
  8
0
 62
7
  6
CONTINUOUS
 66
1
 70
0
  0
VERTEX
  8
0
 62
7
  6
CONTINUOUS
 10
68.926490883
 20
95.4130373812
  0
VERTEX
  8
0
 62
7
  6
CONTINUOUS
 10
69.0006224563
 20
95.3445565286
  0
VERTEX
  8
0
 62
7
  6
CONTINUOUS
 10
69.0856091763
 20
95.2804213324
  0
VERTEX
  8
0
 62
7
  6
CONTINUOUS
 10
69.1761111253
 20
95.2263367531
  0
VERTEX
  8
0
 62
7
  6
CONTINUOUS
 10
69.2697074733
 20
95.183908208
  0
VERTEX
  8
0
 62
7
  6
CONTINUOUS
 10
69.3633405774
 20
95.153870513
  0
VERTEX
  8
0
 62
7
  6
CONTINUOUS
 10
69.4532520323
 20
95.1357605837
  0
VERTEX
  8
0
 62
7
  6
CONTINUOUS
 10
69.5357938841
 20
95.1276661291
  0
SEQEND
  0
POLYLINE
  8
0
 62
7
  6
CONTINUOUS
 66
1
 70
0
  0
VERTEX
  8
0
 62
7
  6
CONTINUOUS
 10
64.5086064292
 20
104.67409794
  0
VERTEX
  8
0
 62
7
  6
CONTINUOUS
 10
64.4352068093
 20
104.7430649914
  0
VERTEX
  8
0
 62
7
  6
CONTINUOUS
 10
64.3509303227
 20
104.807835787
  0
VERTEX
  8
0
 62
7
  6
CONTINUOUS
 10
64.2611993527
 20
104.8625888856
  0
VERTEX
  8
0
 62
7
  6
CONTINUOUS
 10
64.1684821047
 20
104.9057209941
  0
VERTEX
  8
0
 62
7
  6
CONTINUOUS
 10
64.0758069193
 20
104.9365325375
  0
VERTEX
  8
0
 62
7
  6
CONTINUOUS
 10
63.9869811622
 20
104.9554744295
  0
VERTEX
  8
0
 62
7
  6
CONTINUOUS
 10
63.9056766359
 20
104.9644484878
  0
SEQEND
  0
LINE
  8
0
 62
7
  6
CONTINUOUS
 10
68.9194660777
 20
95.4202391839
 11
68.926490883
 21
95.4130373812
  0
POLYLINE
  8
0
 62
7
  6
CONTINUOUS
 66
1
 70
0
  0
VERTEX
  8
0
 62
7
  6
CONTINUOUS
 10
63.7968336681
 20
209.9222187225
  0
VERTEX
  8
0
 62
7
  6
CONTINUOUS
 10
63.8276100709
 20
210.0267452151
  0
VERTEX
  8
0
 62
7
  6
CONTINUOUS
 10
63.8545637954
 20
210.1323110566
  0
SEQEND
  0
POLYLINE
  8
0
 62
7
  6
CONTINUOUS
 66
1
 70
0
  0
VERTEX
  8
0
 62
7
  6
CONTINUOUS
 10
68.9085656878
 20
174.5210820509
  0
VERTEX
  8
0
 62
7
  6
CONTINUOUS
 10
68.8374533752
 20
174.436853861
  0
VERTEX
  8
0
 62
7
  6
CONTINUOUS
 10
68.7754389171
 20
174.346673082
  0
VERTEX
  8
0
 62
7
  6
CONTINUOUS
 10
68.724105661
 20
174.2534786789
  0
VERTEX
  8
0
 62
7
  6
CONTINUOUS
 10
68.6836841383
 20
174.1581957712
  0
VERTEX
  8
0
 62
7
  6
CONTINUOUS
 10
68.6550392038
 20
174.0625197233
  0
VERTEX
  8
0
 62
7
  6
CONTINUOUS
 10
68.6393963162
 20
173.969969283
  0
SEQEND
  0
LINE
  8
0
 62
7
  6
CONTINUOUS
 10
68.9154578807
 20
174.5283874618
 11
68.9085656878
 21
174.5210820509
  0
LINE
  8
0
 62
7
  6
CONTINUOUS
 10
64.5086064292
 20
165.2587069769
 11
64.5155648515
 21
165.2659606437
  0
LINE
  8
0
 62
7
  6
CONTINUOUS
 10
65.4928669107
 20
170.2709833549
 11
65.122485027
 21
169.9577979746
  0
LINE
  8
0
 62
7
  6
CONTINUOUS
 10
67.9366877367
 20
169.521821562
 11
68.3070696204
 21
169.8350069423
  0
LINE
  8
0
 62
7
  6
CONTINUOUS
 10
64.7947773237
 20
167.4332253032
 11
69.7778168462
 21
171.3264024585
  0
POLYLINE
  8
0
 62
7
  6
CONTINUOUS
 66
1
 70
0
  0
VERTEX
  8
0
 62
7
  6
CONTINUOUS
 10
63.9056766359
 20
114.1683564291
  0
VERTEX
  8
0
 62
7
  6
CONTINUOUS
 10
63.9877544398
 20
114.1774530646
  0
VERTEX
  8
0
 62
7
  6
CONTINUOUS
 10
64.0768660344
 20
114.196559048
  0
VERTEX
  8
0
 62
7
  6
CONTINUOUS
 10
64.1694641525
 20
114.2274742556
  0
VERTEX
  8
0
 62
7
  6
CONTINUOUS
 10
64.2619346933
 20
114.2706106308
  0
VERTEX
  8
0
 62
7
  6
CONTINUOUS
 10
64.3512351444
 20
114.3251788575
  0
VERTEX
  8
0
 62
7
  6
CONTINUOUS
 10
64.4351115957
 20
114.3896585939
  0
VERTEX
  8
0
 62
7
  6
CONTINUOUS
 10
64.5086064292
 20
114.4587069769
  0
SEQEND
  0
LINE
  8
0
 62
7
  6
CONTINUOUS
 10
50.3147773241
 20
112.9214024585
 11
64.4768007448
 21
112.9214024585
  0
LINE
  8
0
 62
7
  6
CONTINUOUS
 10
55.1147773237
 20
114.1664024585
 11
63.8447773237
 21
114.1664024585
  0
LINE
  8
0
 62
7
  6
CONTINUOUS
 10
63.8447773237
 20
117.6664024585
 11
55.1147773237
 21
117.6664024585
  0
LINE
  8
0
 62
7
  6
CONTINUOUS
 10
63.6645372175
 20
114.1664024585
 11
68.6347773237
 21
110.2832253032
  0
LINE
  8
0
 62
7
  6
CONTINUOUS
 10
65.122485027
 20
112.6850069423
 11
65.4928669107
 21
112.371821562
  0
POLYLINE
  8
0
 62
7
  6
CONTINUOUS
 66
1
 70
0
  0
VERTEX
  8
0
 62
7
  6
CONTINUOUS
 10
68.926490883
 20
108.1130373812
  0
VERTEX
  8
0
 62
7
  6
CONTINUOUS
 10
69.0006224563
 20
108.0445565286
  0
VERTEX
  8
0
 62
7
  6
CONTINUOUS
 10
69.0856091763
 20
107.9804213324
  0
VERTEX
  8
0
 62
7
  6
CONTINUOUS
 10
69.1761111253
 20
107.9263367531
  0
VERTEX
  8
0
 62
7
  6
CONTINUOUS
 10
69.2697074733
 20
107.883908208
  0
VERTEX
  8
0
 62
7
  6
CONTINUOUS
 10
69.3633405774
 20
107.853870513
  0
VERTEX
  8
0
 62
7
  6
CONTINUOUS
 10
69.4532520323
 20
107.8357605837
  0
VERTEX
  8
0
 62
7
  6
CONTINUOUS
 10
69.5357938841
 20
107.8276661291
  0
SEQEND
  0
LINE
  8
0
 62
7
  6
CONTINUOUS
 10
64.5155648515
 20
104.6668442732
 11
64.5086064292
 21
104.67409794
  0
LINE
  8
2_FEATURE
 62
7
  6
CONTINUOUS
 10
49.4647773237
 20
62.9714024585
 11
49.4647773237
 21
67.2714024585
  0
LINE
  8
2_FEATURE
 62
7
  6
CONTINUOUS
 10
49.4647773237
 20
76.4214024585
 11
49.4647773237
 21
79.9714024585
  0
LINE
  8
2_FEATURE
 62
7
  6
CONTINUOUS
 10
49.4647773237
 20
88.3714024585
 11
49.4647773237
 21
92.6714024585
  0
LINE
  8
2_FEATURE
 62
7
  6
CONTINUOUS
 10
49.4647773237
 20
101.0714024585
 11
49.4647773237
 21
105.3714024585
  0
LINE
  8
2_FEATURE
 62
7
  6
CONTINUOUS
 10
49.4647773237
 20
113.7714024585
 11
49.4647773237
 21
118.0714024585
  0
LINE
  8
2_FEATURE
 62
7
  6
CONTINUOUS
 10
49.4647773237
 20
126.4714024585
 11
49.4647773237
 21
130.7714024585
  0
LINE
  8
2_FEATURE
 62
7
  6
CONTINUOUS
 10
49.4647773237
 20
139.1714024585
 11
49.4647773237
 21
143.4714024585
  0
LINE
  8
2_FEATURE
 62
7
  6
CONTINUOUS
 10
49.4647773237
 20
151.8714024585
 11
49.4647773237
 21
156.1714024585
  0
LINE
  8
2_FEATURE
 62
7
  6
CONTINUOUS
 10
49.4647773237
 20
164.5714024585
 11
49.4647773237
 21
168.8714024585
  0
LINE
  8
2_FEATURE
 62
7
  6
CONTINUOUS
 10
49.4647773237
 20
177.2714024585
 11
49.4647773237
 21
181.5714024585
  0
LINE
  8
2_FEATURE
 62
7
  6
CONTINUOUS
 10
49.4647773237
 20
189.9714024585
 11
49.4647773237
 21
194.2714024585
  0
LINE
  8
2_FEATURE
 62
7
  6
CONTINUOUS
 10
49.4647773237
 20
203.4214024585
 11
49.4647773237
 21
206.9714024585
  0
POLYLINE
  8
0
 62
7
  6
CONTINUOUS
 66
1
 70
0
  0
VERTEX
  8
0
 62
7
  6
CONTINUOUS
 10
64.5155648515
 20
165.2659606437
  0
VERTEX
  8
0
 62
7
  6
CONTINUOUS
 10
64.5874452554
 20
165.3496885599
  0
VERTEX
  8
0
 62
7
  6
CONTINUOUS
 10
64.6501974368
 20
165.4393604961
  0
VERTEX
  8
0
 62
7
  6
CONTINUOUS
 10
64.7022863447
 20
165.5321048153
  0
VERTEX
  8
0
 62
7
  6
CONTINUOUS
 10
64.7433889113
 20
165.6267376231
  0
VERTEX
  8
0
 62
7
  6
CONTINUOUS
 10
64.772769489
 20
165.7217431138
  0
VERTEX
  8
0
 62
7
  6
CONTINUOUS
 10
64.7891971934
 20
165.813586557
  0
SEQEND
  0
LINE
  8
0
 62
7
  6
CONTINUOUS
 10
65.4928669107
 20
157.5709833549
 11
65.122485027
 21
157.2577979746
  0
LINE
  8
0
 62
7
  6
CONTINUOUS
 10
68.6347773237
 20
159.6495796137
 11
63.6645372175
 21
155.7664024585
  0
LINE
  8
0
 62
7
  6
CONTINUOUS
 10
64.4768007448
 20
118.9214024585
 11
50.3147773241
 21
118.9214024585
  0
LINE
  8
0
 62
7
  6
CONTINUOUS
 10
68.9527539026
 20
119.2714024585
 11
83.1147773233
 21
119.2714024585
  0
LINE
  8
0
 62
7
  6
CONTINUOUS
 10
69.5847773237
 20
120.5264024585
 11
78.3147773237
 21
120.5264024585
  0
LINE
  8
0
 62
7
  6
CONTINUOUS
 10
69.7522180136
 20
111.3264024585
 11
64.7947773237
 21
115.1995796137
  0
LINE
  8
0
 62
7
  6
CONTINUOUS
 10
68.3070696204
 20
112.8077979746
 11
67.9366877367
 21
113.1209833549
  0
POLYLINE
  8
0
 62
7
  6
CONTINUOUS
 66
1
 70
0
  0
VERTEX
  8
0
 62
7
  6
CONTINUOUS
 10
64.5086064292
 20
117.37409794
  0
VERTEX
  8
0
 62
7
  6
CONTINUOUS
 10
64.4352068093
 20
117.4430649914
  0
VERTEX
  8
0
 62
7
  6
CONTINUOUS
 10
64.3509303227
 20
117.507835787
  0
VERTEX
  8
0
 62
7
  6
CONTINUOUS
 10
64.2611993527
 20
117.5625888856
  0
VERTEX
  8
0
 62
7
  6
CONTINUOUS
 10
64.1684821047
 20
117.6057209941
  0
VERTEX
  8
0
 62
7
  6
CONTINUOUS
 10
64.0758069193
 20
117.6365325375
  0
VERTEX
  8
0
 62
7
  6
CONTINUOUS
 10
63.9869811622
 20
117.6554744295
  0
VERTEX
  8
0
 62
7
  6
CONTINUOUS
 10
63.9056766359
 20
117.6644484878
  0
SEQEND
  0
LINE
  8
0
 62
7
  6
CONTINUOUS
 10
68.9194660777
 20
108.1202391839
 11
68.926490883
 21
108.1130373812
  0
LINE
  8
0
 62
7
  6
CONTINUOUS
 10
64.5155648515
 20
117.3668442732
 11
64.5086064292
 21
117.37409794
  0
LINE
  8
1_AXIS
 62
2
  6
CENTER
 10
54.0147773237
 20
60.1214024585
 11
54.0147773237
 21
209.8214024585
  0
LINE
  8
0
 62
7
  6
CONTINUOUS
 10
54.1647773237
 20
205.7464024585
 11
54.1647773237
 21
204.6464024585
  0
LINE
  8
0
 62
7
  6
CONTINUOUS
 10
54.1647773237
 20
192.9164024585
 11
54.1647773237
 21
191.3164024585
  0
LINE
  8
0
 62
7
  6
CONTINUOUS
 10
54.1647773237
 20
180.2164024585
 11
54.1647773237
 21
178.6164024585
  0
LINE
  8
0
 62
7
  6
CONTINUOUS
 10
54.1647773237
 20
167.5164024585
 11
54.1647773237
 21
165.9164024585
  0
LINE
  8
0
 62
7
  6
CONTINUOUS
 10
54.1647773237
 20
154.8164024585
 11
54.1647773237
 21
153.2164024585
  0
LINE
  8
0
 62
7
  6
CONTINUOUS
 10
54.1647773237
 20
142.1164024585
 11
54.1647773237
 21
140.5164024585
  0
LINE
  8
0
 62
7
  6
CONTINUOUS
 10
54.1647773237
 20
129.4164024585
 11
54.1647773237
 21
127.8164024585
  0
LINE
  8
0
 62
7
  6
CONTINUOUS
 10
54.1647773237
 20
116.7164024585
 11
54.1647773237
 21
115.1164024585
  0
LINE
  8
0
 62
7
  6
CONTINUOUS
 10
54.1647773237
 20
104.0164024585
 11
54.1647773237
 21
102.4164024585
  0
LINE
  8
0
 62
7
  6
CONTINUOUS
 10
54.1647773237
 20
91.3164024585
 11
54.1647773237
 21
89.7164024585
  0
LINE
  8
0
 62
7
  6
CONTINUOUS
 10
54.1647773237
 20
78.7464024585
 11
54.1647773237
 21
77.6464024585
  0
POLYLINE
  8
0
 62
7
  6
CONTINUOUS
 66
1
 70
0
  0
VERTEX
  8
0
 62
7
  6
CONTINUOUS
 10
68.9085656878
 20
161.8210820509
  0
VERTEX
  8
0
 62
7
  6
CONTINUOUS
 10
68.8374533752
 20
161.736853861
  0
VERTEX
  8
0
 62
7
  6
CONTINUOUS
 10
68.7754389171
 20
161.646673082
  0
VERTEX
  8
0
 62
7
  6
CONTINUOUS
 10
68.724105661
 20
161.5534786789
  0
VERTEX
  8
0
 62
7
  6
CONTINUOUS
 10
68.6836841383
 20
161.4581957712
  0
VERTEX
  8
0
 62
7
  6
CONTINUOUS
 10
68.6550392038
 20
161.3625197233
  0
VERTEX
  8
0
 62
7
  6
CONTINUOUS
 10
68.6393963162
 20
161.269969283
  0
SEQEND
  0
POLYLINE
  8
0
 62
7
  6
CONTINUOUS
 66
1
 70
0
  0
VERTEX
  8
0
 62
7
  6
CONTINUOUS
 10
64.5155648515
 20
152.5659606437
  0
VERTEX
  8
0
 62
7
  6
CONTINUOUS
 10
64.5874452554
 20
152.6496885599
  0
VERTEX
  8
0
 62
7
  6
CONTINUOUS
 10
64.6501974368
 20
152.7393604961
  0
VERTEX
  8
0
 62
7
  6
CONTINUOUS
 10
64.7022863447
 20
152.8321048153
  0
VERTEX
  8
0
 62
7
  6
CONTINUOUS
 10
64.7433889113
 20
152.9267376231
  0
VERTEX
  8
0
 62
7
  6
CONTINUOUS
 10
64.772769489
 20
153.0217431138
  0
VERTEX
  8
0
 62
7
  6
CONTINUOUS
 10
64.7891971934
 20
153.113586557
  0
SEQEND
  0
LINE
  8
0
 62
7
  6
CONTINUOUS
 10
68.9154578807
 20
161.8283874618
 11
68.9085656878
 21
161.8210820509
  0
LINE
  8
0
 62
7
  6
CONTINUOUS
 10
64.5086064292
 20
152.5587069769
 11
64.5155648515
 21
152.5659606437
  0
LINE
  8
0
 62
7
  6
CONTINUOUS
 10
67.9366877367
 20
156.821821562
 11
68.3070696204
 21
157.1350069423
  0
LINE
  8
0
 62
7
  6
CONTINUOUS
 10
64.7947773237
 20
154.7332253032
 11
69.7778168462
 21
158.6264024585
  0
POLYLINE
  8
0
 62
7
  6
CONTINUOUS
 66
1
 70
0
  0
VERTEX
  8
0
 62
7
  6
CONTINUOUS
 10
69.5121374087
 20
124.023621252
  0
VERTEX
  8
0
 62
7
  6
CONTINUOUS
 10
69.4312215881
 20
124.0136649604
  0
VERTEX
  8
0
 62
7
  6
CONTINUOUS
 10
69.3431502874
 20
123.993739567
  0
VERTEX
  8
0
 62
7
  6
CONTINUOUS
 10
69.251489528
 20
123.9620606186
  0
VERTEX
  8
0
 62
7
  6
CONTINUOUS
 10
69.1598950379
 20
123.9182325042
  0
VERTEX
  8
0
 62
7
  6
CONTINUOUS
 10
69.0713926935
 20
123.8630256387
  0
VERTEX
  8
0
 62
7
  6
CONTINUOUS
 10
68.9882304114
 20
123.7979260028
  0
VERTEX
  8
0
 62
7
  6
CONTINUOUS
 10
68.9154578807
 20
123.7283874618
  0
SEQEND
  0
POLYLINE
  8
0
 62
7
  6
CONTINUOUS
 66
1
 70
0
  0
VERTEX
  8
0
 62
7
  6
CONTINUOUS
 10
63.9056766359
 20
126.8683564291
  0
VERTEX
  8
0
 62
7
  6
CONTINUOUS
 10
63.9877544398
 20
126.8774530646
  0
VERTEX
  8
0
 62
7
  6
CONTINUOUS
 10
64.0768660344
 20
126.896559048
  0
VERTEX
  8
0
 62
7
  6
CONTINUOUS
 10
64.1694641525
 20
126.9274742556
  0
VERTEX
  8
0
 62
7
  6
CONTINUOUS
 10
64.2619346933
 20
126.9706106308
  0
VERTEX
  8
0
 62
7
  6
CONTINUOUS
 10
64.3512351444
 20
127.0251788575
  0
VERTEX
  8
0
 62
7
  6
CONTINUOUS
 10
64.4351115957
 20
127.0896585939
  0
VERTEX
  8
0
 62
7
  6
CONTINUOUS
 10
64.5086064292
 20
127.1587069769
  0
SEQEND
  0
LINE
  8
0
 62
7
  6
CONTINUOUS
 10
78.3147773237
 20
124.0264024585
 11
69.5847773237
 21
124.0264024585
  0
LINE
  8
0
 62
7
  6
CONTINUOUS
 10
83.1147773233
 20
125.2714024585
 11
68.9527539026
 21
125.2714024585
  0
LINE
  8
0
 62
7
  6
CONTINUOUS
 10
50.3147773241
 20
125.6214024585
 11
64.4768007448
 21
125.6214024585
  0
LINE
  8
0
 62
7
  6
CONTINUOUS
 10
55.1147773237
 20
126.8664024585
 11
63.8447773237
 21
126.8664024585
  0
LINE
  8
0
 62
7
  6
CONTINUOUS
 10
63.6645372175
 20
126.8664024585
 11
68.6347773237
 21
122.9832253032
  0
LINE
  8
0
 62
7
  6
CONTINUOUS
 10
65.122485027
 20
125.3850069423
 11
65.4928669107
 21
125.071821562
  0
POLYLINE
  8
0
 62
7
  6
CONTINUOUS
 66
1
 70
0
  0
VERTEX
  8
0
 62
7
  6
CONTINUOUS
 10
68.926490883
 20
120.8130373812
  0
VERTEX
  8
0
 62
7
  6
CONTINUOUS
 10
69.0006224563
 20
120.7445565286
  0
VERTEX
  8
0
 62
7
  6
CONTINUOUS
 10
69.0856091763
 20
120.6804213324
  0
VERTEX
  8
0
 62
7
  6
CONTINUOUS
 10
69.1761111253
 20
120.6263367531
  0
VERTEX
  8
0
 62
7
  6
CONTINUOUS
 10
69.2697074733
 20
120.583908208
  0
VERTEX
  8
0
 62
7
  6
CONTINUOUS
 10
69.3633405774
 20
120.553870513
  0
VERTEX
  8
0
 62
7
  6
CONTINUOUS
 10
69.4532520323
 20
120.5357605837
  0
VERTEX
  8
0
 62
7
  6
CONTINUOUS
 10
69.5357938841
 20
120.5276661291
  0
SEQEND
  0
LINE
  8
0
 62
7
  6
CONTINUOUS
 10
68.9194660777
 20
120.8202391839
 11
68.926490883
 21
120.8130373812
  0
POLYLINE
  8
0
 62
7
  6
CONTINUOUS
 66
1
 70
0
  0
VERTEX
  8
0
 62
7
  6
CONTINUOUS
 10
64.7891971934
 20
91.4192183599
  0
VERTEX
  8
0
 62
7
  6
CONTINUOUS
 10
64.7727164155
 20
91.5112781086
  0
VERTEX
  8
0
 62
7
  6
CONTINUOUS
 10
64.7432379758
 20
91.6064725918
  0
VERTEX
  8
0
 62
7
  6
CONTINUOUS
 10
64.7019877898
 20
91.7013001302
  0
VERTEX
  8
0
 62
7
  6
CONTINUOUS
 10
64.6498481575
 20
91.793999805
  0
VERTEX
  8
0
 62
7
  6
CONTINUOUS
 10
64.5872484724
 20
91.8833699478
  0
VERTEX
  8
0
 62
7
  6
CONTINUOUS
 10
64.5155648515
 20
91.9668442732
  0
SEQEND
  0
POLYLINE
  8
0
 62
7
  6
CONTINUOUS
 66
1
 70
0
  0
VERTEX
  8
0
 62
7
  6
CONTINUOUS
 10
64.7946636055
 20
78.7464024585
  0
VERTEX
  8
0
 62
7
  6
CONTINUOUS
 10
64.7889225364
 20
78.8311749818
  0
VERTEX
  8
0
 62
7
  6
CONTINUOUS
 10
64.7736742419
 20
78.9173787953
  0
VERTEX
  8
0
 62
7
  6
CONTINUOUS
 10
64.7497802297
 20
79.00280969
  0
VERTEX
  8
0
 62
7
  6
CONTINUOUS
 10
64.7178592025
 20
79.0868339388
  0
VERTEX
  8
0
 62
7
  6
CONTINUOUS
 10
64.6786263085
 20
79.1683518272
  0
VERTEX
  8
0
 62
7
  6
CONTINUOUS
 10
64.6331211985
 20
79.2458769463
  0
VERTEX
  8
0
 62
7
  6
CONTINUOUS
 10
64.5820373479
 20
79.3187782793
  0
SEQEND
  0
POLYLINE
  8
0
 62
7
  6
CONTINUOUS
 66
1
 70
0
  0
VERTEX
  8
0
 62
7
  6
CONTINUOUS
 10
63.9347773237
 20
210.8214024585
  0
VERTEX
  8
0
 62
7
  6
CONTINUOUS
 10
63.914633779
 20
210.4745315617
  0
VERTEX
  8
0
 62
7
  6
CONTINUOUS
 10
63.8545637954
 20
210.1323110566
  0
SEQEND
  0
POLYLINE
  8
0
 62
7
  6
CONTINUOUS
 66
1
 70
0
  0
VERTEX
  8
0
 62
7
  6
CONTINUOUS
 10
68.9085656878
 20
149.1210820509
  0
VERTEX
  8
0
 62
7
  6
CONTINUOUS
 10
68.8374533752
 20
149.036853861
  0
VERTEX
  8
0
 62
7
  6
CONTINUOUS
 10
68.7754389171
 20
148.946673082
  0
VERTEX
  8
0
 62
7
  6
CONTINUOUS
 10
68.724105661
 20
148.8534786789
  0
VERTEX
  8
0
 62
7
  6
CONTINUOUS
 10
68.6836841383
 20
148.7581957712
  0
VERTEX
  8
0
 62
7
  6
CONTINUOUS
 10
68.6550392038
 20
148.6625197233
  0
VERTEX
  8
0
 62
7
  6
CONTINUOUS
 10
68.6393963162
 20
148.569969283
  0
SEQEND
  0
LINE
  8
0
 62
7
  6
CONTINUOUS
 10
68.9154578807
 20
149.1283874618
 11
68.9085656878
 21
149.1210820509
  0
LINE
  8
0
 62
7
  6
CONTINUOUS
 10
65.4928669107
 20
144.8709833549
 11
65.122485027
 21
144.5577979746
  0
LINE
  8
0
 62
7
  6
CONTINUOUS
 10
68.6347773237
 20
146.9495796137
 11
63.6645372175
 21
143.0664024585
  0
LINE
  8
0
 62
7
  6
CONTINUOUS
 10
63.8447773237
 20
130.3664024585
 11
55.1147773237
 21
130.3664024585
  0
LINE
  8
0
 62
7
  6
CONTINUOUS
 10
64.4768007448
 20
131.6214024585
 11
50.3147773241
 21
131.6214024585
  0
LINE
  8
0
 62
7
  6
CONTINUOUS
 10
68.9527539026
 20
131.9714024585
 11
83.1147773233
 21
131.9714024585
  0
LINE
  8
0
 62
7
  6
CONTINUOUS
 10
69.5847773237
 20
133.2264024585
 11
78.3147773237
 21
133.2264024585
  0
LINE
  8
0
 62
7
  6
CONTINUOUS
 10
69.7522180136
 20
124.0264024585
 11
64.7947773237
 21
127.8995796137
  0
LINE
  8
0
 62
7
  6
CONTINUOUS
 10
68.3070696204
 20
125.5077979746
 11
67.9366877367
 21
125.8209833549
  0
POLYLINE
  8
0
 62
7
  6
CONTINUOUS
 66
1
 70
0
  0
VERTEX
  8
0
 62
7
  6
CONTINUOUS
 10
64.5086064292
 20
130.07409794
  0
VERTEX
  8
0
 62
7
  6
CONTINUOUS
 10
64.4352068093
 20
130.1430649914
  0
VERTEX
  8
0
 62
7
  6
CONTINUOUS
 10
64.3509303227
 20
130.207835787
  0
VERTEX
  8
0
 62
7
  6
CONTINUOUS
 10
64.2611993527
 20
130.2625888856
  0
VERTEX
  8
0
 62
7
  6
CONTINUOUS
 10
64.1684821047
 20
130.3057209941
  0
VERTEX
  8
0
 62
7
  6
CONTINUOUS
 10
64.0758069193
 20
130.3365325375
  0
VERTEX
  8
0
 62
7
  6
CONTINUOUS
 10
63.9869811622
 20
130.3554744295
  0
VERTEX
  8
0
 62
7
  6
CONTINUOUS
 10
63.9056766359
 20
130.3644484878
  0
SEQEND
  0
LINE
  8
0
 62
7
  6
CONTINUOUS
 10
64.5155648515
 20
130.0668442732
 11
64.5086064292
 21
130.07409794
  0
POLYLINE
  8
0
 62
7
  6
CONTINUOUS
 66
1
 70
0
  0
VERTEX
  8
0
 62
7
  6
CONTINUOUS
 10
68.6414024653
 20
83.2644030094
  0
VERTEX
  8
0
 62
7
  6
CONTINUOUS
 10
68.6586581037
 20
83.1730323628
  0
VERTEX
  8
0
 62
7
  6
CONTINUOUS
 10
68.6888660873
 20
83.0784983583
  0
VERTEX
  8
0
 62
7
  6
CONTINUOUS
 10
68.7307976027
 20
82.9843079749
  0
VERTEX
  8
0
 62
7
  6
CONTINUOUS
 10
68.7836200412
 20
82.8921713969
  0
VERTEX
  8
0
 62
7
  6
CONTINUOUS
 10
68.8469737768
 20
82.803265678
  0
VERTEX
  8
0
 62
7
  6
CONTINUOUS
 10
68.9194660777
 20
82.7202391839
  0
SEQEND
  0
POLYLINE
  8
0
 62
7
  6
CONTINUOUS
 66
1
 70
0
  0
VERTEX
  8
0
 62
7
  6
CONTINUOUS
 10
68.6414024653
 20
95.9644030094
  0
VERTEX
  8
0
 62
7
  6
CONTINUOUS
 10
68.6586581037
 20
95.8730323628
  0
VERTEX
  8
0
 62
7
  6
CONTINUOUS
 10
68.6888660873
 20
95.7784983583
  0
VERTEX
  8
0
 62
7
  6
CONTINUOUS
 10
68.7307976027
 20
95.6843079749
  0
VERTEX
  8
0
 62
7
  6
CONTINUOUS
 10
68.7836200412
 20
95.5921713969
  0
VERTEX
  8
0
 62
7
  6
CONTINUOUS
 10
68.8469737768
 20
95.503265678
  0
VERTEX
  8
0
 62
7
  6
CONTINUOUS
 10
68.9194660777
 20
95.4202391839
  0
SEQEND
  0
POLYLINE
  8
0
 62
7
  6
CONTINUOUS
 66
1
 70
0
  0
VERTEX
  8
0
 62
7
  6
CONTINUOUS
 10
64.7891971934
 20
104.1192183599
  0
VERTEX
  8
0
 62
7
  6
CONTINUOUS
 10
64.7727164155
 20
104.2112781086
  0
VERTEX
  8
0
 62
7
  6
CONTINUOUS
 10
64.7432379758
 20
104.3064725918
  0
VERTEX
  8
0
 62
7
  6
CONTINUOUS
 10
64.7019877898
 20
104.4013001302
  0
VERTEX
  8
0
 62
7
  6
CONTINUOUS
 10
64.6498481575
 20
104.493999805
  0
VERTEX
  8
0
 62
7
  6
CONTINUOUS
 10
64.5872484724
 20
104.5833699478
  0
VERTEX
  8
0
 62
7
  6
CONTINUOUS
 10
64.5155648515
 20
104.6668442732
  0
SEQEND
  0
POLYLINE
  8
0
 62
7
  6
CONTINUOUS
 66
1
 70
0
  0
VERTEX
  8
0
 62
7
  6
CONTINUOUS
 10
64.7891971934
 20
116.8192183599
  0
VERTEX
  8
0
 62
7
  6
CONTINUOUS
 10
64.7727164155
 20
116.9112781086
  0
VERTEX
  8
0
 62
7
  6
CONTINUOUS
 10
64.7432379758
 20
117.0064725918
  0
VERTEX
  8
0
 62
7
  6
CONTINUOUS
 10
64.7019877898
 20
117.1013001302
  0
VERTEX
  8
0
 62
7
  6
CONTINUOUS
 10
64.6498481575
 20
117.193999805
  0
VERTEX
  8
0
 62
7
  6
CONTINUOUS
 10
64.5872484724
 20
117.2833699478
  0
VERTEX
  8
0
 62
7
  6
CONTINUOUS
 10
64.5155648515
 20
117.3668442732
  0
SEQEND
  0
LINE
  8
0
 62
7
  6
CONTINUOUS
 10
68.6347773237
 20
83.3764024585
 11
68.6414024653
 21
83.2644030094
  0
LINE
  8
0
 62
7
  6
CONTINUOUS
 10
68.6347773237
 20
96.0764024585
 11
68.6414024653
 21
95.9644030094
  0
LINE
  8
0
 62
7
  6
CONTINUOUS
 10
64.7947773237
 20
91.3164024585
 11
64.7891971934
 21
91.4192183599
  0
LINE
  8
0
 62
7
  6
CONTINUOUS
 10
64.7947773237
 20
104.0164024585
 11
64.7891971934
 21
104.1192183599
  0
LINE
  8
0
 62
7
  6
CONTINUOUS
 10
64.7947773237
 20
116.7164024585
 11
64.7891971934
 21
116.8192183599
  0
LINE
  8
0
 62
7
  6
CONTINUOUS
 10
64.7947773237
 20
180.2164024585
 11
64.7891971934
 21
180.3192183599
  0
LINE
  8
0
 62
7
  6
CONTINUOUS
 10
64.7947773237
 20
78.7235780354
 11
64.7946636055
 21
78.7464024585
  0
LINE
  8
2_FEATURE
 62
7
  6
CONTINUOUS
 10
63.9347773237
 20
212.1714024585
 11
63.9347773237
 21
210.8214024585
  0
LINE
  8
2_FEATURE
 62
7
  6
CONTINUOUS
 10
63.9347773237
 20
201.5714024585
 11
63.9347773237
 21
195.3714024585
  0
LINE
  8
2_FEATURE
 62
7
  6
CONTINUOUS
 10
63.9347773237
 20
188.8714024585
 11
63.9347773237
 21
182.6714024585
  0
LINE
  8
2_FEATURE
 62
7
  6
CONTINUOUS
 10
63.9347773237
 20
176.1714024585
 11
63.9347773237
 21
169.9714024585
  0
LINE
  8
2_FEATURE
 62
7
  6
CONTINUOUS
 10
63.9347773237
 20
163.4714024585
 11
63.9347773237
 21
157.2714024585
  0
LINE
  8
2_FEATURE
 62
7
  6
CONTINUOUS
 10
63.9347773237
 20
150.7714024585
 11
63.9347773237
 21
144.5714024585
  0
LINE
  8
2_FEATURE
 62
7
  6
CONTINUOUS
 10
63.9347773237
 20
138.0714024585
 11
63.9347773237
 21
131.8714024585
  0
LINE
  8
2_FEATURE
 62
7
  6
CONTINUOUS
 10
63.9347773237
 20
125.3714024585
 11
63.9347773237
 21
119.1714024585
  0
LINE
  8
2_FEATURE
 62
7
  6
CONTINUOUS
 10
63.9347773237
 20
112.6714024585
 11
63.9347773237
 21
106.4714024585
  0
LINE
  8
2_FEATURE
 62
7
  6
CONTINUOUS
 10
63.9347773237
 20
99.9714024585
 11
63.9347773237
 21
93.7714024585
  0
LINE
  8
2_FEATURE
 62
7
  6
CONTINUOUS
 10
63.9347773237
 20
87.2714024585
 11
63.9347773237
 21
81.0714024585
  0
LINE
  8
2_FEATURE
 62
7
  6
CONTINUOUS
 10
63.9347773237
 20
74.5714024585
 11
63.9347773237
 21
68.3714024585
  0
LINE
  8
0
 62
7
  6
CONTINUOUS
 10
64.7947773237
 20
77.6464024585
 11
64.7947773237
 21
78.7235780354
  0
LINE
  8
0
 62
7
  6
CONTINUOUS
 10
64.7947773237
 20
89.7164024585
 11
64.7947773237
 21
91.3164024585
  0
LINE
  8
0
 62
7
  6
CONTINUOUS
 10
64.7947773237
 20
102.4164024585
 11
64.7947773237
 21
104.0164024585
  0
LINE
  8
0
 62
7
  6
CONTINUOUS
 10
64.7947773237
 20
115.1164024585
 11
64.7947773237
 21
116.7164024585
  0
LINE
  8
0
 62
7
  6
CONTINUOUS
 10
64.7947773237
 20
127.8164024585
 11
64.7947773237
 21
129.4164024585
  0
LINE
  8
0
 62
7
  6
CONTINUOUS
 10
64.7947773237
 20
140.5164024585
 11
64.7947773237
 21
142.1164024585
  0
LINE
  8
0
 62
7
  6
CONTINUOUS
 10
64.7947773237
 20
153.2164024585
 11
64.7947773237
 21
154.8164024585
  0
LINE
  8
0
 62
7
  6
CONTINUOUS
 10
64.7947773237
 20
165.9164024585
 11
64.7947773237
 21
167.5164024585
  0
LINE
  8
0
 62
7
  6
CONTINUOUS
 10
64.7947773237
 20
178.6164024585
 11
64.7947773237
 21
180.2164024585
  0
LINE
  8
0
 62
7
  6
CONTINUOUS
 10
64.7947773237
 20
191.3164024585
 11
64.7947773237
 21
192.9164024585
  0
LINE
  8
0
 62
7
  6
CONTINUOUS
 10
64.7947773237
 20
204.6464024585
 11
64.7947773237
 21
205.7464024585
  0
LINE
  8
1_AXIS
 62
2
  6
CENTER
 10
66.7147773237
 20
142.5464024585
 11
66.7147773237
 21
140.1465024585
  0
LINE
  8
1_AXIS
 62
2
  6
CONTINUOUS
 10
66.7147773237
 20
139.0264024585
 11
66.7147773237
 21
137.2664024585
  0
LINE
  8
1_AXIS
 62
2
  6
CENTER
 10
66.7147773237
 20
133.7464024585
 11
66.7147773237
 21
136.1463024585
  0
LINE
  8
0
 62
7
  6
CONTINUOUS
 10
68.6393963162
 20
186.669969283
 11
68.6347773237
 21
186.5764024585
  0
LINE
  8
0
 62
7
  6
CONTINUOUS
 10
64.7891971934
 20
165.813586557
 11
64.7947773237
 21
165.9164024585
  0
LINE
  8
0
 62
7
  6
CONTINUOUS
 10
64.7891971934
 20
115.013586557
 11
64.7947773237
 21
115.1164024585
  0
POLYLINE
  8
0
 62
7
  6
CONTINUOUS
 66
1
 70
0
  0
VERTEX
  8
0
 62
7
  6
CONTINUOUS
 10
64.5155648515
 20
139.8659606437
  0
VERTEX
  8
0
 62
7
  6
CONTINUOUS
 10
64.5874452554
 20
139.9496885599
  0
VERTEX
  8
0
 62
7
  6
CONTINUOUS
 10
64.6501974368
 20
140.0393604961
  0
VERTEX
  8
0
 62
7
  6
CONTINUOUS
 10
64.7022863447
 20
140.1321048153
  0
VERTEX
  8
0
 62
7
  6
CONTINUOUS
 10
64.7433889113
 20
140.2267376231
  0
VERTEX
  8
0
 62
7
  6
CONTINUOUS
 10
64.772769489
 20
140.3217431138
  0
VERTEX
  8
0
 62
7
  6
CONTINUOUS
 10
64.7891971934
 20
140.413586557
  0
SEQEND
  0
LINE
  8
0
 62
7
  6
CONTINUOUS
 10
64.5086064292
 20
139.8587069769
 11
64.5155648515
 21
139.8659606437
  0
LINE
  8
0
 62
7
  6
CONTINUOUS
 10
67.9366877367
 20
144.121821562
 11
68.3070696204
 21
144.4350069423
  0
LINE
  8
0
 62
7
  6
CONTINUOUS
 10
64.7947773237
 20
142.0332253032
 11
69.7778168462
 21
145.9264024585
  0
POLYLINE
  8
0
 62
7
  6
CONTINUOUS
 66
1
 70
0
  0
VERTEX
  8
0
 62
7
  6
CONTINUOUS
 10
69.5121374087
 20
136.723621252
  0
VERTEX
  8
0
 62
7
  6
CONTINUOUS
 10
69.4312215881
 20
136.7136649604
  0
VERTEX
  8
0
 62
7
  6
CONTINUOUS
 10
69.3431502874
 20
136.693739567
  0
VERTEX
  8
0
 62
7
  6
CONTINUOUS
 10
69.251489528
 20
136.6620606186
  0
VERTEX
  8
0
 62
7
  6
CONTINUOUS
 10
69.1598950379
 20
136.6182325042
  0
VERTEX
  8
0
 62
7
  6
CONTINUOUS
 10
69.0713926935
 20
136.5630256387
  0
VERTEX
  8
0
 62
7
  6
CONTINUOUS
 10
68.9882304114
 20
136.4979260028
  0
VERTEX
  8
0
 62
7
  6
CONTINUOUS
 10
68.9154578807
 20
136.4283874618
  0
SEQEND
  0
LINE
  8
0
 62
7
  6
CONTINUOUS
 10
78.3147773237
 20
136.7264024585
 11
69.5847773237
 21
136.7264024585
  0
LINE
  8
0
 62
7
  6
CONTINUOUS
 10
83.1147773233
 20
137.9714024585
 11
68.9527539026
 21
137.9714024585
  0
LINE
  8
1_AXIS
 62
2
  6
CENTER
 10
71.1147773237
 20
138.1464024585
 11
68.7148773237
 21
138.1464024585
  0
LINE
  8
1_AXIS
 62
2
  6
CONTINUOUS
 10
67.5947773237
 20
138.1464024585
 11
65.8347773237
 21
138.1464024585
  0
LINE
  8
1_AXIS
 62
2
  6
CENTER
 10
62.3147773237
 20
138.1464024585
 11
64.7146773237
 21
138.1464024585
  0
LINE
  8
0
 62
7
  6
CONTINUOUS
 10
50.3147773241
 20
138.3214024585
 11
64.4768007448
 21
138.3214024585
  0
LINE
  8
0
 62
7
  6
CONTINUOUS
 10
63.6645372175
 20
139.5664024585
 11
68.6347773237
 21
135.6832253032
  0
LINE
  8
0
 62
7
  6
CONTINUOUS
 10
65.122485027
 20
138.0850069423
 11
65.4928669107
 21
137.771821562
  0
POLYLINE
  8
0
 62
7
  6
CONTINUOUS
 66
1
 70
0
  0
VERTEX
  8
0
 62
7
  6
CONTINUOUS
 10
68.926490883
 20
133.5130373812
  0
VERTEX
  8
0
 62
7
  6
CONTINUOUS
 10
69.0006224563
 20
133.4445565286
  0
VERTEX
  8
0
 62
7
  6
CONTINUOUS
 10
69.0856091763
 20
133.3804213324
  0
VERTEX
  8
0
 62
7
  6
CONTINUOUS
 10
69.1761111253
 20
133.3263367531
  0
VERTEX
  8
0
 62
7
  6
CONTINUOUS
 10
69.2697074733
 20
133.283908208
  0
VERTEX
  8
0
 62
7
  6
CONTINUOUS
 10
69.3633405774
 20
133.253870513
  0
VERTEX
  8
0
 62
7
  6
CONTINUOUS
 10
69.4532520323
 20
133.2357605837
  0
VERTEX
  8
0
 62
7
  6
CONTINUOUS
 10
69.5357938841
 20
133.2276661291
  0
SEQEND
  0
LINE
  8
0
 62
7
  6
CONTINUOUS
 10
68.9194660777
 20
133.5202391839
 11
68.926490883
 21
133.5130373812
  0
POLYLINE
  8
0
 62
7
  6
CONTINUOUS
 66
1
 70
0
  0
VERTEX
  8
0
 62
7
  6
CONTINUOUS
 10
68.6414024653
 20
108.6644030094
  0
VERTEX
  8
0
 62
7
  6
CONTINUOUS
 10
68.6586581037
 20
108.5730323628
  0
VERTEX
  8
0
 62
7
  6
CONTINUOUS
 10
68.6888660873
 20
108.4784983583
  0
VERTEX
  8
0
 62
7
  6
CONTINUOUS
 10
68.7307976027
 20
108.3843079749
  0
VERTEX
  8
0
 62
7
  6
CONTINUOUS
 10
68.7836200412
 20
108.2921713969
  0
VERTEX
  8
0
 62
7
  6
CONTINUOUS
 10
68.8469737768
 20
108.203265678
  0
VERTEX
  8
0
 62
7
  6
CONTINUOUS
 10
68.9194660777
 20
108.1202391839
  0
SEQEND
  0
POLYLINE
  8
0
 62
7
  6
CONTINUOUS
 66
1
 70
0
  0
VERTEX
  8
0
 62
7
  6
CONTINUOUS
 10
68.6414024653
 20
121.3644030094
  0
VERTEX
  8
0
 62
7
  6
CONTINUOUS
 10
68.6586581037
 20
121.2730323628
  0
VERTEX
  8
0
 62
7
  6
CONTINUOUS
 10
68.6888660873
 20
121.1784983583
  0
VERTEX
  8
0
 62
7
  6
CONTINUOUS
 10
68.7307976027
 20
121.0843079749
  0
VERTEX
  8
0
 62
7
  6
CONTINUOUS
 10
68.7836200412
 20
120.9921713969
  0
VERTEX
  8
0
 62
7
  6
CONTINUOUS
 10
68.8469737768
 20
120.903265678
  0
VERTEX
  8
0
 62
7
  6
CONTINUOUS
 10
68.9194660777
 20
120.8202391839
  0
SEQEND
  0
POLYLINE
  8
0
 62
7
  6
CONTINUOUS
 66
1
 70
0
  0
VERTEX
  8
0
 62
7
  6
CONTINUOUS
 10
64.7891971934
 20
129.5192183599
  0
VERTEX
  8
0
 62
7
  6
CONTINUOUS
 10
64.7727164155
 20
129.6112781086
  0
VERTEX
  8
0
 62
7
  6
CONTINUOUS
 10
64.7432379758
 20
129.7064725918
  0
VERTEX
  8
0
 62
7
  6
CONTINUOUS
 10
64.7019877898
 20
129.8013001302
  0
VERTEX
  8
0
 62
7
  6
CONTINUOUS
 10
64.6498481575
 20
129.893999805
  0
VERTEX
  8
0
 62
7
  6
CONTINUOUS
 10
64.5872484724
 20
129.9833699478
  0
VERTEX
  8
0
 62
7
  6
CONTINUOUS
 10
64.5155648515
 20
130.0668442732
  0
SEQEND
  0
POLYLINE
  8
0
 62
7
  6
CONTINUOUS
 66
1
 70
0
  0
VERTEX
  8
0
 62
7
  6
CONTINUOUS
 10
64.7891971934
 20
142.2192183599
  0
VERTEX
  8
0
 62
7
  6
CONTINUOUS
 10
64.7727164155
 20
142.3112781086
  0
VERTEX
  8
0
 62
7
  6
CONTINUOUS
 10
64.7432379758
 20
142.4064725918
  0
VERTEX
  8
0
 62
7
  6
CONTINUOUS
 10
64.7019877898
 20
142.5013001302
  0
VERTEX
  8
0
 62
7
  6
CONTINUOUS
 10
64.6498481575
 20
142.593999805
  0
VERTEX
  8
0
 62
7
  6
CONTINUOUS
 10
64.5872484724
 20
142.6833699478
  0
VERTEX
  8
0
 62
7
  6
CONTINUOUS
 10
64.5155648515
 20
142.7668442732
  0
SEQEND
  0
POLYLINE
  8
0
 62
7
  6
CONTINUOUS
 66
1
 70
0
  0
VERTEX
  8
0
 62
7
  6
CONTINUOUS
 10
68.6348143811
 20
197.5464024585
  0
VERTEX
  8
0
 62
7
  6
CONTINUOUS
 10
68.6403736406
 20
197.46122149
  0
VERTEX
  8
0
 62
7
  6
CONTINUOUS
 10
68.6557580186
 20
197.3742230076
  0
VERTEX
  8
0
 62
7
  6
CONTINUOUS
 10
68.6801086368
 20
197.2877830148
  0
VERTEX
  8
0
 62
7
  6
CONTINUOUS
 10
68.7127371438
 20
197.2027741774
  0
VERTEX
  8
0
 62
7
  6
CONTINUOUS
 10
68.7529615486
 20
197.1202078709
  0
VERTEX
  8
0
 62
7
  6
CONTINUOUS
 10
68.7997348067
 20
197.0416299758
  0
VERTEX
  8
0
 62
7
  6
CONTINUOUS
 10
68.8523206958
 20
196.9677794622
  0
SEQEND
  0
LINE
  8
0
 62
7
  6
CONTINUOUS
 10
68.6347773237
 20
121.4764024585
 11
68.6414024653
 21
121.3644030094
  0
LINE
  8
0
 62
7
  6
CONTINUOUS
 10
68.6347773237
 20
159.5764024585
 11
68.6414024653
 21
159.4644030094
  0
LINE
  8
0
 62
7
  6
CONTINUOUS
 10
64.7947773237
 20
192.9164024585
 11
64.7891971934
 21
193.0192183599
  0
LINE
  8
0
 62
7
  6
CONTINUOUS
 10
68.6347773237
 20
198.6464024585
 11
68.6348143811
 21
197.5464024585
  0
LINE
  8
0
 62
7
  6
CONTINUOUS
 10
68.6347773237
 20
186.5764024585
 11
68.6347773237
 21
184.9764024585
  0
LINE
  8
0
 62
7
  6
CONTINUOUS
 10
68.6347773237
 20
173.8764024585
 11
68.6347773237
 21
172.2764024585
  0
LINE
  8
0
 62
7
  6
CONTINUOUS
 10
68.6347773237
 20
161.1764024585
 11
68.6347773237
 21
159.5764024585
  0
LINE
  8
0
 62
7
  6
CONTINUOUS
 10
68.6347773237
 20
148.4764024585
 11
68.6347773237
 21
146.8764024585
  0
LINE
  8
0
 62
7
  6
CONTINUOUS
 10
68.6347773237
 20
135.7764024585
 11
68.6347773237
 21
134.1764024585
  0
LINE
  8
0
 62
7
  6
CONTINUOUS
 10
68.6347773237
 20
123.0764024585
 11
68.6347773237
 21
121.4764024585
  0
LINE
  8
0
 62
7
  6
CONTINUOUS
 10
68.6347773237
 20
110.3764024585
 11
68.6347773237
 21
108.7764024585
  0
LINE
  8
0
 62
7
  6
CONTINUOUS
 10
68.6347773237
 20
97.6764024585
 11
68.6347773237
 21
96.0764024585
  0
LINE
  8
0
 62
7
  6
CONTINUOUS
 10
68.6347773237
 20
84.9764024585
 11
68.6347773237
 21
83.3764024585
  0
LINE
  8
0
 62
7
  6
CONTINUOUS
 10
68.6347773237
 20
71.6464024585
 11
68.6347773237
 21
70.5464024585
  0
LINE
  8
2_FEATURE
 62
7
  6
CONTINUOUS
 10
69.4947773237
 20
64.1214024585
 11
69.4947773237
 21
65.4714024585
  0
LINE
  8
2_FEATURE
 62
7
  6
CONTINUOUS
 10
69.4947773237
 20
74.7214024585
 11
69.4947773237
 21
80.9214024585
  0
LINE
  8
2_FEATURE
 62
7
  6
CONTINUOUS
 10
69.4947773237
 20
87.4214024585
 11
69.4947773237
 21
93.6214024585
  0
LINE
  8
2_FEATURE
 62
7
  6
CONTINUOUS
 10
69.4947773237
 20
100.1214024585
 11
69.4947773237
 21
106.3214024585
  0
LINE
  8
2_FEATURE
 62
7
  6
CONTINUOUS
 10
69.4947773237
 20
112.8214024585
 11
69.4947773237
 21
119.0214024585
  0
LINE
  8
2_FEATURE
 62
7
  6
CONTINUOUS
 10
69.4947773237
 20
125.5214024585
 11
69.4947773237
 21
131.7214024585
  0
LINE
  8
2_FEATURE
 62
7
  6
CONTINUOUS
 10
69.4947773237
 20
138.2214024585
 11
69.4947773237
 21
144.4214024585
  0
LINE
  8
2_FEATURE
 62
7
  6
CONTINUOUS
 10
69.4947773237
 20
150.9214024585
 11
69.4947773237
 21
157.1214024585
  0
LINE
  8
2_FEATURE
 62
7
  6
CONTINUOUS
 10
69.4947773237
 20
163.6214024585
 11
69.4947773237
 21
169.8214024585
  0
LINE
  8
2_FEATURE
 62
7
  6
CONTINUOUS
 10
69.4947773237
 20
176.3214024585
 11
69.4947773237
 21
182.5214024585
  0
LINE
  8
2_FEATURE
 62
7
  6
CONTINUOUS
 10
69.4947773237
 20
189.0214024585
 11
69.4947773237
 21
195.2214024585
  0
LINE
  8
2_FEATURE
 62
7
  6
CONTINUOUS
 10
69.4947773237
 20
201.7214024585
 11
69.4947773237
 21
207.9214024585
  0
LINE
  8
0
 62
7
  6
CONTINUOUS
 10
68.6393963162
 20
161.269969283
 11
68.6347773237
 21
161.1764024585
  0
LINE
  8
0
 62
7
  6
CONTINUOUS
 10
68.6393963162
 20
148.569969283
 11
68.6347773237
 21
148.4764024585
  0
LINE
  8
0
 62
7
  6
CONTINUOUS
 10
68.6393963162
 20
110.469969283
 11
68.6347773237
 21
110.3764024585
  0
LINE
  8
0
 62
7
  6
CONTINUOUS
 10
68.6393963162
 20
97.769969283
 11
68.6347773237
 21
97.6764024585
  0
LINE
  8
0
 62
7
  6
CONTINUOUS
 10
68.6393963162
 20
85.069969283
 11
68.6347773237
 21
84.9764024585
  0
POLYLINE
  8
0
 62
7
  6
CONTINUOUS
 66
1
 70
0
  0
VERTEX
  8
0
 62
7
  6
CONTINUOUS
 10
68.9085656878
 20
136.4210820509
  0
VERTEX
  8
0
 62
7
  6
CONTINUOUS
 10
68.8374533752
 20
136.336853861
  0
VERTEX
  8
0
 62
7
  6
CONTINUOUS
 10
68.7754389171
 20
136.246673082
  0
VERTEX
  8
0
 62
7
  6
CONTINUOUS
 10
68.724105661
 20
136.1534786789
  0
VERTEX
  8
0
 62
7
  6
CONTINUOUS
 10
68.6836841383
 20
136.0581957712
  0
VERTEX
  8
0
 62
7
  6
CONTINUOUS
 10
68.6550392038
 20
135.9625197233
  0
VERTEX
  8
0
 62
7
  6
CONTINUOUS
 10
68.6393963162
 20
135.869969283
  0
SEQEND
  0
POLYLINE
  8
0
 62
7
  6
CONTINUOUS
 66
1
 70
0
  0
VERTEX
  8
0
 62
7
  6
CONTINUOUS
 10
64.5155648515
 20
127.1659606437
  0
VERTEX
  8
0
 62
7
  6
CONTINUOUS
 10
64.5874452554
 20
127.2496885599
  0
VERTEX
  8
0
 62
7
  6
CONTINUOUS
 10
64.6501974368
 20
127.3393604961
  0
VERTEX
  8
0
 62
7
  6
CONTINUOUS
 10
64.7022863447
 20
127.4321048153
  0
VERTEX
  8
0
 62
7
  6
CONTINUOUS
 10
64.7433889113
 20
127.5267376231
  0
VERTEX
  8
0
 62
7
  6
CONTINUOUS
 10
64.772769489
 20
127.6217431138
  0
VERTEX
  8
0
 62
7
  6
CONTINUOUS
 10
64.7891971934
 20
127.713586557
  0
SEQEND
  0
LINE
  8
0
 62
7
  6
CONTINUOUS
 10
68.9154578807
 20
136.4283874618
 11
68.9085656878
 21
136.4210820509
  0
LINE
  8
0
 62
7
  6
CONTINUOUS
 10
65.4928669107
 20
132.1709833549
 11
65.122485027
 21
131.8577979746
  0
LINE
  8
0
 62
7
  6
CONTINUOUS
 10
67.9366877367
 20
131.421821562
 11
68.3070696204
 21
131.7350069423
  0
LINE
  8
0
 62
7
  6
CONTINUOUS
 10
68.6347773237
 20
134.2495796137
 11
63.6645372175
 21
130.3664024585
  0
LINE
  8
0
 62
7
  6
CONTINUOUS
 10
64.7947773237
 20
129.3332253032
 11
69.7778168462
 21
133.2264024585
  0
POLYLINE
  8
0
 62
7
  6
CONTINUOUS
 66
1
 70
0
  0
VERTEX
  8
0
 62
7
  6
CONTINUOUS
 10
63.9056766359
 20
139.5683564291
  0
VERTEX
  8
0
 62
7
  6
CONTINUOUS
 10
63.9877544398
 20
139.5774530646
  0
VERTEX
  8
0
 62
7
  6
CONTINUOUS
 10
64.0768660344
 20
139.596559048
  0
VERTEX
  8
0
 62
7
  6
CONTINUOUS
 10
64.1694641525
 20
139.6274742556
  0
VERTEX
  8
0
 62
7
  6
CONTINUOUS
 10
64.2619346933
 20
139.6706106308
  0
VERTEX
  8
0
 62
7
  6
CONTINUOUS
 10
64.3512351444
 20
139.7251788575
  0
VERTEX
  8
0
 62
7
  6
CONTINUOUS
 10
64.4351115957
 20
139.7896585939
  0
VERTEX
  8
0
 62
7
  6
CONTINUOUS
 10
64.5086064292
 20
139.8587069769
  0
SEQEND
  0
LINE
  8
0
 62
7
  6
CONTINUOUS
 10
55.1147773237
 20
139.5664024585
 11
63.8447773237
 21
139.5664024585
  0
LINE
  8
0
 62
7
  6
CONTINUOUS
 10
63.8447773237
 20
143.0664024585
 11
55.1147773237
 21
143.0664024585
  0
LINE
  8
0
 62
7
  6
CONTINUOUS
 10
69.7522180136
 20
136.7264024585
 11
64.7947773237
 21
140.5995796137
  0
LINE
  8
0
 62
7
  6
CONTINUOUS
 10
68.3070696204
 20
138.2077979746
 11
67.9366877367
 21
138.5209833549
  0
POLYLINE
  8
0
 62
7
  6
CONTINUOUS
 66
1
 70
0
  0
VERTEX
  8
0
 62
7
  6
CONTINUOUS
 10
64.5086064292
 20
142.77409794
  0
VERTEX
  8
0
 62
7
  6
CONTINUOUS
 10
64.4352068093
 20
142.8430649914
  0
VERTEX
  8
0
 62
7
  6
CONTINUOUS
 10
64.3509303227
 20
142.907835787
  0
VERTEX
  8
0
 62
7
  6
CONTINUOUS
 10
64.2611993527
 20
142.9625888856
  0
VERTEX
  8
0
 62
7
  6
CONTINUOUS
 10
64.1684821047
 20
143.0057209941
  0
VERTEX
  8
0
 62
7
  6
CONTINUOUS
 10
64.0758069193
 20
143.0365325375
  0
VERTEX
  8
0
 62
7
  6
CONTINUOUS
 10
63.9869811622
 20
143.0554744295
  0
VERTEX
  8
0
 62
7
  6
CONTINUOUS
 10
63.9056766359
 20
143.0644484878
  0
SEQEND
  0
LINE
  8
0
 62
7
  6
CONTINUOUS
 10
64.5155648515
 20
142.7668442732
 11
64.5086064292
 21
142.77409794
  0
POLYLINE
  8
0
 62
7
  6
CONTINUOUS
 66
1
 70
0
  0
VERTEX
  8
0
 62
7
  6
CONTINUOUS
 10
68.6414024653
 20
134.0644030094
  0
VERTEX
  8
0
 62
7
  6
CONTINUOUS
 10
68.6586581037
 20
133.9730323628
  0
VERTEX
  8
0
 62
7
  6
CONTINUOUS
 10
68.6888660873
 20
133.8784983583
  0
VERTEX
  8
0
 62
7
  6
CONTINUOUS
 10
68.7307976027
 20
133.7843079749
  0
VERTEX
  8
0
 62
7
  6
CONTINUOUS
 10
68.7836200412
 20
133.6921713969
  0
VERTEX
  8
0
 62
7
  6
CONTINUOUS
 10
68.8469737768
 20
133.603265678
  0
VERTEX
  8
0
 62
7
  6
CONTINUOUS
 10
68.9194660777
 20
133.5202391839
  0
SEQEND
  0
POLYLINE
  8
0
 62
7
  6
CONTINUOUS
 66
1
 70
0
  0
VERTEX
  8
0
 62
7
  6
CONTINUOUS
 10
68.6414024653
 20
146.7644030094
  0
VERTEX
  8
0
 62
7
  6
CONTINUOUS
 10
68.6586581037
 20
146.6730323628
  0
VERTEX
  8
0
 62
7
  6
CONTINUOUS
 10
68.6888660873
 20
146.5784983583
  0
VERTEX
  8
0
 62
7
  6
CONTINUOUS
 10
68.7307976027
 20
146.4843079749
  0
VERTEX
  8
0
 62
7
  6
CONTINUOUS
 10
68.7836200412
 20
146.3921713969
  0
VERTEX
  8
0
 62
7
  6
CONTINUOUS
 10
68.8469737768
 20
146.303265678
  0
VERTEX
  8
0
 62
7
  6
CONTINUOUS
 10
68.9194660777
 20
146.2202391839
  0
SEQEND
  0
POLYLINE
  8
0
 62
7
  6
CONTINUOUS
 66
1
 70
0
  0
VERTEX
  8
0
 62
7
  6
CONTINUOUS
 10
68.6414024653
 20
159.4644030094
  0
VERTEX
  8
0
 62
7
  6
CONTINUOUS
 10
68.6586581037
 20
159.3730323628
  0
VERTEX
  8
0
 62
7
  6
CONTINUOUS
 10
68.6888660873
 20
159.2784983583
  0
VERTEX
  8
0
 62
7
  6
CONTINUOUS
 10
68.7307976027
 20
159.1843079749
  0
VERTEX
  8
0
 62
7
  6
CONTINUOUS
 10
68.7836200412
 20
159.0921713969
  0
VERTEX
  8
0
 62
7
  6
CONTINUOUS
 10
68.8469737768
 20
159.003265678
  0
VERTEX
  8
0
 62
7
  6
CONTINUOUS
 10
68.9194660777
 20
158.9202391839
  0
SEQEND
  0
POLYLINE
  8
0
 62
7
  6
CONTINUOUS
 66
1
 70
0
  0
VERTEX
  8
0
 62
7
  6
CONTINUOUS
 10
64.7891971934
 20
154.9192183599
  0
VERTEX
  8
0
 62
7
  6
CONTINUOUS
 10
64.7727164155
 20
155.0112781086
  0
VERTEX
  8
0
 62
7
  6
CONTINUOUS
 10
64.7432379758
 20
155.1064725918
  0
VERTEX
  8
0
 62
7
  6
CONTINUOUS
 10
64.7019877898
 20
155.2013001302
  0
VERTEX
  8
0
 62
7
  6
CONTINUOUS
 10
64.6498481575
 20
155.293999805
  0
VERTEX
  8
0
 62
7
  6
CONTINUOUS
 10
64.5872484724
 20
155.3833699478
  0
VERTEX
  8
0
 62
7
  6
CONTINUOUS
 10
64.5155648515
 20
155.4668442732
  0
SEQEND
  0
POLYLINE
  8
0
 62
7
  6
CONTINUOUS
 66
1
 70
0
  0
VERTEX
  8
0
 62
7
  6
CONTINUOUS
 10
64.7891971934
 20
167.6192183599
  0
VERTEX
  8
0
 62
7
  6
CONTINUOUS
 10
64.7727164155
 20
167.7112781086
  0
VERTEX
  8
0
 62
7
  6
CONTINUOUS
 10
64.7432379758
 20
167.8064725918
  0
VERTEX
  8
0
 62
7
  6
CONTINUOUS
 10
64.7019877898
 20
167.9013001302
  0
VERTEX
  8
0
 62
7
  6
CONTINUOUS
 10
64.6498481575
 20
167.993999805
  0
VERTEX
  8
0
 62
7
  6
CONTINUOUS
 10
64.5872484724
 20
168.0833699478
  0
VERTEX
  8
0
 62
7
  6
CONTINUOUS
 10
64.5155648515
 20
168.1668442732
  0
SEQEND
  0
POLYLINE
  8
0
 62
7
  6
CONTINUOUS
 66
1
 70
0
  0
VERTEX
  8
0
 62
7
  6
CONTINUOUS
 10
64.7891971934
 20
180.3192183599
  0
VERTEX
  8
0
 62
7
  6
CONTINUOUS
 10
64.7727164155
 20
180.4112781086
  0
VERTEX
  8
0
 62
7
  6
CONTINUOUS
 10
64.7432379758
 20
180.5064725918
  0
VERTEX
  8
0
 62
7
  6
CONTINUOUS
 10
64.7019877898
 20
180.6013001302
  0
VERTEX
  8
0
 62
7
  6
CONTINUOUS
 10
64.6498481575
 20
180.693999805
  0
VERTEX
  8
0
 62
7
  6
CONTINUOUS
 10
64.5872484724
 20
180.7833699478
  0
VERTEX
  8
0
 62
7
  6
CONTINUOUS
 10
64.5155648515
 20
180.8668442732
  0
SEQEND
  0
POLYLINE
  8
0
 62
7
  6
CONTINUOUS
 66
1
 70
0
  0
VERTEX
  8
0
 62
7
  6
CONTINUOUS
 10
69.4947773237
 20
65.4714024585
  0
VERTEX
  8
0
 62
7
  6
CONTINUOUS
 10
69.5149208683
 20
65.8182733552
  0
VERTEX
  8
0
 62
7
  6
CONTINUOUS
 10
69.5749908519
 20
66.1604938603
  0
SEQEND
  0
POLYLINE
  8
0
 62
7
  6
CONTINUOUS
 66
1
 70
0
  0
VERTEX
  8
0
 62
7
  6
CONTINUOUS
 10
68.9085656878
 20
123.7210820509
  0
VERTEX
  8
0
 62
7
  6
CONTINUOUS
 10
68.8374533752
 20
123.636853861
  0
VERTEX
  8
0
 62
7
  6
CONTINUOUS
 10
68.7754389171
 20
123.546673082
  0
VERTEX
  8
0
 62
7
  6
CONTINUOUS
 10
68.724105661
 20
123.4534786789
  0
VERTEX
  8
0
 62
7
  6
CONTINUOUS
 10
68.6836841383
 20
123.3581957712
  0
VERTEX
  8
0
 62
7
  6
CONTINUOUS
 10
68.6550392038
 20
123.2625197233
  0
VERTEX
  8
0
 62
7
  6
CONTINUOUS
 10
68.6393963162
 20
123.169969283
  0
SEQEND
  0
LINE
  8
0
 62
7
  6
CONTINUOUS
 10
64.5086064292
 20
127.1587069769
 11
64.5155648515
 21
127.1659606437
  0
POLYLINE
  8
0
 62
7
  6
CONTINUOUS
 66
1
 70
0
  0
VERTEX
  8
0
 62
7
  6
CONTINUOUS
 10
69.5121374087
 20
149.423621252
  0
VERTEX
  8
0
 62
7
  6
CONTINUOUS
 10
69.4312215881
 20
149.4136649604
  0
VERTEX
  8
0
 62
7
  6
CONTINUOUS
 10
69.3431502874
 20
149.393739567
  0
VERTEX
  8
0
 62
7
  6
CONTINUOUS
 10
69.251489528
 20
149.3620606186
  0
VERTEX
  8
0
 62
7
  6
CONTINUOUS
 10
69.1598950379
 20
149.3182325042
  0
VERTEX
  8
0
 62
7
  6
CONTINUOUS
 10
69.0713926935
 20
149.2630256387
  0
VERTEX
  8
0
 62
7
  6
CONTINUOUS
 10
68.9882304114
 20
149.1979260028
  0
VERTEX
  8
0
 62
7
  6
CONTINUOUS
 10
68.9154578807
 20
149.1283874618
  0
SEQEND
  0
LINE
  8
0
 62
7
  6
CONTINUOUS
 10
64.4768007448
 20
144.3214024585
 11
50.3147773241
 21
144.3214024585
  0
LINE
  8
0
 62
7
  6
CONTINUOUS
 10
68.9527539026
 20
144.6714024585
 11
83.1147773233
 21
144.6714024585
  0
LINE
  8
0
 62
7
  6
CONTINUOUS
 10
69.5847773237
 20
145.9264024585
 11
78.3147773237
 21
145.9264024585
  0
LINE
  8
0
 62
7
  6
CONTINUOUS
 10
63.6645372175
 20
152.2664024585
 11
68.6347773237
 21
148.3832253032
  0
LINE
  8
0
 62
7
  6
CONTINUOUS
 10
69.7522180136
 20
149.4264024585
 11
64.7947773237
 21
153.2995796137
  0
LINE
  8
0
 62
7
  6
CONTINUOUS
 10
65.122485027
 20
150.7850069423
 11
65.4928669107
 21
150.471821562
  0
LINE
  8
0
 62
7
  6
CONTINUOUS
 10
68.3070696204
 20
150.9077979746
 11
67.9366877367
 21
151.2209833549
  0
POLYLINE
  8
0
 62
7
  6
CONTINUOUS
 66
1
 70
0
  0
VERTEX
  8
0
 62
7
  6
CONTINUOUS
 10
68.926490883
 20
146.2130373812
  0
VERTEX
  8
0
 62
7
  6
CONTINUOUS
 10
69.0006224563
 20
146.1445565286
  0
VERTEX
  8
0
 62
7
  6
CONTINUOUS
 10
69.0856091763
 20
146.0804213324
  0
VERTEX
  8
0
 62
7
  6
CONTINUOUS
 10
69.1761111253
 20
146.0263367531
  0
VERTEX
  8
0
 62
7
  6
CONTINUOUS
 10
69.2697074733
 20
145.983908208
  0
VERTEX
  8
0
 62
7
  6
CONTINUOUS
 10
69.3633405774
 20
145.953870513
  0
VERTEX
  8
0
 62
7
  6
CONTINUOUS
 10
69.4532520323
 20
145.9357605837
  0
VERTEX
  8
0
 62
7
  6
CONTINUOUS
 10
69.5357938841
 20
145.9276661291
  0
SEQEND
  0
POLYLINE
  8
0
 62
7
  6
CONTINUOUS
 66
1
 70
0
  0
VERTEX
  8
0
 62
7
  6
CONTINUOUS
 10
64.5086064292
 20
155.47409794
  0
VERTEX
  8
0
 62
7
  6
CONTINUOUS
 10
64.4352068093
 20
155.5430649914
  0
VERTEX
  8
0
 62
7
  6
CONTINUOUS
 10
64.3509303227
 20
155.607835787
  0
VERTEX
  8
0
 62
7
  6
CONTINUOUS
 10
64.2611993527
 20
155.6625888856
  0
VERTEX
  8
0
 62
7
  6
CONTINUOUS
 10
64.1684821047
 20
155.7057209941
  0
VERTEX
  8
0
 62
7
  6
CONTINUOUS
 10
64.0758069193
 20
155.7365325375
  0
VERTEX
  8
0
 62
7
  6
CONTINUOUS
 10
63.9869811622
 20
155.7554744295
  0
VERTEX
  8
0
 62
7
  6
CONTINUOUS
 10
63.9056766359
 20
155.7644484878
  0
SEQEND
  0
LINE
  8
0
 62
7
  6
CONTINUOUS
 10
68.9194660777
 20
146.2202391839
 11
68.926490883
 21
146.2130373812
  0
LINE
  8
0
 62
7
  6
CONTINUOUS
 10
64.5155648515
 20
155.4668442732
 11
64.5086064292
 21
155.47409794
  0
POLYLINE
  8
0
 62
7
  6
CONTINUOUS
 66
1
 70
0
  0
VERTEX
  8
0
 62
7
  6
CONTINUOUS
 10
68.6414024653
 20
172.1644030094
  0
VERTEX
  8
0
 62
7
  6
CONTINUOUS
 10
68.6586581037
 20
172.0730323628
  0
VERTEX
  8
0
 62
7
  6
CONTINUOUS
 10
68.6888660873
 20
171.9784983583
  0
VERTEX
  8
0
 62
7
  6
CONTINUOUS
 10
68.7307976027
 20
171.8843079749
  0
VERTEX
  8
0
 62
7
  6
CONTINUOUS
 10
68.7836200412
 20
171.7921713969
  0
VERTEX
  8
0
 62
7
  6
CONTINUOUS
 10
68.8469737768
 20
171.703265678
  0
VERTEX
  8
0
 62
7
  6
CONTINUOUS
 10
68.9194660777
 20
171.6202391839
  0
SEQEND
  0
POLYLINE
  8
0
 62
7
  6
CONTINUOUS
 66
1
 70
0
  0
VERTEX
  8
0
 62
7
  6
CONTINUOUS
 10
68.6414024653
 20
184.8644030094
  0
VERTEX
  8
0
 62
7
  6
CONTINUOUS
 10
68.6586581037
 20
184.7730323628
  0
VERTEX
  8
0
 62
7
  6
CONTINUOUS
 10
68.6888660873
 20
184.6784983583
  0
VERTEX
  8
0
 62
7
  6
CONTINUOUS
 10
68.7307976027
 20
184.5843079749
  0
VERTEX
  8
0
 62
7
  6
CONTINUOUS
 10
68.7836200412
 20
184.4921713969
  0
VERTEX
  8
0
 62
7
  6
CONTINUOUS
 10
68.8469737768
 20
184.403265678
  0
VERTEX
  8
0
 62
7
  6
CONTINUOUS
 10
68.9194660777
 20
184.3202391839
  0
SEQEND
  0
POLYLINE
  8
0
 62
7
  6
CONTINUOUS
 66
1
 70
0
  0
VERTEX
  8
0
 62
7
  6
CONTINUOUS
 10
64.7891971934
 20
193.0192183599
  0
VERTEX
  8
0
 62
7
  6
CONTINUOUS
 10
64.7727164155
 20
193.1112781086
  0
VERTEX
  8
0
 62
7
  6
CONTINUOUS
 10
64.7432379758
 20
193.2064725918
  0
VERTEX
  8
0
 62
7
  6
CONTINUOUS
 10
64.7019877898
 20
193.3013001302
  0
VERTEX
  8
0
 62
7
  6
CONTINUOUS
 10
64.6498481575
 20
193.393999805
  0
VERTEX
  8
0
 62
7
  6
CONTINUOUS
 10
64.5872484724
 20
193.4833699478
  0
VERTEX
  8
0
 62
7
  6
CONTINUOUS
 10
64.5155648515
 20
193.5668442732
  0
SEQEND
  0
LINE
  8
0
 62
7
  6
CONTINUOUS
 10
79.2647773237
 20
70.5464024585
 11
79.2647773237
 21
71.6464024585
  0
LINE
  8
0
 62
7
  6
CONTINUOUS
 10
79.2647773237
 20
83.3764024585
 11
79.2647773237
 21
84.9764024585
  0
LINE
  8
0
 62
7
  6
CONTINUOUS
 10
79.2647773237
 20
96.0764024585
 11
79.2647773237
 21
97.6764024585
  0
LINE
  8
0
 62
7
  6
CONTINUOUS
 10
79.2647773237
 20
108.7764024585
 11
79.2647773237
 21
110.3764024585
  0
LINE
  8
0
 62
7
  6
CONTINUOUS
 10
79.2647773237
 20
121.4764024585
 11
79.2647773237
 21
123.0764024585
  0
LINE
  8
0
 62
7
  6
CONTINUOUS
 10
79.2647773237
 20
134.1764024585
 11
79.2647773237
 21
135.7764024585
  0
LINE
  8
0
 62
7
  6
CONTINUOUS
 10
79.2647773237
 20
146.8764024585
 11
79.2647773237
 21
148.4764024585
  0
LINE
  8
0
 62
7
  6
CONTINUOUS
 10
79.2647773237
 20
159.5764024585
 11
79.2647773237
 21
161.1764024585
  0
LINE
  8
0
 62
7
  6
CONTINUOUS
 10
79.2647773237
 20
172.2764024585
 11
79.2647773237
 21
173.8764024585
  0
LINE
  8
0
 62
7
  6
CONTINUOUS
 10
79.2647773237
 20
184.9764024585
 11
79.2647773237
 21
186.5764024585
  0
LINE
  8
0
 62
7
  6
CONTINUOUS
 10
79.2647773237
 20
197.5464024585
 11
79.2647773237
 21
198.6464024585
  0
LINE
  8
1_AXIS
 62
2
  6
CENTER
 10
79.4147773237
 20
66.4714024585
 11
79.4147773237
 21
216.1714024585
  0
POLYLINE
  8
0
 62
7
  6
CONTINUOUS
 66
1
 70
0
  0
VERTEX
  8
0
 62
7
  6
CONTINUOUS
 10
64.5155648515
 20
114.4659606437
  0
VERTEX
  8
0
 62
7
  6
CONTINUOUS
 10
64.5874452554
 20
114.5496885599
  0
VERTEX
  8
0
 62
7
  6
CONTINUOUS
 10
64.6501974368
 20
114.6393604961
  0
VERTEX
  8
0
 62
7
  6
CONTINUOUS
 10
64.7022863447
 20
114.7321048153
  0
VERTEX
  8
0
 62
7
  6
CONTINUOUS
 10
64.7433889113
 20
114.8267376231
  0
VERTEX
  8
0
 62
7
  6
CONTINUOUS
 10
64.772769489
 20
114.9217431138
  0
VERTEX
  8
0
 62
7
  6
CONTINUOUS
 10
64.7891971934
 20
115.013586557
  0
SEQEND
  0
LINE
  8
0
 62
7
  6
CONTINUOUS
 10
68.9154578807
 20
123.7283874618
 11
68.9085656878
 21
123.7210820509
  0
LINE
  8
0
 62
7
  6
CONTINUOUS
 10
64.5086064292
 20
114.4587069769
 11
64.5155648515
 21
114.4659606437
  0
LINE
  8
0
 62
7
  6
CONTINUOUS
 10
65.4928669107
 20
119.4709833549
 11
65.122485027
 21
119.1577979746
  0
LINE
  8
0
 62
7
  6
CONTINUOUS
 10
67.9366877367
 20
118.721821562
 11
68.3070696204
 21
119.0350069423
  0
LINE
  8
0
 62
7
  6
CONTINUOUS
 10
68.6347773237
 20
121.5495796137
 11
63.6645372175
 21
117.6664024585
  0
LINE
  8
0
 62
7
  6
CONTINUOUS
 10
64.7947773237
 20
116.6332253032
 11
69.7778168462
 21
120.5264024585
  0
POLYLINE
  8
0
 62
7
  6
CONTINUOUS
 66
1
 70
0
  0
VERTEX
  8
0
 62
7
  6
CONTINUOUS
 10
63.9056766359
 20
152.2683564291
  0
VERTEX
  8
0
 62
7
  6
CONTINUOUS
 10
63.9877544398
 20
152.2774530646
  0
VERTEX
  8
0
 62
7
  6
CONTINUOUS
 10
64.0768660344
 20
152.296559048
  0
VERTEX
  8
0
 62
7
  6
CONTINUOUS
 10
64.1694641525
 20
152.3274742556
  0
VERTEX
  8
0
 62
7
  6
CONTINUOUS
 10
64.2619346933
 20
152.3706106308
  0
VERTEX
  8
0
 62
7
  6
CONTINUOUS
 10
64.3512351444
 20
152.4251788575
  0
VERTEX
  8
0
 62
7
  6
CONTINUOUS
 10
64.4351115957
 20
152.4896585939
  0
VERTEX
  8
0
 62
7
  6
CONTINUOUS
 10
64.5086064292
 20
152.5587069769
  0
SEQEND
  0
LINE
  8
0
 62
7
  6
CONTINUOUS
 10
78.3147773237
 20
149.4264024585
 11
69.5847773237
 21
149.4264024585
  0
LINE
  8
0
 62
7
  6
CONTINUOUS
 10
83.1147773233
 20
150.6714024585
 11
68.9527539026
 21
150.6714024585
  0
LINE
  8
0
 62
7
  6
CONTINUOUS
 10
50.3147773241
 20
151.0214024585
 11
64.4768007448
 21
151.0214024585
  0
LINE
  8
0
 62
7
  6
CONTINUOUS
 10
55.1147773237
 20
152.2664024585
 11
63.8447773237
 21
152.2664024585
  0
LINE
  8
0
 62
7
  6
CONTINUOUS
 10
68.9194660777
 20
158.9202391839
 11
68.926490883
 21
158.9130373812
  0
LINE
  8
2_FEATURE
 62
7
  6
CONTINUOUS
 10
83.9647773237
 20
69.3214024585
 11
83.9647773237
 21
72.8714024585
  0
LINE
  8
2_FEATURE
 62
7
  6
CONTINUOUS
 10
83.9647773237
 20
82.0214024585
 11
83.9647773237
 21
86.3214024585
  0
LINE
  8
2_FEATURE
 62
7
  6
CONTINUOUS
 10
83.9647773237
 20
94.7214024585
 11
83.9647773237
 21
99.0214024585
  0
LINE
  8
2_FEATURE
 62
7
  6
CONTINUOUS
 10
83.9647773237
 20
107.4214024585
 11
83.9647773237
 21
111.7214024585
  0
LINE
  8
2_FEATURE
 62
7
  6
CONTINUOUS
 10
83.9647773237
 20
120.1214024585
 11
83.9647773237
 21
124.4214024585
  0
LINE
  8
2_FEATURE
 62
7
  6
CONTINUOUS
 10
83.9647773237
 20
132.8214024585
 11
83.9647773237
 21
137.1214024585
  0
LINE
  8
2_FEATURE
 62
7
  6
CONTINUOUS
 10
83.9647773237
 20
145.5214024585
 11
83.9647773237
 21
149.8214024585
  0
LINE
  8
2_FEATURE
 62
7
  6
CONTINUOUS
 10
83.9647773237
 20
158.2214024585
 11
83.9647773237
 21
162.5214024585
  0
LINE
  8
2_FEATURE
 62
7
  6
CONTINUOUS
 10
83.9647773237
 20
170.9214024585
 11
83.9647773237
 21
175.2214024585
  0
LINE
  8
2_FEATURE
 62
7
  6
CONTINUOUS
 10
83.9647773237
 20
183.6214024585
 11
83.9647773237
 21
187.9214024585
  0
LINE
  8
2_FEATURE
 62
7
  6
CONTINUOUS
 10
83.9647773237
 20
196.3214024585
 11
83.9647773237
 21
199.8714024585
  0
LINE
  8
2_FEATURE
 62
7
  6
CONTINUOUS
 10
83.9647773237
 20
209.0214024585
 11
83.9647773237
 21
213.3214024585
  0
POLYLINE
  8
0
 62
7
  6
CONTINUOUS
 66
1
 70
0
  0
VERTEX
  8
0
 62
7
  6
CONTINUOUS
 10
68.9085656878
 20
111.0210820509
  0
VERTEX
  8
0
 62
7
  6
CONTINUOUS
 10
68.8374533752
 20
110.936853861
  0
VERTEX
  8
0
 62
7
  6
CONTINUOUS
 10
68.7754389171
 20
110.846673082
  0
VERTEX
  8
0
 62
7
  6
CONTINUOUS
 10
68.724105661
 20
110.7534786789
  0
VERTEX
  8
0
 62
7
  6
CONTINUOUS
 10
68.6836841383
 20
110.6581957712
  0
VERTEX
  8
0
 62
7
  6
CONTINUOUS
 10
68.6550392038
 20
110.5625197233
  0
VERTEX
  8
0
 62
7
  6
CONTINUOUS
 10
68.6393963162
 20
110.469969283
  0
SEQEND
  0
LINE
  8
0
 62
7
  6
CONTINUOUS
 10
68.9154578807
 20
111.0283874618
 11
68.9085656878
 21
111.0210820509
  0
LINE
  8
0
 62
7
  6
CONTINUOUS
 10
63.8447773237
 20
155.7664024585
 11
55.1147773237
 21
155.7664024585
  0
LINE
  8
0
 62
7
  6
CONTINUOUS
 10
64.4768007448
 20
157.0214024585
 11
50.3147773241
 21
157.0214024585
  0
LINE
  8
0
 62
7
  6
CONTINUOUS
 10
68.9527539026
 20
157.3714024585
 11
83.1147773233
 21
157.3714024585
  0
LINE
  8
0
 62
7
  6
CONTINUOUS
 10
69.5847773237
 20
158.6264024585
 11
78.3147773237
 21
158.6264024585
  0
LINE
  8
0
 62
7
  6
CONTINUOUS
 10
63.6645372175
 20
164.9664024585
 11
68.6347773237
 21
161.0832253032
  0
LINE
  8
0
 62
7
  6
CONTINUOUS
 10
69.7522180136
 20
162.1264024585
 11
64.7947773237
 21
165.9995796137
  0
LINE
  8
0
 62
7
  6
CONTINUOUS
 10
65.122485027
 20
163.4850069423
 11
65.4928669107
 21
163.171821562
  0
LINE
  8
0
 62
7
  6
CONTINUOUS
 10
68.3070696204
 20
163.6077979746
 11
67.9366877367
 21
163.9209833549
  0
POLYLINE
  8
0
 62
7
  6
CONTINUOUS
 66
1
 70
0
  0
VERTEX
  8
0
 62
7
  6
CONTINUOUS
 10
68.926490883
 20
158.9130373812
  0
VERTEX
  8
0
 62
7
  6
CONTINUOUS
 10
69.0006224563
 20
158.8445565286
  0
VERTEX
  8
0
 62
7
  6
CONTINUOUS
 10
69.0856091763
 20
158.7804213324
  0
VERTEX
  8
0
 62
7
  6
CONTINUOUS
 10
69.1761111253
 20
158.7263367531
  0
VERTEX
  8
0
 62
7
  6
CONTINUOUS
 10
69.2697074733
 20
158.683908208
  0
VERTEX
  8
0
 62
7
  6
CONTINUOUS
 10
69.3633405774
 20
158.653870513
  0
VERTEX
  8
0
 62
7
  6
CONTINUOUS
 10
69.4532520323
 20
158.6357605837
  0
VERTEX
  8
0
 62
7
  6
CONTINUOUS
 10
69.5357938841
 20
158.6276661291
  0
SEQEND
  0
POLYLINE
  8
0
 62
7
  6
CONTINUOUS
 66
1
 70
0
  0
VERTEX
  8
0
 62
7
  6
CONTINUOUS
 10
64.5086064292
 20
168.17409794
  0
VERTEX
  8
0
 62
7
  6
CONTINUOUS
 10
64.4352068093
 20
168.2430649914
  0
VERTEX
  8
0
 62
7
  6
CONTINUOUS
 10
64.3509303227
 20
168.307835787
  0
VERTEX
  8
0
 62
7
  6
CONTINUOUS
 10
64.2611993527
 20
168.3625888856
  0
VERTEX
  8
0
 62
7
  6
CONTINUOUS
 10
64.1684821047
 20
168.4057209941
  0
VERTEX
  8
0
 62
7
  6
CONTINUOUS
 10
64.0758069193
 20
168.4365325375
  0
VERTEX
  8
0
 62
7
  6
CONTINUOUS
 10
63.9869811622
 20
168.4554744295
  0
VERTEX
  8
0
 62
7
  6
CONTINUOUS
 10
63.9056766359
 20
168.4644484878
  0
SEQEND
  0
LINE
  8
0
 62
7
  6
CONTINUOUS
 10
64.5155648515
 20
168.1668442732
 11
64.5086064292
 21
168.17409794
  0
POLYLINE
  8
BLANK_CURVE
 62
7
  6
CONTINUOUS
 66
1
 70
0
  0
VERTEX
  8
BLANK_CURVE
 62
7
  6
CONTINUOUS
 10
69.6327209793
 20
66.3705861944
  0
VERTEX
  8
BLANK_CURVE
 62
7
  6
CONTINUOUS
 10
69.6019445765
 20
66.2660597018
  0
VERTEX
  8
BLANK_CURVE
 62
7
  6
CONTINUOUS
 10
69.5749908519
 20
66.1604938603
  0
SEQEND
  0
POLYLINE
  8
0
 62
7
  6
CONTINUOUS
 66
1
 70
0
  0
VERTEX
  8
0
 62
7
  6
CONTINUOUS
 10
64.5155648515
 20
101.7659606437
  0
VERTEX
  8
0
 62
7
  6
CONTINUOUS
 10
64.5874452554
 20
101.8496885599
  0
VERTEX
  8
0
 62
7
  6
CONTINUOUS
 10
64.6501974368
 20
101.9393604961
  0
VERTEX
  8
0
 62
7
  6
CONTINUOUS
 10
64.7022863447
 20
102.0321048153
  0
VERTEX
  8
0
 62
7
  6
CONTINUOUS
 10
64.7433889113
 20
102.1267376231
  0
VERTEX
  8
0
 62
7
  6
CONTINUOUS
 10
64.772769489
 20
102.2217431138
  0
VERTEX
  8
0
 62
7
  6
CONTINUOUS
 10
64.7891971934
 20
102.313586557
  0
SEQEND
  0
LINE
  8
0
 62
7
  6
CONTINUOUS
 10
64.5086064292
 20
101.7587069769
 11
64.5155648515
 21
101.7659606437
  0
LINE
  8
0
 62
7
  6
CONTINUOUS
 10
65.4928669107
 20
106.7709833549
 11
65.122485027
 21
106.4577979746
  0
LINE
  8
0
 62
7
  6
CONTINUOUS
 10
67.9366877367
 20
106.021821562
 11
68.3070696204
 21
106.3350069423
  0
LINE
  8
0
 62
7
  6
CONTINUOUS
 10
68.6347773237
 20
108.8495796137
 11
63.6645372175
 21
104.9664024585
  0
LINE
  8
0
 62
7
  6
CONTINUOUS
 10
64.7947773237
 20
103.9332253032
 11
69.7778168462
 21
107.8264024585
  0
POLYLINE
  8
0
 62
7
  6
CONTINUOUS
 66
1
 70
0
  0
VERTEX
  8
0
 62
7
  6
CONTINUOUS
 10
69.5121374087
 20
162.123621252
  0
VERTEX
  8
0
 62
7
  6
CONTINUOUS
 10
69.4312215881
 20
162.1136649604
  0
VERTEX
  8
0
 62
7
  6
CONTINUOUS
 10
69.3431502874
 20
162.093739567
  0
VERTEX
  8
0
 62
7
  6
CONTINUOUS
 10
69.251489528
 20
162.0620606186
  0
VERTEX
  8
0
 62
7
  6
CONTINUOUS
 10
69.1598950379
 20
162.0182325042
  0
VERTEX
  8
0
 62
7
  6
CONTINUOUS
 10
69.0713926935
 20
161.9630256387
  0
VERTEX
  8
0
 62
7
  6
CONTINUOUS
 10
68.9882304114
 20
161.8979260028
  0
VERTEX
  8
0
 62
7
  6
CONTINUOUS
 10
68.9154578807
 20
161.8283874618
  0
SEQEND
  0
LINE
  8
0
 62
7
  6
CONTINUOUS
 10
78.3147773237
 20
162.1264024585
 11
69.5847773237
 21
162.1264024585
  0
LINE
  8
0
 62
7
  6
CONTINUOUS
 10
83.1147773233
 20
163.3714024585
 11
68.9527539026
 21
163.3714024585
  0
LINE
  8
0
 62
7
  6
CONTINUOUS
 10
50.3147773241
 20
163.7214024585
 11
64.4768007448
 21
163.7214024585
  0
LINE
  8
0
 62
7
  6
CONTINUOUS
 10
55.1147773237
 20
164.9664024585
 11
63.8447773237
 21
164.9664024585
  0
POLYLINE
  8
0
 62
7
  6
CONTINUOUS
 66
1
 70
0
  0
VERTEX
  8
0
 62
7
  6
CONTINUOUS
 10
68.926490883
 20
171.6130373812
  0
VERTEX
  8
0
 62
7
  6
CONTINUOUS
 10
69.0006224563
 20
171.5445565286
  0
VERTEX
  8
0
 62
7
  6
CONTINUOUS
 10
69.0856091763
 20
171.4804213324
  0
VERTEX
  8
0
 62
7
  6
CONTINUOUS
 10
69.1761111253
 20
171.4263367531
  0
VERTEX
  8
0
 62
7
  6
CONTINUOUS
 10
69.2697074733
 20
171.383908208
  0
VERTEX
  8
0
 62
7
  6
CONTINUOUS
 10
69.3633405774
 20
171.353870513
  0
VERTEX
  8
0
 62
7
  6
CONTINUOUS
 10
69.4532520323
 20
171.3357605837
  0
VERTEX
  8
0
 62
7
  6
CONTINUOUS
 10
69.5357938841
 20
171.3276661291
  0
SEQEND
  0
LINE
  8
0
 62
7
  6
CONTINUOUS
 10
68.9194660777
 20
171.6202391839
 11
68.926490883
 21
171.6130373812
  0
POLYLINE
  8
0
 62
7
  6
CONTINUOUS
 66
1
 70
0
  0
VERTEX
  8
0
 62
7
  6
CONTINUOUS
 10
68.9085656878
 20
98.3210820509
  0
VERTEX
  8
0
 62
7
  6
CONTINUOUS
 10
68.8374533752
 20
98.236853861
  0
VERTEX
  8
0
 62
7
  6
CONTINUOUS
 10
68.7754389171
 20
98.146673082
  0
VERTEX
  8
0
 62
7
  6
CONTINUOUS
 10
68.724105661
 20
98.0534786789
  0
VERTEX
  8
0
 62
7
  6
CONTINUOUS
 10
68.6836841383
 20
97.9581957712
  0
VERTEX
  8
0
 62
7
  6
CONTINUOUS
 10
68.6550392038
 20
97.8625197233
  0
VERTEX
  8
0
 62
7
  6
CONTINUOUS
 10
68.6393963162
 20
97.769969283
  0
SEQEND
  0
POLYLINE
  8
0
 62
7
  6
CONTINUOUS
 66
1
 70
0
  0
VERTEX
  8
0
 62
7
  6
CONTINUOUS
 10
64.5155648515
 20
89.0659606437
  0
VERTEX
  8
0
 62
7
  6
CONTINUOUS
 10
64.5874452554
 20
89.1496885599
  0
VERTEX
  8
0
 62
7
  6
CONTINUOUS
 10
64.6501974368
 20
89.2393604961
  0
VERTEX
  8
0
 62
7
  6
CONTINUOUS
 10
64.7022863447
 20
89.3321048153
  0
VERTEX
  8
0
 62
7
  6
CONTINUOUS
 10
64.7433889113
 20
89.4267376231
  0
VERTEX
  8
0
 62
7
  6
CONTINUOUS
 10
64.772769489
 20
89.5217431138
  0
VERTEX
  8
0
 62
7
  6
CONTINUOUS
 10
64.7891971934
 20
89.613586557
  0
SEQEND
  0
LINE
  8
0
 62
7
  6
CONTINUOUS
 10
68.9154578807
 20
98.3283874618
 11
68.9085656878
 21
98.3210820509
  0
POLYLINE
  8
0
 62
7
  6
CONTINUOUS
 66
1
 70
0
  0
VERTEX
  8
0
 62
7
  6
CONTINUOUS
 10
63.9056766359
 20
164.9683564291
  0
VERTEX
  8
0
 62
7
  6
CONTINUOUS
 10
63.9877544398
 20
164.9774530646
  0
VERTEX
  8
0
 62
7
  6
CONTINUOUS
 10
64.0768660344
 20
164.996559048
  0
VERTEX
  8
0
 62
7
  6
CONTINUOUS
 10
64.1694641525
 20
165.0274742556
  0
VERTEX
  8
0
 62
7
  6
CONTINUOUS
 10
64.2619346933
 20
165.0706106308
  0
VERTEX
  8
0
 62
7
  6
CONTINUOUS
 10
64.3512351444
 20
165.1251788575
  0
VERTEX
  8
0
 62
7
  6
CONTINUOUS
 10
64.4351115957
 20
165.1896585939
  0
VERTEX
  8
0
 62
7
  6
CONTINUOUS
 10
64.5086064292
 20
165.2587069769
  0
SEQEND
  0
LINE
  8
0
 62
7
  6
CONTINUOUS
 10
63.8447773237
 20
168.4664024585
 11
55.1147773237
 21
168.4664024585
  0
LINE
  8
0
 62
7
  6
CONTINUOUS
 10
64.4768007448
 20
169.7214024585
 11
50.3147773241
 21
169.7214024585
  0
LINE
  8
0
 62
7
  6
CONTINUOUS
 10
68.9527539026
 20
170.0714024585
 11
83.1147773233
 21
170.0714024585
  0
LINE
  8
0
 62
7
  6
CONTINUOUS
 10
63.6645372175
 20
177.6664024585
 11
68.6347773237
 21
173.7832253032
  0
LINE
  8
0
 62
7
  6
CONTINUOUS
 10
69.7522180136
 20
174.8264024585
 11
64.7947773237
 21
178.6995796137
  0
LINE
  8
0
 62
7
  6
CONTINUOUS
 10
65.122485027
 20
176.1850069423
 11
65.4928669107
 21
175.871821562
  0
LINE
  8
0
 62
7
  6
CONTINUOUS
 10
68.3070696204
 20
176.3077979746
 11
67.9366877367
 21
176.6209833549
  0
POLYLINE
  8
0
 62
7
  6
CONTINUOUS
 66
1
 70
0
  0
VERTEX
  8
0
 62
7
  6
CONTINUOUS
 10
64.5086064292
 20
180.87409794
  0
VERTEX
  8
0
 62
7
  6
CONTINUOUS
 10
64.4352068093
 20
180.9430649914
  0
VERTEX
  8
0
 62
7
  6
CONTINUOUS
 10
64.3509303227
 20
181.007835787
  0
VERTEX
  8
0
 62
7
  6
CONTINUOUS
 10
64.2611993527
 20
181.0625888856
  0
VERTEX
  8
0
 62
7
  6
CONTINUOUS
 10
64.1684821047
 20
181.1057209941
  0
VERTEX
  8
0
 62
7
  6
CONTINUOUS
 10
64.0758069193
 20
181.1365325375
  0
VERTEX
  8
0
 62
7
  6
CONTINUOUS
 10
63.9869811622
 20
181.1554744295
  0
VERTEX
  8
0
 62
7
  6
CONTINUOUS
 10
63.9056766359
 20
181.1644484878
  0
SEQEND
  0
LINE
  8
0
 62
7
  6
CONTINUOUS
 10
64.5155648515
 20
180.8668442732
 11
64.5086064292
 21
180.87409794
  0
POLYLINE
  8
0
 62
7
  6
CONTINUOUS
 66
1
 70
0
  0
VERTEX
  8
0
 62
7
  6
CONTINUOUS
 10
68.9085656878
 20
85.6210820509
  0
VERTEX
  8
0
 62
7
  6
CONTINUOUS
 10
68.8374533752
 20
85.536853861
  0
VERTEX
  8
0
 62
7
  6
CONTINUOUS
 10
68.7754389171
 20
85.446673082
  0
VERTEX
  8
0
 62
7
  6
CONTINUOUS
 10
68.724105661
 20
85.3534786789
  0
VERTEX
  8
0
 62
7
  6
CONTINUOUS
 10
68.6836841383
 20
85.2581957712
  0
VERTEX
  8
0
 62
7
  6
CONTINUOUS
 10
68.6550392038
 20
85.1625197233
  0
VERTEX
  8
0
 62
7
  6
CONTINUOUS
 10
68.6393963162
 20
85.069969283
  0
SEQEND
  0
LINE
  8
0
 62
7
  6
CONTINUOUS
 10
64.5086064292
 20
89.0587069769
 11
64.5155648515
 21
89.0659606437
  0
LINE
  8
0
 62
7
  6
CONTINUOUS
 10
65.4928669107
 20
94.0709833549
 11
65.122485027
 21
93.7577979746
  0
LINE
  8
0
 62
7
  6
CONTINUOUS
 10
67.9366877367
 20
93.321821562
 11
68.3070696204
 21
93.6350069423
  0
LINE
  8
0
 62
7
  6
CONTINUOUS
 10
68.6347773237
 20
96.1495796137
 11
63.6645372175
 21
92.2664024585
  0
LINE
  8
0
 62
7
  6
CONTINUOUS
 10
64.7947773237
 20
91.2332253032
 11
69.7778168462
 21
95.1264024585
  0
POLYLINE
  8
0
 62
7
  6
CONTINUOUS
 66
1
 70
0
  0
VERTEX
  8
0
 62
7
  6
CONTINUOUS
 10
69.5121374087
 20
174.823621252
  0
VERTEX
  8
0
 62
7
  6
CONTINUOUS
 10
69.4312215881
 20
174.8136649604
  0
VERTEX
  8
0
 62
7
  6
CONTINUOUS
 10
69.3431502874
 20
174.793739567
  0
VERTEX
  8
0
 62
7
  6
CONTINUOUS
 10
69.251489528
 20
174.7620606186
  0
VERTEX
  8
0
 62
7
  6
CONTINUOUS
 10
69.1598950379
 20
174.7182325042
  0
VERTEX
  8
0
 62
7
  6
CONTINUOUS
 10
69.0713926935
 20
174.6630256387
  0
VERTEX
  8
0
 62
7
  6
CONTINUOUS
 10
68.9882304114
 20
174.5979260028
  0
VERTEX
  8
0
 62
7
  6
CONTINUOUS
 10
68.9154578807
 20
174.5283874618
  0
SEQEND
  0
LINE
  8
0
 62
7
  6
CONTINUOUS
 10
69.5847773237
 20
171.3264024585
 11
78.3147773237
 21
171.3264024585
  0
LINE
  8
0
 62
7
  6
CONTINUOUS
 10
78.3147773237
 20
174.8264024585
 11
69.5847773237
 21
174.8264024585
  0
POLYLINE
  8
0
 62
7
  6
CONTINUOUS
 66
1
 70
0
  0
VERTEX
  8
0
 62
7
  6
CONTINUOUS
 10
68.926490883
 20
184.3130373812
  0
VERTEX
  8
0
 62
7
  6
CONTINUOUS
 10
69.0006224563
 20
184.2445565286
  0
VERTEX
  8
0
 62
7
  6
CONTINUOUS
 10
69.0856091763
 20
184.1804213324
  0
VERTEX
  8
0
 62
7
  6
CONTINUOUS
 10
69.1761111253
 20
184.1263367531
  0
VERTEX
  8
0
 62
7
  6
CONTINUOUS
 10
69.2697074733
 20
184.083908208
  0
VERTEX
  8
0
 62
7
  6
CONTINUOUS
 10
69.3633405774
 20
184.053870513
  0
VERTEX
  8
0
 62
7
  6
CONTINUOUS
 10
69.4532520323
 20
184.0357605837
  0
VERTEX
  8
0
 62
7
  6
CONTINUOUS
 10
69.5357938841
 20
184.0276661291
  0
SEQEND
  0
LINE
  8
0
 62
7
  6
CONTINUOUS
 10
68.9194660777
 20
184.3202391839
 11
68.926490883
 21
184.3130373812
  0
LINE
  8
0
 62
7
  6
CONTINUOUS
 10
64.5155648515
 20
193.5668442732
 11
64.5086064292
 21
193.57409794
  0
LINE
  8
0
 62
7
  6
CONTINUOUS
 10
68.9154578807
 20
85.6283874618
 11
68.9085656878
 21
85.6210820509
  0
POLYLINE
  8
0
 62
7
  6
CONTINUOUS
 66
1
 70
0
  0
VERTEX
  8
0
 62
7
  6
CONTINUOUS
 10
63.9056766359
 20
177.6683564291
  0
VERTEX
  8
0
 62
7
  6
CONTINUOUS
 10
63.9877544398
 20
177.6774530646
  0
VERTEX
  8
0
 62
7
  6
CONTINUOUS
 10
64.0768660344
 20
177.696559048
  0
VERTEX
  8
0
 62
7
  6
CONTINUOUS
 10
64.1694641525
 20
177.7274742556
  0
VERTEX
  8
0
 62
7
  6
CONTINUOUS
 10
64.2619346933
 20
177.7706106308
  0
VERTEX
  8
0
 62
7
  6
CONTINUOUS
 10
64.3512351444
 20
177.8251788575
  0
VERTEX
  8
0
 62
7
  6
CONTINUOUS
 10
64.4351115957
 20
177.8896585939
  0
VERTEX
  8
0
 62
7
  6
CONTINUOUS
 10
64.5086064292
 20
177.9587069769
  0
SEQEND
  0
LINE
  8
0
 62
7
  6
CONTINUOUS
 10
83.1147773233
 20
176.0714024585
 11
68.9527539026
 21
176.0714024585
  0
LINE
  8
0
 62
7
  6
CONTINUOUS
 10
50.3147773241
 20
176.4214024585
 11
64.4768007448
 21
176.4214024585
  0
LINE
  8
0
 62
7
  6
CONTINUOUS
 10
55.1147773237
 20
177.6664024585
 11
63.8447773237
 21
177.6664024585
  0
LINE
  8
0
 62
7
  6
CONTINUOUS
 10
63.6645372175
 20
190.3664024585
 11
68.6347773237
 21
186.4832253032
  0
LINE
  8
0
 62
7
  6
CONTINUOUS
 10
69.7522180136
 20
187.5264024585
 11
64.7947773237
 21
191.3995796137
  0
LINE
  8
0
 62
7
  6
CONTINUOUS
 10
65.122485027
 20
188.8850069423
 11
65.4928669107
 21
188.571821562
  0
LINE
  8
0
 62
7
  6
CONTINUOUS
 10
68.3070696204
 20
189.0077979746
 11
67.9366877367
 21
189.3209833549
  0
POLYLINE
  8
0
 62
7
  6
CONTINUOUS
 66
1
 70
0
  0
VERTEX
  8
0
 62
7
  6
CONTINUOUS
 10
64.5086064292
 20
193.57409794
  0
VERTEX
  8
0
 62
7
  6
CONTINUOUS
 10
64.4352068093
 20
193.6430649914
  0
VERTEX
  8
0
 62
7
  6
CONTINUOUS
 10
64.3509303227
 20
193.707835787
  0
VERTEX
  8
0
 62
7
  6
CONTINUOUS
 10
64.2611993527
 20
193.7625888856
  0
VERTEX
  8
0
 62
7
  6
CONTINUOUS
 10
64.1684821047
 20
193.8057209941
  0
VERTEX
  8
0
 62
7
  6
CONTINUOUS
 10
64.0758069193
 20
193.8365325375
  0
VERTEX
  8
0
 62
7
  6
CONTINUOUS
 10
63.9869811622
 20
193.8554744295
  0
VERTEX
  8
0
 62
7
  6
CONTINUOUS
 10
63.9056766359
 20
193.8644484878
  0
SEQEND
  0
POLYLINE
  8
0
 62
7
  6
CONTINUOUS
 66
1
 70
0
  0
VERTEX
  8
0
 62
7
  6
CONTINUOUS
 10
68.8584905542
 20
196.9599097018
  0
VERTEX
  8
0
 62
7
  6
CONTINUOUS
 10
68.9342491142
 20
196.8740069364
  0
VERTEX
  8
0
 62
7
  6
CONTINUOUS
 10
69.0235889609
 20
196.7930235207
  0
VERTEX
  8
0
 62
7
  6
CONTINUOUS
 10
69.1200648013
 20
196.7248945607
  0
VERTEX
  8
0
 62
7
  6
CONTINUOUS
 10
69.2169715083
 20
196.6732802355
  0
VERTEX
  8
0
 62
7
  6
CONTINUOUS
 10
69.3098693422
 20
196.6376098587
  0
VERTEX
  8
0
 62
7
  6
CONTINUOUS
 10
69.3928557938
 20
196.6159906537
  0
SEQEND
  0
LINE
  8
0
 62
7
  6
CONTINUOUS
 10
68.8523206958
 20
196.9677794622
 11
68.8584905542
 21
196.9599097018
  0
LINE
  8
0
 62
7
  6
CONTINUOUS
 10
65.4928669107
 20
81.3709833549
 11
65.122485027
 21
81.0577979746
  0
LINE
  8
0
 62
7
  6
CONTINUOUS
 10
67.9366877367
 20
80.621821562
 11
68.3070696204
 21
80.9350069423
  0
LINE
  8
0
 62
7
  6
CONTINUOUS
 10
68.6347773237
 20
83.4495796137
 11
63.8309296297
 21
79.6964024585
  0
LINE
  8
0
 62
7
  6
CONTINUOUS
 10
64.7947773237
 20
78.5332253032
 11
69.7778168462
 21
82.4264024585
  0
LINE
  8
0
 62
7
  6
CONTINUOUS
 10
63.8447773237
 20
181.1664024585
 11
55.1147773237
 21
181.1664024585
  0
LINE
  8
0
 62
7
  6
CONTINUOUS
 10
64.4768007448
 20
182.4214024585
 11
50.3147773241
 21
182.4214024585
  0
LINE
  8
0
 62
7
  6
CONTINUOUS
 10
68.9527539026
 20
182.7714024585
 11
83.1147773233
 21
182.7714024585
  0
LINE
  8
0
 62
7
  6
CONTINUOUS
 10
69.5847773237
 20
184.0264024585
 11
78.3147773237
 21
184.0264024585
  0
LINE
  8
0
 62
7
  6
CONTINUOUS
 10
65.122485027
 20
201.5850069423
 11
65.4928669107
 21
201.271821562
  0
LINE
  8
0
 62
7
  6
CONTINUOUS
 10
65.4928669107
 20
68.6709833549
 11
65.122485027
 21
68.3577979746
  0
POLYLINE
  8
0
 62
7
  6
CONTINUOUS
 66
1
 70
0
  0
VERTEX
  8
0
 62
7
  6
CONTINUOUS
 10
69.5121374087
 20
187.523621252
  0
VERTEX
  8
0
 62
7
  6
CONTINUOUS
 10
69.4312215881
 20
187.5136649604
  0
VERTEX
  8
0
 62
7
  6
CONTINUOUS
 10
69.3431502874
 20
187.493739567
  0
VERTEX
  8
0
 62
7
  6
CONTINUOUS
 10
69.251489528
 20
187.4620606186
  0
VERTEX
  8
0
 62
7
  6
CONTINUOUS
 10
69.1598950379
 20
187.4182325042
  0
VERTEX
  8
0
 62
7
  6
CONTINUOUS
 10
69.0713926935
 20
187.3630256387
  0
VERTEX
  8
0
 62
7
  6
CONTINUOUS
 10
68.9882304114
 20
187.2979260028
  0
VERTEX
  8
0
 62
7
  6
CONTINUOUS
 10
68.9154578807
 20
187.2283874618
  0
SEQEND
  0
POLYLINE
  8
0
 62
7
  6
CONTINUOUS
 66
1
 70
0
  0
VERTEX
  8
0
 62
7
  6
CONTINUOUS
 10
63.9056766359
 20
190.3683564291
  0
VERTEX
  8
0
 62
7
  6
CONTINUOUS
 10
63.9877544398
 20
190.3774530646
  0
VERTEX
  8
0
 62
7
  6
CONTINUOUS
 10
64.0768660344
 20
190.396559048
  0
VERTEX
  8
0
 62
7
  6
CONTINUOUS
 10
64.1694641525
 20
190.4274742556
  0
VERTEX
  8
0
 62
7
  6
CONTINUOUS
 10
64.2619346933
 20
190.4706106308
  0
VERTEX
  8
0
 62
7
  6
CONTINUOUS
 10
64.3512351444
 20
190.5251788575
  0
VERTEX
  8
0
 62
7
  6
CONTINUOUS
 10
64.4351115957
 20
190.5896585939
  0
VERTEX
  8
0
 62
7
  6
CONTINUOUS
 10
64.5086064292
 20
190.6587069769
  0
SEQEND
  0
LINE
  8
0
 62
7
  6
CONTINUOUS
 10
78.3147773237
 20
187.5264024585
 11
69.5847773237
 21
187.5264024585
  0
LINE
  8
0
 62
7
  6
CONTINUOUS
 10
83.1147773233
 20
188.7714024585
 11
68.9527539026
 21
188.7714024585
  0
LINE
  8
0
 62
7
  6
CONTINUOUS
 10
50.3147773241
 20
189.1214024585
 11
64.4768007448
 21
189.1214024585
  0
LINE
  8
0
 62
7
  6
CONTINUOUS
 10
55.1147773237
 20
190.3664024585
 11
63.8447773237
 21
190.3664024585
  0
LINE
  8
0
 62
7
  6
CONTINUOUS
 10
62.8581739892
 20
203.6964024585
 11
68.7474636685
 21
199.0951850817
  0
LINE
  8
0
 62
7
  6
CONTINUOUS
 10
70.5585812419
 20
199.5964024585
 11
64.6782862812
 21
204.1905923908
  0
LINE
  8
0
 62
7
  6
CONTINUOUS
 10
68.3070696204
 20
201.7077979746
 11
67.9366877367
 21
202.0209833549
  0
POLYLINE
  8
BLANK_CURVE
 62
7
  6
CONTINUOUS
 66
1
 70
0
  0
VERTEX
  8
BLANK_CURVE
 62
7
  6
CONTINUOUS
 10
70.6947773237
 20
67.8714024585
  0
VERTEX
  8
BLANK_CURVE
 62
7
  6
CONTINUOUS
 10
70.4559144247
 20
67.6720625729
  0
VERTEX
  8
BLANK_CURVE
 62
7
  6
CONTINUOUS
 10
70.2387759289
 20
67.4488854309
  0
VERTEX
  8
BLANK_CURVE
 62
7
  6
CONTINUOUS
 10
70.0459632795
 20
67.204376086
  0
VERTEX
  8
BLANK_CURVE
 62
7
  6
CONTINUOUS
 10
69.879564487
 20
66.9413010313
  0
VERTEX
  8
BLANK_CURVE
 62
7
  6
CONTINUOUS
 10
69.7413345854
 20
66.662402182
  0
VERTEX
  8
BLANK_CURVE
 62
7
  6
CONTINUOUS
 10
69.6327209793
 20
66.3705861944
  0
SEQEND
  0
POLYLINE
  8
0
 62
7
  6
CONTINUOUS
 66
1
 70
0
  0
VERTEX
  8
0
 62
7
  6
CONTINUOUS
 10
64.0541432029
 20
76.7264627455
  0
VERTEX
  8
0
 62
7
  6
CONTINUOUS
 10
64.1630537249
 20
76.7605860312
  0
VERTEX
  8
0
 62
7
  6
CONTINUOUS
 10
64.2612779011
 20
76.8030667626
  0
VERTEX
  8
0
 62
7
  6
CONTINUOUS
 10
64.3484985512
 20
76.851061754
  0
VERTEX
  8
0
 62
7
  6
CONTINUOUS
 10
64.4254216572
 20
76.9026977392
  0
VERTEX
  8
0
 62
7
  6
CONTINUOUS
 10
64.4925685423
 20
76.9566056161
  0
VERTEX
  8
0
 62
7
  6
CONTINUOUS
 10
64.5497982446
 20
77.0113847964
  0
VERTEX
  8
0
 62
7
  6
CONTINUOUS
 10
64.5958289264
 20
77.0646624047
  0
SEQEND
  0
LINE
  8
0
 62
7
  6
CONTINUOUS
 10
63.8447773237
 20
193.8664024585
 11
55.1147773237
 21
193.8664024585
  0
LINE
  8
0
 62
7
  6
CONTINUOUS
 10
74.1147773237
 20
194.7714024585
 11
74.9147773237
 21
194.7714024585
  0
LINE
  8
0
 62
7
  6
CONTINUOUS
 10
64.4768007448
 20
195.1214024585
 11
50.3147773241
 21
195.1214024585
  0
LINE
  8
0
 62
7
  6
CONTINUOUS
 10
68.9527539026
 20
195.4714024585
 11
83.1147773233
 21
195.4714024585
  0
LINE
  8
0
 62
7
  6
CONTINUOUS
 10
59.3147773237
 20
195.8214024585
 11
58.5147773237
 21
195.8214024585
  0
LINE
  8
0
 62
7
  6
CONTINUOUS
 10
70.6947792815
 20
67.8714039285
 11
70.9381497233
 21
68.0358077106
  0
POLYLINE
  8
BLANK_CURVE
 62
7
  6
CONTINUOUS
 66
1
 70
0
  0
VERTEX
  8
BLANK_CURVE
 62
7
  6
CONTINUOUS
 10
70.6947773237
 20
67.8714024585
  0
VERTEX
  8
BLANK_CURVE
 62
7
  6
CONTINUOUS
 10
70.9544753776
 20
68.0456339682
  0
VERTEX
  8
BLANK_CURVE
 62
7
  6
CONTINUOUS
 10
71.2332070406
 20
68.1929831628
  0
SEQEND
  0
POLYLINE
  8
0
 62
7
  6
CONTINUOUS
 66
1
 70
0
  0
VERTEX
  8
0
 62
7
  6
CONTINUOUS
 10
69.3657967028
 20
72.5638540309
  0
VERTEX
  8
0
 62
7
  6
CONTINUOUS
 10
69.2579194651
 20
72.5288944814
  0
VERTEX
  8
0
 62
7
  6
CONTINUOUS
 10
69.1606131904
 20
72.4857646771
  0
VERTEX
  8
0
 62
7
  6
CONTINUOUS
 10
69.0741209759
 20
72.437206191
  0
VERTEX
  8
0
 62
7
  6
CONTINUOUS
 10
68.9977869984
 20
72.3850464068
  0
VERTEX
  8
0
 62
7
  6
CONTINUOUS
 10
68.9312046328
 20
72.3306937523
  0
VERTEX
  8
0
 62
7
  6
CONTINUOUS
 10
68.8744894191
 20
72.2755153252
  0
VERTEX
  8
0
 62
7
  6
CONTINUOUS
 10
68.8289259881
 20
72.2218924745
  0
SEQEND
  0
LINE
  8
0
 62
7
  6
CONTINUOUS
 10
69.378015236
 20
199.5669980487
 11
69.3657967028
 21
199.5638540309
  0
POLYLINE
  8
0
 62
7
  6
CONTINUOUS
 66
1
 70
0
  0
VERTEX
  8
0
 62
7
  6
CONTINUOUS
 10
69.6132556854
 20
199.5964024585
  0
VERTEX
  8
0
 62
7
  6
CONTINUOUS
 10
69.5314767152
 20
199.5928413913
  0
VERTEX
  8
0
 62
7
  6
CONTINUOUS
 10
69.4528258338
 20
199.5827269643
  0
VERTEX
  8
0
 62
7
  6
CONTINUOUS
 10
69.378015236
 20
199.5669980487
  0
SEQEND
  0
LINE
  8
0
 62
7
  6
CONTINUOUS
 10
69.5847773237
 20
196.5964024585
 11
78.3147773237
 21
196.5964024585
  0
LINE
  8
0
 62
7
  6
CONTINUOUS
 10
78.3147773237
 20
199.5964024585
 11
69.6132556854
 21
199.5964024585
  0
LINE
  8
0
 62
7
  6
CONTINUOUS
 10
83.1147773233
 20
200.7214024585
 11
74.6288143916
 21
200.7214024585
  0
LINE
  8
0
 62
7
  6
CONTINUOUS
 10
68.9527539026
 20
201.4714024585
 11
75.2647620848
 21
201.4714024585
  0
LINE
  8
0
 62
7
  6
CONTINUOUS
 10
70.9381497233
 20
68.0358077106
 11
71.2368084866
 21
68.1946492739
  0
LINE
  8
BLANK_CURVE
 62
7
  6
CONTINUOUS
 10
71.2332070406
 20
68.1929831628
 11
71.5257854266
 21
68.3104608683
  0
POLYLINE
  8
0
 62
7
  6
CONTINUOUS
 66
1
 70
0
  0
VERTEX
  8
0
 62
7
  6
CONTINUOUS
 10
71.2368084866
 20
68.1946492739
  0
VERTEX
  8
0
 62
7
  6
CONTINUOUS
 10
71.548566053
 20
68.3181488124
  0
VERTEX
  8
0
 62
7
  6
CONTINUOUS
 10
71.8265852936
 20
68.3960425117
  0
SEQEND
  0
LINE
  8
0
 62
7
  6
CONTINUOUS
 10
61.9037692207
 20
207.9823440487
 11
61.6029772906
 21
207.8967642237
  0
LINE
  8
0
 62
7
  6
CONTINUOUS
 10
64.0417952853
 20
203.7234198139
 11
64.0541432029
 21
203.7264627455
  0
POLYLINE
  8
0
 62
7
  6
CONTINUOUS
 66
1
 70
0
  0
VERTEX
  8
0
 62
7
  6
CONTINUOUS
 10
63.8159457218
 20
203.6964024585
  0
VERTEX
  8
0
 62
7
  6
CONTINUOUS
 10
63.8943076148
 20
203.6996629913
  0
VERTEX
  8
0
 62
7
  6
CONTINUOUS
 10
63.9698036044
 20
203.7089438548
  0
VERTEX
  8
0
 62
7
  6
CONTINUOUS
 10
64.0417952853
 20
203.7234198139
  0
SEQEND
  0
LINE
  8
0
 62
7
  6
CONTINUOUS
 10
58.1647925626
 20
201.8214024585
 11
64.4768007448
 21
201.8214024585
  0
LINE
  8
0
 62
7
  6
CONTINUOUS
 10
50.3147773241
 20
202.5714024585
 11
58.8007402558
 21
202.5714024585
  0
LINE
  8
0
 62
7
  6
CONTINUOUS
 10
55.1147773237
 20
203.6964024585
 11
63.8159457218
 21
203.6964024585
  0
LINE
  8
0
 62
7
  6
CONTINUOUS
 10
63.8447773237
 20
206.6964024585
 11
55.1147773237
 21
206.6964024585
  0
POLYLINE
  8
0
 62
7
  6
CONTINUOUS
 66
1
 70
0
  0
VERTEX
  8
0
 62
7
  6
CONTINUOUS
 10
61.6029772906
 20
207.8967642237
  0
VERTEX
  8
0
 62
7
  6
CONTINUOUS
 10
61.3824880012
 20
207.8550139032
  0
VERTEX
  8
0
 62
7
  6
CONTINUOUS
 10
61.1590269797
 20
207.8298112425
  0
VERTEX
  8
0
 62
7
  6
CONTINUOUS
 10
60.9347773237
 20
207.8214024585
  0
SEQEND
  0
LINE
  8
0
 62
7
  6
CONTINUOUS
 10
74.1147773237
 20
207.4714024585
 11
74.9147773237
 21
207.4714024585
  0
LINE
  8
0
 62
7
  6
CONTINUOUS
 10
62.6668979669
 20
207.8214024585
 11
50.3147773241
 21
207.8214024585
  0
LINE
  8
0
 62
7
  6
CONTINUOUS
 10
68.9527539026
 20
208.1714024585
 11
83.1147773233
 21
208.1714024585
  0
LINE
  8
0
 62
7
  6
CONTINUOUS
 10
59.3147773237
 20
208.5214024585
 11
58.5147773237
 21
208.5214024585
  0
LINE
  8
0
 62
7
  6
CONTINUOUS
 10
83.1147773233
 20
214.1714024585
 11
65.9347773237
 21
214.1714024585
  0
LINE
  8
0
 62
7
  6
CONTINUOUS
 10
131.8964285714
 20
62.1214024585
 11
138.9964285714
 21
62.1214024585
  0
LINE
  8
0
 62
7
  6
CONTINUOUS
 10
138.9964285714
 20
68.1214024585
 11
131.8964285714
 21
68.1214024585
  0
LINE
  8
0
 62
7
  6
CONTINUOUS
 10
135.0464465443
 20
68.8214024585
 11
135.8464105985
 21
68.8214024585
  0
LINE
  8
0
 62
7
  6
CONTINUOUS
 10
139.8464285714
 20
69.5964024585
 11
142.2464285714
 21
69.5964024585
  0
LINE
  8
0
 62
7
  6
CONTINUOUS
 10
140.3964285714
 20
72.0951850817
 11
139.8464285714
 21
72.0951850817
  0
LINE
  8
0
 62
7
  6
CONTINUOUS
 10
142.2464285714
 20
72.5964024585
 11
141.1464285714
 21
72.5964024585
  0
LINE
  8
0
 62
7
  6
CONTINUOUS
 10
138.9964285714
 20
74.8214024585
 11
131.8964285714
 21
74.8214024585
  0
LINE
  8
0
 62
7
  6
CONTINUOUS
 10
131.8964285714
 20
75.5714024585
 11
138.9964285714
 21
75.5714024585
  0
LINE
  8
0
 62
7
  6
CONTINUOUS
 10
139.8464285714
 20
76.6964024585
 11
142.2464285714
 21
76.6964024585
  0
LINE
  8
0
 62
7
  6
CONTINUOUS
 10
142.2464285714
 20
79.6964024585
 11
139.8464285714
 21
79.6964024585
  0
LINE
  8
0
 62
7
  6
CONTINUOUS
 10
138.9964285714
 20
80.8214024585
 11
131.8964285714
 21
80.8214024585
  0
LINE
  8
0
 62
7
  6
CONTINUOUS
 10
135.0464465443
 20
81.5214024585
 11
135.8464105985
 21
81.5214024585
  0
LINE
  8
0
 62
7
  6
CONTINUOUS
 10
142.2464285714
 20
82.4264024585
 11
141.1464285714
 21
82.4264024585
  0
POLYLINE
  8
0
 62
7
  6
CONTINUOUS
 66
1
 70
0
  0
VERTEX
  8
0
 62
7
  6
CONTINUOUS
 10
140.8464285714
 20
199.2218924745
  0
VERTEX
  8
0
 62
7
  6
CONTINUOUS
 10
140.7668957621
 20
199.1795432395
  0
VERTEX
  8
0
 62
7
  6
CONTINUOUS
 10
140.6802170166
 20
199.14402013
  0
VERTEX
  8
0
 62
7
  6
CONTINUOUS
 10
140.5881322687
 20
199.1172603874
  0
VERTEX
  8
0
 62
7
  6
CONTINUOUS
 10
140.4927687842
 20
199.1007296279
  0
VERTEX
  8
0
 62
7
  6
CONTINUOUS
 10
140.3964285714
 20
199.0951850817
  0
SEQEND
  0
LINE
  8
0
 62
7
  6
CONTINUOUS
 10
139.8464285714
 20
83.4495796137
 11
140.3964285714
 21
83.4495796137
  0
LINE
  8
0
 62
7
  6
CONTINUOUS
 10
139.8464285714
 20
84.8832253032
 11
140.3964285714
 21
84.8832253032
  0
LINE
  8
0
 62
7
  6
CONTINUOUS
 10
142.2464285714
 20
85.9264024585
 11
141.1464285714
 21
85.9264024585
  0
LINE
  8
0
 62
7
  6
CONTINUOUS
 10
131.8964285714
 20
87.5214024585
 11
138.9964285714
 21
87.5214024585
  0
LINE
  8
0
 62
7
  6
CONTINUOUS
 10
139.8464285714
 20
88.7664024585
 11
142.2464285714
 21
88.7664024585
  0
LINE
  8
0
 62
7
  6
CONTINUOUS
 10
142.2464285714
 20
92.2664024585
 11
139.8464285714
 21
92.2664024585
  0
POLYLINE
  8
0
 62
7
  6
CONTINUOUS
 66
1
 70
0
  0
VERTEX
  8
0
 62
7
  6
CONTINUOUS
 10
140.6848230869
 20
83.3764024585
  0
VERTEX
  8
0
 62
7
  6
CONTINUOUS
 10
140.5896179887
 20
83.4174627353
  0
VERTEX
  8
0
 62
7
  6
CONTINUOUS
 10
140.4932569857
 20
83.4416142914
  0
VERTEX
  8
0
 62
7
  6
CONTINUOUS
 10
140.3964285714
 20
83.4495796137
  0
SEQEND
  0
POLYLINE
  8
0
 62
7
  6
CONTINUOUS
 66
1
 70
0
  0
VERTEX
  8
0
 62
7
  6
CONTINUOUS
 10
140.7200730192
 20
186.5764024585
  0
VERTEX
  8
0
 62
7
  6
CONTINUOUS
 10
140.6404568042
 20
186.5350141463
  0
VERTEX
  8
0
 62
7
  6
CONTINUOUS
 10
140.5596358626
 20
186.5060334964
  0
VERTEX
  8
0
 62
7
  6
CONTINUOUS
 10
140.4781774947
 20
186.4888959995
  0
VERTEX
  8
0
 62
7
  6
CONTINUOUS
 10
140.3964285714
 20
186.4832253032
  0
SEQEND
  0
LINE
  8
0
 62
7
  6
CONTINUOUS
 10
138.9964285714
 20
93.5214024585
 11
131.8964285714
 21
93.5214024585
  0
LINE
  8
0
 62
7
  6
CONTINUOUS
 10
141.1464285714
 20
95.1264024585
 11
142.2464285714
 21
95.1264024585
  0
LINE
  8
0
 62
7
  6
CONTINUOUS
 10
139.8464285714
 20
96.1495796137
 11
140.3964285714
 21
96.1495796137
  0
LINE
  8
0
 62
7
  6
CONTINUOUS
 10
139.8464285714
 20
97.5832253032
 11
140.3964285714
 21
97.5832253032
  0
POLYLINE
  8
0
 62
7
  6
CONTINUOUS
 66
1
 70
0
  0
VERTEX
  8
0
 62
7
  6
CONTINUOUS
 10
140.6848230869
 20
83.3764024585
  0
VERTEX
  8
0
 62
7
  6
CONTINUOUS
 10
140.7668764681
 20
83.3264044003
  0
VERTEX
  8
0
 62
7
  6
CONTINUOUS
 10
140.8464285714
 20
83.2644030094
  0
SEQEND
  0
POLYLINE
  8
0
 62
7
  6
CONTINUOUS
 66
1
 70
0
  0
VERTEX
  8
0
 62
7
  6
CONTINUOUS
 10
140.8464285714
 20
186.669969283
  0
VERTEX
  8
0
 62
7
  6
CONTINUOUS
 10
140.7840435855
 20
186.6194281189
  0
VERTEX
  8
0
 62
7
  6
CONTINUOUS
 10
140.7200730192
 20
186.5764024585
  0
SEQEND
  0
LINE
  8
0
 62
7
  6
CONTINUOUS
 10
142.2464285714
 20
98.6264024585
 11
141.1464285714
 21
98.6264024585
  0
LINE
  8
0
 62
7
  6
CONTINUOUS
 10
131.8964285714
 20
100.2214024585
 11
138.9964285714
 21
100.2214024585
  0
LINE
  8
0
 62
7
  6
CONTINUOUS
 10
139.8464285714
 20
101.4664024585
 11
142.2464285714
 21
101.4664024585
  0
POLYLINE
  8
0
 62
7
  6
CONTINUOUS
 66
1
 70
0
  0
VERTEX
  8
0
 62
7
  6
CONTINUOUS
 10
140.6848230869
 20
96.0764024585
  0
VERTEX
  8
0
 62
7
  6
CONTINUOUS
 10
140.5896179887
 20
96.1174627353
  0
VERTEX
  8
0
 62
7
  6
CONTINUOUS
 10
140.4932569857
 20
96.1416142914
  0
VERTEX
  8
0
 62
7
  6
CONTINUOUS
 10
140.3964285714
 20
96.1495796137
  0
SEQEND
  0
POLYLINE
  8
0
 62
7
  6
CONTINUOUS
 66
1
 70
0
  0
VERTEX
  8
0
 62
7
  6
CONTINUOUS
 10
140.8464285714
 20
83.2644030094
  0
VERTEX
  8
0
 62
7
  6
CONTINUOUS
 10
140.9394044293
 20
83.1730323628
  0
VERTEX
  8
0
 62
7
  6
CONTINUOUS
 10
141.0148810081
 20
83.0784983583
  0
VERTEX
  8
0
 62
7
  6
CONTINUOUS
 10
141.072716385
 20
82.9843079749
  0
VERTEX
  8
0
 62
7
  6
CONTINUOUS
 10
141.1137057836
 20
82.8921713969
  0
VERTEX
  8
0
 62
7
  6
CONTINUOUS
 10
141.1383096735
 20
82.803265678
  0
VERTEX
  8
0
 62
7
  6
CONTINUOUS
 10
141.1464285714
 20
82.7202391839
  0
SEQEND
  0
POLYLINE
  8
0
 62
7
  6
CONTINUOUS
 66
1
 70
0
  0
VERTEX
  8
0
 62
7
  6
CONTINUOUS
 10
140.7200730192
 20
173.8764024585
  0
VERTEX
  8
0
 62
7
  6
CONTINUOUS
 10
140.6404568042
 20
173.8350141463
  0
VERTEX
  8
0
 62
7
  6
CONTINUOUS
 10
140.5596358626
 20
173.8060334964
  0
VERTEX
  8
0
 62
7
  6
CONTINUOUS
 10
140.4781774947
 20
173.7888959995
  0
VERTEX
  8
0
 62
7
  6
CONTINUOUS
 10
140.3964285714
 20
173.7832253032
  0
SEQEND
  0
LINE
  8
0
 62
7
  6
CONTINUOUS
 10
142.2464285714
 20
104.9664024585
 11
139.8464285714
 21
104.9664024585
  0
LINE
  8
0
 62
7
  6
CONTINUOUS
 10
138.9964285714
 20
106.2214024585
 11
131.8964285714
 21
106.2214024585
  0
LINE
  8
0
 62
7
  6
CONTINUOUS
 10
141.1464285714
 20
107.8264024585
 11
142.2464285714
 21
107.8264024585
  0
POLYLINE
  8
0
 62
7
  6
CONTINUOUS
 66
1
 70
0
  0
VERTEX
  8
0
 62
7
  6
CONTINUOUS
 10
140.6848230869
 20
96.0764024585
  0
VERTEX
  8
0
 62
7
  6
CONTINUOUS
 10
140.7668764681
 20
96.0264044003
  0
VERTEX
  8
0
 62
7
  6
CONTINUOUS
 10
140.8464285714
 20
95.9644030094
  0
SEQEND
  0
POLYLINE
  8
0
 62
7
  6
CONTINUOUS
 66
1
 70
0
  0
VERTEX
  8
0
 62
7
  6
CONTINUOUS
 10
140.8464285714
 20
173.969969283
  0
VERTEX
  8
0
 62
7
  6
CONTINUOUS
 10
140.7840435855
 20
173.9194281189
  0
VERTEX
  8
0
 62
7
  6
CONTINUOUS
 10
140.7200730192
 20
173.8764024585
  0
SEQEND
  0
LINE
  8
0
 62
7
  6
CONTINUOUS
 10
139.8464285714
 20
108.8495796137
 11
140.3964285714
 21
108.8495796137
  0
LINE
  8
0
 62
7
  6
CONTINUOUS
 10
139.8464285714
 20
110.2832253032
 11
140.3964285714
 21
110.2832253032
  0
LINE
  8
0
 62
7
  6
CONTINUOUS
 10
142.2464285714
 20
111.3264024585
 11
141.1464285714
 21
111.3264024585
  0
LINE
  8
0
 62
7
  6
CONTINUOUS
 10
131.8964285714
 20
112.9214024585
 11
138.9964285714
 21
112.9214024585
  0
POLYLINE
  8
0
 62
7
  6
CONTINUOUS
 66
1
 70
0
  0
VERTEX
  8
0
 62
7
  6
CONTINUOUS
 10
140.6848230869
 20
108.7764024585
  0
VERTEX
  8
0
 62
7
  6
CONTINUOUS
 10
140.5896179887
 20
108.8174627353
  0
VERTEX
  8
0
 62
7
  6
CONTINUOUS
 10
140.4932569857
 20
108.8416142914
  0
VERTEX
  8
0
 62
7
  6
CONTINUOUS
 10
140.3964285714
 20
108.8495796137
  0
SEQEND
  0
POLYLINE
  8
0
 62
7
  6
CONTINUOUS
 66
1
 70
0
  0
VERTEX
  8
0
 62
7
  6
CONTINUOUS
 10
140.8464285714
 20
95.9644030094
  0
VERTEX
  8
0
 62
7
  6
CONTINUOUS
 10
140.9394044293
 20
95.8730323628
  0
VERTEX
  8
0
 62
7
  6
CONTINUOUS
 10
141.0148810081
 20
95.7784983583
  0
VERTEX
  8
0
 62
7
  6
CONTINUOUS
 10
141.072716385
 20
95.6843079749
  0
VERTEX
  8
0
 62
7
  6
CONTINUOUS
 10
141.1137057836
 20
95.5921713969
  0
VERTEX
  8
0
 62
7
  6
CONTINUOUS
 10
141.1383096735
 20
95.503265678
  0
VERTEX
  8
0
 62
7
  6
CONTINUOUS
 10
141.1464285714
 20
95.4202391839
  0
SEQEND
  0
LINE
  8
0
 62
7
  6
CONTINUOUS
 10
139.8464285714
 20
114.1664024585
 11
142.2464285714
 21
114.1664024585
  0
LINE
  8
0
 62
7
  6
CONTINUOUS
 10
142.2464285714
 20
117.6664024585
 11
139.8464285714
 21
117.6664024585
  0
POLYLINE
  8
0
 62
7
  6
CONTINUOUS
 66
1
 70
0
  0
VERTEX
  8
0
 62
7
  6
CONTINUOUS
 10
140.6848230869
 20
108.7764024585
  0
VERTEX
  8
0
 62
7
  6
CONTINUOUS
 10
140.7668764681
 20
108.7264044003
  0
VERTEX
  8
0
 62
7
  6
CONTINUOUS
 10
140.8464285714
 20
108.6644030094
  0
SEQEND
  0
POLYLINE
  8
0
 62
7
  6
CONTINUOUS
 66
1
 70
0
  0
VERTEX
  8
0
 62
7
  6
CONTINUOUS
 10
139.7905456465
 20
202.3707741706
  0
VERTEX
  8
0
 62
7
  6
CONTINUOUS
 10
139.7666824608
 20
202.3027694318
  0
VERTEX
  8
0
 62
7
  6
CONTINUOUS
 10
139.7174665071
 20
202.1852589752
  0
VERTEX
  8
0
 62
7
  6
CONTINUOUS
 10
139.6727781452
 20
202.0769487601
  0
VERTEX
  8
0
 62
7
  6
CONTINUOUS
 10
139.6388360177
 20
201.9752940051
  0
VERTEX
  8
0
 62
7
  6
CONTINUOUS
 10
139.6203316021
 20
201.8812692409
  0
VERTEX
  8
0
 62
7
  6
CONTINUOUS
 10
139.6177563595
 20
201.7911460687
  0
SEQEND
  0
POLYLINE
  8
0
 62
7
  6
CONTINUOUS
 66
1
 70
0
  0
VERTEX
  8
0
 62
7
  6
CONTINUOUS
 10
140.8464285714
 20
161.269969283
  0
VERTEX
  8
0
 62
7
  6
CONTINUOUS
 10
140.7840435855
 20
161.2194281189
  0
VERTEX
  8
0
 62
7
  6
CONTINUOUS
 10
140.7200730192
 20
161.1764024585
  0
SEQEND
  0
POLYLINE
  8
0
 62
7
  6
CONTINUOUS
 66
1
 70
0
  0
VERTEX
  8
0
 62
7
  6
CONTINUOUS
 10
140.7200730192
 20
161.1764024585
  0
VERTEX
  8
0
 62
7
  6
CONTINUOUS
 10
140.6404568042
 20
161.1350141463
  0
VERTEX
  8
0
 62
7
  6
CONTINUOUS
 10
140.5596358626
 20
161.1060334964
  0
VERTEX
  8
0
 62
7
  6
CONTINUOUS
 10
140.4781774947
 20
161.0888959995
  0
VERTEX
  8
0
 62
7
  6
CONTINUOUS
 10
140.3964285714
 20
161.0832253032
  0
SEQEND
  0
LINE
  8
0
 62
7
  6
CONTINUOUS
 10
138.9964285714
 20
118.9214024585
 11
131.8964285714
 21
118.9214024585
  0
LINE
  8
0
 62
7
  6
CONTINUOUS
 10
141.1464285714
 20
120.5264024585
 11
142.2464285714
 21
120.5264024585
  0
LINE
  8
0
 62
7
  6
CONTINUOUS
 10
139.8464285714
 20
121.5495796137
 11
140.3964285714
 21
121.5495796137
  0
LINE
  8
0
 62
7
  6
CONTINUOUS
 10
139.8464285714
 20
122.9832253032
 11
140.3964285714
 21
122.9832253032
  0
POLYLINE
  8
0
 62
7
  6
CONTINUOUS
 66
1
 70
0
  0
VERTEX
  8
0
 62
7
  6
CONTINUOUS
 10
140.8464285714
 20
108.6644030094
  0
VERTEX
  8
0
 62
7
  6
CONTINUOUS
 10
140.9394044293
 20
108.5730323628
  0
VERTEX
  8
0
 62
7
  6
CONTINUOUS
 10
141.0148810081
 20
108.4784983583
  0
VERTEX
  8
0
 62
7
  6
CONTINUOUS
 10
141.072716385
 20
108.3843079749
  0
VERTEX
  8
0
 62
7
  6
CONTINUOUS
 10
141.1137057836
 20
108.2921713969
  0
VERTEX
  8
0
 62
7
  6
CONTINUOUS
 10
141.1383096735
 20
108.203265678
  0
VERTEX
  8
0
 62
7
  6
CONTINUOUS
 10
141.1464285714
 20
108.1202391839
  0
SEQEND
  0
LINE
  8
0
 62
7
  6
CONTINUOUS
 10
139.7721718215
 20
80.3276175972
 11
139.7918254747
 21
80.2692861591
  0
POLYLINE
  8
0
 62
7
  6
CONTINUOUS
 66
1
 70
0
  0
VERTEX
  8
0
 62
7
  6
CONTINUOUS
 10
139.7275998417
 20
196.7216726943
  0
VERTEX
  8
0
 62
7
  6
CONTINUOUS
 10
139.7120084197
 20
196.6631427326
  0
VERTEX
  8
0
 62
7
  6
CONTINUOUS
 10
139.7007352605
 20
196.6031914372
  0
VERTEX
  8
0
 62
7
  6
CONTINUOUS
 10
139.6949383906
 20
196.5432923755
  0
SEQEND
  0
POLYLINE
  8
0
 62
7
  6
CONTINUOUS
 66
1
 70
0
  0
VERTEX
  8
0
 62
7
  6
CONTINUOUS
 10
139.7905456465
 20
189.6707741706
  0
VERTEX
  8
0
 62
7
  6
CONTINUOUS
 10
139.7666824608
 20
189.6027694318
  0
VERTEX
  8
0
 62
7
  6
CONTINUOUS
 10
139.7174665071
 20
189.4852589752
  0
VERTEX
  8
0
 62
7
  6
CONTINUOUS
 10
139.6727781452
 20
189.3769487601
  0
VERTEX
  8
0
 62
7
  6
CONTINUOUS
 10
139.6388360177
 20
189.2752940051
  0
VERTEX
  8
0
 62
7
  6
CONTINUOUS
 10
139.6203316021
 20
189.1812692409
  0
VERTEX
  8
0
 62
7
  6
CONTINUOUS
 10
139.6177563595
 20
189.0911460687
  0
SEQEND
  0
POLYLINE
  8
0
 62
7
  6
CONTINUOUS
 66
1
 70
0
  0
VERTEX
  8
0
 62
7
  6
CONTINUOUS
 10
139.7905456465
 20
176.9707741706
  0
VERTEX
  8
0
 62
7
  6
CONTINUOUS
 10
139.7666824608
 20
176.9027694318
  0
VERTEX
  8
0
 62
7
  6
CONTINUOUS
 10
139.7174665071
 20
176.7852589752
  0
VERTEX
  8
0
 62
7
  6
CONTINUOUS
 10
139.6727781452
 20
176.6769487601
  0
VERTEX
  8
0
 62
7
  6
CONTINUOUS
 10
139.6388360177
 20
176.5752940051
  0
VERTEX
  8
0
 62
7
  6
CONTINUOUS
 10
139.6203316021
 20
176.4812692409
  0
VERTEX
  8
0
 62
7
  6
CONTINUOUS
 10
139.6177563595
 20
176.3911460687
  0
SEQEND
  0
LINE
  8
0
 62
7
  6
CONTINUOUS
 10
142.2464285714
 20
124.0264024585
 11
141.1464285714
 21
124.0264024585
  0
LINE
  8
0
 62
7
  6
CONTINUOUS
 10
131.8964285714
 20
125.6214024585
 11
138.9964285714
 21
125.6214024585
  0
LINE
  8
0
 62
7
  6
CONTINUOUS
 10
139.8464285714
 20
126.8664024585
 11
142.2464285714
 21
126.8664024585
  0
POLYLINE
  8
0
 62
7
  6
CONTINUOUS
 66
1
 70
0
  0
VERTEX
  8
0
 62
7
  6
CONTINUOUS
 10
140.6848230869
 20
121.4764024585
  0
VERTEX
  8
0
 62
7
  6
CONTINUOUS
 10
140.5896179887
 20
121.5174627353
  0
VERTEX
  8
0
 62
7
  6
CONTINUOUS
 10
140.4932569857
 20
121.5416142914
  0
VERTEX
  8
0
 62
7
  6
CONTINUOUS
 10
140.3964285714
 20
121.5495796137
  0
SEQEND
  0
POLYLINE
  8
0
 62
7
  6
CONTINUOUS
 66
1
 70
0
  0
VERTEX
  8
0
 62
7
  6
CONTINUOUS
 10
140.6848230869
 20
121.4764024585
  0
VERTEX
  8
0
 62
7
  6
CONTINUOUS
 10
140.7668764681
 20
121.4264044003
  0
VERTEX
  8
0
 62
7
  6
CONTINUOUS
 10
140.8464285714
 20
121.3644030094
  0
SEQEND
  0
LINE
  8
0
 62
7
  6
CONTINUOUS
 10
139.7721718215
 20
93.0276175972
 11
139.7918254747
 21
92.9692861591
  0
LINE
  8
2_FEATURE
 62
7
  6
CONTINUOUS
 10
131.0464285714
 20
62.9714024585
 11
131.0464285714
 21
67.2714024585
  0
LINE
  8
2_FEATURE
 62
7
  6
CONTINUOUS
 10
131.0464285714
 20
76.4214024585
 11
131.0464285714
 21
79.9714024585
  0
LINE
  8
2_FEATURE
 62
7
  6
CONTINUOUS
 10
131.0464285714
 20
88.3714024585
 11
131.0464285714
 21
92.6714024585
  0
LINE
  8
2_FEATURE
 62
7
  6
CONTINUOUS
 10
131.0464285714
 20
101.0714024585
 11
131.0464285714
 21
105.3714024585
  0
LINE
  8
2_FEATURE
 62
7
  6
CONTINUOUS
 10
131.0464285714
 20
113.7714024585
 11
131.0464285714
 21
118.0714024585
  0
LINE
  8
2_FEATURE
 62
7
  6
CONTINUOUS
 10
131.0464285714
 20
126.4714024585
 11
131.0464285714
 21
130.7714024585
  0
LINE
  8
2_FEATURE
 62
7
  6
CONTINUOUS
 10
131.0464285714
 20
139.1714024585
 11
131.0464285714
 21
143.4714024585
  0
LINE
  8
2_FEATURE
 62
7
  6
CONTINUOUS
 10
131.0464285714
 20
151.8714024585
 11
131.0464285714
 21
156.1714024585
  0
LINE
  8
2_FEATURE
 62
7
  6
CONTINUOUS
 10
131.0464285714
 20
164.5714024585
 11
131.0464285714
 21
168.8714024585
  0
LINE
  8
2_FEATURE
 62
7
  6
CONTINUOUS
 10
131.0464285714
 20
177.2714024585
 11
131.0464285714
 21
181.5714024585
  0
LINE
  8
2_FEATURE
 62
7
  6
CONTINUOUS
 10
131.0464285714
 20
189.9714024585
 11
131.0464285714
 21
194.2714024585
  0
LINE
  8
2_FEATURE
 62
7
  6
CONTINUOUS
 10
131.0464285714
 20
203.4214024585
 11
131.0464285714
 21
206.9714024585
  0
LINE
  8
0
 62
7
  6
CONTINUOUS
 10
131.0464285714
 20
62.9714024585
 11
131.0464285714
 21
213.3214024585
  0
POLYLINE
  8
0
 62
7
  6
CONTINUOUS
 66
1
 70
0
  0
VERTEX
  8
0
 62
7
  6
CONTINUOUS
 10
141.1464285714
 20
199.5638540309
  0
VERTEX
  8
0
 62
7
  6
CONTINUOUS
 10
141.1405190894
 20
199.5288944814
  0
VERTEX
  8
0
 62
7
  6
CONTINUOUS
 10
141.1225202036
 20
199.4857646771
  0
VERTEX
  8
0
 62
7
  6
CONTINUOUS
 10
141.0924533707
 20
199.437206191
  0
VERTEX
  8
0
 62
7
  6
CONTINUOUS
 10
141.0502362871
 20
199.3850464068
  0
VERTEX
  8
0
 62
7
  6
CONTINUOUS
 10
140.9954555849
 20
199.3306937523
  0
VERTEX
  8
0
 62
7
  6
CONTINUOUS
 10
140.9273950109
 20
199.2755153252
  0
VERTEX
  8
0
 62
7
  6
CONTINUOUS
 10
140.8464285714
 20
199.2218924745
  0
SEQEND
  0
POLYLINE
  8
0
 62
7
  6
CONTINUOUS
 66
1
 70
0
  0
VERTEX
  8
0
 62
7
  6
CONTINUOUS
 10
139.7275998417
 20
184.0216726943
  0
VERTEX
  8
0
 62
7
  6
CONTINUOUS
 10
139.7120084197
 20
183.9631427326
  0
VERTEX
  8
0
 62
7
  6
CONTINUOUS
 10
139.7007352605
 20
183.9031914372
  0
VERTEX
  8
0
 62
7
  6
CONTINUOUS
 10
139.6949383906
 20
183.8432923755
  0
SEQEND
  0
POLYLINE
  8
0
 62
7
  6
CONTINUOUS
 66
1
 70
0
  0
VERTEX
  8
0
 62
7
  6
CONTINUOUS
 10
139.7275998417
 20
171.3216726943
  0
VERTEX
  8
0
 62
7
  6
CONTINUOUS
 10
139.7120084197
 20
171.2631427326
  0
VERTEX
  8
0
 62
7
  6
CONTINUOUS
 10
139.7007352605
 20
171.2031914372
  0
VERTEX
  8
0
 62
7
  6
CONTINUOUS
 10
139.6949383906
 20
171.1432923755
  0
SEQEND
  0
POLYLINE
  8
0
 62
7
  6
CONTINUOUS
 66
1
 70
0
  0
VERTEX
  8
0
 62
7
  6
CONTINUOUS
 10
139.7905456465
 20
164.2707741706
  0
VERTEX
  8
0
 62
7
  6
CONTINUOUS
 10
139.7666824608
 20
164.2027694318
  0
VERTEX
  8
0
 62
7
  6
CONTINUOUS
 10
139.7174665071
 20
164.0852589752
  0
VERTEX
  8
0
 62
7
  6
CONTINUOUS
 10
139.6727781452
 20
163.9769487601
  0
VERTEX
  8
0
 62
7
  6
CONTINUOUS
 10
139.6388360177
 20
163.8752940051
  0
VERTEX
  8
0
 62
7
  6
CONTINUOUS
 10
139.6203316021
 20
163.7812692409
  0
VERTEX
  8
0
 62
7
  6
CONTINUOUS
 10
139.6177563595
 20
163.6911460687
  0
SEQEND
  0
POLYLINE
  8
0
 62
7
  6
CONTINUOUS
 66
1
 70
0
  0
VERTEX
  8
0
 62
7
  6
CONTINUOUS
 10
140.8464285714
 20
148.569969283
  0
VERTEX
  8
0
 62
7
  6
CONTINUOUS
 10
140.7840435855
 20
148.5194281189
  0
VERTEX
  8
0
 62
7
  6
CONTINUOUS
 10
140.7200730192
 20
148.4764024585
  0
SEQEND
  0
POLYLINE
  8
0
 62
7
  6
CONTINUOUS
 66
1
 70
0
  0
VERTEX
  8
0
 62
7
  6
CONTINUOUS
 10
140.7200730192
 20
148.4764024585
  0
VERTEX
  8
0
 62
7
  6
CONTINUOUS
 10
140.6404568042
 20
148.4350141463
  0
VERTEX
  8
0
 62
7
  6
CONTINUOUS
 10
140.5596358626
 20
148.4060334964
  0
VERTEX
  8
0
 62
7
  6
CONTINUOUS
 10
140.4781774947
 20
148.3888959995
  0
VERTEX
  8
0
 62
7
  6
CONTINUOUS
 10
140.3964285714
 20
148.3832253032
  0
SEQEND
  0
LINE
  8
0
 62
7
  6
CONTINUOUS
 10
142.2464285714
 20
130.3664024585
 11
139.8464285714
 21
130.3664024585
  0
LINE
  8
0
 62
7
  6
CONTINUOUS
 10
138.9964285714
 20
131.6214024585
 11
131.8964285714
 21
131.6214024585
  0
LINE
  8
0
 62
7
  6
CONTINUOUS
 10
141.1464285714
 20
133.2264024585
 11
142.2464285714
 21
133.2264024585
  0
POLYLINE
  8
0
 62
7
  6
CONTINUOUS
 66
1
 70
0
  0
VERTEX
  8
0
 62
7
  6
CONTINUOUS
 10
140.8464285714
 20
121.3644030094
  0
VERTEX
  8
0
 62
7
  6
CONTINUOUS
 10
140.9394044293
 20
121.2730323628
  0
VERTEX
  8
0
 62
7
  6
CONTINUOUS
 10
141.0148810081
 20
121.1784983583
  0
VERTEX
  8
0
 62
7
  6
CONTINUOUS
 10
141.072716385
 20
121.0843079749
  0
VERTEX
  8
0
 62
7
  6
CONTINUOUS
 10
141.1137057836
 20
120.9921713969
  0
VERTEX
  8
0
 62
7
  6
CONTINUOUS
 10
141.1383096735
 20
120.903265678
  0
VERTEX
  8
0
 62
7
  6
CONTINUOUS
 10
141.1464285714
 20
120.8202391839
  0
SEQEND
  0
LINE
  8
0
 62
7
  6
CONTINUOUS
 10
139.7721718215
 20
105.7276175972
 11
139.7918254747
 21
105.6692861591
  0
POLYLINE
  8
0
 62
7
  6
CONTINUOUS
 66
1
 70
0
  0
VERTEX
  8
0
 62
7
  6
CONTINUOUS
 10
139.6887121967
 20
73.4089656961
  0
VERTEX
  8
0
 62
7
  6
CONTINUOUS
 10
139.6948727285
 20
73.3472308753
  0
VERTEX
  8
0
 62
7
  6
CONTINUOUS
 10
139.7066835224
 20
73.2860443548
  0
VERTEX
  8
0
 62
7
  6
CONTINUOUS
 10
139.7229339482
 20
73.2263435644
  0
SEQEND
  0
POLYLINE
  8
0
 62
7
  6
CONTINUOUS
 66
1
 70
0
  0
VERTEX
  8
0
 62
7
  6
CONTINUOUS
 10
139.6887121967
 20
86.1089656961
  0
VERTEX
  8
0
 62
7
  6
CONTINUOUS
 10
139.6948727285
 20
86.0472308753
  0
VERTEX
  8
0
 62
7
  6
CONTINUOUS
 10
139.7066835224
 20
85.9860443548
  0
VERTEX
  8
0
 62
7
  6
CONTINUOUS
 10
139.7229339482
 20
85.9263435644
  0
SEQEND
  0
POLYLINE
  8
0
 62
7
  6
CONTINUOUS
 66
1
 70
0
  0
VERTEX
  8
0
 62
7
  6
CONTINUOUS
 10
139.6887121967
 20
98.8089656961
  0
VERTEX
  8
0
 62
7
  6
CONTINUOUS
 10
139.6948727285
 20
98.7472308753
  0
VERTEX
  8
0
 62
7
  6
CONTINUOUS
 10
139.7066835224
 20
98.6860443548
  0
VERTEX
  8
0
 62
7
  6
CONTINUOUS
 10
139.7229339482
 20
98.6263435644
  0
SEQEND
  0
POLYLINE
  8
0
 62
7
  6
CONTINUOUS
 66
1
 70
0
  0
VERTEX
  8
0
 62
7
  6
CONTINUOUS
 10
139.6887121967
 20
111.5089656961
  0
VERTEX
  8
0
 62
7
  6
CONTINUOUS
 10
139.6948727285
 20
111.4472308753
  0
VERTEX
  8
0
 62
7
  6
CONTINUOUS
 10
139.7066835224
 20
111.3860443548
  0
VERTEX
  8
0
 62
7
  6
CONTINUOUS
 10
139.7229339482
 20
111.3263435644
  0
SEQEND
  0
POLYLINE
  8
0
 62
7
  6
CONTINUOUS
 66
1
 70
0
  0
VERTEX
  8
0
 62
7
  6
CONTINUOUS
 10
139.8464285714
 20
72.4176109911
  0
VERTEX
  8
0
 62
7
  6
CONTINUOUS
 10
139.8325008239
 20
72.6909160449
  0
VERTEX
  8
0
 62
7
  6
CONTINUOUS
 10
139.7911422451
 20
72.9608506876
  0
VERTEX
  8
0
 62
7
  6
CONTINUOUS
 10
139.7229339482
 20
73.2263435644
  0
SEQEND
  0
POLYLINE
  8
0
 62
7
  6
CONTINUOUS
 66
1
 70
0
  0
VERTEX
  8
0
 62
7
  6
CONTINUOUS
 10
139.8464285714
 20
85.1176109911
  0
VERTEX
  8
0
 62
7
  6
CONTINUOUS
 10
139.8325008239
 20
85.3909160449
  0
VERTEX
  8
0
 62
7
  6
CONTINUOUS
 10
139.7911422451
 20
85.6608506876
  0
VERTEX
  8
0
 62
7
  6
CONTINUOUS
 10
139.7229339482
 20
85.9263435644
  0
SEQEND
  0
POLYLINE
  8
0
 62
7
  6
CONTINUOUS
 66
1
 70
0
  0
VERTEX
  8
0
 62
7
  6
CONTINUOUS
 10
139.6887121967
 20
73.4089656961
  0
VERTEX
  8
0
 62
7
  6
CONTINUOUS
 10
139.6552435471
 20
74.1074799285
  0
VERTEX
  8
0
 62
7
  6
CONTINUOUS
 10
139.6177563595
 20
74.7911460687
  0
SEQEND
  0
POLYLINE
  8
0
 62
7
  6
CONTINUOUS
 66
1
 70
0
  0
VERTEX
  8
0
 62
7
  6
CONTINUOUS
 10
139.6887121967
 20
86.1089656961
  0
VERTEX
  8
0
 62
7
  6
CONTINUOUS
 10
139.6552435471
 20
86.8074799285
  0
VERTEX
  8
0
 62
7
  6
CONTINUOUS
 10
139.6177563595
 20
87.4911460687
  0
SEQEND
  0
LINE
  8
1_AXIS
 62
2
  6
CENTER
 10
135.4464285714
 20
66.4714024585
 11
135.4464285714
 21
216.1714024585
  0
POLYLINE
  8
0
 62
7
  6
CONTINUOUS
 66
1
 70
0
  0
VERTEX
  8
0
 62
7
  6
CONTINUOUS
 10
139.6949383906
 20
196.5432923755
  0
VERTEX
  8
0
 62
7
  6
CONTINUOUS
 10
139.6619787853
 20
195.8369928018
  0
VERTEX
  8
0
 62
7
  6
CONTINUOUS
 10
139.6250258249
 20
195.1456370553
  0
SEQEND
  0
POLYLINE
  8
0
 62
7
  6
CONTINUOUS
 66
1
 70
0
  0
VERTEX
  8
0
 62
7
  6
CONTINUOUS
 10
139.8464285714
 20
197.5151939258
  0
VERTEX
  8
0
 62
7
  6
CONTINUOUS
 10
139.8330332022
 20
197.2471550908
  0
VERTEX
  8
0
 62
7
  6
CONTINUOUS
 10
139.7932514767
 20
196.9823533307
  0
VERTEX
  8
0
 62
7
  6
CONTINUOUS
 10
139.7275998417
 20
196.7216726943
  0
SEQEND
  0
POLYLINE
  8
0
 62
7
  6
CONTINUOUS
 66
1
 70
0
  0
VERTEX
  8
0
 62
7
  6
CONTINUOUS
 10
141.1464285714
 20
187.2210820509
  0
VERTEX
  8
0
 62
7
  6
CONTINUOUS
 10
141.1382952263
 20
187.136853861
  0
VERTEX
  8
0
 62
7
  6
CONTINUOUS
 10
141.1136209327
 20
187.046673082
  0
VERTEX
  8
0
 62
7
  6
CONTINUOUS
 10
141.0726231899
 20
186.9534786789
  0
VERTEX
  8
0
 62
7
  6
CONTINUOUS
 10
141.0147948328
 20
186.8581957712
  0
VERTEX
  8
0
 62
7
  6
CONTINUOUS
 10
140.9393441846
 20
186.7625197233
  0
VERTEX
  8
0
 62
7
  6
CONTINUOUS
 10
140.8464285714
 20
186.669969283
  0
SEQEND
  0
POLYLINE
  8
0
 62
7
  6
CONTINUOUS
 66
1
 70
0
  0
VERTEX
  8
0
 62
7
  6
CONTINUOUS
 10
139.7275998417
 20
158.6216726943
  0
VERTEX
  8
0
 62
7
  6
CONTINUOUS
 10
139.7120084197
 20
158.5631427326
  0
VERTEX
  8
0
 62
7
  6
CONTINUOUS
 10
139.7007352605
 20
158.5031914372
  0
VERTEX
  8
0
 62
7
  6
CONTINUOUS
 10
139.6949383906
 20
158.4432923755
  0
SEQEND
  0
POLYLINE
  8
0
 62
7
  6
CONTINUOUS
 66
1
 70
0
  0
VERTEX
  8
0
 62
7
  6
CONTINUOUS
 10
139.7905456465
 20
151.5707741706
  0
VERTEX
  8
0
 62
7
  6
CONTINUOUS
 10
139.7666824608
 20
151.5027694318
  0
VERTEX
  8
0
 62
7
  6
CONTINUOUS
 10
139.7174665071
 20
151.3852589752
  0
VERTEX
  8
0
 62
7
  6
CONTINUOUS
 10
139.6727781452
 20
151.2769487601
  0
VERTEX
  8
0
 62
7
  6
CONTINUOUS
 10
139.6388360177
 20
151.1752940051
  0
VERTEX
  8
0
 62
7
  6
CONTINUOUS
 10
139.6203316021
 20
151.0812692409
  0
VERTEX
  8
0
 62
7
  6
CONTINUOUS
 10
139.6177563595
 20
150.9911460687
  0
SEQEND
  0
LINE
  8
0
 62
7
  6
CONTINUOUS
 10
139.8464285714
 20
134.2495796137
 11
140.3964285714
 21
134.2495796137
  0
LINE
  8
0
 62
7
  6
CONTINUOUS
 10
139.8464285714
 20
135.6832253032
 11
140.3964285714
 21
135.6832253032
  0
LINE
  8
0
 62
7
  6
CONTINUOUS
 10
142.2464285714
 20
136.7264024585
 11
141.1464285714
 21
136.7264024585
  0
LINE
  8
1_AXIS
 62
2
  6
CENTER
 10
128.4464285714
 20
138.1464024585
 11
145.1964285714
 21
138.1464024585
  0
LINE
  8
0
 62
7
  6
CONTINUOUS
 10
131.8964285714
 20
138.3214024585
 11
138.9964285714
 21
138.3214024585
  0
POLYLINE
  8
0
 62
7
  6
CONTINUOUS
 66
1
 70
0
  0
VERTEX
  8
0
 62
7
  6
CONTINUOUS
 10
140.6848230869
 20
134.1764024585
  0
VERTEX
  8
0
 62
7
  6
CONTINUOUS
 10
140.5896179887
 20
134.2174627353
  0
VERTEX
  8
0
 62
7
  6
CONTINUOUS
 10
140.4932569857
 20
134.2416142914
  0
VERTEX
  8
0
 62
7
  6
CONTINUOUS
 10
140.3964285714
 20
134.2495796137
  0
SEQEND
  0
POLYLINE
  8
0
 62
7
  6
CONTINUOUS
 66
1
 70
0
  0
VERTEX
  8
0
 62
7
  6
CONTINUOUS
 10
140.6848230869
 20
134.1764024585
  0
VERTEX
  8
0
 62
7
  6
CONTINUOUS
 10
140.7668764681
 20
134.1264044003
  0
VERTEX
  8
0
 62
7
  6
CONTINUOUS
 10
140.8464285714
 20
134.0644030094
  0
SEQEND
  0
POLYLINE
  8
0
 62
7
  6
CONTINUOUS
 66
1
 70
0
  0
VERTEX
  8
0
 62
7
  6
CONTINUOUS
 10
140.8464285714
 20
134.0644030094
  0
VERTEX
  8
0
 62
7
  6
CONTINUOUS
 10
140.9394044293
 20
133.9730323628
  0
VERTEX
  8
0
 62
7
  6
CONTINUOUS
 10
141.0148810081
 20
133.8784983583
  0
VERTEX
  8
0
 62
7
  6
CONTINUOUS
 10
141.072716385
 20
133.7843079749
  0
VERTEX
  8
0
 62
7
  6
CONTINUOUS
 10
141.1137057836
 20
133.6921713969
  0
VERTEX
  8
0
 62
7
  6
CONTINUOUS
 10
141.1383096735
 20
133.603265678
  0
VERTEX
  8
0
 62
7
  6
CONTINUOUS
 10
141.1464285714
 20
133.5202391839
  0
SEQEND
  0
LINE
  8
0
 62
7
  6
CONTINUOUS
 10
139.7721718215
 20
118.4276175972
 11
139.7918254747
 21
118.3692861591
  0
LINE
  8
0
 62
7
  6
CONTINUOUS
 10
139.7721718215
 20
131.1276175972
 11
139.7918254747
 21
131.0692861591
  0
POLYLINE
  8
0
 62
7
  6
CONTINUOUS
 66
1
 70
0
  0
VERTEX
  8
0
 62
7
  6
CONTINUOUS
 10
139.6887121967
 20
124.2089656961
  0
VERTEX
  8
0
 62
7
  6
CONTINUOUS
 10
139.6948727285
 20
124.1472308753
  0
VERTEX
  8
0
 62
7
  6
CONTINUOUS
 10
139.7066835224
 20
124.0860443548
  0
VERTEX
  8
0
 62
7
  6
CONTINUOUS
 10
139.7229339482
 20
124.0263435644
  0
SEQEND
  0
POLYLINE
  8
0
 62
7
  6
CONTINUOUS
 66
1
 70
0
  0
VERTEX
  8
0
 62
7
  6
CONTINUOUS
 10
139.6887121967
 20
136.9089656961
  0
VERTEX
  8
0
 62
7
  6
CONTINUOUS
 10
139.6948727285
 20
136.8472308753
  0
VERTEX
  8
0
 62
7
  6
CONTINUOUS
 10
139.7066835224
 20
136.7860443548
  0
VERTEX
  8
0
 62
7
  6
CONTINUOUS
 10
139.7229339482
 20
136.7263435644
  0
SEQEND
  0
POLYLINE
  8
0
 62
7
  6
CONTINUOUS
 66
1
 70
0
  0
VERTEX
  8
0
 62
7
  6
CONTINUOUS
 10
139.6887121967
 20
149.6089656961
  0
VERTEX
  8
0
 62
7
  6
CONTINUOUS
 10
139.6948727285
 20
149.5472308753
  0
VERTEX
  8
0
 62
7
  6
CONTINUOUS
 10
139.7066835224
 20
149.4860443548
  0
VERTEX
  8
0
 62
7
  6
CONTINUOUS
 10
139.7229339482
 20
149.4263435644
  0
SEQEND
  0
POLYLINE
  8
0
 62
7
  6
CONTINUOUS
 66
1
 70
0
  0
VERTEX
  8
0
 62
7
  6
CONTINUOUS
 10
139.6887121967
 20
162.3089656961
  0
VERTEX
  8
0
 62
7
  6
CONTINUOUS
 10
139.6948727285
 20
162.2472308753
  0
VERTEX
  8
0
 62
7
  6
CONTINUOUS
 10
139.7066835224
 20
162.1860443548
  0
VERTEX
  8
0
 62
7
  6
CONTINUOUS
 10
139.7229339482
 20
162.1263435644
  0
SEQEND
  0
POLYLINE
  8
0
 62
7
  6
CONTINUOUS
 66
1
 70
0
  0
VERTEX
  8
0
 62
7
  6
CONTINUOUS
 10
139.8464285714
 20
97.8176109911
  0
VERTEX
  8
0
 62
7
  6
CONTINUOUS
 10
139.8325008239
 20
98.0909160449
  0
VERTEX
  8
0
 62
7
  6
CONTINUOUS
 10
139.7911422451
 20
98.3608506876
  0
VERTEX
  8
0
 62
7
  6
CONTINUOUS
 10
139.7229339482
 20
98.6263435644
  0
SEQEND
  0
POLYLINE
  8
0
 62
7
  6
CONTINUOUS
 66
1
 70
0
  0
VERTEX
  8
0
 62
7
  6
CONTINUOUS
 10
139.8464285714
 20
110.5176109911
  0
VERTEX
  8
0
 62
7
  6
CONTINUOUS
 10
139.8325008239
 20
110.7909160449
  0
VERTEX
  8
0
 62
7
  6
CONTINUOUS
 10
139.7911422451
 20
111.0608506876
  0
VERTEX
  8
0
 62
7
  6
CONTINUOUS
 10
139.7229339482
 20
111.3263435644
  0
SEQEND
  0
POLYLINE
  8
0
 62
7
  6
CONTINUOUS
 66
1
 70
0
  0
VERTEX
  8
0
 62
7
  6
CONTINUOUS
 10
139.8464285714
 20
123.2176109911
  0
VERTEX
  8
0
 62
7
  6
CONTINUOUS
 10
139.8325008239
 20
123.4909160449
  0
VERTEX
  8
0
 62
7
  6
CONTINUOUS
 10
139.7911422451
 20
123.7608506876
  0
VERTEX
  8
0
 62
7
  6
CONTINUOUS
 10
139.7229339482
 20
124.0263435644
  0
SEQEND
  0
POLYLINE
  8
0
 62
7
  6
CONTINUOUS
 66
1
 70
0
  0
VERTEX
  8
0
 62
7
  6
CONTINUOUS
 10
139.8464285714
 20
135.9176109911
  0
VERTEX
  8
0
 62
7
  6
CONTINUOUS
 10
139.8325008239
 20
136.1909160449
  0
VERTEX
  8
0
 62
7
  6
CONTINUOUS
 10
139.7911422451
 20
136.4608506876
  0
VERTEX
  8
0
 62
7
  6
CONTINUOUS
 10
139.7229339482
 20
136.7263435644
  0
SEQEND
  0
POLYLINE
  8
0
 62
7
  6
CONTINUOUS
 66
1
 70
0
  0
VERTEX
  8
0
 62
7
  6
CONTINUOUS
 10
139.8464285714
 20
148.6176109911
  0
VERTEX
  8
0
 62
7
  6
CONTINUOUS
 10
139.8325008239
 20
148.8909160449
  0
VERTEX
  8
0
 62
7
  6
CONTINUOUS
 10
139.7911422451
 20
149.1608506876
  0
VERTEX
  8
0
 62
7
  6
CONTINUOUS
 10
139.7229339482
 20
149.4263435644
  0
SEQEND
  0
POLYLINE
  8
0
 62
7
  6
CONTINUOUS
 66
1
 70
0
  0
VERTEX
  8
0
 62
7
  6
CONTINUOUS
 10
139.8464285714
 20
161.3176109911
  0
VERTEX
  8
0
 62
7
  6
CONTINUOUS
 10
139.8325008239
 20
161.5909160449
  0
VERTEX
  8
0
 62
7
  6
CONTINUOUS
 10
139.7911422451
 20
161.8608506876
  0
VERTEX
  8
0
 62
7
  6
CONTINUOUS
 10
139.7229339482
 20
162.1263435644
  0
SEQEND
  0
POLYLINE
  8
0
 62
7
  6
CONTINUOUS
 66
1
 70
0
  0
VERTEX
  8
0
 62
7
  6
CONTINUOUS
 10
139.8464285714
 20
174.0176109911
  0
VERTEX
  8
0
 62
7
  6
CONTINUOUS
 10
139.8325008239
 20
174.2909160449
  0
VERTEX
  8
0
 62
7
  6
CONTINUOUS
 10
139.7911422451
 20
174.5608506876
  0
VERTEX
  8
0
 62
7
  6
CONTINUOUS
 10
139.7229339482
 20
174.8263435644
  0
SEQEND
  0
POLYLINE
  8
0
 62
7
  6
CONTINUOUS
 66
1
 70
0
  0
VERTEX
  8
0
 62
7
  6
CONTINUOUS
 10
139.8464285714
 20
186.7176109911
  0
VERTEX
  8
0
 62
7
  6
CONTINUOUS
 10
139.8325008239
 20
186.9909160449
  0
VERTEX
  8
0
 62
7
  6
CONTINUOUS
 10
139.7911422451
 20
187.2608506876
  0
VERTEX
  8
0
 62
7
  6
CONTINUOUS
 10
139.7229339482
 20
187.5263435644
  0
SEQEND
  0
POLYLINE
  8
0
 62
7
  6
CONTINUOUS
 66
1
 70
0
  0
VERTEX
  8
0
 62
7
  6
CONTINUOUS
 10
139.6887121967
 20
98.8089656961
  0
VERTEX
  8
0
 62
7
  6
CONTINUOUS
 10
139.6552435471
 20
99.5074799285
  0
VERTEX
  8
0
 62
7
  6
CONTINUOUS
 10
139.6177563595
 20
100.1911460687
  0
SEQEND
  0
POLYLINE
  8
0
 62
7
  6
CONTINUOUS
 66
1
 70
0
  0
VERTEX
  8
0
 62
7
  6
CONTINUOUS
 10
139.6887121967
 20
111.5089656961
  0
VERTEX
  8
0
 62
7
  6
CONTINUOUS
 10
139.6552435471
 20
112.2074799285
  0
VERTEX
  8
0
 62
7
  6
CONTINUOUS
 10
139.6177563595
 20
112.8911460687
  0
SEQEND
  0
POLYLINE
  8
0
 62
7
  6
CONTINUOUS
 66
1
 70
0
  0
VERTEX
  8
0
 62
7
  6
CONTINUOUS
 10
139.6887121967
 20
124.2089656961
  0
VERTEX
  8
0
 62
7
  6
CONTINUOUS
 10
139.6552435471
 20
124.9074799285
  0
VERTEX
  8
0
 62
7
  6
CONTINUOUS
 10
139.6177563595
 20
125.5911460687
  0
SEQEND
  0
POLYLINE
  8
0
 62
7
  6
CONTINUOUS
 66
1
 70
0
  0
VERTEX
  8
0
 62
7
  6
CONTINUOUS
 10
139.6887121967
 20
136.9089656961
  0
VERTEX
  8
0
 62
7
  6
CONTINUOUS
 10
139.6552435471
 20
137.6074799285
  0
VERTEX
  8
0
 62
7
  6
CONTINUOUS
 10
139.6177563595
 20
138.2911460687
  0
SEQEND
  0
POLYLINE
  8
0
 62
7
  6
CONTINUOUS
 66
1
 70
0
  0
VERTEX
  8
0
 62
7
  6
CONTINUOUS
 10
139.6887121967
 20
149.6089656961
  0
VERTEX
  8
0
 62
7
  6
CONTINUOUS
 10
139.6552435471
 20
150.3074799285
  0
VERTEX
  8
0
 62
7
  6
CONTINUOUS
 10
139.6177563595
 20
150.9911460687
  0
SEQEND
  0
POLYLINE
  8
0
 62
7
  6
CONTINUOUS
 66
1
 70
0
  0
VERTEX
  8
0
 62
7
  6
CONTINUOUS
 10
139.6887121967
 20
162.3089656961
  0
VERTEX
  8
0
 62
7
  6
CONTINUOUS
 10
139.6552435471
 20
163.0074799285
  0
VERTEX
  8
0
 62
7
  6
CONTINUOUS
 10
139.6177563595
 20
163.6911460687
  0
SEQEND
  0
POLYLINE
  8
0
 62
7
  6
CONTINUOUS
 66
1
 70
0
  0
VERTEX
  8
0
 62
7
  6
CONTINUOUS
 10
139.6887121967
 20
175.0089656961
  0
VERTEX
  8
0
 62
7
  6
CONTINUOUS
 10
139.6552435471
 20
175.7074799285
  0
VERTEX
  8
0
 62
7
  6
CONTINUOUS
 10
139.6177563595
 20
176.3911460687
  0
SEQEND
  0
POLYLINE
  8
0
 62
7
  6
CONTINUOUS
 66
1
 70
0
  0
VERTEX
  8
0
 62
7
  6
CONTINUOUS
 10
139.6887121967
 20
187.7089656961
  0
VERTEX
  8
0
 62
7
  6
CONTINUOUS
 10
139.6552435471
 20
188.4074799285
  0
VERTEX
  8
0
 62
7
  6
CONTINUOUS
 10
139.6177563595
 20
189.0911460687
  0
SEQEND
  0
POLYLINE
  8
0
 62
7
  6
CONTINUOUS
 66
1
 70
0
  0
VERTEX
  8
0
 62
7
  6
CONTINUOUS
 10
139.6250258249
 20
80.8456370553
  0
VERTEX
  8
0
 62
7
  6
CONTINUOUS
 10
139.6277269434
 20
80.7534137559
  0
VERTEX
  8
0
 62
7
  6
CONTINUOUS
 10
139.6465465933
 20
80.6572092807
  0
VERTEX
  8
0
 62
7
  6
CONTINUOUS
 10
139.6805872495
 20
80.5538667637
  0
VERTEX
  8
0
 62
7
  6
CONTINUOUS
 10
139.7721718215
 20
80.3276175972
  0
SEQEND
  0
POLYLINE
  8
0
 62
7
  6
CONTINUOUS
 66
1
 70
0
  0
VERTEX
  8
0
 62
7
  6
CONTINUOUS
 10
139.6250258249
 20
93.5456370553
  0
VERTEX
  8
0
 62
7
  6
CONTINUOUS
 10
139.6277269434
 20
93.4534137559
  0
VERTEX
  8
0
 62
7
  6
CONTINUOUS
 10
139.6465465933
 20
93.3572092807
  0
VERTEX
  8
0
 62
7
  6
CONTINUOUS
 10
139.6805872495
 20
93.2538667637
  0
VERTEX
  8
0
 62
7
  6
CONTINUOUS
 10
139.7721718215
 20
93.0276175972
  0
SEQEND
  0
POLYLINE
  8
0
 62
7
  6
CONTINUOUS
 66
1
 70
0
  0
VERTEX
  8
0
 62
7
  6
CONTINUOUS
 10
139.6250258249
 20
106.2456370553
  0
VERTEX
  8
0
 62
7
  6
CONTINUOUS
 10
139.6277269434
 20
106.1534137559
  0
VERTEX
  8
0
 62
7
  6
CONTINUOUS
 10
139.6465465933
 20
106.0572092807
  0
VERTEX
  8
0
 62
7
  6
CONTINUOUS
 10
139.6805872495
 20
105.9538667637
  0
VERTEX
  8
0
 62
7
  6
CONTINUOUS
 10
139.7721718215
 20
105.7276175972
  0
SEQEND
  0
POLYLINE
  8
0
 62
7
  6
CONTINUOUS
 66
1
 70
0
  0
VERTEX
  8
0
 62
7
  6
CONTINUOUS
 10
139.6250258249
 20
118.9456370553
  0
VERTEX
  8
0
 62
7
  6
CONTINUOUS
 10
139.6277269434
 20
118.8534137559
  0
VERTEX
  8
0
 62
7
  6
CONTINUOUS
 10
139.6465465933
 20
118.7572092807
  0
VERTEX
  8
0
 62
7
  6
CONTINUOUS
 10
139.6805872495
 20
118.6538667637
  0
VERTEX
  8
0
 62
7
  6
CONTINUOUS
 10
139.7721718215
 20
118.4276175972
  0
SEQEND
  0
POLYLINE
  8
0
 62
7
  6
CONTINUOUS
 66
1
 70
0
  0
VERTEX
  8
0
 62
7
  6
CONTINUOUS
 10
139.6250258249
 20
131.6456370553
  0
VERTEX
  8
0
 62
7
  6
CONTINUOUS
 10
139.6277269434
 20
131.5534137559
  0
VERTEX
  8
0
 62
7
  6
CONTINUOUS
 10
139.6465465933
 20
131.4572092807
  0
VERTEX
  8
0
 62
7
  6
CONTINUOUS
 10
139.6805872495
 20
131.3538667637
  0
VERTEX
  8
0
 62
7
  6
CONTINUOUS
 10
139.7721718215
 20
131.1276175972
  0
SEQEND
  0
POLYLINE
  8
0
 62
7
  6
CONTINUOUS
 66
1
 70
0
  0
VERTEX
  8
0
 62
7
  6
CONTINUOUS
 10
139.6250258249
 20
144.3456370553
  0
VERTEX
  8
0
 62
7
  6
CONTINUOUS
 10
139.6277269434
 20
144.2534137559
  0
VERTEX
  8
0
 62
7
  6
CONTINUOUS
 10
139.6465465933
 20
144.1572092807
  0
VERTEX
  8
0
 62
7
  6
CONTINUOUS
 10
139.6805872495
 20
144.0538667637
  0
VERTEX
  8
0
 62
7
  6
CONTINUOUS
 10
139.7721718215
 20
143.8276175972
  0
SEQEND
  0
POLYLINE
  8
0
 62
7
  6
CONTINUOUS
 66
1
 70
0
  0
VERTEX
  8
0
 62
7
  6
CONTINUOUS
 10
139.6250258249
 20
157.0456370553
  0
VERTEX
  8
0
 62
7
  6
CONTINUOUS
 10
139.6277269434
 20
156.9534137559
  0
VERTEX
  8
0
 62
7
  6
CONTINUOUS
 10
139.6465465933
 20
156.8572092807
  0
VERTEX
  8
0
 62
7
  6
CONTINUOUS
 10
139.6805872495
 20
156.7538667637
  0
VERTEX
  8
0
 62
7
  6
CONTINUOUS
 10
139.7721718215
 20
156.5276175972
  0
SEQEND
  0
POLYLINE
  8
0
 62
7
  6
CONTINUOUS
 66
1
 70
0
  0
VERTEX
  8
0
 62
7
  6
CONTINUOUS
 10
139.6250258249
 20
169.7456370553
  0
VERTEX
  8
0
 62
7
  6
CONTINUOUS
 10
139.6277269434
 20
169.6534137559
  0
VERTEX
  8
0
 62
7
  6
CONTINUOUS
 10
139.6465465933
 20
169.5572092807
  0
VERTEX
  8
0
 62
7
  6
CONTINUOUS
 10
139.6805872495
 20
169.4538667637
  0
VERTEX
  8
0
 62
7
  6
CONTINUOUS
 10
139.7721718215
 20
169.2276175972
  0
SEQEND
  0
POLYLINE
  8
0
 62
7
  6
CONTINUOUS
 66
1
 70
0
  0
VERTEX
  8
0
 62
7
  6
CONTINUOUS
 10
139.6250258249
 20
182.4456370553
  0
VERTEX
  8
0
 62
7
  6
CONTINUOUS
 10
139.6277269434
 20
182.3534137559
  0
VERTEX
  8
0
 62
7
  6
CONTINUOUS
 10
139.6465465933
 20
182.2572092807
  0
VERTEX
  8
0
 62
7
  6
CONTINUOUS
 10
139.6805872495
 20
182.1538667637
  0
VERTEX
  8
0
 62
7
  6
CONTINUOUS
 10
139.7721718215
 20
181.9276175972
  0
SEQEND
  0
POLYLINE
  8
0
 62
7
  6
CONTINUOUS
 66
1
 70
0
  0
VERTEX
  8
0
 62
7
  6
CONTINUOUS
 10
139.6250258249
 20
195.1456370553
  0
VERTEX
  8
0
 62
7
  6
CONTINUOUS
 10
139.6277269434
 20
195.0534137559
  0
VERTEX
  8
0
 62
7
  6
CONTINUOUS
 10
139.6465465933
 20
194.9572092807
  0
VERTEX
  8
0
 62
7
  6
CONTINUOUS
 10
139.6805872495
 20
194.8538667637
  0
VERTEX
  8
0
 62
7
  6
CONTINUOUS
 10
139.7721718215
 20
194.6276175972
  0
SEQEND
  0
LINE
  8
2_FEATURE
 62
7
  6
CONTINUOUS
 10
139.8464285714
 20
213.3214024585
 11
139.8464285714
 21
210.7740296204
  0
LINE
  8
2_FEATURE
 62
7
  6
CONTINUOUS
 10
139.8464285714
 20
199.4176109911
 11
139.8464285714
 21
197.5151939258
  0
LINE
  8
0
 62
7
  6
CONTINUOUS
 10
139.8464285714
 20
199.4176109911
 11
139.8464285714
 21
197.5151939258
  0
LINE
  8
2_FEATURE
 62
7
  6
CONTINUOUS
 10
139.8464285714
 20
186.7176109911
 11
139.8464285714
 21
184.8151939258
  0
LINE
  8
0
 62
7
  6
CONTINUOUS
 10
139.8464285714
 20
186.7176109911
 11
139.8464285714
 21
184.8151939258
  0
LINE
  8
2_FEATURE
 62
7
  6
CONTINUOUS
 10
139.8464285714
 20
174.0176109911
 11
139.8464285714
 21
172.1151939258
  0
LINE
  8
0
 62
7
  6
CONTINUOUS
 10
139.8464285714
 20
174.0176109911
 11
139.8464285714
 21
172.1151939258
  0
LINE
  8
2_FEATURE
 62
7
  6
CONTINUOUS
 10
139.8464285714
 20
161.3176109911
 11
139.8464285714
 21
159.4151939258
  0
LINE
  8
0
 62
7
  6
CONTINUOUS
 10
139.8464285714
 20
161.3176109911
 11
139.8464285714
 21
159.4151939258
  0
LINE
  8
2_FEATURE
 62
7
  6
CONTINUOUS
 10
139.8464285714
 20
148.6176109911
 11
139.8464285714
 21
146.7151939258
  0
LINE
  8
0
 62
7
  6
CONTINUOUS
 10
139.8464285714
 20
148.6176109911
 11
139.8464285714
 21
146.7151939258
  0
LINE
  8
2_FEATURE
 62
7
  6
CONTINUOUS
 10
139.8464285714
 20
135.9176109911
 11
139.8464285714
 21
134.0151939258
  0
LINE
  8
0
 62
7
  6
CONTINUOUS
 10
139.8464285714
 20
135.9176109911
 11
139.8464285714
 21
134.0151939258
  0
LINE
  8
2_FEATURE
 62
7
  6
CONTINUOUS
 10
139.8464285714
 20
123.2176109911
 11
139.8464285714
 21
121.3151939258
  0
LINE
  8
0
 62
7
  6
CONTINUOUS
 10
139.8464285714
 20
123.2176109911
 11
139.8464285714
 21
121.3151939258
  0
LINE
  8
2_FEATURE
 62
7
  6
CONTINUOUS
 10
139.8464285714
 20
110.5176109911
 11
139.8464285714
 21
108.6151939258
  0
LINE
  8
0
 62
7
  6
CONTINUOUS
 10
139.8464285714
 20
110.5176109911
 11
139.8464285714
 21
108.6151939258
  0
LINE
  8
2_FEATURE
 62
7
  6
CONTINUOUS
 10
139.8464285714
 20
97.8176109911
 11
139.8464285714
 21
95.9151939258
  0
LINE
  8
0
 62
7
  6
CONTINUOUS
 10
139.8464285714
 20
97.8176109911
 11
139.8464285714
 21
95.9151939258
  0
LINE
  8
2_FEATURE
 62
7
  6
CONTINUOUS
 10
139.8464285714
 20
85.1176109911
 11
139.8464285714
 21
83.2151939258
  0
LINE
  8
0
 62
7
  6
CONTINUOUS
 10
139.8464285714
 20
85.1176109911
 11
139.8464285714
 21
83.2151939258
  0
LINE
  8
2_FEATURE
 62
7
  6
CONTINUOUS
 10
139.8464285714
 20
72.4176109911
 11
139.8464285714
 21
69.9608879772
  0
LINE
  8
0
 62
7
  6
CONTINUOUS
 10
139.8464285714
 20
62.9714024585
 11
139.8464285714
 21
72.4176109911
  0
LINE
  8
0
 62
7
  6
CONTINUOUS
 10
139.8464285714
 20
75.6714024585
 11
139.8464285714
 21
79.9714024585
  0
LINE
  8
0
 62
7
  6
CONTINUOUS
 10
139.8464285714
 20
88.3714024585
 11
139.8464285714
 21
92.6714024585
  0
LINE
  8
0
 62
7
  6
CONTINUOUS
 10
139.8464285714
 20
101.0714024585
 11
139.8464285714
 21
105.3714024585
  0
LINE
  8
0
 62
7
  6
CONTINUOUS
 10
139.8464285714
 20
113.7714024585
 11
139.8464285714
 21
118.0714024585
  0
LINE
  8
0
 62
7
  6
CONTINUOUS
 10
139.8464285714
 20
126.4714024585
 11
139.8464285714
 21
130.7714024585
  0
LINE
  8
0
 62
7
  6
CONTINUOUS
 10
139.8464285714
 20
139.1714024585
 11
139.8464285714
 21
143.4714024585
  0
LINE
  8
0
 62
7
  6
CONTINUOUS
 10
139.8464285714
 20
151.8714024585
 11
139.8464285714
 21
156.1714024585
  0
LINE
  8
0
 62
7
  6
CONTINUOUS
 10
139.8464285714
 20
164.5714024585
 11
139.8464285714
 21
168.8714024585
  0
LINE
  8
0
 62
7
  6
CONTINUOUS
 10
139.8464285714
 20
177.2714024585
 11
139.8464285714
 21
181.5714024585
  0
LINE
  8
0
 62
7
  6
CONTINUOUS
 10
139.8464285714
 20
189.9714024585
 11
139.8464285714
 21
194.2714024585
  0
LINE
  8
0
 62
7
  6
CONTINUOUS
 10
139.8464285714
 20
202.6714024585
 11
139.8464285714
 21
213.3214024585
  0
LINE
  8
0
 62
7
  6
CONTINUOUS
 10
141.1464285714
 20
203.6964024585
 11
141.1464285714
 21
199.5638540309
  0
LINE
  8
0
 62
7
  6
CONTINUOUS
 10
141.1464285714
 20
196.9677794622
 11
141.1464285714
 21
193.8664024585
  0
LINE
  8
0
 62
7
  6
CONTINUOUS
 10
141.1464285714
 20
190.3664024585
 11
141.1464285714
 21
187.2210820509
  0
LINE
  8
0
 62
7
  6
CONTINUOUS
 10
141.1464285714
 20
184.3202391839
 11
141.1464285714
 21
181.1664024585
  0
LINE
  8
0
 62
7
  6
CONTINUOUS
 10
141.1464285714
 20
177.6664024585
 11
141.1464285714
 21
174.5210820509
  0
LINE
  8
0
 62
7
  6
CONTINUOUS
 10
141.1464285714
 20
171.6202391839
 11
141.1464285714
 21
168.4664024585
  0
LINE
  8
0
 62
7
  6
CONTINUOUS
 10
141.1464285714
 20
164.9664024585
 11
141.1464285714
 21
161.8210820509
  0
LINE
  8
0
 62
7
  6
CONTINUOUS
 10
141.1464285714
 20
158.9202391839
 11
141.1464285714
 21
155.7664024585
  0
LINE
  8
0
 62
7
  6
CONTINUOUS
 10
141.1464285714
 20
152.2664024585
 11
141.1464285714
 21
149.1210820509
  0
LINE
  8
0
 62
7
  6
CONTINUOUS
 10
141.1464285714
 20
146.2202391839
 11
141.1464285714
 21
143.0664024585
  0
LINE
  8
0
 62
7
  6
CONTINUOUS
 10
141.1464285714
 20
139.5664024585
 11
141.1464285714
 21
136.4210820509
  0
LINE
  8
0
 62
7
  6
CONTINUOUS
 10
141.1464285714
 20
133.5202391839
 11
141.1464285714
 21
130.3664024585
  0
LINE
  8
0
 62
7
  6
CONTINUOUS
 10
141.1464285714
 20
126.8664024585
 11
141.1464285714
 21
123.7210820509
  0
LINE
  8
0
 62
7
  6
CONTINUOUS
 10
141.1464285714
 20
120.8202391839
 11
141.1464285714
 21
117.6664024585
  0
LINE
  8
0
 62
7
  6
CONTINUOUS
 10
141.1464285714
 20
114.1664024585
 11
141.1464285714
 21
111.0210820509
  0
LINE
  8
0
 62
7
  6
CONTINUOUS
 10
141.1464285714
 20
108.1202391839
 11
141.1464285714
 21
104.9664024585
  0
LINE
  8
0
 62
7
  6
CONTINUOUS
 10
141.1464285714
 20
101.4664024585
 11
141.1464285714
 21
98.3210820509
  0
LINE
  8
0
 62
7
  6
CONTINUOUS
 10
141.1464285714
 20
95.4202391839
 11
141.1464285714
 21
92.2664024585
  0
LINE
  8
0
 62
7
  6
CONTINUOUS
 10
141.1464285714
 20
88.7664024585
 11
141.1464285714
 21
85.6210820509
  0
LINE
  8
0
 62
7
  6
CONTINUOUS
 10
141.1464285714
 20
82.7202391839
 11
141.1464285714
 21
79.6964024585
  0
LINE
  8
0
 62
7
  6
CONTINUOUS
 10
141.1464285714
 20
76.6964024585
 11
141.1464285714
 21
72.5638540309
  0
POLYLINE
  8
0
 62
7
  6
CONTINUOUS
 66
1
 70
0
  0
VERTEX
  8
0
 62
7
  6
CONTINUOUS
 10
139.6949383906
 20
183.8432923755
  0
VERTEX
  8
0
 62
7
  6
CONTINUOUS
 10
139.6619787853
 20
183.1369928018
  0
VERTEX
  8
0
 62
7
  6
CONTINUOUS
 10
139.6250258249
 20
182.4456370553
  0
SEQEND
  0
POLYLINE
  8
0
 62
7
  6
CONTINUOUS
 66
1
 70
0
  0
VERTEX
  8
0
 62
7
  6
CONTINUOUS
 10
139.6949383906
 20
171.1432923755
  0
VERTEX
  8
0
 62
7
  6
CONTINUOUS
 10
139.6619787853
 20
170.4369928018
  0
VERTEX
  8
0
 62
7
  6
CONTINUOUS
 10
139.6250258249
 20
169.7456370553
  0
SEQEND
  0
POLYLINE
  8
0
 62
7
  6
CONTINUOUS
 66
1
 70
0
  0
VERTEX
  8
0
 62
7
  6
CONTINUOUS
 10
139.6949383906
 20
158.4432923755
  0
VERTEX
  8
0
 62
7
  6
CONTINUOUS
 10
139.6619787853
 20
157.7369928018
  0
VERTEX
  8
0
 62
7
  6
CONTINUOUS
 10
139.6250258249
 20
157.0456370553
  0
SEQEND
  0
POLYLINE
  8
0
 62
7
  6
CONTINUOUS
 66
1
 70
0
  0
VERTEX
  8
0
 62
7
  6
CONTINUOUS
 10
139.6949383906
 20
145.7432923755
  0
VERTEX
  8
0
 62
7
  6
CONTINUOUS
 10
139.6619787853
 20
145.0369928018
  0
VERTEX
  8
0
 62
7
  6
CONTINUOUS
 10
139.6250258249
 20
144.3456370553
  0
SEQEND
  0
POLYLINE
  8
0
 62
7
  6
CONTINUOUS
 66
1
 70
0
  0
VERTEX
  8
0
 62
7
  6
CONTINUOUS
 10
139.6949383906
 20
133.0432923755
  0
VERTEX
  8
0
 62
7
  6
CONTINUOUS
 10
139.6619787853
 20
132.3369928018
  0
VERTEX
  8
0
 62
7
  6
CONTINUOUS
 10
139.6250258249
 20
131.6456370553
  0
SEQEND
  0
POLYLINE
  8
0
 62
7
  6
CONTINUOUS
 66
1
 70
0
  0
VERTEX
  8
0
 62
7
  6
CONTINUOUS
 10
139.6949383906
 20
120.3432923755
  0
VERTEX
  8
0
 62
7
  6
CONTINUOUS
 10
139.6619787853
 20
119.6369928018
  0
VERTEX
  8
0
 62
7
  6
CONTINUOUS
 10
139.6250258249
 20
118.9456370553
  0
SEQEND
  0
POLYLINE
  8
0
 62
7
  6
CONTINUOUS
 66
1
 70
0
  0
VERTEX
  8
0
 62
7
  6
CONTINUOUS
 10
139.6949383906
 20
107.6432923755
  0
VERTEX
  8
0
 62
7
  6
CONTINUOUS
 10
139.6619787853
 20
106.9369928018
  0
VERTEX
  8
0
 62
7
  6
CONTINUOUS
 10
139.6250258249
 20
106.2456370553
  0
SEQEND
  0
POLYLINE
  8
0
 62
7
  6
CONTINUOUS
 66
1
 70
0
  0
VERTEX
  8
0
 62
7
  6
CONTINUOUS
 10
139.6949383906
 20
94.9432923755
  0
VERTEX
  8
0
 62
7
  6
CONTINUOUS
 10
139.6619787853
 20
94.2369928018
  0
VERTEX
  8
0
 62
7
  6
CONTINUOUS
 10
139.6250258249
 20
93.5456370553
  0
SEQEND
  0
POLYLINE
  8
0
 62
7
  6
CONTINUOUS
 66
1
 70
0
  0
VERTEX
  8
0
 62
7
  6
CONTINUOUS
 10
139.6949383906
 20
82.2432923755
  0
VERTEX
  8
0
 62
7
  6
CONTINUOUS
 10
139.6619787853
 20
81.5369928018
  0
VERTEX
  8
0
 62
7
  6
CONTINUOUS
 10
139.6250258249
 20
80.8456370553
  0
SEQEND
  0
POLYLINE
  8
0
 62
7
  6
CONTINUOUS
 66
1
 70
0
  0
VERTEX
  8
0
 62
7
  6
CONTINUOUS
 10
139.8464285714
 20
184.8151939258
  0
VERTEX
  8
0
 62
7
  6
CONTINUOUS
 10
139.8330332022
 20
184.5471550908
  0
VERTEX
  8
0
 62
7
  6
CONTINUOUS
 10
139.7932514767
 20
184.2823533307
  0
VERTEX
  8
0
 62
7
  6
CONTINUOUS
 10
139.7275998417
 20
184.0216726943
  0
SEQEND
  0
POLYLINE
  8
0
 62
7
  6
CONTINUOUS
 66
1
 70
0
  0
VERTEX
  8
0
 62
7
  6
CONTINUOUS
 10
139.8464285714
 20
172.1151939258
  0
VERTEX
  8
0
 62
7
  6
CONTINUOUS
 10
139.8330332022
 20
171.8471550908
  0
VERTEX
  8
0
 62
7
  6
CONTINUOUS
 10
139.7932514767
 20
171.5823533307
  0
VERTEX
  8
0
 62
7
  6
CONTINUOUS
 10
139.7275998417
 20
171.3216726943
  0
SEQEND
  0
POLYLINE
  8
0
 62
7
  6
CONTINUOUS
 66
1
 70
0
  0
VERTEX
  8
0
 62
7
  6
CONTINUOUS
 10
139.8464285714
 20
159.4151939258
  0
VERTEX
  8
0
 62
7
  6
CONTINUOUS
 10
139.8330332022
 20
159.1471550908
  0
VERTEX
  8
0
 62
7
  6
CONTINUOUS
 10
139.7932514767
 20
158.8823533307
  0
VERTEX
  8
0
 62
7
  6
CONTINUOUS
 10
139.7275998417
 20
158.6216726943
  0
SEQEND
  0
POLYLINE
  8
0
 62
7
  6
CONTINUOUS
 66
1
 70
0
  0
VERTEX
  8
0
 62
7
  6
CONTINUOUS
 10
139.8464285714
 20
146.7151939258
  0
VERTEX
  8
0
 62
7
  6
CONTINUOUS
 10
139.8330332022
 20
146.4471550908
  0
VERTEX
  8
0
 62
7
  6
CONTINUOUS
 10
139.7932514767
 20
146.1823533307
  0
VERTEX
  8
0
 62
7
  6
CONTINUOUS
 10
139.7275998417
 20
145.9216726943
  0
SEQEND
  0
POLYLINE
  8
0
 62
7
  6
CONTINUOUS
 66
1
 70
0
  0
VERTEX
  8
0
 62
7
  6
CONTINUOUS
 10
139.8464285714
 20
134.0151939258
  0
VERTEX
  8
0
 62
7
  6
CONTINUOUS
 10
139.8330332022
 20
133.7471550908
  0
VERTEX
  8
0
 62
7
  6
CONTINUOUS
 10
139.7932514767
 20
133.4823533307
  0
VERTEX
  8
0
 62
7
  6
CONTINUOUS
 10
139.7275998417
 20
133.2216726943
  0
SEQEND
  0
POLYLINE
  8
0
 62
7
  6
CONTINUOUS
 66
1
 70
0
  0
VERTEX
  8
0
 62
7
  6
CONTINUOUS
 10
139.8464285714
 20
121.3151939258
  0
VERTEX
  8
0
 62
7
  6
CONTINUOUS
 10
139.8330332022
 20
121.0471550908
  0
VERTEX
  8
0
 62
7
  6
CONTINUOUS
 10
139.7932514767
 20
120.7823533307
  0
VERTEX
  8
0
 62
7
  6
CONTINUOUS
 10
139.7275998417
 20
120.5216726943
  0
SEQEND
  0
POLYLINE
  8
0
 62
7
  6
CONTINUOUS
 66
1
 70
0
  0
VERTEX
  8
0
 62
7
  6
CONTINUOUS
 10
139.8464285714
 20
108.6151939258
  0
VERTEX
  8
0
 62
7
  6
CONTINUOUS
 10
139.8330332022
 20
108.3471550908
  0
VERTEX
  8
0
 62
7
  6
CONTINUOUS
 10
139.7932514767
 20
108.0823533307
  0
VERTEX
  8
0
 62
7
  6
CONTINUOUS
 10
139.7275998417
 20
107.8216726943
  0
SEQEND
  0
POLYLINE
  8
0
 62
7
  6
CONTINUOUS
 66
1
 70
0
  0
VERTEX
  8
0
 62
7
  6
CONTINUOUS
 10
139.8464285714
 20
95.9151939258
  0
VERTEX
  8
0
 62
7
  6
CONTINUOUS
 10
139.8330332022
 20
95.6471550908
  0
VERTEX
  8
0
 62
7
  6
CONTINUOUS
 10
139.7932514767
 20
95.3823533307
  0
VERTEX
  8
0
 62
7
  6
CONTINUOUS
 10
139.7275998417
 20
95.1216726943
  0
SEQEND
  0
POLYLINE
  8
0
 62
7
  6
CONTINUOUS
 66
1
 70
0
  0
VERTEX
  8
0
 62
7
  6
CONTINUOUS
 10
139.8464285714
 20
83.2151939258
  0
VERTEX
  8
0
 62
7
  6
CONTINUOUS
 10
139.8330332022
 20
82.9471550908
  0
VERTEX
  8
0
 62
7
  6
CONTINUOUS
 10
139.7932514767
 20
82.6823533307
  0
VERTEX
  8
0
 62
7
  6
CONTINUOUS
 10
139.7275998417
 20
82.4216726943
  0
SEQEND
  0
POLYLINE
  8
0
 62
7
  6
CONTINUOUS
 66
1
 70
0
  0
VERTEX
  8
0
 62
7
  6
CONTINUOUS
 10
141.1464285714
 20
174.5210820509
  0
VERTEX
  8
0
 62
7
  6
CONTINUOUS
 10
141.1382952263
 20
174.436853861
  0
VERTEX
  8
0
 62
7
  6
CONTINUOUS
 10
141.1136209327
 20
174.346673082
  0
VERTEX
  8
0
 62
7
  6
CONTINUOUS
 10
141.0726231899
 20
174.2534786789
  0
VERTEX
  8
0
 62
7
  6
CONTINUOUS
 10
141.0147948328
 20
174.1581957712
  0
VERTEX
  8
0
 62
7
  6
CONTINUOUS
 10
140.9393441846
 20
174.0625197233
  0
VERTEX
  8
0
 62
7
  6
CONTINUOUS
 10
140.8464285714
 20
173.969969283
  0
SEQEND
  0
POLYLINE
  8
0
 62
7
  6
CONTINUOUS
 66
1
 70
0
  0
VERTEX
  8
0
 62
7
  6
CONTINUOUS
 10
141.1464285714
 20
161.8210820509
  0
VERTEX
  8
0
 62
7
  6
CONTINUOUS
 10
141.1382952263
 20
161.736853861
  0
VERTEX
  8
0
 62
7
  6
CONTINUOUS
 10
141.1136209327
 20
161.646673082
  0
VERTEX
  8
0
 62
7
  6
CONTINUOUS
 10
141.0726231899
 20
161.5534786789
  0
VERTEX
  8
0
 62
7
  6
CONTINUOUS
 10
141.0147948328
 20
161.4581957712
  0
VERTEX
  8
0
 62
7
  6
CONTINUOUS
 10
140.9393441846
 20
161.3625197233
  0
VERTEX
  8
0
 62
7
  6
CONTINUOUS
 10
140.8464285714
 20
161.269969283
  0
SEQEND
  0
POLYLINE
  8
0
 62
7
  6
CONTINUOUS
 66
1
 70
0
  0
VERTEX
  8
0
 62
7
  6
CONTINUOUS
 10
141.1464285714
 20
149.1210820509
  0
VERTEX
  8
0
 62
7
  6
CONTINUOUS
 10
141.1382952263
 20
149.036853861
  0
VERTEX
  8
0
 62
7
  6
CONTINUOUS
 10
141.1136209327
 20
148.946673082
  0
VERTEX
  8
0
 62
7
  6
CONTINUOUS
 10
141.0726231899
 20
148.8534786789
  0
VERTEX
  8
0
 62
7
  6
CONTINUOUS
 10
141.0147948328
 20
148.7581957712
  0
VERTEX
  8
0
 62
7
  6
CONTINUOUS
 10
140.9393441846
 20
148.6625197233
  0
VERTEX
  8
0
 62
7
  6
CONTINUOUS
 10
140.8464285714
 20
148.569969283
  0
SEQEND
  0
POLYLINE
  8
0
 62
7
  6
CONTINUOUS
 66
1
 70
0
  0
VERTEX
  8
0
 62
7
  6
CONTINUOUS
 10
141.1464285714
 20
136.4210820509
  0
VERTEX
  8
0
 62
7
  6
CONTINUOUS
 10
141.1382952263
 20
136.336853861
  0
VERTEX
  8
0
 62
7
  6
CONTINUOUS
 10
141.1136209327
 20
136.246673082
  0
VERTEX
  8
0
 62
7
  6
CONTINUOUS
 10
141.0726231899
 20
136.1534786789
  0
VERTEX
  8
0
 62
7
  6
CONTINUOUS
 10
141.0147948328
 20
136.0581957712
  0
VERTEX
  8
0
 62
7
  6
CONTINUOUS
 10
140.9393441846
 20
135.9625197233
  0
VERTEX
  8
0
 62
7
  6
CONTINUOUS
 10
140.8464285714
 20
135.869969283
  0
SEQEND
  0
POLYLINE
  8
0
 62
7
  6
CONTINUOUS
 66
1
 70
0
  0
VERTEX
  8
0
 62
7
  6
CONTINUOUS
 10
141.1464285714
 20
123.7210820509
  0
VERTEX
  8
0
 62
7
  6
CONTINUOUS
 10
141.1382952263
 20
123.636853861
  0
VERTEX
  8
0
 62
7
  6
CONTINUOUS
 10
141.1136209327
 20
123.546673082
  0
VERTEX
  8
0
 62
7
  6
CONTINUOUS
 10
141.0726231899
 20
123.4534786789
  0
VERTEX
  8
0
 62
7
  6
CONTINUOUS
 10
141.0147948328
 20
123.3581957712
  0
VERTEX
  8
0
 62
7
  6
CONTINUOUS
 10
140.9393441846
 20
123.2625197233
  0
VERTEX
  8
0
 62
7
  6
CONTINUOUS
 10
140.8464285714
 20
123.169969283
  0
SEQEND
  0
POLYLINE
  8
0
 62
7
  6
CONTINUOUS
 66
1
 70
0
  0
VERTEX
  8
0
 62
7
  6
CONTINUOUS
 10
139.7275998417
 20
145.9216726943
  0
VERTEX
  8
0
 62
7
  6
CONTINUOUS
 10
139.7120084197
 20
145.8631427326
  0
VERTEX
  8
0
 62
7
  6
CONTINUOUS
 10
139.7007352605
 20
145.8031914372
  0
VERTEX
  8
0
 62
7
  6
CONTINUOUS
 10
139.6949383906
 20
145.7432923755
  0
SEQEND
  0
POLYLINE
  8
0
 62
7
  6
CONTINUOUS
 66
1
 70
0
  0
VERTEX
  8
0
 62
7
  6
CONTINUOUS
 10
139.7275998417
 20
133.2216726943
  0
VERTEX
  8
0
 62
7
  6
CONTINUOUS
 10
139.7120084197
 20
133.1631427326
  0
VERTEX
  8
0
 62
7
  6
CONTINUOUS
 10
139.7007352605
 20
133.1031914372
  0
VERTEX
  8
0
 62
7
  6
CONTINUOUS
 10
139.6949383906
 20
133.0432923755
  0
SEQEND
  0
POLYLINE
  8
0
 62
7
  6
CONTINUOUS
 66
1
 70
0
  0
VERTEX
  8
0
 62
7
  6
CONTINUOUS
 10
139.7905456465
 20
138.8707741706
  0
VERTEX
  8
0
 62
7
  6
CONTINUOUS
 10
139.7666824608
 20
138.8027694318
  0
VERTEX
  8
0
 62
7
  6
CONTINUOUS
 10
139.7174665071
 20
138.6852589752
  0
VERTEX
  8
0
 62
7
  6
CONTINUOUS
 10
139.6727781452
 20
138.5769487601
  0
VERTEX
  8
0
 62
7
  6
CONTINUOUS
 10
139.6388360177
 20
138.4752940051
  0
VERTEX
  8
0
 62
7
  6
CONTINUOUS
 10
139.6203316021
 20
138.3812692409
  0
VERTEX
  8
0
 62
7
  6
CONTINUOUS
 10
139.6177563595
 20
138.2911460687
  0
SEQEND
  0
POLYLINE
  8
0
 62
7
  6
CONTINUOUS
 66
1
 70
0
  0
VERTEX
  8
0
 62
7
  6
CONTINUOUS
 10
140.8464285714
 20
135.869969283
  0
VERTEX
  8
0
 62
7
  6
CONTINUOUS
 10
140.7840435855
 20
135.8194281189
  0
VERTEX
  8
0
 62
7
  6
CONTINUOUS
 10
140.7200730192
 20
135.7764024585
  0
SEQEND
  0
POLYLINE
  8
0
 62
7
  6
CONTINUOUS
 66
1
 70
0
  0
VERTEX
  8
0
 62
7
  6
CONTINUOUS
 10
140.7200730192
 20
135.7764024585
  0
VERTEX
  8
0
 62
7
  6
CONTINUOUS
 10
140.6404568042
 20
135.7350141463
  0
VERTEX
  8
0
 62
7
  6
CONTINUOUS
 10
140.5596358626
 20
135.7060334964
  0
VERTEX
  8
0
 62
7
  6
CONTINUOUS
 10
140.4781774947
 20
135.6888959995
  0
VERTEX
  8
0
 62
7
  6
CONTINUOUS
 10
140.3964285714
 20
135.6832253032
  0
SEQEND
  0
LINE
  8
0
 62
7
  6
CONTINUOUS
 10
139.8464285714
 20
139.5664024585
 11
142.2464285714
 21
139.5664024585
  0
LINE
  8
0
 62
7
  6
CONTINUOUS
 10
142.2464285714
 20
143.0664024585
 11
139.8464285714
 21
143.0664024585
  0
LINE
  8
0
 62
7
  6
CONTINUOUS
 10
139.7721718215
 20
143.8276175972
 11
139.7918254747
 21
143.7692861591
  0
POLYLINE
  8
0
 62
7
  6
CONTINUOUS
 66
1
 70
0
  0
VERTEX
  8
0
 62
7
  6
CONTINUOUS
 10
139.6887121967
 20
175.0089656961
  0
VERTEX
  8
0
 62
7
  6
CONTINUOUS
 10
139.6948727285
 20
174.9472308753
  0
VERTEX
  8
0
 62
7
  6
CONTINUOUS
 10
139.7066835224
 20
174.8860443548
  0
VERTEX
  8
0
 62
7
  6
CONTINUOUS
 10
139.7229339482
 20
174.8263435644
  0
SEQEND
  0
POLYLINE
  8
0
 62
7
  6
CONTINUOUS
 66
1
 70
0
  0
VERTEX
  8
0
 62
7
  6
CONTINUOUS
 10
139.6887121967
 20
187.7089656961
  0
VERTEX
  8
0
 62
7
  6
CONTINUOUS
 10
139.6948727285
 20
187.6472308753
  0
VERTEX
  8
0
 62
7
  6
CONTINUOUS
 10
139.7066835224
 20
187.5860443548
  0
VERTEX
  8
0
 62
7
  6
CONTINUOUS
 10
139.7229339482
 20
187.5263435644
  0
SEQEND
  0
POLYLINE
  8
0
 62
7
  6
CONTINUOUS
 66
1
 70
0
  0
VERTEX
  8
0
 62
7
  6
CONTINUOUS
 10
139.6887121967
 20
200.4089656961
  0
VERTEX
  8
0
 62
7
  6
CONTINUOUS
 10
139.6948727285
 20
200.3472308753
  0
VERTEX
  8
0
 62
7
  6
CONTINUOUS
 10
139.7066835224
 20
200.2860443548
  0
VERTEX
  8
0
 62
7
  6
CONTINUOUS
 10
139.7229339482
 20
200.2263435644
  0
SEQEND
  0
POLYLINE
  8
0
 62
7
  6
CONTINUOUS
 66
1
 70
0
  0
VERTEX
  8
0
 62
7
  6
CONTINUOUS
 10
139.8464285714
 20
199.4176109911
  0
VERTEX
  8
0
 62
7
  6
CONTINUOUS
 10
139.8325008239
 20
199.6909160449
  0
VERTEX
  8
0
 62
7
  6
CONTINUOUS
 10
139.7911422451
 20
199.9608506876
  0
VERTEX
  8
0
 62
7
  6
CONTINUOUS
 10
139.7229339482
 20
200.2263435644
  0
SEQEND
  0
POLYLINE
  8
0
 62
7
  6
CONTINUOUS
 66
1
 70
0
  0
VERTEX
  8
0
 62
7
  6
CONTINUOUS
 10
139.6887121967
 20
200.4089656961
  0
VERTEX
  8
0
 62
7
  6
CONTINUOUS
 10
139.6552435471
 20
201.1074799285
  0
VERTEX
  8
0
 62
7
  6
CONTINUOUS
 10
139.6177563595
 20
201.7911460687
  0
SEQEND
  0
LINE
  8
0
 62
7
  6
CONTINUOUS
 10
143.1964285714
 20
205.7464024585
 11
143.1964285714
 21
204.6464024585
  0
LINE
  8
0
 62
7
  6
CONTINUOUS
 10
143.1964285714
 20
198.6464024585
 11
143.1964285714
 21
197.5464024585
  0
LINE
  8
0
 62
7
  6
CONTINUOUS
 10
143.1964285714
 20
192.9164024585
 11
143.1964285714
 21
191.3164024585
  0
LINE
  8
0
 62
7
  6
CONTINUOUS
 10
143.1964285714
 20
186.5764024585
 11
143.1964285714
 21
184.9764024585
  0
LINE
  8
0
 62
7
  6
CONTINUOUS
 10
143.1964285714
 20
180.2164024585
 11
143.1964285714
 21
178.6164024585
  0
LINE
  8
0
 62
7
  6
CONTINUOUS
 10
143.1964285714
 20
173.8764024585
 11
143.1964285714
 21
172.2764024585
  0
LINE
  8
0
 62
7
  6
CONTINUOUS
 10
143.1964285714
 20
167.5164024585
 11
143.1964285714
 21
165.9164024585
  0
LINE
  8
0
 62
7
  6
CONTINUOUS
 10
143.1964285714
 20
161.1764024585
 11
143.1964285714
 21
159.5764024585
  0
LINE
  8
0
 62
7
  6
CONTINUOUS
 10
143.1964285714
 20
154.8164024585
 11
143.1964285714
 21
153.2164024585
  0
LINE
  8
0
 62
7
  6
CONTINUOUS
 10
143.1964285714
 20
148.4764024585
 11
143.1964285714
 21
146.8764024585
  0
LINE
  8
0
 62
7
  6
CONTINUOUS
 10
143.1964285714
 20
142.1164024585
 11
143.1964285714
 21
140.5164024585
  0
LINE
  8
0
 62
7
  6
CONTINUOUS
 10
143.1964285714
 20
135.7764024585
 11
143.1964285714
 21
134.1764024585
  0
LINE
  8
0
 62
7
  6
CONTINUOUS
 10
143.1964285714
 20
129.4164024585
 11
143.1964285714
 21
127.8164024585
  0
LINE
  8
0
 62
7
  6
CONTINUOUS
 10
143.1964285714
 20
123.0764024585
 11
143.1964285714
 21
121.4764024585
  0
LINE
  8
0
 62
7
  6
CONTINUOUS
 10
143.1964285714
 20
116.7164024585
 11
143.1964285714
 21
115.1164024585
  0
LINE
  8
0
 62
7
  6
CONTINUOUS
 10
143.1964285714
 20
110.3764024585
 11
143.1964285714
 21
108.7764024585
  0
LINE
  8
0
 62
7
  6
CONTINUOUS
 10
143.1964285714
 20
104.0164024585
 11
143.1964285714
 21
102.4164024585
  0
LINE
  8
0
 62
7
  6
CONTINUOUS
 10
143.1964285714
 20
97.6764024585
 11
143.1964285714
 21
96.0764024585
  0
LINE
  8
0
 62
7
  6
CONTINUOUS
 10
143.1964285714
 20
91.3164024585
 11
143.1964285714
 21
89.7164024585
  0
LINE
  8
0
 62
7
  6
CONTINUOUS
 10
143.1964285714
 20
84.9764024585
 11
143.1964285714
 21
83.3764024585
  0
LINE
  8
0
 62
7
  6
CONTINUOUS
 10
143.1964285714
 20
78.7464024585
 11
143.1964285714
 21
77.6464024585
  0
LINE
  8
0
 62
7
  6
CONTINUOUS
 10
143.1964285714
 20
71.6464024585
 11
143.1964285714
 21
70.5464024585
  0
POLYLINE
  8
0
 62
7
  6
CONTINUOUS
 66
1
 70
0
  0
VERTEX
  8
0
 62
7
  6
CONTINUOUS
 10
141.1464285714
 20
111.0210820509
  0
VERTEX
  8
0
 62
7
  6
CONTINUOUS
 10
141.1382952263
 20
110.936853861
  0
VERTEX
  8
0
 62
7
  6
CONTINUOUS
 10
141.1136209327
 20
110.846673082
  0
VERTEX
  8
0
 62
7
  6
CONTINUOUS
 10
141.0726231899
 20
110.7534786789
  0
VERTEX
  8
0
 62
7
  6
CONTINUOUS
 10
141.0147948328
 20
110.6581957712
  0
VERTEX
  8
0
 62
7
  6
CONTINUOUS
 10
140.9393441846
 20
110.5625197233
  0
VERTEX
  8
0
 62
7
  6
CONTINUOUS
 10
140.8464285714
 20
110.469969283
  0
SEQEND
  0
POLYLINE
  8
0
 62
7
  6
CONTINUOUS
 66
1
 70
0
  0
VERTEX
  8
0
 62
7
  6
CONTINUOUS
 10
141.1464285714
 20
98.3210820509
  0
VERTEX
  8
0
 62
7
  6
CONTINUOUS
 10
141.1382952263
 20
98.236853861
  0
VERTEX
  8
0
 62
7
  6
CONTINUOUS
 10
141.1136209327
 20
98.146673082
  0
VERTEX
  8
0
 62
7
  6
CONTINUOUS
 10
141.0726231899
 20
98.0534786789
  0
VERTEX
  8
0
 62
7
  6
CONTINUOUS
 10
141.0147948328
 20
97.9581957712
  0
VERTEX
  8
0
 62
7
  6
CONTINUOUS
 10
140.9393441846
 20
97.8625197233
  0
VERTEX
  8
0
 62
7
  6
CONTINUOUS
 10
140.8464285714
 20
97.769969283
  0
SEQEND
  0
POLYLINE
  8
0
 62
7
  6
CONTINUOUS
 66
1
 70
0
  0
VERTEX
  8
0
 62
7
  6
CONTINUOUS
 10
141.1464285714
 20
85.6210820509
  0
VERTEX
  8
0
 62
7
  6
CONTINUOUS
 10
141.1382952263
 20
85.536853861
  0
VERTEX
  8
0
 62
7
  6
CONTINUOUS
 10
141.1136209327
 20
85.446673082
  0
VERTEX
  8
0
 62
7
  6
CONTINUOUS
 10
141.0726231899
 20
85.3534786789
  0
VERTEX
  8
0
 62
7
  6
CONTINUOUS
 10
141.0147948328
 20
85.2581957712
  0
VERTEX
  8
0
 62
7
  6
CONTINUOUS
 10
140.9393441846
 20
85.1625197233
  0
VERTEX
  8
0
 62
7
  6
CONTINUOUS
 10
140.8464285714
 20
85.069969283
  0
SEQEND
  0
POLYLINE
  8
0
 62
7
  6
CONTINUOUS
 66
1
 70
0
  0
VERTEX
  8
0
 62
7
  6
CONTINUOUS
 10
139.7275998417
 20
120.5216726943
  0
VERTEX
  8
0
 62
7
  6
CONTINUOUS
 10
139.7120084197
 20
120.4631427326
  0
VERTEX
  8
0
 62
7
  6
CONTINUOUS
 10
139.7007352605
 20
120.4031914372
  0
VERTEX
  8
0
 62
7
  6
CONTINUOUS
 10
139.6949383906
 20
120.3432923755
  0
SEQEND
  0
POLYLINE
  8
0
 62
7
  6
CONTINUOUS
 66
1
 70
0
  0
VERTEX
  8
0
 62
7
  6
CONTINUOUS
 10
139.7275998417
 20
107.8216726943
  0
VERTEX
  8
0
 62
7
  6
CONTINUOUS
 10
139.7120084197
 20
107.7631427326
  0
VERTEX
  8
0
 62
7
  6
CONTINUOUS
 10
139.7007352605
 20
107.7031914372
  0
VERTEX
  8
0
 62
7
  6
CONTINUOUS
 10
139.6949383906
 20
107.6432923755
  0
SEQEND
  0
POLYLINE
  8
0
 62
7
  6
CONTINUOUS
 66
1
 70
0
  0
VERTEX
  8
0
 62
7
  6
CONTINUOUS
 10
139.7905456465
 20
126.1707741706
  0
VERTEX
  8
0
 62
7
  6
CONTINUOUS
 10
139.7666824608
 20
126.1027694318
  0
VERTEX
  8
0
 62
7
  6
CONTINUOUS
 10
139.7174665071
 20
125.9852589752
  0
VERTEX
  8
0
 62
7
  6
CONTINUOUS
 10
139.6727781452
 20
125.8769487601
  0
VERTEX
  8
0
 62
7
  6
CONTINUOUS
 10
139.6388360177
 20
125.7752940051
  0
VERTEX
  8
0
 62
7
  6
CONTINUOUS
 10
139.6203316021
 20
125.6812692409
  0
VERTEX
  8
0
 62
7
  6
CONTINUOUS
 10
139.6177563595
 20
125.5911460687
  0
SEQEND
  0
LINE
  8
0
 62
7
  6
CONTINUOUS
 10
138.9964285714
 20
144.3214024585
 11
131.8964285714
 21
144.3214024585
  0
LINE
  8
0
 62
7
  6
CONTINUOUS
 10
142.2464285714
 20
145.9264024585
 11
141.1464285714
 21
145.9264024585
  0
LINE
  8
0
 62
7
  6
CONTINUOUS
 10
139.8464285714
 20
146.9495796137
 11
140.3964285714
 21
146.9495796137
  0
LINE
  8
0
 62
7
  6
CONTINUOUS
 10
139.8464285714
 20
148.3832253032
 11
140.3964285714
 21
148.3832253032
  0
POLYLINE
  8
0
 62
7
  6
CONTINUOUS
 66
1
 70
0
  0
VERTEX
  8
0
 62
7
  6
CONTINUOUS
 10
140.6848230869
 20
146.8764024585
  0
VERTEX
  8
0
 62
7
  6
CONTINUOUS
 10
140.5896179887
 20
146.9174627353
  0
VERTEX
  8
0
 62
7
  6
CONTINUOUS
 10
140.4932569857
 20
146.9416142914
  0
VERTEX
  8
0
 62
7
  6
CONTINUOUS
 10
140.3964285714
 20
146.9495796137
  0
SEQEND
  0
POLYLINE
  8
0
 62
7
  6
CONTINUOUS
 66
1
 70
0
  0
VERTEX
  8
0
 62
7
  6
CONTINUOUS
 10
140.6848230869
 20
146.8764024585
  0
VERTEX
  8
0
 62
7
  6
CONTINUOUS
 10
140.7668764681
 20
146.8264044003
  0
VERTEX
  8
0
 62
7
  6
CONTINUOUS
 10
140.8464285714
 20
146.7644030094
  0
SEQEND
  0
POLYLINE
  8
0
 62
7
  6
CONTINUOUS
 66
1
 70
0
  0
VERTEX
  8
0
 62
7
  6
CONTINUOUS
 10
140.8464285714
 20
146.7644030094
  0
VERTEX
  8
0
 62
7
  6
CONTINUOUS
 10
140.9394044293
 20
146.6730323628
  0
VERTEX
  8
0
 62
7
  6
CONTINUOUS
 10
141.0148810081
 20
146.5784983583
  0
VERTEX
  8
0
 62
7
  6
CONTINUOUS
 10
141.072716385
 20
146.4843079749
  0
VERTEX
  8
0
 62
7
  6
CONTINUOUS
 10
141.1137057836
 20
146.3921713969
  0
VERTEX
  8
0
 62
7
  6
CONTINUOUS
 10
141.1383096735
 20
146.303265678
  0
VERTEX
  8
0
 62
7
  6
CONTINUOUS
 10
141.1464285714
 20
146.2202391839
  0
SEQEND
  0
LINE
  8
0
 62
7
  6
CONTINUOUS
 10
139.7721718215
 20
156.5276175972
 11
139.7918254747
 21
156.4692861591
  0
POLYLINE
  8
0
 62
7
  6
CONTINUOUS
 66
1
 70
0
  0
VERTEX
  8
0
 62
7
  6
CONTINUOUS
 10
141.1464285714
 20
72.5638540309
  0
VERTEX
  8
0
 62
7
  6
CONTINUOUS
 10
141.1405190894
 20
72.5288944814
  0
VERTEX
  8
0
 62
7
  6
CONTINUOUS
 10
141.1225202036
 20
72.4857646771
  0
VERTEX
  8
0
 62
7
  6
CONTINUOUS
 10
141.0924533707
 20
72.437206191
  0
VERTEX
  8
0
 62
7
  6
CONTINUOUS
 10
141.0502362871
 20
72.3850464068
  0
VERTEX
  8
0
 62
7
  6
CONTINUOUS
 10
140.9954555849
 20
72.3306937523
  0
VERTEX
  8
0
 62
7
  6
CONTINUOUS
 10
140.9273950109
 20
72.2755153252
  0
VERTEX
  8
0
 62
7
  6
CONTINUOUS
 10
140.8464285714
 20
72.2218924745
  0
SEQEND
  0
POLYLINE
  8
0
 62
7
  6
CONTINUOUS
 66
1
 70
0
  0
VERTEX
  8
0
 62
7
  6
CONTINUOUS
 10
139.7275998417
 20
95.1216726943
  0
VERTEX
  8
0
 62
7
  6
CONTINUOUS
 10
139.7120084197
 20
95.0631427326
  0
VERTEX
  8
0
 62
7
  6
CONTINUOUS
 10
139.7007352605
 20
95.0031914372
  0
VERTEX
  8
0
 62
7
  6
CONTINUOUS
 10
139.6949383906
 20
94.9432923755
  0
SEQEND
  0
POLYLINE
  8
0
 62
7
  6
CONTINUOUS
 66
1
 70
0
  0
VERTEX
  8
0
 62
7
  6
CONTINUOUS
 10
139.7905456465
 20
113.4707741706
  0
VERTEX
  8
0
 62
7
  6
CONTINUOUS
 10
139.7666824608
 20
113.4027694318
  0
VERTEX
  8
0
 62
7
  6
CONTINUOUS
 10
139.7174665071
 20
113.2852589752
  0
VERTEX
  8
0
 62
7
  6
CONTINUOUS
 10
139.6727781452
 20
113.1769487601
  0
VERTEX
  8
0
 62
7
  6
CONTINUOUS
 10
139.6388360177
 20
113.0752940051
  0
VERTEX
  8
0
 62
7
  6
CONTINUOUS
 10
139.6203316021
 20
112.9812692409
  0
VERTEX
  8
0
 62
7
  6
CONTINUOUS
 10
139.6177563595
 20
112.8911460687
  0
SEQEND
  0
POLYLINE
  8
0
 62
7
  6
CONTINUOUS
 66
1
 70
0
  0
VERTEX
  8
0
 62
7
  6
CONTINUOUS
 10
139.7905456465
 20
100.7707741706
  0
VERTEX
  8
0
 62
7
  6
CONTINUOUS
 10
139.7666824608
 20
100.7027694318
  0
VERTEX
  8
0
 62
7
  6
CONTINUOUS
 10
139.7174665071
 20
100.5852589752
  0
VERTEX
  8
0
 62
7
  6
CONTINUOUS
 10
139.6727781452
 20
100.4769487601
  0
VERTEX
  8
0
 62
7
  6
CONTINUOUS
 10
139.6388360177
 20
100.3752940051
  0
VERTEX
  8
0
 62
7
  6
CONTINUOUS
 10
139.6203316021
 20
100.2812692409
  0
VERTEX
  8
0
 62
7
  6
CONTINUOUS
 10
139.6177563595
 20
100.1911460687
  0
SEQEND
  0
POLYLINE
  8
0
 62
7
  6
CONTINUOUS
 66
1
 70
0
  0
VERTEX
  8
0
 62
7
  6
CONTINUOUS
 10
140.8464285714
 20
123.169969283
  0
VERTEX
  8
0
 62
7
  6
CONTINUOUS
 10
140.7840435855
 20
123.1194281189
  0
VERTEX
  8
0
 62
7
  6
CONTINUOUS
 10
140.7200730192
 20
123.0764024585
  0
SEQEND
  0
POLYLINE
  8
0
 62
7
  6
CONTINUOUS
 66
1
 70
0
  0
VERTEX
  8
0
 62
7
  6
CONTINUOUS
 10
140.7200730192
 20
123.0764024585
  0
VERTEX
  8
0
 62
7
  6
CONTINUOUS
 10
140.6404568042
 20
123.0350141463
  0
VERTEX
  8
0
 62
7
  6
CONTINUOUS
 10
140.5596358626
 20
123.0060334964
  0
VERTEX
  8
0
 62
7
  6
CONTINUOUS
 10
140.4781774947
 20
122.9888959995
  0
VERTEX
  8
0
 62
7
  6
CONTINUOUS
 10
140.3964285714
 20
122.9832253032
  0
SEQEND
  0
LINE
  8
0
 62
7
  6
CONTINUOUS
 10
142.2464285714
 20
149.4264024585
 11
141.1464285714
 21
149.4264024585
  0
LINE
  8
0
 62
7
  6
CONTINUOUS
 10
131.8964285714
 20
151.0214024585
 11
138.9964285714
 21
151.0214024585
  0
LINE
  8
0
 62
7
  6
CONTINUOUS
 10
139.8464285714
 20
152.2664024585
 11
142.2464285714
 21
152.2664024585
  0
LINE
  8
0
 62
7
  6
CONTINUOUS
 10
139.7721718215
 20
169.2276175972
 11
139.7918254747
 21
169.1692861591
  0
POLYLINE
  8
0
 62
7
  6
CONTINUOUS
 66
1
 70
0
  0
VERTEX
  8
0
 62
7
  6
CONTINUOUS
 10
139.7275998417
 20
82.4216726943
  0
VERTEX
  8
0
 62
7
  6
CONTINUOUS
 10
139.7120084197
 20
82.3631427326
  0
VERTEX
  8
0
 62
7
  6
CONTINUOUS
 10
139.7007352605
 20
82.3031914372
  0
VERTEX
  8
0
 62
7
  6
CONTINUOUS
 10
139.6949383906
 20
82.2432923755
  0
SEQEND
  0
POLYLINE
  8
0
 62
7
  6
CONTINUOUS
 66
1
 70
0
  0
VERTEX
  8
0
 62
7
  6
CONTINUOUS
 10
139.7905456465
 20
88.0707741706
  0
VERTEX
  8
0
 62
7
  6
CONTINUOUS
 10
139.7666824608
 20
88.0027694318
  0
VERTEX
  8
0
 62
7
  6
CONTINUOUS
 10
139.7174665071
 20
87.8852589752
  0
VERTEX
  8
0
 62
7
  6
CONTINUOUS
 10
139.6727781452
 20
87.7769487601
  0
VERTEX
  8
0
 62
7
  6
CONTINUOUS
 10
139.6388360177
 20
87.6752940051
  0
VERTEX
  8
0
 62
7
  6
CONTINUOUS
 10
139.6203316021
 20
87.5812692409
  0
VERTEX
  8
0
 62
7
  6
CONTINUOUS
 10
139.6177563595
 20
87.4911460687
  0
SEQEND
  0
LINE
  8
0
 62
7
  6
CONTINUOUS
 10
142.2464285714
 20
155.7664024585
 11
139.8464285714
 21
155.7664024585
  0
LINE
  8
0
 62
7
  6
CONTINUOUS
 10
138.9964285714
 20
157.0214024585
 11
131.8964285714
 21
157.0214024585
  0
LINE
  8
0
 62
7
  6
CONTINUOUS
 10
142.2464285714
 20
158.6264024585
 11
141.1464285714
 21
158.6264024585
  0
POLYLINE
  8
0
 62
7
  6
CONTINUOUS
 66
1
 70
0
  0
VERTEX
  8
0
 62
7
  6
CONTINUOUS
 10
140.6848230869
 20
159.5764024585
  0
VERTEX
  8
0
 62
7
  6
CONTINUOUS
 10
140.7668764681
 20
159.5264044003
  0
VERTEX
  8
0
 62
7
  6
CONTINUOUS
 10
140.8464285714
 20
159.4644030094
  0
SEQEND
  0
POLYLINE
  8
0
 62
7
  6
CONTINUOUS
 66
1
 70
0
  0
VERTEX
  8
0
 62
7
  6
CONTINUOUS
 10
140.8464285714
 20
159.4644030094
  0
VERTEX
  8
0
 62
7
  6
CONTINUOUS
 10
140.9394044293
 20
159.3730323628
  0
VERTEX
  8
0
 62
7
  6
CONTINUOUS
 10
141.0148810081
 20
159.2784983583
  0
VERTEX
  8
0
 62
7
  6
CONTINUOUS
 10
141.072716385
 20
159.1843079749
  0
VERTEX
  8
0
 62
7
  6
CONTINUOUS
 10
141.1137057836
 20
159.0921713969
  0
VERTEX
  8
0
 62
7
  6
CONTINUOUS
 10
141.1383096735
 20
159.003265678
  0
VERTEX
  8
0
 62
7
  6
CONTINUOUS
 10
141.1464285714
 20
158.9202391839
  0
SEQEND
  0
LINE
  8
0
 62
7
  6
CONTINUOUS
 10
139.7721718215
 20
181.9276175972
 11
139.7918254747
 21
181.8692861591
  0
LINE
  8
0
 62
7
  6
CONTINUOUS
 10
139.7721718215
 20
194.6276175972
 11
139.7918254747
 21
194.5692861591
  0
POLYLINE
  8
0
 62
7
  6
CONTINUOUS
 66
1
 70
0
  0
VERTEX
  8
0
 62
7
  6
CONTINUOUS
 10
139.7905456465
 20
75.3707741706
  0
VERTEX
  8
0
 62
7
  6
CONTINUOUS
 10
139.7666824608
 20
75.3027694318
  0
VERTEX
  8
0
 62
7
  6
CONTINUOUS
 10
139.7174665071
 20
75.1852589752
  0
VERTEX
  8
0
 62
7
  6
CONTINUOUS
 10
139.6727781452
 20
75.0769487601
  0
VERTEX
  8
0
 62
7
  6
CONTINUOUS
 10
139.6388360177
 20
74.9752940051
  0
VERTEX
  8
0
 62
7
  6
CONTINUOUS
 10
139.6203316021
 20
74.8812692409
  0
VERTEX
  8
0
 62
7
  6
CONTINUOUS
 10
139.6177563595
 20
74.7911460687
  0
SEQEND
  0
POLYLINE
  8
0
 62
7
  6
CONTINUOUS
 66
1
 70
0
  0
VERTEX
  8
0
 62
7
  6
CONTINUOUS
 10
140.8464285714
 20
110.469969283
  0
VERTEX
  8
0
 62
7
  6
CONTINUOUS
 10
140.7840435855
 20
110.4194281189
  0
VERTEX
  8
0
 62
7
  6
CONTINUOUS
 10
140.7200730192
 20
110.3764024585
  0
SEQEND
  0
LINE
  8
0
 62
7
  6
CONTINUOUS
 10
139.8464285714
 20
159.6495796137
 11
140.3964285714
 21
159.6495796137
  0
LINE
  8
0
 62
7
  6
CONTINUOUS
 10
139.8464285714
 20
161.0832253032
 11
140.3964285714
 21
161.0832253032
  0
LINE
  8
0
 62
7
  6
CONTINUOUS
 10
142.2464285714
 20
162.1264024585
 11
141.1464285714
 21
162.1264024585
  0
LINE
  8
0
 62
7
  6
CONTINUOUS
 10
131.8964285714
 20
163.7214024585
 11
138.9964285714
 21
163.7214024585
  0
POLYLINE
  8
0
 62
7
  6
CONTINUOUS
 66
1
 70
0
  0
VERTEX
  8
0
 62
7
  6
CONTINUOUS
 10
140.6848230869
 20
159.5764024585
  0
VERTEX
  8
0
 62
7
  6
CONTINUOUS
 10
140.5896179887
 20
159.6174627353
  0
VERTEX
  8
0
 62
7
  6
CONTINUOUS
 10
140.4932569857
 20
159.6416142914
  0
VERTEX
  8
0
 62
7
  6
CONTINUOUS
 10
140.3964285714
 20
159.6495796137
  0
SEQEND
  0
POLYLINE
  8
0
 62
7
  6
CONTINUOUS
 66
1
 70
0
  0
VERTEX
  8
0
 62
7
  6
CONTINUOUS
 10
140.7200730192
 20
110.3764024585
  0
VERTEX
  8
0
 62
7
  6
CONTINUOUS
 10
140.6404568042
 20
110.3350141463
  0
VERTEX
  8
0
 62
7
  6
CONTINUOUS
 10
140.5596358626
 20
110.3060334964
  0
VERTEX
  8
0
 62
7
  6
CONTINUOUS
 10
140.4781774947
 20
110.2888959995
  0
VERTEX
  8
0
 62
7
  6
CONTINUOUS
 10
140.3964285714
 20
110.2832253032
  0
SEQEND
  0
LINE
  8
0
 62
7
  6
CONTINUOUS
 10
139.8464285714
 20
164.9664024585
 11
142.2464285714
 21
164.9664024585
  0
LINE
  8
0
 62
7
  6
CONTINUOUS
 10
142.2464285714
 20
168.4664024585
 11
139.8464285714
 21
168.4664024585
  0
POLYLINE
  8
0
 62
7
  6
CONTINUOUS
 66
1
 70
0
  0
VERTEX
  8
0
 62
7
  6
CONTINUOUS
 10
140.6848230869
 20
172.2764024585
  0
VERTEX
  8
0
 62
7
  6
CONTINUOUS
 10
140.7668764681
 20
172.2264044003
  0
VERTEX
  8
0
 62
7
  6
CONTINUOUS
 10
140.8464285714
 20
172.1644030094
  0
SEQEND
  0
POLYLINE
  8
0
 62
7
  6
CONTINUOUS
 66
1
 70
0
  0
VERTEX
  8
0
 62
7
  6
CONTINUOUS
 10
140.8464285714
 20
172.1644030094
  0
VERTEX
  8
0
 62
7
  6
CONTINUOUS
 10
140.9394044293
 20
172.0730323628
  0
VERTEX
  8
0
 62
7
  6
CONTINUOUS
 10
141.0148810081
 20
171.9784983583
  0
VERTEX
  8
0
 62
7
  6
CONTINUOUS
 10
141.072716385
 20
171.8843079749
  0
VERTEX
  8
0
 62
7
  6
CONTINUOUS
 10
141.1137057836
 20
171.7921713969
  0
VERTEX
  8
0
 62
7
  6
CONTINUOUS
 10
141.1383096735
 20
171.703265678
  0
VERTEX
  8
0
 62
7
  6
CONTINUOUS
 10
141.1464285714
 20
171.6202391839
  0
SEQEND
  0
POLYLINE
  8
0
 62
7
  6
CONTINUOUS
 66
1
 70
0
  0
VERTEX
  8
0
 62
7
  6
CONTINUOUS
 10
140.8464285714
 20
97.769969283
  0
VERTEX
  8
0
 62
7
  6
CONTINUOUS
 10
140.7840435855
 20
97.7194281189
  0
VERTEX
  8
0
 62
7
  6
CONTINUOUS
 10
140.7200730192
 20
97.6764024585
  0
SEQEND
  0
LINE
  8
0
 62
7
  6
CONTINUOUS
 10
138.9964285714
 20
169.7214024585
 11
131.8964285714
 21
169.7214024585
  0
LINE
  8
0
 62
7
  6
CONTINUOUS
 10
141.1464285714
 20
171.3264024585
 11
142.2464285714
 21
171.3264024585
  0
LINE
  8
0
 62
7
  6
CONTINUOUS
 10
139.8464285714
 20
172.3495796137
 11
140.3964285714
 21
172.3495796137
  0
LINE
  8
0
 62
7
  6
CONTINUOUS
 10
139.8464285714
 20
173.7832253032
 11
140.3964285714
 21
173.7832253032
  0
POLYLINE
  8
0
 62
7
  6
CONTINUOUS
 66
1
 70
0
  0
VERTEX
  8
0
 62
7
  6
CONTINUOUS
 10
140.6848230869
 20
172.2764024585
  0
VERTEX
  8
0
 62
7
  6
CONTINUOUS
 10
140.5896179887
 20
172.3174627353
  0
VERTEX
  8
0
 62
7
  6
CONTINUOUS
 10
140.4932569857
 20
172.3416142914
  0
VERTEX
  8
0
 62
7
  6
CONTINUOUS
 10
140.3964285714
 20
172.3495796137
  0
SEQEND
  0
POLYLINE
  8
0
 62
7
  6
CONTINUOUS
 66
1
 70
0
  0
VERTEX
  8
0
 62
7
  6
CONTINUOUS
 10
140.8464285714
 20
184.8644030094
  0
VERTEX
  8
0
 62
7
  6
CONTINUOUS
 10
140.9394044293
 20
184.7730323628
  0
VERTEX
  8
0
 62
7
  6
CONTINUOUS
 10
141.0148810081
 20
184.6784983583
  0
VERTEX
  8
0
 62
7
  6
CONTINUOUS
 10
141.072716385
 20
184.5843079749
  0
VERTEX
  8
0
 62
7
  6
CONTINUOUS
 10
141.1137057836
 20
184.4921713969
  0
VERTEX
  8
0
 62
7
  6
CONTINUOUS
 10
141.1383096735
 20
184.403265678
  0
VERTEX
  8
0
 62
7
  6
CONTINUOUS
 10
141.1464285714
 20
184.3202391839
  0
SEQEND
  0
POLYLINE
  8
0
 62
7
  6
CONTINUOUS
 66
1
 70
0
  0
VERTEX
  8
0
 62
7
  6
CONTINUOUS
 10
140.7200730192
 20
97.6764024585
  0
VERTEX
  8
0
 62
7
  6
CONTINUOUS
 10
140.6404568042
 20
97.6350141463
  0
VERTEX
  8
0
 62
7
  6
CONTINUOUS
 10
140.5596358626
 20
97.6060334964
  0
VERTEX
  8
0
 62
7
  6
CONTINUOUS
 10
140.4781774947
 20
97.5888959995
  0
VERTEX
  8
0
 62
7
  6
CONTINUOUS
 10
140.3964285714
 20
97.5832253032
  0
SEQEND
  0
LINE
  8
0
 62
7
  6
CONTINUOUS
 10
142.2464285714
 20
174.8264024585
 11
141.1464285714
 21
174.8264024585
  0
LINE
  8
0
 62
7
  6
CONTINUOUS
 10
131.8964285714
 20
176.4214024585
 11
138.9964285714
 21
176.4214024585
  0
LINE
  8
0
 62
7
  6
CONTINUOUS
 10
139.8464285714
 20
177.6664024585
 11
142.2464285714
 21
177.6664024585
  0
POLYLINE
  8
0
 62
7
  6
CONTINUOUS
 66
1
 70
0
  0
VERTEX
  8
0
 62
7
  6
CONTINUOUS
 10
140.8464285714
 20
85.069969283
  0
VERTEX
  8
0
 62
7
  6
CONTINUOUS
 10
140.7840435855
 20
85.0194281189
  0
VERTEX
  8
0
 62
7
  6
CONTINUOUS
 10
140.7200730192
 20
84.9764024585
  0
SEQEND
  0
LINE
  8
0
 62
7
  6
CONTINUOUS
 10
142.2464285714
 20
181.1664024585
 11
139.8464285714
 21
181.1664024585
  0
LINE
  8
0
 62
7
  6
CONTINUOUS
 10
138.9964285714
 20
182.4214024585
 11
131.8964285714
 21
182.4214024585
  0
LINE
  8
0
 62
7
  6
CONTINUOUS
 10
141.1464285714
 20
184.0264024585
 11
142.2464285714
 21
184.0264024585
  0
POLYLINE
  8
0
 62
7
  6
CONTINUOUS
 66
1
 70
0
  0
VERTEX
  8
0
 62
7
  6
CONTINUOUS
 10
140.6848230869
 20
184.9764024585
  0
VERTEX
  8
0
 62
7
  6
CONTINUOUS
 10
140.5896179887
 20
185.0174627353
  0
VERTEX
  8
0
 62
7
  6
CONTINUOUS
 10
140.4932569857
 20
185.0416142914
  0
VERTEX
  8
0
 62
7
  6
CONTINUOUS
 10
140.3964285714
 20
185.0495796137
  0
SEQEND
  0
POLYLINE
  8
0
 62
7
  6
CONTINUOUS
 66
1
 70
0
  0
VERTEX
  8
0
 62
7
  6
CONTINUOUS
 10
140.6848230869
 20
184.9764024585
  0
VERTEX
  8
0
 62
7
  6
CONTINUOUS
 10
140.7668764681
 20
184.9264044003
  0
VERTEX
  8
0
 62
7
  6
CONTINUOUS
 10
140.8464285714
 20
184.8644030094
  0
SEQEND
  0
POLYLINE
  8
0
 62
7
  6
CONTINUOUS
 66
1
 70
0
  0
VERTEX
  8
0
 62
7
  6
CONTINUOUS
 10
140.8464285714
 20
197.5592268815
  0
VERTEX
  8
0
 62
7
  6
CONTINUOUS
 10
140.853053116
 20
197.5528560532
  0
VERTEX
  8
0
 62
7
  6
CONTINUOUS
 10
140.8596258611
 20
197.5464024585
  0
SEQEND
  0
POLYLINE
  8
0
 62
7
  6
CONTINUOUS
 66
1
 70
0
  0
VERTEX
  8
0
 62
7
  6
CONTINUOUS
 10
140.8596258611
 20
197.5464024585
  0
VERTEX
  8
0
 62
7
  6
CONTINUOUS
 10
140.9375397185
 20
197.46122149
  0
VERTEX
  8
0
 62
7
  6
CONTINUOUS
 10
141.0028575592
 20
197.3742230076
  0
VERTEX
  8
0
 62
7
  6
CONTINUOUS
 10
141.0553667437
 20
197.2877830148
  0
VERTEX
  8
0
 62
7
  6
CONTINUOUS
 10
141.095711694
 20
197.2027741774
  0
VERTEX
  8
0
 62
7
  6
CONTINUOUS
 10
141.1241888941
 20
197.1202078709
  0
VERTEX
  8
0
 62
7
  6
CONTINUOUS
 10
141.1409398582
 20
197.0416299758
  0
VERTEX
  8
0
 62
7
  6
CONTINUOUS
 10
141.1464285714
 20
196.9677794622
  0
SEQEND
  0
POLYLINE
  8
0
 62
7
  6
CONTINUOUS
 66
1
 70
0
  0
VERTEX
  8
0
 62
7
  6
CONTINUOUS
 10
140.7200730192
 20
84.9764024585
  0
VERTEX
  8
0
 62
7
  6
CONTINUOUS
 10
140.6404568042
 20
84.9350141463
  0
VERTEX
  8
0
 62
7
  6
CONTINUOUS
 10
140.5596358626
 20
84.9060334964
  0
VERTEX
  8
0
 62
7
  6
CONTINUOUS
 10
140.4781774947
 20
84.8888959995
  0
VERTEX
  8
0
 62
7
  6
CONTINUOUS
 10
140.3964285714
 20
84.8832253032
  0
SEQEND
  0
LINE
  8
0
 62
7
  6
CONTINUOUS
 10
139.8464285714
 20
185.0495796137
 11
140.3964285714
 21
185.0495796137
  0
LINE
  8
0
 62
7
  6
CONTINUOUS
 10
139.8464285714
 20
186.4832253032
 11
140.3964285714
 21
186.4832253032
  0
LINE
  8
0
 62
7
  6
CONTINUOUS
 10
142.2464285714
 20
187.5264024585
 11
141.1464285714
 21
187.5264024585
  0
LINE
  8
0
 62
7
  6
CONTINUOUS
 10
131.8964285714
 20
189.1214024585
 11
138.9964285714
 21
189.1214024585
  0
POLYLINE
  8
0
 62
7
  6
CONTINUOUS
 66
1
 70
0
  0
VERTEX
  8
0
 62
7
  6
CONTINUOUS
 10
140.8464285714
 20
197.5592268815
  0
VERTEX
  8
0
 62
7
  6
CONTINUOUS
 10
140.7607459103
 20
197.629747048
  0
VERTEX
  8
0
 62
7
  6
CONTINUOUS
 10
140.6717174521
 20
197.6831469737
  0
VERTEX
  8
0
 62
7
  6
CONTINUOUS
 10
140.5807562355
 20
197.7203872306
  0
VERTEX
  8
0
 62
7
  6
CONTINUOUS
 10
140.4888069025
 20
197.7423323602
  0
VERTEX
  8
0
 62
7
  6
CONTINUOUS
 10
140.3964285714
 20
197.7495796137
  0
SEQEND
  0
LINE
  8
0
 62
7
  6
CONTINUOUS
 10
139.8464285714
 20
190.3664024585
 11
142.2464285714
 21
190.3664024585
  0
LINE
  8
0
 62
7
  6
CONTINUOUS
 10
142.2464285714
 20
193.8664024585
 11
139.8464285714
 21
193.8664024585
  0
POLYLINE
  8
0
 62
7
  6
CONTINUOUS
 66
1
 70
0
  0
VERTEX
  8
0
 62
7
  6
CONTINUOUS
 10
140.8464285714
 20
72.2218924745
  0
VERTEX
  8
0
 62
7
  6
CONTINUOUS
 10
140.7668957621
 20
72.1795432395
  0
VERTEX
  8
0
 62
7
  6
CONTINUOUS
 10
140.6802170166
 20
72.14402013
  0
VERTEX
  8
0
 62
7
  6
CONTINUOUS
 10
140.5881322687
 20
72.1172603874
  0
VERTEX
  8
0
 62
7
  6
CONTINUOUS
 10
140.4927687842
 20
72.1007296279
  0
VERTEX
  8
0
 62
7
  6
CONTINUOUS
 10
140.3964285714
 20
72.0951850817
  0
SEQEND
  0
LINE
  8
0
 62
7
  6
CONTINUOUS
 10
138.9964285714
 20
195.1214024585
 11
131.8964285714
 21
195.1214024585
  0
LINE
  8
0
 62
7
  6
CONTINUOUS
 10
135.0464465443
 20
195.8214024585
 11
135.8464105985
 21
195.8214024585
  0
LINE
  8
0
 62
7
  6
CONTINUOUS
 10
141.1464285714
 20
196.5964024585
 11
142.2464285714
 21
196.5964024585
  0
LINE
  8
0
 62
7
  6
CONTINUOUS
 10
139.8464285714
 20
197.7495796137
 11
140.3964285714
 21
197.7495796137
  0
LINE
  8
0
 62
7
  6
CONTINUOUS
 10
140.3964285714
 20
199.0951850817
 11
139.8464285714
 21
199.0951850817
  0
LINE
  8
0
 62
7
  6
CONTINUOUS
 10
142.2464285714
 20
199.5964024585
 11
141.1464285714
 21
199.5964024585
  0
LINE
  8
0
 62
7
  6
CONTINUOUS
 10
138.9964285714
 20
201.8214024585
 11
131.8964285714
 21
201.8214024585
  0
LINE
  8
0
 62
7
  6
CONTINUOUS
 10
131.8964285714
 20
202.5714024585
 11
138.9964285714
 21
202.5714024585
  0
LINE
  8
0
 62
7
  6
CONTINUOUS
 10
139.8464285714
 20
203.6964024585
 11
142.2464285714
 21
203.6964024585
  0
LINE
  8
0
 62
7
  6
CONTINUOUS
 10
142.2464285714
 20
206.6964024585
 11
139.8464285714
 21
206.6964024585
  0
LINE
  8
0
 62
7
  6
CONTINUOUS
 10
138.9964285714
 20
207.8214024585
 11
131.8964285714
 21
207.8214024585
  0
LINE
  8
0
 62
7
  6
CONTINUOUS
 10
135.0464465443
 20
208.5214024585
 11
135.8464105985
 21
208.5214024585
  0
LINE
  8
0
 62
7
  6
CONTINUOUS
 10
131.8964285714
 20
214.1714024585
 11
138.9964285714
 21
214.1714024585
  0
LINE
  8
2_FEATURE
 62
7
  6
CONTINUOUS
 10
132.8306112995
 20
214.1714024585
 11
138.0622458433
 21
214.1714024585
  0
LINE
  8
DEFAULT_1
 62
2
  6
CENTER
 10
54.0147773237
 20
272.6096153846
 11
54.0147773237
 21
270.2097153846
  0
LINE
  8
0
 62
2
  6
CONTINUOUS
 10
54.0147773237
 20
269.0896153846
 11
54.0147773237
 21
267.3296153846
  0
LINE
  8
DEFAULT_1
 62
2
  6
CENTER
 10
54.0147773237
 20
263.8096153846
 11
54.0147773237
 21
266.2095153846
  0
LINE
  8
0
 62
7
  6
CONTINUOUS
 10
54.1647773237
 20
272.6096153846
 11
54.1647773237
 21
273.6096153846
  0
LINE
  8
0
 62
7
  6
CONTINUOUS
 10
79.5647773237
 20
263.8096153846
 11
53.8647773237
 21
263.8096153846
  0
LINE
  8
0
 62
7
  6
CONTINUOUS
 10
62.8581739892
 20
272.6096153846
 11
62.8581739892
 21
273.1596153846
  0
LINE
  8
1_AXIS
 62
2
  6
CONTINUOUS
 10
80.2947773237
 20
268.2096153846
 11
78.5347773237
 21
268.2096153846
  0
LINE
  8
1_AXIS
 62
2
  6
CENTER
 10
75.0147773237
 20
268.2096153846
 11
74.8147773237
 21
268.2096153846
  0
LINE
  8
DEFAULT_1
 62
2
  6
CENTER
 10
58.4147773237
 20
268.2096153846
 11
56.0148773237
 21
268.2096153846
  0
LINE
  8
0
 62
2
  6
CONTINUOUS
 10
54.8947773237
 20
268.2096153846
 11
53.1347773237
 21
268.2096153846
  0
LINE
  8
DEFAULT_1
 62
2
  6
CENTER
 10
49.6147773237
 20
268.2096153846
 11
52.0146773237
 21
268.2096153846
  0
LINE
  8
1_AXIS
 62
2
  6
CENTER
 10
83.8147773237
 20
268.2096153846
 11
84.0147773237
 21
268.2096153846
  0
LINE
  8
1_AXIS
 62
2
  6
CENTER
 10
66.7147773237
 20
261.2096153846
 11
66.7147773237
 21
277.9596153846
  0
LINE
  8
0
 62
7
  6
CONTINUOUS
 10
68.6347773237
 20
272.6096153846
 11
68.6347773237
 21
273.6096153846
  0
LINE
  8
0
 62
7
  6
CONTINUOUS
 10
53.8647773237
 20
272.6096153846
 11
79.5647773237
 21
272.6096153846
  0
POLYLINE
  8
0
 62
7
  6
CONTINUOUS
 66
1
 70
0
  0
VERTEX
  8
0
 62
7
  6
CONTINUOUS
 10
63.8159457218
 20
273.8922763547
  0
VERTEX
  8
0
 62
7
  6
CONTINUOUS
 10
63.5912977231
 20
273.8475919721
  0
VERTEX
  8
0
 62
7
  6
CONTINUOUS
 10
63.4010493546
 20
273.7838214286
  0
VERTEX
  8
0
 62
7
  6
CONTINUOUS
 10
63.2426426253
 20
273.7064478132
  0
VERTEX
  8
0
 62
7
  6
CONTINUOUS
 10
63.1143989029
 20
273.6197646447
  0
VERTEX
  8
0
 62
7
  6
CONTINUOUS
 10
63.0148335483
 20
273.527543943
  0
VERTEX
  8
0
 62
7
  6
CONTINUOUS
 10
62.9422828075
 20
273.4334627972
  0
VERTEX
  8
0
 62
7
  6
CONTINUOUS
 10
62.8941416361
 20
273.3405172635
  0
VERTEX
  8
0
 62
7
  6
CONTINUOUS
 10
62.8669489122
 20
273.2494729794
  0
VERTEX
  8
0
 62
7
  6
CONTINUOUS
 10
62.8581739892
 20
273.1596153846
  0
SEQEND
  0
POLYLINE
  8
0
 62
7
  6
CONTINUOUS
 66
1
 70
0
  0
VERTEX
  8
0
 62
7
  6
CONTINUOUS
 10
63.8159457218
 20
273.8922763547
  0
VERTEX
  8
0
 62
7
  6
CONTINUOUS
 10
63.8943076148
 20
273.9015754164
  0
VERTEX
  8
0
 62
7
  6
CONTINUOUS
 10
63.9698036044
 20
273.9075419845
  0
VERTEX
  8
0
 62
7
  6
CONTINUOUS
 10
64.0417952853
 20
273.9096153846
  0
SEQEND
  0
LINE
  8
0
 62
7
  6
CONTINUOUS
 10
64.0417952853
 20
273.9096153846
 11
68.6544403625
 21
273.9096153846
  0
LINE
  8
0
 62
7
  6
CONTINUOUS
 10
56.5147773237
 20
275.9596153846
 11
62.4447773237
 21
275.9596153846
  0
LINE
  8
0
 62
7
  6
CONTINUOUS
 10
70.9847773237
 20
275.9596153846
 11
76.9147773237
 21
275.9596153846
  0
LINE
  8
0
 62
7
  6
CONTINUOUS
 10
79.2647773237
 20
273.6096153846
 11
79.2647773237
 21
272.6096153846
  0
LINE
  8
1_AXIS
 62
2
  6
CONTINUOUS
 10
79.4147773237
 20
269.0896153846
 11
79.4147773237
 21
267.3296153846
  0
LINE
  8
1_AXIS
 62
2
  6
CENTER
 10
79.4147773237
 20
263.8096153846
 11
79.4147773237
 21
263.6096153846
  0
LINE
  8
1_AXIS
 62
2
  6
CENTER
 10
79.4147773237
 20
272.6096153846
 11
79.4147773237
 21
272.8096153846
  0
ARC
  8
0
 62
7
  6
CONTINUOUS
 10
56.7323831724
 20
83.2744201679
 40
2.5
 50
281.1254404366
 51
315.4760710954
  0
ARC
  8
0
 62
7
  6
CONTINUOUS
 10
56.7323831724
 20
70.5744201679
 40
2.5
 50
281.1254404366
 51
315.4760710954
  0
ARC
  8
0
 62
7
  6
CONTINUOUS
 10
55.1147773237
 20
91.3164024585
 40
0.95
 50
90.0
 51
180.0
  0
ARC
  8
0
 62
7
  6
CONTINUOUS
 10
55.1147773237
 20
89.7164024585
 40
0.95
 50
180.0
 51
270.0
  0
ARC
  8
0
 62
7
  6
CONTINUOUS
 10
55.1147773237
 20
78.7464024585
 40
0.95
 50
90.0
 51
180.0
  0
ARC
  8
0
 62
7
  6
CONTINUOUS
 10
55.1147773237
 20
77.6464024585
 40
0.95
 50
180.0
 51
270.0
  0
ARC
  8
0
 62
7
  6
CONTINUOUS
 10
50.3147773237
 20
62.9714024585
 40
0.85
 50
180.0
 51
270.0000000258
  0
ARC
  8
0
 62
7
  6
CONTINUOUS
 10
50.3147773237
 20
76.4214024585
 40
0.85
 50
180.0
 51
270.0000000258
  0
ARC
  8
0
 62
7
  6
CONTINUOUS
 10
50.3147773237
 20
67.2714024585
 40
0.85
 50
89.9999999742
 51
180.0
  0
ARC
  8
0
 62
7
  6
CONTINUOUS
 10
50.3147773237
 20
79.9714024585
 40
0.85
 50
89.9999999742
 51
180.0
  0
ARC
  8
0
 62
7
  6
CONTINUOUS
 10
50.3147773237
 20
88.3714024585
 40
0.85
 50
180.0
 51
270.0000000258
  0
ARC
  8
0
 62
7
  6
CONTINUOUS
 10
50.3147773237
 20
92.6714024585
 40
0.85
 50
89.9999999742
 51
180.0
  0
ARC
  8
0
 62
7
  6
CONTINUOUS
 10
57.121944643
 20
75.3214024585
 40
0.25
 50
18.553004413
 51
89.9999994921
  0
ARC
  8
0
 62
7
  6
CONTINUOUS
 10
55.1147773237
 20
129.4164024585
 40
0.95
 50
90.0
 51
180.0
  0
ARC
  8
0
 62
7
  6
CONTINUOUS
 10
55.1147773237
 20
127.8164024585
 40
0.95
 50
180.0
 51
270.0
  0
ARC
  8
0
 62
7
  6
CONTINUOUS
 10
55.1147773237
 20
116.7164024585
 40
0.95
 50
90.0
 51
180.0
  0
ARC
  8
0
 62
7
  6
CONTINUOUS
 10
55.1147773237
 20
115.1164024585
 40
0.95
 50
180.0
 51
270.0
  0
ARC
  8
0
 62
7
  6
CONTINUOUS
 10
55.1147773237
 20
104.0164024585
 40
0.95
 50
90.0
 51
180.0
  0
ARC
  8
0
 62
7
  6
CONTINUOUS
 10
55.1147773237
 20
102.4164024585
 40
0.95
 50
180.0
 51
270.0
  0
ARC
  8
0
 62
7
  6
CONTINUOUS
 10
50.3147773237
 20
101.0714024585
 40
0.85
 50
180.0
 51
270.0000000258
  0
ARC
  8
0
 62
7
  6
CONTINUOUS
 10
50.3147773237
 20
105.3714024585
 40
0.85
 50
89.9999999742
 51
180.0
  0
ARC
  8
0
 62
7
  6
CONTINUOUS
 10
50.3147773237
 20
113.7714024585
 40
0.85
 50
180.0
 51
270.0000000258
  0
ARC
  8
0
 62
7
  6
CONTINUOUS
 10
50.3147773237
 20
118.0714024585
 40
0.85
 50
89.9999999742
 51
180.0
  0
ARC
  8
0
 62
7
  6
CONTINUOUS
 10
50.3147773237
 20
126.4714024585
 40
0.85
 50
180.0
 51
270.0000000258
  0
ARC
  8
0
 62
7
  6
CONTINUOUS
 10
50.3147773237
 20
130.7714024585
 40
0.85
 50
89.9999999742
 51
180.0
  0
ARC
  8
0
 62
7
  6
CONTINUOUS
 10
61.0971714749
 20
83.2744201679
 40
2.5
 50
224.5239289046
 51
258.8745595634
  0
ARC
  8
0
 62
7
  6
CONTINUOUS
 10
61.0971714749
 20
70.5744201679
 40
2.5
 50
224.5239289046
 51
258.8745595634
  0
ARC
  8
0
 62
7
  6
CONTINUOUS
 10
58.1647773237
 20
75.6714024585
 40
0.85
 50
198.5530045709
 51
270.0
  0
ARC
  8
0
 62
7
  6
CONTINUOUS
 10
63.6847773237
 20
68.3714024585
 40
0.25
 50
270.0000006709
 51
360.0
  0
ARC
  8
0
 62
7
  6
CONTINUOUS
 10
63.6847773237
 20
74.5714024585
 40
0.25
 50
0.0
 51
89.9999993292
  0
ARC
  8
0
 62
7
  6
CONTINUOUS
 10
63.8447773237
 20
78.7464024585
 40
0.95
 50
77.7240127976
 51
90.0
  0
ARC
  8
0
 62
7
  6
CONTINUOUS
 10
63.8447773237
 20
77.6464024585
 40
0.95
 50
322.2398058283
 51
360.0
  0
ARC
  8
0
 62
7
  6
CONTINUOUS
 10
63.6847773237
 20
81.0714024585
 40
0.25
 50
270.0000006709
 51
360.0
  0
ARC
  8
0
 62
7
  6
CONTINUOUS
 10
64.4768007448
 20
69.1214024585
 40
1.0
 50
270.0
 51
310.217
  0
ARC
  8
0
 62
7
  6
CONTINUOUS
 10
64.4768007448
 20
73.8214024585
 40
1.0
 50
49.783
 51
90.0
  0
ARC
  8
0
 62
7
  6
CONTINUOUS
 10
64.4768007448
 20
81.8214024585
 40
1.0
 50
270.0
 51
310.217
  0
ARC
  8
0
 62
7
  6
CONTINUOUS
 10
63.8447773237
 20
91.3164024585
 40
0.95
 50
86.324560216
 51
90.0
  0
ARC
  8
0
 62
7
  6
CONTINUOUS
 10
63.8447773237
 20
91.3164024585
 40
0.95
 50
0.0
 51
6.2131352132
  0
ARC
  8
0
 62
7
  6
CONTINUOUS
 10
63.8447773237
 20
89.7164024585
 40
0.95
 50
353.7868647868
 51
360.0
  0
ARC
  8
0
 62
7
  6
CONTINUOUS
 10
63.8447773237
 20
89.7164024585
 40
0.95
 50
270.0
 51
273.675439784
  0
ARC
  8
0
 62
7
  6
CONTINUOUS
 10
63.6847773237
 20
87.2714024585
 40
0.25
 50
0.0
 51
89.9999993292
  0
ARC
  8
0
 62
7
  6
CONTINUOUS
 10
63.6847773237
 20
99.9714024585
 40
0.25
 50
0.0
 51
89.9999993292
  0
ARC
  8
0
 62
7
  6
CONTINUOUS
 10
63.6847773237
 20
93.7714024585
 40
0.25
 50
270.0000006709
 51
360.0
  0
ARC
  8
0
 62
7
  6
CONTINUOUS
 10
64.4768007448
 20
86.5214024585
 40
1.0
 50
49.783
 51
90.0
  0
ARC
  8
0
 62
7
  6
CONTINUOUS
 10
64.4768007448
 20
94.5214024585
 40
1.0
 50
270.0
 51
310.217
  0
ARC
  8
0
 62
7
  6
CONTINUOUS
 10
64.4768007448
 20
99.2214024585
 40
1.0
 50
49.783
 51
90.0
  0
ARC
  8
0
 62
7
  6
CONTINUOUS
 10
63.8447773237
 20
116.7164024585
 40
0.95
 50
86.324560216
 51
90.0
  0
ARC
  8
0
 62
7
  6
CONTINUOUS
 10
63.8447773237
 20
116.7164024585
 40
0.95
 50
0.0
 51
6.2131352132
  0
ARC
  8
0
 62
7
  6
CONTINUOUS
 10
63.8447773237
 20
115.1164024585
 40
0.95
 50
353.7868647868
 51
360.0
  0
ARC
  8
0
 62
7
  6
CONTINUOUS
 10
63.8447773237
 20
115.1164024585
 40
0.95
 50
270.0
 51
273.675439784
  0
ARC
  8
0
 62
7
  6
CONTINUOUS
 10
63.8447773237
 20
104.0164024585
 40
0.95
 50
86.324560216
 51
90.0
  0
ARC
  8
0
 62
7
  6
CONTINUOUS
 10
63.8447773237
 20
104.0164024585
 40
0.95
 50
0.0
 51
6.2131352132
  0
ARC
  8
0
 62
7
  6
CONTINUOUS
 10
63.8447773237
 20
102.4164024585
 40
0.95
 50
353.7868647868
 51
360.0
  0
ARC
  8
0
 62
7
  6
CONTINUOUS
 10
63.8447773237
 20
102.4164024585
 40
0.95
 50
270.0
 51
273.675439784
  0
ARC
  8
0
 62
7
  6
CONTINUOUS
 10
63.6847773237
 20
119.1714024585
 40
0.25
 50
270.0000006709
 51
360.0
  0
ARC
  8
0
 62
7
  6
CONTINUOUS
 10
63.6847773237
 20
112.6714024585
 40
0.25
 50
0.0
 51
89.9999993292
  0
ARC
  8
0
 62
7
  6
CONTINUOUS
 10
63.6847773237
 20
106.4714024585
 40
0.25
 50
270.0000006709
 51
360.0
  0
ARC
  8
0
 62
7
  6
CONTINUOUS
 10
63.8447773237
 20
129.4164024585
 40
0.95
 50
86.324560216
 51
90.0
  0
ARC
  8
0
 62
7
  6
CONTINUOUS
 10
63.8447773237
 20
129.4164024585
 40
0.95
 50
0.0
 51
6.2131352132
  0
ARC
  8
0
 62
7
  6
CONTINUOUS
 10
63.8447773237
 20
127.8164024585
 40
0.95
 50
353.7868647868
 51
360.0
  0
ARC
  8
0
 62
7
  6
CONTINUOUS
 10
63.8447773237
 20
127.8164024585
 40
0.95
 50
270.0
 51
273.675439784
  0
ARC
  8
0
 62
7
  6
CONTINUOUS
 10
63.6847773237
 20
138.0714024585
 40
0.25
 50
0.0
 51
89.9999993292
  0
ARC
  8
0
 62
7
  6
CONTINUOUS
 10
63.6847773237
 20
131.8714024585
 40
0.25
 50
270.0000006709
 51
360.0
  0
ARC
  8
0
 62
7
  6
CONTINUOUS
 10
63.6847773237
 20
125.3714024585
 40
0.25
 50
0.0
 51
89.9999993292
  0
ARC
  8
0
 62
7
  6
CONTINUOUS
 10
64.4768007448
 20
119.9214024585
 40
1.0
 50
270.0
 51
310.217
  0
ARC
  8
0
 62
7
  6
CONTINUOUS
 10
64.4768007448
 20
107.2214024585
 40
1.0
 50
270.0
 51
310.217
  0
ARC
  8
0
 62
7
  6
CONTINUOUS
 10
64.4768007448
 20
111.9214024585
 40
1.0
 50
49.783
 51
90.0
  0
ARC
  8
0
 62
7
  6
CONTINUOUS
 10
64.4768007448
 20
132.6214024585
 40
1.0
 50
270.0
 51
310.217
  0
ARC
  8
0
 62
7
  6
CONTINUOUS
 10
64.4768007448
 20
137.3214024585
 40
1.0
 50
49.783
 51
90.0
  0
ARC
  8
0
 62
7
  6
CONTINUOUS
 10
64.4768007448
 20
124.6214024585
 40
1.0
 50
49.783
 51
90.0
  0
ARC
  8
0
 62
7
  6
CONTINUOUS
 10
55.1147773237
 20
167.5164024585
 40
0.95
 50
90.0
 51
180.0
  0
ARC
  8
0
 62
7
  6
CONTINUOUS
 10
55.1147773237
 20
165.9164024585
 40
0.95
 50
180.0
 51
270.0
  0
ARC
  8
0
 62
7
  6
CONTINUOUS
 10
55.1147773237
 20
154.8164024585
 40
0.95
 50
90.0
 51
180.0
  0
ARC
  8
0
 62
7
  6
CONTINUOUS
 10
55.1147773237
 20
153.2164024585
 40
0.95
 50
180.0
 51
270.0
  0
ARC
  8
0
 62
7
  6
CONTINUOUS
 10
55.1147773237
 20
142.1164024585
 40
0.95
 50
90.0
 51
180.0
  0
ARC
  8
0
 62
7
  6
CONTINUOUS
 10
55.1147773237
 20
140.5164024585
 40
0.95
 50
180.0
 51
270.0
  0
ARC
  8
0
 62
7
  6
CONTINUOUS
 10
50.3147773237
 20
139.1714024585
 40
0.85
 50
180.0
 51
270.0000000258
  0
ARC
  8
0
 62
7
  6
CONTINUOUS
 10
50.3147773237
 20
143.4714024585
 40
0.85
 50
89.9999999742
 51
180.0
  0
ARC
  8
0
 62
7
  6
CONTINUOUS
 10
50.3147773237
 20
151.8714024585
 40
0.85
 50
180.0
 51
270.0000000258
  0
ARC
  8
0
 62
7
  6
CONTINUOUS
 10
50.3147773237
 20
156.1714024585
 40
0.85
 50
89.9999999742
 51
180.0
  0
ARC
  8
0
 62
7
  6
CONTINUOUS
 10
50.3147773237
 20
164.5714024585
 40
0.85
 50
180.0
 51
270.0000000258
  0
ARC
  8
0
 62
7
  6
CONTINUOUS
 10
50.3147773237
 20
168.8714024585
 40
0.85
 50
89.9999999742
 51
180.0
  0
ARC
  8
0
 62
7
  6
CONTINUOUS
 10
56.7323831724
 20
210.2744201679
 40
2.5
 50
281.1254404366
 51
315.4760710954
  0
ARC
  8
0
 62
7
  6
CONTINUOUS
 10
56.7323831724
 20
197.5744201679
 40
2.5
 50
281.1254404366
 51
315.4760710954
  0
ARC
  8
0
 62
7
  6
CONTINUOUS
 10
55.1147773237
 20
205.7464024585
 40
0.95
 50
90.0
 51
180.0
  0
ARC
  8
0
 62
7
  6
CONTINUOUS
 10
55.1147773237
 20
204.6464024585
 40
0.95
 50
180.0
 51
270.0
  0
ARC
  8
0
 62
7
  6
CONTINUOUS
 10
55.1147773237
 20
192.9164024585
 40
0.95
 50
90.0
 51
180.0
  0
ARC
  8
0
 62
7
  6
CONTINUOUS
 10
55.1147773237
 20
191.3164024585
 40
0.95
 50
180.0
 51
270.0
  0
ARC
  8
0
 62
7
  6
CONTINUOUS
 10
55.1147773237
 20
180.2164024585
 40
0.95
 50
90.0
 51
180.0
  0
ARC
  8
0
 62
7
  6
CONTINUOUS
 10
55.1147773237
 20
178.6164024585
 40
0.95
 50
180.0
 51
270.0
  0
ARC
  8
0
 62
7
  6
CONTINUOUS
 10
50.3147773237
 20
206.9714024585
 40
0.85
 50
89.9999999742
 51
180.0
  0
ARC
  8
0
 62
7
  6
CONTINUOUS
 10
50.3147773237
 20
203.4214024585
 40
0.85
 50
180.0
 51
270.0000000258
  0
ARC
  8
0
 62
7
  6
CONTINUOUS
 10
50.3147773237
 20
177.2714024585
 40
0.85
 50
180.0
 51
270.0000000258
  0
ARC
  8
0
 62
7
  6
CONTINUOUS
 10
50.3147773237
 20
181.5714024585
 40
0.85
 50
89.9999999742
 51
180.0
  0
ARC
  8
0
 62
7
  6
CONTINUOUS
 10
50.3147773237
 20
189.9714024585
 40
0.85
 50
180.0
 51
270.0000000258
  0
ARC
  8
0
 62
7
  6
CONTINUOUS
 10
50.3147773237
 20
194.2714024585
 40
0.85
 50
89.9999999742
 51
180.0
  0
ARC
  8
0
 62
7
  6
CONTINUOUS
 10
57.121944643
 20
202.3214024585
 40
0.25
 50
18.553004413
 51
89.9999994921
  0
ARC
  8
0
 62
7
  6
CONTINUOUS
 10
63.8447773237
 20
154.8164024585
 40
0.95
 50
86.324560216
 51
90.0
  0
ARC
  8
0
 62
7
  6
CONTINUOUS
 10
63.8447773237
 20
154.8164024585
 40
0.95
 50
0.0
 51
6.2131352132
  0
ARC
  8
0
 62
7
  6
CONTINUOUS
 10
63.8447773237
 20
153.2164024585
 40
0.95
 50
353.7868647868
 51
360.0
  0
ARC
  8
0
 62
7
  6
CONTINUOUS
 10
63.8447773237
 20
153.2164024585
 40
0.95
 50
270.0
 51
273.675439784
  0
ARC
  8
0
 62
7
  6
CONTINUOUS
 10
63.8447773237
 20
142.1164024585
 40
0.95
 50
86.324560216
 51
90.0
  0
ARC
  8
0
 62
7
  6
CONTINUOUS
 10
63.8447773237
 20
142.1164024585
 40
0.95
 50
0.0
 51
6.2131352132
  0
ARC
  8
0
 62
7
  6
CONTINUOUS
 10
63.8447773237
 20
140.5164024585
 40
0.95
 50
353.7868647868
 51
360.0
  0
ARC
  8
0
 62
7
  6
CONTINUOUS
 10
63.8447773237
 20
140.5164024585
 40
0.95
 50
270.0
 51
273.675439784
  0
ARC
  8
0
 62
7
  6
CONTINUOUS
 10
63.6847773237
 20
157.2714024585
 40
0.25
 50
270.0000006709
 51
360.0
  0
ARC
  8
0
 62
7
  6
CONTINUOUS
 10
63.6847773237
 20
150.7714024585
 40
0.25
 50
0.0
 51
89.9999993292
  0
ARC
  8
0
 62
7
  6
CONTINUOUS
 10
63.6847773237
 20
144.5714024585
 40
0.25
 50
270.0000006709
 51
360.0
  0
ARC
  8
0
 62
7
  6
CONTINUOUS
 10
63.8447773237
 20
167.5164024585
 40
0.95
 50
86.324560216
 51
90.0
  0
ARC
  8
0
 62
7
  6
CONTINUOUS
 10
63.8447773237
 20
167.5164024585
 40
0.95
 50
0.0
 51
6.2131352132
  0
ARC
  8
0
 62
7
  6
CONTINUOUS
 10
63.8447773237
 20
165.9164024585
 40
0.95
 50
353.7868647868
 51
360.0
  0
ARC
  8
0
 62
7
  6
CONTINUOUS
 10
63.8447773237
 20
165.9164024585
 40
0.95
 50
270.0
 51
273.675439784
  0
ARC
  8
0
 62
7
  6
CONTINUOUS
 10
63.6847773237
 20
169.9714024585
 40
0.25
 50
270.0000006709
 51
360.0
  0
ARC
  8
0
 62
7
  6
CONTINUOUS
 10
63.6847773237
 20
163.4714024585
 40
0.25
 50
0.0
 51
89.9999993292
  0
ARC
  8
0
 62
7
  6
CONTINUOUS
 10
64.4768007448
 20
145.3214024585
 40
1.0
 50
270.0
 51
310.217
  0
ARC
  8
0
 62
7
  6
CONTINUOUS
 10
64.4768007448
 20
150.0214024585
 40
1.0
 50
49.783
 51
90.0
  0
ARC
  8
0
 62
7
  6
CONTINUOUS
 10
64.4768007448
 20
170.7214024585
 40
1.0
 50
270.0
 51
310.217
  0
ARC
  8
0
 62
7
  6
CONTINUOUS
 10
64.4768007448
 20
158.0214024585
 40
1.0
 50
270.0
 51
310.217
  0
ARC
  8
0
 62
7
  6
CONTINUOUS
 10
64.4768007448
 20
175.4214024585
 40
1.0
 50
49.783
 51
90.0
  0
ARC
  8
0
 62
7
  6
CONTINUOUS
 10
64.4768007448
 20
162.7214024585
 40
1.0
 50
49.783
 51
90.0
  0
ARC
  8
0
 62
7
  6
CONTINUOUS
 10
61.0971714749
 20
210.2744201679
 40
2.5
 50
224.5239289046
 51
258.8745595634
  0
ARC
  8
0
 62
7
  6
CONTINUOUS
 10
61.0971714749
 20
197.5744201679
 40
2.5
 50
224.5239289046
 51
258.8745595634
  0
ARC
  8
0
 62
7
  6
CONTINUOUS
 10
58.1647773237
 20
202.6714024585
 40
0.85
 50
198.5530045709
 51
270.0
  0
ARC
  8
0
 62
7
  6
CONTINUOUS
 10
64.4768007448
 20
183.4214024585
 40
1.0
 50
270.0
 51
310.217
  0
ARC
  8
0
 62
7
  6
CONTINUOUS
 10
64.4768007448
 20
188.1214024585
 40
1.0
 50
49.783
 51
90.0
  0
ARC
  8
0
 62
7
  6
CONTINUOUS
 10
63.8447773237
 20
192.9164024585
 40
0.95
 50
86.324560216
 51
90.0
  0
ARC
  8
0
 62
7
  6
CONTINUOUS
 10
63.8447773237
 20
192.9164024585
 40
0.95
 50
0.0
 51
6.2131352132
  0
ARC
  8
0
 62
7
  6
CONTINUOUS
 10
63.8447773237
 20
191.3164024585
 40
0.95
 50
353.7868647868
 51
360.0
  0
ARC
  8
0
 62
7
  6
CONTINUOUS
 10
63.8447773237
 20
191.3164024585
 40
0.95
 50
270.0
 51
273.675439784
  0
ARC
  8
0
 62
7
  6
CONTINUOUS
 10
63.8447773237
 20
180.2164024585
 40
0.95
 50
86.324560216
 51
90.0
  0
ARC
  8
0
 62
7
  6
CONTINUOUS
 10
63.8447773237
 20
180.2164024585
 40
0.95
 50
0.0
 51
6.2131352132
  0
ARC
  8
0
 62
7
  6
CONTINUOUS
 10
63.8447773237
 20
178.6164024585
 40
0.95
 50
353.7868647868
 51
360.0
  0
ARC
  8
0
 62
7
  6
CONTINUOUS
 10
63.8447773237
 20
178.6164024585
 40
0.95
 50
270.0
 51
273.675439784
  0
ARC
  8
0
 62
7
  6
CONTINUOUS
 10
63.6847773237
 20
188.8714024585
 40
0.25
 50
0.0
 51
89.9999993292
  0
ARC
  8
0
 62
7
  6
CONTINUOUS
 10
63.6847773237
 20
182.6714024585
 40
0.25
 50
270.0000006709
 51
360.0
  0
ARC
  8
0
 62
7
  6
CONTINUOUS
 10
63.6847773237
 20
176.1714024585
 40
0.25
 50
0.0
 51
89.9999993292
  0
ARC
  8
0
 62
7
  6
CONTINUOUS
 10
65.9347773237
 20
212.1714024585
 40
2.0
 50
90.0
 51
180.0000009511
  0
ARC
  8
0
 62
7
  6
CONTINUOUS
 10
64.4768007448
 20
196.1214024585
 40
1.0
 50
270.0
 51
310.217
  0
ARC
  8
0
 62
7
  6
CONTINUOUS
 10
64.4768007448
 20
200.8214024585
 40
1.0
 50
49.783
 51
90.0
  0
ARC
  8
0
 62
7
  6
CONTINUOUS
 10
63.8447773237
 20
205.7464024585
 40
0.95
 50
0.0
 51
90.0
  0
ARC
  8
0
 62
7
  6
CONTINUOUS
 10
63.8447773237
 20
204.6464024585
 40
0.95
 50
322.2398058283
 51
360.0
  0
ARC
  8
0
 62
7
  6
CONTINUOUS
 10
63.6847773237
 20
201.5714024585
 40
0.25
 50
0.0
 51
89.9999993292
  0
ARC
  8
0
 62
7
  6
CONTINUOUS
 10
63.6847773237
 20
195.3714024585
 40
0.25
 50
270.0000006709
 51
360.0
  0
ARC
  8
0
 62
7
  6
CONTINUOUS
 10
67.4947773237
 20
64.1214024585
 40
2.0
 50
270.0
 51
0.0000009512
  0
ARC
  8
0
 62
7
  6
CONTINUOUS
 10
68.9527539026
 20
80.1714024585
 40
1.0
 50
90.0
 51
130.217
  0
ARC
  8
0
 62
7
  6
CONTINUOUS
 10
68.9527539026
 20
75.4714024585
 40
1.0
 50
229.783
 51
270.0
  0
ARC
  8
0
 62
7
  6
CONTINUOUS
 10
69.5847773237
 20
70.5464024585
 40
0.95
 50
180.0
 51
270.0
  0
ARC
  8
0
 62
7
  6
CONTINUOUS
 10
69.5847773237
 20
71.6464024585
 40
0.95
 50
142.7150835909
 51
180.0
  0
ARC
  8
0
 62
7
  6
CONTINUOUS
 10
69.7447773237
 20
74.7214024585
 40
0.25
 50
180.0
 51
269.9999993292
  0
ARC
  8
0
 62
7
  6
CONTINUOUS
 10
69.7447773237
 20
80.9214024585
 40
0.25
 50
90.0000006709
 51
180.0
  0
ARC
  8
0
 62
7
  6
CONTINUOUS
 10
68.9527539026
 20
92.8714024585
 40
1.0
 50
90.0
 51
130.217
  0
ARC
  8
0
 62
7
  6
CONTINUOUS
 10
68.9527539026
 20
88.1714024585
 40
1.0
 50
229.783
 51
270.0
  0
ARC
  8
0
 62
7
  6
CONTINUOUS
 10
69.5847773237
 20
83.3764024585
 40
0.95
 50
267.0444321879
 51
270.0
  0
ARC
  8
0
 62
7
  6
CONTINUOUS
 10
69.5847773237
 20
83.3764024585
 40
0.95
 50
180.0
 51
186.7705839241
  0
ARC
  8
0
 62
7
  6
CONTINUOUS
 10
69.5847773237
 20
84.9764024585
 40
0.95
 50
90.0
 51
94.3852913803
  0
ARC
  8
0
 62
7
  6
CONTINUOUS
 10
69.5847773237
 20
84.9764024585
 40
0.95
 50
174.3476951326
 51
180.0
  0
ARC
  8
0
 62
7
  6
CONTINUOUS
 10
69.5847773237
 20
96.0764024585
 40
0.95
 50
267.0444321879
 51
270.0
  0
ARC
  8
0
 62
7
  6
CONTINUOUS
 10
69.5847773237
 20
96.0764024585
 40
0.95
 50
180.0
 51
186.7705839241
  0
ARC
  8
0
 62
7
  6
CONTINUOUS
 10
69.5847773237
 20
97.6764024585
 40
0.95
 50
90.0
 51
94.3852913803
  0
ARC
  8
0
 62
7
  6
CONTINUOUS
 10
69.5847773237
 20
97.6764024585
 40
0.95
 50
174.3476951326
 51
180.0
  0
ARC
  8
0
 62
7
  6
CONTINUOUS
 10
69.7447773237
 20
100.1214024585
 40
0.25
 50
180.0
 51
269.9999993292
  0
ARC
  8
0
 62
7
  6
CONTINUOUS
 10
69.7447773237
 20
87.4214024585
 40
0.25
 50
180.0
 51
269.9999993292
  0
ARC
  8
0
 62
7
  6
CONTINUOUS
 10
69.7447773237
 20
93.6214024585
 40
0.25
 50
90.0000006709
 51
180.0
  0
ARC
  8
0
 62
7
  6
CONTINUOUS
 10
72.3323831724
 20
66.018384749
 40
2.5
 50
44.5239289046
 51
78.8745595634
  0
ARC
  8
0
 62
7
  6
CONTINUOUS
 10
72.3323831724
 20
78.718384749
 40
2.5
 50
44.5239289046
 51
78.8745595634
  0
ARC
  8
0
 62
7
  6
CONTINUOUS
 10
75.2647773237
 20
73.6214024585
 40
0.85
 50
18.5530045709
 51
90.0
  0
ARC
  8
0
 62
7
  6
CONTINUOUS
 10
68.9527539026
 20
118.2714024585
 40
1.0
 50
90.0
 51
130.217
  0
ARC
  8
0
 62
7
  6
CONTINUOUS
 10
68.9527539026
 20
105.5714024585
 40
1.0
 50
90.0
 51
130.217
  0
ARC
  8
0
 62
7
  6
CONTINUOUS
 10
68.9527539026
 20
113.5714024585
 40
1.0
 50
229.783
 51
270.0
  0
ARC
  8
0
 62
7
  6
CONTINUOUS
 10
68.9527539026
 20
100.8714024585
 40
1.0
 50
229.783
 51
270.0
  0
ARC
  8
0
 62
7
  6
CONTINUOUS
 10
68.9527539026
 20
130.9714024585
 40
1.0
 50
90.0
 51
130.217
  0
ARC
  8
0
 62
7
  6
CONTINUOUS
 10
68.9527539026
 20
126.2714024585
 40
1.0
 50
229.783
 51
270.0
  0
ARC
  8
0
 62
7
  6
CONTINUOUS
 10
69.5847773237
 20
108.7764024585
 40
0.95
 50
267.0444321879
 51
270.0
  0
ARC
  8
0
 62
7
  6
CONTINUOUS
 10
69.5847773237
 20
108.7764024585
 40
0.95
 50
180.0
 51
186.7705839241
  0
ARC
  8
0
 62
7
  6
CONTINUOUS
 10
69.5847773237
 20
110.3764024585
 40
0.95
 50
90.0
 51
94.3852913803
  0
ARC
  8
0
 62
7
  6
CONTINUOUS
 10
69.5847773237
 20
110.3764024585
 40
0.95
 50
174.3476951326
 51
180.0
  0
ARC
  8
0
 62
7
  6
CONTINUOUS
 10
69.7447773237
 20
112.8214024585
 40
0.25
 50
180.0
 51
269.9999993292
  0
ARC
  8
0
 62
7
  6
CONTINUOUS
 10
69.7447773237
 20
106.3214024585
 40
0.25
 50
90.0000006709
 51
180.0
  0
ARC
  8
0
 62
7
  6
CONTINUOUS
 10
69.5847773237
 20
121.4764024585
 40
0.95
 50
267.0444321879
 51
270.0
  0
ARC
  8
0
 62
7
  6
CONTINUOUS
 10
69.5847773237
 20
121.4764024585
 40
0.95
 50
180.0
 51
186.7705839241
  0
ARC
  8
0
 62
7
  6
CONTINUOUS
 10
69.5847773237
 20
123.0764024585
 40
0.95
 50
90.0
 51
94.3852913803
  0
ARC
  8
0
 62
7
  6
CONTINUOUS
 10
69.5847773237
 20
123.0764024585
 40
0.95
 50
174.3476951326
 51
180.0
  0
ARC
  8
0
 62
7
  6
CONTINUOUS
 10
69.5847773237
 20
134.1764024585
 40
0.95
 50
267.0444321879
 51
270.0
  0
ARC
  8
0
 62
7
  6
CONTINUOUS
 10
69.5847773237
 20
134.1764024585
 40
0.95
 50
180.0
 51
186.7705839241
  0
ARC
  8
0
 62
7
  6
CONTINUOUS
 10
69.5847773237
 20
135.7764024585
 40
0.95
 50
90.0
 51
94.3852913803
  0
ARC
  8
0
 62
7
  6
CONTINUOUS
 10
69.5847773237
 20
135.7764024585
 40
0.95
 50
174.3476951326
 51
180.0
  0
ARC
  8
0
 62
7
  6
CONTINUOUS
 10
69.7447773237
 20
131.7214024585
 40
0.25
 50
90.0000006709
 51
180.0
  0
ARC
  8
0
 62
7
  6
CONTINUOUS
 10
69.7447773237
 20
125.5214024585
 40
0.25
 50
180.0
 51
269.9999993292
  0
ARC
  8
0
 62
7
  6
CONTINUOUS
 10
69.7447773237
 20
119.0214024585
 40
0.25
 50
90.0000006709
 51
180.0
  0
ARC
  8
0
 62
7
  6
CONTINUOUS
 10
76.6971714749
 20
66.018384749
 40
2.5
 50
101.1254404366
 51
135.4760710954
  0
ARC
  8
0
 62
7
  6
CONTINUOUS
 10
76.6971714749
 20
78.718384749
 40
2.5
 50
101.1254404366
 51
135.4760710954
  0
ARC
  8
0
 62
7
  6
CONTINUOUS
 10
78.3147773237
 20
70.5464024585
 40
0.95
 50
270.0
 51
360.0
  0
ARC
  8
0
 62
7
  6
CONTINUOUS
 10
78.3147773237
 20
71.6464024585
 40
0.95
 50
0.0
 51
90.0
  0
ARC
  8
0
 62
7
  6
CONTINUOUS
 10
78.3147773237
 20
83.3764024585
 40
0.95
 50
270.0
 51
360.0
  0
ARC
  8
0
 62
7
  6
CONTINUOUS
 10
78.3147773237
 20
84.9764024585
 40
0.95
 50
0.0
 51
90.0
  0
ARC
  8
0
 62
7
  6
CONTINUOUS
 10
78.3147773237
 20
96.0764024585
 40
0.95
 50
270.0
 51
360.0
  0
ARC
  8
0
 62
7
  6
CONTINUOUS
 10
78.3147773237
 20
97.6764024585
 40
0.95
 50
0.0
 51
90.0
  0
ARC
  8
0
 62
7
  6
CONTINUOUS
 10
83.1147773237
 20
72.8714024585
 40
0.85
 50
0.0
 51
90.0000000258
  0
ARC
  8
0
 62
7
  6
CONTINUOUS
 10
83.1147773237
 20
69.3214024585
 40
0.85
 50
269.9999999742
 51
360.0
  0
ARC
  8
0
 62
7
  6
CONTINUOUS
 10
83.1147773237
 20
82.0214024585
 40
0.85
 50
269.9999999742
 51
360.0
  0
ARC
  8
0
 62
7
  6
CONTINUOUS
 10
83.1147773237
 20
86.3214024585
 40
0.85
 50
0.0
 51
90.0000000258
  0
ARC
  8
0
 62
7
  6
CONTINUOUS
 10
83.1147773237
 20
94.7214024585
 40
0.85
 50
269.9999999742
 51
360.0
  0
ARC
  8
0
 62
7
  6
CONTINUOUS
 10
83.1147773237
 20
99.0214024585
 40
0.85
 50
0.0
 51
90.0000000258
  0
ARC
  8
0
 62
7
  6
CONTINUOUS
 10
76.3076100044
 20
73.9714024585
 40
0.25
 50
198.553004413
 51
269.9999994921
  0
ARC
  8
0
 62
7
  6
CONTINUOUS
 10
78.3147773237
 20
108.7764024585
 40
0.95
 50
270.0
 51
360.0
  0
ARC
  8
0
 62
7
  6
CONTINUOUS
 10
78.3147773237
 20
110.3764024585
 40
0.95
 50
0.0
 51
90.0
  0
ARC
  8
0
 62
7
  6
CONTINUOUS
 10
78.3147773237
 20
121.4764024585
 40
0.95
 50
270.0
 51
360.0
  0
ARC
  8
0
 62
7
  6
CONTINUOUS
 10
78.3147773237
 20
123.0764024585
 40
0.95
 50
0.0
 51
90.0
  0
ARC
  8
0
 62
7
  6
CONTINUOUS
 10
78.3147773237
 20
134.1764024585
 40
0.95
 50
270.0
 51
360.0
  0
ARC
  8
0
 62
7
  6
CONTINUOUS
 10
78.3147773237
 20
135.7764024585
 40
0.95
 50
0.0
 51
90.0
  0
ARC
  8
0
 62
7
  6
CONTINUOUS
 10
83.1147773237
 20
107.4214024585
 40
0.85
 50
269.9999999742
 51
360.0
  0
ARC
  8
0
 62
7
  6
CONTINUOUS
 10
83.1147773237
 20
111.7214024585
 40
0.85
 50
0.0
 51
90.0000000258
  0
ARC
  8
0
 62
7
  6
CONTINUOUS
 10
83.1147773237
 20
120.1214024585
 40
0.85
 50
269.9999999742
 51
360.0
  0
ARC
  8
0
 62
7
  6
CONTINUOUS
 10
83.1147773237
 20
124.4214024585
 40
0.85
 50
0.0
 51
90.0000000258
  0
ARC
  8
0
 62
7
  6
CONTINUOUS
 10
83.1147773237
 20
132.8214024585
 40
0.85
 50
269.9999999742
 51
360.0
  0
ARC
  8
0
 62
7
  6
CONTINUOUS
 10
83.1147773237
 20
137.1214024585
 40
0.85
 50
0.0
 51
90.0000000258
  0
ARC
  8
0
 62
7
  6
CONTINUOUS
 10
68.9527539026
 20
143.6714024585
 40
1.0
 50
90.0
 51
130.217
  0
ARC
  8
0
 62
7
  6
CONTINUOUS
 10
68.9527539026
 20
151.6714024585
 40
1.0
 50
229.783
 51
270.0
  0
ARC
  8
0
 62
7
  6
CONTINUOUS
 10
68.9527539026
 20
138.9714024585
 40
1.0
 50
229.783
 51
270.0
  0
ARC
  8
0
 62
7
  6
CONTINUOUS
 10
68.9527539026
 20
169.0714024585
 40
1.0
 50
90.0
 51
130.217
  0
ARC
  8
0
 62
7
  6
CONTINUOUS
 10
68.9527539026
 20
156.3714024585
 40
1.0
 50
90.0
 51
130.217
  0
ARC
  8
0
 62
7
  6
CONTINUOUS
 10
68.9527539026
 20
164.3714024585
 40
1.0
 50
229.783
 51
270.0
  0
ARC
  8
0
 62
7
  6
CONTINUOUS
 10
69.5847773237
 20
146.8764024585
 40
0.95
 50
267.0444321879
 51
270.0
  0
ARC
  8
0
 62
7
  6
CONTINUOUS
 10
69.5847773237
 20
146.8764024585
 40
0.95
 50
180.0
 51
186.7705839241
  0
ARC
  8
0
 62
7
  6
CONTINUOUS
 10
69.5847773237
 20
148.4764024585
 40
0.95
 50
90.0
 51
94.3852913803
  0
ARC
  8
0
 62
7
  6
CONTINUOUS
 10
69.5847773237
 20
148.4764024585
 40
0.95
 50
174.3476951326
 51
180.0
  0
ARC
  8
0
 62
7
  6
CONTINUOUS
 10
69.7447773237
 20
150.9214024585
 40
0.25
 50
180.0
 51
269.9999993292
  0
ARC
  8
0
 62
7
  6
CONTINUOUS
 10
69.7447773237
 20
144.4214024585
 40
0.25
 50
90.0000006709
 51
180.0
  0
ARC
  8
0
 62
7
  6
CONTINUOUS
 10
69.7447773237
 20
138.2214024585
 40
0.25
 50
180.0
 51
269.9999993292
  0
ARC
  8
0
 62
7
  6
CONTINUOUS
 10
69.5847773237
 20
159.5764024585
 40
0.95
 50
267.0444321879
 51
270.0
  0
ARC
  8
0
 62
7
  6
CONTINUOUS
 10
69.5847773237
 20
159.5764024585
 40
0.95
 50
180.0
 51
186.7705839241
  0
ARC
  8
0
 62
7
  6
CONTINUOUS
 10
69.5847773237
 20
161.1764024585
 40
0.95
 50
90.0
 51
94.3852913803
  0
ARC
  8
0
 62
7
  6
CONTINUOUS
 10
69.5847773237
 20
161.1764024585
 40
0.95
 50
174.3476951326
 51
180.0
  0
ARC
  8
0
 62
7
  6
CONTINUOUS
 10
69.5847773237
 20
172.2764024585
 40
0.95
 50
267.0444321879
 51
270.0
  0
ARC
  8
0
 62
7
  6
CONTINUOUS
 10
69.5847773237
 20
172.2764024585
 40
0.95
 50
180.0
 51
186.7705839241
  0
ARC
  8
0
 62
7
  6
CONTINUOUS
 10
69.5847773237
 20
173.8764024585
 40
0.95
 50
90.0
 51
94.3852913803
  0
ARC
  8
0
 62
7
  6
CONTINUOUS
 10
69.5847773237
 20
173.8764024585
 40
0.95
 50
174.3476951326
 51
180.0
  0
ARC
  8
0
 62
7
  6
CONTINUOUS
 10
69.7447773237
 20
163.6214024585
 40
0.25
 50
180.0
 51
269.9999993292
  0
ARC
  8
0
 62
7
  6
CONTINUOUS
 10
69.7447773237
 20
169.8214024585
 40
0.25
 50
90.0000006709
 51
180.0
  0
ARC
  8
0
 62
7
  6
CONTINUOUS
 10
69.7447773237
 20
157.1214024585
 40
0.25
 50
90.0000006709
 51
180.0
  0
ARC
  8
0
 62
7
  6
CONTINUOUS
 10
68.9527539026
 20
181.7714024585
 40
1.0
 50
90.0
 51
130.217
  0
ARC
  8
0
 62
7
  6
CONTINUOUS
 10
68.9527539026
 20
177.0714024585
 40
1.0
 50
229.783
 51
270.0
  0
ARC
  8
0
 62
7
  6
CONTINUOUS
 10
68.9527539026
 20
189.7714024585
 40
1.0
 50
229.783
 51
270.0
  0
ARC
  8
0
 62
7
  6
CONTINUOUS
 10
69.7447773237
 20
182.5214024585
 40
0.25
 50
90.0000006709
 51
180.0
  0
ARC
  8
0
 62
7
  6
CONTINUOUS
 10
69.7447773237
 20
176.3214024585
 40
0.25
 50
180.0
 51
269.9999993292
  0
ARC
  8
0
 62
7
  6
CONTINUOUS
 10
69.5847773237
 20
184.9764024585
 40
0.95
 50
267.0444321879
 51
270.0
  0
ARC
  8
0
 62
7
  6
CONTINUOUS
 10
69.5847773237
 20
184.9764024585
 40
0.95
 50
180.0
 51
186.7705839241
  0
ARC
  8
0
 62
7
  6
CONTINUOUS
 10
69.5847773237
 20
186.5764024585
 40
0.95
 50
90.0
 51
94.3852913803
  0
ARC
  8
0
 62
7
  6
CONTINUOUS
 10
69.5847773237
 20
186.5764024585
 40
0.95
 50
174.3476951326
 51
180.0
  0
ARC
  8
0
 62
7
  6
CONTINUOUS
 10
69.7447773237
 20
189.0214024585
 40
0.25
 50
180.0
 51
269.9999993292
  0
ARC
  8
0
 62
7
  6
CONTINUOUS
 10
68.9527539026
 20
207.1714024585
 40
1.0
 50
90.0
 51
130.217
  0
ARC
  8
0
 62
7
  6
CONTINUOUS
 10
68.9527539026
 20
194.4714024585
 40
1.0
 50
90.0
 51
130.217
  0
ARC
  8
0
 62
7
  6
CONTINUOUS
 10
68.9527539026
 20
202.4714024585
 40
1.0
 50
229.783
 51
270.0
  0
ARC
  8
0
 62
7
  6
CONTINUOUS
 10
69.5847773237
 20
197.5464024585
 40
0.95
 50
258.3447361617
 51
270.0
  0
ARC
  8
0
 62
7
  6
CONTINUOUS
 10
69.5847773237
 20
198.6464024585
 40
0.95
 50
142.7150835909
 51
180.0
  0
ARC
  8
0
 62
7
  6
CONTINUOUS
 10
69.7447773237
 20
201.7214024585
 40
0.25
 50
180.0
 51
269.9999993292
  0
ARC
  8
0
 62
7
  6
CONTINUOUS
 10
69.7447773237
 20
207.9214024585
 40
0.25
 50
90.0000006709
 51
180.0
  0
ARC
  8
0
 62
7
  6
CONTINUOUS
 10
69.7447773237
 20
195.2214024585
 40
0.25
 50
90.0000006709
 51
180.0
  0
ARC
  8
0
 62
7
  6
CONTINUOUS
 10
72.3323831724
 20
193.018384749
 40
2.5
 50
44.5239289046
 51
78.8745595634
  0
ARC
  8
0
 62
7
  6
CONTINUOUS
 10
72.3323831724
 20
205.718384749
 40
2.5
 50
44.5239289046
 51
78.8745595634
  0
ARC
  8
0
 62
7
  6
CONTINUOUS
 10
75.2647773237
 20
200.6214024585
 40
0.85
 50
18.5530045709
 51
90.0
  0
ARC
  8
0
 62
7
  6
CONTINUOUS
 10
78.3147773237
 20
146.8764024585
 40
0.95
 50
270.0
 51
360.0
  0
ARC
  8
0
 62
7
  6
CONTINUOUS
 10
78.3147773237
 20
148.4764024585
 40
0.95
 50
0.0
 51
90.0
  0
ARC
  8
0
 62
7
  6
CONTINUOUS
 10
78.3147773237
 20
159.5764024585
 40
0.95
 50
270.0
 51
360.0
  0
ARC
  8
0
 62
7
  6
CONTINUOUS
 10
78.3147773237
 20
161.1764024585
 40
0.95
 50
0.0
 51
90.0
  0
ARC
  8
0
 62
7
  6
CONTINUOUS
 10
78.3147773237
 20
172.2764024585
 40
0.95
 50
270.0
 51
360.0
  0
ARC
  8
0
 62
7
  6
CONTINUOUS
 10
78.3147773237
 20
173.8764024585
 40
0.95
 50
0.0
 51
90.0
  0
ARC
  8
0
 62
7
  6
CONTINUOUS
 10
83.1147773237
 20
145.5214024585
 40
0.85
 50
269.9999999742
 51
360.0
  0
ARC
  8
0
 62
7
  6
CONTINUOUS
 10
83.1147773237
 20
149.8214024585
 40
0.85
 50
0.0
 51
90.0000000258
  0
ARC
  8
0
 62
7
  6
CONTINUOUS
 10
83.1147773237
 20
158.2214024585
 40
0.85
 50
269.9999999742
 51
360.0
  0
ARC
  8
0
 62
7
  6
CONTINUOUS
 10
83.1147773237
 20
162.5214024585
 40
0.85
 50
0.0
 51
90.0000000258
  0
ARC
  8
0
 62
7
  6
CONTINUOUS
 10
83.1147773237
 20
170.9214024585
 40
0.85
 50
269.9999999742
 51
360.0
  0
ARC
  8
0
 62
7
  6
CONTINUOUS
 10
83.1147773237
 20
175.2214024585
 40
0.85
 50
0.0
 51
90.0000000258
  0
ARC
  8
0
 62
7
  6
CONTINUOUS
 10
76.6971714749
 20
193.018384749
 40
2.5
 50
101.1254404366
 51
135.4760710954
  0
ARC
  8
0
 62
7
  6
CONTINUOUS
 10
76.6971714749
 20
205.718384749
 40
2.5
 50
101.1254404366
 51
135.4760710954
  0
ARC
  8
0
 62
7
  6
CONTINUOUS
 10
78.3147773237
 20
184.9764024585
 40
0.95
 50
270.0
 51
360.0
  0
ARC
  8
0
 62
7
  6
CONTINUOUS
 10
78.3147773237
 20
186.5764024585
 40
0.95
 50
0.0
 51
90.0
  0
ARC
  8
0
 62
7
  6
CONTINUOUS
 10
78.3147773237
 20
197.5464024585
 40
0.95
 50
270.0
 51
360.0
  0
ARC
  8
0
 62
7
  6
CONTINUOUS
 10
78.3147773237
 20
198.6464024585
 40
0.95
 50
0.0
 51
90.0
  0
ARC
  8
0
 62
7
  6
CONTINUOUS
 10
83.1147773237
 20
213.3214024585
 40
0.85
 50
0.0
 51
90.0000000258
  0
ARC
  8
0
 62
7
  6
CONTINUOUS
 10
83.1147773237
 20
199.8714024585
 40
0.85
 50
0.0
 51
90.0000000258
  0
ARC
  8
0
 62
7
  6
CONTINUOUS
 10
83.1147773237
 20
183.6214024585
 40
0.85
 50
269.9999999742
 51
360.0
  0
ARC
  8
0
 62
7
  6
CONTINUOUS
 10
83.1147773237
 20
187.9214024585
 40
0.85
 50
0.0
 51
90.0000000258
  0
ARC
  8
0
 62
7
  6
CONTINUOUS
 10
83.1147773237
 20
196.3214024585
 40
0.85
 50
269.9999999742
 51
360.0
  0
ARC
  8
0
 62
7
  6
CONTINUOUS
 10
83.1147773237
 20
209.0214024585
 40
0.85
 50
269.9999999742
 51
360.0
  0
ARC
  8
0
 62
7
  6
CONTINUOUS
 10
76.3076100044
 20
200.9714024585
 40
0.25
 50
198.553004413
 51
269.9999994921
  0
ARC
  8
0
 62
7
  6
CONTINUOUS
 10
131.8964285714
 20
92.6714024585
 40
0.85
 50
90.0
 51
180.0
  0
ARC
  8
0
 62
7
  6
CONTINUOUS
 10
131.8964285714
 20
88.3714024585
 40
0.85
 50
180.0
 51
270.0
  0
ARC
  8
0
 62
7
  6
CONTINUOUS
 10
131.8964285714
 20
79.9714024585
 40
0.85
 50
90.0
 51
180.0
  0
ARC
  8
0
 62
7
  6
CONTINUOUS
 10
131.8964285714
 20
67.2714024585
 40
0.85
 50
90.0
 51
180.0
  0
ARC
  8
0
 62
7
  6
CONTINUOUS
 10
131.8964285714
 20
76.4214024585
 40
0.85
 50
180.0
 51
270.0
  0
ARC
  8
0
 62
7
  6
CONTINUOUS
 10
131.8964285714
 20
62.9714024585
 40
0.85
 50
180.0
 51
270.0
  0
ARC
  8
0
 62
7
  6
CONTINUOUS
 10
131.8964285714
 20
75.6714024585
 40
0.85
 50
180.0
 51
270.0
  0
ARC
  8
0
 62
7
  6
CONTINUOUS
 10
131.8964285714
 20
130.7714024585
 40
0.85
 50
90.0
 51
180.0
  0
ARC
  8
0
 62
7
  6
CONTINUOUS
 10
131.8964285714
 20
126.4714024585
 40
0.85
 50
180.0
 51
270.0
  0
ARC
  8
0
 62
7
  6
CONTINUOUS
 10
131.8964285714
 20
118.0714024585
 40
0.85
 50
90.0
 51
180.0
  0
ARC
  8
0
 62
7
  6
CONTINUOUS
 10
131.8964285714
 20
113.7714024585
 40
0.85
 50
180.0
 51
270.0
  0
ARC
  8
0
 62
7
  6
CONTINUOUS
 10
131.8964285714
 20
105.3714024585
 40
0.85
 50
90.0
 51
180.0
  0
ARC
  8
0
 62
7
  6
CONTINUOUS
 10
131.8964285714
 20
101.0714024585
 40
0.85
 50
180.0
 51
270.0
  0
ARC
  8
0
 62
7
  6
CONTINUOUS
 10
133.2640344202
 20
83.2744201679
 40
2.5
 50
281.1254404366
 51
315.4760710954
  0
ARC
  8
0
 62
7
  6
CONTINUOUS
 10
133.2640344202
 20
70.5744201679
 40
2.5
 50
281.1254404366
 51
315.4760710954
  0
ARC
  8
0
 62
7
  6
CONTINUOUS
 10
131.8964285714
 20
168.8714024585
 40
0.85
 50
90.0
 51
180.0
  0
ARC
  8
0
 62
7
  6
CONTINUOUS
 10
131.8964285714
 20
164.5714024585
 40
0.85
 50
180.0
 51
270.0
  0
ARC
  8
0
 62
7
  6
CONTINUOUS
 10
131.8964285714
 20
156.1714024585
 40
0.85
 50
90.0
 51
180.0
  0
ARC
  8
0
 62
7
  6
CONTINUOUS
 10
131.8964285714
 20
151.8714024585
 40
0.85
 50
180.0
 51
270.0
  0
ARC
  8
0
 62
7
  6
CONTINUOUS
 10
131.8964285714
 20
143.4714024585
 40
0.85
 50
90.0
 51
180.0
  0
ARC
  8
0
 62
7
  6
CONTINUOUS
 10
131.8964285714
 20
139.1714024585
 40
0.85
 50
180.0
 51
270.0
  0
ARC
  8
0
 62
7
  6
CONTINUOUS
 10
131.8964285714
 20
194.2714024585
 40
0.85
 50
90.0
 51
180.0
  0
ARC
  8
0
 62
7
  6
CONTINUOUS
 10
131.8964285714
 20
189.9714024585
 40
0.85
 50
180.0
 51
270.0
  0
ARC
  8
0
 62
7
  6
CONTINUOUS
 10
131.8964285714
 20
181.5714024585
 40
0.85
 50
90.0
 51
180.0
  0
ARC
  8
0
 62
7
  6
CONTINUOUS
 10
131.8964285714
 20
177.2714024585
 40
0.85
 50
180.0
 51
270.0
  0
ARC
  8
0
 62
7
  6
CONTINUOUS
 10
131.8964285714
 20
203.4214024585
 40
0.85
 50
180.0
 51
270.0
  0
ARC
  8
0
 62
7
  6
CONTINUOUS
 10
131.8964285714
 20
206.9714024585
 40
0.85
 50
90.0
 51
180.0
  0
ARC
  8
0
 62
7
  6
CONTINUOUS
 10
131.8964285714
 20
213.3214024585
 40
0.85
 50
90.0
 51
180.0
  0
ARC
  8
0
 62
7
  6
CONTINUOUS
 10
131.8964285714
 20
202.6714024585
 40
0.85
 50
180.0
 51
270.0
  0
ARC
  8
0
 62
7
  6
CONTINUOUS
 10
133.2640344202
 20
210.2744201679
 40
2.5
 50
281.1254404366
 51
315.4760710954
  0
ARC
  8
0
 62
7
  6
CONTINUOUS
 10
133.2640344202
 20
197.5744201679
 40
2.5
 50
281.1254404366
 51
315.4760710954
  0
ARC
  8
0
 62
7
  6
CONTINUOUS
 10
137.6288227227
 20
83.2744201679
 40
2.5
 50
224.5239289046
 51
258.8745595634
  0
ARC
  8
0
 62
7
  6
CONTINUOUS
 10
137.6288227227
 20
70.5744201679
 40
2.5
 50
224.5239289046
 51
258.8745595634
  0
ARC
  8
0
 62
7
  6
CONTINUOUS
 10
138.9964285714
 20
92.6714024585
 40
0.85
 50
0.0
 51
90.0
  0
ARC
  8
0
 62
7
  6
CONTINUOUS
 10
138.9964285714
 20
88.3714024585
 40
0.85
 50
270.0
 51
360.0
  0
ARC
  8
0
 62
7
  6
CONTINUOUS
 10
138.9964285714
 20
79.9714024585
 40
0.85
 50
0.0
 51
90.0
  0
ARC
  8
0
 62
7
  6
CONTINUOUS
 10
138.9964285714
 20
67.2714024585
 40
0.85
 50
0.0
 51
90.0
  0
ARC
  8
0
 62
7
  6
CONTINUOUS
 10
138.9964285714
 20
76.4214024585
 40
0.85
 50
270.0
 51
360.0
  0
ARC
  8
0
 62
7
  6
CONTINUOUS
 10
138.9964285714
 20
62.9714024585
 40
0.85
 50
270.0
 51
360.0
  0
ARC
  8
0
 62
7
  6
CONTINUOUS
 10
138.9964285714
 20
75.6714024585
 40
0.85
 50
270.0
 51
360.0
  0
ARC
  8
0
 62
7
  6
CONTINUOUS
 10
138.9964285714
 20
130.7714024585
 40
0.85
 50
0.0
 51
90.0
  0
ARC
  8
0
 62
7
  6
CONTINUOUS
 10
138.9964285714
 20
126.4714024585
 40
0.85
 50
270.0
 51
360.0
  0
ARC
  8
0
 62
7
  6
CONTINUOUS
 10
138.9964285714
 20
118.0714024585
 40
0.85
 50
0.0
 51
90.0
  0
ARC
  8
0
 62
7
  6
CONTINUOUS
 10
138.9964285714
 20
113.7714024585
 40
0.85
 50
270.0
 51
360.0
  0
ARC
  8
0
 62
7
  6
CONTINUOUS
 10
138.9964285714
 20
105.3714024585
 40
0.85
 50
0.0
 51
90.0
  0
ARC
  8
0
 62
7
  6
CONTINUOUS
 10
138.9964285714
 20
101.0714024585
 40
0.85
 50
270.0
 51
360.0
  0
ARC
  8
0
 62
7
  6
CONTINUOUS
 10
142.2464285714
 20
70.5464024585
 40
0.95
 50
270.0
 51
360.0
  0
ARC
  8
0
 62
7
  6
CONTINUOUS
 10
142.2464285714
 20
71.6464024585
 40
0.95
 50
0.0
 51
90.0
  0
ARC
  8
0
 62
7
  6
CONTINUOUS
 10
142.2464285714
 20
83.3764024585
 40
0.95
 50
270.0
 51
360.0
  0
ARC
  8
0
 62
7
  6
CONTINUOUS
 10
142.2464285714
 20
84.9764024585
 40
0.95
 50
0.0
 51
90.0
  0
ARC
  8
0
 62
7
  6
CONTINUOUS
 10
142.2464285714
 20
96.0764024585
 40
0.95
 50
270.0
 51
360.0
  0
ARC
  8
0
 62
7
  6
CONTINUOUS
 10
142.2464285714
 20
97.6764024585
 40
0.95
 50
0.0
 51
90.0
  0
ARC
  8
0
 62
7
  6
CONTINUOUS
 10
142.2464285714
 20
91.3164024585
 40
0.95
 50
0.0
 51
90.0
  0
ARC
  8
0
 62
7
  6
CONTINUOUS
 10
142.2464285714
 20
89.7164024585
 40
0.95
 50
270.0
 51
360.0
  0
ARC
  8
0
 62
7
  6
CONTINUOUS
 10
142.2464285714
 20
78.7464024585
 40
0.95
 50
0.0
 51
90.0
  0
ARC
  8
0
 62
7
  6
CONTINUOUS
 10
142.2464285714
 20
77.6464024585
 40
0.95
 50
270.0
 51
360.0
  0
ARC
  8
0
 62
7
  6
CONTINUOUS
 10
142.2464285714
 20
108.7764024585
 40
0.95
 50
270.0
 51
360.0
  0
ARC
  8
0
 62
7
  6
CONTINUOUS
 10
142.2464285714
 20
110.3764024585
 40
0.95
 50
0.0
 51
90.0
  0
ARC
  8
0
 62
7
  6
CONTINUOUS
 10
142.2464285714
 20
121.4764024585
 40
0.95
 50
270.0
 51
360.0
  0
ARC
  8
0
 62
7
  6
CONTINUOUS
 10
142.2464285714
 20
123.0764024585
 40
0.95
 50
0.0
 51
90.0
  0
ARC
  8
0
 62
7
  6
CONTINUOUS
 10
142.2464285714
 20
134.1764024585
 40
0.95
 50
270.0
 51
360.0
  0
ARC
  8
0
 62
7
  6
CONTINUOUS
 10
142.2464285714
 20
135.7764024585
 40
0.95
 50
0.0
 51
90.0
  0
ARC
  8
0
 62
7
  6
CONTINUOUS
 10
142.2464285714
 20
129.4164024585
 40
0.95
 50
0.0
 51
90.0
  0
ARC
  8
0
 62
7
  6
CONTINUOUS
 10
142.2464285714
 20
127.8164024585
 40
0.95
 50
270.0
 51
360.0
  0
ARC
  8
0
 62
7
  6
CONTINUOUS
 10
142.2464285714
 20
116.7164024585
 40
0.95
 50
0.0
 51
90.0
  0
ARC
  8
0
 62
7
  6
CONTINUOUS
 10
142.2464285714
 20
115.1164024585
 40
0.95
 50
270.0
 51
360.0
  0
ARC
  8
0
 62
7
  6
CONTINUOUS
 10
142.2464285714
 20
104.0164024585
 40
0.95
 50
0.0
 51
90.0
  0
ARC
  8
0
 62
7
  6
CONTINUOUS
 10
142.2464285714
 20
102.4164024585
 40
0.95
 50
270.0
 51
360.0
  0
ARC
  8
0
 62
7
  6
CONTINUOUS
 10
138.9964285714
 20
168.8714024585
 40
0.85
 50
0.0
 51
90.0
  0
ARC
  8
0
 62
7
  6
CONTINUOUS
 10
138.9964285714
 20
164.5714024585
 40
0.85
 50
270.0
 51
360.0
  0
ARC
  8
0
 62
7
  6
CONTINUOUS
 10
138.9964285714
 20
156.1714024585
 40
0.85
 50
0.0
 51
90.0
  0
ARC
  8
0
 62
7
  6
CONTINUOUS
 10
138.9964285714
 20
151.8714024585
 40
0.85
 50
270.0
 51
360.0
  0
ARC
  8
0
 62
7
  6
CONTINUOUS
 10
138.9964285714
 20
143.4714024585
 40
0.85
 50
0.0
 51
90.0
  0
ARC
  8
0
 62
7
  6
CONTINUOUS
 10
138.9964285714
 20
139.1714024585
 40
0.85
 50
270.0
 51
360.0
  0
ARC
  8
0
 62
7
  6
CONTINUOUS
 10
137.6288227227
 20
210.2744201679
 40
2.5
 50
224.5239289046
 51
258.8745595634
  0
ARC
  8
0
 62
7
  6
CONTINUOUS
 10
137.6288227227
 20
197.5744201679
 40
2.5
 50
224.5239289046
 51
258.8745595634
  0
ARC
  8
0
 62
7
  6
CONTINUOUS
 10
138.9964285714
 20
194.2714024585
 40
0.85
 50
0.0
 51
90.0
  0
ARC
  8
0
 62
7
  6
CONTINUOUS
 10
138.9964285714
 20
189.9714024585
 40
0.85
 50
270.0
 51
360.0
  0
ARC
  8
0
 62
7
  6
CONTINUOUS
 10
138.9964285714
 20
181.5714024585
 40
0.85
 50
0.0
 51
90.0
  0
ARC
  8
0
 62
7
  6
CONTINUOUS
 10
138.9964285714
 20
177.2714024585
 40
0.85
 50
270.0
 51
360.0
  0
ARC
  8
0
 62
7
  6
CONTINUOUS
 10
138.9964285714
 20
203.4214024585
 40
0.85
 50
270.0
 51
360.0
  0
ARC
  8
0
 62
7
  6
CONTINUOUS
 10
138.9964285714
 20
206.9714024585
 40
0.85
 50
0.0
 51
90.0
  0
ARC
  8
0
 62
7
  6
CONTINUOUS
 10
138.9964285714
 20
213.3214024585
 40
0.85
 50
0.0
 51
90.0
  0
ARC
  8
0
 62
7
  6
CONTINUOUS
 10
138.9964285714
 20
202.6714024585
 40
0.85
 50
270.0
 51
360.0
  0
ARC
  8
0
 62
7
  6
CONTINUOUS
 10
142.2464285714
 20
146.8764024585
 40
0.95
 50
270.0
 51
360.0
  0
ARC
  8
0
 62
7
  6
CONTINUOUS
 10
142.2464285714
 20
148.4764024585
 40
0.95
 50
0.0
 51
90.0
  0
ARC
  8
0
 62
7
  6
CONTINUOUS
 10
142.2464285714
 20
159.5764024585
 40
0.95
 50
270.0
 51
360.0
  0
ARC
  8
0
 62
7
  6
CONTINUOUS
 10
142.2464285714
 20
161.1764024585
 40
0.95
 50
0.0
 51
90.0
  0
ARC
  8
0
 62
7
  6
CONTINUOUS
 10
142.2464285714
 20
172.2764024585
 40
0.95
 50
270.0
 51
360.0
  0
ARC
  8
0
 62
7
  6
CONTINUOUS
 10
142.2464285714
 20
173.8764024585
 40
0.95
 50
0.0
 51
90.0
  0
ARC
  8
0
 62
7
  6
CONTINUOUS
 10
142.2464285714
 20
167.5164024585
 40
0.95
 50
0.0
 51
90.0
  0
ARC
  8
0
 62
7
  6
CONTINUOUS
 10
142.2464285714
 20
165.9164024585
 40
0.95
 50
270.0
 51
360.0
  0
ARC
  8
0
 62
7
  6
CONTINUOUS
 10
142.2464285714
 20
154.8164024585
 40
0.95
 50
0.0
 51
90.0
  0
ARC
  8
0
 62
7
  6
CONTINUOUS
 10
142.2464285714
 20
153.2164024585
 40
0.95
 50
270.0
 51
360.0
  0
ARC
  8
0
 62
7
  6
CONTINUOUS
 10
142.2464285714
 20
142.1164024585
 40
0.95
 50
0.0
 51
90.0
  0
ARC
  8
0
 62
7
  6
CONTINUOUS
 10
142.2464285714
 20
140.5164024585
 40
0.95
 50
270.0
 51
360.0
  0
ARC
  8
0
 62
7
  6
CONTINUOUS
 10
142.2464285714
 20
184.9764024585
 40
0.95
 50
270.0
 51
360.0
  0
ARC
  8
0
 62
7
  6
CONTINUOUS
 10
142.2464285714
 20
186.5764024585
 40
0.95
 50
0.0
 51
90.0
  0
ARC
  8
0
 62
7
  6
CONTINUOUS
 10
142.2464285714
 20
197.5464024585
 40
0.95
 50
270.0
 51
360.0
  0
ARC
  8
0
 62
7
  6
CONTINUOUS
 10
142.2464285714
 20
198.6464024585
 40
0.95
 50
0.0
 51
90.0
  0
ARC
  8
0
 62
7
  6
CONTINUOUS
 10
142.2464285714
 20
205.7464024585
 40
0.95
 50
0.0
 51
90.0
  0
ARC
  8
0
 62
7
  6
CONTINUOUS
 10
142.2464285714
 20
204.6464024585
 40
0.95
 50
270.0
 51
360.0
  0
ARC
  8
0
 62
7
  6
CONTINUOUS
 10
142.2464285714
 20
192.9164024585
 40
0.95
 50
0.0
 51
90.0
  0
ARC
  8
0
 62
7
  6
CONTINUOUS
 10
142.2464285714
 20
191.3164024585
 40
0.95
 50
270.0
 51
360.0
  0
ARC
  8
0
 62
7
  6
CONTINUOUS
 10
142.2464285714
 20
180.2164024585
 40
0.95
 50
0.0
 51
90.0
  0
ARC
  8
0
 62
7
  6
CONTINUOUS
 10
142.2464285714
 20
178.6164024585
 40
0.95
 50
270.0
 51
360.0
  0
ARC
  8
0
 62
7
  6
CONTINUOUS
 10
53.8647773237
 20
268.2096153846
 40
4.4
 50
89.9999999999
 51
270.0000000002
  0
ARC
  8
0
 62
7
  6
CONTINUOUS
 10
65.0947773237
 20
268.2096153846
 40
4.4
 50
270.0
 51
90.0
  0
CIRCLE
  8
1_AXIS
 62
7
  6
CONTINUOUS
 10
54.0147773237
 20
268.2096153846
 40
2.6
  0
ARC
  8
0
 62
7
  6
CONTINUOUS
 10
62.4447773237
 20
273.6096153846
 40
2.35
 50
7.3349290441
 51
90.0
  0
ARC
  8
0
 62
7
  6
CONTINUOUS
 10
56.5147773237
 20
273.6096153846
 40
2.35
 50
90.0
 51
180.0
  0
ARC
  8
0
 62
7
  6
CONTINUOUS
 10
79.5647773237
 20
268.2096153846
 40
4.4
 50
270.0
 51
90.0000000002
  0
CIRCLE
  8
1_AXIS
 62
7
  6
CONTINUOUS
 10
79.4147773237
 20
268.2096153846
 40
2.6
  0
CIRCLE
  8
0
 62
7
  6
CONTINUOUS
 10
74.5147773237
 20
268.2096153846
 40
1.7
  0
CIRCLE
  8
0
 62
7
  6
CONTINUOUS
 10
74.5147773237
 20
268.2096153846
 40
0.4
  0
ARC
  8
0
 62
7
  6
CONTINUOUS
 10
70.9847773237
 20
273.6096153846
 40
2.35
 50
90.0
 51
180.0
  0
ARC
  8
0
 62
7
  6
CONTINUOUS
 10
76.9147773237
 20
273.6096153846
 40
2.35
 50
0.0
 51
90.0
  0
ENDSEC
  0
EOF
