  0
SECTION
  2
HEADER
  9
$EXTMAX
 10
210.0
 20
297.0
 30
0.0
  9
$EXTMIN
 10
0.0
 20
0.0
 30
0.0
  9
$LIMMIN
 10
0.0
 20
0.0
  9
$LIMMAX
 10
210.0
 20
297.0
  9
$VIEWCTR
 10
105.0
 20
148.5
  9
$VIEWSIZE
 40
297.0
  9
$CLAYER
  8
0
  9
$LTSCALE
 40
19.36
  9
$CELTYPE
  6
BYLAYER
  9
$DIMSCALE
 40
1.0
  9
$DIMASZ
 40
3.5
  9
$DIMEXO
 40
2.2
  9
$DIMDLI
 40
13.376
  9
$DIMEXE
 40
6.336
  9
$DIMCEN
 40
3.168
  9
$DIMLFAC
 40
1.0
  9
$DIMBLK
  1
_FILLED
  9
$DIMTXT
 40
3.5
  9
$PDMODE
 70
3
  9
$PDSIZE
 40
0.3125
  9
$TILEMODE
 70
1
  0
ENDSEC
  0
SECTION
  2
TABLES
  0
TABLE
  2
LTYPE
 70
6
  0
LTYPE
  2
BYBLOCK
 70
0
  3

 72
65
 73
0
 40
0.0
  0
LTYPE
  2
BYLAYER
 70
0
  3

 72
65
 73
0
 40
0.0
  0
LTYPE
  2
CONTINUOUS
 70
64
  3
Solid line
 72
65
 73
0
 40
0.0
  0
LTYPE
  2
CENTER
 70
64
  3
____ _ ____ _ ____ _ ____ _ ____ _ ____ _ ____
 72
65
 73
4
 40
0.6
 49
0.375
 49
-0.075
 49
0.075
 49
-0.075
  0
LTYPE
  2
HIDDEN
 70
64
  3
- - - - - - - - - - - - - - - - - - - -
 72
65
 73
2
 40
0.2
 49
0.1
 49
-0.1
  0
LTYPE
  2
PHANTOM
 70
64
  3
_____ _ _ _____ _ _ _____ _ _ _____
 72
65
 73
6
 40
0.8
 49
0.45
 49
-0.05
 49
0.1
 49
-0.05
 49
0.1
 49
-0.05
  0
LTYPE
  2
DOT
 70
64
  3
. . . . . . . . . . . . . . . . . . . .
 72
65
 73
2
 40
0.2
 49
0.1
 49
-0.1
  0
LTYPE
  2
DASHED
 70
64
  3
- - - - - - - - - - - - - - - - - - - -
 72
65
 73
2
 40
0.2
 49
0.1
 49
-0.1
  0
ENDTAB
  0
TABLE
  2
LAYER
 70
36
  0
LAYER
  2
0
 70
0
 62
7
  6
CONTINUOUS
  0
LAYER
  2
DEFAULT_1
 70
0
 62
7
  6
CENTER
  0
LAYER
  2
DEFAULT_2
 70
0
 62
8
  6
HIDDEN
  0
LAYER
  2
DEFAULT_3
 70
0
 62
7
  6
PHANTOM
  0
LAYER
  2
1_AXIS
 70
0
 62
7
  6
CONTINUOUS
  0
LAYER
  2
1_DATUM_PLANES
 70
0
 62
7
  6
CONTINUOUS
  0
LAYER
  2
2_FEATURE
 70
0
 62
7
  6
CONTINUOUS
  0
LAYER
  2
4_CURVE
 70
0
 62
7
  6
CONTINUOUS
  0
LAYER
  2
4_QUILT
 70
0
 62
7
  6
CONTINUOUS
  0
LAYER
  2
6_DIM
 70
0
 62
7
  6
CONTINUOUS
  0
LAYER
  2
BLANK_CURVE
 70
0
 62
7
  6
CONTINUOUS
  0
LAYER
  2
CSYS
 70
0
 62
7
  6
CONTINUOUS
  0
LAYER
  2
NOTES
 70
0
 62
7
  6
CONTINUOUS
  0
LAYER
  2
UDST
 70
0
 62
7
  6
CONTINUOUS
  0
ENDTAB
  0
TABLE
  2
STYLE
 70
1
  0
STYLE
  2
STANDARD
 70
0
 40
0.0
 41
0.8
 50
0.0
 71
0
 42
0.2
  3
txt
  4

  0
STYLE
  2
TEXTSTYLE_1
 70
0
 40
0.0
 41
0.8
 50
0.0
 71
0
 42
0.2
  3
gdt
  4

  0
STYLE
  2
TEXTSTYLE_2
 70
0
 40
0.0
 41
0.6
 50
0.0
 71
0
 42
0.2
  3
txt
  4

  0
STYLE
  2
TEXTSTYLE_3
 70
0
 40
0.0
 41
1.0
 50
0.0
 71
0
 42
0.2
  3
ftb_____.ttf
  4

  0
STYLE
  2
TEXTSTYLE_4
 70
0
 40
0.0
 41
1.0
 50
0.0
 71
0
 42
0.2
  3
fti_____.ttf
  4

  0
STYLE
  2
TEXTSTYLE_5
 70
0
 40
0.0
 41
1.0
 50
0.0
 71
0
 42
0.2
  3
frutiger light.ttf
  4

  0
STYLE
  2
TEXTSTYLE_6
 70
0
 40
0.0
 41
0.7
 50
0.0
 71
0
 42
0.2
  3
txt
  4

  0
STYLE
  2
TEXTSTYLE_7
 70
0
 40
0.0
 41
0.6
 50
0.0
 71
0
 42
0.2
  3
txt
  4

  0
ENDTAB
  0
ENDSEC
  0
SECTION
  2
BLOCKS
  0
BLOCK
  8
0
 62
2
  6
CONTINUOUS
  2
SYMBOL_8_BL1
 70
64
 10
173.5956734183
 20
35.5937998301
  0
TEXT
  8
0
 62
7
  6
CONTINUOUS
 10
164.6539584268
 20
30.6865562072
  7
TEXTSTYLE_4
 40
1.0655737705
  1
The brand for plastic modular belts and chains
 41
1.0
 72
0
  0
LINE
  8
0
 62
7
  6
CONTINUOUS
 10
149.5737418074
 20
36.1675703219
 11
149.5737418074
 21
34.0364227809
  0
LINE
  8
0
 62
7
  6
CONTINUOUS
 10
149.8628043005
 20
31.0454914852
 11
149.8628043005
 21
31.1422825445
  0
LINE
  8
0
 62
7
  6
CONTINUOUS
 10
149.5737418074
 20
31.1100188581
 11
149.6315543091
 21
30.9164367395
  0
LINE
  8
0
 62
7
  6
CONTINUOUS
 10
150.9671844304
 20
33.9544555678
 11
150.9671844304
 21
36.1675703219
  0
LINE
  8
0
 62
7
  6
CONTINUOUS
 10
151.8862417523
 20
32.1101932727
 11
151.8862417523
 21
30.5937998301
  0
LINE
  8
0
 62
7
  6
CONTINUOUS
 10
152.1753043074
 20
30.5937998301
 11
152.1753043074
 21
31.3358647082
  0
LINE
  8
0
 62
7
  6
CONTINUOUS
 10
152.1753043074
 20
31.4649194539
 11
152.1753043074
 21
32.1101932727
  0
LINE
  8
0
 62
7
  6
CONTINUOUS
 10
149.6315543091
 20
31.3036010218
 11
149.5737418074
 21
31.1100188581
  0
LINE
  8
0
 62
7
  6
CONTINUOUS
 10
149.9784292936
 20
30.8841730531
 11
149.8628043005
 21
31.0454914852
  0
LINE
  8
0
 62
7
  6
CONTINUOUS
 10
151.0768668626
 20
31.400392081
 11
151.1346793074
 21
31.3036010218
  0
LINE
  8
0
 62
7
  6
CONTINUOUS
 10
151.4237418626
 20
31.3036010218
 11
151.3659292523
 21
31.4326557675
  0
LINE
  8
0
 62
7
  6
CONTINUOUS
 10
152.852430332
 20
36.1675703219
 11
152.852430332
 21
34.3642916334
  0
LINE
  8
0
 62
7
  6
CONTINUOUS
 10
152.852430332
 20
33.0528162235
 11
152.852430332
 21
32.3970785186
  0
LINE
  8
0
 62
7
  6
CONTINUOUS
 10
153.2159293074
 20
31.2390736489
 11
153.2159293074
 21
30.5937998301
  0
LINE
  8
0
 62
7
  6
CONTINUOUS
 10
153.5049916972
 20
30.5937998301
 11
153.5049916972
 21
31.2390736489
  0
LINE
  8
0
 62
7
  6
CONTINUOUS
 10
149.8628043005
 20
31.1422825445
 11
149.9206168074
 21
31.2713373354
  0
LINE
  8
0
 62
7
  6
CONTINUOUS
 10
149.6315543091
 20
30.9164367395
 11
149.7471793074
 21
30.7873819712
  0
LINE
  8
0
 62
7
  6
CONTINUOUS
 10
153.1581166972
 20
31.3681283946
 11
153.2159293074
 21
31.2390736489
  0
LINE
  8
0
 62
7
  6
CONTINUOUS
 10
153.9674919177
 20
30.8841730531
 11
154.0253041972
 21
30.7551182848
  0
LINE
  8
0
 62
7
  6
CONTINUOUS
 10
153.5049916972
 20
31.2390736489
 11
153.4471794177
 21
31.400392081
  0
LINE
  8
0
 62
7
  6
CONTINUOUS
 10
153.9674919177
 20
31.4326557675
 11
153.9674919177
 21
31.3681283946
  0
LINE
  8
0
 62
7
  6
CONTINUOUS
 10
153.9674919177
 20
30.9809641124
 11
153.9674919177
 21
30.8841730531
  0
LINE
  8
0
 62
7
  6
CONTINUOUS
 10
154.245872955
 20
32.3970785186
 11
154.245872955
 21
36.1675703219
  0
LINE
  8
0
 62
7
  6
CONTINUOUS
 10
154.2565543074
 20
30.8519093441
 11
154.2565543074
 21
30.9164367395
  0
LINE
  8
0
 62
7
  6
CONTINUOUS
 10
154.5737418074
 20
36.1675703219
 11
154.5737418074
 21
32.3970785186
  0
LINE
  8
0
 62
7
  6
CONTINUOUS
 10
151.3659292523
 20
30.7873819712
 11
151.4237418626
 21
30.9164367395
  0
LINE
  8
0
 62
7
  6
CONTINUOUS
 10
155.759679528
 20
30.6905909007
 11
155.7018665869
 21
30.8519093441
  0
LINE
  8
0
 62
7
  6
CONTINUOUS
 10
155.412804528
 20
31.3681283946
 11
155.412804528
 21
31.2713373354
  0
LINE
  8
0
 62
7
  6
CONTINUOUS
 10
155.412804528
 20
31.1422825445
 11
155.412804528
 21
30.9487004259
  0
LINE
  8
0
 62
7
  6
CONTINUOUS
 10
155.7018665869
 20
30.8519093441
 11
155.7018665869
 21
31.3681283946
  0
LINE
  8
0
 62
7
  6
CONTINUOUS
 10
155.9671844304
 20
32.3970785186
 11
155.9671844304
 21
34.2003572071
  0
LINE
  8
0
 62
7
  6
CONTINUOUS
 10
155.9671844304
 20
35.511832617
 11
155.9671844304
 21
36.1675703219
  0
LINE
  8
0
 62
7
  6
CONTINUOUS
 10
156.279992028
 20
32.1101932727
 11
156.279992028
 21
31.9488748406
  0
LINE
  8
0
 62
7
  6
CONTINUOUS
 10
156.279992028
 20
31.626237886
 11
156.279992028
 21
30.5937998301
  0
LINE
  8
0
 62
7
  6
CONTINUOUS
 10
156.5690540869
 20
30.5937998301
 11
156.5690540869
 21
31.626237886
  0
LINE
  8
0
 62
7
  6
CONTINUOUS
 10
156.5690540869
 20
31.9488748406
 11
156.5690540869
 21
32.1101932727
  0
LINE
  8
0
 62
7
  6
CONTINUOUS
 10
151.1346793074
 20
30.9164367395
 11
151.0768668626
 21
30.8196456577
  0
LINE
  8
0
 62
7
  6
CONTINUOUS
 10
153.4471794177
 20
31.400392081
 11
153.3893668074
 21
31.4649194539
  0
LINE
  8
0
 62
7
  6
CONTINUOUS
 10
154.3143669177
 20
30.7873819712
 11
154.2565543074
 21
30.8519093441
  0
LINE
  8
0
 62
7
  6
CONTINUOUS
 10
155.4706168074
 20
30.6583272086
 11
155.5284290869
 21
30.5937998301
  0
LINE
  8
0
 62
7
  6
CONTINUOUS
 10
155.412804528
 20
30.7551182848
 11
155.4706168074
 21
30.6583272086
  0
LINE
  8
0
 62
7
  6
CONTINUOUS
 10
155.8174918074
 20
30.5937998301
 11
155.759679528
 21
30.6905909007
  0
LINE
  8
0
 62
7
  6
CONTINUOUS
 10
155.7018665869
 20
31.3681283946
 11
155.6440543074
 21
31.4649194539
  0
LINE
  8
0
 62
7
  6
CONTINUOUS
 10
157.0315543074
 20
31.626237886
 11
157.0315543074
 21
30.5937998301
  0
LINE
  8
0
 62
7
  6
CONTINUOUS
 10
157.320617028
 20
30.5937998301
 11
157.320617028
 21
31.3358647082
  0
LINE
  8
0
 62
7
  6
CONTINUOUS
 10
157.320617028
 20
31.4649194539
 11
157.320617028
 21
31.626237886
  0
LINE
  8
0
 62
7
  6
CONTINUOUS
 10
157.852430332
 20
34.6101932727
 11
157.852430332
 21
32.3970785186
  0
LINE
  8
0
 62
7
  6
CONTINUOUS
 10
149.7471793074
 20
31.4326557675
 11
149.6315543091
 21
31.3036010218
  0
LINE
  8
0
 62
7
  6
CONTINUOUS
 10
149.9206168074
 20
31.2713373354
 11
149.9784292936
 21
31.3358647082
  0
LINE
  8
0
 62
7
  6
CONTINUOUS
 10
149.7471793074
 20
30.7873819712
 11
149.8628043005
 21
30.7228545871
  0
LINE
  8
0
 62
7
  6
CONTINUOUS
 10
150.1518667936
 20
30.7873819712
 11
149.9784292936
 21
30.8841730531
  0
LINE
  8
0
 62
7
  6
CONTINUOUS
 10
155.3549915869
 20
31.4326557675
 11
155.412804528
 21
31.3681283946
  0
LINE
  8
0
 62
7
  6
CONTINUOUS
 10
158.3034290869
 20
31.3681283946
 11
158.361242028
 21
31.2068099625
  0
LINE
  8
0
 62
7
  6
CONTINUOUS
 10
158.6503040869
 20
31.2068099625
 11
158.5924918074
 21
31.3681283946
  0
LINE
  8
0
 62
7
  6
CONTINUOUS
 10
158.361242028
 20
31.2068099625
 11
158.361242028
 21
30.5937998301
  0
LINE
  8
0
 62
7
  6
CONTINUOUS
 10
158.6503040869
 20
30.5937998301
 11
158.6503040869
 21
31.2068099625
  0
LINE
  8
0
 62
7
  6
CONTINUOUS
 10
159.1128043074
 20
31.4326557675
 11
159.1128043074
 21
31.3681283946
  0
LINE
  8
0
 62
7
  6
CONTINUOUS
 10
159.245872955
 20
32.3970785186
 11
159.245872955
 21
34.5282260596
  0
LINE
  8
0
 62
7
  6
CONTINUOUS
 10
159.5737418074
 20
36.1675703219
 11
159.5737418074
 21
32.3970785186
  0
LINE
  8
0
 62
7
  6
CONTINUOUS
 10
154.2565543074
 20
30.9164367395
 11
154.3143669177
 21
31.0132277988
  0
LINE
  8
0
 62
7
  6
CONTINUOUS
 10
149.8628043005
 20
30.7228545871
 11
150.0362418212
 21
30.6583272086
  0
LINE
  8
0
 62
7
  6
CONTINUOUS
 10
151.3659292523
 20
31.4326557675
 11
151.1924917523
 21
31.5294468267
  0
LINE
  8
0
 62
7
  6
CONTINUOUS
 10
154.0253041972
 20
30.7551182848
 11
154.1987416972
 21
30.6583272086
  0
LINE
  8
0
 62
7
  6
CONTINUOUS
 10
153.0424918074
 20
31.4326557675
 11
153.1581166972
 21
31.3681283946
  0
LINE
  8
0
 62
7
  6
CONTINUOUS
 10
153.3893668074
 20
31.4649194539
 11
153.2737419177
 21
31.5294468267
  0
LINE
  8
0
 62
7
  6
CONTINUOUS
 10
159.1128043074
 20
30.8519093441
 11
159.228429528
 21
30.7228545871
  0
LINE
  8
0
 62
7
  6
CONTINUOUS
 10
159.4596793074
 20
30.7873819712
 11
159.401867028
 21
30.8519093441
  0
LINE
  8
0
 62
7
  6
CONTINUOUS
 10
159.1128043074
 20
31.3681283946
 11
159.228429528
 21
31.2390736489
  0
LINE
  8
0
 62
7
  6
CONTINUOUS
 10
158.5924918074
 20
31.3681283946
 11
158.534679528
 21
31.4649194539
  0
LINE
  8
0
 62
7
  6
CONTINUOUS
 10
160.9628038663
 20
30.7873819712
 11
160.9628038663
 21
30.8519093441
  0
LINE
  8
0
 62
7
  6
CONTINUOUS
 10
160.9671844304
 20
32.3970785186
 11
160.9671844304
 21
36.1675703219
  0
LINE
  8
0
 62
7
  6
CONTINUOUS
 10
154.0253041972
 20
31.4971831403
 11
153.9674919177
 21
31.4326557675
  0
LINE
  8
0
 62
7
  6
CONTINUOUS
 10
150.9034292799
 20
31.4649194539
 11
151.0768668626
 21
31.400392081
  0
LINE
  8
0
 62
7
  6
CONTINUOUS
 10
155.6440543074
 20
31.4649194539
 11
155.5284290869
 21
31.5294468267
  0
LINE
  8
0
 62
7
  6
CONTINUOUS
 10
159.4596793074
 20
31.3036010218
 11
159.401867028
 21
31.3681283946
  0
LINE
  8
0
 62
7
  6
CONTINUOUS
 10
160.615929528
 20
30.9164367395
 11
160.6737418074
 21
30.8519093441
  0
LINE
  8
0
 62
7
  6
CONTINUOUS
 10
160.9628038663
 20
30.8519093441
 11
160.8471793074
 21
30.9809641124
  0
LINE
  8
0
 62
7
  6
CONTINUOUS
 10
160.615929528
 20
31.4326557675
 11
160.6737418074
 21
31.3681283946
  0
LINE
  8
0
 62
7
  6
CONTINUOUS
 10
160.9628038663
 20
31.3681283946
 11
160.8471793074
 21
31.4971831403
  0
LINE
  8
0
 62
7
  6
CONTINUOUS
 10
154.2565543074
 20
31.3681283946
 11
154.3143669177
 21
31.4326557675
  0
LINE
  8
0
 62
7
  6
CONTINUOUS
 10
154.0831168074
 20
31.1100188581
 11
153.9674919177
 21
30.9809641124
  0
LINE
  8
0
 62
7
  6
CONTINUOUS
 10
155.412804528
 20
30.9487004259
 11
155.3549915869
 21
30.8841730531
  0
LINE
  8
0
 62
7
  6
CONTINUOUS
 10
155.3549915869
 20
30.6905909007
 11
155.412804528
 21
30.7551182848
  0
LINE
  8
0
 62
7
  6
CONTINUOUS
 10
154.1987416972
 20
30.6583272086
 11
154.3143669177
 21
30.6260635193
  0
LINE
  8
0
 62
7
  6
CONTINUOUS
 10
151.1924917523
 20
31.5294468267
 11
150.9612418074
 21
31.5939741996
  0
LINE
  8
0
 62
7
  6
CONTINUOUS
 10
154.5456166972
 20
30.7228545871
 11
154.3143669177
 21
30.7873819712
  0
LINE
  8
0
 62
7
  6
CONTINUOUS
 10
153.2737419177
 20
31.5294468267
 11
153.1003044177
 21
31.5939741996
  0
LINE
  8
0
 62
7
  6
CONTINUOUS
 10
155.5284290869
 20
31.5294468267
 11
155.3549915869
 21
31.5939741996
  0
LINE
  8
0
 62
7
  6
CONTINUOUS
 10
158.187804528
 20
31.4326557675
 11
158.3034290869
 21
31.3681283946
  0
LINE
  8
0
 62
7
  6
CONTINUOUS
 10
158.534679528
 20
31.4649194539
 11
158.4190543074
 21
31.5294468267
  0
LINE
  8
0
 62
7
  6
CONTINUOUS
 10
150.0362418212
 20
30.6583272086
 11
150.2096793212
 21
30.6260635193
  0
LINE
  8
0
 62
7
  6
CONTINUOUS
 10
150.498741835
 20
30.7228545871
 11
150.1518667936
 21
30.7873819712
  0
LINE
  8
0
 62
7
  6
CONTINUOUS
 10
152.9268669177
 20
31.4649194539
 11
153.0424918074
 21
31.4326557675
  0
LINE
  8
0
 62
7
  6
CONTINUOUS
 10
155.239367028
 20
31.4649194539
 11
155.3549915869
 21
31.4326557675
  0
LINE
  8
0
 62
7
  6
CONTINUOUS
 10
159.575304528
 20
30.7551182848
 11
159.4596793074
 21
30.7873819712
  0
LINE
  8
0
 62
7
  6
CONTINUOUS
 10
158.0721793074
 20
31.4649194539
 11
158.187804528
 21
31.4326557675
  0
LINE
  8
0
 62
7
  6
CONTINUOUS
 10
159.228429528
 20
30.7228545871
 11
159.401867028
 21
30.6583272086
  0
LINE
  8
0
 62
7
  6
CONTINUOUS
 10
158.4190543074
 20
31.5294468267
 11
158.2456168074
 21
31.5939741996
  0
LINE
  8
0
 62
7
  6
CONTINUOUS
 10
159.6331168074
 20
31.2390736489
 11
159.4596793074
 21
31.3036010218
  0
LINE
  8
0
 62
7
  6
CONTINUOUS
 10
160.442492028
 20
30.9809641124
 11
160.615929528
 21
30.9164367395
  0
LINE
  8
0
 62
7
  6
CONTINUOUS
 10
160.8471793074
 20
31.4971831403
 11
160.6737418074
 21
31.5617105132
  0
LINE
  8
0
 62
7
  6
CONTINUOUS
 10
159.228429528
 20
31.2390736489
 11
159.4596793074
 21
31.1422825445
  0
LINE
  8
0
 62
7
  6
CONTINUOUS
 10
160.8471793074
 20
30.9809641124
 11
160.615929528
 21
31.0777551716
  0
LINE
  8
0
 62
7
  6
CONTINUOUS
 10
159.401867028
 20
31.3681283946
 11
159.4596793074
 21
31.4326557675
  0
LINE
  8
0
 62
7
  6
CONTINUOUS
 10
149.8628043005
 20
31.4971831403
 11
149.7471793074
 21
31.4326557675
  0
LINE
  8
0
 62
7
  6
CONTINUOUS
 10
149.9784292936
 20
31.3358647082
 11
150.1518667936
 21
31.4326557675
  0
LINE
  8
0
 62
7
  6
CONTINUOUS
 10
152.2909293626
 20
31.5294468267
 11
152.1753043074
 21
31.4649194539
  0
LINE
  8
0
 62
7
  6
CONTINUOUS
 10
152.1753043074
 20
31.3358647082
 11
152.2909293626
 21
31.400392081
  0
LINE
  8
0
 62
7
  6
CONTINUOUS
 10
151.1924917523
 20
30.6905909007
 11
151.3659292523
 21
30.7873819712
  0
LINE
  8
0
 62
7
  6
CONTINUOUS
 10
150.2096793212
 20
30.6260635193
 11
150.5565542799
 21
30.5937998301
  0
LINE
  8
0
 62
7
  6
CONTINUOUS
 10
154.3143669177
 20
30.6260635193
 11
154.5456166972
 21
30.5937998301
  0
LINE
  8
0
 62
7
  6
CONTINUOUS
 10
152.6956168074
 20
31.4971831403
 11
152.9268669177
 21
31.4649194539
  0
LINE
  8
0
 62
7
  6
CONTINUOUS
 10
155.0081169177
 20
31.4971831403
 11
155.239367028
 21
31.4649194539
  0
LINE
  8
0
 62
7
  6
CONTINUOUS
 10
159.4596793074
 20
31.1422825445
 11
160.442492028
 21
30.9809641124
  0
LINE
  8
0
 62
7
  6
CONTINUOUS
 10
160.615929528
 20
31.0777551716
 11
159.6331168074
 21
31.2390736489
  0
LINE
  8
0
 62
7
  6
CONTINUOUS
 10
153.1003044177
 20
31.5939741996
 11
152.9268669177
 21
31.626237886
  0
LINE
  8
0
 62
7
  6
CONTINUOUS
 10
159.401867028
 20
30.6583272086
 11
159.575304528
 21
30.6260635193
  0
LINE
  8
0
 62
7
  6
CONTINUOUS
 10
158.2456168074
 20
31.5939741996
 11
158.0721793074
 21
31.626237886
  0
LINE
  8
0
 62
7
  6
CONTINUOUS
 10
160.5003043074
 20
31.4649194539
 11
160.615929528
 21
31.4326557675
  0
LINE
  8
0
 62
7
  6
CONTINUOUS
 10
160.6737418074
 20
30.8519093441
 11
160.615929528
 21
30.7873819712
  0
LINE
  8
0
 62
7
  6
CONTINUOUS
 10
159.228429528
 20
31.5294468267
 11
159.1128043074
 21
31.4326557675
  0
LINE
  8
0
 62
7
  6
CONTINUOUS
 10
154.1409294177
 20
31.5617105132
 11
154.0253041972
 21
31.4971831403
  0
LINE
  8
0
 62
7
  6
CONTINUOUS
 10
154.1987416972
 20
31.1745462761
 11
154.0831168074
 21
31.1100188581
  0
LINE
  8
0
 62
7
  6
CONTINUOUS
 10
154.3143669177
 20
31.0132277988
 11
154.4299918074
 21
31.0777551716
  0
LINE
  8
0
 62
7
  6
CONTINUOUS
 10
151.8862417523
 20
30.5937998301
 11
152.1753043074
 21
30.5937998301
  0
LINE
  8
0
 62
7
  6
CONTINUOUS
 10
153.2159293074
 20
30.5937998301
 11
153.5049916972
 21
30.5937998301
  0
LINE
  8
0
 62
7
  6
CONTINUOUS
 10
154.5456166972
 20
30.5937998301
 11
154.8924916972
 21
30.5937998301
  0
LINE
  8
0
 62
7
  6
CONTINUOUS
 10
155.5284290869
 20
30.5937998301
 11
155.8174918074
 21
30.5937998301
  0
LINE
  8
0
 62
7
  6
CONTINUOUS
 10
156.279992028
 20
30.5937998301
 11
156.5690540869
 21
30.5937998301
  0
LINE
  8
0
 62
7
  6
CONTINUOUS
 10
157.0315543074
 20
30.5937998301
 11
157.320617028
 21
30.5937998301
  0
LINE
  8
0
 62
7
  6
CONTINUOUS
 10
158.361242028
 20
30.5937998301
 11
158.6503040869
 21
30.5937998301
  0
LINE
  8
0
 62
7
  6
CONTINUOUS
 10
159.922179528
 20
30.5937998301
 11
160.269054528
 21
30.5937998301
  0
LINE
  8
0
 62
7
  6
CONTINUOUS
 10
160.269054528
 20
30.7228545871
 11
159.922179528
 21
30.7228545871
  0
LINE
  8
0
 62
7
  6
CONTINUOUS
 10
154.8924916972
 20
30.7228545871
 11
154.5456166972
 21
30.7228545871
  0
LINE
  8
0
 62
7
  6
CONTINUOUS
 10
159.401867028
 20
30.8519093441
 11
159.1128043074
 21
30.8519093441
  0
LINE
  8
0
 62
7
  6
CONTINUOUS
 10
151.4237418626
 20
30.9164367395
 11
151.1346793074
 21
30.9164367395
  0
LINE
  8
0
 62
7
  6
CONTINUOUS
 10
150.498741835
 20
31.4971831403
 11
150.9034292799
 21
31.4649194539
  0
LINE
  8
0
 62
7
  6
CONTINUOUS
 10
150.9612418074
 20
31.5939741996
 11
150.5565542799
 21
31.626237886
  0
LINE
  8
0
 62
7
  6
CONTINUOUS
 10
159.575304528
 20
30.6260635193
 11
159.922179528
 21
30.5937998301
  0
LINE
  8
0
 62
7
  6
CONTINUOUS
 10
159.922179528
 20
30.7228545871
 11
159.575304528
 21
30.7551182848
  0
LINE
  8
0
 62
7
  6
CONTINUOUS
 10
155.3549915869
 20
31.5939741996
 11
155.0081169177
 21
31.626237886
  0
LINE
  8
0
 62
7
  6
CONTINUOUS
 10
160.1534293074
 20
31.4971831403
 11
160.5003043074
 21
31.4649194539
  0
LINE
  8
0
 62
7
  6
CONTINUOUS
 10
160.5003043074
 20
31.5939741996
 11
160.1534293074
 21
31.626237886
  0
LINE
  8
0
 62
7
  6
CONTINUOUS
 10
157.840929528
 20
31.4971831403
 11
158.0721793074
 21
31.4649194539
  0
LINE
  8
0
 62
7
  6
CONTINUOUS
 10
160.6737418074
 20
31.5617105132
 11
160.5003043074
 21
31.5939741996
  0
LINE
  8
0
 62
7
  6
CONTINUOUS
 10
160.8471793074
 20
30.6905909007
 11
160.9628038663
 21
30.7873819712
  0
LINE
  8
0
 62
7
  6
CONTINUOUS
 10
155.3549915869
 20
30.8841730531
 11
155.1815540869
 21
30.7873819712
  0
LINE
  8
0
 62
7
  6
CONTINUOUS
 10
157.4362415869
 20
31.5294468267
 11
157.320617028
 21
31.4649194539
  0
LINE
  8
0
 62
7
  6
CONTINUOUS
 10
157.320617028
 20
31.3358647082
 11
157.4362415869
 21
31.400392081
  0
LINE
  8
0
 62
7
  6
CONTINUOUS
 10
150.0362418212
 20
31.5617105132
 11
149.8628043005
 21
31.4971831403
  0
LINE
  8
0
 62
7
  6
CONTINUOUS
 10
152.4643666972
 20
31.5939741996
 11
152.2909293626
 21
31.5294468267
  0
LINE
  8
0
 62
7
  6
CONTINUOUS
 10
152.2909293626
 20
31.400392081
 11
152.4643666972
 21
31.4649194539
  0
LINE
  8
0
 62
7
  6
CONTINUOUS
 10
151.0768668626
 20
30.8196456577
 11
150.9034292799
 21
30.7551182848
  0
LINE
  8
0
 62
7
  6
CONTINUOUS
 10
160.5003043074
 20
30.7551182848
 11
160.269054528
 21
30.7228545871
  0
LINE
  8
0
 62
7
  6
CONTINUOUS
 10
154.8924916972
 20
30.5937998301
 11
155.1815540869
 21
30.6260635193
  0
LINE
  8
0
 62
7
  6
CONTINUOUS
 10
160.269054528
 20
30.5937998301
 11
160.615929528
 21
30.6260635193
  0
LINE
  8
0
 62
7
  6
CONTINUOUS
 10
150.5565542799
 20
30.5937998301
 11
150.9612418074
 21
30.6260635193
  0
LINE
  8
0
 62
7
  6
CONTINUOUS
 10
150.9034292799
 20
30.7551182848
 11
150.498741835
 21
30.7228545871
  0
LINE
  8
0
 62
7
  6
CONTINUOUS
 10
154.7768668074
 20
31.1422825445
 11
155.412804528
 21
31.1422825445
  0
LINE
  8
0
 62
7
  6
CONTINUOUS
 10
155.412804528
 20
31.2713373354
 11
154.7768668074
 21
31.2713373354
  0
LINE
  8
0
 62
7
  6
CONTINUOUS
 10
151.1346793074
 20
31.3036010218
 11
151.4237418626
 21
31.3036010218
  0
LINE
  8
0
 62
7
  6
CONTINUOUS
 10
153.9674919177
 20
31.3681283946
 11
154.2565543074
 21
31.3681283946
  0
LINE
  8
0
 62
7
  6
CONTINUOUS
 10
160.6737418074
 20
31.3681283946
 11
160.9628038663
 21
31.3681283946
  0
LINE
  8
0
 62
7
  6
CONTINUOUS
 10
154.6612419177
 20
31.4971831403
 11
155.0081169177
 21
31.4971831403
  0
LINE
  8
0
 62
7
  6
CONTINUOUS
 10
159.8065543074
 20
31.4971831403
 11
160.1534293074
 21
31.4971831403
  0
LINE
  8
0
 62
7
  6
CONTINUOUS
 10
160.1534293074
 20
31.626237886
 11
159.8065543074
 21
31.626237886
  0
LINE
  8
0
 62
7
  6
CONTINUOUS
 10
158.0721793074
 20
31.626237886
 11
157.840929528
 21
31.626237886
  0
LINE
  8
0
 62
7
  6
CONTINUOUS
 10
157.320617028
 20
31.626237886
 11
157.0315543074
 21
31.626237886
  0
LINE
  8
0
 62
7
  6
CONTINUOUS
 10
156.5690540869
 20
31.626237886
 11
156.279992028
 21
31.626237886
  0
LINE
  8
0
 62
7
  6
CONTINUOUS
 10
155.0081169177
 20
31.626237886
 11
154.6612419177
 21
31.626237886
  0
LINE
  8
0
 62
7
  6
CONTINUOUS
 10
152.9268669177
 20
31.626237886
 11
152.6956168074
 21
31.626237886
  0
LINE
  8
0
 62
7
  6
CONTINUOUS
 10
156.279992028
 20
31.9488748406
 11
156.5690540869
 21
31.9488748406
  0
LINE
  8
0
 62
7
  6
CONTINUOUS
 10
156.5690540869
 20
32.1101932727
 11
156.279992028
 21
32.1101932727
  0
LINE
  8
0
 62
7
  6
CONTINUOUS
 10
152.1753043074
 20
32.1101932727
 11
151.8862417523
 21
32.1101932727
  0
LINE
  8
0
 62
7
  6
CONTINUOUS
 10
151.2130860697
 20
32.3970785186
 11
151.6256574183
 21
32.3970785186
  0
LINE
  8
0
 62
7
  6
CONTINUOUS
 10
152.852430332
 20
32.3970785186
 11
154.245872955
 21
32.3970785186
  0
LINE
  8
0
 62
7
  6
CONTINUOUS
 10
154.5737418074
 20
32.3970785186
 11
155.9671844304
 21
32.3970785186
  0
LINE
  8
0
 62
7
  6
CONTINUOUS
 10
157.852430332
 20
32.3970785186
 11
159.245872955
 21
32.3970785186
  0
LINE
  8
0
 62
7
  6
CONTINUOUS
 10
159.5737418074
 20
32.3970785186
 11
160.9671844304
 21
32.3970785186
  0
LINE
  8
0
 62
7
  6
CONTINUOUS
 10
157.6096790869
 20
31.5939741996
 11
157.4362415869
 21
31.5294468267
  0
LINE
  8
0
 62
7
  6
CONTINUOUS
 10
155.1815540869
 20
30.6260635193
 11
155.3549915869
 21
30.6905909007
  0
LINE
  8
0
 62
7
  6
CONTINUOUS
 10
160.615929528
 20
30.6260635193
 11
160.8471793074
 21
30.6905909007
  0
LINE
  8
0
 62
7
  6
CONTINUOUS
 10
160.615929528
 20
30.7873819712
 11
160.5003043074
 21
30.7551182848
  0
LINE
  8
0
 62
7
  6
CONTINUOUS
 10
159.575304528
 20
31.4649194539
 11
159.8065543074
 21
31.4971831403
  0
LINE
  8
0
 62
7
  6
CONTINUOUS
 10
157.6096790869
 20
31.4649194539
 11
157.840929528
 21
31.4971831403
  0
LINE
  8
0
 62
7
  6
CONTINUOUS
 10
154.5456166972
 20
31.1100188581
 11
154.7768668074
 21
31.1422825445
  0
LINE
  8
0
 62
7
  6
CONTINUOUS
 10
157.840929528
 20
31.626237886
 11
157.6096790869
 21
31.5939741996
  0
LINE
  8
0
 62
7
  6
CONTINUOUS
 10
154.4299918074
 20
31.4649194539
 11
154.6612419177
 21
31.4971831403
  0
LINE
  8
0
 62
7
  6
CONTINUOUS
 10
159.8065543074
 20
31.626237886
 11
159.4596793074
 21
31.5939741996
  0
LINE
  8
0
 62
7
  6
CONTINUOUS
 10
154.7768668074
 20
31.2713373354
 11
154.4299918074
 21
31.2390736489
  0
LINE
  8
0
 62
7
  6
CONTINUOUS
 10
150.5565542799
 20
31.626237886
 11
150.2096793212
 21
31.5939741996
  0
LINE
  8
0
 62
7
  6
CONTINUOUS
 10
154.6612419177
 20
31.626237886
 11
154.2565543074
 21
31.5939741996
  0
LINE
  8
0
 62
7
  6
CONTINUOUS
 10
152.0327582009
 20
33.5446195022
 11
151.3770204959
 21
33.5446195022
  0
LINE
  8
0
 62
7
  6
CONTINUOUS
 10
157.4362415869
 20
31.400392081
 11
157.6096790869
 21
31.4649194539
  0
LINE
  8
0
 62
7
  6
CONTINUOUS
 10
159.4596793074
 20
31.4326557675
 11
159.575304528
 21
31.4649194539
  0
LINE
  8
0
 62
7
  6
CONTINUOUS
 10
159.4596793074
 20
31.5939741996
 11
159.228429528
 21
31.5294468267
  0
LINE
  8
0
 62
7
  6
CONTINUOUS
 10
155.1815540869
 20
30.7873819712
 11
154.8924916972
 21
30.7228545871
  0
LINE
  8
0
 62
7
  6
CONTINUOUS
 10
152.4643666972
 20
31.4649194539
 11
152.6956168074
 21
31.4971831403
  0
LINE
  8
0
 62
7
  6
CONTINUOUS
 10
152.6956168074
 20
31.626237886
 11
152.4643666972
 21
31.5939741996
  0
LINE
  8
0
 62
7
  6
CONTINUOUS
 10
150.2674918074
 20
31.4649194539
 11
150.498741835
 21
31.4971831403
  0
LINE
  8
0
 62
7
  6
CONTINUOUS
 10
156.7868565615
 20
35.0200293383
 11
157.4425942664
 21
35.0200293383
  0
LINE
  8
0
 62
7
  6
CONTINUOUS
 10
154.4299918074
 20
31.0777551716
 11
154.5456166972
 21
31.1100188581
  0
LINE
  8
0
 62
7
  6
CONTINUOUS
 10
154.4299918074
 20
31.2390736489
 11
154.1987416972
 21
31.1745462761
  0
LINE
  8
0
 62
7
  6
CONTINUOUS
 10
154.3143669177
 20
31.4326557675
 11
154.4299918074
 21
31.4649194539
  0
LINE
  8
0
 62
7
  6
CONTINUOUS
 10
150.9612418074
 20
30.6260635193
 11
151.1924917523
 21
30.6905909007
  0
LINE
  8
0
 62
7
  6
CONTINUOUS
 10
154.2565543074
 20
31.5939741996
 11
154.1409294177
 21
31.5617105132
  0
LINE
  8
0
 62
7
  6
CONTINUOUS
 10
150.2096793212
 20
31.5939741996
 11
150.0362418212
 21
31.5617105132
  0
LINE
  8
0
 62
7
  6
CONTINUOUS
 10
160.9671844304
 20
36.1675703219
 11
159.5737418074
 21
36.1675703219
  0
LINE
  8
0
 62
7
  6
CONTINUOUS
 10
157.6065286927
 20
36.1675703219
 11
157.1939573441
 21
36.1675703219
  0
LINE
  8
0
 62
7
  6
CONTINUOUS
 10
155.9671844304
 20
36.1675703219
 11
154.5737418074
 21
36.1675703219
  0
LINE
  8
0
 62
7
  6
CONTINUOUS
 10
154.245872955
 20
36.1675703219
 11
152.852430332
 21
36.1675703219
  0
LINE
  8
0
 62
7
  6
CONTINUOUS
 10
150.9671844304
 20
36.1675703219
 11
149.5737418074
 21
36.1675703219
  0
LINE
  8
0
 62
7
  6
CONTINUOUS
 10
150.1518667936
 20
31.4326557675
 11
150.2674918074
 21
31.4649194539
  0
CIRCLE
  8
0
 62
7
  6
CONTINUOUS
 10
160.2704631189
 20
38.5036358957
 40
2.0901639344
  0
ARC
  8
0
 62
7
  6
CONTINUOUS
 10
151.2130860697
 20
34.0364227809
 40
1.6393442623
 50
180.0
 51
270.0
  0
ARC
  8
0
 62
7
  6
CONTINUOUS
 10
157.6065286927
 20
34.5282260596
 40
1.6393442623
 50
0.0
 51
90.0
  0
ARC
  8
0
 62
7
  6
CONTINUOUS
 10
151.6256574183
 20
33.8724883547
 40
1.4754098361
 50
270.0
 51
326.2510114041
  0
ARC
  8
0
 62
7
  6
CONTINUOUS
 10
157.1939573441
 20
34.6921604858
 40
1.4754098361
 50
90.0
 51
146.2510114041
  0
ARC
  8
0
 62
7
  6
CONTINUOUS
 10
152.0327582009
 20
34.3642916334
 40
0.8196721311
 50
270.0
 51
360.0
  0
ARC
  8
0
 62
7
  6
CONTINUOUS
 10
156.7868565615
 20
34.2003572071
 40
0.8196721311
 50
90.0
 51
180.0
  0
ARC
  8
0
 62
7
  6
CONTINUOUS
 10
151.3770204959
 20
33.9544555678
 40
0.4098360656
 50
180.0
 51
270.0
  0
ARC
  8
0
 62
7
  6
CONTINUOUS
 10
157.4425942664
 20
34.6101932727
 40
0.4098360656
 50
0.0
 51
90.0
  0
SOLID
  8
0
 62
7
  6
CONTINUOUS
 10
156.279992028
 20
31.9488752009
 11
156.279992028
 21
32.1101936845
 12
156.5690540869
 22
31.9488752009
 13
156.5690540869
 23
32.1101936845
  0
SOLID
  8
0
 62
7
  6
CONTINUOUS
 10
150.5565542799
 20
31.6262382337
 11
150.9612418074
 21
31.5939740028
 12
150.2096793212
 22
31.5939740028
 13
150.2096793212
 23
31.5939740028
  0
SOLID
  8
0
 62
7
  6
CONTINUOUS
 10
150.0362418212
 20
31.5617111435
 11
150.2096793212
 21
31.5939740028
 12
150.9612418074
 22
31.5939740028
 13
150.9612418074
 23
31.5939740028
  0
SOLID
  8
0
 62
7
  6
CONTINUOUS
 10
150.9612418074
 20
31.5939740028
 11
151.1924917523
 21
31.5294468402
 12
150.0362418212
 22
31.5617111435
 13
150.0362418212
 23
31.5617111435
  0
SOLID
  8
0
 62
7
  6
CONTINUOUS
 10
149.8628043005
 20
31.49718259
 11
150.0362418212
 21
31.5617111435
 12
151.1924917523
 22
31.5294468402
 13
151.1924917523
 23
31.5294468402
  0
SOLID
  8
0
 62
7
  6
CONTINUOUS
 10
149.8628043005
 20
31.49718259
 11
151.1924917523
 21
31.5294468402
 12
150.498741835
 22
31.49718259
 13
150.498741835
 23
31.49718259
  0
SOLID
  8
0
 62
7
  6
CONTINUOUS
 10
150.498741835
 20
31.49718259
 11
151.1924917523
 21
31.5294468402
 12
150.9034292799
 22
31.4649197501
 13
150.9034292799
 23
31.4649197501
  0
SOLID
  8
0
 62
7
  6
CONTINUOUS
 10
151.1924917523
 20
31.5294468402
 11
151.3659292523
 21
31.4326554468
 12
150.9034292799
 22
31.4649197501
 13
150.9034292799
 23
31.4649197501
  0
SOLID
  8
0
 62
7
  6
CONTINUOUS
 10
151.0768668626
 20
31.4003926599
 11
150.9034292799
 21
31.4649197501
 12
151.3659292523
 22
31.4326554468
 13
151.3659292523
 23
31.4326554468
  0
SOLID
  8
0
 62
7
  6
CONTINUOUS
 10
151.0768668626
 20
31.4003926599
 11
151.3659292523
 21
31.4326554468
 12
151.1346793074
 22
31.3036013776
 13
151.1346793074
 23
31.3036013776
  0
SOLID
  8
0
 62
7
  6
CONTINUOUS
 10
151.3659292523
 20
31.4326554468
 11
151.4237418626
 21
31.3036013776
 12
151.1346793074
 22
31.3036013776
 13
151.1346793074
 23
31.3036013776
  0
SOLID
  8
0
 62
7
  6
CONTINUOUS
 10
152.4643666972
 20
31.5939739754
 11
152.6956168074
 21
31.6262382787
 12
152.9268669177
 22
31.6262382787
 13
152.9268669177
 23
31.6262382787
  0
SOLID
  8
0
 62
7
  6
CONTINUOUS
 10
152.9268669177
 20
31.6262382787
 11
153.1003044177
 21
31.5939739754
 12
152.4643666972
 22
31.5939739754
 13
152.4643666972
 23
31.5939739754
  0
SOLID
  8
0
 62
7
  6
CONTINUOUS
 10
152.2909293626
 20
31.5294468852
 11
152.4643666972
 21
31.5939739754
 12
153.1003044177
 22
31.5939739754
 13
153.1003044177
 23
31.5939739754
  0
SOLID
  8
0
 62
7
  6
CONTINUOUS
 10
153.1003044177
 20
31.5939739754
 11
153.2737419177
 21
31.5294468852
 12
152.2909293626
 22
31.5294468852
 13
152.2909293626
 23
31.5294468852
  0
SOLID
  8
0
 62
7
  6
CONTINUOUS
 10
153.2737419177
 20
31.5294468852
 11
152.6956168074
 21
31.4971825369
 12
152.2909293626
 22
31.5294468852
 13
152.2909293626
 23
31.5294468852
  0
SOLID
  8
0
 62
7
  6
CONTINUOUS
 10
152.1753043074
 20
31.4649197951
 11
152.2909293626
 21
31.5294468852
 12
152.6956168074
 22
31.4971825369
 13
152.6956168074
 23
31.4971825369
  0
SOLID
  8
0
 62
7
  6
CONTINUOUS
 10
152.6956168074
 20
31.4971825369
 11
152.4643666972
 21
31.4649197951
 12
152.1753043074
 22
31.4649197951
 13
152.1753043074
 23
31.4649197951
  0
SOLID
  8
0
 62
7
  6
CONTINUOUS
 10
152.6956168074
 20
31.4971825369
 11
153.2737419177
 21
31.5294468852
 12
152.9268669177
 22
31.4649197951
 13
152.9268669177
 23
31.4649197951
  0
SOLID
  8
0
 62
7
  6
CONTINUOUS
 10
153.2737419177
 20
31.5294468852
 11
153.3893668074
 21
31.4649197951
 12
152.9268669177
 22
31.4649197951
 13
152.9268669177
 23
31.4649197951
  0
SOLID
  8
0
 62
7
  6
CONTINUOUS
 10
153.0424918074
 20
31.4326554468
 11
152.9268669177
 21
31.4649197951
 12
153.3893668074
 22
31.4649197951
 13
153.3893668074
 23
31.4649197951
  0
SOLID
  8
0
 62
7
  6
CONTINUOUS
 10
153.3893668074
 20
31.4649197951
 11
153.4471794177
 21
31.4003927049
 12
153.0424918074
 22
31.4326554468
 13
153.0424918074
 23
31.4326554468
  0
SOLID
  8
0
 62
7
  6
CONTINUOUS
 10
153.1581166972
 20
31.3681283566
 11
153.0424918074
 21
31.4326554468
 12
153.4471794177
 22
31.4003927049
 13
153.4471794177
 23
31.4003927049
  0
SOLID
  8
0
 62
7
  6
CONTINUOUS
 10
153.1581166972
 20
31.3681283566
 11
153.4471794177
 21
31.4003927049
 12
153.2159293074
 22
31.2390742213
 13
153.2159293074
 23
31.2390742213
  0
SOLID
  8
0
 62
7
  6
CONTINUOUS
 10
153.4471794177
 20
31.4003927049
 11
153.5049916972
 21
31.2390742213
 12
153.2159293074
 22
31.2390742213
 13
153.2159293074
 23
31.2390742213
  0
SOLID
  8
0
 62
7
  6
CONTINUOUS
 10
152.4643666972
 20
31.4649197951
 11
152.2909293626
 21
31.4003927049
 12
152.1753043074
 22
31.4649197951
 13
152.1753043074
 23
31.4649197951
  0
SOLID
  8
0
 62
7
  6
CONTINUOUS
 10
152.2909293626
 20
31.4003927049
 11
152.1753043074
 21
31.3358640533
 12
152.1753043074
 22
31.4649197951
 13
152.1753043074
 23
31.4649197951
  0
SOLID
  8
0
 62
7
  6
CONTINUOUS
 10
152.1753043074
 20
31.3358640533
 11
151.8862417523
 21
30.5938002869
 12
152.1753043074
 22
31.4649197951
 13
152.1753043074
 23
31.4649197951
  0
SOLID
  8
0
 62
7
  6
CONTINUOUS
 10
152.1753043074
 20
31.4649197951
 11
151.8862417523
 21
30.5938002869
 12
152.1753043074
 22
32.1101937295
 13
152.1753043074
 23
32.1101937295
  0
SOLID
  8
0
 62
7
  6
CONTINUOUS
 10
151.8862417523
 20
30.5938002869
 11
151.8862417523
 21
32.1101937295
 12
152.1753043074
 22
32.1101937295
 13
152.1753043074
 23
32.1101937295
  0
SOLID
  8
0
 62
7
  6
CONTINUOUS
 10
152.1753043074
 20
31.3358640533
 11
152.1753043074
 21
30.5938002869
 12
151.8862417523
 22
30.5938002869
 13
151.8862417523
 23
30.5938002869
  0
SOLID
  8
0
 62
7
  6
CONTINUOUS
 10
153.2159293074
 20
30.5938002869
 11
153.2159293074
 21
31.2390742213
 12
153.5049916972
 22
31.2390742213
 13
153.5049916972
 23
31.2390742213
  0
SOLID
  8
0
 62
7
  6
CONTINUOUS
 10
153.5049916972
 20
31.2390742213
 11
153.5049916972
 21
30.5938002869
 12
153.2159293074
 22
30.5938002869
 13
153.2159293074
 23
30.5938002869
  0
SOLID
  8
0
 62
7
  6
CONTINUOUS
 10
154.2565543074
 20
31.5939738288
 11
154.6612419177
 21
31.6262385959
 12
155.0081169177
 22
31.6262385959
 13
155.0081169177
 23
31.6262385959
  0
SOLID
  8
0
 62
7
  6
CONTINUOUS
 10
155.0081169177
 20
31.6262385959
 11
155.3549915869
 21
31.5939738288
 12
154.2565543074
 22
31.5939738288
 13
154.2565543074
 23
31.5939738288
  0
SOLID
  8
0
 62
7
  6
CONTINUOUS
 10
154.1409294177
 20
31.5617111435
 11
154.2565543074
 21
31.5939738288
 12
155.3549915869
 22
31.5939738288
 13
155.3549915869
 23
31.5939738288
  0
SOLID
  8
0
 62
7
  6
CONTINUOUS
 10
155.3549915869
 20
31.5939738288
 11
155.5284290869
 21
31.5294468402
 12
154.1409294177
 22
31.5617111435
 13
154.1409294177
 23
31.5617111435
  0
SOLID
  8
0
 62
7
  6
CONTINUOUS
 10
154.0253041972
 20
31.4971826249
 11
154.1409294177
 21
31.5617111435
 12
155.5284290869
 22
31.5294468402
 13
155.5284290869
 23
31.5294468402
  0
SOLID
  8
0
 62
7
  6
CONTINUOUS
 10
154.0253041972
 20
31.4971826249
 11
155.5284290869
 21
31.5294468402
 12
154.6612419177
 22
31.4971826249
 13
154.6612419177
 23
31.4971826249
  0
SOLID
  8
0
 62
7
  6
CONTINUOUS
 10
154.6612419177
 20
31.4971826249
 11
155.5284290869
 21
31.5294468402
 12
155.0081169177
 22
31.4971826249
 13
155.0081169177
 23
31.4971826249
  0
SOLID
  8
0
 62
7
  6
CONTINUOUS
 10
155.0081169177
 20
31.4971826249
 11
155.5284290869
 21
31.5294468402
 12
155.239367028
 22
31.4649194065
 13
155.239367028
 23
31.4649194065
  0
SOLID
  8
0
 62
7
  6
CONTINUOUS
 10
155.5284290869
 20
31.5294468402
 11
155.6440543074
 21
31.4649194065
 12
155.239367028
 22
31.4649194065
 13
155.239367028
 23
31.4649194065
  0
SOLID
  8
0
 62
7
  6
CONTINUOUS
 10
153.9674919177
 20
31.4326554138
 11
154.0253041972
 21
31.4971826249
 12
154.6612419177
 22
31.4971826249
 13
154.6612419177
 23
31.4971826249
  0
SOLID
  8
0
 62
7
  6
CONTINUOUS
 10
155.3549915869
 20
31.4326554138
 11
155.239367028
 21
31.4649194065
 12
155.6440543074
 22
31.4649194065
 13
155.6440543074
 23
31.4649194065
  0
SOLID
  8
0
 62
7
  6
CONTINUOUS
 10
155.3549915869
 20
31.4326554138
 11
155.6440543074
 21
31.4649194065
 12
155.412804528
 22
31.3681282026
 13
155.412804528
 23
31.3681282026
  0
SOLID
  8
0
 62
7
  6
CONTINUOUS
 10
155.6440543074
 20
31.4649194065
 11
155.7018665869
 21
31.3681282026
 12
155.412804528
 22
31.3681282026
 13
155.412804528
 23
31.3681282026
  0
SOLID
  8
0
 62
7
  6
CONTINUOUS
 10
155.412804528
 20
31.2713369632
 11
155.412804528
 21
31.3681282026
 12
155.7018665869
 22
31.3681282026
 13
155.7018665869
 23
31.3681282026
  0
SOLID
  8
0
 62
7
  6
CONTINUOUS
 10
155.412804528
 20
31.2713369632
 11
155.7018665869
 21
31.3681282026
 12
155.412804528
 22
31.1422827828
 13
155.412804528
 23
31.1422827828
  0
SOLID
  8
0
 62
7
  6
CONTINUOUS
 10
155.412804528
 20
31.1422827828
 11
155.7018665869
 21
31.3681282026
 12
155.412804528
 22
30.9487004259
 13
155.412804528
 23
30.9487004259
  0
SOLID
  8
0
 62
7
  6
CONTINUOUS
 10
155.7018665869
 20
31.3681282026
 11
155.7018665869
 21
30.8519086025
 12
155.412804528
 22
30.9487004259
 13
155.412804528
 23
30.9487004259
  0
SOLID
  8
0
 62
7
  6
CONTINUOUS
 10
157.6096790869
 20
31.5939736268
 11
157.840929528
 21
31.6262383465
 12
158.0721793074
 22
31.6262383465
 13
158.0721793074
 23
31.6262383465
  0
SOLID
  8
0
 62
7
  6
CONTINUOUS
 10
158.0721793074
 20
31.6262383465
 11
158.2456168074
 21
31.5939736268
 12
157.6096790869
 22
31.5939736268
 13
157.6096790869
 23
31.5939736268
  0
SOLID
  8
0
 62
7
  6
CONTINUOUS
 10
157.4362415869
 20
31.5294472848
 11
157.6096790869
 21
31.5939736268
 12
158.2456168074
 22
31.5939736268
 13
158.2456168074
 23
31.5939736268
  0
SOLID
  8
0
 62
7
  6
CONTINUOUS
 10
158.2456168074
 20
31.5939736268
 11
158.4190543074
 21
31.5294472848
 12
157.4362415869
 22
31.5294472848
 13
157.4362415869
 23
31.5294472848
  0
SOLID
  8
0
 62
7
  6
CONTINUOUS
 10
158.4190543074
 20
31.5294472848
 11
157.840929528
 21
31.4971825369
 12
157.4362415869
 22
31.5294472848
 13
157.4362415869
 23
31.5294472848
  0
SOLID
  8
0
 62
7
  6
CONTINUOUS
 10
157.320617028
 20
31.4649199103
 11
157.4362415869
 21
31.5294472848
 12
157.840929528
 22
31.4971825369
 13
157.840929528
 23
31.4971825369
  0
SOLID
  8
0
 62
7
  6
CONTINUOUS
 10
157.840929528
 20
31.4971825369
 11
157.6096790869
 21
31.4649199103
 12
157.320617028
 22
31.4649199103
 13
157.320617028
 23
31.4649199103
  0
SOLID
  8
0
 62
7
  6
CONTINUOUS
 10
157.840929528
 20
31.4971825369
 11
158.4190543074
 21
31.5294472848
 12
158.0721793074
 22
31.4649199103
 13
158.0721793074
 23
31.4649199103
  0
SOLID
  8
0
 62
7
  6
CONTINUOUS
 10
158.4190543074
 20
31.5294472848
 11
158.534679528
 21
31.4649199103
 12
158.0721793074
 22
31.4649199103
 13
158.0721793074
 23
31.4649199103
  0
SOLID
  8
0
 62
7
  6
CONTINUOUS
 10
158.187804528
 20
31.4326554468
 11
158.0721793074
 21
31.4649199103
 12
158.534679528
 22
31.4649199103
 13
158.534679528
 23
31.4649199103
  0
SOLID
  8
0
 62
7
  6
CONTINUOUS
 10
158.187804528
 20
31.4326554468
 11
158.534679528
 21
31.4649199103
 12
158.3034290869
 22
31.3681288486
 13
158.3034290869
 23
31.3681288486
  0
SOLID
  8
0
 62
7
  6
CONTINUOUS
 10
158.534679528
 20
31.4649199103
 11
158.5924918074
 21
31.3681288486
 12
158.3034290869
 22
31.3681288486
 13
158.3034290869
 23
31.3681288486
  0
SOLID
  8
0
 62
7
  6
CONTINUOUS
 10
158.361242028
 20
31.2068093799
 11
158.3034290869
 21
31.3681288486
 12
158.5924918074
 22
31.3681288486
 13
158.5924918074
 23
31.3681288486
  0
SOLID
  8
0
 62
7
  6
CONTINUOUS
 10
158.5924918074
 20
31.3681288486
 11
158.6503040869
 21
31.2068093799
 12
158.361242028
 22
31.2068093799
 13
158.361242028
 23
31.2068093799
  0
SOLID
  8
0
 62
7
  6
CONTINUOUS
 10
157.6096790869
 20
31.4649199103
 11
157.4362415869
 21
31.4003926599
 12
157.320617028
 22
31.4649199103
 13
157.320617028
 23
31.4649199103
  0
SOLID
  8
0
 62
7
  6
CONTINUOUS
 10
157.4362415869
 20
31.4003926599
 11
157.320617028
 21
31.3358640533
 12
157.320617028
 22
31.4649199103
 13
157.320617028
 23
31.4649199103
  0
SOLID
  8
0
 62
7
  6
CONTINUOUS
 10
157.320617028
 20
31.3358640533
 11
157.0315543074
 21
30.5938003547
 12
157.320617028
 22
31.4649199103
 13
157.320617028
 23
31.4649199103
  0
SOLID
  8
0
 62
7
  6
CONTINUOUS
 10
157.320617028
 20
31.4649199103
 11
157.0315543074
 21
30.5938003547
 12
157.320617028
 22
31.6262383465
 13
157.320617028
 23
31.6262383465
  0
SOLID
  8
0
 62
7
  6
CONTINUOUS
 10
157.0315543074
 20
30.5938003547
 11
157.0315543074
 21
31.6262383465
 12
157.320617028
 22
31.6262383465
 13
157.320617028
 23
31.6262383465
  0
SOLID
  8
0
 62
7
  6
CONTINUOUS
 10
157.320617028
 20
31.3358640533
 11
157.320617028
 21
30.5938003547
 12
157.0315543074
 22
30.5938003547
 13
157.0315543074
 23
30.5938003547
  0
SOLID
  8
0
 62
7
  6
CONTINUOUS
 10
158.361242028
 20
30.5938003547
 11
158.361242028
 21
31.2068093799
 12
158.6503040869
 22
31.2068093799
 13
158.6503040869
 23
31.2068093799
  0
SOLID
  8
0
 62
7
  6
CONTINUOUS
 10
158.6503040869
 20
31.2068093799
 11
158.6503040869
 21
30.5938003547
 12
158.361242028
 22
30.5938003547
 13
158.361242028
 23
30.5938003547
  0
SOLID
  8
0
 62
7
  6
CONTINUOUS
 10
159.4596793074
 20
31.5939739474
 11
159.8065543074
 21
31.6262381969
 12
160.1534293074
 22
31.6262381969
 13
160.1534293074
 23
31.6262381969
  0
SOLID
  8
0
 62
7
  6
CONTINUOUS
 10
160.1534293074
 20
31.6262381969
 11
160.5003043074
 21
31.5939739474
 12
159.4596793074
 22
31.5939739474
 13
159.4596793074
 23
31.5939739474
  0
SOLID
  8
0
 62
7
  6
CONTINUOUS
 10
159.228429528
 20
31.5294468402
 11
159.4596793074
 21
31.5939739474
 12
160.5003043074
 22
31.5939739474
 13
160.5003043074
 23
31.5939739474
  0
SOLID
  8
0
 62
7
  6
CONTINUOUS
 10
159.228429528
 20
31.5294468402
 11
160.5003043074
 21
31.5939739304
 12
160.6737418074
 22
31.5617111435
 13
160.6737418074
 23
31.5617111435
  0
SOLID
  8
0
 62
7
  6
CONTINUOUS
 10
159.228429528
 20
31.5294468402
 11
160.6737418074
 21
31.5617111435
 12
159.8065543074
 22
31.4971825592
 13
159.8065543074
 23
31.4971825592
  0
SOLID
  8
0
 62
7
  6
CONTINUOUS
 10
159.8065543074
 20
31.4971825592
 11
160.6737418074
 21
31.5617111435
 12
160.1534293074
 22
31.4971825592
 13
160.1534293074
 23
31.4971825592
  0
SOLID
  8
0
 62
7
  6
CONTINUOUS
 10
160.6737418074
 20
31.5617111435
 11
160.8471793074
 21
31.4971825592
 12
160.1534293074
 22
31.4971825592
 13
160.1534293074
 23
31.4971825592
  0
SOLID
  8
0
 62
7
  6
CONTINUOUS
 10
160.5003043074
 20
31.4649197501
 11
160.1534293074
 21
31.4971825592
 12
160.8471793074
 22
31.4971825592
 13
160.8471793074
 23
31.4971825592
  0
SOLID
  8
0
 62
7
  6
CONTINUOUS
 10
159.1128043074
 20
31.4326555427
 11
159.228429528
 21
31.5294468402
 12
159.8065543074
 22
31.4971825592
 13
159.8065543074
 23
31.4971825592
  0
SOLID
  8
0
 62
7
  6
CONTINUOUS
 10
160.5003043074
 20
31.4649197501
 11
160.8471793074
 21
31.4971825592
 12
160.615929528
 22
31.4326555427
 13
160.615929528
 23
31.4326555427
  0
SOLID
  8
0
 62
7
  6
CONTINUOUS
 10
160.615929528
 20
31.4326555427
 11
160.8471793074
 21
31.4971825592
 12
160.6737418074
 22
31.3681283005
 13
160.6737418074
 23
31.3681283005
  0
SOLID
  8
0
 62
7
  6
CONTINUOUS
 10
160.8471793074
 20
31.4971825592
 11
160.9628038663
 21
31.3681283005
 12
160.6737418074
 22
31.3681283005
 13
160.6737418074
 23
31.3681283005
  0
SOLID
  8
0
 62
7
  6
CONTINUOUS
 10
150.2674918074
 20
31.4649197501
 11
149.7471793074
 21
31.4326554237
 12
150.498741835
 22
31.4971824493
 13
150.498741835
 23
31.4971824493
  0
SOLID
  8
0
 62
7
  6
CONTINUOUS
 10
149.7471793074
 20
31.4326554237
 11
149.8628043005
 21
31.4971824493
 12
150.498741835
 22
31.4971824493
 13
150.498741835
 23
31.4971824493
  0
SOLID
  8
0
 62
7
  6
CONTINUOUS
 10
150.2674918074
 20
31.4649197501
 11
150.1518667936
 21
31.4326554237
 12
149.7471793074
 22
31.4326554237
 13
149.7471793074
 23
31.4326554237
  0
SOLID
  8
0
 62
7
  6
CONTINUOUS
 10
149.6315543091
 20
31.3036012664
 11
149.7471793074
 21
31.4326554237
 12
150.1518667936
 22
31.4326554237
 13
150.1518667936
 23
31.4326554237
  0
SOLID
  8
0
 62
7
  6
CONTINUOUS
 10
153.9674919177
 20
31.4326554237
 11
154.6612419177
 21
31.4971825369
 12
154.4299918074
 22
31.4649197501
 13
154.4299918074
 23
31.4649197501
  0
SOLID
  8
0
 62
7
  6
CONTINUOUS
 10
154.4299918074
 20
31.4649197501
 11
154.3143669177
 21
31.4326554237
 12
153.9674919177
 22
31.4326554237
 13
153.9674919177
 23
31.4326554237
  0
SOLID
  8
0
 62
7
  6
CONTINUOUS
 10
153.9674919177
 20
31.3681283335
 11
153.9674919177
 21
31.4326554237
 12
154.3143669177
 22
31.4326554237
 13
154.3143669177
 23
31.4326554237
  0
SOLID
  8
0
 62
7
  6
CONTINUOUS
 10
154.3143669177
 20
31.4326554237
 11
154.2565543074
 21
31.3681283335
 12
153.9674919177
 22
31.3681283335
 13
153.9674919177
 23
31.3681283335
  0
SOLID
  8
0
 62
7
  6
CONTINUOUS
 10
159.1128043074
 20
31.4326555528
 11
159.8065543074
 21
31.4971825369
 12
159.575304528
 22
31.4649197501
 13
159.575304528
 23
31.4649197501
  0
SOLID
  8
0
 62
7
  6
CONTINUOUS
 10
159.575304528
 20
31.4649197501
 11
159.4596793074
 21
31.4326555528
 12
159.1128043074
 22
31.4326555528
 13
159.1128043074
 23
31.4326555528
  0
SOLID
  8
0
 62
7
  6
CONTINUOUS
 10
159.1128043074
 20
31.3681284626
 11
159.1128043074
 21
31.4326555528
 12
159.4596793074
 22
31.4326555528
 13
159.4596793074
 23
31.4326555528
  0
SOLID
  8
0
 62
7
  6
CONTINUOUS
 10
159.4596793074
 20
31.4326555528
 11
159.401867028
 21
31.3681284626
 12
159.1128043074
 22
31.3681284626
 13
159.1128043074
 23
31.3681284626
  0
SOLID
  8
0
 62
7
  6
CONTINUOUS
 10
159.228429528
 20
31.2390741763
 11
159.1128043074
 21
31.3681284626
 12
159.401867028
 22
31.3681284626
 13
159.401867028
 23
31.3681284626
  0
SOLID
  8
0
 62
7
  6
CONTINUOUS
 10
149.6315543091
 20
31.3036012664
 11
150.1518667936
 21
31.4326554468
 12
149.9784292936
 22
31.3358640533
 13
149.9784292936
 23
31.3358640533
  0
SOLID
  8
0
 62
7
  6
CONTINUOUS
 10
149.9784292936
 20
31.3358640533
 11
149.9206168074
 21
31.2713369632
 12
149.6315543091
 22
31.3036012664
 13
149.6315543091
 23
31.3036012664
  0
SOLID
  8
0
 62
7
  6
CONTINUOUS
 10
149.5737418074
 20
31.1100184796
 11
149.6315543091
 21
31.3036012664
 12
149.9206168074
 22
31.2713369632
 13
149.9206168074
 23
31.2713369632
  0
SOLID
  8
0
 62
7
  6
CONTINUOUS
 10
154.4299918074
 20
31.2390741763
 11
154.7768668074
 21
31.271336924
 12
155.412804528
 22
31.271336924
 13
155.412804528
 23
31.271336924
  0
SOLID
  8
0
 62
7
  6
CONTINUOUS
 10
154.4299918074
 20
31.2390741763
 11
155.412804528
 21
31.271336924
 12
154.1987416972
 22
31.1745462761
 13
154.1987416972
 23
31.1745462761
  0
SOLID
  8
0
 62
7
  6
CONTINUOUS
 10
154.1987416972
 20
31.1745462761
 11
155.412804528
 21
31.271336924
 12
154.7768668074
 22
31.1422827436
 13
154.7768668074
 23
31.1422827436
  0
SOLID
  8
0
 62
7
  6
CONTINUOUS
 10
155.412804528
 20
31.271336924
 11
155.412804528
 21
31.1422827436
 12
154.7768668074
 22
31.1422827436
 13
154.7768668074
 23
31.1422827436
  0
SOLID
  8
0
 62
7
  6
CONTINUOUS
 10
159.228429528
 20
31.2390745501
 11
159.401867028
 21
31.3681283566
 12
159.4596793074
 22
31.3036012664
 13
159.4596793074
 23
31.3036012664
  0
SOLID
  8
0
 62
7
  6
CONTINUOUS
 10
159.4596793074
 20
31.3036012664
 11
159.6331168074
 21
31.2390745501
 12
159.228429528
 22
31.2390745501
 13
159.228429528
 23
31.2390745501
  0
SOLID
  8
0
 62
7
  6
CONTINUOUS
 10
159.4596793074
 20
31.1422827828
 11
159.228429528
 21
31.2390745501
 12
159.6331168074
 22
31.2390745501
 13
159.6331168074
 23
31.2390745501
  0
SOLID
  8
0
 62
7
  6
CONTINUOUS
 10
159.6331168074
 20
31.2390745501
 11
160.615929528
 21
31.0777556927
 12
159.4596793074
 22
31.1422827828
 13
159.4596793074
 23
31.1422827828
  0
SOLID
  8
0
 62
7
  6
CONTINUOUS
 10
160.442492028
 20
30.9809646623
 11
159.4596793074
 21
31.1422827828
 12
160.615929528
 22
31.0777556927
 13
160.615929528
 23
31.0777556927
  0
SOLID
  8
0
 62
7
  6
CONTINUOUS
 10
160.615929528
 20
31.0777556927
 11
160.8471793074
 21
30.9809646623
 12
160.442492028
 22
30.9809646623
 13
160.442492028
 23
30.9809646623
  0
SOLID
  8
0
 62
7
  6
CONTINUOUS
 10
160.615929528
 20
30.9164372091
 11
160.442492028
 21
30.9809646623
 12
160.8471793074
 22
30.9809646623
 13
160.8471793074
 23
30.9809646623
  0
SOLID
  8
0
 62
7
  6
CONTINUOUS
 10
160.615929528
 20
30.9164372091
 11
160.8471793074
 21
30.9809646623
 12
160.6737418074
 22
30.8519089441
 13
160.6737418074
 23
30.8519089441
  0
SOLID
  8
0
 62
7
  6
CONTINUOUS
 10
160.8471793074
 20
30.9809646623
 11
160.9628038663
 21
30.8519089441
 12
160.6737418074
 22
30.8519089441
 13
160.6737418074
 23
30.8519089441
  0
SOLID
  8
0
 62
7
  6
CONTINUOUS
 10
160.615929528
 20
30.7873818593
 11
160.6737418074
 21
30.8519089441
 12
160.9628038663
 22
30.8519089441
 13
160.9628038663
 23
30.8519089441
  0
SOLID
  8
0
 62
7
  6
CONTINUOUS
 10
160.9628038663
 20
30.8519089441
 11
160.9628038663
 21
30.7873818593
 12
160.615929528
 22
30.7873818593
 13
160.615929528
 23
30.7873818593
  0
SOLID
  8
0
 62
7
  6
CONTINUOUS
 10
160.5003043074
 20
30.7551187255
 11
160.615929528
 21
30.7873818593
 12
160.9628038663
 22
30.7873818593
 13
160.9628038663
 23
30.7873818593
  0
SOLID
  8
0
 62
7
  6
CONTINUOUS
 10
160.5003043074
 20
30.7551187255
 11
160.9628038663
 21
30.7873818593
 12
160.269054528
 22
30.7228547745
 13
160.269054528
 23
30.7228547745
  0
SOLID
  8
0
 62
7
  6
CONTINUOUS
 10
160.9628038663
 20
30.7873818593
 11
160.8471793074
 21
30.6905916353
 12
160.269054528
 22
30.7228547745
 13
160.269054528
 23
30.7228547745
  0
SOLID
  8
0
 62
7
  6
CONTINUOUS
 10
160.8471793074
 20
30.6905916353
 11
159.401867028
 21
30.658327332
 12
160.269054528
 22
30.7228547745
 13
160.269054528
 23
30.7228547745
  0
SOLID
  8
0
 62
7
  6
CONTINUOUS
 10
160.269054528
 20
30.7228547745
 11
159.401867028
 21
30.658327332
 12
159.922179528
 22
30.7228547745
 13
159.922179528
 23
30.7228547745
  0
SOLID
  8
0
 62
7
  6
CONTINUOUS
 10
159.401867028
 20
30.658327332
 11
159.228429528
 21
30.7228547745
 12
159.922179528
 22
30.7228547745
 13
159.922179528
 23
30.7228547745
  0
SOLID
  8
0
 62
7
  6
CONTINUOUS
 10
159.401867028
 20
30.658327332
 11
160.8471793074
 21
30.6905916353
 12
159.575304528
 22
30.6260629858
 13
159.575304528
 23
30.6260629858
  0
SOLID
  8
0
 62
7
  6
CONTINUOUS
 10
160.8471793074
 20
30.6905916353
 11
160.615929528
 21
30.6260629858
 12
159.575304528
 22
30.6260629858
 13
159.575304528
 23
30.6260629858
  0
SOLID
  8
0
 62
7
  6
CONTINUOUS
 10
159.922179528
 20
30.5938006049
 11
159.575304528
 21
30.6260629858
 12
160.615929528
 22
30.6260629858
 13
160.615929528
 23
30.6260629858
  0
SOLID
  8
0
 62
7
  6
CONTINUOUS
 10
160.615929528
 20
30.6260629858
 11
160.269054528
 21
30.5938006049
 12
159.922179528
 22
30.5938006049
 13
159.922179528
 23
30.5938006049
  0
SOLID
  8
0
 62
7
  6
CONTINUOUS
 10
149.5737418074
 20
31.1100184796
 11
149.9206168074
 21
31.2713369632
 12
149.8628043005
 22
31.1422827828
 13
149.8628043005
 23
31.1422827828
  0
SOLID
  8
0
 62
7
  6
CONTINUOUS
 10
149.8628043005
 20
31.1422827828
 11
149.8628043005
 21
31.0454914852
 12
149.5737418074
 22
31.1100184796
 13
149.5737418074
 23
31.1100184796
  0
SOLID
  8
0
 62
7
  6
CONTINUOUS
 10
149.6315543091
 20
30.9164372091
 11
149.5737418074
 21
31.1100184796
 12
149.8628043005
 22
31.0454914852
 13
149.8628043005
 23
31.0454914852
  0
SOLID
  8
0
 62
7
  6
CONTINUOUS
 10
149.8628043005
 20
31.0454914852
 11
149.9784292936
 21
30.8841729058
 12
149.6315543091
 22
30.9164372091
 13
149.6315543091
 23
30.9164372091
  0
SOLID
  8
0
 62
7
  6
CONTINUOUS
 10
149.7471793074
 20
30.7873813202
 11
149.6315543091
 21
30.9164372091
 12
149.9784292936
 22
30.8841729058
 13
149.9784292936
 23
30.8841729058
  0
SOLID
  8
0
 62
7
  6
CONTINUOUS
 10
149.9784292936
 20
30.8841729058
 11
150.1518667936
 21
30.7873813202
 12
149.7471793074
 22
30.7873813202
 13
149.7471793074
 23
30.7873813202
  0
SOLID
  8
0
 62
7
  6
CONTINUOUS
 10
149.8628043005
 20
30.7228547004
 11
149.7471793074
 21
30.7873813202
 12
150.1518667936
 22
30.7873813202
 13
150.1518667936
 23
30.7873813202
  0
SOLID
  8
0
 62
7
  6
CONTINUOUS
 10
150.1518667936
 20
30.7873813202
 11
150.498741835
 21
30.7228547004
 12
149.8628043005
 22
30.7228547004
 13
149.8628043005
 23
30.7228547004
  0
SOLID
  8
0
 62
7
  6
CONTINUOUS
 10
150.0362418212
 20
30.658327332
 11
149.8628043005
 21
30.7228547004
 12
150.498741835
 22
30.7228547004
 13
150.498741835
 23
30.7228547004
  0
SOLID
  8
0
 62
7
  6
CONTINUOUS
 10
154.0831168074
 20
31.1100184386
 11
154.1987416972
 21
31.1745462761
 12
154.7768668074
 22
31.1422827828
 13
154.7768668074
 23
31.1422827828
  0
SOLID
  8
0
 62
7
  6
CONTINUOUS
 10
154.7768668074
 20
31.1422827828
 11
154.5456166972
 21
31.1100184386
 12
154.0831168074
 22
31.1100184386
 13
154.0831168074
 23
31.1100184386
  0
SOLID
  8
0
 62
7
  6
CONTINUOUS
 10
153.9674919177
 20
30.9809642992
 11
154.0831168074
 21
31.1100184386
 12
154.5456166972
 22
31.1100184386
 13
154.5456166972
 23
31.1100184386
  0
SOLID
  8
0
 62
7
  6
CONTINUOUS
 10
154.3143669177
 20
31.0132277988
 11
153.9674919177
 21
30.9809642992
 12
154.4299918074
 22
31.0777556927
 13
154.4299918074
 23
31.0777556927
  0
SOLID
  8
0
 62
7
  6
CONTINUOUS
 10
153.9674919177
 20
30.9809642992
 11
154.5456166972
 21
31.1100184796
 12
154.4299918074
 22
31.0777556927
 13
154.4299918074
 23
31.0777556927
  0
SOLID
  8
0
 62
7
  6
CONTINUOUS
 10
154.3143669177
 20
31.0132277988
 11
154.2565543074
 21
30.9164372091
 12
153.9674919177
 22
30.9809642992
 13
153.9674919177
 23
30.9809642992
  0
SOLID
  8
0
 62
7
  6
CONTINUOUS
 10
153.9674919177
 20
30.8841729058
 11
153.9674919177
 21
30.9809642992
 12
154.2565543074
 22
30.9164372091
 13
154.2565543074
 23
30.9164372091
  0
SOLID
  8
0
 62
7
  6
CONTINUOUS
 10
154.2565543074
 20
30.9164372091
 11
154.2565543074
 21
30.8519086025
 12
153.9674919177
 22
30.8841729058
 13
153.9674919177
 23
30.8841729058
  0
SOLID
  8
0
 62
7
  6
CONTINUOUS
 10
154.0253041972
 20
30.7551187255
 11
153.9674919177
 21
30.8841729058
 12
154.2565543074
 22
30.8519086025
 13
154.2565543074
 23
30.8519086025
  0
SOLID
  8
0
 62
7
  6
CONTINUOUS
 10
155.412804528
 20
30.9487004259
 11
155.7018665869
 21
30.8519086025
 12
155.3549915869
 22
30.8841729058
 13
155.3549915869
 23
30.8841729058
  0
SOLID
  8
0
 62
7
  6
CONTINUOUS
 10
155.1815540869
 20
30.7873815123
 11
155.3549915869
 21
30.8841729058
 12
155.7018665869
 22
30.8519086025
 13
155.7018665869
 23
30.8519086025
  0
SOLID
  8
0
 62
7
  6
CONTINUOUS
 10
155.1815540869
 20
30.7873815123
 11
155.7018665869
 21
30.8519086025
 12
155.412804528
 22
30.7551187255
 13
155.412804528
 23
30.7551187255
  0
SOLID
  8
0
 62
7
  6
CONTINUOUS
 10
155.7018665869
 20
30.8519086025
 11
155.759679528
 21
30.6905916353
 12
155.412804528
 22
30.7551187255
 13
155.412804528
 23
30.7551187255
  0
SOLID
  8
0
 62
7
  6
CONTINUOUS
 10
155.4706168074
 20
30.658327332
 11
155.412804528
 21
30.7551187255
 12
155.759679528
 22
30.6905916353
 13
155.759679528
 23
30.6905916353
  0
SOLID
  8
0
 62
7
  6
CONTINUOUS
 10
155.4706168074
 20
30.658327332
 11
155.759679528
 21
30.6905916353
 12
155.5284290869
 22
30.5938002079
 13
155.5284290869
 23
30.5938002079
  0
SOLID
  8
0
 62
7
  6
CONTINUOUS
 10
155.759679528
 20
30.6905916353
 11
155.8174918074
 21
30.5938002079
 12
155.5284290869
 22
30.5938002079
 13
155.5284290869
 23
30.5938002079
  0
SOLID
  8
0
 62
7
  6
CONTINUOUS
 10
151.0768668626
 20
30.8196456577
 11
151.1346793074
 21
30.9164373395
 12
151.4237418626
 22
30.9164373395
 13
151.4237418626
 23
30.9164373395
  0
SOLID
  8
0
 62
7
  6
CONTINUOUS
 10
151.4237418626
 20
30.9164373395
 11
151.3659292523
 21
30.7873815123
 12
151.0768668626
 22
30.8196456577
 13
151.0768668626
 23
30.8196456577
  0
SOLID
  8
0
 62
7
  6
CONTINUOUS
 10
150.9034292799
 20
30.7551187255
 11
151.0768668626
 21
30.8196456577
 12
151.3659292523
 22
30.7873815123
 13
151.3659292523
 23
30.7873815123
  0
SOLID
  8
0
 62
7
  6
CONTINUOUS
 10
150.9034292799
 20
30.7551187255
 11
151.3659292523
 21
30.7873815123
 12
150.498741835
 22
30.7228544222
 13
150.498741835
 23
30.7228544222
  0
SOLID
  8
0
 62
7
  6
CONTINUOUS
 10
151.3659292523
 20
30.7873815123
 11
151.1924917523
 21
30.6905916353
 12
150.498741835
 22
30.7228544222
 13
150.498741835
 23
30.7228544222
  0
SOLID
  8
0
 62
7
  6
CONTINUOUS
 10
150.0362418212
 20
30.658327332
 11
150.498741835
 21
30.7228544222
 12
151.1924917523
 22
30.6905916353
 13
151.1924917523
 23
30.6905916353
  0
SOLID
  8
0
 62
7
  6
CONTINUOUS
 10
150.0362418212
 20
30.658327332
 11
151.1924917523
 21
30.6905916353
 12
150.2096793212
 22
30.6260631011
 13
150.2096793212
 23
30.6260631011
  0
SOLID
  8
0
 62
7
  6
CONTINUOUS
 10
151.1924917523
 20
30.6905916353
 11
150.9612418074
 21
30.6260631011
 12
150.2096793212
 22
30.6260631011
 13
150.2096793212
 23
30.6260631011
  0
SOLID
  8
0
 62
7
  6
CONTINUOUS
 10
150.5565542799
 20
30.5938002419
 11
150.2096793212
 21
30.6260631011
 12
150.9612418074
 22
30.6260631011
 13
150.9612418074
 23
30.6260631011
  0
SOLID
  8
0
 62
7
  6
CONTINUOUS
 10
154.0253041972
 20
30.7551187255
 11
154.2565543074
 21
30.8519086025
 12
154.3143669177
 22
30.7873815123
 13
154.3143669177
 23
30.7873815123
  0
SOLID
  8
0
 62
7
  6
CONTINUOUS
 10
154.3143669177
 20
30.7873815123
 11
154.5456166972
 21
30.7228544222
 12
154.0253041972
 22
30.7551187255
 13
154.0253041972
 23
30.7551187255
  0
SOLID
  8
0
 62
7
  6
CONTINUOUS
 10
154.1987416972
 20
30.658327332
 11
154.0253041972
 21
30.7551187255
 12
154.5456166972
 22
30.7228544222
 13
154.5456166972
 23
30.7228544222
  0
SOLID
  8
0
 62
7
  6
CONTINUOUS
 10
154.8924916972
 20
30.7228544637
 11
155.1815540869
 21
30.7873815123
 12
155.412804528
 22
30.7551187255
 13
155.412804528
 23
30.7551187255
  0
SOLID
  8
0
 62
7
  6
CONTINUOUS
 10
155.412804528
 20
30.7551187255
 11
155.3549915869
 21
30.6905916353
 12
154.8924916972
 22
30.7228544637
 13
154.8924916972
 23
30.7228544637
  0
SOLID
  8
0
 62
7
  6
CONTINUOUS
 10
155.3549915869
 20
30.6905916353
 11
154.1987416972
 21
30.658327332
 12
154.8924916972
 22
30.7228544637
 13
154.8924916972
 23
30.7228544637
  0
SOLID
  8
0
 62
7
  6
CONTINUOUS
 10
154.1987416972
 20
30.658327332
 11
154.5456166972
 21
30.7228544637
 12
154.8924916972
 22
30.7228544637
 13
154.8924916972
 23
30.7228544637
  0
SOLID
  8
0
 62
7
  6
CONTINUOUS
 10
154.1987416972
 20
30.658327332
 11
155.3549915869
 21
30.6905916353
 12
154.3143669177
 22
30.6260630541
 13
154.3143669177
 23
30.6260630541
  0
SOLID
  8
0
 62
7
  6
CONTINUOUS
 10
155.3549915869
 20
30.6905916353
 11
155.1815540869
 21
30.6260630541
 12
154.3143669177
 22
30.6260630541
 13
154.3143669177
 23
30.6260630541
  0
SOLID
  8
0
 62
7
  6
CONTINUOUS
 10
154.5456166972
 20
30.5938002188
 11
154.3143669177
 21
30.6260630541
 12
155.1815540869
 22
30.6260630541
 13
155.1815540869
 23
30.6260630541
  0
SOLID
  8
0
 62
7
  6
CONTINUOUS
 10
155.1815540869
 20
30.6260630541
 11
154.8924916972
 21
30.5938002188
 12
154.5456166972
 22
30.5938002188
 13
154.5456166972
 23
30.5938002188
  0
SOLID
  8
0
 62
7
  6
CONTINUOUS
 10
159.575304528
 20
30.7551187255
 11
159.228429528
 21
30.7228544637
 12
159.4596793074
 22
30.7873815123
 13
159.4596793074
 23
30.7873815123
  0
SOLID
  8
0
 62
7
  6
CONTINUOUS
 10
159.4596793074
 20
30.7873815123
 11
159.228429528
 21
30.7228544637
 12
159.401867028
 22
30.851908644
 13
159.401867028
 23
30.851908644
  0
SOLID
  8
0
 62
7
  6
CONTINUOUS
 10
159.228429528
 20
30.7228544637
 11
159.1128043074
 21
30.851908644
 12
159.401867028
 22
30.851908644
 13
159.401867028
 23
30.851908644
  0
SOLID
  8
0
 62
7
  6
CONTINUOUS
 10
159.575304528
 20
30.7551187255
 11
159.922179528
 21
30.7228544637
 12
159.228429528
 22
30.7228544637
 13
159.228429528
 23
30.7228544637
  0
SOLID
  8
0
 62
7
  6
CONTINUOUS
 10
156.279992028
 20
30.5938002419
 11
156.279992028
 21
31.6262382337
 12
156.5690540869
 22
30.5938002419
 13
156.5690540869
 23
31.6262382337
  0
ENDBLK
  8
0
  6
BYBLOCK
 62
0
  0
BLOCK
  8
0
 62
2
  6
CONTINUOUS
  2
SYMBOL_3_BL0
 70
64
 10
32.1213064866
 20
19.8534310916
  0
TEXT
  8
0
 62
7
  6
CONTINUOUS
 10
18.3860103289
 20
19.2268451992
  7
TEXTSTYLE_3
 40
2.7338706658
  1
Ammeraal Beltech
 41
1.0
 51
15.0
 72
0
  0
TEXT
  8
0
 62
7
  6
CONTINUOUS
 10
29.1868111546
 20
16.9533085264
  7
TEXTSTYLE_4
 40
1.0935482663
  1
Innovation & Service in Belting
 41
1.0
 72
0
  0
LINE
  8
0
 62
7
  6
CONTINUOUS
 10
12.3614696776
 20
19.9934385078
 11
13.1396216709
 21
23.6543558055
  0
LINE
  8
0
 62
7
  6
CONTINUOUS
 10
23.2347899607
 20
27.3177497171
 11
13.6274394139
 21
24.1961322958
  0
LINE
  8
0
 62
7
  6
CONTINUOUS
 10
12.5867530099
 20
19.3000877048
 11
20.093828271
 21
12.5406867788
  0
LINE
  8
0
 62
7
  6
CONTINUOUS
 10
12.8492874206
 20
20.5352149982
 11
23.6575567857
 21
24.0470345971
  0
LINE
  8
0
 62
7
  6
CONTINUOUS
 10
23.6533516486
 20
13.6972460334
 11
15.2078919798
 21
21.3015720751
  0
LINE
  8
0
 62
7
  6
CONTINUOUS
 10
24.1731743684
 20
26.4728246013
 11
23.1966148312
 21
21.8784731989
  0
LINE
  8
0
 62
7
  6
CONTINUOUS
 10
22.4968128835
 20
18.5861638851
 11
21.810364672
 21
15.3566789607
  0
LINE
  8
0
 62
7
  6
CONTINUOUS
 10
24.8542704669
 20
14.087448211
 11
25.8105020025
 21
18.5861638851
  0
LINE
  8
0
 62
7
  6
CONTINUOUS
 10
26.5103039502
 20
21.8784731989
 11
26.9545457526
 21
23.9684665583
  0
LINE
  8
0
 62
7
  6
CONTINUOUS
 10
20.8069293463
 20
12.3891124661
 11
24.3664527239
 21
13.5456717207
  0
LINE
  8
0
 62
7
  6
CONTINUOUS
 10
23.9478910361
 20
27.1661754044
 11
26.7292624203
 21
24.6618173613
  0
ARC
  8
0
 62
7
  6
CONTINUOUS
 10
13.8527227462
 20
23.5027814928
 40
0.7290321776
 50
108.0
 51
168.0
  0
ARC
  8
0
 62
7
  6
CONTINUOUS
 10
23.4600732931
 20
26.624398914
 40
0.7290321776
 50
348.0
 51
108.0
  0
ARC
  8
0
 62
7
  6
CONTINUOUS
 10
26.2414446773
 20
24.120040871
 40
0.7290321776
 50
348.0
 51
48.0
  0
ARC
  8
0
 62
7
  6
CONTINUOUS
 10
20.581646014
 20
13.0824632691
 40
0.7290321776
 50
228.0
 51
288.0
  0
ARC
  8
0
 62
7
  6
CONTINUOUS
 10
13.0745707529
 20
19.8418641951
 40
0.7290321776
 50
108.0
 51
228.0
  0
ARC
  8
0
 62
7
  6
CONTINUOUS
 10
24.1411693916
 20
14.2390225237
 40
0.7290321776
 50
228.0
 51
348.0
  0
ENDBLK
  8
0
  6
BYBLOCK
 62
0
  0
ENDSEC
  0
SECTION
  2
ENTITIES
  0
TEXT
  8
0
 62
5
  6
CONTINUOUS
 10
96.0
 20
25.636
  7
TEXTSTYLE_2
 40
2.8
  1
Scale :
 41
0.6
 51
0.000019
 72
0
  0
TEXT
  8
0
 62
5
  6
CONTINUOUS
 10
116.0
 20
25.636
  7
TEXTSTYLE_2
 40
2.8
  1
Belt type:
 41
0.6
 51
0.000019
 72
0
  0
INSERT
  8
0
 62
2
  6
CONTINUOUS
  2
SYMBOL_3_BL0
 10
32.1213064866
 20
19.8534310916
  0
INSERT
  8
0
 62
2
  6
CONTINUOUS
  2
SYMBOL_8_BL1
 10
173.5956734183
 20
35.5937998301
  0
LINE
  8
0
 62
2
  6
CONTINUOUS
 10
10.0
 20
30.0
 11
200.0
 21
30.0
  0
LINE
  8
0
 62
2
  6
CONTINUOUS
 10
10.0
 20
30.0
 11
10.0
 21
10.0
  0
LINE
  8
0
 62
2
  6
CONTINUOUS
 10
10.0
 20
10.0
 11
200.0
 21
10.0
  0
LINE
  8
0
 62
2
  6
CONTINUOUS
 10
95.0
 20
30.0
 11
95.0
 21
10.0
  0
LINE
  8
0
 62
2
  6
CONTINUOUS
 10
115.0
 20
30.0
 11
115.0
 21
10.0
  0
LINE
  8
0
 62
2
  6
CONTINUOUS
 10
200.0
 20
30.0
 11
200.0
 21
10.0
  0
TEXT
  8
0
 62
5
  6
CONTINUOUS
 10
13.0
 20
23.303
  7
TEXTSTYLE_5
 40
1.52
  1
                                                                     Ammeraal Beltech Modular A/S
 41
1.0
 72
0
  0
TEXT
  8
0
 62
5
  6
CONTINUOUS
 10
13.0
 20
20.595
  7
TEXTSTYLE_5
 40
1.5
  1
                                                                      Hjulmagervej 21,  7100 Vejle,  DK
 41
1.0
 72
0
  0
TEXT
  8
0
 62
5
  6
CONTINUOUS
 10
13.0
 20
17.881
  7
TEXTSTYLE_5
 40
1.495
  1
                                                                      tel: 
 41
1.0
 72
0
  0
TEXT
  8
0
 62
5
  6
CONTINUOUS
 10
57.9869465649
 20
17.881
  7
TEXTSTYLE_5
 40
1.51
  1
+45 75723100     fax: +45 75723348
 41
1.0
 72
0
  0
TEXT
  8
0
 62
5
  6
CONTINUOUS
 10
13.0
 20
15.177
  7
TEXTSTYLE_5
 40
1.5
  1
                                                                      admin@unichains.dk  www.unichains.com
 41
1.0
 72
0
  0
TEXT
  8
0
 62
5
  6
CONTINUOUS
 10
99.75
 20
13.75
  7
TEXTSTYLE_6
 40
5.0
  1
1:1
 41
0.7
 72
1
 11
105.0
 21
13.75
  0
TEXT
  8
0
 62
5
  6
CONTINUOUS
 10
118.0
 20
13.75
  7
TEXTSTYLE_7
 40
7.5
  1
uni SNB M2 20% K600
 41
0.5348684211
 72
0
  0
LINE
  8
0
 62
7
  6
CONTINUOUS
 10
210.0
 20
0.0
 11
0.0
 21
0.0
  0
LINE
  8
0
 62
7
  6
CONTINUOUS
 10
10.0
 20
10.0
 11
200.0
 21
10.0
  0
LINE
  8
0
 62
7
  6
CONTINUOUS
 10
10.0
 20
30.0
 11
200.0
 21
30.0
  0
LINE
  8
0
 62
7
  6
CONTINUOUS
 10
0.0
 20
0.0
 11
0.0
 21
297.0
  0
LINE
  8
0
 62
7
  6
CONTINUOUS
 10
10.0
 20
10.0
 11
10.0
 21
287.0
  0
LINE
  8
0
 62
7
  6
CONTINUOUS
 10
200.0
 20
287.0
 11
200.0
 21
10.0
  0
LINE
  8
0
 62
7
  6
CONTINUOUS
 10
210.0
 20
0.0
 11
210.0
 21
297.0
  0
LINE
  8
0
 62
7
  6
CONTINUOUS
 10
10.0
 20
287.0
 11
200.0
 21
287.0
  0
LINE
  8
0
 62
7
  6
CONTINUOUS
 10
0.0
 20
297.0
 11
210.0
 21
297.0
  0
LINE
  8
0
 62
7
  6
CONTINUOUS
 10
84.1936671561
 20
58.9400389398
 11
101.3736671561
 21
58.9400389398
  0
LINE
  8
0
 62
7
  6
CONTINUOUS
 10
77.5736671561
 20
64.5900389398
 11
76.7736671561
 21
64.5900389398
  0
LINE
  8
0
 62
7
  6
CONTINUOUS
 10
101.3736671557
 20
64.9400389398
 11
87.211643735
 21
64.9400389398
  0
LINE
  8
0
 62
7
  6
CONTINUOUS
 10
68.5736671561
 20
65.2900389398
 11
80.9257877484
 21
65.2900389398
  0
LINE
  8
0
 62
7
  6
CONTINUOUS
 10
92.3736671561
 20
65.6400389398
 11
93.1736671561
 21
65.6400389398
  0
POLYLINE
  8
0
 62
7
  6
CONTINUOUS
 66
1
 70
0
  0
VERTEX
  8
0
 62
7
  6
CONTINUOUS
 10
79.861867123
 20
65.2146771746
  0
VERTEX
  8
0
 62
7
  6
CONTINUOUS
 10
79.6413778336
 20
65.2564274951
  0
VERTEX
  8
0
 62
7
  6
CONTINUOUS
 10
79.4179168122
 20
65.2816301558
  0
VERTEX
  8
0
 62
7
  6
CONTINUOUS
 10
79.1936671561
 20
65.2900389398
  0
SEQEND
  0
LINE
  8
0
 62
7
  6
CONTINUOUS
 10
79.8618591862
 20
65.2146789931
 11
80.1398784268
 21
65.1367852938
  0
LINE
  8
0
 62
7
  6
CONTINUOUS
 10
80.1626590532
 20
65.1290973496
 11
79.861867123
 21
65.2146771746
  0
LINE
  8
0
 62
7
  6
CONTINUOUS
 10
68.5736671565
 20
70.5400389398
 11
77.0596300882
 21
70.5400389398
  0
LINE
  8
0
 62
7
  6
CONTINUOUS
 10
76.423682395
 20
71.2900389398
 11
82.7356905772
 21
71.2900389398
  0
LINE
  8
0
 62
7
  6
CONTINUOUS
 10
87.211643735
 20
71.6400389398
 11
93.5236519172
 21
71.6400389398
  0
LINE
  8
0
 62
7
  6
CONTINUOUS
 10
101.3736671561
 20
72.3900389398
 11
92.887704224
 21
72.3900389398
  0
LINE
  8
0
 62
7
  6
CONTINUOUS
 10
80.1398784268
 20
65.1367852938
 11
80.4516359931
 21
65.0132857552
  0
LINE
  8
0
 62
7
  6
CONTINUOUS
 10
80.4552374392
 20
65.0116196442
 11
80.1626590532
 21
65.1290973496
  0
LINE
  8
0
 62
7
  6
CONTINUOUS
 10
80.4516359931
 20
65.0132857552
 11
80.7502947565
 21
64.854444192
  0
LINE
  8
0
 62
7
  6
CONTINUOUS
 10
77.5736671561
 20
77.2900389398
 11
76.7736671561
 21
77.2900389398
  0
LINE
  8
0
 62
7
  6
CONTINUOUS
 10
101.3736671557
 20
77.6400389398
 11
87.211643735
 21
77.6400389398
  0
LINE
  8
0
 62
7
  6
CONTINUOUS
 10
68.5736671561
 20
77.9900389398
 11
82.7356905772
 21
77.9900389398
  0
LINE
  8
0
 62
7
  6
CONTINUOUS
 10
92.3736671561
 20
78.3400389398
 11
93.1736671561
 21
78.3400389398
  0
POLYLINE
  8
0
 62
7
  6
CONTINUOUS
 66
1
 70
0
  0
VERTEX
  8
0
 62
7
  6
CONTINUOUS
 10
80.9936671561
 20
64.6900389398
  0
VERTEX
  8
0
 62
7
  6
CONTINUOUS
 10
80.7339691021
 20
64.8642704496
  0
VERTEX
  8
0
 62
7
  6
CONTINUOUS
 10
80.4552374392
 20
65.0116196442
  0
SEQEND
  0
POLYLINE
  8
0
 62
7
  6
CONTINUOUS
 66
1
 70
0
  0
VERTEX
  8
0
 62
7
  6
CONTINUOUS
 10
80.9936671561
 20
64.6900389398
  0
VERTEX
  8
0
 62
7
  6
CONTINUOUS
 10
81.2325300551
 20
64.4906990543
  0
VERTEX
  8
0
 62
7
  6
CONTINUOUS
 10
81.4496685509
 20
64.2675219123
  0
VERTEX
  8
0
 62
7
  6
CONTINUOUS
 10
81.6424812003
 20
64.0230125674
  0
VERTEX
  8
0
 62
7
  6
CONTINUOUS
 10
81.8088799928
 20
63.7599375127
  0
VERTEX
  8
0
 62
7
  6
CONTINUOUS
 10
81.9471098944
 20
63.4810386633
  0
VERTEX
  8
0
 62
7
  6
CONTINUOUS
 10
82.0557235005
 20
63.1892226758
  0
SEQEND
  0
LINE
  8
0
 62
7
  6
CONTINUOUS
 10
83.7517567431
 20
198.8396198363
 11
83.3813748594
 21
198.526434456
  0
LINE
  8
0
 62
7
  6
CONTINUOUS
 10
86.1955775691
 20
198.0904580434
 11
86.5659594528
 21
198.4036434237
  0
LINE
  8
0
 62
7
  6
CONTINUOUS
 10
82.7356905772
 20
83.9900389398
 11
68.5736671565
 21
83.9900389398
  0
LINE
  8
0
 62
7
  6
CONTINUOUS
 10
87.211643735
 20
84.3400389398
 11
101.3736671561
 21
84.3400389398
  0
LINE
  8
0
 62
7
  6
CONTINUOUS
 10
101.3736671557
 20
90.3400389398
 11
87.211643735
 21
90.3400389398
  0
LINE
  8
0
 62
7
  6
CONTINUOUS
 10
68.5736671561
 20
90.6900389398
 11
82.7356905772
 21
90.6900389398
  0
LINE
  8
0
 62
7
  6
CONTINUOUS
 10
82.7356905772
 20
96.6900389398
 11
68.5736671565
 21
96.6900389398
  0
LINE
  8
0
 62
7
  6
CONTINUOUS
 10
87.211643735
 20
97.0400389398
 11
101.3736671561
 21
97.0400389398
  0
LINE
  8
0
 62
7
  6
CONTINUOUS
 10
101.3736671557
 20
103.0400389398
 11
87.211643735
 21
103.0400389398
  0
LINE
  8
0
 62
7
  6
CONTINUOUS
 10
68.5736671561
 20
103.3900389398
 11
82.7356905772
 21
103.3900389398
  0
LINE
  8
0
 62
7
  6
CONTINUOUS
 10
86.5659594528
 20
90.576434456
 11
86.1955775691
 21
90.8896198363
  0
LINE
  8
0
 62
7
  6
CONTINUOUS
 10
82.7356905772
 20
109.3900389398
 11
68.5736671565
 21
109.3900389398
  0
LINE
  8
0
 62
7
  6
CONTINUOUS
 10
87.211643735
 20
109.7400389398
 11
101.3736671561
 21
109.7400389398
  0
POLYLINE
  8
0
 62
7
  6
CONTINUOUS
 66
1
 70
0
  0
VERTEX
  8
0
 62
7
  6
CONTINUOUS
 10
82.0557235005
 20
63.1892226758
  0
VERTEX
  8
0
 62
7
  6
CONTINUOUS
 10
82.0864999033
 20
63.0846961832
  0
VERTEX
  8
0
 62
7
  6
CONTINUOUS
 10
82.1134536279
 20
62.9791303417
  0
SEQEND
  0
LINE
  8
2_FEATURE
 62
7
  6
CONTINUOUS
 10
67.7236671561
 20
210.1400389398
 11
67.7236671561
 21
205.8400389398
  0
LINE
  8
2_FEATURE
 62
7
  6
CONTINUOUS
 10
67.7236671561
 20
196.6900389398
 11
67.7236671561
 21
193.1400389398
  0
LINE
  8
2_FEATURE
 62
7
  6
CONTINUOUS
 10
67.7236671561
 20
184.7400389398
 11
67.7236671561
 21
180.4400389398
  0
LINE
  8
2_FEATURE
 62
7
  6
CONTINUOUS
 10
67.7236671561
 20
172.0400389398
 11
67.7236671561
 21
167.7400389398
  0
LINE
  8
2_FEATURE
 62
7
  6
CONTINUOUS
 10
67.7236671561
 20
159.3400389398
 11
67.7236671561
 21
155.0400389398
  0
LINE
  8
2_FEATURE
 62
7
  6
CONTINUOUS
 10
67.7236671561
 20
146.6400389398
 11
67.7236671561
 21
142.3400389398
  0
LINE
  8
2_FEATURE
 62
7
  6
CONTINUOUS
 10
67.7236671561
 20
133.9400389398
 11
67.7236671561
 21
129.6400389398
  0
LINE
  8
2_FEATURE
 62
7
  6
CONTINUOUS
 10
67.7236671561
 20
121.2400389398
 11
67.7236671561
 21
116.9400389398
  0
LINE
  8
2_FEATURE
 62
7
  6
CONTINUOUS
 10
67.7236671561
 20
108.5400389398
 11
67.7236671561
 21
104.2400389398
  0
LINE
  8
2_FEATURE
 62
7
  6
CONTINUOUS
 10
67.7236671561
 20
95.8400389398
 11
67.7236671561
 21
91.5400389398
  0
LINE
  8
2_FEATURE
 62
7
  6
CONTINUOUS
 10
67.7236671561
 20
83.1400389398
 11
67.7236671561
 21
78.8400389398
  0
LINE
  8
2_FEATURE
 62
7
  6
CONTINUOUS
 10
67.7236671561
 20
69.6900389398
 11
67.7236671561
 21
66.1400389398
  0
LINE
  8
0
 62
7
  6
CONTINUOUS
 10
101.3736671557
 20
115.7400389398
 11
87.211643735
 21
115.7400389398
  0
LINE
  8
0
 62
7
  6
CONTINUOUS
 10
68.5736671561
 20
116.0900389398
 11
82.7356905772
 21
116.0900389398
  0
LINE
  8
DEFAULT_1
 62
2
  6
CENTER
 10
72.2736671561
 20
63.2900389398
 11
72.2736671561
 21
212.9900389398
  0
LINE
  8
0
 62
7
  6
CONTINUOUS
 10
82.7356905772
 20
122.0900389398
 11
68.5736671565
 21
122.0900389398
  0
LINE
  8
0
 62
7
  6
CONTINUOUS
 10
87.211643735
 20
122.4400389398
 11
101.3736671561
 21
122.4400389398
  0
LINE
  8
0
 62
7
  6
CONTINUOUS
 10
86.5659594528
 20
115.976434456
 11
86.1955775691
 21
116.2896198363
  0
POLYLINE
  8
0
 62
7
  6
CONTINUOUS
 66
1
 70
0
  0
VERTEX
  8
0
 62
7
  6
CONTINUOUS
 10
82.1936671561
 20
62.2900389398
  0
VERTEX
  8
0
 62
7
  6
CONTINUOUS
 10
82.1735236114
 20
62.6369098366
  0
VERTEX
  8
0
 62
7
  6
CONTINUOUS
 10
82.1134536279
 20
62.9791303417
  0
SEQEND
  0
LINE
  8
0
 62
7
  6
CONTINUOUS
 10
101.3736671557
 20
128.4400389398
 11
87.211643735
 21
128.4400389398
  0
LINE
  8
0
 62
7
  6
CONTINUOUS
 10
68.5736671561
 20
128.7900389398
 11
82.7356905772
 21
128.7900389398
  0
LINE
  8
2_FEATURE
 62
7
  6
CONTINUOUS
 10
82.1936671561
 20
60.9400389398
 11
82.1936671561
 21
62.2900389398
  0
LINE
  8
2_FEATURE
 62
7
  6
CONTINUOUS
 10
82.1936671561
 20
71.5400389398
 11
82.1936671561
 21
77.7400389398
  0
LINE
  8
2_FEATURE
 62
7
  6
CONTINUOUS
 10
82.1936671561
 20
84.2400389398
 11
82.1936671561
 21
90.4400389398
  0
LINE
  8
2_FEATURE
 62
7
  6
CONTINUOUS
 10
82.1936671561
 20
96.9400389398
 11
82.1936671561
 21
103.1400389398
  0
LINE
  8
2_FEATURE
 62
7
  6
CONTINUOUS
 10
82.1936671561
 20
109.6400389398
 11
82.1936671561
 21
115.8400389398
  0
LINE
  8
2_FEATURE
 62
7
  6
CONTINUOUS
 10
82.1936671561
 20
122.3400389398
 11
82.1936671561
 21
128.5400389398
  0
LINE
  8
2_FEATURE
 62
7
  6
CONTINUOUS
 10
82.1936671561
 20
135.0400389398
 11
82.1936671561
 21
141.2400389398
  0
LINE
  8
2_FEATURE
 62
7
  6
CONTINUOUS
 10
82.1936671561
 20
147.7400389398
 11
82.1936671561
 21
153.9400389398
  0
LINE
  8
2_FEATURE
 62
7
  6
CONTINUOUS
 10
82.1936671561
 20
160.4400389398
 11
82.1936671561
 21
166.6400389398
  0
LINE
  8
2_FEATURE
 62
7
  6
CONTINUOUS
 10
82.1936671561
 20
173.1400389398
 11
82.1936671561
 21
179.3400389398
  0
LINE
  8
2_FEATURE
 62
7
  6
CONTINUOUS
 10
82.1936671561
 20
185.8400389398
 11
82.1936671561
 21
192.0400389398
  0
LINE
  8
2_FEATURE
 62
7
  6
CONTINUOUS
 10
82.1936671561
 20
198.5400389398
 11
82.1936671561
 21
204.7400389398
  0
LINE
  8
0
 62
7
  6
CONTINUOUS
 10
83.7517567431
 20
135.3396198363
 11
83.3813748594
 21
135.026434456
  0
LINE
  8
0
 62
7
  6
CONTINUOUS
 10
82.7356905772
 20
134.7900389398
 11
68.5736671565
 21
134.7900389398
  0
LINE
  8
0
 62
7
  6
CONTINUOUS
 10
87.211643735
 20
135.1400389398
 11
101.3736671561
 21
135.1400389398
  0
LINE
  8
2_FEATURE
 62
7
  6
CONTINUOUS
 10
87.7536671561
 20
208.9900389398
 11
87.7536671561
 21
207.6400389398
  0
LINE
  8
2_FEATURE
 62
7
  6
CONTINUOUS
 10
87.7536671561
 20
198.3900389398
 11
87.7536671561
 21
192.1900389398
  0
LINE
  8
2_FEATURE
 62
7
  6
CONTINUOUS
 10
87.7536671561
 20
185.6900389398
 11
87.7536671561
 21
179.4900389398
  0
LINE
  8
2_FEATURE
 62
7
  6
CONTINUOUS
 10
87.7536671561
 20
172.9900389398
 11
87.7536671561
 21
166.7900389398
  0
LINE
  8
2_FEATURE
 62
7
  6
CONTINUOUS
 10
87.7536671561
 20
160.2900389398
 11
87.7536671561
 21
154.0900389398
  0
LINE
  8
2_FEATURE
 62
7
  6
CONTINUOUS
 10
87.7536671561
 20
147.5900389398
 11
87.7536671561
 21
141.3900389398
  0
LINE
  8
2_FEATURE
 62
7
  6
CONTINUOUS
 10
87.7536671561
 20
134.8900389398
 11
87.7536671561
 21
128.6900389398
  0
LINE
  8
2_FEATURE
 62
7
  6
CONTINUOUS
 10
87.7536671561
 20
122.1900389398
 11
87.7536671561
 21
115.9900389398
  0
LINE
  8
2_FEATURE
 62
7
  6
CONTINUOUS
 10
87.7536671561
 20
109.4900389398
 11
87.7536671561
 21
103.2900389398
  0
LINE
  8
2_FEATURE
 62
7
  6
CONTINUOUS
 10
87.7536671561
 20
96.7900389398
 11
87.7536671561
 21
90.5900389398
  0
LINE
  8
2_FEATURE
 62
7
  6
CONTINUOUS
 10
87.7536671561
 20
84.0900389398
 11
87.7536671561
 21
77.8900389398
  0
LINE
  8
2_FEATURE
 62
7
  6
CONTINUOUS
 10
87.7536671561
 20
71.3900389398
 11
87.7536671561
 21
65.1900389398
  0
LINE
  8
0
 62
7
  6
CONTINUOUS
 10
83.3813748594
 20
141.2536434237
 11
83.7517567431
 21
140.9404580434
  0
POLYLINE
  8
0
 62
7
  6
CONTINUOUS
 66
1
 70
0
  0
VERTEX
  8
0
 62
7
  6
CONTINUOUS
 10
87.7536671561
 20
207.6400389398
  0
VERTEX
  8
0
 62
7
  6
CONTINUOUS
 10
87.7738107008
 20
207.2931680431
  0
VERTEX
  8
0
 62
7
  6
CONTINUOUS
 10
87.8338806843
 20
206.950947538
  0
SEQEND
  0
LINE
  8
0
 62
7
  6
CONTINUOUS
 10
86.1955775691
 20
121.8904580434
 11
86.5659594528
 21
122.2036434237
  0
LINE
  8
0
 62
7
  6
CONTINUOUS
 10
101.3736671557
 20
141.1400389398
 11
87.211643735
 21
141.1400389398
  0
LINE
  8
0
 62
7
  6
CONTINUOUS
 10
68.5736671561
 20
141.4900389398
 11
82.7356905772
 21
141.4900389398
  0
LINE
  8
0
 62
7
  6
CONTINUOUS
 10
86.5659594528
 20
141.376434456
 11
86.1955775691
 21
141.6896198363
  0
LINE
  8
DEFAULT_1
 62
2
  6
CENTER
 10
97.6736671561
 20
56.9400389398
 11
97.6736671561
 21
206.6400389398
  0
LINE
  8
0
 62
7
  6
CONTINUOUS
 10
82.7356905772
 20
147.4900389398
 11
68.5736671565
 21
147.4900389398
  0
LINE
  8
0
 62
7
  6
CONTINUOUS
 10
87.211643735
 20
147.8400389398
 11
101.3736671561
 21
147.8400389398
  0
LINE
  8
0
 62
7
  6
CONTINUOUS
 10
101.4736671561
 20
164.7400389398
 11
101.4736671561
 21
162.3400389398
  0
LINE
  8
0
 62
7
  6
CONTINUOUS
 10
101.4736671561
 20
113.9400389398
 11
101.4736671561
 21
111.5400389398
  0
LINE
  8
2_FEATURE
 62
7
  6
CONTINUOUS
 10
102.2236671561
 20
203.7900389398
 11
102.2236671561
 21
200.2400389398
  0
LINE
  8
2_FEATURE
 62
7
  6
CONTINUOUS
 10
102.2236671561
 20
191.0900389398
 11
102.2236671561
 21
186.7900389398
  0
LINE
  8
2_FEATURE
 62
7
  6
CONTINUOUS
 10
102.2236671561
 20
178.3900389398
 11
102.2236671561
 21
174.0900389398
  0
LINE
  8
2_FEATURE
 62
7
  6
CONTINUOUS
 10
102.2236671561
 20
165.6900389398
 11
102.2236671561
 21
161.3900389398
  0
LINE
  8
2_FEATURE
 62
7
  6
CONTINUOUS
 10
102.2236671561
 20
152.9900389398
 11
102.2236671561
 21
148.6900389398
  0
LINE
  8
2_FEATURE
 62
7
  6
CONTINUOUS
 10
102.2236671561
 20
140.2900389398
 11
102.2236671561
 21
135.9900389398
  0
LINE
  8
2_FEATURE
 62
7
  6
CONTINUOUS
 10
102.2236671561
 20
127.5900389398
 11
102.2236671561
 21
123.2900389398
  0
LINE
  8
2_FEATURE
 62
7
  6
CONTINUOUS
 10
102.2236671561
 20
114.8900389398
 11
102.2236671561
 21
110.5900389398
  0
LINE
  8
2_FEATURE
 62
7
  6
CONTINUOUS
 10
102.2236671561
 20
102.1900389398
 11
102.2236671561
 21
97.8900389398
  0
LINE
  8
2_FEATURE
 62
7
  6
CONTINUOUS
 10
102.2236671561
 20
89.4900389398
 11
102.2236671561
 21
85.1900389398
  0
LINE
  8
2_FEATURE
 62
7
  6
CONTINUOUS
 10
102.2236671561
 20
76.7900389398
 11
102.2236671561
 21
73.2400389398
  0
LINE
  8
2_FEATURE
 62
7
  6
CONTINUOUS
 10
102.2236671561
 20
64.0900389398
 11
102.2236671561
 21
59.7900389398
  0
LINE
  8
0
 62
7
  6
CONTINUOUS
 10
86.1955775691
 20
109.1904580434
 11
86.5659594528
 21
109.5036434237
  0
LINE
  8
0
 62
7
  6
CONTINUOUS
 10
101.3736671557
 20
153.8400389398
 11
87.211643735
 21
153.8400389398
  0
LINE
  8
0
 62
7
  6
CONTINUOUS
 10
68.5736671561
 20
154.1900389398
 11
82.7356905772
 21
154.1900389398
  0
LINE
  8
0
 62
7
  6
CONTINUOUS
 10
82.7356905772
 20
160.1900389398
 11
68.5736671565
 21
160.1900389398
  0
LINE
  8
0
 62
7
  6
CONTINUOUS
 10
87.211643735
 20
160.5400389398
 11
101.3736671561
 21
160.5400389398
  0
LINE
  8
0
 62
7
  6
CONTINUOUS
 10
86.5659594528
 20
166.776434456
 11
86.1955775691
 21
167.0896198363
  0
POLYLINE
  8
BLANK_CURVE
 62
7
  6
CONTINUOUS
 66
1
 70
0
  0
VERTEX
  8
BLANK_CURVE
 62
7
  6
CONTINUOUS
 10
87.8916108117
 20
206.7408552039
  0
VERTEX
  8
BLANK_CURVE
 62
7
  6
CONTINUOUS
 10
87.8608344089
 20
206.8453816965
  0
VERTEX
  8
BLANK_CURVE
 62
7
  6
CONTINUOUS
 10
87.8338806843
 20
206.950947538
  0
SEQEND
  0
LINE
  8
0
 62
7
  6
CONTINUOUS
 10
83.7517567431
 20
97.2396198363
 11
83.3813748594
 21
96.926434456
  0
LINE
  8
0
 62
7
  6
CONTINUOUS
 10
101.3736671557
 20
166.5400389398
 11
87.211643735
 21
166.5400389398
  0
LINE
  8
0
 62
7
  6
CONTINUOUS
 10
68.5736671561
 20
166.8900389398
 11
82.7356905772
 21
166.8900389398
  0
LINE
  8
0
 62
7
  6
CONTINUOUS
 10
86.1955775691
 20
83.7904580434
 11
86.5659594528
 21
84.1036434237
  0
LINE
  8
0
 62
7
  6
CONTINUOUS
 10
82.7356905772
 20
172.8900389398
 11
68.5736671565
 21
172.8900389398
  0
LINE
  8
0
 62
7
  6
CONTINUOUS
 10
87.211643735
 20
173.2400389398
 11
101.3736671561
 21
173.2400389398
  0
LINE
  8
0
 62
7
  6
CONTINUOUS
 10
83.7517567431
 20
71.8396198363
 11
83.3813748594
 21
71.526434456
  0
LINE
  8
0
 62
7
  6
CONTINUOUS
 10
101.3736671557
 20
179.2400389398
 11
87.211643735
 21
179.2400389398
  0
LINE
  8
0
 62
7
  6
CONTINUOUS
 10
68.5736671561
 20
179.5900389398
 11
82.7356905772
 21
179.5900389398
  0
LINE
  8
0
 62
7
  6
CONTINUOUS
 10
86.1955775691
 20
71.0904580434
 11
86.5659594528
 21
71.4036434237
  0
LINE
  8
0
 62
7
  6
CONTINUOUS
 10
82.7356905772
 20
185.5900389398
 11
68.5736671565
 21
185.5900389398
  0
LINE
  8
0
 62
7
  6
CONTINUOUS
 10
87.211643735
 20
185.9400389398
 11
101.3736671561
 21
185.9400389398
  0
LINE
  8
0
 62
7
  6
CONTINUOUS
 10
77.5736671561
 20
191.5900389398
 11
76.7736671561
 21
191.5900389398
  0
LINE
  8
0
 62
7
  6
CONTINUOUS
 10
101.3736671557
 20
191.9400389398
 11
87.211643735
 21
191.9400389398
  0
LINE
  8
0
 62
7
  6
CONTINUOUS
 10
68.5736671561
 20
192.2900389398
 11
82.7356905772
 21
192.2900389398
  0
LINE
  8
0
 62
7
  6
CONTINUOUS
 10
92.3736671561
 20
192.6400389398
 11
93.1736671561
 21
192.6400389398
  0
POLYLINE
  8
BLANK_CURVE
 62
7
  6
CONTINUOUS
 66
1
 70
0
  0
VERTEX
  8
BLANK_CURVE
 62
7
  6
CONTINUOUS
 10
88.9536671561
 20
205.2400389398
  0
VERTEX
  8
BLANK_CURVE
 62
7
  6
CONTINUOUS
 10
88.7148042571
 20
205.4393788254
  0
VERTEX
  8
BLANK_CURVE
 62
7
  6
CONTINUOUS
 10
88.4976657613
 20
205.6625559674
  0
VERTEX
  8
BLANK_CURVE
 62
7
  6
CONTINUOUS
 10
88.3048531119
 20
205.9070653123
  0
VERTEX
  8
BLANK_CURVE
 62
7
  6
CONTINUOUS
 10
88.1384543194
 20
206.170140367
  0
VERTEX
  8
BLANK_CURVE
 62
7
  6
CONTINUOUS
 10
88.0002244178
 20
206.4490392164
  0
VERTEX
  8
BLANK_CURVE
 62
7
  6
CONTINUOUS
 10
87.8916108117
 20
206.7408552039
  0
SEQEND
  0
LINE
  8
0
 62
7
  6
CONTINUOUS
 10
68.5736671565
 20
197.5400389398
 11
77.0596300882
 21
197.5400389398
  0
POLYLINE
  8
BLANK_CURVE
 62
7
  6
CONTINUOUS
 66
1
 70
0
  0
VERTEX
  8
BLANK_CURVE
 62
7
  6
CONTINUOUS
 10
88.9536671561
 20
205.2400389398
  0
VERTEX
  8
BLANK_CURVE
 62
7
  6
CONTINUOUS
 10
89.2133652101
 20
205.0658074301
  0
VERTEX
  8
BLANK_CURVE
 62
7
  6
CONTINUOUS
 10
89.492096873
 20
204.9184582355
  0
SEQEND
  0
LINE
  8
0
 62
7
  6
CONTINUOUS
 10
76.423682395
 20
198.2900389398
 11
82.7356905772
 21
198.2900389398
  0
LINE
  8
0
 62
7
  6
CONTINUOUS
 10
87.211643735
 20
198.6400389398
 11
93.5236519172
 21
198.6400389398
  0
LINE
  8
0
 62
7
  6
CONTINUOUS
 10
101.3736671561
 20
199.3900389398
 11
92.887704224
 21
199.3900389398
  0
LINE
  8
0
 62
7
  6
CONTINUOUS
 10
89.8074558854
 20
204.7932925859
 11
89.4956983191
 21
204.9167921244
  0
LINE
  8
BLANK_CURVE
 62
7
  6
CONTINUOUS
 10
89.492096873
 20
204.9184582355
 11
89.784675259
 21
204.80098053
  0
POLYLINE
  8
0
 62
7
  6
CONTINUOUS
 66
1
 70
0
  0
VERTEX
  8
0
 62
7
  6
CONTINUOUS
 10
89.4956983191
 20
204.9167921244
  0
VERTEX
  8
0
 62
7
  6
CONTINUOUS
 10
89.1970395557
 20
205.0756336877
  0
VERTEX
  8
0
 62
7
  6
CONTINUOUS
 10
88.953669114
 20
205.2400374698
  0
SEQEND
  0
LINE
  8
0
 62
7
  6
CONTINUOUS
 10
77.5736671561
 20
204.2900389398
 11
76.7736671561
 21
204.2900389398
  0
LINE
  8
0
 62
7
  6
CONTINUOUS
 10
101.3736671557
 20
204.6400389398
 11
89.0215465638
 21
204.6400389398
  0
LINE
  8
0
 62
7
  6
CONTINUOUS
 10
68.5736671561
 20
204.9900389398
 11
82.7356905772
 21
204.9900389398
  0
LINE
  8
0
 62
7
  6
CONTINUOUS
 10
92.3736671561
 20
205.3400389398
 11
93.1736671561
 21
205.3400389398
  0
LINE
  8
0
 62
7
  6
CONTINUOUS
 10
85.7536671561
 20
210.9900389398
 11
68.5736671565
 21
210.9900389398
  0
POLYLINE
  8
0
 62
7
  6
CONTINUOUS
 66
1
 70
0
  0
VERTEX
  8
0
 62
7
  6
CONTINUOUS
 10
90.0854671892
 20
204.7154007051
  0
VERTEX
  8
0
 62
7
  6
CONTINUOUS
 10
90.3059564786
 20
204.6736503846
  0
VERTEX
  8
0
 62
7
  6
CONTINUOUS
 10
90.5294175
 20
204.6484477239
  0
VERTEX
  8
0
 62
7
  6
CONTINUOUS
 10
90.7536671561
 20
204.6400389398
  0
SEQEND
  0
LINE
  8
0
 62
7
  6
CONTINUOUS
 10
90.085475126
 20
204.7153988866
 11
89.8074558854
 21
204.7932925859
  0
LINE
  8
BLANK_CURVE
 62
7
  6
CONTINUOUS
 10
89.784675259
 20
204.80098053
 11
90.0854671892
 21
204.7154007051
  0
LINE
  8
DEFAULT_1
 62
2
  6
CENTER
 10
72.2736671561
 20
245.9555571332
 11
72.2736671561
 21
243.5556571332
  0
LINE
  8
0
 62
2
  6
CONTINUOUS
 10
72.2736671561
 20
242.4355571332
 11
72.2736671561
 21
240.6755571332
  0
LINE
  8
DEFAULT_1
 62
2
  6
CENTER
 10
72.2736671561
 20
237.1555571332
 11
72.2736671561
 21
239.5554571332
  0
LINE
  8
0
 62
7
  6
CONTINUOUS
 10
97.8236671561
 20
237.1555571332
 11
72.1236671561
 21
237.1555571332
  0
LINE
  8
DEFAULT_1
 62
2
  6
CENTER
 10
102.0736671561
 20
241.5555571332
 11
99.6737671561
 21
241.5555571332
  0
LINE
  8
0
 62
2
  6
CONTINUOUS
 10
98.5536671561
 20
241.5555571332
 11
96.7936671561
 21
241.5555571332
  0
LINE
  8
DEFAULT_1
 62
2
  6
CENTER
 10
76.6736671561
 20
241.5555571332
 11
74.2737671561
 21
241.5555571332
  0
LINE
  8
0
 62
2
  6
CONTINUOUS
 10
73.1536671561
 20
241.5555571332
 11
71.3936671561
 21
241.5555571332
  0
LINE
  8
DEFAULT_1
 62
2
  6
CENTER
 10
67.8736671561
 20
241.5555571332
 11
70.2735671561
 21
241.5555571332
  0
LINE
  8
DEFAULT_1
 62
2
  6
CENTER
 10
93.2736671561
 20
241.5555571332
 11
95.6735671561
 21
241.5555571332
  0
LINE
  8
0
 62
7
  6
CONTINUOUS
 10
72.1236671561
 20
245.9555571332
 11
97.8236671561
 21
245.9555571332
  0
LINE
  8
DEFAULT_1
 62
2
  6
CENTER
 10
97.6736671561
 20
245.9555571332
 11
97.6736671561
 21
243.5556571332
  0
LINE
  8
0
 62
2
  6
CONTINUOUS
 10
97.6736671561
 20
242.4355571332
 11
97.6736671561
 21
240.6755571332
  0
LINE
  8
DEFAULT_1
 62
2
  6
CENTER
 10
97.6736671561
 20
237.1555571332
 11
97.6736671561
 21
239.5554571332
  0
LINE
  8
2_FEATURE
 62
7
  6
CONTINUOUS
 10
152.1925373767
 20
58.9400389398
 11
146.9609028329
 21
58.9400389398
  0
LINE
  8
0
 62
7
  6
CONTINUOUS
 10
146.0267201048
 20
58.9400389398
 11
153.1267201048
 21
58.9400389398
  0
LINE
  8
0
 62
7
  6
CONTINUOUS
 10
149.1767380777
 20
64.5900389398
 11
149.9767021319
 21
64.5900389398
  0
LINE
  8
0
 62
7
  6
CONTINUOUS
 10
146.0267201048
 20
65.2900389398
 11
153.1267201048
 21
65.2900389398
  0
LINE
  8
0
 62
7
  6
CONTINUOUS
 10
153.1267201048
 20
70.5400389398
 11
146.0267201048
 21
70.5400389398
  0
LINE
  8
0
 62
7
  6
CONTINUOUS
 10
146.0267201048
 20
71.2900389398
 11
153.1267201048
 21
71.2900389398
  0
LINE
  8
0
 62
7
  6
CONTINUOUS
 10
149.1767380777
 20
77.2900389398
 11
149.9767021319
 21
77.2900389398
  0
LINE
  8
0
 62
7
  6
CONTINUOUS
 10
146.0267201048
 20
77.9900389398
 11
153.1267201048
 21
77.9900389398
  0
LINE
  8
0
 62
7
  6
CONTINUOUS
 10
153.1267201048
 20
83.9900389398
 11
146.0267201048
 21
83.9900389398
  0
LINE
  8
0
 62
7
  6
CONTINUOUS
 10
146.0267201048
 20
90.6900389398
 11
153.1267201048
 21
90.6900389398
  0
LINE
  8
0
 62
7
  6
CONTINUOUS
 10
153.1267201048
 20
96.6900389398
 11
146.0267201048
 21
96.6900389398
  0
LINE
  8
0
 62
7
  6
CONTINUOUS
 10
146.0267201048
 20
103.3900389398
 11
153.1267201048
 21
103.3900389398
  0
LINE
  8
0
 62
7
  6
CONTINUOUS
 10
153.1267201048
 20
109.3900389398
 11
146.0267201048
 21
109.3900389398
  0
LINE
  8
0
 62
7
  6
CONTINUOUS
 10
146.0267201048
 20
116.0900389398
 11
153.1267201048
 21
116.0900389398
  0
LINE
  8
0
 62
7
  6
CONTINUOUS
 10
153.1267201048
 20
122.0900389398
 11
146.0267201048
 21
122.0900389398
  0
LINE
  8
2_FEATURE
 62
7
  6
CONTINUOUS
 10
145.1767201048
 20
59.7900389398
 11
145.1767201048
 21
62.3374117779
  0
LINE
  8
2_FEATURE
 62
7
  6
CONTINUOUS
 10
145.1767201048
 20
73.1295243691
 11
145.1767201048
 21
76.1505534211
  0
LINE
  8
2_FEATURE
 62
7
  6
CONTINUOUS
 10
145.1767201048
 20
85.8295243691
 11
145.1767201048
 21
88.8505534211
  0
LINE
  8
2_FEATURE
 62
7
  6
CONTINUOUS
 10
145.1767201048
 20
98.5295243691
 11
145.1767201048
 21
101.5505534211
  0
LINE
  8
2_FEATURE
 62
7
  6
CONTINUOUS
 10
145.1767201048
 20
111.2295243691
 11
145.1767201048
 21
114.2505534211
  0
LINE
  8
2_FEATURE
 62
7
  6
CONTINUOUS
 10
145.1767201048
 20
123.9295243691
 11
145.1767201048
 21
126.9505534211
  0
LINE
  8
2_FEATURE
 62
7
  6
CONTINUOUS
 10
145.1767201048
 20
136.6295243691
 11
145.1767201048
 21
139.6505534211
  0
LINE
  8
2_FEATURE
 62
7
  6
CONTINUOUS
 10
145.1767201048
 20
149.3295243691
 11
145.1767201048
 21
152.3505534211
  0
LINE
  8
2_FEATURE
 62
7
  6
CONTINUOUS
 10
145.1767201048
 20
162.0295243691
 11
145.1767201048
 21
165.0505534211
  0
LINE
  8
2_FEATURE
 62
7
  6
CONTINUOUS
 10
145.1767201048
 20
174.7295243691
 11
145.1767201048
 21
177.7505534211
  0
LINE
  8
2_FEATURE
 62
7
  6
CONTINUOUS
 10
145.1767201048
 20
187.4295243691
 11
145.1767201048
 21
190.4505534211
  0
LINE
  8
2_FEATURE
 62
7
  6
CONTINUOUS
 10
145.1767201048
 20
200.1295243691
 11
145.1767201048
 21
203.1505534211
  0
LINE
  8
0
 62
7
  6
CONTINUOUS
 10
145.1767201048
 20
59.7900389398
 11
145.1767201048
 21
210.1400389398
  0
LINE
  8
0
 62
7
  6
CONTINUOUS
 10
146.0267201048
 20
128.7900389398
 11
153.1267201048
 21
128.7900389398
  0
LINE
  8
DEFAULT_1
 62
2
  6
CENTER
 10
149.5767201048
 20
56.9400389398
 11
149.5767201048
 21
206.6400389398
  0
LINE
  8
0
 62
7
  6
CONTINUOUS
 10
153.1267201048
 20
134.7900389398
 11
146.0267201048
 21
134.7900389398
  0
LINE
  8
2_FEATURE
 62
7
  6
CONTINUOUS
 10
153.9767201048
 20
210.1400389398
 11
153.9767201048
 21
205.8400389398
  0
LINE
  8
2_FEATURE
 62
7
  6
CONTINUOUS
 10
153.9767201048
 20
196.6900389398
 11
153.9767201048
 21
193.1400389398
  0
LINE
  8
2_FEATURE
 62
7
  6
CONTINUOUS
 10
153.9767201048
 20
184.7400389398
 11
153.9767201048
 21
180.4400389398
  0
LINE
  8
2_FEATURE
 62
7
  6
CONTINUOUS
 10
153.9767201048
 20
172.0400389398
 11
153.9767201048
 21
167.7400389398
  0
LINE
  8
2_FEATURE
 62
7
  6
CONTINUOUS
 10
153.9767201048
 20
159.3400389398
 11
153.9767201048
 21
155.0400389398
  0
LINE
  8
2_FEATURE
 62
7
  6
CONTINUOUS
 10
153.9767201048
 20
146.6400389398
 11
153.9767201048
 21
142.3400389398
  0
LINE
  8
2_FEATURE
 62
7
  6
CONTINUOUS
 10
153.9767201048
 20
133.9400389398
 11
153.9767201048
 21
129.6400389398
  0
LINE
  8
2_FEATURE
 62
7
  6
CONTINUOUS
 10
153.9767201048
 20
121.2400389398
 11
153.9767201048
 21
116.9400389398
  0
LINE
  8
2_FEATURE
 62
7
  6
CONTINUOUS
 10
153.9767201048
 20
108.5400389398
 11
153.9767201048
 21
104.2400389398
  0
LINE
  8
2_FEATURE
 62
7
  6
CONTINUOUS
 10
153.9767201048
 20
95.8400389398
 11
153.9767201048
 21
91.5400389398
  0
LINE
  8
2_FEATURE
 62
7
  6
CONTINUOUS
 10
153.9767201048
 20
83.1400389398
 11
153.9767201048
 21
78.8400389398
  0
LINE
  8
2_FEATURE
 62
7
  6
CONTINUOUS
 10
153.9767201048
 20
69.6900389398
 11
153.9767201048
 21
66.1400389398
  0
LINE
  8
0
 62
7
  6
CONTINUOUS
 10
153.9767201048
 20
59.7900389398
 11
153.9767201048
 21
210.1400389398
  0
LINE
  8
0
 62
7
  6
CONTINUOUS
 10
146.0267201048
 20
141.4900389398
 11
153.1267201048
 21
141.4900389398
  0
LINE
  8
0
 62
7
  6
CONTINUOUS
 10
153.1267201048
 20
147.4900389398
 11
146.0267201048
 21
147.4900389398
  0
LINE
  8
0
 62
7
  6
CONTINUOUS
 10
146.0267201048
 20
154.1900389398
 11
153.1267201048
 21
154.1900389398
  0
LINE
  8
0
 62
7
  6
CONTINUOUS
 10
153.1267201048
 20
160.1900389398
 11
146.0267201048
 21
160.1900389398
  0
LINE
  8
0
 62
7
  6
CONTINUOUS
 10
146.0267201048
 20
166.8900389398
 11
153.1267201048
 21
166.8900389398
  0
LINE
  8
0
 62
7
  6
CONTINUOUS
 10
153.1267201048
 20
172.8900389398
 11
146.0267201048
 21
172.8900389398
  0
LINE
  8
0
 62
7
  6
CONTINUOUS
 10
146.0267201048
 20
179.5900389398
 11
153.1267201048
 21
179.5900389398
  0
LINE
  8
0
 62
7
  6
CONTINUOUS
 10
153.1267201048
 20
185.5900389398
 11
146.0267201048
 21
185.5900389398
  0
LINE
  8
0
 62
7
  6
CONTINUOUS
 10
149.1767380777
 20
191.5900389398
 11
149.9767021319
 21
191.5900389398
  0
LINE
  8
0
 62
7
  6
CONTINUOUS
 10
146.0267201048
 20
192.2900389398
 11
153.1267201048
 21
192.2900389398
  0
LINE
  8
0
 62
7
  6
CONTINUOUS
 10
153.1267201048
 20
197.5400389398
 11
146.0267201048
 21
197.5400389398
  0
LINE
  8
0
 62
7
  6
CONTINUOUS
 10
146.0267201048
 20
198.2900389398
 11
153.1267201048
 21
198.2900389398
  0
LINE
  8
0
 62
7
  6
CONTINUOUS
 10
149.1767380777
 20
204.2900389398
 11
149.9767021319
 21
204.2900389398
  0
LINE
  8
0
 62
7
  6
CONTINUOUS
 10
146.0267201048
 20
204.9900389398
 11
153.1267201048
 21
204.9900389398
  0
LINE
  8
0
 62
7
  6
CONTINUOUS
 10
153.1267201048
 20
210.9900389398
 11
146.0267201048
 21
210.9900389398
  0
ARC
  8
0
 62
7
  6
CONTINUOUS
 10
74.9912730049
 20
62.8370212304
 40
2.5
 50
44.5239289046
 51
78.8745595634
  0
ARC
  8
0
 62
7
  6
CONTINUOUS
 10
74.9912730049
 20
75.5370212304
 40
2.5
 50
44.5239289046
 51
78.8745595634
  0
ARC
  8
0
 62
7
  6
CONTINUOUS
 10
68.5736671561
 20
66.1400389398
 40
0.85
 50
180.0
 51
270.0000000258
  0
ARC
  8
0
 62
7
  6
CONTINUOUS
 10
68.5736671561
 20
69.6900389398
 40
0.85
 50
89.9999999742
 51
180.0
  0
ARC
  8
0
 62
7
  6
CONTINUOUS
 10
68.5736671561
 20
95.8400389398
 40
0.85
 50
89.9999999742
 51
180.0
  0
ARC
  8
0
 62
7
  6
CONTINUOUS
 10
68.5736671561
 20
91.5400389398
 40
0.85
 50
180.0
 51
270.0000000258
  0
ARC
  8
0
 62
7
  6
CONTINUOUS
 10
68.5736671561
 20
83.1400389398
 40
0.85
 50
89.9999999742
 51
180.0
  0
ARC
  8
0
 62
7
  6
CONTINUOUS
 10
68.5736671561
 20
78.8400389398
 40
0.85
 50
180.0
 51
270.0000000258
  0
ARC
  8
0
 62
7
  6
CONTINUOUS
 10
75.3808344754
 20
70.7900389398
 40
0.25
 50
270.0000005079
 51
341.446995587
  0
ARC
  8
0
 62
7
  6
CONTINUOUS
 10
68.5736671561
 20
133.9400389398
 40
0.85
 50
89.9999999742
 51
180.0
  0
ARC
  8
0
 62
7
  6
CONTINUOUS
 10
68.5736671561
 20
129.6400389398
 40
0.85
 50
180.0
 51
270.0000000258
  0
ARC
  8
0
 62
7
  6
CONTINUOUS
 10
68.5736671561
 20
121.2400389398
 40
0.85
 50
89.9999999742
 51
180.0
  0
ARC
  8
0
 62
7
  6
CONTINUOUS
 10
68.5736671561
 20
116.9400389398
 40
0.85
 50
180.0
 51
270.0000000258
  0
ARC
  8
0
 62
7
  6
CONTINUOUS
 10
68.5736671561
 20
108.5400389398
 40
0.85
 50
89.9999999742
 51
180.0
  0
ARC
  8
0
 62
7
  6
CONTINUOUS
 10
68.5736671561
 20
104.2400389398
 40
0.85
 50
180.0
 51
270.0000000258
  0
ARC
  8
0
 62
7
  6
CONTINUOUS
 10
79.3560613073
 20
62.8370212304
 40
2.5
 50
101.1254404366
 51
135.4760710954
  0
ARC
  8
0
 62
7
  6
CONTINUOUS
 10
79.3560613073
 20
75.5370212304
 40
2.5
 50
101.1254404366
 51
135.4760710954
  0
ARC
  8
0
 62
7
  6
CONTINUOUS
 10
84.1936671561
 20
60.9400389398
 40
2.0
 50
179.9999990488
 51
270.0
  0
ARC
  8
0
 62
7
  6
CONTINUOUS
 10
82.7356905772
 20
76.9900389398
 40
1.0
 50
49.783
 51
90.0
  0
ARC
  8
0
 62
7
  6
CONTINUOUS
 10
82.7356905772
 20
89.6900389398
 40
1.0
 50
49.783
 51
90.0
  0
ARC
  8
0
 62
7
  6
CONTINUOUS
 10
82.7356905772
 20
72.2900389398
 40
1.0
 50
270.0
 51
310.217
  0
ARC
  8
0
 62
7
  6
CONTINUOUS
 10
76.4236671561
 20
70.4400389398
 40
0.85
 50
90.0
 51
161.4469954291
  0
ARC
  8
0
 62
7
  6
CONTINUOUS
 10
81.9436671561
 20
71.5400389398
 40
0.25
 50
270.0000006708
 51
360.0
  0
ARC
  8
0
 62
7
  6
CONTINUOUS
 10
81.9436671561
 20
77.7400389398
 40
0.25
 50
0.0
 51
89.9999993291
  0
ARC
  8
0
 62
7
  6
CONTINUOUS
 10
81.9436671561
 20
84.2400389398
 40
0.25
 50
270.0000006708
 51
360.0
  0
ARC
  8
0
 62
7
  6
CONTINUOUS
 10
81.9436671561
 20
90.4400389398
 40
0.25
 50
0.0
 51
89.9999993291
  0
ARC
  8
0
 62
7
  6
CONTINUOUS
 10
81.9436671561
 20
96.9400389398
 40
0.25
 50
270.0000006708
 51
360.0
  0
ARC
  8
0
 62
7
  6
CONTINUOUS
 10
82.7356905772
 20
102.3900389398
 40
1.0
 50
49.783
 51
90.0
  0
ARC
  8
0
 62
7
  6
CONTINUOUS
 10
82.7356905772
 20
115.0900389398
 40
1.0
 50
49.783
 51
90.0
  0
ARC
  8
0
 62
7
  6
CONTINUOUS
 10
82.7356905772
 20
127.7900389398
 40
1.0
 50
49.783
 51
90.0
  0
ARC
  8
0
 62
7
  6
CONTINUOUS
 10
81.9436671561
 20
103.1400389398
 40
0.25
 50
0.0
 51
89.9999993291
  0
ARC
  8
0
 62
7
  6
CONTINUOUS
 10
81.9436671561
 20
109.6400389398
 40
0.25
 50
270.0000006708
 51
360.0
  0
ARC
  8
0
 62
7
  6
CONTINUOUS
 10
81.9436671561
 20
115.8400389398
 40
0.25
 50
0.0
 51
89.9999993291
  0
ARC
  8
0
 62
7
  6
CONTINUOUS
 10
81.9436671561
 20
122.3400389398
 40
0.25
 50
270.0000006708
 51
360.0
  0
ARC
  8
0
 62
7
  6
CONTINUOUS
 10
81.9436671561
 20
128.5400389398
 40
0.25
 50
0.0
 51
89.9999993291
  0
ARC
  8
0
 62
7
  6
CONTINUOUS
 10
68.5736671561
 20
172.0400389398
 40
0.85
 50
89.9999999742
 51
180.0
  0
ARC
  8
0
 62
7
  6
CONTINUOUS
 10
68.5736671561
 20
167.7400389398
 40
0.85
 50
180.0
 51
270.0000000258
  0
ARC
  8
0
 62
7
  6
CONTINUOUS
 10
68.5736671561
 20
159.3400389398
 40
0.85
 50
89.9999999742
 51
180.0
  0
ARC
  8
0
 62
7
  6
CONTINUOUS
 10
68.5736671561
 20
155.0400389398
 40
0.85
 50
180.0
 51
270.0000000258
  0
ARC
  8
0
 62
7
  6
CONTINUOUS
 10
68.5736671561
 20
146.6400389398
 40
0.85
 50
89.9999999742
 51
180.0
  0
ARC
  8
0
 62
7
  6
CONTINUOUS
 10
68.5736671561
 20
142.3400389398
 40
0.85
 50
180.0
 51
270.0000000258
  0
ARC
  8
0
 62
7
  6
CONTINUOUS
 10
74.9912730049
 20
189.8370212304
 40
2.5
 50
44.5239289046
 51
78.8745595634
  0
ARC
  8
0
 62
7
  6
CONTINUOUS
 10
74.9912730049
 20
202.5370212304
 40
2.5
 50
44.5239289046
 51
78.8745595634
  0
ARC
  8
0
 62
7
  6
CONTINUOUS
 10
68.5736671561
 20
210.1400389398
 40
0.85
 50
89.9999999742
 51
180.0
  0
ARC
  8
0
 62
7
  6
CONTINUOUS
 10
68.5736671561
 20
196.6900389398
 40
0.85
 50
89.9999999742
 51
180.0
  0
ARC
  8
0
 62
7
  6
CONTINUOUS
 10
68.5736671561
 20
205.8400389398
 40
0.85
 50
180.0
 51
270.0000000258
  0
ARC
  8
0
 62
7
  6
CONTINUOUS
 10
68.5736671561
 20
193.1400389398
 40
0.85
 50
180.0
 51
270.0000000258
  0
ARC
  8
0
 62
7
  6
CONTINUOUS
 10
68.5736671561
 20
184.7400389398
 40
0.85
 50
89.9999999742
 51
180.0
  0
ARC
  8
0
 62
7
  6
CONTINUOUS
 10
68.5736671561
 20
180.4400389398
 40
0.85
 50
180.0
 51
270.0000000258
  0
ARC
  8
0
 62
7
  6
CONTINUOUS
 10
75.3808344754
 20
197.7900389398
 40
0.25
 50
270.0000005079
 51
341.446995587
  0
ARC
  8
0
 62
7
  6
CONTINUOUS
 10
82.7356905772
 20
140.4900389398
 40
1.0
 50
49.783
 51
90.0
  0
ARC
  8
0
 62
7
  6
CONTINUOUS
 10
82.7356905772
 20
153.1900389398
 40
1.0
 50
49.783
 51
90.0
  0
ARC
  8
0
 62
7
  6
CONTINUOUS
 10
82.7356905772
 20
165.8900389398
 40
1.0
 50
49.783
 51
90.0
  0
ARC
  8
0
 62
7
  6
CONTINUOUS
 10
81.9436671561
 20
135.0400389398
 40
0.25
 50
270.0000006708
 51
360.0
  0
ARC
  8
0
 62
7
  6
CONTINUOUS
 10
81.9436671561
 20
141.2400389398
 40
0.25
 50
0.0
 51
89.9999993291
  0
ARC
  8
0
 62
7
  6
CONTINUOUS
 10
81.9436671561
 20
147.7400389398
 40
0.25
 50
270.0000006708
 51
360.0
  0
ARC
  8
0
 62
7
  6
CONTINUOUS
 10
81.9436671561
 20
153.9400389398
 40
0.25
 50
0.0
 51
89.9999993291
  0
ARC
  8
0
 62
7
  6
CONTINUOUS
 10
81.9436671561
 20
160.4400389398
 40
0.25
 50
270.0000006708
 51
360.0
  0
ARC
  8
0
 62
7
  6
CONTINUOUS
 10
81.9436671561
 20
166.6400389398
 40
0.25
 50
0.0
 51
89.9999993291
  0
ARC
  8
0
 62
7
  6
CONTINUOUS
 10
79.3560613073
 20
189.8370212304
 40
2.5
 50
101.1254404366
 51
135.4760710954
  0
ARC
  8
0
 62
7
  6
CONTINUOUS
 10
79.3560613073
 20
202.5370212304
 40
2.5
 50
101.1254404366
 51
135.4760710954
  0
ARC
  8
0
 62
7
  6
CONTINUOUS
 10
82.7356905772
 20
178.5900389398
 40
1.0
 50
49.783
 51
90.0
  0
ARC
  8
0
 62
7
  6
CONTINUOUS
 10
82.7356905772
 20
191.2900389398
 40
1.0
 50
49.783
 51
90.0
  0
ARC
  8
0
 62
7
  6
CONTINUOUS
 10
82.7356905772
 20
203.9900389398
 40
1.0
 50
49.783
 51
90.0
  0
ARC
  8
0
 62
7
  6
CONTINUOUS
 10
82.7356905772
 20
199.2900389398
 40
1.0
 50
270.0
 51
310.217
  0
ARC
  8
0
 62
7
  6
CONTINUOUS
 10
76.4236671561
 20
197.4400389398
 40
0.85
 50
90.0
 51
161.4469954291
  0
ARC
  8
0
 62
7
  6
CONTINUOUS
 10
81.9436671561
 20
173.1400389398
 40
0.25
 50
270.0000006708
 51
360.0
  0
ARC
  8
0
 62
7
  6
CONTINUOUS
 10
81.9436671561
 20
179.3400389398
 40
0.25
 50
0.0
 51
89.9999993291
  0
ARC
  8
0
 62
7
  6
CONTINUOUS
 10
81.9436671561
 20
185.8400389398
 40
0.25
 50
270.0000006708
 51
360.0
  0
ARC
  8
0
 62
7
  6
CONTINUOUS
 10
81.9436671561
 20
192.0400389398
 40
0.25
 50
0.0
 51
89.9999993291
  0
ARC
  8
0
 62
7
  6
CONTINUOUS
 10
81.9436671561
 20
204.7400389398
 40
0.25
 50
0.0
 51
89.9999993291
  0
ARC
  8
0
 62
7
  6
CONTINUOUS
 10
81.9436671561
 20
198.5400389398
 40
0.25
 50
270.0000006708
 51
360.0
  0
ARC
  8
0
 62
7
  6
CONTINUOUS
 10
90.5912730049
 20
80.0930566493
 40
2.5
 50
281.1254404366
 51
315.4760710954
  0
ARC
  8
0
 62
7
  6
CONTINUOUS
 10
90.5912730049
 20
67.3930566493
 40
2.5
 50
281.1254404366
 51
315.4760710954
  0
ARC
  8
0
 62
7
  6
CONTINUOUS
 10
87.211643735
 20
65.9400389398
 40
1.0
 50
229.783
 51
270.0
  0
ARC
  8
0
 62
7
  6
CONTINUOUS
 10
87.211643735
 20
78.6400389398
 40
1.0
 50
229.783
 51
270.0
  0
ARC
  8
0
 62
7
  6
CONTINUOUS
 10
87.211643735
 20
91.3400389398
 40
1.0
 50
229.783
 51
270.0
  0
ARC
  8
0
 62
7
  6
CONTINUOUS
 10
87.211643735
 20
70.6400389398
 40
1.0
 50
90.0
 51
130.217
  0
ARC
  8
0
 62
7
  6
CONTINUOUS
 10
93.5236671561
 20
72.4900389398
 40
0.85
 50
270.0
 51
341.4469954291
  0
ARC
  8
0
 62
7
  6
CONTINUOUS
 10
88.0036671561
 20
71.3900389398
 40
0.25
 50
90.0000006708
 51
180.0
  0
ARC
  8
0
 62
7
  6
CONTINUOUS
 10
88.0036671561
 20
65.1900389398
 40
0.25
 50
180.0
 51
269.9999993291
  0
ARC
  8
0
 62
7
  6
CONTINUOUS
 10
88.0036671561
 20
77.8900389398
 40
0.25
 50
180.0
 51
269.9999993291
  0
ARC
  8
0
 62
7
  6
CONTINUOUS
 10
88.0036671561
 20
84.0900389398
 40
0.25
 50
90.0000006708
 51
180.0
  0
ARC
  8
0
 62
7
  6
CONTINUOUS
 10
88.0036671561
 20
90.5900389398
 40
0.25
 50
180.0
 51
269.9999993291
  0
ARC
  8
0
 62
7
  6
CONTINUOUS
 10
88.0036671561
 20
96.7900389398
 40
0.25
 50
90.0000006708
 51
180.0
  0
ARC
  8
0
 62
7
  6
CONTINUOUS
 10
87.211643735
 20
104.0400389398
 40
1.0
 50
229.783
 51
270.0
  0
ARC
  8
0
 62
7
  6
CONTINUOUS
 10
87.211643735
 20
116.7400389398
 40
1.0
 50
229.783
 51
270.0
  0
ARC
  8
0
 62
7
  6
CONTINUOUS
 10
87.211643735
 20
129.4400389398
 40
1.0
 50
229.783
 51
270.0
  0
ARC
  8
0
 62
7
  6
CONTINUOUS
 10
88.0036671561
 20
109.4900389398
 40
0.25
 50
90.0000006708
 51
180.0
  0
ARC
  8
0
 62
7
  6
CONTINUOUS
 10
88.0036671561
 20
103.2900389398
 40
0.25
 50
180.0
 51
269.9999993291
  0
ARC
  8
0
 62
7
  6
CONTINUOUS
 10
88.0036671561
 20
115.9900389398
 40
0.25
 50
180.0
 51
269.9999993291
  0
ARC
  8
0
 62
7
  6
CONTINUOUS
 10
88.0036671561
 20
122.1900389398
 40
0.25
 50
90.0000006708
 51
180.0
  0
ARC
  8
0
 62
7
  6
CONTINUOUS
 10
88.0036671561
 20
128.6900389398
 40
0.25
 50
180.0
 51
269.9999993291
  0
ARC
  8
0
 62
7
  6
CONTINUOUS
 10
88.0036671561
 20
134.8900389398
 40
0.25
 50
90.0000006708
 51
180.0
  0
ARC
  8
0
 62
7
  6
CONTINUOUS
 10
94.9560613073
 20
80.0930566493
 40
2.5
 50
224.5239289046
 51
258.8745595634
  0
ARC
  8
0
 62
7
  6
CONTINUOUS
 10
94.9560613073
 20
67.3930566493
 40
2.5
 50
224.5239289046
 51
258.8745595634
  0
ARC
  8
0
 62
7
  6
CONTINUOUS
 10
101.3736671561
 20
59.7900389398
 40
0.85
 50
269.9999999742
 51
360.0
  0
ARC
  8
0
 62
7
  6
CONTINUOUS
 10
101.3736671561
 20
73.2400389398
 40
0.85
 50
269.9999999742
 51
360.0
  0
ARC
  8
0
 62
7
  6
CONTINUOUS
 10
101.3736671561
 20
89.4900389398
 40
0.85
 50
0.0
 51
90.0000000258
  0
ARC
  8
0
 62
7
  6
CONTINUOUS
 10
101.3736671561
 20
85.1900389398
 40
0.85
 50
269.9999999742
 51
360.0
  0
ARC
  8
0
 62
7
  6
CONTINUOUS
 10
101.3736671561
 20
76.7900389398
 40
0.85
 50
0.0
 51
90.0000000258
  0
ARC
  8
0
 62
7
  6
CONTINUOUS
 10
101.3736671561
 20
64.0900389398
 40
0.85
 50
0.0
 51
90.0000000258
  0
ARC
  8
0
 62
7
  6
CONTINUOUS
 10
94.5664998368
 20
72.1400389398
 40
0.25
 50
90.0000005079
 51
161.446995587
  0
ARC
  8
0
 62
7
  6
CONTINUOUS
 10
101.3736671561
 20
127.5900389398
 40
0.85
 50
0.0
 51
90.0000000258
  0
ARC
  8
0
 62
7
  6
CONTINUOUS
 10
101.3736671561
 20
123.2900389398
 40
0.85
 50
269.9999999742
 51
360.0
  0
ARC
  8
0
 62
7
  6
CONTINUOUS
 10
101.3736671561
 20
114.8900389398
 40
0.85
 50
0.0
 51
90.0000000258
  0
ARC
  8
0
 62
7
  6
CONTINUOUS
 10
101.3736671561
 20
110.5900389398
 40
0.85
 50
269.9999999742
 51
360.0
  0
ARC
  8
0
 62
7
  6
CONTINUOUS
 10
101.3736671561
 20
102.1900389398
 40
0.85
 50
0.0
 51
90.0000000258
  0
ARC
  8
0
 62
7
  6
CONTINUOUS
 10
101.3736671561
 20
97.8900389398
 40
0.85
 50
269.9999999742
 51
360.0
  0
ARC
  8
0
 62
7
  6
CONTINUOUS
 10
101.7736671561
 20
113.9400389398
 40
0.3
 50
119.4487265352
 51
180.0
  0
ARC
  8
0
 62
7
  6
CONTINUOUS
 10
101.7736671561
 20
111.5400389398
 40
0.3
 50
180.0008739014
 51
240.5512692097
  0
ARC
  8
0
 62
7
  6
CONTINUOUS
 10
87.211643735
 20
142.1400389398
 40
1.0
 50
229.783
 51
270.0
  0
ARC
  8
0
 62
7
  6
CONTINUOUS
 10
87.211643735
 20
154.8400389398
 40
1.0
 50
229.783
 51
270.0
  0
ARC
  8
0
 62
7
  6
CONTINUOUS
 10
87.211643735
 20
167.5400389398
 40
1.0
 50
229.783
 51
270.0
  0
ARC
  8
0
 62
7
  6
CONTINUOUS
 10
88.0036671561
 20
141.3900389398
 40
0.25
 50
180.0
 51
269.9999993291
  0
ARC
  8
0
 62
7
  6
CONTINUOUS
 10
88.0036671561
 20
147.5900389398
 40
0.25
 50
90.0000006708
 51
180.0
  0
ARC
  8
0
 62
7
  6
CONTINUOUS
 10
88.0036671561
 20
154.0900389398
 40
0.25
 50
180.0
 51
269.9999993291
  0
ARC
  8
0
 62
7
  6
CONTINUOUS
 10
88.0036671561
 20
160.2900389398
 40
0.25
 50
90.0000006708
 51
180.0
  0
ARC
  8
0
 62
7
  6
CONTINUOUS
 10
88.0036671561
 20
166.7900389398
 40
0.25
 50
180.0
 51
269.9999993291
  0
ARC
  8
0
 62
7
  6
CONTINUOUS
 10
90.5912730049
 20
207.0930566493
 40
2.5
 50
281.1254404366
 51
315.4760710954
  0
ARC
  8
0
 62
7
  6
CONTINUOUS
 10
90.5912730049
 20
194.3930566493
 40
2.5
 50
281.1254404366
 51
315.4760710954
  0
ARC
  8
0
 62
7
  6
CONTINUOUS
 10
85.7536671561
 20
208.9900389398
 40
2.0
 50
359.9999990489
 51
90.0
  0
ARC
  8
0
 62
7
  6
CONTINUOUS
 10
87.211643735
 20
180.2400389398
 40
1.0
 50
229.783
 51
270.0
  0
ARC
  8
0
 62
7
  6
CONTINUOUS
 10
87.211643735
 20
192.9400389398
 40
1.0
 50
229.783
 51
270.0
  0
ARC
  8
0
 62
7
  6
CONTINUOUS
 10
87.211643735
 20
197.6400389398
 40
1.0
 50
90.0
 51
130.217
  0
ARC
  8
0
 62
7
  6
CONTINUOUS
 10
93.5236671561
 20
199.4900389398
 40
0.85
 50
270.0
 51
341.4469954291
  0
ARC
  8
0
 62
7
  6
CONTINUOUS
 10
88.0036671561
 20
198.3900389398
 40
0.25
 50
90.0000006708
 51
180.0
  0
ARC
  8
0
 62
7
  6
CONTINUOUS
 10
88.0036671561
 20
172.9900389398
 40
0.25
 50
90.0000006708
 51
180.0
  0
ARC
  8
0
 62
7
  6
CONTINUOUS
 10
88.0036671561
 20
185.6900389398
 40
0.25
 50
90.0000006708
 51
180.0
  0
ARC
  8
0
 62
7
  6
CONTINUOUS
 10
88.0036671561
 20
179.4900389398
 40
0.25
 50
180.0
 51
269.9999993291
  0
ARC
  8
0
 62
7
  6
CONTINUOUS
 10
88.0036671561
 20
192.1900389398
 40
0.25
 50
180.0
 51
269.9999993291
  0
ARC
  8
0
 62
7
  6
CONTINUOUS
 10
101.3736671561
 20
165.6900389398
 40
0.85
 50
0.0
 51
90.0000000258
  0
ARC
  8
0
 62
7
  6
CONTINUOUS
 10
101.3736671561
 20
161.3900389398
 40
0.85
 50
269.9999999742
 51
360.0
  0
ARC
  8
0
 62
7
  6
CONTINUOUS
 10
101.3736671561
 20
152.9900389398
 40
0.85
 50
0.0
 51
90.0000000258
  0
ARC
  8
0
 62
7
  6
CONTINUOUS
 10
101.3736671561
 20
148.6900389398
 40
0.85
 50
269.9999999742
 51
360.0
  0
ARC
  8
0
 62
7
  6
CONTINUOUS
 10
101.3736671561
 20
140.2900389398
 40
0.85
 50
0.0
 51
90.0000000258
  0
ARC
  8
0
 62
7
  6
CONTINUOUS
 10
101.3736671561
 20
135.9900389398
 40
0.85
 50
269.9999999742
 51
360.0
  0
ARC
  8
0
 62
7
  6
CONTINUOUS
 10
101.7736671561
 20
164.7400389398
 40
0.3
 50
119.4487265352
 51
180.0
  0
ARC
  8
0
 62
7
  6
CONTINUOUS
 10
101.7736671561
 20
162.3400389398
 40
0.3
 50
180.0
 51
240.5512692097
  0
ARC
  8
0
 62
7
  6
CONTINUOUS
 10
94.9560613073
 20
207.0930566493
 40
2.5
 50
224.5239289046
 51
258.8745595634
  0
ARC
  8
0
 62
7
  6
CONTINUOUS
 10
94.9560613073
 20
194.3930566493
 40
2.5
 50
224.5239289046
 51
258.8745595634
  0
ARC
  8
0
 62
7
  6
CONTINUOUS
 10
101.3736671561
 20
200.2400389398
 40
0.85
 50
269.9999999742
 51
360.0
  0
ARC
  8
0
 62
7
  6
CONTINUOUS
 10
101.3736671561
 20
203.7900389398
 40
0.85
 50
0.0
 51
90.0000000258
  0
ARC
  8
0
 62
7
  6
CONTINUOUS
 10
101.3736671561
 20
191.0900389398
 40
0.85
 50
0.0
 51
90.0000000258
  0
ARC
  8
0
 62
7
  6
CONTINUOUS
 10
101.3736671561
 20
186.7900389398
 40
0.85
 50
269.9999999742
 51
360.0
  0
ARC
  8
0
 62
7
  6
CONTINUOUS
 10
101.3736671561
 20
178.3900389398
 40
0.85
 50
0.0
 51
90.0000000258
  0
ARC
  8
0
 62
7
  6
CONTINUOUS
 10
101.3736671561
 20
174.0900389398
 40
0.85
 50
269.9999999742
 51
360.0
  0
ARC
  8
0
 62
7
  6
CONTINUOUS
 10
94.5664998368
 20
199.1400389398
 40
0.25
 50
90.0000005079
 51
161.446995587
  0
ARC
  8
0
 62
7
  6
CONTINUOUS
 10
72.1236671561
 20
241.5555571332
 40
4.4
 50
90.0
 51
270.0
  0
ARC
  8
0
 62
7
  6
CONTINUOUS
 10
97.8236671561
 20
241.5555571332
 40
4.4
 50
269.9999999998
 51
90.0000000001
  0
ARC
  8
0
 62
7
  6
CONTINUOUS
 10
86.5936671561
 20
241.5555571332
 40
4.4
 50
90.0
 51
270.0
  0
CIRCLE
  8
1_AXIS
 62
7
  6
CONTINUOUS
 10
97.6736671561
 20
241.5555571332
 40
2.6
  0
CIRCLE
  8
1_AXIS
 62
7
  6
CONTINUOUS
 10
72.2736671561
 20
241.5555571332
 40
2.6
  0
CIRCLE
  8
0
 62
7
  6
CONTINUOUS
 10
77.1736671561
 20
241.5555571332
 40
1.7
  0
CIRCLE
  8
0
 62
7
  6
CONTINUOUS
 10
77.1736671561
 20
241.5555571332
 40
0.4
  0
ARC
  8
0
 62
7
  6
CONTINUOUS
 10
147.3943259535
 20
62.8370212304
 40
2.5
 50
44.5239289046
 51
78.8745595634
  0
ARC
  8
0
 62
7
  6
CONTINUOUS
 10
147.3943259535
 20
75.5370212304
 40
2.5
 50
44.5239289046
 51
78.8745595634
  0
ARC
  8
0
 62
7
  6
CONTINUOUS
 10
146.0267201048
 20
70.4400389398
 40
0.85
 50
90.0
 51
180.0
  0
ARC
  8
0
 62
7
  6
CONTINUOUS
 10
146.0267201048
 20
78.8400389398
 40
0.85
 50
180.0
 51
270.0
  0
ARC
  8
0
 62
7
  6
CONTINUOUS
 10
146.0267201048
 20
83.1400389398
 40
0.85
 50
90.0
 51
180.0
  0
ARC
  8
0
 62
7
  6
CONTINUOUS
 10
146.0267201048
 20
91.5400389398
 40
0.85
 50
180.0
 51
270.0
  0
ARC
  8
0
 62
7
  6
CONTINUOUS
 10
146.0267201048
 20
95.8400389398
 40
0.85
 50
90.0
 51
180.0
  0
ARC
  8
0
 62
7
  6
CONTINUOUS
 10
146.0267201048
 20
104.2400389398
 40
0.85
 50
180.0
 51
270.0
  0
ARC
  8
0
 62
7
  6
CONTINUOUS
 10
146.0267201048
 20
108.5400389398
 40
0.85
 50
90.0
 51
180.0
  0
ARC
  8
0
 62
7
  6
CONTINUOUS
 10
146.0267201048
 20
116.9400389398
 40
0.85
 50
180.0
 51
270.0
  0
ARC
  8
0
 62
7
  6
CONTINUOUS
 10
146.0267201048
 20
121.2400389398
 40
0.85
 50
90.0
 51
180.0
  0
ARC
  8
0
 62
7
  6
CONTINUOUS
 10
146.0267201048
 20
129.6400389398
 40
0.85
 50
180.0
 51
270.0
  0
ARC
  8
0
 62
7
  6
CONTINUOUS
 10
146.0267201048
 20
133.9400389398
 40
0.85
 50
90.0
 51
180.0
  0
ARC
  8
0
 62
7
  6
CONTINUOUS
 10
146.0267201048
 20
59.7900389398
 40
0.85
 50
180.0
 51
270.0
  0
ARC
  8
0
 62
7
  6
CONTINUOUS
 10
146.0267201048
 20
69.6900389398
 40
0.85
 50
90.0
 51
180.0
  0
ARC
  8
0
 62
7
  6
CONTINUOUS
 10
146.0267201048
 20
66.1400389398
 40
0.85
 50
180.0
 51
270.0
  0
ARC
  8
0
 62
7
  6
CONTINUOUS
 10
147.3943259535
 20
189.8370212304
 40
2.5
 50
44.5239289046
 51
78.8745595634
  0
ARC
  8
0
 62
7
  6
CONTINUOUS
 10
147.3943259535
 20
202.5370212304
 40
2.5
 50
44.5239289046
 51
78.8745595634
  0
ARC
  8
0
 62
7
  6
CONTINUOUS
 10
146.0267201048
 20
197.4400389398
 40
0.85
 50
90.0
 51
180.0
  0
ARC
  8
0
 62
7
  6
CONTINUOUS
 10
146.0267201048
 20
142.3400389398
 40
0.85
 50
180.0
 51
270.0
  0
ARC
  8
0
 62
7
  6
CONTINUOUS
 10
146.0267201048
 20
146.6400389398
 40
0.85
 50
90.0
 51
180.0
  0
ARC
  8
0
 62
7
  6
CONTINUOUS
 10
146.0267201048
 20
155.0400389398
 40
0.85
 50
180.0
 51
270.0
  0
ARC
  8
0
 62
7
  6
CONTINUOUS
 10
146.0267201048
 20
159.3400389398
 40
0.85
 50
90.0
 51
180.0
  0
ARC
  8
0
 62
7
  6
CONTINUOUS
 10
146.0267201048
 20
167.7400389398
 40
0.85
 50
180.0
 51
270.0
  0
ARC
  8
0
 62
7
  6
CONTINUOUS
 10
146.0267201048
 20
172.0400389398
 40
0.85
 50
90.0
 51
180.0
  0
ARC
  8
0
 62
7
  6
CONTINUOUS
 10
146.0267201048
 20
210.1400389398
 40
0.85
 50
90.0
 51
180.0
  0
ARC
  8
0
 62
7
  6
CONTINUOUS
 10
146.0267201048
 20
180.4400389398
 40
0.85
 50
180.0
 51
270.0
  0
ARC
  8
0
 62
7
  6
CONTINUOUS
 10
146.0267201048
 20
184.7400389398
 40
0.85
 50
90.0
 51
180.0
  0
ARC
  8
0
 62
7
  6
CONTINUOUS
 10
146.0267201048
 20
193.1400389398
 40
0.85
 50
180.0
 51
270.0
  0
ARC
  8
0
 62
7
  6
CONTINUOUS
 10
146.0267201048
 20
205.8400389398
 40
0.85
 50
180.0
 51
270.0
  0
ARC
  8
0
 62
7
  6
CONTINUOUS
 10
146.0267201048
 20
196.6900389398
 40
0.85
 50
90.0
 51
180.0
  0
ARC
  8
0
 62
7
  6
CONTINUOUS
 10
151.759114256
 20
62.8370212304
 40
2.5
 50
101.1254404366
 51
135.4760710954
  0
ARC
  8
0
 62
7
  6
CONTINUOUS
 10
151.759114256
 20
75.5370212304
 40
2.5
 50
101.1254404366
 51
135.4760710954
  0
ARC
  8
0
 62
7
  6
CONTINUOUS
 10
153.1267201048
 20
70.4400389398
 40
0.85
 50
0.0
 51
90.0
  0
ARC
  8
0
 62
7
  6
CONTINUOUS
 10
153.1267201048
 20
78.8400389398
 40
0.85
 50
270.0
 51
360.0
  0
ARC
  8
0
 62
7
  6
CONTINUOUS
 10
153.1267201048
 20
83.1400389398
 40
0.85
 50
0.0
 51
90.0
  0
ARC
  8
0
 62
7
  6
CONTINUOUS
 10
153.1267201048
 20
91.5400389398
 40
0.85
 50
270.0
 51
360.0
  0
ARC
  8
0
 62
7
  6
CONTINUOUS
 10
153.1267201048
 20
95.8400389398
 40
0.85
 50
0.0
 51
90.0
  0
ARC
  8
0
 62
7
  6
CONTINUOUS
 10
153.1267201048
 20
59.7900389398
 40
0.85
 50
270.0
 51
360.0
  0
ARC
  8
0
 62
7
  6
CONTINUOUS
 10
153.1267201048
 20
69.6900389398
 40
0.85
 50
0.0
 51
90.0
  0
ARC
  8
0
 62
7
  6
CONTINUOUS
 10
153.1267201048
 20
66.1400389398
 40
0.85
 50
270.0
 51
360.0
  0
ARC
  8
0
 62
7
  6
CONTINUOUS
 10
153.1267201048
 20
104.2400389398
 40
0.85
 50
270.0
 51
360.0
  0
ARC
  8
0
 62
7
  6
CONTINUOUS
 10
153.1267201048
 20
108.5400389398
 40
0.85
 50
0.0
 51
90.0
  0
ARC
  8
0
 62
7
  6
CONTINUOUS
 10
153.1267201048
 20
116.9400389398
 40
0.85
 50
270.0
 51
360.0
  0
ARC
  8
0
 62
7
  6
CONTINUOUS
 10
153.1267201048
 20
121.2400389398
 40
0.85
 50
0.0
 51
90.0
  0
ARC
  8
0
 62
7
  6
CONTINUOUS
 10
153.1267201048
 20
129.6400389398
 40
0.85
 50
270.0
 51
360.0
  0
ARC
  8
0
 62
7
  6
CONTINUOUS
 10
153.1267201048
 20
133.9400389398
 40
0.85
 50
0.0
 51
90.0
  0
ARC
  8
0
 62
7
  6
CONTINUOUS
 10
151.759114256
 20
189.8370212304
 40
2.5
 50
101.1254404366
 51
135.4760710954
  0
ARC
  8
0
 62
7
  6
CONTINUOUS
 10
151.759114256
 20
202.5370212304
 40
2.5
 50
101.1254404366
 51
135.4760710954
  0
ARC
  8
0
 62
7
  6
CONTINUOUS
 10
153.1267201048
 20
142.3400389398
 40
0.85
 50
270.0
 51
360.0
  0
ARC
  8
0
 62
7
  6
CONTINUOUS
 10
153.1267201048
 20
146.6400389398
 40
0.85
 50
0.0
 51
90.0
  0
ARC
  8
0
 62
7
  6
CONTINUOUS
 10
153.1267201048
 20
155.0400389398
 40
0.85
 50
270.0
 51
360.0
  0
ARC
  8
0
 62
7
  6
CONTINUOUS
 10
153.1267201048
 20
159.3400389398
 40
0.85
 50
0.0
 51
90.0
  0
ARC
  8
0
 62
7
  6
CONTINUOUS
 10
153.1267201048
 20
167.7400389398
 40
0.85
 50
270.0
 51
360.0
  0
ARC
  8
0
 62
7
  6
CONTINUOUS
 10
153.1267201048
 20
172.0400389398
 40
0.85
 50
0.0
 51
90.0
  0
ARC
  8
0
 62
7
  6
CONTINUOUS
 10
153.1267201048
 20
197.4400389398
 40
0.85
 50
0.0
 51
90.0
  0
ARC
  8
0
 62
7
  6
CONTINUOUS
 10
153.1267201048
 20
210.1400389398
 40
0.85
 50
0.0
 51
90.0
  0
ARC
  8
0
 62
7
  6
CONTINUOUS
 10
153.1267201048
 20
180.4400389398
 40
0.85
 50
270.0
 51
360.0
  0
ARC
  8
0
 62
7
  6
CONTINUOUS
 10
153.1267201048
 20
184.7400389398
 40
0.85
 50
0.0
 51
90.0
  0
ARC
  8
0
 62
7
  6
CONTINUOUS
 10
153.1267201048
 20
193.1400389398
 40
0.85
 50
270.0
 51
360.0
  0
ARC
  8
0
 62
7
  6
CONTINUOUS
 10
153.1267201048
 20
205.8400389398
 40
0.85
 50
270.0
 51
360.0
  0
ARC
  8
0
 62
7
  6
CONTINUOUS
 10
153.1267201048
 20
196.6900389398
 40
0.85
 50
0.0
 51
90.0
  0
ENDSEC
  0
EOF
