  0
SECTION
  2
HEADER
  9
$EXTMAX
 10
420.0
 20
297.0
 30
0.0
  9
$EXTMIN
 10
0.0
 20
0.0
 30
0.0
  9
$LIMMIN
 10
0.0
 20
0.0
  9
$LIMMAX
 10
420.0
 20
297.0
  9
$VIEWCTR
 10
210.0
 20
148.5
  9
$VIEWSIZE
 40
297.0
  9
$CLAYER
  8
0
  9
$LTSCALE
 40
23.1
  9
$CELTYPE
  6
BYLAYER
  9
$DIMSCALE
 40
1.0
  9
$DIMASZ
 40
3.5
  9
$DIMEXO
 40
2.625
  9
$DIMDLI
 40
15.96
  9
$DIMEXE
 40
7.56
  9
$DIMCEN
 40
3.78
  9
$DIMLFAC
 40
1.0
  9
$DIMBLK
  1
_FILLED
  9
$DIMTXT
 40
3.5
  9
$PDMODE
 70
3
  9
$PDSIZE
 40
0.3125
  9
$TILEMODE
 70
1
  0
ENDSEC
  0
SECTION
  2
TABLES
  0
TABLE
  2
LTYPE
 70
6
  0
LTYPE
  2
BYBLOCK
 70
0
  3

 72
65
 73
0
 40
0.0
  0
LTYPE
  2
BYLAYER
 70
0
  3

 72
65
 73
0
 40
0.0
  0
LTYPE
  2
CONTINUOUS
 70
64
  3
Solid line
 72
65
 73
0
 40
0.0
  0
LTYPE
  2
CENTER
 70
64
  3
____ _ ____ _ ____ _ ____ _ ____ _ ____ _ ____
 72
65
 73
4
 40
0.6
 49
0.375
 49
-0.075
 49
0.075
 49
-0.075
  0
LTYPE
  2
HIDDEN
 70
64
  3
- - - - - - - - - - - - - - - - - - - -
 72
65
 73
2
 40
0.2
 49
0.1
 49
-0.1
  0
LTYPE
  2
PHANTOM
 70
64
  3
_____ _ _ _____ _ _ _____ _ _ _____
 72
65
 73
6
 40
0.8
 49
0.45
 49
-0.05
 49
0.1
 49
-0.05
 49
0.1
 49
-0.05
  0
LTYPE
  2
DOT
 70
64
  3
. . . . . . . . . . . . . . . . . . . .
 72
65
 73
2
 40
0.2
 49
0.1
 49
-0.1
  0
LTYPE
  2
DASHED
 70
64
  3
- - - - - - - - - - - - - - - - - - - -
 72
65
 73
2
 40
0.2
 49
0.1
 49
-0.1
  0
ENDTAB
  0
TABLE
  2
LAYER
 70
36
  0
LAYER
  2
0
 70
0
 62
7
  6
CONTINUOUS
  0
LAYER
  2
DEFAULT_1
 70
0
 62
7
  6
CENTER
  0
LAYER
  2
DEFAULT_2
 70
0
 62
8
  6
HIDDEN
  0
LAYER
  2
DEFAULT_3
 70
0
 62
7
  6
PHANTOM
  0
LAYER
  2
1_DATUMPLANE
 70
0
 62
7
  6
CONTINUOUS
  0
LAYER
  2
6_DIM
 70
0
 62
7
  6
CONTINUOUS
  0
LAYER
  2
CURVE
 70
0
 62
7
  6
CONTINUOUS
  0
LAYER
  2
QUILT
 70
0
 62
7
  6
CONTINUOUS
  0
LAYER
  2
XSEC_DATUMS
 70
0
 62
7
  6
CONTINUOUS
  0
ENDTAB
  0
TABLE
  2
STYLE
 70
1
  0
STYLE
  2
STANDARD
 70
0
 40
0.0
 41
0.8
 50
0.0
 71
0
 42
0.2
  3
txt
  4

  0
STYLE
  2
TEXTSTYLE_1
 70
0
 40
0.0
 41
0.8
 50
0.0
 71
0
 42
0.2
  3
gdt
  4

  0
STYLE
  2
TEXTSTYLE_2
 70
0
 40
0.0
 41
0.6
 50
0.0
 71
0
 42
0.2
  3
txt
  4

  0
STYLE
  2
TEXTSTYLE_3
 70
0
 40
0.0
 41
1.0
 50
0.0
 71
0
 42
0.2
  3
ftb_____.ttf
  4

  0
STYLE
  2
TEXTSTYLE_4
 70
0
 40
0.0
 41
1.0
 50
0.0
 71
0
 42
0.2
  3
fti_____.ttf
  4

  0
STYLE
  2
TEXTSTYLE_5
 70
0
 40
0.0
 41
1.0
 50
0.0
 71
0
 42
0.2
  3
frutiger light.ttf
  4

  0
STYLE
  2
TEXTSTYLE_6
 70
0
 40
0.0
 41
0.7
 50
0.0
 71
0
 42
0.2
  3
txt
  4

  0
STYLE
  2
TEXTSTYLE_7
 70
0
 40
0.0
 41
0.6
 50
0.0
 71
0
 42
0.2
  3
txt
  4

  0
ENDTAB
  0
ENDSEC
  0
SECTION
  2
BLOCKS
  0
BLOCK
  8
0
 62
2
  6
CONTINUOUS
  2
SYMBOL_5_BL1
 70
64
 10
382.7840918555
 20
35.5067593403
  0
TEXT
  8
0
 62
7
  6
CONTINUOUS
 10
373.842376864
 20
30.5995157174
  7
TEXTSTYLE_4
 40
1.0655737705
  1
The brand for plastic modular belts and chains
 41
1.0
 72
0
  0
LINE
  8
0
 62
7
  6
CONTINUOUS
 10
358.7621602445
 20
36.0805298321
 11
358.7621602445
 21
33.9493822911
  0
LINE
  8
0
 62
7
  6
CONTINUOUS
 10
359.0512227376
 20
30.9584509954
 11
359.0512227376
 21
31.0552420547
  0
LINE
  8
0
 62
7
  6
CONTINUOUS
 10
358.7621602445
 20
31.0229783683
 11
358.8199727462
 21
30.8293962497
  0
LINE
  8
0
 62
7
  6
CONTINUOUS
 10
360.1556028675
 20
33.867415078
 11
360.1556028675
 21
36.0805298321
  0
LINE
  8
0
 62
7
  6
CONTINUOUS
 10
361.0746601894
 20
32.0231527829
 11
361.0746601894
 21
30.5067593403
  0
LINE
  8
0
 62
7
  6
CONTINUOUS
 10
361.3637227445
 20
30.5067593403
 11
361.3637227445
 21
31.2488242184
  0
LINE
  8
0
 62
7
  6
CONTINUOUS
 10
361.3637227445
 20
31.3778789641
 11
361.3637227445
 21
32.0231527829
  0
LINE
  8
0
 62
7
  6
CONTINUOUS
 10
358.8199727462
 20
31.216560532
 11
358.7621602445
 21
31.0229783683
  0
LINE
  8
0
 62
7
  6
CONTINUOUS
 10
359.1668477307
 20
30.7971325633
 11
359.0512227376
 21
30.9584509954
  0
LINE
  8
0
 62
7
  6
CONTINUOUS
 10
360.2652852997
 20
31.3133515913
 11
360.3230977445
 21
31.216560532
  0
LINE
  8
0
 62
7
  6
CONTINUOUS
 10
360.6121602997
 20
31.216560532
 11
360.5543476894
 21
31.3456152777
  0
LINE
  8
0
 62
7
  6
CONTINUOUS
 10
362.0408487691
 20
36.0805298321
 11
362.0408487691
 21
34.2772511436
  0
LINE
  8
0
 62
7
  6
CONTINUOUS
 10
362.0408487691
 20
32.9657757338
 11
362.0408487691
 21
32.3100380288
  0
LINE
  8
0
 62
7
  6
CONTINUOUS
 10
362.4043477445
 20
31.1520331591
 11
362.4043477445
 21
30.5067593403
  0
LINE
  8
0
 62
7
  6
CONTINUOUS
 10
362.6934101343
 20
30.5067593403
 11
362.6934101343
 21
31.1520331591
  0
LINE
  8
0
 62
7
  6
CONTINUOUS
 10
359.0512227376
 20
31.0552420547
 11
359.1090352445
 21
31.1842968456
  0
LINE
  8
0
 62
7
  6
CONTINUOUS
 10
358.8199727462
 20
30.8293962497
 11
358.9355977445
 21
30.7003414814
  0
LINE
  8
0
 62
7
  6
CONTINUOUS
 10
362.3465351343
 20
31.2810879048
 11
362.4043477445
 21
31.1520331591
  0
LINE
  8
0
 62
7
  6
CONTINUOUS
 10
363.1559103548
 20
30.7971325633
 11
363.2137226343
 21
30.668077795
  0
LINE
  8
0
 62
7
  6
CONTINUOUS
 10
362.6934101343
 20
31.1520331591
 11
362.6355978548
 21
31.3133515913
  0
LINE
  8
0
 62
7
  6
CONTINUOUS
 10
363.1559103548
 20
31.3456152777
 11
363.1559103548
 21
31.2810879048
  0
LINE
  8
0
 62
7
  6
CONTINUOUS
 10
363.1559103548
 20
30.8939236226
 11
363.1559103548
 21
30.7971325633
  0
LINE
  8
0
 62
7
  6
CONTINUOUS
 10
363.4342913921
 20
32.3100380288
 11
363.4342913921
 21
36.0805298321
  0
LINE
  8
0
 62
7
  6
CONTINUOUS
 10
363.4449727445
 20
30.7648688543
 11
363.4449727445
 21
30.8293962497
  0
LINE
  8
0
 62
7
  6
CONTINUOUS
 10
363.7621602445
 20
36.0805298321
 11
363.7621602445
 21
32.3100380288
  0
LINE
  8
0
 62
7
  6
CONTINUOUS
 10
360.5543476894
 20
30.7003414814
 11
360.6121602997
 21
30.8293962497
  0
LINE
  8
0
 62
7
  6
CONTINUOUS
 10
364.9480979651
 20
30.6035504109
 11
364.890285024
 21
30.7648688543
  0
LINE
  8
0
 62
7
  6
CONTINUOUS
 10
364.6012229651
 20
31.2810879048
 11
364.6012229651
 21
31.1842968456
  0
LINE
  8
0
 62
7
  6
CONTINUOUS
 10
364.6012229651
 20
31.0552420547
 11
364.6012229651
 21
30.8616599362
  0
LINE
  8
0
 62
7
  6
CONTINUOUS
 10
364.890285024
 20
30.7648688543
 11
364.890285024
 21
31.2810879048
  0
LINE
  8
0
 62
7
  6
CONTINUOUS
 10
365.1556028675
 20
32.3100380288
 11
365.1556028675
 21
34.1133167174
  0
LINE
  8
0
 62
7
  6
CONTINUOUS
 10
365.1556028675
 20
35.4247921272
 11
365.1556028675
 21
36.0805298321
  0
LINE
  8
0
 62
7
  6
CONTINUOUS
 10
365.4684104651
 20
32.0231527829
 11
365.4684104651
 21
31.8618343508
  0
LINE
  8
0
 62
7
  6
CONTINUOUS
 10
365.4684104651
 20
31.5391973962
 11
365.4684104651
 21
30.5067593403
  0
LINE
  8
0
 62
7
  6
CONTINUOUS
 10
365.757472524
 20
30.5067593403
 11
365.757472524
 21
31.5391973962
  0
LINE
  8
0
 62
7
  6
CONTINUOUS
 10
365.757472524
 20
31.8618343508
 11
365.757472524
 21
32.0231527829
  0
LINE
  8
0
 62
7
  6
CONTINUOUS
 10
360.3230977445
 20
30.8293962497
 11
360.2652852997
 21
30.7326051679
  0
LINE
  8
0
 62
7
  6
CONTINUOUS
 10
362.6355978548
 20
31.3133515913
 11
362.5777852445
 21
31.3778789641
  0
LINE
  8
0
 62
7
  6
CONTINUOUS
 10
363.5027853548
 20
30.7003414814
 11
363.4449727445
 21
30.7648688543
  0
LINE
  8
0
 62
7
  6
CONTINUOUS
 10
364.6590352445
 20
30.5712867188
 11
364.716847524
 21
30.5067593403
  0
LINE
  8
0
 62
7
  6
CONTINUOUS
 10
364.6012229651
 20
30.668077795
 11
364.6590352445
 21
30.5712867188
  0
LINE
  8
0
 62
7
  6
CONTINUOUS
 10
365.0059102445
 20
30.5067593403
 11
364.9480979651
 21
30.6035504109
  0
LINE
  8
0
 62
7
  6
CONTINUOUS
 10
364.890285024
 20
31.2810879048
 11
364.8324727445
 21
31.3778789641
  0
LINE
  8
0
 62
7
  6
CONTINUOUS
 10
366.2199727445
 20
31.5391973962
 11
366.2199727445
 21
30.5067593403
  0
LINE
  8
0
 62
7
  6
CONTINUOUS
 10
366.5090354651
 20
30.5067593403
 11
366.5090354651
 21
31.2488242184
  0
LINE
  8
0
 62
7
  6
CONTINUOUS
 10
366.5090354651
 20
31.3778789641
 11
366.5090354651
 21
31.5391973962
  0
LINE
  8
0
 62
7
  6
CONTINUOUS
 10
367.0408487691
 20
34.5231527829
 11
367.0408487691
 21
32.3100380288
  0
LINE
  8
0
 62
7
  6
CONTINUOUS
 10
358.9355977445
 20
31.3456152777
 11
358.8199727462
 21
31.216560532
  0
LINE
  8
0
 62
7
  6
CONTINUOUS
 10
359.1090352445
 20
31.1842968456
 11
359.1668477307
 21
31.2488242184
  0
LINE
  8
0
 62
7
  6
CONTINUOUS
 10
358.9355977445
 20
30.7003414814
 11
359.0512227376
 21
30.6358140973
  0
LINE
  8
0
 62
7
  6
CONTINUOUS
 10
359.3402852307
 20
30.7003414814
 11
359.1668477307
 21
30.7971325633
  0
LINE
  8
0
 62
7
  6
CONTINUOUS
 10
364.543410024
 20
31.3456152777
 11
364.6012229651
 21
31.2810879048
  0
LINE
  8
0
 62
7
  6
CONTINUOUS
 10
367.491847524
 20
31.2810879048
 11
367.5496604651
 21
31.1197694727
  0
LINE
  8
0
 62
7
  6
CONTINUOUS
 10
367.838722524
 20
31.1197694727
 11
367.7809102445
 21
31.2810879048
  0
LINE
  8
0
 62
7
  6
CONTINUOUS
 10
367.5496604651
 20
31.1197694727
 11
367.5496604651
 21
30.5067593403
  0
LINE
  8
0
 62
7
  6
CONTINUOUS
 10
367.838722524
 20
30.5067593403
 11
367.838722524
 21
31.1197694727
  0
LINE
  8
0
 62
7
  6
CONTINUOUS
 10
368.3012227445
 20
31.3456152777
 11
368.3012227445
 21
31.2810879048
  0
LINE
  8
0
 62
7
  6
CONTINUOUS
 10
368.4342913921
 20
32.3100380288
 11
368.4342913921
 21
34.4411855698
  0
LINE
  8
0
 62
7
  6
CONTINUOUS
 10
368.7621602445
 20
36.0805298321
 11
368.7621602445
 21
32.3100380288
  0
LINE
  8
0
 62
7
  6
CONTINUOUS
 10
363.4449727445
 20
30.8293962497
 11
363.5027853548
 21
30.926187309
  0
LINE
  8
0
 62
7
  6
CONTINUOUS
 10
359.0512227376
 20
30.6358140973
 11
359.2246602583
 21
30.5712867188
  0
LINE
  8
0
 62
7
  6
CONTINUOUS
 10
360.5543476894
 20
31.3456152777
 11
360.3809101894
 21
31.4424063369
  0
LINE
  8
0
 62
7
  6
CONTINUOUS
 10
363.2137226343
 20
30.668077795
 11
363.3871601343
 21
30.5712867188
  0
LINE
  8
0
 62
7
  6
CONTINUOUS
 10
362.2309102445
 20
31.3456152777
 11
362.3465351343
 21
31.2810879048
  0
LINE
  8
0
 62
7
  6
CONTINUOUS
 10
362.5777852445
 20
31.3778789641
 11
362.4621603548
 21
31.4424063369
  0
LINE
  8
0
 62
7
  6
CONTINUOUS
 10
368.3012227445
 20
30.7648688543
 11
368.4168479651
 21
30.6358140973
  0
LINE
  8
0
 62
7
  6
CONTINUOUS
 10
368.6480977445
 20
30.7003414814
 11
368.5902854651
 21
30.7648688543
  0
LINE
  8
0
 62
7
  6
CONTINUOUS
 10
368.3012227445
 20
31.2810879048
 11
368.4168479651
 21
31.1520331591
  0
LINE
  8
0
 62
7
  6
CONTINUOUS
 10
367.7809102445
 20
31.2810879048
 11
367.7230979651
 21
31.3778789641
  0
LINE
  8
0
 62
7
  6
CONTINUOUS
 10
370.1512223035
 20
30.7003414814
 11
370.1512223035
 21
30.7648688543
  0
LINE
  8
0
 62
7
  6
CONTINUOUS
 10
370.1556028675
 20
32.3100380288
 11
370.1556028675
 21
36.0805298321
  0
LINE
  8
0
 62
7
  6
CONTINUOUS
 10
363.2137226343
 20
31.4101426505
 11
363.1559103548
 21
31.3456152777
  0
LINE
  8
0
 62
7
  6
CONTINUOUS
 10
360.091847717
 20
31.3778789641
 11
360.2652852997
 21
31.3133515913
  0
LINE
  8
0
 62
7
  6
CONTINUOUS
 10
364.8324727445
 20
31.3778789641
 11
364.716847524
 21
31.4424063369
  0
LINE
  8
0
 62
7
  6
CONTINUOUS
 10
368.6480977445
 20
31.216560532
 11
368.5902854651
 21
31.2810879048
  0
LINE
  8
0
 62
7
  6
CONTINUOUS
 10
369.8043479651
 20
30.8293962497
 11
369.8621602445
 21
30.7648688543
  0
LINE
  8
0
 62
7
  6
CONTINUOUS
 10
370.1512223035
 20
30.7648688543
 11
370.0355977445
 21
30.8939236226
  0
LINE
  8
0
 62
7
  6
CONTINUOUS
 10
369.8043479651
 20
31.3456152777
 11
369.8621602445
 21
31.2810879048
  0
LINE
  8
0
 62
7
  6
CONTINUOUS
 10
370.1512223035
 20
31.2810879048
 11
370.0355977445
 21
31.4101426505
  0
LINE
  8
0
 62
7
  6
CONTINUOUS
 10
363.4449727445
 20
31.2810879048
 11
363.5027853548
 21
31.3456152777
  0
LINE
  8
0
 62
7
  6
CONTINUOUS
 10
363.2715352445
 20
31.0229783683
 11
363.1559103548
 21
30.8939236226
  0
LINE
  8
0
 62
7
  6
CONTINUOUS
 10
364.6012229651
 20
30.8616599362
 11
364.543410024
 21
30.7971325633
  0
LINE
  8
0
 62
7
  6
CONTINUOUS
 10
364.543410024
 20
30.6035504109
 11
364.6012229651
 21
30.668077795
  0
LINE
  8
0
 62
7
  6
CONTINUOUS
 10
363.3871601343
 20
30.5712867188
 11
363.5027853548
 21
30.5390230296
  0
LINE
  8
0
 62
7
  6
CONTINUOUS
 10
360.3809101894
 20
31.4424063369
 11
360.1496602445
 21
31.5069337098
  0
LINE
  8
0
 62
7
  6
CONTINUOUS
 10
363.7340351343
 20
30.6358140973
 11
363.5027853548
 21
30.7003414814
  0
LINE
  8
0
 62
7
  6
CONTINUOUS
 10
362.4621603548
 20
31.4424063369
 11
362.2887228548
 21
31.5069337098
  0
LINE
  8
0
 62
7
  6
CONTINUOUS
 10
364.716847524
 20
31.4424063369
 11
364.543410024
 21
31.5069337098
  0
LINE
  8
0
 62
7
  6
CONTINUOUS
 10
367.3762229651
 20
31.3456152777
 11
367.491847524
 21
31.2810879048
  0
LINE
  8
0
 62
7
  6
CONTINUOUS
 10
367.7230979651
 20
31.3778789641
 11
367.6074727445
 21
31.4424063369
  0
LINE
  8
0
 62
7
  6
CONTINUOUS
 10
359.2246602583
 20
30.5712867188
 11
359.3980977583
 21
30.5390230296
  0
LINE
  8
0
 62
7
  6
CONTINUOUS
 10
359.6871602721
 20
30.6358140973
 11
359.3402852307
 21
30.7003414814
  0
LINE
  8
0
 62
7
  6
CONTINUOUS
 10
362.1152853548
 20
31.3778789641
 11
362.2309102445
 21
31.3456152777
  0
LINE
  8
0
 62
7
  6
CONTINUOUS
 10
364.4277854651
 20
31.3778789641
 11
364.543410024
 21
31.3456152777
  0
LINE
  8
0
 62
7
  6
CONTINUOUS
 10
368.7637229651
 20
30.668077795
 11
368.6480977445
 21
30.7003414814
  0
LINE
  8
0
 62
7
  6
CONTINUOUS
 10
367.2605977445
 20
31.3778789641
 11
367.3762229651
 21
31.3456152777
  0
LINE
  8
0
 62
7
  6
CONTINUOUS
 10
368.4168479651
 20
30.6358140973
 11
368.5902854651
 21
30.5712867188
  0
LINE
  8
0
 62
7
  6
CONTINUOUS
 10
367.6074727445
 20
31.4424063369
 11
367.4340352445
 21
31.5069337098
  0
LINE
  8
0
 62
7
  6
CONTINUOUS
 10
368.8215352445
 20
31.1520331591
 11
368.6480977445
 21
31.216560532
  0
LINE
  8
0
 62
7
  6
CONTINUOUS
 10
369.6309104651
 20
30.8939236226
 11
369.8043479651
 21
30.8293962497
  0
LINE
  8
0
 62
7
  6
CONTINUOUS
 10
370.0355977445
 20
31.4101426505
 11
369.8621602445
 21
31.4746700234
  0
LINE
  8
0
 62
7
  6
CONTINUOUS
 10
368.4168479651
 20
31.1520331591
 11
368.6480977445
 21
31.0552420547
  0
LINE
  8
0
 62
7
  6
CONTINUOUS
 10
370.0355977445
 20
30.8939236226
 11
369.8043479651
 21
30.9907146818
  0
LINE
  8
0
 62
7
  6
CONTINUOUS
 10
368.5902854651
 20
31.2810879048
 11
368.6480977445
 21
31.3456152777
  0
LINE
  8
0
 62
7
  6
CONTINUOUS
 10
359.0512227376
 20
31.4101426505
 11
358.9355977445
 21
31.3456152777
  0
LINE
  8
0
 62
7
  6
CONTINUOUS
 10
359.1668477307
 20
31.2488242184
 11
359.3402852307
 21
31.3456152777
  0
LINE
  8
0
 62
7
  6
CONTINUOUS
 10
361.4793477997
 20
31.4424063369
 11
361.3637227445
 21
31.3778789641
  0
LINE
  8
0
 62
7
  6
CONTINUOUS
 10
361.3637227445
 20
31.2488242184
 11
361.4793477997
 21
31.3133515913
  0
LINE
  8
0
 62
7
  6
CONTINUOUS
 10
360.3809101894
 20
30.6035504109
 11
360.5543476894
 21
30.7003414814
  0
LINE
  8
0
 62
7
  6
CONTINUOUS
 10
359.3980977583
 20
30.5390230296
 11
359.744972717
 21
30.5067593403
  0
LINE
  8
0
 62
7
  6
CONTINUOUS
 10
363.5027853548
 20
30.5390230296
 11
363.7340351343
 21
30.5067593403
  0
LINE
  8
0
 62
7
  6
CONTINUOUS
 10
361.8840352445
 20
31.4101426505
 11
362.1152853548
 21
31.3778789641
  0
LINE
  8
0
 62
7
  6
CONTINUOUS
 10
364.1965353548
 20
31.4101426505
 11
364.4277854651
 21
31.3778789641
  0
LINE
  8
0
 62
7
  6
CONTINUOUS
 10
368.6480977445
 20
31.0552420547
 11
369.6309104651
 21
30.8939236226
  0
LINE
  8
0
 62
7
  6
CONTINUOUS
 10
369.8043479651
 20
30.9907146818
 11
368.8215352445
 21
31.1520331591
  0
LINE
  8
0
 62
7
  6
CONTINUOUS
 10
362.2887228548
 20
31.5069337098
 11
362.1152853548
 21
31.5391973962
  0
LINE
  8
0
 62
7
  6
CONTINUOUS
 10
368.5902854651
 20
30.5712867188
 11
368.7637229651
 21
30.5390230296
  0
LINE
  8
0
 62
7
  6
CONTINUOUS
 10
367.4340352445
 20
31.5069337098
 11
367.2605977445
 21
31.5391973962
  0
LINE
  8
0
 62
7
  6
CONTINUOUS
 10
369.6887227445
 20
31.3778789641
 11
369.8043479651
 21
31.3456152777
  0
LINE
  8
0
 62
7
  6
CONTINUOUS
 10
369.8621602445
 20
30.7648688543
 11
369.8043479651
 21
30.7003414814
  0
LINE
  8
0
 62
7
  6
CONTINUOUS
 10
368.4168479651
 20
31.4424063369
 11
368.3012227445
 21
31.3456152777
  0
LINE
  8
0
 62
7
  6
CONTINUOUS
 10
363.3293478548
 20
31.4746700234
 11
363.2137226343
 21
31.4101426505
  0
LINE
  8
0
 62
7
  6
CONTINUOUS
 10
363.3871601343
 20
31.0875057863
 11
363.2715352445
 21
31.0229783683
  0
LINE
  8
0
 62
7
  6
CONTINUOUS
 10
363.5027853548
 20
30.926187309
 11
363.6184102445
 21
30.9907146818
  0
LINE
  8
0
 62
7
  6
CONTINUOUS
 10
361.0746601894
 20
30.5067593403
 11
361.3637227445
 21
30.5067593403
  0
LINE
  8
0
 62
7
  6
CONTINUOUS
 10
362.4043477445
 20
30.5067593403
 11
362.6934101343
 21
30.5067593403
  0
LINE
  8
0
 62
7
  6
CONTINUOUS
 10
363.7340351343
 20
30.5067593403
 11
364.0809101343
 21
30.5067593403
  0
LINE
  8
0
 62
7
  6
CONTINUOUS
 10
364.716847524
 20
30.5067593403
 11
365.0059102445
 21
30.5067593403
  0
LINE
  8
0
 62
7
  6
CONTINUOUS
 10
365.4684104651
 20
30.5067593403
 11
365.757472524
 21
30.5067593403
  0
LINE
  8
0
 62
7
  6
CONTINUOUS
 10
366.2199727445
 20
30.5067593403
 11
366.5090354651
 21
30.5067593403
  0
LINE
  8
0
 62
7
  6
CONTINUOUS
 10
367.5496604651
 20
30.5067593403
 11
367.838722524
 21
30.5067593403
  0
LINE
  8
0
 62
7
  6
CONTINUOUS
 10
369.1105979651
 20
30.5067593403
 11
369.4574729651
 21
30.5067593403
  0
LINE
  8
0
 62
7
  6
CONTINUOUS
 10
369.4574729651
 20
30.6358140973
 11
369.1105979651
 21
30.6358140973
  0
LINE
  8
0
 62
7
  6
CONTINUOUS
 10
364.0809101343
 20
30.6358140973
 11
363.7340351343
 21
30.6358140973
  0
LINE
  8
0
 62
7
  6
CONTINUOUS
 10
368.5902854651
 20
30.7648688543
 11
368.3012227445
 21
30.7648688543
  0
LINE
  8
0
 62
7
  6
CONTINUOUS
 10
360.6121602997
 20
30.8293962497
 11
360.3230977445
 21
30.8293962497
  0
LINE
  8
0
 62
7
  6
CONTINUOUS
 10
359.6871602721
 20
31.4101426505
 11
360.091847717
 21
31.3778789641
  0
LINE
  8
0
 62
7
  6
CONTINUOUS
 10
360.1496602445
 20
31.5069337098
 11
359.744972717
 21
31.5391973962
  0
LINE
  8
0
 62
7
  6
CONTINUOUS
 10
368.7637229651
 20
30.5390230296
 11
369.1105979651
 21
30.5067593403
  0
LINE
  8
0
 62
7
  6
CONTINUOUS
 10
369.1105979651
 20
30.6358140973
 11
368.7637229651
 21
30.668077795
  0
LINE
  8
0
 62
7
  6
CONTINUOUS
 10
364.543410024
 20
31.5069337098
 11
364.1965353548
 21
31.5391973962
  0
LINE
  8
0
 62
7
  6
CONTINUOUS
 10
369.3418477445
 20
31.4101426505
 11
369.6887227445
 21
31.3778789641
  0
LINE
  8
0
 62
7
  6
CONTINUOUS
 10
369.6887227445
 20
31.5069337098
 11
369.3418477445
 21
31.5391973962
  0
LINE
  8
0
 62
7
  6
CONTINUOUS
 10
367.0293479651
 20
31.4101426505
 11
367.2605977445
 21
31.3778789641
  0
LINE
  8
0
 62
7
  6
CONTINUOUS
 10
369.8621602445
 20
31.4746700234
 11
369.6887227445
 21
31.5069337098
  0
LINE
  8
0
 62
7
  6
CONTINUOUS
 10
370.0355977445
 20
30.6035504109
 11
370.1512223035
 21
30.7003414814
  0
LINE
  8
0
 62
7
  6
CONTINUOUS
 10
364.543410024
 20
30.7971325633
 11
364.369972524
 21
30.7003414814
  0
LINE
  8
0
 62
7
  6
CONTINUOUS
 10
366.624660024
 20
31.4424063369
 11
366.5090354651
 21
31.3778789641
  0
LINE
  8
0
 62
7
  6
CONTINUOUS
 10
366.5090354651
 20
31.2488242184
 11
366.624660024
 21
31.3133515913
  0
LINE
  8
0
 62
7
  6
CONTINUOUS
 10
359.2246602583
 20
31.4746700234
 11
359.0512227376
 21
31.4101426505
  0
LINE
  8
0
 62
7
  6
CONTINUOUS
 10
361.6527851343
 20
31.5069337098
 11
361.4793477997
 21
31.4424063369
  0
LINE
  8
0
 62
7
  6
CONTINUOUS
 10
361.4793477997
 20
31.3133515913
 11
361.6527851343
 21
31.3778789641
  0
LINE
  8
0
 62
7
  6
CONTINUOUS
 10
360.2652852997
 20
30.7326051679
 11
360.091847717
 21
30.668077795
  0
LINE
  8
0
 62
7
  6
CONTINUOUS
 10
369.6887227445
 20
30.668077795
 11
369.4574729651
 21
30.6358140973
  0
LINE
  8
0
 62
7
  6
CONTINUOUS
 10
364.0809101343
 20
30.5067593403
 11
364.369972524
 21
30.5390230296
  0
LINE
  8
0
 62
7
  6
CONTINUOUS
 10
369.4574729651
 20
30.5067593403
 11
369.8043479651
 21
30.5390230296
  0
LINE
  8
0
 62
7
  6
CONTINUOUS
 10
359.744972717
 20
30.5067593403
 11
360.1496602445
 21
30.5390230296
  0
LINE
  8
0
 62
7
  6
CONTINUOUS
 10
360.091847717
 20
30.668077795
 11
359.6871602721
 21
30.6358140973
  0
LINE
  8
0
 62
7
  6
CONTINUOUS
 10
363.9652852445
 20
31.0552420547
 11
364.6012229651
 21
31.0552420547
  0
LINE
  8
0
 62
7
  6
CONTINUOUS
 10
364.6012229651
 20
31.1842968456
 11
363.9652852445
 21
31.1842968456
  0
LINE
  8
0
 62
7
  6
CONTINUOUS
 10
360.3230977445
 20
31.216560532
 11
360.6121602997
 21
31.216560532
  0
LINE
  8
0
 62
7
  6
CONTINUOUS
 10
363.1559103548
 20
31.2810879048
 11
363.4449727445
 21
31.2810879048
  0
LINE
  8
0
 62
7
  6
CONTINUOUS
 10
369.8621602445
 20
31.2810879048
 11
370.1512223035
 21
31.2810879048
  0
LINE
  8
0
 62
7
  6
CONTINUOUS
 10
363.8496603548
 20
31.4101426505
 11
364.1965353548
 21
31.4101426505
  0
LINE
  8
0
 62
7
  6
CONTINUOUS
 10
368.9949727445
 20
31.4101426505
 11
369.3418477445
 21
31.4101426505
  0
LINE
  8
0
 62
7
  6
CONTINUOUS
 10
369.3418477445
 20
31.5391973962
 11
368.9949727445
 21
31.5391973962
  0
LINE
  8
0
 62
7
  6
CONTINUOUS
 10
367.2605977445
 20
31.5391973962
 11
367.0293479651
 21
31.5391973962
  0
LINE
  8
0
 62
7
  6
CONTINUOUS
 10
366.5090354651
 20
31.5391973962
 11
366.2199727445
 21
31.5391973962
  0
LINE
  8
0
 62
7
  6
CONTINUOUS
 10
365.757472524
 20
31.5391973962
 11
365.4684104651
 21
31.5391973962
  0
LINE
  8
0
 62
7
  6
CONTINUOUS
 10
364.1965353548
 20
31.5391973962
 11
363.8496603548
 21
31.5391973962
  0
LINE
  8
0
 62
7
  6
CONTINUOUS
 10
362.1152853548
 20
31.5391973962
 11
361.8840352445
 21
31.5391973962
  0
LINE
  8
0
 62
7
  6
CONTINUOUS
 10
365.4684104651
 20
31.8618343508
 11
365.757472524
 21
31.8618343508
  0
LINE
  8
0
 62
7
  6
CONTINUOUS
 10
365.757472524
 20
32.0231527829
 11
365.4684104651
 21
32.0231527829
  0
LINE
  8
0
 62
7
  6
CONTINUOUS
 10
361.3637227445
 20
32.0231527829
 11
361.0746601894
 21
32.0231527829
  0
LINE
  8
0
 62
7
  6
CONTINUOUS
 10
360.4015045068
 20
32.3100380288
 11
360.8140758554
 21
32.3100380288
  0
LINE
  8
0
 62
7
  6
CONTINUOUS
 10
362.0408487691
 20
32.3100380288
 11
363.4342913921
 21
32.3100380288
  0
LINE
  8
0
 62
7
  6
CONTINUOUS
 10
363.7621602445
 20
32.3100380288
 11
365.1556028675
 21
32.3100380288
  0
LINE
  8
0
 62
7
  6
CONTINUOUS
 10
367.0408487691
 20
32.3100380288
 11
368.4342913921
 21
32.3100380288
  0
LINE
  8
0
 62
7
  6
CONTINUOUS
 10
368.7621602445
 20
32.3100380288
 11
370.1556028675
 21
32.3100380288
  0
LINE
  8
0
 62
7
  6
CONTINUOUS
 10
366.798097524
 20
31.5069337098
 11
366.624660024
 21
31.4424063369
  0
LINE
  8
0
 62
7
  6
CONTINUOUS
 10
364.369972524
 20
30.5390230296
 11
364.543410024
 21
30.6035504109
  0
LINE
  8
0
 62
7
  6
CONTINUOUS
 10
369.8043479651
 20
30.5390230296
 11
370.0355977445
 21
30.6035504109
  0
LINE
  8
0
 62
7
  6
CONTINUOUS
 10
369.8043479651
 20
30.7003414814
 11
369.6887227445
 21
30.668077795
  0
LINE
  8
0
 62
7
  6
CONTINUOUS
 10
368.7637229651
 20
31.3778789641
 11
368.9949727445
 21
31.4101426505
  0
LINE
  8
0
 62
7
  6
CONTINUOUS
 10
366.798097524
 20
31.3778789641
 11
367.0293479651
 21
31.4101426505
  0
LINE
  8
0
 62
7
  6
CONTINUOUS
 10
363.7340351343
 20
31.0229783683
 11
363.9652852445
 21
31.0552420547
  0
LINE
  8
0
 62
7
  6
CONTINUOUS
 10
367.0293479651
 20
31.5391973962
 11
366.798097524
 21
31.5069337098
  0
LINE
  8
0
 62
7
  6
CONTINUOUS
 10
363.6184102445
 20
31.3778789641
 11
363.8496603548
 21
31.4101426505
  0
LINE
  8
0
 62
7
  6
CONTINUOUS
 10
368.9949727445
 20
31.5391973962
 11
368.6480977445
 21
31.5069337098
  0
LINE
  8
0
 62
7
  6
CONTINUOUS
 10
363.9652852445
 20
31.1842968456
 11
363.6184102445
 21
31.1520331591
  0
LINE
  8
0
 62
7
  6
CONTINUOUS
 10
359.744972717
 20
31.5391973962
 11
359.3980977583
 21
31.5069337098
  0
LINE
  8
0
 62
7
  6
CONTINUOUS
 10
363.8496603548
 20
31.5391973962
 11
363.4449727445
 21
31.5069337098
  0
LINE
  8
0
 62
7
  6
CONTINUOUS
 10
361.221176638
 20
33.4575790124
 11
360.565438933
 21
33.4575790124
  0
LINE
  8
0
 62
7
  6
CONTINUOUS
 10
366.624660024
 20
31.3133515913
 11
366.798097524
 21
31.3778789641
  0
LINE
  8
0
 62
7
  6
CONTINUOUS
 10
368.6480977445
 20
31.3456152777
 11
368.7637229651
 21
31.3778789641
  0
LINE
  8
0
 62
7
  6
CONTINUOUS
 10
368.6480977445
 20
31.5069337098
 11
368.4168479651
 21
31.4424063369
  0
LINE
  8
0
 62
7
  6
CONTINUOUS
 10
364.369972524
 20
30.7003414814
 11
364.0809101343
 21
30.6358140973
  0
LINE
  8
0
 62
7
  6
CONTINUOUS
 10
361.6527851343
 20
31.3778789641
 11
361.8840352445
 21
31.4101426505
  0
LINE
  8
0
 62
7
  6
CONTINUOUS
 10
361.8840352445
 20
31.5391973962
 11
361.6527851343
 21
31.5069337098
  0
LINE
  8
0
 62
7
  6
CONTINUOUS
 10
359.4559102445
 20
31.3778789641
 11
359.6871602721
 21
31.4101426505
  0
LINE
  8
0
 62
7
  6
CONTINUOUS
 10
365.9752749986
 20
34.9329888485
 11
366.6310127035
 21
34.9329888485
  0
LINE
  8
0
 62
7
  6
CONTINUOUS
 10
363.6184102445
 20
30.9907146818
 11
363.7340351343
 21
31.0229783683
  0
LINE
  8
0
 62
7
  6
CONTINUOUS
 10
363.6184102445
 20
31.1520331591
 11
363.3871601343
 21
31.0875057863
  0
LINE
  8
0
 62
7
  6
CONTINUOUS
 10
363.5027853548
 20
31.3456152777
 11
363.6184102445
 21
31.3778789641
  0
LINE
  8
0
 62
7
  6
CONTINUOUS
 10
360.1496602445
 20
30.5390230296
 11
360.3809101894
 21
30.6035504109
  0
LINE
  8
0
 62
7
  6
CONTINUOUS
 10
363.4449727445
 20
31.5069337098
 11
363.3293478548
 21
31.4746700234
  0
LINE
  8
0
 62
7
  6
CONTINUOUS
 10
359.3980977583
 20
31.5069337098
 11
359.2246602583
 21
31.4746700234
  0
LINE
  8
0
 62
7
  6
CONTINUOUS
 10
370.1556028675
 20
36.0805298321
 11
368.7621602445
 21
36.0805298321
  0
LINE
  8
0
 62
7
  6
CONTINUOUS
 10
366.7949471298
 20
36.0805298321
 11
366.3823757812
 21
36.0805298321
  0
LINE
  8
0
 62
7
  6
CONTINUOUS
 10
365.1556028675
 20
36.0805298321
 11
363.7621602445
 21
36.0805298321
  0
LINE
  8
0
 62
7
  6
CONTINUOUS
 10
363.4342913921
 20
36.0805298321
 11
362.0408487691
 21
36.0805298321
  0
LINE
  8
0
 62
7
  6
CONTINUOUS
 10
360.1556028675
 20
36.0805298321
 11
358.7621602445
 21
36.0805298321
  0
LINE
  8
0
 62
7
  6
CONTINUOUS
 10
359.3402852307
 20
31.3456152777
 11
359.4559102445
 21
31.3778789641
  0
CIRCLE
  8
0
 62
7
  6
CONTINUOUS
 10
369.458881556
 20
38.4165954059
 40
2.0901639344
  0
ARC
  8
0
 62
7
  6
CONTINUOUS
 10
360.4015045068
 20
33.9493822911
 40
1.6393442623
 50
180.0
 51
270.0
  0
ARC
  8
0
 62
7
  6
CONTINUOUS
 10
366.7949471298
 20
34.4411855698
 40
1.6393442623
 50
0.0
 51
90.0
  0
ARC
  8
0
 62
7
  6
CONTINUOUS
 10
360.8140758554
 20
33.7854478649
 40
1.4754098361
 50
270.0
 51
326.2510114041
  0
ARC
  8
0
 62
7
  6
CONTINUOUS
 10
366.3823757812
 20
34.6051199961
 40
1.4754098361
 50
90.0
 51
146.2510114041
  0
ARC
  8
0
 62
7
  6
CONTINUOUS
 10
361.221176638
 20
34.2772511436
 40
0.8196721311
 50
270.0
 51
360.0
  0
ARC
  8
0
 62
7
  6
CONTINUOUS
 10
365.9752749986
 20
34.1133167174
 40
0.8196721311
 50
90.0
 51
180.0
  0
ARC
  8
0
 62
7
  6
CONTINUOUS
 10
360.565438933
 20
33.867415078
 40
0.4098360656
 50
180.0
 51
270.0
  0
ARC
  8
0
 62
7
  6
CONTINUOUS
 10
366.6310127035
 20
34.5231527829
 40
0.4098360656
 50
0.0
 51
90.0
  0
SOLID
  8
0
 62
7
  6
CONTINUOUS
 10
365.4684104651
 20
31.8618347111
 11
365.4684104651
 21
32.0231531947
 12
365.757472524
 22
31.8618347111
 13
365.757472524
 23
32.0231531947
  0
SOLID
  8
0
 62
7
  6
CONTINUOUS
 10
359.744972717
 20
31.5391977439
 11
360.1496602445
 21
31.5069333244
 12
359.3980977583
 22
31.5069333244
 13
359.3980977583
 23
31.5069333244
  0
SOLID
  8
0
 62
7
  6
CONTINUOUS
 10
359.2246602583
 20
31.4746706537
 11
359.3980977583
 21
31.5069333244
 12
360.1496602445
 22
31.5069333244
 13
360.1496602445
 23
31.5069333244
  0
SOLID
  8
0
 62
7
  6
CONTINUOUS
 10
360.1496602445
 20
31.5069333244
 11
360.3809101894
 21
31.4424063504
 12
359.2246602583
 22
31.4746706537
 13
359.2246602583
 23
31.4746706537
  0
SOLID
  8
0
 62
7
  6
CONTINUOUS
 10
359.0512227376
 20
31.4101419116
 11
359.2246602583
 21
31.4746706537
 12
360.3809101894
 22
31.4424063504
 13
360.3809101894
 23
31.4424063504
  0
SOLID
  8
0
 62
7
  6
CONTINUOUS
 10
359.0512227376
 20
31.4101419116
 11
360.3809101894
 21
31.4424063504
 12
359.6871602721
 22
31.4101419116
 13
359.6871602721
 23
31.4101419116
  0
SOLID
  8
0
 62
7
  6
CONTINUOUS
 10
359.6871602721
 20
31.4101419116
 11
360.3809101894
 21
31.4424063504
 12
360.091847717
 22
31.3778792603
 13
360.091847717
 23
31.3778792603
  0
SOLID
  8
0
 62
7
  6
CONTINUOUS
 10
360.3809101894
 20
31.4424063504
 11
360.5543476894
 21
31.345614957
 12
360.091847717
 22
31.3778792603
 13
360.091847717
 23
31.3778792603
  0
SOLID
  8
0
 62
7
  6
CONTINUOUS
 10
360.2652852997
 20
31.3133521701
 11
360.091847717
 21
31.3778792603
 12
360.5543476894
 22
31.345614957
 13
360.5543476894
 23
31.345614957
  0
SOLID
  8
0
 62
7
  6
CONTINUOUS
 10
360.2652852997
 20
31.3133521701
 11
360.5543476894
 21
31.345614957
 12
360.3230977445
 22
31.2165606992
 13
360.3230977445
 23
31.2165606992
  0
SOLID
  8
0
 62
7
  6
CONTINUOUS
 10
360.5543476894
 20
31.345614957
 11
360.6121602997
 21
31.2165606992
 12
360.3230977445
 22
31.2165606992
 13
360.3230977445
 23
31.2165606992
  0
SOLID
  8
0
 62
7
  6
CONTINUOUS
 10
361.6527851343
 20
31.5069329918
 11
361.8840352445
 21
31.5391972951
 12
362.1152853548
 22
31.5391972951
 13
362.1152853548
 23
31.5391972951
  0
SOLID
  8
0
 62
7
  6
CONTINUOUS
 10
362.1152853548
 20
31.5391972951
 11
362.2887228548
 21
31.5069329918
 12
361.6527851343
 22
31.5069329918
 13
361.6527851343
 23
31.5069329918
  0
SOLID
  8
0
 62
7
  6
CONTINUOUS
 10
361.4793477997
 20
31.4424059016
 11
361.6527851343
 21
31.5069329918
 12
362.2887228548
 22
31.5069329918
 13
362.2887228548
 23
31.5069329918
  0
SOLID
  8
0
 62
7
  6
CONTINUOUS
 10
362.2887228548
 20
31.5069329918
 11
362.4621603548
 21
31.4424059016
 12
361.4793477997
 22
31.4424059016
 13
361.4793477997
 23
31.4424059016
  0
SOLID
  8
0
 62
7
  6
CONTINUOUS
 10
362.4621603548
 20
31.4424059016
 11
361.8840352445
 21
31.4101420472
 12
361.4793477997
 22
31.4424059016
 13
361.4793477997
 23
31.4424059016
  0
SOLID
  8
0
 62
7
  6
CONTINUOUS
 10
361.3637227445
 20
31.3778788115
 11
361.4793477997
 21
31.4424059016
 12
361.8840352445
 22
31.4101420472
 13
361.8840352445
 23
31.4101420472
  0
SOLID
  8
0
 62
7
  6
CONTINUOUS
 10
361.8840352445
 20
31.4101420472
 11
361.6527851343
 21
31.3778788115
 12
361.3637227445
 22
31.3778788115
 13
361.3637227445
 23
31.3778788115
  0
SOLID
  8
0
 62
7
  6
CONTINUOUS
 10
361.8840352445
 20
31.4101420472
 11
362.4621603548
 21
31.4424059016
 12
362.1152853548
 22
31.3778788115
 13
362.1152853548
 23
31.3778788115
  0
SOLID
  8
0
 62
7
  6
CONTINUOUS
 10
362.4621603548
 20
31.4424059016
 11
362.5777852445
 21
31.3778788115
 12
362.1152853548
 22
31.3778788115
 13
362.1152853548
 23
31.3778788115
  0
SOLID
  8
0
 62
7
  6
CONTINUOUS
 10
362.2309102445
 20
31.345614957
 11
362.1152853548
 21
31.3778788115
 12
362.5777852445
 22
31.3778788115
 13
362.5777852445
 23
31.3778788115
  0
SOLID
  8
0
 62
7
  6
CONTINUOUS
 10
362.5777852445
 20
31.3778788115
 11
362.6355978548
 21
31.3133517213
 12
362.2309102445
 22
31.345614957
 13
362.2309102445
 23
31.345614957
  0
SOLID
  8
0
 62
7
  6
CONTINUOUS
 10
362.3465351343
 20
31.2810878668
 11
362.2309102445
 21
31.345614957
 12
362.6355978548
 22
31.3133517213
 13
362.6355978548
 23
31.3133517213
  0
SOLID
  8
0
 62
7
  6
CONTINUOUS
 10
362.3465351343
 20
31.2810878668
 11
362.6355978548
 21
31.3133517213
 12
362.4043477445
 22
31.1520332377
 13
362.4043477445
 23
31.1520332377
  0
SOLID
  8
0
 62
7
  6
CONTINUOUS
 10
362.6355978548
 20
31.3133517213
 11
362.6934101343
 21
31.1520332377
 12
362.4043477445
 22
31.1520332377
 13
362.4043477445
 23
31.1520332377
  0
SOLID
  8
0
 62
7
  6
CONTINUOUS
 10
361.6527851343
 20
31.3778788115
 11
361.4793477997
 21
31.3133517213
 12
361.3637227445
 22
31.3778788115
 13
361.3637227445
 23
31.3778788115
  0
SOLID
  8
0
 62
7
  6
CONTINUOUS
 10
361.4793477997
 20
31.3133517213
 11
361.3637227445
 21
31.2488235635
 12
361.3637227445
 22
31.3778788115
 13
361.3637227445
 23
31.3778788115
  0
SOLID
  8
0
 62
7
  6
CONTINUOUS
 10
361.3637227445
 20
31.2488235635
 11
361.0746601894
 21
30.5067593033
 12
361.3637227445
 22
31.3778788115
 13
361.3637227445
 23
31.3778788115
  0
SOLID
  8
0
 62
7
  6
CONTINUOUS
 10
361.3637227445
 20
31.3778788115
 11
361.0746601894
 21
30.5067593033
 12
361.3637227445
 22
32.0231527459
 13
361.3637227445
 23
32.0231527459
  0
SOLID
  8
0
 62
7
  6
CONTINUOUS
 10
361.0746601894
 20
30.5067593033
 11
361.0746601894
 21
32.0231527459
 12
361.3637227445
 22
32.0231527459
 13
361.3637227445
 23
32.0231527459
  0
SOLID
  8
0
 62
7
  6
CONTINUOUS
 10
361.3637227445
 20
31.2488235635
 11
361.3637227445
 21
30.5067593033
 12
361.0746601894
 22
30.5067593033
 13
361.0746601894
 23
30.5067593033
  0
SOLID
  8
0
 62
7
  6
CONTINUOUS
 10
362.4043477445
 20
30.5067593033
 11
362.4043477445
 21
31.1520332377
 12
362.6934101343
 22
31.1520332377
 13
362.6934101343
 23
31.1520332377
  0
SOLID
  8
0
 62
7
  6
CONTINUOUS
 10
362.6934101343
 20
31.1520332377
 11
362.6934101343
 21
30.5067593033
 12
362.4043477445
 22
30.5067593033
 13
362.4043477445
 23
30.5067593033
  0
SOLID
  8
0
 62
7
  6
CONTINUOUS
 10
363.4449727445
 20
31.506933758
 11
363.8496603548
 21
31.5391977507
 12
364.1965353548
 22
31.5391977507
 13
364.1965353548
 23
31.5391977507
  0
SOLID
  8
0
 62
7
  6
CONTINUOUS
 10
364.1965353548
 20
31.5391977507
 11
364.543410024
 21
31.506933758
 12
363.4449727445
 22
31.506933758
 13
363.4449727445
 23
31.506933758
  0
SOLID
  8
0
 62
7
  6
CONTINUOUS
 10
363.3293478548
 20
31.4746706537
 11
363.4449727445
 21
31.506933758
 12
364.543410024
 22
31.506933758
 13
364.543410024
 23
31.506933758
  0
SOLID
  8
0
 62
7
  6
CONTINUOUS
 10
364.543410024
 20
31.506933758
 11
364.716847524
 21
31.4424063504
 12
363.3293478548
 22
31.4746706537
 13
363.3293478548
 23
31.4746706537
  0
SOLID
  8
0
 62
7
  6
CONTINUOUS
 10
363.2137226343
 20
31.4101417797
 11
363.3293478548
 21
31.4746706537
 12
364.716847524
 22
31.4424063504
 13
364.716847524
 23
31.4424063504
  0
SOLID
  8
0
 62
7
  6
CONTINUOUS
 10
363.2137226343
 20
31.4101417797
 11
364.716847524
 21
31.4424063504
 12
363.8496603548
 22
31.4101417797
 13
363.8496603548
 23
31.4101417797
  0
SOLID
  8
0
 62
7
  6
CONTINUOUS
 10
363.8496603548
 20
31.4101417797
 11
364.716847524
 21
31.4424063504
 12
364.1965353548
 22
31.4101417797
 13
364.1965353548
 23
31.4101417797
  0
SOLID
  8
0
 62
7
  6
CONTINUOUS
 10
364.1965353548
 20
31.4101417797
 11
364.716847524
 21
31.4424063504
 12
364.4277854651
 22
31.3778793357
 13
364.4277854651
 23
31.3778793357
  0
SOLID
  8
0
 62
7
  6
CONTINUOUS
 10
364.716847524
 20
31.4424063504
 11
364.8324727445
 21
31.3778793357
 12
364.4277854651
 22
31.3778793357
 13
364.4277854651
 23
31.3778793357
  0
SOLID
  8
0
 62
7
  6
CONTINUOUS
 10
363.1559103548
 20
31.3456153429
 11
363.2137226343
 21
31.4101417797
 12
363.8496603548
 22
31.4101417797
 13
363.8496603548
 23
31.4101417797
  0
SOLID
  8
0
 62
7
  6
CONTINUOUS
 10
364.543410024
 20
31.3456153429
 11
364.4277854651
 21
31.3778793357
 12
364.8324727445
 22
31.3778793357
 13
364.8324727445
 23
31.3778793357
  0
SOLID
  8
0
 62
7
  6
CONTINUOUS
 10
364.543410024
 20
31.3456153429
 11
364.8324727445
 21
31.3778793357
 12
364.6012229651
 22
31.2810881318
 13
364.6012229651
 23
31.2810881318
  0
SOLID
  8
0
 62
7
  6
CONTINUOUS
 10
364.8324727445
 20
31.3778793357
 11
364.890285024
 21
31.2810881318
 12
364.6012229651
 22
31.2810881318
 13
364.6012229651
 23
31.2810881318
  0
SOLID
  8
0
 62
7
  6
CONTINUOUS
 10
364.6012229651
 20
31.1842964734
 11
364.6012229651
 21
31.2810881318
 12
364.890285024
 22
31.2810881318
 13
364.890285024
 23
31.2810881318
  0
SOLID
  8
0
 62
7
  6
CONTINUOUS
 10
364.6012229651
 20
31.1842964734
 11
364.890285024
 21
31.2810881318
 12
364.6012229651
 22
31.0552422931
 13
364.6012229651
 23
31.0552422931
  0
SOLID
  8
0
 62
7
  6
CONTINUOUS
 10
364.6012229651
 20
31.0552422931
 11
364.890285024
 21
31.2810881318
 12
364.6012229651
 22
30.8616599362
 13
364.6012229651
 23
30.8616599362
  0
SOLID
  8
0
 62
7
  6
CONTINUOUS
 10
364.890285024
 20
31.2810881318
 11
364.890285024
 21
30.7648681127
 12
364.6012229651
 22
30.8616599362
 13
364.6012229651
 23
30.8616599362
  0
SOLID
  8
0
 62
7
  6
CONTINUOUS
 10
366.798097524
 20
31.5069339419
 11
367.0293479651
 21
31.5391976292
 12
367.2605977445
 22
31.5391976292
 13
367.2605977445
 23
31.5391976292
  0
SOLID
  8
0
 62
7
  6
CONTINUOUS
 10
367.2605977445
 20
31.5391976292
 11
367.4340352445
 21
31.5069339419
 12
366.798097524
 22
31.5069339419
 13
366.798097524
 23
31.5069339419
  0
SOLID
  8
0
 62
7
  6
CONTINUOUS
 10
366.624660024
 20
31.4424065674
 11
366.798097524
 21
31.5069339419
 12
367.4340352445
 22
31.5069339419
 13
367.4340352445
 23
31.5069339419
  0
SOLID
  8
0
 62
7
  6
CONTINUOUS
 10
367.4340352445
 20
31.5069339419
 11
367.6074727445
 21
31.4424065674
 12
366.624660024
 22
31.4424065674
 13
366.624660024
 23
31.4424065674
  0
SOLID
  8
0
 62
7
  6
CONTINUOUS
 10
367.6074727445
 20
31.4424065674
 11
367.0293479651
 21
31.4101420472
 12
366.624660024
 22
31.4424065674
 13
366.624660024
 23
31.4424065674
  0
SOLID
  8
0
 62
7
  6
CONTINUOUS
 10
366.5090354651
 20
31.377879193
 11
366.624660024
 21
31.4424065674
 12
367.0293479651
 22
31.4101420472
 13
367.0293479651
 23
31.4101420472
  0
SOLID
  8
0
 62
7
  6
CONTINUOUS
 10
367.0293479651
 20
31.4101420472
 11
366.798097524
 21
31.377879193
 12
366.5090354651
 22
31.377879193
 13
366.5090354651
 23
31.377879193
  0
SOLID
  8
0
 62
7
  6
CONTINUOUS
 10
367.0293479651
 20
31.4101420472
 11
367.6074727445
 21
31.4424065674
 12
367.2605977445
 22
31.377879193
 13
367.2605977445
 23
31.377879193
  0
SOLID
  8
0
 62
7
  6
CONTINUOUS
 10
367.6074727445
 20
31.4424065674
 11
367.7230979651
 21
31.377879193
 12
367.2605977445
 22
31.377879193
 13
367.2605977445
 23
31.377879193
  0
SOLID
  8
0
 62
7
  6
CONTINUOUS
 10
367.3762229651
 20
31.345614957
 11
367.2605977445
 21
31.377879193
 12
367.7230979651
 22
31.377879193
 13
367.7230979651
 23
31.377879193
  0
SOLID
  8
0
 62
7
  6
CONTINUOUS
 10
367.3762229651
 20
31.345614957
 11
367.7230979651
 21
31.377879193
 12
367.491847524
 22
31.2810881312
 13
367.491847524
 23
31.2810881312
  0
SOLID
  8
0
 62
7
  6
CONTINUOUS
 10
367.7230979651
 20
31.377879193
 11
367.7809102445
 21
31.2810881312
 12
367.491847524
 22
31.2810881312
 13
367.491847524
 23
31.2810881312
  0
SOLID
  8
0
 62
7
  6
CONTINUOUS
 10
367.5496604651
 20
31.119769695
 11
367.491847524
 21
31.2810881312
 12
367.7809102445
 22
31.2810881312
 13
367.7809102445
 23
31.2810881312
  0
SOLID
  8
0
 62
7
  6
CONTINUOUS
 10
367.7809102445
 20
31.2810881312
 11
367.838722524
 21
31.119769695
 12
367.5496604651
 22
31.119769695
 13
367.5496604651
 23
31.119769695
  0
SOLID
  8
0
 62
7
  6
CONTINUOUS
 10
366.798097524
 20
31.377879193
 11
366.624660024
 21
31.3133521701
 12
366.5090354651
 22
31.377879193
 13
366.5090354651
 23
31.377879193
  0
SOLID
  8
0
 62
7
  6
CONTINUOUS
 10
366.624660024
 20
31.3133521701
 11
366.5090354651
 21
31.2488235635
 12
366.5090354651
 22
31.377879193
 13
366.5090354651
 23
31.377879193
  0
SOLID
  8
0
 62
7
  6
CONTINUOUS
 10
366.5090354651
 20
31.2488235635
 11
366.2199727445
 21
30.5067596374
 12
366.5090354651
 22
31.377879193
 13
366.5090354651
 23
31.377879193
  0
SOLID
  8
0
 62
7
  6
CONTINUOUS
 10
366.5090354651
 20
31.377879193
 11
366.2199727445
 21
30.5067596374
 12
366.5090354651
 22
31.5391976292
 13
366.5090354651
 23
31.5391976292
  0
SOLID
  8
0
 62
7
  6
CONTINUOUS
 10
366.2199727445
 20
30.5067596374
 11
366.2199727445
 21
31.5391976292
 12
366.5090354651
 22
31.5391976292
 13
366.5090354651
 23
31.5391976292
  0
SOLID
  8
0
 62
7
  6
CONTINUOUS
 10
366.5090354651
 20
31.2488235635
 11
366.5090354651
 21
30.5067596374
 12
366.2199727445
 22
30.5067596374
 13
366.2199727445
 23
30.5067596374
  0
SOLID
  8
0
 62
7
  6
CONTINUOUS
 10
367.5496604651
 20
30.5067596374
 11
367.5496604651
 21
31.119769695
 12
367.838722524
 22
31.119769695
 13
367.838722524
 23
31.119769695
  0
SOLID
  8
0
 62
7
  6
CONTINUOUS
 10
367.838722524
 20
31.119769695
 11
367.838722524
 21
30.5067596374
 12
367.5496604651
 22
30.5067596374
 13
367.5496604651
 23
30.5067596374
  0
SOLID
  8
0
 62
7
  6
CONTINUOUS
 10
368.6480977445
 20
31.5069334157
 11
368.9949727445
 21
31.539197762
 12
369.3418477445
 22
31.539197762
 13
369.3418477445
 23
31.539197762
  0
SOLID
  8
0
 62
7
  6
CONTINUOUS
 10
369.3418477445
 20
31.539197762
 11
369.6887227445
 21
31.5069334157
 12
368.6480977445
 22
31.5069334157
 13
368.6480977445
 23
31.5069334157
  0
SOLID
  8
0
 62
7
  6
CONTINUOUS
 10
368.4168479651
 20
31.4424063504
 11
368.6480977445
 21
31.5069334157
 12
369.6887227445
 22
31.5069334157
 13
369.6887227445
 23
31.5069334157
  0
SOLID
  8
0
 62
7
  6
CONTINUOUS
 10
368.4168479651
 20
31.4424063504
 11
369.6887227445
 21
31.5069334406
 12
369.8621602445
 22
31.4746706537
 13
369.8621602445
 23
31.4746706537
  0
SOLID
  8
0
 62
7
  6
CONTINUOUS
 10
368.4168479651
 20
31.4424063504
 11
369.8621602445
 21
31.4746706537
 12
368.9949727445
 22
31.4101421267
 13
368.9949727445
 23
31.4101421267
  0
SOLID
  8
0
 62
7
  6
CONTINUOUS
 10
368.9949727445
 20
31.4101421267
 11
369.8621602445
 21
31.4746706537
 12
369.3418477445
 22
31.4101421267
 13
369.3418477445
 23
31.4101421267
  0
SOLID
  8
0
 62
7
  6
CONTINUOUS
 10
369.8621602445
 20
31.4746706537
 11
370.0355977445
 21
31.4101421267
 12
369.3418477445
 22
31.4101421267
 13
369.3418477445
 23
31.4101421267
  0
SOLID
  8
0
 62
7
  6
CONTINUOUS
 10
369.6887227445
 20
31.3778792603
 11
369.3418477445
 21
31.4101421267
 12
370.0355977445
 22
31.4101421267
 13
370.0355977445
 23
31.4101421267
  0
SOLID
  8
0
 62
7
  6
CONTINUOUS
 10
368.3012227445
 20
31.3456148845
 11
368.4168479651
 21
31.4424063504
 12
368.9949727445
 22
31.4101421267
 13
368.9949727445
 23
31.4101421267
  0
SOLID
  8
0
 62
7
  6
CONTINUOUS
 10
369.6887227445
 20
31.3778792603
 11
370.0355977445
 21
31.4101421267
 12
369.8043479651
 22
31.3456148845
 13
369.8043479651
 23
31.3456148845
  0
SOLID
  8
0
 62
7
  6
CONTINUOUS
 10
369.8043479651
 20
31.3456148845
 11
370.0355977445
 21
31.4101421267
 12
369.8621602445
 22
31.281087868
 13
369.8621602445
 23
31.281087868
  0
SOLID
  8
0
 62
7
  6
CONTINUOUS
 10
370.0355977445
 20
31.4101421267
 11
370.1512223035
 21
31.281087868
 12
369.8621602445
 22
31.281087868
 13
369.8621602445
 23
31.281087868
  0
SOLID
  8
0
 62
7
  6
CONTINUOUS
 10
359.4559102445
 20
31.3778792603
 11
358.9355977445
 21
31.3456148963
 12
359.6871602721
 22
31.4101421155
 13
359.6871602721
 23
31.4101421155
  0
SOLID
  8
0
 62
7
  6
CONTINUOUS
 10
358.9355977445
 20
31.3456148963
 11
359.0512227376
 21
31.4101421155
 12
359.6871602721
 22
31.4101421155
 13
359.6871602721
 23
31.4101421155
  0
SOLID
  8
0
 62
7
  6
CONTINUOUS
 10
359.4559102445
 20
31.3778792603
 11
359.3402852307
 21
31.3456148963
 12
358.9355977445
 22
31.3456148963
 13
358.9355977445
 23
31.3456148963
  0
SOLID
  8
0
 62
7
  6
CONTINUOUS
 10
358.8199727462
 20
31.2165607767
 11
358.9355977445
 21
31.3456148963
 12
359.3402852307
 22
31.3456148963
 13
359.3402852307
 23
31.3456148963
  0
SOLID
  8
0
 62
7
  6
CONTINUOUS
 10
363.1559103548
 20
31.3456149608
 11
363.8496603548
 21
31.4101420472
 12
363.6184102445
 22
31.3778792603
 13
363.6184102445
 23
31.3778792603
  0
SOLID
  8
0
 62
7
  6
CONTINUOUS
 10
363.6184102445
 20
31.3778792603
 11
363.5027853548
 21
31.3456149608
 12
363.1559103548
 22
31.3456149608
 13
363.1559103548
 23
31.3456149608
  0
SOLID
  8
0
 62
7
  6
CONTINUOUS
 10
363.1559103548
 20
31.2810878707
 11
363.1559103548
 21
31.3456149608
 12
363.5027853548
 22
31.3456149608
 13
363.5027853548
 23
31.3456149608
  0
SOLID
  8
0
 62
7
  6
CONTINUOUS
 10
363.5027853548
 20
31.3456149608
 11
363.4449727445
 21
31.2810878707
 12
363.1559103548
 22
31.2810878707
 13
363.1559103548
 23
31.2810878707
  0
SOLID
  8
0
 62
7
  6
CONTINUOUS
 10
368.3012227445
 20
31.3456149608
 11
368.9949727445
 21
31.4101420472
 12
368.7637229651
 22
31.3778792603
 13
368.7637229651
 23
31.3778792603
  0
SOLID
  8
0
 62
7
  6
CONTINUOUS
 10
368.7637229651
 20
31.3778792603
 11
368.6480977445
 21
31.3456149608
 12
368.3012227445
 22
31.3456149608
 13
368.3012227445
 23
31.3456149608
  0
SOLID
  8
0
 62
7
  6
CONTINUOUS
 10
368.3012227445
 20
31.2810878707
 11
368.3012227445
 21
31.3456149608
 12
368.6480977445
 22
31.3456149608
 13
368.6480977445
 23
31.3456149608
  0
SOLID
  8
0
 62
7
  6
CONTINUOUS
 10
368.6480977445
 20
31.3456149608
 11
368.5902854651
 21
31.2810878707
 12
368.3012227445
 22
31.2810878707
 13
368.3012227445
 23
31.2810878707
  0
SOLID
  8
0
 62
7
  6
CONTINUOUS
 10
368.4168479651
 20
31.1520336865
 11
368.3012227445
 21
31.2810878707
 12
368.5902854651
 22
31.2810878707
 13
368.5902854651
 23
31.2810878707
  0
SOLID
  8
0
 62
7
  6
CONTINUOUS
 10
358.8199727462
 20
31.2165607767
 11
359.3402852307
 21
31.345614957
 12
359.1668477307
 22
31.2488235635
 13
359.1668477307
 23
31.2488235635
  0
SOLID
  8
0
 62
7
  6
CONTINUOUS
 10
359.1668477307
 20
31.2488235635
 11
359.1090352445
 21
31.1842964734
 12
358.8199727462
 22
31.2165607767
 13
358.8199727462
 23
31.2165607767
  0
SOLID
  8
0
 62
7
  6
CONTINUOUS
 10
358.7621602445
 20
31.0229779898
 11
358.8199727462
 21
31.2165607767
 12
359.1090352445
 22
31.1842964734
 13
359.1090352445
 23
31.1842964734
  0
SOLID
  8
0
 62
7
  6
CONTINUOUS
 10
363.6184102445
 20
31.1520336865
 11
363.9652852445
 21
31.1842964611
 12
364.6012229651
 22
31.1842964611
 13
364.6012229651
 23
31.1842964611
  0
SOLID
  8
0
 62
7
  6
CONTINUOUS
 10
363.6184102445
 20
31.1520336865
 11
364.6012229651
 21
31.1842964611
 12
363.3871601343
 22
31.0875057863
 13
363.3871601343
 23
31.0875057863
  0
SOLID
  8
0
 62
7
  6
CONTINUOUS
 10
363.3871601343
 20
31.0875057863
 11
364.6012229651
 21
31.1842964611
 12
363.9652852445
 22
31.0552422808
 13
363.9652852445
 23
31.0552422808
  0
SOLID
  8
0
 62
7
  6
CONTINUOUS
 10
364.6012229651
 20
31.1842964611
 11
364.6012229651
 21
31.0552422808
 12
363.9652852445
 22
31.0552422808
 13
363.9652852445
 23
31.0552422808
  0
SOLID
  8
0
 62
7
  6
CONTINUOUS
 10
368.4168479651
 20
31.1520338754
 11
368.5902854651
 21
31.2810878668
 12
368.6480977445
 22
31.2165607767
 13
368.6480977445
 23
31.2165607767
  0
SOLID
  8
0
 62
7
  6
CONTINUOUS
 10
368.6480977445
 20
31.2165607767
 11
368.8215352445
 21
31.1520338754
 12
368.4168479651
 22
31.1520338754
 13
368.4168479651
 23
31.1520338754
  0
SOLID
  8
0
 62
7
  6
CONTINUOUS
 10
368.6480977445
 20
31.0552422931
 11
368.4168479651
 21
31.1520338754
 12
368.8215352445
 22
31.1520338754
 13
368.8215352445
 23
31.1520338754
  0
SOLID
  8
0
 62
7
  6
CONTINUOUS
 10
368.8215352445
 20
31.1520338754
 11
369.8043479651
 21
30.9907152029
 12
368.6480977445
 22
31.0552422931
 13
368.6480977445
 23
31.0552422931
  0
SOLID
  8
0
 62
7
  6
CONTINUOUS
 10
369.6309104651
 20
30.8939239876
 11
368.6480977445
 21
31.0552422931
 12
369.8043479651
 22
30.9907152029
 13
369.8043479651
 23
30.9907152029
  0
SOLID
  8
0
 62
7
  6
CONTINUOUS
 10
369.8043479651
 20
30.9907152029
 11
370.0355977445
 21
30.8939239876
 12
369.6309104651
 22
30.8939239876
 13
369.6309104651
 23
30.8939239876
  0
SOLID
  8
0
 62
7
  6
CONTINUOUS
 10
369.8043479651
 20
30.8293967193
 11
369.6309104651
 21
30.8939239876
 12
370.0355977445
 22
30.8939239876
 13
370.0355977445
 23
30.8939239876
  0
SOLID
  8
0
 62
7
  6
CONTINUOUS
 10
369.8043479651
 20
30.8293967193
 11
370.0355977445
 21
30.8939239876
 12
369.8621602445
 22
30.7648682694
 13
369.8621602445
 23
30.7648682694
  0
SOLID
  8
0
 62
7
  6
CONTINUOUS
 10
370.0355977445
 20
30.8939239876
 11
370.1512223035
 21
30.7648682694
 12
369.8621602445
 22
30.7648682694
 13
369.8621602445
 23
30.7648682694
  0
SOLID
  8
0
 62
7
  6
CONTINUOUS
 10
369.8043479651
 20
30.7003411846
 11
369.8621602445
 21
30.7648682694
 12
370.1512223035
 22
30.7648682694
 13
370.1512223035
 23
30.7648682694
  0
SOLID
  8
0
 62
7
  6
CONTINUOUS
 10
370.1512223035
 20
30.7648682694
 11
370.1512223035
 21
30.7003411846
 12
369.8043479651
 22
30.7003411846
 13
369.8043479651
 23
30.7003411846
  0
SOLID
  8
0
 62
7
  6
CONTINUOUS
 10
369.6887227445
 20
30.6680782357
 11
369.8043479651
 21
30.7003411846
 12
370.1512223035
 22
30.7003411846
 13
370.1512223035
 23
30.7003411846
  0
SOLID
  8
0
 62
7
  6
CONTINUOUS
 10
369.6887227445
 20
30.6680782357
 11
370.1512223035
 21
30.7003411846
 12
369.4574729651
 22
30.6358140998
 13
369.4574729651
 23
30.6358140998
  0
SOLID
  8
0
 62
7
  6
CONTINUOUS
 10
370.1512223035
 20
30.7003411846
 11
370.0355977445
 21
30.6035511455
 12
369.4574729651
 22
30.6358140998
 13
369.4574729651
 23
30.6358140998
  0
SOLID
  8
0
 62
7
  6
CONTINUOUS
 10
370.0355977445
 20
30.6035511455
 11
368.5902854651
 21
30.5712868422
 12
369.4574729651
 22
30.6358140998
 13
369.4574729651
 23
30.6358140998
  0
SOLID
  8
0
 62
7
  6
CONTINUOUS
 10
369.4574729651
 20
30.6358140998
 11
368.5902854651
 21
30.5712868422
 12
369.1105979651
 22
30.6358140998
 13
369.1105979651
 23
30.6358140998
  0
SOLID
  8
0
 62
7
  6
CONTINUOUS
 10
368.5902854651
 20
30.5712868422
 11
368.4168479651
 21
30.6358140998
 12
369.1105979651
 22
30.6358140998
 13
369.1105979651
 23
30.6358140998
  0
SOLID
  8
0
 62
7
  6
CONTINUOUS
 10
368.5902854651
 20
30.5712868422
 11
370.0355977445
 21
30.6035511455
 12
368.7637229651
 22
30.5390223111
 13
368.7637229651
 23
30.5390223111
  0
SOLID
  8
0
 62
7
  6
CONTINUOUS
 10
370.0355977445
 20
30.6035511455
 11
369.8043479651
 21
30.5390223111
 12
368.7637229651
 22
30.5390223111
 13
368.7637229651
 23
30.5390223111
  0
SOLID
  8
0
 62
7
  6
CONTINUOUS
 10
369.1105979651
 20
30.5067599302
 11
368.7637229651
 21
30.5390223111
 12
369.8043479651
 22
30.5390223111
 13
369.8043479651
 23
30.5390223111
  0
SOLID
  8
0
 62
7
  6
CONTINUOUS
 10
369.8043479651
 20
30.5390223111
 11
369.4574729651
 21
30.5067599302
 12
369.1105979651
 22
30.5067599302
 13
369.1105979651
 23
30.5067599302
  0
SOLID
  8
0
 62
7
  6
CONTINUOUS
 10
358.7621602445
 20
31.0229779898
 11
359.1090352445
 21
31.1842964734
 12
359.0512227376
 22
31.0552422931
 13
359.0512227376
 23
31.0552422931
  0
SOLID
  8
0
 62
7
  6
CONTINUOUS
 10
359.0512227376
 20
31.0552422931
 11
359.0512227376
 21
30.9584509954
 12
358.7621602445
 22
31.0229779898
 13
358.7621602445
 23
31.0229779898
  0
SOLID
  8
0
 62
7
  6
CONTINUOUS
 10
358.8199727462
 20
30.8293967193
 11
358.7621602445
 21
31.0229779898
 12
359.0512227376
 22
30.9584509954
 13
359.0512227376
 23
30.9584509954
  0
SOLID
  8
0
 62
7
  6
CONTINUOUS
 10
359.0512227376
 20
30.9584509954
 11
359.1668477307
 21
30.797132416
 12
358.8199727462
 22
30.8293967193
 13
358.8199727462
 23
30.8293967193
  0
SOLID
  8
0
 62
7
  6
CONTINUOUS
 10
358.9355977445
 20
30.7003413087
 11
358.8199727462
 21
30.8293967193
 12
359.1668477307
 22
30.797132416
 13
359.1668477307
 23
30.797132416
  0
SOLID
  8
0
 62
7
  6
CONTINUOUS
 10
359.1668477307
 20
30.797132416
 11
359.3402852307
 21
30.7003413087
 12
358.9355977445
 22
30.7003413087
 13
358.9355977445
 23
30.7003413087
  0
SOLID
  8
0
 62
7
  6
CONTINUOUS
 10
359.0512227376
 20
30.6358140759
 11
358.9355977445
 21
30.7003413087
 12
359.3402852307
 22
30.7003413087
 13
359.3402852307
 23
30.7003413087
  0
SOLID
  8
0
 62
7
  6
CONTINUOUS
 10
359.3402852307
 20
30.7003413087
 11
359.6871602721
 21
30.6358140759
 12
359.0512227376
 22
30.6358140759
 13
359.0512227376
 23
30.6358140759
  0
SOLID
  8
0
 62
7
  6
CONTINUOUS
 10
359.2246602583
 20
30.5712868422
 11
359.0512227376
 21
30.6358140759
 12
359.6871602721
 22
30.6358140759
 13
359.6871602721
 23
30.6358140759
  0
SOLID
  8
0
 62
7
  6
CONTINUOUS
 10
363.2715352445
 20
31.0229779808
 11
363.3871601343
 21
31.0875057863
 12
363.9652852445
 22
31.0552422931
 13
363.9652852445
 23
31.0552422931
  0
SOLID
  8
0
 62
7
  6
CONTINUOUS
 10
363.9652852445
 20
31.0552422931
 11
363.7340351343
 21
31.0229779808
 12
363.2715352445
 22
31.0229779808
 13
363.2715352445
 23
31.0229779808
  0
SOLID
  8
0
 62
7
  6
CONTINUOUS
 10
363.1559103548
 20
30.8939238094
 11
363.2715352445
 21
31.0229779808
 12
363.7340351343
 22
31.0229779808
 13
363.7340351343
 23
31.0229779808
  0
SOLID
  8
0
 62
7
  6
CONTINUOUS
 10
363.5027853548
 20
30.926187309
 11
363.1559103548
 21
30.8939238094
 12
363.6184102445
 22
30.9907152029
 13
363.6184102445
 23
30.9907152029
  0
SOLID
  8
0
 62
7
  6
CONTINUOUS
 10
363.1559103548
 20
30.8939238094
 11
363.7340351343
 21
31.0229779898
 12
363.6184102445
 22
30.9907152029
 13
363.6184102445
 23
30.9907152029
  0
SOLID
  8
0
 62
7
  6
CONTINUOUS
 10
363.5027853548
 20
30.926187309
 11
363.4449727445
 21
30.8293967193
 12
363.1559103548
 22
30.8939238094
 13
363.1559103548
 23
30.8939238094
  0
SOLID
  8
0
 62
7
  6
CONTINUOUS
 10
363.1559103548
 20
30.797132416
 11
363.1559103548
 21
30.8939238094
 12
363.4449727445
 22
30.8293967193
 13
363.4449727445
 23
30.8293967193
  0
SOLID
  8
0
 62
7
  6
CONTINUOUS
 10
363.4449727445
 20
30.8293967193
 11
363.4449727445
 21
30.7648681127
 12
363.1559103548
 22
30.797132416
 13
363.1559103548
 23
30.797132416
  0
SOLID
  8
0
 62
7
  6
CONTINUOUS
 10
363.2137226343
 20
30.6680782357
 11
363.1559103548
 21
30.797132416
 12
363.4449727445
 22
30.7648681127
 13
363.4449727445
 23
30.7648681127
  0
SOLID
  8
0
 62
7
  6
CONTINUOUS
 10
364.6012229651
 20
30.8616599362
 11
364.890285024
 21
30.7648681127
 12
364.543410024
 22
30.797132416
 13
364.543410024
 23
30.797132416
  0
SOLID
  8
0
 62
7
  6
CONTINUOUS
 10
364.369972524
 20
30.7003410226
 11
364.543410024
 21
30.797132416
 12
364.890285024
 22
30.7648681127
 13
364.890285024
 23
30.7648681127
  0
SOLID
  8
0
 62
7
  6
CONTINUOUS
 10
364.369972524
 20
30.7003410226
 11
364.890285024
 21
30.7648681127
 12
364.6012229651
 22
30.6680782357
 13
364.6012229651
 23
30.6680782357
  0
SOLID
  8
0
 62
7
  6
CONTINUOUS
 10
364.890285024
 20
30.7648681127
 11
364.9480979651
 21
30.6035511455
 12
364.6012229651
 22
30.6680782357
 13
364.6012229651
 23
30.6680782357
  0
SOLID
  8
0
 62
7
  6
CONTINUOUS
 10
364.6590352445
 20
30.5712868422
 11
364.6012229651
 21
30.6680782357
 12
364.9480979651
 22
30.6035511455
 13
364.9480979651
 23
30.6035511455
  0
SOLID
  8
0
 62
7
  6
CONTINUOUS
 10
364.6590352445
 20
30.5712868422
 11
364.9480979651
 21
30.6035511455
 12
364.716847524
 22
30.5067598731
 13
364.716847524
 23
30.5067598731
  0
SOLID
  8
0
 62
7
  6
CONTINUOUS
 10
364.9480979651
 20
30.6035511455
 11
365.0059102445
 21
30.5067598731
 12
364.716847524
 22
30.5067598731
 13
364.716847524
 23
30.5067598731
  0
SOLID
  8
0
 62
7
  6
CONTINUOUS
 10
360.2652852997
 20
30.7326051679
 11
360.3230977445
 21
30.8293966612
 12
360.6121602997
 22
30.8293966612
 13
360.6121602997
 23
30.8293966612
  0
SOLID
  8
0
 62
7
  6
CONTINUOUS
 10
360.6121602997
 20
30.8293966612
 11
360.5543476894
 21
30.7003410226
 12
360.2652852997
 22
30.7326051679
 13
360.2652852997
 23
30.7326051679
  0
SOLID
  8
0
 62
7
  6
CONTINUOUS
 10
360.091847717
 20
30.6680782357
 11
360.2652852997
 21
30.7326051679
 12
360.5543476894
 22
30.7003410226
 13
360.5543476894
 23
30.7003410226
  0
SOLID
  8
0
 62
7
  6
CONTINUOUS
 10
360.091847717
 20
30.6680782357
 11
360.5543476894
 21
30.7003410226
 12
359.6871602721
 22
30.6358139324
 13
359.6871602721
 23
30.6358139324
  0
SOLID
  8
0
 62
7
  6
CONTINUOUS
 10
360.5543476894
 20
30.7003410226
 11
360.3809101894
 21
30.6035511455
 12
359.6871602721
 22
30.6358139324
 13
359.6871602721
 23
30.6358139324
  0
SOLID
  8
0
 62
7
  6
CONTINUOUS
 10
359.2246602583
 20
30.5712868422
 11
359.6871602721
 21
30.6358139324
 12
360.3809101894
 22
30.6035511455
 13
360.3809101894
 23
30.6035511455
  0
SOLID
  8
0
 62
7
  6
CONTINUOUS
 10
359.2246602583
 20
30.5712868422
 11
360.3809101894
 21
30.6035511455
 12
359.3980977583
 22
30.5390224228
 13
359.3980977583
 23
30.5390224228
  0
SOLID
  8
0
 62
7
  6
CONTINUOUS
 10
360.3809101894
 20
30.6035511455
 11
360.1496602445
 21
30.5390224228
 12
359.3980977583
 22
30.5390224228
 13
359.3980977583
 23
30.5390224228
  0
SOLID
  8
0
 62
7
  6
CONTINUOUS
 10
359.744972717
 20
30.5067597521
 11
359.3980977583
 21
30.5390224228
 12
360.1496602445
 22
30.5390224228
 13
360.1496602445
 23
30.5390224228
  0
SOLID
  8
0
 62
7
  6
CONTINUOUS
 10
363.2137226343
 20
30.6680782357
 11
363.4449727445
 21
30.7648681127
 12
363.5027853548
 22
30.7003410226
 13
363.5027853548
 23
30.7003410226
  0
SOLID
  8
0
 62
7
  6
CONTINUOUS
 10
363.5027853548
 20
30.7003410226
 11
363.7340351343
 21
30.6358139324
 12
363.2137226343
 22
30.6680782357
 13
363.2137226343
 23
30.6680782357
  0
SOLID
  8
0
 62
7
  6
CONTINUOUS
 10
363.3871601343
 20
30.5712868422
 11
363.2137226343
 21
30.6680782357
 12
363.7340351343
 22
30.6358139324
 13
363.7340351343
 23
30.6358139324
  0
SOLID
  8
0
 62
7
  6
CONTINUOUS
 10
364.0809101343
 20
30.6358139363
 11
364.369972524
 21
30.7003410226
 12
364.6012229651
 22
30.6680782357
 13
364.6012229651
 23
30.6680782357
  0
SOLID
  8
0
 62
7
  6
CONTINUOUS
 10
364.6012229651
 20
30.6680782357
 11
364.543410024
 21
30.6035511455
 12
364.0809101343
 22
30.6358139363
 13
364.0809101343
 23
30.6358139363
  0
SOLID
  8
0
 62
7
  6
CONTINUOUS
 10
364.543410024
 20
30.6035511455
 11
363.3871601343
 21
30.5712868422
 12
364.0809101343
 22
30.6358139363
 13
364.0809101343
 23
30.6358139363
  0
SOLID
  8
0
 62
7
  6
CONTINUOUS
 10
363.3871601343
 20
30.5712868422
 11
363.7340351343
 21
30.6358139363
 12
364.0809101343
 22
30.6358139363
 13
364.0809101343
 23
30.6358139363
  0
SOLID
  8
0
 62
7
  6
CONTINUOUS
 10
363.3871601343
 20
30.5712868422
 11
364.543410024
 21
30.6035511455
 12
363.5027853548
 22
30.5390225267
 13
363.5027853548
 23
30.5390225267
  0
SOLID
  8
0
 62
7
  6
CONTINUOUS
 10
364.543410024
 20
30.6035511455
 11
364.369972524
 21
30.5390225267
 12
363.5027853548
 22
30.5390225267
 13
363.5027853548
 23
30.5390225267
  0
SOLID
  8
0
 62
7
  6
CONTINUOUS
 10
363.7340351343
 20
30.5067596914
 11
363.5027853548
 21
30.5390225267
 12
364.369972524
 22
30.5390225267
 13
364.369972524
 23
30.5390225267
  0
SOLID
  8
0
 62
7
  6
CONTINUOUS
 10
364.369972524
 20
30.5390225267
 11
364.0809101343
 21
30.5067596914
 12
363.7340351343
 22
30.5067596914
 13
363.7340351343
 23
30.5067596914
  0
SOLID
  8
0
 62
7
  6
CONTINUOUS
 10
368.7637229651
 20
30.6680782357
 11
368.4168479651
 21
30.6358138717
 12
368.6480977445
 22
30.7003410226
 13
368.6480977445
 23
30.7003410226
  0
SOLID
  8
0
 62
7
  6
CONTINUOUS
 10
368.6480977445
 20
30.7003410226
 11
368.4168479651
 21
30.6358138717
 12
368.5902854651
 22
30.7648680521
 13
368.5902854651
 23
30.7648680521
  0
SOLID
  8
0
 62
7
  6
CONTINUOUS
 10
368.4168479651
 20
30.6358138717
 11
368.3012227445
 21
30.7648680521
 12
368.5902854651
 22
30.7648680521
 13
368.5902854651
 23
30.7648680521
  0
SOLID
  8
0
 62
7
  6
CONTINUOUS
 10
368.7637229651
 20
30.6680782357
 11
369.1105979651
 21
30.6358138717
 12
368.4168479651
 22
30.6358138717
 13
368.4168479651
 23
30.6358138717
  0
SOLID
  8
0
 62
7
  6
CONTINUOUS
 10
365.4684104651
 20
30.5067597521
 11
365.4684104651
 21
31.5391977439
 12
365.757472524
 22
30.5067597521
 13
365.757472524
 23
31.5391977439
  0
ENDBLK
  8
0
  6
BYBLOCK
 62
0
  0
BLOCK
  8
0
 62
2
  6
CONTINUOUS
  2
SYMBOL_0_BL0
 70
64
 10
240.8592468615
 20
19.762288695
  0
TEXT
  8
0
 62
7
  6
CONTINUOUS
 10
227.1239507038
 20
19.1357028027
  7
TEXTSTYLE_3
 40
2.7338706658
  1
Ammeraal Beltech
 41
1.0
 51
15.0
 72
0
  0
TEXT
  8
0
 62
7
  6
CONTINUOUS
 10
237.9247515296
 20
16.8621661299
  7
TEXTSTYLE_4
 40
1.0935482663
  1
Innovation & Service in Belting
 41
1.0
 72
0
  0
LINE
  8
0
 62
7
  6
CONTINUOUS
 10
221.0994100525
 20
19.9022961113
 11
221.8775620458
 21
23.5632134089
  0
LINE
  8
0
 62
7
  6
CONTINUOUS
 10
231.9727303357
 20
27.2266073205
 11
222.3653797889
 21
24.1049898993
  0
LINE
  8
0
 62
7
  6
CONTINUOUS
 10
221.3246933848
 20
19.2089453082
 11
228.8317686459
 21
12.4495443822
  0
LINE
  8
0
 62
7
  6
CONTINUOUS
 10
221.5872277955
 20
20.4440726016
 11
232.3954971607
 21
23.9558922005
  0
LINE
  8
0
 62
7
  6
CONTINUOUS
 10
232.3912920235
 20
13.6061036368
 11
223.9458323548
 21
21.2104296785
  0
LINE
  8
0
 62
7
  6
CONTINUOUS
 10
232.9111147433
 20
26.3816822048
 11
231.9345552061
 21
21.7873308023
  0
LINE
  8
0
 62
7
  6
CONTINUOUS
 10
231.2347532584
 20
18.4950214885
 11
230.5483050469
 21
15.2655365641
  0
LINE
  8
0
 62
7
  6
CONTINUOUS
 10
233.5922108419
 20
13.9963058145
 11
234.5484423775
 21
18.4950214885
  0
LINE
  8
0
 62
7
  6
CONTINUOUS
 10
235.2482443252
 20
21.7873308023
 11
235.6924861276
 21
23.8773241617
  0
LINE
  8
0
 62
7
  6
CONTINUOUS
 10
229.5448697213
 20
12.2979700695
 11
233.1043930989
 21
13.4545293241
  0
LINE
  8
0
 62
7
  6
CONTINUOUS
 10
232.685831411
 20
27.0750330078
 11
235.4672027953
 21
24.5706749648
  0
ARC
  8
0
 62
7
  6
CONTINUOUS
 10
222.5906631212
 20
23.4116390962
 40
0.7290321776
 50
108.0
 51
168.0
  0
ARC
  8
0
 62
7
  6
CONTINUOUS
 10
232.198013668
 20
26.5332565175
 40
0.7290321776
 50
348.0
 51
108.0
  0
ARC
  8
0
 62
7
  6
CONTINUOUS
 10
234.9793850522
 20
24.0288984744
 40
0.7290321776
 50
348.0
 51
48.0
  0
ARC
  8
0
 62
7
  6
CONTINUOUS
 10
229.319586389
 20
12.9913208726
 40
0.7290321776
 50
228.0
 51
288.0
  0
ARC
  8
0
 62
7
  6
CONTINUOUS
 10
221.8125111278
 20
19.7507217986
 40
0.7290321776
 50
108.0
 51
228.0
  0
ARC
  8
0
 62
7
  6
CONTINUOUS
 10
232.8791097665
 20
14.1478801272
 40
0.7290321776
 50
228.0
 51
348.0
  0
ENDBLK
  8
0
  6
BYBLOCK
 62
0
  0
ENDSEC
  0
SECTION
  2
ENTITIES
  0
TEXT
  8
0
 62
5
  6
CONTINUOUS
 10
304.937007874
 20
25.636
  7
TEXTSTYLE_2
 40
2.8
  1
Scale :
 41
0.6
 51
0.000019
 72
0
  0
TEXT
  8
0
 62
5
  6
CONTINUOUS
 10
324.937007874
 20
25.636
  7
TEXTSTYLE_2
 40
2.8
  1
Belt type:
 41
0.6
 51
0.000019
 72
0
  0
INSERT
  8
0
 62
2
  6
CONTINUOUS
  2
SYMBOL_0_BL0
 10
240.8592468615
 20
19.762288695
  0
INSERT
  8
0
 62
2
  6
CONTINUOUS
  2
SYMBOL_5_BL1
 10
382.7840918555
 20
35.5067593403
  0
LINE
  8
0
 62
2
  6
CONTINUOUS
 10
218.937007874
 20
30.0
 11
408.937007874
 21
30.0
  0
LINE
  8
0
 62
2
  6
CONTINUOUS
 10
218.937007874
 20
30.0
 11
218.937007874
 21
10.0
  0
LINE
  8
0
 62
2
  6
CONTINUOUS
 10
218.937007874
 20
10.0
 11
408.937007874
 21
10.0
  0
LINE
  8
0
 62
2
  6
CONTINUOUS
 10
303.937007874
 20
30.0
 11
303.937007874
 21
10.0
  0
LINE
  8
0
 62
2
  6
CONTINUOUS
 10
323.937007874
 20
30.0
 11
323.937007874
 21
10.0
  0
LINE
  8
0
 62
2
  6
CONTINUOUS
 10
408.937007874
 20
30.0
 11
408.937007874
 21
10.0
  0
TEXT
  8
0
 62
5
  6
CONTINUOUS
 10
221.937007874
 20
23.303
  7
TEXTSTYLE_5
 40
1.52
  1
                                                                     Ammeraal Beltech Modular A/S
 41
1.0
 72
0
  0
TEXT
  8
0
 62
5
  6
CONTINUOUS
 10
221.937007874
 20
20.595
  7
TEXTSTYLE_5
 40
1.5
  1
                                                                      Hjulmagervej 21, 7100 Vejle,  DK
 41
1.0
 72
0
  0
TEXT
  8
0
 62
5
  6
CONTINUOUS
 10
221.937007874
 20
17.881
  7
TEXTSTYLE_5
 40
1.495
  1
                                                                      tel: 
 41
1.0
 72
0
  0
TEXT
  8
0
 62
5
  6
CONTINUOUS
 10
266.9239544389
 20
17.881
  7
TEXTSTYLE_5
 40
1.51
  1
+45 75723100     fax: +45 75723348
 41
1.0
 72
0
  0
TEXT
  8
0
 62
5
  6
CONTINUOUS
 10
221.937007874
 20
15.177
  7
TEXTSTYLE_5
 40
1.5
  1
                                                                      admin@unichains.dk  www.unichains.com
 41
1.0
 72
0
  0
TEXT
  8
0
 62
5
  6
CONTINUOUS
 10
308.687007874
 20
13.75
  7
TEXTSTYLE_6
 40
5.0
  1
1:1
 41
0.7
 72
1
 11
313.937007874
 21
13.75
  0
TEXT
  8
0
 62
5
  6
CONTINUOUS
 10
326.937007874
 20
13.75
  7
TEXTSTYLE_7
 40
7.5
  1
uni S-MPB-00 TAB K725
 41
0.5160714286
 72
0
  0
LINE
  8
0
 62
7
  6
CONTINUOUS
 10
0.0
 20
0.0
 11
0.0
 21
297.0
  0
LINE
  8
0
 62
7
  6
CONTINUOUS
 10
8.937007874
 20
10.0
 11
8.937007874
 21
287.0
  0
LINE
  8
0
 62
7
  6
CONTINUOUS
 10
0.0
 20
0.0
 11
420.0
 21
0.0
  0
LINE
  8
0
 62
7
  6
CONTINUOUS
 10
408.937007874
 20
10.0
 11
8.937007874
 21
10.0
  0
LINE
  8
0
 62
7
  6
CONTINUOUS
 10
218.937007874
 20
30.0
 11
408.937007874
 21
30.0
  0
LINE
  8
0
 62
7
  6
CONTINUOUS
 10
210.0
 20
297.0
 11
210.0
 21
292.0
  0
LINE
  8
0
 62
7
  6
CONTINUOUS
 10
210.0
 20
0.0
 11
210.0
 21
5.0
  0
LINE
  8
0
 62
7
  6
CONTINUOUS
 10
8.937007874
 20
287.0
 11
408.937007874
 21
287.0
  0
LINE
  8
0
 62
7
  6
CONTINUOUS
 10
0.0
 20
297.0
 11
420.0
 21
297.0
  0
LINE
  8
0
 62
7
  6
CONTINUOUS
 10
408.937007874
 20
287.0
 11
408.937007874
 21
10.0
  0
LINE
  8
0
 62
7
  6
CONTINUOUS
 10
420.0
 20
0.0
 11
420.0
 21
297.0
  0
POLYLINE
  8
0
 62
7
  6
CONTINUOUS
 66
1
 70
0
  0
VERTEX
  8
0
 62
7
  6
CONTINUOUS
 10
49.9789219055
 20
192.3378475439
  0
VERTEX
  8
0
 62
7
  6
CONTINUOUS
 10
50.0167562422
 20
191.9448482438
  0
VERTEX
  8
0
 62
7
  6
CONTINUOUS
 10
50.07530318
 20
191.4735938396
  0
VERTEX
  8
0
 62
7
  6
CONTINUOUS
 10
50.1464972256
 20
191.0239108792
  0
VERTEX
  8
0
 62
7
  6
CONTINUOUS
 10
50.2302335645
 20
190.5991164747
  0
VERTEX
  8
0
 62
7
  6
CONTINUOUS
 10
50.326506061
 20
190.2026888735
  0
VERTEX
  8
0
 62
7
  6
CONTINUOUS
 10
50.4354839053
 20
189.8382271397
  0
VERTEX
  8
0
 62
7
  6
CONTINUOUS
 10
50.5570561249
 20
189.5109007225
  0
VERTEX
  8
0
 62
7
  6
CONTINUOUS
 10
50.6894907957
 20
189.22892608
  0
VERTEX
  8
0
 62
7
  6
CONTINUOUS
 10
50.8312036588
 20
188.9970592887
  0
VERTEX
  8
0
 62
7
  6
CONTINUOUS
 10
50.9817804096
 20
188.8161804183
  0
VERTEX
  8
0
 62
7
  6
CONTINUOUS
 10
51.1413244357
 20
188.6858343559
  0
VERTEX
  8
0
 62
7
  6
CONTINUOUS
 10
51.2747645606
 20
188.617796889
  0
SEQEND
  0
POLYLINE
  8
0
 62
7
  6
CONTINUOUS
 66
1
 70
0
  0
VERTEX
  8
0
 62
7
  6
CONTINUOUS
 10
49.771220559
 20
220.913868133
  0
VERTEX
  8
0
 62
7
  6
CONTINUOUS
 10
49.7336984046
 20
221.3039868313
  0
VERTEX
  8
0
 62
7
  6
CONTINUOUS
 10
49.6754576214
 20
221.7737241135
  0
VERTEX
  8
0
 62
7
  6
CONTINUOUS
 10
49.6050195868
 20
222.2200234587
  0
VERTEX
  8
0
 62
7
  6
CONTINUOUS
 10
49.5222173272
 20
222.6420233184
  0
VERTEX
  8
0
 62
7
  6
CONTINUOUS
 10
49.4265642156
 20
223.0381182016
  0
VERTEX
  8
0
 62
7
  6
CONTINUOUS
 10
49.3172070126
 20
223.4058053824
  0
VERTEX
  8
0
 62
7
  6
CONTINUOUS
 10
49.1938832016
 20
223.7388996412
  0
VERTEX
  8
0
 62
7
  6
CONTINUOUS
 10
49.0595615979
 20
224.0248311859
  0
VERTEX
  8
0
 62
7
  6
CONTINUOUS
 10
48.9175488147
 20
224.256616142
  0
VERTEX
  8
0
 62
7
  6
CONTINUOUS
 10
48.7683057528
 20
224.4355917095
  0
VERTEX
  8
0
 62
7
  6
CONTINUOUS
 10
48.6106752718
 20
224.564685664
  0
VERTEX
  8
0
 62
7
  6
CONTINUOUS
 10
48.4753453848
 20
224.6339286562
  0
SEQEND
  0
LINE
  8
0
 62
7
  6
CONTINUOUS
 10
49.9789001235
 20
192.3383640668
 11
49.9789219132
 21
192.337851309
  0
LINE
  8
0
 62
7
  6
CONTINUOUS
 10
49.7712205496
 20
220.913863556
 11
49.7712423379
 21
220.9133505039
  0
LINE
  8
0
 62
7
  6
CONTINUOUS
 10
43.5861212307
 20
197.1969432867
 11
43.5861212307
 21
224.425863411
  0
LINE
  8
0
 62
7
  6
CONTINUOUS
 10
49.7712423379
 20
216.4648991662
 11
49.7712423379
 21
220.9133495501
  0
LINE
  8
0
 62
7
  6
CONTINUOUS
 10
49.9789001235
 20
196.8619426658
 11
49.9789001235
 21
192.3383684973
  0
POLYLINE
  8
0
 62
7
  6
CONTINUOUS
 66
1
 70
0
  0
VERTEX
  8
0
 62
7
  6
CONTINUOUS
 10
62.6789219055
 20
192.3378475439
  0
VERTEX
  8
0
 62
7
  6
CONTINUOUS
 10
62.7167562422
 20
191.9448482438
  0
VERTEX
  8
0
 62
7
  6
CONTINUOUS
 10
62.77530318
 20
191.4735938396
  0
VERTEX
  8
0
 62
7
  6
CONTINUOUS
 10
62.8464972256
 20
191.0239108792
  0
VERTEX
  8
0
 62
7
  6
CONTINUOUS
 10
62.9302335645
 20
190.5991164746
  0
VERTEX
  8
0
 62
7
  6
CONTINUOUS
 10
63.026506061
 20
190.2026888735
  0
VERTEX
  8
0
 62
7
  6
CONTINUOUS
 10
63.1354839053
 20
189.8382271397
  0
VERTEX
  8
0
 62
7
  6
CONTINUOUS
 10
63.2570561249
 20
189.5109007225
  0
VERTEX
  8
0
 62
7
  6
CONTINUOUS
 10
63.3894907957
 20
189.22892608
  0
VERTEX
  8
0
 62
7
  6
CONTINUOUS
 10
63.5312036588
 20
188.9970592887
  0
VERTEX
  8
0
 62
7
  6
CONTINUOUS
 10
63.6817804096
 20
188.8161804183
  0
VERTEX
  8
0
 62
7
  6
CONTINUOUS
 10
63.8413244357
 20
188.6858343559
  0
VERTEX
  8
0
 62
7
  6
CONTINUOUS
 10
63.9747645606
 20
188.617796889
  0
SEQEND
  0
POLYLINE
  8
0
 62
7
  6
CONTINUOUS
 66
1
 70
0
  0
VERTEX
  8
0
 62
7
  6
CONTINUOUS
 10
62.471220559
 20
220.913868133
  0
VERTEX
  8
0
 62
7
  6
CONTINUOUS
 10
62.4336984046
 20
221.3039868313
  0
VERTEX
  8
0
 62
7
  6
CONTINUOUS
 10
62.3754576214
 20
221.7737241135
  0
VERTEX
  8
0
 62
7
  6
CONTINUOUS
 10
62.3050195868
 20
222.2200234587
  0
VERTEX
  8
0
 62
7
  6
CONTINUOUS
 10
62.2222173272
 20
222.6420233184
  0
VERTEX
  8
0
 62
7
  6
CONTINUOUS
 10
62.1265642156
 20
223.0381182016
  0
VERTEX
  8
0
 62
7
  6
CONTINUOUS
 10
62.0172070126
 20
223.4058053824
  0
VERTEX
  8
0
 62
7
  6
CONTINUOUS
 10
61.8938832016
 20
223.7388996412
  0
VERTEX
  8
0
 62
7
  6
CONTINUOUS
 10
61.7595615979
 20
224.0248311859
  0
VERTEX
  8
0
 62
7
  6
CONTINUOUS
 10
61.6175488147
 20
224.256616142
  0
VERTEX
  8
0
 62
7
  6
CONTINUOUS
 10
61.4683057528
 20
224.4355917095
  0
VERTEX
  8
0
 62
7
  6
CONTINUOUS
 10
61.3106752718
 20
224.564685664
  0
VERTEX
  8
0
 62
7
  6
CONTINUOUS
 10
61.1753453848
 20
224.6339286562
  0
SEQEND
  0
LINE
  8
0
 62
7
  6
CONTINUOUS
 10
62.6789001235
 20
192.3383640668
 11
62.6789219132
 21
192.337851309
  0
LINE
  8
0
 62
7
  6
CONTINUOUS
 10
62.4712205496
 20
220.913863556
 11
62.4712423379
 21
220.9133505039
  0
LINE
  8
0
 62
7
  6
CONTINUOUS
 10
56.1213423379
 20
192.3383661656
 11
56.1213423379
 21
196.8619410402
  0
LINE
  8
0
 62
7
  6
CONTINUOUS
 10
56.3288001235
 20
220.9133495517
 11
56.3288001235
 21
216.4648996001
  0
LINE
  8
0
 62
7
  6
CONTINUOUS
 10
62.4712423379
 20
216.4648991662
 11
62.4712423379
 21
220.9133495501
  0
LINE
  8
0
 62
7
  6
CONTINUOUS
 10
62.6789001235
 20
196.8619426658
 11
62.6789001235
 21
192.3383684973
  0
LINE
  8
0
 62
7
  6
CONTINUOUS
 10
68.8213423379
 20
192.3383661656
 11
68.8213423379
 21
196.8619410402
  0
LINE
  8
0
 62
7
  6
CONTINUOUS
 10
69.0288001235
 20
220.9133495517
 11
69.0288001235
 21
216.4648996001
  0
POLYLINE
  8
0
 62
7
  6
CONTINUOUS
 66
1
 70
0
  0
VERTEX
  8
0
 62
7
  6
CONTINUOUS
 10
56.3288006979
 20
216.4653848274
  0
VERTEX
  8
0
 62
7
  6
CONTINUOUS
 10
56.3284983018
 20
216.4555943563
  0
VERTEX
  8
0
 62
7
  6
CONTINUOUS
 10
56.3256913021
 20
216.4340827062
  0
VERTEX
  8
0
 62
7
  6
CONTINUOUS
 10
56.3197321147
 20
216.4123753719
  0
VERTEX
  8
0
 62
7
  6
CONTINUOUS
 10
56.310468658
 20
216.3910826695
  0
VERTEX
  8
0
 62
7
  6
CONTINUOUS
 10
56.2978768555
 20
216.3708463578
  0
VERTEX
  8
0
 62
7
  6
CONTINUOUS
 10
56.2820367165
 20
216.3522822216
  0
VERTEX
  8
0
 62
7
  6
CONTINUOUS
 10
56.2631568319
 20
216.3360117559
  0
VERTEX
  8
0
 62
7
  6
CONTINUOUS
 10
56.2415843971
 20
216.3226341765
  0
VERTEX
  8
0
 62
7
  6
CONTINUOUS
 10
56.2178001613
 20
216.3126897683
  0
VERTEX
  8
0
 62
7
  6
CONTINUOUS
 10
56.1924204647
 20
216.3066309178
  0
VERTEX
  8
0
 62
7
  6
CONTINUOUS
 10
56.1681819719
 20
216.3047729093
  0
SEQEND
  0
POLYLINE
  8
0
 62
7
  6
CONTINUOUS
 66
1
 70
0
  0
VERTEX
  8
0
 62
7
  6
CONTINUOUS
 10
69.0288006979
 20
216.4653848274
  0
VERTEX
  8
0
 62
7
  6
CONTINUOUS
 10
69.0284983018
 20
216.4555943563
  0
VERTEX
  8
0
 62
7
  6
CONTINUOUS
 10
69.0256913021
 20
216.4340827062
  0
VERTEX
  8
0
 62
7
  6
CONTINUOUS
 10
69.0197321147
 20
216.4123753719
  0
VERTEX
  8
0
 62
7
  6
CONTINUOUS
 10
69.010468658
 20
216.3910826695
  0
VERTEX
  8
0
 62
7
  6
CONTINUOUS
 10
68.9978768555
 20
216.3708463578
  0
VERTEX
  8
0
 62
7
  6
CONTINUOUS
 10
68.9820367165
 20
216.3522822216
  0
VERTEX
  8
0
 62
7
  6
CONTINUOUS
 10
68.9631568319
 20
216.3360117559
  0
VERTEX
  8
0
 62
7
  6
CONTINUOUS
 10
68.9415843971
 20
216.3226341765
  0
VERTEX
  8
0
 62
7
  6
CONTINUOUS
 10
68.9178001613
 20
216.3126897683
  0
VERTEX
  8
0
 62
7
  6
CONTINUOUS
 10
68.8924204647
 20
216.3066309178
  0
VERTEX
  8
0
 62
7
  6
CONTINUOUS
 10
68.8681819719
 20
216.3047729093
  0
SEQEND
  0
POLYLINE
  8
0
 62
7
  6
CONTINUOUS
 66
1
 70
0
  0
VERTEX
  8
0
 62
7
  6
CONTINUOUS
 10
56.1213420451
 20
196.8616517442
  0
VERTEX
  8
0
 62
7
  6
CONTINUOUS
 10
56.121504741
 20
196.866886924
  0
VERTEX
  8
0
 62
7
  6
CONTINUOUS
 10
56.1238475265
 20
196.8820904929
  0
VERTEX
  8
0
 62
7
  6
CONTINUOUS
 10
56.129305532
 20
196.8975348797
  0
VERTEX
  8
0
 62
7
  6
CONTINUOUS
 10
56.1381958849
 20
196.9124505762
  0
VERTEX
  8
0
 62
7
  6
CONTINUOUS
 10
56.1506906476
 20
196.9259485734
  0
VERTEX
  8
0
 62
7
  6
CONTINUOUS
 10
56.1667417126
 20
196.9369834868
  0
VERTEX
  8
0
 62
7
  6
CONTINUOUS
 10
56.1859681741
 20
196.9443809401
  0
VERTEX
  8
0
 62
7
  6
CONTINUOUS
 10
56.2066359831
 20
196.9469433641
  0
SEQEND
  0
POLYLINE
  8
0
 62
7
  6
CONTINUOUS
 66
1
 70
0
  0
VERTEX
  8
0
 62
7
  6
CONTINUOUS
 10
68.8213420451
 20
196.8616517442
  0
VERTEX
  8
0
 62
7
  6
CONTINUOUS
 10
68.821504741
 20
196.866886924
  0
VERTEX
  8
0
 62
7
  6
CONTINUOUS
 10
68.8238475265
 20
196.8820904929
  0
VERTEX
  8
0
 62
7
  6
CONTINUOUS
 10
68.829305532
 20
196.8975348797
  0
VERTEX
  8
0
 62
7
  6
CONTINUOUS
 10
68.8381958849
 20
196.9124505762
  0
VERTEX
  8
0
 62
7
  6
CONTINUOUS
 10
68.8506906476
 20
196.9259485734
  0
VERTEX
  8
0
 62
7
  6
CONTINUOUS
 10
68.8667417126
 20
196.9369834868
  0
VERTEX
  8
0
 62
7
  6
CONTINUOUS
 10
68.8859681741
 20
196.9443809401
  0
VERTEX
  8
0
 62
7
  6
CONTINUOUS
 10
68.9066359831
 20
196.9469433641
  0
SEQEND
  0
LINE
  8
0
 62
7
  6
CONTINUOUS
 10
56.3288219143
 20
220.9138635865
 11
56.3288001235
 21
220.9133505055
  0
LINE
  8
0
 62
7
  6
CONTINUOUS
 10
56.1213205489
 20
192.3378521514
 11
56.1213423379
 21
192.3383652113
  0
LINE
  8
0
 62
7
  6
CONTINUOUS
 10
69.0288219143
 20
220.9138635865
 11
69.0288001235
 21
220.9133505055
  0
LINE
  8
0
 62
7
  6
CONTINUOUS
 10
68.8213205489
 20
192.3378521514
 11
68.8213423379
 21
192.3383652113
  0
POLYLINE
  8
0
 62
7
  6
CONTINUOUS
 66
1
 70
0
  0
VERTEX
  8
0
 62
7
  6
CONTINUOUS
 10
43.5861212307
 20
220.9030388695
  0
VERTEX
  8
0
 62
7
  6
CONTINUOUS
 10
43.5945181395
 20
220.9131903312
  0
VERTEX
  8
0
 62
7
  6
CONTINUOUS
 10
43.6192320145
 20
220.9226255437
  0
VERTEX
  8
0
 62
7
  6
CONTINUOUS
 10
43.6587354606
 20
220.9307200066
  0
VERTEX
  8
0
 62
7
  6
CONTINUOUS
 10
43.7104657559
 20
220.9369329738
  0
VERTEX
  8
0
 62
7
  6
CONTINUOUS
 10
43.7709664902
 20
220.9408439073
  0
VERTEX
  8
0
 62
7
  6
CONTINUOUS
 10
43.8361212307
 20
220.9421808275
  0
SEQEND
  0
POLYLINE
  8
0
 62
7
  6
CONTINUOUS
 66
1
 70
0
  0
VERTEX
  8
0
 62
7
  6
CONTINUOUS
 10
49.9789219132
 20
192.337851309
  0
VERTEX
  8
0
 62
7
  6
CONTINUOUS
 10
49.9874033398
 20
192.3285807757
  0
VERTEX
  8
0
 62
7
  6
CONTINUOUS
 10
50.0119862868
 20
192.3202862763
  0
VERTEX
  8
0
 62
7
  6
CONTINUOUS
 10
50.0511222079
 20
192.3138868633
  0
VERTEX
  8
0
 62
7
  6
CONTINUOUS
 10
50.1023520171
 20
192.3097978613
  0
VERTEX
  8
0
 62
7
  6
CONTINUOUS
 10
50.1624027882
 20
192.3083024164
  0
VERTEX
  8
0
 62
7
  6
CONTINUOUS
 10
50.2289001235
 20
192.3095348524
  0
SEQEND
  0
POLYLINE
  8
0
 62
7
  6
CONTINUOUS
 66
1
 70
0
  0
VERTEX
  8
0
 62
7
  6
CONTINUOUS
 10
75.3789219055
 20
192.3378475439
  0
VERTEX
  8
0
 62
7
  6
CONTINUOUS
 10
75.4167562422
 20
191.9448482438
  0
VERTEX
  8
0
 62
7
  6
CONTINUOUS
 10
75.47530318
 20
191.4735938396
  0
VERTEX
  8
0
 62
7
  6
CONTINUOUS
 10
75.5464972256
 20
191.0239108792
  0
VERTEX
  8
0
 62
7
  6
CONTINUOUS
 10
75.6302335645
 20
190.5991164746
  0
VERTEX
  8
0
 62
7
  6
CONTINUOUS
 10
75.726506061
 20
190.2026888735
  0
VERTEX
  8
0
 62
7
  6
CONTINUOUS
 10
75.8354839053
 20
189.8382271397
  0
VERTEX
  8
0
 62
7
  6
CONTINUOUS
 10
75.9570561249
 20
189.5109007225
  0
VERTEX
  8
0
 62
7
  6
CONTINUOUS
 10
76.0894907957
 20
189.22892608
  0
VERTEX
  8
0
 62
7
  6
CONTINUOUS
 10
76.2312036588
 20
188.9970592887
  0
VERTEX
  8
0
 62
7
  6
CONTINUOUS
 10
76.3817804096
 20
188.8161804183
  0
VERTEX
  8
0
 62
7
  6
CONTINUOUS
 10
76.5413244357
 20
188.6858343559
  0
VERTEX
  8
0
 62
7
  6
CONTINUOUS
 10
76.6747645606
 20
188.617796889
  0
SEQEND
  0
POLYLINE
  8
0
 62
7
  6
CONTINUOUS
 66
1
 70
0
  0
VERTEX
  8
0
 62
7
  6
CONTINUOUS
 10
88.0789219055
 20
192.3378475439
  0
VERTEX
  8
0
 62
7
  6
CONTINUOUS
 10
88.1167562422
 20
191.9448482438
  0
VERTEX
  8
0
 62
7
  6
CONTINUOUS
 10
88.17530318
 20
191.4735938396
  0
VERTEX
  8
0
 62
7
  6
CONTINUOUS
 10
88.2464972256
 20
191.0239108792
  0
VERTEX
  8
0
 62
7
  6
CONTINUOUS
 10
88.3302335645
 20
190.5991164747
  0
VERTEX
  8
0
 62
7
  6
CONTINUOUS
 10
88.426506061
 20
190.2026888735
  0
VERTEX
  8
0
 62
7
  6
CONTINUOUS
 10
88.5354839053
 20
189.8382271397
  0
VERTEX
  8
0
 62
7
  6
CONTINUOUS
 10
88.6570561249
 20
189.5109007225
  0
VERTEX
  8
0
 62
7
  6
CONTINUOUS
 10
88.7894907957
 20
189.22892608
  0
VERTEX
  8
0
 62
7
  6
CONTINUOUS
 10
88.9312036588
 20
188.9970592887
  0
VERTEX
  8
0
 62
7
  6
CONTINUOUS
 10
89.0817804096
 20
188.8161804183
  0
VERTEX
  8
0
 62
7
  6
CONTINUOUS
 10
89.2413244357
 20
188.6858343559
  0
VERTEX
  8
0
 62
7
  6
CONTINUOUS
 10
89.3747645606
 20
188.617796889
  0
SEQEND
  0
POLYLINE
  8
0
 62
7
  6
CONTINUOUS
 66
1
 70
0
  0
VERTEX
  8
0
 62
7
  6
CONTINUOUS
 10
75.171220559
 20
220.913868133
  0
VERTEX
  8
0
 62
7
  6
CONTINUOUS
 10
75.1336984046
 20
221.3039868313
  0
VERTEX
  8
0
 62
7
  6
CONTINUOUS
 10
75.0754576214
 20
221.7737241135
  0
VERTEX
  8
0
 62
7
  6
CONTINUOUS
 10
75.0050195868
 20
222.2200234587
  0
VERTEX
  8
0
 62
7
  6
CONTINUOUS
 10
74.9222173272
 20
222.6420233184
  0
VERTEX
  8
0
 62
7
  6
CONTINUOUS
 10
74.8265642156
 20
223.0381182016
  0
VERTEX
  8
0
 62
7
  6
CONTINUOUS
 10
74.7172070126
 20
223.4058053824
  0
VERTEX
  8
0
 62
7
  6
CONTINUOUS
 10
74.5938832016
 20
223.7388996412
  0
VERTEX
  8
0
 62
7
  6
CONTINUOUS
 10
74.4595615979
 20
224.0248311859
  0
VERTEX
  8
0
 62
7
  6
CONTINUOUS
 10
74.3175488147
 20
224.256616142
  0
VERTEX
  8
0
 62
7
  6
CONTINUOUS
 10
74.1683057528
 20
224.4355917095
  0
VERTEX
  8
0
 62
7
  6
CONTINUOUS
 10
74.0106752718
 20
224.564685664
  0
VERTEX
  8
0
 62
7
  6
CONTINUOUS
 10
73.8753453848
 20
224.6339286562
  0
SEQEND
  0
POLYLINE
  8
0
 62
7
  6
CONTINUOUS
 66
1
 70
0
  0
VERTEX
  8
0
 62
7
  6
CONTINUOUS
 10
87.871220559
 20
220.913868133
  0
VERTEX
  8
0
 62
7
  6
CONTINUOUS
 10
87.8336984046
 20
221.3039868313
  0
VERTEX
  8
0
 62
7
  6
CONTINUOUS
 10
87.7754576214
 20
221.7737241135
  0
VERTEX
  8
0
 62
7
  6
CONTINUOUS
 10
87.7050195868
 20
222.2200234587
  0
VERTEX
  8
0
 62
7
  6
CONTINUOUS
 10
87.6222173272
 20
222.6420233184
  0
VERTEX
  8
0
 62
7
  6
CONTINUOUS
 10
87.5265642156
 20
223.0381182016
  0
VERTEX
  8
0
 62
7
  6
CONTINUOUS
 10
87.4172070126
 20
223.4058053824
  0
VERTEX
  8
0
 62
7
  6
CONTINUOUS
 10
87.2938832016
 20
223.7388996412
  0
VERTEX
  8
0
 62
7
  6
CONTINUOUS
 10
87.1595615979
 20
224.0248311859
  0
VERTEX
  8
0
 62
7
  6
CONTINUOUS
 10
87.0175488147
 20
224.256616142
  0
VERTEX
  8
0
 62
7
  6
CONTINUOUS
 10
86.8683057528
 20
224.4355917095
  0
VERTEX
  8
0
 62
7
  6
CONTINUOUS
 10
86.7106752718
 20
224.564685664
  0
VERTEX
  8
0
 62
7
  6
CONTINUOUS
 10
86.5753453848
 20
224.6339286562
  0
SEQEND
  0
LINE
  8
0
 62
7
  6
CONTINUOUS
 10
75.3789001235
 20
192.3383640668
 11
75.3789219132
 21
192.337851309
  0
LINE
  8
0
 62
7
  6
CONTINUOUS
 10
75.1712205496
 20
220.913863556
 11
75.1712423379
 21
220.9133505039
  0
LINE
  8
0
 62
7
  6
CONTINUOUS
 10
88.0789001235
 20
192.3383640668
 11
88.0789219132
 21
192.337851309
  0
LINE
  8
0
 62
7
  6
CONTINUOUS
 10
87.8712205496
 20
220.913863556
 11
87.8712423379
 21
220.9133505039
  0
LINE
  8
0
 62
7
  6
CONTINUOUS
 10
75.1712423379
 20
216.4648991662
 11
75.1712423379
 21
220.9133495501
  0
LINE
  8
0
 62
7
  6
CONTINUOUS
 10
75.3789001235
 20
196.8619426658
 11
75.3789001235
 21
192.3383684973
  0
LINE
  8
0
 62
7
  6
CONTINUOUS
 10
81.5213423379
 20
192.3383661656
 11
81.5213423379
 21
196.8619410402
  0
LINE
  8
0
 62
7
  6
CONTINUOUS
 10
81.7288001235
 20
220.9133495517
 11
81.7288001235
 21
216.4648996001
  0
LINE
  8
0
 62
7
  6
CONTINUOUS
 10
87.8712423379
 20
216.4648991662
 11
87.8712423379
 21
220.9133495501
  0
LINE
  8
0
 62
7
  6
CONTINUOUS
 10
88.0789001235
 20
196.8619426658
 11
88.0789001235
 21
192.3383684973
  0
POLYLINE
  8
0
 62
7
  6
CONTINUOUS
 66
1
 70
0
  0
VERTEX
  8
0
 62
7
  6
CONTINUOUS
 10
81.7288006979
 20
216.4653848274
  0
VERTEX
  8
0
 62
7
  6
CONTINUOUS
 10
81.7284983018
 20
216.4555943563
  0
VERTEX
  8
0
 62
7
  6
CONTINUOUS
 10
81.7256913021
 20
216.4340827062
  0
VERTEX
  8
0
 62
7
  6
CONTINUOUS
 10
81.7197321147
 20
216.4123753719
  0
VERTEX
  8
0
 62
7
  6
CONTINUOUS
 10
81.710468658
 20
216.3910826695
  0
VERTEX
  8
0
 62
7
  6
CONTINUOUS
 10
81.6978768555
 20
216.3708463578
  0
VERTEX
  8
0
 62
7
  6
CONTINUOUS
 10
81.6820367165
 20
216.3522822216
  0
VERTEX
  8
0
 62
7
  6
CONTINUOUS
 10
81.6631568319
 20
216.3360117559
  0
VERTEX
  8
0
 62
7
  6
CONTINUOUS
 10
81.6415843971
 20
216.3226341765
  0
VERTEX
  8
0
 62
7
  6
CONTINUOUS
 10
81.6178001613
 20
216.3126897683
  0
VERTEX
  8
0
 62
7
  6
CONTINUOUS
 10
81.5924204647
 20
216.3066309178
  0
VERTEX
  8
0
 62
7
  6
CONTINUOUS
 10
81.5681819719
 20
216.3047729093
  0
SEQEND
  0
POLYLINE
  8
0
 62
7
  6
CONTINUOUS
 66
1
 70
0
  0
VERTEX
  8
0
 62
7
  6
CONTINUOUS
 10
81.5213420451
 20
196.8616517442
  0
VERTEX
  8
0
 62
7
  6
CONTINUOUS
 10
81.521504741
 20
196.866886924
  0
VERTEX
  8
0
 62
7
  6
CONTINUOUS
 10
81.5238475265
 20
196.8820904929
  0
VERTEX
  8
0
 62
7
  6
CONTINUOUS
 10
81.529305532
 20
196.8975348797
  0
VERTEX
  8
0
 62
7
  6
CONTINUOUS
 10
81.5381958849
 20
196.9124505762
  0
VERTEX
  8
0
 62
7
  6
CONTINUOUS
 10
81.5506906476
 20
196.9259485734
  0
VERTEX
  8
0
 62
7
  6
CONTINUOUS
 10
81.5667417126
 20
196.9369834868
  0
VERTEX
  8
0
 62
7
  6
CONTINUOUS
 10
81.5859681741
 20
196.9443809401
  0
VERTEX
  8
0
 62
7
  6
CONTINUOUS
 10
81.6066359831
 20
196.9469433641
  0
SEQEND
  0
LINE
  8
0
 62
7
  6
CONTINUOUS
 10
81.7288219143
 20
220.9138635865
 11
81.7288001235
 21
220.9133505055
  0
LINE
  8
0
 62
7
  6
CONTINUOUS
 10
81.5213205489
 20
192.3378521514
 11
81.5213423379
 21
192.3383652113
  0
POLYLINE
  8
0
 62
7
  6
CONTINUOUS
 66
1
 70
0
  0
VERTEX
  8
0
 62
7
  6
CONTINUOUS
 10
57.6246853688
 20
224.6339267577
  0
VERTEX
  8
0
 62
7
  6
CONTINUOUS
 10
57.4914492499
 20
224.5660256094
  0
VERTEX
  8
0
 62
7
  6
CONTINUOUS
 10
57.3332441824
 20
224.4371006345
  0
VERTEX
  8
0
 62
7
  6
CONTINUOUS
 10
57.1835476903
 20
224.2580984315
  0
VERTEX
  8
0
 62
7
  6
CONTINUOUS
 10
57.0412996615
 20
224.0263619261
  0
VERTEX
  8
0
 62
7
  6
CONTINUOUS
 10
56.9069552092
 20
223.7408127579
  0
VERTEX
  8
0
 62
7
  6
CONTINUOUS
 10
56.783685488
 20
223.4083721954
  0
VERTEX
  8
0
 62
7
  6
CONTINUOUS
 10
56.6743482438
 20
223.0413664449
  0
VERTEX
  8
0
 62
7
  6
CONTINUOUS
 10
56.5786646592
 20
222.6458760798
  0
VERTEX
  8
0
 62
7
  6
CONTINUOUS
 10
56.4957995374
 20
222.2244245113
  0
VERTEX
  8
0
 62
7
  6
CONTINUOUS
 10
56.42527906
 20
221.7786608301
  0
VERTEX
  8
0
 62
7
  6
CONTINUOUS
 10
56.3669427386
 20
221.3095067077
  0
VERTEX
  8
0
 62
7
  6
CONTINUOUS
 10
56.3288219049
 20
220.9138681638
  0
SEQEND
  0
POLYLINE
  8
0
 62
7
  6
CONTINUOUS
 66
1
 70
0
  0
VERTEX
  8
0
 62
7
  6
CONTINUOUS
 10
62.6789219132
 20
192.337851309
  0
VERTEX
  8
0
 62
7
  6
CONTINUOUS
 10
62.6874033398
 20
192.3285807757
  0
VERTEX
  8
0
 62
7
  6
CONTINUOUS
 10
62.7119862868
 20
192.3202862763
  0
VERTEX
  8
0
 62
7
  6
CONTINUOUS
 10
62.7511222079
 20
192.3138868633
  0
VERTEX
  8
0
 62
7
  6
CONTINUOUS
 10
62.8023520171
 20
192.3097978613
  0
VERTEX
  8
0
 62
7
  6
CONTINUOUS
 10
62.8624027882
 20
192.3083024164
  0
VERTEX
  8
0
 62
7
  6
CONTINUOUS
 10
62.9289001235
 20
192.3095348524
  0
SEQEND
  0
POLYLINE
  8
0
 62
7
  6
CONTINUOUS
 66
1
 70
0
  0
VERTEX
  8
0
 62
7
  6
CONTINUOUS
 10
75.3789219132
 20
192.337851309
  0
VERTEX
  8
0
 62
7
  6
CONTINUOUS
 10
75.3874033398
 20
192.3285807757
  0
VERTEX
  8
0
 62
7
  6
CONTINUOUS
 10
75.4119862868
 20
192.3202862763
  0
VERTEX
  8
0
 62
7
  6
CONTINUOUS
 10
75.4511222079
 20
192.3138868633
  0
VERTEX
  8
0
 62
7
  6
CONTINUOUS
 10
75.5023520171
 20
192.3097978613
  0
VERTEX
  8
0
 62
7
  6
CONTINUOUS
 10
75.5624027882
 20
192.3083024164
  0
VERTEX
  8
0
 62
7
  6
CONTINUOUS
 10
75.6289001235
 20
192.3095348524
  0
SEQEND
  0
POLYLINE
  8
0
 62
7
  6
CONTINUOUS
 66
1
 70
0
  0
VERTEX
  8
0
 62
7
  6
CONTINUOUS
 10
100.7789219055
 20
192.3378475439
  0
VERTEX
  8
0
 62
7
  6
CONTINUOUS
 10
100.8167562422
 20
191.9448482438
  0
VERTEX
  8
0
 62
7
  6
CONTINUOUS
 10
100.87530318
 20
191.4735938396
  0
VERTEX
  8
0
 62
7
  6
CONTINUOUS
 10
100.9464972256
 20
191.0239108792
  0
VERTEX
  8
0
 62
7
  6
CONTINUOUS
 10
101.0302335645
 20
190.5991164747
  0
VERTEX
  8
0
 62
7
  6
CONTINUOUS
 10
101.126506061
 20
190.2026888735
  0
VERTEX
  8
0
 62
7
  6
CONTINUOUS
 10
101.2354839053
 20
189.8382271397
  0
VERTEX
  8
0
 62
7
  6
CONTINUOUS
 10
101.3570561249
 20
189.5109007225
  0
VERTEX
  8
0
 62
7
  6
CONTINUOUS
 10
101.4894907957
 20
189.22892608
  0
VERTEX
  8
0
 62
7
  6
CONTINUOUS
 10
101.6312036588
 20
188.9970592887
  0
VERTEX
  8
0
 62
7
  6
CONTINUOUS
 10
101.7817804096
 20
188.8161804183
  0
VERTEX
  8
0
 62
7
  6
CONTINUOUS
 10
101.9413244357
 20
188.6858343559
  0
VERTEX
  8
0
 62
7
  6
CONTINUOUS
 10
102.0747645606
 20
188.617796889
  0
SEQEND
  0
POLYLINE
  8
0
 62
7
  6
CONTINUOUS
 66
1
 70
0
  0
VERTEX
  8
0
 62
7
  6
CONTINUOUS
 10
100.571220559
 20
220.913868133
  0
VERTEX
  8
0
 62
7
  6
CONTINUOUS
 10
100.5336984046
 20
221.3039868313
  0
VERTEX
  8
0
 62
7
  6
CONTINUOUS
 10
100.4754576214
 20
221.7737241135
  0
VERTEX
  8
0
 62
7
  6
CONTINUOUS
 10
100.4050195868
 20
222.2200234587
  0
VERTEX
  8
0
 62
7
  6
CONTINUOUS
 10
100.3222173272
 20
222.6420233184
  0
VERTEX
  8
0
 62
7
  6
CONTINUOUS
 10
100.2265642156
 20
223.0381182016
  0
VERTEX
  8
0
 62
7
  6
CONTINUOUS
 10
100.1172070126
 20
223.4058053824
  0
VERTEX
  8
0
 62
7
  6
CONTINUOUS
 10
99.9938832016
 20
223.7388996412
  0
VERTEX
  8
0
 62
7
  6
CONTINUOUS
 10
99.8595615979
 20
224.0248311859
  0
VERTEX
  8
0
 62
7
  6
CONTINUOUS
 10
99.7175488147
 20
224.256616142
  0
VERTEX
  8
0
 62
7
  6
CONTINUOUS
 10
99.5683057528
 20
224.4355917095
  0
VERTEX
  8
0
 62
7
  6
CONTINUOUS
 10
99.4106752718
 20
224.564685664
  0
VERTEX
  8
0
 62
7
  6
CONTINUOUS
 10
99.2753453848
 20
224.6339286562
  0
SEQEND
  0
LINE
  8
0
 62
7
  6
CONTINUOUS
 10
100.7789001235
 20
192.3383640668
 11
100.7789219132
 21
192.337851309
  0
LINE
  8
0
 62
7
  6
CONTINUOUS
 10
100.5712205496
 20
220.913863556
 11
100.5712423379
 21
220.9133505039
  0
LINE
  8
0
 62
7
  6
CONTINUOUS
 10
94.2213423379
 20
192.3383661656
 11
94.2213423379
 21
196.8619410402
  0
LINE
  8
0
 62
7
  6
CONTINUOUS
 10
94.4288001235
 20
220.9133495517
 11
94.4288001235
 21
216.4648996001
  0
LINE
  8
0
 62
7
  6
CONTINUOUS
 10
100.5712423379
 20
216.4648991662
 11
100.5712423379
 21
220.9133495501
  0
LINE
  8
0
 62
7
  6
CONTINUOUS
 10
100.7789001235
 20
196.8619426658
 11
100.7789001235
 21
192.3383684973
  0
POLYLINE
  8
0
 62
7
  6
CONTINUOUS
 66
1
 70
0
  0
VERTEX
  8
0
 62
7
  6
CONTINUOUS
 10
94.4288006979
 20
216.4653848274
  0
VERTEX
  8
0
 62
7
  6
CONTINUOUS
 10
94.4284983018
 20
216.4555943563
  0
VERTEX
  8
0
 62
7
  6
CONTINUOUS
 10
94.4256913021
 20
216.4340827062
  0
VERTEX
  8
0
 62
7
  6
CONTINUOUS
 10
94.4197321147
 20
216.4123753719
  0
VERTEX
  8
0
 62
7
  6
CONTINUOUS
 10
94.410468658
 20
216.3910826695
  0
VERTEX
  8
0
 62
7
  6
CONTINUOUS
 10
94.3978768555
 20
216.3708463578
  0
VERTEX
  8
0
 62
7
  6
CONTINUOUS
 10
94.3820367165
 20
216.3522822216
  0
VERTEX
  8
0
 62
7
  6
CONTINUOUS
 10
94.3631568319
 20
216.3360117559
  0
VERTEX
  8
0
 62
7
  6
CONTINUOUS
 10
94.3415843971
 20
216.3226341765
  0
VERTEX
  8
0
 62
7
  6
CONTINUOUS
 10
94.3178001613
 20
216.3126897683
  0
VERTEX
  8
0
 62
7
  6
CONTINUOUS
 10
94.2924204647
 20
216.3066309178
  0
VERTEX
  8
0
 62
7
  6
CONTINUOUS
 10
94.2681819719
 20
216.3047729093
  0
SEQEND
  0
POLYLINE
  8
0
 62
7
  6
CONTINUOUS
 66
1
 70
0
  0
VERTEX
  8
0
 62
7
  6
CONTINUOUS
 10
94.2213420451
 20
196.8616517442
  0
VERTEX
  8
0
 62
7
  6
CONTINUOUS
 10
94.221504741
 20
196.866886924
  0
VERTEX
  8
0
 62
7
  6
CONTINUOUS
 10
94.2238475265
 20
196.8820904929
  0
VERTEX
  8
0
 62
7
  6
CONTINUOUS
 10
94.229305532
 20
196.8975348797
  0
VERTEX
  8
0
 62
7
  6
CONTINUOUS
 10
94.2381958849
 20
196.9124505762
  0
VERTEX
  8
0
 62
7
  6
CONTINUOUS
 10
94.2506906476
 20
196.9259485734
  0
VERTEX
  8
0
 62
7
  6
CONTINUOUS
 10
94.2667417126
 20
196.9369834868
  0
VERTEX
  8
0
 62
7
  6
CONTINUOUS
 10
94.2859681741
 20
196.9443809401
  0
VERTEX
  8
0
 62
7
  6
CONTINUOUS
 10
94.3066359831
 20
196.9469433641
  0
SEQEND
  0
LINE
  8
0
 62
7
  6
CONTINUOUS
 10
94.4288219143
 20
220.9138635865
 11
94.4288001235
 21
220.9133505055
  0
LINE
  8
0
 62
7
  6
CONTINUOUS
 10
94.2213205489
 20
192.3378521514
 11
94.2213423379
 21
192.3383652113
  0
POLYLINE
  8
0
 62
7
  6
CONTINUOUS
 66
1
 70
0
  0
VERTEX
  8
0
 62
7
  6
CONTINUOUS
 10
70.3246853688
 20
224.6339267577
  0
VERTEX
  8
0
 62
7
  6
CONTINUOUS
 10
70.1914492499
 20
224.5660256094
  0
VERTEX
  8
0
 62
7
  6
CONTINUOUS
 10
70.0332441824
 20
224.4371006345
  0
VERTEX
  8
0
 62
7
  6
CONTINUOUS
 10
69.8835476903
 20
224.2580984315
  0
VERTEX
  8
0
 62
7
  6
CONTINUOUS
 10
69.7412996614
 20
224.0263619261
  0
VERTEX
  8
0
 62
7
  6
CONTINUOUS
 10
69.6069552092
 20
223.7408127578
  0
VERTEX
  8
0
 62
7
  6
CONTINUOUS
 10
69.483685488
 20
223.4083721954
  0
VERTEX
  8
0
 62
7
  6
CONTINUOUS
 10
69.3743482438
 20
223.0413664449
  0
VERTEX
  8
0
 62
7
  6
CONTINUOUS
 10
69.2786646592
 20
222.6458760798
  0
VERTEX
  8
0
 62
7
  6
CONTINUOUS
 10
69.1957995374
 20
222.2244245113
  0
VERTEX
  8
0
 62
7
  6
CONTINUOUS
 10
69.12527906
 20
221.7786608301
  0
VERTEX
  8
0
 62
7
  6
CONTINUOUS
 10
69.0669427386
 20
221.3095067077
  0
VERTEX
  8
0
 62
7
  6
CONTINUOUS
 10
69.0288219049
 20
220.9138681638
  0
SEQEND
  0
POLYLINE
  8
0
 62
7
  6
CONTINUOUS
 66
1
 70
0
  0
VERTEX
  8
0
 62
7
  6
CONTINUOUS
 10
83.0246853688
 20
224.6339267577
  0
VERTEX
  8
0
 62
7
  6
CONTINUOUS
 10
82.8914492499
 20
224.5660256094
  0
VERTEX
  8
0
 62
7
  6
CONTINUOUS
 10
82.7332441824
 20
224.4371006345
  0
VERTEX
  8
0
 62
7
  6
CONTINUOUS
 10
82.5835476903
 20
224.2580984315
  0
VERTEX
  8
0
 62
7
  6
CONTINUOUS
 10
82.4412996614
 20
224.0263619261
  0
VERTEX
  8
0
 62
7
  6
CONTINUOUS
 10
82.3069552092
 20
223.7408127579
  0
VERTEX
  8
0
 62
7
  6
CONTINUOUS
 10
82.183685488
 20
223.4083721954
  0
VERTEX
  8
0
 62
7
  6
CONTINUOUS
 10
82.0743482438
 20
223.0413664449
  0
VERTEX
  8
0
 62
7
  6
CONTINUOUS
 10
81.9786646592
 20
222.6458760798
  0
VERTEX
  8
0
 62
7
  6
CONTINUOUS
 10
81.8957995374
 20
222.2244245113
  0
VERTEX
  8
0
 62
7
  6
CONTINUOUS
 10
81.82527906
 20
221.7786608301
  0
VERTEX
  8
0
 62
7
  6
CONTINUOUS
 10
81.7669427386
 20
221.3095067077
  0
VERTEX
  8
0
 62
7
  6
CONTINUOUS
 10
81.7288219049
 20
220.9138681638
  0
SEQEND
  0
POLYLINE
  8
0
 62
7
  6
CONTINUOUS
 66
1
 70
0
  0
VERTEX
  8
0
 62
7
  6
CONTINUOUS
 10
95.7246853688
 20
224.6339267577
  0
VERTEX
  8
0
 62
7
  6
CONTINUOUS
 10
95.5914492499
 20
224.5660256094
  0
VERTEX
  8
0
 62
7
  6
CONTINUOUS
 10
95.4332441824
 20
224.4371006345
  0
VERTEX
  8
0
 62
7
  6
CONTINUOUS
 10
95.2835476903
 20
224.2580984315
  0
VERTEX
  8
0
 62
7
  6
CONTINUOUS
 10
95.1412996614
 20
224.0263619261
  0
VERTEX
  8
0
 62
7
  6
CONTINUOUS
 10
95.0069552092
 20
223.7408127578
  0
VERTEX
  8
0
 62
7
  6
CONTINUOUS
 10
94.883685488
 20
223.4083721954
  0
VERTEX
  8
0
 62
7
  6
CONTINUOUS
 10
94.7743482438
 20
223.0413664449
  0
VERTEX
  8
0
 62
7
  6
CONTINUOUS
 10
94.6786646592
 20
222.6458760798
  0
VERTEX
  8
0
 62
7
  6
CONTINUOUS
 10
94.5957995374
 20
222.2244245113
  0
VERTEX
  8
0
 62
7
  6
CONTINUOUS
 10
94.52527906
 20
221.7786608301
  0
VERTEX
  8
0
 62
7
  6
CONTINUOUS
 10
94.4669427386
 20
221.3095067077
  0
VERTEX
  8
0
 62
7
  6
CONTINUOUS
 10
94.4288219049
 20
220.9138681638
  0
SEQEND
  0
LINE
  8
0
 62
7
  6
CONTINUOUS
 10
57.6246853688
 20
224.6339267577
 11
57.6245889987
 21
224.6338898288
  0
LINE
  8
0
 62
7
  6
CONTINUOUS
 10
70.3246853688
 20
224.6339267577
 11
70.3245889987
 21
224.6338898288
  0
LINE
  8
0
 62
7
  6
CONTINUOUS
 10
83.0246853688
 20
224.6339267577
 11
83.0245889987
 21
224.6338898288
  0
LINE
  8
0
 62
7
  6
CONTINUOUS
 10
95.7246853688
 20
224.6339267577
 11
95.7245889987
 21
224.6338898288
  0
LINE
  8
0
 62
7
  6
CONTINUOUS
 10
57.6444972333
 20
224.6413197122
 11
57.6245912458
 21
224.6338839792
  0
LINE
  8
0
 62
7
  6
CONTINUOUS
 10
70.3444972333
 20
224.6413197122
 11
70.3245912458
 21
224.6338839792
  0
LINE
  8
0
 62
7
  6
CONTINUOUS
 10
83.0444972333
 20
224.6413197122
 11
83.0245912458
 21
224.6338839792
  0
LINE
  8
0
 62
7
  6
CONTINUOUS
 10
95.7444972333
 20
224.6413197122
 11
95.7245912458
 21
224.6338839792
  0
POLYLINE
  8
0
 62
7
  6
CONTINUOUS
 66
1
 70
0
  0
VERTEX
  8
0
 62
7
  6
CONTINUOUS
 10
51.3752734744
 20
188.5858494591
  0
VERTEX
  8
0
 62
7
  6
CONTINUOUS
 10
51.4191338521
 20
188.5781679956
  0
VERTEX
  8
0
 62
7
  6
CONTINUOUS
 10
51.4579178909
 20
188.575857889
  0
SEQEND
  0
POLYLINE
  8
0
 62
7
  6
CONTINUOUS
 66
1
 70
0
  0
VERTEX
  8
0
 62
7
  6
CONTINUOUS
 10
51.2746885343
 20
188.6178327406
  0
VERTEX
  8
0
 62
7
  6
CONTINUOUS
 10
51.2949325199
 20
188.6102743987
  0
VERTEX
  8
0
 62
7
  6
CONTINUOUS
 10
51.3352881676
 20
188.5966705219
  0
VERTEX
  8
0
 62
7
  6
CONTINUOUS
 10
51.3752734744
 20
188.5858494591
  0
SEQEND
  0
POLYLINE
  8
0
 62
7
  6
CONTINUOUS
 66
1
 70
0
  0
VERTEX
  8
0
 62
7
  6
CONTINUOUS
 10
63.9746885343
 20
188.6178327406
  0
VERTEX
  8
0
 62
7
  6
CONTINUOUS
 10
63.9949325199
 20
188.6102743987
  0
VERTEX
  8
0
 62
7
  6
CONTINUOUS
 10
64.0352881676
 20
188.5966705219
  0
VERTEX
  8
0
 62
7
  6
CONTINUOUS
 10
64.0752734744
 20
188.5858494591
  0
SEQEND
  0
POLYLINE
  8
0
 62
7
  6
CONTINUOUS
 66
1
 70
0
  0
VERTEX
  8
0
 62
7
  6
CONTINUOUS
 10
76.6746885343
 20
188.6178327406
  0
VERTEX
  8
0
 62
7
  6
CONTINUOUS
 10
76.6949325199
 20
188.6102743987
  0
VERTEX
  8
0
 62
7
  6
CONTINUOUS
 10
76.7352881676
 20
188.5966705219
  0
VERTEX
  8
0
 62
7
  6
CONTINUOUS
 10
76.7752734744
 20
188.5858494591
  0
SEQEND
  0
POLYLINE
  8
0
 62
7
  6
CONTINUOUS
 66
1
 70
0
  0
VERTEX
  8
0
 62
7
  6
CONTINUOUS
 10
89.3746885343
 20
188.6178327406
  0
VERTEX
  8
0
 62
7
  6
CONTINUOUS
 10
89.3949325199
 20
188.6102743987
  0
VERTEX
  8
0
 62
7
  6
CONTINUOUS
 10
89.4352881676
 20
188.5966705219
  0
VERTEX
  8
0
 62
7
  6
CONTINUOUS
 10
89.4752734744
 20
188.5858494591
  0
SEQEND
  0
LINE
  8
0
 62
7
  6
CONTINUOUS
 10
51.2746862862
 20
188.6178268886
 11
51.2747645606
 21
188.617796889
  0
LINE
  8
0
 62
7
  6
CONTINUOUS
 10
63.9746862862
 20
188.6178268886
 11
63.9747645606
 21
188.617796889
  0
LINE
  8
0
 62
7
  6
CONTINUOUS
 10
76.6746862862
 20
188.6178268886
 11
76.6747645606
 21
188.617796889
  0
LINE
  8
0
 62
7
  6
CONTINUOUS
 10
89.3746862862
 20
188.6178268886
 11
89.3747645606
 21
188.617796889
  0
POLYLINE
  8
0
 62
7
  6
CONTINUOUS
 66
1
 70
0
  0
VERTEX
  8
0
 62
7
  6
CONTINUOUS
 10
88.0789219132
 20
192.337851309
  0
VERTEX
  8
0
 62
7
  6
CONTINUOUS
 10
88.0874033398
 20
192.3285807757
  0
VERTEX
  8
0
 62
7
  6
CONTINUOUS
 10
88.1119862868
 20
192.3202862763
  0
VERTEX
  8
0
 62
7
  6
CONTINUOUS
 10
88.1511222079
 20
192.3138868633
  0
VERTEX
  8
0
 62
7
  6
CONTINUOUS
 10
88.2023520171
 20
192.3097978613
  0
VERTEX
  8
0
 62
7
  6
CONTINUOUS
 10
88.2624027882
 20
192.3083024164
  0
VERTEX
  8
0
 62
7
  6
CONTINUOUS
 10
88.3289001235
 20
192.3095348524
  0
SEQEND
  0
POLYLINE
  8
0
 62
7
  6
CONTINUOUS
 66
1
 70
0
  0
VERTEX
  8
0
 62
7
  6
CONTINUOUS
 10
100.7789219132
 20
192.337851309
  0
VERTEX
  8
0
 62
7
  6
CONTINUOUS
 10
100.7874033398
 20
192.3285807757
  0
VERTEX
  8
0
 62
7
  6
CONTINUOUS
 10
100.8119862868
 20
192.3202862763
  0
VERTEX
  8
0
 62
7
  6
CONTINUOUS
 10
100.8511222079
 20
192.3138868633
  0
VERTEX
  8
0
 62
7
  6
CONTINUOUS
 10
100.9023520171
 20
192.3097978613
  0
VERTEX
  8
0
 62
7
  6
CONTINUOUS
 10
100.9624027882
 20
192.3083024164
  0
VERTEX
  8
0
 62
7
  6
CONTINUOUS
 10
101.0289001235
 20
192.3095348524
  0
SEQEND
  0
POLYLINE
  8
0
 62
7
  6
CONTINUOUS
 66
1
 70
0
  0
VERTEX
  8
0
 62
7
  6
CONTINUOUS
 10
113.4789219055
 20
192.3378475439
  0
VERTEX
  8
0
 62
7
  6
CONTINUOUS
 10
113.5167562422
 20
191.9448482438
  0
VERTEX
  8
0
 62
7
  6
CONTINUOUS
 10
113.57530318
 20
191.4735938396
  0
VERTEX
  8
0
 62
7
  6
CONTINUOUS
 10
113.6464972256
 20
191.0239108792
  0
VERTEX
  8
0
 62
7
  6
CONTINUOUS
 10
113.7302335645
 20
190.5991164747
  0
VERTEX
  8
0
 62
7
  6
CONTINUOUS
 10
113.826506061
 20
190.2026888735
  0
VERTEX
  8
0
 62
7
  6
CONTINUOUS
 10
113.9354839053
 20
189.8382271397
  0
VERTEX
  8
0
 62
7
  6
CONTINUOUS
 10
114.0570561249
 20
189.5109007225
  0
VERTEX
  8
0
 62
7
  6
CONTINUOUS
 10
114.1894907957
 20
189.22892608
  0
VERTEX
  8
0
 62
7
  6
CONTINUOUS
 10
114.3312036588
 20
188.9970592887
  0
VERTEX
  8
0
 62
7
  6
CONTINUOUS
 10
114.4817804096
 20
188.8161804183
  0
VERTEX
  8
0
 62
7
  6
CONTINUOUS
 10
114.6413244357
 20
188.6858343559
  0
VERTEX
  8
0
 62
7
  6
CONTINUOUS
 10
114.7747645606
 20
188.617796889
  0
SEQEND
  0
POLYLINE
  8
0
 62
7
  6
CONTINUOUS
 66
1
 70
0
  0
VERTEX
  8
0
 62
7
  6
CONTINUOUS
 10
113.271220559
 20
220.913868133
  0
VERTEX
  8
0
 62
7
  6
CONTINUOUS
 10
113.2336984046
 20
221.3039868313
  0
VERTEX
  8
0
 62
7
  6
CONTINUOUS
 10
113.1754576214
 20
221.7737241135
  0
VERTEX
  8
0
 62
7
  6
CONTINUOUS
 10
113.1050195868
 20
222.2200234587
  0
VERTEX
  8
0
 62
7
  6
CONTINUOUS
 10
113.0222173272
 20
222.6420233184
  0
VERTEX
  8
0
 62
7
  6
CONTINUOUS
 10
112.9265642156
 20
223.0381182016
  0
VERTEX
  8
0
 62
7
  6
CONTINUOUS
 10
112.8172070126
 20
223.4058053824
  0
VERTEX
  8
0
 62
7
  6
CONTINUOUS
 10
112.6938832016
 20
223.7388996412
  0
VERTEX
  8
0
 62
7
  6
CONTINUOUS
 10
112.5595615979
 20
224.0248311859
  0
VERTEX
  8
0
 62
7
  6
CONTINUOUS
 10
112.4175488147
 20
224.256616142
  0
VERTEX
  8
0
 62
7
  6
CONTINUOUS
 10
112.2683057528
 20
224.4355917095
  0
VERTEX
  8
0
 62
7
  6
CONTINUOUS
 10
112.1106752718
 20
224.564685664
  0
VERTEX
  8
0
 62
7
  6
CONTINUOUS
 10
111.9753453848
 20
224.6339286562
  0
SEQEND
  0
LINE
  8
0
 62
7
  6
CONTINUOUS
 10
113.4789001235
 20
192.3383640668
 11
113.4789219132
 21
192.337851309
  0
LINE
  8
0
 62
7
  6
CONTINUOUS
 10
113.2712205496
 20
220.913863556
 11
113.2712423379
 21
220.9133505039
  0
LINE
  8
0
 62
7
  6
CONTINUOUS
 10
106.9213423379
 20
192.3383661656
 11
106.9213423379
 21
196.8619410402
  0
LINE
  8
0
 62
7
  6
CONTINUOUS
 10
107.1288001235
 20
220.9133495517
 11
107.1288001235
 21
216.4648996001
  0
LINE
  8
0
 62
7
  6
CONTINUOUS
 10
113.2712423379
 20
216.4648991662
 11
113.2712423379
 21
220.9133495501
  0
LINE
  8
0
 62
7
  6
CONTINUOUS
 10
113.4789001235
 20
196.8619426658
 11
113.4789001235
 21
192.3383684973
  0
LINE
  8
0
 62
7
  6
CONTINUOUS
 10
119.6213423379
 20
192.3383661656
 11
119.6213423379
 21
196.8619410402
  0
LINE
  8
0
 62
7
  6
CONTINUOUS
 10
119.8288001235
 20
220.9133495517
 11
119.8288001235
 21
216.4648996001
  0
POLYLINE
  8
0
 62
7
  6
CONTINUOUS
 66
1
 70
0
  0
VERTEX
  8
0
 62
7
  6
CONTINUOUS
 10
107.1288006979
 20
216.4653848274
  0
VERTEX
  8
0
 62
7
  6
CONTINUOUS
 10
107.1284983018
 20
216.4555943563
  0
VERTEX
  8
0
 62
7
  6
CONTINUOUS
 10
107.1256913021
 20
216.4340827062
  0
VERTEX
  8
0
 62
7
  6
CONTINUOUS
 10
107.1197321147
 20
216.4123753719
  0
VERTEX
  8
0
 62
7
  6
CONTINUOUS
 10
107.110468658
 20
216.3910826695
  0
VERTEX
  8
0
 62
7
  6
CONTINUOUS
 10
107.0978768555
 20
216.3708463578
  0
VERTEX
  8
0
 62
7
  6
CONTINUOUS
 10
107.0820367165
 20
216.3522822216
  0
VERTEX
  8
0
 62
7
  6
CONTINUOUS
 10
107.0631568319
 20
216.3360117559
  0
VERTEX
  8
0
 62
7
  6
CONTINUOUS
 10
107.0415843971
 20
216.3226341765
  0
VERTEX
  8
0
 62
7
  6
CONTINUOUS
 10
107.0178001613
 20
216.3126897683
  0
VERTEX
  8
0
 62
7
  6
CONTINUOUS
 10
106.9924204647
 20
216.3066309178
  0
VERTEX
  8
0
 62
7
  6
CONTINUOUS
 10
106.9681819719
 20
216.3047729093
  0
SEQEND
  0
POLYLINE
  8
0
 62
7
  6
CONTINUOUS
 66
1
 70
0
  0
VERTEX
  8
0
 62
7
  6
CONTINUOUS
 10
119.8288006979
 20
216.4653848274
  0
VERTEX
  8
0
 62
7
  6
CONTINUOUS
 10
119.8284983018
 20
216.4555943563
  0
VERTEX
  8
0
 62
7
  6
CONTINUOUS
 10
119.8256913021
 20
216.4340827062
  0
VERTEX
  8
0
 62
7
  6
CONTINUOUS
 10
119.8197321147
 20
216.4123753719
  0
VERTEX
  8
0
 62
7
  6
CONTINUOUS
 10
119.810468658
 20
216.3910826695
  0
VERTEX
  8
0
 62
7
  6
CONTINUOUS
 10
119.7978768555
 20
216.3708463578
  0
VERTEX
  8
0
 62
7
  6
CONTINUOUS
 10
119.7820367165
 20
216.3522822216
  0
VERTEX
  8
0
 62
7
  6
CONTINUOUS
 10
119.7631568319
 20
216.3360117559
  0
VERTEX
  8
0
 62
7
  6
CONTINUOUS
 10
119.7415843971
 20
216.3226341765
  0
VERTEX
  8
0
 62
7
  6
CONTINUOUS
 10
119.7178001613
 20
216.3126897683
  0
VERTEX
  8
0
 62
7
  6
CONTINUOUS
 10
119.6924204647
 20
216.3066309178
  0
VERTEX
  8
0
 62
7
  6
CONTINUOUS
 10
119.6681819719
 20
216.3047729093
  0
SEQEND
  0
POLYLINE
  8
0
 62
7
  6
CONTINUOUS
 66
1
 70
0
  0
VERTEX
  8
0
 62
7
  6
CONTINUOUS
 10
106.9213420451
 20
196.8616517442
  0
VERTEX
  8
0
 62
7
  6
CONTINUOUS
 10
106.921504741
 20
196.866886924
  0
VERTEX
  8
0
 62
7
  6
CONTINUOUS
 10
106.9238475265
 20
196.8820904929
  0
VERTEX
  8
0
 62
7
  6
CONTINUOUS
 10
106.929305532
 20
196.8975348797
  0
VERTEX
  8
0
 62
7
  6
CONTINUOUS
 10
106.9381958849
 20
196.9124505762
  0
VERTEX
  8
0
 62
7
  6
CONTINUOUS
 10
106.9506906476
 20
196.9259485734
  0
VERTEX
  8
0
 62
7
  6
CONTINUOUS
 10
106.9667417126
 20
196.9369834868
  0
VERTEX
  8
0
 62
7
  6
CONTINUOUS
 10
106.9859681741
 20
196.9443809401
  0
VERTEX
  8
0
 62
7
  6
CONTINUOUS
 10
107.0066359831
 20
196.9469433641
  0
SEQEND
  0
POLYLINE
  8
0
 62
7
  6
CONTINUOUS
 66
1
 70
0
  0
VERTEX
  8
0
 62
7
  6
CONTINUOUS
 10
119.6213420451
 20
196.8616517442
  0
VERTEX
  8
0
 62
7
  6
CONTINUOUS
 10
119.621504741
 20
196.866886924
  0
VERTEX
  8
0
 62
7
  6
CONTINUOUS
 10
119.6238475265
 20
196.8820904929
  0
VERTEX
  8
0
 62
7
  6
CONTINUOUS
 10
119.629305532
 20
196.8975348797
  0
VERTEX
  8
0
 62
7
  6
CONTINUOUS
 10
119.6381958849
 20
196.9124505762
  0
VERTEX
  8
0
 62
7
  6
CONTINUOUS
 10
119.6506906476
 20
196.9259485734
  0
VERTEX
  8
0
 62
7
  6
CONTINUOUS
 10
119.6667417126
 20
196.9369834868
  0
VERTEX
  8
0
 62
7
  6
CONTINUOUS
 10
119.6859681741
 20
196.9443809401
  0
VERTEX
  8
0
 62
7
  6
CONTINUOUS
 10
119.7066359831
 20
196.9469433641
  0
SEQEND
  0
LINE
  8
0
 62
7
  6
CONTINUOUS
 10
107.1288219143
 20
220.9138635865
 11
107.1288001235
 21
220.9133505055
  0
LINE
  8
0
 62
7
  6
CONTINUOUS
 10
106.9213205489
 20
192.3378521514
 11
106.9213423379
 21
192.3383652113
  0
LINE
  8
0
 62
7
  6
CONTINUOUS
 10
119.8288219143
 20
220.9138635865
 11
119.8288001235
 21
220.9133505055
  0
LINE
  8
0
 62
7
  6
CONTINUOUS
 10
119.6213205489
 20
192.3378521514
 11
119.6213423379
 21
192.3383652113
  0
POLYLINE
  8
0
 62
7
  6
CONTINUOUS
 66
1
 70
0
  0
VERTEX
  8
0
 62
7
  6
CONTINUOUS
 10
54.8254717153
 20
188.6177946056
  0
VERTEX
  8
0
 62
7
  6
CONTINUOUS
 10
54.9613351505
 20
188.6873918381
  0
VERTEX
  8
0
 62
7
  6
CONTINUOUS
 10
55.1206272141
 20
188.8183578063
  0
VERTEX
  8
0
 62
7
  6
CONTINUOUS
 10
55.2710028959
 20
188.9998382861
  0
VERTEX
  8
0
 62
7
  6
CONTINUOUS
 10
55.4125543028
 20
189.2323116198
  0
VERTEX
  8
0
 62
7
  6
CONTINUOUS
 10
55.5448402048
 20
189.5148790257
  0
VERTEX
  8
0
 62
7
  6
CONTINUOUS
 10
55.6662581451
 20
189.8427436868
  0
VERTEX
  8
0
 62
7
  6
CONTINUOUS
 10
55.7750716586
 20
190.2076558228
  0
VERTEX
  8
0
 62
7
  6
CONTINUOUS
 10
55.8711736761
 20
190.6044457504
  0
VERTEX
  8
0
 62
7
  6
CONTINUOUS
 10
55.9547374923
 20
191.0295258435
  0
VERTEX
  8
0
 62
7
  6
CONTINUOUS
 10
56.0257606331
 20
191.4794376479
  0
VERTEX
  8
0
 62
7
  6
CONTINUOUS
 10
56.0841403244
 20
191.9508894609
  0
VERTEX
  8
0
 62
7
  6
CONTINUOUS
 10
56.1213205583
 20
192.3378475725
  0
SEQEND
  0
POLYLINE
  8
0
 62
7
  6
CONTINUOUS
 66
1
 70
0
  0
VERTEX
  8
0
 62
7
  6
CONTINUOUS
 10
67.5254717153
 20
188.6177946056
  0
VERTEX
  8
0
 62
7
  6
CONTINUOUS
 10
67.6613351505
 20
188.6873918381
  0
VERTEX
  8
0
 62
7
  6
CONTINUOUS
 10
67.8206272141
 20
188.8183578063
  0
VERTEX
  8
0
 62
7
  6
CONTINUOUS
 10
67.9710028959
 20
188.9998382861
  0
VERTEX
  8
0
 62
7
  6
CONTINUOUS
 10
68.1125543028
 20
189.2323116198
  0
VERTEX
  8
0
 62
7
  6
CONTINUOUS
 10
68.2448402048
 20
189.5148790257
  0
VERTEX
  8
0
 62
7
  6
CONTINUOUS
 10
68.3662581451
 20
189.8427436868
  0
VERTEX
  8
0
 62
7
  6
CONTINUOUS
 10
68.4750716586
 20
190.2076558228
  0
VERTEX
  8
0
 62
7
  6
CONTINUOUS
 10
68.5711736761
 20
190.6044457504
  0
VERTEX
  8
0
 62
7
  6
CONTINUOUS
 10
68.6547374923
 20
191.0295258435
  0
VERTEX
  8
0
 62
7
  6
CONTINUOUS
 10
68.7257606331
 20
191.4794376479
  0
VERTEX
  8
0
 62
7
  6
CONTINUOUS
 10
68.7841403244
 20
191.9508894609
  0
VERTEX
  8
0
 62
7
  6
CONTINUOUS
 10
68.8213205583
 20
192.3378475725
  0
SEQEND
  0
POLYLINE
  8
0
 62
7
  6
CONTINUOUS
 66
1
 70
0
  0
VERTEX
  8
0
 62
7
  6
CONTINUOUS
 10
108.4246853688
 20
224.6339267577
  0
VERTEX
  8
0
 62
7
  6
CONTINUOUS
 10
108.2914492499
 20
224.5660256094
  0
VERTEX
  8
0
 62
7
  6
CONTINUOUS
 10
108.1332441824
 20
224.4371006345
  0
VERTEX
  8
0
 62
7
  6
CONTINUOUS
 10
107.9835476903
 20
224.2580984315
  0
VERTEX
  8
0
 62
7
  6
CONTINUOUS
 10
107.8412996615
 20
224.0263619261
  0
VERTEX
  8
0
 62
7
  6
CONTINUOUS
 10
107.7069552092
 20
223.7408127579
  0
VERTEX
  8
0
 62
7
  6
CONTINUOUS
 10
107.583685488
 20
223.4083721954
  0
VERTEX
  8
0
 62
7
  6
CONTINUOUS
 10
107.4743482438
 20
223.0413664449
  0
VERTEX
  8
0
 62
7
  6
CONTINUOUS
 10
107.3786646592
 20
222.6458760799
  0
VERTEX
  8
0
 62
7
  6
CONTINUOUS
 10
107.2957995374
 20
222.2244245113
  0
VERTEX
  8
0
 62
7
  6
CONTINUOUS
 10
107.22527906
 20
221.7786608301
  0
VERTEX
  8
0
 62
7
  6
CONTINUOUS
 10
107.1669427386
 20
221.3095067077
  0
VERTEX
  8
0
 62
7
  6
CONTINUOUS
 10
107.1288219049
 20
220.9138681638
  0
SEQEND
  0
POLYLINE
  8
0
 62
7
  6
CONTINUOUS
 66
1
 70
0
  0
VERTEX
  8
0
 62
7
  6
CONTINUOUS
 10
121.1246853688
 20
224.6339267577
  0
VERTEX
  8
0
 62
7
  6
CONTINUOUS
 10
120.9914492499
 20
224.5660256094
  0
VERTEX
  8
0
 62
7
  6
CONTINUOUS
 10
120.8332441824
 20
224.4371006345
  0
VERTEX
  8
0
 62
7
  6
CONTINUOUS
 10
120.6835476903
 20
224.2580984315
  0
VERTEX
  8
0
 62
7
  6
CONTINUOUS
 10
120.5412996614
 20
224.0263619261
  0
VERTEX
  8
0
 62
7
  6
CONTINUOUS
 10
120.4069552092
 20
223.7408127579
  0
VERTEX
  8
0
 62
7
  6
CONTINUOUS
 10
120.283685488
 20
223.4083721954
  0
VERTEX
  8
0
 62
7
  6
CONTINUOUS
 10
120.1743482438
 20
223.0413664449
  0
VERTEX
  8
0
 62
7
  6
CONTINUOUS
 10
120.0786646592
 20
222.6458760798
  0
VERTEX
  8
0
 62
7
  6
CONTINUOUS
 10
119.9957995374
 20
222.2244245113
  0
VERTEX
  8
0
 62
7
  6
CONTINUOUS
 10
119.92527906
 20
221.7786608301
  0
VERTEX
  8
0
 62
7
  6
CONTINUOUS
 10
119.8669427386
 20
221.3095067077
  0
VERTEX
  8
0
 62
7
  6
CONTINUOUS
 10
119.8288219049
 20
220.9138681638
  0
SEQEND
  0
POLYLINE
  8
0
 62
7
  6
CONTINUOUS
 66
1
 70
0
  0
VERTEX
  8
0
 62
7
  6
CONTINUOUS
 10
133.8246853688
 20
224.6339267577
  0
VERTEX
  8
0
 62
7
  6
CONTINUOUS
 10
133.6914492499
 20
224.5660256094
  0
VERTEX
  8
0
 62
7
  6
CONTINUOUS
 10
133.5332441824
 20
224.4371006345
  0
VERTEX
  8
0
 62
7
  6
CONTINUOUS
 10
133.3835476903
 20
224.2580984315
  0
VERTEX
  8
0
 62
7
  6
CONTINUOUS
 10
133.2412996614
 20
224.0263619261
  0
VERTEX
  8
0
 62
7
  6
CONTINUOUS
 10
133.1069552092
 20
223.7408127579
  0
VERTEX
  8
0
 62
7
  6
CONTINUOUS
 10
132.983685488
 20
223.4083721954
  0
VERTEX
  8
0
 62
7
  6
CONTINUOUS
 10
132.8743482438
 20
223.0413664449
  0
VERTEX
  8
0
 62
7
  6
CONTINUOUS
 10
132.7786646592
 20
222.6458760798
  0
VERTEX
  8
0
 62
7
  6
CONTINUOUS
 10
132.6957995374
 20
222.2244245113
  0
VERTEX
  8
0
 62
7
  6
CONTINUOUS
 10
132.62527906
 20
221.7786608301
  0
VERTEX
  8
0
 62
7
  6
CONTINUOUS
 10
132.5669427386
 20
221.3095067077
  0
VERTEX
  8
0
 62
7
  6
CONTINUOUS
 10
132.5288219049
 20
220.9138681638
  0
SEQEND
  0
LINE
  8
0
 62
7
  6
CONTINUOUS
 10
108.4246853688
 20
224.6339267577
 11
108.4245889987
 21
224.6338898288
  0
LINE
  8
0
 62
7
  6
CONTINUOUS
 10
121.1246853688
 20
224.6339267577
 11
121.1245889987
 21
224.6338898288
  0
LINE
  8
0
 62
7
  6
CONTINUOUS
 10
133.8246853688
 20
224.6339267577
 11
133.8245889987
 21
224.6338898288
  0
LINE
  8
0
 62
7
  6
CONTINUOUS
 10
108.4444972333
 20
224.6413197122
 11
108.4245912458
 21
224.6338839792
  0
LINE
  8
0
 62
7
  6
CONTINUOUS
 10
121.1444972333
 20
224.6413197122
 11
121.1245912458
 21
224.6338839792
  0
LINE
  8
0
 62
7
  6
CONTINUOUS
 10
133.8444972333
 20
224.6413197122
 11
133.8245912458
 21
224.6338839792
  0
POLYLINE
  8
0
 62
7
  6
CONTINUOUS
 66
1
 70
0
  0
VERTEX
  8
0
 62
7
  6
CONTINUOUS
 10
219.7644195923
 20
188.5758578831
  0
VERTEX
  8
0
 62
7
  6
CONTINUOUS
 10
219.8048521474
 20
188.5783631413
  0
VERTEX
  8
0
 62
7
  6
CONTINUOUS
 10
219.8481134433
 20
188.5860890573
  0
VERTEX
  8
0
 62
7
  6
CONTINUOUS
 10
219.887709877
 20
188.5968717031
  0
VERTEX
  8
0
 62
7
  6
CONTINUOUS
 10
219.927745228
 20
188.6103959677
  0
SEQEND
  0
POLYLINE
  8
0
 62
7
  6
CONTINUOUS
 66
1
 70
0
  0
VERTEX
  8
0
 62
7
  6
CONTINUOUS
 10
207.0644195923
 20
188.5758578831
  0
VERTEX
  8
0
 62
7
  6
CONTINUOUS
 10
207.1048521474
 20
188.5783631413
  0
VERTEX
  8
0
 62
7
  6
CONTINUOUS
 10
207.1481134433
 20
188.5860890573
  0
VERTEX
  8
0
 62
7
  6
CONTINUOUS
 10
207.187709877
 20
188.5968717031
  0
VERTEX
  8
0
 62
7
  6
CONTINUOUS
 10
207.227745228
 20
188.6103959677
  0
SEQEND
  0
POLYLINE
  8
0
 62
7
  6
CONTINUOUS
 66
1
 70
0
  0
VERTEX
  8
0
 62
7
  6
CONTINUOUS
 10
194.3644195923
 20
188.5758578831
  0
VERTEX
  8
0
 62
7
  6
CONTINUOUS
 10
194.4048521474
 20
188.5783631413
  0
VERTEX
  8
0
 62
7
  6
CONTINUOUS
 10
194.4481134433
 20
188.5860890573
  0
VERTEX
  8
0
 62
7
  6
CONTINUOUS
 10
194.487709877
 20
188.5968717031
  0
VERTEX
  8
0
 62
7
  6
CONTINUOUS
 10
194.527745228
 20
188.6103959677
  0
SEQEND
  0
POLYLINE
  8
0
 62
7
  6
CONTINUOUS
 66
1
 70
0
  0
VERTEX
  8
0
 62
7
  6
CONTINUOUS
 10
181.6644195923
 20
188.5758578831
  0
VERTEX
  8
0
 62
7
  6
CONTINUOUS
 10
181.7048521474
 20
188.5783631413
  0
VERTEX
  8
0
 62
7
  6
CONTINUOUS
 10
181.7481134433
 20
188.5860890573
  0
VERTEX
  8
0
 62
7
  6
CONTINUOUS
 10
181.787709877
 20
188.5968717031
  0
VERTEX
  8
0
 62
7
  6
CONTINUOUS
 10
181.827745228
 20
188.6103959677
  0
SEQEND
  0
POLYLINE
  8
0
 62
7
  6
CONTINUOUS
 66
1
 70
0
  0
VERTEX
  8
0
 62
7
  6
CONTINUOUS
 10
168.9644195923
 20
188.5758578831
  0
VERTEX
  8
0
 62
7
  6
CONTINUOUS
 10
169.0048521474
 20
188.5783631413
  0
VERTEX
  8
0
 62
7
  6
CONTINUOUS
 10
169.0481134433
 20
188.5860890573
  0
VERTEX
  8
0
 62
7
  6
CONTINUOUS
 10
169.087709877
 20
188.5968717031
  0
VERTEX
  8
0
 62
7
  6
CONTINUOUS
 10
169.127745228
 20
188.6103959677
  0
SEQEND
  0
POLYLINE
  8
0
 62
7
  6
CONTINUOUS
 66
1
 70
0
  0
VERTEX
  8
0
 62
7
  6
CONTINUOUS
 10
156.2644195923
 20
188.5758578831
  0
VERTEX
  8
0
 62
7
  6
CONTINUOUS
 10
156.3048521474
 20
188.5783631413
  0
VERTEX
  8
0
 62
7
  6
CONTINUOUS
 10
156.3481134433
 20
188.5860890573
  0
VERTEX
  8
0
 62
7
  6
CONTINUOUS
 10
156.387709877
 20
188.5968717031
  0
VERTEX
  8
0
 62
7
  6
CONTINUOUS
 10
156.427745228
 20
188.6103959677
  0
SEQEND
  0
POLYLINE
  8
0
 62
7
  6
CONTINUOUS
 66
1
 70
0
  0
VERTEX
  8
0
 62
7
  6
CONTINUOUS
 10
143.5644195923
 20
188.5758578831
  0
VERTEX
  8
0
 62
7
  6
CONTINUOUS
 10
143.6048521474
 20
188.5783631413
  0
VERTEX
  8
0
 62
7
  6
CONTINUOUS
 10
143.6481134433
 20
188.5860890573
  0
VERTEX
  8
0
 62
7
  6
CONTINUOUS
 10
143.687709877
 20
188.5968717031
  0
VERTEX
  8
0
 62
7
  6
CONTINUOUS
 10
143.727745228
 20
188.6103959677
  0
SEQEND
  0
POLYLINE
  8
0
 62
7
  6
CONTINUOUS
 66
1
 70
0
  0
VERTEX
  8
0
 62
7
  6
CONTINUOUS
 10
130.8423270609
 20
188.5758578905
  0
VERTEX
  8
0
 62
7
  6
CONTINUOUS
 10
130.8815858929
 20
188.5782238132
  0
VERTEX
  8
0
 62
7
  6
CONTINUOUS
 10
130.925783994
 20
188.5860366971
  0
VERTEX
  8
0
 62
7
  6
CONTINUOUS
 10
130.9661128114
 20
188.5970278172
  0
VERTEX
  8
0
 62
7
  6
CONTINUOUS
 10
131.0068997244
 20
188.6108526211
  0
SEQEND
  0
POLYLINE
  8
0
 62
7
  6
CONTINUOUS
 66
1
 70
0
  0
VERTEX
  8
0
 62
7
  6
CONTINUOUS
 10
118.1423270609
 20
188.5758578905
  0
VERTEX
  8
0
 62
7
  6
CONTINUOUS
 10
118.1815858929
 20
188.5782238132
  0
VERTEX
  8
0
 62
7
  6
CONTINUOUS
 10
118.225783994
 20
188.5860366971
  0
VERTEX
  8
0
 62
7
  6
CONTINUOUS
 10
118.2661128114
 20
188.5970278172
  0
VERTEX
  8
0
 62
7
  6
CONTINUOUS
 10
118.3068997244
 20
188.6108526211
  0
SEQEND
  0
POLYLINE
  8
0
 62
7
  6
CONTINUOUS
 66
1
 70
0
  0
VERTEX
  8
0
 62
7
  6
CONTINUOUS
 10
105.4423270609
 20
188.5758578905
  0
VERTEX
  8
0
 62
7
  6
CONTINUOUS
 10
105.4815858929
 20
188.5782238132
  0
VERTEX
  8
0
 62
7
  6
CONTINUOUS
 10
105.525783994
 20
188.5860366971
  0
VERTEX
  8
0
 62
7
  6
CONTINUOUS
 10
105.5661128114
 20
188.5970278172
  0
VERTEX
  8
0
 62
7
  6
CONTINUOUS
 10
105.6068997244
 20
188.6108526211
  0
SEQEND
  0
POLYLINE
  8
0
 62
7
  6
CONTINUOUS
 66
1
 70
0
  0
VERTEX
  8
0
 62
7
  6
CONTINUOUS
 10
92.7423270609
 20
188.5758578905
  0
VERTEX
  8
0
 62
7
  6
CONTINUOUS
 10
92.7815858929
 20
188.5782238132
  0
VERTEX
  8
0
 62
7
  6
CONTINUOUS
 10
92.825783994
 20
188.5860366971
  0
VERTEX
  8
0
 62
7
  6
CONTINUOUS
 10
92.8661128114
 20
188.5970278172
  0
VERTEX
  8
0
 62
7
  6
CONTINUOUS
 10
92.9068997244
 20
188.6108526211
  0
SEQEND
  0
POLYLINE
  8
0
 62
7
  6
CONTINUOUS
 66
1
 70
0
  0
VERTEX
  8
0
 62
7
  6
CONTINUOUS
 10
215.3510001235
 20
192.3095348524
  0
VERTEX
  8
0
 62
7
  6
CONTINUOUS
 10
215.2850617201
 20
192.3083012726
  0
VERTEX
  8
0
 62
7
  6
CONTINUOUS
 10
215.2249530463
 20
192.3097727885
  0
VERTEX
  8
0
 62
7
  6
CONTINUOUS
 10
215.1733854415
 20
192.3138679225
  0
VERTEX
  8
0
 62
7
  6
CONTINUOUS
 10
215.1339713433
 20
192.3203128121
  0
VERTEX
  8
0
 62
7
  6
CONTINUOUS
 10
215.1093549678
 20
192.3286617115
  0
VERTEX
  8
0
 62
7
  6
CONTINUOUS
 10
215.1010219118
 20
192.3378521239
  0
SEQEND
  0
POLYLINE
  8
0
 62
7
  6
CONTINUOUS
 66
1
 70
0
  0
VERTEX
  8
0
 62
7
  6
CONTINUOUS
 10
202.6510001235
 20
192.3095348524
  0
VERTEX
  8
0
 62
7
  6
CONTINUOUS
 10
202.5850617201
 20
192.3083012726
  0
VERTEX
  8
0
 62
7
  6
CONTINUOUS
 10
202.5249530463
 20
192.3097727885
  0
VERTEX
  8
0
 62
7
  6
CONTINUOUS
 10
202.4733854415
 20
192.3138679225
  0
VERTEX
  8
0
 62
7
  6
CONTINUOUS
 10
202.4339713433
 20
192.3203128121
  0
VERTEX
  8
0
 62
7
  6
CONTINUOUS
 10
202.4093549678
 20
192.3286617115
  0
VERTEX
  8
0
 62
7
  6
CONTINUOUS
 10
202.4010219118
 20
192.3378521239
  0
SEQEND
  0
POLYLINE
  8
0
 62
7
  6
CONTINUOUS
 66
1
 70
0
  0
VERTEX
  8
0
 62
7
  6
CONTINUOUS
 10
189.9510001235
 20
192.3095348524
  0
VERTEX
  8
0
 62
7
  6
CONTINUOUS
 10
189.8850617201
 20
192.3083012726
  0
VERTEX
  8
0
 62
7
  6
CONTINUOUS
 10
189.8249530463
 20
192.3097727885
  0
VERTEX
  8
0
 62
7
  6
CONTINUOUS
 10
189.7733854415
 20
192.3138679225
  0
VERTEX
  8
0
 62
7
  6
CONTINUOUS
 10
189.7339713433
 20
192.3203128121
  0
VERTEX
  8
0
 62
7
  6
CONTINUOUS
 10
189.7093549678
 20
192.3286617115
  0
VERTEX
  8
0
 62
7
  6
CONTINUOUS
 10
189.7010219118
 20
192.3378521239
  0
SEQEND
  0
POLYLINE
  8
0
 62
7
  6
CONTINUOUS
 66
1
 70
0
  0
VERTEX
  8
0
 62
7
  6
CONTINUOUS
 10
177.2510001235
 20
192.3095348524
  0
VERTEX
  8
0
 62
7
  6
CONTINUOUS
 10
177.1850617201
 20
192.3083012726
  0
VERTEX
  8
0
 62
7
  6
CONTINUOUS
 10
177.1249530463
 20
192.3097727885
  0
VERTEX
  8
0
 62
7
  6
CONTINUOUS
 10
177.0733854415
 20
192.3138679225
  0
VERTEX
  8
0
 62
7
  6
CONTINUOUS
 10
177.0339713433
 20
192.3203128121
  0
VERTEX
  8
0
 62
7
  6
CONTINUOUS
 10
177.0093549678
 20
192.3286617115
  0
VERTEX
  8
0
 62
7
  6
CONTINUOUS
 10
177.0010219118
 20
192.3378521239
  0
SEQEND
  0
POLYLINE
  8
0
 62
7
  6
CONTINUOUS
 66
1
 70
0
  0
VERTEX
  8
0
 62
7
  6
CONTINUOUS
 10
164.5510001235
 20
192.3095348524
  0
VERTEX
  8
0
 62
7
  6
CONTINUOUS
 10
164.4850617201
 20
192.3083012726
  0
VERTEX
  8
0
 62
7
  6
CONTINUOUS
 10
164.4249530463
 20
192.3097727885
  0
VERTEX
  8
0
 62
7
  6
CONTINUOUS
 10
164.3733854415
 20
192.3138679225
  0
VERTEX
  8
0
 62
7
  6
CONTINUOUS
 10
164.3339713433
 20
192.3203128121
  0
VERTEX
  8
0
 62
7
  6
CONTINUOUS
 10
164.3093549678
 20
192.3286617115
  0
VERTEX
  8
0
 62
7
  6
CONTINUOUS
 10
164.3010219118
 20
192.3378521239
  0
SEQEND
  0
LINE
  8
0
 62
7
  6
CONTINUOUS
 10
130.8423224656
 20
188.5758578645
 11
127.6576424093
 21
188.5758578399
  0
LINE
  8
0
 62
7
  6
CONTINUOUS
 10
118.1423224656
 20
188.5758578645
 11
114.9576424093
 21
188.5758578399
  0
LINE
  8
0
 62
7
  6
CONTINUOUS
 10
105.4423224656
 20
188.5758578645
 11
102.2576424093
 21
188.5758578399
  0
LINE
  8
0
 62
7
  6
CONTINUOUS
 10
92.7423224656
 20
188.5758578645
 11
89.5576424093
 21
188.5758578399
  0
LINE
  8
0
 62
7
  6
CONTINUOUS
 10
80.0423224656
 20
188.5758578645
 11
76.8576424093
 21
188.5758578399
  0
LINE
  8
0
 62
7
  6
CONTINUOUS
 10
67.3423224656
 20
188.5758578645
 11
64.1576424093
 21
188.5758578399
  0
LINE
  8
0
 62
7
  6
CONTINUOUS
 10
54.6423224656
 20
188.5758578645
 11
51.4576424093
 21
188.5758578399
  0
LINE
  8
0
 62
7
  6
CONTINUOUS
 10
140.3797410825
 20
188.5758578399
 11
143.5647013842
 21
188.5758578399
  0
LINE
  8
0
 62
7
  6
CONTINUOUS
 10
153.0797410825
 20
188.5758578399
 11
156.2647013842
 21
188.5758578399
  0
LINE
  8
0
 62
7
  6
CONTINUOUS
 10
165.7797410825
 20
188.5758578399
 11
168.9647013842
 21
188.5758578399
  0
LINE
  8
0
 62
7
  6
CONTINUOUS
 10
178.4797410825
 20
188.5758578399
 11
181.6647013842
 21
188.5758578399
  0
LINE
  8
0
 62
7
  6
CONTINUOUS
 10
191.1797410825
 20
188.5758578399
 11
194.3647013842
 21
188.5758578399
  0
LINE
  8
0
 62
7
  6
CONTINUOUS
 10
203.8797410825
 20
188.5758578399
 11
207.0647013842
 21
188.5758578399
  0
LINE
  8
0
 62
7
  6
CONTINUOUS
 10
216.5797410825
 20
188.5758578399
 11
219.7647013842
 21
188.5758578399
  0
POLYLINE
  8
0
 62
7
  6
CONTINUOUS
 66
1
 70
0
  0
VERTEX
  8
0
 62
7
  6
CONTINUOUS
 10
55.8713423379
 20
192.3095348524
  0
VERTEX
  8
0
 62
7
  6
CONTINUOUS
 10
55.9372806293
 20
192.3083012772
  0
VERTEX
  8
0
 62
7
  6
CONTINUOUS
 10
55.9973892605
 20
192.3097727866
  0
VERTEX
  8
0
 62
7
  6
CONTINUOUS
 10
56.0489568731
 20
192.3138679131
  0
VERTEX
  8
0
 62
7
  6
CONTINUOUS
 10
56.0883710142
 20
192.3203127988
  0
VERTEX
  8
0
 62
7
  6
CONTINUOUS
 10
56.1129874483
 20
192.3286617038
  0
VERTEX
  8
0
 62
7
  6
CONTINUOUS
 10
56.1213205489
 20
192.3378521514
  0
SEQEND
  0
POLYLINE
  8
0
 62
7
  6
CONTINUOUS
 66
1
 70
0
  0
VERTEX
  8
0
 62
7
  6
CONTINUOUS
 10
68.5713423379
 20
192.3095348524
  0
VERTEX
  8
0
 62
7
  6
CONTINUOUS
 10
68.6372806293
 20
192.3083012772
  0
VERTEX
  8
0
 62
7
  6
CONTINUOUS
 10
68.6973892605
 20
192.3097727866
  0
VERTEX
  8
0
 62
7
  6
CONTINUOUS
 10
68.7489568731
 20
192.3138679131
  0
VERTEX
  8
0
 62
7
  6
CONTINUOUS
 10
68.7883710142
 20
192.3203127988
  0
VERTEX
  8
0
 62
7
  6
CONTINUOUS
 10
68.8129874483
 20
192.3286617038
  0
VERTEX
  8
0
 62
7
  6
CONTINUOUS
 10
68.8213205489
 20
192.3378521514
  0
SEQEND
  0
POLYLINE
  8
0
 62
7
  6
CONTINUOUS
 66
1
 70
0
  0
VERTEX
  8
0
 62
7
  6
CONTINUOUS
 10
81.2713423379
 20
192.3095348524
  0
VERTEX
  8
0
 62
7
  6
CONTINUOUS
 10
81.3372806293
 20
192.3083012772
  0
VERTEX
  8
0
 62
7
  6
CONTINUOUS
 10
81.3973892605
 20
192.3097727866
  0
VERTEX
  8
0
 62
7
  6
CONTINUOUS
 10
81.4489568731
 20
192.3138679131
  0
VERTEX
  8
0
 62
7
  6
CONTINUOUS
 10
81.4883710142
 20
192.3203127988
  0
VERTEX
  8
0
 62
7
  6
CONTINUOUS
 10
81.5129874483
 20
192.3286617038
  0
VERTEX
  8
0
 62
7
  6
CONTINUOUS
 10
81.5213205489
 20
192.3378521514
  0
SEQEND
  0
POLYLINE
  8
0
 62
7
  6
CONTINUOUS
 66
1
 70
0
  0
VERTEX
  8
0
 62
7
  6
CONTINUOUS
 10
93.9713423379
 20
192.3095348524
  0
VERTEX
  8
0
 62
7
  6
CONTINUOUS
 10
94.0372806293
 20
192.3083012772
  0
VERTEX
  8
0
 62
7
  6
CONTINUOUS
 10
94.0973892605
 20
192.3097727866
  0
VERTEX
  8
0
 62
7
  6
CONTINUOUS
 10
94.1489568731
 20
192.3138679131
  0
VERTEX
  8
0
 62
7
  6
CONTINUOUS
 10
94.1883710142
 20
192.3203127988
  0
VERTEX
  8
0
 62
7
  6
CONTINUOUS
 10
94.2129874483
 20
192.3286617038
  0
VERTEX
  8
0
 62
7
  6
CONTINUOUS
 10
94.2213205489
 20
192.3378521514
  0
SEQEND
  0
POLYLINE
  8
0
 62
7
  6
CONTINUOUS
 66
1
 70
0
  0
VERTEX
  8
0
 62
7
  6
CONTINUOUS
 10
106.6713423379
 20
192.3095348524
  0
VERTEX
  8
0
 62
7
  6
CONTINUOUS
 10
106.7372806293
 20
192.3083012772
  0
VERTEX
  8
0
 62
7
  6
CONTINUOUS
 10
106.7973892605
 20
192.3097727866
  0
VERTEX
  8
0
 62
7
  6
CONTINUOUS
 10
106.8489568731
 20
192.3138679131
  0
VERTEX
  8
0
 62
7
  6
CONTINUOUS
 10
106.8883710142
 20
192.3203127988
  0
VERTEX
  8
0
 62
7
  6
CONTINUOUS
 10
106.9129874483
 20
192.3286617038
  0
VERTEX
  8
0
 62
7
  6
CONTINUOUS
 10
106.9213205489
 20
192.3378521514
  0
SEQEND
  0
POLYLINE
  8
0
 62
7
  6
CONTINUOUS
 66
1
 70
0
  0
VERTEX
  8
0
 62
7
  6
CONTINUOUS
 10
43.8361212307
 20
196.9469432867
  0
VERTEX
  8
0
 62
7
  6
CONTINUOUS
 10
43.7870962823
 20
196.9517973007
  0
VERTEX
  8
0
 62
7
  6
CONTINUOUS
 10
43.7401283056
 20
196.9661070713
  0
VERTEX
  8
0
 62
7
  6
CONTINUOUS
 10
43.6969677689
 20
196.9892504508
  0
VERTEX
  8
0
 62
7
  6
CONTINUOUS
 10
43.6591967435
 20
197.020314507
  0
VERTEX
  8
0
 62
7
  6
CONTINUOUS
 10
43.6282005162
 20
197.0581305479
  0
VERTEX
  8
0
 62
7
  6
CONTINUOUS
 10
43.6051387727
 20
197.1013027927
  0
VERTEX
  8
0
 62
7
  6
CONTINUOUS
 10
43.5909118461
 20
197.1482364319
  0
VERTEX
  8
0
 62
7
  6
CONTINUOUS
 10
43.5861212307
 20
197.1969432867
  0
SEQEND
  0
POLYLINE
  8
0
 62
7
  6
CONTINUOUS
 66
1
 70
0
  0
VERTEX
  8
0
 62
7
  6
CONTINUOUS
 10
49.8936079996
 20
196.9469433583
  0
VERTEX
  8
0
 62
7
  6
CONTINUOUS
 10
49.9144943413
 20
196.9443256551
  0
VERTEX
  8
0
 62
7
  6
CONTINUOUS
 10
49.9338222056
 20
196.9368125206
  0
VERTEX
  8
0
 62
7
  6
CONTINUOUS
 10
49.9499013814
 20
196.9256434261
  0
VERTEX
  8
0
 62
7
  6
CONTINUOUS
 10
49.9623922023
 20
196.9119832945
  0
VERTEX
  8
0
 62
7
  6
CONTINUOUS
 10
49.9712592178
 20
196.8968357261
  0
VERTEX
  8
0
 62
7
  6
CONTINUOUS
 10
49.9766452568
 20
196.8810566354
  0
VERTEX
  8
0
 62
7
  6
CONTINUOUS
 10
49.9788133801
 20
196.8654820339
  0
VERTEX
  8
0
 62
7
  6
CONTINUOUS
 10
49.9789004158
 20
196.861653644
  0
SEQEND
  0
POLYLINE
  8
0
 62
7
  6
CONTINUOUS
 66
1
 70
0
  0
VERTEX
  8
0
 62
7
  6
CONTINUOUS
 10
62.5936079996
 20
196.9469433583
  0
VERTEX
  8
0
 62
7
  6
CONTINUOUS
 10
62.6144943413
 20
196.9443256551
  0
VERTEX
  8
0
 62
7
  6
CONTINUOUS
 10
62.6338222056
 20
196.9368125206
  0
VERTEX
  8
0
 62
7
  6
CONTINUOUS
 10
62.6499013814
 20
196.9256434261
  0
VERTEX
  8
0
 62
7
  6
CONTINUOUS
 10
62.6623922023
 20
196.9119832945
  0
VERTEX
  8
0
 62
7
  6
CONTINUOUS
 10
62.6712592178
 20
196.8968357261
  0
VERTEX
  8
0
 62
7
  6
CONTINUOUS
 10
62.6766452568
 20
196.8810566354
  0
VERTEX
  8
0
 62
7
  6
CONTINUOUS
 10
62.6788133801
 20
196.8654820339
  0
VERTEX
  8
0
 62
7
  6
CONTINUOUS
 10
62.6789004158
 20
196.861653644
  0
SEQEND
  0
POLYLINE
  8
0
 62
7
  6
CONTINUOUS
 66
1
 70
0
  0
VERTEX
  8
0
 62
7
  6
CONTINUOUS
 10
75.2936079996
 20
196.9469433583
  0
VERTEX
  8
0
 62
7
  6
CONTINUOUS
 10
75.3144943413
 20
196.9443256551
  0
VERTEX
  8
0
 62
7
  6
CONTINUOUS
 10
75.3338222056
 20
196.9368125206
  0
VERTEX
  8
0
 62
7
  6
CONTINUOUS
 10
75.3499013814
 20
196.9256434261
  0
VERTEX
  8
0
 62
7
  6
CONTINUOUS
 10
75.3623922023
 20
196.9119832945
  0
VERTEX
  8
0
 62
7
  6
CONTINUOUS
 10
75.3712592178
 20
196.8968357261
  0
VERTEX
  8
0
 62
7
  6
CONTINUOUS
 10
75.3766452568
 20
196.8810566354
  0
VERTEX
  8
0
 62
7
  6
CONTINUOUS
 10
75.3788133801
 20
196.8654820339
  0
VERTEX
  8
0
 62
7
  6
CONTINUOUS
 10
75.3789004158
 20
196.861653644
  0
SEQEND
  0
POLYLINE
  8
0
 62
7
  6
CONTINUOUS
 66
1
 70
0
  0
VERTEX
  8
0
 62
7
  6
CONTINUOUS
 10
87.9936079996
 20
196.9469433583
  0
VERTEX
  8
0
 62
7
  6
CONTINUOUS
 10
88.0144943413
 20
196.9443256551
  0
VERTEX
  8
0
 62
7
  6
CONTINUOUS
 10
88.0338222056
 20
196.9368125206
  0
VERTEX
  8
0
 62
7
  6
CONTINUOUS
 10
88.0499013814
 20
196.9256434261
  0
VERTEX
  8
0
 62
7
  6
CONTINUOUS
 10
88.0623922023
 20
196.9119832945
  0
VERTEX
  8
0
 62
7
  6
CONTINUOUS
 10
88.0712592178
 20
196.8968357261
  0
VERTEX
  8
0
 62
7
  6
CONTINUOUS
 10
88.0766452568
 20
196.8810566354
  0
VERTEX
  8
0
 62
7
  6
CONTINUOUS
 10
88.0788133801
 20
196.8654820339
  0
VERTEX
  8
0
 62
7
  6
CONTINUOUS
 10
88.0789004158
 20
196.861653644
  0
SEQEND
  0
POLYLINE
  8
0
 62
7
  6
CONTINUOUS
 66
1
 70
0
  0
VERTEX
  8
0
 62
7
  6
CONTINUOUS
 10
64.0752734744
 20
188.5858494591
  0
VERTEX
  8
0
 62
7
  6
CONTINUOUS
 10
64.1191338521
 20
188.5781679956
  0
VERTEX
  8
0
 62
7
  6
CONTINUOUS
 10
64.1579178909
 20
188.575857889
  0
SEQEND
  0
POLYLINE
  8
0
 62
7
  6
CONTINUOUS
 66
1
 70
0
  0
VERTEX
  8
0
 62
7
  6
CONTINUOUS
 10
76.7752734744
 20
188.5858494591
  0
VERTEX
  8
0
 62
7
  6
CONTINUOUS
 10
76.8191338521
 20
188.5781679956
  0
VERTEX
  8
0
 62
7
  6
CONTINUOUS
 10
76.8579178909
 20
188.575857889
  0
SEQEND
  0
POLYLINE
  8
0
 62
7
  6
CONTINUOUS
 66
1
 70
0
  0
VERTEX
  8
0
 62
7
  6
CONTINUOUS
 10
89.4752734744
 20
188.5858494591
  0
VERTEX
  8
0
 62
7
  6
CONTINUOUS
 10
89.5191338521
 20
188.5781679956
  0
VERTEX
  8
0
 62
7
  6
CONTINUOUS
 10
89.5579178909
 20
188.575857889
  0
SEQEND
  0
POLYLINE
  8
0
 62
7
  6
CONTINUOUS
 66
1
 70
0
  0
VERTEX
  8
0
 62
7
  6
CONTINUOUS
 10
102.1752734744
 20
188.5858494591
  0
VERTEX
  8
0
 62
7
  6
CONTINUOUS
 10
102.2191338521
 20
188.5781679956
  0
VERTEX
  8
0
 62
7
  6
CONTINUOUS
 10
102.2579178909
 20
188.575857889
  0
SEQEND
  0
POLYLINE
  8
0
 62
7
  6
CONTINUOUS
 66
1
 70
0
  0
VERTEX
  8
0
 62
7
  6
CONTINUOUS
 10
114.8752734744
 20
188.5858494591
  0
VERTEX
  8
0
 62
7
  6
CONTINUOUS
 10
114.9191338521
 20
188.5781679956
  0
VERTEX
  8
0
 62
7
  6
CONTINUOUS
 10
114.9579178909
 20
188.575857889
  0
SEQEND
  0
POLYLINE
  8
0
 62
7
  6
CONTINUOUS
 66
1
 70
0
  0
VERTEX
  8
0
 62
7
  6
CONTINUOUS
 10
127.5752734744
 20
188.5858494591
  0
VERTEX
  8
0
 62
7
  6
CONTINUOUS
 10
127.6191338521
 20
188.5781679956
  0
VERTEX
  8
0
 62
7
  6
CONTINUOUS
 10
127.6579178909
 20
188.575857889
  0
SEQEND
  0
POLYLINE
  8
0
 62
7
  6
CONTINUOUS
 66
1
 70
0
  0
VERTEX
  8
0
 62
7
  6
CONTINUOUS
 10
140.2955123303
 20
188.5862796097
  0
VERTEX
  8
0
 62
7
  6
CONTINUOUS
 10
140.3391093588
 20
188.5784216533
  0
VERTEX
  8
0
 62
7
  6
CONTINUOUS
 10
140.3800209262
 20
188.5758578856
  0
SEQEND
  0
POLYLINE
  8
0
 62
7
  6
CONTINUOUS
 66
1
 70
0
  0
VERTEX
  8
0
 62
7
  6
CONTINUOUS
 10
152.9955123303
 20
188.5862796097
  0
VERTEX
  8
0
 62
7
  6
CONTINUOUS
 10
153.0391093588
 20
188.5784216533
  0
VERTEX
  8
0
 62
7
  6
CONTINUOUS
 10
153.0800209262
 20
188.5758578856
  0
SEQEND
  0
POLYLINE
  8
0
 62
7
  6
CONTINUOUS
 66
1
 70
0
  0
VERTEX
  8
0
 62
7
  6
CONTINUOUS
 10
102.0746885343
 20
188.6178327406
  0
VERTEX
  8
0
 62
7
  6
CONTINUOUS
 10
102.0949325199
 20
188.6102743987
  0
VERTEX
  8
0
 62
7
  6
CONTINUOUS
 10
102.1352881676
 20
188.5966705219
  0
VERTEX
  8
0
 62
7
  6
CONTINUOUS
 10
102.1752734744
 20
188.5858494591
  0
SEQEND
  0
POLYLINE
  8
0
 62
7
  6
CONTINUOUS
 66
1
 70
0
  0
VERTEX
  8
0
 62
7
  6
CONTINUOUS
 10
114.7746885343
 20
188.6178327406
  0
VERTEX
  8
0
 62
7
  6
CONTINUOUS
 10
114.7949325199
 20
188.6102743987
  0
VERTEX
  8
0
 62
7
  6
CONTINUOUS
 10
114.8352881676
 20
188.5966705219
  0
VERTEX
  8
0
 62
7
  6
CONTINUOUS
 10
114.8752734744
 20
188.5858494591
  0
SEQEND
  0
POLYLINE
  8
0
 62
7
  6
CONTINUOUS
 66
1
 70
0
  0
VERTEX
  8
0
 62
7
  6
CONTINUOUS
 10
127.4746885343
 20
188.6178327406
  0
VERTEX
  8
0
 62
7
  6
CONTINUOUS
 10
127.4949325199
 20
188.6102743987
  0
VERTEX
  8
0
 62
7
  6
CONTINUOUS
 10
127.5352881676
 20
188.5966705219
  0
VERTEX
  8
0
 62
7
  6
CONTINUOUS
 10
127.5752734744
 20
188.5858494591
  0
SEQEND
  0
POLYLINE
  8
0
 62
7
  6
CONTINUOUS
 66
1
 70
0
  0
VERTEX
  8
0
 62
7
  6
CONTINUOUS
 10
140.1967930116
 20
188.6178310235
  0
VERTEX
  8
0
 62
7
  6
CONTINUOUS
 10
140.2151125939
 20
188.6109732093
  0
VERTEX
  8
0
 62
7
  6
CONTINUOUS
 10
140.2555823454
 20
188.5972290507
  0
VERTEX
  8
0
 62
7
  6
CONTINUOUS
 10
140.2955123303
 20
188.5862796097
  0
SEQEND
  0
LINE
  8
0
 62
7
  6
CONTINUOUS
 10
102.0746862862
 20
188.6178268886
 11
102.0747645606
 21
188.617796889
  0
LINE
  8
0
 62
7
  6
CONTINUOUS
 10
114.7746862862
 20
188.6178268886
 11
114.7747645606
 21
188.617796889
  0
LINE
  8
0
 62
7
  6
CONTINUOUS
 10
127.4746862862
 20
188.6178268886
 11
127.4747645606
 21
188.617796889
  0
LINE
  8
0
 62
7
  6
CONTINUOUS
 10
140.1968984546
 20
188.6177906152
 11
140.1967930116
 21
188.6178310235
  0
LINE
  8
0
 62
7
  6
CONTINUOUS
 10
48.4753440067
 20
224.6339250647
 11
48.4754494498
 21
224.6338846564
  0
POLYLINE
  8
0
 62
7
  6
CONTINUOUS
 66
1
 70
0
  0
VERTEX
  8
0
 62
7
  6
CONTINUOUS
 10
113.4789219132
 20
192.337851309
  0
VERTEX
  8
0
 62
7
  6
CONTINUOUS
 10
113.4874033398
 20
192.3285807757
  0
VERTEX
  8
0
 62
7
  6
CONTINUOUS
 10
113.5119862868
 20
192.3202862763
  0
VERTEX
  8
0
 62
7
  6
CONTINUOUS
 10
113.5511222079
 20
192.3138868633
  0
VERTEX
  8
0
 62
7
  6
CONTINUOUS
 10
113.6023520171
 20
192.3097978613
  0
VERTEX
  8
0
 62
7
  6
CONTINUOUS
 10
113.6624027882
 20
192.3083024164
  0
VERTEX
  8
0
 62
7
  6
CONTINUOUS
 10
113.7289001235
 20
192.3095348524
  0
SEQEND
  0
POLYLINE
  8
0
 62
7
  6
CONTINUOUS
 66
1
 70
0
  0
VERTEX
  8
0
 62
7
  6
CONTINUOUS
 10
126.1789219132
 20
192.337851309
  0
VERTEX
  8
0
 62
7
  6
CONTINUOUS
 10
126.1874033398
 20
192.3285807757
  0
VERTEX
  8
0
 62
7
  6
CONTINUOUS
 10
126.2119862868
 20
192.3202862763
  0
VERTEX
  8
0
 62
7
  6
CONTINUOUS
 10
126.2511222079
 20
192.3138868633
  0
VERTEX
  8
0
 62
7
  6
CONTINUOUS
 10
126.3023520171
 20
192.3097978613
  0
VERTEX
  8
0
 62
7
  6
CONTINUOUS
 10
126.3624027882
 20
192.3083024164
  0
VERTEX
  8
0
 62
7
  6
CONTINUOUS
 10
126.4289001235
 20
192.3095348524
  0
SEQEND
  0
POLYLINE
  8
0
 62
7
  6
CONTINUOUS
 66
1
 70
0
  0
VERTEX
  8
0
 62
7
  6
CONTINUOUS
 10
126.1789219055
 20
192.3378475439
  0
VERTEX
  8
0
 62
7
  6
CONTINUOUS
 10
126.2167562422
 20
191.9448482438
  0
VERTEX
  8
0
 62
7
  6
CONTINUOUS
 10
126.27530318
 20
191.4735938396
  0
VERTEX
  8
0
 62
7
  6
CONTINUOUS
 10
126.3464972256
 20
191.0239108792
  0
VERTEX
  8
0
 62
7
  6
CONTINUOUS
 10
126.4302335645
 20
190.5991164747
  0
VERTEX
  8
0
 62
7
  6
CONTINUOUS
 10
126.526506061
 20
190.2026888735
  0
VERTEX
  8
0
 62
7
  6
CONTINUOUS
 10
126.6354839053
 20
189.8382271397
  0
VERTEX
  8
0
 62
7
  6
CONTINUOUS
 10
126.7570561249
 20
189.5109007225
  0
VERTEX
  8
0
 62
7
  6
CONTINUOUS
 10
126.8894907957
 20
189.22892608
  0
VERTEX
  8
0
 62
7
  6
CONTINUOUS
 10
127.0312036588
 20
188.9970592887
  0
VERTEX
  8
0
 62
7
  6
CONTINUOUS
 10
127.1817804096
 20
188.8161804183
  0
VERTEX
  8
0
 62
7
  6
CONTINUOUS
 10
127.3413244357
 20
188.6858343559
  0
VERTEX
  8
0
 62
7
  6
CONTINUOUS
 10
127.4747645606
 20
188.617796889
  0
SEQEND
  0
POLYLINE
  8
0
 62
7
  6
CONTINUOUS
 66
1
 70
0
  0
VERTEX
  8
0
 62
7
  6
CONTINUOUS
 10
125.971220559
 20
220.913868133
  0
VERTEX
  8
0
 62
7
  6
CONTINUOUS
 10
125.9336984046
 20
221.3039868313
  0
VERTEX
  8
0
 62
7
  6
CONTINUOUS
 10
125.8754576214
 20
221.7737241135
  0
VERTEX
  8
0
 62
7
  6
CONTINUOUS
 10
125.8050195868
 20
222.2200234587
  0
VERTEX
  8
0
 62
7
  6
CONTINUOUS
 10
125.7222173272
 20
222.6420233184
  0
VERTEX
  8
0
 62
7
  6
CONTINUOUS
 10
125.6265642156
 20
223.0381182016
  0
VERTEX
  8
0
 62
7
  6
CONTINUOUS
 10
125.5172070126
 20
223.4058053824
  0
VERTEX
  8
0
 62
7
  6
CONTINUOUS
 10
125.3938832016
 20
223.7388996412
  0
VERTEX
  8
0
 62
7
  6
CONTINUOUS
 10
125.2595615979
 20
224.0248311859
  0
VERTEX
  8
0
 62
7
  6
CONTINUOUS
 10
125.1175488147
 20
224.256616142
  0
VERTEX
  8
0
 62
7
  6
CONTINUOUS
 10
124.9683057528
 20
224.4355917095
  0
VERTEX
  8
0
 62
7
  6
CONTINUOUS
 10
124.8106752718
 20
224.564685664
  0
VERTEX
  8
0
 62
7
  6
CONTINUOUS
 10
124.6753453848
 20
224.6339286562
  0
SEQEND
  0
POLYLINE
  8
0
 62
7
  6
CONTINUOUS
 66
1
 70
0
  0
VERTEX
  8
0
 62
7
  6
CONTINUOUS
 10
138.9010219024
 20
192.3378475469
  0
VERTEX
  8
0
 62
7
  6
CONTINUOUS
 10
138.9385440568
 20
191.9477288486
  0
VERTEX
  8
0
 62
7
  6
CONTINUOUS
 10
138.9967848399
 20
191.4779915664
  0
VERTEX
  8
0
 62
7
  6
CONTINUOUS
 10
139.0672228746
 20
191.0316922212
  0
VERTEX
  8
0
 62
7
  6
CONTINUOUS
 10
139.1500251342
 20
190.6096923615
  0
VERTEX
  8
0
 62
7
  6
CONTINUOUS
 10
139.2456782458
 20
190.2135974783
  0
VERTEX
  8
0
 62
7
  6
CONTINUOUS
 10
139.3550354488
 20
189.8459102975
  0
VERTEX
  8
0
 62
7
  6
CONTINUOUS
 10
139.4783592598
 20
189.5128160387
  0
VERTEX
  8
0
 62
7
  6
CONTINUOUS
 10
139.6126808634
 20
189.226884494
  0
VERTEX
  8
0
 62
7
  6
CONTINUOUS
 10
139.7546936467
 20
188.9950995379
  0
VERTEX
  8
0
 62
7
  6
CONTINUOUS
 10
139.9039367085
 20
188.8161239704
  0
VERTEX
  8
0
 62
7
  6
CONTINUOUS
 10
140.0615671896
 20
188.6870300159
  0
VERTEX
  8
0
 62
7
  6
CONTINUOUS
 10
140.1968970766
 20
188.6177870237
  0
SEQEND
  0
POLYLINE
  8
0
 62
7
  6
CONTINUOUS
 66
1
 70
0
  0
VERTEX
  8
0
 62
7
  6
CONTINUOUS
 10
138.671220559
 20
220.913868133
  0
VERTEX
  8
0
 62
7
  6
CONTINUOUS
 10
138.6336984046
 20
221.3039868313
  0
VERTEX
  8
0
 62
7
  6
CONTINUOUS
 10
138.5754576214
 20
221.7737241135
  0
VERTEX
  8
0
 62
7
  6
CONTINUOUS
 10
138.5050195868
 20
222.2200234587
  0
VERTEX
  8
0
 62
7
  6
CONTINUOUS
 10
138.4222173272
 20
222.6420233184
  0
VERTEX
  8
0
 62
7
  6
CONTINUOUS
 10
138.3265642156
 20
223.0381182016
  0
VERTEX
  8
0
 62
7
  6
CONTINUOUS
 10
138.2172070126
 20
223.4058053824
  0
VERTEX
  8
0
 62
7
  6
CONTINUOUS
 10
138.0938832016
 20
223.7388996412
  0
VERTEX
  8
0
 62
7
  6
CONTINUOUS
 10
137.9595615979
 20
224.0248311859
  0
VERTEX
  8
0
 62
7
  6
CONTINUOUS
 10
137.8175488147
 20
224.256616142
  0
VERTEX
  8
0
 62
7
  6
CONTINUOUS
 10
137.6683057528
 20
224.4355917095
  0
VERTEX
  8
0
 62
7
  6
CONTINUOUS
 10
137.5106752718
 20
224.564685664
  0
VERTEX
  8
0
 62
7
  6
CONTINUOUS
 10
137.3753453848
 20
224.6339286562
  0
SEQEND
  0
LINE
  8
0
 62
7
  6
CONTINUOUS
 10
126.1789001235
 20
192.3383640668
 11
126.1789219132
 21
192.337851309
  0
LINE
  8
0
 62
7
  6
CONTINUOUS
 10
125.9712205496
 20
220.913863556
 11
125.9712423379
 21
220.9133505039
  0
LINE
  8
0
 62
7
  6
CONTINUOUS
 10
138.9010219118
 20
192.3378521239
 11
138.9010001235
 21
192.3383651759
  0
LINE
  8
0
 62
7
  6
CONTINUOUS
 10
138.6712205496
 20
220.913863556
 11
138.6712423379
 21
220.9133505039
  0
LINE
  8
0
 62
7
  6
CONTINUOUS
 10
125.9712423379
 20
216.4648991662
 11
125.9712423379
 21
220.9133495501
  0
LINE
  8
0
 62
7
  6
CONTINUOUS
 10
126.1789001235
 20
196.8619426658
 11
126.1789001235
 21
192.3383684973
  0
LINE
  8
0
 62
7
  6
CONTINUOUS
 10
132.3213423379
 20
192.3383661656
 11
132.3213423379
 21
196.8619410402
  0
LINE
  8
0
 62
7
  6
CONTINUOUS
 10
132.5288001235
 20
220.9133495517
 11
132.5288001235
 21
216.4648996001
  0
LINE
  8
0
 62
7
  6
CONTINUOUS
 10
138.6712423379
 20
216.4648991662
 11
138.6712423379
 21
220.9133495501
  0
LINE
  8
DEFAULT_1
 62
2
  6
CENTER
 10
138.7861212307
 20
211.8758578399
 11
138.7861212307
 21
208.6259578399
  0
LINE
  8
0
 62
2
  6
CONTINUOUS
 10
138.7861212307
 20
207.6758578399
 11
138.7861212307
 21
205.5758578399
  0
LINE
  8
DEFAULT_1
 62
2
  6
CENTER
 10
138.7861212307
 20
201.3758578399
 11
138.7861212307
 21
204.6257578399
  0
LINE
  8
0
 62
7
  6
CONTINUOUS
 10
138.9010001235
 20
196.7868165137
 11
138.9010001235
 21
192.3383661297
  0
POLYLINE
  8
0
 62
7
  6
CONTINUOUS
 66
1
 70
0
  0
VERTEX
  8
0
 62
7
  6
CONTINUOUS
 10
132.5288006979
 20
216.4653848274
  0
VERTEX
  8
0
 62
7
  6
CONTINUOUS
 10
132.5284983018
 20
216.4555943563
  0
VERTEX
  8
0
 62
7
  6
CONTINUOUS
 10
132.5256913021
 20
216.4340827062
  0
VERTEX
  8
0
 62
7
  6
CONTINUOUS
 10
132.5197321147
 20
216.4123753719
  0
VERTEX
  8
0
 62
7
  6
CONTINUOUS
 10
132.510468658
 20
216.3910826695
  0
VERTEX
  8
0
 62
7
  6
CONTINUOUS
 10
132.4978768555
 20
216.3708463578
  0
VERTEX
  8
0
 62
7
  6
CONTINUOUS
 10
132.4820367165
 20
216.3522822216
  0
VERTEX
  8
0
 62
7
  6
CONTINUOUS
 10
132.4631568319
 20
216.3360117559
  0
VERTEX
  8
0
 62
7
  6
CONTINUOUS
 10
132.4415843971
 20
216.3226341765
  0
VERTEX
  8
0
 62
7
  6
CONTINUOUS
 10
132.4178001613
 20
216.3126897683
  0
VERTEX
  8
0
 62
7
  6
CONTINUOUS
 10
132.3924204647
 20
216.3066309178
  0
VERTEX
  8
0
 62
7
  6
CONTINUOUS
 10
132.3681819719
 20
216.3047729093
  0
SEQEND
  0
POLYLINE
  8
0
 62
7
  6
CONTINUOUS
 66
1
 70
0
  0
VERTEX
  8
0
 62
7
  6
CONTINUOUS
 10
132.3213420451
 20
196.8616517442
  0
VERTEX
  8
0
 62
7
  6
CONTINUOUS
 10
132.321504741
 20
196.866886924
  0
VERTEX
  8
0
 62
7
  6
CONTINUOUS
 10
132.3238475265
 20
196.8820904929
  0
VERTEX
  8
0
 62
7
  6
CONTINUOUS
 10
132.329305532
 20
196.8975348797
  0
VERTEX
  8
0
 62
7
  6
CONTINUOUS
 10
132.3381958849
 20
196.9124505762
  0
VERTEX
  8
0
 62
7
  6
CONTINUOUS
 10
132.3506906476
 20
196.9259485734
  0
VERTEX
  8
0
 62
7
  6
CONTINUOUS
 10
132.3667417126
 20
196.9369834868
  0
VERTEX
  8
0
 62
7
  6
CONTINUOUS
 10
132.3859681741
 20
196.9443809401
  0
VERTEX
  8
0
 62
7
  6
CONTINUOUS
 10
132.4066359831
 20
196.9469433641
  0
SEQEND
  0
LINE
  8
0
 62
7
  6
CONTINUOUS
 10
132.5288219143
 20
220.9138635865
 11
132.5288001235
 21
220.9133505055
  0
LINE
  8
0
 62
7
  6
CONTINUOUS
 10
132.3213205489
 20
192.3378521514
 11
132.3213423379
 21
192.3383652113
  0
POLYLINE
  8
0
 62
7
  6
CONTINUOUS
 66
1
 70
0
  0
VERTEX
  8
0
 62
7
  6
CONTINUOUS
 10
146.5467707461
 20
224.6339210742
  0
VERTEX
  8
0
 62
7
  6
CONTINUOUS
 10
146.4109073108
 20
224.5643238418
  0
VERTEX
  8
0
 62
7
  6
CONTINUOUS
 10
146.2516152473
 20
224.4333578736
  0
VERTEX
  8
0
 62
7
  6
CONTINUOUS
 10
146.1012395654
 20
224.2518773938
  0
VERTEX
  8
0
 62
7
  6
CONTINUOUS
 10
145.9596881585
 20
224.0194040601
  0
VERTEX
  8
0
 62
7
  6
CONTINUOUS
 10
145.8274022566
 20
223.7368366541
  0
VERTEX
  8
0
 62
7
  6
CONTINUOUS
 10
145.7059843163
 20
223.4089719931
  0
VERTEX
  8
0
 62
7
  6
CONTINUOUS
 10
145.5971708028
 20
223.0440598571
  0
VERTEX
  8
0
 62
7
  6
CONTINUOUS
 10
145.5010687853
 20
222.6472699295
  0
VERTEX
  8
0
 62
7
  6
CONTINUOUS
 10
145.4175049691
 20
222.2221898364
  0
VERTEX
  8
0
 62
7
  6
CONTINUOUS
 10
145.3464818283
 20
221.7722780319
  0
VERTEX
  8
0
 62
7
  6
CONTINUOUS
 10
145.288102137
 20
221.300826219
  0
VERTEX
  8
0
 62
7
  6
CONTINUOUS
 10
145.2509219031
 20
220.9138681074
  0
SEQEND
  0
POLYLINE
  8
0
 62
7
  6
CONTINUOUS
 66
1
 70
0
  0
VERTEX
  8
0
 62
7
  6
CONTINUOUS
 10
80.2254717153
 20
188.6177946056
  0
VERTEX
  8
0
 62
7
  6
CONTINUOUS
 10
80.3613351505
 20
188.6873918381
  0
VERTEX
  8
0
 62
7
  6
CONTINUOUS
 10
80.5206272141
 20
188.8183578063
  0
VERTEX
  8
0
 62
7
  6
CONTINUOUS
 10
80.6710028959
 20
188.9998382861
  0
VERTEX
  8
0
 62
7
  6
CONTINUOUS
 10
80.8125543028
 20
189.2323116198
  0
VERTEX
  8
0
 62
7
  6
CONTINUOUS
 10
80.9448402048
 20
189.5148790257
  0
VERTEX
  8
0
 62
7
  6
CONTINUOUS
 10
81.0662581451
 20
189.8427436868
  0
VERTEX
  8
0
 62
7
  6
CONTINUOUS
 10
81.1750716586
 20
190.2076558228
  0
VERTEX
  8
0
 62
7
  6
CONTINUOUS
 10
81.2711736761
 20
190.6044457504
  0
VERTEX
  8
0
 62
7
  6
CONTINUOUS
 10
81.3547374923
 20
191.0295258435
  0
VERTEX
  8
0
 62
7
  6
CONTINUOUS
 10
81.4257606331
 20
191.4794376479
  0
VERTEX
  8
0
 62
7
  6
CONTINUOUS
 10
81.4841403244
 20
191.9508894609
  0
VERTEX
  8
0
 62
7
  6
CONTINUOUS
 10
81.5213205583
 20
192.3378475725
  0
SEQEND
  0
POLYLINE
  8
0
 62
7
  6
CONTINUOUS
 66
1
 70
0
  0
VERTEX
  8
0
 62
7
  6
CONTINUOUS
 10
159.2467707461
 20
224.6339210742
  0
VERTEX
  8
0
 62
7
  6
CONTINUOUS
 10
159.1109073108
 20
224.5643238418
  0
VERTEX
  8
0
 62
7
  6
CONTINUOUS
 10
158.9516152473
 20
224.4333578736
  0
VERTEX
  8
0
 62
7
  6
CONTINUOUS
 10
158.8012395654
 20
224.2518773938
  0
VERTEX
  8
0
 62
7
  6
CONTINUOUS
 10
158.6596881585
 20
224.0194040601
  0
VERTEX
  8
0
 62
7
  6
CONTINUOUS
 10
158.5274022566
 20
223.7368366541
  0
VERTEX
  8
0
 62
7
  6
CONTINUOUS
 10
158.4059843163
 20
223.4089719931
  0
VERTEX
  8
0
 62
7
  6
CONTINUOUS
 10
158.2971708028
 20
223.0440598571
  0
VERTEX
  8
0
 62
7
  6
CONTINUOUS
 10
158.2010687853
 20
222.6472699295
  0
VERTEX
  8
0
 62
7
  6
CONTINUOUS
 10
158.1175049691
 20
222.2221898364
  0
VERTEX
  8
0
 62
7
  6
CONTINUOUS
 10
158.0464818283
 20
221.7722780319
  0
VERTEX
  8
0
 62
7
  6
CONTINUOUS
 10
157.988102137
 20
221.300826219
  0
VERTEX
  8
0
 62
7
  6
CONTINUOUS
 10
157.9509219031
 20
220.9138681074
  0
SEQEND
  0
POLYLINE
  8
0
 62
7
  6
CONTINUOUS
 66
1
 70
0
  0
VERTEX
  8
0
 62
7
  6
CONTINUOUS
 10
92.9254717153
 20
188.6177946056
  0
VERTEX
  8
0
 62
7
  6
CONTINUOUS
 10
93.0613351505
 20
188.6873918381
  0
VERTEX
  8
0
 62
7
  6
CONTINUOUS
 10
93.2206272141
 20
188.8183578063
  0
VERTEX
  8
0
 62
7
  6
CONTINUOUS
 10
93.3710028959
 20
188.9998382861
  0
VERTEX
  8
0
 62
7
  6
CONTINUOUS
 10
93.5125543028
 20
189.2323116198
  0
VERTEX
  8
0
 62
7
  6
CONTINUOUS
 10
93.6448402048
 20
189.5148790257
  0
VERTEX
  8
0
 62
7
  6
CONTINUOUS
 10
93.7662581451
 20
189.8427436868
  0
VERTEX
  8
0
 62
7
  6
CONTINUOUS
 10
93.8750716586
 20
190.2076558228
  0
VERTEX
  8
0
 62
7
  6
CONTINUOUS
 10
93.9711736761
 20
190.6044457504
  0
VERTEX
  8
0
 62
7
  6
CONTINUOUS
 10
94.0547374923
 20
191.0295258435
  0
VERTEX
  8
0
 62
7
  6
CONTINUOUS
 10
94.1257606331
 20
191.4794376479
  0
VERTEX
  8
0
 62
7
  6
CONTINUOUS
 10
94.1841403244
 20
191.9508894609
  0
VERTEX
  8
0
 62
7
  6
CONTINUOUS
 10
94.2213205583
 20
192.3378475725
  0
SEQEND
  0
POLYLINE
  8
0
 62
7
  6
CONTINUOUS
 66
1
 70
0
  0
VERTEX
  8
0
 62
7
  6
CONTINUOUS
 10
171.9467707461
 20
224.6339210742
  0
VERTEX
  8
0
 62
7
  6
CONTINUOUS
 10
171.8109073108
 20
224.5643238418
  0
VERTEX
  8
0
 62
7
  6
CONTINUOUS
 10
171.6516152473
 20
224.4333578736
  0
VERTEX
  8
0
 62
7
  6
CONTINUOUS
 10
171.5012395654
 20
224.2518773938
  0
VERTEX
  8
0
 62
7
  6
CONTINUOUS
 10
171.3596881585
 20
224.0194040601
  0
VERTEX
  8
0
 62
7
  6
CONTINUOUS
 10
171.2274022566
 20
223.7368366542
  0
VERTEX
  8
0
 62
7
  6
CONTINUOUS
 10
171.1059843163
 20
223.4089719931
  0
VERTEX
  8
0
 62
7
  6
CONTINUOUS
 10
170.9971708028
 20
223.0440598571
  0
VERTEX
  8
0
 62
7
  6
CONTINUOUS
 10
170.9010687853
 20
222.6472699295
  0
VERTEX
  8
0
 62
7
  6
CONTINUOUS
 10
170.8175049691
 20
222.2221898364
  0
VERTEX
  8
0
 62
7
  6
CONTINUOUS
 10
170.7464818283
 20
221.7722780319
  0
VERTEX
  8
0
 62
7
  6
CONTINUOUS
 10
170.688102137
 20
221.300826219
  0
VERTEX
  8
0
 62
7
  6
CONTINUOUS
 10
170.6509219031
 20
220.9138681074
  0
SEQEND
  0
POLYLINE
  8
0
 62
7
  6
CONTINUOUS
 66
1
 70
0
  0
VERTEX
  8
0
 62
7
  6
CONTINUOUS
 10
105.6254717153
 20
188.6177946056
  0
VERTEX
  8
0
 62
7
  6
CONTINUOUS
 10
105.7613351505
 20
188.6873918381
  0
VERTEX
  8
0
 62
7
  6
CONTINUOUS
 10
105.9206272141
 20
188.8183578063
  0
VERTEX
  8
0
 62
7
  6
CONTINUOUS
 10
106.0710028959
 20
188.9998382861
  0
VERTEX
  8
0
 62
7
  6
CONTINUOUS
 10
106.2125543028
 20
189.2323116198
  0
VERTEX
  8
0
 62
7
  6
CONTINUOUS
 10
106.3448402048
 20
189.5148790257
  0
VERTEX
  8
0
 62
7
  6
CONTINUOUS
 10
106.4662581451
 20
189.8427436868
  0
VERTEX
  8
0
 62
7
  6
CONTINUOUS
 10
106.5750716586
 20
190.2076558228
  0
VERTEX
  8
0
 62
7
  6
CONTINUOUS
 10
106.6711736761
 20
190.6044457504
  0
VERTEX
  8
0
 62
7
  6
CONTINUOUS
 10
106.7547374923
 20
191.0295258435
  0
VERTEX
  8
0
 62
7
  6
CONTINUOUS
 10
106.8257606331
 20
191.4794376479
  0
VERTEX
  8
0
 62
7
  6
CONTINUOUS
 10
106.8841403244
 20
191.9508894609
  0
VERTEX
  8
0
 62
7
  6
CONTINUOUS
 10
106.9213205583
 20
192.3378475725
  0
SEQEND
  0
LINE
  8
0
 62
7
  6
CONTINUOUS
 10
146.5466907367
 20
224.6338837839
 11
146.5467729617
 21
224.6339153006
  0
LINE
  8
0
 62
7
  6
CONTINUOUS
 10
54.8255517247
 20
188.617831896
 11
54.8254694997
 21
188.6178003793
  0
LINE
  8
0
 62
7
  6
CONTINUOUS
 10
159.2466907367
 20
224.6338837839
 11
159.2467729617
 21
224.6339153006
  0
LINE
  8
0
 62
7
  6
CONTINUOUS
 10
67.5255517247
 20
188.617831896
 11
67.5254694997
 21
188.6178003793
  0
LINE
  8
0
 62
7
  6
CONTINUOUS
 10
171.9466907367
 20
224.6338837839
 11
171.9467729617
 21
224.6339153006
  0
LINE
  8
0
 62
7
  6
CONTINUOUS
 10
80.2255517247
 20
188.617831896
 11
80.2254694997
 21
188.6178003793
  0
LINE
  8
0
 62
7
  6
CONTINUOUS
 10
184.6466907367
 20
224.6338837839
 11
184.6467729617
 21
224.6339153006
  0
LINE
  8
0
 62
7
  6
CONTINUOUS
 10
92.9255517247
 20
188.617831896
 11
92.9254694997
 21
188.6178003793
  0
LINE
  8
0
 62
7
  6
CONTINUOUS
 10
146.565342737
 20
224.6408630588
 11
146.5466907367
 21
224.6338837839
  0
LINE
  8
0
 62
7
  6
CONTINUOUS
 10
54.8068997244
 20
188.6108526211
 11
54.8255517247
 21
188.617831896
  0
LINE
  8
0
 62
7
  6
CONTINUOUS
 10
159.265342737
 20
224.6408630588
 11
159.2466907367
 21
224.6338837839
  0
LINE
  8
0
 62
7
  6
CONTINUOUS
 10
67.5068997244
 20
188.6108526211
 11
67.5255517247
 21
188.617831896
  0
LINE
  8
0
 62
7
  6
CONTINUOUS
 10
171.965342737
 20
224.6408630588
 11
171.9466907367
 21
224.6338837839
  0
LINE
  8
0
 62
7
  6
CONTINUOUS
 10
80.2068997244
 20
188.6108526211
 11
80.2255517247
 21
188.617831896
  0
LINE
  8
0
 62
7
  6
CONTINUOUS
 10
184.665342737
 20
224.6408630588
 11
184.6466907367
 21
224.6338837839
  0
LINE
  8
0
 62
7
  6
CONTINUOUS
 10
92.9068997244
 20
188.6108526211
 11
92.9255517247
 21
188.617831896
  0
POLYLINE
  8
0
 62
7
  6
CONTINUOUS
 66
1
 70
0
  0
VERTEX
  8
0
 62
7
  6
CONTINUOUS
 10
80.0423270609
 20
188.5758578905
  0
VERTEX
  8
0
 62
7
  6
CONTINUOUS
 10
80.0815858929
 20
188.5782238132
  0
VERTEX
  8
0
 62
7
  6
CONTINUOUS
 10
80.125783994
 20
188.5860366971
  0
VERTEX
  8
0
 62
7
  6
CONTINUOUS
 10
80.1661128114
 20
188.5970278172
  0
VERTEX
  8
0
 62
7
  6
CONTINUOUS
 10
80.2068997244
 20
188.6108526211
  0
SEQEND
  0
POLYLINE
  8
0
 62
7
  6
CONTINUOUS
 66
1
 70
0
  0
VERTEX
  8
0
 62
7
  6
CONTINUOUS
 10
67.3423270609
 20
188.5758578905
  0
VERTEX
  8
0
 62
7
  6
CONTINUOUS
 10
67.3815858929
 20
188.5782238132
  0
VERTEX
  8
0
 62
7
  6
CONTINUOUS
 10
67.425783994
 20
188.5860366971
  0
VERTEX
  8
0
 62
7
  6
CONTINUOUS
 10
67.4661128114
 20
188.5970278172
  0
VERTEX
  8
0
 62
7
  6
CONTINUOUS
 10
67.5068997244
 20
188.6108526211
  0
SEQEND
  0
POLYLINE
  8
0
 62
7
  6
CONTINUOUS
 66
1
 70
0
  0
VERTEX
  8
0
 62
7
  6
CONTINUOUS
 10
54.6423270609
 20
188.5758578905
  0
VERTEX
  8
0
 62
7
  6
CONTINUOUS
 10
54.6815858929
 20
188.5782238132
  0
VERTEX
  8
0
 62
7
  6
CONTINUOUS
 10
54.725783994
 20
188.5860366971
  0
VERTEX
  8
0
 62
7
  6
CONTINUOUS
 10
54.7661128114
 20
188.5970278172
  0
VERTEX
  8
0
 62
7
  6
CONTINUOUS
 10
54.8068997244
 20
188.6108526211
  0
SEQEND
  0
POLYLINE
  8
0
 62
7
  6
CONTINUOUS
 66
1
 70
0
  0
VERTEX
  8
0
 62
7
  6
CONTINUOUS
 10
151.8510001235
 20
192.3095348524
  0
VERTEX
  8
0
 62
7
  6
CONTINUOUS
 10
151.7850617201
 20
192.3083012726
  0
VERTEX
  8
0
 62
7
  6
CONTINUOUS
 10
151.7249530463
 20
192.3097727885
  0
VERTEX
  8
0
 62
7
  6
CONTINUOUS
 10
151.6733854415
 20
192.3138679225
  0
VERTEX
  8
0
 62
7
  6
CONTINUOUS
 10
151.6339713433
 20
192.3203128121
  0
VERTEX
  8
0
 62
7
  6
CONTINUOUS
 10
151.6093549678
 20
192.3286617115
  0
VERTEX
  8
0
 62
7
  6
CONTINUOUS
 10
151.6010219118
 20
192.3378521239
  0
SEQEND
  0
POLYLINE
  8
0
 62
7
  6
CONTINUOUS
 66
1
 70
0
  0
VERTEX
  8
0
 62
7
  6
CONTINUOUS
 10
139.1510001235
 20
192.3095348524
  0
VERTEX
  8
0
 62
7
  6
CONTINUOUS
 10
139.0850617201
 20
192.3083012726
  0
VERTEX
  8
0
 62
7
  6
CONTINUOUS
 10
139.0249530463
 20
192.3097727885
  0
VERTEX
  8
0
 62
7
  6
CONTINUOUS
 10
138.9733854415
 20
192.3138679225
  0
VERTEX
  8
0
 62
7
  6
CONTINUOUS
 10
138.9339713433
 20
192.3203128121
  0
VERTEX
  8
0
 62
7
  6
CONTINUOUS
 10
138.9093549678
 20
192.3286617115
  0
VERTEX
  8
0
 62
7
  6
CONTINUOUS
 10
138.9010219118
 20
192.3378521239
  0
SEQEND
  0
LINE
  8
0
 62
7
  6
CONTINUOUS
 10
132.0713423379
 20
192.3095348524
 11
126.4289001235
 21
192.3095348524
  0
LINE
  8
0
 62
7
  6
CONTINUOUS
 10
119.3713423379
 20
192.3095348524
 11
113.7289001235
 21
192.3095348524
  0
LINE
  8
0
 62
7
  6
CONTINUOUS
 10
106.6713423379
 20
192.3095348524
 11
101.0289001235
 21
192.3095348524
  0
LINE
  8
0
 62
7
  6
CONTINUOUS
 10
93.9713423379
 20
192.3095348524
 11
88.3289001235
 21
192.3095348524
  0
LINE
  8
0
 62
7
  6
CONTINUOUS
 10
81.2713423379
 20
192.3095348524
 11
75.6289001235
 21
192.3095348524
  0
LINE
  8
0
 62
7
  6
CONTINUOUS
 10
68.5713423379
 20
192.3095348524
 11
62.9289001235
 21
192.3095348524
  0
LINE
  8
0
 62
7
  6
CONTINUOUS
 10
55.8713423379
 20
192.3095348524
 11
50.2289001235
 21
192.3095348524
  0
LINE
  8
0
 62
7
  6
CONTINUOUS
 10
139.1510001235
 20
192.3095348524
 11
144.7934423379
 21
192.3095348524
  0
LINE
  8
0
 62
7
  6
CONTINUOUS
 10
151.8510001235
 20
192.3095348524
 11
157.4934423379
 21
192.3095348524
  0
LINE
  8
0
 62
7
  6
CONTINUOUS
 10
164.5510001235
 20
192.3095348524
 11
170.1934423379
 21
192.3095348524
  0
LINE
  8
0
 62
7
  6
CONTINUOUS
 10
177.2510001235
 20
192.3095348524
 11
182.8934423379
 21
192.3095348524
  0
LINE
  8
0
 62
7
  6
CONTINUOUS
 10
189.9510001235
 20
192.3095348524
 11
195.5934423379
 21
192.3095348524
  0
LINE
  8
0
 62
7
  6
CONTINUOUS
 10
202.6510001235
 20
192.3095348524
 11
208.2934423379
 21
192.3095348524
  0
LINE
  8
0
 62
7
  6
CONTINUOUS
 10
215.3510001235
 20
192.3095348524
 11
220.9934423379
 21
192.3095348524
  0
LINE
  8
DEFAULT_1
 62
2
  6
CENTER
 10
48.5457762723
 20
193.9258578399
 11
222.676566189
 21
193.9258578399
  0
LINE
  8
0
 62
7
  6
CONTINUOUS
 10
227.3861212307
 20
196.9469432867
 11
221.4035690548
 21
196.9469432867
  0
LINE
  8
0
 62
7
  6
CONTINUOUS
 10
214.9408737033
 20
196.9469432867
 11
208.7035690548
 21
196.9469432867
  0
LINE
  8
0
 62
7
  6
CONTINUOUS
 10
202.2408737033
 20
196.9469432867
 11
196.0035690548
 21
196.9469432867
  0
LINE
  8
0
 62
7
  6
CONTINUOUS
 10
189.5408737033
 20
196.9469432867
 11
183.3035690548
 21
196.9469432867
  0
LINE
  8
0
 62
7
  6
CONTINUOUS
 10
176.8408737033
 20
196.9469432867
 11
170.6035690548
 21
196.9469432867
  0
LINE
  8
0
 62
7
  6
CONTINUOUS
 10
164.1408737033
 20
196.9469432867
 11
157.9035690548
 21
196.9469432867
  0
LINE
  8
0
 62
7
  6
CONTINUOUS
 10
151.4408737033
 20
196.9469432867
 11
145.2035690548
 21
196.9469432867
  0
LINE
  8
0
 62
7
  6
CONTINUOUS
 10
138.7415137895
 20
196.9469432867
 11
132.4063445135
 21
196.9469432867
  0
LINE
  8
0
 62
7
  6
CONTINUOUS
 10
126.093899571
 20
196.9469432867
 11
119.7063445135
 21
196.9469432867
  0
LINE
  8
0
 62
7
  6
CONTINUOUS
 10
113.393899571
 20
196.9469432867
 11
107.0063445135
 21
196.9469432867
  0
LINE
  8
0
 62
7
  6
CONTINUOUS
 10
100.693899571
 20
196.9469432867
 11
94.3063445135
 21
196.9469432867
  0
LINE
  8
0
 62
7
  6
CONTINUOUS
 10
87.993899571
 20
196.9469432867
 11
81.6063445135
 21
196.9469432867
  0
LINE
  8
0
 62
7
  6
CONTINUOUS
 10
75.293899571
 20
196.9469432867
 11
68.9063445135
 21
196.9469432867
  0
LINE
  8
0
 62
7
  6
CONTINUOUS
 10
62.593899571
 20
196.9469432867
 11
56.2063445135
 21
196.9469432867
  0
LINE
  8
0
 62
7
  6
CONTINUOUS
 10
49.893899571
 20
196.9469432867
 11
43.8361212307
 21
196.9469432867
  0
LINE
  8
DEFAULT_1
 62
2
  6
CENTER
 10
144.0361212307
 20
206.6258578399
 11
140.7862212307
 21
206.6258578399
  0
LINE
  8
0
 62
2
  6
CONTINUOUS
 10
139.8361212307
 20
206.6258578399
 11
137.7361212307
 21
206.6258578399
  0
LINE
  8
DEFAULT_1
 62
2
  6
CENTER
 10
133.5361212307
 20
206.6258578399
 11
136.7860212307
 21
206.6258578399
  0
POLYLINE
  8
0
 62
7
  6
CONTINUOUS
 66
1
 70
0
  0
VERTEX
  8
0
 62
7
  6
CONTINUOUS
 10
119.3713423379
 20
192.3095348524
  0
VERTEX
  8
0
 62
7
  6
CONTINUOUS
 10
119.4372806293
 20
192.3083012772
  0
VERTEX
  8
0
 62
7
  6
CONTINUOUS
 10
119.4973892605
 20
192.3097727866
  0
VERTEX
  8
0
 62
7
  6
CONTINUOUS
 10
119.5489568731
 20
192.3138679131
  0
VERTEX
  8
0
 62
7
  6
CONTINUOUS
 10
119.5883710142
 20
192.3203127988
  0
VERTEX
  8
0
 62
7
  6
CONTINUOUS
 10
119.6129874483
 20
192.3286617038
  0
VERTEX
  8
0
 62
7
  6
CONTINUOUS
 10
119.6213205489
 20
192.3378521514
  0
SEQEND
  0
POLYLINE
  8
0
 62
7
  6
CONTINUOUS
 66
1
 70
0
  0
VERTEX
  8
0
 62
7
  6
CONTINUOUS
 10
132.0713423379
 20
192.3095348524
  0
VERTEX
  8
0
 62
7
  6
CONTINUOUS
 10
132.1372806293
 20
192.3083012772
  0
VERTEX
  8
0
 62
7
  6
CONTINUOUS
 10
132.1973892605
 20
192.3097727866
  0
VERTEX
  8
0
 62
7
  6
CONTINUOUS
 10
132.2489568731
 20
192.3138679131
  0
VERTEX
  8
0
 62
7
  6
CONTINUOUS
 10
132.2883710142
 20
192.3203127988
  0
VERTEX
  8
0
 62
7
  6
CONTINUOUS
 10
132.3129874483
 20
192.3286617038
  0
VERTEX
  8
0
 62
7
  6
CONTINUOUS
 10
132.3213205489
 20
192.3378521514
  0
SEQEND
  0
POLYLINE
  8
0
 62
7
  6
CONTINUOUS
 66
1
 70
0
  0
VERTEX
  8
0
 62
7
  6
CONTINUOUS
 10
144.7934423379
 20
192.3095348524
  0
VERTEX
  8
0
 62
7
  6
CONTINUOUS
 10
144.8593807413
 20
192.3083012795
  0
VERTEX
  8
0
 62
7
  6
CONTINUOUS
 10
144.919489415
 20
192.309772795
  0
VERTEX
  8
0
 62
7
  6
CONTINUOUS
 10
144.9710570198
 20
192.313867928
  0
VERTEX
  8
0
 62
7
  6
CONTINUOUS
 10
145.010471118
 20
192.3203128158
  0
VERTEX
  8
0
 62
7
  6
CONTINUOUS
 10
145.0350874936
 20
192.3286617127
  0
VERTEX
  8
0
 62
7
  6
CONTINUOUS
 10
145.0434205471
 20
192.3378520934
  0
SEQEND
  0
POLYLINE
  8
0
 62
7
  6
CONTINUOUS
 66
1
 70
0
  0
VERTEX
  8
0
 62
7
  6
CONTINUOUS
 10
157.4934423379
 20
192.3095348524
  0
VERTEX
  8
0
 62
7
  6
CONTINUOUS
 10
157.5593807413
 20
192.3083012795
  0
VERTEX
  8
0
 62
7
  6
CONTINUOUS
 10
157.619489415
 20
192.309772795
  0
VERTEX
  8
0
 62
7
  6
CONTINUOUS
 10
157.6710570198
 20
192.313867928
  0
VERTEX
  8
0
 62
7
  6
CONTINUOUS
 10
157.710471118
 20
192.3203128158
  0
VERTEX
  8
0
 62
7
  6
CONTINUOUS
 10
157.7350874936
 20
192.3286617127
  0
VERTEX
  8
0
 62
7
  6
CONTINUOUS
 10
157.7434205471
 20
192.3378520934
  0
SEQEND
  0
POLYLINE
  8
0
 62
7
  6
CONTINUOUS
 66
1
 70
0
  0
VERTEX
  8
0
 62
7
  6
CONTINUOUS
 10
170.1934423379
 20
192.3095348524
  0
VERTEX
  8
0
 62
7
  6
CONTINUOUS
 10
170.2593807413
 20
192.3083012795
  0
VERTEX
  8
0
 62
7
  6
CONTINUOUS
 10
170.319489415
 20
192.309772795
  0
VERTEX
  8
0
 62
7
  6
CONTINUOUS
 10
170.3710570198
 20
192.313867928
  0
VERTEX
  8
0
 62
7
  6
CONTINUOUS
 10
170.410471118
 20
192.3203128158
  0
VERTEX
  8
0
 62
7
  6
CONTINUOUS
 10
170.4350874936
 20
192.3286617127
  0
VERTEX
  8
0
 62
7
  6
CONTINUOUS
 10
170.4434205471
 20
192.3378520934
  0
SEQEND
  0
POLYLINE
  8
0
 62
7
  6
CONTINUOUS
 66
1
 70
0
  0
VERTEX
  8
0
 62
7
  6
CONTINUOUS
 10
182.8934423379
 20
192.3095348524
  0
VERTEX
  8
0
 62
7
  6
CONTINUOUS
 10
182.9593807413
 20
192.3083012795
  0
VERTEX
  8
0
 62
7
  6
CONTINUOUS
 10
183.019489415
 20
192.309772795
  0
VERTEX
  8
0
 62
7
  6
CONTINUOUS
 10
183.0710570198
 20
192.313867928
  0
VERTEX
  8
0
 62
7
  6
CONTINUOUS
 10
183.110471118
 20
192.3203128158
  0
VERTEX
  8
0
 62
7
  6
CONTINUOUS
 10
183.1350874936
 20
192.3286617127
  0
VERTEX
  8
0
 62
7
  6
CONTINUOUS
 10
183.1434205471
 20
192.3378520934
  0
SEQEND
  0
POLYLINE
  8
0
 62
7
  6
CONTINUOUS
 66
1
 70
0
  0
VERTEX
  8
0
 62
7
  6
CONTINUOUS
 10
195.5934423379
 20
192.3095348524
  0
VERTEX
  8
0
 62
7
  6
CONTINUOUS
 10
195.6593807413
 20
192.3083012795
  0
VERTEX
  8
0
 62
7
  6
CONTINUOUS
 10
195.719489415
 20
192.309772795
  0
VERTEX
  8
0
 62
7
  6
CONTINUOUS
 10
195.7710570198
 20
192.313867928
  0
VERTEX
  8
0
 62
7
  6
CONTINUOUS
 10
195.810471118
 20
192.3203128158
  0
VERTEX
  8
0
 62
7
  6
CONTINUOUS
 10
195.8350874936
 20
192.3286617127
  0
VERTEX
  8
0
 62
7
  6
CONTINUOUS
 10
195.8434205471
 20
192.3378520934
  0
SEQEND
  0
POLYLINE
  8
0
 62
7
  6
CONTINUOUS
 66
1
 70
0
  0
VERTEX
  8
0
 62
7
  6
CONTINUOUS
 10
208.2934423379
 20
192.3095348524
  0
VERTEX
  8
0
 62
7
  6
CONTINUOUS
 10
208.3593807413
 20
192.3083012795
  0
VERTEX
  8
0
 62
7
  6
CONTINUOUS
 10
208.419489415
 20
192.309772795
  0
VERTEX
  8
0
 62
7
  6
CONTINUOUS
 10
208.4710570198
 20
192.313867928
  0
VERTEX
  8
0
 62
7
  6
CONTINUOUS
 10
208.510471118
 20
192.3203128158
  0
VERTEX
  8
0
 62
7
  6
CONTINUOUS
 10
208.5350874936
 20
192.3286617127
  0
VERTEX
  8
0
 62
7
  6
CONTINUOUS
 10
208.5434205471
 20
192.3378520934
  0
SEQEND
  0
POLYLINE
  8
0
 62
7
  6
CONTINUOUS
 66
1
 70
0
  0
VERTEX
  8
0
 62
7
  6
CONTINUOUS
 10
220.9934423379
 20
192.3095348524
  0
VERTEX
  8
0
 62
7
  6
CONTINUOUS
 10
221.0593807413
 20
192.3083012795
  0
VERTEX
  8
0
 62
7
  6
CONTINUOUS
 10
221.119489415
 20
192.309772795
  0
VERTEX
  8
0
 62
7
  6
CONTINUOUS
 10
221.1710570198
 20
192.313867928
  0
VERTEX
  8
0
 62
7
  6
CONTINUOUS
 10
221.210471118
 20
192.3203128158
  0
VERTEX
  8
0
 62
7
  6
CONTINUOUS
 10
221.2350874936
 20
192.3286617127
  0
VERTEX
  8
0
 62
7
  6
CONTINUOUS
 10
221.2434205471
 20
192.3378520934
  0
SEQEND
  0
POLYLINE
  8
0
 62
7
  6
CONTINUOUS
 66
1
 70
0
  0
VERTEX
  8
0
 62
7
  6
CONTINUOUS
 10
138.740383782
 20
196.9469427011
  0
VERTEX
  8
0
 62
7
  6
CONTINUOUS
 10
138.7700619866
 20
196.9441503847
  0
VERTEX
  8
0
 62
7
  6
CONTINUOUS
 10
138.8004673276
 20
196.935199791
  0
VERTEX
  8
0
 62
7
  6
CONTINUOUS
 10
138.8281184721
 20
196.9207262082
  0
VERTEX
  8
0
 62
7
  6
CONTINUOUS
 10
138.8519529483
 20
196.9016867176
  0
VERTEX
  8
0
 62
7
  6
CONTINUOUS
 10
138.8712504821
 20
196.8792404184
  0
VERTEX
  8
0
 62
7
  6
CONTINUOUS
 10
138.8856506903
 20
196.8546408655
  0
VERTEX
  8
0
 62
7
  6
CONTINUOUS
 10
138.8951448601
 20
196.8291269646
  0
VERTEX
  8
0
 62
7
  6
CONTINUOUS
 10
138.9000298197
 20
196.8038663112
  0
VERTEX
  8
0
 62
7
  6
CONTINUOUS
 10
138.9010006899
 20
196.7863312276
  0
SEQEND
  0
POLYLINE
  8
0
 62
7
  6
CONTINUOUS
 66
1
 70
0
  0
VERTEX
  8
0
 62
7
  6
CONTINUOUS
 10
151.4403836665
 20
196.946942701
  0
VERTEX
  8
0
 62
7
  6
CONTINUOUS
 10
151.4701645472
 20
196.9441309116
  0
VERTEX
  8
0
 62
7
  6
CONTINUOUS
 10
151.5005540863
 20
196.9351645935
  0
VERTEX
  8
0
 62
7
  6
CONTINUOUS
 10
151.5281875802
 20
196.9206809786
  0
VERTEX
  8
0
 62
7
  6
CONTINUOUS
 10
151.5520044081
 20
196.9016369197
  0
VERTEX
  8
0
 62
7
  6
CONTINUOUS
 10
151.5712857689
 20
196.8791907799
  0
VERTEX
  8
0
 62
7
  6
CONTINUOUS
 10
151.5856722851
 20
196.8545950939
  0
VERTEX
  8
0
 62
7
  6
CONTINUOUS
 10
151.5951557713
 20
196.8290877357
  0
VERTEX
  8
0
 62
7
  6
CONTINUOUS
 10
151.6000332635
 20
196.8038352413
  0
VERTEX
  8
0
 62
7
  6
CONTINUOUS
 10
151.6010006899
 20
196.7863312287
  0
SEQEND
  0
POLYLINE
  8
0
 62
7
  6
CONTINUOUS
 66
1
 70
0
  0
VERTEX
  8
0
 62
7
  6
CONTINUOUS
 10
164.1403836665
 20
196.946942701
  0
VERTEX
  8
0
 62
7
  6
CONTINUOUS
 10
164.1701645472
 20
196.9441309116
  0
VERTEX
  8
0
 62
7
  6
CONTINUOUS
 10
164.2005540863
 20
196.9351645935
  0
VERTEX
  8
0
 62
7
  6
CONTINUOUS
 10
164.2281875802
 20
196.9206809786
  0
VERTEX
  8
0
 62
7
  6
CONTINUOUS
 10
164.2520044081
 20
196.9016369197
  0
VERTEX
  8
0
 62
7
  6
CONTINUOUS
 10
164.2712857689
 20
196.8791907799
  0
VERTEX
  8
0
 62
7
  6
CONTINUOUS
 10
164.2856722851
 20
196.8545950939
  0
VERTEX
  8
0
 62
7
  6
CONTINUOUS
 10
164.2951557713
 20
196.8290877357
  0
VERTEX
  8
0
 62
7
  6
CONTINUOUS
 10
164.3000332635
 20
196.8038352413
  0
VERTEX
  8
0
 62
7
  6
CONTINUOUS
 10
164.3010006899
 20
196.7863312287
  0
SEQEND
  0
POLYLINE
  8
0
 62
7
  6
CONTINUOUS
 66
1
 70
0
  0
VERTEX
  8
0
 62
7
  6
CONTINUOUS
 10
176.8403836665
 20
196.946942701
  0
VERTEX
  8
0
 62
7
  6
CONTINUOUS
 10
176.8701645472
 20
196.9441309116
  0
VERTEX
  8
0
 62
7
  6
CONTINUOUS
 10
176.9005540863
 20
196.9351645935
  0
VERTEX
  8
0
 62
7
  6
CONTINUOUS
 10
176.9281875802
 20
196.9206809786
  0
VERTEX
  8
0
 62
7
  6
CONTINUOUS
 10
176.9520044081
 20
196.9016369197
  0
VERTEX
  8
0
 62
7
  6
CONTINUOUS
 10
176.9712857689
 20
196.8791907799
  0
VERTEX
  8
0
 62
7
  6
CONTINUOUS
 10
176.9856722851
 20
196.8545950939
  0
VERTEX
  8
0
 62
7
  6
CONTINUOUS
 10
176.9951557713
 20
196.8290877357
  0
VERTEX
  8
0
 62
7
  6
CONTINUOUS
 10
177.0000332635
 20
196.8038352413
  0
VERTEX
  8
0
 62
7
  6
CONTINUOUS
 10
177.0010006899
 20
196.7863312287
  0
SEQEND
  0
POLYLINE
  8
0
 62
7
  6
CONTINUOUS
 66
1
 70
0
  0
VERTEX
  8
0
 62
7
  6
CONTINUOUS
 10
189.5403836665
 20
196.946942701
  0
VERTEX
  8
0
 62
7
  6
CONTINUOUS
 10
189.5701645472
 20
196.9441309116
  0
VERTEX
  8
0
 62
7
  6
CONTINUOUS
 10
189.6005540863
 20
196.9351645935
  0
VERTEX
  8
0
 62
7
  6
CONTINUOUS
 10
189.6281875802
 20
196.9206809786
  0
VERTEX
  8
0
 62
7
  6
CONTINUOUS
 10
189.6520044081
 20
196.9016369197
  0
VERTEX
  8
0
 62
7
  6
CONTINUOUS
 10
189.6712857689
 20
196.8791907799
  0
VERTEX
  8
0
 62
7
  6
CONTINUOUS
 10
189.6856722851
 20
196.8545950939
  0
VERTEX
  8
0
 62
7
  6
CONTINUOUS
 10
189.6951557713
 20
196.8290877357
  0
VERTEX
  8
0
 62
7
  6
CONTINUOUS
 10
189.7000332635
 20
196.8038352413
  0
VERTEX
  8
0
 62
7
  6
CONTINUOUS
 10
189.7010006899
 20
196.7863312287
  0
SEQEND
  0
POLYLINE
  8
0
 62
7
  6
CONTINUOUS
 66
1
 70
0
  0
VERTEX
  8
0
 62
7
  6
CONTINUOUS
 10
202.2403836665
 20
196.946942701
  0
VERTEX
  8
0
 62
7
  6
CONTINUOUS
 10
202.2701645472
 20
196.9441309116
  0
VERTEX
  8
0
 62
7
  6
CONTINUOUS
 10
202.3005540863
 20
196.9351645935
  0
VERTEX
  8
0
 62
7
  6
CONTINUOUS
 10
202.3281875802
 20
196.9206809786
  0
VERTEX
  8
0
 62
7
  6
CONTINUOUS
 10
202.3520044081
 20
196.9016369197
  0
VERTEX
  8
0
 62
7
  6
CONTINUOUS
 10
202.3712857689
 20
196.8791907799
  0
VERTEX
  8
0
 62
7
  6
CONTINUOUS
 10
202.3856722851
 20
196.8545950939
  0
VERTEX
  8
0
 62
7
  6
CONTINUOUS
 10
202.3951557713
 20
196.8290877357
  0
VERTEX
  8
0
 62
7
  6
CONTINUOUS
 10
202.4000332635
 20
196.8038352413
  0
VERTEX
  8
0
 62
7
  6
CONTINUOUS
 10
202.4010006899
 20
196.7863312287
  0
SEQEND
  0
POLYLINE
  8
0
 62
7
  6
CONTINUOUS
 66
1
 70
0
  0
VERTEX
  8
0
 62
7
  6
CONTINUOUS
 10
214.9403836665
 20
196.946942701
  0
VERTEX
  8
0
 62
7
  6
CONTINUOUS
 10
214.9701645472
 20
196.9441309116
  0
VERTEX
  8
0
 62
7
  6
CONTINUOUS
 10
215.0005540863
 20
196.9351645935
  0
VERTEX
  8
0
 62
7
  6
CONTINUOUS
 10
215.0281875802
 20
196.9206809786
  0
VERTEX
  8
0
 62
7
  6
CONTINUOUS
 10
215.0520044081
 20
196.9016369197
  0
VERTEX
  8
0
 62
7
  6
CONTINUOUS
 10
215.0712857689
 20
196.8791907799
  0
VERTEX
  8
0
 62
7
  6
CONTINUOUS
 10
215.0856722851
 20
196.8545950939
  0
VERTEX
  8
0
 62
7
  6
CONTINUOUS
 10
215.0951557713
 20
196.8290877357
  0
VERTEX
  8
0
 62
7
  6
CONTINUOUS
 10
215.1000332635
 20
196.8038352413
  0
VERTEX
  8
0
 62
7
  6
CONTINUOUS
 10
215.1010006899
 20
196.7863312287
  0
SEQEND
  0
POLYLINE
  8
0
 62
7
  6
CONTINUOUS
 66
1
 70
0
  0
VERTEX
  8
0
 62
7
  6
CONTINUOUS
 10
49.9318587949
 20
216.3047729789
  0
VERTEX
  8
0
 62
7
  6
CONTINUOUS
 10
49.9020779142
 20
216.3075847683
  0
VERTEX
  8
0
 62
7
  6
CONTINUOUS
 10
49.8716883751
 20
216.3165510864
  0
VERTEX
  8
0
 62
7
  6
CONTINUOUS
 10
49.8440548811
 20
216.3310347013
  0
VERTEX
  8
0
 62
7
  6
CONTINUOUS
 10
49.8202380532
 20
216.3500787602
  0
VERTEX
  8
0
 62
7
  6
CONTINUOUS
 10
49.8009566925
 20
216.3725249
  0
VERTEX
  8
0
 62
7
  6
CONTINUOUS
 10
49.7865701763
 20
216.397120586
  0
VERTEX
  8
0
 62
7
  6
CONTINUOUS
 10
49.7770866901
 20
216.4226279442
  0
VERTEX
  8
0
 62
7
  6
CONTINUOUS
 10
49.7722091979
 20
216.4478804386
  0
VERTEX
  8
0
 62
7
  6
CONTINUOUS
 10
49.7712417715
 20
216.4653844512
  0
SEQEND
  0
POLYLINE
  8
0
 62
7
  6
CONTINUOUS
 66
1
 70
0
  0
VERTEX
  8
0
 62
7
  6
CONTINUOUS
 10
100.6936079996
 20
196.9469433583
  0
VERTEX
  8
0
 62
7
  6
CONTINUOUS
 10
100.7144943413
 20
196.9443256551
  0
VERTEX
  8
0
 62
7
  6
CONTINUOUS
 10
100.7338222056
 20
196.9368125206
  0
VERTEX
  8
0
 62
7
  6
CONTINUOUS
 10
100.7499013814
 20
196.9256434261
  0
VERTEX
  8
0
 62
7
  6
CONTINUOUS
 10
100.7623922023
 20
196.9119832945
  0
VERTEX
  8
0
 62
7
  6
CONTINUOUS
 10
100.7712592178
 20
196.8968357261
  0
VERTEX
  8
0
 62
7
  6
CONTINUOUS
 10
100.7766452568
 20
196.8810566354
  0
VERTEX
  8
0
 62
7
  6
CONTINUOUS
 10
100.7788133801
 20
196.8654820339
  0
VERTEX
  8
0
 62
7
  6
CONTINUOUS
 10
100.7789004158
 20
196.861653644
  0
SEQEND
  0
POLYLINE
  8
0
 62
7
  6
CONTINUOUS
 66
1
 70
0
  0
VERTEX
  8
0
 62
7
  6
CONTINUOUS
 10
113.3936079996
 20
196.9469433583
  0
VERTEX
  8
0
 62
7
  6
CONTINUOUS
 10
113.4144943413
 20
196.9443256551
  0
VERTEX
  8
0
 62
7
  6
CONTINUOUS
 10
113.4338222056
 20
196.9368125206
  0
VERTEX
  8
0
 62
7
  6
CONTINUOUS
 10
113.4499013814
 20
196.9256434261
  0
VERTEX
  8
0
 62
7
  6
CONTINUOUS
 10
113.4623922023
 20
196.9119832945
  0
VERTEX
  8
0
 62
7
  6
CONTINUOUS
 10
113.4712592178
 20
196.8968357261
  0
VERTEX
  8
0
 62
7
  6
CONTINUOUS
 10
113.4766452568
 20
196.8810566354
  0
VERTEX
  8
0
 62
7
  6
CONTINUOUS
 10
113.4788133801
 20
196.8654820339
  0
VERTEX
  8
0
 62
7
  6
CONTINUOUS
 10
113.4789004158
 20
196.861653644
  0
SEQEND
  0
POLYLINE
  8
0
 62
7
  6
CONTINUOUS
 66
1
 70
0
  0
VERTEX
  8
0
 62
7
  6
CONTINUOUS
 10
126.0936079996
 20
196.9469433583
  0
VERTEX
  8
0
 62
7
  6
CONTINUOUS
 10
126.1144943413
 20
196.9443256551
  0
VERTEX
  8
0
 62
7
  6
CONTINUOUS
 10
126.1338222056
 20
196.9368125206
  0
VERTEX
  8
0
 62
7
  6
CONTINUOUS
 10
126.1499013814
 20
196.9256434261
  0
VERTEX
  8
0
 62
7
  6
CONTINUOUS
 10
126.1623922023
 20
196.9119832945
  0
VERTEX
  8
0
 62
7
  6
CONTINUOUS
 10
126.1712592178
 20
196.8968357261
  0
VERTEX
  8
0
 62
7
  6
CONTINUOUS
 10
126.1766452568
 20
196.8810566354
  0
VERTEX
  8
0
 62
7
  6
CONTINUOUS
 10
126.1788133801
 20
196.8654820339
  0
VERTEX
  8
0
 62
7
  6
CONTINUOUS
 10
126.1789004158
 20
196.861653644
  0
SEQEND
  0
POLYLINE
  8
0
 62
7
  6
CONTINUOUS
 66
1
 70
0
  0
VERTEX
  8
0
 62
7
  6
CONTINUOUS
 10
165.6955123303
 20
188.5862796097
  0
VERTEX
  8
0
 62
7
  6
CONTINUOUS
 10
165.7391093588
 20
188.5784216533
  0
VERTEX
  8
0
 62
7
  6
CONTINUOUS
 10
165.7800209262
 20
188.5758578856
  0
SEQEND
  0
POLYLINE
  8
0
 62
7
  6
CONTINUOUS
 66
1
 70
0
  0
VERTEX
  8
0
 62
7
  6
CONTINUOUS
 10
178.3955123303
 20
188.5862796097
  0
VERTEX
  8
0
 62
7
  6
CONTINUOUS
 10
178.4391093588
 20
188.5784216533
  0
VERTEX
  8
0
 62
7
  6
CONTINUOUS
 10
178.4800209262
 20
188.5758578856
  0
SEQEND
  0
POLYLINE
  8
0
 62
7
  6
CONTINUOUS
 66
1
 70
0
  0
VERTEX
  8
0
 62
7
  6
CONTINUOUS
 10
191.0955123303
 20
188.5862796097
  0
VERTEX
  8
0
 62
7
  6
CONTINUOUS
 10
191.1391093588
 20
188.5784216533
  0
VERTEX
  8
0
 62
7
  6
CONTINUOUS
 10
191.1800209262
 20
188.5758578856
  0
SEQEND
  0
POLYLINE
  8
0
 62
7
  6
CONTINUOUS
 66
1
 70
0
  0
VERTEX
  8
0
 62
7
  6
CONTINUOUS
 10
203.7955123303
 20
188.5862796097
  0
VERTEX
  8
0
 62
7
  6
CONTINUOUS
 10
203.8391093588
 20
188.5784216533
  0
VERTEX
  8
0
 62
7
  6
CONTINUOUS
 10
203.8800209262
 20
188.5758578856
  0
SEQEND
  0
POLYLINE
  8
0
 62
7
  6
CONTINUOUS
 66
1
 70
0
  0
VERTEX
  8
0
 62
7
  6
CONTINUOUS
 10
216.4955123303
 20
188.5862796097
  0
VERTEX
  8
0
 62
7
  6
CONTINUOUS
 10
216.5391093588
 20
188.5784216533
  0
VERTEX
  8
0
 62
7
  6
CONTINUOUS
 10
216.5800209262
 20
188.5758578856
  0
SEQEND
  0
POLYLINE
  8
0
 62
7
  6
CONTINUOUS
 66
1
 70
0
  0
VERTEX
  8
0
 62
7
  6
CONTINUOUS
 10
48.3767301311
 20
224.6654360702
  0
VERTEX
  8
0
 62
7
  6
CONTINUOUS
 10
48.3331331025
 20
224.6732940266
  0
VERTEX
  8
0
 62
7
  6
CONTINUOUS
 10
48.2922215351
 20
224.6758577943
  0
SEQEND
  0
POLYLINE
  8
0
 62
7
  6
CONTINUOUS
 66
1
 70
0
  0
VERTEX
  8
0
 62
7
  6
CONTINUOUS
 10
48.4754494498
 20
224.6338846564
  0
VERTEX
  8
0
 62
7
  6
CONTINUOUS
 10
48.4571298675
 20
224.6407424706
  0
VERTEX
  8
0
 62
7
  6
CONTINUOUS
 10
48.416660116
 20
224.6544866291
  0
VERTEX
  8
0
 62
7
  6
CONTINUOUS
 10
48.3767301311
 20
224.6654360702
  0
SEQEND
  0
POLYLINE
  8
0
 62
7
  6
CONTINUOUS
 66
1
 70
0
  0
VERTEX
  8
0
 62
7
  6
CONTINUOUS
 10
152.8967930116
 20
188.6178310235
  0
VERTEX
  8
0
 62
7
  6
CONTINUOUS
 10
152.9151125939
 20
188.6109732093
  0
VERTEX
  8
0
 62
7
  6
CONTINUOUS
 10
152.9555823454
 20
188.5972290507
  0
VERTEX
  8
0
 62
7
  6
CONTINUOUS
 10
152.9955123303
 20
188.5862796097
  0
SEQEND
  0
POLYLINE
  8
0
 62
7
  6
CONTINUOUS
 66
1
 70
0
  0
VERTEX
  8
0
 62
7
  6
CONTINUOUS
 10
61.1754494498
 20
224.6338846564
  0
VERTEX
  8
0
 62
7
  6
CONTINUOUS
 10
61.1571298675
 20
224.6407424706
  0
VERTEX
  8
0
 62
7
  6
CONTINUOUS
 10
61.116660116
 20
224.6544866291
  0
VERTEX
  8
0
 62
7
  6
CONTINUOUS
 10
61.0767301311
 20
224.6654360702
  0
SEQEND
  0
POLYLINE
  8
0
 62
7
  6
CONTINUOUS
 66
1
 70
0
  0
VERTEX
  8
0
 62
7
  6
CONTINUOUS
 10
165.5967930116
 20
188.6178310235
  0
VERTEX
  8
0
 62
7
  6
CONTINUOUS
 10
165.6151125939
 20
188.6109732093
  0
VERTEX
  8
0
 62
7
  6
CONTINUOUS
 10
165.6555823454
 20
188.5972290507
  0
VERTEX
  8
0
 62
7
  6
CONTINUOUS
 10
165.6955123303
 20
188.5862796097
  0
SEQEND
  0
POLYLINE
  8
0
 62
7
  6
CONTINUOUS
 66
1
 70
0
  0
VERTEX
  8
0
 62
7
  6
CONTINUOUS
 10
73.8754494498
 20
224.6338846564
  0
VERTEX
  8
0
 62
7
  6
CONTINUOUS
 10
73.8571298675
 20
224.6407424706
  0
VERTEX
  8
0
 62
7
  6
CONTINUOUS
 10
73.816660116
 20
224.6544866291
  0
VERTEX
  8
0
 62
7
  6
CONTINUOUS
 10
73.7767301311
 20
224.6654360702
  0
SEQEND
  0
POLYLINE
  8
0
 62
7
  6
CONTINUOUS
 66
1
 70
0
  0
VERTEX
  8
0
 62
7
  6
CONTINUOUS
 10
178.2967930116
 20
188.6178310235
  0
VERTEX
  8
0
 62
7
  6
CONTINUOUS
 10
178.3151125939
 20
188.6109732093
  0
VERTEX
  8
0
 62
7
  6
CONTINUOUS
 10
178.3555823454
 20
188.5972290507
  0
VERTEX
  8
0
 62
7
  6
CONTINUOUS
 10
178.3955123303
 20
188.5862796097
  0
SEQEND
  0
POLYLINE
  8
0
 62
7
  6
CONTINUOUS
 66
1
 70
0
  0
VERTEX
  8
0
 62
7
  6
CONTINUOUS
 10
86.5754494498
 20
224.6338846564
  0
VERTEX
  8
0
 62
7
  6
CONTINUOUS
 10
86.5571298675
 20
224.6407424706
  0
VERTEX
  8
0
 62
7
  6
CONTINUOUS
 10
86.516660116
 20
224.6544866291
  0
VERTEX
  8
0
 62
7
  6
CONTINUOUS
 10
86.4767301311
 20
224.6654360702
  0
SEQEND
  0
POLYLINE
  8
0
 62
7
  6
CONTINUOUS
 66
1
 70
0
  0
VERTEX
  8
0
 62
7
  6
CONTINUOUS
 10
190.9967930116
 20
188.6178310235
  0
VERTEX
  8
0
 62
7
  6
CONTINUOUS
 10
191.0151125939
 20
188.6109732093
  0
VERTEX
  8
0
 62
7
  6
CONTINUOUS
 10
191.0555823454
 20
188.5972290507
  0
VERTEX
  8
0
 62
7
  6
CONTINUOUS
 10
191.0955123303
 20
188.5862796097
  0
SEQEND
  0
LINE
  8
0
 62
7
  6
CONTINUOUS
 10
152.8968984546
 20
188.6177906152
 11
152.8967930116
 21
188.6178310235
  0
LINE
  8
0
 62
7
  6
CONTINUOUS
 10
61.1753440067
 20
224.6339250647
 11
61.1754494498
 21
224.6338846564
  0
LINE
  8
0
 62
7
  6
CONTINUOUS
 10
165.5968984546
 20
188.6177906152
 11
165.5967930116
 21
188.6178310235
  0
LINE
  8
0
 62
7
  6
CONTINUOUS
 10
73.8753440067
 20
224.6339250647
 11
73.8754494498
 21
224.6338846564
  0
LINE
  8
0
 62
7
  6
CONTINUOUS
 10
178.2968984546
 20
188.6177906152
 11
178.2967930116
 21
188.6178310235
  0
LINE
  8
0
 62
7
  6
CONTINUOUS
 10
86.5753440067
 20
224.6339250647
 11
86.5754494498
 21
224.6338846564
  0
LINE
  8
0
 62
7
  6
CONTINUOUS
 10
190.9968984546
 20
188.6177906152
 11
190.9967930116
 21
188.6178310235
  0
POLYLINE
  8
0
 62
7
  6
CONTINUOUS
 66
1
 70
0
  0
VERTEX
  8
0
 62
7
  6
CONTINUOUS
 10
151.3933205559
 20
220.913868136
  0
VERTEX
  8
0
 62
7
  6
CONTINUOUS
 10
151.3554862192
 20
221.3068674361
  0
VERTEX
  8
0
 62
7
  6
CONTINUOUS
 10
151.2969392814
 20
221.7781218403
  0
VERTEX
  8
0
 62
7
  6
CONTINUOUS
 10
151.2257452358
 20
222.2278048007
  0
VERTEX
  8
0
 62
7
  6
CONTINUOUS
 10
151.1420088968
 20
222.6525992052
  0
VERTEX
  8
0
 62
7
  6
CONTINUOUS
 10
151.0457364004
 20
223.0490268064
  0
VERTEX
  8
0
 62
7
  6
CONTINUOUS
 10
150.9367585561
 20
223.4134885402
  0
VERTEX
  8
0
 62
7
  6
CONTINUOUS
 10
150.8151863364
 20
223.7408149574
  0
VERTEX
  8
0
 62
7
  6
CONTINUOUS
 10
150.6827516657
 20
224.0227895999
  0
VERTEX
  8
0
 62
7
  6
CONTINUOUS
 10
150.5410388025
 20
224.2546563912
  0
VERTEX
  8
0
 62
7
  6
CONTINUOUS
 10
150.3904620517
 20
224.4355352616
  0
VERTEX
  8
0
 62
7
  6
CONTINUOUS
 10
150.2309180257
 20
224.565881324
  0
VERTEX
  8
0
 62
7
  6
CONTINUOUS
 10
150.0974779008
 20
224.6339187909
  0
SEQEND
  0
POLYLINE
  8
0
 62
7
  6
CONTINUOUS
 66
1
 70
0
  0
VERTEX
  8
0
 62
7
  6
CONTINUOUS
 10
151.6010219024
 20
192.3378475469
  0
VERTEX
  8
0
 62
7
  6
CONTINUOUS
 10
151.6385440568
 20
191.9477288486
  0
VERTEX
  8
0
 62
7
  6
CONTINUOUS
 10
151.6967848399
 20
191.4779915664
  0
VERTEX
  8
0
 62
7
  6
CONTINUOUS
 10
151.7672228746
 20
191.0316922212
  0
VERTEX
  8
0
 62
7
  6
CONTINUOUS
 10
151.8500251342
 20
190.6096923615
  0
VERTEX
  8
0
 62
7
  6
CONTINUOUS
 10
151.9456782458
 20
190.2135974783
  0
VERTEX
  8
0
 62
7
  6
CONTINUOUS
 10
152.0550354488
 20
189.8459102975
  0
VERTEX
  8
0
 62
7
  6
CONTINUOUS
 10
152.1783592598
 20
189.5128160387
  0
VERTEX
  8
0
 62
7
  6
CONTINUOUS
 10
152.3126808634
 20
189.226884494
  0
VERTEX
  8
0
 62
7
  6
CONTINUOUS
 10
152.4546936467
 20
188.9950995379
  0
VERTEX
  8
0
 62
7
  6
CONTINUOUS
 10
152.6039367085
 20
188.8161239704
  0
VERTEX
  8
0
 62
7
  6
CONTINUOUS
 10
152.7615671896
 20
188.6870300159
  0
VERTEX
  8
0
 62
7
  6
CONTINUOUS
 10
152.8968970766
 20
188.6177870237
  0
SEQEND
  0
LINE
  8
0
 62
7
  6
CONTINUOUS
 10
151.6010219118
 20
192.3378521239
 11
151.6010001235
 21
192.3383651759
  0
LINE
  8
0
 62
7
  6
CONTINUOUS
 10
151.3933423379
 20
220.9133516131
 11
151.3933205482
 21
220.9138643709
  0
LINE
  8
0
 62
7
  6
CONTINUOUS
 10
145.0434423379
 20
192.3383661282
 11
145.0434423379
 21
196.7868160798
  0
LINE
  8
0
 62
7
  6
CONTINUOUS
 10
145.2509001235
 20
220.9133495143
 11
145.2509001235
 21
216.3897746397
  0
LINE
  8
0
 62
7
  6
CONTINUOUS
 10
151.3933423379
 20
216.3897730141
 11
151.3933423379
 21
220.9133471826
  0
LINE
  8
0
 62
7
  6
CONTINUOUS
 10
151.6010001235
 20
196.7868165137
 11
151.6010001235
 21
192.3383661297
  0
POLYLINE
  8
0
 62
7
  6
CONTINUOUS
 66
1
 70
0
  0
VERTEX
  8
0
 62
7
  6
CONTINUOUS
 10
145.0434417634
 20
196.7863308525
  0
VERTEX
  8
0
 62
7
  6
CONTINUOUS
 10
145.0437441596
 20
196.7961213236
  0
VERTEX
  8
0
 62
7
  6
CONTINUOUS
 10
145.0465511593
 20
196.8176329737
  0
VERTEX
  8
0
 62
7
  6
CONTINUOUS
 10
145.0525103467
 20
196.839340308
  0
VERTEX
  8
0
 62
7
  6
CONTINUOUS
 10
145.0617738034
 20
196.8606330104
  0
VERTEX
  8
0
 62
7
  6
CONTINUOUS
 10
145.0743656059
 20
196.8808693221
  0
VERTEX
  8
0
 62
7
  6
CONTINUOUS
 10
145.0902057449
 20
196.8994334583
  0
VERTEX
  8
0
 62
7
  6
CONTINUOUS
 10
145.1090856294
 20
196.9157039239
  0
VERTEX
  8
0
 62
7
  6
CONTINUOUS
 10
145.1306580643
 20
196.9290815034
  0
VERTEX
  8
0
 62
7
  6
CONTINUOUS
 10
145.1544423001
 20
196.9390259116
  0
VERTEX
  8
0
 62
7
  6
CONTINUOUS
 10
145.1798219967
 20
196.9450847621
  0
VERTEX
  8
0
 62
7
  6
CONTINUOUS
 10
145.2040604895
 20
196.9469427706
  0
SEQEND
  0
POLYLINE
  8
0
 62
7
  6
CONTINUOUS
 66
1
 70
0
  0
VERTEX
  8
0
 62
7
  6
CONTINUOUS
 10
145.2509004163
 20
216.3900639357
  0
VERTEX
  8
0
 62
7
  6
CONTINUOUS
 10
145.2507377204
 20
216.3848287559
  0
VERTEX
  8
0
 62
7
  6
CONTINUOUS
 10
145.2483949349
 20
216.369625187
  0
VERTEX
  8
0
 62
7
  6
CONTINUOUS
 10
145.2429369294
 20
216.3541808002
  0
VERTEX
  8
0
 62
7
  6
CONTINUOUS
 10
145.2340465765
 20
216.3392651037
  0
VERTEX
  8
0
 62
7
  6
CONTINUOUS
 10
145.2215518138
 20
216.3257671065
  0
VERTEX
  8
0
 62
7
  6
CONTINUOUS
 10
145.2055007488
 20
216.3147321931
  0
VERTEX
  8
0
 62
7
  6
CONTINUOUS
 10
145.1862742873
 20
216.3073347398
  0
VERTEX
  8
0
 62
7
  6
CONTINUOUS
 10
145.1656064783
 20
216.3047723158
  0
SEQEND
  0
LINE
  8
0
 62
7
  6
CONTINUOUS
 10
145.2509219125
 20
220.9138635285
 11
145.2509001235
 21
220.9133504686
  0
LINE
  8
0
 62
7
  6
CONTINUOUS
 10
145.0434205471
 20
192.3378520934
 11
145.0434423379
 21
192.3383651744
  0
LINE
  8
0
 62
7
  6
CONTINUOUS
 10
157.9509219125
 20
220.9138635285
 11
157.9509001235
 21
220.9133504686
  0
POLYLINE
  8
0
 62
7
  6
CONTINUOUS
 66
1
 70
0
  0
VERTEX
  8
0
 62
7
  6
CONTINUOUS
 10
184.6467707461
 20
224.6339210742
  0
VERTEX
  8
0
 62
7
  6
CONTINUOUS
 10
184.5109073108
 20
224.5643238418
  0
VERTEX
  8
0
 62
7
  6
CONTINUOUS
 10
184.3516152473
 20
224.4333578736
  0
VERTEX
  8
0
 62
7
  6
CONTINUOUS
 10
184.2012395654
 20
224.2518773938
  0
VERTEX
  8
0
 62
7
  6
CONTINUOUS
 10
184.0596881585
 20
224.0194040601
  0
VERTEX
  8
0
 62
7
  6
CONTINUOUS
 10
183.9274022566
 20
223.7368366541
  0
VERTEX
  8
0
 62
7
  6
CONTINUOUS
 10
183.8059843163
 20
223.4089719931
  0
VERTEX
  8
0
 62
7
  6
CONTINUOUS
 10
183.6971708028
 20
223.0440598571
  0
VERTEX
  8
0
 62
7
  6
CONTINUOUS
 10
183.6010687853
 20
222.6472699295
  0
VERTEX
  8
0
 62
7
  6
CONTINUOUS
 10
183.5175049691
 20
222.2221898364
  0
VERTEX
  8
0
 62
7
  6
CONTINUOUS
 10
183.4464818283
 20
221.7722780319
  0
VERTEX
  8
0
 62
7
  6
CONTINUOUS
 10
183.388102137
 20
221.300826219
  0
VERTEX
  8
0
 62
7
  6
CONTINUOUS
 10
183.3509219031
 20
220.9138681074
  0
SEQEND
  0
POLYLINE
  8
0
 62
7
  6
CONTINUOUS
 66
1
 70
0
  0
VERTEX
  8
0
 62
7
  6
CONTINUOUS
 10
118.3254717153
 20
188.6177946056
  0
VERTEX
  8
0
 62
7
  6
CONTINUOUS
 10
118.4613351505
 20
188.6873918381
  0
VERTEX
  8
0
 62
7
  6
CONTINUOUS
 10
118.6206272141
 20
188.8183578063
  0
VERTEX
  8
0
 62
7
  6
CONTINUOUS
 10
118.7710028959
 20
188.9998382861
  0
VERTEX
  8
0
 62
7
  6
CONTINUOUS
 10
118.9125543028
 20
189.2323116198
  0
VERTEX
  8
0
 62
7
  6
CONTINUOUS
 10
119.0448402048
 20
189.5148790257
  0
VERTEX
  8
0
 62
7
  6
CONTINUOUS
 10
119.1662581451
 20
189.8427436868
  0
VERTEX
  8
0
 62
7
  6
CONTINUOUS
 10
119.2750716586
 20
190.2076558228
  0
VERTEX
  8
0
 62
7
  6
CONTINUOUS
 10
119.3711736761
 20
190.6044457504
  0
VERTEX
  8
0
 62
7
  6
CONTINUOUS
 10
119.4547374923
 20
191.0295258435
  0
VERTEX
  8
0
 62
7
  6
CONTINUOUS
 10
119.5257606331
 20
191.4794376479
  0
VERTEX
  8
0
 62
7
  6
CONTINUOUS
 10
119.5841403244
 20
191.9508894609
  0
VERTEX
  8
0
 62
7
  6
CONTINUOUS
 10
119.6213205583
 20
192.3378475725
  0
SEQEND
  0
POLYLINE
  8
0
 62
7
  6
CONTINUOUS
 66
1
 70
0
  0
VERTEX
  8
0
 62
7
  6
CONTINUOUS
 10
197.3467707461
 20
224.6339210742
  0
VERTEX
  8
0
 62
7
  6
CONTINUOUS
 10
197.2109073108
 20
224.5643238418
  0
VERTEX
  8
0
 62
7
  6
CONTINUOUS
 10
197.0516152473
 20
224.4333578736
  0
VERTEX
  8
0
 62
7
  6
CONTINUOUS
 10
196.9012395654
 20
224.2518773938
  0
VERTEX
  8
0
 62
7
  6
CONTINUOUS
 10
196.7596881585
 20
224.0194040601
  0
VERTEX
  8
0
 62
7
  6
CONTINUOUS
 10
196.6274022566
 20
223.7368366542
  0
VERTEX
  8
0
 62
7
  6
CONTINUOUS
 10
196.5059843163
 20
223.4089719931
  0
VERTEX
  8
0
 62
7
  6
CONTINUOUS
 10
196.3971708028
 20
223.0440598571
  0
VERTEX
  8
0
 62
7
  6
CONTINUOUS
 10
196.3010687853
 20
222.6472699295
  0
VERTEX
  8
0
 62
7
  6
CONTINUOUS
 10
196.2175049691
 20
222.2221898364
  0
VERTEX
  8
0
 62
7
  6
CONTINUOUS
 10
196.1464818283
 20
221.7722780319
  0
VERTEX
  8
0
 62
7
  6
CONTINUOUS
 10
196.088102137
 20
221.300826219
  0
VERTEX
  8
0
 62
7
  6
CONTINUOUS
 10
196.0509219031
 20
220.9138681074
  0
SEQEND
  0
POLYLINE
  8
0
 62
7
  6
CONTINUOUS
 66
1
 70
0
  0
VERTEX
  8
0
 62
7
  6
CONTINUOUS
 10
131.0254717153
 20
188.6177946056
  0
VERTEX
  8
0
 62
7
  6
CONTINUOUS
 10
131.1613351505
 20
188.6873918381
  0
VERTEX
  8
0
 62
7
  6
CONTINUOUS
 10
131.3206272141
 20
188.8183578063
  0
VERTEX
  8
0
 62
7
  6
CONTINUOUS
 10
131.4710028959
 20
188.9998382861
  0
VERTEX
  8
0
 62
7
  6
CONTINUOUS
 10
131.6125543028
 20
189.2323116198
  0
VERTEX
  8
0
 62
7
  6
CONTINUOUS
 10
131.7448402048
 20
189.5148790257
  0
VERTEX
  8
0
 62
7
  6
CONTINUOUS
 10
131.8662581451
 20
189.8427436868
  0
VERTEX
  8
0
 62
7
  6
CONTINUOUS
 10
131.9750716586
 20
190.2076558228
  0
VERTEX
  8
0
 62
7
  6
CONTINUOUS
 10
132.0711736761
 20
190.6044457504
  0
VERTEX
  8
0
 62
7
  6
CONTINUOUS
 10
132.1547374923
 20
191.0295258435
  0
VERTEX
  8
0
 62
7
  6
CONTINUOUS
 10
132.2257606331
 20
191.4794376479
  0
VERTEX
  8
0
 62
7
  6
CONTINUOUS
 10
132.2841403244
 20
191.9508894609
  0
VERTEX
  8
0
 62
7
  6
CONTINUOUS
 10
132.3213205583
 20
192.3378475725
  0
SEQEND
  0
POLYLINE
  8
0
 62
7
  6
CONTINUOUS
 66
1
 70
0
  0
VERTEX
  8
0
 62
7
  6
CONTINUOUS
 10
210.0467707461
 20
224.6339210742
  0
VERTEX
  8
0
 62
7
  6
CONTINUOUS
 10
209.9109073108
 20
224.5643238418
  0
VERTEX
  8
0
 62
7
  6
CONTINUOUS
 10
209.7516152473
 20
224.4333578736
  0
VERTEX
  8
0
 62
7
  6
CONTINUOUS
 10
209.6012395654
 20
224.2518773938
  0
VERTEX
  8
0
 62
7
  6
CONTINUOUS
 10
209.4596881585
 20
224.0194040601
  0
VERTEX
  8
0
 62
7
  6
CONTINUOUS
 10
209.3274022566
 20
223.7368366541
  0
VERTEX
  8
0
 62
7
  6
CONTINUOUS
 10
209.2059843163
 20
223.4089719931
  0
VERTEX
  8
0
 62
7
  6
CONTINUOUS
 10
209.0971708028
 20
223.0440598571
  0
VERTEX
  8
0
 62
7
  6
CONTINUOUS
 10
209.0010687853
 20
222.6472699295
  0
VERTEX
  8
0
 62
7
  6
CONTINUOUS
 10
208.9175049691
 20
222.2221898364
  0
VERTEX
  8
0
 62
7
  6
CONTINUOUS
 10
208.8464818283
 20
221.7722780319
  0
VERTEX
  8
0
 62
7
  6
CONTINUOUS
 10
208.788102137
 20
221.300826219
  0
VERTEX
  8
0
 62
7
  6
CONTINUOUS
 10
208.7509219031
 20
220.9138681074
  0
SEQEND
  0
POLYLINE
  8
0
 62
7
  6
CONTINUOUS
 66
1
 70
0
  0
VERTEX
  8
0
 62
7
  6
CONTINUOUS
 10
143.7475570925
 20
188.6177889222
  0
VERTEX
  8
0
 62
7
  6
CONTINUOUS
 10
143.8807932114
 20
188.6856900705
  0
VERTEX
  8
0
 62
7
  6
CONTINUOUS
 10
144.038998279
 20
188.8146150454
  0
VERTEX
  8
0
 62
7
  6
CONTINUOUS
 10
144.1886947711
 20
188.9936172484
  0
VERTEX
  8
0
 62
7
  6
CONTINUOUS
 10
144.3309427999
 20
189.2253537538
  0
VERTEX
  8
0
 62
7
  6
CONTINUOUS
 10
144.4652872522
 20
189.510902922
  0
VERTEX
  8
0
 62
7
  6
CONTINUOUS
 10
144.5885569734
 20
189.8433434845
  0
VERTEX
  8
0
 62
7
  6
CONTINUOUS
 10
144.6978942175
 20
190.210349235
  0
VERTEX
  8
0
 62
7
  6
CONTINUOUS
 10
144.7935778022
 20
190.6058396
  0
VERTEX
  8
0
 62
7
  6
CONTINUOUS
 10
144.876442924
 20
191.0272911686
  0
VERTEX
  8
0
 62
7
  6
CONTINUOUS
 10
144.9469634014
 20
191.4730548498
  0
VERTEX
  8
0
 62
7
  6
CONTINUOUS
 10
145.0052997228
 20
191.9422089722
  0
VERTEX
  8
0
 62
7
  6
CONTINUOUS
 10
145.0434205565
 20
192.3378475161
  0
SEQEND
  0
LINE
  8
0
 62
7
  6
CONTINUOUS
 10
197.3466907367
 20
224.6338837839
 11
197.3467729617
 21
224.6339153006
  0
LINE
  8
0
 62
7
  6
CONTINUOUS
 10
105.6255517247
 20
188.617831896
 11
105.6254694997
 21
188.6178003793
  0
LINE
  8
0
 62
7
  6
CONTINUOUS
 10
210.0466907367
 20
224.6338837839
 11
210.0467729617
 21
224.6339153006
  0
LINE
  8
0
 62
7
  6
CONTINUOUS
 10
118.3255517247
 20
188.617831896
 11
118.3254694997
 21
188.6178003793
  0
LINE
  8
0
 62
7
  6
CONTINUOUS
 10
222.7466907367
 20
224.6338837839
 11
222.7467729617
 21
224.6339153006
  0
LINE
  8
0
 62
7
  6
CONTINUOUS
 10
131.0255517247
 20
188.617831896
 11
131.0254694997
 21
188.6178003793
  0
LINE
  8
0
 62
7
  6
CONTINUOUS
 10
143.7475570925
 20
188.6177889222
 11
143.7476534626
 21
188.6178258511
  0
LINE
  8
0
 62
7
  6
CONTINUOUS
 10
197.365342737
 20
224.6408630588
 11
197.3466907367
 21
224.6338837839
  0
LINE
  8
0
 62
7
  6
CONTINUOUS
 10
105.6068997244
 20
188.6108526211
 11
105.6255517247
 21
188.617831896
  0
LINE
  8
0
 62
7
  6
CONTINUOUS
 10
210.065342737
 20
224.6408630588
 11
210.0466907367
 21
224.6338837839
  0
LINE
  8
0
 62
7
  6
CONTINUOUS
 10
118.3068997244
 20
188.6108526211
 11
118.3255517247
 21
188.617831896
  0
LINE
  8
0
 62
7
  6
CONTINUOUS
 10
222.765342737
 20
224.6408630588
 11
222.7466907367
 21
224.6338837839
  0
LINE
  8
0
 62
7
  6
CONTINUOUS
 10
131.0068997244
 20
188.6108526211
 11
131.0255517247
 21
188.617831896
  0
LINE
  8
0
 62
7
  6
CONTINUOUS
 10
143.727745228
 20
188.6103959677
 11
143.7476512156
 21
188.6178317007
  0
POLYLINE
  8
0
 62
7
  6
CONTINUOUS
 66
1
 70
0
  0
VERTEX
  8
0
 62
7
  6
CONTINUOUS
 10
134.007822869
 20
224.6758577968
  0
VERTEX
  8
0
 62
7
  6
CONTINUOUS
 10
133.9673903139
 20
224.6733525386
  0
VERTEX
  8
0
 62
7
  6
CONTINUOUS
 10
133.9241290181
 20
224.6656266226
  0
VERTEX
  8
0
 62
7
  6
CONTINUOUS
 10
133.8845325844
 20
224.6548439768
  0
VERTEX
  8
0
 62
7
  6
CONTINUOUS
 10
133.8444972333
 20
224.6413197122
  0
SEQEND
  0
POLYLINE
  8
0
 62
7
  6
CONTINUOUS
 66
1
 70
0
  0
VERTEX
  8
0
 62
7
  6
CONTINUOUS
 10
121.307822869
 20
224.6758577968
  0
VERTEX
  8
0
 62
7
  6
CONTINUOUS
 10
121.2673903139
 20
224.6733525386
  0
VERTEX
  8
0
 62
7
  6
CONTINUOUS
 10
121.2241290181
 20
224.6656266226
  0
VERTEX
  8
0
 62
7
  6
CONTINUOUS
 10
121.1845325844
 20
224.6548439768
  0
VERTEX
  8
0
 62
7
  6
CONTINUOUS
 10
121.1444972333
 20
224.6413197122
  0
SEQEND
  0
POLYLINE
  8
0
 62
7
  6
CONTINUOUS
 66
1
 70
0
  0
VERTEX
  8
0
 62
7
  6
CONTINUOUS
 10
222.9299154005
 20
224.6758577894
  0
VERTEX
  8
0
 62
7
  6
CONTINUOUS
 10
222.8906565684
 20
224.6734918667
  0
VERTEX
  8
0
 62
7
  6
CONTINUOUS
 10
222.8464584674
 20
224.6656789828
  0
VERTEX
  8
0
 62
7
  6
CONTINUOUS
 10
222.80612965
 20
224.6546878626
  0
VERTEX
  8
0
 62
7
  6
CONTINUOUS
 10
222.765342737
 20
224.6408630588
  0
SEQEND
  0
POLYLINE
  8
0
 62
7
  6
CONTINUOUS
 66
1
 70
0
  0
VERTEX
  8
0
 62
7
  6
CONTINUOUS
 10
210.2299154005
 20
224.6758577894
  0
VERTEX
  8
0
 62
7
  6
CONTINUOUS
 10
210.1906565684
 20
224.6734918667
  0
VERTEX
  8
0
 62
7
  6
CONTINUOUS
 10
210.1464584674
 20
224.6656789828
  0
VERTEX
  8
0
 62
7
  6
CONTINUOUS
 10
210.10612965
 20
224.6546878626
  0
VERTEX
  8
0
 62
7
  6
CONTINUOUS
 10
210.065342737
 20
224.6408630588
  0
SEQEND
  0
POLYLINE
  8
0
 62
7
  6
CONTINUOUS
 66
1
 70
0
  0
VERTEX
  8
0
 62
7
  6
CONTINUOUS
 10
197.5299154005
 20
224.6758577894
  0
VERTEX
  8
0
 62
7
  6
CONTINUOUS
 10
197.4906565684
 20
224.6734918667
  0
VERTEX
  8
0
 62
7
  6
CONTINUOUS
 10
197.4464584674
 20
224.6656789828
  0
VERTEX
  8
0
 62
7
  6
CONTINUOUS
 10
197.40612965
 20
224.6546878626
  0
VERTEX
  8
0
 62
7
  6
CONTINUOUS
 10
197.365342737
 20
224.6408630588
  0
SEQEND
  0
POLYLINE
  8
0
 62
7
  6
CONTINUOUS
 66
1
 70
0
  0
VERTEX
  8
0
 62
7
  6
CONTINUOUS
 10
184.8299154005
 20
224.6758577894
  0
VERTEX
  8
0
 62
7
  6
CONTINUOUS
 10
184.7906565684
 20
224.6734918667
  0
VERTEX
  8
0
 62
7
  6
CONTINUOUS
 10
184.7464584674
 20
224.6656789828
  0
VERTEX
  8
0
 62
7
  6
CONTINUOUS
 10
184.70612965
 20
224.6546878626
  0
VERTEX
  8
0
 62
7
  6
CONTINUOUS
 10
184.665342737
 20
224.6408630588
  0
SEQEND
  0
POLYLINE
  8
0
 62
7
  6
CONTINUOUS
 66
1
 70
0
  0
VERTEX
  8
0
 62
7
  6
CONTINUOUS
 10
172.1299154005
 20
224.6758577894
  0
VERTEX
  8
0
 62
7
  6
CONTINUOUS
 10
172.0906565684
 20
224.6734918667
  0
VERTEX
  8
0
 62
7
  6
CONTINUOUS
 10
172.0464584674
 20
224.6656789828
  0
VERTEX
  8
0
 62
7
  6
CONTINUOUS
 10
172.00612965
 20
224.6546878626
  0
VERTEX
  8
0
 62
7
  6
CONTINUOUS
 10
171.965342737
 20
224.6408630588
  0
SEQEND
  0
POLYLINE
  8
0
 62
7
  6
CONTINUOUS
 66
1
 70
0
  0
VERTEX
  8
0
 62
7
  6
CONTINUOUS
 10
159.4299154005
 20
224.6758577894
  0
VERTEX
  8
0
 62
7
  6
CONTINUOUS
 10
159.3906565684
 20
224.6734918667
  0
VERTEX
  8
0
 62
7
  6
CONTINUOUS
 10
159.3464584674
 20
224.6656789828
  0
VERTEX
  8
0
 62
7
  6
CONTINUOUS
 10
159.30612965
 20
224.6546878626
  0
VERTEX
  8
0
 62
7
  6
CONTINUOUS
 10
159.265342737
 20
224.6408630588
  0
SEQEND
  0
POLYLINE
  8
0
 62
7
  6
CONTINUOUS
 66
1
 70
0
  0
VERTEX
  8
0
 62
7
  6
CONTINUOUS
 10
146.7299154005
 20
224.6758577894
  0
VERTEX
  8
0
 62
7
  6
CONTINUOUS
 10
146.6906565684
 20
224.6734918667
  0
VERTEX
  8
0
 62
7
  6
CONTINUOUS
 10
146.6464584674
 20
224.6656789828
  0
VERTEX
  8
0
 62
7
  6
CONTINUOUS
 10
146.60612965
 20
224.6546878626
  0
VERTEX
  8
0
 62
7
  6
CONTINUOUS
 10
146.565342737
 20
224.6408630588
  0
SEQEND
  0
POLYLINE
  8
0
 62
7
  6
CONTINUOUS
 66
1
 70
0
  0
VERTEX
  8
0
 62
7
  6
CONTINUOUS
 10
138.4212423379
 20
220.9421808275
  0
VERTEX
  8
0
 62
7
  6
CONTINUOUS
 10
138.4871807413
 20
220.9434144073
  0
VERTEX
  8
0
 62
7
  6
CONTINUOUS
 10
138.5472894151
 20
220.9419428914
  0
VERTEX
  8
0
 62
7
  6
CONTINUOUS
 10
138.5988570199
 20
220.9378477574
  0
VERTEX
  8
0
 62
7
  6
CONTINUOUS
 10
138.638271118
 20
220.9314028678
  0
VERTEX
  8
0
 62
7
  6
CONTINUOUS
 10
138.6628874936
 20
220.9230539684
  0
VERTEX
  8
0
 62
7
  6
CONTINUOUS
 10
138.6712205496
 20
220.913863556
  0
SEQEND
  0
POLYLINE
  8
0
 62
7
  6
CONTINUOUS
 66
1
 70
0
  0
VERTEX
  8
0
 62
7
  6
CONTINUOUS
 10
125.7212423379
 20
220.9421808275
  0
VERTEX
  8
0
 62
7
  6
CONTINUOUS
 10
125.7871807413
 20
220.9434144073
  0
VERTEX
  8
0
 62
7
  6
CONTINUOUS
 10
125.8472894151
 20
220.9419428914
  0
VERTEX
  8
0
 62
7
  6
CONTINUOUS
 10
125.8988570199
 20
220.9378477574
  0
VERTEX
  8
0
 62
7
  6
CONTINUOUS
 10
125.938271118
 20
220.9314028678
  0
VERTEX
  8
0
 62
7
  6
CONTINUOUS
 10
125.9628874936
 20
220.9230539684
  0
VERTEX
  8
0
 62
7
  6
CONTINUOUS
 10
125.9712205496
 20
220.913863556
  0
SEQEND
  0
POLYLINE
  8
0
 62
7
  6
CONTINUOUS
 66
1
 70
0
  0
VERTEX
  8
0
 62
7
  6
CONTINUOUS
 10
113.0212423379
 20
220.9421808275
  0
VERTEX
  8
0
 62
7
  6
CONTINUOUS
 10
113.0871807413
 20
220.9434144073
  0
VERTEX
  8
0
 62
7
  6
CONTINUOUS
 10
113.1472894151
 20
220.9419428914
  0
VERTEX
  8
0
 62
7
  6
CONTINUOUS
 10
113.1988570199
 20
220.9378477574
  0
VERTEX
  8
0
 62
7
  6
CONTINUOUS
 10
113.238271118
 20
220.9314028678
  0
VERTEX
  8
0
 62
7
  6
CONTINUOUS
 10
113.2628874936
 20
220.9230539684
  0
VERTEX
  8
0
 62
7
  6
CONTINUOUS
 10
113.2712205496
 20
220.913863556
  0
SEQEND
  0
POLYLINE
  8
0
 62
7
  6
CONTINUOUS
 66
1
 70
0
  0
VERTEX
  8
0
 62
7
  6
CONTINUOUS
 10
100.3212423379
 20
220.9421808275
  0
VERTEX
  8
0
 62
7
  6
CONTINUOUS
 10
100.3871807413
 20
220.9434144073
  0
VERTEX
  8
0
 62
7
  6
CONTINUOUS
 10
100.4472894151
 20
220.9419428914
  0
VERTEX
  8
0
 62
7
  6
CONTINUOUS
 10
100.4988570199
 20
220.9378477574
  0
VERTEX
  8
0
 62
7
  6
CONTINUOUS
 10
100.538271118
 20
220.9314028678
  0
VERTEX
  8
0
 62
7
  6
CONTINUOUS
 10
100.5628874936
 20
220.9230539684
  0
VERTEX
  8
0
 62
7
  6
CONTINUOUS
 10
100.5712205496
 20
220.913863556
  0
SEQEND
  0
POLYLINE
  8
0
 62
7
  6
CONTINUOUS
 66
1
 70
0
  0
VERTEX
  8
0
 62
7
  6
CONTINUOUS
 10
87.6212423379
 20
220.9421808275
  0
VERTEX
  8
0
 62
7
  6
CONTINUOUS
 10
87.6871807413
 20
220.9434144073
  0
VERTEX
  8
0
 62
7
  6
CONTINUOUS
 10
87.7472894151
 20
220.9419428914
  0
VERTEX
  8
0
 62
7
  6
CONTINUOUS
 10
87.7988570199
 20
220.9378477574
  0
VERTEX
  8
0
 62
7
  6
CONTINUOUS
 10
87.838271118
 20
220.9314028678
  0
VERTEX
  8
0
 62
7
  6
CONTINUOUS
 10
87.8628874936
 20
220.9230539684
  0
VERTEX
  8
0
 62
7
  6
CONTINUOUS
 10
87.8712205496
 20
220.913863556
  0
SEQEND
  0
POLYLINE
  8
0
 62
7
  6
CONTINUOUS
 66
1
 70
0
  0
VERTEX
  8
0
 62
7
  6
CONTINUOUS
 10
74.9212423379
 20
220.9421808275
  0
VERTEX
  8
0
 62
7
  6
CONTINUOUS
 10
74.9871807413
 20
220.9434144073
  0
VERTEX
  8
0
 62
7
  6
CONTINUOUS
 10
75.0472894151
 20
220.9419428914
  0
VERTEX
  8
0
 62
7
  6
CONTINUOUS
 10
75.0988570199
 20
220.9378477574
  0
VERTEX
  8
0
 62
7
  6
CONTINUOUS
 10
75.138271118
 20
220.9314028678
  0
VERTEX
  8
0
 62
7
  6
CONTINUOUS
 10
75.1628874936
 20
220.9230539684
  0
VERTEX
  8
0
 62
7
  6
CONTINUOUS
 10
75.1712205496
 20
220.913863556
  0
SEQEND
  0
POLYLINE
  8
0
 62
7
  6
CONTINUOUS
 66
1
 70
0
  0
VERTEX
  8
0
 62
7
  6
CONTINUOUS
 10
62.2212423379
 20
220.9421808275
  0
VERTEX
  8
0
 62
7
  6
CONTINUOUS
 10
62.2871807413
 20
220.9434144073
  0
VERTEX
  8
0
 62
7
  6
CONTINUOUS
 10
62.3472894151
 20
220.9419428914
  0
VERTEX
  8
0
 62
7
  6
CONTINUOUS
 10
62.3988570199
 20
220.9378477574
  0
VERTEX
  8
0
 62
7
  6
CONTINUOUS
 10
62.438271118
 20
220.9314028678
  0
VERTEX
  8
0
 62
7
  6
CONTINUOUS
 10
62.4628874936
 20
220.9230539684
  0
VERTEX
  8
0
 62
7
  6
CONTINUOUS
 10
62.4712205496
 20
220.913863556
  0
SEQEND
  0
POLYLINE
  8
0
 62
7
  6
CONTINUOUS
 66
1
 70
0
  0
VERTEX
  8
0
 62
7
  6
CONTINUOUS
 10
49.5212423379
 20
220.9421808275
  0
VERTEX
  8
0
 62
7
  6
CONTINUOUS
 10
49.5871807413
 20
220.9434144073
  0
VERTEX
  8
0
 62
7
  6
CONTINUOUS
 10
49.6472894151
 20
220.9419428914
  0
VERTEX
  8
0
 62
7
  6
CONTINUOUS
 10
49.6988570199
 20
220.9378477574
  0
VERTEX
  8
0
 62
7
  6
CONTINUOUS
 10
49.738271118
 20
220.9314028678
  0
VERTEX
  8
0
 62
7
  6
CONTINUOUS
 10
49.7628874936
 20
220.9230539684
  0
VERTEX
  8
0
 62
7
  6
CONTINUOUS
 10
49.7712205496
 20
220.913863556
  0
SEQEND
  0
LINE
  8
0
 62
7
  6
CONTINUOUS
 10
221.3658979479
 20
216.3047723932
 11
214.9783428904
 21
216.3047723932
  0
LINE
  8
0
 62
7
  6
CONTINUOUS
 10
208.6658979479
 20
216.3047723932
 11
202.2783428904
 21
216.3047723932
  0
LINE
  8
0
 62
7
  6
CONTINUOUS
 10
195.9658979479
 20
216.3047723932
 11
189.5783428904
 21
216.3047723932
  0
LINE
  8
0
 62
7
  6
CONTINUOUS
 10
183.2658979479
 20
216.3047723932
 11
176.8783428904
 21
216.3047723932
  0
LINE
  8
0
 62
7
  6
CONTINUOUS
 10
170.5658979479
 20
216.3047723932
 11
164.1783428904
 21
216.3047723932
  0
LINE
  8
0
 62
7
  6
CONTINUOUS
 10
157.8658979479
 20
216.3047723932
 11
151.4783428904
 21
216.3047723932
  0
LINE
  8
0
 62
7
  6
CONTINUOUS
 10
145.1658979479
 20
216.3047723932
 11
138.8313687581
 21
216.3047723932
  0
LINE
  8
0
 62
7
  6
CONTINUOUS
 10
132.3686734066
 20
216.3047723932
 11
126.1313687581
 21
216.3047723932
  0
LINE
  8
0
 62
7
  6
CONTINUOUS
 10
119.6686734066
 20
216.3047723932
 11
113.4313687581
 21
216.3047723932
  0
LINE
  8
0
 62
7
  6
CONTINUOUS
 10
106.9686734066
 20
216.3047723932
 11
100.7313687581
 21
216.3047723932
  0
LINE
  8
0
 62
7
  6
CONTINUOUS
 10
94.2686734066
 20
216.3047723932
 11
88.0313687581
 21
216.3047723932
  0
LINE
  8
0
 62
7
  6
CONTINUOUS
 10
81.5686734066
 20
216.3047723932
 11
75.3313687581
 21
216.3047723932
  0
LINE
  8
0
 62
7
  6
CONTINUOUS
 10
68.8686734066
 20
216.3047723932
 11
62.6313687581
 21
216.3047723932
  0
LINE
  8
0
 62
7
  6
CONTINUOUS
 10
56.1686734066
 20
216.3047723932
 11
49.9313687581
 21
216.3047723932
  0
LINE
  8
DEFAULT_1
 62
2
  6
CENTER
 10
41.5861212307
 20
219.3258578399
 11
229.6361212307
 21
219.3258578399
  0
LINE
  8
0
 62
7
  6
CONTINUOUS
 10
138.4212423379
 20
220.9421808275
 11
132.7788001235
 21
220.9421808275
  0
LINE
  8
0
 62
7
  6
CONTINUOUS
 10
125.7212423379
 20
220.9421808275
 11
120.0788001235
 21
220.9421808275
  0
LINE
  8
0
 62
7
  6
CONTINUOUS
 10
113.0212423379
 20
220.9421808275
 11
107.3788001235
 21
220.9421808275
  0
LINE
  8
0
 62
7
  6
CONTINUOUS
 10
100.3212423379
 20
220.9421808275
 11
94.6788001235
 21
220.9421808275
  0
LINE
  8
0
 62
7
  6
CONTINUOUS
 10
87.6212423379
 20
220.9421808275
 11
81.9788001235
 21
220.9421808275
  0
LINE
  8
0
 62
7
  6
CONTINUOUS
 10
74.9212423379
 20
220.9421808275
 11
69.2788001235
 21
220.9421808275
  0
LINE
  8
0
 62
7
  6
CONTINUOUS
 10
62.2212423379
 20
220.9421808275
 11
56.5788001235
 21
220.9421808275
  0
LINE
  8
0
 62
7
  6
CONTINUOUS
 10
49.5212423379
 20
220.9421808275
 11
43.8361212307
 21
220.9421808117
  0
LINE
  8
0
 62
7
  6
CONTINUOUS
 10
145.5009001235
 20
220.9421808275
 11
151.1433423379
 21
220.9421808275
  0
LINE
  8
0
 62
7
  6
CONTINUOUS
 10
158.2009001235
 20
220.9421808275
 11
163.8433423379
 21
220.9421808275
  0
LINE
  8
0
 62
7
  6
CONTINUOUS
 10
170.9009001235
 20
220.9421808275
 11
176.5433423379
 21
220.9421808275
  0
LINE
  8
0
 62
7
  6
CONTINUOUS
 10
183.6009001235
 20
220.9421808275
 11
189.2433423379
 21
220.9421808275
  0
LINE
  8
0
 62
7
  6
CONTINUOUS
 10
196.3009001235
 20
220.9421808275
 11
201.9433423379
 21
220.9421808275
  0
LINE
  8
0
 62
7
  6
CONTINUOUS
 10
209.0009001235
 20
220.9421808275
 11
214.6433423379
 21
220.9421808275
  0
LINE
  8
0
 62
7
  6
CONTINUOUS
 10
221.7009001235
 20
220.9421808275
 11
227.3861212307
 21
220.9421808148
  0
LINE
  8
0
 62
7
  6
CONTINUOUS
 10
137.1925013789
 20
224.6758578399
 11
134.0075410772
 21
224.6758578399
  0
LINE
  8
0
 62
7
  6
CONTINUOUS
 10
124.4925013789
 20
224.6758578399
 11
121.3075410772
 21
224.6758578399
  0
LINE
  8
0
 62
7
  6
CONTINUOUS
 10
111.7925013789
 20
224.6758578399
 11
108.6075410772
 21
224.6758578399
  0
LINE
  8
0
 62
7
  6
CONTINUOUS
 10
99.0925013789
 20
224.6758578399
 11
95.9075410772
 21
224.6758578399
  0
LINE
  8
0
 62
7
  6
CONTINUOUS
 10
86.3925013789
 20
224.6758578399
 11
83.2075410772
 21
224.6758578399
  0
LINE
  8
0
 62
7
  6
CONTINUOUS
 10
73.6925013789
 20
224.6758578399
 11
70.5075410772
 21
224.6758578399
  0
LINE
  8
0
 62
7
  6
CONTINUOUS
 10
60.9925013789
 20
224.6758578399
 11
57.8075410772
 21
224.6758578399
  0
LINE
  8
0
 62
7
  6
CONTINUOUS
 10
48.2925013789
 20
224.6758578399
 11
43.8361908887
 21
224.6758578399
  0
LINE
  8
0
 62
7
  6
CONTINUOUS
 10
146.7299199958
 20
224.6758578154
 11
149.9146000521
 21
224.6758578399
  0
LINE
  8
0
 62
7
  6
CONTINUOUS
 10
159.4299199958
 20
224.6758578154
 11
162.6146000521
 21
224.6758578399
  0
LINE
  8
0
 62
7
  6
CONTINUOUS
 10
172.1299199958
 20
224.6758578154
 11
175.3146000521
 21
224.6758578399
  0
LINE
  8
0
 62
7
  6
CONTINUOUS
 10
184.8299199958
 20
224.6758578154
 11
188.0146000521
 21
224.6758578399
  0
LINE
  8
0
 62
7
  6
CONTINUOUS
 10
197.5299199958
 20
224.6758578154
 11
200.7146000521
 21
224.6758578399
  0
LINE
  8
0
 62
7
  6
CONTINUOUS
 10
210.2299199958
 20
224.6758578154
 11
213.4146000521
 21
224.6758578399
  0
LINE
  8
0
 62
7
  6
CONTINUOUS
 10
222.9299199958
 20
224.6758578154
 11
227.3860768013
 21
224.6758578399
  0
POLYLINE
  8
0
 62
7
  6
CONTINUOUS
 66
1
 70
0
  0
VERTEX
  8
0
 62
7
  6
CONTINUOUS
 10
56.5788001235
 20
220.9421808275
  0
VERTEX
  8
0
 62
7
  6
CONTINUOUS
 10
56.51286172
 20
220.9434144004
  0
VERTEX
  8
0
 62
7
  6
CONTINUOUS
 10
56.4527530464
 20
220.9419428849
  0
VERTEX
  8
0
 62
7
  6
CONTINUOUS
 10
56.4011854416
 20
220.9378477519
  0
VERTEX
  8
0
 62
7
  6
CONTINUOUS
 10
56.3617713434
 20
220.9314028641
  0
VERTEX
  8
0
 62
7
  6
CONTINUOUS
 10
56.3371549678
 20
220.9230539672
  0
VERTEX
  8
0
 62
7
  6
CONTINUOUS
 10
56.3288219143
 20
220.9138635865
  0
SEQEND
  0
POLYLINE
  8
0
 62
7
  6
CONTINUOUS
 66
1
 70
0
  0
VERTEX
  8
0
 62
7
  6
CONTINUOUS
 10
69.2788001235
 20
220.9421808275
  0
VERTEX
  8
0
 62
7
  6
CONTINUOUS
 10
69.21286172
 20
220.9434144004
  0
VERTEX
  8
0
 62
7
  6
CONTINUOUS
 10
69.1527530464
 20
220.9419428849
  0
VERTEX
  8
0
 62
7
  6
CONTINUOUS
 10
69.1011854416
 20
220.9378477519
  0
VERTEX
  8
0
 62
7
  6
CONTINUOUS
 10
69.0617713434
 20
220.9314028641
  0
VERTEX
  8
0
 62
7
  6
CONTINUOUS
 10
69.0371549678
 20
220.9230539672
  0
VERTEX
  8
0
 62
7
  6
CONTINUOUS
 10
69.0288219143
 20
220.9138635865
  0
SEQEND
  0
POLYLINE
  8
0
 62
7
  6
CONTINUOUS
 66
1
 70
0
  0
VERTEX
  8
0
 62
7
  6
CONTINUOUS
 10
81.9788001235
 20
220.9421808275
  0
VERTEX
  8
0
 62
7
  6
CONTINUOUS
 10
81.91286172
 20
220.9434144004
  0
VERTEX
  8
0
 62
7
  6
CONTINUOUS
 10
81.8527530464
 20
220.9419428849
  0
VERTEX
  8
0
 62
7
  6
CONTINUOUS
 10
81.8011854416
 20
220.9378477519
  0
VERTEX
  8
0
 62
7
  6
CONTINUOUS
 10
81.7617713434
 20
220.9314028641
  0
VERTEX
  8
0
 62
7
  6
CONTINUOUS
 10
81.7371549678
 20
220.9230539672
  0
VERTEX
  8
0
 62
7
  6
CONTINUOUS
 10
81.7288219143
 20
220.9138635865
  0
SEQEND
  0
POLYLINE
  8
0
 62
7
  6
CONTINUOUS
 66
1
 70
0
  0
VERTEX
  8
0
 62
7
  6
CONTINUOUS
 10
94.6788001235
 20
220.9421808275
  0
VERTEX
  8
0
 62
7
  6
CONTINUOUS
 10
94.61286172
 20
220.9434144004
  0
VERTEX
  8
0
 62
7
  6
CONTINUOUS
 10
94.5527530464
 20
220.9419428849
  0
VERTEX
  8
0
 62
7
  6
CONTINUOUS
 10
94.5011854416
 20
220.9378477519
  0
VERTEX
  8
0
 62
7
  6
CONTINUOUS
 10
94.4617713434
 20
220.9314028641
  0
VERTEX
  8
0
 62
7
  6
CONTINUOUS
 10
94.4371549678
 20
220.9230539672
  0
VERTEX
  8
0
 62
7
  6
CONTINUOUS
 10
94.4288219143
 20
220.9138635865
  0
SEQEND
  0
POLYLINE
  8
0
 62
7
  6
CONTINUOUS
 66
1
 70
0
  0
VERTEX
  8
0
 62
7
  6
CONTINUOUS
 10
107.3788001235
 20
220.9421808275
  0
VERTEX
  8
0
 62
7
  6
CONTINUOUS
 10
107.31286172
 20
220.9434144004
  0
VERTEX
  8
0
 62
7
  6
CONTINUOUS
 10
107.2527530464
 20
220.9419428849
  0
VERTEX
  8
0
 62
7
  6
CONTINUOUS
 10
107.2011854416
 20
220.9378477519
  0
VERTEX
  8
0
 62
7
  6
CONTINUOUS
 10
107.1617713434
 20
220.9314028641
  0
VERTEX
  8
0
 62
7
  6
CONTINUOUS
 10
107.1371549678
 20
220.9230539672
  0
VERTEX
  8
0
 62
7
  6
CONTINUOUS
 10
107.1288219143
 20
220.9138635865
  0
SEQEND
  0
POLYLINE
  8
0
 62
7
  6
CONTINUOUS
 66
1
 70
0
  0
VERTEX
  8
0
 62
7
  6
CONTINUOUS
 10
120.0788001235
 20
220.9421808275
  0
VERTEX
  8
0
 62
7
  6
CONTINUOUS
 10
120.01286172
 20
220.9434144004
  0
VERTEX
  8
0
 62
7
  6
CONTINUOUS
 10
119.9527530464
 20
220.9419428849
  0
VERTEX
  8
0
 62
7
  6
CONTINUOUS
 10
119.9011854416
 20
220.9378477519
  0
VERTEX
  8
0
 62
7
  6
CONTINUOUS
 10
119.8617713434
 20
220.9314028641
  0
VERTEX
  8
0
 62
7
  6
CONTINUOUS
 10
119.8371549678
 20
220.9230539672
  0
VERTEX
  8
0
 62
7
  6
CONTINUOUS
 10
119.8288219143
 20
220.9138635865
  0
SEQEND
  0
POLYLINE
  8
0
 62
7
  6
CONTINUOUS
 66
1
 70
0
  0
VERTEX
  8
0
 62
7
  6
CONTINUOUS
 10
132.7788001235
 20
220.9421808275
  0
VERTEX
  8
0
 62
7
  6
CONTINUOUS
 10
132.71286172
 20
220.9434144004
  0
VERTEX
  8
0
 62
7
  6
CONTINUOUS
 10
132.6527530464
 20
220.9419428849
  0
VERTEX
  8
0
 62
7
  6
CONTINUOUS
 10
132.6011854416
 20
220.9378477519
  0
VERTEX
  8
0
 62
7
  6
CONTINUOUS
 10
132.5617713434
 20
220.9314028641
  0
VERTEX
  8
0
 62
7
  6
CONTINUOUS
 10
132.5371549678
 20
220.9230539672
  0
VERTEX
  8
0
 62
7
  6
CONTINUOUS
 10
132.5288219143
 20
220.9138635865
  0
SEQEND
  0
POLYLINE
  8
0
 62
7
  6
CONTINUOUS
 66
1
 70
0
  0
VERTEX
  8
0
 62
7
  6
CONTINUOUS
 10
145.5009001235
 20
220.9421808275
  0
VERTEX
  8
0
 62
7
  6
CONTINUOUS
 10
145.434961832
 20
220.9434144027
  0
VERTEX
  8
0
 62
7
  6
CONTINUOUS
 10
145.3748532009
 20
220.9419428933
  0
VERTEX
  8
0
 62
7
  6
CONTINUOUS
 10
145.3232855882
 20
220.9378477668
  0
VERTEX
  8
0
 62
7
  6
CONTINUOUS
 10
145.2838714471
 20
220.9314028811
  0
VERTEX
  8
0
 62
7
  6
CONTINUOUS
 10
145.2592550131
 20
220.9230539761
  0
VERTEX
  8
0
 62
7
  6
CONTINUOUS
 10
145.2509219125
 20
220.9138635285
  0
SEQEND
  0
POLYLINE
  8
0
 62
7
  6
CONTINUOUS
 66
1
 70
0
  0
VERTEX
  8
0
 62
7
  6
CONTINUOUS
 10
158.2009001235
 20
220.9421808275
  0
VERTEX
  8
0
 62
7
  6
CONTINUOUS
 10
158.134961832
 20
220.9434144027
  0
VERTEX
  8
0
 62
7
  6
CONTINUOUS
 10
158.0748532009
 20
220.9419428933
  0
VERTEX
  8
0
 62
7
  6
CONTINUOUS
 10
158.0232855882
 20
220.9378477668
  0
VERTEX
  8
0
 62
7
  6
CONTINUOUS
 10
157.9838714471
 20
220.9314028811
  0
VERTEX
  8
0
 62
7
  6
CONTINUOUS
 10
157.9592550131
 20
220.9230539761
  0
VERTEX
  8
0
 62
7
  6
CONTINUOUS
 10
157.9509219125
 20
220.9138635285
  0
SEQEND
  0
POLYLINE
  8
0
 62
7
  6
CONTINUOUS
 66
1
 70
0
  0
VERTEX
  8
0
 62
7
  6
CONTINUOUS
 10
170.9009001235
 20
220.9421808275
  0
VERTEX
  8
0
 62
7
  6
CONTINUOUS
 10
170.834961832
 20
220.9434144027
  0
VERTEX
  8
0
 62
7
  6
CONTINUOUS
 10
170.7748532009
 20
220.9419428933
  0
VERTEX
  8
0
 62
7
  6
CONTINUOUS
 10
170.7232855882
 20
220.9378477668
  0
VERTEX
  8
0
 62
7
  6
CONTINUOUS
 10
170.6838714471
 20
220.9314028811
  0
VERTEX
  8
0
 62
7
  6
CONTINUOUS
 10
170.6592550131
 20
220.9230539761
  0
VERTEX
  8
0
 62
7
  6
CONTINUOUS
 10
170.6509219125
 20
220.9138635285
  0
SEQEND
  0
POLYLINE
  8
0
 62
7
  6
CONTINUOUS
 66
1
 70
0
  0
VERTEX
  8
0
 62
7
  6
CONTINUOUS
 10
183.6009001235
 20
220.9421808275
  0
VERTEX
  8
0
 62
7
  6
CONTINUOUS
 10
183.534961832
 20
220.9434144027
  0
VERTEX
  8
0
 62
7
  6
CONTINUOUS
 10
183.4748532009
 20
220.9419428933
  0
VERTEX
  8
0
 62
7
  6
CONTINUOUS
 10
183.4232855882
 20
220.9378477668
  0
VERTEX
  8
0
 62
7
  6
CONTINUOUS
 10
183.3838714471
 20
220.9314028811
  0
VERTEX
  8
0
 62
7
  6
CONTINUOUS
 10
183.3592550131
 20
220.9230539761
  0
VERTEX
  8
0
 62
7
  6
CONTINUOUS
 10
183.3509219125
 20
220.9138635285
  0
SEQEND
  0
POLYLINE
  8
0
 62
7
  6
CONTINUOUS
 66
1
 70
0
  0
VERTEX
  8
0
 62
7
  6
CONTINUOUS
 10
196.3009001235
 20
220.9421808275
  0
VERTEX
  8
0
 62
7
  6
CONTINUOUS
 10
196.234961832
 20
220.9434144027
  0
VERTEX
  8
0
 62
7
  6
CONTINUOUS
 10
196.1748532009
 20
220.9419428933
  0
VERTEX
  8
0
 62
7
  6
CONTINUOUS
 10
196.1232855882
 20
220.9378477668
  0
VERTEX
  8
0
 62
7
  6
CONTINUOUS
 10
196.0838714471
 20
220.9314028811
  0
VERTEX
  8
0
 62
7
  6
CONTINUOUS
 10
196.0592550131
 20
220.9230539761
  0
VERTEX
  8
0
 62
7
  6
CONTINUOUS
 10
196.0509219125
 20
220.9138635285
  0
SEQEND
  0
POLYLINE
  8
0
 62
7
  6
CONTINUOUS
 66
1
 70
0
  0
VERTEX
  8
0
 62
7
  6
CONTINUOUS
 10
209.0009001235
 20
220.9421808275
  0
VERTEX
  8
0
 62
7
  6
CONTINUOUS
 10
208.934961832
 20
220.9434144027
  0
VERTEX
  8
0
 62
7
  6
CONTINUOUS
 10
208.8748532009
 20
220.9419428933
  0
VERTEX
  8
0
 62
7
  6
CONTINUOUS
 10
208.8232855882
 20
220.9378477668
  0
VERTEX
  8
0
 62
7
  6
CONTINUOUS
 10
208.7838714471
 20
220.9314028811
  0
VERTEX
  8
0
 62
7
  6
CONTINUOUS
 10
208.7592550131
 20
220.9230539761
  0
VERTEX
  8
0
 62
7
  6
CONTINUOUS
 10
208.7509219125
 20
220.9138635285
  0
SEQEND
  0
POLYLINE
  8
0
 62
7
  6
CONTINUOUS
 66
1
 70
0
  0
VERTEX
  8
0
 62
7
  6
CONTINUOUS
 10
221.7009001235
 20
220.9421808275
  0
VERTEX
  8
0
 62
7
  6
CONTINUOUS
 10
221.634961832
 20
220.9434144027
  0
VERTEX
  8
0
 62
7
  6
CONTINUOUS
 10
221.5748532009
 20
220.9419428933
  0
VERTEX
  8
0
 62
7
  6
CONTINUOUS
 10
221.5232855882
 20
220.9378477668
  0
VERTEX
  8
0
 62
7
  6
CONTINUOUS
 10
221.4838714471
 20
220.9314028811
  0
VERTEX
  8
0
 62
7
  6
CONTINUOUS
 10
221.4592550131
 20
220.9230539761
  0
VERTEX
  8
0
 62
7
  6
CONTINUOUS
 10
221.4509219125
 20
220.9138635285
  0
SEQEND
  0
POLYLINE
  8
0
 62
7
  6
CONTINUOUS
 66
1
 70
0
  0
VERTEX
  8
0
 62
7
  6
CONTINUOUS
 10
62.6318587949
 20
216.3047729789
  0
VERTEX
  8
0
 62
7
  6
CONTINUOUS
 10
62.6020779142
 20
216.3075847683
  0
VERTEX
  8
0
 62
7
  6
CONTINUOUS
 10
62.5716883751
 20
216.3165510864
  0
VERTEX
  8
0
 62
7
  6
CONTINUOUS
 10
62.5440548811
 20
216.3310347013
  0
VERTEX
  8
0
 62
7
  6
CONTINUOUS
 10
62.5202380532
 20
216.3500787602
  0
VERTEX
  8
0
 62
7
  6
CONTINUOUS
 10
62.5009566925
 20
216.3725249
  0
VERTEX
  8
0
 62
7
  6
CONTINUOUS
 10
62.4865701763
 20
216.397120586
  0
VERTEX
  8
0
 62
7
  6
CONTINUOUS
 10
62.4770866901
 20
216.4226279442
  0
VERTEX
  8
0
 62
7
  6
CONTINUOUS
 10
62.4722091979
 20
216.4478804386
  0
VERTEX
  8
0
 62
7
  6
CONTINUOUS
 10
62.4712417715
 20
216.4653844512
  0
SEQEND
  0
POLYLINE
  8
0
 62
7
  6
CONTINUOUS
 66
1
 70
0
  0
VERTEX
  8
0
 62
7
  6
CONTINUOUS
 10
75.3318587949
 20
216.3047729789
  0
VERTEX
  8
0
 62
7
  6
CONTINUOUS
 10
75.3020779142
 20
216.3075847683
  0
VERTEX
  8
0
 62
7
  6
CONTINUOUS
 10
75.2716883751
 20
216.3165510864
  0
VERTEX
  8
0
 62
7
  6
CONTINUOUS
 10
75.2440548811
 20
216.3310347013
  0
VERTEX
  8
0
 62
7
  6
CONTINUOUS
 10
75.2202380532
 20
216.3500787602
  0
VERTEX
  8
0
 62
7
  6
CONTINUOUS
 10
75.2009566925
 20
216.3725249
  0
VERTEX
  8
0
 62
7
  6
CONTINUOUS
 10
75.1865701763
 20
216.397120586
  0
VERTEX
  8
0
 62
7
  6
CONTINUOUS
 10
75.1770866901
 20
216.4226279442
  0
VERTEX
  8
0
 62
7
  6
CONTINUOUS
 10
75.1722091979
 20
216.4478804386
  0
VERTEX
  8
0
 62
7
  6
CONTINUOUS
 10
75.1712417715
 20
216.4653844512
  0
SEQEND
  0
POLYLINE
  8
0
 62
7
  6
CONTINUOUS
 66
1
 70
0
  0
VERTEX
  8
0
 62
7
  6
CONTINUOUS
 10
88.0318587949
 20
216.3047729789
  0
VERTEX
  8
0
 62
7
  6
CONTINUOUS
 10
88.0020779142
 20
216.3075847683
  0
VERTEX
  8
0
 62
7
  6
CONTINUOUS
 10
87.9716883751
 20
216.3165510864
  0
VERTEX
  8
0
 62
7
  6
CONTINUOUS
 10
87.9440548811
 20
216.3310347013
  0
VERTEX
  8
0
 62
7
  6
CONTINUOUS
 10
87.9202380532
 20
216.3500787602
  0
VERTEX
  8
0
 62
7
  6
CONTINUOUS
 10
87.9009566925
 20
216.3725249
  0
VERTEX
  8
0
 62
7
  6
CONTINUOUS
 10
87.8865701763
 20
216.397120586
  0
VERTEX
  8
0
 62
7
  6
CONTINUOUS
 10
87.8770866901
 20
216.4226279442
  0
VERTEX
  8
0
 62
7
  6
CONTINUOUS
 10
87.8722091979
 20
216.4478804386
  0
VERTEX
  8
0
 62
7
  6
CONTINUOUS
 10
87.8712417715
 20
216.4653844512
  0
SEQEND
  0
POLYLINE
  8
0
 62
7
  6
CONTINUOUS
 66
1
 70
0
  0
VERTEX
  8
0
 62
7
  6
CONTINUOUS
 10
100.7318587949
 20
216.3047729789
  0
VERTEX
  8
0
 62
7
  6
CONTINUOUS
 10
100.7020779142
 20
216.3075847683
  0
VERTEX
  8
0
 62
7
  6
CONTINUOUS
 10
100.6716883751
 20
216.3165510864
  0
VERTEX
  8
0
 62
7
  6
CONTINUOUS
 10
100.6440548811
 20
216.3310347013
  0
VERTEX
  8
0
 62
7
  6
CONTINUOUS
 10
100.6202380532
 20
216.3500787602
  0
VERTEX
  8
0
 62
7
  6
CONTINUOUS
 10
100.6009566925
 20
216.3725249
  0
VERTEX
  8
0
 62
7
  6
CONTINUOUS
 10
100.5865701763
 20
216.397120586
  0
VERTEX
  8
0
 62
7
  6
CONTINUOUS
 10
100.5770866901
 20
216.4226279442
  0
VERTEX
  8
0
 62
7
  6
CONTINUOUS
 10
100.5722091979
 20
216.4478804386
  0
VERTEX
  8
0
 62
7
  6
CONTINUOUS
 10
100.5712417715
 20
216.4653844512
  0
SEQEND
  0
POLYLINE
  8
0
 62
7
  6
CONTINUOUS
 66
1
 70
0
  0
VERTEX
  8
0
 62
7
  6
CONTINUOUS
 10
113.4318587949
 20
216.3047729789
  0
VERTEX
  8
0
 62
7
  6
CONTINUOUS
 10
113.4020779142
 20
216.3075847683
  0
VERTEX
  8
0
 62
7
  6
CONTINUOUS
 10
113.3716883751
 20
216.3165510864
  0
VERTEX
  8
0
 62
7
  6
CONTINUOUS
 10
113.3440548811
 20
216.3310347013
  0
VERTEX
  8
0
 62
7
  6
CONTINUOUS
 10
113.3202380532
 20
216.3500787602
  0
VERTEX
  8
0
 62
7
  6
CONTINUOUS
 10
113.3009566925
 20
216.3725249
  0
VERTEX
  8
0
 62
7
  6
CONTINUOUS
 10
113.2865701763
 20
216.397120586
  0
VERTEX
  8
0
 62
7
  6
CONTINUOUS
 10
113.2770866901
 20
216.4226279442
  0
VERTEX
  8
0
 62
7
  6
CONTINUOUS
 10
113.2722091979
 20
216.4478804386
  0
VERTEX
  8
0
 62
7
  6
CONTINUOUS
 10
113.2712417715
 20
216.4653844512
  0
SEQEND
  0
POLYLINE
  8
0
 62
7
  6
CONTINUOUS
 66
1
 70
0
  0
VERTEX
  8
0
 62
7
  6
CONTINUOUS
 10
126.1318587949
 20
216.3047729789
  0
VERTEX
  8
0
 62
7
  6
CONTINUOUS
 10
126.1020779142
 20
216.3075847683
  0
VERTEX
  8
0
 62
7
  6
CONTINUOUS
 10
126.0716883751
 20
216.3165510864
  0
VERTEX
  8
0
 62
7
  6
CONTINUOUS
 10
126.0440548811
 20
216.3310347013
  0
VERTEX
  8
0
 62
7
  6
CONTINUOUS
 10
126.0202380532
 20
216.3500787602
  0
VERTEX
  8
0
 62
7
  6
CONTINUOUS
 10
126.0009566925
 20
216.3725249
  0
VERTEX
  8
0
 62
7
  6
CONTINUOUS
 10
125.9865701763
 20
216.397120586
  0
VERTEX
  8
0
 62
7
  6
CONTINUOUS
 10
125.9770866901
 20
216.4226279442
  0
VERTEX
  8
0
 62
7
  6
CONTINUOUS
 10
125.9722091979
 20
216.4478804386
  0
VERTEX
  8
0
 62
7
  6
CONTINUOUS
 10
125.9712417715
 20
216.4653844512
  0
SEQEND
  0
POLYLINE
  8
0
 62
7
  6
CONTINUOUS
 66
1
 70
0
  0
VERTEX
  8
0
 62
7
  6
CONTINUOUS
 10
138.8318587949
 20
216.3047729789
  0
VERTEX
  8
0
 62
7
  6
CONTINUOUS
 10
138.8020779142
 20
216.3075847683
  0
VERTEX
  8
0
 62
7
  6
CONTINUOUS
 10
138.7716883751
 20
216.3165510864
  0
VERTEX
  8
0
 62
7
  6
CONTINUOUS
 10
138.7440548811
 20
216.3310347013
  0
VERTEX
  8
0
 62
7
  6
CONTINUOUS
 10
138.7202380532
 20
216.3500787602
  0
VERTEX
  8
0
 62
7
  6
CONTINUOUS
 10
138.7009566925
 20
216.3725249
  0
VERTEX
  8
0
 62
7
  6
CONTINUOUS
 10
138.6865701763
 20
216.397120586
  0
VERTEX
  8
0
 62
7
  6
CONTINUOUS
 10
138.6770866901
 20
216.4226279442
  0
VERTEX
  8
0
 62
7
  6
CONTINUOUS
 10
138.6722091979
 20
216.4478804386
  0
VERTEX
  8
0
 62
7
  6
CONTINUOUS
 10
138.6712417715
 20
216.4653844512
  0
SEQEND
  0
POLYLINE
  8
0
 62
7
  6
CONTINUOUS
 66
1
 70
0
  0
VERTEX
  8
0
 62
7
  6
CONTINUOUS
 10
151.4786344618
 20
216.3047723216
  0
VERTEX
  8
0
 62
7
  6
CONTINUOUS
 10
151.45774812
 20
216.3073900248
  0
VERTEX
  8
0
 62
7
  6
CONTINUOUS
 10
151.4384202558
 20
216.3149031593
  0
VERTEX
  8
0
 62
7
  6
CONTINUOUS
 10
151.4223410799
 20
216.3260722538
  0
VERTEX
  8
0
 62
7
  6
CONTINUOUS
 10
151.4098502591
 20
216.3397323854
  0
VERTEX
  8
0
 62
7
  6
CONTINUOUS
 10
151.4009832436
 20
216.3548799538
  0
VERTEX
  8
0
 62
7
  6
CONTINUOUS
 10
151.3955972046
 20
216.3706590445
  0
VERTEX
  8
0
 62
7
  6
CONTINUOUS
 10
151.3934290812
 20
216.386233646
  0
VERTEX
  8
0
 62
7
  6
CONTINUOUS
 10
151.3933420456
 20
216.3900620359
  0
SEQEND
  0
POLYLINE
  8
0
 62
7
  6
CONTINUOUS
 66
1
 70
0
  0
VERTEX
  8
0
 62
7
  6
CONTINUOUS
 10
164.1786344618
 20
216.3047723216
  0
VERTEX
  8
0
 62
7
  6
CONTINUOUS
 10
164.15774812
 20
216.3073900248
  0
VERTEX
  8
0
 62
7
  6
CONTINUOUS
 10
164.1384202558
 20
216.3149031593
  0
VERTEX
  8
0
 62
7
  6
CONTINUOUS
 10
164.1223410799
 20
216.3260722538
  0
VERTEX
  8
0
 62
7
  6
CONTINUOUS
 10
164.1098502591
 20
216.3397323854
  0
VERTEX
  8
0
 62
7
  6
CONTINUOUS
 10
164.1009832436
 20
216.3548799538
  0
VERTEX
  8
0
 62
7
  6
CONTINUOUS
 10
164.0955972046
 20
216.3706590445
  0
VERTEX
  8
0
 62
7
  6
CONTINUOUS
 10
164.0934290812
 20
216.386233646
  0
VERTEX
  8
0
 62
7
  6
CONTINUOUS
 10
164.0933420456
 20
216.3900620359
  0
SEQEND
  0
POLYLINE
  8
0
 62
7
  6
CONTINUOUS
 66
1
 70
0
  0
VERTEX
  8
0
 62
7
  6
CONTINUOUS
 10
176.8786344618
 20
216.3047723216
  0
VERTEX
  8
0
 62
7
  6
CONTINUOUS
 10
176.85774812
 20
216.3073900248
  0
VERTEX
  8
0
 62
7
  6
CONTINUOUS
 10
176.8384202558
 20
216.3149031593
  0
VERTEX
  8
0
 62
7
  6
CONTINUOUS
 10
176.8223410799
 20
216.3260722538
  0
VERTEX
  8
0
 62
7
  6
CONTINUOUS
 10
176.8098502591
 20
216.3397323854
  0
VERTEX
  8
0
 62
7
  6
CONTINUOUS
 10
176.8009832436
 20
216.3548799538
  0
VERTEX
  8
0
 62
7
  6
CONTINUOUS
 10
176.7955972046
 20
216.3706590445
  0
VERTEX
  8
0
 62
7
  6
CONTINUOUS
 10
176.7934290812
 20
216.386233646
  0
VERTEX
  8
0
 62
7
  6
CONTINUOUS
 10
176.7933420456
 20
216.3900620359
  0
SEQEND
  0
POLYLINE
  8
0
 62
7
  6
CONTINUOUS
 66
1
 70
0
  0
VERTEX
  8
0
 62
7
  6
CONTINUOUS
 10
189.5786344618
 20
216.3047723216
  0
VERTEX
  8
0
 62
7
  6
CONTINUOUS
 10
189.55774812
 20
216.3073900248
  0
VERTEX
  8
0
 62
7
  6
CONTINUOUS
 10
189.5384202558
 20
216.3149031593
  0
VERTEX
  8
0
 62
7
  6
CONTINUOUS
 10
189.5223410799
 20
216.3260722538
  0
VERTEX
  8
0
 62
7
  6
CONTINUOUS
 10
189.5098502591
 20
216.3397323854
  0
VERTEX
  8
0
 62
7
  6
CONTINUOUS
 10
189.5009832436
 20
216.3548799538
  0
VERTEX
  8
0
 62
7
  6
CONTINUOUS
 10
189.4955972046
 20
216.3706590445
  0
VERTEX
  8
0
 62
7
  6
CONTINUOUS
 10
189.4934290812
 20
216.386233646
  0
VERTEX
  8
0
 62
7
  6
CONTINUOUS
 10
189.4933420456
 20
216.3900620359
  0
SEQEND
  0
POLYLINE
  8
0
 62
7
  6
CONTINUOUS
 66
1
 70
0
  0
VERTEX
  8
0
 62
7
  6
CONTINUOUS
 10
202.2786344618
 20
216.3047723216
  0
VERTEX
  8
0
 62
7
  6
CONTINUOUS
 10
202.25774812
 20
216.3073900248
  0
VERTEX
  8
0
 62
7
  6
CONTINUOUS
 10
202.2384202558
 20
216.3149031593
  0
VERTEX
  8
0
 62
7
  6
CONTINUOUS
 10
202.2223410799
 20
216.3260722538
  0
VERTEX
  8
0
 62
7
  6
CONTINUOUS
 10
202.2098502591
 20
216.3397323854
  0
VERTEX
  8
0
 62
7
  6
CONTINUOUS
 10
202.2009832436
 20
216.3548799538
  0
VERTEX
  8
0
 62
7
  6
CONTINUOUS
 10
202.1955972046
 20
216.3706590445
  0
VERTEX
  8
0
 62
7
  6
CONTINUOUS
 10
202.1934290812
 20
216.386233646
  0
VERTEX
  8
0
 62
7
  6
CONTINUOUS
 10
202.1933420456
 20
216.3900620359
  0
SEQEND
  0
POLYLINE
  8
0
 62
7
  6
CONTINUOUS
 66
1
 70
0
  0
VERTEX
  8
0
 62
7
  6
CONTINUOUS
 10
214.9786344618
 20
216.3047723216
  0
VERTEX
  8
0
 62
7
  6
CONTINUOUS
 10
214.95774812
 20
216.3073900248
  0
VERTEX
  8
0
 62
7
  6
CONTINUOUS
 10
214.9384202558
 20
216.3149031593
  0
VERTEX
  8
0
 62
7
  6
CONTINUOUS
 10
214.9223410799
 20
216.3260722538
  0
VERTEX
  8
0
 62
7
  6
CONTINUOUS
 10
214.9098502591
 20
216.3397323854
  0
VERTEX
  8
0
 62
7
  6
CONTINUOUS
 10
214.9009832436
 20
216.3548799538
  0
VERTEX
  8
0
 62
7
  6
CONTINUOUS
 10
214.8955972046
 20
216.3706590445
  0
VERTEX
  8
0
 62
7
  6
CONTINUOUS
 10
214.8934290812
 20
216.386233646
  0
VERTEX
  8
0
 62
7
  6
CONTINUOUS
 10
214.8933420456
 20
216.3900620359
  0
SEQEND
  0
POLYLINE
  8
0
 62
7
  6
CONTINUOUS
 66
1
 70
0
  0
VERTEX
  8
0
 62
7
  6
CONTINUOUS
 10
61.0767301311
 20
224.6654360702
  0
VERTEX
  8
0
 62
7
  6
CONTINUOUS
 10
61.0331331025
 20
224.6732940266
  0
VERTEX
  8
0
 62
7
  6
CONTINUOUS
 10
60.9922215351
 20
224.6758577943
  0
SEQEND
  0
POLYLINE
  8
0
 62
7
  6
CONTINUOUS
 66
1
 70
0
  0
VERTEX
  8
0
 62
7
  6
CONTINUOUS
 10
73.7767301311
 20
224.6654360702
  0
VERTEX
  8
0
 62
7
  6
CONTINUOUS
 10
73.7331331025
 20
224.6732940266
  0
VERTEX
  8
0
 62
7
  6
CONTINUOUS
 10
73.6922215351
 20
224.6758577943
  0
SEQEND
  0
POLYLINE
  8
0
 62
7
  6
CONTINUOUS
 66
1
 70
0
  0
VERTEX
  8
0
 62
7
  6
CONTINUOUS
 10
86.4767301311
 20
224.6654360702
  0
VERTEX
  8
0
 62
7
  6
CONTINUOUS
 10
86.4331331025
 20
224.6732940266
  0
VERTEX
  8
0
 62
7
  6
CONTINUOUS
 10
86.3922215351
 20
224.6758577943
  0
SEQEND
  0
POLYLINE
  8
0
 62
7
  6
CONTINUOUS
 66
1
 70
0
  0
VERTEX
  8
0
 62
7
  6
CONTINUOUS
 10
99.1767301311
 20
224.6654360702
  0
VERTEX
  8
0
 62
7
  6
CONTINUOUS
 10
99.1331331025
 20
224.6732940266
  0
VERTEX
  8
0
 62
7
  6
CONTINUOUS
 10
99.0922215351
 20
224.6758577943
  0
SEQEND
  0
POLYLINE
  8
0
 62
7
  6
CONTINUOUS
 66
1
 70
0
  0
VERTEX
  8
0
 62
7
  6
CONTINUOUS
 10
111.8767301311
 20
224.6654360702
  0
VERTEX
  8
0
 62
7
  6
CONTINUOUS
 10
111.8331331025
 20
224.6732940266
  0
VERTEX
  8
0
 62
7
  6
CONTINUOUS
 10
111.7922215351
 20
224.6758577943
  0
SEQEND
  0
POLYLINE
  8
0
 62
7
  6
CONTINUOUS
 66
1
 70
0
  0
VERTEX
  8
0
 62
7
  6
CONTINUOUS
 10
124.5767301311
 20
224.6654360702
  0
VERTEX
  8
0
 62
7
  6
CONTINUOUS
 10
124.5331331025
 20
224.6732940266
  0
VERTEX
  8
0
 62
7
  6
CONTINUOUS
 10
124.4922215351
 20
224.6758577943
  0
SEQEND
  0
POLYLINE
  8
0
 62
7
  6
CONTINUOUS
 66
1
 70
0
  0
VERTEX
  8
0
 62
7
  6
CONTINUOUS
 10
137.2767301311
 20
224.6654360702
  0
VERTEX
  8
0
 62
7
  6
CONTINUOUS
 10
137.2331331025
 20
224.6732940266
  0
VERTEX
  8
0
 62
7
  6
CONTINUOUS
 10
137.1922215351
 20
224.6758577943
  0
SEQEND
  0
POLYLINE
  8
0
 62
7
  6
CONTINUOUS
 66
1
 70
0
  0
VERTEX
  8
0
 62
7
  6
CONTINUOUS
 10
99.2754494498
 20
224.6338846564
  0
VERTEX
  8
0
 62
7
  6
CONTINUOUS
 10
99.2571298675
 20
224.6407424706
  0
VERTEX
  8
0
 62
7
  6
CONTINUOUS
 10
99.216660116
 20
224.6544866291
  0
VERTEX
  8
0
 62
7
  6
CONTINUOUS
 10
99.1767301311
 20
224.6654360702
  0
SEQEND
  0
POLYLINE
  8
0
 62
7
  6
CONTINUOUS
 66
1
 70
0
  0
VERTEX
  8
0
 62
7
  6
CONTINUOUS
 10
203.6967930116
 20
188.6178310235
  0
VERTEX
  8
0
 62
7
  6
CONTINUOUS
 10
203.7151125939
 20
188.6109732093
  0
VERTEX
  8
0
 62
7
  6
CONTINUOUS
 10
203.7555823454
 20
188.5972290507
  0
VERTEX
  8
0
 62
7
  6
CONTINUOUS
 10
203.7955123303
 20
188.5862796097
  0
SEQEND
  0
POLYLINE
  8
0
 62
7
  6
CONTINUOUS
 66
1
 70
0
  0
VERTEX
  8
0
 62
7
  6
CONTINUOUS
 10
111.9754494498
 20
224.6338846564
  0
VERTEX
  8
0
 62
7
  6
CONTINUOUS
 10
111.9571298675
 20
224.6407424706
  0
VERTEX
  8
0
 62
7
  6
CONTINUOUS
 10
111.916660116
 20
224.6544866291
  0
VERTEX
  8
0
 62
7
  6
CONTINUOUS
 10
111.8767301311
 20
224.6654360702
  0
SEQEND
  0
POLYLINE
  8
0
 62
7
  6
CONTINUOUS
 66
1
 70
0
  0
VERTEX
  8
0
 62
7
  6
CONTINUOUS
 10
216.3967930116
 20
188.6178310235
  0
VERTEX
  8
0
 62
7
  6
CONTINUOUS
 10
216.4151125939
 20
188.6109732093
  0
VERTEX
  8
0
 62
7
  6
CONTINUOUS
 10
216.4555823454
 20
188.5972290507
  0
VERTEX
  8
0
 62
7
  6
CONTINUOUS
 10
216.4955123303
 20
188.5862796097
  0
SEQEND
  0
POLYLINE
  8
0
 62
7
  6
CONTINUOUS
 66
1
 70
0
  0
VERTEX
  8
0
 62
7
  6
CONTINUOUS
 10
124.6754494498
 20
224.6338846564
  0
VERTEX
  8
0
 62
7
  6
CONTINUOUS
 10
124.6571298675
 20
224.6407424706
  0
VERTEX
  8
0
 62
7
  6
CONTINUOUS
 10
124.616660116
 20
224.6544866291
  0
VERTEX
  8
0
 62
7
  6
CONTINUOUS
 10
124.5767301311
 20
224.6654360702
  0
SEQEND
  0
POLYLINE
  8
0
 62
7
  6
CONTINUOUS
 66
1
 70
0
  0
VERTEX
  8
0
 62
7
  6
CONTINUOUS
 10
137.3754494498
 20
224.6338846564
  0
VERTEX
  8
0
 62
7
  6
CONTINUOUS
 10
137.3571298675
 20
224.6407424706
  0
VERTEX
  8
0
 62
7
  6
CONTINUOUS
 10
137.316660116
 20
224.6544866291
  0
VERTEX
  8
0
 62
7
  6
CONTINUOUS
 10
137.2767301311
 20
224.6654360702
  0
SEQEND
  0
LINE
  8
0
 62
7
  6
CONTINUOUS
 10
99.2753440067
 20
224.6339250647
 11
99.2754494498
 21
224.6338846564
  0
LINE
  8
0
 62
7
  6
CONTINUOUS
 10
203.6968984546
 20
188.6177906152
 11
203.6967930116
 21
188.6178310235
  0
LINE
  8
0
 62
7
  6
CONTINUOUS
 10
111.9753440067
 20
224.6339250647
 11
111.9754494498
 21
224.6338846564
  0
LINE
  8
0
 62
7
  6
CONTINUOUS
 10
216.3968984546
 20
188.6177906152
 11
216.3967930116
 21
188.6178310235
  0
LINE
  8
0
 62
7
  6
CONTINUOUS
 10
124.6753440067
 20
224.6339250647
 11
124.6754494498
 21
224.6338846564
  0
LINE
  8
0
 62
7
  6
CONTINUOUS
 10
137.3753440067
 20
224.6339250647
 11
137.3754494498
 21
224.6338846564
  0
POLYLINE
  8
0
 62
7
  6
CONTINUOUS
 66
1
 70
0
  0
VERTEX
  8
0
 62
7
  6
CONTINUOUS
 10
164.0933205559
 20
220.913868136
  0
VERTEX
  8
0
 62
7
  6
CONTINUOUS
 10
164.0554862192
 20
221.3068674361
  0
VERTEX
  8
0
 62
7
  6
CONTINUOUS
 10
163.9969392814
 20
221.7781218403
  0
VERTEX
  8
0
 62
7
  6
CONTINUOUS
 10
163.9257452358
 20
222.2278048007
  0
VERTEX
  8
0
 62
7
  6
CONTINUOUS
 10
163.8420088968
 20
222.6525992052
  0
VERTEX
  8
0
 62
7
  6
CONTINUOUS
 10
163.7457364004
 20
223.0490268064
  0
VERTEX
  8
0
 62
7
  6
CONTINUOUS
 10
163.6367585561
 20
223.4134885402
  0
VERTEX
  8
0
 62
7
  6
CONTINUOUS
 10
163.5151863364
 20
223.7408149574
  0
VERTEX
  8
0
 62
7
  6
CONTINUOUS
 10
163.3827516657
 20
224.0227895999
  0
VERTEX
  8
0
 62
7
  6
CONTINUOUS
 10
163.2410388025
 20
224.2546563912
  0
VERTEX
  8
0
 62
7
  6
CONTINUOUS
 10
163.0904620517
 20
224.4355352616
  0
VERTEX
  8
0
 62
7
  6
CONTINUOUS
 10
162.9309180257
 20
224.565881324
  0
VERTEX
  8
0
 62
7
  6
CONTINUOUS
 10
162.7974779008
 20
224.6339187909
  0
SEQEND
  0
POLYLINE
  8
0
 62
7
  6
CONTINUOUS
 66
1
 70
0
  0
VERTEX
  8
0
 62
7
  6
CONTINUOUS
 10
164.3010219024
 20
192.3378475469
  0
VERTEX
  8
0
 62
7
  6
CONTINUOUS
 10
164.3385440568
 20
191.9477288486
  0
VERTEX
  8
0
 62
7
  6
CONTINUOUS
 10
164.3967848399
 20
191.4779915664
  0
VERTEX
  8
0
 62
7
  6
CONTINUOUS
 10
164.4672228746
 20
191.0316922212
  0
VERTEX
  8
0
 62
7
  6
CONTINUOUS
 10
164.5500251342
 20
190.6096923615
  0
VERTEX
  8
0
 62
7
  6
CONTINUOUS
 10
164.6456782458
 20
190.2135974783
  0
VERTEX
  8
0
 62
7
  6
CONTINUOUS
 10
164.7550354488
 20
189.8459102975
  0
VERTEX
  8
0
 62
7
  6
CONTINUOUS
 10
164.8783592598
 20
189.5128160387
  0
VERTEX
  8
0
 62
7
  6
CONTINUOUS
 10
165.0126808634
 20
189.226884494
  0
VERTEX
  8
0
 62
7
  6
CONTINUOUS
 10
165.1546936467
 20
188.9950995379
  0
VERTEX
  8
0
 62
7
  6
CONTINUOUS
 10
165.3039367085
 20
188.8161239704
  0
VERTEX
  8
0
 62
7
  6
CONTINUOUS
 10
165.4615671896
 20
188.6870300159
  0
VERTEX
  8
0
 62
7
  6
CONTINUOUS
 10
165.5968970766
 20
188.6177870237
  0
SEQEND
  0
LINE
  8
0
 62
7
  6
CONTINUOUS
 10
164.3010219118
 20
192.3378521239
 11
164.3010001235
 21
192.3383651759
  0
LINE
  8
0
 62
7
  6
CONTINUOUS
 10
164.0933423379
 20
220.9133516131
 11
164.0933205482
 21
220.9138643709
  0
LINE
  8
0
 62
7
  6
CONTINUOUS
 10
157.7434423379
 20
192.3383661282
 11
157.7434423379
 21
196.7868160798
  0
LINE
  8
0
 62
7
  6
CONTINUOUS
 10
157.9509001235
 20
220.9133495143
 11
157.9509001235
 21
216.3897746397
  0
LINE
  8
0
 62
7
  6
CONTINUOUS
 10
164.0933423379
 20
216.3897730141
 11
164.0933423379
 21
220.9133471826
  0
LINE
  8
0
 62
7
  6
CONTINUOUS
 10
164.3010001235
 20
196.7868165137
 11
164.3010001235
 21
192.3383661297
  0
LINE
  8
0
 62
7
  6
CONTINUOUS
 10
170.4434423379
 20
192.3383661282
 11
170.4434423379
 21
196.7868160798
  0
LINE
  8
0
 62
7
  6
CONTINUOUS
 10
170.6509001235
 20
220.9133495143
 11
170.6509001235
 21
216.3897746397
  0
POLYLINE
  8
0
 62
7
  6
CONTINUOUS
 66
1
 70
0
  0
VERTEX
  8
0
 62
7
  6
CONTINUOUS
 10
157.7434417634
 20
196.7863308525
  0
VERTEX
  8
0
 62
7
  6
CONTINUOUS
 10
157.7437441596
 20
196.7961213236
  0
VERTEX
  8
0
 62
7
  6
CONTINUOUS
 10
157.7465511593
 20
196.8176329737
  0
VERTEX
  8
0
 62
7
  6
CONTINUOUS
 10
157.7525103467
 20
196.839340308
  0
VERTEX
  8
0
 62
7
  6
CONTINUOUS
 10
157.7617738034
 20
196.8606330104
  0
VERTEX
  8
0
 62
7
  6
CONTINUOUS
 10
157.7743656059
 20
196.8808693221
  0
VERTEX
  8
0
 62
7
  6
CONTINUOUS
 10
157.7902057449
 20
196.8994334583
  0
VERTEX
  8
0
 62
7
  6
CONTINUOUS
 10
157.8090856294
 20
196.9157039239
  0
VERTEX
  8
0
 62
7
  6
CONTINUOUS
 10
157.8306580643
 20
196.9290815034
  0
VERTEX
  8
0
 62
7
  6
CONTINUOUS
 10
157.8544423001
 20
196.9390259116
  0
VERTEX
  8
0
 62
7
  6
CONTINUOUS
 10
157.8798219967
 20
196.9450847621
  0
VERTEX
  8
0
 62
7
  6
CONTINUOUS
 10
157.9040604895
 20
196.9469427706
  0
SEQEND
  0
POLYLINE
  8
0
 62
7
  6
CONTINUOUS
 66
1
 70
0
  0
VERTEX
  8
0
 62
7
  6
CONTINUOUS
 10
170.4434417634
 20
196.7863308525
  0
VERTEX
  8
0
 62
7
  6
CONTINUOUS
 10
170.4437441596
 20
196.7961213236
  0
VERTEX
  8
0
 62
7
  6
CONTINUOUS
 10
170.4465511593
 20
196.8176329737
  0
VERTEX
  8
0
 62
7
  6
CONTINUOUS
 10
170.4525103467
 20
196.839340308
  0
VERTEX
  8
0
 62
7
  6
CONTINUOUS
 10
170.4617738034
 20
196.8606330104
  0
VERTEX
  8
0
 62
7
  6
CONTINUOUS
 10
170.4743656059
 20
196.8808693221
  0
VERTEX
  8
0
 62
7
  6
CONTINUOUS
 10
170.4902057449
 20
196.8994334583
  0
VERTEX
  8
0
 62
7
  6
CONTINUOUS
 10
170.5090856294
 20
196.9157039239
  0
VERTEX
  8
0
 62
7
  6
CONTINUOUS
 10
170.5306580643
 20
196.9290815034
  0
VERTEX
  8
0
 62
7
  6
CONTINUOUS
 10
170.5544423001
 20
196.9390259116
  0
VERTEX
  8
0
 62
7
  6
CONTINUOUS
 10
170.5798219967
 20
196.9450847621
  0
VERTEX
  8
0
 62
7
  6
CONTINUOUS
 10
170.6040604895
 20
196.9469427706
  0
SEQEND
  0
POLYLINE
  8
0
 62
7
  6
CONTINUOUS
 66
1
 70
0
  0
VERTEX
  8
0
 62
7
  6
CONTINUOUS
 10
157.9509004163
 20
216.3900639357
  0
VERTEX
  8
0
 62
7
  6
CONTINUOUS
 10
157.9507377204
 20
216.3848287559
  0
VERTEX
  8
0
 62
7
  6
CONTINUOUS
 10
157.9483949349
 20
216.369625187
  0
VERTEX
  8
0
 62
7
  6
CONTINUOUS
 10
157.9429369294
 20
216.3541808002
  0
VERTEX
  8
0
 62
7
  6
CONTINUOUS
 10
157.9340465765
 20
216.3392651037
  0
VERTEX
  8
0
 62
7
  6
CONTINUOUS
 10
157.9215518138
 20
216.3257671065
  0
VERTEX
  8
0
 62
7
  6
CONTINUOUS
 10
157.9055007488
 20
216.3147321931
  0
VERTEX
  8
0
 62
7
  6
CONTINUOUS
 10
157.8862742873
 20
216.3073347398
  0
VERTEX
  8
0
 62
7
  6
CONTINUOUS
 10
157.8656064783
 20
216.3047723158
  0
SEQEND
  0
POLYLINE
  8
0
 62
7
  6
CONTINUOUS
 66
1
 70
0
  0
VERTEX
  8
0
 62
7
  6
CONTINUOUS
 10
170.6509004163
 20
216.3900639357
  0
VERTEX
  8
0
 62
7
  6
CONTINUOUS
 10
170.6507377204
 20
216.3848287559
  0
VERTEX
  8
0
 62
7
  6
CONTINUOUS
 10
170.6483949349
 20
216.369625187
  0
VERTEX
  8
0
 62
7
  6
CONTINUOUS
 10
170.6429369294
 20
216.3541808002
  0
VERTEX
  8
0
 62
7
  6
CONTINUOUS
 10
170.6340465765
 20
216.3392651037
  0
VERTEX
  8
0
 62
7
  6
CONTINUOUS
 10
170.6215518138
 20
216.3257671065
  0
VERTEX
  8
0
 62
7
  6
CONTINUOUS
 10
170.6055007488
 20
216.3147321931
  0
VERTEX
  8
0
 62
7
  6
CONTINUOUS
 10
170.5862742873
 20
216.3073347398
  0
VERTEX
  8
0
 62
7
  6
CONTINUOUS
 10
170.5656064783
 20
216.3047723158
  0
SEQEND
  0
LINE
  8
0
 62
7
  6
CONTINUOUS
 10
157.7434205471
 20
192.3378520934
 11
157.7434423379
 21
192.3383651744
  0
LINE
  8
0
 62
7
  6
CONTINUOUS
 10
170.6509219125
 20
220.9138635285
 11
170.6509001235
 21
220.9133504686
  0
LINE
  8
0
 62
7
  6
CONTINUOUS
 10
170.4434205471
 20
192.3378520934
 11
170.4434423379
 21
192.3383651744
  0
POLYLINE
  8
0
 62
7
  6
CONTINUOUS
 66
1
 70
0
  0
VERTEX
  8
0
 62
7
  6
CONTINUOUS
 10
222.7467707461
 20
224.6339210742
  0
VERTEX
  8
0
 62
7
  6
CONTINUOUS
 10
222.6109073108
 20
224.5643238418
  0
VERTEX
  8
0
 62
7
  6
CONTINUOUS
 10
222.4516152473
 20
224.4333578736
  0
VERTEX
  8
0
 62
7
  6
CONTINUOUS
 10
222.3012395654
 20
224.2518773938
  0
VERTEX
  8
0
 62
7
  6
CONTINUOUS
 10
222.1596881585
 20
224.0194040601
  0
VERTEX
  8
0
 62
7
  6
CONTINUOUS
 10
222.0274022566
 20
223.7368366542
  0
VERTEX
  8
0
 62
7
  6
CONTINUOUS
 10
221.9059843163
 20
223.4089719931
  0
VERTEX
  8
0
 62
7
  6
CONTINUOUS
 10
221.7971708028
 20
223.0440598571
  0
VERTEX
  8
0
 62
7
  6
CONTINUOUS
 10
221.7010687853
 20
222.6472699295
  0
VERTEX
  8
0
 62
7
  6
CONTINUOUS
 10
221.6175049691
 20
222.2221898364
  0
VERTEX
  8
0
 62
7
  6
CONTINUOUS
 10
221.5464818283
 20
221.7722780319
  0
VERTEX
  8
0
 62
7
  6
CONTINUOUS
 10
221.488102137
 20
221.300826219
  0
VERTEX
  8
0
 62
7
  6
CONTINUOUS
 10
221.4509219031
 20
220.9138681074
  0
SEQEND
  0
POLYLINE
  8
0
 62
7
  6
CONTINUOUS
 66
1
 70
0
  0
VERTEX
  8
0
 62
7
  6
CONTINUOUS
 10
156.4475570925
 20
188.6177889222
  0
VERTEX
  8
0
 62
7
  6
CONTINUOUS
 10
156.5807932114
 20
188.6856900705
  0
VERTEX
  8
0
 62
7
  6
CONTINUOUS
 10
156.738998279
 20
188.8146150454
  0
VERTEX
  8
0
 62
7
  6
CONTINUOUS
 10
156.8886947711
 20
188.9936172484
  0
VERTEX
  8
0
 62
7
  6
CONTINUOUS
 10
157.0309427999
 20
189.2253537538
  0
VERTEX
  8
0
 62
7
  6
CONTINUOUS
 10
157.1652872522
 20
189.510902922
  0
VERTEX
  8
0
 62
7
  6
CONTINUOUS
 10
157.2885569734
 20
189.8433434845
  0
VERTEX
  8
0
 62
7
  6
CONTINUOUS
 10
157.3978942175
 20
190.210349235
  0
VERTEX
  8
0
 62
7
  6
CONTINUOUS
 10
157.4935778022
 20
190.6058396
  0
VERTEX
  8
0
 62
7
  6
CONTINUOUS
 10
157.576442924
 20
191.0272911686
  0
VERTEX
  8
0
 62
7
  6
CONTINUOUS
 10
157.6469634014
 20
191.4730548498
  0
VERTEX
  8
0
 62
7
  6
CONTINUOUS
 10
157.7052997228
 20
191.9422089722
  0
VERTEX
  8
0
 62
7
  6
CONTINUOUS
 10
157.7434205565
 20
192.3378475161
  0
SEQEND
  0
POLYLINE
  8
0
 62
7
  6
CONTINUOUS
 66
1
 70
0
  0
VERTEX
  8
0
 62
7
  6
CONTINUOUS
 10
169.1475570925
 20
188.6177889222
  0
VERTEX
  8
0
 62
7
  6
CONTINUOUS
 10
169.2807932114
 20
188.6856900705
  0
VERTEX
  8
0
 62
7
  6
CONTINUOUS
 10
169.438998279
 20
188.8146150454
  0
VERTEX
  8
0
 62
7
  6
CONTINUOUS
 10
169.5886947711
 20
188.9936172484
  0
VERTEX
  8
0
 62
7
  6
CONTINUOUS
 10
169.7309427999
 20
189.2253537538
  0
VERTEX
  8
0
 62
7
  6
CONTINUOUS
 10
169.8652872522
 20
189.510902922
  0
VERTEX
  8
0
 62
7
  6
CONTINUOUS
 10
169.9885569734
 20
189.8433434845
  0
VERTEX
  8
0
 62
7
  6
CONTINUOUS
 10
170.0978942175
 20
190.210349235
  0
VERTEX
  8
0
 62
7
  6
CONTINUOUS
 10
170.1935778022
 20
190.6058396
  0
VERTEX
  8
0
 62
7
  6
CONTINUOUS
 10
170.276442924
 20
191.0272911686
  0
VERTEX
  8
0
 62
7
  6
CONTINUOUS
 10
170.3469634014
 20
191.4730548498
  0
VERTEX
  8
0
 62
7
  6
CONTINUOUS
 10
170.4052997228
 20
191.9422089722
  0
VERTEX
  8
0
 62
7
  6
CONTINUOUS
 10
170.4434205565
 20
192.3378475161
  0
SEQEND
  0
POLYLINE
  8
0
 62
7
  6
CONTINUOUS
 66
1
 70
0
  0
VERTEX
  8
0
 62
7
  6
CONTINUOUS
 10
181.8475570925
 20
188.6177889222
  0
VERTEX
  8
0
 62
7
  6
CONTINUOUS
 10
181.9807932114
 20
188.6856900705
  0
VERTEX
  8
0
 62
7
  6
CONTINUOUS
 10
182.138998279
 20
188.8146150454
  0
VERTEX
  8
0
 62
7
  6
CONTINUOUS
 10
182.2886947711
 20
188.9936172484
  0
VERTEX
  8
0
 62
7
  6
CONTINUOUS
 10
182.4309427999
 20
189.2253537538
  0
VERTEX
  8
0
 62
7
  6
CONTINUOUS
 10
182.5652872522
 20
189.510902922
  0
VERTEX
  8
0
 62
7
  6
CONTINUOUS
 10
182.6885569734
 20
189.8433434845
  0
VERTEX
  8
0
 62
7
  6
CONTINUOUS
 10
182.7978942175
 20
190.210349235
  0
VERTEX
  8
0
 62
7
  6
CONTINUOUS
 10
182.8935778022
 20
190.6058396001
  0
VERTEX
  8
0
 62
7
  6
CONTINUOUS
 10
182.976442924
 20
191.0272911686
  0
VERTEX
  8
0
 62
7
  6
CONTINUOUS
 10
183.0469634014
 20
191.4730548498
  0
VERTEX
  8
0
 62
7
  6
CONTINUOUS
 10
183.1052997228
 20
191.9422089722
  0
VERTEX
  8
0
 62
7
  6
CONTINUOUS
 10
183.1434205565
 20
192.3378475161
  0
SEQEND
  0
LINE
  8
0
 62
7
  6
CONTINUOUS
 10
156.4475570925
 20
188.6177889222
 11
156.4476534626
 21
188.6178258511
  0
LINE
  8
0
 62
7
  6
CONTINUOUS
 10
169.1475570925
 20
188.6177889222
 11
169.1476534626
 21
188.6178258511
  0
LINE
  8
0
 62
7
  6
CONTINUOUS
 10
181.8475570925
 20
188.6177889222
 11
181.8476534626
 21
188.6178258511
  0
LINE
  8
0
 62
7
  6
CONTINUOUS
 10
156.427745228
 20
188.6103959677
 11
156.4476512156
 21
188.6178317007
  0
LINE
  8
0
 62
7
  6
CONTINUOUS
 10
169.127745228
 20
188.6103959677
 11
169.1476512156
 21
188.6178317007
  0
LINE
  8
0
 62
7
  6
CONTINUOUS
 10
181.827745228
 20
188.6103959677
 11
181.8476512156
 21
188.6178317007
  0
POLYLINE
  8
0
 62
7
  6
CONTINUOUS
 66
1
 70
0
  0
VERTEX
  8
0
 62
7
  6
CONTINUOUS
 10
108.607822869
 20
224.6758577968
  0
VERTEX
  8
0
 62
7
  6
CONTINUOUS
 10
108.5673903139
 20
224.6733525386
  0
VERTEX
  8
0
 62
7
  6
CONTINUOUS
 10
108.5241290181
 20
224.6656266226
  0
VERTEX
  8
0
 62
7
  6
CONTINUOUS
 10
108.4845325844
 20
224.6548439768
  0
VERTEX
  8
0
 62
7
  6
CONTINUOUS
 10
108.4444972333
 20
224.6413197122
  0
SEQEND
  0
POLYLINE
  8
0
 62
7
  6
CONTINUOUS
 66
1
 70
0
  0
VERTEX
  8
0
 62
7
  6
CONTINUOUS
 10
95.907822869
 20
224.6758577968
  0
VERTEX
  8
0
 62
7
  6
CONTINUOUS
 10
95.8673903139
 20
224.6733525386
  0
VERTEX
  8
0
 62
7
  6
CONTINUOUS
 10
95.8241290181
 20
224.6656266226
  0
VERTEX
  8
0
 62
7
  6
CONTINUOUS
 10
95.7845325844
 20
224.6548439768
  0
VERTEX
  8
0
 62
7
  6
CONTINUOUS
 10
95.7444972333
 20
224.6413197122
  0
SEQEND
  0
POLYLINE
  8
0
 62
7
  6
CONTINUOUS
 66
1
 70
0
  0
VERTEX
  8
0
 62
7
  6
CONTINUOUS
 10
83.207822869
 20
224.6758577968
  0
VERTEX
  8
0
 62
7
  6
CONTINUOUS
 10
83.1673903139
 20
224.6733525386
  0
VERTEX
  8
0
 62
7
  6
CONTINUOUS
 10
83.1241290181
 20
224.6656266226
  0
VERTEX
  8
0
 62
7
  6
CONTINUOUS
 10
83.0845325844
 20
224.6548439768
  0
VERTEX
  8
0
 62
7
  6
CONTINUOUS
 10
83.0444972333
 20
224.6413197122
  0
SEQEND
  0
POLYLINE
  8
0
 62
7
  6
CONTINUOUS
 66
1
 70
0
  0
VERTEX
  8
0
 62
7
  6
CONTINUOUS
 10
70.507822869
 20
224.6758577968
  0
VERTEX
  8
0
 62
7
  6
CONTINUOUS
 10
70.4673903139
 20
224.6733525386
  0
VERTEX
  8
0
 62
7
  6
CONTINUOUS
 10
70.4241290181
 20
224.6656266226
  0
VERTEX
  8
0
 62
7
  6
CONTINUOUS
 10
70.3845325844
 20
224.6548439768
  0
VERTEX
  8
0
 62
7
  6
CONTINUOUS
 10
70.3444972333
 20
224.6413197122
  0
SEQEND
  0
POLYLINE
  8
0
 62
7
  6
CONTINUOUS
 66
1
 70
0
  0
VERTEX
  8
0
 62
7
  6
CONTINUOUS
 10
57.807822869
 20
224.6758577968
  0
VERTEX
  8
0
 62
7
  6
CONTINUOUS
 10
57.7673903139
 20
224.6733525386
  0
VERTEX
  8
0
 62
7
  6
CONTINUOUS
 10
57.7241290181
 20
224.6656266226
  0
VERTEX
  8
0
 62
7
  6
CONTINUOUS
 10
57.6845325844
 20
224.6548439768
  0
VERTEX
  8
0
 62
7
  6
CONTINUOUS
 10
57.6444972333
 20
224.6413197122
  0
SEQEND
  0
POLYLINE
  8
0
 62
7
  6
CONTINUOUS
 66
1
 70
0
  0
VERTEX
  8
0
 62
7
  6
CONTINUOUS
 10
43.8361257547
 20
224.6758581399
  0
VERTEX
  8
0
 62
7
  6
CONTINUOUS
 10
43.8250370353
 20
224.675612105
  0
VERTEX
  8
0
 62
7
  6
CONTINUOUS
 10
43.7712685844
 20
224.6672988925
  0
VERTEX
  8
0
 62
7
  6
CONTINUOUS
 10
43.7205709986
 20
224.6475502323
  0
VERTEX
  8
0
 62
7
  6
CONTINUOUS
 10
43.6753459673
 20
224.6173011705
  0
VERTEX
  8
0
 62
7
  6
CONTINUOUS
 10
43.6377359172
 20
224.5779844342
  0
VERTEX
  8
0
 62
7
  6
CONTINUOUS
 10
43.6095223682
 20
224.5314624006
  0
VERTEX
  8
0
 62
7
  6
CONTINUOUS
 10
43.5920415766
 20
224.4799388054
  0
VERTEX
  8
0
 62
7
  6
CONTINUOUS
 10
43.5861212307
 20
224.4258541703
  0
SEQEND
  0
POLYLINE
  8
0
 62
7
  6
CONTINUOUS
 66
1
 70
0
  0
VERTEX
  8
0
 62
7
  6
CONTINUOUS
 10
149.996968987
 20
224.6658662208
  0
VERTEX
  8
0
 62
7
  6
CONTINUOUS
 10
149.9531086093
 20
224.6735476843
  0
VERTEX
  8
0
 62
7
  6
CONTINUOUS
 10
149.9143245705
 20
224.6758577909
  0
SEQEND
  0
POLYLINE
  8
0
 62
7
  6
CONTINUOUS
 66
1
 70
0
  0
VERTEX
  8
0
 62
7
  6
CONTINUOUS
 10
162.696968987
 20
224.6658662208
  0
VERTEX
  8
0
 62
7
  6
CONTINUOUS
 10
162.6531086093
 20
224.6735476843
  0
VERTEX
  8
0
 62
7
  6
CONTINUOUS
 10
162.6143245705
 20
224.6758577909
  0
SEQEND
  0
POLYLINE
  8
0
 62
7
  6
CONTINUOUS
 66
1
 70
0
  0
VERTEX
  8
0
 62
7
  6
CONTINUOUS
 10
175.396968987
 20
224.6658662208
  0
VERTEX
  8
0
 62
7
  6
CONTINUOUS
 10
175.3531086093
 20
224.6735476843
  0
VERTEX
  8
0
 62
7
  6
CONTINUOUS
 10
175.3143245705
 20
224.6758577909
  0
SEQEND
  0
POLYLINE
  8
0
 62
7
  6
CONTINUOUS
 66
1
 70
0
  0
VERTEX
  8
0
 62
7
  6
CONTINUOUS
 10
188.096968987
 20
224.6658662208
  0
VERTEX
  8
0
 62
7
  6
CONTINUOUS
 10
188.0531086093
 20
224.6735476843
  0
VERTEX
  8
0
 62
7
  6
CONTINUOUS
 10
188.0143245705
 20
224.6758577909
  0
SEQEND
  0
POLYLINE
  8
0
 62
7
  6
CONTINUOUS
 66
1
 70
0
  0
VERTEX
  8
0
 62
7
  6
CONTINUOUS
 10
200.796968987
 20
224.6658662208
  0
VERTEX
  8
0
 62
7
  6
CONTINUOUS
 10
200.7531086093
 20
224.6735476843
  0
VERTEX
  8
0
 62
7
  6
CONTINUOUS
 10
200.7143245705
 20
224.6758577909
  0
SEQEND
  0
POLYLINE
  8
0
 62
7
  6
CONTINUOUS
 66
1
 70
0
  0
VERTEX
  8
0
 62
7
  6
CONTINUOUS
 10
213.496968987
 20
224.6658662208
  0
VERTEX
  8
0
 62
7
  6
CONTINUOUS
 10
213.4531086093
 20
224.6735476843
  0
VERTEX
  8
0
 62
7
  6
CONTINUOUS
 10
213.4143245705
 20
224.6758577909
  0
SEQEND
  0
POLYLINE
  8
0
 62
7
  6
CONTINUOUS
 66
1
 70
0
  0
VERTEX
  8
0
 62
7
  6
CONTINUOUS
 10
150.0975539271
 20
224.6338829393
  0
VERTEX
  8
0
 62
7
  6
CONTINUOUS
 10
150.0773099415
 20
224.6414412812
  0
VERTEX
  8
0
 62
7
  6
CONTINUOUS
 10
150.0369542937
 20
224.655045158
  0
VERTEX
  8
0
 62
7
  6
CONTINUOUS
 10
149.996968987
 20
224.6658662208
  0
SEQEND
  0
POLYLINE
  8
0
 62
7
  6
CONTINUOUS
 66
1
 70
0
  0
VERTEX
  8
0
 62
7
  6
CONTINUOUS
 10
162.7975539271
 20
224.6338829393
  0
VERTEX
  8
0
 62
7
  6
CONTINUOUS
 10
162.7773099415
 20
224.6414412812
  0
VERTEX
  8
0
 62
7
  6
CONTINUOUS
 10
162.7369542937
 20
224.655045158
  0
VERTEX
  8
0
 62
7
  6
CONTINUOUS
 10
162.696968987
 20
224.6658662208
  0
SEQEND
  0
POLYLINE
  8
0
 62
7
  6
CONTINUOUS
 66
1
 70
0
  0
VERTEX
  8
0
 62
7
  6
CONTINUOUS
 10
175.4975539271
 20
224.6338829393
  0
VERTEX
  8
0
 62
7
  6
CONTINUOUS
 10
175.4773099415
 20
224.6414412812
  0
VERTEX
  8
0
 62
7
  6
CONTINUOUS
 10
175.4369542937
 20
224.655045158
  0
VERTEX
  8
0
 62
7
  6
CONTINUOUS
 10
175.396968987
 20
224.6658662208
  0
SEQEND
  0
POLYLINE
  8
0
 62
7
  6
CONTINUOUS
 66
1
 70
0
  0
VERTEX
  8
0
 62
7
  6
CONTINUOUS
 10
188.1975539271
 20
224.6338829393
  0
VERTEX
  8
0
 62
7
  6
CONTINUOUS
 10
188.1773099415
 20
224.6414412812
  0
VERTEX
  8
0
 62
7
  6
CONTINUOUS
 10
188.1369542937
 20
224.655045158
  0
VERTEX
  8
0
 62
7
  6
CONTINUOUS
 10
188.096968987
 20
224.6658662208
  0
SEQEND
  0
LINE
  8
0
 62
7
  6
CONTINUOUS
 10
150.0975561751
 20
224.6338887913
 11
150.0974779008
 21
224.6339187909
  0
LINE
  8
0
 62
7
  6
CONTINUOUS
 10
162.7975561751
 20
224.6338887913
 11
162.7974779008
 21
224.6339187909
  0
LINE
  8
0
 62
7
  6
CONTINUOUS
 10
175.4975561751
 20
224.6338887913
 11
175.4974779008
 21
224.6339187909
  0
LINE
  8
0
 62
7
  6
CONTINUOUS
 10
188.1975561751
 20
224.6338887913
 11
188.1974779008
 21
224.6339187909
  0
POLYLINE
  8
0
 62
7
  6
CONTINUOUS
 66
1
 70
0
  0
VERTEX
  8
0
 62
7
  6
CONTINUOUS
 10
151.3933205482
 20
220.9138643709
  0
VERTEX
  8
0
 62
7
  6
CONTINUOUS
 10
151.3848391216
 20
220.9231349042
  0
VERTEX
  8
0
 62
7
  6
CONTINUOUS
 10
151.3602561745
 20
220.9314294036
  0
VERTEX
  8
0
 62
7
  6
CONTINUOUS
 10
151.3211202535
 20
220.9378288166
  0
VERTEX
  8
0
 62
7
  6
CONTINUOUS
 10
151.2698904442
 20
220.9419178186
  0
VERTEX
  8
0
 62
7
  6
CONTINUOUS
 10
151.2098396731
 20
220.9434132635
  0
VERTEX
  8
0
 62
7
  6
CONTINUOUS
 10
151.1433423379
 20
220.9421808275
  0
SEQEND
  0
POLYLINE
  8
0
 62
7
  6
CONTINUOUS
 66
1
 70
0
  0
VERTEX
  8
0
 62
7
  6
CONTINUOUS
 10
164.0933205482
 20
220.9138643709
  0
VERTEX
  8
0
 62
7
  6
CONTINUOUS
 10
164.0848391216
 20
220.9231349042
  0
VERTEX
  8
0
 62
7
  6
CONTINUOUS
 10
164.0602561745
 20
220.9314294036
  0
VERTEX
  8
0
 62
7
  6
CONTINUOUS
 10
164.0211202535
 20
220.9378288166
  0
VERTEX
  8
0
 62
7
  6
CONTINUOUS
 10
163.9698904442
 20
220.9419178186
  0
VERTEX
  8
0
 62
7
  6
CONTINUOUS
 10
163.9098396731
 20
220.9434132635
  0
VERTEX
  8
0
 62
7
  6
CONTINUOUS
 10
163.8433423379
 20
220.9421808275
  0
SEQEND
  0
POLYLINE
  8
0
 62
7
  6
CONTINUOUS
 66
1
 70
0
  0
VERTEX
  8
0
 62
7
  6
CONTINUOUS
 10
176.7933205559
 20
220.913868136
  0
VERTEX
  8
0
 62
7
  6
CONTINUOUS
 10
176.7554862192
 20
221.3068674361
  0
VERTEX
  8
0
 62
7
  6
CONTINUOUS
 10
176.6969392814
 20
221.7781218403
  0
VERTEX
  8
0
 62
7
  6
CONTINUOUS
 10
176.6257452358
 20
222.2278048007
  0
VERTEX
  8
0
 62
7
  6
CONTINUOUS
 10
176.5420088968
 20
222.6525992052
  0
VERTEX
  8
0
 62
7
  6
CONTINUOUS
 10
176.4457364004
 20
223.0490268064
  0
VERTEX
  8
0
 62
7
  6
CONTINUOUS
 10
176.3367585561
 20
223.4134885402
  0
VERTEX
  8
0
 62
7
  6
CONTINUOUS
 10
176.2151863364
 20
223.7408149574
  0
VERTEX
  8
0
 62
7
  6
CONTINUOUS
 10
176.0827516657
 20
224.0227895999
  0
VERTEX
  8
0
 62
7
  6
CONTINUOUS
 10
175.9410388025
 20
224.2546563912
  0
VERTEX
  8
0
 62
7
  6
CONTINUOUS
 10
175.7904620517
 20
224.4355352616
  0
VERTEX
  8
0
 62
7
  6
CONTINUOUS
 10
175.6309180257
 20
224.565881324
  0
VERTEX
  8
0
 62
7
  6
CONTINUOUS
 10
175.4974779008
 20
224.6339187909
  0
SEQEND
  0
POLYLINE
  8
0
 62
7
  6
CONTINUOUS
 66
1
 70
0
  0
VERTEX
  8
0
 62
7
  6
CONTINUOUS
 10
189.4933205559
 20
220.913868136
  0
VERTEX
  8
0
 62
7
  6
CONTINUOUS
 10
189.4554862192
 20
221.3068674361
  0
VERTEX
  8
0
 62
7
  6
CONTINUOUS
 10
189.3969392814
 20
221.7781218403
  0
VERTEX
  8
0
 62
7
  6
CONTINUOUS
 10
189.3257452358
 20
222.2278048007
  0
VERTEX
  8
0
 62
7
  6
CONTINUOUS
 10
189.2420088968
 20
222.6525992052
  0
VERTEX
  8
0
 62
7
  6
CONTINUOUS
 10
189.1457364004
 20
223.0490268064
  0
VERTEX
  8
0
 62
7
  6
CONTINUOUS
 10
189.0367585561
 20
223.4134885402
  0
VERTEX
  8
0
 62
7
  6
CONTINUOUS
 10
188.9151863364
 20
223.7408149574
  0
VERTEX
  8
0
 62
7
  6
CONTINUOUS
 10
188.7827516657
 20
224.0227895999
  0
VERTEX
  8
0
 62
7
  6
CONTINUOUS
 10
188.6410388025
 20
224.2546563912
  0
VERTEX
  8
0
 62
7
  6
CONTINUOUS
 10
188.4904620517
 20
224.4355352616
  0
VERTEX
  8
0
 62
7
  6
CONTINUOUS
 10
188.3309180257
 20
224.565881324
  0
VERTEX
  8
0
 62
7
  6
CONTINUOUS
 10
188.1974779008
 20
224.6339187909
  0
SEQEND
  0
POLYLINE
  8
0
 62
7
  6
CONTINUOUS
 66
1
 70
0
  0
VERTEX
  8
0
 62
7
  6
CONTINUOUS
 10
177.0010219024
 20
192.3378475469
  0
VERTEX
  8
0
 62
7
  6
CONTINUOUS
 10
177.0385440568
 20
191.9477288486
  0
VERTEX
  8
0
 62
7
  6
CONTINUOUS
 10
177.0967848399
 20
191.4779915664
  0
VERTEX
  8
0
 62
7
  6
CONTINUOUS
 10
177.1672228746
 20
191.0316922212
  0
VERTEX
  8
0
 62
7
  6
CONTINUOUS
 10
177.2500251342
 20
190.6096923615
  0
VERTEX
  8
0
 62
7
  6
CONTINUOUS
 10
177.3456782458
 20
190.2135974783
  0
VERTEX
  8
0
 62
7
  6
CONTINUOUS
 10
177.4550354488
 20
189.8459102975
  0
VERTEX
  8
0
 62
7
  6
CONTINUOUS
 10
177.5783592598
 20
189.5128160387
  0
VERTEX
  8
0
 62
7
  6
CONTINUOUS
 10
177.7126808634
 20
189.226884494
  0
VERTEX
  8
0
 62
7
  6
CONTINUOUS
 10
177.8546936467
 20
188.9950995379
  0
VERTEX
  8
0
 62
7
  6
CONTINUOUS
 10
178.0039367085
 20
188.8161239704
  0
VERTEX
  8
0
 62
7
  6
CONTINUOUS
 10
178.1615671896
 20
188.6870300159
  0
VERTEX
  8
0
 62
7
  6
CONTINUOUS
 10
178.2968970766
 20
188.6177870237
  0
SEQEND
  0
POLYLINE
  8
0
 62
7
  6
CONTINUOUS
 66
1
 70
0
  0
VERTEX
  8
0
 62
7
  6
CONTINUOUS
 10
189.7010219024
 20
192.3378475469
  0
VERTEX
  8
0
 62
7
  6
CONTINUOUS
 10
189.7385440568
 20
191.9477288486
  0
VERTEX
  8
0
 62
7
  6
CONTINUOUS
 10
189.7967848399
 20
191.4779915664
  0
VERTEX
  8
0
 62
7
  6
CONTINUOUS
 10
189.8672228746
 20
191.0316922212
  0
VERTEX
  8
0
 62
7
  6
CONTINUOUS
 10
189.9500251342
 20
190.6096923615
  0
VERTEX
  8
0
 62
7
  6
CONTINUOUS
 10
190.0456782458
 20
190.2135974783
  0
VERTEX
  8
0
 62
7
  6
CONTINUOUS
 10
190.1550354488
 20
189.8459102975
  0
VERTEX
  8
0
 62
7
  6
CONTINUOUS
 10
190.2783592598
 20
189.5128160387
  0
VERTEX
  8
0
 62
7
  6
CONTINUOUS
 10
190.4126808634
 20
189.226884494
  0
VERTEX
  8
0
 62
7
  6
CONTINUOUS
 10
190.5546936467
 20
188.9950995379
  0
VERTEX
  8
0
 62
7
  6
CONTINUOUS
 10
190.7039367085
 20
188.8161239704
  0
VERTEX
  8
0
 62
7
  6
CONTINUOUS
 10
190.8615671896
 20
188.6870300159
  0
VERTEX
  8
0
 62
7
  6
CONTINUOUS
 10
190.9968970766
 20
188.6177870237
  0
SEQEND
  0
LINE
  8
0
 62
7
  6
CONTINUOUS
 10
177.0010219118
 20
192.3378521239
 11
177.0010001235
 21
192.3383651759
  0
LINE
  8
0
 62
7
  6
CONTINUOUS
 10
176.7933423379
 20
220.9133516131
 11
176.7933205482
 21
220.9138643709
  0
LINE
  8
0
 62
7
  6
CONTINUOUS
 10
189.7010219118
 20
192.3378521239
 11
189.7010001235
 21
192.3383651759
  0
LINE
  8
0
 62
7
  6
CONTINUOUS
 10
189.4933423379
 20
220.9133516131
 11
189.4933205482
 21
220.9138643709
  0
LINE
  8
0
 62
7
  6
CONTINUOUS
 10
176.7933423379
 20
216.3897730141
 11
176.7933423379
 21
220.9133471826
  0
LINE
  8
0
 62
7
  6
CONTINUOUS
 10
177.0010001235
 20
196.7868165137
 11
177.0010001235
 21
192.3383661297
  0
LINE
  8
0
 62
7
  6
CONTINUOUS
 10
183.1434423379
 20
192.3383661282
 11
183.1434423379
 21
196.7868160798
  0
LINE
  8
0
 62
7
  6
CONTINUOUS
 10
183.3509001235
 20
220.9133495143
 11
183.3509001235
 21
216.3897746397
  0
LINE
  8
0
 62
7
  6
CONTINUOUS
 10
189.4933423379
 20
216.3897730141
 11
189.4933423379
 21
220.9133471826
  0
LINE
  8
0
 62
7
  6
CONTINUOUS
 10
189.7010001235
 20
196.7868165137
 11
189.7010001235
 21
192.3383661297
  0
POLYLINE
  8
0
 62
7
  6
CONTINUOUS
 66
1
 70
0
  0
VERTEX
  8
0
 62
7
  6
CONTINUOUS
 10
183.1434417634
 20
196.7863308525
  0
VERTEX
  8
0
 62
7
  6
CONTINUOUS
 10
183.1437441596
 20
196.7961213236
  0
VERTEX
  8
0
 62
7
  6
CONTINUOUS
 10
183.1465511593
 20
196.8176329737
  0
VERTEX
  8
0
 62
7
  6
CONTINUOUS
 10
183.1525103467
 20
196.839340308
  0
VERTEX
  8
0
 62
7
  6
CONTINUOUS
 10
183.1617738034
 20
196.8606330104
  0
VERTEX
  8
0
 62
7
  6
CONTINUOUS
 10
183.1743656059
 20
196.8808693221
  0
VERTEX
  8
0
 62
7
  6
CONTINUOUS
 10
183.1902057449
 20
196.8994334583
  0
VERTEX
  8
0
 62
7
  6
CONTINUOUS
 10
183.2090856294
 20
196.9157039239
  0
VERTEX
  8
0
 62
7
  6
CONTINUOUS
 10
183.2306580643
 20
196.9290815034
  0
VERTEX
  8
0
 62
7
  6
CONTINUOUS
 10
183.2544423001
 20
196.9390259116
  0
VERTEX
  8
0
 62
7
  6
CONTINUOUS
 10
183.2798219967
 20
196.9450847621
  0
VERTEX
  8
0
 62
7
  6
CONTINUOUS
 10
183.3040604895
 20
196.9469427706
  0
SEQEND
  0
POLYLINE
  8
0
 62
7
  6
CONTINUOUS
 66
1
 70
0
  0
VERTEX
  8
0
 62
7
  6
CONTINUOUS
 10
183.3509004163
 20
216.3900639357
  0
VERTEX
  8
0
 62
7
  6
CONTINUOUS
 10
183.3507377204
 20
216.3848287559
  0
VERTEX
  8
0
 62
7
  6
CONTINUOUS
 10
183.3483949349
 20
216.369625187
  0
VERTEX
  8
0
 62
7
  6
CONTINUOUS
 10
183.3429369294
 20
216.3541808002
  0
VERTEX
  8
0
 62
7
  6
CONTINUOUS
 10
183.3340465765
 20
216.3392651037
  0
VERTEX
  8
0
 62
7
  6
CONTINUOUS
 10
183.3215518138
 20
216.3257671065
  0
VERTEX
  8
0
 62
7
  6
CONTINUOUS
 10
183.3055007488
 20
216.3147321931
  0
VERTEX
  8
0
 62
7
  6
CONTINUOUS
 10
183.2862742873
 20
216.3073347398
  0
VERTEX
  8
0
 62
7
  6
CONTINUOUS
 10
183.2656064783
 20
216.3047723158
  0
SEQEND
  0
LINE
  8
0
 62
7
  6
CONTINUOUS
 10
183.3509219125
 20
220.9138635285
 11
183.3509001235
 21
220.9133504686
  0
LINE
  8
0
 62
7
  6
CONTINUOUS
 10
183.1434205471
 20
192.3378520934
 11
183.1434423379
 21
192.3383651744
  0
POLYLINE
  8
0
 62
7
  6
CONTINUOUS
 66
1
 70
0
  0
VERTEX
  8
0
 62
7
  6
CONTINUOUS
 10
194.5475570925
 20
188.6177889222
  0
VERTEX
  8
0
 62
7
  6
CONTINUOUS
 10
194.6807932114
 20
188.6856900705
  0
VERTEX
  8
0
 62
7
  6
CONTINUOUS
 10
194.838998279
 20
188.8146150454
  0
VERTEX
  8
0
 62
7
  6
CONTINUOUS
 10
194.9886947711
 20
188.9936172484
  0
VERTEX
  8
0
 62
7
  6
CONTINUOUS
 10
195.1309427999
 20
189.2253537538
  0
VERTEX
  8
0
 62
7
  6
CONTINUOUS
 10
195.2652872522
 20
189.510902922
  0
VERTEX
  8
0
 62
7
  6
CONTINUOUS
 10
195.3885569734
 20
189.8433434845
  0
VERTEX
  8
0
 62
7
  6
CONTINUOUS
 10
195.4978942175
 20
190.210349235
  0
VERTEX
  8
0
 62
7
  6
CONTINUOUS
 10
195.5935778022
 20
190.6058396
  0
VERTEX
  8
0
 62
7
  6
CONTINUOUS
 10
195.676442924
 20
191.0272911686
  0
VERTEX
  8
0
 62
7
  6
CONTINUOUS
 10
195.7469634014
 20
191.4730548498
  0
VERTEX
  8
0
 62
7
  6
CONTINUOUS
 10
195.8052997228
 20
191.9422089722
  0
VERTEX
  8
0
 62
7
  6
CONTINUOUS
 10
195.8434205565
 20
192.3378475161
  0
SEQEND
  0
POLYLINE
  8
0
 62
7
  6
CONTINUOUS
 66
1
 70
0
  0
VERTEX
  8
0
 62
7
  6
CONTINUOUS
 10
207.2475570925
 20
188.6177889222
  0
VERTEX
  8
0
 62
7
  6
CONTINUOUS
 10
207.3807932114
 20
188.6856900705
  0
VERTEX
  8
0
 62
7
  6
CONTINUOUS
 10
207.538998279
 20
188.8146150454
  0
VERTEX
  8
0
 62
7
  6
CONTINUOUS
 10
207.6886947711
 20
188.9936172484
  0
VERTEX
  8
0
 62
7
  6
CONTINUOUS
 10
207.8309427999
 20
189.2253537538
  0
VERTEX
  8
0
 62
7
  6
CONTINUOUS
 10
207.9652872522
 20
189.5109029221
  0
VERTEX
  8
0
 62
7
  6
CONTINUOUS
 10
208.0885569734
 20
189.8433434845
  0
VERTEX
  8
0
 62
7
  6
CONTINUOUS
 10
208.1978942175
 20
190.210349235
  0
VERTEX
  8
0
 62
7
  6
CONTINUOUS
 10
208.2935778022
 20
190.6058396001
  0
VERTEX
  8
0
 62
7
  6
CONTINUOUS
 10
208.376442924
 20
191.0272911686
  0
VERTEX
  8
0
 62
7
  6
CONTINUOUS
 10
208.4469634014
 20
191.4730548498
  0
VERTEX
  8
0
 62
7
  6
CONTINUOUS
 10
208.5052997228
 20
191.9422089722
  0
VERTEX
  8
0
 62
7
  6
CONTINUOUS
 10
208.5434205565
 20
192.3378475161
  0
SEQEND
  0
LINE
  8
0
 62
7
  6
CONTINUOUS
 10
194.5475570925
 20
188.6177889222
 11
194.5476534626
 21
188.6178258511
  0
LINE
  8
0
 62
7
  6
CONTINUOUS
 10
207.2475570925
 20
188.6177889222
 11
207.2476534626
 21
188.6178258511
  0
LINE
  8
0
 62
7
  6
CONTINUOUS
 10
219.9475570925
 20
188.6177889222
 11
219.9476534626
 21
188.6178258511
  0
LINE
  8
0
 62
7
  6
CONTINUOUS
 10
194.527745228
 20
188.6103959677
 11
194.5476512156
 21
188.6178317007
  0
LINE
  8
0
 62
7
  6
CONTINUOUS
 10
207.227745228
 20
188.6103959677
 11
207.2476512156
 21
188.6178317007
  0
LINE
  8
0
 62
7
  6
CONTINUOUS
 10
219.927745228
 20
188.6103959677
 11
219.9476512156
 21
188.6178317007
  0
POLYLINE
  8
0
 62
7
  6
CONTINUOUS
 66
1
 70
0
  0
VERTEX
  8
0
 62
7
  6
CONTINUOUS
 10
200.8975539271
 20
224.6338829393
  0
VERTEX
  8
0
 62
7
  6
CONTINUOUS
 10
200.8773099415
 20
224.6414412812
  0
VERTEX
  8
0
 62
7
  6
CONTINUOUS
 10
200.8369542937
 20
224.655045158
  0
VERTEX
  8
0
 62
7
  6
CONTINUOUS
 10
200.796968987
 20
224.6658662208
  0
SEQEND
  0
POLYLINE
  8
0
 62
7
  6
CONTINUOUS
 66
1
 70
0
  0
VERTEX
  8
0
 62
7
  6
CONTINUOUS
 10
213.5975539271
 20
224.6338829393
  0
VERTEX
  8
0
 62
7
  6
CONTINUOUS
 10
213.5773099415
 20
224.6414412812
  0
VERTEX
  8
0
 62
7
  6
CONTINUOUS
 10
213.5369542937
 20
224.655045158
  0
VERTEX
  8
0
 62
7
  6
CONTINUOUS
 10
213.496968987
 20
224.6658662208
  0
SEQEND
  0
LINE
  8
0
 62
7
  6
CONTINUOUS
 10
200.8975561751
 20
224.6338887913
 11
200.8974779008
 21
224.6339187909
  0
LINE
  8
0
 62
7
  6
CONTINUOUS
 10
213.5975561751
 20
224.6338887913
 11
213.5974779008
 21
224.6339187909
  0
POLYLINE
  8
0
 62
7
  6
CONTINUOUS
 66
1
 70
0
  0
VERTEX
  8
0
 62
7
  6
CONTINUOUS
 10
176.7933205482
 20
220.9138643709
  0
VERTEX
  8
0
 62
7
  6
CONTINUOUS
 10
176.7848391216
 20
220.9231349042
  0
VERTEX
  8
0
 62
7
  6
CONTINUOUS
 10
176.7602561745
 20
220.9314294036
  0
VERTEX
  8
0
 62
7
  6
CONTINUOUS
 10
176.7211202535
 20
220.9378288166
  0
VERTEX
  8
0
 62
7
  6
CONTINUOUS
 10
176.6698904442
 20
220.9419178186
  0
VERTEX
  8
0
 62
7
  6
CONTINUOUS
 10
176.6098396731
 20
220.9434132635
  0
VERTEX
  8
0
 62
7
  6
CONTINUOUS
 10
176.5433423379
 20
220.9421808275
  0
SEQEND
  0
POLYLINE
  8
0
 62
7
  6
CONTINUOUS
 66
1
 70
0
  0
VERTEX
  8
0
 62
7
  6
CONTINUOUS
 10
189.4933205482
 20
220.9138643709
  0
VERTEX
  8
0
 62
7
  6
CONTINUOUS
 10
189.4848391216
 20
220.9231349042
  0
VERTEX
  8
0
 62
7
  6
CONTINUOUS
 10
189.4602561745
 20
220.9314294036
  0
VERTEX
  8
0
 62
7
  6
CONTINUOUS
 10
189.4211202535
 20
220.9378288166
  0
VERTEX
  8
0
 62
7
  6
CONTINUOUS
 10
189.3698904442
 20
220.9419178186
  0
VERTEX
  8
0
 62
7
  6
CONTINUOUS
 10
189.3098396731
 20
220.9434132635
  0
VERTEX
  8
0
 62
7
  6
CONTINUOUS
 10
189.2433423379
 20
220.9421808275
  0
SEQEND
  0
POLYLINE
  8
0
 62
7
  6
CONTINUOUS
 66
1
 70
0
  0
VERTEX
  8
0
 62
7
  6
CONTINUOUS
 10
202.1933205559
 20
220.913868136
  0
VERTEX
  8
0
 62
7
  6
CONTINUOUS
 10
202.1554862192
 20
221.3068674361
  0
VERTEX
  8
0
 62
7
  6
CONTINUOUS
 10
202.0969392814
 20
221.7781218403
  0
VERTEX
  8
0
 62
7
  6
CONTINUOUS
 10
202.0257452358
 20
222.2278048007
  0
VERTEX
  8
0
 62
7
  6
CONTINUOUS
 10
201.9420088968
 20
222.6525992052
  0
VERTEX
  8
0
 62
7
  6
CONTINUOUS
 10
201.8457364004
 20
223.0490268064
  0
VERTEX
  8
0
 62
7
  6
CONTINUOUS
 10
201.7367585561
 20
223.4134885402
  0
VERTEX
  8
0
 62
7
  6
CONTINUOUS
 10
201.6151863364
 20
223.7408149574
  0
VERTEX
  8
0
 62
7
  6
CONTINUOUS
 10
201.4827516657
 20
224.0227895999
  0
VERTEX
  8
0
 62
7
  6
CONTINUOUS
 10
201.3410388025
 20
224.2546563912
  0
VERTEX
  8
0
 62
7
  6
CONTINUOUS
 10
201.1904620517
 20
224.4355352616
  0
VERTEX
  8
0
 62
7
  6
CONTINUOUS
 10
201.0309180257
 20
224.565881324
  0
VERTEX
  8
0
 62
7
  6
CONTINUOUS
 10
200.8974779008
 20
224.6339187909
  0
SEQEND
  0
POLYLINE
  8
0
 62
7
  6
CONTINUOUS
 66
1
 70
0
  0
VERTEX
  8
0
 62
7
  6
CONTINUOUS
 10
202.4010219024
 20
192.3378475469
  0
VERTEX
  8
0
 62
7
  6
CONTINUOUS
 10
202.4385440568
 20
191.9477288486
  0
VERTEX
  8
0
 62
7
  6
CONTINUOUS
 10
202.4967848399
 20
191.4779915664
  0
VERTEX
  8
0
 62
7
  6
CONTINUOUS
 10
202.5672228746
 20
191.0316922212
  0
VERTEX
  8
0
 62
7
  6
CONTINUOUS
 10
202.6500251342
 20
190.6096923615
  0
VERTEX
  8
0
 62
7
  6
CONTINUOUS
 10
202.7456782458
 20
190.2135974783
  0
VERTEX
  8
0
 62
7
  6
CONTINUOUS
 10
202.8550354488
 20
189.8459102975
  0
VERTEX
  8
0
 62
7
  6
CONTINUOUS
 10
202.9783592598
 20
189.5128160387
  0
VERTEX
  8
0
 62
7
  6
CONTINUOUS
 10
203.1126808634
 20
189.226884494
  0
VERTEX
  8
0
 62
7
  6
CONTINUOUS
 10
203.2546936467
 20
188.9950995379
  0
VERTEX
  8
0
 62
7
  6
CONTINUOUS
 10
203.4039367085
 20
188.8161239704
  0
VERTEX
  8
0
 62
7
  6
CONTINUOUS
 10
203.5615671896
 20
188.6870300159
  0
VERTEX
  8
0
 62
7
  6
CONTINUOUS
 10
203.6968970766
 20
188.6177870237
  0
SEQEND
  0
LINE
  8
0
 62
7
  6
CONTINUOUS
 10
202.4010219118
 20
192.3378521239
 11
202.4010001235
 21
192.3383651759
  0
LINE
  8
0
 62
7
  6
CONTINUOUS
 10
202.1933423379
 20
220.9133516131
 11
202.1933205482
 21
220.9138643709
  0
LINE
  8
0
 62
7
  6
CONTINUOUS
 10
195.8434423379
 20
192.3383661282
 11
195.8434423379
 21
196.7868160798
  0
LINE
  8
0
 62
7
  6
CONTINUOUS
 10
196.0509001235
 20
220.9133495143
 11
196.0509001235
 21
216.3897746397
  0
LINE
  8
0
 62
7
  6
CONTINUOUS
 10
202.1933423379
 20
216.3897730141
 11
202.1933423379
 21
220.9133471826
  0
LINE
  8
0
 62
7
  6
CONTINUOUS
 10
202.4010001235
 20
196.7868165137
 11
202.4010001235
 21
192.3383661297
  0
POLYLINE
  8
0
 62
7
  6
CONTINUOUS
 66
1
 70
0
  0
VERTEX
  8
0
 62
7
  6
CONTINUOUS
 10
195.8434417634
 20
196.7863308525
  0
VERTEX
  8
0
 62
7
  6
CONTINUOUS
 10
195.8437441596
 20
196.7961213236
  0
VERTEX
  8
0
 62
7
  6
CONTINUOUS
 10
195.8465511593
 20
196.8176329737
  0
VERTEX
  8
0
 62
7
  6
CONTINUOUS
 10
195.8525103467
 20
196.839340308
  0
VERTEX
  8
0
 62
7
  6
CONTINUOUS
 10
195.8617738034
 20
196.8606330104
  0
VERTEX
  8
0
 62
7
  6
CONTINUOUS
 10
195.8743656059
 20
196.8808693221
  0
VERTEX
  8
0
 62
7
  6
CONTINUOUS
 10
195.8902057449
 20
196.8994334583
  0
VERTEX
  8
0
 62
7
  6
CONTINUOUS
 10
195.9090856294
 20
196.9157039239
  0
VERTEX
  8
0
 62
7
  6
CONTINUOUS
 10
195.9306580643
 20
196.9290815034
  0
VERTEX
  8
0
 62
7
  6
CONTINUOUS
 10
195.9544423001
 20
196.9390259116
  0
VERTEX
  8
0
 62
7
  6
CONTINUOUS
 10
195.9798219967
 20
196.9450847621
  0
VERTEX
  8
0
 62
7
  6
CONTINUOUS
 10
196.0040604895
 20
196.9469427706
  0
SEQEND
  0
POLYLINE
  8
0
 62
7
  6
CONTINUOUS
 66
1
 70
0
  0
VERTEX
  8
0
 62
7
  6
CONTINUOUS
 10
196.0509004163
 20
216.3900639357
  0
VERTEX
  8
0
 62
7
  6
CONTINUOUS
 10
196.0507377204
 20
216.3848287559
  0
VERTEX
  8
0
 62
7
  6
CONTINUOUS
 10
196.0483949349
 20
216.369625187
  0
VERTEX
  8
0
 62
7
  6
CONTINUOUS
 10
196.0429369294
 20
216.3541808002
  0
VERTEX
  8
0
 62
7
  6
CONTINUOUS
 10
196.0340465765
 20
216.3392651037
  0
VERTEX
  8
0
 62
7
  6
CONTINUOUS
 10
196.0215518138
 20
216.3257671065
  0
VERTEX
  8
0
 62
7
  6
CONTINUOUS
 10
196.0055007488
 20
216.3147321931
  0
VERTEX
  8
0
 62
7
  6
CONTINUOUS
 10
195.9862742873
 20
216.3073347398
  0
VERTEX
  8
0
 62
7
  6
CONTINUOUS
 10
195.9656064783
 20
216.3047723158
  0
SEQEND
  0
LINE
  8
0
 62
7
  6
CONTINUOUS
 10
196.0509219125
 20
220.9138635285
 11
196.0509001235
 21
220.9133504686
  0
LINE
  8
0
 62
7
  6
CONTINUOUS
 10
195.8434205471
 20
192.3378520934
 11
195.8434423379
 21
192.3383651744
  0
LINE
  8
0
 62
7
  6
CONTINUOUS
 10
208.7509219125
 20
220.9138635285
 11
208.7509001235
 21
220.9133504686
  0
POLYLINE
  8
0
 62
7
  6
CONTINUOUS
 66
1
 70
0
  0
VERTEX
  8
0
 62
7
  6
CONTINUOUS
 10
219.9475570925
 20
188.6177889222
  0
VERTEX
  8
0
 62
7
  6
CONTINUOUS
 10
220.0807932114
 20
188.6856900705
  0
VERTEX
  8
0
 62
7
  6
CONTINUOUS
 10
220.238998279
 20
188.8146150454
  0
VERTEX
  8
0
 62
7
  6
CONTINUOUS
 10
220.3886947711
 20
188.9936172484
  0
VERTEX
  8
0
 62
7
  6
CONTINUOUS
 10
220.5309427999
 20
189.2253537538
  0
VERTEX
  8
0
 62
7
  6
CONTINUOUS
 10
220.6652872522
 20
189.510902922
  0
VERTEX
  8
0
 62
7
  6
CONTINUOUS
 10
220.7885569734
 20
189.8433434845
  0
VERTEX
  8
0
 62
7
  6
CONTINUOUS
 10
220.8978942175
 20
190.210349235
  0
VERTEX
  8
0
 62
7
  6
CONTINUOUS
 10
220.9935778022
 20
190.6058396
  0
VERTEX
  8
0
 62
7
  6
CONTINUOUS
 10
221.076442924
 20
191.0272911686
  0
VERTEX
  8
0
 62
7
  6
CONTINUOUS
 10
221.1469634014
 20
191.4730548498
  0
VERTEX
  8
0
 62
7
  6
CONTINUOUS
 10
221.2052997228
 20
191.9422089722
  0
VERTEX
  8
0
 62
7
  6
CONTINUOUS
 10
221.2434205565
 20
192.3378475161
  0
SEQEND
  0
POLYLINE
  8
0
 62
7
  6
CONTINUOUS
 66
1
 70
0
  0
VERTEX
  8
0
 62
7
  6
CONTINUOUS
 10
202.1933205482
 20
220.9138643709
  0
VERTEX
  8
0
 62
7
  6
CONTINUOUS
 10
202.1848391216
 20
220.9231349042
  0
VERTEX
  8
0
 62
7
  6
CONTINUOUS
 10
202.1602561745
 20
220.9314294036
  0
VERTEX
  8
0
 62
7
  6
CONTINUOUS
 10
202.1211202535
 20
220.9378288166
  0
VERTEX
  8
0
 62
7
  6
CONTINUOUS
 10
202.0698904442
 20
220.9419178186
  0
VERTEX
  8
0
 62
7
  6
CONTINUOUS
 10
202.0098396731
 20
220.9434132635
  0
VERTEX
  8
0
 62
7
  6
CONTINUOUS
 10
201.9433423379
 20
220.9421808275
  0
SEQEND
  0
POLYLINE
  8
0
 62
7
  6
CONTINUOUS
 66
1
 70
0
  0
VERTEX
  8
0
 62
7
  6
CONTINUOUS
 10
214.8933205482
 20
220.9138643709
  0
VERTEX
  8
0
 62
7
  6
CONTINUOUS
 10
214.8848391216
 20
220.9231349042
  0
VERTEX
  8
0
 62
7
  6
CONTINUOUS
 10
214.8602561745
 20
220.9314294036
  0
VERTEX
  8
0
 62
7
  6
CONTINUOUS
 10
214.8211202535
 20
220.9378288166
  0
VERTEX
  8
0
 62
7
  6
CONTINUOUS
 10
214.7698904442
 20
220.9419178186
  0
VERTEX
  8
0
 62
7
  6
CONTINUOUS
 10
214.7098396731
 20
220.9434132635
  0
VERTEX
  8
0
 62
7
  6
CONTINUOUS
 10
214.6433423379
 20
220.9421808275
  0
SEQEND
  0
POLYLINE
  8
0
 62
7
  6
CONTINUOUS
 66
1
 70
0
  0
VERTEX
  8
0
 62
7
  6
CONTINUOUS
 10
214.8933205559
 20
220.913868136
  0
VERTEX
  8
0
 62
7
  6
CONTINUOUS
 10
214.8554862192
 20
221.3068674361
  0
VERTEX
  8
0
 62
7
  6
CONTINUOUS
 10
214.7969392814
 20
221.7781218403
  0
VERTEX
  8
0
 62
7
  6
CONTINUOUS
 10
214.7257452358
 20
222.2278048007
  0
VERTEX
  8
0
 62
7
  6
CONTINUOUS
 10
214.6420088968
 20
222.6525992052
  0
VERTEX
  8
0
 62
7
  6
CONTINUOUS
 10
214.5457364004
 20
223.0490268064
  0
VERTEX
  8
0
 62
7
  6
CONTINUOUS
 10
214.4367585561
 20
223.4134885402
  0
VERTEX
  8
0
 62
7
  6
CONTINUOUS
 10
214.3151863364
 20
223.7408149574
  0
VERTEX
  8
0
 62
7
  6
CONTINUOUS
 10
214.1827516657
 20
224.0227895999
  0
VERTEX
  8
0
 62
7
  6
CONTINUOUS
 10
214.0410388025
 20
224.2546563912
  0
VERTEX
  8
0
 62
7
  6
CONTINUOUS
 10
213.8904620517
 20
224.4355352616
  0
VERTEX
  8
0
 62
7
  6
CONTINUOUS
 10
213.7309180257
 20
224.565881324
  0
VERTEX
  8
0
 62
7
  6
CONTINUOUS
 10
213.5974779008
 20
224.6339187909
  0
SEQEND
  0
POLYLINE
  8
0
 62
7
  6
CONTINUOUS
 66
1
 70
0
  0
VERTEX
  8
0
 62
7
  6
CONTINUOUS
 10
215.1010219024
 20
192.3378475469
  0
VERTEX
  8
0
 62
7
  6
CONTINUOUS
 10
215.1385440568
 20
191.9477288486
  0
VERTEX
  8
0
 62
7
  6
CONTINUOUS
 10
215.1967848399
 20
191.4779915664
  0
VERTEX
  8
0
 62
7
  6
CONTINUOUS
 10
215.2672228746
 20
191.0316922212
  0
VERTEX
  8
0
 62
7
  6
CONTINUOUS
 10
215.3500251342
 20
190.6096923615
  0
VERTEX
  8
0
 62
7
  6
CONTINUOUS
 10
215.4456782458
 20
190.2135974783
  0
VERTEX
  8
0
 62
7
  6
CONTINUOUS
 10
215.5550354488
 20
189.8459102975
  0
VERTEX
  8
0
 62
7
  6
CONTINUOUS
 10
215.6783592598
 20
189.5128160387
  0
VERTEX
  8
0
 62
7
  6
CONTINUOUS
 10
215.8126808634
 20
189.226884494
  0
VERTEX
  8
0
 62
7
  6
CONTINUOUS
 10
215.9546936467
 20
188.9950995379
  0
VERTEX
  8
0
 62
7
  6
CONTINUOUS
 10
216.1039367085
 20
188.8161239704
  0
VERTEX
  8
0
 62
7
  6
CONTINUOUS
 10
216.2615671896
 20
188.6870300159
  0
VERTEX
  8
0
 62
7
  6
CONTINUOUS
 10
216.3968970766
 20
188.6177870237
  0
SEQEND
  0
LINE
  8
0
 62
7
  6
CONTINUOUS
 10
215.1010219118
 20
192.3378521239
 11
215.1010001235
 21
192.3383651759
  0
LINE
  8
0
 62
7
  6
CONTINUOUS
 10
214.8933423379
 20
220.9133516131
 11
214.8933205482
 21
220.9138643709
  0
LINE
  8
0
 62
7
  6
CONTINUOUS
 10
208.5434423379
 20
192.3383661282
 11
208.5434423379
 21
196.7868160798
  0
LINE
  8
0
 62
7
  6
CONTINUOUS
 10
208.7509001235
 20
220.9133495143
 11
208.7509001235
 21
216.3897746397
  0
LINE
  8
0
 62
7
  6
CONTINUOUS
 10
214.8933423379
 20
216.3897730141
 11
214.8933423379
 21
220.9133471826
  0
LINE
  8
0
 62
7
  6
CONTINUOUS
 10
215.1010001235
 20
196.7868165137
 11
215.1010001235
 21
192.3383661297
  0
LINE
  8
0
 62
7
  6
CONTINUOUS
 10
221.2434423379
 20
192.3383661282
 11
221.2434423379
 21
196.7868160798
  0
LINE
  8
0
 62
7
  6
CONTINUOUS
 10
221.4509001235
 20
220.9133495143
 11
221.4509001235
 21
216.3897746397
  0
POLYLINE
  8
0
 62
7
  6
CONTINUOUS
 66
1
 70
0
  0
VERTEX
  8
0
 62
7
  6
CONTINUOUS
 10
208.5434417634
 20
196.7863308525
  0
VERTEX
  8
0
 62
7
  6
CONTINUOUS
 10
208.5437441596
 20
196.7961213236
  0
VERTEX
  8
0
 62
7
  6
CONTINUOUS
 10
208.5465511593
 20
196.8176329737
  0
VERTEX
  8
0
 62
7
  6
CONTINUOUS
 10
208.5525103467
 20
196.839340308
  0
VERTEX
  8
0
 62
7
  6
CONTINUOUS
 10
208.5617738034
 20
196.8606330104
  0
VERTEX
  8
0
 62
7
  6
CONTINUOUS
 10
208.5743656059
 20
196.8808693221
  0
VERTEX
  8
0
 62
7
  6
CONTINUOUS
 10
208.5902057449
 20
196.8994334583
  0
VERTEX
  8
0
 62
7
  6
CONTINUOUS
 10
208.6090856294
 20
196.9157039239
  0
VERTEX
  8
0
 62
7
  6
CONTINUOUS
 10
208.6306580643
 20
196.9290815034
  0
VERTEX
  8
0
 62
7
  6
CONTINUOUS
 10
208.6544423001
 20
196.9390259116
  0
VERTEX
  8
0
 62
7
  6
CONTINUOUS
 10
208.6798219967
 20
196.9450847621
  0
VERTEX
  8
0
 62
7
  6
CONTINUOUS
 10
208.7040604895
 20
196.9469427706
  0
SEQEND
  0
POLYLINE
  8
0
 62
7
  6
CONTINUOUS
 66
1
 70
0
  0
VERTEX
  8
0
 62
7
  6
CONTINUOUS
 10
221.2434417634
 20
196.7863308525
  0
VERTEX
  8
0
 62
7
  6
CONTINUOUS
 10
221.2437441596
 20
196.7961213236
  0
VERTEX
  8
0
 62
7
  6
CONTINUOUS
 10
221.2465511593
 20
196.8176329737
  0
VERTEX
  8
0
 62
7
  6
CONTINUOUS
 10
221.2525103467
 20
196.839340308
  0
VERTEX
  8
0
 62
7
  6
CONTINUOUS
 10
221.2617738034
 20
196.8606330104
  0
VERTEX
  8
0
 62
7
  6
CONTINUOUS
 10
221.2743656059
 20
196.8808693221
  0
VERTEX
  8
0
 62
7
  6
CONTINUOUS
 10
221.2902057449
 20
196.8994334583
  0
VERTEX
  8
0
 62
7
  6
CONTINUOUS
 10
221.3090856294
 20
196.9157039239
  0
VERTEX
  8
0
 62
7
  6
CONTINUOUS
 10
221.3306580643
 20
196.9290815034
  0
VERTEX
  8
0
 62
7
  6
CONTINUOUS
 10
221.3544423001
 20
196.9390259116
  0
VERTEX
  8
0
 62
7
  6
CONTINUOUS
 10
221.3798219967
 20
196.9450847621
  0
VERTEX
  8
0
 62
7
  6
CONTINUOUS
 10
221.4040604895
 20
196.9469427706
  0
SEQEND
  0
POLYLINE
  8
0
 62
7
  6
CONTINUOUS
 66
1
 70
0
  0
VERTEX
  8
0
 62
7
  6
CONTINUOUS
 10
208.7509004163
 20
216.3900639357
  0
VERTEX
  8
0
 62
7
  6
CONTINUOUS
 10
208.7507377204
 20
216.3848287559
  0
VERTEX
  8
0
 62
7
  6
CONTINUOUS
 10
208.7483949349
 20
216.369625187
  0
VERTEX
  8
0
 62
7
  6
CONTINUOUS
 10
208.7429369294
 20
216.3541808002
  0
VERTEX
  8
0
 62
7
  6
CONTINUOUS
 10
208.7340465765
 20
216.3392651037
  0
VERTEX
  8
0
 62
7
  6
CONTINUOUS
 10
208.7215518138
 20
216.3257671065
  0
VERTEX
  8
0
 62
7
  6
CONTINUOUS
 10
208.7055007488
 20
216.3147321931
  0
VERTEX
  8
0
 62
7
  6
CONTINUOUS
 10
208.6862742873
 20
216.3073347398
  0
VERTEX
  8
0
 62
7
  6
CONTINUOUS
 10
208.6656064783
 20
216.3047723158
  0
SEQEND
  0
POLYLINE
  8
0
 62
7
  6
CONTINUOUS
 66
1
 70
0
  0
VERTEX
  8
0
 62
7
  6
CONTINUOUS
 10
221.4509004163
 20
216.3900639357
  0
VERTEX
  8
0
 62
7
  6
CONTINUOUS
 10
221.4507377204
 20
216.3848287559
  0
VERTEX
  8
0
 62
7
  6
CONTINUOUS
 10
221.4483949349
 20
216.369625187
  0
VERTEX
  8
0
 62
7
  6
CONTINUOUS
 10
221.4429369294
 20
216.3541808002
  0
VERTEX
  8
0
 62
7
  6
CONTINUOUS
 10
221.4340465765
 20
216.3392651037
  0
VERTEX
  8
0
 62
7
  6
CONTINUOUS
 10
221.4215518138
 20
216.3257671065
  0
VERTEX
  8
0
 62
7
  6
CONTINUOUS
 10
221.4055007488
 20
216.3147321931
  0
VERTEX
  8
0
 62
7
  6
CONTINUOUS
 10
221.3862742873
 20
216.3073347398
  0
VERTEX
  8
0
 62
7
  6
CONTINUOUS
 10
221.3656064783
 20
216.3047723158
  0
SEQEND
  0
LINE
  8
0
 62
7
  6
CONTINUOUS
 10
208.5434205471
 20
192.3378520934
 11
208.5434423379
 21
192.3383651744
  0
LINE
  8
0
 62
7
  6
CONTINUOUS
 10
221.4509219125
 20
220.9138635285
 11
221.4509001235
 21
220.9133504686
  0
LINE
  8
0
 62
7
  6
CONTINUOUS
 10
221.2434205471
 20
192.3378520934
 11
221.2434423379
 21
192.3383651744
  0
POLYLINE
  8
0
 62
7
  6
CONTINUOUS
 66
1
 70
0
  0
VERTEX
  8
0
 62
7
  6
CONTINUOUS
 10
227.6361212307
 20
220.9030388695
  0
VERTEX
  8
0
 62
7
  6
CONTINUOUS
 10
227.6313892959
 20
220.9106938173
  0
VERTEX
  8
0
 62
7
  6
CONTINUOUS
 10
227.6173364567
 20
220.9180381093
  0
VERTEX
  8
0
 62
7
  6
CONTINUOUS
 10
227.5944369694
 20
220.9247979333
  0
VERTEX
  8
0
 62
7
  6
CONTINUOUS
 10
227.5635055422
 20
220.9307202337
  0
VERTEX
  8
0
 62
7
  6
CONTINUOUS
 10
227.5256784616
 20
220.9355816313
  0
VERTEX
  8
0
 62
7
  6
CONTINUOUS
 10
227.4823768301
 20
220.939196992
  0
VERTEX
  8
0
 62
7
  6
CONTINUOUS
 10
227.4352529742
 20
220.9414265078
  0
VERTEX
  8
0
 62
7
  6
CONTINUOUS
 10
227.3861212307
 20
220.9421808275
  0
SEQEND
  0
POLYLINE
  8
0
 62
7
  6
CONTINUOUS
 66
1
 70
0
  0
VERTEX
  8
0
 62
7
  6
CONTINUOUS
 10
227.6361212307
 20
224.4258752378
  0
VERTEX
  8
0
 62
7
  6
CONTINUOUS
 10
227.6302009768
 20
224.4799566441
  0
VERTEX
  8
0
 62
7
  6
CONTINUOUS
 10
227.6127204245
 20
224.5314776781
  0
VERTEX
  8
0
 62
7
  6
CONTINUOUS
 10
227.5845070343
 20
224.5779973933
  0
VERTEX
  8
0
 62
7
  6
CONTINUOUS
 10
227.5468971742
 20
224.6173116047
  0
VERTEX
  8
0
 62
7
  6
CONTINUOUS
 10
227.5016727766
 20
224.647557661
  0
VERTEX
  8
0
 62
7
  6
CONTINUOUS
 10
227.4509769441
 20
224.6673028612
  0
VERTEX
  8
0
 62
7
  6
CONTINUOUS
 10
227.3972120508
 20
224.6756126659
  0
VERTEX
  8
0
 62
7
  6
CONTINUOUS
 10
227.386137453
 20
224.6758580951
  0
SEQEND
  0
LINE
  8
0
 62
7
  6
CONTINUOUS
 10
227.6361212307
 20
197.1969432867
 11
227.6361212307
 21
224.425869356
  0
POLYLINE
  8
0
 62
7
  6
CONTINUOUS
 66
1
 70
0
  0
VERTEX
  8
0
 62
7
  6
CONTINUOUS
 10
227.6361212307
 20
197.1969432867
  0
VERTEX
  8
0
 62
7
  6
CONTINUOUS
 10
227.630012215
 20
197.142014353
  0
VERTEX
  8
0
 62
7
  6
CONTINUOUS
 10
227.6116504145
 20
197.0890702722
  0
VERTEX
  8
0
 62
7
  6
CONTINUOUS
 10
227.5818611925
 20
197.0414252255
  0
VERTEX
  8
0
 62
7
  6
CONTINUOUS
 10
227.5421426053
 20
197.001604272
  0
VERTEX
  8
0
 62
7
  6
CONTINUOUS
 10
227.4945765991
 20
196.971693574
  0
VERTEX
  8
0
 62
7
  6
CONTINUOUS
 10
227.4416625618
 20
196.9531910343
  0
VERTEX
  8
0
 62
7
  6
CONTINUOUS
 10
227.3861212307
 20
196.9469432867
  0
SEQEND
  0
LINE
  8
0
 62
6
  6
CONTINUOUS
 10
-109.0199787693
 20
131.1373668882
 11
-109.0199787693
 21
127.1373668882
  0
LINE
  8
0
 62
6
  6
CONTINUOUS
 10
-102.7448787693
 20
131.1373668882
 11
-102.7448787693
 21
127.1373668882
  0
LINE
  8
0
 62
6
  6
CONTINUOUS
 10
-102.3799787693
 20
131.1373668882
 11
-102.3799787693
 21
127.1373668882
  0
LINE
  8
0
 62
6
  6
CONTINUOUS
 10
-96.1048787693
 20
131.1373668882
 11
-96.1048787693
 21
127.1373668882
  0
LINE
  8
0
 62
7
  6
CONTINUOUS
 10
48.5416304653
 20
132.2897502396
 11
48.1798847548
 21
136.424522631
  0
LINE
  8
0
 62
7
  6
CONTINUOUS
 10
43.5861212307
 20
136.3373668882
 11
43.5861212307
 21
127.3873668882
  0
LINE
  8
0
 62
7
  6
CONTINUOUS
 10
49.7631098528
 20
127.4506132731
 11
48.6278043798
 21
131.7922608497
  0
LINE
  8
0
 62
7
  6
CONTINUOUS
 10
61.2416304653
 20
132.2897502396
 11
60.8798847548
 21
136.424522631
  0
LINE
  8
0
 62
7
  6
CONTINUOUS
 10
57.9201577066
 20
136.424522631
 11
57.5584119961
 21
132.2897502396
  0
LINE
  8
0
 62
7
  6
CONTINUOUS
 10
70.6201577066
 20
136.424522631
 11
70.2584119961
 21
132.2897502396
  0
LINE
  8
0
 62
7
  6
CONTINUOUS
 10
57.4722380816
 20
131.7922608497
 11
56.3369326085
 21
127.4506132731
  0
POLYLINE
  8
0
 62
7
  6
CONTINUOUS
 66
1
 70
0
  0
VERTEX
  8
0
 62
7
  6
CONTINUOUS
 10
57.3673959364
 20
131.3913222019
  0
VERTEX
  8
0
 62
7
  6
CONTINUOUS
 10
57.3610737471
 20
131.3690329475
  0
VERTEX
  8
0
 62
7
  6
CONTINUOUS
 10
57.3338783423
 20
131.2977037938
  0
VERTEX
  8
0
 62
7
  6
CONTINUOUS
 10
57.3028092843
 20
131.2401050438
  0
VERTEX
  8
0
 62
7
  6
CONTINUOUS
 10
57.2742263404
 20
131.1997223202
  0
VERTEX
  8
0
 62
7
  6
CONTINUOUS
 10
57.2528222751
 20
131.1756210625
  0
VERTEX
  8
0
 62
7
  6
CONTINUOUS
 10
57.2491030733
 20
131.1719773231
  0
SEQEND
  0
LINE
  8
0
 62
7
  6
CONTINUOUS
 10
62.4631098528
 20
127.4506132731
 11
61.3278043798
 21
131.7922608497
  0
LINE
  8
0
 62
7
  6
CONTINUOUS
 10
73.9416304653
 20
132.2897502396
 11
73.5798847548
 21
136.424522631
  0
LINE
  8
0
 62
7
  6
CONTINUOUS
 10
86.6416304653
 20
132.2897502396
 11
86.2798847548
 21
136.424522631
  0
LINE
  8
0
 62
7
  6
CONTINUOUS
 10
83.3201577066
 20
136.424522631
 11
82.9584119961
 21
132.2897502396
  0
LINE
  8
0
 62
7
  6
CONTINUOUS
 10
70.1722380816
 20
131.7922608497
 11
69.0369326085
 21
127.4506132731
  0
LINE
  8
0
 62
7
  6
CONTINUOUS
 10
82.8722380816
 20
131.7922608497
 11
81.7369326085
 21
127.4506132731
  0
POLYLINE
  8
0
 62
7
  6
CONTINUOUS
 66
1
 70
0
  0
VERTEX
  8
0
 62
7
  6
CONTINUOUS
 10
70.0673959364
 20
131.3913222019
  0
VERTEX
  8
0
 62
7
  6
CONTINUOUS
 10
70.0610737471
 20
131.3690329475
  0
VERTEX
  8
0
 62
7
  6
CONTINUOUS
 10
70.0338783423
 20
131.2977037938
  0
VERTEX
  8
0
 62
7
  6
CONTINUOUS
 10
70.0028092843
 20
131.2401050438
  0
VERTEX
  8
0
 62
7
  6
CONTINUOUS
 10
69.9742263404
 20
131.1997223202
  0
VERTEX
  8
0
 62
7
  6
CONTINUOUS
 10
69.9528222751
 20
131.1756210625
  0
VERTEX
  8
0
 62
7
  6
CONTINUOUS
 10
69.9491030733
 20
131.1719773231
  0
SEQEND
  0
POLYLINE
  8
0
 62
7
  6
CONTINUOUS
 66
1
 70
0
  0
VERTEX
  8
0
 62
7
  6
CONTINUOUS
 10
82.7673959364
 20
131.3913222019
  0
VERTEX
  8
0
 62
7
  6
CONTINUOUS
 10
82.7610737471
 20
131.3690329475
  0
VERTEX
  8
0
 62
7
  6
CONTINUOUS
 10
82.7338783423
 20
131.2977037938
  0
VERTEX
  8
0
 62
7
  6
CONTINUOUS
 10
82.7028092843
 20
131.2401050438
  0
VERTEX
  8
0
 62
7
  6
CONTINUOUS
 10
82.6742263404
 20
131.1997223202
  0
VERTEX
  8
0
 62
7
  6
CONTINUOUS
 10
82.6528222751
 20
131.1756210625
  0
VERTEX
  8
0
 62
7
  6
CONTINUOUS
 10
82.6491030733
 20
131.1719773231
  0
SEQEND
  0
LINE
  8
0
 62
7
  6
CONTINUOUS
 10
57.2491030733
 20
131.1719773231
 11
57.2419701672
 21
131.1656029488
  0
LINE
  8
0
 62
7
  6
CONTINUOUS
 10
48.8580610571
 20
131.1656118343
 11
48.8581124625
 21
131.16557119
  0
LINE
  8
0
 62
7
  6
CONTINUOUS
 10
61.5580610571
 20
131.1656118343
 11
61.5581124625
 21
131.16557119
  0
POLYLINE
  8
0
 62
7
  6
CONTINUOUS
 66
1
 70
0
  0
VERTEX
  8
0
 62
7
  6
CONTINUOUS
 10
48.857971815
 20
131.1656824851
  0
VERTEX
  8
0
 62
7
  6
CONTINUOUS
 10
48.8576565079
 20
131.1659382738
  0
VERTEX
  8
0
 62
7
  6
CONTINUOUS
 10
48.8479501415
 20
131.1748918457
  0
VERTEX
  8
0
 62
7
  6
CONTINUOUS
 10
48.8267290935
 20
131.1985908471
  0
VERTEX
  8
0
 62
7
  6
CONTINUOUS
 10
48.7980382197
 20
131.2388249425
  0
VERTEX
  8
0
 62
7
  6
CONTINUOUS
 10
48.7666850329
 20
131.2965790793
  0
VERTEX
  8
0
 62
7
  6
CONTINUOUS
 10
48.7391632605
 20
131.368398122
  0
VERTEX
  8
0
 62
7
  6
CONTINUOUS
 10
48.7326474634
 20
131.3913185989
  0
SEQEND
  0
POLYLINE
  8
0
 62
7
  6
CONTINUOUS
 66
1
 70
0
  0
VERTEX
  8
0
 62
7
  6
CONTINUOUS
 10
61.557971815
 20
131.1656824851
  0
VERTEX
  8
0
 62
7
  6
CONTINUOUS
 10
61.5576565079
 20
131.1659382738
  0
VERTEX
  8
0
 62
7
  6
CONTINUOUS
 10
61.5479501415
 20
131.1748918457
  0
VERTEX
  8
0
 62
7
  6
CONTINUOUS
 10
61.5267290935
 20
131.1985908471
  0
VERTEX
  8
0
 62
7
  6
CONTINUOUS
 10
61.4980382197
 20
131.2388249425
  0
VERTEX
  8
0
 62
7
  6
CONTINUOUS
 10
61.4666850329
 20
131.2965790793
  0
VERTEX
  8
0
 62
7
  6
CONTINUOUS
 10
61.4391632605
 20
131.368398122
  0
VERTEX
  8
0
 62
7
  6
CONTINUOUS
 10
61.4326474634
 20
131.3913185989
  0
SEQEND
  0
LINE
  8
0
 62
7
  6
CONTINUOUS
 10
75.1631098528
 20
127.4506132731
 11
74.0278043798
 21
131.7922608497
  0
LINE
  8
0
 62
7
  6
CONTINUOUS
 10
87.8631098528
 20
127.4506132731
 11
86.7278043798
 21
131.7922608497
  0
LINE
  8
0
 62
7
  6
CONTINUOUS
 10
99.3416304653
 20
132.2897502396
 11
98.9798847548
 21
136.424522631
  0
LINE
  8
0
 62
7
  6
CONTINUOUS
 10
96.0201577066
 20
136.424522631
 11
95.6584119961
 21
132.2897502396
  0
LINE
  8
0
 62
7
  6
CONTINUOUS
 10
95.5722380816
 20
131.7922608497
 11
94.4369326085
 21
127.4506132731
  0
POLYLINE
  8
0
 62
7
  6
CONTINUOUS
 66
1
 70
0
  0
VERTEX
  8
0
 62
7
  6
CONTINUOUS
 10
95.4673959364
 20
131.3913222019
  0
VERTEX
  8
0
 62
7
  6
CONTINUOUS
 10
95.4610737471
 20
131.3690329475
  0
VERTEX
  8
0
 62
7
  6
CONTINUOUS
 10
95.4338783423
 20
131.2977037938
  0
VERTEX
  8
0
 62
7
  6
CONTINUOUS
 10
95.4028092843
 20
131.2401050438
  0
VERTEX
  8
0
 62
7
  6
CONTINUOUS
 10
95.3742263404
 20
131.1997223202
  0
VERTEX
  8
0
 62
7
  6
CONTINUOUS
 10
95.3528222751
 20
131.1756210625
  0
VERTEX
  8
0
 62
7
  6
CONTINUOUS
 10
95.3491030733
 20
131.1719773231
  0
SEQEND
  0
LINE
  8
0
 62
7
  6
CONTINUOUS
 10
69.9491030733
 20
131.1719773231
 11
69.9419701672
 21
131.1656029488
  0
LINE
  8
0
 62
7
  6
CONTINUOUS
 10
82.6491030733
 20
131.1719773231
 11
82.6419701672
 21
131.1656029488
  0
LINE
  8
0
 62
7
  6
CONTINUOUS
 10
57.241975687
 20
131.1656073099
 11
57.2018745607
 21
131.1383668639
  0
LINE
  8
0
 62
7
  6
CONTINUOUS
 10
69.941975687
 20
131.1656073099
 11
69.9018745607
 21
131.1383668639
  0
POLYLINE
  8
0
 62
7
  6
CONTINUOUS
 66
1
 70
0
  0
VERTEX
  8
0
 62
7
  6
CONTINUOUS
 10
57.2018745607
 20
131.1383668639
  0
VERTEX
  8
0
 62
7
  6
CONTINUOUS
 10
57.1756565758
 20
131.125278291
  0
VERTEX
  8
0
 62
7
  6
CONTINUOUS
 10
57.1672586905
 20
131.1220506943
  0
SEQEND
  0
LINE
  8
0
 62
7
  6
CONTINUOUS
 10
74.2580610571
 20
131.1656118343
 11
74.2581124625
 21
131.16557119
  0
LINE
  8
0
 62
7
  6
CONTINUOUS
 10
86.9580610571
 20
131.1656118343
 11
86.9581124625
 21
131.16557119
  0
POLYLINE
  8
0
 62
7
  6
CONTINUOUS
 66
1
 70
0
  0
VERTEX
  8
0
 62
7
  6
CONTINUOUS
 10
74.257971815
 20
131.1656824851
  0
VERTEX
  8
0
 62
7
  6
CONTINUOUS
 10
74.2576565079
 20
131.1659382738
  0
VERTEX
  8
0
 62
7
  6
CONTINUOUS
 10
74.2479501415
 20
131.1748918457
  0
VERTEX
  8
0
 62
7
  6
CONTINUOUS
 10
74.2267290935
 20
131.1985908471
  0
VERTEX
  8
0
 62
7
  6
CONTINUOUS
 10
74.1980382197
 20
131.2388249425
  0
VERTEX
  8
0
 62
7
  6
CONTINUOUS
 10
74.1666850329
 20
131.2965790793
  0
VERTEX
  8
0
 62
7
  6
CONTINUOUS
 10
74.1391632605
 20
131.368398122
  0
VERTEX
  8
0
 62
7
  6
CONTINUOUS
 10
74.1326474634
 20
131.3913185989
  0
SEQEND
  0
POLYLINE
  8
0
 62
7
  6
CONTINUOUS
 66
1
 70
0
  0
VERTEX
  8
0
 62
7
  6
CONTINUOUS
 10
86.957971815
 20
131.1656824851
  0
VERTEX
  8
0
 62
7
  6
CONTINUOUS
 10
86.9576565079
 20
131.1659382738
  0
VERTEX
  8
0
 62
7
  6
CONTINUOUS
 10
86.9479501415
 20
131.1748918457
  0
VERTEX
  8
0
 62
7
  6
CONTINUOUS
 10
86.9267290935
 20
131.1985908471
  0
VERTEX
  8
0
 62
7
  6
CONTINUOUS
 10
86.8980382197
 20
131.2388249425
  0
VERTEX
  8
0
 62
7
  6
CONTINUOUS
 10
86.8666850329
 20
131.2965790793
  0
VERTEX
  8
0
 62
7
  6
CONTINUOUS
 10
86.8391632605
 20
131.368398122
  0
VERTEX
  8
0
 62
7
  6
CONTINUOUS
 10
86.8326474634
 20
131.3913185989
  0
SEQEND
  0
LINE
  8
0
 62
7
  6
CONTINUOUS
 10
100.5631098528
 20
127.4506132731
 11
99.4278043798
 21
131.7922608497
  0
LINE
  8
0
 62
7
  6
CONTINUOUS
 10
112.0416304653
 20
132.2897502396
 11
111.6798847548
 21
136.424522631
  0
LINE
  8
0
 62
7
  6
CONTINUOUS
 10
118.887700837
 20
131.4766560938
 11
118.4722969721
 21
143.3722663849
  0
LINE
  8
0
 62
7
  6
CONTINUOUS
 10
114.6499754893
 20
143.3722663849
 11
114.2345716249
 21
131.4766561089
  0
LINE
  8
0
 62
7
  6
CONTINUOUS
 10
108.7201577066
 20
136.424522631
 11
108.3584119961
 21
132.2897502396
  0
LINE
  8
0
 62
7
  6
CONTINUOUS
 10
121.4201577066
 20
136.424522631
 11
121.0584119961
 21
132.2897502396
  0
LINE
  8
0
 62
7
  6
CONTINUOUS
 10
108.2722380816
 20
131.7922608497
 11
107.1369326085
 21
127.4506132731
  0
LINE
  8
0
 62
7
  6
CONTINUOUS
 10
120.9722380816
 20
131.7922608497
 11
119.8369326085
 21
127.4506132731
  0
POLYLINE
  8
0
 62
7
  6
CONTINUOUS
 66
1
 70
0
  0
VERTEX
  8
0
 62
7
  6
CONTINUOUS
 10
108.1673959364
 20
131.3913222019
  0
VERTEX
  8
0
 62
7
  6
CONTINUOUS
 10
108.1610737471
 20
131.3690329475
  0
VERTEX
  8
0
 62
7
  6
CONTINUOUS
 10
108.1338783423
 20
131.2977037938
  0
VERTEX
  8
0
 62
7
  6
CONTINUOUS
 10
108.1028092843
 20
131.2401050438
  0
VERTEX
  8
0
 62
7
  6
CONTINUOUS
 10
108.0742263404
 20
131.1997223202
  0
VERTEX
  8
0
 62
7
  6
CONTINUOUS
 10
108.0528222751
 20
131.1756210625
  0
VERTEX
  8
0
 62
7
  6
CONTINUOUS
 10
108.0491030733
 20
131.1719773231
  0
SEQEND
  0
POLYLINE
  8
0
 62
7
  6
CONTINUOUS
 66
1
 70
0
  0
VERTEX
  8
0
 62
7
  6
CONTINUOUS
 10
120.8673959364
 20
131.3913222019
  0
VERTEX
  8
0
 62
7
  6
CONTINUOUS
 10
120.8610737471
 20
131.3690329475
  0
VERTEX
  8
0
 62
7
  6
CONTINUOUS
 10
120.8338783423
 20
131.2977037938
  0
VERTEX
  8
0
 62
7
  6
CONTINUOUS
 10
120.8028092843
 20
131.2401050438
  0
VERTEX
  8
0
 62
7
  6
CONTINUOUS
 10
120.7742263404
 20
131.1997223202
  0
VERTEX
  8
0
 62
7
  6
CONTINUOUS
 10
120.7528222751
 20
131.1756210625
  0
VERTEX
  8
0
 62
7
  6
CONTINUOUS
 10
120.7491030733
 20
131.1719773231
  0
SEQEND
  0
LINE
  8
0
 62
7
  6
CONTINUOUS
 10
95.3491030733
 20
131.1719773231
 11
95.3419701672
 21
131.1656029488
  0
LINE
  8
0
 62
7
  6
CONTINUOUS
 10
108.0491030733
 20
131.1719773231
 11
108.0419701672
 21
131.1656029488
  0
LINE
  8
0
 62
7
  6
CONTINUOUS
 10
82.641975687
 20
131.1656073099
 11
82.6018745607
 21
131.1383668639
  0
LINE
  8
0
 62
7
  6
CONTINUOUS
 10
95.341975687
 20
131.1656073099
 11
95.3018745607
 21
131.1383668639
  0
POLYLINE
  8
0
 62
7
  6
CONTINUOUS
 66
1
 70
0
  0
VERTEX
  8
0
 62
7
  6
CONTINUOUS
 10
69.9018745607
 20
131.1383668639
  0
VERTEX
  8
0
 62
7
  6
CONTINUOUS
 10
69.8756565758
 20
131.125278291
  0
VERTEX
  8
0
 62
7
  6
CONTINUOUS
 10
69.8672586905
 20
131.1220506943
  0
SEQEND
  0
POLYLINE
  8
0
 62
7
  6
CONTINUOUS
 66
1
 70
0
  0
VERTEX
  8
0
 62
7
  6
CONTINUOUS
 10
82.6018745607
 20
131.1383668639
  0
VERTEX
  8
0
 62
7
  6
CONTINUOUS
 10
82.5756565758
 20
131.125278291
  0
VERTEX
  8
0
 62
7
  6
CONTINUOUS
 10
82.5672586905
 20
131.1220506943
  0
SEQEND
  0
POLYLINE
  8
0
 62
7
  6
CONTINUOUS
 66
1
 70
0
  0
VERTEX
  8
0
 62
7
  6
CONTINUOUS
 10
95.3018745607
 20
131.1383668639
  0
VERTEX
  8
0
 62
7
  6
CONTINUOUS
 10
95.2756565758
 20
131.125278291
  0
VERTEX
  8
0
 62
7
  6
CONTINUOUS
 10
95.2672586905
 20
131.1220506943
  0
SEQEND
  0
POLYLINE
  8
0
 62
7
  6
CONTINUOUS
 66
1
 70
0
  0
VERTEX
  8
0
 62
7
  6
CONTINUOUS
 10
48.9311236832
 20
131.1223754005
  0
VERTEX
  8
0
 62
7
  6
CONTINUOUS
 10
48.9343143819
 20
131.1215524389
  0
VERTEX
  8
0
 62
7
  6
CONTINUOUS
 10
48.9256587025
 20
131.1247506192
  0
VERTEX
  8
0
 62
7
  6
CONTINUOUS
 10
48.900483702
 20
131.1370561661
  0
VERTEX
  8
0
 62
7
  6
CONTINUOUS
 10
48.8644906549
 20
131.1606490443
  0
VERTEX
  8
0
 62
7
  6
CONTINUOUS
 10
48.8581124586
 20
131.1655711848
  0
SEQEND
  0
POLYLINE
  8
0
 62
7
  6
CONTINUOUS
 66
1
 70
0
  0
VERTEX
  8
0
 62
7
  6
CONTINUOUS
 10
61.6311236832
 20
131.1223754005
  0
VERTEX
  8
0
 62
7
  6
CONTINUOUS
 10
61.6343143819
 20
131.1215524389
  0
VERTEX
  8
0
 62
7
  6
CONTINUOUS
 10
61.6256587025
 20
131.1247506192
  0
VERTEX
  8
0
 62
7
  6
CONTINUOUS
 10
61.600483702
 20
131.1370561661
  0
VERTEX
  8
0
 62
7
  6
CONTINUOUS
 10
61.5644906549
 20
131.1606490443
  0
VERTEX
  8
0
 62
7
  6
CONTINUOUS
 10
61.5581124586
 20
131.1655711848
  0
SEQEND
  0
POLYLINE
  8
0
 62
7
  6
CONTINUOUS
 66
1
 70
0
  0
VERTEX
  8
0
 62
7
  6
CONTINUOUS
 10
74.3311236832
 20
131.1223754005
  0
VERTEX
  8
0
 62
7
  6
CONTINUOUS
 10
74.3343143819
 20
131.1215524389
  0
VERTEX
  8
0
 62
7
  6
CONTINUOUS
 10
74.3256587025
 20
131.1247506192
  0
VERTEX
  8
0
 62
7
  6
CONTINUOUS
 10
74.300483702
 20
131.1370561661
  0
VERTEX
  8
0
 62
7
  6
CONTINUOUS
 10
74.2644906549
 20
131.1606490443
  0
VERTEX
  8
0
 62
7
  6
CONTINUOUS
 10
74.2581124586
 20
131.1655711848
  0
SEQEND
  0
POLYLINE
  8
0
 62
7
  6
CONTINUOUS
 66
1
 70
0
  0
VERTEX
  8
0
 62
7
  6
CONTINUOUS
 10
87.0311236832
 20
131.1223754005
  0
VERTEX
  8
0
 62
7
  6
CONTINUOUS
 10
87.0343143819
 20
131.1215524389
  0
VERTEX
  8
0
 62
7
  6
CONTINUOUS
 10
87.0256587025
 20
131.1247506192
  0
VERTEX
  8
0
 62
7
  6
CONTINUOUS
 10
87.000483702
 20
131.1370561661
  0
VERTEX
  8
0
 62
7
  6
CONTINUOUS
 10
86.9644906549
 20
131.1606490443
  0
VERTEX
  8
0
 62
7
  6
CONTINUOUS
 10
86.9581124586
 20
131.1655711848
  0
SEQEND
  0
LINE
  8
0
 62
7
  6
CONTINUOUS
 10
99.6580610571
 20
131.1656118343
 11
99.6581124625
 21
131.16557119
  0
LINE
  8
0
 62
7
  6
CONTINUOUS
 10
112.3580610571
 20
131.1656118343
 11
112.3581124625
 21
131.16557119
  0
POLYLINE
  8
0
 62
7
  6
CONTINUOUS
 66
1
 70
0
  0
VERTEX
  8
0
 62
7
  6
CONTINUOUS
 10
99.657971815
 20
131.1656824851
  0
VERTEX
  8
0
 62
7
  6
CONTINUOUS
 10
99.6576565079
 20
131.1659382738
  0
VERTEX
  8
0
 62
7
  6
CONTINUOUS
 10
99.6479501415
 20
131.1748918457
  0
VERTEX
  8
0
 62
7
  6
CONTINUOUS
 10
99.6267290935
 20
131.1985908471
  0
VERTEX
  8
0
 62
7
  6
CONTINUOUS
 10
99.5980382197
 20
131.2388249425
  0
VERTEX
  8
0
 62
7
  6
CONTINUOUS
 10
99.5666850329
 20
131.2965790793
  0
VERTEX
  8
0
 62
7
  6
CONTINUOUS
 10
99.5391632605
 20
131.368398122
  0
VERTEX
  8
0
 62
7
  6
CONTINUOUS
 10
99.5326474634
 20
131.3913185989
  0
SEQEND
  0
POLYLINE
  8
0
 62
7
  6
CONTINUOUS
 66
1
 70
0
  0
VERTEX
  8
0
 62
7
  6
CONTINUOUS
 10
112.357971815
 20
131.1656824851
  0
VERTEX
  8
0
 62
7
  6
CONTINUOUS
 10
112.3576565079
 20
131.1659382738
  0
VERTEX
  8
0
 62
7
  6
CONTINUOUS
 10
112.3479501415
 20
131.1748918457
  0
VERTEX
  8
0
 62
7
  6
CONTINUOUS
 10
112.3267290935
 20
131.1985908471
  0
VERTEX
  8
0
 62
7
  6
CONTINUOUS
 10
112.2980382197
 20
131.2388249425
  0
VERTEX
  8
0
 62
7
  6
CONTINUOUS
 10
112.2666850329
 20
131.2965790793
  0
VERTEX
  8
0
 62
7
  6
CONTINUOUS
 10
112.2391632605
 20
131.368398122
  0
VERTEX
  8
0
 62
7
  6
CONTINUOUS
 10
112.2326474634
 20
131.3913185989
  0
SEQEND
  0
LINE
  8
0
 62
7
  6
CONTINUOUS
 10
113.2631098528
 20
127.4506132731
 11
112.1278043798
 21
131.7922608497
  0
LINE
  8
0
 62
7
  6
CONTINUOUS
 10
124.7416304653
 20
132.2897502396
 11
124.3798847548
 21
136.424522631
  0
LINE
  8
0
 62
7
  6
CONTINUOUS
 10
137.4416304653
 20
132.2897502396
 11
137.0798847548
 21
136.424522631
  0
LINE
  8
DEFAULT_1
 62
2
  6
CENTER
 10
138.7861212307
 20
124.8917952171
 11
138.7861212307
 21
146.3373668882
  0
LINE
  8
0
 62
7
  6
CONTINUOUS
 10
134.1201577066
 20
136.424522631
 11
133.7584119961
 21
132.2897502396
  0
LINE
  8
0
 62
7
  6
CONTINUOUS
 10
133.6722380816
 20
131.7922608497
 11
132.5369326085
 21
127.4506132731
  0
POLYLINE
  8
0
 62
7
  6
CONTINUOUS
 66
1
 70
0
  0
VERTEX
  8
0
 62
7
  6
CONTINUOUS
 10
133.5673959364
 20
131.3913222019
  0
VERTEX
  8
0
 62
7
  6
CONTINUOUS
 10
133.5610737471
 20
131.3690329475
  0
VERTEX
  8
0
 62
7
  6
CONTINUOUS
 10
133.5338783423
 20
131.2977037938
  0
VERTEX
  8
0
 62
7
  6
CONTINUOUS
 10
133.5028092843
 20
131.2401050438
  0
VERTEX
  8
0
 62
7
  6
CONTINUOUS
 10
133.4742263404
 20
131.1997223202
  0
VERTEX
  8
0
 62
7
  6
CONTINUOUS
 10
133.4528222751
 20
131.1756210625
  0
VERTEX
  8
0
 62
7
  6
CONTINUOUS
 10
133.4491030733
 20
131.1719773231
  0
SEQEND
  0
LINE
  8
0
 62
7
  6
CONTINUOUS
 10
120.7491030733
 20
131.1719773231
 11
120.7419701672
 21
131.1656029488
  0
LINE
  8
0
 62
7
  6
CONTINUOUS
 10
133.4491030733
 20
131.1719773231
 11
133.4419701672
 21
131.1656029488
  0
LINE
  8
0
 62
7
  6
CONTINUOUS
 10
108.041975687
 20
131.1656073099
 11
108.0018745607
 21
131.1383668639
  0
LINE
  8
0
 62
7
  6
CONTINUOUS
 10
120.741975687
 20
131.1656073099
 11
120.7018745607
 21
131.1383668639
  0
LINE
  8
0
 62
7
  6
CONTINUOUS
 10
133.441975687
 20
131.1656073099
 11
133.4018745607
 21
131.1383668639
  0
POLYLINE
  8
0
 62
7
  6
CONTINUOUS
 66
1
 70
0
  0
VERTEX
  8
0
 62
7
  6
CONTINUOUS
 10
108.0018745607
 20
131.1383668639
  0
VERTEX
  8
0
 62
7
  6
CONTINUOUS
 10
107.9756565758
 20
131.125278291
  0
VERTEX
  8
0
 62
7
  6
CONTINUOUS
 10
107.9672586905
 20
131.1220506943
  0
SEQEND
  0
POLYLINE
  8
0
 62
7
  6
CONTINUOUS
 66
1
 70
0
  0
VERTEX
  8
0
 62
7
  6
CONTINUOUS
 10
120.7018745607
 20
131.1383668639
  0
VERTEX
  8
0
 62
7
  6
CONTINUOUS
 10
120.6756565758
 20
131.125278291
  0
VERTEX
  8
0
 62
7
  6
CONTINUOUS
 10
120.6672586905
 20
131.1220506943
  0
SEQEND
  0
POLYLINE
  8
0
 62
7
  6
CONTINUOUS
 66
1
 70
0
  0
VERTEX
  8
0
 62
7
  6
CONTINUOUS
 10
133.4018745607
 20
131.1383668639
  0
VERTEX
  8
0
 62
7
  6
CONTINUOUS
 10
133.3756565758
 20
131.125278291
  0
VERTEX
  8
0
 62
7
  6
CONTINUOUS
 10
133.3672586905
 20
131.1220506943
  0
SEQEND
  0
LINE
  8
0
 62
6
  6
CONTINUOUS
 10
-96.1048787693
 20
127.1373668882
 11
-109.0199787693
 21
127.1373668882
  0
LINE
  8
0
 62
7
  6
CONTINUOUS
 10
43.8361212307
 20
127.1373668882
 11
227.3861212307
 21
127.1373668882
  0
LINE
  8
0
 62
7
  6
CONTINUOUS
 10
48.857971815
 20
131.1373668882
 11
57.2491030733
 21
131.1373668882
  0
LINE
  8
0
 62
7
  6
CONTINUOUS
 10
61.557971815
 20
131.1373668882
 11
69.9491030733
 21
131.1373668882
  0
LINE
  8
0
 62
7
  6
CONTINUOUS
 10
74.257971815
 20
131.1373668882
 11
82.6491030733
 21
131.1373668882
  0
LINE
  8
0
 62
7
  6
CONTINUOUS
 10
86.957971815
 20
131.1373668882
 11
95.3491030733
 21
131.1373668882
  0
LINE
  8
0
 62
7
  6
CONTINUOUS
 10
99.657971815
 20
131.1373668882
 11
108.0491030733
 21
131.1373668882
  0
LINE
  8
0
 62
6
  6
CONTINUOUS
 10
-96.1048787693
 20
131.1373668882
 11
-109.0199787693
 21
131.1373668882
  0
LINE
  8
0
 62
7
  6
CONTINUOUS
 10
112.357971815
 20
131.1373668882
 11
113.4501723644
 21
131.1373668882
  0
LINE
  8
0
 62
7
  6
CONTINUOUS
 10
119.672100097
 20
131.1373668882
 11
120.7491030733
 21
131.1373668882
  0
LINE
  8
0
 62
7
  6
CONTINUOUS
 10
125.057971815
 20
131.1373668882
 11
133.4491030733
 21
131.1373668882
  0
LINE
  8
0
 62
7
  6
CONTINUOUS
 10
137.757971815
 20
131.1373668882
 11
146.1712037357
 21
131.1373668882
  0
LINE
  8
0
 62
7
  6
CONTINUOUS
 10
150.4800715671
 20
131.1373668882
 11
151.5501723644
 21
131.1373668882
  0
LINE
  8
0
 62
7
  6
CONTINUOUS
 10
157.772100097
 20
131.1373668882
 11
158.8712037357
 21
131.1373668882
  0
LINE
  8
0
 62
7
  6
CONTINUOUS
 10
163.1800715671
 20
131.1373668882
 11
171.5712037357
 21
131.1373668882
  0
LINE
  8
0
 62
7
  6
CONTINUOUS
 10
175.8800715671
 20
131.1373668882
 11
184.2712037357
 21
131.1373668882
  0
LINE
  8
0
 62
7
  6
CONTINUOUS
 10
188.5800715671
 20
131.1373668882
 11
196.9712037357
 21
131.1373668882
  0
LINE
  8
0
 62
7
  6
CONTINUOUS
 10
201.2800715671
 20
131.1373668882
 11
209.6712037357
 21
131.1373668882
  0
LINE
  8
0
 62
7
  6
CONTINUOUS
 10
213.9800715671
 20
131.1373668882
 11
222.3712037357
 21
131.1373668882
  0
LINE
  8
DEFAULT_1
 62
2
  6
CENTER
 10
48.5457762723
 20
132.2373668882
 11
222.676566189
 21
132.2373668882
  0
LINE
  8
0
 62
7
  6
CONTINUOUS
 10
47.7766918778
 20
137.1373668882
 11
58.3233505695
 21
137.1373668882
  0
LINE
  8
0
 62
7
  6
CONTINUOUS
 10
60.4766918778
 20
137.1373668882
 11
71.0233505695
 21
137.1373668882
  0
LINE
  8
0
 62
7
  6
CONTINUOUS
 10
73.1766918778
 20
137.1373668882
 11
83.7233505695
 21
137.1373668882
  0
LINE
  8
0
 62
7
  6
CONTINUOUS
 10
85.8766918778
 20
137.1373668882
 11
96.4233505695
 21
137.1373668882
  0
LINE
  8
0
 62
7
  6
CONTINUOUS
 10
98.5766918778
 20
137.1373668882
 11
109.1233505695
 21
137.1373668882
  0
LINE
  8
0
 62
7
  6
CONTINUOUS
 10
111.2766918778
 20
137.1373668882
 11
113.6596969814
 21
137.1373668882
  0
LINE
  8
0
 62
7
  6
CONTINUOUS
 10
119.46257548
 20
137.1373668882
 11
121.8233505695
 21
137.1373668882
  0
LINE
  8
0
 62
7
  6
CONTINUOUS
 10
123.9766918778
 20
137.1373668882
 11
134.5233505695
 21
137.1373668882
  0
LINE
  8
0
 62
7
  6
CONTINUOUS
 10
136.6766918778
 20
137.1373668882
 11
147.2454505631
 21
137.1373668882
  0
LINE
  8
0
 62
7
  6
CONTINUOUS
 10
149.3987919037
 20
137.1373668882
 11
151.7596969814
 21
137.1373668882
  0
LINE
  8
0
 62
7
  6
CONTINUOUS
 10
157.56257548
 20
137.1373668882
 11
159.9454505631
 21
137.1373668882
  0
LINE
  8
0
 62
7
  6
CONTINUOUS
 10
162.0987919037
 20
137.1373668882
 11
172.6454505631
 21
137.1373668882
  0
LINE
  8
0
 62
7
  6
CONTINUOUS
 10
174.7987919037
 20
137.1373668882
 11
185.3454505631
 21
137.1373668882
  0
LINE
  8
0
 62
7
  6
CONTINUOUS
 10
187.4987919037
 20
137.1373668882
 11
198.0454505631
 21
137.1373668882
  0
LINE
  8
0
 62
7
  6
CONTINUOUS
 10
200.1987919037
 20
137.1373668882
 11
210.7454505631
 21
137.1373668882
  0
LINE
  8
0
 62
7
  6
CONTINUOUS
 10
212.8987919037
 20
137.1373668882
 11
223.4454505631
 21
137.1373668882
  0
LINE
  8
0
 62
7
  6
CONTINUOUS
 10
47.1836900567
 20
137.3373668882
 11
44.5861212307
 21
137.3373668882
  0
LINE
  8
0
 62
7
  6
CONTINUOUS
 10
52.5664524047
 20
137.3373668882
 11
53.5337900567
 21
137.3373668882
  0
LINE
  8
0
 62
7
  6
CONTINUOUS
 10
58.9163524047
 20
137.3373668882
 11
59.8836900567
 21
137.3373668882
  0
LINE
  8
0
 62
7
  6
CONTINUOUS
 10
65.2664524047
 20
137.3373668882
 11
66.2337900567
 21
137.3373668882
  0
LINE
  8
0
 62
7
  6
CONTINUOUS
 10
71.6163524047
 20
137.3373668882
 11
72.5836900567
 21
137.3373668882
  0
LINE
  8
0
 62
7
  6
CONTINUOUS
 10
77.9664524047
 20
137.3373668882
 11
78.9337900567
 21
137.3373668882
  0
LINE
  8
0
 62
7
  6
CONTINUOUS
 10
84.3163524047
 20
137.3373668882
 11
85.2836900567
 21
137.3373668882
  0
LINE
  8
0
 62
7
  6
CONTINUOUS
 10
90.6664524047
 20
137.3373668882
 11
91.6337900567
 21
137.3373668882
  0
LINE
  8
0
 62
7
  6
CONTINUOUS
 10
97.0163524047
 20
137.3373668882
 11
97.9836900567
 21
137.3373668882
  0
LINE
  8
0
 62
6
  6
CONTINUOUS
 10
-98.8662099433
 20
137.3373668882
 11
-99.8335475953
 21
137.3373668882
  0
LINE
  8
0
 62
7
  6
CONTINUOUS
 10
103.3664524047
 20
137.3373668882
 11
104.3337900567
 21
137.3373668882
  0
LINE
  8
0
 62
6
  6
CONTINUOUS
 10
-105.2163099433
 20
137.3373668882
 11
-106.1836475953
 21
137.3373668882
  0
LINE
  8
0
 62
7
  6
CONTINUOUS
 10
109.7163524047
 20
137.3373668882
 11
110.6836900567
 21
137.3373668882
  0
LINE
  8
0
 62
7
  6
CONTINUOUS
 10
122.4163524047
 20
137.3373668882
 11
123.3836900567
 21
137.3373668882
  0
LINE
  8
0
 62
7
  6
CONTINUOUS
 10
128.7664524047
 20
137.3373668882
 11
129.7337900567
 21
137.3373668882
  0
LINE
  8
0
 62
7
  6
CONTINUOUS
 10
135.1163524047
 20
137.3373668882
 11
136.0836900567
 21
137.3373668882
  0
LINE
  8
0
 62
7
  6
CONTINUOUS
 10
141.4885524047
 20
137.3373668882
 11
142.4558900567
 21
137.3373668882
  0
LINE
  8
0
 62
7
  6
CONTINUOUS
 10
147.8384524047
 20
137.3373668882
 11
148.8057900567
 21
137.3373668882
  0
LINE
  8
0
 62
7
  6
CONTINUOUS
 10
160.5384524047
 20
137.3373668882
 11
161.5057900567
 21
137.3373668882
  0
LINE
  8
0
 62
7
  6
CONTINUOUS
 10
166.8885524047
 20
137.3373668882
 11
167.8558900567
 21
137.3373668882
  0
LINE
  8
0
 62
7
  6
CONTINUOUS
 10
173.2384524047
 20
137.3373668882
 11
174.2057900567
 21
137.3373668882
  0
LINE
  8
0
 62
7
  6
CONTINUOUS
 10
179.5885524047
 20
137.3373668882
 11
180.5558900567
 21
137.3373668882
  0
LINE
  8
0
 62
7
  6
CONTINUOUS
 10
185.9384524047
 20
137.3373668882
 11
186.9057900567
 21
137.3373668882
  0
LINE
  8
0
 62
7
  6
CONTINUOUS
 10
192.2885524047
 20
137.3373668882
 11
193.2558900567
 21
137.3373668882
  0
LINE
  8
0
 62
7
  6
CONTINUOUS
 10
198.6384524047
 20
137.3373668882
 11
199.6057900567
 21
137.3373668882
  0
LINE
  8
0
 62
7
  6
CONTINUOUS
 10
204.9885524047
 20
137.3373668882
 11
205.9558900567
 21
137.3373668882
  0
LINE
  8
0
 62
7
  6
CONTINUOUS
 10
211.3384524047
 20
137.3373668882
 11
212.3057900567
 21
137.3373668882
  0
LINE
  8
0
 62
7
  6
CONTINUOUS
 10
217.6885524047
 20
137.3373668882
 11
218.6558900567
 21
137.3373668882
  0
LINE
  8
0
 62
7
  6
CONTINUOUS
 10
224.0384524047
 20
137.3373668882
 11
226.6361212307
 21
137.3373668882
  0
POLYLINE
  8
0
 62
7
  6
CONTINUOUS
 66
1
 70
0
  0
VERTEX
  8
0
 62
7
  6
CONTINUOUS
 10
99.7311236832
 20
131.1223754005
  0
VERTEX
  8
0
 62
7
  6
CONTINUOUS
 10
99.7343143819
 20
131.1215524389
  0
VERTEX
  8
0
 62
7
  6
CONTINUOUS
 10
99.7256587025
 20
131.1247506192
  0
VERTEX
  8
0
 62
7
  6
CONTINUOUS
 10
99.700483702
 20
131.1370561661
  0
VERTEX
  8
0
 62
7
  6
CONTINUOUS
 10
99.6644906549
 20
131.1606490443
  0
VERTEX
  8
0
 62
7
  6
CONTINUOUS
 10
99.6581124586
 20
131.1655711848
  0
SEQEND
  0
POLYLINE
  8
0
 62
7
  6
CONTINUOUS
 66
1
 70
0
  0
VERTEX
  8
0
 62
7
  6
CONTINUOUS
 10
112.4311236832
 20
131.1223754005
  0
VERTEX
  8
0
 62
7
  6
CONTINUOUS
 10
112.4343143819
 20
131.1215524389
  0
VERTEX
  8
0
 62
7
  6
CONTINUOUS
 10
112.4256587025
 20
131.1247506192
  0
VERTEX
  8
0
 62
7
  6
CONTINUOUS
 10
112.400483702
 20
131.1370561661
  0
VERTEX
  8
0
 62
7
  6
CONTINUOUS
 10
112.3644906549
 20
131.1606490443
  0
VERTEX
  8
0
 62
7
  6
CONTINUOUS
 10
112.3581124586
 20
131.1655711848
  0
SEQEND
  0
POLYLINE
  8
0
 62
7
  6
CONTINUOUS
 66
1
 70
0
  0
VERTEX
  8
0
 62
7
  6
CONTINUOUS
 10
125.1311236832
 20
131.1223754005
  0
VERTEX
  8
0
 62
7
  6
CONTINUOUS
 10
125.1343143819
 20
131.1215524389
  0
VERTEX
  8
0
 62
7
  6
CONTINUOUS
 10
125.1256587025
 20
131.1247506192
  0
VERTEX
  8
0
 62
7
  6
CONTINUOUS
 10
125.100483702
 20
131.1370561661
  0
VERTEX
  8
0
 62
7
  6
CONTINUOUS
 10
125.0644906549
 20
131.1606490443
  0
VERTEX
  8
0
 62
7
  6
CONTINUOUS
 10
125.0581124586
 20
131.1655711848
  0
SEQEND
  0
POLYLINE
  8
0
 62
7
  6
CONTINUOUS
 66
1
 70
0
  0
VERTEX
  8
0
 62
7
  6
CONTINUOUS
 10
137.8311236832
 20
131.1223754005
  0
VERTEX
  8
0
 62
7
  6
CONTINUOUS
 10
137.8343143819
 20
131.1215524389
  0
VERTEX
  8
0
 62
7
  6
CONTINUOUS
 10
137.8256587025
 20
131.1247506192
  0
VERTEX
  8
0
 62
7
  6
CONTINUOUS
 10
137.800483702
 20
131.1370561661
  0
VERTEX
  8
0
 62
7
  6
CONTINUOUS
 10
137.7644906549
 20
131.1606490443
  0
VERTEX
  8
0
 62
7
  6
CONTINUOUS
 10
137.7581124586
 20
131.1655711848
  0
SEQEND
  0
POLYLINE
  8
0
 62
7
  6
CONTINUOUS
 66
1
 70
0
  0
VERTEX
  8
0
 62
7
  6
CONTINUOUS
 10
150.5532314312
 20
131.1223735416
  0
VERTEX
  8
0
 62
7
  6
CONTINUOUS
 10
150.5564144209
 20
131.1215524259
  0
VERTEX
  8
0
 62
7
  6
CONTINUOUS
 10
150.5477507434
 20
131.1247538749
  0
VERTEX
  8
0
 62
7
  6
CONTINUOUS
 10
150.5225722887
 20
131.1370625606
  0
VERTEX
  8
0
 62
7
  6
CONTINUOUS
 10
150.4865861257
 20
131.1606524707
  0
VERTEX
  8
0
 62
7
  6
CONTINUOUS
 10
150.480213582
 20
131.1655703042
  0
SEQEND
  0
POLYLINE
  8
0
 62
7
  6
CONTINUOUS
 66
1
 70
0
  0
VERTEX
  8
0
 62
7
  6
CONTINUOUS
 10
163.2532314312
 20
131.1223735416
  0
VERTEX
  8
0
 62
7
  6
CONTINUOUS
 10
163.2564144209
 20
131.1215524259
  0
VERTEX
  8
0
 62
7
  6
CONTINUOUS
 10
163.2477507434
 20
131.1247538749
  0
VERTEX
  8
0
 62
7
  6
CONTINUOUS
 10
163.2225722887
 20
131.1370625606
  0
VERTEX
  8
0
 62
7
  6
CONTINUOUS
 10
163.1865861257
 20
131.1606524707
  0
VERTEX
  8
0
 62
7
  6
CONTINUOUS
 10
163.180213582
 20
131.1655703042
  0
SEQEND
  0
LINE
  8
0
 62
7
  6
CONTINUOUS
 10
125.0580610571
 20
131.1656118343
 11
125.0581124625
 21
131.16557119
  0
LINE
  8
0
 62
7
  6
CONTINUOUS
 10
137.7580610571
 20
131.1656118343
 11
137.7581124625
 21
131.16557119
  0
POLYLINE
  8
0
 62
7
  6
CONTINUOUS
 66
1
 70
0
  0
VERTEX
  8
0
 62
7
  6
CONTINUOUS
 10
125.057971815
 20
131.1656824851
  0
VERTEX
  8
0
 62
7
  6
CONTINUOUS
 10
125.0576565079
 20
131.1659382738
  0
VERTEX
  8
0
 62
7
  6
CONTINUOUS
 10
125.0479501415
 20
131.1748918457
  0
VERTEX
  8
0
 62
7
  6
CONTINUOUS
 10
125.0267290935
 20
131.1985908471
  0
VERTEX
  8
0
 62
7
  6
CONTINUOUS
 10
124.9980382197
 20
131.2388249425
  0
VERTEX
  8
0
 62
7
  6
CONTINUOUS
 10
124.9666850329
 20
131.2965790793
  0
VERTEX
  8
0
 62
7
  6
CONTINUOUS
 10
124.9391632605
 20
131.368398122
  0
VERTEX
  8
0
 62
7
  6
CONTINUOUS
 10
124.9326474634
 20
131.3913185989
  0
SEQEND
  0
POLYLINE
  8
0
 62
7
  6
CONTINUOUS
 66
1
 70
0
  0
VERTEX
  8
0
 62
7
  6
CONTINUOUS
 10
137.757971815
 20
131.1656824851
  0
VERTEX
  8
0
 62
7
  6
CONTINUOUS
 10
137.7576565079
 20
131.1659382738
  0
VERTEX
  8
0
 62
7
  6
CONTINUOUS
 10
137.7479501415
 20
131.1748918457
  0
VERTEX
  8
0
 62
7
  6
CONTINUOUS
 10
137.7267290935
 20
131.1985908471
  0
VERTEX
  8
0
 62
7
  6
CONTINUOUS
 10
137.6980382197
 20
131.2388249425
  0
VERTEX
  8
0
 62
7
  6
CONTINUOUS
 10
137.6666850329
 20
131.2965790793
  0
VERTEX
  8
0
 62
7
  6
CONTINUOUS
 10
137.6391632605
 20
131.368398122
  0
VERTEX
  8
0
 62
7
  6
CONTINUOUS
 10
137.6326474634
 20
131.3913185989
  0
SEQEND
  0
LINE
  8
0
 62
7
  6
CONTINUOUS
 10
125.9631098528
 20
127.4506132731
 11
124.8278043798
 21
131.7922608497
  0
LINE
  8
0
 62
7
  6
CONTINUOUS
 10
138.6631098528
 20
127.4506132731
 11
137.5278043798
 21
131.7922608497
  0
LINE
  8
0
 62
7
  6
CONTINUOUS
 10
149.8019847548
 20
136.424522631
 11
150.1637304653
 21
132.2897502396
  0
LINE
  8
0
 62
7
  6
CONTINUOUS
 10
156.5722969721
 20
143.3722663849
 11
156.9877008658
 21
131.4766552686
  0
LINE
  8
0
 62
7
  6
CONTINUOUS
 10
152.334571596
 20
131.4766552812
 11
152.7499754893
 21
143.3722663849
  0
LINE
  8
0
 62
7
  6
CONTINUOUS
 10
146.4805119961
 20
132.2897502396
 11
146.8422577066
 21
136.424522631
  0
LINE
  8
0
 62
7
  6
CONTINUOUS
 10
145.2590326085
 20
127.4506132731
 11
146.3943380816
 21
131.7922608497
  0
POLYLINE
  8
0
 62
7
  6
CONTINUOUS
 66
1
 70
0
  0
VERTEX
  8
0
 62
7
  6
CONTINUOUS
 10
146.2895074602
 20
131.3913662767
  0
VERTEX
  8
0
 62
7
  6
CONTINUOUS
 10
146.2831749702
 20
131.3690409089
  0
VERTEX
  8
0
 62
7
  6
CONTINUOUS
 10
146.2559761898
 20
131.2977004876
  0
VERTEX
  8
0
 62
7
  6
CONTINUOUS
 10
146.2249146845
 20
131.2401136471
  0
VERTEX
  8
0
 62
7
  6
CONTINUOUS
 10
146.1963294403
 20
131.1997261569
  0
VERTEX
  8
0
 62
7
  6
CONTINUOUS
 10
146.17492336
 20
131.175622151
  0
VERTEX
  8
0
 62
7
  6
CONTINUOUS
 10
146.1712037357
 20
131.1719779519
  0
SEQEND
  0
LINE
  8
0
 62
7
  6
CONTINUOUS
 10
146.1712037357
 20
131.1719779519
 11
146.1640705925
 21
131.1656032851
  0
LINE
  8
0
 62
7
  6
CONTINUOUS
 10
158.8712037357
 20
131.1719779519
 11
158.8640705925
 21
131.1656032851
  0
LINE
  8
0
 62
7
  6
CONTINUOUS
 10
146.164076102
 20
131.1656076409
 11
146.1239749726
 21
131.1383670916
  0
LINE
  8
0
 62
7
  6
CONTINUOUS
 10
158.864076102
 20
131.1656076409
 11
158.8239749726
 21
131.1383670916
  0
POLYLINE
  8
0
 62
7
  6
CONTINUOUS
 66
1
 70
0
  0
VERTEX
  8
0
 62
7
  6
CONTINUOUS
 10
146.1239749726
 20
131.1383670916
  0
VERTEX
  8
0
 62
7
  6
CONTINUOUS
 10
146.097756156
 20
131.1252781177
  0
VERTEX
  8
0
 62
7
  6
CONTINUOUS
 10
146.0893585056
 20
131.1220506345
  0
SEQEND
  0
POLYLINE
  8
0
 62
7
  6
CONTINUOUS
 66
1
 70
0
  0
VERTEX
  8
0
 62
7
  6
CONTINUOUS
 10
158.8239749726
 20
131.1383670916
  0
VERTEX
  8
0
 62
7
  6
CONTINUOUS
 10
158.797756156
 20
131.1252781177
  0
VERTEX
  8
0
 62
7
  6
CONTINUOUS
 10
158.7893585056
 20
131.1220506345
  0
SEQEND
  0
POLYLINE
  8
0
 62
7
  6
CONTINUOUS
 66
1
 70
0
  0
VERTEX
  8
0
 62
7
  6
CONTINUOUS
 10
171.5239749726
 20
131.1383670916
  0
VERTEX
  8
0
 62
7
  6
CONTINUOUS
 10
171.497756156
 20
131.1252781177
  0
VERTEX
  8
0
 62
7
  6
CONTINUOUS
 10
171.4893585056
 20
131.1220506345
  0
SEQEND
  0
LINE
  8
0
 62
7
  6
CONTINUOUS
 10
115.6493663163
 20
144.3373668882
 11
117.472906145
 21
144.3373668882
  0
LINE
  8
0
 62
7
  6
CONTINUOUS
 10
153.7493663163
 20
144.3373668882
 11
155.572906145
 21
144.3373668882
  0
POLYLINE
  8
0
 62
7
  6
CONTINUOUS
 66
1
 70
0
  0
VERTEX
  8
0
 62
7
  6
CONTINUOUS
 10
175.9532314312
 20
131.1223735416
  0
VERTEX
  8
0
 62
7
  6
CONTINUOUS
 10
175.9564144209
 20
131.1215524259
  0
VERTEX
  8
0
 62
7
  6
CONTINUOUS
 10
175.9477507434
 20
131.1247538749
  0
VERTEX
  8
0
 62
7
  6
CONTINUOUS
 10
175.9225722887
 20
131.1370625606
  0
VERTEX
  8
0
 62
7
  6
CONTINUOUS
 10
175.8865861257
 20
131.1606524707
  0
VERTEX
  8
0
 62
7
  6
CONTINUOUS
 10
175.880213582
 20
131.1655703042
  0
SEQEND
  0
POLYLINE
  8
0
 62
7
  6
CONTINUOUS
 66
1
 70
0
  0
VERTEX
  8
0
 62
7
  6
CONTINUOUS
 10
188.6532314312
 20
131.1223735416
  0
VERTEX
  8
0
 62
7
  6
CONTINUOUS
 10
188.6564144209
 20
131.1215524259
  0
VERTEX
  8
0
 62
7
  6
CONTINUOUS
 10
188.6477507434
 20
131.1247538749
  0
VERTEX
  8
0
 62
7
  6
CONTINUOUS
 10
188.6225722887
 20
131.1370625606
  0
VERTEX
  8
0
 62
7
  6
CONTINUOUS
 10
188.5865861257
 20
131.1606524707
  0
VERTEX
  8
0
 62
7
  6
CONTINUOUS
 10
188.580213582
 20
131.1655703042
  0
SEQEND
  0
POLYLINE
  8
0
 62
7
  6
CONTINUOUS
 66
1
 70
0
  0
VERTEX
  8
0
 62
7
  6
CONTINUOUS
 10
201.3532314312
 20
131.1223735416
  0
VERTEX
  8
0
 62
7
  6
CONTINUOUS
 10
201.3564144209
 20
131.1215524259
  0
VERTEX
  8
0
 62
7
  6
CONTINUOUS
 10
201.3477507434
 20
131.1247538749
  0
VERTEX
  8
0
 62
7
  6
CONTINUOUS
 10
201.3225722887
 20
131.1370625606
  0
VERTEX
  8
0
 62
7
  6
CONTINUOUS
 10
201.2865861257
 20
131.1606524707
  0
VERTEX
  8
0
 62
7
  6
CONTINUOUS
 10
201.280213582
 20
131.1655703042
  0
SEQEND
  0
POLYLINE
  8
0
 62
7
  6
CONTINUOUS
 66
1
 70
0
  0
VERTEX
  8
0
 62
7
  6
CONTINUOUS
 10
214.0532314312
 20
131.1223735416
  0
VERTEX
  8
0
 62
7
  6
CONTINUOUS
 10
214.0564144209
 20
131.1215524259
  0
VERTEX
  8
0
 62
7
  6
CONTINUOUS
 10
214.0477507434
 20
131.1247538749
  0
VERTEX
  8
0
 62
7
  6
CONTINUOUS
 10
214.0225722887
 20
131.1370625606
  0
VERTEX
  8
0
 62
7
  6
CONTINUOUS
 10
213.9865861257
 20
131.1606524707
  0
VERTEX
  8
0
 62
7
  6
CONTINUOUS
 10
213.980213582
 20
131.1655703042
  0
SEQEND
  0
LINE
  8
0
 62
7
  6
CONTINUOUS
 10
150.4801606897
 20
131.1656121248
 11
150.4802135823
 21
131.1655703047
  0
LINE
  8
0
 62
7
  6
CONTINUOUS
 10
163.1801606897
 20
131.1656121248
 11
163.1802135823
 21
131.1655703047
  0
POLYLINE
  8
0
 62
7
  6
CONTINUOUS
 66
1
 70
0
  0
VERTEX
  8
0
 62
7
  6
CONTINUOUS
 10
150.4800715671
 20
131.1656826826
  0
VERTEX
  8
0
 62
7
  6
CONTINUOUS
 10
150.4797564164
 20
131.1659383475
  0
VERTEX
  8
0
 62
7
  6
CONTINUOUS
 10
150.4700490464
 20
131.1748929332
  0
VERTEX
  8
0
 62
7
  6
CONTINUOUS
 10
150.448825902
 20
131.198594766
  0
VERTEX
  8
0
 62
7
  6
CONTINUOUS
 10
150.4201326222
 20
131.2388337996
  0
VERTEX
  8
0
 62
7
  6
CONTINUOUS
 10
150.3887869154
 20
131.2965763234
  0
VERTEX
  8
0
 62
7
  6
CONTINUOUS
 10
150.3612621635
 20
131.3684057025
  0
VERTEX
  8
0
 62
7
  6
CONTINUOUS
 10
150.3547359153
 20
131.3913627671
  0
SEQEND
  0
POLYLINE
  8
0
 62
7
  6
CONTINUOUS
 66
1
 70
0
  0
VERTEX
  8
0
 62
7
  6
CONTINUOUS
 10
163.1800715671
 20
131.1656826826
  0
VERTEX
  8
0
 62
7
  6
CONTINUOUS
 10
163.1797564164
 20
131.1659383475
  0
VERTEX
  8
0
 62
7
  6
CONTINUOUS
 10
163.1700490464
 20
131.1748929332
  0
VERTEX
  8
0
 62
7
  6
CONTINUOUS
 10
163.148825902
 20
131.198594766
  0
VERTEX
  8
0
 62
7
  6
CONTINUOUS
 10
163.1201326222
 20
131.2388337996
  0
VERTEX
  8
0
 62
7
  6
CONTINUOUS
 10
163.0887869154
 20
131.2965763234
  0
VERTEX
  8
0
 62
7
  6
CONTINUOUS
 10
163.0612621635
 20
131.3684057025
  0
VERTEX
  8
0
 62
7
  6
CONTINUOUS
 10
163.0547359153
 20
131.3913627671
  0
SEQEND
  0
LINE
  8
0
 62
7
  6
CONTINUOUS
 10
150.2499043798
 20
131.7922608497
 11
151.3852098528
 21
127.4506132731
  0
LINE
  8
0
 62
7
  6
CONTINUOUS
 10
162.5019847548
 20
136.424522631
 11
162.8637304653
 21
132.2897502396
  0
LINE
  8
0
 62
7
  6
CONTINUOUS
 10
159.1805119961
 20
132.2897502396
 11
159.5422577066
 21
136.424522631
  0
LINE
  8
0
 62
7
  6
CONTINUOUS
 10
171.8805119961
 20
132.2897502396
 11
172.2422577066
 21
136.424522631
  0
LINE
  8
0
 62
7
  6
CONTINUOUS
 10
157.9590326085
 20
127.4506132731
 11
159.0943380816
 21
131.7922608497
  0
LINE
  8
0
 62
7
  6
CONTINUOUS
 10
170.6590326085
 20
127.4506132731
 11
171.7943380816
 21
131.7922608497
  0
POLYLINE
  8
0
 62
7
  6
CONTINUOUS
 66
1
 70
0
  0
VERTEX
  8
0
 62
7
  6
CONTINUOUS
 10
158.9895074602
 20
131.3913662767
  0
VERTEX
  8
0
 62
7
  6
CONTINUOUS
 10
158.9831749702
 20
131.3690409089
  0
VERTEX
  8
0
 62
7
  6
CONTINUOUS
 10
158.9559761898
 20
131.2977004876
  0
VERTEX
  8
0
 62
7
  6
CONTINUOUS
 10
158.9249146845
 20
131.2401136471
  0
VERTEX
  8
0
 62
7
  6
CONTINUOUS
 10
158.8963294403
 20
131.1997261569
  0
VERTEX
  8
0
 62
7
  6
CONTINUOUS
 10
158.87492336
 20
131.175622151
  0
VERTEX
  8
0
 62
7
  6
CONTINUOUS
 10
158.8712037357
 20
131.1719779519
  0
SEQEND
  0
POLYLINE
  8
0
 62
7
  6
CONTINUOUS
 66
1
 70
0
  0
VERTEX
  8
0
 62
7
  6
CONTINUOUS
 10
171.6895074602
 20
131.3913662767
  0
VERTEX
  8
0
 62
7
  6
CONTINUOUS
 10
171.6831749702
 20
131.3690409089
  0
VERTEX
  8
0
 62
7
  6
CONTINUOUS
 10
171.6559761898
 20
131.2977004876
  0
VERTEX
  8
0
 62
7
  6
CONTINUOUS
 10
171.6249146845
 20
131.2401136471
  0
VERTEX
  8
0
 62
7
  6
CONTINUOUS
 10
171.5963294403
 20
131.1997261569
  0
VERTEX
  8
0
 62
7
  6
CONTINUOUS
 10
171.57492336
 20
131.175622151
  0
VERTEX
  8
0
 62
7
  6
CONTINUOUS
 10
171.5712037357
 20
131.1719779519
  0
SEQEND
  0
LINE
  8
0
 62
7
  6
CONTINUOUS
 10
171.5712037357
 20
131.1719779519
 11
171.5640705925
 21
131.1656032851
  0
LINE
  8
0
 62
7
  6
CONTINUOUS
 10
184.2712037357
 20
131.1719779519
 11
184.2640705925
 21
131.1656032851
  0
LINE
  8
0
 62
7
  6
CONTINUOUS
 10
171.564076102
 20
131.1656076409
 11
171.5239749726
 21
131.1383670916
  0
LINE
  8
0
 62
7
  6
CONTINUOUS
 10
184.264076102
 20
131.1656076409
 11
184.2239749726
 21
131.1383670916
  0
POLYLINE
  8
0
 62
7
  6
CONTINUOUS
 66
1
 70
0
  0
VERTEX
  8
0
 62
7
  6
CONTINUOUS
 10
184.2239749726
 20
131.1383670916
  0
VERTEX
  8
0
 62
7
  6
CONTINUOUS
 10
184.197756156
 20
131.1252781177
  0
VERTEX
  8
0
 62
7
  6
CONTINUOUS
 10
184.1893585056
 20
131.1220506345
  0
SEQEND
  0
POLYLINE
  8
0
 62
7
  6
CONTINUOUS
 66
1
 70
0
  0
VERTEX
  8
0
 62
7
  6
CONTINUOUS
 10
196.9239749726
 20
131.1383670916
  0
VERTEX
  8
0
 62
7
  6
CONTINUOUS
 10
196.897756156
 20
131.1252781177
  0
VERTEX
  8
0
 62
7
  6
CONTINUOUS
 10
196.8893585056
 20
131.1220506345
  0
SEQEND
  0
LINE
  8
0
 62
7
  6
CONTINUOUS
 10
175.8801606897
 20
131.1656121248
 11
175.8802135823
 21
131.1655703047
  0
LINE
  8
0
 62
7
  6
CONTINUOUS
 10
188.5801606897
 20
131.1656121248
 11
188.5802135823
 21
131.1655703047
  0
LINE
  8
0
 62
7
  6
CONTINUOUS
 10
201.2801606897
 20
131.1656121248
 11
201.2802135823
 21
131.1655703047
  0
POLYLINE
  8
0
 62
7
  6
CONTINUOUS
 66
1
 70
0
  0
VERTEX
  8
0
 62
7
  6
CONTINUOUS
 10
175.8800715671
 20
131.1656826826
  0
VERTEX
  8
0
 62
7
  6
CONTINUOUS
 10
175.8797564164
 20
131.1659383475
  0
VERTEX
  8
0
 62
7
  6
CONTINUOUS
 10
175.8700490464
 20
131.1748929332
  0
VERTEX
  8
0
 62
7
  6
CONTINUOUS
 10
175.848825902
 20
131.198594766
  0
VERTEX
  8
0
 62
7
  6
CONTINUOUS
 10
175.8201326222
 20
131.2388337996
  0
VERTEX
  8
0
 62
7
  6
CONTINUOUS
 10
175.7887869154
 20
131.2965763234
  0
VERTEX
  8
0
 62
7
  6
CONTINUOUS
 10
175.7612621635
 20
131.3684057025
  0
VERTEX
  8
0
 62
7
  6
CONTINUOUS
 10
175.7547359153
 20
131.3913627671
  0
SEQEND
  0
POLYLINE
  8
0
 62
7
  6
CONTINUOUS
 66
1
 70
0
  0
VERTEX
  8
0
 62
7
  6
CONTINUOUS
 10
188.5800715671
 20
131.1656826826
  0
VERTEX
  8
0
 62
7
  6
CONTINUOUS
 10
188.5797564164
 20
131.1659383475
  0
VERTEX
  8
0
 62
7
  6
CONTINUOUS
 10
188.5700490464
 20
131.1748929332
  0
VERTEX
  8
0
 62
7
  6
CONTINUOUS
 10
188.548825902
 20
131.198594766
  0
VERTEX
  8
0
 62
7
  6
CONTINUOUS
 10
188.5201326222
 20
131.2388337996
  0
VERTEX
  8
0
 62
7
  6
CONTINUOUS
 10
188.4887869154
 20
131.2965763234
  0
VERTEX
  8
0
 62
7
  6
CONTINUOUS
 10
188.4612621635
 20
131.3684057025
  0
VERTEX
  8
0
 62
7
  6
CONTINUOUS
 10
188.4547359153
 20
131.3913627671
  0
SEQEND
  0
LINE
  8
0
 62
7
  6
CONTINUOUS
 10
162.9499043798
 20
131.7922608497
 11
164.0852098528
 21
127.4506132731
  0
LINE
  8
0
 62
7
  6
CONTINUOUS
 10
175.6499043798
 20
131.7922608497
 11
176.7852098528
 21
127.4506132731
  0
LINE
  8
0
 62
7
  6
CONTINUOUS
 10
175.2019847548
 20
136.424522631
 11
175.5637304653
 21
132.2897502396
  0
LINE
  8
0
 62
7
  6
CONTINUOUS
 10
187.9019847548
 20
136.424522631
 11
188.2637304653
 21
132.2897502396
  0
LINE
  8
0
 62
7
  6
CONTINUOUS
 10
184.5805119961
 20
132.2897502396
 11
184.9422577066
 21
136.424522631
  0
LINE
  8
0
 62
7
  6
CONTINUOUS
 10
183.3590326085
 20
127.4506132731
 11
184.4943380816
 21
131.7922608497
  0
POLYLINE
  8
0
 62
7
  6
CONTINUOUS
 66
1
 70
0
  0
VERTEX
  8
0
 62
7
  6
CONTINUOUS
 10
184.3895074602
 20
131.3913662767
  0
VERTEX
  8
0
 62
7
  6
CONTINUOUS
 10
184.3831749702
 20
131.3690409089
  0
VERTEX
  8
0
 62
7
  6
CONTINUOUS
 10
184.3559761898
 20
131.2977004876
  0
VERTEX
  8
0
 62
7
  6
CONTINUOUS
 10
184.3249146845
 20
131.2401136471
  0
VERTEX
  8
0
 62
7
  6
CONTINUOUS
 10
184.2963294403
 20
131.199726157
  0
VERTEX
  8
0
 62
7
  6
CONTINUOUS
 10
184.27492336
 20
131.175622151
  0
VERTEX
  8
0
 62
7
  6
CONTINUOUS
 10
184.2712037357
 20
131.1719779519
  0
SEQEND
  0
LINE
  8
0
 62
7
  6
CONTINUOUS
 10
196.9712037357
 20
131.1719779519
 11
196.9640705925
 21
131.1656032851
  0
LINE
  8
0
 62
7
  6
CONTINUOUS
 10
209.6712037357
 20
131.1719779519
 11
209.6640705925
 21
131.1656032851
  0
LINE
  8
0
 62
7
  6
CONTINUOUS
 10
196.964076102
 20
131.1656076409
 11
196.9239749726
 21
131.1383670916
  0
LINE
  8
0
 62
7
  6
CONTINUOUS
 10
209.664076102
 20
131.1656076409
 11
209.6239749726
 21
131.1383670916
  0
LINE
  8
0
 62
7
  6
CONTINUOUS
 10
222.364076102
 20
131.1656076409
 11
222.3239749726
 21
131.1383670916
  0
POLYLINE
  8
0
 62
7
  6
CONTINUOUS
 66
1
 70
0
  0
VERTEX
  8
0
 62
7
  6
CONTINUOUS
 10
209.6239749726
 20
131.1383670916
  0
VERTEX
  8
0
 62
7
  6
CONTINUOUS
 10
209.597756156
 20
131.1252781177
  0
VERTEX
  8
0
 62
7
  6
CONTINUOUS
 10
209.5893585056
 20
131.1220506345
  0
SEQEND
  0
POLYLINE
  8
0
 62
7
  6
CONTINUOUS
 66
1
 70
0
  0
VERTEX
  8
0
 62
7
  6
CONTINUOUS
 10
222.3239749726
 20
131.1383670916
  0
VERTEX
  8
0
 62
7
  6
CONTINUOUS
 10
222.297756156
 20
131.1252781177
  0
VERTEX
  8
0
 62
7
  6
CONTINUOUS
 10
222.2893585056
 20
131.1220506345
  0
SEQEND
  0
LINE
  8
0
 62
7
  6
CONTINUOUS
 10
213.9801606897
 20
131.1656121248
 11
213.9802135823
 21
131.1655703047
  0
POLYLINE
  8
0
 62
7
  6
CONTINUOUS
 66
1
 70
0
  0
VERTEX
  8
0
 62
7
  6
CONTINUOUS
 10
201.2800715671
 20
131.1656826826
  0
VERTEX
  8
0
 62
7
  6
CONTINUOUS
 10
201.2797564164
 20
131.1659383475
  0
VERTEX
  8
0
 62
7
  6
CONTINUOUS
 10
201.2700490464
 20
131.1748929332
  0
VERTEX
  8
0
 62
7
  6
CONTINUOUS
 10
201.248825902
 20
131.198594766
  0
VERTEX
  8
0
 62
7
  6
CONTINUOUS
 10
201.2201326222
 20
131.2388337996
  0
VERTEX
  8
0
 62
7
  6
CONTINUOUS
 10
201.1887869154
 20
131.2965763234
  0
VERTEX
  8
0
 62
7
  6
CONTINUOUS
 10
201.1612621635
 20
131.3684057025
  0
VERTEX
  8
0
 62
7
  6
CONTINUOUS
 10
201.1547359153
 20
131.3913627671
  0
SEQEND
  0
POLYLINE
  8
0
 62
7
  6
CONTINUOUS
 66
1
 70
0
  0
VERTEX
  8
0
 62
7
  6
CONTINUOUS
 10
213.9800715671
 20
131.1656826826
  0
VERTEX
  8
0
 62
7
  6
CONTINUOUS
 10
213.9797564164
 20
131.1659383475
  0
VERTEX
  8
0
 62
7
  6
CONTINUOUS
 10
213.9700490464
 20
131.1748929332
  0
VERTEX
  8
0
 62
7
  6
CONTINUOUS
 10
213.948825902
 20
131.198594766
  0
VERTEX
  8
0
 62
7
  6
CONTINUOUS
 10
213.9201326222
 20
131.2388337996
  0
VERTEX
  8
0
 62
7
  6
CONTINUOUS
 10
213.8887869154
 20
131.2965763234
  0
VERTEX
  8
0
 62
7
  6
CONTINUOUS
 10
213.8612621635
 20
131.3684057025
  0
VERTEX
  8
0
 62
7
  6
CONTINUOUS
 10
213.8547359153
 20
131.3913627671
  0
SEQEND
  0
LINE
  8
0
 62
7
  6
CONTINUOUS
 10
188.3499043798
 20
131.7922608497
 11
189.4852098528
 21
127.4506132731
  0
LINE
  8
0
 62
7
  6
CONTINUOUS
 10
200.6019847548
 20
136.424522631
 11
200.9637304653
 21
132.2897502396
  0
LINE
  8
0
 62
7
  6
CONTINUOUS
 10
197.2805119961
 20
132.2897502396
 11
197.6422577066
 21
136.424522631
  0
LINE
  8
0
 62
7
  6
CONTINUOUS
 10
196.0590326085
 20
127.4506132731
 11
197.1943380816
 21
131.7922608497
  0
POLYLINE
  8
0
 62
7
  6
CONTINUOUS
 66
1
 70
0
  0
VERTEX
  8
0
 62
7
  6
CONTINUOUS
 10
197.0895074602
 20
131.3913662767
  0
VERTEX
  8
0
 62
7
  6
CONTINUOUS
 10
197.0831749702
 20
131.3690409089
  0
VERTEX
  8
0
 62
7
  6
CONTINUOUS
 10
197.0559761898
 20
131.2977004876
  0
VERTEX
  8
0
 62
7
  6
CONTINUOUS
 10
197.0249146845
 20
131.2401136471
  0
VERTEX
  8
0
 62
7
  6
CONTINUOUS
 10
196.9963294403
 20
131.1997261569
  0
VERTEX
  8
0
 62
7
  6
CONTINUOUS
 10
196.97492336
 20
131.175622151
  0
VERTEX
  8
0
 62
7
  6
CONTINUOUS
 10
196.9712037357
 20
131.1719779519
  0
SEQEND
  0
LINE
  8
0
 62
7
  6
CONTINUOUS
 10
222.3712037357
 20
131.1719779519
 11
222.3640705925
 21
131.1656032851
  0
LINE
  8
0
 62
7
  6
CONTINUOUS
 10
201.0499043798
 20
131.7922608497
 11
202.1852098528
 21
127.4506132731
  0
LINE
  8
0
 62
7
  6
CONTINUOUS
 10
213.3019847548
 20
136.424522631
 11
213.6637304653
 21
132.2897502396
  0
LINE
  8
0
 62
7
  6
CONTINUOUS
 10
209.9805119961
 20
132.2897502396
 11
210.3422577066
 21
136.424522631
  0
LINE
  8
0
 62
7
  6
CONTINUOUS
 10
222.6805119961
 20
132.2897502396
 11
223.0422577066
 21
136.424522631
  0
LINE
  8
0
 62
7
  6
CONTINUOUS
 10
208.7590326085
 20
127.4506132731
 11
209.8943380816
 21
131.7922608497
  0
LINE
  8
0
 62
7
  6
CONTINUOUS
 10
221.4590326085
 20
127.4506132731
 11
222.5943380816
 21
131.7922608497
  0
POLYLINE
  8
0
 62
7
  6
CONTINUOUS
 66
1
 70
0
  0
VERTEX
  8
0
 62
7
  6
CONTINUOUS
 10
209.7895074602
 20
131.3913662767
  0
VERTEX
  8
0
 62
7
  6
CONTINUOUS
 10
209.7831749702
 20
131.3690409089
  0
VERTEX
  8
0
 62
7
  6
CONTINUOUS
 10
209.7559761898
 20
131.2977004876
  0
VERTEX
  8
0
 62
7
  6
CONTINUOUS
 10
209.7249146845
 20
131.2401136471
  0
VERTEX
  8
0
 62
7
  6
CONTINUOUS
 10
209.6963294403
 20
131.199726157
  0
VERTEX
  8
0
 62
7
  6
CONTINUOUS
 10
209.67492336
 20
131.175622151
  0
VERTEX
  8
0
 62
7
  6
CONTINUOUS
 10
209.6712037357
 20
131.1719779519
  0
SEQEND
  0
POLYLINE
  8
0
 62
7
  6
CONTINUOUS
 66
1
 70
0
  0
VERTEX
  8
0
 62
7
  6
CONTINUOUS
 10
222.4895074602
 20
131.3913662767
  0
VERTEX
  8
0
 62
7
  6
CONTINUOUS
 10
222.4831749702
 20
131.3690409089
  0
VERTEX
  8
0
 62
7
  6
CONTINUOUS
 10
222.4559761898
 20
131.2977004876
  0
VERTEX
  8
0
 62
7
  6
CONTINUOUS
 10
222.4249146845
 20
131.2401136471
  0
VERTEX
  8
0
 62
7
  6
CONTINUOUS
 10
222.3963294403
 20
131.199726157
  0
VERTEX
  8
0
 62
7
  6
CONTINUOUS
 10
222.37492336
 20
131.175622151
  0
VERTEX
  8
0
 62
7
  6
CONTINUOUS
 10
222.3712037357
 20
131.1719779519
  0
SEQEND
  0
LINE
  8
0
 62
7
  6
CONTINUOUS
 10
213.7499043798
 20
131.7922608497
 11
214.8852098528
 21
127.4506132731
  0
LINE
  8
0
 62
7
  6
CONTINUOUS
 10
227.6361212307
 20
127.3873668882
 11
227.6361212307
 21
136.3373668882
  0
LINE
  8
DEFAULT_1
 62
2
  6
CENTER
 10
286.4924232162
 20
137.4873668882
 11
286.4924232162
 21
136.8873668882
  0
LINE
  8
0
 62
2
  6
CONTINUOUS
 10
286.4924232162
 20
133.2873668882
 11
286.4924232162
 21
131.1873668882
  0
LINE
  8
DEFAULT_1
 62
2
  6
CENTER
 10
286.4924232162
 20
126.9873668882
 11
286.4924232162
 21
127.5873668882
  0
POLYLINE
  8
0
 62
7
  6
CONTINUOUS
 66
1
 70
0
  0
VERTEX
  8
0
 62
7
  6
CONTINUOUS
 10
284.9152422672
 20
127.4506132731
  0
VERTEX
  8
0
 62
7
  6
CONTINUOUS
 10
284.9048116438
 20
127.3866087185
  0
VERTEX
  8
0
 62
7
  6
CONTINUOUS
 10
284.8951461519
 20
127.3227193557
  0
VERTEX
  8
0
 62
7
  6
CONTINUOUS
 10
284.8868516525
 20
127.263075346
  0
VERTEX
  8
0
 62
7
  6
CONTINUOUS
 10
284.8804522395
 20
127.2115971163
  0
VERTEX
  8
0
 62
7
  6
CONTINUOUS
 10
284.8763632375
 20
127.1717617474
  0
VERTEX
  8
0
 62
7
  6
CONTINUOUS
 10
284.8748677927
 20
127.1463728958
  0
VERTEX
  8
0
 62
7
  6
CONTINUOUS
 10
284.8761002287
 20
127.1373668882
  0
SEQEND
  0
POLYLINE
  8
0
 62
7
  6
CONTINUOUS
 66
1
 70
0
  0
VERTEX
  8
0
 62
7
  6
CONTINUOUS
 10
284.8765329532
 20
137.3373668882
  0
VERTEX
  8
0
 62
7
  6
CONTINUOUS
 10
284.8865267643
 20
137.3198078137
  0
VERTEX
  8
0
 62
7
  6
CONTINUOUS
 10
284.8962783792
 20
137.2679753848
  0
VERTEX
  8
0
 62
7
  6
CONTINUOUS
 10
284.9049459148
 20
137.1840029147
  0
VERTEX
  8
0
 62
7
  6
CONTINUOUS
 10
284.911617588
 20
137.071095264
  0
VERTEX
  8
0
 62
7
  6
CONTINUOUS
 10
284.9152890536
 20
136.9334072602
  0
VERTEX
  8
0
 62
7
  6
CONTINUOUS
 10
284.9148295779
 20
136.7759078255
  0
VERTEX
  8
0
 62
7
  6
CONTINUOUS
 10
284.9089340572
 20
136.604231307
  0
VERTEX
  8
0
 62
7
  6
CONTINUOUS
 10
284.8960594778
 20
136.424522631
  0
SEQEND
  0
POLYLINE
  8
0
 62
7
  6
CONTINUOUS
 66
1
 70
0
  0
VERTEX
  8
0
 62
7
  6
CONTINUOUS
 10
289.763508663
 20
127.3873668882
  0
VERTEX
  8
0
 62
7
  6
CONTINUOUS
 10
289.7460768086
 20
127.4393050958
  0
VERTEX
  8
0
 62
7
  6
CONTINUOUS
 10
289.7246390739
 20
127.4868988898
  0
VERTEX
  8
0
 62
7
  6
CONTINUOUS
 10
289.7010747008
 20
127.5280644763
  0
VERTEX
  8
0
 62
7
  6
CONTINUOUS
 10
289.6773164905
 20
127.5609100413
  0
VERTEX
  8
0
 62
7
  6
CONTINUOUS
 10
289.6552933271
 20
127.5837510893
  0
VERTEX
  8
0
 62
7
  6
CONTINUOUS
 10
289.6368641523
 20
127.59525118
  0
VERTEX
  8
0
 62
7
  6
CONTINUOUS
 10
289.6237186866
 20
127.5946318455
  0
SEQEND
  0
LINE
  8
0
 62
7
  6
CONTINUOUS
 10
304.8424232162
 20
128.0203456375
 11
304.9424232639
 21
128.0458775494
  0
LINE
  8
0
 62
7
  6
CONTINUOUS
 10
304.9424232639
 20
128.1480051968
 11
304.8424232162
 21
128.1224732849
  0
LINE
  8
0
 62
7
  6
CONTINUOUS
 10
302.3674232162
 20
127.6373668882
 11
302.4674231208
 21
127.6628988001
  0
LINE
  8
0
 62
7
  6
CONTINUOUS
 10
284.8761002287
 20
127.1373668882
 11
313.508746188
 21
127.1373668882
  0
LINE
  8
0
 62
7
  6
CONTINUOUS
 10
294.3924235977
 20
127.6628988001
 11
294.5174228347
 21
127.6373668882
  0
LINE
  8
0
 62
7
  6
CONTINUOUS
 10
295.5174235977
 20
127.6628988001
 11
295.6424228347
 21
127.6373668882
  0
LINE
  8
0
 62
7
  6
CONTINUOUS
 10
294.4924232162
 20
127.7650264475
 11
294.4174232162
 21
127.7905583593
  0
LINE
  8
0
 62
7
  6
CONTINUOUS
 10
295.6174232162
 20
127.7650264475
 11
295.5424232162
 21
127.7905583593
  0
LINE
  8
0
 62
7
  6
CONTINUOUS
 10
294.2924228347
 20
127.7394945356
 11
294.3924235977
 21
127.6628988001
  0
LINE
  8
0
 62
7
  6
CONTINUOUS
 10
295.4174228347
 20
127.7394945356
 11
295.5174235977
 21
127.6628988001
  0
LINE
  8
0
 62
7
  6
CONTINUOUS
 10
294.4174232162
 20
127.7905583593
 11
294.3674228347
 21
127.841622183
  0
LINE
  8
0
 62
7
  6
CONTINUOUS
 10
294.2174228347
 20
127.841622183
 11
294.2924228347
 21
127.7394945356
  0
LINE
  8
0
 62
7
  6
CONTINUOUS
 10
292.5812624748
 20
143.3722663849
 11
292.3127533892
 21
135.6831721998
  0
LINE
  8
0
 62
7
  6
CONTINUOUS
 10
305.6924232281
 20
128.7097073111
 11
305.7924232043
 21
128.7352392319
  0
LINE
  8
0
 62
7
  6
CONTINUOUS
 10
305.7924232043
 20
128.8373668882
 11
305.6924232281
 21
128.8118349741
  0
LINE
  8
0
 62
7
  6
CONTINUOUS
 10
302.1174233116
 20
128.6586434874
 11
302.2174232162
 21
128.6841753992
  0
LINE
  8
0
 62
7
  6
CONTINUOUS
 10
302.2174232162
 20
128.8373668882
 11
302.0924231208
 21
128.8118349741
  0
LINE
  8
0
 62
7
  6
CONTINUOUS
 10
299.0924234069
 20
128.3011966679
 11
298.9674230255
 21
128.275664756
  0
LINE
  8
0
 62
7
  6
CONTINUOUS
 10
294.5174228347
 20
127.6373668882
 11
295.1174228347
 21
127.6373668882
  0
LINE
  8
0
 62
7
  6
CONTINUOUS
 10
295.6424228347
 20
127.6373668882
 11
296.2424228347
 21
127.6373668882
  0
LINE
  8
0
 62
7
  6
CONTINUOUS
 10
297.9674234069
 20
127.6373668882
 11
298.5674234069
 21
127.6373668882
  0
LINE
  8
0
 62
7
  6
CONTINUOUS
 10
299.0924234069
 20
127.6373668882
 11
299.6924234069
 21
127.6373668882
  0
LINE
  8
0
 62
7
  6
CONTINUOUS
 10
299.8924232162
 20
127.6373668882
 11
300.1174232162
 21
127.6373668882
  0
LINE
  8
0
 62
7
  6
CONTINUOUS
 10
300.8674232162
 20
127.6373668882
 11
301.0924232162
 21
127.6373668882
  0
LINE
  8
0
 62
7
  6
CONTINUOUS
 10
302.2424231208
 20
127.6373668882
 11
302.3674232162
 21
127.6373668882
  0
LINE
  8
0
 62
7
  6
CONTINUOUS
 10
304.1674232162
 20
127.6373668882
 11
304.2924231685
 21
127.6373668882
  0
LINE
  8
0
 62
7
  6
CONTINUOUS
 10
304.2924231685
 20
127.7650264475
 11
304.1674232162
 21
127.7650264475
  0
LINE
  8
0
 62
7
  6
CONTINUOUS
 10
299.5424234069
 20
127.7650264475
 11
299.0674232162
 21
127.7650264475
  0
LINE
  8
0
 62
7
  6
CONTINUOUS
 10
296.0924228347
 20
127.7650264475
 11
295.6174232162
 21
127.7650264475
  0
LINE
  8
0
 62
7
  6
CONTINUOUS
 10
294.9674228347
 20
127.7650264475
 11
294.4924232162
 21
127.7650264475
  0
LINE
  8
0
 62
7
  6
CONTINUOUS
 10
302.3674232162
 20
127.7905583593
 11
302.2174232162
 21
127.7905583593
  0
LINE
  8
0
 62
7
  6
CONTINUOUS
 10
298.4174234069
 20
127.7905583593
 11
297.9424232162
 21
127.7905583593
  0
LINE
  8
0
 62
7
  6
CONTINUOUS
 10
302.0674232162
 20
127.9182179186
 11
301.9174232162
 21
127.9182179186
  0
LINE
  8
0
 62
7
  6
CONTINUOUS
 10
304.1674232162
 20
128.0203456375
 11
304.2924231685
 21
128.0203456375
  0
LINE
  8
0
 62
7
  6
CONTINUOUS
 10
304.7424231685
 20
128.0203456375
 11
304.8424232162
 21
128.0203456375
  0
LINE
  8
0
 62
7
  6
CONTINUOUS
 10
305.0674232162
 20
128.0203456375
 11
305.19242324
 21
128.0203456375
  0
LINE
  8
0
 62
7
  6
CONTINUOUS
 10
305.4424232162
 20
128.0203456375
 11
305.56742324
 21
128.0203456375
  0
LINE
  8
0
 62
7
  6
CONTINUOUS
 10
306.0674232192
 20
128.0203456375
 11
306.1924232162
 21
128.0203456375
  0
LINE
  8
0
 62
7
  6
CONTINUOUS
 10
294.4924232162
 20
128.1480051968
 11
294.9674228347
 21
128.1480051968
  0
LINE
  8
0
 62
7
  6
CONTINUOUS
 10
295.6174232162
 20
128.1480051968
 11
296.0924228347
 21
128.1480051968
  0
LINE
  8
0
 62
7
  6
CONTINUOUS
 10
297.9424232162
 20
128.1480051968
 11
298.4174234069
 21
128.1480051968
  0
LINE
  8
0
 62
7
  6
CONTINUOUS
 10
299.0674232162
 20
128.1480051968
 11
299.5424234069
 21
128.1480051968
  0
LINE
  8
0
 62
7
  6
CONTINUOUS
 10
302.2174232162
 20
128.1480051968
 11
302.3674232162
 21
128.1480051968
  0
LINE
  8
0
 62
7
  6
CONTINUOUS
 10
301.2924230255
 20
128.275664756
 11
301.6424231208
 21
128.275664756
  0
LINE
  8
0
 62
7
  6
CONTINUOUS
 10
302.3674232162
 20
128.3011966679
 11
302.2174232162
 21
128.3011966679
  0
LINE
  8
0
 62
7
  6
CONTINUOUS
 10
299.5424234069
 20
128.3011966679
 11
299.0924234069
 21
128.3011966679
  0
LINE
  8
0
 62
7
  6
CONTINUOUS
 10
298.4174234069
 20
128.3011966679
 11
297.9424232162
 21
128.3011966679
  0
LINE
  8
0
 62
7
  6
CONTINUOUS
 10
296.0924228347
 20
128.3011966679
 11
295.6424228347
 21
128.3011966679
  0
LINE
  8
0
 62
7
  6
CONTINUOUS
 10
294.9674228347
 20
128.3011966679
 11
294.5174228347
 21
128.3011966679
  0
LINE
  8
0
 62
7
  6
CONTINUOUS
 10
301.6424231208
 20
128.403324351
 11
301.2924230255
 21
128.403324351
  0
LINE
  8
0
 62
7
  6
CONTINUOUS
 10
302.6174231208
 20
128.5054519984
 11
302.7674231208
 21
128.5054519984
  0
LINE
  8
0
 62
7
  6
CONTINUOUS
 10
297.9424232162
 20
128.6841753992
 11
298.4174234069
 21
128.6841753992
  0
LINE
  8
0
 62
7
  6
CONTINUOUS
 10
302.2174232162
 20
128.6841753992
 11
302.4174233116
 21
128.6841753992
  0
LINE
  8
0
 62
7
  6
CONTINUOUS
 10
305.7924232043
 20
128.7352392319
 11
305.8924232162
 21
128.7352392319
  0
LINE
  8
0
 62
7
  6
CONTINUOUS
 10
305.8924232162
 20
128.8373668882
 11
305.7924232043
 21
128.8373668882
  0
LINE
  8
0
 62
7
  6
CONTINUOUS
 10
305.5174232162
 20
128.8373668882
 11
305.3924231924
 21
128.8373668882
  0
LINE
  8
0
 62
7
  6
CONTINUOUS
 10
305.19242324
 20
128.8373668882
 11
305.0674232162
 21
128.8373668882
  0
LINE
  8
0
 62
7
  6
CONTINUOUS
 10
304.6174232162
 20
128.8373668882
 11
304.4924232639
 21
128.8373668882
  0
LINE
  8
0
 62
7
  6
CONTINUOUS
 10
304.2924231685
 20
128.8373668882
 11
304.1674232162
 21
128.8373668882
  0
LINE
  8
0
 62
7
  6
CONTINUOUS
 10
302.4174233116
 20
128.8373668882
 11
302.2174232162
 21
128.8373668882
  0
LINE
  8
0
 62
7
  6
CONTINUOUS
 10
301.0924232162
 20
128.8373668882
 11
300.9424232162
 21
128.8373668882
  0
LINE
  8
0
 62
7
  6
CONTINUOUS
 10
300.5924234069
 20
128.8373668882
 11
300.3924230255
 21
128.8373668882
  0
LINE
  8
0
 62
7
  6
CONTINUOUS
 10
300.0424232162
 20
128.8373668882
 11
299.8924232162
 21
128.8373668882
  0
LINE
  8
0
 62
7
  6
CONTINUOUS
 10
299.6924234069
 20
128.8373668882
 11
299.5424234069
 21
128.8373668882
  0
LINE
  8
0
 62
7
  6
CONTINUOUS
 10
298.5674234069
 20
128.8373668882
 11
297.9674234069
 21
128.8373668882
  0
LINE
  8
0
 62
7
  6
CONTINUOUS
 10
296.2424228347
 20
128.8373668882
 11
296.0924228347
 21
128.8373668882
  0
LINE
  8
0
 62
7
  6
CONTINUOUS
 10
295.1174228347
 20
128.8373668882
 11
294.9674228347
 21
128.8373668882
  0
LINE
  8
0
 62
7
  6
CONTINUOUS
 10
297.8424230255
 20
127.6628988001
 11
297.9674234069
 21
127.6373668882
  0
LINE
  8
0
 62
7
  6
CONTINUOUS
 10
298.9674230255
 20
127.6628988001
 11
299.0924234069
 21
127.6373668882
  0
LINE
  8
0
 62
7
  6
CONTINUOUS
 10
302.1174233116
 20
127.6628988001
 11
302.2424231208
 21
127.6373668882
  0
LINE
  8
0
 62
7
  6
CONTINUOUS
 10
302.0924231208
 20
128.1735371086
 11
302.2174232162
 21
128.1480051968
  0
LINE
  8
0
 62
7
  6
CONTINUOUS
 10
297.9424232162
 20
127.7905583593
 11
297.8674232162
 21
127.8160902712
  0
LINE
  8
0
 62
7
  6
CONTINUOUS
 10
299.0674232162
 20
127.7650264475
 11
298.9924232162
 21
127.7905583593
  0
LINE
  8
0
 62
7
  6
CONTINUOUS
 10
297.9424232162
 20
128.3011966679
 11
297.8674232162
 21
128.3267285797
  0
LINE
  8
0
 62
7
  6
CONTINUOUS
 10
297.7424234069
 20
128.2501328442
 11
297.7924232162
 21
128.2246009323
  0
LINE
  8
0
 62
7
  6
CONTINUOUS
 10
297.7424234069
 20
127.7394945356
 11
297.8424230255
 21
127.6628988001
  0
LINE
  8
0
 62
7
  6
CONTINUOUS
 10
295.5424232162
 20
127.7905583593
 11
295.4924228347
 21
127.841622183
  0
LINE
  8
0
 62
7
  6
CONTINUOUS
 10
295.3424228347
 20
127.841622183
 11
295.4174228347
 21
127.7394945356
  0
LINE
  8
0
 62
7
  6
CONTINUOUS
 10
294.1924232162
 20
127.9182179186
 11
294.2174228347
 21
127.841622183
  0
LINE
  8
0
 62
7
  6
CONTINUOUS
 10
294.3674228347
 20
127.841622183
 11
294.3424232162
 21
127.9182179186
  0
LINE
  8
0
 62
7
  6
CONTINUOUS
 10
295.6424228347
 20
128.3011966679
 11
295.5174235977
 21
128.275664756
  0
LINE
  8
0
 62
7
  6
CONTINUOUS
 10
297.9674234069
 20
128.8373668882
 11
297.8424230255
 21
128.8118349741
  0
LINE
  8
0
 62
7
  6
CONTINUOUS
 10
294.5174228347
 20
128.3011966679
 11
294.3924235977
 21
128.275664756
  0
LINE
  8
0
 62
7
  6
CONTINUOUS
 10
302.5424231208
 20
128.8118349741
 11
302.4174233116
 21
128.8373668882
  0
LINE
  8
0
 62
7
  6
CONTINUOUS
 10
302.2174232162
 20
128.3011966679
 11
302.1174233116
 21
128.3267285797
  0
LINE
  8
0
 62
7
  6
CONTINUOUS
 10
302.4674231208
 20
128.275664756
 11
302.3674232162
 21
128.3011966679
  0
LINE
  8
0
 62
7
  6
CONTINUOUS
 10
302.4174233116
 20
128.6841753992
 11
302.5174232162
 21
128.6586434874
  0
LINE
  8
0
 62
7
  6
CONTINUOUS
 10
304.8424232162
 20
128.1224732849
 11
304.7424231685
 21
128.1480051968
  0
LINE
  8
0
 62
7
  6
CONTINUOUS
 10
302.2174232162
 20
127.7905583593
 11
302.1424232162
 21
127.8160902712
  0
LINE
  8
0
 62
7
  6
CONTINUOUS
 10
302.3674232162
 20
128.1480051968
 11
302.4424232162
 21
128.1224732849
  0
LINE
  8
0
 62
7
  6
CONTINUOUS
 10
304.6674231685
 20
128.0458775494
 11
304.7424231685
 21
128.0203456375
  0
LINE
  8
0
 62
7
  6
CONTINUOUS
 10
301.9924232162
 20
128.2246009323
 11
302.0924231208
 21
128.1735371086
  0
LINE
  8
0
 62
7
  6
CONTINUOUS
 10
302.5674233116
 20
128.2246009323
 11
302.4674231208
 21
128.275664756
  0
LINE
  8
0
 62
7
  6
CONTINUOUS
 10
298.8674234069
 20
127.7394945356
 11
298.9674230255
 21
127.6628988001
  0
LINE
  8
0
 62
7
  6
CONTINUOUS
 10
297.8674232162
 20
127.8160902712
 11
297.8174234069
 21
127.8671540949
  0
LINE
  8
0
 62
7
  6
CONTINUOUS
 10
297.8674232162
 20
128.3267285797
 11
297.8174234069
 21
128.3777924034
  0
LINE
  8
0
 62
7
  6
CONTINUOUS
 10
298.9924232162
 20
127.7905583593
 11
298.9424234069
 21
127.841622183
  0
LINE
  8
0
 62
7
  6
CONTINUOUS
 10
290.175991873
 20
136.2226937363
 11
293.9843201482
 21
131.5089246055
  0
LINE
  8
0
 62
7
  6
CONTINUOUS
 10
297.6674234069
 20
127.841622183
 11
297.7424234069
 21
127.7394945356
  0
LINE
  8
0
 62
7
  6
CONTINUOUS
 10
297.6674234069
 20
128.3522604916
 11
297.7424234069
 21
128.2501328442
  0
LINE
  8
0
 62
7
  6
CONTINUOUS
 10
295.3174232162
 20
127.9182179186
 11
295.3424228347
 21
127.841622183
  0
LINE
  8
0
 62
7
  6
CONTINUOUS
 10
295.4924228347
 20
127.841622183
 11
295.4674232162
 21
127.9182179186
  0
LINE
  8
0
 62
7
  6
CONTINUOUS
 10
294.1924232162
 20
128.0203456375
 11
294.1924232162
 21
127.9182179186
  0
LINE
  8
0
 62
7
  6
CONTINUOUS
 10
294.3424232162
 20
127.9182179186
 11
294.3424232162
 21
127.9948137257
  0
LINE
  8
0
 62
7
  6
CONTINUOUS
 10
294.9674228347
 20
128.8373668882
 11
294.9674228347
 21
128.3011966679
  0
LINE
  8
0
 62
7
  6
CONTINUOUS
 10
294.9674228347
 20
128.1480051968
 11
294.9674228347
 21
127.7650264475
  0
LINE
  8
0
 62
6
  6
CONTINUOUS
 10
295.0924232162
 20
127.1373668882
 11
295.0924232162
 21
131.1373668882
  0
LINE
  8
0
 62
7
  6
CONTINUOUS
 10
295.1174228347
 20
127.6373668882
 11
295.1174228347
 21
128.8373668882
  0
LINE
  8
0
 62
7
  6
CONTINUOUS
 10
295.3174232162
 20
128.0203456375
 11
295.3174232162
 21
127.9182179186
  0
LINE
  8
0
 62
7
  6
CONTINUOUS
 10
295.4674232162
 20
127.9182179186
 11
295.4674232162
 21
127.9948137257
  0
POLYLINE
  8
0
 62
7
  6
CONTINUOUS
 66
1
 70
0
  0
VERTEX
  8
0
 62
7
  6
CONTINUOUS
 10
294.4924232162
 20
130.1373668882
  0
VERTEX
  8
0
 62
7
  6
CONTINUOUS
 10
294.5045423627
 20
130.3104829196
  0
VERTEX
  8
0
 62
7
  6
CONTINUOUS
 10
294.5130349205
 20
130.4785632761
  0
VERTEX
  8
0
 62
7
  6
CONTINUOUS
 10
294.5180273774
 20
130.6364721715
  0
VERTEX
  8
0
 62
7
  6
CONTINUOUS
 10
294.5197392233
 20
130.7793529603
  0
VERTEX
  8
0
 62
7
  6
CONTINUOUS
 10
294.5184779173
 20
130.9027974542
  0
VERTEX
  8
0
 62
7
  6
CONTINUOUS
 10
294.5146312236
 20
131.002996492
  0
VERTEX
  8
0
 62
7
  6
CONTINUOUS
 10
294.5086568132
 20
131.0768624491
  0
VERTEX
  8
0
 62
7
  6
CONTINUOUS
 10
294.5010690572
 20
131.1221200308
  0
VERTEX
  8
0
 62
7
  6
CONTINUOUS
 10
294.4924232162
 20
131.1373668882
  0
SEQEND
  0
LINE
  8
0
 62
6
  6
CONTINUOUS
 10
303.8924232162
 20
131.1373668882
 11
303.6226700653
 21
131.1373668882
  0
LINE
  8
0
 62
7
  6
CONTINUOUS
 10
303.6226700653
 20
131.1373668882
 11
302.8692869593
 21
131.1373668882
  0
LINE
  8
0
 62
7
  6
CONTINUOUS
 10
295.5155594731
 20
131.1373668882
 11
294.4924232162
 21
131.1373668882
  0
LINE
  8
DEFAULT_1
 62
2
  6
CENTER
 10
317.1424232162
 20
132.2373668882
 11
316.5424232162
 21
132.2373668882
  0
LINE
  8
0
 62
2
  6
CONTINUOUS
 10
312.9424232162
 20
132.2373668882
 11
310.8424232162
 21
132.2373668882
  0
LINE
  8
DEFAULT_1
 62
2
  6
CENTER
 10
291.7424232162
 20
132.2373668882
 11
291.1424232162
 21
132.2373668882
  0
LINE
  8
0
 62
2
  6
CONTINUOUS
 10
287.5424232162
 20
132.2373668882
 11
285.4424232162
 21
132.2373668882
  0
LINE
  8
DEFAULT_1
 62
2
  6
CENTER
 10
281.2424232162
 20
132.2373668882
 11
281.8424232162
 21
132.2373668882
  0
LINE
  8
DEFAULT_1
 62
2
  6
CENTER
 10
306.6424232162
 20
132.2373668882
 11
307.2424232162
 21
132.2373668882
  0
LINE
  8
0
 62
7
  6
CONTINUOUS
 10
305.9924232102
 20
128.8118349741
 11
305.8924232162
 21
128.8373668882
  0
LINE
  8
0
 62
7
  6
CONTINUOUS
 10
304.7424231685
 20
128.1480051968
 11
304.6924232162
 21
128.1735371086
  0
LINE
  8
0
 62
7
  6
CONTINUOUS
 10
302.6674232162
 20
128.7352392319
 11
302.5424231208
 21
128.8118349741
  0
LINE
  8
0
 62
7
  6
CONTINUOUS
 10
302.1174233116
 20
128.3267285797
 11
302.0424233116
 21
128.3777924034
  0
LINE
  8
0
 62
7
  6
CONTINUOUS
 10
302.4424232162
 20
128.1224732849
 11
302.5174232162
 21
128.0714094612
  0
LINE
  8
0
 62
7
  6
CONTINUOUS
 10
302.0174231208
 20
127.7394945356
 11
302.1174233116
 21
127.6628988001
  0
LINE
  8
0
 62
7
  6
CONTINUOUS
 10
302.1424232162
 20
127.8160902712
 11
302.0924231208
 21
127.8671540949
  0
LINE
  8
0
 62
7
  6
CONTINUOUS
 10
298.7924234069
 20
127.841622183
 11
298.8674234069
 21
127.7394945356
  0
LINE
  8
0
 62
7
  6
CONTINUOUS
 10
297.6424232162
 20
127.9182179186
 11
297.6674234069
 21
127.841622183
  0
LINE
  8
0
 62
7
  6
CONTINUOUS
 10
297.8174234069
 20
127.8671540949
 11
297.7924232162
 21
127.943749902
  0
LINE
  8
0
 62
7
  6
CONTINUOUS
 10
297.6424232162
 20
128.4288562629
 11
297.6674234069
 21
128.3522604916
  0
LINE
  8
0
 62
7
  6
CONTINUOUS
 10
297.8174234069
 20
128.3777924034
 11
297.7924232162
 21
128.4543881747
  0
LINE
  8
0
 62
7
  6
CONTINUOUS
 10
296.0924228347
 20
128.8373668882
 11
296.0924228347
 21
128.3011966679
  0
LINE
  8
0
 62
7
  6
CONTINUOUS
 10
296.0924228347
 20
128.1480051968
 11
296.0924228347
 21
127.7650264475
  0
LINE
  8
0
 62
7
  6
CONTINUOUS
 10
296.2424228347
 20
127.6373668882
 11
296.2424228347
 21
128.8373668882
  0
LINE
  8
0
 62
7
  6
CONTINUOUS
 10
297.6424232162
 20
128.5565158221
 11
297.6424232162
 21
128.4288562629
  0
LINE
  8
0
 62
7
  6
CONTINUOUS
 10
297.6424232162
 20
128.0203456375
 11
297.6424232162
 21
127.9182179186
  0
LINE
  8
0
 62
7
  6
CONTINUOUS
 10
294.2174228347
 20
128.0969413731
 11
294.1924232162
 21
128.0203456375
  0
LINE
  8
0
 62
7
  6
CONTINUOUS
 10
294.3424232162
 20
127.9948137257
 11
294.3674228347
 21
128.0714094612
  0
LINE
  8
0
 62
6
  6
CONTINUOUS
 10
306.208089702
 20
130.1609317911
 11
304.3150414779
 21
131.0436746753
  0
LINE
  8
0
 62
7
  6
CONTINUOUS
 10
305.8924232162
 20
128.7352392319
 11
305.9924232102
 21
128.6841753992
  0
LINE
  8
0
 62
7
  6
CONTINUOUS
 10
304.5924231685
 20
128.0969413731
 11
304.6674231685
 21
128.0458775494
  0
LINE
  8
0
 62
7
  6
CONTINUOUS
 10
306.0674232192
 20
128.7607711437
 11
305.9924232102
 21
128.8118349741
  0
LINE
  8
0
 62
7
  6
CONTINUOUS
 10
301.8924233116
 20
128.3267285797
 11
301.9924232162
 21
128.2246009323
  0
LINE
  8
0
 62
7
  6
CONTINUOUS
 10
302.6674232162
 20
128.1224732849
 11
302.5674233116
 21
128.2246009323
  0
LINE
  8
0
 62
7
  6
CONTINUOUS
 10
302.5174232162
 20
128.6586434874
 11
302.5924232162
 21
128.582047734
  0
LINE
  8
0
 62
7
  6
CONTINUOUS
 10
301.9424231208
 20
127.841622183
 11
302.0174231208
 21
127.7394945356
  0
LINE
  8
0
 62
7
  6
CONTINUOUS
 10
302.0424233116
 20
128.3777924034
 11
301.9924232162
 21
128.4543881747
  0
LINE
  8
0
 62
7
  6
CONTINUOUS
 10
298.7674232162
 20
127.9182179186
 11
298.7924234069
 21
127.841622183
  0
LINE
  8
0
 62
7
  6
CONTINUOUS
 10
298.9424234069
 20
127.841622183
 11
298.9174232162
 21
127.9182179186
  0
LINE
  8
0
 62
7
  6
CONTINUOUS
 10
297.7924232162
 20
127.943749902
 11
297.7924232162
 21
127.9948137257
  0
LINE
  8
0
 62
7
  6
CONTINUOUS
 10
297.7924232162
 20
128.4543881747
 11
297.7924232162
 21
128.5309839103
  0
LINE
  8
0
 62
7
  6
CONTINUOUS
 10
298.4174234069
 20
128.6841753992
 11
298.4174234069
 21
128.3011966679
  0
LINE
  8
0
 62
7
  6
CONTINUOUS
 10
298.4174234069
 20
128.1480051968
 11
298.4174234069
 21
127.7905583593
  0
LINE
  8
0
 62
7
  6
CONTINUOUS
 10
298.5674234069
 20
127.6373668882
 11
298.5674234069
 21
128.8373668882
  0
LINE
  8
0
 62
7
  6
CONTINUOUS
 10
298.7674232162
 20
128.0203456375
 11
298.7674232162
 21
127.9182179186
  0
LINE
  8
0
 62
7
  6
CONTINUOUS
 10
298.9174232162
 20
127.9182179186
 11
298.9174232162
 21
127.9948137257
  0
LINE
  8
DEFAULT_1
 62
2
  6
CENTER
 10
299.1924232162
 20
124.8917952171
 11
299.1924232162
 21
146.3373668882
  0
POLYLINE
  8
0
 62
7
  6
CONTINUOUS
 66
1
 70
0
  0
VERTEX
  8
0
 62
7
  6
CONTINUOUS
 10
298.9181627065
 20
136.1373668882
  0
VERTEX
  8
0
 62
7
  6
CONTINUOUS
 10
298.9353522063
 20
136.3099453762
  0
VERTEX
  8
0
 62
7
  6
CONTINUOUS
 10
298.9474050291
 20
136.4777311572
  0
VERTEX
  8
0
 62
7
  6
CONTINUOUS
 10
298.9544998622
 20
136.6355685667
  0
VERTEX
  8
0
 62
7
  6
CONTINUOUS
 10
298.9569458759
 20
136.7785440157
  0
VERTEX
  8
0
 62
7
  6
CONTINUOUS
 10
298.955174437
 20
136.9021787291
  0
VERTEX
  8
0
 62
7
  6
CONTINUOUS
 10
298.9497288631
 20
137.0025983807
  0
VERTEX
  8
0
 62
7
  6
CONTINUOUS
 10
298.9412514781
 20
137.0766647679
  0
VERTEX
  8
0
 62
7
  6
CONTINUOUS
 10
298.9304671599
 20
137.1220654192
  0
VERTEX
  8
0
 62
7
  6
CONTINUOUS
 10
298.9181627065
 20
137.1373668882
  0
SEQEND
  0
LINE
  8
0
 62
7
  6
CONTINUOUS
 10
297.9671061902
 20
136.4463838826
 11
296.4666159894
 21
131.8283498939
  0
LINE
  8
0
 62
7
  6
CONTINUOUS
 10
295.3424228347
 20
128.0969413731
 11
295.3174232162
 21
128.0203456375
  0
LINE
  8
0
 62
7
  6
CONTINUOUS
 10
295.4674232162
 20
127.9948137257
 11
295.4924228347
 21
128.0714094612
  0
LINE
  8
0
 62
7
  6
CONTINUOUS
 10
304.5424232162
 20
128.1480051968
 11
304.5924231685
 21
128.0969413731
  0
LINE
  8
0
 62
7
  6
CONTINUOUS
 10
304.6924232162
 20
128.1735371086
 11
304.6424232639
 21
128.2246009323
  0
LINE
  8
0
 62
7
  6
CONTINUOUS
 10
306.1424232147
 20
128.6841753992
 11
306.0674232192
 21
128.7607711437
  0
LINE
  8
0
 62
7
  6
CONTINUOUS
 10
302.7424232162
 20
128.6075796458
 11
302.6674232162
 21
128.7352392319
  0
LINE
  8
0
 62
7
  6
CONTINUOUS
 10
302.0924231208
 20
127.8671540949
 11
302.0674232162
 21
127.9182179186
  0
LINE
  8
0
 62
7
  6
CONTINUOUS
 10
301.8424232162
 20
128.4288562629
 11
301.8924233116
 21
128.3267285797
  0
LINE
  8
0
 62
7
  6
CONTINUOUS
 10
300.9424232162
 20
127.8926860067
 11
300.5924234069
 21
128.8373668882
  0
LINE
  8
0
 62
7
  6
CONTINUOUS
 10
300.4924232162
 20
128.7097073111
 11
300.8674232162
 21
127.6373668882
  0
LINE
  8
0
 62
7
  6
CONTINUOUS
 10
301.9174232162
 20
127.9182179186
 11
301.9424231208
 21
127.841622183
  0
LINE
  8
0
 62
7
  6
CONTINUOUS
 10
299.5424234069
 20
128.8373668882
 11
299.5424234069
 21
128.3011966679
  0
LINE
  8
0
 62
7
  6
CONTINUOUS
 10
299.5424234069
 20
128.1480051968
 11
299.5424234069
 21
127.7650264475
  0
LINE
  8
0
 62
7
  6
CONTINUOUS
 10
299.6924234069
 20
127.6373668882
 11
299.6924234069
 21
128.8373668882
  0
LINE
  8
0
 62
7
  6
CONTINUOUS
 10
299.8924232162
 20
128.8373668882
 11
299.8924232162
 21
127.6373668882
  0
LINE
  8
0
 62
7
  6
CONTINUOUS
 10
300.0424232162
 20
127.8926860067
 11
300.0424232162
 21
128.8373668882
  0
LINE
  8
0
 62
7
  6
CONTINUOUS
 10
300.9424232162
 20
128.8373668882
 11
300.9424232162
 21
127.8926860067
  0
LINE
  8
0
 62
7
  6
CONTINUOUS
 10
301.0924232162
 20
127.6373668882
 11
301.0924232162
 21
128.8373668882
  0
LINE
  8
0
 62
7
  6
CONTINUOUS
 10
297.6674234069
 20
128.6331115755
 11
297.6424232162
 21
128.5565158221
  0
LINE
  8
0
 62
7
  6
CONTINUOUS
 10
297.7924232162
 20
128.5309839103
 11
297.8174234069
 21
128.6075796458
  0
LINE
  8
0
 62
7
  6
CONTINUOUS
 10
297.6674234069
 20
128.0969413731
 11
297.6424232162
 21
128.0203456375
  0
LINE
  8
0
 62
7
  6
CONTINUOUS
 10
297.7924232162
 20
127.9948137257
 11
297.8174234069
 21
128.0714094612
  0
LINE
  8
0
 62
7
  6
CONTINUOUS
 10
298.7924234069
 20
128.0969413731
 11
298.7674232162
 21
128.0203456375
  0
LINE
  8
0
 62
7
  6
CONTINUOUS
 10
294.2924228347
 20
128.1990690205
 11
294.2174228347
 21
128.0969413731
  0
LINE
  8
0
 62
7
  6
CONTINUOUS
 10
295.4174228347
 20
128.1990690205
 11
295.3424228347
 21
128.0969413731
  0
LINE
  8
0
 62
7
  6
CONTINUOUS
 10
294.3674228347
 20
128.0714094612
 11
294.4174232162
 21
128.1224732849
  0
POLYLINE
  8
0
 62
7
  6
CONTINUOUS
 66
1
 70
0
  0
VERTEX
  8
0
 62
7
  6
CONTINUOUS
 10
299.4666837259
 20
136.1373668882
  0
VERTEX
  8
0
 62
7
  6
CONTINUOUS
 10
299.6361274687
 20
136.1743483881
  0
VERTEX
  8
0
 62
7
  6
CONTINUOUS
 10
299.7994257558
 20
136.2147341304
  0
VERTEX
  8
0
 62
7
  6
CONTINUOUS
 10
299.9517304765
 20
136.2567609854
  0
VERTEX
  8
0
 62
7
  6
CONTINUOUS
 10
300.0884640686
 20
136.2986165321
  0
VERTEX
  8
0
 62
7
  6
CONTINUOUS
 10
300.2055002637
 20
136.3385064986
  0
VERTEX
  8
0
 62
7
  6
CONTINUOUS
 10
300.2993222529
 20
136.3747169262
  0
VERTEX
  8
0
 62
7
  6
CONTINUOUS
 10
300.3671439173
 20
136.4056671707
  0
VERTEX
  8
0
 62
7
  6
CONTINUOUS
 10
300.4069899652
 20
136.429953239
  0
VERTEX
  8
0
 62
7
  6
CONTINUOUS
 10
300.4177402422
 20
136.4463838826
  0
SEQEND
  0
LINE
  8
0
 62
7
  6
CONTINUOUS
 10
299.4666837259
 20
137.1373668882
 11
298.9181627065
 21
137.1373668882
  0
LINE
  8
0
 62
7
  6
CONTINUOUS
 10
313.5087461942
 20
137.3373668882
 11
310.5424232162
 21
137.3373668882
  0
LINE
  8
0
 62
6
  6
CONTINUOUS
 10
284.8765329532
 20
137.3373668882
 11
284.8761002287
 21
137.3373668882
  0
LINE
  8
0
 62
7
  6
CONTINUOUS
 10
284.8761002287
 20
137.3373668882
 11
287.8424232162
 21
137.3373668882
  0
LINE
  8
0
 62
6
  6
CONTINUOUS
 10
313.5083135523
 20
137.3373668882
 11
313.5087462037
 21
137.3373668882
  0
LINE
  8
0
 62
7
  6
CONTINUOUS
 10
305.9924232102
 20
128.6841753992
 11
306.0424232162
 21
128.6075796458
  0
LINE
  8
0
 62
7
  6
CONTINUOUS
 10
302.5174232162
 20
128.0714094612
 11
302.5424231208
 21
127.9948137257
  0
LINE
  8
0
 62
7
  6
CONTINUOUS
 10
302.5924232162
 20
128.582047734
 11
302.6174231208
 21
128.5054519984
  0
LINE
  8
0
 62
7
  6
CONTINUOUS
 10
301.918230443
 20
131.8283498939
 11
300.4177402422
 21
136.4463838826
  0
LINE
  8
0
 62
7
  6
CONTINUOUS
 10
302.6924231208
 20
128.0203456375
 11
302.6674232162
 21
128.1224732849
  0
LINE
  8
0
 62
7
  6
CONTINUOUS
 10
302.7674231208
 20
128.5054519984
 11
302.7424232162
 21
128.6075796458
  0
LINE
  8
0
 62
7
  6
CONTINUOUS
 10
301.2924230255
 20
128.403324351
 11
301.2924230255
 21
128.275664756
  0
LINE
  8
0
 62
7
  6
CONTINUOUS
 10
301.6424231208
 20
128.275664756
 11
301.6424231208
 21
128.403324351
  0
LINE
  8
0
 62
7
  6
CONTINUOUS
 10
301.8424232162
 20
128.5565158221
 11
301.8424232162
 21
128.4288562629
  0
LINE
  8
0
 62
7
  6
CONTINUOUS
 10
301.9924232162
 20
128.4543881747
 11
301.9924232162
 21
128.5309839103
  0
LINE
  8
0
 62
7
  6
CONTINUOUS
 10
302.5424231208
 20
127.9948137257
 11
302.5424231208
 21
127.943749902
  0
LINE
  8
0
 62
7
  6
CONTINUOUS
 10
302.6924231208
 20
127.9182179186
 11
302.6924231208
 21
128.0203456375
  0
LINE
  8
0
 62
7
  6
CONTINUOUS
 10
298.9174232162
 20
127.9948137257
 11
298.9424234069
 21
128.0714094612
  0
LINE
  8
0
 62
7
  6
CONTINUOUS
 10
300.1174232162
 20
127.6373668882
 11
300.4924232162
 21
128.7097073111
  0
LINE
  8
0
 62
7
  6
CONTINUOUS
 10
300.3924230255
 20
128.8373668882
 11
300.0424232162
 21
127.8926860067
  0
LINE
  8
0
 62
7
  6
CONTINUOUS
 10
297.7424234069
 20
128.7352392319
 11
297.6674234069
 21
128.6331115755
  0
LINE
  8
0
 62
7
  6
CONTINUOUS
 10
297.7424234069
 20
128.1990690205
 11
297.6674234069
 21
128.0969413731
  0
LINE
  8
0
 62
7
  6
CONTINUOUS
 10
295.4924228347
 20
128.0714094612
 11
295.5424232162
 21
128.1224732849
  0
LINE
  8
0
 62
7
  6
CONTINUOUS
 10
294.3924235977
 20
128.275664756
 11
294.2924228347
 21
128.1990690205
  0
LINE
  8
0
 62
7
  6
CONTINUOUS
 10
295.5174235977
 20
128.275664756
 11
295.4174228347
 21
128.1990690205
  0
LINE
  8
0
 62
7
  6
CONTINUOUS
 10
294.0698049545
 20
131.0436746753
 11
292.1767568423
 21
130.1609318433
  0
LINE
  8
0
 62
7
  6
CONTINUOUS
 10
305.3924231924
 20
128.8373668882
 11
305.41742324
 21
128.7863030601
  0
LINE
  8
0
 62
7
  6
CONTINUOUS
 10
306.1674232155
 20
128.6331115755
 11
306.1424232147
 21
128.6841753992
  0
LINE
  8
0
 62
7
  6
CONTINUOUS
 10
305.56742324
 20
128.7097073111
 11
305.5174232162
 21
128.8373668882
  0
LINE
  8
0
 62
7
  6
CONTINUOUS
 10
304.5174231685
 20
128.2246009323
 11
304.5424232162
 21
128.1480051968
  0
LINE
  8
0
 62
6
  6
CONTINUOUS
 10
303.2924232162
 20
131.1373668882
 11
303.2924232162
 21
127.1373668882
  0
LINE
  8
0
 62
7
  6
CONTINUOUS
 10
304.1674232162
 20
128.8373668882
 11
304.1674232162
 21
128.0203456375
  0
LINE
  8
0
 62
7
  6
CONTINUOUS
 10
304.1674232162
 20
127.7650264475
 11
304.1674232162
 21
127.6373668882
  0
LINE
  8
0
 62
7
  6
CONTINUOUS
 10
304.2924231685
 20
127.6373668882
 11
304.2924231685
 21
127.7650264475
  0
LINE
  8
0
 62
7
  6
CONTINUOUS
 10
304.2924231685
 20
128.0203456375
 11
304.2924231685
 21
128.8373668882
  0
LINE
  8
0
 62
7
  6
CONTINUOUS
 10
304.4924232639
 20
128.8373668882
 11
304.4924232639
 21
128.3522604916
  0
LINE
  8
0
 62
7
  6
CONTINUOUS
 10
304.6174232162
 20
128.3522604916
 11
304.6174232162
 21
128.8373668882
  0
LINE
  8
0
 62
7
  6
CONTINUOUS
 10
302.6674232162
 20
127.8160902712
 11
302.6924231208
 21
127.9182179186
  0
LINE
  8
0
 62
7
  6
CONTINUOUS
 10
298.8674234069
 20
128.1990690205
 11
298.7924234069
 21
128.0969413731
  0
LINE
  8
0
 62
7
  6
CONTINUOUS
 10
297.8174234069
 20
128.6075796458
 11
297.8674232162
 21
128.6586434874
  0
LINE
  8
0
 62
7
  6
CONTINUOUS
 10
297.8174234069
 20
128.0714094612
 11
297.8674232162
 21
128.1224732849
  0
LINE
  8
0
 62
7
  6
CONTINUOUS
 10
298.9424234069
 20
128.0714094612
 11
298.9924232162
 21
128.1224732849
  0
LINE
  8
0
 62
7
  6
CONTINUOUS
 10
297.8424230255
 20
128.8118349741
 11
297.7424234069
 21
128.7352392319
  0
LINE
  8
0
 62
7
  6
CONTINUOUS
 10
306.0424232162
 20
128.6075796458
 11
306.0674232192
 21
128.5309839103
  0
LINE
  8
0
 62
7
  6
CONTINUOUS
 10
305.41742324
 20
128.7863030601
 11
305.4424232162
 21
128.6841753992
  0
LINE
  8
0
 62
7
  6
CONTINUOUS
 10
306.1924232162
 20
128.5309839103
 11
306.1674232155
 21
128.6331115755
  0
LINE
  8
0
 62
7
  6
CONTINUOUS
 10
304.4924232639
 20
128.3522604916
 11
304.5174231685
 21
128.2246009323
  0
LINE
  8
0
 62
7
  6
CONTINUOUS
 10
304.6424232639
 20
128.2246009323
 11
304.6174232162
 21
128.3522604916
  0
LINE
  8
0
 62
7
  6
CONTINUOUS
 10
305.8035839576
 20
143.3722663849
 11
306.1425643782
 21
133.6651372004
  0
LINE
  8
0
 62
7
  6
CONTINUOUS
 10
305.0674232162
 20
128.8373668882
 11
305.0674232162
 21
128.2501328442
  0
LINE
  8
0
 62
7
  6
CONTINUOUS
 10
305.0674232162
 20
128.1480051968
 11
305.0674232162
 21
128.0203456375
  0
LINE
  8
0
 62
7
  6
CONTINUOUS
 10
305.19242324
 20
128.0203456375
 11
305.19242324
 21
128.8373668882
  0
LINE
  8
0
 62
7
  6
CONTINUOUS
 10
305.4424232162
 20
128.6841753992
 11
305.4424232162
 21
128.0203456375
  0
LINE
  8
0
 62
7
  6
CONTINUOUS
 10
305.56742324
 20
128.0203456375
 11
305.56742324
 21
128.582047734
  0
LINE
  8
0
 62
7
  6
CONTINUOUS
 10
306.0674232192
 20
128.5309839103
 11
306.0674232192
 21
128.0203456375
  0
LINE
  8
0
 62
7
  6
CONTINUOUS
 10
306.1924232162
 20
128.0203456375
 11
306.1924232162
 21
128.5309839103
  0
LINE
  8
0
 62
7
  6
CONTINUOUS
 10
302.5424231208
 20
127.943749902
 11
302.5174232162
 21
127.8671540949
  0
LINE
  8
0
 62
7
  6
CONTINUOUS
 10
301.8924233116
 20
128.6586434874
 11
301.8424232162
 21
128.5565158221
  0
LINE
  8
0
 62
7
  6
CONTINUOUS
 10
301.9924232162
 20
128.5309839103
 11
302.0424233116
 21
128.6075796458
  0
LINE
  8
0
 62
7
  6
CONTINUOUS
 10
308.2088545594
 20
136.2226937363
 11
304.4005262843
 21
131.5089246055
  0
LINE
  8
0
 62
7
  6
CONTINUOUS
 10
301.9924232162
 20
128.7607711437
 11
301.8924233116
 21
128.6586434874
  0
LINE
  8
0
 62
7
  6
CONTINUOUS
 10
298.9674230255
 20
128.275664756
 11
298.8674234069
 21
128.1990690205
  0
LINE
  8
0
 62
7
  6
CONTINUOUS
 10
297.7924232162
 20
128.2246009323
 11
297.7424234069
 21
128.1990690205
  0
LINE
  8
0
 62
7
  6
CONTINUOUS
 10
294.4174232162
 20
128.1224732849
 11
294.4924232162
 21
128.1480051968
  0
LINE
  8
0
 62
7
  6
CONTINUOUS
 10
295.5424232162
 20
128.1224732849
 11
295.6174232162
 21
128.1480051968
  0
LINE
  8
0
 62
7
  6
CONTINUOUS
 10
297.8674232162
 20
128.6586434874
 11
297.9424232162
 21
128.6841753992
  0
LINE
  8
0
 62
7
  6
CONTINUOUS
 10
297.8674232162
 20
128.1224732849
 11
297.9424232162
 21
128.1480051968
  0
LINE
  8
0
 62
7
  6
CONTINUOUS
 10
298.9924232162
 20
128.1224732849
 11
299.0674232162
 21
128.1480051968
  0
LINE
  8
0
 62
7
  6
CONTINUOUS
 10
302.5674233116
 20
127.7139626238
 11
302.6674232162
 21
127.8160902712
  0
LINE
  8
0
 62
7
  6
CONTINUOUS
 10
302.0424233116
 20
128.6075796458
 11
302.1174233116
 21
128.6586434874
  0
LINE
  8
0
 62
7
  6
CONTINUOUS
 10
302.5174232162
 20
127.8671540949
 11
302.4424232162
 21
127.8160902712
  0
LINE
  8
0
 62
7
  6
CONTINUOUS
 10
302.0924231208
 20
128.8118349741
 11
301.9924232162
 21
128.7607711437
  0
LINE
  8
0
 62
7
  6
CONTINUOUS
 10
302.4674231208
 20
127.6628988001
 11
302.5674233116
 21
127.7139626238
  0
LINE
  8
0
 62
7
  6
CONTINUOUS
 10
302.4424232162
 20
127.8160902712
 11
302.3674232162
 21
127.7905583593
  0
LINE
  8
0
 62
7
  6
CONTINUOUS
 10
293.5806533019
 20
144.3373668882
 11
304.8041931305
 21
144.3373668882
  0
LINE
  8
0
 62
7
  6
CONTINUOUS
 10
305.56742324
 20
128.582047734
 11
305.6174232281
 21
128.6586434874
  0
LINE
  8
0
 62
7
  6
CONTINUOUS
 10
305.0674232162
 20
128.2501328442
 11
305.0174231924
 21
128.1990690205
  0
LINE
  8
0
 62
7
  6
CONTINUOUS
 10
305.6424232043
 20
128.7863030601
 11
305.56742324
 21
128.7097073111
  0
LINE
  8
0
 62
7
  6
CONTINUOUS
 10
305.0174231924
 20
128.0969413731
 11
305.0674232162
 21
128.1480051968
  0
LINE
  8
0
 62
7
  6
CONTINUOUS
 10
305.6174232281
 20
128.6586434874
 11
305.6924232281
 21
128.7097073111
  0
LINE
  8
0
 62
7
  6
CONTINUOUS
 10
305.0174231924
 20
128.1990690205
 11
304.9424232639
 21
128.1480051968
  0
LINE
  8
0
 62
7
  6
CONTINUOUS
 10
304.9424232639
 20
128.0458775494
 11
305.0174231924
 21
128.0969413731
  0
LINE
  8
0
 62
7
  6
CONTINUOUS
 10
305.6924232281
 20
128.8118349741
 11
305.6424232043
 21
128.7863030601
  0
LINE
  8
0
 62
6
  6
CONTINUOUS
 10
313.5083135026
 20
137.3373668882
 11
313.4983200895
 21
137.3198078652
  0
LINE
  8
DEFAULT_1
 62
2
  6
CENTER
 10
311.8924232162
 20
137.4873668882
 11
311.8924232162
 21
136.8873668882
  0
LINE
  8
0
 62
2
  6
CONTINUOUS
 10
311.8924232162
 20
133.2873668882
 11
311.8924232162
 21
131.1873668882
  0
LINE
  8
DEFAULT_1
 62
2
  6
CENTER
 10
311.8924232162
 20
126.9873668882
 11
311.8924232162
 21
127.5873668882
  0
POLYLINE
  8
0
 62
6
  6
CONTINUOUS
 66
1
 70
0
  0
VERTEX
  8
0
 62
6
  6
CONTINUOUS
 10
313.4983203519
 20
137.3198079301
  0
VERTEX
  8
0
 62
6
  6
CONTINUOUS
 10
313.4885687541
 20
137.2679758103
  0
VERTEX
  8
0
 62
6
  6
CONTINUOUS
 10
313.4799004623
 20
137.1840037533
  0
VERTEX
  8
0
 62
6
  6
CONTINUOUS
 10
313.4732270423
 20
137.0710965059
  0
VERTEX
  8
0
 62
6
  6
CONTINUOUS
 10
313.4695525718
 20
136.9334087711
  0
VERTEX
  8
0
 62
6
  6
CONTINUOUS
 10
313.470007436
 20
136.775909335
  0
VERTEX
  8
0
 62
6
  6
CONTINUOUS
 10
313.4758962697
 20
136.6042323847
  0
VERTEX
  8
0
 62
6
  6
CONTINUOUS
 10
313.4887614487
 20
136.4245226336
  0
SEQEND
  0
POLYLINE
  8
0
 62
7
  6
CONTINUOUS
 66
1
 70
0
  0
VERTEX
  8
0
 62
7
  6
CONTINUOUS
 10
313.6561569422
 20
136.3373668882
  0
VERTEX
  8
0
 62
7
  6
CONTINUOUS
 10
313.6156918732
 20
136.5039189493
  0
VERTEX
  8
0
 62
7
  6
CONTINUOUS
 10
313.5833355469
 20
136.6682659268
  0
VERTEX
  8
0
 62
7
  6
CONTINUOUS
 10
313.5582423774
 20
136.8249552552
  0
VERTEX
  8
0
 62
7
  6
CONTINUOUS
 10
313.539496033
 20
136.968621402
  0
VERTEX
  8
0
 62
7
  6
CONTINUOUS
 10
313.5261560487
 20
137.0942289781
  0
VERTEX
  8
0
 62
7
  6
CONTINUOUS
 10
313.5172920348
 20
137.1972739115
  0
VERTEX
  8
0
 62
7
  6
CONTINUOUS
 10
313.5120033365
 20
137.273953888
  0
VERTEX
  8
0
 62
7
  6
CONTINUOUS
 10
313.5094284255
 20
137.3213137266
  0
VERTEX
  8
0
 62
7
  6
CONTINUOUS
 10
313.5087462037
 20
137.3373668882
  0
SEQEND
  0
LINE
  8
0
 62
7
  6
CONTINUOUS
 10
313.4696042458
 20
127.3873668882
 11
313.5087462037
 21
127.1373668882
  0
POLYLINE
  8
0
 62
6
  6
CONTINUOUS
 66
1
 70
0
  0
VERTEX
  8
0
 62
6
  6
CONTINUOUS
 10
313.4896193447
 20
127.3232761815
  0
VERTEX
  8
0
 62
6
  6
CONTINUOUS
 10
313.4799446398
 20
127.3871826232
  0
VERTEX
  8
0
 62
6
  6
CONTINUOUS
 10
313.4696041628
 20
127.4506132731
  0
SEQEND
  0
LINE
  8
0
 62
6
  6
CONTINUOUS
 10
313.4979682404
 20
127.2632761609
 11
313.4896193434
 21
127.3232761813
  0
LINE
  8
0
 62
6
  6
CONTINUOUS
 10
313.5044131336
 20
127.211432171
 11
313.4979682441
 21
127.2632761611
  0
POLYLINE
  8
0
 62
6
  6
CONTINUOUS
 66
1
 70
0
  0
VERTEX
  8
0
 62
6
  6
CONTINUOUS
 10
313.5087462037
 20
127.1373668882
  0
VERTEX
  8
0
 62
6
  6
CONTINUOUS
 10
313.5099797767
 20
127.1462193671
  0
VERTEX
  8
0
 62
6
  6
CONTINUOUS
 10
313.5085082612
 20
127.171468453
  0
VERTEX
  8
0
 62
6
  6
CONTINUOUS
 10
313.5044131282
 20
127.2114321709
  0
SEQEND
  0
ARC
  8
0
 62
7
  6
CONTINUOUS
 10
51.5302145595
 20
132.5512174679
 40
3.0
 50
185.0
 51
194.654251626
  0
ARC
  8
0
 62
7
  6
CONTINUOUS
 10
54.5698279018
 20
132.5512174679
 40
3.0
 50
345.345748374
 51
355.0
  0
ARC
  8
0
 62
7
  6
CONTINUOUS
 10
49.5212423379
 20
127.3873668882
 40
0.25
 50
270.0
 51
14.654251626
  0
ARC
  8
0
 62
7
  6
CONTINUOUS
 10
56.5788001235
 20
127.3873668882
 40
0.25
 50
165.345748374
 51
270.0
  0
ARC
  8
0
 62
7
  6
CONTINUOUS
 10
43.8361212307
 20
127.3873668882
 40
0.25
 50
180.0
 51
270.0
  0
ARC
  8
0
 62
6
  6
CONTINUOUS
 10
-108.5211998765
 20
127.3873668882
 40
0.25
 50
165.345748374
 51
270.0
  0
ARC
  8
0
 62
6
  6
CONTINUOUS
 10
-102.8787576621
 20
127.3873668882
 40
0.25
 50
270.0
 51
14.654251626
  0
ARC
  8
0
 62
6
  6
CONTINUOUS
 10
-96.5286576621
 20
127.3873668882
 40
0.25
 50
270.0
 51
14.654251626
  0
ARC
  8
0
 62
6
  6
CONTINUOUS
 10
-102.1710998765
 20
127.3873668882
 40
0.25
 50
165.345748374
 51
270.0
  0
ARC
  8
0
 62
7
  6
CONTINUOUS
 10
47.1836900567
 20
136.3373668882
 40
1.0
 50
5.0
 51
90.0
  0
ARC
  8
0
 62
7
  6
CONTINUOUS
 10
58.9163524047
 20
136.3373668882
 40
1.0
 50
90.0
 51
175.0
  0
ARC
  8
0
 62
7
  6
CONTINUOUS
 10
52.5664524019
 20
136.3373668556
 40
1.0
 50
89.9999998363
 51
126.5457506347
  0
ARC
  8
0
 62
7
  6
CONTINUOUS
 10
53.5337900567
 20
136.3373668882
 40
1.0
 50
53.4542481199
 51
90.0
  0
ARC
  8
0
 62
7
  6
CONTINUOUS
 10
44.5861212307
 20
136.3373668882
 40
1.0
 50
90.0
 51
180.0
  0
ARC
  8
0
 62
6
  6
CONTINUOUS
 10
-106.1836475953
 20
136.3373668882
 40
1.0
 50
90.0
 51
175.0
  0
ARC
  8
0
 62
6
  6
CONTINUOUS
 10
-105.2163099433
 20
136.3373668882
 40
1.0
 50
5.0
 51
90.0
  0
ARC
  8
0
 62
6
  6
CONTINUOUS
 10
-99.8335475953
 20
136.3373668882
 40
1.0
 50
90.0
 51
175.0
  0
ARC
  8
0
 62
6
  6
CONTINUOUS
 10
-98.8662099433
 20
136.3373668882
 40
1.0
 50
5.0
 51
90.0
  0
ARC
  8
0
 62
7
  6
CONTINUOUS
 10
62.2212423379
 20
127.3873668882
 40
0.25
 50
270.0
 51
14.654251626
  0
ARC
  8
0
 62
7
  6
CONTINUOUS
 10
69.2788001235
 20
127.3873668882
 40
0.25
 50
165.345748374
 51
270.0
  0
ARC
  8
0
 62
7
  6
CONTINUOUS
 10
74.9212423379
 20
127.3873668882
 40
0.25
 50
270.0
 51
14.654251626
  0
ARC
  8
0
 62
7
  6
CONTINUOUS
 10
81.9788001235
 20
127.3873668882
 40
0.25
 50
165.345748374
 51
270.0
  0
ARC
  8
0
 62
7
  6
CONTINUOUS
 10
87.6212423379
 20
127.3873668882
 40
0.25
 50
270.0
 51
14.654251626
  0
ARC
  8
0
 62
7
  6
CONTINUOUS
 10
94.6788001235
 20
127.3873668882
 40
0.25
 50
165.345748374
 51
270.0
  0
ARC
  8
0
 62
7
  6
CONTINUOUS
 10
100.3212423379
 20
127.3873668882
 40
0.25
 50
270.0
 51
14.654251626
  0
ARC
  8
0
 62
7
  6
CONTINUOUS
 10
107.3788001235
 20
127.3873668882
 40
0.25
 50
165.345748374
 51
270.0
  0
ARC
  8
0
 62
7
  6
CONTINUOUS
 10
113.0212423379
 20
127.3873668882
 40
0.25
 50
270.0
 51
14.654251626
  0
ARC
  8
0
 62
7
  6
CONTINUOUS
 10
120.0788001235
 20
127.3873668882
 40
0.25
 50
165.345748374
 51
270.0
  0
ARC
  8
0
 62
7
  6
CONTINUOUS
 10
125.7212423379
 20
127.3873668882
 40
0.25
 50
270.0
 51
14.654251626
  0
ARC
  8
0
 62
7
  6
CONTINUOUS
 10
132.7788001235
 20
127.3873668882
 40
0.25
 50
165.345748374
 51
270.0
  0
ARC
  8
0
 62
7
  6
CONTINUOUS
 10
138.4212423379
 20
127.3873668882
 40
0.25
 50
270.0
 51
14.654251626
  0
ARC
  8
0
 62
7
  6
CONTINUOUS
 10
64.2302145595
 20
132.5512174679
 40
3.0
 50
185.0
 51
194.654251626
  0
ARC
  8
0
 62
7
  6
CONTINUOUS
 10
67.2698279018
 20
132.5512174679
 40
3.0
 50
345.345748374
 51
355.0
  0
ARC
  8
0
 62
7
  6
CONTINUOUS
 10
76.9302145595
 20
132.5512174679
 40
3.0
 50
185.0
 51
194.654251626
  0
ARC
  8
0
 62
7
  6
CONTINUOUS
 10
79.9698279018
 20
132.5512174679
 40
3.0
 50
345.345748374
 51
355.0
  0
ARC
  8
0
 62
7
  6
CONTINUOUS
 10
89.6302145595
 20
132.5512174679
 40
3.0
 50
185.0
 51
194.654251626
  0
ARC
  8
0
 62
7
  6
CONTINUOUS
 10
92.6698279018
 20
132.5512174679
 40
3.0
 50
345.345748374
 51
355.0
  0
ARC
  8
0
 62
7
  6
CONTINUOUS
 10
102.3302145595
 20
132.5512174679
 40
3.0
 50
185.0
 51
194.654251626
  0
ARC
  8
0
 62
7
  6
CONTINUOUS
 10
105.3698279018
 20
132.5512174679
 40
3.0
 50
345.345748374
 51
355.0
  0
ARC
  8
0
 62
7
  6
CONTINUOUS
 10
115.0302145595
 20
132.5512174679
 40
3.0
 50
185.0
 51
194.654251626
  0
ARC
  8
0
 62
7
  6
CONTINUOUS
 10
118.0698279018
 20
132.5512174679
 40
3.0
 50
345.345748374
 51
355.0
  0
ARC
  8
0
 62
7
  6
CONTINUOUS
 10
127.7302145595
 20
132.5512174679
 40
3.0
 50
185.0
 51
194.654251626
  0
ARC
  8
0
 62
7
  6
CONTINUOUS
 10
130.7698279018
 20
132.5512174679
 40
3.0
 50
345.345748374
 51
355.0
  0
ARC
  8
0
 62
7
  6
CONTINUOUS
 10
140.4302145595
 20
132.5512174679
 40
3.0
 50
185.0
 51
194.654251626
  0
ARC
  8
0
 62
7
  6
CONTINUOUS
 10
143.4919279018
 20
132.5512174679
 40
3.0
 50
345.345748374
 51
355.0
  0
ARC
  8
0
 62
7
  6
CONTINUOUS
 10
119.6721001195
 20
131.9373662424
 40
0.799999713
 50
181.9999537182
 51
269.9999983848
  0
ARC
  8
0
 62
7
  6
CONTINUOUS
 10
113.4501722849
 20
131.9373646114
 40
0.7999989881
 50
270.0000056943
 51
358.0
  0
ARC
  8
0
 62
7
  6
CONTINUOUS
 10
227.3861212307
 20
127.3873668882
 40
0.25
 50
270.0
 51
360.0
  0
ARC
  8
0
 62
7
  6
CONTINUOUS
 10
151.1433423379
 20
127.3873668882
 40
0.25
 50
270.0
 51
14.654251626
  0
ARC
  8
0
 62
7
  6
CONTINUOUS
 10
163.8433423379
 20
127.3873668882
 40
0.25
 50
270.0
 51
14.654251626
  0
ARC
  8
0
 62
7
  6
CONTINUOUS
 10
176.5433423379
 20
127.3873668882
 40
0.25
 50
270.0
 51
14.654251626
  0
ARC
  8
0
 62
7
  6
CONTINUOUS
 10
189.2433423379
 20
127.3873668882
 40
0.25
 50
270.0
 51
14.654251626
  0
ARC
  8
0
 62
7
  6
CONTINUOUS
 10
201.9433423379
 20
127.3873668882
 40
0.25
 50
270.0
 51
14.654251626
  0
ARC
  8
0
 62
7
  6
CONTINUOUS
 10
214.6433423379
 20
127.3873668882
 40
0.25
 50
270.0
 51
14.654251626
  0
ARC
  8
0
 62
7
  6
CONTINUOUS
 10
145.5009001235
 20
127.3873668882
 40
0.25
 50
165.345748374
 51
270.0
  0
ARC
  8
0
 62
7
  6
CONTINUOUS
 10
158.2009001235
 20
127.3873668882
 40
0.25
 50
165.345748374
 51
270.0
  0
ARC
  8
0
 62
7
  6
CONTINUOUS
 10
170.9009001235
 20
127.3873668882
 40
0.25
 50
165.345748374
 51
270.0
  0
ARC
  8
0
 62
7
  6
CONTINUOUS
 10
183.6009001235
 20
127.3873668882
 40
0.25
 50
165.345748374
 51
270.0
  0
ARC
  8
0
 62
7
  6
CONTINUOUS
 10
196.3009001235
 20
127.3873668882
 40
0.25
 50
165.345748374
 51
270.0
  0
ARC
  8
0
 62
7
  6
CONTINUOUS
 10
209.0009001235
 20
127.3873668882
 40
0.25
 50
165.345748374
 51
270.0
  0
ARC
  8
0
 62
7
  6
CONTINUOUS
 10
221.7009001235
 20
127.3873668882
 40
0.25
 50
165.345748374
 51
270.0
  0
ARC
  8
0
 62
7
  6
CONTINUOUS
 10
153.1523145595
 20
132.5512174679
 40
3.0
 50
185.0
 51
194.654251626
  0
ARC
  8
0
 62
7
  6
CONTINUOUS
 10
156.1919279018
 20
132.5512174679
 40
3.0
 50
345.345748374
 51
355.0
  0
ARC
  8
0
 62
7
  6
CONTINUOUS
 10
165.8523145595
 20
132.5512174679
 40
3.0
 50
185.0
 51
194.654251626
  0
ARC
  8
0
 62
7
  6
CONTINUOUS
 10
168.8919279018
 20
132.5512174679
 40
3.0
 50
345.345748374
 51
355.0
  0
ARC
  8
0
 62
7
  6
CONTINUOUS
 10
178.5523145595
 20
132.5512174679
 40
3.0
 50
185.0
 51
194.654251626
  0
ARC
  8
0
 62
7
  6
CONTINUOUS
 10
181.5919279018
 20
132.5512174679
 40
3.0
 50
345.345748374
 51
355.0
  0
ARC
  8
0
 62
7
  6
CONTINUOUS
 10
191.2523145595
 20
132.5512174679
 40
3.0
 50
185.0
 51
194.654251626
  0
ARC
  8
0
 62
7
  6
CONTINUOUS
 10
194.2919279018
 20
132.5512174679
 40
3.0
 50
345.345748374
 51
355.0
  0
ARC
  8
0
 62
7
  6
CONTINUOUS
 10
203.9523145595
 20
132.5512174679
 40
3.0
 50
185.0
 51
194.654251626
  0
ARC
  8
0
 62
7
  6
CONTINUOUS
 10
206.9919279018
 20
132.5512174679
 40
3.0
 50
345.345748374
 51
355.0
  0
ARC
  8
0
 62
7
  6
CONTINUOUS
 10
216.6523145595
 20
132.5512174679
 40
3.0
 50
185.0
 51
194.654251626
  0
ARC
  8
0
 62
7
  6
CONTINUOUS
 10
219.6919279018
 20
132.5512174679
 40
3.0
 50
345.345748374
 51
355.0
  0
ARC
  8
0
 62
7
  6
CONTINUOUS
 10
157.7721001195
 20
131.9373662424
 40
0.799999713
 50
181.9999537182
 51
269.9999983848
  0
ARC
  8
0
 62
7
  6
CONTINUOUS
 10
151.5501722849
 20
131.9373646114
 40
0.7999989881
 50
270.0000056943
 51
358.0
  0
ARC
  8
0
 62
7
  6
CONTINUOUS
 10
59.8836900567
 20
136.3373668882
 40
1.0
 50
5.0
 51
90.0
  0
ARC
  8
0
 62
7
  6
CONTINUOUS
 10
71.6163524047
 20
136.3373668882
 40
1.0
 50
90.0
 51
175.0
  0
ARC
  8
0
 62
7
  6
CONTINUOUS
 10
72.5836900567
 20
136.3373668882
 40
1.0
 50
5.0
 51
90.0
  0
ARC
  8
0
 62
7
  6
CONTINUOUS
 10
84.3163524047
 20
136.3373668882
 40
1.0
 50
90.0
 51
175.0
  0
ARC
  8
0
 62
7
  6
CONTINUOUS
 10
85.2836900567
 20
136.3373668882
 40
1.0
 50
5.0
 51
90.0
  0
ARC
  8
0
 62
7
  6
CONTINUOUS
 10
97.0163524047
 20
136.3373668882
 40
1.0
 50
90.0
 51
175.0
  0
ARC
  8
0
 62
7
  6
CONTINUOUS
 10
97.9836900567
 20
136.3373668882
 40
1.0
 50
5.0
 51
90.0
  0
ARC
  8
0
 62
7
  6
CONTINUOUS
 10
109.7163524047
 20
136.3373668882
 40
1.0
 50
90.0
 51
175.0
  0
ARC
  8
0
 62
7
  6
CONTINUOUS
 10
110.6836900567
 20
136.3373668882
 40
1.0
 50
5.0
 51
90.0
  0
ARC
  8
0
 62
7
  6
CONTINUOUS
 10
122.4163524047
 20
136.3373668882
 40
1.0
 50
90.0
 51
175.0
  0
ARC
  8
0
 62
7
  6
CONTINUOUS
 10
123.3836900567
 20
136.3373668882
 40
1.0
 50
5.0
 51
90.0
  0
ARC
  8
0
 62
7
  6
CONTINUOUS
 10
135.1163524047
 20
136.3373668882
 40
1.0
 50
90.0
 51
175.0
  0
ARC
  8
0
 62
7
  6
CONTINUOUS
 10
136.0836900567
 20
136.3373668882
 40
1.0
 50
5.0
 51
90.0
  0
ARC
  8
0
 62
7
  6
CONTINUOUS
 10
65.2664524019
 20
136.3373668556
 40
1.0
 50
89.9999998363
 51
126.5457506347
  0
ARC
  8
0
 62
7
  6
CONTINUOUS
 10
66.2337900567
 20
136.3373668882
 40
1.0
 50
53.4542481199
 51
90.0
  0
ARC
  8
0
 62
7
  6
CONTINUOUS
 10
77.9664524019
 20
136.3373668556
 40
1.0
 50
89.9999998363
 51
126.5457506347
  0
ARC
  8
0
 62
7
  6
CONTINUOUS
 10
78.9337900567
 20
136.3373668882
 40
1.0
 50
53.4542481199
 51
90.0
  0
ARC
  8
0
 62
7
  6
CONTINUOUS
 10
90.6664524019
 20
136.3373668556
 40
1.0
 50
89.9999998363
 51
126.5457506347
  0
ARC
  8
0
 62
7
  6
CONTINUOUS
 10
91.6337900567
 20
136.3373668882
 40
1.0
 50
53.4542481199
 51
90.0
  0
ARC
  8
0
 62
7
  6
CONTINUOUS
 10
103.3664524019
 20
136.3373668556
 40
1.0
 50
89.9999998363
 51
126.5457506347
  0
ARC
  8
0
 62
7
  6
CONTINUOUS
 10
104.3337900567
 20
136.3373668882
 40
1.0
 50
53.4542481199
 51
90.0
  0
ARC
  8
0
 62
7
  6
CONTINUOUS
 10
128.7664524019
 20
136.3373668556
 40
1.0
 50
89.9999998363
 51
126.5457506347
  0
ARC
  8
0
 62
7
  6
CONTINUOUS
 10
129.7337900567
 20
136.3373668882
 40
1.0
 50
53.4542481199
 51
90.0
  0
ARC
  8
0
 62
7
  6
CONTINUOUS
 10
141.4885524021
 20
136.3373668585
 40
1.0
 50
89.9999998507
 51
126.5457507441
  0
ARC
  8
0
 62
7
  6
CONTINUOUS
 10
142.4558900567
 20
136.3373668882
 40
1.0
 50
53.45424812
 51
90.0
  0
ARC
  8
0
 62
7
  6
CONTINUOUS
 10
113.6596968899
 20
137.9373642691
 40
0.7999988359
 50
270.0000065505
 51
358.0001876952
  0
ARC
  8
0
 62
7
  6
CONTINUOUS
 10
119.4625756345
 20
137.9373624647
 40
0.799998034
 50
181.9996829937
 51
269.9999889366
  0
ARC
  8
0
 62
7
  6
CONTINUOUS
 10
115.6493663163
 20
143.3373668882
 40
1.0
 50
90.0
 51
178.0
  0
ARC
  8
0
 62
7
  6
CONTINUOUS
 10
117.472906145
 20
143.3373668882
 40
1.0
 50
2.0
 51
90.0
  0
ARC
  8
0
 62
7
  6
CONTINUOUS
 10
226.6361212307
 20
136.3373668882
 40
1.0
 50
0.0
 51
90.0
  0
ARC
  8
0
 62
7
  6
CONTINUOUS
 10
147.8384524047
 20
136.3373668882
 40
1.0
 50
90.0
 51
175.0
  0
ARC
  8
0
 62
7
  6
CONTINUOUS
 10
148.8057900567
 20
136.3373668882
 40
1.0
 50
5.0
 51
90.0
  0
ARC
  8
0
 62
7
  6
CONTINUOUS
 10
160.5384524047
 20
136.3373668882
 40
1.0
 50
90.0
 51
175.0
  0
ARC
  8
0
 62
7
  6
CONTINUOUS
 10
161.5057900567
 20
136.3373668882
 40
1.0
 50
5.0
 51
90.0
  0
ARC
  8
0
 62
7
  6
CONTINUOUS
 10
173.2384524047
 20
136.3373668882
 40
1.0
 50
90.0
 51
175.0
  0
ARC
  8
0
 62
7
  6
CONTINUOUS
 10
174.2057900567
 20
136.3373668882
 40
1.0
 50
5.0
 51
90.0
  0
ARC
  8
0
 62
7
  6
CONTINUOUS
 10
185.9384524047
 20
136.3373668882
 40
1.0
 50
90.0
 51
175.0
  0
ARC
  8
0
 62
7
  6
CONTINUOUS
 10
186.9057900567
 20
136.3373668882
 40
1.0
 50
5.0
 51
90.0
  0
ARC
  8
0
 62
7
  6
CONTINUOUS
 10
198.6384524047
 20
136.3373668882
 40
1.0
 50
90.0
 51
175.0
  0
ARC
  8
0
 62
7
  6
CONTINUOUS
 10
199.6057900567
 20
136.3373668882
 40
1.0
 50
5.0
 51
90.0
  0
ARC
  8
0
 62
7
  6
CONTINUOUS
 10
218.6558900567
 20
136.3373668882
 40
1.0
 50
53.45424812
 51
90.0
  0
ARC
  8
0
 62
7
  6
CONTINUOUS
 10
217.6885524021
 20
136.3373668585
 40
1.0
 50
89.9999998507
 51
126.5457507441
  0
ARC
  8
0
 62
7
  6
CONTINUOUS
 10
211.3384524047
 20
136.3373668882
 40
1.0
 50
90.0
 51
175.0
  0
ARC
  8
0
 62
7
  6
CONTINUOUS
 10
212.3057900567
 20
136.3373668882
 40
1.0
 50
5.0
 51
90.0
  0
ARC
  8
0
 62
7
  6
CONTINUOUS
 10
205.9558900567
 20
136.3373668882
 40
1.0
 50
53.45424812
 51
90.0
  0
ARC
  8
0
 62
7
  6
CONTINUOUS
 10
224.0384524047
 20
136.3373668882
 40
1.0
 50
90.0
 51
175.0
  0
ARC
  8
0
 62
7
  6
CONTINUOUS
 10
204.9885524021
 20
136.3373668585
 40
1.0
 50
89.9999998507
 51
126.5457507441
  0
ARC
  8
0
 62
7
  6
CONTINUOUS
 10
193.2558900567
 20
136.3373668882
 40
1.0
 50
53.45424812
 51
90.0
  0
ARC
  8
0
 62
7
  6
CONTINUOUS
 10
192.2885524021
 20
136.3373668585
 40
1.0
 50
89.9999998507
 51
126.5457507441
  0
ARC
  8
0
 62
7
  6
CONTINUOUS
 10
180.5558900567
 20
136.3373668882
 40
1.0
 50
53.45424812
 51
90.0
  0
ARC
  8
0
 62
7
  6
CONTINUOUS
 10
179.5885524021
 20
136.3373668585
 40
1.0
 50
89.9999998507
 51
126.5457507441
  0
ARC
  8
0
 62
7
  6
CONTINUOUS
 10
166.8885524021
 20
136.3373668585
 40
1.0
 50
89.9999998507
 51
126.5457507441
  0
ARC
  8
0
 62
7
  6
CONTINUOUS
 10
167.8558900567
 20
136.3373668882
 40
1.0
 50
53.45424812
 51
90.0
  0
ARC
  8
0
 62
7
  6
CONTINUOUS
 10
151.7596968899
 20
137.9373642691
 40
0.7999988359
 50
270.0000065505
 51
358.0001876952
  0
ARC
  8
0
 62
7
  6
CONTINUOUS
 10
157.5625756345
 20
137.9373624647
 40
0.799998034
 50
181.9996829937
 51
269.9999889366
  0
ARC
  8
0
 62
7
  6
CONTINUOUS
 10
153.7493663163
 20
143.3373668882
 40
1.0
 50
90.0
 51
178.0
  0
ARC
  8
0
 62
7
  6
CONTINUOUS
 10
155.572906145
 20
143.3373668882
 40
1.0
 50
2.0
 51
90.0
  0
ARC
  8
0
 62
7
  6
CONTINUOUS
 10
289.763508663
 20
127.3873668882
 40
0.25
 50
123.9977194964
 51
270.0
  0
ARC
  8
0
 62
7
  6
CONTINUOUS
 10
286.4924232162
 20
132.2373668882
 40
5.6
 50
303.9977188663
 51
329.2224124145
  0
ARC
  8
0
 62
7
  6
CONTINUOUS
 10
286.4924232162
 20
132.2373668882
 40
5.35
 50
107.5847662303
 51
252.4152337697
  0
ARC
  8
0
 62
7
  6
CONTINUOUS
 10
287.8424232162
 20
134.3373668882
 40
3.0
 50
38.9352902541
 51
90.0
  0
CIRCLE
  8
0
 62
7
  6
CONTINUOUS
 10
286.4924232162
 20
132.2373668882
 40
2.65
  0
ARC
  8
0
 62
7
  6
CONTINUOUS
 10
293.0219932539
 20
128.3483162171
 40
2.0
 50
114.9999964624
 51
149.2197850999
  0
ARC
  8
0
 62
7
  6
CONTINUOUS
 10
294.4924232162
 20
130.1373668882
 40
1.0
 50
90.0
 51
115.0
  0
ARC
  8
0
 62
7
  6
CONTINUOUS
 10
295.5155594731
 20
132.1373668882
 40
1.0
 50
270.0
 51
342.0
  0
ARC
  8
0
 62
7
  6
CONTINUOUS
 10
294.762176338
 20
132.1373668882
 40
1.0
 50
218.9352913007
 51
259.7870598271
  0
ARC
  8
0
 62
7
  6
CONTINUOUS
 10
298.9181627065
 20
136.1373668882
 40
1.0
 50
90.0
 51
162.0
  0
ARC
  8
0
 62
7
  6
CONTINUOUS
 10
293.5806533019
 20
143.3373668882
 40
1.0
 50
90.0
 51
178.0
  0
ARC
  8
0
 62
7
  6
CONTINUOUS
 10
291.5175724933
 20
135.8351373363
 40
0.8
 50
218.9352902541
 51
349.1363149819
  0
ARC
  8
0
 62
6
  6
CONTINUOUS
 10
311.8924232162
 20
132.2373668882
 40
5.6
 50
210.7782789825
 51
236.0022805036
  0
ARC
  8
0
 62
7
  6
CONTINUOUS
 10
311.8924232162
 20
132.2373668882
 40
5.35
 50
287.5847660531
 51
72.415233877
  0
ARC
  8
0
 62
7
  6
CONTINUOUS
 10
310.5424232162
 20
134.3373668882
 40
3.0
 50
90.0
 51
141.0647097459
  0
CIRCLE
  8
0
 62
7
  6
CONTINUOUS
 10
311.8924232162
 20
132.2373668882
 40
2.65
  0
ARC
  8
0
 62
6
  6
CONTINUOUS
 10
305.3628531785
 20
128.3483162171
 40
2.0
 50
30.7782789825
 51
65.0
  0
ARC
  8
0
 62
7
  6
CONTINUOUS
 10
302.8692869593
 20
132.1373668882
 40
1.0
 50
198.0
 51
270.0
  0
ARC
  8
0
 62
7
  6
CONTINUOUS
 10
303.6226700653
 20
132.1373668882
 40
1.0
 50
270.0
 51
321.0647097459
  0
ARC
  8
0
 62
6
  6
CONTINUOUS
 10
303.8924232162
 20
130.1373668882
 40
1.0
 50
65.0
 51
90.0
  0
ARC
  8
0
 62
6
  6
CONTINUOUS
 10
308.6213377694
 20
127.3873668882
 40
0.25
 50
270.0
 51
56.0022805036
  0
ARC
  8
0
 62
7
  6
CONTINUOUS
 10
299.4666837259
 20
136.1373668882
 40
1.0
 50
18.0
 51
90.0
  0
ARC
  8
0
 62
7
  6
CONTINUOUS
 10
304.8041931305
 20
143.3373668882
 40
1.0
 50
2.0
 51
90.0
  0
ENDSEC
  0
EOF
