  0
SECTION
  2
HEADER
  9
$EXTMAX
 10
210.0
 20
297.0
 30
0.0
  9
$EXTMIN
 10
0.0
 20
0.0
 30
0.0
  9
$LIMMIN
 10
0.0
 20
0.0
  9
$LIMMAX
 10
210.0
 20
297.0
  9
$VIEWCTR
 10
105.0
 20
148.5
  9
$VIEWSIZE
 40
297.0
  9
$CLAYER
  8
0
  9
$LTSCALE
 40
19.36
  9
$CELTYPE
  6
BYLAYER
  9
$DIMSCALE
 40
1.0
  9
$DIMASZ
 40
3.5
  9
$DIMEXO
 40
2.2
  9
$DIMDLI
 40
13.376
  9
$DIMEXE
 40
6.336
  9
$DIMCEN
 40
3.168
  9
$DIMLFAC
 40
1.0
  9
$DIMBLK
  1
_FILLED
  9
$DIMTXT
 40
3.5
  9
$PDMODE
 70
3
  9
$PDSIZE
 40
0.3125
  9
$TILEMODE
 70
1
  0
ENDSEC
  0
SECTION
  2
TABLES
  0
TABLE
  2
LTYPE
 70
6
  0
LTYPE
  2
BYBLOCK
 70
0
  3

 72
65
 73
0
 40
0.0
  0
LTYPE
  2
BYLAYER
 70
0
  3

 72
65
 73
0
 40
0.0
  0
LTYPE
  2
CONTINUOUS
 70
64
  3
Solid line
 72
65
 73
0
 40
0.0
  0
LTYPE
  2
CENTER
 70
64
  3
____ _ ____ _ ____ _ ____ _ ____ _ ____ _ ____
 72
65
 73
4
 40
0.6
 49
0.375
 49
-0.075
 49
0.075
 49
-0.075
  0
LTYPE
  2
HIDDEN
 70
64
  3
- - - - - - - - - - - - - - - - - - - -
 72
65
 73
2
 40
0.2
 49
0.1
 49
-0.1
  0
LTYPE
  2
PHANTOM
 70
64
  3
_____ _ _ _____ _ _ _____ _ _ _____
 72
65
 73
6
 40
0.8
 49
0.45
 49
-0.05
 49
0.1
 49
-0.05
 49
0.1
 49
-0.05
  0
LTYPE
  2
DOT
 70
64
  3
. . . . . . . . . . . . . . . . . . . .
 72
65
 73
2
 40
0.2
 49
0.1
 49
-0.1
  0
LTYPE
  2
DASHED
 70
64
  3
- - - - - - - - - - - - - - - - - - - -
 72
65
 73
2
 40
0.2
 49
0.1
 49
-0.1
  0
ENDTAB
  0
TABLE
  2
LAYER
 70
36
  0
LAYER
  2
0
 70
0
 62
7
  6
CONTINUOUS
  0
LAYER
  2
DEFAULT_1
 70
0
 62
7
  6
CENTER
  0
LAYER
  2
DEFAULT_2
 70
0
 62
8
  6
HIDDEN
  0
LAYER
  2
DEFAULT_3
 70
0
 62
7
  6
PHANTOM
  0
LAYER
  2
1_DATUMPLANE
 70
0
 62
7
  6
CONTINUOUS
  0
LAYER
  2
6_DIM
 70
0
 62
7
  6
CONTINUOUS
  0
LAYER
  2
CURVE
 70
0
 62
7
  6
CONTINUOUS
  0
LAYER
  2
QUILT
 70
0
 62
7
  6
CONTINUOUS
  0
LAYER
  2
XSEC_DATUMS
 70
0
 62
7
  6
CONTINUOUS
  0
ENDTAB
  0
TABLE
  2
STYLE
 70
1
  0
STYLE
  2
STANDARD
 70
0
 40
0.0
 41
0.8
 50
0.0
 71
0
 42
0.2
  3
txt
  4

  0
STYLE
  2
TEXTSTYLE_1
 70
0
 40
0.0
 41
0.8
 50
0.0
 71
0
 42
0.2
  3
gdt
  4

  0
STYLE
  2
TEXTSTYLE_2
 70
0
 40
0.0
 41
0.6
 50
0.0
 71
0
 42
0.2
  3
txt
  4

  0
STYLE
  2
TEXTSTYLE_3
 70
0
 40
0.0
 41
1.0
 50
0.0
 71
0
 42
0.2
  3
ftb_____.ttf
  4

  0
STYLE
  2
TEXTSTYLE_4
 70
0
 40
0.0
 41
1.0
 50
0.0
 71
0
 42
0.2
  3
fti_____.ttf
  4

  0
STYLE
  2
TEXTSTYLE_5
 70
0
 40
0.0
 41
0.8
 50
0.0
 71
0
 42
0.2
  3
txt
  4

  0
ENDTAB
  0
ENDSEC
  0
SECTION
  2
BLOCKS
  0
BLOCK
  8
0
 62
2
  6
CONTINUOUS
  2
SYMBOL_8_BL1
 70
64
 10
173.5956734183
 20
35.5937998301
  0
TEXT
  8
0
 62
7
  6
CONTINUOUS
 10
164.6539584268
 20
30.6865562072
  7
TEXTSTYLE_4
 40
1.0655737705
  1
The brand for plastic modular belts and chains
 41
1.0
 72
0
  0
LINE
  8
0
 62
7
  6
CONTINUOUS
 10
149.5737418074
 20
36.1675703219
 11
149.5737418074
 21
34.0364227809
  0
LINE
  8
0
 62
7
  6
CONTINUOUS
 10
149.8628043005
 20
31.0454914852
 11
149.8628043005
 21
31.1422825445
  0
LINE
  8
0
 62
7
  6
CONTINUOUS
 10
149.5737418074
 20
31.1100188581
 11
149.6315543091
 21
30.9164367395
  0
LINE
  8
0
 62
7
  6
CONTINUOUS
 10
150.9671844304
 20
33.9544555678
 11
150.9671844304
 21
36.1675703219
  0
LINE
  8
0
 62
7
  6
CONTINUOUS
 10
151.8862417523
 20
32.1101932727
 11
151.8862417523
 21
30.5937998301
  0
LINE
  8
0
 62
7
  6
CONTINUOUS
 10
152.1753043074
 20
30.5937998301
 11
152.1753043074
 21
31.3358647082
  0
LINE
  8
0
 62
7
  6
CONTINUOUS
 10
152.1753043074
 20
31.4649194539
 11
152.1753043074
 21
32.1101932727
  0
LINE
  8
0
 62
7
  6
CONTINUOUS
 10
149.6315543091
 20
31.3036010218
 11
149.5737418074
 21
31.1100188581
  0
LINE
  8
0
 62
7
  6
CONTINUOUS
 10
149.9784292936
 20
30.8841730531
 11
149.8628043005
 21
31.0454914852
  0
LINE
  8
0
 62
7
  6
CONTINUOUS
 10
151.0768668626
 20
31.400392081
 11
151.1346793074
 21
31.3036010218
  0
LINE
  8
0
 62
7
  6
CONTINUOUS
 10
151.4237418626
 20
31.3036010218
 11
151.3659292523
 21
31.4326557675
  0
LINE
  8
0
 62
7
  6
CONTINUOUS
 10
152.852430332
 20
36.1675703219
 11
152.852430332
 21
34.3642916334
  0
LINE
  8
0
 62
7
  6
CONTINUOUS
 10
152.852430332
 20
33.0528162235
 11
152.852430332
 21
32.3970785186
  0
LINE
  8
0
 62
7
  6
CONTINUOUS
 10
153.2159293074
 20
31.2390736489
 11
153.2159293074
 21
30.5937998301
  0
LINE
  8
0
 62
7
  6
CONTINUOUS
 10
153.5049916972
 20
30.5937998301
 11
153.5049916972
 21
31.2390736489
  0
LINE
  8
0
 62
7
  6
CONTINUOUS
 10
149.8628043005
 20
31.1422825445
 11
149.9206168074
 21
31.2713373354
  0
LINE
  8
0
 62
7
  6
CONTINUOUS
 10
149.6315543091
 20
30.9164367395
 11
149.7471793074
 21
30.7873819712
  0
LINE
  8
0
 62
7
  6
CONTINUOUS
 10
153.1581166972
 20
31.3681283946
 11
153.2159293074
 21
31.2390736489
  0
LINE
  8
0
 62
7
  6
CONTINUOUS
 10
153.9674919177
 20
30.8841730531
 11
154.0253041972
 21
30.7551182848
  0
LINE
  8
0
 62
7
  6
CONTINUOUS
 10
153.5049916972
 20
31.2390736489
 11
153.4471794177
 21
31.400392081
  0
LINE
  8
0
 62
7
  6
CONTINUOUS
 10
153.9674919177
 20
31.4326557675
 11
153.9674919177
 21
31.3681283946
  0
LINE
  8
0
 62
7
  6
CONTINUOUS
 10
153.9674919177
 20
30.9809641124
 11
153.9674919177
 21
30.8841730531
  0
LINE
  8
0
 62
7
  6
CONTINUOUS
 10
154.245872955
 20
32.3970785186
 11
154.245872955
 21
36.1675703219
  0
LINE
  8
0
 62
7
  6
CONTINUOUS
 10
154.2565543074
 20
30.8519093441
 11
154.2565543074
 21
30.9164367395
  0
LINE
  8
0
 62
7
  6
CONTINUOUS
 10
154.5737418074
 20
36.1675703219
 11
154.5737418074
 21
32.3970785186
  0
LINE
  8
0
 62
7
  6
CONTINUOUS
 10
151.3659292523
 20
30.7873819712
 11
151.4237418626
 21
30.9164367395
  0
LINE
  8
0
 62
7
  6
CONTINUOUS
 10
155.759679528
 20
30.6905909007
 11
155.7018665869
 21
30.8519093441
  0
LINE
  8
0
 62
7
  6
CONTINUOUS
 10
155.412804528
 20
31.3681283946
 11
155.412804528
 21
31.2713373354
  0
LINE
  8
0
 62
7
  6
CONTINUOUS
 10
155.412804528
 20
31.1422825445
 11
155.412804528
 21
30.9487004259
  0
LINE
  8
0
 62
7
  6
CONTINUOUS
 10
155.7018665869
 20
30.8519093441
 11
155.7018665869
 21
31.3681283946
  0
LINE
  8
0
 62
7
  6
CONTINUOUS
 10
155.9671844304
 20
32.3970785186
 11
155.9671844304
 21
34.2003572071
  0
LINE
  8
0
 62
7
  6
CONTINUOUS
 10
155.9671844304
 20
35.511832617
 11
155.9671844304
 21
36.1675703219
  0
LINE
  8
0
 62
7
  6
CONTINUOUS
 10
156.279992028
 20
32.1101932727
 11
156.279992028
 21
31.9488748406
  0
LINE
  8
0
 62
7
  6
CONTINUOUS
 10
156.279992028
 20
31.626237886
 11
156.279992028
 21
30.5937998301
  0
LINE
  8
0
 62
7
  6
CONTINUOUS
 10
156.5690540869
 20
30.5937998301
 11
156.5690540869
 21
31.626237886
  0
LINE
  8
0
 62
7
  6
CONTINUOUS
 10
156.5690540869
 20
31.9488748406
 11
156.5690540869
 21
32.1101932727
  0
LINE
  8
0
 62
7
  6
CONTINUOUS
 10
151.1346793074
 20
30.9164367395
 11
151.0768668626
 21
30.8196456577
  0
LINE
  8
0
 62
7
  6
CONTINUOUS
 10
153.4471794177
 20
31.400392081
 11
153.3893668074
 21
31.4649194539
  0
LINE
  8
0
 62
7
  6
CONTINUOUS
 10
154.3143669177
 20
30.7873819712
 11
154.2565543074
 21
30.8519093441
  0
LINE
  8
0
 62
7
  6
CONTINUOUS
 10
155.4706168074
 20
30.6583272086
 11
155.5284290869
 21
30.5937998301
  0
LINE
  8
0
 62
7
  6
CONTINUOUS
 10
155.412804528
 20
30.7551182848
 11
155.4706168074
 21
30.6583272086
  0
LINE
  8
0
 62
7
  6
CONTINUOUS
 10
155.8174918074
 20
30.5937998301
 11
155.759679528
 21
30.6905909007
  0
LINE
  8
0
 62
7
  6
CONTINUOUS
 10
155.7018665869
 20
31.3681283946
 11
155.6440543074
 21
31.4649194539
  0
LINE
  8
0
 62
7
  6
CONTINUOUS
 10
157.0315543074
 20
31.626237886
 11
157.0315543074
 21
30.5937998301
  0
LINE
  8
0
 62
7
  6
CONTINUOUS
 10
157.320617028
 20
30.5937998301
 11
157.320617028
 21
31.3358647082
  0
LINE
  8
0
 62
7
  6
CONTINUOUS
 10
157.320617028
 20
31.4649194539
 11
157.320617028
 21
31.626237886
  0
LINE
  8
0
 62
7
  6
CONTINUOUS
 10
157.852430332
 20
34.6101932727
 11
157.852430332
 21
32.3970785186
  0
LINE
  8
0
 62
7
  6
CONTINUOUS
 10
149.7471793074
 20
31.4326557675
 11
149.6315543091
 21
31.3036010218
  0
LINE
  8
0
 62
7
  6
CONTINUOUS
 10
149.9206168074
 20
31.2713373354
 11
149.9784292936
 21
31.3358647082
  0
LINE
  8
0
 62
7
  6
CONTINUOUS
 10
149.7471793074
 20
30.7873819712
 11
149.8628043005
 21
30.7228545871
  0
LINE
  8
0
 62
7
  6
CONTINUOUS
 10
150.1518667936
 20
30.7873819712
 11
149.9784292936
 21
30.8841730531
  0
LINE
  8
0
 62
7
  6
CONTINUOUS
 10
155.3549915869
 20
31.4326557675
 11
155.412804528
 21
31.3681283946
  0
LINE
  8
0
 62
7
  6
CONTINUOUS
 10
158.3034290869
 20
31.3681283946
 11
158.361242028
 21
31.2068099625
  0
LINE
  8
0
 62
7
  6
CONTINUOUS
 10
158.6503040869
 20
31.2068099625
 11
158.5924918074
 21
31.3681283946
  0
LINE
  8
0
 62
7
  6
CONTINUOUS
 10
158.361242028
 20
31.2068099625
 11
158.361242028
 21
30.5937998301
  0
LINE
  8
0
 62
7
  6
CONTINUOUS
 10
158.6503040869
 20
30.5937998301
 11
158.6503040869
 21
31.2068099625
  0
LINE
  8
0
 62
7
  6
CONTINUOUS
 10
159.1128043074
 20
31.4326557675
 11
159.1128043074
 21
31.3681283946
  0
LINE
  8
0
 62
7
  6
CONTINUOUS
 10
159.245872955
 20
32.3970785186
 11
159.245872955
 21
34.5282260596
  0
LINE
  8
0
 62
7
  6
CONTINUOUS
 10
159.5737418074
 20
36.1675703219
 11
159.5737418074
 21
32.3970785186
  0
LINE
  8
0
 62
7
  6
CONTINUOUS
 10
154.2565543074
 20
30.9164367395
 11
154.3143669177
 21
31.0132277988
  0
LINE
  8
0
 62
7
  6
CONTINUOUS
 10
149.8628043005
 20
30.7228545871
 11
150.0362418212
 21
30.6583272086
  0
LINE
  8
0
 62
7
  6
CONTINUOUS
 10
151.3659292523
 20
31.4326557675
 11
151.1924917523
 21
31.5294468267
  0
LINE
  8
0
 62
7
  6
CONTINUOUS
 10
154.0253041972
 20
30.7551182848
 11
154.1987416972
 21
30.6583272086
  0
LINE
  8
0
 62
7
  6
CONTINUOUS
 10
153.0424918074
 20
31.4326557675
 11
153.1581166972
 21
31.3681283946
  0
LINE
  8
0
 62
7
  6
CONTINUOUS
 10
153.3893668074
 20
31.4649194539
 11
153.2737419177
 21
31.5294468267
  0
LINE
  8
0
 62
7
  6
CONTINUOUS
 10
159.1128043074
 20
30.8519093441
 11
159.228429528
 21
30.7228545871
  0
LINE
  8
0
 62
7
  6
CONTINUOUS
 10
159.4596793074
 20
30.7873819712
 11
159.401867028
 21
30.8519093441
  0
LINE
  8
0
 62
7
  6
CONTINUOUS
 10
159.1128043074
 20
31.3681283946
 11
159.228429528
 21
31.2390736489
  0
LINE
  8
0
 62
7
  6
CONTINUOUS
 10
158.5924918074
 20
31.3681283946
 11
158.534679528
 21
31.4649194539
  0
LINE
  8
0
 62
7
  6
CONTINUOUS
 10
160.9628038663
 20
30.7873819712
 11
160.9628038663
 21
30.8519093441
  0
LINE
  8
0
 62
7
  6
CONTINUOUS
 10
160.9671844304
 20
32.3970785186
 11
160.9671844304
 21
36.1675703219
  0
LINE
  8
0
 62
7
  6
CONTINUOUS
 10
154.0253041972
 20
31.4971831403
 11
153.9674919177
 21
31.4326557675
  0
LINE
  8
0
 62
7
  6
CONTINUOUS
 10
150.9034292799
 20
31.4649194539
 11
151.0768668626
 21
31.400392081
  0
LINE
  8
0
 62
7
  6
CONTINUOUS
 10
155.6440543074
 20
31.4649194539
 11
155.5284290869
 21
31.5294468267
  0
LINE
  8
0
 62
7
  6
CONTINUOUS
 10
159.4596793074
 20
31.3036010218
 11
159.401867028
 21
31.3681283946
  0
LINE
  8
0
 62
7
  6
CONTINUOUS
 10
160.615929528
 20
30.9164367395
 11
160.6737418074
 21
30.8519093441
  0
LINE
  8
0
 62
7
  6
CONTINUOUS
 10
160.9628038663
 20
30.8519093441
 11
160.8471793074
 21
30.9809641124
  0
LINE
  8
0
 62
7
  6
CONTINUOUS
 10
160.615929528
 20
31.4326557675
 11
160.6737418074
 21
31.3681283946
  0
LINE
  8
0
 62
7
  6
CONTINUOUS
 10
160.9628038663
 20
31.3681283946
 11
160.8471793074
 21
31.4971831403
  0
LINE
  8
0
 62
7
  6
CONTINUOUS
 10
154.2565543074
 20
31.3681283946
 11
154.3143669177
 21
31.4326557675
  0
LINE
  8
0
 62
7
  6
CONTINUOUS
 10
154.0831168074
 20
31.1100188581
 11
153.9674919177
 21
30.9809641124
  0
LINE
  8
0
 62
7
  6
CONTINUOUS
 10
155.412804528
 20
30.9487004259
 11
155.3549915869
 21
30.8841730531
  0
LINE
  8
0
 62
7
  6
CONTINUOUS
 10
155.3549915869
 20
30.6905909007
 11
155.412804528
 21
30.7551182848
  0
LINE
  8
0
 62
7
  6
CONTINUOUS
 10
154.1987416972
 20
30.6583272086
 11
154.3143669177
 21
30.6260635193
  0
LINE
  8
0
 62
7
  6
CONTINUOUS
 10
151.1924917523
 20
31.5294468267
 11
150.9612418074
 21
31.5939741996
  0
LINE
  8
0
 62
7
  6
CONTINUOUS
 10
154.5456166972
 20
30.7228545871
 11
154.3143669177
 21
30.7873819712
  0
LINE
  8
0
 62
7
  6
CONTINUOUS
 10
153.2737419177
 20
31.5294468267
 11
153.1003044177
 21
31.5939741996
  0
LINE
  8
0
 62
7
  6
CONTINUOUS
 10
155.5284290869
 20
31.5294468267
 11
155.3549915869
 21
31.5939741996
  0
LINE
  8
0
 62
7
  6
CONTINUOUS
 10
158.187804528
 20
31.4326557675
 11
158.3034290869
 21
31.3681283946
  0
LINE
  8
0
 62
7
  6
CONTINUOUS
 10
158.534679528
 20
31.4649194539
 11
158.4190543074
 21
31.5294468267
  0
LINE
  8
0
 62
7
  6
CONTINUOUS
 10
150.0362418212
 20
30.6583272086
 11
150.2096793212
 21
30.6260635193
  0
LINE
  8
0
 62
7
  6
CONTINUOUS
 10
150.498741835
 20
30.7228545871
 11
150.1518667936
 21
30.7873819712
  0
LINE
  8
0
 62
7
  6
CONTINUOUS
 10
152.9268669177
 20
31.4649194539
 11
153.0424918074
 21
31.4326557675
  0
LINE
  8
0
 62
7
  6
CONTINUOUS
 10
155.239367028
 20
31.4649194539
 11
155.3549915869
 21
31.4326557675
  0
LINE
  8
0
 62
7
  6
CONTINUOUS
 10
159.575304528
 20
30.7551182848
 11
159.4596793074
 21
30.7873819712
  0
LINE
  8
0
 62
7
  6
CONTINUOUS
 10
158.0721793074
 20
31.4649194539
 11
158.187804528
 21
31.4326557675
  0
LINE
  8
0
 62
7
  6
CONTINUOUS
 10
159.228429528
 20
30.7228545871
 11
159.401867028
 21
30.6583272086
  0
LINE
  8
0
 62
7
  6
CONTINUOUS
 10
158.4190543074
 20
31.5294468267
 11
158.2456168074
 21
31.5939741996
  0
LINE
  8
0
 62
7
  6
CONTINUOUS
 10
159.6331168074
 20
31.2390736489
 11
159.4596793074
 21
31.3036010218
  0
LINE
  8
0
 62
7
  6
CONTINUOUS
 10
160.442492028
 20
30.9809641124
 11
160.615929528
 21
30.9164367395
  0
LINE
  8
0
 62
7
  6
CONTINUOUS
 10
160.8471793074
 20
31.4971831403
 11
160.6737418074
 21
31.5617105132
  0
LINE
  8
0
 62
7
  6
CONTINUOUS
 10
159.228429528
 20
31.2390736489
 11
159.4596793074
 21
31.1422825445
  0
LINE
  8
0
 62
7
  6
CONTINUOUS
 10
160.8471793074
 20
30.9809641124
 11
160.615929528
 21
31.0777551716
  0
LINE
  8
0
 62
7
  6
CONTINUOUS
 10
159.401867028
 20
31.3681283946
 11
159.4596793074
 21
31.4326557675
  0
LINE
  8
0
 62
7
  6
CONTINUOUS
 10
149.8628043005
 20
31.4971831403
 11
149.7471793074
 21
31.4326557675
  0
LINE
  8
0
 62
7
  6
CONTINUOUS
 10
149.9784292936
 20
31.3358647082
 11
150.1518667936
 21
31.4326557675
  0
LINE
  8
0
 62
7
  6
CONTINUOUS
 10
152.2909293626
 20
31.5294468267
 11
152.1753043074
 21
31.4649194539
  0
LINE
  8
0
 62
7
  6
CONTINUOUS
 10
152.1753043074
 20
31.3358647082
 11
152.2909293626
 21
31.400392081
  0
LINE
  8
0
 62
7
  6
CONTINUOUS
 10
151.1924917523
 20
30.6905909007
 11
151.3659292523
 21
30.7873819712
  0
LINE
  8
0
 62
7
  6
CONTINUOUS
 10
150.2096793212
 20
30.6260635193
 11
150.5565542799
 21
30.5937998301
  0
LINE
  8
0
 62
7
  6
CONTINUOUS
 10
154.3143669177
 20
30.6260635193
 11
154.5456166972
 21
30.5937998301
  0
LINE
  8
0
 62
7
  6
CONTINUOUS
 10
152.6956168074
 20
31.4971831403
 11
152.9268669177
 21
31.4649194539
  0
LINE
  8
0
 62
7
  6
CONTINUOUS
 10
155.0081169177
 20
31.4971831403
 11
155.239367028
 21
31.4649194539
  0
LINE
  8
0
 62
7
  6
CONTINUOUS
 10
159.4596793074
 20
31.1422825445
 11
160.442492028
 21
30.9809641124
  0
LINE
  8
0
 62
7
  6
CONTINUOUS
 10
160.615929528
 20
31.0777551716
 11
159.6331168074
 21
31.2390736489
  0
LINE
  8
0
 62
7
  6
CONTINUOUS
 10
153.1003044177
 20
31.5939741996
 11
152.9268669177
 21
31.626237886
  0
LINE
  8
0
 62
7
  6
CONTINUOUS
 10
159.401867028
 20
30.6583272086
 11
159.575304528
 21
30.6260635193
  0
LINE
  8
0
 62
7
  6
CONTINUOUS
 10
158.2456168074
 20
31.5939741996
 11
158.0721793074
 21
31.626237886
  0
LINE
  8
0
 62
7
  6
CONTINUOUS
 10
160.5003043074
 20
31.4649194539
 11
160.615929528
 21
31.4326557675
  0
LINE
  8
0
 62
7
  6
CONTINUOUS
 10
160.6737418074
 20
30.8519093441
 11
160.615929528
 21
30.7873819712
  0
LINE
  8
0
 62
7
  6
CONTINUOUS
 10
159.228429528
 20
31.5294468267
 11
159.1128043074
 21
31.4326557675
  0
LINE
  8
0
 62
7
  6
CONTINUOUS
 10
154.1409294177
 20
31.5617105132
 11
154.0253041972
 21
31.4971831403
  0
LINE
  8
0
 62
7
  6
CONTINUOUS
 10
154.1987416972
 20
31.1745462761
 11
154.0831168074
 21
31.1100188581
  0
LINE
  8
0
 62
7
  6
CONTINUOUS
 10
154.3143669177
 20
31.0132277988
 11
154.4299918074
 21
31.0777551716
  0
LINE
  8
0
 62
7
  6
CONTINUOUS
 10
151.8862417523
 20
30.5937998301
 11
152.1753043074
 21
30.5937998301
  0
LINE
  8
0
 62
7
  6
CONTINUOUS
 10
153.2159293074
 20
30.5937998301
 11
153.5049916972
 21
30.5937998301
  0
LINE
  8
0
 62
7
  6
CONTINUOUS
 10
154.5456166972
 20
30.5937998301
 11
154.8924916972
 21
30.5937998301
  0
LINE
  8
0
 62
7
  6
CONTINUOUS
 10
155.5284290869
 20
30.5937998301
 11
155.8174918074
 21
30.5937998301
  0
LINE
  8
0
 62
7
  6
CONTINUOUS
 10
156.279992028
 20
30.5937998301
 11
156.5690540869
 21
30.5937998301
  0
LINE
  8
0
 62
7
  6
CONTINUOUS
 10
157.0315543074
 20
30.5937998301
 11
157.320617028
 21
30.5937998301
  0
LINE
  8
0
 62
7
  6
CONTINUOUS
 10
158.361242028
 20
30.5937998301
 11
158.6503040869
 21
30.5937998301
  0
LINE
  8
0
 62
7
  6
CONTINUOUS
 10
159.922179528
 20
30.5937998301
 11
160.269054528
 21
30.5937998301
  0
LINE
  8
0
 62
7
  6
CONTINUOUS
 10
160.269054528
 20
30.7228545871
 11
159.922179528
 21
30.7228545871
  0
LINE
  8
0
 62
7
  6
CONTINUOUS
 10
154.8924916972
 20
30.7228545871
 11
154.5456166972
 21
30.7228545871
  0
LINE
  8
0
 62
7
  6
CONTINUOUS
 10
159.401867028
 20
30.8519093441
 11
159.1128043074
 21
30.8519093441
  0
LINE
  8
0
 62
7
  6
CONTINUOUS
 10
151.4237418626
 20
30.9164367395
 11
151.1346793074
 21
30.9164367395
  0
LINE
  8
0
 62
7
  6
CONTINUOUS
 10
150.498741835
 20
31.4971831403
 11
150.9034292799
 21
31.4649194539
  0
LINE
  8
0
 62
7
  6
CONTINUOUS
 10
150.9612418074
 20
31.5939741996
 11
150.5565542799
 21
31.626237886
  0
LINE
  8
0
 62
7
  6
CONTINUOUS
 10
159.575304528
 20
30.6260635193
 11
159.922179528
 21
30.5937998301
  0
LINE
  8
0
 62
7
  6
CONTINUOUS
 10
159.922179528
 20
30.7228545871
 11
159.575304528
 21
30.7551182848
  0
LINE
  8
0
 62
7
  6
CONTINUOUS
 10
155.3549915869
 20
31.5939741996
 11
155.0081169177
 21
31.626237886
  0
LINE
  8
0
 62
7
  6
CONTINUOUS
 10
160.1534293074
 20
31.4971831403
 11
160.5003043074
 21
31.4649194539
  0
LINE
  8
0
 62
7
  6
CONTINUOUS
 10
160.5003043074
 20
31.5939741996
 11
160.1534293074
 21
31.626237886
  0
LINE
  8
0
 62
7
  6
CONTINUOUS
 10
157.840929528
 20
31.4971831403
 11
158.0721793074
 21
31.4649194539
  0
LINE
  8
0
 62
7
  6
CONTINUOUS
 10
160.6737418074
 20
31.5617105132
 11
160.5003043074
 21
31.5939741996
  0
LINE
  8
0
 62
7
  6
CONTINUOUS
 10
160.8471793074
 20
30.6905909007
 11
160.9628038663
 21
30.7873819712
  0
LINE
  8
0
 62
7
  6
CONTINUOUS
 10
155.3549915869
 20
30.8841730531
 11
155.1815540869
 21
30.7873819712
  0
LINE
  8
0
 62
7
  6
CONTINUOUS
 10
157.4362415869
 20
31.5294468267
 11
157.320617028
 21
31.4649194539
  0
LINE
  8
0
 62
7
  6
CONTINUOUS
 10
157.320617028
 20
31.3358647082
 11
157.4362415869
 21
31.400392081
  0
LINE
  8
0
 62
7
  6
CONTINUOUS
 10
150.0362418212
 20
31.5617105132
 11
149.8628043005
 21
31.4971831403
  0
LINE
  8
0
 62
7
  6
CONTINUOUS
 10
152.4643666972
 20
31.5939741996
 11
152.2909293626
 21
31.5294468267
  0
LINE
  8
0
 62
7
  6
CONTINUOUS
 10
152.2909293626
 20
31.400392081
 11
152.4643666972
 21
31.4649194539
  0
LINE
  8
0
 62
7
  6
CONTINUOUS
 10
151.0768668626
 20
30.8196456577
 11
150.9034292799
 21
30.7551182848
  0
LINE
  8
0
 62
7
  6
CONTINUOUS
 10
160.5003043074
 20
30.7551182848
 11
160.269054528
 21
30.7228545871
  0
LINE
  8
0
 62
7
  6
CONTINUOUS
 10
154.8924916972
 20
30.5937998301
 11
155.1815540869
 21
30.6260635193
  0
LINE
  8
0
 62
7
  6
CONTINUOUS
 10
160.269054528
 20
30.5937998301
 11
160.615929528
 21
30.6260635193
  0
LINE
  8
0
 62
7
  6
CONTINUOUS
 10
150.5565542799
 20
30.5937998301
 11
150.9612418074
 21
30.6260635193
  0
LINE
  8
0
 62
7
  6
CONTINUOUS
 10
150.9034292799
 20
30.7551182848
 11
150.498741835
 21
30.7228545871
  0
LINE
  8
0
 62
7
  6
CONTINUOUS
 10
154.7768668074
 20
31.1422825445
 11
155.412804528
 21
31.1422825445
  0
LINE
  8
0
 62
7
  6
CONTINUOUS
 10
155.412804528
 20
31.2713373354
 11
154.7768668074
 21
31.2713373354
  0
LINE
  8
0
 62
7
  6
CONTINUOUS
 10
151.1346793074
 20
31.3036010218
 11
151.4237418626
 21
31.3036010218
  0
LINE
  8
0
 62
7
  6
CONTINUOUS
 10
153.9674919177
 20
31.3681283946
 11
154.2565543074
 21
31.3681283946
  0
LINE
  8
0
 62
7
  6
CONTINUOUS
 10
160.6737418074
 20
31.3681283946
 11
160.9628038663
 21
31.3681283946
  0
LINE
  8
0
 62
7
  6
CONTINUOUS
 10
154.6612419177
 20
31.4971831403
 11
155.0081169177
 21
31.4971831403
  0
LINE
  8
0
 62
7
  6
CONTINUOUS
 10
159.8065543074
 20
31.4971831403
 11
160.1534293074
 21
31.4971831403
  0
LINE
  8
0
 62
7
  6
CONTINUOUS
 10
160.1534293074
 20
31.626237886
 11
159.8065543074
 21
31.626237886
  0
LINE
  8
0
 62
7
  6
CONTINUOUS
 10
158.0721793074
 20
31.626237886
 11
157.840929528
 21
31.626237886
  0
LINE
  8
0
 62
7
  6
CONTINUOUS
 10
157.320617028
 20
31.626237886
 11
157.0315543074
 21
31.626237886
  0
LINE
  8
0
 62
7
  6
CONTINUOUS
 10
156.5690540869
 20
31.626237886
 11
156.279992028
 21
31.626237886
  0
LINE
  8
0
 62
7
  6
CONTINUOUS
 10
155.0081169177
 20
31.626237886
 11
154.6612419177
 21
31.626237886
  0
LINE
  8
0
 62
7
  6
CONTINUOUS
 10
152.9268669177
 20
31.626237886
 11
152.6956168074
 21
31.626237886
  0
LINE
  8
0
 62
7
  6
CONTINUOUS
 10
156.279992028
 20
31.9488748406
 11
156.5690540869
 21
31.9488748406
  0
LINE
  8
0
 62
7
  6
CONTINUOUS
 10
156.5690540869
 20
32.1101932727
 11
156.279992028
 21
32.1101932727
  0
LINE
  8
0
 62
7
  6
CONTINUOUS
 10
152.1753043074
 20
32.1101932727
 11
151.8862417523
 21
32.1101932727
  0
LINE
  8
0
 62
7
  6
CONTINUOUS
 10
151.2130860697
 20
32.3970785186
 11
151.6256574183
 21
32.3970785186
  0
LINE
  8
0
 62
7
  6
CONTINUOUS
 10
152.852430332
 20
32.3970785186
 11
154.245872955
 21
32.3970785186
  0
LINE
  8
0
 62
7
  6
CONTINUOUS
 10
154.5737418074
 20
32.3970785186
 11
155.9671844304
 21
32.3970785186
  0
LINE
  8
0
 62
7
  6
CONTINUOUS
 10
157.852430332
 20
32.3970785186
 11
159.245872955
 21
32.3970785186
  0
LINE
  8
0
 62
7
  6
CONTINUOUS
 10
159.5737418074
 20
32.3970785186
 11
160.9671844304
 21
32.3970785186
  0
LINE
  8
0
 62
7
  6
CONTINUOUS
 10
157.6096790869
 20
31.5939741996
 11
157.4362415869
 21
31.5294468267
  0
LINE
  8
0
 62
7
  6
CONTINUOUS
 10
155.1815540869
 20
30.6260635193
 11
155.3549915869
 21
30.6905909007
  0
LINE
  8
0
 62
7
  6
CONTINUOUS
 10
160.615929528
 20
30.6260635193
 11
160.8471793074
 21
30.6905909007
  0
LINE
  8
0
 62
7
  6
CONTINUOUS
 10
160.615929528
 20
30.7873819712
 11
160.5003043074
 21
30.7551182848
  0
LINE
  8
0
 62
7
  6
CONTINUOUS
 10
159.575304528
 20
31.4649194539
 11
159.8065543074
 21
31.4971831403
  0
LINE
  8
0
 62
7
  6
CONTINUOUS
 10
157.6096790869
 20
31.4649194539
 11
157.840929528
 21
31.4971831403
  0
LINE
  8
0
 62
7
  6
CONTINUOUS
 10
154.5456166972
 20
31.1100188581
 11
154.7768668074
 21
31.1422825445
  0
LINE
  8
0
 62
7
  6
CONTINUOUS
 10
157.840929528
 20
31.626237886
 11
157.6096790869
 21
31.5939741996
  0
LINE
  8
0
 62
7
  6
CONTINUOUS
 10
154.4299918074
 20
31.4649194539
 11
154.6612419177
 21
31.4971831403
  0
LINE
  8
0
 62
7
  6
CONTINUOUS
 10
159.8065543074
 20
31.626237886
 11
159.4596793074
 21
31.5939741996
  0
LINE
  8
0
 62
7
  6
CONTINUOUS
 10
154.7768668074
 20
31.2713373354
 11
154.4299918074
 21
31.2390736489
  0
LINE
  8
0
 62
7
  6
CONTINUOUS
 10
150.5565542799
 20
31.626237886
 11
150.2096793212
 21
31.5939741996
  0
LINE
  8
0
 62
7
  6
CONTINUOUS
 10
154.6612419177
 20
31.626237886
 11
154.2565543074
 21
31.5939741996
  0
LINE
  8
0
 62
7
  6
CONTINUOUS
 10
152.0327582009
 20
33.5446195022
 11
151.3770204959
 21
33.5446195022
  0
LINE
  8
0
 62
7
  6
CONTINUOUS
 10
157.4362415869
 20
31.400392081
 11
157.6096790869
 21
31.4649194539
  0
LINE
  8
0
 62
7
  6
CONTINUOUS
 10
159.4596793074
 20
31.4326557675
 11
159.575304528
 21
31.4649194539
  0
LINE
  8
0
 62
7
  6
CONTINUOUS
 10
159.4596793074
 20
31.5939741996
 11
159.228429528
 21
31.5294468267
  0
LINE
  8
0
 62
7
  6
CONTINUOUS
 10
155.1815540869
 20
30.7873819712
 11
154.8924916972
 21
30.7228545871
  0
LINE
  8
0
 62
7
  6
CONTINUOUS
 10
152.4643666972
 20
31.4649194539
 11
152.6956168074
 21
31.4971831403
  0
LINE
  8
0
 62
7
  6
CONTINUOUS
 10
152.6956168074
 20
31.626237886
 11
152.4643666972
 21
31.5939741996
  0
LINE
  8
0
 62
7
  6
CONTINUOUS
 10
150.2674918074
 20
31.4649194539
 11
150.498741835
 21
31.4971831403
  0
LINE
  8
0
 62
7
  6
CONTINUOUS
 10
156.7868565615
 20
35.0200293383
 11
157.4425942664
 21
35.0200293383
  0
LINE
  8
0
 62
7
  6
CONTINUOUS
 10
154.4299918074
 20
31.0777551716
 11
154.5456166972
 21
31.1100188581
  0
LINE
  8
0
 62
7
  6
CONTINUOUS
 10
154.4299918074
 20
31.2390736489
 11
154.1987416972
 21
31.1745462761
  0
LINE
  8
0
 62
7
  6
CONTINUOUS
 10
154.3143669177
 20
31.4326557675
 11
154.4299918074
 21
31.4649194539
  0
LINE
  8
0
 62
7
  6
CONTINUOUS
 10
150.9612418074
 20
30.6260635193
 11
151.1924917523
 21
30.6905909007
  0
LINE
  8
0
 62
7
  6
CONTINUOUS
 10
154.2565543074
 20
31.5939741996
 11
154.1409294177
 21
31.5617105132
  0
LINE
  8
0
 62
7
  6
CONTINUOUS
 10
150.2096793212
 20
31.5939741996
 11
150.0362418212
 21
31.5617105132
  0
LINE
  8
0
 62
7
  6
CONTINUOUS
 10
160.9671844304
 20
36.1675703219
 11
159.5737418074
 21
36.1675703219
  0
LINE
  8
0
 62
7
  6
CONTINUOUS
 10
157.6065286927
 20
36.1675703219
 11
157.1939573441
 21
36.1675703219
  0
LINE
  8
0
 62
7
  6
CONTINUOUS
 10
155.9671844304
 20
36.1675703219
 11
154.5737418074
 21
36.1675703219
  0
LINE
  8
0
 62
7
  6
CONTINUOUS
 10
154.245872955
 20
36.1675703219
 11
152.852430332
 21
36.1675703219
  0
LINE
  8
0
 62
7
  6
CONTINUOUS
 10
150.9671844304
 20
36.1675703219
 11
149.5737418074
 21
36.1675703219
  0
LINE
  8
0
 62
7
  6
CONTINUOUS
 10
150.1518667936
 20
31.4326557675
 11
150.2674918074
 21
31.4649194539
  0
CIRCLE
  8
0
 62
7
  6
CONTINUOUS
 10
160.2704631189
 20
38.5036358957
 40
2.0901639344
  0
ARC
  8
0
 62
7
  6
CONTINUOUS
 10
151.2130860697
 20
34.0364227809
 40
1.6393442623
 50
180.0
 51
270.0
  0
ARC
  8
0
 62
7
  6
CONTINUOUS
 10
157.6065286927
 20
34.5282260596
 40
1.6393442623
 50
0.0
 51
90.0
  0
ARC
  8
0
 62
7
  6
CONTINUOUS
 10
151.6256574183
 20
33.8724883547
 40
1.4754098361
 50
270.0
 51
326.2510114041
  0
ARC
  8
0
 62
7
  6
CONTINUOUS
 10
157.1939573441
 20
34.6921604858
 40
1.4754098361
 50
90.0
 51
146.2510114041
  0
ARC
  8
0
 62
7
  6
CONTINUOUS
 10
152.0327582009
 20
34.3642916334
 40
0.8196721311
 50
270.0
 51
360.0
  0
ARC
  8
0
 62
7
  6
CONTINUOUS
 10
156.7868565615
 20
34.2003572071
 40
0.8196721311
 50
90.0
 51
180.0
  0
ARC
  8
0
 62
7
  6
CONTINUOUS
 10
151.3770204959
 20
33.9544555678
 40
0.4098360656
 50
180.0
 51
270.0
  0
ARC
  8
0
 62
7
  6
CONTINUOUS
 10
157.4425942664
 20
34.6101932727
 40
0.4098360656
 50
0.0
 51
90.0
  0
SOLID
  8
0
 62
7
  6
CONTINUOUS
 10
156.279992028
 20
31.9488752009
 11
156.279992028
 21
32.1101936845
 12
156.5690540869
 22
31.9488752009
 13
156.5690540869
 23
32.1101936845
  0
SOLID
  8
0
 62
7
  6
CONTINUOUS
 10
150.5565542799
 20
31.6262382337
 11
150.9612418074
 21
31.5939740028
 12
150.2096793212
 22
31.5939740028
 13
150.2096793212
 23
31.5939740028
  0
SOLID
  8
0
 62
7
  6
CONTINUOUS
 10
150.0362418212
 20
31.5617111435
 11
150.2096793212
 21
31.5939740028
 12
150.9612418074
 22
31.5939740028
 13
150.9612418074
 23
31.5939740028
  0
SOLID
  8
0
 62
7
  6
CONTINUOUS
 10
150.9612418074
 20
31.5939740028
 11
151.1924917523
 21
31.5294468402
 12
150.0362418212
 22
31.5617111435
 13
150.0362418212
 23
31.5617111435
  0
SOLID
  8
0
 62
7
  6
CONTINUOUS
 10
149.8628043005
 20
31.49718259
 11
150.0362418212
 21
31.5617111435
 12
151.1924917523
 22
31.5294468402
 13
151.1924917523
 23
31.5294468402
  0
SOLID
  8
0
 62
7
  6
CONTINUOUS
 10
149.8628043005
 20
31.49718259
 11
151.1924917523
 21
31.5294468402
 12
150.498741835
 22
31.49718259
 13
150.498741835
 23
31.49718259
  0
SOLID
  8
0
 62
7
  6
CONTINUOUS
 10
150.498741835
 20
31.49718259
 11
151.1924917523
 21
31.5294468402
 12
150.9034292799
 22
31.4649197501
 13
150.9034292799
 23
31.4649197501
  0
SOLID
  8
0
 62
7
  6
CONTINUOUS
 10
151.1924917523
 20
31.5294468402
 11
151.3659292523
 21
31.4326554468
 12
150.9034292799
 22
31.4649197501
 13
150.9034292799
 23
31.4649197501
  0
SOLID
  8
0
 62
7
  6
CONTINUOUS
 10
151.0768668626
 20
31.4003926599
 11
150.9034292799
 21
31.4649197501
 12
151.3659292523
 22
31.4326554468
 13
151.3659292523
 23
31.4326554468
  0
SOLID
  8
0
 62
7
  6
CONTINUOUS
 10
151.0768668626
 20
31.4003926599
 11
151.3659292523
 21
31.4326554468
 12
151.1346793074
 22
31.3036013776
 13
151.1346793074
 23
31.3036013776
  0
SOLID
  8
0
 62
7
  6
CONTINUOUS
 10
151.3659292523
 20
31.4326554468
 11
151.4237418626
 21
31.3036013776
 12
151.1346793074
 22
31.3036013776
 13
151.1346793074
 23
31.3036013776
  0
SOLID
  8
0
 62
7
  6
CONTINUOUS
 10
152.4643666972
 20
31.5939739754
 11
152.6956168074
 21
31.6262382787
 12
152.9268669177
 22
31.6262382787
 13
152.9268669177
 23
31.6262382787
  0
SOLID
  8
0
 62
7
  6
CONTINUOUS
 10
152.9268669177
 20
31.6262382787
 11
153.1003044177
 21
31.5939739754
 12
152.4643666972
 22
31.5939739754
 13
152.4643666972
 23
31.5939739754
  0
SOLID
  8
0
 62
7
  6
CONTINUOUS
 10
152.2909293626
 20
31.5294468852
 11
152.4643666972
 21
31.5939739754
 12
153.1003044177
 22
31.5939739754
 13
153.1003044177
 23
31.5939739754
  0
SOLID
  8
0
 62
7
  6
CONTINUOUS
 10
153.1003044177
 20
31.5939739754
 11
153.2737419177
 21
31.5294468852
 12
152.2909293626
 22
31.5294468852
 13
152.2909293626
 23
31.5294468852
  0
SOLID
  8
0
 62
7
  6
CONTINUOUS
 10
153.2737419177
 20
31.5294468852
 11
152.6956168074
 21
31.4971825369
 12
152.2909293626
 22
31.5294468852
 13
152.2909293626
 23
31.5294468852
  0
SOLID
  8
0
 62
7
  6
CONTINUOUS
 10
152.1753043074
 20
31.4649197951
 11
152.2909293626
 21
31.5294468852
 12
152.6956168074
 22
31.4971825369
 13
152.6956168074
 23
31.4971825369
  0
SOLID
  8
0
 62
7
  6
CONTINUOUS
 10
152.6956168074
 20
31.4971825369
 11
152.4643666972
 21
31.4649197951
 12
152.1753043074
 22
31.4649197951
 13
152.1753043074
 23
31.4649197951
  0
SOLID
  8
0
 62
7
  6
CONTINUOUS
 10
152.6956168074
 20
31.4971825369
 11
153.2737419177
 21
31.5294468852
 12
152.9268669177
 22
31.4649197951
 13
152.9268669177
 23
31.4649197951
  0
SOLID
  8
0
 62
7
  6
CONTINUOUS
 10
153.2737419177
 20
31.5294468852
 11
153.3893668074
 21
31.4649197951
 12
152.9268669177
 22
31.4649197951
 13
152.9268669177
 23
31.4649197951
  0
SOLID
  8
0
 62
7
  6
CONTINUOUS
 10
153.0424918074
 20
31.4326554468
 11
152.9268669177
 21
31.4649197951
 12
153.3893668074
 22
31.4649197951
 13
153.3893668074
 23
31.4649197951
  0
SOLID
  8
0
 62
7
  6
CONTINUOUS
 10
153.3893668074
 20
31.4649197951
 11
153.4471794177
 21
31.4003927049
 12
153.0424918074
 22
31.4326554468
 13
153.0424918074
 23
31.4326554468
  0
SOLID
  8
0
 62
7
  6
CONTINUOUS
 10
153.1581166972
 20
31.3681283566
 11
153.0424918074
 21
31.4326554468
 12
153.4471794177
 22
31.4003927049
 13
153.4471794177
 23
31.4003927049
  0
SOLID
  8
0
 62
7
  6
CONTINUOUS
 10
153.1581166972
 20
31.3681283566
 11
153.4471794177
 21
31.4003927049
 12
153.2159293074
 22
31.2390742213
 13
153.2159293074
 23
31.2390742213
  0
SOLID
  8
0
 62
7
  6
CONTINUOUS
 10
153.4471794177
 20
31.4003927049
 11
153.5049916972
 21
31.2390742213
 12
153.2159293074
 22
31.2390742213
 13
153.2159293074
 23
31.2390742213
  0
SOLID
  8
0
 62
7
  6
CONTINUOUS
 10
152.4643666972
 20
31.4649197951
 11
152.2909293626
 21
31.4003927049
 12
152.1753043074
 22
31.4649197951
 13
152.1753043074
 23
31.4649197951
  0
SOLID
  8
0
 62
7
  6
CONTINUOUS
 10
152.2909293626
 20
31.4003927049
 11
152.1753043074
 21
31.3358640533
 12
152.1753043074
 22
31.4649197951
 13
152.1753043074
 23
31.4649197951
  0
SOLID
  8
0
 62
7
  6
CONTINUOUS
 10
152.1753043074
 20
31.3358640533
 11
151.8862417523
 21
30.5938002869
 12
152.1753043074
 22
31.4649197951
 13
152.1753043074
 23
31.4649197951
  0
SOLID
  8
0
 62
7
  6
CONTINUOUS
 10
152.1753043074
 20
31.4649197951
 11
151.8862417523
 21
30.5938002869
 12
152.1753043074
 22
32.1101937295
 13
152.1753043074
 23
32.1101937295
  0
SOLID
  8
0
 62
7
  6
CONTINUOUS
 10
151.8862417523
 20
30.5938002869
 11
151.8862417523
 21
32.1101937295
 12
152.1753043074
 22
32.1101937295
 13
152.1753043074
 23
32.1101937295
  0
SOLID
  8
0
 62
7
  6
CONTINUOUS
 10
152.1753043074
 20
31.3358640533
 11
152.1753043074
 21
30.5938002869
 12
151.8862417523
 22
30.5938002869
 13
151.8862417523
 23
30.5938002869
  0
SOLID
  8
0
 62
7
  6
CONTINUOUS
 10
153.2159293074
 20
30.5938002869
 11
153.2159293074
 21
31.2390742213
 12
153.5049916972
 22
31.2390742213
 13
153.5049916972
 23
31.2390742213
  0
SOLID
  8
0
 62
7
  6
CONTINUOUS
 10
153.5049916972
 20
31.2390742213
 11
153.5049916972
 21
30.5938002869
 12
153.2159293074
 22
30.5938002869
 13
153.2159293074
 23
30.5938002869
  0
SOLID
  8
0
 62
7
  6
CONTINUOUS
 10
154.2565543074
 20
31.5939738288
 11
154.6612419177
 21
31.6262385959
 12
155.0081169177
 22
31.6262385959
 13
155.0081169177
 23
31.6262385959
  0
SOLID
  8
0
 62
7
  6
CONTINUOUS
 10
155.0081169177
 20
31.6262385959
 11
155.3549915869
 21
31.5939738288
 12
154.2565543074
 22
31.5939738288
 13
154.2565543074
 23
31.5939738288
  0
SOLID
  8
0
 62
7
  6
CONTINUOUS
 10
154.1409294177
 20
31.5617111435
 11
154.2565543074
 21
31.5939738288
 12
155.3549915869
 22
31.5939738288
 13
155.3549915869
 23
31.5939738288
  0
SOLID
  8
0
 62
7
  6
CONTINUOUS
 10
155.3549915869
 20
31.5939738288
 11
155.5284290869
 21
31.5294468402
 12
154.1409294177
 22
31.5617111435
 13
154.1409294177
 23
31.5617111435
  0
SOLID
  8
0
 62
7
  6
CONTINUOUS
 10
154.0253041972
 20
31.4971826249
 11
154.1409294177
 21
31.5617111435
 12
155.5284290869
 22
31.5294468402
 13
155.5284290869
 23
31.5294468402
  0
SOLID
  8
0
 62
7
  6
CONTINUOUS
 10
154.0253041972
 20
31.4971826249
 11
155.5284290869
 21
31.5294468402
 12
154.6612419177
 22
31.4971826249
 13
154.6612419177
 23
31.4971826249
  0
SOLID
  8
0
 62
7
  6
CONTINUOUS
 10
154.6612419177
 20
31.4971826249
 11
155.5284290869
 21
31.5294468402
 12
155.0081169177
 22
31.4971826249
 13
155.0081169177
 23
31.4971826249
  0
SOLID
  8
0
 62
7
  6
CONTINUOUS
 10
155.0081169177
 20
31.4971826249
 11
155.5284290869
 21
31.5294468402
 12
155.239367028
 22
31.4649194065
 13
155.239367028
 23
31.4649194065
  0
SOLID
  8
0
 62
7
  6
CONTINUOUS
 10
155.5284290869
 20
31.5294468402
 11
155.6440543074
 21
31.4649194065
 12
155.239367028
 22
31.4649194065
 13
155.239367028
 23
31.4649194065
  0
SOLID
  8
0
 62
7
  6
CONTINUOUS
 10
153.9674919177
 20
31.4326554138
 11
154.0253041972
 21
31.4971826249
 12
154.6612419177
 22
31.4971826249
 13
154.6612419177
 23
31.4971826249
  0
SOLID
  8
0
 62
7
  6
CONTINUOUS
 10
155.3549915869
 20
31.4326554138
 11
155.239367028
 21
31.4649194065
 12
155.6440543074
 22
31.4649194065
 13
155.6440543074
 23
31.4649194065
  0
SOLID
  8
0
 62
7
  6
CONTINUOUS
 10
155.3549915869
 20
31.4326554138
 11
155.6440543074
 21
31.4649194065
 12
155.412804528
 22
31.3681282026
 13
155.412804528
 23
31.3681282026
  0
SOLID
  8
0
 62
7
  6
CONTINUOUS
 10
155.6440543074
 20
31.4649194065
 11
155.7018665869
 21
31.3681282026
 12
155.412804528
 22
31.3681282026
 13
155.412804528
 23
31.3681282026
  0
SOLID
  8
0
 62
7
  6
CONTINUOUS
 10
155.412804528
 20
31.2713369632
 11
155.412804528
 21
31.3681282026
 12
155.7018665869
 22
31.3681282026
 13
155.7018665869
 23
31.3681282026
  0
SOLID
  8
0
 62
7
  6
CONTINUOUS
 10
155.412804528
 20
31.2713369632
 11
155.7018665869
 21
31.3681282026
 12
155.412804528
 22
31.1422827828
 13
155.412804528
 23
31.1422827828
  0
SOLID
  8
0
 62
7
  6
CONTINUOUS
 10
155.412804528
 20
31.1422827828
 11
155.7018665869
 21
31.3681282026
 12
155.412804528
 22
30.9487004259
 13
155.412804528
 23
30.9487004259
  0
SOLID
  8
0
 62
7
  6
CONTINUOUS
 10
155.7018665869
 20
31.3681282026
 11
155.7018665869
 21
30.8519086025
 12
155.412804528
 22
30.9487004259
 13
155.412804528
 23
30.9487004259
  0
SOLID
  8
0
 62
7
  6
CONTINUOUS
 10
157.6096790869
 20
31.5939736268
 11
157.840929528
 21
31.6262383465
 12
158.0721793074
 22
31.6262383465
 13
158.0721793074
 23
31.6262383465
  0
SOLID
  8
0
 62
7
  6
CONTINUOUS
 10
158.0721793074
 20
31.6262383465
 11
158.2456168074
 21
31.5939736268
 12
157.6096790869
 22
31.5939736268
 13
157.6096790869
 23
31.5939736268
  0
SOLID
  8
0
 62
7
  6
CONTINUOUS
 10
157.4362415869
 20
31.5294472848
 11
157.6096790869
 21
31.5939736268
 12
158.2456168074
 22
31.5939736268
 13
158.2456168074
 23
31.5939736268
  0
SOLID
  8
0
 62
7
  6
CONTINUOUS
 10
158.2456168074
 20
31.5939736268
 11
158.4190543074
 21
31.5294472848
 12
157.4362415869
 22
31.5294472848
 13
157.4362415869
 23
31.5294472848
  0
SOLID
  8
0
 62
7
  6
CONTINUOUS
 10
158.4190543074
 20
31.5294472848
 11
157.840929528
 21
31.4971825369
 12
157.4362415869
 22
31.5294472848
 13
157.4362415869
 23
31.5294472848
  0
SOLID
  8
0
 62
7
  6
CONTINUOUS
 10
157.320617028
 20
31.4649199103
 11
157.4362415869
 21
31.5294472848
 12
157.840929528
 22
31.4971825369
 13
157.840929528
 23
31.4971825369
  0
SOLID
  8
0
 62
7
  6
CONTINUOUS
 10
157.840929528
 20
31.4971825369
 11
157.6096790869
 21
31.4649199103
 12
157.320617028
 22
31.4649199103
 13
157.320617028
 23
31.4649199103
  0
SOLID
  8
0
 62
7
  6
CONTINUOUS
 10
157.840929528
 20
31.4971825369
 11
158.4190543074
 21
31.5294472848
 12
158.0721793074
 22
31.4649199103
 13
158.0721793074
 23
31.4649199103
  0
SOLID
  8
0
 62
7
  6
CONTINUOUS
 10
158.4190543074
 20
31.5294472848
 11
158.534679528
 21
31.4649199103
 12
158.0721793074
 22
31.4649199103
 13
158.0721793074
 23
31.4649199103
  0
SOLID
  8
0
 62
7
  6
CONTINUOUS
 10
158.187804528
 20
31.4326554468
 11
158.0721793074
 21
31.4649199103
 12
158.534679528
 22
31.4649199103
 13
158.534679528
 23
31.4649199103
  0
SOLID
  8
0
 62
7
  6
CONTINUOUS
 10
158.187804528
 20
31.4326554468
 11
158.534679528
 21
31.4649199103
 12
158.3034290869
 22
31.3681288486
 13
158.3034290869
 23
31.3681288486
  0
SOLID
  8
0
 62
7
  6
CONTINUOUS
 10
158.534679528
 20
31.4649199103
 11
158.5924918074
 21
31.3681288486
 12
158.3034290869
 22
31.3681288486
 13
158.3034290869
 23
31.3681288486
  0
SOLID
  8
0
 62
7
  6
CONTINUOUS
 10
158.361242028
 20
31.2068093799
 11
158.3034290869
 21
31.3681288486
 12
158.5924918074
 22
31.3681288486
 13
158.5924918074
 23
31.3681288486
  0
SOLID
  8
0
 62
7
  6
CONTINUOUS
 10
158.5924918074
 20
31.3681288486
 11
158.6503040869
 21
31.2068093799
 12
158.361242028
 22
31.2068093799
 13
158.361242028
 23
31.2068093799
  0
SOLID
  8
0
 62
7
  6
CONTINUOUS
 10
157.6096790869
 20
31.4649199103
 11
157.4362415869
 21
31.4003926599
 12
157.320617028
 22
31.4649199103
 13
157.320617028
 23
31.4649199103
  0
SOLID
  8
0
 62
7
  6
CONTINUOUS
 10
157.4362415869
 20
31.4003926599
 11
157.320617028
 21
31.3358640533
 12
157.320617028
 22
31.4649199103
 13
157.320617028
 23
31.4649199103
  0
SOLID
  8
0
 62
7
  6
CONTINUOUS
 10
157.320617028
 20
31.3358640533
 11
157.0315543074
 21
30.5938003547
 12
157.320617028
 22
31.4649199103
 13
157.320617028
 23
31.4649199103
  0
SOLID
  8
0
 62
7
  6
CONTINUOUS
 10
157.320617028
 20
31.4649199103
 11
157.0315543074
 21
30.5938003547
 12
157.320617028
 22
31.6262383465
 13
157.320617028
 23
31.6262383465
  0
SOLID
  8
0
 62
7
  6
CONTINUOUS
 10
157.0315543074
 20
30.5938003547
 11
157.0315543074
 21
31.6262383465
 12
157.320617028
 22
31.6262383465
 13
157.320617028
 23
31.6262383465
  0
SOLID
  8
0
 62
7
  6
CONTINUOUS
 10
157.320617028
 20
31.3358640533
 11
157.320617028
 21
30.5938003547
 12
157.0315543074
 22
30.5938003547
 13
157.0315543074
 23
30.5938003547
  0
SOLID
  8
0
 62
7
  6
CONTINUOUS
 10
158.361242028
 20
30.5938003547
 11
158.361242028
 21
31.2068093799
 12
158.6503040869
 22
31.2068093799
 13
158.6503040869
 23
31.2068093799
  0
SOLID
  8
0
 62
7
  6
CONTINUOUS
 10
158.6503040869
 20
31.2068093799
 11
158.6503040869
 21
30.5938003547
 12
158.361242028
 22
30.5938003547
 13
158.361242028
 23
30.5938003547
  0
SOLID
  8
0
 62
7
  6
CONTINUOUS
 10
159.4596793074
 20
31.5939739474
 11
159.8065543074
 21
31.6262381969
 12
160.1534293074
 22
31.6262381969
 13
160.1534293074
 23
31.6262381969
  0
SOLID
  8
0
 62
7
  6
CONTINUOUS
 10
160.1534293074
 20
31.6262381969
 11
160.5003043074
 21
31.5939739474
 12
159.4596793074
 22
31.5939739474
 13
159.4596793074
 23
31.5939739474
  0
SOLID
  8
0
 62
7
  6
CONTINUOUS
 10
159.228429528
 20
31.5294468402
 11
159.4596793074
 21
31.5939739474
 12
160.5003043074
 22
31.5939739474
 13
160.5003043074
 23
31.5939739474
  0
SOLID
  8
0
 62
7
  6
CONTINUOUS
 10
159.228429528
 20
31.5294468402
 11
160.5003043074
 21
31.5939739304
 12
160.6737418074
 22
31.5617111435
 13
160.6737418074
 23
31.5617111435
  0
SOLID
  8
0
 62
7
  6
CONTINUOUS
 10
159.228429528
 20
31.5294468402
 11
160.6737418074
 21
31.5617111435
 12
159.8065543074
 22
31.4971825592
 13
159.8065543074
 23
31.4971825592
  0
SOLID
  8
0
 62
7
  6
CONTINUOUS
 10
159.8065543074
 20
31.4971825592
 11
160.6737418074
 21
31.5617111435
 12
160.1534293074
 22
31.4971825592
 13
160.1534293074
 23
31.4971825592
  0
SOLID
  8
0
 62
7
  6
CONTINUOUS
 10
160.6737418074
 20
31.5617111435
 11
160.8471793074
 21
31.4971825592
 12
160.1534293074
 22
31.4971825592
 13
160.1534293074
 23
31.4971825592
  0
SOLID
  8
0
 62
7
  6
CONTINUOUS
 10
160.5003043074
 20
31.4649197501
 11
160.1534293074
 21
31.4971825592
 12
160.8471793074
 22
31.4971825592
 13
160.8471793074
 23
31.4971825592
  0
SOLID
  8
0
 62
7
  6
CONTINUOUS
 10
159.1128043074
 20
31.4326555427
 11
159.228429528
 21
31.5294468402
 12
159.8065543074
 22
31.4971825592
 13
159.8065543074
 23
31.4971825592
  0
SOLID
  8
0
 62
7
  6
CONTINUOUS
 10
160.5003043074
 20
31.4649197501
 11
160.8471793074
 21
31.4971825592
 12
160.615929528
 22
31.4326555427
 13
160.615929528
 23
31.4326555427
  0
SOLID
  8
0
 62
7
  6
CONTINUOUS
 10
160.615929528
 20
31.4326555427
 11
160.8471793074
 21
31.4971825592
 12
160.6737418074
 22
31.3681283005
 13
160.6737418074
 23
31.3681283005
  0
SOLID
  8
0
 62
7
  6
CONTINUOUS
 10
160.8471793074
 20
31.4971825592
 11
160.9628038663
 21
31.3681283005
 12
160.6737418074
 22
31.3681283005
 13
160.6737418074
 23
31.3681283005
  0
SOLID
  8
0
 62
7
  6
CONTINUOUS
 10
150.2674918074
 20
31.4649197501
 11
149.7471793074
 21
31.4326554237
 12
150.498741835
 22
31.4971824493
 13
150.498741835
 23
31.4971824493
  0
SOLID
  8
0
 62
7
  6
CONTINUOUS
 10
149.7471793074
 20
31.4326554237
 11
149.8628043005
 21
31.4971824493
 12
150.498741835
 22
31.4971824493
 13
150.498741835
 23
31.4971824493
  0
SOLID
  8
0
 62
7
  6
CONTINUOUS
 10
150.2674918074
 20
31.4649197501
 11
150.1518667936
 21
31.4326554237
 12
149.7471793074
 22
31.4326554237
 13
149.7471793074
 23
31.4326554237
  0
SOLID
  8
0
 62
7
  6
CONTINUOUS
 10
149.6315543091
 20
31.3036012664
 11
149.7471793074
 21
31.4326554237
 12
150.1518667936
 22
31.4326554237
 13
150.1518667936
 23
31.4326554237
  0
SOLID
  8
0
 62
7
  6
CONTINUOUS
 10
153.9674919177
 20
31.4326554237
 11
154.6612419177
 21
31.4971825369
 12
154.4299918074
 22
31.4649197501
 13
154.4299918074
 23
31.4649197501
  0
SOLID
  8
0
 62
7
  6
CONTINUOUS
 10
154.4299918074
 20
31.4649197501
 11
154.3143669177
 21
31.4326554237
 12
153.9674919177
 22
31.4326554237
 13
153.9674919177
 23
31.4326554237
  0
SOLID
  8
0
 62
7
  6
CONTINUOUS
 10
153.9674919177
 20
31.3681283335
 11
153.9674919177
 21
31.4326554237
 12
154.3143669177
 22
31.4326554237
 13
154.3143669177
 23
31.4326554237
  0
SOLID
  8
0
 62
7
  6
CONTINUOUS
 10
154.3143669177
 20
31.4326554237
 11
154.2565543074
 21
31.3681283335
 12
153.9674919177
 22
31.3681283335
 13
153.9674919177
 23
31.3681283335
  0
SOLID
  8
0
 62
7
  6
CONTINUOUS
 10
159.1128043074
 20
31.4326555528
 11
159.8065543074
 21
31.4971825369
 12
159.575304528
 22
31.4649197501
 13
159.575304528
 23
31.4649197501
  0
SOLID
  8
0
 62
7
  6
CONTINUOUS
 10
159.575304528
 20
31.4649197501
 11
159.4596793074
 21
31.4326555528
 12
159.1128043074
 22
31.4326555528
 13
159.1128043074
 23
31.4326555528
  0
SOLID
  8
0
 62
7
  6
CONTINUOUS
 10
159.1128043074
 20
31.3681284626
 11
159.1128043074
 21
31.4326555528
 12
159.4596793074
 22
31.4326555528
 13
159.4596793074
 23
31.4326555528
  0
SOLID
  8
0
 62
7
  6
CONTINUOUS
 10
159.4596793074
 20
31.4326555528
 11
159.401867028
 21
31.3681284626
 12
159.1128043074
 22
31.3681284626
 13
159.1128043074
 23
31.3681284626
  0
SOLID
  8
0
 62
7
  6
CONTINUOUS
 10
159.228429528
 20
31.2390741763
 11
159.1128043074
 21
31.3681284626
 12
159.401867028
 22
31.3681284626
 13
159.401867028
 23
31.3681284626
  0
SOLID
  8
0
 62
7
  6
CONTINUOUS
 10
149.6315543091
 20
31.3036012664
 11
150.1518667936
 21
31.4326554468
 12
149.9784292936
 22
31.3358640533
 13
149.9784292936
 23
31.3358640533
  0
SOLID
  8
0
 62
7
  6
CONTINUOUS
 10
149.9784292936
 20
31.3358640533
 11
149.9206168074
 21
31.2713369632
 12
149.6315543091
 22
31.3036012664
 13
149.6315543091
 23
31.3036012664
  0
SOLID
  8
0
 62
7
  6
CONTINUOUS
 10
149.5737418074
 20
31.1100184796
 11
149.6315543091
 21
31.3036012664
 12
149.9206168074
 22
31.2713369632
 13
149.9206168074
 23
31.2713369632
  0
SOLID
  8
0
 62
7
  6
CONTINUOUS
 10
154.4299918074
 20
31.2390741763
 11
154.7768668074
 21
31.271336924
 12
155.412804528
 22
31.271336924
 13
155.412804528
 23
31.271336924
  0
SOLID
  8
0
 62
7
  6
CONTINUOUS
 10
154.4299918074
 20
31.2390741763
 11
155.412804528
 21
31.271336924
 12
154.1987416972
 22
31.1745462761
 13
154.1987416972
 23
31.1745462761
  0
SOLID
  8
0
 62
7
  6
CONTINUOUS
 10
154.1987416972
 20
31.1745462761
 11
155.412804528
 21
31.271336924
 12
154.7768668074
 22
31.1422827436
 13
154.7768668074
 23
31.1422827436
  0
SOLID
  8
0
 62
7
  6
CONTINUOUS
 10
155.412804528
 20
31.271336924
 11
155.412804528
 21
31.1422827436
 12
154.7768668074
 22
31.1422827436
 13
154.7768668074
 23
31.1422827436
  0
SOLID
  8
0
 62
7
  6
CONTINUOUS
 10
159.228429528
 20
31.2390745501
 11
159.401867028
 21
31.3681283566
 12
159.4596793074
 22
31.3036012664
 13
159.4596793074
 23
31.3036012664
  0
SOLID
  8
0
 62
7
  6
CONTINUOUS
 10
159.4596793074
 20
31.3036012664
 11
159.6331168074
 21
31.2390745501
 12
159.228429528
 22
31.2390745501
 13
159.228429528
 23
31.2390745501
  0
SOLID
  8
0
 62
7
  6
CONTINUOUS
 10
159.4596793074
 20
31.1422827828
 11
159.228429528
 21
31.2390745501
 12
159.6331168074
 22
31.2390745501
 13
159.6331168074
 23
31.2390745501
  0
SOLID
  8
0
 62
7
  6
CONTINUOUS
 10
159.6331168074
 20
31.2390745501
 11
160.615929528
 21
31.0777556927
 12
159.4596793074
 22
31.1422827828
 13
159.4596793074
 23
31.1422827828
  0
SOLID
  8
0
 62
7
  6
CONTINUOUS
 10
160.442492028
 20
30.9809646623
 11
159.4596793074
 21
31.1422827828
 12
160.615929528
 22
31.0777556927
 13
160.615929528
 23
31.0777556927
  0
SOLID
  8
0
 62
7
  6
CONTINUOUS
 10
160.615929528
 20
31.0777556927
 11
160.8471793074
 21
30.9809646623
 12
160.442492028
 22
30.9809646623
 13
160.442492028
 23
30.9809646623
  0
SOLID
  8
0
 62
7
  6
CONTINUOUS
 10
160.615929528
 20
30.9164372091
 11
160.442492028
 21
30.9809646623
 12
160.8471793074
 22
30.9809646623
 13
160.8471793074
 23
30.9809646623
  0
SOLID
  8
0
 62
7
  6
CONTINUOUS
 10
160.615929528
 20
30.9164372091
 11
160.8471793074
 21
30.9809646623
 12
160.6737418074
 22
30.8519089441
 13
160.6737418074
 23
30.8519089441
  0
SOLID
  8
0
 62
7
  6
CONTINUOUS
 10
160.8471793074
 20
30.9809646623
 11
160.9628038663
 21
30.8519089441
 12
160.6737418074
 22
30.8519089441
 13
160.6737418074
 23
30.8519089441
  0
SOLID
  8
0
 62
7
  6
CONTINUOUS
 10
160.615929528
 20
30.7873818593
 11
160.6737418074
 21
30.8519089441
 12
160.9628038663
 22
30.8519089441
 13
160.9628038663
 23
30.8519089441
  0
SOLID
  8
0
 62
7
  6
CONTINUOUS
 10
160.9628038663
 20
30.8519089441
 11
160.9628038663
 21
30.7873818593
 12
160.615929528
 22
30.7873818593
 13
160.615929528
 23
30.7873818593
  0
SOLID
  8
0
 62
7
  6
CONTINUOUS
 10
160.5003043074
 20
30.7551187255
 11
160.615929528
 21
30.7873818593
 12
160.9628038663
 22
30.7873818593
 13
160.9628038663
 23
30.7873818593
  0
SOLID
  8
0
 62
7
  6
CONTINUOUS
 10
160.5003043074
 20
30.7551187255
 11
160.9628038663
 21
30.7873818593
 12
160.269054528
 22
30.7228547745
 13
160.269054528
 23
30.7228547745
  0
SOLID
  8
0
 62
7
  6
CONTINUOUS
 10
160.9628038663
 20
30.7873818593
 11
160.8471793074
 21
30.6905916353
 12
160.269054528
 22
30.7228547745
 13
160.269054528
 23
30.7228547745
  0
SOLID
  8
0
 62
7
  6
CONTINUOUS
 10
160.8471793074
 20
30.6905916353
 11
159.401867028
 21
30.658327332
 12
160.269054528
 22
30.7228547745
 13
160.269054528
 23
30.7228547745
  0
SOLID
  8
0
 62
7
  6
CONTINUOUS
 10
160.269054528
 20
30.7228547745
 11
159.401867028
 21
30.658327332
 12
159.922179528
 22
30.7228547745
 13
159.922179528
 23
30.7228547745
  0
SOLID
  8
0
 62
7
  6
CONTINUOUS
 10
159.401867028
 20
30.658327332
 11
159.228429528
 21
30.7228547745
 12
159.922179528
 22
30.7228547745
 13
159.922179528
 23
30.7228547745
  0
SOLID
  8
0
 62
7
  6
CONTINUOUS
 10
159.401867028
 20
30.658327332
 11
160.8471793074
 21
30.6905916353
 12
159.575304528
 22
30.6260629858
 13
159.575304528
 23
30.6260629858
  0
SOLID
  8
0
 62
7
  6
CONTINUOUS
 10
160.8471793074
 20
30.6905916353
 11
160.615929528
 21
30.6260629858
 12
159.575304528
 22
30.6260629858
 13
159.575304528
 23
30.6260629858
  0
SOLID
  8
0
 62
7
  6
CONTINUOUS
 10
159.922179528
 20
30.5938006049
 11
159.575304528
 21
30.6260629858
 12
160.615929528
 22
30.6260629858
 13
160.615929528
 23
30.6260629858
  0
SOLID
  8
0
 62
7
  6
CONTINUOUS
 10
160.615929528
 20
30.6260629858
 11
160.269054528
 21
30.5938006049
 12
159.922179528
 22
30.5938006049
 13
159.922179528
 23
30.5938006049
  0
SOLID
  8
0
 62
7
  6
CONTINUOUS
 10
149.5737418074
 20
31.1100184796
 11
149.9206168074
 21
31.2713369632
 12
149.8628043005
 22
31.1422827828
 13
149.8628043005
 23
31.1422827828
  0
SOLID
  8
0
 62
7
  6
CONTINUOUS
 10
149.8628043005
 20
31.1422827828
 11
149.8628043005
 21
31.0454914852
 12
149.5737418074
 22
31.1100184796
 13
149.5737418074
 23
31.1100184796
  0
SOLID
  8
0
 62
7
  6
CONTINUOUS
 10
149.6315543091
 20
30.9164372091
 11
149.5737418074
 21
31.1100184796
 12
149.8628043005
 22
31.0454914852
 13
149.8628043005
 23
31.0454914852
  0
SOLID
  8
0
 62
7
  6
CONTINUOUS
 10
149.8628043005
 20
31.0454914852
 11
149.9784292936
 21
30.8841729058
 12
149.6315543091
 22
30.9164372091
 13
149.6315543091
 23
30.9164372091
  0
SOLID
  8
0
 62
7
  6
CONTINUOUS
 10
149.7471793074
 20
30.7873813202
 11
149.6315543091
 21
30.9164372091
 12
149.9784292936
 22
30.8841729058
 13
149.9784292936
 23
30.8841729058
  0
SOLID
  8
0
 62
7
  6
CONTINUOUS
 10
149.9784292936
 20
30.8841729058
 11
150.1518667936
 21
30.7873813202
 12
149.7471793074
 22
30.7873813202
 13
149.7471793074
 23
30.7873813202
  0
SOLID
  8
0
 62
7
  6
CONTINUOUS
 10
149.8628043005
 20
30.7228547004
 11
149.7471793074
 21
30.7873813202
 12
150.1518667936
 22
30.7873813202
 13
150.1518667936
 23
30.7873813202
  0
SOLID
  8
0
 62
7
  6
CONTINUOUS
 10
150.1518667936
 20
30.7873813202
 11
150.498741835
 21
30.7228547004
 12
149.8628043005
 22
30.7228547004
 13
149.8628043005
 23
30.7228547004
  0
SOLID
  8
0
 62
7
  6
CONTINUOUS
 10
150.0362418212
 20
30.658327332
 11
149.8628043005
 21
30.7228547004
 12
150.498741835
 22
30.7228547004
 13
150.498741835
 23
30.7228547004
  0
SOLID
  8
0
 62
7
  6
CONTINUOUS
 10
154.0831168074
 20
31.1100184386
 11
154.1987416972
 21
31.1745462761
 12
154.7768668074
 22
31.1422827828
 13
154.7768668074
 23
31.1422827828
  0
SOLID
  8
0
 62
7
  6
CONTINUOUS
 10
154.7768668074
 20
31.1422827828
 11
154.5456166972
 21
31.1100184386
 12
154.0831168074
 22
31.1100184386
 13
154.0831168074
 23
31.1100184386
  0
SOLID
  8
0
 62
7
  6
CONTINUOUS
 10
153.9674919177
 20
30.9809642992
 11
154.0831168074
 21
31.1100184386
 12
154.5456166972
 22
31.1100184386
 13
154.5456166972
 23
31.1100184386
  0
SOLID
  8
0
 62
7
  6
CONTINUOUS
 10
154.3143669177
 20
31.0132277988
 11
153.9674919177
 21
30.9809642992
 12
154.4299918074
 22
31.0777556927
 13
154.4299918074
 23
31.0777556927
  0
SOLID
  8
0
 62
7
  6
CONTINUOUS
 10
153.9674919177
 20
30.9809642992
 11
154.5456166972
 21
31.1100184796
 12
154.4299918074
 22
31.0777556927
 13
154.4299918074
 23
31.0777556927
  0
SOLID
  8
0
 62
7
  6
CONTINUOUS
 10
154.3143669177
 20
31.0132277988
 11
154.2565543074
 21
30.9164372091
 12
153.9674919177
 22
30.9809642992
 13
153.9674919177
 23
30.9809642992
  0
SOLID
  8
0
 62
7
  6
CONTINUOUS
 10
153.9674919177
 20
30.8841729058
 11
153.9674919177
 21
30.9809642992
 12
154.2565543074
 22
30.9164372091
 13
154.2565543074
 23
30.9164372091
  0
SOLID
  8
0
 62
7
  6
CONTINUOUS
 10
154.2565543074
 20
30.9164372091
 11
154.2565543074
 21
30.8519086025
 12
153.9674919177
 22
30.8841729058
 13
153.9674919177
 23
30.8841729058
  0
SOLID
  8
0
 62
7
  6
CONTINUOUS
 10
154.0253041972
 20
30.7551187255
 11
153.9674919177
 21
30.8841729058
 12
154.2565543074
 22
30.8519086025
 13
154.2565543074
 23
30.8519086025
  0
SOLID
  8
0
 62
7
  6
CONTINUOUS
 10
155.412804528
 20
30.9487004259
 11
155.7018665869
 21
30.8519086025
 12
155.3549915869
 22
30.8841729058
 13
155.3549915869
 23
30.8841729058
  0
SOLID
  8
0
 62
7
  6
CONTINUOUS
 10
155.1815540869
 20
30.7873815123
 11
155.3549915869
 21
30.8841729058
 12
155.7018665869
 22
30.8519086025
 13
155.7018665869
 23
30.8519086025
  0
SOLID
  8
0
 62
7
  6
CONTINUOUS
 10
155.1815540869
 20
30.7873815123
 11
155.7018665869
 21
30.8519086025
 12
155.412804528
 22
30.7551187255
 13
155.412804528
 23
30.7551187255
  0
SOLID
  8
0
 62
7
  6
CONTINUOUS
 10
155.7018665869
 20
30.8519086025
 11
155.759679528
 21
30.6905916353
 12
155.412804528
 22
30.7551187255
 13
155.412804528
 23
30.7551187255
  0
SOLID
  8
0
 62
7
  6
CONTINUOUS
 10
155.4706168074
 20
30.658327332
 11
155.412804528
 21
30.7551187255
 12
155.759679528
 22
30.6905916353
 13
155.759679528
 23
30.6905916353
  0
SOLID
  8
0
 62
7
  6
CONTINUOUS
 10
155.4706168074
 20
30.658327332
 11
155.759679528
 21
30.6905916353
 12
155.5284290869
 22
30.5938002079
 13
155.5284290869
 23
30.5938002079
  0
SOLID
  8
0
 62
7
  6
CONTINUOUS
 10
155.759679528
 20
30.6905916353
 11
155.8174918074
 21
30.5938002079
 12
155.5284290869
 22
30.5938002079
 13
155.5284290869
 23
30.5938002079
  0
SOLID
  8
0
 62
7
  6
CONTINUOUS
 10
151.0768668626
 20
30.8196456577
 11
151.1346793074
 21
30.9164373395
 12
151.4237418626
 22
30.9164373395
 13
151.4237418626
 23
30.9164373395
  0
SOLID
  8
0
 62
7
  6
CONTINUOUS
 10
151.4237418626
 20
30.9164373395
 11
151.3659292523
 21
30.7873815123
 12
151.0768668626
 22
30.8196456577
 13
151.0768668626
 23
30.8196456577
  0
SOLID
  8
0
 62
7
  6
CONTINUOUS
 10
150.9034292799
 20
30.7551187255
 11
151.0768668626
 21
30.8196456577
 12
151.3659292523
 22
30.7873815123
 13
151.3659292523
 23
30.7873815123
  0
SOLID
  8
0
 62
7
  6
CONTINUOUS
 10
150.9034292799
 20
30.7551187255
 11
151.3659292523
 21
30.7873815123
 12
150.498741835
 22
30.7228544222
 13
150.498741835
 23
30.7228544222
  0
SOLID
  8
0
 62
7
  6
CONTINUOUS
 10
151.3659292523
 20
30.7873815123
 11
151.1924917523
 21
30.6905916353
 12
150.498741835
 22
30.7228544222
 13
150.498741835
 23
30.7228544222
  0
SOLID
  8
0
 62
7
  6
CONTINUOUS
 10
150.0362418212
 20
30.658327332
 11
150.498741835
 21
30.7228544222
 12
151.1924917523
 22
30.6905916353
 13
151.1924917523
 23
30.6905916353
  0
SOLID
  8
0
 62
7
  6
CONTINUOUS
 10
150.0362418212
 20
30.658327332
 11
151.1924917523
 21
30.6905916353
 12
150.2096793212
 22
30.6260631011
 13
150.2096793212
 23
30.6260631011
  0
SOLID
  8
0
 62
7
  6
CONTINUOUS
 10
151.1924917523
 20
30.6905916353
 11
150.9612418074
 21
30.6260631011
 12
150.2096793212
 22
30.6260631011
 13
150.2096793212
 23
30.6260631011
  0
SOLID
  8
0
 62
7
  6
CONTINUOUS
 10
150.5565542799
 20
30.5938002419
 11
150.2096793212
 21
30.6260631011
 12
150.9612418074
 22
30.6260631011
 13
150.9612418074
 23
30.6260631011
  0
SOLID
  8
0
 62
7
  6
CONTINUOUS
 10
154.0253041972
 20
30.7551187255
 11
154.2565543074
 21
30.8519086025
 12
154.3143669177
 22
30.7873815123
 13
154.3143669177
 23
30.7873815123
  0
SOLID
  8
0
 62
7
  6
CONTINUOUS
 10
154.3143669177
 20
30.7873815123
 11
154.5456166972
 21
30.7228544222
 12
154.0253041972
 22
30.7551187255
 13
154.0253041972
 23
30.7551187255
  0
SOLID
  8
0
 62
7
  6
CONTINUOUS
 10
154.1987416972
 20
30.658327332
 11
154.0253041972
 21
30.7551187255
 12
154.5456166972
 22
30.7228544222
 13
154.5456166972
 23
30.7228544222
  0
SOLID
  8
0
 62
7
  6
CONTINUOUS
 10
154.8924916972
 20
30.7228544637
 11
155.1815540869
 21
30.7873815123
 12
155.412804528
 22
30.7551187255
 13
155.412804528
 23
30.7551187255
  0
SOLID
  8
0
 62
7
  6
CONTINUOUS
 10
155.412804528
 20
30.7551187255
 11
155.3549915869
 21
30.6905916353
 12
154.8924916972
 22
30.7228544637
 13
154.8924916972
 23
30.7228544637
  0
SOLID
  8
0
 62
7
  6
CONTINUOUS
 10
155.3549915869
 20
30.6905916353
 11
154.1987416972
 21
30.658327332
 12
154.8924916972
 22
30.7228544637
 13
154.8924916972
 23
30.7228544637
  0
SOLID
  8
0
 62
7
  6
CONTINUOUS
 10
154.1987416972
 20
30.658327332
 11
154.5456166972
 21
30.7228544637
 12
154.8924916972
 22
30.7228544637
 13
154.8924916972
 23
30.7228544637
  0
SOLID
  8
0
 62
7
  6
CONTINUOUS
 10
154.1987416972
 20
30.658327332
 11
155.3549915869
 21
30.6905916353
 12
154.3143669177
 22
30.6260630541
 13
154.3143669177
 23
30.6260630541
  0
SOLID
  8
0
 62
7
  6
CONTINUOUS
 10
155.3549915869
 20
30.6905916353
 11
155.1815540869
 21
30.6260630541
 12
154.3143669177
 22
30.6260630541
 13
154.3143669177
 23
30.6260630541
  0
SOLID
  8
0
 62
7
  6
CONTINUOUS
 10
154.5456166972
 20
30.5938002188
 11
154.3143669177
 21
30.6260630541
 12
155.1815540869
 22
30.6260630541
 13
155.1815540869
 23
30.6260630541
  0
SOLID
  8
0
 62
7
  6
CONTINUOUS
 10
155.1815540869
 20
30.6260630541
 11
154.8924916972
 21
30.5938002188
 12
154.5456166972
 22
30.5938002188
 13
154.5456166972
 23
30.5938002188
  0
SOLID
  8
0
 62
7
  6
CONTINUOUS
 10
159.575304528
 20
30.7551187255
 11
159.228429528
 21
30.7228544637
 12
159.4596793074
 22
30.7873815123
 13
159.4596793074
 23
30.7873815123
  0
SOLID
  8
0
 62
7
  6
CONTINUOUS
 10
159.4596793074
 20
30.7873815123
 11
159.228429528
 21
30.7228544637
 12
159.401867028
 22
30.851908644
 13
159.401867028
 23
30.851908644
  0
SOLID
  8
0
 62
7
  6
CONTINUOUS
 10
159.228429528
 20
30.7228544637
 11
159.1128043074
 21
30.851908644
 12
159.401867028
 22
30.851908644
 13
159.401867028
 23
30.851908644
  0
SOLID
  8
0
 62
7
  6
CONTINUOUS
 10
159.575304528
 20
30.7551187255
 11
159.922179528
 21
30.7228544637
 12
159.228429528
 22
30.7228544637
 13
159.228429528
 23
30.7228544637
  0
SOLID
  8
0
 62
7
  6
CONTINUOUS
 10
156.279992028
 20
30.5938002419
 11
156.279992028
 21
31.6262382337
 12
156.5690540869
 22
30.5938002419
 13
156.5690540869
 23
31.6262382337
  0
ENDBLK
  8
0
  6
BYBLOCK
 62
0
  0
BLOCK
  8
0
 62
2
  6
CONTINUOUS
  2
SYMBOL_3_BL0
 70
64
 10
32.1213064866
 20
19.8534310916
  0
TEXT
  8
0
 62
7
  6
CONTINUOUS
 10
18.3860103289
 20
19.2268451992
  7
TEXTSTYLE_3
 40
2.7338706658
  1
Ammeraal Beltech
 41
1.0
 51
15.0
 72
0
  0
TEXT
  8
0
 62
7
  6
CONTINUOUS
 10
29.1868111546
 20
16.9533085264
  7
TEXTSTYLE_4
 40
1.0935482663
  1
Innovation & Service in Belting
 41
1.0
 72
0
  0
LINE
  8
0
 62
7
  6
CONTINUOUS
 10
12.3614696776
 20
19.9934385078
 11
13.1396216709
 21
23.6543558055
  0
LINE
  8
0
 62
7
  6
CONTINUOUS
 10
23.2347899607
 20
27.3177497171
 11
13.6274394139
 21
24.1961322958
  0
LINE
  8
0
 62
7
  6
CONTINUOUS
 10
12.5867530099
 20
19.3000877048
 11
20.093828271
 21
12.5406867788
  0
LINE
  8
0
 62
7
  6
CONTINUOUS
 10
12.8492874206
 20
20.5352149982
 11
23.6575567857
 21
24.0470345971
  0
LINE
  8
0
 62
7
  6
CONTINUOUS
 10
23.6533516486
 20
13.6972460334
 11
15.2078919798
 21
21.3015720751
  0
LINE
  8
0
 62
7
  6
CONTINUOUS
 10
24.1731743684
 20
26.4728246013
 11
23.1966148312
 21
21.8784731989
  0
LINE
  8
0
 62
7
  6
CONTINUOUS
 10
22.4968128835
 20
18.5861638851
 11
21.810364672
 21
15.3566789607
  0
LINE
  8
0
 62
7
  6
CONTINUOUS
 10
24.8542704669
 20
14.087448211
 11
25.8105020025
 21
18.5861638851
  0
LINE
  8
0
 62
7
  6
CONTINUOUS
 10
26.5103039502
 20
21.8784731989
 11
26.9545457526
 21
23.9684665583
  0
LINE
  8
0
 62
7
  6
CONTINUOUS
 10
20.8069293463
 20
12.3891124661
 11
24.3664527239
 21
13.5456717207
  0
LINE
  8
0
 62
7
  6
CONTINUOUS
 10
23.9478910361
 20
27.1661754044
 11
26.7292624203
 21
24.6618173613
  0
ARC
  8
0
 62
7
  6
CONTINUOUS
 10
13.8527227462
 20
23.5027814928
 40
0.7290321776
 50
108.0
 51
168.0
  0
ARC
  8
0
 62
7
  6
CONTINUOUS
 10
23.4600732931
 20
26.624398914
 40
0.7290321776
 50
348.0
 51
108.0
  0
ARC
  8
0
 62
7
  6
CONTINUOUS
 10
26.2414446773
 20
24.120040871
 40
0.7290321776
 50
348.0
 51
48.0
  0
ARC
  8
0
 62
7
  6
CONTINUOUS
 10
20.581646014
 20
13.0824632691
 40
0.7290321776
 50
228.0
 51
288.0
  0
ARC
  8
0
 62
7
  6
CONTINUOUS
 10
13.0745707529
 20
19.8418641951
 40
0.7290321776
 50
108.0
 51
228.0
  0
ARC
  8
0
 62
7
  6
CONTINUOUS
 10
24.1411693916
 20
14.2390225237
 40
0.7290321776
 50
228.0
 51
348.0
  0
ENDBLK
  8
0
  6
BYBLOCK
 62
0
  0
ENDSEC
  0
SECTION
  2
ENTITIES
  0
TEXT
  8
0
 62
5
  6
CONTINUOUS
 10
96.0
 20
25.636
  7
TEXTSTYLE_2
 40
2.8
  1
Scale :
 41
0.6
 51
0.000019
 72
0
  0
TEXT
  8
0
 62
5
  6
CONTINUOUS
 10
116.0
 20
25.636
  7
TEXTSTYLE_2
 40
2.8
  1
Belt type:
 41
0.6
 51
0.000019
 72
0
  0
INSERT
  8
0
 62
2
  6
CONTINUOUS
  2
SYMBOL_3_BL0
 10
32.1213064866
 20
19.8534310916
  0
INSERT
  8
0
 62
2
  6
CONTINUOUS
  2
SYMBOL_8_BL1
 10
173.5956734183
 20
35.5937998301
  0
LINE
  8
0
 62
2
  6
CONTINUOUS
 10
10.0
 20
30.0
 11
200.0
 21
30.0
  0
LINE
  8
0
 62
2
  6
CONTINUOUS
 10
10.0
 20
30.0
 11
10.0
 21
10.0
  0
LINE
  8
0
 62
2
  6
CONTINUOUS
 10
10.0
 20
10.0
 11
200.0
 21
10.0
  0
LINE
  8
0
 62
2
  6
CONTINUOUS
 10
95.0
 20
30.0
 11
95.0
 21
10.0
  0
LINE
  8
0
 62
2
  6
CONTINUOUS
 10
115.0
 20
30.0
 11
115.0
 21
10.0
  0
LINE
  8
0
 62
2
  6
CONTINUOUS
 10
200.0
 20
30.0
 11
200.0
 21
10.0
  0
TEXT
  8
0
 62
5
  6
CONTINUOUS
 10
98.0
 20
13.75
  7
STANDARD
 40
5.0
  1
1:1
 41
0.8
 72
0
  0
TEXT
  8
0
 62
5
  6
CONTINUOUS
 10
118.0
 20
13.75
  7
TEXTSTYLE_5
 40
7.5
  1
uni S-MPB-00-K725
 41
0.6421568627
 72
0
  0
LINE
  8
0
 62
7
  6
CONTINUOUS
 10
210.0
 20
0.0
 11
0.0
 21
0.0
  0
LINE
  8
0
 62
7
  6
CONTINUOUS
 10
10.0
 20
10.0
 11
200.0
 21
10.0
  0
LINE
  8
0
 62
7
  6
CONTINUOUS
 10
10.0
 20
30.0
 11
200.0
 21
30.0
  0
LINE
  8
0
 62
7
  6
CONTINUOUS
 10
0.0
 20
0.0
 11
0.0
 21
297.0
  0
LINE
  8
0
 62
7
  6
CONTINUOUS
 10
10.0
 20
10.0
 11
10.0
 21
287.0
  0
LINE
  8
0
 62
7
  6
CONTINUOUS
 10
200.0
 20
287.0
 11
200.0
 21
10.0
  0
LINE
  8
0
 62
7
  6
CONTINUOUS
 10
210.0
 20
0.0
 11
210.0
 21
297.0
  0
LINE
  8
0
 62
7
  6
CONTINUOUS
 10
10.0
 20
287.0
 11
200.0
 21
287.0
  0
LINE
  8
0
 62
7
  6
CONTINUOUS
 10
0.0
 20
297.0
 11
210.0
 21
297.0
  0
LINE
  8
0
 62
7
  6
CONTINUOUS
 10
63.1878156537
 20
41.6736122449
 11
72.1378156537
 21
41.6736122449
  0
LINE
  8
0
 62
7
  6
CONTINUOUS
 10
68.0901990051
 20
46.6292214795
 11
72.2249713964
 21
46.267475769
  0
LINE
  8
0
 62
7
  6
CONTINUOUS
 10
67.5927096151
 20
55.5598290958
 11
63.2510620385
 21
54.4245236227
  0
LINE
  8
0
 62
7
  6
CONTINUOUS
 10
72.2249713964
 20
56.0077487208
 11
68.0901990051
 21
55.6460030103
  0
LINE
  8
0
 62
7
  6
CONTINUOUS
 10
68.0901990051
 20
59.3292214795
 11
72.2249713964
 21
58.967475769
  0
LINE
  8
0
 62
7
  6
CONTINUOUS
 10
63.2510620385
 20
47.850700867
 11
67.5927096151
 21
46.715395394
  0
LINE
  8
0
 62
7
  6
CONTINUOUS
 10
63.2510620385
 20
60.550700867
 11
67.5927096151
 21
59.415395394
  0
POLYLINE
  8
0
 62
7
  6
CONTINUOUS
 66
1
 70
0
  0
VERTEX
  8
0
 62
7
  6
CONTINUOUS
 10
67.1918150421
 20
46.8202260154
  0
VERTEX
  8
0
 62
7
  6
CONTINUOUS
 10
67.1694896744
 20
46.8265585054
  0
VERTEX
  8
0
 62
7
  6
CONTINUOUS
 10
67.0981492531
 20
46.8537572858
  0
VERTEX
  8
0
 62
7
  6
CONTINUOUS
 10
67.0405624125
 20
46.8848187911
  0
VERTEX
  8
0
 62
7
  6
CONTINUOUS
 10
67.0001749224
 20
46.9134040353
  0
VERTEX
  8
0
 62
7
  6
CONTINUOUS
 10
66.9760709165
 20
46.9348101156
  0
VERTEX
  8
0
 62
7
  6
CONTINUOUS
 10
66.9724267173
 20
46.9385297399
  0
SEQEND
  0
POLYLINE
  8
0
 62
7
  6
CONTINUOUS
 66
1
 70
0
  0
VERTEX
  8
0
 62
7
  6
CONTINUOUS
 10
67.1918150421
 20
59.5202260154
  0
VERTEX
  8
0
 62
7
  6
CONTINUOUS
 10
67.1694896744
 20
59.5265585054
  0
VERTEX
  8
0
 62
7
  6
CONTINUOUS
 10
67.0981492531
 20
59.5537572858
  0
VERTEX
  8
0
 62
7
  6
CONTINUOUS
 10
67.0405624125
 20
59.5848187911
  0
VERTEX
  8
0
 62
7
  6
CONTINUOUS
 10
67.0001749224
 20
59.6134040353
  0
VERTEX
  8
0
 62
7
  6
CONTINUOUS
 10
66.9760709165
 20
59.6348101156
  0
VERTEX
  8
0
 62
7
  6
CONTINUOUS
 10
66.9724267173
 20
59.6385297399
  0
SEQEND
  0
LINE
  8
0
 62
7
  6
CONTINUOUS
 10
66.9660605997
 20
220.4516724184
 11
66.9660199555
 21
220.4516210131
  0
POLYLINE
  8
0
 62
7
  6
CONTINUOUS
 66
1
 70
0
  0
VERTEX
  8
0
 62
7
  6
CONTINUOUS
 10
66.9661312505
 20
220.4517616606
  0
VERTEX
  8
0
 62
7
  6
CONTINUOUS
 10
66.9663870392
 20
220.4520769677
  0
VERTEX
  8
0
 62
7
  6
CONTINUOUS
 10
66.9753406112
 20
220.4617833341
  0
VERTEX
  8
0
 62
7
  6
CONTINUOUS
 10
66.9990396126
 20
220.4830043821
  0
VERTEX
  8
0
 62
7
  6
CONTINUOUS
 10
67.039273708
 20
220.5116952559
  0
VERTEX
  8
0
 62
7
  6
CONTINUOUS
 10
67.0970278448
 20
220.5430484427
  0
VERTEX
  8
0
 62
7
  6
CONTINUOUS
 10
67.1688468875
 20
220.5705702151
  0
VERTEX
  8
0
 62
7
  6
CONTINUOUS
 10
67.1917673644
 20
220.5770860122
  0
SEQEND
  0
POLYLINE
  8
0
 62
7
  6
CONTINUOUS
 66
1
 70
0
  0
VERTEX
  8
0
 62
7
  6
CONTINUOUS
 10
66.9661312505
 20
207.7517616606
  0
VERTEX
  8
0
 62
7
  6
CONTINUOUS
 10
66.9663870392
 20
207.7520769677
  0
VERTEX
  8
0
 62
7
  6
CONTINUOUS
 10
66.9753406112
 20
207.7617833341
  0
VERTEX
  8
0
 62
7
  6
CONTINUOUS
 10
66.9990396126
 20
207.7830043821
  0
VERTEX
  8
0
 62
7
  6
CONTINUOUS
 10
67.039273708
 20
207.8116952559
  0
VERTEX
  8
0
 62
7
  6
CONTINUOUS
 10
67.0970278448
 20
207.8430484427
  0
VERTEX
  8
0
 62
7
  6
CONTINUOUS
 10
67.1688468875
 20
207.8705702151
  0
VERTEX
  8
0
 62
7
  6
CONTINUOUS
 10
67.1917673644
 20
207.8770860122
  0
SEQEND
  0
LINE
  8
0
 62
7
  6
CONTINUOUS
 10
67.5927096151
 20
68.2598290958
 11
63.2510620385
 21
67.1245236227
  0
LINE
  8
0
 62
7
  6
CONTINUOUS
 10
67.5927096151
 20
80.9598290958
 11
63.2510620385
 21
79.8245236227
  0
LINE
  8
0
 62
7
  6
CONTINUOUS
 10
72.2249713964
 20
68.7077487208
 11
68.0901990051
 21
68.3460030103
  0
LINE
  8
0
 62
7
  6
CONTINUOUS
 10
72.2249713964
 20
81.4077487208
 11
68.0901990051
 21
81.0460030103
  0
LINE
  8
0
 62
7
  6
CONTINUOUS
 10
68.0901990051
 20
72.0292214795
 11
72.2249713964
 21
71.667475769
  0
LINE
  8
0
 62
7
  6
CONTINUOUS
 10
63.2510620385
 20
73.250700867
 11
67.5927096151
 21
72.115395394
  0
POLYLINE
  8
0
 62
7
  6
CONTINUOUS
 66
1
 70
0
  0
VERTEX
  8
0
 62
7
  6
CONTINUOUS
 10
67.1918150421
 20
72.2202260154
  0
VERTEX
  8
0
 62
7
  6
CONTINUOUS
 10
67.1694896744
 20
72.2265585054
  0
VERTEX
  8
0
 62
7
  6
CONTINUOUS
 10
67.0981492531
 20
72.2537572858
  0
VERTEX
  8
0
 62
7
  6
CONTINUOUS
 10
67.0405624125
 20
72.2848187911
  0
VERTEX
  8
0
 62
7
  6
CONTINUOUS
 10
67.0001749224
 20
72.3134040353
  0
VERTEX
  8
0
 62
7
  6
CONTINUOUS
 10
66.9760709165
 20
72.3348101156
  0
VERTEX
  8
0
 62
7
  6
CONTINUOUS
 10
66.9724267173
 20
72.3385297399
  0
SEQEND
  0
POLYLINE
  8
0
 62
7
  6
CONTINUOUS
 66
1
 70
0
  0
VERTEX
  8
0
 62
7
  6
CONTINUOUS
 10
66.9724267173
 20
46.9385297399
  0
VERTEX
  8
0
 62
7
  6
CONTINUOUS
 10
66.9665452589
 20
46.9450556844
  0
VERTEX
  8
0
 62
7
  6
CONTINUOUS
 10
66.9660520506
 20
46.9456628831
  0
SEQEND
  0
POLYLINE
  8
0
 62
7
  6
CONTINUOUS
 66
1
 70
0
  0
VERTEX
  8
0
 62
7
  6
CONTINUOUS
 10
66.9724267173
 20
59.6385297399
  0
VERTEX
  8
0
 62
7
  6
CONTINUOUS
 10
66.9665452589
 20
59.6450556844
  0
VERTEX
  8
0
 62
7
  6
CONTINUOUS
 10
66.9660520506
 20
59.6456628831
  0
SEQEND
  0
LINE
  8
0
 62
7
  6
CONTINUOUS
 10
66.9660605997
 20
207.7516724184
 11
66.9660199555
 21
207.7516210131
  0
LINE
  8
0
 62
7
  6
CONTINUOUS
 10
66.9660605997
 20
195.0516724184
 11
66.9660199555
 21
195.0516210131
  0
LINE
  8
0
 62
7
  6
CONTINUOUS
 10
66.9660605997
 20
182.3516724184
 11
66.9660199555
 21
182.3516210131
  0
POLYLINE
  8
0
 62
7
  6
CONTINUOUS
 66
1
 70
0
  0
VERTEX
  8
0
 62
7
  6
CONTINUOUS
 10
66.9661312505
 20
195.0517616606
  0
VERTEX
  8
0
 62
7
  6
CONTINUOUS
 10
66.9663870392
 20
195.0520769677
  0
VERTEX
  8
0
 62
7
  6
CONTINUOUS
 10
66.9753406112
 20
195.0617833341
  0
VERTEX
  8
0
 62
7
  6
CONTINUOUS
 10
66.9990396126
 20
195.0830043821
  0
VERTEX
  8
0
 62
7
  6
CONTINUOUS
 10
67.039273708
 20
195.1116952559
  0
VERTEX
  8
0
 62
7
  6
CONTINUOUS
 10
67.0970278448
 20
195.1430484427
  0
VERTEX
  8
0
 62
7
  6
CONTINUOUS
 10
67.1688468875
 20
195.1705702151
  0
VERTEX
  8
0
 62
7
  6
CONTINUOUS
 10
67.1917673644
 20
195.1770860122
  0
SEQEND
  0
POLYLINE
  8
0
 62
7
  6
CONTINUOUS
 66
1
 70
0
  0
VERTEX
  8
0
 62
7
  6
CONTINUOUS
 10
66.9661312505
 20
182.3517616606
  0
VERTEX
  8
0
 62
7
  6
CONTINUOUS
 10
66.9663870392
 20
182.3520769677
  0
VERTEX
  8
0
 62
7
  6
CONTINUOUS
 10
66.9753406112
 20
182.3617833341
  0
VERTEX
  8
0
 62
7
  6
CONTINUOUS
 10
66.9990396126
 20
182.3830043821
  0
VERTEX
  8
0
 62
7
  6
CONTINUOUS
 10
67.039273708
 20
182.4116952559
  0
VERTEX
  8
0
 62
7
  6
CONTINUOUS
 10
67.0970278448
 20
182.4430484427
  0
VERTEX
  8
0
 62
7
  6
CONTINUOUS
 10
67.1688468875
 20
182.4705702151
  0
VERTEX
  8
0
 62
7
  6
CONTINUOUS
 10
67.1917673644
 20
182.4770860122
  0
SEQEND
  0
LINE
  8
0
 62
7
  6
CONTINUOUS
 10
67.5927096151
 20
93.6598290958
 11
63.2510620385
 21
92.5245236227
  0
LINE
  8
0
 62
7
  6
CONTINUOUS
 10
72.2249713964
 20
94.1077487208
 11
68.0901990051
 21
93.7460030103
  0
LINE
  8
0
 62
7
  6
CONTINUOUS
 10
68.0901990051
 20
84.7292214795
 11
72.2249713964
 21
84.367475769
  0
LINE
  8
0
 62
7
  6
CONTINUOUS
 10
68.0901990051
 20
97.4292214795
 11
72.2249713964
 21
97.067475769
  0
LINE
  8
0
 62
7
  6
CONTINUOUS
 10
63.2510620385
 20
85.950700867
 11
67.5927096151
 21
84.815395394
  0
LINE
  8
0
 62
7
  6
CONTINUOUS
 10
63.2510620385
 20
98.650700867
 11
67.5927096151
 21
97.515395394
  0
POLYLINE
  8
0
 62
7
  6
CONTINUOUS
 66
1
 70
0
  0
VERTEX
  8
0
 62
7
  6
CONTINUOUS
 10
67.1918150421
 20
84.9202260154
  0
VERTEX
  8
0
 62
7
  6
CONTINUOUS
 10
67.1694896744
 20
84.9265585054
  0
VERTEX
  8
0
 62
7
  6
CONTINUOUS
 10
67.0981492531
 20
84.9537572858
  0
VERTEX
  8
0
 62
7
  6
CONTINUOUS
 10
67.0405624125
 20
84.9848187911
  0
VERTEX
  8
0
 62
7
  6
CONTINUOUS
 10
67.0001749224
 20
85.0134040353
  0
VERTEX
  8
0
 62
7
  6
CONTINUOUS
 10
66.9760709165
 20
85.0348101156
  0
VERTEX
  8
0
 62
7
  6
CONTINUOUS
 10
66.9724267173
 20
85.0385297399
  0
SEQEND
  0
POLYLINE
  8
0
 62
7
  6
CONTINUOUS
 66
1
 70
0
  0
VERTEX
  8
0
 62
7
  6
CONTINUOUS
 10
67.1918150421
 20
97.6202260154
  0
VERTEX
  8
0
 62
7
  6
CONTINUOUS
 10
67.1694896744
 20
97.6265585054
  0
VERTEX
  8
0
 62
7
  6
CONTINUOUS
 10
67.0981492531
 20
97.6537572858
  0
VERTEX
  8
0
 62
7
  6
CONTINUOUS
 10
67.0405624125
 20
97.6848187911
  0
VERTEX
  8
0
 62
7
  6
CONTINUOUS
 10
67.0001749224
 20
97.7134040353
  0
VERTEX
  8
0
 62
7
  6
CONTINUOUS
 10
66.9760709165
 20
97.7348101156
  0
VERTEX
  8
0
 62
7
  6
CONTINUOUS
 10
66.9724267173
 20
97.7385297399
  0
SEQEND
  0
POLYLINE
  8
0
 62
7
  6
CONTINUOUS
 66
1
 70
0
  0
VERTEX
  8
0
 62
7
  6
CONTINUOUS
 10
66.9724267173
 20
72.3385297399
  0
VERTEX
  8
0
 62
7
  6
CONTINUOUS
 10
66.9665452589
 20
72.3450556844
  0
VERTEX
  8
0
 62
7
  6
CONTINUOUS
 10
66.9660520506
 20
72.3456628831
  0
SEQEND
  0
POLYLINE
  8
0
 62
7
  6
CONTINUOUS
 66
1
 70
0
  0
VERTEX
  8
0
 62
7
  6
CONTINUOUS
 10
66.9724267173
 20
85.0385297399
  0
VERTEX
  8
0
 62
7
  6
CONTINUOUS
 10
66.9665452589
 20
85.0450556844
  0
VERTEX
  8
0
 62
7
  6
CONTINUOUS
 10
66.9660520506
 20
85.0456628831
  0
SEQEND
  0
LINE
  8
0
 62
7
  6
CONTINUOUS
 10
66.9660564064
 20
46.9456573735
 11
66.938815857
 21
46.985758503
  0
LINE
  8
0
 62
7
  6
CONTINUOUS
 10
66.9660564064
 20
59.6456573735
 11
66.938815857
 21
59.685758503
  0
LINE
  8
0
 62
7
  6
CONTINUOUS
 10
66.9660564064
 20
72.3456573735
 11
66.938815857
 21
72.385758503
  0
POLYLINE
  8
0
 62
7
  6
CONTINUOUS
 66
1
 70
0
  0
VERTEX
  8
0
 62
7
  6
CONTINUOUS
 10
66.938815857
 20
46.985758503
  0
VERTEX
  8
0
 62
7
  6
CONTINUOUS
 10
66.9257268831
 20
47.0119773196
  0
VERTEX
  8
0
 62
7
  6
CONTINUOUS
 10
66.9224994
 20
47.02037497
  0
SEQEND
  0
POLYLINE
  8
0
 62
7
  6
CONTINUOUS
 66
1
 70
0
  0
VERTEX
  8
0
 62
7
  6
CONTINUOUS
 10
66.938815857
 20
59.685758503
  0
VERTEX
  8
0
 62
7
  6
CONTINUOUS
 10
66.9257268831
 20
59.7119773196
  0
VERTEX
  8
0
 62
7
  6
CONTINUOUS
 10
66.9224994
 20
59.72037497
  0
SEQEND
  0
POLYLINE
  8
0
 62
7
  6
CONTINUOUS
 66
1
 70
0
  0
VERTEX
  8
0
 62
7
  6
CONTINUOUS
 10
66.922824166
 20
220.3786097924
  0
VERTEX
  8
0
 62
7
  6
CONTINUOUS
 10
66.9220012044
 20
220.3754190937
  0
VERTEX
  8
0
 62
7
  6
CONTINUOUS
 10
66.9251993846
 20
220.3840747731
  0
VERTEX
  8
0
 62
7
  6
CONTINUOUS
 10
66.9375049316
 20
220.4092497736
  0
VERTEX
  8
0
 62
7
  6
CONTINUOUS
 10
66.9610978098
 20
220.4452428207
  0
VERTEX
  8
0
 62
7
  6
CONTINUOUS
 10
66.9660199503
 20
220.451621017
  0
SEQEND
  0
POLYLINE
  8
0
 62
7
  6
CONTINUOUS
 66
1
 70
0
  0
VERTEX
  8
0
 62
7
  6
CONTINUOUS
 10
66.922824166
 20
207.6786097924
  0
VERTEX
  8
0
 62
7
  6
CONTINUOUS
 10
66.9220012044
 20
207.6754190937
  0
VERTEX
  8
0
 62
7
  6
CONTINUOUS
 10
66.9251993846
 20
207.6840747731
  0
VERTEX
  8
0
 62
7
  6
CONTINUOUS
 10
66.9375049316
 20
207.7092497736
  0
VERTEX
  8
0
 62
7
  6
CONTINUOUS
 10
66.9610978098
 20
207.7452428207
  0
VERTEX
  8
0
 62
7
  6
CONTINUOUS
 10
66.9660199503
 20
207.751621017
  0
SEQEND
  0
POLYLINE
  8
0
 62
7
  6
CONTINUOUS
 66
1
 70
0
  0
VERTEX
  8
0
 62
7
  6
CONTINUOUS
 10
66.922824166
 20
194.9786097924
  0
VERTEX
  8
0
 62
7
  6
CONTINUOUS
 10
66.9220012044
 20
194.9754190937
  0
VERTEX
  8
0
 62
7
  6
CONTINUOUS
 10
66.9251993846
 20
194.9840747731
  0
VERTEX
  8
0
 62
7
  6
CONTINUOUS
 10
66.9375049316
 20
195.0092497736
  0
VERTEX
  8
0
 62
7
  6
CONTINUOUS
 10
66.9610978098
 20
195.0452428207
  0
VERTEX
  8
0
 62
7
  6
CONTINUOUS
 10
66.9660199503
 20
195.051621017
  0
SEQEND
  0
LINE
  8
0
 62
7
  6
CONTINUOUS
 10
66.9660605997
 20
169.6516724184
 11
66.9660199555
 21
169.6516210131
  0
LINE
  8
0
 62
7
  6
CONTINUOUS
 10
66.9660605997
 20
156.9516724184
 11
66.9660199555
 21
156.9516210131
  0
POLYLINE
  8
0
 62
7
  6
CONTINUOUS
 66
1
 70
0
  0
VERTEX
  8
0
 62
7
  6
CONTINUOUS
 10
66.9661312505
 20
169.6517616606
  0
VERTEX
  8
0
 62
7
  6
CONTINUOUS
 10
66.9663870392
 20
169.6520769677
  0
VERTEX
  8
0
 62
7
  6
CONTINUOUS
 10
66.9753406112
 20
169.6617833341
  0
VERTEX
  8
0
 62
7
  6
CONTINUOUS
 10
66.9990396126
 20
169.6830043821
  0
VERTEX
  8
0
 62
7
  6
CONTINUOUS
 10
67.039273708
 20
169.7116952559
  0
VERTEX
  8
0
 62
7
  6
CONTINUOUS
 10
67.0970278448
 20
169.7430484427
  0
VERTEX
  8
0
 62
7
  6
CONTINUOUS
 10
67.1688468875
 20
169.7705702151
  0
VERTEX
  8
0
 62
7
  6
CONTINUOUS
 10
67.1917673644
 20
169.7770860122
  0
SEQEND
  0
POLYLINE
  8
0
 62
7
  6
CONTINUOUS
 66
1
 70
0
  0
VERTEX
  8
0
 62
7
  6
CONTINUOUS
 10
66.9661312505
 20
156.9517616606
  0
VERTEX
  8
0
 62
7
  6
CONTINUOUS
 10
66.9663870392
 20
156.9520769677
  0
VERTEX
  8
0
 62
7
  6
CONTINUOUS
 10
66.9753406112
 20
156.9617833341
  0
VERTEX
  8
0
 62
7
  6
CONTINUOUS
 10
66.9990396126
 20
156.9830043821
  0
VERTEX
  8
0
 62
7
  6
CONTINUOUS
 10
67.039273708
 20
157.0116952559
  0
VERTEX
  8
0
 62
7
  6
CONTINUOUS
 10
67.0970278448
 20
157.0430484427
  0
VERTEX
  8
0
 62
7
  6
CONTINUOUS
 10
67.1688468875
 20
157.0705702151
  0
VERTEX
  8
0
 62
7
  6
CONTINUOUS
 10
67.1917673644
 20
157.0770860122
  0
SEQEND
  0
LINE
  8
0
 62
7
  6
CONTINUOUS
 10
67.5927096151
 20
106.3598290958
 11
63.2510620385
 21
105.2245236227
  0
LINE
  8
0
 62
7
  6
CONTINUOUS
 10
72.2249713964
 20
106.8077487208
 11
68.0901990051
 21
106.4460030103
  0
LINE
  8
0
 62
7
  6
CONTINUOUS
 10
68.0901990051
 20
110.1292214795
 11
72.2249713964
 21
109.767475769
  0
LINE
  8
0
 62
7
  6
CONTINUOUS
 10
63.2510620385
 20
111.350700867
 11
67.5927096151
 21
110.215395394
  0
POLYLINE
  8
0
 62
7
  6
CONTINUOUS
 66
1
 70
0
  0
VERTEX
  8
0
 62
7
  6
CONTINUOUS
 10
67.1918150421
 20
110.3202260154
  0
VERTEX
  8
0
 62
7
  6
CONTINUOUS
 10
67.1694896744
 20
110.3265585054
  0
VERTEX
  8
0
 62
7
  6
CONTINUOUS
 10
67.0981492531
 20
110.3537572858
  0
VERTEX
  8
0
 62
7
  6
CONTINUOUS
 10
67.0405624125
 20
110.3848187911
  0
VERTEX
  8
0
 62
7
  6
CONTINUOUS
 10
67.0001749224
 20
110.4134040353
  0
VERTEX
  8
0
 62
7
  6
CONTINUOUS
 10
66.9760709165
 20
110.4348101156
  0
VERTEX
  8
0
 62
7
  6
CONTINUOUS
 10
66.9724267173
 20
110.4385297399
  0
SEQEND
  0
POLYLINE
  8
0
 62
7
  6
CONTINUOUS
 66
1
 70
0
  0
VERTEX
  8
0
 62
7
  6
CONTINUOUS
 10
66.9724267173
 20
97.7385297399
  0
VERTEX
  8
0
 62
7
  6
CONTINUOUS
 10
66.9665452589
 20
97.7450556844
  0
VERTEX
  8
0
 62
7
  6
CONTINUOUS
 10
66.9660520506
 20
97.7456628831
  0
SEQEND
  0
POLYLINE
  8
0
 62
7
  6
CONTINUOUS
 66
1
 70
0
  0
VERTEX
  8
0
 62
7
  6
CONTINUOUS
 10
66.9724267173
 20
110.4385297399
  0
VERTEX
  8
0
 62
7
  6
CONTINUOUS
 10
66.9665452589
 20
110.4450556844
  0
VERTEX
  8
0
 62
7
  6
CONTINUOUS
 10
66.9660520506
 20
110.4456628831
  0
SEQEND
  0
LINE
  8
0
 62
7
  6
CONTINUOUS
 10
66.9660564064
 20
85.0456573735
 11
66.938815857
 21
85.085758503
  0
LINE
  8
0
 62
7
  6
CONTINUOUS
 10
66.9660564064
 20
97.7456573735
 11
66.938815857
 21
97.785758503
  0
POLYLINE
  8
0
 62
7
  6
CONTINUOUS
 66
1
 70
0
  0
VERTEX
  8
0
 62
7
  6
CONTINUOUS
 10
66.938815857
 20
72.385758503
  0
VERTEX
  8
0
 62
7
  6
CONTINUOUS
 10
66.9257268831
 20
72.4119773196
  0
VERTEX
  8
0
 62
7
  6
CONTINUOUS
 10
66.9224994
 20
72.42037497
  0
SEQEND
  0
POLYLINE
  8
0
 62
7
  6
CONTINUOUS
 66
1
 70
0
  0
VERTEX
  8
0
 62
7
  6
CONTINUOUS
 10
66.938815857
 20
85.085758503
  0
VERTEX
  8
0
 62
7
  6
CONTINUOUS
 10
66.9257268831
 20
85.1119773196
  0
VERTEX
  8
0
 62
7
  6
CONTINUOUS
 10
66.9224994
 20
85.12037497
  0
SEQEND
  0
POLYLINE
  8
0
 62
7
  6
CONTINUOUS
 66
1
 70
0
  0
VERTEX
  8
0
 62
7
  6
CONTINUOUS
 10
66.938815857
 20
97.785758503
  0
VERTEX
  8
0
 62
7
  6
CONTINUOUS
 10
66.9257268831
 20
97.8119773196
  0
VERTEX
  8
0
 62
7
  6
CONTINUOUS
 10
66.9224994
 20
97.82037497
  0
SEQEND
  0
LINE
  8
0
 62
7
  6
CONTINUOUS
 10
62.9378156537
 20
41.9236122449
 11
62.9378156537
 21
225.4736122449
  0
LINE
  8
0
 62
7
  6
CONTINUOUS
 10
66.9378156537
 20
220.4517616606
 11
66.9378156537
 21
212.0606304023
  0
LINE
  8
0
 62
7
  6
CONTINUOUS
 10
66.9378156537
 20
207.7517616606
 11
66.9378156537
 21
199.3606304023
  0
LINE
  8
0
 62
7
  6
CONTINUOUS
 10
66.9378156537
 20
195.0517616606
 11
66.9378156537
 21
186.6606304023
  0
LINE
  8
0
 62
7
  6
CONTINUOUS
 10
66.9378156537
 20
182.3517616606
 11
66.9378156537
 21
173.9606304023
  0
LINE
  8
0
 62
7
  6
CONTINUOUS
 10
66.9378156537
 20
169.6517616606
 11
66.9378156537
 21
161.2606304023
  0
LINE
  8
0
 62
7
  6
CONTINUOUS
 10
66.9378156537
 20
156.9517616606
 11
66.9378156537
 21
148.5606304023
  0
LINE
  8
0
 62
7
  6
CONTINUOUS
 10
66.9378156537
 20
144.2517616606
 11
66.9378156537
 21
135.8606304023
  0
LINE
  8
0
 62
7
  6
CONTINUOUS
 10
66.9378156537
 20
131.5517616606
 11
66.9378156537
 21
123.1385297399
  0
LINE
  8
0
 62
7
  6
CONTINUOUS
 10
66.9378156537
 20
118.8296619085
 11
66.9378156537
 21
110.4385297399
  0
LINE
  8
0
 62
7
  6
CONTINUOUS
 10
66.9378156537
 20
106.1296619085
 11
66.9378156537
 21
97.7385297399
  0
LINE
  8
0
 62
7
  6
CONTINUOUS
 10
66.9378156537
 20
93.4296619085
 11
66.9378156537
 21
85.0385297399
  0
LINE
  8
0
 62
7
  6
CONTINUOUS
 10
66.9378156537
 20
80.7296619085
 11
66.9378156537
 21
72.3385297399
  0
LINE
  8
0
 62
7
  6
CONTINUOUS
 10
66.9378156537
 20
68.0296619085
 11
66.9378156537
 21
59.6385297399
  0
LINE
  8
0
 62
7
  6
CONTINUOUS
 10
66.9378156537
 20
55.3296619085
 11
66.9378156537
 21
46.9385297399
  0
LINE
  8
DEFAULT_1
 62
2
  6
CENTER
 10
68.0378156537
 20
46.6331672866
 11
68.0378156537
 21
220.7639572032
  0
POLYLINE
  8
0
 62
7
  6
CONTINUOUS
 66
1
 70
0
  0
VERTEX
  8
0
 62
7
  6
CONTINUOUS
 10
66.922824166
 20
182.2786097924
  0
VERTEX
  8
0
 62
7
  6
CONTINUOUS
 10
66.9220012044
 20
182.2754190937
  0
VERTEX
  8
0
 62
7
  6
CONTINUOUS
 10
66.9251993846
 20
182.2840747731
  0
VERTEX
  8
0
 62
7
  6
CONTINUOUS
 10
66.9375049316
 20
182.3092497736
  0
VERTEX
  8
0
 62
7
  6
CONTINUOUS
 10
66.9610978098
 20
182.3452428207
  0
VERTEX
  8
0
 62
7
  6
CONTINUOUS
 10
66.9660199503
 20
182.351621017
  0
SEQEND
  0
POLYLINE
  8
0
 62
7
  6
CONTINUOUS
 66
1
 70
0
  0
VERTEX
  8
0
 62
7
  6
CONTINUOUS
 10
66.922824166
 20
169.5786097924
  0
VERTEX
  8
0
 62
7
  6
CONTINUOUS
 10
66.9220012044
 20
169.5754190937
  0
VERTEX
  8
0
 62
7
  6
CONTINUOUS
 10
66.9251993846
 20
169.5840747731
  0
VERTEX
  8
0
 62
7
  6
CONTINUOUS
 10
66.9375049316
 20
169.6092497736
  0
VERTEX
  8
0
 62
7
  6
CONTINUOUS
 10
66.9610978098
 20
169.6452428207
  0
VERTEX
  8
0
 62
7
  6
CONTINUOUS
 10
66.9660199503
 20
169.651621017
  0
SEQEND
  0
POLYLINE
  8
0
 62
7
  6
CONTINUOUS
 66
1
 70
0
  0
VERTEX
  8
0
 62
7
  6
CONTINUOUS
 10
66.922824166
 20
156.8786097924
  0
VERTEX
  8
0
 62
7
  6
CONTINUOUS
 10
66.9220012044
 20
156.8754190937
  0
VERTEX
  8
0
 62
7
  6
CONTINUOUS
 10
66.9251993846
 20
156.8840747731
  0
VERTEX
  8
0
 62
7
  6
CONTINUOUS
 10
66.9375049316
 20
156.9092497736
  0
VERTEX
  8
0
 62
7
  6
CONTINUOUS
 10
66.9610978098
 20
156.9452428207
  0
VERTEX
  8
0
 62
7
  6
CONTINUOUS
 10
66.9660199503
 20
156.951621017
  0
SEQEND
  0
POLYLINE
  8
0
 62
7
  6
CONTINUOUS
 66
1
 70
0
  0
VERTEX
  8
0
 62
7
  6
CONTINUOUS
 10
66.922824166
 20
144.1786097924
  0
VERTEX
  8
0
 62
7
  6
CONTINUOUS
 10
66.9220012044
 20
144.1754190937
  0
VERTEX
  8
0
 62
7
  6
CONTINUOUS
 10
66.9251993846
 20
144.1840747731
  0
VERTEX
  8
0
 62
7
  6
CONTINUOUS
 10
66.9375049316
 20
144.2092497736
  0
VERTEX
  8
0
 62
7
  6
CONTINUOUS
 10
66.9610978098
 20
144.2452428207
  0
VERTEX
  8
0
 62
7
  6
CONTINUOUS
 10
66.9660199503
 20
144.251621017
  0
SEQEND
  0
POLYLINE
  8
0
 62
7
  6
CONTINUOUS
 66
1
 70
0
  0
VERTEX
  8
0
 62
7
  6
CONTINUOUS
 10
66.922824166
 20
131.4786097924
  0
VERTEX
  8
0
 62
7
  6
CONTINUOUS
 10
66.9220012044
 20
131.4754190937
  0
VERTEX
  8
0
 62
7
  6
CONTINUOUS
 10
66.9251993846
 20
131.4840747731
  0
VERTEX
  8
0
 62
7
  6
CONTINUOUS
 10
66.9375049316
 20
131.5092497736
  0
VERTEX
  8
0
 62
7
  6
CONTINUOUS
 10
66.9610978098
 20
131.5452428207
  0
VERTEX
  8
0
 62
7
  6
CONTINUOUS
 10
66.9660199503
 20
131.551621017
  0
SEQEND
  0
POLYLINE
  8
0
 62
7
  6
CONTINUOUS
 66
1
 70
0
  0
VERTEX
  8
0
 62
7
  6
CONTINUOUS
 10
66.922822307
 20
118.7565020444
  0
VERTEX
  8
0
 62
7
  6
CONTINUOUS
 10
66.9220011914
 20
118.7533190547
  0
VERTEX
  8
0
 62
7
  6
CONTINUOUS
 10
66.9252026403
 20
118.7619827322
  0
VERTEX
  8
0
 62
7
  6
CONTINUOUS
 10
66.937511326
 20
118.7871611869
  0
VERTEX
  8
0
 62
7
  6
CONTINUOUS
 10
66.9611012362
 20
118.8231473499
  0
VERTEX
  8
0
 62
7
  6
CONTINUOUS
 10
66.9660190697
 20
118.8295198935
  0
SEQEND
  0
LINE
  8
0
 62
7
  6
CONTINUOUS
 10
66.9660605997
 20
144.2516724184
 11
66.9660199555
 21
144.2516210131
  0
LINE
  8
0
 62
7
  6
CONTINUOUS
 10
66.9660605997
 20
131.5516724184
 11
66.9660199555
 21
131.5516210131
  0
POLYLINE
  8
0
 62
7
  6
CONTINUOUS
 66
1
 70
0
  0
VERTEX
  8
0
 62
7
  6
CONTINUOUS
 10
66.9661312505
 20
144.2517616606
  0
VERTEX
  8
0
 62
7
  6
CONTINUOUS
 10
66.9663870392
 20
144.2520769677
  0
VERTEX
  8
0
 62
7
  6
CONTINUOUS
 10
66.9753406112
 20
144.2617833341
  0
VERTEX
  8
0
 62
7
  6
CONTINUOUS
 10
66.9990396126
 20
144.2830043821
  0
VERTEX
  8
0
 62
7
  6
CONTINUOUS
 10
67.039273708
 20
144.3116952559
  0
VERTEX
  8
0
 62
7
  6
CONTINUOUS
 10
67.0970278448
 20
144.3430484427
  0
VERTEX
  8
0
 62
7
  6
CONTINUOUS
 10
67.1688468875
 20
144.3705702151
  0
VERTEX
  8
0
 62
7
  6
CONTINUOUS
 10
67.1917673644
 20
144.3770860122
  0
SEQEND
  0
POLYLINE
  8
0
 62
7
  6
CONTINUOUS
 66
1
 70
0
  0
VERTEX
  8
0
 62
7
  6
CONTINUOUS
 10
66.9661312505
 20
131.5517616606
  0
VERTEX
  8
0
 62
7
  6
CONTINUOUS
 10
66.9663870392
 20
131.5520769677
  0
VERTEX
  8
0
 62
7
  6
CONTINUOUS
 10
66.9753406112
 20
131.5617833341
  0
VERTEX
  8
0
 62
7
  6
CONTINUOUS
 10
66.9990396126
 20
131.5830043821
  0
VERTEX
  8
0
 62
7
  6
CONTINUOUS
 10
67.039273708
 20
131.6116952559
  0
VERTEX
  8
0
 62
7
  6
CONTINUOUS
 10
67.0970278448
 20
131.6430484427
  0
VERTEX
  8
0
 62
7
  6
CONTINUOUS
 10
67.1688468875
 20
131.6705702151
  0
VERTEX
  8
0
 62
7
  6
CONTINUOUS
 10
67.1917673644
 20
131.6770860122
  0
SEQEND
  0
LINE
  8
0
 62
7
  6
CONTINUOUS
 10
67.5927096151
 20
119.0598290958
 11
63.2510620385
 21
117.9245236227
  0
LINE
  8
0
 62
7
  6
CONTINUOUS
 10
63.2510620385
 20
130.6466236227
 11
67.5927096151
 21
131.7819290958
  0
LINE
  8
0
 62
7
  6
CONTINUOUS
 10
72.2249713964
 20
119.5077487208
 11
68.0901990051
 21
119.1460030103
  0
LINE
  8
0
 62
7
  6
CONTINUOUS
 10
68.0901990051
 20
131.8681030103
 11
72.2249713964
 21
132.2298487208
  0
LINE
  8
DEFAULT_1
 62
2
  6
CENTER
 10
60.6922439825
 20
130.5236122449
 11
75.1408807489
 21
130.5236122449
  0
LINE
  8
0
 62
7
  6
CONTINUOUS
 10
68.0901990051
 20
122.8292214795
 11
72.2249713964
 21
122.467475769
  0
LINE
  8
0
 62
7
  6
CONTINUOUS
 10
63.2510620385
 20
124.050700867
 11
67.5927096151
 21
122.915395394
  0
POLYLINE
  8
0
 62
7
  6
CONTINUOUS
 66
1
 70
0
  0
VERTEX
  8
0
 62
7
  6
CONTINUOUS
 10
67.1918150421
 20
123.0202260154
  0
VERTEX
  8
0
 62
7
  6
CONTINUOUS
 10
67.1694896744
 20
123.0265585054
  0
VERTEX
  8
0
 62
7
  6
CONTINUOUS
 10
67.0981492531
 20
123.0537572858
  0
VERTEX
  8
0
 62
7
  6
CONTINUOUS
 10
67.0405624125
 20
123.0848187911
  0
VERTEX
  8
0
 62
7
  6
CONTINUOUS
 10
67.0001749224
 20
123.1134040353
  0
VERTEX
  8
0
 62
7
  6
CONTINUOUS
 10
66.9760709165
 20
123.1348101156
  0
VERTEX
  8
0
 62
7
  6
CONTINUOUS
 10
66.9724267173
 20
123.1385297399
  0
SEQEND
  0
POLYLINE
  8
0
 62
7
  6
CONTINUOUS
 66
1
 70
0
  0
VERTEX
  8
0
 62
7
  6
CONTINUOUS
 10
66.9724267173
 20
123.1385297399
  0
VERTEX
  8
0
 62
7
  6
CONTINUOUS
 10
66.9665452589
 20
123.1450556844
  0
VERTEX
  8
0
 62
7
  6
CONTINUOUS
 10
66.9660520506
 20
123.1456628831
  0
SEQEND
  0
LINE
  8
0
 62
7
  6
CONTINUOUS
 10
66.9660564064
 20
110.4456573735
 11
66.938815857
 21
110.485758503
  0
LINE
  8
0
 62
7
  6
CONTINUOUS
 10
66.9660564064
 20
123.1456573735
 11
66.938815857
 21
123.185758503
  0
LINE
  8
0
 62
7
  6
CONTINUOUS
 10
66.9660560753
 20
135.8677577886
 11
66.9388156294
 21
135.9078589149
  0
POLYLINE
  8
0
 62
7
  6
CONTINUOUS
 66
1
 70
0
  0
VERTEX
  8
0
 62
7
  6
CONTINUOUS
 10
66.938815857
 20
110.485758503
  0
VERTEX
  8
0
 62
7
  6
CONTINUOUS
 10
66.9257268831
 20
110.5119773196
  0
VERTEX
  8
0
 62
7
  6
CONTINUOUS
 10
66.9224994
 20
110.52037497
  0
SEQEND
  0
POLYLINE
  8
0
 62
7
  6
CONTINUOUS
 66
1
 70
0
  0
VERTEX
  8
0
 62
7
  6
CONTINUOUS
 10
66.938815857
 20
123.185758503
  0
VERTEX
  8
0
 62
7
  6
CONTINUOUS
 10
66.9257268831
 20
123.2119773196
  0
VERTEX
  8
0
 62
7
  6
CONTINUOUS
 10
66.9224994
 20
123.22037497
  0
SEQEND
  0
POLYLINE
  8
0
 62
7
  6
CONTINUOUS
 66
1
 70
0
  0
VERTEX
  8
0
 62
7
  6
CONTINUOUS
 10
66.9388156294
 20
135.9078589149
  0
VERTEX
  8
0
 62
7
  6
CONTINUOUS
 10
66.9257270565
 20
135.9340768998
  0
VERTEX
  8
0
 62
7
  6
CONTINUOUS
 10
66.9224994598
 20
135.9424747851
  0
SEQEND
  0
LINE
  8
0
 62
7
  6
CONTINUOUS
 10
72.9378156537
 20
221.5330415978
 11
72.9378156537
 21
210.9863829061
  0
LINE
  8
0
 62
7
  6
CONTINUOUS
 10
72.9378156537
 20
208.8330415978
 11
72.9378156537
 21
198.2863829061
  0
LINE
  8
0
 62
7
  6
CONTINUOUS
 10
72.9378156537
 20
196.1330415978
 11
72.9378156537
 21
185.5863829061
  0
LINE
  8
0
 62
7
  6
CONTINUOUS
 10
72.9378156537
 20
183.4330415978
 11
72.9378156537
 21
172.8863829061
  0
LINE
  8
0
 62
7
  6
CONTINUOUS
 10
72.9378156537
 20
170.7330415978
 11
72.9378156537
 21
160.1863829061
  0
LINE
  8
0
 62
7
  6
CONTINUOUS
 10
72.9378156537
 20
158.0330415978
 11
72.9378156537
 21
147.4863829061
  0
LINE
  8
0
 62
7
  6
CONTINUOUS
 10
72.9378156537
 20
145.3330415978
 11
72.9378156537
 21
134.7863829061
  0
LINE
  8
0
 62
7
  6
CONTINUOUS
 10
72.9378156537
 20
132.6330415978
 11
72.9378156537
 21
122.0642829125
  0
LINE
  8
0
 62
7
  6
CONTINUOUS
 10
72.9378156537
 20
119.9109415719
 11
72.9378156537
 21
109.3642829125
  0
LINE
  8
0
 62
7
  6
CONTINUOUS
 10
72.9378156537
 20
107.2109415719
 11
72.9378156537
 21
96.6642829125
  0
LINE
  8
0
 62
7
  6
CONTINUOUS
 10
72.9378156537
 20
94.5109415719
 11
72.9378156537
 21
83.9642829125
  0
LINE
  8
0
 62
7
  6
CONTINUOUS
 10
72.9378156537
 20
81.8109415719
 11
72.9378156537
 21
71.2642829125
  0
LINE
  8
0
 62
7
  6
CONTINUOUS
 10
72.9378156537
 20
69.1109415719
 11
72.9378156537
 21
58.5642829125
  0
LINE
  8
0
 62
7
  6
CONTINUOUS
 10
72.9378156537
 20
56.4109415719
 11
72.9378156537
 21
45.8642829125
  0
LINE
  8
0
 62
7
  6
CONTINUOUS
 10
73.1378156537
 20
216.7432810709
 11
73.1378156537
 21
215.7759434189
  0
LINE
  8
0
 62
7
  6
CONTINUOUS
 10
73.1378156537
 20
204.0432810709
 11
73.1378156537
 21
203.0759434189
  0
LINE
  8
0
 62
7
  6
CONTINUOUS
 10
73.1378156537
 20
191.3432810709
 11
73.1378156537
 21
190.3759434189
  0
LINE
  8
0
 62
7
  6
CONTINUOUS
 10
73.1378156537
 20
178.6432810709
 11
73.1378156537
 21
177.6759434189
  0
LINE
  8
0
 62
7
  6
CONTINUOUS
 10
73.1378156537
 20
165.9432810709
 11
73.1378156537
 21
164.9759434189
  0
LINE
  8
0
 62
7
  6
CONTINUOUS
 10
73.1378156537
 20
153.2432810709
 11
73.1378156537
 21
152.2759434189
  0
LINE
  8
0
 62
7
  6
CONTINUOUS
 10
73.1378156537
 20
140.5432810709
 11
73.1378156537
 21
139.5759434189
  0
LINE
  8
0
 62
7
  6
CONTINUOUS
 10
73.1378156537
 20
127.8211810709
 11
73.1378156537
 21
126.8538434189
  0
LINE
  8
0
 62
7
  6
CONTINUOUS
 10
73.1378156537
 20
115.1211810709
 11
73.1378156537
 21
114.1538434189
  0
LINE
  8
0
 62
7
  6
CONTINUOUS
 10
73.1378156537
 20
102.4211810709
 11
73.1378156537
 21
101.4538434189
  0
LINE
  8
0
 62
7
  6
CONTINUOUS
 10
73.1378156537
 20
89.7211810709
 11
73.1378156537
 21
88.7538434189
  0
LINE
  8
0
 62
7
  6
CONTINUOUS
 10
73.1378156537
 20
77.0211810709
 11
73.1378156537
 21
76.0538434189
  0
LINE
  8
0
 62
7
  6
CONTINUOUS
 10
73.1378156537
 20
64.3211810709
 11
73.1378156537
 21
63.3538434189
  0
LINE
  8
0
 62
7
  6
CONTINUOUS
 10
73.1378156537
 20
51.6211810709
 11
73.1378156537
 21
50.6538434189
  0
LINE
  8
0
 62
7
  6
CONTINUOUS
 10
73.1378156537
 20
45.2712810709
 11
73.1378156537
 21
42.6736122449
  0
LINE
  8
0
 62
7
  6
CONTINUOUS
 10
73.1378156537
 20
57.0039434189
 11
73.1378156537
 21
57.9712810709
  0
LINE
  8
0
 62
7
  6
CONTINUOUS
 10
73.1378156537
 20
69.7039434189
 11
73.1378156537
 21
70.6712810709
  0
LINE
  8
0
 62
7
  6
CONTINUOUS
 10
73.1378156537
 20
82.4039434189
 11
73.1378156537
 21
83.3712810709
  0
LINE
  8
0
 62
7
  6
CONTINUOUS
 10
73.1378156537
 20
95.1039434189
 11
73.1378156537
 21
96.0712810709
  0
LINE
  8
0
 62
7
  6
CONTINUOUS
 10
73.1378156537
 20
107.8039434189
 11
73.1378156537
 21
108.7712810709
  0
LINE
  8
0
 62
7
  6
CONTINUOUS
 10
73.1378156537
 20
120.5039434189
 11
73.1378156537
 21
121.4712810709
  0
LINE
  8
0
 62
7
  6
CONTINUOUS
 10
73.1378156537
 20
133.2260434189
 11
73.1378156537
 21
134.1933810709
  0
LINE
  8
0
 62
7
  6
CONTINUOUS
 10
73.1378156537
 20
145.9260434189
 11
73.1378156537
 21
146.8933810709
  0
LINE
  8
0
 62
7
  6
CONTINUOUS
 10
73.1378156537
 20
158.6260434189
 11
73.1378156537
 21
159.5933810709
  0
LINE
  8
0
 62
7
  6
CONTINUOUS
 10
73.1378156537
 20
171.3260434189
 11
73.1378156537
 21
172.2933810709
  0
LINE
  8
0
 62
7
  6
CONTINUOUS
 10
73.1378156537
 20
184.0260434189
 11
73.1378156537
 21
184.9933810709
  0
LINE
  8
0
 62
7
  6
CONTINUOUS
 10
73.1378156537
 20
196.7260434189
 11
73.1378156537
 21
197.6933810709
  0
LINE
  8
0
 62
7
  6
CONTINUOUS
 10
73.1378156537
 20
209.4260434189
 11
73.1378156537
 21
210.3933810709
  0
LINE
  8
0
 62
7
  6
CONTINUOUS
 10
73.1378156537
 20
222.1260434189
 11
73.1378156537
 21
224.7236122449
  0
POLYLINE
  8
0
 62
7
  6
CONTINUOUS
 66
1
 70
0
  0
VERTEX
  8
0
 62
7
  6
CONTINUOUS
 10
66.922822307
 20
106.0565020444
  0
VERTEX
  8
0
 62
7
  6
CONTINUOUS
 10
66.9220011914
 20
106.0533190547
  0
VERTEX
  8
0
 62
7
  6
CONTINUOUS
 10
66.9252026403
 20
106.0619827322
  0
VERTEX
  8
0
 62
7
  6
CONTINUOUS
 10
66.937511326
 20
106.0871611869
  0
VERTEX
  8
0
 62
7
  6
CONTINUOUS
 10
66.9611012362
 20
106.1231473499
  0
VERTEX
  8
0
 62
7
  6
CONTINUOUS
 10
66.9660190697
 20
106.1295198935
  0
SEQEND
  0
POLYLINE
  8
0
 62
7
  6
CONTINUOUS
 66
1
 70
0
  0
VERTEX
  8
0
 62
7
  6
CONTINUOUS
 10
66.922822307
 20
93.3565020444
  0
VERTEX
  8
0
 62
7
  6
CONTINUOUS
 10
66.9220011914
 20
93.3533190547
  0
VERTEX
  8
0
 62
7
  6
CONTINUOUS
 10
66.9252026403
 20
93.3619827322
  0
VERTEX
  8
0
 62
7
  6
CONTINUOUS
 10
66.937511326
 20
93.3871611869
  0
VERTEX
  8
0
 62
7
  6
CONTINUOUS
 10
66.9611012362
 20
93.4231473499
  0
VERTEX
  8
0
 62
7
  6
CONTINUOUS
 10
66.9660190697
 20
93.4295198935
  0
SEQEND
  0
POLYLINE
  8
0
 62
7
  6
CONTINUOUS
 66
1
 70
0
  0
VERTEX
  8
0
 62
7
  6
CONTINUOUS
 10
66.922822307
 20
80.6565020444
  0
VERTEX
  8
0
 62
7
  6
CONTINUOUS
 10
66.9220011914
 20
80.6533190547
  0
VERTEX
  8
0
 62
7
  6
CONTINUOUS
 10
66.9252026403
 20
80.6619827322
  0
VERTEX
  8
0
 62
7
  6
CONTINUOUS
 10
66.937511326
 20
80.6871611869
  0
VERTEX
  8
0
 62
7
  6
CONTINUOUS
 10
66.9611012362
 20
80.7231473499
  0
VERTEX
  8
0
 62
7
  6
CONTINUOUS
 10
66.9660190697
 20
80.7295198935
  0
SEQEND
  0
POLYLINE
  8
0
 62
7
  6
CONTINUOUS
 66
1
 70
0
  0
VERTEX
  8
0
 62
7
  6
CONTINUOUS
 10
66.922822307
 20
67.9565020444
  0
VERTEX
  8
0
 62
7
  6
CONTINUOUS
 10
66.9220011914
 20
67.9533190547
  0
VERTEX
  8
0
 62
7
  6
CONTINUOUS
 10
66.9252026403
 20
67.9619827322
  0
VERTEX
  8
0
 62
7
  6
CONTINUOUS
 10
66.937511326
 20
67.9871611869
  0
VERTEX
  8
0
 62
7
  6
CONTINUOUS
 10
66.9611012362
 20
68.0231473499
  0
VERTEX
  8
0
 62
7
  6
CONTINUOUS
 10
66.9660190697
 20
68.0295198935
  0
SEQEND
  0
POLYLINE
  8
0
 62
7
  6
CONTINUOUS
 66
1
 70
0
  0
VERTEX
  8
0
 62
7
  6
CONTINUOUS
 10
66.922822307
 20
55.2565020444
  0
VERTEX
  8
0
 62
7
  6
CONTINUOUS
 10
66.9220011914
 20
55.2533190547
  0
VERTEX
  8
0
 62
7
  6
CONTINUOUS
 10
66.9252026403
 20
55.2619827322
  0
VERTEX
  8
0
 62
7
  6
CONTINUOUS
 10
66.937511326
 20
55.2871611869
  0
VERTEX
  8
0
 62
7
  6
CONTINUOUS
 10
66.9611012362
 20
55.3231473499
  0
VERTEX
  8
0
 62
7
  6
CONTINUOUS
 10
66.9660190697
 20
55.3295198935
  0
SEQEND
  0
LINE
  8
0
 62
7
  6
CONTINUOUS
 10
66.9660608903
 20
118.8295727859
 11
66.9660190702
 21
118.8295198933
  0
LINE
  8
0
 62
7
  6
CONTINUOUS
 10
66.9660608903
 20
106.1295727859
 11
66.9660190702
 21
106.1295198933
  0
POLYLINE
  8
0
 62
7
  6
CONTINUOUS
 66
1
 70
0
  0
VERTEX
  8
0
 62
7
  6
CONTINUOUS
 10
66.9661314481
 20
118.8296619085
  0
VERTEX
  8
0
 62
7
  6
CONTINUOUS
 10
66.966387113
 20
118.8299770592
  0
VERTEX
  8
0
 62
7
  6
CONTINUOUS
 10
66.9753416986
 20
118.8396844292
  0
VERTEX
  8
0
 62
7
  6
CONTINUOUS
 10
66.9990435314
 20
118.8609075736
  0
VERTEX
  8
0
 62
7
  6
CONTINUOUS
 10
67.0392825651
 20
118.8896008534
  0
VERTEX
  8
0
 62
7
  6
CONTINUOUS
 10
67.0970250888
 20
118.9209465602
  0
VERTEX
  8
0
 62
7
  6
CONTINUOUS
 10
67.1688544679
 20
118.9484713121
  0
VERTEX
  8
0
 62
7
  6
CONTINUOUS
 10
67.1918115325
 20
118.9549975603
  0
SEQEND
  0
POLYLINE
  8
0
 62
7
  6
CONTINUOUS
 66
1
 70
0
  0
VERTEX
  8
0
 62
7
  6
CONTINUOUS
 10
66.9661314481
 20
106.1296619085
  0
VERTEX
  8
0
 62
7
  6
CONTINUOUS
 10
66.966387113
 20
106.1299770592
  0
VERTEX
  8
0
 62
7
  6
CONTINUOUS
 10
66.9753416986
 20
106.1396844292
  0
VERTEX
  8
0
 62
7
  6
CONTINUOUS
 10
66.9990435314
 20
106.1609075736
  0
VERTEX
  8
0
 62
7
  6
CONTINUOUS
 10
67.0392825651
 20
106.1896008534
  0
VERTEX
  8
0
 62
7
  6
CONTINUOUS
 10
67.0970250888
 20
106.2209465602
  0
VERTEX
  8
0
 62
7
  6
CONTINUOUS
 10
67.1688544679
 20
106.2484713121
  0
VERTEX
  8
0
 62
7
  6
CONTINUOUS
 10
67.1918115325
 20
106.2549975603
  0
SEQEND
  0
LINE
  8
0
 62
7
  6
CONTINUOUS
 10
63.2510620385
 20
143.3466236227
 11
67.5927096151
 21
144.4819290958
  0
LINE
  8
0
 62
7
  6
CONTINUOUS
 10
68.0901990051
 20
144.5681030103
 11
72.2249713964
 21
144.9298487208
  0
LINE
  8
0
 62
7
  6
CONTINUOUS
 10
72.2249713964
 20
135.189575769
 11
68.0901990051
 21
135.5513214795
  0
LINE
  8
0
 62
7
  6
CONTINUOUS
 10
72.2249713964
 20
147.889575769
 11
68.0901990051
 21
148.2513214795
  0
LINE
  8
0
 62
7
  6
CONTINUOUS
 10
67.5927096151
 20
135.637495394
 11
63.2510620385
 21
136.772800867
  0
LINE
  8
0
 62
7
  6
CONTINUOUS
 10
67.5927096151
 20
148.337495394
 11
63.2510620385
 21
149.472800867
  0
POLYLINE
  8
0
 62
7
  6
CONTINUOUS
 66
1
 70
0
  0
VERTEX
  8
0
 62
7
  6
CONTINUOUS
 10
67.1917709673
 20
135.7423375392
  0
VERTEX
  8
0
 62
7
  6
CONTINUOUS
 10
67.169481713
 20
135.7486597285
  0
VERTEX
  8
0
 62
7
  6
CONTINUOUS
 10
67.0981525593
 20
135.7758551333
  0
VERTEX
  8
0
 62
7
  6
CONTINUOUS
 10
67.0405538092
 20
135.8069241913
  0
VERTEX
  8
0
 62
7
  6
CONTINUOUS
 10
67.0001710856
 20
135.8355071352
  0
VERTEX
  8
0
 62
7
  6
CONTINUOUS
 10
66.976069828
 20
135.8569112005
  0
VERTEX
  8
0
 62
7
  6
CONTINUOUS
 10
66.9724260886
 20
135.8606304023
  0
SEQEND
  0
POLYLINE
  8
0
 62
7
  6
CONTINUOUS
 66
1
 70
0
  0
VERTEX
  8
0
 62
7
  6
CONTINUOUS
 10
67.1917709673
 20
148.4423375392
  0
VERTEX
  8
0
 62
7
  6
CONTINUOUS
 10
67.169481713
 20
148.4486597285
  0
VERTEX
  8
0
 62
7
  6
CONTINUOUS
 10
67.0981525593
 20
148.4758551333
  0
VERTEX
  8
0
 62
7
  6
CONTINUOUS
 10
67.0405538092
 20
148.5069241913
  0
VERTEX
  8
0
 62
7
  6
CONTINUOUS
 10
67.0001710856
 20
148.5355071352
  0
VERTEX
  8
0
 62
7
  6
CONTINUOUS
 10
66.976069828
 20
148.5569112005
  0
VERTEX
  8
0
 62
7
  6
CONTINUOUS
 10
66.9724260886
 20
148.5606304023
  0
SEQEND
  0
POLYLINE
  8
0
 62
7
  6
CONTINUOUS
 66
1
 70
0
  0
VERTEX
  8
0
 62
7
  6
CONTINUOUS
 10
66.9724260886
 20
135.8606304023
  0
VERTEX
  8
0
 62
7
  6
CONTINUOUS
 10
66.966545176
 20
135.8671557857
  0
VERTEX
  8
0
 62
7
  6
CONTINUOUS
 10
66.9660517143
 20
135.8677633084
  0
SEQEND
  0
POLYLINE
  8
0
 62
7
  6
CONTINUOUS
 66
1
 70
0
  0
VERTEX
  8
0
 62
7
  6
CONTINUOUS
 10
66.9724260886
 20
148.5606304023
  0
VERTEX
  8
0
 62
7
  6
CONTINUOUS
 10
66.966545176
 20
148.5671557857
  0
VERTEX
  8
0
 62
7
  6
CONTINUOUS
 10
66.9660517143
 20
148.5677633084
  0
SEQEND
  0
LINE
  8
0
 62
7
  6
CONTINUOUS
 10
66.9660560753
 20
148.5677577886
 11
66.9388156294
 21
148.6078589149
  0
LINE
  8
0
 62
7
  6
CONTINUOUS
 10
66.9660560753
 20
161.2677577886
 11
66.9388156294
 21
161.3078589149
  0
POLYLINE
  8
0
 62
7
  6
CONTINUOUS
 66
1
 70
0
  0
VERTEX
  8
0
 62
7
  6
CONTINUOUS
 10
66.9388156294
 20
148.6078589149
  0
VERTEX
  8
0
 62
7
  6
CONTINUOUS
 10
66.9257270565
 20
148.6340768998
  0
VERTEX
  8
0
 62
7
  6
CONTINUOUS
 10
66.9224994598
 20
148.6424747851
  0
SEQEND
  0
POLYLINE
  8
0
 62
7
  6
CONTINUOUS
 66
1
 70
0
  0
VERTEX
  8
0
 62
7
  6
CONTINUOUS
 10
66.9388156294
 20
161.3078589149
  0
VERTEX
  8
0
 62
7
  6
CONTINUOUS
 10
66.9257270565
 20
161.3340768998
  0
VERTEX
  8
0
 62
7
  6
CONTINUOUS
 10
66.9224994598
 20
161.3424747851
  0
SEQEND
  0
POLYLINE
  8
0
 62
7
  6
CONTINUOUS
 66
1
 70
0
  0
VERTEX
  8
0
 62
7
  6
CONTINUOUS
 10
66.9388156294
 20
174.0078589149
  0
VERTEX
  8
0
 62
7
  6
CONTINUOUS
 10
66.9257270565
 20
174.0340768998
  0
VERTEX
  8
0
 62
7
  6
CONTINUOUS
 10
66.9224994598
 20
174.0424747851
  0
SEQEND
  0
LINE
  8
0
 62
7
  6
CONTINUOUS
 10
66.9660608903
 20
93.4295727859
 11
66.9660190702
 21
93.4295198933
  0
LINE
  8
0
 62
7
  6
CONTINUOUS
 10
66.9660608903
 20
80.7295727859
 11
66.9660190702
 21
80.7295198933
  0
POLYLINE
  8
0
 62
7
  6
CONTINUOUS
 66
1
 70
0
  0
VERTEX
  8
0
 62
7
  6
CONTINUOUS
 10
66.9661314481
 20
93.4296619085
  0
VERTEX
  8
0
 62
7
  6
CONTINUOUS
 10
66.966387113
 20
93.4299770592
  0
VERTEX
  8
0
 62
7
  6
CONTINUOUS
 10
66.9753416986
 20
93.4396844292
  0
VERTEX
  8
0
 62
7
  6
CONTINUOUS
 10
66.9990435314
 20
93.4609075736
  0
VERTEX
  8
0
 62
7
  6
CONTINUOUS
 10
67.0392825651
 20
93.4896008534
  0
VERTEX
  8
0
 62
7
  6
CONTINUOUS
 10
67.0970250888
 20
93.5209465602
  0
VERTEX
  8
0
 62
7
  6
CONTINUOUS
 10
67.1688544679
 20
93.5484713121
  0
VERTEX
  8
0
 62
7
  6
CONTINUOUS
 10
67.1918115325
 20
93.5549975603
  0
SEQEND
  0
POLYLINE
  8
0
 62
7
  6
CONTINUOUS
 66
1
 70
0
  0
VERTEX
  8
0
 62
7
  6
CONTINUOUS
 10
66.9661314481
 20
80.7296619085
  0
VERTEX
  8
0
 62
7
  6
CONTINUOUS
 10
66.966387113
 20
80.7299770592
  0
VERTEX
  8
0
 62
7
  6
CONTINUOUS
 10
66.9753416986
 20
80.7396844292
  0
VERTEX
  8
0
 62
7
  6
CONTINUOUS
 10
66.9990435314
 20
80.7609075736
  0
VERTEX
  8
0
 62
7
  6
CONTINUOUS
 10
67.0392825651
 20
80.7896008534
  0
VERTEX
  8
0
 62
7
  6
CONTINUOUS
 10
67.0970250888
 20
80.8209465602
  0
VERTEX
  8
0
 62
7
  6
CONTINUOUS
 10
67.1688544679
 20
80.8484713121
  0
VERTEX
  8
0
 62
7
  6
CONTINUOUS
 10
67.1918115325
 20
80.8549975603
  0
SEQEND
  0
LINE
  8
0
 62
7
  6
CONTINUOUS
 10
63.2510620385
 20
156.0466236227
 11
67.5927096151
 21
157.1819290958
  0
LINE
  8
0
 62
7
  6
CONTINUOUS
 10
68.0901990051
 20
157.2681030103
 11
72.2249713964
 21
157.6298487208
  0
LINE
  8
0
 62
7
  6
CONTINUOUS
 10
72.2249713964
 20
160.589575769
 11
68.0901990051
 21
160.9513214795
  0
LINE
  8
0
 62
7
  6
CONTINUOUS
 10
67.5927096151
 20
161.037495394
 11
63.2510620385
 21
162.172800867
  0
POLYLINE
  8
0
 62
7
  6
CONTINUOUS
 66
1
 70
0
  0
VERTEX
  8
0
 62
7
  6
CONTINUOUS
 10
67.1917709673
 20
161.1423375392
  0
VERTEX
  8
0
 62
7
  6
CONTINUOUS
 10
67.169481713
 20
161.1486597285
  0
VERTEX
  8
0
 62
7
  6
CONTINUOUS
 10
67.0981525593
 20
161.1758551333
  0
VERTEX
  8
0
 62
7
  6
CONTINUOUS
 10
67.0405538092
 20
161.2069241913
  0
VERTEX
  8
0
 62
7
  6
CONTINUOUS
 10
67.0001710856
 20
161.2355071352
  0
VERTEX
  8
0
 62
7
  6
CONTINUOUS
 10
66.976069828
 20
161.2569112005
  0
VERTEX
  8
0
 62
7
  6
CONTINUOUS
 10
66.9724260886
 20
161.2606304023
  0
SEQEND
  0
POLYLINE
  8
0
 62
7
  6
CONTINUOUS
 66
1
 70
0
  0
VERTEX
  8
0
 62
7
  6
CONTINUOUS
 10
66.9724260886
 20
161.2606304023
  0
VERTEX
  8
0
 62
7
  6
CONTINUOUS
 10
66.966545176
 20
161.2671557857
  0
VERTEX
  8
0
 62
7
  6
CONTINUOUS
 10
66.9660517143
 20
161.2677633084
  0
SEQEND
  0
POLYLINE
  8
0
 62
7
  6
CONTINUOUS
 66
1
 70
0
  0
VERTEX
  8
0
 62
7
  6
CONTINUOUS
 10
66.9724260886
 20
173.9606304023
  0
VERTEX
  8
0
 62
7
  6
CONTINUOUS
 10
66.966545176
 20
173.9671557857
  0
VERTEX
  8
0
 62
7
  6
CONTINUOUS
 10
66.9660517143
 20
173.9677633084
  0
SEQEND
  0
LINE
  8
0
 62
7
  6
CONTINUOUS
 10
66.9660560753
 20
173.9677577886
 11
66.9388156294
 21
174.0078589149
  0
LINE
  8
0
 62
7
  6
CONTINUOUS
 10
66.9660560753
 20
186.6677577886
 11
66.9388156294
 21
186.7078589149
  0
POLYLINE
  8
0
 62
7
  6
CONTINUOUS
 66
1
 70
0
  0
VERTEX
  8
0
 62
7
  6
CONTINUOUS
 10
66.9388156294
 20
186.7078589149
  0
VERTEX
  8
0
 62
7
  6
CONTINUOUS
 10
66.9257270565
 20
186.7340768998
  0
VERTEX
  8
0
 62
7
  6
CONTINUOUS
 10
66.9224994598
 20
186.7424747851
  0
SEQEND
  0
POLYLINE
  8
0
 62
7
  6
CONTINUOUS
 66
1
 70
0
  0
VERTEX
  8
0
 62
7
  6
CONTINUOUS
 10
66.9388156294
 20
199.4078589149
  0
VERTEX
  8
0
 62
7
  6
CONTINUOUS
 10
66.9257270565
 20
199.4340768998
  0
VERTEX
  8
0
 62
7
  6
CONTINUOUS
 10
66.9224994598
 20
199.4424747851
  0
SEQEND
  0
POLYLINE
  8
0
 62
7
  6
CONTINUOUS
 66
1
 70
0
  0
VERTEX
  8
0
 62
7
  6
CONTINUOUS
 10
66.9388156294
 20
212.1078589149
  0
VERTEX
  8
0
 62
7
  6
CONTINUOUS
 10
66.9257270565
 20
212.1340768998
  0
VERTEX
  8
0
 62
7
  6
CONTINUOUS
 10
66.9224994598
 20
212.1424747851
  0
SEQEND
  0
LINE
  8
0
 62
7
  6
CONTINUOUS
 10
66.9660608903
 20
68.0295727859
 11
66.9660190702
 21
68.0295198933
  0
LINE
  8
0
 62
7
  6
CONTINUOUS
 10
66.9660608903
 20
55.3295727859
 11
66.9660190702
 21
55.3295198933
  0
POLYLINE
  8
0
 62
7
  6
CONTINUOUS
 66
1
 70
0
  0
VERTEX
  8
0
 62
7
  6
CONTINUOUS
 10
66.9661314481
 20
68.0296619085
  0
VERTEX
  8
0
 62
7
  6
CONTINUOUS
 10
66.966387113
 20
68.0299770592
  0
VERTEX
  8
0
 62
7
  6
CONTINUOUS
 10
66.9753416986
 20
68.0396844292
  0
VERTEX
  8
0
 62
7
  6
CONTINUOUS
 10
66.9990435314
 20
68.0609075736
  0
VERTEX
  8
0
 62
7
  6
CONTINUOUS
 10
67.0392825651
 20
68.0896008534
  0
VERTEX
  8
0
 62
7
  6
CONTINUOUS
 10
67.0970250888
 20
68.1209465602
  0
VERTEX
  8
0
 62
7
  6
CONTINUOUS
 10
67.1688544679
 20
68.1484713121
  0
VERTEX
  8
0
 62
7
  6
CONTINUOUS
 10
67.1918115325
 20
68.1549975603
  0
SEQEND
  0
POLYLINE
  8
0
 62
7
  6
CONTINUOUS
 66
1
 70
0
  0
VERTEX
  8
0
 62
7
  6
CONTINUOUS
 10
66.9661314481
 20
55.3296619085
  0
VERTEX
  8
0
 62
7
  6
CONTINUOUS
 10
66.966387113
 20
55.3299770592
  0
VERTEX
  8
0
 62
7
  6
CONTINUOUS
 10
66.9753416986
 20
55.3396844292
  0
VERTEX
  8
0
 62
7
  6
CONTINUOUS
 10
66.9990435314
 20
55.3609075736
  0
VERTEX
  8
0
 62
7
  6
CONTINUOUS
 10
67.0392825651
 20
55.3896008534
  0
VERTEX
  8
0
 62
7
  6
CONTINUOUS
 10
67.0970250888
 20
55.4209465602
  0
VERTEX
  8
0
 62
7
  6
CONTINUOUS
 10
67.1688544679
 20
55.4484713121
  0
VERTEX
  8
0
 62
7
  6
CONTINUOUS
 10
67.1918115325
 20
55.4549975603
  0
SEQEND
  0
LINE
  8
0
 62
7
  6
CONTINUOUS
 10
63.2510620385
 20
168.7466236227
 11
67.5927096151
 21
169.8819290958
  0
LINE
  8
0
 62
7
  6
CONTINUOUS
 10
63.2510620385
 20
181.4466236227
 11
67.5927096151
 21
182.5819290958
  0
LINE
  8
0
 62
7
  6
CONTINUOUS
 10
68.0901990051
 20
169.9681030103
 11
72.2249713964
 21
170.3298487208
  0
LINE
  8
0
 62
7
  6
CONTINUOUS
 10
68.0901990051
 20
182.6681030103
 11
72.2249713964
 21
183.0298487208
  0
LINE
  8
0
 62
7
  6
CONTINUOUS
 10
72.2249713964
 20
173.289575769
 11
68.0901990051
 21
173.6513214795
  0
LINE
  8
0
 62
7
  6
CONTINUOUS
 10
67.5927096151
 20
173.737495394
 11
63.2510620385
 21
174.872800867
  0
POLYLINE
  8
0
 62
7
  6
CONTINUOUS
 66
1
 70
0
  0
VERTEX
  8
0
 62
7
  6
CONTINUOUS
 10
67.1917709673
 20
173.8423375392
  0
VERTEX
  8
0
 62
7
  6
CONTINUOUS
 10
67.169481713
 20
173.8486597285
  0
VERTEX
  8
0
 62
7
  6
CONTINUOUS
 10
67.0981525593
 20
173.8758551333
  0
VERTEX
  8
0
 62
7
  6
CONTINUOUS
 10
67.0405538092
 20
173.9069241913
  0
VERTEX
  8
0
 62
7
  6
CONTINUOUS
 10
67.0001710856
 20
173.9355071352
  0
VERTEX
  8
0
 62
7
  6
CONTINUOUS
 10
66.976069828
 20
173.9569112005
  0
VERTEX
  8
0
 62
7
  6
CONTINUOUS
 10
66.9724260886
 20
173.9606304023
  0
SEQEND
  0
POLYLINE
  8
0
 62
7
  6
CONTINUOUS
 66
1
 70
0
  0
VERTEX
  8
0
 62
7
  6
CONTINUOUS
 10
66.9724260886
 20
186.6606304023
  0
VERTEX
  8
0
 62
7
  6
CONTINUOUS
 10
66.966545176
 20
186.6671557857
  0
VERTEX
  8
0
 62
7
  6
CONTINUOUS
 10
66.9660517143
 20
186.6677633084
  0
SEQEND
  0
POLYLINE
  8
0
 62
7
  6
CONTINUOUS
 66
1
 70
0
  0
VERTEX
  8
0
 62
7
  6
CONTINUOUS
 10
66.9724260886
 20
199.3606304023
  0
VERTEX
  8
0
 62
7
  6
CONTINUOUS
 10
66.966545176
 20
199.3671557857
  0
VERTEX
  8
0
 62
7
  6
CONTINUOUS
 10
66.9660517143
 20
199.3677633084
  0
SEQEND
  0
LINE
  8
0
 62
7
  6
CONTINUOUS
 10
66.9660560753
 20
199.3677577886
 11
66.9388156294
 21
199.4078589149
  0
LINE
  8
0
 62
7
  6
CONTINUOUS
 10
66.9660560753
 20
212.0677577886
 11
66.9388156294
 21
212.1078589149
  0
LINE
  8
0
 62
7
  6
CONTINUOUS
 10
63.2510620385
 20
194.1466236227
 11
67.5927096151
 21
195.2819290958
  0
LINE
  8
0
 62
7
  6
CONTINUOUS
 10
68.0901990051
 20
195.3681030103
 11
72.2249713964
 21
195.7298487208
  0
LINE
  8
0
 62
7
  6
CONTINUOUS
 10
72.2249713964
 20
185.989575769
 11
68.0901990051
 21
186.3513214795
  0
LINE
  8
0
 62
7
  6
CONTINUOUS
 10
72.2249713964
 20
198.689575769
 11
68.0901990051
 21
199.0513214795
  0
LINE
  8
0
 62
7
  6
CONTINUOUS
 10
67.5927096151
 20
186.437495394
 11
63.2510620385
 21
187.572800867
  0
LINE
  8
0
 62
7
  6
CONTINUOUS
 10
67.5927096151
 20
199.137495394
 11
63.2510620385
 21
200.272800867
  0
POLYLINE
  8
0
 62
7
  6
CONTINUOUS
 66
1
 70
0
  0
VERTEX
  8
0
 62
7
  6
CONTINUOUS
 10
67.1917709673
 20
186.5423375392
  0
VERTEX
  8
0
 62
7
  6
CONTINUOUS
 10
67.169481713
 20
186.5486597285
  0
VERTEX
  8
0
 62
7
  6
CONTINUOUS
 10
67.0981525593
 20
186.5758551333
  0
VERTEX
  8
0
 62
7
  6
CONTINUOUS
 10
67.0405538092
 20
186.6069241913
  0
VERTEX
  8
0
 62
7
  6
CONTINUOUS
 10
67.0001710856
 20
186.6355071352
  0
VERTEX
  8
0
 62
7
  6
CONTINUOUS
 10
66.976069828
 20
186.6569112005
  0
VERTEX
  8
0
 62
7
  6
CONTINUOUS
 10
66.9724260886
 20
186.6606304023
  0
SEQEND
  0
POLYLINE
  8
0
 62
7
  6
CONTINUOUS
 66
1
 70
0
  0
VERTEX
  8
0
 62
7
  6
CONTINUOUS
 10
67.1917709673
 20
199.2423375392
  0
VERTEX
  8
0
 62
7
  6
CONTINUOUS
 10
67.169481713
 20
199.2486597285
  0
VERTEX
  8
0
 62
7
  6
CONTINUOUS
 10
67.0981525593
 20
199.2758551333
  0
VERTEX
  8
0
 62
7
  6
CONTINUOUS
 10
67.0405538092
 20
199.3069241913
  0
VERTEX
  8
0
 62
7
  6
CONTINUOUS
 10
67.0001710856
 20
199.3355071352
  0
VERTEX
  8
0
 62
7
  6
CONTINUOUS
 10
66.976069828
 20
199.3569112005
  0
VERTEX
  8
0
 62
7
  6
CONTINUOUS
 10
66.9724260886
 20
199.3606304023
  0
SEQEND
  0
POLYLINE
  8
0
 62
7
  6
CONTINUOUS
 66
1
 70
0
  0
VERTEX
  8
0
 62
7
  6
CONTINUOUS
 10
66.9724260886
 20
212.0606304023
  0
VERTEX
  8
0
 62
7
  6
CONTINUOUS
 10
66.966545176
 20
212.0671557857
  0
VERTEX
  8
0
 62
7
  6
CONTINUOUS
 10
66.9660517143
 20
212.0677633084
  0
SEQEND
  0
LINE
  8
0
 62
7
  6
CONTINUOUS
 10
63.2510620385
 20
206.8466236227
 11
67.5927096151
 21
207.9819290958
  0
LINE
  8
0
 62
7
  6
CONTINUOUS
 10
68.0901990051
 20
208.0681030103
 11
72.2249713964
 21
208.4298487208
  0
LINE
  8
0
 62
7
  6
CONTINUOUS
 10
72.2249713964
 20
211.389575769
 11
68.0901990051
 21
211.7513214795
  0
LINE
  8
0
 62
7
  6
CONTINUOUS
 10
67.5927096151
 20
211.837495394
 11
63.2510620385
 21
212.972800867
  0
POLYLINE
  8
0
 62
7
  6
CONTINUOUS
 66
1
 70
0
  0
VERTEX
  8
0
 62
7
  6
CONTINUOUS
 10
67.1917709673
 20
211.9423375392
  0
VERTEX
  8
0
 62
7
  6
CONTINUOUS
 10
67.169481713
 20
211.9486597285
  0
VERTEX
  8
0
 62
7
  6
CONTINUOUS
 10
67.0981525593
 20
211.9758551333
  0
VERTEX
  8
0
 62
7
  6
CONTINUOUS
 10
67.0405538092
 20
212.0069241913
  0
VERTEX
  8
0
 62
7
  6
CONTINUOUS
 10
67.0001710856
 20
212.0355071352
  0
VERTEX
  8
0
 62
7
  6
CONTINUOUS
 10
66.976069828
 20
212.0569112005
  0
VERTEX
  8
0
 62
7
  6
CONTINUOUS
 10
66.9724260886
 20
212.0606304023
  0
SEQEND
  0
LINE
  8
0
 62
7
  6
CONTINUOUS
 10
63.2510620385
 20
219.5466236227
 11
67.5927096151
 21
220.6819290958
  0
LINE
  8
0
 62
7
  6
CONTINUOUS
 10
68.0901990051
 20
220.7681030103
 11
72.2249713964
 21
221.1298487208
  0
LINE
  8
0
 62
7
  6
CONTINUOUS
 10
72.1378156537
 20
225.7236122449
 11
63.1878156537
 21
225.7236122449
  0
POLYLINE
  8
0
 62
7
  6
CONTINUOUS
 66
1
 70
0
  0
VERTEX
  8
0
 62
7
  6
CONTINUOUS
 10
164.671882559
 20
47.5851473938
  0
VERTEX
  8
0
 62
7
  6
CONTINUOUS
 10
165.0834360821
 20
47.625214114
  0
VERTEX
  8
0
 62
7
  6
CONTINUOUS
 10
165.5512990224
 20
47.684147212
  0
VERTEX
  8
0
 62
7
  6
CONTINUOUS
 10
165.9976468395
 20
47.7555968218
  0
VERTEX
  8
0
 62
7
  6
CONTINUOUS
 10
166.4191680537
 20
47.8394565184
  0
VERTEX
  8
0
 62
7
  6
CONTINUOUS
 10
166.8124040551
 20
47.9357145894
  0
VERTEX
  8
0
 62
7
  6
CONTINUOUS
 10
167.1737946254
 20
48.044532075
  0
VERTEX
  8
0
 62
7
  6
CONTINUOUS
 10
167.498247833
 20
48.1657915437
  0
VERTEX
  8
0
 62
7
  6
CONTINUOUS
 10
167.7777078496
 20
48.2977823336
  0
VERTEX
  8
0
 62
7
  6
CONTINUOUS
 10
168.0075356607
 20
48.4389534514
  0
VERTEX
  8
0
 62
7
  6
CONTINUOUS
 10
168.1868822639
 20
48.5889054181
  0
VERTEX
  8
0
 62
7
  6
CONTINUOUS
 10
168.3161826414
 20
48.7477164683
  0
VERTEX
  8
0
 62
7
  6
CONTINUOUS
 10
168.3836648931
 20
48.880290704
  0
SEQEND
  0
POLYLINE
  8
0
 62
7
  6
CONTINUOUS
 66
1
 70
0
  0
VERTEX
  8
0
 62
7
  6
CONTINUOUS
 10
136.0793250394
 20
47.3760458667
  0
VERTEX
  8
0
 62
7
  6
CONTINUOUS
 10
135.6706390667
 20
47.3362948634
  0
VERTEX
  8
0
 62
7
  6
CONTINUOUS
 10
135.2043806843
 20
47.2776826017
  0
VERTEX
  8
0
 62
7
  6
CONTINUOUS
 10
134.7615281931
 20
47.2070178028
  0
VERTEX
  8
0
 62
7
  6
CONTINUOUS
 10
134.3428870276
 20
47.1241245789
  0
VERTEX
  8
0
 62
7
  6
CONTINUOUS
 10
133.9500075666
 20
47.0285079962
  0
VERTEX
  8
0
 62
7
  6
CONTINUOUS
 10
133.585334927
 20
46.9193061065
  0
VERTEX
  8
0
 62
7
  6
CONTINUOUS
 10
133.2549990505
 20
46.7962552462
  0
VERTEX
  8
0
 62
7
  6
CONTINUOUS
 10
132.9714938222
 20
46.6623343492
  0
VERTEX
  8
0
 62
7
  6
CONTINUOUS
 10
132.7417230227
 20
46.5208511864
  0
VERTEX
  8
0
 62
7
  6
CONTINUOUS
 10
132.5642787064
 20
46.3722414209
  0
VERTEX
  8
0
 62
7
  6
CONTINUOUS
 10
132.4362294065
 20
46.2153533361
  0
VERTEX
  8
0
 62
7
  6
CONTINUOUS
 10
132.3675325091
 20
46.0808699178
  0
SEQEND
  0
POLYLINE
  8
0
 62
7
  6
CONTINUOUS
 66
1
 70
0
  0
VERTEX
  8
0
 62
7
  6
CONTINUOUS
 10
164.6548440196
 20
47.5844269
  0
VERTEX
  8
0
 62
7
  6
CONTINUOUS
 10
164.6677866289
 20
47.5848434193
  0
VERTEX
  8
0
 62
7
  6
CONTINUOUS
 10
164.6718620087
 20
47.5851476093
  0
SEQEND
  0
POLYLINE
  8
0
 62
7
  6
CONTINUOUS
 66
1
 70
0
  0
VERTEX
  8
0
 62
7
  6
CONTINUOUS
 10
136.0963629934
 20
47.3767662791
  0
VERTEX
  8
0
 62
7
  6
CONTINUOUS
 10
136.0834209665
 20
47.3763497978
  0
VERTEX
  8
0
 62
7
  6
CONTINUOUS
 10
136.079344225
 20
47.3760455056
  0
SEQEND
  0
LINE
  8
0
 62
7
  6
CONTINUOUS
 10
132.5756150686
 20
41.1916466165
 11
159.8045182052
 21
41.1916466165
  0
LINE
  8
0
 62
7
  6
CONTINUOUS
 10
140.5365623258
 20
47.3767677237
 11
136.0963636118
 21
47.3767677237
  0
LINE
  8
0
 62
7
  6
CONTINUOUS
 10
160.1395188262
 20
47.5844255094
 11
164.6548439976
 21
47.5844255094
  0
POLYLINE
  8
0
 62
7
  6
CONTINUOUS
 66
1
 70
0
  0
VERTEX
  8
0
 62
7
  6
CONTINUOUS
 10
136.0793442242
 20
53.9350477258
  0
VERTEX
  8
0
 62
7
  6
CONTINUOUS
 10
136.083420968
 20
53.9347434335
  0
VERTEX
  8
0
 62
7
  6
CONTINUOUS
 10
136.096362987
 20
53.9343269527
  0
SEQEND
  0
POLYLINE
  8
0
 62
7
  6
CONTINUOUS
 66
1
 70
0
  0
VERTEX
  8
0
 62
7
  6
CONTINUOUS
 10
164.671882559
 20
60.2851473938
  0
VERTEX
  8
0
 62
7
  6
CONTINUOUS
 10
165.0834360821
 20
60.325214114
  0
VERTEX
  8
0
 62
7
  6
CONTINUOUS
 10
165.5512990224
 20
60.384147212
  0
VERTEX
  8
0
 62
7
  6
CONTINUOUS
 10
165.9976468395
 20
60.4555968218
  0
VERTEX
  8
0
 62
7
  6
CONTINUOUS
 10
166.4191680537
 20
60.5394565184
  0
VERTEX
  8
0
 62
7
  6
CONTINUOUS
 10
166.8124040551
 20
60.6357145894
  0
VERTEX
  8
0
 62
7
  6
CONTINUOUS
 10
167.1737946254
 20
60.744532075
  0
VERTEX
  8
0
 62
7
  6
CONTINUOUS
 10
167.498247833
 20
60.8657915437
  0
VERTEX
  8
0
 62
7
  6
CONTINUOUS
 10
167.7777078496
 20
60.9977823336
  0
VERTEX
  8
0
 62
7
  6
CONTINUOUS
 10
168.0075356607
 20
61.1389534514
  0
VERTEX
  8
0
 62
7
  6
CONTINUOUS
 10
168.1868822639
 20
61.2889054181
  0
VERTEX
  8
0
 62
7
  6
CONTINUOUS
 10
168.3161826414
 20
61.4477164683
  0
VERTEX
  8
0
 62
7
  6
CONTINUOUS
 10
168.3836648931
 20
61.580290704
  0
SEQEND
  0
POLYLINE
  8
0
 62
7
  6
CONTINUOUS
 66
1
 70
0
  0
VERTEX
  8
0
 62
7
  6
CONTINUOUS
 10
136.0793250394
 20
60.0760458667
  0
VERTEX
  8
0
 62
7
  6
CONTINUOUS
 10
135.6706390667
 20
60.0362948634
  0
VERTEX
  8
0
 62
7
  6
CONTINUOUS
 10
135.2043806843
 20
59.9776826017
  0
VERTEX
  8
0
 62
7
  6
CONTINUOUS
 10
134.7615281931
 20
59.9070178028
  0
VERTEX
  8
0
 62
7
  6
CONTINUOUS
 10
134.3428870276
 20
59.8241245789
  0
VERTEX
  8
0
 62
7
  6
CONTINUOUS
 10
133.9500075666
 20
59.7285079962
  0
VERTEX
  8
0
 62
7
  6
CONTINUOUS
 10
133.585334927
 20
59.6193061065
  0
VERTEX
  8
0
 62
7
  6
CONTINUOUS
 10
133.2549990505
 20
59.4962552462
  0
VERTEX
  8
0
 62
7
  6
CONTINUOUS
 10
132.9714938222
 20
59.3623343492
  0
VERTEX
  8
0
 62
7
  6
CONTINUOUS
 10
132.7417230227
 20
59.2208511864
  0
VERTEX
  8
0
 62
7
  6
CONTINUOUS
 10
132.5642787064
 20
59.0722414209
  0
VERTEX
  8
0
 62
7
  6
CONTINUOUS
 10
132.4362294065
 20
58.9153533361
  0
VERTEX
  8
0
 62
7
  6
CONTINUOUS
 10
132.3675325091
 20
58.7808699178
  0
SEQEND
  0
POLYLINE
  8
0
 62
7
  6
CONTINUOUS
 66
1
 70
0
  0
VERTEX
  8
0
 62
7
  6
CONTINUOUS
 10
164.6548440196
 20
60.2844269
  0
VERTEX
  8
0
 62
7
  6
CONTINUOUS
 10
164.6677866289
 20
60.2848434193
  0
VERTEX
  8
0
 62
7
  6
CONTINUOUS
 10
164.6718620087
 20
60.2851476093
  0
SEQEND
  0
POLYLINE
  8
0
 62
7
  6
CONTINUOUS
 66
1
 70
0
  0
VERTEX
  8
0
 62
7
  6
CONTINUOUS
 10
136.0963629934
 20
60.0767662791
  0
VERTEX
  8
0
 62
7
  6
CONTINUOUS
 10
136.0834209665
 20
60.0763497978
  0
VERTEX
  8
0
 62
7
  6
CONTINUOUS
 10
136.079344225
 20
60.0760455056
  0
SEQEND
  0
LINE
  8
0
 62
7
  6
CONTINUOUS
 10
164.6548440034
 20
53.7268677237
 11
160.1395204517
 21
53.7268677237
  0
LINE
  8
0
 62
7
  6
CONTINUOUS
 10
136.0963636032
 20
53.9343255094
 11
140.5365618918
 21
53.9343255094
  0
LINE
  8
0
 62
7
  6
CONTINUOUS
 10
140.5365623258
 20
60.0767677237
 11
136.0963636118
 21
60.0767677237
  0
LINE
  8
0
 62
7
  6
CONTINUOUS
 10
160.1395188262
 20
60.2844255094
 11
164.6548439976
 21
60.2844255094
  0
LINE
  8
0
 62
7
  6
CONTINUOUS
 10
164.6548440034
 20
66.4268677237
 11
160.1395204517
 21
66.4268677237
  0
LINE
  8
0
 62
7
  6
CONTINUOUS
 10
136.0963636032
 20
66.6343255094
 11
140.5365618918
 21
66.6343255094
  0
POLYLINE
  8
0
 62
7
  6
CONTINUOUS
 66
1
 70
0
  0
VERTEX
  8
0
 62
7
  6
CONTINUOUS
 10
140.5360766645
 20
53.9343260838
  0
VERTEX
  8
0
 62
7
  6
CONTINUOUS
 10
140.5458671356
 20
53.9340236876
  0
VERTEX
  8
0
 62
7
  6
CONTINUOUS
 10
140.5673787857
 20
53.9312166879
  0
VERTEX
  8
0
 62
7
  6
CONTINUOUS
 10
140.58908612
 20
53.9252575005
  0
VERTEX
  8
0
 62
7
  6
CONTINUOUS
 10
140.6103788224
 20
53.9159940438
  0
VERTEX
  8
0
 62
7
  6
CONTINUOUS
 10
140.6306151342
 20
53.9034022414
  0
VERTEX
  8
0
 62
7
  6
CONTINUOUS
 10
140.6491792704
 20
53.8875621023
  0
VERTEX
  8
0
 62
7
  6
CONTINUOUS
 10
140.665449736
 20
53.8686822178
  0
VERTEX
  8
0
 62
7
  6
CONTINUOUS
 10
140.6788273154
 20
53.8471097829
  0
VERTEX
  8
0
 62
7
  6
CONTINUOUS
 10
140.6887717237
 20
53.8233255471
  0
VERTEX
  8
0
 62
7
  6
CONTINUOUS
 10
140.6948305741
 20
53.7979458505
  0
VERTEX
  8
0
 62
7
  6
CONTINUOUS
 10
140.6966885826
 20
53.7737073578
  0
SEQEND
  0
POLYLINE
  8
0
 62
7
  6
CONTINUOUS
 66
1
 70
0
  0
VERTEX
  8
0
 62
7
  6
CONTINUOUS
 10
140.5360766645
 20
66.6343260838
  0
VERTEX
  8
0
 62
7
  6
CONTINUOUS
 10
140.5458671356
 20
66.6340236876
  0
VERTEX
  8
0
 62
7
  6
CONTINUOUS
 10
140.5673787857
 20
66.6312166879
  0
VERTEX
  8
0
 62
7
  6
CONTINUOUS
 10
140.58908612
 20
66.6252575005
  0
VERTEX
  8
0
 62
7
  6
CONTINUOUS
 10
140.6103788224
 20
66.6159940438
  0
VERTEX
  8
0
 62
7
  6
CONTINUOUS
 10
140.6306151342
 20
66.6034022414
  0
VERTEX
  8
0
 62
7
  6
CONTINUOUS
 10
140.6491792704
 20
66.5875621023
  0
VERTEX
  8
0
 62
7
  6
CONTINUOUS
 10
140.665449736
 20
66.5686822178
  0
VERTEX
  8
0
 62
7
  6
CONTINUOUS
 10
140.6788273154
 20
66.5471097829
  0
VERTEX
  8
0
 62
7
  6
CONTINUOUS
 10
140.6887717237
 20
66.5233255471
  0
VERTEX
  8
0
 62
7
  6
CONTINUOUS
 10
140.6948305741
 20
66.4979458505
  0
VERTEX
  8
0
 62
7
  6
CONTINUOUS
 10
140.6966885826
 20
66.4737073578
  0
SEQEND
  0
POLYLINE
  8
0
 62
7
  6
CONTINUOUS
 66
1
 70
0
  0
VERTEX
  8
0
 62
7
  6
CONTINUOUS
 10
160.1398097477
 20
53.7268674309
  0
VERTEX
  8
0
 62
7
  6
CONTINUOUS
 10
160.1345745679
 20
53.7270301268
  0
VERTEX
  8
0
 62
7
  6
CONTINUOUS
 10
160.1193709991
 20
53.7293729123
  0
VERTEX
  8
0
 62
7
  6
CONTINUOUS
 10
160.1039266123
 20
53.7348309178
  0
VERTEX
  8
0
 62
7
  6
CONTINUOUS
 10
160.0890109158
 20
53.7437212707
  0
VERTEX
  8
0
 62
7
  6
CONTINUOUS
 10
160.0755129185
 20
53.7562160334
  0
VERTEX
  8
0
 62
7
  6
CONTINUOUS
 10
160.0644780051
 20
53.7722670984
  0
VERTEX
  8
0
 62
7
  6
CONTINUOUS
 10
160.0570805518
 20
53.7914935599
  0
VERTEX
  8
0
 62
7
  6
CONTINUOUS
 10
160.0545181278
 20
53.8121613689
  0
SEQEND
  0
POLYLINE
  8
0
 62
7
  6
CONTINUOUS
 66
1
 70
0
  0
VERTEX
  8
0
 62
7
  6
CONTINUOUS
 10
160.1398097477
 20
66.4268674309
  0
VERTEX
  8
0
 62
7
  6
CONTINUOUS
 10
160.1345745679
 20
66.4270301268
  0
VERTEX
  8
0
 62
7
  6
CONTINUOUS
 10
160.1193709991
 20
66.4293729123
  0
VERTEX
  8
0
 62
7
  6
CONTINUOUS
 10
160.1039266123
 20
66.4348309178
  0
VERTEX
  8
0
 62
7
  6
CONTINUOUS
 10
160.0890109158
 20
66.4437212707
  0
VERTEX
  8
0
 62
7
  6
CONTINUOUS
 10
160.0755129185
 20
66.4562160334
  0
VERTEX
  8
0
 62
7
  6
CONTINUOUS
 10
160.0644780051
 20
66.4722670984
  0
VERTEX
  8
0
 62
7
  6
CONTINUOUS
 10
160.0570805518
 20
66.4914935599
  0
VERTEX
  8
0
 62
7
  6
CONTINUOUS
 10
160.0545181278
 20
66.5121613689
  0
SEQEND
  0
POLYLINE
  8
0
 62
7
  6
CONTINUOUS
 66
1
 70
0
  0
VERTEX
  8
0
 62
7
  6
CONTINUOUS
 10
164.6718620203
 20
53.7261456255
  0
VERTEX
  8
0
 62
7
  6
CONTINUOUS
 10
164.6677866354
 20
53.726449816
  0
VERTEX
  8
0
 62
7
  6
CONTINUOUS
 10
164.6548440251
 20
53.7268663355
  0
SEQEND
  0
POLYLINE
  8
0
 62
7
  6
CONTINUOUS
 66
1
 70
0
  0
VERTEX
  8
0
 62
7
  6
CONTINUOUS
 10
136.0793442242
 20
66.6350477258
  0
VERTEX
  8
0
 62
7
  6
CONTINUOUS
 10
136.083420968
 20
66.6347434335
  0
VERTEX
  8
0
 62
7
  6
CONTINUOUS
 10
136.096362987
 20
66.6343269527
  0
SEQEND
  0
POLYLINE
  8
0
 62
7
  6
CONTINUOUS
 66
1
 70
0
  0
VERTEX
  8
0
 62
7
  6
CONTINUOUS
 10
164.6718620203
 20
66.4261456255
  0
VERTEX
  8
0
 62
7
  6
CONTINUOUS
 10
164.6677866354
 20
66.426449816
  0
VERTEX
  8
0
 62
7
  6
CONTINUOUS
 10
164.6548440251
 20
66.4268663355
  0
SEQEND
  0
POLYLINE
  8
0
 62
7
  6
CONTINUOUS
 66
1
 70
0
  0
VERTEX
  8
0
 62
7
  6
CONTINUOUS
 10
164.671882559
 20
72.9851473938
  0
VERTEX
  8
0
 62
7
  6
CONTINUOUS
 10
165.0834360821
 20
73.025214114
  0
VERTEX
  8
0
 62
7
  6
CONTINUOUS
 10
165.5512990224
 20
73.084147212
  0
VERTEX
  8
0
 62
7
  6
CONTINUOUS
 10
165.9976468395
 20
73.1555968218
  0
VERTEX
  8
0
 62
7
  6
CONTINUOUS
 10
166.4191680537
 20
73.2394565184
  0
VERTEX
  8
0
 62
7
  6
CONTINUOUS
 10
166.8124040551
 20
73.3357145894
  0
VERTEX
  8
0
 62
7
  6
CONTINUOUS
 10
167.1737946254
 20
73.444532075
  0
VERTEX
  8
0
 62
7
  6
CONTINUOUS
 10
167.498247833
 20
73.5657915437
  0
VERTEX
  8
0
 62
7
  6
CONTINUOUS
 10
167.7777078496
 20
73.6977823336
  0
VERTEX
  8
0
 62
7
  6
CONTINUOUS
 10
168.0075356607
 20
73.8389534514
  0
VERTEX
  8
0
 62
7
  6
CONTINUOUS
 10
168.1868822639
 20
73.9889054181
  0
VERTEX
  8
0
 62
7
  6
CONTINUOUS
 10
168.3161826414
 20
74.1477164683
  0
VERTEX
  8
0
 62
7
  6
CONTINUOUS
 10
168.3836648931
 20
74.280290704
  0
SEQEND
  0
POLYLINE
  8
0
 62
7
  6
CONTINUOUS
 66
1
 70
0
  0
VERTEX
  8
0
 62
7
  6
CONTINUOUS
 10
164.671882559
 20
85.6851473938
  0
VERTEX
  8
0
 62
7
  6
CONTINUOUS
 10
165.0834360821
 20
85.725214114
  0
VERTEX
  8
0
 62
7
  6
CONTINUOUS
 10
165.5512990224
 20
85.784147212
  0
VERTEX
  8
0
 62
7
  6
CONTINUOUS
 10
165.9976468395
 20
85.8555968218
  0
VERTEX
  8
0
 62
7
  6
CONTINUOUS
 10
166.4191680537
 20
85.9394565184
  0
VERTEX
  8
0
 62
7
  6
CONTINUOUS
 10
166.8124040551
 20
86.0357145894
  0
VERTEX
  8
0
 62
7
  6
CONTINUOUS
 10
167.1737946254
 20
86.144532075
  0
VERTEX
  8
0
 62
7
  6
CONTINUOUS
 10
167.498247833
 20
86.2657915437
  0
VERTEX
  8
0
 62
7
  6
CONTINUOUS
 10
167.7777078496
 20
86.3977823336
  0
VERTEX
  8
0
 62
7
  6
CONTINUOUS
 10
168.0075356607
 20
86.5389534514
  0
VERTEX
  8
0
 62
7
  6
CONTINUOUS
 10
168.1868822639
 20
86.6889054181
  0
VERTEX
  8
0
 62
7
  6
CONTINUOUS
 10
168.3161826414
 20
86.8477164683
  0
VERTEX
  8
0
 62
7
  6
CONTINUOUS
 10
168.3836648931
 20
86.980290704
  0
SEQEND
  0
POLYLINE
  8
0
 62
7
  6
CONTINUOUS
 66
1
 70
0
  0
VERTEX
  8
0
 62
7
  6
CONTINUOUS
 10
136.0793250394
 20
72.7760458667
  0
VERTEX
  8
0
 62
7
  6
CONTINUOUS
 10
135.6706390667
 20
72.7362948634
  0
VERTEX
  8
0
 62
7
  6
CONTINUOUS
 10
135.2043806843
 20
72.6776826017
  0
VERTEX
  8
0
 62
7
  6
CONTINUOUS
 10
134.7615281931
 20
72.6070178028
  0
VERTEX
  8
0
 62
7
  6
CONTINUOUS
 10
134.3428870276
 20
72.5241245789
  0
VERTEX
  8
0
 62
7
  6
CONTINUOUS
 10
133.9500075666
 20
72.4285079962
  0
VERTEX
  8
0
 62
7
  6
CONTINUOUS
 10
133.585334927
 20
72.3193061065
  0
VERTEX
  8
0
 62
7
  6
CONTINUOUS
 10
133.2549990505
 20
72.1962552462
  0
VERTEX
  8
0
 62
7
  6
CONTINUOUS
 10
132.9714938222
 20
72.0623343492
  0
VERTEX
  8
0
 62
7
  6
CONTINUOUS
 10
132.7417230227
 20
71.9208511864
  0
VERTEX
  8
0
 62
7
  6
CONTINUOUS
 10
132.5642787064
 20
71.7722414209
  0
VERTEX
  8
0
 62
7
  6
CONTINUOUS
 10
132.4362294065
 20
71.6153533361
  0
VERTEX
  8
0
 62
7
  6
CONTINUOUS
 10
132.3675325091
 20
71.4808699178
  0
SEQEND
  0
POLYLINE
  8
0
 62
7
  6
CONTINUOUS
 66
1
 70
0
  0
VERTEX
  8
0
 62
7
  6
CONTINUOUS
 10
136.0793250394
 20
85.4760458667
  0
VERTEX
  8
0
 62
7
  6
CONTINUOUS
 10
135.6706390667
 20
85.4362948634
  0
VERTEX
  8
0
 62
7
  6
CONTINUOUS
 10
135.2043806843
 20
85.3776826017
  0
VERTEX
  8
0
 62
7
  6
CONTINUOUS
 10
134.7615281931
 20
85.3070178028
  0
VERTEX
  8
0
 62
7
  6
CONTINUOUS
 10
134.3428870276
 20
85.2241245789
  0
VERTEX
  8
0
 62
7
  6
CONTINUOUS
 10
133.9500075666
 20
85.1285079962
  0
VERTEX
  8
0
 62
7
  6
CONTINUOUS
 10
133.585334927
 20
85.0193061065
  0
VERTEX
  8
0
 62
7
  6
CONTINUOUS
 10
133.2549990505
 20
84.8962552462
  0
VERTEX
  8
0
 62
7
  6
CONTINUOUS
 10
132.9714938222
 20
84.7623343492
  0
VERTEX
  8
0
 62
7
  6
CONTINUOUS
 10
132.7417230227
 20
84.6208511864
  0
VERTEX
  8
0
 62
7
  6
CONTINUOUS
 10
132.5642787064
 20
84.4722414209
  0
VERTEX
  8
0
 62
7
  6
CONTINUOUS
 10
132.4362294065
 20
84.3153533361
  0
VERTEX
  8
0
 62
7
  6
CONTINUOUS
 10
132.3675325091
 20
84.1808699178
  0
SEQEND
  0
POLYLINE
  8
0
 62
7
  6
CONTINUOUS
 66
1
 70
0
  0
VERTEX
  8
0
 62
7
  6
CONTINUOUS
 10
164.6548440196
 20
72.9844269
  0
VERTEX
  8
0
 62
7
  6
CONTINUOUS
 10
164.6677866289
 20
72.9848434193
  0
VERTEX
  8
0
 62
7
  6
CONTINUOUS
 10
164.6718620087
 20
72.9851476093
  0
SEQEND
  0
POLYLINE
  8
0
 62
7
  6
CONTINUOUS
 66
1
 70
0
  0
VERTEX
  8
0
 62
7
  6
CONTINUOUS
 10
136.0963629934
 20
72.7767662791
  0
VERTEX
  8
0
 62
7
  6
CONTINUOUS
 10
136.0834209665
 20
72.7763497978
  0
VERTEX
  8
0
 62
7
  6
CONTINUOUS
 10
136.079344225
 20
72.7760455056
  0
SEQEND
  0
POLYLINE
  8
0
 62
7
  6
CONTINUOUS
 66
1
 70
0
  0
VERTEX
  8
0
 62
7
  6
CONTINUOUS
 10
164.6548440196
 20
85.6844269
  0
VERTEX
  8
0
 62
7
  6
CONTINUOUS
 10
164.6677866289
 20
85.6848434193
  0
VERTEX
  8
0
 62
7
  6
CONTINUOUS
 10
164.6718620087
 20
85.6851476093
  0
SEQEND
  0
POLYLINE
  8
0
 62
7
  6
CONTINUOUS
 66
1
 70
0
  0
VERTEX
  8
0
 62
7
  6
CONTINUOUS
 10
136.0963629934
 20
85.4767662791
  0
VERTEX
  8
0
 62
7
  6
CONTINUOUS
 10
136.0834209665
 20
85.4763497978
  0
VERTEX
  8
0
 62
7
  6
CONTINUOUS
 10
136.079344225
 20
85.4760455056
  0
SEQEND
  0
LINE
  8
0
 62
7
  6
CONTINUOUS
 10
140.5365623258
 20
72.7767677237
 11
136.0963636118
 21
72.7767677237
  0
LINE
  8
0
 62
7
  6
CONTINUOUS
 10
160.1395188262
 20
72.9844255094
 11
164.6548439976
 21
72.9844255094
  0
LINE
  8
0
 62
7
  6
CONTINUOUS
 10
164.6548440034
 20
79.1268677237
 11
160.1395204517
 21
79.1268677237
  0
LINE
  8
0
 62
7
  6
CONTINUOUS
 10
136.0963636032
 20
79.3343255094
 11
140.5365618918
 21
79.3343255094
  0
LINE
  8
0
 62
7
  6
CONTINUOUS
 10
140.5365623258
 20
85.4767677237
 11
136.0963636118
 21
85.4767677237
  0
LINE
  8
0
 62
7
  6
CONTINUOUS
 10
160.1395188262
 20
85.6844255094
 11
164.6548439976
 21
85.6844255094
  0
POLYLINE
  8
0
 62
7
  6
CONTINUOUS
 66
1
 70
0
  0
VERTEX
  8
0
 62
7
  6
CONTINUOUS
 10
140.5360766645
 20
79.3343260838
  0
VERTEX
  8
0
 62
7
  6
CONTINUOUS
 10
140.5458671356
 20
79.3340236876
  0
VERTEX
  8
0
 62
7
  6
CONTINUOUS
 10
140.5673787857
 20
79.3312166879
  0
VERTEX
  8
0
 62
7
  6
CONTINUOUS
 10
140.58908612
 20
79.3252575005
  0
VERTEX
  8
0
 62
7
  6
CONTINUOUS
 10
140.6103788224
 20
79.3159940438
  0
VERTEX
  8
0
 62
7
  6
CONTINUOUS
 10
140.6306151342
 20
79.3034022414
  0
VERTEX
  8
0
 62
7
  6
CONTINUOUS
 10
140.6491792704
 20
79.2875621023
  0
VERTEX
  8
0
 62
7
  6
CONTINUOUS
 10
140.665449736
 20
79.2686822178
  0
VERTEX
  8
0
 62
7
  6
CONTINUOUS
 10
140.6788273154
 20
79.2471097829
  0
VERTEX
  8
0
 62
7
  6
CONTINUOUS
 10
140.6887717237
 20
79.2233255471
  0
VERTEX
  8
0
 62
7
  6
CONTINUOUS
 10
140.6948305741
 20
79.1979458505
  0
VERTEX
  8
0
 62
7
  6
CONTINUOUS
 10
140.6966885826
 20
79.1737073578
  0
SEQEND
  0
POLYLINE
  8
0
 62
7
  6
CONTINUOUS
 66
1
 70
0
  0
VERTEX
  8
0
 62
7
  6
CONTINUOUS
 10
160.1398097477
 20
79.1268674309
  0
VERTEX
  8
0
 62
7
  6
CONTINUOUS
 10
160.1345745679
 20
79.1270301268
  0
VERTEX
  8
0
 62
7
  6
CONTINUOUS
 10
160.1193709991
 20
79.1293729123
  0
VERTEX
  8
0
 62
7
  6
CONTINUOUS
 10
160.1039266123
 20
79.1348309178
  0
VERTEX
  8
0
 62
7
  6
CONTINUOUS
 10
160.0890109158
 20
79.1437212707
  0
VERTEX
  8
0
 62
7
  6
CONTINUOUS
 10
160.0755129185
 20
79.1562160334
  0
VERTEX
  8
0
 62
7
  6
CONTINUOUS
 10
160.0644780051
 20
79.1722670984
  0
VERTEX
  8
0
 62
7
  6
CONTINUOUS
 10
160.0570805518
 20
79.1914935599
  0
VERTEX
  8
0
 62
7
  6
CONTINUOUS
 10
160.0545181278
 20
79.2121613689
  0
SEQEND
  0
POLYLINE
  8
0
 62
7
  6
CONTINUOUS
 66
1
 70
0
  0
VERTEX
  8
0
 62
7
  6
CONTINUOUS
 10
136.0793442242
 20
79.3350477258
  0
VERTEX
  8
0
 62
7
  6
CONTINUOUS
 10
136.083420968
 20
79.3347434335
  0
VERTEX
  8
0
 62
7
  6
CONTINUOUS
 10
136.096362987
 20
79.3343269527
  0
SEQEND
  0
POLYLINE
  8
0
 62
7
  6
CONTINUOUS
 66
1
 70
0
  0
VERTEX
  8
0
 62
7
  6
CONTINUOUS
 10
164.6718620203
 20
79.1261456255
  0
VERTEX
  8
0
 62
7
  6
CONTINUOUS
 10
164.6677866354
 20
79.126449816
  0
VERTEX
  8
0
 62
7
  6
CONTINUOUS
 10
164.6548440251
 20
79.1268663355
  0
SEQEND
  0
POLYLINE
  8
0
 62
7
  6
CONTINUOUS
 66
1
 70
0
  0
VERTEX
  8
0
 62
7
  6
CONTINUOUS
 10
132.3675343397
 20
55.230211785
  0
VERTEX
  8
0
 62
7
  6
CONTINUOUS
 10
132.4348905564
 20
55.0978259951
  0
VERTEX
  8
0
 62
7
  6
CONTINUOUS
 10
132.5627688335
 20
54.9403661961
  0
VERTEX
  8
0
 62
7
  6
CONTINUOUS
 10
132.7402364039
 20
54.7913041519
  0
VERTEX
  8
0
 62
7
  6
CONTINUOUS
 10
132.9699558433
 20
54.6495859156
  0
VERTEX
  8
0
 62
7
  6
CONTINUOUS
 10
133.253076864
 20
54.5156423785
  0
VERTEX
  8
0
 62
7
  6
CONTINUOUS
 10
133.5827566349
 20
54.392646485
  0
VERTEX
  8
0
 62
7
  6
CONTINUOUS
 10
133.9467428228
 20
54.2834660279
  0
VERTEX
  8
0
 62
7
  6
CONTINUOUS
 10
134.3390112777
 20
54.1878202967
  0
VERTEX
  8
0
 62
7
  6
CONTINUOUS
 10
134.7570994777
 20
54.1048647857
  0
VERTEX
  8
0
 62
7
  6
CONTINUOUS
 10
135.1994175204
 20
54.034117154
  0
VERTEX
  8
0
 62
7
  6
CONTINUOUS
 10
135.6651043625
 20
53.9754082069
  0
VERTEX
  8
0
 62
7
  6
CONTINUOUS
 10
136.0793249705
 20
53.9350473719
  0
SEQEND
  0
POLYLINE
  8
0
 62
7
  6
CONTINUOUS
 66
1
 70
0
  0
VERTEX
  8
0
 62
7
  6
CONTINUOUS
 10
132.3675785526
 20
211.2030793129
  0
VERTEX
  8
0
 62
7
  6
CONTINUOUS
 10
132.3600202107
 20
211.1828353273
  0
VERTEX
  8
0
 62
7
  6
CONTINUOUS
 10
132.3464163339
 20
211.1424796796
  0
VERTEX
  8
0
 62
7
  6
CONTINUOUS
 10
132.3355952711
 20
211.1024943729
  0
SEQEND
  0
POLYLINE
  8
0
 62
7
  6
CONTINUOUS
 66
1
 70
0
  0
VERTEX
  8
0
 62
7
  6
CONTINUOUS
 10
132.3675785526
 20
198.5030793129
  0
VERTEX
  8
0
 62
7
  6
CONTINUOUS
 10
132.3600202107
 20
198.4828353273
  0
VERTEX
  8
0
 62
7
  6
CONTINUOUS
 10
132.3464163339
 20
198.4424796796
  0
VERTEX
  8
0
 62
7
  6
CONTINUOUS
 10
132.3355952711
 20
198.4024943729
  0
SEQEND
  0
POLYLINE
  8
0
 62
7
  6
CONTINUOUS
 66
1
 70
0
  0
VERTEX
  8
0
 62
7
  6
CONTINUOUS
 10
132.3675785526
 20
185.8030793129
  0
VERTEX
  8
0
 62
7
  6
CONTINUOUS
 10
132.3600202107
 20
185.7828353273
  0
VERTEX
  8
0
 62
7
  6
CONTINUOUS
 10
132.3464163339
 20
185.7424796796
  0
VERTEX
  8
0
 62
7
  6
CONTINUOUS
 10
132.3355952711
 20
185.7024943729
  0
SEQEND
  0
LINE
  8
0
 62
7
  6
CONTINUOUS
 10
132.3675727006
 20
211.203081561
 11
132.3675424109
 21
211.2030025291
  0
LINE
  8
0
 62
7
  6
CONTINUOUS
 10
132.3675727006
 20
198.503081561
 11
132.3675424109
 21
198.5030025291
  0
LINE
  8
0
 62
7
  6
CONTINUOUS
 10
132.3675727006
 20
185.803081561
 11
132.3675424109
 21
185.8030025291
  0
POLYLINE
  8
0
 62
7
  6
CONTINUOUS
 66
1
 70
0
  0
VERTEX
  8
0
 62
7
  6
CONTINUOUS
 10
164.671882559
 20
98.3851473938
  0
VERTEX
  8
0
 62
7
  6
CONTINUOUS
 10
165.0834360821
 20
98.425214114
  0
VERTEX
  8
0
 62
7
  6
CONTINUOUS
 10
165.5512990224
 20
98.484147212
  0
VERTEX
  8
0
 62
7
  6
CONTINUOUS
 10
165.9976468395
 20
98.5555968218
  0
VERTEX
  8
0
 62
7
  6
CONTINUOUS
 10
166.4191680537
 20
98.6394565184
  0
VERTEX
  8
0
 62
7
  6
CONTINUOUS
 10
166.8124040551
 20
98.7357145894
  0
VERTEX
  8
0
 62
7
  6
CONTINUOUS
 10
167.1737946254
 20
98.844532075
  0
VERTEX
  8
0
 62
7
  6
CONTINUOUS
 10
167.498247833
 20
98.9657915437
  0
VERTEX
  8
0
 62
7
  6
CONTINUOUS
 10
167.7777078496
 20
99.0977823336
  0
VERTEX
  8
0
 62
7
  6
CONTINUOUS
 10
168.0075356607
 20
99.2389534514
  0
VERTEX
  8
0
 62
7
  6
CONTINUOUS
 10
168.1868822639
 20
99.3889054181
  0
VERTEX
  8
0
 62
7
  6
CONTINUOUS
 10
168.3161826414
 20
99.5477164683
  0
VERTEX
  8
0
 62
7
  6
CONTINUOUS
 10
168.3836648931
 20
99.680290704
  0
SEQEND
  0
POLYLINE
  8
0
 62
7
  6
CONTINUOUS
 66
1
 70
0
  0
VERTEX
  8
0
 62
7
  6
CONTINUOUS
 10
136.0793250394
 20
98.1760458667
  0
VERTEX
  8
0
 62
7
  6
CONTINUOUS
 10
135.6706390667
 20
98.1362948634
  0
VERTEX
  8
0
 62
7
  6
CONTINUOUS
 10
135.2043806843
 20
98.0776826017
  0
VERTEX
  8
0
 62
7
  6
CONTINUOUS
 10
134.7615281931
 20
98.0070178028
  0
VERTEX
  8
0
 62
7
  6
CONTINUOUS
 10
134.3428870276
 20
97.9241245789
  0
VERTEX
  8
0
 62
7
  6
CONTINUOUS
 10
133.9500075666
 20
97.8285079962
  0
VERTEX
  8
0
 62
7
  6
CONTINUOUS
 10
133.585334927
 20
97.7193061065
  0
VERTEX
  8
0
 62
7
  6
CONTINUOUS
 10
133.2549990505
 20
97.5962552462
  0
VERTEX
  8
0
 62
7
  6
CONTINUOUS
 10
132.9714938222
 20
97.4623343492
  0
VERTEX
  8
0
 62
7
  6
CONTINUOUS
 10
132.7417230227
 20
97.3208511864
  0
VERTEX
  8
0
 62
7
  6
CONTINUOUS
 10
132.5642787064
 20
97.1722414209
  0
VERTEX
  8
0
 62
7
  6
CONTINUOUS
 10
132.4362294065
 20
97.0153533361
  0
VERTEX
  8
0
 62
7
  6
CONTINUOUS
 10
132.3675325091
 20
96.8808699178
  0
SEQEND
  0
POLYLINE
  8
0
 62
7
  6
CONTINUOUS
 66
1
 70
0
  0
VERTEX
  8
0
 62
7
  6
CONTINUOUS
 10
164.6548440196
 20
98.3844269
  0
VERTEX
  8
0
 62
7
  6
CONTINUOUS
 10
164.6677866289
 20
98.3848434193
  0
VERTEX
  8
0
 62
7
  6
CONTINUOUS
 10
164.6718620087
 20
98.3851476093
  0
SEQEND
  0
POLYLINE
  8
0
 62
7
  6
CONTINUOUS
 66
1
 70
0
  0
VERTEX
  8
0
 62
7
  6
CONTINUOUS
 10
136.0963629934
 20
98.1767662791
  0
VERTEX
  8
0
 62
7
  6
CONTINUOUS
 10
136.0834209665
 20
98.1763497978
  0
VERTEX
  8
0
 62
7
  6
CONTINUOUS
 10
136.079344225
 20
98.1760455056
  0
SEQEND
  0
LINE
  8
0
 62
7
  6
CONTINUOUS
 10
164.6548440034
 20
91.8268677237
 11
160.1395204517
 21
91.8268677237
  0
LINE
  8
0
 62
7
  6
CONTINUOUS
 10
136.0963636032
 20
92.0343255094
 11
140.5365618918
 21
92.0343255094
  0
LINE
  8
0
 62
7
  6
CONTINUOUS
 10
140.5365623258
 20
98.1767677237
 11
136.0963636118
 21
98.1767677237
  0
LINE
  8
0
 62
7
  6
CONTINUOUS
 10
160.1395188262
 20
98.3844255094
 11
164.6548439976
 21
98.3844255094
  0
POLYLINE
  8
0
 62
7
  6
CONTINUOUS
 66
1
 70
0
  0
VERTEX
  8
0
 62
7
  6
CONTINUOUS
 10
140.5360766645
 20
92.0343260838
  0
VERTEX
  8
0
 62
7
  6
CONTINUOUS
 10
140.5458671356
 20
92.0340236876
  0
VERTEX
  8
0
 62
7
  6
CONTINUOUS
 10
140.5673787857
 20
92.0312166879
  0
VERTEX
  8
0
 62
7
  6
CONTINUOUS
 10
140.58908612
 20
92.0252575005
  0
VERTEX
  8
0
 62
7
  6
CONTINUOUS
 10
140.6103788224
 20
92.0159940438
  0
VERTEX
  8
0
 62
7
  6
CONTINUOUS
 10
140.6306151342
 20
92.0034022414
  0
VERTEX
  8
0
 62
7
  6
CONTINUOUS
 10
140.6491792704
 20
91.9875621023
  0
VERTEX
  8
0
 62
7
  6
CONTINUOUS
 10
140.665449736
 20
91.9686822178
  0
VERTEX
  8
0
 62
7
  6
CONTINUOUS
 10
140.6788273154
 20
91.9471097829
  0
VERTEX
  8
0
 62
7
  6
CONTINUOUS
 10
140.6887717237
 20
91.9233255471
  0
VERTEX
  8
0
 62
7
  6
CONTINUOUS
 10
140.6948305741
 20
91.8979458505
  0
VERTEX
  8
0
 62
7
  6
CONTINUOUS
 10
140.6966885826
 20
91.8737073578
  0
SEQEND
  0
POLYLINE
  8
0
 62
7
  6
CONTINUOUS
 66
1
 70
0
  0
VERTEX
  8
0
 62
7
  6
CONTINUOUS
 10
160.1398097477
 20
91.8268674309
  0
VERTEX
  8
0
 62
7
  6
CONTINUOUS
 10
160.1345745679
 20
91.8270301268
  0
VERTEX
  8
0
 62
7
  6
CONTINUOUS
 10
160.1193709991
 20
91.8293729123
  0
VERTEX
  8
0
 62
7
  6
CONTINUOUS
 10
160.1039266123
 20
91.8348309178
  0
VERTEX
  8
0
 62
7
  6
CONTINUOUS
 10
160.0890109158
 20
91.8437212707
  0
VERTEX
  8
0
 62
7
  6
CONTINUOUS
 10
160.0755129185
 20
91.8562160334
  0
VERTEX
  8
0
 62
7
  6
CONTINUOUS
 10
160.0644780051
 20
91.8722670984
  0
VERTEX
  8
0
 62
7
  6
CONTINUOUS
 10
160.0570805518
 20
91.8914935599
  0
VERTEX
  8
0
 62
7
  6
CONTINUOUS
 10
160.0545181278
 20
91.9121613689
  0
SEQEND
  0
POLYLINE
  8
0
 62
7
  6
CONTINUOUS
 66
1
 70
0
  0
VERTEX
  8
0
 62
7
  6
CONTINUOUS
 10
136.0793442242
 20
92.0350477258
  0
VERTEX
  8
0
 62
7
  6
CONTINUOUS
 10
136.083420968
 20
92.0347434335
  0
VERTEX
  8
0
 62
7
  6
CONTINUOUS
 10
136.096362987
 20
92.0343269527
  0
SEQEND
  0
POLYLINE
  8
0
 62
7
  6
CONTINUOUS
 66
1
 70
0
  0
VERTEX
  8
0
 62
7
  6
CONTINUOUS
 10
164.6718620203
 20
91.8261456255
  0
VERTEX
  8
0
 62
7
  6
CONTINUOUS
 10
164.6677866354
 20
91.826449816
  0
VERTEX
  8
0
 62
7
  6
CONTINUOUS
 10
164.6548440251
 20
91.8268663355
  0
SEQEND
  0
POLYLINE
  8
0
 62
7
  6
CONTINUOUS
 66
1
 70
0
  0
VERTEX
  8
0
 62
7
  6
CONTINUOUS
 10
136.0793442242
 20
104.7350477258
  0
VERTEX
  8
0
 62
7
  6
CONTINUOUS
 10
136.083420968
 20
104.7347434335
  0
VERTEX
  8
0
 62
7
  6
CONTINUOUS
 10
136.096362987
 20
104.7343269527
  0
SEQEND
  0
POLYLINE
  8
0
 62
7
  6
CONTINUOUS
 66
1
 70
0
  0
VERTEX
  8
0
 62
7
  6
CONTINUOUS
 10
132.3675343397
 20
67.930211785
  0
VERTEX
  8
0
 62
7
  6
CONTINUOUS
 10
132.4348905564
 20
67.7978259951
  0
VERTEX
  8
0
 62
7
  6
CONTINUOUS
 10
132.5627688335
 20
67.6403661961
  0
VERTEX
  8
0
 62
7
  6
CONTINUOUS
 10
132.7402364039
 20
67.4913041519
  0
VERTEX
  8
0
 62
7
  6
CONTINUOUS
 10
132.9699558433
 20
67.3495859156
  0
VERTEX
  8
0
 62
7
  6
CONTINUOUS
 10
133.253076864
 20
67.2156423785
  0
VERTEX
  8
0
 62
7
  6
CONTINUOUS
 10
133.5827566349
 20
67.092646485
  0
VERTEX
  8
0
 62
7
  6
CONTINUOUS
 10
133.9467428228
 20
66.9834660279
  0
VERTEX
  8
0
 62
7
  6
CONTINUOUS
 10
134.3390112777
 20
66.8878202967
  0
VERTEX
  8
0
 62
7
  6
CONTINUOUS
 10
134.7570994777
 20
66.8048647857
  0
VERTEX
  8
0
 62
7
  6
CONTINUOUS
 10
135.1994175204
 20
66.734117154
  0
VERTEX
  8
0
 62
7
  6
CONTINUOUS
 10
135.6651043625
 20
66.6754082069
  0
VERTEX
  8
0
 62
7
  6
CONTINUOUS
 10
136.0793249705
 20
66.6350473719
  0
SEQEND
  0
POLYLINE
  8
0
 62
7
  6
CONTINUOUS
 66
1
 70
0
  0
VERTEX
  8
0
 62
7
  6
CONTINUOUS
 10
132.3675343397
 20
80.630211785
  0
VERTEX
  8
0
 62
7
  6
CONTINUOUS
 10
132.4348905564
 20
80.4978259951
  0
VERTEX
  8
0
 62
7
  6
CONTINUOUS
 10
132.5627688335
 20
80.3403661961
  0
VERTEX
  8
0
 62
7
  6
CONTINUOUS
 10
132.7402364039
 20
80.1913041519
  0
VERTEX
  8
0
 62
7
  6
CONTINUOUS
 10
132.9699558433
 20
80.0495859156
  0
VERTEX
  8
0
 62
7
  6
CONTINUOUS
 10
133.253076864
 20
79.9156423785
  0
VERTEX
  8
0
 62
7
  6
CONTINUOUS
 10
133.5827566349
 20
79.792646485
  0
VERTEX
  8
0
 62
7
  6
CONTINUOUS
 10
133.9467428228
 20
79.6834660279
  0
VERTEX
  8
0
 62
7
  6
CONTINUOUS
 10
134.3390112777
 20
79.5878202967
  0
VERTEX
  8
0
 62
7
  6
CONTINUOUS
 10
134.7570994777
 20
79.5048647857
  0
VERTEX
  8
0
 62
7
  6
CONTINUOUS
 10
135.1994175204
 20
79.434117154
  0
VERTEX
  8
0
 62
7
  6
CONTINUOUS
 10
135.6651043625
 20
79.3754082069
  0
VERTEX
  8
0
 62
7
  6
CONTINUOUS
 10
136.0793249705
 20
79.3350473719
  0
SEQEND
  0
POLYLINE
  8
0
 62
7
  6
CONTINUOUS
 66
1
 70
0
  0
VERTEX
  8
0
 62
7
  6
CONTINUOUS
 10
132.3675343397
 20
93.330211785
  0
VERTEX
  8
0
 62
7
  6
CONTINUOUS
 10
132.4348905564
 20
93.1978259951
  0
VERTEX
  8
0
 62
7
  6
CONTINUOUS
 10
132.5627688335
 20
93.0403661961
  0
VERTEX
  8
0
 62
7
  6
CONTINUOUS
 10
132.7402364039
 20
92.8913041519
  0
VERTEX
  8
0
 62
7
  6
CONTINUOUS
 10
132.9699558433
 20
92.7495859156
  0
VERTEX
  8
0
 62
7
  6
CONTINUOUS
 10
133.253076864
 20
92.6156423785
  0
VERTEX
  8
0
 62
7
  6
CONTINUOUS
 10
133.5827566349
 20
92.492646485
  0
VERTEX
  8
0
 62
7
  6
CONTINUOUS
 10
133.9467428228
 20
92.3834660279
  0
VERTEX
  8
0
 62
7
  6
CONTINUOUS
 10
134.3390112777
 20
92.2878202967
  0
VERTEX
  8
0
 62
7
  6
CONTINUOUS
 10
134.7570994777
 20
92.2048647857
  0
VERTEX
  8
0
 62
7
  6
CONTINUOUS
 10
135.1994175204
 20
92.134117154
  0
VERTEX
  8
0
 62
7
  6
CONTINUOUS
 10
135.6651043625
 20
92.0754082069
  0
VERTEX
  8
0
 62
7
  6
CONTINUOUS
 10
136.0793249705
 20
92.0350473719
  0
SEQEND
  0
LINE
  8
0
 62
7
  6
CONTINUOUS
 10
132.3675343397
 20
55.230211785
 11
132.3675716632
 21
55.2301143846
  0
LINE
  8
0
 62
7
  6
CONTINUOUS
 10
132.3675343397
 20
67.930211785
 11
132.3675716632
 21
67.9301143846
  0
LINE
  8
0
 62
7
  6
CONTINUOUS
 10
132.3675343397
 20
80.630211785
 11
132.3675716632
 21
80.6301143846
  0
LINE
  8
0
 62
7
  6
CONTINUOUS
 10
132.3675343397
 20
93.330211785
 11
132.3675716632
 21
93.3301143846
  0
LINE
  8
0
 62
7
  6
CONTINUOUS
 10
132.3601417797
 20
55.2500226192
 11
132.3675775127
 21
55.2301166316
  0
LINE
  8
0
 62
7
  6
CONTINUOUS
 10
132.3601417797
 20
67.9500226192
 11
132.3675775127
 21
67.9301166316
  0
LINE
  8
0
 62
7
  6
CONTINUOUS
 10
132.3601417797
 20
80.6500226192
 11
132.3675775127
 21
80.6301166316
  0
LINE
  8
0
 62
7
  6
CONTINUOUS
 10
132.3601417797
 20
93.3500226192
 11
132.3675775127
 21
93.3301166316
  0
POLYLINE
  8
0
 62
7
  6
CONTINUOUS
 66
1
 70
0
  0
VERTEX
  8
0
 62
7
  6
CONTINUOUS
 10
132.3256036952
 20
55.4133482549
  0
VERTEX
  8
0
 62
7
  6
CONTINUOUS
 10
132.3281089533
 20
55.3729156998
  0
VERTEX
  8
0
 62
7
  6
CONTINUOUS
 10
132.3358348693
 20
55.3296544039
  0
VERTEX
  8
0
 62
7
  6
CONTINUOUS
 10
132.3466175152
 20
55.2900579702
  0
VERTEX
  8
0
 62
7
  6
CONTINUOUS
 10
132.3601417797
 20
55.2500226192
  0
SEQEND
  0
POLYLINE
  8
0
 62
7
  6
CONTINUOUS
 66
1
 70
0
  0
VERTEX
  8
0
 62
7
  6
CONTINUOUS
 10
132.3256036952
 20
68.1133482549
  0
VERTEX
  8
0
 62
7
  6
CONTINUOUS
 10
132.3281089533
 20
68.0729156998
  0
VERTEX
  8
0
 62
7
  6
CONTINUOUS
 10
132.3358348693
 20
68.0296544039
  0
VERTEX
  8
0
 62
7
  6
CONTINUOUS
 10
132.3466175152
 20
67.9900579702
  0
VERTEX
  8
0
 62
7
  6
CONTINUOUS
 10
132.3601417797
 20
67.9500226192
  0
SEQEND
  0
POLYLINE
  8
0
 62
7
  6
CONTINUOUS
 66
1
 70
0
  0
VERTEX
  8
0
 62
7
  6
CONTINUOUS
 10
132.3256036952
 20
80.8133482549
  0
VERTEX
  8
0
 62
7
  6
CONTINUOUS
 10
132.3281089533
 20
80.7729156998
  0
VERTEX
  8
0
 62
7
  6
CONTINUOUS
 10
132.3358348693
 20
80.7296544039
  0
VERTEX
  8
0
 62
7
  6
CONTINUOUS
 10
132.3466175152
 20
80.6900579702
  0
VERTEX
  8
0
 62
7
  6
CONTINUOUS
 10
132.3601417797
 20
80.6500226192
  0
SEQEND
  0
POLYLINE
  8
0
 62
7
  6
CONTINUOUS
 66
1
 70
0
  0
VERTEX
  8
0
 62
7
  6
CONTINUOUS
 10
132.3256036952
 20
93.5133482549
  0
VERTEX
  8
0
 62
7
  6
CONTINUOUS
 10
132.3281089533
 20
93.4729156998
  0
VERTEX
  8
0
 62
7
  6
CONTINUOUS
 10
132.3358348693
 20
93.4296544039
  0
VERTEX
  8
0
 62
7
  6
CONTINUOUS
 10
132.3466175152
 20
93.3900579702
  0
VERTEX
  8
0
 62
7
  6
CONTINUOUS
 10
132.3601417797
 20
93.3500226192
  0
SEQEND
  0
POLYLINE
  8
0
 62
7
  6
CONTINUOUS
 66
1
 70
0
  0
VERTEX
  8
0
 62
7
  6
CONTINUOUS
 10
132.3256036952
 20
106.2133482549
  0
VERTEX
  8
0
 62
7
  6
CONTINUOUS
 10
132.3281089533
 20
106.1729156998
  0
VERTEX
  8
0
 62
7
  6
CONTINUOUS
 10
132.3358348693
 20
106.1296544039
  0
VERTEX
  8
0
 62
7
  6
CONTINUOUS
 10
132.3466175152
 20
106.0900579702
  0
VERTEX
  8
0
 62
7
  6
CONTINUOUS
 10
132.3601417797
 20
106.0500226192
  0
SEQEND
  0
POLYLINE
  8
0
 62
7
  6
CONTINUOUS
 66
1
 70
0
  0
VERTEX
  8
0
 62
7
  6
CONTINUOUS
 10
132.3256036952
 20
118.9133482549
  0
VERTEX
  8
0
 62
7
  6
CONTINUOUS
 10
132.3281089533
 20
118.8729156998
  0
VERTEX
  8
0
 62
7
  6
CONTINUOUS
 10
132.3358348693
 20
118.8296544039
  0
VERTEX
  8
0
 62
7
  6
CONTINUOUS
 10
132.3466175152
 20
118.7900579702
  0
VERTEX
  8
0
 62
7
  6
CONTINUOUS
 10
132.3601417797
 20
118.7500226192
  0
SEQEND
  0
POLYLINE
  8
0
 62
7
  6
CONTINUOUS
 66
1
 70
0
  0
VERTEX
  8
0
 62
7
  6
CONTINUOUS
 10
132.3256036952
 20
131.6133482549
  0
VERTEX
  8
0
 62
7
  6
CONTINUOUS
 10
132.3281089533
 20
131.5729156998
  0
VERTEX
  8
0
 62
7
  6
CONTINUOUS
 10
132.3358348693
 20
131.5296544039
  0
VERTEX
  8
0
 62
7
  6
CONTINUOUS
 10
132.3466175152
 20
131.4900579702
  0
VERTEX
  8
0
 62
7
  6
CONTINUOUS
 10
132.3601417797
 20
131.4500226192
  0
SEQEND
  0
POLYLINE
  8
0
 62
7
  6
CONTINUOUS
 66
1
 70
0
  0
VERTEX
  8
0
 62
7
  6
CONTINUOUS
 10
132.3256037025
 20
144.3354407863
  0
VERTEX
  8
0
 62
7
  6
CONTINUOUS
 10
132.3279696252
 20
144.2961819543
  0
VERTEX
  8
0
 62
7
  6
CONTINUOUS
 10
132.3357825091
 20
144.2519838532
  0
VERTEX
  8
0
 62
7
  6
CONTINUOUS
 10
132.3467736293
 20
144.2116550358
  0
VERTEX
  8
0
 62
7
  6
CONTINUOUS
 10
132.3605984331
 20
144.1708681228
  0
SEQEND
  0
POLYLINE
  8
0
 62
7
  6
CONTINUOUS
 66
1
 70
0
  0
VERTEX
  8
0
 62
7
  6
CONTINUOUS
 10
132.3256037025
 20
157.0354407863
  0
VERTEX
  8
0
 62
7
  6
CONTINUOUS
 10
132.3279696252
 20
156.9961819543
  0
VERTEX
  8
0
 62
7
  6
CONTINUOUS
 10
132.3357825091
 20
156.9519838532
  0
VERTEX
  8
0
 62
7
  6
CONTINUOUS
 10
132.3467736293
 20
156.9116550358
  0
VERTEX
  8
0
 62
7
  6
CONTINUOUS
 10
132.3605984331
 20
156.8708681228
  0
SEQEND
  0
POLYLINE
  8
0
 62
7
  6
CONTINUOUS
 66
1
 70
0
  0
VERTEX
  8
0
 62
7
  6
CONTINUOUS
 10
132.3256037025
 20
169.7354407863
  0
VERTEX
  8
0
 62
7
  6
CONTINUOUS
 10
132.3279696252
 20
169.6961819543
  0
VERTEX
  8
0
 62
7
  6
CONTINUOUS
 10
132.3357825091
 20
169.6519838532
  0
VERTEX
  8
0
 62
7
  6
CONTINUOUS
 10
132.3467736293
 20
169.6116550358
  0
VERTEX
  8
0
 62
7
  6
CONTINUOUS
 10
132.3605984331
 20
169.5708681228
  0
SEQEND
  0
POLYLINE
  8
0
 62
7
  6
CONTINUOUS
 66
1
 70
0
  0
VERTEX
  8
0
 62
7
  6
CONTINUOUS
 10
132.3256037025
 20
182.4354407863
  0
VERTEX
  8
0
 62
7
  6
CONTINUOUS
 10
132.3279696252
 20
182.3961819543
  0
VERTEX
  8
0
 62
7
  6
CONTINUOUS
 10
132.3357825091
 20
182.3519838532
  0
VERTEX
  8
0
 62
7
  6
CONTINUOUS
 10
132.3467736293
 20
182.3116550358
  0
VERTEX
  8
0
 62
7
  6
CONTINUOUS
 10
132.3605984331
 20
182.2708681228
  0
SEQEND
  0
POLYLINE
  8
0
 62
7
  6
CONTINUOUS
 66
1
 70
0
  0
VERTEX
  8
0
 62
7
  6
CONTINUOUS
 10
132.325603352
 20
41.4416511405
  0
VERTEX
  8
0
 62
7
  6
CONTINUOUS
 10
132.3258493728
 20
41.4305627381
  0
VERTEX
  8
0
 62
7
  6
CONTINUOUS
 10
132.334162529
 20
41.3767942327
  0
VERTEX
  8
0
 62
7
  6
CONTINUOUS
 10
132.3539111551
 20
41.326096585
  0
VERTEX
  8
0
 62
7
  6
CONTINUOUS
 10
132.3841602054
 20
41.2808714914
  0
VERTEX
  8
0
 62
7
  6
CONTINUOUS
 10
132.4234769506
 20
41.2432613852
  0
VERTEX
  8
0
 62
7
  6
CONTINUOUS
 10
132.4699990103
 20
41.2150477919
  0
VERTEX
  8
0
 62
7
  6
CONTINUOUS
 10
132.5215226437
 20
41.1975669719
  0
VERTEX
  8
0
 62
7
  6
CONTINUOUS
 10
132.5756073233
 20
41.1916466165
  0
SEQEND
  0
LINE
  8
0
 62
7
  6
CONTINUOUS
 10
132.325603652
 20
134.7980267648
 11
132.325603652
 21
131.613066463
  0
LINE
  8
0
 62
7
  6
CONTINUOUS
 10
132.325603652
 20
122.0980267648
 11
132.325603652
 21
118.913066463
  0
LINE
  8
0
 62
7
  6
CONTINUOUS
 10
132.325603652
 20
109.3980267648
 11
132.325603652
 21
106.213066463
  0
LINE
  8
0
 62
7
  6
CONTINUOUS
 10
132.325603652
 20
96.6980267648
 11
132.325603652
 21
93.513066463
  0
LINE
  8
0
 62
7
  6
CONTINUOUS
 10
132.325603652
 20
83.9980267648
 11
132.325603652
 21
80.813066463
  0
LINE
  8
0
 62
7
  6
CONTINUOUS
 10
132.325603652
 20
71.2980267648
 11
132.325603652
 21
68.113066463
  0
LINE
  8
0
 62
7
  6
CONTINUOUS
 10
132.325603652
 20
58.5980267648
 11
132.325603652
 21
55.413066463
  0
LINE
  8
0
 62
7
  6
CONTINUOUS
 10
132.325603652
 20
45.8980267648
 11
132.325603652
 21
41.4417012915
  0
LINE
  8
0
 62
7
  6
CONTINUOUS
 10
132.3256036766
 20
144.3354453817
 11
132.325603652
 21
147.5201254379
  0
LINE
  8
0
 62
7
  6
CONTINUOUS
 10
132.3256036766
 20
157.0354453817
 11
132.325603652
 21
160.2201254379
  0
LINE
  8
0
 62
7
  6
CONTINUOUS
 10
132.3256036766
 20
169.7354453817
 11
132.325603652
 21
172.9201254379
  0
LINE
  8
0
 62
7
  6
CONTINUOUS
 10
132.3256036766
 20
182.4354453817
 11
132.325603652
 21
185.6201254379
  0
LINE
  8
0
 62
7
  6
CONTINUOUS
 10
132.3256036766
 20
195.1354453817
 11
132.325603652
 21
198.3201254379
  0
LINE
  8
0
 62
7
  6
CONTINUOUS
 10
132.3256036766
 20
207.8354453817
 11
132.325603652
 21
211.0201254379
  0
LINE
  8
0
 62
7
  6
CONTINUOUS
 10
132.3256036766
 20
220.5354453817
 11
132.325603652
 21
224.9915935264
  0
POLYLINE
  8
0
 62
7
  6
CONTINUOUS
 66
1
 70
0
  0
VERTEX
  8
0
 62
7
  6
CONTINUOUS
 10
140.6966891704
 20
212.5841598476
  0
VERTEX
  8
0
 62
7
  6
CONTINUOUS
 10
140.6940714672
 20
212.5632735059
  0
VERTEX
  8
0
 62
7
  6
CONTINUOUS
 10
140.6865583326
 20
212.5439456416
  0
VERTEX
  8
0
 62
7
  6
CONTINUOUS
 10
140.6753892381
 20
212.5278664658
  0
VERTEX
  8
0
 62
7
  6
CONTINUOUS
 10
140.6617291065
 20
212.5153756449
  0
VERTEX
  8
0
 62
7
  6
CONTINUOUS
 10
140.6465815382
 20
212.5065086294
  0
VERTEX
  8
0
 62
7
  6
CONTINUOUS
 10
140.6308024474
 20
212.5011225904
  0
VERTEX
  8
0
 62
7
  6
CONTINUOUS
 10
140.6152278459
 20
212.4989544671
  0
VERTEX
  8
0
 62
7
  6
CONTINUOUS
 10
140.6113994561
 20
212.4988674314
  0
SEQEND
  0
POLYLINE
  8
0
 62
7
  6
CONTINUOUS
 66
1
 70
0
  0
VERTEX
  8
0
 62
7
  6
CONTINUOUS
 10
140.6966891704
 20
199.8841598476
  0
VERTEX
  8
0
 62
7
  6
CONTINUOUS
 10
140.6940714672
 20
199.8632735059
  0
VERTEX
  8
0
 62
7
  6
CONTINUOUS
 10
140.6865583326
 20
199.8439456416
  0
VERTEX
  8
0
 62
7
  6
CONTINUOUS
 10
140.6753892381
 20
199.8278664658
  0
VERTEX
  8
0
 62
7
  6
CONTINUOUS
 10
140.6617291065
 20
199.8153756449
  0
VERTEX
  8
0
 62
7
  6
CONTINUOUS
 10
140.6465815382
 20
199.8065086294
  0
VERTEX
  8
0
 62
7
  6
CONTINUOUS
 10
140.6308024474
 20
199.8011225904
  0
VERTEX
  8
0
 62
7
  6
CONTINUOUS
 10
140.6152278459
 20
199.7989544671
  0
VERTEX
  8
0
 62
7
  6
CONTINUOUS
 10
140.6113994561
 20
199.7988674314
  0
SEQEND
  0
POLYLINE
  8
0
 62
7
  6
CONTINUOUS
 66
1
 70
0
  0
VERTEX
  8
0
 62
7
  6
CONTINUOUS
 10
140.6966891704
 20
187.1841598476
  0
VERTEX
  8
0
 62
7
  6
CONTINUOUS
 10
140.6940714672
 20
187.1632735059
  0
VERTEX
  8
0
 62
7
  6
CONTINUOUS
 10
140.6865583326
 20
187.1439456416
  0
VERTEX
  8
0
 62
7
  6
CONTINUOUS
 10
140.6753892381
 20
187.1278664658
  0
VERTEX
  8
0
 62
7
  6
CONTINUOUS
 10
140.6617291065
 20
187.1153756449
  0
VERTEX
  8
0
 62
7
  6
CONTINUOUS
 10
140.6465815382
 20
187.1065086294
  0
VERTEX
  8
0
 62
7
  6
CONTINUOUS
 10
140.6308024474
 20
187.1011225904
  0
VERTEX
  8
0
 62
7
  6
CONTINUOUS
 10
140.6152278459
 20
187.0989544671
  0
VERTEX
  8
0
 62
7
  6
CONTINUOUS
 10
140.6113994561
 20
187.0988674314
  0
SEQEND
  0
POLYLINE
  8
0
 62
7
  6
CONTINUOUS
 66
1
 70
0
  0
VERTEX
  8
0
 62
7
  6
CONTINUOUS
 10
132.3355952711
 20
211.1024943729
  0
VERTEX
  8
0
 62
7
  6
CONTINUOUS
 10
132.3279138077
 20
211.0586339951
  0
VERTEX
  8
0
 62
7
  6
CONTINUOUS
 10
132.325603701
 20
211.0198499564
  0
SEQEND
  0
POLYLINE
  8
0
 62
7
  6
CONTINUOUS
 66
1
 70
0
  0
VERTEX
  8
0
 62
7
  6
CONTINUOUS
 10
132.3355952711
 20
198.4024943729
  0
VERTEX
  8
0
 62
7
  6
CONTINUOUS
 10
132.3279138077
 20
198.3586339951
  0
VERTEX
  8
0
 62
7
  6
CONTINUOUS
 10
132.325603701
 20
198.3198499564
  0
SEQEND
  0
POLYLINE
  8
0
 62
7
  6
CONTINUOUS
 66
1
 70
0
  0
VERTEX
  8
0
 62
7
  6
CONTINUOUS
 10
132.3355952711
 20
185.7024943729
  0
VERTEX
  8
0
 62
7
  6
CONTINUOUS
 10
132.3279138077
 20
185.6586339951
  0
VERTEX
  8
0
 62
7
  6
CONTINUOUS
 10
132.325603701
 20
185.6198499564
  0
SEQEND
  0
POLYLINE
  8
0
 62
7
  6
CONTINUOUS
 66
1
 70
0
  0
VERTEX
  8
0
 62
7
  6
CONTINUOUS
 10
132.3355952711
 20
173.0024943729
  0
VERTEX
  8
0
 62
7
  6
CONTINUOUS
 10
132.3279138077
 20
172.9586339951
  0
VERTEX
  8
0
 62
7
  6
CONTINUOUS
 10
132.325603701
 20
172.9198499564
  0
SEQEND
  0
POLYLINE
  8
0
 62
7
  6
CONTINUOUS
 66
1
 70
0
  0
VERTEX
  8
0
 62
7
  6
CONTINUOUS
 10
132.3355952711
 20
160.3024943729
  0
VERTEX
  8
0
 62
7
  6
CONTINUOUS
 10
132.3279138077
 20
160.2586339951
  0
VERTEX
  8
0
 62
7
  6
CONTINUOUS
 10
132.325603701
 20
160.2198499564
  0
SEQEND
  0
POLYLINE
  8
0
 62
7
  6
CONTINUOUS
 66
1
 70
0
  0
VERTEX
  8
0
 62
7
  6
CONTINUOUS
 10
132.3355952711
 20
147.6024943729
  0
VERTEX
  8
0
 62
7
  6
CONTINUOUS
 10
132.3279138077
 20
147.5586339951
  0
VERTEX
  8
0
 62
7
  6
CONTINUOUS
 10
132.325603701
 20
147.5198499564
  0
SEQEND
  0
POLYLINE
  8
0
 62
7
  6
CONTINUOUS
 66
1
 70
0
  0
VERTEX
  8
0
 62
7
  6
CONTINUOUS
 10
132.3360254217
 20
134.882255517
  0
VERTEX
  8
0
 62
7
  6
CONTINUOUS
 10
132.3281674654
 20
134.8386584884
  0
VERTEX
  8
0
 62
7
  6
CONTINUOUS
 10
132.3256036977
 20
134.797746921
  0
SEQEND
  0
POLYLINE
  8
0
 62
7
  6
CONTINUOUS
 66
1
 70
0
  0
VERTEX
  8
0
 62
7
  6
CONTINUOUS
 10
132.3360254217
 20
122.182255517
  0
VERTEX
  8
0
 62
7
  6
CONTINUOUS
 10
132.3281674654
 20
122.1386584884
  0
VERTEX
  8
0
 62
7
  6
CONTINUOUS
 10
132.3256036977
 20
122.097746921
  0
SEQEND
  0
POLYLINE
  8
0
 62
7
  6
CONTINUOUS
 66
1
 70
0
  0
VERTEX
  8
0
 62
7
  6
CONTINUOUS
 10
132.3675785526
 20
173.1030793129
  0
VERTEX
  8
0
 62
7
  6
CONTINUOUS
 10
132.3600202107
 20
173.0828353273
  0
VERTEX
  8
0
 62
7
  6
CONTINUOUS
 10
132.3464163339
 20
173.0424796796
  0
VERTEX
  8
0
 62
7
  6
CONTINUOUS
 10
132.3355952711
 20
173.0024943729
  0
SEQEND
  0
POLYLINE
  8
0
 62
7
  6
CONTINUOUS
 66
1
 70
0
  0
VERTEX
  8
0
 62
7
  6
CONTINUOUS
 10
132.3675785526
 20
160.4030793129
  0
VERTEX
  8
0
 62
7
  6
CONTINUOUS
 10
132.3600202107
 20
160.3828353273
  0
VERTEX
  8
0
 62
7
  6
CONTINUOUS
 10
132.3464163339
 20
160.3424796796
  0
VERTEX
  8
0
 62
7
  6
CONTINUOUS
 10
132.3355952711
 20
160.3024943729
  0
SEQEND
  0
POLYLINE
  8
0
 62
7
  6
CONTINUOUS
 66
1
 70
0
  0
VERTEX
  8
0
 62
7
  6
CONTINUOUS
 10
132.3675785526
 20
147.7030793129
  0
VERTEX
  8
0
 62
7
  6
CONTINUOUS
 10
132.3600202107
 20
147.6828353273
  0
VERTEX
  8
0
 62
7
  6
CONTINUOUS
 10
132.3464163339
 20
147.6424796796
  0
VERTEX
  8
0
 62
7
  6
CONTINUOUS
 10
132.3355952711
 20
147.6024943729
  0
SEQEND
  0
POLYLINE
  8
0
 62
7
  6
CONTINUOUS
 66
1
 70
0
  0
VERTEX
  8
0
 62
7
  6
CONTINUOUS
 10
132.3675768355
 20
134.9809748357
  0
VERTEX
  8
0
 62
7
  6
CONTINUOUS
 10
132.3607190213
 20
134.9626552533
  0
VERTEX
  8
0
 62
7
  6
CONTINUOUS
 10
132.3469748628
 20
134.9221855018
  0
VERTEX
  8
0
 62
7
  6
CONTINUOUS
 10
132.3360254217
 20
134.882255517
  0
SEQEND
  0
LINE
  8
0
 62
7
  6
CONTINUOUS
 10
132.3675727006
 20
173.103081561
 11
132.3675424109
 21
173.1030025291
  0
LINE
  8
0
 62
7
  6
CONTINUOUS
 10
132.3675727006
 20
160.403081561
 11
132.3675424109
 21
160.4030025291
  0
LINE
  8
0
 62
7
  6
CONTINUOUS
 10
132.3675727006
 20
147.703081561
 11
132.3675424109
 21
147.7030025291
  0
LINE
  8
0
 62
7
  6
CONTINUOUS
 10
132.3675361006
 20
134.9808685398
 11
132.3675768355
 21
134.9809748357
  0
POLYLINE
  8
0
 62
7
  6
CONTINUOUS
 66
1
 70
0
  0
VERTEX
  8
0
 62
7
  6
CONTINUOUS
 10
164.671882559
 20
111.0851473938
  0
VERTEX
  8
0
 62
7
  6
CONTINUOUS
 10
165.0834360821
 20
111.125214114
  0
VERTEX
  8
0
 62
7
  6
CONTINUOUS
 10
165.5512990224
 20
111.184147212
  0
VERTEX
  8
0
 62
7
  6
CONTINUOUS
 10
165.9976468395
 20
111.2555968218
  0
VERTEX
  8
0
 62
7
  6
CONTINUOUS
 10
166.4191680537
 20
111.3394565184
  0
VERTEX
  8
0
 62
7
  6
CONTINUOUS
 10
166.8124040551
 20
111.4357145894
  0
VERTEX
  8
0
 62
7
  6
CONTINUOUS
 10
167.1737946254
 20
111.544532075
  0
VERTEX
  8
0
 62
7
  6
CONTINUOUS
 10
167.498247833
 20
111.6657915437
  0
VERTEX
  8
0
 62
7
  6
CONTINUOUS
 10
167.7777078496
 20
111.7977823336
  0
VERTEX
  8
0
 62
7
  6
CONTINUOUS
 10
168.0075356607
 20
111.9389534514
  0
VERTEX
  8
0
 62
7
  6
CONTINUOUS
 10
168.1868822639
 20
112.0889054181
  0
VERTEX
  8
0
 62
7
  6
CONTINUOUS
 10
168.3161826414
 20
112.2477164683
  0
VERTEX
  8
0
 62
7
  6
CONTINUOUS
 10
168.3836648931
 20
112.380290704
  0
SEQEND
  0
POLYLINE
  8
0
 62
7
  6
CONTINUOUS
 66
1
 70
0
  0
VERTEX
  8
0
 62
7
  6
CONTINUOUS
 10
136.0793250394
 20
110.8760458667
  0
VERTEX
  8
0
 62
7
  6
CONTINUOUS
 10
135.6706390667
 20
110.8362948634
  0
VERTEX
  8
0
 62
7
  6
CONTINUOUS
 10
135.2043806843
 20
110.7776826017
  0
VERTEX
  8
0
 62
7
  6
CONTINUOUS
 10
134.7615281931
 20
110.7070178028
  0
VERTEX
  8
0
 62
7
  6
CONTINUOUS
 10
134.3428870276
 20
110.6241245789
  0
VERTEX
  8
0
 62
7
  6
CONTINUOUS
 10
133.9500075666
 20
110.5285079962
  0
VERTEX
  8
0
 62
7
  6
CONTINUOUS
 10
133.585334927
 20
110.4193061065
  0
VERTEX
  8
0
 62
7
  6
CONTINUOUS
 10
133.2549990505
 20
110.2962552462
  0
VERTEX
  8
0
 62
7
  6
CONTINUOUS
 10
132.9714938222
 20
110.1623343492
  0
VERTEX
  8
0
 62
7
  6
CONTINUOUS
 10
132.7417230227
 20
110.0208511864
  0
VERTEX
  8
0
 62
7
  6
CONTINUOUS
 10
132.5642787064
 20
109.8722414209
  0
VERTEX
  8
0
 62
7
  6
CONTINUOUS
 10
132.4362294065
 20
109.7153533361
  0
VERTEX
  8
0
 62
7
  6
CONTINUOUS
 10
132.3675325091
 20
109.5808699178
  0
SEQEND
  0
POLYLINE
  8
0
 62
7
  6
CONTINUOUS
 66
1
 70
0
  0
VERTEX
  8
0
 62
7
  6
CONTINUOUS
 10
164.6548440196
 20
111.0844269
  0
VERTEX
  8
0
 62
7
  6
CONTINUOUS
 10
164.6677866289
 20
111.0848434193
  0
VERTEX
  8
0
 62
7
  6
CONTINUOUS
 10
164.6718620087
 20
111.0851476093
  0
SEQEND
  0
POLYLINE
  8
0
 62
7
  6
CONTINUOUS
 66
1
 70
0
  0
VERTEX
  8
0
 62
7
  6
CONTINUOUS
 10
136.0963629934
 20
110.8767662791
  0
VERTEX
  8
0
 62
7
  6
CONTINUOUS
 10
136.0834209665
 20
110.8763497978
  0
VERTEX
  8
0
 62
7
  6
CONTINUOUS
 10
136.079344225
 20
110.8760455056
  0
SEQEND
  0
LINE
  8
0
 62
7
  6
CONTINUOUS
 10
164.6548440034
 20
104.5268677237
 11
160.1395204517
 21
104.5268677237
  0
LINE
  8
0
 62
7
  6
CONTINUOUS
 10
136.0963636032
 20
104.7343255094
 11
140.5365618918
 21
104.7343255094
  0
LINE
  8
0
 62
7
  6
CONTINUOUS
 10
140.5365623258
 20
110.8767677237
 11
136.0963636118
 21
110.8767677237
  0
LINE
  8
0
 62
7
  6
CONTINUOUS
 10
160.1395188262
 20
111.0844255094
 11
164.6548439976
 21
111.0844255094
  0
LINE
  8
0
 62
7
  6
CONTINUOUS
 10
164.6548440034
 20
117.2268677237
 11
160.1395204517
 21
117.2268677237
  0
LINE
  8
0
 62
7
  6
CONTINUOUS
 10
136.0963636032
 20
117.4343255094
 11
140.5365618918
 21
117.4343255094
  0
POLYLINE
  8
0
 62
7
  6
CONTINUOUS
 66
1
 70
0
  0
VERTEX
  8
0
 62
7
  6
CONTINUOUS
 10
140.5360766645
 20
104.7343260838
  0
VERTEX
  8
0
 62
7
  6
CONTINUOUS
 10
140.5458671356
 20
104.7340236876
  0
VERTEX
  8
0
 62
7
  6
CONTINUOUS
 10
140.5673787857
 20
104.7312166879
  0
VERTEX
  8
0
 62
7
  6
CONTINUOUS
 10
140.58908612
 20
104.7252575005
  0
VERTEX
  8
0
 62
7
  6
CONTINUOUS
 10
140.6103788224
 20
104.7159940438
  0
VERTEX
  8
0
 62
7
  6
CONTINUOUS
 10
140.6306151342
 20
104.7034022414
  0
VERTEX
  8
0
 62
7
  6
CONTINUOUS
 10
140.6491792704
 20
104.6875621023
  0
VERTEX
  8
0
 62
7
  6
CONTINUOUS
 10
140.665449736
 20
104.6686822178
  0
VERTEX
  8
0
 62
7
  6
CONTINUOUS
 10
140.6788273154
 20
104.6471097829
  0
VERTEX
  8
0
 62
7
  6
CONTINUOUS
 10
140.6887717237
 20
104.6233255471
  0
VERTEX
  8
0
 62
7
  6
CONTINUOUS
 10
140.6948305741
 20
104.5979458505
  0
VERTEX
  8
0
 62
7
  6
CONTINUOUS
 10
140.6966885826
 20
104.5737073578
  0
SEQEND
  0
POLYLINE
  8
0
 62
7
  6
CONTINUOUS
 66
1
 70
0
  0
VERTEX
  8
0
 62
7
  6
CONTINUOUS
 10
140.5360766645
 20
117.4343260838
  0
VERTEX
  8
0
 62
7
  6
CONTINUOUS
 10
140.5458671356
 20
117.4340236876
  0
VERTEX
  8
0
 62
7
  6
CONTINUOUS
 10
140.5673787857
 20
117.4312166879
  0
VERTEX
  8
0
 62
7
  6
CONTINUOUS
 10
140.58908612
 20
117.4252575005
  0
VERTEX
  8
0
 62
7
  6
CONTINUOUS
 10
140.6103788224
 20
117.4159940438
  0
VERTEX
  8
0
 62
7
  6
CONTINUOUS
 10
140.6306151342
 20
117.4034022414
  0
VERTEX
  8
0
 62
7
  6
CONTINUOUS
 10
140.6491792704
 20
117.3875621023
  0
VERTEX
  8
0
 62
7
  6
CONTINUOUS
 10
140.665449736
 20
117.3686822178
  0
VERTEX
  8
0
 62
7
  6
CONTINUOUS
 10
140.6788273154
 20
117.3471097829
  0
VERTEX
  8
0
 62
7
  6
CONTINUOUS
 10
140.6887717237
 20
117.3233255471
  0
VERTEX
  8
0
 62
7
  6
CONTINUOUS
 10
140.6948305741
 20
117.2979458505
  0
VERTEX
  8
0
 62
7
  6
CONTINUOUS
 10
140.6966885826
 20
117.2737073578
  0
SEQEND
  0
POLYLINE
  8
0
 62
7
  6
CONTINUOUS
 66
1
 70
0
  0
VERTEX
  8
0
 62
7
  6
CONTINUOUS
 10
160.1398097477
 20
104.5268674309
  0
VERTEX
  8
0
 62
7
  6
CONTINUOUS
 10
160.1345745679
 20
104.5270301268
  0
VERTEX
  8
0
 62
7
  6
CONTINUOUS
 10
160.1193709991
 20
104.5293729123
  0
VERTEX
  8
0
 62
7
  6
CONTINUOUS
 10
160.1039266123
 20
104.5348309178
  0
VERTEX
  8
0
 62
7
  6
CONTINUOUS
 10
160.0890109158
 20
104.5437212707
  0
VERTEX
  8
0
 62
7
  6
CONTINUOUS
 10
160.0755129185
 20
104.5562160334
  0
VERTEX
  8
0
 62
7
  6
CONTINUOUS
 10
160.0644780051
 20
104.5722670984
  0
VERTEX
  8
0
 62
7
  6
CONTINUOUS
 10
160.0570805518
 20
104.5914935599
  0
VERTEX
  8
0
 62
7
  6
CONTINUOUS
 10
160.0545181278
 20
104.6121613689
  0
SEQEND
  0
POLYLINE
  8
0
 62
7
  6
CONTINUOUS
 66
1
 70
0
  0
VERTEX
  8
0
 62
7
  6
CONTINUOUS
 10
160.1398097477
 20
117.2268674309
  0
VERTEX
  8
0
 62
7
  6
CONTINUOUS
 10
160.1345745679
 20
117.2270301268
  0
VERTEX
  8
0
 62
7
  6
CONTINUOUS
 10
160.1193709991
 20
117.2293729123
  0
VERTEX
  8
0
 62
7
  6
CONTINUOUS
 10
160.1039266123
 20
117.2348309178
  0
VERTEX
  8
0
 62
7
  6
CONTINUOUS
 10
160.0890109158
 20
117.2437212707
  0
VERTEX
  8
0
 62
7
  6
CONTINUOUS
 10
160.0755129185
 20
117.2562160334
  0
VERTEX
  8
0
 62
7
  6
CONTINUOUS
 10
160.0644780051
 20
117.2722670984
  0
VERTEX
  8
0
 62
7
  6
CONTINUOUS
 10
160.0570805518
 20
117.2914935599
  0
VERTEX
  8
0
 62
7
  6
CONTINUOUS
 10
160.0545181278
 20
117.3121613689
  0
SEQEND
  0
POLYLINE
  8
0
 62
7
  6
CONTINUOUS
 66
1
 70
0
  0
VERTEX
  8
0
 62
7
  6
CONTINUOUS
 10
164.6718620203
 20
104.5261456255
  0
VERTEX
  8
0
 62
7
  6
CONTINUOUS
 10
164.6677866354
 20
104.526449816
  0
VERTEX
  8
0
 62
7
  6
CONTINUOUS
 10
164.6548440251
 20
104.5268663355
  0
SEQEND
  0
POLYLINE
  8
0
 62
7
  6
CONTINUOUS
 66
1
 70
0
  0
VERTEX
  8
0
 62
7
  6
CONTINUOUS
 10
136.0793442242
 20
117.4350477258
  0
VERTEX
  8
0
 62
7
  6
CONTINUOUS
 10
136.083420968
 20
117.4347434335
  0
VERTEX
  8
0
 62
7
  6
CONTINUOUS
 10
136.096362987
 20
117.4343269527
  0
SEQEND
  0
POLYLINE
  8
0
 62
7
  6
CONTINUOUS
 66
1
 70
0
  0
VERTEX
  8
0
 62
7
  6
CONTINUOUS
 10
164.6718620203
 20
117.2261456255
  0
VERTEX
  8
0
 62
7
  6
CONTINUOUS
 10
164.6677866354
 20
117.226449816
  0
VERTEX
  8
0
 62
7
  6
CONTINUOUS
 10
164.6548440251
 20
117.2268663355
  0
SEQEND
  0
POLYLINE
  8
0
 62
7
  6
CONTINUOUS
 66
1
 70
0
  0
VERTEX
  8
0
 62
7
  6
CONTINUOUS
 10
168.3836671369
 20
52.4309964467
  0
VERTEX
  8
0
 62
7
  6
CONTINUOUS
 10
168.3146278908
 20
52.5659963949
  0
VERTEX
  8
0
 62
7
  6
CONTINUOUS
 10
168.1847096004
 20
52.7245568204
  0
VERTEX
  8
0
 62
7
  6
CONTINUOUS
 10
168.0047634984
 20
52.8743082391
  0
VERTEX
  8
0
 62
7
  6
CONTINUOUS
 10
167.774331206
 20
53.015318344
  0
VERTEX
  8
0
 62
7
  6
CONTINUOUS
 10
167.4942794867
 20
53.147161198
  0
VERTEX
  8
0
 62
7
  6
CONTINUOUS
 10
167.1692871115
 20
53.2682676599
  0
VERTEX
  8
0
 62
7
  6
CONTINUOUS
 10
166.8074426166
 20
53.3769223706
  0
VERTEX
  8
0
 62
7
  6
CONTINUOUS
 10
166.4138392097
 20
53.4730113637
  0
VERTEX
  8
0
 62
7
  6
CONTINUOUS
 10
165.9920277512
 20
53.556699406
  0
VERTEX
  8
0
 62
7
  6
CONTINUOUS
 10
165.5454496025
 20
53.6279783002
  0
VERTEX
  8
0
 62
7
  6
CONTINUOUS
 10
165.0773936098
 20
53.6867437672
  0
VERTEX
  8
0
 62
7
  6
CONTINUOUS
 10
164.6718824875
 20
53.7261458452
  0
SEQEND
  0
POLYLINE
  8
0
 62
7
  6
CONTINUOUS
 66
1
 70
0
  0
VERTEX
  8
0
 62
7
  6
CONTINUOUS
 10
168.3836671369
 20
65.1309964467
  0
VERTEX
  8
0
 62
7
  6
CONTINUOUS
 10
168.3146278908
 20
65.2659963949
  0
VERTEX
  8
0
 62
7
  6
CONTINUOUS
 10
168.1847096004
 20
65.4245568204
  0
VERTEX
  8
0
 62
7
  6
CONTINUOUS
 10
168.0047634984
 20
65.5743082391
  0
VERTEX
  8
0
 62
7
  6
CONTINUOUS
 10
167.774331206
 20
65.7153183441
  0
VERTEX
  8
0
 62
7
  6
CONTINUOUS
 10
167.4942794867
 20
65.847161198
  0
VERTEX
  8
0
 62
7
  6
CONTINUOUS
 10
167.1692871115
 20
65.9682676599
  0
VERTEX
  8
0
 62
7
  6
CONTINUOUS
 10
166.8074426166
 20
66.0769223706
  0
VERTEX
  8
0
 62
7
  6
CONTINUOUS
 10
166.4138392097
 20
66.1730113637
  0
VERTEX
  8
0
 62
7
  6
CONTINUOUS
 10
165.9920277512
 20
66.256699406
  0
VERTEX
  8
0
 62
7
  6
CONTINUOUS
 10
165.5454496025
 20
66.3279783002
  0
VERTEX
  8
0
 62
7
  6
CONTINUOUS
 10
165.0773936098
 20
66.3867437672
  0
VERTEX
  8
0
 62
7
  6
CONTINUOUS
 10
164.6718824875
 20
66.4261458452
  0
SEQEND
  0
POLYLINE
  8
0
 62
7
  6
CONTINUOUS
 66
1
 70
0
  0
VERTEX
  8
0
 62
7
  6
CONTINUOUS
 10
132.3675343397
 20
106.030211785
  0
VERTEX
  8
0
 62
7
  6
CONTINUOUS
 10
132.4348905564
 20
105.8978259951
  0
VERTEX
  8
0
 62
7
  6
CONTINUOUS
 10
132.5627688335
 20
105.7403661961
  0
VERTEX
  8
0
 62
7
  6
CONTINUOUS
 10
132.7402364039
 20
105.5913041519
  0
VERTEX
  8
0
 62
7
  6
CONTINUOUS
 10
132.9699558433
 20
105.4495859156
  0
VERTEX
  8
0
 62
7
  6
CONTINUOUS
 10
133.253076864
 20
105.3156423785
  0
VERTEX
  8
0
 62
7
  6
CONTINUOUS
 10
133.5827566349
 20
105.192646485
  0
VERTEX
  8
0
 62
7
  6
CONTINUOUS
 10
133.9467428228
 20
105.0834660279
  0
VERTEX
  8
0
 62
7
  6
CONTINUOUS
 10
134.3390112777
 20
104.9878202967
  0
VERTEX
  8
0
 62
7
  6
CONTINUOUS
 10
134.7570994777
 20
104.9048647857
  0
VERTEX
  8
0
 62
7
  6
CONTINUOUS
 10
135.1994175204
 20
104.834117154
  0
VERTEX
  8
0
 62
7
  6
CONTINUOUS
 10
135.6651043625
 20
104.7754082069
  0
VERTEX
  8
0
 62
7
  6
CONTINUOUS
 10
136.0793249705
 20
104.7350473719
  0
SEQEND
  0
POLYLINE
  8
0
 62
7
  6
CONTINUOUS
 66
1
 70
0
  0
VERTEX
  8
0
 62
7
  6
CONTINUOUS
 10
132.3675343397
 20
118.730211785
  0
VERTEX
  8
0
 62
7
  6
CONTINUOUS
 10
132.4348905564
 20
118.5978259951
  0
VERTEX
  8
0
 62
7
  6
CONTINUOUS
 10
132.5627688335
 20
118.4403661961
  0
VERTEX
  8
0
 62
7
  6
CONTINUOUS
 10
132.7402364039
 20
118.2913041519
  0
VERTEX
  8
0
 62
7
  6
CONTINUOUS
 10
132.9699558433
 20
118.1495859156
  0
VERTEX
  8
0
 62
7
  6
CONTINUOUS
 10
133.253076864
 20
118.0156423785
  0
VERTEX
  8
0
 62
7
  6
CONTINUOUS
 10
133.5827566349
 20
117.892646485
  0
VERTEX
  8
0
 62
7
  6
CONTINUOUS
 10
133.9467428228
 20
117.7834660279
  0
VERTEX
  8
0
 62
7
  6
CONTINUOUS
 10
134.3390112777
 20
117.6878202967
  0
VERTEX
  8
0
 62
7
  6
CONTINUOUS
 10
134.7570994777
 20
117.6048647857
  0
VERTEX
  8
0
 62
7
  6
CONTINUOUS
 10
135.1994175204
 20
117.534117154
  0
VERTEX
  8
0
 62
7
  6
CONTINUOUS
 10
135.6651043625
 20
117.4754082069
  0
VERTEX
  8
0
 62
7
  6
CONTINUOUS
 10
136.0793249705
 20
117.4350473719
  0
SEQEND
  0
POLYLINE
  8
0
 62
7
  6
CONTINUOUS
 66
1
 70
0
  0
VERTEX
  8
0
 62
7
  6
CONTINUOUS
 10
132.3675343397
 20
131.430211785
  0
VERTEX
  8
0
 62
7
  6
CONTINUOUS
 10
132.4348905564
 20
131.2978259951
  0
VERTEX
  8
0
 62
7
  6
CONTINUOUS
 10
132.5627688335
 20
131.1403661961
  0
VERTEX
  8
0
 62
7
  6
CONTINUOUS
 10
132.7402364039
 20
130.9913041519
  0
VERTEX
  8
0
 62
7
  6
CONTINUOUS
 10
132.9699558433
 20
130.8495859156
  0
VERTEX
  8
0
 62
7
  6
CONTINUOUS
 10
133.253076864
 20
130.7156423785
  0
VERTEX
  8
0
 62
7
  6
CONTINUOUS
 10
133.5827566349
 20
130.592646485
  0
VERTEX
  8
0
 62
7
  6
CONTINUOUS
 10
133.9467428228
 20
130.4834660279
  0
VERTEX
  8
0
 62
7
  6
CONTINUOUS
 10
134.3390112777
 20
130.3878202967
  0
VERTEX
  8
0
 62
7
  6
CONTINUOUS
 10
134.7570994777
 20
130.3048647857
  0
VERTEX
  8
0
 62
7
  6
CONTINUOUS
 10
135.1994175204
 20
130.234117154
  0
VERTEX
  8
0
 62
7
  6
CONTINUOUS
 10
135.6651043625
 20
130.1754082069
  0
VERTEX
  8
0
 62
7
  6
CONTINUOUS
 10
136.0793249705
 20
130.1350473719
  0
SEQEND
  0
LINE
  8
0
 62
7
  6
CONTINUOUS
 10
132.3675343397
 20
106.030211785
 11
132.3675716632
 21
106.0301143846
  0
LINE
  8
0
 62
7
  6
CONTINUOUS
 10
132.3675343397
 20
118.730211785
 11
132.3675716632
 21
118.7301143846
  0
LINE
  8
0
 62
7
  6
CONTINUOUS
 10
132.3675343397
 20
131.430211785
 11
132.3675716632
 21
131.4301143846
  0
LINE
  8
0
 62
7
  6
CONTINUOUS
 10
132.3601417797
 20
106.0500226192
 11
132.3675775127
 21
106.0301166316
  0
LINE
  8
0
 62
7
  6
CONTINUOUS
 10
132.3601417797
 20
118.7500226192
 11
132.3675775127
 21
118.7301166316
  0
LINE
  8
0
 62
7
  6
CONTINUOUS
 10
132.3601417797
 20
131.4500226192
 11
132.3675775127
 21
131.4301166316
  0
POLYLINE
  8
0
 62
7
  6
CONTINUOUS
 66
1
 70
0
  0
VERTEX
  8
0
 62
7
  6
CONTINUOUS
 10
132.3256037025
 20
195.1354407863
  0
VERTEX
  8
0
 62
7
  6
CONTINUOUS
 10
132.3279696252
 20
195.0961819543
  0
VERTEX
  8
0
 62
7
  6
CONTINUOUS
 10
132.3357825091
 20
195.0519838532
  0
VERTEX
  8
0
 62
7
  6
CONTINUOUS
 10
132.3467736293
 20
195.0116550358
  0
VERTEX
  8
0
 62
7
  6
CONTINUOUS
 10
132.3605984331
 20
194.9708681228
  0
SEQEND
  0
POLYLINE
  8
0
 62
7
  6
CONTINUOUS
 66
1
 70
0
  0
VERTEX
  8
0
 62
7
  6
CONTINUOUS
 10
132.3256037025
 20
207.8354407863
  0
VERTEX
  8
0
 62
7
  6
CONTINUOUS
 10
132.3279696252
 20
207.7961819543
  0
VERTEX
  8
0
 62
7
  6
CONTINUOUS
 10
132.3357825091
 20
207.7519838532
  0
VERTEX
  8
0
 62
7
  6
CONTINUOUS
 10
132.3467736293
 20
207.7116550358
  0
VERTEX
  8
0
 62
7
  6
CONTINUOUS
 10
132.3605984331
 20
207.6708681228
  0
SEQEND
  0
POLYLINE
  8
0
 62
7
  6
CONTINUOUS
 66
1
 70
0
  0
VERTEX
  8
0
 62
7
  6
CONTINUOUS
 10
132.3256037025
 20
220.5354407863
  0
VERTEX
  8
0
 62
7
  6
CONTINUOUS
 10
132.3279696252
 20
220.4961819543
  0
VERTEX
  8
0
 62
7
  6
CONTINUOUS
 10
132.3357825091
 20
220.4519838532
  0
VERTEX
  8
0
 62
7
  6
CONTINUOUS
 10
132.3467736293
 20
220.4116550358
  0
VERTEX
  8
0
 62
7
  6
CONTINUOUS
 10
132.3605984331
 20
220.3708681228
  0
SEQEND
  0
LINE
  8
DEFAULT_1
 62
2
  6
CENTER
 10
137.675603652
 20
39.1916466165
 11
137.675603652
 21
227.2416466165
  0
LINE
  8
0
 62
7
  6
CONTINUOUS
 10
140.6966890987
 20
218.9714233338
 11
140.6966890987
 21
212.5838682762
  0
LINE
  8
0
 62
7
  6
CONTINUOUS
 10
140.6966890987
 20
206.2714233338
 11
140.6966890987
 21
199.8838682762
  0
LINE
  8
0
 62
7
  6
CONTINUOUS
 10
140.6966890987
 20
193.5714233338
 11
140.6966890987
 21
187.1838682762
  0
LINE
  8
0
 62
7
  6
CONTINUOUS
 10
140.6966890987
 20
180.8714233338
 11
140.6966890987
 21
174.4838682762
  0
LINE
  8
0
 62
7
  6
CONTINUOUS
 10
140.6966890987
 20
168.1714233338
 11
140.6966890987
 21
161.7838682762
  0
LINE
  8
0
 62
7
  6
CONTINUOUS
 10
140.6966890987
 20
155.4714233338
 11
140.6966890987
 21
149.0838682762
  0
LINE
  8
0
 62
7
  6
CONTINUOUS
 10
140.6966890987
 20
142.7714233338
 11
140.6966890987
 21
136.4368941439
  0
LINE
  8
0
 62
7
  6
CONTINUOUS
 10
140.6966890987
 20
129.9741987925
 11
140.6966890987
 21
123.7368941439
  0
LINE
  8
0
 62
7
  6
CONTINUOUS
 10
140.6966890987
 20
117.2741987925
 11
140.6966890987
 21
111.0368941439
  0
LINE
  8
0
 62
7
  6
CONTINUOUS
 10
140.6966890987
 20
104.5741987925
 11
140.6966890987
 21
98.3368941439
  0
LINE
  8
0
 62
7
  6
CONTINUOUS
 10
140.6966890987
 20
91.8741987925
 11
140.6966890987
 21
85.6368941439
  0
LINE
  8
0
 62
7
  6
CONTINUOUS
 10
140.6966890987
 20
79.1741987925
 11
140.6966890987
 21
72.9368941439
  0
LINE
  8
0
 62
7
  6
CONTINUOUS
 10
140.6966890987
 20
66.4741987925
 11
140.6966890987
 21
60.2368941439
  0
LINE
  8
0
 62
7
  6
CONTINUOUS
 10
140.6966890987
 20
53.7741987925
 11
140.6966890987
 21
47.5368941439
  0
LINE
  8
DEFAULT_1
 62
2
  6
CENTER
 10
150.375603652
 20
140.7916466165
 11
150.375603652
 21
138.3917466165
  0
LINE
  8
0
 62
2
  6
CONTINUOUS
 10
150.375603652
 20
137.2716466165
 11
150.375603652
 21
135.5116466165
  0
LINE
  8
DEFAULT_1
 62
2
  6
CENTER
 10
150.375603652
 20
131.9916466165
 11
150.375603652
 21
134.3915466165
  0
POLYLINE
  8
0
 62
7
  6
CONTINUOUS
 66
1
 70
0
  0
VERTEX
  8
0
 62
7
  6
CONTINUOUS
 10
140.6966885131
 20
136.4373841807
  0
VERTEX
  8
0
 62
7
  6
CONTINUOUS
 10
140.6938767236
 20
136.4076033001
  0
VERTEX
  8
0
 62
7
  6
CONTINUOUS
 10
140.6849104055
 20
136.3772137609
  0
VERTEX
  8
0
 62
7
  6
CONTINUOUS
 10
140.6704267907
 20
136.349580267
  0
VERTEX
  8
0
 62
7
  6
CONTINUOUS
 10
140.6513827317
 20
136.3257634391
  0
VERTEX
  8
0
 62
7
  6
CONTINUOUS
 10
140.628936592
 20
136.3064820784
  0
VERTEX
  8
0
 62
7
  6
CONTINUOUS
 10
140.6043409059
 20
136.2920955621
  0
VERTEX
  8
0
 62
7
  6
CONTINUOUS
 10
140.5788335477
 20
136.282612076
  0
VERTEX
  8
0
 62
7
  6
CONTINUOUS
 10
140.5535810534
 20
136.2777345837
  0
VERTEX
  8
0
 62
7
  6
CONTINUOUS
 10
140.5360770407
 20
136.2767671574
  0
SEQEND
  0
POLYLINE
  8
0
 62
7
  6
CONTINUOUS
 66
1
 70
0
  0
VERTEX
  8
0
 62
7
  6
CONTINUOUS
 10
140.6966885131
 20
123.7373841807
  0
VERTEX
  8
0
 62
7
  6
CONTINUOUS
 10
140.6938767236
 20
123.7076033001
  0
VERTEX
  8
0
 62
7
  6
CONTINUOUS
 10
140.6849104055
 20
123.6772137609
  0
VERTEX
  8
0
 62
7
  6
CONTINUOUS
 10
140.6704267907
 20
123.649580267
  0
VERTEX
  8
0
 62
7
  6
CONTINUOUS
 10
140.6513827317
 20
123.6257634391
  0
VERTEX
  8
0
 62
7
  6
CONTINUOUS
 10
140.628936592
 20
123.6064820784
  0
VERTEX
  8
0
 62
7
  6
CONTINUOUS
 10
140.6043409059
 20
123.5920955621
  0
VERTEX
  8
0
 62
7
  6
CONTINUOUS
 10
140.5788335477
 20
123.582612076
  0
VERTEX
  8
0
 62
7
  6
CONTINUOUS
 10
140.5535810534
 20
123.5777345837
  0
VERTEX
  8
0
 62
7
  6
CONTINUOUS
 10
140.5360770407
 20
123.5767671574
  0
SEQEND
  0
POLYLINE
  8
0
 62
7
  6
CONTINUOUS
 66
1
 70
0
  0
VERTEX
  8
0
 62
7
  6
CONTINUOUS
 10
140.6966885131
 20
111.0373841807
  0
VERTEX
  8
0
 62
7
  6
CONTINUOUS
 10
140.6938767236
 20
111.0076033001
  0
VERTEX
  8
0
 62
7
  6
CONTINUOUS
 10
140.6849104055
 20
110.9772137609
  0
VERTEX
  8
0
 62
7
  6
CONTINUOUS
 10
140.6704267907
 20
110.949580267
  0
VERTEX
  8
0
 62
7
  6
CONTINUOUS
 10
140.6513827317
 20
110.9257634391
  0
VERTEX
  8
0
 62
7
  6
CONTINUOUS
 10
140.628936592
 20
110.9064820784
  0
VERTEX
  8
0
 62
7
  6
CONTINUOUS
 10
140.6043409059
 20
110.8920955621
  0
VERTEX
  8
0
 62
7
  6
CONTINUOUS
 10
140.5788335477
 20
110.882612076
  0
VERTEX
  8
0
 62
7
  6
CONTINUOUS
 10
140.5535810534
 20
110.8777345837
  0
VERTEX
  8
0
 62
7
  6
CONTINUOUS
 10
140.5360770407
 20
110.8767671574
  0
SEQEND
  0
POLYLINE
  8
0
 62
7
  6
CONTINUOUS
 66
1
 70
0
  0
VERTEX
  8
0
 62
7
  6
CONTINUOUS
 10
140.6966885131
 20
98.3373841807
  0
VERTEX
  8
0
 62
7
  6
CONTINUOUS
 10
140.6938767236
 20
98.3076033001
  0
VERTEX
  8
0
 62
7
  6
CONTINUOUS
 10
140.6849104055
 20
98.2772137609
  0
VERTEX
  8
0
 62
7
  6
CONTINUOUS
 10
140.6704267907
 20
98.249580267
  0
VERTEX
  8
0
 62
7
  6
CONTINUOUS
 10
140.6513827317
 20
98.2257634391
  0
VERTEX
  8
0
 62
7
  6
CONTINUOUS
 10
140.628936592
 20
98.2064820784
  0
VERTEX
  8
0
 62
7
  6
CONTINUOUS
 10
140.6043409059
 20
98.1920955621
  0
VERTEX
  8
0
 62
7
  6
CONTINUOUS
 10
140.5788335477
 20
98.182612076
  0
VERTEX
  8
0
 62
7
  6
CONTINUOUS
 10
140.5535810534
 20
98.1777345837
  0
VERTEX
  8
0
 62
7
  6
CONTINUOUS
 10
140.5360770407
 20
98.1767671574
  0
SEQEND
  0
POLYLINE
  8
0
 62
7
  6
CONTINUOUS
 66
1
 70
0
  0
VERTEX
  8
0
 62
7
  6
CONTINUOUS
 10
140.6966885131
 20
85.6373841807
  0
VERTEX
  8
0
 62
7
  6
CONTINUOUS
 10
140.6938767236
 20
85.6076033001
  0
VERTEX
  8
0
 62
7
  6
CONTINUOUS
 10
140.6849104055
 20
85.5772137609
  0
VERTEX
  8
0
 62
7
  6
CONTINUOUS
 10
140.6704267907
 20
85.549580267
  0
VERTEX
  8
0
 62
7
  6
CONTINUOUS
 10
140.6513827317
 20
85.5257634391
  0
VERTEX
  8
0
 62
7
  6
CONTINUOUS
 10
140.628936592
 20
85.5064820784
  0
VERTEX
  8
0
 62
7
  6
CONTINUOUS
 10
140.6043409059
 20
85.4920955621
  0
VERTEX
  8
0
 62
7
  6
CONTINUOUS
 10
140.5788335477
 20
85.482612076
  0
VERTEX
  8
0
 62
7
  6
CONTINUOUS
 10
140.5535810534
 20
85.4777345837
  0
VERTEX
  8
0
 62
7
  6
CONTINUOUS
 10
140.5360770407
 20
85.4767671574
  0
SEQEND
  0
POLYLINE
  8
0
 62
7
  6
CONTINUOUS
 66
1
 70
0
  0
VERTEX
  8
0
 62
7
  6
CONTINUOUS
 10
140.6966885131
 20
72.9373841807
  0
VERTEX
  8
0
 62
7
  6
CONTINUOUS
 10
140.6938767236
 20
72.9076033001
  0
VERTEX
  8
0
 62
7
  6
CONTINUOUS
 10
140.6849104055
 20
72.8772137609
  0
VERTEX
  8
0
 62
7
  6
CONTINUOUS
 10
140.6704267907
 20
72.849580267
  0
VERTEX
  8
0
 62
7
  6
CONTINUOUS
 10
140.6513827317
 20
72.8257634391
  0
VERTEX
  8
0
 62
7
  6
CONTINUOUS
 10
140.628936592
 20
72.8064820784
  0
VERTEX
  8
0
 62
7
  6
CONTINUOUS
 10
140.6043409059
 20
72.7920955621
  0
VERTEX
  8
0
 62
7
  6
CONTINUOUS
 10
140.5788335477
 20
72.782612076
  0
VERTEX
  8
0
 62
7
  6
CONTINUOUS
 10
140.5535810534
 20
72.7777345837
  0
VERTEX
  8
0
 62
7
  6
CONTINUOUS
 10
140.5360770407
 20
72.7767671574
  0
SEQEND
  0
POLYLINE
  8
0
 62
7
  6
CONTINUOUS
 66
1
 70
0
  0
VERTEX
  8
0
 62
7
  6
CONTINUOUS
 10
140.6966885131
 20
60.2373841807
  0
VERTEX
  8
0
 62
7
  6
CONTINUOUS
 10
140.6938767236
 20
60.2076033001
  0
VERTEX
  8
0
 62
7
  6
CONTINUOUS
 10
140.6849104055
 20
60.1772137609
  0
VERTEX
  8
0
 62
7
  6
CONTINUOUS
 10
140.6704267907
 20
60.149580267
  0
VERTEX
  8
0
 62
7
  6
CONTINUOUS
 10
140.6513827317
 20
60.1257634391
  0
VERTEX
  8
0
 62
7
  6
CONTINUOUS
 10
140.628936592
 20
60.1064820784
  0
VERTEX
  8
0
 62
7
  6
CONTINUOUS
 10
140.6043409059
 20
60.0920955621
  0
VERTEX
  8
0
 62
7
  6
CONTINUOUS
 10
140.5788335477
 20
60.082612076
  0
VERTEX
  8
0
 62
7
  6
CONTINUOUS
 10
140.5535810534
 20
60.0777345837
  0
VERTEX
  8
0
 62
7
  6
CONTINUOUS
 10
140.5360770407
 20
60.0767671574
  0
SEQEND
  0
POLYLINE
  8
0
 62
7
  6
CONTINUOUS
 66
1
 70
0
  0
VERTEX
  8
0
 62
7
  6
CONTINUOUS
 10
140.6966885131
 20
47.5373841807
  0
VERTEX
  8
0
 62
7
  6
CONTINUOUS
 10
140.6938767236
 20
47.5076033001
  0
VERTEX
  8
0
 62
7
  6
CONTINUOUS
 10
140.6849104055
 20
47.4772137609
  0
VERTEX
  8
0
 62
7
  6
CONTINUOUS
 10
140.6704267907
 20
47.449580267
  0
VERTEX
  8
0
 62
7
  6
CONTINUOUS
 10
140.6513827317
 20
47.4257634391
  0
VERTEX
  8
0
 62
7
  6
CONTINUOUS
 10
140.628936592
 20
47.4064820784
  0
VERTEX
  8
0
 62
7
  6
CONTINUOUS
 10
140.6043409059
 20
47.3920955621
  0
VERTEX
  8
0
 62
7
  6
CONTINUOUS
 10
140.5788335477
 20
47.382612076
  0
VERTEX
  8
0
 62
7
  6
CONTINUOUS
 10
140.5535810534
 20
47.3777345837
  0
VERTEX
  8
0
 62
7
  6
CONTINUOUS
 10
140.5360770407
 20
47.3767671574
  0
SEQEND
  0
POLYLINE
  8
0
 62
7
  6
CONTINUOUS
 66
1
 70
0
  0
VERTEX
  8
0
 62
7
  6
CONTINUOUS
 10
140.6966891704
 20
174.4841598476
  0
VERTEX
  8
0
 62
7
  6
CONTINUOUS
 10
140.6940714672
 20
174.4632735059
  0
VERTEX
  8
0
 62
7
  6
CONTINUOUS
 10
140.6865583326
 20
174.4439456416
  0
VERTEX
  8
0
 62
7
  6
CONTINUOUS
 10
140.6753892381
 20
174.4278664658
  0
VERTEX
  8
0
 62
7
  6
CONTINUOUS
 10
140.6617291065
 20
174.4153756449
  0
VERTEX
  8
0
 62
7
  6
CONTINUOUS
 10
140.6465815382
 20
174.4065086294
  0
VERTEX
  8
0
 62
7
  6
CONTINUOUS
 10
140.6308024474
 20
174.4011225904
  0
VERTEX
  8
0
 62
7
  6
CONTINUOUS
 10
140.6152278459
 20
174.3989544671
  0
VERTEX
  8
0
 62
7
  6
CONTINUOUS
 10
140.6113994561
 20
174.3988674314
  0
SEQEND
  0
POLYLINE
  8
0
 62
7
  6
CONTINUOUS
 66
1
 70
0
  0
VERTEX
  8
0
 62
7
  6
CONTINUOUS
 10
140.6966891704
 20
161.7841598476
  0
VERTEX
  8
0
 62
7
  6
CONTINUOUS
 10
140.6940714672
 20
161.7632735059
  0
VERTEX
  8
0
 62
7
  6
CONTINUOUS
 10
140.6865583326
 20
161.7439456416
  0
VERTEX
  8
0
 62
7
  6
CONTINUOUS
 10
140.6753892381
 20
161.7278664658
  0
VERTEX
  8
0
 62
7
  6
CONTINUOUS
 10
140.6617291065
 20
161.7153756449
  0
VERTEX
  8
0
 62
7
  6
CONTINUOUS
 10
140.6465815382
 20
161.7065086294
  0
VERTEX
  8
0
 62
7
  6
CONTINUOUS
 10
140.6308024474
 20
161.7011225904
  0
VERTEX
  8
0
 62
7
  6
CONTINUOUS
 10
140.6152278459
 20
161.6989544671
  0
VERTEX
  8
0
 62
7
  6
CONTINUOUS
 10
140.6113994561
 20
161.6988674314
  0
SEQEND
  0
POLYLINE
  8
0
 62
7
  6
CONTINUOUS
 66
1
 70
0
  0
VERTEX
  8
0
 62
7
  6
CONTINUOUS
 10
140.6966891704
 20
149.0841598476
  0
VERTEX
  8
0
 62
7
  6
CONTINUOUS
 10
140.6940714672
 20
149.0632735059
  0
VERTEX
  8
0
 62
7
  6
CONTINUOUS
 10
140.6865583326
 20
149.0439456416
  0
VERTEX
  8
0
 62
7
  6
CONTINUOUS
 10
140.6753892381
 20
149.0278664658
  0
VERTEX
  8
0
 62
7
  6
CONTINUOUS
 10
140.6617291065
 20
149.0153756449
  0
VERTEX
  8
0
 62
7
  6
CONTINUOUS
 10
140.6465815382
 20
149.0065086294
  0
VERTEX
  8
0
 62
7
  6
CONTINUOUS
 10
140.6308024474
 20
149.0011225904
  0
VERTEX
  8
0
 62
7
  6
CONTINUOUS
 10
140.6152278459
 20
148.9989544671
  0
VERTEX
  8
0
 62
7
  6
CONTINUOUS
 10
140.6113994561
 20
148.9988674314
  0
SEQEND
  0
POLYLINE
  8
0
 62
7
  6
CONTINUOUS
 66
1
 70
0
  0
VERTEX
  8
0
 62
7
  6
CONTINUOUS
 10
132.3360254217
 20
109.482255517
  0
VERTEX
  8
0
 62
7
  6
CONTINUOUS
 10
132.3281674654
 20
109.4386584884
  0
VERTEX
  8
0
 62
7
  6
CONTINUOUS
 10
132.3256036977
 20
109.397746921
  0
SEQEND
  0
POLYLINE
  8
0
 62
7
  6
CONTINUOUS
 66
1
 70
0
  0
VERTEX
  8
0
 62
7
  6
CONTINUOUS
 10
132.3360254217
 20
96.782255517
  0
VERTEX
  8
0
 62
7
  6
CONTINUOUS
 10
132.3281674654
 20
96.7386584884
  0
VERTEX
  8
0
 62
7
  6
CONTINUOUS
 10
132.3256036977
 20
96.697746921
  0
SEQEND
  0
POLYLINE
  8
0
 62
7
  6
CONTINUOUS
 66
1
 70
0
  0
VERTEX
  8
0
 62
7
  6
CONTINUOUS
 10
132.3360254217
 20
84.082255517
  0
VERTEX
  8
0
 62
7
  6
CONTINUOUS
 10
132.3281674654
 20
84.0386584884
  0
VERTEX
  8
0
 62
7
  6
CONTINUOUS
 10
132.3256036977
 20
83.997746921
  0
SEQEND
  0
POLYLINE
  8
0
 62
7
  6
CONTINUOUS
 66
1
 70
0
  0
VERTEX
  8
0
 62
7
  6
CONTINUOUS
 10
132.3360254217
 20
71.382255517
  0
VERTEX
  8
0
 62
7
  6
CONTINUOUS
 10
132.3281674654
 20
71.3386584884
  0
VERTEX
  8
0
 62
7
  6
CONTINUOUS
 10
132.3256036977
 20
71.297746921
  0
SEQEND
  0
POLYLINE
  8
0
 62
7
  6
CONTINUOUS
 66
1
 70
0
  0
VERTEX
  8
0
 62
7
  6
CONTINUOUS
 10
132.3360254217
 20
58.682255517
  0
VERTEX
  8
0
 62
7
  6
CONTINUOUS
 10
132.3281674654
 20
58.6386584884
  0
VERTEX
  8
0
 62
7
  6
CONTINUOUS
 10
132.3256036977
 20
58.597746921
  0
SEQEND
  0
POLYLINE
  8
0
 62
7
  6
CONTINUOUS
 66
1
 70
0
  0
VERTEX
  8
0
 62
7
  6
CONTINUOUS
 10
132.3360254217
 20
45.982255517
  0
VERTEX
  8
0
 62
7
  6
CONTINUOUS
 10
132.3281674654
 20
45.9386584884
  0
VERTEX
  8
0
 62
7
  6
CONTINUOUS
 10
132.3256036977
 20
45.897746921
  0
SEQEND
  0
POLYLINE
  8
0
 62
7
  6
CONTINUOUS
 66
1
 70
0
  0
VERTEX
  8
0
 62
7
  6
CONTINUOUS
 10
132.3675768355
 20
122.2809748357
  0
VERTEX
  8
0
 62
7
  6
CONTINUOUS
 10
132.3607190213
 20
122.2626552533
  0
VERTEX
  8
0
 62
7
  6
CONTINUOUS
 10
132.3469748628
 20
122.2221855018
  0
VERTEX
  8
0
 62
7
  6
CONTINUOUS
 10
132.3360254217
 20
122.182255517
  0
SEQEND
  0
POLYLINE
  8
0
 62
7
  6
CONTINUOUS
 66
1
 70
0
  0
VERTEX
  8
0
 62
7
  6
CONTINUOUS
 10
168.3836304684
 20
214.0023183974
  0
VERTEX
  8
0
 62
7
  6
CONTINUOUS
 10
168.3904882826
 20
214.0206379798
  0
VERTEX
  8
0
 62
7
  6
CONTINUOUS
 10
168.4042324412
 20
214.0611077312
  0
VERTEX
  8
0
 62
7
  6
CONTINUOUS
 10
168.4151818823
 20
214.1010377161
  0
SEQEND
  0
POLYLINE
  8
0
 62
7
  6
CONTINUOUS
 66
1
 70
0
  0
VERTEX
  8
0
 62
7
  6
CONTINUOUS
 10
132.3675768355
 20
109.5809748357
  0
VERTEX
  8
0
 62
7
  6
CONTINUOUS
 10
132.3607190213
 20
109.5626552533
  0
VERTEX
  8
0
 62
7
  6
CONTINUOUS
 10
132.3469748628
 20
109.5221855018
  0
VERTEX
  8
0
 62
7
  6
CONTINUOUS
 10
132.3360254217
 20
109.482255517
  0
SEQEND
  0
POLYLINE
  8
0
 62
7
  6
CONTINUOUS
 66
1
 70
0
  0
VERTEX
  8
0
 62
7
  6
CONTINUOUS
 10
168.3836304684
 20
201.3023183974
  0
VERTEX
  8
0
 62
7
  6
CONTINUOUS
 10
168.3904882826
 20
201.3206379798
  0
VERTEX
  8
0
 62
7
  6
CONTINUOUS
 10
168.4042324412
 20
201.3611077312
  0
VERTEX
  8
0
 62
7
  6
CONTINUOUS
 10
168.4151818823
 20
201.4010377161
  0
SEQEND
  0
POLYLINE
  8
0
 62
7
  6
CONTINUOUS
 66
1
 70
0
  0
VERTEX
  8
0
 62
7
  6
CONTINUOUS
 10
132.3675768355
 20
96.8809748357
  0
VERTEX
  8
0
 62
7
  6
CONTINUOUS
 10
132.3607190213
 20
96.8626552533
  0
VERTEX
  8
0
 62
7
  6
CONTINUOUS
 10
132.3469748628
 20
96.8221855018
  0
VERTEX
  8
0
 62
7
  6
CONTINUOUS
 10
132.3360254217
 20
96.782255517
  0
SEQEND
  0
POLYLINE
  8
0
 62
7
  6
CONTINUOUS
 66
1
 70
0
  0
VERTEX
  8
0
 62
7
  6
CONTINUOUS
 10
168.3836304684
 20
188.6023183974
  0
VERTEX
  8
0
 62
7
  6
CONTINUOUS
 10
168.3904882826
 20
188.6206379798
  0
VERTEX
  8
0
 62
7
  6
CONTINUOUS
 10
168.4042324412
 20
188.6611077312
  0
VERTEX
  8
0
 62
7
  6
CONTINUOUS
 10
168.4151818823
 20
188.7010377161
  0
SEQEND
  0
POLYLINE
  8
0
 62
7
  6
CONTINUOUS
 66
1
 70
0
  0
VERTEX
  8
0
 62
7
  6
CONTINUOUS
 10
132.3675768355
 20
84.1809748357
  0
VERTEX
  8
0
 62
7
  6
CONTINUOUS
 10
132.3607190213
 20
84.1626552533
  0
VERTEX
  8
0
 62
7
  6
CONTINUOUS
 10
132.3469748628
 20
84.1221855018
  0
VERTEX
  8
0
 62
7
  6
CONTINUOUS
 10
132.3360254217
 20
84.082255517
  0
SEQEND
  0
LINE
  8
0
 62
7
  6
CONTINUOUS
 10
132.3675361006
 20
122.2808685398
 11
132.3675768355
 21
122.2809748357
  0
LINE
  8
0
 62
7
  6
CONTINUOUS
 10
168.3836712033
 20
214.0024246933
 11
168.3836304684
 21
214.0023183974
  0
LINE
  8
0
 62
7
  6
CONTINUOUS
 10
132.3675361006
 20
109.5808685398
 11
132.3675768355
 21
109.5809748357
  0
LINE
  8
0
 62
7
  6
CONTINUOUS
 10
168.3836712033
 20
201.3024246933
 11
168.3836304684
 21
201.3023183974
  0
LINE
  8
0
 62
7
  6
CONTINUOUS
 10
132.3675361006
 20
96.8808685398
 11
132.3675768355
 21
96.8809748357
  0
LINE
  8
0
 62
7
  6
CONTINUOUS
 10
168.3836712033
 20
188.6024246933
 11
168.3836304684
 21
188.6023183974
  0
LINE
  8
0
 62
7
  6
CONTINUOUS
 10
132.3675361006
 20
84.1808685398
 11
132.3675768355
 21
84.1809748357
  0
POLYLINE
  8
0
 62
7
  6
CONTINUOUS
 66
1
 70
0
  0
VERTEX
  8
0
 62
7
  6
CONTINUOUS
 10
164.671882559
 20
123.7851473938
  0
VERTEX
  8
0
 62
7
  6
CONTINUOUS
 10
165.0834360821
 20
123.825214114
  0
VERTEX
  8
0
 62
7
  6
CONTINUOUS
 10
165.5512990224
 20
123.884147212
  0
VERTEX
  8
0
 62
7
  6
CONTINUOUS
 10
165.9976468395
 20
123.9555968218
  0
VERTEX
  8
0
 62
7
  6
CONTINUOUS
 10
166.4191680537
 20
124.0394565184
  0
VERTEX
  8
0
 62
7
  6
CONTINUOUS
 10
166.8124040552
 20
124.1357145894
  0
VERTEX
  8
0
 62
7
  6
CONTINUOUS
 10
167.1737946254
 20
124.244532075
  0
VERTEX
  8
0
 62
7
  6
CONTINUOUS
 10
167.498247833
 20
124.3657915437
  0
VERTEX
  8
0
 62
7
  6
CONTINUOUS
 10
167.7777078496
 20
124.4977823336
  0
VERTEX
  8
0
 62
7
  6
CONTINUOUS
 10
168.0075356607
 20
124.6389534514
  0
VERTEX
  8
0
 62
7
  6
CONTINUOUS
 10
168.1868822639
 20
124.7889054181
  0
VERTEX
  8
0
 62
7
  6
CONTINUOUS
 10
168.3161826414
 20
124.9477164683
  0
VERTEX
  8
0
 62
7
  6
CONTINUOUS
 10
168.3836648931
 20
125.080290704
  0
SEQEND
  0
POLYLINE
  8
0
 62
7
  6
CONTINUOUS
 66
1
 70
0
  0
VERTEX
  8
0
 62
7
  6
CONTINUOUS
 10
136.0793250394
 20
123.5760458667
  0
VERTEX
  8
0
 62
7
  6
CONTINUOUS
 10
135.6706390667
 20
123.5362948634
  0
VERTEX
  8
0
 62
7
  6
CONTINUOUS
 10
135.2043806843
 20
123.4776826017
  0
VERTEX
  8
0
 62
7
  6
CONTINUOUS
 10
134.7615281931
 20
123.4070178028
  0
VERTEX
  8
0
 62
7
  6
CONTINUOUS
 10
134.3428870276
 20
123.3241245789
  0
VERTEX
  8
0
 62
7
  6
CONTINUOUS
 10
133.9500075666
 20
123.2285079962
  0
VERTEX
  8
0
 62
7
  6
CONTINUOUS
 10
133.585334927
 20
123.1193061065
  0
VERTEX
  8
0
 62
7
  6
CONTINUOUS
 10
133.2549990505
 20
122.9962552462
  0
VERTEX
  8
0
 62
7
  6
CONTINUOUS
 10
132.9714938222
 20
122.8623343492
  0
VERTEX
  8
0
 62
7
  6
CONTINUOUS
 10
132.7417230227
 20
122.7208511864
  0
VERTEX
  8
0
 62
7
  6
CONTINUOUS
 10
132.5642787064
 20
122.5722414209
  0
VERTEX
  8
0
 62
7
  6
CONTINUOUS
 10
132.4362294065
 20
122.4153533361
  0
VERTEX
  8
0
 62
7
  6
CONTINUOUS
 10
132.3675325091
 20
122.2808699178
  0
SEQEND
  0
POLYLINE
  8
0
 62
7
  6
CONTINUOUS
 66
1
 70
0
  0
VERTEX
  8
0
 62
7
  6
CONTINUOUS
 10
164.6718822646
 20
136.5072473663
  0
VERTEX
  8
0
 62
7
  6
CONTINUOUS
 10
165.0805682373
 20
136.5469983697
  0
VERTEX
  8
0
 62
7
  6
CONTINUOUS
 10
165.5468266197
 20
136.6056106314
  0
VERTEX
  8
0
 62
7
  6
CONTINUOUS
 10
165.9896791109
 20
136.6762754303
  0
VERTEX
  8
0
 62
7
  6
CONTINUOUS
 10
166.4083202764
 20
136.7591686542
  0
VERTEX
  8
0
 62
7
  6
CONTINUOUS
 10
166.8011997374
 20
136.8547852369
  0
VERTEX
  8
0
 62
7
  6
CONTINUOUS
 10
167.165872377
 20
136.9639871266
  0
VERTEX
  8
0
 62
7
  6
CONTINUOUS
 10
167.4962082535
 20
137.0870379869
  0
VERTEX
  8
0
 62
7
  6
CONTINUOUS
 10
167.7797134818
 20
137.2209588839
  0
VERTEX
  8
0
 62
7
  6
CONTINUOUS
 10
168.0094842813
 20
137.3624420467
  0
VERTEX
  8
0
 62
7
  6
CONTINUOUS
 10
168.1869285976
 20
137.5110518122
  0
VERTEX
  8
0
 62
7
  6
CONTINUOUS
 10
168.3149778974
 20
137.667939897
  0
VERTEX
  8
0
 62
7
  6
CONTINUOUS
 10
168.3836747948
 20
137.8024233153
  0
SEQEND
  0
POLYLINE
  8
0
 62
7
  6
CONTINUOUS
 66
1
 70
0
  0
VERTEX
  8
0
 62
7
  6
CONTINUOUS
 10
136.0793250394
 20
136.2760458667
  0
VERTEX
  8
0
 62
7
  6
CONTINUOUS
 10
135.6706390667
 20
136.2362948634
  0
VERTEX
  8
0
 62
7
  6
CONTINUOUS
 10
135.2043806843
 20
136.1776826017
  0
VERTEX
  8
0
 62
7
  6
CONTINUOUS
 10
134.7615281931
 20
136.1070178028
  0
VERTEX
  8
0
 62
7
  6
CONTINUOUS
 10
134.3428870276
 20
136.0241245789
  0
VERTEX
  8
0
 62
7
  6
CONTINUOUS
 10
133.9500075666
 20
135.9285079962
  0
VERTEX
  8
0
 62
7
  6
CONTINUOUS
 10
133.585334927
 20
135.8193061065
  0
VERTEX
  8
0
 62
7
  6
CONTINUOUS
 10
133.2549990505
 20
135.6962552462
  0
VERTEX
  8
0
 62
7
  6
CONTINUOUS
 10
132.9714938222
 20
135.5623343492
  0
VERTEX
  8
0
 62
7
  6
CONTINUOUS
 10
132.7417230227
 20
135.4208511864
  0
VERTEX
  8
0
 62
7
  6
CONTINUOUS
 10
132.5642787064
 20
135.2722414209
  0
VERTEX
  8
0
 62
7
  6
CONTINUOUS
 10
132.4362294065
 20
135.1153533361
  0
VERTEX
  8
0
 62
7
  6
CONTINUOUS
 10
132.3675325091
 20
134.9808699178
  0
SEQEND
  0
POLYLINE
  8
0
 62
7
  6
CONTINUOUS
 66
1
 70
0
  0
VERTEX
  8
0
 62
7
  6
CONTINUOUS
 10
164.6548440196
 20
123.7844269
  0
VERTEX
  8
0
 62
7
  6
CONTINUOUS
 10
164.6677866289
 20
123.7848434193
  0
VERTEX
  8
0
 62
7
  6
CONTINUOUS
 10
164.6718620087
 20
123.7851476093
  0
SEQEND
  0
POLYLINE
  8
0
 62
7
  6
CONTINUOUS
 66
1
 70
0
  0
VERTEX
  8
0
 62
7
  6
CONTINUOUS
 10
136.0963629934
 20
123.5767662791
  0
VERTEX
  8
0
 62
7
  6
CONTINUOUS
 10
136.0834209665
 20
123.5763497978
  0
VERTEX
  8
0
 62
7
  6
CONTINUOUS
 10
136.079344225
 20
123.5760455056
  0
SEQEND
  0
POLYLINE
  8
0
 62
7
  6
CONTINUOUS
 66
1
 70
0
  0
VERTEX
  8
0
 62
7
  6
CONTINUOUS
 10
164.6548443106
 20
136.506526954
  0
VERTEX
  8
0
 62
7
  6
CONTINUOUS
 10
164.6677863375
 20
136.5069434353
  0
VERTEX
  8
0
 62
7
  6
CONTINUOUS
 10
164.6718630789
 20
136.5072477275
  0
SEQEND
  0
POLYLINE
  8
0
 62
7
  6
CONTINUOUS
 66
1
 70
0
  0
VERTEX
  8
0
 62
7
  6
CONTINUOUS
 10
136.0963629934
 20
136.2767662791
  0
VERTEX
  8
0
 62
7
  6
CONTINUOUS
 10
136.0834209665
 20
136.2763497978
  0
VERTEX
  8
0
 62
7
  6
CONTINUOUS
 10
136.079344225
 20
136.2760455056
  0
SEQEND
  0
LINE
  8
0
 62
7
  6
CONTINUOUS
 10
140.5365623258
 20
123.5767677237
 11
136.0963636118
 21
123.5767677237
  0
LINE
  8
0
 62
7
  6
CONTINUOUS
 10
160.1395188262
 20
123.7844255094
 11
164.6548439976
 21
123.7844255094
  0
LINE
  8
0
 62
7
  6
CONTINUOUS
 10
164.6548440034
 20
129.9268677237
 11
160.1395204517
 21
129.9268677237
  0
LINE
  8
0
 62
7
  6
CONTINUOUS
 10
136.0963636032
 20
130.1343255094
 11
140.5365618918
 21
130.1343255094
  0
LINE
  8
0
 62
7
  6
CONTINUOUS
 10
140.5365623258
 20
136.2767677237
 11
136.0963636118
 21
136.2767677237
  0
LINE
  8
DEFAULT_1
 62
2
  6
CENTER
 10
154.775603652
 20
136.3916466165
 11
152.375703652
 21
136.3916466165
  0
LINE
  8
0
 62
2
  6
CONTINUOUS
 10
151.255603652
 20
136.3916466165
 11
149.495603652
 21
136.3916466165
  0
LINE
  8
DEFAULT_1
 62
2
  6
CENTER
 10
145.975603652
 20
136.3916466165
 11
148.375503652
 21
136.3916466165
  0
LINE
  8
0
 62
7
  6
CONTINUOUS
 10
160.2146449782
 20
136.5065255094
 11
164.6548436922
 21
136.5065255094
  0
POLYLINE
  8
0
 62
7
  6
CONTINUOUS
 66
1
 70
0
  0
VERTEX
  8
0
 62
7
  6
CONTINUOUS
 10
140.5360766645
 20
130.1343260838
  0
VERTEX
  8
0
 62
7
  6
CONTINUOUS
 10
140.5458671356
 20
130.1340236876
  0
VERTEX
  8
0
 62
7
  6
CONTINUOUS
 10
140.5673787857
 20
130.1312166879
  0
VERTEX
  8
0
 62
7
  6
CONTINUOUS
 10
140.58908612
 20
130.1252575005
  0
VERTEX
  8
0
 62
7
  6
CONTINUOUS
 10
140.6103788224
 20
130.1159940438
  0
VERTEX
  8
0
 62
7
  6
CONTINUOUS
 10
140.6306151342
 20
130.1034022414
  0
VERTEX
  8
0
 62
7
  6
CONTINUOUS
 10
140.6491792704
 20
130.0875621023
  0
VERTEX
  8
0
 62
7
  6
CONTINUOUS
 10
140.665449736
 20
130.0686822178
  0
VERTEX
  8
0
 62
7
  6
CONTINUOUS
 10
140.6788273154
 20
130.0471097829
  0
VERTEX
  8
0
 62
7
  6
CONTINUOUS
 10
140.6887717237
 20
130.0233255471
  0
VERTEX
  8
0
 62
7
  6
CONTINUOUS
 10
140.6948305741
 20
129.9979458505
  0
VERTEX
  8
0
 62
7
  6
CONTINUOUS
 10
140.6966885826
 20
129.9737073578
  0
SEQEND
  0
POLYLINE
  8
0
 62
7
  6
CONTINUOUS
 66
1
 70
0
  0
VERTEX
  8
0
 62
7
  6
CONTINUOUS
 10
160.1398097477
 20
129.9268674309
  0
VERTEX
  8
0
 62
7
  6
CONTINUOUS
 10
160.1345745679
 20
129.9270301268
  0
VERTEX
  8
0
 62
7
  6
CONTINUOUS
 10
160.1193709991
 20
129.9293729123
  0
VERTEX
  8
0
 62
7
  6
CONTINUOUS
 10
160.1039266123
 20
129.9348309178
  0
VERTEX
  8
0
 62
7
  6
CONTINUOUS
 10
160.0890109158
 20
129.9437212707
  0
VERTEX
  8
0
 62
7
  6
CONTINUOUS
 10
160.0755129185
 20
129.9562160334
  0
VERTEX
  8
0
 62
7
  6
CONTINUOUS
 10
160.0644780051
 20
129.9722670984
  0
VERTEX
  8
0
 62
7
  6
CONTINUOUS
 10
160.0570805518
 20
129.9914935599
  0
VERTEX
  8
0
 62
7
  6
CONTINUOUS
 10
160.0545181278
 20
130.0121613689
  0
SEQEND
  0
POLYLINE
  8
0
 62
7
  6
CONTINUOUS
 66
1
 70
0
  0
VERTEX
  8
0
 62
7
  6
CONTINUOUS
 10
136.0793442242
 20
130.1350477258
  0
VERTEX
  8
0
 62
7
  6
CONTINUOUS
 10
136.083420968
 20
130.1347434335
  0
VERTEX
  8
0
 62
7
  6
CONTINUOUS
 10
136.096362987
 20
130.1343269527
  0
SEQEND
  0
POLYLINE
  8
0
 62
7
  6
CONTINUOUS
 66
1
 70
0
  0
VERTEX
  8
0
 62
7
  6
CONTINUOUS
 10
164.6718620203
 20
129.9261456255
  0
VERTEX
  8
0
 62
7
  6
CONTINUOUS
 10
164.6677866354
 20
129.926449816
  0
VERTEX
  8
0
 62
7
  6
CONTINUOUS
 10
164.6548440251
 20
129.9268663355
  0
SEQEND
  0
POLYLINE
  8
0
 62
7
  6
CONTINUOUS
 66
1
 70
0
  0
VERTEX
  8
0
 62
7
  6
CONTINUOUS
 10
132.367540167
 20
144.1522967864
  0
VERTEX
  8
0
 62
7
  6
CONTINUOUS
 10
132.4365794132
 20
144.0172968382
  0
VERTEX
  8
0
 62
7
  6
CONTINUOUS
 10
132.5664977036
 20
143.8587364127
  0
VERTEX
  8
0
 62
7
  6
CONTINUOUS
 10
132.7464438056
 20
143.7089849939
  0
VERTEX
  8
0
 62
7
  6
CONTINUOUS
 10
132.976876098
 20
143.567974889
  0
VERTEX
  8
0
 62
7
  6
CONTINUOUS
 10
133.2569278173
 20
143.4361320351
  0
VERTEX
  8
0
 62
7
  6
CONTINUOUS
 10
133.5819201925
 20
143.3150255732
  0
VERTEX
  8
0
 62
7
  6
CONTINUOUS
 10
133.9437646874
 20
143.2063708625
  0
VERTEX
  8
0
 62
7
  6
CONTINUOUS
 10
134.3373680942
 20
143.1102818694
  0
VERTEX
  8
0
 62
7
  6
CONTINUOUS
 10
134.7591795528
 20
143.0265938271
  0
VERTEX
  8
0
 62
7
  6
CONTINUOUS
 10
135.2057577015
 20
142.9553149329
  0
VERTEX
  8
0
 62
7
  6
CONTINUOUS
 10
135.6738136942
 20
142.8965494659
  0
VERTEX
  8
0
 62
7
  6
CONTINUOUS
 10
136.0793248165
 20
142.8571473879
  0
SEQEND
  0
POLYLINE
  8
0
 62
7
  6
CONTINUOUS
 66
1
 70
0
  0
VERTEX
  8
0
 62
7
  6
CONTINUOUS
 10
168.3836671369
 20
77.8309964467
  0
VERTEX
  8
0
 62
7
  6
CONTINUOUS
 10
168.3146278908
 20
77.9659963949
  0
VERTEX
  8
0
 62
7
  6
CONTINUOUS
 10
168.1847096004
 20
78.1245568204
  0
VERTEX
  8
0
 62
7
  6
CONTINUOUS
 10
168.0047634984
 20
78.2743082391
  0
VERTEX
  8
0
 62
7
  6
CONTINUOUS
 10
167.774331206
 20
78.415318344
  0
VERTEX
  8
0
 62
7
  6
CONTINUOUS
 10
167.4942794867
 20
78.547161198
  0
VERTEX
  8
0
 62
7
  6
CONTINUOUS
 10
167.1692871115
 20
78.6682676599
  0
VERTEX
  8
0
 62
7
  6
CONTINUOUS
 10
166.8074426166
 20
78.7769223706
  0
VERTEX
  8
0
 62
7
  6
CONTINUOUS
 10
166.4138392097
 20
78.8730113637
  0
VERTEX
  8
0
 62
7
  6
CONTINUOUS
 10
165.9920277512
 20
78.956699406
  0
VERTEX
  8
0
 62
7
  6
CONTINUOUS
 10
165.5454496025
 20
79.0279783002
  0
VERTEX
  8
0
 62
7
  6
CONTINUOUS
 10
165.0773936098
 20
79.0867437672
  0
VERTEX
  8
0
 62
7
  6
CONTINUOUS
 10
164.6718824875
 20
79.1261458452
  0
SEQEND
  0
POLYLINE
  8
0
 62
7
  6
CONTINUOUS
 66
1
 70
0
  0
VERTEX
  8
0
 62
7
  6
CONTINUOUS
 10
132.367540167
 20
156.8522967864
  0
VERTEX
  8
0
 62
7
  6
CONTINUOUS
 10
132.4365794132
 20
156.7172968382
  0
VERTEX
  8
0
 62
7
  6
CONTINUOUS
 10
132.5664977036
 20
156.5587364127
  0
VERTEX
  8
0
 62
7
  6
CONTINUOUS
 10
132.7464438056
 20
156.4089849939
  0
VERTEX
  8
0
 62
7
  6
CONTINUOUS
 10
132.976876098
 20
156.267974889
  0
VERTEX
  8
0
 62
7
  6
CONTINUOUS
 10
133.2569278173
 20
156.1361320351
  0
VERTEX
  8
0
 62
7
  6
CONTINUOUS
 10
133.5819201925
 20
156.0150255732
  0
VERTEX
  8
0
 62
7
  6
CONTINUOUS
 10
133.9437646874
 20
155.9063708625
  0
VERTEX
  8
0
 62
7
  6
CONTINUOUS
 10
134.3373680942
 20
155.8102818694
  0
VERTEX
  8
0
 62
7
  6
CONTINUOUS
 10
134.7591795528
 20
155.7265938271
  0
VERTEX
  8
0
 62
7
  6
CONTINUOUS
 10
135.2057577015
 20
155.6553149329
  0
VERTEX
  8
0
 62
7
  6
CONTINUOUS
 10
135.6738136942
 20
155.5965494659
  0
VERTEX
  8
0
 62
7
  6
CONTINUOUS
 10
136.0793248165
 20
155.5571473879
  0
SEQEND
  0
POLYLINE
  8
0
 62
7
  6
CONTINUOUS
 66
1
 70
0
  0
VERTEX
  8
0
 62
7
  6
CONTINUOUS
 10
168.3836671369
 20
90.5309964467
  0
VERTEX
  8
0
 62
7
  6
CONTINUOUS
 10
168.3146278908
 20
90.6659963949
  0
VERTEX
  8
0
 62
7
  6
CONTINUOUS
 10
168.1847096004
 20
90.8245568204
  0
VERTEX
  8
0
 62
7
  6
CONTINUOUS
 10
168.0047634984
 20
90.9743082391
  0
VERTEX
  8
0
 62
7
  6
CONTINUOUS
 10
167.774331206
 20
91.115318344
  0
VERTEX
  8
0
 62
7
  6
CONTINUOUS
 10
167.4942794867
 20
91.247161198
  0
VERTEX
  8
0
 62
7
  6
CONTINUOUS
 10
167.1692871115
 20
91.3682676599
  0
VERTEX
  8
0
 62
7
  6
CONTINUOUS
 10
166.8074426166
 20
91.4769223706
  0
VERTEX
  8
0
 62
7
  6
CONTINUOUS
 10
166.4138392097
 20
91.5730113637
  0
VERTEX
  8
0
 62
7
  6
CONTINUOUS
 10
165.9920277512
 20
91.656699406
  0
VERTEX
  8
0
 62
7
  6
CONTINUOUS
 10
165.5454496025
 20
91.7279783002
  0
VERTEX
  8
0
 62
7
  6
CONTINUOUS
 10
165.0773936098
 20
91.7867437672
  0
VERTEX
  8
0
 62
7
  6
CONTINUOUS
 10
164.6718824875
 20
91.8261458452
  0
SEQEND
  0
POLYLINE
  8
0
 62
7
  6
CONTINUOUS
 66
1
 70
0
  0
VERTEX
  8
0
 62
7
  6
CONTINUOUS
 10
132.367540167
 20
169.5522967864
  0
VERTEX
  8
0
 62
7
  6
CONTINUOUS
 10
132.4365794132
 20
169.4172968382
  0
VERTEX
  8
0
 62
7
  6
CONTINUOUS
 10
132.5664977036
 20
169.2587364127
  0
VERTEX
  8
0
 62
7
  6
CONTINUOUS
 10
132.7464438056
 20
169.1089849939
  0
VERTEX
  8
0
 62
7
  6
CONTINUOUS
 10
132.976876098
 20
168.967974889
  0
VERTEX
  8
0
 62
7
  6
CONTINUOUS
 10
133.2569278173
 20
168.8361320351
  0
VERTEX
  8
0
 62
7
  6
CONTINUOUS
 10
133.5819201925
 20
168.7150255732
  0
VERTEX
  8
0
 62
7
  6
CONTINUOUS
 10
133.9437646874
 20
168.6063708625
  0
VERTEX
  8
0
 62
7
  6
CONTINUOUS
 10
134.3373680942
 20
168.5102818694
  0
VERTEX
  8
0
 62
7
  6
CONTINUOUS
 10
134.7591795528
 20
168.4265938271
  0
VERTEX
  8
0
 62
7
  6
CONTINUOUS
 10
135.2057577015
 20
168.3553149329
  0
VERTEX
  8
0
 62
7
  6
CONTINUOUS
 10
135.6738136942
 20
168.2965494659
  0
VERTEX
  8
0
 62
7
  6
CONTINUOUS
 10
136.0793248165
 20
168.2571473879
  0
SEQEND
  0
POLYLINE
  8
0
 62
7
  6
CONTINUOUS
 66
1
 70
0
  0
VERTEX
  8
0
 62
7
  6
CONTINUOUS
 10
168.3836671369
 20
103.2309964467
  0
VERTEX
  8
0
 62
7
  6
CONTINUOUS
 10
168.3146278908
 20
103.3659963949
  0
VERTEX
  8
0
 62
7
  6
CONTINUOUS
 10
168.1847096004
 20
103.5245568204
  0
VERTEX
  8
0
 62
7
  6
CONTINUOUS
 10
168.0047634984
 20
103.6743082391
  0
VERTEX
  8
0
 62
7
  6
CONTINUOUS
 10
167.774331206
 20
103.815318344
  0
VERTEX
  8
0
 62
7
  6
CONTINUOUS
 10
167.4942794867
 20
103.947161198
  0
VERTEX
  8
0
 62
7
  6
CONTINUOUS
 10
167.1692871115
 20
104.0682676599
  0
VERTEX
  8
0
 62
7
  6
CONTINUOUS
 10
166.8074426166
 20
104.1769223706
  0
VERTEX
  8
0
 62
7
  6
CONTINUOUS
 10
166.4138392097
 20
104.2730113637
  0
VERTEX
  8
0
 62
7
  6
CONTINUOUS
 10
165.9920277512
 20
104.356699406
  0
VERTEX
  8
0
 62
7
  6
CONTINUOUS
 10
165.5454496025
 20
104.4279783002
  0
VERTEX
  8
0
 62
7
  6
CONTINUOUS
 10
165.0773936098
 20
104.4867437672
  0
VERTEX
  8
0
 62
7
  6
CONTINUOUS
 10
164.6718824875
 20
104.5261458452
  0
SEQEND
  0
LINE
  8
0
 62
7
  6
CONTINUOUS
 10
132.367577708
 20
144.1522161225
 11
132.3675459406
 21
144.1522990019
  0
LINE
  8
0
 62
7
  6
CONTINUOUS
 10
168.383629596
 20
52.4310771106
 11
168.3836613633
 21
52.4309942312
  0
LINE
  8
0
 62
7
  6
CONTINUOUS
 10
132.367577708
 20
156.8522161225
 11
132.3675459406
 21
156.8522990019
  0
LINE
  8
0
 62
7
  6
CONTINUOUS
 10
168.383629596
 20
65.1310771106
 11
168.3836613633
 21
65.1309942312
  0
LINE
  8
0
 62
7
  6
CONTINUOUS
 10
132.367577708
 20
169.5522161225
 11
132.3675459406
 21
169.5522990019
  0
LINE
  8
0
 62
7
  6
CONTINUOUS
 10
168.383629596
 20
77.8310771106
 11
168.3836613633
 21
77.8309942312
  0
LINE
  8
0
 62
7
  6
CONTINUOUS
 10
132.367577708
 20
182.2522161225
 11
132.3675459406
 21
182.2522990019
  0
LINE
  8
0
 62
7
  6
CONTINUOUS
 10
168.383629596
 20
90.5310771106
 11
168.3836613633
 21
90.5309942312
  0
LINE
  8
0
 62
7
  6
CONTINUOUS
 10
132.3605984331
 20
144.1708681228
 11
132.367577708
 21
144.1522161225
  0
LINE
  8
0
 62
7
  6
CONTINUOUS
 10
168.3906088709
 20
52.4124251102
 11
168.383629596
 21
52.4310771106
  0
LINE
  8
0
 62
7
  6
CONTINUOUS
 10
132.3605984331
 20
156.8708681228
 11
132.367577708
 21
156.8522161225
  0
LINE
  8
0
 62
7
  6
CONTINUOUS
 10
168.3906088709
 20
65.1124251102
 11
168.383629596
 21
65.1310771106
  0
LINE
  8
0
 62
7
  6
CONTINUOUS
 10
132.3605984331
 20
169.5708681228
 11
132.367577708
 21
169.5522161225
  0
LINE
  8
0
 62
7
  6
CONTINUOUS
 10
168.3906088709
 20
77.8124251102
 11
168.383629596
 21
77.8310771106
  0
LINE
  8
0
 62
7
  6
CONTINUOUS
 10
132.3605984331
 20
182.2708681228
 11
132.367577708
 21
182.2522161225
  0
LINE
  8
0
 62
7
  6
CONTINUOUS
 10
168.3906088709
 20
90.5124251102
 11
168.383629596
 21
90.5310771106
  0
POLYLINE
  8
0
 62
7
  6
CONTINUOUS
 66
1
 70
0
  0
VERTEX
  8
0
 62
7
  6
CONTINUOUS
 10
168.4256036088
 20
141.1699449782
  0
VERTEX
  8
0
 62
7
  6
CONTINUOUS
 10
168.4230983507
 20
141.2103775333
  0
VERTEX
  8
0
 62
7
  6
CONTINUOUS
 10
168.4153724347
 20
141.2536388292
  0
VERTEX
  8
0
 62
7
  6
CONTINUOUS
 10
168.4045897888
 20
141.2932352628
  0
VERTEX
  8
0
 62
7
  6
CONTINUOUS
 10
168.3910655243
 20
141.3332706139
  0
SEQEND
  0
POLYLINE
  8
0
 62
7
  6
CONTINUOUS
 66
1
 70
0
  0
VERTEX
  8
0
 62
7
  6
CONTINUOUS
 10
168.4256036088
 20
153.8699449782
  0
VERTEX
  8
0
 62
7
  6
CONTINUOUS
 10
168.4230983507
 20
153.9103775333
  0
VERTEX
  8
0
 62
7
  6
CONTINUOUS
 10
168.4153724347
 20
153.9536388292
  0
VERTEX
  8
0
 62
7
  6
CONTINUOUS
 10
168.4045897888
 20
153.9932352628
  0
VERTEX
  8
0
 62
7
  6
CONTINUOUS
 10
168.3910655243
 20
154.0332706139
  0
SEQEND
  0
POLYLINE
  8
0
 62
7
  6
CONTINUOUS
 66
1
 70
0
  0
VERTEX
  8
0
 62
7
  6
CONTINUOUS
 10
168.4256036015
 20
52.2478524468
  0
VERTEX
  8
0
 62
7
  6
CONTINUOUS
 10
168.4232376788
 20
52.2871112788
  0
VERTEX
  8
0
 62
7
  6
CONTINUOUS
 10
168.4154247948
 20
52.3313093799
  0
VERTEX
  8
0
 62
7
  6
CONTINUOUS
 10
168.4044336747
 20
52.3716381973
  0
VERTEX
  8
0
 62
7
  6
CONTINUOUS
 10
168.3906088709
 20
52.4124251102
  0
SEQEND
  0
POLYLINE
  8
0
 62
7
  6
CONTINUOUS
 66
1
 70
0
  0
VERTEX
  8
0
 62
7
  6
CONTINUOUS
 10
168.4256036015
 20
64.9478524468
  0
VERTEX
  8
0
 62
7
  6
CONTINUOUS
 10
168.4232376788
 20
64.9871112788
  0
VERTEX
  8
0
 62
7
  6
CONTINUOUS
 10
168.4154247948
 20
65.0313093799
  0
VERTEX
  8
0
 62
7
  6
CONTINUOUS
 10
168.4044336747
 20
65.0716381973
  0
VERTEX
  8
0
 62
7
  6
CONTINUOUS
 10
168.3906088709
 20
65.1124251102
  0
SEQEND
  0
POLYLINE
  8
0
 62
7
  6
CONTINUOUS
 66
1
 70
0
  0
VERTEX
  8
0
 62
7
  6
CONTINUOUS
 10
168.4256036015
 20
77.6478524468
  0
VERTEX
  8
0
 62
7
  6
CONTINUOUS
 10
168.4232376788
 20
77.6871112788
  0
VERTEX
  8
0
 62
7
  6
CONTINUOUS
 10
168.4154247948
 20
77.7313093799
  0
VERTEX
  8
0
 62
7
  6
CONTINUOUS
 10
168.4044336747
 20
77.7716381973
  0
VERTEX
  8
0
 62
7
  6
CONTINUOUS
 10
168.3906088709
 20
77.8124251102
  0
SEQEND
  0
POLYLINE
  8
0
 62
7
  6
CONTINUOUS
 66
1
 70
0
  0
VERTEX
  8
0
 62
7
  6
CONTINUOUS
 10
168.4256036015
 20
90.3478524468
  0
VERTEX
  8
0
 62
7
  6
CONTINUOUS
 10
168.4232376788
 20
90.3871112788
  0
VERTEX
  8
0
 62
7
  6
CONTINUOUS
 10
168.4154247948
 20
90.4313093799
  0
VERTEX
  8
0
 62
7
  6
CONTINUOUS
 10
168.4044336747
 20
90.4716381973
  0
VERTEX
  8
0
 62
7
  6
CONTINUOUS
 10
168.3906088709
 20
90.5124251102
  0
SEQEND
  0
POLYLINE
  8
0
 62
7
  6
CONTINUOUS
 66
1
 70
0
  0
VERTEX
  8
0
 62
7
  6
CONTINUOUS
 10
168.4256036015
 20
103.0478524468
  0
VERTEX
  8
0
 62
7
  6
CONTINUOUS
 10
168.4232376788
 20
103.0871112788
  0
VERTEX
  8
0
 62
7
  6
CONTINUOUS
 10
168.4154247948
 20
103.1313093799
  0
VERTEX
  8
0
 62
7
  6
CONTINUOUS
 10
168.4044336747
 20
103.1716381973
  0
VERTEX
  8
0
 62
7
  6
CONTINUOUS
 10
168.3906088709
 20
103.2124251102
  0
SEQEND
  0
POLYLINE
  8
0
 62
7
  6
CONTINUOUS
 66
1
 70
0
  0
VERTEX
  8
0
 62
7
  6
CONTINUOUS
 10
168.4256036015
 20
115.7478524468
  0
VERTEX
  8
0
 62
7
  6
CONTINUOUS
 10
168.4232376788
 20
115.7871112788
  0
VERTEX
  8
0
 62
7
  6
CONTINUOUS
 10
168.4154247948
 20
115.8313093799
  0
VERTEX
  8
0
 62
7
  6
CONTINUOUS
 10
168.4044336747
 20
115.8716381973
  0
VERTEX
  8
0
 62
7
  6
CONTINUOUS
 10
168.3906088709
 20
115.9124251102
  0
SEQEND
  0
POLYLINE
  8
0
 62
7
  6
CONTINUOUS
 66
1
 70
0
  0
VERTEX
  8
0
 62
7
  6
CONTINUOUS
 10
168.4256036015
 20
128.4478524468
  0
VERTEX
  8
0
 62
7
  6
CONTINUOUS
 10
168.4232376788
 20
128.4871112788
  0
VERTEX
  8
0
 62
7
  6
CONTINUOUS
 10
168.4154247948
 20
128.5313093799
  0
VERTEX
  8
0
 62
7
  6
CONTINUOUS
 10
168.4044336747
 20
128.5716381973
  0
VERTEX
  8
0
 62
7
  6
CONTINUOUS
 10
168.3906088709
 20
128.6124251102
  0
SEQEND
  0
LINE
  8
0
 62
7
  6
CONTINUOUS
 10
160.0545182052
 20
224.9916466165
 11
160.0545182052
 21
219.0090944406
  0
LINE
  8
0
 62
7
  6
CONTINUOUS
 10
160.0545182052
 20
212.5463990891
 11
160.0545182052
 21
206.3090944406
  0
LINE
  8
0
 62
7
  6
CONTINUOUS
 10
160.0545182052
 20
199.8463990891
 11
160.0545182052
 21
193.6090944406
  0
LINE
  8
0
 62
7
  6
CONTINUOUS
 10
160.0545182052
 20
187.1463990891
 11
160.0545182052
 21
180.9090944406
  0
LINE
  8
0
 62
7
  6
CONTINUOUS
 10
160.0545182052
 20
174.4463990891
 11
160.0545182052
 21
168.2090944406
  0
LINE
  8
0
 62
7
  6
CONTINUOUS
 10
160.0545182052
 20
161.7463990891
 11
160.0545182052
 21
155.5090944406
  0
LINE
  8
0
 62
7
  6
CONTINUOUS
 10
160.0545182052
 20
149.0463990891
 11
160.0545182052
 21
142.8090944406
  0
LINE
  8
0
 62
7
  6
CONTINUOUS
 10
160.0545182052
 20
136.3470391753
 11
160.0545182052
 21
130.0118698993
  0
LINE
  8
0
 62
7
  6
CONTINUOUS
 10
160.0545182052
 20
123.6994249568
 11
160.0545182052
 21
117.3118698993
  0
LINE
  8
0
 62
7
  6
CONTINUOUS
 10
160.0545182052
 20
110.9994249568
 11
160.0545182052
 21
104.6118698993
  0
LINE
  8
0
 62
7
  6
CONTINUOUS
 10
160.0545182052
 20
98.2994249568
 11
160.0545182052
 21
91.9118698993
  0
LINE
  8
0
 62
7
  6
CONTINUOUS
 10
160.0545182052
 20
85.5994249568
 11
160.0545182052
 21
79.2118698993
  0
LINE
  8
0
 62
7
  6
CONTINUOUS
 10
160.0545182052
 20
72.8994249568
 11
160.0545182052
 21
66.5118698993
  0
LINE
  8
0
 62
7
  6
CONTINUOUS
 10
160.0545182052
 20
60.1994249568
 11
160.0545182052
 21
53.8118698993
  0
LINE
  8
0
 62
7
  6
CONTINUOUS
 10
160.0545182052
 20
47.4994249568
 11
160.0545182052
 21
41.4416466165
  0
LINE
  8
DEFAULT_1
 62
2
  6
CENTER
 10
163.075603652
 20
46.1513016582
 11
163.075603652
 21
220.2820915749
  0
LINE
  8
0
 62
7
  6
CONTINUOUS
 10
168.4256036274
 20
128.4478478514
 11
168.425603652
 21
125.2631677952
  0
LINE
  8
0
 62
7
  6
CONTINUOUS
 10
168.4256036274
 20
115.7478478514
 11
168.425603652
 21
112.5631677952
  0
LINE
  8
0
 62
7
  6
CONTINUOUS
 10
168.4256036274
 20
103.0478478514
 11
168.425603652
 21
99.8631677952
  0
LINE
  8
0
 62
7
  6
CONTINUOUS
 10
168.4256036274
 20
90.3478478514
 11
168.425603652
 21
87.1631677952
  0
LINE
  8
0
 62
7
  6
CONTINUOUS
 10
168.4256036274
 20
77.6478478514
 11
168.425603652
 21
74.4631677952
  0
LINE
  8
0
 62
7
  6
CONTINUOUS
 10
168.4256036274
 20
64.9478478514
 11
168.425603652
 21
61.7631677952
  0
LINE
  8
0
 62
7
  6
CONTINUOUS
 10
168.4256036274
 20
52.2478478514
 11
168.425603652
 21
49.0631677952
  0
LINE
  8
0
 62
7
  6
CONTINUOUS
 10
168.425603652
 20
137.9852664683
 11
168.425603652
 21
141.1702267701
  0
LINE
  8
0
 62
7
  6
CONTINUOUS
 10
168.425603652
 20
150.6852664683
 11
168.425603652
 21
153.8702267701
  0
LINE
  8
0
 62
7
  6
CONTINUOUS
 10
168.425603652
 20
163.3852664683
 11
168.425603652
 21
166.5702267701
  0
LINE
  8
0
 62
7
  6
CONTINUOUS
 10
168.425603652
 20
176.0852664683
 11
168.425603652
 21
179.2702267701
  0
LINE
  8
0
 62
7
  6
CONTINUOUS
 10
168.425603652
 20
188.7852664683
 11
168.425603652
 21
191.9702267701
  0
LINE
  8
0
 62
7
  6
CONTINUOUS
 10
168.425603652
 20
201.4852664683
 11
168.425603652
 21
204.6702267701
  0
LINE
  8
0
 62
7
  6
CONTINUOUS
 10
168.425603652
 20
214.1852664683
 11
168.425603652
 21
217.3702267701
  0
POLYLINE
  8
0
 62
7
  6
CONTINUOUS
 66
1
 70
0
  0
VERTEX
  8
0
 62
7
  6
CONTINUOUS
 10
160.0545187908
 20
136.3459091678
  0
VERTEX
  8
0
 62
7
  6
CONTINUOUS
 10
160.0573111072
 20
136.3755873724
  0
VERTEX
  8
0
 62
7
  6
CONTINUOUS
 10
160.0662617009
 20
136.4059927134
  0
VERTEX
  8
0
 62
7
  6
CONTINUOUS
 10
160.0807352837
 20
136.433643858
  0
VERTEX
  8
0
 62
7
  6
CONTINUOUS
 10
160.0997747743
 20
136.4574783342
  0
VERTEX
  8
0
 62
7
  6
CONTINUOUS
 10
160.1222210736
 20
136.476775868
  0
VERTEX
  8
0
 62
7
  6
CONTINUOUS
 10
160.1468206265
 20
136.4911760762
  0
VERTEX
  8
0
 62
7
  6
CONTINUOUS
 10
160.1723345274
 20
136.500670246
  0
VERTEX
  8
0
 62
7
  6
CONTINUOUS
 10
160.1975951807
 20
136.5055552056
  0
VERTEX
  8
0
 62
7
  6
CONTINUOUS
 10
160.2151302643
 20
136.5065260757
  0
SEQEND
  0
POLYLINE
  8
0
 62
7
  6
CONTINUOUS
 66
1
 70
0
  0
VERTEX
  8
0
 62
7
  6
CONTINUOUS
 10
160.0545187909
 20
212.5459090524
  0
VERTEX
  8
0
 62
7
  6
CONTINUOUS
 10
160.0573305804
 20
212.575689933
  0
VERTEX
  8
0
 62
7
  6
CONTINUOUS
 10
160.0662968984
 20
212.6060794721
  0
VERTEX
  8
0
 62
7
  6
CONTINUOUS
 10
160.0807805133
 20
212.6337129661
  0
VERTEX
  8
0
 62
7
  6
CONTINUOUS
 10
160.0998245722
 20
212.657529794
  0
VERTEX
  8
0
 62
7
  6
CONTINUOUS
 10
160.122270712
 20
212.6768111547
  0
VERTEX
  8
0
 62
7
  6
CONTINUOUS
 10
160.146866398
 20
212.691197671
  0
VERTEX
  8
0
 62
7
  6
CONTINUOUS
 10
160.1723737563
 20
212.7006811571
  0
VERTEX
  8
0
 62
7
  6
CONTINUOUS
 10
160.1976262506
 20
212.7055586494
  0
VERTEX
  8
0
 62
7
  6
CONTINUOUS
 10
160.2151302633
 20
212.7065260757
  0
SEQEND
  0
POLYLINE
  8
0
 62
7
  6
CONTINUOUS
 66
1
 70
0
  0
VERTEX
  8
0
 62
7
  6
CONTINUOUS
 10
160.0545187909
 20
199.8459090524
  0
VERTEX
  8
0
 62
7
  6
CONTINUOUS
 10
160.0573305804
 20
199.875689933
  0
VERTEX
  8
0
 62
7
  6
CONTINUOUS
 10
160.0662968984
 20
199.9060794721
  0
VERTEX
  8
0
 62
7
  6
CONTINUOUS
 10
160.0807805133
 20
199.9337129661
  0
VERTEX
  8
0
 62
7
  6
CONTINUOUS
 10
160.0998245722
 20
199.957529794
  0
VERTEX
  8
0
 62
7
  6
CONTINUOUS
 10
160.122270712
 20
199.9768111547
  0
VERTEX
  8
0
 62
7
  6
CONTINUOUS
 10
160.146866398
 20
199.991197671
  0
VERTEX
  8
0
 62
7
  6
CONTINUOUS
 10
160.1723737563
 20
200.0006811571
  0
VERTEX
  8
0
 62
7
  6
CONTINUOUS
 10
160.1976262506
 20
200.0055586494
  0
VERTEX
  8
0
 62
7
  6
CONTINUOUS
 10
160.2151302633
 20
200.0065260757
  0
SEQEND
  0
POLYLINE
  8
0
 62
7
  6
CONTINUOUS
 66
1
 70
0
  0
VERTEX
  8
0
 62
7
  6
CONTINUOUS
 10
160.0545187909
 20
187.1459090524
  0
VERTEX
  8
0
 62
7
  6
CONTINUOUS
 10
160.0573305804
 20
187.175689933
  0
VERTEX
  8
0
 62
7
  6
CONTINUOUS
 10
160.0662968984
 20
187.2060794721
  0
VERTEX
  8
0
 62
7
  6
CONTINUOUS
 10
160.0807805133
 20
187.2337129661
  0
VERTEX
  8
0
 62
7
  6
CONTINUOUS
 10
160.0998245722
 20
187.257529794
  0
VERTEX
  8
0
 62
7
  6
CONTINUOUS
 10
160.122270712
 20
187.2768111547
  0
VERTEX
  8
0
 62
7
  6
CONTINUOUS
 10
160.146866398
 20
187.291197671
  0
VERTEX
  8
0
 62
7
  6
CONTINUOUS
 10
160.1723737563
 20
187.3006811571
  0
VERTEX
  8
0
 62
7
  6
CONTINUOUS
 10
160.1976262506
 20
187.3055586494
  0
VERTEX
  8
0
 62
7
  6
CONTINUOUS
 10
160.2151302633
 20
187.3065260757
  0
SEQEND
  0
POLYLINE
  8
0
 62
7
  6
CONTINUOUS
 66
1
 70
0
  0
VERTEX
  8
0
 62
7
  6
CONTINUOUS
 10
160.0545187909
 20
174.4459090524
  0
VERTEX
  8
0
 62
7
  6
CONTINUOUS
 10
160.0573305804
 20
174.475689933
  0
VERTEX
  8
0
 62
7
  6
CONTINUOUS
 10
160.0662968984
 20
174.5060794721
  0
VERTEX
  8
0
 62
7
  6
CONTINUOUS
 10
160.0807805133
 20
174.5337129661
  0
VERTEX
  8
0
 62
7
  6
CONTINUOUS
 10
160.0998245722
 20
174.557529794
  0
VERTEX
  8
0
 62
7
  6
CONTINUOUS
 10
160.122270712
 20
174.5768111547
  0
VERTEX
  8
0
 62
7
  6
CONTINUOUS
 10
160.146866398
 20
174.591197671
  0
VERTEX
  8
0
 62
7
  6
CONTINUOUS
 10
160.1723737563
 20
174.6006811571
  0
VERTEX
  8
0
 62
7
  6
CONTINUOUS
 10
160.1976262506
 20
174.6055586494
  0
VERTEX
  8
0
 62
7
  6
CONTINUOUS
 10
160.2151302633
 20
174.6065260757
  0
SEQEND
  0
POLYLINE
  8
0
 62
7
  6
CONTINUOUS
 66
1
 70
0
  0
VERTEX
  8
0
 62
7
  6
CONTINUOUS
 10
160.0545187909
 20
161.7459090524
  0
VERTEX
  8
0
 62
7
  6
CONTINUOUS
 10
160.0573305804
 20
161.775689933
  0
VERTEX
  8
0
 62
7
  6
CONTINUOUS
 10
160.0662968984
 20
161.8060794721
  0
VERTEX
  8
0
 62
7
  6
CONTINUOUS
 10
160.0807805133
 20
161.8337129661
  0
VERTEX
  8
0
 62
7
  6
CONTINUOUS
 10
160.0998245722
 20
161.857529794
  0
VERTEX
  8
0
 62
7
  6
CONTINUOUS
 10
160.122270712
 20
161.8768111547
  0
VERTEX
  8
0
 62
7
  6
CONTINUOUS
 10
160.146866398
 20
161.891197671
  0
VERTEX
  8
0
 62
7
  6
CONTINUOUS
 10
160.1723737563
 20
161.9006811571
  0
VERTEX
  8
0
 62
7
  6
CONTINUOUS
 10
160.1976262506
 20
161.9055586494
  0
VERTEX
  8
0
 62
7
  6
CONTINUOUS
 10
160.2151302633
 20
161.9065260757
  0
SEQEND
  0
POLYLINE
  8
0
 62
7
  6
CONTINUOUS
 66
1
 70
0
  0
VERTEX
  8
0
 62
7
  6
CONTINUOUS
 10
160.0545187909
 20
149.0459090524
  0
VERTEX
  8
0
 62
7
  6
CONTINUOUS
 10
160.0573305804
 20
149.075689933
  0
VERTEX
  8
0
 62
7
  6
CONTINUOUS
 10
160.0662968984
 20
149.1060794721
  0
VERTEX
  8
0
 62
7
  6
CONTINUOUS
 10
160.0807805133
 20
149.1337129661
  0
VERTEX
  8
0
 62
7
  6
CONTINUOUS
 10
160.0998245722
 20
149.157529794
  0
VERTEX
  8
0
 62
7
  6
CONTINUOUS
 10
160.122270712
 20
149.1768111547
  0
VERTEX
  8
0
 62
7
  6
CONTINUOUS
 10
160.146866398
 20
149.191197671
  0
VERTEX
  8
0
 62
7
  6
CONTINUOUS
 10
160.1723737563
 20
149.2006811571
  0
VERTEX
  8
0
 62
7
  6
CONTINUOUS
 10
160.1976262506
 20
149.2055586494
  0
VERTEX
  8
0
 62
7
  6
CONTINUOUS
 10
160.2151302633
 20
149.2065260757
  0
SEQEND
  0
POLYLINE
  8
0
 62
7
  6
CONTINUOUS
 66
1
 70
0
  0
VERTEX
  8
0
 62
7
  6
CONTINUOUS
 10
160.0545182052
 20
41.4416466165
  0
VERTEX
  8
0
 62
7
  6
CONTINUOUS
 10
160.0496641912
 20
41.3926216681
  0
VERTEX
  8
0
 62
7
  6
CONTINUOUS
 10
160.0353544206
 20
41.3456536915
  0
VERTEX
  8
0
 62
7
  6
CONTINUOUS
 10
160.0122110411
 20
41.3024931548
  0
VERTEX
  8
0
 62
7
  6
CONTINUOUS
 10
159.9811469849
 20
41.2647221293
  0
VERTEX
  8
0
 62
7
  6
CONTINUOUS
 10
159.9433309441
 20
41.233725902
  0
VERTEX
  8
0
 62
7
  6
CONTINUOUS
 10
159.9001586992
 20
41.2106641585
  0
VERTEX
  8
0
 62
7
  6
CONTINUOUS
 10
159.85322506
 20
41.1964372319
  0
VERTEX
  8
0
 62
7
  6
CONTINUOUS
 10
159.8045182052
 20
41.1916466165
  0
SEQEND
  0
POLYLINE
  8
0
 62
7
  6
CONTINUOUS
 66
1
 70
0
  0
VERTEX
  8
0
 62
7
  6
CONTINUOUS
 10
160.0545181336
 20
123.6991333855
  0
VERTEX
  8
0
 62
7
  6
CONTINUOUS
 10
160.0571358368
 20
123.7200197272
  0
VERTEX
  8
0
 62
7
  6
CONTINUOUS
 10
160.0646489714
 20
123.7393475914
  0
VERTEX
  8
0
 62
7
  6
CONTINUOUS
 10
160.0758180658
 20
123.7554267673
  0
VERTEX
  8
0
 62
7
  6
CONTINUOUS
 10
160.0894781974
 20
123.7679175882
  0
VERTEX
  8
0
 62
7
  6
CONTINUOUS
 10
160.1046257658
 20
123.7767846036
  0
VERTEX
  8
0
 62
7
  6
CONTINUOUS
 10
160.1204048565
 20
123.7821706427
  0
VERTEX
  8
0
 62
7
  6
CONTINUOUS
 10
160.135979458
 20
123.784338766
  0
VERTEX
  8
0
 62
7
  6
CONTINUOUS
 10
160.1398078479
 20
123.7844258017
  0
SEQEND
  0
POLYLINE
  8
0
 62
7
  6
CONTINUOUS
 66
1
 70
0
  0
VERTEX
  8
0
 62
7
  6
CONTINUOUS
 10
160.0545181336
 20
110.9991333855
  0
VERTEX
  8
0
 62
7
  6
CONTINUOUS
 10
160.0571358368
 20
111.0200197272
  0
VERTEX
  8
0
 62
7
  6
CONTINUOUS
 10
160.0646489714
 20
111.0393475914
  0
VERTEX
  8
0
 62
7
  6
CONTINUOUS
 10
160.0758180658
 20
111.0554267673
  0
VERTEX
  8
0
 62
7
  6
CONTINUOUS
 10
160.0894781974
 20
111.0679175882
  0
VERTEX
  8
0
 62
7
  6
CONTINUOUS
 10
160.1046257658
 20
111.0767846036
  0
VERTEX
  8
0
 62
7
  6
CONTINUOUS
 10
160.1204048565
 20
111.0821706427
  0
VERTEX
  8
0
 62
7
  6
CONTINUOUS
 10
160.135979458
 20
111.084338766
  0
VERTEX
  8
0
 62
7
  6
CONTINUOUS
 10
160.1398078479
 20
111.0844258017
  0
SEQEND
  0
POLYLINE
  8
0
 62
7
  6
CONTINUOUS
 66
1
 70
0
  0
VERTEX
  8
0
 62
7
  6
CONTINUOUS
 10
160.0545181336
 20
98.2991333855
  0
VERTEX
  8
0
 62
7
  6
CONTINUOUS
 10
160.0571358368
 20
98.3200197272
  0
VERTEX
  8
0
 62
7
  6
CONTINUOUS
 10
160.0646489714
 20
98.3393475914
  0
VERTEX
  8
0
 62
7
  6
CONTINUOUS
 10
160.0758180658
 20
98.3554267673
  0
VERTEX
  8
0
 62
7
  6
CONTINUOUS
 10
160.0894781974
 20
98.3679175882
  0
VERTEX
  8
0
 62
7
  6
CONTINUOUS
 10
160.1046257658
 20
98.3767846036
  0
VERTEX
  8
0
 62
7
  6
CONTINUOUS
 10
160.1204048565
 20
98.3821706427
  0
VERTEX
  8
0
 62
7
  6
CONTINUOUS
 10
160.135979458
 20
98.384338766
  0
VERTEX
  8
0
 62
7
  6
CONTINUOUS
 10
160.1398078479
 20
98.3844258017
  0
SEQEND
  0
POLYLINE
  8
0
 62
7
  6
CONTINUOUS
 66
1
 70
0
  0
VERTEX
  8
0
 62
7
  6
CONTINUOUS
 10
160.0545181336
 20
85.5991333855
  0
VERTEX
  8
0
 62
7
  6
CONTINUOUS
 10
160.0571358368
 20
85.6200197272
  0
VERTEX
  8
0
 62
7
  6
CONTINUOUS
 10
160.0646489714
 20
85.6393475914
  0
VERTEX
  8
0
 62
7
  6
CONTINUOUS
 10
160.0758180658
 20
85.6554267673
  0
VERTEX
  8
0
 62
7
  6
CONTINUOUS
 10
160.0894781974
 20
85.6679175882
  0
VERTEX
  8
0
 62
7
  6
CONTINUOUS
 10
160.1046257658
 20
85.6767846036
  0
VERTEX
  8
0
 62
7
  6
CONTINUOUS
 10
160.1204048565
 20
85.6821706427
  0
VERTEX
  8
0
 62
7
  6
CONTINUOUS
 10
160.135979458
 20
85.684338766
  0
VERTEX
  8
0
 62
7
  6
CONTINUOUS
 10
160.1398078479
 20
85.6844258017
  0
SEQEND
  0
POLYLINE
  8
0
 62
7
  6
CONTINUOUS
 66
1
 70
0
  0
VERTEX
  8
0
 62
7
  6
CONTINUOUS
 10
160.0545181336
 20
72.8991333855
  0
VERTEX
  8
0
 62
7
  6
CONTINUOUS
 10
160.0571358368
 20
72.9200197272
  0
VERTEX
  8
0
 62
7
  6
CONTINUOUS
 10
160.0646489714
 20
72.9393475914
  0
VERTEX
  8
0
 62
7
  6
CONTINUOUS
 10
160.0758180658
 20
72.9554267673
  0
VERTEX
  8
0
 62
7
  6
CONTINUOUS
 10
160.0894781974
 20
72.9679175882
  0
VERTEX
  8
0
 62
7
  6
CONTINUOUS
 10
160.1046257658
 20
72.9767846036
  0
VERTEX
  8
0
 62
7
  6
CONTINUOUS
 10
160.1204048565
 20
72.9821706427
  0
VERTEX
  8
0
 62
7
  6
CONTINUOUS
 10
160.135979458
 20
72.984338766
  0
VERTEX
  8
0
 62
7
  6
CONTINUOUS
 10
160.1398078479
 20
72.9844258017
  0
SEQEND
  0
POLYLINE
  8
0
 62
7
  6
CONTINUOUS
 66
1
 70
0
  0
VERTEX
  8
0
 62
7
  6
CONTINUOUS
 10
160.0545181336
 20
60.1991333855
  0
VERTEX
  8
0
 62
7
  6
CONTINUOUS
 10
160.0571358368
 20
60.2200197272
  0
VERTEX
  8
0
 62
7
  6
CONTINUOUS
 10
160.0646489714
 20
60.2393475914
  0
VERTEX
  8
0
 62
7
  6
CONTINUOUS
 10
160.0758180658
 20
60.2554267673
  0
VERTEX
  8
0
 62
7
  6
CONTINUOUS
 10
160.0894781974
 20
60.2679175882
  0
VERTEX
  8
0
 62
7
  6
CONTINUOUS
 10
160.1046257658
 20
60.2767846036
  0
VERTEX
  8
0
 62
7
  6
CONTINUOUS
 10
160.1204048565
 20
60.2821706427
  0
VERTEX
  8
0
 62
7
  6
CONTINUOUS
 10
160.135979458
 20
60.284338766
  0
VERTEX
  8
0
 62
7
  6
CONTINUOUS
 10
160.1398078479
 20
60.2844258017
  0
SEQEND
  0
POLYLINE
  8
0
 62
7
  6
CONTINUOUS
 66
1
 70
0
  0
VERTEX
  8
0
 62
7
  6
CONTINUOUS
 10
168.4151818823
 20
214.1010377161
  0
VERTEX
  8
0
 62
7
  6
CONTINUOUS
 10
168.4230398386
 20
214.1446347447
  0
VERTEX
  8
0
 62
7
  6
CONTINUOUS
 10
168.4256036063
 20
214.1855463121
  0
SEQEND
  0
POLYLINE
  8
0
 62
7
  6
CONTINUOUS
 66
1
 70
0
  0
VERTEX
  8
0
 62
7
  6
CONTINUOUS
 10
168.4151818823
 20
201.4010377161
  0
VERTEX
  8
0
 62
7
  6
CONTINUOUS
 10
168.4230398386
 20
201.4446347447
  0
VERTEX
  8
0
 62
7
  6
CONTINUOUS
 10
168.4256036063
 20
201.4855463121
  0
SEQEND
  0
POLYLINE
  8
0
 62
7
  6
CONTINUOUS
 66
1
 70
0
  0
VERTEX
  8
0
 62
7
  6
CONTINUOUS
 10
168.4151818823
 20
188.7010377161
  0
VERTEX
  8
0
 62
7
  6
CONTINUOUS
 10
168.4230398386
 20
188.7446347447
  0
VERTEX
  8
0
 62
7
  6
CONTINUOUS
 10
168.4256036063
 20
188.7855463121
  0
SEQEND
  0
POLYLINE
  8
0
 62
7
  6
CONTINUOUS
 66
1
 70
0
  0
VERTEX
  8
0
 62
7
  6
CONTINUOUS
 10
168.4151818823
 20
176.0010377161
  0
VERTEX
  8
0
 62
7
  6
CONTINUOUS
 10
168.4230398386
 20
176.0446347447
  0
VERTEX
  8
0
 62
7
  6
CONTINUOUS
 10
168.4256036063
 20
176.0855463121
  0
SEQEND
  0
POLYLINE
  8
0
 62
7
  6
CONTINUOUS
 66
1
 70
0
  0
VERTEX
  8
0
 62
7
  6
CONTINUOUS
 10
168.4151818823
 20
163.3010377161
  0
VERTEX
  8
0
 62
7
  6
CONTINUOUS
 10
168.4230398386
 20
163.3446347447
  0
VERTEX
  8
0
 62
7
  6
CONTINUOUS
 10
168.4256036063
 20
163.3855463121
  0
SEQEND
  0
POLYLINE
  8
0
 62
7
  6
CONTINUOUS
 66
1
 70
0
  0
VERTEX
  8
0
 62
7
  6
CONTINUOUS
 10
168.4151818823
 20
150.6010377161
  0
VERTEX
  8
0
 62
7
  6
CONTINUOUS
 10
168.4230398386
 20
150.6446347447
  0
VERTEX
  8
0
 62
7
  6
CONTINUOUS
 10
168.4256036063
 20
150.6855463121
  0
SEQEND
  0
POLYLINE
  8
0
 62
7
  6
CONTINUOUS
 66
1
 70
0
  0
VERTEX
  8
0
 62
7
  6
CONTINUOUS
 10
168.4151818823
 20
137.9010377161
  0
VERTEX
  8
0
 62
7
  6
CONTINUOUS
 10
168.4230398386
 20
137.9446347447
  0
VERTEX
  8
0
 62
7
  6
CONTINUOUS
 10
168.4256036063
 20
137.9855463121
  0
SEQEND
  0
POLYLINE
  8
0
 62
7
  6
CONTINUOUS
 66
1
 70
0
  0
VERTEX
  8
0
 62
7
  6
CONTINUOUS
 10
168.3836304684
 20
175.9023183974
  0
VERTEX
  8
0
 62
7
  6
CONTINUOUS
 10
168.3904882826
 20
175.9206379798
  0
VERTEX
  8
0
 62
7
  6
CONTINUOUS
 10
168.4042324412
 20
175.9611077312
  0
VERTEX
  8
0
 62
7
  6
CONTINUOUS
 10
168.4151818823
 20
176.0010377161
  0
SEQEND
  0
POLYLINE
  8
0
 62
7
  6
CONTINUOUS
 66
1
 70
0
  0
VERTEX
  8
0
 62
7
  6
CONTINUOUS
 10
132.3675768355
 20
71.4809748357
  0
VERTEX
  8
0
 62
7
  6
CONTINUOUS
 10
132.3607190213
 20
71.4626552533
  0
VERTEX
  8
0
 62
7
  6
CONTINUOUS
 10
132.3469748628
 20
71.4221855018
  0
VERTEX
  8
0
 62
7
  6
CONTINUOUS
 10
132.3360254217
 20
71.382255517
  0
SEQEND
  0
POLYLINE
  8
0
 62
7
  6
CONTINUOUS
 66
1
 70
0
  0
VERTEX
  8
0
 62
7
  6
CONTINUOUS
 10
168.3836304684
 20
163.2023183974
  0
VERTEX
  8
0
 62
7
  6
CONTINUOUS
 10
168.3904882826
 20
163.2206379798
  0
VERTEX
  8
0
 62
7
  6
CONTINUOUS
 10
168.4042324412
 20
163.2611077312
  0
VERTEX
  8
0
 62
7
  6
CONTINUOUS
 10
168.4151818823
 20
163.3010377161
  0
SEQEND
  0
POLYLINE
  8
0
 62
7
  6
CONTINUOUS
 66
1
 70
0
  0
VERTEX
  8
0
 62
7
  6
CONTINUOUS
 10
132.3675768355
 20
58.7809748357
  0
VERTEX
  8
0
 62
7
  6
CONTINUOUS
 10
132.3607190213
 20
58.7626552533
  0
VERTEX
  8
0
 62
7
  6
CONTINUOUS
 10
132.3469748628
 20
58.7221855018
  0
VERTEX
  8
0
 62
7
  6
CONTINUOUS
 10
132.3360254217
 20
58.682255517
  0
SEQEND
  0
POLYLINE
  8
0
 62
7
  6
CONTINUOUS
 66
1
 70
0
  0
VERTEX
  8
0
 62
7
  6
CONTINUOUS
 10
168.3836304684
 20
150.5023183974
  0
VERTEX
  8
0
 62
7
  6
CONTINUOUS
 10
168.3904882826
 20
150.5206379798
  0
VERTEX
  8
0
 62
7
  6
CONTINUOUS
 10
168.4042324412
 20
150.5611077312
  0
VERTEX
  8
0
 62
7
  6
CONTINUOUS
 10
168.4151818823
 20
150.6010377161
  0
SEQEND
  0
POLYLINE
  8
0
 62
7
  6
CONTINUOUS
 66
1
 70
0
  0
VERTEX
  8
0
 62
7
  6
CONTINUOUS
 10
132.3675768355
 20
46.0809748357
  0
VERTEX
  8
0
 62
7
  6
CONTINUOUS
 10
132.3607190213
 20
46.0626552533
  0
VERTEX
  8
0
 62
7
  6
CONTINUOUS
 10
132.3469748628
 20
46.0221855018
  0
VERTEX
  8
0
 62
7
  6
CONTINUOUS
 10
132.3360254217
 20
45.982255517
  0
SEQEND
  0
POLYLINE
  8
0
 62
7
  6
CONTINUOUS
 66
1
 70
0
  0
VERTEX
  8
0
 62
7
  6
CONTINUOUS
 10
168.3836304684
 20
137.8023183974
  0
VERTEX
  8
0
 62
7
  6
CONTINUOUS
 10
168.3904882826
 20
137.8206379798
  0
VERTEX
  8
0
 62
7
  6
CONTINUOUS
 10
168.4042324412
 20
137.8611077312
  0
VERTEX
  8
0
 62
7
  6
CONTINUOUS
 10
168.4151818823
 20
137.9010377161
  0
SEQEND
  0
LINE
  8
0
 62
7
  6
CONTINUOUS
 10
168.3836712033
 20
175.9024246933
 11
168.3836304684
 21
175.9023183974
  0
LINE
  8
0
 62
7
  6
CONTINUOUS
 10
132.3675361006
 20
71.4808685398
 11
132.3675768355
 21
71.4809748357
  0
LINE
  8
0
 62
7
  6
CONTINUOUS
 10
168.3836712033
 20
163.2024246933
 11
168.3836304684
 21
163.2023183974
  0
LINE
  8
0
 62
7
  6
CONTINUOUS
 10
132.3675361006
 20
58.7808685398
 11
132.3675768355
 21
58.7809748357
  0
LINE
  8
0
 62
7
  6
CONTINUOUS
 10
168.3836712033
 20
150.5024246933
 11
168.3836304684
 21
150.5023183974
  0
LINE
  8
0
 62
7
  6
CONTINUOUS
 10
132.3675361006
 20
46.0808685398
 11
132.3675768355
 21
46.0809748357
  0
LINE
  8
0
 62
7
  6
CONTINUOUS
 10
168.3836712033
 20
137.8024246933
 11
168.3836304684
 21
137.8023183974
  0
POLYLINE
  8
0
 62
7
  6
CONTINUOUS
 66
1
 70
0
  0
VERTEX
  8
0
 62
7
  6
CONTINUOUS
 10
136.079324745
 20
148.9981458393
  0
VERTEX
  8
0
 62
7
  6
CONTINUOUS
 10
135.6677712219
 20
148.958079119
  0
VERTEX
  8
0
 62
7
  6
CONTINUOUS
 10
135.1999082816
 20
148.8991460211
  0
VERTEX
  8
0
 62
7
  6
CONTINUOUS
 10
134.7535604645
 20
148.8276964113
  0
VERTEX
  8
0
 62
7
  6
CONTINUOUS
 10
134.3320392503
 20
148.7438367147
  0
VERTEX
  8
0
 62
7
  6
CONTINUOUS
 10
133.9388032488
 20
148.6475786436
  0
VERTEX
  8
0
 62
7
  6
CONTINUOUS
 10
133.5774126786
 20
148.5387611581
  0
VERTEX
  8
0
 62
7
  6
CONTINUOUS
 10
133.252959471
 20
148.4175016894
  0
VERTEX
  8
0
 62
7
  6
CONTINUOUS
 10
132.9734994544
 20
148.2855108995
  0
VERTEX
  8
0
 62
7
  6
CONTINUOUS
 10
132.7436716433
 20
148.1443397817
  0
VERTEX
  8
0
 62
7
  6
CONTINUOUS
 10
132.5643250401
 20
147.994387815
  0
VERTEX
  8
0
 62
7
  6
CONTINUOUS
 10
132.4350246626
 20
147.8355767647
  0
VERTEX
  8
0
 62
7
  6
CONTINUOUS
 10
132.3675424109
 20
147.7030025291
  0
SEQEND
  0
POLYLINE
  8
0
 62
7
  6
CONTINUOUS
 66
1
 70
0
  0
VERTEX
  8
0
 62
7
  6
CONTINUOUS
 10
164.6718822646
 20
149.2072473663
  0
VERTEX
  8
0
 62
7
  6
CONTINUOUS
 10
165.0805682373
 20
149.2469983697
  0
VERTEX
  8
0
 62
7
  6
CONTINUOUS
 10
165.5468266197
 20
149.3056106314
  0
VERTEX
  8
0
 62
7
  6
CONTINUOUS
 10
165.9896791109
 20
149.3762754303
  0
VERTEX
  8
0
 62
7
  6
CONTINUOUS
 10
166.4083202764
 20
149.4591686542
  0
VERTEX
  8
0
 62
7
  6
CONTINUOUS
 10
166.8011997374
 20
149.5547852369
  0
VERTEX
  8
0
 62
7
  6
CONTINUOUS
 10
167.165872377
 20
149.6639871266
  0
VERTEX
  8
0
 62
7
  6
CONTINUOUS
 10
167.4962082535
 20
149.7870379869
  0
VERTEX
  8
0
 62
7
  6
CONTINUOUS
 10
167.7797134818
 20
149.9209588839
  0
VERTEX
  8
0
 62
7
  6
CONTINUOUS
 10
168.0094842813
 20
150.0624420467
  0
VERTEX
  8
0
 62
7
  6
CONTINUOUS
 10
168.1869285976
 20
150.2110518122
  0
VERTEX
  8
0
 62
7
  6
CONTINUOUS
 10
168.3149778974
 20
150.367939897
  0
VERTEX
  8
0
 62
7
  6
CONTINUOUS
 10
168.3836747948
 20
150.5024233153
  0
SEQEND
  0
POLYLINE
  8
0
 62
7
  6
CONTINUOUS
 66
1
 70
0
  0
VERTEX
  8
0
 62
7
  6
CONTINUOUS
 10
164.6548443106
 20
149.206526954
  0
VERTEX
  8
0
 62
7
  6
CONTINUOUS
 10
164.6677863375
 20
149.2069434353
  0
VERTEX
  8
0
 62
7
  6
CONTINUOUS
 10
164.6718630789
 20
149.2072477275
  0
SEQEND
  0
POLYLINE
  8
0
 62
7
  6
CONTINUOUS
 66
1
 70
0
  0
VERTEX
  8
0
 62
7
  6
CONTINUOUS
 10
136.0963632844
 20
148.9988663331
  0
VERTEX
  8
0
 62
7
  6
CONTINUOUS
 10
136.0834206751
 20
148.9984498138
  0
VERTEX
  8
0
 62
7
  6
CONTINUOUS
 10
136.0793452953
 20
148.9981456238
  0
SEQEND
  0
LINE
  8
0
 62
7
  6
CONTINUOUS
 10
164.6548437008
 20
142.6489677237
 11
160.2146454122
 21
142.6489677237
  0
LINE
  8
0
 62
7
  6
CONTINUOUS
 10
136.0963633006
 20
142.8564255094
 11
140.6116868522
 21
142.8564255094
  0
LINE
  8
0
 62
7
  6
CONTINUOUS
 10
140.6116884778
 20
148.9988677237
 11
136.0963633064
 21
148.9988677237
  0
LINE
  8
0
 62
7
  6
CONTINUOUS
 10
160.2146449782
 20
149.2065255094
 11
164.6548436922
 21
149.2065255094
  0
POLYLINE
  8
0
 62
7
  6
CONTINUOUS
 66
1
 70
0
  0
VERTEX
  8
0
 62
7
  6
CONTINUOUS
 10
160.2151306395
 20
142.6489671493
  0
VERTEX
  8
0
 62
7
  6
CONTINUOUS
 10
160.2053401684
 20
142.6492695455
  0
VERTEX
  8
0
 62
7
  6
CONTINUOUS
 10
160.1838285183
 20
142.6520765452
  0
VERTEX
  8
0
 62
7
  6
CONTINUOUS
 10
160.1621211839
 20
142.6580357326
  0
VERTEX
  8
0
 62
7
  6
CONTINUOUS
 10
160.1408284816
 20
142.6672991893
  0
VERTEX
  8
0
 62
7
  6
CONTINUOUS
 10
160.1205921698
 20
142.6798909917
  0
VERTEX
  8
0
 62
7
  6
CONTINUOUS
 10
160.1020280336
 20
142.6957311307
  0
VERTEX
  8
0
 62
7
  6
CONTINUOUS
 10
160.085757568
 20
142.7146110153
  0
VERTEX
  8
0
 62
7
  6
CONTINUOUS
 10
160.0723799885
 20
142.7361834502
  0
VERTEX
  8
0
 62
7
  6
CONTINUOUS
 10
160.0624355803
 20
142.759967686
  0
VERTEX
  8
0
 62
7
  6
CONTINUOUS
 10
160.0563767299
 20
142.7853473825
  0
VERTEX
  8
0
 62
7
  6
CONTINUOUS
 10
160.0545187214
 20
142.8095858753
  0
SEQEND
  0
POLYLINE
  8
0
 62
7
  6
CONTINUOUS
 66
1
 70
0
  0
VERTEX
  8
0
 62
7
  6
CONTINUOUS
 10
140.6113975563
 20
142.8564258022
  0
VERTEX
  8
0
 62
7
  6
CONTINUOUS
 10
140.6166327361
 20
142.8562631063
  0
VERTEX
  8
0
 62
7
  6
CONTINUOUS
 10
140.6318363049
 20
142.8539203207
  0
VERTEX
  8
0
 62
7
  6
CONTINUOUS
 10
140.6472806917
 20
142.8484623153
  0
VERTEX
  8
0
 62
7
  6
CONTINUOUS
 10
140.6621963882
 20
142.8395719624
  0
VERTEX
  8
0
 62
7
  6
CONTINUOUS
 10
140.6756943855
 20
142.8270771996
  0
VERTEX
  8
0
 62
7
  6
CONTINUOUS
 10
140.6867292988
 20
142.8110261347
  0
VERTEX
  8
0
 62
7
  6
CONTINUOUS
 10
140.6941267522
 20
142.7917996731
  0
VERTEX
  8
0
 62
7
  6
CONTINUOUS
 10
140.6966891762
 20
142.7711318642
  0
SEQEND
  0
POLYLINE
  8
0
 62
7
  6
CONTINUOUS
 66
1
 70
0
  0
VERTEX
  8
0
 62
7
  6
CONTINUOUS
 10
136.0793452837
 20
142.8571476075
  0
VERTEX
  8
0
 62
7
  6
CONTINUOUS
 10
136.0834206686
 20
142.8568434171
  0
VERTEX
  8
0
 62
7
  6
CONTINUOUS
 10
136.0963632789
 20
142.8564268976
  0
SEQEND
  0
POLYLINE
  8
0
 62
7
  6
CONTINUOUS
 66
1
 70
0
  0
VERTEX
  8
0
 62
7
  6
CONTINUOUS
 10
164.6718630798
 20
142.6482455073
  0
VERTEX
  8
0
 62
7
  6
CONTINUOUS
 10
164.667786336
 20
142.6485497996
  0
VERTEX
  8
0
 62
7
  6
CONTINUOUS
 10
164.654844317
 20
142.6489662804
  0
SEQEND
  0
POLYLINE
  8
0
 62
7
  6
CONTINUOUS
 66
1
 70
0
  0
VERTEX
  8
0
 62
7
  6
CONTINUOUS
 10
136.0793452837
 20
155.5571476075
  0
VERTEX
  8
0
 62
7
  6
CONTINUOUS
 10
136.0834206686
 20
155.5568434171
  0
VERTEX
  8
0
 62
7
  6
CONTINUOUS
 10
136.0963632789
 20
155.5564268976
  0
SEQEND
  0
POLYLINE
  8
0
 62
7
  6
CONTINUOUS
 66
1
 70
0
  0
VERTEX
  8
0
 62
7
  6
CONTINUOUS
 10
132.367540167
 20
182.2522967864
  0
VERTEX
  8
0
 62
7
  6
CONTINUOUS
 10
132.4365794132
 20
182.1172968382
  0
VERTEX
  8
0
 62
7
  6
CONTINUOUS
 10
132.5664977036
 20
181.9587364127
  0
VERTEX
  8
0
 62
7
  6
CONTINUOUS
 10
132.7464438056
 20
181.8089849939
  0
VERTEX
  8
0
 62
7
  6
CONTINUOUS
 10
132.976876098
 20
181.667974889
  0
VERTEX
  8
0
 62
7
  6
CONTINUOUS
 10
133.2569278173
 20
181.5361320351
  0
VERTEX
  8
0
 62
7
  6
CONTINUOUS
 10
133.5819201925
 20
181.4150255732
  0
VERTEX
  8
0
 62
7
  6
CONTINUOUS
 10
133.9437646874
 20
181.3063708625
  0
VERTEX
  8
0
 62
7
  6
CONTINUOUS
 10
134.3373680942
 20
181.2102818694
  0
VERTEX
  8
0
 62
7
  6
CONTINUOUS
 10
134.7591795528
 20
181.1265938271
  0
VERTEX
  8
0
 62
7
  6
CONTINUOUS
 10
135.2057577015
 20
181.0553149329
  0
VERTEX
  8
0
 62
7
  6
CONTINUOUS
 10
135.6738136942
 20
180.9965494659
  0
VERTEX
  8
0
 62
7
  6
CONTINUOUS
 10
136.0793248165
 20
180.9571473879
  0
SEQEND
  0
POLYLINE
  8
0
 62
7
  6
CONTINUOUS
 66
1
 70
0
  0
VERTEX
  8
0
 62
7
  6
CONTINUOUS
 10
168.3836671369
 20
115.9309964467
  0
VERTEX
  8
0
 62
7
  6
CONTINUOUS
 10
168.3146278908
 20
116.0659963949
  0
VERTEX
  8
0
 62
7
  6
CONTINUOUS
 10
168.1847096004
 20
116.2245568204
  0
VERTEX
  8
0
 62
7
  6
CONTINUOUS
 10
168.0047634984
 20
116.3743082391
  0
VERTEX
  8
0
 62
7
  6
CONTINUOUS
 10
167.774331206
 20
116.515318344
  0
VERTEX
  8
0
 62
7
  6
CONTINUOUS
 10
167.4942794867
 20
116.647161198
  0
VERTEX
  8
0
 62
7
  6
CONTINUOUS
 10
167.1692871115
 20
116.7682676599
  0
VERTEX
  8
0
 62
7
  6
CONTINUOUS
 10
166.8074426166
 20
116.8769223706
  0
VERTEX
  8
0
 62
7
  6
CONTINUOUS
 10
166.4138392097
 20
116.9730113637
  0
VERTEX
  8
0
 62
7
  6
CONTINUOUS
 10
165.9920277512
 20
117.056699406
  0
VERTEX
  8
0
 62
7
  6
CONTINUOUS
 10
165.5454496025
 20
117.1279783002
  0
VERTEX
  8
0
 62
7
  6
CONTINUOUS
 10
165.0773936098
 20
117.1867437672
  0
VERTEX
  8
0
 62
7
  6
CONTINUOUS
 10
164.6718824875
 20
117.2261458452
  0
SEQEND
  0
POLYLINE
  8
0
 62
7
  6
CONTINUOUS
 66
1
 70
0
  0
VERTEX
  8
0
 62
7
  6
CONTINUOUS
 10
132.367540167
 20
194.9522967864
  0
VERTEX
  8
0
 62
7
  6
CONTINUOUS
 10
132.4365794132
 20
194.8172968382
  0
VERTEX
  8
0
 62
7
  6
CONTINUOUS
 10
132.5664977036
 20
194.6587364127
  0
VERTEX
  8
0
 62
7
  6
CONTINUOUS
 10
132.7464438056
 20
194.5089849939
  0
VERTEX
  8
0
 62
7
  6
CONTINUOUS
 10
132.976876098
 20
194.367974889
  0
VERTEX
  8
0
 62
7
  6
CONTINUOUS
 10
133.2569278173
 20
194.2361320351
  0
VERTEX
  8
0
 62
7
  6
CONTINUOUS
 10
133.5819201925
 20
194.1150255732
  0
VERTEX
  8
0
 62
7
  6
CONTINUOUS
 10
133.9437646874
 20
194.0063708625
  0
VERTEX
  8
0
 62
7
  6
CONTINUOUS
 10
134.3373680942
 20
193.9102818694
  0
VERTEX
  8
0
 62
7
  6
CONTINUOUS
 10
134.7591795528
 20
193.8265938271
  0
VERTEX
  8
0
 62
7
  6
CONTINUOUS
 10
135.2057577015
 20
193.7553149329
  0
VERTEX
  8
0
 62
7
  6
CONTINUOUS
 10
135.6738136942
 20
193.6965494659
  0
VERTEX
  8
0
 62
7
  6
CONTINUOUS
 10
136.0793248165
 20
193.6571473879
  0
SEQEND
  0
POLYLINE
  8
0
 62
7
  6
CONTINUOUS
 66
1
 70
0
  0
VERTEX
  8
0
 62
7
  6
CONTINUOUS
 10
168.3836671369
 20
128.6309964467
  0
VERTEX
  8
0
 62
7
  6
CONTINUOUS
 10
168.3146278908
 20
128.7659963949
  0
VERTEX
  8
0
 62
7
  6
CONTINUOUS
 10
168.1847096004
 20
128.9245568204
  0
VERTEX
  8
0
 62
7
  6
CONTINUOUS
 10
168.0047634984
 20
129.0743082391
  0
VERTEX
  8
0
 62
7
  6
CONTINUOUS
 10
167.774331206
 20
129.215318344
  0
VERTEX
  8
0
 62
7
  6
CONTINUOUS
 10
167.4942794867
 20
129.347161198
  0
VERTEX
  8
0
 62
7
  6
CONTINUOUS
 10
167.1692871115
 20
129.4682676599
  0
VERTEX
  8
0
 62
7
  6
CONTINUOUS
 10
166.8074426166
 20
129.5769223706
  0
VERTEX
  8
0
 62
7
  6
CONTINUOUS
 10
166.4138392097
 20
129.6730113637
  0
VERTEX
  8
0
 62
7
  6
CONTINUOUS
 10
165.9920277512
 20
129.756699406
  0
VERTEX
  8
0
 62
7
  6
CONTINUOUS
 10
165.5454496025
 20
129.8279783002
  0
VERTEX
  8
0
 62
7
  6
CONTINUOUS
 10
165.0773936098
 20
129.8867437672
  0
VERTEX
  8
0
 62
7
  6
CONTINUOUS
 10
164.6718824875
 20
129.9261458452
  0
SEQEND
  0
POLYLINE
  8
0
 62
7
  6
CONTINUOUS
 66
1
 70
0
  0
VERTEX
  8
0
 62
7
  6
CONTINUOUS
 10
132.367540167
 20
207.6522967864
  0
VERTEX
  8
0
 62
7
  6
CONTINUOUS
 10
132.4365794132
 20
207.5172968382
  0
VERTEX
  8
0
 62
7
  6
CONTINUOUS
 10
132.5664977036
 20
207.3587364127
  0
VERTEX
  8
0
 62
7
  6
CONTINUOUS
 10
132.7464438056
 20
207.2089849939
  0
VERTEX
  8
0
 62
7
  6
CONTINUOUS
 10
132.976876098
 20
207.067974889
  0
VERTEX
  8
0
 62
7
  6
CONTINUOUS
 10
133.2569278173
 20
206.9361320351
  0
VERTEX
  8
0
 62
7
  6
CONTINUOUS
 10
133.5819201925
 20
206.8150255732
  0
VERTEX
  8
0
 62
7
  6
CONTINUOUS
 10
133.9437646874
 20
206.7063708625
  0
VERTEX
  8
0
 62
7
  6
CONTINUOUS
 10
134.3373680942
 20
206.6102818694
  0
VERTEX
  8
0
 62
7
  6
CONTINUOUS
 10
134.7591795528
 20
206.5265938271
  0
VERTEX
  8
0
 62
7
  6
CONTINUOUS
 10
135.2057577015
 20
206.4553149329
  0
VERTEX
  8
0
 62
7
  6
CONTINUOUS
 10
135.6738136942
 20
206.3965494659
  0
VERTEX
  8
0
 62
7
  6
CONTINUOUS
 10
136.0793248165
 20
206.3571473879
  0
SEQEND
  0
POLYLINE
  8
0
 62
7
  6
CONTINUOUS
 66
1
 70
0
  0
VERTEX
  8
0
 62
7
  6
CONTINUOUS
 10
168.3836729643
 20
141.3530814481
  0
VERTEX
  8
0
 62
7
  6
CONTINUOUS
 10
168.3163167475
 20
141.4854672379
  0
VERTEX
  8
0
 62
7
  6
CONTINUOUS
 10
168.1884384705
 20
141.6429270369
  0
VERTEX
  8
0
 62
7
  6
CONTINUOUS
 10
168.0109709
 20
141.7919890812
  0
VERTEX
  8
0
 62
7
  6
CONTINUOUS
 10
167.7812514607
 20
141.9337073175
  0
VERTEX
  8
0
 62
7
  6
CONTINUOUS
 10
167.49813044
 20
142.0676508546
  0
VERTEX
  8
0
 62
7
  6
CONTINUOUS
 10
167.1684506691
 20
142.1906467481
  0
VERTEX
  8
0
 62
7
  6
CONTINUOUS
 10
166.8044644812
 20
142.2998272052
  0
VERTEX
  8
0
 62
7
  6
CONTINUOUS
 10
166.4121960263
 20
142.3954729364
  0
VERTEX
  8
0
 62
7
  6
CONTINUOUS
 10
165.9941078263
 20
142.4784284474
  0
VERTEX
  8
0
 62
7
  6
CONTINUOUS
 10
165.5517897835
 20
142.5491760791
  0
VERTEX
  8
0
 62
7
  6
CONTINUOUS
 10
165.0861029415
 20
142.6078850262
  0
VERTEX
  8
0
 62
7
  6
CONTINUOUS
 10
164.6718823335
 20
142.6482458612
  0
SEQEND
  0
LINE
  8
0
 62
7
  6
CONTINUOUS
 10
132.367577708
 20
194.9522161225
 11
132.3675459406
 21
194.9522990019
  0
LINE
  8
0
 62
7
  6
CONTINUOUS
 10
168.383629596
 20
103.2310771106
 11
168.3836613633
 21
103.2309942312
  0
LINE
  8
0
 62
7
  6
CONTINUOUS
 10
132.367577708
 20
207.6522161225
 11
132.3675459406
 21
207.6522990019
  0
LINE
  8
0
 62
7
  6
CONTINUOUS
 10
168.383629596
 20
115.9310771106
 11
168.3836613633
 21
115.9309942312
  0
LINE
  8
0
 62
7
  6
CONTINUOUS
 10
132.367577708
 20
220.3522161225
 11
132.3675459406
 21
220.3522990019
  0
LINE
  8
0
 62
7
  6
CONTINUOUS
 10
168.383629596
 20
128.6310771106
 11
168.3836613633
 21
128.6309942312
  0
LINE
  8
0
 62
7
  6
CONTINUOUS
 10
168.3836729643
 20
141.3530814481
 11
168.3836356408
 21
141.3531788485
  0
LINE
  8
0
 62
7
  6
CONTINUOUS
 10
132.3605984331
 20
194.9708681228
 11
132.367577708
 21
194.9522161225
  0
LINE
  8
0
 62
7
  6
CONTINUOUS
 10
168.3906088709
 20
103.2124251102
 11
168.383629596
 21
103.2310771106
  0
LINE
  8
0
 62
7
  6
CONTINUOUS
 10
132.3605984331
 20
207.6708681228
 11
132.367577708
 21
207.6522161225
  0
LINE
  8
0
 62
7
  6
CONTINUOUS
 10
168.3906088709
 20
115.9124251102
 11
168.383629596
 21
115.9310771106
  0
LINE
  8
0
 62
7
  6
CONTINUOUS
 10
132.3605984331
 20
220.3708681228
 11
132.367577708
 21
220.3522161225
  0
LINE
  8
0
 62
7
  6
CONTINUOUS
 10
168.3906088709
 20
128.6124251102
 11
168.383629596
 21
128.6310771106
  0
LINE
  8
0
 62
7
  6
CONTINUOUS
 10
168.3910655243
 20
141.3332706139
 11
168.3836297912
 21
141.3531766014
  0
POLYLINE
  8
0
 62
7
  6
CONTINUOUS
 66
1
 70
0
  0
VERTEX
  8
0
 62
7
  6
CONTINUOUS
 10
168.4256036088
 20
166.5699449782
  0
VERTEX
  8
0
 62
7
  6
CONTINUOUS
 10
168.4230983507
 20
166.6103775333
  0
VERTEX
  8
0
 62
7
  6
CONTINUOUS
 10
168.4153724347
 20
166.6536388292
  0
VERTEX
  8
0
 62
7
  6
CONTINUOUS
 10
168.4045897888
 20
166.6932352628
  0
VERTEX
  8
0
 62
7
  6
CONTINUOUS
 10
168.3910655243
 20
166.7332706139
  0
SEQEND
  0
POLYLINE
  8
0
 62
7
  6
CONTINUOUS
 66
1
 70
0
  0
VERTEX
  8
0
 62
7
  6
CONTINUOUS
 10
168.4256036088
 20
179.2699449782
  0
VERTEX
  8
0
 62
7
  6
CONTINUOUS
 10
168.4230983507
 20
179.3103775333
  0
VERTEX
  8
0
 62
7
  6
CONTINUOUS
 10
168.4153724347
 20
179.3536388292
  0
VERTEX
  8
0
 62
7
  6
CONTINUOUS
 10
168.4045897888
 20
179.3932352628
  0
VERTEX
  8
0
 62
7
  6
CONTINUOUS
 10
168.3910655243
 20
179.4332706139
  0
SEQEND
  0
POLYLINE
  8
0
 62
7
  6
CONTINUOUS
 66
1
 70
0
  0
VERTEX
  8
0
 62
7
  6
CONTINUOUS
 10
168.4256036088
 20
191.9699449782
  0
VERTEX
  8
0
 62
7
  6
CONTINUOUS
 10
168.4230983507
 20
192.0103775333
  0
VERTEX
  8
0
 62
7
  6
CONTINUOUS
 10
168.4153724347
 20
192.0536388292
  0
VERTEX
  8
0
 62
7
  6
CONTINUOUS
 10
168.4045897888
 20
192.0932352628
  0
VERTEX
  8
0
 62
7
  6
CONTINUOUS
 10
168.3910655243
 20
192.1332706139
  0
SEQEND
  0
POLYLINE
  8
0
 62
7
  6
CONTINUOUS
 66
1
 70
0
  0
VERTEX
  8
0
 62
7
  6
CONTINUOUS
 10
168.4256036088
 20
204.6699449782
  0
VERTEX
  8
0
 62
7
  6
CONTINUOUS
 10
168.4230983507
 20
204.7103775333
  0
VERTEX
  8
0
 62
7
  6
CONTINUOUS
 10
168.4153724347
 20
204.7536388292
  0
VERTEX
  8
0
 62
7
  6
CONTINUOUS
 10
168.4045897888
 20
204.7932352628
  0
VERTEX
  8
0
 62
7
  6
CONTINUOUS
 10
168.3910655243
 20
204.8332706139
  0
SEQEND
  0
POLYLINE
  8
0
 62
7
  6
CONTINUOUS
 66
1
 70
0
  0
VERTEX
  8
0
 62
7
  6
CONTINUOUS
 10
168.4256036088
 20
217.3699449782
  0
VERTEX
  8
0
 62
7
  6
CONTINUOUS
 10
168.4230983507
 20
217.4103775333
  0
VERTEX
  8
0
 62
7
  6
CONTINUOUS
 10
168.4153724347
 20
217.4536388292
  0
VERTEX
  8
0
 62
7
  6
CONTINUOUS
 10
168.4045897888
 20
217.4932352628
  0
VERTEX
  8
0
 62
7
  6
CONTINUOUS
 10
168.3910655243
 20
217.5332706139
  0
SEQEND
  0
POLYLINE
  8
0
 62
7
  6
CONTINUOUS
 66
1
 70
0
  0
VERTEX
  8
0
 62
7
  6
CONTINUOUS
 10
160.0545181336
 20
47.4991333855
  0
VERTEX
  8
0
 62
7
  6
CONTINUOUS
 10
160.0571358368
 20
47.5200197272
  0
VERTEX
  8
0
 62
7
  6
CONTINUOUS
 10
160.0646489714
 20
47.5393475914
  0
VERTEX
  8
0
 62
7
  6
CONTINUOUS
 10
160.0758180658
 20
47.5554267673
  0
VERTEX
  8
0
 62
7
  6
CONTINUOUS
 10
160.0894781974
 20
47.5679175882
  0
VERTEX
  8
0
 62
7
  6
CONTINUOUS
 10
160.1046257658
 20
47.5767846036
  0
VERTEX
  8
0
 62
7
  6
CONTINUOUS
 10
160.1204048565
 20
47.5821706427
  0
VERTEX
  8
0
 62
7
  6
CONTINUOUS
 10
160.135979458
 20
47.584338766
  0
VERTEX
  8
0
 62
7
  6
CONTINUOUS
 10
160.1398078479
 20
47.5844258017
  0
SEQEND
  0
POLYLINE
  8
0
 62
7
  6
CONTINUOUS
 66
1
 70
0
  0
VERTEX
  8
0
 62
7
  6
CONTINUOUS
 10
168.4156120329
 20
125.1807988602
  0
VERTEX
  8
0
 62
7
  6
CONTINUOUS
 10
168.4232934963
 20
125.224659238
  0
VERTEX
  8
0
 62
7
  6
CONTINUOUS
 10
168.425603603
 20
125.2634432767
  0
SEQEND
  0
POLYLINE
  8
0
 62
7
  6
CONTINUOUS
 66
1
 70
0
  0
VERTEX
  8
0
 62
7
  6
CONTINUOUS
 10
168.4156120329
 20
112.4807988602
  0
VERTEX
  8
0
 62
7
  6
CONTINUOUS
 10
168.4232934963
 20
112.524659238
  0
VERTEX
  8
0
 62
7
  6
CONTINUOUS
 10
168.425603603
 20
112.5634432767
  0
SEQEND
  0
POLYLINE
  8
0
 62
7
  6
CONTINUOUS
 66
1
 70
0
  0
VERTEX
  8
0
 62
7
  6
CONTINUOUS
 10
168.4156120329
 20
99.7807988602
  0
VERTEX
  8
0
 62
7
  6
CONTINUOUS
 10
168.4232934963
 20
99.824659238
  0
VERTEX
  8
0
 62
7
  6
CONTINUOUS
 10
168.425603603
 20
99.8634432767
  0
SEQEND
  0
POLYLINE
  8
0
 62
7
  6
CONTINUOUS
 66
1
 70
0
  0
VERTEX
  8
0
 62
7
  6
CONTINUOUS
 10
168.4156120329
 20
87.0807988602
  0
VERTEX
  8
0
 62
7
  6
CONTINUOUS
 10
168.4232934963
 20
87.124659238
  0
VERTEX
  8
0
 62
7
  6
CONTINUOUS
 10
168.425603603
 20
87.1634432767
  0
SEQEND
  0
POLYLINE
  8
0
 62
7
  6
CONTINUOUS
 66
1
 70
0
  0
VERTEX
  8
0
 62
7
  6
CONTINUOUS
 10
168.4156120329
 20
74.3807988602
  0
VERTEX
  8
0
 62
7
  6
CONTINUOUS
 10
168.4232934963
 20
74.424659238
  0
VERTEX
  8
0
 62
7
  6
CONTINUOUS
 10
168.425603603
 20
74.4634432767
  0
SEQEND
  0
POLYLINE
  8
0
 62
7
  6
CONTINUOUS
 66
1
 70
0
  0
VERTEX
  8
0
 62
7
  6
CONTINUOUS
 10
168.4156120329
 20
61.6807988602
  0
VERTEX
  8
0
 62
7
  6
CONTINUOUS
 10
168.4232934963
 20
61.724659238
  0
VERTEX
  8
0
 62
7
  6
CONTINUOUS
 10
168.425603603
 20
61.7634432767
  0
SEQEND
  0
POLYLINE
  8
0
 62
7
  6
CONTINUOUS
 66
1
 70
0
  0
VERTEX
  8
0
 62
7
  6
CONTINUOUS
 10
168.4156120329
 20
48.9807988602
  0
VERTEX
  8
0
 62
7
  6
CONTINUOUS
 10
168.4232934963
 20
49.024659238
  0
VERTEX
  8
0
 62
7
  6
CONTINUOUS
 10
168.425603603
 20
49.0634432767
  0
SEQEND
  0
POLYLINE
  8
0
 62
7
  6
CONTINUOUS
 66
1
 70
0
  0
VERTEX
  8
0
 62
7
  6
CONTINUOUS
 10
168.3836287513
 20
125.0802139202
  0
VERTEX
  8
0
 62
7
  6
CONTINUOUS
 10
168.3911870933
 20
125.1004579057
  0
VERTEX
  8
0
 62
7
  6
CONTINUOUS
 10
168.40479097
 20
125.1408135535
  0
VERTEX
  8
0
 62
7
  6
CONTINUOUS
 10
168.4156120329
 20
125.1807988602
  0
SEQEND
  0
POLYLINE
  8
0
 62
7
  6
CONTINUOUS
 66
1
 70
0
  0
VERTEX
  8
0
 62
7
  6
CONTINUOUS
 10
168.3836287513
 20
112.3802139202
  0
VERTEX
  8
0
 62
7
  6
CONTINUOUS
 10
168.3911870933
 20
112.4004579057
  0
VERTEX
  8
0
 62
7
  6
CONTINUOUS
 10
168.40479097
 20
112.4408135535
  0
VERTEX
  8
0
 62
7
  6
CONTINUOUS
 10
168.4156120329
 20
112.4807988602
  0
SEQEND
  0
POLYLINE
  8
0
 62
7
  6
CONTINUOUS
 66
1
 70
0
  0
VERTEX
  8
0
 62
7
  6
CONTINUOUS
 10
168.3836287513
 20
99.6802139202
  0
VERTEX
  8
0
 62
7
  6
CONTINUOUS
 10
168.3911870933
 20
99.7004579057
  0
VERTEX
  8
0
 62
7
  6
CONTINUOUS
 10
168.40479097
 20
99.7408135535
  0
VERTEX
  8
0
 62
7
  6
CONTINUOUS
 10
168.4156120329
 20
99.7807988602
  0
SEQEND
  0
POLYLINE
  8
0
 62
7
  6
CONTINUOUS
 66
1
 70
0
  0
VERTEX
  8
0
 62
7
  6
CONTINUOUS
 10
168.3836287513
 20
86.9802139202
  0
VERTEX
  8
0
 62
7
  6
CONTINUOUS
 10
168.3911870933
 20
87.0004579057
  0
VERTEX
  8
0
 62
7
  6
CONTINUOUS
 10
168.40479097
 20
87.0408135535
  0
VERTEX
  8
0
 62
7
  6
CONTINUOUS
 10
168.4156120329
 20
87.0807988602
  0
SEQEND
  0
LINE
  8
0
 62
7
  6
CONTINUOUS
 10
168.3836346034
 20
125.0802116721
 11
168.3836648931
 21
125.080290704
  0
LINE
  8
0
 62
7
  6
CONTINUOUS
 10
168.3836346034
 20
112.3802116721
 11
168.3836648931
 21
112.380290704
  0
LINE
  8
0
 62
7
  6
CONTINUOUS
 10
168.3836346034
 20
99.6802116721
 11
168.3836648931
 21
99.680290704
  0
LINE
  8
0
 62
7
  6
CONTINUOUS
 10
168.3836346034
 20
86.9802116721
 11
168.3836648931
 21
86.980290704
  0
POLYLINE
  8
0
 62
7
  6
CONTINUOUS
 66
1
 70
0
  0
VERTEX
  8
0
 62
7
  6
CONTINUOUS
 10
136.079324745
 20
161.6981458393
  0
VERTEX
  8
0
 62
7
  6
CONTINUOUS
 10
135.6677712219
 20
161.658079119
  0
VERTEX
  8
0
 62
7
  6
CONTINUOUS
 10
135.1999082816
 20
161.5991460211
  0
VERTEX
  8
0
 62
7
  6
CONTINUOUS
 10
134.7535604645
 20
161.5276964113
  0
VERTEX
  8
0
 62
7
  6
CONTINUOUS
 10
134.3320392503
 20
161.4438367147
  0
VERTEX
  8
0
 62
7
  6
CONTINUOUS
 10
133.9388032488
 20
161.3475786436
  0
VERTEX
  8
0
 62
7
  6
CONTINUOUS
 10
133.5774126786
 20
161.2387611581
  0
VERTEX
  8
0
 62
7
  6
CONTINUOUS
 10
133.252959471
 20
161.1175016894
  0
VERTEX
  8
0
 62
7
  6
CONTINUOUS
 10
132.9734994544
 20
160.9855108995
  0
VERTEX
  8
0
 62
7
  6
CONTINUOUS
 10
132.7436716433
 20
160.8443397817
  0
VERTEX
  8
0
 62
7
  6
CONTINUOUS
 10
132.5643250401
 20
160.694387815
  0
VERTEX
  8
0
 62
7
  6
CONTINUOUS
 10
132.4350246626
 20
160.5355767647
  0
VERTEX
  8
0
 62
7
  6
CONTINUOUS
 10
132.3675424109
 20
160.4030025291
  0
SEQEND
  0
POLYLINE
  8
0
 62
7
  6
CONTINUOUS
 66
1
 70
0
  0
VERTEX
  8
0
 62
7
  6
CONTINUOUS
 10
164.6718822646
 20
161.9072473663
  0
VERTEX
  8
0
 62
7
  6
CONTINUOUS
 10
165.0805682373
 20
161.9469983697
  0
VERTEX
  8
0
 62
7
  6
CONTINUOUS
 10
165.5468266197
 20
162.0056106314
  0
VERTEX
  8
0
 62
7
  6
CONTINUOUS
 10
165.9896791109
 20
162.0762754303
  0
VERTEX
  8
0
 62
7
  6
CONTINUOUS
 10
166.4083202764
 20
162.1591686542
  0
VERTEX
  8
0
 62
7
  6
CONTINUOUS
 10
166.8011997374
 20
162.2547852369
  0
VERTEX
  8
0
 62
7
  6
CONTINUOUS
 10
167.165872377
 20
162.3639871266
  0
VERTEX
  8
0
 62
7
  6
CONTINUOUS
 10
167.4962082535
 20
162.4870379869
  0
VERTEX
  8
0
 62
7
  6
CONTINUOUS
 10
167.7797134818
 20
162.6209588839
  0
VERTEX
  8
0
 62
7
  6
CONTINUOUS
 10
168.0094842813
 20
162.7624420467
  0
VERTEX
  8
0
 62
7
  6
CONTINUOUS
 10
168.1869285976
 20
162.9110518122
  0
VERTEX
  8
0
 62
7
  6
CONTINUOUS
 10
168.3149778974
 20
163.067939897
  0
VERTEX
  8
0
 62
7
  6
CONTINUOUS
 10
168.3836747948
 20
163.2024233153
  0
SEQEND
  0
POLYLINE
  8
0
 62
7
  6
CONTINUOUS
 66
1
 70
0
  0
VERTEX
  8
0
 62
7
  6
CONTINUOUS
 10
164.6548443106
 20
161.906526954
  0
VERTEX
  8
0
 62
7
  6
CONTINUOUS
 10
164.6677863375
 20
161.9069434353
  0
VERTEX
  8
0
 62
7
  6
CONTINUOUS
 10
164.6718630789
 20
161.9072477275
  0
SEQEND
  0
POLYLINE
  8
0
 62
7
  6
CONTINUOUS
 66
1
 70
0
  0
VERTEX
  8
0
 62
7
  6
CONTINUOUS
 10
136.0963632844
 20
161.6988663331
  0
VERTEX
  8
0
 62
7
  6
CONTINUOUS
 10
136.0834206751
 20
161.6984498138
  0
VERTEX
  8
0
 62
7
  6
CONTINUOUS
 10
136.0793452953
 20
161.6981456238
  0
SEQEND
  0
LINE
  8
0
 62
7
  6
CONTINUOUS
 10
164.6548437008
 20
155.3489677237
 11
160.2146454122
 21
155.3489677237
  0
LINE
  8
0
 62
7
  6
CONTINUOUS
 10
136.0963633006
 20
155.5564255094
 11
140.6116868522
 21
155.5564255094
  0
LINE
  8
0
 62
7
  6
CONTINUOUS
 10
140.6116884778
 20
161.6988677237
 11
136.0963633064
 21
161.6988677237
  0
LINE
  8
0
 62
7
  6
CONTINUOUS
 10
160.2146449782
 20
161.9065255094
 11
164.6548436922
 21
161.9065255094
  0
LINE
  8
0
 62
7
  6
CONTINUOUS
 10
164.6548437008
 20
168.0489677237
 11
160.2146454122
 21
168.0489677237
  0
LINE
  8
0
 62
7
  6
CONTINUOUS
 10
136.0963633006
 20
168.2564255094
 11
140.6116868522
 21
168.2564255094
  0
POLYLINE
  8
0
 62
7
  6
CONTINUOUS
 66
1
 70
0
  0
VERTEX
  8
0
 62
7
  6
CONTINUOUS
 10
160.2151306395
 20
155.3489671493
  0
VERTEX
  8
0
 62
7
  6
CONTINUOUS
 10
160.2053401684
 20
155.3492695455
  0
VERTEX
  8
0
 62
7
  6
CONTINUOUS
 10
160.1838285183
 20
155.3520765452
  0
VERTEX
  8
0
 62
7
  6
CONTINUOUS
 10
160.1621211839
 20
155.3580357326
  0
VERTEX
  8
0
 62
7
  6
CONTINUOUS
 10
160.1408284816
 20
155.3672991893
  0
VERTEX
  8
0
 62
7
  6
CONTINUOUS
 10
160.1205921698
 20
155.3798909917
  0
VERTEX
  8
0
 62
7
  6
CONTINUOUS
 10
160.1020280336
 20
155.3957311307
  0
VERTEX
  8
0
 62
7
  6
CONTINUOUS
 10
160.085757568
 20
155.4146110153
  0
VERTEX
  8
0
 62
7
  6
CONTINUOUS
 10
160.0723799885
 20
155.4361834502
  0
VERTEX
  8
0
 62
7
  6
CONTINUOUS
 10
160.0624355803
 20
155.459967686
  0
VERTEX
  8
0
 62
7
  6
CONTINUOUS
 10
160.0563767299
 20
155.4853473825
  0
VERTEX
  8
0
 62
7
  6
CONTINUOUS
 10
160.0545187214
 20
155.5095858753
  0
SEQEND
  0
POLYLINE
  8
0
 62
7
  6
CONTINUOUS
 66
1
 70
0
  0
VERTEX
  8
0
 62
7
  6
CONTINUOUS
 10
160.2151306395
 20
168.0489671493
  0
VERTEX
  8
0
 62
7
  6
CONTINUOUS
 10
160.2053401684
 20
168.0492695455
  0
VERTEX
  8
0
 62
7
  6
CONTINUOUS
 10
160.1838285183
 20
168.0520765452
  0
VERTEX
  8
0
 62
7
  6
CONTINUOUS
 10
160.1621211839
 20
168.0580357326
  0
VERTEX
  8
0
 62
7
  6
CONTINUOUS
 10
160.1408284816
 20
168.0672991893
  0
VERTEX
  8
0
 62
7
  6
CONTINUOUS
 10
160.1205921698
 20
168.0798909917
  0
VERTEX
  8
0
 62
7
  6
CONTINUOUS
 10
160.1020280336
 20
168.0957311307
  0
VERTEX
  8
0
 62
7
  6
CONTINUOUS
 10
160.085757568
 20
168.1146110153
  0
VERTEX
  8
0
 62
7
  6
CONTINUOUS
 10
160.0723799885
 20
168.1361834502
  0
VERTEX
  8
0
 62
7
  6
CONTINUOUS
 10
160.0624355803
 20
168.159967686
  0
VERTEX
  8
0
 62
7
  6
CONTINUOUS
 10
160.0563767299
 20
168.1853473825
  0
VERTEX
  8
0
 62
7
  6
CONTINUOUS
 10
160.0545187214
 20
168.2095858753
  0
SEQEND
  0
POLYLINE
  8
0
 62
7
  6
CONTINUOUS
 66
1
 70
0
  0
VERTEX
  8
0
 62
7
  6
CONTINUOUS
 10
140.6113975563
 20
155.5564258022
  0
VERTEX
  8
0
 62
7
  6
CONTINUOUS
 10
140.6166327361
 20
155.5562631063
  0
VERTEX
  8
0
 62
7
  6
CONTINUOUS
 10
140.6318363049
 20
155.5539203207
  0
VERTEX
  8
0
 62
7
  6
CONTINUOUS
 10
140.6472806917
 20
155.5484623153
  0
VERTEX
  8
0
 62
7
  6
CONTINUOUS
 10
140.6621963882
 20
155.5395719624
  0
VERTEX
  8
0
 62
7
  6
CONTINUOUS
 10
140.6756943855
 20
155.5270771996
  0
VERTEX
  8
0
 62
7
  6
CONTINUOUS
 10
140.6867292988
 20
155.5110261347
  0
VERTEX
  8
0
 62
7
  6
CONTINUOUS
 10
140.6941267522
 20
155.4917996731
  0
VERTEX
  8
0
 62
7
  6
CONTINUOUS
 10
140.6966891762
 20
155.4711318642
  0
SEQEND
  0
POLYLINE
  8
0
 62
7
  6
CONTINUOUS
 66
1
 70
0
  0
VERTEX
  8
0
 62
7
  6
CONTINUOUS
 10
140.6113975563
 20
168.2564258022
  0
VERTEX
  8
0
 62
7
  6
CONTINUOUS
 10
140.6166327361
 20
168.2562631063
  0
VERTEX
  8
0
 62
7
  6
CONTINUOUS
 10
140.6318363049
 20
168.2539203207
  0
VERTEX
  8
0
 62
7
  6
CONTINUOUS
 10
140.6472806917
 20
168.2484623153
  0
VERTEX
  8
0
 62
7
  6
CONTINUOUS
 10
140.6621963882
 20
168.2395719624
  0
VERTEX
  8
0
 62
7
  6
CONTINUOUS
 10
140.6756943855
 20
168.2270771996
  0
VERTEX
  8
0
 62
7
  6
CONTINUOUS
 10
140.6867292988
 20
168.2110261347
  0
VERTEX
  8
0
 62
7
  6
CONTINUOUS
 10
140.6941267522
 20
168.1917996731
  0
VERTEX
  8
0
 62
7
  6
CONTINUOUS
 10
140.6966891762
 20
168.1711318642
  0
SEQEND
  0
POLYLINE
  8
0
 62
7
  6
CONTINUOUS
 66
1
 70
0
  0
VERTEX
  8
0
 62
7
  6
CONTINUOUS
 10
164.6718630798
 20
155.3482455073
  0
VERTEX
  8
0
 62
7
  6
CONTINUOUS
 10
164.667786336
 20
155.3485497996
  0
VERTEX
  8
0
 62
7
  6
CONTINUOUS
 10
164.654844317
 20
155.3489662804
  0
SEQEND
  0
POLYLINE
  8
0
 62
7
  6
CONTINUOUS
 66
1
 70
0
  0
VERTEX
  8
0
 62
7
  6
CONTINUOUS
 10
136.0793452837
 20
168.2571476075
  0
VERTEX
  8
0
 62
7
  6
CONTINUOUS
 10
136.0834206686
 20
168.2568434171
  0
VERTEX
  8
0
 62
7
  6
CONTINUOUS
 10
136.0963632789
 20
168.2564268976
  0
SEQEND
  0
POLYLINE
  8
0
 62
7
  6
CONTINUOUS
 66
1
 70
0
  0
VERTEX
  8
0
 62
7
  6
CONTINUOUS
 10
164.6718630798
 20
168.0482455073
  0
VERTEX
  8
0
 62
7
  6
CONTINUOUS
 10
164.667786336
 20
168.0485497996
  0
VERTEX
  8
0
 62
7
  6
CONTINUOUS
 10
164.654844317
 20
168.0489662804
  0
SEQEND
  0
POLYLINE
  8
0
 62
7
  6
CONTINUOUS
 66
1
 70
0
  0
VERTEX
  8
0
 62
7
  6
CONTINUOUS
 10
132.367540167
 20
220.3522967864
  0
VERTEX
  8
0
 62
7
  6
CONTINUOUS
 10
132.4365794132
 20
220.2172968382
  0
VERTEX
  8
0
 62
7
  6
CONTINUOUS
 10
132.5664977036
 20
220.0587364127
  0
VERTEX
  8
0
 62
7
  6
CONTINUOUS
 10
132.7464438056
 20
219.9089849939
  0
VERTEX
  8
0
 62
7
  6
CONTINUOUS
 10
132.976876098
 20
219.767974889
  0
VERTEX
  8
0
 62
7
  6
CONTINUOUS
 10
133.2569278173
 20
219.6361320351
  0
VERTEX
  8
0
 62
7
  6
CONTINUOUS
 10
133.5819201925
 20
219.5150255732
  0
VERTEX
  8
0
 62
7
  6
CONTINUOUS
 10
133.9437646874
 20
219.4063708625
  0
VERTEX
  8
0
 62
7
  6
CONTINUOUS
 10
134.3373680942
 20
219.3102818694
  0
VERTEX
  8
0
 62
7
  6
CONTINUOUS
 10
134.7591795528
 20
219.2265938271
  0
VERTEX
  8
0
 62
7
  6
CONTINUOUS
 10
135.2057577015
 20
219.1553149329
  0
VERTEX
  8
0
 62
7
  6
CONTINUOUS
 10
135.6738136942
 20
219.0965494659
  0
VERTEX
  8
0
 62
7
  6
CONTINUOUS
 10
136.0793248165
 20
219.0571473879
  0
SEQEND
  0
POLYLINE
  8
0
 62
7
  6
CONTINUOUS
 66
1
 70
0
  0
VERTEX
  8
0
 62
7
  6
CONTINUOUS
 10
168.3836729643
 20
154.0530814481
  0
VERTEX
  8
0
 62
7
  6
CONTINUOUS
 10
168.3163167475
 20
154.1854672379
  0
VERTEX
  8
0
 62
7
  6
CONTINUOUS
 10
168.1884384705
 20
154.3429270369
  0
VERTEX
  8
0
 62
7
  6
CONTINUOUS
 10
168.0109709
 20
154.4919890812
  0
VERTEX
  8
0
 62
7
  6
CONTINUOUS
 10
167.7812514607
 20
154.6337073175
  0
VERTEX
  8
0
 62
7
  6
CONTINUOUS
 10
167.49813044
 20
154.7676508546
  0
VERTEX
  8
0
 62
7
  6
CONTINUOUS
 10
167.1684506691
 20
154.8906467481
  0
VERTEX
  8
0
 62
7
  6
CONTINUOUS
 10
166.8044644812
 20
154.9998272052
  0
VERTEX
  8
0
 62
7
  6
CONTINUOUS
 10
166.4121960263
 20
155.0954729364
  0
VERTEX
  8
0
 62
7
  6
CONTINUOUS
 10
165.9941078263
 20
155.1784284474
  0
VERTEX
  8
0
 62
7
  6
CONTINUOUS
 10
165.5517897835
 20
155.2491760791
  0
VERTEX
  8
0
 62
7
  6
CONTINUOUS
 10
165.0861029415
 20
155.3078850262
  0
VERTEX
  8
0
 62
7
  6
CONTINUOUS
 10
164.6718823335
 20
155.3482458612
  0
SEQEND
  0
POLYLINE
  8
0
 62
7
  6
CONTINUOUS
 66
1
 70
0
  0
VERTEX
  8
0
 62
7
  6
CONTINUOUS
 10
168.3836729643
 20
166.7530814481
  0
VERTEX
  8
0
 62
7
  6
CONTINUOUS
 10
168.3163167475
 20
166.8854672379
  0
VERTEX
  8
0
 62
7
  6
CONTINUOUS
 10
168.1884384705
 20
167.0429270369
  0
VERTEX
  8
0
 62
7
  6
CONTINUOUS
 10
168.0109709
 20
167.1919890812
  0
VERTEX
  8
0
 62
7
  6
CONTINUOUS
 10
167.7812514607
 20
167.3337073175
  0
VERTEX
  8
0
 62
7
  6
CONTINUOUS
 10
167.49813044
 20
167.4676508546
  0
VERTEX
  8
0
 62
7
  6
CONTINUOUS
 10
167.1684506691
 20
167.5906467481
  0
VERTEX
  8
0
 62
7
  6
CONTINUOUS
 10
166.8044644812
 20
167.6998272052
  0
VERTEX
  8
0
 62
7
  6
CONTINUOUS
 10
166.4121960263
 20
167.7954729364
  0
VERTEX
  8
0
 62
7
  6
CONTINUOUS
 10
165.9941078263
 20
167.8784284474
  0
VERTEX
  8
0
 62
7
  6
CONTINUOUS
 10
165.5517897835
 20
167.9491760791
  0
VERTEX
  8
0
 62
7
  6
CONTINUOUS
 10
165.0861029415
 20
168.0078850262
  0
VERTEX
  8
0
 62
7
  6
CONTINUOUS
 10
164.6718823335
 20
168.0482458612
  0
SEQEND
  0
POLYLINE
  8
0
 62
7
  6
CONTINUOUS
 66
1
 70
0
  0
VERTEX
  8
0
 62
7
  6
CONTINUOUS
 10
168.3836729643
 20
179.4530814481
  0
VERTEX
  8
0
 62
7
  6
CONTINUOUS
 10
168.3163167475
 20
179.5854672379
  0
VERTEX
  8
0
 62
7
  6
CONTINUOUS
 10
168.1884384705
 20
179.7429270369
  0
VERTEX
  8
0
 62
7
  6
CONTINUOUS
 10
168.0109709
 20
179.8919890812
  0
VERTEX
  8
0
 62
7
  6
CONTINUOUS
 10
167.7812514607
 20
180.0337073175
  0
VERTEX
  8
0
 62
7
  6
CONTINUOUS
 10
167.49813044
 20
180.1676508546
  0
VERTEX
  8
0
 62
7
  6
CONTINUOUS
 10
167.1684506691
 20
180.2906467481
  0
VERTEX
  8
0
 62
7
  6
CONTINUOUS
 10
166.8044644812
 20
180.3998272052
  0
VERTEX
  8
0
 62
7
  6
CONTINUOUS
 10
166.4121960263
 20
180.4954729364
  0
VERTEX
  8
0
 62
7
  6
CONTINUOUS
 10
165.9941078263
 20
180.5784284474
  0
VERTEX
  8
0
 62
7
  6
CONTINUOUS
 10
165.5517897835
 20
180.6491760791
  0
VERTEX
  8
0
 62
7
  6
CONTINUOUS
 10
165.0861029415
 20
180.7078850262
  0
VERTEX
  8
0
 62
7
  6
CONTINUOUS
 10
164.6718823335
 20
180.7482458612
  0
SEQEND
  0
LINE
  8
0
 62
7
  6
CONTINUOUS
 10
168.3836729643
 20
154.0530814481
 11
168.3836356408
 21
154.0531788485
  0
LINE
  8
0
 62
7
  6
CONTINUOUS
 10
168.3836729643
 20
166.7530814481
 11
168.3836356408
 21
166.7531788485
  0
LINE
  8
0
 62
7
  6
CONTINUOUS
 10
168.3836729643
 20
179.4530814481
 11
168.3836356408
 21
179.4531788485
  0
LINE
  8
0
 62
7
  6
CONTINUOUS
 10
168.3910655243
 20
154.0332706139
 11
168.3836297912
 21
154.0531766014
  0
LINE
  8
0
 62
7
  6
CONTINUOUS
 10
168.3910655243
 20
166.7332706139
 11
168.3836297912
 21
166.7531766014
  0
LINE
  8
0
 62
7
  6
CONTINUOUS
 10
168.3910655243
 20
179.4332706139
 11
168.3836297912
 21
179.4531766014
  0
POLYLINE
  8
0
 62
7
  6
CONTINUOUS
 66
1
 70
0
  0
VERTEX
  8
0
 62
7
  6
CONTINUOUS
 10
168.3836287513
 20
74.2802139202
  0
VERTEX
  8
0
 62
7
  6
CONTINUOUS
 10
168.3911870933
 20
74.3004579057
  0
VERTEX
  8
0
 62
7
  6
CONTINUOUS
 10
168.40479097
 20
74.3408135535
  0
VERTEX
  8
0
 62
7
  6
CONTINUOUS
 10
168.4156120329
 20
74.3807988602
  0
SEQEND
  0
POLYLINE
  8
0
 62
7
  6
CONTINUOUS
 66
1
 70
0
  0
VERTEX
  8
0
 62
7
  6
CONTINUOUS
 10
168.3836287513
 20
61.5802139202
  0
VERTEX
  8
0
 62
7
  6
CONTINUOUS
 10
168.3911870933
 20
61.6004579057
  0
VERTEX
  8
0
 62
7
  6
CONTINUOUS
 10
168.40479097
 20
61.6408135535
  0
VERTEX
  8
0
 62
7
  6
CONTINUOUS
 10
168.4156120329
 20
61.6807988602
  0
SEQEND
  0
POLYLINE
  8
0
 62
7
  6
CONTINUOUS
 66
1
 70
0
  0
VERTEX
  8
0
 62
7
  6
CONTINUOUS
 10
168.3836287513
 20
48.8802139202
  0
VERTEX
  8
0
 62
7
  6
CONTINUOUS
 10
168.3911870933
 20
48.9004579057
  0
VERTEX
  8
0
 62
7
  6
CONTINUOUS
 10
168.40479097
 20
48.9408135535
  0
VERTEX
  8
0
 62
7
  6
CONTINUOUS
 10
168.4156120329
 20
48.9807988602
  0
SEQEND
  0
LINE
  8
0
 62
7
  6
CONTINUOUS
 10
168.3836346034
 20
74.2802116721
 11
168.3836648931
 21
74.280290704
  0
LINE
  8
0
 62
7
  6
CONTINUOUS
 10
168.3836346034
 20
61.5802116721
 11
168.3836648931
 21
61.580290704
  0
LINE
  8
0
 62
7
  6
CONTINUOUS
 10
168.3836346034
 20
48.8802116721
 11
168.3836648931
 21
48.880290704
  0
POLYLINE
  8
0
 62
7
  6
CONTINUOUS
 66
1
 70
0
  0
VERTEX
  8
0
 62
7
  6
CONTINUOUS
 10
136.079324745
 20
174.3981458393
  0
VERTEX
  8
0
 62
7
  6
CONTINUOUS
 10
135.6677712219
 20
174.358079119
  0
VERTEX
  8
0
 62
7
  6
CONTINUOUS
 10
135.1999082816
 20
174.2991460211
  0
VERTEX
  8
0
 62
7
  6
CONTINUOUS
 10
134.7535604645
 20
174.2276964113
  0
VERTEX
  8
0
 62
7
  6
CONTINUOUS
 10
134.3320392503
 20
174.1438367147
  0
VERTEX
  8
0
 62
7
  6
CONTINUOUS
 10
133.9388032488
 20
174.0475786436
  0
VERTEX
  8
0
 62
7
  6
CONTINUOUS
 10
133.5774126786
 20
173.9387611581
  0
VERTEX
  8
0
 62
7
  6
CONTINUOUS
 10
133.252959471
 20
173.8175016894
  0
VERTEX
  8
0
 62
7
  6
CONTINUOUS
 10
132.9734994544
 20
173.6855108995
  0
VERTEX
  8
0
 62
7
  6
CONTINUOUS
 10
132.7436716433
 20
173.5443397817
  0
VERTEX
  8
0
 62
7
  6
CONTINUOUS
 10
132.5643250401
 20
173.394387815
  0
VERTEX
  8
0
 62
7
  6
CONTINUOUS
 10
132.4350246626
 20
173.2355767647
  0
VERTEX
  8
0
 62
7
  6
CONTINUOUS
 10
132.3675424109
 20
173.1030025291
  0
SEQEND
  0
POLYLINE
  8
0
 62
7
  6
CONTINUOUS
 66
1
 70
0
  0
VERTEX
  8
0
 62
7
  6
CONTINUOUS
 10
136.079324745
 20
187.0981458393
  0
VERTEX
  8
0
 62
7
  6
CONTINUOUS
 10
135.6677712219
 20
187.058079119
  0
VERTEX
  8
0
 62
7
  6
CONTINUOUS
 10
135.1999082816
 20
186.9991460211
  0
VERTEX
  8
0
 62
7
  6
CONTINUOUS
 10
134.7535604645
 20
186.9276964113
  0
VERTEX
  8
0
 62
7
  6
CONTINUOUS
 10
134.3320392503
 20
186.8438367147
  0
VERTEX
  8
0
 62
7
  6
CONTINUOUS
 10
133.9388032488
 20
186.7475786436
  0
VERTEX
  8
0
 62
7
  6
CONTINUOUS
 10
133.5774126786
 20
186.6387611581
  0
VERTEX
  8
0
 62
7
  6
CONTINUOUS
 10
133.252959471
 20
186.5175016894
  0
VERTEX
  8
0
 62
7
  6
CONTINUOUS
 10
132.9734994544
 20
186.3855108995
  0
VERTEX
  8
0
 62
7
  6
CONTINUOUS
 10
132.7436716433
 20
186.2443397817
  0
VERTEX
  8
0
 62
7
  6
CONTINUOUS
 10
132.5643250401
 20
186.094387815
  0
VERTEX
  8
0
 62
7
  6
CONTINUOUS
 10
132.4350246626
 20
185.9355767647
  0
VERTEX
  8
0
 62
7
  6
CONTINUOUS
 10
132.3675424109
 20
185.8030025291
  0
SEQEND
  0
POLYLINE
  8
0
 62
7
  6
CONTINUOUS
 66
1
 70
0
  0
VERTEX
  8
0
 62
7
  6
CONTINUOUS
 10
164.6718822646
 20
174.6072473663
  0
VERTEX
  8
0
 62
7
  6
CONTINUOUS
 10
165.0805682373
 20
174.6469983697
  0
VERTEX
  8
0
 62
7
  6
CONTINUOUS
 10
165.5468266197
 20
174.7056106314
  0
VERTEX
  8
0
 62
7
  6
CONTINUOUS
 10
165.9896791109
 20
174.7762754303
  0
VERTEX
  8
0
 62
7
  6
CONTINUOUS
 10
166.4083202764
 20
174.8591686542
  0
VERTEX
  8
0
 62
7
  6
CONTINUOUS
 10
166.8011997374
 20
174.9547852369
  0
VERTEX
  8
0
 62
7
  6
CONTINUOUS
 10
167.165872377
 20
175.0639871266
  0
VERTEX
  8
0
 62
7
  6
CONTINUOUS
 10
167.4962082535
 20
175.1870379869
  0
VERTEX
  8
0
 62
7
  6
CONTINUOUS
 10
167.7797134818
 20
175.3209588839
  0
VERTEX
  8
0
 62
7
  6
CONTINUOUS
 10
168.0094842813
 20
175.4624420467
  0
VERTEX
  8
0
 62
7
  6
CONTINUOUS
 10
168.1869285976
 20
175.6110518122
  0
VERTEX
  8
0
 62
7
  6
CONTINUOUS
 10
168.3149778974
 20
175.767939897
  0
VERTEX
  8
0
 62
7
  6
CONTINUOUS
 10
168.3836747948
 20
175.9024233153
  0
SEQEND
  0
POLYLINE
  8
0
 62
7
  6
CONTINUOUS
 66
1
 70
0
  0
VERTEX
  8
0
 62
7
  6
CONTINUOUS
 10
164.6718822646
 20
187.3072473663
  0
VERTEX
  8
0
 62
7
  6
CONTINUOUS
 10
165.0805682373
 20
187.3469983697
  0
VERTEX
  8
0
 62
7
  6
CONTINUOUS
 10
165.5468266197
 20
187.4056106314
  0
VERTEX
  8
0
 62
7
  6
CONTINUOUS
 10
165.9896791109
 20
187.4762754303
  0
VERTEX
  8
0
 62
7
  6
CONTINUOUS
 10
166.4083202764
 20
187.5591686542
  0
VERTEX
  8
0
 62
7
  6
CONTINUOUS
 10
166.8011997374
 20
187.6547852369
  0
VERTEX
  8
0
 62
7
  6
CONTINUOUS
 10
167.165872377
 20
187.7639871266
  0
VERTEX
  8
0
 62
7
  6
CONTINUOUS
 10
167.4962082535
 20
187.8870379869
  0
VERTEX
  8
0
 62
7
  6
CONTINUOUS
 10
167.7797134818
 20
188.0209588839
  0
VERTEX
  8
0
 62
7
  6
CONTINUOUS
 10
168.0094842813
 20
188.1624420467
  0
VERTEX
  8
0
 62
7
  6
CONTINUOUS
 10
168.1869285976
 20
188.3110518122
  0
VERTEX
  8
0
 62
7
  6
CONTINUOUS
 10
168.3149778974
 20
188.467939897
  0
VERTEX
  8
0
 62
7
  6
CONTINUOUS
 10
168.3836747948
 20
188.6024233153
  0
SEQEND
  0
POLYLINE
  8
0
 62
7
  6
CONTINUOUS
 66
1
 70
0
  0
VERTEX
  8
0
 62
7
  6
CONTINUOUS
 10
164.6548443106
 20
174.606526954
  0
VERTEX
  8
0
 62
7
  6
CONTINUOUS
 10
164.6677863375
 20
174.6069434353
  0
VERTEX
  8
0
 62
7
  6
CONTINUOUS
 10
164.6718630789
 20
174.6072477275
  0
SEQEND
  0
POLYLINE
  8
0
 62
7
  6
CONTINUOUS
 66
1
 70
0
  0
VERTEX
  8
0
 62
7
  6
CONTINUOUS
 10
136.0963632844
 20
174.3988663331
  0
VERTEX
  8
0
 62
7
  6
CONTINUOUS
 10
136.0834206751
 20
174.3984498138
  0
VERTEX
  8
0
 62
7
  6
CONTINUOUS
 10
136.0793452953
 20
174.3981456238
  0
SEQEND
  0
POLYLINE
  8
0
 62
7
  6
CONTINUOUS
 66
1
 70
0
  0
VERTEX
  8
0
 62
7
  6
CONTINUOUS
 10
164.6548443106
 20
187.306526954
  0
VERTEX
  8
0
 62
7
  6
CONTINUOUS
 10
164.6677863375
 20
187.3069434353
  0
VERTEX
  8
0
 62
7
  6
CONTINUOUS
 10
164.6718630789
 20
187.3072477275
  0
SEQEND
  0
POLYLINE
  8
0
 62
7
  6
CONTINUOUS
 66
1
 70
0
  0
VERTEX
  8
0
 62
7
  6
CONTINUOUS
 10
136.0963632844
 20
187.0988663331
  0
VERTEX
  8
0
 62
7
  6
CONTINUOUS
 10
136.0834206751
 20
187.0984498138
  0
VERTEX
  8
0
 62
7
  6
CONTINUOUS
 10
136.0793452953
 20
187.0981456238
  0
SEQEND
  0
LINE
  8
0
 62
7
  6
CONTINUOUS
 10
140.6116884778
 20
174.3988677237
 11
136.0963633064
 21
174.3988677237
  0
LINE
  8
0
 62
7
  6
CONTINUOUS
 10
160.2146449782
 20
174.6065255094
 11
164.6548436922
 21
174.6065255094
  0
LINE
  8
0
 62
7
  6
CONTINUOUS
 10
164.6548437008
 20
180.7489677237
 11
160.2146454122
 21
180.7489677237
  0
LINE
  8
0
 62
7
  6
CONTINUOUS
 10
136.0963633006
 20
180.9564255094
 11
140.6116868522
 21
180.9564255094
  0
LINE
  8
0
 62
7
  6
CONTINUOUS
 10
140.6116884778
 20
187.0988677237
 11
136.0963633064
 21
187.0988677237
  0
LINE
  8
0
 62
7
  6
CONTINUOUS
 10
160.2146449782
 20
187.3065255094
 11
164.6548436922
 21
187.3065255094
  0
POLYLINE
  8
0
 62
7
  6
CONTINUOUS
 66
1
 70
0
  0
VERTEX
  8
0
 62
7
  6
CONTINUOUS
 10
160.2151306395
 20
180.7489671493
  0
VERTEX
  8
0
 62
7
  6
CONTINUOUS
 10
160.2053401684
 20
180.7492695455
  0
VERTEX
  8
0
 62
7
  6
CONTINUOUS
 10
160.1838285183
 20
180.7520765452
  0
VERTEX
  8
0
 62
7
  6
CONTINUOUS
 10
160.1621211839
 20
180.7580357326
  0
VERTEX
  8
0
 62
7
  6
CONTINUOUS
 10
160.1408284816
 20
180.7672991893
  0
VERTEX
  8
0
 62
7
  6
CONTINUOUS
 10
160.1205921698
 20
180.7798909917
  0
VERTEX
  8
0
 62
7
  6
CONTINUOUS
 10
160.1020280336
 20
180.7957311307
  0
VERTEX
  8
0
 62
7
  6
CONTINUOUS
 10
160.085757568
 20
180.8146110153
  0
VERTEX
  8
0
 62
7
  6
CONTINUOUS
 10
160.0723799885
 20
180.8361834502
  0
VERTEX
  8
0
 62
7
  6
CONTINUOUS
 10
160.0624355803
 20
180.859967686
  0
VERTEX
  8
0
 62
7
  6
CONTINUOUS
 10
160.0563767299
 20
180.8853473825
  0
VERTEX
  8
0
 62
7
  6
CONTINUOUS
 10
160.0545187214
 20
180.9095858753
  0
SEQEND
  0
POLYLINE
  8
0
 62
7
  6
CONTINUOUS
 66
1
 70
0
  0
VERTEX
  8
0
 62
7
  6
CONTINUOUS
 10
140.6113975563
 20
180.9564258022
  0
VERTEX
  8
0
 62
7
  6
CONTINUOUS
 10
140.6166327361
 20
180.9562631063
  0
VERTEX
  8
0
 62
7
  6
CONTINUOUS
 10
140.6318363049
 20
180.9539203207
  0
VERTEX
  8
0
 62
7
  6
CONTINUOUS
 10
140.6472806917
 20
180.9484623153
  0
VERTEX
  8
0
 62
7
  6
CONTINUOUS
 10
140.6621963882
 20
180.9395719624
  0
VERTEX
  8
0
 62
7
  6
CONTINUOUS
 10
140.6756943855
 20
180.9270771996
  0
VERTEX
  8
0
 62
7
  6
CONTINUOUS
 10
140.6867292988
 20
180.9110261347
  0
VERTEX
  8
0
 62
7
  6
CONTINUOUS
 10
140.6941267522
 20
180.8917996731
  0
VERTEX
  8
0
 62
7
  6
CONTINUOUS
 10
140.6966891762
 20
180.8711318642
  0
SEQEND
  0
POLYLINE
  8
0
 62
7
  6
CONTINUOUS
 66
1
 70
0
  0
VERTEX
  8
0
 62
7
  6
CONTINUOUS
 10
136.0793452837
 20
180.9571476075
  0
VERTEX
  8
0
 62
7
  6
CONTINUOUS
 10
136.0834206686
 20
180.9568434171
  0
VERTEX
  8
0
 62
7
  6
CONTINUOUS
 10
136.0963632789
 20
180.9564268976
  0
SEQEND
  0
POLYLINE
  8
0
 62
7
  6
CONTINUOUS
 66
1
 70
0
  0
VERTEX
  8
0
 62
7
  6
CONTINUOUS
 10
164.6718630798
 20
180.7482455073
  0
VERTEX
  8
0
 62
7
  6
CONTINUOUS
 10
164.667786336
 20
180.7485497996
  0
VERTEX
  8
0
 62
7
  6
CONTINUOUS
 10
164.654844317
 20
180.7489662804
  0
SEQEND
  0
POLYLINE
  8
0
 62
7
  6
CONTINUOUS
 66
1
 70
0
  0
VERTEX
  8
0
 62
7
  6
CONTINUOUS
 10
168.3836729643
 20
192.1530814481
  0
VERTEX
  8
0
 62
7
  6
CONTINUOUS
 10
168.3163167475
 20
192.2854672379
  0
VERTEX
  8
0
 62
7
  6
CONTINUOUS
 10
168.1884384705
 20
192.4429270369
  0
VERTEX
  8
0
 62
7
  6
CONTINUOUS
 10
168.0109709
 20
192.5919890812
  0
VERTEX
  8
0
 62
7
  6
CONTINUOUS
 10
167.7812514607
 20
192.7337073175
  0
VERTEX
  8
0
 62
7
  6
CONTINUOUS
 10
167.49813044
 20
192.8676508546
  0
VERTEX
  8
0
 62
7
  6
CONTINUOUS
 10
167.1684506691
 20
192.9906467481
  0
VERTEX
  8
0
 62
7
  6
CONTINUOUS
 10
166.8044644812
 20
193.0998272052
  0
VERTEX
  8
0
 62
7
  6
CONTINUOUS
 10
166.4121960263
 20
193.1954729364
  0
VERTEX
  8
0
 62
7
  6
CONTINUOUS
 10
165.9941078263
 20
193.2784284474
  0
VERTEX
  8
0
 62
7
  6
CONTINUOUS
 10
165.5517897835
 20
193.3491760791
  0
VERTEX
  8
0
 62
7
  6
CONTINUOUS
 10
165.0861029415
 20
193.4078850262
  0
VERTEX
  8
0
 62
7
  6
CONTINUOUS
 10
164.6718823335
 20
193.4482458612
  0
SEQEND
  0
POLYLINE
  8
0
 62
7
  6
CONTINUOUS
 66
1
 70
0
  0
VERTEX
  8
0
 62
7
  6
CONTINUOUS
 10
168.3836729643
 20
204.8530814481
  0
VERTEX
  8
0
 62
7
  6
CONTINUOUS
 10
168.3163167475
 20
204.9854672379
  0
VERTEX
  8
0
 62
7
  6
CONTINUOUS
 10
168.1884384705
 20
205.1429270369
  0
VERTEX
  8
0
 62
7
  6
CONTINUOUS
 10
168.0109709
 20
205.2919890812
  0
VERTEX
  8
0
 62
7
  6
CONTINUOUS
 10
167.7812514607
 20
205.4337073175
  0
VERTEX
  8
0
 62
7
  6
CONTINUOUS
 10
167.49813044
 20
205.5676508546
  0
VERTEX
  8
0
 62
7
  6
CONTINUOUS
 10
167.1684506691
 20
205.6906467481
  0
VERTEX
  8
0
 62
7
  6
CONTINUOUS
 10
166.8044644812
 20
205.7998272052
  0
VERTEX
  8
0
 62
7
  6
CONTINUOUS
 10
166.4121960263
 20
205.8954729364
  0
VERTEX
  8
0
 62
7
  6
CONTINUOUS
 10
165.9941078263
 20
205.9784284474
  0
VERTEX
  8
0
 62
7
  6
CONTINUOUS
 10
165.5517897835
 20
206.0491760791
  0
VERTEX
  8
0
 62
7
  6
CONTINUOUS
 10
165.0861029415
 20
206.1078850262
  0
VERTEX
  8
0
 62
7
  6
CONTINUOUS
 10
164.6718823335
 20
206.1482458612
  0
SEQEND
  0
LINE
  8
0
 62
7
  6
CONTINUOUS
 10
168.3836729643
 20
192.1530814481
 11
168.3836356408
 21
192.1531788485
  0
LINE
  8
0
 62
7
  6
CONTINUOUS
 10
168.3836729643
 20
204.8530814481
 11
168.3836356408
 21
204.8531788485
  0
LINE
  8
0
 62
7
  6
CONTINUOUS
 10
168.3836729643
 20
217.5530814481
 11
168.3836356408
 21
217.5531788485
  0
LINE
  8
0
 62
7
  6
CONTINUOUS
 10
168.3910655243
 20
192.1332706139
 11
168.3836297912
 21
192.1531766014
  0
LINE
  8
0
 62
7
  6
CONTINUOUS
 10
168.3910655243
 20
204.8332706139
 11
168.3836297912
 21
204.8531766014
  0
LINE
  8
0
 62
7
  6
CONTINUOUS
 10
168.3910655243
 20
217.5332706139
 11
168.3836297912
 21
217.5531766014
  0
POLYLINE
  8
0
 62
7
  6
CONTINUOUS
 66
1
 70
0
  0
VERTEX
  8
0
 62
7
  6
CONTINUOUS
 10
136.079324745
 20
199.7981458393
  0
VERTEX
  8
0
 62
7
  6
CONTINUOUS
 10
135.6677712219
 20
199.758079119
  0
VERTEX
  8
0
 62
7
  6
CONTINUOUS
 10
135.1999082816
 20
199.6991460211
  0
VERTEX
  8
0
 62
7
  6
CONTINUOUS
 10
134.7535604645
 20
199.6276964113
  0
VERTEX
  8
0
 62
7
  6
CONTINUOUS
 10
134.3320392503
 20
199.5438367147
  0
VERTEX
  8
0
 62
7
  6
CONTINUOUS
 10
133.9388032488
 20
199.4475786436
  0
VERTEX
  8
0
 62
7
  6
CONTINUOUS
 10
133.5774126786
 20
199.3387611581
  0
VERTEX
  8
0
 62
7
  6
CONTINUOUS
 10
133.252959471
 20
199.2175016894
  0
VERTEX
  8
0
 62
7
  6
CONTINUOUS
 10
132.9734994544
 20
199.0855108995
  0
VERTEX
  8
0
 62
7
  6
CONTINUOUS
 10
132.7436716433
 20
198.9443397817
  0
VERTEX
  8
0
 62
7
  6
CONTINUOUS
 10
132.5643250401
 20
198.794387815
  0
VERTEX
  8
0
 62
7
  6
CONTINUOUS
 10
132.4350246626
 20
198.6355767647
  0
VERTEX
  8
0
 62
7
  6
CONTINUOUS
 10
132.3675424109
 20
198.5030025291
  0
SEQEND
  0
POLYLINE
  8
0
 62
7
  6
CONTINUOUS
 66
1
 70
0
  0
VERTEX
  8
0
 62
7
  6
CONTINUOUS
 10
164.6718822646
 20
200.0072473663
  0
VERTEX
  8
0
 62
7
  6
CONTINUOUS
 10
165.0805682373
 20
200.0469983697
  0
VERTEX
  8
0
 62
7
  6
CONTINUOUS
 10
165.5468266197
 20
200.1056106314
  0
VERTEX
  8
0
 62
7
  6
CONTINUOUS
 10
165.9896791109
 20
200.1762754303
  0
VERTEX
  8
0
 62
7
  6
CONTINUOUS
 10
166.4083202764
 20
200.2591686542
  0
VERTEX
  8
0
 62
7
  6
CONTINUOUS
 10
166.8011997374
 20
200.3547852369
  0
VERTEX
  8
0
 62
7
  6
CONTINUOUS
 10
167.165872377
 20
200.4639871266
  0
VERTEX
  8
0
 62
7
  6
CONTINUOUS
 10
167.4962082535
 20
200.5870379869
  0
VERTEX
  8
0
 62
7
  6
CONTINUOUS
 10
167.7797134818
 20
200.7209588839
  0
VERTEX
  8
0
 62
7
  6
CONTINUOUS
 10
168.0094842813
 20
200.8624420467
  0
VERTEX
  8
0
 62
7
  6
CONTINUOUS
 10
168.1869285976
 20
201.0110518122
  0
VERTEX
  8
0
 62
7
  6
CONTINUOUS
 10
168.3149778974
 20
201.167939897
  0
VERTEX
  8
0
 62
7
  6
CONTINUOUS
 10
168.3836747948
 20
201.3024233153
  0
SEQEND
  0
POLYLINE
  8
0
 62
7
  6
CONTINUOUS
 66
1
 70
0
  0
VERTEX
  8
0
 62
7
  6
CONTINUOUS
 10
164.6548443106
 20
200.006526954
  0
VERTEX
  8
0
 62
7
  6
CONTINUOUS
 10
164.6677863375
 20
200.0069434353
  0
VERTEX
  8
0
 62
7
  6
CONTINUOUS
 10
164.6718630789
 20
200.0072477275
  0
SEQEND
  0
POLYLINE
  8
0
 62
7
  6
CONTINUOUS
 66
1
 70
0
  0
VERTEX
  8
0
 62
7
  6
CONTINUOUS
 10
136.0963632844
 20
199.7988663331
  0
VERTEX
  8
0
 62
7
  6
CONTINUOUS
 10
136.0834206751
 20
199.7984498138
  0
VERTEX
  8
0
 62
7
  6
CONTINUOUS
 10
136.0793452953
 20
199.7981456238
  0
SEQEND
  0
LINE
  8
0
 62
7
  6
CONTINUOUS
 10
164.6548437008
 20
193.4489677237
 11
160.2146454122
 21
193.4489677237
  0
LINE
  8
0
 62
7
  6
CONTINUOUS
 10
136.0963633006
 20
193.6564255094
 11
140.6116868522
 21
193.6564255094
  0
LINE
  8
0
 62
7
  6
CONTINUOUS
 10
140.6116884778
 20
199.7988677237
 11
136.0963633064
 21
199.7988677237
  0
LINE
  8
0
 62
7
  6
CONTINUOUS
 10
160.2146449782
 20
200.0065255094
 11
164.6548436922
 21
200.0065255094
  0
POLYLINE
  8
0
 62
7
  6
CONTINUOUS
 66
1
 70
0
  0
VERTEX
  8
0
 62
7
  6
CONTINUOUS
 10
160.2151306395
 20
193.4489671493
  0
VERTEX
  8
0
 62
7
  6
CONTINUOUS
 10
160.2053401684
 20
193.4492695455
  0
VERTEX
  8
0
 62
7
  6
CONTINUOUS
 10
160.1838285183
 20
193.4520765452
  0
VERTEX
  8
0
 62
7
  6
CONTINUOUS
 10
160.1621211839
 20
193.4580357326
  0
VERTEX
  8
0
 62
7
  6
CONTINUOUS
 10
160.1408284816
 20
193.4672991893
  0
VERTEX
  8
0
 62
7
  6
CONTINUOUS
 10
160.1205921698
 20
193.4798909917
  0
VERTEX
  8
0
 62
7
  6
CONTINUOUS
 10
160.1020280336
 20
193.4957311307
  0
VERTEX
  8
0
 62
7
  6
CONTINUOUS
 10
160.085757568
 20
193.5146110153
  0
VERTEX
  8
0
 62
7
  6
CONTINUOUS
 10
160.0723799885
 20
193.5361834502
  0
VERTEX
  8
0
 62
7
  6
CONTINUOUS
 10
160.0624355803
 20
193.559967686
  0
VERTEX
  8
0
 62
7
  6
CONTINUOUS
 10
160.0563767299
 20
193.5853473825
  0
VERTEX
  8
0
 62
7
  6
CONTINUOUS
 10
160.0545187214
 20
193.6095858753
  0
SEQEND
  0
POLYLINE
  8
0
 62
7
  6
CONTINUOUS
 66
1
 70
0
  0
VERTEX
  8
0
 62
7
  6
CONTINUOUS
 10
140.6113975563
 20
193.6564258022
  0
VERTEX
  8
0
 62
7
  6
CONTINUOUS
 10
140.6166327361
 20
193.6562631063
  0
VERTEX
  8
0
 62
7
  6
CONTINUOUS
 10
140.6318363049
 20
193.6539203207
  0
VERTEX
  8
0
 62
7
  6
CONTINUOUS
 10
140.6472806917
 20
193.6484623153
  0
VERTEX
  8
0
 62
7
  6
CONTINUOUS
 10
140.6621963882
 20
193.6395719624
  0
VERTEX
  8
0
 62
7
  6
CONTINUOUS
 10
140.6756943855
 20
193.6270771996
  0
VERTEX
  8
0
 62
7
  6
CONTINUOUS
 10
140.6867292988
 20
193.6110261347
  0
VERTEX
  8
0
 62
7
  6
CONTINUOUS
 10
140.6941267522
 20
193.5917996731
  0
VERTEX
  8
0
 62
7
  6
CONTINUOUS
 10
140.6966891762
 20
193.5711318642
  0
SEQEND
  0
POLYLINE
  8
0
 62
7
  6
CONTINUOUS
 66
1
 70
0
  0
VERTEX
  8
0
 62
7
  6
CONTINUOUS
 10
136.0793452837
 20
193.6571476075
  0
VERTEX
  8
0
 62
7
  6
CONTINUOUS
 10
136.0834206686
 20
193.6568434171
  0
VERTEX
  8
0
 62
7
  6
CONTINUOUS
 10
136.0963632789
 20
193.6564268976
  0
SEQEND
  0
POLYLINE
  8
0
 62
7
  6
CONTINUOUS
 66
1
 70
0
  0
VERTEX
  8
0
 62
7
  6
CONTINUOUS
 10
164.6718630798
 20
193.4482455073
  0
VERTEX
  8
0
 62
7
  6
CONTINUOUS
 10
164.667786336
 20
193.4485497996
  0
VERTEX
  8
0
 62
7
  6
CONTINUOUS
 10
164.654844317
 20
193.4489662804
  0
SEQEND
  0
POLYLINE
  8
0
 62
7
  6
CONTINUOUS
 66
1
 70
0
  0
VERTEX
  8
0
 62
7
  6
CONTINUOUS
 10
136.0793452837
 20
206.3571476075
  0
VERTEX
  8
0
 62
7
  6
CONTINUOUS
 10
136.0834206686
 20
206.3568434171
  0
VERTEX
  8
0
 62
7
  6
CONTINUOUS
 10
136.0963632789
 20
206.3564268976
  0
SEQEND
  0
POLYLINE
  8
0
 62
7
  6
CONTINUOUS
 66
1
 70
0
  0
VERTEX
  8
0
 62
7
  6
CONTINUOUS
 10
168.3836729643
 20
217.5530814481
  0
VERTEX
  8
0
 62
7
  6
CONTINUOUS
 10
168.3163167475
 20
217.6854672379
  0
VERTEX
  8
0
 62
7
  6
CONTINUOUS
 10
168.1884384705
 20
217.8429270369
  0
VERTEX
  8
0
 62
7
  6
CONTINUOUS
 10
168.0109709
 20
217.9919890812
  0
VERTEX
  8
0
 62
7
  6
CONTINUOUS
 10
167.7812514607
 20
218.1337073175
  0
VERTEX
  8
0
 62
7
  6
CONTINUOUS
 10
167.49813044
 20
218.2676508546
  0
VERTEX
  8
0
 62
7
  6
CONTINUOUS
 10
167.1684506691
 20
218.3906467481
  0
VERTEX
  8
0
 62
7
  6
CONTINUOUS
 10
166.8044644812
 20
218.4998272052
  0
VERTEX
  8
0
 62
7
  6
CONTINUOUS
 10
166.4121960263
 20
218.5954729364
  0
VERTEX
  8
0
 62
7
  6
CONTINUOUS
 10
165.9941078263
 20
218.6784284474
  0
VERTEX
  8
0
 62
7
  6
CONTINUOUS
 10
165.5517897836
 20
218.7491760791
  0
VERTEX
  8
0
 62
7
  6
CONTINUOUS
 10
165.0861029415
 20
218.8078850262
  0
VERTEX
  8
0
 62
7
  6
CONTINUOUS
 10
164.6718823335
 20
218.8482458612
  0
SEQEND
  0
POLYLINE
  8
0
 62
7
  6
CONTINUOUS
 66
1
 70
0
  0
VERTEX
  8
0
 62
7
  6
CONTINUOUS
 10
136.079324745
 20
212.4981458393
  0
VERTEX
  8
0
 62
7
  6
CONTINUOUS
 10
135.6677712219
 20
212.458079119
  0
VERTEX
  8
0
 62
7
  6
CONTINUOUS
 10
135.1999082816
 20
212.3991460211
  0
VERTEX
  8
0
 62
7
  6
CONTINUOUS
 10
134.7535604645
 20
212.3276964113
  0
VERTEX
  8
0
 62
7
  6
CONTINUOUS
 10
134.3320392503
 20
212.2438367147
  0
VERTEX
  8
0
 62
7
  6
CONTINUOUS
 10
133.9388032488
 20
212.1475786436
  0
VERTEX
  8
0
 62
7
  6
CONTINUOUS
 10
133.5774126786
 20
212.0387611581
  0
VERTEX
  8
0
 62
7
  6
CONTINUOUS
 10
133.252959471
 20
211.9175016894
  0
VERTEX
  8
0
 62
7
  6
CONTINUOUS
 10
132.9734994544
 20
211.7855108995
  0
VERTEX
  8
0
 62
7
  6
CONTINUOUS
 10
132.7436716433
 20
211.6443397817
  0
VERTEX
  8
0
 62
7
  6
CONTINUOUS
 10
132.5643250401
 20
211.494387815
  0
VERTEX
  8
0
 62
7
  6
CONTINUOUS
 10
132.4350246626
 20
211.3355767647
  0
VERTEX
  8
0
 62
7
  6
CONTINUOUS
 10
132.3675424109
 20
211.2030025291
  0
SEQEND
  0
POLYLINE
  8
0
 62
7
  6
CONTINUOUS
 66
1
 70
0
  0
VERTEX
  8
0
 62
7
  6
CONTINUOUS
 10
164.6718822646
 20
212.7072473663
  0
VERTEX
  8
0
 62
7
  6
CONTINUOUS
 10
165.0805682373
 20
212.7469983697
  0
VERTEX
  8
0
 62
7
  6
CONTINUOUS
 10
165.5468266197
 20
212.8056106314
  0
VERTEX
  8
0
 62
7
  6
CONTINUOUS
 10
165.9896791109
 20
212.8762754303
  0
VERTEX
  8
0
 62
7
  6
CONTINUOUS
 10
166.4083202764
 20
212.9591686542
  0
VERTEX
  8
0
 62
7
  6
CONTINUOUS
 10
166.8011997374
 20
213.0547852369
  0
VERTEX
  8
0
 62
7
  6
CONTINUOUS
 10
167.165872377
 20
213.1639871266
  0
VERTEX
  8
0
 62
7
  6
CONTINUOUS
 10
167.4962082535
 20
213.2870379869
  0
VERTEX
  8
0
 62
7
  6
CONTINUOUS
 10
167.7797134818
 20
213.4209588839
  0
VERTEX
  8
0
 62
7
  6
CONTINUOUS
 10
168.0094842813
 20
213.5624420467
  0
VERTEX
  8
0
 62
7
  6
CONTINUOUS
 10
168.1869285976
 20
213.7110518122
  0
VERTEX
  8
0
 62
7
  6
CONTINUOUS
 10
168.3149778974
 20
213.867939897
  0
VERTEX
  8
0
 62
7
  6
CONTINUOUS
 10
168.3836747948
 20
214.0024233153
  0
SEQEND
  0
POLYLINE
  8
0
 62
7
  6
CONTINUOUS
 66
1
 70
0
  0
VERTEX
  8
0
 62
7
  6
CONTINUOUS
 10
164.6548443106
 20
212.706526954
  0
VERTEX
  8
0
 62
7
  6
CONTINUOUS
 10
164.6677863375
 20
212.7069434353
  0
VERTEX
  8
0
 62
7
  6
CONTINUOUS
 10
164.6718630789
 20
212.7072477275
  0
SEQEND
  0
POLYLINE
  8
0
 62
7
  6
CONTINUOUS
 66
1
 70
0
  0
VERTEX
  8
0
 62
7
  6
CONTINUOUS
 10
136.0963632844
 20
212.4988663331
  0
VERTEX
  8
0
 62
7
  6
CONTINUOUS
 10
136.0834206751
 20
212.4984498138
  0
VERTEX
  8
0
 62
7
  6
CONTINUOUS
 10
136.0793452953
 20
212.4981456238
  0
SEQEND
  0
LINE
  8
0
 62
7
  6
CONTINUOUS
 10
164.6548437008
 20
206.1489677237
 11
160.2146454122
 21
206.1489677237
  0
LINE
  8
0
 62
7
  6
CONTINUOUS
 10
136.0963633006
 20
206.3564255094
 11
140.6116868522
 21
206.3564255094
  0
LINE
  8
0
 62
7
  6
CONTINUOUS
 10
140.6116884778
 20
212.4988677237
 11
136.0963633064
 21
212.4988677237
  0
LINE
  8
0
 62
7
  6
CONTINUOUS
 10
160.2146449782
 20
212.7065255094
 11
164.6548436922
 21
212.7065255094
  0
LINE
  8
0
 62
7
  6
CONTINUOUS
 10
164.6548437008
 20
218.8489677237
 11
160.2146454122
 21
218.8489677237
  0
LINE
  8
0
 62
7
  6
CONTINUOUS
 10
136.0963633006
 20
219.0564255094
 11
140.6116868522
 21
219.0564255094
  0
POLYLINE
  8
0
 62
7
  6
CONTINUOUS
 66
1
 70
0
  0
VERTEX
  8
0
 62
7
  6
CONTINUOUS
 10
160.2151306395
 20
206.1489671493
  0
VERTEX
  8
0
 62
7
  6
CONTINUOUS
 10
160.2053401684
 20
206.1492695455
  0
VERTEX
  8
0
 62
7
  6
CONTINUOUS
 10
160.1838285183
 20
206.1520765452
  0
VERTEX
  8
0
 62
7
  6
CONTINUOUS
 10
160.1621211839
 20
206.1580357326
  0
VERTEX
  8
0
 62
7
  6
CONTINUOUS
 10
160.1408284816
 20
206.1672991893
  0
VERTEX
  8
0
 62
7
  6
CONTINUOUS
 10
160.1205921698
 20
206.1798909917
  0
VERTEX
  8
0
 62
7
  6
CONTINUOUS
 10
160.1020280336
 20
206.1957311307
  0
VERTEX
  8
0
 62
7
  6
CONTINUOUS
 10
160.085757568
 20
206.2146110153
  0
VERTEX
  8
0
 62
7
  6
CONTINUOUS
 10
160.0723799885
 20
206.2361834502
  0
VERTEX
  8
0
 62
7
  6
CONTINUOUS
 10
160.0624355803
 20
206.259967686
  0
VERTEX
  8
0
 62
7
  6
CONTINUOUS
 10
160.0563767299
 20
206.2853473825
  0
VERTEX
  8
0
 62
7
  6
CONTINUOUS
 10
160.0545187214
 20
206.3095858753
  0
SEQEND
  0
POLYLINE
  8
0
 62
7
  6
CONTINUOUS
 66
1
 70
0
  0
VERTEX
  8
0
 62
7
  6
CONTINUOUS
 10
160.2151306395
 20
218.8489671493
  0
VERTEX
  8
0
 62
7
  6
CONTINUOUS
 10
160.2053401684
 20
218.8492695455
  0
VERTEX
  8
0
 62
7
  6
CONTINUOUS
 10
160.1838285183
 20
218.8520765452
  0
VERTEX
  8
0
 62
7
  6
CONTINUOUS
 10
160.1621211839
 20
218.8580357326
  0
VERTEX
  8
0
 62
7
  6
CONTINUOUS
 10
160.1408284816
 20
218.8672991893
  0
VERTEX
  8
0
 62
7
  6
CONTINUOUS
 10
160.1205921698
 20
218.8798909917
  0
VERTEX
  8
0
 62
7
  6
CONTINUOUS
 10
160.1020280336
 20
218.8957311307
  0
VERTEX
  8
0
 62
7
  6
CONTINUOUS
 10
160.085757568
 20
218.9146110153
  0
VERTEX
  8
0
 62
7
  6
CONTINUOUS
 10
160.0723799885
 20
218.9361834502
  0
VERTEX
  8
0
 62
7
  6
CONTINUOUS
 10
160.0624355803
 20
218.959967686
  0
VERTEX
  8
0
 62
7
  6
CONTINUOUS
 10
160.0563767299
 20
218.9853473825
  0
VERTEX
  8
0
 62
7
  6
CONTINUOUS
 10
160.0545187214
 20
219.0095858753
  0
SEQEND
  0
POLYLINE
  8
0
 62
7
  6
CONTINUOUS
 66
1
 70
0
  0
VERTEX
  8
0
 62
7
  6
CONTINUOUS
 10
140.6113975563
 20
206.3564258022
  0
VERTEX
  8
0
 62
7
  6
CONTINUOUS
 10
140.6166327361
 20
206.3562631063
  0
VERTEX
  8
0
 62
7
  6
CONTINUOUS
 10
140.6318363049
 20
206.3539203207
  0
VERTEX
  8
0
 62
7
  6
CONTINUOUS
 10
140.6472806917
 20
206.3484623153
  0
VERTEX
  8
0
 62
7
  6
CONTINUOUS
 10
140.6621963882
 20
206.3395719624
  0
VERTEX
  8
0
 62
7
  6
CONTINUOUS
 10
140.6756943855
 20
206.3270771996
  0
VERTEX
  8
0
 62
7
  6
CONTINUOUS
 10
140.6867292988
 20
206.3110261347
  0
VERTEX
  8
0
 62
7
  6
CONTINUOUS
 10
140.6941267522
 20
206.2917996731
  0
VERTEX
  8
0
 62
7
  6
CONTINUOUS
 10
140.6966891762
 20
206.2711318642
  0
SEQEND
  0
POLYLINE
  8
0
 62
7
  6
CONTINUOUS
 66
1
 70
0
  0
VERTEX
  8
0
 62
7
  6
CONTINUOUS
 10
140.6113975563
 20
219.0564258022
  0
VERTEX
  8
0
 62
7
  6
CONTINUOUS
 10
140.6166327361
 20
219.0562631063
  0
VERTEX
  8
0
 62
7
  6
CONTINUOUS
 10
140.6318363049
 20
219.0539203207
  0
VERTEX
  8
0
 62
7
  6
CONTINUOUS
 10
140.6472806917
 20
219.0484623153
  0
VERTEX
  8
0
 62
7
  6
CONTINUOUS
 10
140.6621963882
 20
219.0395719624
  0
VERTEX
  8
0
 62
7
  6
CONTINUOUS
 10
140.6756943855
 20
219.0270771996
  0
VERTEX
  8
0
 62
7
  6
CONTINUOUS
 10
140.6867292988
 20
219.0110261347
  0
VERTEX
  8
0
 62
7
  6
CONTINUOUS
 10
140.6941267522
 20
218.9917996731
  0
VERTEX
  8
0
 62
7
  6
CONTINUOUS
 10
140.6966891762
 20
218.9711318642
  0
SEQEND
  0
POLYLINE
  8
0
 62
7
  6
CONTINUOUS
 66
1
 70
0
  0
VERTEX
  8
0
 62
7
  6
CONTINUOUS
 10
164.6718630798
 20
206.1482455073
  0
VERTEX
  8
0
 62
7
  6
CONTINUOUS
 10
164.667786336
 20
206.1485497996
  0
VERTEX
  8
0
 62
7
  6
CONTINUOUS
 10
164.654844317
 20
206.1489662804
  0
SEQEND
  0
POLYLINE
  8
0
 62
7
  6
CONTINUOUS
 66
1
 70
0
  0
VERTEX
  8
0
 62
7
  6
CONTINUOUS
 10
136.0793452837
 20
219.0571476075
  0
VERTEX
  8
0
 62
7
  6
CONTINUOUS
 10
136.0834206686
 20
219.0568434171
  0
VERTEX
  8
0
 62
7
  6
CONTINUOUS
 10
136.0963632789
 20
219.0564268976
  0
SEQEND
  0
POLYLINE
  8
0
 62
7
  6
CONTINUOUS
 66
1
 70
0
  0
VERTEX
  8
0
 62
7
  6
CONTINUOUS
 10
164.6718630798
 20
218.8482455073
  0
VERTEX
  8
0
 62
7
  6
CONTINUOUS
 10
164.667786336
 20
218.8485497996
  0
VERTEX
  8
0
 62
7
  6
CONTINUOUS
 10
164.654844317
 20
218.8489662804
  0
SEQEND
  0
POLYLINE
  8
0
 62
7
  6
CONTINUOUS
 66
1
 70
0
  0
VERTEX
  8
0
 62
7
  6
CONTINUOUS
 10
132.5755862546
 20
225.2416466165
  0
VERTEX
  8
0
 62
7
  6
CONTINUOUS
 10
132.5215047484
 20
225.2357263406
  0
VERTEX
  8
0
 62
7
  6
CONTINUOUS
 10
132.4699836288
 20
225.2182457241
  0
VERTEX
  8
0
 62
7
  6
CONTINUOUS
 10
132.4234638554
 20
225.1900322336
  0
VERTEX
  8
0
 62
7
  6
CONTINUOUS
 10
132.3841496243
 20
225.152422247
  0
VERTEX
  8
0
 62
7
  6
CONTINUOUS
 10
132.3539035946
 20
225.1071977091
  0
VERTEX
  8
0
 62
7
  6
CONTINUOUS
 10
132.3341584716
 20
225.0565017374
  0
VERTEX
  8
0
 62
7
  6
CONTINUOUS
 10
132.3258487943
 20
225.0027367216
  0
VERTEX
  8
0
 62
7
  6
CONTINUOUS
 10
132.3256033969
 20
224.9916628388
  0
SEQEND
  0
LINE
  8
0
 62
7
  6
CONTINUOUS
 10
159.8045182052
 20
225.2416466165
 11
132.575592136
 21
225.2416466165
  0
POLYLINE
  8
0
 62
7
  6
CONTINUOUS
 66
1
 70
0
  0
VERTEX
  8
0
 62
7
  6
CONTINUOUS
 10
159.8045182052
 20
225.2416466165
  0
VERTEX
  8
0
 62
7
  6
CONTINUOUS
 10
159.859447139
 20
225.2355376009
  0
VERTEX
  8
0
 62
7
  6
CONTINUOUS
 10
159.9123912197
 20
225.2171758003
  0
VERTEX
  8
0
 62
7
  6
CONTINUOUS
 10
159.9600362664
 20
225.1873865783
  0
VERTEX
  8
0
 62
7
  6
CONTINUOUS
 10
159.99985722
 20
225.1476679911
  0
VERTEX
  8
0
 62
7
  6
CONTINUOUS
 10
160.0297679179
 20
225.1001019849
  0
VERTEX
  8
0
 62
7
  6
CONTINUOUS
 10
160.0482704576
 20
225.0471879476
  0
VERTEX
  8
0
 62
7
  6
CONTINUOUS
 10
160.0545182052
 20
224.9916466165
  0
SEQEND
  0
LINE
  8
0
 62
2
  6
CONTINUOUS
 10
68.6803350172
 20
240.92266341
 11
66.9203350172
 21
240.92266341
  0
LINE
  8
DEFAULT_1
 62
2
  6
CENTER
 10
63.4003350172
 20
240.92266341
 11
63.1503350172
 21
240.92266341
  0
LINE
  8
DEFAULT_1
 62
2
  6
CENTER
 10
72.2003350172
 20
240.92266341
 11
72.4503350172
 21
240.92266341
  0
LINE
  8
0
 62
7
  6
CONTINUOUS
 10
62.7003350172
 20
267.938986388
 11
62.7003350172
 21
264.97266341
  0
LINE
  8
0
 62
7
  6
CONTINUOUS
 10
62.7003350172
 20
239.3063404225
 11
62.7003350172
 21
242.27266341
  0
LINE
  8
0
 62
7
  6
CONTINUOUS
 10
62.9003350172
 20
253.8969239197
 11
62.9003350172
 21
253.3484029003
  0
LINE
  8
0
 62
7
  6
CONTINUOUS
 10
71.4301222596
 20
260.47266341
 11
71.5067179952
 21
260.497663413
  0
LINE
  8
0
 62
7
  6
CONTINUOUS
 10
72.0173562679
 20
248.62266341
 11
72.1194839869
 21
248.62266341
  0
LINE
  8
0
 62
7
  6
CONTINUOUS
 10
71.3535265062
 20
260.422663404
 11
71.4301222596
 21
260.47266341
  0
LINE
  8
0
 62
7
  6
CONTINUOUS
 10
71.4045903299
 20
260.5976634092
 11
71.3535265062
 21
260.5726634085
  0
LINE
  8
0
 62
7
  6
CONTINUOUS
 10
71.2003350172
 20
259.8226633861
 11
71.2513988454
 21
259.8476634338
  0
LINE
  8
0
 62
7
  6
CONTINUOUS
 10
71.3279945944
 20
259.9976634338
 11
71.2003350172
 21
259.94766341
  0
LINE
  8
0
 62
7
  6
CONTINUOUS
 10
71.8131009731
 20
258.9476633623
 11
71.8896967087
 21
258.97266341
  0
LINE
  8
0
 62
7
  6
CONTINUOUS
 10
72.1194839869
 20
248.77266341
 11
72.0428881798
 21
248.77266341
  0
LINE
  8
0
 62
7
  6
CONTINUOUS
 10
71.2003350172
 20
249.3976630285
 11
71.7365052376
 21
249.3976630285
  0
LINE
  8
0
 62
7
  6
CONTINUOUS
 10
71.8896967087
 20
249.3976630285
 11
72.272675458
 21
249.3976630285
  0
LINE
  8
0
 62
7
  6
CONTINUOUS
 10
72.4003350172
 20
249.5476630285
 11
71.2003350172
 21
249.5476630285
  0
LINE
  8
0
 62
7
  6
CONTINUOUS
 10
72.0173562679
 20
249.74766341
 11
72.1194839869
 21
249.74766341
  0
LINE
  8
0
 62
7
  6
CONTINUOUS
 10
72.1194839869
 20
249.89766341
 11
72.0428881798
 21
249.89766341
  0
POLYLINE
  8
0
 62
7
  6
CONTINUOUS
 66
1
 70
0
  0
VERTEX
  8
0
 62
7
  6
CONTINUOUS
 10
69.9003350172
 20
248.92266341
  0
VERTEX
  8
0
 62
7
  6
CONTINUOUS
 10
69.7272189858
 20
248.9347825565
  0
VERTEX
  8
0
 62
7
  6
CONTINUOUS
 10
69.5591386294
 20
248.9432751143
  0
VERTEX
  8
0
 62
7
  6
CONTINUOUS
 10
69.4012297339
 20
248.9482675712
  0
VERTEX
  8
0
 62
7
  6
CONTINUOUS
 10
69.2583489451
 20
248.949979417
  0
VERTEX
  8
0
 62
7
  6
CONTINUOUS
 10
69.1349044513
 20
248.9487181111
  0
VERTEX
  8
0
 62
7
  6
CONTINUOUS
 10
69.0347054134
 20
248.9448714174
  0
VERTEX
  8
0
 62
7
  6
CONTINUOUS
 10
68.9608394563
 20
248.938897007
  0
VERTEX
  8
0
 62
7
  6
CONTINUOUS
 10
68.9155818747
 20
248.931309251
  0
VERTEX
  8
0
 62
7
  6
CONTINUOUS
 10
68.9003350172
 20
248.92266341
  0
SEQEND
  0
LINE
  8
0
 62
7
  6
CONTINUOUS
 10
71.9407605324
 20
248.6476630285
 11
72.0173562679
 21
248.62266341
  0
LINE
  8
0
 62
7
  6
CONTINUOUS
 10
72.0428881798
 20
248.77266341
 11
71.9662924442
 21
248.7976630285
  0
POLYLINE
  8
0
 62
7
  6
CONTINUOUS
 66
1
 70
0
  0
VERTEX
  8
0
 62
7
  6
CONTINUOUS
 10
63.9003350172
 20
253.8969239197
  0
VERTEX
  8
0
 62
7
  6
CONTINUOUS
 10
63.8633535174
 20
254.0663676625
  0
VERTEX
  8
0
 62
7
  6
CONTINUOUS
 10
63.8229677751
 20
254.2296659495
  0
VERTEX
  8
0
 62
7
  6
CONTINUOUS
 10
63.7809409201
 20
254.3819706703
  0
VERTEX
  8
0
 62
7
  6
CONTINUOUS
 10
63.7390853734
 20
254.5187042624
  0
VERTEX
  8
0
 62
7
  6
CONTINUOUS
 10
63.6991954068
 20
254.6357404575
  0
VERTEX
  8
0
 62
7
  6
CONTINUOUS
 10
63.6629849793
 20
254.7295624467
  0
VERTEX
  8
0
 62
7
  6
CONTINUOUS
 10
63.6320347348
 20
254.7973841111
  0
VERTEX
  8
0
 62
7
  6
CONTINUOUS
 10
63.6077486665
 20
254.837230159
  0
VERTEX
  8
0
 62
7
  6
CONTINUOUS
 10
63.5913180228
 20
254.847980436
  0
SEQEND
  0
LINE
  8
0
 62
7
  6
CONTINUOUS
 10
71.3535265062
 20
260.5726634085
 11
71.2769307617
 21
260.497663413
  0
LINE
  8
0
 62
7
  6
CONTINUOUS
 10
71.4556541715
 20
257.02266341
 11
71.532249907
 21
257.0476633146
  0
LINE
  8
0
 62
7
  6
CONTINUOUS
 10
71.9662924442
 20
256.94766341
 11
72.0428881798
 21
256.9726633146
  0
LINE
  8
0
 62
7
  6
CONTINUOUS
 10
68.2093520116
 20
256.3484706368
 11
63.5913180228
 21
254.847980436
  0
LINE
  8
0
 62
7
  6
CONTINUOUS
 10
71.2003350172
 20
250.5226630285
 11
71.7365052376
 21
250.5226630285
  0
LINE
  8
0
 62
7
  6
CONTINUOUS
 10
71.8896967087
 20
250.5226630285
 11
72.272675458
 21
250.5226630285
  0
LINE
  8
0
 62
7
  6
CONTINUOUS
 10
72.4003350172
 20
250.6726630285
 11
71.2003350172
 21
250.6726630285
  0
LINE
  8
0
 62
7
  6
CONTINUOUS
 10
71.4811860833
 20
252.07266341
 11
71.6088456426
 21
252.07266341
  0
LINE
  8
0
 62
7
  6
CONTINUOUS
 10
72.0173562679
 20
252.07266341
 11
72.1194839869
 21
252.07266341
  0
LINE
  8
0
 62
7
  6
CONTINUOUS
 10
63.5913180228
 20
252.397346384
 11
68.2093520116
 21
250.8968561832
  0
LINE
  8
0
 62
7
  6
CONTINUOUS
 10
71.9407605324
 20
249.7726630285
 11
72.0173562679
 21
249.74766341
  0
LINE
  8
0
 62
7
  6
CONTINUOUS
 10
72.0428881798
 20
249.89766341
 11
71.9662924442
 21
249.9226630285
  0
LINE
  8
0
 62
7
  6
CONTINUOUS
 10
71.838632885
 20
248.7226630285
 11
71.9407605324
 21
248.6476630285
  0
LINE
  8
0
 62
2
  6
CONTINUOUS
 10
67.8003350172
 20
267.20266341
 11
67.8003350172
 21
265.44266341
  0
LINE
  8
DEFAULT_1
 62
2
  6
CENTER
 10
67.8003350172
 20
261.92266341
 11
67.8003350172
 21
261.67266341
  0
LINE
  8
0
 62
2
  6
CONTINUOUS
 10
67.8003350172
 20
241.80266341
 11
67.8003350172
 21
240.04266341
  0
LINE
  8
DEFAULT_1
 62
2
  6
CENTER
 10
67.8003350172
 20
236.52266341
 11
67.8003350172
 21
236.27266341
  0
LINE
  8
DEFAULT_1
 62
2
  6
CENTER
 10
67.8003350172
 20
245.32266341
 11
67.8003350172
 21
245.57266341
  0
LINE
  8
DEFAULT_1
 62
2
  6
CENTER
 10
67.8003350172
 20
270.72266341
 11
67.8003350172
 21
270.97266341
  0
LINE
  8
0
 62
7
  6
CONTINUOUS
 10
71.3024626736
 20
260.32266341
 11
71.3535265062
 21
260.422663404
  0
LINE
  8
0
 62
7
  6
CONTINUOUS
 10
71.2769307617
 20
260.497663413
 11
71.2258669313
 21
260.422663404
  0
LINE
  8
0
 62
7
  6
CONTINUOUS
 10
71.8641647968
 20
259.12266341
 11
71.8131009731
 21
259.0726634577
  0
LINE
  8
0
 62
7
  6
CONTINUOUS
 10
71.8896967087
 20
258.97266341
 11
71.9407605324
 21
259.0226633623
  0
LINE
  8
0
 62
7
  6
CONTINUOUS
 10
71.3790584181
 20
256.94766341
 11
71.4556541715
 21
257.02266341
  0
LINE
  8
0
 62
7
  6
CONTINUOUS
 10
71.659909502
 20
256.4726635054
 11
71.5833137307
 21
256.42266341
  0
LINE
  8
0
 62
7
  6
CONTINUOUS
 10
71.4301222596
 20
257.17266341
 11
71.3024626736
 21
257.09766341
  0
LINE
  8
0
 62
7
  6
CONTINUOUS
 10
71.6088456426
 20
256.27266341
 11
71.7109733257
 21
256.3226635054
  0
LINE
  8
0
 62
7
  6
CONTINUOUS
 10
72.1705478106
 20
256.5226633146
 11
72.1194839869
 21
256.49766341
  0
LINE
  8
0
 62
7
  6
CONTINUOUS
 10
72.1450158987
 20
255.37266341
 11
71.2003350172
 21
255.0226636007
  0
LINE
  8
0
 62
7
  6
CONTINUOUS
 10
71.3279945944
 20
254.92266341
 11
72.4003350172
 21
255.29766341
  0
LINE
  8
0
 62
7
  6
CONTINUOUS
 10
72.1194839869
 20
256.34766341
 11
72.1960797224
 21
256.3726633146
  0
LINE
  8
0
 62
7
  6
CONTINUOUS
 10
72.0939520035
 20
252.22266341
 11
72.0428881798
 21
252.22266341
  0
LINE
  8
0
 62
7
  6
CONTINUOUS
 10
71.5833137307
 20
252.22266341
 11
71.5067179952
 21
252.22266341
  0
LINE
  8
0
 62
7
  6
CONTINUOUS
 10
71.3535265062
 20
252.8476636007
 11
71.7365052376
 21
252.8476636007
  0
LINE
  8
0
 62
7
  6
CONTINUOUS
 10
71.8896967087
 20
252.8476636007
 11
72.2471435461
 21
252.8476636007
  0
LINE
  8
0
 62
7
  6
CONTINUOUS
 10
72.4003350172
 20
252.9976636007
 11
71.2003350172
 21
252.9976636007
  0
LINE
  8
0
 62
7
  6
CONTINUOUS
 10
72.0173562679
 20
253.19766341
 11
72.1194839869
 21
253.19766341
  0
LINE
  8
0
 62
7
  6
CONTINUOUS
 10
72.1194839869
 20
253.34766341
 11
72.0428881798
 21
253.34766341
  0
LINE
  8
DEFAULT_1
 62
2
  6
CENTER
 10
60.697269922
 20
253.62266341
 11
75.1459066884
 21
253.62266341
  0
POLYLINE
  8
0
 62
7
  6
CONTINUOUS
 66
1
 70
0
  0
VERTEX
  8
0
 62
7
  6
CONTINUOUS
 10
63.9003350172
 20
253.3484029003
  0
VERTEX
  8
0
 62
7
  6
CONTINUOUS
 10
63.7277565292
 20
253.3655924001
  0
VERTEX
  8
0
 62
7
  6
CONTINUOUS
 10
63.5599707483
 20
253.3776452228
  0
VERTEX
  8
0
 62
7
  6
CONTINUOUS
 10
63.4021333387
 20
253.384740056
  0
VERTEX
  8
0
 62
7
  6
CONTINUOUS
 10
63.2591578898
 20
253.3871860697
  0
VERTEX
  8
0
 62
7
  6
CONTINUOUS
 10
63.1355231764
 20
253.3854146308
  0
VERTEX
  8
0
 62
7
  6
CONTINUOUS
 10
63.0351035248
 20
253.3799690569
  0
VERTEX
  8
0
 62
7
  6
CONTINUOUS
 10
62.9610371375
 20
253.3714916719
  0
VERTEX
  8
0
 62
7
  6
CONTINUOUS
 10
62.9156364863
 20
253.3607073537
  0
VERTEX
  8
0
 62
7
  6
CONTINUOUS
 10
62.9003350172
 20
253.3484029003
  0
SEQEND
  0
LINE
  8
0
 62
7
  6
CONTINUOUS
 10
71.4045903299
 20
252.0976636007
 11
71.4811860833
 21
252.07266341
  0
LINE
  8
0
 62
7
  6
CONTINUOUS
 10
71.5067179952
 20
252.22266341
 11
71.4301222596
 21
252.2476636007
  0
LINE
  8
0
 62
7
  6
CONTINUOUS
 10
71.9407605324
 20
252.0976636007
 11
72.0173562679
 21
252.07266341
  0
LINE
  8
0
 62
7
  6
CONTINUOUS
 10
72.0428881798
 20
252.22266341
 11
71.9662924442
 21
252.2476636007
  0
LINE
  8
0
 62
7
  6
CONTINUOUS
 10
71.838632885
 20
249.8476630285
 11
71.9407605324
 21
249.7726630285
  0
LINE
  8
0
 62
7
  6
CONTINUOUS
 10
71.9662924442
 20
248.7976630285
 11
71.9152286205
 21
248.84766341
  0
LINE
  8
0
 62
7
  6
CONTINUOUS
 10
71.7620371494
 20
248.8226637915
 11
71.838632885
 21
248.7226630285
  0
LINE
  8
0
 62
7
  6
CONTINUOUS
 10
68.9940272302
 20
248.5000451483
 11
69.8767700621
 21
246.6069970361
  0
LINE
  8
0
 62
7
  6
CONTINUOUS
 10
68.9003350172
 20
258.0529102591
 11
68.9003350172
 21
257.2995271531
  0
LINE
  8
0
 62
7
  6
CONTINUOUS
 10
68.9003350172
 20
249.9457996669
 11
68.9003350172
 21
248.92266341
  0
LINE
  8
0
 62
7
  6
CONTINUOUS
 10
71.2258669313
 20
260.422663404
 11
71.2003350172
 21
260.32266341
  0
LINE
  8
0
 62
7
  6
CONTINUOUS
 10
71.8896967087
 20
259.1726633623
 11
71.8641647968
 21
259.12266341
  0
LINE
  8
0
 62
7
  6
CONTINUOUS
 10
71.3024626736
 20
257.09766341
 11
71.2258669313
 21
256.9726633146
  0
LINE
  8
0
 62
7
  6
CONTINUOUS
 10
71.9407605324
 20
259.0226633623
 11
71.9918243561
 21
259.0976633623
  0
LINE
  8
0
 62
7
  6
CONTINUOUS
 10
71.9152286205
 20
256.87266341
 11
71.9662924442
 21
256.94766341
  0
LINE
  8
0
 62
7
  6
CONTINUOUS
 10
71.7109733257
 20
256.5476635054
 11
71.659909502
 21
256.4726635054
  0
LINE
  8
0
 62
7
  6
CONTINUOUS
 10
72.2982073698
 20
256.4476633146
 11
72.3748031054
 21
256.5476635054
  0
LINE
  8
0
 62
7
  6
CONTINUOUS
 10
71.9152286205
 20
257.09766341
 11
71.8131009731
 21
256.9976635054
  0
LINE
  8
0
 62
7
  6
CONTINUOUS
 10
71.7109733257
 20
256.3226635054
 11
71.8131009731
 21
256.42266341
  0
LINE
  8
0
 62
7
  6
CONTINUOUS
 10
72.2216116343
 20
256.57266341
 11
72.1705478106
 21
256.5226633146
  0
LINE
  8
0
 62
7
  6
CONTINUOUS
 10
72.1960797224
 20
256.3726633146
 11
72.2982073698
 21
256.4476633146
  0
LINE
  8
0
 62
7
  6
CONTINUOUS
 10
72.1960797224
 20
253.3726636007
 11
72.1194839869
 21
253.34766341
  0
LINE
  8
0
 62
7
  6
CONTINUOUS
 10
72.1194839869
 20
253.19766341
 11
72.1960797224
 21
253.2226636007
  0
LINE
  8
0
 62
7
  6
CONTINUOUS
 10
71.2003350172
 20
253.9726636007
 11
71.7365052376
 21
253.9726636007
  0
LINE
  8
0
 62
7
  6
CONTINUOUS
 10
71.8896967087
 20
253.9726636007
 11
72.272675458
 21
253.9726636007
  0
LINE
  8
0
 62
7
  6
CONTINUOUS
 10
72.4003350172
 20
254.1226636007
 11
71.2003350172
 21
254.1226636007
  0
LINE
  8
0
 62
7
  6
CONTINUOUS
 10
71.2003350172
 20
254.32266341
 11
72.4003350172
 21
254.32266341
  0
LINE
  8
0
 62
7
  6
CONTINUOUS
 10
72.1450158987
 20
254.47266341
 11
71.2003350172
 21
254.47266341
  0
LINE
  8
0
 62
7
  6
CONTINUOUS
 10
71.2003350172
 20
255.37266341
 11
72.1450158987
 21
255.37266341
  0
LINE
  8
0
 62
7
  6
CONTINUOUS
 10
72.4003350172
 20
255.52266341
 11
71.2003350172
 21
255.52266341
  0
LINE
  8
0
 62
7
  6
CONTINUOUS
 10
71.9407605324
 20
253.2226636007
 11
72.0173562679
 21
253.19766341
  0
LINE
  8
0
 62
7
  6
CONTINUOUS
 10
72.0428881798
 20
253.34766341
 11
71.9662924442
 21
253.3726636007
  0
LINE
  8
0
 62
7
  6
CONTINUOUS
 10
71.3024626736
 20
252.1726636007
 11
71.4045903299
 21
252.0976636007
  0
LINE
  8
0
 62
7
  6
CONTINUOUS
 10
71.838632885
 20
252.1726636007
 11
71.9407605324
 21
252.0976636007
  0
LINE
  8
0
 62
7
  6
CONTINUOUS
 10
71.9662924442
 20
249.9226630285
 11
71.9152286205
 21
249.97266341
  0
LINE
  8
0
 62
7
  6
CONTINUOUS
 10
71.4301222596
 20
252.2476636007
 11
71.3790584181
 21
252.29766341
  0
LINE
  8
0
 62
7
  6
CONTINUOUS
 10
71.7620371494
 20
249.9476637915
 11
71.838632885
 21
249.8476630285
  0
LINE
  8
0
 62
7
  6
CONTINUOUS
 10
71.2258669313
 20
252.2726632193
 11
71.3024626736
 21
252.1726636007
  0
LINE
  8
0
 62
7
  6
CONTINUOUS
 10
71.2003350172
 20
260.32266341
 11
71.2003350172
 21
260.2226633981
  0
LINE
  8
0
 62
7
  6
CONTINUOUS
 10
71.2003350172
 20
259.94766341
 11
71.2003350172
 21
259.8226633861
  0
LINE
  8
0
 62
7
  6
CONTINUOUS
 10
71.2003350172
 20
259.6226634338
 11
71.2003350172
 21
259.49766341
  0
LINE
  8
0
 62
7
  6
CONTINUOUS
 10
71.2003350172
 20
259.04766341
 11
71.2003350172
 21
258.9226634577
  0
LINE
  8
0
 62
7
  6
CONTINUOUS
 10
71.2003350172
 20
258.7226633623
 11
71.2003350172
 21
258.59766341
  0
LINE
  8
0
 62
7
  6
CONTINUOUS
 10
71.2003350172
 20
256.8476635054
 11
71.2003350172
 21
256.64766341
  0
LINE
  8
0
 62
7
  6
CONTINUOUS
 10
71.2003350172
 20
255.52266341
 11
71.2003350172
 21
255.37266341
  0
LINE
  8
0
 62
7
  6
CONTINUOUS
 10
71.2003350172
 20
255.0226636007
 11
71.2003350172
 21
254.8226632193
  0
LINE
  8
0
 62
7
  6
CONTINUOUS
 10
71.2003350172
 20
254.47266341
 11
71.2003350172
 21
254.32266341
  0
LINE
  8
0
 62
7
  6
CONTINUOUS
 10
71.2003350172
 20
254.1226636007
 11
71.2003350172
 21
253.9726636007
  0
LINE
  8
0
 62
7
  6
CONTINUOUS
 10
71.2003350172
 20
252.9976636007
 11
71.2003350172
 21
252.3976636007
  0
LINE
  8
0
 62
7
  6
CONTINUOUS
 10
71.2003350172
 20
250.6726630285
 11
71.2003350172
 21
250.5226630285
  0
LINE
  8
0
 62
7
  6
CONTINUOUS
 10
71.2003350172
 20
249.5476630285
 11
71.2003350172
 21
249.3976630285
  0
LINE
  8
0
 62
7
  6
CONTINUOUS
 10
71.3024626736
 20
260.2226633981
 11
71.3024626736
 21
260.32266341
  0
LINE
  8
0
 62
7
  6
CONTINUOUS
 10
71.3535265062
 20
252.37266341
 11
71.3535265062
 21
252.8476636007
  0
LINE
  8
0
 62
7
  6
CONTINUOUS
 10
71.3535265062
 20
256.64766341
 11
71.3535265062
 21
256.8476635054
  0
LINE
  8
0
 62
7
  6
CONTINUOUS
 10
71.2258669313
 20
256.9726633146
 11
71.2003350172
 21
256.8476635054
  0
LINE
  8
0
 62
7
  6
CONTINUOUS
 10
71.8641647968
 20
256.5226633146
 11
71.8896967087
 21
256.64766341
  0
LINE
  8
0
 62
7
  6
CONTINUOUS
 10
71.9152286205
 20
259.27266341
 11
71.8896967087
 21
259.1726633623
  0
LINE
  8
0
 62
7
  6
CONTINUOUS
 10
71.3535265062
 20
256.8476635054
 11
71.3790584181
 21
256.94766341
  0
LINE
  8
0
 62
7
  6
CONTINUOUS
 10
71.7620371494
 20
256.8976633146
 11
71.7365052376
 21
256.79766341
  0
LINE
  8
0
 62
7
  6
CONTINUOUS
 10
71.7365052376
 20
256.64766341
 11
71.7109733257
 21
256.5476635054
  0
LINE
  8
0
 62
7
  6
CONTINUOUS
 10
71.9918243561
 20
259.0976633623
 11
72.0173562679
 21
259.1726633623
  0
LINE
  8
0
 62
7
  6
CONTINUOUS
 10
71.8896967087
 20
256.79766341
 11
71.9152286205
 21
256.87266341
  0
LINE
  8
0
 62
7
  6
CONTINUOUS
 10
72.2471435461
 20
256.64766341
 11
72.2216116343
 21
256.57266341
  0
LINE
  8
0
 62
7
  6
CONTINUOUS
 10
71.8131009731
 20
256.9976635054
 11
71.7620371494
 21
256.8976633146
  0
LINE
  8
0
 62
7
  6
CONTINUOUS
 10
71.8131009731
 20
256.42266341
 11
71.8641647968
 21
256.5226633146
  0
LINE
  8
0
 62
7
  6
CONTINUOUS
 10
72.2471435461
 20
253.42266341
 11
72.1960797224
 21
253.3726636007
  0
LINE
  8
0
 62
7
  6
CONTINUOUS
 10
72.1960797224
 20
253.2226636007
 11
72.2982073698
 21
253.2976636007
  0
LINE
  8
0
 62
7
  6
CONTINUOUS
 10
71.6854414139
 20
252.0976636007
 11
71.7875690613
 21
252.1726636007
  0
LINE
  8
0
 62
7
  6
CONTINUOUS
 10
71.659909502
 20
252.2476636007
 11
71.5833137307
 21
252.22266341
  0
LINE
  8
0
 62
7
  6
CONTINUOUS
 10
71.6088456426
 20
252.07266341
 11
71.6854414139
 21
252.0976636007
  0
LINE
  8
0
 62
7
  6
CONTINUOUS
 10
72.1705478106
 20
252.2476636007
 11
72.0939520035
 21
252.22266341
  0
LINE
  8
0
 62
7
  6
CONTINUOUS
 10
72.1194839869
 20
252.07266341
 11
72.1960797224
 21
252.0976636007
  0
LINE
  8
0
 62
7
  6
CONTINUOUS
 10
72.0173562679
 20
257.1226633146
 11
71.9152286205
 21
257.09766341
  0
LINE
  8
0
 62
7
  6
CONTINUOUS
 10
71.532249907
 20
257.1976633146
 11
71.4301222596
 21
257.17266341
  0
LINE
  8
0
 62
7
  6
CONTINUOUS
 10
71.6343775544
 20
255.7226632193
 11
71.7620371494
 21
255.7226632193
  0
LINE
  8
0
 62
7
  6
CONTINUOUS
 10
71.7620371494
 20
256.0726633146
 11
71.6343775544
 21
256.0726633146
  0
LINE
  8
0
 62
7
  6
CONTINUOUS
 10
71.4811860833
 20
256.27266341
 11
71.6088456426
 21
256.27266341
  0
LINE
  8
0
 62
7
  6
CONTINUOUS
 10
71.5833137307
 20
256.42266341
 11
71.5067179952
 21
256.42266341
  0
LINE
  8
0
 62
7
  6
CONTINUOUS
 10
72.0428881798
 20
256.9726633146
 11
72.0939520035
 21
256.9726633146
  0
LINE
  8
0
 62
7
  6
CONTINUOUS
 10
72.1194839869
 20
257.1226633146
 11
72.0173562679
 21
257.1226633146
  0
LINE
  8
0
 62
7
  6
CONTINUOUS
 10
72.4003350172
 20
254.54766341
 11
71.3279945944
 21
254.92266341
  0
LINE
  8
0
 62
7
  6
CONTINUOUS
 10
71.2003350172
 20
254.8226632193
 11
72.1450158987
 21
254.47266341
  0
LINE
  8
0
 62
7
  6
CONTINUOUS
 10
71.838632885
 20
253.2976636007
 11
71.9407605324
 21
253.2226636007
  0
LINE
  8
0
 62
7
  6
CONTINUOUS
 10
71.9662924442
 20
252.2476636007
 11
71.9152286205
 21
252.29766341
  0
LINE
  8
0
 62
7
  6
CONTINUOUS
 10
71.9662924442
 20
253.3726636007
 11
71.9152286205
 21
253.42266341
  0
LINE
  8
0
 62
7
  6
CONTINUOUS
 10
71.7620371494
 20
253.3976632193
 11
71.838632885
 21
253.2976636007
  0
LINE
  8
0
 62
7
  6
CONTINUOUS
 10
71.8131009731
 20
252.22266341
 11
71.838632885
 21
252.1726636007
  0
LINE
  8
0
 62
7
  6
CONTINUOUS
 10
71.9152286205
 20
248.84766341
 11
71.8896967087
 21
248.92266341
  0
LINE
  8
0
 62
7
  6
CONTINUOUS
 10
71.9152286205
 20
249.97266341
 11
71.8896967087
 21
250.04766341
  0
LINE
  8
0
 62
7
  6
CONTINUOUS
 10
71.3790584181
 20
252.29766341
 11
71.3535265062
 21
252.37266341
  0
LINE
  8
0
 62
7
  6
CONTINUOUS
 10
71.9152286205
 20
252.29766341
 11
71.8896967087
 21
252.37266341
  0
LINE
  8
0
 62
7
  6
CONTINUOUS
 10
71.7365052376
 20
248.9476630285
 11
71.7620371494
 21
248.8226637915
  0
LINE
  8
0
 62
7
  6
CONTINUOUS
 10
71.2003350172
 20
252.3976636007
 11
71.2258669313
 21
252.2726632193
  0
LINE
  8
0
 62
7
  6
CONTINUOUS
 10
71.7365052376
 20
250.0726630285
 11
71.7620371494
 21
249.9476637915
  0
LINE
  8
0
 62
7
  6
CONTINUOUS
 10
71.532249907
 20
257.0476633146
 11
71.532249907
 21
257.1976633146
  0
LINE
  8
0
 62
7
  6
CONTINUOUS
 10
71.6343775544
 20
256.0726633146
 11
71.6343775544
 21
255.7226632193
  0
LINE
  8
0
 62
7
  6
CONTINUOUS
 10
71.7365052376
 20
256.79766341
 11
71.7365052376
 21
256.64766341
  0
LINE
  8
0
 62
7
  6
CONTINUOUS
 10
71.7365052376
 20
253.9726636007
 11
71.7365052376
 21
253.5226636007
  0
LINE
  8
0
 62
7
  6
CONTINUOUS
 10
71.7365052376
 20
252.8476636007
 11
71.7365052376
 21
252.37266341
  0
LINE
  8
0
 62
7
  6
CONTINUOUS
 10
71.7365052376
 20
250.5226630285
 11
71.7365052376
 21
250.0726630285
  0
LINE
  8
0
 62
7
  6
CONTINUOUS
 10
71.7365052376
 20
249.3976630285
 11
71.7365052376
 21
248.9476630285
  0
LINE
  8
0
 62
7
  6
CONTINUOUS
 10
71.7620371494
 20
255.7226632193
 11
71.7620371494
 21
256.0726633146
  0
LINE
  8
0
 62
7
  6
CONTINUOUS
 10
71.8896967087
 20
248.92266341
 11
71.8896967087
 21
249.3976630285
  0
LINE
  8
0
 62
7
  6
CONTINUOUS
 10
71.8896967087
 20
250.04766341
 11
71.8896967087
 21
250.5226630285
  0
LINE
  8
0
 62
7
  6
CONTINUOUS
 10
71.8896967087
 20
252.37266341
 11
71.8896967087
 21
252.8476636007
  0
LINE
  8
0
 62
7
  6
CONTINUOUS
 10
71.8896967087
 20
253.49766341
 11
71.8896967087
 21
253.9726636007
  0
LINE
  8
0
 62
7
  6
CONTINUOUS
 10
71.8896967087
 20
256.64766341
 11
71.8896967087
 21
256.79766341
  0
LINE
  8
0
 62
7
  6
CONTINUOUS
 10
72.0173562679
 20
258.59766341
 11
72.0173562679
 21
258.7226633623
  0
LINE
  8
0
 62
7
  6
CONTINUOUS
 10
72.0173562679
 20
259.1726633623
 11
72.0173562679
 21
259.27266341
  0
LINE
  8
0
 62
7
  6
CONTINUOUS
 10
72.0173562679
 20
259.49766341
 11
72.0173562679
 21
259.6226634338
  0
LINE
  8
0
 62
7
  6
CONTINUOUS
 10
72.0173562679
 20
259.87266341
 11
72.0173562679
 21
259.9976634338
  0
LINE
  8
0
 62
7
  6
CONTINUOUS
 10
72.0173562679
 20
260.497663413
 11
72.0173562679
 21
260.62266341
  0
LINE
  8
0
 62
7
  6
CONTINUOUS
 10
72.1194839869
 20
256.49766341
 11
72.1194839869
 21
256.34766341
  0
LINE
  8
0
 62
7
  6
CONTINUOUS
 10
72.2471435461
 20
256.79766341
 11
72.2471435461
 21
256.64766341
  0
LINE
  8
0
 62
7
  6
CONTINUOUS
 10
72.2471435461
 20
252.8476636007
 11
72.2471435461
 21
252.37266341
  0
LINE
  8
0
 62
7
  6
CONTINUOUS
 10
72.272675458
 20
258.7226633623
 11
72.272675458
 21
258.59766341
  0
LINE
  8
0
 62
7
  6
CONTINUOUS
 10
72.272675458
 20
253.9726636007
 11
72.272675458
 21
253.49766341
  0
LINE
  8
0
 62
7
  6
CONTINUOUS
 10
72.272675458
 20
250.5226630285
 11
72.272675458
 21
250.04766341
  0
LINE
  8
0
 62
7
  6
CONTINUOUS
 10
72.272675458
 20
249.3976630285
 11
72.272675458
 21
248.92266341
  0
LINE
  8
0
 62
7
  6
CONTINUOUS
 10
72.4003350172
 20
248.9476630285
 11
72.4003350172
 21
249.5476630285
  0
LINE
  8
0
 62
7
  6
CONTINUOUS
 10
72.4003350172
 20
250.0726630285
 11
72.4003350172
 21
250.6726630285
  0
LINE
  8
0
 62
7
  6
CONTINUOUS
 10
72.4003350172
 20
252.3976636007
 11
72.4003350172
 21
252.9976636007
  0
LINE
  8
0
 62
7
  6
CONTINUOUS
 10
72.4003350172
 20
253.5226636007
 11
72.4003350172
 21
254.1226636007
  0
LINE
  8
0
 62
7
  6
CONTINUOUS
 10
72.4003350172
 20
254.32266341
 11
72.4003350172
 21
254.54766341
  0
LINE
  8
0
 62
7
  6
CONTINUOUS
 10
72.4003350172
 20
255.29766341
 11
72.4003350172
 21
255.52266341
  0
LINE
  8
0
 62
7
  6
CONTINUOUS
 10
72.4003350172
 20
256.6726633146
 11
72.4003350172
 21
256.79766341
  0
LINE
  8
0
 62
7
  6
CONTINUOUS
 10
72.4003350172
 20
258.59766341
 11
72.4003350172
 21
258.7226633623
  0
LINE
  8
0
 62
7
  6
CONTINUOUS
 10
72.9003350172
 20
239.3375897931
 11
72.9003350172
 21
267.9077501584
  0
LINE
  8
0
 62
7
  6
CONTINUOUS
 10
72.3748031054
 20
256.5476635054
 11
72.4003350172
 21
256.6726633146
  0
LINE
  8
0
 62
7
  6
CONTINUOUS
 10
72.3748031054
 20
253.3976632193
 11
72.4003350172
 21
253.5226636007
  0
LINE
  8
0
 62
7
  6
CONTINUOUS
 10
72.3748031054
 20
252.2726632193
 11
72.4003350172
 21
252.3976636007
  0
LINE
  8
0
 62
7
  6
CONTINUOUS
 10
72.3748031054
 20
249.9476637915
 11
72.4003350172
 21
250.0726630285
  0
LINE
  8
0
 62
7
  6
CONTINUOUS
 10
71.7365052376
 20
252.37266341
 11
71.7109733257
 21
252.29766341
  0
LINE
  8
0
 62
7
  6
CONTINUOUS
 10
72.272675458
 20
253.49766341
 11
72.2471435461
 21
253.42266341
  0
LINE
  8
0
 62
7
  6
CONTINUOUS
 10
72.2471435461
 20
252.37266341
 11
72.2216116343
 21
252.29766341
  0
LINE
  8
0
 62
7
  6
CONTINUOUS
 10
71.7875690613
 20
252.1726636007
 11
71.8131009731
 21
252.22266341
  0
LINE
  8
0
 62
7
  6
CONTINUOUS
 10
72.2982073698
 20
253.2976636007
 11
72.3748031054
 21
253.3976632193
  0
LINE
  8
0
 62
7
  6
CONTINUOUS
 10
72.2982073698
 20
252.1726636007
 11
72.3748031054
 21
252.2726632193
  0
LINE
  8
0
 62
7
  6
CONTINUOUS
 10
71.7109733257
 20
252.29766341
 11
71.659909502
 21
252.2476636007
  0
LINE
  8
0
 62
7
  6
CONTINUOUS
 10
72.2216116343
 20
252.29766341
 11
72.1705478106
 21
252.2476636007
  0
LINE
  8
0
 62
7
  6
CONTINUOUS
 10
63.8150081692
 20
244.6062320668
 11
68.5287772999
 21
248.4145603419
  0
LINE
  8
0
 62
7
  6
CONTINUOUS
 10
72.1960797224
 20
252.0976636007
 11
72.2982073698
 21
252.1726636007
  0
LINE
  8
0
 62
7
  6
CONTINUOUS
 10
72.1960797224
 20
249.9226630285
 11
72.1194839869
 21
249.89766341
  0
LINE
  8
0
 62
7
  6
CONTINUOUS
 10
72.1194839869
 20
249.74766341
 11
72.1960797224
 21
249.7726630285
  0
LINE
  8
0
 62
7
  6
CONTINUOUS
 10
71.2513988454
 20
259.8476634338
 11
71.3535265062
 21
259.87266341
  0
LINE
  8
0
 62
7
  6
CONTINUOUS
 10
71.6854414139
 20
258.9226634577
 11
71.8131009731
 21
258.9476633623
  0
LINE
  8
0
 62
7
  6
CONTINUOUS
 10
71.8131009731
 20
259.0726634577
 11
71.6854414139
 21
259.04766341
  0
LINE
  8
0
 62
7
  6
CONTINUOUS
 10
71.2003350172
 20
258.59766341
 11
72.0173562679
 21
258.59766341
  0
LINE
  8
0
 62
7
  6
CONTINUOUS
 10
72.272675458
 20
258.59766341
 11
72.4003350172
 21
258.59766341
  0
LINE
  8
0
 62
7
  6
CONTINUOUS
 10
72.4003350172
 20
258.7226633623
 11
72.272675458
 21
258.7226633623
  0
LINE
  8
0
 62
7
  6
CONTINUOUS
 10
72.0173562679
 20
258.7226633623
 11
71.2003350172
 21
258.7226633623
  0
LINE
  8
0
 62
7
  6
CONTINUOUS
 10
71.2003350172
 20
258.9226634577
 11
71.6854414139
 21
258.9226634577
  0
LINE
  8
0
 62
7
  6
CONTINUOUS
 10
72.2216116343
 20
257.09766341
 11
72.1194839869
 21
257.1226633146
  0
LINE
  8
0
 62
7
  6
CONTINUOUS
 10
72.0939520035
 20
256.9726633146
 11
72.1705478106
 21
256.94766341
  0
LINE
  8
0
 62
7
  6
CONTINUOUS
 10
71.3790584181
 20
256.3226635054
 11
71.4811860833
 21
256.27266341
  0
LINE
  8
0
 62
7
  6
CONTINUOUS
 10
71.5067179952
 20
256.42266341
 11
71.4301222596
 21
256.4726635054
  0
LINE
  8
0
 62
7
  6
CONTINUOUS
 10
63.8150081692
 20
262.6390947532
 11
68.5287772999
 21
258.830766478
  0
LINE
  8
0
 62
7
  6
CONTINUOUS
 10
71.2769307617
 20
256.42266341
 11
71.3790584181
 21
256.3226635054
  0
LINE
  8
0
 62
7
  6
CONTINUOUS
 10
71.4301222596
 20
256.4726635054
 11
71.3790584181
 21
256.5476635054
  0
LINE
  8
0
 62
7
  6
CONTINUOUS
 10
71.2258669313
 20
256.5226633146
 11
71.2769307617
 21
256.42266341
  0
LINE
  8
0
 62
7
  6
CONTINUOUS
 10
71.9152286205
 20
253.42266341
 11
71.8896967087
 21
253.49766341
  0
LINE
  8
0
 62
7
  6
CONTINUOUS
 10
72.2216116343
 20
256.87266341
 11
72.2471435461
 21
256.79766341
  0
LINE
  8
0
 62
7
  6
CONTINUOUS
 10
71.3790584181
 20
256.5476635054
 11
71.3535265062
 21
256.64766341
  0
LINE
  8
0
 62
7
  6
CONTINUOUS
 10
71.2003350172
 20
260.2226633981
 11
71.2258669313
 21
260.1226634219
  0
LINE
  8
0
 62
7
  6
CONTINUOUS
 10
71.3279945944
 20
260.1226634219
 11
71.3024626736
 21
260.2226633981
  0
LINE
  8
0
 62
7
  6
CONTINUOUS
 10
72.4003350172
 20
256.79766341
 11
72.3748031054
 21
256.8976633146
  0
LINE
  8
0
 62
7
  6
CONTINUOUS
 10
71.7365052376
 20
253.5226636007
 11
71.7620371494
 21
253.3976632193
  0
LINE
  8
0
 62
7
  6
CONTINUOUS
 10
71.2003350172
 20
256.64766341
 11
71.2258669313
 21
256.5226633146
  0
LINE
  8
0
 62
7
  6
CONTINUOUS
 10
72.3748031054
 20
248.8226637915
 11
72.4003350172
 21
248.9476630285
  0
LINE
  8
0
 62
7
  6
CONTINUOUS
 10
72.272675458
 20
250.04766341
 11
72.2471435461
 21
249.97266341
  0
LINE
  8
0
 62
7
  6
CONTINUOUS
 10
72.272675458
 20
248.92266341
 11
72.2471435461
 21
248.84766341
  0
LINE
  8
0
 62
7
  6
CONTINUOUS
 10
72.2982073698
 20
249.8476630285
 11
72.3748031054
 21
249.9476637915
  0
LINE
  8
0
 62
7
  6
CONTINUOUS
 10
72.2982073698
 20
248.7226630285
 11
72.3748031054
 21
248.8226637915
  0
LINE
  8
0
 62
7
  6
CONTINUOUS
 10
72.2471435461
 20
249.97266341
 11
72.1960797224
 21
249.9226630285
  0
LINE
  8
0
 62
7
  6
CONTINUOUS
 10
72.2471435461
 20
248.84766341
 11
72.1960797224
 21
248.7976630285
  0
LINE
  8
0
 62
7
  6
CONTINUOUS
 10
72.1960797224
 20
249.7726630285
 11
72.2982073698
 21
249.8476630285
  0
LINE
  8
0
 62
7
  6
CONTINUOUS
 10
72.1960797224
 20
248.6476630285
 11
72.2982073698
 21
248.7226630285
  0
LINE
  8
0
 62
7
  6
CONTINUOUS
 10
72.1960797224
 20
248.7976630285
 11
72.1194839869
 21
248.77266341
  0
LINE
  8
0
 62
7
  6
CONTINUOUS
 10
72.1194839869
 20
248.62266341
 11
72.1960797224
 21
248.6476630285
  0
LINE
  8
0
 62
7
  6
CONTINUOUS
 10
71.5067179952
 20
260.62266341
 11
71.4045903299
 21
260.5976634092
  0
LINE
  8
0
 62
7
  6
CONTINUOUS
 10
71.6854414139
 20
259.04766341
 11
71.2003350172
 21
259.04766341
  0
LINE
  8
0
 62
7
  6
CONTINUOUS
 10
71.2003350172
 20
259.49766341
 11
71.7875690613
 21
259.49766341
  0
LINE
  8
0
 62
7
  6
CONTINUOUS
 10
71.8896967087
 20
259.49766341
 11
72.0173562679
 21
259.49766341
  0
LINE
  8
0
 62
7
  6
CONTINUOUS
 10
72.0173562679
 20
259.6226634338
 11
71.2003350172
 21
259.6226634338
  0
LINE
  8
0
 62
7
  6
CONTINUOUS
 10
71.3535265062
 20
259.87266341
 11
72.0173562679
 21
259.87266341
  0
LINE
  8
0
 62
7
  6
CONTINUOUS
 10
72.0173562679
 20
259.9976634338
 11
71.4556541715
 21
259.9976634338
  0
LINE
  8
0
 62
7
  6
CONTINUOUS
 10
71.5067179952
 20
260.497663413
 11
72.0173562679
 21
260.497663413
  0
LINE
  8
0
 62
7
  6
CONTINUOUS
 10
72.0173562679
 20
260.62266341
 11
71.5067179952
 21
260.62266341
  0
LINE
  8
0
 62
7
  6
CONTINUOUS
 10
72.3237392817
 20
256.9976635054
 11
72.2216116343
 21
257.09766341
  0
LINE
  8
0
 62
7
  6
CONTINUOUS
 10
71.7875690613
 20
259.49766341
 11
71.838632885
 21
259.4476633861
  0
LINE
  8
0
 62
7
  6
CONTINUOUS
 10
71.2513988454
 20
260.0726633981
 11
71.3279945944
 21
259.9976634338
  0
LINE
  8
0
 62
7
  6
CONTINUOUS
 10
72.1705478106
 20
256.94766341
 11
72.2216116343
 21
256.87266341
  0
LINE
  8
0
 62
7
  6
CONTINUOUS
 10
71.3790584181
 20
260.0476634219
 11
71.3279945944
 21
260.1226634219
  0
LINE
  8
0
 62
7
  6
CONTINUOUS
 10
71.838632885
 20
259.4476633861
 11
71.8896967087
 21
259.3726634577
  0
LINE
  8
0
 62
7
  6
CONTINUOUS
 10
71.9918243561
 20
259.3726634577
 11
71.9407605324
 21
259.4476633861
  0
LINE
  8
0
 62
7
  6
CONTINUOUS
 10
72.3748031054
 20
256.8976633146
 11
72.3237392817
 21
256.9976635054
  0
LINE
  8
0
 62
7
  6
CONTINUOUS
 10
71.2258669313
 20
260.1226634219
 11
71.2513988454
 21
260.0726633981
  0
LINE
  8
0
 62
7
  6
CONTINUOUS
 10
71.8896967087
 20
259.3726634577
 11
71.9152286205
 21
259.27266341
  0
LINE
  8
0
 62
7
  6
CONTINUOUS
 10
72.0173562679
 20
259.27266341
 11
71.9918243561
 21
259.3726634577
  0
LINE
  8
0
 62
7
  6
CONTINUOUS
 10
71.4556541715
 20
259.9976634338
 11
71.3790584181
 21
260.0476634219
  0
LINE
  8
0
 62
7
  6
CONTINUOUS
 10
71.9407605324
 20
259.4476633861
 11
71.8896967087
 21
259.49766341
  0
POLYLINE
  8
0
 62
7
  6
CONTINUOUS
 66
1
 70
0
  0
VERTEX
  8
0
 62
7
  6
CONTINUOUS
 10
62.7003350172
 20
239.306773147
  0
VERTEX
  8
0
 62
7
  6
CONTINUOUS
 10
62.7178940917
 20
239.3167669581
  0
VERTEX
  8
0
 62
7
  6
CONTINUOUS
 10
62.7697265206
 20
239.326518573
  0
VERTEX
  8
0
 62
7
  6
CONTINUOUS
 10
62.8536989907
 20
239.3351861086
  0
VERTEX
  8
0
 62
7
  6
CONTINUOUS
 10
62.9666066414
 20
239.3418577818
  0
VERTEX
  8
0
 62
7
  6
CONTINUOUS
 10
63.1042946452
 20
239.3455292474
  0
VERTEX
  8
0
 62
7
  6
CONTINUOUS
 10
63.2617940799
 20
239.3450697717
  0
VERTEX
  8
0
 62
7
  6
CONTINUOUS
 10
63.4334705985
 20
239.339174251
  0
VERTEX
  8
0
 62
7
  6
CONTINUOUS
 10
63.6131792745
 20
239.3262996716
  0
SEQEND
  0
POLYLINE
  8
0
 62
7
  6
CONTINUOUS
 66
1
 70
0
  0
VERTEX
  8
0
 62
7
  6
CONTINUOUS
 10
72.6503350172
 20
244.1937488568
  0
VERTEX
  8
0
 62
7
  6
CONTINUOUS
 10
72.5983968097
 20
244.1763170023
  0
VERTEX
  8
0
 62
7
  6
CONTINUOUS
 10
72.5508030157
 20
244.1548792677
  0
VERTEX
  8
0
 62
7
  6
CONTINUOUS
 10
72.5096374292
 20
244.1313148946
  0
VERTEX
  8
0
 62
7
  6
CONTINUOUS
 10
72.4767918642
 20
244.1075566843
  0
VERTEX
  8
0
 62
7
  6
CONTINUOUS
 10
72.4539508162
 20
244.0855335209
  0
VERTEX
  8
0
 62
7
  6
CONTINUOUS
 10
72.4424507255
 20
244.0671043461
  0
VERTEX
  8
0
 62
7
  6
CONTINUOUS
 10
72.44307006
 20
244.0539588804
  0
SEQEND
  0
LINE
  8
0
 62
2
  6
CONTINUOUS
 10
68.6803350172
 20
266.32266341
 11
66.9203350172
 21
266.32266341
  0
LINE
  8
DEFAULT_1
 62
2
  6
CENTER
 10
63.4003350172
 20
266.32266341
 11
63.1503350172
 21
266.32266341
  0
LINE
  8
DEFAULT_1
 62
2
  6
CENTER
 10
72.2003350172
 20
266.32266341
 11
72.4503350172
 21
266.32266341
  0
POLYLINE
  8
0
 62
7
  6
CONTINUOUS
 66
1
 70
0
  0
VERTEX
  8
0
 62
7
  6
CONTINUOUS
 10
63.7003350172
 20
268.086397136
  0
VERTEX
  8
0
 62
7
  6
CONTINUOUS
 10
63.5337829562
 20
268.045932067
  0
VERTEX
  8
0
 62
7
  6
CONTINUOUS
 10
63.3694359786
 20
268.0135757407
  0
VERTEX
  8
0
 62
7
  6
CONTINUOUS
 10
63.2127466503
 20
267.9884825712
  0
VERTEX
  8
0
 62
7
  6
CONTINUOUS
 10
63.0690805035
 20
267.9697362267
  0
VERTEX
  8
0
 62
7
  6
CONTINUOUS
 10
62.9434729273
 20
267.9563962425
  0
VERTEX
  8
0
 62
7
  6
CONTINUOUS
 10
62.8404279939
 20
267.9475322286
  0
VERTEX
  8
0
 62
7
  6
CONTINUOUS
 10
62.7637480175
 20
267.9422435303
  0
VERTEX
  8
0
 62
7
  6
CONTINUOUS
 10
62.7163881789
 20
267.9396686193
  0
VERTEX
  8
0
 62
7
  6
CONTINUOUS
 10
62.7003350172
 20
267.9389863975
  0
SEQEND
  0
ARC
  8
0
 62
7
  6
CONTINUOUS
 10
63.1878156537
 20
130.8884911377
 40
0.25
 50
180.0
 51
284.654251626
  0
ARC
  8
0
 62
7
  6
CONTINUOUS
 10
63.1878156537
 20
41.9236122449
 40
0.25
 50
180.0
 51
270.0
  0
ARC
  8
0
 62
7
  6
CONTINUOUS
 10
63.1878156537
 20
123.8088333521
 40
0.25
 50
75.345748374
 51
180.0
  0
ARC
  8
0
 62
7
  6
CONTINUOUS
 10
63.1878156537
 20
118.1663911377
 40
0.25
 50
180.0
 51
284.654251626
  0
ARC
  8
0
 62
7
  6
CONTINUOUS
 10
63.1878156537
 20
111.1088333521
 40
0.25
 50
75.345748374
 51
180.0
  0
ARC
  8
0
 62
7
  6
CONTINUOUS
 10
63.1878156537
 20
105.4663911377
 40
0.25
 50
180.0
 51
284.654251626
  0
ARC
  8
0
 62
7
  6
CONTINUOUS
 10
63.1878156537
 20
98.4088333521
 40
0.25
 50
75.345748374
 51
180.0
  0
ARC
  8
0
 62
7
  6
CONTINUOUS
 10
63.1878156537
 20
92.7663911377
 40
0.25
 50
180.0
 51
284.654251626
  0
ARC
  8
0
 62
7
  6
CONTINUOUS
 10
63.1878156537
 20
85.7088333521
 40
0.25
 50
75.345748374
 51
180.0
  0
ARC
  8
0
 62
7
  6
CONTINUOUS
 10
63.1878156537
 20
80.0663911377
 40
0.25
 50
180.0
 51
284.654251626
  0
ARC
  8
0
 62
7
  6
CONTINUOUS
 10
63.1878156537
 20
73.0088333521
 40
0.25
 50
75.345748374
 51
180.0
  0
ARC
  8
0
 62
7
  6
CONTINUOUS
 10
63.1878156537
 20
67.3663911377
 40
0.25
 50
180.0
 51
284.654251626
  0
ARC
  8
0
 62
7
  6
CONTINUOUS
 10
63.1878156537
 20
60.3088333521
 40
0.25
 50
75.345748374
 51
180.0
  0
ARC
  8
0
 62
7
  6
CONTINUOUS
 10
63.1878156537
 20
54.6663911377
 40
0.25
 50
180.0
 51
284.654251626
  0
ARC
  8
0
 62
7
  6
CONTINUOUS
 10
63.1878156537
 20
47.6088333521
 40
0.25
 50
75.345748374
 51
180.0
  0
ARC
  8
0
 62
7
  6
CONTINUOUS
 10
63.1878156537
 20
219.7884911377
 40
0.25
 50
180.0
 51
284.654251626
  0
ARC
  8
0
 62
7
  6
CONTINUOUS
 10
63.1878156537
 20
212.7309333521
 40
0.25
 50
75.345748374
 51
180.0
  0
ARC
  8
0
 62
7
  6
CONTINUOUS
 10
63.1878156537
 20
207.0884911377
 40
0.25
 50
180.0
 51
284.654251626
  0
ARC
  8
0
 62
7
  6
CONTINUOUS
 10
63.1878156537
 20
200.0309333521
 40
0.25
 50
75.345748374
 51
180.0
  0
ARC
  8
0
 62
7
  6
CONTINUOUS
 10
63.1878156537
 20
194.3884911377
 40
0.25
 50
180.0
 51
284.654251626
  0
ARC
  8
0
 62
7
  6
CONTINUOUS
 10
63.1878156537
 20
187.3309333521
 40
0.25
 50
75.345748374
 51
180.0
  0
ARC
  8
0
 62
7
  6
CONTINUOUS
 10
63.1878156537
 20
181.6884911377
 40
0.25
 50
180.0
 51
284.654251626
  0
ARC
  8
0
 62
7
  6
CONTINUOUS
 10
63.1878156537
 20
174.6309333521
 40
0.25
 50
75.345748374
 51
180.0
  0
ARC
  8
0
 62
7
  6
CONTINUOUS
 10
63.1878156537
 20
168.9884911377
 40
0.25
 50
180.0
 51
284.654251626
  0
ARC
  8
0
 62
7
  6
CONTINUOUS
 10
63.1878156537
 20
161.9309333521
 40
0.25
 50
75.345748374
 51
180.0
  0
ARC
  8
0
 62
7
  6
CONTINUOUS
 10
63.1878156537
 20
156.2884911377
 40
0.25
 50
180.0
 51
284.654251626
  0
ARC
  8
0
 62
7
  6
CONTINUOUS
 10
63.1878156537
 20
149.2309333521
 40
0.25
 50
75.345748374
 51
180.0
  0
ARC
  8
0
 62
7
  6
CONTINUOUS
 10
63.1878156537
 20
143.5884911377
 40
0.25
 50
180.0
 51
284.654251626
  0
ARC
  8
0
 62
7
  6
CONTINUOUS
 10
63.1878156537
 20
136.5309333521
 40
0.25
 50
75.345748374
 51
180.0
  0
ARC
  8
0
 62
7
  6
CONTINUOUS
 10
63.1878156537
 20
225.4736122449
 40
0.25
 50
90.0
 51
180.0
  0
ARC
  8
0
 62
7
  6
CONTINUOUS
 10
68.3516662333
 20
87.7178055737
 40
3.0
 50
255.345748374
 51
265.0
  0
ARC
  8
0
 62
7
  6
CONTINUOUS
 10
68.3516662333
 20
78.057418916
 40
3.0
 50
95.0
 51
104.654251626
  0
ARC
  8
0
 62
7
  6
CONTINUOUS
 10
68.3516662333
 20
75.0178055737
 40
3.0
 50
255.345748374
 51
265.0
  0
ARC
  8
0
 62
7
  6
CONTINUOUS
 10
68.3516662333
 20
65.357418916
 40
3.0
 50
95.0
 51
104.654251626
  0
ARC
  8
0
 62
7
  6
CONTINUOUS
 10
68.3516662333
 20
62.3178055737
 40
3.0
 50
255.345748374
 51
265.0
  0
ARC
  8
0
 62
7
  6
CONTINUOUS
 10
68.3516662333
 20
52.657418916
 40
3.0
 50
95.0
 51
104.654251626
  0
ARC
  8
0
 62
7
  6
CONTINUOUS
 10
68.3516662333
 20
49.6178055737
 40
3.0
 50
255.345748374
 51
265.0
  0
ARC
  8
0
 62
7
  6
CONTINUOUS
 10
68.3516662333
 20
128.879518916
 40
3.0
 50
95.0
 51
104.654251626
  0
ARC
  8
0
 62
7
  6
CONTINUOUS
 10
68.3516662333
 20
125.8178055737
 40
3.0
 50
255.345748374
 51
265.0
  0
ARC
  8
0
 62
7
  6
CONTINUOUS
 10
68.3516662333
 20
116.157418916
 40
3.0
 50
95.0
 51
104.654251626
  0
ARC
  8
0
 62
7
  6
CONTINUOUS
 10
68.3516662333
 20
113.1178055737
 40
3.0
 50
255.345748374
 51
265.0
  0
ARC
  8
0
 62
7
  6
CONTINUOUS
 10
68.3516662333
 20
103.457418916
 40
3.0
 50
95.0
 51
104.654251626
  0
ARC
  8
0
 62
7
  6
CONTINUOUS
 10
68.3516662333
 20
100.4178055738
 40
3.0
 50
255.345748374
 51
265.0
  0
ARC
  8
0
 62
7
  6
CONTINUOUS
 10
68.3516662333
 20
90.757418916
 40
3.0
 50
95.0
 51
104.654251626
  0
ARC
  8
0
 62
7
  6
CONTINUOUS
 10
72.1378156537
 20
42.6736122449
 40
1.0
 50
270.0
 51
360.0
  0
ARC
  8
0
 62
7
  6
CONTINUOUS
 10
72.1378156537
 20
83.3712810709
 40
1.0
 50
0.0
 51
85.0
  0
ARC
  8
0
 62
7
  6
CONTINUOUS
 10
72.1378156537
 20
82.4039434189
 40
1.0
 50
275.0
 51
360.0
  0
ARC
  8
0
 62
7
  6
CONTINUOUS
 10
72.1378156537
 20
70.6712810709
 40
1.0
 50
0.0
 51
85.0
  0
ARC
  8
0
 62
7
  6
CONTINUOUS
 10
72.1378156537
 20
69.7039434189
 40
1.0
 50
275.0
 51
360.0
  0
ARC
  8
0
 62
7
  6
CONTINUOUS
 10
72.1378156537
 20
57.9712810709
 40
1.0
 50
0.0
 51
85.0
  0
ARC
  8
0
 62
7
  6
CONTINUOUS
 10
72.1378156537
 20
57.0039434189
 40
1.0
 50
275.0
 51
360.0
  0
ARC
  8
0
 62
7
  6
CONTINUOUS
 10
72.1378156537
 20
45.2712810709
 40
1.0
 50
0.0
 51
85.0
  0
ARC
  8
0
 62
7
  6
CONTINUOUS
 10
72.1378156537
 20
50.6538434189
 40
1.0
 50
323.45424812
 51
360.0
  0
ARC
  8
0
 62
7
  6
CONTINUOUS
 10
72.1378156239
 20
51.6211810735
 40
1.0
 50
359.9999998507
 51
36.5457507441
  0
ARC
  8
0
 62
7
  6
CONTINUOUS
 10
72.1378156537
 20
63.3538434189
 40
1.0
 50
323.45424812
 51
360.0
  0
ARC
  8
0
 62
7
  6
CONTINUOUS
 10
72.1378156239
 20
64.3211810735
 40
1.0
 50
359.9999998507
 51
36.5457507441
  0
ARC
  8
0
 62
7
  6
CONTINUOUS
 10
72.1378156537
 20
76.0538434189
 40
1.0
 50
323.45424812
 51
360.0
  0
ARC
  8
0
 62
7
  6
CONTINUOUS
 10
72.1378156239
 20
77.0211810735
 40
1.0
 50
359.9999998507
 51
36.5457507441
  0
ARC
  8
0
 62
7
  6
CONTINUOUS
 10
72.1378156537
 20
133.2260434189
 40
1.0
 50
275.0
 51
360.0
  0
ARC
  8
0
 62
7
  6
CONTINUOUS
 10
72.1378156537
 20
121.4712810709
 40
1.0
 50
0.0
 51
85.0
  0
ARC
  8
0
 62
7
  6
CONTINUOUS
 10
72.1378156537
 20
120.5039434189
 40
1.0
 50
275.0
 51
360.0
  0
ARC
  8
0
 62
7
  6
CONTINUOUS
 10
72.1378156537
 20
108.7712810709
 40
1.0
 50
0.0
 51
85.0
  0
ARC
  8
0
 62
7
  6
CONTINUOUS
 10
72.1378156537
 20
107.8039434189
 40
1.0
 50
275.0
 51
360.0
  0
ARC
  8
0
 62
7
  6
CONTINUOUS
 10
72.1378156537
 20
96.0712810709
 40
1.0
 50
0.0
 51
85.0
  0
ARC
  8
0
 62
7
  6
CONTINUOUS
 10
72.1378156537
 20
95.1039434189
 40
1.0
 50
275.0
 51
360.0
  0
ARC
  8
0
 62
7
  6
CONTINUOUS
 10
72.1378156239
 20
127.8211810735
 40
1.0
 50
359.9999998507
 51
36.5457507441
  0
ARC
  8
0
 62
7
  6
CONTINUOUS
 10
72.1378156537
 20
126.8538434189
 40
1.0
 50
323.45424812
 51
360.0
  0
ARC
  8
0
 62
7
  6
CONTINUOUS
 10
72.1378156239
 20
115.1211810735
 40
1.0
 50
359.9999998507
 51
36.5457507441
  0
ARC
  8
0
 62
7
  6
CONTINUOUS
 10
72.1378156537
 20
114.1538434189
 40
1.0
 50
323.45424812
 51
360.0
  0
ARC
  8
0
 62
7
  6
CONTINUOUS
 10
72.1378156239
 20
102.4211810735
 40
1.0
 50
359.9999998507
 51
36.5457507441
  0
ARC
  8
0
 62
7
  6
CONTINUOUS
 10
72.1378156537
 20
101.4538434189
 40
1.0
 50
323.45424812
 51
360.0
  0
ARC
  8
0
 62
7
  6
CONTINUOUS
 10
72.1378156537
 20
88.7538434189
 40
1.0
 50
323.45424812
 51
360.0
  0
ARC
  8
0
 62
7
  6
CONTINUOUS
 10
72.1378156239
 20
89.7211810735
 40
1.0
 50
359.9999998507
 51
36.5457507441
  0
ARC
  8
0
 62
7
  6
CONTINUOUS
 10
68.3516662333
 20
176.6399055737
 40
3.0
 50
255.345748374
 51
265.0
  0
ARC
  8
0
 62
7
  6
CONTINUOUS
 10
68.3516662333
 20
166.979518916
 40
3.0
 50
95.0
 51
104.654251626
  0
ARC
  8
0
 62
7
  6
CONTINUOUS
 10
68.3516662333
 20
163.9399055737
 40
3.0
 50
255.345748374
 51
265.0
  0
ARC
  8
0
 62
7
  6
CONTINUOUS
 10
68.3516662333
 20
154.279518916
 40
3.0
 50
95.0
 51
104.654251626
  0
ARC
  8
0
 62
7
  6
CONTINUOUS
 10
68.3516662333
 20
151.2399055738
 40
3.0
 50
255.345748374
 51
265.0
  0
ARC
  8
0
 62
7
  6
CONTINUOUS
 10
68.3516662333
 20
141.579518916
 40
3.0
 50
95.0
 51
104.654251626
  0
ARC
  8
0
 62
7
  6
CONTINUOUS
 10
68.3516662333
 20
138.5399055737
 40
3.0
 50
255.345748374
 51
265.0
  0
ARC
  8
0
 62
7
  6
CONTINUOUS
 10
68.3516662333
 20
217.779518916
 40
3.0
 50
95.0
 51
104.654251626
  0
ARC
  8
0
 62
7
  6
CONTINUOUS
 10
68.3516662333
 20
214.7399055738
 40
3.0
 50
255.345748374
 51
265.0
  0
ARC
  8
0
 62
7
  6
CONTINUOUS
 10
68.3516662333
 20
205.079518916
 40
3.0
 50
95.0
 51
104.654251626
  0
ARC
  8
0
 62
7
  6
CONTINUOUS
 10
68.3516662333
 20
202.0399055737
 40
3.0
 50
255.345748374
 51
265.0
  0
ARC
  8
0
 62
7
  6
CONTINUOUS
 10
68.3516662333
 20
192.379518916
 40
3.0
 50
95.0
 51
104.654251626
  0
ARC
  8
0
 62
7
  6
CONTINUOUS
 10
68.3516662333
 20
189.3399055738
 40
3.0
 50
255.345748374
 51
265.0
  0
ARC
  8
0
 62
7
  6
CONTINUOUS
 10
68.3516662333
 20
179.679518916
 40
3.0
 50
95.0
 51
104.654251626
  0
ARC
  8
0
 62
7
  6
CONTINUOUS
 10
72.1378156537
 20
172.2933810709
 40
1.0
 50
0.0
 51
85.0
  0
ARC
  8
0
 62
7
  6
CONTINUOUS
 10
72.1378156537
 20
171.3260434189
 40
1.0
 50
275.0
 51
360.0
  0
ARC
  8
0
 62
7
  6
CONTINUOUS
 10
72.1378156537
 20
159.5933810709
 40
1.0
 50
0.0
 51
85.0
  0
ARC
  8
0
 62
7
  6
CONTINUOUS
 10
72.1378156537
 20
158.6260434189
 40
1.0
 50
275.0
 51
360.0
  0
ARC
  8
0
 62
7
  6
CONTINUOUS
 10
72.1378156537
 20
146.8933810709
 40
1.0
 50
0.0
 51
85.0
  0
ARC
  8
0
 62
7
  6
CONTINUOUS
 10
72.1378156537
 20
145.9260434189
 40
1.0
 50
275.0
 51
360.0
  0
ARC
  8
0
 62
7
  6
CONTINUOUS
 10
72.1378156537
 20
134.1933810709
 40
1.0
 50
0.0
 51
85.0
  0
ARC
  8
0
 62
7
  6
CONTINUOUS
 10
72.137815621
 20
178.6432810737
 40
1.0
 50
359.9999998363
 51
36.5457506347
  0
ARC
  8
0
 62
7
  6
CONTINUOUS
 10
72.1378156537
 20
177.6759434189
 40
1.0
 50
323.4542481199
 51
360.0
  0
ARC
  8
0
 62
7
  6
CONTINUOUS
 10
72.137815621
 20
165.9432810737
 40
1.0
 50
359.9999998363
 51
36.5457506347
  0
ARC
  8
0
 62
7
  6
CONTINUOUS
 10
72.1378156537
 20
164.9759434189
 40
1.0
 50
323.4542481199
 51
360.0
  0
ARC
  8
0
 62
7
  6
CONTINUOUS
 10
72.137815621
 20
153.2432810737
 40
1.0
 50
359.9999998363
 51
36.5457506347
  0
ARC
  8
0
 62
7
  6
CONTINUOUS
 10
72.1378156537
 20
152.2759434189
 40
1.0
 50
323.4542481199
 51
360.0
  0
ARC
  8
0
 62
7
  6
CONTINUOUS
 10
72.137815621
 20
140.5432810737
 40
1.0
 50
359.9999998363
 51
36.5457506347
  0
ARC
  8
0
 62
7
  6
CONTINUOUS
 10
72.1378156537
 20
139.5759434189
 40
1.0
 50
323.4542481199
 51
360.0
  0
ARC
  8
0
 62
7
  6
CONTINUOUS
 10
72.1378156537
 20
222.1260434189
 40
1.0
 50
275.0
 51
360.0
  0
ARC
  8
0
 62
7
  6
CONTINUOUS
 10
72.1378156537
 20
210.3933810709
 40
1.0
 50
0.0
 51
85.0
  0
ARC
  8
0
 62
7
  6
CONTINUOUS
 10
72.1378156537
 20
209.4260434189
 40
1.0
 50
275.0
 51
360.0
  0
ARC
  8
0
 62
7
  6
CONTINUOUS
 10
72.1378156537
 20
197.6933810709
 40
1.0
 50
0.0
 51
85.0
  0
ARC
  8
0
 62
7
  6
CONTINUOUS
 10
72.1378156537
 20
196.7260434189
 40
1.0
 50
275.0
 51
360.0
  0
ARC
  8
0
 62
7
  6
CONTINUOUS
 10
72.1378156537
 20
184.9933810709
 40
1.0
 50
0.0
 51
85.0
  0
ARC
  8
0
 62
7
  6
CONTINUOUS
 10
72.1378156537
 20
184.0260434189
 40
1.0
 50
275.0
 51
360.0
  0
ARC
  8
0
 62
7
  6
CONTINUOUS
 10
72.137815621
 20
216.7432810737
 40
1.0
 50
359.9999998363
 51
36.5457506347
  0
ARC
  8
0
 62
7
  6
CONTINUOUS
 10
72.1378156537
 20
215.7759434189
 40
1.0
 50
323.4542481199
 51
360.0
  0
ARC
  8
0
 62
7
  6
CONTINUOUS
 10
72.137815621
 20
204.0432810737
 40
1.0
 50
359.9999998363
 51
36.5457506347
  0
ARC
  8
0
 62
7
  6
CONTINUOUS
 10
72.1378156537
 20
203.0759434189
 40
1.0
 50
323.4542481199
 51
360.0
  0
ARC
  8
0
 62
7
  6
CONTINUOUS
 10
72.137815621
 20
191.3432810737
 40
1.0
 50
359.9999998363
 51
36.5457506347
  0
ARC
  8
0
 62
7
  6
CONTINUOUS
 10
72.1378156537
 20
190.3759434189
 40
1.0
 50
323.4542481199
 51
360.0
  0
ARC
  8
0
 62
7
  6
CONTINUOUS
 10
72.1378156537
 20
224.7236122449
 40
1.0
 50
0.0
 51
90.0
  0
ARC
  8
0
 62
7
  6
CONTINUOUS
 10
65.7003350172
 20
242.27266341
 40
3.0
 50
128.9352902541
 51
180.0
  0
ARC
  8
0
 62
7
  6
CONTINUOUS
 10
63.9003350172
 20
253.3484029003
 40
1.0
 50
180.0
 51
252.0
  0
ARC
  8
0
 62
7
  6
CONTINUOUS
 10
67.8003350172
 20
240.92266341
 40
5.6
 50
33.9977188663
 51
59.2224124145
  0
ARC
  8
0
 62
7
  6
CONTINUOUS
 10
67.8003350172
 20
240.92266341
 40
5.35
 50
197.5847662303
 51
342.0742757965
  0
CIRCLE
  8
0
 62
7
  6
CONTINUOUS
 10
67.8003350172
 20
240.92266341
 40
2.65
  0
ARC
  8
0
 62
7
  6
CONTINUOUS
 10
67.9003350172
 20
249.9457996669
 40
1.0
 50
0.0
 51
72.0
  0
ARC
  8
0
 62
7
  6
CONTINUOUS
 10
67.9003350172
 20
249.1924165609
 40
1.0
 50
308.9352902541
 51
349.7870598271
  0
ARC
  8
0
 62
7
  6
CONTINUOUS
 10
67.8003350172
 20
266.32266341
 40
5.35
 50
17.925724251
 51
162.415233877
  0
ARC
  8
0
 62
7
  6
CONTINUOUS
 10
65.7003350172
 20
264.97266341
 40
3.0
 50
180.0
 51
231.0647097459
  0
CIRCLE
  8
0
 62
7
  6
CONTINUOUS
 10
67.8003350172
 20
266.32266341
 40
2.65
  0
ARC
  8
0
 62
7
  6
CONTINUOUS
 10
63.9003350172
 20
253.8969239197
 40
1.0
 50
108.0
 51
180.0
  0
ARC
  8
0
 62
7
  6
CONTINUOUS
 10
67.9003350172
 20
257.2995271531
 40
1.0
 50
288.0
 51
360.0
  0
ARC
  8
0
 62
7
  6
CONTINUOUS
 10
67.9003350172
 20
258.0529102591
 40
1.0
 50
0.0
 51
51.0647097459
  0
ARC
  8
0
 62
7
  6
CONTINUOUS
 10
69.9003350172
 20
248.92266341
 40
1.0
 50
180.0
 51
205.0
  0
ARC
  8
0
 62
7
  6
CONTINUOUS
 10
72.7003350172
 20
239.3375766616
 40
0.2
 50
342.0704075135
 51
360.0
  0
ARC
  8
0
 62
7
  6
CONTINUOUS
 10
71.6893856884
 20
247.4522334477
 40
2.0
 50
204.9999964624
 51
239.2197850999
  0
ARC
  8
0
 62
7
  6
CONTINUOUS
 10
72.6503350172
 20
244.1937488568
 40
0.25
 50
213.9977336112
 51
360.0
  0
ARC
  8
0
 62
7
  6
CONTINUOUS
 10
72.7003349855
 20
267.907750121
 40
0.1999998732
 50
0.000010726
 51
17.925712383
  0
ENDSEC
  0
EOF
