  0
SECTION
  2
HEADER
  9
$EXTMAX
 10
210.0
 20
297.0
 30
0.0
  9
$EXTMIN
 10
0.0
 20
0.0
 30
0.0
  9
$LIMMIN
 10
0.0
 20
0.0
  9
$LIMMAX
 10
210.0
 20
297.0
  9
$VIEWCTR
 10
105.0
 20
148.5
  9
$VIEWSIZE
 40
297.0
  9
$CLAYER
  8
0
  9
$LTSCALE
 40
19.36
  9
$CELTYPE
  6
BYLAYER
  9
$DIMSCALE
 40
1.0
  9
$DIMASZ
 40
3.5
  9
$DIMEXO
 40
2.2
  9
$DIMDLI
 40
13.376
  9
$DIMEXE
 40
6.336
  9
$DIMCEN
 40
3.168
  9
$DIMLFAC
 40
1.0
  9
$DIMBLK
  1
_FILLED
  9
$DIMTXT
 40
3.5
  9
$PDMODE
 70
3
  9
$PDSIZE
 40
0.3125
  9
$TILEMODE
 70
1
  0
ENDSEC
  0
SECTION
  2
TABLES
  0
TABLE
  2
LTYPE
 70
6
  0
LTYPE
  2
BYBLOCK
 70
0
  3

 72
65
 73
0
 40
0.0
  0
LTYPE
  2
BYLAYER
 70
0
  3

 72
65
 73
0
 40
0.0
  0
LTYPE
  2
CONTINUOUS
 70
64
  3
Solid line
 72
65
 73
0
 40
0.0
  0
LTYPE
  2
CENTER
 70
64
  3
____ _ ____ _ ____ _ ____ _ ____ _ ____ _ ____
 72
65
 73
4
 40
0.6
 49
0.375
 49
-0.075
 49
0.075
 49
-0.075
  0
LTYPE
  2
HIDDEN
 70
64
  3
- - - - - - - - - - - - - - - - - - - -
 72
65
 73
2
 40
0.2
 49
0.1
 49
-0.1
  0
LTYPE
  2
PHANTOM
 70
64
  3
_____ _ _ _____ _ _ _____ _ _ _____
 72
65
 73
6
 40
0.8
 49
0.45
 49
-0.05
 49
0.1
 49
-0.05
 49
0.1
 49
-0.05
  0
LTYPE
  2
DOT
 70
64
  3
. . . . . . . . . . . . . . . . . . . .
 72
65
 73
2
 40
0.2
 49
0.1
 49
-0.1
  0
LTYPE
  2
DASHED
 70
64
  3
- - - - - - - - - - - - - - - - - - - -
 72
65
 73
2
 40
0.2
 49
0.1
 49
-0.1
  0
ENDTAB
  0
TABLE
  2
LAYER
 70
36
  0
LAYER
  2
0
 70
0
 62
7
  6
CONTINUOUS
  0
LAYER
  2
DEFAULT_1
 70
0
 62
7
  6
CENTER
  0
LAYER
  2
DEFAULT_2
 70
0
 62
8
  6
HIDDEN
  0
LAYER
  2
DEFAULT_3
 70
0
 62
7
  6
PHANTOM
  0
LAYER
  2
CURVE
 70
0
 62
7
  6
CONTINUOUS
  0
LAYER
  2
SURFACE
 70
0
 62
7
  6
CONTINUOUS
  0
ENDTAB
  0
TABLE
  2
STYLE
 70
1
  0
STYLE
  2
STANDARD
 70
0
 40
0.0
 41
0.8
 50
0.0
 71
0
 42
0.2
  3
txt
  4

  0
STYLE
  2
TEXTSTYLE_1
 70
0
 40
0.0
 41
0.8
 50
0.0
 71
0
 42
0.2
  3
gdt
  4

  0
STYLE
  2
TEXTSTYLE_2
 70
0
 40
0.0
 41
0.6
 50
0.0
 71
0
 42
0.2
  3
txt
  4

  0
STYLE
  2
TEXTSTYLE_3
 70
0
 40
0.0
 41
1.0
 50
0.0
 71
0
 42
0.2
  3
ftb_____.ttf
  4

  0
STYLE
  2
TEXTSTYLE_4
 70
0
 40
0.0
 41
1.0
 50
0.0
 71
0
 42
0.2
  3
fti_____.ttf
  4

  0
STYLE
  2
TEXTSTYLE_5
 70
0
 40
0.0
 41
1.0
 50
0.0
 71
0
 42
0.2
  3
frutiger light.ttf
  4

  0
STYLE
  2
TEXTSTYLE_6
 70
0
 40
0.0
 41
0.7
 50
0.0
 71
0
 42
0.2
  3
txt
  4

  0
STYLE
  2
TEXTSTYLE_7
 70
0
 40
0.0
 41
0.7
 50
0.0
 71
0
 42
0.2
  3
txt
  4

  0
ENDTAB
  0
ENDSEC
  0
SECTION
  2
BLOCKS
  0
BLOCK
  8
0
 62
2
  6
CONTINUOUS
  2
SYMBOL_8_BL1
 70
64
 10
173.5956734183
 20
35.5937998301
  0
TEXT
  8
0
 62
7
  6
CONTINUOUS
 10
164.6539584268
 20
30.6865562072
  7
TEXTSTYLE_4
 40
1.0655737705
  1
The brand for plastic modular belts and chains
 41
1.0
 72
0
  0
LINE
  8
0
 62
7
  6
CONTINUOUS
 10
149.5737418074
 20
36.1675703219
 11
149.5737418074
 21
34.0364227809
  0
LINE
  8
0
 62
7
  6
CONTINUOUS
 10
149.8628043005
 20
31.0454914852
 11
149.8628043005
 21
31.1422825445
  0
LINE
  8
0
 62
7
  6
CONTINUOUS
 10
149.5737418074
 20
31.1100188581
 11
149.6315543091
 21
30.9164367395
  0
LINE
  8
0
 62
7
  6
CONTINUOUS
 10
150.9671844304
 20
33.9544555678
 11
150.9671844304
 21
36.1675703219
  0
LINE
  8
0
 62
7
  6
CONTINUOUS
 10
151.8862417523
 20
32.1101932727
 11
151.8862417523
 21
30.5937998301
  0
LINE
  8
0
 62
7
  6
CONTINUOUS
 10
152.1753043074
 20
30.5937998301
 11
152.1753043074
 21
31.3358647082
  0
LINE
  8
0
 62
7
  6
CONTINUOUS
 10
152.1753043074
 20
31.4649194539
 11
152.1753043074
 21
32.1101932727
  0
LINE
  8
0
 62
7
  6
CONTINUOUS
 10
149.6315543091
 20
31.3036010218
 11
149.5737418074
 21
31.1100188581
  0
LINE
  8
0
 62
7
  6
CONTINUOUS
 10
149.9784292936
 20
30.8841730531
 11
149.8628043005
 21
31.0454914852
  0
LINE
  8
0
 62
7
  6
CONTINUOUS
 10
151.0768668626
 20
31.400392081
 11
151.1346793074
 21
31.3036010218
  0
LINE
  8
0
 62
7
  6
CONTINUOUS
 10
151.4237418626
 20
31.3036010218
 11
151.3659292523
 21
31.4326557675
  0
LINE
  8
0
 62
7
  6
CONTINUOUS
 10
152.852430332
 20
36.1675703219
 11
152.852430332
 21
34.3642916334
  0
LINE
  8
0
 62
7
  6
CONTINUOUS
 10
152.852430332
 20
33.0528162235
 11
152.852430332
 21
32.3970785186
  0
LINE
  8
0
 62
7
  6
CONTINUOUS
 10
153.2159293074
 20
31.2390736489
 11
153.2159293074
 21
30.5937998301
  0
LINE
  8
0
 62
7
  6
CONTINUOUS
 10
153.5049916972
 20
30.5937998301
 11
153.5049916972
 21
31.2390736489
  0
LINE
  8
0
 62
7
  6
CONTINUOUS
 10
149.8628043005
 20
31.1422825445
 11
149.9206168074
 21
31.2713373354
  0
LINE
  8
0
 62
7
  6
CONTINUOUS
 10
149.6315543091
 20
30.9164367395
 11
149.7471793074
 21
30.7873819712
  0
LINE
  8
0
 62
7
  6
CONTINUOUS
 10
153.1581166972
 20
31.3681283946
 11
153.2159293074
 21
31.2390736489
  0
LINE
  8
0
 62
7
  6
CONTINUOUS
 10
153.9674919177
 20
30.8841730531
 11
154.0253041972
 21
30.7551182848
  0
LINE
  8
0
 62
7
  6
CONTINUOUS
 10
153.5049916972
 20
31.2390736489
 11
153.4471794177
 21
31.400392081
  0
LINE
  8
0
 62
7
  6
CONTINUOUS
 10
153.9674919177
 20
31.4326557675
 11
153.9674919177
 21
31.3681283946
  0
LINE
  8
0
 62
7
  6
CONTINUOUS
 10
153.9674919177
 20
30.9809641124
 11
153.9674919177
 21
30.8841730531
  0
LINE
  8
0
 62
7
  6
CONTINUOUS
 10
154.245872955
 20
32.3970785186
 11
154.245872955
 21
36.1675703219
  0
LINE
  8
0
 62
7
  6
CONTINUOUS
 10
154.2565543074
 20
30.8519093441
 11
154.2565543074
 21
30.9164367395
  0
LINE
  8
0
 62
7
  6
CONTINUOUS
 10
154.5737418074
 20
36.1675703219
 11
154.5737418074
 21
32.3970785186
  0
LINE
  8
0
 62
7
  6
CONTINUOUS
 10
151.3659292523
 20
30.7873819712
 11
151.4237418626
 21
30.9164367395
  0
LINE
  8
0
 62
7
  6
CONTINUOUS
 10
155.759679528
 20
30.6905909007
 11
155.7018665869
 21
30.8519093441
  0
LINE
  8
0
 62
7
  6
CONTINUOUS
 10
155.412804528
 20
31.3681283946
 11
155.412804528
 21
31.2713373354
  0
LINE
  8
0
 62
7
  6
CONTINUOUS
 10
155.412804528
 20
31.1422825445
 11
155.412804528
 21
30.9487004259
  0
LINE
  8
0
 62
7
  6
CONTINUOUS
 10
155.7018665869
 20
30.8519093441
 11
155.7018665869
 21
31.3681283946
  0
LINE
  8
0
 62
7
  6
CONTINUOUS
 10
155.9671844304
 20
32.3970785186
 11
155.9671844304
 21
34.2003572071
  0
LINE
  8
0
 62
7
  6
CONTINUOUS
 10
155.9671844304
 20
35.511832617
 11
155.9671844304
 21
36.1675703219
  0
LINE
  8
0
 62
7
  6
CONTINUOUS
 10
156.279992028
 20
32.1101932727
 11
156.279992028
 21
31.9488748406
  0
LINE
  8
0
 62
7
  6
CONTINUOUS
 10
156.279992028
 20
31.626237886
 11
156.279992028
 21
30.5937998301
  0
LINE
  8
0
 62
7
  6
CONTINUOUS
 10
156.5690540869
 20
30.5937998301
 11
156.5690540869
 21
31.626237886
  0
LINE
  8
0
 62
7
  6
CONTINUOUS
 10
156.5690540869
 20
31.9488748406
 11
156.5690540869
 21
32.1101932727
  0
LINE
  8
0
 62
7
  6
CONTINUOUS
 10
151.1346793074
 20
30.9164367395
 11
151.0768668626
 21
30.8196456577
  0
LINE
  8
0
 62
7
  6
CONTINUOUS
 10
153.4471794177
 20
31.400392081
 11
153.3893668074
 21
31.4649194539
  0
LINE
  8
0
 62
7
  6
CONTINUOUS
 10
154.3143669177
 20
30.7873819712
 11
154.2565543074
 21
30.8519093441
  0
LINE
  8
0
 62
7
  6
CONTINUOUS
 10
155.4706168074
 20
30.6583272086
 11
155.5284290869
 21
30.5937998301
  0
LINE
  8
0
 62
7
  6
CONTINUOUS
 10
155.412804528
 20
30.7551182848
 11
155.4706168074
 21
30.6583272086
  0
LINE
  8
0
 62
7
  6
CONTINUOUS
 10
155.8174918074
 20
30.5937998301
 11
155.759679528
 21
30.6905909007
  0
LINE
  8
0
 62
7
  6
CONTINUOUS
 10
155.7018665869
 20
31.3681283946
 11
155.6440543074
 21
31.4649194539
  0
LINE
  8
0
 62
7
  6
CONTINUOUS
 10
157.0315543074
 20
31.626237886
 11
157.0315543074
 21
30.5937998301
  0
LINE
  8
0
 62
7
  6
CONTINUOUS
 10
157.320617028
 20
30.5937998301
 11
157.320617028
 21
31.3358647082
  0
LINE
  8
0
 62
7
  6
CONTINUOUS
 10
157.320617028
 20
31.4649194539
 11
157.320617028
 21
31.626237886
  0
LINE
  8
0
 62
7
  6
CONTINUOUS
 10
157.852430332
 20
34.6101932727
 11
157.852430332
 21
32.3970785186
  0
LINE
  8
0
 62
7
  6
CONTINUOUS
 10
149.7471793074
 20
31.4326557675
 11
149.6315543091
 21
31.3036010218
  0
LINE
  8
0
 62
7
  6
CONTINUOUS
 10
149.9206168074
 20
31.2713373354
 11
149.9784292936
 21
31.3358647082
  0
LINE
  8
0
 62
7
  6
CONTINUOUS
 10
149.7471793074
 20
30.7873819712
 11
149.8628043005
 21
30.7228545871
  0
LINE
  8
0
 62
7
  6
CONTINUOUS
 10
150.1518667936
 20
30.7873819712
 11
149.9784292936
 21
30.8841730531
  0
LINE
  8
0
 62
7
  6
CONTINUOUS
 10
155.3549915869
 20
31.4326557675
 11
155.412804528
 21
31.3681283946
  0
LINE
  8
0
 62
7
  6
CONTINUOUS
 10
158.3034290869
 20
31.3681283946
 11
158.361242028
 21
31.2068099625
  0
LINE
  8
0
 62
7
  6
CONTINUOUS
 10
158.6503040869
 20
31.2068099625
 11
158.5924918074
 21
31.3681283946
  0
LINE
  8
0
 62
7
  6
CONTINUOUS
 10
158.361242028
 20
31.2068099625
 11
158.361242028
 21
30.5937998301
  0
LINE
  8
0
 62
7
  6
CONTINUOUS
 10
158.6503040869
 20
30.5937998301
 11
158.6503040869
 21
31.2068099625
  0
LINE
  8
0
 62
7
  6
CONTINUOUS
 10
159.1128043074
 20
31.4326557675
 11
159.1128043074
 21
31.3681283946
  0
LINE
  8
0
 62
7
  6
CONTINUOUS
 10
159.245872955
 20
32.3970785186
 11
159.245872955
 21
34.5282260596
  0
LINE
  8
0
 62
7
  6
CONTINUOUS
 10
159.5737418074
 20
36.1675703219
 11
159.5737418074
 21
32.3970785186
  0
LINE
  8
0
 62
7
  6
CONTINUOUS
 10
154.2565543074
 20
30.9164367395
 11
154.3143669177
 21
31.0132277988
  0
LINE
  8
0
 62
7
  6
CONTINUOUS
 10
149.8628043005
 20
30.7228545871
 11
150.0362418212
 21
30.6583272086
  0
LINE
  8
0
 62
7
  6
CONTINUOUS
 10
151.3659292523
 20
31.4326557675
 11
151.1924917523
 21
31.5294468267
  0
LINE
  8
0
 62
7
  6
CONTINUOUS
 10
154.0253041972
 20
30.7551182848
 11
154.1987416972
 21
30.6583272086
  0
LINE
  8
0
 62
7
  6
CONTINUOUS
 10
153.0424918074
 20
31.4326557675
 11
153.1581166972
 21
31.3681283946
  0
LINE
  8
0
 62
7
  6
CONTINUOUS
 10
153.3893668074
 20
31.4649194539
 11
153.2737419177
 21
31.5294468267
  0
LINE
  8
0
 62
7
  6
CONTINUOUS
 10
159.1128043074
 20
30.8519093441
 11
159.228429528
 21
30.7228545871
  0
LINE
  8
0
 62
7
  6
CONTINUOUS
 10
159.4596793074
 20
30.7873819712
 11
159.401867028
 21
30.8519093441
  0
LINE
  8
0
 62
7
  6
CONTINUOUS
 10
159.1128043074
 20
31.3681283946
 11
159.228429528
 21
31.2390736489
  0
LINE
  8
0
 62
7
  6
CONTINUOUS
 10
158.5924918074
 20
31.3681283946
 11
158.534679528
 21
31.4649194539
  0
LINE
  8
0
 62
7
  6
CONTINUOUS
 10
160.9628038663
 20
30.7873819712
 11
160.9628038663
 21
30.8519093441
  0
LINE
  8
0
 62
7
  6
CONTINUOUS
 10
160.9671844304
 20
32.3970785186
 11
160.9671844304
 21
36.1675703219
  0
LINE
  8
0
 62
7
  6
CONTINUOUS
 10
154.0253041972
 20
31.4971831403
 11
153.9674919177
 21
31.4326557675
  0
LINE
  8
0
 62
7
  6
CONTINUOUS
 10
150.9034292799
 20
31.4649194539
 11
151.0768668626
 21
31.400392081
  0
LINE
  8
0
 62
7
  6
CONTINUOUS
 10
155.6440543074
 20
31.4649194539
 11
155.5284290869
 21
31.5294468267
  0
LINE
  8
0
 62
7
  6
CONTINUOUS
 10
159.4596793074
 20
31.3036010218
 11
159.401867028
 21
31.3681283946
  0
LINE
  8
0
 62
7
  6
CONTINUOUS
 10
160.615929528
 20
30.9164367395
 11
160.6737418074
 21
30.8519093441
  0
LINE
  8
0
 62
7
  6
CONTINUOUS
 10
160.9628038663
 20
30.8519093441
 11
160.8471793074
 21
30.9809641124
  0
LINE
  8
0
 62
7
  6
CONTINUOUS
 10
160.615929528
 20
31.4326557675
 11
160.6737418074
 21
31.3681283946
  0
LINE
  8
0
 62
7
  6
CONTINUOUS
 10
160.9628038663
 20
31.3681283946
 11
160.8471793074
 21
31.4971831403
  0
LINE
  8
0
 62
7
  6
CONTINUOUS
 10
154.2565543074
 20
31.3681283946
 11
154.3143669177
 21
31.4326557675
  0
LINE
  8
0
 62
7
  6
CONTINUOUS
 10
154.0831168074
 20
31.1100188581
 11
153.9674919177
 21
30.9809641124
  0
LINE
  8
0
 62
7
  6
CONTINUOUS
 10
155.412804528
 20
30.9487004259
 11
155.3549915869
 21
30.8841730531
  0
LINE
  8
0
 62
7
  6
CONTINUOUS
 10
155.3549915869
 20
30.6905909007
 11
155.412804528
 21
30.7551182848
  0
LINE
  8
0
 62
7
  6
CONTINUOUS
 10
154.1987416972
 20
30.6583272086
 11
154.3143669177
 21
30.6260635193
  0
LINE
  8
0
 62
7
  6
CONTINUOUS
 10
151.1924917523
 20
31.5294468267
 11
150.9612418074
 21
31.5939741996
  0
LINE
  8
0
 62
7
  6
CONTINUOUS
 10
154.5456166972
 20
30.7228545871
 11
154.3143669177
 21
30.7873819712
  0
LINE
  8
0
 62
7
  6
CONTINUOUS
 10
153.2737419177
 20
31.5294468267
 11
153.1003044177
 21
31.5939741996
  0
LINE
  8
0
 62
7
  6
CONTINUOUS
 10
155.5284290869
 20
31.5294468267
 11
155.3549915869
 21
31.5939741996
  0
LINE
  8
0
 62
7
  6
CONTINUOUS
 10
158.187804528
 20
31.4326557675
 11
158.3034290869
 21
31.3681283946
  0
LINE
  8
0
 62
7
  6
CONTINUOUS
 10
158.534679528
 20
31.4649194539
 11
158.4190543074
 21
31.5294468267
  0
LINE
  8
0
 62
7
  6
CONTINUOUS
 10
150.0362418212
 20
30.6583272086
 11
150.2096793212
 21
30.6260635193
  0
LINE
  8
0
 62
7
  6
CONTINUOUS
 10
150.498741835
 20
30.7228545871
 11
150.1518667936
 21
30.7873819712
  0
LINE
  8
0
 62
7
  6
CONTINUOUS
 10
152.9268669177
 20
31.4649194539
 11
153.0424918074
 21
31.4326557675
  0
LINE
  8
0
 62
7
  6
CONTINUOUS
 10
155.239367028
 20
31.4649194539
 11
155.3549915869
 21
31.4326557675
  0
LINE
  8
0
 62
7
  6
CONTINUOUS
 10
159.575304528
 20
30.7551182848
 11
159.4596793074
 21
30.7873819712
  0
LINE
  8
0
 62
7
  6
CONTINUOUS
 10
158.0721793074
 20
31.4649194539
 11
158.187804528
 21
31.4326557675
  0
LINE
  8
0
 62
7
  6
CONTINUOUS
 10
159.228429528
 20
30.7228545871
 11
159.401867028
 21
30.6583272086
  0
LINE
  8
0
 62
7
  6
CONTINUOUS
 10
158.4190543074
 20
31.5294468267
 11
158.2456168074
 21
31.5939741996
  0
LINE
  8
0
 62
7
  6
CONTINUOUS
 10
159.6331168074
 20
31.2390736489
 11
159.4596793074
 21
31.3036010218
  0
LINE
  8
0
 62
7
  6
CONTINUOUS
 10
160.442492028
 20
30.9809641124
 11
160.615929528
 21
30.9164367395
  0
LINE
  8
0
 62
7
  6
CONTINUOUS
 10
160.8471793074
 20
31.4971831403
 11
160.6737418074
 21
31.5617105132
  0
LINE
  8
0
 62
7
  6
CONTINUOUS
 10
159.228429528
 20
31.2390736489
 11
159.4596793074
 21
31.1422825445
  0
LINE
  8
0
 62
7
  6
CONTINUOUS
 10
160.8471793074
 20
30.9809641124
 11
160.615929528
 21
31.0777551716
  0
LINE
  8
0
 62
7
  6
CONTINUOUS
 10
159.401867028
 20
31.3681283946
 11
159.4596793074
 21
31.4326557675
  0
LINE
  8
0
 62
7
  6
CONTINUOUS
 10
149.8628043005
 20
31.4971831403
 11
149.7471793074
 21
31.4326557675
  0
LINE
  8
0
 62
7
  6
CONTINUOUS
 10
149.9784292936
 20
31.3358647082
 11
150.1518667936
 21
31.4326557675
  0
LINE
  8
0
 62
7
  6
CONTINUOUS
 10
152.2909293626
 20
31.5294468267
 11
152.1753043074
 21
31.4649194539
  0
LINE
  8
0
 62
7
  6
CONTINUOUS
 10
152.1753043074
 20
31.3358647082
 11
152.2909293626
 21
31.400392081
  0
LINE
  8
0
 62
7
  6
CONTINUOUS
 10
151.1924917523
 20
30.6905909007
 11
151.3659292523
 21
30.7873819712
  0
LINE
  8
0
 62
7
  6
CONTINUOUS
 10
150.2096793212
 20
30.6260635193
 11
150.5565542799
 21
30.5937998301
  0
LINE
  8
0
 62
7
  6
CONTINUOUS
 10
154.3143669177
 20
30.6260635193
 11
154.5456166972
 21
30.5937998301
  0
LINE
  8
0
 62
7
  6
CONTINUOUS
 10
152.6956168074
 20
31.4971831403
 11
152.9268669177
 21
31.4649194539
  0
LINE
  8
0
 62
7
  6
CONTINUOUS
 10
155.0081169177
 20
31.4971831403
 11
155.239367028
 21
31.4649194539
  0
LINE
  8
0
 62
7
  6
CONTINUOUS
 10
159.4596793074
 20
31.1422825445
 11
160.442492028
 21
30.9809641124
  0
LINE
  8
0
 62
7
  6
CONTINUOUS
 10
160.615929528
 20
31.0777551716
 11
159.6331168074
 21
31.2390736489
  0
LINE
  8
0
 62
7
  6
CONTINUOUS
 10
153.1003044177
 20
31.5939741996
 11
152.9268669177
 21
31.626237886
  0
LINE
  8
0
 62
7
  6
CONTINUOUS
 10
159.401867028
 20
30.6583272086
 11
159.575304528
 21
30.6260635193
  0
LINE
  8
0
 62
7
  6
CONTINUOUS
 10
158.2456168074
 20
31.5939741996
 11
158.0721793074
 21
31.626237886
  0
LINE
  8
0
 62
7
  6
CONTINUOUS
 10
160.5003043074
 20
31.4649194539
 11
160.615929528
 21
31.4326557675
  0
LINE
  8
0
 62
7
  6
CONTINUOUS
 10
160.6737418074
 20
30.8519093441
 11
160.615929528
 21
30.7873819712
  0
LINE
  8
0
 62
7
  6
CONTINUOUS
 10
159.228429528
 20
31.5294468267
 11
159.1128043074
 21
31.4326557675
  0
LINE
  8
0
 62
7
  6
CONTINUOUS
 10
154.1409294177
 20
31.5617105132
 11
154.0253041972
 21
31.4971831403
  0
LINE
  8
0
 62
7
  6
CONTINUOUS
 10
154.1987416972
 20
31.1745462761
 11
154.0831168074
 21
31.1100188581
  0
LINE
  8
0
 62
7
  6
CONTINUOUS
 10
154.3143669177
 20
31.0132277988
 11
154.4299918074
 21
31.0777551716
  0
LINE
  8
0
 62
7
  6
CONTINUOUS
 10
151.8862417523
 20
30.5937998301
 11
152.1753043074
 21
30.5937998301
  0
LINE
  8
0
 62
7
  6
CONTINUOUS
 10
153.2159293074
 20
30.5937998301
 11
153.5049916972
 21
30.5937998301
  0
LINE
  8
0
 62
7
  6
CONTINUOUS
 10
154.5456166972
 20
30.5937998301
 11
154.8924916972
 21
30.5937998301
  0
LINE
  8
0
 62
7
  6
CONTINUOUS
 10
155.5284290869
 20
30.5937998301
 11
155.8174918074
 21
30.5937998301
  0
LINE
  8
0
 62
7
  6
CONTINUOUS
 10
156.279992028
 20
30.5937998301
 11
156.5690540869
 21
30.5937998301
  0
LINE
  8
0
 62
7
  6
CONTINUOUS
 10
157.0315543074
 20
30.5937998301
 11
157.320617028
 21
30.5937998301
  0
LINE
  8
0
 62
7
  6
CONTINUOUS
 10
158.361242028
 20
30.5937998301
 11
158.6503040869
 21
30.5937998301
  0
LINE
  8
0
 62
7
  6
CONTINUOUS
 10
159.922179528
 20
30.5937998301
 11
160.269054528
 21
30.5937998301
  0
LINE
  8
0
 62
7
  6
CONTINUOUS
 10
160.269054528
 20
30.7228545871
 11
159.922179528
 21
30.7228545871
  0
LINE
  8
0
 62
7
  6
CONTINUOUS
 10
154.8924916972
 20
30.7228545871
 11
154.5456166972
 21
30.7228545871
  0
LINE
  8
0
 62
7
  6
CONTINUOUS
 10
159.401867028
 20
30.8519093441
 11
159.1128043074
 21
30.8519093441
  0
LINE
  8
0
 62
7
  6
CONTINUOUS
 10
151.4237418626
 20
30.9164367395
 11
151.1346793074
 21
30.9164367395
  0
LINE
  8
0
 62
7
  6
CONTINUOUS
 10
150.498741835
 20
31.4971831403
 11
150.9034292799
 21
31.4649194539
  0
LINE
  8
0
 62
7
  6
CONTINUOUS
 10
150.9612418074
 20
31.5939741996
 11
150.5565542799
 21
31.626237886
  0
LINE
  8
0
 62
7
  6
CONTINUOUS
 10
159.575304528
 20
30.6260635193
 11
159.922179528
 21
30.5937998301
  0
LINE
  8
0
 62
7
  6
CONTINUOUS
 10
159.922179528
 20
30.7228545871
 11
159.575304528
 21
30.7551182848
  0
LINE
  8
0
 62
7
  6
CONTINUOUS
 10
155.3549915869
 20
31.5939741996
 11
155.0081169177
 21
31.626237886
  0
LINE
  8
0
 62
7
  6
CONTINUOUS
 10
160.1534293074
 20
31.4971831403
 11
160.5003043074
 21
31.4649194539
  0
LINE
  8
0
 62
7
  6
CONTINUOUS
 10
160.5003043074
 20
31.5939741996
 11
160.1534293074
 21
31.626237886
  0
LINE
  8
0
 62
7
  6
CONTINUOUS
 10
157.840929528
 20
31.4971831403
 11
158.0721793074
 21
31.4649194539
  0
LINE
  8
0
 62
7
  6
CONTINUOUS
 10
160.6737418074
 20
31.5617105132
 11
160.5003043074
 21
31.5939741996
  0
LINE
  8
0
 62
7
  6
CONTINUOUS
 10
160.8471793074
 20
30.6905909007
 11
160.9628038663
 21
30.7873819712
  0
LINE
  8
0
 62
7
  6
CONTINUOUS
 10
155.3549915869
 20
30.8841730531
 11
155.1815540869
 21
30.7873819712
  0
LINE
  8
0
 62
7
  6
CONTINUOUS
 10
157.4362415869
 20
31.5294468267
 11
157.320617028
 21
31.4649194539
  0
LINE
  8
0
 62
7
  6
CONTINUOUS
 10
157.320617028
 20
31.3358647082
 11
157.4362415869
 21
31.400392081
  0
LINE
  8
0
 62
7
  6
CONTINUOUS
 10
150.0362418212
 20
31.5617105132
 11
149.8628043005
 21
31.4971831403
  0
LINE
  8
0
 62
7
  6
CONTINUOUS
 10
152.4643666972
 20
31.5939741996
 11
152.2909293626
 21
31.5294468267
  0
LINE
  8
0
 62
7
  6
CONTINUOUS
 10
152.2909293626
 20
31.400392081
 11
152.4643666972
 21
31.4649194539
  0
LINE
  8
0
 62
7
  6
CONTINUOUS
 10
151.0768668626
 20
30.8196456577
 11
150.9034292799
 21
30.7551182848
  0
LINE
  8
0
 62
7
  6
CONTINUOUS
 10
160.5003043074
 20
30.7551182848
 11
160.269054528
 21
30.7228545871
  0
LINE
  8
0
 62
7
  6
CONTINUOUS
 10
154.8924916972
 20
30.5937998301
 11
155.1815540869
 21
30.6260635193
  0
LINE
  8
0
 62
7
  6
CONTINUOUS
 10
160.269054528
 20
30.5937998301
 11
160.615929528
 21
30.6260635193
  0
LINE
  8
0
 62
7
  6
CONTINUOUS
 10
150.5565542799
 20
30.5937998301
 11
150.9612418074
 21
30.6260635193
  0
LINE
  8
0
 62
7
  6
CONTINUOUS
 10
150.9034292799
 20
30.7551182848
 11
150.498741835
 21
30.7228545871
  0
LINE
  8
0
 62
7
  6
CONTINUOUS
 10
154.7768668074
 20
31.1422825445
 11
155.412804528
 21
31.1422825445
  0
LINE
  8
0
 62
7
  6
CONTINUOUS
 10
155.412804528
 20
31.2713373354
 11
154.7768668074
 21
31.2713373354
  0
LINE
  8
0
 62
7
  6
CONTINUOUS
 10
151.1346793074
 20
31.3036010218
 11
151.4237418626
 21
31.3036010218
  0
LINE
  8
0
 62
7
  6
CONTINUOUS
 10
153.9674919177
 20
31.3681283946
 11
154.2565543074
 21
31.3681283946
  0
LINE
  8
0
 62
7
  6
CONTINUOUS
 10
160.6737418074
 20
31.3681283946
 11
160.9628038663
 21
31.3681283946
  0
LINE
  8
0
 62
7
  6
CONTINUOUS
 10
154.6612419177
 20
31.4971831403
 11
155.0081169177
 21
31.4971831403
  0
LINE
  8
0
 62
7
  6
CONTINUOUS
 10
159.8065543074
 20
31.4971831403
 11
160.1534293074
 21
31.4971831403
  0
LINE
  8
0
 62
7
  6
CONTINUOUS
 10
160.1534293074
 20
31.626237886
 11
159.8065543074
 21
31.626237886
  0
LINE
  8
0
 62
7
  6
CONTINUOUS
 10
158.0721793074
 20
31.626237886
 11
157.840929528
 21
31.626237886
  0
LINE
  8
0
 62
7
  6
CONTINUOUS
 10
157.320617028
 20
31.626237886
 11
157.0315543074
 21
31.626237886
  0
LINE
  8
0
 62
7
  6
CONTINUOUS
 10
156.5690540869
 20
31.626237886
 11
156.279992028
 21
31.626237886
  0
LINE
  8
0
 62
7
  6
CONTINUOUS
 10
155.0081169177
 20
31.626237886
 11
154.6612419177
 21
31.626237886
  0
LINE
  8
0
 62
7
  6
CONTINUOUS
 10
152.9268669177
 20
31.626237886
 11
152.6956168074
 21
31.626237886
  0
LINE
  8
0
 62
7
  6
CONTINUOUS
 10
156.279992028
 20
31.9488748406
 11
156.5690540869
 21
31.9488748406
  0
LINE
  8
0
 62
7
  6
CONTINUOUS
 10
156.5690540869
 20
32.1101932727
 11
156.279992028
 21
32.1101932727
  0
LINE
  8
0
 62
7
  6
CONTINUOUS
 10
152.1753043074
 20
32.1101932727
 11
151.8862417523
 21
32.1101932727
  0
LINE
  8
0
 62
7
  6
CONTINUOUS
 10
151.2130860697
 20
32.3970785186
 11
151.6256574183
 21
32.3970785186
  0
LINE
  8
0
 62
7
  6
CONTINUOUS
 10
152.852430332
 20
32.3970785186
 11
154.245872955
 21
32.3970785186
  0
LINE
  8
0
 62
7
  6
CONTINUOUS
 10
154.5737418074
 20
32.3970785186
 11
155.9671844304
 21
32.3970785186
  0
LINE
  8
0
 62
7
  6
CONTINUOUS
 10
157.852430332
 20
32.3970785186
 11
159.245872955
 21
32.3970785186
  0
LINE
  8
0
 62
7
  6
CONTINUOUS
 10
159.5737418074
 20
32.3970785186
 11
160.9671844304
 21
32.3970785186
  0
LINE
  8
0
 62
7
  6
CONTINUOUS
 10
157.6096790869
 20
31.5939741996
 11
157.4362415869
 21
31.5294468267
  0
LINE
  8
0
 62
7
  6
CONTINUOUS
 10
155.1815540869
 20
30.6260635193
 11
155.3549915869
 21
30.6905909007
  0
LINE
  8
0
 62
7
  6
CONTINUOUS
 10
160.615929528
 20
30.6260635193
 11
160.8471793074
 21
30.6905909007
  0
LINE
  8
0
 62
7
  6
CONTINUOUS
 10
160.615929528
 20
30.7873819712
 11
160.5003043074
 21
30.7551182848
  0
LINE
  8
0
 62
7
  6
CONTINUOUS
 10
159.575304528
 20
31.4649194539
 11
159.8065543074
 21
31.4971831403
  0
LINE
  8
0
 62
7
  6
CONTINUOUS
 10
157.6096790869
 20
31.4649194539
 11
157.840929528
 21
31.4971831403
  0
LINE
  8
0
 62
7
  6
CONTINUOUS
 10
154.5456166972
 20
31.1100188581
 11
154.7768668074
 21
31.1422825445
  0
LINE
  8
0
 62
7
  6
CONTINUOUS
 10
157.840929528
 20
31.626237886
 11
157.6096790869
 21
31.5939741996
  0
LINE
  8
0
 62
7
  6
CONTINUOUS
 10
154.4299918074
 20
31.4649194539
 11
154.6612419177
 21
31.4971831403
  0
LINE
  8
0
 62
7
  6
CONTINUOUS
 10
159.8065543074
 20
31.626237886
 11
159.4596793074
 21
31.5939741996
  0
LINE
  8
0
 62
7
  6
CONTINUOUS
 10
154.7768668074
 20
31.2713373354
 11
154.4299918074
 21
31.2390736489
  0
LINE
  8
0
 62
7
  6
CONTINUOUS
 10
150.5565542799
 20
31.626237886
 11
150.2096793212
 21
31.5939741996
  0
LINE
  8
0
 62
7
  6
CONTINUOUS
 10
154.6612419177
 20
31.626237886
 11
154.2565543074
 21
31.5939741996
  0
LINE
  8
0
 62
7
  6
CONTINUOUS
 10
152.0327582009
 20
33.5446195022
 11
151.3770204959
 21
33.5446195022
  0
LINE
  8
0
 62
7
  6
CONTINUOUS
 10
157.4362415869
 20
31.400392081
 11
157.6096790869
 21
31.4649194539
  0
LINE
  8
0
 62
7
  6
CONTINUOUS
 10
159.4596793074
 20
31.4326557675
 11
159.575304528
 21
31.4649194539
  0
LINE
  8
0
 62
7
  6
CONTINUOUS
 10
159.4596793074
 20
31.5939741996
 11
159.228429528
 21
31.5294468267
  0
LINE
  8
0
 62
7
  6
CONTINUOUS
 10
155.1815540869
 20
30.7873819712
 11
154.8924916972
 21
30.7228545871
  0
LINE
  8
0
 62
7
  6
CONTINUOUS
 10
152.4643666972
 20
31.4649194539
 11
152.6956168074
 21
31.4971831403
  0
LINE
  8
0
 62
7
  6
CONTINUOUS
 10
152.6956168074
 20
31.626237886
 11
152.4643666972
 21
31.5939741996
  0
LINE
  8
0
 62
7
  6
CONTINUOUS
 10
150.2674918074
 20
31.4649194539
 11
150.498741835
 21
31.4971831403
  0
LINE
  8
0
 62
7
  6
CONTINUOUS
 10
156.7868565615
 20
35.0200293383
 11
157.4425942664
 21
35.0200293383
  0
LINE
  8
0
 62
7
  6
CONTINUOUS
 10
154.4299918074
 20
31.0777551716
 11
154.5456166972
 21
31.1100188581
  0
LINE
  8
0
 62
7
  6
CONTINUOUS
 10
154.4299918074
 20
31.2390736489
 11
154.1987416972
 21
31.1745462761
  0
LINE
  8
0
 62
7
  6
CONTINUOUS
 10
154.3143669177
 20
31.4326557675
 11
154.4299918074
 21
31.4649194539
  0
LINE
  8
0
 62
7
  6
CONTINUOUS
 10
150.9612418074
 20
30.6260635193
 11
151.1924917523
 21
30.6905909007
  0
LINE
  8
0
 62
7
  6
CONTINUOUS
 10
154.2565543074
 20
31.5939741996
 11
154.1409294177
 21
31.5617105132
  0
LINE
  8
0
 62
7
  6
CONTINUOUS
 10
150.2096793212
 20
31.5939741996
 11
150.0362418212
 21
31.5617105132
  0
LINE
  8
0
 62
7
  6
CONTINUOUS
 10
160.9671844304
 20
36.1675703219
 11
159.5737418074
 21
36.1675703219
  0
LINE
  8
0
 62
7
  6
CONTINUOUS
 10
157.6065286927
 20
36.1675703219
 11
157.1939573441
 21
36.1675703219
  0
LINE
  8
0
 62
7
  6
CONTINUOUS
 10
155.9671844304
 20
36.1675703219
 11
154.5737418074
 21
36.1675703219
  0
LINE
  8
0
 62
7
  6
CONTINUOUS
 10
154.245872955
 20
36.1675703219
 11
152.852430332
 21
36.1675703219
  0
LINE
  8
0
 62
7
  6
CONTINUOUS
 10
150.9671844304
 20
36.1675703219
 11
149.5737418074
 21
36.1675703219
  0
LINE
  8
0
 62
7
  6
CONTINUOUS
 10
150.1518667936
 20
31.4326557675
 11
150.2674918074
 21
31.4649194539
  0
CIRCLE
  8
0
 62
7
  6
CONTINUOUS
 10
160.2704631189
 20
38.5036358957
 40
2.0901639344
  0
ARC
  8
0
 62
7
  6
CONTINUOUS
 10
151.2130860697
 20
34.0364227809
 40
1.6393442623
 50
180.0
 51
270.0
  0
ARC
  8
0
 62
7
  6
CONTINUOUS
 10
157.6065286927
 20
34.5282260596
 40
1.6393442623
 50
0.0
 51
90.0
  0
ARC
  8
0
 62
7
  6
CONTINUOUS
 10
151.6256574183
 20
33.8724883547
 40
1.4754098361
 50
270.0
 51
326.2510114041
  0
ARC
  8
0
 62
7
  6
CONTINUOUS
 10
157.1939573441
 20
34.6921604858
 40
1.4754098361
 50
90.0
 51
146.2510114041
  0
ARC
  8
0
 62
7
  6
CONTINUOUS
 10
152.0327582009
 20
34.3642916334
 40
0.8196721311
 50
270.0
 51
360.0
  0
ARC
  8
0
 62
7
  6
CONTINUOUS
 10
156.7868565615
 20
34.2003572071
 40
0.8196721311
 50
90.0
 51
180.0
  0
ARC
  8
0
 62
7
  6
CONTINUOUS
 10
151.3770204959
 20
33.9544555678
 40
0.4098360656
 50
180.0
 51
270.0
  0
ARC
  8
0
 62
7
  6
CONTINUOUS
 10
157.4425942664
 20
34.6101932727
 40
0.4098360656
 50
0.0
 51
90.0
  0
SOLID
  8
0
 62
7
  6
CONTINUOUS
 10
156.279992028
 20
31.9488752009
 11
156.279992028
 21
32.1101936845
 12
156.5690540869
 22
31.9488752009
 13
156.5690540869
 23
32.1101936845
  0
SOLID
  8
0
 62
7
  6
CONTINUOUS
 10
150.5565542799
 20
31.6262382337
 11
150.9612418074
 21
31.5939740028
 12
150.2096793212
 22
31.5939740028
 13
150.2096793212
 23
31.5939740028
  0
SOLID
  8
0
 62
7
  6
CONTINUOUS
 10
150.0362418212
 20
31.5617111435
 11
150.2096793212
 21
31.5939740028
 12
150.9612418074
 22
31.5939740028
 13
150.9612418074
 23
31.5939740028
  0
SOLID
  8
0
 62
7
  6
CONTINUOUS
 10
150.9612418074
 20
31.5939740028
 11
151.1924917523
 21
31.5294468402
 12
150.0362418212
 22
31.5617111435
 13
150.0362418212
 23
31.5617111435
  0
SOLID
  8
0
 62
7
  6
CONTINUOUS
 10
149.8628043005
 20
31.49718259
 11
150.0362418212
 21
31.5617111435
 12
151.1924917523
 22
31.5294468402
 13
151.1924917523
 23
31.5294468402
  0
SOLID
  8
0
 62
7
  6
CONTINUOUS
 10
149.8628043005
 20
31.49718259
 11
151.1924917523
 21
31.5294468402
 12
150.498741835
 22
31.49718259
 13
150.498741835
 23
31.49718259
  0
SOLID
  8
0
 62
7
  6
CONTINUOUS
 10
150.498741835
 20
31.49718259
 11
151.1924917523
 21
31.5294468402
 12
150.9034292799
 22
31.4649197501
 13
150.9034292799
 23
31.4649197501
  0
SOLID
  8
0
 62
7
  6
CONTINUOUS
 10
151.1924917523
 20
31.5294468402
 11
151.3659292523
 21
31.4326554468
 12
150.9034292799
 22
31.4649197501
 13
150.9034292799
 23
31.4649197501
  0
SOLID
  8
0
 62
7
  6
CONTINUOUS
 10
151.0768668626
 20
31.4003926599
 11
150.9034292799
 21
31.4649197501
 12
151.3659292523
 22
31.4326554468
 13
151.3659292523
 23
31.4326554468
  0
SOLID
  8
0
 62
7
  6
CONTINUOUS
 10
151.0768668626
 20
31.4003926599
 11
151.3659292523
 21
31.4326554468
 12
151.1346793074
 22
31.3036013776
 13
151.1346793074
 23
31.3036013776
  0
SOLID
  8
0
 62
7
  6
CONTINUOUS
 10
151.3659292523
 20
31.4326554468
 11
151.4237418626
 21
31.3036013776
 12
151.1346793074
 22
31.3036013776
 13
151.1346793074
 23
31.3036013776
  0
SOLID
  8
0
 62
7
  6
CONTINUOUS
 10
152.4643666972
 20
31.5939739754
 11
152.6956168074
 21
31.6262382787
 12
152.9268669177
 22
31.6262382787
 13
152.9268669177
 23
31.6262382787
  0
SOLID
  8
0
 62
7
  6
CONTINUOUS
 10
152.9268669177
 20
31.6262382787
 11
153.1003044177
 21
31.5939739754
 12
152.4643666972
 22
31.5939739754
 13
152.4643666972
 23
31.5939739754
  0
SOLID
  8
0
 62
7
  6
CONTINUOUS
 10
152.2909293626
 20
31.5294468852
 11
152.4643666972
 21
31.5939739754
 12
153.1003044177
 22
31.5939739754
 13
153.1003044177
 23
31.5939739754
  0
SOLID
  8
0
 62
7
  6
CONTINUOUS
 10
153.1003044177
 20
31.5939739754
 11
153.2737419177
 21
31.5294468852
 12
152.2909293626
 22
31.5294468852
 13
152.2909293626
 23
31.5294468852
  0
SOLID
  8
0
 62
7
  6
CONTINUOUS
 10
153.2737419177
 20
31.5294468852
 11
152.6956168074
 21
31.4971825369
 12
152.2909293626
 22
31.5294468852
 13
152.2909293626
 23
31.5294468852
  0
SOLID
  8
0
 62
7
  6
CONTINUOUS
 10
152.1753043074
 20
31.4649197951
 11
152.2909293626
 21
31.5294468852
 12
152.6956168074
 22
31.4971825369
 13
152.6956168074
 23
31.4971825369
  0
SOLID
  8
0
 62
7
  6
CONTINUOUS
 10
152.6956168074
 20
31.4971825369
 11
152.4643666972
 21
31.4649197951
 12
152.1753043074
 22
31.4649197951
 13
152.1753043074
 23
31.4649197951
  0
SOLID
  8
0
 62
7
  6
CONTINUOUS
 10
152.6956168074
 20
31.4971825369
 11
153.2737419177
 21
31.5294468852
 12
152.9268669177
 22
31.4649197951
 13
152.9268669177
 23
31.4649197951
  0
SOLID
  8
0
 62
7
  6
CONTINUOUS
 10
153.2737419177
 20
31.5294468852
 11
153.3893668074
 21
31.4649197951
 12
152.9268669177
 22
31.4649197951
 13
152.9268669177
 23
31.4649197951
  0
SOLID
  8
0
 62
7
  6
CONTINUOUS
 10
153.0424918074
 20
31.4326554468
 11
152.9268669177
 21
31.4649197951
 12
153.3893668074
 22
31.4649197951
 13
153.3893668074
 23
31.4649197951
  0
SOLID
  8
0
 62
7
  6
CONTINUOUS
 10
153.3893668074
 20
31.4649197951
 11
153.4471794177
 21
31.4003927049
 12
153.0424918074
 22
31.4326554468
 13
153.0424918074
 23
31.4326554468
  0
SOLID
  8
0
 62
7
  6
CONTINUOUS
 10
153.1581166972
 20
31.3681283566
 11
153.0424918074
 21
31.4326554468
 12
153.4471794177
 22
31.4003927049
 13
153.4471794177
 23
31.4003927049
  0
SOLID
  8
0
 62
7
  6
CONTINUOUS
 10
153.1581166972
 20
31.3681283566
 11
153.4471794177
 21
31.4003927049
 12
153.2159293074
 22
31.2390742213
 13
153.2159293074
 23
31.2390742213
  0
SOLID
  8
0
 62
7
  6
CONTINUOUS
 10
153.4471794177
 20
31.4003927049
 11
153.5049916972
 21
31.2390742213
 12
153.2159293074
 22
31.2390742213
 13
153.2159293074
 23
31.2390742213
  0
SOLID
  8
0
 62
7
  6
CONTINUOUS
 10
152.4643666972
 20
31.4649197951
 11
152.2909293626
 21
31.4003927049
 12
152.1753043074
 22
31.4649197951
 13
152.1753043074
 23
31.4649197951
  0
SOLID
  8
0
 62
7
  6
CONTINUOUS
 10
152.2909293626
 20
31.4003927049
 11
152.1753043074
 21
31.3358640533
 12
152.1753043074
 22
31.4649197951
 13
152.1753043074
 23
31.4649197951
  0
SOLID
  8
0
 62
7
  6
CONTINUOUS
 10
152.1753043074
 20
31.3358640533
 11
151.8862417523
 21
30.5938002869
 12
152.1753043074
 22
31.4649197951
 13
152.1753043074
 23
31.4649197951
  0
SOLID
  8
0
 62
7
  6
CONTINUOUS
 10
152.1753043074
 20
31.4649197951
 11
151.8862417523
 21
30.5938002869
 12
152.1753043074
 22
32.1101937295
 13
152.1753043074
 23
32.1101937295
  0
SOLID
  8
0
 62
7
  6
CONTINUOUS
 10
151.8862417523
 20
30.5938002869
 11
151.8862417523
 21
32.1101937295
 12
152.1753043074
 22
32.1101937295
 13
152.1753043074
 23
32.1101937295
  0
SOLID
  8
0
 62
7
  6
CONTINUOUS
 10
152.1753043074
 20
31.3358640533
 11
152.1753043074
 21
30.5938002869
 12
151.8862417523
 22
30.5938002869
 13
151.8862417523
 23
30.5938002869
  0
SOLID
  8
0
 62
7
  6
CONTINUOUS
 10
153.2159293074
 20
30.5938002869
 11
153.2159293074
 21
31.2390742213
 12
153.5049916972
 22
31.2390742213
 13
153.5049916972
 23
31.2390742213
  0
SOLID
  8
0
 62
7
  6
CONTINUOUS
 10
153.5049916972
 20
31.2390742213
 11
153.5049916972
 21
30.5938002869
 12
153.2159293074
 22
30.5938002869
 13
153.2159293074
 23
30.5938002869
  0
SOLID
  8
0
 62
7
  6
CONTINUOUS
 10
154.2565543074
 20
31.5939738288
 11
154.6612419177
 21
31.6262385959
 12
155.0081169177
 22
31.6262385959
 13
155.0081169177
 23
31.6262385959
  0
SOLID
  8
0
 62
7
  6
CONTINUOUS
 10
155.0081169177
 20
31.6262385959
 11
155.3549915869
 21
31.5939738288
 12
154.2565543074
 22
31.5939738288
 13
154.2565543074
 23
31.5939738288
  0
SOLID
  8
0
 62
7
  6
CONTINUOUS
 10
154.1409294177
 20
31.5617111435
 11
154.2565543074
 21
31.5939738288
 12
155.3549915869
 22
31.5939738288
 13
155.3549915869
 23
31.5939738288
  0
SOLID
  8
0
 62
7
  6
CONTINUOUS
 10
155.3549915869
 20
31.5939738288
 11
155.5284290869
 21
31.5294468402
 12
154.1409294177
 22
31.5617111435
 13
154.1409294177
 23
31.5617111435
  0
SOLID
  8
0
 62
7
  6
CONTINUOUS
 10
154.0253041972
 20
31.4971826249
 11
154.1409294177
 21
31.5617111435
 12
155.5284290869
 22
31.5294468402
 13
155.5284290869
 23
31.5294468402
  0
SOLID
  8
0
 62
7
  6
CONTINUOUS
 10
154.0253041972
 20
31.4971826249
 11
155.5284290869
 21
31.5294468402
 12
154.6612419177
 22
31.4971826249
 13
154.6612419177
 23
31.4971826249
  0
SOLID
  8
0
 62
7
  6
CONTINUOUS
 10
154.6612419177
 20
31.4971826249
 11
155.5284290869
 21
31.5294468402
 12
155.0081169177
 22
31.4971826249
 13
155.0081169177
 23
31.4971826249
  0
SOLID
  8
0
 62
7
  6
CONTINUOUS
 10
155.0081169177
 20
31.4971826249
 11
155.5284290869
 21
31.5294468402
 12
155.239367028
 22
31.4649194065
 13
155.239367028
 23
31.4649194065
  0
SOLID
  8
0
 62
7
  6
CONTINUOUS
 10
155.5284290869
 20
31.5294468402
 11
155.6440543074
 21
31.4649194065
 12
155.239367028
 22
31.4649194065
 13
155.239367028
 23
31.4649194065
  0
SOLID
  8
0
 62
7
  6
CONTINUOUS
 10
153.9674919177
 20
31.4326554138
 11
154.0253041972
 21
31.4971826249
 12
154.6612419177
 22
31.4971826249
 13
154.6612419177
 23
31.4971826249
  0
SOLID
  8
0
 62
7
  6
CONTINUOUS
 10
155.3549915869
 20
31.4326554138
 11
155.239367028
 21
31.4649194065
 12
155.6440543074
 22
31.4649194065
 13
155.6440543074
 23
31.4649194065
  0
SOLID
  8
0
 62
7
  6
CONTINUOUS
 10
155.3549915869
 20
31.4326554138
 11
155.6440543074
 21
31.4649194065
 12
155.412804528
 22
31.3681282026
 13
155.412804528
 23
31.3681282026
  0
SOLID
  8
0
 62
7
  6
CONTINUOUS
 10
155.6440543074
 20
31.4649194065
 11
155.7018665869
 21
31.3681282026
 12
155.412804528
 22
31.3681282026
 13
155.412804528
 23
31.3681282026
  0
SOLID
  8
0
 62
7
  6
CONTINUOUS
 10
155.412804528
 20
31.2713369632
 11
155.412804528
 21
31.3681282026
 12
155.7018665869
 22
31.3681282026
 13
155.7018665869
 23
31.3681282026
  0
SOLID
  8
0
 62
7
  6
CONTINUOUS
 10
155.412804528
 20
31.2713369632
 11
155.7018665869
 21
31.3681282026
 12
155.412804528
 22
31.1422827828
 13
155.412804528
 23
31.1422827828
  0
SOLID
  8
0
 62
7
  6
CONTINUOUS
 10
155.412804528
 20
31.1422827828
 11
155.7018665869
 21
31.3681282026
 12
155.412804528
 22
30.9487004259
 13
155.412804528
 23
30.9487004259
  0
SOLID
  8
0
 62
7
  6
CONTINUOUS
 10
155.7018665869
 20
31.3681282026
 11
155.7018665869
 21
30.8519086025
 12
155.412804528
 22
30.9487004259
 13
155.412804528
 23
30.9487004259
  0
SOLID
  8
0
 62
7
  6
CONTINUOUS
 10
157.6096790869
 20
31.5939736268
 11
157.840929528
 21
31.6262383465
 12
158.0721793074
 22
31.6262383465
 13
158.0721793074
 23
31.6262383465
  0
SOLID
  8
0
 62
7
  6
CONTINUOUS
 10
158.0721793074
 20
31.6262383465
 11
158.2456168074
 21
31.5939736268
 12
157.6096790869
 22
31.5939736268
 13
157.6096790869
 23
31.5939736268
  0
SOLID
  8
0
 62
7
  6
CONTINUOUS
 10
157.4362415869
 20
31.5294472848
 11
157.6096790869
 21
31.5939736268
 12
158.2456168074
 22
31.5939736268
 13
158.2456168074
 23
31.5939736268
  0
SOLID
  8
0
 62
7
  6
CONTINUOUS
 10
158.2456168074
 20
31.5939736268
 11
158.4190543074
 21
31.5294472848
 12
157.4362415869
 22
31.5294472848
 13
157.4362415869
 23
31.5294472848
  0
SOLID
  8
0
 62
7
  6
CONTINUOUS
 10
158.4190543074
 20
31.5294472848
 11
157.840929528
 21
31.4971825369
 12
157.4362415869
 22
31.5294472848
 13
157.4362415869
 23
31.5294472848
  0
SOLID
  8
0
 62
7
  6
CONTINUOUS
 10
157.320617028
 20
31.4649199103
 11
157.4362415869
 21
31.5294472848
 12
157.840929528
 22
31.4971825369
 13
157.840929528
 23
31.4971825369
  0
SOLID
  8
0
 62
7
  6
CONTINUOUS
 10
157.840929528
 20
31.4971825369
 11
157.6096790869
 21
31.4649199103
 12
157.320617028
 22
31.4649199103
 13
157.320617028
 23
31.4649199103
  0
SOLID
  8
0
 62
7
  6
CONTINUOUS
 10
157.840929528
 20
31.4971825369
 11
158.4190543074
 21
31.5294472848
 12
158.0721793074
 22
31.4649199103
 13
158.0721793074
 23
31.4649199103
  0
SOLID
  8
0
 62
7
  6
CONTINUOUS
 10
158.4190543074
 20
31.5294472848
 11
158.534679528
 21
31.4649199103
 12
158.0721793074
 22
31.4649199103
 13
158.0721793074
 23
31.4649199103
  0
SOLID
  8
0
 62
7
  6
CONTINUOUS
 10
158.187804528
 20
31.4326554468
 11
158.0721793074
 21
31.4649199103
 12
158.534679528
 22
31.4649199103
 13
158.534679528
 23
31.4649199103
  0
SOLID
  8
0
 62
7
  6
CONTINUOUS
 10
158.187804528
 20
31.4326554468
 11
158.534679528
 21
31.4649199103
 12
158.3034290869
 22
31.3681288486
 13
158.3034290869
 23
31.3681288486
  0
SOLID
  8
0
 62
7
  6
CONTINUOUS
 10
158.534679528
 20
31.4649199103
 11
158.5924918074
 21
31.3681288486
 12
158.3034290869
 22
31.3681288486
 13
158.3034290869
 23
31.3681288486
  0
SOLID
  8
0
 62
7
  6
CONTINUOUS
 10
158.361242028
 20
31.2068093799
 11
158.3034290869
 21
31.3681288486
 12
158.5924918074
 22
31.3681288486
 13
158.5924918074
 23
31.3681288486
  0
SOLID
  8
0
 62
7
  6
CONTINUOUS
 10
158.5924918074
 20
31.3681288486
 11
158.6503040869
 21
31.2068093799
 12
158.361242028
 22
31.2068093799
 13
158.361242028
 23
31.2068093799
  0
SOLID
  8
0
 62
7
  6
CONTINUOUS
 10
157.6096790869
 20
31.4649199103
 11
157.4362415869
 21
31.4003926599
 12
157.320617028
 22
31.4649199103
 13
157.320617028
 23
31.4649199103
  0
SOLID
  8
0
 62
7
  6
CONTINUOUS
 10
157.4362415869
 20
31.4003926599
 11
157.320617028
 21
31.3358640533
 12
157.320617028
 22
31.4649199103
 13
157.320617028
 23
31.4649199103
  0
SOLID
  8
0
 62
7
  6
CONTINUOUS
 10
157.320617028
 20
31.3358640533
 11
157.0315543074
 21
30.5938003547
 12
157.320617028
 22
31.4649199103
 13
157.320617028
 23
31.4649199103
  0
SOLID
  8
0
 62
7
  6
CONTINUOUS
 10
157.320617028
 20
31.4649199103
 11
157.0315543074
 21
30.5938003547
 12
157.320617028
 22
31.6262383465
 13
157.320617028
 23
31.6262383465
  0
SOLID
  8
0
 62
7
  6
CONTINUOUS
 10
157.0315543074
 20
30.5938003547
 11
157.0315543074
 21
31.6262383465
 12
157.320617028
 22
31.6262383465
 13
157.320617028
 23
31.6262383465
  0
SOLID
  8
0
 62
7
  6
CONTINUOUS
 10
157.320617028
 20
31.3358640533
 11
157.320617028
 21
30.5938003547
 12
157.0315543074
 22
30.5938003547
 13
157.0315543074
 23
30.5938003547
  0
SOLID
  8
0
 62
7
  6
CONTINUOUS
 10
158.361242028
 20
30.5938003547
 11
158.361242028
 21
31.2068093799
 12
158.6503040869
 22
31.2068093799
 13
158.6503040869
 23
31.2068093799
  0
SOLID
  8
0
 62
7
  6
CONTINUOUS
 10
158.6503040869
 20
31.2068093799
 11
158.6503040869
 21
30.5938003547
 12
158.361242028
 22
30.5938003547
 13
158.361242028
 23
30.5938003547
  0
SOLID
  8
0
 62
7
  6
CONTINUOUS
 10
159.4596793074
 20
31.5939739474
 11
159.8065543074
 21
31.6262381969
 12
160.1534293074
 22
31.6262381969
 13
160.1534293074
 23
31.6262381969
  0
SOLID
  8
0
 62
7
  6
CONTINUOUS
 10
160.1534293074
 20
31.6262381969
 11
160.5003043074
 21
31.5939739474
 12
159.4596793074
 22
31.5939739474
 13
159.4596793074
 23
31.5939739474
  0
SOLID
  8
0
 62
7
  6
CONTINUOUS
 10
159.228429528
 20
31.5294468402
 11
159.4596793074
 21
31.5939739474
 12
160.5003043074
 22
31.5939739474
 13
160.5003043074
 23
31.5939739474
  0
SOLID
  8
0
 62
7
  6
CONTINUOUS
 10
159.228429528
 20
31.5294468402
 11
160.5003043074
 21
31.5939739304
 12
160.6737418074
 22
31.5617111435
 13
160.6737418074
 23
31.5617111435
  0
SOLID
  8
0
 62
7
  6
CONTINUOUS
 10
159.228429528
 20
31.5294468402
 11
160.6737418074
 21
31.5617111435
 12
159.8065543074
 22
31.4971825592
 13
159.8065543074
 23
31.4971825592
  0
SOLID
  8
0
 62
7
  6
CONTINUOUS
 10
159.8065543074
 20
31.4971825592
 11
160.6737418074
 21
31.5617111435
 12
160.1534293074
 22
31.4971825592
 13
160.1534293074
 23
31.4971825592
  0
SOLID
  8
0
 62
7
  6
CONTINUOUS
 10
160.6737418074
 20
31.5617111435
 11
160.8471793074
 21
31.4971825592
 12
160.1534293074
 22
31.4971825592
 13
160.1534293074
 23
31.4971825592
  0
SOLID
  8
0
 62
7
  6
CONTINUOUS
 10
160.5003043074
 20
31.4649197501
 11
160.1534293074
 21
31.4971825592
 12
160.8471793074
 22
31.4971825592
 13
160.8471793074
 23
31.4971825592
  0
SOLID
  8
0
 62
7
  6
CONTINUOUS
 10
159.1128043074
 20
31.4326555427
 11
159.228429528
 21
31.5294468402
 12
159.8065543074
 22
31.4971825592
 13
159.8065543074
 23
31.4971825592
  0
SOLID
  8
0
 62
7
  6
CONTINUOUS
 10
160.5003043074
 20
31.4649197501
 11
160.8471793074
 21
31.4971825592
 12
160.615929528
 22
31.4326555427
 13
160.615929528
 23
31.4326555427
  0
SOLID
  8
0
 62
7
  6
CONTINUOUS
 10
160.615929528
 20
31.4326555427
 11
160.8471793074
 21
31.4971825592
 12
160.6737418074
 22
31.3681283005
 13
160.6737418074
 23
31.3681283005
  0
SOLID
  8
0
 62
7
  6
CONTINUOUS
 10
160.8471793074
 20
31.4971825592
 11
160.9628038663
 21
31.3681283005
 12
160.6737418074
 22
31.3681283005
 13
160.6737418074
 23
31.3681283005
  0
SOLID
  8
0
 62
7
  6
CONTINUOUS
 10
150.2674918074
 20
31.4649197501
 11
149.7471793074
 21
31.4326554237
 12
150.498741835
 22
31.4971824493
 13
150.498741835
 23
31.4971824493
  0
SOLID
  8
0
 62
7
  6
CONTINUOUS
 10
149.7471793074
 20
31.4326554237
 11
149.8628043005
 21
31.4971824493
 12
150.498741835
 22
31.4971824493
 13
150.498741835
 23
31.4971824493
  0
SOLID
  8
0
 62
7
  6
CONTINUOUS
 10
150.2674918074
 20
31.4649197501
 11
150.1518667936
 21
31.4326554237
 12
149.7471793074
 22
31.4326554237
 13
149.7471793074
 23
31.4326554237
  0
SOLID
  8
0
 62
7
  6
CONTINUOUS
 10
149.6315543091
 20
31.3036012664
 11
149.7471793074
 21
31.4326554237
 12
150.1518667936
 22
31.4326554237
 13
150.1518667936
 23
31.4326554237
  0
SOLID
  8
0
 62
7
  6
CONTINUOUS
 10
153.9674919177
 20
31.4326554237
 11
154.6612419177
 21
31.4971825369
 12
154.4299918074
 22
31.4649197501
 13
154.4299918074
 23
31.4649197501
  0
SOLID
  8
0
 62
7
  6
CONTINUOUS
 10
154.4299918074
 20
31.4649197501
 11
154.3143669177
 21
31.4326554237
 12
153.9674919177
 22
31.4326554237
 13
153.9674919177
 23
31.4326554237
  0
SOLID
  8
0
 62
7
  6
CONTINUOUS
 10
153.9674919177
 20
31.3681283335
 11
153.9674919177
 21
31.4326554237
 12
154.3143669177
 22
31.4326554237
 13
154.3143669177
 23
31.4326554237
  0
SOLID
  8
0
 62
7
  6
CONTINUOUS
 10
154.3143669177
 20
31.4326554237
 11
154.2565543074
 21
31.3681283335
 12
153.9674919177
 22
31.3681283335
 13
153.9674919177
 23
31.3681283335
  0
SOLID
  8
0
 62
7
  6
CONTINUOUS
 10
159.1128043074
 20
31.4326555528
 11
159.8065543074
 21
31.4971825369
 12
159.575304528
 22
31.4649197501
 13
159.575304528
 23
31.4649197501
  0
SOLID
  8
0
 62
7
  6
CONTINUOUS
 10
159.575304528
 20
31.4649197501
 11
159.4596793074
 21
31.4326555528
 12
159.1128043074
 22
31.4326555528
 13
159.1128043074
 23
31.4326555528
  0
SOLID
  8
0
 62
7
  6
CONTINUOUS
 10
159.1128043074
 20
31.3681284626
 11
159.1128043074
 21
31.4326555528
 12
159.4596793074
 22
31.4326555528
 13
159.4596793074
 23
31.4326555528
  0
SOLID
  8
0
 62
7
  6
CONTINUOUS
 10
159.4596793074
 20
31.4326555528
 11
159.401867028
 21
31.3681284626
 12
159.1128043074
 22
31.3681284626
 13
159.1128043074
 23
31.3681284626
  0
SOLID
  8
0
 62
7
  6
CONTINUOUS
 10
159.228429528
 20
31.2390741763
 11
159.1128043074
 21
31.3681284626
 12
159.401867028
 22
31.3681284626
 13
159.401867028
 23
31.3681284626
  0
SOLID
  8
0
 62
7
  6
CONTINUOUS
 10
149.6315543091
 20
31.3036012664
 11
150.1518667936
 21
31.4326554468
 12
149.9784292936
 22
31.3358640533
 13
149.9784292936
 23
31.3358640533
  0
SOLID
  8
0
 62
7
  6
CONTINUOUS
 10
149.9784292936
 20
31.3358640533
 11
149.9206168074
 21
31.2713369632
 12
149.6315543091
 22
31.3036012664
 13
149.6315543091
 23
31.3036012664
  0
SOLID
  8
0
 62
7
  6
CONTINUOUS
 10
149.5737418074
 20
31.1100184796
 11
149.6315543091
 21
31.3036012664
 12
149.9206168074
 22
31.2713369632
 13
149.9206168074
 23
31.2713369632
  0
SOLID
  8
0
 62
7
  6
CONTINUOUS
 10
154.4299918074
 20
31.2390741763
 11
154.7768668074
 21
31.271336924
 12
155.412804528
 22
31.271336924
 13
155.412804528
 23
31.271336924
  0
SOLID
  8
0
 62
7
  6
CONTINUOUS
 10
154.4299918074
 20
31.2390741763
 11
155.412804528
 21
31.271336924
 12
154.1987416972
 22
31.1745462761
 13
154.1987416972
 23
31.1745462761
  0
SOLID
  8
0
 62
7
  6
CONTINUOUS
 10
154.1987416972
 20
31.1745462761
 11
155.412804528
 21
31.271336924
 12
154.7768668074
 22
31.1422827436
 13
154.7768668074
 23
31.1422827436
  0
SOLID
  8
0
 62
7
  6
CONTINUOUS
 10
155.412804528
 20
31.271336924
 11
155.412804528
 21
31.1422827436
 12
154.7768668074
 22
31.1422827436
 13
154.7768668074
 23
31.1422827436
  0
SOLID
  8
0
 62
7
  6
CONTINUOUS
 10
159.228429528
 20
31.2390745501
 11
159.401867028
 21
31.3681283566
 12
159.4596793074
 22
31.3036012664
 13
159.4596793074
 23
31.3036012664
  0
SOLID
  8
0
 62
7
  6
CONTINUOUS
 10
159.4596793074
 20
31.3036012664
 11
159.6331168074
 21
31.2390745501
 12
159.228429528
 22
31.2390745501
 13
159.228429528
 23
31.2390745501
  0
SOLID
  8
0
 62
7
  6
CONTINUOUS
 10
159.4596793074
 20
31.1422827828
 11
159.228429528
 21
31.2390745501
 12
159.6331168074
 22
31.2390745501
 13
159.6331168074
 23
31.2390745501
  0
SOLID
  8
0
 62
7
  6
CONTINUOUS
 10
159.6331168074
 20
31.2390745501
 11
160.615929528
 21
31.0777556927
 12
159.4596793074
 22
31.1422827828
 13
159.4596793074
 23
31.1422827828
  0
SOLID
  8
0
 62
7
  6
CONTINUOUS
 10
160.442492028
 20
30.9809646623
 11
159.4596793074
 21
31.1422827828
 12
160.615929528
 22
31.0777556927
 13
160.615929528
 23
31.0777556927
  0
SOLID
  8
0
 62
7
  6
CONTINUOUS
 10
160.615929528
 20
31.0777556927
 11
160.8471793074
 21
30.9809646623
 12
160.442492028
 22
30.9809646623
 13
160.442492028
 23
30.9809646623
  0
SOLID
  8
0
 62
7
  6
CONTINUOUS
 10
160.615929528
 20
30.9164372091
 11
160.442492028
 21
30.9809646623
 12
160.8471793074
 22
30.9809646623
 13
160.8471793074
 23
30.9809646623
  0
SOLID
  8
0
 62
7
  6
CONTINUOUS
 10
160.615929528
 20
30.9164372091
 11
160.8471793074
 21
30.9809646623
 12
160.6737418074
 22
30.8519089441
 13
160.6737418074
 23
30.8519089441
  0
SOLID
  8
0
 62
7
  6
CONTINUOUS
 10
160.8471793074
 20
30.9809646623
 11
160.9628038663
 21
30.8519089441
 12
160.6737418074
 22
30.8519089441
 13
160.6737418074
 23
30.8519089441
  0
SOLID
  8
0
 62
7
  6
CONTINUOUS
 10
160.615929528
 20
30.7873818593
 11
160.6737418074
 21
30.8519089441
 12
160.9628038663
 22
30.8519089441
 13
160.9628038663
 23
30.8519089441
  0
SOLID
  8
0
 62
7
  6
CONTINUOUS
 10
160.9628038663
 20
30.8519089441
 11
160.9628038663
 21
30.7873818593
 12
160.615929528
 22
30.7873818593
 13
160.615929528
 23
30.7873818593
  0
SOLID
  8
0
 62
7
  6
CONTINUOUS
 10
160.5003043074
 20
30.7551187255
 11
160.615929528
 21
30.7873818593
 12
160.9628038663
 22
30.7873818593
 13
160.9628038663
 23
30.7873818593
  0
SOLID
  8
0
 62
7
  6
CONTINUOUS
 10
160.5003043074
 20
30.7551187255
 11
160.9628038663
 21
30.7873818593
 12
160.269054528
 22
30.7228547745
 13
160.269054528
 23
30.7228547745
  0
SOLID
  8
0
 62
7
  6
CONTINUOUS
 10
160.9628038663
 20
30.7873818593
 11
160.8471793074
 21
30.6905916353
 12
160.269054528
 22
30.7228547745
 13
160.269054528
 23
30.7228547745
  0
SOLID
  8
0
 62
7
  6
CONTINUOUS
 10
160.8471793074
 20
30.6905916353
 11
159.401867028
 21
30.658327332
 12
160.269054528
 22
30.7228547745
 13
160.269054528
 23
30.7228547745
  0
SOLID
  8
0
 62
7
  6
CONTINUOUS
 10
160.269054528
 20
30.7228547745
 11
159.401867028
 21
30.658327332
 12
159.922179528
 22
30.7228547745
 13
159.922179528
 23
30.7228547745
  0
SOLID
  8
0
 62
7
  6
CONTINUOUS
 10
159.401867028
 20
30.658327332
 11
159.228429528
 21
30.7228547745
 12
159.922179528
 22
30.7228547745
 13
159.922179528
 23
30.7228547745
  0
SOLID
  8
0
 62
7
  6
CONTINUOUS
 10
159.401867028
 20
30.658327332
 11
160.8471793074
 21
30.6905916353
 12
159.575304528
 22
30.6260629858
 13
159.575304528
 23
30.6260629858
  0
SOLID
  8
0
 62
7
  6
CONTINUOUS
 10
160.8471793074
 20
30.6905916353
 11
160.615929528
 21
30.6260629858
 12
159.575304528
 22
30.6260629858
 13
159.575304528
 23
30.6260629858
  0
SOLID
  8
0
 62
7
  6
CONTINUOUS
 10
159.922179528
 20
30.5938006049
 11
159.575304528
 21
30.6260629858
 12
160.615929528
 22
30.6260629858
 13
160.615929528
 23
30.6260629858
  0
SOLID
  8
0
 62
7
  6
CONTINUOUS
 10
160.615929528
 20
30.6260629858
 11
160.269054528
 21
30.5938006049
 12
159.922179528
 22
30.5938006049
 13
159.922179528
 23
30.5938006049
  0
SOLID
  8
0
 62
7
  6
CONTINUOUS
 10
149.5737418074
 20
31.1100184796
 11
149.9206168074
 21
31.2713369632
 12
149.8628043005
 22
31.1422827828
 13
149.8628043005
 23
31.1422827828
  0
SOLID
  8
0
 62
7
  6
CONTINUOUS
 10
149.8628043005
 20
31.1422827828
 11
149.8628043005
 21
31.0454914852
 12
149.5737418074
 22
31.1100184796
 13
149.5737418074
 23
31.1100184796
  0
SOLID
  8
0
 62
7
  6
CONTINUOUS
 10
149.6315543091
 20
30.9164372091
 11
149.5737418074
 21
31.1100184796
 12
149.8628043005
 22
31.0454914852
 13
149.8628043005
 23
31.0454914852
  0
SOLID
  8
0
 62
7
  6
CONTINUOUS
 10
149.8628043005
 20
31.0454914852
 11
149.9784292936
 21
30.8841729058
 12
149.6315543091
 22
30.9164372091
 13
149.6315543091
 23
30.9164372091
  0
SOLID
  8
0
 62
7
  6
CONTINUOUS
 10
149.7471793074
 20
30.7873813202
 11
149.6315543091
 21
30.9164372091
 12
149.9784292936
 22
30.8841729058
 13
149.9784292936
 23
30.8841729058
  0
SOLID
  8
0
 62
7
  6
CONTINUOUS
 10
149.9784292936
 20
30.8841729058
 11
150.1518667936
 21
30.7873813202
 12
149.7471793074
 22
30.7873813202
 13
149.7471793074
 23
30.7873813202
  0
SOLID
  8
0
 62
7
  6
CONTINUOUS
 10
149.8628043005
 20
30.7228547004
 11
149.7471793074
 21
30.7873813202
 12
150.1518667936
 22
30.7873813202
 13
150.1518667936
 23
30.7873813202
  0
SOLID
  8
0
 62
7
  6
CONTINUOUS
 10
150.1518667936
 20
30.7873813202
 11
150.498741835
 21
30.7228547004
 12
149.8628043005
 22
30.7228547004
 13
149.8628043005
 23
30.7228547004
  0
SOLID
  8
0
 62
7
  6
CONTINUOUS
 10
150.0362418212
 20
30.658327332
 11
149.8628043005
 21
30.7228547004
 12
150.498741835
 22
30.7228547004
 13
150.498741835
 23
30.7228547004
  0
SOLID
  8
0
 62
7
  6
CONTINUOUS
 10
154.0831168074
 20
31.1100184386
 11
154.1987416972
 21
31.1745462761
 12
154.7768668074
 22
31.1422827828
 13
154.7768668074
 23
31.1422827828
  0
SOLID
  8
0
 62
7
  6
CONTINUOUS
 10
154.7768668074
 20
31.1422827828
 11
154.5456166972
 21
31.1100184386
 12
154.0831168074
 22
31.1100184386
 13
154.0831168074
 23
31.1100184386
  0
SOLID
  8
0
 62
7
  6
CONTINUOUS
 10
153.9674919177
 20
30.9809642992
 11
154.0831168074
 21
31.1100184386
 12
154.5456166972
 22
31.1100184386
 13
154.5456166972
 23
31.1100184386
  0
SOLID
  8
0
 62
7
  6
CONTINUOUS
 10
154.3143669177
 20
31.0132277988
 11
153.9674919177
 21
30.9809642992
 12
154.4299918074
 22
31.0777556927
 13
154.4299918074
 23
31.0777556927
  0
SOLID
  8
0
 62
7
  6
CONTINUOUS
 10
153.9674919177
 20
30.9809642992
 11
154.5456166972
 21
31.1100184796
 12
154.4299918074
 22
31.0777556927
 13
154.4299918074
 23
31.0777556927
  0
SOLID
  8
0
 62
7
  6
CONTINUOUS
 10
154.3143669177
 20
31.0132277988
 11
154.2565543074
 21
30.9164372091
 12
153.9674919177
 22
30.9809642992
 13
153.9674919177
 23
30.9809642992
  0
SOLID
  8
0
 62
7
  6
CONTINUOUS
 10
153.9674919177
 20
30.8841729058
 11
153.9674919177
 21
30.9809642992
 12
154.2565543074
 22
30.9164372091
 13
154.2565543074
 23
30.9164372091
  0
SOLID
  8
0
 62
7
  6
CONTINUOUS
 10
154.2565543074
 20
30.9164372091
 11
154.2565543074
 21
30.8519086025
 12
153.9674919177
 22
30.8841729058
 13
153.9674919177
 23
30.8841729058
  0
SOLID
  8
0
 62
7
  6
CONTINUOUS
 10
154.0253041972
 20
30.7551187255
 11
153.9674919177
 21
30.8841729058
 12
154.2565543074
 22
30.8519086025
 13
154.2565543074
 23
30.8519086025
  0
SOLID
  8
0
 62
7
  6
CONTINUOUS
 10
155.412804528
 20
30.9487004259
 11
155.7018665869
 21
30.8519086025
 12
155.3549915869
 22
30.8841729058
 13
155.3549915869
 23
30.8841729058
  0
SOLID
  8
0
 62
7
  6
CONTINUOUS
 10
155.1815540869
 20
30.7873815123
 11
155.3549915869
 21
30.8841729058
 12
155.7018665869
 22
30.8519086025
 13
155.7018665869
 23
30.8519086025
  0
SOLID
  8
0
 62
7
  6
CONTINUOUS
 10
155.1815540869
 20
30.7873815123
 11
155.7018665869
 21
30.8519086025
 12
155.412804528
 22
30.7551187255
 13
155.412804528
 23
30.7551187255
  0
SOLID
  8
0
 62
7
  6
CONTINUOUS
 10
155.7018665869
 20
30.8519086025
 11
155.759679528
 21
30.6905916353
 12
155.412804528
 22
30.7551187255
 13
155.412804528
 23
30.7551187255
  0
SOLID
  8
0
 62
7
  6
CONTINUOUS
 10
155.4706168074
 20
30.658327332
 11
155.412804528
 21
30.7551187255
 12
155.759679528
 22
30.6905916353
 13
155.759679528
 23
30.6905916353
  0
SOLID
  8
0
 62
7
  6
CONTINUOUS
 10
155.4706168074
 20
30.658327332
 11
155.759679528
 21
30.6905916353
 12
155.5284290869
 22
30.5938002079
 13
155.5284290869
 23
30.5938002079
  0
SOLID
  8
0
 62
7
  6
CONTINUOUS
 10
155.759679528
 20
30.6905916353
 11
155.8174918074
 21
30.5938002079
 12
155.5284290869
 22
30.5938002079
 13
155.5284290869
 23
30.5938002079
  0
SOLID
  8
0
 62
7
  6
CONTINUOUS
 10
151.0768668626
 20
30.8196456577
 11
151.1346793074
 21
30.9164373395
 12
151.4237418626
 22
30.9164373395
 13
151.4237418626
 23
30.9164373395
  0
SOLID
  8
0
 62
7
  6
CONTINUOUS
 10
151.4237418626
 20
30.9164373395
 11
151.3659292523
 21
30.7873815123
 12
151.0768668626
 22
30.8196456577
 13
151.0768668626
 23
30.8196456577
  0
SOLID
  8
0
 62
7
  6
CONTINUOUS
 10
150.9034292799
 20
30.7551187255
 11
151.0768668626
 21
30.8196456577
 12
151.3659292523
 22
30.7873815123
 13
151.3659292523
 23
30.7873815123
  0
SOLID
  8
0
 62
7
  6
CONTINUOUS
 10
150.9034292799
 20
30.7551187255
 11
151.3659292523
 21
30.7873815123
 12
150.498741835
 22
30.7228544222
 13
150.498741835
 23
30.7228544222
  0
SOLID
  8
0
 62
7
  6
CONTINUOUS
 10
151.3659292523
 20
30.7873815123
 11
151.1924917523
 21
30.6905916353
 12
150.498741835
 22
30.7228544222
 13
150.498741835
 23
30.7228544222
  0
SOLID
  8
0
 62
7
  6
CONTINUOUS
 10
150.0362418212
 20
30.658327332
 11
150.498741835
 21
30.7228544222
 12
151.1924917523
 22
30.6905916353
 13
151.1924917523
 23
30.6905916353
  0
SOLID
  8
0
 62
7
  6
CONTINUOUS
 10
150.0362418212
 20
30.658327332
 11
151.1924917523
 21
30.6905916353
 12
150.2096793212
 22
30.6260631011
 13
150.2096793212
 23
30.6260631011
  0
SOLID
  8
0
 62
7
  6
CONTINUOUS
 10
151.1924917523
 20
30.6905916353
 11
150.9612418074
 21
30.6260631011
 12
150.2096793212
 22
30.6260631011
 13
150.2096793212
 23
30.6260631011
  0
SOLID
  8
0
 62
7
  6
CONTINUOUS
 10
150.5565542799
 20
30.5938002419
 11
150.2096793212
 21
30.6260631011
 12
150.9612418074
 22
30.6260631011
 13
150.9612418074
 23
30.6260631011
  0
SOLID
  8
0
 62
7
  6
CONTINUOUS
 10
154.0253041972
 20
30.7551187255
 11
154.2565543074
 21
30.8519086025
 12
154.3143669177
 22
30.7873815123
 13
154.3143669177
 23
30.7873815123
  0
SOLID
  8
0
 62
7
  6
CONTINUOUS
 10
154.3143669177
 20
30.7873815123
 11
154.5456166972
 21
30.7228544222
 12
154.0253041972
 22
30.7551187255
 13
154.0253041972
 23
30.7551187255
  0
SOLID
  8
0
 62
7
  6
CONTINUOUS
 10
154.1987416972
 20
30.658327332
 11
154.0253041972
 21
30.7551187255
 12
154.5456166972
 22
30.7228544222
 13
154.5456166972
 23
30.7228544222
  0
SOLID
  8
0
 62
7
  6
CONTINUOUS
 10
154.8924916972
 20
30.7228544637
 11
155.1815540869
 21
30.7873815123
 12
155.412804528
 22
30.7551187255
 13
155.412804528
 23
30.7551187255
  0
SOLID
  8
0
 62
7
  6
CONTINUOUS
 10
155.412804528
 20
30.7551187255
 11
155.3549915869
 21
30.6905916353
 12
154.8924916972
 22
30.7228544637
 13
154.8924916972
 23
30.7228544637
  0
SOLID
  8
0
 62
7
  6
CONTINUOUS
 10
155.3549915869
 20
30.6905916353
 11
154.1987416972
 21
30.658327332
 12
154.8924916972
 22
30.7228544637
 13
154.8924916972
 23
30.7228544637
  0
SOLID
  8
0
 62
7
  6
CONTINUOUS
 10
154.1987416972
 20
30.658327332
 11
154.5456166972
 21
30.7228544637
 12
154.8924916972
 22
30.7228544637
 13
154.8924916972
 23
30.7228544637
  0
SOLID
  8
0
 62
7
  6
CONTINUOUS
 10
154.1987416972
 20
30.658327332
 11
155.3549915869
 21
30.6905916353
 12
154.3143669177
 22
30.6260630541
 13
154.3143669177
 23
30.6260630541
  0
SOLID
  8
0
 62
7
  6
CONTINUOUS
 10
155.3549915869
 20
30.6905916353
 11
155.1815540869
 21
30.6260630541
 12
154.3143669177
 22
30.6260630541
 13
154.3143669177
 23
30.6260630541
  0
SOLID
  8
0
 62
7
  6
CONTINUOUS
 10
154.5456166972
 20
30.5938002188
 11
154.3143669177
 21
30.6260630541
 12
155.1815540869
 22
30.6260630541
 13
155.1815540869
 23
30.6260630541
  0
SOLID
  8
0
 62
7
  6
CONTINUOUS
 10
155.1815540869
 20
30.6260630541
 11
154.8924916972
 21
30.5938002188
 12
154.5456166972
 22
30.5938002188
 13
154.5456166972
 23
30.5938002188
  0
SOLID
  8
0
 62
7
  6
CONTINUOUS
 10
159.575304528
 20
30.7551187255
 11
159.228429528
 21
30.7228544637
 12
159.4596793074
 22
30.7873815123
 13
159.4596793074
 23
30.7873815123
  0
SOLID
  8
0
 62
7
  6
CONTINUOUS
 10
159.4596793074
 20
30.7873815123
 11
159.228429528
 21
30.7228544637
 12
159.401867028
 22
30.851908644
 13
159.401867028
 23
30.851908644
  0
SOLID
  8
0
 62
7
  6
CONTINUOUS
 10
159.228429528
 20
30.7228544637
 11
159.1128043074
 21
30.851908644
 12
159.401867028
 22
30.851908644
 13
159.401867028
 23
30.851908644
  0
SOLID
  8
0
 62
7
  6
CONTINUOUS
 10
159.575304528
 20
30.7551187255
 11
159.922179528
 21
30.7228544637
 12
159.228429528
 22
30.7228544637
 13
159.228429528
 23
30.7228544637
  0
SOLID
  8
0
 62
7
  6
CONTINUOUS
 10
156.279992028
 20
30.5938002419
 11
156.279992028
 21
31.6262382337
 12
156.5690540869
 22
30.5938002419
 13
156.5690540869
 23
31.6262382337
  0
ENDBLK
  8
0
  6
BYBLOCK
 62
0
  0
BLOCK
  8
0
 62
2
  6
CONTINUOUS
  2
SYMBOL_3_BL0
 70
64
 10
32.1213064866
 20
19.8534310916
  0
TEXT
  8
0
 62
7
  6
CONTINUOUS
 10
18.3860103289
 20
19.2268451992
  7
TEXTSTYLE_3
 40
2.7338706658
  1
Ammeraal Beltech
 41
1.0
 51
15.0
 72
0
  0
TEXT
  8
0
 62
7
  6
CONTINUOUS
 10
29.1868111546
 20
16.9533085264
  7
TEXTSTYLE_4
 40
1.0935482663
  1
Innovation & Service in Belting
 41
1.0
 72
0
  0
LINE
  8
0
 62
7
  6
CONTINUOUS
 10
12.3614696776
 20
19.9934385078
 11
13.1396216709
 21
23.6543558055
  0
LINE
  8
0
 62
7
  6
CONTINUOUS
 10
23.2347899607
 20
27.3177497171
 11
13.6274394139
 21
24.1961322958
  0
LINE
  8
0
 62
7
  6
CONTINUOUS
 10
12.5867530099
 20
19.3000877048
 11
20.093828271
 21
12.5406867788
  0
LINE
  8
0
 62
7
  6
CONTINUOUS
 10
12.8492874206
 20
20.5352149982
 11
23.6575567857
 21
24.0470345971
  0
LINE
  8
0
 62
7
  6
CONTINUOUS
 10
23.6533516486
 20
13.6972460334
 11
15.2078919798
 21
21.3015720751
  0
LINE
  8
0
 62
7
  6
CONTINUOUS
 10
24.1731743684
 20
26.4728246013
 11
23.1966148312
 21
21.8784731989
  0
LINE
  8
0
 62
7
  6
CONTINUOUS
 10
22.4968128835
 20
18.5861638851
 11
21.810364672
 21
15.3566789607
  0
LINE
  8
0
 62
7
  6
CONTINUOUS
 10
24.8542704669
 20
14.087448211
 11
25.8105020025
 21
18.5861638851
  0
LINE
  8
0
 62
7
  6
CONTINUOUS
 10
26.5103039502
 20
21.8784731989
 11
26.9545457526
 21
23.9684665583
  0
LINE
  8
0
 62
7
  6
CONTINUOUS
 10
20.8069293463
 20
12.3891124661
 11
24.3664527239
 21
13.5456717207
  0
LINE
  8
0
 62
7
  6
CONTINUOUS
 10
23.9478910361
 20
27.1661754044
 11
26.7292624203
 21
24.6618173613
  0
ARC
  8
0
 62
7
  6
CONTINUOUS
 10
13.8527227462
 20
23.5027814928
 40
0.7290321776
 50
108.0
 51
168.0
  0
ARC
  8
0
 62
7
  6
CONTINUOUS
 10
23.4600732931
 20
26.624398914
 40
0.7290321776
 50
348.0
 51
108.0
  0
ARC
  8
0
 62
7
  6
CONTINUOUS
 10
26.2414446773
 20
24.120040871
 40
0.7290321776
 50
348.0
 51
48.0
  0
ARC
  8
0
 62
7
  6
CONTINUOUS
 10
20.581646014
 20
13.0824632691
 40
0.7290321776
 50
228.0
 51
288.0
  0
ARC
  8
0
 62
7
  6
CONTINUOUS
 10
13.0745707529
 20
19.8418641951
 40
0.7290321776
 50
108.0
 51
228.0
  0
ARC
  8
0
 62
7
  6
CONTINUOUS
 10
24.1411693916
 20
14.2390225237
 40
0.7290321776
 50
228.0
 51
348.0
  0
ENDBLK
  8
0
  6
BYBLOCK
 62
0
  0
ENDSEC
  0
SECTION
  2
ENTITIES
  0
TEXT
  8
0
 62
5
  6
CONTINUOUS
 10
96.0
 20
25.636
  7
TEXTSTYLE_2
 40
2.8
  1
Scale :
 41
0.6
 51
0.000019
 72
0
  0
TEXT
  8
0
 62
5
  6
CONTINUOUS
 10
116.0
 20
25.636
  7
TEXTSTYLE_2
 40
2.8
  1
Belt type:
 41
0.6
 51
0.000019
 72
0
  0
INSERT
  8
0
 62
2
  6
CONTINUOUS
  2
SYMBOL_3_BL0
 10
32.1213064866
 20
19.8534310916
  0
INSERT
  8
0
 62
2
  6
CONTINUOUS
  2
SYMBOL_8_BL1
 10
173.5956734183
 20
35.5937998301
  0
LINE
  8
0
 62
2
  6
CONTINUOUS
 10
10.0
 20
30.0
 11
200.0
 21
30.0
  0
LINE
  8
0
 62
2
  6
CONTINUOUS
 10
10.0
 20
30.0
 11
10.0
 21
10.0
  0
LINE
  8
0
 62
2
  6
CONTINUOUS
 10
10.0
 20
10.0
 11
200.0
 21
10.0
  0
LINE
  8
0
 62
2
  6
CONTINUOUS
 10
95.0
 20
30.0
 11
95.0
 21
10.0
  0
LINE
  8
0
 62
2
  6
CONTINUOUS
 10
115.0
 20
30.0
 11
115.0
 21
10.0
  0
LINE
  8
0
 62
2
  6
CONTINUOUS
 10
200.0
 20
30.0
 11
200.0
 21
10.0
  0
TEXT
  8
0
 62
5
  6
CONTINUOUS
 10
13.0
 20
23.303
  7
TEXTSTYLE_5
 40
1.52
  1
                                                                     Ammeraal Beltech Modular A/S
 41
1.0
 72
0
  0
TEXT
  8
0
 62
5
  6
CONTINUOUS
 10
13.0
 20
20.595
  7
TEXTSTYLE_5
 40
1.5
  1
                                                                      Hjulmagervej 21,  7100 Vejle,  DK
 41
1.0
 72
0
  0
TEXT
  8
0
 62
5
  6
CONTINUOUS
 10
13.0
 20
17.881
  7
TEXTSTYLE_5
 40
1.495
  1
                                                                      tel: 
 41
1.0
 72
0
  0
TEXT
  8
0
 62
5
  6
CONTINUOUS
 10
57.9869465649
 20
17.881
  7
TEXTSTYLE_5
 40
1.51
  1
+45 75723100     fax: +45 75723348
 41
1.0
 72
0
  0
TEXT
  8
0
 62
5
  6
CONTINUOUS
 10
13.0
 20
15.177
  7
TEXTSTYLE_5
 40
1.5
  1
                                                                      admin@unichains.dk  www.unichains.com
 41
1.0
 72
0
  0
TEXT
  8
0
 62
5
  6
CONTINUOUS
 10
99.75
 20
13.75
  7
TEXTSTYLE_6
 40
5.0
  1
1:1
 41
0.7
 72
1
 11
105.0
 21
13.75
  0
TEXT
  8
0
 62
5
  6
CONTINUOUS
 10
118.0
 20
13.75
  7
TEXTSTYLE_7
 40
7.5
  1
uni S-MPB C K600
 41
0.6079427083
 72
0
  0
LINE
  8
0
 62
7
  6
CONTINUOUS
 10
210.0
 20
0.0
 11
0.0
 21
0.0
  0
LINE
  8
0
 62
7
  6
CONTINUOUS
 10
10.0
 20
10.0
 11
200.0
 21
10.0
  0
LINE
  8
0
 62
7
  6
CONTINUOUS
 10
10.0
 20
30.0
 11
200.0
 21
30.0
  0
LINE
  8
0
 62
7
  6
CONTINUOUS
 10
0.0
 20
0.0
 11
0.0
 21
297.0
  0
LINE
  8
0
 62
7
  6
CONTINUOUS
 10
10.0
 20
10.0
 11
10.0
 21
287.0
  0
LINE
  8
0
 62
7
  6
CONTINUOUS
 10
200.0
 20
287.0
 11
200.0
 21
10.0
  0
LINE
  8
0
 62
7
  6
CONTINUOUS
 10
210.0
 20
0.0
 11
210.0
 21
297.0
  0
LINE
  8
0
 62
7
  6
CONTINUOUS
 10
10.0
 20
287.0
 11
200.0
 21
287.0
  0
LINE
  8
0
 62
7
  6
CONTINUOUS
 10
0.0
 20
297.0
 11
210.0
 21
297.0
  0
LINE
  8
SURFACE
 62
7
  6
CONTINUOUS
 10
29.4310820256
 20
193.7984515697
 11
29.0861588232
 21
197.7409418135
  0
LINE
  8
SURFACE
 62
7
  6
CONTINUOUS
 10
15.2049455496
 20
193.8856073124
 11
15.2049455496
 21
202.8356073124
  0
LINE
  8
SURFACE
 62
7
  6
CONTINUOUS
 10
20.0357322761
 20
197.7409418133
 11
19.6908090737
 21
193.7984515697
  0
LINE
  8
SURFACE
 62
7
  6
CONTINUOUS
 10
21.2765902689
 20
202.7739244755
 11
20.117067946
 21
198.2196817852
  0
POLYLINE
  8
SURFACE
 62
7
  6
CONTINUOUS
 66
1
 70
0
  0
VERTEX
  8
SURFACE
 62
7
  6
CONTINUOUS
 10
20.272100046
 20
198.8285996605
  0
VERTEX
  8
SURFACE
 62
7
  6
CONTINUOUS
 10
20.283209111
 20
198.8666481224
  0
VERTEX
  8
SURFACE
 62
7
  6
CONTINUOUS
 10
20.3039459299
 20
198.9202086436
  0
VERTEX
  8
SURFACE
 62
7
  6
CONTINUOUS
 10
20.3263568513
 20
198.9646563359
  0
VERTEX
  8
SURFACE
 62
7
  6
CONTINUOUS
 10
20.3477294594
 20
198.9990167165
  0
VERTEX
  8
SURFACE
 62
7
  6
CONTINUOUS
 10
20.3663939616
 20
199.0241928077
  0
VERTEX
  8
SURFACE
 62
7
  6
CONTINUOUS
 10
20.381327568
 20
199.0415038303
  0
VERTEX
  8
SURFACE
 62
7
  6
CONTINUOUS
 10
20.3917849588
 20
199.0521023812
  0
VERTEX
  8
SURFACE
 62
7
  6
CONTINUOUS
 10
20.397287455
 20
199.0570503082
  0
VERTEX
  8
SURFACE
 62
7
  6
CONTINUOUS
 10
20.3980994817
 20
199.0577174803
  0
SEQEND
  0
LINE
  8
SURFACE
 62
7
  6
CONTINUOUS
 10
29.0048264487
 20
198.2196688416
 11
27.8453008303
 21
202.7739244755
  0
LINE
  8
SURFACE
 62
7
  6
CONTINUOUS
 10
42.1310820256
 20
193.7984515697
 11
41.7861588232
 21
197.7409418135
  0
LINE
  8
SURFACE
 62
7
  6
CONTINUOUS
 10
32.7357322761
 20
197.7409418133
 11
32.3908090737
 21
193.7984515697
  0
LINE
  8
SURFACE
 62
7
  6
CONTINUOUS
 10
45.4357322761
 20
197.7409418133
 11
45.0908090737
 21
193.7984515697
  0
LINE
  8
SURFACE
 62
7
  6
CONTINUOUS
 10
33.9765902689
 20
202.7739244755
 11
32.817067946
 21
198.2196817852
  0
LINE
  8
SURFACE
 62
7
  6
CONTINUOUS
 10
46.6765902689
 20
202.7739244755
 11
45.517067946
 21
198.2196817852
  0
POLYLINE
  8
SURFACE
 62
7
  6
CONTINUOUS
 66
1
 70
0
  0
VERTEX
  8
SURFACE
 62
7
  6
CONTINUOUS
 10
32.972100046
 20
198.8285996605
  0
VERTEX
  8
SURFACE
 62
7
  6
CONTINUOUS
 10
32.983209111
 20
198.8666481224
  0
VERTEX
  8
SURFACE
 62
7
  6
CONTINUOUS
 10
33.0039459299
 20
198.9202086436
  0
VERTEX
  8
SURFACE
 62
7
  6
CONTINUOUS
 10
33.0263568513
 20
198.9646563359
  0
VERTEX
  8
SURFACE
 62
7
  6
CONTINUOUS
 10
33.0477294594
 20
198.9990167165
  0
VERTEX
  8
SURFACE
 62
7
  6
CONTINUOUS
 10
33.0663939616
 20
199.0241928077
  0
VERTEX
  8
SURFACE
 62
7
  6
CONTINUOUS
 10
33.081327568
 20
199.0415038303
  0
VERTEX
  8
SURFACE
 62
7
  6
CONTINUOUS
 10
33.0917849588
 20
199.0521023812
  0
VERTEX
  8
SURFACE
 62
7
  6
CONTINUOUS
 10
33.097287455
 20
199.0570503082
  0
VERTEX
  8
SURFACE
 62
7
  6
CONTINUOUS
 10
33.0980994817
 20
199.0577174803
  0
SEQEND
  0
POLYLINE
  8
SURFACE
 62
7
  6
CONTINUOUS
 66
1
 70
0
  0
VERTEX
  8
SURFACE
 62
7
  6
CONTINUOUS
 10
45.672100046
 20
198.8285996605
  0
VERTEX
  8
SURFACE
 62
7
  6
CONTINUOUS
 10
45.683209111
 20
198.8666481224
  0
VERTEX
  8
SURFACE
 62
7
  6
CONTINUOUS
 10
45.7039459299
 20
198.9202086436
  0
VERTEX
  8
SURFACE
 62
7
  6
CONTINUOUS
 10
45.7263568513
 20
198.9646563359
  0
VERTEX
  8
SURFACE
 62
7
  6
CONTINUOUS
 10
45.7477294594
 20
198.9990167165
  0
VERTEX
  8
SURFACE
 62
7
  6
CONTINUOUS
 10
45.7663939616
 20
199.0241928077
  0
VERTEX
  8
SURFACE
 62
7
  6
CONTINUOUS
 10
45.781327568
 20
199.0415038303
  0
VERTEX
  8
SURFACE
 62
7
  6
CONTINUOUS
 10
45.7917849588
 20
199.0521023812
  0
VERTEX
  8
SURFACE
 62
7
  6
CONTINUOUS
 10
45.797287455
 20
199.0570503082
  0
VERTEX
  8
SURFACE
 62
7
  6
CONTINUOUS
 10
45.7980994817
 20
199.0577174803
  0
SEQEND
  0
LINE
  8
SURFACE
 62
7
  6
CONTINUOUS
 10
20.3980994796
 20
199.057717483
 11
20.3981456932
 21
199.0577539819
  0
POLYLINE
  8
SURFACE
 62
7
  6
CONTINUOUS
 66
1
 70
0
  0
VERTEX
  8
SURFACE
 62
7
  6
CONTINUOUS
 10
20.3981456932
 20
199.0577539819
  0
VERTEX
  8
SURFACE
 62
7
  6
CONTINUOUS
 10
20.4104306887
 20
199.0670191902
  0
VERTEX
  8
SURFACE
 62
7
  6
CONTINUOUS
 10
20.4344620863
 20
199.0827561198
  0
VERTEX
  8
SURFACE
 62
7
  6
CONTINUOUS
 10
20.4537204169
 20
199.0931427906
  0
VERTEX
  8
SURFACE
 62
7
  6
CONTINUOUS
 10
20.4668978028
 20
199.0989994554
  0
VERTEX
  8
SURFACE
 62
7
  6
CONTINUOUS
 10
20.4719393268
 20
199.1008919021
  0
SEQEND
  0
POLYLINE
  8
SURFACE
 62
7
  6
CONTINUOUS
 66
1
 70
0
  0
VERTEX
  8
SURFACE
 62
7
  6
CONTINUOUS
 10
28.7237917558
 20
199.057717371
  0
VERTEX
  8
SURFACE
 62
7
  6
CONTINUOUS
 10
28.7245050249
 20
199.0571329366
  0
VERTEX
  8
SURFACE
 62
7
  6
CONTINUOUS
 10
28.7298723285
 20
199.0523231156
  0
VERTEX
  8
SURFACE
 62
7
  6
CONTINUOUS
 10
28.7402543406
 20
199.0418360204
  0
VERTEX
  8
SURFACE
 62
7
  6
CONTINUOUS
 10
28.7551663156
 20
199.0246029389
  0
VERTEX
  8
SURFACE
 62
7
  6
CONTINUOUS
 10
28.7738616042
 20
198.9994544258
  0
VERTEX
  8
SURFACE
 62
7
  6
CONTINUOUS
 10
28.7953206967
 20
198.9650351702
  0
VERTEX
  8
SURFACE
 62
7
  6
CONTINUOUS
 10
28.8178166741
 20
198.9205001615
  0
VERTEX
  8
SURFACE
 62
7
  6
CONTINUOUS
 10
28.8386272176
 20
198.8668166225
  0
VERTEX
  8
SURFACE
 62
7
  6
CONTINUOUS
 10
28.8497913881
 20
198.8285983432
  0
SEQEND
  0
LINE
  8
SURFACE
 62
7
  6
CONTINUOUS
 10
41.7048264487
 20
198.2196688416
 11
40.5453008303
 21
202.7739244755
  0
LINE
  8
SURFACE
 62
7
  6
CONTINUOUS
 10
54.8310820256
 20
193.7984515697
 11
54.4861588232
 21
197.7409418135
  0
LINE
  8
SURFACE
 62
7
  6
CONTINUOUS
 10
67.5310820256
 20
193.7984515697
 11
67.1861588232
 21
197.7409418135
  0
LINE
  8
SURFACE
 62
7
  6
CONTINUOUS
 10
58.1357322761
 20
197.7409418133
 11
57.7908090737
 21
193.7984515697
  0
LINE
  8
SURFACE
 62
7
  6
CONTINUOUS
 10
70.8357322761
 20
197.7409418133
 11
70.4908090737
 21
193.7984515697
  0
LINE
  8
SURFACE
 62
7
  6
CONTINUOUS
 10
59.3765902689
 20
202.7739244755
 11
58.217067946
 21
198.2196817852
  0
LINE
  8
SURFACE
 62
7
  6
CONTINUOUS
 10
72.0765902689
 20
202.7739244755
 11
70.917067946
 21
198.2196817852
  0
POLYLINE
  8
SURFACE
 62
7
  6
CONTINUOUS
 66
1
 70
0
  0
VERTEX
  8
SURFACE
 62
7
  6
CONTINUOUS
 10
58.372100046
 20
198.8285996605
  0
VERTEX
  8
SURFACE
 62
7
  6
CONTINUOUS
 10
58.383209111
 20
198.8666481224
  0
VERTEX
  8
SURFACE
 62
7
  6
CONTINUOUS
 10
58.4039459299
 20
198.9202086436
  0
VERTEX
  8
SURFACE
 62
7
  6
CONTINUOUS
 10
58.4263568513
 20
198.9646563359
  0
VERTEX
  8
SURFACE
 62
7
  6
CONTINUOUS
 10
58.4477294594
 20
198.9990167165
  0
VERTEX
  8
SURFACE
 62
7
  6
CONTINUOUS
 10
58.4663939616
 20
199.0241928077
  0
VERTEX
  8
SURFACE
 62
7
  6
CONTINUOUS
 10
58.481327568
 20
199.0415038303
  0
VERTEX
  8
SURFACE
 62
7
  6
CONTINUOUS
 10
58.4917849588
 20
199.0521023812
  0
VERTEX
  8
SURFACE
 62
7
  6
CONTINUOUS
 10
58.497287455
 20
199.0570503082
  0
VERTEX
  8
SURFACE
 62
7
  6
CONTINUOUS
 10
58.4980994817
 20
199.0577174803
  0
SEQEND
  0
POLYLINE
  8
SURFACE
 62
7
  6
CONTINUOUS
 66
1
 70
0
  0
VERTEX
  8
SURFACE
 62
7
  6
CONTINUOUS
 10
71.072100046
 20
198.8285996605
  0
VERTEX
  8
SURFACE
 62
7
  6
CONTINUOUS
 10
71.083209111
 20
198.8666481224
  0
VERTEX
  8
SURFACE
 62
7
  6
CONTINUOUS
 10
71.1039459299
 20
198.9202086436
  0
VERTEX
  8
SURFACE
 62
7
  6
CONTINUOUS
 10
71.1263568513
 20
198.9646563359
  0
VERTEX
  8
SURFACE
 62
7
  6
CONTINUOUS
 10
71.1477294594
 20
198.9990167165
  0
VERTEX
  8
SURFACE
 62
7
  6
CONTINUOUS
 10
71.1663939616
 20
199.0241928077
  0
VERTEX
  8
SURFACE
 62
7
  6
CONTINUOUS
 10
71.181327568
 20
199.0415038303
  0
VERTEX
  8
SURFACE
 62
7
  6
CONTINUOUS
 10
71.1917849588
 20
199.0521023812
  0
VERTEX
  8
SURFACE
 62
7
  6
CONTINUOUS
 10
71.197287455
 20
199.0570503082
  0
VERTEX
  8
SURFACE
 62
7
  6
CONTINUOUS
 10
71.1980994817
 20
199.0577174803
  0
SEQEND
  0
LINE
  8
SURFACE
 62
7
  6
CONTINUOUS
 10
33.0980994796
 20
199.057717483
 11
33.0981456932
 21
199.0577539819
  0
LINE
  8
SURFACE
 62
7
  6
CONTINUOUS
 10
45.7980994796
 20
199.057717483
 11
45.7981456932
 21
199.0577539819
  0
LINE
  8
SURFACE
 62
7
  6
CONTINUOUS
 10
58.4980994796
 20
199.057717483
 11
58.4981456932
 21
199.0577539819
  0
POLYLINE
  8
SURFACE
 62
7
  6
CONTINUOUS
 66
1
 70
0
  0
VERTEX
  8
SURFACE
 62
7
  6
CONTINUOUS
 10
33.0981456932
 20
199.0577539819
  0
VERTEX
  8
SURFACE
 62
7
  6
CONTINUOUS
 10
33.1104306887
 20
199.0670191902
  0
VERTEX
  8
SURFACE
 62
7
  6
CONTINUOUS
 10
33.1344620863
 20
199.0827561198
  0
VERTEX
  8
SURFACE
 62
7
  6
CONTINUOUS
 10
33.1537204169
 20
199.0931427906
  0
VERTEX
  8
SURFACE
 62
7
  6
CONTINUOUS
 10
33.1668978028
 20
199.0989994554
  0
VERTEX
  8
SURFACE
 62
7
  6
CONTINUOUS
 10
33.1719393268
 20
199.1008919021
  0
SEQEND
  0
POLYLINE
  8
SURFACE
 62
7
  6
CONTINUOUS
 66
1
 70
0
  0
VERTEX
  8
SURFACE
 62
7
  6
CONTINUOUS
 10
45.7981456932
 20
199.0577539819
  0
VERTEX
  8
SURFACE
 62
7
  6
CONTINUOUS
 10
45.8104306887
 20
199.0670191902
  0
VERTEX
  8
SURFACE
 62
7
  6
CONTINUOUS
 10
45.8344620863
 20
199.0827561198
  0
VERTEX
  8
SURFACE
 62
7
  6
CONTINUOUS
 10
45.8537204169
 20
199.0931427906
  0
VERTEX
  8
SURFACE
 62
7
  6
CONTINUOUS
 10
45.8668978028
 20
199.0989994554
  0
VERTEX
  8
SURFACE
 62
7
  6
CONTINUOUS
 10
45.8719393268
 20
199.1008919021
  0
SEQEND
  0
POLYLINE
  8
SURFACE
 62
7
  6
CONTINUOUS
 66
1
 70
0
  0
VERTEX
  8
SURFACE
 62
7
  6
CONTINUOUS
 10
58.4981456932
 20
199.0577539819
  0
VERTEX
  8
SURFACE
 62
7
  6
CONTINUOUS
 10
58.5104306887
 20
199.0670191902
  0
VERTEX
  8
SURFACE
 62
7
  6
CONTINUOUS
 10
58.5344620863
 20
199.0827561198
  0
VERTEX
  8
SURFACE
 62
7
  6
CONTINUOUS
 10
58.5537204169
 20
199.0931427906
  0
VERTEX
  8
SURFACE
 62
7
  6
CONTINUOUS
 10
58.5668978028
 20
199.0989994554
  0
VERTEX
  8
SURFACE
 62
7
  6
CONTINUOUS
 10
58.5719393268
 20
199.1008919021
  0
SEQEND
  0
POLYLINE
  8
SURFACE
 62
7
  6
CONTINUOUS
 66
1
 70
0
  0
VERTEX
  8
SURFACE
 62
7
  6
CONTINUOUS
 10
28.6480970542
 20
199.1015119062
  0
VERTEX
  8
SURFACE
 62
7
  6
CONTINUOUS
 10
28.6484549367
 20
199.1013956099
  0
VERTEX
  8
SURFACE
 62
7
  6
CONTINUOUS
 10
28.6545779951
 20
199.0991642183
  0
VERTEX
  8
SURFACE
 62
7
  6
CONTINUOUS
 10
28.6674655318
 20
199.0934839471
  0
VERTEX
  8
SURFACE
 62
7
  6
CONTINUOUS
 10
28.6864714946
 20
199.0833196917
  0
VERTEX
  8
SURFACE
 62
7
  6
CONTINUOUS
 10
28.7103244579
 20
199.0678330518
  0
VERTEX
  8
SURFACE
 62
7
  6
CONTINUOUS
 10
28.7237449893
 20
199.0577543097
  0
SEQEND
  0
LINE
  8
SURFACE
 62
7
  6
CONTINUOUS
 10
28.7237917558
 20
199.057717371
 11
28.7237449878
 21
199.0577543078
  0
LINE
  8
SURFACE
 62
7
  6
CONTINUOUS
 10
41.4237917558
 20
199.057717371
 11
41.4237449878
 21
199.0577543078
  0
LINE
  8
SURFACE
 62
7
  6
CONTINUOUS
 10
54.1237917558
 20
199.057717371
 11
54.1237449878
 21
199.0577543078
  0
POLYLINE
  8
SURFACE
 62
7
  6
CONTINUOUS
 66
1
 70
0
  0
VERTEX
  8
SURFACE
 62
7
  6
CONTINUOUS
 10
41.4237917558
 20
199.057717371
  0
VERTEX
  8
SURFACE
 62
7
  6
CONTINUOUS
 10
41.4245050249
 20
199.0571329366
  0
VERTEX
  8
SURFACE
 62
7
  6
CONTINUOUS
 10
41.4298723285
 20
199.0523231156
  0
VERTEX
  8
SURFACE
 62
7
  6
CONTINUOUS
 10
41.4402543406
 20
199.0418360204
  0
VERTEX
  8
SURFACE
 62
7
  6
CONTINUOUS
 10
41.4551663156
 20
199.0246029389
  0
VERTEX
  8
SURFACE
 62
7
  6
CONTINUOUS
 10
41.4738616042
 20
198.9994544258
  0
VERTEX
  8
SURFACE
 62
7
  6
CONTINUOUS
 10
41.4953206967
 20
198.9650351702
  0
VERTEX
  8
SURFACE
 62
7
  6
CONTINUOUS
 10
41.5178166741
 20
198.9205001615
  0
VERTEX
  8
SURFACE
 62
7
  6
CONTINUOUS
 10
41.5386272176
 20
198.8668166225
  0
VERTEX
  8
SURFACE
 62
7
  6
CONTINUOUS
 10
41.5497913881
 20
198.8285983432
  0
SEQEND
  0
POLYLINE
  8
SURFACE
 62
7
  6
CONTINUOUS
 66
1
 70
0
  0
VERTEX
  8
SURFACE
 62
7
  6
CONTINUOUS
 10
54.1237917558
 20
199.057717371
  0
VERTEX
  8
SURFACE
 62
7
  6
CONTINUOUS
 10
54.1245050249
 20
199.0571329366
  0
VERTEX
  8
SURFACE
 62
7
  6
CONTINUOUS
 10
54.1298723285
 20
199.0523231156
  0
VERTEX
  8
SURFACE
 62
7
  6
CONTINUOUS
 10
54.1402543406
 20
199.0418360204
  0
VERTEX
  8
SURFACE
 62
7
  6
CONTINUOUS
 10
54.1551663156
 20
199.0246029389
  0
VERTEX
  8
SURFACE
 62
7
  6
CONTINUOUS
 10
54.1738616042
 20
198.9994544258
  0
VERTEX
  8
SURFACE
 62
7
  6
CONTINUOUS
 10
54.1953206967
 20
198.9650351702
  0
VERTEX
  8
SURFACE
 62
7
  6
CONTINUOUS
 10
54.2178166741
 20
198.9205001615
  0
VERTEX
  8
SURFACE
 62
7
  6
CONTINUOUS
 10
54.2386272176
 20
198.8668166224
  0
VERTEX
  8
SURFACE
 62
7
  6
CONTINUOUS
 10
54.2497913881
 20
198.8285983432
  0
SEQEND
  0
LINE
  8
SURFACE
 62
7
  6
CONTINUOUS
 10
54.4048264487
 20
198.2196688416
 11
53.2453008303
 21
202.7739244755
  0
LINE
  8
SURFACE
 62
7
  6
CONTINUOUS
 10
67.1048264487
 20
198.2196688416
 11
65.9453008303
 21
202.7739244755
  0
LINE
  8
SURFACE
 62
7
  6
CONTINUOUS
 10
80.2310820256
 20
193.7984515697
 11
79.8861588232
 21
197.7409418135
  0
LINE
  8
SURFACE
 62
7
  6
CONTINUOUS
 10
92.9310820256
 20
193.7984515697
 11
92.5861588232
 21
197.7409418135
  0
LINE
  8
DEFAULT_1
 62
2
  6
CENTER
 10
91.2249455496
 20
190.8825424931
 11
91.2249455496
 21
205.3311921141
  0
LINE
  8
SURFACE
 62
7
  6
CONTINUOUS
 10
83.5357322761
 20
197.7409418133
 11
83.1908090737
 21
193.7984515697
  0
LINE
  8
SURFACE
 62
7
  6
CONTINUOUS
 10
84.7765902689
 20
202.7739244755
 11
83.617067946
 21
198.2196817852
  0
POLYLINE
  8
SURFACE
 62
7
  6
CONTINUOUS
 66
1
 70
0
  0
VERTEX
  8
SURFACE
 62
7
  6
CONTINUOUS
 10
83.772100046
 20
198.8285996605
  0
VERTEX
  8
SURFACE
 62
7
  6
CONTINUOUS
 10
83.783209111
 20
198.8666481224
  0
VERTEX
  8
SURFACE
 62
7
  6
CONTINUOUS
 10
83.8039459299
 20
198.9202086436
  0
VERTEX
  8
SURFACE
 62
7
  6
CONTINUOUS
 10
83.8263568513
 20
198.9646563359
  0
VERTEX
  8
SURFACE
 62
7
  6
CONTINUOUS
 10
83.8477294594
 20
198.9990167165
  0
VERTEX
  8
SURFACE
 62
7
  6
CONTINUOUS
 10
83.8663939616
 20
199.0241928077
  0
VERTEX
  8
SURFACE
 62
7
  6
CONTINUOUS
 10
83.881327568
 20
199.0415038303
  0
VERTEX
  8
SURFACE
 62
7
  6
CONTINUOUS
 10
83.8917849588
 20
199.0521023812
  0
VERTEX
  8
SURFACE
 62
7
  6
CONTINUOUS
 10
83.897287455
 20
199.0570503082
  0
VERTEX
  8
SURFACE
 62
7
  6
CONTINUOUS
 10
83.8980994817
 20
199.0577174803
  0
SEQEND
  0
LINE
  8
SURFACE
 62
7
  6
CONTINUOUS
 10
71.1980994796
 20
199.057717483
 11
71.1981456932
 21
199.0577539819
  0
LINE
  8
SURFACE
 62
7
  6
CONTINUOUS
 10
83.8980994796
 20
199.057717483
 11
83.8981456932
 21
199.0577539819
  0
LINE
  8
SURFACE
 62
7
  6
CONTINUOUS
 10
96.5980994796
 20
199.057717483
 11
96.5981456932
 21
199.0577539819
  0
POLYLINE
  8
SURFACE
 62
7
  6
CONTINUOUS
 66
1
 70
0
  0
VERTEX
  8
SURFACE
 62
7
  6
CONTINUOUS
 10
71.1981456932
 20
199.0577539819
  0
VERTEX
  8
SURFACE
 62
7
  6
CONTINUOUS
 10
71.2104306887
 20
199.0670191902
  0
VERTEX
  8
SURFACE
 62
7
  6
CONTINUOUS
 10
71.2344620863
 20
199.0827561198
  0
VERTEX
  8
SURFACE
 62
7
  6
CONTINUOUS
 10
71.2537204169
 20
199.0931427906
  0
VERTEX
  8
SURFACE
 62
7
  6
CONTINUOUS
 10
71.2668978028
 20
199.0989994554
  0
VERTEX
  8
SURFACE
 62
7
  6
CONTINUOUS
 10
71.2719393268
 20
199.1008919021
  0
SEQEND
  0
POLYLINE
  8
SURFACE
 62
7
  6
CONTINUOUS
 66
1
 70
0
  0
VERTEX
  8
SURFACE
 62
7
  6
CONTINUOUS
 10
83.8981456932
 20
199.0577539819
  0
VERTEX
  8
SURFACE
 62
7
  6
CONTINUOUS
 10
83.9104306887
 20
199.0670191902
  0
VERTEX
  8
SURFACE
 62
7
  6
CONTINUOUS
 10
83.9344620863
 20
199.0827561198
  0
VERTEX
  8
SURFACE
 62
7
  6
CONTINUOUS
 10
83.9537204169
 20
199.0931427906
  0
VERTEX
  8
SURFACE
 62
7
  6
CONTINUOUS
 10
83.9668978028
 20
199.0989994554
  0
VERTEX
  8
SURFACE
 62
7
  6
CONTINUOUS
 10
83.9719393268
 20
199.1008919021
  0
SEQEND
  0
POLYLINE
  8
SURFACE
 62
7
  6
CONTINUOUS
 66
1
 70
0
  0
VERTEX
  8
SURFACE
 62
7
  6
CONTINUOUS
 10
96.5981456932
 20
199.0577539819
  0
VERTEX
  8
SURFACE
 62
7
  6
CONTINUOUS
 10
96.6104306887
 20
199.0670191902
  0
VERTEX
  8
SURFACE
 62
7
  6
CONTINUOUS
 10
96.6344620863
 20
199.0827561198
  0
VERTEX
  8
SURFACE
 62
7
  6
CONTINUOUS
 10
96.6537204169
 20
199.0931427906
  0
VERTEX
  8
SURFACE
 62
7
  6
CONTINUOUS
 10
96.6668978028
 20
199.0989994554
  0
VERTEX
  8
SURFACE
 62
7
  6
CONTINUOUS
 10
96.6719393268
 20
199.1008919021
  0
SEQEND
  0
POLYLINE
  8
SURFACE
 62
7
  6
CONTINUOUS
 66
1
 70
0
  0
VERTEX
  8
SURFACE
 62
7
  6
CONTINUOUS
 10
166.3386515198
 20
193.0900450808
  0
VERTEX
  8
SURFACE
 62
7
  6
CONTINUOUS
 10
166.3394504678
 20
193.0900829177
  0
VERTEX
  8
SURFACE
 62
7
  6
CONTINUOUS
 10
166.432485099
 20
193.1033502598
  0
VERTEX
  8
SURFACE
 62
7
  6
CONTINUOUS
 10
166.5231801035
 20
193.1250941511
  0
VERTEX
  8
SURFACE
 62
7
  6
CONTINUOUS
 10
166.6106256883
 20
193.1548667276
  0
VERTEX
  8
SURFACE
 62
7
  6
CONTINUOUS
 10
166.6951621247
 20
193.1926879233
  0
VERTEX
  8
SURFACE
 62
7
  6
CONTINUOUS
 10
166.7744426725
 20
193.2372955791
  0
VERTEX
  8
SURFACE
 62
7
  6
CONTINUOUS
 10
166.8502279346
 20
193.2895964869
  0
VERTEX
  8
SURFACE
 62
7
  6
CONTINUOUS
 10
166.9196458349
 20
193.347515499
  0
VERTEX
  8
SURFACE
 62
7
  6
CONTINUOUS
 10
166.984180711
 20
193.4121599305
  0
VERTEX
  8
SURFACE
 62
7
  6
CONTINUOUS
 10
167.0424684925
 20
193.4823186953
  0
VERTEX
  8
SURFACE
 62
7
  6
CONTINUOUS
 10
167.0937828015
 20
193.5569530589
  0
VERTEX
  8
SURFACE
 62
7
  6
CONTINUOUS
 10
167.1392427842
 20
193.6381338983
  0
VERTEX
  8
SURFACE
 62
7
  6
CONTINUOUS
 10
167.1759937877
 20
193.7207111924
  0
VERTEX
  8
SURFACE
 62
7
  6
CONTINUOUS
 10
167.2058241435
 20
193.8086374081
  0
VERTEX
  8
SURFACE
 62
7
  6
CONTINUOUS
 10
167.2273902677
 20
193.899053363
  0
VERTEX
  8
SURFACE
 62
7
  6
CONTINUOUS
 10
167.2404881696
 20
193.9912945777
  0
VERTEX
  8
SURFACE
 62
7
  6
CONTINUOUS
 10
167.2406447963
 20
193.9946086086
  0
SEQEND
  0
LINE
  8
SURFACE
 62
7
  6
CONTINUOUS
 10
152.0226143756
 20
192.8856073124
 11
151.0552767237
 21
192.8856073124
  0
LINE
  8
SURFACE
 62
7
  6
CONTINUOUS
 10
139.3226143756
 20
192.8856073124
 11
138.3552767237
 21
192.8856073124
  0
LINE
  8
SURFACE
 62
7
  6
CONTINUOUS
 10
126.6226143756
 20
192.8856073124
 11
125.6552767237
 21
192.8856073124
  0
LINE
  8
SURFACE
 62
7
  6
CONTINUOUS
 10
113.9226143756
 20
192.8856073124
 11
112.9552767237
 21
192.8856073124
  0
LINE
  8
SURFACE
 62
7
  6
CONTINUOUS
 10
101.2226143756
 20
192.8856073124
 11
100.2552767237
 21
192.8856073124
  0
LINE
  8
SURFACE
 62
7
  6
CONTINUOUS
 10
88.5226143756
 20
192.8856073124
 11
87.5552767237
 21
192.8856073124
  0
LINE
  8
SURFACE
 62
7
  6
CONTINUOUS
 10
75.8226143756
 20
192.8856073124
 11
74.8552767237
 21
192.8856073124
  0
LINE
  8
SURFACE
 62
7
  6
CONTINUOUS
 10
63.1226143756
 20
192.8856073124
 11
62.1552767237
 21
192.8856073124
  0
LINE
  8
SURFACE
 62
7
  6
CONTINUOUS
 10
50.4226143756
 20
192.8856073124
 11
49.4552767237
 21
192.8856073124
  0
LINE
  8
SURFACE
 62
7
  6
CONTINUOUS
 10
37.7226143756
 20
192.8856073124
 11
36.7552767237
 21
192.8856073124
  0
LINE
  8
SURFACE
 62
7
  6
CONTINUOUS
 10
25.0226143756
 20
192.8856073124
 11
24.0552767237
 21
192.8856073124
  0
LINE
  8
SURFACE
 62
7
  6
CONTINUOUS
 10
18.6946143756
 20
192.8856073124
 11
16.2049455496
 21
192.8856073124
  0
LINE
  8
SURFACE
 62
7
  6
CONTINUOUS
 10
30.4272767237
 20
192.8856073124
 11
31.3946143756
 21
192.8856073124
  0
LINE
  8
SURFACE
 62
7
  6
CONTINUOUS
 10
43.1272767237
 20
192.8856073124
 11
44.0946143756
 21
192.8856073124
  0
LINE
  8
SURFACE
 62
7
  6
CONTINUOUS
 10
55.8272767237
 20
192.8856073124
 11
56.7946143756
 21
192.8856073124
  0
LINE
  8
SURFACE
 62
7
  6
CONTINUOUS
 10
68.5272767237
 20
192.8856073124
 11
69.4946143756
 21
192.8856073124
  0
LINE
  8
SURFACE
 62
7
  6
CONTINUOUS
 10
81.2272767237
 20
192.8856073124
 11
82.1946143756
 21
192.8856073124
  0
LINE
  8
SURFACE
 62
7
  6
CONTINUOUS
 10
93.9272767237
 20
192.8856073124
 11
94.8946143756
 21
192.8856073124
  0
LINE
  8
SURFACE
 62
7
  6
CONTINUOUS
 10
106.6272767237
 20
192.8856073124
 11
107.5946143756
 21
192.8856073124
  0
LINE
  8
SURFACE
 62
7
  6
CONTINUOUS
 10
119.3272767237
 20
192.8856073124
 11
120.2946143756
 21
192.8856073124
  0
LINE
  8
SURFACE
 62
7
  6
CONTINUOUS
 10
132.0272767237
 20
192.8856073124
 11
132.9946143756
 21
192.8856073124
  0
LINE
  8
SURFACE
 62
7
  6
CONTINUOUS
 10
144.7272767237
 20
192.8856073124
 11
145.6946143756
 21
192.8856073124
  0
LINE
  8
SURFACE
 62
7
  6
CONTINUOUS
 10
157.4272767237
 20
192.8856073124
 11
158.3946143756
 21
192.8856073124
  0
LINE
  8
SURFACE
 62
7
  6
CONTINUOUS
 10
163.7552767237
 20
192.8856073124
 11
166.2449455496
 21
192.8856073124
  0
LINE
  8
SURFACE
 62
7
  6
CONTINUOUS
 10
19.2920570923
 20
193.0856073124
 11
29.8298896337
 21
193.0856073124
  0
LINE
  8
SURFACE
 62
7
  6
CONTINUOUS
 10
31.9920570923
 20
193.0856073124
 11
42.5298896337
 21
193.0856073124
  0
LINE
  8
SURFACE
 62
7
  6
CONTINUOUS
 10
44.6920570923
 20
193.0856073124
 11
55.2298896337
 21
193.0856073124
  0
LINE
  8
SURFACE
 62
7
  6
CONTINUOUS
 10
57.3920570923
 20
193.0856073124
 11
67.9298896337
 21
193.0856073124
  0
LINE
  8
SURFACE
 62
7
  6
CONTINUOUS
 10
70.0920570923
 20
193.0856073124
 11
80.6298896337
 21
193.0856073124
  0
LINE
  8
SURFACE
 62
7
  6
CONTINUOUS
 10
82.7920570923
 20
193.0856073124
 11
93.3298896337
 21
193.0856073124
  0
LINE
  8
SURFACE
 62
7
  6
CONTINUOUS
 10
95.4920570923
 20
193.0856073124
 11
106.0298896337
 21
193.0856073124
  0
LINE
  8
SURFACE
 62
7
  6
CONTINUOUS
 10
108.1920570923
 20
193.0856073124
 11
118.7298896337
 21
193.0856073124
  0
LINE
  8
SURFACE
 62
7
  6
CONTINUOUS
 10
120.8920570923
 20
193.0856073124
 11
131.4298896337
 21
193.0856073124
  0
LINE
  8
SURFACE
 62
7
  6
CONTINUOUS
 10
133.5920570923
 20
193.0856073124
 11
144.1298896337
 21
193.0856073124
  0
LINE
  8
SURFACE
 62
7
  6
CONTINUOUS
 10
146.2920570923
 20
193.0856073124
 11
156.8292945281
 21
193.0856073124
  0
LINE
  8
SURFACE
 62
7
  6
CONTINUOUS
 10
158.9920570923
 20
193.0856073124
 11
166.2449455496
 21
193.0856073124
  0
LINE
  8
DEFAULT_1
 62
2
  6
CENTER
 10
13.2049455496
 20
197.9856073124
 11
162.4321690221
 21
197.9856073124
  0
LINE
  8
0
 62
7
  6
CONTINUOUS
 10
20.3375348924
 20
199.0856073124
 11
28.6821939128
 21
199.0856073124
  0
LINE
  8
0
 62
7
  6
CONTINUOUS
 10
33.0375348924
 20
199.0856073124
 11
41.3821939128
 21
199.0856073124
  0
LINE
  8
0
 62
7
  6
CONTINUOUS
 10
45.7375348924
 20
199.0856073124
 11
54.0821939128
 21
199.0856073124
  0
LINE
  8
0
 62
7
  6
CONTINUOUS
 10
58.4375348924
 20
199.0856073124
 11
66.7821939128
 21
199.0856073124
  0
LINE
  8
0
 62
7
  6
CONTINUOUS
 10
71.1375348924
 20
199.0856073124
 11
79.4821939128
 21
199.0856073124
  0
LINE
  8
0
 62
7
  6
CONTINUOUS
 10
83.8375348924
 20
199.0856073124
 11
92.1821939128
 21
199.0856073124
  0
LINE
  8
0
 62
7
  6
CONTINUOUS
 10
96.5375348924
 20
199.0856073124
 11
104.8821939128
 21
199.0856073124
  0
LINE
  8
0
 62
7
  6
CONTINUOUS
 10
109.2375348924
 20
199.0856073124
 11
117.5821939128
 21
199.0856073124
  0
LINE
  8
0
 62
7
  6
CONTINUOUS
 10
121.9375348924
 20
199.0856073124
 11
130.2821939128
 21
199.0856073124
  0
LINE
  8
0
 62
7
  6
CONTINUOUS
 10
134.6375348924
 20
199.0856073124
 11
142.9821939128
 21
199.0856073124
  0
LINE
  8
0
 62
7
  6
CONTINUOUS
 10
147.3375348924
 20
199.0856073124
 11
155.6821939128
 21
199.0856073124
  0
LINE
  8
SURFACE
 62
7
  6
CONTINUOUS
 10
160.0375348924
 20
199.0856073124
 11
166.2449455496
 21
199.0856073124
  0
POLYLINE
  8
SURFACE
 62
7
  6
CONTINUOUS
 66
1
 70
0
  0
VERTEX
  8
SURFACE
 62
7
  6
CONTINUOUS
 10
41.3480970542
 20
199.1015119062
  0
VERTEX
  8
SURFACE
 62
7
  6
CONTINUOUS
 10
41.3484549367
 20
199.1013956099
  0
VERTEX
  8
SURFACE
 62
7
  6
CONTINUOUS
 10
41.3545779951
 20
199.0991642183
  0
VERTEX
  8
SURFACE
 62
7
  6
CONTINUOUS
 10
41.3674655318
 20
199.0934839471
  0
VERTEX
  8
SURFACE
 62
7
  6
CONTINUOUS
 10
41.3864714946
 20
199.0833196917
  0
VERTEX
  8
SURFACE
 62
7
  6
CONTINUOUS
 10
41.4103244579
 20
199.0678330518
  0
VERTEX
  8
SURFACE
 62
7
  6
CONTINUOUS
 10
41.4237449893
 20
199.0577543097
  0
SEQEND
  0
POLYLINE
  8
SURFACE
 62
7
  6
CONTINUOUS
 66
1
 70
0
  0
VERTEX
  8
SURFACE
 62
7
  6
CONTINUOUS
 10
54.0480970542
 20
199.1015119062
  0
VERTEX
  8
SURFACE
 62
7
  6
CONTINUOUS
 10
54.0484549367
 20
199.1013956099
  0
VERTEX
  8
SURFACE
 62
7
  6
CONTINUOUS
 10
54.0545779951
 20
199.0991642183
  0
VERTEX
  8
SURFACE
 62
7
  6
CONTINUOUS
 10
54.0674655318
 20
199.0934839471
  0
VERTEX
  8
SURFACE
 62
7
  6
CONTINUOUS
 10
54.0864714946
 20
199.0833196917
  0
VERTEX
  8
SURFACE
 62
7
  6
CONTINUOUS
 10
54.1103244579
 20
199.0678330518
  0
VERTEX
  8
SURFACE
 62
7
  6
CONTINUOUS
 10
54.1237449893
 20
199.0577543097
  0
SEQEND
  0
POLYLINE
  8
SURFACE
 62
7
  6
CONTINUOUS
 66
1
 70
0
  0
VERTEX
  8
SURFACE
 62
7
  6
CONTINUOUS
 10
66.7480970542
 20
199.1015119062
  0
VERTEX
  8
SURFACE
 62
7
  6
CONTINUOUS
 10
66.7484549367
 20
199.1013956099
  0
VERTEX
  8
SURFACE
 62
7
  6
CONTINUOUS
 10
66.7545779951
 20
199.0991642183
  0
VERTEX
  8
SURFACE
 62
7
  6
CONTINUOUS
 10
66.7674655318
 20
199.0934839471
  0
VERTEX
  8
SURFACE
 62
7
  6
CONTINUOUS
 10
66.7864714946
 20
199.0833196917
  0
VERTEX
  8
SURFACE
 62
7
  6
CONTINUOUS
 10
66.8103244579
 20
199.0678330518
  0
VERTEX
  8
SURFACE
 62
7
  6
CONTINUOUS
 10
66.8237449893
 20
199.0577543097
  0
SEQEND
  0
POLYLINE
  8
SURFACE
 62
7
  6
CONTINUOUS
 66
1
 70
0
  0
VERTEX
  8
SURFACE
 62
7
  6
CONTINUOUS
 10
79.4480970542
 20
199.1015119062
  0
VERTEX
  8
SURFACE
 62
7
  6
CONTINUOUS
 10
79.4484549367
 20
199.1013956099
  0
VERTEX
  8
SURFACE
 62
7
  6
CONTINUOUS
 10
79.4545779951
 20
199.0991642183
  0
VERTEX
  8
SURFACE
 62
7
  6
CONTINUOUS
 10
79.4674655318
 20
199.0934839471
  0
VERTEX
  8
SURFACE
 62
7
  6
CONTINUOUS
 10
79.4864714946
 20
199.0833196917
  0
VERTEX
  8
SURFACE
 62
7
  6
CONTINUOUS
 10
79.5103244579
 20
199.0678330518
  0
VERTEX
  8
SURFACE
 62
7
  6
CONTINUOUS
 10
79.5237449893
 20
199.0577543097
  0
SEQEND
  0
POLYLINE
  8
SURFACE
 62
7
  6
CONTINUOUS
 66
1
 70
0
  0
VERTEX
  8
SURFACE
 62
7
  6
CONTINUOUS
 10
92.1480970542
 20
199.1015119062
  0
VERTEX
  8
SURFACE
 62
7
  6
CONTINUOUS
 10
92.1484549367
 20
199.1013956099
  0
VERTEX
  8
SURFACE
 62
7
  6
CONTINUOUS
 10
92.1545779951
 20
199.0991642183
  0
VERTEX
  8
SURFACE
 62
7
  6
CONTINUOUS
 10
92.1674655318
 20
199.0934839471
  0
VERTEX
  8
SURFACE
 62
7
  6
CONTINUOUS
 10
92.1864714946
 20
199.0833196917
  0
VERTEX
  8
SURFACE
 62
7
  6
CONTINUOUS
 10
92.2103244579
 20
199.0678330518
  0
VERTEX
  8
SURFACE
 62
7
  6
CONTINUOUS
 10
92.2237449893
 20
199.0577543097
  0
SEQEND
  0
LINE
  8
SURFACE
 62
7
  6
CONTINUOUS
 10
66.8237917558
 20
199.057717371
 11
66.8237449878
 21
199.0577543078
  0
LINE
  8
SURFACE
 62
7
  6
CONTINUOUS
 10
79.5237917558
 20
199.057717371
 11
79.5237449878
 21
199.0577543078
  0
LINE
  8
SURFACE
 62
7
  6
CONTINUOUS
 10
92.2237917558
 20
199.057717371
 11
92.2237449878
 21
199.0577543078
  0
POLYLINE
  8
SURFACE
 62
7
  6
CONTINUOUS
 66
1
 70
0
  0
VERTEX
  8
SURFACE
 62
7
  6
CONTINUOUS
 10
66.8237917558
 20
199.057717371
  0
VERTEX
  8
SURFACE
 62
7
  6
CONTINUOUS
 10
66.8245050249
 20
199.0571329366
  0
VERTEX
  8
SURFACE
 62
7
  6
CONTINUOUS
 10
66.8298723285
 20
199.0523231156
  0
VERTEX
  8
SURFACE
 62
7
  6
CONTINUOUS
 10
66.8402543406
 20
199.0418360204
  0
VERTEX
  8
SURFACE
 62
7
  6
CONTINUOUS
 10
66.8551663156
 20
199.0246029389
  0
VERTEX
  8
SURFACE
 62
7
  6
CONTINUOUS
 10
66.8738616042
 20
198.9994544258
  0
VERTEX
  8
SURFACE
 62
7
  6
CONTINUOUS
 10
66.8953206967
 20
198.9650351702
  0
VERTEX
  8
SURFACE
 62
7
  6
CONTINUOUS
 10
66.9178166741
 20
198.9205001615
  0
VERTEX
  8
SURFACE
 62
7
  6
CONTINUOUS
 10
66.9386272176
 20
198.8668166225
  0
VERTEX
  8
SURFACE
 62
7
  6
CONTINUOUS
 10
66.9497913881
 20
198.8285983432
  0
SEQEND
  0
POLYLINE
  8
SURFACE
 62
7
  6
CONTINUOUS
 66
1
 70
0
  0
VERTEX
  8
SURFACE
 62
7
  6
CONTINUOUS
 10
79.5237917558
 20
199.057717371
  0
VERTEX
  8
SURFACE
 62
7
  6
CONTINUOUS
 10
79.5245050249
 20
199.0571329366
  0
VERTEX
  8
SURFACE
 62
7
  6
CONTINUOUS
 10
79.5298723285
 20
199.0523231156
  0
VERTEX
  8
SURFACE
 62
7
  6
CONTINUOUS
 10
79.5402543406
 20
199.0418360204
  0
VERTEX
  8
SURFACE
 62
7
  6
CONTINUOUS
 10
79.5551663156
 20
199.0246029389
  0
VERTEX
  8
SURFACE
 62
7
  6
CONTINUOUS
 10
79.5738616042
 20
198.9994544258
  0
VERTEX
  8
SURFACE
 62
7
  6
CONTINUOUS
 10
79.5953206967
 20
198.9650351702
  0
VERTEX
  8
SURFACE
 62
7
  6
CONTINUOUS
 10
79.6178166741
 20
198.9205001615
  0
VERTEX
  8
SURFACE
 62
7
  6
CONTINUOUS
 10
79.6386272176
 20
198.8668166225
  0
VERTEX
  8
SURFACE
 62
7
  6
CONTINUOUS
 10
79.6497913881
 20
198.8285983432
  0
SEQEND
  0
POLYLINE
  8
SURFACE
 62
7
  6
CONTINUOUS
 66
1
 70
0
  0
VERTEX
  8
SURFACE
 62
7
  6
CONTINUOUS
 10
92.2237917558
 20
199.057717371
  0
VERTEX
  8
SURFACE
 62
7
  6
CONTINUOUS
 10
92.2245050249
 20
199.0571329366
  0
VERTEX
  8
SURFACE
 62
7
  6
CONTINUOUS
 10
92.2298723285
 20
199.0523231156
  0
VERTEX
  8
SURFACE
 62
7
  6
CONTINUOUS
 10
92.2402543406
 20
199.0418360204
  0
VERTEX
  8
SURFACE
 62
7
  6
CONTINUOUS
 10
92.2551663156
 20
199.0246029389
  0
VERTEX
  8
SURFACE
 62
7
  6
CONTINUOUS
 10
92.2738616042
 20
198.9994544258
  0
VERTEX
  8
SURFACE
 62
7
  6
CONTINUOUS
 10
92.2953206967
 20
198.9650351702
  0
VERTEX
  8
SURFACE
 62
7
  6
CONTINUOUS
 10
92.3178166741
 20
198.9205001615
  0
VERTEX
  8
SURFACE
 62
7
  6
CONTINUOUS
 10
92.3386272176
 20
198.8668166225
  0
VERTEX
  8
SURFACE
 62
7
  6
CONTINUOUS
 10
92.3497913881
 20
198.8285983432
  0
SEQEND
  0
LINE
  8
SURFACE
 62
7
  6
CONTINUOUS
 10
79.8048264487
 20
198.2196688416
 11
78.6453008303
 21
202.7739244755
  0
LINE
  8
SURFACE
 62
7
  6
CONTINUOUS
 10
92.5048264487
 20
198.2196688416
 11
91.3453008303
 21
202.7739244755
  0
LINE
  8
SURFACE
 62
7
  6
CONTINUOUS
 10
105.6310820256
 20
193.7984515697
 11
105.2861588232
 21
197.7409418135
  0
LINE
  8
SURFACE
 62
7
  6
CONTINUOUS
 10
96.2357322761
 20
197.7409418133
 11
95.8908090737
 21
193.7984515697
  0
LINE
  8
SURFACE
 62
7
  6
CONTINUOUS
 10
108.9357322761
 20
197.7409418133
 11
108.5908090737
 21
193.7984515697
  0
LINE
  8
SURFACE
 62
7
  6
CONTINUOUS
 10
97.4765902689
 20
202.7739244755
 11
96.317067946
 21
198.2196817852
  0
LINE
  8
SURFACE
 62
7
  6
CONTINUOUS
 10
110.1765902689
 20
202.7739244755
 11
109.017067946
 21
198.2196817852
  0
POLYLINE
  8
SURFACE
 62
7
  6
CONTINUOUS
 66
1
 70
0
  0
VERTEX
  8
SURFACE
 62
7
  6
CONTINUOUS
 10
96.472100046
 20
198.8285996605
  0
VERTEX
  8
SURFACE
 62
7
  6
CONTINUOUS
 10
96.483209111
 20
198.8666481224
  0
VERTEX
  8
SURFACE
 62
7
  6
CONTINUOUS
 10
96.5039459299
 20
198.9202086436
  0
VERTEX
  8
SURFACE
 62
7
  6
CONTINUOUS
 10
96.5263568513
 20
198.9646563359
  0
VERTEX
  8
SURFACE
 62
7
  6
CONTINUOUS
 10
96.5477294594
 20
198.9990167165
  0
VERTEX
  8
SURFACE
 62
7
  6
CONTINUOUS
 10
96.5663939616
 20
199.0241928077
  0
VERTEX
  8
SURFACE
 62
7
  6
CONTINUOUS
 10
96.581327568
 20
199.0415038303
  0
VERTEX
  8
SURFACE
 62
7
  6
CONTINUOUS
 10
96.5917849588
 20
199.0521023812
  0
VERTEX
  8
SURFACE
 62
7
  6
CONTINUOUS
 10
96.597287455
 20
199.0570503082
  0
VERTEX
  8
SURFACE
 62
7
  6
CONTINUOUS
 10
96.5980994817
 20
199.0577174803
  0
SEQEND
  0
POLYLINE
  8
SURFACE
 62
7
  6
CONTINUOUS
 66
1
 70
0
  0
VERTEX
  8
SURFACE
 62
7
  6
CONTINUOUS
 10
109.172100046
 20
198.8285996605
  0
VERTEX
  8
SURFACE
 62
7
  6
CONTINUOUS
 10
109.183209111
 20
198.8666481224
  0
VERTEX
  8
SURFACE
 62
7
  6
CONTINUOUS
 10
109.2039459299
 20
198.9202086436
  0
VERTEX
  8
SURFACE
 62
7
  6
CONTINUOUS
 10
109.2263568513
 20
198.9646563359
  0
VERTEX
  8
SURFACE
 62
7
  6
CONTINUOUS
 10
109.2477294594
 20
198.9990167165
  0
VERTEX
  8
SURFACE
 62
7
  6
CONTINUOUS
 10
109.2663939616
 20
199.0241928077
  0
VERTEX
  8
SURFACE
 62
7
  6
CONTINUOUS
 10
109.281327568
 20
199.0415038303
  0
VERTEX
  8
SURFACE
 62
7
  6
CONTINUOUS
 10
109.2917849588
 20
199.0521023812
  0
VERTEX
  8
SURFACE
 62
7
  6
CONTINUOUS
 10
109.297287455
 20
199.0570503082
  0
VERTEX
  8
SURFACE
 62
7
  6
CONTINUOUS
 10
109.2980994817
 20
199.0577174803
  0
SEQEND
  0
LINE
  8
SURFACE
 62
7
  6
CONTINUOUS
 10
109.2980994796
 20
199.057717483
 11
109.2981456932
 21
199.0577539819
  0
LINE
  8
SURFACE
 62
7
  6
CONTINUOUS
 10
121.9980994796
 20
199.057717483
 11
121.9981456932
 21
199.0577539819
  0
POLYLINE
  8
SURFACE
 62
7
  6
CONTINUOUS
 66
1
 70
0
  0
VERTEX
  8
SURFACE
 62
7
  6
CONTINUOUS
 10
109.2981456932
 20
199.0577539819
  0
VERTEX
  8
SURFACE
 62
7
  6
CONTINUOUS
 10
109.3104306887
 20
199.0670191902
  0
VERTEX
  8
SURFACE
 62
7
  6
CONTINUOUS
 10
109.3344620863
 20
199.0827561198
  0
VERTEX
  8
SURFACE
 62
7
  6
CONTINUOUS
 10
109.3537204169
 20
199.0931427906
  0
VERTEX
  8
SURFACE
 62
7
  6
CONTINUOUS
 10
109.3668978028
 20
199.0989994554
  0
VERTEX
  8
SURFACE
 62
7
  6
CONTINUOUS
 10
109.3719393268
 20
199.1008919021
  0
SEQEND
  0
POLYLINE
  8
SURFACE
 62
7
  6
CONTINUOUS
 66
1
 70
0
  0
VERTEX
  8
SURFACE
 62
7
  6
CONTINUOUS
 10
121.9981456932
 20
199.0577539819
  0
VERTEX
  8
SURFACE
 62
7
  6
CONTINUOUS
 10
122.0104306887
 20
199.0670191902
  0
VERTEX
  8
SURFACE
 62
7
  6
CONTINUOUS
 10
122.0344620863
 20
199.0827561198
  0
VERTEX
  8
SURFACE
 62
7
  6
CONTINUOUS
 10
122.0537204169
 20
199.0931427906
  0
VERTEX
  8
SURFACE
 62
7
  6
CONTINUOUS
 10
122.0668978028
 20
199.0989994554
  0
VERTEX
  8
SURFACE
 62
7
  6
CONTINUOUS
 10
122.0719393268
 20
199.1008919021
  0
SEQEND
  0
LINE
  8
0
 62
7
  6
CONTINUOUS
 10
167.2449455496
 20
201.3856073124
 11
167.3949455496
 21
201.3856073124
  0
LINE
  8
0
 62
7
  6
CONTINUOUS
 10
167.2449455496
 20
201.4111392265
 11
167.3949455496
 21
201.4111392265
  0
LINE
  8
0
 62
7
  6
CONTINUOUS
 10
167.2449455496
 20
201.4622030569
 11
167.3949455496
 21
201.4622030569
  0
LINE
  8
0
 62
7
  6
CONTINUOUS
 10
167.2449455496
 20
201.5387988014
 11
167.3949455496
 21
201.5387988014
  0
LINE
  8
0
 62
7
  6
CONTINUOUS
 10
167.2449455496
 20
201.5898626251
 11
167.3949455496
 21
201.5898626251
  0
LINE
  8
0
 62
7
  6
CONTINUOUS
 10
167.2449455496
 20
201.6919902904
 11
167.3949455496
 21
201.6919902904
  0
LINE
  8
0
 62
7
  6
CONTINUOUS
 10
167.2449455496
 20
202.2026285631
 11
167.3949455496
 21
202.2026285631
  0
LINE
  8
0
 62
7
  6
CONTINUOUS
 10
167.2449455496
 20
202.3047562821
 11
167.3949455496
 21
202.3047562821
  0
LINE
  8
0
 62
7
  6
CONTINUOUS
 10
167.2449455496
 20
202.4068839295
 11
167.3949455496
 21
202.4068839295
  0
LINE
  8
0
 62
7
  6
CONTINUOUS
 10
167.2449455496
 20
202.4579477532
 11
167.3949455496
 21
202.4579477532
  0
LINE
  8
0
 62
7
  6
CONTINUOUS
 10
167.2449455496
 20
202.5856073124
 11
167.3949455496
 21
202.5856073124
  0
LINE
  8
SURFACE
 62
7
  6
CONTINUOUS
 10
15.4549455496
 20
203.0856073124
 11
21.0343192892
 21
203.0856073124
  0
LINE
  8
SURFACE
 62
7
  6
CONTINUOUS
 10
21.0372893363
 20
203.0856073124
 11
28.0846017629
 21
203.0856073124
  0
LINE
  8
0
 62
7
  6
CONTINUOUS
 10
21.0372893363
 20
203.0856073124
 11
28.0846017629
 21
203.0856073124
  0
LINE
  8
SURFACE
 62
7
  6
CONTINUOUS
 10
28.0875718101
 20
203.0856073124
 11
33.7343192892
 21
203.0856073124
  0
LINE
  8
SURFACE
 62
7
  6
CONTINUOUS
 10
33.7372893363
 20
203.0856073124
 11
40.7846017629
 21
203.0856073124
  0
LINE
  8
0
 62
7
  6
CONTINUOUS
 10
33.7372893363
 20
203.0856073124
 11
40.7846017629
 21
203.0856073124
  0
LINE
  8
SURFACE
 62
7
  6
CONTINUOUS
 10
40.7875718101
 20
203.0856073124
 11
46.4343192892
 21
203.0856073124
  0
LINE
  8
SURFACE
 62
7
  6
CONTINUOUS
 10
46.4372893363
 20
203.0856073124
 11
53.4846017629
 21
203.0856073124
  0
LINE
  8
0
 62
7
  6
CONTINUOUS
 10
46.4372893363
 20
203.0856073124
 11
53.4846017629
 21
203.0856073124
  0
LINE
  8
SURFACE
 62
7
  6
CONTINUOUS
 10
53.4875718101
 20
203.0856073124
 11
59.1343192892
 21
203.0856073124
  0
LINE
  8
SURFACE
 62
7
  6
CONTINUOUS
 10
59.1372893363
 20
203.0856073124
 11
66.1846017629
 21
203.0856073124
  0
LINE
  8
0
 62
7
  6
CONTINUOUS
 10
59.1372893363
 20
203.0856073124
 11
66.1846017629
 21
203.0856073124
  0
LINE
  8
SURFACE
 62
7
  6
CONTINUOUS
 10
66.1875718101
 20
203.0856073124
 11
71.8343192892
 21
203.0856073124
  0
LINE
  8
SURFACE
 62
7
  6
CONTINUOUS
 10
71.8372893363
 20
203.0856073124
 11
78.8846017629
 21
203.0856073124
  0
LINE
  8
0
 62
7
  6
CONTINUOUS
 10
71.8372893363
 20
203.0856073124
 11
78.8846017629
 21
203.0856073124
  0
LINE
  8
SURFACE
 62
7
  6
CONTINUOUS
 10
78.8875718101
 20
203.0856073124
 11
84.5343192892
 21
203.0856073124
  0
LINE
  8
SURFACE
 62
7
  6
CONTINUOUS
 10
84.5372893363
 20
203.0856073124
 11
91.5846017629
 21
203.0856073124
  0
LINE
  8
0
 62
7
  6
CONTINUOUS
 10
84.5372893363
 20
203.0856073124
 11
91.5846017629
 21
203.0856073124
  0
LINE
  8
SURFACE
 62
7
  6
CONTINUOUS
 10
91.5875718101
 20
203.0856073124
 11
97.2343192892
 21
203.0856073124
  0
LINE
  8
SURFACE
 62
7
  6
CONTINUOUS
 10
97.2372893363
 20
203.0856073124
 11
104.2846017629
 21
203.0856073124
  0
LINE
  8
0
 62
7
  6
CONTINUOUS
 10
97.2372893363
 20
203.0856073124
 11
104.2846017629
 21
203.0856073124
  0
LINE
  8
SURFACE
 62
7
  6
CONTINUOUS
 10
104.2875718101
 20
203.0856073124
 11
109.9343192892
 21
203.0856073124
  0
LINE
  8
SURFACE
 62
7
  6
CONTINUOUS
 10
109.9372893363
 20
203.0856073124
 11
116.9846017629
 21
203.0856073124
  0
LINE
  8
0
 62
7
  6
CONTINUOUS
 10
109.9372893363
 20
203.0856073124
 11
116.9846017629
 21
203.0856073124
  0
LINE
  8
SURFACE
 62
7
  6
CONTINUOUS
 10
116.9875718101
 20
203.0856073124
 11
122.6343192892
 21
203.0856073124
  0
LINE
  8
SURFACE
 62
7
  6
CONTINUOUS
 10
122.6372893363
 20
203.0856073124
 11
129.6846017629
 21
203.0856073124
  0
LINE
  8
0
 62
7
  6
CONTINUOUS
 10
122.6372893363
 20
203.0856073124
 11
129.6846017629
 21
203.0856073124
  0
LINE
  8
SURFACE
 62
7
  6
CONTINUOUS
 10
129.6875718101
 20
203.0856073124
 11
135.3343192892
 21
203.0856073124
  0
LINE
  8
SURFACE
 62
7
  6
CONTINUOUS
 10
135.3372893363
 20
203.0856073124
 11
142.3846017629
 21
203.0856073124
  0
LINE
  8
0
 62
7
  6
CONTINUOUS
 10
135.3372893363
 20
203.0856073124
 11
142.3846017629
 21
203.0856073124
  0
LINE
  8
SURFACE
 62
7
  6
CONTINUOUS
 10
142.3875718101
 20
203.0856073124
 11
148.0343192892
 21
203.0856073124
  0
LINE
  8
SURFACE
 62
7
  6
CONTINUOUS
 10
148.0372893363
 20
203.0856073124
 11
155.0846017629
 21
203.0856073124
  0
LINE
  8
0
 62
7
  6
CONTINUOUS
 10
148.0372893363
 20
203.0856073124
 11
155.0846017629
 21
203.0856073124
  0
LINE
  8
SURFACE
 62
7
  6
CONTINUOUS
 10
155.0875718101
 20
203.0856073124
 11
160.7343192892
 21
203.0856073124
  0
LINE
  8
SURFACE
 62
7
  6
CONTINUOUS
 10
160.7372893363
 20
203.0856073124
 11
166.9949455496
 21
203.0856073124
  0
POLYLINE
  8
SURFACE
 62
7
  6
CONTINUOUS
 66
1
 70
0
  0
VERTEX
  8
SURFACE
 62
7
  6
CONTINUOUS
 10
104.8480970542
 20
199.1015119062
  0
VERTEX
  8
SURFACE
 62
7
  6
CONTINUOUS
 10
104.8484549367
 20
199.1013956099
  0
VERTEX
  8
SURFACE
 62
7
  6
CONTINUOUS
 10
104.8545779951
 20
199.0991642183
  0
VERTEX
  8
SURFACE
 62
7
  6
CONTINUOUS
 10
104.8674655318
 20
199.0934839471
  0
VERTEX
  8
SURFACE
 62
7
  6
CONTINUOUS
 10
104.8864714946
 20
199.0833196917
  0
VERTEX
  8
SURFACE
 62
7
  6
CONTINUOUS
 10
104.9103244579
 20
199.0678330518
  0
VERTEX
  8
SURFACE
 62
7
  6
CONTINUOUS
 10
104.9237449893
 20
199.0577543097
  0
SEQEND
  0
POLYLINE
  8
SURFACE
 62
7
  6
CONTINUOUS
 66
1
 70
0
  0
VERTEX
  8
SURFACE
 62
7
  6
CONTINUOUS
 10
117.5480970542
 20
199.1015119062
  0
VERTEX
  8
SURFACE
 62
7
  6
CONTINUOUS
 10
117.5484549367
 20
199.1013956099
  0
VERTEX
  8
SURFACE
 62
7
  6
CONTINUOUS
 10
117.5545779951
 20
199.0991642183
  0
VERTEX
  8
SURFACE
 62
7
  6
CONTINUOUS
 10
117.5674655318
 20
199.0934839471
  0
VERTEX
  8
SURFACE
 62
7
  6
CONTINUOUS
 10
117.5864714946
 20
199.0833196917
  0
VERTEX
  8
SURFACE
 62
7
  6
CONTINUOUS
 10
117.6103244579
 20
199.0678330518
  0
VERTEX
  8
SURFACE
 62
7
  6
CONTINUOUS
 10
117.6237449893
 20
199.0577543097
  0
SEQEND
  0
POLYLINE
  8
SURFACE
 62
7
  6
CONTINUOUS
 66
1
 70
0
  0
VERTEX
  8
SURFACE
 62
7
  6
CONTINUOUS
 10
130.2480970542
 20
199.1015119062
  0
VERTEX
  8
SURFACE
 62
7
  6
CONTINUOUS
 10
130.2484549367
 20
199.1013956099
  0
VERTEX
  8
SURFACE
 62
7
  6
CONTINUOUS
 10
130.2545779951
 20
199.0991642183
  0
VERTEX
  8
SURFACE
 62
7
  6
CONTINUOUS
 10
130.2674655318
 20
199.0934839471
  0
VERTEX
  8
SURFACE
 62
7
  6
CONTINUOUS
 10
130.2864714946
 20
199.0833196917
  0
VERTEX
  8
SURFACE
 62
7
  6
CONTINUOUS
 10
130.3103244579
 20
199.0678330518
  0
VERTEX
  8
SURFACE
 62
7
  6
CONTINUOUS
 10
130.3237449893
 20
199.0577543097
  0
SEQEND
  0
POLYLINE
  8
SURFACE
 62
7
  6
CONTINUOUS
 66
1
 70
0
  0
VERTEX
  8
SURFACE
 62
7
  6
CONTINUOUS
 10
142.9480970542
 20
199.1015119062
  0
VERTEX
  8
SURFACE
 62
7
  6
CONTINUOUS
 10
142.9484549367
 20
199.1013956099
  0
VERTEX
  8
SURFACE
 62
7
  6
CONTINUOUS
 10
142.9545779951
 20
199.0991642183
  0
VERTEX
  8
SURFACE
 62
7
  6
CONTINUOUS
 10
142.9674655318
 20
199.0934839471
  0
VERTEX
  8
SURFACE
 62
7
  6
CONTINUOUS
 10
142.9864714946
 20
199.0833196917
  0
VERTEX
  8
SURFACE
 62
7
  6
CONTINUOUS
 10
143.0103244579
 20
199.0678330518
  0
VERTEX
  8
SURFACE
 62
7
  6
CONTINUOUS
 10
143.0237449893
 20
199.0577543097
  0
SEQEND
  0
POLYLINE
  8
SURFACE
 62
7
  6
CONTINUOUS
 66
1
 70
0
  0
VERTEX
  8
SURFACE
 62
7
  6
CONTINUOUS
 10
155.6480970542
 20
199.1015119062
  0
VERTEX
  8
SURFACE
 62
7
  6
CONTINUOUS
 10
155.6484549367
 20
199.1013956099
  0
VERTEX
  8
SURFACE
 62
7
  6
CONTINUOUS
 10
155.6545779951
 20
199.0991642183
  0
VERTEX
  8
SURFACE
 62
7
  6
CONTINUOUS
 10
155.6674655318
 20
199.0934839471
  0
VERTEX
  8
SURFACE
 62
7
  6
CONTINUOUS
 10
155.6864714946
 20
199.0833196917
  0
VERTEX
  8
SURFACE
 62
7
  6
CONTINUOUS
 10
155.7103244579
 20
199.0678330518
  0
VERTEX
  8
SURFACE
 62
7
  6
CONTINUOUS
 10
155.7237449893
 20
199.0577543097
  0
SEQEND
  0
LINE
  8
SURFACE
 62
7
  6
CONTINUOUS
 10
104.9237917558
 20
199.057717371
 11
104.9237449878
 21
199.0577543078
  0
LINE
  8
SURFACE
 62
7
  6
CONTINUOUS
 10
117.6237917558
 20
199.057717371
 11
117.6237449878
 21
199.0577543078
  0
POLYLINE
  8
SURFACE
 62
7
  6
CONTINUOUS
 66
1
 70
0
  0
VERTEX
  8
SURFACE
 62
7
  6
CONTINUOUS
 10
104.9237917558
 20
199.057717371
  0
VERTEX
  8
SURFACE
 62
7
  6
CONTINUOUS
 10
104.9245050249
 20
199.0571329366
  0
VERTEX
  8
SURFACE
 62
7
  6
CONTINUOUS
 10
104.9298723285
 20
199.0523231156
  0
VERTEX
  8
SURFACE
 62
7
  6
CONTINUOUS
 10
104.9402543406
 20
199.0418360204
  0
VERTEX
  8
SURFACE
 62
7
  6
CONTINUOUS
 10
104.9551663156
 20
199.0246029389
  0
VERTEX
  8
SURFACE
 62
7
  6
CONTINUOUS
 10
104.9738616042
 20
198.9994544258
  0
VERTEX
  8
SURFACE
 62
7
  6
CONTINUOUS
 10
104.9953206967
 20
198.9650351702
  0
VERTEX
  8
SURFACE
 62
7
  6
CONTINUOUS
 10
105.0178166741
 20
198.9205001615
  0
VERTEX
  8
SURFACE
 62
7
  6
CONTINUOUS
 10
105.0386272176
 20
198.8668166224
  0
VERTEX
  8
SURFACE
 62
7
  6
CONTINUOUS
 10
105.0497913881
 20
198.8285983432
  0
SEQEND
  0
POLYLINE
  8
SURFACE
 62
7
  6
CONTINUOUS
 66
1
 70
0
  0
VERTEX
  8
SURFACE
 62
7
  6
CONTINUOUS
 10
117.6237917558
 20
199.057717371
  0
VERTEX
  8
SURFACE
 62
7
  6
CONTINUOUS
 10
117.6245050249
 20
199.0571329366
  0
VERTEX
  8
SURFACE
 62
7
  6
CONTINUOUS
 10
117.6298723285
 20
199.0523231156
  0
VERTEX
  8
SURFACE
 62
7
  6
CONTINUOUS
 10
117.6402543406
 20
199.0418360204
  0
VERTEX
  8
SURFACE
 62
7
  6
CONTINUOUS
 10
117.6551663156
 20
199.0246029389
  0
VERTEX
  8
SURFACE
 62
7
  6
CONTINUOUS
 10
117.6738616042
 20
198.9994544258
  0
VERTEX
  8
SURFACE
 62
7
  6
CONTINUOUS
 10
117.6953206967
 20
198.9650351702
  0
VERTEX
  8
SURFACE
 62
7
  6
CONTINUOUS
 10
117.7178166741
 20
198.9205001615
  0
VERTEX
  8
SURFACE
 62
7
  6
CONTINUOUS
 10
117.7386272176
 20
198.8668166225
  0
VERTEX
  8
SURFACE
 62
7
  6
CONTINUOUS
 10
117.7497913881
 20
198.8285983432
  0
SEQEND
  0
LINE
  8
SURFACE
 62
7
  6
CONTINUOUS
 10
105.2048264487
 20
198.2196688416
 11
104.0453008303
 21
202.7739244755
  0
LINE
  8
SURFACE
 62
7
  6
CONTINUOUS
 10
118.3310820256
 20
193.7984515697
 11
117.9861588232
 21
197.7409418135
  0
LINE
  8
SURFACE
 62
7
  6
CONTINUOUS
 10
131.0310820256
 20
193.7984515697
 11
130.6861588232
 21
197.7409418135
  0
LINE
  8
SURFACE
 62
7
  6
CONTINUOUS
 10
121.6357322761
 20
197.7409418133
 11
121.2908090737
 21
193.7984515697
  0
LINE
  8
SURFACE
 62
7
  6
CONTINUOUS
 10
134.3357322761
 20
197.7409418133
 11
133.9908090737
 21
193.7984515697
  0
LINE
  8
SURFACE
 62
7
  6
CONTINUOUS
 10
122.8765902689
 20
202.7739244755
 11
121.717067946
 21
198.2196817852
  0
LINE
  8
SURFACE
 62
7
  6
CONTINUOUS
 10
135.5765902689
 20
202.7739244755
 11
134.417067946
 21
198.2196817852
  0
POLYLINE
  8
SURFACE
 62
7
  6
CONTINUOUS
 66
1
 70
0
  0
VERTEX
  8
SURFACE
 62
7
  6
CONTINUOUS
 10
121.872100046
 20
198.8285996605
  0
VERTEX
  8
SURFACE
 62
7
  6
CONTINUOUS
 10
121.883209111
 20
198.8666481224
  0
VERTEX
  8
SURFACE
 62
7
  6
CONTINUOUS
 10
121.9039459299
 20
198.9202086436
  0
VERTEX
  8
SURFACE
 62
7
  6
CONTINUOUS
 10
121.9263568513
 20
198.9646563359
  0
VERTEX
  8
SURFACE
 62
7
  6
CONTINUOUS
 10
121.9477294594
 20
198.9990167165
  0
VERTEX
  8
SURFACE
 62
7
  6
CONTINUOUS
 10
121.9663939616
 20
199.0241928077
  0
VERTEX
  8
SURFACE
 62
7
  6
CONTINUOUS
 10
121.981327568
 20
199.0415038303
  0
VERTEX
  8
SURFACE
 62
7
  6
CONTINUOUS
 10
121.9917849588
 20
199.0521023812
  0
VERTEX
  8
SURFACE
 62
7
  6
CONTINUOUS
 10
121.997287455
 20
199.0570503082
  0
VERTEX
  8
SURFACE
 62
7
  6
CONTINUOUS
 10
121.9980994817
 20
199.0577174803
  0
SEQEND
  0
POLYLINE
  8
SURFACE
 62
7
  6
CONTINUOUS
 66
1
 70
0
  0
VERTEX
  8
SURFACE
 62
7
  6
CONTINUOUS
 10
134.572100046
 20
198.8285996605
  0
VERTEX
  8
SURFACE
 62
7
  6
CONTINUOUS
 10
134.583209111
 20
198.8666481224
  0
VERTEX
  8
SURFACE
 62
7
  6
CONTINUOUS
 10
134.6039459299
 20
198.9202086436
  0
VERTEX
  8
SURFACE
 62
7
  6
CONTINUOUS
 10
134.6263568513
 20
198.9646563359
  0
VERTEX
  8
SURFACE
 62
7
  6
CONTINUOUS
 10
134.6477294594
 20
198.9990167165
  0
VERTEX
  8
SURFACE
 62
7
  6
CONTINUOUS
 10
134.6663939616
 20
199.0241928077
  0
VERTEX
  8
SURFACE
 62
7
  6
CONTINUOUS
 10
134.681327568
 20
199.0415038303
  0
VERTEX
  8
SURFACE
 62
7
  6
CONTINUOUS
 10
134.6917849588
 20
199.0521023812
  0
VERTEX
  8
SURFACE
 62
7
  6
CONTINUOUS
 10
134.697287455
 20
199.0570503082
  0
VERTEX
  8
SURFACE
 62
7
  6
CONTINUOUS
 10
134.6980994817
 20
199.0577174803
  0
SEQEND
  0
LINE
  8
SURFACE
 62
7
  6
CONTINUOUS
 10
134.6980994796
 20
199.057717483
 11
134.6981456932
 21
199.0577539819
  0
LINE
  8
SURFACE
 62
7
  6
CONTINUOUS
 10
147.3980994796
 20
199.057717483
 11
147.3981456932
 21
199.0577539819
  0
LINE
  8
SURFACE
 62
7
  6
CONTINUOUS
 10
160.0980994796
 20
199.057717483
 11
160.0981456932
 21
199.0577539819
  0
POLYLINE
  8
SURFACE
 62
7
  6
CONTINUOUS
 66
1
 70
0
  0
VERTEX
  8
SURFACE
 62
7
  6
CONTINUOUS
 10
134.6981456932
 20
199.0577539819
  0
VERTEX
  8
SURFACE
 62
7
  6
CONTINUOUS
 10
134.7104306887
 20
199.0670191902
  0
VERTEX
  8
SURFACE
 62
7
  6
CONTINUOUS
 10
134.7344620863
 20
199.0827561198
  0
VERTEX
  8
SURFACE
 62
7
  6
CONTINUOUS
 10
134.7537204169
 20
199.0931427906
  0
VERTEX
  8
SURFACE
 62
7
  6
CONTINUOUS
 10
134.7668978028
 20
199.0989994554
  0
VERTEX
  8
SURFACE
 62
7
  6
CONTINUOUS
 10
134.7719393268
 20
199.1008919021
  0
SEQEND
  0
POLYLINE
  8
SURFACE
 62
7
  6
CONTINUOUS
 66
1
 70
0
  0
VERTEX
  8
SURFACE
 62
7
  6
CONTINUOUS
 10
147.3981456932
 20
199.0577539819
  0
VERTEX
  8
SURFACE
 62
7
  6
CONTINUOUS
 10
147.4104306887
 20
199.0670191902
  0
VERTEX
  8
SURFACE
 62
7
  6
CONTINUOUS
 10
147.4344620863
 20
199.0827561198
  0
VERTEX
  8
SURFACE
 62
7
  6
CONTINUOUS
 10
147.4537204169
 20
199.0931427906
  0
VERTEX
  8
SURFACE
 62
7
  6
CONTINUOUS
 10
147.4668978028
 20
199.0989994554
  0
VERTEX
  8
SURFACE
 62
7
  6
CONTINUOUS
 10
147.4719393268
 20
199.1008919021
  0
SEQEND
  0
POLYLINE
  8
SURFACE
 62
7
  6
CONTINUOUS
 66
1
 70
0
  0
VERTEX
  8
SURFACE
 62
7
  6
CONTINUOUS
 10
160.0981456932
 20
199.0577539819
  0
VERTEX
  8
SURFACE
 62
7
  6
CONTINUOUS
 10
160.1104306887
 20
199.0670191902
  0
VERTEX
  8
SURFACE
 62
7
  6
CONTINUOUS
 10
160.1344620863
 20
199.0827561198
  0
VERTEX
  8
SURFACE
 62
7
  6
CONTINUOUS
 10
160.1537204169
 20
199.0931427906
  0
VERTEX
  8
SURFACE
 62
7
  6
CONTINUOUS
 10
160.1668978028
 20
199.0989994554
  0
VERTEX
  8
SURFACE
 62
7
  6
CONTINUOUS
 10
160.1719393268
 20
199.1008919021
  0
SEQEND
  0
LINE
  8
SURFACE
 62
7
  6
CONTINUOUS
 10
130.3237917558
 20
199.057717371
 11
130.3237449878
 21
199.0577543078
  0
LINE
  8
SURFACE
 62
7
  6
CONTINUOUS
 10
143.0237917558
 20
199.057717371
 11
143.0237449878
 21
199.0577543078
  0
LINE
  8
SURFACE
 62
7
  6
CONTINUOUS
 10
155.7237917558
 20
199.057717371
 11
155.7237449878
 21
199.0577543078
  0
POLYLINE
  8
SURFACE
 62
7
  6
CONTINUOUS
 66
1
 70
0
  0
VERTEX
  8
SURFACE
 62
7
  6
CONTINUOUS
 10
130.3237917558
 20
199.057717371
  0
VERTEX
  8
SURFACE
 62
7
  6
CONTINUOUS
 10
130.3245050249
 20
199.0571329366
  0
VERTEX
  8
SURFACE
 62
7
  6
CONTINUOUS
 10
130.3298723285
 20
199.0523231156
  0
VERTEX
  8
SURFACE
 62
7
  6
CONTINUOUS
 10
130.3402543406
 20
199.0418360204
  0
VERTEX
  8
SURFACE
 62
7
  6
CONTINUOUS
 10
130.3551663156
 20
199.0246029389
  0
VERTEX
  8
SURFACE
 62
7
  6
CONTINUOUS
 10
130.3738616042
 20
198.9994544258
  0
VERTEX
  8
SURFACE
 62
7
  6
CONTINUOUS
 10
130.3953206967
 20
198.9650351702
  0
VERTEX
  8
SURFACE
 62
7
  6
CONTINUOUS
 10
130.4178166741
 20
198.9205001615
  0
VERTEX
  8
SURFACE
 62
7
  6
CONTINUOUS
 10
130.4386272176
 20
198.8668166225
  0
VERTEX
  8
SURFACE
 62
7
  6
CONTINUOUS
 10
130.4497913881
 20
198.8285983432
  0
SEQEND
  0
POLYLINE
  8
SURFACE
 62
7
  6
CONTINUOUS
 66
1
 70
0
  0
VERTEX
  8
SURFACE
 62
7
  6
CONTINUOUS
 10
143.0237917558
 20
199.057717371
  0
VERTEX
  8
SURFACE
 62
7
  6
CONTINUOUS
 10
143.0245050249
 20
199.0571329366
  0
VERTEX
  8
SURFACE
 62
7
  6
CONTINUOUS
 10
143.0298723285
 20
199.0523231156
  0
VERTEX
  8
SURFACE
 62
7
  6
CONTINUOUS
 10
143.0402543406
 20
199.0418360204
  0
VERTEX
  8
SURFACE
 62
7
  6
CONTINUOUS
 10
143.0551663156
 20
199.0246029389
  0
VERTEX
  8
SURFACE
 62
7
  6
CONTINUOUS
 10
143.0738616042
 20
198.9994544258
  0
VERTEX
  8
SURFACE
 62
7
  6
CONTINUOUS
 10
143.0953206967
 20
198.9650351702
  0
VERTEX
  8
SURFACE
 62
7
  6
CONTINUOUS
 10
143.1178166741
 20
198.9205001615
  0
VERTEX
  8
SURFACE
 62
7
  6
CONTINUOUS
 10
143.1386272176
 20
198.8668166225
  0
VERTEX
  8
SURFACE
 62
7
  6
CONTINUOUS
 10
143.1497913881
 20
198.8285983432
  0
SEQEND
  0
POLYLINE
  8
SURFACE
 62
7
  6
CONTINUOUS
 66
1
 70
0
  0
VERTEX
  8
SURFACE
 62
7
  6
CONTINUOUS
 10
155.7237917558
 20
199.057717371
  0
VERTEX
  8
SURFACE
 62
7
  6
CONTINUOUS
 10
155.7245050249
 20
199.0571329366
  0
VERTEX
  8
SURFACE
 62
7
  6
CONTINUOUS
 10
155.7298723285
 20
199.0523231156
  0
VERTEX
  8
SURFACE
 62
7
  6
CONTINUOUS
 10
155.7402543406
 20
199.0418360204
  0
VERTEX
  8
SURFACE
 62
7
  6
CONTINUOUS
 10
155.7551663156
 20
199.0246029389
  0
VERTEX
  8
SURFACE
 62
7
  6
CONTINUOUS
 10
155.7738616042
 20
198.9994544258
  0
VERTEX
  8
SURFACE
 62
7
  6
CONTINUOUS
 10
155.7953206967
 20
198.9650351702
  0
VERTEX
  8
SURFACE
 62
7
  6
CONTINUOUS
 10
155.8178166741
 20
198.9205001615
  0
VERTEX
  8
SURFACE
 62
7
  6
CONTINUOUS
 10
155.8386272176
 20
198.8668166224
  0
VERTEX
  8
SURFACE
 62
7
  6
CONTINUOUS
 10
155.8497913881
 20
198.8285983432
  0
SEQEND
  0
LINE
  8
SURFACE
 62
7
  6
CONTINUOUS
 10
117.9048264487
 20
198.2196688416
 11
116.7453008303
 21
202.7739244755
  0
LINE
  8
SURFACE
 62
7
  6
CONTINUOUS
 10
130.6048264487
 20
198.2196688416
 11
129.4453008303
 21
202.7739244755
  0
POLYLINE
  8
0
 62
7
  6
CONTINUOUS
 66
1
 70
0
  0
VERTEX
  8
0
 62
7
  6
CONTINUOUS
 10
156.3288797282
 20
194.9666222694
  0
VERTEX
  8
0
 62
7
  6
CONTINUOUS
 10
156.3328889248
 20
194.9295717907
  0
VERTEX
  8
0
 62
7
  6
CONTINUOUS
 10
156.3452944057
 20
194.8561497842
  0
VERTEX
  8
0
 62
7
  6
CONTINUOUS
 10
156.362680786
 20
194.785586168
  0
VERTEX
  8
0
 62
7
  6
CONTINUOUS
 10
156.3841944933
 20
194.7181729961
  0
VERTEX
  8
0
 62
7
  6
CONTINUOUS
 10
156.4089544681
 20
194.6541773684
  0
VERTEX
  8
0
 62
7
  6
CONTINUOUS
 10
156.4361199928
 20
194.5936496385
  0
VERTEX
  8
0
 62
7
  6
CONTINUOUS
 10
156.4648986651
 20
194.5365004416
  0
VERTEX
  8
0
 62
7
  6
CONTINUOUS
 10
156.4944870549
 20
194.4826565795
  0
VERTEX
  8
0
 62
7
  6
CONTINUOUS
 10
156.5240736783
 20
194.4320619767
  0
VERTEX
  8
0
 62
7
  6
CONTINUOUS
 10
156.5528555649
 20
194.3846841132
  0
VERTEX
  8
0
 62
7
  6
CONTINUOUS
 10
156.580085846
 20
194.3404919416
  0
VERTEX
  8
0
 62
7
  6
CONTINUOUS
 10
156.6050842709
 20
194.299511394
  0
VERTEX
  8
0
 62
7
  6
CONTINUOUS
 10
156.627281118
 20
194.2618308102
  0
VERTEX
  8
0
 62
7
  6
CONTINUOUS
 10
156.6462866991
 20
194.2275511949
  0
VERTEX
  8
0
 62
7
  6
CONTINUOUS
 10
156.6619013581
 20
194.196802381
  0
VERTEX
  8
0
 62
7
  6
CONTINUOUS
 10
156.6741296612
 20
194.1697085881
  0
VERTEX
  8
0
 62
7
  6
CONTINUOUS
 10
156.6831462765
 20
194.1464065122
  0
VERTEX
  8
0
 62
7
  6
CONTINUOUS
 10
156.6892524773
 20
194.1270924685
  0
VERTEX
  8
0
 62
7
  6
CONTINUOUS
 10
156.6928595933
 20
194.1120610167
  0
VERTEX
  8
0
 62
7
  6
CONTINUOUS
 10
156.6945201937
 20
194.1016215731
  0
VERTEX
  8
0
 62
7
  6
CONTINUOUS
 10
156.694938439
 20
194.0960313006
  0
VERTEX
  8
0
 62
7
  6
CONTINUOUS
 10
156.6949456576
 20
194.0954306116
  0
SEQEND
  0
LINE
  8
SURFACE
 62
7
  6
CONTINUOUS
 10
143.7310820256
 20
193.7984515697
 11
143.3861588232
 21
197.7409418135
  0
LINE
  8
0
 62
7
  6
CONTINUOUS
 10
156.0861588142
 20
197.7409419159
 11
156.3288850654
 21
194.966568169
  0
LINE
  8
SURFACE
 62
7
  6
CONTINUOUS
 10
147.0357322761
 20
197.7409418133
 11
146.6908090737
 21
193.7984515697
  0
LINE
  8
SURFACE
 62
7
  6
CONTINUOUS
 10
148.2765902689
 20
202.7739244755
 11
147.117067946
 21
198.2196817852
  0
POLYLINE
  8
SURFACE
 62
7
  6
CONTINUOUS
 66
1
 70
0
  0
VERTEX
  8
SURFACE
 62
7
  6
CONTINUOUS
 10
147.272100046
 20
198.8285996605
  0
VERTEX
  8
SURFACE
 62
7
  6
CONTINUOUS
 10
147.283209111
 20
198.8666481224
  0
VERTEX
  8
SURFACE
 62
7
  6
CONTINUOUS
 10
147.3039459299
 20
198.9202086436
  0
VERTEX
  8
SURFACE
 62
7
  6
CONTINUOUS
 10
147.3263568513
 20
198.9646563359
  0
VERTEX
  8
SURFACE
 62
7
  6
CONTINUOUS
 10
147.3477294594
 20
198.9990167165
  0
VERTEX
  8
SURFACE
 62
7
  6
CONTINUOUS
 10
147.3663939616
 20
199.0241928077
  0
VERTEX
  8
SURFACE
 62
7
  6
CONTINUOUS
 10
147.381327568
 20
199.0415038303
  0
VERTEX
  8
SURFACE
 62
7
  6
CONTINUOUS
 10
147.3917849588
 20
199.0521023812
  0
VERTEX
  8
SURFACE
 62
7
  6
CONTINUOUS
 10
147.397287455
 20
199.0570503082
  0
VERTEX
  8
SURFACE
 62
7
  6
CONTINUOUS
 10
147.3980994817
 20
199.0577174803
  0
SEQEND
  0
LINE
  8
SURFACE
 62
7
  6
CONTINUOUS
 10
143.3048264487
 20
198.2196688416
 11
142.1453008303
 21
202.7739244755
  0
LINE
  8
SURFACE
 62
7
  6
CONTINUOUS
 10
156.0048264487
 20
198.2196688416
 11
154.8453008303
 21
202.7739244755
  0
LINE
  8
0
 62
7
  6
CONTINUOUS
 10
156.6944950002
 20
194.1017799532
 11
156.6949418166
 21
194.0879647065
  0
LINE
  8
0
 62
7
  6
CONTINUOUS
 10
156.6949455496
 20
194.0954330417
 11
156.6949455496
 21
193.3112758414
  0
LINE
  8
SURFACE
 62
7
  6
CONTINUOUS
 10
167.2449455496
 20
202.8356073124
 11
167.2449455496
 21
193.8856073124
  0
LINE
  8
0
 62
7
  6
CONTINUOUS
 10
167.3949455496
 20
202.5856073124
 11
167.3949455496
 21
201.3856073124
  0
POLYLINE
  8
SURFACE
 62
7
  6
CONTINUOUS
 66
1
 70
0
  0
VERTEX
  8
SURFACE
 62
7
  6
CONTINUOUS
 10
167.2449455496
 20
200.0856073124
  0
VERTEX
  8
SURFACE
 62
7
  6
CONTINUOUS
 10
167.2406825221
 20
200.0031645283
  0
VERTEX
  8
SURFACE
 62
7
  6
CONTINUOUS
 10
167.2279299629
 20
199.9212756182
  0
VERTEX
  8
SURFACE
 62
7
  6
CONTINUOUS
 10
167.2067962165
 20
199.8406352408
  0
VERTEX
  8
SURFACE
 62
7
  6
CONTINUOUS
 10
167.1774605088
 20
199.7619331018
  0
VERTEX
  8
SURFACE
 62
7
  6
CONTINUOUS
 10
167.1401716998
 20
199.6858478528
  0
VERTEX
  8
SURFACE
 62
7
  6
CONTINUOUS
 10
167.0952463142
 20
199.613040804
  0
VERTEX
  8
SURFACE
 62
7
  6
CONTINUOUS
 10
167.0430658718
 20
199.544146357
  0
VERTEX
  8
SURFACE
 62
7
  6
CONTINUOUS
 10
166.9840736146
 20
199.4797613621
  0
VERTEX
  8
SURFACE
 62
7
  6
CONTINUOUS
 10
166.918770779
 20
199.4204423641
  0
VERTEX
  8
SURFACE
 62
7
  6
CONTINUOUS
 10
166.847713129
 20
199.3667044006
  0
VERTEX
  8
SURFACE
 62
7
  6
CONTINUOUS
 10
166.7715065004
 20
199.3190172432
  0
VERTEX
  8
SURFACE
 62
7
  6
CONTINUOUS
 10
166.6908010318
 20
199.2777987487
  0
VERTEX
  8
SURFACE
 62
7
  6
CONTINUOUS
 10
166.6062861799
 20
199.2434112226
  0
VERTEX
  8
SURFACE
 62
7
  6
CONTINUOUS
 10
166.5186846362
 20
199.2161579349
  0
VERTEX
  8
SURFACE
 62
7
  6
CONTINUOUS
 10
166.428745631
 20
199.1962804318
  0
VERTEX
  8
SURFACE
 62
7
  6
CONTINUOUS
 10
166.3372384074
 20
199.1839566386
  0
VERTEX
  8
SURFACE
 62
7
  6
CONTINUOUS
 10
166.2449455496
 20
199.1792995254
  0
SEQEND
  0
LINE
  8
SURFACE
 62
7
  6
CONTINUOUS
 10
159.7357322761
 20
197.7409418133
 11
159.3908090737
 21
193.7984515697
  0
POLYLINE
  8
SURFACE
 62
7
  6
CONTINUOUS
 66
1
 70
0
  0
VERTEX
  8
SURFACE
 62
7
  6
CONTINUOUS
 10
167.2449455496
 20
194.0856073124
  0
VERTEX
  8
SURFACE
 62
7
  6
CONTINUOUS
 10
167.2406825221
 20
194.059699737
  0
VERTEX
  8
SURFACE
 62
7
  6
CONTINUOUS
 10
167.2279299629
 20
194.0336760232
  0
VERTEX
  8
SURFACE
 62
7
  6
CONTINUOUS
 10
167.2067962165
 20
194.0077541232
  0
VERTEX
  8
SURFACE
 62
7
  6
CONTINUOUS
 10
167.1774605088
 20
193.9821623714
  0
VERTEX
  8
SURFACE
 62
7
  6
CONTINUOUS
 10
167.1401716998
 20
193.9571372707
  0
VERTEX
  8
SURFACE
 62
7
  6
CONTINUOUS
 10
167.0952463141
 20
193.9329207097
  0
VERTEX
  8
SURFACE
 62
7
  6
CONTINUOUS
 10
167.0430658717
 20
193.9097494075
  0
VERTEX
  8
SURFACE
 62
7
  6
CONTINUOUS
 10
166.9840736144
 20
193.8878412676
  0
VERTEX
  8
SURFACE
 62
7
  6
CONTINUOUS
 10
166.9187707788
 20
193.8673986513
  0
VERTEX
  8
SURFACE
 62
7
  6
CONTINUOUS
 10
166.8477131289
 20
193.848613571
  0
VERTEX
  8
SURFACE
 62
7
  6
CONTINUOUS
 10
166.7715065003
 20
193.8316680692
  0
VERTEX
  8
SURFACE
 62
7
  6
CONTINUOUS
 10
166.6908010317
 20
193.8167280816
  0
VERTEX
  8
SURFACE
 62
7
  6
CONTINUOUS
 10
166.6062861798
 20
193.8039415226
  0
VERTEX
  8
SURFACE
 62
7
  6
CONTINUOUS
 10
166.518684636
 20
193.7934368126
  0
VERTEX
  8
SURFACE
 62
7
  6
CONTINUOUS
 10
166.4287456308
 20
193.7853220787
  0
VERTEX
  8
SURFACE
 62
7
  6
CONTINUOUS
 10
166.3372384072
 20
193.7796845797
  0
VERTEX
  8
SURFACE
 62
7
  6
CONTINUOUS
 10
166.2449455496
 20
193.776590318
  0
SEQEND
  0
LINE
  8
SURFACE
 62
7
  6
CONTINUOUS
 10
160.9765902689
 20
202.7739244755
 11
159.817067946
 21
198.2196817852
  0
POLYLINE
  8
SURFACE
 62
7
  6
CONTINUOUS
 66
1
 70
0
  0
VERTEX
  8
SURFACE
 62
7
  6
CONTINUOUS
 10
159.972100046
 20
198.8285996605
  0
VERTEX
  8
SURFACE
 62
7
  6
CONTINUOUS
 10
159.983209111
 20
198.8666481224
  0
VERTEX
  8
SURFACE
 62
7
  6
CONTINUOUS
 10
160.0039459299
 20
198.9202086436
  0
VERTEX
  8
SURFACE
 62
7
  6
CONTINUOUS
 10
160.0263568513
 20
198.9646563359
  0
VERTEX
  8
SURFACE
 62
7
  6
CONTINUOUS
 10
160.0477294594
 20
198.9990167165
  0
VERTEX
  8
SURFACE
 62
7
  6
CONTINUOUS
 10
160.0663939616
 20
199.0241928077
  0
VERTEX
  8
SURFACE
 62
7
  6
CONTINUOUS
 10
160.081327568
 20
199.0415038303
  0
VERTEX
  8
SURFACE
 62
7
  6
CONTINUOUS
 10
160.0917849588
 20
199.0521023812
  0
VERTEX
  8
SURFACE
 62
7
  6
CONTINUOUS
 10
160.097287455
 20
199.0570503082
  0
VERTEX
  8
SURFACE
 62
7
  6
CONTINUOUS
 10
160.0980994817
 20
199.0577174803
  0
SEQEND
  0
POLYLINE
  8
SURFACE
 62
7
  6
CONTINUOUS
 66
1
 70
0
  0
VERTEX
  8
SURFACE
 62
7
  6
CONTINUOUS
 10
27.837592541
 20
97.0544441123
  0
VERTEX
  8
SURFACE
 62
7
  6
CONTINUOUS
 10
27.8593924789
 20
96.8103400212
  0
VERTEX
  8
SURFACE
 62
7
  6
CONTINUOUS
 10
27.8903677575
 20
96.5168959248
  0
VERTEX
  8
SURFACE
 62
7
  6
CONTINUOUS
 10
27.9260099613
 20
96.2303556641
  0
VERTEX
  8
SURFACE
 62
7
  6
CONTINUOUS
 10
27.9662791835
 20
95.9515780547
  0
VERTEX
  8
SURFACE
 62
7
  6
CONTINUOUS
 10
28.0111384335
 20
95.6814278337
  0
VERTEX
  8
SURFACE
 62
7
  6
CONTINUOUS
 10
28.0605554646
 20
95.4207764554
  0
VERTEX
  8
SURFACE
 62
7
  6
CONTINUOUS
 10
28.1145068595
 20
95.1704968574
  0
VERTEX
  8
SURFACE
 62
7
  6
CONTINUOUS
 10
28.1729782173
 20
94.9314822115
  0
VERTEX
  8
SURFACE
 62
7
  6
CONTINUOUS
 10
28.2359673793
 20
94.7046488977
  0
VERTEX
  8
SURFACE
 62
7
  6
CONTINUOUS
 10
28.3035081893
 20
94.4908819335
  0
VERTEX
  8
SURFACE
 62
7
  6
CONTINUOUS
 10
28.3757968659
 20
94.2907625292
  0
VERTEX
  8
SURFACE
 62
7
  6
CONTINUOUS
 10
28.4534224286
 20
94.104312083
  0
VERTEX
  8
SURFACE
 62
7
  6
CONTINUOUS
 10
28.5372570563
 20
93.9317808531
  0
VERTEX
  8
SURFACE
 62
7
  6
CONTINUOUS
 10
28.6270209454
 20
93.7762140669
  0
VERTEX
  8
SURFACE
 62
7
  6
CONTINUOUS
 10
28.7203340727
 20
93.6427509206
  0
VERTEX
  8
SURFACE
 62
7
  6
CONTINUOUS
 10
28.8144718948
 20
93.5339891331
  0
VERTEX
  8
SURFACE
 62
7
  6
CONTINUOUS
 10
28.9089870607
 20
93.4480309935
  0
VERTEX
  8
SURFACE
 62
7
  6
CONTINUOUS
 10
29.0051232384
 20
93.3818812781
  0
VERTEX
  8
SURFACE
 62
7
  6
CONTINUOUS
 10
29.1036951663
 20
93.3340451902
  0
VERTEX
  8
SURFACE
 62
7
  6
CONTINUOUS
 10
29.1914851627
 20
93.3070168773
  0
SEQEND
  0
POLYLINE
  8
SURFACE
 62
7
  6
CONTINUOUS
 66
1
 70
0
  0
VERTEX
  8
SURFACE
 62
7
  6
CONTINUOUS
 10
27.6122985582
 20
125.6299000848
  0
VERTEX
  8
SURFACE
 62
7
  6
CONTINUOUS
 10
27.5904986203
 20
125.874004176
  0
VERTEX
  8
SURFACE
 62
7
  6
CONTINUOUS
 10
27.5595233418
 20
126.1674482724
  0
VERTEX
  8
SURFACE
 62
7
  6
CONTINUOUS
 10
27.523881138
 20
126.453988533
  0
VERTEX
  8
SURFACE
 62
7
  6
CONTINUOUS
 10
27.4836119157
 20
126.7327661424
  0
VERTEX
  8
SURFACE
 62
7
  6
CONTINUOUS
 10
27.4387526658
 20
127.0029163634
  0
VERTEX
  8
SURFACE
 62
7
  6
CONTINUOUS
 10
27.3893356347
 20
127.2635677417
  0
VERTEX
  8
SURFACE
 62
7
  6
CONTINUOUS
 10
27.3353842398
 20
127.5138473397
  0
VERTEX
  8
SURFACE
 62
7
  6
CONTINUOUS
 10
27.276912882
 20
127.7528619856
  0
VERTEX
  8
SURFACE
 62
7
  6
CONTINUOUS
 10
27.21392372
 20
127.9796952994
  0
VERTEX
  8
SURFACE
 62
7
  6
CONTINUOUS
 10
27.14638291
 20
128.1934622636
  0
VERTEX
  8
SURFACE
 62
7
  6
CONTINUOUS
 10
27.0740942334
 20
128.3935816679
  0
VERTEX
  8
SURFACE
 62
7
  6
CONTINUOUS
 10
26.9964686707
 20
128.5800321142
  0
VERTEX
  8
SURFACE
 62
7
  6
CONTINUOUS
 10
26.912634043
 20
128.752563344
  0
VERTEX
  8
SURFACE
 62
7
  6
CONTINUOUS
 10
26.8228701539
 20
128.9081301302
  0
VERTEX
  8
SURFACE
 62
7
  6
CONTINUOUS
 10
26.7295570266
 20
129.0415932765
  0
VERTEX
  8
SURFACE
 62
7
  6
CONTINUOUS
 10
26.6354192045
 20
129.150355064
  0
VERTEX
  8
SURFACE
 62
7
  6
CONTINUOUS
 10
26.5409040386
 20
129.2363132036
  0
VERTEX
  8
SURFACE
 62
7
  6
CONTINUOUS
 10
26.4447678609
 20
129.302462919
  0
VERTEX
  8
SURFACE
 62
7
  6
CONTINUOUS
 10
26.346195933
 20
129.3502990069
  0
VERTEX
  8
SURFACE
 62
7
  6
CONTINUOUS
 10
26.2584059366
 20
129.3773273198
  0
SEQEND
  0
POLYLINE
  8
SURFACE
 62
7
  6
CONTINUOUS
 66
1
 70
0
  0
VERTEX
  8
SURFACE
 62
7
  6
CONTINUOUS
 10
15.2049451868
 20
93.5421672802
  0
VERTEX
  8
SURFACE
 62
7
  6
CONTINUOUS
 10
15.2069469094
 20
93.5105946586
  0
VERTEX
  8
SURFACE
 62
7
  6
CONTINUOUS
 10
15.2131432503
 20
93.4786713722
  0
VERTEX
  8
SURFACE
 62
7
  6
CONTINUOUS
 10
15.2234330018
 20
93.4478173748
  0
VERTEX
  8
SURFACE
 62
7
  6
CONTINUOUS
 10
15.2376426241
 20
93.4185580429
  0
VERTEX
  8
SURFACE
 62
7
  6
CONTINUOUS
 10
15.2555317968
 20
93.3913900842
  0
VERTEX
  8
SURFACE
 62
7
  6
CONTINUOUS
 10
15.2767975055
 20
93.3667744316
  0
VERTEX
  8
SURFACE
 62
7
  6
CONTINUOUS
 10
15.3010792356
 20
93.3451285137
  0
VERTEX
  8
SURFACE
 62
7
  6
CONTINUOUS
 10
15.3279656491
 20
93.3268188607
  0
VERTEX
  8
SURFACE
 62
7
  6
CONTINUOUS
 10
15.3570015694
 20
93.3121552884
  0
VERTEX
  8
SURFACE
 62
7
  6
CONTINUOUS
 10
15.3876954821
 20
93.3013859246
  0
VERTEX
  8
SURFACE
 62
7
  6
CONTINUOUS
 10
15.4195278305
 20
93.2946930221
  0
VERTEX
  8
SURFACE
 62
7
  6
CONTINUOUS
 10
15.4549409502
 20
93.292172099
  0
SEQEND
  0
LINE
  8
SURFACE
 62
7
  6
CONTINUOUS
 10
27.8375925384
 20
97.0544428351
 11
27.8375718103
 21
97.0549509616
  0
LINE
  8
SURFACE
 62
7
  6
CONTINUOUS
 10
27.6122985608
 20
125.629901362
 11
27.6123192889
 21
125.6293932355
  0
LINE
  8
SURFACE
 62
7
  6
CONTINUOUS
 10
15.2049455496
 20
93.5421696437
 11
15.2049455496
 21
120.6614058024
  0
LINE
  8
SURFACE
 62
7
  6
CONTINUOUS
 10
21.2843192892
 20
97.0549854332
 11
21.2843192892
 21
101.6192600041
  0
LINE
  8
SURFACE
 62
7
  6
CONTINUOUS
 10
21.4655718101
 20
125.6293587639
 11
21.4655718101
 21
121.0650841931
  0
LINE
  8
SURFACE
 62
7
  6
CONTINUOUS
 10
27.6123192892
 20
125.6293587637
 11
27.6123192892
 21
121.0650884439
  0
LINE
  8
SURFACE
 62
7
  6
CONTINUOUS
 10
27.8375718101
 20
97.0549854334
 11
27.8375718101
 21
101.6192557533
  0
LINE
  8
SURFACE
 62
7
  6
CONTINUOUS
 10
21.465592538
 20
125.6299013571
 11
21.4655718103
 21
125.6293932357
  0
LINE
  8
SURFACE
 62
7
  6
CONTINUOUS
 10
21.2842985613
 20
97.05444284
 11
21.2843192889
 21
97.0549509614
  0
POLYLINE
  8
SURFACE
 62
7
  6
CONTINUOUS
 66
1
 70
0
  0
VERTEX
  8
SURFACE
 62
7
  6
CONTINUOUS
 10
21.4655718988
 20
121.0652970546
  0
VERTEX
  8
SURFACE
 62
7
  6
CONTINUOUS
 10
21.4644768015
 20
121.0468498989
  0
VERTEX
  8
SURFACE
 62
7
  6
CONTINUOUS
 10
21.4601298199
 20
121.0244753058
  0
VERTEX
  8
SURFACE
 62
7
  6
CONTINUOUS
 10
21.4525769463
 20
121.0030205468
  0
VERTEX
  8
SURFACE
 62
7
  6
CONTINUOUS
 10
21.4420796276
 20
120.9830815616
  0
VERTEX
  8
SURFACE
 62
7
  6
CONTINUOUS
 10
21.429042059
 20
120.9651711788
  0
VERTEX
  8
SURFACE
 62
7
  6
CONTINUOUS
 10
21.4139762735
 20
120.9496777034
  0
VERTEX
  8
SURFACE
 62
7
  6
CONTINUOUS
 10
21.3974386945
 20
120.9368302343
  0
VERTEX
  8
SURFACE
 62
7
  6
CONTINUOUS
 10
21.3800124239
 20
120.9267259105
  0
VERTEX
  8
SURFACE
 62
7
  6
CONTINUOUS
 10
21.3622716596
 20
120.919331516
  0
VERTEX
  8
SURFACE
 62
7
  6
CONTINUOUS
 10
21.3448467316
 20
120.9145175305
  0
VERTEX
  8
SURFACE
 62
7
  6
CONTINUOUS
 10
21.3284740058
 20
120.9120305351
  0
VERTEX
  8
SURFACE
 62
7
  6
CONTINUOUS
 10
21.3156278229
 20
120.9114291644
  0
SEQEND
  0
POLYLINE
  8
SURFACE
 62
7
  6
CONTINUOUS
 66
1
 70
0
  0
VERTEX
  8
SURFACE
 62
7
  6
CONTINUOUS
 10
21.2843192005
 20
101.6190471425
  0
VERTEX
  8
SURFACE
 62
7
  6
CONTINUOUS
 10
21.2854142978
 20
101.6374942983
  0
VERTEX
  8
SURFACE
 62
7
  6
CONTINUOUS
 10
21.2897612794
 20
101.6598688913
  0
VERTEX
  8
SURFACE
 62
7
  6
CONTINUOUS
 10
21.297314153
 20
101.6813236503
  0
VERTEX
  8
SURFACE
 62
7
  6
CONTINUOUS
 10
21.3078114716
 20
101.7012626356
  0
VERTEX
  8
SURFACE
 62
7
  6
CONTINUOUS
 10
21.3208490403
 20
101.7191730184
  0
VERTEX
  8
SURFACE
 62
7
  6
CONTINUOUS
 10
21.3359148258
 20
101.7346664937
  0
VERTEX
  8
SURFACE
 62
7
  6
CONTINUOUS
 10
21.3524524048
 20
101.7475139628
  0
VERTEX
  8
SURFACE
 62
7
  6
CONTINUOUS
 10
21.3698786754
 20
101.7576182866
  0
VERTEX
  8
SURFACE
 62
7
  6
CONTINUOUS
 10
21.3876194397
 20
101.7650126812
  0
VERTEX
  8
SURFACE
 62
7
  6
CONTINUOUS
 10
21.4050443677
 20
101.7698266667
  0
VERTEX
  8
SURFACE
 62
7
  6
CONTINUOUS
 10
21.4214170935
 20
101.772313662
  0
VERTEX
  8
SURFACE
 62
7
  6
CONTINUOUS
 10
21.4342632764
 20
101.7729150327
  0
SEQEND
  0
POLYLINE
  8
SURFACE
 62
7
  6
CONTINUOUS
 66
1
 70
0
  0
VERTEX
  8
SURFACE
 62
7
  6
CONTINUOUS
 10
40.537592541
 20
97.0544441123
  0
VERTEX
  8
SURFACE
 62
7
  6
CONTINUOUS
 10
40.5593924789
 20
96.8103400212
  0
VERTEX
  8
SURFACE
 62
7
  6
CONTINUOUS
 10
40.5903677575
 20
96.5168959248
  0
VERTEX
  8
SURFACE
 62
7
  6
CONTINUOUS
 10
40.6260099613
 20
96.2303556641
  0
VERTEX
  8
SURFACE
 62
7
  6
CONTINUOUS
 10
40.6662791835
 20
95.9515780547
  0
VERTEX
  8
SURFACE
 62
7
  6
CONTINUOUS
 10
40.7111384335
 20
95.6814278337
  0
VERTEX
  8
SURFACE
 62
7
  6
CONTINUOUS
 10
40.7605554646
 20
95.4207764554
  0
VERTEX
  8
SURFACE
 62
7
  6
CONTINUOUS
 10
40.8145068595
 20
95.1704968574
  0
VERTEX
  8
SURFACE
 62
7
  6
CONTINUOUS
 10
40.8729782173
 20
94.9314822115
  0
VERTEX
  8
SURFACE
 62
7
  6
CONTINUOUS
 10
40.9359673793
 20
94.7046488977
  0
VERTEX
  8
SURFACE
 62
7
  6
CONTINUOUS
 10
41.0035081893
 20
94.4908819335
  0
VERTEX
  8
SURFACE
 62
7
  6
CONTINUOUS
 10
41.0757968659
 20
94.2907625292
  0
VERTEX
  8
SURFACE
 62
7
  6
CONTINUOUS
 10
41.1534224286
 20
94.104312083
  0
VERTEX
  8
SURFACE
 62
7
  6
CONTINUOUS
 10
41.2372570563
 20
93.9317808531
  0
VERTEX
  8
SURFACE
 62
7
  6
CONTINUOUS
 10
41.3270209454
 20
93.7762140669
  0
VERTEX
  8
SURFACE
 62
7
  6
CONTINUOUS
 10
41.4203340727
 20
93.6427509206
  0
VERTEX
  8
SURFACE
 62
7
  6
CONTINUOUS
 10
41.5144718948
 20
93.5339891331
  0
VERTEX
  8
SURFACE
 62
7
  6
CONTINUOUS
 10
41.6089870607
 20
93.4480309935
  0
VERTEX
  8
SURFACE
 62
7
  6
CONTINUOUS
 10
41.7051232384
 20
93.3818812781
  0
VERTEX
  8
SURFACE
 62
7
  6
CONTINUOUS
 10
41.8036951663
 20
93.3340451902
  0
VERTEX
  8
SURFACE
 62
7
  6
CONTINUOUS
 10
41.8914851627
 20
93.3070168773
  0
SEQEND
  0
POLYLINE
  8
SURFACE
 62
7
  6
CONTINUOUS
 66
1
 70
0
  0
VERTEX
  8
SURFACE
 62
7
  6
CONTINUOUS
 10
40.3122985582
 20
125.6299000848
  0
VERTEX
  8
SURFACE
 62
7
  6
CONTINUOUS
 10
40.2904986203
 20
125.874004176
  0
VERTEX
  8
SURFACE
 62
7
  6
CONTINUOUS
 10
40.2595233418
 20
126.1674482724
  0
VERTEX
  8
SURFACE
 62
7
  6
CONTINUOUS
 10
40.223881138
 20
126.453988533
  0
VERTEX
  8
SURFACE
 62
7
  6
CONTINUOUS
 10
40.1836119157
 20
126.7327661424
  0
VERTEX
  8
SURFACE
 62
7
  6
CONTINUOUS
 10
40.1387526658
 20
127.0029163634
  0
VERTEX
  8
SURFACE
 62
7
  6
CONTINUOUS
 10
40.0893356347
 20
127.2635677417
  0
VERTEX
  8
SURFACE
 62
7
  6
CONTINUOUS
 10
40.0353842398
 20
127.5138473397
  0
VERTEX
  8
SURFACE
 62
7
  6
CONTINUOUS
 10
39.976912882
 20
127.7528619856
  0
VERTEX
  8
SURFACE
 62
7
  6
CONTINUOUS
 10
39.91392372
 20
127.9796952994
  0
VERTEX
  8
SURFACE
 62
7
  6
CONTINUOUS
 10
39.84638291
 20
128.1934622636
  0
VERTEX
  8
SURFACE
 62
7
  6
CONTINUOUS
 10
39.7740942334
 20
128.3935816679
  0
VERTEX
  8
SURFACE
 62
7
  6
CONTINUOUS
 10
39.6964686707
 20
128.5800321142
  0
VERTEX
  8
SURFACE
 62
7
  6
CONTINUOUS
 10
39.612634043
 20
128.752563344
  0
VERTEX
  8
SURFACE
 62
7
  6
CONTINUOUS
 10
39.5228701539
 20
128.9081301302
  0
VERTEX
  8
SURFACE
 62
7
  6
CONTINUOUS
 10
39.4295570266
 20
129.0415932765
  0
VERTEX
  8
SURFACE
 62
7
  6
CONTINUOUS
 10
39.3354192045
 20
129.150355064
  0
VERTEX
  8
SURFACE
 62
7
  6
CONTINUOUS
 10
39.2409040386
 20
129.2363132036
  0
VERTEX
  8
SURFACE
 62
7
  6
CONTINUOUS
 10
39.1447678609
 20
129.302462919
  0
VERTEX
  8
SURFACE
 62
7
  6
CONTINUOUS
 10
39.046195933
 20
129.3502990069
  0
VERTEX
  8
SURFACE
 62
7
  6
CONTINUOUS
 10
38.9584059366
 20
129.3773273198
  0
SEQEND
  0
POLYLINE
  8
SURFACE
 62
7
  6
CONTINUOUS
 66
1
 70
0
  0
VERTEX
  8
SURFACE
 62
7
  6
CONTINUOUS
 10
53.237592541
 20
97.0544441123
  0
VERTEX
  8
SURFACE
 62
7
  6
CONTINUOUS
 10
53.2593924789
 20
96.8103400212
  0
VERTEX
  8
SURFACE
 62
7
  6
CONTINUOUS
 10
53.2903677575
 20
96.5168959248
  0
VERTEX
  8
SURFACE
 62
7
  6
CONTINUOUS
 10
53.3260099613
 20
96.2303556641
  0
VERTEX
  8
SURFACE
 62
7
  6
CONTINUOUS
 10
53.3662791835
 20
95.9515780547
  0
VERTEX
  8
SURFACE
 62
7
  6
CONTINUOUS
 10
53.4111384335
 20
95.6814278337
  0
VERTEX
  8
SURFACE
 62
7
  6
CONTINUOUS
 10
53.4605554646
 20
95.4207764554
  0
VERTEX
  8
SURFACE
 62
7
  6
CONTINUOUS
 10
53.5145068595
 20
95.1704968574
  0
VERTEX
  8
SURFACE
 62
7
  6
CONTINUOUS
 10
53.5729782173
 20
94.9314822115
  0
VERTEX
  8
SURFACE
 62
7
  6
CONTINUOUS
 10
53.6359673793
 20
94.7046488978
  0
VERTEX
  8
SURFACE
 62
7
  6
CONTINUOUS
 10
53.7035081893
 20
94.4908819335
  0
VERTEX
  8
SURFACE
 62
7
  6
CONTINUOUS
 10
53.7757968659
 20
94.2907625292
  0
VERTEX
  8
SURFACE
 62
7
  6
CONTINUOUS
 10
53.8534224286
 20
94.104312083
  0
VERTEX
  8
SURFACE
 62
7
  6
CONTINUOUS
 10
53.9372570563
 20
93.9317808531
  0
VERTEX
  8
SURFACE
 62
7
  6
CONTINUOUS
 10
54.0270209454
 20
93.7762140669
  0
VERTEX
  8
SURFACE
 62
7
  6
CONTINUOUS
 10
54.1203340727
 20
93.6427509206
  0
VERTEX
  8
SURFACE
 62
7
  6
CONTINUOUS
 10
54.2144718948
 20
93.5339891331
  0
VERTEX
  8
SURFACE
 62
7
  6
CONTINUOUS
 10
54.3089870607
 20
93.4480309935
  0
VERTEX
  8
SURFACE
 62
7
  6
CONTINUOUS
 10
54.4051232384
 20
93.3818812781
  0
VERTEX
  8
SURFACE
 62
7
  6
CONTINUOUS
 10
54.5036951663
 20
93.3340451902
  0
VERTEX
  8
SURFACE
 62
7
  6
CONTINUOUS
 10
54.5914851627
 20
93.3070168773
  0
SEQEND
  0
LINE
  8
SURFACE
 62
7
  6
CONTINUOUS
 10
40.5375925384
 20
97.0544428351
 11
40.5375718103
 21
97.0549509616
  0
LINE
  8
SURFACE
 62
7
  6
CONTINUOUS
 10
40.3122985608
 20
125.629901362
 11
40.3123192889
 21
125.6293932355
  0
LINE
  8
SURFACE
 62
7
  6
CONTINUOUS
 10
33.9843192892
 20
97.0549854332
 11
33.9843192892
 21
101.6192600041
  0
LINE
  8
SURFACE
 62
7
  6
CONTINUOUS
 10
34.1655718101
 20
125.6293587639
 11
34.1655718101
 21
121.0650841931
  0
LINE
  8
SURFACE
 62
7
  6
CONTINUOUS
 10
40.3123192892
 20
125.6293587637
 11
40.3123192892
 21
121.0650884439
  0
LINE
  8
SURFACE
 62
7
  6
CONTINUOUS
 10
40.5375718101
 20
97.0549854334
 11
40.5375718101
 21
101.6192557533
  0
LINE
  8
SURFACE
 62
7
  6
CONTINUOUS
 10
46.6843192892
 20
97.0549854332
 11
46.6843192892
 21
101.6192600041
  0
LINE
  8
SURFACE
 62
7
  6
CONTINUOUS
 10
46.8655718101
 20
125.6293587639
 11
46.8655718101
 21
121.0650841931
  0
LINE
  8
SURFACE
 62
7
  6
CONTINUOUS
 10
34.165592538
 20
125.6299013571
 11
34.1655718103
 21
125.6293932357
  0
LINE
  8
SURFACE
 62
7
  6
CONTINUOUS
 10
33.9842985613
 20
97.05444284
 11
33.9843192889
 21
97.0549509614
  0
LINE
  8
SURFACE
 62
7
  6
CONTINUOUS
 10
46.865592538
 20
125.6299013571
 11
46.8655718103
 21
125.6293932357
  0
LINE
  8
SURFACE
 62
7
  6
CONTINUOUS
 10
46.6842985613
 20
97.05444284
 11
46.6843192889
 21
97.0549509614
  0
POLYLINE
  8
SURFACE
 62
7
  6
CONTINUOUS
 66
1
 70
0
  0
VERTEX
  8
SURFACE
 62
7
  6
CONTINUOUS
 10
34.1655718988
 20
121.0652970546
  0
VERTEX
  8
SURFACE
 62
7
  6
CONTINUOUS
 10
34.1644768015
 20
121.0468498989
  0
VERTEX
  8
SURFACE
 62
7
  6
CONTINUOUS
 10
34.1601298199
 20
121.0244753058
  0
VERTEX
  8
SURFACE
 62
7
  6
CONTINUOUS
 10
34.1525769463
 20
121.0030205468
  0
VERTEX
  8
SURFACE
 62
7
  6
CONTINUOUS
 10
34.1420796276
 20
120.9830815616
  0
VERTEX
  8
SURFACE
 62
7
  6
CONTINUOUS
 10
34.129042059
 20
120.9651711788
  0
VERTEX
  8
SURFACE
 62
7
  6
CONTINUOUS
 10
34.1139762735
 20
120.9496777034
  0
VERTEX
  8
SURFACE
 62
7
  6
CONTINUOUS
 10
34.0974386945
 20
120.9368302343
  0
VERTEX
  8
SURFACE
 62
7
  6
CONTINUOUS
 10
34.0800124239
 20
120.9267259105
  0
VERTEX
  8
SURFACE
 62
7
  6
CONTINUOUS
 10
34.0622716596
 20
120.919331516
  0
VERTEX
  8
SURFACE
 62
7
  6
CONTINUOUS
 10
34.0448467316
 20
120.9145175305
  0
VERTEX
  8
SURFACE
 62
7
  6
CONTINUOUS
 10
34.0284740058
 20
120.9120305351
  0
VERTEX
  8
SURFACE
 62
7
  6
CONTINUOUS
 10
34.0156278229
 20
120.9114291644
  0
SEQEND
  0
POLYLINE
  8
SURFACE
 62
7
  6
CONTINUOUS
 66
1
 70
0
  0
VERTEX
  8
SURFACE
 62
7
  6
CONTINUOUS
 10
33.9843192005
 20
101.6190471425
  0
VERTEX
  8
SURFACE
 62
7
  6
CONTINUOUS
 10
33.9854142978
 20
101.6374942983
  0
VERTEX
  8
SURFACE
 62
7
  6
CONTINUOUS
 10
33.9897612794
 20
101.6598688913
  0
VERTEX
  8
SURFACE
 62
7
  6
CONTINUOUS
 10
33.997314153
 20
101.6813236503
  0
VERTEX
  8
SURFACE
 62
7
  6
CONTINUOUS
 10
34.0078114716
 20
101.7012626356
  0
VERTEX
  8
SURFACE
 62
7
  6
CONTINUOUS
 10
34.0208490403
 20
101.7191730184
  0
VERTEX
  8
SURFACE
 62
7
  6
CONTINUOUS
 10
34.0359148258
 20
101.7346664937
  0
VERTEX
  8
SURFACE
 62
7
  6
CONTINUOUS
 10
34.0524524048
 20
101.7475139628
  0
VERTEX
  8
SURFACE
 62
7
  6
CONTINUOUS
 10
34.0698786754
 20
101.7576182866
  0
VERTEX
  8
SURFACE
 62
7
  6
CONTINUOUS
 10
34.0876194397
 20
101.7650126812
  0
VERTEX
  8
SURFACE
 62
7
  6
CONTINUOUS
 10
34.1050443677
 20
101.7698266667
  0
VERTEX
  8
SURFACE
 62
7
  6
CONTINUOUS
 10
34.1214170935
 20
101.772313662
  0
VERTEX
  8
SURFACE
 62
7
  6
CONTINUOUS
 10
34.1342632764
 20
101.7729150327
  0
SEQEND
  0
POLYLINE
  8
SURFACE
 62
7
  6
CONTINUOUS
 66
1
 70
0
  0
VERTEX
  8
SURFACE
 62
7
  6
CONTINUOUS
 10
46.8655718988
 20
121.0652970546
  0
VERTEX
  8
SURFACE
 62
7
  6
CONTINUOUS
 10
46.8644768015
 20
121.0468498989
  0
VERTEX
  8
SURFACE
 62
7
  6
CONTINUOUS
 10
46.8601298199
 20
121.0244753058
  0
VERTEX
  8
SURFACE
 62
7
  6
CONTINUOUS
 10
46.8525769463
 20
121.0030205468
  0
VERTEX
  8
SURFACE
 62
7
  6
CONTINUOUS
 10
46.8420796276
 20
120.9830815616
  0
VERTEX
  8
SURFACE
 62
7
  6
CONTINUOUS
 10
46.829042059
 20
120.9651711788
  0
VERTEX
  8
SURFACE
 62
7
  6
CONTINUOUS
 10
46.8139762735
 20
120.9496777034
  0
VERTEX
  8
SURFACE
 62
7
  6
CONTINUOUS
 10
46.7974386945
 20
120.9368302343
  0
VERTEX
  8
SURFACE
 62
7
  6
CONTINUOUS
 10
46.7800124239
 20
120.9267259105
  0
VERTEX
  8
SURFACE
 62
7
  6
CONTINUOUS
 10
46.7622716596
 20
120.919331516
  0
VERTEX
  8
SURFACE
 62
7
  6
CONTINUOUS
 10
46.7448467316
 20
120.9145175305
  0
VERTEX
  8
SURFACE
 62
7
  6
CONTINUOUS
 10
46.7284740058
 20
120.9120305351
  0
VERTEX
  8
SURFACE
 62
7
  6
CONTINUOUS
 10
46.7156278229
 20
120.9114291644
  0
SEQEND
  0
POLYLINE
  8
SURFACE
 62
7
  6
CONTINUOUS
 66
1
 70
0
  0
VERTEX
  8
SURFACE
 62
7
  6
CONTINUOUS
 10
46.6843192005
 20
101.6190471425
  0
VERTEX
  8
SURFACE
 62
7
  6
CONTINUOUS
 10
46.6854142978
 20
101.6374942983
  0
VERTEX
  8
SURFACE
 62
7
  6
CONTINUOUS
 10
46.6897612794
 20
101.6598688913
  0
VERTEX
  8
SURFACE
 62
7
  6
CONTINUOUS
 10
46.697314153
 20
101.6813236503
  0
VERTEX
  8
SURFACE
 62
7
  6
CONTINUOUS
 10
46.7078114716
 20
101.7012626356
  0
VERTEX
  8
SURFACE
 62
7
  6
CONTINUOUS
 10
46.7208490403
 20
101.7191730184
  0
VERTEX
  8
SURFACE
 62
7
  6
CONTINUOUS
 10
46.7359148258
 20
101.7346664937
  0
VERTEX
  8
SURFACE
 62
7
  6
CONTINUOUS
 10
46.7524524048
 20
101.7475139628
  0
VERTEX
  8
SURFACE
 62
7
  6
CONTINUOUS
 10
46.7698786754
 20
101.7576182866
  0
VERTEX
  8
SURFACE
 62
7
  6
CONTINUOUS
 10
46.7876194397
 20
101.7650126812
  0
VERTEX
  8
SURFACE
 62
7
  6
CONTINUOUS
 10
46.8050443677
 20
101.7698266667
  0
VERTEX
  8
SURFACE
 62
7
  6
CONTINUOUS
 10
46.8214170935
 20
101.772313662
  0
VERTEX
  8
SURFACE
 62
7
  6
CONTINUOUS
 10
46.8342632764
 20
101.7729150327
  0
SEQEND
  0
POLYLINE
  8
SURFACE
 62
7
  6
CONTINUOUS
 66
1
 70
0
  0
VERTEX
  8
SURFACE
 62
7
  6
CONTINUOUS
 10
53.0122985582
 20
125.6299000848
  0
VERTEX
  8
SURFACE
 62
7
  6
CONTINUOUS
 10
52.9904986203
 20
125.874004176
  0
VERTEX
  8
SURFACE
 62
7
  6
CONTINUOUS
 10
52.9595233418
 20
126.1674482724
  0
VERTEX
  8
SURFACE
 62
7
  6
CONTINUOUS
 10
52.923881138
 20
126.453988533
  0
VERTEX
  8
SURFACE
 62
7
  6
CONTINUOUS
 10
52.8836119157
 20
126.7327661424
  0
VERTEX
  8
SURFACE
 62
7
  6
CONTINUOUS
 10
52.8387526658
 20
127.0029163634
  0
VERTEX
  8
SURFACE
 62
7
  6
CONTINUOUS
 10
52.7893356347
 20
127.2635677417
  0
VERTEX
  8
SURFACE
 62
7
  6
CONTINUOUS
 10
52.7353842398
 20
127.5138473397
  0
VERTEX
  8
SURFACE
 62
7
  6
CONTINUOUS
 10
52.676912882
 20
127.7528619856
  0
VERTEX
  8
SURFACE
 62
7
  6
CONTINUOUS
 10
52.61392372
 20
127.9796952994
  0
VERTEX
  8
SURFACE
 62
7
  6
CONTINUOUS
 10
52.54638291
 20
128.1934622636
  0
VERTEX
  8
SURFACE
 62
7
  6
CONTINUOUS
 10
52.4740942334
 20
128.3935816679
  0
VERTEX
  8
SURFACE
 62
7
  6
CONTINUOUS
 10
52.3964686707
 20
128.5800321142
  0
VERTEX
  8
SURFACE
 62
7
  6
CONTINUOUS
 10
52.312634043
 20
128.752563344
  0
VERTEX
  8
SURFACE
 62
7
  6
CONTINUOUS
 10
52.2228701539
 20
128.9081301302
  0
VERTEX
  8
SURFACE
 62
7
  6
CONTINUOUS
 10
52.1295570266
 20
129.0415932765
  0
VERTEX
  8
SURFACE
 62
7
  6
CONTINUOUS
 10
52.0354192045
 20
129.150355064
  0
VERTEX
  8
SURFACE
 62
7
  6
CONTINUOUS
 10
51.9409040386
 20
129.2363132036
  0
VERTEX
  8
SURFACE
 62
7
  6
CONTINUOUS
 10
51.8447678609
 20
129.302462919
  0
VERTEX
  8
SURFACE
 62
7
  6
CONTINUOUS
 10
51.746195933
 20
129.3502990069
  0
VERTEX
  8
SURFACE
 62
7
  6
CONTINUOUS
 10
51.6584059366
 20
129.3773273198
  0
SEQEND
  0
POLYLINE
  8
SURFACE
 62
7
  6
CONTINUOUS
 66
1
 70
0
  0
VERTEX
  8
SURFACE
 62
7
  6
CONTINUOUS
 10
65.937592541
 20
97.0544441123
  0
VERTEX
  8
SURFACE
 62
7
  6
CONTINUOUS
 10
65.9593924789
 20
96.8103400212
  0
VERTEX
  8
SURFACE
 62
7
  6
CONTINUOUS
 10
65.9903677575
 20
96.5168959248
  0
VERTEX
  8
SURFACE
 62
7
  6
CONTINUOUS
 10
66.0260099613
 20
96.2303556641
  0
VERTEX
  8
SURFACE
 62
7
  6
CONTINUOUS
 10
66.0662791835
 20
95.9515780547
  0
VERTEX
  8
SURFACE
 62
7
  6
CONTINUOUS
 10
66.1111384335
 20
95.6814278337
  0
VERTEX
  8
SURFACE
 62
7
  6
CONTINUOUS
 10
66.1605554646
 20
95.4207764554
  0
VERTEX
  8
SURFACE
 62
7
  6
CONTINUOUS
 10
66.2145068595
 20
95.1704968574
  0
VERTEX
  8
SURFACE
 62
7
  6
CONTINUOUS
 10
66.2729782173
 20
94.9314822115
  0
VERTEX
  8
SURFACE
 62
7
  6
CONTINUOUS
 10
66.3359673793
 20
94.7046488977
  0
VERTEX
  8
SURFACE
 62
7
  6
CONTINUOUS
 10
66.4035081893
 20
94.4908819335
  0
VERTEX
  8
SURFACE
 62
7
  6
CONTINUOUS
 10
66.4757968659
 20
94.2907625292
  0
VERTEX
  8
SURFACE
 62
7
  6
CONTINUOUS
 10
66.5534224286
 20
94.104312083
  0
VERTEX
  8
SURFACE
 62
7
  6
CONTINUOUS
 10
66.6372570563
 20
93.9317808531
  0
VERTEX
  8
SURFACE
 62
7
  6
CONTINUOUS
 10
66.7270209454
 20
93.7762140669
  0
VERTEX
  8
SURFACE
 62
7
  6
CONTINUOUS
 10
66.8203340727
 20
93.6427509206
  0
VERTEX
  8
SURFACE
 62
7
  6
CONTINUOUS
 10
66.9144718948
 20
93.5339891331
  0
VERTEX
  8
SURFACE
 62
7
  6
CONTINUOUS
 10
67.0089870607
 20
93.4480309935
  0
VERTEX
  8
SURFACE
 62
7
  6
CONTINUOUS
 10
67.1051232384
 20
93.3818812781
  0
VERTEX
  8
SURFACE
 62
7
  6
CONTINUOUS
 10
67.2036951663
 20
93.3340451902
  0
VERTEX
  8
SURFACE
 62
7
  6
CONTINUOUS
 10
67.2914851627
 20
93.3070168773
  0
SEQEND
  0
POLYLINE
  8
SURFACE
 62
7
  6
CONTINUOUS
 66
1
 70
0
  0
VERTEX
  8
SURFACE
 62
7
  6
CONTINUOUS
 10
65.7122985582
 20
125.6299000848
  0
VERTEX
  8
SURFACE
 62
7
  6
CONTINUOUS
 10
65.6904986203
 20
125.874004176
  0
VERTEX
  8
SURFACE
 62
7
  6
CONTINUOUS
 10
65.6595233418
 20
126.1674482724
  0
VERTEX
  8
SURFACE
 62
7
  6
CONTINUOUS
 10
65.623881138
 20
126.453988533
  0
VERTEX
  8
SURFACE
 62
7
  6
CONTINUOUS
 10
65.5836119157
 20
126.7327661424
  0
VERTEX
  8
SURFACE
 62
7
  6
CONTINUOUS
 10
65.5387526658
 20
127.0029163634
  0
VERTEX
  8
SURFACE
 62
7
  6
CONTINUOUS
 10
65.4893356347
 20
127.2635677417
  0
VERTEX
  8
SURFACE
 62
7
  6
CONTINUOUS
 10
65.4353842398
 20
127.5138473397
  0
VERTEX
  8
SURFACE
 62
7
  6
CONTINUOUS
 10
65.376912882
 20
127.7528619856
  0
VERTEX
  8
SURFACE
 62
7
  6
CONTINUOUS
 10
65.31392372
 20
127.9796952994
  0
VERTEX
  8
SURFACE
 62
7
  6
CONTINUOUS
 10
65.24638291
 20
128.1934622636
  0
VERTEX
  8
SURFACE
 62
7
  6
CONTINUOUS
 10
65.1740942334
 20
128.3935816679
  0
VERTEX
  8
SURFACE
 62
7
  6
CONTINUOUS
 10
65.0964686707
 20
128.5800321142
  0
VERTEX
  8
SURFACE
 62
7
  6
CONTINUOUS
 10
65.012634043
 20
128.752563344
  0
VERTEX
  8
SURFACE
 62
7
  6
CONTINUOUS
 10
64.9228701539
 20
128.9081301302
  0
VERTEX
  8
SURFACE
 62
7
  6
CONTINUOUS
 10
64.8295570266
 20
129.0415932765
  0
VERTEX
  8
SURFACE
 62
7
  6
CONTINUOUS
 10
64.7354192045
 20
129.150355064
  0
VERTEX
  8
SURFACE
 62
7
  6
CONTINUOUS
 10
64.6409040386
 20
129.2363132036
  0
VERTEX
  8
SURFACE
 62
7
  6
CONTINUOUS
 10
64.5447678609
 20
129.302462919
  0
VERTEX
  8
SURFACE
 62
7
  6
CONTINUOUS
 10
64.446195933
 20
129.3502990069
  0
VERTEX
  8
SURFACE
 62
7
  6
CONTINUOUS
 10
64.3584059366
 20
129.3773273198
  0
SEQEND
  0
LINE
  8
SURFACE
 62
7
  6
CONTINUOUS
 10
53.2375925384
 20
97.0544428351
 11
53.2375718103
 21
97.0549509616
  0
LINE
  8
SURFACE
 62
7
  6
CONTINUOUS
 10
53.0122985608
 20
125.629901362
 11
53.0123192889
 21
125.6293932355
  0
LINE
  8
SURFACE
 62
7
  6
CONTINUOUS
 10
65.9375925384
 20
97.0544428351
 11
65.9375718103
 21
97.0549509616
  0
LINE
  8
SURFACE
 62
7
  6
CONTINUOUS
 10
65.7122985608
 20
125.629901362
 11
65.7123192889
 21
125.6293932355
  0
LINE
  8
SURFACE
 62
7
  6
CONTINUOUS
 10
53.0123192892
 20
125.6293587637
 11
53.0123192892
 21
121.0650884439
  0
LINE
  8
SURFACE
 62
7
  6
CONTINUOUS
 10
53.2375718101
 20
97.0549854334
 11
53.2375718101
 21
101.6192557533
  0
LINE
  8
SURFACE
 62
7
  6
CONTINUOUS
 10
59.3843192892
 20
97.0549854332
 11
59.3843192892
 21
101.6192600041
  0
LINE
  8
SURFACE
 62
7
  6
CONTINUOUS
 10
59.5655718101
 20
125.6293587639
 11
59.5655718101
 21
121.0650841931
  0
LINE
  8
SURFACE
 62
7
  6
CONTINUOUS
 10
65.7123192892
 20
125.6293587637
 11
65.7123192892
 21
121.0650884439
  0
LINE
  8
SURFACE
 62
7
  6
CONTINUOUS
 10
65.9375718101
 20
97.0549854334
 11
65.9375718101
 21
101.6192557533
  0
LINE
  8
SURFACE
 62
7
  6
CONTINUOUS
 10
72.0843192892
 20
97.0549854332
 11
72.0843192892
 21
101.6192600041
  0
LINE
  8
SURFACE
 62
7
  6
CONTINUOUS
 10
72.2655718101
 20
125.6293587639
 11
72.2655718101
 21
121.0650841931
  0
LINE
  8
SURFACE
 62
7
  6
CONTINUOUS
 10
59.565592538
 20
125.6299013571
 11
59.5655718103
 21
125.6293932357
  0
LINE
  8
SURFACE
 62
7
  6
CONTINUOUS
 10
59.3842985613
 20
97.05444284
 11
59.3843192889
 21
97.0549509614
  0
LINE
  8
SURFACE
 62
7
  6
CONTINUOUS
 10
72.265592538
 20
125.6299013571
 11
72.2655718103
 21
125.6293932357
  0
LINE
  8
SURFACE
 62
7
  6
CONTINUOUS
 10
72.0842985613
 20
97.05444284
 11
72.0843192889
 21
97.0549509614
  0
POLYLINE
  8
SURFACE
 62
7
  6
CONTINUOUS
 66
1
 70
0
  0
VERTEX
  8
SURFACE
 62
7
  6
CONTINUOUS
 10
59.5655718988
 20
121.0652970546
  0
VERTEX
  8
SURFACE
 62
7
  6
CONTINUOUS
 10
59.5644768015
 20
121.0468498989
  0
VERTEX
  8
SURFACE
 62
7
  6
CONTINUOUS
 10
59.5601298199
 20
121.0244753058
  0
VERTEX
  8
SURFACE
 62
7
  6
CONTINUOUS
 10
59.5525769463
 20
121.0030205468
  0
VERTEX
  8
SURFACE
 62
7
  6
CONTINUOUS
 10
59.5420796276
 20
120.9830815616
  0
VERTEX
  8
SURFACE
 62
7
  6
CONTINUOUS
 10
59.529042059
 20
120.9651711788
  0
VERTEX
  8
SURFACE
 62
7
  6
CONTINUOUS
 10
59.5139762735
 20
120.9496777034
  0
VERTEX
  8
SURFACE
 62
7
  6
CONTINUOUS
 10
59.4974386945
 20
120.9368302343
  0
VERTEX
  8
SURFACE
 62
7
  6
CONTINUOUS
 10
59.4800124239
 20
120.9267259105
  0
VERTEX
  8
SURFACE
 62
7
  6
CONTINUOUS
 10
59.4622716596
 20
120.919331516
  0
VERTEX
  8
SURFACE
 62
7
  6
CONTINUOUS
 10
59.4448467316
 20
120.9145175305
  0
VERTEX
  8
SURFACE
 62
7
  6
CONTINUOUS
 10
59.4284740058
 20
120.9120305351
  0
VERTEX
  8
SURFACE
 62
7
  6
CONTINUOUS
 10
59.4156278229
 20
120.9114291644
  0
SEQEND
  0
POLYLINE
  8
SURFACE
 62
7
  6
CONTINUOUS
 66
1
 70
0
  0
VERTEX
  8
SURFACE
 62
7
  6
CONTINUOUS
 10
59.3843192005
 20
101.6190471425
  0
VERTEX
  8
SURFACE
 62
7
  6
CONTINUOUS
 10
59.3854142978
 20
101.6374942983
  0
VERTEX
  8
SURFACE
 62
7
  6
CONTINUOUS
 10
59.3897612794
 20
101.6598688913
  0
VERTEX
  8
SURFACE
 62
7
  6
CONTINUOUS
 10
59.397314153
 20
101.6813236503
  0
VERTEX
  8
SURFACE
 62
7
  6
CONTINUOUS
 10
59.4078114716
 20
101.7012626356
  0
VERTEX
  8
SURFACE
 62
7
  6
CONTINUOUS
 10
59.4208490403
 20
101.7191730184
  0
VERTEX
  8
SURFACE
 62
7
  6
CONTINUOUS
 10
59.4359148258
 20
101.7346664937
  0
VERTEX
  8
SURFACE
 62
7
  6
CONTINUOUS
 10
59.4524524048
 20
101.7475139628
  0
VERTEX
  8
SURFACE
 62
7
  6
CONTINUOUS
 10
59.4698786754
 20
101.7576182866
  0
VERTEX
  8
SURFACE
 62
7
  6
CONTINUOUS
 10
59.4876194397
 20
101.7650126812
  0
VERTEX
  8
SURFACE
 62
7
  6
CONTINUOUS
 10
59.5050443677
 20
101.7698266667
  0
VERTEX
  8
SURFACE
 62
7
  6
CONTINUOUS
 10
59.5214170935
 20
101.772313662
  0
VERTEX
  8
SURFACE
 62
7
  6
CONTINUOUS
 10
59.5342632764
 20
101.7729150327
  0
SEQEND
  0
POLYLINE
  8
SURFACE
 62
7
  6
CONTINUOUS
 66
1
 70
0
  0
VERTEX
  8
SURFACE
 62
7
  6
CONTINUOUS
 10
72.2655718988
 20
121.0652970546
  0
VERTEX
  8
SURFACE
 62
7
  6
CONTINUOUS
 10
72.2644768015
 20
121.0468498989
  0
VERTEX
  8
SURFACE
 62
7
  6
CONTINUOUS
 10
72.2601298199
 20
121.0244753058
  0
VERTEX
  8
SURFACE
 62
7
  6
CONTINUOUS
 10
72.2525769463
 20
121.0030205468
  0
VERTEX
  8
SURFACE
 62
7
  6
CONTINUOUS
 10
72.2420796276
 20
120.9830815616
  0
VERTEX
  8
SURFACE
 62
7
  6
CONTINUOUS
 10
72.229042059
 20
120.9651711788
  0
VERTEX
  8
SURFACE
 62
7
  6
CONTINUOUS
 10
72.2139762735
 20
120.9496777034
  0
VERTEX
  8
SURFACE
 62
7
  6
CONTINUOUS
 10
72.1974386945
 20
120.9368302343
  0
VERTEX
  8
SURFACE
 62
7
  6
CONTINUOUS
 10
72.1800124239
 20
120.9267259105
  0
VERTEX
  8
SURFACE
 62
7
  6
CONTINUOUS
 10
72.1622716596
 20
120.919331516
  0
VERTEX
  8
SURFACE
 62
7
  6
CONTINUOUS
 10
72.1448467316
 20
120.9145175305
  0
VERTEX
  8
SURFACE
 62
7
  6
CONTINUOUS
 10
72.1284740058
 20
120.9120305351
  0
VERTEX
  8
SURFACE
 62
7
  6
CONTINUOUS
 10
72.1156278229
 20
120.9114291644
  0
SEQEND
  0
POLYLINE
  8
SURFACE
 62
7
  6
CONTINUOUS
 66
1
 70
0
  0
VERTEX
  8
SURFACE
 62
7
  6
CONTINUOUS
 10
72.0843192005
 20
101.6190471425
  0
VERTEX
  8
SURFACE
 62
7
  6
CONTINUOUS
 10
72.0854142978
 20
101.6374942983
  0
VERTEX
  8
SURFACE
 62
7
  6
CONTINUOUS
 10
72.0897612794
 20
101.6598688913
  0
VERTEX
  8
SURFACE
 62
7
  6
CONTINUOUS
 10
72.097314153
 20
101.6813236503
  0
VERTEX
  8
SURFACE
 62
7
  6
CONTINUOUS
 10
72.1078114716
 20
101.7012626356
  0
VERTEX
  8
SURFACE
 62
7
  6
CONTINUOUS
 10
72.1208490403
 20
101.7191730184
  0
VERTEX
  8
SURFACE
 62
7
  6
CONTINUOUS
 10
72.1359148258
 20
101.7346664937
  0
VERTEX
  8
SURFACE
 62
7
  6
CONTINUOUS
 10
72.1524524048
 20
101.7475139628
  0
VERTEX
  8
SURFACE
 62
7
  6
CONTINUOUS
 10
72.1698786754
 20
101.7576182866
  0
VERTEX
  8
SURFACE
 62
7
  6
CONTINUOUS
 10
72.1876194397
 20
101.7650126812
  0
VERTEX
  8
SURFACE
 62
7
  6
CONTINUOUS
 10
72.2050443677
 20
101.7698266667
  0
VERTEX
  8
SURFACE
 62
7
  6
CONTINUOUS
 10
72.2214170935
 20
101.772313662
  0
VERTEX
  8
SURFACE
 62
7
  6
CONTINUOUS
 10
72.2342632764
 20
101.7729150327
  0
SEQEND
  0
POLYLINE
  8
SURFACE
 62
7
  6
CONTINUOUS
 66
1
 70
0
  0
VERTEX
  8
SURFACE
 62
7
  6
CONTINUOUS
 10
22.8194930403
 20
129.3773292901
  0
VERTEX
  8
SURFACE
 62
7
  6
CONTINUOUS
 10
22.7307478822
 20
129.3499295452
  0
VERTEX
  8
SURFACE
 62
7
  6
CONTINUOUS
 10
22.6322620836
 20
129.3019588102
  0
VERTEX
  8
SURFACE
 62
7
  6
CONTINUOUS
 10
22.5362037933
 20
129.2356893655
  0
VERTEX
  8
SURFACE
 62
7
  6
CONTINUOUS
 10
22.4417561718
 20
129.1496187351
  0
VERTEX
  8
SURFACE
 62
7
  6
CONTINUOUS
 10
22.3476799361
 20
129.0407501521
  0
VERTEX
  8
SURFACE
 62
7
  6
CONTINUOUS
 10
22.2544404599
 20
128.9072133098
  0
VERTEX
  8
SURFACE
 62
7
  6
CONTINUOUS
 10
22.1647449276
 20
128.7515927589
  0
VERTEX
  8
SURFACE
 62
7
  6
CONTINUOUS
 10
22.0809535739
 20
128.5789865854
  0
VERTEX
  8
SURFACE
 62
7
  6
CONTINUOUS
 10
22.0033456845
 20
128.3924157883
  0
VERTEX
  8
SURFACE
 62
7
  6
CONTINUOUS
 10
21.9310661922
 20
128.1921520195
  0
VERTEX
  8
SURFACE
 62
7
  6
CONTINUOUS
 10
21.8635388457
 20
127.9782470205
  0
VERTEX
  8
SURFACE
 62
7
  6
CONTINUOUS
 10
21.8005684182
 20
127.7512885085
  0
VERTEX
  8
SURFACE
 62
7
  6
CONTINUOUS
 10
21.7421186049
 20
127.5121558163
  0
VERTEX
  8
SURFACE
 62
7
  6
CONTINUOUS
 10
21.6881896647
 20
127.2617579116
  0
VERTEX
  8
SURFACE
 62
7
  6
CONTINUOUS
 10
21.6387958368
 20
127.0009856596
  0
VERTEX
  8
SURFACE
 62
7
  6
CONTINUOUS
 10
21.5939612266
 20
126.7307140174
  0
VERTEX
  8
SURFACE
 62
7
  6
CONTINUOUS
 10
21.5537186279
 20
126.4518169736
  0
VERTEX
  8
SURFACE
 62
7
  6
CONTINUOUS
 10
21.5181054196
 20
126.1651621785
  0
VERTEX
  8
SURFACE
 62
7
  6
CONTINUOUS
 10
21.4871617316
 20
125.8716116534
  0
VERTEX
  8
SURFACE
 62
7
  6
CONTINUOUS
 10
21.4655925406
 20
125.6299000798
  0
SEQEND
  0
POLYLINE
  8
SURFACE
 62
7
  6
CONTINUOUS
 66
1
 70
0
  0
VERTEX
  8
SURFACE
 62
7
  6
CONTINUOUS
 10
35.5194930403
 20
129.3773292901
  0
VERTEX
  8
SURFACE
 62
7
  6
CONTINUOUS
 10
35.4307478822
 20
129.3499295452
  0
VERTEX
  8
SURFACE
 62
7
  6
CONTINUOUS
 10
35.3322620836
 20
129.3019588102
  0
VERTEX
  8
SURFACE
 62
7
  6
CONTINUOUS
 10
35.2362037933
 20
129.2356893655
  0
VERTEX
  8
SURFACE
 62
7
  6
CONTINUOUS
 10
35.1417561718
 20
129.1496187351
  0
VERTEX
  8
SURFACE
 62
7
  6
CONTINUOUS
 10
35.0476799361
 20
129.0407501521
  0
VERTEX
  8
SURFACE
 62
7
  6
CONTINUOUS
 10
34.9544404599
 20
128.9072133098
  0
VERTEX
  8
SURFACE
 62
7
  6
CONTINUOUS
 10
34.8647449276
 20
128.7515927589
  0
VERTEX
  8
SURFACE
 62
7
  6
CONTINUOUS
 10
34.7809535739
 20
128.5789865854
  0
VERTEX
  8
SURFACE
 62
7
  6
CONTINUOUS
 10
34.7033456845
 20
128.3924157883
  0
VERTEX
  8
SURFACE
 62
7
  6
CONTINUOUS
 10
34.6310661922
 20
128.1921520195
  0
VERTEX
  8
SURFACE
 62
7
  6
CONTINUOUS
 10
34.5635388457
 20
127.9782470205
  0
VERTEX
  8
SURFACE
 62
7
  6
CONTINUOUS
 10
34.5005684182
 20
127.7512885085
  0
VERTEX
  8
SURFACE
 62
7
  6
CONTINUOUS
 10
34.4421186049
 20
127.5121558163
  0
VERTEX
  8
SURFACE
 62
7
  6
CONTINUOUS
 10
34.3881896647
 20
127.2617579116
  0
VERTEX
  8
SURFACE
 62
7
  6
CONTINUOUS
 10
34.3387958368
 20
127.0009856596
  0
VERTEX
  8
SURFACE
 62
7
  6
CONTINUOUS
 10
34.2939612266
 20
126.7307140173
  0
VERTEX
  8
SURFACE
 62
7
  6
CONTINUOUS
 10
34.2537186279
 20
126.4518169736
  0
VERTEX
  8
SURFACE
 62
7
  6
CONTINUOUS
 10
34.2181054196
 20
126.1651621785
  0
VERTEX
  8
SURFACE
 62
7
  6
CONTINUOUS
 10
34.1871617316
 20
125.8716116534
  0
VERTEX
  8
SURFACE
 62
7
  6
CONTINUOUS
 10
34.1655925406
 20
125.6299000798
  0
SEQEND
  0
POLYLINE
  8
SURFACE
 62
7
  6
CONTINUOUS
 66
1
 70
0
  0
VERTEX
  8
SURFACE
 62
7
  6
CONTINUOUS
 10
48.2194930403
 20
129.3773292901
  0
VERTEX
  8
SURFACE
 62
7
  6
CONTINUOUS
 10
48.1307478822
 20
129.3499295452
  0
VERTEX
  8
SURFACE
 62
7
  6
CONTINUOUS
 10
48.0322620836
 20
129.3019588102
  0
VERTEX
  8
SURFACE
 62
7
  6
CONTINUOUS
 10
47.9362037933
 20
129.2356893655
  0
VERTEX
  8
SURFACE
 62
7
  6
CONTINUOUS
 10
47.8417561718
 20
129.1496187351
  0
VERTEX
  8
SURFACE
 62
7
  6
CONTINUOUS
 10
47.7476799361
 20
129.0407501521
  0
VERTEX
  8
SURFACE
 62
7
  6
CONTINUOUS
 10
47.6544404599
 20
128.9072133098
  0
VERTEX
  8
SURFACE
 62
7
  6
CONTINUOUS
 10
47.5647449276
 20
128.7515927589
  0
VERTEX
  8
SURFACE
 62
7
  6
CONTINUOUS
 10
47.4809535739
 20
128.5789865854
  0
VERTEX
  8
SURFACE
 62
7
  6
CONTINUOUS
 10
47.4033456845
 20
128.3924157883
  0
VERTEX
  8
SURFACE
 62
7
  6
CONTINUOUS
 10
47.3310661922
 20
128.1921520195
  0
VERTEX
  8
SURFACE
 62
7
  6
CONTINUOUS
 10
47.2635388457
 20
127.9782470205
  0
VERTEX
  8
SURFACE
 62
7
  6
CONTINUOUS
 10
47.2005684182
 20
127.7512885085
  0
VERTEX
  8
SURFACE
 62
7
  6
CONTINUOUS
 10
47.1421186049
 20
127.5121558163
  0
VERTEX
  8
SURFACE
 62
7
  6
CONTINUOUS
 10
47.0881896647
 20
127.2617579116
  0
VERTEX
  8
SURFACE
 62
7
  6
CONTINUOUS
 10
47.0387958368
 20
127.0009856596
  0
VERTEX
  8
SURFACE
 62
7
  6
CONTINUOUS
 10
46.9939612266
 20
126.7307140173
  0
VERTEX
  8
SURFACE
 62
7
  6
CONTINUOUS
 10
46.9537186279
 20
126.4518169736
  0
VERTEX
  8
SURFACE
 62
7
  6
CONTINUOUS
 10
46.9181054196
 20
126.1651621785
  0
VERTEX
  8
SURFACE
 62
7
  6
CONTINUOUS
 10
46.8871617316
 20
125.8716116534
  0
VERTEX
  8
SURFACE
 62
7
  6
CONTINUOUS
 10
46.8655925406
 20
125.6299000798
  0
SEQEND
  0
POLYLINE
  8
SURFACE
 62
7
  6
CONTINUOUS
 66
1
 70
0
  0
VERTEX
  8
SURFACE
 62
7
  6
CONTINUOUS
 10
60.9194930403
 20
129.3773292901
  0
VERTEX
  8
SURFACE
 62
7
  6
CONTINUOUS
 10
60.8307478822
 20
129.3499295452
  0
VERTEX
  8
SURFACE
 62
7
  6
CONTINUOUS
 10
60.7322620836
 20
129.3019588102
  0
VERTEX
  8
SURFACE
 62
7
  6
CONTINUOUS
 10
60.6362037933
 20
129.2356893655
  0
VERTEX
  8
SURFACE
 62
7
  6
CONTINUOUS
 10
60.5417561718
 20
129.1496187351
  0
VERTEX
  8
SURFACE
 62
7
  6
CONTINUOUS
 10
60.4476799361
 20
129.0407501521
  0
VERTEX
  8
SURFACE
 62
7
  6
CONTINUOUS
 10
60.3544404599
 20
128.9072133098
  0
VERTEX
  8
SURFACE
 62
7
  6
CONTINUOUS
 10
60.2647449276
 20
128.7515927589
  0
VERTEX
  8
SURFACE
 62
7
  6
CONTINUOUS
 10
60.1809535739
 20
128.5789865854
  0
VERTEX
  8
SURFACE
 62
7
  6
CONTINUOUS
 10
60.1033456845
 20
128.3924157883
  0
VERTEX
  8
SURFACE
 62
7
  6
CONTINUOUS
 10
60.0310661922
 20
128.1921520195
  0
VERTEX
  8
SURFACE
 62
7
  6
CONTINUOUS
 10
59.9635388457
 20
127.9782470205
  0
VERTEX
  8
SURFACE
 62
7
  6
CONTINUOUS
 10
59.9005684182
 20
127.7512885085
  0
VERTEX
  8
SURFACE
 62
7
  6
CONTINUOUS
 10
59.8421186049
 20
127.5121558163
  0
VERTEX
  8
SURFACE
 62
7
  6
CONTINUOUS
 10
59.7881896647
 20
127.2617579116
  0
VERTEX
  8
SURFACE
 62
7
  6
CONTINUOUS
 10
59.7387958368
 20
127.0009856596
  0
VERTEX
  8
SURFACE
 62
7
  6
CONTINUOUS
 10
59.6939612266
 20
126.7307140173
  0
VERTEX
  8
SURFACE
 62
7
  6
CONTINUOUS
 10
59.6537186279
 20
126.4518169736
  0
VERTEX
  8
SURFACE
 62
7
  6
CONTINUOUS
 10
59.6181054196
 20
126.1651621785
  0
VERTEX
  8
SURFACE
 62
7
  6
CONTINUOUS
 10
59.5871617316
 20
125.8716116534
  0
VERTEX
  8
SURFACE
 62
7
  6
CONTINUOUS
 10
59.5655925406
 20
125.6299000798
  0
SEQEND
  0
POLYLINE
  8
SURFACE
 62
7
  6
CONTINUOUS
 66
1
 70
0
  0
VERTEX
  8
SURFACE
 62
7
  6
CONTINUOUS
 10
73.6194930403
 20
129.3773292901
  0
VERTEX
  8
SURFACE
 62
7
  6
CONTINUOUS
 10
73.5307478822
 20
129.3499295452
  0
VERTEX
  8
SURFACE
 62
7
  6
CONTINUOUS
 10
73.4322620836
 20
129.3019588102
  0
VERTEX
  8
SURFACE
 62
7
  6
CONTINUOUS
 10
73.3362037933
 20
129.2356893655
  0
VERTEX
  8
SURFACE
 62
7
  6
CONTINUOUS
 10
73.2417561718
 20
129.1496187351
  0
VERTEX
  8
SURFACE
 62
7
  6
CONTINUOUS
 10
73.1476799361
 20
129.0407501521
  0
VERTEX
  8
SURFACE
 62
7
  6
CONTINUOUS
 10
73.0544404599
 20
128.9072133098
  0
VERTEX
  8
SURFACE
 62
7
  6
CONTINUOUS
 10
72.9647449276
 20
128.7515927589
  0
VERTEX
  8
SURFACE
 62
7
  6
CONTINUOUS
 10
72.8809535739
 20
128.5789865854
  0
VERTEX
  8
SURFACE
 62
7
  6
CONTINUOUS
 10
72.8033456845
 20
128.3924157883
  0
VERTEX
  8
SURFACE
 62
7
  6
CONTINUOUS
 10
72.7310661922
 20
128.1921520195
  0
VERTEX
  8
SURFACE
 62
7
  6
CONTINUOUS
 10
72.6635388457
 20
127.9782470205
  0
VERTEX
  8
SURFACE
 62
7
  6
CONTINUOUS
 10
72.6005684182
 20
127.7512885085
  0
VERTEX
  8
SURFACE
 62
7
  6
CONTINUOUS
 10
72.5421186049
 20
127.5121558163
  0
VERTEX
  8
SURFACE
 62
7
  6
CONTINUOUS
 10
72.4881896647
 20
127.2617579116
  0
VERTEX
  8
SURFACE
 62
7
  6
CONTINUOUS
 10
72.4387958368
 20
127.0009856596
  0
VERTEX
  8
SURFACE
 62
7
  6
CONTINUOUS
 10
72.3939612266
 20
126.7307140173
  0
VERTEX
  8
SURFACE
 62
7
  6
CONTINUOUS
 10
72.3537186279
 20
126.4518169736
  0
VERTEX
  8
SURFACE
 62
7
  6
CONTINUOUS
 10
72.3181054196
 20
126.1651621785
  0
VERTEX
  8
SURFACE
 62
7
  6
CONTINUOUS
 10
72.2871617316
 20
125.8716116534
  0
VERTEX
  8
SURFACE
 62
7
  6
CONTINUOUS
 10
72.2655925406
 20
125.6299000798
  0
SEQEND
  0
POLYLINE
  8
SURFACE
 62
7
  6
CONTINUOUS
 66
1
 70
0
  0
VERTEX
  8
SURFACE
 62
7
  6
CONTINUOUS
 10
86.3194930403
 20
129.3773292901
  0
VERTEX
  8
SURFACE
 62
7
  6
CONTINUOUS
 10
86.2307478822
 20
129.3499295452
  0
VERTEX
  8
SURFACE
 62
7
  6
CONTINUOUS
 10
86.1322620836
 20
129.3019588102
  0
VERTEX
  8
SURFACE
 62
7
  6
CONTINUOUS
 10
86.0362037933
 20
129.2356893655
  0
VERTEX
  8
SURFACE
 62
7
  6
CONTINUOUS
 10
85.9417561718
 20
129.1496187351
  0
VERTEX
  8
SURFACE
 62
7
  6
CONTINUOUS
 10
85.8476799361
 20
129.0407501521
  0
VERTEX
  8
SURFACE
 62
7
  6
CONTINUOUS
 10
85.7544404599
 20
128.9072133098
  0
VERTEX
  8
SURFACE
 62
7
  6
CONTINUOUS
 10
85.6647449275
 20
128.7515927589
  0
VERTEX
  8
SURFACE
 62
7
  6
CONTINUOUS
 10
85.5809535739
 20
128.5789865854
  0
VERTEX
  8
SURFACE
 62
7
  6
CONTINUOUS
 10
85.5033456845
 20
128.3924157883
  0
VERTEX
  8
SURFACE
 62
7
  6
CONTINUOUS
 10
85.4310661922
 20
128.1921520195
  0
VERTEX
  8
SURFACE
 62
7
  6
CONTINUOUS
 10
85.3635388457
 20
127.9782470205
  0
VERTEX
  8
SURFACE
 62
7
  6
CONTINUOUS
 10
85.3005684182
 20
127.7512885085
  0
VERTEX
  8
SURFACE
 62
7
  6
CONTINUOUS
 10
85.2421186049
 20
127.5121558163
  0
VERTEX
  8
SURFACE
 62
7
  6
CONTINUOUS
 10
85.1881896647
 20
127.2617579116
  0
VERTEX
  8
SURFACE
 62
7
  6
CONTINUOUS
 10
85.1387958368
 20
127.0009856596
  0
VERTEX
  8
SURFACE
 62
7
  6
CONTINUOUS
 10
85.0939612266
 20
126.7307140173
  0
VERTEX
  8
SURFACE
 62
7
  6
CONTINUOUS
 10
85.0537186279
 20
126.4518169736
  0
VERTEX
  8
SURFACE
 62
7
  6
CONTINUOUS
 10
85.0181054196
 20
126.1651621785
  0
VERTEX
  8
SURFACE
 62
7
  6
CONTINUOUS
 10
84.9871617316
 20
125.8716116534
  0
VERTEX
  8
SURFACE
 62
7
  6
CONTINUOUS
 10
84.9655925406
 20
125.6299000798
  0
SEQEND
  0
LINE
  8
SURFACE
 62
7
  6
CONTINUOUS
 10
159.630436371
 20
93.307025161
 11
159.6303977317
 21
93.3070163428
  0
LINE
  8
SURFACE
 62
7
  6
CONTINUOUS
 10
146.930436371
 20
93.307025161
 11
146.9303977317
 21
93.3070163428
  0
LINE
  8
SURFACE
 62
7
  6
CONTINUOUS
 10
134.230436371
 20
93.307025161
 11
134.2303977317
 21
93.3070163428
  0
LINE
  8
SURFACE
 62
7
  6
CONTINUOUS
 10
121.530436371
 20
93.307025161
 11
121.5303977317
 21
93.3070163428
  0
LINE
  8
SURFACE
 62
7
  6
CONTINUOUS
 10
108.830436371
 20
93.307025161
 11
108.8303977317
 21
93.3070163428
  0
LINE
  8
SURFACE
 62
7
  6
CONTINUOUS
 10
96.130436371
 20
93.307025161
 11
96.1303977317
 21
93.3070163428
  0
LINE
  8
SURFACE
 62
7
  6
CONTINUOUS
 10
159.6068770324
 20
93.3020393776
 11
159.630436371
 21
93.307025161
  0
LINE
  8
SURFACE
 62
7
  6
CONTINUOUS
 10
146.9068770324
 20
93.3020393776
 11
146.930436371
 21
93.307025161
  0
LINE
  8
SURFACE
 62
7
  6
CONTINUOUS
 10
134.2068770324
 20
93.3020393776
 11
134.230436371
 21
93.307025161
  0
LINE
  8
SURFACE
 62
7
  6
CONTINUOUS
 10
121.5068770324
 20
93.3020393776
 11
121.530436371
 21
93.307025161
  0
LINE
  8
SURFACE
 62
7
  6
CONTINUOUS
 10
108.8068770324
 20
93.3020393776
 11
108.830436371
 21
93.307025161
  0
LINE
  8
SURFACE
 62
7
  6
CONTINUOUS
 10
96.1068770324
 20
93.3020393776
 11
96.130436371
 21
93.307025161
  0
POLYLINE
  8
SURFACE
 62
7
  6
CONTINUOUS
 66
1
 70
0
  0
VERTEX
  8
SURFACE
 62
7
  6
CONTINUOUS
 10
159.5128392161
 20
93.2921721023
  0
VERTEX
  8
SURFACE
 62
7
  6
CONTINUOUS
 10
159.537993437
 20
93.2929544631
  0
VERTEX
  8
SURFACE
 62
7
  6
CONTINUOUS
 10
159.572539546
 20
93.2963655638
  0
VERTEX
  8
SURFACE
 62
7
  6
CONTINUOUS
 10
159.6068770324
 20
93.3020393776
  0
SEQEND
  0
POLYLINE
  8
SURFACE
 62
7
  6
CONTINUOUS
 66
1
 70
0
  0
VERTEX
  8
SURFACE
 62
7
  6
CONTINUOUS
 10
146.8128392161
 20
93.2921721023
  0
VERTEX
  8
SURFACE
 62
7
  6
CONTINUOUS
 10
146.837993437
 20
93.2929544631
  0
VERTEX
  8
SURFACE
 62
7
  6
CONTINUOUS
 10
146.872539546
 20
93.2963655638
  0
VERTEX
  8
SURFACE
 62
7
  6
CONTINUOUS
 10
146.9068770324
 20
93.3020393776
  0
SEQEND
  0
POLYLINE
  8
SURFACE
 62
7
  6
CONTINUOUS
 66
1
 70
0
  0
VERTEX
  8
SURFACE
 62
7
  6
CONTINUOUS
 10
134.1128392161
 20
93.2921721023
  0
VERTEX
  8
SURFACE
 62
7
  6
CONTINUOUS
 10
134.137993437
 20
93.2929544631
  0
VERTEX
  8
SURFACE
 62
7
  6
CONTINUOUS
 10
134.172539546
 20
93.2963655638
  0
VERTEX
  8
SURFACE
 62
7
  6
CONTINUOUS
 10
134.2068770324
 20
93.3020393776
  0
SEQEND
  0
POLYLINE
  8
SURFACE
 62
7
  6
CONTINUOUS
 66
1
 70
0
  0
VERTEX
  8
SURFACE
 62
7
  6
CONTINUOUS
 10
121.4128392161
 20
93.2921721023
  0
VERTEX
  8
SURFACE
 62
7
  6
CONTINUOUS
 10
121.437993437
 20
93.2929544631
  0
VERTEX
  8
SURFACE
 62
7
  6
CONTINUOUS
 10
121.472539546
 20
93.2963655638
  0
VERTEX
  8
SURFACE
 62
7
  6
CONTINUOUS
 10
121.5068770324
 20
93.3020393776
  0
SEQEND
  0
POLYLINE
  8
SURFACE
 62
7
  6
CONTINUOUS
 66
1
 70
0
  0
VERTEX
  8
SURFACE
 62
7
  6
CONTINUOUS
 10
108.7128392161
 20
93.2921721023
  0
VERTEX
  8
SURFACE
 62
7
  6
CONTINUOUS
 10
108.737993437
 20
93.2929544631
  0
VERTEX
  8
SURFACE
 62
7
  6
CONTINUOUS
 10
108.772539546
 20
93.2963655638
  0
VERTEX
  8
SURFACE
 62
7
  6
CONTINUOUS
 10
108.8068770324
 20
93.3020393776
  0
SEQEND
  0
POLYLINE
  8
SURFACE
 62
7
  6
CONTINUOUS
 66
1
 70
0
  0
VERTEX
  8
SURFACE
 62
7
  6
CONTINUOUS
 10
96.0128392161
 20
93.2921721023
  0
VERTEX
  8
SURFACE
 62
7
  6
CONTINUOUS
 10
96.037993437
 20
93.2929544631
  0
VERTEX
  8
SURFACE
 62
7
  6
CONTINUOUS
 10
96.072539546
 20
93.2963655638
  0
VERTEX
  8
SURFACE
 62
7
  6
CONTINUOUS
 10
96.1068770324
 20
93.3020393776
  0
SEQEND
  0
LINE
  8
0
 62
7
  6
CONTINUOUS
 10
19.8129857876
 20
93.2921720986
 11
15.4549570208
 21
93.2921720986
  0
LINE
  8
SURFACE
 62
7
  6
CONTINUOUS
 10
29.3089063144
 20
93.2921720986
 11
32.5129857876
 21
93.2921720986
  0
LINE
  8
SURFACE
 62
7
  6
CONTINUOUS
 10
42.0089063144
 20
93.2921720986
 11
45.2129857876
 21
93.2921720986
  0
LINE
  8
SURFACE
 62
7
  6
CONTINUOUS
 10
54.7089063144
 20
93.2921720986
 11
57.9129857876
 21
93.2921720986
  0
LINE
  8
SURFACE
 62
7
  6
CONTINUOUS
 10
67.4089063144
 20
93.2921720986
 11
70.6129857876
 21
93.2921720986
  0
LINE
  8
SURFACE
 62
7
  6
CONTINUOUS
 10
80.1089063144
 20
93.2921720986
 11
83.3129857876
 21
93.2921720986
  0
LINE
  8
SURFACE
 62
7
  6
CONTINUOUS
 10
92.8089063144
 20
93.2921720986
 11
96.0129857876
 21
93.2921720986
  0
LINE
  8
SURFACE
 62
7
  6
CONTINUOUS
 10
105.5089063144
 20
93.2921720986
 11
108.7129857876
 21
93.2921720986
  0
LINE
  8
SURFACE
 62
7
  6
CONTINUOUS
 10
118.2089063144
 20
93.2921720986
 11
121.4129857876
 21
93.2921720986
  0
LINE
  8
SURFACE
 62
7
  6
CONTINUOUS
 10
130.9089063144
 20
93.2921720986
 11
134.1129857876
 21
93.2921720986
  0
LINE
  8
SURFACE
 62
7
  6
CONTINUOUS
 10
143.6089063144
 20
93.2921720986
 11
146.8129857876
 21
93.2921720986
  0
LINE
  8
SURFACE
 62
7
  6
CONTINUOUS
 10
156.3089063144
 20
93.2921720986
 11
159.5129857876
 21
93.2921720986
  0
POLYLINE
  8
SURFACE
 62
7
  6
CONTINUOUS
 66
1
 70
0
  0
VERTEX
  8
SURFACE
 62
7
  6
CONTINUOUS
 10
29.2157708688
 20
93.3018929085
  0
VERTEX
  8
SURFACE
 62
7
  6
CONTINUOUS
 10
29.2499265027
 20
93.2962887561
  0
VERTEX
  8
SURFACE
 62
7
  6
CONTINUOUS
 10
29.2842981128
 20
93.2929302167
  0
VERTEX
  8
SURFACE
 62
7
  6
CONTINUOUS
 10
29.3090527462
 20
93.2921721023
  0
SEQEND
  0
POLYLINE
  8
SURFACE
 62
7
  6
CONTINUOUS
 66
1
 70
0
  0
VERTEX
  8
SURFACE
 62
7
  6
CONTINUOUS
 10
41.9157708688
 20
93.3018929085
  0
VERTEX
  8
SURFACE
 62
7
  6
CONTINUOUS
 10
41.9499265027
 20
93.2962887561
  0
VERTEX
  8
SURFACE
 62
7
  6
CONTINUOUS
 10
41.9842981128
 20
93.2929302167
  0
VERTEX
  8
SURFACE
 62
7
  6
CONTINUOUS
 10
42.0090527462
 20
93.2921721023
  0
SEQEND
  0
POLYLINE
  8
SURFACE
 62
7
  6
CONTINUOUS
 66
1
 70
0
  0
VERTEX
  8
SURFACE
 62
7
  6
CONTINUOUS
 10
54.6157708688
 20
93.3018929085
  0
VERTEX
  8
SURFACE
 62
7
  6
CONTINUOUS
 10
54.6499265027
 20
93.2962887561
  0
VERTEX
  8
SURFACE
 62
7
  6
CONTINUOUS
 10
54.6842981128
 20
93.2929302167
  0
VERTEX
  8
SURFACE
 62
7
  6
CONTINUOUS
 10
54.7090527462
 20
93.2921721023
  0
SEQEND
  0
POLYLINE
  8
SURFACE
 62
7
  6
CONTINUOUS
 66
1
 70
0
  0
VERTEX
  8
SURFACE
 62
7
  6
CONTINUOUS
 10
67.3157708688
 20
93.3018929085
  0
VERTEX
  8
SURFACE
 62
7
  6
CONTINUOUS
 10
67.3499265027
 20
93.2962887561
  0
VERTEX
  8
SURFACE
 62
7
  6
CONTINUOUS
 10
67.3842981128
 20
93.2929302167
  0
VERTEX
  8
SURFACE
 62
7
  6
CONTINUOUS
 10
67.4090527462
 20
93.2921721023
  0
SEQEND
  0
POLYLINE
  8
SURFACE
 62
7
  6
CONTINUOUS
 66
1
 70
0
  0
VERTEX
  8
SURFACE
 62
7
  6
CONTINUOUS
 10
80.0157708688
 20
93.3018929085
  0
VERTEX
  8
SURFACE
 62
7
  6
CONTINUOUS
 10
80.0499265027
 20
93.2962887561
  0
VERTEX
  8
SURFACE
 62
7
  6
CONTINUOUS
 10
80.0842981128
 20
93.2929302167
  0
VERTEX
  8
SURFACE
 62
7
  6
CONTINUOUS
 10
80.1090527462
 20
93.2921721023
  0
SEQEND
  0
LINE
  8
SURFACE
 62
7
  6
CONTINUOUS
 10
29.1914563781
 20
93.3070247843
 11
29.2157708688
 21
93.3018929085
  0
LINE
  8
SURFACE
 62
7
  6
CONTINUOUS
 10
41.8914563781
 20
93.3070247843
 11
41.9157708688
 21
93.3018929085
  0
LINE
  8
SURFACE
 62
7
  6
CONTINUOUS
 10
54.5914563781
 20
93.3070247843
 11
54.6157708688
 21
93.3018929085
  0
LINE
  8
SURFACE
 62
7
  6
CONTINUOUS
 10
67.2914563781
 20
93.3070247843
 11
67.3157708688
 21
93.3018929085
  0
LINE
  8
SURFACE
 62
7
  6
CONTINUOUS
 10
79.9914563781
 20
93.3070247843
 11
80.0157708688
 21
93.3018929085
  0
POLYLINE
  8
SURFACE
 62
7
  6
CONTINUOUS
 66
1
 70
0
  0
VERTEX
  8
SURFACE
 62
7
  6
CONTINUOUS
 10
78.637592541
 20
97.0544441123
  0
VERTEX
  8
SURFACE
 62
7
  6
CONTINUOUS
 10
78.6593924789
 20
96.8103400212
  0
VERTEX
  8
SURFACE
 62
7
  6
CONTINUOUS
 10
78.6903677575
 20
96.5168959248
  0
VERTEX
  8
SURFACE
 62
7
  6
CONTINUOUS
 10
78.7260099613
 20
96.2303556641
  0
VERTEX
  8
SURFACE
 62
7
  6
CONTINUOUS
 10
78.7662791835
 20
95.9515780547
  0
VERTEX
  8
SURFACE
 62
7
  6
CONTINUOUS
 10
78.8111384335
 20
95.6814278337
  0
VERTEX
  8
SURFACE
 62
7
  6
CONTINUOUS
 10
78.8605554646
 20
95.4207764554
  0
VERTEX
  8
SURFACE
 62
7
  6
CONTINUOUS
 10
78.9145068595
 20
95.1704968574
  0
VERTEX
  8
SURFACE
 62
7
  6
CONTINUOUS
 10
78.9729782173
 20
94.9314822115
  0
VERTEX
  8
SURFACE
 62
7
  6
CONTINUOUS
 10
79.0359673793
 20
94.7046488977
  0
VERTEX
  8
SURFACE
 62
7
  6
CONTINUOUS
 10
79.1035081893
 20
94.4908819335
  0
VERTEX
  8
SURFACE
 62
7
  6
CONTINUOUS
 10
79.1757968659
 20
94.2907625292
  0
VERTEX
  8
SURFACE
 62
7
  6
CONTINUOUS
 10
79.2534224286
 20
94.104312083
  0
VERTEX
  8
SURFACE
 62
7
  6
CONTINUOUS
 10
79.3372570563
 20
93.9317808531
  0
VERTEX
  8
SURFACE
 62
7
  6
CONTINUOUS
 10
79.4270209454
 20
93.7762140669
  0
VERTEX
  8
SURFACE
 62
7
  6
CONTINUOUS
 10
79.5203340727
 20
93.6427509206
  0
VERTEX
  8
SURFACE
 62
7
  6
CONTINUOUS
 10
79.6144718948
 20
93.5339891331
  0
VERTEX
  8
SURFACE
 62
7
  6
CONTINUOUS
 10
79.7089870607
 20
93.4480309935
  0
VERTEX
  8
SURFACE
 62
7
  6
CONTINUOUS
 10
79.8051232384
 20
93.3818812781
  0
VERTEX
  8
SURFACE
 62
7
  6
CONTINUOUS
 10
79.9036951663
 20
93.3340451902
  0
VERTEX
  8
SURFACE
 62
7
  6
CONTINUOUS
 10
79.9914851627
 20
93.3070168773
  0
SEQEND
  0
POLYLINE
  8
SURFACE
 62
7
  6
CONTINUOUS
 66
1
 70
0
  0
VERTEX
  8
SURFACE
 62
7
  6
CONTINUOUS
 10
78.4122985582
 20
125.6299000848
  0
VERTEX
  8
SURFACE
 62
7
  6
CONTINUOUS
 10
78.3904986203
 20
125.874004176
  0
VERTEX
  8
SURFACE
 62
7
  6
CONTINUOUS
 10
78.3595233418
 20
126.1674482724
  0
VERTEX
  8
SURFACE
 62
7
  6
CONTINUOUS
 10
78.323881138
 20
126.453988533
  0
VERTEX
  8
SURFACE
 62
7
  6
CONTINUOUS
 10
78.2836119157
 20
126.7327661424
  0
VERTEX
  8
SURFACE
 62
7
  6
CONTINUOUS
 10
78.2387526658
 20
127.0029163634
  0
VERTEX
  8
SURFACE
 62
7
  6
CONTINUOUS
 10
78.1893356347
 20
127.2635677417
  0
VERTEX
  8
SURFACE
 62
7
  6
CONTINUOUS
 10
78.1353842398
 20
127.5138473397
  0
VERTEX
  8
SURFACE
 62
7
  6
CONTINUOUS
 10
78.076912882
 20
127.7528619856
  0
VERTEX
  8
SURFACE
 62
7
  6
CONTINUOUS
 10
78.01392372
 20
127.9796952994
  0
VERTEX
  8
SURFACE
 62
7
  6
CONTINUOUS
 10
77.94638291
 20
128.1934622636
  0
VERTEX
  8
SURFACE
 62
7
  6
CONTINUOUS
 10
77.8740942334
 20
128.3935816679
  0
VERTEX
  8
SURFACE
 62
7
  6
CONTINUOUS
 10
77.7964686707
 20
128.5800321142
  0
VERTEX
  8
SURFACE
 62
7
  6
CONTINUOUS
 10
77.712634043
 20
128.752563344
  0
VERTEX
  8
SURFACE
 62
7
  6
CONTINUOUS
 10
77.6228701539
 20
128.9081301302
  0
VERTEX
  8
SURFACE
 62
7
  6
CONTINUOUS
 10
77.5295570266
 20
129.0415932765
  0
VERTEX
  8
SURFACE
 62
7
  6
CONTINUOUS
 10
77.4354192045
 20
129.150355064
  0
VERTEX
  8
SURFACE
 62
7
  6
CONTINUOUS
 10
77.3409040386
 20
129.2363132036
  0
VERTEX
  8
SURFACE
 62
7
  6
CONTINUOUS
 10
77.2447678609
 20
129.302462919
  0
VERTEX
  8
SURFACE
 62
7
  6
CONTINUOUS
 10
77.146195933
 20
129.3502990069
  0
VERTEX
  8
SURFACE
 62
7
  6
CONTINUOUS
 10
77.0584059366
 20
129.3773273198
  0
SEQEND
  0
POLYLINE
  8
SURFACE
 62
7
  6
CONTINUOUS
 66
1
 70
0
  0
VERTEX
  8
SURFACE
 62
7
  6
CONTINUOUS
 10
91.337592541
 20
97.0544441123
  0
VERTEX
  8
SURFACE
 62
7
  6
CONTINUOUS
 10
91.3593924789
 20
96.8103400212
  0
VERTEX
  8
SURFACE
 62
7
  6
CONTINUOUS
 10
91.3903677575
 20
96.5168959248
  0
VERTEX
  8
SURFACE
 62
7
  6
CONTINUOUS
 10
91.4260099613
 20
96.2303556641
  0
VERTEX
  8
SURFACE
 62
7
  6
CONTINUOUS
 10
91.4662791835
 20
95.9515780547
  0
VERTEX
  8
SURFACE
 62
7
  6
CONTINUOUS
 10
91.5111384335
 20
95.6814278337
  0
VERTEX
  8
SURFACE
 62
7
  6
CONTINUOUS
 10
91.5605554646
 20
95.4207764554
  0
VERTEX
  8
SURFACE
 62
7
  6
CONTINUOUS
 10
91.6145068595
 20
95.1704968574
  0
VERTEX
  8
SURFACE
 62
7
  6
CONTINUOUS
 10
91.6729782173
 20
94.9314822115
  0
VERTEX
  8
SURFACE
 62
7
  6
CONTINUOUS
 10
91.7359673793
 20
94.7046488977
  0
VERTEX
  8
SURFACE
 62
7
  6
CONTINUOUS
 10
91.8035081893
 20
94.4908819335
  0
VERTEX
  8
SURFACE
 62
7
  6
CONTINUOUS
 10
91.8757968659
 20
94.2907625292
  0
VERTEX
  8
SURFACE
 62
7
  6
CONTINUOUS
 10
91.9534224286
 20
94.104312083
  0
VERTEX
  8
SURFACE
 62
7
  6
CONTINUOUS
 10
92.0372570563
 20
93.9317808531
  0
VERTEX
  8
SURFACE
 62
7
  6
CONTINUOUS
 10
92.1270209454
 20
93.7762140669
  0
VERTEX
  8
SURFACE
 62
7
  6
CONTINUOUS
 10
92.2203340727
 20
93.6427509206
  0
VERTEX
  8
SURFACE
 62
7
  6
CONTINUOUS
 10
92.3144718948
 20
93.5339891331
  0
VERTEX
  8
SURFACE
 62
7
  6
CONTINUOUS
 10
92.4089870607
 20
93.4480309935
  0
VERTEX
  8
SURFACE
 62
7
  6
CONTINUOUS
 10
92.5051232384
 20
93.3818812781
  0
VERTEX
  8
SURFACE
 62
7
  6
CONTINUOUS
 10
92.6036951663
 20
93.3340451902
  0
VERTEX
  8
SURFACE
 62
7
  6
CONTINUOUS
 10
92.6914851627
 20
93.3070168773
  0
SEQEND
  0
POLYLINE
  8
SURFACE
 62
7
  6
CONTINUOUS
 66
1
 70
0
  0
VERTEX
  8
SURFACE
 62
7
  6
CONTINUOUS
 10
91.1122985582
 20
125.6299000848
  0
VERTEX
  8
SURFACE
 62
7
  6
CONTINUOUS
 10
91.0904986203
 20
125.874004176
  0
VERTEX
  8
SURFACE
 62
7
  6
CONTINUOUS
 10
91.0595233418
 20
126.1674482724
  0
VERTEX
  8
SURFACE
 62
7
  6
CONTINUOUS
 10
91.023881138
 20
126.453988533
  0
VERTEX
  8
SURFACE
 62
7
  6
CONTINUOUS
 10
90.9836119157
 20
126.7327661424
  0
VERTEX
  8
SURFACE
 62
7
  6
CONTINUOUS
 10
90.9387526658
 20
127.0029163634
  0
VERTEX
  8
SURFACE
 62
7
  6
CONTINUOUS
 10
90.8893356347
 20
127.2635677417
  0
VERTEX
  8
SURFACE
 62
7
  6
CONTINUOUS
 10
90.8353842398
 20
127.5138473397
  0
VERTEX
  8
SURFACE
 62
7
  6
CONTINUOUS
 10
90.776912882
 20
127.7528619856
  0
VERTEX
  8
SURFACE
 62
7
  6
CONTINUOUS
 10
90.71392372
 20
127.9796952994
  0
VERTEX
  8
SURFACE
 62
7
  6
CONTINUOUS
 10
90.64638291
 20
128.1934622636
  0
VERTEX
  8
SURFACE
 62
7
  6
CONTINUOUS
 10
90.5740942334
 20
128.3935816679
  0
VERTEX
  8
SURFACE
 62
7
  6
CONTINUOUS
 10
90.4964686707
 20
128.5800321142
  0
VERTEX
  8
SURFACE
 62
7
  6
CONTINUOUS
 10
90.412634043
 20
128.752563344
  0
VERTEX
  8
SURFACE
 62
7
  6
CONTINUOUS
 10
90.3228701539
 20
128.9081301302
  0
VERTEX
  8
SURFACE
 62
7
  6
CONTINUOUS
 10
90.2295570266
 20
129.0415932765
  0
VERTEX
  8
SURFACE
 62
7
  6
CONTINUOUS
 10
90.1354192045
 20
129.150355064
  0
VERTEX
  8
SURFACE
 62
7
  6
CONTINUOUS
 10
90.0409040386
 20
129.2363132036
  0
VERTEX
  8
SURFACE
 62
7
  6
CONTINUOUS
 10
89.9447678609
 20
129.302462919
  0
VERTEX
  8
SURFACE
 62
7
  6
CONTINUOUS
 10
89.846195933
 20
129.3502990069
  0
VERTEX
  8
SURFACE
 62
7
  6
CONTINUOUS
 10
89.7584059366
 20
129.3773273198
  0
SEQEND
  0
LINE
  8
SURFACE
 62
7
  6
CONTINUOUS
 10
78.6375925384
 20
97.0544428351
 11
78.6375718103
 21
97.0549509616
  0
LINE
  8
SURFACE
 62
7
  6
CONTINUOUS
 10
78.4122985608
 20
125.629901362
 11
78.4123192889
 21
125.6293932355
  0
LINE
  8
SURFACE
 62
7
  6
CONTINUOUS
 10
91.3375925384
 20
97.0544428351
 11
91.3375718103
 21
97.0549509616
  0
LINE
  8
SURFACE
 62
7
  6
CONTINUOUS
 10
91.1122985608
 20
125.629901362
 11
91.1123192889
 21
125.6293932355
  0
LINE
  8
SURFACE
 62
7
  6
CONTINUOUS
 10
78.4123192892
 20
125.6293587637
 11
78.4123192892
 21
121.0650884439
  0
LINE
  8
SURFACE
 62
7
  6
CONTINUOUS
 10
78.6375718101
 20
97.0549854334
 11
78.6375718101
 21
101.6192557533
  0
LINE
  8
SURFACE
 62
7
  6
CONTINUOUS
 10
84.7843192892
 20
97.0549854332
 11
84.7843192892
 21
101.6192600041
  0
LINE
  8
SURFACE
 62
7
  6
CONTINUOUS
 10
84.9655718101
 20
125.6293587639
 11
84.9655718101
 21
121.0650841931
  0
LINE
  8
SURFACE
 62
7
  6
CONTINUOUS
 10
91.1123192892
 20
125.6293587637
 11
91.1123192892
 21
121.0650884439
  0
LINE
  8
DEFAULT_1
 62
2
  6
CENTER
 10
91.2249455496
 20
133.3497467077
 11
91.2249455496
 21
113.3422720986
  0
LINE
  8
0
 62
2
  6
CONTINUOUS
 10
91.2249455496
 20
112.2221720986
 11
91.2249455496
 21
110.4621720986
  0
LINE
  8
DEFAULT_1
 62
2
  6
CENTER
 10
91.2249455496
 20
91.0517247297
 11
91.2249455496
 21
109.3420720986
  0
LINE
  8
SURFACE
 62
7
  6
CONTINUOUS
 10
91.3375718101
 20
97.0549854334
 11
91.3375718101
 21
101.6192557533
  0
LINE
  8
SURFACE
 62
7
  6
CONTINUOUS
 10
84.965592538
 20
125.6299013571
 11
84.9655718103
 21
125.6293932357
  0
LINE
  8
SURFACE
 62
7
  6
CONTINUOUS
 10
84.7842985613
 20
97.05444284
 11
84.7843192889
 21
97.0549509614
  0
POLYLINE
  8
SURFACE
 62
7
  6
CONTINUOUS
 66
1
 70
0
  0
VERTEX
  8
SURFACE
 62
7
  6
CONTINUOUS
 10
84.9655718988
 20
121.0652970546
  0
VERTEX
  8
SURFACE
 62
7
  6
CONTINUOUS
 10
84.9644768015
 20
121.0468498989
  0
VERTEX
  8
SURFACE
 62
7
  6
CONTINUOUS
 10
84.9601298199
 20
121.0244753058
  0
VERTEX
  8
SURFACE
 62
7
  6
CONTINUOUS
 10
84.9525769463
 20
121.0030205468
  0
VERTEX
  8
SURFACE
 62
7
  6
CONTINUOUS
 10
84.9420796276
 20
120.9830815616
  0
VERTEX
  8
SURFACE
 62
7
  6
CONTINUOUS
 10
84.929042059
 20
120.9651711788
  0
VERTEX
  8
SURFACE
 62
7
  6
CONTINUOUS
 10
84.9139762735
 20
120.9496777034
  0
VERTEX
  8
SURFACE
 62
7
  6
CONTINUOUS
 10
84.8974386945
 20
120.9368302343
  0
VERTEX
  8
SURFACE
 62
7
  6
CONTINUOUS
 10
84.8800124239
 20
120.9267259105
  0
VERTEX
  8
SURFACE
 62
7
  6
CONTINUOUS
 10
84.8622716596
 20
120.919331516
  0
VERTEX
  8
SURFACE
 62
7
  6
CONTINUOUS
 10
84.8448467316
 20
120.9145175305
  0
VERTEX
  8
SURFACE
 62
7
  6
CONTINUOUS
 10
84.8284740058
 20
120.9120305351
  0
VERTEX
  8
SURFACE
 62
7
  6
CONTINUOUS
 10
84.8156278229
 20
120.9114291644
  0
SEQEND
  0
POLYLINE
  8
SURFACE
 62
7
  6
CONTINUOUS
 66
1
 70
0
  0
VERTEX
  8
SURFACE
 62
7
  6
CONTINUOUS
 10
84.7843192005
 20
101.6190471425
  0
VERTEX
  8
SURFACE
 62
7
  6
CONTINUOUS
 10
84.7854142978
 20
101.6374942983
  0
VERTEX
  8
SURFACE
 62
7
  6
CONTINUOUS
 10
84.7897612794
 20
101.6598688913
  0
VERTEX
  8
SURFACE
 62
7
  6
CONTINUOUS
 10
84.797314153
 20
101.6813236503
  0
VERTEX
  8
SURFACE
 62
7
  6
CONTINUOUS
 10
84.8078114716
 20
101.7012626356
  0
VERTEX
  8
SURFACE
 62
7
  6
CONTINUOUS
 10
84.8208490403
 20
101.7191730184
  0
VERTEX
  8
SURFACE
 62
7
  6
CONTINUOUS
 10
84.8359148258
 20
101.7346664937
  0
VERTEX
  8
SURFACE
 62
7
  6
CONTINUOUS
 10
84.8524524048
 20
101.7475139628
  0
VERTEX
  8
SURFACE
 62
7
  6
CONTINUOUS
 10
84.8698786754
 20
101.7576182866
  0
VERTEX
  8
SURFACE
 62
7
  6
CONTINUOUS
 10
84.8876194397
 20
101.7650126812
  0
VERTEX
  8
SURFACE
 62
7
  6
CONTINUOUS
 10
84.9050443677
 20
101.7698266667
  0
VERTEX
  8
SURFACE
 62
7
  6
CONTINUOUS
 10
84.9214170935
 20
101.772313662
  0
VERTEX
  8
SURFACE
 62
7
  6
CONTINUOUS
 10
84.9342632764
 20
101.7729150327
  0
SEQEND
  0
POLYLINE
  8
SURFACE
 62
7
  6
CONTINUOUS
 66
1
 70
0
  0
VERTEX
  8
SURFACE
 62
7
  6
CONTINUOUS
 10
99.0194930403
 20
129.3773292901
  0
VERTEX
  8
SURFACE
 62
7
  6
CONTINUOUS
 10
98.9307478822
 20
129.3499295452
  0
VERTEX
  8
SURFACE
 62
7
  6
CONTINUOUS
 10
98.8322620836
 20
129.3019588102
  0
VERTEX
  8
SURFACE
 62
7
  6
CONTINUOUS
 10
98.7362037933
 20
129.2356893655
  0
VERTEX
  8
SURFACE
 62
7
  6
CONTINUOUS
 10
98.6417561718
 20
129.1496187351
  0
VERTEX
  8
SURFACE
 62
7
  6
CONTINUOUS
 10
98.5476799361
 20
129.0407501521
  0
VERTEX
  8
SURFACE
 62
7
  6
CONTINUOUS
 10
98.4544404599
 20
128.9072133098
  0
VERTEX
  8
SURFACE
 62
7
  6
CONTINUOUS
 10
98.3647449276
 20
128.7515927589
  0
VERTEX
  8
SURFACE
 62
7
  6
CONTINUOUS
 10
98.2809535739
 20
128.5789865854
  0
VERTEX
  8
SURFACE
 62
7
  6
CONTINUOUS
 10
98.2033456845
 20
128.3924157883
  0
VERTEX
  8
SURFACE
 62
7
  6
CONTINUOUS
 10
98.1310661922
 20
128.1921520195
  0
VERTEX
  8
SURFACE
 62
7
  6
CONTINUOUS
 10
98.0635388457
 20
127.9782470205
  0
VERTEX
  8
SURFACE
 62
7
  6
CONTINUOUS
 10
98.0005684182
 20
127.7512885085
  0
VERTEX
  8
SURFACE
 62
7
  6
CONTINUOUS
 10
97.9421186049
 20
127.5121558163
  0
VERTEX
  8
SURFACE
 62
7
  6
CONTINUOUS
 10
97.8881896647
 20
127.2617579116
  0
VERTEX
  8
SURFACE
 62
7
  6
CONTINUOUS
 10
97.8387958368
 20
127.0009856596
  0
VERTEX
  8
SURFACE
 62
7
  6
CONTINUOUS
 10
97.7939612266
 20
126.7307140173
  0
VERTEX
  8
SURFACE
 62
7
  6
CONTINUOUS
 10
97.7537186279
 20
126.4518169736
  0
VERTEX
  8
SURFACE
 62
7
  6
CONTINUOUS
 10
97.7181054196
 20
126.1651621785
  0
VERTEX
  8
SURFACE
 62
7
  6
CONTINUOUS
 10
97.6871617316
 20
125.8716116534
  0
VERTEX
  8
SURFACE
 62
7
  6
CONTINUOUS
 10
97.6655925406
 20
125.6299000798
  0
SEQEND
  0
POLYLINE
  8
SURFACE
 62
7
  6
CONTINUOUS
 66
1
 70
0
  0
VERTEX
  8
SURFACE
 62
7
  6
CONTINUOUS
 10
111.7194930403
 20
129.3773292901
  0
VERTEX
  8
SURFACE
 62
7
  6
CONTINUOUS
 10
111.6307478822
 20
129.3499295452
  0
VERTEX
  8
SURFACE
 62
7
  6
CONTINUOUS
 10
111.5322620836
 20
129.3019588102
  0
VERTEX
  8
SURFACE
 62
7
  6
CONTINUOUS
 10
111.4362037933
 20
129.2356893655
  0
VERTEX
  8
SURFACE
 62
7
  6
CONTINUOUS
 10
111.3417561718
 20
129.1496187351
  0
VERTEX
  8
SURFACE
 62
7
  6
CONTINUOUS
 10
111.2476799361
 20
129.0407501521
  0
VERTEX
  8
SURFACE
 62
7
  6
CONTINUOUS
 10
111.1544404599
 20
128.9072133098
  0
VERTEX
  8
SURFACE
 62
7
  6
CONTINUOUS
 10
111.0647449275
 20
128.7515927589
  0
VERTEX
  8
SURFACE
 62
7
  6
CONTINUOUS
 10
110.9809535739
 20
128.5789865854
  0
VERTEX
  8
SURFACE
 62
7
  6
CONTINUOUS
 10
110.9033456845
 20
128.3924157883
  0
VERTEX
  8
SURFACE
 62
7
  6
CONTINUOUS
 10
110.8310661922
 20
128.1921520195
  0
VERTEX
  8
SURFACE
 62
7
  6
CONTINUOUS
 10
110.7635388457
 20
127.9782470205
  0
VERTEX
  8
SURFACE
 62
7
  6
CONTINUOUS
 10
110.7005684182
 20
127.7512885085
  0
VERTEX
  8
SURFACE
 62
7
  6
CONTINUOUS
 10
110.6421186049
 20
127.5121558163
  0
VERTEX
  8
SURFACE
 62
7
  6
CONTINUOUS
 10
110.5881896647
 20
127.2617579116
  0
VERTEX
  8
SURFACE
 62
7
  6
CONTINUOUS
 10
110.5387958368
 20
127.0009856596
  0
VERTEX
  8
SURFACE
 62
7
  6
CONTINUOUS
 10
110.4939612266
 20
126.7307140173
  0
VERTEX
  8
SURFACE
 62
7
  6
CONTINUOUS
 10
110.4537186279
 20
126.4518169736
  0
VERTEX
  8
SURFACE
 62
7
  6
CONTINUOUS
 10
110.4181054196
 20
126.1651621785
  0
VERTEX
  8
SURFACE
 62
7
  6
CONTINUOUS
 10
110.3871617316
 20
125.8716116534
  0
VERTEX
  8
SURFACE
 62
7
  6
CONTINUOUS
 10
110.3655925406
 20
125.6299000798
  0
SEQEND
  0
POLYLINE
  8
SURFACE
 62
7
  6
CONTINUOUS
 66
1
 70
0
  0
VERTEX
  8
SURFACE
 62
7
  6
CONTINUOUS
 10
124.4194930403
 20
129.3773292901
  0
VERTEX
  8
SURFACE
 62
7
  6
CONTINUOUS
 10
124.3307478822
 20
129.3499295452
  0
VERTEX
  8
SURFACE
 62
7
  6
CONTINUOUS
 10
124.2322620836
 20
129.3019588102
  0
VERTEX
  8
SURFACE
 62
7
  6
CONTINUOUS
 10
124.1362037933
 20
129.2356893655
  0
VERTEX
  8
SURFACE
 62
7
  6
CONTINUOUS
 10
124.0417561718
 20
129.1496187351
  0
VERTEX
  8
SURFACE
 62
7
  6
CONTINUOUS
 10
123.9476799361
 20
129.0407501521
  0
VERTEX
  8
SURFACE
 62
7
  6
CONTINUOUS
 10
123.8544404599
 20
128.9072133098
  0
VERTEX
  8
SURFACE
 62
7
  6
CONTINUOUS
 10
123.7647449276
 20
128.7515927589
  0
VERTEX
  8
SURFACE
 62
7
  6
CONTINUOUS
 10
123.6809535739
 20
128.5789865854
  0
VERTEX
  8
SURFACE
 62
7
  6
CONTINUOUS
 10
123.6033456845
 20
128.3924157883
  0
VERTEX
  8
SURFACE
 62
7
  6
CONTINUOUS
 10
123.5310661922
 20
128.1921520195
  0
VERTEX
  8
SURFACE
 62
7
  6
CONTINUOUS
 10
123.4635388457
 20
127.9782470205
  0
VERTEX
  8
SURFACE
 62
7
  6
CONTINUOUS
 10
123.4005684182
 20
127.7512885085
  0
VERTEX
  8
SURFACE
 62
7
  6
CONTINUOUS
 10
123.3421186049
 20
127.5121558163
  0
VERTEX
  8
SURFACE
 62
7
  6
CONTINUOUS
 10
123.2881896647
 20
127.2617579116
  0
VERTEX
  8
SURFACE
 62
7
  6
CONTINUOUS
 10
123.2387958368
 20
127.0009856596
  0
VERTEX
  8
SURFACE
 62
7
  6
CONTINUOUS
 10
123.1939612266
 20
126.7307140173
  0
VERTEX
  8
SURFACE
 62
7
  6
CONTINUOUS
 10
123.1537186279
 20
126.4518169736
  0
VERTEX
  8
SURFACE
 62
7
  6
CONTINUOUS
 10
123.1181054196
 20
126.1651621785
  0
VERTEX
  8
SURFACE
 62
7
  6
CONTINUOUS
 10
123.0871617316
 20
125.8716116534
  0
VERTEX
  8
SURFACE
 62
7
  6
CONTINUOUS
 10
123.0655925406
 20
125.6299000798
  0
SEQEND
  0
POLYLINE
  8
SURFACE
 62
7
  6
CONTINUOUS
 66
1
 70
0
  0
VERTEX
  8
SURFACE
 62
7
  6
CONTINUOUS
 10
19.930398059
 20
93.3070149071
  0
VERTEX
  8
SURFACE
 62
7
  6
CONTINUOUS
 10
20.0191432171
 20
93.3344146519
  0
VERTEX
  8
SURFACE
 62
7
  6
CONTINUOUS
 10
20.1176290157
 20
93.3823853869
  0
VERTEX
  8
SURFACE
 62
7
  6
CONTINUOUS
 10
20.213687306
 20
93.4486548316
  0
VERTEX
  8
SURFACE
 62
7
  6
CONTINUOUS
 10
20.3081349274
 20
93.5347254621
  0
VERTEX
  8
SURFACE
 62
7
  6
CONTINUOUS
 10
20.4022111632
 20
93.643594045
  0
VERTEX
  8
SURFACE
 62
7
  6
CONTINUOUS
 10
20.4954506394
 20
93.7771308873
  0
VERTEX
  8
SURFACE
 62
7
  6
CONTINUOUS
 10
20.5851461717
 20
93.9327514382
  0
VERTEX
  8
SURFACE
 62
7
  6
CONTINUOUS
 10
20.6689375254
 20
94.1053576118
  0
VERTEX
  8
SURFACE
 62
7
  6
CONTINUOUS
 10
20.7465454147
 20
94.2919284088
  0
VERTEX
  8
SURFACE
 62
7
  6
CONTINUOUS
 10
20.8188249071
 20
94.4921921776
  0
VERTEX
  8
SURFACE
 62
7
  6
CONTINUOUS
 10
20.8863522536
 20
94.7060971766
  0
VERTEX
  8
SURFACE
 62
7
  6
CONTINUOUS
 10
20.9493226811
 20
94.9330556886
  0
VERTEX
  8
SURFACE
 62
7
  6
CONTINUOUS
 10
21.0077724943
 20
95.1721883809
  0
VERTEX
  8
SURFACE
 62
7
  6
CONTINUOUS
 10
21.0617014346
 20
95.4225862855
  0
VERTEX
  8
SURFACE
 62
7
  6
CONTINUOUS
 10
21.1110952625
 20
95.6833585375
  0
VERTEX
  8
SURFACE
 62
7
  6
CONTINUOUS
 10
21.1559298726
 20
95.9536301798
  0
VERTEX
  8
SURFACE
 62
7
  6
CONTINUOUS
 10
21.1961724714
 20
96.2325272235
  0
VERTEX
  8
SURFACE
 62
7
  6
CONTINUOUS
 10
21.2317856797
 20
96.5191820187
  0
VERTEX
  8
SURFACE
 62
7
  6
CONTINUOUS
 10
21.2627293677
 20
96.8127325437
  0
VERTEX
  8
SURFACE
 62
7
  6
CONTINUOUS
 10
21.2842985587
 20
97.0544441173
  0
SEQEND
  0
POLYLINE
  8
SURFACE
 62
7
  6
CONTINUOUS
 66
1
 70
0
  0
VERTEX
  8
SURFACE
 62
7
  6
CONTINUOUS
 10
137.1194930403
 20
129.3773292901
  0
VERTEX
  8
SURFACE
 62
7
  6
CONTINUOUS
 10
137.0307478822
 20
129.3499295452
  0
VERTEX
  8
SURFACE
 62
7
  6
CONTINUOUS
 10
136.9322620836
 20
129.3019588102
  0
VERTEX
  8
SURFACE
 62
7
  6
CONTINUOUS
 10
136.8362037933
 20
129.2356893655
  0
VERTEX
  8
SURFACE
 62
7
  6
CONTINUOUS
 10
136.7417561718
 20
129.1496187351
  0
VERTEX
  8
SURFACE
 62
7
  6
CONTINUOUS
 10
136.6476799361
 20
129.0407501521
  0
VERTEX
  8
SURFACE
 62
7
  6
CONTINUOUS
 10
136.5544404599
 20
128.9072133098
  0
VERTEX
  8
SURFACE
 62
7
  6
CONTINUOUS
 10
136.4647449275
 20
128.7515927589
  0
VERTEX
  8
SURFACE
 62
7
  6
CONTINUOUS
 10
136.3809535739
 20
128.5789865854
  0
VERTEX
  8
SURFACE
 62
7
  6
CONTINUOUS
 10
136.3033456845
 20
128.3924157883
  0
VERTEX
  8
SURFACE
 62
7
  6
CONTINUOUS
 10
136.2310661922
 20
128.1921520195
  0
VERTEX
  8
SURFACE
 62
7
  6
CONTINUOUS
 10
136.1635388457
 20
127.9782470205
  0
VERTEX
  8
SURFACE
 62
7
  6
CONTINUOUS
 10
136.1005684182
 20
127.7512885085
  0
VERTEX
  8
SURFACE
 62
7
  6
CONTINUOUS
 10
136.0421186049
 20
127.5121558163
  0
VERTEX
  8
SURFACE
 62
7
  6
CONTINUOUS
 10
135.9881896647
 20
127.2617579116
  0
VERTEX
  8
SURFACE
 62
7
  6
CONTINUOUS
 10
135.9387958368
 20
127.0009856596
  0
VERTEX
  8
SURFACE
 62
7
  6
CONTINUOUS
 10
135.8939612266
 20
126.7307140174
  0
VERTEX
  8
SURFACE
 62
7
  6
CONTINUOUS
 10
135.8537186279
 20
126.4518169736
  0
VERTEX
  8
SURFACE
 62
7
  6
CONTINUOUS
 10
135.8181054196
 20
126.1651621785
  0
VERTEX
  8
SURFACE
 62
7
  6
CONTINUOUS
 10
135.7871617316
 20
125.8716116534
  0
VERTEX
  8
SURFACE
 62
7
  6
CONTINUOUS
 10
135.7655925406
 20
125.6299000798
  0
SEQEND
  0
POLYLINE
  8
SURFACE
 62
7
  6
CONTINUOUS
 66
1
 70
0
  0
VERTEX
  8
SURFACE
 62
7
  6
CONTINUOUS
 10
32.630398059
 20
93.3070149071
  0
VERTEX
  8
SURFACE
 62
7
  6
CONTINUOUS
 10
32.7191432171
 20
93.3344146519
  0
VERTEX
  8
SURFACE
 62
7
  6
CONTINUOUS
 10
32.8176290157
 20
93.3823853869
  0
VERTEX
  8
SURFACE
 62
7
  6
CONTINUOUS
 10
32.913687306
 20
93.4486548316
  0
VERTEX
  8
SURFACE
 62
7
  6
CONTINUOUS
 10
33.0081349274
 20
93.5347254621
  0
VERTEX
  8
SURFACE
 62
7
  6
CONTINUOUS
 10
33.1022111632
 20
93.643594045
  0
VERTEX
  8
SURFACE
 62
7
  6
CONTINUOUS
 10
33.1954506394
 20
93.7771308873
  0
VERTEX
  8
SURFACE
 62
7
  6
CONTINUOUS
 10
33.2851461717
 20
93.9327514382
  0
VERTEX
  8
SURFACE
 62
7
  6
CONTINUOUS
 10
33.3689375254
 20
94.1053576118
  0
VERTEX
  8
SURFACE
 62
7
  6
CONTINUOUS
 10
33.4465454147
 20
94.2919284088
  0
VERTEX
  8
SURFACE
 62
7
  6
CONTINUOUS
 10
33.5188249071
 20
94.4921921776
  0
VERTEX
  8
SURFACE
 62
7
  6
CONTINUOUS
 10
33.5863522536
 20
94.7060971766
  0
VERTEX
  8
SURFACE
 62
7
  6
CONTINUOUS
 10
33.6493226811
 20
94.9330556886
  0
VERTEX
  8
SURFACE
 62
7
  6
CONTINUOUS
 10
33.7077724943
 20
95.1721883809
  0
VERTEX
  8
SURFACE
 62
7
  6
CONTINUOUS
 10
33.7617014346
 20
95.4225862855
  0
VERTEX
  8
SURFACE
 62
7
  6
CONTINUOUS
 10
33.8110952625
 20
95.6833585375
  0
VERTEX
  8
SURFACE
 62
7
  6
CONTINUOUS
 10
33.8559298726
 20
95.9536301798
  0
VERTEX
  8
SURFACE
 62
7
  6
CONTINUOUS
 10
33.8961724714
 20
96.2325272235
  0
VERTEX
  8
SURFACE
 62
7
  6
CONTINUOUS
 10
33.9317856797
 20
96.5191820187
  0
VERTEX
  8
SURFACE
 62
7
  6
CONTINUOUS
 10
33.9627293677
 20
96.8127325438
  0
VERTEX
  8
SURFACE
 62
7
  6
CONTINUOUS
 10
33.9842985587
 20
97.0544441173
  0
SEQEND
  0
POLYLINE
  8
SURFACE
 62
7
  6
CONTINUOUS
 66
1
 70
0
  0
VERTEX
  8
SURFACE
 62
7
  6
CONTINUOUS
 10
149.8194930403
 20
129.3773292901
  0
VERTEX
  8
SURFACE
 62
7
  6
CONTINUOUS
 10
149.7307478822
 20
129.3499295452
  0
VERTEX
  8
SURFACE
 62
7
  6
CONTINUOUS
 10
149.6322620836
 20
129.3019588102
  0
VERTEX
  8
SURFACE
 62
7
  6
CONTINUOUS
 10
149.5362037933
 20
129.2356893655
  0
VERTEX
  8
SURFACE
 62
7
  6
CONTINUOUS
 10
149.4417561718
 20
129.1496187351
  0
VERTEX
  8
SURFACE
 62
7
  6
CONTINUOUS
 10
149.3476799361
 20
129.0407501521
  0
VERTEX
  8
SURFACE
 62
7
  6
CONTINUOUS
 10
149.2544404599
 20
128.9072133098
  0
VERTEX
  8
SURFACE
 62
7
  6
CONTINUOUS
 10
149.1647449276
 20
128.7515927589
  0
VERTEX
  8
SURFACE
 62
7
  6
CONTINUOUS
 10
149.0809535739
 20
128.5789865854
  0
VERTEX
  8
SURFACE
 62
7
  6
CONTINUOUS
 10
149.0033456845
 20
128.3924157883
  0
VERTEX
  8
SURFACE
 62
7
  6
CONTINUOUS
 10
148.9310661922
 20
128.1921520195
  0
VERTEX
  8
SURFACE
 62
7
  6
CONTINUOUS
 10
148.8635388457
 20
127.9782470205
  0
VERTEX
  8
SURFACE
 62
7
  6
CONTINUOUS
 10
148.8005684182
 20
127.7512885085
  0
VERTEX
  8
SURFACE
 62
7
  6
CONTINUOUS
 10
148.7421186049
 20
127.5121558163
  0
VERTEX
  8
SURFACE
 62
7
  6
CONTINUOUS
 10
148.6881896647
 20
127.2617579116
  0
VERTEX
  8
SURFACE
 62
7
  6
CONTINUOUS
 10
148.6387958368
 20
127.0009856596
  0
VERTEX
  8
SURFACE
 62
7
  6
CONTINUOUS
 10
148.5939612266
 20
126.7307140173
  0
VERTEX
  8
SURFACE
 62
7
  6
CONTINUOUS
 10
148.5537186279
 20
126.4518169736
  0
VERTEX
  8
SURFACE
 62
7
  6
CONTINUOUS
 10
148.5181054196
 20
126.1651621785
  0
VERTEX
  8
SURFACE
 62
7
  6
CONTINUOUS
 10
148.4871617316
 20
125.8716116534
  0
VERTEX
  8
SURFACE
 62
7
  6
CONTINUOUS
 10
148.4655925406
 20
125.6299000798
  0
SEQEND
  0
LINE
  8
SURFACE
 62
7
  6
CONTINUOUS
 10
83.430436371
 20
93.307025161
 11
83.4303977317
 21
93.3070163428
  0
LINE
  8
SURFACE
 62
7
  6
CONTINUOUS
 10
70.730436371
 20
93.307025161
 11
70.7303977317
 21
93.3070163428
  0
LINE
  8
SURFACE
 62
7
  6
CONTINUOUS
 10
58.030436371
 20
93.307025161
 11
58.0303977317
 21
93.3070163428
  0
LINE
  8
SURFACE
 62
7
  6
CONTINUOUS
 10
45.330436371
 20
93.307025161
 11
45.3303977317
 21
93.3070163428
  0
LINE
  8
SURFACE
 62
7
  6
CONTINUOUS
 10
32.630436371
 20
93.307025161
 11
32.6303977317
 21
93.3070163428
  0
LINE
  8
SURFACE
 62
7
  6
CONTINUOUS
 10
19.930436371
 20
93.307025161
 11
19.9303977317
 21
93.3070163428
  0
LINE
  8
SURFACE
 62
7
  6
CONTINUOUS
 10
162.5194547283
 20
129.3773190361
 11
162.5194933676
 21
129.3773278543
  0
LINE
  8
SURFACE
 62
7
  6
CONTINUOUS
 10
83.4068770324
 20
93.3020393776
 11
83.430436371
 21
93.307025161
  0
LINE
  8
SURFACE
 62
7
  6
CONTINUOUS
 10
70.7068770324
 20
93.3020393776
 11
70.730436371
 21
93.307025161
  0
LINE
  8
SURFACE
 62
7
  6
CONTINUOUS
 10
58.0068770324
 20
93.3020393776
 11
58.030436371
 21
93.307025161
  0
LINE
  8
SURFACE
 62
7
  6
CONTINUOUS
 10
45.3068770324
 20
93.3020393776
 11
45.330436371
 21
93.307025161
  0
LINE
  8
SURFACE
 62
7
  6
CONTINUOUS
 10
32.6068770324
 20
93.3020393776
 11
32.630436371
 21
93.307025161
  0
LINE
  8
SURFACE
 62
7
  6
CONTINUOUS
 10
19.9068770324
 20
93.3020393776
 11
19.930436371
 21
93.307025161
  0
POLYLINE
  8
SURFACE
 62
7
  6
CONTINUOUS
 66
1
 70
0
  0
VERTEX
  8
SURFACE
 62
7
  6
CONTINUOUS
 10
166.9949226237
 20
101.7729154679
  0
VERTEX
  8
SURFACE
 62
7
  6
CONTINUOUS
 10
167.0302040912
 20
101.7754173207
  0
VERTEX
  8
SURFACE
 62
7
  6
CONTINUOUS
 10
167.0619766023
 20
101.7820748895
  0
VERTEX
  8
SURFACE
 62
7
  6
CONTINUOUS
 10
167.0926187199
 20
101.7927929251
  0
VERTEX
  8
SURFACE
 62
7
  6
CONTINUOUS
 10
167.1216138805
 20
101.8073907432
  0
VERTEX
  8
SURFACE
 62
7
  6
CONTINUOUS
 10
167.1484732851
 20
101.8256222543
  0
VERTEX
  8
SURFACE
 62
7
  6
CONTINUOUS
 10
167.172744139
 20
101.8471801125
  0
VERTEX
  8
SURFACE
 62
7
  6
CONTINUOUS
 10
167.1940172851
 20
101.8717008961
  0
VERTEX
  8
SURFACE
 62
7
  6
CONTINUOUS
 10
167.2119341016
 20
101.8987712346
  0
VERTEX
  8
SURFACE
 62
7
  6
CONTINUOUS
 10
167.2261925476
 20
101.9279347774
  0
VERTEX
  8
SURFACE
 62
7
  6
CONTINUOUS
 10
167.2365522551
 20
101.9586998865
  0
VERTEX
  8
SURFACE
 62
7
  6
CONTINUOUS
 10
167.2428385806
 20
101.9905479251
  0
VERTEX
  8
SURFACE
 62
7
  6
CONTINUOUS
 10
167.2449455496
 20
102.0229383824
  0
SEQEND
  0
POLYLINE
  8
SURFACE
 62
7
  6
CONTINUOUS
 66
1
 70
0
  0
VERTEX
  8
SURFACE
 62
7
  6
CONTINUOUS
 10
83.3128392161
 20
93.2921721023
  0
VERTEX
  8
SURFACE
 62
7
  6
CONTINUOUS
 10
83.337993437
 20
93.2929544631
  0
VERTEX
  8
SURFACE
 62
7
  6
CONTINUOUS
 10
83.372539546
 20
93.2963655638
  0
VERTEX
  8
SURFACE
 62
7
  6
CONTINUOUS
 10
83.4068770324
 20
93.3020393776
  0
SEQEND
  0
POLYLINE
  8
SURFACE
 62
7
  6
CONTINUOUS
 66
1
 70
0
  0
VERTEX
  8
SURFACE
 62
7
  6
CONTINUOUS
 10
70.6128392161
 20
93.2921721023
  0
VERTEX
  8
SURFACE
 62
7
  6
CONTINUOUS
 10
70.637993437
 20
93.2929544631
  0
VERTEX
  8
SURFACE
 62
7
  6
CONTINUOUS
 10
70.672539546
 20
93.2963655638
  0
VERTEX
  8
SURFACE
 62
7
  6
CONTINUOUS
 10
70.7068770324
 20
93.3020393776
  0
SEQEND
  0
POLYLINE
  8
SURFACE
 62
7
  6
CONTINUOUS
 66
1
 70
0
  0
VERTEX
  8
SURFACE
 62
7
  6
CONTINUOUS
 10
57.9128392161
 20
93.2921721023
  0
VERTEX
  8
SURFACE
 62
7
  6
CONTINUOUS
 10
57.937993437
 20
93.2929544631
  0
VERTEX
  8
SURFACE
 62
7
  6
CONTINUOUS
 10
57.972539546
 20
93.2963655638
  0
VERTEX
  8
SURFACE
 62
7
  6
CONTINUOUS
 10
58.0068770324
 20
93.3020393776
  0
SEQEND
  0
POLYLINE
  8
SURFACE
 62
7
  6
CONTINUOUS
 66
1
 70
0
  0
VERTEX
  8
SURFACE
 62
7
  6
CONTINUOUS
 10
45.2128392161
 20
93.2921721023
  0
VERTEX
  8
SURFACE
 62
7
  6
CONTINUOUS
 10
45.237993437
 20
93.2929544631
  0
VERTEX
  8
SURFACE
 62
7
  6
CONTINUOUS
 10
45.272539546
 20
93.2963655638
  0
VERTEX
  8
SURFACE
 62
7
  6
CONTINUOUS
 10
45.3068770324
 20
93.3020393776
  0
SEQEND
  0
POLYLINE
  8
SURFACE
 62
7
  6
CONTINUOUS
 66
1
 70
0
  0
VERTEX
  8
SURFACE
 62
7
  6
CONTINUOUS
 10
32.5128392161
 20
93.2921721023
  0
VERTEX
  8
SURFACE
 62
7
  6
CONTINUOUS
 10
32.537993437
 20
93.2929544631
  0
VERTEX
  8
SURFACE
 62
7
  6
CONTINUOUS
 10
32.572539546
 20
93.2963655638
  0
VERTEX
  8
SURFACE
 62
7
  6
CONTINUOUS
 10
32.6068770324
 20
93.3020393776
  0
SEQEND
  0
POLYLINE
  8
SURFACE
 62
7
  6
CONTINUOUS
 66
1
 70
0
  0
VERTEX
  8
SURFACE
 62
7
  6
CONTINUOUS
 10
19.8128392161
 20
93.2921721023
  0
VERTEX
  8
SURFACE
 62
7
  6
CONTINUOUS
 10
19.837993437
 20
93.2929544631
  0
VERTEX
  8
SURFACE
 62
7
  6
CONTINUOUS
 10
19.872539546
 20
93.2963655638
  0
VERTEX
  8
SURFACE
 62
7
  6
CONTINUOUS
 10
19.9068770324
 20
93.3020393776
  0
SEQEND
  0
POLYLINE
  8
SURFACE
 62
7
  6
CONTINUOUS
 66
1
 70
0
  0
VERTEX
  8
SURFACE
 62
7
  6
CONTINUOUS
 10
155.0846017629
 20
97.0257934472
  0
VERTEX
  8
SURFACE
 62
7
  6
CONTINUOUS
 10
155.0434220763
 20
97.0247786307
  0
VERTEX
  8
SURFACE
 62
7
  6
CONTINUOUS
 10
155.0034944533
 20
97.0248507371
  0
VERTEX
  8
SURFACE
 62
7
  6
CONTINUOUS
 10
154.9659033999
 20
97.0260043499
  0
VERTEX
  8
SURFACE
 62
7
  6
CONTINUOUS
 10
154.9316688737
 20
97.0282063688
  0
VERTEX
  8
SURFACE
 62
7
  6
CONTINUOUS
 10
154.9017145015
 20
97.031396312
  0
VERTEX
  8
SURFACE
 62
7
  6
CONTINUOUS
 10
154.8768375979
 20
97.035487757
  0
VERTEX
  8
SURFACE
 62
7
  6
CONTINUOUS
 10
154.857685633
 20
97.0403707628
  0
VERTEX
  8
SURFACE
 62
7
  6
CONTINUOUS
 10
154.8447395051
 20
97.0459151126
  0
VERTEX
  8
SURFACE
 62
7
  6
CONTINUOUS
 10
154.8383043095
 20
97.0519741455
  0
VERTEX
  8
SURFACE
 62
7
  6
CONTINUOUS
 10
154.8375925384
 20
97.0544428351
  0
SEQEND
  0
POLYLINE
  8
SURFACE
 62
7
  6
CONTINUOUS
 66
1
 70
0
  0
VERTEX
  8
SURFACE
 62
7
  6
CONTINUOUS
 10
142.3846017629
 20
97.0257934472
  0
VERTEX
  8
SURFACE
 62
7
  6
CONTINUOUS
 10
142.3434220763
 20
97.0247786307
  0
VERTEX
  8
SURFACE
 62
7
  6
CONTINUOUS
 10
142.3034944533
 20
97.0248507371
  0
VERTEX
  8
SURFACE
 62
7
  6
CONTINUOUS
 10
142.2659033999
 20
97.0260043499
  0
VERTEX
  8
SURFACE
 62
7
  6
CONTINUOUS
 10
142.2316688737
 20
97.0282063688
  0
VERTEX
  8
SURFACE
 62
7
  6
CONTINUOUS
 10
142.2017145015
 20
97.031396312
  0
VERTEX
  8
SURFACE
 62
7
  6
CONTINUOUS
 10
142.1768375979
 20
97.035487757
  0
VERTEX
  8
SURFACE
 62
7
  6
CONTINUOUS
 10
142.157685633
 20
97.0403707628
  0
VERTEX
  8
SURFACE
 62
7
  6
CONTINUOUS
 10
142.1447395051
 20
97.0459151126
  0
VERTEX
  8
SURFACE
 62
7
  6
CONTINUOUS
 10
142.1383043095
 20
97.0519741455
  0
VERTEX
  8
SURFACE
 62
7
  6
CONTINUOUS
 10
142.1375925384
 20
97.0544428351
  0
SEQEND
  0
POLYLINE
  8
SURFACE
 62
7
  6
CONTINUOUS
 66
1
 70
0
  0
VERTEX
  8
SURFACE
 62
7
  6
CONTINUOUS
 10
129.6846017629
 20
97.0257934472
  0
VERTEX
  8
SURFACE
 62
7
  6
CONTINUOUS
 10
129.6434220763
 20
97.0247786307
  0
VERTEX
  8
SURFACE
 62
7
  6
CONTINUOUS
 10
129.6034944533
 20
97.0248507371
  0
VERTEX
  8
SURFACE
 62
7
  6
CONTINUOUS
 10
129.5659033999
 20
97.0260043499
  0
VERTEX
  8
SURFACE
 62
7
  6
CONTINUOUS
 10
129.5316688737
 20
97.0282063688
  0
VERTEX
  8
SURFACE
 62
7
  6
CONTINUOUS
 10
129.5017145015
 20
97.031396312
  0
VERTEX
  8
SURFACE
 62
7
  6
CONTINUOUS
 10
129.4768375979
 20
97.035487757
  0
VERTEX
  8
SURFACE
 62
7
  6
CONTINUOUS
 10
129.457685633
 20
97.0403707628
  0
VERTEX
  8
SURFACE
 62
7
  6
CONTINUOUS
 10
129.4447395051
 20
97.0459151126
  0
VERTEX
  8
SURFACE
 62
7
  6
CONTINUOUS
 10
129.4383043095
 20
97.0519741455
  0
VERTEX
  8
SURFACE
 62
7
  6
CONTINUOUS
 10
129.4375925384
 20
97.0544428351
  0
SEQEND
  0
POLYLINE
  8
SURFACE
 62
7
  6
CONTINUOUS
 66
1
 70
0
  0
VERTEX
  8
SURFACE
 62
7
  6
CONTINUOUS
 10
116.9846017629
 20
97.0257934472
  0
VERTEX
  8
SURFACE
 62
7
  6
CONTINUOUS
 10
116.9434220763
 20
97.0247786307
  0
VERTEX
  8
SURFACE
 62
7
  6
CONTINUOUS
 10
116.9034944533
 20
97.0248507371
  0
VERTEX
  8
SURFACE
 62
7
  6
CONTINUOUS
 10
116.8659033999
 20
97.0260043499
  0
VERTEX
  8
SURFACE
 62
7
  6
CONTINUOUS
 10
116.8316688737
 20
97.0282063688
  0
VERTEX
  8
SURFACE
 62
7
  6
CONTINUOUS
 10
116.8017145015
 20
97.031396312
  0
VERTEX
  8
SURFACE
 62
7
  6
CONTINUOUS
 10
116.7768375979
 20
97.035487757
  0
VERTEX
  8
SURFACE
 62
7
  6
CONTINUOUS
 10
116.757685633
 20
97.0403707628
  0
VERTEX
  8
SURFACE
 62
7
  6
CONTINUOUS
 10
116.7447395051
 20
97.0459151126
  0
VERTEX
  8
SURFACE
 62
7
  6
CONTINUOUS
 10
116.7383043095
 20
97.0519741455
  0
VERTEX
  8
SURFACE
 62
7
  6
CONTINUOUS
 10
116.7375925384
 20
97.0544428351
  0
SEQEND
  0
POLYLINE
  8
SURFACE
 62
7
  6
CONTINUOUS
 66
1
 70
0
  0
VERTEX
  8
SURFACE
 62
7
  6
CONTINUOUS
 10
104.2846017629
 20
97.0257934472
  0
VERTEX
  8
SURFACE
 62
7
  6
CONTINUOUS
 10
104.2434220763
 20
97.0247786307
  0
VERTEX
  8
SURFACE
 62
7
  6
CONTINUOUS
 10
104.2034944533
 20
97.0248507371
  0
VERTEX
  8
SURFACE
 62
7
  6
CONTINUOUS
 10
104.1659033999
 20
97.0260043499
  0
VERTEX
  8
SURFACE
 62
7
  6
CONTINUOUS
 10
104.1316688737
 20
97.0282063688
  0
VERTEX
  8
SURFACE
 62
7
  6
CONTINUOUS
 10
104.1017145015
 20
97.031396312
  0
VERTEX
  8
SURFACE
 62
7
  6
CONTINUOUS
 10
104.0768375979
 20
97.035487757
  0
VERTEX
  8
SURFACE
 62
7
  6
CONTINUOUS
 10
104.057685633
 20
97.0403707628
  0
VERTEX
  8
SURFACE
 62
7
  6
CONTINUOUS
 10
104.0447395051
 20
97.0459151126
  0
VERTEX
  8
SURFACE
 62
7
  6
CONTINUOUS
 10
104.0383043095
 20
97.0519741455
  0
VERTEX
  8
SURFACE
 62
7
  6
CONTINUOUS
 10
104.0375925384
 20
97.0544428351
  0
SEQEND
  0
POLYLINE
  8
SURFACE
 62
7
  6
CONTINUOUS
 66
1
 70
0
  0
VERTEX
  8
SURFACE
 62
7
  6
CONTINUOUS
 10
91.5846017629
 20
97.0257934472
  0
VERTEX
  8
SURFACE
 62
7
  6
CONTINUOUS
 10
91.5434220763
 20
97.0247786307
  0
VERTEX
  8
SURFACE
 62
7
  6
CONTINUOUS
 10
91.5034944533
 20
97.0248507371
  0
VERTEX
  8
SURFACE
 62
7
  6
CONTINUOUS
 10
91.4659033999
 20
97.0260043499
  0
VERTEX
  8
SURFACE
 62
7
  6
CONTINUOUS
 10
91.4316688737
 20
97.0282063688
  0
VERTEX
  8
SURFACE
 62
7
  6
CONTINUOUS
 10
91.4017145015
 20
97.031396312
  0
VERTEX
  8
SURFACE
 62
7
  6
CONTINUOUS
 10
91.3768375979
 20
97.035487757
  0
VERTEX
  8
SURFACE
 62
7
  6
CONTINUOUS
 10
91.357685633
 20
97.0403707628
  0
VERTEX
  8
SURFACE
 62
7
  6
CONTINUOUS
 10
91.3447395051
 20
97.0459151126
  0
VERTEX
  8
SURFACE
 62
7
  6
CONTINUOUS
 10
91.3383043095
 20
97.0519741455
  0
VERTEX
  8
SURFACE
 62
7
  6
CONTINUOUS
 10
91.3375925384
 20
97.0544428351
  0
SEQEND
  0
POLYLINE
  8
SURFACE
 62
7
  6
CONTINUOUS
 66
1
 70
0
  0
VERTEX
  8
SURFACE
 62
7
  6
CONTINUOUS
 10
78.8846017629
 20
97.0257934472
  0
VERTEX
  8
SURFACE
 62
7
  6
CONTINUOUS
 10
78.8434220763
 20
97.0247786307
  0
VERTEX
  8
SURFACE
 62
7
  6
CONTINUOUS
 10
78.8034944533
 20
97.0248507371
  0
VERTEX
  8
SURFACE
 62
7
  6
CONTINUOUS
 10
78.7659033999
 20
97.0260043499
  0
VERTEX
  8
SURFACE
 62
7
  6
CONTINUOUS
 10
78.7316688737
 20
97.0282063688
  0
VERTEX
  8
SURFACE
 62
7
  6
CONTINUOUS
 10
78.7017145015
 20
97.031396312
  0
VERTEX
  8
SURFACE
 62
7
  6
CONTINUOUS
 10
78.6768375979
 20
97.035487757
  0
VERTEX
  8
SURFACE
 62
7
  6
CONTINUOUS
 10
78.657685633
 20
97.0403707628
  0
VERTEX
  8
SURFACE
 62
7
  6
CONTINUOUS
 10
78.6447395051
 20
97.0459151126
  0
VERTEX
  8
SURFACE
 62
7
  6
CONTINUOUS
 10
78.6383043095
 20
97.0519741455
  0
VERTEX
  8
SURFACE
 62
7
  6
CONTINUOUS
 10
78.6375925384
 20
97.0544428351
  0
SEQEND
  0
POLYLINE
  8
SURFACE
 62
7
  6
CONTINUOUS
 66
1
 70
0
  0
VERTEX
  8
SURFACE
 62
7
  6
CONTINUOUS
 10
66.1846017629
 20
97.0257934472
  0
VERTEX
  8
SURFACE
 62
7
  6
CONTINUOUS
 10
66.1434220763
 20
97.0247786307
  0
VERTEX
  8
SURFACE
 62
7
  6
CONTINUOUS
 10
66.1034944533
 20
97.0248507371
  0
VERTEX
  8
SURFACE
 62
7
  6
CONTINUOUS
 10
66.0659033999
 20
97.0260043499
  0
VERTEX
  8
SURFACE
 62
7
  6
CONTINUOUS
 10
66.0316688737
 20
97.0282063688
  0
VERTEX
  8
SURFACE
 62
7
  6
CONTINUOUS
 10
66.0017145015
 20
97.031396312
  0
VERTEX
  8
SURFACE
 62
7
  6
CONTINUOUS
 10
65.9768375979
 20
97.035487757
  0
VERTEX
  8
SURFACE
 62
7
  6
CONTINUOUS
 10
65.957685633
 20
97.0403707628
  0
VERTEX
  8
SURFACE
 62
7
  6
CONTINUOUS
 10
65.9447395051
 20
97.0459151126
  0
VERTEX
  8
SURFACE
 62
7
  6
CONTINUOUS
 10
65.9383043095
 20
97.0519741455
  0
VERTEX
  8
SURFACE
 62
7
  6
CONTINUOUS
 10
65.9375925384
 20
97.0544428351
  0
SEQEND
  0
POLYLINE
  8
SURFACE
 62
7
  6
CONTINUOUS
 66
1
 70
0
  0
VERTEX
  8
SURFACE
 62
7
  6
CONTINUOUS
 10
53.4846017629
 20
97.0257934472
  0
VERTEX
  8
SURFACE
 62
7
  6
CONTINUOUS
 10
53.4434220763
 20
97.0247786307
  0
VERTEX
  8
SURFACE
 62
7
  6
CONTINUOUS
 10
53.4034944533
 20
97.0248507371
  0
VERTEX
  8
SURFACE
 62
7
  6
CONTINUOUS
 10
53.3659033999
 20
97.0260043499
  0
VERTEX
  8
SURFACE
 62
7
  6
CONTINUOUS
 10
53.3316688737
 20
97.0282063688
  0
VERTEX
  8
SURFACE
 62
7
  6
CONTINUOUS
 10
53.3017145015
 20
97.031396312
  0
VERTEX
  8
SURFACE
 62
7
  6
CONTINUOUS
 10
53.2768375979
 20
97.035487757
  0
VERTEX
  8
SURFACE
 62
7
  6
CONTINUOUS
 10
53.257685633
 20
97.0403707628
  0
VERTEX
  8
SURFACE
 62
7
  6
CONTINUOUS
 10
53.2447395051
 20
97.0459151126
  0
VERTEX
  8
SURFACE
 62
7
  6
CONTINUOUS
 10
53.2383043095
 20
97.0519741455
  0
VERTEX
  8
SURFACE
 62
7
  6
CONTINUOUS
 10
53.2375925384
 20
97.0544428351
  0
SEQEND
  0
POLYLINE
  8
SURFACE
 62
7
  6
CONTINUOUS
 66
1
 70
0
  0
VERTEX
  8
SURFACE
 62
7
  6
CONTINUOUS
 10
40.7846017629
 20
97.0257934472
  0
VERTEX
  8
SURFACE
 62
7
  6
CONTINUOUS
 10
40.7434220763
 20
97.0247786307
  0
VERTEX
  8
SURFACE
 62
7
  6
CONTINUOUS
 10
40.7034944533
 20
97.0248507371
  0
VERTEX
  8
SURFACE
 62
7
  6
CONTINUOUS
 10
40.6659033999
 20
97.0260043499
  0
VERTEX
  8
SURFACE
 62
7
  6
CONTINUOUS
 10
40.6316688737
 20
97.0282063688
  0
VERTEX
  8
SURFACE
 62
7
  6
CONTINUOUS
 10
40.6017145015
 20
97.031396312
  0
VERTEX
  8
SURFACE
 62
7
  6
CONTINUOUS
 10
40.5768375979
 20
97.035487757
  0
VERTEX
  8
SURFACE
 62
7
  6
CONTINUOUS
 10
40.557685633
 20
97.0403707628
  0
VERTEX
  8
SURFACE
 62
7
  6
CONTINUOUS
 10
40.5447395051
 20
97.0459151126
  0
VERTEX
  8
SURFACE
 62
7
  6
CONTINUOUS
 10
40.5383043095
 20
97.0519741455
  0
VERTEX
  8
SURFACE
 62
7
  6
CONTINUOUS
 10
40.5375925384
 20
97.0544428351
  0
SEQEND
  0
POLYLINE
  8
SURFACE
 62
7
  6
CONTINUOUS
 66
1
 70
0
  0
VERTEX
  8
SURFACE
 62
7
  6
CONTINUOUS
 10
28.0846017629
 20
97.0257934472
  0
VERTEX
  8
SURFACE
 62
7
  6
CONTINUOUS
 10
28.0434220763
 20
97.0247786307
  0
VERTEX
  8
SURFACE
 62
7
  6
CONTINUOUS
 10
28.0034944533
 20
97.0248507371
  0
VERTEX
  8
SURFACE
 62
7
  6
CONTINUOUS
 10
27.9659033999
 20
97.0260043499
  0
VERTEX
  8
SURFACE
 62
7
  6
CONTINUOUS
 10
27.9316688737
 20
97.0282063688
  0
VERTEX
  8
SURFACE
 62
7
  6
CONTINUOUS
 10
27.9017145015
 20
97.031396312
  0
VERTEX
  8
SURFACE
 62
7
  6
CONTINUOUS
 10
27.8768375979
 20
97.035487757
  0
VERTEX
  8
SURFACE
 62
7
  6
CONTINUOUS
 10
27.857685633
 20
97.0403707628
  0
VERTEX
  8
SURFACE
 62
7
  6
CONTINUOUS
 10
27.8447395051
 20
97.0459151126
  0
VERTEX
  8
SURFACE
 62
7
  6
CONTINUOUS
 10
27.8383043095
 20
97.0519741455
  0
VERTEX
  8
SURFACE
 62
7
  6
CONTINUOUS
 10
27.8375925384
 20
97.0544428351
  0
SEQEND
  0
LINE
  8
SURFACE
 62
7
  6
CONTINUOUS
 10
155.0875718101
 20
97.025849111
 11
155.0846017629
 21
97.0257934468
  0
LINE
  8
SURFACE
 62
7
  6
CONTINUOUS
 10
142.3875718101
 20
97.025849111
 11
142.3846017629
 21
97.0257934468
  0
LINE
  8
SURFACE
 62
7
  6
CONTINUOUS
 10
129.6875718101
 20
97.025849111
 11
129.6846017629
 21
97.0257934468
  0
LINE
  8
SURFACE
 62
7
  6
CONTINUOUS
 10
116.9875718101
 20
97.025849111
 11
116.9846017629
 21
97.0257934468
  0
LINE
  8
SURFACE
 62
7
  6
CONTINUOUS
 10
104.2875718101
 20
97.025849111
 11
104.2846017629
 21
97.0257934468
  0
LINE
  8
SURFACE
 62
7
  6
CONTINUOUS
 10
91.5875718101
 20
97.025849111
 11
91.5846017629
 21
97.0257934468
  0
LINE
  8
SURFACE
 62
7
  6
CONTINUOUS
 10
78.8875718101
 20
97.025849111
 11
78.8846017629
 21
97.0257934468
  0
LINE
  8
SURFACE
 62
7
  6
CONTINUOUS
 10
66.1875718101
 20
97.025849111
 11
66.1846017629
 21
97.0257934468
  0
LINE
  8
SURFACE
 62
7
  6
CONTINUOUS
 10
53.4875718101
 20
97.025849111
 11
53.4846017629
 21
97.0257934468
  0
LINE
  8
SURFACE
 62
7
  6
CONTINUOUS
 10
40.7875718101
 20
97.025849111
 11
40.7846017629
 21
97.0257934468
  0
LINE
  8
SURFACE
 62
7
  6
CONTINUOUS
 10
28.0875718101
 20
97.025849111
 11
28.0846017629
 21
97.0257934468
  0
LINE
  8
SURFACE
 62
7
  6
CONTINUOUS
 10
15.4549455496
 20
97.025849112
 11
21.0343192892
 21
97.025849111
  0
LINE
  8
SURFACE
 62
7
  6
CONTINUOUS
 10
28.0875718101
 20
97.025849111
 11
33.7343192892
 21
97.025849111
  0
LINE
  8
SURFACE
 62
7
  6
CONTINUOUS
 10
40.7875718101
 20
97.025849111
 11
46.4343192892
 21
97.025849111
  0
LINE
  8
SURFACE
 62
7
  6
CONTINUOUS
 10
53.4875718101
 20
97.025849111
 11
59.1343192892
 21
97.025849111
  0
LINE
  8
SURFACE
 62
7
  6
CONTINUOUS
 10
66.1875718101
 20
97.025849111
 11
71.8343192892
 21
97.025849111
  0
LINE
  8
SURFACE
 62
7
  6
CONTINUOUS
 10
78.8875718101
 20
97.025849111
 11
84.5343192892
 21
97.025849111
  0
LINE
  8
SURFACE
 62
7
  6
CONTINUOUS
 10
91.5875718101
 20
97.025849111
 11
97.2343192892
 21
97.025849111
  0
LINE
  8
SURFACE
 62
7
  6
CONTINUOUS
 10
104.2875718101
 20
97.025849111
 11
109.9343192892
 21
97.025849111
  0
LINE
  8
SURFACE
 62
7
  6
CONTINUOUS
 10
116.9875718101
 20
97.025849111
 11
122.6343192892
 21
97.025849111
  0
LINE
  8
SURFACE
 62
7
  6
CONTINUOUS
 10
129.6875718101
 20
97.025849111
 11
135.3343192892
 21
97.025849111
  0
LINE
  8
SURFACE
 62
7
  6
CONTINUOUS
 10
142.3875718101
 20
97.025849111
 11
148.0343192892
 21
97.025849111
  0
LINE
  8
SURFACE
 62
7
  6
CONTINUOUS
 10
155.0875718101
 20
97.025849111
 11
160.7343192892
 21
97.025849111
  0
LINE
  8
DEFAULT_1
 62
2
  6
CENTER
 10
161.6647085337
 20
98.6421720986
 11
11.2667056576
 21
98.6421720986
  0
LINE
  8
DEFAULT_1
 62
2
  6
CENTER
 10
166.0583222442
 20
98.6421720986
 11
166.6447748541
 21
98.6421720986
  0
LINE
  8
SURFACE
 62
7
  6
CONTINUOUS
 10
21.434013167
 20
101.7729154582
 11
27.6878764519
 21
101.7729154582
  0
LINE
  8
SURFACE
 62
7
  6
CONTINUOUS
 10
34.134013167
 20
101.7729154582
 11
40.3878764519
 21
101.7729154582
  0
LINE
  8
SURFACE
 62
7
  6
CONTINUOUS
 10
46.834013167
 20
101.7729154582
 11
53.0878764519
 21
101.7729154582
  0
LINE
  8
SURFACE
 62
7
  6
CONTINUOUS
 10
59.534013167
 20
101.7729154582
 11
65.7878764519
 21
101.7729154582
  0
LINE
  8
SURFACE
 62
7
  6
CONTINUOUS
 10
72.234013167
 20
101.7729154582
 11
78.4878764519
 21
101.7729154582
  0
LINE
  8
SURFACE
 62
7
  6
CONTINUOUS
 10
84.934013167
 20
101.7729154582
 11
91.1878764519
 21
101.7729154582
  0
LINE
  8
SURFACE
 62
7
  6
CONTINUOUS
 10
97.634013167
 20
101.7729154582
 11
103.8878764519
 21
101.7729154582
  0
LINE
  8
SURFACE
 62
7
  6
CONTINUOUS
 10
110.334013167
 20
101.7729154582
 11
116.5878764519
 21
101.7729154582
  0
LINE
  8
SURFACE
 62
7
  6
CONTINUOUS
 10
123.034013167
 20
101.7729154582
 11
129.2878764519
 21
101.7729154582
  0
LINE
  8
SURFACE
 62
7
  6
CONTINUOUS
 10
135.734013167
 20
101.7729154582
 11
141.9878764519
 21
101.7729154582
  0
LINE
  8
SURFACE
 62
7
  6
CONTINUOUS
 10
148.434013167
 20
101.7729154582
 11
154.6878764519
 21
101.7729154582
  0
LINE
  8
SURFACE
 62
7
  6
CONTINUOUS
 10
161.134013167
 20
101.7729154582
 11
166.994922627
 21
101.7729154582
  0
LINE
  8
0
 62
7
  6
CONTINUOUS
 10
167.2449455496
 20
106.3421720986
 11
167.3949455496
 21
106.3421720986
  0
LINE
  8
0
 62
7
  6
CONTINUOUS
 10
167.2449455496
 20
106.4421720962
 11
167.3949455496
 21
106.4421720962
  0
LINE
  8
0
 62
7
  6
CONTINUOUS
 10
167.2449455496
 20
106.4621720986
 11
167.3949455496
 21
106.4621720986
  0
LINE
  8
0
 62
7
  6
CONTINUOUS
 10
167.2449455496
 20
106.5021721033
 11
167.3949455496
 21
106.5021721033
  0
LINE
  8
0
 62
7
  6
CONTINUOUS
 10
167.2449455496
 20
106.5821720986
 11
167.3949455496
 21
106.5821720986
  0
LINE
  8
0
 62
7
  6
CONTINUOUS
 10
167.2449455496
 20
106.6621721081
 11
167.3949455496
 21
106.6621721081
  0
LINE
  8
0
 62
7
  6
CONTINUOUS
 10
167.2449455496
 20
106.742172089
 11
167.3949455496
 21
106.742172089
  0
LINE
  8
0
 62
7
  6
CONTINUOUS
 10
167.2449455496
 20
106.802172089
 11
167.3949455496
 21
106.802172089
  0
LINE
  8
0
 62
7
  6
CONTINUOUS
 10
167.2449455496
 20
106.8421720795
 11
167.3949455496
 21
106.8421720795
  0
LINE
  8
0
 62
7
  6
CONTINUOUS
 10
167.2449455496
 20
106.9421720986
 11
167.3949455496
 21
106.9421720986
  0
LINE
  8
0
 62
7
  6
CONTINUOUS
 10
167.2449455496
 20
106.9621720795
 11
167.3949455496
 21
106.9621720795
  0
LINE
  8
0
 62
7
  6
CONTINUOUS
 10
167.2449455496
 20
106.9821721176
 11
167.3949455496
 21
106.9821721176
  0
LINE
  8
0
 62
7
  6
CONTINUOUS
 10
167.2449455496
 20
107.1421720795
 11
167.3949455496
 21
107.1421720795
  0
LINE
  8
0
 62
7
  6
CONTINUOUS
 10
167.2449455496
 20
107.2421720986
 11
167.3949455496
 21
107.2421720986
  0
LINE
  8
0
 62
7
  6
CONTINUOUS
 10
167.2449455496
 20
107.2821721176
 11
167.3949455496
 21
107.2821721176
  0
LINE
  8
0
 62
7
  6
CONTINUOUS
 10
167.2449455496
 20
107.3421720604
 11
167.3949455496
 21
107.3421720604
  0
LINE
  8
0
 62
7
  6
CONTINUOUS
 10
167.2449455496
 20
107.4221720986
 11
167.3949455496
 21
107.4221720986
  0
LINE
  8
0
 62
7
  6
CONTINUOUS
 10
167.2449455496
 20
107.5021721367
 11
167.3949455496
 21
107.5021721367
  0
LINE
  8
0
 62
7
  6
CONTINUOUS
 10
167.2449455496
 20
107.5621721367
 11
167.3949455496
 21
107.5621721367
  0
LINE
  8
0
 62
7
  6
CONTINUOUS
 10
167.2449455496
 20
107.6221721367
 11
167.3949455496
 21
107.6221721367
  0
LINE
  8
0
 62
7
  6
CONTINUOUS
 10
167.2449455496
 20
107.6621720986
 11
167.3949455496
 21
107.6621720986
  0
LINE
  8
0
 62
7
  6
CONTINUOUS
 10
167.2449455496
 20
107.6821721367
 11
167.3949455496
 21
107.6821721367
  0
LINE
  8
0
 62
7
  6
CONTINUOUS
 10
167.2449455496
 20
107.7021720604
 11
167.3949455496
 21
107.7021720604
  0
LINE
  8
0
 62
7
  6
CONTINUOUS
 10
167.2449455496
 20
107.8621721367
 11
167.3949455496
 21
107.8621721367
  0
LINE
  8
0
 62
7
  6
CONTINUOUS
 10
167.2449455496
 20
107.9621720986
 11
167.3949455496
 21
107.9621720986
  0
LINE
  8
0
 62
7
  6
CONTINUOUS
 10
167.2449455496
 20
109.0821721749
 11
167.3949455496
 21
109.0821721749
  0
LINE
  8
0
 62
7
  6
CONTINUOUS
 10
167.2449455496
 20
109.1421721749
 11
167.3949455496
 21
109.1421721749
  0
LINE
  8
0
 62
7
  6
CONTINUOUS
 10
167.2449455496
 20
109.1621720986
 11
167.3949455496
 21
109.1621720986
  0
LINE
  8
0
 62
7
  6
CONTINUOUS
 10
167.2449455496
 20
109.2421720223
 11
167.3949455496
 21
109.2421720223
  0
LINE
  8
0
 62
7
  6
CONTINUOUS
 10
167.2449455496
 20
109.3221721749
 11
167.3949455496
 21
109.3221721749
  0
LINE
  8
0
 62
7
  6
CONTINUOUS
 10
167.2449455496
 20
109.4021720986
 11
167.3949455496
 21
109.4021720986
  0
LINE
  8
0
 62
7
  6
CONTINUOUS
 10
167.2449455496
 20
109.5021721749
 11
167.3949455496
 21
109.5021721749
  0
LINE
  8
0
 62
7
  6
CONTINUOUS
 10
167.2449455496
 20
109.6021720223
 11
167.3949455496
 21
109.6021720223
  0
LINE
  8
0
 62
7
  6
CONTINUOUS
 10
167.2449455496
 20
109.6821721749
 11
167.3949455496
 21
109.6821721749
  0
LINE
  8
0
 62
7
  6
CONTINUOUS
 10
167.2449455496
 20
109.7421721749
 11
167.3949455496
 21
109.7421721749
  0
LINE
  8
0
 62
7
  6
CONTINUOUS
 10
167.2449455496
 20
109.7621720986
 11
167.3949455496
 21
109.7621720986
  0
LINE
  8
0
 62
7
  6
CONTINUOUS
 10
167.2449455496
 20
109.7821720223
 11
167.3949455496
 21
109.7821720223
  0
LINE
  8
0
 62
7
  6
CONTINUOUS
 10
167.2449455496
 20
109.8221720986
 11
167.3949455496
 21
109.8221720986
  0
LINE
  8
0
 62
7
  6
CONTINUOUS
 10
167.2449455496
 20
109.9821721749
 11
167.3949455496
 21
109.9821721749
  0
LINE
  8
0
 62
7
  6
CONTINUOUS
 10
167.2449455496
 20
110.2621722511
 11
167.3949455496
 21
110.2621722511
  0
LINE
  8
0
 62
7
  6
CONTINUOUS
 10
167.2449455496
 20
110.4221720986
 11
167.3949455496
 21
110.4221720986
  0
LINE
  8
0
 62
7
  6
CONTINUOUS
 10
167.2449455496
 20
110.6021720986
 11
167.3949455496
 21
110.6021720986
  0
LINE
  8
0
 62
7
  6
CONTINUOUS
 10
167.2449455496
 20
110.9021720986
 11
167.3949455496
 21
110.9021720986
  0
LINE
  8
0
 62
7
  6
CONTINUOUS
 10
167.2449455496
 20
111.2021720986
 11
167.3949455496
 21
111.2021720986
  0
LINE
  8
DEFAULT_1
 62
2
  6
CENTER
 10
11.1249188571
 20
111.3421720986
 11
89.2248455496
 21
111.3421720986
  0
LINE
  8
0
 62
2
  6
CONTINUOUS
 10
90.3449455496
 20
111.3421720986
 11
90.7382767121
 21
111.3421720986
  0
LINE
  8
DEFAULT_1
 62
2
  6
CENTER
 10
90.7382767121
 20
111.3421720986
 11
170.6563474286
 21
111.3421720986
  0
LINE
  8
0
 62
7
  6
CONTINUOUS
 10
167.2449455496
 20
111.3821720986
 11
167.3949455496
 21
111.3821720986
  0
LINE
  8
0
 62
7
  6
CONTINUOUS
 10
167.2449455496
 20
111.542171946
 11
167.3949455496
 21
111.542171946
  0
LINE
  8
0
 62
7
  6
CONTINUOUS
 10
167.2449455496
 20
112.022171946
 11
167.3949455496
 21
112.022171946
  0
LINE
  8
0
 62
7
  6
CONTINUOUS
 10
167.2449455496
 20
112.1221722511
 11
167.3949455496
 21
112.1221722511
  0
LINE
  8
0
 62
7
  6
CONTINUOUS
 10
167.2449455496
 20
112.202171946
 11
167.3949455496
 21
112.202171946
  0
LINE
  8
0
 62
7
  6
CONTINUOUS
 10
167.2449455496
 20
112.262171946
 11
167.3949455496
 21
112.262171946
  0
LINE
  8
0
 62
7
  6
CONTINUOUS
 10
167.2449455496
 20
112.2821720986
 11
167.3949455496
 21
112.2821720986
  0
LINE
  8
0
 62
7
  6
CONTINUOUS
 10
167.2449455496
 20
112.442171946
 11
167.3949455496
 21
112.442171946
  0
LINE
  8
0
 62
7
  6
CONTINUOUS
 10
167.2449455496
 20
112.922171946
 11
167.3949455496
 21
112.922171946
  0
LINE
  8
0
 62
7
  6
CONTINUOUS
 10
167.2449455496
 20
113.0221722511
 11
167.3949455496
 21
113.0221722511
  0
LINE
  8
0
 62
7
  6
CONTINUOUS
 10
167.2449455496
 20
113.102171946
 11
167.3949455496
 21
113.102171946
  0
LINE
  8
0
 62
7
  6
CONTINUOUS
 10
167.2449455496
 20
113.162171946
 11
167.3949455496
 21
113.162171946
  0
LINE
  8
0
 62
7
  6
CONTINUOUS
 10
167.2449455496
 20
113.1821720986
 11
167.3949455496
 21
113.1821720986
  0
POLYLINE
  8
SURFACE
 62
7
  6
CONTINUOUS
 66
1
 70
0
  0
VERTEX
  8
SURFACE
 62
7
  6
CONTINUOUS
 10
15.4549455496
 20
97.025849111
  0
VERTEX
  8
SURFACE
 62
7
  6
CONTINUOUS
 10
15.4220605889
 20
97.026185141
  0
VERTEX
  8
SURFACE
 62
7
  6
CONTINUOUS
 10
15.3897903979
 20
97.0271859846
  0
VERTEX
  8
SURFACE
 62
7
  6
CONTINUOUS
 10
15.3586898178
 20
97.0288329026
  0
VERTEX
  8
SURFACE
 62
7
  6
CONTINUOUS
 10
15.3292913836
 20
97.0310967874
  0
VERTEX
  8
SURFACE
 62
7
  6
CONTINUOUS
 10
15.3020956231
 20
97.0339385257
  0
VERTEX
  8
SURFACE
 62
7
  6
CONTINUOUS
 10
15.2775613863
 20
97.0373096282
  0
VERTEX
  8
SURFACE
 62
7
  6
CONTINUOUS
 10
15.2560977251
 20
97.0411530435
  0
VERTEX
  8
SURFACE
 62
7
  6
CONTINUOUS
 10
15.2380571284
 20
97.0454041366
  0
VERTEX
  8
SURFACE
 62
7
  6
CONTINUOUS
 10
15.2237302656
 20
97.0499917999
  0
VERTEX
  8
SURFACE
 62
7
  6
CONTINUOUS
 10
15.2133423369
 20
97.0548396507
  0
VERTEX
  8
SURFACE
 62
7
  6
CONTINUOUS
 10
15.2070510457
 20
97.0598671897
  0
VERTEX
  8
SURFACE
 62
7
  6
CONTINUOUS
 10
15.2049455496
 20
97.064991069
  0
SEQEND
  0
LINE
  8
SURFACE
 62
7
  6
CONTINUOUS
 10
21.0372893363
 20
97.0257934471
 11
21.0343192892
 21
97.025849111
  0
LINE
  8
SURFACE
 62
7
  6
CONTINUOUS
 10
33.7372893363
 20
97.0257934471
 11
33.7343192892
 21
97.025849111
  0
LINE
  8
SURFACE
 62
7
  6
CONTINUOUS
 10
46.4372893363
 20
97.0257934471
 11
46.4343192892
 21
97.025849111
  0
LINE
  8
SURFACE
 62
7
  6
CONTINUOUS
 10
59.1372893363
 20
97.0257934471
 11
59.1343192892
 21
97.025849111
  0
LINE
  8
SURFACE
 62
7
  6
CONTINUOUS
 10
71.8372893363
 20
97.0257934471
 11
71.8343192892
 21
97.025849111
  0
LINE
  8
SURFACE
 62
7
  6
CONTINUOUS
 10
84.5372893363
 20
97.0257934471
 11
84.5343192892
 21
97.025849111
  0
LINE
  8
SURFACE
 62
7
  6
CONTINUOUS
 10
97.2372893363
 20
97.0257934471
 11
97.2343192892
 21
97.025849111
  0
LINE
  8
SURFACE
 62
7
  6
CONTINUOUS
 10
109.9372893363
 20
97.0257934471
 11
109.9343192892
 21
97.025849111
  0
LINE
  8
SURFACE
 62
7
  6
CONTINUOUS
 10
122.6372893363
 20
97.0257934471
 11
122.6343192892
 21
97.025849111
  0
LINE
  8
SURFACE
 62
7
  6
CONTINUOUS
 10
135.3372893363
 20
97.0257934471
 11
135.3343192892
 21
97.025849111
  0
LINE
  8
SURFACE
 62
7
  6
CONTINUOUS
 10
148.0372893363
 20
97.0257934471
 11
148.0343192892
 21
97.025849111
  0
LINE
  8
SURFACE
 62
7
  6
CONTINUOUS
 10
160.7372893363
 20
97.0257934471
 11
160.7343192892
 21
97.025849111
  0
POLYLINE
  8
SURFACE
 62
7
  6
CONTINUOUS
 66
1
 70
0
  0
VERTEX
  8
SURFACE
 62
7
  6
CONTINUOUS
 10
21.0372893363
 20
97.0257934475
  0
VERTEX
  8
SURFACE
 62
7
  6
CONTINUOUS
 10
21.078469023
 20
97.0247786309
  0
VERTEX
  8
SURFACE
 62
7
  6
CONTINUOUS
 10
21.1183966459
 20
97.0248507374
  0
VERTEX
  8
SURFACE
 62
7
  6
CONTINUOUS
 10
21.1559876993
 20
97.0260043501
  0
VERTEX
  8
SURFACE
 62
7
  6
CONTINUOUS
 10
21.1902222256
 20
97.028206369
  0
VERTEX
  8
SURFACE
 62
7
  6
CONTINUOUS
 10
21.2201765978
 20
97.0313963123
  0
VERTEX
  8
SURFACE
 62
7
  6
CONTINUOUS
 10
21.2450535014
 20
97.0354877572
  0
VERTEX
  8
SURFACE
 62
7
  6
CONTINUOUS
 10
21.2642054663
 20
97.0403707629
  0
VERTEX
  8
SURFACE
 62
7
  6
CONTINUOUS
 10
21.2771515942
 20
97.0459151126
  0
VERTEX
  8
SURFACE
 62
7
  6
CONTINUOUS
 10
21.2835867898
 20
97.0519741453
  0
VERTEX
  8
SURFACE
 62
7
  6
CONTINUOUS
 10
21.2842985613
 20
97.05444284
  0
SEQEND
  0
POLYLINE
  8
SURFACE
 62
7
  6
CONTINUOUS
 66
1
 70
0
  0
VERTEX
  8
SURFACE
 62
7
  6
CONTINUOUS
 10
33.7372893363
 20
97.0257934475
  0
VERTEX
  8
SURFACE
 62
7
  6
CONTINUOUS
 10
33.778469023
 20
97.0247786309
  0
VERTEX
  8
SURFACE
 62
7
  6
CONTINUOUS
 10
33.8183966459
 20
97.0248507374
  0
VERTEX
  8
SURFACE
 62
7
  6
CONTINUOUS
 10
33.8559876993
 20
97.0260043501
  0
VERTEX
  8
SURFACE
 62
7
  6
CONTINUOUS
 10
33.8902222256
 20
97.028206369
  0
VERTEX
  8
SURFACE
 62
7
  6
CONTINUOUS
 10
33.9201765978
 20
97.0313963123
  0
VERTEX
  8
SURFACE
 62
7
  6
CONTINUOUS
 10
33.9450535014
 20
97.0354877572
  0
VERTEX
  8
SURFACE
 62
7
  6
CONTINUOUS
 10
33.9642054663
 20
97.0403707629
  0
VERTEX
  8
SURFACE
 62
7
  6
CONTINUOUS
 10
33.9771515942
 20
97.0459151126
  0
VERTEX
  8
SURFACE
 62
7
  6
CONTINUOUS
 10
33.9835867898
 20
97.0519741453
  0
VERTEX
  8
SURFACE
 62
7
  6
CONTINUOUS
 10
33.9842985613
 20
97.05444284
  0
SEQEND
  0
POLYLINE
  8
SURFACE
 62
7
  6
CONTINUOUS
 66
1
 70
0
  0
VERTEX
  8
SURFACE
 62
7
  6
CONTINUOUS
 10
46.4372893363
 20
97.0257934475
  0
VERTEX
  8
SURFACE
 62
7
  6
CONTINUOUS
 10
46.478469023
 20
97.0247786309
  0
VERTEX
  8
SURFACE
 62
7
  6
CONTINUOUS
 10
46.5183966459
 20
97.0248507374
  0
VERTEX
  8
SURFACE
 62
7
  6
CONTINUOUS
 10
46.5559876993
 20
97.0260043501
  0
VERTEX
  8
SURFACE
 62
7
  6
CONTINUOUS
 10
46.5902222256
 20
97.028206369
  0
VERTEX
  8
SURFACE
 62
7
  6
CONTINUOUS
 10
46.6201765978
 20
97.0313963123
  0
VERTEX
  8
SURFACE
 62
7
  6
CONTINUOUS
 10
46.6450535014
 20
97.0354877572
  0
VERTEX
  8
SURFACE
 62
7
  6
CONTINUOUS
 10
46.6642054663
 20
97.0403707629
  0
VERTEX
  8
SURFACE
 62
7
  6
CONTINUOUS
 10
46.6771515942
 20
97.0459151126
  0
VERTEX
  8
SURFACE
 62
7
  6
CONTINUOUS
 10
46.6835867898
 20
97.0519741453
  0
VERTEX
  8
SURFACE
 62
7
  6
CONTINUOUS
 10
46.6842985613
 20
97.05444284
  0
SEQEND
  0
POLYLINE
  8
SURFACE
 62
7
  6
CONTINUOUS
 66
1
 70
0
  0
VERTEX
  8
SURFACE
 62
7
  6
CONTINUOUS
 10
59.1372893363
 20
97.0257934475
  0
VERTEX
  8
SURFACE
 62
7
  6
CONTINUOUS
 10
59.178469023
 20
97.0247786309
  0
VERTEX
  8
SURFACE
 62
7
  6
CONTINUOUS
 10
59.2183966459
 20
97.0248507374
  0
VERTEX
  8
SURFACE
 62
7
  6
CONTINUOUS
 10
59.2559876993
 20
97.0260043501
  0
VERTEX
  8
SURFACE
 62
7
  6
CONTINUOUS
 10
59.2902222256
 20
97.028206369
  0
VERTEX
  8
SURFACE
 62
7
  6
CONTINUOUS
 10
59.3201765978
 20
97.0313963123
  0
VERTEX
  8
SURFACE
 62
7
  6
CONTINUOUS
 10
59.3450535014
 20
97.0354877572
  0
VERTEX
  8
SURFACE
 62
7
  6
CONTINUOUS
 10
59.3642054663
 20
97.0403707629
  0
VERTEX
  8
SURFACE
 62
7
  6
CONTINUOUS
 10
59.3771515942
 20
97.0459151126
  0
VERTEX
  8
SURFACE
 62
7
  6
CONTINUOUS
 10
59.3835867898
 20
97.0519741453
  0
VERTEX
  8
SURFACE
 62
7
  6
CONTINUOUS
 10
59.3842985613
 20
97.05444284
  0
SEQEND
  0
POLYLINE
  8
SURFACE
 62
7
  6
CONTINUOUS
 66
1
 70
0
  0
VERTEX
  8
SURFACE
 62
7
  6
CONTINUOUS
 10
71.8372893363
 20
97.0257934475
  0
VERTEX
  8
SURFACE
 62
7
  6
CONTINUOUS
 10
71.878469023
 20
97.0247786309
  0
VERTEX
  8
SURFACE
 62
7
  6
CONTINUOUS
 10
71.9183966459
 20
97.0248507374
  0
VERTEX
  8
SURFACE
 62
7
  6
CONTINUOUS
 10
71.9559876993
 20
97.0260043501
  0
VERTEX
  8
SURFACE
 62
7
  6
CONTINUOUS
 10
71.9902222256
 20
97.028206369
  0
VERTEX
  8
SURFACE
 62
7
  6
CONTINUOUS
 10
72.0201765978
 20
97.0313963123
  0
VERTEX
  8
SURFACE
 62
7
  6
CONTINUOUS
 10
72.0450535014
 20
97.0354877572
  0
VERTEX
  8
SURFACE
 62
7
  6
CONTINUOUS
 10
72.0642054663
 20
97.0403707629
  0
VERTEX
  8
SURFACE
 62
7
  6
CONTINUOUS
 10
72.0771515942
 20
97.0459151126
  0
VERTEX
  8
SURFACE
 62
7
  6
CONTINUOUS
 10
72.0835867898
 20
97.0519741453
  0
VERTEX
  8
SURFACE
 62
7
  6
CONTINUOUS
 10
72.0842985613
 20
97.05444284
  0
SEQEND
  0
POLYLINE
  8
SURFACE
 62
7
  6
CONTINUOUS
 66
1
 70
0
  0
VERTEX
  8
SURFACE
 62
7
  6
CONTINUOUS
 10
84.5372893363
 20
97.0257934475
  0
VERTEX
  8
SURFACE
 62
7
  6
CONTINUOUS
 10
84.578469023
 20
97.0247786309
  0
VERTEX
  8
SURFACE
 62
7
  6
CONTINUOUS
 10
84.6183966459
 20
97.0248507374
  0
VERTEX
  8
SURFACE
 62
7
  6
CONTINUOUS
 10
84.6559876993
 20
97.0260043501
  0
VERTEX
  8
SURFACE
 62
7
  6
CONTINUOUS
 10
84.6902222256
 20
97.028206369
  0
VERTEX
  8
SURFACE
 62
7
  6
CONTINUOUS
 10
84.7201765978
 20
97.0313963123
  0
VERTEX
  8
SURFACE
 62
7
  6
CONTINUOUS
 10
84.7450535014
 20
97.0354877572
  0
VERTEX
  8
SURFACE
 62
7
  6
CONTINUOUS
 10
84.7642054663
 20
97.0403707629
  0
VERTEX
  8
SURFACE
 62
7
  6
CONTINUOUS
 10
84.7771515942
 20
97.0459151126
  0
VERTEX
  8
SURFACE
 62
7
  6
CONTINUOUS
 10
84.7835867898
 20
97.0519741453
  0
VERTEX
  8
SURFACE
 62
7
  6
CONTINUOUS
 10
84.7842985613
 20
97.05444284
  0
SEQEND
  0
POLYLINE
  8
SURFACE
 62
7
  6
CONTINUOUS
 66
1
 70
0
  0
VERTEX
  8
SURFACE
 62
7
  6
CONTINUOUS
 10
97.2372893363
 20
97.0257934475
  0
VERTEX
  8
SURFACE
 62
7
  6
CONTINUOUS
 10
97.278469023
 20
97.0247786309
  0
VERTEX
  8
SURFACE
 62
7
  6
CONTINUOUS
 10
97.3183966459
 20
97.0248507374
  0
VERTEX
  8
SURFACE
 62
7
  6
CONTINUOUS
 10
97.3559876993
 20
97.0260043501
  0
VERTEX
  8
SURFACE
 62
7
  6
CONTINUOUS
 10
97.3902222256
 20
97.028206369
  0
VERTEX
  8
SURFACE
 62
7
  6
CONTINUOUS
 10
97.4201765978
 20
97.0313963123
  0
VERTEX
  8
SURFACE
 62
7
  6
CONTINUOUS
 10
97.4450535014
 20
97.0354877572
  0
VERTEX
  8
SURFACE
 62
7
  6
CONTINUOUS
 10
97.4642054663
 20
97.0403707629
  0
VERTEX
  8
SURFACE
 62
7
  6
CONTINUOUS
 10
97.4771515942
 20
97.0459151126
  0
VERTEX
  8
SURFACE
 62
7
  6
CONTINUOUS
 10
97.4835867898
 20
97.0519741453
  0
VERTEX
  8
SURFACE
 62
7
  6
CONTINUOUS
 10
97.4842985613
 20
97.05444284
  0
SEQEND
  0
POLYLINE
  8
SURFACE
 62
7
  6
CONTINUOUS
 66
1
 70
0
  0
VERTEX
  8
SURFACE
 62
7
  6
CONTINUOUS
 10
109.9372893363
 20
97.0257934475
  0
VERTEX
  8
SURFACE
 62
7
  6
CONTINUOUS
 10
109.978469023
 20
97.0247786309
  0
VERTEX
  8
SURFACE
 62
7
  6
CONTINUOUS
 10
110.0183966459
 20
97.0248507374
  0
VERTEX
  8
SURFACE
 62
7
  6
CONTINUOUS
 10
110.0559876993
 20
97.0260043501
  0
VERTEX
  8
SURFACE
 62
7
  6
CONTINUOUS
 10
110.0902222256
 20
97.028206369
  0
VERTEX
  8
SURFACE
 62
7
  6
CONTINUOUS
 10
110.1201765978
 20
97.0313963123
  0
VERTEX
  8
SURFACE
 62
7
  6
CONTINUOUS
 10
110.1450535014
 20
97.0354877572
  0
VERTEX
  8
SURFACE
 62
7
  6
CONTINUOUS
 10
110.1642054663
 20
97.0403707629
  0
VERTEX
  8
SURFACE
 62
7
  6
CONTINUOUS
 10
110.1771515942
 20
97.0459151126
  0
VERTEX
  8
SURFACE
 62
7
  6
CONTINUOUS
 10
110.1835867898
 20
97.0519741453
  0
VERTEX
  8
SURFACE
 62
7
  6
CONTINUOUS
 10
110.1842985613
 20
97.05444284
  0
SEQEND
  0
POLYLINE
  8
SURFACE
 62
7
  6
CONTINUOUS
 66
1
 70
0
  0
VERTEX
  8
SURFACE
 62
7
  6
CONTINUOUS
 10
122.6372893363
 20
97.0257934475
  0
VERTEX
  8
SURFACE
 62
7
  6
CONTINUOUS
 10
122.678469023
 20
97.0247786309
  0
VERTEX
  8
SURFACE
 62
7
  6
CONTINUOUS
 10
122.7183966459
 20
97.0248507374
  0
VERTEX
  8
SURFACE
 62
7
  6
CONTINUOUS
 10
122.7559876993
 20
97.0260043501
  0
VERTEX
  8
SURFACE
 62
7
  6
CONTINUOUS
 10
122.7902222256
 20
97.028206369
  0
VERTEX
  8
SURFACE
 62
7
  6
CONTINUOUS
 10
122.8201765978
 20
97.0313963123
  0
VERTEX
  8
SURFACE
 62
7
  6
CONTINUOUS
 10
122.8450535014
 20
97.0354877572
  0
VERTEX
  8
SURFACE
 62
7
  6
CONTINUOUS
 10
122.8642054663
 20
97.0403707629
  0
VERTEX
  8
SURFACE
 62
7
  6
CONTINUOUS
 10
122.8771515942
 20
97.0459151126
  0
VERTEX
  8
SURFACE
 62
7
  6
CONTINUOUS
 10
122.8835867898
 20
97.0519741453
  0
VERTEX
  8
SURFACE
 62
7
  6
CONTINUOUS
 10
122.8842985613
 20
97.05444284
  0
SEQEND
  0
POLYLINE
  8
SURFACE
 62
7
  6
CONTINUOUS
 66
1
 70
0
  0
VERTEX
  8
SURFACE
 62
7
  6
CONTINUOUS
 10
135.3372893363
 20
97.0257934475
  0
VERTEX
  8
SURFACE
 62
7
  6
CONTINUOUS
 10
135.378469023
 20
97.0247786309
  0
VERTEX
  8
SURFACE
 62
7
  6
CONTINUOUS
 10
135.4183966459
 20
97.0248507374
  0
VERTEX
  8
SURFACE
 62
7
  6
CONTINUOUS
 10
135.4559876993
 20
97.0260043501
  0
VERTEX
  8
SURFACE
 62
7
  6
CONTINUOUS
 10
135.4902222256
 20
97.028206369
  0
VERTEX
  8
SURFACE
 62
7
  6
CONTINUOUS
 10
135.5201765978
 20
97.0313963123
  0
VERTEX
  8
SURFACE
 62
7
  6
CONTINUOUS
 10
135.5450535014
 20
97.0354877572
  0
VERTEX
  8
SURFACE
 62
7
  6
CONTINUOUS
 10
135.5642054663
 20
97.0403707629
  0
VERTEX
  8
SURFACE
 62
7
  6
CONTINUOUS
 10
135.5771515942
 20
97.0459151126
  0
VERTEX
  8
SURFACE
 62
7
  6
CONTINUOUS
 10
135.5835867898
 20
97.0519741453
  0
VERTEX
  8
SURFACE
 62
7
  6
CONTINUOUS
 10
135.5842985613
 20
97.05444284
  0
SEQEND
  0
POLYLINE
  8
SURFACE
 62
7
  6
CONTINUOUS
 66
1
 70
0
  0
VERTEX
  8
SURFACE
 62
7
  6
CONTINUOUS
 10
148.0372893363
 20
97.0257934475
  0
VERTEX
  8
SURFACE
 62
7
  6
CONTINUOUS
 10
148.078469023
 20
97.0247786309
  0
VERTEX
  8
SURFACE
 62
7
  6
CONTINUOUS
 10
148.1183966459
 20
97.0248507374
  0
VERTEX
  8
SURFACE
 62
7
  6
CONTINUOUS
 10
148.1559876993
 20
97.0260043501
  0
VERTEX
  8
SURFACE
 62
7
  6
CONTINUOUS
 10
148.1902222256
 20
97.028206369
  0
VERTEX
  8
SURFACE
 62
7
  6
CONTINUOUS
 10
148.2201765978
 20
97.0313963123
  0
VERTEX
  8
SURFACE
 62
7
  6
CONTINUOUS
 10
148.2450535014
 20
97.0354877572
  0
VERTEX
  8
SURFACE
 62
7
  6
CONTINUOUS
 10
148.2642054663
 20
97.0403707629
  0
VERTEX
  8
SURFACE
 62
7
  6
CONTINUOUS
 10
148.2771515942
 20
97.0459151126
  0
VERTEX
  8
SURFACE
 62
7
  6
CONTINUOUS
 10
148.2835867898
 20
97.0519741453
  0
VERTEX
  8
SURFACE
 62
7
  6
CONTINUOUS
 10
148.2842985613
 20
97.05444284
  0
SEQEND
  0
POLYLINE
  8
SURFACE
 62
7
  6
CONTINUOUS
 66
1
 70
0
  0
VERTEX
  8
SURFACE
 62
7
  6
CONTINUOUS
 10
160.7372893363
 20
97.0257934475
  0
VERTEX
  8
SURFACE
 62
7
  6
CONTINUOUS
 10
160.778469023
 20
97.0247786309
  0
VERTEX
  8
SURFACE
 62
7
  6
CONTINUOUS
 10
160.8183966459
 20
97.0248507374
  0
VERTEX
  8
SURFACE
 62
7
  6
CONTINUOUS
 10
160.8559876993
 20
97.0260043501
  0
VERTEX
  8
SURFACE
 62
7
  6
CONTINUOUS
 10
160.8902222256
 20
97.028206369
  0
VERTEX
  8
SURFACE
 62
7
  6
CONTINUOUS
 10
160.9201765978
 20
97.0313963123
  0
VERTEX
  8
SURFACE
 62
7
  6
CONTINUOUS
 10
160.9450535014
 20
97.0354877572
  0
VERTEX
  8
SURFACE
 62
7
  6
CONTINUOUS
 10
160.9642054663
 20
97.0403707629
  0
VERTEX
  8
SURFACE
 62
7
  6
CONTINUOUS
 10
160.9771515942
 20
97.0459151126
  0
VERTEX
  8
SURFACE
 62
7
  6
CONTINUOUS
 10
160.9835867898
 20
97.0519741453
  0
VERTEX
  8
SURFACE
 62
7
  6
CONTINUOUS
 10
160.9842985613
 20
97.05444284
  0
SEQEND
  0
POLYLINE
  8
SURFACE
 62
7
  6
CONTINUOUS
 66
1
 70
0
  0
VERTEX
  8
SURFACE
 62
7
  6
CONTINUOUS
 10
27.6876262564
 20
101.7729150337
  0
VERTEX
  8
SURFACE
 62
7
  6
CONTINUOUS
 10
27.7004717422
 20
101.7723136942
  0
VERTEX
  8
SURFACE
 62
7
  6
CONTINUOUS
 10
27.716843333
 20
101.7698269213
  0
VERTEX
  8
SURFACE
 62
7
  6
CONTINUOUS
 10
27.7342673516
 20
101.7650133651
  0
VERTEX
  8
SURFACE
 62
7
  6
CONTINUOUS
 10
27.7520073212
 20
101.757619661
  0
VERTEX
  8
SURFACE
 62
7
  6
CONTINUOUS
 10
27.7694330787
 20
101.7475162298
  0
VERTEX
  8
SURFACE
 62
7
  6
CONTINUOUS
 10
27.7859706607
 20
101.7346696311
  0
VERTEX
  8
SURFACE
 62
7
  6
CONTINUOUS
 10
27.8010370891
 20
101.7191766586
  0
VERTEX
  8
SURFACE
 62
7
  6
CONTINUOUS
 10
27.8140758558
 20
101.7012660627
  0
VERTEX
  8
SURFACE
 62
7
  6
CONTINUOUS
 10
27.8245745563
 20
101.6813261194
  0
VERTEX
  8
SURFACE
 62
7
  6
CONTINUOUS
 10
27.8321286423
 20
101.6598698417
  0
VERTEX
  8
SURFACE
 62
7
  6
CONTINUOUS
 10
27.8364764519
 20
101.6374934599
  0
VERTEX
  8
SURFACE
 62
7
  6
CONTINUOUS
 10
27.8375718986
 20
101.6190430555
  0
SEQEND
  0
POLYLINE
  8
SURFACE
 62
7
  6
CONTINUOUS
 66
1
 70
0
  0
VERTEX
  8
SURFACE
 62
7
  6
CONTINUOUS
 10
40.3876262564
 20
101.7729150337
  0
VERTEX
  8
SURFACE
 62
7
  6
CONTINUOUS
 10
40.4004717422
 20
101.7723136942
  0
VERTEX
  8
SURFACE
 62
7
  6
CONTINUOUS
 10
40.416843333
 20
101.7698269213
  0
VERTEX
  8
SURFACE
 62
7
  6
CONTINUOUS
 10
40.4342673516
 20
101.7650133651
  0
VERTEX
  8
SURFACE
 62
7
  6
CONTINUOUS
 10
40.4520073212
 20
101.757619661
  0
VERTEX
  8
SURFACE
 62
7
  6
CONTINUOUS
 10
40.4694330787
 20
101.7475162298
  0
VERTEX
  8
SURFACE
 62
7
  6
CONTINUOUS
 10
40.4859706607
 20
101.7346696311
  0
VERTEX
  8
SURFACE
 62
7
  6
CONTINUOUS
 10
40.5010370891
 20
101.7191766586
  0
VERTEX
  8
SURFACE
 62
7
  6
CONTINUOUS
 10
40.5140758558
 20
101.7012660627
  0
VERTEX
  8
SURFACE
 62
7
  6
CONTINUOUS
 10
40.5245745563
 20
101.6813261194
  0
VERTEX
  8
SURFACE
 62
7
  6
CONTINUOUS
 10
40.5321286423
 20
101.6598698417
  0
VERTEX
  8
SURFACE
 62
7
  6
CONTINUOUS
 10
40.5364764519
 20
101.6374934599
  0
VERTEX
  8
SURFACE
 62
7
  6
CONTINUOUS
 10
40.5375718986
 20
101.6190430555
  0
SEQEND
  0
POLYLINE
  8
SURFACE
 62
7
  6
CONTINUOUS
 66
1
 70
0
  0
VERTEX
  8
SURFACE
 62
7
  6
CONTINUOUS
 10
53.0876262564
 20
101.7729150337
  0
VERTEX
  8
SURFACE
 62
7
  6
CONTINUOUS
 10
53.1004717422
 20
101.7723136942
  0
VERTEX
  8
SURFACE
 62
7
  6
CONTINUOUS
 10
53.116843333
 20
101.7698269213
  0
VERTEX
  8
SURFACE
 62
7
  6
CONTINUOUS
 10
53.1342673516
 20
101.7650133651
  0
VERTEX
  8
SURFACE
 62
7
  6
CONTINUOUS
 10
53.1520073212
 20
101.757619661
  0
VERTEX
  8
SURFACE
 62
7
  6
CONTINUOUS
 10
53.1694330787
 20
101.7475162298
  0
VERTEX
  8
SURFACE
 62
7
  6
CONTINUOUS
 10
53.1859706607
 20
101.7346696311
  0
VERTEX
  8
SURFACE
 62
7
  6
CONTINUOUS
 10
53.2010370891
 20
101.7191766586
  0
VERTEX
  8
SURFACE
 62
7
  6
CONTINUOUS
 10
53.2140758558
 20
101.7012660627
  0
VERTEX
  8
SURFACE
 62
7
  6
CONTINUOUS
 10
53.2245745563
 20
101.6813261194
  0
VERTEX
  8
SURFACE
 62
7
  6
CONTINUOUS
 10
53.2321286423
 20
101.6598698417
  0
VERTEX
  8
SURFACE
 62
7
  6
CONTINUOUS
 10
53.2364764519
 20
101.6374934599
  0
VERTEX
  8
SURFACE
 62
7
  6
CONTINUOUS
 10
53.2375718986
 20
101.6190430555
  0
SEQEND
  0
POLYLINE
  8
SURFACE
 62
7
  6
CONTINUOUS
 66
1
 70
0
  0
VERTEX
  8
SURFACE
 62
7
  6
CONTINUOUS
 10
65.7876262564
 20
101.7729150337
  0
VERTEX
  8
SURFACE
 62
7
  6
CONTINUOUS
 10
65.8004717422
 20
101.7723136942
  0
VERTEX
  8
SURFACE
 62
7
  6
CONTINUOUS
 10
65.816843333
 20
101.7698269213
  0
VERTEX
  8
SURFACE
 62
7
  6
CONTINUOUS
 10
65.8342673516
 20
101.7650133651
  0
VERTEX
  8
SURFACE
 62
7
  6
CONTINUOUS
 10
65.8520073212
 20
101.757619661
  0
VERTEX
  8
SURFACE
 62
7
  6
CONTINUOUS
 10
65.8694330787
 20
101.7475162298
  0
VERTEX
  8
SURFACE
 62
7
  6
CONTINUOUS
 10
65.8859706607
 20
101.7346696311
  0
VERTEX
  8
SURFACE
 62
7
  6
CONTINUOUS
 10
65.9010370891
 20
101.7191766586
  0
VERTEX
  8
SURFACE
 62
7
  6
CONTINUOUS
 10
65.9140758558
 20
101.7012660627
  0
VERTEX
  8
SURFACE
 62
7
  6
CONTINUOUS
 10
65.9245745563
 20
101.6813261194
  0
VERTEX
  8
SURFACE
 62
7
  6
CONTINUOUS
 10
65.9321286423
 20
101.6598698417
  0
VERTEX
  8
SURFACE
 62
7
  6
CONTINUOUS
 10
65.9364764519
 20
101.6374934599
  0
VERTEX
  8
SURFACE
 62
7
  6
CONTINUOUS
 10
65.9375718986
 20
101.6190430555
  0
SEQEND
  0
POLYLINE
  8
SURFACE
 62
7
  6
CONTINUOUS
 66
1
 70
0
  0
VERTEX
  8
SURFACE
 62
7
  6
CONTINUOUS
 10
78.4876262564
 20
101.7729150337
  0
VERTEX
  8
SURFACE
 62
7
  6
CONTINUOUS
 10
78.5004717422
 20
101.7723136942
  0
VERTEX
  8
SURFACE
 62
7
  6
CONTINUOUS
 10
78.516843333
 20
101.7698269213
  0
VERTEX
  8
SURFACE
 62
7
  6
CONTINUOUS
 10
78.5342673516
 20
101.7650133651
  0
VERTEX
  8
SURFACE
 62
7
  6
CONTINUOUS
 10
78.5520073212
 20
101.757619661
  0
VERTEX
  8
SURFACE
 62
7
  6
CONTINUOUS
 10
78.5694330787
 20
101.7475162298
  0
VERTEX
  8
SURFACE
 62
7
  6
CONTINUOUS
 10
78.5859706607
 20
101.7346696311
  0
VERTEX
  8
SURFACE
 62
7
  6
CONTINUOUS
 10
78.6010370891
 20
101.7191766586
  0
VERTEX
  8
SURFACE
 62
7
  6
CONTINUOUS
 10
78.6140758558
 20
101.7012660627
  0
VERTEX
  8
SURFACE
 62
7
  6
CONTINUOUS
 10
78.6245745563
 20
101.6813261194
  0
VERTEX
  8
SURFACE
 62
7
  6
CONTINUOUS
 10
78.6321286423
 20
101.6598698417
  0
VERTEX
  8
SURFACE
 62
7
  6
CONTINUOUS
 10
78.6364764519
 20
101.6374934599
  0
VERTEX
  8
SURFACE
 62
7
  6
CONTINUOUS
 10
78.6375718986
 20
101.6190430555
  0
SEQEND
  0
POLYLINE
  8
SURFACE
 62
7
  6
CONTINUOUS
 66
1
 70
0
  0
VERTEX
  8
SURFACE
 62
7
  6
CONTINUOUS
 10
91.1876262564
 20
101.7729150337
  0
VERTEX
  8
SURFACE
 62
7
  6
CONTINUOUS
 10
91.2004717422
 20
101.7723136942
  0
VERTEX
  8
SURFACE
 62
7
  6
CONTINUOUS
 10
91.216843333
 20
101.7698269213
  0
VERTEX
  8
SURFACE
 62
7
  6
CONTINUOUS
 10
91.2342673516
 20
101.7650133651
  0
VERTEX
  8
SURFACE
 62
7
  6
CONTINUOUS
 10
91.2520073212
 20
101.757619661
  0
VERTEX
  8
SURFACE
 62
7
  6
CONTINUOUS
 10
91.2694330787
 20
101.7475162298
  0
VERTEX
  8
SURFACE
 62
7
  6
CONTINUOUS
 10
91.2859706607
 20
101.7346696311
  0
VERTEX
  8
SURFACE
 62
7
  6
CONTINUOUS
 10
91.3010370891
 20
101.7191766586
  0
VERTEX
  8
SURFACE
 62
7
  6
CONTINUOUS
 10
91.3140758558
 20
101.7012660627
  0
VERTEX
  8
SURFACE
 62
7
  6
CONTINUOUS
 10
91.3245745563
 20
101.6813261194
  0
VERTEX
  8
SURFACE
 62
7
  6
CONTINUOUS
 10
91.3321286423
 20
101.6598698417
  0
VERTEX
  8
SURFACE
 62
7
  6
CONTINUOUS
 10
91.3364764519
 20
101.6374934599
  0
VERTEX
  8
SURFACE
 62
7
  6
CONTINUOUS
 10
91.3375718986
 20
101.6190430555
  0
SEQEND
  0
POLYLINE
  8
SURFACE
 62
7
  6
CONTINUOUS
 66
1
 70
0
  0
VERTEX
  8
SURFACE
 62
7
  6
CONTINUOUS
 10
103.8876262564
 20
101.7729150337
  0
VERTEX
  8
SURFACE
 62
7
  6
CONTINUOUS
 10
103.9004717422
 20
101.7723136942
  0
VERTEX
  8
SURFACE
 62
7
  6
CONTINUOUS
 10
103.916843333
 20
101.7698269213
  0
VERTEX
  8
SURFACE
 62
7
  6
CONTINUOUS
 10
103.9342673516
 20
101.7650133651
  0
VERTEX
  8
SURFACE
 62
7
  6
CONTINUOUS
 10
103.9520073212
 20
101.757619661
  0
VERTEX
  8
SURFACE
 62
7
  6
CONTINUOUS
 10
103.9694330787
 20
101.7475162298
  0
VERTEX
  8
SURFACE
 62
7
  6
CONTINUOUS
 10
103.9859706607
 20
101.7346696311
  0
VERTEX
  8
SURFACE
 62
7
  6
CONTINUOUS
 10
104.0010370891
 20
101.7191766586
  0
VERTEX
  8
SURFACE
 62
7
  6
CONTINUOUS
 10
104.0140758558
 20
101.7012660627
  0
VERTEX
  8
SURFACE
 62
7
  6
CONTINUOUS
 10
104.0245745563
 20
101.6813261194
  0
VERTEX
  8
SURFACE
 62
7
  6
CONTINUOUS
 10
104.0321286423
 20
101.6598698417
  0
VERTEX
  8
SURFACE
 62
7
  6
CONTINUOUS
 10
104.0364764519
 20
101.6374934599
  0
VERTEX
  8
SURFACE
 62
7
  6
CONTINUOUS
 10
104.0375718986
 20
101.6190430555
  0
SEQEND
  0
POLYLINE
  8
SURFACE
 62
7
  6
CONTINUOUS
 66
1
 70
0
  0
VERTEX
  8
SURFACE
 62
7
  6
CONTINUOUS
 10
116.5876262564
 20
101.7729150337
  0
VERTEX
  8
SURFACE
 62
7
  6
CONTINUOUS
 10
116.6004717422
 20
101.7723136942
  0
VERTEX
  8
SURFACE
 62
7
  6
CONTINUOUS
 10
116.616843333
 20
101.7698269213
  0
VERTEX
  8
SURFACE
 62
7
  6
CONTINUOUS
 10
116.6342673516
 20
101.7650133651
  0
VERTEX
  8
SURFACE
 62
7
  6
CONTINUOUS
 10
116.6520073212
 20
101.757619661
  0
VERTEX
  8
SURFACE
 62
7
  6
CONTINUOUS
 10
116.6694330787
 20
101.7475162298
  0
VERTEX
  8
SURFACE
 62
7
  6
CONTINUOUS
 10
116.6859706607
 20
101.7346696311
  0
VERTEX
  8
SURFACE
 62
7
  6
CONTINUOUS
 10
116.7010370891
 20
101.7191766586
  0
VERTEX
  8
SURFACE
 62
7
  6
CONTINUOUS
 10
116.7140758558
 20
101.7012660627
  0
VERTEX
  8
SURFACE
 62
7
  6
CONTINUOUS
 10
116.7245745563
 20
101.6813261194
  0
VERTEX
  8
SURFACE
 62
7
  6
CONTINUOUS
 10
116.7321286423
 20
101.6598698417
  0
VERTEX
  8
SURFACE
 62
7
  6
CONTINUOUS
 10
116.7364764519
 20
101.6374934599
  0
VERTEX
  8
SURFACE
 62
7
  6
CONTINUOUS
 10
116.7375718986
 20
101.6190430555
  0
SEQEND
  0
POLYLINE
  8
SURFACE
 62
7
  6
CONTINUOUS
 66
1
 70
0
  0
VERTEX
  8
SURFACE
 62
7
  6
CONTINUOUS
 10
129.2876262564
 20
101.7729150337
  0
VERTEX
  8
SURFACE
 62
7
  6
CONTINUOUS
 10
129.3004717422
 20
101.7723136942
  0
VERTEX
  8
SURFACE
 62
7
  6
CONTINUOUS
 10
129.316843333
 20
101.7698269213
  0
VERTEX
  8
SURFACE
 62
7
  6
CONTINUOUS
 10
129.3342673516
 20
101.7650133651
  0
VERTEX
  8
SURFACE
 62
7
  6
CONTINUOUS
 10
129.3520073212
 20
101.757619661
  0
VERTEX
  8
SURFACE
 62
7
  6
CONTINUOUS
 10
129.3694330787
 20
101.7475162298
  0
VERTEX
  8
SURFACE
 62
7
  6
CONTINUOUS
 10
129.3859706607
 20
101.7346696311
  0
VERTEX
  8
SURFACE
 62
7
  6
CONTINUOUS
 10
129.4010370891
 20
101.7191766586
  0
VERTEX
  8
SURFACE
 62
7
  6
CONTINUOUS
 10
129.4140758558
 20
101.7012660627
  0
VERTEX
  8
SURFACE
 62
7
  6
CONTINUOUS
 10
129.4245745563
 20
101.6813261194
  0
VERTEX
  8
SURFACE
 62
7
  6
CONTINUOUS
 10
129.4321286423
 20
101.6598698417
  0
VERTEX
  8
SURFACE
 62
7
  6
CONTINUOUS
 10
129.4364764519
 20
101.6374934599
  0
VERTEX
  8
SURFACE
 62
7
  6
CONTINUOUS
 10
129.4375718986
 20
101.6190430555
  0
SEQEND
  0
POLYLINE
  8
SURFACE
 62
7
  6
CONTINUOUS
 66
1
 70
0
  0
VERTEX
  8
SURFACE
 62
7
  6
CONTINUOUS
 10
141.9876262564
 20
101.7729150337
  0
VERTEX
  8
SURFACE
 62
7
  6
CONTINUOUS
 10
142.0004717422
 20
101.7723136942
  0
VERTEX
  8
SURFACE
 62
7
  6
CONTINUOUS
 10
142.016843333
 20
101.7698269213
  0
VERTEX
  8
SURFACE
 62
7
  6
CONTINUOUS
 10
142.0342673516
 20
101.7650133651
  0
VERTEX
  8
SURFACE
 62
7
  6
CONTINUOUS
 10
142.0520073212
 20
101.757619661
  0
VERTEX
  8
SURFACE
 62
7
  6
CONTINUOUS
 10
142.0694330787
 20
101.7475162298
  0
VERTEX
  8
SURFACE
 62
7
  6
CONTINUOUS
 10
142.0859706607
 20
101.7346696311
  0
VERTEX
  8
SURFACE
 62
7
  6
CONTINUOUS
 10
142.1010370891
 20
101.7191766586
  0
VERTEX
  8
SURFACE
 62
7
  6
CONTINUOUS
 10
142.1140758558
 20
101.7012660627
  0
VERTEX
  8
SURFACE
 62
7
  6
CONTINUOUS
 10
142.1245745563
 20
101.6813261194
  0
VERTEX
  8
SURFACE
 62
7
  6
CONTINUOUS
 10
142.1321286423
 20
101.6598698417
  0
VERTEX
  8
SURFACE
 62
7
  6
CONTINUOUS
 10
142.1364764519
 20
101.6374934599
  0
VERTEX
  8
SURFACE
 62
7
  6
CONTINUOUS
 10
142.1375718986
 20
101.6190430555
  0
SEQEND
  0
POLYLINE
  8
SURFACE
 62
7
  6
CONTINUOUS
 66
1
 70
0
  0
VERTEX
  8
SURFACE
 62
7
  6
CONTINUOUS
 10
154.6876262564
 20
101.7729150337
  0
VERTEX
  8
SURFACE
 62
7
  6
CONTINUOUS
 10
154.7004717422
 20
101.7723136942
  0
VERTEX
  8
SURFACE
 62
7
  6
CONTINUOUS
 10
154.716843333
 20
101.7698269213
  0
VERTEX
  8
SURFACE
 62
7
  6
CONTINUOUS
 10
154.7342673516
 20
101.7650133651
  0
VERTEX
  8
SURFACE
 62
7
  6
CONTINUOUS
 10
154.7520073212
 20
101.757619661
  0
VERTEX
  8
SURFACE
 62
7
  6
CONTINUOUS
 10
154.7694330787
 20
101.7475162298
  0
VERTEX
  8
SURFACE
 62
7
  6
CONTINUOUS
 10
154.7859706607
 20
101.7346696311
  0
VERTEX
  8
SURFACE
 62
7
  6
CONTINUOUS
 10
154.8010370891
 20
101.7191766586
  0
VERTEX
  8
SURFACE
 62
7
  6
CONTINUOUS
 10
154.8140758558
 20
101.7012660627
  0
VERTEX
  8
SURFACE
 62
7
  6
CONTINUOUS
 10
154.8245745562
 20
101.6813261194
  0
VERTEX
  8
SURFACE
 62
7
  6
CONTINUOUS
 10
154.8321286423
 20
101.6598698417
  0
VERTEX
  8
SURFACE
 62
7
  6
CONTINUOUS
 10
154.8364764519
 20
101.6374934599
  0
VERTEX
  8
SURFACE
 62
7
  6
CONTINUOUS
 10
154.8375718986
 20
101.6190430555
  0
SEQEND
  0
POLYLINE
  8
SURFACE
 62
7
  6
CONTINUOUS
 66
1
 70
0
  0
VERTEX
  8
SURFACE
 62
7
  6
CONTINUOUS
 10
92.7157708688
 20
93.3018929085
  0
VERTEX
  8
SURFACE
 62
7
  6
CONTINUOUS
 10
92.7499265027
 20
93.2962887561
  0
VERTEX
  8
SURFACE
 62
7
  6
CONTINUOUS
 10
92.7842981128
 20
93.2929302167
  0
VERTEX
  8
SURFACE
 62
7
  6
CONTINUOUS
 10
92.8090527462
 20
93.2921721023
  0
SEQEND
  0
POLYLINE
  8
SURFACE
 62
7
  6
CONTINUOUS
 66
1
 70
0
  0
VERTEX
  8
SURFACE
 62
7
  6
CONTINUOUS
 10
105.4157708688
 20
93.3018929085
  0
VERTEX
  8
SURFACE
 62
7
  6
CONTINUOUS
 10
105.4499265027
 20
93.2962887561
  0
VERTEX
  8
SURFACE
 62
7
  6
CONTINUOUS
 10
105.4842981128
 20
93.2929302167
  0
VERTEX
  8
SURFACE
 62
7
  6
CONTINUOUS
 10
105.5090527462
 20
93.2921721023
  0
SEQEND
  0
POLYLINE
  8
SURFACE
 62
7
  6
CONTINUOUS
 66
1
 70
0
  0
VERTEX
  8
SURFACE
 62
7
  6
CONTINUOUS
 10
118.1157708688
 20
93.3018929085
  0
VERTEX
  8
SURFACE
 62
7
  6
CONTINUOUS
 10
118.1499265027
 20
93.2962887561
  0
VERTEX
  8
SURFACE
 62
7
  6
CONTINUOUS
 10
118.1842981128
 20
93.2929302167
  0
VERTEX
  8
SURFACE
 62
7
  6
CONTINUOUS
 10
118.2090527462
 20
93.2921721023
  0
SEQEND
  0
POLYLINE
  8
SURFACE
 62
7
  6
CONTINUOUS
 66
1
 70
0
  0
VERTEX
  8
SURFACE
 62
7
  6
CONTINUOUS
 10
130.8157708688
 20
93.3018929085
  0
VERTEX
  8
SURFACE
 62
7
  6
CONTINUOUS
 10
130.8499265027
 20
93.2962887561
  0
VERTEX
  8
SURFACE
 62
7
  6
CONTINUOUS
 10
130.8842981128
 20
93.2929302167
  0
VERTEX
  8
SURFACE
 62
7
  6
CONTINUOUS
 10
130.9090527462
 20
93.2921721023
  0
SEQEND
  0
POLYLINE
  8
SURFACE
 62
7
  6
CONTINUOUS
 66
1
 70
0
  0
VERTEX
  8
SURFACE
 62
7
  6
CONTINUOUS
 10
143.5157708688
 20
93.3018929085
  0
VERTEX
  8
SURFACE
 62
7
  6
CONTINUOUS
 10
143.5499265027
 20
93.2962887561
  0
VERTEX
  8
SURFACE
 62
7
  6
CONTINUOUS
 10
143.5842981128
 20
93.2929302167
  0
VERTEX
  8
SURFACE
 62
7
  6
CONTINUOUS
 10
143.6090527462
 20
93.2921721023
  0
SEQEND
  0
POLYLINE
  8
SURFACE
 62
7
  6
CONTINUOUS
 66
1
 70
0
  0
VERTEX
  8
SURFACE
 62
7
  6
CONTINUOUS
 10
156.2157708688
 20
93.3018929085
  0
VERTEX
  8
SURFACE
 62
7
  6
CONTINUOUS
 10
156.2499265027
 20
93.2962887561
  0
VERTEX
  8
SURFACE
 62
7
  6
CONTINUOUS
 10
156.2842981128
 20
93.2929302167
  0
VERTEX
  8
SURFACE
 62
7
  6
CONTINUOUS
 10
156.3090527462
 20
93.2921721023
  0
SEQEND
  0
LINE
  8
SURFACE
 62
7
  6
CONTINUOUS
 10
92.6914563781
 20
93.3070247843
 11
92.7157708688
 21
93.3018929085
  0
LINE
  8
SURFACE
 62
7
  6
CONTINUOUS
 10
105.3914563781
 20
93.3070247843
 11
105.4157708688
 21
93.3018929085
  0
LINE
  8
SURFACE
 62
7
  6
CONTINUOUS
 10
118.0914563781
 20
93.3070247843
 11
118.1157708688
 21
93.3018929085
  0
LINE
  8
SURFACE
 62
7
  6
CONTINUOUS
 10
130.7914563781
 20
93.3070247843
 11
130.8157708688
 21
93.3018929085
  0
LINE
  8
SURFACE
 62
7
  6
CONTINUOUS
 10
143.4914563781
 20
93.3070247843
 11
143.5157708688
 21
93.3018929085
  0
LINE
  8
SURFACE
 62
7
  6
CONTINUOUS
 10
156.1914563781
 20
93.3070247843
 11
156.2157708688
 21
93.3018929085
  0
POLYLINE
  8
SURFACE
 62
7
  6
CONTINUOUS
 66
1
 70
0
  0
VERTEX
  8
SURFACE
 62
7
  6
CONTINUOUS
 10
104.037592541
 20
97.0544441123
  0
VERTEX
  8
SURFACE
 62
7
  6
CONTINUOUS
 10
104.0593924789
 20
96.8103400212
  0
VERTEX
  8
SURFACE
 62
7
  6
CONTINUOUS
 10
104.0903677575
 20
96.5168959248
  0
VERTEX
  8
SURFACE
 62
7
  6
CONTINUOUS
 10
104.1260099613
 20
96.2303556641
  0
VERTEX
  8
SURFACE
 62
7
  6
CONTINUOUS
 10
104.1662791835
 20
95.9515780547
  0
VERTEX
  8
SURFACE
 62
7
  6
CONTINUOUS
 10
104.2111384335
 20
95.6814278337
  0
VERTEX
  8
SURFACE
 62
7
  6
CONTINUOUS
 10
104.2605554646
 20
95.4207764554
  0
VERTEX
  8
SURFACE
 62
7
  6
CONTINUOUS
 10
104.3145068595
 20
95.1704968574
  0
VERTEX
  8
SURFACE
 62
7
  6
CONTINUOUS
 10
104.3729782173
 20
94.9314822115
  0
VERTEX
  8
SURFACE
 62
7
  6
CONTINUOUS
 10
104.4359673793
 20
94.7046488977
  0
VERTEX
  8
SURFACE
 62
7
  6
CONTINUOUS
 10
104.5035081893
 20
94.4908819335
  0
VERTEX
  8
SURFACE
 62
7
  6
CONTINUOUS
 10
104.5757968659
 20
94.2907625292
  0
VERTEX
  8
SURFACE
 62
7
  6
CONTINUOUS
 10
104.6534224286
 20
94.104312083
  0
VERTEX
  8
SURFACE
 62
7
  6
CONTINUOUS
 10
104.7372570563
 20
93.9317808531
  0
VERTEX
  8
SURFACE
 62
7
  6
CONTINUOUS
 10
104.8270209454
 20
93.7762140669
  0
VERTEX
  8
SURFACE
 62
7
  6
CONTINUOUS
 10
104.9203340727
 20
93.6427509206
  0
VERTEX
  8
SURFACE
 62
7
  6
CONTINUOUS
 10
105.0144718948
 20
93.5339891331
  0
VERTEX
  8
SURFACE
 62
7
  6
CONTINUOUS
 10
105.1089870607
 20
93.4480309935
  0
VERTEX
  8
SURFACE
 62
7
  6
CONTINUOUS
 10
105.2051232384
 20
93.3818812781
  0
VERTEX
  8
SURFACE
 62
7
  6
CONTINUOUS
 10
105.3036951663
 20
93.3340451902
  0
VERTEX
  8
SURFACE
 62
7
  6
CONTINUOUS
 10
105.3914851627
 20
93.3070168773
  0
SEQEND
  0
POLYLINE
  8
SURFACE
 62
7
  6
CONTINUOUS
 66
1
 70
0
  0
VERTEX
  8
SURFACE
 62
7
  6
CONTINUOUS
 10
103.8122985582
 20
125.6299000848
  0
VERTEX
  8
SURFACE
 62
7
  6
CONTINUOUS
 10
103.7904986203
 20
125.874004176
  0
VERTEX
  8
SURFACE
 62
7
  6
CONTINUOUS
 10
103.7595233418
 20
126.1674482724
  0
VERTEX
  8
SURFACE
 62
7
  6
CONTINUOUS
 10
103.723881138
 20
126.453988533
  0
VERTEX
  8
SURFACE
 62
7
  6
CONTINUOUS
 10
103.6836119157
 20
126.7327661424
  0
VERTEX
  8
SURFACE
 62
7
  6
CONTINUOUS
 10
103.6387526658
 20
127.0029163634
  0
VERTEX
  8
SURFACE
 62
7
  6
CONTINUOUS
 10
103.5893356347
 20
127.2635677417
  0
VERTEX
  8
SURFACE
 62
7
  6
CONTINUOUS
 10
103.5353842398
 20
127.5138473397
  0
VERTEX
  8
SURFACE
 62
7
  6
CONTINUOUS
 10
103.476912882
 20
127.7528619856
  0
VERTEX
  8
SURFACE
 62
7
  6
CONTINUOUS
 10
103.41392372
 20
127.9796952994
  0
VERTEX
  8
SURFACE
 62
7
  6
CONTINUOUS
 10
103.34638291
 20
128.1934622636
  0
VERTEX
  8
SURFACE
 62
7
  6
CONTINUOUS
 10
103.2740942334
 20
128.3935816679
  0
VERTEX
  8
SURFACE
 62
7
  6
CONTINUOUS
 10
103.1964686707
 20
128.5800321142
  0
VERTEX
  8
SURFACE
 62
7
  6
CONTINUOUS
 10
103.112634043
 20
128.752563344
  0
VERTEX
  8
SURFACE
 62
7
  6
CONTINUOUS
 10
103.0228701539
 20
128.9081301302
  0
VERTEX
  8
SURFACE
 62
7
  6
CONTINUOUS
 10
102.9295570266
 20
129.0415932765
  0
VERTEX
  8
SURFACE
 62
7
  6
CONTINUOUS
 10
102.8354192045
 20
129.150355064
  0
VERTEX
  8
SURFACE
 62
7
  6
CONTINUOUS
 10
102.7409040386
 20
129.2363132036
  0
VERTEX
  8
SURFACE
 62
7
  6
CONTINUOUS
 10
102.6447678609
 20
129.302462919
  0
VERTEX
  8
SURFACE
 62
7
  6
CONTINUOUS
 10
102.546195933
 20
129.3502990069
  0
VERTEX
  8
SURFACE
 62
7
  6
CONTINUOUS
 10
102.4584059366
 20
129.3773273198
  0
SEQEND
  0
LINE
  8
SURFACE
 62
7
  6
CONTINUOUS
 10
104.0375925384
 20
97.0544428351
 11
104.0375718103
 21
97.0549509616
  0
LINE
  8
SURFACE
 62
7
  6
CONTINUOUS
 10
103.8122985608
 20
125.629901362
 11
103.8123192889
 21
125.6293932355
  0
LINE
  8
SURFACE
 62
7
  6
CONTINUOUS
 10
97.4843192892
 20
97.0549854332
 11
97.4843192892
 21
101.6192600041
  0
LINE
  8
SURFACE
 62
7
  6
CONTINUOUS
 10
97.6655718101
 20
125.6293587639
 11
97.6655718101
 21
121.0650841931
  0
LINE
  8
SURFACE
 62
7
  6
CONTINUOUS
 10
103.8123192892
 20
125.6293587637
 11
103.8123192892
 21
121.0650884439
  0
LINE
  8
SURFACE
 62
7
  6
CONTINUOUS
 10
104.0375718101
 20
97.0549854334
 11
104.0375718101
 21
101.6192557533
  0
LINE
  8
SURFACE
 62
7
  6
CONTINUOUS
 10
110.1843192892
 20
97.0549854332
 11
110.1843192892
 21
101.6192600041
  0
LINE
  8
SURFACE
 62
7
  6
CONTINUOUS
 10
110.3655718101
 20
125.6293587639
 11
110.3655718101
 21
121.0650841931
  0
LINE
  8
SURFACE
 62
7
  6
CONTINUOUS
 10
97.665592538
 20
125.6299013571
 11
97.6655718103
 21
125.6293932357
  0
LINE
  8
SURFACE
 62
7
  6
CONTINUOUS
 10
97.4842985613
 20
97.05444284
 11
97.4843192889
 21
97.0549509614
  0
LINE
  8
SURFACE
 62
7
  6
CONTINUOUS
 10
110.365592538
 20
125.6299013571
 11
110.3655718103
 21
125.6293932357
  0
LINE
  8
SURFACE
 62
7
  6
CONTINUOUS
 10
110.1842985613
 20
97.05444284
 11
110.1843192889
 21
97.0549509614
  0
POLYLINE
  8
SURFACE
 62
7
  6
CONTINUOUS
 66
1
 70
0
  0
VERTEX
  8
SURFACE
 62
7
  6
CONTINUOUS
 10
97.6655718988
 20
121.0652970546
  0
VERTEX
  8
SURFACE
 62
7
  6
CONTINUOUS
 10
97.6644768015
 20
121.0468498989
  0
VERTEX
  8
SURFACE
 62
7
  6
CONTINUOUS
 10
97.6601298199
 20
121.0244753058
  0
VERTEX
  8
SURFACE
 62
7
  6
CONTINUOUS
 10
97.6525769463
 20
121.0030205468
  0
VERTEX
  8
SURFACE
 62
7
  6
CONTINUOUS
 10
97.6420796276
 20
120.9830815616
  0
VERTEX
  8
SURFACE
 62
7
  6
CONTINUOUS
 10
97.629042059
 20
120.9651711788
  0
VERTEX
  8
SURFACE
 62
7
  6
CONTINUOUS
 10
97.6139762735
 20
120.9496777034
  0
VERTEX
  8
SURFACE
 62
7
  6
CONTINUOUS
 10
97.5974386945
 20
120.9368302343
  0
VERTEX
  8
SURFACE
 62
7
  6
CONTINUOUS
 10
97.5800124239
 20
120.9267259105
  0
VERTEX
  8
SURFACE
 62
7
  6
CONTINUOUS
 10
97.5622716596
 20
120.919331516
  0
VERTEX
  8
SURFACE
 62
7
  6
CONTINUOUS
 10
97.5448467316
 20
120.9145175305
  0
VERTEX
  8
SURFACE
 62
7
  6
CONTINUOUS
 10
97.5284740058
 20
120.9120305351
  0
VERTEX
  8
SURFACE
 62
7
  6
CONTINUOUS
 10
97.5156278229
 20
120.9114291644
  0
SEQEND
  0
POLYLINE
  8
SURFACE
 62
7
  6
CONTINUOUS
 66
1
 70
0
  0
VERTEX
  8
SURFACE
 62
7
  6
CONTINUOUS
 10
97.4843192005
 20
101.6190471425
  0
VERTEX
  8
SURFACE
 62
7
  6
CONTINUOUS
 10
97.4854142978
 20
101.6374942983
  0
VERTEX
  8
SURFACE
 62
7
  6
CONTINUOUS
 10
97.4897612794
 20
101.6598688913
  0
VERTEX
  8
SURFACE
 62
7
  6
CONTINUOUS
 10
97.497314153
 20
101.6813236503
  0
VERTEX
  8
SURFACE
 62
7
  6
CONTINUOUS
 10
97.5078114716
 20
101.7012626356
  0
VERTEX
  8
SURFACE
 62
7
  6
CONTINUOUS
 10
97.5208490403
 20
101.7191730184
  0
VERTEX
  8
SURFACE
 62
7
  6
CONTINUOUS
 10
97.5359148258
 20
101.7346664937
  0
VERTEX
  8
SURFACE
 62
7
  6
CONTINUOUS
 10
97.5524524048
 20
101.7475139628
  0
VERTEX
  8
SURFACE
 62
7
  6
CONTINUOUS
 10
97.5698786754
 20
101.7576182866
  0
VERTEX
  8
SURFACE
 62
7
  6
CONTINUOUS
 10
97.5876194397
 20
101.7650126812
  0
VERTEX
  8
SURFACE
 62
7
  6
CONTINUOUS
 10
97.6050443677
 20
101.7698266667
  0
VERTEX
  8
SURFACE
 62
7
  6
CONTINUOUS
 10
97.6214170935
 20
101.772313662
  0
VERTEX
  8
SURFACE
 62
7
  6
CONTINUOUS
 10
97.6342632764
 20
101.7729150327
  0
SEQEND
  0
POLYLINE
  8
SURFACE
 62
7
  6
CONTINUOUS
 66
1
 70
0
  0
VERTEX
  8
SURFACE
 62
7
  6
CONTINUOUS
 10
110.3655718988
 20
121.0652970546
  0
VERTEX
  8
SURFACE
 62
7
  6
CONTINUOUS
 10
110.3644768015
 20
121.0468498989
  0
VERTEX
  8
SURFACE
 62
7
  6
CONTINUOUS
 10
110.3601298199
 20
121.0244753058
  0
VERTEX
  8
SURFACE
 62
7
  6
CONTINUOUS
 10
110.3525769463
 20
121.0030205468
  0
VERTEX
  8
SURFACE
 62
7
  6
CONTINUOUS
 10
110.3420796276
 20
120.9830815616
  0
VERTEX
  8
SURFACE
 62
7
  6
CONTINUOUS
 10
110.329042059
 20
120.9651711788
  0
VERTEX
  8
SURFACE
 62
7
  6
CONTINUOUS
 10
110.3139762735
 20
120.9496777034
  0
VERTEX
  8
SURFACE
 62
7
  6
CONTINUOUS
 10
110.2974386945
 20
120.9368302343
  0
VERTEX
  8
SURFACE
 62
7
  6
CONTINUOUS
 10
110.2800124239
 20
120.9267259105
  0
VERTEX
  8
SURFACE
 62
7
  6
CONTINUOUS
 10
110.2622716596
 20
120.919331516
  0
VERTEX
  8
SURFACE
 62
7
  6
CONTINUOUS
 10
110.2448467316
 20
120.9145175305
  0
VERTEX
  8
SURFACE
 62
7
  6
CONTINUOUS
 10
110.2284740058
 20
120.9120305351
  0
VERTEX
  8
SURFACE
 62
7
  6
CONTINUOUS
 10
110.2156278229
 20
120.9114291644
  0
SEQEND
  0
POLYLINE
  8
SURFACE
 62
7
  6
CONTINUOUS
 66
1
 70
0
  0
VERTEX
  8
SURFACE
 62
7
  6
CONTINUOUS
 10
110.1843192005
 20
101.6190471425
  0
VERTEX
  8
SURFACE
 62
7
  6
CONTINUOUS
 10
110.1854142978
 20
101.6374942983
  0
VERTEX
  8
SURFACE
 62
7
  6
CONTINUOUS
 10
110.1897612794
 20
101.6598688913
  0
VERTEX
  8
SURFACE
 62
7
  6
CONTINUOUS
 10
110.197314153
 20
101.6813236503
  0
VERTEX
  8
SURFACE
 62
7
  6
CONTINUOUS
 10
110.2078114716
 20
101.7012626356
  0
VERTEX
  8
SURFACE
 62
7
  6
CONTINUOUS
 10
110.2208490403
 20
101.7191730184
  0
VERTEX
  8
SURFACE
 62
7
  6
CONTINUOUS
 10
110.2359148258
 20
101.7346664937
  0
VERTEX
  8
SURFACE
 62
7
  6
CONTINUOUS
 10
110.2524524048
 20
101.7475139628
  0
VERTEX
  8
SURFACE
 62
7
  6
CONTINUOUS
 10
110.2698786754
 20
101.7576182866
  0
VERTEX
  8
SURFACE
 62
7
  6
CONTINUOUS
 10
110.2876194397
 20
101.7650126812
  0
VERTEX
  8
SURFACE
 62
7
  6
CONTINUOUS
 10
110.3050443677
 20
101.7698266667
  0
VERTEX
  8
SURFACE
 62
7
  6
CONTINUOUS
 10
110.3214170935
 20
101.772313662
  0
VERTEX
  8
SURFACE
 62
7
  6
CONTINUOUS
 10
110.3342632764
 20
101.7729150327
  0
SEQEND
  0
POLYLINE
  8
SURFACE
 62
7
  6
CONTINUOUS
 66
1
 70
0
  0
VERTEX
  8
SURFACE
 62
7
  6
CONTINUOUS
 10
45.330398059
 20
93.3070149071
  0
VERTEX
  8
SURFACE
 62
7
  6
CONTINUOUS
 10
45.4191432171
 20
93.3344146519
  0
VERTEX
  8
SURFACE
 62
7
  6
CONTINUOUS
 10
45.5176290157
 20
93.382385387
  0
VERTEX
  8
SURFACE
 62
7
  6
CONTINUOUS
 10
45.613687306
 20
93.4486548316
  0
VERTEX
  8
SURFACE
 62
7
  6
CONTINUOUS
 10
45.7081349274
 20
93.5347254621
  0
VERTEX
  8
SURFACE
 62
7
  6
CONTINUOUS
 10
45.8022111632
 20
93.643594045
  0
VERTEX
  8
SURFACE
 62
7
  6
CONTINUOUS
 10
45.8954506394
 20
93.7771308873
  0
VERTEX
  8
SURFACE
 62
7
  6
CONTINUOUS
 10
45.9851461717
 20
93.9327514382
  0
VERTEX
  8
SURFACE
 62
7
  6
CONTINUOUS
 10
46.0689375254
 20
94.1053576118
  0
VERTEX
  8
SURFACE
 62
7
  6
CONTINUOUS
 10
46.1465454147
 20
94.2919284088
  0
VERTEX
  8
SURFACE
 62
7
  6
CONTINUOUS
 10
46.2188249071
 20
94.4921921776
  0
VERTEX
  8
SURFACE
 62
7
  6
CONTINUOUS
 10
46.2863522536
 20
94.7060971766
  0
VERTEX
  8
SURFACE
 62
7
  6
CONTINUOUS
 10
46.3493226811
 20
94.9330556886
  0
VERTEX
  8
SURFACE
 62
7
  6
CONTINUOUS
 10
46.4077724943
 20
95.1721883809
  0
VERTEX
  8
SURFACE
 62
7
  6
CONTINUOUS
 10
46.4617014346
 20
95.4225862855
  0
VERTEX
  8
SURFACE
 62
7
  6
CONTINUOUS
 10
46.5110952625
 20
95.6833585375
  0
VERTEX
  8
SURFACE
 62
7
  6
CONTINUOUS
 10
46.5559298726
 20
95.9536301798
  0
VERTEX
  8
SURFACE
 62
7
  6
CONTINUOUS
 10
46.5961724714
 20
96.2325272235
  0
VERTEX
  8
SURFACE
 62
7
  6
CONTINUOUS
 10
46.6317856797
 20
96.5191820187
  0
VERTEX
  8
SURFACE
 62
7
  6
CONTINUOUS
 10
46.6627293677
 20
96.8127325437
  0
VERTEX
  8
SURFACE
 62
7
  6
CONTINUOUS
 10
46.6842985587
 20
97.0544441173
  0
SEQEND
  0
POLYLINE
  8
SURFACE
 62
7
  6
CONTINUOUS
 66
1
 70
0
  0
VERTEX
  8
SURFACE
 62
7
  6
CONTINUOUS
 10
162.5194930403
 20
129.3773292901
  0
VERTEX
  8
SURFACE
 62
7
  6
CONTINUOUS
 10
162.4307478822
 20
129.3499295452
  0
VERTEX
  8
SURFACE
 62
7
  6
CONTINUOUS
 10
162.3322620836
 20
129.3019588102
  0
VERTEX
  8
SURFACE
 62
7
  6
CONTINUOUS
 10
162.2362037933
 20
129.2356893655
  0
VERTEX
  8
SURFACE
 62
7
  6
CONTINUOUS
 10
162.1417561718
 20
129.1496187351
  0
VERTEX
  8
SURFACE
 62
7
  6
CONTINUOUS
 10
162.0476799361
 20
129.0407501521
  0
VERTEX
  8
SURFACE
 62
7
  6
CONTINUOUS
 10
161.9544404599
 20
128.9072133098
  0
VERTEX
  8
SURFACE
 62
7
  6
CONTINUOUS
 10
161.8647449275
 20
128.7515927589
  0
VERTEX
  8
SURFACE
 62
7
  6
CONTINUOUS
 10
161.7809535739
 20
128.5789865854
  0
VERTEX
  8
SURFACE
 62
7
  6
CONTINUOUS
 10
161.7033456845
 20
128.3924157883
  0
VERTEX
  8
SURFACE
 62
7
  6
CONTINUOUS
 10
161.6310661922
 20
128.1921520195
  0
VERTEX
  8
SURFACE
 62
7
  6
CONTINUOUS
 10
161.5635388457
 20
127.9782470205
  0
VERTEX
  8
SURFACE
 62
7
  6
CONTINUOUS
 10
161.5005684182
 20
127.7512885085
  0
VERTEX
  8
SURFACE
 62
7
  6
CONTINUOUS
 10
161.4421186049
 20
127.5121558163
  0
VERTEX
  8
SURFACE
 62
7
  6
CONTINUOUS
 10
161.3881896647
 20
127.2617579116
  0
VERTEX
  8
SURFACE
 62
7
  6
CONTINUOUS
 10
161.3387958368
 20
127.0009856596
  0
VERTEX
  8
SURFACE
 62
7
  6
CONTINUOUS
 10
161.2939612266
 20
126.7307140173
  0
VERTEX
  8
SURFACE
 62
7
  6
CONTINUOUS
 10
161.2537186279
 20
126.4518169736
  0
VERTEX
  8
SURFACE
 62
7
  6
CONTINUOUS
 10
161.2181054196
 20
126.1651621785
  0
VERTEX
  8
SURFACE
 62
7
  6
CONTINUOUS
 10
161.1871617316
 20
125.8716116534
  0
VERTEX
  8
SURFACE
 62
7
  6
CONTINUOUS
 10
161.1655925406
 20
125.6299000798
  0
SEQEND
  0
POLYLINE
  8
SURFACE
 62
7
  6
CONTINUOUS
 66
1
 70
0
  0
VERTEX
  8
SURFACE
 62
7
  6
CONTINUOUS
 10
58.030398059
 20
93.3070149071
  0
VERTEX
  8
SURFACE
 62
7
  6
CONTINUOUS
 10
58.1191432171
 20
93.3344146519
  0
VERTEX
  8
SURFACE
 62
7
  6
CONTINUOUS
 10
58.2176290157
 20
93.382385387
  0
VERTEX
  8
SURFACE
 62
7
  6
CONTINUOUS
 10
58.313687306
 20
93.4486548316
  0
VERTEX
  8
SURFACE
 62
7
  6
CONTINUOUS
 10
58.4081349274
 20
93.5347254621
  0
VERTEX
  8
SURFACE
 62
7
  6
CONTINUOUS
 10
58.5022111632
 20
93.643594045
  0
VERTEX
  8
SURFACE
 62
7
  6
CONTINUOUS
 10
58.5954506394
 20
93.7771308873
  0
VERTEX
  8
SURFACE
 62
7
  6
CONTINUOUS
 10
58.6851461717
 20
93.9327514382
  0
VERTEX
  8
SURFACE
 62
7
  6
CONTINUOUS
 10
58.7689375254
 20
94.1053576118
  0
VERTEX
  8
SURFACE
 62
7
  6
CONTINUOUS
 10
58.8465454147
 20
94.2919284088
  0
VERTEX
  8
SURFACE
 62
7
  6
CONTINUOUS
 10
58.9188249071
 20
94.4921921776
  0
VERTEX
  8
SURFACE
 62
7
  6
CONTINUOUS
 10
58.9863522536
 20
94.7060971766
  0
VERTEX
  8
SURFACE
 62
7
  6
CONTINUOUS
 10
59.0493226811
 20
94.9330556886
  0
VERTEX
  8
SURFACE
 62
7
  6
CONTINUOUS
 10
59.1077724943
 20
95.1721883809
  0
VERTEX
  8
SURFACE
 62
7
  6
CONTINUOUS
 10
59.1617014346
 20
95.4225862855
  0
VERTEX
  8
SURFACE
 62
7
  6
CONTINUOUS
 10
59.2110952625
 20
95.6833585375
  0
VERTEX
  8
SURFACE
 62
7
  6
CONTINUOUS
 10
59.2559298726
 20
95.9536301798
  0
VERTEX
  8
SURFACE
 62
7
  6
CONTINUOUS
 10
59.2961724714
 20
96.2325272235
  0
VERTEX
  8
SURFACE
 62
7
  6
CONTINUOUS
 10
59.3317856797
 20
96.5191820187
  0
VERTEX
  8
SURFACE
 62
7
  6
CONTINUOUS
 10
59.3627293677
 20
96.8127325438
  0
VERTEX
  8
SURFACE
 62
7
  6
CONTINUOUS
 10
59.3842985587
 20
97.0544441173
  0
SEQEND
  0
POLYLINE
  8
SURFACE
 62
7
  6
CONTINUOUS
 66
1
 70
0
  0
VERTEX
  8
SURFACE
 62
7
  6
CONTINUOUS
 10
70.730398059
 20
93.3070149071
  0
VERTEX
  8
SURFACE
 62
7
  6
CONTINUOUS
 10
70.8191432171
 20
93.3344146519
  0
VERTEX
  8
SURFACE
 62
7
  6
CONTINUOUS
 10
70.9176290157
 20
93.382385387
  0
VERTEX
  8
SURFACE
 62
7
  6
CONTINUOUS
 10
71.013687306
 20
93.4486548316
  0
VERTEX
  8
SURFACE
 62
7
  6
CONTINUOUS
 10
71.1081349274
 20
93.5347254621
  0
VERTEX
  8
SURFACE
 62
7
  6
CONTINUOUS
 10
71.2022111632
 20
93.643594045
  0
VERTEX
  8
SURFACE
 62
7
  6
CONTINUOUS
 10
71.2954506394
 20
93.7771308873
  0
VERTEX
  8
SURFACE
 62
7
  6
CONTINUOUS
 10
71.3851461717
 20
93.9327514382
  0
VERTEX
  8
SURFACE
 62
7
  6
CONTINUOUS
 10
71.4689375254
 20
94.1053576118
  0
VERTEX
  8
SURFACE
 62
7
  6
CONTINUOUS
 10
71.5465454147
 20
94.2919284088
  0
VERTEX
  8
SURFACE
 62
7
  6
CONTINUOUS
 10
71.6188249071
 20
94.4921921776
  0
VERTEX
  8
SURFACE
 62
7
  6
CONTINUOUS
 10
71.6863522536
 20
94.7060971766
  0
VERTEX
  8
SURFACE
 62
7
  6
CONTINUOUS
 10
71.7493226811
 20
94.9330556886
  0
VERTEX
  8
SURFACE
 62
7
  6
CONTINUOUS
 10
71.8077724943
 20
95.1721883809
  0
VERTEX
  8
SURFACE
 62
7
  6
CONTINUOUS
 10
71.8617014346
 20
95.4225862855
  0
VERTEX
  8
SURFACE
 62
7
  6
CONTINUOUS
 10
71.9110952625
 20
95.6833585375
  0
VERTEX
  8
SURFACE
 62
7
  6
CONTINUOUS
 10
71.9559298726
 20
95.9536301798
  0
VERTEX
  8
SURFACE
 62
7
  6
CONTINUOUS
 10
71.9961724714
 20
96.2325272235
  0
VERTEX
  8
SURFACE
 62
7
  6
CONTINUOUS
 10
72.0317856797
 20
96.5191820187
  0
VERTEX
  8
SURFACE
 62
7
  6
CONTINUOUS
 10
72.0627293677
 20
96.8127325438
  0
VERTEX
  8
SURFACE
 62
7
  6
CONTINUOUS
 10
72.0842985587
 20
97.0544441173
  0
SEQEND
  0
POLYLINE
  8
SURFACE
 62
7
  6
CONTINUOUS
 66
1
 70
0
  0
VERTEX
  8
SURFACE
 62
7
  6
CONTINUOUS
 10
83.430398059
 20
93.3070149071
  0
VERTEX
  8
SURFACE
 62
7
  6
CONTINUOUS
 10
83.5191432171
 20
93.3344146519
  0
VERTEX
  8
SURFACE
 62
7
  6
CONTINUOUS
 10
83.6176290157
 20
93.382385387
  0
VERTEX
  8
SURFACE
 62
7
  6
CONTINUOUS
 10
83.713687306
 20
93.4486548316
  0
VERTEX
  8
SURFACE
 62
7
  6
CONTINUOUS
 10
83.8081349274
 20
93.5347254621
  0
VERTEX
  8
SURFACE
 62
7
  6
CONTINUOUS
 10
83.9022111632
 20
93.643594045
  0
VERTEX
  8
SURFACE
 62
7
  6
CONTINUOUS
 10
83.9954506394
 20
93.7771308873
  0
VERTEX
  8
SURFACE
 62
7
  6
CONTINUOUS
 10
84.0851461717
 20
93.9327514382
  0
VERTEX
  8
SURFACE
 62
7
  6
CONTINUOUS
 10
84.1689375254
 20
94.1053576118
  0
VERTEX
  8
SURFACE
 62
7
  6
CONTINUOUS
 10
84.2465454147
 20
94.2919284088
  0
VERTEX
  8
SURFACE
 62
7
  6
CONTINUOUS
 10
84.3188249071
 20
94.4921921776
  0
VERTEX
  8
SURFACE
 62
7
  6
CONTINUOUS
 10
84.3863522536
 20
94.7060971766
  0
VERTEX
  8
SURFACE
 62
7
  6
CONTINUOUS
 10
84.4493226811
 20
94.9330556886
  0
VERTEX
  8
SURFACE
 62
7
  6
CONTINUOUS
 10
84.5077724943
 20
95.1721883809
  0
VERTEX
  8
SURFACE
 62
7
  6
CONTINUOUS
 10
84.5617014346
 20
95.4225862855
  0
VERTEX
  8
SURFACE
 62
7
  6
CONTINUOUS
 10
84.6110952625
 20
95.6833585375
  0
VERTEX
  8
SURFACE
 62
7
  6
CONTINUOUS
 10
84.6559298726
 20
95.9536301798
  0
VERTEX
  8
SURFACE
 62
7
  6
CONTINUOUS
 10
84.6961724714
 20
96.2325272235
  0
VERTEX
  8
SURFACE
 62
7
  6
CONTINUOUS
 10
84.7317856797
 20
96.5191820187
  0
VERTEX
  8
SURFACE
 62
7
  6
CONTINUOUS
 10
84.7627293677
 20
96.8127325438
  0
VERTEX
  8
SURFACE
 62
7
  6
CONTINUOUS
 10
84.7842985587
 20
97.0544441173
  0
SEQEND
  0
POLYLINE
  8
SURFACE
 62
7
  6
CONTINUOUS
 66
1
 70
0
  0
VERTEX
  8
SURFACE
 62
7
  6
CONTINUOUS
 10
96.130398059
 20
93.3070149071
  0
VERTEX
  8
SURFACE
 62
7
  6
CONTINUOUS
 10
96.2191432171
 20
93.3344146519
  0
VERTEX
  8
SURFACE
 62
7
  6
CONTINUOUS
 10
96.3176290157
 20
93.382385387
  0
VERTEX
  8
SURFACE
 62
7
  6
CONTINUOUS
 10
96.413687306
 20
93.4486548316
  0
VERTEX
  8
SURFACE
 62
7
  6
CONTINUOUS
 10
96.5081349274
 20
93.5347254621
  0
VERTEX
  8
SURFACE
 62
7
  6
CONTINUOUS
 10
96.6022111632
 20
93.643594045
  0
VERTEX
  8
SURFACE
 62
7
  6
CONTINUOUS
 10
96.6954506394
 20
93.7771308873
  0
VERTEX
  8
SURFACE
 62
7
  6
CONTINUOUS
 10
96.7851461717
 20
93.9327514382
  0
VERTEX
  8
SURFACE
 62
7
  6
CONTINUOUS
 10
96.8689375254
 20
94.1053576118
  0
VERTEX
  8
SURFACE
 62
7
  6
CONTINUOUS
 10
96.9465454147
 20
94.2919284088
  0
VERTEX
  8
SURFACE
 62
7
  6
CONTINUOUS
 10
97.0188249071
 20
94.4921921776
  0
VERTEX
  8
SURFACE
 62
7
  6
CONTINUOUS
 10
97.0863522536
 20
94.7060971766
  0
VERTEX
  8
SURFACE
 62
7
  6
CONTINUOUS
 10
97.1493226811
 20
94.9330556886
  0
VERTEX
  8
SURFACE
 62
7
  6
CONTINUOUS
 10
97.2077724943
 20
95.1721883809
  0
VERTEX
  8
SURFACE
 62
7
  6
CONTINUOUS
 10
97.2617014346
 20
95.4225862855
  0
VERTEX
  8
SURFACE
 62
7
  6
CONTINUOUS
 10
97.3110952625
 20
95.6833585375
  0
VERTEX
  8
SURFACE
 62
7
  6
CONTINUOUS
 10
97.3559298726
 20
95.9536301798
  0
VERTEX
  8
SURFACE
 62
7
  6
CONTINUOUS
 10
97.3961724714
 20
96.2325272235
  0
VERTEX
  8
SURFACE
 62
7
  6
CONTINUOUS
 10
97.4317856797
 20
96.5191820187
  0
VERTEX
  8
SURFACE
 62
7
  6
CONTINUOUS
 10
97.4627293677
 20
96.8127325438
  0
VERTEX
  8
SURFACE
 62
7
  6
CONTINUOUS
 10
97.4842985587
 20
97.0544441173
  0
SEQEND
  0
POLYLINE
  8
SURFACE
 62
7
  6
CONTINUOUS
 66
1
 70
0
  0
VERTEX
  8
SURFACE
 62
7
  6
CONTINUOUS
 10
108.830398059
 20
93.3070149071
  0
VERTEX
  8
SURFACE
 62
7
  6
CONTINUOUS
 10
108.9191432171
 20
93.3344146519
  0
VERTEX
  8
SURFACE
 62
7
  6
CONTINUOUS
 10
109.0176290157
 20
93.382385387
  0
VERTEX
  8
SURFACE
 62
7
  6
CONTINUOUS
 10
109.113687306
 20
93.4486548316
  0
VERTEX
  8
SURFACE
 62
7
  6
CONTINUOUS
 10
109.2081349274
 20
93.5347254621
  0
VERTEX
  8
SURFACE
 62
7
  6
CONTINUOUS
 10
109.3022111632
 20
93.643594045
  0
VERTEX
  8
SURFACE
 62
7
  6
CONTINUOUS
 10
109.3954506394
 20
93.7771308873
  0
VERTEX
  8
SURFACE
 62
7
  6
CONTINUOUS
 10
109.4851461717
 20
93.9327514382
  0
VERTEX
  8
SURFACE
 62
7
  6
CONTINUOUS
 10
109.5689375254
 20
94.1053576118
  0
VERTEX
  8
SURFACE
 62
7
  6
CONTINUOUS
 10
109.6465454147
 20
94.2919284088
  0
VERTEX
  8
SURFACE
 62
7
  6
CONTINUOUS
 10
109.7188249071
 20
94.4921921776
  0
VERTEX
  8
SURFACE
 62
7
  6
CONTINUOUS
 10
109.7863522536
 20
94.7060971766
  0
VERTEX
  8
SURFACE
 62
7
  6
CONTINUOUS
 10
109.8493226811
 20
94.9330556886
  0
VERTEX
  8
SURFACE
 62
7
  6
CONTINUOUS
 10
109.9077724943
 20
95.1721883809
  0
VERTEX
  8
SURFACE
 62
7
  6
CONTINUOUS
 10
109.9617014346
 20
95.4225862855
  0
VERTEX
  8
SURFACE
 62
7
  6
CONTINUOUS
 10
110.0110952625
 20
95.6833585375
  0
VERTEX
  8
SURFACE
 62
7
  6
CONTINUOUS
 10
110.0559298726
 20
95.9536301798
  0
VERTEX
  8
SURFACE
 62
7
  6
CONTINUOUS
 10
110.0961724714
 20
96.2325272235
  0
VERTEX
  8
SURFACE
 62
7
  6
CONTINUOUS
 10
110.1317856797
 20
96.5191820187
  0
VERTEX
  8
SURFACE
 62
7
  6
CONTINUOUS
 10
110.1627293677
 20
96.8127325438
  0
VERTEX
  8
SURFACE
 62
7
  6
CONTINUOUS
 10
110.1842985587
 20
97.0544441173
  0
SEQEND
  0
LINE
  8
SURFACE
 62
7
  6
CONTINUOUS
 10
149.8194547283
 20
129.3773190361
 11
149.8194933676
 21
129.3773278543
  0
LINE
  8
SURFACE
 62
7
  6
CONTINUOUS
 10
137.1194547283
 20
129.3773190361
 11
137.1194933676
 21
129.3773278543
  0
LINE
  8
SURFACE
 62
7
  6
CONTINUOUS
 10
124.4194547283
 20
129.3773190361
 11
124.4194933676
 21
129.3773278543
  0
LINE
  8
SURFACE
 62
7
  6
CONTINUOUS
 10
111.7194547283
 20
129.3773190361
 11
111.7194933676
 21
129.3773278543
  0
LINE
  8
SURFACE
 62
7
  6
CONTINUOUS
 10
99.0194547283
 20
129.3773190361
 11
99.0194933676
 21
129.3773278543
  0
LINE
  8
SURFACE
 62
7
  6
CONTINUOUS
 10
86.3194547283
 20
129.3773190361
 11
86.3194933676
 21
129.3773278543
  0
LINE
  8
SURFACE
 62
7
  6
CONTINUOUS
 10
73.6194547283
 20
129.3773190361
 11
73.6194933676
 21
129.3773278543
  0
LINE
  8
SURFACE
 62
7
  6
CONTINUOUS
 10
162.5430140668
 20
129.3823048195
 11
162.5194547283
 21
129.3773190361
  0
LINE
  8
SURFACE
 62
7
  6
CONTINUOUS
 10
149.8430140668
 20
129.3823048195
 11
149.8194547283
 21
129.3773190361
  0
LINE
  8
SURFACE
 62
7
  6
CONTINUOUS
 10
137.1430140668
 20
129.3823048195
 11
137.1194547283
 21
129.3773190361
  0
LINE
  8
SURFACE
 62
7
  6
CONTINUOUS
 10
124.4430140668
 20
129.3823048195
 11
124.4194547283
 21
129.3773190361
  0
LINE
  8
SURFACE
 62
7
  6
CONTINUOUS
 10
111.7430140668
 20
129.3823048195
 11
111.7194547283
 21
129.3773190361
  0
LINE
  8
SURFACE
 62
7
  6
CONTINUOUS
 10
99.0430140668
 20
129.3823048195
 11
99.0194547283
 21
129.3773190361
  0
LINE
  8
SURFACE
 62
7
  6
CONTINUOUS
 10
86.3430140668
 20
129.3823048195
 11
86.3194547283
 21
129.3773190361
  0
LINE
  8
SURFACE
 62
7
  6
CONTINUOUS
 10
73.6430140668
 20
129.3823048195
 11
73.6194547283
 21
129.3773190361
  0
POLYLINE
  8
SURFACE
 62
7
  6
CONTINUOUS
 66
1
 70
0
  0
VERTEX
  8
SURFACE
 62
7
  6
CONTINUOUS
 10
15.4549684755
 20
120.9114287292
  0
VERTEX
  8
SURFACE
 62
7
  6
CONTINUOUS
 10
15.419687008
 20
120.9089268764
  0
VERTEX
  8
SURFACE
 62
7
  6
CONTINUOUS
 10
15.387914497
 20
120.9022693076
  0
VERTEX
  8
SURFACE
 62
7
  6
CONTINUOUS
 10
15.3572723794
 20
120.891551272
  0
VERTEX
  8
SURFACE
 62
7
  6
CONTINUOUS
 10
15.3282772188
 20
120.8769534539
  0
VERTEX
  8
SURFACE
 62
7
  6
CONTINUOUS
 10
15.3014178142
 20
120.8587219428
  0
VERTEX
  8
SURFACE
 62
7
  6
CONTINUOUS
 10
15.2771469603
 20
120.8371640847
  0
VERTEX
  8
SURFACE
 62
7
  6
CONTINUOUS
 10
15.2558738142
 20
120.8126433011
  0
VERTEX
  8
SURFACE
 62
7
  6
CONTINUOUS
 10
15.2379569977
 20
120.7855729625
  0
VERTEX
  8
SURFACE
 62
7
  6
CONTINUOUS
 10
15.2236985516
 20
120.7564094198
  0
VERTEX
  8
SURFACE
 62
7
  6
CONTINUOUS
 10
15.2133388442
 20
120.7256443107
  0
VERTEX
  8
SURFACE
 62
7
  6
CONTINUOUS
 10
15.2070525187
 20
120.6937962721
  0
VERTEX
  8
SURFACE
 62
7
  6
CONTINUOUS
 10
15.2049455496
 20
120.6614058147
  0
SEQEND
  0
POLYLINE
  8
SURFACE
 62
7
  6
CONTINUOUS
 66
1
 70
0
  0
VERTEX
  8
SURFACE
 62
7
  6
CONTINUOUS
 10
162.6370518832
 20
129.3921720948
  0
VERTEX
  8
SURFACE
 62
7
  6
CONTINUOUS
 10
162.6118976623
 20
129.391389734
  0
VERTEX
  8
SURFACE
 62
7
  6
CONTINUOUS
 10
162.5773515533
 20
129.3879786333
  0
VERTEX
  8
SURFACE
 62
7
  6
CONTINUOUS
 10
162.5430140668
 20
129.3823048195
  0
SEQEND
  0
POLYLINE
  8
SURFACE
 62
7
  6
CONTINUOUS
 66
1
 70
0
  0
VERTEX
  8
SURFACE
 62
7
  6
CONTINUOUS
 10
149.9370518832
 20
129.3921720948
  0
VERTEX
  8
SURFACE
 62
7
  6
CONTINUOUS
 10
149.9118976623
 20
129.391389734
  0
VERTEX
  8
SURFACE
 62
7
  6
CONTINUOUS
 10
149.8773515533
 20
129.3879786333
  0
VERTEX
  8
SURFACE
 62
7
  6
CONTINUOUS
 10
149.8430140668
 20
129.3823048195
  0
SEQEND
  0
POLYLINE
  8
SURFACE
 62
7
  6
CONTINUOUS
 66
1
 70
0
  0
VERTEX
  8
SURFACE
 62
7
  6
CONTINUOUS
 10
137.2370518832
 20
129.3921720948
  0
VERTEX
  8
SURFACE
 62
7
  6
CONTINUOUS
 10
137.2118976623
 20
129.391389734
  0
VERTEX
  8
SURFACE
 62
7
  6
CONTINUOUS
 10
137.1773515533
 20
129.3879786333
  0
VERTEX
  8
SURFACE
 62
7
  6
CONTINUOUS
 10
137.1430140668
 20
129.3823048195
  0
SEQEND
  0
POLYLINE
  8
SURFACE
 62
7
  6
CONTINUOUS
 66
1
 70
0
  0
VERTEX
  8
SURFACE
 62
7
  6
CONTINUOUS
 10
124.5370518832
 20
129.3921720948
  0
VERTEX
  8
SURFACE
 62
7
  6
CONTINUOUS
 10
124.5118976623
 20
129.391389734
  0
VERTEX
  8
SURFACE
 62
7
  6
CONTINUOUS
 10
124.4773515533
 20
129.3879786333
  0
VERTEX
  8
SURFACE
 62
7
  6
CONTINUOUS
 10
124.4430140668
 20
129.3823048195
  0
SEQEND
  0
POLYLINE
  8
SURFACE
 62
7
  6
CONTINUOUS
 66
1
 70
0
  0
VERTEX
  8
SURFACE
 62
7
  6
CONTINUOUS
 10
111.8370518832
 20
129.3921720948
  0
VERTEX
  8
SURFACE
 62
7
  6
CONTINUOUS
 10
111.8118976623
 20
129.391389734
  0
VERTEX
  8
SURFACE
 62
7
  6
CONTINUOUS
 10
111.7773515533
 20
129.3879786333
  0
VERTEX
  8
SURFACE
 62
7
  6
CONTINUOUS
 10
111.7430140668
 20
129.3823048195
  0
SEQEND
  0
POLYLINE
  8
SURFACE
 62
7
  6
CONTINUOUS
 66
1
 70
0
  0
VERTEX
  8
SURFACE
 62
7
  6
CONTINUOUS
 10
99.1370518832
 20
129.3921720948
  0
VERTEX
  8
SURFACE
 62
7
  6
CONTINUOUS
 10
99.1118976623
 20
129.391389734
  0
VERTEX
  8
SURFACE
 62
7
  6
CONTINUOUS
 10
99.0773515533
 20
129.3879786333
  0
VERTEX
  8
SURFACE
 62
7
  6
CONTINUOUS
 10
99.0430140668
 20
129.3823048195
  0
SEQEND
  0
POLYLINE
  8
SURFACE
 62
7
  6
CONTINUOUS
 66
1
 70
0
  0
VERTEX
  8
SURFACE
 62
7
  6
CONTINUOUS
 10
86.4370518832
 20
129.3921720948
  0
VERTEX
  8
SURFACE
 62
7
  6
CONTINUOUS
 10
86.4118976623
 20
129.391389734
  0
VERTEX
  8
SURFACE
 62
7
  6
CONTINUOUS
 10
86.3773515533
 20
129.3879786333
  0
VERTEX
  8
SURFACE
 62
7
  6
CONTINUOUS
 10
86.3430140668
 20
129.3823048195
  0
SEQEND
  0
POLYLINE
  8
SURFACE
 62
7
  6
CONTINUOUS
 66
1
 70
0
  0
VERTEX
  8
SURFACE
 62
7
  6
CONTINUOUS
 10
73.7370518832
 20
129.3921720948
  0
VERTEX
  8
SURFACE
 62
7
  6
CONTINUOUS
 10
73.7118976623
 20
129.391389734
  0
VERTEX
  8
SURFACE
 62
7
  6
CONTINUOUS
 10
73.6773515533
 20
129.3879786333
  0
VERTEX
  8
SURFACE
 62
7
  6
CONTINUOUS
 10
73.6430140668
 20
129.3823048195
  0
SEQEND
  0
POLYLINE
  8
SURFACE
 62
7
  6
CONTINUOUS
 66
1
 70
0
  0
VERTEX
  8
SURFACE
 62
7
  6
CONTINUOUS
 10
61.0370518832
 20
129.3921720948
  0
VERTEX
  8
SURFACE
 62
7
  6
CONTINUOUS
 10
61.0118976623
 20
129.391389734
  0
VERTEX
  8
SURFACE
 62
7
  6
CONTINUOUS
 10
60.9773515533
 20
129.3879786333
  0
VERTEX
  8
SURFACE
 62
7
  6
CONTINUOUS
 10
60.9430140668
 20
129.3823048195
  0
SEQEND
  0
POLYLINE
  8
SURFACE
 62
7
  6
CONTINUOUS
 66
1
 70
0
  0
VERTEX
  8
SURFACE
 62
7
  6
CONTINUOUS
 10
48.3370518832
 20
129.3921720948
  0
VERTEX
  8
SURFACE
 62
7
  6
CONTINUOUS
 10
48.3118976623
 20
129.391389734
  0
VERTEX
  8
SURFACE
 62
7
  6
CONTINUOUS
 10
48.2773515533
 20
129.3879786333
  0
VERTEX
  8
SURFACE
 62
7
  6
CONTINUOUS
 10
48.2430140668
 20
129.3823048195
  0
SEQEND
  0
POLYLINE
  8
SURFACE
 62
7
  6
CONTINUOUS
 66
1
 70
0
  0
VERTEX
  8
SURFACE
 62
7
  6
CONTINUOUS
 10
35.6370518832
 20
129.3921720948
  0
VERTEX
  8
SURFACE
 62
7
  6
CONTINUOUS
 10
35.6118976623
 20
129.391389734
  0
VERTEX
  8
SURFACE
 62
7
  6
CONTINUOUS
 10
35.5773515533
 20
129.3879786333
  0
VERTEX
  8
SURFACE
 62
7
  6
CONTINUOUS
 10
35.5430140668
 20
129.3823048195
  0
SEQEND
  0
POLYLINE
  8
SURFACE
 62
7
  6
CONTINUOUS
 66
1
 70
0
  0
VERTEX
  8
SURFACE
 62
7
  6
CONTINUOUS
 10
22.9370518832
 20
129.3921720948
  0
VERTEX
  8
SURFACE
 62
7
  6
CONTINUOUS
 10
22.9118976623
 20
129.391389734
  0
VERTEX
  8
SURFACE
 62
7
  6
CONTINUOUS
 10
22.8773515533
 20
129.3879786333
  0
VERTEX
  8
SURFACE
 62
7
  6
CONTINUOUS
 10
22.8430140668
 20
129.3823048195
  0
SEQEND
  0
POLYLINE
  8
SURFACE
 62
7
  6
CONTINUOUS
 66
1
 70
0
  0
VERTEX
  8
SURFACE
 62
7
  6
CONTINUOUS
 10
154.3652893364
 20
125.6585507499
  0
VERTEX
  8
SURFACE
 62
7
  6
CONTINUOUS
 10
154.406469023
 20
125.6595655665
  0
VERTEX
  8
SURFACE
 62
7
  6
CONTINUOUS
 10
154.4463966459
 20
125.65949346
  0
VERTEX
  8
SURFACE
 62
7
  6
CONTINUOUS
 10
154.4839876993
 20
125.6583398473
  0
VERTEX
  8
SURFACE
 62
7
  6
CONTINUOUS
 10
154.5182222256
 20
125.6561378283
  0
VERTEX
  8
SURFACE
 62
7
  6
CONTINUOUS
 10
154.5481765978
 20
125.6529478851
  0
VERTEX
  8
SURFACE
 62
7
  6
CONTINUOUS
 10
154.5730535014
 20
125.6488564401
  0
VERTEX
  8
SURFACE
 62
7
  6
CONTINUOUS
 10
154.5922054663
 20
125.6439734343
  0
VERTEX
  8
SURFACE
 62
7
  6
CONTINUOUS
 10
154.6051515942
 20
125.6384290846
  0
VERTEX
  8
SURFACE
 62
7
  6
CONTINUOUS
 10
154.6115867898
 20
125.6323700517
  0
VERTEX
  8
SURFACE
 62
7
  6
CONTINUOUS
 10
154.6122985608
 20
125.629901362
  0
SEQEND
  0
POLYLINE
  8
SURFACE
 62
7
  6
CONTINUOUS
 66
1
 70
0
  0
VERTEX
  8
SURFACE
 62
7
  6
CONTINUOUS
 10
141.6652893364
 20
125.6585507499
  0
VERTEX
  8
SURFACE
 62
7
  6
CONTINUOUS
 10
141.706469023
 20
125.6595655665
  0
VERTEX
  8
SURFACE
 62
7
  6
CONTINUOUS
 10
141.7463966459
 20
125.65949346
  0
VERTEX
  8
SURFACE
 62
7
  6
CONTINUOUS
 10
141.7839876993
 20
125.6583398473
  0
VERTEX
  8
SURFACE
 62
7
  6
CONTINUOUS
 10
141.8182222256
 20
125.6561378283
  0
VERTEX
  8
SURFACE
 62
7
  6
CONTINUOUS
 10
141.8481765978
 20
125.6529478851
  0
VERTEX
  8
SURFACE
 62
7
  6
CONTINUOUS
 10
141.8730535014
 20
125.6488564401
  0
VERTEX
  8
SURFACE
 62
7
  6
CONTINUOUS
 10
141.8922054663
 20
125.6439734343
  0
VERTEX
  8
SURFACE
 62
7
  6
CONTINUOUS
 10
141.9051515942
 20
125.6384290846
  0
VERTEX
  8
SURFACE
 62
7
  6
CONTINUOUS
 10
141.9115867898
 20
125.6323700517
  0
VERTEX
  8
SURFACE
 62
7
  6
CONTINUOUS
 10
141.9122985608
 20
125.629901362
  0
SEQEND
  0
POLYLINE
  8
SURFACE
 62
7
  6
CONTINUOUS
 66
1
 70
0
  0
VERTEX
  8
SURFACE
 62
7
  6
CONTINUOUS
 10
128.9652893364
 20
125.6585507499
  0
VERTEX
  8
SURFACE
 62
7
  6
CONTINUOUS
 10
129.006469023
 20
125.6595655665
  0
VERTEX
  8
SURFACE
 62
7
  6
CONTINUOUS
 10
129.0463966459
 20
125.65949346
  0
VERTEX
  8
SURFACE
 62
7
  6
CONTINUOUS
 10
129.0839876993
 20
125.6583398473
  0
VERTEX
  8
SURFACE
 62
7
  6
CONTINUOUS
 10
129.1182222256
 20
125.6561378283
  0
VERTEX
  8
SURFACE
 62
7
  6
CONTINUOUS
 10
129.1481765978
 20
125.6529478851
  0
VERTEX
  8
SURFACE
 62
7
  6
CONTINUOUS
 10
129.1730535014
 20
125.6488564401
  0
VERTEX
  8
SURFACE
 62
7
  6
CONTINUOUS
 10
129.1922054663
 20
125.6439734343
  0
VERTEX
  8
SURFACE
 62
7
  6
CONTINUOUS
 10
129.2051515942
 20
125.6384290846
  0
VERTEX
  8
SURFACE
 62
7
  6
CONTINUOUS
 10
129.2115867898
 20
125.6323700517
  0
VERTEX
  8
SURFACE
 62
7
  6
CONTINUOUS
 10
129.2122985608
 20
125.629901362
  0
SEQEND
  0
POLYLINE
  8
SURFACE
 62
7
  6
CONTINUOUS
 66
1
 70
0
  0
VERTEX
  8
SURFACE
 62
7
  6
CONTINUOUS
 10
116.2652893364
 20
125.6585507499
  0
VERTEX
  8
SURFACE
 62
7
  6
CONTINUOUS
 10
116.306469023
 20
125.6595655665
  0
VERTEX
  8
SURFACE
 62
7
  6
CONTINUOUS
 10
116.3463966459
 20
125.65949346
  0
VERTEX
  8
SURFACE
 62
7
  6
CONTINUOUS
 10
116.3839876993
 20
125.6583398473
  0
VERTEX
  8
SURFACE
 62
7
  6
CONTINUOUS
 10
116.4182222256
 20
125.6561378283
  0
VERTEX
  8
SURFACE
 62
7
  6
CONTINUOUS
 10
116.4481765978
 20
125.6529478851
  0
VERTEX
  8
SURFACE
 62
7
  6
CONTINUOUS
 10
116.4730535014
 20
125.6488564401
  0
VERTEX
  8
SURFACE
 62
7
  6
CONTINUOUS
 10
116.4922054663
 20
125.6439734343
  0
VERTEX
  8
SURFACE
 62
7
  6
CONTINUOUS
 10
116.5051515942
 20
125.6384290846
  0
VERTEX
  8
SURFACE
 62
7
  6
CONTINUOUS
 10
116.5115867898
 20
125.6323700517
  0
VERTEX
  8
SURFACE
 62
7
  6
CONTINUOUS
 10
116.5122985608
 20
125.629901362
  0
SEQEND
  0
POLYLINE
  8
SURFACE
 62
7
  6
CONTINUOUS
 66
1
 70
0
  0
VERTEX
  8
SURFACE
 62
7
  6
CONTINUOUS
 10
103.5652893364
 20
125.6585507499
  0
VERTEX
  8
SURFACE
 62
7
  6
CONTINUOUS
 10
103.606469023
 20
125.6595655665
  0
VERTEX
  8
SURFACE
 62
7
  6
CONTINUOUS
 10
103.6463966459
 20
125.65949346
  0
VERTEX
  8
SURFACE
 62
7
  6
CONTINUOUS
 10
103.6839876993
 20
125.6583398473
  0
VERTEX
  8
SURFACE
 62
7
  6
CONTINUOUS
 10
103.7182222256
 20
125.6561378283
  0
VERTEX
  8
SURFACE
 62
7
  6
CONTINUOUS
 10
103.7481765978
 20
125.6529478851
  0
VERTEX
  8
SURFACE
 62
7
  6
CONTINUOUS
 10
103.7730535014
 20
125.6488564401
  0
VERTEX
  8
SURFACE
 62
7
  6
CONTINUOUS
 10
103.7922054663
 20
125.6439734343
  0
VERTEX
  8
SURFACE
 62
7
  6
CONTINUOUS
 10
103.8051515942
 20
125.6384290846
  0
VERTEX
  8
SURFACE
 62
7
  6
CONTINUOUS
 10
103.8115867898
 20
125.6323700517
  0
VERTEX
  8
SURFACE
 62
7
  6
CONTINUOUS
 10
103.8122985608
 20
125.629901362
  0
SEQEND
  0
POLYLINE
  8
SURFACE
 62
7
  6
CONTINUOUS
 66
1
 70
0
  0
VERTEX
  8
SURFACE
 62
7
  6
CONTINUOUS
 10
90.8652893364
 20
125.6585507499
  0
VERTEX
  8
SURFACE
 62
7
  6
CONTINUOUS
 10
90.906469023
 20
125.6595655665
  0
VERTEX
  8
SURFACE
 62
7
  6
CONTINUOUS
 10
90.9463966459
 20
125.65949346
  0
VERTEX
  8
SURFACE
 62
7
  6
CONTINUOUS
 10
90.9839876993
 20
125.6583398473
  0
VERTEX
  8
SURFACE
 62
7
  6
CONTINUOUS
 10
91.0182222256
 20
125.6561378283
  0
VERTEX
  8
SURFACE
 62
7
  6
CONTINUOUS
 10
91.0481765978
 20
125.6529478851
  0
VERTEX
  8
SURFACE
 62
7
  6
CONTINUOUS
 10
91.0730535014
 20
125.6488564401
  0
VERTEX
  8
SURFACE
 62
7
  6
CONTINUOUS
 10
91.0922054663
 20
125.6439734343
  0
VERTEX
  8
SURFACE
 62
7
  6
CONTINUOUS
 10
91.1051515942
 20
125.6384290846
  0
VERTEX
  8
SURFACE
 62
7
  6
CONTINUOUS
 10
91.1115867898
 20
125.6323700517
  0
VERTEX
  8
SURFACE
 62
7
  6
CONTINUOUS
 10
91.1122985608
 20
125.629901362
  0
SEQEND
  0
POLYLINE
  8
SURFACE
 62
7
  6
CONTINUOUS
 66
1
 70
0
  0
VERTEX
  8
SURFACE
 62
7
  6
CONTINUOUS
 10
78.1652893364
 20
125.6585507499
  0
VERTEX
  8
SURFACE
 62
7
  6
CONTINUOUS
 10
78.206469023
 20
125.6595655665
  0
VERTEX
  8
SURFACE
 62
7
  6
CONTINUOUS
 10
78.2463966459
 20
125.65949346
  0
VERTEX
  8
SURFACE
 62
7
  6
CONTINUOUS
 10
78.2839876993
 20
125.6583398473
  0
VERTEX
  8
SURFACE
 62
7
  6
CONTINUOUS
 10
78.3182222256
 20
125.6561378283
  0
VERTEX
  8
SURFACE
 62
7
  6
CONTINUOUS
 10
78.3481765978
 20
125.6529478851
  0
VERTEX
  8
SURFACE
 62
7
  6
CONTINUOUS
 10
78.3730535014
 20
125.6488564401
  0
VERTEX
  8
SURFACE
 62
7
  6
CONTINUOUS
 10
78.3922054663
 20
125.6439734343
  0
VERTEX
  8
SURFACE
 62
7
  6
CONTINUOUS
 10
78.4051515942
 20
125.6384290846
  0
VERTEX
  8
SURFACE
 62
7
  6
CONTINUOUS
 10
78.4115867898
 20
125.6323700517
  0
VERTEX
  8
SURFACE
 62
7
  6
CONTINUOUS
 10
78.4122985608
 20
125.629901362
  0
SEQEND
  0
POLYLINE
  8
SURFACE
 62
7
  6
CONTINUOUS
 66
1
 70
0
  0
VERTEX
  8
SURFACE
 62
7
  6
CONTINUOUS
 10
65.4652893364
 20
125.6585507499
  0
VERTEX
  8
SURFACE
 62
7
  6
CONTINUOUS
 10
65.506469023
 20
125.6595655665
  0
VERTEX
  8
SURFACE
 62
7
  6
CONTINUOUS
 10
65.5463966459
 20
125.65949346
  0
VERTEX
  8
SURFACE
 62
7
  6
CONTINUOUS
 10
65.5839876993
 20
125.6583398473
  0
VERTEX
  8
SURFACE
 62
7
  6
CONTINUOUS
 10
65.6182222256
 20
125.6561378283
  0
VERTEX
  8
SURFACE
 62
7
  6
CONTINUOUS
 10
65.6481765978
 20
125.6529478851
  0
VERTEX
  8
SURFACE
 62
7
  6
CONTINUOUS
 10
65.6730535014
 20
125.6488564401
  0
VERTEX
  8
SURFACE
 62
7
  6
CONTINUOUS
 10
65.6922054663
 20
125.6439734343
  0
VERTEX
  8
SURFACE
 62
7
  6
CONTINUOUS
 10
65.7051515942
 20
125.6384290846
  0
VERTEX
  8
SURFACE
 62
7
  6
CONTINUOUS
 10
65.7115867898
 20
125.6323700517
  0
VERTEX
  8
SURFACE
 62
7
  6
CONTINUOUS
 10
65.7122985608
 20
125.629901362
  0
SEQEND
  0
POLYLINE
  8
SURFACE
 62
7
  6
CONTINUOUS
 66
1
 70
0
  0
VERTEX
  8
SURFACE
 62
7
  6
CONTINUOUS
 10
52.7652893364
 20
125.6585507499
  0
VERTEX
  8
SURFACE
 62
7
  6
CONTINUOUS
 10
52.806469023
 20
125.6595655665
  0
VERTEX
  8
SURFACE
 62
7
  6
CONTINUOUS
 10
52.8463966459
 20
125.65949346
  0
VERTEX
  8
SURFACE
 62
7
  6
CONTINUOUS
 10
52.8839876993
 20
125.6583398473
  0
VERTEX
  8
SURFACE
 62
7
  6
CONTINUOUS
 10
52.9182222256
 20
125.6561378283
  0
VERTEX
  8
SURFACE
 62
7
  6
CONTINUOUS
 10
52.9481765978
 20
125.6529478851
  0
VERTEX
  8
SURFACE
 62
7
  6
CONTINUOUS
 10
52.9730535014
 20
125.6488564401
  0
VERTEX
  8
SURFACE
 62
7
  6
CONTINUOUS
 10
52.9922054663
 20
125.6439734343
  0
VERTEX
  8
SURFACE
 62
7
  6
CONTINUOUS
 10
53.0051515942
 20
125.6384290846
  0
VERTEX
  8
SURFACE
 62
7
  6
CONTINUOUS
 10
53.0115867898
 20
125.6323700517
  0
VERTEX
  8
SURFACE
 62
7
  6
CONTINUOUS
 10
53.0122985608
 20
125.629901362
  0
SEQEND
  0
POLYLINE
  8
SURFACE
 62
7
  6
CONTINUOUS
 66
1
 70
0
  0
VERTEX
  8
SURFACE
 62
7
  6
CONTINUOUS
 10
40.0652893364
 20
125.6585507499
  0
VERTEX
  8
SURFACE
 62
7
  6
CONTINUOUS
 10
40.106469023
 20
125.6595655665
  0
VERTEX
  8
SURFACE
 62
7
  6
CONTINUOUS
 10
40.1463966459
 20
125.65949346
  0
VERTEX
  8
SURFACE
 62
7
  6
CONTINUOUS
 10
40.1839876993
 20
125.6583398473
  0
VERTEX
  8
SURFACE
 62
7
  6
CONTINUOUS
 10
40.2182222256
 20
125.6561378283
  0
VERTEX
  8
SURFACE
 62
7
  6
CONTINUOUS
 10
40.2481765978
 20
125.6529478851
  0
VERTEX
  8
SURFACE
 62
7
  6
CONTINUOUS
 10
40.2730535014
 20
125.6488564401
  0
VERTEX
  8
SURFACE
 62
7
  6
CONTINUOUS
 10
40.2922054663
 20
125.6439734343
  0
VERTEX
  8
SURFACE
 62
7
  6
CONTINUOUS
 10
40.3051515942
 20
125.6384290846
  0
VERTEX
  8
SURFACE
 62
7
  6
CONTINUOUS
 10
40.3115867898
 20
125.6323700517
  0
VERTEX
  8
SURFACE
 62
7
  6
CONTINUOUS
 10
40.3122985608
 20
125.629901362
  0
SEQEND
  0
POLYLINE
  8
SURFACE
 62
7
  6
CONTINUOUS
 66
1
 70
0
  0
VERTEX
  8
SURFACE
 62
7
  6
CONTINUOUS
 10
27.3652893364
 20
125.6585507499
  0
VERTEX
  8
SURFACE
 62
7
  6
CONTINUOUS
 10
27.406469023
 20
125.6595655665
  0
VERTEX
  8
SURFACE
 62
7
  6
CONTINUOUS
 10
27.4463966459
 20
125.65949346
  0
VERTEX
  8
SURFACE
 62
7
  6
CONTINUOUS
 10
27.4839876993
 20
125.6583398473
  0
VERTEX
  8
SURFACE
 62
7
  6
CONTINUOUS
 10
27.5182222256
 20
125.6561378283
  0
VERTEX
  8
SURFACE
 62
7
  6
CONTINUOUS
 10
27.5481765978
 20
125.6529478851
  0
VERTEX
  8
SURFACE
 62
7
  6
CONTINUOUS
 10
27.5730535014
 20
125.6488564401
  0
VERTEX
  8
SURFACE
 62
7
  6
CONTINUOUS
 10
27.5922054663
 20
125.6439734343
  0
VERTEX
  8
SURFACE
 62
7
  6
CONTINUOUS
 10
27.6051515942
 20
125.6384290846
  0
VERTEX
  8
SURFACE
 62
7
  6
CONTINUOUS
 10
27.6115867898
 20
125.6323700517
  0
VERTEX
  8
SURFACE
 62
7
  6
CONTINUOUS
 10
27.6122985608
 20
125.629901362
  0
SEQEND
  0
LINE
  8
SURFACE
 62
7
  6
CONTINUOUS
 10
154.3623192892
 20
125.6584950861
 11
154.3652893364
 21
125.6585507503
  0
LINE
  8
SURFACE
 62
7
  6
CONTINUOUS
 10
141.6623192892
 20
125.6584950861
 11
141.6652893364
 21
125.6585507503
  0
LINE
  8
SURFACE
 62
7
  6
CONTINUOUS
 10
128.9623192892
 20
125.6584950861
 11
128.9652893364
 21
125.6585507503
  0
LINE
  8
SURFACE
 62
7
  6
CONTINUOUS
 10
116.2623192892
 20
125.6584950861
 11
116.2652893364
 21
125.6585507503
  0
LINE
  8
SURFACE
 62
7
  6
CONTINUOUS
 10
103.5623192892
 20
125.6584950861
 11
103.5652893364
 21
125.6585507503
  0
LINE
  8
SURFACE
 62
7
  6
CONTINUOUS
 10
90.8623192892
 20
125.6584950861
 11
90.8652893364
 21
125.6585507503
  0
LINE
  8
SURFACE
 62
7
  6
CONTINUOUS
 10
78.1623192892
 20
125.6584950861
 11
78.1652893364
 21
125.6585507503
  0
LINE
  8
SURFACE
 62
7
  6
CONTINUOUS
 10
65.4623192892
 20
125.6584950861
 11
65.4652893364
 21
125.6585507503
  0
LINE
  8
SURFACE
 62
7
  6
CONTINUOUS
 10
52.7623192892
 20
125.6584950861
 11
52.7652893364
 21
125.6585507503
  0
LINE
  8
SURFACE
 62
7
  6
CONTINUOUS
 10
40.0623192892
 20
125.6584950861
 11
40.0652893364
 21
125.6585507503
  0
LINE
  8
SURFACE
 62
7
  6
CONTINUOUS
 10
27.3623192892
 20
125.6584950861
 11
27.3652893364
 21
125.6585507503
  0
LINE
  8
0
 62
7
  6
CONTINUOUS
 10
167.2449455496
 20
114.3021724037
 11
167.3949455496
 21
114.3021724037
  0
LINE
  8
0
 62
7
  6
CONTINUOUS
 10
167.2449455496
 20
114.7821724037
 11
167.3949455496
 21
114.7821724037
  0
LINE
  8
0
 62
7
  6
CONTINUOUS
 10
167.2449455496
 20
114.8821717934
 11
167.3949455496
 21
114.8821717934
  0
LINE
  8
0
 62
7
  6
CONTINUOUS
 10
167.2449455496
 20
114.9621724037
 11
167.3949455496
 21
114.9621724037
  0
LINE
  8
0
 62
7
  6
CONTINUOUS
 10
167.2449455496
 20
115.0221724037
 11
167.3949455496
 21
115.0221724037
  0
LINE
  8
0
 62
7
  6
CONTINUOUS
 10
167.2449455496
 20
115.0421720986
 11
167.3949455496
 21
115.0421720986
  0
LINE
  8
0
 62
7
  6
CONTINUOUS
 10
167.2449455496
 20
115.2021724037
 11
167.3949455496
 21
115.2021724037
  0
LINE
  8
0
 62
7
  6
CONTINUOUS
 10
167.2449455496
 20
115.6821724037
 11
167.3949455496
 21
115.6821724037
  0
LINE
  8
0
 62
7
  6
CONTINUOUS
 10
167.2449455496
 20
115.7821717934
 11
167.3949455496
 21
115.7821717934
  0
LINE
  8
0
 62
7
  6
CONTINUOUS
 10
167.2449455496
 20
115.8621724037
 11
167.3949455496
 21
115.8621724037
  0
LINE
  8
0
 62
7
  6
CONTINUOUS
 10
167.2449455496
 20
115.9221724037
 11
167.3949455496
 21
115.9221724037
  0
LINE
  8
0
 62
7
  6
CONTINUOUS
 10
167.2449455496
 20
115.9421720986
 11
167.3949455496
 21
115.9421720986
  0
LINE
  8
0
 62
7
  6
CONTINUOUS
 10
161.0158779323
 20
120.9114287389
 11
154.7620146474
 21
120.9114287389
  0
LINE
  8
0
 62
7
  6
CONTINUOUS
 10
148.3158779323
 20
120.9114287389
 11
142.0620146474
 21
120.9114287389
  0
LINE
  8
0
 62
7
  6
CONTINUOUS
 10
135.6158779323
 20
120.9114287389
 11
129.3620146474
 21
120.9114287389
  0
LINE
  8
0
 62
7
  6
CONTINUOUS
 10
122.9158779323
 20
120.9114287389
 11
116.6620146474
 21
120.9114287389
  0
LINE
  8
0
 62
7
  6
CONTINUOUS
 10
110.2158779323
 20
120.9114287389
 11
103.9620146474
 21
120.9114287389
  0
LINE
  8
0
 62
7
  6
CONTINUOUS
 10
97.5158779323
 20
120.9114287389
 11
91.2620146474
 21
120.9114287389
  0
LINE
  8
0
 62
7
  6
CONTINUOUS
 10
84.8158779323
 20
120.9114287389
 11
78.5620146474
 21
120.9114287389
  0
LINE
  8
0
 62
7
  6
CONTINUOUS
 10
72.1158779323
 20
120.9114287389
 11
65.8620146474
 21
120.9114287389
  0
LINE
  8
0
 62
7
  6
CONTINUOUS
 10
59.4158779323
 20
120.9114287389
 11
53.1620146474
 21
120.9114287389
  0
LINE
  8
0
 62
7
  6
CONTINUOUS
 10
46.7158779323
 20
120.9114287389
 11
40.4620146474
 21
120.9114287389
  0
LINE
  8
0
 62
7
  6
CONTINUOUS
 10
34.0158779323
 20
120.9114287389
 11
27.7620146474
 21
120.9114287389
  0
LINE
  8
0
 62
7
  6
CONTINUOUS
 10
21.3158779323
 20
120.9114287389
 11
15.4549684723
 21
120.9114287389
  0
LINE
  8
DEFAULT_1
 62
2
  6
CENTER
 10
20.0177220772
 20
124.0421720986
 11
169.2449455496
 21
124.0421720986
  0
LINE
  8
SURFACE
 62
7
  6
CONTINUOUS
 10
166.9949455496
 20
125.6584950851
 11
161.4155718101
 21
125.6584950861
  0
LINE
  8
SURFACE
 62
7
  6
CONTINUOUS
 10
154.3623192892
 20
125.6584950861
 11
148.7155718101
 21
125.6584950861
  0
LINE
  8
SURFACE
 62
7
  6
CONTINUOUS
 10
141.6623192892
 20
125.6584950861
 11
136.0155718101
 21
125.6584950861
  0
LINE
  8
SURFACE
 62
7
  6
CONTINUOUS
 10
128.9623192892
 20
125.6584950861
 11
123.3155718101
 21
125.6584950861
  0
LINE
  8
SURFACE
 62
7
  6
CONTINUOUS
 10
116.2623192892
 20
125.6584950861
 11
110.6155718101
 21
125.6584950861
  0
LINE
  8
SURFACE
 62
7
  6
CONTINUOUS
 10
103.5623192892
 20
125.6584950861
 11
97.9155718101
 21
125.6584950861
  0
LINE
  8
SURFACE
 62
7
  6
CONTINUOUS
 10
90.8623192892
 20
125.6584950861
 11
85.2155718101
 21
125.6584950861
  0
LINE
  8
SURFACE
 62
7
  6
CONTINUOUS
 10
78.1623192892
 20
125.6584950861
 11
72.5155718101
 21
125.6584950861
  0
LINE
  8
SURFACE
 62
7
  6
CONTINUOUS
 10
65.4623192892
 20
125.6584950861
 11
59.8155718101
 21
125.6584950861
  0
LINE
  8
SURFACE
 62
7
  6
CONTINUOUS
 10
52.7623192892
 20
125.6584950861
 11
47.1155718101
 21
125.6584950861
  0
LINE
  8
SURFACE
 62
7
  6
CONTINUOUS
 10
40.0623192892
 20
125.6584950861
 11
34.4155718101
 21
125.6584950861
  0
LINE
  8
SURFACE
 62
7
  6
CONTINUOUS
 10
27.3623192892
 20
125.6584950861
 11
21.7155718101
 21
125.6584950861
  0
LINE
  8
SURFACE
 62
7
  6
CONTINUOUS
 10
153.1409847848
 20
129.3921720986
 11
149.9369053117
 21
129.3921720986
  0
LINE
  8
SURFACE
 62
7
  6
CONTINUOUS
 10
140.4409847848
 20
129.3921720986
 11
137.2369053117
 21
129.3921720986
  0
LINE
  8
SURFACE
 62
7
  6
CONTINUOUS
 10
127.7409847848
 20
129.3921720986
 11
124.5369053117
 21
129.3921720986
  0
LINE
  8
SURFACE
 62
7
  6
CONTINUOUS
 10
115.0409847848
 20
129.3921720986
 11
111.8369053117
 21
129.3921720986
  0
LINE
  8
SURFACE
 62
7
  6
CONTINUOUS
 10
102.3409847848
 20
129.3921720986
 11
99.1369053117
 21
129.3921720986
  0
LINE
  8
SURFACE
 62
7
  6
CONTINUOUS
 10
89.6409847848
 20
129.3921720986
 11
86.4369053117
 21
129.3921720986
  0
LINE
  8
SURFACE
 62
7
  6
CONTINUOUS
 10
76.9409847848
 20
129.3921720986
 11
73.7369053117
 21
129.3921720986
  0
LINE
  8
SURFACE
 62
7
  6
CONTINUOUS
 10
64.2409847848
 20
129.3921720986
 11
61.0369053117
 21
129.3921720986
  0
LINE
  8
SURFACE
 62
7
  6
CONTINUOUS
 10
51.5409847848
 20
129.3921720986
 11
48.3369053117
 21
129.3921720986
  0
LINE
  8
SURFACE
 62
7
  6
CONTINUOUS
 10
38.8409847848
 20
129.3921720986
 11
35.6369053117
 21
129.3921720986
  0
LINE
  8
SURFACE
 62
7
  6
CONTINUOUS
 10
26.1409847848
 20
129.3921720986
 11
22.9369053117
 21
129.3921720986
  0
LINE
  8
SURFACE
 62
7
  6
CONTINUOUS
 10
162.6369053117
 20
129.3921720986
 11
166.9949340785
 21
129.3921720986
  0
POLYLINE
  8
SURFACE
 62
7
  6
CONTINUOUS
 66
1
 70
0
  0
VERTEX
  8
SURFACE
 62
7
  6
CONTINUOUS
 10
166.9949455496
 20
125.6584950861
  0
VERTEX
  8
SURFACE
 62
7
  6
CONTINUOUS
 10
167.0278305103
 20
125.6581590561
  0
VERTEX
  8
SURFACE
 62
7
  6
CONTINUOUS
 10
167.0601007013
 20
125.6571582125
  0
VERTEX
  8
SURFACE
 62
7
  6
CONTINUOUS
 10
167.0912012815
 20
125.6555112945
  0
VERTEX
  8
SURFACE
 62
7
  6
CONTINUOUS
 10
167.1205997156
 20
125.6532474098
  0
VERTEX
  8
SURFACE
 62
7
  6
CONTINUOUS
 10
167.1477954762
 20
125.6504056714
  0
VERTEX
  8
SURFACE
 62
7
  6
CONTINUOUS
 10
167.172329713
 20
125.6470345689
  0
VERTEX
  8
SURFACE
 62
7
  6
CONTINUOUS
 10
167.1937933742
 20
125.6431911537
  0
VERTEX
  8
SURFACE
 62
7
  6
CONTINUOUS
 10
167.2118339709
 20
125.6389400606
  0
VERTEX
  8
SURFACE
 62
7
  6
CONTINUOUS
 10
167.2261608337
 20
125.6343523972
  0
VERTEX
  8
SURFACE
 62
7
  6
CONTINUOUS
 10
167.2365487624
 20
125.6295045464
  0
VERTEX
  8
SURFACE
 62
7
  6
CONTINUOUS
 10
167.2428400536
 20
125.6244770074
  0
VERTEX
  8
SURFACE
 62
7
  6
CONTINUOUS
 10
167.2449455496
 20
125.6193531281
  0
SEQEND
  0
LINE
  8
SURFACE
 62
7
  6
CONTINUOUS
 10
21.7126017629
 20
125.6585507501
 11
21.7155718101
 21
125.6584950861
  0
LINE
  8
SURFACE
 62
7
  6
CONTINUOUS
 10
34.4126017629
 20
125.6585507501
 11
34.4155718101
 21
125.6584950861
  0
LINE
  8
SURFACE
 62
7
  6
CONTINUOUS
 10
47.1126017629
 20
125.6585507501
 11
47.1155718101
 21
125.6584950861
  0
LINE
  8
SURFACE
 62
7
  6
CONTINUOUS
 10
59.8126017629
 20
125.6585507501
 11
59.8155718101
 21
125.6584950861
  0
LINE
  8
SURFACE
 62
7
  6
CONTINUOUS
 10
72.5126017629
 20
125.6585507501
 11
72.5155718101
 21
125.6584950861
  0
LINE
  8
SURFACE
 62
7
  6
CONTINUOUS
 10
85.2126017629
 20
125.6585507501
 11
85.2155718101
 21
125.6584950861
  0
LINE
  8
SURFACE
 62
7
  6
CONTINUOUS
 10
97.9126017629
 20
125.6585507501
 11
97.9155718101
 21
125.6584950861
  0
LINE
  8
SURFACE
 62
7
  6
CONTINUOUS
 10
110.6126017629
 20
125.6585507501
 11
110.6155718101
 21
125.6584950861
  0
LINE
  8
SURFACE
 62
7
  6
CONTINUOUS
 10
123.3126017629
 20
125.6585507501
 11
123.3155718101
 21
125.6584950861
  0
LINE
  8
SURFACE
 62
7
  6
CONTINUOUS
 10
136.0126017629
 20
125.6585507501
 11
136.0155718101
 21
125.6584950861
  0
LINE
  8
SURFACE
 62
7
  6
CONTINUOUS
 10
148.7126017629
 20
125.6585507501
 11
148.7155718101
 21
125.6584950861
  0
LINE
  8
SURFACE
 62
7
  6
CONTINUOUS
 10
161.4126017629
 20
125.6585507501
 11
161.4155718101
 21
125.6584950861
  0
POLYLINE
  8
SURFACE
 62
7
  6
CONTINUOUS
 66
1
 70
0
  0
VERTEX
  8
SURFACE
 62
7
  6
CONTINUOUS
 10
21.7126017629
 20
125.6585507497
  0
VERTEX
  8
SURFACE
 62
7
  6
CONTINUOUS
 10
21.6714220763
 20
125.6595655662
  0
VERTEX
  8
SURFACE
 62
7
  6
CONTINUOUS
 10
21.6314944533
 20
125.6594934598
  0
VERTEX
  8
SURFACE
 62
7
  6
CONTINUOUS
 10
21.5939034
 20
125.658339847
  0
VERTEX
  8
SURFACE
 62
7
  6
CONTINUOUS
 10
21.5596688737
 20
125.6561378281
  0
VERTEX
  8
SURFACE
 62
7
  6
CONTINUOUS
 10
21.5297145015
 20
125.6529478849
  0
VERTEX
  8
SURFACE
 62
7
  6
CONTINUOUS
 10
21.5048375979
 20
125.64885644
  0
VERTEX
  8
SURFACE
 62
7
  6
CONTINUOUS
 10
21.485685633
 20
125.6439734342
  0
VERTEX
  8
SURFACE
 62
7
  6
CONTINUOUS
 10
21.4727395051
 20
125.6384290846
  0
VERTEX
  8
SURFACE
 62
7
  6
CONTINUOUS
 10
21.4663043095
 20
125.6323700518
  0
VERTEX
  8
SURFACE
 62
7
  6
CONTINUOUS
 10
21.465592538
 20
125.6299013571
  0
SEQEND
  0
POLYLINE
  8
SURFACE
 62
7
  6
CONTINUOUS
 66
1
 70
0
  0
VERTEX
  8
SURFACE
 62
7
  6
CONTINUOUS
 10
34.4126017629
 20
125.6585507497
  0
VERTEX
  8
SURFACE
 62
7
  6
CONTINUOUS
 10
34.3714220763
 20
125.6595655662
  0
VERTEX
  8
SURFACE
 62
7
  6
CONTINUOUS
 10
34.3314944533
 20
125.6594934598
  0
VERTEX
  8
SURFACE
 62
7
  6
CONTINUOUS
 10
34.2939034
 20
125.658339847
  0
VERTEX
  8
SURFACE
 62
7
  6
CONTINUOUS
 10
34.2596688737
 20
125.6561378281
  0
VERTEX
  8
SURFACE
 62
7
  6
CONTINUOUS
 10
34.2297145015
 20
125.6529478849
  0
VERTEX
  8
SURFACE
 62
7
  6
CONTINUOUS
 10
34.2048375979
 20
125.64885644
  0
VERTEX
  8
SURFACE
 62
7
  6
CONTINUOUS
 10
34.185685633
 20
125.6439734342
  0
VERTEX
  8
SURFACE
 62
7
  6
CONTINUOUS
 10
34.1727395051
 20
125.6384290846
  0
VERTEX
  8
SURFACE
 62
7
  6
CONTINUOUS
 10
34.1663043095
 20
125.6323700518
  0
VERTEX
  8
SURFACE
 62
7
  6
CONTINUOUS
 10
34.165592538
 20
125.6299013571
  0
SEQEND
  0
POLYLINE
  8
SURFACE
 62
7
  6
CONTINUOUS
 66
1
 70
0
  0
VERTEX
  8
SURFACE
 62
7
  6
CONTINUOUS
 10
47.1126017629
 20
125.6585507497
  0
VERTEX
  8
SURFACE
 62
7
  6
CONTINUOUS
 10
47.0714220763
 20
125.6595655662
  0
VERTEX
  8
SURFACE
 62
7
  6
CONTINUOUS
 10
47.0314944533
 20
125.6594934598
  0
VERTEX
  8
SURFACE
 62
7
  6
CONTINUOUS
 10
46.9939034
 20
125.658339847
  0
VERTEX
  8
SURFACE
 62
7
  6
CONTINUOUS
 10
46.9596688737
 20
125.6561378281
  0
VERTEX
  8
SURFACE
 62
7
  6
CONTINUOUS
 10
46.9297145015
 20
125.6529478849
  0
VERTEX
  8
SURFACE
 62
7
  6
CONTINUOUS
 10
46.9048375979
 20
125.64885644
  0
VERTEX
  8
SURFACE
 62
7
  6
CONTINUOUS
 10
46.885685633
 20
125.6439734342
  0
VERTEX
  8
SURFACE
 62
7
  6
CONTINUOUS
 10
46.8727395051
 20
125.6384290846
  0
VERTEX
  8
SURFACE
 62
7
  6
CONTINUOUS
 10
46.8663043095
 20
125.6323700518
  0
VERTEX
  8
SURFACE
 62
7
  6
CONTINUOUS
 10
46.865592538
 20
125.6299013571
  0
SEQEND
  0
POLYLINE
  8
SURFACE
 62
7
  6
CONTINUOUS
 66
1
 70
0
  0
VERTEX
  8
SURFACE
 62
7
  6
CONTINUOUS
 10
59.8126017629
 20
125.6585507497
  0
VERTEX
  8
SURFACE
 62
7
  6
CONTINUOUS
 10
59.7714220763
 20
125.6595655662
  0
VERTEX
  8
SURFACE
 62
7
  6
CONTINUOUS
 10
59.7314944533
 20
125.6594934598
  0
VERTEX
  8
SURFACE
 62
7
  6
CONTINUOUS
 10
59.6939034
 20
125.658339847
  0
VERTEX
  8
SURFACE
 62
7
  6
CONTINUOUS
 10
59.6596688737
 20
125.6561378281
  0
VERTEX
  8
SURFACE
 62
7
  6
CONTINUOUS
 10
59.6297145015
 20
125.6529478849
  0
VERTEX
  8
SURFACE
 62
7
  6
CONTINUOUS
 10
59.6048375979
 20
125.64885644
  0
VERTEX
  8
SURFACE
 62
7
  6
CONTINUOUS
 10
59.585685633
 20
125.6439734342
  0
VERTEX
  8
SURFACE
 62
7
  6
CONTINUOUS
 10
59.5727395051
 20
125.6384290846
  0
VERTEX
  8
SURFACE
 62
7
  6
CONTINUOUS
 10
59.5663043095
 20
125.6323700518
  0
VERTEX
  8
SURFACE
 62
7
  6
CONTINUOUS
 10
59.565592538
 20
125.6299013571
  0
SEQEND
  0
POLYLINE
  8
SURFACE
 62
7
  6
CONTINUOUS
 66
1
 70
0
  0
VERTEX
  8
SURFACE
 62
7
  6
CONTINUOUS
 10
72.5126017629
 20
125.6585507497
  0
VERTEX
  8
SURFACE
 62
7
  6
CONTINUOUS
 10
72.4714220763
 20
125.6595655662
  0
VERTEX
  8
SURFACE
 62
7
  6
CONTINUOUS
 10
72.4314944533
 20
125.6594934598
  0
VERTEX
  8
SURFACE
 62
7
  6
CONTINUOUS
 10
72.3939034
 20
125.658339847
  0
VERTEX
  8
SURFACE
 62
7
  6
CONTINUOUS
 10
72.3596688737
 20
125.6561378281
  0
VERTEX
  8
SURFACE
 62
7
  6
CONTINUOUS
 10
72.3297145015
 20
125.6529478849
  0
VERTEX
  8
SURFACE
 62
7
  6
CONTINUOUS
 10
72.3048375979
 20
125.64885644
  0
VERTEX
  8
SURFACE
 62
7
  6
CONTINUOUS
 10
72.285685633
 20
125.6439734342
  0
VERTEX
  8
SURFACE
 62
7
  6
CONTINUOUS
 10
72.2727395051
 20
125.6384290846
  0
VERTEX
  8
SURFACE
 62
7
  6
CONTINUOUS
 10
72.2663043095
 20
125.6323700518
  0
VERTEX
  8
SURFACE
 62
7
  6
CONTINUOUS
 10
72.265592538
 20
125.6299013571
  0
SEQEND
  0
POLYLINE
  8
SURFACE
 62
7
  6
CONTINUOUS
 66
1
 70
0
  0
VERTEX
  8
SURFACE
 62
7
  6
CONTINUOUS
 10
85.2126017629
 20
125.6585507497
  0
VERTEX
  8
SURFACE
 62
7
  6
CONTINUOUS
 10
85.1714220763
 20
125.6595655662
  0
VERTEX
  8
SURFACE
 62
7
  6
CONTINUOUS
 10
85.1314944533
 20
125.6594934598
  0
VERTEX
  8
SURFACE
 62
7
  6
CONTINUOUS
 10
85.0939034
 20
125.658339847
  0
VERTEX
  8
SURFACE
 62
7
  6
CONTINUOUS
 10
85.0596688737
 20
125.6561378281
  0
VERTEX
  8
SURFACE
 62
7
  6
CONTINUOUS
 10
85.0297145015
 20
125.6529478849
  0
VERTEX
  8
SURFACE
 62
7
  6
CONTINUOUS
 10
85.0048375979
 20
125.64885644
  0
VERTEX
  8
SURFACE
 62
7
  6
CONTINUOUS
 10
84.985685633
 20
125.6439734342
  0
VERTEX
  8
SURFACE
 62
7
  6
CONTINUOUS
 10
84.9727395051
 20
125.6384290846
  0
VERTEX
  8
SURFACE
 62
7
  6
CONTINUOUS
 10
84.9663043095
 20
125.6323700518
  0
VERTEX
  8
SURFACE
 62
7
  6
CONTINUOUS
 10
84.965592538
 20
125.6299013571
  0
SEQEND
  0
POLYLINE
  8
SURFACE
 62
7
  6
CONTINUOUS
 66
1
 70
0
  0
VERTEX
  8
SURFACE
 62
7
  6
CONTINUOUS
 10
97.9126017629
 20
125.6585507497
  0
VERTEX
  8
SURFACE
 62
7
  6
CONTINUOUS
 10
97.8714220763
 20
125.6595655662
  0
VERTEX
  8
SURFACE
 62
7
  6
CONTINUOUS
 10
97.8314944533
 20
125.6594934598
  0
VERTEX
  8
SURFACE
 62
7
  6
CONTINUOUS
 10
97.7939034
 20
125.658339847
  0
VERTEX
  8
SURFACE
 62
7
  6
CONTINUOUS
 10
97.7596688737
 20
125.6561378281
  0
VERTEX
  8
SURFACE
 62
7
  6
CONTINUOUS
 10
97.7297145015
 20
125.6529478849
  0
VERTEX
  8
SURFACE
 62
7
  6
CONTINUOUS
 10
97.7048375979
 20
125.64885644
  0
VERTEX
  8
SURFACE
 62
7
  6
CONTINUOUS
 10
97.685685633
 20
125.6439734342
  0
VERTEX
  8
SURFACE
 62
7
  6
CONTINUOUS
 10
97.6727395051
 20
125.6384290846
  0
VERTEX
  8
SURFACE
 62
7
  6
CONTINUOUS
 10
97.6663043095
 20
125.6323700518
  0
VERTEX
  8
SURFACE
 62
7
  6
CONTINUOUS
 10
97.665592538
 20
125.6299013571
  0
SEQEND
  0
POLYLINE
  8
SURFACE
 62
7
  6
CONTINUOUS
 66
1
 70
0
  0
VERTEX
  8
SURFACE
 62
7
  6
CONTINUOUS
 10
110.6126017629
 20
125.6585507497
  0
VERTEX
  8
SURFACE
 62
7
  6
CONTINUOUS
 10
110.5714220763
 20
125.6595655662
  0
VERTEX
  8
SURFACE
 62
7
  6
CONTINUOUS
 10
110.5314944533
 20
125.6594934598
  0
VERTEX
  8
SURFACE
 62
7
  6
CONTINUOUS
 10
110.4939034
 20
125.658339847
  0
VERTEX
  8
SURFACE
 62
7
  6
CONTINUOUS
 10
110.4596688737
 20
125.6561378281
  0
VERTEX
  8
SURFACE
 62
7
  6
CONTINUOUS
 10
110.4297145015
 20
125.6529478849
  0
VERTEX
  8
SURFACE
 62
7
  6
CONTINUOUS
 10
110.4048375979
 20
125.64885644
  0
VERTEX
  8
SURFACE
 62
7
  6
CONTINUOUS
 10
110.385685633
 20
125.6439734342
  0
VERTEX
  8
SURFACE
 62
7
  6
CONTINUOUS
 10
110.3727395051
 20
125.6384290846
  0
VERTEX
  8
SURFACE
 62
7
  6
CONTINUOUS
 10
110.3663043095
 20
125.6323700518
  0
VERTEX
  8
SURFACE
 62
7
  6
CONTINUOUS
 10
110.365592538
 20
125.6299013571
  0
SEQEND
  0
POLYLINE
  8
SURFACE
 62
7
  6
CONTINUOUS
 66
1
 70
0
  0
VERTEX
  8
SURFACE
 62
7
  6
CONTINUOUS
 10
123.3126017629
 20
125.6585507497
  0
VERTEX
  8
SURFACE
 62
7
  6
CONTINUOUS
 10
123.2714220763
 20
125.6595655662
  0
VERTEX
  8
SURFACE
 62
7
  6
CONTINUOUS
 10
123.2314944533
 20
125.6594934598
  0
VERTEX
  8
SURFACE
 62
7
  6
CONTINUOUS
 10
123.1939034
 20
125.658339847
  0
VERTEX
  8
SURFACE
 62
7
  6
CONTINUOUS
 10
123.1596688737
 20
125.6561378281
  0
VERTEX
  8
SURFACE
 62
7
  6
CONTINUOUS
 10
123.1297145015
 20
125.6529478849
  0
VERTEX
  8
SURFACE
 62
7
  6
CONTINUOUS
 10
123.1048375979
 20
125.64885644
  0
VERTEX
  8
SURFACE
 62
7
  6
CONTINUOUS
 10
123.085685633
 20
125.6439734342
  0
VERTEX
  8
SURFACE
 62
7
  6
CONTINUOUS
 10
123.0727395051
 20
125.6384290846
  0
VERTEX
  8
SURFACE
 62
7
  6
CONTINUOUS
 10
123.0663043095
 20
125.6323700518
  0
VERTEX
  8
SURFACE
 62
7
  6
CONTINUOUS
 10
123.065592538
 20
125.6299013571
  0
SEQEND
  0
POLYLINE
  8
SURFACE
 62
7
  6
CONTINUOUS
 66
1
 70
0
  0
VERTEX
  8
SURFACE
 62
7
  6
CONTINUOUS
 10
136.0126017629
 20
125.6585507497
  0
VERTEX
  8
SURFACE
 62
7
  6
CONTINUOUS
 10
135.9714220763
 20
125.6595655662
  0
VERTEX
  8
SURFACE
 62
7
  6
CONTINUOUS
 10
135.9314944533
 20
125.6594934598
  0
VERTEX
  8
SURFACE
 62
7
  6
CONTINUOUS
 10
135.8939034
 20
125.658339847
  0
VERTEX
  8
SURFACE
 62
7
  6
CONTINUOUS
 10
135.8596688737
 20
125.6561378281
  0
VERTEX
  8
SURFACE
 62
7
  6
CONTINUOUS
 10
135.8297145015
 20
125.6529478849
  0
VERTEX
  8
SURFACE
 62
7
  6
CONTINUOUS
 10
135.8048375979
 20
125.64885644
  0
VERTEX
  8
SURFACE
 62
7
  6
CONTINUOUS
 10
135.785685633
 20
125.6439734342
  0
VERTEX
  8
SURFACE
 62
7
  6
CONTINUOUS
 10
135.7727395051
 20
125.6384290846
  0
VERTEX
  8
SURFACE
 62
7
  6
CONTINUOUS
 10
135.7663043095
 20
125.6323700518
  0
VERTEX
  8
SURFACE
 62
7
  6
CONTINUOUS
 10
135.765592538
 20
125.6299013571
  0
SEQEND
  0
POLYLINE
  8
SURFACE
 62
7
  6
CONTINUOUS
 66
1
 70
0
  0
VERTEX
  8
SURFACE
 62
7
  6
CONTINUOUS
 10
148.7126017629
 20
125.6585507497
  0
VERTEX
  8
SURFACE
 62
7
  6
CONTINUOUS
 10
148.6714220763
 20
125.6595655662
  0
VERTEX
  8
SURFACE
 62
7
  6
CONTINUOUS
 10
148.6314944533
 20
125.6594934598
  0
VERTEX
  8
SURFACE
 62
7
  6
CONTINUOUS
 10
148.5939034
 20
125.658339847
  0
VERTEX
  8
SURFACE
 62
7
  6
CONTINUOUS
 10
148.5596688737
 20
125.6561378281
  0
VERTEX
  8
SURFACE
 62
7
  6
CONTINUOUS
 10
148.5297145015
 20
125.6529478849
  0
VERTEX
  8
SURFACE
 62
7
  6
CONTINUOUS
 10
148.5048375979
 20
125.64885644
  0
VERTEX
  8
SURFACE
 62
7
  6
CONTINUOUS
 10
148.485685633
 20
125.6439734342
  0
VERTEX
  8
SURFACE
 62
7
  6
CONTINUOUS
 10
148.4727395051
 20
125.6384290846
  0
VERTEX
  8
SURFACE
 62
7
  6
CONTINUOUS
 10
148.4663043095
 20
125.6323700518
  0
VERTEX
  8
SURFACE
 62
7
  6
CONTINUOUS
 10
148.465592538
 20
125.6299013571
  0
SEQEND
  0
POLYLINE
  8
SURFACE
 62
7
  6
CONTINUOUS
 66
1
 70
0
  0
VERTEX
  8
SURFACE
 62
7
  6
CONTINUOUS
 10
161.4126017629
 20
125.6585507497
  0
VERTEX
  8
SURFACE
 62
7
  6
CONTINUOUS
 10
161.3714220763
 20
125.6595655662
  0
VERTEX
  8
SURFACE
 62
7
  6
CONTINUOUS
 10
161.3314944533
 20
125.6594934598
  0
VERTEX
  8
SURFACE
 62
7
  6
CONTINUOUS
 10
161.2939034
 20
125.658339847
  0
VERTEX
  8
SURFACE
 62
7
  6
CONTINUOUS
 10
161.2596688737
 20
125.6561378281
  0
VERTEX
  8
SURFACE
 62
7
  6
CONTINUOUS
 10
161.2297145015
 20
125.6529478849
  0
VERTEX
  8
SURFACE
 62
7
  6
CONTINUOUS
 10
161.2048375979
 20
125.64885644
  0
VERTEX
  8
SURFACE
 62
7
  6
CONTINUOUS
 10
161.185685633
 20
125.6439734342
  0
VERTEX
  8
SURFACE
 62
7
  6
CONTINUOUS
 10
161.1727395051
 20
125.6384290846
  0
VERTEX
  8
SURFACE
 62
7
  6
CONTINUOUS
 10
161.1663043095
 20
125.6323700518
  0
VERTEX
  8
SURFACE
 62
7
  6
CONTINUOUS
 10
161.165592538
 20
125.6299013571
  0
SEQEND
  0
POLYLINE
  8
SURFACE
 62
7
  6
CONTINUOUS
 66
1
 70
0
  0
VERTEX
  8
SURFACE
 62
7
  6
CONTINUOUS
 10
27.7622648429
 20
120.9114291634
  0
VERTEX
  8
SURFACE
 62
7
  6
CONTINUOUS
 10
27.7494193571
 20
120.9120305029
  0
VERTEX
  8
SURFACE
 62
7
  6
CONTINUOUS
 10
27.7330477663
 20
120.9145172758
  0
VERTEX
  8
SURFACE
 62
7
  6
CONTINUOUS
 10
27.7156237476
 20
120.9193308321
  0
VERTEX
  8
SURFACE
 62
7
  6
CONTINUOUS
 10
27.6978837781
 20
120.9267245361
  0
VERTEX
  8
SURFACE
 62
7
  6
CONTINUOUS
 10
27.6804580206
 20
120.9368279674
  0
VERTEX
  8
SURFACE
 62
7
  6
CONTINUOUS
 10
27.6639204386
 20
120.9496745661
  0
VERTEX
  8
SURFACE
 62
7
  6
CONTINUOUS
 10
27.6488540102
 20
120.9651675386
  0
VERTEX
  8
SURFACE
 62
7
  6
CONTINUOUS
 10
27.6358152435
 20
120.9830781345
  0
VERTEX
  8
SURFACE
 62
7
  6
CONTINUOUS
 10
27.625316543
 20
121.0030180778
  0
VERTEX
  8
SURFACE
 62
7
  6
CONTINUOUS
 10
27.617762457
 20
121.0244743554
  0
VERTEX
  8
SURFACE
 62
7
  6
CONTINUOUS
 10
27.6134146473
 20
121.0468507372
  0
VERTEX
  8
SURFACE
 62
7
  6
CONTINUOUS
 10
27.6123192007
 20
121.0653011416
  0
SEQEND
  0
POLYLINE
  8
SURFACE
 62
7
  6
CONTINUOUS
 66
1
 70
0
  0
VERTEX
  8
SURFACE
 62
7
  6
CONTINUOUS
 10
40.4622648429
 20
120.9114291634
  0
VERTEX
  8
SURFACE
 62
7
  6
CONTINUOUS
 10
40.4494193571
 20
120.9120305029
  0
VERTEX
  8
SURFACE
 62
7
  6
CONTINUOUS
 10
40.4330477663
 20
120.9145172758
  0
VERTEX
  8
SURFACE
 62
7
  6
CONTINUOUS
 10
40.4156237476
 20
120.9193308321
  0
VERTEX
  8
SURFACE
 62
7
  6
CONTINUOUS
 10
40.3978837781
 20
120.9267245361
  0
VERTEX
  8
SURFACE
 62
7
  6
CONTINUOUS
 10
40.3804580206
 20
120.9368279674
  0
VERTEX
  8
SURFACE
 62
7
  6
CONTINUOUS
 10
40.3639204386
 20
120.9496745661
  0
VERTEX
  8
SURFACE
 62
7
  6
CONTINUOUS
 10
40.3488540102
 20
120.9651675386
  0
VERTEX
  8
SURFACE
 62
7
  6
CONTINUOUS
 10
40.3358152435
 20
120.9830781345
  0
VERTEX
  8
SURFACE
 62
7
  6
CONTINUOUS
 10
40.325316543
 20
121.0030180777
  0
VERTEX
  8
SURFACE
 62
7
  6
CONTINUOUS
 10
40.317762457
 20
121.0244743554
  0
VERTEX
  8
SURFACE
 62
7
  6
CONTINUOUS
 10
40.3134146473
 20
121.0468507372
  0
VERTEX
  8
SURFACE
 62
7
  6
CONTINUOUS
 10
40.3123192007
 20
121.0653011416
  0
SEQEND
  0
POLYLINE
  8
SURFACE
 62
7
  6
CONTINUOUS
 66
1
 70
0
  0
VERTEX
  8
SURFACE
 62
7
  6
CONTINUOUS
 10
53.1622648429
 20
120.9114291634
  0
VERTEX
  8
SURFACE
 62
7
  6
CONTINUOUS
 10
53.1494193571
 20
120.9120305029
  0
VERTEX
  8
SURFACE
 62
7
  6
CONTINUOUS
 10
53.1330477663
 20
120.9145172758
  0
VERTEX
  8
SURFACE
 62
7
  6
CONTINUOUS
 10
53.1156237476
 20
120.9193308321
  0
VERTEX
  8
SURFACE
 62
7
  6
CONTINUOUS
 10
53.0978837781
 20
120.9267245361
  0
VERTEX
  8
SURFACE
 62
7
  6
CONTINUOUS
 10
53.0804580206
 20
120.9368279674
  0
VERTEX
  8
SURFACE
 62
7
  6
CONTINUOUS
 10
53.0639204386
 20
120.9496745661
  0
VERTEX
  8
SURFACE
 62
7
  6
CONTINUOUS
 10
53.0488540102
 20
120.9651675386
  0
VERTEX
  8
SURFACE
 62
7
  6
CONTINUOUS
 10
53.0358152435
 20
120.9830781345
  0
VERTEX
  8
SURFACE
 62
7
  6
CONTINUOUS
 10
53.025316543
 20
121.0030180778
  0
VERTEX
  8
SURFACE
 62
7
  6
CONTINUOUS
 10
53.017762457
 20
121.0244743554
  0
VERTEX
  8
SURFACE
 62
7
  6
CONTINUOUS
 10
53.0134146473
 20
121.0468507372
  0
VERTEX
  8
SURFACE
 62
7
  6
CONTINUOUS
 10
53.0123192007
 20
121.0653011416
  0
SEQEND
  0
POLYLINE
  8
SURFACE
 62
7
  6
CONTINUOUS
 66
1
 70
0
  0
VERTEX
  8
SURFACE
 62
7
  6
CONTINUOUS
 10
65.8622648429
 20
120.9114291634
  0
VERTEX
  8
SURFACE
 62
7
  6
CONTINUOUS
 10
65.8494193571
 20
120.9120305029
  0
VERTEX
  8
SURFACE
 62
7
  6
CONTINUOUS
 10
65.8330477663
 20
120.9145172758
  0
VERTEX
  8
SURFACE
 62
7
  6
CONTINUOUS
 10
65.8156237476
 20
120.9193308321
  0
VERTEX
  8
SURFACE
 62
7
  6
CONTINUOUS
 10
65.7978837781
 20
120.9267245361
  0
VERTEX
  8
SURFACE
 62
7
  6
CONTINUOUS
 10
65.7804580206
 20
120.9368279674
  0
VERTEX
  8
SURFACE
 62
7
  6
CONTINUOUS
 10
65.7639204386
 20
120.9496745661
  0
VERTEX
  8
SURFACE
 62
7
  6
CONTINUOUS
 10
65.7488540102
 20
120.9651675386
  0
VERTEX
  8
SURFACE
 62
7
  6
CONTINUOUS
 10
65.7358152435
 20
120.9830781345
  0
VERTEX
  8
SURFACE
 62
7
  6
CONTINUOUS
 10
65.725316543
 20
121.0030180778
  0
VERTEX
  8
SURFACE
 62
7
  6
CONTINUOUS
 10
65.717762457
 20
121.0244743554
  0
VERTEX
  8
SURFACE
 62
7
  6
CONTINUOUS
 10
65.7134146473
 20
121.0468507372
  0
VERTEX
  8
SURFACE
 62
7
  6
CONTINUOUS
 10
65.7123192007
 20
121.0653011416
  0
SEQEND
  0
POLYLINE
  8
SURFACE
 62
7
  6
CONTINUOUS
 66
1
 70
0
  0
VERTEX
  8
SURFACE
 62
7
  6
CONTINUOUS
 10
78.5622648429
 20
120.9114291634
  0
VERTEX
  8
SURFACE
 62
7
  6
CONTINUOUS
 10
78.5494193571
 20
120.9120305029
  0
VERTEX
  8
SURFACE
 62
7
  6
CONTINUOUS
 10
78.5330477663
 20
120.9145172758
  0
VERTEX
  8
SURFACE
 62
7
  6
CONTINUOUS
 10
78.5156237476
 20
120.9193308321
  0
VERTEX
  8
SURFACE
 62
7
  6
CONTINUOUS
 10
78.4978837781
 20
120.9267245361
  0
VERTEX
  8
SURFACE
 62
7
  6
CONTINUOUS
 10
78.4804580206
 20
120.9368279674
  0
VERTEX
  8
SURFACE
 62
7
  6
CONTINUOUS
 10
78.4639204386
 20
120.9496745661
  0
VERTEX
  8
SURFACE
 62
7
  6
CONTINUOUS
 10
78.4488540102
 20
120.9651675386
  0
VERTEX
  8
SURFACE
 62
7
  6
CONTINUOUS
 10
78.4358152435
 20
120.9830781345
  0
VERTEX
  8
SURFACE
 62
7
  6
CONTINUOUS
 10
78.425316543
 20
121.0030180778
  0
VERTEX
  8
SURFACE
 62
7
  6
CONTINUOUS
 10
78.417762457
 20
121.0244743554
  0
VERTEX
  8
SURFACE
 62
7
  6
CONTINUOUS
 10
78.4134146473
 20
121.0468507372
  0
VERTEX
  8
SURFACE
 62
7
  6
CONTINUOUS
 10
78.4123192007
 20
121.0653011416
  0
SEQEND
  0
POLYLINE
  8
SURFACE
 62
7
  6
CONTINUOUS
 66
1
 70
0
  0
VERTEX
  8
SURFACE
 62
7
  6
CONTINUOUS
 10
91.2622648429
 20
120.9114291634
  0
VERTEX
  8
SURFACE
 62
7
  6
CONTINUOUS
 10
91.2494193571
 20
120.9120305029
  0
VERTEX
  8
SURFACE
 62
7
  6
CONTINUOUS
 10
91.2330477663
 20
120.9145172758
  0
VERTEX
  8
SURFACE
 62
7
  6
CONTINUOUS
 10
91.2156237476
 20
120.9193308321
  0
VERTEX
  8
SURFACE
 62
7
  6
CONTINUOUS
 10
91.1978837781
 20
120.9267245361
  0
VERTEX
  8
SURFACE
 62
7
  6
CONTINUOUS
 10
91.1804580206
 20
120.9368279674
  0
VERTEX
  8
SURFACE
 62
7
  6
CONTINUOUS
 10
91.1639204386
 20
120.9496745661
  0
VERTEX
  8
SURFACE
 62
7
  6
CONTINUOUS
 10
91.1488540102
 20
120.9651675386
  0
VERTEX
  8
SURFACE
 62
7
  6
CONTINUOUS
 10
91.1358152435
 20
120.9830781345
  0
VERTEX
  8
SURFACE
 62
7
  6
CONTINUOUS
 10
91.125316543
 20
121.0030180778
  0
VERTEX
  8
SURFACE
 62
7
  6
CONTINUOUS
 10
91.117762457
 20
121.0244743554
  0
VERTEX
  8
SURFACE
 62
7
  6
CONTINUOUS
 10
91.1134146473
 20
121.0468507372
  0
VERTEX
  8
SURFACE
 62
7
  6
CONTINUOUS
 10
91.1123192007
 20
121.0653011416
  0
SEQEND
  0
POLYLINE
  8
SURFACE
 62
7
  6
CONTINUOUS
 66
1
 70
0
  0
VERTEX
  8
SURFACE
 62
7
  6
CONTINUOUS
 10
103.9622648429
 20
120.9114291634
  0
VERTEX
  8
SURFACE
 62
7
  6
CONTINUOUS
 10
103.9494193571
 20
120.9120305029
  0
VERTEX
  8
SURFACE
 62
7
  6
CONTINUOUS
 10
103.9330477663
 20
120.9145172758
  0
VERTEX
  8
SURFACE
 62
7
  6
CONTINUOUS
 10
103.9156237476
 20
120.9193308321
  0
VERTEX
  8
SURFACE
 62
7
  6
CONTINUOUS
 10
103.8978837781
 20
120.9267245361
  0
VERTEX
  8
SURFACE
 62
7
  6
CONTINUOUS
 10
103.8804580206
 20
120.9368279674
  0
VERTEX
  8
SURFACE
 62
7
  6
CONTINUOUS
 10
103.8639204386
 20
120.9496745661
  0
VERTEX
  8
SURFACE
 62
7
  6
CONTINUOUS
 10
103.8488540102
 20
120.9651675386
  0
VERTEX
  8
SURFACE
 62
7
  6
CONTINUOUS
 10
103.8358152435
 20
120.9830781345
  0
VERTEX
  8
SURFACE
 62
7
  6
CONTINUOUS
 10
103.825316543
 20
121.0030180778
  0
VERTEX
  8
SURFACE
 62
7
  6
CONTINUOUS
 10
103.817762457
 20
121.0244743554
  0
VERTEX
  8
SURFACE
 62
7
  6
CONTINUOUS
 10
103.8134146473
 20
121.0468507372
  0
VERTEX
  8
SURFACE
 62
7
  6
CONTINUOUS
 10
103.8123192007
 20
121.0653011416
  0
SEQEND
  0
POLYLINE
  8
SURFACE
 62
7
  6
CONTINUOUS
 66
1
 70
0
  0
VERTEX
  8
SURFACE
 62
7
  6
CONTINUOUS
 10
116.6622648429
 20
120.9114291634
  0
VERTEX
  8
SURFACE
 62
7
  6
CONTINUOUS
 10
116.6494193571
 20
120.9120305029
  0
VERTEX
  8
SURFACE
 62
7
  6
CONTINUOUS
 10
116.6330477663
 20
120.9145172758
  0
VERTEX
  8
SURFACE
 62
7
  6
CONTINUOUS
 10
116.6156237476
 20
120.9193308321
  0
VERTEX
  8
SURFACE
 62
7
  6
CONTINUOUS
 10
116.5978837781
 20
120.9267245361
  0
VERTEX
  8
SURFACE
 62
7
  6
CONTINUOUS
 10
116.5804580206
 20
120.9368279674
  0
VERTEX
  8
SURFACE
 62
7
  6
CONTINUOUS
 10
116.5639204386
 20
120.9496745661
  0
VERTEX
  8
SURFACE
 62
7
  6
CONTINUOUS
 10
116.5488540102
 20
120.9651675386
  0
VERTEX
  8
SURFACE
 62
7
  6
CONTINUOUS
 10
116.5358152435
 20
120.9830781345
  0
VERTEX
  8
SURFACE
 62
7
  6
CONTINUOUS
 10
116.525316543
 20
121.0030180778
  0
VERTEX
  8
SURFACE
 62
7
  6
CONTINUOUS
 10
116.517762457
 20
121.0244743554
  0
VERTEX
  8
SURFACE
 62
7
  6
CONTINUOUS
 10
116.5134146473
 20
121.0468507372
  0
VERTEX
  8
SURFACE
 62
7
  6
CONTINUOUS
 10
116.5123192007
 20
121.0653011416
  0
SEQEND
  0
POLYLINE
  8
SURFACE
 62
7
  6
CONTINUOUS
 66
1
 70
0
  0
VERTEX
  8
SURFACE
 62
7
  6
CONTINUOUS
 10
129.3622648429
 20
120.9114291634
  0
VERTEX
  8
SURFACE
 62
7
  6
CONTINUOUS
 10
129.3494193571
 20
120.9120305029
  0
VERTEX
  8
SURFACE
 62
7
  6
CONTINUOUS
 10
129.3330477663
 20
120.9145172758
  0
VERTEX
  8
SURFACE
 62
7
  6
CONTINUOUS
 10
129.3156237476
 20
120.9193308321
  0
VERTEX
  8
SURFACE
 62
7
  6
CONTINUOUS
 10
129.2978837781
 20
120.9267245361
  0
VERTEX
  8
SURFACE
 62
7
  6
CONTINUOUS
 10
129.2804580206
 20
120.9368279674
  0
VERTEX
  8
SURFACE
 62
7
  6
CONTINUOUS
 10
129.2639204386
 20
120.9496745661
  0
VERTEX
  8
SURFACE
 62
7
  6
CONTINUOUS
 10
129.2488540102
 20
120.9651675386
  0
VERTEX
  8
SURFACE
 62
7
  6
CONTINUOUS
 10
129.2358152435
 20
120.9830781345
  0
VERTEX
  8
SURFACE
 62
7
  6
CONTINUOUS
 10
129.225316543
 20
121.0030180778
  0
VERTEX
  8
SURFACE
 62
7
  6
CONTINUOUS
 10
129.217762457
 20
121.0244743554
  0
VERTEX
  8
SURFACE
 62
7
  6
CONTINUOUS
 10
129.2134146473
 20
121.0468507372
  0
VERTEX
  8
SURFACE
 62
7
  6
CONTINUOUS
 10
129.2123192007
 20
121.0653011416
  0
SEQEND
  0
POLYLINE
  8
SURFACE
 62
7
  6
CONTINUOUS
 66
1
 70
0
  0
VERTEX
  8
SURFACE
 62
7
  6
CONTINUOUS
 10
142.0622648429
 20
120.9114291634
  0
VERTEX
  8
SURFACE
 62
7
  6
CONTINUOUS
 10
142.0494193571
 20
120.9120305029
  0
VERTEX
  8
SURFACE
 62
7
  6
CONTINUOUS
 10
142.0330477663
 20
120.9145172758
  0
VERTEX
  8
SURFACE
 62
7
  6
CONTINUOUS
 10
142.0156237476
 20
120.9193308321
  0
VERTEX
  8
SURFACE
 62
7
  6
CONTINUOUS
 10
141.9978837781
 20
120.9267245361
  0
VERTEX
  8
SURFACE
 62
7
  6
CONTINUOUS
 10
141.9804580206
 20
120.9368279674
  0
VERTEX
  8
SURFACE
 62
7
  6
CONTINUOUS
 10
141.9639204386
 20
120.9496745661
  0
VERTEX
  8
SURFACE
 62
7
  6
CONTINUOUS
 10
141.9488540102
 20
120.9651675386
  0
VERTEX
  8
SURFACE
 62
7
  6
CONTINUOUS
 10
141.9358152435
 20
120.9830781345
  0
VERTEX
  8
SURFACE
 62
7
  6
CONTINUOUS
 10
141.925316543
 20
121.0030180778
  0
VERTEX
  8
SURFACE
 62
7
  6
CONTINUOUS
 10
141.917762457
 20
121.0244743554
  0
VERTEX
  8
SURFACE
 62
7
  6
CONTINUOUS
 10
141.9134146473
 20
121.0468507372
  0
VERTEX
  8
SURFACE
 62
7
  6
CONTINUOUS
 10
141.9123192007
 20
121.0653011416
  0
SEQEND
  0
POLYLINE
  8
SURFACE
 62
7
  6
CONTINUOUS
 66
1
 70
0
  0
VERTEX
  8
SURFACE
 62
7
  6
CONTINUOUS
 10
154.7622648429
 20
120.9114291634
  0
VERTEX
  8
SURFACE
 62
7
  6
CONTINUOUS
 10
154.7494193571
 20
120.9120305029
  0
VERTEX
  8
SURFACE
 62
7
  6
CONTINUOUS
 10
154.7330477663
 20
120.9145172758
  0
VERTEX
  8
SURFACE
 62
7
  6
CONTINUOUS
 10
154.7156237476
 20
120.9193308321
  0
VERTEX
  8
SURFACE
 62
7
  6
CONTINUOUS
 10
154.6978837781
 20
120.9267245361
  0
VERTEX
  8
SURFACE
 62
7
  6
CONTINUOUS
 10
154.6804580206
 20
120.9368279674
  0
VERTEX
  8
SURFACE
 62
7
  6
CONTINUOUS
 10
154.6639204386
 20
120.9496745661
  0
VERTEX
  8
SURFACE
 62
7
  6
CONTINUOUS
 10
154.6488540102
 20
120.9651675386
  0
VERTEX
  8
SURFACE
 62
7
  6
CONTINUOUS
 10
154.6358152435
 20
120.9830781345
  0
VERTEX
  8
SURFACE
 62
7
  6
CONTINUOUS
 10
154.625316543
 20
121.0030180777
  0
VERTEX
  8
SURFACE
 62
7
  6
CONTINUOUS
 10
154.617762457
 20
121.0244743554
  0
VERTEX
  8
SURFACE
 62
7
  6
CONTINUOUS
 10
154.6134146473
 20
121.0468507372
  0
VERTEX
  8
SURFACE
 62
7
  6
CONTINUOUS
 10
154.6123192007
 20
121.0653011416
  0
SEQEND
  0
POLYLINE
  8
SURFACE
 62
7
  6
CONTINUOUS
 66
1
 70
0
  0
VERTEX
  8
SURFACE
 62
7
  6
CONTINUOUS
 10
26.2341202305
 20
129.3824512886
  0
VERTEX
  8
SURFACE
 62
7
  6
CONTINUOUS
 10
26.1999645966
 20
129.3880554411
  0
VERTEX
  8
SURFACE
 62
7
  6
CONTINUOUS
 10
26.1655929865
 20
129.3914139804
  0
VERTEX
  8
SURFACE
 62
7
  6
CONTINUOUS
 10
26.1408383531
 20
129.3921720949
  0
SEQEND
  0
POLYLINE
  8
SURFACE
 62
7
  6
CONTINUOUS
 66
1
 70
0
  0
VERTEX
  8
SURFACE
 62
7
  6
CONTINUOUS
 10
38.9341202305
 20
129.3824512886
  0
VERTEX
  8
SURFACE
 62
7
  6
CONTINUOUS
 10
38.8999645966
 20
129.3880554411
  0
VERTEX
  8
SURFACE
 62
7
  6
CONTINUOUS
 10
38.8655929865
 20
129.3914139804
  0
VERTEX
  8
SURFACE
 62
7
  6
CONTINUOUS
 10
38.8408383531
 20
129.3921720949
  0
SEQEND
  0
POLYLINE
  8
SURFACE
 62
7
  6
CONTINUOUS
 66
1
 70
0
  0
VERTEX
  8
SURFACE
 62
7
  6
CONTINUOUS
 10
51.6341202305
 20
129.3824512886
  0
VERTEX
  8
SURFACE
 62
7
  6
CONTINUOUS
 10
51.5999645966
 20
129.3880554411
  0
VERTEX
  8
SURFACE
 62
7
  6
CONTINUOUS
 10
51.5655929865
 20
129.3914139804
  0
VERTEX
  8
SURFACE
 62
7
  6
CONTINUOUS
 10
51.5408383531
 20
129.3921720949
  0
SEQEND
  0
POLYLINE
  8
SURFACE
 62
7
  6
CONTINUOUS
 66
1
 70
0
  0
VERTEX
  8
SURFACE
 62
7
  6
CONTINUOUS
 10
64.3341202305
 20
129.3824512886
  0
VERTEX
  8
SURFACE
 62
7
  6
CONTINUOUS
 10
64.2999645966
 20
129.3880554411
  0
VERTEX
  8
SURFACE
 62
7
  6
CONTINUOUS
 10
64.2655929865
 20
129.3914139804
  0
VERTEX
  8
SURFACE
 62
7
  6
CONTINUOUS
 10
64.2408383531
 20
129.3921720949
  0
SEQEND
  0
POLYLINE
  8
SURFACE
 62
7
  6
CONTINUOUS
 66
1
 70
0
  0
VERTEX
  8
SURFACE
 62
7
  6
CONTINUOUS
 10
77.0341202305
 20
129.3824512886
  0
VERTEX
  8
SURFACE
 62
7
  6
CONTINUOUS
 10
76.9999645966
 20
129.3880554411
  0
VERTEX
  8
SURFACE
 62
7
  6
CONTINUOUS
 10
76.9655929865
 20
129.3914139804
  0
VERTEX
  8
SURFACE
 62
7
  6
CONTINUOUS
 10
76.9408383531
 20
129.3921720949
  0
SEQEND
  0
POLYLINE
  8
SURFACE
 62
7
  6
CONTINUOUS
 66
1
 70
0
  0
VERTEX
  8
SURFACE
 62
7
  6
CONTINUOUS
 10
89.7341202305
 20
129.3824512886
  0
VERTEX
  8
SURFACE
 62
7
  6
CONTINUOUS
 10
89.6999645966
 20
129.3880554411
  0
VERTEX
  8
SURFACE
 62
7
  6
CONTINUOUS
 10
89.6655929865
 20
129.3914139804
  0
VERTEX
  8
SURFACE
 62
7
  6
CONTINUOUS
 10
89.6408383531
 20
129.3921720949
  0
SEQEND
  0
POLYLINE
  8
SURFACE
 62
7
  6
CONTINUOUS
 66
1
 70
0
  0
VERTEX
  8
SURFACE
 62
7
  6
CONTINUOUS
 10
102.4341202305
 20
129.3824512886
  0
VERTEX
  8
SURFACE
 62
7
  6
CONTINUOUS
 10
102.3999645966
 20
129.3880554411
  0
VERTEX
  8
SURFACE
 62
7
  6
CONTINUOUS
 10
102.3655929865
 20
129.3914139804
  0
VERTEX
  8
SURFACE
 62
7
  6
CONTINUOUS
 10
102.3408383531
 20
129.3921720949
  0
SEQEND
  0
POLYLINE
  8
SURFACE
 62
7
  6
CONTINUOUS
 66
1
 70
0
  0
VERTEX
  8
SURFACE
 62
7
  6
CONTINUOUS
 10
115.1341202305
 20
129.3824512886
  0
VERTEX
  8
SURFACE
 62
7
  6
CONTINUOUS
 10
115.0999645966
 20
129.3880554411
  0
VERTEX
  8
SURFACE
 62
7
  6
CONTINUOUS
 10
115.0655929865
 20
129.3914139804
  0
VERTEX
  8
SURFACE
 62
7
  6
CONTINUOUS
 10
115.0408383531
 20
129.3921720949
  0
SEQEND
  0
LINE
  8
SURFACE
 62
7
  6
CONTINUOUS
 10
26.2584347212
 20
129.3773194128
 11
26.2341202305
 21
129.3824512886
  0
LINE
  8
SURFACE
 62
7
  6
CONTINUOUS
 10
38.9584347212
 20
129.3773194128
 11
38.9341202305
 21
129.3824512886
  0
LINE
  8
SURFACE
 62
7
  6
CONTINUOUS
 10
51.6584347212
 20
129.3773194128
 11
51.6341202305
 21
129.3824512886
  0
LINE
  8
SURFACE
 62
7
  6
CONTINUOUS
 10
64.3584347212
 20
129.3773194128
 11
64.3341202305
 21
129.3824512886
  0
LINE
  8
SURFACE
 62
7
  6
CONTINUOUS
 10
77.0584347212
 20
129.3773194128
 11
77.0341202305
 21
129.3824512886
  0
LINE
  8
SURFACE
 62
7
  6
CONTINUOUS
 10
89.7584347212
 20
129.3773194128
 11
89.7341202305
 21
129.3824512886
  0
LINE
  8
SURFACE
 62
7
  6
CONTINUOUS
 10
102.4584347212
 20
129.3773194128
 11
102.4341202305
 21
129.3824512886
  0
LINE
  8
SURFACE
 62
7
  6
CONTINUOUS
 10
115.1584347212
 20
129.3773194128
 11
115.1341202305
 21
129.3824512886
  0
POLYLINE
  8
SURFACE
 62
7
  6
CONTINUOUS
 66
1
 70
0
  0
VERTEX
  8
SURFACE
 62
7
  6
CONTINUOUS
 10
116.737592541
 20
97.0544441123
  0
VERTEX
  8
SURFACE
 62
7
  6
CONTINUOUS
 10
116.7593924789
 20
96.8103400212
  0
VERTEX
  8
SURFACE
 62
7
  6
CONTINUOUS
 10
116.7903677575
 20
96.5168959248
  0
VERTEX
  8
SURFACE
 62
7
  6
CONTINUOUS
 10
116.8260099613
 20
96.2303556641
  0
VERTEX
  8
SURFACE
 62
7
  6
CONTINUOUS
 10
116.8662791835
 20
95.9515780547
  0
VERTEX
  8
SURFACE
 62
7
  6
CONTINUOUS
 10
116.9111384335
 20
95.6814278337
  0
VERTEX
  8
SURFACE
 62
7
  6
CONTINUOUS
 10
116.9605554646
 20
95.4207764554
  0
VERTEX
  8
SURFACE
 62
7
  6
CONTINUOUS
 10
117.0145068595
 20
95.1704968574
  0
VERTEX
  8
SURFACE
 62
7
  6
CONTINUOUS
 10
117.0729782173
 20
94.9314822115
  0
VERTEX
  8
SURFACE
 62
7
  6
CONTINUOUS
 10
117.1359673793
 20
94.7046488977
  0
VERTEX
  8
SURFACE
 62
7
  6
CONTINUOUS
 10
117.2035081893
 20
94.4908819335
  0
VERTEX
  8
SURFACE
 62
7
  6
CONTINUOUS
 10
117.2757968659
 20
94.2907625292
  0
VERTEX
  8
SURFACE
 62
7
  6
CONTINUOUS
 10
117.3534224286
 20
94.104312083
  0
VERTEX
  8
SURFACE
 62
7
  6
CONTINUOUS
 10
117.4372570563
 20
93.9317808531
  0
VERTEX
  8
SURFACE
 62
7
  6
CONTINUOUS
 10
117.5270209454
 20
93.7762140669
  0
VERTEX
  8
SURFACE
 62
7
  6
CONTINUOUS
 10
117.6203340727
 20
93.6427509206
  0
VERTEX
  8
SURFACE
 62
7
  6
CONTINUOUS
 10
117.7144718948
 20
93.5339891331
  0
VERTEX
  8
SURFACE
 62
7
  6
CONTINUOUS
 10
117.8089870607
 20
93.4480309935
  0
VERTEX
  8
SURFACE
 62
7
  6
CONTINUOUS
 10
117.9051232384
 20
93.3818812781
  0
VERTEX
  8
SURFACE
 62
7
  6
CONTINUOUS
 10
118.0036951663
 20
93.3340451902
  0
VERTEX
  8
SURFACE
 62
7
  6
CONTINUOUS
 10
118.0914851627
 20
93.3070168773
  0
SEQEND
  0
POLYLINE
  8
SURFACE
 62
7
  6
CONTINUOUS
 66
1
 70
0
  0
VERTEX
  8
SURFACE
 62
7
  6
CONTINUOUS
 10
116.5122985582
 20
125.6299000848
  0
VERTEX
  8
SURFACE
 62
7
  6
CONTINUOUS
 10
116.4904986203
 20
125.874004176
  0
VERTEX
  8
SURFACE
 62
7
  6
CONTINUOUS
 10
116.4595233418
 20
126.1674482724
  0
VERTEX
  8
SURFACE
 62
7
  6
CONTINUOUS
 10
116.423881138
 20
126.453988533
  0
VERTEX
  8
SURFACE
 62
7
  6
CONTINUOUS
 10
116.3836119157
 20
126.7327661424
  0
VERTEX
  8
SURFACE
 62
7
  6
CONTINUOUS
 10
116.3387526658
 20
127.0029163634
  0
VERTEX
  8
SURFACE
 62
7
  6
CONTINUOUS
 10
116.2893356347
 20
127.2635677417
  0
VERTEX
  8
SURFACE
 62
7
  6
CONTINUOUS
 10
116.2353842398
 20
127.5138473397
  0
VERTEX
  8
SURFACE
 62
7
  6
CONTINUOUS
 10
116.176912882
 20
127.7528619856
  0
VERTEX
  8
SURFACE
 62
7
  6
CONTINUOUS
 10
116.11392372
 20
127.9796952994
  0
VERTEX
  8
SURFACE
 62
7
  6
CONTINUOUS
 10
116.04638291
 20
128.1934622636
  0
VERTEX
  8
SURFACE
 62
7
  6
CONTINUOUS
 10
115.9740942334
 20
128.3935816679
  0
VERTEX
  8
SURFACE
 62
7
  6
CONTINUOUS
 10
115.8964686707
 20
128.5800321142
  0
VERTEX
  8
SURFACE
 62
7
  6
CONTINUOUS
 10
115.812634043
 20
128.752563344
  0
VERTEX
  8
SURFACE
 62
7
  6
CONTINUOUS
 10
115.7228701539
 20
128.9081301302
  0
VERTEX
  8
SURFACE
 62
7
  6
CONTINUOUS
 10
115.6295570266
 20
129.0415932765
  0
VERTEX
  8
SURFACE
 62
7
  6
CONTINUOUS
 10
115.5354192045
 20
129.150355064
  0
VERTEX
  8
SURFACE
 62
7
  6
CONTINUOUS
 10
115.4409040386
 20
129.2363132036
  0
VERTEX
  8
SURFACE
 62
7
  6
CONTINUOUS
 10
115.3447678609
 20
129.302462919
  0
VERTEX
  8
SURFACE
 62
7
  6
CONTINUOUS
 10
115.246195933
 20
129.3502990069
  0
VERTEX
  8
SURFACE
 62
7
  6
CONTINUOUS
 10
115.1584059366
 20
129.3773273198
  0
SEQEND
  0
POLYLINE
  8
SURFACE
 62
7
  6
CONTINUOUS
 66
1
 70
0
  0
VERTEX
  8
SURFACE
 62
7
  6
CONTINUOUS
 10
129.437592541
 20
97.0544441123
  0
VERTEX
  8
SURFACE
 62
7
  6
CONTINUOUS
 10
129.4593924789
 20
96.8103400212
  0
VERTEX
  8
SURFACE
 62
7
  6
CONTINUOUS
 10
129.4903677575
 20
96.5168959248
  0
VERTEX
  8
SURFACE
 62
7
  6
CONTINUOUS
 10
129.5260099613
 20
96.2303556641
  0
VERTEX
  8
SURFACE
 62
7
  6
CONTINUOUS
 10
129.5662791835
 20
95.9515780547
  0
VERTEX
  8
SURFACE
 62
7
  6
CONTINUOUS
 10
129.6111384335
 20
95.6814278337
  0
VERTEX
  8
SURFACE
 62
7
  6
CONTINUOUS
 10
129.6605554646
 20
95.4207764554
  0
VERTEX
  8
SURFACE
 62
7
  6
CONTINUOUS
 10
129.7145068595
 20
95.1704968574
  0
VERTEX
  8
SURFACE
 62
7
  6
CONTINUOUS
 10
129.7729782173
 20
94.9314822115
  0
VERTEX
  8
SURFACE
 62
7
  6
CONTINUOUS
 10
129.8359673793
 20
94.7046488977
  0
VERTEX
  8
SURFACE
 62
7
  6
CONTINUOUS
 10
129.9035081893
 20
94.4908819335
  0
VERTEX
  8
SURFACE
 62
7
  6
CONTINUOUS
 10
129.9757968659
 20
94.2907625292
  0
VERTEX
  8
SURFACE
 62
7
  6
CONTINUOUS
 10
130.0534224286
 20
94.104312083
  0
VERTEX
  8
SURFACE
 62
7
  6
CONTINUOUS
 10
130.1372570563
 20
93.9317808531
  0
VERTEX
  8
SURFACE
 62
7
  6
CONTINUOUS
 10
130.2270209454
 20
93.7762140669
  0
VERTEX
  8
SURFACE
 62
7
  6
CONTINUOUS
 10
130.3203340727
 20
93.6427509206
  0
VERTEX
  8
SURFACE
 62
7
  6
CONTINUOUS
 10
130.4144718948
 20
93.5339891331
  0
VERTEX
  8
SURFACE
 62
7
  6
CONTINUOUS
 10
130.5089870607
 20
93.4480309935
  0
VERTEX
  8
SURFACE
 62
7
  6
CONTINUOUS
 10
130.6051232384
 20
93.3818812781
  0
VERTEX
  8
SURFACE
 62
7
  6
CONTINUOUS
 10
130.7036951663
 20
93.3340451902
  0
VERTEX
  8
SURFACE
 62
7
  6
CONTINUOUS
 10
130.7914851627
 20
93.3070168773
  0
SEQEND
  0
POLYLINE
  8
SURFACE
 62
7
  6
CONTINUOUS
 66
1
 70
0
  0
VERTEX
  8
SURFACE
 62
7
  6
CONTINUOUS
 10
129.2122985582
 20
125.6299000848
  0
VERTEX
  8
SURFACE
 62
7
  6
CONTINUOUS
 10
129.1904986203
 20
125.874004176
  0
VERTEX
  8
SURFACE
 62
7
  6
CONTINUOUS
 10
129.1595233418
 20
126.1674482724
  0
VERTEX
  8
SURFACE
 62
7
  6
CONTINUOUS
 10
129.123881138
 20
126.453988533
  0
VERTEX
  8
SURFACE
 62
7
  6
CONTINUOUS
 10
129.0836119157
 20
126.7327661424
  0
VERTEX
  8
SURFACE
 62
7
  6
CONTINUOUS
 10
129.0387526658
 20
127.0029163634
  0
VERTEX
  8
SURFACE
 62
7
  6
CONTINUOUS
 10
128.9893356347
 20
127.2635677417
  0
VERTEX
  8
SURFACE
 62
7
  6
CONTINUOUS
 10
128.9353842398
 20
127.5138473397
  0
VERTEX
  8
SURFACE
 62
7
  6
CONTINUOUS
 10
128.876912882
 20
127.7528619856
  0
VERTEX
  8
SURFACE
 62
7
  6
CONTINUOUS
 10
128.81392372
 20
127.9796952994
  0
VERTEX
  8
SURFACE
 62
7
  6
CONTINUOUS
 10
128.74638291
 20
128.1934622636
  0
VERTEX
  8
SURFACE
 62
7
  6
CONTINUOUS
 10
128.6740942334
 20
128.3935816679
  0
VERTEX
  8
SURFACE
 62
7
  6
CONTINUOUS
 10
128.5964686707
 20
128.5800321142
  0
VERTEX
  8
SURFACE
 62
7
  6
CONTINUOUS
 10
128.512634043
 20
128.752563344
  0
VERTEX
  8
SURFACE
 62
7
  6
CONTINUOUS
 10
128.4228701539
 20
128.9081301302
  0
VERTEX
  8
SURFACE
 62
7
  6
CONTINUOUS
 10
128.3295570266
 20
129.0415932765
  0
VERTEX
  8
SURFACE
 62
7
  6
CONTINUOUS
 10
128.2354192045
 20
129.150355064
  0
VERTEX
  8
SURFACE
 62
7
  6
CONTINUOUS
 10
128.1409040386
 20
129.2363132036
  0
VERTEX
  8
SURFACE
 62
7
  6
CONTINUOUS
 10
128.0447678609
 20
129.302462919
  0
VERTEX
  8
SURFACE
 62
7
  6
CONTINUOUS
 10
127.946195933
 20
129.3502990069
  0
VERTEX
  8
SURFACE
 62
7
  6
CONTINUOUS
 10
127.8584059366
 20
129.3773273198
  0
SEQEND
  0
LINE
  8
SURFACE
 62
7
  6
CONTINUOUS
 10
116.7375925384
 20
97.0544428351
 11
116.7375718103
 21
97.0549509616
  0
LINE
  8
SURFACE
 62
7
  6
CONTINUOUS
 10
116.5122985608
 20
125.629901362
 11
116.5123192889
 21
125.6293932355
  0
LINE
  8
SURFACE
 62
7
  6
CONTINUOUS
 10
129.4375925384
 20
97.0544428351
 11
129.4375718103
 21
97.0549509616
  0
LINE
  8
SURFACE
 62
7
  6
CONTINUOUS
 10
129.2122985608
 20
125.629901362
 11
129.2123192889
 21
125.6293932355
  0
LINE
  8
SURFACE
 62
7
  6
CONTINUOUS
 10
116.5123192892
 20
125.6293587637
 11
116.5123192892
 21
121.0650884439
  0
LINE
  8
SURFACE
 62
7
  6
CONTINUOUS
 10
116.7375718101
 20
97.0549854334
 11
116.7375718101
 21
101.6192557533
  0
LINE
  8
SURFACE
 62
7
  6
CONTINUOUS
 10
122.8843192892
 20
97.0549854332
 11
122.8843192892
 21
101.6192600041
  0
LINE
  8
SURFACE
 62
7
  6
CONTINUOUS
 10
123.0655718101
 20
125.6293587639
 11
123.0655718101
 21
121.0650841931
  0
LINE
  8
SURFACE
 62
7
  6
CONTINUOUS
 10
129.2123192892
 20
125.6293587637
 11
129.2123192892
 21
121.0650884439
  0
LINE
  8
SURFACE
 62
7
  6
CONTINUOUS
 10
129.4375718101
 20
97.0549854334
 11
129.4375718101
 21
101.6192557533
  0
LINE
  8
SURFACE
 62
7
  6
CONTINUOUS
 10
123.065592538
 20
125.6299013571
 11
123.0655718103
 21
125.6293932357
  0
LINE
  8
SURFACE
 62
7
  6
CONTINUOUS
 10
122.8842985613
 20
97.05444284
 11
122.8843192889
 21
97.0549509614
  0
LINE
  8
SURFACE
 62
7
  6
CONTINUOUS
 10
135.765592538
 20
125.6299013571
 11
135.7655718103
 21
125.6293932357
  0
POLYLINE
  8
SURFACE
 62
7
  6
CONTINUOUS
 66
1
 70
0
  0
VERTEX
  8
SURFACE
 62
7
  6
CONTINUOUS
 10
123.0655718988
 20
121.0652970546
  0
VERTEX
  8
SURFACE
 62
7
  6
CONTINUOUS
 10
123.0644768015
 20
121.0468498989
  0
VERTEX
  8
SURFACE
 62
7
  6
CONTINUOUS
 10
123.0601298199
 20
121.0244753058
  0
VERTEX
  8
SURFACE
 62
7
  6
CONTINUOUS
 10
123.0525769463
 20
121.0030205468
  0
VERTEX
  8
SURFACE
 62
7
  6
CONTINUOUS
 10
123.0420796276
 20
120.9830815616
  0
VERTEX
  8
SURFACE
 62
7
  6
CONTINUOUS
 10
123.029042059
 20
120.9651711788
  0
VERTEX
  8
SURFACE
 62
7
  6
CONTINUOUS
 10
123.0139762735
 20
120.9496777034
  0
VERTEX
  8
SURFACE
 62
7
  6
CONTINUOUS
 10
122.9974386945
 20
120.9368302343
  0
VERTEX
  8
SURFACE
 62
7
  6
CONTINUOUS
 10
122.9800124239
 20
120.9267259105
  0
VERTEX
  8
SURFACE
 62
7
  6
CONTINUOUS
 10
122.9622716596
 20
120.919331516
  0
VERTEX
  8
SURFACE
 62
7
  6
CONTINUOUS
 10
122.9448467316
 20
120.9145175305
  0
VERTEX
  8
SURFACE
 62
7
  6
CONTINUOUS
 10
122.9284740058
 20
120.9120305351
  0
VERTEX
  8
SURFACE
 62
7
  6
CONTINUOUS
 10
122.9156278229
 20
120.9114291644
  0
SEQEND
  0
POLYLINE
  8
SURFACE
 62
7
  6
CONTINUOUS
 66
1
 70
0
  0
VERTEX
  8
SURFACE
 62
7
  6
CONTINUOUS
 10
122.8843192005
 20
101.6190471425
  0
VERTEX
  8
SURFACE
 62
7
  6
CONTINUOUS
 10
122.8854142978
 20
101.6374942983
  0
VERTEX
  8
SURFACE
 62
7
  6
CONTINUOUS
 10
122.8897612794
 20
101.6598688913
  0
VERTEX
  8
SURFACE
 62
7
  6
CONTINUOUS
 10
122.897314153
 20
101.6813236503
  0
VERTEX
  8
SURFACE
 62
7
  6
CONTINUOUS
 10
122.9078114716
 20
101.7012626356
  0
VERTEX
  8
SURFACE
 62
7
  6
CONTINUOUS
 10
122.9208490403
 20
101.7191730184
  0
VERTEX
  8
SURFACE
 62
7
  6
CONTINUOUS
 10
122.9359148258
 20
101.7346664937
  0
VERTEX
  8
SURFACE
 62
7
  6
CONTINUOUS
 10
122.9524524048
 20
101.7475139628
  0
VERTEX
  8
SURFACE
 62
7
  6
CONTINUOUS
 10
122.9698786754
 20
101.7576182866
  0
VERTEX
  8
SURFACE
 62
7
  6
CONTINUOUS
 10
122.9876194397
 20
101.7650126812
  0
VERTEX
  8
SURFACE
 62
7
  6
CONTINUOUS
 10
123.0050443677
 20
101.7698266667
  0
VERTEX
  8
SURFACE
 62
7
  6
CONTINUOUS
 10
123.0214170935
 20
101.772313662
  0
VERTEX
  8
SURFACE
 62
7
  6
CONTINUOUS
 10
123.0342632764
 20
101.7729150327
  0
SEQEND
  0
POLYLINE
  8
SURFACE
 62
7
  6
CONTINUOUS
 66
1
 70
0
  0
VERTEX
  8
SURFACE
 62
7
  6
CONTINUOUS
 10
135.7655718988
 20
121.0652970546
  0
VERTEX
  8
SURFACE
 62
7
  6
CONTINUOUS
 10
135.7644768015
 20
121.0468498989
  0
VERTEX
  8
SURFACE
 62
7
  6
CONTINUOUS
 10
135.7601298199
 20
121.0244753058
  0
VERTEX
  8
SURFACE
 62
7
  6
CONTINUOUS
 10
135.7525769463
 20
121.0030205468
  0
VERTEX
  8
SURFACE
 62
7
  6
CONTINUOUS
 10
135.7420796276
 20
120.9830815616
  0
VERTEX
  8
SURFACE
 62
7
  6
CONTINUOUS
 10
135.729042059
 20
120.9651711788
  0
VERTEX
  8
SURFACE
 62
7
  6
CONTINUOUS
 10
135.7139762735
 20
120.9496777034
  0
VERTEX
  8
SURFACE
 62
7
  6
CONTINUOUS
 10
135.6974386945
 20
120.9368302343
  0
VERTEX
  8
SURFACE
 62
7
  6
CONTINUOUS
 10
135.6800124239
 20
120.9267259105
  0
VERTEX
  8
SURFACE
 62
7
  6
CONTINUOUS
 10
135.6622716596
 20
120.919331516
  0
VERTEX
  8
SURFACE
 62
7
  6
CONTINUOUS
 10
135.6448467316
 20
120.9145175305
  0
VERTEX
  8
SURFACE
 62
7
  6
CONTINUOUS
 10
135.6284740058
 20
120.9120305351
  0
VERTEX
  8
SURFACE
 62
7
  6
CONTINUOUS
 10
135.6156278229
 20
120.9114291644
  0
SEQEND
  0
POLYLINE
  8
SURFACE
 62
7
  6
CONTINUOUS
 66
1
 70
0
  0
VERTEX
  8
SURFACE
 62
7
  6
CONTINUOUS
 10
121.530398059
 20
93.3070149071
  0
VERTEX
  8
SURFACE
 62
7
  6
CONTINUOUS
 10
121.6191432171
 20
93.3344146519
  0
VERTEX
  8
SURFACE
 62
7
  6
CONTINUOUS
 10
121.7176290157
 20
93.382385387
  0
VERTEX
  8
SURFACE
 62
7
  6
CONTINUOUS
 10
121.813687306
 20
93.4486548316
  0
VERTEX
  8
SURFACE
 62
7
  6
CONTINUOUS
 10
121.9081349274
 20
93.5347254621
  0
VERTEX
  8
SURFACE
 62
7
  6
CONTINUOUS
 10
122.0022111632
 20
93.643594045
  0
VERTEX
  8
SURFACE
 62
7
  6
CONTINUOUS
 10
122.0954506394
 20
93.7771308873
  0
VERTEX
  8
SURFACE
 62
7
  6
CONTINUOUS
 10
122.1851461717
 20
93.9327514382
  0
VERTEX
  8
SURFACE
 62
7
  6
CONTINUOUS
 10
122.2689375254
 20
94.1053576118
  0
VERTEX
  8
SURFACE
 62
7
  6
CONTINUOUS
 10
122.3465454147
 20
94.2919284088
  0
VERTEX
  8
SURFACE
 62
7
  6
CONTINUOUS
 10
122.4188249071
 20
94.4921921776
  0
VERTEX
  8
SURFACE
 62
7
  6
CONTINUOUS
 10
122.4863522536
 20
94.7060971766
  0
VERTEX
  8
SURFACE
 62
7
  6
CONTINUOUS
 10
122.5493226811
 20
94.9330556886
  0
VERTEX
  8
SURFACE
 62
7
  6
CONTINUOUS
 10
122.6077724943
 20
95.1721883809
  0
VERTEX
  8
SURFACE
 62
7
  6
CONTINUOUS
 10
122.6617014346
 20
95.4225862855
  0
VERTEX
  8
SURFACE
 62
7
  6
CONTINUOUS
 10
122.7110952625
 20
95.6833585375
  0
VERTEX
  8
SURFACE
 62
7
  6
CONTINUOUS
 10
122.7559298726
 20
95.9536301798
  0
VERTEX
  8
SURFACE
 62
7
  6
CONTINUOUS
 10
122.7961724714
 20
96.2325272235
  0
VERTEX
  8
SURFACE
 62
7
  6
CONTINUOUS
 10
122.8317856797
 20
96.5191820187
  0
VERTEX
  8
SURFACE
 62
7
  6
CONTINUOUS
 10
122.8627293677
 20
96.8127325438
  0
VERTEX
  8
SURFACE
 62
7
  6
CONTINUOUS
 10
122.8842985587
 20
97.0544441173
  0
SEQEND
  0
POLYLINE
  8
SURFACE
 62
7
  6
CONTINUOUS
 66
1
 70
0
  0
VERTEX
  8
SURFACE
 62
7
  6
CONTINUOUS
 10
134.230398059
 20
93.3070149071
  0
VERTEX
  8
SURFACE
 62
7
  6
CONTINUOUS
 10
134.3191432171
 20
93.3344146519
  0
VERTEX
  8
SURFACE
 62
7
  6
CONTINUOUS
 10
134.4176290157
 20
93.382385387
  0
VERTEX
  8
SURFACE
 62
7
  6
CONTINUOUS
 10
134.513687306
 20
93.4486548316
  0
VERTEX
  8
SURFACE
 62
7
  6
CONTINUOUS
 10
134.6081349274
 20
93.5347254621
  0
VERTEX
  8
SURFACE
 62
7
  6
CONTINUOUS
 10
134.7022111632
 20
93.643594045
  0
VERTEX
  8
SURFACE
 62
7
  6
CONTINUOUS
 10
134.7954506394
 20
93.7771308873
  0
VERTEX
  8
SURFACE
 62
7
  6
CONTINUOUS
 10
134.8851461717
 20
93.9327514382
  0
VERTEX
  8
SURFACE
 62
7
  6
CONTINUOUS
 10
134.9689375254
 20
94.1053576118
  0
VERTEX
  8
SURFACE
 62
7
  6
CONTINUOUS
 10
135.0465454147
 20
94.2919284088
  0
VERTEX
  8
SURFACE
 62
7
  6
CONTINUOUS
 10
135.1188249071
 20
94.4921921776
  0
VERTEX
  8
SURFACE
 62
7
  6
CONTINUOUS
 10
135.1863522536
 20
94.7060971766
  0
VERTEX
  8
SURFACE
 62
7
  6
CONTINUOUS
 10
135.2493226811
 20
94.9330556886
  0
VERTEX
  8
SURFACE
 62
7
  6
CONTINUOUS
 10
135.3077724943
 20
95.1721883809
  0
VERTEX
  8
SURFACE
 62
7
  6
CONTINUOUS
 10
135.3617014346
 20
95.4225862855
  0
VERTEX
  8
SURFACE
 62
7
  6
CONTINUOUS
 10
135.4110952625
 20
95.6833585375
  0
VERTEX
  8
SURFACE
 62
7
  6
CONTINUOUS
 10
135.4559298726
 20
95.9536301798
  0
VERTEX
  8
SURFACE
 62
7
  6
CONTINUOUS
 10
135.4961724714
 20
96.2325272235
  0
VERTEX
  8
SURFACE
 62
7
  6
CONTINUOUS
 10
135.5317856797
 20
96.5191820187
  0
VERTEX
  8
SURFACE
 62
7
  6
CONTINUOUS
 10
135.5627293677
 20
96.8127325437
  0
VERTEX
  8
SURFACE
 62
7
  6
CONTINUOUS
 10
135.5842985587
 20
97.0544441173
  0
SEQEND
  0
POLYLINE
  8
SURFACE
 62
7
  6
CONTINUOUS
 66
1
 70
0
  0
VERTEX
  8
SURFACE
 62
7
  6
CONTINUOUS
 10
146.930398059
 20
93.3070149071
  0
VERTEX
  8
SURFACE
 62
7
  6
CONTINUOUS
 10
147.0191432171
 20
93.3344146519
  0
VERTEX
  8
SURFACE
 62
7
  6
CONTINUOUS
 10
147.1176290157
 20
93.382385387
  0
VERTEX
  8
SURFACE
 62
7
  6
CONTINUOUS
 10
147.213687306
 20
93.4486548316
  0
VERTEX
  8
SURFACE
 62
7
  6
CONTINUOUS
 10
147.3081349274
 20
93.5347254621
  0
VERTEX
  8
SURFACE
 62
7
  6
CONTINUOUS
 10
147.4022111632
 20
93.643594045
  0
VERTEX
  8
SURFACE
 62
7
  6
CONTINUOUS
 10
147.4954506394
 20
93.7771308873
  0
VERTEX
  8
SURFACE
 62
7
  6
CONTINUOUS
 10
147.5851461717
 20
93.9327514382
  0
VERTEX
  8
SURFACE
 62
7
  6
CONTINUOUS
 10
147.6689375254
 20
94.1053576118
  0
VERTEX
  8
SURFACE
 62
7
  6
CONTINUOUS
 10
147.7465454147
 20
94.2919284088
  0
VERTEX
  8
SURFACE
 62
7
  6
CONTINUOUS
 10
147.8188249071
 20
94.4921921776
  0
VERTEX
  8
SURFACE
 62
7
  6
CONTINUOUS
 10
147.8863522536
 20
94.7060971766
  0
VERTEX
  8
SURFACE
 62
7
  6
CONTINUOUS
 10
147.9493226811
 20
94.9330556886
  0
VERTEX
  8
SURFACE
 62
7
  6
CONTINUOUS
 10
148.0077724943
 20
95.1721883809
  0
VERTEX
  8
SURFACE
 62
7
  6
CONTINUOUS
 10
148.0617014346
 20
95.4225862855
  0
VERTEX
  8
SURFACE
 62
7
  6
CONTINUOUS
 10
148.1110952625
 20
95.6833585375
  0
VERTEX
  8
SURFACE
 62
7
  6
CONTINUOUS
 10
148.1559298726
 20
95.9536301798
  0
VERTEX
  8
SURFACE
 62
7
  6
CONTINUOUS
 10
148.1961724714
 20
96.2325272235
  0
VERTEX
  8
SURFACE
 62
7
  6
CONTINUOUS
 10
148.2317856797
 20
96.5191820187
  0
VERTEX
  8
SURFACE
 62
7
  6
CONTINUOUS
 10
148.2627293677
 20
96.8127325438
  0
VERTEX
  8
SURFACE
 62
7
  6
CONTINUOUS
 10
148.2842985587
 20
97.0544441173
  0
SEQEND
  0
POLYLINE
  8
SURFACE
 62
7
  6
CONTINUOUS
 66
1
 70
0
  0
VERTEX
  8
SURFACE
 62
7
  6
CONTINUOUS
 10
159.630398059
 20
93.3070149071
  0
VERTEX
  8
SURFACE
 62
7
  6
CONTINUOUS
 10
159.7191432171
 20
93.3344146519
  0
VERTEX
  8
SURFACE
 62
7
  6
CONTINUOUS
 10
159.8176290157
 20
93.382385387
  0
VERTEX
  8
SURFACE
 62
7
  6
CONTINUOUS
 10
159.913687306
 20
93.4486548316
  0
VERTEX
  8
SURFACE
 62
7
  6
CONTINUOUS
 10
160.0081349274
 20
93.5347254621
  0
VERTEX
  8
SURFACE
 62
7
  6
CONTINUOUS
 10
160.1022111632
 20
93.643594045
  0
VERTEX
  8
SURFACE
 62
7
  6
CONTINUOUS
 10
160.1954506394
 20
93.7771308873
  0
VERTEX
  8
SURFACE
 62
7
  6
CONTINUOUS
 10
160.2851461717
 20
93.9327514382
  0
VERTEX
  8
SURFACE
 62
7
  6
CONTINUOUS
 10
160.3689375254
 20
94.1053576118
  0
VERTEX
  8
SURFACE
 62
7
  6
CONTINUOUS
 10
160.4465454147
 20
94.2919284088
  0
VERTEX
  8
SURFACE
 62
7
  6
CONTINUOUS
 10
160.5188249071
 20
94.4921921776
  0
VERTEX
  8
SURFACE
 62
7
  6
CONTINUOUS
 10
160.5863522536
 20
94.7060971766
  0
VERTEX
  8
SURFACE
 62
7
  6
CONTINUOUS
 10
160.6493226811
 20
94.9330556886
  0
VERTEX
  8
SURFACE
 62
7
  6
CONTINUOUS
 10
160.7077724943
 20
95.1721883809
  0
VERTEX
  8
SURFACE
 62
7
  6
CONTINUOUS
 10
160.7617014346
 20
95.4225862855
  0
VERTEX
  8
SURFACE
 62
7
  6
CONTINUOUS
 10
160.8110952625
 20
95.6833585375
  0
VERTEX
  8
SURFACE
 62
7
  6
CONTINUOUS
 10
160.8559298726
 20
95.9536301798
  0
VERTEX
  8
SURFACE
 62
7
  6
CONTINUOUS
 10
160.8961724714
 20
96.2325272235
  0
VERTEX
  8
SURFACE
 62
7
  6
CONTINUOUS
 10
160.9317856797
 20
96.5191820187
  0
VERTEX
  8
SURFACE
 62
7
  6
CONTINUOUS
 10
160.9627293677
 20
96.8127325438
  0
VERTEX
  8
SURFACE
 62
7
  6
CONTINUOUS
 10
160.9842985587
 20
97.0544441173
  0
SEQEND
  0
LINE
  8
SURFACE
 62
7
  6
CONTINUOUS
 10
60.9194547283
 20
129.3773190361
 11
60.9194933676
 21
129.3773278543
  0
LINE
  8
SURFACE
 62
7
  6
CONTINUOUS
 10
48.2194547283
 20
129.3773190361
 11
48.2194933676
 21
129.3773278543
  0
LINE
  8
SURFACE
 62
7
  6
CONTINUOUS
 10
35.5194547283
 20
129.3773190361
 11
35.5194933676
 21
129.3773278543
  0
LINE
  8
SURFACE
 62
7
  6
CONTINUOUS
 10
22.8194547283
 20
129.3773190361
 11
22.8194933676
 21
129.3773278543
  0
LINE
  8
SURFACE
 62
7
  6
CONTINUOUS
 10
60.9430140668
 20
129.3823048195
 11
60.9194547283
 21
129.3773190361
  0
LINE
  8
SURFACE
 62
7
  6
CONTINUOUS
 10
48.2430140668
 20
129.3823048195
 11
48.2194547283
 21
129.3773190361
  0
LINE
  8
SURFACE
 62
7
  6
CONTINUOUS
 10
35.5430140668
 20
129.3823048195
 11
35.5194547283
 21
129.3773190361
  0
LINE
  8
SURFACE
 62
7
  6
CONTINUOUS
 10
22.8430140668
 20
129.3823048195
 11
22.8194547283
 21
129.3773190361
  0
POLYLINE
  8
SURFACE
 62
7
  6
CONTINUOUS
 66
1
 70
0
  0
VERTEX
  8
SURFACE
 62
7
  6
CONTINUOUS
 10
127.8341202305
 20
129.3824512886
  0
VERTEX
  8
SURFACE
 62
7
  6
CONTINUOUS
 10
127.7999645966
 20
129.3880554411
  0
VERTEX
  8
SURFACE
 62
7
  6
CONTINUOUS
 10
127.7655929865
 20
129.3914139804
  0
VERTEX
  8
SURFACE
 62
7
  6
CONTINUOUS
 10
127.7408383531
 20
129.3921720949
  0
SEQEND
  0
POLYLINE
  8
SURFACE
 62
7
  6
CONTINUOUS
 66
1
 70
0
  0
VERTEX
  8
SURFACE
 62
7
  6
CONTINUOUS
 10
140.5341202305
 20
129.3824512886
  0
VERTEX
  8
SURFACE
 62
7
  6
CONTINUOUS
 10
140.4999645966
 20
129.3880554411
  0
VERTEX
  8
SURFACE
 62
7
  6
CONTINUOUS
 10
140.4655929865
 20
129.3914139804
  0
VERTEX
  8
SURFACE
 62
7
  6
CONTINUOUS
 10
140.4408383531
 20
129.3921720949
  0
SEQEND
  0
POLYLINE
  8
SURFACE
 62
7
  6
CONTINUOUS
 66
1
 70
0
  0
VERTEX
  8
SURFACE
 62
7
  6
CONTINUOUS
 10
153.2341202305
 20
129.3824512886
  0
VERTEX
  8
SURFACE
 62
7
  6
CONTINUOUS
 10
153.1999645966
 20
129.3880554411
  0
VERTEX
  8
SURFACE
 62
7
  6
CONTINUOUS
 10
153.1655929865
 20
129.3914139804
  0
VERTEX
  8
SURFACE
 62
7
  6
CONTINUOUS
 10
153.1408383531
 20
129.3921720949
  0
SEQEND
  0
LINE
  8
SURFACE
 62
7
  6
CONTINUOUS
 10
127.8584347212
 20
129.3773194128
 11
127.8341202305
 21
129.3824512886
  0
LINE
  8
SURFACE
 62
7
  6
CONTINUOUS
 10
140.5584347212
 20
129.3773194128
 11
140.5341202305
 21
129.3824512886
  0
LINE
  8
SURFACE
 62
7
  6
CONTINUOUS
 10
153.2584347212
 20
129.3773194128
 11
153.2341202305
 21
129.3824512886
  0
POLYLINE
  8
SURFACE
 62
7
  6
CONTINUOUS
 66
1
 70
0
  0
VERTEX
  8
SURFACE
 62
7
  6
CONTINUOUS
 10
142.137592541
 20
97.0544441123
  0
VERTEX
  8
SURFACE
 62
7
  6
CONTINUOUS
 10
142.1593924789
 20
96.8103400212
  0
VERTEX
  8
SURFACE
 62
7
  6
CONTINUOUS
 10
142.1903677575
 20
96.5168959248
  0
VERTEX
  8
SURFACE
 62
7
  6
CONTINUOUS
 10
142.2260099613
 20
96.2303556641
  0
VERTEX
  8
SURFACE
 62
7
  6
CONTINUOUS
 10
142.2662791835
 20
95.9515780547
  0
VERTEX
  8
SURFACE
 62
7
  6
CONTINUOUS
 10
142.3111384335
 20
95.6814278337
  0
VERTEX
  8
SURFACE
 62
7
  6
CONTINUOUS
 10
142.3605554646
 20
95.4207764554
  0
VERTEX
  8
SURFACE
 62
7
  6
CONTINUOUS
 10
142.4145068595
 20
95.1704968574
  0
VERTEX
  8
SURFACE
 62
7
  6
CONTINUOUS
 10
142.4729782173
 20
94.9314822115
  0
VERTEX
  8
SURFACE
 62
7
  6
CONTINUOUS
 10
142.5359673793
 20
94.7046488977
  0
VERTEX
  8
SURFACE
 62
7
  6
CONTINUOUS
 10
142.6035081893
 20
94.4908819335
  0
VERTEX
  8
SURFACE
 62
7
  6
CONTINUOUS
 10
142.6757968659
 20
94.2907625292
  0
VERTEX
  8
SURFACE
 62
7
  6
CONTINUOUS
 10
142.7534224286
 20
94.104312083
  0
VERTEX
  8
SURFACE
 62
7
  6
CONTINUOUS
 10
142.8372570563
 20
93.9317808531
  0
VERTEX
  8
SURFACE
 62
7
  6
CONTINUOUS
 10
142.9270209454
 20
93.7762140669
  0
VERTEX
  8
SURFACE
 62
7
  6
CONTINUOUS
 10
143.0203340727
 20
93.6427509206
  0
VERTEX
  8
SURFACE
 62
7
  6
CONTINUOUS
 10
143.1144718948
 20
93.5339891331
  0
VERTEX
  8
SURFACE
 62
7
  6
CONTINUOUS
 10
143.2089870607
 20
93.4480309935
  0
VERTEX
  8
SURFACE
 62
7
  6
CONTINUOUS
 10
143.3051232384
 20
93.3818812781
  0
VERTEX
  8
SURFACE
 62
7
  6
CONTINUOUS
 10
143.4036951663
 20
93.3340451902
  0
VERTEX
  8
SURFACE
 62
7
  6
CONTINUOUS
 10
143.4914851627
 20
93.3070168773
  0
SEQEND
  0
POLYLINE
  8
SURFACE
 62
7
  6
CONTINUOUS
 66
1
 70
0
  0
VERTEX
  8
SURFACE
 62
7
  6
CONTINUOUS
 10
141.9122985582
 20
125.6299000848
  0
VERTEX
  8
SURFACE
 62
7
  6
CONTINUOUS
 10
141.8904986203
 20
125.874004176
  0
VERTEX
  8
SURFACE
 62
7
  6
CONTINUOUS
 10
141.8595233418
 20
126.1674482724
  0
VERTEX
  8
SURFACE
 62
7
  6
CONTINUOUS
 10
141.823881138
 20
126.453988533
  0
VERTEX
  8
SURFACE
 62
7
  6
CONTINUOUS
 10
141.7836119157
 20
126.7327661424
  0
VERTEX
  8
SURFACE
 62
7
  6
CONTINUOUS
 10
141.7387526658
 20
127.0029163634
  0
VERTEX
  8
SURFACE
 62
7
  6
CONTINUOUS
 10
141.6893356347
 20
127.2635677417
  0
VERTEX
  8
SURFACE
 62
7
  6
CONTINUOUS
 10
141.6353842398
 20
127.5138473397
  0
VERTEX
  8
SURFACE
 62
7
  6
CONTINUOUS
 10
141.576912882
 20
127.7528619856
  0
VERTEX
  8
SURFACE
 62
7
  6
CONTINUOUS
 10
141.51392372
 20
127.9796952994
  0
VERTEX
  8
SURFACE
 62
7
  6
CONTINUOUS
 10
141.44638291
 20
128.1934622636
  0
VERTEX
  8
SURFACE
 62
7
  6
CONTINUOUS
 10
141.3740942334
 20
128.3935816679
  0
VERTEX
  8
SURFACE
 62
7
  6
CONTINUOUS
 10
141.2964686707
 20
128.5800321142
  0
VERTEX
  8
SURFACE
 62
7
  6
CONTINUOUS
 10
141.212634043
 20
128.752563344
  0
VERTEX
  8
SURFACE
 62
7
  6
CONTINUOUS
 10
141.1228701539
 20
128.9081301302
  0
VERTEX
  8
SURFACE
 62
7
  6
CONTINUOUS
 10
141.0295570266
 20
129.0415932765
  0
VERTEX
  8
SURFACE
 62
7
  6
CONTINUOUS
 10
140.9354192045
 20
129.150355064
  0
VERTEX
  8
SURFACE
 62
7
  6
CONTINUOUS
 10
140.8409040386
 20
129.2363132036
  0
VERTEX
  8
SURFACE
 62
7
  6
CONTINUOUS
 10
140.7447678609
 20
129.302462919
  0
VERTEX
  8
SURFACE
 62
7
  6
CONTINUOUS
 10
140.646195933
 20
129.3502990069
  0
VERTEX
  8
SURFACE
 62
7
  6
CONTINUOUS
 10
140.5584059366
 20
129.3773273198
  0
SEQEND
  0
POLYLINE
  8
SURFACE
 62
7
  6
CONTINUOUS
 66
1
 70
0
  0
VERTEX
  8
SURFACE
 62
7
  6
CONTINUOUS
 10
154.837592541
 20
97.0544441123
  0
VERTEX
  8
SURFACE
 62
7
  6
CONTINUOUS
 10
154.8593924789
 20
96.8103400212
  0
VERTEX
  8
SURFACE
 62
7
  6
CONTINUOUS
 10
154.8903677575
 20
96.5168959248
  0
VERTEX
  8
SURFACE
 62
7
  6
CONTINUOUS
 10
154.9260099613
 20
96.2303556641
  0
VERTEX
  8
SURFACE
 62
7
  6
CONTINUOUS
 10
154.9662791835
 20
95.9515780547
  0
VERTEX
  8
SURFACE
 62
7
  6
CONTINUOUS
 10
155.0111384335
 20
95.6814278337
  0
VERTEX
  8
SURFACE
 62
7
  6
CONTINUOUS
 10
155.0605554646
 20
95.4207764554
  0
VERTEX
  8
SURFACE
 62
7
  6
CONTINUOUS
 10
155.1145068595
 20
95.1704968574
  0
VERTEX
  8
SURFACE
 62
7
  6
CONTINUOUS
 10
155.1729782173
 20
94.9314822115
  0
VERTEX
  8
SURFACE
 62
7
  6
CONTINUOUS
 10
155.2359673793
 20
94.7046488977
  0
VERTEX
  8
SURFACE
 62
7
  6
CONTINUOUS
 10
155.3035081893
 20
94.4908819335
  0
VERTEX
  8
SURFACE
 62
7
  6
CONTINUOUS
 10
155.3757968659
 20
94.2907625292
  0
VERTEX
  8
SURFACE
 62
7
  6
CONTINUOUS
 10
155.4534224286
 20
94.104312083
  0
VERTEX
  8
SURFACE
 62
7
  6
CONTINUOUS
 10
155.5372570563
 20
93.9317808531
  0
VERTEX
  8
SURFACE
 62
7
  6
CONTINUOUS
 10
155.6270209454
 20
93.7762140669
  0
VERTEX
  8
SURFACE
 62
7
  6
CONTINUOUS
 10
155.7203340727
 20
93.6427509206
  0
VERTEX
  8
SURFACE
 62
7
  6
CONTINUOUS
 10
155.8144718948
 20
93.5339891331
  0
VERTEX
  8
SURFACE
 62
7
  6
CONTINUOUS
 10
155.9089870607
 20
93.4480309935
  0
VERTEX
  8
SURFACE
 62
7
  6
CONTINUOUS
 10
156.0051232384
 20
93.3818812781
  0
VERTEX
  8
SURFACE
 62
7
  6
CONTINUOUS
 10
156.1036951663
 20
93.3340451902
  0
VERTEX
  8
SURFACE
 62
7
  6
CONTINUOUS
 10
156.1914851627
 20
93.3070168773
  0
SEQEND
  0
POLYLINE
  8
SURFACE
 62
7
  6
CONTINUOUS
 66
1
 70
0
  0
VERTEX
  8
SURFACE
 62
7
  6
CONTINUOUS
 10
154.6122985582
 20
125.6299000848
  0
VERTEX
  8
SURFACE
 62
7
  6
CONTINUOUS
 10
154.5904986203
 20
125.874004176
  0
VERTEX
  8
SURFACE
 62
7
  6
CONTINUOUS
 10
154.5595233418
 20
126.1674482724
  0
VERTEX
  8
SURFACE
 62
7
  6
CONTINUOUS
 10
154.523881138
 20
126.453988533
  0
VERTEX
  8
SURFACE
 62
7
  6
CONTINUOUS
 10
154.4836119157
 20
126.7327661424
  0
VERTEX
  8
SURFACE
 62
7
  6
CONTINUOUS
 10
154.4387526658
 20
127.0029163634
  0
VERTEX
  8
SURFACE
 62
7
  6
CONTINUOUS
 10
154.3893356347
 20
127.2635677417
  0
VERTEX
  8
SURFACE
 62
7
  6
CONTINUOUS
 10
154.3353842398
 20
127.5138473397
  0
VERTEX
  8
SURFACE
 62
7
  6
CONTINUOUS
 10
154.276912882
 20
127.7528619856
  0
VERTEX
  8
SURFACE
 62
7
  6
CONTINUOUS
 10
154.21392372
 20
127.9796952994
  0
VERTEX
  8
SURFACE
 62
7
  6
CONTINUOUS
 10
154.14638291
 20
128.1934622636
  0
VERTEX
  8
SURFACE
 62
7
  6
CONTINUOUS
 10
154.0740942334
 20
128.3935816679
  0
VERTEX
  8
SURFACE
 62
7
  6
CONTINUOUS
 10
153.9964686707
 20
128.5800321142
  0
VERTEX
  8
SURFACE
 62
7
  6
CONTINUOUS
 10
153.912634043
 20
128.752563344
  0
VERTEX
  8
SURFACE
 62
7
  6
CONTINUOUS
 10
153.8228701539
 20
128.9081301302
  0
VERTEX
  8
SURFACE
 62
7
  6
CONTINUOUS
 10
153.7295570266
 20
129.0415932765
  0
VERTEX
  8
SURFACE
 62
7
  6
CONTINUOUS
 10
153.6354192045
 20
129.150355064
  0
VERTEX
  8
SURFACE
 62
7
  6
CONTINUOUS
 10
153.5409040386
 20
129.2363132036
  0
VERTEX
  8
SURFACE
 62
7
  6
CONTINUOUS
 10
153.4447678609
 20
129.302462919
  0
VERTEX
  8
SURFACE
 62
7
  6
CONTINUOUS
 10
153.346195933
 20
129.3502990069
  0
VERTEX
  8
SURFACE
 62
7
  6
CONTINUOUS
 10
153.2584059366
 20
129.3773273198
  0
SEQEND
  0
LINE
  8
SURFACE
 62
7
  6
CONTINUOUS
 10
142.1375925384
 20
97.0544428351
 11
142.1375718103
 21
97.0549509616
  0
LINE
  8
SURFACE
 62
7
  6
CONTINUOUS
 10
141.9122985608
 20
125.629901362
 11
141.9123192889
 21
125.6293932355
  0
LINE
  8
SURFACE
 62
7
  6
CONTINUOUS
 10
154.8375925384
 20
97.0544428351
 11
154.8375718103
 21
97.0549509616
  0
LINE
  8
SURFACE
 62
7
  6
CONTINUOUS
 10
154.6122985608
 20
125.629901362
 11
154.6123192889
 21
125.6293932355
  0
LINE
  8
SURFACE
 62
7
  6
CONTINUOUS
 10
135.5843192892
 20
97.0549854332
 11
135.5843192892
 21
101.6192600041
  0
LINE
  8
SURFACE
 62
7
  6
CONTINUOUS
 10
135.7655718101
 20
125.6293587639
 11
135.7655718101
 21
121.0650841931
  0
LINE
  8
SURFACE
 62
7
  6
CONTINUOUS
 10
141.9123192892
 20
125.6293587637
 11
141.9123192892
 21
121.0650884439
  0
LINE
  8
SURFACE
 62
7
  6
CONTINUOUS
 10
142.1375718101
 20
97.0549854334
 11
142.1375718101
 21
101.6192557533
  0
LINE
  8
SURFACE
 62
7
  6
CONTINUOUS
 10
148.2843192892
 20
97.0549854332
 11
148.2843192892
 21
101.6192600041
  0
LINE
  8
SURFACE
 62
7
  6
CONTINUOUS
 10
148.4655718101
 20
125.6293587639
 11
148.4655718101
 21
121.0650841931
  0
LINE
  8
SURFACE
 62
7
  6
CONTINUOUS
 10
154.6123192892
 20
125.6293587637
 11
154.6123192892
 21
121.0650884439
  0
LINE
  8
SURFACE
 62
7
  6
CONTINUOUS
 10
154.8375718101
 20
97.0549854334
 11
154.8375718101
 21
101.6192557533
  0
LINE
  8
SURFACE
 62
7
  6
CONTINUOUS
 10
135.5842985613
 20
97.05444284
 11
135.5843192889
 21
97.0549509614
  0
LINE
  8
SURFACE
 62
7
  6
CONTINUOUS
 10
148.465592538
 20
125.6299013571
 11
148.4655718103
 21
125.6293932357
  0
LINE
  8
SURFACE
 62
7
  6
CONTINUOUS
 10
148.2842985613
 20
97.05444284
 11
148.2843192889
 21
97.0549509614
  0
POLYLINE
  8
SURFACE
 62
7
  6
CONTINUOUS
 66
1
 70
0
  0
VERTEX
  8
SURFACE
 62
7
  6
CONTINUOUS
 10
135.5843192005
 20
101.6190471425
  0
VERTEX
  8
SURFACE
 62
7
  6
CONTINUOUS
 10
135.5854142978
 20
101.6374942983
  0
VERTEX
  8
SURFACE
 62
7
  6
CONTINUOUS
 10
135.5897612794
 20
101.6598688913
  0
VERTEX
  8
SURFACE
 62
7
  6
CONTINUOUS
 10
135.597314153
 20
101.6813236503
  0
VERTEX
  8
SURFACE
 62
7
  6
CONTINUOUS
 10
135.6078114716
 20
101.7012626356
  0
VERTEX
  8
SURFACE
 62
7
  6
CONTINUOUS
 10
135.6208490403
 20
101.7191730184
  0
VERTEX
  8
SURFACE
 62
7
  6
CONTINUOUS
 10
135.6359148258
 20
101.7346664937
  0
VERTEX
  8
SURFACE
 62
7
  6
CONTINUOUS
 10
135.6524524048
 20
101.7475139628
  0
VERTEX
  8
SURFACE
 62
7
  6
CONTINUOUS
 10
135.6698786754
 20
101.7576182866
  0
VERTEX
  8
SURFACE
 62
7
  6
CONTINUOUS
 10
135.6876194397
 20
101.7650126812
  0
VERTEX
  8
SURFACE
 62
7
  6
CONTINUOUS
 10
135.7050443677
 20
101.7698266667
  0
VERTEX
  8
SURFACE
 62
7
  6
CONTINUOUS
 10
135.7214170935
 20
101.772313662
  0
VERTEX
  8
SURFACE
 62
7
  6
CONTINUOUS
 10
135.7342632764
 20
101.7729150327
  0
SEQEND
  0
POLYLINE
  8
SURFACE
 62
7
  6
CONTINUOUS
 66
1
 70
0
  0
VERTEX
  8
SURFACE
 62
7
  6
CONTINUOUS
 10
148.4655718988
 20
121.0652970546
  0
VERTEX
  8
SURFACE
 62
7
  6
CONTINUOUS
 10
148.4644768015
 20
121.0468498989
  0
VERTEX
  8
SURFACE
 62
7
  6
CONTINUOUS
 10
148.4601298199
 20
121.0244753058
  0
VERTEX
  8
SURFACE
 62
7
  6
CONTINUOUS
 10
148.4525769463
 20
121.0030205468
  0
VERTEX
  8
SURFACE
 62
7
  6
CONTINUOUS
 10
148.4420796276
 20
120.9830815616
  0
VERTEX
  8
SURFACE
 62
7
  6
CONTINUOUS
 10
148.429042059
 20
120.9651711788
  0
VERTEX
  8
SURFACE
 62
7
  6
CONTINUOUS
 10
148.4139762735
 20
120.9496777034
  0
VERTEX
  8
SURFACE
 62
7
  6
CONTINUOUS
 10
148.3974386945
 20
120.9368302343
  0
VERTEX
  8
SURFACE
 62
7
  6
CONTINUOUS
 10
148.3800124239
 20
120.9267259105
  0
VERTEX
  8
SURFACE
 62
7
  6
CONTINUOUS
 10
148.3622716596
 20
120.919331516
  0
VERTEX
  8
SURFACE
 62
7
  6
CONTINUOUS
 10
148.3448467316
 20
120.9145175305
  0
VERTEX
  8
SURFACE
 62
7
  6
CONTINUOUS
 10
148.3284740058
 20
120.9120305351
  0
VERTEX
  8
SURFACE
 62
7
  6
CONTINUOUS
 10
148.3156278229
 20
120.9114291644
  0
SEQEND
  0
POLYLINE
  8
SURFACE
 62
7
  6
CONTINUOUS
 66
1
 70
0
  0
VERTEX
  8
SURFACE
 62
7
  6
CONTINUOUS
 10
148.2843192005
 20
101.6190471425
  0
VERTEX
  8
SURFACE
 62
7
  6
CONTINUOUS
 10
148.2854142978
 20
101.6374942983
  0
VERTEX
  8
SURFACE
 62
7
  6
CONTINUOUS
 10
148.2897612794
 20
101.6598688913
  0
VERTEX
  8
SURFACE
 62
7
  6
CONTINUOUS
 10
148.297314153
 20
101.6813236503
  0
VERTEX
  8
SURFACE
 62
7
  6
CONTINUOUS
 10
148.3078114716
 20
101.7012626356
  0
VERTEX
  8
SURFACE
 62
7
  6
CONTINUOUS
 10
148.3208490403
 20
101.7191730184
  0
VERTEX
  8
SURFACE
 62
7
  6
CONTINUOUS
 10
148.3359148258
 20
101.7346664937
  0
VERTEX
  8
SURFACE
 62
7
  6
CONTINUOUS
 10
148.3524524048
 20
101.7475139628
  0
VERTEX
  8
SURFACE
 62
7
  6
CONTINUOUS
 10
148.3698786754
 20
101.7576182866
  0
VERTEX
  8
SURFACE
 62
7
  6
CONTINUOUS
 10
148.3876194397
 20
101.7650126812
  0
VERTEX
  8
SURFACE
 62
7
  6
CONTINUOUS
 10
148.4050443677
 20
101.7698266667
  0
VERTEX
  8
SURFACE
 62
7
  6
CONTINUOUS
 10
148.4214170935
 20
101.772313662
  0
VERTEX
  8
SURFACE
 62
7
  6
CONTINUOUS
 10
148.4342632764
 20
101.7729150327
  0
SEQEND
  0
POLYLINE
  8
SURFACE
 62
7
  6
CONTINUOUS
 66
1
 70
0
  0
VERTEX
  8
SURFACE
 62
7
  6
CONTINUOUS
 10
167.2449459125
 20
129.1421769169
  0
VERTEX
  8
SURFACE
 62
7
  6
CONTINUOUS
 10
167.2429441899
 20
129.1737495385
  0
VERTEX
  8
SURFACE
 62
7
  6
CONTINUOUS
 10
167.236747849
 20
129.2056728249
  0
VERTEX
  8
SURFACE
 62
7
  6
CONTINUOUS
 10
167.2264580975
 20
129.2365268224
  0
VERTEX
  8
SURFACE
 62
7
  6
CONTINUOUS
 10
167.2122484752
 20
129.2657861542
  0
VERTEX
  8
SURFACE
 62
7
  6
CONTINUOUS
 10
167.1943593025
 20
129.2929541129
  0
VERTEX
  8
SURFACE
 62
7
  6
CONTINUOUS
 10
167.1730935938
 20
129.3175697655
  0
VERTEX
  8
SURFACE
 62
7
  6
CONTINUOUS
 10
167.1488118637
 20
129.3392156834
  0
VERTEX
  8
SURFACE
 62
7
  6
CONTINUOUS
 10
167.1219254501
 20
129.3575253365
  0
VERTEX
  8
SURFACE
 62
7
  6
CONTINUOUS
 10
167.0928895299
 20
129.3721889087
  0
VERTEX
  8
SURFACE
 62
7
  6
CONTINUOUS
 10
167.0621956172
 20
129.3829582725
  0
VERTEX
  8
SURFACE
 62
7
  6
CONTINUOUS
 10
167.0303632688
 20
129.3896511751
  0
VERTEX
  8
SURFACE
 62
7
  6
CONTINUOUS
 10
166.994950149
 20
129.3921720981
  0
SEQEND
  0
LINE
  8
SURFACE
 62
7
  6
CONTINUOUS
 10
160.9843192892
 20
97.0549854332
 11
160.9843192892
 21
101.6192600041
  0
LINE
  8
SURFACE
 62
7
  6
CONTINUOUS
 10
161.1655718101
 20
125.6293587639
 11
161.1655718101
 21
121.0650841931
  0
LINE
  8
SURFACE
 62
7
  6
CONTINUOUS
 10
167.2449455496
 20
129.1421745535
 11
167.2449455496
 21
102.0229383947
  0
LINE
  8
0
 62
7
  6
CONTINUOUS
 10
167.3949455496
 20
115.9421720986
 11
167.3949455496
 21
115.2021724037
  0
LINE
  8
0
 62
7
  6
CONTINUOUS
 10
167.3949455496
 20
115.0421720986
 11
167.3949455496
 21
114.3021724037
  0
LINE
  8
0
 62
7
  6
CONTINUOUS
 10
167.3949455496
 20
113.1821720986
 11
167.3949455496
 21
112.442171946
  0
LINE
  8
0
 62
7
  6
CONTINUOUS
 10
167.3949455496
 20
112.2821720986
 11
167.3949455496
 21
111.542171946
  0
LINE
  8
0
 62
7
  6
CONTINUOUS
 10
167.3949455496
 20
111.3821720986
 11
167.3949455496
 21
110.4221720986
  0
LINE
  8
0
 62
7
  6
CONTINUOUS
 10
167.3949455496
 20
110.2621722511
 11
167.3949455496
 21
109.9821721749
  0
LINE
  8
0
 62
7
  6
CONTINUOUS
 10
167.3949455496
 20
109.8221720986
 11
167.3949455496
 21
109.0821721749
  0
LINE
  8
0
 62
7
  6
CONTINUOUS
 10
167.3949455496
 20
107.9621720986
 11
167.3949455496
 21
107.8621721367
  0
LINE
  8
0
 62
7
  6
CONTINUOUS
 10
167.3949455496
 20
107.7021720604
 11
167.3949455496
 21
107.1421720795
  0
LINE
  8
0
 62
7
  6
CONTINUOUS
 10
167.3949455496
 20
106.9821721176
 11
167.3949455496
 21
106.3421720986
  0
LINE
  8
SURFACE
 62
7
  6
CONTINUOUS
 10
161.165592538
 20
125.6299013571
 11
161.1655718103
 21
125.6293932357
  0
LINE
  8
SURFACE
 62
7
  6
CONTINUOUS
 10
160.9842985613
 20
97.05444284
 11
160.9843192889
 21
97.0549509614
  0
POLYLINE
  8
SURFACE
 62
7
  6
CONTINUOUS
 66
1
 70
0
  0
VERTEX
  8
SURFACE
 62
7
  6
CONTINUOUS
 10
161.1655718988
 20
121.0652970546
  0
VERTEX
  8
SURFACE
 62
7
  6
CONTINUOUS
 10
161.1644768015
 20
121.0468498989
  0
VERTEX
  8
SURFACE
 62
7
  6
CONTINUOUS
 10
161.1601298199
 20
121.0244753058
  0
VERTEX
  8
SURFACE
 62
7
  6
CONTINUOUS
 10
161.1525769463
 20
121.0030205468
  0
VERTEX
  8
SURFACE
 62
7
  6
CONTINUOUS
 10
161.1420796276
 20
120.9830815616
  0
VERTEX
  8
SURFACE
 62
7
  6
CONTINUOUS
 10
161.129042059
 20
120.9651711788
  0
VERTEX
  8
SURFACE
 62
7
  6
CONTINUOUS
 10
161.1139762735
 20
120.9496777034
  0
VERTEX
  8
SURFACE
 62
7
  6
CONTINUOUS
 10
161.0974386945
 20
120.9368302343
  0
VERTEX
  8
SURFACE
 62
7
  6
CONTINUOUS
 10
161.0800124239
 20
120.9267259105
  0
VERTEX
  8
SURFACE
 62
7
  6
CONTINUOUS
 10
161.0622716596
 20
120.919331516
  0
VERTEX
  8
SURFACE
 62
7
  6
CONTINUOUS
 10
161.0448467316
 20
120.9145175305
  0
VERTEX
  8
SURFACE
 62
7
  6
CONTINUOUS
 10
161.0284740058
 20
120.9120305351
  0
VERTEX
  8
SURFACE
 62
7
  6
CONTINUOUS
 10
161.0156278229
 20
120.9114291644
  0
SEQEND
  0
POLYLINE
  8
SURFACE
 62
7
  6
CONTINUOUS
 66
1
 70
0
  0
VERTEX
  8
SURFACE
 62
7
  6
CONTINUOUS
 10
160.9843192005
 20
101.6190471425
  0
VERTEX
  8
SURFACE
 62
7
  6
CONTINUOUS
 10
160.9854142978
 20
101.6374942983
  0
VERTEX
  8
SURFACE
 62
7
  6
CONTINUOUS
 10
160.9897612794
 20
101.6598688913
  0
VERTEX
  8
SURFACE
 62
7
  6
CONTINUOUS
 10
160.997314153
 20
101.6813236503
  0
VERTEX
  8
SURFACE
 62
7
  6
CONTINUOUS
 10
161.0078114716
 20
101.7012626356
  0
VERTEX
  8
SURFACE
 62
7
  6
CONTINUOUS
 10
161.0208490403
 20
101.7191730184
  0
VERTEX
  8
SURFACE
 62
7
  6
CONTINUOUS
 10
161.0359148258
 20
101.7346664937
  0
VERTEX
  8
SURFACE
 62
7
  6
CONTINUOUS
 10
161.0524524048
 20
101.7475139628
  0
VERTEX
  8
SURFACE
 62
7
  6
CONTINUOUS
 10
161.0698786754
 20
101.7576182866
  0
VERTEX
  8
SURFACE
 62
7
  6
CONTINUOUS
 10
161.0876194397
 20
101.7650126812
  0
VERTEX
  8
SURFACE
 62
7
  6
CONTINUOUS
 10
161.1050443677
 20
101.7698266667
  0
VERTEX
  8
SURFACE
 62
7
  6
CONTINUOUS
 10
161.1214170935
 20
101.772313662
  0
VERTEX
  8
SURFACE
 62
7
  6
CONTINUOUS
 10
161.1342632764
 20
101.7729150327
  0
SEQEND
  0
POLYLINE
  8
SURFACE
 62
7
  6
CONTINUOUS
 66
1
 70
0
  0
VERTEX
  8
SURFACE
 62
7
  6
CONTINUOUS
 10
175.5209099015
 20
97.025849111
  0
VERTEX
  8
SURFACE
 62
7
  6
CONTINUOUS
 10
175.5254292592
 20
97.0256749655
  0
VERTEX
  8
SURFACE
 62
7
  6
CONTINUOUS
 10
175.5389058823
 20
97.0250754948
  0
VERTEX
  8
SURFACE
 62
7
  6
CONTINUOUS
 10
175.5611531238
 20
97.0239329355
  0
VERTEX
  8
SURFACE
 62
7
  6
CONTINUOUS
 10
175.5919009004
 20
97.0221264977
  0
VERTEX
  8
SURFACE
 62
7
  6
CONTINUOUS
 10
175.6307994611
 20
97.0195322565
  0
VERTEX
  8
SURFACE
 62
7
  6
CONTINUOUS
 10
175.6774237879
 20
97.0160231032
  0
VERTEX
  8
SURFACE
 62
7
  6
CONTINUOUS
 10
175.7312786128
 20
97.0114687775
  0
VERTEX
  8
SURFACE
 62
7
  6
CONTINUOUS
 10
175.7918038748
 20
97.0057359841
  0
VERTEX
  8
SURFACE
 62
7
  6
CONTINUOUS
 10
175.8583806953
 20
96.9986886927
  0
VERTEX
  8
SURFACE
 62
7
  6
CONTINUOUS
 10
175.9303378742
 20
96.9901887038
  0
VERTEX
  8
SURFACE
 62
7
  6
CONTINUOUS
 10
176.0069589391
 20
96.9800964407
  0
VERTEX
  8
SURFACE
 62
7
  6
CONTINUOUS
 10
176.0874898385
 20
96.9682721065
  0
VERTEX
  8
SURFACE
 62
7
  6
CONTINUOUS
 10
176.1711473878
 20
96.9545772011
  0
VERTEX
  8
SURFACE
 62
7
  6
CONTINUOUS
 10
176.2571286909
 20
96.9388762889
  0
VERTEX
  8
SURFACE
 62
7
  6
CONTINUOUS
 10
176.3446212784
 20
96.9210390309
  0
VERTEX
  8
SURFACE
 62
7
  6
CONTINUOUS
 10
176.4328142185
 20
96.9009422018
  0
VERTEX
  8
SURFACE
 62
7
  6
CONTINUOUS
 10
176.5209099015
 20
96.8784715846
  0
SEQEND
  0
LINE
  8
DEFAULT_1
 62
2
  6
CENTER
 10
185.0209099015
 20
98.6421720986
 11
182.6210099015
 21
98.6421720986
  0
LINE
  8
0
 62
2
  6
CONTINUOUS
 10
181.5009099015
 20
98.6421720986
 11
179.7409099015
 21
98.6421720986
  0
LINE
  8
DEFAULT_1
 62
2
  6
CENTER
 10
176.2209099015
 20
98.6421720986
 11
178.6208099015
 21
98.6421720986
  0
LINE
  8
SURFACE
 62
7
  6
CONTINUOUS
 10
185.7209099015
 20
97.025849111
 11
185.4709099015
 21
97.064991069
  0
LINE
  8
SURFACE
 62
7
  6
CONTINUOUS
 10
175.5209099015
 20
125.6583098032
 11
175.5209099015
 21
122.6921720986
  0
LINE
  8
SURFACE
 62
7
  6
CONTINUOUS
 10
175.5209099015
 20
99.9921720986
 11
175.5209099015
 21
97.025849111
  0
LINE
  8
SURFACE
 62
7
  6
CONTINUOUS
 10
175.7209099015
 20
111.6156295706
 11
175.7209099015
 21
111.0687146266
  0
POLYLINE
  8
SURFACE
 62
7
  6
CONTINUOUS
 66
1
 70
0
  0
VERTEX
  8
SURFACE
 62
7
  6
CONTINUOUS
 10
176.7209099015
 20
111.6156295706
  0
VERTEX
  8
SURFACE
 62
7
  6
CONTINUOUS
 10
176.6961032094
 20
111.7045219645
  0
VERTEX
  8
SURFACE
 62
7
  6
CONTINUOUS
 10
176.6710288876
 20
111.7924994089
  0
VERTEX
  8
SURFACE
 62
7
  6
CONTINUOUS
 10
176.6458948627
 20
111.8788153385
  0
VERTEX
  8
SURFACE
 62
7
  6
CONTINUOUS
 10
176.6209256307
 20
111.9627406593
  0
VERTEX
  8
SURFACE
 62
7
  6
CONTINUOUS
 10
176.5963599162
 20
112.0435701013
  0
VERTEX
  8
SURFACE
 62
7
  6
CONTINUOUS
 10
176.572447506
 20
112.120628303
  0
VERTEX
  8
SURFACE
 62
7
  6
CONTINUOUS
 10
176.5494351112
 20
112.1932720919
  0
VERTEX
  8
SURFACE
 62
7
  6
CONTINUOUS
 10
176.5275478151
 20
112.2608908045
  0
VERTEX
  8
SURFACE
 62
7
  6
CONTINUOUS
 10
176.5069943944
 20
112.322913686
  0
VERTEX
  8
SURFACE
 62
7
  6
CONTINUOUS
 10
176.4879753801
 20
112.3788166591
  0
VERTEX
  8
SURFACE
 62
7
  6
CONTINUOUS
 10
176.4706841745
 20
112.4281284272
  0
VERTEX
  8
SURFACE
 62
7
  6
CONTINUOUS
 10
176.455298829
 20
112.470434027
  0
VERTEX
  8
SURFACE
 62
7
  6
CONTINUOUS
 10
176.4419799437
 20
112.5053777674
  0
VERTEX
  8
SURFACE
 62
7
  6
CONTINUOUS
 10
176.4308689288
 20
112.5326669675
  0
VERTEX
  8
SURFACE
 62
7
  6
CONTINUOUS
 10
176.4220871147
 20
112.5520752009
  0
VERTEX
  8
SURFACE
 62
7
  6
CONTINUOUS
 10
176.4157352027
 20
112.5634443579
  0
VERTEX
  8
SURFACE
 62
7
  6
CONTINUOUS
 10
176.4118929072
 20
112.5666860869
  0
SEQEND
  0
LINE
  8
SURFACE
 62
7
  6
CONTINUOUS
 10
181.0299268959
 20
114.0671762877
 11
176.4118929072
 21
112.5666860869
  0
LINE
  8
SURFACE
 62
7
  6
CONTINUOUS
 10
176.4118929072
 20
110.1176581103
 11
181.0299268959
 21
108.6171679095
  0
LINE
  8
DEFAULT_1
 62
2
  6
CENTER
 10
180.6209099015
 20
128.4421720986
 11
180.6209099015
 21
126.0422720986
  0
LINE
  8
0
 62
2
  6
CONTINUOUS
 10
180.6209099015
 20
124.9221720986
 11
180.6209099015
 21
123.1621720986
  0
LINE
  8
DEFAULT_1
 62
2
  6
CENTER
 10
180.6209099015
 20
103.0421720986
 11
180.6209099015
 21
100.6422720986
  0
LINE
  8
0
 62
2
  6
CONTINUOUS
 10
180.6209099015
 20
99.5221720986
 11
180.6209099015
 21
97.7621720986
  0
LINE
  8
DEFAULT_1
 62
2
  6
CENTER
 10
180.6209099015
 20
94.2421720986
 11
180.6209099015
 21
96.6420720986
  0
LINE
  8
DEFAULT_1
 62
2
  6
CENTER
 10
180.6209099015
 20
119.6421720986
 11
180.6209099015
 21
122.0420720986
  0
LINE
  8
SURFACE
 62
7
  6
CONTINUOUS
 10
182.6973450841
 20
118.3578387676
 11
181.8146021145
 21
116.4647903603
  0
LINE
  8
SURFACE
 62
2
  6
CENTER
 10
173.5178450822
 20
111.3421720986
 11
187.9664947032
 21
111.3421720986
  0
POLYLINE
  8
SURFACE
 62
7
  6
CONTINUOUS
 66
1
 70
0
  0
VERTEX
  8
SURFACE
 62
7
  6
CONTINUOUS
 10
176.7209099015
 20
111.0687146266
  0
VERTEX
  8
SURFACE
 62
7
  6
CONTINUOUS
 10
176.6287025216
 20
111.0725913207
  0
VERTEX
  8
SURFACE
 62
7
  6
CONTINUOUS
 10
176.5372826083
 20
111.0759307491
  0
VERTEX
  8
SURFACE
 62
7
  6
CONTINUOUS
 10
176.4474244401
 20
111.0786999601
  0
VERTEX
  8
SURFACE
 62
7
  6
CONTINUOUS
 10
176.3598907999
 20
111.0808871596
  0
VERTEX
  8
SURFACE
 62
7
  6
CONTINUOUS
 10
176.2754262091
 20
111.082501448
  0
VERTEX
  8
SURFACE
 62
7
  6
CONTINUOUS
 10
176.1947501631
 20
111.0835716883
  0
VERTEX
  8
SURFACE
 62
7
  6
CONTINUOUS
 10
176.1185505932
 20
111.0841337655
  0
VERTEX
  8
SURFACE
 62
7
  6
CONTINUOUS
 10
176.0474778295
 20
111.0842130413
  0
VERTEX
  8
SURFACE
 62
7
  6
CONTINUOUS
 10
175.9821392076
 20
111.0838317011
  0
VERTEX
  8
SURFACE
 62
7
  6
CONTINUOUS
 10
175.9230951221
 20
111.0830185123
  0
VERTEX
  8
SURFACE
 62
7
  6
CONTINUOUS
 10
175.8708535674
 20
111.0818117729
  0
VERTEX
  8
SURFACE
 62
7
  6
CONTINUOUS
 10
175.8258642177
 20
111.0802525891
  0
VERTEX
  8
SURFACE
 62
7
  6
CONTINUOUS
 10
175.7885149838
 20
111.0783837861
  0
VERTEX
  8
SURFACE
 62
7
  6
CONTINUOUS
 10
175.7591279198
 20
111.0762494095
  0
VERTEX
  8
SURFACE
 62
7
  6
CONTINUOUS
 10
175.7379558632
 20
111.073894882
  0
VERTEX
  8
SURFACE
 62
7
  6
CONTINUOUS
 10
175.7251803036
 20
111.0713671174
  0
VERTEX
  8
SURFACE
 62
7
  6
CONTINUOUS
 10
175.7209099015
 20
111.0687146266
  0
SEQEND
  0
LINE
  8
SURFACE
 62
7
  6
CONTINUOUS
 10
181.7209099015
 20
116.0421720986
 11
181.7209099015
 21
115.018232804
  0
LINE
  8
SURFACE
 62
7
  6
CONTINUOUS
 10
181.7209099015
 20
107.6661113932
 11
181.7209099015
 21
106.9119252494
  0
LINE
  8
SURFACE
 62
7
  6
CONTINUOUS
 10
185.7209099015
 20
97.025849112
 11
185.7209099015
 21
125.6584950861
  0
LINE
  8
SURFACE
 62
7
  6
CONTINUOUS
 10
181.3493521842
 20
106.1340690305
 11
176.6355830535
 21
102.3257407554
  0
POLYLINE
  8
SURFACE
 62
7
  6
CONTINUOUS
 66
1
 70
0
  0
VERTEX
  8
SURFACE
 62
7
  6
CONTINUOUS
 10
182.1794489461
 20
116.3066372725
  0
VERTEX
  8
SURFACE
 62
7
  6
CONTINUOUS
 10
182.1150639512
 20
116.3367216492
  0
VERTEX
  8
SURFACE
 62
7
  6
CONTINUOUS
 10
182.0557449532
 20
116.3640857579
  0
VERTEX
  8
SURFACE
 62
7
  6
CONTINUOUS
 10
182.0020069897
 20
116.3885118622
  0
VERTEX
  8
SURFACE
 62
7
  6
CONTINUOUS
 10
181.9543198323
 20
116.4098108047
  0
VERTEX
  8
SURFACE
 62
7
  6
CONTINUOUS
 10
181.9131013378
 20
116.4278198162
  0
VERTEX
  8
SURFACE
 62
7
  6
CONTINUOUS
 10
181.8787138117
 20
116.4424032891
  0
VERTEX
  8
SURFACE
 62
7
  6
CONTINUOUS
 10
181.851460524
 20
116.4534540119
  0
VERTEX
  8
SURFACE
 62
7
  6
CONTINUOUS
 10
181.8315830209
 20
116.4608945847
  0
VERTEX
  8
SURFACE
 62
7
  6
CONTINUOUS
 10
181.8192592277
 20
116.4646784007
  0
VERTEX
  8
SURFACE
 62
7
  6
CONTINUOUS
 10
181.8146021145
 20
116.4647903603
  0
SEQEND
  0
LINE
  8
SURFACE
 62
7
  6
CONTINUOUS
 10
182.3211504419
 20
116.2392932176
 11
182.1794489461
 21
116.3066372725
  0
LINE
  8
SURFACE
 62
7
  6
CONTINUOUS
 10
182.4759378299
 20
116.1641614547
 11
182.3211504419
 21
116.2392932176
  0
POLYLINE
  8
SURFACE
 62
7
  6
CONTINUOUS
 66
1
 70
0
  0
VERTEX
  8
SURFACE
 62
7
  6
CONTINUOUS
 10
182.7209099015
 20
116.0421720986
  0
VERTEX
  8
SURFACE
 62
7
  6
CONTINUOUS
 10
182.6384671174
 20
116.0836271024
  0
VERTEX
  8
SURFACE
 62
7
  6
CONTINUOUS
 10
182.4759378299
 20
116.1641614547
  0
SEQEND
  0
LINE
  8
SURFACE
 62
7
  6
CONTINUOUS
 10
176.6355830535
 20
120.3586034418
 11
181.3493521842
 21
116.5502751666
  0
POLYLINE
  8
SURFACE
 62
7
  6
CONTINUOUS
 66
1
 70
0
  0
VERTEX
  8
SURFACE
 62
7
  6
CONTINUOUS
 10
175.5209099015
 20
125.6583098032
  0
VERTEX
  8
SURFACE
 62
7
  6
CONTINUOUS
 10
175.5274884602
 20
125.6543453429
  0
VERTEX
  8
SURFACE
 62
7
  6
CONTINUOUS
 10
175.5471149364
 20
125.6491352315
  0
VERTEX
  8
SURFACE
 62
7
  6
CONTINUOUS
 10
175.5795105068
 20
125.6426956888
  0
VERTEX
  8
SURFACE
 62
7
  6
CONTINUOUS
 10
175.6242191369
 20
125.6351115874
  0
VERTEX
  8
SURFACE
 62
7
  6
CONTINUOUS
 10
175.6806021603
 20
125.626579502
  0
VERTEX
  8
SURFACE
 62
7
  6
CONTINUOUS
 10
175.7478540491
 20
125.6173271708
  0
VERTEX
  8
SURFACE
 62
7
  6
CONTINUOUS
 10
175.8250489415
 20
125.6075257271
  0
VERTEX
  8
SURFACE
 62
7
  6
CONTINUOUS
 10
175.9111574236
 20
125.5973336992
  0
VERTEX
  8
SURFACE
 62
7
  6
CONTINUOUS
 10
176.005064589
 20
125.5869218954
  0
VERTEX
  8
SURFACE
 62
7
  6
CONTINUOUS
 10
176.1055749249
 20
125.5764870604
  0
VERTEX
  8
SURFACE
 62
7
  6
CONTINUOUS
 10
176.2114178931
 20
125.5662405357
  0
VERTEX
  8
SURFACE
 62
7
  6
CONTINUOUS
 10
176.3212659608
 20
125.5564052094
  0
VERTEX
  8
SURFACE
 62
7
  6
CONTINUOUS
 10
176.4337541588
 20
125.5472099167
  0
SEQEND
  0
LINE
  8
DEFAULT_1
 62
2
  6
CENTER
 10
185.0209099015
 20
124.0421720986
 11
182.6210099015
 21
124.0421720986
  0
LINE
  8
0
 62
2
  6
CONTINUOUS
 10
181.5009099015
 20
124.0421720986
 11
179.7409099015
 21
124.0421720986
  0
LINE
  8
DEFAULT_1
 62
2
  6
CENTER
 10
176.2209099015
 20
124.0421720986
 11
178.6208099015
 21
124.0421720986
  0
POLYLINE
  8
SURFACE
 62
7
  6
CONTINUOUS
 66
1
 70
0
  0
VERTEX
  8
SURFACE
 62
7
  6
CONTINUOUS
 10
185.7208922585
 20
125.6585507497
  0
VERTEX
  8
SURFACE
 62
7
  6
CONTINUOUS
 10
185.7169806251
 20
125.6595655662
  0
VERTEX
  8
SURFACE
 62
7
  6
CONTINUOUS
 10
185.7063477874
 20
125.6594934598
  0
VERTEX
  8
SURFACE
 62
7
  6
CONTINUOUS
 10
185.6893058676
 20
125.658339847
  0
VERTEX
  8
SURFACE
 62
7
  6
CONTINUOUS
 10
185.6663434565
 20
125.6561378281
  0
VERTEX
  8
SURFACE
 62
7
  6
CONTINUOUS
 10
185.6381135523
 20
125.6529478849
  0
VERTEX
  8
SURFACE
 62
7
  6
CONTINUOUS
 10
185.6054130309
 20
125.64885644
  0
VERTEX
  8
SURFACE
 62
7
  6
CONTINUOUS
 10
185.5691562529
 20
125.6439734342
  0
VERTEX
  8
SURFACE
 62
7
  6
CONTINUOUS
 10
185.5303445014
 20
125.6384290846
  0
VERTEX
  8
SURFACE
 62
7
  6
CONTINUOUS
 10
185.4900335294
 20
125.6323700518
  0
VERTEX
  8
SURFACE
 62
7
  6
CONTINUOUS
 10
185.449303062
 20
125.6259555367
  0
VERTEX
  8
SURFACE
 62
7
  6
CONTINUOUS
 10
185.4092270646
 20
125.6193531281
  0
SEQEND
  0
ARC
  8
SURFACE
 62
7
  6
CONTINUOUS
 10
43.1272767237
 20
193.8856073124
 40
1.0
 50
185.0
 51
270.0
  0
ARC
  8
SURFACE
 62
7
  6
CONTINUOUS
 10
30.4272767237
 20
193.8856073124
 40
1.0
 50
185.0
 51
270.0
  0
ARC
  8
SURFACE
 62
7
  6
CONTINUOUS
 10
25.0226143756
 20
193.8856073124
 40
1.0
 50
270.0
 51
306.7766769193
  0
ARC
  8
SURFACE
 62
7
  6
CONTINUOUS
 10
16.2049455496
 20
193.8856073124
 40
1.0
 50
180.0
 51
270.0
  0
ARC
  8
SURFACE
 62
7
  6
CONTINUOUS
 10
37.7226143756
 20
193.8856073124
 40
1.0
 50
270.0
 51
306.7516920739
  0
ARC
  8
SURFACE
 62
7
  6
CONTINUOUS
 10
50.4226143756
 20
193.8856073124
 40
1.0
 50
270.0
 51
306.7516920739
  0
ARC
  8
SURFACE
 62
7
  6
CONTINUOUS
 10
44.0946143756
 20
193.8856073124
 40
1.0
 50
270.0
 51
355.0
  0
ARC
  8
SURFACE
 62
7
  6
CONTINUOUS
 10
31.3946143756
 20
193.8856073124
 40
1.0
 50
270.0
 51
355.0
  0
ARC
  8
SURFACE
 62
7
  6
CONTINUOUS
 10
18.6946143756
 20
193.8856073124
 40
1.0
 50
270.0
 51
355.0
  0
ARC
  8
SURFACE
 62
7
  6
CONTINUOUS
 10
24.0552767232
 20
193.8856073176
 40
0.9999999974
 50
233.2483081255
 51
270.0000000261
  0
ARC
  8
SURFACE
 62
7
  6
CONTINUOUS
 10
36.7552767232
 20
193.8856073176
 40
0.9999999974
 50
233.2483081255
 51
270.0000000261
  0
ARC
  8
SURFACE
 62
7
  6
CONTINUOUS
 10
49.4552767232
 20
193.8856073176
 40
0.9999999974
 50
233.2483081255
 51
270.0000000261
  0
ARC
  8
SURFACE
 62
7
  6
CONTINUOUS
 10
51.4975747199
 20
197.4794746877
 40
3.0
 50
4.9999980366
 51
14.2841762942
  0
ARC
  8
SURFACE
 62
7
  6
CONTINUOUS
 10
48.4243163793
 20
197.4794746877
 40
3.0
 50
165.7155686146
 51
175.0000019671
  0
ARC
  8
SURFACE
 62
7
  6
CONTINUOUS
 10
38.7975747199
 20
197.4794746877
 40
3.0
 50
4.9999980366
 51
14.2841762942
  0
ARC
  8
SURFACE
 62
7
  6
CONTINUOUS
 10
35.7243163793
 20
197.4794746877
 40
3.0
 50
165.7155686146
 51
175.0000019671
  0
ARC
  8
SURFACE
 62
7
  6
CONTINUOUS
 10
26.0975747199
 20
197.4794746877
 40
3.0
 50
4.9999980366
 51
14.2841762942
  0
ARC
  8
SURFACE
 62
7
  6
CONTINUOUS
 10
23.0243163793
 20
197.4794746877
 40
3.0
 50
165.7155686146
 51
175.0000019671
  0
ARC
  8
SURFACE
 62
7
  6
CONTINUOUS
 10
81.2272767237
 20
193.8856073124
 40
1.0
 50
185.0
 51
270.0
  0
ARC
  8
SURFACE
 62
7
  6
CONTINUOUS
 10
68.5272767237
 20
193.8856073124
 40
1.0
 50
185.0
 51
270.0
  0
ARC
  8
SURFACE
 62
7
  6
CONTINUOUS
 10
55.8272767237
 20
193.8856073124
 40
1.0
 50
185.0
 51
270.0
  0
ARC
  8
SURFACE
 62
7
  6
CONTINUOUS
 10
63.1226143756
 20
193.8856073124
 40
1.0
 50
270.0
 51
306.7516920739
  0
ARC
  8
SURFACE
 62
7
  6
CONTINUOUS
 10
75.8226143756
 20
193.8856073124
 40
1.0
 50
270.0
 51
306.7516920739
  0
ARC
  8
SURFACE
 62
7
  6
CONTINUOUS
 10
88.5226143756
 20
193.8856073124
 40
1.0
 50
270.0
 51
306.7516920739
  0
ARC
  8
SURFACE
 62
7
  6
CONTINUOUS
 10
82.1946143756
 20
193.8856073124
 40
1.0
 50
270.0
 51
355.0
  0
ARC
  8
SURFACE
 62
7
  6
CONTINUOUS
 10
69.4946143756
 20
193.8856073124
 40
1.0
 50
270.0
 51
355.0
  0
ARC
  8
SURFACE
 62
7
  6
CONTINUOUS
 10
56.7946143756
 20
193.8856073124
 40
1.0
 50
270.0
 51
355.0
  0
ARC
  8
SURFACE
 62
7
  6
CONTINUOUS
 10
62.1552767232
 20
193.8856073176
 40
0.9999999974
 50
233.2483081255
 51
270.0000000261
  0
ARC
  8
SURFACE
 62
7
  6
CONTINUOUS
 10
74.8552767232
 20
193.8856073176
 40
0.9999999974
 50
233.2483081255
 51
270.0000000261
  0
ARC
  8
SURFACE
 62
7
  6
CONTINUOUS
 10
87.5552767232
 20
193.8856073176
 40
0.9999999974
 50
233.2483081255
 51
270.0000000261
  0
ARC
  8
SURFACE
 62
7
  6
CONTINUOUS
 10
89.5975747199
 20
197.4794746877
 40
3.0
 50
4.9999980366
 51
14.2841762942
  0
ARC
  8
SURFACE
 62
7
  6
CONTINUOUS
 10
86.5243163793
 20
197.4794746877
 40
3.0
 50
165.7155686146
 51
175.0000019671
  0
ARC
  8
SURFACE
 62
7
  6
CONTINUOUS
 10
76.8975747199
 20
197.4794746877
 40
3.0
 50
4.9999980366
 51
14.2841762942
  0
ARC
  8
SURFACE
 62
7
  6
CONTINUOUS
 10
73.8243163793
 20
197.4794746877
 40
3.0
 50
165.7155686146
 51
175.0000019671
  0
ARC
  8
SURFACE
 62
7
  6
CONTINUOUS
 10
64.1975747199
 20
197.4794746877
 40
3.0
 50
4.9999980366
 51
14.2841762942
  0
ARC
  8
SURFACE
 62
7
  6
CONTINUOUS
 10
61.1243163793
 20
197.4794746877
 40
3.0
 50
165.7155686146
 51
175.0000019671
  0
ARC
  8
SURFACE
 62
7
  6
CONTINUOUS
 10
84.5343192892
 20
202.8356073124
 40
0.25
 50
345.7158258888
 51
90.0
  0
ARC
  8
SURFACE
 62
7
  6
CONTINUOUS
 10
78.8875718101
 20
202.8356073124
 40
0.25
 50
90.0
 51
194.2841741112
  0
ARC
  8
SURFACE
 62
7
  6
CONTINUOUS
 10
71.8343192892
 20
202.8356073124
 40
0.25
 50
345.7158258888
 51
90.0
  0
ARC
  8
SURFACE
 62
7
  6
CONTINUOUS
 10
66.1875718101
 20
202.8356073124
 40
0.25
 50
90.0
 51
194.2841741112
  0
ARC
  8
SURFACE
 62
7
  6
CONTINUOUS
 10
59.1343192892
 20
202.8356073124
 40
0.25
 50
345.7158258888
 51
90.0
  0
ARC
  8
SURFACE
 62
7
  6
CONTINUOUS
 10
53.4875718101
 20
202.8356073124
 40
0.25
 50
90.0
 51
194.2841741112
  0
ARC
  8
SURFACE
 62
7
  6
CONTINUOUS
 10
46.4343192892
 20
202.8356073124
 40
0.25
 50
345.7158258888
 51
90.0
  0
ARC
  8
SURFACE
 62
7
  6
CONTINUOUS
 10
40.7875718101
 20
202.8356073124
 40
0.25
 50
90.0
 51
194.2841741112
  0
ARC
  8
SURFACE
 62
7
  6
CONTINUOUS
 10
33.7343192892
 20
202.8356073124
 40
0.25
 50
345.7158258888
 51
90.0
  0
ARC
  8
SURFACE
 62
7
  6
CONTINUOUS
 10
28.0875718101
 20
202.8356073124
 40
0.25
 50
90.0
 51
194.2841741112
  0
ARC
  8
SURFACE
 62
7
  6
CONTINUOUS
 10
15.4549455496
 20
202.8356073124
 40
0.25
 50
90.0
 51
180.0
  0
ARC
  8
SURFACE
 62
7
  6
CONTINUOUS
 10
21.0343192892
 20
202.8356073124
 40
0.25
 50
345.7158258888
 51
90.0
  0
ARC
  8
SURFACE
 62
7
  6
CONTINUOUS
 10
119.3272767237
 20
193.8856073124
 40
1.0
 50
185.0
 51
270.0
  0
ARC
  8
SURFACE
 62
7
  6
CONTINUOUS
 10
106.6272767237
 20
193.8856073124
 40
1.0
 50
185.0
 51
270.0
  0
ARC
  8
SURFACE
 62
7
  6
CONTINUOUS
 10
93.9272767237
 20
193.8856073124
 40
1.0
 50
185.0
 51
270.0
  0
ARC
  8
SURFACE
 62
7
  6
CONTINUOUS
 10
101.2226143756
 20
193.8856073124
 40
1.0
 50
270.0
 51
306.7516920739
  0
ARC
  8
SURFACE
 62
7
  6
CONTINUOUS
 10
113.9226143756
 20
193.8856073124
 40
1.0
 50
270.0
 51
306.7516920739
  0
ARC
  8
SURFACE
 62
7
  6
CONTINUOUS
 10
126.6226143756
 20
193.8856073124
 40
1.0
 50
270.0
 51
306.7516920739
  0
ARC
  8
SURFACE
 62
7
  6
CONTINUOUS
 10
120.2946143756
 20
193.8856073124
 40
1.0
 50
270.0
 51
355.0
  0
ARC
  8
SURFACE
 62
7
  6
CONTINUOUS
 10
107.5946143756
 20
193.8856073124
 40
1.0
 50
270.0
 51
355.0
  0
ARC
  8
SURFACE
 62
7
  6
CONTINUOUS
 10
94.8946143756
 20
193.8856073124
 40
1.0
 50
270.0
 51
355.0
  0
ARC
  8
SURFACE
 62
7
  6
CONTINUOUS
 10
100.2552767232
 20
193.8856073176
 40
0.9999999974
 50
233.2483081255
 51
270.0000000261
  0
ARC
  8
SURFACE
 62
7
  6
CONTINUOUS
 10
112.9552767232
 20
193.8856073176
 40
0.9999999974
 50
233.2483081255
 51
270.0000000261
  0
ARC
  8
SURFACE
 62
7
  6
CONTINUOUS
 10
125.6552767232
 20
193.8856073176
 40
0.9999999974
 50
233.2483081255
 51
270.0000000261
  0
ARC
  8
SURFACE
 62
7
  6
CONTINUOUS
 10
127.6975747199
 20
197.4794746877
 40
3.0
 50
4.9999980366
 51
14.2841762942
  0
ARC
  8
SURFACE
 62
7
  6
CONTINUOUS
 10
124.6243163793
 20
197.4794746877
 40
3.0
 50
165.7155686146
 51
175.0000019671
  0
ARC
  8
SURFACE
 62
7
  6
CONTINUOUS
 10
114.9975747199
 20
197.4794746877
 40
3.0
 50
4.9999980366
 51
14.2841762942
  0
ARC
  8
SURFACE
 62
7
  6
CONTINUOUS
 10
111.9243163793
 20
197.4794746877
 40
3.0
 50
165.7155686146
 51
175.0000019671
  0
ARC
  8
SURFACE
 62
7
  6
CONTINUOUS
 10
102.2975747199
 20
197.4794746877
 40
3.0
 50
4.9999980366
 51
14.2841762942
  0
ARC
  8
SURFACE
 62
7
  6
CONTINUOUS
 10
99.2243163793
 20
197.4794746877
 40
3.0
 50
165.7155686146
 51
175.0000019671
  0
ARC
  8
0
 62
7
  6
CONTINUOUS
 10
157.4272767237
 20
193.8856073124
 40
1.0
 50
229.9760150545
 51
270.0
  0
ARC
  8
SURFACE
 62
7
  6
CONTINUOUS
 10
144.7272767237
 20
193.8856073124
 40
1.0
 50
185.0
 51
270.0
  0
ARC
  8
SURFACE
 62
7
  6
CONTINUOUS
 10
132.0272767237
 20
193.8856073124
 40
1.0
 50
185.0
 51
270.0
  0
ARC
  8
SURFACE
 62
7
  6
CONTINUOUS
 10
166.2449455496
 20
194.0856073124
 40
1.0
 50
270.0
 51
360.0
  0
ARC
  8
SURFACE
 62
7
  6
CONTINUOUS
 10
166.2449455496
 20
193.8856073124
 40
1.0
 50
270.0
 51
360.0
  0
ARC
  8
SURFACE
 62
7
  6
CONTINUOUS
 10
139.3226143756
 20
193.8856073124
 40
1.0
 50
270.0
 51
306.7516920739
  0
ARC
  8
SURFACE
 62
7
  6
CONTINUOUS
 10
152.0226143756
 20
193.8856073124
 40
1.0
 50
270.0
 51
306.7516920739
  0
ARC
  8
SURFACE
 62
7
  6
CONTINUOUS
 10
158.3946143756
 20
193.8856073124
 40
1.0
 50
270.0
 51
355.0
  0
ARC
  8
SURFACE
 62
7
  6
CONTINUOUS
 10
145.6946143756
 20
193.8856073124
 40
1.0
 50
270.0
 51
355.0
  0
ARC
  8
SURFACE
 62
7
  6
CONTINUOUS
 10
132.9946143756
 20
193.8856073124
 40
1.0
 50
270.0
 51
355.0
  0
ARC
  8
SURFACE
 62
7
  6
CONTINUOUS
 10
138.3552767232
 20
193.8856073176
 40
0.9999999974
 50
233.2483081255
 51
270.0000000261
  0
ARC
  8
SURFACE
 62
7
  6
CONTINUOUS
 10
163.7552767232
 20
193.8856073176
 40
0.9999999974
 50
233.2483081255
 51
270.0000000261
  0
ARC
  8
SURFACE
 62
7
  6
CONTINUOUS
 10
151.0552767232
 20
193.8856073176
 40
0.9999999974
 50
233.2483081255
 51
270.0000000261
  0
ARC
  8
0
 62
7
  6
CONTINUOUS
 10
156.9449455496
 20
193.3112758414
 40
0.25
 50
180.0
 51
229.9760150545
  0
ARC
  8
SURFACE
 62
7
  6
CONTINUOUS
 10
162.7243163793
 20
197.4794746877
 40
3.0
 50
165.7155686146
 51
175.0000019671
  0
ARC
  8
SURFACE
 62
7
  6
CONTINUOUS
 10
153.0975747199
 20
197.4794746877
 40
3.0
 50
4.9999980366
 51
14.2841762942
  0
ARC
  8
SURFACE
 62
7
  6
CONTINUOUS
 10
150.0243163793
 20
197.4794746877
 40
3.0
 50
165.7155686146
 51
175.0000019671
  0
ARC
  8
SURFACE
 62
7
  6
CONTINUOUS
 10
140.3975747199
 20
197.4794746877
 40
3.0
 50
4.9999980366
 51
14.2841762942
  0
ARC
  8
SURFACE
 62
7
  6
CONTINUOUS
 10
137.3243163793
 20
197.4794746877
 40
3.0
 50
165.7155686146
 51
175.0000019671
  0
ARC
  8
SURFACE
 62
7
  6
CONTINUOUS
 10
166.2449455496
 20
200.0856073124
 40
1.0
 50
270.0
 51
360.0
  0
ARC
  8
SURFACE
 62
7
  6
CONTINUOUS
 10
160.7343192892
 20
202.8356073124
 40
0.25
 50
345.7158258888
 51
90.0
  0
ARC
  8
SURFACE
 62
7
  6
CONTINUOUS
 10
155.0875718101
 20
202.8356073124
 40
0.25
 50
90.0
 51
194.2841741112
  0
ARC
  8
SURFACE
 62
7
  6
CONTINUOUS
 10
148.0343192892
 20
202.8356073124
 40
0.25
 50
345.7158258888
 51
90.0
  0
ARC
  8
SURFACE
 62
7
  6
CONTINUOUS
 10
142.3875718101
 20
202.8356073124
 40
0.25
 50
90.0
 51
194.2841741112
  0
ARC
  8
SURFACE
 62
7
  6
CONTINUOUS
 10
135.3343192892
 20
202.8356073124
 40
0.25
 50
345.7158258888
 51
90.0
  0
ARC
  8
SURFACE
 62
7
  6
CONTINUOUS
 10
129.6875718101
 20
202.8356073124
 40
0.25
 50
90.0
 51
194.2841741112
  0
ARC
  8
SURFACE
 62
7
  6
CONTINUOUS
 10
122.6343192892
 20
202.8356073124
 40
0.25
 50
345.7158258888
 51
90.0
  0
ARC
  8
SURFACE
 62
7
  6
CONTINUOUS
 10
116.9875718101
 20
202.8356073124
 40
0.25
 50
90.0
 51
194.2841741112
  0
ARC
  8
SURFACE
 62
7
  6
CONTINUOUS
 10
109.9343192892
 20
202.8356073124
 40
0.25
 50
345.7158258888
 51
90.0
  0
ARC
  8
SURFACE
 62
7
  6
CONTINUOUS
 10
104.2875718101
 20
202.8356073124
 40
0.25
 50
90.0
 51
194.2841741112
  0
ARC
  8
SURFACE
 62
7
  6
CONTINUOUS
 10
97.2343192892
 20
202.8356073124
 40
0.25
 50
345.7158258888
 51
90.0
  0
ARC
  8
SURFACE
 62
7
  6
CONTINUOUS
 10
91.5875718101
 20
202.8356073124
 40
0.25
 50
90.0
 51
194.2841741112
  0
ARC
  8
SURFACE
 62
7
  6
CONTINUOUS
 10
166.9949455496
 20
202.8356073124
 40
0.25
 50
0.0
 51
90.0
  0
ARC
  8
SURFACE
 62
7
  6
CONTINUOUS
 10
180.6209099015
 20
98.6421720986
 40
5.35
 50
197.5847662302
 51
342.4152337803
  0
ARC
  8
SURFACE
 62
7
  6
CONTINUOUS
 10
178.5209099015
 20
99.9921720986
 40
3.0
 50
128.9352902541
 51
180.0
  0
CIRCLE
  8
0
 62
7
  6
CONTINUOUS
 10
180.6209099015
 20
98.6421720986
 40
2.65
  0
ARC
  8
SURFACE
 62
7
  6
CONTINUOUS
 10
180.7209099015
 20
106.9119252494
 40
1.0
 50
308.9352902541
 51
360.0
  0
ARC
  8
SURFACE
 62
7
  6
CONTINUOUS
 10
176.7209099015
 20
111.0687146266
 40
1.0
 50
180.0
 51
252.0
  0
ARC
  8
SURFACE
 62
7
  6
CONTINUOUS
 10
180.7209099015
 20
107.6661113932
 40
1.0
 50
0.0
 51
72.0
  0
ARC
  8
SURFACE
 62
7
  6
CONTINUOUS
 10
176.7209099015
 20
111.6156295706
 40
1.0
 50
108.0
 51
180.0
  0
ARC
  8
SURFACE
 62
7
  6
CONTINUOUS
 10
178.5209099015
 20
122.6921720986
 40
3.0
 50
180.0
 51
231.0647097459
  0
ARC
  8
SURFACE
 62
7
  6
CONTINUOUS
 10
180.7209099015
 20
115.018232804
 40
1.0
 50
288.0
 51
360.0
  0
ARC
  8
SURFACE
 62
7
  6
CONTINUOUS
 10
180.7209099015
 20
115.7724189477
 40
1.0
 50
0.0
 51
51.0647097459
  0
ARC
  8
SURFACE
 62
7
  6
CONTINUOUS
 10
180.6209099015
 20
124.0421720986
 40
5.6
 50
300.7782787869
 51
324.4451610848
  0
ARC
  8
SURFACE
 62
7
  6
CONTINUOUS
 10
180.6209099015
 20
124.0421720986
 40
5.35
 50
17.5853915865
 51
162.4152337697
  0
CIRCLE
  8
0
 62
7
  6
CONTINUOUS
 10
180.6209099015
 20
124.0421720986
 40
2.65
  0
ARC
  8
SURFACE
 62
7
  6
CONTINUOUS
 10
184.5099605727
 20
117.5126020609
 40
2.0
 50
120.7782795299
 51
154.9999942076
  0
ARC
  8
SURFACE
 62
7
  6
CONTINUOUS
 10
182.7209099015
 20
116.0421720986
 40
1.0
 50
155.0
 51
180.0
  0
ARC
  8
SURFACE
 62
7
  6
CONTINUOUS
 10
185.4209099015
 20
120.6114287389
 40
0.3
 50
0.0000409841
 51
144.4451197832
  0
ENDSEC
  0
EOF
